  0
SECTION
  2
HEADER
  9
$ACADVER
  1
AC1015
  9
$ACADMAINTVER
 70
    13
  9
$DWGCODEPAGE
  3
ANSI_932
  9
$INSBASE
 10
267.0
 20
194.8999999999998
 30
0.0
  9
$EXTMIN
 10
433.9966216520333
 20
163.6908237492789
 30
-0.000000000000013
  9
$EXTMAX
 10
16382.6660542547
 20
11242.27663824599
 30
0.0000000000000023
  9
$LIMMIN
 10
0.0
 20
0.0
  9
$LIMMAX
 10
16800.0
 20
11880.0
  9
$ORTHOMODE
 70
     0
  9
$REGENMODE
 70
     1
  9
$FILLMODE
 70
     1
  9
$QTEXTMODE
 70
     0
  9
$MIRRTEXT
 70
     0
  9
$LTSCALE
 40
40.0
  9
$ATTMODE
 70
     1
  9
$TEXTSIZE
 40
0.2
  9
$TRACEWID
 40
0.05
  9
$TEXTSTYLE
  7
00
  9
$CLAYER
  8
SUNPOU
  9
$CELTYPE
  6
ByLayer
  9
$CECOLOR
 62
   256
  9
$CELTSCALE
 40
1.0
  9
$DISPSILH
 70
     0
  9
$DIMSCALE
 40
30.0
  9
$DIMASZ
 40
0.5
  9
$DIMEXO
 40
1.0
  9
$DIMDLI
 40
7.0
  9
$DIMRND
 40
0.0
  9
$DIMDLE
 40
3.0
  9
$DIMEXE
 40
1.5
  9
$DIMTP
 40
0.0
  9
$DIMTM
 40
0.0
  9
$DIMTXT
 40
3.0
  9
$DIMCEN
 40
0.0
  9
$DIMTSZ
 40
0.0
  9
$DIMTOL
 70
     0
  9
$DIMLIM
 70
     0
  9
$DIMTIH
 70
     0
  9
$DIMTOH
 70
     0
  9
$DIMSE1
 70
     0
  9
$DIMSE2
 70
     0
  9
$DIMTAD
 70
     1
  9
$DIMZIN
 70
     8
  9
$DIMBLK
  1
DOT
  9
$DIMASO
 70
     1
  9
$DIMSHO
 70
     0
  9
$DIMPOST
  1

  9
$DIMAPOST
  1

  9
$DIMALT
 70
     0
  9
$DIMALTD
 70
     2
  9
$DIMALTF
 40
25.4
  9
$DIMLFAC
 40
1.0
  9
$DIMTOFL
 70
     1
  9
$DIMTVP
 40
0.0
  9
$DIMTIX
 70
     0
  9
$DIMSOXD
 70
     0
  9
$DIMSAH
 70
     1
  9
$DIMBLK1
  1
DOT
  9
$DIMBLK2
  1
DOT
  9
$DIMSTYLE
  2
SUNPOU_図面名
  9
$DIMCLRD
 70
   256
  9
$DIMCLRE
 70
   256
  9
$DIMCLRT
 70
   256
  9
$DIMTFAC
 40
1.0
  9
$DIMGAP
 40
1.5
  9
$DIMJUST
 70
     0
  9
$DIMSD1
 70
     0
  9
$DIMSD2
 70
     0
  9
$DIMTOLJ
 70
     1
  9
$DIMTZIN
 70
     0
  9
$DIMALTZ
 70
     0
  9
$DIMALTTZ
 70
     0
  9
$DIMUPT
 70
     0
  9
$DIMDEC
 70
     4
  9
$DIMTDEC
 70
     4
  9
$DIMALTU
 70
     2
  9
$DIMALTTD
 70
     2
  9
$DIMTXSTY
  7
STANDARD
  9
$DIMAUNIT
 70
     0
  9
$DIMADEC
 70
     0
  9
$DIMALTRND
 40
0.0
  9
$DIMAZIN
 70
     0
  9
$DIMDSEP
 70
    46
  9
$DIMATFIT
 70
     3
  9
$DIMFRAC
 70
     0
  9
$DIMLDRBLK
  1
DOT
  9
$DIMLUNIT
 70
     2
  9
$DIMLWD
 70
    -2
  9
$DIMLWE
 70
    -2
  9
$DIMTMOVE
 70
     0
  9
$LUNITS
 70
     2
  9
$LUPREC
 70
     2
  9
$SKETCHINC
 40
0.1
  9
$FILLETRAD
 40
0.0
  9
$AUNITS
 70
     0
  9
$AUPREC
 70
     0
  9
$MENU
  1
A:\TIGER\MENU\TIGER
  9
$ELEVATION
 40
0.0
  9
$PELEVATION
 40
0.0
  9
$THICKNESS
 40
0.0
  9
$LIMCHECK
 70
     0
  9
$CHAMFERA
 40
0.0
  9
$CHAMFERB
 40
0.0
  9
$CHAMFERC
 40
0.0
  9
$CHAMFERD
 40
0.0
  9
$SKPOLY
 70
     0
  9
$TDCREATE
 40
2450266.571064815
  9
$TDUCREATE
 40
2450266.196064815
  9
$TDUPDATE
 40
2456332.381519999
  9
$TDUUPDATE
 40
2456332.006519999
  9
$TDINDWG
 40
0.2064371875
  9
$TDUSRTIMER
 40
0.2064371875
  9
$USRTIMER
 70
     1
  9
$ANGBASE
 50
0.0
  9
$ANGDIR
 70
     0
  9
$PDMODE
 70
     0
  9
$PDSIZE
 40
0.0
  9
$PLINEWID
 40
0.0
  9
$SPLFRAME
 70
     0
  9
$SPLINETYPE
 70
     6
  9
$SPLINESEGS
 70
     8
  9
$HANDSEED
  5
1AEB4
  9
$SURFTAB1
 70
     6
  9
$SURFTAB2
 70
     6
  9
$SURFTYPE
 70
     6
  9
$SURFU
 70
     6
  9
$SURFV
 70
     6
  9
$UCSBASE
  2

  9
$UCSNAME
  2

  9
$UCSORG
 10
0.0
 20
0.0
 30
0.0
  9
$UCSXDIR
 10
1.0
 20
0.0
 30
0.0
  9
$UCSYDIR
 10
0.0
 20
1.0
 30
0.0
  9
$UCSORTHOREF
  2

  9
$UCSORTHOVIEW
 70
     0
  9
$UCSORGTOP
 10
0.0
 20
0.0
 30
0.0
  9
$UCSORGBOTTOM
 10
0.0
 20
0.0
 30
0.0
  9
$UCSORGLEFT
 10
0.0
 20
0.0
 30
0.0
  9
$UCSORGRIGHT
 10
0.0
 20
0.0
 30
0.0
  9
$UCSORGFRONT
 10
0.0
 20
0.0
 30
0.0
  9
$UCSORGBACK
 10
0.0
 20
0.0
 30
0.0
  9
$PUCSBASE
  2

  9
$PUCSNAME
  2

  9
$PUCSORG
 10
0.0
 20
0.0
 30
0.0
  9
$PUCSXDIR
 10
1.0
 20
0.0
 30
0.0
  9
$PUCSYDIR
 10
0.0
 20
1.0
 30
0.0
  9
$PUCSORTHOREF
  2

  9
$PUCSORTHOVIEW
 70
     0
  9
$PUCSORGTOP
 10
0.0
 20
0.0
 30
0.0
  9
$PUCSORGBOTTOM
 10
0.0
 20
0.0
 30
0.0
  9
$PUCSORGLEFT
 10
0.0
 20
0.0
 30
0.0
  9
$PUCSORGRIGHT
 10
0.0
 20
0.0
 30
0.0
  9
$PUCSORGFRONT
 10
0.0
 20
0.0
 30
0.0
  9
$PUCSORGBACK
 10
0.0
 20
0.0
 30
0.0
  9
$USERI1
 70
     3
  9
$USERI2
 70
     0
  9
$USERI3
 70
     0
  9
$USERI4
 70
     0
  9
$USERI5
 70
  1103
  9
$USERR1
 40
0.0
  9
$USERR2
 40
1.0
  9
$USERR3
 40
0.0
  9
$USERR4
 40
0.0
  9
$USERR5
 40
0.0
  9
$WORLDVIEW
 70
     1
  9
$SHADEDGE
 70
     3
  9
$SHADEDIF
 70
    70
  9
$TILEMODE
 70
     1
  9
$MAXACTVP
 70
    16
  9
$PINSBASE
 10
0.0
 20
0.0
 30
0.0
  9
$PLIMCHECK
 70
     0
  9
$PEXTMIN
 10
1.000000000000000E+20
 20
1.000000000000000E+20
 30
1.000000000000000E+20
  9
$PEXTMAX
 10
-1.000000000000000E+20
 20
-1.000000000000000E+20
 30
-1.000000000000000E+20
  9
$PLIMMIN
 10
0.0
 20
0.0
  9
$PLIMMAX
 10
12.0
 20
9.0
  9
$UNITMODE
 70
     0
  9
$VISRETAIN
 70
     0
  9
$PLINEGEN
 70
     1
  9
$PSLTSCALE
 70
     0
  9
$TREEDEPTH
 70
  3020
  9
$CMLSTYLE
  2
Standard
  9
$CMLJUST
 70
     0
  9
$CMLSCALE
 40
1.0
  9
$PROXYGRAPHICS
 70
     1
  9
$MEASUREMENT
 70
     0
  9
$CELWEIGHT
370
    -1
  9
$ENDCAPS
280
     0
  9
$JOINSTYLE
280
     0
  9
$LWDISPLAY
290
     0
  9
$INSUNITS
 70
     0
  9
$HYPERLINKBASE
  1

  9
$STYLESHEET
  1

  9
$XEDIT
290
     1
  9
$CEPSNTYPE
380
     0
  9
$PSTYLEMODE
290
     1
  9
$FINGERPRINTGUID
  2
{EDE80F08-17F4-4376-8CEC-A54E2DCA9B93}
  9
$VERSIONGUID
  2
{FBF13F80-6A2E-4C31-929D-19E5CDB3C4A6}
  9
$EXTNAMES
290
     1
  9
$PSVPSCALE
 40
0.0
  9
$OLESTARTUP
290
     0
  0
ENDSEC
  0
SECTION
  2
CLASSES
  0
CLASS
  1
ACDBDICTIONARYWDFLT
  2
AcDbDictionaryWithDefault
  3
AutoCAD 2000
 90
        0
280
     0
281
     0
  0
CLASS
  1
ACDBPLACEHOLDER
  2
AcDbPlaceHolder
  3
AutoCAD 2000
 90
        0
280
     0
281
     0
  0
CLASS
  1
LAYOUT
  2
AcDbLayout
  3
AutoCAD 2000
 90
        0
280
     0
281
     0
  0
CLASS
  1
DICTIONARYVAR
  2
AcDbDictionaryVar
  3
AutoCAD 2000
 90
        0
280
     0
281
     0
  0
ENDSEC
  0
SECTION
  2
TABLES
  0
TABLE
  2
VPORT
  5
1A644
330
0
100
AcDbSymbolTable
 70
     2
  0
VPORT
  5
1AEB3
330
1A644
100
AcDbSymbolTableRecord
100
AcDbViewportTableRecord
  2
*Active
 70
     0
 10
0.0
 20
0.0
 11
1.0
 21
1.0
 12
8408.331337953367
 22
5702.983730997637
 13
0.0
 23
0.0
 14
1.0
 24
1.0
 15
0.0
 25
0.0
 16
0.0
 26
0.0
 36
1.0
 17
0.0
 27
0.0
 37
0.0
 40
11163.50538397298
 41
1.527918781725888
 42
50.0
 43
0.0
 44
0.0
 50
0.0
 51
0.0
 71
     0
 72
 10000
 73
     1
 74
     0
 75
     0
 76
     0
 77
     0
 78
     0
281
     0
 65
     1
110
0.0
120
0.0
130
0.0
111
1.0
121
0.0
131
0.0
112
0.0
122
1.0
132
0.0
 79
     0
146
0.0
  0
ENDTAB
  0
TABLE
  2
LTYPE
  5
1A641
330
0
100
AcDbSymbolTable
 70
     7
  0
LTYPE
  5
1A64F
330
1A641
100
AcDbSymbolTableRecord
100
AcDbLinetypeTableRecord
  2
ByBlock
 70
     0
  3

 72
    65
 73
     0
 40
0.0
  0
LTYPE
  5
1A650
330
1A641
100
AcDbSymbolTableRecord
100
AcDbLinetypeTableRecord
  2
ByLayer
 70
     0
  3

 72
    65
 73
     0
 40
0.0
  0
LTYPE
  5
1A651
330
1A641
100
AcDbSymbolTableRecord
100
AcDbLinetypeTableRecord
  2
CONTINUOUS
 70
     0
  3
実線
 72
    65
 73
     0
 40
0.0
  0
LTYPE
  5
1A661
330
1A641
100
AcDbSymbolTableRecord
100
AcDbLinetypeTableRecord
  2
TENSEN-
 70
     0
  3

 72
    65
 73
     2
 40
0.6000000000000001
 49
0.2
 74
     0
 49
-0.4
 74
     0
  0
LTYPE
  5
1A662
330
1A641
100
AcDbSymbolTableRecord
100
AcDbLinetypeTableRecord
  2
1PL-LL
 70
     0
  3

 72
    65
 73
     4
 40
106.0
 49
100.0
 74
     0
 49
-2.0
 74
     0
 49
2.0
 74
     0
 49
-2.0
 74
     0
  0
LTYPE
  5
1A663
330
1A641
100
AcDbSymbolTableRecord
100
AcDbLinetypeTableRecord
  2
1PL-M
 70
     0
  3

 72
    65
 73
     4
 40
15.0
 49
12.0
 74
     0
 49
-1.0
 74
     0
 49
1.0
 74
     0
 49
-1.0
 74
     0
  0
LTYPE
  5
1A664
330
1A641
100
AcDbSymbolTableRecord
100
AcDbLinetypeTableRecord
  2
1PL-S
 70
     0
  3

 72
    65
 73
     4
 40
4.0
 49
2.5
 74
     0
 49
-0.5
 74
     0
 49
0.5
 74
     0
 49
-0.5
 74
     0
  0
LTYPE
  5
1A665
330
1A641
100
AcDbSymbolTableRecord
100
AcDbLinetypeTableRecord
  2
2PL-L
 70
     0
  3

 72
    65
 73
     6
 40
60.0
 49
50.0
 74
     0
 49
-2.0
 74
     0
 49
2.0
 74
     0
 49
-2.0
 74
     0
 49
2.0
 74
     0
 49
-2.0
 74
     0
  0
LTYPE
  5
1A666
330
1A641
100
AcDbSymbolTableRecord
100
AcDbLinetypeTableRecord
  2
1PL-12
 70
     0
  3

 72
    65
 73
     4
 40
15.0
 49
12.0
 74
     0
 49
-1.0
 74
     0
 49
1.0
 74
     0
 49
-1.0
 74
     0
  0
ENDTAB
  0
TABLE
  2
LAYER
  5
1A63E
330
0
100
AcDbSymbolTable
 70
    20
  0
LAYER
  5
1A64C
330
1A63E
100
AcDbSymbolTableRecord
100
AcDbLayerTableRecord
  2
0
 70
     0
 62
     7
  6
CONTINUOUS
370
    -3
390
1A64B
  0
LAYER
  5
1A65E
330
1A63E
100
AcDbSymbolTableRecord
100
AcDbLayerTableRecord
  2
SUNPOU
 70
     0
 62
     4
  6
CONTINUOUS
370
    -3
390
1A64B
  0
LAYER
  5
1A667
330
1A63E
100
AcDbSymbolTableRecord
100
AcDbLayerTableRecord
  2
U1
 70
     0
 62
     3
  6
CONTINUOUS
370
    -3
390
1A64B
  0
LAYER
  5
1A668
330
1A63E
100
AcDbSymbolTableRecord
100
AcDbLayerTableRecord
  2
U3
 70
     0
 62
     6
  6
CONTINUOUS
370
    -3
390
1A64B
  0
LAYER
  5
1A669
330
1A63E
100
AcDbSymbolTableRecord
100
AcDbLayerTableRecord
  2
HIKIDASHI
 70
     0
 62
     6
  6
CONTINUOUS
370
    -3
390
1A64B
  0
LAYER
  5
1A66A
330
1A63E
100
AcDbSymbolTableRecord
100
AcDbLayerTableRecord
  2
TENSEN-1
 70
     0
 62
     6
  6
TENSEN-
370
    -3
390
1A64B
  0
LAYER
  5
1A66B
330
1A63E
100
AcDbSymbolTableRecord
100
AcDbLayerTableRecord
  2
1PL-S1
 70
     0
 62
     6
  6
1PL-S
370
    -3
390
1A64B
  0
LAYER
  5
1A66C
330
1A63E
100
AcDbSymbolTableRecord
100
AcDbLayerTableRecord
  2
1PL-M1
 70
     0
 62
     6
  6
1PL-M
370
    -3
390
1A64B
  0
LAYER
  5
1A66D
330
1A63E
100
AcDbSymbolTableRecord
100
AcDbLayerTableRecord
  2
NAME
 70
     0
 62
    20
  6
CONTINUOUS
370
    -3
390
1A64B
  0
LAYER
  5
1A66E
330
1A63E
100
AcDbSymbolTableRecord
100
AcDbLayerTableRecord
  2
FILENAME
 70
     0
 62
     7
  6
CONTINUOUS
370
    -3
390
1A64B
  0
LAYER
  5
1A66F
330
1A63E
100
AcDbSymbolTableRecord
100
AcDbLayerTableRecord
  2
CENTER
 70
     0
 62
     6
  6
1PL-LL
370
    -3
390
1A64B
  0
LAYER
  5
1A670
330
1A63E
100
AcDbSymbolTableRecord
100
AcDbLayerTableRecord
  2
KISO
 70
     0
 62
     2
  6
CONTINUOUS
370
    -3
390
1A64B
  0
LAYER
  5
1A671
330
1A63E
100
AcDbSymbolTableRecord
100
AcDbLayerTableRecord
  2
BOLT
 70
     0
 62
     4
  6
CONTINUOUS
370
    -3
390
1A64B
  0
LAYER
  5
1A672
330
1A63E
100
AcDbSymbolTableRecord
100
AcDbLayerTableRecord
  2
YANE
 70
     0
 62
     1
  6
1PL-12
370
    -3
390
1A64B
  0
LAYER
  5
1A673
330
1A63E
100
AcDbSymbolTableRecord
100
AcDbLayerTableRecord
  2
HATCH
 70
     0
 62
     1
  6
CONTINUOUS
370
    -3
390
1A64B
  0
LAYER
  5
1A674
330
1A63E
100
AcDbSymbolTableRecord
100
AcDbLayerTableRecord
  2
HASHIRA
 70
     0
 62
     3
  6
CONTINUOUS
370
    -3
390
1A64B
  0
LAYER
  5
1A675
330
1A63E
100
AcDbSymbolTableRecord
100
AcDbLayerTableRecord
  2
YODOROGO
 70
     0
 62
   130
  6
CONTINUOUS
370
    -3
390
1A64B
  0
LAYER
  5
1A676
330
1A63E
100
AcDbSymbolTableRecord
100
AcDbLayerTableRecord
  2
WAKUSEN-01
 70
     0
 62
    50
  6
CONTINUOUS
370
    -3
390
1A64B
  0
LAYER
  5
1A677
330
1A63E
100
AcDbSymbolTableRecord
100
AcDbLayerTableRecord
  2
WAKUSEN-02
 70
     0
 62
   130
  6
CONTINUOUS
370
    -3
390
1A64B
  0
LAYER
  5
1A678
330
1A63E
100
AcDbSymbolTableRecord
100
AcDbLayerTableRecord
  2
WAKUMOJI-01
 70
     0
 62
   130
  6
CONTINUOUS
370
    -3
390
1A64B
  0
ENDTAB
  0
TABLE
  2
STYLE
  5
1A63F
330
0
100
AcDbSymbolTable
 70
     5
  0
STYLE
  5
1A64D
330
1A63F
100
AcDbSymbolTableRecord
100
AcDbTextStyleTableRecord
  2
STANDARD
 70
     0
 40
3.0
 41
1.0
 50
0.0
 71
     0
 42
0.2
  3
ROMANS
  4
EXTFONT
  0
STYLE
  5
1A65F
330
1A63F
100
AcDbSymbolTableRecord
100
AcDbTextStyleTableRecord
  2
00
 70
     0
 40
0.0
 41
0.6666666666666666
 50
0.0
 71
     0
 42
0.2
  3
ROMANS
  4
BIGFONT
  0
STYLE
  5
1A679
330
1A63F
100
AcDbSymbolTableRecord
100
AcDbTextStyleTableRecord
  2
01
 70
     0
 40
3.0
 41
1.0
 50
0.0
 71
     0
 42
0.2
  3
ROMANS
  4
BIGFONT
  0
STYLE
  5
1A67A
330
1A63F
100
AcDbSymbolTableRecord
100
AcDbTextStyleTableRecord
  2
WAKUMOJI
 70
     0
 40
3.0
 41
1.0
 50
0.0
 71
     0
 42
3.0
  3
SIMPLEX
  4
BIGFONT
  0
STYLE
  5
1A67B
330
1A63F
100
AcDbSymbolTableRecord
100
AcDbTextStyleTableRecord
  2
FILENAME
 70
     0
 40
100.0
 41
1.0
 50
0.0
 71
     0
 42
100.0
  3
romans
  4
bigfont
  0
ENDTAB
  0
TABLE
  2
VIEW
  5
1A642
330
0
100
AcDbSymbolTable
 70
     0
  0
ENDTAB
  0
TABLE
  2
UCS
  5
1A643
330
0
100
AcDbSymbolTable
 70
     0
  0
ENDTAB
  0
TABLE
  2
APPID
  5
1A645
330
0
100
AcDbSymbolTable
 70
     4
  0
APPID
  5
1A64E
330
1A645
100
AcDbSymbolTableRecord
100
AcDbRegAppTableRecord
  2
ACAD
 70
     0
  0
APPID
  5
1A67C
330
1A645
100
AcDbSymbolTableRecord
100
AcDbRegAppTableRecord
  2
AUTOCAD_POSTSCRIPT_FIGURE
 70
     0
  0
APPID
  5
1A67D
330
1A645
100
AcDbSymbolTableRecord
100
AcDbRegAppTableRecord
  2
ACAD_EXEMPT_FROM_CAD_STANDARDS
 70
     0
  0
APPID
  5
1A67E
330
1A645
100
AcDbSymbolTableRecord
100
AcDbRegAppTableRecord
  2
ACAD_PSEXT
 70
     0
  0
ENDTAB
  0
TABLE
  2
DIMSTYLE
  5
1A646
330
0
100
AcDbSymbolTable
 70
     1
100
AcDbDimStyleTable
 71
     0
  0
DIMSTYLE
105
1A67F
330
1A646
100
AcDbSymbolTableRecord
100
AcDbDimStyleTableRecord
  2
SUNPOU_図面名
 70
     0
 40
30.0
 41
0.5
 42
1.0
 43
7.0
 44
1.5
 46
3.0
 73
     0
 74
     0
 77
     1
 78
     8
140
3.0
141
0.0
147
1.5
172
     1
173
     1
176
   256
177
   256
178
   256
271
     2
272
     2
279
     2
284
     8
285
     8
286
     8
340
1A65F
  0
ENDTAB
  0
TABLE
  2
BLOCK_RECORD
  5
1A63D
330
0
100
AcDbSymbolTable
 70
    49
  0
BLOCK_RECORD
  5
1A65A
330
1A63D
100
AcDbSymbolTableRecord
100
AcDbBlockTableRecord
  2
*Model_Space
340
1A65D
  0
BLOCK_RECORD
  5
1A656
330
1A63D
100
AcDbSymbolTableRecord
100
AcDbBlockTableRecord
  2
*Paper_Space
340
1A659
  0
BLOCK_RECORD
  5
1A684
330
1A63D
100
AcDbSymbolTableRecord
100
AcDbBlockTableRecord
  2
$MODEL_SPACE
340
0
  0
BLOCK_RECORD
  5
1A687
330
1A63D
100
AcDbSymbolTableRecord
100
AcDbBlockTableRecord
  2
$PAPER_SPACE
340
0
  0
BLOCK_RECORD
  5
1A68A
330
1A63D
100
AcDbSymbolTableRecord
100
AcDbBlockTableRecord
  2
DOT
340
0
  0
BLOCK_RECORD
  5
1A692
330
1A63D
100
AcDbSymbolTableRecord
100
AcDbBlockTableRecord
  2
*U3
340
0
  0
BLOCK_RECORD
  5
1A696
330
1A63D
100
AcDbSymbolTableRecord
100
AcDbBlockTableRecord
  2
*U4
340
0
  0
BLOCK_RECORD
  5
1A69A
330
1A63D
100
AcDbSymbolTableRecord
100
AcDbBlockTableRecord
  2
*U5
340
0
  0
BLOCK_RECORD
  5
1A69E
330
1A63D
100
AcDbSymbolTableRecord
100
AcDbBlockTableRecord
  2
*U6
340
0
  0
BLOCK_RECORD
  5
1A6A2
330
1A63D
100
AcDbSymbolTableRecord
100
AcDbBlockTableRecord
  2
*U7
340
0
  0
BLOCK_RECORD
  5
1A6A6
330
1A63D
100
AcDbSymbolTableRecord
100
AcDbBlockTableRecord
  2
*U8
340
0
  0
BLOCK_RECORD
  5
1A6AA
330
1A63D
100
AcDbSymbolTableRecord
100
AcDbBlockTableRecord
  2
*U9
340
0
  0
BLOCK_RECORD
  5
1A6AE
330
1A63D
100
AcDbSymbolTableRecord
100
AcDbBlockTableRecord
  2
*U10
340
0
  0
BLOCK_RECORD
  5
1A6B2
330
1A63D
100
AcDbSymbolTableRecord
100
AcDbBlockTableRecord
  2
*U11
340
0
  0
BLOCK_RECORD
  5
1A6B6
330
1A63D
100
AcDbSymbolTableRecord
100
AcDbBlockTableRecord
  2
*U12
340
0
  0
BLOCK_RECORD
  5
1A6BA
330
1A63D
100
AcDbSymbolTableRecord
100
AcDbBlockTableRecord
  2
*U13
340
0
  0
BLOCK_RECORD
  5
1A6BE
330
1A63D
100
AcDbSymbolTableRecord
100
AcDbBlockTableRecord
  2
*U14
340
0
  0
BLOCK_RECORD
  5
1A6C2
330
1A63D
100
AcDbSymbolTableRecord
100
AcDbBlockTableRecord
  2
*U15
340
0
  0
BLOCK_RECORD
  5
1A6C6
330
1A63D
100
AcDbSymbolTableRecord
100
AcDbBlockTableRecord
  2
*U16
340
0
  0
BLOCK_RECORD
  5
1A6CA
330
1A63D
100
AcDbSymbolTableRecord
100
AcDbBlockTableRecord
  2
*U17
340
0
  0
BLOCK_RECORD
  5
1A6CE
330
1A63D
100
AcDbSymbolTableRecord
100
AcDbBlockTableRecord
  2
*U18
340
0
  0
BLOCK_RECORD
  5
1A6D2
330
1A63D
100
AcDbSymbolTableRecord
100
AcDbBlockTableRecord
  2
*U19
340
0
  0
BLOCK_RECORD
  5
1A6D6
330
1A63D
100
AcDbSymbolTableRecord
100
AcDbBlockTableRecord
  2
*U20
340
0
  0
BLOCK_RECORD
  5
1A6DA
330
1A63D
100
AcDbSymbolTableRecord
100
AcDbBlockTableRecord
  2
*U21
340
0
  0
BLOCK_RECORD
  5
1A6DE
330
1A63D
100
AcDbSymbolTableRecord
100
AcDbBlockTableRecord
  2
*U22
340
0
  0
BLOCK_RECORD
  5
1A6E2
330
1A63D
100
AcDbSymbolTableRecord
100
AcDbBlockTableRecord
  2
*U23
340
0
  0
BLOCK_RECORD
  5
1A6E6
330
1A63D
100
AcDbSymbolTableRecord
100
AcDbBlockTableRecord
  2
*U24
340
0
  0
BLOCK_RECORD
  5
1A6EA
330
1A63D
100
AcDbSymbolTableRecord
100
AcDbBlockTableRecord
  2
*U25
340
0
  0
BLOCK_RECORD
  5
1A6EE
330
1A63D
100
AcDbSymbolTableRecord
100
AcDbBlockTableRecord
  2
*U26
340
0
  0
BLOCK_RECORD
  5
1A6F2
330
1A63D
100
AcDbSymbolTableRecord
100
AcDbBlockTableRecord
  2
*U27
340
0
  0
BLOCK_RECORD
  5
1A6F6
330
1A63D
100
AcDbSymbolTableRecord
100
AcDbBlockTableRecord
  2
*U28
340
0
  0
BLOCK_RECORD
  5
1A6FA
330
1A63D
100
AcDbSymbolTableRecord
100
AcDbBlockTableRecord
  2
*U29
340
0
  0
BLOCK_RECORD
  5
1A6FE
330
1A63D
100
AcDbSymbolTableRecord
100
AcDbBlockTableRecord
  2
*U30
340
0
  0
BLOCK_RECORD
  5
1A702
330
1A63D
100
AcDbSymbolTableRecord
100
AcDbBlockTableRecord
  2
*U31
340
0
  0
BLOCK_RECORD
  5
1A706
330
1A63D
100
AcDbSymbolTableRecord
100
AcDbBlockTableRecord
  2
*U32
340
0
  0
BLOCK_RECORD
  5
1A70A
330
1A63D
100
AcDbSymbolTableRecord
100
AcDbBlockTableRecord
  2
*U33
340
0
  0
BLOCK_RECORD
  5
1A70E
330
1A63D
100
AcDbSymbolTableRecord
100
AcDbBlockTableRecord
  2
*U34
340
0
  0
BLOCK_RECORD
  5
1A712
330
1A63D
100
AcDbSymbolTableRecord
100
AcDbBlockTableRecord
  2
*U35
340
0
  0
BLOCK_RECORD
  5
1A716
330
1A63D
100
AcDbSymbolTableRecord
100
AcDbBlockTableRecord
  2
*U36
340
0
  0
BLOCK_RECORD
  5
1A71A
330
1A63D
100
AcDbSymbolTableRecord
100
AcDbBlockTableRecord
  2
*U37
340
0
  0
BLOCK_RECORD
  5
1A71E
330
1A63D
100
AcDbSymbolTableRecord
100
AcDbBlockTableRecord
  2
*U38
340
0
  0
BLOCK_RECORD
  5
1A722
330
1A63D
100
AcDbSymbolTableRecord
100
AcDbBlockTableRecord
  2
*U39
340
0
  0
BLOCK_RECORD
  5
1A726
330
1A63D
100
AcDbSymbolTableRecord
100
AcDbBlockTableRecord
  2
*U40
340
0
  0
BLOCK_RECORD
  5
1A72A
330
1A63D
100
AcDbSymbolTableRecord
100
AcDbBlockTableRecord
  2
*U41
340
0
  0
BLOCK_RECORD
  5
1A72E
330
1A63D
100
AcDbSymbolTableRecord
100
AcDbBlockTableRecord
  2
*U42
340
0
  0
BLOCK_RECORD
  5
1A732
330
1A63D
100
AcDbSymbolTableRecord
100
AcDbBlockTableRecord
  2
*U43
340
0
  0
BLOCK_RECORD
  5
1A736
330
1A63D
100
AcDbSymbolTableRecord
100
AcDbBlockTableRecord
  2
*U44
340
0
  0
BLOCK_RECORD
  5
1A73A
330
1A63D
100
AcDbSymbolTableRecord
100
AcDbBlockTableRecord
  2
*U45
340
0
  0
BLOCK_RECORD
  5
1A73E
330
1A63D
100
AcDbSymbolTableRecord
100
AcDbBlockTableRecord
  2
*U46
340
0
  0
BLOCK_RECORD
  5
1A742
330
1A63D
100
AcDbSymbolTableRecord
100
AcDbBlockTableRecord
  2
*U47
340
0
  0
ENDTAB
  0
ENDSEC
  0
SECTION
  2
BLOCKS
  0
BLOCK
  5
1A65B
330
1A65A
100
AcDbEntity
  8
0
100
AcDbBlockBegin
  2
*Model_Space
 70
     0
 10
0.0
 20
0.0
 30
0.0
  3
*Model_Space
  1

  0
ENDBLK
  5
1A65C
330
1A65A
100
AcDbEntity
  8
0
100
AcDbBlockEnd
  0
BLOCK
  5
1A657
330
1A656
100
AcDbEntity
 67
     1
  8
0
100
AcDbBlockBegin
  2
*Paper_Space
 70
     0
 10
0.0
 20
0.0
 30
0.0
  3
*Paper_Space
  1

  0
ENDBLK
  5
1A658
330
1A656
100
AcDbEntity
 67
     1
  8
0
100
AcDbBlockEnd
  0
BLOCK
  5
1A685
330
1A684
100
AcDbEntity
  8
0
100
AcDbBlockBegin
  2
$MODEL_SPACE
 70
     0
 10
0.0
 20
0.0
 30
0.0
  3
$MODEL_SPACE
  1

  0
ENDBLK
  5
1A686
330
1A684
100
AcDbEntity
  8
0
100
AcDbBlockEnd
  0
BLOCK
  5
1A688
330
1A687
100
AcDbEntity
  8
0
100
AcDbBlockBegin
  2
$PAPER_SPACE
 70
     0
 10
0.0
 20
0.0
 30
0.0
  3
$PAPER_SPACE
  1

  0
ENDBLK
  5
1A689
330
1A687
100
AcDbEntity
  8
0
100
AcDbBlockEnd
  0
BLOCK
  5
1A68B
330
1A68A
100
AcDbEntity
  8
0
100
AcDbBlockBegin
  2
DOT
 70
     0
 10
0.0
 20
0.0
 30
0.0
  3
DOT
  1

  0
LWPOLYLINE
  5
1A68C
330
1A68A
100
AcDbEntity
  8
0
  6
ByBlock
 62
     0
100
AcDbPolyline
 90
        2
 70
     1
 43
0.75
 10
-0.375
 20
0.0
 42
1.0
 10
0.375
 20
0.0
 42
1.0
  0
LINE
  5
1A690
330
1A68A
100
AcDbEntity
  8
0
  6
ByBlock
 62
     0
100
AcDbLine
 10
-0.75
 20
0.0
 30
0.0
 11
-1.5
 21
0.0
 31
0.0
  0
ENDBLK
  5
1A691
330
1A68A
100
AcDbEntity
  8
0
100
AcDbBlockEnd
  0
BLOCK
  5
1A693
330
1A692
100
AcDbEntity
  8
0
100
AcDbBlockBegin
  2
*U3
 70
     1
 10
0.0
 20
0.0
 30
0.0
  3
*U3
  1

  0
TEXT
  5
1A694
330
1A692
100
AcDbEntity
  8
SUNPOU
100
AcDbText
 10
8747.074174843204
 20
6290.715360473253
 30
0.0
 40
90.0
  1
600
 41
0.6666666666666666
  7
00
100
AcDbText
  0
ENDBLK
  5
1A695
330
1A692
100
AcDbEntity
  8
0
100
AcDbBlockEnd
  0
BLOCK
  5
1A697
330
1A696
100
AcDbEntity
  8
0
100
AcDbBlockBegin
  2
*U4
 70
     1
 10
0.0
 20
0.0
 30
0.0
  3
*U4
  1

  0
TEXT
  5
1A698
330
1A696
100
AcDbEntity
  8
SUNPOU
100
AcDbText
 10
7447.074174843203
 20
8740.715360473251
 30
0.0
 40
90.0
  1
600
 41
0.6666666666666666
  7
00
100
AcDbText
  0
ENDBLK
  5
1A699
330
1A696
100
AcDbEntity
  8
0
100
AcDbBlockEnd
  0
BLOCK
  5
1A69B
330
1A69A
100
AcDbEntity
  8
0
100
AcDbBlockBegin
  2
*U5
 70
     1
 10
0.0
 20
0.0
 30
0.0
  3
*U5
  1

  0
TEXT
  5
1A69C
330
1A69A
100
AcDbEntity
  8
SUNPOU
100
AcDbText
 10
6889.21703198606
 20
9208.572503330399
 30
0.0
 40
90.0
  1
600
 50
90.0
 41
0.6666666666666666
  7
00
100
AcDbText
  0
ENDBLK
  5
1A69D
330
1A69A
100
AcDbEntity
  8
0
100
AcDbBlockEnd
  0
BLOCK
  5
1A69F
330
1A69E
100
AcDbEntity
  8
0
100
AcDbBlockBegin
  2
*U6
 70
     1
 10
0.0
 20
0.0
 30
0.0
  3
*U6
  1

  0
TEXT
  5
1A6A0
330
1A69E
100
AcDbEntity
  8
SUNPOU
100
AcDbText
 10
9944.931317700344
 20
10040.71536047325
 30
0.0
 40
90.0
  1
2450
 41
0.6666666666666666
  7
00
100
AcDbText
  0
ENDBLK
  5
1A6A1
330
1A69E
100
AcDbEntity
  8
0
100
AcDbBlockEnd
  0
BLOCK
  5
1A6A3
330
1A6A2
100
AcDbEntity
  8
0
100
AcDbBlockBegin
  2
*U7
 70
     1
 10
0.0
 20
0.0
 30
0.0
  3
*U7
  1

  0
TEXT
  5
1A6A4
330
1A6A2
100
AcDbEntity
  8
SUNPOU
100
AcDbText
 10
6194.931317700345
 20
10040.71536047325
 30
0.0
 40
90.0
  1
2450
 41
0.6666666666666666
  7
00
100
AcDbText
  0
ENDBLK
  5
1A6A5
330
1A6A2
100
AcDbEntity
  8
0
100
AcDbBlockEnd
  0
BLOCK
  5
1A6A7
330
1A6A6
100
AcDbEntity
  8
0
100
AcDbBlockBegin
  2
*U8
 70
     1
 10
0.0
 20
0.0
 30
0.0
  3
*U8
  1

  0
TEXT
  5
1A6A8
330
1A6A6
100
AcDbEntity
  8
SUNPOU
100
AcDbText
 10
9389.21703198606
 20
5608.572503330398
 30
0.0
 40
90.0
  1
600
 50
90.0
 41
0.6666666666666666
  7
00
100
AcDbText
  0
ENDBLK
  5
1A6A9
330
1A6A6
100
AcDbEntity
  8
0
100
AcDbBlockEnd
  0
BLOCK
  5
1A6AB
330
1A6AA
100
AcDbEntity
  8
0
100
AcDbBlockBegin
  2
*U9
 70
     1
 10
0.0
 20
0.0
 30
0.0
  3
*U9
  1

  0
TEXT
  5
1A6AC
330
1A6AA
100
AcDbEntity
  8
SUNPOU
100
AcDbText
 10
8748.502746271773
 20
8110.715360473252
 30
0.0
 40
90.0
  1
800
 41
0.6666666666666666
  7
00
100
AcDbText
  0
ENDBLK
  5
1A6AD
330
1A6AA
100
AcDbEntity
  8
0
100
AcDbBlockEnd
  0
BLOCK
  5
1A6AF
330
1A6AE
100
AcDbEntity
  8
0
100
AcDbBlockBegin
  2
*U10
 70
     1
 10
0.0
 20
0.0
 30
0.0
  3
*U10
  1

  0
TEXT
  5
1A6B0
330
1A6AE
100
AcDbEntity
  8
SUNPOU
100
AcDbText
 10
9489.217031986058
 20
7410.001074758966
 30
0.0
 40
90.0
  1
800
 50
90.0
 41
0.6666666666666666
  7
00
100
AcDbText
  0
ENDBLK
  5
1A6B1
330
1A6AE
100
AcDbEntity
  8
0
100
AcDbBlockEnd
  0
BLOCK
  5
1A6B3
330
1A6B2
100
AcDbEntity
  8
0
100
AcDbBlockBegin
  2
*U11
 70
     1
 10
0.0
 20
0.0
 30
0.0
  3
*U11
  1

  0
TEXT
  5
1A6B4
330
1A6B2
100
AcDbEntity
  8
SUNPOU
100
AcDbText
 10
4474.082765553179
 20
4175.485411556191
 30
0.0
 40
90.0
  1
300
 41
0.6666666666666666
  7
00
100
AcDbText
  0
ENDBLK
  5
1A6B5
330
1A6B2
100
AcDbEntity
  8
0
100
AcDbBlockEnd
  0
BLOCK
  5
1A6B7
330
1A6B6
100
AcDbEntity
  8
0
100
AcDbBlockBegin
  2
*U12
 70
     1
 10
0.0
 20
0.0
 30
0.0
  3
*U12
  1

  0
TEXT
  5
1A6B8
330
1A6B6
100
AcDbEntity
  8
SUNPOU
100
AcDbText
 10
3415.443655266705
 20
3523.113410848177
 30
0.0
 40
90.0
  1
50
 50
90.0
 41
0.6666666666666666
  7
00
100
AcDbText
  0
ENDBLK
  5
1A6B9
330
1A6B6
100
AcDbEntity
  8
0
100
AcDbBlockEnd
  0
BLOCK
  5
1A6BB
330
1A6BA
100
AcDbEntity
  8
0
100
AcDbBlockBegin
  2
*U13
 70
     1
 10
0.0
 20
0.0
 30
0.0
  3
*U13
  1

  0
TEXT
  5
1A6BC
330
1A6BA
100
AcDbEntity
  8
SUNPOU
100
AcDbText
 10
4712.654194124605
 20
2193.684839419601
 30
0.0
 40
90.0
  1
600
 41
0.6666666666666666
  7
00
100
AcDbText
  0
ENDBLK
  5
1A6BD
330
1A6BA
100
AcDbEntity
  8
0
100
AcDbBlockEnd
  0
BLOCK
  5
1A6BF
330
1A6BE
100
AcDbEntity
  8
0
100
AcDbBlockBegin
  2
*U14
 70
     1
 10
0.0
 20
0.0
 30
0.0
  3
*U14
  1

  0
TEXT
  5
1A6C0
330
1A6BE
100
AcDbEntity
  8
SUNPOU
100
AcDbText
 10
3835.443655266704
 20
2865.370553705316
 30
0.0
 40
90.0
  1
300
 50
90.0
 41
0.6666666666666666
  7
00
100
AcDbText
  0
ENDBLK
  5
1A6C1
330
1A6BE
100
AcDbEntity
  8
0
100
AcDbBlockEnd
  0
BLOCK
  5
1A6C3
330
1A6C2
100
AcDbEntity
  8
0
100
AcDbBlockBegin
  2
*U15
 70
     1
 10
0.0
 20
0.0
 30
0.0
  3
*U15
  1

  0
TEXT
  5
1A6C4
330
1A6C2
100
AcDbEntity
  8
SUNPOU
100
AcDbText
 10
3835.443655266707
 20
3197.941982276741
 30
0.0
 40
90.0
  1
80
 50
90.0
 41
0.6666666666666666
  7
00
100
AcDbText
  0
ENDBLK
  5
1A6C5
330
1A6C2
100
AcDbEntity
  8
0
100
AcDbBlockEnd
  0
BLOCK
  5
1A6C7
330
1A6C6
100
AcDbEntity
  8
0
100
AcDbBlockBegin
  2
*U16
 70
     1
 10
0.0
 20
0.0
 30
0.0
  3
*U16
  1

  0
TEXT
  5
1A6C8
330
1A6C6
100
AcDbEntity
  8
SUNPOU
100
AcDbText
 10
11451.33837406208
 20
3229.170862655058
 30
0.0
 40
90.0
  1
160
 41
0.6666666666666666
  7
00
100
AcDbText
  0
ENDBLK
  5
1A6C9
330
1A6C6
100
AcDbEntity
  8
0
100
AcDbBlockEnd
  0
BLOCK
  5
1A6CB
330
1A6CA
100
AcDbEntity
  8
0
100
AcDbBlockBegin
  2
*U17
 70
     1
 10
0.0
 20
0.0
 30
0.0
  3
*U17
  1

  0
TEXT
  5
1A6CC
330
1A6CA
100
AcDbEntity
  8
SUNPOU
100
AcDbText
 10
11040.6240883478
 20
3439.170862655058
 30
0.0
 40
90.0
  1
20
 41
0.6666666666666666
  7
00
100
AcDbText
  0
ENDBLK
  5
1A6CD
330
1A6CA
100
AcDbEntity
  8
0
100
AcDbBlockEnd
  0
BLOCK
  5
1A6CF
330
1A6CE
100
AcDbEntity
  8
0
100
AcDbBlockBegin
  2
*U18
 70
     1
 10
0.0
 20
0.0
 30
0.0
  3
*U18
  1

  0
TEXT
  5
1A6D0
330
1A6CE
100
AcDbEntity
  8
SUNPOU
100
AcDbText
 10
11451.33837406209
 20
3439.170862655058
 30
0.0
 40
90.0
  1
120
 41
0.6666666666666666
  7
00
100
AcDbText
  0
ENDBLK
  5
1A6D1
330
1A6CE
100
AcDbEntity
  8
0
100
AcDbBlockEnd
  0
BLOCK
  5
1A6D3
330
1A6D2
100
AcDbEntity
  8
0
100
AcDbBlockBegin
  2
*U19
 70
     1
 10
0.0
 20
0.0
 30
0.0
  3
*U19
  1

  0
TEXT
  5
1A6D4
330
1A6D2
100
AcDbEntity
  8
SUNPOU
100
AcDbText
 10
11927.76694549065
 20
3439.170862655058
 30
0.0
 40
90.0
  1
20
 41
0.6666666666666666
  7
00
100
AcDbText
  0
ENDBLK
  5
1A6D5
330
1A6D2
100
AcDbEntity
  8
0
100
AcDbBlockEnd
  0
BLOCK
  5
1A6D7
330
1A6D6
100
AcDbEntity
  8
0
100
AcDbBlockBegin
  2
*U20
 70
     1
 10
0.0
 20
0.0
 30
0.0
  3
*U20
  1

  0
TEXT
  5
1A6D8
330
1A6D6
100
AcDbEntity
  8
SUNPOU
100
AcDbText
 10
10663.33837406209
 20
2643.001486910295
 30
0.0
 40
90.0
  1
80
 50
90.0
 41
0.6666666666666666
  7
00
100
AcDbText
  0
ENDBLK
  5
1A6D9
330
1A6D6
100
AcDbEntity
  8
0
100
AcDbBlockEnd
  0
BLOCK
  5
1A6DB
330
1A6DA
100
AcDbEntity
  8
0
100
AcDbBlockBegin
  2
*U21
 70
     1
 10
0.0
 20
0.0
 30
0.0
  3
*U21
  1

  0
TEXT
  5
1A6DC
330
1A6DA
100
AcDbEntity
  8
SUNPOU
100
AcDbText
 10
10873.33837406209
 20
2911.572915481723
 30
0.0
 40
90.0
  1
40
 50
90.0
 41
0.6666666666666666
  7
00
100
AcDbText
  0
ENDBLK
  5
1A6DD
330
1A6DA
100
AcDbEntity
  8
0
100
AcDbBlockEnd
  0
BLOCK
  5
1A6DF
330
1A6DE
100
AcDbEntity
  8
0
100
AcDbBlockBegin
  2
*U22
 70
     1
 10
0.0
 20
0.0
 30
0.0
  3
*U22
  1

  0
TEXT
  5
1A6E0
330
1A6DE
100
AcDbEntity
  8
SUNPOU
100
AcDbText
 10
10873.33837406209
 20
2374.430058338865
 30
0.0
 40
90.0
  1
40
 50
90.0
 41
0.6666666666666666
  7
00
100
AcDbText
  0
ENDBLK
  5
1A6E1
330
1A6DE
100
AcDbEntity
  8
0
100
AcDbBlockEnd
  0
BLOCK
  5
1A6E3
330
1A6E2
100
AcDbEntity
  8
0
100
AcDbBlockBegin
  2
*U23
 70
     1
 10
0.0
 20
0.0
 30
0.0
  3
*U23
  1

  0
TEXT
  5
1A6E4
330
1A6E2
100
AcDbEntity
  8
SUNPOU
100
AcDbText
 10
11451.33837406208
 20
2080.804976716085
 30
0.0
 40
90.0
  1
160
 41
0.6666666666666666
  7
00
100
AcDbText
  0
ENDBLK
  5
1A6E5
330
1A6E2
100
AcDbEntity
  8
0
100
AcDbBlockEnd
  0
BLOCK
  5
1A6E7
330
1A6E6
100
AcDbEntity
  8
0
100
AcDbBlockBegin
  2
*U24
 70
     1
 10
0.0
 20
0.0
 30
0.0
  3
*U24
  1

  0
TEXT
  5
1A6E8
330
1A6E6
100
AcDbEntity
  8
SUNPOU
100
AcDbText
 10
11040.6240883478
 20
2290.804976716086
 30
0.0
 40
90.0
  1
20
 41
0.6666666666666666
  7
00
100
AcDbText
  0
ENDBLK
  5
1A6E9
330
1A6E6
100
AcDbEntity
  8
0
100
AcDbBlockEnd
  0
BLOCK
  5
1A6EB
330
1A6EA
100
AcDbEntity
  8
0
100
AcDbBlockBegin
  2
*U25
 70
     1
 10
0.0
 20
0.0
 30
0.0
  3
*U25
  1

  0
TEXT
  5
1A6EC
330
1A6EA
100
AcDbEntity
  8
SUNPOU
100
AcDbText
 10
11451.33837406209
 20
2290.804976716086
 30
0.0
 40
90.0
  1
120
 41
0.6666666666666666
  7
00
100
AcDbText
  0
ENDBLK
  5
1A6ED
330
1A6EA
100
AcDbEntity
  8
0
100
AcDbBlockEnd
  0
BLOCK
  5
1A6EF
330
1A6EE
100
AcDbEntity
  8
0
100
AcDbBlockBegin
  2
*U26
 70
     1
 10
0.0
 20
0.0
 30
0.0
  3
*U26
  1

  0
TEXT
  5
1A6F0
330
1A6EE
100
AcDbEntity
  8
SUNPOU
100
AcDbText
 10
11927.76694549065
 20
2290.804976716086
 30
0.0
 40
90.0
  1
20
 41
0.6666666666666666
  7
00
100
AcDbText
  0
ENDBLK
  5
1A6F1
330
1A6EE
100
AcDbEntity
  8
0
100
AcDbBlockEnd
  0
BLOCK
  5
1A6F3
330
1A6F2
100
AcDbEntity
  8
0
100
AcDbBlockBegin
  2
*U27
 70
     1
 10
0.0
 20
0.0
 30
0.0
  3
*U27
  1

  0
TEXT
  5
1A6F4
330
1A6F2
100
AcDbEntity
  8
SUNPOU
100
AcDbText
 10
12228.40680314954
 20
3437.622750870277
 30
0.0
 40
90.0
  1
27
 50
90.0
 41
0.6666666666666666
  7
00
100
AcDbText
  0
ENDBLK
  5
1A6F5
330
1A6F2
100
AcDbEntity
  8
0
100
AcDbBlockEnd
  0
BLOCK
  5
1A6F7
330
1A6F6
100
AcDbEntity
  8
0
100
AcDbBlockBegin
  2
*U28
 70
     1
 10
0.0
 20
0.0
 30
0.0
  3
*U28
  1

  0
TEXT
  5
1A6F8
330
1A6F6
100
AcDbEntity
  8
SUNPOU
100
AcDbText
 10
12228.40680314954
 20
3937.765608013134
 30
0.0
 40
90.0
  1
40
 50
90.0
 41
0.6666666666666666
  7
00
100
AcDbText
  0
ENDBLK
  5
1A6F9
330
1A6F6
100
AcDbEntity
  8
0
100
AcDbBlockEnd
  0
BLOCK
  5
1A6FB
330
1A6FA
100
AcDbEntity
  8
0
100
AcDbBlockBegin
  2
*U29
 70
     1
 10
0.0
 20
0.0
 30
0.0
  3
*U29
  1

  0
TEXT
  5
1A6FC
330
1A6FA
100
AcDbEntity
  8
SUNPOU
100
AcDbText
 10
4714.082765553176
 20
1983.6848394196
 30
0.0
 40
90.0
  1
800
 41
0.6666666666666666
  7
00
100
AcDbText
  0
ENDBLK
  5
1A6FD
330
1A6FA
100
AcDbEntity
  8
0
100
AcDbBlockEnd
  0
BLOCK
  5
1A6FF
330
1A6FE
100
AcDbEntity
  8
0
100
AcDbBlockBegin
  2
*U30
 70
     1
 10
0.0
 20
0.0
 30
0.0
  3
*U30
  1

  0
TEXT
  5
1A700
330
1A6FE
100
AcDbEntity
  8
SUNPOU
100
AcDbText
 10
3835.443655266704
 20
2328.227696562461
 30
0.0
 40
90.0
  1
100
 50
90.0
 41
0.6666666666666666
  7
00
100
AcDbText
  0
ENDBLK
  5
1A701
330
1A6FE
100
AcDbEntity
  8
0
100
AcDbBlockEnd
  0
BLOCK
  5
1A703
330
1A702
100
AcDbEntity
  8
0
100
AcDbBlockBegin
  2
*U31
 70
     1
 10
0.0
 20
0.0
 30
0.0
  3
*U31
  1

  0
TEXT
  5
1A704
330
1A702
100
AcDbEntity
  8
SUNPOU
100
AcDbText
 10
3835.443655266704
 20
3508.113410848177
 30
0.0
 40
90.0
  1
80
 50
90.0
 41
0.6666666666666666
  7
00
100
AcDbText
  0
ENDBLK
  5
1A705
330
1A702
100
AcDbEntity
  8
0
100
AcDbBlockEnd
  0
BLOCK
  5
1A707
330
1A706
100
AcDbEntity
  8
0
100
AcDbBlockBegin
  2
*U32
 70
     1
 10
0.0
 20
0.0
 30
0.0
  3
*U32
  1

  0
TEXT
  5
1A708
330
1A706
100
AcDbEntity
  8
SUNPOU
100
AcDbText
 10
3625.443655266705
 20
2918.170553705319
 30
0.0
 40
90.0
  1
560
 50
90.0
 41
0.6666666666666666
  7
00
100
AcDbText
  0
ENDBLK
  5
1A709
330
1A706
100
AcDbEntity
  8
0
100
AcDbBlockEnd
  0
BLOCK
  5
1A70B
330
1A70A
100
AcDbEntity
  8
0
100
AcDbBlockBegin
  2
*U33
 70
     1
 10
0.0
 20
0.0
 30
0.0
  3
*U33
  1

  0
TEXT
  5
1A70C
330
1A70A
100
AcDbEntity
  8
SUNPOU
100
AcDbText
 10
4798.502746271775
 20
10040.71536047325
 30
0.0
 40
90.0
  1
400
 41
0.6666666666666666
  7
00
100
AcDbText
  0
ENDBLK
  5
1A70D
330
1A70A
100
AcDbEntity
  8
0
100
AcDbBlockEnd
  0
BLOCK
  5
1A70F
330
1A70E
100
AcDbEntity
  8
0
100
AcDbBlockBegin
  2
*U34
 70
     1
 10
0.0
 20
0.0
 30
0.0
  3
*U34
  1

  0
TEXT
  5
1A710
330
1A70E
100
AcDbEntity
  8
SUNPOU
100
AcDbText
 10
11398.50274627177
 20
10040.71536047325
 30
0.0
 40
90.0
  1
400
 41
0.6666666666666666
  7
00
100
AcDbText
  0
ENDBLK
  5
1A711
330
1A70E
100
AcDbEntity
  8
0
100
AcDbBlockEnd
  0
BLOCK
  5
1A713
330
1A712
100
AcDbEntity
  8
0
100
AcDbBlockBegin
  2
*U35
 70
     1
 10
0.0
 20
0.0
 30
0.0
  3
*U35
  1

  0
TEXT
  5
1A714
330
1A712
100
AcDbEntity
  8
SUNPOU
100
AcDbText
 10
7720.502746271773
 20
10250.71536047325
 30
0.0
 40
90.0
  1
L = 2450 x N + 800
 41
0.6666666666666666
  7
00
100
AcDbText
  0
ENDBLK
  5
1A715
330
1A712
100
AcDbEntity
  8
0
100
AcDbBlockEnd
  0
BLOCK
  5
1A717
330
1A716
100
AcDbEntity
  8
0
100
AcDbBlockBegin
  2
*U36
 70
     1
 10
0.0
 20
0.0
 30
0.0
  3
*U36
  1

  0
TEXT
  5
1A718
330
1A716
100
AcDbEntity
  8
SUNPOU
100
AcDbText
 10
12249.21703198605
 20
7381.42964618754
 30
0.0
 40
90.0
  1
4200
 50
90.0
 41
0.6666666666666666
  7
00
100
AcDbText
  0
ENDBLK
  5
1A719
330
1A716
100
AcDbEntity
  8
0
100
AcDbBlockEnd
  0
BLOCK
  5
1A71B
330
1A71A
100
AcDbEntity
  8
0
100
AcDbBlockBegin
  2
*U37
 70
     1
 10
0.0
 20
0.0
 30
0.0
  3
*U37
  1

  0
TEXT
  5
1A71C
330
1A71A
100
AcDbEntity
  8
SUNPOU
100
AcDbText
 10
12039.21703198606
 20
5460.001074758969
 30
0.0
 40
90.0
  1
300
 50
90.0
 41
0.6666666666666666
  7
00
100
AcDbText
  0
ENDBLK
  5
1A71D
330
1A71A
100
AcDbEntity
  8
0
100
AcDbBlockEnd
  0
BLOCK
  5
1A71F
330
1A71E
100
AcDbEntity
  8
0
100
AcDbBlockBegin
  2
*U38
 70
     1
 10
0.0
 20
0.0
 30
0.0
  3
*U38
  1

  0
TEXT
  5
1A720
330
1A71E
100
AcDbEntity
  8
SUNPOU
100
AcDbText
 10
12039.21703198606
 20
6477.143931901827
 30
0.0
 40
90.0
  1
1800
 50
90.0
 41
0.6666666666666666
  7
00
100
AcDbText
  0
ENDBLK
  5
1A721
330
1A71E
100
AcDbEntity
  8
0
100
AcDbBlockEnd
  0
BLOCK
  5
1A723
330
1A722
100
AcDbEntity
  8
0
100
AcDbBlockBegin
  2
*U39
 70
     1
 10
0.0
 20
0.0
 30
0.0
  3
*U39
  1

  0
TEXT
  5
1A724
330
1A722
100
AcDbEntity
  8
SUNPOU
100
AcDbText
 10
12039.21703198606
 20
8277.143931901829
 30
0.0
 40
90.0
  1
1800
 50
90.0
 41
0.6666666666666666
  7
00
100
AcDbText
  0
ENDBLK
  5
1A725
330
1A722
100
AcDbEntity
  8
0
100
AcDbBlockEnd
  0
BLOCK
  5
1A727
330
1A726
100
AcDbEntity
  8
0
100
AcDbBlockBegin
  2
*U40
 70
     1
 10
0.0
 20
0.0
 30
0.0
  3
*U40
  1

  0
TEXT
  5
1A728
330
1A726
100
AcDbEntity
  8
SUNPOU
100
AcDbText
 10
12039.21703198606
 20
9360.001074758967
 30
0.0
 40
90.0
  1
300
 50
90.0
 41
0.6666666666666666
  7
00
100
AcDbText
  0
ENDBLK
  5
1A729
330
1A726
100
AcDbEntity
  8
0
100
AcDbBlockEnd
  0
BLOCK
  5
1A72B
330
1A72A
100
AcDbEntity
  8
0
100
AcDbBlockBegin
  2
*U41
 70
     1
 10
0.0
 20
0.0
 30
0.0
  3
*U41
  1

  0
TEXT
  5
1A72C
330
1A72A
100
AcDbEntity
  8
SUNPOU
100
AcDbText
 10
8494.408966076823
 20
2193.684839419605
 30
0.0
 40
90.0
  1
800
 41
0.6666666666666666
  7
00
100
AcDbText
  0
ENDBLK
  5
1A72D
330
1A72A
100
AcDbEntity
  8
0
100
AcDbBlockEnd
  0
BLOCK
  5
1A72F
330
1A72E
100
AcDbEntity
  8
0
100
AcDbBlockBegin
  2
*U42
 70
     1
 10
0.0
 20
0.0
 30
0.0
  3
*U42
  1

  0
TEXT
  5
1A730
330
1A72E
100
AcDbEntity
  8
SUNPOU
100
AcDbText
 10
8461.551823219677
 20
1983.684839419604
 30
0.0
 40
90.0
  1
1000
 41
0.6666666666666666
  7
00
100
AcDbText
  0
ENDBLK
  5
1A731
330
1A72E
100
AcDbEntity
  8
0
100
AcDbBlockEnd
  0
BLOCK
  5
1A733
330
1A732
100
AcDbEntity
  8
0
100
AcDbBlockBegin
  2
*U43
 70
     1
 10
0.0
 20
0.0
 30
0.0
  3
*U43
  1

  0
TEXT
  5
1A734
330
1A732
100
AcDbEntity
  8
SUNPOU
100
AcDbText
 10
7615.76985579035
 20
2865.37055370532
 30
0.0
 40
90.0
  1
300
 50
90.0
 41
0.6666666666666666
  7
00
100
AcDbText
  0
ENDBLK
  5
1A735
330
1A732
100
AcDbEntity
  8
0
100
AcDbBlockEnd
  0
BLOCK
  5
1A737
330
1A736
100
AcDbEntity
  8
0
100
AcDbBlockBegin
  2
*U44
 70
     1
 10
0.0
 20
0.0
 30
0.0
  3
*U44
  1

  0
TEXT
  5
1A738
330
1A736
100
AcDbEntity
  8
SUNPOU
100
AcDbText
 10
7615.76985579035
 20
2328.227696562461
 30
0.0
 40
90.0
  1
100
 50
90.0
 41
0.6666666666666666
  7
00
100
AcDbText
  0
ENDBLK
  5
1A739
330
1A736
100
AcDbEntity
  8
0
100
AcDbBlockEnd
  0
BLOCK
  5
1A73B
330
1A73A
100
AcDbEntity
  8
0
100
AcDbBlockBegin
  2
*U45
 70
     1
 10
0.0
 20
0.0
 30
0.0
  3
*U45
  1

  0
TEXT
  5
1A73C
330
1A73A
100
AcDbEntity
  8
SUNPOU
100
AcDbText
 10
7405.76985579035
 20
2918.17055370532
 30
0.0
 40
90.0
  1
560
 50
90.0
 41
0.6666666666666666
  7
00
100
AcDbText
  0
ENDBLK
  5
1A73D
330
1A73A
100
AcDbEntity
  8
0
100
AcDbBlockEnd
  0
BLOCK
  5
1A73F
330
1A73E
100
AcDbEntity
  8
0
100
AcDbBlockBegin
  2
*U46
 70
     1
 10
0.0
 20
0.0
 30
0.0
  3
*U46
  1

  0
TEXT
  5
1A740
330
1A73E
100
AcDbEntity
  8
SUNPOU
100
AcDbText
 10
7615.76985579035
 20
3197.941982276748
 30
0.0
 40
90.0
  1
80
 50
90.0
 41
0.6666666666666666
  7
00
100
AcDbText
  0
ENDBLK
  5
1A741
330
1A73E
100
AcDbEntity
  8
0
100
AcDbBlockEnd
  0
BLOCK
  5
1A743
330
1A742
100
AcDbEntity
  8
0
100
AcDbBlockBegin
  2
*U47
 70
     1
 10
0.0
 20
0.0
 30
0.0
  3
*U47
  1

  0
TEXT
  5
1A744
330
1A742
100
AcDbEntity
  8
SUNPOU
100
AcDbText
 10
7615.76985579035
 20
3508.113410848177
 30
0.0
 40
90.0
  1
80
 50
90.0
 41
0.6666666666666666
  7
00
100
AcDbText
  0
ENDBLK
  5
1A745
330
1A742
100
AcDbEntity
  8
0
100
AcDbBlockEnd
  0
ENDSEC
  0
SECTION
  2
ENTITIES
  0
TEXT
  5
1A746
330
1A65A
100
AcDbEntity
  8
NAME
100
AcDbText
 10
12303.32857318295
 20
1055.0
 30
0.0
 40
120.0
  1
Y O K C
 41
0.6666666666666666
  7
00
100
AcDbText
  0
TEXT
  5
1A747
330
1A65A
100
AcDbEntity
  8
NAME
100
AcDbText
 10
11227.73587134625
 20
1055.0
 30
0.0
 40
120.0
  1
ヨド自転車置場　　　  型
  7
01
100
AcDbText
  0
TEXT
  5
1A748
330
1A65A
100
AcDbEntity
  8
NAME
100
AcDbText
 10
10824.07508082364
 20
875.0
 30
0.0
 40
120.0
  1
背合せタイプ（アンカープレート方式）
  7
01
 72
     4
 11
12072.07508082364
 21
935.0
 31
0.0
100
AcDbText
  0
TEXT
  5
1A749
330
1A65A
100
AcDbEntity
  8
NAME
100
AcDbText
 10
12854.79999999999
 20
541.0000000000001
 30
0.0
 40
160.0
  1
<3／3>
 41
0.6
  7
01
 72
     2
 11
13354.0
 21
541.0000000000001
 31
0.0
100
AcDbText
  0
TEXT
  5
1A74A
330
1A65A
100
AcDbEntity
  8
NAME
100
AcDbText
 10
10896.04264730428
 20
541.0
 30
0.0
 40
160.0
  1
YOKC-245
 41
0.7
  7
01
 72
     2
 11
11776.04264730429
 21
541.0
 31
0.0
100
AcDbText
  0
TEXT
  5
1A74B
330
1A65A
100
AcDbEntity
  8
NAME
100
AcDbText
 10
11816.04264730429
 20
541.0
 30
0.0
 40
160.0
  1
型（一般地用）
 41
0.8
  7
01
100
AcDbText
  0
LINE
  5
1A74C
330
1A65A
100
AcDbEntity
  8
CENTER
  6
1PL-M
100
AcDbLine
 10
8834.21703198606
 20
8245.715360473253
 30
0.0
 11
8834.21703198606
 21
9695.715360473252
 31
0.0
  0
LINE
  5
1A74D
330
1A65A
100
AcDbEntity
  8
CENTER
  6
1PL-M
100
AcDbLine
 10
8244.217031986062
 20
7495.715360473251
 30
0.0
 11
9369.217031986059
 21
7495.715360473251
 31
0.0
  0
LINE
  5
1A74E
330
1A65A
100
AcDbEntity
  8
CENTER
  6
1PL-M
100
AcDbLine
 10
4614.21703198606
 20
7495.715360473251
 30
0.0
 11
8124.217031986061
 21
7495.715360473251
 31
0.0
  0
LINE
  5
1A74F
330
1A65A
100
AcDbEntity
  8
CENTER
  6
1PL-M
100
AcDbLine
 10
8244.217031986062
 20
5695.715360473253
 30
0.0
 11
9274.217031986065
 21
5695.715360473253
 31
0.0
  0
LINE
  5
1A750
330
1A65A
100
AcDbEntity
  8
CENTER
  6
1PL-M
100
AcDbLine
 10
8244.217031986062
 20
9295.715360473252
 30
0.0
 11
12129.21703198605
 21
9295.715360473252
 31
0.0
  0
TEXT
  5
1A751
330
1A65A
100
AcDbEntity
  8
SUNPOU
100
AcDbText
 10
10531.34907160025
 20
4902.649361983672
 30
0.0
 40
90.0
  1
（  ：スパン数）
  7
01
 11
10531.34907160025
 21
4947.649361983672
 31
0.0
100
AcDbText
 73
     2
  0
TEXT
  5
1A752
330
1A65A
100
AcDbEntity
  8
SUNPOU
100
AcDbText
 10
10661.81028265175
 20
4902.649361983672
 30
0.0
 40
90.0
  1
N
 41
0.6666666666666666
  7
00
 72
     4
 11
10693.23885408032
 21
4947.649361983672
 31
0.0
100
AcDbText
  0
LINE
  5
1A753
330
1A65A
100
AcDbEntity
  8
CENTER
  6
1PL-M
100
AcDbLine
 10
4614.21703198606
 20
5695.715360473253
 30
0.0
 11
8124.217031986061
 21
5695.715360473253
 31
0.0
  0
LINE
  5
1A754
330
1A65A
100
AcDbEntity
  8
CENTER
  6
1PL-M
100
AcDbLine
 10
6982.96703198606
 20
9295.715360473252
 30
0.0
 11
8124.217031986061
 21
9295.715360473252
 31
0.0
  0
LINE
  5
1A755
330
1A65A
100
AcDbEntity
  8
SUNPOU
100
AcDbLine
 10
8124.217031986061
 20
9685.715360473253
 30
0.0
 11
8124.217031986061
 21
5275.715360473252
 31
0.0
  0
LINE
  5
1A756
330
1A65A
100
AcDbEntity
  8
CENTER
  6
1PL-M
100
AcDbLine
 10
5084.21703198606
 20
5295.715360473253
 30
0.0
 11
5084.21703198606
 21
9695.715360473252
 31
0.0
  0
LINE
  5
1A757
330
1A65A
100
AcDbEntity
  8
CENTER
  6
1PL-M
100
AcDbLine
 10
7534.217031986059
 20
8845.715360473255
 30
0.0
 11
7534.217031986059
 21
9695.715360473252
 31
0.0
  0
LINE
  5
1A758
330
1A65A
100
AcDbEntity
  8
CENTER
  6
1PL-M
100
AcDbLine
 10
7534.217031986059
 20
5295.715360473253
 30
0.0
 11
7534.217031986059
 21
8650.715360473251
 31
0.0
  0
LINE
  5
1A759
330
1A65A
100
AcDbEntity
  8
CENTER
  6
1PL-M
100
AcDbLine
 10
4614.21703198606
 20
9295.715360473252
 30
0.0
 11
6784.217031986064
 21
9295.715360473252
 31
0.0
  0
LINE
  5
1A75A
330
1A65A
100
AcDbEntity
  8
CENTER
  6
1PL-M
100
AcDbLine
 10
9469.217031986065
 20
5695.715360473253
 30
0.0
 11
12129.21703198605
 21
5695.715360473253
 31
0.0
  0
LINE
  5
1A75B
330
1A65A
100
AcDbEntity
  8
SUNPOU
100
AcDbLine
 10
8244.217031986062
 20
9685.715360473253
 30
0.0
 11
8244.217031986062
 21
5275.715360473252
 31
0.0
  0
LINE
  5
1A75C
330
1A65A
100
AcDbEntity
  8
CENTER
  6
1PL-M
100
AcDbLine
 10
11284.21703198606
 20
5295.715360473253
 30
0.0
 11
11284.21703198606
 21
9695.715360473252
 31
0.0
  0
LINE
  5
1A75D
330
1A65A
100
AcDbEntity
  8
CENTER
  6
1PL-M
100
AcDbLine
 10
8834.21703198606
 20
5295.715360473253
 30
0.0
 11
8834.21703198606
 21
6200.715360473253
 31
0.0
  0
LINE
  5
1A75E
330
1A65A
100
AcDbEntity
  8
CENTER
  6
1PL-M
100
AcDbLine
 10
8834.21703198606
 20
6395.715360473253
 30
0.0
 11
8834.21703198606
 21
8020.715360473252
 31
0.0
  0
LINE
  5
1A75F
330
1A65A
100
AcDbEntity
  8
SUNPOU
100
AcDbLine
 10
8834.21703198606
 20
9725.715360473252
 30
0.0
 11
8834.21703198606
 21
10040.71536047325
 31
0.0
  0
LINE
  5
1A760
330
1A65A
100
AcDbEntity
  8
SUNPOU
100
AcDbLine
 10
7534.217031986059
 20
9725.715360473252
 30
0.0
 11
7534.217031986059
 21
10040.71536047325
 31
0.0
  0
LINE
  5
1A761
330
1A65A
100
AcDbEntity
  8
SUNPOU
100
AcDbLine
 10
8819.21703198606
 20
9995.715360473253
 30
0.0
 11
7549.21703198606
 21
9995.715360473253
 31
0.0
  0
TEXT
  5
1A762
330
1A65A
100
AcDbEntity
  8
HIKIDASHI
100
AcDbText
 10
5749.264373012014
 20
9740.715360473252
 30
0.0
 40
90.0
  1
（鼻隠し外面）
  7
01
100
AcDbText
  0
TEXT
  5
1A763
330
1A65A
100
AcDbEntity
  8
HIKIDASHI
100
AcDbText
 10
5665.155771095992
 20
9455.715360473243
 30
0.0
 40
90.0
  1
（土間コン後面位置）
  7
01
100
AcDbText
  0
SOLID
  5
1A764
330
1A65A
100
AcDbEntity
  8
SUNPOU
100
AcDbTrace
 10
4449.47136661486
 20
5905.715360473253
 30
0.0
 11
4479.47136661486
 21
5905.715360473253
 31
0.0
 12
4464.47136661486
 22
5995.715360473253
 32
0.0
 13
4464.47136661486
 23
5995.715360473253
 33
0.0
  0
TEXT
  5
1A765
330
1A65A
100
AcDbEntity
  8
SUNPOU
100
AcDbText
 10
4438.628509471999
 20
6040.715360473253
 30
0.0
 40
90.0
  1
A
 41
0.6700000000000001
  7
00
 72
     4
 11
4464.471366614856
 21
6085.715360473253
 31
0.0
100
AcDbText
  0
LINE
  5
1A766
330
1A65A
100
AcDbEntity
  8
SUNPOU
100
AcDbLine
 10
4464.47136661486
 20
5905.715360473253
 30
0.0
 11
4464.47136661486
 21
5695.715360473253
 31
0.0
  0
LINE
  5
1A767
330
1A65A
100
AcDbEntity
  8
SUNPOU
100
AcDbLine
 10
4464.47136661486
 20
5695.715360473253
 30
0.0
 11
4614.47136661486
 21
5695.715360473253
 31
0.0
  0
LINE
  5
1A768
330
1A65A
100
AcDbEntity
  8
SUNPOU
100
AcDbLine
 10
5569.630294679762
 20
5695.715360473253
 30
0.0
 11
5419.630294679759
 21
5695.715360473253
 31
0.0
  0
LINE
  5
1A769
330
1A65A
100
AcDbEntity
  8
SUNPOU
100
AcDbLine
 10
5569.630294679762
 20
5905.715360473253
 30
0.0
 11
5569.630294679762
 21
5695.715360473253
 31
0.0
  0
TEXT
  5
1A76A
330
1A65A
100
AcDbEntity
  8
SUNPOU
100
AcDbText
 10
5533.737437536905
 20
6032.143931901824
 30
0.0
 40
90.0
  1
A'
 41
0.6700000000000001
  7
00
 72
     4
 11
5569.630294679762
 21
6085.715360473253
 31
0.0
100
AcDbText
  0
SOLID
  5
1A76B
330
1A65A
100
AcDbEntity
  8
SUNPOU
100
AcDbTrace
 10
5584.630294679762
 20
5905.715360473253
 30
0.0
 11
5554.630294679762
 21
5905.715360473253
 31
0.0
 12
5569.630294679762
 22
5995.715360473253
 32
0.0
 13
5569.630294679762
 23
5995.715360473253
 33
0.0
  0
TEXT
  5
1A76C
330
1A65A
100
AcDbEntity
  8
HIKIDASHI
100
AcDbText
 10
5749.264373012014
 20
5160.715360473254
 30
0.0
 40
90.0
  1
（鼻隠し外面）
  7
01
100
AcDbText
  0
TEXT
  5
1A76D
330
1A65A
100
AcDbEntity
  8
HIKIDASHI
100
AcDbText
 10
5665.155771095992
 20
5445.71536047326
 30
0.0
 40
90.0
  1
（土間コン前面位置）
  7
01
100
AcDbText
  0
TEXT
  5
1A76E
330
1A65A
100
AcDbEntity
  8
HIKIDASHI
100
AcDbText
 10
8772.515803529449
 20
4879.531802304223
 30
0.0
 40
80.0
  1
)
 41
0.6700000000000001
  7
00
100
AcDbText
  0
TEXT
  5
1A76F
330
1A65A
100
AcDbEntity
  8
HIKIDASHI
100
AcDbText
 10
8571.657054840066
 20
4895.09328005242
 30
0.0
 40
80.0
  1
1
 41
0.6700000000000001
  7
00
100
AcDbText
  0
TEXT
  5
1A770
330
1A65A
100
AcDbEntity
  8
HIKIDASHI
100
AcDbText
 10
8604.794192704373
 20
4879.531802304223
 30
0.0
 40
80.0
  1
/
 41
0.6700000000000001
  7
00
100
AcDbText
  0
TEXT
  5
1A771
330
1A65A
100
AcDbEntity
  8
HIKIDASHI
100
AcDbText
 10
8651.089347467019
 20
4853.363971103946
 30
0.0
 40
80.0
  1
40
 41
0.6700000000000001
  7
00
100
AcDbText
  0
TEXT
  5
1A772
330
1A65A
100
AcDbEntity
  8
HIKIDASHI
100
AcDbText
 10
8390.949138902394
 20
4879.531802304223
 30
0.0
 40
80.0
  1
(S=
 41
0.6700000000000001
  7
00
100
AcDbText
  0
TEXT
  5
1A773
330
1A65A
100
AcDbEntity
  8
HIKIDASHI
100
AcDbText
 10
7548.949138902393
 20
4855.715360473254
 30
0.0
 40
120.0
  1
基 礎 伏 図
  7
01
 72
     2
 11
8300.949138902394
 21
4855.715360473254
 31
0.0
100
AcDbText
  0
CIRCLE
  5
1A774
330
1A65A
100
AcDbEntity
  8
HASHIRA
100
AcDbCircle
 10
5084.21703198606
 20
5635.715360473253
 30
0.0
 40
9.0
  0
CIRCLE
  5
1A775
330
1A65A
100
AcDbEntity
  8
HASHIRA
100
AcDbCircle
 10
5084.21703198606
 20
5755.715360473253
 30
0.0
 40
9.0
  0
CIRCLE
  5
1A776
330
1A65A
100
AcDbEntity
  8
HASHIRA
100
AcDbCircle
 10
5084.21703198606
 20
7435.715360473253
 30
0.0
 40
9.0
  0
CIRCLE
  5
1A777
330
1A65A
100
AcDbEntity
  8
HASHIRA
100
AcDbCircle
 10
5084.21703198606
 20
7555.715360473254
 30
0.0
 40
9.0
  0
CIRCLE
  5
1A778
330
1A65A
100
AcDbEntity
  8
HASHIRA
100
AcDbCircle
 10
5084.21703198606
 20
9235.715360473252
 30
0.0
 40
9.0
  0
CIRCLE
  5
1A779
330
1A65A
100
AcDbEntity
  8
HASHIRA
100
AcDbCircle
 10
5084.21703198606
 20
9355.715360473253
 30
0.0
 40
9.0
  0
CIRCLE
  5
1A77A
330
1A65A
100
AcDbEntity
  8
HASHIRA
100
AcDbCircle
 10
7534.217031986059
 20
5635.715360473253
 30
0.0
 40
9.0
  0
CIRCLE
  5
1A77B
330
1A65A
100
AcDbEntity
  8
HASHIRA
100
AcDbCircle
 10
7534.217031986059
 20
5755.715360473253
 30
0.0
 40
9.0
  0
CIRCLE
  5
1A77C
330
1A65A
100
AcDbEntity
  8
HASHIRA
100
AcDbCircle
 10
7534.217031986059
 20
7435.715360473253
 30
0.0
 40
9.0
  0
CIRCLE
  5
1A77D
330
1A65A
100
AcDbEntity
  8
HASHIRA
100
AcDbCircle
 10
7534.217031986059
 20
7555.715360473254
 30
0.0
 40
9.0
  0
CIRCLE
  5
1A77E
330
1A65A
100
AcDbEntity
  8
HASHIRA
100
AcDbCircle
 10
7534.217031986059
 20
9235.715360473252
 30
0.0
 40
9.0
  0
CIRCLE
  5
1A77F
330
1A65A
100
AcDbEntity
  8
HASHIRA
100
AcDbCircle
 10
7534.217031986059
 20
9355.715360473253
 30
0.0
 40
9.0
  0
CIRCLE
  5
1A780
330
1A65A
100
AcDbEntity
  8
HASHIRA
100
AcDbCircle
 10
8834.21703198606
 20
5635.715360473253
 30
0.0
 40
9.0
  0
CIRCLE
  5
1A781
330
1A65A
100
AcDbEntity
  8
HASHIRA
100
AcDbCircle
 10
8834.21703198606
 20
5755.715360473253
 30
0.0
 40
9.0
  0
CIRCLE
  5
1A782
330
1A65A
100
AcDbEntity
  8
HASHIRA
100
AcDbCircle
 10
8834.21703198606
 20
7435.715360473253
 30
0.0
 40
9.0
  0
CIRCLE
  5
1A783
330
1A65A
100
AcDbEntity
  8
HASHIRA
100
AcDbCircle
 10
8834.21703198606
 20
7555.715360473254
 30
0.0
 40
9.0
  0
CIRCLE
  5
1A784
330
1A65A
100
AcDbEntity
  8
HASHIRA
100
AcDbCircle
 10
8834.21703198606
 20
9235.715360473252
 30
0.0
 40
9.0
  0
CIRCLE
  5
1A785
330
1A65A
100
AcDbEntity
  8
HASHIRA
100
AcDbCircle
 10
8834.21703198606
 20
9355.715360473253
 30
0.0
 40
9.0
  0
CIRCLE
  5
1A786
330
1A65A
100
AcDbEntity
  8
HASHIRA
100
AcDbCircle
 10
11284.21703198606
 20
5635.715360473253
 30
0.0
 40
9.0
  0
CIRCLE
  5
1A787
330
1A65A
100
AcDbEntity
  8
HASHIRA
100
AcDbCircle
 10
11284.21703198606
 20
5755.715360473253
 30
0.0
 40
9.0
  0
CIRCLE
  5
1A788
330
1A65A
100
AcDbEntity
  8
HASHIRA
100
AcDbCircle
 10
11284.21703198606
 20
7435.715360473253
 30
0.0
 40
9.0
  0
CIRCLE
  5
1A789
330
1A65A
100
AcDbEntity
  8
HASHIRA
100
AcDbCircle
 10
11284.21703198606
 20
7555.715360473254
 30
0.0
 40
9.0
  0
CIRCLE
  5
1A78A
330
1A65A
100
AcDbEntity
  8
HASHIRA
100
AcDbCircle
 10
11284.21703198606
 20
9235.715360473252
 30
0.0
 40
9.0
  0
CIRCLE
  5
1A78B
330
1A65A
100
AcDbEntity
  8
HASHIRA
100
AcDbCircle
 10
11284.21703198606
 20
9355.715360473253
 30
0.0
 40
9.0
  0
LINE
  5
1A78C
330
1A65A
100
AcDbEntity
  8
1PL-M1
100
AcDbLine
 10
4799.797051267463
 20
2428.172125878786
 30
0.0
 11
4799.797051267463
 21
4175.485411556191
 31
0.0
  0
LINE
  5
1A78D
330
1A65A
100
AcDbEntity
  8
KISO
100
AcDbLine
 10
6082.193774006775
 20
3456.684839419605
 30
0.0
 11
4851.797051267459
 21
3456.684839419605
 31
0.0
  0
LINE
  5
1A78E
330
1A65A
100
AcDbEntity
  8
KISO
100
AcDbLine
 10
6082.193774006776
 20
3319.084839419605
 30
0.0
 11
4319.797051267466
 21
3319.084839419603
 31
0.0
  0
LINE
  5
1A78F
330
1A65A
100
AcDbEntity
  8
HATCH
100
AcDbLine
 10
5031.155511458886
 20
3456.684839419605
 30
0.0
 11
4893.555511458895
 21
3319.084839419605
 31
0.0
  0
LINE
  5
1A790
330
1A65A
100
AcDbEntity
  8
U3
100
AcDbLine
 10
3353.961658022964
 20
3376.684839419603
 30
0.0
 11
3521.961658022965
 21
3208.684839419607
 31
0.0
  0
LINE
  5
1A791
330
1A65A
100
AcDbEntity
  8
U3
100
AcDbLine
 10
3303.049969777532
 20
3325.773151174173
 30
0.0
 11
3420.1382815321
 21
3208.684839419603
 31
0.0
  0
LINE
  5
1A792
330
1A65A
100
AcDbEntity
  8
U3
100
AcDbLine
 10
3589.820095533321
 20
3376.684839419604
 30
0.0
 11
3017.961658022965
 21
3376.684839419604
 31
0.0
  0
LINE
  5
1A793
330
1A65A
100
AcDbEntity
  8
U3
100
AcDbLine
 10
3084.1382815321
 20
3310.508215910466
 30
0.0
 11
3150.314905041233
 21
3376.684839419601
 31
0.0
  0
LINE
  5
1A794
330
1A65A
100
AcDbEntity
  8
U3
100
AcDbLine
 10
3017.961658022965
 20
3376.684839419601
 30
0.0
 11
3185.961658022964
 21
3208.684839419606
 31
0.0
  0
LINE
  5
1A795
330
1A65A
100
AcDbEntity
  8
U3
100
AcDbLine
 10
3135.049969777532
 20
3259.596527665037
 30
0.0
 11
3252.1382815321
 21
3376.684839419601
 31
0.0
  0
LINE
  5
1A796
330
1A65A
100
AcDbEntity
  8
U3
100
AcDbLine
 10
3185.961658022964
 20
3208.684839419606
 30
0.0
 11
3353.961658022964
 21
3376.684839419603
 31
0.0
  0
LINE
  5
1A797
330
1A65A
100
AcDbEntity
  8
U3
100
AcDbLine
 10
3252.1382815321
 20
3274.86146292874
 30
0.0
 11
3318.314905041237
 21
3208.684839419603
 31
0.0
  0
LINE
  5
1A798
330
1A65A
100
AcDbEntity
  8
U3
100
AcDbLine
 10
3521.961658022965
 20
3208.684839419607
 30
0.0
 11
3589.820095533321
 21
3276.543276929964
 31
0.0
  0
LINE
  5
1A799
330
1A65A
100
AcDbEntity
  8
U3
100
AcDbLine
 10
3420.1382815321
 20
3310.508215910469
 30
0.0
 11
3486.314905041234
 21
3376.684839419603
 31
0.0
  0
LINE
  5
1A79A
330
1A65A
100
AcDbEntity
  8
U3
100
AcDbLine
 10
3471.049969777533
 20
3259.596527665038
 30
0.0
 11
3588.138281532103
 21
3376.684839419603
 31
0.0
  0
LINE
  5
1A79B
330
1A65A
100
AcDbEntity
  8
HASHIRA
100
AcDbLine
 10
4851.797051267459
 20
3328.684839419607
 30
0.0
 11
4851.797051267459
 21
3718.91804462035
 31
0.0
  0
LINE
  5
1A79C
330
1A65A
100
AcDbEntity
  8
HASHIRA
100
AcDbLine
 10
4747.797051267458
 20
3718.91804462035
 30
0.0
 11
4747.797051267458
 21
3328.684839419607
 31
0.0
  0
LINE
  5
1A79D
330
1A65A
100
AcDbEntity
  8
U3
100
AcDbLine
 10
4319.797051267463
 20
3376.684839419605
 30
0.0
 11
3909.820095533321
 21
3376.684839419603
 31
0.0
  0
LINE
  5
1A79E
330
1A65A
100
AcDbEntity
  8
U3
100
AcDbLine
 10
4098.782873409589
 20
3310.508215910469
 30
0.0
 11
4159.797051267463
 21
3371.522393768344
 31
0.0
  0
LINE
  5
1A79F
330
1A65A
100
AcDbEntity
  8
U3
100
AcDbLine
 10
4032.606249900456
 20
3376.684839419603
 30
0.0
 11
4159.797051267463
 21
3249.494038052592
 31
0.0
  0
LINE
  5
1A7A0
330
1A65A
100
AcDbEntity
  8
U3
100
AcDbLine
 10
3975.765342899848
 20
3331.702369929347
 30
0.0
 11
4098.782873409595
 21
3208.684839419603
 31
0.0
  0
LINE
  5
1A7A1
330
1A65A
100
AcDbEntity
  8
KISO
100
AcDbLine
 10
4747.797051267458
 20
3456.684839419605
 30
0.0
 11
4319.797051267466
 21
3456.684839419605
 31
0.0
  0
LINE
  5
1A7A2
330
1A65A
100
AcDbEntity
  8
HATCH
100
AcDbLine
 10
4831.314626963208
 20
3319.08483941961
 30
0.0
 11
4810.197051267466
 21
3297.967263723867
 31
0.0
  0
LINE
  5
1A7A3
330
1A65A
100
AcDbEntity
  8
KISO
100
AcDbLine
 10
5279.797051267472
 20
3191.084839419601
 30
0.0
 11
6082.193774006776
 21
3191.084839419605
 31
0.0
  0
LINE
  5
1A7A4
330
1A65A
100
AcDbEntity
  8
HATCH
100
AcDbLine
 10
6038.673087154623
 20
3456.684839419603
 30
0.0
 11
5901.073087154634
 21
3319.084839419605
 31
0.0
  0
LINE
  5
1A7A5
330
1A65A
100
AcDbEntity
  8
HATCH
100
AcDbLine
 10
6086.190662850363
 20
3456.684839419603
 30
0.0
 11
5948.590662850365
 21
3319.084839419605
 31
0.0
  0
LINE
  5
1A7A6
330
1A65A
100
AcDbEntity
  8
HATCH
100
AcDbLine
 10
5511.155511458887
 20
3456.684839419605
 30
0.0
 11
5373.555511458892
 21
3319.084839419605
 31
0.0
  0
LINE
  5
1A7A7
330
1A65A
100
AcDbEntity
  8
HATCH
100
AcDbLine
 10
5558.673087154621
 20
3456.684839419603
 30
0.0
 11
5421.073087154634
 21
3319.084839419605
 31
0.0
  0
LINE
  5
1A7A8
330
1A65A
100
AcDbEntity
  8
HATCH
100
AcDbLine
 10
5126.190662850362
 20
3456.684839419603
 30
0.0
 11
4988.590662850366
 21
3319.084839419605
 31
0.0
  0
LINE
  5
1A7A9
330
1A65A
100
AcDbEntity
  8
HATCH
100
AcDbLine
 10
5078.673087154623
 20
3456.684839419603
 30
0.0
 11
4941.073087154634
 21
3319.084839419605
 31
0.0
  0
LINE
  5
1A7AA
330
1A65A
100
AcDbEntity
  8
HATCH
100
AcDbLine
 10
5606.190662850362
 20
3456.684839419603
 30
0.0
 11
5468.590662850367
 21
3319.084839419605
 31
0.0
  0
LINE
  5
1A7AB
330
1A65A
100
AcDbEntity
  8
HATCH
100
AcDbLine
 10
5991.155511458885
 20
3456.684839419605
 30
0.0
 11
5853.555511458891
 21
3319.084839419605
 31
0.0
  0
LINE
  5
1A7AC
330
1A65A
100
AcDbEntity
  8
KISO
100
AcDbLine
 10
4319.797051267466
 20
3456.684839419605
 30
0.0
 11
4319.797051267466
 21
2711.084839419603
 31
0.0
  0
LINE
  5
1A7AD
330
1A65A
100
AcDbEntity
  8
KISO
100
AcDbLine
 10
5279.797051267466
 20
3319.084839419601
 30
0.0
 11
5279.797051267466
 21
2711.084839419603
 31
0.0
  0
LINE
  5
1A7AE
330
1A65A
100
AcDbEntity
  8
HATCH
100
AcDbLine
 10
5279.797051267466
 20
2903.567263723863
 30
0.0
 11
5087.314626963208
 21
2711.084839419605
 31
0.0
  0
LINE
  5
1A7AF
330
1A65A
100
AcDbEntity
  8
HATCH
100
AcDbLine
 10
5279.797051267466
 20
3288.049688028129
 30
0.0
 11
4702.832202658948
 21
2711.084839419605
 31
0.0
  0
LINE
  5
1A7B0
330
1A65A
100
AcDbEntity
  8
HATCH
100
AcDbLine
 10
5263.314626963204
 20
3319.084839419601
 30
0.0
 11
4810.197051267466
 21
2865.96726372386
 31
0.0
  0
LINE
  5
1A7B1
330
1A65A
100
AcDbEntity
  8
HATCH
100
AcDbLine
 10
5215.797051267466
 20
3319.084839419601
 30
0.0
 11
4810.197051267466
 21
2913.484839419598
 31
0.0
  0
LINE
  5
1A7B2
330
1A65A
100
AcDbEntity
  8
HATCH
100
AcDbLine
 10
5279.797051267466
 20
2856.049688028123
 30
0.0
 11
5134.832202658948
 21
2711.084839419605
 31
0.0
  0
LINE
  5
1A7B3
330
1A65A
100
AcDbEntity
  8
HATCH
100
AcDbLine
 10
5279.797051267466
 20
2808.53211233239
 30
0.0
 11
5182.34977835468
 21
2711.084839419605
 31
0.0
  0
LINE
  5
1A7B4
330
1A65A
100
AcDbEntity
  8
HATCH
100
AcDbLine
 10
4783.797051267482
 20
3319.08483941961
 30
0.0
 11
4319.797051267466
 21
2855.084839419594
 31
0.0
  0
LINE
  5
1A7B5
330
1A65A
100
AcDbEntity
  8
HATCH
100
AcDbLine
 10
4736.279475571732
 20
3319.084839419604
 30
0.0
 11
4319.797051267466
 21
2902.602415115334
 31
0.0
  0
LINE
  5
1A7B6
330
1A65A
100
AcDbEntity
  8
HATCH
100
AcDbLine
 10
4789.397051267463
 20
3277.167263723864
 30
0.0
 11
4319.797051267466
 21
2807.567263723863
 31
0.0
  0
LINE
  5
1A7B7
330
1A65A
100
AcDbEntity
  8
HATCH
100
AcDbLine
 10
4351.797051267472
 20
3319.084839419603
 30
0.0
 11
4319.797051267466
 21
3287.084839419597
 31
0.0
  0
LINE
  5
1A7B8
330
1A65A
100
AcDbEntity
  8
HATCH
100
AcDbLine
 10
4789.397051267463
 20
2892.684839419597
 30
0.0
 11
4766.19705126748
 21
2869.48483941961
 31
0.0
  0
LINE
  5
1A7B9
330
1A65A
100
AcDbEntity
  8
HATCH
100
AcDbLine
 10
4745.397051267482
 20
2848.684839419609
 30
0.0
 11
4607.797051267477
 21
2711.084839419605
 31
0.0
  0
LINE
  5
1A7BA
330
1A65A
100
AcDbEntity
  8
U3
100
AcDbLine
 10
3924.853654654415
 20
3280.790681683919
 30
0.0
 11
3996.959496918732
 21
3208.684839419603
 31
0.0
  0
LINE
  5
1A7BB
330
1A65A
100
AcDbEntity
  8
U3
100
AcDbLine
 10
3909.820095533321
 20
3265.757122562824
 30
0.0
 11
4020.747812390101
 21
3376.684839419601
 31
0.0
  0
LINE
  5
1A7BC
330
1A65A
100
AcDbEntity
  8
HATCH
100
AcDbLine
 10
4792.914626963221
 20
2848.684839419609
 30
0.0
 11
4655.314626963214
 21
2711.084839419605
 31
0.0
  0
LINE
  5
1A7BD
330
1A65A
100
AcDbEntity
  8
HATCH
100
AcDbLine
 10
4646.190662850361
 20
3456.684839419603
 30
0.0
 11
4508.590662850366
 21
3319.084839419605
 31
0.0
  0
LINE
  5
1A7BE
330
1A65A
100
AcDbEntity
  8
HATCH
100
AcDbLine
 10
4598.673087154621
 20
3456.684839419603
 30
0.0
 11
4461.073087154633
 21
3319.084839419605
 31
0.0
  0
LINE
  5
1A7BF
330
1A65A
100
AcDbEntity
  8
HATCH
100
AcDbLine
 10
4551.155511458886
 20
3456.684839419605
 30
0.0
 11
4413.555511458896
 21
3319.084839419605
 31
0.0
  0
LINE
  5
1A7C0
330
1A65A
100
AcDbEntity
  8
SUNPOU
100
AcDbLine
 10
4799.797051267463
 20
4130.485411556192
 30
0.0
 11
6225.027558517715
 21
4130.485411556192
 31
0.0
  0
TEXT
  5
1A7C1
330
1A65A
100
AcDbEntity
  8
SUNPOU
100
AcDbText
 10
5585.624750407928
 20
4175.485411556191
 30
0.0
 40
90.0
  1
2450
 41
0.6666666666666666
  7
00
 72
     4
 11
5699.910464693643
 21
4220.485411556191
 31
0.0
100
AcDbText
  0
LINE
  5
1A7C2
330
1A65A
100
AcDbEntity
  8
HATCH
100
AcDbLine
 10
4854.393513160306
 20
2551.084839419603
 30
0.0
 11
4946.769555826971
 21
2711.084839419603
 31
0.0
  0
LINE
  5
1A7C3
330
1A65A
100
AcDbEntity
  8
HATCH
100
AcDbLine
 10
4893.436222493638
 20
2711.084839419603
 30
0.0
 11
4920.102889160304
 21
2664.89681675294
 31
0.0
  0
LINE
  5
1A7C4
330
1A65A
100
AcDbEntity
  8
HATCH
100
AcDbLine
 10
4881.060179826974
 20
2597.272860752933
 30
0.0
 11
4907.726846493638
 21
2551.084839419603
 31
0.0
  0
LINE
  5
1A7C5
330
1A65A
100
AcDbEntity
  8
HATCH
100
AcDbLine
 10
4681.060179826974
 20
2597.272860752933
 30
0.0
 11
4707.726846493637
 21
2551.084839419603
 31
0.0
  0
LINE
  5
1A7C6
330
1A65A
100
AcDbEntity
  8
HATCH
100
AcDbLine
 10
4693.436222493637
 20
2711.084839419603
 30
0.0
 11
4720.102889160304
 21
2664.89681675294
 31
0.0
  0
LINE
  5
1A7C7
330
1A65A
100
AcDbEntity
  8
HATCH
100
AcDbLine
 10
4481.060179826974
 20
2597.272860752933
 30
0.0
 11
4507.726846493638
 21
2551.084839419603
 31
0.0
  0
LINE
  5
1A7C8
330
1A65A
100
AcDbEntity
  8
HATCH
100
AcDbLine
 10
4454.393513160304
 20
2551.084839419603
 30
0.0
 11
4546.769555826971
 21
2711.084839419603
 31
0.0
  0
LINE
  5
1A7C9
330
1A65A
100
AcDbEntity
  8
HATCH
100
AcDbLine
 10
4493.436222493636
 20
2711.084839419603
 30
0.0
 11
4520.102889160304
 21
2664.89681675294
 31
0.0
  0
LINE
  5
1A7CA
330
1A65A
100
AcDbEntity
  8
HATCH
100
AcDbLine
 10
4281.060179826972
 20
2597.272860752933
 30
0.0
 11
4307.726846493639
 21
2551.084839419603
 31
0.0
  0
LINE
  5
1A7CB
330
1A65A
100
AcDbEntity
  8
HATCH
100
AcDbLine
 10
4293.436222493638
 20
2711.084839419603
 30
0.0
 11
4320.102889160303
 21
2664.89681675294
 31
0.0
  0
LINE
  5
1A7CC
330
1A65A
100
AcDbEntity
  8
HATCH
100
AcDbLine
 10
4254.393513160304
 20
2551.084839419603
 30
0.0
 11
4346.769555826971
 21
2711.084839419603
 31
0.0
  0
LINE
  5
1A7CD
330
1A65A
100
AcDbEntity
  8
HATCH
100
AcDbLine
 10
4654.393513160306
 20
2551.084839419603
 30
0.0
 11
4746.769555826971
 21
2711.084839419603
 31
0.0
  0
LINE
  5
1A7CE
330
1A65A
100
AcDbEntity
  8
HATCH
100
AcDbLine
 10
5093.436222493638
 20
2711.084839419603
 30
0.0
 11
5120.102889160303
 21
2664.89681675294
 31
0.0
  0
LINE
  5
1A7CF
330
1A65A
100
AcDbEntity
  8
HATCH
100
AcDbLine
 10
5054.393513160306
 20
2551.084839419603
 30
0.0
 11
5146.769555826971
 21
2711.084839419603
 31
0.0
  0
LINE
  5
1A7D0
330
1A65A
100
AcDbEntity
  8
HATCH
100
AcDbLine
 10
5081.060179826973
 20
2597.272860752933
 30
0.0
 11
5107.72684649364
 21
2551.084839419603
 31
0.0
  0
TEXT
  5
1A7D1
330
1A65A
100
AcDbEntity
  8
SUNPOU
100
AcDbText
 10
3070.061516132469
 20
3511.684839419604
 30
0.0
 40
90.0
  1
G.L
 41
0.6700000000000001
  7
01
 72
     4
 11
3141.847230418183
 21
3556.684839419605
 31
0.0
100
AcDbText
  0
LINE
  5
1A7D2
330
1A65A
100
AcDbEntity
  8
SUNPOU
100
AcDbLine
 10
3193.80875464525
 20
3466.684839419605
 30
0.0
 11
3089.885706191117
 21
3466.684839419605
 31
0.0
  0
LINE
  5
1A7D3
330
1A65A
100
AcDbEntity
  8
SUNPOU
100
AcDbLine
 10
3089.885706191117
 20
3466.684839419605
 30
0.0
 11
3141.847230418183
 21
3376.684839419604
 31
0.0
  0
LINE
  5
1A7D4
330
1A65A
100
AcDbEntity
  8
SUNPOU
100
AcDbLine
 10
3141.847230418183
 20
3376.684839419604
 30
0.0
 11
3193.80875464525
 21
3466.684839419605
 31
0.0
  0
TEXT
  5
1A7D5
330
1A65A
100
AcDbEntity
  8
HIKIDASHI
100
AcDbText
 10
4876.000654146238
 20
1664.635820576935
 30
0.0
 40
90.0
  1
断 面
  7
01
100
AcDbText
  0
LINE
  5
1A7D6
330
1A65A
100
AcDbEntity
  8
HIKIDASHI
100
AcDbLine
 10
4451.983374649677
 20
1619.635820576936
 30
0.0
 11
5147.610727885247
 21
1619.635820576936
 31
0.0
  0
LINE
  5
1A7D7
330
1A65A
100
AcDbEntity
  8
HIKIDASHI
100
AcDbLine
 10
4451.983374649677
 20
1589.635820576935
 30
0.0
 11
5147.610727885247
 21
1589.635820576935
 31
0.0
  0
TEXT
  5
1A7D8
330
1A65A
100
AcDbEntity
  8
HIKIDASHI
100
AcDbText
 10
4481.983374649677
 20
1664.635820576935
 30
0.0
 40
90.0
  1
A  ~  A'
 41
0.6700000000000001
  7
00
100
AcDbText
  0
TEXT
  5
1A7D9
330
1A65A
100
AcDbEntity
  8
HIKIDASHI
100
AcDbText
 10
5718.705531692625
 20
2949.11470702088
 30
0.0
 40
90.0
  1
敷砂利又は砕石
  7
01
 72
     2
 11
6450.705531692626
 21
2994.11470702088
 31
0.0
100
AcDbText
 73
     2
  0
LINE
  5
1A7DA
330
1A65A
100
AcDbEntity
  8
HIKIDASHI
100
AcDbLine
 10
6475.935832338305
 20
2904.11470702088
 30
0.0
 11
5674.871662611158
 21
2904.11470702088
 31
0.0
  0
TEXT
  5
1A7DB
330
1A65A
100
AcDbEntity
  8
HIKIDASHI
100
AcDbText
 10
5683.40570439457
 20
2393.304238552882
 30
0.0
 40
90.0
  1
砕　石
  7
01
 72
     2
 11
5983.40570439457
 21
2438.304238552882
 31
0.0
100
AcDbText
 73
     2
  0
LINE
  5
1A7DC
330
1A65A
100
AcDbEntity
  8
HIKIDASHI
100
AcDbLine
 10
6025.104473630285
 20
2348.304238552882
 30
0.0
 11
5656.338096802658
 21
2348.304238552882
 31
0.0
  0
TEXT
  5
1A7DD
330
1A65A
100
AcDbEntity
  8
SUNPOU
100
AcDbText
 10
5597.491760556315
 20
2578.884705856377
 30
0.0
 40
90.0
  1
4-D13×4-D13
 41
0.6700000000000001
  7
01
 72
     4
 11
5940.914617699172
 21
2623.884705856377
 31
0.0
100
AcDbText
  0
TEXT
  5
1A7DE
330
1A65A
100
AcDbEntity
  8
SUNPOU
100
AcDbText
 10
5732.60747484203
 20
2713.884705856377
 30
0.0
 40
90.0
  1
ベース筋
  7
01
 72
     4
 11
5936.60747484203
 21
2758.884705856377
 31
0.0
100
AcDbText
  0
TEXT
  5
1A7DF
330
1A65A
100
AcDbEntity
  8
HIKIDASHI
100
AcDbText
 10
3323.84503516408
 20
1814.878869270348
 30
0.0
 40
89.55223880597014
  1
x
 41
0.6700000000000001
  7
00
100
AcDbText
  0
TEXT
  5
1A7E0
330
1A65A
100
AcDbEntity
  8
HIKIDASHI
100
AcDbText
 10
3252.010097973705
 20
1803.088394027934
 30
0.0
 40
67.16417910447761
  1
2
 41
0.6700000000000001
  7
00
100
AcDbText
  0
TEXT
  5
1A7E1
330
1A65A
100
AcDbEntity
  8
HIKIDASHI
100
AcDbText
 10
3164.118061414784
 20
1830.114449058496
 30
0.0
 40
67.16417910447761
  1
1
 41
0.6700000000000001
  7
00
100
AcDbText
  0
TEXT
  5
1A7E2
330
1A65A
100
AcDbEntity
  8
HIKIDASHI
100
AcDbText
 10
3089.517250731561
 20
1803.684839419601
 30
0.0
 40
89.55223880597014
  1
W ／
 41
0.6700000000000001
  7
00
100
AcDbText
  0
TEXT
  5
1A7E3
330
1A65A
100
AcDbEntity
  8
HIKIDASHI
100
AcDbText
 10
3404.980414317213
 20
1803.475853219509
 30
0.0
 40
89.55223880597014
  1
300
 41
0.6700000000000001
  7
00
100
AcDbText
  0
TEXT
  5
1A7E4
330
1A65A
100
AcDbEntity
  8
HIKIDASHI
100
AcDbText
 10
3089.517250731561
 20
1983.6848394196
 30
0.0
 40
90.0
  1
アンカーボルト
  7
01
100
AcDbText
  0
LINE
  5
1A7E5
330
1A65A
100
AcDbEntity
  8
HIKIDASHI
100
AcDbLine
 10
3060.437641869853
 20
1938.6848394196
 30
0.0
 11
3880.443655266704
 21
1938.6848394196
 31
0.0
  0
LINE
  5
1A7E6
330
1A65A
100
AcDbEntity
  8
CENTER
  6
1PL-M
100
AcDbLine
 10
9574.21703198606
 20
7495.715360473251
 30
0.0
 11
12129.21703198605
 21
7495.715360473251
 31
0.0
  0
CIRCLE
  5
1A804
330
1A65A
100
AcDbEntity
  8
BOLT
100
AcDbCircle
 10
8580.123251791111
 20
3426.2848394196
 30
0.0
 40
13.2
  0
CIRCLE
  5
1A805
330
1A65A
100
AcDbEntity
  8
BOLT
100
AcDbCircle
 10
8580.123251791111
 20
3426.2848394196
 30
0.0
 40
16.8
  0
CIRCLE
  5
1A806
330
1A65A
100
AcDbEntity
  8
BOLT
100
AcDbCircle
 10
8580.123251791111
 20
3362.2848394196
 30
0.0
 40
16.8
  0
CIRCLE
  5
1A807
330
1A65A
100
AcDbEntity
  8
BOLT
100
AcDbCircle
 10
8580.123251791111
 20
3362.2848394196
 30
0.0
 40
13.2
  0
LINE
  5
1A808
330
1A65A
100
AcDbEntity
  8
KISO
100
AcDbLine
 10
9862.519974530416
 20
3456.684839419605
 30
0.0
 11
8632.123251791107
 21
3456.684839419605
 31
0.0
  0
LINE
  5
1A809
330
1A65A
100
AcDbEntity
  8
KISO
100
AcDbLine
 10
7297.726529051804
 20
3191.0848394196
 30
0.0
 11
7940.12325179111
 21
3191.0848394196
 31
0.0
  0
LINE
  5
1A80A
330
1A65A
100
AcDbEntity
  8
KISO
100
AcDbLine
 10
8528.123251791111
 20
3456.684839419605
 30
0.0
 11
7297.726529051804
 21
3456.684839419605
 31
0.0
  0
LINE
  5
1A80B
330
1A65A
100
AcDbEntity
  8
HASHIRA
100
AcDbLine
 10
8632.123251791107
 20
3333.484839419603
 30
0.0
 11
8632.123251791101
 21
3583.485411556191
 31
0.0
  0
LINE
  5
1A80C
330
1A65A
100
AcDbEntity
  8
HASHIRA
100
AcDbLine
 10
8528.123251791111
 20
3583.485411556191
 30
0.0
 11
8528.123251791111
 21
3333.484839419603
 31
0.0
  0
LINE
  5
1A80D
330
1A65A
100
AcDbEntity
  8
HATCH
100
AcDbLine
 10
8331.481711982535
 20
3456.684839419605
 30
0.0
 11
8193.881711982536
 21
3319.084839419603
 31
0.0
  0
LINE
  5
1A80E
330
1A65A
100
AcDbEntity
  8
HATCH
100
AcDbLine
 10
8426.516863374008
 20
3456.684839419605
 30
0.0
 11
8288.916863374007
 21
3319.084839419603
 31
0.0
  0
LINE
  5
1A80F
330
1A65A
100
AcDbEntity
  8
HATCH
100
AcDbLine
 10
8378.999287678274
 20
3456.684839419605
 30
0.0
 11
8241.399287678278
 21
3319.084839419603
 31
0.0
  0
LINE
  5
1A810
330
1A65A
100
AcDbEntity
  8
1PL-S1
100
AcDbLine
 10
8468.12325179111
 20
3309.484839419603
 30
0.0
 11
8468.12325179111
 21
3338.284839419605
 31
0.0
  0
LINE
  5
1A811
330
1A65A
100
AcDbEntity
  8
HATCH
100
AcDbLine
 10
8811.481711982535
 20
3456.684839419605
 30
0.0
 11
8673.881711982531
 21
3319.084839419603
 31
0.0
  0
LINE
  5
1A812
330
1A65A
100
AcDbEntity
  8
HATCH
100
AcDbLine
 10
8858.999287678274
 20
3456.684839419605
 30
0.0
 11
8721.399287678272
 21
3319.084839419603
 31
0.0
  0
LINE
  5
1A813
330
1A65A
100
AcDbEntity
  8
1PL-S1
100
AcDbLine
 10
8692.123251791107
 20
3309.484839419599
 30
0.0
 11
8692.123251791107
 21
3338.284839419598
 31
0.0
  0
LINE
  5
1A814
330
1A65A
100
AcDbEntity
  8
HATCH
100
AcDbLine
 10
8906.516863374006
 20
3456.684839419605
 30
0.0
 11
8768.916863374007
 21
3319.084839419603
 31
0.0
  0
LINE
  5
1A815
330
1A65A
100
AcDbEntity
  8
HATCH
100
AcDbLine
 10
9291.481711982534
 20
3456.684839419605
 30
0.0
 11
9153.881711982533
 21
3319.084839419603
 31
0.0
  0
LINE
  5
1A816
330
1A65A
100
AcDbEntity
  8
HATCH
100
AcDbLine
 10
9338.999287678275
 20
3456.684839419605
 30
0.0
 11
9201.399287678272
 21
3319.084839419603
 31
0.0
  0
LINE
  5
1A817
330
1A65A
100
AcDbEntity
  8
HATCH
100
AcDbLine
 10
9386.516863374007
 20
3456.684839419605
 30
0.0
 11
9248.916863374004
 21
3319.084839419603
 31
0.0
  0
LINE
  5
1A818
330
1A65A
100
AcDbEntity
  8
HATCH
100
AcDbLine
 10
9866.516863374007
 20
3456.684839419605
 30
0.0
 11
9728.916863374005
 21
3319.084839419603
 31
0.0
  0
LINE
  5
1A819
330
1A65A
100
AcDbEntity
  8
HATCH
100
AcDbLine
 10
9818.999287678275
 20
3456.684839419605
 30
0.0
 11
9681.399287678276
 21
3319.084839419603
 31
0.0
  0
LINE
  5
1A81A
330
1A65A
100
AcDbEntity
  8
HATCH
100
AcDbLine
 10
9771.481711982536
 20
3456.684839419605
 30
0.0
 11
9633.881711982532
 21
3319.084839419603
 31
0.0
  0
LINE
  5
1A81B
330
1A65A
100
AcDbEntity
  8
KISO
100
AcDbLine
 10
9862.519974530416
 20
3319.084839419603
 30
0.0
 11
7297.726529051804
 21
3319.084839419603
 31
0.0
  0
LINE
  5
1A81C
330
1A65A
100
AcDbEntity
  8
HATCH
100
AcDbLine
 10
9220.123251791108
 20
3285.236002075317
 30
0.0
 11
9239.665887143591
 21
3319.084839419603
 31
0.0
  0
LINE
  5
1A81D
330
1A65A
100
AcDbEntity
  8
HATCH
100
AcDbLine
 10
9220.123251791108
 20
3073.167263723867
 30
0.0
 11
8858.040827486851
 21
2711.084839419607
 31
0.0
  0
LINE
  5
1A81E
330
1A65A
100
AcDbEntity
  8
HATCH
100
AcDbLine
 10
9220.123251791108
 20
3025.64968802813
 30
0.0
 11
8905.558403182586
 21
2711.084839419607
 31
0.0
  0
LINE
  5
1A81F
330
1A65A
100
AcDbEntity
  8
HATCH
100
AcDbLine
 10
9220.123251791108
 20
2978.132112332395
 30
0.0
 11
8953.075978878327
 21
2711.084839419608
 31
0.0
  0
LINE
  5
1A820
330
1A65A
100
AcDbEntity
  8
HATCH
100
AcDbLine
 10
9034.040827486844
 20
3319.084839419603
 30
0.0
 11
8702.523251791111
 21
2987.567263723864
 31
0.0
  0
LINE
  5
1A821
330
1A65A
100
AcDbEntity
  8
HATCH
100
AcDbLine
 10
9081.558403182574
 20
3319.084839419603
 30
0.0
 11
8702.523251791111
 21
2940.049688028133
 31
0.0
  0
LINE
  5
1A822
330
1A65A
100
AcDbEntity
  8
HATCH
100
AcDbLine
 10
8986.523251791107
 20
3319.084839419601
 30
0.0
 11
8702.523251791111
 21
3035.084839419601
 31
0.0
  0
LINE
  5
1A823
330
1A65A
100
AcDbEntity
  8
KISO
100
AcDbLine
 10
9220.123251791108
 20
3319.084839419605
 30
0.0
 11
9220.123251791108
 21
2711.084839419607
 31
0.0
  0
LINE
  5
1A824
330
1A65A
100
AcDbEntity
  8
KISO
100
AcDbLine
 10
7940.12325179111
 20
3319.084839419605
 30
0.0
 11
7940.12325179111
 21
2711.084839419607
 31
0.0
  0
LINE
  5
1A825
330
1A65A
100
AcDbEntity
  8
HATCH
100
AcDbLine
 10
8122.523251791113
 20
3319.084839419603
 30
0.0
 11
7940.12325179111
 21
3136.684839419602
 31
0.0
  0
LINE
  5
1A826
330
1A65A
100
AcDbEntity
  8
HATCH
100
AcDbLine
 10
8070.205676095381
 20
3314.284839419603
 30
0.0
 11
7940.12325179111
 21
3184.202415115334
 31
0.0
  0
LINE
  5
1A827
330
1A65A
100
AcDbEntity
  8
HATCH
100
AcDbLine
 10
8681.72325179111
 20
3014.284839419604
 30
0.0
 11
8378.523251791127
 21
2711.084839419607
 31
0.0
  0
LINE
  5
1A828
330
1A65A
100
AcDbEntity
  8
HATCH
100
AcDbLine
 10
8681.723251791105
 20
2966.767263723863
 30
0.0
 11
8426.040827486863
 21
2711.084839419607
 31
0.0
  0
LINE
  5
1A829
330
1A65A
100
AcDbEntity
  8
HATCH
100
AcDbLine
 10
8681.723251791105
 20
2919.249688028132
 30
0.0
 11
8473.55840318259
 21
2711.084839419607
 31
0.0
  0
LINE
  5
1A82A
330
1A65A
100
AcDbEntity
  8
HATCH
100
AcDbLine
 10
8507.005676095374
 20
3319.084839419603
 30
0.0
 11
8478.523251791115
 21
3290.602415115337
 31
0.0
  0
LINE
  5
1A82B
330
1A65A
100
AcDbEntity
  8
HATCH
100
AcDbLine
 10
8457.723251791113
 20
3269.802415115337
 30
0.0
 11
7940.12325179111
 21
2752.202415115339
 31
0.0
  0
LINE
  5
1A82C
330
1A65A
100
AcDbEntity
  8
HATCH
100
AcDbLine
 10
8554.523251791115
 20
3319.084839419603
 30
0.0
 11
8478.523251791115
 21
3243.084839419598
 31
0.0
  0
LINE
  5
1A82D
330
1A65A
100
AcDbEntity
  8
HATCH
100
AcDbLine
 10
8457.723251791113
 20
3222.284839419597
 30
0.0
 11
7946.523251791126
 21
2711.084839419607
 31
0.0
  0
LINE
  5
1A82E
330
1A65A
100
AcDbEntity
  8
HATCH
100
AcDbLine
 10
8602.040827486851
 20
3319.084839419603
 30
0.0
 11
8478.523251791115
 21
3195.567263723865
 31
0.0
  0
LINE
  5
1A82F
330
1A65A
100
AcDbEntity
  8
HATCH
100
AcDbLine
 10
8457.723251791113
 20
3174.767263723866
 30
0.0
 11
7994.040827486853
 21
2711.084839419607
 31
0.0
  0
LINE
  5
1A830
330
1A65A
100
AcDbEntity
  8
HATCH
100
AcDbLine
 10
8027.488100399645
 20
3319.084839419603
 30
0.0
 11
7940.12325179111
 21
3231.719990811074
 31
0.0
  0
LINE
  5
1A831
330
1A65A
100
AcDbEntity
  8
1PL-M1
100
AcDbLine
 10
8580.123251791111
 20
2428.17212587879
 30
0.0
 11
8580.123251791111
 21
4175.485411556194
 31
0.0
  0
LINE
  5
1A832
330
1A65A
100
AcDbEntity
  8
KISO
100
AcDbLine
 10
9380.123251791109
 20
2711.084839419607
 30
0.0
 11
9380.123251791109
 21
2551.084839419603
 31
0.0
  0
LINE
  5
1A833
330
1A65A
100
AcDbEntity
  8
HATCH
100
AcDbLine
 10
8608.053047017286
 20
2551.084839419607
 30
0.0
 11
8700.42908968395
 21
2711.084839419607
 31
0.0
  0
LINE
  5
1A834
330
1A65A
100
AcDbEntity
  8
HATCH
100
AcDbLine
 10
8647.095756350616
 20
2711.084839419607
 30
0.0
 11
8673.762423017283
 21
2664.896816752944
 31
0.0
  0
LINE
  5
1A835
330
1A65A
100
AcDbEntity
  8
HATCH
100
AcDbLine
 10
8634.719713683949
 20
2597.272860752938
 30
0.0
 11
8661.386380350618
 21
2551.084839419607
 31
0.0
  0
LINE
  5
1A836
330
1A65A
100
AcDbEntity
  8
HATCH
100
AcDbLine
 10
8434.71971368395
 20
2597.272860752938
 30
0.0
 11
8461.386380350617
 21
2551.084839419607
 31
0.0
  0
LINE
  5
1A837
330
1A65A
100
AcDbEntity
  8
HATCH
100
AcDbLine
 10
8447.095756350616
 20
2711.084839419607
 30
0.0
 11
8473.762423017282
 21
2664.896816752944
 31
0.0
  0
LINE
  5
1A838
330
1A65A
100
AcDbEntity
  8
HATCH
100
AcDbLine
 10
8234.719713683949
 20
2597.272860752938
 30
0.0
 11
8261.386380350618
 21
2551.084839419607
 31
0.0
  0
LINE
  5
1A839
330
1A65A
100
AcDbEntity
  8
HATCH
100
AcDbLine
 10
8208.053047017285
 20
2551.084839419607
 30
0.0
 11
8300.42908968395
 21
2711.084839419607
 31
0.0
  0
LINE
  5
1A83A
330
1A65A
100
AcDbEntity
  8
HATCH
100
AcDbLine
 10
8247.095756350615
 20
2711.084839419607
 30
0.0
 11
8273.762423017283
 21
2664.896816752944
 31
0.0
  0
LINE
  5
1A83B
330
1A65A
100
AcDbEntity
  8
KISO
100
AcDbLine
 10
7780.123251791109
 20
2711.084839419607
 30
0.0
 11
7780.123251791109
 21
2551.084839419603
 31
0.0
  0
LINE
  5
1A83C
330
1A65A
100
AcDbEntity
  8
HATCH
100
AcDbLine
 10
8034.719713683951
 20
2597.272860752938
 30
0.0
 11
8061.386380350617
 21
2551.084839419607
 31
0.0
  0
LINE
  5
1A83D
330
1A65A
100
AcDbEntity
  8
HATCH
100
AcDbLine
 10
8047.095756350616
 20
2711.084839419607
 30
0.0
 11
8073.762423017283
 21
2664.896816752944
 31
0.0
  0
LINE
  5
1A83E
330
1A65A
100
AcDbEntity
  8
HATCH
100
AcDbLine
 10
8008.053047017282
 20
2551.084839419607
 30
0.0
 11
8100.429089683949
 21
2711.084839419607
 31
0.0
  0
LINE
  5
1A83F
330
1A65A
100
AcDbEntity
  8
HATCH
100
AcDbLine
 10
8408.053047017286
 20
2551.084839419607
 30
0.0
 11
8500.429089683951
 21
2711.084839419607
 31
0.0
  0
LINE
  5
1A840
330
1A65A
100
AcDbEntity
  8
KISO
100
AcDbLine
 10
7780.123251791109
 20
2551.084839419603
 30
0.0
 11
9380.123251791109
 21
2551.084839419603
 31
0.0
  0
LINE
  5
1A841
330
1A65A
100
AcDbEntity
  8
HATCH
100
AcDbLine
 10
8847.095756350617
 20
2711.084839419607
 30
0.0
 11
8873.762423017282
 21
2664.896816752944
 31
0.0
  0
LINE
  5
1A842
330
1A65A
100
AcDbEntity
  8
HATCH
100
AcDbLine
 10
8808.053047017287
 20
2551.084839419607
 30
0.0
 11
8900.429089683951
 21
2711.084839419607
 31
0.0
  0
LINE
  5
1A843
330
1A65A
100
AcDbEntity
  8
HATCH
100
AcDbLine
 10
8834.71971368395
 20
2597.272860752938
 30
0.0
 11
8861.386380350618
 21
2551.084839419607
 31
0.0
  0
LINE
  5
1A844
330
1A65A
100
AcDbEntity
  8
HATCH
100
AcDbLine
 10
9008.053047017282
 20
2551.084839419607
 30
0.0
 11
9100.429089683951
 21
2711.084839419607
 31
0.0
  0
LINE
  5
1A845
330
1A65A
100
AcDbEntity
  8
HATCH
100
AcDbLine
 10
9047.095756350616
 20
2711.084839419607
 30
0.0
 11
9073.762423017283
 21
2664.896816752944
 31
0.0
  0
LINE
  5
1A846
330
1A65A
100
AcDbEntity
  8
HATCH
100
AcDbLine
 10
9034.719713683951
 20
2597.272860752938
 30
0.0
 11
9061.386380350617
 21
2551.084839419607
 31
0.0
  0
LINE
  5
1A847
330
1A65A
100
AcDbEntity
  8
HATCH
100
AcDbLine
 10
7847.095756350616
 20
2711.084839419607
 30
0.0
 11
7873.762423017281
 21
2664.896816752944
 31
0.0
  0
LINE
  5
1A848
330
1A65A
100
AcDbEntity
  8
HATCH
100
AcDbLine
 10
7808.053047017286
 20
2551.084839419607
 30
0.0
 11
7900.429089683949
 21
2711.084839419607
 31
0.0
  0
LINE
  5
1A849
330
1A65A
100
AcDbEntity
  8
HATCH
100
AcDbLine
 10
7834.719713683951
 20
2597.272860752938
 30
0.0
 11
7861.386380350618
 21
2551.084839419607
 31
0.0
  0
LINE
  5
1A84A
330
1A65A
100
AcDbEntity
  8
SUNPOU
100
AcDbLine
 10
8580.123251791111
 20
4130.485411556196
 30
0.0
 11
9701.364210973478
 21
4130.485411556196
 31
0.0
  0
TEXT
  5
1A84B
330
1A65A
100
AcDbEntity
  8
SUNPOU
100
AcDbText
 10
9090.021106547046
 20
4175.485411556197
 30
0.0
 40
90.0
  1
1800
 41
0.6666666666666666
  7
00
 72
     4
 11
9208.592535118475
 21
4220.485411556196
 31
0.0
100
AcDbText
  0
LINE
  5
1A84C
330
1A65A
100
AcDbEntity
  8
HIKIDASHI
100
AcDbLine
 10
9726.620021984601
 20
3920.485411556196
 30
0.0
 11
9357.853645156977
 21
3920.485411556196
 31
0.0
  0
TEXT
  5
1A84D
330
1A65A
100
AcDbEntity
  8
HIKIDASHI
100
AcDbText
 10
9390.92125274889
 20
3965.485411556194
 30
0.0
 40
90.0
  1
土　間
  7
01
 72
     2
 11
9684.921252748893
 21
4010.485411556194
 31
0.0
100
AcDbText
 73
     2
  0
TEXT
  5
1A84E
330
1A65A
100
AcDbEntity
  8
SUNPOU
100
AcDbText
 10
9478.587586282396
 20
3591.684839419605
 30
0.0
 40
90.0
  1
F.L
 41
0.6666666666666666
  7
00
 72
     4
 11
9547.159014853825
 21
3636.684839419604
 31
0.0
100
AcDbText
  0
LINE
  5
1A84F
330
1A65A
100
AcDbEntity
  8
SUNPOU
100
AcDbLine
 10
9547.159014853825
 20
3456.684839419605
 30
0.0
 11
9599.120539080891
 21
3546.684839419604
 31
0.0
  0
LINE
  5
1A850
330
1A65A
100
AcDbEntity
  8
SUNPOU
100
AcDbLine
 10
9495.197490626756
 20
3546.684839419604
 30
0.0
 11
9547.159014853825
 21
3456.684839419605
 31
0.0
  0
LINE
  5
1A851
330
1A65A
100
AcDbEntity
  8
SUNPOU
100
AcDbLine
 10
9599.120539080891
 20
3546.684839419604
 30
0.0
 11
9495.197490626756
 21
3546.684839419604
 31
0.0
  0
TEXT
  5
1A852
330
1A65A
100
AcDbEntity
  8
HIKIDASHI
100
AcDbText
 10
7011.426786787378
 20
1814.878869270352
 30
0.0
 40
89.55223880597014
  1
x
 41
0.6700000000000001
  7
00
100
AcDbText
  0
TEXT
  5
1A853
330
1A65A
100
AcDbEntity
  8
HIKIDASHI
100
AcDbText
 10
6939.591849597005
 20
1803.088394027939
 30
0.0
 40
67.16417910447761
  1
2
 41
0.6700000000000001
  7
00
100
AcDbText
  0
TEXT
  5
1A854
330
1A65A
100
AcDbEntity
  8
HIKIDASHI
100
AcDbText
 10
6851.699813038081
 20
1830.1144490585
 30
0.0
 40
67.16417910447761
  1
1
 41
0.6700000000000001
  7
00
100
AcDbText
  0
TEXT
  5
1A855
330
1A65A
100
AcDbEntity
  8
HIKIDASHI
100
AcDbText
 10
6777.099002354859
 20
1803.684839419606
 30
0.0
 40
89.55223880597014
  1
W ／
 41
0.6700000000000001
  7
00
100
AcDbText
  0
TEXT
  5
1A856
330
1A65A
100
AcDbEntity
  8
HIKIDASHI
100
AcDbText
 10
7092.562165940511
 20
1803.475853219515
 30
0.0
 40
89.55223880597014
  1
300
 41
0.6700000000000001
  7
00
100
AcDbText
  0
TEXT
  5
1A857
330
1A65A
100
AcDbEntity
  8
HIKIDASHI
100
AcDbText
 10
6777.099002354859
 20
1983.684839419604
 30
0.0
 40
90.0
  1
アンカーボルト
  7
01
100
AcDbText
  0
LINE
  5
1A858
330
1A65A
100
AcDbEntity
  8
HIKIDASHI
100
AcDbLine
 10
6748.019393493152
 20
1938.684839419604
 30
0.0
 11
7568.025406890003
 21
1938.684839419604
 31
0.0
  0
TEXT
  5
1A859
330
1A65A
100
AcDbEntity
  8
HIKIDASHI
100
AcDbText
 10
8262.30957517332
 20
1664.635820576939
 30
0.0
 40
90.0
  1
B  ~  B'
 41
0.6700000000000001
  7
00
100
AcDbText
  0
LINE
  5
1A85A
330
1A65A
100
AcDbEntity
  8
HIKIDASHI
100
AcDbLine
 10
8232.309575173323
 20
1589.635820576939
 30
0.0
 11
8927.93692840889
 21
1589.635820576939
 31
0.0
  0
LINE
  5
1A85B
330
1A65A
100
AcDbEntity
  8
HIKIDASHI
100
AcDbLine
 10
8232.309575173323
 20
1619.635820576939
 30
0.0
 11
8927.93692840889
 21
1619.635820576939
 31
0.0
  0
TEXT
  5
1A85C
330
1A65A
100
AcDbEntity
  8
HIKIDASHI
100
AcDbText
 10
8656.326854669883
 20
1664.635820576939
 30
0.0
 40
90.0
  1
断 面
  7
01
100
AcDbText
  0
TEXT
  5
1A85D
330
1A65A
100
AcDbEntity
  8
SUNPOU
100
AcDbText
 10
10750.05141017947
 20
1674.586261835072
 30
0.0
 40
120.0
  1
柱脚金具詳細図
  7
01
 72
     4
 11
11234.05141017947
 21
1734.586261835072
 31
0.0
100
AcDbText
  0
TEXT
  5
1A85E
330
1A65A
100
AcDbEntity
  8
SUNPOU
100
AcDbText
 10
12146.16023934792
 20
1672.124723373534
 30
0.0
 40
73.84615384615384
  1
/
 41
0.6700000000000001
  7
00
 11
12146.16023934792
 21
1662.27856952738
 31
0.0
100
AcDbText
 73
     1
  0
TEXT
  5
1A85F
330
1A65A
100
AcDbEntity
  8
SUNPOU
100
AcDbText
 10
12210.1096823023
 20
1653.663184911995
 30
0.0
 40
73.84615384615384
  1
10
 41
0.6700000000000001
  7
00
 11
12210.1096823023
 21
1643.817031065841
 31
0.0
100
AcDbText
 73
     1
  0
TEXT
  5
1A860
330
1A65A
100
AcDbEntity
  8
SUNPOU
100
AcDbText
 10
12097.75411203255
 20
1690.586261835072
 30
0.0
 40
73.84615384615384
  1
1
 41
0.6700000000000001
  7
00
 11
12097.75411203255
 21
1680.740107988918
 31
0.0
100
AcDbText
 73
     1
  0
TEXT
  5
1A861
330
1A65A
100
AcDbEntity
  8
SUNPOU
100
AcDbText
 10
11778.05141017947
 20
1674.586261835072
 30
0.0
 40
92.30769230769228
  1
（ S = 　　  ）
 41
0.6700000000000001
  7
00
 11
11778.05141017947
 21
1662.27856952738
 31
0.0
100
AcDbText
 73
     1
  0
TEXT
  5
1A862
330
1A65A
100
AcDbEntity
  8
SUNPOU
100
AcDbText
 10
9537.817961079962
 20
2578.884705856383
 30
0.0
 40
90.0
  1
5-D13×5-D13
 41
0.6700000000000001
  7
01
 72
     4
 11
9881.240818222821
 21
2623.884705856383
 31
0.0
100
AcDbText
  0
TEXT
  5
1A863
330
1A65A
100
AcDbEntity
  8
SUNPOU
100
AcDbText
 10
9672.933675365676
 20
2713.884705856383
 30
0.0
 40
90.0
  1
ベース筋
  7
01
 72
     4
 11
9876.933675365677
 21
2758.884705856383
 31
0.0
100
AcDbText
  0
LINE
  5
1A864
330
1A65A
100
AcDbEntity
  8
KISO
100
AcDbLine
 10
7780.123251791109
 20
2711.084839419607
 30
0.0
 11
9380.123251791109
 21
2711.084839419607
 31
0.0
  0
LINE
  5
1A865
330
1A65A
100
AcDbEntity
  8
1PL-S1
100
AcDbLine
 10
11225.33837406209
 20
2700.144344053149
 30
0.0
 11
11857.33837406209
 21
2700.144344053149
 31
0.0
  0
LINE
  5
1A866
330
1A65A
100
AcDbEntity
  8
U1
100
AcDbLine
 10
11391.33837406209
 20
3642.337036584561
 30
0.0
 11
11391.33837406209
 21
4026.401575763828
 31
0.0
  0
LINE
  5
1A867
330
1A65A
100
AcDbEntity
  8
U1
100
AcDbLine
 10
11691.33837406209
 20
3642.337036584561
 30
0.0
 11
11691.33837406209
 21
4026.401575763828
 31
0.0
  0
LINE
  5
1A868
330
1A65A
100
AcDbEntity
  8
1PL-S1
100
AcDbLine
 10
11541.33837406209
 20
3578.337036584561
 30
0.0
 11
11541.33837406209
 21
4066.401575763828
 31
0.0
  0
CIRCLE
  5
1A869
330
1A65A
100
AcDbEntity
  8
U1
100
AcDbCircle
 10
11541.33837406209
 20
3886.33703658456
 30
0.0
 40
24.0
  0
LINE
  5
1A86A
330
1A65A
100
AcDbEntity
  8
1PL-S1
100
AcDbLine
 10
11301.33837406209
 20
2624.144344053149
 30
0.0
 11
11301.33837406209
 21
2776.144344053149
 31
0.0
  0
LINE
  5
1A86B
330
1A65A
100
AcDbEntity
  8
1PL-S1
100
AcDbLine
 10
11781.33837406209
 20
2624.144344053149
 30
0.0
 11
11781.33837406209
 21
2776.144344053149
 31
0.0
  0
LINE
  5
1A86C
330
1A65A
100
AcDbEntity
  8
1PL-S1
100
AcDbLine
 10
11541.33837406209
 20
2500.144344053149
 30
0.0
 11
11541.33837406209
 21
2900.144344053149
 31
0.0
  0
CIRCLE
  5
1A86D
330
1A65A
100
AcDbEntity
  8
U1
100
AcDbCircle
 10
11301.33837406209
 20
2700.144344053149
 30
0.0
 40
36.0
  0
LINE
  5
1A86E
330
1A65A
100
AcDbEntity
  8
U1
100
AcDbLine
 10
11691.33837406209
 20
2700.144344053149
 30
0.0
 11
11612.31129530375
 21
2700.144344053149
 31
0.0
  0
CIRCLE
  5
1A86F
330
1A65A
100
AcDbEntity
  8
U1
100
AcDbCircle
 10
11781.33837406209
 20
2700.144344053149
 30
0.0
 40
36.0
  0
LINE
  5
1A870
330
1A65A
100
AcDbEntity
  8
1PL-S1
100
AcDbLine
 10
11477.33837406209
 20
3726.33703658456
 30
0.0
 11
11605.33837406209
 21
3726.33703658456
 31
0.0
  0
LINE
  5
1A871
330
1A65A
100
AcDbEntity
  8
1PL-S1
100
AcDbLine
 10
11301.33837406209
 20
3578.337036584561
 30
0.0
 11
11301.33837406209
 21
3682.337036584561
 31
0.0
  0
LINE
  5
1A872
330
1A65A
100
AcDbEntity
  8
1PL-S1
100
AcDbLine
 10
11781.33837406209
 20
3578.337036584561
 30
0.0
 11
11781.33837406209
 21
3682.337036584561
 31
0.0
  0
CIRCLE
  5
1A873
330
1A65A
100
AcDbEntity
  8
U1
100
AcDbCircle
 10
11541.33837406209
 20
3726.33703658456
 30
0.0
 40
24.0
  0
LINE
  5
1A874
330
1A65A
100
AcDbEntity
  8
1PL-S1
100
AcDbLine
 10
11477.33837406209
 20
3886.33703658456
 30
0.0
 11
11605.33837406209
 21
3886.33703658456
 31
0.0
  0
LINE
  5
1A875
330
1A65A
100
AcDbEntity
  8
HIKIDASHI
100
AcDbLine
 10
12256.64239875644
 20
2245.804976716085
 30
0.0
 11
12840.68319432041
 21
2245.804976716085
 31
0.0
  0
TEXT
  5
1A876
330
1A65A
100
AcDbEntity
  8
HIKIDASHI
100
AcDbText
 10
12288.10785773423
 20
2290.804976716086
 30
0.0
 40
90.0
  1
2
 41
0.6666666666666666
  7
00
 72
     2
 11
12336.67928630566
 21
2290.804976716086
 31
0.0
100
AcDbText
  0
TEXT
  5
1A877
330
1A65A
100
AcDbEntity
  8
HIKIDASHI
100
AcDbText
 10
12504.27139056829
 20
2290.804976716086
 30
0.0
 40
90.0
  1
18
 41
0.6666666666666666
  7
00
 72
     2
 11
12609.98567628258
 21
2290.804976716086
 31
0.0
100
AcDbText
  0
TEXT
  5
1A878
330
1A65A
100
AcDbEntity
  8
HIKIDASHI
100
AcDbText
 10
12439.02627454892
 20
2291.08896132193
 30
0.0
 40
89.99999909999997
  1
-
 41
0.6700000000000001
  7
00
100
AcDbText
  0
TEXT
  5
1A879
330
1A65A
100
AcDbEntity
  8
HIKIDASHI
100
AcDbText
 10
12364.48805587138
 20
2310.804976716088
 30
0.0
 40
89.99999909999997
  1
ヶ
  7
01
100
AcDbText
  0
TEXT
  5
1A87A
330
1A65A
100
AcDbEntity
  8
HIKIDASHI
100
AcDbText
 10
12655.41042037726
 20
2304.79072515205
 30
0.0
 40
89.99999909999997
  1
%%c 
 41
0.6700000000000001
  7
00
100
AcDbText
  0
TEXT
  5
1A87B
330
1A65A
100
AcDbEntity
  8
HIKIDASHI
100
AcDbText
 10
12733.90408052569
 20
2290.804976716086
 30
0.0
 40
90.0
  1
孔
  7
01
 72
     2
 11
12817.90408052569
 21
2290.804976716086
 31
0.0
100
AcDbText
  0
LINE
  5
1A87C
330
1A65A
100
AcDbEntity
  8
HIKIDASHI
100
AcDbLine
 10
12073.23363223807
 20
3067.661600164834
 30
0.0
 11
12657.27442780204
 21
3067.661600164834
 31
0.0
  0
TEXT
  5
1A87D
330
1A65A
100
AcDbEntity
  8
HIKIDASHI
100
AcDbText
 10
12092.5236300348
 20
3112.661600164834
 30
0.0
 40
90.0
  1
プレ－ト
  7
01
 72
     2
 11
12482.5236300348
 21
3112.661600164834
 31
0.0
100
AcDbText
  0
TEXT
  5
1A87E
330
1A65A
100
AcDbEntity
  8
HIKIDASHI
100
AcDbText
 10
12520.97881071722
 20
3112.661600164834
 30
0.0
 40
90.0
  1
6
 41
0.6666666666666666
  7
00
 72
     2
 11
12569.55023928865
 21
3112.661600164834
 31
0.0
100
AcDbText
  0
TEXT
  5
1A87F
330
1A65A
100
AcDbEntity
  8
HIKIDASHI
100
AcDbText
 10
12606.97646118922
 20
3126.647348600799
 30
0.0
 40
89.99999909999997
  1
t
 41
0.6700000000000001
  7
00
100
AcDbText
  0
LINE
  5
1A880
330
1A65A
100
AcDbEntity
  8
HATCH
100
AcDbLine
 10
5293.436222493638
 20
2711.084839419603
 30
0.0
 11
5320.102889160303
 21
2664.89681675294
 31
0.0
  0
LINE
  5
1A881
330
1A65A
100
AcDbEntity
  8
HATCH
100
AcDbLine
 10
5254.393513160305
 20
2551.084839419603
 30
0.0
 11
5346.769555826971
 21
2711.084839419603
 31
0.0
  0
LINE
  5
1A882
330
1A65A
100
AcDbEntity
  8
HATCH
100
AcDbLine
 10
5281.060179826972
 20
2597.272860752933
 30
0.0
 11
5307.726846493641
 21
2551.084839419603
 31
0.0
  0
LINE
  5
1A883
330
1A65A
100
AcDbEntity
  8
HATCH
100
AcDbLine
 10
9208.053047017283
 20
2551.084839419611
 30
0.0
 11
9300.42908968395
 21
2711.084839419611
 31
0.0
  0
LINE
  5
1A884
330
1A65A
100
AcDbEntity
  8
HATCH
100
AcDbLine
 10
9247.095756350615
 20
2711.084839419611
 30
0.0
 11
9273.762423017281
 21
2664.896816752947
 31
0.0
  0
LINE
  5
1A885
330
1A65A
100
AcDbEntity
  8
HATCH
100
AcDbLine
 10
9234.719713683949
 20
2597.272860752941
 30
0.0
 11
9261.386380350616
 21
2551.084839419611
 31
0.0
  0
LINE
  5
1A886
330
1A65A
100
AcDbEntity
  8
KISO
100
AcDbLine
 10
9220.123251791108
 20
3191.084839419601
 30
0.0
 11
9862.519974530416
 21
3191.084839419603
 31
0.0
  0
LINE
  5
1A887
330
1A65A
100
AcDbEntity
  8
HATCH
100
AcDbLine
 10
7851.481711982538
 20
3456.684839419605
 30
0.0
 11
7713.881711982537
 21
3319.084839419603
 31
0.0
  0
LINE
  5
1A888
330
1A65A
100
AcDbEntity
  8
HATCH
100
AcDbLine
 10
7946.516863374012
 20
3456.684839419605
 30
0.0
 11
7808.916863374007
 21
3319.084839419603
 31
0.0
  0
LINE
  5
1A889
330
1A65A
100
AcDbEntity
  8
HATCH
100
AcDbLine
 10
7898.999287678278
 20
3456.684839419605
 30
0.0
 11
7761.399287678277
 21
3319.084839419603
 31
0.0
  0
LINE
  5
1A88A
330
1A65A
100
AcDbEntity
  8
HATCH
100
AcDbLine
 10
7371.481711982539
 20
3456.684839419605
 30
0.0
 11
7297.726529051804
 21
3382.929656488869
 31
0.0
  0
LINE
  5
1A88B
330
1A65A
100
AcDbEntity
  8
HATCH
100
AcDbLine
 10
7466.516863374012
 20
3456.684839419605
 30
0.0
 11
7328.91686337401
 21
3319.084839419603
 31
0.0
  0
LINE
  5
1A88C
330
1A65A
100
AcDbEntity
  8
HATCH
100
AcDbLine
 10
7418.999287678279
 20
3456.684839419605
 30
0.0
 11
7297.726529051804
 21
3335.412080793129
 31
0.0
  0
LINE
  5
1A88D
330
1A65A
100
AcDbEntity
  8
SUNPOU
100
AcDbLine
 10
8580.123251791111
 20
4130.485411556196
 30
0.0
 11
7458.882292608745
 21
4130.485411556196
 31
0.0
  0
TEXT
  5
1A88E
330
1A65A
100
AcDbEntity
  8
SUNPOU
100
AcDbText
 10
7833.082539892314
 20
4175.485411556197
 30
0.0
 40
90.0
  1
1800
 41
0.6666666666666666
  7
00
 72
     4
 11
7951.653968463742
 21
4220.485411556196
 31
0.0
100
AcDbText
  0
TEXT
  5
1A88F
330
1A65A
100
AcDbEntity
  8
SUNPOU
100
AcDbText
 10
5442.197819725979
 20
8040.715360473251
 30
0.0
 40
90.0
  1
B
 41
0.6700000000000001
  7
00
 72
     4
 11
5473.783534011694
 21
8085.715360473251
 31
0.0
100
AcDbText
  0
LINE
  5
1A890
330
1A65A
100
AcDbEntity
  8
SUNPOU
100
AcDbLine
 10
5084.21703198606
 20
8085.715360473251
 30
0.0
 11
5084.21703198606
 21
7935.715360473252
 31
0.0
  0
LINE
  5
1A891
330
1A65A
100
AcDbEntity
  8
SUNPOU
100
AcDbLine
 10
5294.21703198606
 20
8085.715360473251
 30
0.0
 11
5084.21703198606
 21
8085.715360473251
 31
0.0
  0
SOLID
  5
1A892
330
1A65A
100
AcDbEntity
  8
SUNPOU
100
AcDbTrace
 10
5294.21703198606
 20
8100.71536047325
 30
0.0
 11
5294.21703198606
 21
8070.715360473251
 31
0.0
 12
5384.21703198606
 22
8085.715360473251
 32
0.0
 13
5384.21703198606
 23
8085.715360473251
 33
0.0
  0
TEXT
  5
1A893
330
1A65A
100
AcDbEntity
  8
SUNPOU
100
AcDbText
 10
5429.276391154551
 20
6852.143931901823
 30
0.0
 40
90.0
  1
B'
 41
0.6700000000000001
  7
00
 72
     4
 11
5473.783534011694
 21
6905.715360473251
 31
0.0
100
AcDbText
  0
LINE
  5
1A894
330
1A65A
100
AcDbEntity
  8
SUNPOU
100
AcDbLine
 10
5084.21703198606
 20
6905.715360473251
 30
0.0
 11
5084.21703198606
 21
7055.715360473252
 31
0.0
  0
LINE
  5
1A895
330
1A65A
100
AcDbEntity
  8
SUNPOU
100
AcDbLine
 10
5294.21703198606
 20
6905.715360473251
 30
0.0
 11
5084.21703198606
 21
6905.715360473251
 31
0.0
  0
SOLID
  5
1A896
330
1A65A
100
AcDbEntity
  8
SUNPOU
100
AcDbTrace
 10
5294.21703198606
 20
6890.715360473253
 30
0.0
 11
5294.21703198606
 21
6920.715360473252
 31
0.0
 12
5384.21703198606
 22
6905.715360473251
 32
0.0
 13
5384.21703198606
 23
6905.715360473251
 33
0.0
  0
LINE
  5
1A897
330
1A65A
100
AcDbEntity
  8
HIKIDASHI
100
AcDbLine
 10
5702.626424666976
 20
3920.485411556192
 30
0.0
 11
5333.860047839355
 21
3920.485411556192
 31
0.0
  0
TEXT
  5
1A898
330
1A65A
100
AcDbEntity
  8
HIKIDASHI
100
AcDbText
 10
5366.927655431265
 20
3965.485411556191
 30
0.0
 40
90.0
  1
土　間
  7
01
 72
     2
 11
5660.927655431265
 21
4010.48541155619
 31
0.0
100
AcDbText
 73
     2
  0
TEXT
  5
1A899
330
1A65A
100
AcDbEntity
  8
FILENAME
100
AcDbText
 10
13663.90476190475
 20
174.0
 30
0.0
 40
100.0
  1
＜YOKC-245-SA-A_3_JIS_GL.DXF ＞
  7
FILENAME
 72
     2
 11
16382.0
 21
174.0
 31
0.0
100
AcDbText
  0
LINE
  5
1A89A
330
1A65A
100
AcDbEntity
  8
WAKUSEN-01
100
AcDbLine
 10
434.0000000000008
 20
413.9999999999997
 30
0.0
 11
16382.0
 21
413.9999999999997
 31
0.0
  0
LINE
  5
1A89B
330
1A65A
100
AcDbEntity
  8
WAKUSEN-01
100
AcDbLine
 10
434.0000000000008
 20
11242.0
 30
0.0
 11
16382.0
 21
11242.0
 31
0.0
  0
LINE
  5
1A89C
330
1A65A
100
AcDbEntity
  8
WAKUSEN-01
100
AcDbLine
 10
434.0000000000008
 20
413.9999999999997
 30
0.0
 11
434.0000000000008
 21
11242.0
 31
0.0
  0
LINE
  5
1A89D
330
1A65A
100
AcDbEntity
  8
WAKUSEN-01
100
AcDbLine
 10
16382.0
 20
413.9999999999997
 30
0.0
 11
16382.0
 21
11242.0
 31
0.0
  0
LINE
  5
1A89E
330
1A65A
100
AcDbEntity
  8
WAKUSEN-01
100
AcDbLine
 10
10280.0
 20
1242.0
 30
0.0
 11
16382.0
 21
1242.0
 31
0.0
  0
LINE
  5
1A89F
330
1A65A
100
AcDbEntity
  8
WAKUSEN-02
100
AcDbLine
 10
10280.0
 20
827.9999999999997
 30
0.0
 11
13434.0
 21
827.9999999999997
 31
0.0
  0
TEXT
  5
1A8A0
330
1A65A
100
AcDbEntity
  8
WAKUMOJI-01
100
AcDbText
 10
10335.13012998137
 20
1062.951504669661
 30
0.0
 40
120.0
  1
名　称
  7
WAKUMOJI
100
AcDbText
  0
TEXT
  5
1A8A1
330
1A65A
100
AcDbEntity
  8
WAKUMOJI-01
100
AcDbText
 10
10328.25274254596
 20
659.5644874899107
 30
0.0
 40
120.0
  1
機種名
  7
WAKUMOJI
100
AcDbText
  0
LINE
  5
1A8A2
330
1A65A
100
AcDbEntity
  8
WAKUSEN-01
100
AcDbLine
 10
10280.0
 20
413.9999999999985
 30
0.0
 11
10280.0
 21
1242.0
 31
0.0
  0
LINE
  5
1A8A3
330
1A65A
100
AcDbEntity
  8
WAKUSEN-02
100
AcDbLine
 10
13434.0
 20
413.9999999999963
 30
0.0
 11
13434.0
 21
1242.0
 31
0.0
  0
LINE
  5
1A8A4
330
1A65A
100
AcDbEntity
  8
YODOROGO
100
AcDbLine
 10
14988.80217064596
 20
997.8747482146435
 30
0.0
 11
14914.80217064596
 21
997.8747482146435
 31
0.0
1001
AUTOCAD_POSTSCRIPT_FIGURE
1002
{
1000
PSFILL
1000
Grayscale
1000
Grayscale
1070
    25
1002
}
  0
LINE
  5
1A8A5
330
1A65A
100
AcDbEntity
  8
YODOROGO
100
AcDbLine
 10
14914.80217064596
 20
973.8747482146434
 30
0.0
 11
14988.80217064596
 21
973.8747482146434
 31
0.0
1001
AUTOCAD_POSTSCRIPT_FIGURE
1002
{
1000
PSFILL
1000
Grayscale
1000
Grayscale
1070
    25
1002
}
  0
LINE
  5
1A8A6
330
1A65A
100
AcDbEntity
  8
YODOROGO
100
AcDbLine
 10
14988.80217064596
 20
953.874748214644
 30
0.0
 11
14914.80217064596
 21
953.874748214644
 31
0.0
1001
AUTOCAD_POSTSCRIPT_FIGURE
1002
{
1000
PSFILL
1000
Grayscale
1000
Grayscale
1070
    25
1002
}
  0
LINE
  5
1A8A7
330
1A65A
100
AcDbEntity
  8
YODOROGO
100
AcDbLine
 10
14914.80217064596
 20
929.874748214644
 30
0.0
 11
14988.80217064596
 21
929.874748214644
 31
0.0
1001
AUTOCAD_POSTSCRIPT_FIGURE
1002
{
1000
PSFILL
1000
Grayscale
1000
Grayscale
1070
    25
1002
}
  0
LINE
  5
1A8A8
330
1A65A
100
AcDbEntity
  8
YODOROGO
100
AcDbLine
 10
14988.80217064596
 20
909.8747482146439
 30
0.0
 11
14914.80217064596
 21
909.8747482146439
 31
0.0
1001
AUTOCAD_POSTSCRIPT_FIGURE
1002
{
1000
PSFILL
1000
Grayscale
1000
Grayscale
1070
    25
1002
}
  0
LINE
  5
1A8A9
330
1A65A
100
AcDbEntity
  8
YODOROGO
100
AcDbLine
 10
14960.80217064594
 20
853.874748214644
 30
0.0
 11
14988.80217064596
 21
853.874748214644
 31
0.0
1001
AUTOCAD_POSTSCRIPT_FIGURE
1002
{
1000
PSFILL
1000
Grayscale
1000
Grayscale
1070
    25
1002
}
  0
LINE
  5
1A8AA
330
1A65A
100
AcDbEntity
  8
YODOROGO
100
AcDbLine
 10
14868.80217064596
 20
713.8747482146436
 30
0.0
 11
14968.80217064596
 21
740.6696674577553
 31
0.0
  0
LINE
  5
1A8AB
330
1A65A
100
AcDbEntity
  8
YODOROGO
100
AcDbLine
 10
14974.80217064595
 20
853.874748214644
 30
0.0
 11
14942.80217064596
 21
853.874748214644
 31
0.0
  0
ARC
  5
1A8AC
330
1A65A
100
AcDbEntity
  8
YODOROGO
100
AcDbCircle
 10
15127.17387491394
 20
903.9323046166312
 30
0.0
 40
190.9434321028236
100
AcDbArc
 50
213.9611167766784
 51
264.4787207431779
  0
ARC
  5
1A8AD
330
1A65A
100
AcDbEntity
  8
YODOROGO
100
AcDbCircle
 10
15127.17387491396
 20
903.9323046166513
 30
0.0
 40
190.9434321028408
100
AcDbArc
 50
208.141144204866
 51
212.9210361185994
  0
LINE
  5
1A8AE
330
1A65A
100
AcDbEntity
  8
YODOROGO
100
AcDbLine
 10
14885.70493649264
 20
778.403830673117
 30
0.0
 11
14966.89206625426
 21
800.1578565285436
 31
0.0
  0
LINE
  5
1A8AF
330
1A65A
100
AcDbEntity
  8
YODOROGO
100
AcDbLine
 10
14868.80217064596
 20
713.8747482146436
 30
0.0
 11
14968.80217064596
 21
740.6696674577553
 31
0.0
  0
LINE
  5
1A8B0
330
1A65A
100
AcDbEntity
  8
YODOROGO
100
AcDbLine
 10
14974.80217064595
 20
853.874748214644
 30
0.0
 11
14942.80217064596
 21
853.874748214644
 31
0.0
  0
ARC
  5
1A8B1
330
1A65A
100
AcDbEntity
  8
YODOROGO
100
AcDbCircle
 10
15127.17387491394
 20
903.9323046166312
 30
0.0
 40
190.9434321028236
100
AcDbArc
 50
213.9611167766784
 51
264.4787207431779
  0
LINE
  5
1A8B2
330
1A65A
100
AcDbEntity
  8
YODOROGO
100
AcDbLine
 10
14396.80217064594
 20
909.8747482146439
 30
0.0
 11
14216.80217064594
 21
909.8747482146439
 31
0.0
  0
LINE
  5
1A8B3
330
1A65A
100
AcDbEntity
  8
YODOROGO
100
AcDbLine
 10
14256.80217064594
 20
713.8747482146436
 30
0.0
 11
14396.80217064594
 21
713.8747482146436
 31
0.0
  0
LINE
  5
1A8B4
330
1A65A
100
AcDbEntity
  8
YODOROGO
100
AcDbLine
 10
14364.80217064596
 20
961.8747482146432
 30
0.0
 11
14248.80217064594
 21
961.8747482146432
 31
0.0
  0
LINE
  5
1A8B5
330
1A65A
100
AcDbEntity
  8
YODOROGO
100
AcDbLine
 10
14292.80217064596
 20
1013.874748214644
 30
0.0
 11
14328.80217064596
 21
1013.874748214644
 31
0.0
  0
LINE
  5
1A8B6
330
1A65A
100
AcDbEntity
  8
YODOROGO
100
AcDbLine
 10
14216.80217064594
 20
853.874748214644
 30
0.0
 11
14216.80217064594
 21
753.8747482146439
 31
0.0
  0
LINE
  5
1A8B7
330
1A65A
100
AcDbEntity
  8
YODOROGO
100
AcDbLine
 10
14248.80217064594
 20
781.8747482146434
 30
0.0
 11
14248.80217064594
 21
853.874748214644
 31
0.0
  0
LINE
  5
1A8B8
330
1A65A
100
AcDbEntity
  8
YODOROGO
100
AcDbLine
 10
14292.80217064596
 20
873.8747482146449
 30
0.0
 11
14292.80217064596
 21
773.874748214644
 31
0.0
  0
LINE
  5
1A8B9
330
1A65A
100
AcDbEntity
  8
YODOROGO
100
AcDbLine
 10
13928.80217064596
 20
841.8747482146445
 30
0.0
 11
13888.80217064596
 21
809.9862070222856
 31
0.0
  0
LINE
  5
1A8BA
330
1A65A
100
AcDbEntity
  8
YODOROGO
100
AcDbLine
 10
13968.80217064596
 20
809.9862070222856
 30
0.0
 11
13928.80217064596
 21
841.8747482146445
 31
0.0
  0
LINE
  5
1A8BB
330
1A65A
100
AcDbEntity
  8
YODOROGO
100
AcDbLine
 10
13928.80217064596
 20
853.874748214644
 30
0.0
 11
13968.80217064596
 21
821.986207022285
 31
0.0
  0
LINE
  5
1A8BC
330
1A65A
100
AcDbEntity
  8
YODOROGO
100
AcDbLine
 10
13888.80217064596
 20
821.986207022285
 30
0.0
 11
13928.80217064596
 21
853.874748214644
 31
0.0
  0
LINE
  5
1A8BD
330
1A65A
100
AcDbEntity
  8
YODOROGO
100
AcDbLine
 10
14020.45660200844
 20
829.874748214644
 30
0.0
 11
14020.45660200844
 21
841.8747482146434
 31
0.0
  0
LINE
  5
1A8BE
330
1A65A
100
AcDbEntity
  8
YODOROGO
100
AcDbLine
 10
13988.80217064596
 20
841.8747482146434
 30
0.0
 11
13988.80217064596
 21
833.8747482146427
 31
0.0
  0
LINE
  5
1A8BF
330
1A65A
100
AcDbEntity
  8
YODOROGO
100
AcDbLine
 10
14049.06776011545
 20
853.874748214644
 30
0.0
 11
14049.06776011545
 21
827.751818637328
 31
0.0
1001
AUTOCAD_POSTSCRIPT_FIGURE
1002
{
1000
PSFILL
1000
Grayscale
1000
Grayscale
1070
   100
1002
}
  0
LINE
  5
1A8C0
330
1A65A
100
AcDbEntity
  8
YODOROGO
100
AcDbLine
 10
14041.06776011546
 20
827.751818637328
 30
0.0
 11
14041.06776011546
 21
853.874748214644
 31
0.0
1001
AUTOCAD_POSTSCRIPT_FIGURE
1002
{
1000
PSFILL
1000
Grayscale
1000
Grayscale
1070
   100
1002
}
  0
LINE
  5
1A8C1
330
1A65A
100
AcDbEntity
  8
YODOROGO
100
AcDbLine
 10
13904.80217064596
 20
804.3859520216292
 30
0.0
 11
13904.80217064596
 21
816.3859520216298
 31
0.0
  0
LINE
  5
1A8C2
330
1A65A
100
AcDbEntity
  8
YODOROGO
100
AcDbLine
 10
13952.80217064596
 20
804.3859520216292
 30
0.0
 11
13904.80217064596
 21
804.3859520216292
 31
0.0
  0
LINE
  5
1A8C3
330
1A65A
100
AcDbEntity
  8
YODOROGO
100
AcDbLine
 10
13952.80217064596
 20
816.3859520216298
 30
0.0
 11
13952.80217064596
 21
804.3859520216292
 31
0.0
  0
LINE
  5
1A8C4
330
1A65A
100
AcDbEntity
  8
YODOROGO
100
AcDbLine
 10
13904.80217064596
 20
816.3859520216298
 30
0.0
 11
13952.80217064596
 21
816.3859520216298
 31
0.0
  0
LINE
  5
1A8C5
330
1A65A
100
AcDbEntity
  8
YODOROGO
100
AcDbLine
 10
13912.25479445787
 20
784.2514286852374
 30
0.0
 11
13892.80217064596
 21
737.8747482146435
 31
0.0
1001
AUTOCAD_POSTSCRIPT_FIGURE
1002
{
1000
PSFILL
1000
Grayscale
1000
Grayscale
1070
   100
1002
}
  0
LINE
  5
1A8C6
330
1A65A
100
AcDbEntity
  8
YODOROGO
100
AcDbLine
 10
13888.80217064596
 20
784.2514286852374
 30
0.0
 11
13912.25479445787
 21
784.2514286852374
 31
0.0
1001
AUTOCAD_POSTSCRIPT_FIGURE
1002
{
1000
PSFILL
1000
Grayscale
1000
Grayscale
1070
   100
1002
}
  0
LINE
  5
1A8C7
330
1A65A
100
AcDbEntity
  8
YODOROGO
100
AcDbLine
 10
13888.80217064596
 20
794.2514286852374
 30
0.0
 11
13888.80217064596
 21
784.2514286852374
 31
0.0
1001
AUTOCAD_POSTSCRIPT_FIGURE
1002
{
1000
PSFILL
1000
Grayscale
1000
Grayscale
1070
   100
1002
}
  0
LINE
  5
1A8C8
330
1A65A
100
AcDbEntity
  8
YODOROGO
100
AcDbLine
 10
13968.80217064596
 20
794.2514286852374
 30
0.0
 11
13888.80217064596
 21
794.2514286852374
 31
0.0
1001
AUTOCAD_POSTSCRIPT_FIGURE
1002
{
1000
PSFILL
1000
Grayscale
1000
Grayscale
1070
   100
1002
}
  0
LINE
  5
1A8C9
330
1A65A
100
AcDbEntity
  8
YODOROGO
100
AcDbLine
 10
13968.80217064596
 20
784.2514286852374
 30
0.0
 11
13968.80217064596
 21
794.2514286852374
 31
0.0
1001
AUTOCAD_POSTSCRIPT_FIGURE
1002
{
1000
PSFILL
1000
Grayscale
1000
Grayscale
1070
   100
1002
}
  0
LINE
  5
1A8CA
330
1A65A
100
AcDbEntity
  8
YODOROGO
100
AcDbLine
 10
13922.25479445786
 20
784.2514286852374
 30
0.0
 11
13968.80217064596
 21
784.2514286852374
 31
0.0
1001
AUTOCAD_POSTSCRIPT_FIGURE
1002
{
1000
PSFILL
1000
Grayscale
1000
Grayscale
1070
   100
1002
}
  0
LINE
  5
1A8CB
330
1A65A
100
AcDbEntity
  8
YODOROGO
100
AcDbLine
 10
13907.77335914238
 20
747.8747482146435
 30
0.0
 11
13922.25479445786
 21
784.2514286852374
 31
0.0
1001
AUTOCAD_POSTSCRIPT_FIGURE
1002
{
1000
PSFILL
1000
Grayscale
1000
Grayscale
1070
   100
1002
}
  0
LINE
  5
1A8CC
330
1A65A
100
AcDbEntity
  8
YODOROGO
100
AcDbLine
 10
13951.02739540432
 20
747.8747482146435
 30
0.0
 11
13907.77335914238
 21
747.8747482146435
 31
0.0
1001
AUTOCAD_POSTSCRIPT_FIGURE
1002
{
1000
PSFILL
1000
Grayscale
1000
Grayscale
1070
   100
1002
}
  0
LINE
  5
1A8CD
330
1A65A
100
AcDbEntity
  8
YODOROGO
100
AcDbLine
 10
13942.53250239547
 20
768.1169053488464
 30
0.0
 11
13951.02739540432
 21
747.8747482146435
 31
0.0
1001
AUTOCAD_POSTSCRIPT_FIGURE
1002
{
1000
PSFILL
1000
Grayscale
1000
Grayscale
1070
   100
1002
}
  0
LINE
  5
1A8CE
330
1A65A
100
AcDbEntity
  8
YODOROGO
100
AcDbLine
 10
13950.53250239547
 20
768.1169053488464
 30
0.0
 11
13942.53250239547
 21
768.1169053488464
 31
0.0
1001
AUTOCAD_POSTSCRIPT_FIGURE
1002
{
1000
PSFILL
1000
Grayscale
1000
Grayscale
1070
   100
1002
}
  0
LINE
  5
1A8CF
330
1A65A
100
AcDbEntity
  8
YODOROGO
100
AcDbLine
 10
13964.80217064596
 20
737.8747482146435
 30
0.0
 11
13950.53250239547
 21
768.1169053488464
 31
0.0
1001
AUTOCAD_POSTSCRIPT_FIGURE
1002
{
1000
PSFILL
1000
Grayscale
1000
Grayscale
1070
   100
1002
}
  0
LINE
  5
1A8D0
330
1A65A
100
AcDbEntity
  8
YODOROGO
100
AcDbLine
 10
13892.80217064596
 20
737.8747482146435
 30
0.0
 11
13964.80217064596
 21
737.8747482146435
 31
0.0
1001
AUTOCAD_POSTSCRIPT_FIGURE
1002
{
1000
PSFILL
1000
Grayscale
1000
Grayscale
1070
   100
1002
}
  0
LINE
  5
1A8D1
330
1A65A
100
AcDbEntity
  8
YODOROGO
100
AcDbLine
 10
13888.80217064596
 20
809.9862070222856
 30
0.0
 11
13888.80217064596
 21
821.986207022285
 31
0.0
  0
LINE
  5
1A8D2
330
1A65A
100
AcDbEntity
  8
YODOROGO
100
AcDbLine
 10
13968.80217064596
 20
821.986207022285
 30
0.0
 11
13968.80217064596
 21
809.9862070222856
 31
0.0
  0
ARC
  5
1A8D3
330
1A65A
100
AcDbEntity
  8
YODOROGO
100
AcDbCircle
 10
14112.97022107348
 20
800.438882662663
 30
0.0
 40
87.99999999999995
100
AcDbArc
 50
280.3644312771313
 51
3.541483659218056
  0
ARC
  5
1A8D4
330
1A65A
100
AcDbEntity
  8
YODOROGO
100
AcDbCircle
 10
14117.87801537965
 20
816.798903480952
 30
0.0
 40
55.99999999999914
100
AcDbArc
 50
281.2490582504155
 51
348.7509417495832
  0
LINE
  5
1A8D5
330
1A65A
100
AcDbEntity
  8
YODOROGO
100
AcDbLine
 10
14128.80217064596
 20
761.8747482146434
 30
0.0
 11
14128.80217064596
 21
713.8747482146436
 31
0.0
  0
LINE
  5
1A8D6
330
1A65A
100
AcDbEntity
  8
YODOROGO
100
AcDbLine
 10
14010.04445186845
 20
805.3252825309574
 30
0.0
 11
14020.45660200844
 21
829.874748214644
 31
0.0
  0
LINE
  5
1A8D7
330
1A65A
100
AcDbEntity
  8
YODOROGO
100
AcDbLine
 10
14020.80217064596
 20
791.5602449742006
 30
0.0
 11
14010.04445186845
 21
805.3252825309574
 31
0.0
  0
LINE
  5
1A8D8
330
1A65A
100
AcDbEntity
  8
YODOROGO
100
AcDbLine
 10
14020.80217064596
 20
781.5602449741994
 30
0.0
 11
14020.80217064596
 21
791.5602449742006
 31
0.0
  0
LINE
  5
1A8D9
330
1A65A
100
AcDbEntity
  8
YODOROGO
100
AcDbLine
 10
14008.80217064596
 20
792.6185318747651
 30
0.0
 11
14020.80217064596
 21
781.5602449741994
 31
0.0
  0
LINE
  5
1A8DA
330
1A65A
100
AcDbEntity
  8
YODOROGO
100
AcDbLine
 10
14008.80217064596
 20
737.8747482146435
 30
0.0
 11
14008.80217064596
 21
792.6185318747651
 31
0.0
  0
LINE
  5
1A8DB
330
1A65A
100
AcDbEntity
  8
YODOROGO
100
AcDbLine
 10
14000.80217064596
 20
737.8747482146435
 30
0.0
 11
14008.80217064596
 21
737.8747482146435
 31
0.0
  0
LINE
  5
1A8DC
330
1A65A
100
AcDbEntity
  8
YODOROGO
100
AcDbLine
 10
14000.80217064596
 20
790.0026748448738
 30
0.0
 11
14000.80217064596
 21
737.8747482146435
 31
0.0
  0
LINE
  5
1A8DD
330
1A65A
100
AcDbEntity
  8
YODOROGO
100
AcDbLine
 10
13988.80217064596
 20
766.3840395167142
 30
0.0
 11
14000.80217064596
 21
790.0026748448738
 31
0.0
  0
LINE
  5
1A8DE
330
1A65A
100
AcDbEntity
  8
YODOROGO
100
AcDbLine
 10
13988.80217064596
 20
778.3840395167149
 30
0.0
 11
13988.80217064596
 21
766.3840395167142
 31
0.0
  0
LINE
  5
1A8DF
330
1A65A
100
AcDbEntity
  8
YODOROGO
100
AcDbLine
 10
14012.91438714567
 20
833.8747482146427
 30
0.0
 11
13988.80217064596
 21
778.3840395167149
 31
0.0
  0
LINE
  5
1A8E0
330
1A65A
100
AcDbEntity
  8
YODOROGO
100
AcDbLine
 10
13988.80217064596
 20
833.8747482146427
 30
0.0
 11
14012.91438714567
 21
833.8747482146427
 31
0.0
  0
LINE
  5
1A8E1
330
1A65A
100
AcDbEntity
  8
YODOROGO
100
AcDbLine
 10
14025.06776011545
 20
827.751818637328
 30
0.0
 11
14041.06776011546
 21
827.751818637328
 31
0.0
1001
AUTOCAD_POSTSCRIPT_FIGURE
1002
{
1000
PSFILL
1000
Grayscale
1000
Grayscale
1070
   100
1002
}
  0
LINE
  5
1A8E2
330
1A65A
100
AcDbEntity
  8
YODOROGO
100
AcDbLine
 10
14025.06776011545
 20
815.7518186373286
 30
0.0
 11
14025.06776011545
 21
827.751818637328
 31
0.0
1001
AUTOCAD_POSTSCRIPT_FIGURE
1002
{
1000
PSFILL
1000
Grayscale
1000
Grayscale
1070
   100
1002
}
  0
LINE
  5
1A8E3
330
1A65A
100
AcDbEntity
  8
YODOROGO
100
AcDbLine
 10
14041.06776011546
 20
815.7518186373286
 30
0.0
 11
14025.06776011545
 21
815.7518186373286
 31
0.0
1001
AUTOCAD_POSTSCRIPT_FIGURE
1002
{
1000
PSFILL
1000
Grayscale
1000
Grayscale
1070
   100
1002
}
  0
LINE
  5
1A8E4
330
1A65A
100
AcDbEntity
  8
YODOROGO
100
AcDbLine
 10
14041.06776011546
 20
749.8747482146441
 30
0.0
 11
14041.06776011546
 21
815.7518186373286
 31
0.0
1001
AUTOCAD_POSTSCRIPT_FIGURE
1002
{
1000
PSFILL
1000
Grayscale
1000
Grayscale
1070
   100
1002
}
  0
LINE
  5
1A8E5
330
1A65A
100
AcDbEntity
  8
YODOROGO
100
AcDbLine
 10
14025.06776011545
 20
749.8747482146441
 30
0.0
 11
14041.06776011546
 21
749.8747482146441
 31
0.0
1001
AUTOCAD_POSTSCRIPT_FIGURE
1002
{
1000
PSFILL
1000
Grayscale
1000
Grayscale
1070
   100
1002
}
  0
LINE
  5
1A8E6
330
1A65A
100
AcDbEntity
  8
YODOROGO
100
AcDbLine
 10
14025.06776011545
 20
737.8747482146435
 30
0.0
 11
14025.06776011545
 21
749.8747482146441
 31
0.0
1001
AUTOCAD_POSTSCRIPT_FIGURE
1002
{
1000
PSFILL
1000
Grayscale
1000
Grayscale
1070
   100
1002
}
  0
LINE
  5
1A8E7
330
1A65A
100
AcDbEntity
  8
YODOROGO
100
AcDbLine
 10
14068.80217064596
 20
737.8747482146435
 30
0.0
 11
14025.06776011545
 21
737.8747482146435
 31
0.0
1001
AUTOCAD_POSTSCRIPT_FIGURE
1002
{
1000
PSFILL
1000
Grayscale
1000
Grayscale
1070
   100
1002
}
  0
LINE
  5
1A8E8
330
1A65A
100
AcDbEntity
  8
YODOROGO
100
AcDbLine
 10
14068.80217064596
 20
749.8747482146441
 30
0.0
 11
14068.80217064596
 21
737.8747482146435
 31
0.0
1001
AUTOCAD_POSTSCRIPT_FIGURE
1002
{
1000
PSFILL
1000
Grayscale
1000
Grayscale
1070
   100
1002
}
  0
LINE
  5
1A8E9
330
1A65A
100
AcDbEntity
  8
YODOROGO
100
AcDbLine
 10
14049.06776011545
 20
749.8747482146441
 30
0.0
 11
14068.80217064596
 21
749.8747482146441
 31
0.0
1001
AUTOCAD_POSTSCRIPT_FIGURE
1002
{
1000
PSFILL
1000
Grayscale
1000
Grayscale
1070
   100
1002
}
  0
LINE
  5
1A8EA
330
1A65A
100
AcDbEntity
  8
YODOROGO
100
AcDbLine
 10
14049.06776011545
 20
815.7518186373286
 30
0.0
 11
14049.06776011545
 21
749.8747482146441
 31
0.0
1001
AUTOCAD_POSTSCRIPT_FIGURE
1002
{
1000
PSFILL
1000
Grayscale
1000
Grayscale
1070
   100
1002
}
  0
LINE
  5
1A8EB
330
1A65A
100
AcDbEntity
  8
YODOROGO
100
AcDbLine
 10
14068.80217064596
 20
815.7518186373286
 30
0.0
 11
14049.06776011545
 21
815.7518186373286
 31
0.0
1001
AUTOCAD_POSTSCRIPT_FIGURE
1002
{
1000
PSFILL
1000
Grayscale
1000
Grayscale
1070
   100
1002
}
  0
LINE
  5
1A8EC
330
1A65A
100
AcDbEntity
  8
YODOROGO
100
AcDbLine
 10
14068.80217064596
 20
827.751818637328
 30
0.0
 11
14068.80217064596
 21
815.7518186373286
 31
0.0
1001
AUTOCAD_POSTSCRIPT_FIGURE
1002
{
1000
PSFILL
1000
Grayscale
1000
Grayscale
1070
   100
1002
}
  0
LINE
  5
1A8ED
330
1A65A
100
AcDbEntity
  8
YODOROGO
100
AcDbLine
 10
14049.06776011545
 20
827.751818637328
 30
0.0
 11
14068.80217064596
 21
827.751818637328
 31
0.0
1001
AUTOCAD_POSTSCRIPT_FIGURE
1002
{
1000
PSFILL
1000
Grayscale
1000
Grayscale
1070
   100
1002
}
  0
LINE
  5
1A8EE
330
1A65A
100
AcDbEntity
  8
YODOROGO
100
AcDbLine
 10
14200.80217064594
 20
833.8747482146439
 30
0.0
 11
14172.80217064596
 21
833.8747482146439
 31
0.0
  0
LINE
  5
1A8EF
330
1A65A
100
AcDbEntity
  8
YODOROGO
100
AcDbLine
 10
14200.80217064594
 20
805.8747482146443
 30
0.0
 11
14200.80217064594
 21
833.8747482146439
 31
0.0
  0
LINE
  5
1A8F0
330
1A65A
100
AcDbEntity
  8
YODOROGO
100
AcDbLine
 10
14172.80217064596
 20
833.8747482146439
 30
0.0
 11
14172.80217064596
 21
805.8747482146443
 31
0.0
  0
ARC
  5
1A8F1
330
1A65A
100
AcDbEntity
  8
YODOROGO
100
AcDbCircle
 10
14256.80217064594
 20
753.8747482146439
 30
0.0
 40
40.0
100
AcDbArc
 50
180.0
 51
270.0
  0
ARC
  5
1A8F2
330
1A65A
100
AcDbEntity
  8
YODOROGO
100
AcDbCircle
 10
14268.80217064594
 20
781.8747482146434
 30
0.0
 40
20.0
100
AcDbArc
 50
180.0
 51
270.0
  0
LINE
  5
1A8F3
330
1A65A
100
AcDbEntity
  8
YODOROGO
100
AcDbLine
 10
14280.80217064596
 20
761.8747482146434
 30
0.0
 11
14268.80217064594
 21
761.8747482146434
 31
0.0
  0
ARC
  5
1A8F4
330
1A65A
100
AcDbEntity
  8
YODOROGO
100
AcDbCircle
 10
14280.80217064596
 20
773.8747482146427
 30
0.0
 40
11.99999999999818
100
AcDbArc
 50
270.0
 51
0.0000000000054281
  0
LINE
  5
1A8F5
330
1A65A
100
AcDbEntity
  8
YODOROGO
100
AcDbLine
 10
13900.80217064596
 20
945.3932903968532
 30
0.0
 11
13888.80217064596
 21
921.8883739758362
 31
0.0
1001
AUTOCAD_POSTSCRIPT_FIGURE
1002
{
1000
PSFILL
1000
Grayscale
1000
Grayscale
1070
   100
1002
}
  0
LINE
  5
1A8F6
330
1A65A
100
AcDbEntity
  8
YODOROGO
100
AcDbLine
 10
13900.80217064596
 20
873.8747482146434
 30
0.0
 11
13900.80217064596
 21
945.3932903968532
 31
0.0
1001
AUTOCAD_POSTSCRIPT_FIGURE
1002
{
1000
PSFILL
1000
Grayscale
1000
Grayscale
1070
   100
1002
}
  0
LINE
  5
1A8F7
330
1A65A
100
AcDbEntity
  8
YODOROGO
100
AcDbLine
 10
13908.80217064596
 20
873.8747482146434
 30
0.0
 11
13900.80217064596
 21
873.8747482146434
 31
0.0
1001
AUTOCAD_POSTSCRIPT_FIGURE
1002
{
1000
PSFILL
1000
Grayscale
1000
Grayscale
1070
   100
1002
}
  0
LINE
  5
1A8F8
330
1A65A
100
AcDbEntity
  8
YODOROGO
100
AcDbLine
 10
13908.80217064596
 20
946.8856660426332
 30
0.0
 11
13908.80217064596
 21
873.8747482146434
 31
0.0
1001
AUTOCAD_POSTSCRIPT_FIGURE
1002
{
1000
PSFILL
1000
Grayscale
1000
Grayscale
1070
   100
1002
}
  0
LINE
  5
1A8F9
330
1A65A
100
AcDbEntity
  8
YODOROGO
100
AcDbLine
 10
13920.80217064596
 20
933.8273791420684
 30
0.0
 11
13908.80217064596
 21
946.8856660426332
 31
0.0
1001
AUTOCAD_POSTSCRIPT_FIGURE
1002
{
1000
PSFILL
1000
Grayscale
1000
Grayscale
1070
   100
1002
}
  0
LINE
  5
1A8FA
330
1A65A
100
AcDbEntity
  8
YODOROGO
100
AcDbLine
 10
13920.80217064596
 20
941.8273791420681
 30
0.0
 11
13920.80217064596
 21
933.8273791420684
 31
0.0
1001
AUTOCAD_POSTSCRIPT_FIGURE
1002
{
1000
PSFILL
1000
Grayscale
1000
Grayscale
1070
   100
1002
}
  0
LINE
  5
1A8FB
330
1A65A
100
AcDbEntity
  8
YODOROGO
100
AcDbLine
 10
13908.80217064596
 20
958.8856660426325
 30
0.0
 11
13920.80217064596
 21
941.8273791420681
 31
0.0
1001
AUTOCAD_POSTSCRIPT_FIGURE
1002
{
1000
PSFILL
1000
Grayscale
1000
Grayscale
1070
   100
1002
}
  0
LINE
  5
1A8FC
330
1A65A
100
AcDbEntity
  8
YODOROGO
100
AcDbLine
 10
13908.80217064596
 20
969.8747482146441
 30
0.0
 11
13908.80217064596
 21
958.8856660426325
 31
0.0
1001
AUTOCAD_POSTSCRIPT_FIGURE
1002
{
1000
PSFILL
1000
Grayscale
1000
Grayscale
1070
   100
1002
}
  0
LINE
  5
1A8FD
330
1A65A
100
AcDbEntity
  8
YODOROGO
100
AcDbLine
 10
13944.80217064596
 20
969.8747482146441
 30
0.0
 11
13908.80217064596
 21
969.8747482146441
 31
0.0
1001
AUTOCAD_POSTSCRIPT_FIGURE
1002
{
1000
PSFILL
1000
Grayscale
1000
Grayscale
1070
   100
1002
}
  0
LINE
  5
1A8FE
330
1A65A
100
AcDbEntity
  8
YODOROGO
100
AcDbLine
 10
13944.80217064596
 20
950.2841744681497
 30
0.0
 11
13944.80217064596
 21
969.8747482146441
 31
0.0
1001
AUTOCAD_POSTSCRIPT_FIGURE
1002
{
1000
PSFILL
1000
Grayscale
1000
Grayscale
1070
   100
1002
}
  0
LINE
  5
1A8FF
330
1A65A
100
AcDbEntity
  8
YODOROGO
100
AcDbLine
 10
13928.80217064596
 20
950.2841744681497
 30
0.0
 11
13944.80217064596
 21
950.2841744681497
 31
0.0
1001
AUTOCAD_POSTSCRIPT_FIGURE
1002
{
1000
PSFILL
1000
Grayscale
1000
Grayscale
1070
   100
1002
}
  0
LINE
  5
1A900
330
1A65A
100
AcDbEntity
  8
YODOROGO
100
AcDbLine
 10
13928.80217064596
 20
942.2841744681491
 30
0.0
 11
13928.80217064596
 21
950.2841744681497
 31
0.0
1001
AUTOCAD_POSTSCRIPT_FIGURE
1002
{
1000
PSFILL
1000
Grayscale
1000
Grayscale
1070
   100
1002
}
  0
LINE
  5
1A901
330
1A65A
100
AcDbEntity
  8
YODOROGO
100
AcDbLine
 10
13944.80217064596
 20
942.2841744681491
 30
0.0
 11
13928.80217064596
 21
942.2841744681491
 31
0.0
1001
AUTOCAD_POSTSCRIPT_FIGURE
1002
{
1000
PSFILL
1000
Grayscale
1000
Grayscale
1070
   100
1002
}
  0
LINE
  5
1A902
330
1A65A
100
AcDbEntity
  8
YODOROGO
100
AcDbLine
 10
13944.80217064596
 20
939.8095889822196
 30
0.0
 11
13944.80217064596
 21
942.2841744681491
 31
0.0
1001
AUTOCAD_POSTSCRIPT_FIGURE
1002
{
1000
PSFILL
1000
Grayscale
1000
Grayscale
1070
   100
1002
}
  0
LINE
  5
1A903
330
1A65A
100
AcDbEntity
  8
YODOROGO
100
AcDbLine
 10
13924.80217064596
 20
906.4874905807087
 30
0.0
 11
13944.80217064596
 21
939.8095889822196
 31
0.0
1001
AUTOCAD_POSTSCRIPT_FIGURE
1002
{
1000
PSFILL
1000
Grayscale
1000
Grayscale
1070
   100
1002
}
  0
LINE
  5
1A904
330
1A65A
100
AcDbEntity
  8
YODOROGO
100
AcDbLine
 10
13924.80217064596
 20
898.487490580708
 30
0.0
 11
13924.80217064596
 21
906.4874905807087
 31
0.0
1001
AUTOCAD_POSTSCRIPT_FIGURE
1002
{
1000
PSFILL
1000
Grayscale
1000
Grayscale
1070
   100
1002
}
  0
LINE
  5
1A905
330
1A65A
100
AcDbEntity
  8
YODOROGO
100
AcDbLine
 10
13944.80217064596
 20
923.8095889822183
 30
0.0
 11
13924.80217064596
 21
898.487490580708
 31
0.0
1001
AUTOCAD_POSTSCRIPT_FIGURE
1002
{
1000
PSFILL
1000
Grayscale
1000
Grayscale
1070
   100
1002
}
  0
LINE
  5
1A906
330
1A65A
100
AcDbEntity
  8
YODOROGO
100
AcDbLine
 10
13944.80217064596
 20
873.8747482146434
 30
0.0
 11
13944.80217064596
 21
923.8095889822183
 31
0.0
1001
AUTOCAD_POSTSCRIPT_FIGURE
1002
{
1000
PSFILL
1000
Grayscale
1000
Grayscale
1070
   100
1002
}
  0
LINE
  5
1A907
330
1A65A
100
AcDbEntity
  8
YODOROGO
100
AcDbLine
 10
13952.80217064596
 20
873.8747482146434
 30
0.0
 11
13944.80217064596
 21
873.8747482146434
 31
0.0
1001
AUTOCAD_POSTSCRIPT_FIGURE
1002
{
1000
PSFILL
1000
Grayscale
1000
Grayscale
1070
   100
1002
}
  0
LINE
  5
1A908
330
1A65A
100
AcDbEntity
  8
YODOROGO
100
AcDbLine
 10
13952.80217064596
 20
924.7045060794032
 30
0.0
 11
13952.80217064596
 21
873.8747482146434
 31
0.0
1001
AUTOCAD_POSTSCRIPT_FIGURE
1002
{
1000
PSFILL
1000
Grayscale
1000
Grayscale
1070
   100
1002
}
  0
LINE
  5
1A909
330
1A65A
100
AcDbEntity
  8
YODOROGO
100
AcDbLine
 10
13968.80217064596
 20
898.487490580708
 30
0.0
 11
13952.80217064596
 21
924.7045060794032
 31
0.0
1001
AUTOCAD_POSTSCRIPT_FIGURE
1002
{
1000
PSFILL
1000
Grayscale
1000
Grayscale
1070
   100
1002
}
  0
LINE
  5
1A90A
330
1A65A
100
AcDbEntity
  8
YODOROGO
100
AcDbLine
 10
13968.80217064596
 20
906.4874905807087
 30
0.0
 11
13968.80217064596
 21
898.487490580708
 31
0.0
1001
AUTOCAD_POSTSCRIPT_FIGURE
1002
{
1000
PSFILL
1000
Grayscale
1000
Grayscale
1070
   100
1002
}
  0
LINE
  5
1A90B
330
1A65A
100
AcDbEntity
  8
YODOROGO
100
AcDbLine
 10
13952.80217064596
 20
940.7045060794041
 30
0.0
 11
13968.80217064596
 21
906.4874905807087
 31
0.0
1001
AUTOCAD_POSTSCRIPT_FIGURE
1002
{
1000
PSFILL
1000
Grayscale
1000
Grayscale
1070
   100
1002
}
  0
LINE
  5
1A90C
330
1A65A
100
AcDbEntity
  8
YODOROGO
100
AcDbLine
 10
13952.80217064596
 20
942.2841744681502
 30
0.0
 11
13952.80217064596
 21
940.7045060794041
 31
0.0
1001
AUTOCAD_POSTSCRIPT_FIGURE
1002
{
1000
PSFILL
1000
Grayscale
1000
Grayscale
1070
   100
1002
}
  0
LINE
  5
1A90D
330
1A65A
100
AcDbEntity
  8
YODOROGO
100
AcDbLine
 10
13968.80217064596
 20
942.2841744681491
 30
0.0
 11
13952.80217064596
 21
942.2841744681502
 31
0.0
1001
AUTOCAD_POSTSCRIPT_FIGURE
1002
{
1000
PSFILL
1000
Grayscale
1000
Grayscale
1070
   100
1002
}
  0
LINE
  5
1A90E
330
1A65A
100
AcDbEntity
  8
YODOROGO
100
AcDbLine
 10
13968.80217064596
 20
950.2841744681497
 30
0.0
 11
13968.80217064596
 21
942.2841744681491
 31
0.0
1001
AUTOCAD_POSTSCRIPT_FIGURE
1002
{
1000
PSFILL
1000
Grayscale
1000
Grayscale
1070
   100
1002
}
  0
LINE
  5
1A90F
330
1A65A
100
AcDbEntity
  8
YODOROGO
100
AcDbLine
 10
13952.80217064596
 20
950.2841744681497
 30
0.0
 11
13968.80217064596
 21
950.2841744681497
 31
0.0
1001
AUTOCAD_POSTSCRIPT_FIGURE
1002
{
1000
PSFILL
1000
Grayscale
1000
Grayscale
1070
   100
1002
}
  0
LINE
  5
1A910
330
1A65A
100
AcDbEntity
  8
YODOROGO
100
AcDbLine
 10
13952.80217064596
 20
969.8747482146441
 30
0.0
 11
13952.80217064596
 21
950.2841744681497
 31
0.0
1001
AUTOCAD_POSTSCRIPT_FIGURE
1002
{
1000
PSFILL
1000
Grayscale
1000
Grayscale
1070
   100
1002
}
  0
LINE
  5
1A911
330
1A65A
100
AcDbEntity
  8
YODOROGO
100
AcDbLine
 10
13968.80217064596
 20
969.8747482146441
 30
0.0
 11
13952.80217064596
 21
969.8747482146441
 31
0.0
1001
AUTOCAD_POSTSCRIPT_FIGURE
1002
{
1000
PSFILL
1000
Grayscale
1000
Grayscale
1070
   100
1002
}
  0
LINE
  5
1A912
330
1A65A
100
AcDbEntity
  8
YODOROGO
100
AcDbLine
 10
13968.80217064596
 20
977.8747482146435
 30
0.0
 11
13968.80217064596
 21
969.8747482146441
 31
0.0
1001
AUTOCAD_POSTSCRIPT_FIGURE
1002
{
1000
PSFILL
1000
Grayscale
1000
Grayscale
1070
   100
1002
}
  0
LINE
  5
1A913
330
1A65A
100
AcDbEntity
  8
YODOROGO
100
AcDbLine
 10
13952.80217064596
 20
977.8747482146435
 30
0.0
 11
13968.80217064596
 21
977.8747482146435
 31
0.0
1001
AUTOCAD_POSTSCRIPT_FIGURE
1002
{
1000
PSFILL
1000
Grayscale
1000
Grayscale
1070
   100
1002
}
  0
LINE
  5
1A914
330
1A65A
100
AcDbEntity
  8
YODOROGO
100
AcDbLine
 10
13952.80217064596
 20
989.8747482146442
 30
0.0
 11
13952.80217064596
 21
977.8747482146435
 31
0.0
1001
AUTOCAD_POSTSCRIPT_FIGURE
1002
{
1000
PSFILL
1000
Grayscale
1000
Grayscale
1070
   100
1002
}
  0
LINE
  5
1A915
330
1A65A
100
AcDbEntity
  8
YODOROGO
100
AcDbLine
 10
13944.80217064596
 20
989.8747482146442
 30
0.0
 11
13952.80217064596
 21
989.8747482146442
 31
0.0
1001
AUTOCAD_POSTSCRIPT_FIGURE
1002
{
1000
PSFILL
1000
Grayscale
1000
Grayscale
1070
   100
1002
}
  0
LINE
  5
1A916
330
1A65A
100
AcDbEntity
  8
YODOROGO
100
AcDbLine
 10
13944.80217064596
 20
977.8747482146435
 30
0.0
 11
13944.80217064596
 21
989.8747482146442
 31
0.0
1001
AUTOCAD_POSTSCRIPT_FIGURE
1002
{
1000
PSFILL
1000
Grayscale
1000
Grayscale
1070
   100
1002
}
  0
LINE
  5
1A917
330
1A65A
100
AcDbEntity
  8
YODOROGO
100
AcDbLine
 10
13932.80217064596
 20
977.8747482146435
 30
0.0
 11
13944.80217064596
 21
977.8747482146435
 31
0.0
1001
AUTOCAD_POSTSCRIPT_FIGURE
1002
{
1000
PSFILL
1000
Grayscale
1000
Grayscale
1070
   100
1002
}
  0
LINE
  5
1A918
330
1A65A
100
AcDbEntity
  8
YODOROGO
100
AcDbLine
 10
13932.80217064596
 20
989.8747482146442
 30
0.0
 11
13932.80217064596
 21
977.8747482146435
 31
0.0
1001
AUTOCAD_POSTSCRIPT_FIGURE
1002
{
1000
PSFILL
1000
Grayscale
1000
Grayscale
1070
   100
1002
}
  0
LINE
  5
1A919
330
1A65A
100
AcDbEntity
  8
YODOROGO
100
AcDbLine
 10
13924.80217064596
 20
989.8747482146442
 30
0.0
 11
13932.80217064596
 21
989.8747482146442
 31
0.0
1001
AUTOCAD_POSTSCRIPT_FIGURE
1002
{
1000
PSFILL
1000
Grayscale
1000
Grayscale
1070
   100
1002
}
  0
LINE
  5
1A91A
330
1A65A
100
AcDbEntity
  8
YODOROGO
100
AcDbLine
 10
13924.80217064596
 20
977.8747482146435
 30
0.0
 11
13924.80217064596
 21
989.8747482146442
 31
0.0
1001
AUTOCAD_POSTSCRIPT_FIGURE
1002
{
1000
PSFILL
1000
Grayscale
1000
Grayscale
1070
   100
1002
}
  0
LINE
  5
1A91B
330
1A65A
100
AcDbEntity
  8
YODOROGO
100
AcDbLine
 10
13908.80217064596
 20
977.8747482146435
 30
0.0
 11
13924.80217064596
 21
977.8747482146435
 31
0.0
1001
AUTOCAD_POSTSCRIPT_FIGURE
1002
{
1000
PSFILL
1000
Grayscale
1000
Grayscale
1070
   100
1002
}
  0
LINE
  5
1A91C
330
1A65A
100
AcDbEntity
  8
YODOROGO
100
AcDbLine
 10
13908.80217064596
 20
989.8747482146442
 30
0.0
 11
13908.80217064596
 21
977.8747482146435
 31
0.0
1001
AUTOCAD_POSTSCRIPT_FIGURE
1002
{
1000
PSFILL
1000
Grayscale
1000
Grayscale
1070
   100
1002
}
  0
LINE
  5
1A91D
330
1A65A
100
AcDbEntity
  8
YODOROGO
100
AcDbLine
 10
13900.80217064596
 20
989.8747482146442
 30
0.0
 11
13908.80217064596
 21
989.8747482146442
 31
0.0
1001
AUTOCAD_POSTSCRIPT_FIGURE
1002
{
1000
PSFILL
1000
Grayscale
1000
Grayscale
1070
   100
1002
}
  0
LINE
  5
1A91E
330
1A65A
100
AcDbEntity
  8
YODOROGO
100
AcDbLine
 10
13900.80217064596
 20
977.8747482146435
 30
0.0
 11
13900.80217064596
 21
989.8747482146442
 31
0.0
1001
AUTOCAD_POSTSCRIPT_FIGURE
1002
{
1000
PSFILL
1000
Grayscale
1000
Grayscale
1070
   100
1002
}
  0
LINE
  5
1A91F
330
1A65A
100
AcDbEntity
  8
YODOROGO
100
AcDbLine
 10
13888.80217064596
 20
977.8747482146435
 30
0.0
 11
13900.80217064596
 21
977.8747482146435
 31
0.0
1001
AUTOCAD_POSTSCRIPT_FIGURE
1002
{
1000
PSFILL
1000
Grayscale
1000
Grayscale
1070
   100
1002
}
  0
LINE
  5
1A920
330
1A65A
100
AcDbEntity
  8
YODOROGO
100
AcDbLine
 10
13888.80217064596
 20
969.8747482146441
 30
0.0
 11
13888.80217064596
 21
977.8747482146435
 31
0.0
1001
AUTOCAD_POSTSCRIPT_FIGURE
1002
{
1000
PSFILL
1000
Grayscale
1000
Grayscale
1070
   100
1002
}
  0
LINE
  5
1A921
330
1A65A
100
AcDbEntity
  8
YODOROGO
100
AcDbLine
 10
13900.80217064596
 20
969.8747482146441
 30
0.0
 11
13888.80217064596
 21
969.8747482146441
 31
0.0
1001
AUTOCAD_POSTSCRIPT_FIGURE
1002
{
1000
PSFILL
1000
Grayscale
1000
Grayscale
1070
   100
1002
}
  0
LINE
  5
1A922
330
1A65A
100
AcDbEntity
  8
YODOROGO
100
AcDbLine
 10
13900.80217064596
 20
957.3932903968525
 30
0.0
 11
13900.80217064596
 21
969.8747482146441
 31
0.0
1001
AUTOCAD_POSTSCRIPT_FIGURE
1002
{
1000
PSFILL
1000
Grayscale
1000
Grayscale
1070
   100
1002
}
  0
LINE
  5
1A923
330
1A65A
100
AcDbEntity
  8
YODOROGO
100
AcDbLine
 10
13888.80217064596
 20
929.8883739758355
 30
0.0
 11
13900.80217064596
 21
957.3932903968525
 31
0.0
1001
AUTOCAD_POSTSCRIPT_FIGURE
1002
{
1000
PSFILL
1000
Grayscale
1000
Grayscale
1070
   100
1002
}
  0
LINE
  5
1A924
330
1A65A
100
AcDbEntity
  8
YODOROGO
100
AcDbLine
 10
13888.80217064596
 20
921.8883739758362
 30
0.0
 11
13888.80217064596
 21
929.8883739758355
 31
0.0
1001
AUTOCAD_POSTSCRIPT_FIGURE
1002
{
1000
PSFILL
1000
Grayscale
1000
Grayscale
1070
   100
1002
}
  0
LINE
  5
1A925
330
1A65A
100
AcDbEntity
  8
YODOROGO
100
AcDbLine
 10
14128.80217064596
 20
933.8747482146439
 30
0.0
 11
14200.80217064594
 21
912.4388128201532
 31
0.0
1001
AUTOCAD_POSTSCRIPT_FIGURE
1002
{
1000
PSFILL
1000
Grayscale
1000
Grayscale
1070
   100
1002
}
  0
LINE
  5
1A926
330
1A65A
100
AcDbEntity
  8
YODOROGO
100
AcDbLine
 10
14200.80217064594
 20
876.4388128201531
 30
0.0
 11
14128.80217064596
 21
897.8747482146435
 31
0.0
1001
AUTOCAD_POSTSCRIPT_FIGURE
1002
{
1000
PSFILL
1000
Grayscale
1000
Grayscale
1070
   100
1002
}
  0
LINE
  5
1A927
330
1A65A
100
AcDbEntity
  8
YODOROGO
100
AcDbLine
 10
14200.80217064594
 20
992.4388128201531
 30
0.0
 11
14128.80217064596
 21
1013.874748214644
 31
0.0
1001
AUTOCAD_POSTSCRIPT_FIGURE
1002
{
1000
PSFILL
1000
Grayscale
1000
Grayscale
1070
   100
1002
}
  0
LINE
  5
1A928
330
1A65A
100
AcDbEntity
  8
YODOROGO
100
AcDbLine
 10
14128.80217064596
 20
979.874748214644
 30
0.0
 11
14200.80217064594
 21
958.4388128201537
 31
0.0
1001
AUTOCAD_POSTSCRIPT_FIGURE
1002
{
1000
PSFILL
1000
Grayscale
1000
Grayscale
1070
   100
1002
}
  0
LINE
  5
1A929
330
1A65A
100
AcDbEntity
  8
YODOROGO
100
AcDbLine
 10
14128.80217064596
 20
897.8747482146435
 30
0.0
 11
14128.80217064596
 21
933.8747482146439
 31
0.0
1001
AUTOCAD_POSTSCRIPT_FIGURE
1002
{
1000
PSFILL
1000
Grayscale
1000
Grayscale
1070
   100
1002
}
  0
LINE
  5
1A92A
330
1A65A
100
AcDbEntity
  8
YODOROGO
100
AcDbLine
 10
14128.80217064596
 20
1013.874748214644
 30
0.0
 11
14128.80217064596
 21
979.874748214644
 31
0.0
1001
AUTOCAD_POSTSCRIPT_FIGURE
1002
{
1000
PSFILL
1000
Grayscale
1000
Grayscale
1070
   100
1002
}
  0
LINE
  5
1A92B
330
1A65A
100
AcDbEntity
  8
YODOROGO
100
AcDbLine
 10
14040.11816010337
 20
969.8747482146441
 30
0.0
 11
14064.80217064595
 21
873.8747482146434
 31
0.0
1001
AUTOCAD_POSTSCRIPT_FIGURE
1002
{
1000
PSFILL
1000
Grayscale
1000
Grayscale
1070
   100
1002
}
  0
LINE
  5
1A92C
330
1A65A
100
AcDbEntity
  8
YODOROGO
100
AcDbLine
 10
13988.80217064596
 20
969.8747482146441
 30
0.0
 11
14040.11816010337
 21
969.8747482146441
 31
0.0
1001
AUTOCAD_POSTSCRIPT_FIGURE
1002
{
1000
PSFILL
1000
Grayscale
1000
Grayscale
1070
   100
1002
}
  0
LINE
  5
1A92D
330
1A65A
100
AcDbEntity
  8
YODOROGO
100
AcDbLine
 10
13988.80217064596
 20
977.8747482146435
 30
0.0
 11
13988.80217064596
 21
969.8747482146441
 31
0.0
1001
AUTOCAD_POSTSCRIPT_FIGURE
1002
{
1000
PSFILL
1000
Grayscale
1000
Grayscale
1070
   100
1002
}
  0
LINE
  5
1A92E
330
1A65A
100
AcDbEntity
  8
YODOROGO
100
AcDbLine
 10
14038.30343925995
 20
977.8747482146435
 30
0.0
 11
13988.80217064596
 21
977.8747482146435
 31
0.0
1001
AUTOCAD_POSTSCRIPT_FIGURE
1002
{
1000
PSFILL
1000
Grayscale
1000
Grayscale
1070
   100
1002
}
  0
LINE
  5
1A92F
330
1A65A
100
AcDbEntity
  8
YODOROGO
100
AcDbLine
 10
14035.58135799485
 20
989.8747482146442
 30
0.0
 11
14038.30343925995
 21
977.8747482146435
 31
0.0
1001
AUTOCAD_POSTSCRIPT_FIGURE
1002
{
1000
PSFILL
1000
Grayscale
1000
Grayscale
1070
   100
1002
}
  0
LINE
  5
1A930
330
1A65A
100
AcDbEntity
  8
YODOROGO
100
AcDbLine
 10
14045.58135799485
 20
989.8747482146442
 30
0.0
 11
14035.58135799485
 21
989.8747482146442
 31
0.0
1001
AUTOCAD_POSTSCRIPT_FIGURE
1002
{
1000
PSFILL
1000
Grayscale
1000
Grayscale
1070
   100
1002
}
  0
LINE
  5
1A931
330
1A65A
100
AcDbEntity
  8
YODOROGO
100
AcDbLine
 10
14047.90343925997
 20
977.8747482146435
 30
0.0
 11
14045.58135799485
 21
989.8747482146442
 31
0.0
1001
AUTOCAD_POSTSCRIPT_FIGURE
1002
{
1000
PSFILL
1000
Grayscale
1000
Grayscale
1070
   100
1002
}
  0
LINE
  5
1A932
330
1A65A
100
AcDbEntity
  8
YODOROGO
100
AcDbLine
 10
14060.80217064596
 20
977.8747482146435
 30
0.0
 11
14047.90343925997
 21
977.8747482146435
 31
0.0
1001
AUTOCAD_POSTSCRIPT_FIGURE
1002
{
1000
PSFILL
1000
Grayscale
1000
Grayscale
1070
   100
1002
}
  0
LINE
  5
1A933
330
1A65A
100
AcDbEntity
  8
YODOROGO
100
AcDbLine
 10
14060.80217064596
 20
989.8747482146442
 30
0.0
 11
14060.80217064596
 21
977.8747482146435
 31
0.0
1001
AUTOCAD_POSTSCRIPT_FIGURE
1002
{
1000
PSFILL
1000
Grayscale
1000
Grayscale
1070
   100
1002
}
  0
LINE
  5
1A934
330
1A65A
100
AcDbEntity
  8
YODOROGO
100
AcDbLine
 10
14068.80217064596
 20
989.8747482146442
 30
0.0
 11
14060.80217064596
 21
989.8747482146442
 31
0.0
1001
AUTOCAD_POSTSCRIPT_FIGURE
1002
{
1000
PSFILL
1000
Grayscale
1000
Grayscale
1070
   100
1002
}
  0
LINE
  5
1A935
330
1A65A
100
AcDbEntity
  8
YODOROGO
100
AcDbLine
 10
14068.80217064596
 20
977.8747482146435
 30
0.0
 11
14068.80217064596
 21
989.8747482146442
 31
0.0
1001
AUTOCAD_POSTSCRIPT_FIGURE
1002
{
1000
PSFILL
1000
Grayscale
1000
Grayscale
1070
   100
1002
}
  0
LINE
  5
1A936
330
1A65A
100
AcDbEntity
  8
YODOROGO
100
AcDbLine
 10
14068.80217064596
 20
969.8747482146441
 30
0.0
 11
14068.80217064596
 21
977.8747482146435
 31
0.0
1001
AUTOCAD_POSTSCRIPT_FIGURE
1002
{
1000
PSFILL
1000
Grayscale
1000
Grayscale
1070
   100
1002
}
  0
LINE
  5
1A937
330
1A65A
100
AcDbEntity
  8
YODOROGO
100
AcDbLine
 10
14049.45149343671
 20
969.8747482146441
 30
0.0
 11
14068.80217064596
 21
969.8747482146441
 31
0.0
1001
AUTOCAD_POSTSCRIPT_FIGURE
1002
{
1000
PSFILL
1000
Grayscale
1000
Grayscale
1070
   100
1002
}
  0
LINE
  5
1A938
330
1A65A
100
AcDbEntity
  8
YODOROGO
100
AcDbLine
 10
14068.80217064596
 20
873.8747482146434
 30
0.0
 11
14049.45149343671
 21
969.8747482146441
 31
0.0
1001
AUTOCAD_POSTSCRIPT_FIGURE
1002
{
1000
PSFILL
1000
Grayscale
1000
Grayscale
1070
   100
1002
}
  0
LINE
  5
1A939
330
1A65A
100
AcDbEntity
  8
YODOROGO
100
AcDbLine
 10
14064.80217064595
 20
873.8747482146434
 30
0.0
 11
14068.80217064596
 21
873.8747482146434
 31
0.0
1001
AUTOCAD_POSTSCRIPT_FIGURE
1002
{
1000
PSFILL
1000
Grayscale
1000
Grayscale
1070
   100
1002
}
  0
LINE
  5
1A93A
330
1A65A
100
AcDbEntity
  8
YODOROGO
100
AcDbLine
 10
14039.03460996689
 20
887.8703881493972
 30
0.0
 11
13988.80217064596
 21
873.8747482146434
 31
0.0
  0
LINE
  5
1A93B
330
1A65A
100
AcDbEntity
  8
YODOROGO
100
AcDbLine
 10
14039.03460996689
 20
899.3344897645364
 30
0.0
 11
14039.03460996689
 21
887.8703881493972
 31
0.0
  0
LINE
  5
1A93C
330
1A65A
100
AcDbEntity
  8
YODOROGO
100
AcDbLine
 10
14016.91839030643
 20
893.4084665668834
 30
0.0
 11
14039.03460996689
 21
899.3344897645364
 31
0.0
  0
LINE
  5
1A93D
330
1A65A
100
AcDbEntity
  8
YODOROGO
100
AcDbLine
 10
14016.91839030643
 20
936.2841744681499
 30
0.0
 11
14016.91839030643
 21
893.4084665668834
 31
0.0
  0
LINE
  5
1A93E
330
1A65A
100
AcDbEntity
  8
YODOROGO
100
AcDbLine
 10
14039.03460996689
 20
936.2841744681499
 30
0.0
 11
14016.91839030643
 21
936.2841744681499
 31
0.0
  0
LINE
  5
1A93F
330
1A65A
100
AcDbEntity
  8
YODOROGO
100
AcDbLine
 10
14039.03460996689
 20
946.2841744681487
 30
0.0
 11
14039.03460996689
 21
936.2841744681499
 31
0.0
  0
LINE
  5
1A940
330
1A65A
100
AcDbEntity
  8
YODOROGO
100
AcDbLine
 10
13988.80217064596
 20
946.2841744681487
 30
0.0
 11
14039.03460996689
 21
946.2841744681487
 31
0.0
  0
LINE
  5
1A941
330
1A65A
100
AcDbEntity
  8
YODOROGO
100
AcDbLine
 10
13988.80217064596
 20
936.2841744681499
 30
0.0
 11
13988.80217064596
 21
946.2841744681487
 31
0.0
  0
LINE
  5
1A942
330
1A65A
100
AcDbEntity
  8
YODOROGO
100
AcDbLine
 10
14010.91839030643
 20
936.2841744681499
 30
0.0
 11
13988.80217064596
 21
936.2841744681499
 31
0.0
  0
LINE
  5
1A943
330
1A65A
100
AcDbEntity
  8
YODOROGO
100
AcDbLine
 10
14010.91839030643
 20
892.3366697971587
 30
0.0
 11
14010.91839030643
 21
936.2841744681499
 31
0.0
  0
LINE
  5
1A944
330
1A65A
100
AcDbEntity
  8
YODOROGO
100
AcDbLine
 10
13988.80217064596
 20
885.8747482146432
 30
0.0
 11
14010.91839030643
 21
892.3366697971587
 31
0.0
  0
LINE
  5
1A945
330
1A65A
100
AcDbEntity
  8
YODOROGO
100
AcDbLine
 10
13988.80217064596
 20
873.8747482146434
 30
0.0
 11
13988.80217064596
 21
885.8747482146432
 31
0.0
  0
LINE
  5
1A946
330
1A65A
100
AcDbEntity
  8
YODOROGO
100
AcDbLine
 10
14000.80217064596
 20
853.874748214644
 30
0.0
 11
14000.80217064596
 21
841.8747482146434
 31
0.0
  0
LINE
  5
1A947
330
1A65A
100
AcDbEntity
  8
YODOROGO
100
AcDbLine
 10
14000.80217064596
 20
853.874748214644
 30
0.0
 11
14000.80217064596
 21
853.874748214644
 31
0.0
  0
LINE
  5
1A948
330
1A65A
100
AcDbEntity
  8
YODOROGO
100
AcDbLine
 10
14008.80217064596
 20
853.874748214644
 30
0.0
 11
14000.80217064596
 21
853.874748214644
 31
0.0
  0
LINE
  5
1A949
330
1A65A
100
AcDbEntity
  8
YODOROGO
100
AcDbLine
 10
14008.80217064596
 20
841.8747482146434
 30
0.0
 11
14008.80217064596
 21
853.874748214644
 31
0.0
  0
LINE
  5
1A94A
330
1A65A
100
AcDbEntity
  8
YODOROGO
100
AcDbLine
 10
14020.45660200844
 20
841.8747482146434
 30
0.0
 11
14008.80217064596
 21
841.8747482146434
 31
0.0
  0
LINE
  5
1A94B
330
1A65A
100
AcDbEntity
  8
YODOROGO
100
AcDbLine
 10
14000.80217064596
 20
841.8747482146434
 30
0.0
 11
13988.80217064596
 21
841.8747482146434
 31
0.0
  0
LINE
  5
1A94C
330
1A65A
100
AcDbEntity
  8
YODOROGO
100
AcDbLine
 10
14041.06776011546
 20
853.874748214644
 30
0.0
 11
14049.06776011545
 21
853.874748214644
 31
0.0
1001
AUTOCAD_POSTSCRIPT_FIGURE
1002
{
1000
PSFILL
1000
Grayscale
1000
Grayscale
1070
   100
1002
}
  0
LINE
  5
1A94D
330
1A65A
100
AcDbEntity
  8
YODOROGO
100
AcDbLine
 10
14200.80217064594
 20
912.4388128201532
 30
0.0
 11
14200.80217064594
 21
876.4388128201531
 31
0.0
1001
AUTOCAD_POSTSCRIPT_FIGURE
1002
{
1000
PSFILL
1000
Grayscale
1000
Grayscale
1070
   100
1002
}
  0
LINE
  5
1A94E
330
1A65A
100
AcDbEntity
  8
YODOROGO
100
AcDbLine
 10
14200.80217064594
 20
958.4388128201537
 30
0.0
 11
14200.80217064594
 21
992.4388128201531
 31
0.0
1001
AUTOCAD_POSTSCRIPT_FIGURE
1002
{
1000
PSFILL
1000
Grayscale
1000
Grayscale
1070
   100
1002
}
  0
LINE
  5
1A94F
330
1A65A
100
AcDbEntity
  8
YODOROGO
100
AcDbLine
 10
14216.80217064594
 20
909.8747482146439
 30
0.0
 11
14216.80217064594
 21
873.8747482146449
 31
0.0
  0
LINE
  5
1A950
330
1A65A
100
AcDbEntity
  8
YODOROGO
100
AcDbLine
 10
14248.80217064594
 20
853.874748214644
 30
0.0
 11
14216.80217064594
 21
853.874748214644
 31
0.0
  0
LINE
  5
1A951
330
1A65A
100
AcDbEntity
  8
YODOROGO
100
AcDbLine
 10
14216.80217064594
 20
873.8747482146449
 30
0.0
 11
14292.80217064596
 21
873.8747482146449
 31
0.0
  0
LINE
  5
1A952
330
1A65A
100
AcDbEntity
  8
YODOROGO
100
AcDbLine
 10
14248.80217064594
 20
933.8747482146439
 30
0.0
 11
14216.80217064594
 21
933.8747482146439
 31
0.0
  0
LINE
  5
1A953
330
1A65A
100
AcDbEntity
  8
YODOROGO
100
AcDbLine
 10
14248.80217064594
 20
961.8747482146432
 30
0.0
 11
14248.80217064594
 21
933.8747482146439
 31
0.0
  0
LINE
  5
1A954
330
1A65A
100
AcDbEntity
  8
YODOROGO
100
AcDbLine
 10
14292.80217064596
 20
993.8747482146439
 30
0.0
 11
14292.80217064596
 21
1013.874748214644
 31
0.0
  0
LINE
  5
1A955
330
1A65A
100
AcDbEntity
  8
YODOROGO
100
AcDbLine
 10
14216.80217064594
 20
993.8747482146439
 30
0.0
 11
14292.80217064596
 21
993.8747482146439
 31
0.0
  0
LINE
  5
1A956
330
1A65A
100
AcDbEntity
  8
YODOROGO
100
AcDbLine
 10
14216.80217064594
 20
933.8747482146439
 30
0.0
 11
14216.80217064594
 21
993.8747482146439
 31
0.0
  0
LINE
  5
1A957
330
1A65A
100
AcDbEntity
  8
YODOROGO
100
AcDbLine
 10
14500.80217064594
 20
1013.874748214644
 30
0.0
 11
14500.80217064594
 21
809.8747482146441
 31
0.0
  0
LINE
  5
1A958
330
1A65A
100
AcDbEntity
  8
YODOROGO
100
AcDbLine
 10
14536.80217064596
 20
789.8747482146441
 30
0.0
 11
14536.80217064596
 21
1013.874748214644
 31
0.0
  0
LINE
  5
1A959
330
1A65A
100
AcDbEntity
  8
YODOROGO
100
AcDbLine
 10
14630.80217064596
 20
745.8747482146431
 30
0.0
 11
14630.80217064596
 21
1003.874748214644
 31
0.0
  0
LINE
  5
1A95A
330
1A65A
100
AcDbEntity
  8
YODOROGO
100
AcDbLine
 10
14598.80217064596
 20
1003.874748214644
 30
0.0
 11
14598.80217064596
 21
745.8747482146431
 31
0.0
  0
LINE
  5
1A95B
330
1A65A
100
AcDbEntity
  8
YODOROGO
100
AcDbLine
 10
14692.80217064596
 20
1013.874748214644
 30
0.0
 11
14692.80217064596
 21
713.8747482146436
 31
0.0
  0
LINE
  5
1A95C
330
1A65A
100
AcDbEntity
  8
YODOROGO
100
AcDbLine
 10
14728.80217064596
 20
713.8747482146436
 30
0.0
 11
14728.80217064596
 21
1013.874748214644
 31
0.0
  0
LINE
  5
1A95D
330
1A65A
100
AcDbEntity
  8
YODOROGO
100
AcDbLine
 10
14328.80217064594
 20
833.8747482146439
 30
0.0
 11
14328.80217064594
 21
873.8747482146449
 31
0.0
  0
LINE
  5
1A95E
330
1A65A
100
AcDbEntity
  8
YODOROGO
100
AcDbLine
 10
14942.80217064596
 20
853.874748214644
 30
0.0
 11
14942.80217064596
 21
833.8747482146439
 31
0.0
  0
LINE
  5
1A95F
330
1A65A
100
AcDbEntity
  8
YODOROGO
100
AcDbLine
 10
14942.80217064596
 20
853.874748214644
 30
0.0
 11
14942.80217064596
 21
833.8747482146439
 31
0.0
  0
ARC
  5
1A960
330
1A65A
100
AcDbEntity
  8
YODOROGO
100
AcDbCircle
 10
14453.45578809342
 20
809.1089322211363
 30
0.0
 40
47.35257558937082
100
AcDbArc
 50
274.052441629071
 51
0.9266642149310712
  0
ARC
  5
1A961
330
1A65A
100
AcDbEntity
  8
YODOROGO
100
AcDbCircle
 10
14454.5930853599
 20
796.30536430522
 30
0.0
 40
82.46021178042756
100
AcDbArc
 50
271.5351210653777
 51
355.5272775058505
  0
LINE
  5
1A962
330
1A65A
100
AcDbEntity
  8
YODOROGO
100
AcDbLine
 10
14456.80217064596
 20
761.8747482146434
 30
0.0
 11
14456.80217064596
 21
713.8747482146436
 31
0.0
  0
LINE
  5
1A963
330
1A65A
100
AcDbEntity
  8
YODOROGO
100
AcDbLine
 10
14396.80217064594
 20
833.8747482146439
 30
0.0
 11
14328.80217064594
 21
833.8747482146439
 31
0.0
  0
LINE
  5
1A964
330
1A65A
100
AcDbEntity
  8
YODOROGO
100
AcDbLine
 10
14396.80217064594
 20
801.8747482146444
 30
0.0
 11
14396.80217064594
 21
833.8747482146439
 31
0.0
  0
LINE
  5
1A965
330
1A65A
100
AcDbEntity
  8
YODOROGO
100
AcDbLine
 10
14328.80217064594
 20
801.8747482146444
 30
0.0
 11
14396.80217064594
 21
801.8747482146444
 31
0.0
  0
LINE
  5
1A966
330
1A65A
100
AcDbEntity
  8
YODOROGO
100
AcDbLine
 10
14328.80217064594
 20
761.8747482146434
 30
0.0
 11
14328.80217064594
 21
801.8747482146444
 31
0.0
  0
LINE
  5
1A967
330
1A65A
100
AcDbEntity
  8
YODOROGO
100
AcDbLine
 10
14396.80217064594
 20
761.8747482146434
 30
0.0
 11
14328.80217064594
 21
761.8747482146434
 31
0.0
  0
LINE
  5
1A968
330
1A65A
100
AcDbEntity
  8
YODOROGO
100
AcDbLine
 10
14396.80217064594
 20
713.8747482146436
 30
0.0
 11
14396.80217064594
 21
761.8747482146434
 31
0.0
  0
LINE
  5
1A969
330
1A65A
100
AcDbEntity
  8
YODOROGO
100
AcDbLine
 10
14598.80217064596
 20
745.8747482146431
 30
0.0
 11
14630.80217064596
 21
745.8747482146431
 31
0.0
  0
LINE
  5
1A96A
330
1A65A
100
AcDbEntity
  8
YODOROGO
100
AcDbLine
 10
14692.80217064596
 20
713.8747482146436
 30
0.0
 11
14728.80217064596
 21
713.8747482146436
 31
0.0
  0
LINE
  5
1A96B
330
1A65A
100
AcDbEntity
  8
YODOROGO
100
AcDbLine
 10
14868.80217064596
 20
764.2207260852818
 30
0.0
 11
14868.80217064596
 21
713.8747482146436
 31
0.0
  0
LINE
  5
1A96C
330
1A65A
100
AcDbEntity
  8
YODOROGO
100
AcDbLine
 10
14808.80217064596
 20
713.8747482146436
 30
0.0
 11
14868.80217064596
 21
764.2207260852818
 31
0.0
  0
LINE
  5
1A96D
330
1A65A
100
AcDbEntity
  8
YODOROGO
100
AcDbLine
 10
14808.80217064596
 20
773.874748214644
 30
0.0
 11
14808.80217064596
 21
713.8747482146436
 31
0.0
  0
LINE
  5
1A96E
330
1A65A
100
AcDbEntity
  8
YODOROGO
100
AcDbLine
 10
14856.47231434973
 20
813.8747482146435
 30
0.0
 11
14808.80217064596
 21
773.874748214644
 31
0.0
  0
LINE
  5
1A96F
330
1A65A
100
AcDbEntity
  8
YODOROGO
100
AcDbLine
 10
14808.80217064596
 20
813.8747482146435
 30
0.0
 11
14856.47231434973
 21
813.8747482146435
 31
0.0
  0
LINE
  5
1A970
330
1A65A
100
AcDbEntity
  8
YODOROGO
100
AcDbLine
 10
14808.80217064596
 20
833.8747482146439
 30
0.0
 11
14808.80217064596
 21
813.8747482146435
 31
0.0
  0
LINE
  5
1A971
330
1A65A
100
AcDbEntity
  8
YODOROGO
100
AcDbLine
 10
14942.80217064596
 20
833.8747482146439
 30
0.0
 11
14808.80217064596
 21
833.8747482146439
 31
0.0
  0
LINE
  5
1A972
330
1A65A
100
AcDbEntity
  8
YODOROGO
100
AcDbLine
 10
14958.80217064596
 20
813.8747482146435
 30
0.0
 11
14888.80217064596
 21
813.8747482146435
 31
0.0
  0
LINE
  5
1A973
330
1A65A
100
AcDbEntity
  8
YODOROGO
100
AcDbLine
 10
14888.80217064596
 20
781.0027187088283
 30
0.0
 11
14885.70493649264
 21
778.403830673117
 31
0.0
  0
LINE
  5
1A974
330
1A65A
100
AcDbEntity
  8
YODOROGO
100
AcDbLine
 10
14888.80217064596
 20
813.8747482146435
 30
0.0
 11
14888.80217064596
 21
781.0027187088283
 31
0.0
  0
LINE
  5
1A975
330
1A65A
100
AcDbEntity
  8
YODOROGO
100
AcDbLine
 10
14868.80217064596
 20
764.2207260852818
 30
0.0
 11
14868.80217064596
 21
713.8747482146436
 31
0.0
  0
LINE
  5
1A976
330
1A65A
100
AcDbEntity
  8
YODOROGO
100
AcDbLine
 10
14808.80217064596
 20
713.8747482146436
 30
0.0
 11
14868.80217064596
 21
764.2207260852818
 31
0.0
  0
LINE
  5
1A977
330
1A65A
100
AcDbEntity
  8
YODOROGO
100
AcDbLine
 10
14808.80217064596
 20
773.874748214644
 30
0.0
 11
14808.80217064596
 21
713.8747482146436
 31
0.0
  0
LINE
  5
1A978
330
1A65A
100
AcDbEntity
  8
YODOROGO
100
AcDbLine
 10
14856.47231434973
 20
813.8747482146435
 30
0.0
 11
14808.80217064596
 21
773.874748214644
 31
0.0
  0
LINE
  5
1A979
330
1A65A
100
AcDbEntity
  8
YODOROGO
100
AcDbLine
 10
14808.80217064596
 20
813.8747482146435
 30
0.0
 11
14856.47231434973
 21
813.8747482146435
 31
0.0
  0
LINE
  5
1A97A
330
1A65A
100
AcDbEntity
  8
YODOROGO
100
AcDbLine
 10
14808.80217064596
 20
833.8747482146439
 30
0.0
 11
14808.80217064596
 21
813.8747482146435
 31
0.0
  0
LINE
  5
1A97B
330
1A65A
100
AcDbEntity
  8
YODOROGO
100
AcDbLine
 10
14942.80217064596
 20
833.8747482146439
 30
0.0
 11
14808.80217064596
 21
833.8747482146439
 31
0.0
  0
LINE
  5
1A97C
330
1A65A
100
AcDbEntity
  8
YODOROGO
100
AcDbLine
 10
14396.80217064594
 20
873.8747482146449
 30
0.0
 11
14396.80217064594
 21
909.8747482146439
 31
0.0
  0
LINE
  5
1A97D
330
1A65A
100
AcDbEntity
  8
YODOROGO
100
AcDbLine
 10
14328.80217064594
 20
873.8747482146449
 30
0.0
 11
14396.80217064594
 21
873.8747482146449
 31
0.0
  0
LINE
  5
1A97E
330
1A65A
100
AcDbEntity
  8
YODOROGO
100
AcDbLine
 10
14364.80217064596
 20
933.8747482146439
 30
0.0
 11
14364.80217064596
 21
961.8747482146432
 31
0.0
  0
LINE
  5
1A97F
330
1A65A
100
AcDbEntity
  8
YODOROGO
100
AcDbLine
 10
14396.80217064594
 20
933.8747482146439
 30
0.0
 11
14364.80217064596
 21
933.8747482146439
 31
0.0
  0
LINE
  5
1A980
330
1A65A
100
AcDbEntity
  8
YODOROGO
100
AcDbLine
 10
14396.80217064594
 20
973.8747482146434
 30
0.0
 11
14396.80217064594
 21
933.8747482146439
 31
0.0
  0
ARC
  5
1A981
330
1A65A
100
AcDbEntity
  8
YODOROGO
100
AcDbCircle
 10
14376.80217064594
 20
973.8747482146434
 30
0.0
 40
20.0
100
AcDbArc
 50
0.0
 51
90.0
  0
LINE
  5
1A982
330
1A65A
100
AcDbEntity
  8
YODOROGO
100
AcDbLine
 10
14328.80217064596
 20
993.8747482146439
 30
0.0
 11
14376.80217064594
 21
993.8747482146439
 31
0.0
  0
LINE
  5
1A983
330
1A65A
100
AcDbEntity
  8
YODOROGO
100
AcDbLine
 10
14328.80217064596
 20
1013.874748214644
 30
0.0
 11
14328.80217064596
 21
993.8747482146439
 31
0.0
  0
LINE
  5
1A984
330
1A65A
100
AcDbEntity
  8
YODOROGO
100
AcDbLine
 10
14536.80217064596
 20
1013.874748214644
 30
0.0
 11
14500.80217064594
 21
1013.874748214644
 31
0.0
  0
LINE
  5
1A985
330
1A65A
100
AcDbEntity
  8
YODOROGO
100
AcDbLine
 10
14630.80217064596
 20
1003.874748214644
 30
0.0
 11
14598.80217064596
 21
1003.874748214644
 31
0.0
  0
LINE
  5
1A986
330
1A65A
100
AcDbEntity
  8
YODOROGO
100
AcDbLine
 10
14728.80217064596
 20
1013.874748214644
 30
0.0
 11
14692.80217064596
 21
1013.874748214644
 31
0.0
  0
LINE
  5
1A987
330
1A65A
100
AcDbEntity
  8
YODOROGO
100
AcDbLine
 10
14836.80217064596
 20
853.874748214644
 30
0.0
 11
14836.80217064596
 21
885.8747482146441
 31
0.0
1001
AUTOCAD_POSTSCRIPT_FIGURE
1002
{
1000
PSFILL
1000
Grayscale
1000
Grayscale
1070
    25
1002
}
  0
LINE
  5
1A988
330
1A65A
100
AcDbEntity
  8
YODOROGO
100
AcDbLine
 10
14808.80217064596
 20
853.874748214644
 30
0.0
 11
14836.80217064596
 21
853.874748214644
 31
0.0
1001
AUTOCAD_POSTSCRIPT_FIGURE
1002
{
1000
PSFILL
1000
Grayscale
1000
Grayscale
1070
    25
1002
}
  0
LINE
  5
1A989
330
1A65A
100
AcDbEntity
  8
YODOROGO
100
AcDbLine
 10
14808.80217064596
 20
909.8747482146439
 30
0.0
 11
14808.80217064596
 21
853.874748214644
 31
0.0
1001
AUTOCAD_POSTSCRIPT_FIGURE
1002
{
1000
PSFILL
1000
Grayscale
1000
Grayscale
1070
    25
1002
}
  0
LINE
  5
1A98A
330
1A65A
100
AcDbEntity
  8
YODOROGO
100
AcDbLine
 10
14882.80217064596
 20
909.8747482146439
 30
0.0
 11
14808.80217064596
 21
909.8747482146439
 31
0.0
1001
AUTOCAD_POSTSCRIPT_FIGURE
1002
{
1000
PSFILL
1000
Grayscale
1000
Grayscale
1070
    25
1002
}
  0
LINE
  5
1A98B
330
1A65A
100
AcDbEntity
  8
YODOROGO
100
AcDbLine
 10
14882.80217064596
 20
929.874748214644
 30
0.0
 11
14882.80217064596
 21
909.8747482146439
 31
0.0
1001
AUTOCAD_POSTSCRIPT_FIGURE
1002
{
1000
PSFILL
1000
Grayscale
1000
Grayscale
1070
    25
1002
}
  0
LINE
  5
1A98C
330
1A65A
100
AcDbEntity
  8
YODOROGO
100
AcDbLine
 10
14808.80217064596
 20
929.874748214644
 30
0.0
 11
14882.80217064596
 21
929.874748214644
 31
0.0
1001
AUTOCAD_POSTSCRIPT_FIGURE
1002
{
1000
PSFILL
1000
Grayscale
1000
Grayscale
1070
    25
1002
}
  0
LINE
  5
1A98D
330
1A65A
100
AcDbEntity
  8
YODOROGO
100
AcDbLine
 10
14808.80217064596
 20
953.874748214644
 30
0.0
 11
14808.80217064596
 21
929.874748214644
 31
0.0
1001
AUTOCAD_POSTSCRIPT_FIGURE
1002
{
1000
PSFILL
1000
Grayscale
1000
Grayscale
1070
    25
1002
}
  0
LINE
  5
1A98E
330
1A65A
100
AcDbEntity
  8
YODOROGO
100
AcDbLine
 10
14882.80217064596
 20
953.874748214644
 30
0.0
 11
14808.80217064596
 21
953.874748214644
 31
0.0
1001
AUTOCAD_POSTSCRIPT_FIGURE
1002
{
1000
PSFILL
1000
Grayscale
1000
Grayscale
1070
    25
1002
}
  0
LINE
  5
1A98F
330
1A65A
100
AcDbEntity
  8
YODOROGO
100
AcDbLine
 10
14882.80217064596
 20
973.8747482146434
 30
0.0
 11
14882.80217064596
 21
953.874748214644
 31
0.0
1001
AUTOCAD_POSTSCRIPT_FIGURE
1002
{
1000
PSFILL
1000
Grayscale
1000
Grayscale
1070
    25
1002
}
  0
LINE
  5
1A990
330
1A65A
100
AcDbEntity
  8
YODOROGO
100
AcDbLine
 10
14808.80217064596
 20
973.8747482146434
 30
0.0
 11
14882.80217064596
 21
973.8747482146434
 31
0.0
1001
AUTOCAD_POSTSCRIPT_FIGURE
1002
{
1000
PSFILL
1000
Grayscale
1000
Grayscale
1070
    25
1002
}
  0
LINE
  5
1A991
330
1A65A
100
AcDbEntity
  8
YODOROGO
100
AcDbLine
 10
14808.80217064596
 20
1013.874748214644
 30
0.0
 11
14808.80217064596
 21
973.8747482146434
 31
0.0
1001
AUTOCAD_POSTSCRIPT_FIGURE
1002
{
1000
PSFILL
1000
Grayscale
1000
Grayscale
1070
    25
1002
}
  0
LINE
  5
1A992
330
1A65A
100
AcDbEntity
  8
YODOROGO
100
AcDbLine
 10
14832.80217064596
 20
1013.874748214644
 30
0.0
 11
14808.80217064596
 21
1013.874748214644
 31
0.0
1001
AUTOCAD_POSTSCRIPT_FIGURE
1002
{
1000
PSFILL
1000
Grayscale
1000
Grayscale
1070
    25
1002
}
  0
LINE
  5
1A993
330
1A65A
100
AcDbEntity
  8
YODOROGO
100
AcDbLine
 10
14832.80217064596
 20
997.8747482146435
 30
0.0
 11
14832.80217064596
 21
1013.874748214644
 31
0.0
1001
AUTOCAD_POSTSCRIPT_FIGURE
1002
{
1000
PSFILL
1000
Grayscale
1000
Grayscale
1070
    25
1002
}
  0
LINE
  5
1A994
330
1A65A
100
AcDbEntity
  8
YODOROGO
100
AcDbLine
 10
14882.80217064596
 20
997.8747482146435
 30
0.0
 11
14832.80217064596
 21
997.8747482146435
 31
0.0
1001
AUTOCAD_POSTSCRIPT_FIGURE
1002
{
1000
PSFILL
1000
Grayscale
1000
Grayscale
1070
    25
1002
}
  0
LINE
  5
1A995
330
1A65A
100
AcDbEntity
  8
YODOROGO
100
AcDbLine
 10
14882.80217064596
 20
1013.874748214644
 30
0.0
 11
14882.80217064596
 21
997.8747482146435
 31
0.0
1001
AUTOCAD_POSTSCRIPT_FIGURE
1002
{
1000
PSFILL
1000
Grayscale
1000
Grayscale
1070
    25
1002
}
  0
LINE
  5
1A996
330
1A65A
100
AcDbEntity
  8
YODOROGO
100
AcDbLine
 10
14914.80217064596
 20
1013.874748214644
 30
0.0
 11
14882.80217064596
 21
1013.874748214644
 31
0.0
1001
AUTOCAD_POSTSCRIPT_FIGURE
1002
{
1000
PSFILL
1000
Grayscale
1000
Grayscale
1070
    25
1002
}
  0
LINE
  5
1A997
330
1A65A
100
AcDbEntity
  8
YODOROGO
100
AcDbLine
 10
14914.80217064596
 20
997.8747482146435
 30
0.0
 11
14914.80217064596
 21
1013.874748214644
 31
0.0
1001
AUTOCAD_POSTSCRIPT_FIGURE
1002
{
1000
PSFILL
1000
Grayscale
1000
Grayscale
1070
    25
1002
}
  0
LINE
  5
1A998
330
1A65A
100
AcDbEntity
  8
YODOROGO
100
AcDbLine
 10
14914.80217064596
 20
953.874748214644
 30
0.0
 11
14914.80217064596
 21
973.8747482146434
 31
0.0
1001
AUTOCAD_POSTSCRIPT_FIGURE
1002
{
1000
PSFILL
1000
Grayscale
1000
Grayscale
1070
    25
1002
}
  0
LINE
  5
1A999
330
1A65A
100
AcDbEntity
  8
YODOROGO
100
AcDbLine
 10
14914.80217064596
 20
909.8747482146439
 30
0.0
 11
14914.80217064596
 21
929.874748214644
 31
0.0
1001
AUTOCAD_POSTSCRIPT_FIGURE
1002
{
1000
PSFILL
1000
Grayscale
1000
Grayscale
1070
    25
1002
}
  0
LINE
  5
1A99A
330
1A65A
100
AcDbEntity
  8
YODOROGO
100
AcDbLine
 10
14960.80217064594
 20
885.8747482146441
 30
0.0
 11
14960.80217064594
 21
853.874748214644
 31
0.0
1001
AUTOCAD_POSTSCRIPT_FIGURE
1002
{
1000
PSFILL
1000
Grayscale
1000
Grayscale
1070
    25
1002
}
  0
LINE
  5
1A99B
330
1A65A
100
AcDbEntity
  8
YODOROGO
100
AcDbLine
 10
14914.80217064596
 20
885.8747482146441
 30
0.0
 11
14960.80217064594
 21
885.8747482146441
 31
0.0
1001
AUTOCAD_POSTSCRIPT_FIGURE
1002
{
1000
PSFILL
1000
Grayscale
1000
Grayscale
1070
    25
1002
}
  0
LINE
  5
1A99C
330
1A65A
100
AcDbEntity
  8
YODOROGO
100
AcDbLine
 10
14914.80217064596
 20
853.874748214644
 30
0.0
 11
14914.80217064596
 21
885.8747482146441
 31
0.0
1001
AUTOCAD_POSTSCRIPT_FIGURE
1002
{
1000
PSFILL
1000
Grayscale
1000
Grayscale
1070
    25
1002
}
  0
LINE
  5
1A99D
330
1A65A
100
AcDbEntity
  8
YODOROGO
100
AcDbLine
 10
14882.80217064596
 20
853.874748214644
 30
0.0
 11
14914.80217064596
 21
853.874748214644
 31
0.0
1001
AUTOCAD_POSTSCRIPT_FIGURE
1002
{
1000
PSFILL
1000
Grayscale
1000
Grayscale
1070
    25
1002
}
  0
LINE
  5
1A99E
330
1A65A
100
AcDbEntity
  8
YODOROGO
100
AcDbLine
 10
14882.80217064596
 20
885.8747482146441
 30
0.0
 11
14882.80217064596
 21
853.874748214644
 31
0.0
1001
AUTOCAD_POSTSCRIPT_FIGURE
1002
{
1000
PSFILL
1000
Grayscale
1000
Grayscale
1070
    25
1002
}
  0
LINE
  5
1A99F
330
1A65A
100
AcDbEntity
  8
YODOROGO
100
AcDbLine
 10
14836.80217064596
 20
885.8747482146441
 30
0.0
 11
14882.80217064596
 21
885.8747482146441
 31
0.0
1001
AUTOCAD_POSTSCRIPT_FIGURE
1002
{
1000
PSFILL
1000
Grayscale
1000
Grayscale
1070
    25
1002
}
  0
ARC
  5
1A9A0
330
1A65A
100
AcDbEntity
  8
YODOROGO
100
AcDbCircle
 10
15529.75894667896
 20
801.3403687577881
 30
0.0
 40
89.11064055536078
100
AcDbArc
 50
281.0262749542535
 51
357.771135755738
  0
LINE
  5
1A9A1
330
1A65A
100
AcDbEntity
  8
YODOROGO
100
AcDbLine
 10
15706.80217064596
 20
953.874748214644
 30
0.0
 11
15582.80217064596
 21
953.874748214644
 31
0.0
  0
LINE
  5
1A9A2
330
1A65A
100
AcDbEntity
  8
YODOROGO
100
AcDbLine
 10
15706.80217064596
 20
1013.874748214644
 30
0.0
 11
15582.80217064596
 21
1013.874748214644
 31
0.0
  0
LINE
  5
1A9A3
330
1A65A
100
AcDbEntity
  8
YODOROGO
100
AcDbLine
 10
15582.80217064596
 20
981.8747482146434
 30
0.0
 11
15706.80217064596
 21
981.8747482146434
 31
0.0
  0
LINE
  5
1A9A4
330
1A65A
100
AcDbEntity
  8
YODOROGO
100
AcDbLine
 10
15395.80217064596
 20
781.8747482146434
 30
0.0
 11
15395.80217064596
 21
877.8747482146435
 31
0.0
  0
LINE
  5
1A9A5
330
1A65A
100
AcDbEntity
  8
YODOROGO
100
AcDbLine
 10
15381.80217064596
 20
845.8747482146444
 30
0.0
 11
15381.80217064596
 21
781.8747482146434
 31
0.0
  0
LINE
  5
1A9A6
330
1A65A
100
AcDbEntity
  8
YODOROGO
100
AcDbLine
 10
15361.80217064596
 20
745.8747482146443
 30
0.0
 11
15361.80217064596
 21
845.8747482146444
 31
0.0
  0
LINE
  5
1A9A7
330
1A65A
100
AcDbEntity
  8
YODOROGO
100
AcDbLine
 10
15449.80217064596
 20
845.8747482146444
 30
0.0
 11
15449.80217064596
 21
745.8747482146443
 31
0.0
  0
LINE
  5
1A9A8
330
1A65A
100
AcDbEntity
  8
YODOROGO
100
AcDbLine
 10
15429.80217064596
 20
781.8747482146434
 30
0.0
 11
15429.80217064596
 21
845.8747482146444
 31
0.0
  0
LINE
  5
1A9A9
330
1A65A
100
AcDbEntity
  8
YODOROGO
100
AcDbLine
 10
15415.80217064596
 20
877.8747482146435
 30
0.0
 11
15415.80217064596
 21
781.8747482146434
 31
0.0
  0
LINE
  5
1A9AA
330
1A65A
100
AcDbEntity
  8
YODOROGO
100
AcDbLine
 10
15486.80217064596
 20
1013.874748214644
 30
0.0
 11
15486.80217064596
 21
733.8747482146435
 31
0.0
  0
LINE
  5
1A9AB
330
1A65A
100
AcDbEntity
  8
YODOROGO
100
AcDbLine
 10
15322.80217064596
 20
713.8747482146436
 30
0.0
 11
15322.80217064596
 21
1013.874748214644
 31
0.0
  0
LINE
  5
1A9AC
330
1A65A
100
AcDbEntity
  8
YODOROGO
100
AcDbLine
 10
15348.80217064596
 20
981.8747482146434
 30
0.0
 11
15348.80217064596
 21
713.8747482146436
 31
0.0
  0
LINE
  5
1A9AD
330
1A65A
100
AcDbEntity
  8
YODOROGO
100
AcDbLine
 10
15462.80217064596
 20
773.874748214644
 30
0.0
 11
15462.80217064596
 21
981.8747482146434
 31
0.0
  0
LINE
  5
1A9AE
330
1A65A
100
AcDbEntity
  8
YODOROGO
100
AcDbLine
 10
15190.80217064596
 20
813.8747482146435
 30
0.0
 11
15190.80217064596
 21
839.8747482146442
 31
0.0
  0
LINE
  5
1A9AF
330
1A65A
100
AcDbEntity
  8
YODOROGO
100
AcDbLine
 10
15308.80217064596
 20
839.8747482146442
 30
0.0
 11
15308.80217064596
 21
813.8747482146435
 31
0.0
  0
LINE
  5
1A9B0
330
1A65A
100
AcDbEntity
  8
YODOROGO
100
AcDbLine
 10
15582.80217064596
 20
953.874748214644
 30
0.0
 11
15582.80217064596
 21
817.8747482146436
 31
0.0
  0
LINE
  5
1A9B1
330
1A65A
100
AcDbEntity
  8
YODOROGO
100
AcDbLine
 10
14974.80217064595
 20
833.8747482146439
 30
0.0
 11
14974.80217064595
 21
853.874748214644
 31
0.0
  0
LINE
  5
1A9B2
330
1A65A
100
AcDbEntity
  8
YODOROGO
100
AcDbLine
 10
14974.80217064595
 20
833.8747482146439
 30
0.0
 11
14974.80217064595
 21
853.874748214644
 31
0.0
  0
ARC
  5
1A9B3
330
1A65A
100
AcDbEntity
  8
YODOROGO
100
AcDbCircle
 10
15268.80217064596
 20
753.8747482146439
 30
0.0
 40
40.0
100
AcDbArc
 50
270.0
 51
0.0
  0
LINE
  5
1A9B4
330
1A65A
100
AcDbEntity
  8
YODOROGO
100
AcDbLine
 10
15284.80217064596
 20
799.8747482146441
 30
0.0
 11
15308.80217064596
 21
799.8747482146441
 31
0.0
  0
LINE
  5
1A9B5
330
1A65A
100
AcDbEntity
  8
YODOROGO
100
AcDbLine
 10
15308.80217064596
 20
813.8747482146435
 30
0.0
 11
15264.80217064596
 21
813.8747482146435
 31
0.0
  0
LINE
  5
1A9B6
330
1A65A
100
AcDbEntity
  8
YODOROGO
100
AcDbLine
 10
15108.80217064596
 20
833.8747482146439
 30
0.0
 11
14974.80217064595
 21
833.8747482146439
 31
0.0
  0
LINE
  5
1A9B7
330
1A65A
100
AcDbEntity
  8
YODOROGO
100
AcDbLine
 10
15108.80217064596
 20
813.8747482146435
 30
0.0
 11
15108.80217064596
 21
833.8747482146439
 31
0.0
  0
LINE
  5
1A9B8
330
1A65A
100
AcDbEntity
  8
YODOROGO
100
AcDbLine
 10
15008.80217064596
 20
813.8747482146435
 30
0.0
 11
15108.80217064596
 21
813.8747482146435
 31
0.0
  0
ARC
  5
1A9B9
330
1A65A
100
AcDbEntity
  8
YODOROGO
100
AcDbCircle
 10
15115.02941435068
 20
934.4428574764513
 30
0.0
 40
160.6888181426141
100
AcDbArc
 50
228.6181454618993
 51
245.660289248906
  0
LINE
  5
1A9BA
330
1A65A
100
AcDbEntity
  8
YODOROGO
100
AcDbLine
 10
15052.80217064596
 20
801.8747482146444
 30
0.0
 11
15048.80217064598
 21
788.0364079349501
 31
0.0
  0
LINE
  5
1A9BB
330
1A65A
100
AcDbEntity
  8
YODOROGO
100
AcDbLine
 10
15094.80217064596
 20
801.8747482146444
 30
0.0
 11
15052.80217064596
 21
801.8747482146444
 31
0.0
  0
LINE
  5
1A9BC
330
1A65A
100
AcDbEntity
  8
YODOROGO
100
AcDbLine
 10
15088.80217064596
 20
775.9088612367134
 30
0.0
 11
15094.80217064596
 21
801.8747482146444
 31
0.0
  0
ARC
  5
1A9BD
330
1A65A
100
AcDbEntity
  8
YODOROGO
100
AcDbCircle
 10
15115.02941435023
 20
934.4428574765014
 30
0.0
 40
160.6888181426453
100
AcDbArc
 50
260.6062929796992
 51
267.7790355655586
  0
LINE
  5
1A9BE
330
1A65A
100
AcDbEntity
  8
YODOROGO
100
AcDbLine
 10
15108.80217064596
 20
713.8747482146428
 30
0.0
 11
15108.80217064596
 21
773.874748214644
 31
0.0
  0
LINE
  5
1A9BF
330
1A65A
100
AcDbEntity
  8
YODOROGO
100
AcDbLine
 10
14968.80217064596
 20
740.6696674577553
 30
0.0
 11
14968.80217064596
 21
797.2655452655705
 31
0.0
  0
LINE
  5
1A9C0
330
1A65A
100
AcDbEntity
  8
YODOROGO
100
AcDbLine
 10
15108.80217064596
 20
833.8747482146439
 30
0.0
 11
14974.80217064595
 21
833.8747482146439
 31
0.0
  0
LINE
  5
1A9C1
330
1A65A
100
AcDbEntity
  8
YODOROGO
100
AcDbLine
 10
15108.80217064596
 20
813.8747482146435
 30
0.0
 11
15108.80217064596
 21
833.8747482146439
 31
0.0
  0
LINE
  5
1A9C2
330
1A65A
100
AcDbEntity
  8
YODOROGO
100
AcDbLine
 10
15008.80217064596
 20
813.8747482146435
 30
0.0
 11
15108.80217064596
 21
813.8747482146435
 31
0.0
  0
ARC
  5
1A9C3
330
1A65A
100
AcDbEntity
  8
YODOROGO
100
AcDbCircle
 10
15115.02941435068
 20
934.4428574764513
 30
0.0
 40
160.6888181426141
100
AcDbArc
 50
228.6181454618993
 51
245.660289248906
  0
LINE
  5
1A9C4
330
1A65A
100
AcDbEntity
  8
YODOROGO
100
AcDbLine
 10
15052.80217064596
 20
801.8747482146444
 30
0.0
 11
15048.80217064598
 21
788.0364079349501
 31
0.0
  0
LINE
  5
1A9C5
330
1A65A
100
AcDbEntity
  8
YODOROGO
100
AcDbLine
 10
15094.80217064596
 20
801.8747482146444
 30
0.0
 11
15052.80217064596
 21
801.8747482146444
 31
0.0
  0
LINE
  5
1A9C6
330
1A65A
100
AcDbEntity
  8
YODOROGO
100
AcDbLine
 10
15088.80217064596
 20
775.9088612367134
 30
0.0
 11
15094.80217064596
 21
801.8747482146444
 31
0.0
  0
ARC
  5
1A9C7
330
1A65A
100
AcDbEntity
  8
YODOROGO
100
AcDbCircle
 10
15115.02941435023
 20
934.4428574765014
 30
0.0
 40
160.6888181426453
100
AcDbArc
 50
260.6062929796992
 51
267.7790355655586
  0
LINE
  5
1A9C8
330
1A65A
100
AcDbEntity
  8
YODOROGO
100
AcDbLine
 10
15108.80217064596
 20
713.8747482146428
 30
0.0
 11
15108.80217064596
 21
773.874748214644
 31
0.0
  0
LINE
  5
1A9C9
330
1A65A
100
AcDbEntity
  8
YODOROGO
100
AcDbLine
 10
14968.80217064596
 20
740.6696674577553
 30
0.0
 11
14968.80217064596
 21
797.2655452655705
 31
0.0
  0
LINE
  5
1A9CA
330
1A65A
100
AcDbEntity
  8
YODOROGO
100
AcDbLine
 10
15216.80217064596
 20
786.8747482146444
 30
0.0
 11
15190.80217064596
 21
786.8747482146444
 31
0.0
  0
LINE
  5
1A9CB
330
1A65A
100
AcDbEntity
  8
YODOROGO
100
AcDbLine
 10
15216.80217064596
 20
800.8747482146432
 30
0.0
 11
15216.80217064596
 21
786.8747482146444
 31
0.0
  0
LINE
  5
1A9CC
330
1A65A
100
AcDbEntity
  8
YODOROGO
100
AcDbLine
 10
15190.80217064596
 20
800.8747482146432
 30
0.0
 11
15216.80217064596
 21
800.8747482146432
 31
0.0
  0
LINE
  5
1A9CD
330
1A65A
100
AcDbEntity
  8
YODOROGO
100
AcDbLine
 10
15190.80217064596
 20
786.8747482146444
 30
0.0
 11
15190.80217064596
 21
800.8747482146432
 31
0.0
  0
LINE
  5
1A9CE
330
1A65A
100
AcDbEntity
  8
YODOROGO
100
AcDbLine
 10
15214.80217064596
 20
788.8747482146436
 30
0.0
 11
15192.80217064595
 21
788.8747482146436
 31
0.0
  0
LINE
  5
1A9CF
330
1A65A
100
AcDbEntity
  8
YODOROGO
100
AcDbLine
 10
15214.80217064596
 20
798.874748214644
 30
0.0
 11
15214.80217064596
 21
788.8747482146436
 31
0.0
  0
LINE
  5
1A9D0
330
1A65A
100
AcDbEntity
  8
YODOROGO
100
AcDbLine
 10
15192.80217064595
 20
798.874748214644
 30
0.0
 11
15214.80217064596
 21
798.874748214644
 31
0.0
  0
LINE
  5
1A9D1
330
1A65A
100
AcDbEntity
  8
YODOROGO
100
AcDbLine
 10
15192.80217064595
 20
788.8747482146436
 30
0.0
 11
15192.80217064595
 21
798.874748214644
 31
0.0
  0
LINE
  5
1A9D2
330
1A65A
100
AcDbEntity
  8
YODOROGO
100
AcDbLine
 10
15212.80217064596
 20
790.8747482146432
 30
0.0
 11
15194.80217064596
 21
790.8747482146432
 31
0.0
  0
LINE
  5
1A9D3
330
1A65A
100
AcDbEntity
  8
YODOROGO
100
AcDbLine
 10
15212.80217064596
 20
796.8747482146445
 30
0.0
 11
15212.80217064596
 21
790.8747482146432
 31
0.0
  0
LINE
  5
1A9D4
330
1A65A
100
AcDbEntity
  8
YODOROGO
100
AcDbLine
 10
15194.80217064596
 20
796.8747482146445
 30
0.0
 11
15212.80217064596
 21
796.8747482146445
 31
0.0
  0
LINE
  5
1A9D5
330
1A65A
100
AcDbEntity
  8
YODOROGO
100
AcDbLine
 10
15194.80217064596
 20
790.8747482146432
 30
0.0
 11
15194.80217064596
 21
796.8747482146445
 31
0.0
  0
LINE
  5
1A9D6
330
1A65A
100
AcDbEntity
  8
YODOROGO
100
AcDbLine
 10
15210.80217064596
 20
792.8747482146435
 30
0.0
 11
15196.80217064596
 21
792.8747482146435
 31
0.0
  0
LINE
  5
1A9D7
330
1A65A
100
AcDbEntity
  8
YODOROGO
100
AcDbLine
 10
15210.80217064596
 20
794.8747482146441
 30
0.0
 11
15210.80217064596
 21
792.8747482146435
 31
0.0
  0
LINE
  5
1A9D8
330
1A65A
100
AcDbEntity
  8
YODOROGO
100
AcDbLine
 10
15196.80217064596
 20
794.8747482146441
 30
0.0
 11
15210.80217064596
 21
794.8747482146441
 31
0.0
  0
LINE
  5
1A9D9
330
1A65A
100
AcDbEntity
  8
YODOROGO
100
AcDbLine
 10
15196.80217064596
 20
792.8747482146435
 30
0.0
 11
15196.80217064596
 21
794.8747482146441
 31
0.0
  0
LINE
  5
1A9DA
330
1A65A
100
AcDbEntity
  8
YODOROGO
100
AcDbLine
 10
15232.80217064596
 20
813.8747482146435
 30
0.0
 11
15190.80217064596
 21
813.8747482146435
 31
0.0
  0
LINE
  5
1A9DB
330
1A65A
100
AcDbEntity
  8
YODOROGO
100
AcDbLine
 10
15232.80217064596
 20
773.874748214644
 30
0.0
 11
15232.80217064596
 21
813.8747482146435
 31
0.0
  0
LINE
  5
1A9DC
330
1A65A
100
AcDbEntity
  8
YODOROGO
100
AcDbLine
 10
15190.80217064596
 20
773.874748214644
 30
0.0
 11
15232.80217064596
 21
773.874748214644
 31
0.0
  0
LINE
  5
1A9DD
330
1A65A
100
AcDbEntity
  8
YODOROGO
100
AcDbLine
 10
15190.80217064596
 20
713.8747482146436
 30
0.0
 11
15190.80217064596
 21
773.874748214644
 31
0.0
  0
LINE
  5
1A9DE
330
1A65A
100
AcDbEntity
  8
YODOROGO
100
AcDbLine
 10
15268.80217064596
 20
713.8747482146436
 30
0.0
 11
15190.80217064596
 21
713.8747482146436
 31
0.0
  0
LINE
  5
1A9DF
330
1A65A
100
AcDbEntity
  8
YODOROGO
100
AcDbLine
 10
15284.80217064596
 20
785.8747482146432
 30
0.0
 11
15284.80217064596
 21
799.8747482146441
 31
0.0
  0
ARC
  5
1A9E0
330
1A65A
100
AcDbEntity
  8
YODOROGO
100
AcDbCircle
 10
15272.80217064594
 20
785.8747482146457
 30
0.0
 40
12.00000000000187
100
AcDbArc
 50
270.0
 51
359.9999999999877
  0
LINE
  5
1A9E1
330
1A65A
100
AcDbEntity
  8
YODOROGO
100
AcDbLine
 10
15264.80217064596
 20
773.874748214644
 30
0.0
 11
15272.80217064594
 21
773.874748214644
 31
0.0
  0
LINE
  5
1A9E2
330
1A65A
100
AcDbEntity
  8
YODOROGO
100
AcDbLine
 10
15264.80217064596
 20
813.8747482146435
 30
0.0
 11
15264.80217064596
 21
773.874748214644
 31
0.0
  0
LINE
  5
1A9E3
330
1A65A
100
AcDbEntity
  8
YODOROGO
100
AcDbLine
 10
15449.80217064596
 20
773.874748214644
 30
0.0
 11
15462.80217064596
 21
773.874748214644
 31
0.0
  0
LINE
  5
1A9E4
330
1A65A
100
AcDbEntity
  8
YODOROGO
100
AcDbLine
 10
15466.80217064596
 20
713.8747482146436
 30
0.0
 11
15449.80217064596
 21
713.8747482146436
 31
0.0
  0
LINE
  5
1A9E5
330
1A65A
100
AcDbEntity
  8
YODOROGO
100
AcDbLine
 10
15381.80217064596
 20
781.8747482146434
 30
0.0
 11
15395.80217064596
 21
781.8747482146434
 31
0.0
  0
LINE
  5
1A9E6
330
1A65A
100
AcDbEntity
  8
YODOROGO
100
AcDbLine
 10
15449.80217064596
 20
745.8747482146443
 30
0.0
 11
15361.80217064596
 21
745.8747482146443
 31
0.0
  0
LINE
  5
1A9E7
330
1A65A
100
AcDbEntity
  8
YODOROGO
100
AcDbLine
 10
15415.80217064596
 20
781.8747482146434
 30
0.0
 11
15429.80217064596
 21
781.8747482146434
 31
0.0
  0
LINE
  5
1A9E8
330
1A65A
100
AcDbEntity
  8
YODOROGO
100
AcDbLine
 10
15449.80217064596
 20
713.8747482146436
 30
0.0
 11
15449.80217064596
 21
773.874748214644
 31
0.0
  0
LINE
  5
1A9E9
330
1A65A
100
AcDbEntity
  8
YODOROGO
100
AcDbLine
 10
15348.80217064596
 20
713.8747482146436
 30
0.0
 11
15322.80217064596
 21
713.8747482146436
 31
0.0
  0
LINE
  5
1A9EA
330
1A65A
100
AcDbEntity
  8
YODOROGO
100
AcDbLine
 10
15308.80217064596
 20
799.8747482146441
 30
0.0
 11
15308.80217064596
 21
753.8747482146439
 31
0.0
  0
ARC
  5
1A9EB
330
1A65A
100
AcDbEntity
  8
YODOROGO
100
AcDbCircle
 10
15466.80217064596
 20
733.8747482146435
 30
0.0
 40
20.0
100
AcDbArc
 50
270.0
 51
0.0
  0
LINE
  5
1A9EC
330
1A65A
100
AcDbEntity
  8
YODOROGO
100
AcDbLine
 10
15546.80217064596
 20
761.8747482146434
 30
0.0
 11
15546.80217064596
 21
713.8747482146436
 31
0.0
  0
ARC
  5
1A9ED
330
1A65A
100
AcDbEntity
  8
YODOROGO
100
AcDbCircle
 10
15519.86069778339
 20
818.7656950548664
 30
0.0
 40
62.94777829583771
100
AcDbArc
 50
295.3405244216011
 51
359.1890230341867
  0
LINE
  5
1A9EE
330
1A65A
100
AcDbEntity
  8
YODOROGO
100
AcDbLine
 10
15308.80217064596
 20
929.874748214644
 30
0.0
 11
15248.80217064596
 21
969.8747482146441
 31
0.0
  0
LINE
  5
1A9EF
330
1A65A
100
AcDbEntity
  8
YODOROGO
100
AcDbLine
 10
15248.80217064596
 20
1013.874748214644
 30
0.0
 11
15308.80217064596
 21
973.8747482146434
 31
0.0
  0
LINE
  5
1A9F0
330
1A65A
100
AcDbEntity
  8
YODOROGO
100
AcDbLine
 10
15264.80217064596
 20
839.8747482146442
 30
0.0
 11
15308.80217064596
 21
839.8747482146442
 31
0.0
  0
LINE
  5
1A9F1
330
1A65A
100
AcDbEntity
  8
YODOROGO
100
AcDbLine
 10
15308.80217064596
 20
867.8747482146436
 30
0.0
 11
15264.80217064596
 21
867.8747482146436
 31
0.0
  0
LINE
  5
1A9F2
330
1A65A
100
AcDbEntity
  8
YODOROGO
100
AcDbLine
 10
15190.80217064596
 20
897.8747482146435
 30
0.0
 11
15308.80217064596
 21
897.8747482146435
 31
0.0
  0
LINE
  5
1A9F3
330
1A65A
100
AcDbEntity
  8
YODOROGO
100
AcDbLine
 10
15040.80217064596
 20
1013.874748214644
 30
0.0
 11
15010.80217064596
 21
1013.874748214644
 31
0.0
  0
LINE
  5
1A9F4
330
1A65A
100
AcDbEntity
  8
YODOROGO
100
AcDbLine
 10
15040.80217064596
 20
913.8747482146435
 30
0.0
 11
15040.80217064596
 21
1013.874748214644
 31
0.0
  0
LINE
  5
1A9F5
330
1A65A
100
AcDbEntity
  8
YODOROGO
100
AcDbLine
 10
15010.80217064596
 20
913.8747482146435
 30
0.0
 11
15040.80217064596
 21
913.8747482146435
 31
0.0
  0
LINE
  5
1A9F6
330
1A65A
100
AcDbEntity
  8
YODOROGO
100
AcDbLine
 10
15010.80217064596
 20
1013.874748214644
 30
0.0
 11
15010.80217064596
 21
913.8747482146435
 31
0.0
  0
LINE
  5
1A9F7
330
1A65A
100
AcDbEntity
  8
YODOROGO
100
AcDbLine
 10
15080.80217064596
 20
1013.874748214644
 30
0.0
 11
15108.80217064596
 21
1013.874748214644
 31
0.0
  0
LINE
  5
1A9F8
330
1A65A
100
AcDbEntity
  8
YODOROGO
100
AcDbLine
 10
15080.80217064596
 20
905.8747482146443
 30
0.0
 11
15080.80217064596
 21
1013.874748214644
 31
0.0
  0
ARC
  5
1A9F9
330
1A65A
100
AcDbEntity
  8
YODOROGO
100
AcDbCircle
 10
15060.80217064596
 20
905.8747482146443
 30
0.0
 40
20.0
100
AcDbArc
 50
270.0
 51
0.0
  0
LINE
  5
1A9FA
330
1A65A
100
AcDbEntity
  8
YODOROGO
100
AcDbLine
 10
15010.80217064596
 20
885.8747482146441
 30
0.0
 11
15060.80217064596
 21
885.8747482146441
 31
0.0
  0
LINE
  5
1A9FB
330
1A65A
100
AcDbEntity
  8
YODOROGO
100
AcDbLine
 10
15010.80217064596
 20
853.874748214644
 30
0.0
 11
15010.80217064596
 21
885.8747482146441
 31
0.0
  0
LINE
  5
1A9FC
330
1A65A
100
AcDbEntity
  8
YODOROGO
100
AcDbLine
 10
15068.80217064596
 20
853.874748214644
 30
0.0
 11
15010.80217064596
 21
853.874748214644
 31
0.0
  0
ARC
  5
1A9FD
330
1A65A
100
AcDbEntity
  8
YODOROGO
100
AcDbCircle
 10
15068.80217064596
 20
893.8747482146439
 30
0.0
 40
40.0
100
AcDbArc
 50
270.0
 51
0.0
  0
LINE
  5
1A9FE
330
1A65A
100
AcDbEntity
  8
YODOROGO
100
AcDbLine
 10
15108.80217064596
 20
1013.874748214644
 30
0.0
 11
15108.80217064596
 21
893.8747482146439
 31
0.0
  0
LINE
  5
1A9FF
330
1A65A
100
AcDbEntity
  8
YODOROGO
100
AcDbLine
 10
14988.80217064596
 20
973.8747482146434
 30
0.0
 11
14988.80217064596
 21
997.8747482146435
 31
0.0
1001
AUTOCAD_POSTSCRIPT_FIGURE
1002
{
1000
PSFILL
1000
Grayscale
1000
Grayscale
1070
    25
1002
}
  0
LINE
  5
1AA00
330
1A65A
100
AcDbEntity
  8
YODOROGO
100
AcDbLine
 10
14988.80217064596
 20
929.874748214644
 30
0.0
 11
14988.80217064596
 21
953.874748214644
 31
0.0
1001
AUTOCAD_POSTSCRIPT_FIGURE
1002
{
1000
PSFILL
1000
Grayscale
1000
Grayscale
1070
    25
1002
}
  0
LINE
  5
1AA01
330
1A65A
100
AcDbEntity
  8
YODOROGO
100
AcDbLine
 10
14988.80217064596
 20
853.874748214644
 30
0.0
 11
14988.80217064596
 21
909.8747482146439
 31
0.0
1001
AUTOCAD_POSTSCRIPT_FIGURE
1002
{
1000
PSFILL
1000
Grayscale
1000
Grayscale
1070
    25
1002
}
  0
LINE
  5
1AA02
330
1A65A
100
AcDbEntity
  8
YODOROGO
100
AcDbLine
 10
15190.80217064596
 20
953.874748214644
 30
0.0
 11
15248.80217064596
 21
1013.874748214644
 31
0.0
  0
LINE
  5
1AA03
330
1A65A
100
AcDbEntity
  8
YODOROGO
100
AcDbLine
 10
15190.80217064596
 20
909.8747482146439
 30
0.0
 11
15190.80217064596
 21
953.874748214644
 31
0.0
  0
LINE
  5
1AA04
330
1A65A
100
AcDbEntity
  8
YODOROGO
100
AcDbLine
 10
15248.80217064596
 20
969.8747482146441
 30
0.0
 11
15190.80217064596
 21
909.8747482146439
 31
0.0
  0
LINE
  5
1AA05
330
1A65A
100
AcDbEntity
  8
YODOROGO
100
AcDbLine
 10
15232.80217064596
 20
839.8747482146442
 30
0.0
 11
15232.80217064596
 21
867.8747482146436
 31
0.0
  0
LINE
  5
1AA06
330
1A65A
100
AcDbEntity
  8
YODOROGO
100
AcDbLine
 10
15190.80217064596
 20
839.8747482146442
 30
0.0
 11
15232.80217064596
 21
839.8747482146442
 31
0.0
  0
LINE
  5
1AA07
330
1A65A
100
AcDbEntity
  8
YODOROGO
100
AcDbLine
 10
15264.80217064596
 20
867.8747482146436
 30
0.0
 11
15264.80217064596
 21
839.8747482146442
 31
0.0
  0
LINE
  5
1AA08
330
1A65A
100
AcDbEntity
  8
YODOROGO
100
AcDbLine
 10
15190.80217064596
 20
867.8747482146436
 30
0.0
 11
15190.80217064596
 21
897.8747482146435
 31
0.0
  0
LINE
  5
1AA09
330
1A65A
100
AcDbEntity
  8
YODOROGO
100
AcDbLine
 10
15232.80217064596
 20
867.8747482146436
 30
0.0
 11
15190.80217064596
 21
867.8747482146436
 31
0.0
  0
LINE
  5
1AA0A
330
1A65A
100
AcDbEntity
  8
YODOROGO
100
AcDbLine
 10
15322.80217064596
 20
1013.874748214644
 30
0.0
 11
15486.80217064596
 21
1013.874748214644
 31
0.0
  0
LINE
  5
1AA0B
330
1A65A
100
AcDbEntity
  8
YODOROGO
100
AcDbLine
 10
15462.80217064596
 20
981.8747482146434
 30
0.0
 11
15348.80217064596
 21
981.8747482146434
 31
0.0
  0
LINE
  5
1AA0C
330
1A65A
100
AcDbEntity
  8
YODOROGO
100
AcDbLine
 10
15436.80217064595
 20
909.8747482146439
 30
0.0
 11
15449.80217064596
 21
909.8747482146439
 31
0.0
  0
LINE
  5
1AA0D
330
1A65A
100
AcDbEntity
  8
YODOROGO
100
AcDbLine
 10
15449.80217064596
 20
969.8747482146441
 30
0.0
 11
15436.80217064595
 21
909.8747482146439
 31
0.0
  0
LINE
  5
1AA0E
330
1A65A
100
AcDbEntity
  8
YODOROGO
100
AcDbLine
 10
15425.80217064596
 20
969.8747482146441
 30
0.0
 11
15449.80217064596
 21
969.8747482146441
 31
0.0
  0
LINE
  5
1AA0F
330
1A65A
100
AcDbEntity
  8
YODOROGO
100
AcDbLine
 10
15412.80217064596
 20
909.8747482146439
 30
0.0
 11
15425.80217064596
 21
969.8747482146441
 31
0.0
  0
LINE
  5
1AA10
330
1A65A
100
AcDbEntity
  8
YODOROGO
100
AcDbLine
 10
15398.80217064596
 20
909.8747482146439
 30
0.0
 11
15412.80217064596
 21
909.8747482146439
 31
0.0
  0
LINE
  5
1AA11
330
1A65A
100
AcDbEntity
  8
YODOROGO
100
AcDbLine
 10
15385.80217064596
 20
969.8747482146441
 30
0.0
 11
15398.80217064596
 21
909.8747482146439
 31
0.0
  0
LINE
  5
1AA12
330
1A65A
100
AcDbEntity
  8
YODOROGO
100
AcDbLine
 10
15361.80217064596
 20
969.8747482146441
 30
0.0
 11
15385.80217064596
 21
969.8747482146441
 31
0.0
  0
LINE
  5
1AA13
330
1A65A
100
AcDbEntity
  8
YODOROGO
100
AcDbLine
 10
15374.80217064596
 20
909.8747482146439
 30
0.0
 11
15361.80217064596
 21
969.8747482146441
 31
0.0
  0
LINE
  5
1AA14
330
1A65A
100
AcDbEntity
  8
YODOROGO
100
AcDbLine
 10
15361.80217064596
 20
909.8747482146439
 30
0.0
 11
15374.80217064596
 21
909.8747482146439
 31
0.0
  0
LINE
  5
1AA15
330
1A65A
100
AcDbEntity
  8
YODOROGO
100
AcDbLine
 10
15361.80217064596
 20
877.8747482146435
 30
0.0
 11
15361.80217064596
 21
909.8747482146439
 31
0.0
  0
LINE
  5
1AA16
330
1A65A
100
AcDbEntity
  8
YODOROGO
100
AcDbLine
 10
15449.80217064596
 20
877.8747482146435
 30
0.0
 11
15361.80217064596
 21
877.8747482146435
 31
0.0
  0
LINE
  5
1AA17
330
1A65A
100
AcDbEntity
  8
YODOROGO
100
AcDbLine
 10
15449.80217064596
 20
909.8747482146439
 30
0.0
 11
15449.80217064596
 21
877.8747482146435
 31
0.0
  0
LINE
  5
1AA18
330
1A65A
100
AcDbEntity
  8
YODOROGO
100
AcDbLine
 10
15308.80217064596
 20
973.8747482146434
 30
0.0
 11
15308.80217064596
 21
929.874748214644
 31
0.0
  0
LINE
  5
1AA19
330
1A65A
100
AcDbEntity
  8
YODOROGO
100
AcDbLine
 10
15395.80217064596
 20
877.8747482146435
 30
0.0
 11
15415.80217064596
 21
877.8747482146435
 31
0.0
  0
LINE
  5
1AA1A
330
1A65A
100
AcDbEntity
  8
YODOROGO
100
AcDbLine
 10
15361.80217064596
 20
845.8747482146444
 30
0.0
 11
15381.80217064596
 21
845.8747482146444
 31
0.0
  0
LINE
  5
1AA1B
330
1A65A
100
AcDbEntity
  8
YODOROGO
100
AcDbLine
 10
15429.80217064596
 20
845.8747482146444
 30
0.0
 11
15449.80217064596
 21
845.8747482146444
 31
0.0
  0
LINE
  5
1AA1C
330
1A65A
100
AcDbEntity
  8
YODOROGO
100
AcDbLine
 10
15308.80217064596
 20
897.8747482146435
 30
0.0
 11
15308.80217064596
 21
867.8747482146436
 31
0.0
  0
LINE
  5
1AA1D
330
1A65A
100
AcDbEntity
  8
YODOROGO
100
AcDbLine
 10
15582.80217064596
 20
1013.874748214644
 30
0.0
 11
15582.80217064596
 21
981.8747482146434
 31
0.0
  0
LINE
  5
1AA1E
330
1A65A
100
AcDbEntity
  8
YODOROGO
100
AcDbLine
 10
15766.80217064596
 20
797.8747482146435
 30
0.0
 11
15766.80217064594
 21
905.8747482146443
 31
0.0
  0
LINE
  5
1AA1F
330
1A65A
100
AcDbEntity
  8
YODOROGO
100
AcDbLine
 10
15730.80217064594
 20
993.8747482146439
 30
0.0
 11
15730.80217064594
 21
817.8747482146436
 31
0.0
  0
LINE
  5
1AA20
330
1A65A
100
AcDbEntity
  8
YODOROGO
100
AcDbLine
 10
15826.80217064596
 20
713.8747482146436
 30
0.0
 11
15826.80217064594
 21
905.8747482146443
 31
0.0
  0
LINE
  5
1AA21
330
1A65A
100
AcDbEntity
  8
YODOROGO
100
AcDbLine
 10
15794.80217064596
 20
905.8747482146443
 30
0.0
 11
15794.80217064596
 21
713.8747482146436
 31
0.0
  0
LINE
  5
1AA22
330
1A65A
100
AcDbEntity
  8
YODOROGO
100
AcDbLine
 10
15618.80217064596
 20
797.8747482146435
 30
0.0
 11
15618.80217064596
 21
853.874748214644
 31
0.0
  0
ARC
  5
1AA23
330
1A65A
100
AcDbEntity
  8
YODOROGO
100
AcDbCircle
 10
15676.95743255803
 20
803.8951756442788
 30
0.0
 40
90.04622428799429
100
AcDbArc
 50
268.6284910216979
 51
356.1663845733032
  0
LINE
  5
1AA24
330
1A65A
100
AcDbEntity
  8
YODOROGO
100
AcDbLine
 10
15674.80217064596
 20
763.8747482146435
 30
0.0
 11
15674.80217064596
 21
713.8747482146436
 31
0.0
  0
ARC
  5
1AA25
330
1A65A
100
AcDbEntity
  8
YODOROGO
100
AcDbCircle
 10
15675.75903786228
 20
818.9194785088275
 30
0.0
 40
55.05304649180608
100
AcDbArc
 50
269.0041020930593
 51
358.9126445549248
  0
LINE
  5
1AA26
330
1A65A
100
AcDbEntity
  8
YODOROGO
100
AcDbLine
 10
15794.80217064596
 20
713.8747482146436
 30
0.0
 11
15826.80217064596
 21
713.8747482146436
 31
0.0
  0
LINE
  5
1AA27
330
1A65A
100
AcDbEntity
  8
YODOROGO
100
AcDbLine
 10
15766.80217064594
 20
905.8747482146443
 30
0.0
 11
15794.80217064596
 21
905.8747482146443
 31
0.0
  0
LINE
  5
1AA28
330
1A65A
100
AcDbEntity
  8
YODOROGO
100
AcDbLine
 10
15810.80217064596
 20
993.8747482146439
 30
0.0
 11
15730.80217064594
 21
993.8747482146439
 31
0.0
  0
LINE
  5
1AA29
330
1A65A
100
AcDbEntity
  8
YODOROGO
100
AcDbLine
 10
15766.80217064594
 20
957.8747482146436
 30
0.0
 11
15830.80217064596
 21
957.8747482146436
 31
0.0
  0
LINE
  5
1AA2A
330
1A65A
100
AcDbEntity
  8
YODOROGO
100
AcDbLine
 10
15850.80217064596
 20
937.8747482146435
 30
0.0
 11
15766.80217064594
 21
937.8747482146435
 31
0.0
  0
LINE
  5
1AA2B
330
1A65A
100
AcDbEntity
  8
YODOROGO
100
AcDbLine
 10
15618.80217064596
 20
889.8747482146442
 30
0.0
 11
15674.80217064596
 21
889.8747482146442
 31
0.0
  0
LINE
  5
1AA2C
330
1A65A
100
AcDbEntity
  8
YODOROGO
100
AcDbLine
 10
15618.80217064596
 20
917.8747482146436
 30
0.0
 11
15618.80217064596
 21
889.8747482146442
 31
0.0
  0
LINE
  5
1AA2D
330
1A65A
100
AcDbEntity
  8
YODOROGO
100
AcDbLine
 10
15674.80217064596
 20
917.8747482146436
 30
0.0
 11
15618.80217064596
 21
917.8747482146436
 31
0.0
  0
LINE
  5
1AA2E
330
1A65A
100
AcDbEntity
  8
YODOROGO
100
AcDbLine
 10
15674.80217064596
 20
889.8747482146442
 30
0.0
 11
15674.80217064596
 21
917.8747482146436
 31
0.0
  0
LINE
  5
1AA2F
330
1A65A
100
AcDbEntity
  8
YODOROGO
100
AcDbLine
 10
15766.80217064594
 20
937.8747482146435
 30
0.0
 11
15766.80217064594
 21
957.8747482146436
 31
0.0
  0
LINE
  5
1AA30
330
1A65A
100
AcDbEntity
  8
YODOROGO
100
AcDbLine
 10
15706.80217064596
 20
853.874748214644
 30
0.0
 11
15706.80217064596
 21
953.874748214644
 31
0.0
  0
LINE
  5
1AA31
330
1A65A
100
AcDbEntity
  8
YODOROGO
100
AcDbLine
 10
15618.80217064596
 20
853.874748214644
 30
0.0
 11
15706.80217064596
 21
853.874748214644
 31
0.0
  0
LINE
  5
1AA32
330
1A65A
100
AcDbEntity
  8
YODOROGO
100
AcDbLine
 10
15706.80217064596
 20
981.8747482146434
 30
0.0
 11
15706.80217064596
 21
1013.874748214644
 31
0.0
  0
ARC
  5
1AA33
330
1A65A
100
AcDbEntity
  8
YODOROGO
100
AcDbCircle
 10
15810.80217064596
 20
1001.874748214642
 30
0.0
 40
7.99999999999727
100
AcDbArc
 50
270.0
 51
0.0000000000081422
  0
LINE
  5
1AA34
330
1A65A
100
AcDbEntity
  8
YODOROGO
100
AcDbLine
 10
15818.80217064596
 20
1013.874748214644
 30
0.0
 11
15818.80217064596
 21
1001.874748214643
 31
0.0
  0
LINE
  5
1AA35
330
1A65A
100
AcDbEntity
  8
YODOROGO
100
AcDbLine
 10
15850.80217064596
 20
1013.874748214644
 30
0.0
 11
15818.80217064596
 21
1013.874748214644
 31
0.0
  0
LINE
  5
1AA36
330
1A65A
100
AcDbEntity
  8
YODOROGO
100
AcDbLine
 10
15850.80217064596
 20
977.8747482146435
 30
0.0
 11
15850.80217064596
 21
1013.874748214644
 31
0.0
  0
ARC
  5
1AA37
330
1A65A
100
AcDbEntity
  8
YODOROGO
100
AcDbCircle
 10
15830.80217064596
 20
977.8747482146435
 30
0.0
 40
20.0
100
AcDbArc
 50
270.0
 51
0.0
  0
LINE
  5
1AA38
330
1A65A
100
AcDbEntity
  8
YODOROGO
100
AcDbLine
 10
15850.80217064596
 20
905.8747482146443
 30
0.0
 11
15850.80217064596
 21
937.8747482146435
 31
0.0
  0
LINE
  5
1AA39
330
1A65A
100
AcDbEntity
  8
YODOROGO
100
AcDbLine
 10
15826.80217064594
 20
905.8747482146443
 30
0.0
 11
15850.80217064596
 21
905.8747482146443
 31
0.0
  0
LINE
  5
1AA3A
330
1A65A
100
AcDbEntity
  8
SUNPOU
100
AcDbLine
 10
7338.882292608748
 20
4130.485411556196
 30
0.0
 11
7398.882292608762
 21
4130.485411556196
 31
0.0
  0
LINE
  5
1AA3B
330
1A65A
100
AcDbEntity
  8
SUNPOU
100
AcDbLine
 10
7338.882292608755
 20
4130.485411556196
 30
0.0
 11
7398.882292608757
 21
4146.562363102066
 31
0.0
  0
LINE
  5
1AA3C
330
1A65A
100
AcDbEntity
  8
SUNPOU
100
AcDbLine
 10
7338.882292608748
 20
4130.485411556196
 30
0.0
 11
7398.882292608762
 21
4114.408460010326
 31
0.0
  0
LINE
  5
1AA3D
330
1A65A
100
AcDbEntity
  8
SUNPOU
100
AcDbLine
 10
7398.88229260875
 20
4130.485411556196
 30
0.0
 11
7458.882292608763
 21
4130.485411556196
 31
0.0
  0
LINE
  5
1AA3E
330
1A65A
100
AcDbEntity
  8
SUNPOU
100
AcDbLine
 10
7398.882292608757
 20
4130.485411556196
 30
0.0
 11
7458.882292608755
 21
4146.562363102066
 31
0.0
  0
LINE
  5
1AA3F
330
1A65A
100
AcDbEntity
  8
SUNPOU
100
AcDbLine
 10
7398.88229260875
 20
4130.485411556196
 30
0.0
 11
7458.882292608763
 21
4114.408460010326
 31
0.0
  0
LINE
  5
1AA40
330
1A65A
100
AcDbEntity
  8
SUNPOU
100
AcDbLine
 10
8580.123251791111
 20
4141.735411556195
 30
0.0
 11
8580.123251791111
 21
4152.985411556197
 31
0.0
  0
LINE
  5
1AA41
330
1A65A
100
AcDbEntity
  8
SUNPOU
100
AcDbLine
 10
12054.21703198606
 20
9295.715360473252
 30
0.0
 11
12039.21703198606
 21
9295.715360473252
 31
0.0
  0
LINE
  5
1AA42
330
1A65A
100
AcDbEntity
  8
SUNPOU
100
AcDbLine
 10
11714.21703198606
 20
9595.715360473253
 30
0.0
 11
12129.21703198605
 21
9595.715360473253
 31
0.0
  0
LINE
  5
1AA43
330
1A65A
100
AcDbEntity
  8
SUNPOU
100
AcDbLine
 10
12084.21703198605
 20
9310.715360473251
 30
0.0
 11
12084.21703198605
 21
9580.715360473252
 31
0.0
  0
LINE
  5
1AA44
330
1A65A
100
AcDbEntity
  8
SUNPOU
100
AcDbLine
 10
12054.21703198606
 20
7495.715360473251
 30
0.0
 11
12039.21703198606
 21
7495.715360473251
 31
0.0
  0
LINE
  5
1AA45
330
1A65A
100
AcDbEntity
  8
SUNPOU
100
AcDbLine
 10
12054.21703198606
 20
9295.715360473252
 30
0.0
 11
12039.21703198606
 21
9295.715360473252
 31
0.0
  0
LINE
  5
1AA46
330
1A65A
100
AcDbEntity
  8
SUNPOU
100
AcDbLine
 10
12084.21703198605
 20
7510.715360473253
 30
0.0
 11
12084.21703198605
 21
9280.71536047325
 31
0.0
  0
LINE
  5
1AA47
330
1A65A
100
AcDbEntity
  8
SUNPOU
100
AcDbLine
 10
12054.21703198606
 20
5695.715360473253
 30
0.0
 11
12039.21703198606
 21
5695.715360473253
 31
0.0
  0
LINE
  5
1AA48
330
1A65A
100
AcDbEntity
  8
SUNPOU
100
AcDbLine
 10
12054.21703198606
 20
7495.715360473255
 30
0.0
 11
12039.21703198606
 21
7495.715360473255
 31
0.0
  0
LINE
  5
1AA49
330
1A65A
100
AcDbEntity
  8
SUNPOU
100
AcDbLine
 10
12084.21703198605
 20
5710.715360473253
 30
0.0
 11
12084.21703198605
 21
7480.715360473253
 31
0.0
  0
LINE
  5
1AA4A
330
1A65A
100
AcDbEntity
  8
SUNPOU
100
AcDbLine
 10
11714.21703198606
 20
5395.715360473253
 30
0.0
 11
12129.21703198605
 21
5395.715360473253
 31
0.0
  0
LINE
  5
1AA4B
330
1A65A
100
AcDbEntity
  8
SUNPOU
100
AcDbLine
 10
12054.21703198606
 20
5695.715360473253
 30
0.0
 11
12039.21703198606
 21
5695.715360473253
 31
0.0
  0
LINE
  5
1AA4C
330
1A65A
100
AcDbEntity
  8
SUNPOU
100
AcDbLine
 10
12084.21703198605
 20
5410.715360473253
 30
0.0
 11
12084.21703198605
 21
5680.715360473254
 31
0.0
  0
LINE
  5
1AA4D
330
1A65A
100
AcDbEntity
  8
SUNPOU
100
AcDbLine
 10
11714.21703198606
 20
9595.715360473253
 30
0.0
 11
12339.21703198606
 21
9595.715360473251
 31
0.0
  0
LINE
  5
1AA4E
330
1A65A
100
AcDbEntity
  8
SUNPOU
100
AcDbLine
 10
11714.21703198606
 20
5395.715360473253
 30
0.0
 11
12339.21703198606
 21
5395.715360473253
 31
0.0
  0
LINE
  5
1AA4F
330
1A65A
100
AcDbEntity
  8
SUNPOU
100
AcDbLine
 10
12294.21703198606
 20
9580.71536047325
 30
0.0
 11
12294.21703198606
 21
5410.715360473253
 31
0.0
  0
LINE
  5
1AA50
330
1A65A
100
AcDbEntity
  8
SUNPOU
100
AcDbLine
 10
11635.33837406208
 20
3726.33703658456
 30
0.0
 11
12318.40680314955
 21
3726.33703658456
 31
0.0
  0
LINE
  5
1AA51
330
1A65A
100
AcDbEntity
  8
SUNPOU
100
AcDbLine
 10
11635.33837406208
 20
3886.33703658456
 30
0.0
 11
12318.40680314955
 21
3886.33703658456
 31
0.0
  0
LINE
  5
1AA52
330
1A65A
100
AcDbEntity
  8
SUNPOU
100
AcDbLine
 10
12273.40680314955
 20
3741.33703658456
 30
0.0
 11
12273.40680314955
 21
3871.337036584561
 31
0.0
  0
LINE
  5
1AA53
330
1A65A
100
AcDbEntity
  8
SUNPOU
100
AcDbLine
 10
12273.40680314955
 20
3886.33703658456
 30
0.0
 11
12273.40680314955
 21
4088.479893727416
 31
0.0
  0
LINE
  5
1AA54
330
1A65A
100
AcDbEntity
  8
SUNPOU
100
AcDbLine
 10
11635.33837406208
 20
3726.33703658456
 30
0.0
 11
12318.40680314955
 21
3726.33703658456
 31
0.0
  0
LINE
  5
1AA55
330
1A65A
100
AcDbEntity
  8
SUNPOU
100
AcDbLine
 10
11891.33837406209
 20
3618.337036584561
 30
0.0
 11
12318.40680314955
 21
3618.337036584561
 31
0.0
  0
LINE
  5
1AA56
330
1A65A
100
AcDbEntity
  8
SUNPOU
100
AcDbLine
 10
12273.40680314955
 20
3741.33703658456
 30
0.0
 11
12273.40680314955
 21
3756.337036584561
 31
0.0
  0
LINE
  5
1AA57
330
1A65A
100
AcDbEntity
  8
SUNPOU
100
AcDbLine
 10
12273.40680314955
 20
3603.337036584561
 30
0.0
 11
12273.40680314955
 21
3401.194179441703
 31
0.0
  0
LINE
  5
1AA58
330
1A65A
100
AcDbEntity
  8
SUNPOU
100
AcDbLine
 10
12273.40680314955
 20
3726.33703658456
 30
0.0
 11
12273.40680314955
 21
3618.337036584561
 31
0.0
  0
LINE
  5
1AA59
330
1A65A
100
AcDbEntity
  8
SUNPOU
100
AcDbLine
 10
11781.33837406209
 20
2470.144344053149
 30
0.0
 11
11781.33837406209
 21
2200.804976716085
 31
0.0
  0
LINE
  5
1AA5A
330
1A65A
100
AcDbEntity
  8
SUNPOU
100
AcDbLine
 10
11861.33837406209
 20
2510.144344053149
 30
0.0
 11
11861.33837406209
 21
2200.804976716085
 31
0.0
  0
LINE
  5
1AA5B
330
1A65A
100
AcDbEntity
  8
SUNPOU
100
AcDbLine
 10
11766.33837406209
 20
2245.804976716085
 30
0.0
 11
11751.33837406209
 21
2245.804976716085
 31
0.0
  0
LINE
  5
1AA5C
330
1A65A
100
AcDbEntity
  8
SUNPOU
100
AcDbLine
 10
11876.33837406208
 20
2245.804976716085
 30
0.0
 11
12078.48123120495
 21
2245.804976716085
 31
0.0
  0
LINE
  5
1AA5D
330
1A65A
100
AcDbEntity
  8
SUNPOU
100
AcDbLine
 10
11781.33837406209
 20
2245.804976716085
 30
0.0
 11
11861.33837406209
 21
2245.804976716085
 31
0.0
  0
LINE
  5
1AA5E
330
1A65A
100
AcDbEntity
  8
SUNPOU
100
AcDbLine
 10
11301.33837406209
 20
2470.144344053149
 30
0.0
 11
11301.33837406209
 21
2200.804976716085
 31
0.0
  0
LINE
  5
1AA5F
330
1A65A
100
AcDbEntity
  8
SUNPOU
100
AcDbLine
 10
11781.33837406209
 20
2470.144344053149
 30
0.0
 11
11781.33837406209
 21
2200.804976716085
 31
0.0
  0
LINE
  5
1AA60
330
1A65A
100
AcDbEntity
  8
SUNPOU
100
AcDbLine
 10
11316.3383740621
 20
2245.804976716085
 30
0.0
 11
11766.33837406209
 21
2245.804976716085
 31
0.0
  0
LINE
  5
1AA61
330
1A65A
100
AcDbEntity
  8
SUNPOU
100
AcDbLine
 10
11301.33837406209
 20
2470.144344053149
 30
0.0
 11
11301.33837406209
 21
2200.804976716085
 31
0.0
  0
LINE
  5
1AA62
330
1A65A
100
AcDbEntity
  8
SUNPOU
100
AcDbLine
 10
11221.33837406209
 20
2510.144344053149
 30
0.0
 11
11221.33837406209
 21
2200.804976716085
 31
0.0
  0
LINE
  5
1AA63
330
1A65A
100
AcDbEntity
  8
SUNPOU
100
AcDbLine
 10
11316.3383740621
 20
2245.804976716085
 30
0.0
 11
11331.33837406209
 21
2245.804976716085
 31
0.0
  0
LINE
  5
1AA64
330
1A65A
100
AcDbEntity
  8
SUNPOU
100
AcDbLine
 10
11206.33837406209
 20
2245.804976716085
 30
0.0
 11
11004.19551691922
 21
2245.804976716085
 31
0.0
  0
LINE
  5
1AA65
330
1A65A
100
AcDbEntity
  8
SUNPOU
100
AcDbLine
 10
11301.33837406209
 20
2245.804976716085
 30
0.0
 11
11221.33837406209
 21
2245.804976716085
 31
0.0
  0
LINE
  5
1AA66
330
1A65A
100
AcDbEntity
  8
SUNPOU
100
AcDbLine
 10
11221.33837406209
 20
2510.144344053149
 30
0.0
 11
11221.33837406209
 21
1990.804976716086
 31
0.0
  0
LINE
  5
1AA67
330
1A65A
100
AcDbEntity
  8
SUNPOU
100
AcDbLine
 10
11861.33837406209
 20
2510.144344053149
 30
0.0
 11
11861.33837406209
 21
1990.804976716086
 31
0.0
  0
LINE
  5
1AA68
330
1A65A
100
AcDbEntity
  8
SUNPOU
100
AcDbLine
 10
11236.33837406209
 20
2035.804976716086
 30
0.0
 11
11846.33837406209
 21
2035.804976716086
 31
0.0
  0
LINE
  5
1AA69
330
1A65A
100
AcDbEntity
  8
SUNPOU
100
AcDbLine
 10
11195.33837406209
 20
2700.144344053149
 30
0.0
 11
10873.33837406209
 21
2700.144344053149
 31
0.0
  0
LINE
  5
1AA6A
330
1A65A
100
AcDbEntity
  8
SUNPOU
100
AcDbLine
 10
11191.33837406208
 20
2540.144344053149
 30
0.0
 11
10873.33837406209
 21
2540.144344053149
 31
0.0
  0
LINE
  5
1AA6B
330
1A65A
100
AcDbEntity
  8
SUNPOU
100
AcDbLine
 10
10918.33837406209
 20
2685.144344053149
 30
0.0
 11
10918.33837406209
 21
2555.144344053149
 31
0.0
  0
LINE
  5
1AA6C
330
1A65A
100
AcDbEntity
  8
SUNPOU
100
AcDbLine
 10
10918.33837406209
 20
2540.144344053149
 30
0.0
 11
10918.33837406209
 21
2338.001486910291
 31
0.0
  0
LINE
  5
1AA6D
330
1A65A
100
AcDbEntity
  8
SUNPOU
100
AcDbLine
 10
11195.33837406209
 20
2700.144344053149
 30
0.0
 11
10873.33837406209
 21
2700.144344053149
 31
0.0
  0
LINE
  5
1AA6E
330
1A65A
100
AcDbEntity
  8
SUNPOU
100
AcDbLine
 10
11191.33837406208
 20
2860.144344053149
 30
0.0
 11
10873.33837406209
 21
2860.144344053149
 31
0.0
  0
LINE
  5
1AA6F
330
1A65A
100
AcDbEntity
  8
SUNPOU
100
AcDbLine
 10
10918.33837406209
 20
2715.144344053149
 30
0.0
 11
10918.33837406209
 21
2845.144344053149
 31
0.0
  0
LINE
  5
1AA70
330
1A65A
100
AcDbEntity
  8
SUNPOU
100
AcDbLine
 10
10918.33837406209
 20
2860.144344053149
 30
0.0
 11
10918.33837406209
 21
3062.287201196007
 31
0.0
  0
LINE
  5
1AA71
330
1A65A
100
AcDbEntity
  8
SUNPOU
100
AcDbLine
 10
11191.33837406208
 20
2540.144344053149
 30
0.0
 11
10663.33837406209
 21
2540.144344053149
 31
0.0
  0
LINE
  5
1AA72
330
1A65A
100
AcDbEntity
  8
SUNPOU
100
AcDbLine
 10
11191.33837406208
 20
2860.144344053149
 30
0.0
 11
10663.33837406209
 21
2860.144344053149
 31
0.0
  0
LINE
  5
1AA73
330
1A65A
100
AcDbEntity
  8
SUNPOU
100
AcDbLine
 10
10708.33837406208
 20
2555.144344053149
 30
0.0
 11
10708.33837406208
 21
2845.144344053149
 31
0.0
  0
LINE
  5
1AA74
330
1A65A
100
AcDbEntity
  8
SUNPOU
100
AcDbLine
 10
11781.33837406209
 20
3548.33703658456
 30
0.0
 11
11781.33837406209
 21
3349.170862655058
 31
0.0
  0
LINE
  5
1AA75
330
1A65A
100
AcDbEntity
  8
SUNPOU
100
AcDbLine
 10
11861.33837406209
 20
3588.337036584561
 30
0.0
 11
11861.33837406209
 21
3349.170862655058
 31
0.0
  0
LINE
  5
1AA76
330
1A65A
100
AcDbEntity
  8
SUNPOU
100
AcDbLine
 10
11766.33837406209
 20
3394.170862655057
 30
0.0
 11
11751.33837406209
 21
3394.170862655057
 31
0.0
  0
LINE
  5
1AA77
330
1A65A
100
AcDbEntity
  8
SUNPOU
100
AcDbLine
 10
11876.33837406208
 20
3394.170862655057
 30
0.0
 11
12078.48123120495
 21
3394.170862655057
 31
0.0
  0
LINE
  5
1AA78
330
1A65A
100
AcDbEntity
  8
SUNPOU
100
AcDbLine
 10
11781.33837406209
 20
3394.170862655057
 30
0.0
 11
11861.33837406209
 21
3394.170862655057
 31
0.0
  0
LINE
  5
1AA79
330
1A65A
100
AcDbEntity
  8
SUNPOU
100
AcDbLine
 10
11301.33837406209
 20
3548.33703658456
 30
0.0
 11
11301.33837406209
 21
3349.170862655058
 31
0.0
  0
LINE
  5
1AA7A
330
1A65A
100
AcDbEntity
  8
SUNPOU
100
AcDbLine
 10
11781.33837406209
 20
3548.33703658456
 30
0.0
 11
11781.33837406209
 21
3349.170862655058
 31
0.0
  0
LINE
  5
1AA7B
330
1A65A
100
AcDbEntity
  8
SUNPOU
100
AcDbLine
 10
11316.3383740621
 20
3394.170862655057
 30
0.0
 11
11766.33837406209
 21
3394.170862655057
 31
0.0
  0
LINE
  5
1AA7C
330
1A65A
100
AcDbEntity
  8
SUNPOU
100
AcDbLine
 10
11301.33837406209
 20
3548.33703658456
 30
0.0
 11
11301.33837406209
 21
3349.170862655058
 31
0.0
  0
LINE
  5
1AA7D
330
1A65A
100
AcDbEntity
  8
SUNPOU
100
AcDbLine
 10
11221.33837406209
 20
3588.337036584561
 30
0.0
 11
11221.33837406209
 21
3349.170862655058
 31
0.0
  0
LINE
  5
1AA7E
330
1A65A
100
AcDbEntity
  8
SUNPOU
100
AcDbLine
 10
11316.3383740621
 20
3394.170862655057
 30
0.0
 11
11331.33837406209
 21
3394.170862655057
 31
0.0
  0
LINE
  5
1AA7F
330
1A65A
100
AcDbEntity
  8
SUNPOU
100
AcDbLine
 10
11206.33837406209
 20
3394.170862655057
 30
0.0
 11
11004.19551691922
 21
3394.170862655057
 31
0.0
  0
LINE
  5
1AA80
330
1A65A
100
AcDbEntity
  8
SUNPOU
100
AcDbLine
 10
11301.33837406209
 20
3394.170862655057
 30
0.0
 11
11221.33837406209
 21
3394.170862655057
 31
0.0
  0
LINE
  5
1AA81
330
1A65A
100
AcDbEntity
  8
SUNPOU
100
AcDbLine
 10
11221.33837406209
 20
3588.337036584561
 30
0.0
 11
11221.33837406209
 21
3139.170862655058
 31
0.0
  0
LINE
  5
1AA82
330
1A65A
100
AcDbEntity
  8
SUNPOU
100
AcDbLine
 10
11861.33837406209
 20
3588.337036584561
 30
0.0
 11
11861.33837406209
 21
3139.170862655058
 31
0.0
  0
LINE
  5
1AA83
330
1A65A
100
AcDbEntity
  8
SUNPOU
100
AcDbLine
 10
11236.33837406209
 20
3184.170862655058
 30
0.0
 11
11846.33837406209
 21
3184.170862655058
 31
0.0
  0
LINE
  5
1AA84
330
1A65A
100
AcDbEntity
  8
SUNPOU
100
AcDbLine
 10
7940.12325179111
 20
2681.084839419607
 30
0.0
 11
7940.12325179111
 21
2103.684839419604
 31
0.0
  0
LINE
  5
1AA85
330
1A65A
100
AcDbEntity
  8
SUNPOU
100
AcDbLine
 10
9220.123251791108
 20
2681.084839419607
 30
0.0
 11
9220.123251791108
 21
2103.684839419604
 31
0.0
  0
LINE
  5
1AA86
330
1A65A
100
AcDbEntity
  8
SUNPOU
100
AcDbLine
 10
7955.123251791109
 20
2148.684839419604
 30
0.0
 11
9205.123251791109
 21
2148.684839419604
 31
0.0
  0
LINE
  5
1AA87
330
1A65A
100
AcDbEntity
  8
SUNPOU
100
AcDbLine
 10
7780.123251791109
 20
2521.084839419604
 30
0.0
 11
7780.123251791109
 21
1893.684839419604
 31
0.0
  0
LINE
  5
1AA88
330
1A65A
100
AcDbEntity
  8
SUNPOU
100
AcDbLine
 10
9380.123251791109
 20
2521.084839419604
 30
0.0
 11
9380.123251791109
 21
1893.684839419604
 31
0.0
  0
LINE
  5
1AA89
330
1A65A
100
AcDbEntity
  8
SUNPOU
100
AcDbLine
 10
7795.123251791108
 20
1938.684839419604
 30
0.0
 11
9365.123251791109
 21
1938.684839419604
 31
0.0
  0
LINE
  5
1AA8A
330
1A65A
100
AcDbEntity
  8
SUNPOU
100
AcDbLine
 10
7910.12325179111
 20
3319.084839419605
 30
0.0
 11
7615.769855790354
 21
3319.084839419605
 31
0.0
  0
LINE
  5
1AA8B
330
1A65A
100
AcDbEntity
  8
SUNPOU
100
AcDbLine
 10
7910.12325179111
 20
3191.0848394196
 30
0.0
 11
7615.769855790354
 21
3191.0848394196
 31
0.0
  0
LINE
  5
1AA8C
330
1A65A
100
AcDbEntity
  8
SUNPOU
100
AcDbLine
 10
7660.769855790352
 20
3304.084839419605
 30
0.0
 11
7660.769855790352
 21
3206.084839419601
 31
0.0
  0
LINE
  5
1AA8D
330
1A65A
100
AcDbEntity
  8
SUNPOU
100
AcDbLine
 10
7910.12325179111
 20
3319.084839419603
 30
0.0
 11
7615.76985579035
 21
3319.084839419603
 31
0.0
  0
LINE
  5
1AA8E
330
1A65A
100
AcDbEntity
  8
SUNPOU
100
AcDbLine
 10
8070.123251791107
 20
3456.684839419605
 30
0.0
 11
7615.76985579035
 21
3456.684839419605
 31
0.0
  0
LINE
  5
1AA8F
330
1A65A
100
AcDbEntity
  8
SUNPOU
100
AcDbLine
 10
7660.769855790352
 20
3334.084839419602
 30
0.0
 11
7660.769855790352
 21
3441.684839419604
 31
0.0
  0
LINE
  5
1AA90
330
1A65A
100
AcDbEntity
  8
SUNPOU
100
AcDbLine
 10
7660.769855790352
 20
3456.684839419605
 30
0.0
 11
7660.769855790352
 21
3658.827696562461
 31
0.0
  0
LINE
  5
1AA91
330
1A65A
100
AcDbEntity
  8
SUNPOU
100
AcDbLine
 10
7750.123251791109
 20
2711.084839419607
 30
0.0
 11
7615.76985579035
 21
2711.084839419607
 31
0.0
  0
LINE
  5
1AA92
330
1A65A
100
AcDbEntity
  8
SUNPOU
100
AcDbLine
 10
7910.12325179111
 20
3191.0848394196
 30
0.0
 11
7615.76985579035
 21
3191.0848394196
 31
0.0
  0
LINE
  5
1AA93
330
1A65A
100
AcDbEntity
  8
SUNPOU
100
AcDbLine
 10
7660.769855790352
 20
2726.084839419607
 30
0.0
 11
7660.769855790352
 21
3176.084839419601
 31
0.0
  0
LINE
  5
1AA94
330
1A65A
100
AcDbEntity
  8
SUNPOU
100
AcDbLine
 10
7750.123251791109
 20
2711.084839419607
 30
0.0
 11
7615.76985579035
 21
2711.084839419607
 31
0.0
  0
LINE
  5
1AA95
330
1A65A
100
AcDbEntity
  8
SUNPOU
100
AcDbLine
 10
7750.123251791109
 20
2551.084839419603
 30
0.0
 11
7615.76985579035
 21
2551.084839419603
 31
0.0
  0
LINE
  5
1AA96
330
1A65A
100
AcDbEntity
  8
SUNPOU
100
AcDbLine
 10
7660.769855790352
 20
2696.084839419607
 30
0.0
 11
7660.769855790352
 21
2566.084839419604
 31
0.0
  0
LINE
  5
1AA97
330
1A65A
100
AcDbEntity
  8
SUNPOU
100
AcDbLine
 10
7660.769855790352
 20
2551.084839419603
 30
0.0
 11
7660.769855790352
 21
2300.370553705317
 31
0.0
  0
LINE
  5
1AA98
330
1A65A
100
AcDbEntity
  8
SUNPOU
100
AcDbLine
 10
8070.123251791107
 20
3456.684839419605
 30
0.0
 11
7405.769855790352
 21
3456.684839419605
 31
0.0
  0
LINE
  5
1AA99
330
1A65A
100
AcDbEntity
  8
SUNPOU
100
AcDbLine
 10
7750.123251791109
 20
2551.084839419603
 30
0.0
 11
7405.769855790352
 21
2551.084839419603
 31
0.0
  0
LINE
  5
1AA9A
330
1A65A
100
AcDbEntity
  8
SUNPOU
100
AcDbLine
 10
7450.769855790351
 20
3441.684839419604
 30
0.0
 11
7450.769855790351
 21
2566.084839419604
 31
0.0
  0
LINE
  5
1AA9B
330
1A65A
100
AcDbEntity
  8
SUNPOU
100
AcDbLine
 10
9821.364210973474
 20
4130.485411556196
 30
0.0
 11
9761.364210973455
 21
4130.485411556196
 31
0.0
  0
LINE
  5
1AA9C
330
1A65A
100
AcDbEntity
  8
SUNPOU
100
AcDbLine
 10
9821.364210973465
 20
4130.485411556196
 30
0.0
 11
9761.364210973468
 21
4146.562363102066
 31
0.0
  0
LINE
  5
1AA9D
330
1A65A
100
AcDbEntity
  8
SUNPOU
100
AcDbLine
 10
9821.364210973474
 20
4130.485411556196
 30
0.0
 11
9761.364210973455
 21
4114.408460010326
 31
0.0
  0
LINE
  5
1AA9E
330
1A65A
100
AcDbEntity
  8
SUNPOU
100
AcDbLine
 10
9761.364210973473
 20
4130.485411556196
 30
0.0
 11
9701.364210973459
 21
4130.485411556196
 31
0.0
  0
LINE
  5
1AA9F
330
1A65A
100
AcDbEntity
  8
SUNPOU
100
AcDbLine
 10
9761.364210973468
 20
4130.485411556196
 30
0.0
 11
9701.364210973466
 21
4146.562363102066
 31
0.0
  0
LINE
  5
1AAA0
330
1A65A
100
AcDbEntity
  8
SUNPOU
100
AcDbLine
 10
9761.364210973473
 20
4130.485411556196
 30
0.0
 11
9701.364210973459
 21
4114.408460010326
 31
0.0
  0
LINE
  5
1AAA1
330
1A65A
100
AcDbEntity
  8
SUNPOU
100
AcDbLine
 10
4319.797051267463
 20
2690.684839419602
 30
0.0
 11
4319.797051267463
 21
2103.684839419599
 31
0.0
  0
LINE
  5
1AAA2
330
1A65A
100
AcDbEntity
  8
SUNPOU
100
AcDbLine
 10
5279.797051267464
 20
2690.684839419602
 30
0.0
 11
5279.797051267464
 21
2103.684839419599
 31
0.0
  0
LINE
  5
1AAA3
330
1A65A
100
AcDbEntity
  8
SUNPOU
100
AcDbLine
 10
4334.797051267464
 20
2148.684839419601
 30
0.0
 11
5264.797051267464
 21
2148.684839419601
 31
0.0
  0
LINE
  5
1AAA4
330
1A65A
100
AcDbEntity
  8
SUNPOU
100
AcDbLine
 10
4159.797051267462
 20
2530.684839419601
 30
0.0
 11
4159.797051267462
 21
1893.6848394196
 31
0.0
  0
LINE
  5
1AAA5
330
1A65A
100
AcDbEntity
  8
SUNPOU
100
AcDbLine
 10
5439.797051267461
 20
2530.684839419601
 30
0.0
 11
5439.797051267461
 21
1893.6848394196
 31
0.0
  0
LINE
  5
1AAA6
330
1A65A
100
AcDbEntity
  8
SUNPOU
100
AcDbLine
 10
4174.797051267462
 20
1938.6848394196
 30
0.0
 11
5424.797051267462
 21
1938.6848394196
 31
0.0
  0
LINE
  5
1AAA7
330
1A65A
100
AcDbEntity
  8
SUNPOU
100
AcDbLine
 10
3490.443655266703
 20
3376.684839419604
 30
0.0
 11
3505.443655266704
 21
3376.684839419604
 31
0.0
  0
LINE
  5
1AAA8
330
1A65A
100
AcDbEntity
  8
SUNPOU
100
AcDbLine
 10
4289.797051267464
 20
3456.684839419605
 30
0.0
 11
3415.443655266705
 21
3456.684839419605
 31
0.0
  0
LINE
  5
1AAA9
330
1A65A
100
AcDbEntity
  8
SUNPOU
100
AcDbLine
 10
3460.443655266704
 20
3361.684839419604
 30
0.0
 11
3460.443655266704
 21
3346.684839419604
 31
0.0
  0
LINE
  5
1AAAA
330
1A65A
100
AcDbEntity
  8
SUNPOU
100
AcDbLine
 10
3460.443655266704
 20
3471.684839419605
 30
0.0
 11
3460.443655266704
 21
3673.827696562461
 31
0.0
  0
LINE
  5
1AAAB
330
1A65A
100
AcDbEntity
  8
SUNPOU
100
AcDbLine
 10
3460.443655266704
 20
3376.684839419604
 30
0.0
 11
3460.443655266704
 21
3456.684839419605
 31
0.0
  0
LINE
  5
1AAAC
330
1A65A
100
AcDbEntity
  8
SUNPOU
100
AcDbLine
 10
4289.797051267465
 20
3319.084839419601
 30
0.0
 11
3835.443655266707
 21
3319.084839419601
 31
0.0
  0
LINE
  5
1AAAD
330
1A65A
100
AcDbEntity
  8
SUNPOU
100
AcDbLine
 10
4289.797051267465
 20
3191.084839419597
 30
0.0
 11
3835.443655266707
 21
3191.084839419597
 31
0.0
  0
LINE
  5
1AAAE
330
1A65A
100
AcDbEntity
  8
SUNPOU
100
AcDbLine
 10
3880.443655266708
 20
3304.084839419601
 30
0.0
 11
3880.443655266708
 21
3206.084839419597
 31
0.0
  0
LINE
  5
1AAAF
330
1A65A
100
AcDbEntity
  8
SUNPOU
100
AcDbLine
 10
4289.797051267465
 20
3319.084839419603
 30
0.0
 11
3835.443655266704
 21
3319.084839419603
 31
0.0
  0
LINE
  5
1AAB0
330
1A65A
100
AcDbEntity
  8
SUNPOU
100
AcDbLine
 10
4289.797051267464
 20
3456.684839419605
 30
0.0
 11
3835.443655266704
 21
3456.684839419605
 31
0.0
  0
LINE
  5
1AAB1
330
1A65A
100
AcDbEntity
  8
SUNPOU
100
AcDbLine
 10
3880.443655266704
 20
3334.084839419602
 30
0.0
 11
3880.443655266704
 21
3441.684839419604
 31
0.0
  0
LINE
  5
1AAB2
330
1A65A
100
AcDbEntity
  8
SUNPOU
100
AcDbLine
 10
3880.443655266704
 20
3456.684839419605
 30
0.0
 11
3880.443655266704
 21
3658.827696562461
 31
0.0
  0
LINE
  5
1AAB3
330
1A65A
100
AcDbEntity
  8
SUNPOU
100
AcDbLine
 10
4129.797051267462
 20
2711.084839419603
 30
0.0
 11
3835.443655266704
 21
2711.084839419603
 31
0.0
  0
LINE
  5
1AAB4
330
1A65A
100
AcDbEntity
  8
SUNPOU
100
AcDbLine
 10
4289.797051267464
 20
3191.084839419598
 30
0.0
 11
3835.443655266704
 21
3191.084839419598
 31
0.0
  0
LINE
  5
1AAB5
330
1A65A
100
AcDbEntity
  8
SUNPOU
100
AcDbLine
 10
3880.443655266704
 20
2726.084839419604
 30
0.0
 11
3880.443655266704
 21
3176.084839419598
 31
0.0
  0
LINE
  5
1AAB6
330
1A65A
100
AcDbEntity
  8
SUNPOU
100
AcDbLine
 10
4129.797051267462
 20
2711.084839419603
 30
0.0
 11
3835.443655266704
 21
2711.084839419603
 31
0.0
  0
LINE
  5
1AAB7
330
1A65A
100
AcDbEntity
  8
SUNPOU
100
AcDbLine
 10
4129.797051267462
 20
2551.084839419603
 30
0.0
 11
3835.443655266704
 21
2551.084839419603
 31
0.0
  0
LINE
  5
1AAB8
330
1A65A
100
AcDbEntity
  8
SUNPOU
100
AcDbLine
 10
3880.443655266704
 20
2696.084839419603
 30
0.0
 11
3880.443655266704
 21
2566.084839419604
 31
0.0
  0
LINE
  5
1AAB9
330
1A65A
100
AcDbEntity
  8
SUNPOU
100
AcDbLine
 10
3880.443655266704
 20
2551.084839419603
 30
0.0
 11
3880.443655266704
 21
2300.370553705317
 31
0.0
  0
LINE
  5
1AABA
330
1A65A
100
AcDbEntity
  8
SUNPOU
100
AcDbLine
 10
4289.797051267464
 20
3456.684839419605
 30
0.0
 11
3625.443655266705
 21
3456.684839419605
 31
0.0
  0
LINE
  5
1AABB
330
1A65A
100
AcDbEntity
  8
SUNPOU
100
AcDbLine
 10
4129.797051267463
 20
2551.084839419603
 30
0.0
 11
3625.443655266705
 21
2551.084839419603
 31
0.0
  0
LINE
  5
1AABC
330
1A65A
100
AcDbEntity
  8
SUNPOU
100
AcDbLine
 10
3670.443655266705
 20
3441.684839419604
 30
0.0
 11
3670.443655266705
 21
2566.084839419604
 31
0.0
  0
LINE
  5
1AABD
330
1A65A
100
AcDbEntity
  8
SUNPOU
100
AcDbLine
 10
6345.027558517712
 20
4130.485411556192
 30
0.0
 11
6285.0275585177
 21
4130.485411556192
 31
0.0
  0
LINE
  5
1AABE
330
1A65A
100
AcDbEntity
  8
SUNPOU
100
AcDbLine
 10
6345.027558517706
 20
4130.485411556192
 30
0.0
 11
6285.027558517706
 21
4146.562363102062
 31
0.0
  0
LINE
  5
1AABF
330
1A65A
100
AcDbEntity
  8
SUNPOU
100
AcDbLine
 10
6345.027558517712
 20
4130.485411556192
 30
0.0
 11
6285.0275585177
 21
4114.408460010323
 31
0.0
  0
LINE
  5
1AAC0
330
1A65A
100
AcDbEntity
  8
SUNPOU
100
AcDbLine
 10
6285.027558517714
 20
4130.485411556192
 30
0.0
 11
6225.027558517701
 21
4130.485411556192
 31
0.0
  0
LINE
  5
1AAC1
330
1A65A
100
AcDbEntity
  8
SUNPOU
100
AcDbLine
 10
6285.027558517706
 20
4130.485411556192
 30
0.0
 11
6225.027558517706
 21
4146.562363102062
 31
0.0
  0
LINE
  5
1AAC2
330
1A65A
100
AcDbEntity
  8
SUNPOU
100
AcDbLine
 10
6285.027558517714
 20
4130.485411556192
 30
0.0
 11
6225.027558517701
 21
4114.408460010323
 31
0.0
  0
LINE
  5
1AAC3
330
1A65A
100
AcDbEntity
  8
SUNPOU
100
AcDbLine
 10
4799.797051267463
 20
4160.485411556192
 30
0.0
 11
4799.797051267463
 21
4175.485411556191
 31
0.0
  0
LINE
  5
1AAC4
330
1A65A
100
AcDbEntity
  8
SUNPOU
100
AcDbLine
 10
4319.797051267463
 20
3486.684839419604
 30
0.0
 11
4319.797051267463
 21
4175.485411556191
 31
0.0
  0
LINE
  5
1AAC5
330
1A65A
100
AcDbEntity
  8
SUNPOU
100
AcDbLine
 10
4784.797051267463
 20
4130.485411556192
 30
0.0
 11
4334.797051267464
 21
4130.485411556192
 31
0.0
  0
LINE
  5
1AAC6
330
1A65A
100
AcDbEntity
  8
SUNPOU
100
AcDbLine
 10
9164.21703198606
 20
5995.715360473255
 30
0.0
 11
9479.21703198606
 21
5995.715360473255
 31
0.0
  0
LINE
  5
1AAC7
330
1A65A
100
AcDbEntity
  8
SUNPOU
100
AcDbLine
 10
9164.21703198606
 20
5395.715360473253
 30
0.0
 11
9479.21703198606
 21
5395.715360473253
 31
0.0
  0
LINE
  5
1AAC8
330
1A65A
100
AcDbEntity
  8
SUNPOU
100
AcDbLine
 10
9434.21703198606
 20
5980.715360473254
 30
0.0
 11
9434.21703198606
 21
5410.715360473254
 31
0.0
  0
TEXT
  5
1AAC9
330
1A65A
100
AcDbEntity
  8
SUNPOU
100
AcDbText
 10
7776.502746271773
 20
10040.71536047325
 30
0.0
 40
90.0
  1
2450 × （ N - 2 ）
 41
0.6666666666666666
  7
00
100
AcDbText
  0
LINE
  5
1AACA
330
1A65A
100
AcDbEntity
  8
SUNPOU
100
AcDbLine
 10
7545.46703198606
 20
9995.715360473253
 30
0.0
 11
7556.717031986058
 21
9995.715360473253
 31
0.0
  0
LINE
  5
1AACB
330
1A65A
100
AcDbEntity
  8
SUNPOU
100
AcDbLine
 10
8822.96703198606
 20
9995.715360473253
 30
0.0
 11
8811.717031986061
 21
9995.715360473253
 31
0.0
  0
LINE
  5
1AACC
330
1A65A
100
AcDbEntity
  8
SUNPOU
100
AcDbLine
 10
4684.21703198606
 20
9625.715360473252
 30
0.0
 11
4684.21703198606
 21
10250.71536047325
 31
0.0
  0
LINE
  5
1AACD
330
1A65A
100
AcDbEntity
  8
SUNPOU
100
AcDbLine
 10
11684.21703198605
 20
9625.715360473252
 30
0.0
 11
11684.21703198605
 21
10250.71536047325
 31
0.0
  0
LINE
  5
1AACE
330
1A65A
100
AcDbEntity
  8
SUNPOU
100
AcDbLine
 10
4699.21703198606
 20
10205.71536047325
 30
0.0
 11
11669.21703198606
 21
10205.71536047325
 31
0.0
  0
LINE
  5
1AACF
330
1A65A
100
AcDbEntity
  8
SUNPOU
100
AcDbLine
 10
7534.217031986059
 20
9725.715360473252
 30
0.0
 11
7534.217031986059
 21
10040.71536047325
 31
0.0
  0
LINE
  5
1AAD0
330
1A65A
100
AcDbEntity
  8
SUNPOU
100
AcDbLine
 10
5084.21703198606
 20
9725.715360473252
 30
0.0
 11
5084.21703198606
 21
10040.71536047325
 31
0.0
  0
LINE
  5
1AAD1
330
1A65A
100
AcDbEntity
  8
SUNPOU
100
AcDbLine
 10
7519.217031986058
 20
9995.715360473253
 30
0.0
 11
5099.21703198606
 21
9995.715360473253
 31
0.0
  0
LINE
  5
1AAD2
330
1A65A
100
AcDbEntity
  8
SUNPOU
100
AcDbLine
 10
11284.21703198606
 20
9725.715360473252
 30
0.0
 11
11284.21703198606
 21
10040.71536047325
 31
0.0
  0
LINE
  5
1AAD3
330
1A65A
100
AcDbEntity
  8
SUNPOU
100
AcDbLine
 10
8834.21703198606
 20
9725.715360473252
 30
0.0
 11
8834.21703198606
 21
10040.71536047325
 31
0.0
  0
LINE
  5
1AAD4
330
1A65A
100
AcDbEntity
  8
SUNPOU
100
AcDbLine
 10
11269.21703198606
 20
9995.715360473253
 30
0.0
 11
8849.217031986063
 21
9995.715360473253
 31
0.0
  0
LINE
  5
1AAD5
330
1A65A
100
AcDbEntity
  8
SUNPOU
100
AcDbLine
 10
5084.21703198606
 20
9725.715360473252
 30
0.0
 11
5084.21703198606
 21
10040.71536047325
 31
0.0
  0
LINE
  5
1AAD6
330
1A65A
100
AcDbEntity
  8
SUNPOU
100
AcDbLine
 10
4684.21703198606
 20
9625.715360473252
 30
0.0
 11
4684.21703198606
 21
10040.71536047325
 31
0.0
  0
LINE
  5
1AAD7
330
1A65A
100
AcDbEntity
  8
SUNPOU
100
AcDbLine
 10
5069.21703198606
 20
9995.715360473253
 30
0.0
 11
4699.21703198606
 21
9995.715360473253
 31
0.0
  0
LINE
  5
1AAD8
330
1A65A
100
AcDbEntity
  8
SUNPOU
100
AcDbLine
 10
11284.21703198606
 20
9725.715360473252
 30
0.0
 11
11284.21703198606
 21
10040.71536047325
 31
0.0
  0
LINE
  5
1AAD9
330
1A65A
100
AcDbEntity
  8
SUNPOU
100
AcDbLine
 10
11684.21703198605
 20
9625.715360473252
 30
0.0
 11
11684.21703198605
 21
10040.71536047325
 31
0.0
  0
LINE
  5
1AADA
330
1A65A
100
AcDbEntity
  8
SUNPOU
100
AcDbLine
 10
11299.21703198605
 20
9995.715360473253
 30
0.0
 11
11669.21703198606
 21
9995.715360473253
 31
0.0
  0
LINE
  5
1AADB
330
1A65A
100
AcDbEntity
  8
SUNPOU
100
AcDbLine
 10
7204.21703198606
 20
9595.715360473253
 30
0.0
 11
6889.21703198606
 21
9595.715360473253
 31
0.0
  0
LINE
  5
1AADC
330
1A65A
100
AcDbEntity
  8
SUNPOU
100
AcDbLine
 10
7204.21703198606
 20
8995.715360473253
 30
0.0
 11
6889.21703198606
 21
8995.715360473253
 31
0.0
  0
LINE
  5
1AADD
330
1A65A
100
AcDbEntity
  8
SUNPOU
100
AcDbLine
 10
6934.21703198606
 20
9580.715360473252
 30
0.0
 11
6934.21703198606
 21
9010.715360473252
 31
0.0
  0
LINE
  5
1AADE
330
1A65A
100
AcDbEntity
  8
SUNPOU
100
AcDbLine
 10
7234.21703198606
 20
8965.71536047325
 30
0.0
 11
7234.21703198606
 21
8650.715360473251
 31
0.0
  0
LINE
  5
1AADF
330
1A65A
100
AcDbEntity
  8
SUNPOU
100
AcDbLine
 10
7834.21703198606
 20
8965.71536047325
 30
0.0
 11
7834.21703198606
 21
8650.715360473251
 31
0.0
  0
LINE
  5
1AAE0
330
1A65A
100
AcDbEntity
  8
SUNPOU
100
AcDbLine
 10
7249.21703198606
 20
8695.715360473251
 30
0.0
 11
7819.21703198606
 21
8695.715360473251
 31
0.0
  0
LINE
  5
1AAE1
330
1A65A
100
AcDbEntity
  8
SUNPOU
100
AcDbLine
 10
8534.217031986059
 20
6025.715360473252
 30
0.0
 11
8534.217031986059
 21
6290.715360473253
 31
0.0
  0
LINE
  5
1AAE2
330
1A65A
100
AcDbEntity
  8
SUNPOU
100
AcDbLine
 10
9134.217031986059
 20
6025.715360473252
 30
0.0
 11
9134.217031986059
 21
6290.715360473253
 31
0.0
  0
LINE
  5
1AAE3
330
1A65A
100
AcDbEntity
  8
SUNPOU
100
AcDbLine
 10
8549.21703198606
 20
6245.715360473253
 30
0.0
 11
9119.217031986059
 21
6245.715360473253
 31
0.0
  0
LINE
  5
1AAE4
330
1A65A
100
AcDbEntity
  8
SUNPOU
100
AcDbLine
 10
8434.21703198606
 20
7925.715360473251
 30
0.0
 11
8434.21703198606
 21
8110.715360473252
 31
0.0
  0
LINE
  5
1AAE5
330
1A65A
100
AcDbEntity
  8
SUNPOU
100
AcDbLine
 10
9234.217031986061
 20
7925.715360473251
 30
0.0
 11
9234.217031986061
 21
8110.715360473252
 31
0.0
  0
LINE
  5
1AAE6
330
1A65A
100
AcDbEntity
  8
SUNPOU
100
AcDbLine
 10
8449.21703198606
 20
8065.715360473253
 30
0.0
 11
9219.21703198606
 21
8065.715360473253
 31
0.0
  0
LINE
  5
1AAE7
330
1A65A
100
AcDbEntity
  8
SUNPOU
100
AcDbLine
 10
9264.21703198606
 20
7895.715360473253
 30
0.0
 11
9579.217031986059
 21
7895.715360473253
 31
0.0
  0
LINE
  5
1AAE8
330
1A65A
100
AcDbEntity
  8
SUNPOU
100
AcDbLine
 10
9264.21703198606
 20
7095.715360473253
 30
0.0
 11
9579.217031986059
 21
7095.715360473253
 31
0.0
  0
LINE
  5
1AAE9
330
1A65A
100
AcDbEntity
  8
SUNPOU
100
AcDbLine
 10
9534.217031986059
 20
7880.715360473252
 30
0.0
 11
9534.217031986059
 21
7110.715360473252
 31
0.0
  0
ARC
  5
1AAEA
330
1A65A
100
AcDbEntity
  8
SUNPOU
100
AcDbCircle
 10
8580.123251791111
 20
4130.485411556196
 30
0.0
 40
5.625
100
AcDbArc
 50
90.0
 51
270.0
  0
ARC
  5
1AAEB
330
1A65A
100
AcDbEntity
  8
SUNPOU
100
AcDbCircle
 10
8580.123251791111
 20
4130.485411556196
 30
0.0
 40
5.625
100
AcDbArc
 50
270.0
 51
90.0
  0
TEXT
  5
1AAEC
330
1A65A
100
AcDbEntity
  8
SUNPOU
100
AcDbText
 10
12039.21703198606
 20
9360.001074758967
 30
0.0
 40
90.0
  1
300
 50
90.0
 41
0.6666666666666666
  7
00
100
AcDbText
  0
LINE
  5
1AAED
330
1A65A
100
AcDbEntity
  8
SUNPOU
100
AcDbLine
 10
12084.21703198605
 20
9584.465360473252
 30
0.0
 11
12084.21703198605
 21
9573.215360473252
 31
0.0
  0
LINE
  5
1AAEE
330
1A65A
100
AcDbEntity
  8
SUNPOU
100
AcDbLine
 10
12084.21703198605
 20
9306.965360473252
 30
0.0
 11
12084.21703198605
 21
9318.215360473251
 31
0.0
  0
TEXT
  5
1AAEF
330
1A65A
100
AcDbEntity
  8
SUNPOU
100
AcDbText
 10
12039.21703198606
 20
8277.143931901829
 30
0.0
 40
90.0
  1
1800
 50
90.0
 41
0.6666666666666666
  7
00
100
AcDbText
  0
LINE
  5
1AAF0
330
1A65A
100
AcDbEntity
  8
SUNPOU
100
AcDbLine
 10
12084.21703198605
 20
9284.465360473253
 30
0.0
 11
12084.21703198605
 21
9273.215360473249
 31
0.0
  0
LINE
  5
1AAF1
330
1A65A
100
AcDbEntity
  8
SUNPOU
100
AcDbLine
 10
12084.21703198605
 20
7506.965360473255
 30
0.0
 11
12084.21703198605
 21
7518.215360473253
 31
0.0
  0
TEXT
  5
1AAF2
330
1A65A
100
AcDbEntity
  8
SUNPOU
100
AcDbText
 10
12039.21703198606
 20
6477.143931901827
 30
0.0
 40
90.0
  1
1800
 50
90.0
 41
0.6666666666666666
  7
00
100
AcDbText
  0
LINE
  5
1AAF3
330
1A65A
100
AcDbEntity
  8
SUNPOU
100
AcDbLine
 10
12084.21703198605
 20
7484.465360473255
 30
0.0
 11
12084.21703198605
 21
7473.215360473254
 31
0.0
  0
LINE
  5
1AAF4
330
1A65A
100
AcDbEntity
  8
SUNPOU
100
AcDbLine
 10
12084.21703198605
 20
5706.965360473253
 30
0.0
 11
12084.21703198605
 21
5718.215360473253
 31
0.0
  0
TEXT
  5
1AAF5
330
1A65A
100
AcDbEntity
  8
SUNPOU
100
AcDbText
 10
12039.21703198606
 20
5460.001074758969
 30
0.0
 40
90.0
  1
300
 50
90.0
 41
0.6666666666666666
  7
00
100
AcDbText
  0
LINE
  5
1AAF6
330
1A65A
100
AcDbEntity
  8
SUNPOU
100
AcDbLine
 10
12084.21703198605
 20
5684.465360473253
 30
0.0
 11
12084.21703198605
 21
5673.215360473253
 31
0.0
  0
LINE
  5
1AAF7
330
1A65A
100
AcDbEntity
  8
SUNPOU
100
AcDbLine
 10
12084.21703198605
 20
5406.965360473253
 30
0.0
 11
12084.21703198605
 21
5418.215360473253
 31
0.0
  0
TEXT
  5
1AAF8
330
1A65A
100
AcDbEntity
  8
SUNPOU
100
AcDbText
 10
12249.21703198605
 20
7381.42964618754
 30
0.0
 40
90.0
  1
4200
 50
90.0
 41
0.6666666666666666
  7
00
100
AcDbText
  0
LINE
  5
1AAF9
330
1A65A
100
AcDbEntity
  8
SUNPOU
100
AcDbLine
 10
12294.21703198606
 20
5406.965360473253
 30
0.0
 11
12294.21703198606
 21
5418.215360473253
 31
0.0
  0
LINE
  5
1AAFA
330
1A65A
100
AcDbEntity
  8
SUNPOU
100
AcDbLine
 10
12294.21703198606
 20
9584.465360473251
 30
0.0
 11
12294.21703198606
 21
9573.21536047325
 31
0.0
  0
TEXT
  5
1AAFB
330
1A65A
100
AcDbEntity
  8
SUNPOU
100
AcDbText
 10
12228.40680314954
 20
3937.765608013134
 30
0.0
 40
90.0
  1
40
 50
90.0
 41
0.6666666666666666
  7
00
100
AcDbText
  0
LINE
  5
1AAFC
330
1A65A
100
AcDbEntity
  8
SUNPOU
100
AcDbLine
 10
12273.40680314955
 20
3875.087036584561
 30
0.0
 11
12273.40680314955
 21
3863.83703658456
 31
0.0
  0
LINE
  5
1AAFD
330
1A65A
100
AcDbEntity
  8
SUNPOU
100
AcDbLine
 10
12273.40680314955
 20
3737.587036584561
 30
0.0
 11
12273.40680314955
 21
3748.837036584561
 31
0.0
  0
TEXT
  5
1AAFE
330
1A65A
100
AcDbEntity
  8
SUNPOU
100
AcDbText
 10
12228.40680314954
 20
3437.622750870277
 30
0.0
 40
90.0
  1
27
 50
90.0
 41
0.6666666666666666
  7
00
100
AcDbText
  0
LINE
  5
1AAFF
330
1A65A
100
AcDbEntity
  8
SUNPOU
100
AcDbLine
 10
12273.40680314955
 20
3607.087036584561
 30
0.0
 11
12273.40680314955
 21
3595.837036584561
 31
0.0
  0
LINE
  5
1AB00
330
1A65A
100
AcDbEntity
  8
SUNPOU
100
AcDbLine
 10
12273.40680314955
 20
3737.587036584561
 30
0.0
 11
12273.40680314955
 21
3748.837036584561
 31
0.0
  0
TEXT
  5
1AB01
330
1A65A
100
AcDbEntity
  8
SUNPOU
100
AcDbText
 10
11927.76694549065
 20
2290.804976716086
 30
0.0
 40
90.0
  1
20
 41
0.6666666666666666
  7
00
100
AcDbText
  0
LINE
  5
1AB02
330
1A65A
100
AcDbEntity
  8
SUNPOU
100
AcDbLine
 10
11872.58837406209
 20
2245.804976716085
 30
0.0
 11
11883.83837406209
 21
2245.804976716085
 31
0.0
  0
LINE
  5
1AB03
330
1A65A
100
AcDbEntity
  8
SUNPOU
100
AcDbLine
 10
11770.08837406209
 20
2245.804976716085
 30
0.0
 11
11758.83837406209
 21
2245.804976716085
 31
0.0
  0
TEXT
  5
1AB04
330
1A65A
100
AcDbEntity
  8
SUNPOU
100
AcDbText
 10
11451.33837406209
 20
2290.804976716086
 30
0.0
 40
90.0
  1
120
 41
0.6666666666666666
  7
00
100
AcDbText
  0
LINE
  5
1AB05
330
1A65A
100
AcDbEntity
  8
SUNPOU
100
AcDbLine
 10
11770.08837406209
 20
2245.804976716085
 30
0.0
 11
11758.83837406209
 21
2245.804976716085
 31
0.0
  0
LINE
  5
1AB06
330
1A65A
100
AcDbEntity
  8
SUNPOU
100
AcDbLine
 10
11312.5883740621
 20
2245.804976716085
 30
0.0
 11
11323.8383740621
 21
2245.804976716085
 31
0.0
  0
TEXT
  5
1AB07
330
1A65A
100
AcDbEntity
  8
SUNPOU
100
AcDbText
 10
11040.6240883478
 20
2290.804976716086
 30
0.0
 40
90.0
  1
20
 41
0.6666666666666666
  7
00
100
AcDbText
  0
LINE
  5
1AB08
330
1A65A
100
AcDbEntity
  8
SUNPOU
100
AcDbLine
 10
11210.08837406209
 20
2245.804976716085
 30
0.0
 11
11198.83837406209
 21
2245.804976716085
 31
0.0
  0
LINE
  5
1AB09
330
1A65A
100
AcDbEntity
  8
SUNPOU
100
AcDbLine
 10
11312.5883740621
 20
2245.804976716085
 30
0.0
 11
11323.8383740621
 21
2245.804976716085
 31
0.0
  0
TEXT
  5
1AB0A
330
1A65A
100
AcDbEntity
  8
SUNPOU
100
AcDbText
 10
11451.33837406208
 20
2080.804976716085
 30
0.0
 40
90.0
  1
160
 41
0.6666666666666666
  7
00
100
AcDbText
  0
LINE
  5
1AB0B
330
1A65A
100
AcDbEntity
  8
SUNPOU
100
AcDbLine
 10
11850.08837406209
 20
2035.804976716086
 30
0.0
 11
11838.83837406209
 21
2035.804976716086
 31
0.0
  0
LINE
  5
1AB0C
330
1A65A
100
AcDbEntity
  8
SUNPOU
100
AcDbLine
 10
11232.58837406209
 20
2035.804976716086
 30
0.0
 11
11243.83837406209
 21
2035.804976716086
 31
0.0
  0
TEXT
  5
1AB0D
330
1A65A
100
AcDbEntity
  8
SUNPOU
100
AcDbText
 10
10873.33837406209
 20
2374.430058338865
 30
0.0
 40
90.0
  1
40
 50
90.0
 41
0.6666666666666666
  7
00
100
AcDbText
  0
LINE
  5
1AB0E
330
1A65A
100
AcDbEntity
  8
SUNPOU
100
AcDbLine
 10
10918.33837406209
 20
2551.394344053149
 30
0.0
 11
10918.33837406209
 21
2562.644344053149
 31
0.0
  0
LINE
  5
1AB0F
330
1A65A
100
AcDbEntity
  8
SUNPOU
100
AcDbLine
 10
10918.33837406209
 20
2688.894344053149
 30
0.0
 11
10918.33837406209
 21
2677.644344053149
 31
0.0
  0
TEXT
  5
1AB10
330
1A65A
100
AcDbEntity
  8
SUNPOU
100
AcDbText
 10
10873.33837406209
 20
2911.572915481723
 30
0.0
 40
90.0
  1
40
 50
90.0
 41
0.6666666666666666
  7
00
100
AcDbText
  0
LINE
  5
1AB11
330
1A65A
100
AcDbEntity
  8
SUNPOU
100
AcDbLine
 10
10918.33837406209
 20
2848.894344053149
 30
0.0
 11
10918.33837406209
 21
2837.644344053149
 31
0.0
  0
LINE
  5
1AB12
330
1A65A
100
AcDbEntity
  8
SUNPOU
100
AcDbLine
 10
10918.33837406209
 20
2711.394344053149
 30
0.0
 11
10918.33837406209
 21
2722.644344053149
 31
0.0
  0
TEXT
  5
1AB13
330
1A65A
100
AcDbEntity
  8
SUNPOU
100
AcDbText
 10
10663.33837406209
 20
2643.001486910295
 30
0.0
 40
90.0
  1
80
 50
90.0
 41
0.6666666666666666
  7
00
100
AcDbText
  0
LINE
  5
1AB14
330
1A65A
100
AcDbEntity
  8
SUNPOU
100
AcDbLine
 10
10708.33837406208
 20
2848.894344053149
 30
0.0
 11
10708.33837406208
 21
2837.644344053149
 31
0.0
  0
LINE
  5
1AB15
330
1A65A
100
AcDbEntity
  8
SUNPOU
100
AcDbLine
 10
10708.33837406208
 20
2551.394344053149
 30
0.0
 11
10708.33837406208
 21
2562.644344053149
 31
0.0
  0
TEXT
  5
1AB16
330
1A65A
100
AcDbEntity
  8
SUNPOU
100
AcDbText
 10
11927.76694549065
 20
3439.170862655058
 30
0.0
 40
90.0
  1
20
 41
0.6666666666666666
  7
00
100
AcDbText
  0
LINE
  5
1AB17
330
1A65A
100
AcDbEntity
  8
SUNPOU
100
AcDbLine
 10
11872.58837406209
 20
3394.170862655057
 30
0.0
 11
11883.83837406209
 21
3394.170862655057
 31
0.0
  0
LINE
  5
1AB18
330
1A65A
100
AcDbEntity
  8
SUNPOU
100
AcDbLine
 10
11770.08837406209
 20
3394.170862655057
 30
0.0
 11
11758.83837406209
 21
3394.170862655057
 31
0.0
  0
TEXT
  5
1AB19
330
1A65A
100
AcDbEntity
  8
SUNPOU
100
AcDbText
 10
11451.33837406209
 20
3439.170862655058
 30
0.0
 40
90.0
  1
120
 41
0.6666666666666666
  7
00
100
AcDbText
  0
LINE
  5
1AB1A
330
1A65A
100
AcDbEntity
  8
SUNPOU
100
AcDbLine
 10
11770.08837406209
 20
3394.170862655057
 30
0.0
 11
11758.83837406209
 21
3394.170862655057
 31
0.0
  0
LINE
  5
1AB1B
330
1A65A
100
AcDbEntity
  8
SUNPOU
100
AcDbLine
 10
11312.5883740621
 20
3394.170862655057
 30
0.0
 11
11323.8383740621
 21
3394.170862655057
 31
0.0
  0
TEXT
  5
1AB1C
330
1A65A
100
AcDbEntity
  8
SUNPOU
100
AcDbText
 10
11040.6240883478
 20
3439.170862655058
 30
0.0
 40
90.0
  1
20
 41
0.6666666666666666
  7
00
100
AcDbText
  0
LINE
  5
1AB1D
330
1A65A
100
AcDbEntity
  8
SUNPOU
100
AcDbLine
 10
11210.08837406209
 20
3394.170862655057
 30
0.0
 11
11198.83837406209
 21
3394.170862655057
 31
0.0
  0
LINE
  5
1AB1E
330
1A65A
100
AcDbEntity
  8
SUNPOU
100
AcDbLine
 10
11312.5883740621
 20
3394.170862655057
 30
0.0
 11
11323.8383740621
 21
3394.170862655057
 31
0.0
  0
TEXT
  5
1AB1F
330
1A65A
100
AcDbEntity
  8
SUNPOU
100
AcDbText
 10
11451.33837406208
 20
3229.170862655058
 30
0.0
 40
90.0
  1
160
 41
0.6666666666666666
  7
00
100
AcDbText
  0
LINE
  5
1AB20
330
1A65A
100
AcDbEntity
  8
SUNPOU
100
AcDbLine
 10
11850.08837406209
 20
3184.170862655058
 30
0.0
 11
11838.83837406209
 21
3184.170862655058
 31
0.0
  0
LINE
  5
1AB21
330
1A65A
100
AcDbEntity
  8
SUNPOU
100
AcDbLine
 10
11232.58837406209
 20
3184.170862655058
 30
0.0
 11
11243.83837406209
 21
3184.170862655058
 31
0.0
  0
TEXT
  5
1AB22
330
1A65A
100
AcDbEntity
  8
SUNPOU
100
AcDbText
 10
8494.408966076823
 20
2193.684839419605
 30
0.0
 40
90.0
  1
800
 41
0.6666666666666666
  7
00
100
AcDbText
  0
LINE
  5
1AB23
330
1A65A
100
AcDbEntity
  8
SUNPOU
100
AcDbLine
 10
9208.873251791109
 20
2148.684839419604
 30
0.0
 11
9197.623251791108
 21
2148.684839419604
 31
0.0
  0
LINE
  5
1AB24
330
1A65A
100
AcDbEntity
  8
SUNPOU
100
AcDbLine
 10
7951.373251791109
 20
2148.684839419604
 30
0.0
 11
7962.623251791109
 21
2148.684839419604
 31
0.0
  0
TEXT
  5
1AB25
330
1A65A
100
AcDbEntity
  8
SUNPOU
100
AcDbText
 10
8461.551823219677
 20
1983.684839419604
 30
0.0
 40
90.0
  1
1000
 41
0.6666666666666666
  7
00
100
AcDbText
  0
LINE
  5
1AB26
330
1A65A
100
AcDbEntity
  8
SUNPOU
100
AcDbLine
 10
9368.873251791109
 20
1938.684839419604
 30
0.0
 11
9357.623251791109
 21
1938.684839419604
 31
0.0
  0
LINE
  5
1AB27
330
1A65A
100
AcDbEntity
  8
SUNPOU
100
AcDbLine
 10
7791.373251791107
 20
1938.684839419604
 30
0.0
 11
7802.623251791108
 21
1938.684839419604
 31
0.0
  0
TEXT
  5
1AB28
330
1A65A
100
AcDbEntity
  8
SUNPOU
100
AcDbText
 10
7615.76985579035
 20
3197.941982276748
 30
0.0
 40
90.0
  1
80
 50
90.0
 41
0.6666666666666666
  7
00
100
AcDbText
  0
LINE
  5
1AB29
330
1A65A
100
AcDbEntity
  8
SUNPOU
100
AcDbLine
 10
7660.769855790352
 20
3202.334839419601
 30
0.0
 11
7660.769855790352
 21
3213.584839419601
 31
0.0
  0
LINE
  5
1AB2A
330
1A65A
100
AcDbEntity
  8
SUNPOU
100
AcDbLine
 10
7660.769855790352
 20
3307.834839419605
 30
0.0
 11
7660.769855790352
 21
3296.584839419606
 31
0.0
  0
TEXT
  5
1AB2B
330
1A65A
100
AcDbEntity
  8
SUNPOU
100
AcDbText
 10
7615.76985579035
 20
3508.113410848177
 30
0.0
 40
90.0
  1
80
 50
90.0
 41
0.6666666666666666
  7
00
100
AcDbText
  0
LINE
  5
1AB2C
330
1A65A
100
AcDbEntity
  8
SUNPOU
100
AcDbLine
 10
7660.769855790352
 20
3445.434839419605
 30
0.0
 11
7660.769855790352
 21
3434.184839419605
 31
0.0
  0
LINE
  5
1AB2D
330
1A65A
100
AcDbEntity
  8
SUNPOU
100
AcDbLine
 10
7660.769855790352
 20
3330.334839419603
 30
0.0
 11
7660.769855790352
 21
3341.584839419603
 31
0.0
  0
TEXT
  5
1AB2E
330
1A65A
100
AcDbEntity
  8
SUNPOU
100
AcDbText
 10
7615.76985579035
 20
2865.37055370532
 30
0.0
 40
90.0
  1
300
 50
90.0
 41
0.6666666666666666
  7
00
100
AcDbText
  0
LINE
  5
1AB2F
330
1A65A
100
AcDbEntity
  8
SUNPOU
100
AcDbLine
 10
7660.769855790352
 20
3179.834839419601
 30
0.0
 11
7660.769855790352
 21
3168.584839419601
 31
0.0
  0
LINE
  5
1AB30
330
1A65A
100
AcDbEntity
  8
SUNPOU
100
AcDbLine
 10
7660.769855790352
 20
2722.334839419608
 30
0.0
 11
7660.769855790352
 21
2733.584839419608
 31
0.0
  0
TEXT
  5
1AB31
330
1A65A
100
AcDbEntity
  8
SUNPOU
100
AcDbText
 10
7615.76985579035
 20
2328.227696562461
 30
0.0
 40
90.0
  1
100
 50
90.0
 41
0.6666666666666666
  7
00
100
AcDbText
  0
LINE
  5
1AB32
330
1A65A
100
AcDbEntity
  8
SUNPOU
100
AcDbLine
 10
7660.769855790352
 20
2562.334839419603
 30
0.0
 11
7660.769855790352
 21
2573.584839419603
 31
0.0
  0
LINE
  5
1AB33
330
1A65A
100
AcDbEntity
  8
SUNPOU
100
AcDbLine
 10
7660.769855790352
 20
2699.834839419608
 30
0.0
 11
7660.769855790352
 21
2688.584839419608
 31
0.0
  0
TEXT
  5
1AB34
330
1A65A
100
AcDbEntity
  8
SUNPOU
100
AcDbText
 10
7405.76985579035
 20
2918.17055370532
 30
0.0
 40
90.0
  1
560
 50
90.0
 41
0.6666666666666666
  7
00
100
AcDbText
  0
LINE
  5
1AB35
330
1A65A
100
AcDbEntity
  8
SUNPOU
100
AcDbLine
 10
7450.769855790351
 20
2562.334839419603
 30
0.0
 11
7450.769855790351
 21
2573.584839419603
 31
0.0
  0
LINE
  5
1AB36
330
1A65A
100
AcDbEntity
  8
SUNPOU
100
AcDbLine
 10
7450.769855790351
 20
3445.434839419605
 30
0.0
 11
7450.769855790351
 21
3434.184839419605
 31
0.0
  0
TEXT
  5
1AB37
330
1A65A
100
AcDbEntity
  8
SUNPOU
100
AcDbText
 10
4712.654194124605
 20
2193.684839419601
 30
0.0
 40
90.0
  1
600
 41
0.6666666666666666
  7
00
100
AcDbText
  0
LINE
  5
1AB38
330
1A65A
100
AcDbEntity
  8
SUNPOU
100
AcDbLine
 10
5268.547051267464
 20
2148.684839419601
 30
0.0
 11
5257.297051267464
 21
2148.684839419601
 31
0.0
  0
LINE
  5
1AB39
330
1A65A
100
AcDbEntity
  8
SUNPOU
100
AcDbLine
 10
4331.047051267463
 20
2148.684839419601
 30
0.0
 11
4342.297051267464
 21
2148.684839419601
 31
0.0
  0
TEXT
  5
1AB3A
330
1A65A
100
AcDbEntity
  8
SUNPOU
100
AcDbText
 10
4714.082765553176
 20
1983.6848394196
 30
0.0
 40
90.0
  1
800
 41
0.6666666666666666
  7
00
100
AcDbText
  0
LINE
  5
1AB3B
330
1A65A
100
AcDbEntity
  8
SUNPOU
100
AcDbLine
 10
5428.547051267462
 20
1938.6848394196
 30
0.0
 11
5417.297051267462
 21
1938.6848394196
 31
0.0
  0
LINE
  5
1AB3C
330
1A65A
100
AcDbEntity
  8
SUNPOU
100
AcDbLine
 10
4171.047051267462
 20
1938.6848394196
 30
0.0
 11
4182.297051267462
 21
1938.6848394196
 31
0.0
  0
TEXT
  5
1AB3D
330
1A65A
100
AcDbEntity
  8
SUNPOU
100
AcDbText
 10
3415.443655266705
 20
3523.113410848177
 30
0.0
 40
90.0
  1
50
 50
90.0
 41
0.6666666666666666
  7
00
100
AcDbText
  0
LINE
  5
1AB3E
330
1A65A
100
AcDbEntity
  8
SUNPOU
100
AcDbLine
 10
3460.443655266704
 20
3467.934839419605
 30
0.0
 11
3460.443655266704
 21
3479.184839419604
 31
0.0
  0
LINE
  5
1AB3F
330
1A65A
100
AcDbEntity
  8
SUNPOU
100
AcDbLine
 10
3460.443655266704
 20
3365.434839419604
 30
0.0
 11
3460.443655266704
 21
3354.184839419604
 31
0.0
  0
TEXT
  5
1AB40
330
1A65A
100
AcDbEntity
  8
SUNPOU
100
AcDbText
 10
3835.443655266707
 20
3197.941982276741
 30
0.0
 40
90.0
  1
80
 50
90.0
 41
0.6666666666666666
  7
00
100
AcDbText
  0
LINE
  5
1AB41
330
1A65A
100
AcDbEntity
  8
SUNPOU
100
AcDbLine
 10
3880.443655266708
 20
3202.334839419596
 30
0.0
 11
3880.443655266708
 21
3213.584839419597
 31
0.0
  0
LINE
  5
1AB42
330
1A65A
100
AcDbEntity
  8
SUNPOU
100
AcDbLine
 10
3880.443655266708
 20
3307.834839419601
 30
0.0
 11
3880.443655266708
 21
3296.584839419601
 31
0.0
  0
TEXT
  5
1AB43
330
1A65A
100
AcDbEntity
  8
SUNPOU
100
AcDbText
 10
3835.443655266704
 20
3508.113410848177
 30
0.0
 40
90.0
  1
80
 50
90.0
 41
0.6666666666666666
  7
00
100
AcDbText
  0
LINE
  5
1AB44
330
1A65A
100
AcDbEntity
  8
SUNPOU
100
AcDbLine
 10
3880.443655266704
 20
3445.434839419605
 30
0.0
 11
3880.443655266704
 21
3434.184839419605
 31
0.0
  0
LINE
  5
1AB45
330
1A65A
100
AcDbEntity
  8
SUNPOU
100
AcDbLine
 10
3880.443655266704
 20
3330.334839419603
 30
0.0
 11
3880.443655266704
 21
3341.584839419603
 31
0.0
  0
TEXT
  5
1AB46
330
1A65A
100
AcDbEntity
  8
SUNPOU
100
AcDbText
 10
3835.443655266704
 20
2865.370553705316
 30
0.0
 40
90.0
  1
300
 50
90.0
 41
0.6666666666666666
  7
00
100
AcDbText
  0
LINE
  5
1AB47
330
1A65A
100
AcDbEntity
  8
SUNPOU
100
AcDbLine
 10
3880.443655266704
 20
3179.834839419598
 30
0.0
 11
3880.443655266704
 21
3168.584839419598
 31
0.0
  0
LINE
  5
1AB48
330
1A65A
100
AcDbEntity
  8
SUNPOU
100
AcDbLine
 10
3880.443655266704
 20
2722.334839419604
 30
0.0
 11
3880.443655266704
 21
2733.584839419604
 31
0.0
  0
TEXT
  5
1AB49
330
1A65A
100
AcDbEntity
  8
SUNPOU
100
AcDbText
 10
3835.443655266704
 20
2328.227696562461
 30
0.0
 40
90.0
  1
100
 50
90.0
 41
0.6666666666666666
  7
00
100
AcDbText
  0
LINE
  5
1AB4A
330
1A65A
100
AcDbEntity
  8
SUNPOU
100
AcDbLine
 10
3880.443655266704
 20
2562.334839419603
 30
0.0
 11
3880.443655266704
 21
2573.584839419603
 31
0.0
  0
LINE
  5
1AB4B
330
1A65A
100
AcDbEntity
  8
SUNPOU
100
AcDbLine
 10
3880.443655266704
 20
2699.834839419605
 30
0.0
 11
3880.443655266704
 21
2688.584839419605
 31
0.0
  0
TEXT
  5
1AB4C
330
1A65A
100
AcDbEntity
  8
SUNPOU
100
AcDbText
 10
3625.443655266705
 20
2918.170553705319
 30
0.0
 40
90.0
  1
560
 50
90.0
 41
0.6666666666666666
  7
00
100
AcDbText
  0
LINE
  5
1AB4D
330
1A65A
100
AcDbEntity
  8
SUNPOU
100
AcDbLine
 10
3670.443655266705
 20
2562.334839419603
 30
0.0
 11
3670.443655266705
 21
2573.584839419603
 31
0.0
  0
LINE
  5
1AB4E
330
1A65A
100
AcDbEntity
  8
SUNPOU
100
AcDbLine
 10
3670.443655266705
 20
3445.434839419605
 30
0.0
 11
3670.443655266705
 21
3434.184839419605
 31
0.0
  0
TEXT
  5
1AB4F
330
1A65A
100
AcDbEntity
  8
SUNPOU
100
AcDbText
 10
4474.082765553179
 20
4175.485411556191
 30
0.0
 40
90.0
  1
300
 41
0.6666666666666666
  7
00
100
AcDbText
  0
LINE
  5
1AB50
330
1A65A
100
AcDbEntity
  8
SUNPOU
100
AcDbLine
 10
4331.047051267463
 20
4130.485411556192
 30
0.0
 11
4342.297051267464
 21
4130.485411556192
 31
0.0
  0
LINE
  5
1AB51
330
1A65A
100
AcDbEntity
  8
SUNPOU
100
AcDbLine
 10
4788.547051267463
 20
4130.485411556192
 30
0.0
 11
4777.297051267463
 21
4130.485411556192
 31
0.0
  0
TEXT
  5
1AB52
330
1A65A
100
AcDbEntity
  8
SUNPOU
100
AcDbText
 10
9389.21703198606
 20
5608.572503330398
 30
0.0
 40
90.0
  1
600
 50
90.0
 41
0.6666666666666666
  7
00
100
AcDbText
  0
LINE
  5
1AB53
330
1A65A
100
AcDbEntity
  8
SUNPOU
100
AcDbLine
 10
9434.21703198606
 20
5406.965360473254
 30
0.0
 11
9434.21703198606
 21
5418.215360473254
 31
0.0
  0
LINE
  5
1AB54
330
1A65A
100
AcDbEntity
  8
SUNPOU
100
AcDbLine
 10
9434.21703198606
 20
5984.465360473254
 30
0.0
 11
9434.21703198606
 21
5973.215360473255
 31
0.0
  0
ARC
  5
1AB55
330
1A65A
100
AcDbEntity
  8
SUNPOU
100
AcDbCircle
 10
7534.217031986059
 20
9995.715360473253
 30
0.0
 40
5.625
100
AcDbArc
 50
0.0
 51
180.0
  0
ARC
  5
1AB56
330
1A65A
100
AcDbEntity
  8
SUNPOU
100
AcDbCircle
 10
7534.217031986059
 20
9995.715360473253
 30
0.0
 40
5.625
100
AcDbArc
 50
180.0
 51
0.0
  0
ARC
  5
1AB57
330
1A65A
100
AcDbEntity
  8
SUNPOU
100
AcDbCircle
 10
8834.21703198606
 20
9995.715360473253
 30
0.0
 40
5.625
100
AcDbArc
 50
180.0
 51
0.0
  0
ARC
  5
1AB58
330
1A65A
100
AcDbEntity
  8
SUNPOU
100
AcDbCircle
 10
8834.21703198606
 20
9995.715360473253
 30
0.0
 40
5.625
100
AcDbArc
 50
0.0
 51
180.0
  0
TEXT
  5
1AB59
330
1A65A
100
AcDbEntity
  8
SUNPOU
100
AcDbText
 10
7720.502746271773
 20
10250.71536047325
 30
0.0
 40
90.0
  1
L = 2450 x N + 800
 41
0.6666666666666666
  7
00
100
AcDbText
  0
LINE
  5
1AB5A
330
1A65A
100
AcDbEntity
  8
SUNPOU
100
AcDbLine
 10
11672.96703198606
 20
10205.71536047325
 30
0.0
 11
11661.71703198606
 21
10205.71536047325
 31
0.0
  0
LINE
  5
1AB5B
330
1A65A
100
AcDbEntity
  8
SUNPOU
100
AcDbLine
 10
4695.467031986058
 20
10205.71536047325
 30
0.0
 11
4706.71703198606
 21
10205.71536047325
 31
0.0
  0
TEXT
  5
1AB5C
330
1A65A
100
AcDbEntity
  8
SUNPOU
100
AcDbText
 10
6194.931317700345
 20
10040.71536047325
 30
0.0
 40
90.0
  1
2450
 41
0.6666666666666666
  7
00
100
AcDbText
  0
LINE
  5
1AB5D
330
1A65A
100
AcDbEntity
  8
SUNPOU
100
AcDbLine
 10
5095.46703198606
 20
9995.715360473253
 30
0.0
 11
5106.71703198606
 21
9995.715360473253
 31
0.0
  0
LINE
  5
1AB5E
330
1A65A
100
AcDbEntity
  8
SUNPOU
100
AcDbLine
 10
7522.96703198606
 20
9995.715360473253
 30
0.0
 11
7511.71703198606
 21
9995.715360473253
 31
0.0
  0
TEXT
  5
1AB5F
330
1A65A
100
AcDbEntity
  8
SUNPOU
100
AcDbText
 10
9944.931317700344
 20
10040.71536047325
 30
0.0
 40
90.0
  1
2450
 41
0.6666666666666666
  7
00
100
AcDbText
  0
LINE
  5
1AB60
330
1A65A
100
AcDbEntity
  8
SUNPOU
100
AcDbLine
 10
8845.467031986059
 20
9995.715360473253
 30
0.0
 11
8856.717031986059
 21
9995.715360473253
 31
0.0
  0
LINE
  5
1AB61
330
1A65A
100
AcDbEntity
  8
SUNPOU
100
AcDbLine
 10
11272.96703198606
 20
9995.715360473253
 30
0.0
 11
11261.71703198606
 21
9995.715360473253
 31
0.0
  0
TEXT
  5
1AB62
330
1A65A
100
AcDbEntity
  8
SUNPOU
100
AcDbText
 10
4798.502746271775
 20
10040.71536047325
 30
0.0
 40
90.0
  1
400
 41
0.6666666666666666
  7
00
100
AcDbText
  0
LINE
  5
1AB63
330
1A65A
100
AcDbEntity
  8
SUNPOU
100
AcDbLine
 10
4695.467031986058
 20
9995.715360473253
 30
0.0
 11
4706.71703198606
 21
9995.715360473253
 31
0.0
  0
LINE
  5
1AB64
330
1A65A
100
AcDbEntity
  8
SUNPOU
100
AcDbLine
 10
5072.96703198606
 20
9995.715360473253
 30
0.0
 11
5061.717031986058
 21
9995.715360473253
 31
0.0
  0
TEXT
  5
1AB65
330
1A65A
100
AcDbEntity
  8
SUNPOU
100
AcDbText
 10
11398.50274627177
 20
10040.71536047325
 30
0.0
 40
90.0
  1
400
 41
0.6666666666666666
  7
00
100
AcDbText
  0
LINE
  5
1AB66
330
1A65A
100
AcDbEntity
  8
SUNPOU
100
AcDbLine
 10
11672.96703198606
 20
9995.715360473253
 30
0.0
 11
11661.71703198606
 21
9995.715360473253
 31
0.0
  0
LINE
  5
1AB67
330
1A65A
100
AcDbEntity
  8
SUNPOU
100
AcDbLine
 10
11295.46703198605
 20
9995.715360473253
 30
0.0
 11
11306.71703198605
 21
9995.715360473253
 31
0.0
  0
TEXT
  5
1AB68
330
1A65A
100
AcDbEntity
  8
SUNPOU
100
AcDbText
 10
6889.21703198606
 20
9208.572503330399
 30
0.0
 40
90.0
  1
600
 50
90.0
 41
0.6666666666666666
  7
00
100
AcDbText
  0
LINE
  5
1AB69
330
1A65A
100
AcDbEntity
  8
SUNPOU
100
AcDbLine
 10
6934.21703198606
 20
9006.96536047325
 30
0.0
 11
6934.21703198606
 21
9018.215360473252
 31
0.0
  0
LINE
  5
1AB6A
330
1A65A
100
AcDbEntity
  8
SUNPOU
100
AcDbLine
 10
6934.21703198606
 20
9584.465360473252
 30
0.0
 11
6934.21703198606
 21
9573.215360473252
 31
0.0
  0
TEXT
  5
1AB6B
330
1A65A
100
AcDbEntity
  8
SUNPOU
100
AcDbText
 10
7447.074174843203
 20
8740.715360473251
 30
0.0
 40
90.0
  1
600
 41
0.6666666666666666
  7
00
100
AcDbText
  0
LINE
  5
1AB6C
330
1A65A
100
AcDbEntity
  8
SUNPOU
100
AcDbLine
 10
7822.96703198606
 20
8695.715360473251
 30
0.0
 11
7811.71703198606
 21
8695.715360473251
 31
0.0
  0
LINE
  5
1AB6D
330
1A65A
100
AcDbEntity
  8
SUNPOU
100
AcDbLine
 10
7245.467031986058
 20
8695.715360473251
 30
0.0
 11
7256.71703198606
 21
8695.715360473251
 31
0.0
  0
TEXT
  5
1AB6E
330
1A65A
100
AcDbEntity
  8
SUNPOU
100
AcDbText
 10
8747.074174843204
 20
6290.715360473253
 30
0.0
 40
90.0
  1
600
 41
0.6666666666666666
  7
00
100
AcDbText
  0
LINE
  5
1AB6F
330
1A65A
100
AcDbEntity
  8
SUNPOU
100
AcDbLine
 10
9122.96703198606
 20
6245.715360473253
 30
0.0
 11
9111.71703198606
 21
6245.715360473253
 31
0.0
  0
LINE
  5
1AB70
330
1A65A
100
AcDbEntity
  8
SUNPOU
100
AcDbLine
 10
8545.46703198606
 20
6245.715360473253
 30
0.0
 11
8556.717031986059
 21
6245.715360473253
 31
0.0
  0
TEXT
  5
1AB71
330
1A65A
100
AcDbEntity
  8
SUNPOU
100
AcDbText
 10
8748.502746271773
 20
8110.715360473252
 30
0.0
 40
90.0
  1
800
 41
0.6666666666666666
  7
00
100
AcDbText
  0
LINE
  5
1AB72
330
1A65A
100
AcDbEntity
  8
SUNPOU
100
AcDbLine
 10
9222.96703198606
 20
8065.715360473253
 30
0.0
 11
9211.71703198606
 21
8065.715360473253
 31
0.0
  0
LINE
  5
1AB73
330
1A65A
100
AcDbEntity
  8
SUNPOU
100
AcDbLine
 10
8445.46703198606
 20
8065.715360473253
 30
0.0
 11
8456.717031986059
 21
8065.715360473253
 31
0.0
  0
TEXT
  5
1AB74
330
1A65A
100
AcDbEntity
  8
SUNPOU
100
AcDbText
 10
9489.217031986058
 20
7410.001074758966
 30
0.0
 40
90.0
  1
800
 50
90.0
 41
0.6666666666666666
  7
00
100
AcDbText
  0
LINE
  5
1AB75
330
1A65A
100
AcDbEntity
  8
SUNPOU
100
AcDbLine
 10
9534.217031986059
 20
7106.965360473252
 30
0.0
 11
9534.217031986059
 21
7118.215360473252
 31
0.0
  0
LINE
  5
1AB76
330
1A65A
100
AcDbEntity
  8
SUNPOU
100
AcDbLine
 10
9534.217031986059
 20
7884.465360473253
 30
0.0
 11
9534.217031986059
 21
7873.215360473252
 31
0.0
  0
ARC
  5
1AB77
330
1A65A
100
AcDbEntity
  8
SUNPOU
100
AcDbCircle
 10
4684.21703198606
 20
10205.71536047325
 30
0.0
 40
5.625
100
AcDbArc
 50
0.0
 51
180.0
  0
ARC
  5
1AB78
330
1A65A
100
AcDbEntity
  8
SUNPOU
100
AcDbCircle
 10
4684.21703198606
 20
10205.71536047325
 30
0.0
 40
5.625
100
AcDbArc
 50
180.0
 51
0.0
  0
ARC
  5
1AB79
330
1A65A
100
AcDbEntity
  8
SUNPOU
100
AcDbCircle
 10
5084.21703198606
 20
9995.715360473253
 30
0.0
 40
5.625
100
AcDbArc
 50
0.0
 51
180.0
  0
ARC
  5
1AB7A
330
1A65A
100
AcDbEntity
  8
SUNPOU
100
AcDbCircle
 10
5084.21703198606
 20
9995.715360473253
 30
0.0
 40
5.625
100
AcDbArc
 50
180.0
 51
0.0
  0
ARC
  5
1AB7B
330
1A65A
100
AcDbEntity
  8
SUNPOU
100
AcDbCircle
 10
7534.217031986059
 20
9995.715360473253
 30
0.0
 40
5.625
100
AcDbArc
 50
180.0
 51
0.0
  0
ARC
  5
1AB7C
330
1A65A
100
AcDbEntity
  8
SUNPOU
100
AcDbCircle
 10
7534.217031986059
 20
9995.715360473253
 30
0.0
 40
5.625
100
AcDbArc
 50
0.0
 51
180.0
  0
ARC
  5
1AB7D
330
1A65A
100
AcDbEntity
  8
SUNPOU
100
AcDbCircle
 10
4684.21703198606
 20
9995.715360473253
 30
0.0
 40
5.625
100
AcDbArc
 50
0.0
 51
180.0
  0
ARC
  5
1AB7E
330
1A65A
100
AcDbEntity
  8
SUNPOU
100
AcDbCircle
 10
4684.21703198606
 20
9995.715360473253
 30
0.0
 40
5.625
100
AcDbArc
 50
180.0
 51
0.0
  0
ARC
  5
1AB7F
330
1A65A
100
AcDbEntity
  8
SUNPOU
100
AcDbCircle
 10
5084.21703198606
 20
9995.715360473253
 30
0.0
 40
5.625
100
AcDbArc
 50
180.0
 51
0.0
  0
ARC
  5
1AB80
330
1A65A
100
AcDbEntity
  8
SUNPOU
100
AcDbCircle
 10
5084.21703198606
 20
9995.715360473253
 30
0.0
 40
5.625
100
AcDbArc
 50
0.0
 51
180.0
  0
ARC
  5
1AB81
330
1A65A
100
AcDbEntity
  8
SUNPOU
100
AcDbCircle
 10
6934.21703198606
 20
8995.715360473253
 30
0.0
 40
5.625
100
AcDbArc
 50
90.0
 51
270.0
  0
ARC
  5
1AB82
330
1A65A
100
AcDbEntity
  8
SUNPOU
100
AcDbCircle
 10
6934.21703198606
 20
8995.715360473253
 30
0.0
 40
5.625
100
AcDbArc
 50
270.0
 51
90.0
  0
ARC
  5
1AB83
330
1A65A
100
AcDbEntity
  8
SUNPOU
100
AcDbCircle
 10
6934.21703198606
 20
9595.715360473253
 30
0.0
 40
5.625
100
AcDbArc
 50
270.0
 51
90.0
  0
ARC
  5
1AB84
330
1A65A
100
AcDbEntity
  8
SUNPOU
100
AcDbCircle
 10
6934.21703198606
 20
9595.715360473253
 30
0.0
 40
5.625
100
AcDbArc
 50
90.0
 51
270.0
  0
ARC
  5
1AB85
330
1A65A
100
AcDbEntity
  8
SUNPOU
100
AcDbCircle
 10
7234.21703198606
 20
8695.715360473251
 30
0.0
 40
5.625
100
AcDbArc
 50
0.0
 51
180.0
  0
ARC
  5
1AB86
330
1A65A
100
AcDbEntity
  8
SUNPOU
100
AcDbCircle
 10
7234.21703198606
 20
8695.715360473251
 30
0.0
 40
5.625
100
AcDbArc
 50
180.0
 51
0.0
  0
ARC
  5
1AB87
330
1A65A
100
AcDbEntity
  8
SUNPOU
100
AcDbCircle
 10
12084.21703198605
 20
9595.715360473253
 30
0.0
 40
5.625
100
AcDbArc
 50
270.0
 51
90.0
  0
ARC
  5
1AB88
330
1A65A
100
AcDbEntity
  8
SUNPOU
100
AcDbCircle
 10
12084.21703198605
 20
9595.715360473253
 30
0.0
 40
5.625
100
AcDbArc
 50
90.0
 51
270.0
  0
ARC
  5
1AB89
330
1A65A
100
AcDbEntity
  8
SUNPOU
100
AcDbCircle
 10
12084.21703198605
 20
9295.715360473252
 30
0.0
 40
5.625
100
AcDbArc
 50
90.0
 51
270.0
  0
ARC
  5
1AB8A
330
1A65A
100
AcDbEntity
  8
SUNPOU
100
AcDbCircle
 10
12084.21703198605
 20
9295.715360473252
 30
0.0
 40
5.625
100
AcDbArc
 50
270.0
 51
90.0
  0
ARC
  5
1AB8B
330
1A65A
100
AcDbEntity
  8
SUNPOU
100
AcDbCircle
 10
12084.21703198605
 20
9295.715360473252
 30
0.0
 40
5.625
100
AcDbArc
 50
270.0
 51
90.0
  0
ARC
  5
1AB8C
330
1A65A
100
AcDbEntity
  8
SUNPOU
100
AcDbCircle
 10
12084.21703198605
 20
9295.715360473252
 30
0.0
 40
5.625
100
AcDbArc
 50
90.0
 51
270.0
  0
ARC
  5
1AB8D
330
1A65A
100
AcDbEntity
  8
SUNPOU
100
AcDbCircle
 10
12084.21703198605
 20
7495.715360473251
 30
0.0
 40
5.625
100
AcDbArc
 50
90.0
 51
270.0
  0
ARC
  5
1AB8E
330
1A65A
100
AcDbEntity
  8
SUNPOU
100
AcDbCircle
 10
12084.21703198605
 20
7495.715360473251
 30
0.0
 40
5.625
100
AcDbArc
 50
270.0
 51
90.0
  0
ARC
  5
1AB8F
330
1A65A
100
AcDbEntity
  8
SUNPOU
100
AcDbCircle
 10
12084.21703198605
 20
7495.715360473255
 30
0.0
 40
5.625
100
AcDbArc
 50
270.0
 51
90.0
  0
ARC
  5
1AB90
330
1A65A
100
AcDbEntity
  8
SUNPOU
100
AcDbCircle
 10
12084.21703198605
 20
7495.715360473255
 30
0.0
 40
5.625
100
AcDbArc
 50
90.0
 51
270.0
  0
ARC
  5
1AB91
330
1A65A
100
AcDbEntity
  8
SUNPOU
100
AcDbCircle
 10
12084.21703198605
 20
5695.715360473253
 30
0.0
 40
5.625
100
AcDbArc
 50
90.0
 51
270.0
  0
ARC
  5
1AB92
330
1A65A
100
AcDbEntity
  8
SUNPOU
100
AcDbCircle
 10
12084.21703198605
 20
5695.715360473253
 30
0.0
 40
5.625
100
AcDbArc
 50
270.0
 51
90.0
  0
ARC
  5
1AB93
330
1A65A
100
AcDbEntity
  8
SUNPOU
100
AcDbCircle
 10
12084.21703198605
 20
5695.715360473253
 30
0.0
 40
5.625
100
AcDbArc
 50
270.0
 51
90.0
  0
ARC
  5
1AB94
330
1A65A
100
AcDbEntity
  8
SUNPOU
100
AcDbCircle
 10
12084.21703198605
 20
5695.715360473253
 30
0.0
 40
5.625
100
AcDbArc
 50
90.0
 51
270.0
  0
ARC
  5
1AB95
330
1A65A
100
AcDbEntity
  8
SUNPOU
100
AcDbCircle
 10
12084.21703198605
 20
5395.715360473253
 30
0.0
 40
5.625
100
AcDbArc
 50
90.0
 51
270.0
  0
ARC
  5
1AB96
330
1A65A
100
AcDbEntity
  8
SUNPOU
100
AcDbCircle
 10
12084.21703198605
 20
5395.715360473253
 30
0.0
 40
5.625
100
AcDbArc
 50
270.0
 51
90.0
  0
ARC
  5
1AB97
330
1A65A
100
AcDbEntity
  8
SUNPOU
100
AcDbCircle
 10
12294.21703198606
 20
5395.715360473253
 30
0.0
 40
5.625
100
AcDbArc
 50
90.0
 51
270.0
  0
ARC
  5
1AB98
330
1A65A
100
AcDbEntity
  8
SUNPOU
100
AcDbCircle
 10
12294.21703198606
 20
5395.715360473253
 30
0.0
 40
5.625
100
AcDbArc
 50
270.0
 51
90.0
  0
ARC
  5
1AB99
330
1A65A
100
AcDbEntity
  8
SUNPOU
100
AcDbCircle
 10
12294.21703198606
 20
9595.715360473251
 30
0.0
 40
5.625
100
AcDbArc
 50
270.0
 51
90.0
  0
ARC
  5
1AB9A
330
1A65A
100
AcDbEntity
  8
SUNPOU
100
AcDbCircle
 10
12294.21703198606
 20
9595.715360473251
 30
0.0
 40
5.625
100
AcDbArc
 50
90.0
 51
270.0
  0
ARC
  5
1AB9B
330
1A65A
100
AcDbEntity
  8
SUNPOU
100
AcDbCircle
 10
12273.40680314955
 20
3886.33703658456
 30
0.0
 40
5.625
100
AcDbArc
 50
270.0
 51
90.0
  0
ARC
  5
1AB9C
330
1A65A
100
AcDbEntity
  8
SUNPOU
100
AcDbCircle
 10
12273.40680314955
 20
3886.33703658456
 30
0.0
 40
5.625
100
AcDbArc
 50
90.0
 51
270.0
  0
ARC
  5
1AB9D
330
1A65A
100
AcDbEntity
  8
SUNPOU
100
AcDbCircle
 10
12273.40680314955
 20
3726.33703658456
 30
0.0
 40
5.625
100
AcDbArc
 50
90.0
 51
270.0
  0
ARC
  5
1AB9E
330
1A65A
100
AcDbEntity
  8
SUNPOU
100
AcDbCircle
 10
12273.40680314955
 20
3726.33703658456
 30
0.0
 40
5.625
100
AcDbArc
 50
270.0
 51
90.0
  0
ARC
  5
1AB9F
330
1A65A
100
AcDbEntity
  8
SUNPOU
100
AcDbCircle
 10
12273.40680314955
 20
3618.337036584561
 30
0.0
 40
5.625
100
AcDbArc
 50
270.0
 51
90.0
  0
ARC
  5
1ABA0
330
1A65A
100
AcDbEntity
  8
SUNPOU
100
AcDbCircle
 10
12273.40680314955
 20
3618.337036584561
 30
0.0
 40
5.625
100
AcDbArc
 50
90.0
 51
270.0
  0
ARC
  5
1ABA1
330
1A65A
100
AcDbEntity
  8
SUNPOU
100
AcDbCircle
 10
12273.40680314955
 20
3726.33703658456
 30
0.0
 40
5.625
100
AcDbArc
 50
90.0
 51
270.0
  0
ARC
  5
1ABA2
330
1A65A
100
AcDbEntity
  8
SUNPOU
100
AcDbCircle
 10
12273.40680314955
 20
3726.33703658456
 30
0.0
 40
5.625
100
AcDbArc
 50
270.0
 51
90.0
  0
ARC
  5
1ABA3
330
1A65A
100
AcDbEntity
  8
SUNPOU
100
AcDbCircle
 10
11861.33837406209
 20
2245.804976716085
 30
0.0
 40
5.625
100
AcDbArc
 50
0.0
 51
180.0
  0
ARC
  5
1ABA4
330
1A65A
100
AcDbEntity
  8
SUNPOU
100
AcDbCircle
 10
11861.33837406209
 20
2245.804976716085
 30
0.0
 40
5.625
100
AcDbArc
 50
180.0
 51
0.0
  0
ARC
  5
1ABA5
330
1A65A
100
AcDbEntity
  8
SUNPOU
100
AcDbCircle
 10
11781.33837406209
 20
2245.804976716085
 30
0.0
 40
5.625
100
AcDbArc
 50
180.0
 51
0.0
  0
ARC
  5
1ABA6
330
1A65A
100
AcDbEntity
  8
SUNPOU
100
AcDbCircle
 10
11781.33837406209
 20
2245.804976716085
 30
0.0
 40
5.625
100
AcDbArc
 50
0.0
 51
180.0
  0
ARC
  5
1ABA7
330
1A65A
100
AcDbEntity
  8
SUNPOU
100
AcDbCircle
 10
11781.33837406209
 20
2245.804976716085
 30
0.0
 40
5.625
100
AcDbArc
 50
180.0
 51
0.0
  0
ARC
  5
1ABA8
330
1A65A
100
AcDbEntity
  8
SUNPOU
100
AcDbCircle
 10
11781.33837406209
 20
2245.804976716085
 30
0.0
 40
5.625
100
AcDbArc
 50
0.0
 51
180.0
  0
ARC
  5
1ABA9
330
1A65A
100
AcDbEntity
  8
SUNPOU
100
AcDbCircle
 10
11301.33837406209
 20
2245.804976716085
 30
0.0
 40
5.625
100
AcDbArc
 50
0.0
 51
180.0
  0
ARC
  5
1ABAA
330
1A65A
100
AcDbEntity
  8
SUNPOU
100
AcDbCircle
 10
11301.33837406209
 20
2245.804976716085
 30
0.0
 40
5.625
100
AcDbArc
 50
180.0
 51
0.0
  0
ARC
  5
1ABAB
330
1A65A
100
AcDbEntity
  8
SUNPOU
100
AcDbCircle
 10
11221.33837406209
 20
2245.804976716085
 30
0.0
 40
5.625
100
AcDbArc
 50
180.0
 51
0.0
  0
ARC
  5
1ABAC
330
1A65A
100
AcDbEntity
  8
SUNPOU
100
AcDbCircle
 10
11221.33837406209
 20
2245.804976716085
 30
0.0
 40
5.625
100
AcDbArc
 50
0.0
 51
180.0
  0
ARC
  5
1ABAD
330
1A65A
100
AcDbEntity
  8
SUNPOU
100
AcDbCircle
 10
11301.33837406209
 20
2245.804976716085
 30
0.0
 40
5.625
100
AcDbArc
 50
0.0
 51
180.0
  0
ARC
  5
1ABAE
330
1A65A
100
AcDbEntity
  8
SUNPOU
100
AcDbCircle
 10
11301.33837406209
 20
2245.804976716085
 30
0.0
 40
5.625
100
AcDbArc
 50
180.0
 51
0.0
  0
ARC
  5
1ABAF
330
1A65A
100
AcDbEntity
  8
SUNPOU
100
AcDbCircle
 10
11861.33837406209
 20
2035.804976716086
 30
0.0
 40
5.625
100
AcDbArc
 50
180.0
 51
0.0
  0
ARC
  5
1ABB0
330
1A65A
100
AcDbEntity
  8
SUNPOU
100
AcDbCircle
 10
11861.33837406209
 20
2035.804976716086
 30
0.0
 40
5.625
100
AcDbArc
 50
0.0
 51
180.0
  0
ARC
  5
1ABB1
330
1A65A
100
AcDbEntity
  8
SUNPOU
100
AcDbCircle
 10
11221.33837406209
 20
2035.804976716086
 30
0.0
 40
5.625
100
AcDbArc
 50
0.0
 51
180.0
  0
ARC
  5
1ABB2
330
1A65A
100
AcDbEntity
  8
SUNPOU
100
AcDbCircle
 10
11221.33837406209
 20
2035.804976716086
 30
0.0
 40
5.625
100
AcDbArc
 50
180.0
 51
0.0
  0
ARC
  5
1ABB3
330
1A65A
100
AcDbEntity
  8
SUNPOU
100
AcDbCircle
 10
10918.33837406209
 20
2540.144344053149
 30
0.0
 40
5.625
100
AcDbArc
 50
90.0
 51
270.0
  0
ARC
  5
1ABB4
330
1A65A
100
AcDbEntity
  8
SUNPOU
100
AcDbCircle
 10
10918.33837406209
 20
2540.144344053149
 30
0.0
 40
5.625
100
AcDbArc
 50
270.0
 51
90.0
  0
ARC
  5
1ABB5
330
1A65A
100
AcDbEntity
  8
SUNPOU
100
AcDbCircle
 10
10918.33837406209
 20
2700.144344053149
 30
0.0
 40
5.625
100
AcDbArc
 50
270.0
 51
90.0
  0
ARC
  5
1ABB6
330
1A65A
100
AcDbEntity
  8
SUNPOU
100
AcDbCircle
 10
10918.33837406209
 20
2700.144344053149
 30
0.0
 40
5.625
100
AcDbArc
 50
90.0
 51
270.0
  0
ARC
  5
1ABB7
330
1A65A
100
AcDbEntity
  8
SUNPOU
100
AcDbCircle
 10
10918.33837406209
 20
2860.144344053149
 30
0.0
 40
5.625
100
AcDbArc
 50
270.0
 51
90.0
  0
ARC
  5
1ABB8
330
1A65A
100
AcDbEntity
  8
SUNPOU
100
AcDbCircle
 10
10918.33837406209
 20
2860.144344053149
 30
0.0
 40
5.625
100
AcDbArc
 50
90.0
 51
270.0
  0
ARC
  5
1ABB9
330
1A65A
100
AcDbEntity
  8
SUNPOU
100
AcDbCircle
 10
10918.33837406209
 20
2700.144344053149
 30
0.0
 40
5.625
100
AcDbArc
 50
90.0
 51
270.0
  0
ARC
  5
1ABBA
330
1A65A
100
AcDbEntity
  8
SUNPOU
100
AcDbCircle
 10
10918.33837406209
 20
2700.144344053149
 30
0.0
 40
5.625
100
AcDbArc
 50
270.0
 51
90.0
  0
ARC
  5
1ABBB
330
1A65A
100
AcDbEntity
  8
SUNPOU
100
AcDbCircle
 10
10708.33837406208
 20
2860.144344053149
 30
0.0
 40
5.625
100
AcDbArc
 50
270.0
 51
90.0
  0
ARC
  5
1ABBC
330
1A65A
100
AcDbEntity
  8
SUNPOU
100
AcDbCircle
 10
10708.33837406208
 20
2860.144344053149
 30
0.0
 40
5.625
100
AcDbArc
 50
90.0
 51
270.0
  0
ARC
  5
1ABBD
330
1A65A
100
AcDbEntity
  8
SUNPOU
100
AcDbCircle
 10
10708.33837406208
 20
2540.144344053149
 30
0.0
 40
5.625
100
AcDbArc
 50
90.0
 51
270.0
  0
ARC
  5
1ABBE
330
1A65A
100
AcDbEntity
  8
SUNPOU
100
AcDbCircle
 10
10708.33837406208
 20
2540.144344053149
 30
0.0
 40
5.625
100
AcDbArc
 50
270.0
 51
90.0
  0
ARC
  5
1ABBF
330
1A65A
100
AcDbEntity
  8
SUNPOU
100
AcDbCircle
 10
11861.33837406209
 20
3394.170862655057
 30
0.0
 40
5.625
100
AcDbArc
 50
0.0
 51
180.0
  0
ARC
  5
1ABC0
330
1A65A
100
AcDbEntity
  8
SUNPOU
100
AcDbCircle
 10
11861.33837406209
 20
3394.170862655057
 30
0.0
 40
5.625
100
AcDbArc
 50
180.0
 51
0.0
  0
ARC
  5
1ABC1
330
1A65A
100
AcDbEntity
  8
SUNPOU
100
AcDbCircle
 10
11781.33837406209
 20
3394.170862655057
 30
0.0
 40
5.625
100
AcDbArc
 50
180.0
 51
0.0
  0
ARC
  5
1ABC2
330
1A65A
100
AcDbEntity
  8
SUNPOU
100
AcDbCircle
 10
11781.33837406209
 20
3394.170862655057
 30
0.0
 40
5.625
100
AcDbArc
 50
0.0
 51
180.0
  0
ARC
  5
1ABC3
330
1A65A
100
AcDbEntity
  8
SUNPOU
100
AcDbCircle
 10
11781.33837406209
 20
3394.170862655057
 30
0.0
 40
5.625
100
AcDbArc
 50
180.0
 51
0.0
  0
ARC
  5
1ABC4
330
1A65A
100
AcDbEntity
  8
SUNPOU
100
AcDbCircle
 10
11781.33837406209
 20
3394.170862655057
 30
0.0
 40
5.625
100
AcDbArc
 50
0.0
 51
180.0
  0
ARC
  5
1ABC5
330
1A65A
100
AcDbEntity
  8
SUNPOU
100
AcDbCircle
 10
11301.33837406209
 20
3394.170862655057
 30
0.0
 40
5.625
100
AcDbArc
 50
0.0
 51
180.0
  0
ARC
  5
1ABC6
330
1A65A
100
AcDbEntity
  8
SUNPOU
100
AcDbCircle
 10
11301.33837406209
 20
3394.170862655057
 30
0.0
 40
5.625
100
AcDbArc
 50
180.0
 51
0.0
  0
ARC
  5
1ABC7
330
1A65A
100
AcDbEntity
  8
SUNPOU
100
AcDbCircle
 10
11221.33837406209
 20
3394.170862655057
 30
0.0
 40
5.625
100
AcDbArc
 50
180.0
 51
0.0
  0
ARC
  5
1ABC8
330
1A65A
100
AcDbEntity
  8
SUNPOU
100
AcDbCircle
 10
11221.33837406209
 20
3394.170862655057
 30
0.0
 40
5.625
100
AcDbArc
 50
0.0
 51
180.0
  0
ARC
  5
1ABC9
330
1A65A
100
AcDbEntity
  8
SUNPOU
100
AcDbCircle
 10
11301.33837406209
 20
3394.170862655057
 30
0.0
 40
5.625
100
AcDbArc
 50
0.0
 51
180.0
  0
ARC
  5
1ABCA
330
1A65A
100
AcDbEntity
  8
SUNPOU
100
AcDbCircle
 10
11301.33837406209
 20
3394.170862655057
 30
0.0
 40
5.625
100
AcDbArc
 50
180.0
 51
0.0
  0
ARC
  5
1ABCB
330
1A65A
100
AcDbEntity
  8
SUNPOU
100
AcDbCircle
 10
11861.33837406209
 20
3184.170862655058
 30
0.0
 40
5.625
100
AcDbArc
 50
180.0
 51
0.0
  0
ARC
  5
1ABCC
330
1A65A
100
AcDbEntity
  8
SUNPOU
100
AcDbCircle
 10
11861.33837406209
 20
3184.170862655058
 30
0.0
 40
5.625
100
AcDbArc
 50
0.0
 51
180.0
  0
ARC
  5
1ABCD
330
1A65A
100
AcDbEntity
  8
SUNPOU
100
AcDbCircle
 10
11221.33837406209
 20
3184.170862655058
 30
0.0
 40
5.625
100
AcDbArc
 50
0.0
 51
180.0
  0
ARC
  5
1ABCE
330
1A65A
100
AcDbEntity
  8
SUNPOU
100
AcDbCircle
 10
11221.33837406209
 20
3184.170862655058
 30
0.0
 40
5.625
100
AcDbArc
 50
180.0
 51
0.0
  0
ARC
  5
1ABCF
330
1A65A
100
AcDbEntity
  8
SUNPOU
100
AcDbCircle
 10
9220.123251791108
 20
2148.684839419604
 30
0.0
 40
5.625
100
AcDbArc
 50
180.0
 51
0.0
  0
ARC
  5
1ABD0
330
1A65A
100
AcDbEntity
  8
SUNPOU
100
AcDbCircle
 10
9220.123251791108
 20
2148.684839419604
 30
0.0
 40
5.625
100
AcDbArc
 50
0.0
 51
180.0
  0
ARC
  5
1ABD1
330
1A65A
100
AcDbEntity
  8
SUNPOU
100
AcDbCircle
 10
7940.12325179111
 20
2148.684839419604
 30
0.0
 40
5.625
100
AcDbArc
 50
0.0
 51
180.0
  0
ARC
  5
1ABD2
330
1A65A
100
AcDbEntity
  8
SUNPOU
100
AcDbCircle
 10
7940.12325179111
 20
2148.684839419604
 30
0.0
 40
5.625
100
AcDbArc
 50
180.0
 51
0.0
  0
ARC
  5
1ABD3
330
1A65A
100
AcDbEntity
  8
SUNPOU
100
AcDbCircle
 10
9380.123251791109
 20
1938.684839419604
 30
0.0
 40
5.625
100
AcDbArc
 50
180.0
 51
0.0
  0
ARC
  5
1ABD4
330
1A65A
100
AcDbEntity
  8
SUNPOU
100
AcDbCircle
 10
9380.123251791109
 20
1938.684839419604
 30
0.0
 40
5.625
100
AcDbArc
 50
0.0
 51
180.0
  0
ARC
  5
1ABD5
330
1A65A
100
AcDbEntity
  8
SUNPOU
100
AcDbCircle
 10
7780.123251791109
 20
1938.684839419604
 30
0.0
 40
5.625
100
AcDbArc
 50
0.0
 51
180.0
  0
ARC
  5
1ABD6
330
1A65A
100
AcDbEntity
  8
SUNPOU
100
AcDbCircle
 10
7780.123251791109
 20
1938.684839419604
 30
0.0
 40
5.625
100
AcDbArc
 50
180.0
 51
0.0
  0
ARC
  5
1ABD7
330
1A65A
100
AcDbEntity
  8
SUNPOU
100
AcDbCircle
 10
7660.769855790352
 20
3191.0848394196
 30
0.0
 40
5.625
100
AcDbArc
 50
90.0
 51
270.0
  0
ARC
  5
1ABD8
330
1A65A
100
AcDbEntity
  8
SUNPOU
100
AcDbCircle
 10
7660.769855790352
 20
3191.0848394196
 30
0.0
 40
5.625
100
AcDbArc
 50
270.0
 51
90.0
  0
ARC
  5
1ABD9
330
1A65A
100
AcDbEntity
  8
SUNPOU
100
AcDbCircle
 10
7660.769855790352
 20
3319.084839419605
 30
0.0
 40
5.625
100
AcDbArc
 50
270.0
 51
90.0
  0
ARC
  5
1ABDA
330
1A65A
100
AcDbEntity
  8
SUNPOU
100
AcDbCircle
 10
7660.769855790352
 20
3319.084839419605
 30
0.0
 40
5.625
100
AcDbArc
 50
90.0
 51
270.0
  0
ARC
  5
1ABDB
330
1A65A
100
AcDbEntity
  8
SUNPOU
100
AcDbCircle
 10
7660.769855790352
 20
3456.684839419605
 30
0.0
 40
5.625
100
AcDbArc
 50
270.0
 51
90.0
  0
ARC
  5
1ABDC
330
1A65A
100
AcDbEntity
  8
SUNPOU
100
AcDbCircle
 10
7660.769855790352
 20
3456.684839419605
 30
0.0
 40
5.625
100
AcDbArc
 50
90.0
 51
270.0
  0
ARC
  5
1ABDD
330
1A65A
100
AcDbEntity
  8
SUNPOU
100
AcDbCircle
 10
7660.769855790352
 20
3319.084839419603
 30
0.0
 40
5.625
100
AcDbArc
 50
90.0
 51
270.0
  0
ARC
  5
1ABDE
330
1A65A
100
AcDbEntity
  8
SUNPOU
100
AcDbCircle
 10
7660.769855790352
 20
3319.084839419603
 30
0.0
 40
5.625
100
AcDbArc
 50
270.0
 51
90.0
  0
ARC
  5
1ABDF
330
1A65A
100
AcDbEntity
  8
SUNPOU
100
AcDbCircle
 10
7660.769855790352
 20
3191.0848394196
 30
0.0
 40
5.625
100
AcDbArc
 50
270.0
 51
90.0
  0
ARC
  5
1ABE0
330
1A65A
100
AcDbEntity
  8
SUNPOU
100
AcDbCircle
 10
7660.769855790352
 20
3191.0848394196
 30
0.0
 40
5.625
100
AcDbArc
 50
90.0
 51
270.0
  0
ARC
  5
1ABE1
330
1A65A
100
AcDbEntity
  8
SUNPOU
100
AcDbCircle
 10
7660.769855790352
 20
2711.084839419607
 30
0.0
 40
5.625
100
AcDbArc
 50
90.0
 51
270.0
  0
ARC
  5
1ABE2
330
1A65A
100
AcDbEntity
  8
SUNPOU
100
AcDbCircle
 10
7660.769855790352
 20
2711.084839419607
 30
0.0
 40
5.625
100
AcDbArc
 50
270.0
 51
90.0
  0
ARC
  5
1ABE3
330
1A65A
100
AcDbEntity
  8
SUNPOU
100
AcDbCircle
 10
7660.769855790352
 20
2551.084839419603
 30
0.0
 40
5.625
100
AcDbArc
 50
90.0
 51
270.0
  0
ARC
  5
1ABE4
330
1A65A
100
AcDbEntity
  8
SUNPOU
100
AcDbCircle
 10
7660.769855790352
 20
2551.084839419603
 30
0.0
 40
5.625
100
AcDbArc
 50
270.0
 51
90.0
  0
ARC
  5
1ABE5
330
1A65A
100
AcDbEntity
  8
SUNPOU
100
AcDbCircle
 10
7660.769855790352
 20
2711.084839419607
 30
0.0
 40
5.625
100
AcDbArc
 50
270.0
 51
90.0
  0
ARC
  5
1ABE6
330
1A65A
100
AcDbEntity
  8
SUNPOU
100
AcDbCircle
 10
7660.769855790352
 20
2711.084839419607
 30
0.0
 40
5.625
100
AcDbArc
 50
90.0
 51
270.0
  0
ARC
  5
1ABE7
330
1A65A
100
AcDbEntity
  8
SUNPOU
100
AcDbCircle
 10
7450.769855790351
 20
2551.084839419603
 30
0.0
 40
5.625
100
AcDbArc
 50
90.0
 51
270.0
  0
ARC
  5
1ABE8
330
1A65A
100
AcDbEntity
  8
SUNPOU
100
AcDbCircle
 10
7450.769855790351
 20
2551.084839419603
 30
0.0
 40
5.625
100
AcDbArc
 50
270.0
 51
90.0
  0
ARC
  5
1ABE9
330
1A65A
100
AcDbEntity
  8
SUNPOU
100
AcDbCircle
 10
7450.769855790351
 20
3456.684839419605
 30
0.0
 40
5.625
100
AcDbArc
 50
270.0
 51
90.0
  0
ARC
  5
1ABEA
330
1A65A
100
AcDbEntity
  8
SUNPOU
100
AcDbCircle
 10
7450.769855790351
 20
3456.684839419605
 30
0.0
 40
5.625
100
AcDbArc
 50
90.0
 51
270.0
  0
ARC
  5
1ABEB
330
1A65A
100
AcDbEntity
  8
SUNPOU
100
AcDbCircle
 10
5279.797051267464
 20
2148.684839419601
 30
0.0
 40
5.625
100
AcDbArc
 50
180.0
 51
0.0
  0
ARC
  5
1ABEC
330
1A65A
100
AcDbEntity
  8
SUNPOU
100
AcDbCircle
 10
5279.797051267464
 20
2148.684839419601
 30
0.0
 40
5.625
100
AcDbArc
 50
0.0
 51
180.0
  0
ARC
  5
1ABED
330
1A65A
100
AcDbEntity
  8
SUNPOU
100
AcDbCircle
 10
4319.797051267463
 20
2148.684839419601
 30
0.0
 40
5.625
100
AcDbArc
 50
0.0
 51
180.0
  0
ARC
  5
1ABEE
330
1A65A
100
AcDbEntity
  8
SUNPOU
100
AcDbCircle
 10
4319.797051267463
 20
2148.684839419601
 30
0.0
 40
5.625
100
AcDbArc
 50
180.0
 51
0.0
  0
ARC
  5
1ABEF
330
1A65A
100
AcDbEntity
  8
SUNPOU
100
AcDbCircle
 10
5439.797051267461
 20
1938.6848394196
 30
0.0
 40
5.625
100
AcDbArc
 50
180.0
 51
0.0
  0
ARC
  5
1ABF0
330
1A65A
100
AcDbEntity
  8
SUNPOU
100
AcDbCircle
 10
5439.797051267461
 20
1938.6848394196
 30
0.0
 40
5.625
100
AcDbArc
 50
0.0
 51
180.0
  0
ARC
  5
1ABF1
330
1A65A
100
AcDbEntity
  8
SUNPOU
100
AcDbCircle
 10
4159.797051267462
 20
1938.6848394196
 30
0.0
 40
5.625
100
AcDbArc
 50
0.0
 51
180.0
  0
ARC
  5
1ABF2
330
1A65A
100
AcDbEntity
  8
SUNPOU
100
AcDbCircle
 10
4159.797051267462
 20
1938.6848394196
 30
0.0
 40
5.625
100
AcDbArc
 50
180.0
 51
0.0
  0
ARC
  5
1ABF3
330
1A65A
100
AcDbEntity
  8
SUNPOU
100
AcDbCircle
 10
3460.443655266704
 20
3456.684839419605
 30
0.0
 40
5.625
100
AcDbArc
 50
90.0
 51
270.0
  0
ARC
  5
1ABF4
330
1A65A
100
AcDbEntity
  8
SUNPOU
100
AcDbCircle
 10
3460.443655266704
 20
3456.684839419605
 30
0.0
 40
5.625
100
AcDbArc
 50
270.0
 51
90.0
  0
ARC
  5
1ABF5
330
1A65A
100
AcDbEntity
  8
SUNPOU
100
AcDbCircle
 10
3460.443655266704
 20
3376.684839419604
 30
0.0
 40
5.625
100
AcDbArc
 50
270.0
 51
90.0
  0
ARC
  5
1ABF6
330
1A65A
100
AcDbEntity
  8
SUNPOU
100
AcDbCircle
 10
3460.443655266704
 20
3376.684839419604
 30
0.0
 40
5.625
100
AcDbArc
 50
90.0
 51
270.0
  0
ARC
  5
1ABF7
330
1A65A
100
AcDbEntity
  8
SUNPOU
100
AcDbCircle
 10
3880.443655266708
 20
3191.084839419597
 30
0.0
 40
5.625
100
AcDbArc
 50
90.0
 51
270.0
  0
ARC
  5
1ABF8
330
1A65A
100
AcDbEntity
  8
SUNPOU
100
AcDbCircle
 10
3880.443655266708
 20
3191.084839419597
 30
0.0
 40
5.625
100
AcDbArc
 50
270.0
 51
90.0
  0
ARC
  5
1ABF9
330
1A65A
100
AcDbEntity
  8
SUNPOU
100
AcDbCircle
 10
3880.443655266708
 20
3319.084839419601
 30
0.0
 40
5.625
100
AcDbArc
 50
270.0
 51
90.0
  0
ARC
  5
1ABFA
330
1A65A
100
AcDbEntity
  8
SUNPOU
100
AcDbCircle
 10
3880.443655266708
 20
3319.084839419601
 30
0.0
 40
5.625
100
AcDbArc
 50
90.0
 51
270.0
  0
ARC
  5
1ABFB
330
1A65A
100
AcDbEntity
  8
SUNPOU
100
AcDbCircle
 10
3880.443655266704
 20
3456.684839419605
 30
0.0
 40
5.625
100
AcDbArc
 50
270.0
 51
90.0
  0
ARC
  5
1ABFC
330
1A65A
100
AcDbEntity
  8
SUNPOU
100
AcDbCircle
 10
3880.443655266704
 20
3456.684839419605
 30
0.0
 40
5.625
100
AcDbArc
 50
90.0
 51
270.0
  0
ARC
  5
1ABFD
330
1A65A
100
AcDbEntity
  8
SUNPOU
100
AcDbCircle
 10
3880.443655266704
 20
3319.084839419603
 30
0.0
 40
5.625
100
AcDbArc
 50
90.0
 51
270.0
  0
ARC
  5
1ABFE
330
1A65A
100
AcDbEntity
  8
SUNPOU
100
AcDbCircle
 10
3880.443655266704
 20
3319.084839419603
 30
0.0
 40
5.625
100
AcDbArc
 50
270.0
 51
90.0
  0
ARC
  5
1ABFF
330
1A65A
100
AcDbEntity
  8
SUNPOU
100
AcDbCircle
 10
3880.443655266704
 20
3191.084839419598
 30
0.0
 40
5.625
100
AcDbArc
 50
270.0
 51
90.0
  0
ARC
  5
1AC00
330
1A65A
100
AcDbEntity
  8
SUNPOU
100
AcDbCircle
 10
3880.443655266704
 20
3191.084839419598
 30
0.0
 40
5.625
100
AcDbArc
 50
90.0
 51
270.0
  0
ARC
  5
1AC01
330
1A65A
100
AcDbEntity
  8
SUNPOU
100
AcDbCircle
 10
3880.443655266704
 20
2711.084839419603
 30
0.0
 40
5.625
100
AcDbArc
 50
90.0
 51
270.0
  0
ARC
  5
1AC02
330
1A65A
100
AcDbEntity
  8
SUNPOU
100
AcDbCircle
 10
3880.443655266704
 20
2711.084839419603
 30
0.0
 40
5.625
100
AcDbArc
 50
270.0
 51
90.0
  0
ARC
  5
1AC03
330
1A65A
100
AcDbEntity
  8
SUNPOU
100
AcDbCircle
 10
3880.443655266704
 20
2551.084839419603
 30
0.0
 40
5.625
100
AcDbArc
 50
90.0
 51
270.0
  0
ARC
  5
1AC04
330
1A65A
100
AcDbEntity
  8
SUNPOU
100
AcDbCircle
 10
3880.443655266704
 20
2551.084839419603
 30
0.0
 40
5.625
100
AcDbArc
 50
270.0
 51
90.0
  0
ARC
  5
1AC05
330
1A65A
100
AcDbEntity
  8
SUNPOU
100
AcDbCircle
 10
3880.443655266704
 20
2711.084839419603
 30
0.0
 40
5.625
100
AcDbArc
 50
270.0
 51
90.0
  0
ARC
  5
1AC06
330
1A65A
100
AcDbEntity
  8
SUNPOU
100
AcDbCircle
 10
3880.443655266704
 20
2711.084839419603
 30
0.0
 40
5.625
100
AcDbArc
 50
90.0
 51
270.0
  0
ARC
  5
1AC07
330
1A65A
100
AcDbEntity
  8
SUNPOU
100
AcDbCircle
 10
3670.443655266705
 20
2551.084839419603
 30
0.0
 40
5.625
100
AcDbArc
 50
90.0
 51
270.0
  0
ARC
  5
1AC08
330
1A65A
100
AcDbEntity
  8
SUNPOU
100
AcDbCircle
 10
3670.443655266705
 20
2551.084839419603
 30
0.0
 40
5.625
100
AcDbArc
 50
270.0
 51
90.0
  0
ARC
  5
1AC09
330
1A65A
100
AcDbEntity
  8
SUNPOU
100
AcDbCircle
 10
3670.443655266705
 20
3456.684839419605
 30
0.0
 40
5.625
100
AcDbArc
 50
270.0
 51
90.0
  0
ARC
  5
1AC0A
330
1A65A
100
AcDbEntity
  8
SUNPOU
100
AcDbCircle
 10
3670.443655266705
 20
3456.684839419605
 30
0.0
 40
5.625
100
AcDbArc
 50
90.0
 51
270.0
  0
ARC
  5
1AC0B
330
1A65A
100
AcDbEntity
  8
SUNPOU
100
AcDbCircle
 10
4319.797051267463
 20
4130.485411556192
 30
0.0
 40
5.625
100
AcDbArc
 50
0.0
 51
180.0
  0
ARC
  5
1AC0C
330
1A65A
100
AcDbEntity
  8
SUNPOU
100
AcDbCircle
 10
4319.797051267463
 20
4130.485411556192
 30
0.0
 40
5.625
100
AcDbArc
 50
180.0
 51
0.0
  0
ARC
  5
1AC0D
330
1A65A
100
AcDbEntity
  8
SUNPOU
100
AcDbCircle
 10
4799.797051267463
 20
4130.485411556192
 30
0.0
 40
5.625
100
AcDbArc
 50
180.0
 51
0.0
  0
ARC
  5
1AC0E
330
1A65A
100
AcDbEntity
  8
SUNPOU
100
AcDbCircle
 10
4799.797051267463
 20
4130.485411556192
 30
0.0
 40
5.625
100
AcDbArc
 50
0.0
 51
180.0
  0
ARC
  5
1AC0F
330
1A65A
100
AcDbEntity
  8
SUNPOU
100
AcDbCircle
 10
9434.21703198606
 20
5395.715360473253
 30
0.0
 40
5.625
100
AcDbArc
 50
90.0
 51
270.0
  0
ARC
  5
1AC10
330
1A65A
100
AcDbEntity
  8
SUNPOU
100
AcDbCircle
 10
9434.21703198606
 20
5395.715360473253
 30
0.0
 40
5.625
100
AcDbArc
 50
270.0
 51
90.0
  0
ARC
  5
1AC11
330
1A65A
100
AcDbEntity
  8
SUNPOU
100
AcDbCircle
 10
9434.21703198606
 20
5995.715360473255
 30
0.0
 40
5.625
100
AcDbArc
 50
270.0
 51
90.0
  0
ARC
  5
1AC12
330
1A65A
100
AcDbEntity
  8
SUNPOU
100
AcDbCircle
 10
9434.21703198606
 20
5995.715360473255
 30
0.0
 40
5.625
100
AcDbArc
 50
90.0
 51
270.0
  0
ARC
  5
1AC13
330
1A65A
100
AcDbEntity
  8
SUNPOU
100
AcDbCircle
 10
11684.21703198605
 20
10205.71536047325
 30
0.0
 40
5.625
100
AcDbArc
 50
180.0
 51
0.0
  0
ARC
  5
1AC14
330
1A65A
100
AcDbEntity
  8
SUNPOU
100
AcDbCircle
 10
11684.21703198605
 20
10205.71536047325
 30
0.0
 40
5.625
100
AcDbArc
 50
0.0
 51
180.0
  0
ARC
  5
1AC15
330
1A65A
100
AcDbEntity
  8
SUNPOU
100
AcDbCircle
 10
8834.21703198606
 20
9995.715360473253
 30
0.0
 40
5.625
100
AcDbArc
 50
0.0
 51
180.0
  0
ARC
  5
1AC16
330
1A65A
100
AcDbEntity
  8
SUNPOU
100
AcDbCircle
 10
8834.21703198606
 20
9995.715360473253
 30
0.0
 40
5.625
100
AcDbArc
 50
180.0
 51
0.0
  0
ARC
  5
1AC17
330
1A65A
100
AcDbEntity
  8
SUNPOU
100
AcDbCircle
 10
11284.21703198606
 20
9995.715360473253
 30
0.0
 40
5.625
100
AcDbArc
 50
180.0
 51
0.0
  0
ARC
  5
1AC18
330
1A65A
100
AcDbEntity
  8
SUNPOU
100
AcDbCircle
 10
11284.21703198606
 20
9995.715360473253
 30
0.0
 40
5.625
100
AcDbArc
 50
0.0
 51
180.0
  0
ARC
  5
1AC19
330
1A65A
100
AcDbEntity
  8
SUNPOU
100
AcDbCircle
 10
11684.21703198605
 20
9995.715360473253
 30
0.0
 40
5.625
100
AcDbArc
 50
180.0
 51
0.0
  0
ARC
  5
1AC1A
330
1A65A
100
AcDbEntity
  8
SUNPOU
100
AcDbCircle
 10
11684.21703198605
 20
9995.715360473253
 30
0.0
 40
5.625
100
AcDbArc
 50
0.0
 51
180.0
  0
ARC
  5
1AC1B
330
1A65A
100
AcDbEntity
  8
SUNPOU
100
AcDbCircle
 10
11284.21703198606
 20
9995.715360473253
 30
0.0
 40
5.625
100
AcDbArc
 50
0.0
 51
180.0
  0
ARC
  5
1AC1C
330
1A65A
100
AcDbEntity
  8
SUNPOU
100
AcDbCircle
 10
11284.21703198606
 20
9995.715360473253
 30
0.0
 40
5.625
100
AcDbArc
 50
180.0
 51
0.0
  0
ARC
  5
1AC1D
330
1A65A
100
AcDbEntity
  8
SUNPOU
100
AcDbCircle
 10
7834.21703198606
 20
8695.715360473251
 30
0.0
 40
5.625
100
AcDbArc
 50
180.0
 51
0.0
  0
ARC
  5
1AC1E
330
1A65A
100
AcDbEntity
  8
SUNPOU
100
AcDbCircle
 10
7834.21703198606
 20
8695.715360473251
 30
0.0
 40
5.625
100
AcDbArc
 50
0.0
 51
180.0
  0
ARC
  5
1AC1F
330
1A65A
100
AcDbEntity
  8
SUNPOU
100
AcDbCircle
 10
9134.217031986059
 20
6245.715360473253
 30
0.0
 40
5.625
100
AcDbArc
 50
180.0
 51
0.0
  0
ARC
  5
1AC20
330
1A65A
100
AcDbEntity
  8
SUNPOU
100
AcDbCircle
 10
9134.217031986059
 20
6245.715360473253
 30
0.0
 40
5.625
100
AcDbArc
 50
0.0
 51
180.0
  0
ARC
  5
1AC21
330
1A65A
100
AcDbEntity
  8
SUNPOU
100
AcDbCircle
 10
8534.217031986059
 20
6245.715360473253
 30
0.0
 40
5.625
100
AcDbArc
 50
0.0
 51
180.0
  0
ARC
  5
1AC22
330
1A65A
100
AcDbEntity
  8
SUNPOU
100
AcDbCircle
 10
8534.217031986059
 20
6245.715360473253
 30
0.0
 40
5.625
100
AcDbArc
 50
180.0
 51
0.0
  0
ARC
  5
1AC23
330
1A65A
100
AcDbEntity
  8
SUNPOU
100
AcDbCircle
 10
9234.217031986061
 20
8065.715360473253
 30
0.0
 40
5.625
100
AcDbArc
 50
180.0
 51
0.0
  0
ARC
  5
1AC24
330
1A65A
100
AcDbEntity
  8
SUNPOU
100
AcDbCircle
 10
9234.217031986061
 20
8065.715360473253
 30
0.0
 40
5.625
100
AcDbArc
 50
0.0
 51
180.0
  0
ARC
  5
1AC25
330
1A65A
100
AcDbEntity
  8
SUNPOU
100
AcDbCircle
 10
8434.21703198606
 20
8065.715360473253
 30
0.0
 40
5.625
100
AcDbArc
 50
0.0
 51
180.0
  0
ARC
  5
1AC26
330
1A65A
100
AcDbEntity
  8
SUNPOU
100
AcDbCircle
 10
8434.21703198606
 20
8065.715360473253
 30
0.0
 40
5.625
100
AcDbArc
 50
180.0
 51
0.0
  0
ARC
  5
1AC27
330
1A65A
100
AcDbEntity
  8
SUNPOU
100
AcDbCircle
 10
9534.217031986059
 20
7095.715360473253
 30
0.0
 40
5.625
100
AcDbArc
 50
90.0
 51
270.0
  0
ARC
  5
1AC28
330
1A65A
100
AcDbEntity
  8
SUNPOU
100
AcDbCircle
 10
9534.217031986059
 20
7095.715360473253
 30
0.0
 40
5.625
100
AcDbArc
 50
270.0
 51
90.0
  0
ARC
  5
1AC29
330
1A65A
100
AcDbEntity
  8
SUNPOU
100
AcDbCircle
 10
9534.217031986059
 20
7895.715360473253
 30
0.0
 40
5.625
100
AcDbArc
 50
270.0
 51
90.0
  0
ARC
  5
1AC2A
330
1A65A
100
AcDbEntity
  8
SUNPOU
100
AcDbCircle
 10
9534.217031986059
 20
7895.715360473253
 30
0.0
 40
5.625
100
AcDbArc
 50
90.0
 51
270.0
  0
ARC
  5
1AC2B
330
1A65A
100
AcDbEntity
  8
HIKIDASHI
100
AcDbCircle
 10
7368.753186178046
 20
1889.069567942468
 30
0.0
 40
74.66417910452284
100
AcDbArc
 50
164.8596129850915
 51
237.504500294165
  0
ARC
  5
1AC2C
330
1A65A
100
AcDbEntity
  8
HIKIDASHI
100
AcDbCircle
 10
7305.32939213174
 20
1906.230591426951
 30
0.0
 40
8.959701492542745
100
AcDbArc
 50
15.14038701503429
 51
164.8596129849655
  0
ARC
  5
1AC2D
330
1A65A
100
AcDbEntity
  8
HIKIDASHI
100
AcDbCircle
 10
3681.171434554746
 20
1889.069567942463
 30
0.0
 40
74.66417910452284
100
AcDbArc
 50
164.859612985099
 51
237.5045002941407
  0
ARC
  5
1AC2E
330
1A65A
100
AcDbEntity
  8
HIKIDASHI
100
AcDbCircle
 10
3617.747640508442
 20
1906.230591426947
 30
0.0
 40
8.959701492542745
100
AcDbArc
 50
15.14038701503429
 51
164.8596129849655
  0
LINE
  5
1AC2F
330
1A65A
100
AcDbEntity
  8
HIKIDASHI
100
AcDbLine
 10
11865.19119696312
 20
2619.990092191335
 30
0.0
 11
12256.64239875644
 21
2245.804976716085
 31
0.0
1001
ACAD
1000
DSTYLE
1002
{
1070
   147
1040
1.0
1070
    77
1070
     0
1002
}
  0
LINE
  5
1AC30
330
1A65A
100
AcDbEntity
  8
HIKIDASHI
100
AcDbLine
 10
11874.40432936103
 20
2629.628347697202
 30
0.0
 11
11807.36166392793
 21
2675.268886578793
 31
0.0
  0
LINE
  5
1AC31
330
1A65A
100
AcDbEntity
  8
HIKIDASHI
100
AcDbLine
 10
11807.36166392793
 20
2675.268886578793
 30
0.0
 11
11855.97806456522
 21
2610.351836685468
 31
0.0
  0
SOLID
  5
1AC32
330
1A65A
100
AcDbEntity
  8
HIKIDASHI
100
AcDbTrace
 10
11874.40432936103
 20
2629.628347697202
 30
0.0
 11
11855.97806456522
 21
2610.351836685468
 31
0.0
 12
11807.36166392793
 22
2675.268886578793
 32
0.0
 13
11807.36166392793
 23
2675.268886578793
 33
0.0
  0
LINE
  5
1AC33
330
1A65A
100
AcDbEntity
  8
HIKIDASHI
100
AcDbLine
 10
11855.97806456522
 20
2610.351836685468
 30
0.0
 11
11874.40432936103
 21
2629.628347697202
 31
0.0
  0
LINE
  5
1AC34
330
1A65A
100
AcDbEntity
  8
HIKIDASHI
100
AcDbLine
 10
11918.49428872015
 20
2916.119351150967
 30
0.0
 11
12073.23363223807
 21
3067.661600164834
 31
0.0
1001
ACAD
1000
DSTYLE
1002
{
1070
   147
1040
1.0
1070
    77
1070
     0
1002
}
  0
LINE
  5
1AC35
330
1A65A
100
AcDbEntity
  8
HIKIDASHI
100
AcDbLine
 10
11909.16512087051
 20
2925.645336927309
 30
0.0
 11
11861.33837406209
 21
2860.144344053149
 31
0.0
  0
LINE
  5
1AC36
330
1A65A
100
AcDbEntity
  8
HIKIDASHI
100
AcDbLine
 10
11861.33837406209
 20
2860.144344053149
 30
0.0
 11
11927.82345656978
 21
2906.593365374622
 31
0.0
  0
SOLID
  5
1AC37
330
1A65A
100
AcDbEntity
  8
HIKIDASHI
100
AcDbTrace
 10
11909.16512087051
 20
2925.645336927309
 30
0.0
 11
11927.82345656978
 21
2906.593365374622
 31
0.0
 12
11861.33837406209
 22
2860.144344053149
 32
0.0
 13
11861.33837406209
 23
2860.144344053149
 33
0.0
  0
LINE
  5
1AC38
330
1A65A
100
AcDbEntity
  8
HIKIDASHI
100
AcDbLine
 10
11927.82345656978
 20
2906.593365374622
 30
0.0
 11
11909.16512087051
 21
2925.645336927309
 31
0.0
  0
LINE
  5
1AC39
330
1A65A
100
AcDbEntity
  8
HIKIDASHI
100
AcDbLine
 10
8349.997383446192
 20
2789.774820102782
 30
0.0
 11
7568.025406890003
 21
1938.684839419604
 31
0.0
1001
ACAD
1000
DSTYLE
1002
{
1070
   147
1040
1.0
1070
    77
1070
     0
1002
}
  0
LINE
  5
1AC3A
330
1A65A
100
AcDbEntity
  8
HIKIDASHI
100
AcDbLine
 10
8359.815719998994
 20
2780.753842045294
 30
0.0
 11
8404.12325179111
 21
2848.684839419603
 31
0.0
  0
LINE
  5
1AC3B
330
1A65A
100
AcDbEntity
  8
HIKIDASHI
100
AcDbLine
 10
8404.12325179111
 20
2848.684839419603
 30
0.0
 11
8340.179046893387
 21
2798.795798160268
 31
0.0
  0
SOLID
  5
1AC3C
330
1A65A
100
AcDbEntity
  8
HIKIDASHI
100
AcDbTrace
 10
8359.815719998994
 20
2780.753842045294
 30
0.0
 11
8340.179046893387
 21
2798.795798160268
 31
0.0
 12
8404.12325179111
 22
2848.684839419603
 32
0.0
 13
8404.12325179111
 23
2848.684839419603
 33
0.0
  0
LINE
  5
1AC3D
330
1A65A
100
AcDbEntity
  8
HIKIDASHI
100
AcDbLine
 10
8340.179046893387
 20
2798.795798160268
 30
0.0
 11
8359.815719998994
 21
2780.753842045294
 31
0.0
  0
ARC
  5
1AC3E
330
1A65A
100
AcDbEntity
  8
HIKIDASHI
100
AcDbCircle
 10
7243.085124621173
 20
1890.249695302057
 30
0.0
 40
74.66417910452232
100
AcDbArc
 50
301.7712278330705
 51
15.14038701490951
  0
LINE
  5
1AC3F
330
1A65A
100
AcDbEntity
  8
HIKIDASHI
100
AcDbLine
 10
4739.144060259712
 20
3002.326297915248
 30
0.0
 11
3880.443655266704
 21
1938.6848394196
 31
0.0
1001
ACAD
1000
DSTYLE
1002
{
1070
   147
1040
1.0
1070
    77
1070
     0
1002
}
  0
LINE
  5
1AC40
330
1A65A
100
AcDbEntity
  8
HIKIDASHI
100
AcDbLine
 10
4749.518490491424
 20
2993.950799413955
 30
0.0
 11
4789.397051267463
 21
3064.572879305512
 31
0.0
  0
LINE
  5
1AC41
330
1A65A
100
AcDbEntity
  8
HIKIDASHI
100
AcDbLine
 10
4789.397051267463
 20
3064.572879305512
 30
0.0
 11
4728.769630028001
 21
3010.701796416539
 31
0.0
  0
SOLID
  5
1AC42
330
1A65A
100
AcDbEntity
  8
HIKIDASHI
100
AcDbTrace
 10
4749.518490491424
 20
2993.950799413955
 30
0.0
 11
4728.769630028001
 21
3010.701796416539
 31
0.0
 12
4789.397051267463
 22
3064.572879305512
 32
0.0
 13
4789.397051267463
 23
3064.572879305512
 33
0.0
  0
LINE
  5
1AC43
330
1A65A
100
AcDbEntity
  8
HIKIDASHI
100
AcDbLine
 10
4728.769630028001
 20
3010.701796416539
 30
0.0
 11
4749.518490491424
 21
2993.950799413955
 31
0.0
  0
ARC
  5
1AC44
330
1A65A
100
AcDbEntity
  8
HIKIDASHI
100
AcDbCircle
 10
3555.503372997875
 20
1890.249695302052
 30
0.0
 40
74.66417910452256
100
AcDbArc
 50
301.7712278330707
 51
15.14038701490941
  0
LINE
  5
1AC45
330
1A65A
100
AcDbEntity
  8
HIKIDASHI
100
AcDbLine
 10
5106.084662666018
 20
3525.966871722361
 30
0.0
 11
5333.860047839355
 21
3920.485411556192
 31
0.0
1001
ACAD
1000
DSTYLE
1002
{
1070
   147
1040
1.0
1070
    77
1070
     0
1002
}
  0
LINE
  5
1AC46
330
1A65A
100
AcDbEntity
  8
HIKIDASHI
100
AcDbLine
 10
5094.537657282226
 20
3532.633538389028
 30
0.0
 11
5066.084662666021
 21
3456.684839419605
 31
0.0
  0
LINE
  5
1AC47
330
1A65A
100
AcDbEntity
  8
HIKIDASHI
100
AcDbLine
 10
5066.084662666021
 20
3456.684839419605
 30
0.0
 11
5117.631668049813
 21
3519.300205055695
 31
0.0
  0
SOLID
  5
1AC48
330
1A65A
100
AcDbEntity
  8
HIKIDASHI
100
AcDbTrace
 10
5094.537657282226
 20
3532.633538389028
 30
0.0
 11
5117.631668049813
 21
3519.300205055695
 31
0.0
 12
5066.084662666021
 22
3456.684839419605
 32
0.0
 13
5066.084662666021
 23
3456.684839419605
 33
0.0
  0
LINE
  5
1AC49
330
1A65A
100
AcDbEntity
  8
HIKIDASHI
100
AcDbLine
 10
5117.631668049813
 20
3519.300205055695
 30
0.0
 11
5094.537657282226
 21
3532.633538389028
 31
0.0
  0
LINE
  5
1AC4A
330
1A65A
100
AcDbEntity
  8
HIKIDASHI
100
AcDbLine
 10
5489.136067929489
 20
2561.711341542923
 30
0.0
 11
5656.338096802658
 21
2348.304238552882
 31
0.0
1001
ACAD
1000
DSTYLE
1002
{
1070
   147
1040
1.0
1070
    77
1070
     0
1002
}
  0
LINE
  5
1AC4B
330
1A65A
100
AcDbEntity
  8
HIKIDASHI
100
AcDbLine
 10
5499.631650908938
 20
2569.934510986595
 30
0.0
 11
5439.797051267461
 21
2624.684839419602
 31
0.0
  0
LINE
  5
1AC4C
330
1A65A
100
AcDbEntity
  8
HIKIDASHI
100
AcDbLine
 10
5439.797051267461
 20
2624.684839419602
 30
0.0
 11
5478.640484950044
 21
2553.488172099251
 31
0.0
  0
SOLID
  5
1AC4D
330
1A65A
100
AcDbEntity
  8
HIKIDASHI
100
AcDbTrace
 10
5499.631650908938
 20
2569.934510986595
 30
0.0
 11
5478.640484950044
 21
2553.488172099251
 31
0.0
 12
5439.797051267461
 22
2624.684839419602
 32
0.0
 13
5439.797051267461
 23
2624.684839419602
 33
0.0
  0
LINE
  5
1AC4E
330
1A65A
100
AcDbEntity
  8
HIKIDASHI
100
AcDbLine
 10
5478.640484950044
 20
2553.488172099251
 30
0.0
 11
5499.631650908938
 21
2569.934510986595
 31
0.0
  0
LINE
  5
1AC4F
330
1A65A
100
AcDbEntity
  8
HIKIDASHI
100
AcDbLine
 10
5517.958310807199
 20
3204.439659000036
 30
0.0
 11
5674.871662611158
 21
2904.11470702088
 31
0.0
1001
ACAD
1000
DSTYLE
1002
{
1070
    41
1040
2.0
1070
   173
1070
     0
1070
   341
1005
125B0
1002
}
  0
ARC
  5
1AC50
330
1A65A
100
AcDbEntity
  8
HIKIDASHI
100
AcDbCircle
 10
5472.271108781362
 20
3259.491130329859
 30
0.0
 40
18.0
100
AcDbArc
 50
241.1434129563095
 51
354.0287934324676
  0
ARC
  5
1AC51
330
1A65A
100
AcDbEntity
  8
HIKIDASHI
100
AcDbCircle
 10
5508.075783564776
 20
3255.746098466976
 30
0.0
 40
18.0
100
AcDbArc
 50
61.1434129563095
 51
174.0287934324675
  0
LINE
  5
1AC52
330
1A65A
100
AcDbEntity
  8
HIKIDASHI
100
AcDbLine
 10
5490.173446173068
 20
3257.618614398416
 30
0.0
 11
5517.958310807205
 21
3204.439659000024
 31
0.0
  0
LINE
  5
1AC53
330
1A65A
100
AcDbEntity
  8
HATCH
100
AcDbLine
 10
7395.822417332898
 20
3191.084839420303
 30
0.0
 11
7469.72325178917
 21
3319.084839420297
 31
0.0
  0
LINE
  5
1AC54
330
1A65A
100
AcDbEntity
  8
HATCH
100
AcDbLine
 10
7431.323251789172
 20
3319.084839420296
 30
0.0
 11
7450.523251789171
 21
3285.829463914978
 31
0.0
  0
LINE
  5
1AC55
330
1A65A
100
AcDbEntity
  8
HATCH
100
AcDbLine
 10
7395.822417334819
 20
3191.084839420923
 30
0.0
 11
7469.723251791108
 21
3319.084839420952
 31
0.0
  0
LINE
  5
1AC56
330
1A65A
100
AcDbEntity
  8
HATCH
100
AcDbLine
 10
7431.323251791098
 20
3319.084839420951
 30
0.0
 11
7450.523251791103
 21
3285.829463915624
 31
0.0
  0
LINE
  5
1AC57
330
1A65A
100
AcDbEntity
  8
HATCH
100
AcDbLine
 10
7683.822417332899
 20
3191.084839419027
 30
0.0
 11
7757.72325178917
 21
3319.084839419021
 31
0.0
  0
LINE
  5
1AC58
330
1A65A
100
AcDbEntity
  8
HATCH
100
AcDbLine
 10
7719.32325178917
 20
3319.084839419019
 30
0.0
 11
7738.523251789171
 21
3285.829463913701
 31
0.0
  0
LINE
  5
1AC59
330
1A65A
100
AcDbEntity
  8
HATCH
100
AcDbLine
 10
7827.8224173329
 20
3191.084839419027
 30
0.0
 11
7901.723251789167
 21
3319.084839419021
 31
0.0
  0
LINE
  5
1AC5A
330
1A65A
100
AcDbEntity
  8
HATCH
100
AcDbLine
 10
7863.32325178917
 20
3319.084839419019
 30
0.0
 11
7882.52325178917
 21
3285.829463913701
 31
0.0
  0
LINE
  5
1AC5B
330
1A65A
100
AcDbEntity
  8
HATCH
100
AcDbLine
 10
7683.822417334815
 20
3191.084839419646
 30
0.0
 11
7757.723251791105
 21
3319.084839419675
 31
0.0
  0
LINE
  5
1AC5C
330
1A65A
100
AcDbEntity
  8
HATCH
100
AcDbLine
 10
7719.323251791097
 20
3319.084839419675
 30
0.0
 11
7738.5232517911
 21
3285.829463914346
 31
0.0
  0
LINE
  5
1AC5D
330
1A65A
100
AcDbEntity
  8
HATCH
100
AcDbLine
 10
7827.822417334818
 20
3191.084839419646
 30
0.0
 11
7901.723251791107
 21
3319.084839419675
 31
0.0
  0
LINE
  5
1AC5E
330
1A65A
100
AcDbEntity
  8
HATCH
100
AcDbLine
 10
7863.323251791097
 20
3319.084839419675
 30
0.0
 11
7882.5232517911
 21
3285.829463914346
 31
0.0
  0
LINE
  5
1AC5F
330
1A65A
100
AcDbEntity
  8
HATCH
100
AcDbLine
 10
9597.765052686932
 20
3191.084839420268
 30
0.0
 11
9671.665887143205
 21
3319.084839420261
 31
0.0
  0
LINE
  5
1AC60
330
1A65A
100
AcDbEntity
  8
HATCH
100
AcDbLine
 10
9633.265887143204
 20
3319.084839420259
 30
0.0
 11
9652.465887143202
 21
3285.829463914943
 31
0.0
  0
LINE
  5
1AC61
330
1A65A
100
AcDbEntity
  8
HATCH
100
AcDbLine
 10
9309.765052686932
 20
3191.084839420268
 30
0.0
 11
9383.6658871432
 21
3319.084839420261
 31
0.0
  0
LINE
  5
1AC62
330
1A65A
100
AcDbEntity
  8
HATCH
100
AcDbLine
 10
9345.265887143204
 20
3319.084839420259
 30
0.0
 11
9364.465887143202
 21
3285.829463914943
 31
0.0
  0
LINE
  5
1AC63
330
1A65A
100
AcDbEntity
  8
HATCH
100
AcDbLine
 10
9453.765052686932
 20
3191.084839420268
 30
0.0
 11
9527.665887143198
 21
3319.084839420261
 31
0.0
  0
LINE
  5
1AC64
330
1A65A
100
AcDbEntity
  8
HATCH
100
AcDbLine
 10
9489.265887143199
 20
3319.084839420259
 30
0.0
 11
9508.465887143202
 21
3285.829463914943
 31
0.0
  0
LINE
  5
1AC65
330
1A65A
100
AcDbEntity
  8
HATCH
100
AcDbLine
 10
9741.765052686934
 20
3191.084839420268
 30
0.0
 11
9815.665887143204
 21
3319.084839420261
 31
0.0
  0
LINE
  5
1AC66
330
1A65A
100
AcDbEntity
  8
HATCH
100
AcDbLine
 10
9777.265887143206
 20
3319.084839420259
 30
0.0
 11
9796.465887143202
 21
3285.829463914943
 31
0.0
  0
LINE
  5
1AC67
330
1A65A
100
AcDbEntity
  8
HATCH
100
AcDbLine
 10
9597.765052688851
 20
3191.084839420887
 30
0.0
 11
9671.66588714514
 21
3319.084839420916
 31
0.0
  0
LINE
  5
1AC68
330
1A65A
100
AcDbEntity
  8
HATCH
100
AcDbLine
 10
9633.265887145132
 20
3319.084839420915
 30
0.0
 11
9652.465887145137
 21
3285.829463915587
 31
0.0
  0
LINE
  5
1AC69
330
1A65A
100
AcDbEntity
  8
HATCH
100
AcDbLine
 10
9741.765052688851
 20
3191.084839420887
 30
0.0
 11
9815.66588714514
 21
3319.084839420916
 31
0.0
  0
LINE
  5
1AC6A
330
1A65A
100
AcDbEntity
  8
HATCH
100
AcDbLine
 10
9777.265887145132
 20
3319.084839420915
 30
0.0
 11
9796.465887145137
 21
3285.829463915587
 31
0.0
  0
LINE
  5
1AC6B
330
1A65A
100
AcDbEntity
  8
HATCH
100
AcDbLine
 10
9453.765052688849
 20
3191.084839420887
 30
0.0
 11
9527.66588714514
 21
3319.084839420916
 31
0.0
  0
LINE
  5
1AC6C
330
1A65A
100
AcDbEntity
  8
HATCH
100
AcDbLine
 10
9489.265887145132
 20
3319.084839420915
 30
0.0
 11
9508.465887145135
 21
3285.829463915587
 31
0.0
  0
LINE
  5
1AC6D
330
1A65A
100
AcDbEntity
  8
HATCH
100
AcDbLine
 10
9309.765052688851
 20
3191.084839420887
 30
0.0
 11
9383.66588714514
 21
3319.084839420916
 31
0.0
  0
LINE
  5
1AC6E
330
1A65A
100
AcDbEntity
  8
HATCH
100
AcDbLine
 10
9345.265887145131
 20
3319.084839420915
 30
0.0
 11
9364.465887145135
 21
3285.829463915587
 31
0.0
  0
LINE
  5
1AC6F
330
1A65A
100
AcDbEntity
  8
HATCH
100
AcDbLine
 10
5385.438852163286
 20
3191.084839420224
 30
0.0
 11
5459.339686619554
 21
3319.084839420217
 31
0.0
  0
LINE
  5
1AC70
330
1A65A
100
AcDbEntity
  8
HATCH
100
AcDbLine
 10
5420.939686619557
 20
3319.084839420217
 30
0.0
 11
5440.139686619557
 21
3285.829463914899
 31
0.0
  0
LINE
  5
1AC71
330
1A65A
100
AcDbEntity
  8
HATCH
100
AcDbLine
 10
5817.438852163286
 20
3191.084839420224
 30
0.0
 11
5891.339686619555
 21
3319.084839420217
 31
0.0
  0
LINE
  5
1AC72
330
1A65A
100
AcDbEntity
  8
HATCH
100
AcDbLine
 10
5852.939686619555
 20
3319.084839420217
 30
0.0
 11
5872.139686619554
 21
3285.829463914899
 31
0.0
  0
LINE
  5
1AC73
330
1A65A
100
AcDbEntity
  8
HATCH
100
AcDbLine
 10
5529.438852163288
 20
3191.084839420224
 30
0.0
 11
5603.339686619555
 21
3319.084839420217
 31
0.0
  0
LINE
  5
1AC74
330
1A65A
100
AcDbEntity
  8
HATCH
100
AcDbLine
 10
5564.939686619556
 20
3319.084839420217
 30
0.0
 11
5584.139686619558
 21
3285.829463914899
 31
0.0
  0
LINE
  5
1AC75
330
1A65A
100
AcDbEntity
  8
HATCH
100
AcDbLine
 10
5673.438852163286
 20
3191.084839420224
 30
0.0
 11
5747.339686619554
 21
3319.084839420217
 31
0.0
  0
LINE
  5
1AC76
330
1A65A
100
AcDbEntity
  8
HATCH
100
AcDbLine
 10
5708.939686619555
 20
3319.084839420217
 30
0.0
 11
5728.139686619557
 21
3285.829463914899
 31
0.0
  0
LINE
  5
1AC77
330
1A65A
100
AcDbEntity
  8
HATCH
100
AcDbLine
 10
5961.438852163286
 20
3191.084839420224
 30
0.0
 11
6035.339686619554
 21
3319.084839420217
 31
0.0
  0
LINE
  5
1AC78
330
1A65A
100
AcDbEntity
  8
HATCH
100
AcDbLine
 10
5996.939686619557
 20
3319.084839420217
 30
0.0
 11
6016.139686619557
 21
3285.829463914899
 31
0.0
  0
LINE
  5
1AC79
330
1A65A
100
AcDbEntity
  8
HATCH
100
AcDbLine
 10
7434.222417332896
 20
3191.084839420305
 30
0.0
 11
7415.022417332895
 21
3224.340214925621
 31
0.0
  0
LINE
  5
1AC7A
330
1A65A
100
AcDbEntity
  8
HATCH
100
AcDbLine
 10
7434.222417334821
 20
3191.084839420923
 30
0.0
 11
7415.022417334819
 21
3224.34021492625
 31
0.0
  0
LINE
  5
1AC7B
330
1A65A
100
AcDbEntity
  8
HATCH
100
AcDbLine
 10
7722.222417332893
 20
3191.084839419027
 30
0.0
 11
7703.022417332895
 21
3224.340214924346
 31
0.0
  0
LINE
  5
1AC7C
330
1A65A
100
AcDbEntity
  8
HATCH
100
AcDbLine
 10
7866.222417332894
 20
3191.084839419027
 30
0.0
 11
7847.022417332894
 21
3224.340214924346
 31
0.0
  0
LINE
  5
1AC7D
330
1A65A
100
AcDbEntity
  8
HATCH
100
AcDbLine
 10
7722.222417334821
 20
3191.084839419646
 30
0.0
 11
7703.02241733482
 21
3224.340214924974
 31
0.0
  0
LINE
  5
1AC7E
330
1A65A
100
AcDbEntity
  8
HATCH
100
AcDbLine
 10
7866.222417334822
 20
3191.084839419646
 30
0.0
 11
7847.022417334817
 21
3224.340214924974
 31
0.0
  0
LINE
  5
1AC7F
330
1A65A
100
AcDbEntity
  8
KISO
100
AcDbLine
 10
8124.217031986061
 20
5395.715360473253
 30
0.0
 11
4684.21703198606
 21
5395.715360473253
 31
0.0
  0
LINE
  5
1AC80
330
1A65A
100
AcDbEntity
  8
KISO
100
AcDbLine
 10
4684.21703198606
 20
5395.715360473253
 30
0.0
 11
4684.21703198606
 21
9595.715360473253
 31
0.0
  0
LINE
  5
1AC81
330
1A65A
100
AcDbEntity
  8
KISO
100
AcDbLine
 10
4684.21703198606
 20
9595.715360473253
 30
0.0
 11
8124.217031986061
 21
9595.715360473253
 31
0.0
  0
LINE
  5
1AC82
330
1A65A
100
AcDbEntity
  8
KISO
100
AcDbLine
 10
8244.217031986062
 20
9595.715360473253
 30
0.0
 11
11684.21703198605
 21
9595.715360473253
 31
0.0
  0
LINE
  5
1AC83
330
1A65A
100
AcDbEntity
  8
KISO
100
AcDbLine
 10
11684.21703198605
 20
9595.715360473253
 30
0.0
 11
11684.21703198605
 21
5395.715360473253
 31
0.0
  0
LINE
  5
1AC84
330
1A65A
100
AcDbEntity
  8
KISO
100
AcDbLine
 10
11684.21703198605
 20
5395.715360473253
 30
0.0
 11
8244.217031986062
 21
5395.715360473253
 31
0.0
  0
LINE
  5
1AC85
330
1A65A
100
AcDbEntity
  8
U1
100
AcDbLine
 10
11391.33837406208
 20
2550.144344053149
 30
0.0
 11
11691.33837406209
 21
2550.144344053149
 31
0.0
  0
LINE
  5
1AC86
330
1A65A
100
AcDbEntity
  8
U1
100
AcDbLine
 10
11691.33837406209
 20
2550.144344053149
 30
0.0
 11
11691.33837406209
 21
2850.144344053148
 31
0.0
  0
LINE
  5
1AC87
330
1A65A
100
AcDbEntity
  8
U1
100
AcDbLine
 10
11691.33837406209
 20
2850.144344053148
 30
0.0
 11
11391.33837406208
 21
2850.144344053148
 31
0.0
  0
LINE
  5
1AC88
330
1A65A
100
AcDbEntity
  8
U1
100
AcDbLine
 10
11391.33837406208
 20
2850.144344053148
 30
0.0
 11
11391.33837406208
 21
2550.144344053149
 31
0.0
  0
LINE
  5
1AC89
330
1A65A
100
AcDbEntity
  8
U1
100
AcDbLine
 10
11221.33837406209
 20
2540.144344053149
 30
0.0
 11
11861.33837406209
 21
2540.144344053149
 31
0.0
  0
LINE
  5
1AC8A
330
1A65A
100
AcDbEntity
  8
U1
100
AcDbLine
 10
11861.33837406209
 20
2540.144344053149
 30
0.0
 11
11861.33837406209
 21
2860.144344053149
 31
0.0
  0
LINE
  5
1AC8B
330
1A65A
100
AcDbEntity
  8
U1
100
AcDbLine
 10
11861.33837406209
 20
2860.144344053149
 30
0.0
 11
11221.33837406209
 21
2860.144344053149
 31
0.0
  0
LINE
  5
1AC8C
330
1A65A
100
AcDbEntity
  8
U1
100
AcDbLine
 10
11221.33837406209
 20
2860.144344053149
 30
0.0
 11
11221.33837406209
 21
2540.144344053149
 31
0.0
  0
LINE
  5
1AC8D
330
1A65A
100
AcDbEntity
  8
U1
100
AcDbLine
 10
11221.33837406209
 20
3618.337036584561
 30
0.0
 11
11861.33837406209
 21
3618.337036584561
 31
0.0
  0
LINE
  5
1AC8E
330
1A65A
100
AcDbEntity
  8
U1
100
AcDbLine
 10
11861.33837406209
 20
3618.337036584561
 30
0.0
 11
11861.33837406209
 21
3642.337036584561
 31
0.0
  0
LINE
  5
1AC8F
330
1A65A
100
AcDbEntity
  8
U1
100
AcDbLine
 10
11861.33837406209
 20
3642.337036584561
 30
0.0
 11
11221.33837406209
 21
3642.337036584561
 31
0.0
  0
LINE
  5
1AC90
330
1A65A
100
AcDbEntity
  8
U1
100
AcDbLine
 10
11221.33837406209
 20
3642.337036584561
 30
0.0
 11
11221.33837406209
 21
3618.337036584561
 31
0.0
  0
LINE
  5
1AC91
330
1A65A
100
AcDbEntity
  8
KISO
100
AcDbLine
 10
4159.797051267463
 20
2551.084839419603
 30
0.0
 11
5439.797051267463
 21
2551.084839419603
 31
0.0
  0
LINE
  5
1AC92
330
1A65A
100
AcDbEntity
  8
KISO
100
AcDbLine
 10
5439.797051267463
 20
2551.084839419603
 30
0.0
 11
5439.797051267463
 21
2711.084839419603
 31
0.0
  0
LINE
  5
1AC93
330
1A65A
100
AcDbEntity
  8
KISO
100
AcDbLine
 10
5439.797051267463
 20
2711.084839419603
 30
0.0
 11
4159.797051267463
 21
2711.084839419603
 31
0.0
  0
LINE
  5
1AC94
330
1A65A
100
AcDbEntity
  8
KISO
100
AcDbLine
 10
4159.797051267463
 20
2711.084839419603
 30
0.0
 11
4159.797051267463
 21
2551.084839419603
 31
0.0
  0
LINE
  5
1AC95
330
1A65A
100
AcDbEntity
  8
HATCH
100
AcDbLine
 10
9636.165052686925
 20
3191.084839420268
 30
0.0
 11
9616.965052686927
 21
3224.340214925586
 31
0.0
  0
LINE
  5
1AC96
330
1A65A
100
AcDbEntity
  8
HATCH
100
AcDbLine
 10
9348.16505268693
 20
3191.084839420268
 30
0.0
 11
9328.965052686926
 21
3224.340214925586
 31
0.0
  0
LINE
  5
1AC97
330
1A65A
100
AcDbEntity
  8
HATCH
100
AcDbLine
 10
9492.165052686925
 20
3191.084839420268
 30
0.0
 11
9472.965052686927
 21
3224.340214925586
 31
0.0
  0
LINE
  5
1AC98
330
1A65A
100
AcDbEntity
  8
HATCH
100
AcDbLine
 10
9780.165052686927
 20
3191.084839420268
 30
0.0
 11
9760.965052686927
 21
3224.340214925586
 31
0.0
  0
LINE
  5
1AC99
330
1A65A
100
AcDbEntity
  8
HATCH
100
AcDbLine
 10
9636.165052688857
 20
3191.084839420887
 30
0.0
 11
9616.965052688854
 21
3224.340214926215
 31
0.0
  0
LINE
  5
1AC9A
330
1A65A
100
AcDbEntity
  8
HATCH
100
AcDbLine
 10
9780.165052688857
 20
3191.084839420887
 30
0.0
 11
9760.965052688852
 21
3224.340214926215
 31
0.0
  0
LINE
  5
1AC9B
330
1A65A
100
AcDbEntity
  8
HATCH
100
AcDbLine
 10
9492.165052688857
 20
3191.084839420887
 30
0.0
 11
9472.965052688854
 21
3224.340214926215
 31
0.0
  0
LINE
  5
1AC9C
330
1A65A
100
AcDbEntity
  8
HATCH
100
AcDbLine
 10
9348.165052688857
 20
3191.084839420887
 30
0.0
 11
9328.965052688852
 21
3224.340214926215
 31
0.0
  0
LINE
  5
1AC9D
330
1A65A
100
AcDbEntity
  8
TENSEN-1
100
AcDbLine
 10
8756.123251791107
 20
2869.484839419598
 30
0.0
 11
8702.523251791111
 21
2869.484839419598
 31
0.0
  0
LINE
  5
1AC9E
330
1A65A
100
AcDbEntity
  8
TENSEN-1
100
AcDbLine
 10
8702.523251791111
 20
2869.484839419598
 30
0.0
 11
8702.523251791111
 21
3360.6848394196
 31
0.0
  0
LINE
  5
1AC9F
330
1A65A
100
AcDbEntity
  8
TENSEN-1
100
AcDbLine
 10
8702.523251791111
 20
3360.6848394196
 30
0.0
 11
8681.72325179111
 21
3360.6848394196
 31
0.0
  0
LINE
  5
1ACA0
330
1A65A
100
AcDbEntity
  8
TENSEN-1
100
AcDbLine
 10
8681.72325179111
 20
3360.6848394196
 30
0.0
 11
8681.723251791105
 21
2848.6848394196
 31
0.0
  0
LINE
  5
1ACA1
330
1A65A
100
AcDbEntity
  8
TENSEN-1
100
AcDbLine
 10
8681.723251791105
 20
2848.6848394196
 30
0.0
 11
8756.123251791107
 21
2848.6848394196
 31
0.0
  0
LINE
  5
1ACA2
330
1A65A
100
AcDbEntity
  8
TENSEN-1
100
AcDbLine
 10
8756.123251791107
 20
2848.6848394196
 30
0.0
 11
8756.123251791107
 21
2869.484839419598
 31
0.0
  0
LINE
  5
1ACA3
330
1A65A
100
AcDbEntity
  8
TENSEN-1
100
AcDbLine
 10
8404.12325179111
 20
2869.484839419603
 30
0.0
 11
8457.723251791113
 21
2869.484839419603
 31
0.0
  0
LINE
  5
1ACA4
330
1A65A
100
AcDbEntity
  8
TENSEN-1
100
AcDbLine
 10
8457.723251791113
 20
2869.484839419603
 30
0.0
 11
8457.723251791113
 21
3360.684839419604
 31
0.0
  0
LINE
  5
1ACA5
330
1A65A
100
AcDbEntity
  8
TENSEN-1
100
AcDbLine
 10
8457.723251791113
 20
3360.684839419604
 30
0.0
 11
8478.523251791115
 21
3360.684839419604
 31
0.0
  0
LINE
  5
1ACA6
330
1A65A
100
AcDbEntity
  8
TENSEN-1
100
AcDbLine
 10
8478.523251791115
 20
3360.684839419604
 30
0.0
 11
8478.523251791115
 21
2848.684839419603
 31
0.0
  0
LINE
  5
1ACA7
330
1A65A
100
AcDbEntity
  8
TENSEN-1
100
AcDbLine
 10
8478.523251791115
 20
2848.684839419603
 30
0.0
 11
8404.12325179111
 21
2848.684839419603
 31
0.0
  0
LINE
  5
1ACA8
330
1A65A
100
AcDbEntity
  8
TENSEN-1
100
AcDbLine
 10
8404.12325179111
 20
2848.684839419603
 30
0.0
 11
8404.12325179111
 21
2869.484839419603
 31
0.0
  0
LINE
  5
1ACA9
330
1A65A
100
AcDbEntity
  8
HASHIRA
100
AcDbLine
 10
8436.12325179111
 20
3319.084839419598
 30
0.0
 11
8724.123251791107
 21
3319.084839419603
 31
0.0
  0
LINE
  5
1ACAA
330
1A65A
100
AcDbEntity
  8
HASHIRA
100
AcDbLine
 10
8724.123251791107
 20
3319.084839419603
 30
0.0
 11
8724.123251791107
 21
3333.484839419603
 31
0.0
  0
LINE
  5
1ACAB
330
1A65A
100
AcDbEntity
  8
HASHIRA
100
AcDbLine
 10
8724.123251791107
 20
3333.484839419603
 30
0.0
 11
8436.12325179111
 21
3333.484839419599
 31
0.0
  0
LINE
  5
1ACAC
330
1A65A
100
AcDbEntity
  8
HASHIRA
100
AcDbLine
 10
8436.12325179111
 20
3333.484839419599
 30
0.0
 11
8436.12325179111
 21
3319.084839419598
 31
0.0
  0
LINE
  5
1ACAD
330
1A65A
100
AcDbEntity
  8
BOLT
100
AcDbLine
 10
8593.723251791109
 20
3362.2848394196
 30
0.0
 11
8593.723251791109
 21
3370.136803080576
 31
0.0
  0
LINE
  5
1ACAE
330
1A65A
100
AcDbEntity
  8
BOLT
100
AcDbLine
 10
8593.723251791109
 20
3370.136803080576
 30
0.0
 11
8580.123251791111
 21
3377.988766741558
 31
0.0
  0
LINE
  5
1ACAF
330
1A65A
100
AcDbEntity
  8
BOLT
100
AcDbLine
 10
8580.123251791111
 20
3377.988766741558
 30
0.0
 11
8566.523251791107
 21
3370.136803080576
 31
0.0
  0
LINE
  5
1ACB0
330
1A65A
100
AcDbEntity
  8
BOLT
100
AcDbLine
 10
8566.523251791107
 20
3370.136803080576
 30
0.0
 11
8566.523251791107
 21
3362.2848394196
 31
0.0
  0
LINE
  5
1ACB1
330
1A65A
100
AcDbEntity
  8
BOLT
100
AcDbLine
 10
8566.523251791107
 20
3362.2848394196
 30
0.0
 11
8566.523251791107
 21
3354.432875758621
 31
0.0
  0
LINE
  5
1ACB2
330
1A65A
100
AcDbEntity
  8
BOLT
100
AcDbLine
 10
8566.523251791107
 20
3354.432875758621
 30
0.0
 11
8580.123251791111
 21
3346.580912097639
 31
0.0
  0
LINE
  5
1ACB3
330
1A65A
100
AcDbEntity
  8
BOLT
100
AcDbLine
 10
8580.123251791111
 20
3346.580912097639
 30
0.0
 11
8593.723251791109
 21
3354.432875758621
 31
0.0
  0
LINE
  5
1ACB4
330
1A65A
100
AcDbEntity
  8
BOLT
100
AcDbLine
 10
8593.723251791109
 20
3354.432875758621
 30
0.0
 11
8593.723251791109
 21
3362.2848394196
 31
0.0
  0
LINE
  5
1ACB5
330
1A65A
100
AcDbEntity
  8
BOLT
100
AcDbLine
 10
8593.723251791109
 20
3426.2848394196
 30
0.0
 11
8593.723251791109
 21
3434.136803080576
 31
0.0
  0
LINE
  5
1ACB6
330
1A65A
100
AcDbEntity
  8
BOLT
100
AcDbLine
 10
8593.723251791109
 20
3434.136803080576
 30
0.0
 11
8580.123251791111
 21
3441.988766741558
 31
0.0
  0
LINE
  5
1ACB7
330
1A65A
100
AcDbEntity
  8
BOLT
100
AcDbLine
 10
8580.123251791111
 20
3441.988766741558
 30
0.0
 11
8566.523251791107
 21
3434.136803080576
 31
0.0
  0
LINE
  5
1ACB8
330
1A65A
100
AcDbEntity
  8
BOLT
100
AcDbLine
 10
8566.523251791107
 20
3434.136803080576
 30
0.0
 11
8566.523251791107
 21
3426.2848394196
 31
0.0
  0
LINE
  5
1ACB9
330
1A65A
100
AcDbEntity
  8
BOLT
100
AcDbLine
 10
8566.523251791107
 20
3426.2848394196
 30
0.0
 11
8566.523251791107
 21
3418.432875758621
 31
0.0
  0
LINE
  5
1ACBA
330
1A65A
100
AcDbEntity
  8
BOLT
100
AcDbLine
 10
8566.523251791107
 20
3418.432875758621
 30
0.0
 11
8580.123251791111
 21
3410.580912097639
 31
0.0
  0
LINE
  5
1ACBB
330
1A65A
100
AcDbEntity
  8
BOLT
100
AcDbLine
 10
8580.123251791111
 20
3410.580912097639
 30
0.0
 11
8593.723251791109
 21
3418.432875758621
 31
0.0
  0
LINE
  5
1ACBC
330
1A65A
100
AcDbEntity
  8
BOLT
100
AcDbLine
 10
8593.723251791109
 20
3418.432875758621
 30
0.0
 11
8593.723251791109
 21
3426.2848394196
 31
0.0
  0
LINE
  5
1ACBD
330
1A65A
100
AcDbEntity
  8
KISO
100
AcDbLine
 10
7134.21703198606
 20
7095.715360473253
 30
0.0
 11
7934.21703198606
 21
7095.715360473253
 31
0.0
  0
LINE
  5
1ACBE
330
1A65A
100
AcDbEntity
  8
KISO
100
AcDbLine
 10
7934.21703198606
 20
7095.715360473253
 30
0.0
 11
7934.21703198606
 21
7895.715360473253
 31
0.0
  0
LINE
  5
1ACBF
330
1A65A
100
AcDbEntity
  8
KISO
100
AcDbLine
 10
7934.21703198606
 20
7895.715360473253
 30
0.0
 11
7134.21703198606
 21
7895.715360473253
 31
0.0
  0
LINE
  5
1ACC0
330
1A65A
100
AcDbEntity
  8
KISO
100
AcDbLine
 10
7134.21703198606
 20
7895.715360473253
 30
0.0
 11
7134.21703198606
 21
7095.715360473253
 31
0.0
  0
LINE
  5
1ACC1
330
1A65A
100
AcDbEntity
  8
KISO
100
AcDbLine
 10
4684.21703198606
 20
7095.715360473253
 30
0.0
 11
5484.21703198606
 21
7095.715360473253
 31
0.0
  0
LINE
  5
1ACC2
330
1A65A
100
AcDbEntity
  8
KISO
100
AcDbLine
 10
5484.21703198606
 20
7095.715360473253
 30
0.0
 11
5484.21703198606
 21
7895.715360473253
 31
0.0
  0
LINE
  5
1ACC3
330
1A65A
100
AcDbEntity
  8
KISO
100
AcDbLine
 10
5484.21703198606
 20
7895.715360473253
 30
0.0
 11
4684.21703198606
 21
7895.715360473253
 31
0.0
  0
LINE
  5
1ACC4
330
1A65A
100
AcDbEntity
  8
KISO
100
AcDbLine
 10
4684.21703198606
 20
7895.715360473253
 30
0.0
 11
4684.21703198606
 21
7095.715360473253
 31
0.0
  0
LINE
  5
1ACC5
330
1A65A
100
AcDbEntity
  8
KISO
100
AcDbLine
 10
10884.21703198606
 20
7095.715360473253
 30
0.0
 11
11684.21703198605
 21
7095.715360473253
 31
0.0
  0
LINE
  5
1ACC6
330
1A65A
100
AcDbEntity
  8
KISO
100
AcDbLine
 10
11684.21703198605
 20
7095.715360473253
 30
0.0
 11
11684.21703198605
 21
7895.715360473253
 31
0.0
  0
LINE
  5
1ACC7
330
1A65A
100
AcDbEntity
  8
KISO
100
AcDbLine
 10
11684.21703198605
 20
7895.715360473253
 30
0.0
 11
10884.21703198606
 21
7895.715360473253
 31
0.0
  0
LINE
  5
1ACC8
330
1A65A
100
AcDbEntity
  8
KISO
100
AcDbLine
 10
10884.21703198606
 20
7895.715360473253
 30
0.0
 11
10884.21703198606
 21
7095.715360473253
 31
0.0
  0
LINE
  5
1ACC9
330
1A65A
100
AcDbEntity
  8
KISO
100
AcDbLine
 10
8434.21703198606
 20
7095.715360473253
 30
0.0
 11
9234.217031986061
 21
7095.715360473253
 31
0.0
  0
LINE
  5
1ACCA
330
1A65A
100
AcDbEntity
  8
KISO
100
AcDbLine
 10
9234.217031986061
 20
7095.715360473253
 30
0.0
 11
9234.217031986061
 21
7895.715360473253
 31
0.0
  0
LINE
  5
1ACCB
330
1A65A
100
AcDbEntity
  8
KISO
100
AcDbLine
 10
9234.217031986061
 20
7895.715360473253
 30
0.0
 11
8434.21703198606
 21
7895.715360473253
 31
0.0
  0
LINE
  5
1ACCC
330
1A65A
100
AcDbEntity
  8
KISO
100
AcDbLine
 10
8434.21703198606
 20
7895.715360473253
 30
0.0
 11
8434.21703198606
 21
7095.715360473253
 31
0.0
  0
LINE
  5
1ACCD
330
1A65A
100
AcDbEntity
  8
HATCH
100
AcDbLine
 10
5423.83885216328
 20
3191.084839420225
 30
0.0
 11
5404.63885216328
 21
3224.340214925542
 31
0.0
  0
LINE
  5
1ACCE
330
1A65A
100
AcDbEntity
  8
HATCH
100
AcDbLine
 10
5855.83885216328
 20
3191.084839420225
 30
0.0
 11
5836.638852163281
 21
3224.340214925542
 31
0.0
  0
LINE
  5
1ACCF
330
1A65A
100
AcDbEntity
  8
HATCH
100
AcDbLine
 10
5567.83885216328
 20
3191.084839420225
 30
0.0
 11
5548.638852163282
 21
3224.340214925542
 31
0.0
  0
LINE
  5
1ACD0
330
1A65A
100
AcDbEntity
  8
HATCH
100
AcDbLine
 10
5711.838852163278
 20
3191.084839420225
 30
0.0
 11
5692.63885216328
 21
3224.340214925542
 31
0.0
  0
LINE
  5
1ACD1
330
1A65A
100
AcDbEntity
  8
HATCH
100
AcDbLine
 10
5999.838852163279
 20
3191.084839420225
 30
0.0
 11
5980.638852163282
 21
3224.340214925542
 31
0.0
  0
LINE
  5
1ACD2
330
1A65A
100
AcDbEntity
  8
HASHIRA
100
AcDbLine
 10
4735.797051267462
 20
3319.084839419608
 30
0.0
 11
4863.797051267464
 21
3319.084839419608
 31
0.0
  0
LINE
  5
1ACD3
330
1A65A
100
AcDbEntity
  8
HASHIRA
100
AcDbLine
 10
4863.797051267464
 20
3319.084839419608
 30
0.0
 11
4863.797051267464
 21
3328.684839419607
 31
0.0
  0
LINE
  5
1ACD4
330
1A65A
100
AcDbEntity
  8
HASHIRA
100
AcDbLine
 10
4863.797051267464
 20
3328.684839419607
 30
0.0
 11
4735.797051267462
 21
3328.684839419607
 31
0.0
  0
LINE
  5
1ACD5
330
1A65A
100
AcDbEntity
  8
HASHIRA
100
AcDbLine
 10
4735.797051267462
 20
3328.684839419607
 30
0.0
 11
4735.797051267462
 21
3319.084839419608
 31
0.0
  0
LINE
  5
1ACD6
330
1A65A
100
AcDbEntity
  8
TENSEN-1
100
AcDbLine
 10
4735.797051267462
 20
2869.484839419607
 30
0.0
 11
4789.397051267463
 21
2869.484839419607
 31
0.0
  0
LINE
  5
1ACD7
330
1A65A
100
AcDbEntity
  8
TENSEN-1
100
AcDbLine
 10
4789.397051267463
 20
2869.484839419607
 30
0.0
 11
4789.397051267463
 21
3360.684839419607
 31
0.0
  0
LINE
  5
1ACD8
330
1A65A
100
AcDbEntity
  8
TENSEN-1
100
AcDbLine
 10
4789.397051267463
 20
3360.684839419607
 30
0.0
 11
4810.197051267465
 21
3360.684839419607
 31
0.0
  0
LINE
  5
1ACD9
330
1A65A
100
AcDbEntity
  8
TENSEN-1
100
AcDbLine
 10
4810.197051267465
 20
3360.684839419607
 30
0.0
 11
4810.197051267465
 21
2848.684839419608
 31
0.0
  0
LINE
  5
1ACDA
330
1A65A
100
AcDbEntity
  8
TENSEN-1
100
AcDbLine
 10
4810.197051267465
 20
2848.684839419608
 30
0.0
 11
4735.797051267462
 21
2848.684839419608
 31
0.0
  0
LINE
  5
1ACDB
330
1A65A
100
AcDbEntity
  8
TENSEN-1
100
AcDbLine
 10
4735.797051267462
 20
2848.684839419608
 30
0.0
 11
4735.797051267462
 21
2869.484839419607
 31
0.0
  0
LINE
  5
1ACDC
330
1A65A
100
AcDbEntity
  8
U1
100
AcDbLine
 10
11290.41703198606
 20
9325.915360473253
 30
0.0
 11
11258.01703198606
 21
9325.915360473253
 31
0.0
  0
LINE
  5
1ACDD
330
1A65A
100
AcDbEntity
  8
U1
100
AcDbLine
 10
11258.01703198606
 20
9265.515360473251
 30
0.0
 11
11310.41703198606
 21
9265.515360473251
 31
0.0
  0
ARC
  5
1ACDE
330
1A65A
100
AcDbEntity
  8
U1
100
AcDbCircle
 10
11258.01703198606
 20
9269.515360473251
 30
0.0
 40
4.0
100
AcDbArc
 50
180.0
 51
270.0
  0
ARC
  5
1ACDF
330
1A65A
100
AcDbEntity
  8
U1
100
AcDbCircle
 10
11258.01703198606
 20
9321.915360473253
 30
0.0
 40
4.0
100
AcDbArc
 50
90.0
 51
180.0
  0
LINE
  5
1ACE0
330
1A65A
100
AcDbEntity
  8
U1
100
AcDbLine
 10
11254.01703198605
 20
9321.915360473253
 30
0.0
 11
11254.01703198605
 21
9269.515360473251
 31
0.0
  0
ARC
  5
1ACE1
330
1A65A
100
AcDbEntity
  8
U1
100
AcDbCircle
 10
11310.41703198606
 20
9269.515360473251
 30
0.0
 40
4.0
100
AcDbArc
 50
270.0
 51
0.0
  0
ARC
  5
1ACE2
330
1A65A
100
AcDbEntity
  8
U1
100
AcDbCircle
 10
11290.41703198606
 20
9321.915360473253
 30
0.0
 40
4.0
100
AcDbArc
 50
0.0
 51
90.0
  0
ARC
  5
1ACE3
330
1A65A
100
AcDbEntity
  8
U1
100
AcDbCircle
 10
11297.86703198605
 20
9312.665360473252
 30
0.0
 40
1.149999999999977
100
AcDbArc
 50
180.0
 51
0.0
  0
LINE
  5
1ACE4
330
1A65A
100
AcDbEntity
  8
U1
100
AcDbLine
 10
11301.31703198606
 20
9320.215360473252
 30
0.0
 11
11301.31703198606
 21
9312.665360473252
 31
0.0
  0
LINE
  5
1ACE5
330
1A65A
100
AcDbEntity
  8
U1
100
AcDbLine
 10
11299.01703198606
 20
9320.215360473252
 30
0.0
 11
11301.31703198606
 21
9320.215360473252
 31
0.0
  0
LINE
  5
1ACE6
330
1A65A
100
AcDbEntity
  8
U1
100
AcDbLine
 10
11296.71703198606
 20
9313.215360473252
 30
0.0
 11
11299.01703198606
 21
9313.215360473252
 31
0.0
  0
ARC
  5
1ACE7
330
1A65A
100
AcDbEntity
  8
U1
100
AcDbCircle
 10
11297.86703198605
 20
9312.665360473252
 30
0.0
 40
3.450000000000044
100
AcDbArc
 50
180.0
 51
0.0
  0
LINE
  5
1ACE8
330
1A65A
100
AcDbEntity
  8
U1
100
AcDbLine
 10
11296.71703198606
 20
9312.665360473252
 30
0.0
 11
11296.71703198606
 21
9321.915360473253
 31
0.0
  0
LINE
  5
1ACE9
330
1A65A
100
AcDbEntity
  8
U1
100
AcDbLine
 10
11299.01703198606
 20
9321.915360473253
 30
0.0
 11
11299.01703198606
 21
9312.665360473252
 31
0.0
  0
LINE
  5
1ACEA
330
1A65A
100
AcDbEntity
  8
U1
100
AcDbLine
 10
11294.41703198606
 20
9312.665360473252
 30
0.0
 11
11294.41703198606
 21
9321.915360473253
 31
0.0
  0
ARC
  5
1ACEB
330
1A65A
100
AcDbEntity
  8
U1
100
AcDbCircle
 10
11310.41703198606
 20
9321.915360473253
 30
0.0
 40
4.0
100
AcDbArc
 50
0.0
 51
90.0
  0
LINE
  5
1ACEC
330
1A65A
100
AcDbEntity
  8
U1
100
AcDbLine
 10
11310.41703198606
 20
9325.915360473253
 30
0.0
 11
11303.01703198606
 21
9325.915360473253
 31
0.0
  0
ARC
  5
1ACED
330
1A65A
100
AcDbEntity
  8
U1
100
AcDbCircle
 10
11303.01703198606
 20
9321.915360473253
 30
0.0
 40
4.0
100
AcDbArc
 50
90.0
 51
180.0
  0
LINE
  5
1ACEE
330
1A65A
100
AcDbEntity
  8
U1
100
AcDbLine
 10
11314.41703198606
 20
9269.515360473251
 30
0.0
 11
11314.41703198606
 21
9321.915360473253
 31
0.0
  0
LINE
  5
1ACEF
330
1A65A
100
AcDbEntity
  8
U1
100
AcDbLine
 10
11290.41703198606
 20
7525.915360473252
 30
0.0
 11
11258.01703198606
 21
7525.915360473252
 31
0.0
  0
LINE
  5
1ACF0
330
1A65A
100
AcDbEntity
  8
U1
100
AcDbLine
 10
11258.01703198606
 20
7465.515360473251
 30
0.0
 11
11310.41703198606
 21
7465.515360473251
 31
0.0
  0
ARC
  5
1ACF1
330
1A65A
100
AcDbEntity
  8
U1
100
AcDbCircle
 10
11258.01703198606
 20
7469.515360473251
 30
0.0
 40
4.0
100
AcDbArc
 50
180.0
 51
270.0
  0
ARC
  5
1ACF2
330
1A65A
100
AcDbEntity
  8
U1
100
AcDbCircle
 10
11258.01703198606
 20
7521.915360473252
 30
0.0
 40
4.0
100
AcDbArc
 50
90.0
 51
180.0
  0
LINE
  5
1ACF3
330
1A65A
100
AcDbEntity
  8
U1
100
AcDbLine
 10
11254.01703198605
 20
7521.915360473252
 30
0.0
 11
11254.01703198605
 21
7469.515360473251
 31
0.0
  0
ARC
  5
1ACF4
330
1A65A
100
AcDbEntity
  8
U1
100
AcDbCircle
 10
11310.41703198606
 20
7469.515360473251
 30
0.0
 40
4.0
100
AcDbArc
 50
270.0
 51
0.0
  0
ARC
  5
1ACF5
330
1A65A
100
AcDbEntity
  8
U1
100
AcDbCircle
 10
11290.41703198606
 20
7521.915360473252
 30
0.0
 40
4.0
100
AcDbArc
 50
0.0
 51
90.0
  0
ARC
  5
1ACF6
330
1A65A
100
AcDbEntity
  8
U1
100
AcDbCircle
 10
11297.86703198605
 20
7512.665360473251
 30
0.0
 40
1.149999999999977
100
AcDbArc
 50
180.0
 51
0.0
  0
LINE
  5
1ACF7
330
1A65A
100
AcDbEntity
  8
U1
100
AcDbLine
 10
11301.31703198606
 20
7520.215360473253
 30
0.0
 11
11301.31703198606
 21
7512.665360473251
 31
0.0
  0
LINE
  5
1ACF8
330
1A65A
100
AcDbEntity
  8
U1
100
AcDbLine
 10
11299.01703198606
 20
7520.215360473253
 30
0.0
 11
11301.31703198606
 21
7520.215360473253
 31
0.0
  0
LINE
  5
1ACF9
330
1A65A
100
AcDbEntity
  8
U1
100
AcDbLine
 10
11296.71703198606
 20
7513.215360473253
 30
0.0
 11
11299.01703198606
 21
7513.215360473253
 31
0.0
  0
ARC
  5
1ACFA
330
1A65A
100
AcDbEntity
  8
U1
100
AcDbCircle
 10
11297.86703198605
 20
7512.665360473251
 30
0.0
 40
3.450000000000044
100
AcDbArc
 50
180.0
 51
0.0
  0
LINE
  5
1ACFB
330
1A65A
100
AcDbEntity
  8
U1
100
AcDbLine
 10
11296.71703198606
 20
7512.665360473251
 30
0.0
 11
11296.71703198606
 21
7521.915360473252
 31
0.0
  0
LINE
  5
1ACFC
330
1A65A
100
AcDbEntity
  8
U1
100
AcDbLine
 10
11299.01703198606
 20
7521.915360473252
 30
0.0
 11
11299.01703198606
 21
7512.665360473251
 31
0.0
  0
LINE
  5
1ACFD
330
1A65A
100
AcDbEntity
  8
U1
100
AcDbLine
 10
11294.41703198606
 20
7512.665360473251
 30
0.0
 11
11294.41703198606
 21
7521.915360473252
 31
0.0
  0
ARC
  5
1ACFE
330
1A65A
100
AcDbEntity
  8
U1
100
AcDbCircle
 10
11310.41703198606
 20
7521.915360473252
 30
0.0
 40
4.0
100
AcDbArc
 50
0.0
 51
90.0
  0
LINE
  5
1ACFF
330
1A65A
100
AcDbEntity
  8
U1
100
AcDbLine
 10
11310.41703198606
 20
7525.915360473252
 30
0.0
 11
11303.01703198606
 21
7525.915360473252
 31
0.0
  0
ARC
  5
1AD00
330
1A65A
100
AcDbEntity
  8
U1
100
AcDbCircle
 10
11303.01703198606
 20
7521.915360473252
 30
0.0
 40
4.0
100
AcDbArc
 50
90.0
 51
180.0
  0
LINE
  5
1AD01
330
1A65A
100
AcDbEntity
  8
U1
100
AcDbLine
 10
11314.41703198606
 20
7469.515360473251
 30
0.0
 11
11314.41703198606
 21
7521.915360473252
 31
0.0
  0
LINE
  5
1AD02
330
1A65A
100
AcDbEntity
  8
U1
100
AcDbLine
 10
11290.41703198606
 20
5725.915360473253
 30
0.0
 11
11258.01703198606
 21
5725.915360473253
 31
0.0
  0
LINE
  5
1AD03
330
1A65A
100
AcDbEntity
  8
U1
100
AcDbLine
 10
11258.01703198606
 20
5665.515360473253
 30
0.0
 11
11310.41703198606
 21
5665.515360473253
 31
0.0
  0
ARC
  5
1AD04
330
1A65A
100
AcDbEntity
  8
U1
100
AcDbCircle
 10
11258.01703198606
 20
5669.515360473252
 30
0.0
 40
4.0
100
AcDbArc
 50
180.0
 51
270.0
  0
ARC
  5
1AD05
330
1A65A
100
AcDbEntity
  8
U1
100
AcDbCircle
 10
11258.01703198606
 20
5721.915360473253
 30
0.0
 40
4.0
100
AcDbArc
 50
90.0
 51
180.0
  0
LINE
  5
1AD06
330
1A65A
100
AcDbEntity
  8
U1
100
AcDbLine
 10
11254.01703198605
 20
5721.915360473253
 30
0.0
 11
11254.01703198605
 21
5669.515360473252
 31
0.0
  0
ARC
  5
1AD07
330
1A65A
100
AcDbEntity
  8
U1
100
AcDbCircle
 10
11310.41703198606
 20
5669.515360473252
 30
0.0
 40
4.0
100
AcDbArc
 50
270.0
 51
0.0
  0
ARC
  5
1AD08
330
1A65A
100
AcDbEntity
  8
U1
100
AcDbCircle
 10
11290.41703198606
 20
5721.915360473253
 30
0.0
 40
4.0
100
AcDbArc
 50
0.0
 51
90.0
  0
ARC
  5
1AD09
330
1A65A
100
AcDbEntity
  8
U1
100
AcDbCircle
 10
11297.86703198605
 20
5712.665360473253
 30
0.0
 40
1.149999999999977
100
AcDbArc
 50
180.0
 51
0.0
  0
LINE
  5
1AD0A
330
1A65A
100
AcDbEntity
  8
U1
100
AcDbLine
 10
11301.31703198606
 20
5720.215360473253
 30
0.0
 11
11301.31703198606
 21
5712.665360473253
 31
0.0
  0
LINE
  5
1AD0B
330
1A65A
100
AcDbEntity
  8
U1
100
AcDbLine
 10
11299.01703198606
 20
5720.215360473253
 30
0.0
 11
11301.31703198606
 21
5720.215360473253
 31
0.0
  0
LINE
  5
1AD0C
330
1A65A
100
AcDbEntity
  8
U1
100
AcDbLine
 10
11296.71703198606
 20
5713.215360473252
 30
0.0
 11
11299.01703198606
 21
5713.215360473252
 31
0.0
  0
ARC
  5
1AD0D
330
1A65A
100
AcDbEntity
  8
U1
100
AcDbCircle
 10
11297.86703198605
 20
5712.665360473253
 30
0.0
 40
3.450000000000044
100
AcDbArc
 50
180.0
 51
0.0
  0
LINE
  5
1AD0E
330
1A65A
100
AcDbEntity
  8
U1
100
AcDbLine
 10
11296.71703198606
 20
5712.665360473253
 30
0.0
 11
11296.71703198606
 21
5721.915360473252
 31
0.0
  0
LINE
  5
1AD0F
330
1A65A
100
AcDbEntity
  8
U1
100
AcDbLine
 10
11299.01703198606
 20
5721.915360473253
 30
0.0
 11
11299.01703198606
 21
5712.665360473253
 31
0.0
  0
LINE
  5
1AD10
330
1A65A
100
AcDbEntity
  8
U1
100
AcDbLine
 10
11294.41703198606
 20
5712.665360473253
 30
0.0
 11
11294.41703198606
 21
5721.915360473253
 31
0.0
  0
ARC
  5
1AD11
330
1A65A
100
AcDbEntity
  8
U1
100
AcDbCircle
 10
11310.41703198606
 20
5721.915360473253
 30
0.0
 40
4.0
100
AcDbArc
 50
0.0
 51
90.0
  0
LINE
  5
1AD12
330
1A65A
100
AcDbEntity
  8
U1
100
AcDbLine
 10
11310.41703198606
 20
5725.915360473253
 30
0.0
 11
11303.01703198606
 21
5725.915360473253
 31
0.0
  0
ARC
  5
1AD13
330
1A65A
100
AcDbEntity
  8
U1
100
AcDbCircle
 10
11303.01703198606
 20
5721.915360473253
 30
0.0
 40
4.0
100
AcDbArc
 50
90.0
 51
180.0
  0
LINE
  5
1AD14
330
1A65A
100
AcDbEntity
  8
U1
100
AcDbLine
 10
11314.41703198606
 20
5669.515360473252
 30
0.0
 11
11314.41703198606
 21
5721.915360473253
 31
0.0
  0
LINE
  5
1AD15
330
1A65A
100
AcDbEntity
  8
U1
100
AcDbLine
 10
8840.417031986062
 20
9325.915360473253
 30
0.0
 11
8808.017031986059
 21
9325.915360473253
 31
0.0
  0
LINE
  5
1AD16
330
1A65A
100
AcDbEntity
  8
U1
100
AcDbLine
 10
8808.017031986059
 20
9265.515360473251
 30
0.0
 11
8860.41703198606
 21
9265.515360473251
 31
0.0
  0
ARC
  5
1AD17
330
1A65A
100
AcDbEntity
  8
U1
100
AcDbCircle
 10
8808.017031986059
 20
9269.515360473251
 30
0.0
 40
4.0
100
AcDbArc
 50
180.0
 51
270.0
  0
ARC
  5
1AD18
330
1A65A
100
AcDbEntity
  8
U1
100
AcDbCircle
 10
8808.017031986059
 20
9321.915360473253
 30
0.0
 40
4.0
100
AcDbArc
 50
90.0
 51
180.0
  0
LINE
  5
1AD19
330
1A65A
100
AcDbEntity
  8
U1
100
AcDbLine
 10
8804.017031986061
 20
9321.915360473253
 30
0.0
 11
8804.017031986061
 21
9269.515360473251
 31
0.0
  0
ARC
  5
1AD1A
330
1A65A
100
AcDbEntity
  8
U1
100
AcDbCircle
 10
8860.41703198606
 20
9269.515360473251
 30
0.0
 40
4.0
100
AcDbArc
 50
270.0
 51
0.0
  0
ARC
  5
1AD1B
330
1A65A
100
AcDbEntity
  8
U1
100
AcDbCircle
 10
8840.417031986062
 20
9321.915360473253
 30
0.0
 40
4.0
100
AcDbArc
 50
0.0
 51
90.0
  0
ARC
  5
1AD1C
330
1A65A
100
AcDbEntity
  8
U1
100
AcDbCircle
 10
8847.86703198606
 20
9312.665360473252
 30
0.0
 40
1.149999999999977
100
AcDbArc
 50
180.0
 51
0.0
  0
LINE
  5
1AD1D
330
1A65A
100
AcDbEntity
  8
U1
100
AcDbLine
 10
8851.317031986061
 20
9320.215360473252
 30
0.0
 11
8851.317031986061
 21
9312.665360473252
 31
0.0
  0
LINE
  5
1AD1E
330
1A65A
100
AcDbEntity
  8
U1
100
AcDbLine
 10
8849.017031986059
 20
9320.215360473252
 30
0.0
 11
8851.317031986061
 21
9320.215360473252
 31
0.0
  0
LINE
  5
1AD1F
330
1A65A
100
AcDbEntity
  8
U1
100
AcDbLine
 10
8846.717031986059
 20
9313.215360473252
 30
0.0
 11
8849.017031986059
 21
9313.215360473252
 31
0.0
  0
ARC
  5
1AD20
330
1A65A
100
AcDbEntity
  8
U1
100
AcDbCircle
 10
8847.86703198606
 20
9312.665360473252
 30
0.0
 40
3.450000000000044
100
AcDbArc
 50
180.0
 51
0.0
  0
LINE
  5
1AD21
330
1A65A
100
AcDbEntity
  8
U1
100
AcDbLine
 10
8846.717031986059
 20
9312.665360473252
 30
0.0
 11
8846.717031986059
 21
9321.915360473253
 31
0.0
  0
LINE
  5
1AD22
330
1A65A
100
AcDbEntity
  8
U1
100
AcDbLine
 10
8849.017031986059
 20
9321.915360473253
 30
0.0
 11
8849.017031986059
 21
9312.665360473252
 31
0.0
  0
LINE
  5
1AD23
330
1A65A
100
AcDbEntity
  8
U1
100
AcDbLine
 10
8844.417031986059
 20
9312.665360473252
 30
0.0
 11
8844.417031986059
 21
9321.915360473253
 31
0.0
  0
ARC
  5
1AD24
330
1A65A
100
AcDbEntity
  8
U1
100
AcDbCircle
 10
8860.41703198606
 20
9321.915360473253
 30
0.0
 40
4.0
100
AcDbArc
 50
0.0
 51
90.0
  0
LINE
  5
1AD25
330
1A65A
100
AcDbEntity
  8
U1
100
AcDbLine
 10
8860.41703198606
 20
9325.915360473253
 30
0.0
 11
8853.017031986059
 21
9325.915360473253
 31
0.0
  0
ARC
  5
1AD26
330
1A65A
100
AcDbEntity
  8
U1
100
AcDbCircle
 10
8853.017031986059
 20
9321.915360473253
 30
0.0
 40
4.0
100
AcDbArc
 50
90.0
 51
180.0
  0
LINE
  5
1AD27
330
1A65A
100
AcDbEntity
  8
U1
100
AcDbLine
 10
8864.417031986061
 20
9269.515360473251
 30
0.0
 11
8864.417031986061
 21
9321.915360473253
 31
0.0
  0
LINE
  5
1AD28
330
1A65A
100
AcDbEntity
  8
U1
100
AcDbLine
 10
8840.417031986062
 20
7525.915360473252
 30
0.0
 11
8808.017031986059
 21
7525.915360473252
 31
0.0
  0
LINE
  5
1AD29
330
1A65A
100
AcDbEntity
  8
U1
100
AcDbLine
 10
8808.017031986059
 20
7465.515360473251
 30
0.0
 11
8860.41703198606
 21
7465.515360473251
 31
0.0
  0
ARC
  5
1AD2A
330
1A65A
100
AcDbEntity
  8
U1
100
AcDbCircle
 10
8808.017031986059
 20
7469.515360473251
 30
0.0
 40
4.0
100
AcDbArc
 50
180.0
 51
270.0
  0
ARC
  5
1AD2B
330
1A65A
100
AcDbEntity
  8
U1
100
AcDbCircle
 10
8808.017031986059
 20
7521.915360473252
 30
0.0
 40
4.0
100
AcDbArc
 50
90.0
 51
180.0
  0
LINE
  5
1AD2C
330
1A65A
100
AcDbEntity
  8
U1
100
AcDbLine
 10
8804.017031986061
 20
7521.915360473252
 30
0.0
 11
8804.017031986061
 21
7469.515360473251
 31
0.0
  0
ARC
  5
1AD2D
330
1A65A
100
AcDbEntity
  8
U1
100
AcDbCircle
 10
8860.41703198606
 20
7469.515360473251
 30
0.0
 40
4.0
100
AcDbArc
 50
270.0
 51
0.0
  0
ARC
  5
1AD2E
330
1A65A
100
AcDbEntity
  8
U1
100
AcDbCircle
 10
8840.417031986062
 20
7521.915360473252
 30
0.0
 40
4.0
100
AcDbArc
 50
0.0
 51
90.0
  0
ARC
  5
1AD2F
330
1A65A
100
AcDbEntity
  8
U1
100
AcDbCircle
 10
8847.86703198606
 20
7512.665360473251
 30
0.0
 40
1.149999999999977
100
AcDbArc
 50
180.0
 51
0.0
  0
LINE
  5
1AD30
330
1A65A
100
AcDbEntity
  8
U1
100
AcDbLine
 10
8851.317031986061
 20
7520.215360473253
 30
0.0
 11
8851.317031986061
 21
7512.665360473251
 31
0.0
  0
LINE
  5
1AD31
330
1A65A
100
AcDbEntity
  8
U1
100
AcDbLine
 10
8849.017031986059
 20
7520.215360473253
 30
0.0
 11
8851.317031986061
 21
7520.215360473253
 31
0.0
  0
LINE
  5
1AD32
330
1A65A
100
AcDbEntity
  8
U1
100
AcDbLine
 10
8846.717031986059
 20
7513.215360473253
 30
0.0
 11
8849.017031986059
 21
7513.215360473253
 31
0.0
  0
ARC
  5
1AD33
330
1A65A
100
AcDbEntity
  8
U1
100
AcDbCircle
 10
8847.86703198606
 20
7512.665360473251
 30
0.0
 40
3.450000000000044
100
AcDbArc
 50
180.0
 51
0.0
  0
LINE
  5
1AD34
330
1A65A
100
AcDbEntity
  8
U1
100
AcDbLine
 10
8846.717031986059
 20
7512.665360473251
 30
0.0
 11
8846.717031986059
 21
7521.915360473252
 31
0.0
  0
LINE
  5
1AD35
330
1A65A
100
AcDbEntity
  8
U1
100
AcDbLine
 10
8849.017031986059
 20
7521.915360473252
 30
0.0
 11
8849.017031986059
 21
7512.665360473251
 31
0.0
  0
LINE
  5
1AD36
330
1A65A
100
AcDbEntity
  8
U1
100
AcDbLine
 10
8844.417031986059
 20
7512.665360473251
 30
0.0
 11
8844.417031986059
 21
7521.915360473252
 31
0.0
  0
ARC
  5
1AD37
330
1A65A
100
AcDbEntity
  8
U1
100
AcDbCircle
 10
8860.41703198606
 20
7521.915360473252
 30
0.0
 40
4.0
100
AcDbArc
 50
0.0
 51
90.0
  0
LINE
  5
1AD38
330
1A65A
100
AcDbEntity
  8
U1
100
AcDbLine
 10
8860.41703198606
 20
7525.915360473252
 30
0.0
 11
8853.017031986059
 21
7525.915360473252
 31
0.0
  0
ARC
  5
1AD39
330
1A65A
100
AcDbEntity
  8
U1
100
AcDbCircle
 10
8853.017031986059
 20
7521.915360473252
 30
0.0
 40
4.0
100
AcDbArc
 50
90.0
 51
180.0
  0
LINE
  5
1AD3A
330
1A65A
100
AcDbEntity
  8
U1
100
AcDbLine
 10
8864.417031986061
 20
7469.515360473251
 30
0.0
 11
8864.417031986061
 21
7521.915360473252
 31
0.0
  0
LINE
  5
1AD3B
330
1A65A
100
AcDbEntity
  8
U1
100
AcDbLine
 10
8840.417031986062
 20
5725.915360473253
 30
0.0
 11
8808.017031986059
 21
5725.915360473253
 31
0.0
  0
LINE
  5
1AD3C
330
1A65A
100
AcDbEntity
  8
U1
100
AcDbLine
 10
8808.017031986059
 20
5665.515360473253
 30
0.0
 11
8860.41703198606
 21
5665.515360473253
 31
0.0
  0
ARC
  5
1AD3D
330
1A65A
100
AcDbEntity
  8
U1
100
AcDbCircle
 10
8808.017031986059
 20
5669.515360473252
 30
0.0
 40
4.0
100
AcDbArc
 50
180.0
 51
270.0
  0
ARC
  5
1AD3E
330
1A65A
100
AcDbEntity
  8
U1
100
AcDbCircle
 10
8808.017031986059
 20
5721.915360473253
 30
0.0
 40
4.0
100
AcDbArc
 50
90.0
 51
180.0
  0
LINE
  5
1AD3F
330
1A65A
100
AcDbEntity
  8
U1
100
AcDbLine
 10
8804.017031986061
 20
5721.915360473253
 30
0.0
 11
8804.017031986061
 21
5669.515360473252
 31
0.0
  0
ARC
  5
1AD40
330
1A65A
100
AcDbEntity
  8
U1
100
AcDbCircle
 10
8860.41703198606
 20
5669.515360473252
 30
0.0
 40
4.0
100
AcDbArc
 50
270.0
 51
0.0
  0
ARC
  5
1AD41
330
1A65A
100
AcDbEntity
  8
U1
100
AcDbCircle
 10
8840.417031986062
 20
5721.915360473253
 30
0.0
 40
4.0
100
AcDbArc
 50
0.0
 51
90.0
  0
ARC
  5
1AD42
330
1A65A
100
AcDbEntity
  8
U1
100
AcDbCircle
 10
8847.86703198606
 20
5712.665360473253
 30
0.0
 40
1.149999999999977
100
AcDbArc
 50
180.0
 51
0.0
  0
LINE
  5
1AD43
330
1A65A
100
AcDbEntity
  8
U1
100
AcDbLine
 10
8851.317031986061
 20
5720.215360473253
 30
0.0
 11
8851.317031986061
 21
5712.665360473253
 31
0.0
  0
LINE
  5
1AD44
330
1A65A
100
AcDbEntity
  8
U1
100
AcDbLine
 10
8849.017031986059
 20
5720.215360473253
 30
0.0
 11
8851.317031986061
 21
5720.215360473253
 31
0.0
  0
LINE
  5
1AD45
330
1A65A
100
AcDbEntity
  8
U1
100
AcDbLine
 10
8846.717031986059
 20
5713.215360473252
 30
0.0
 11
8849.017031986059
 21
5713.215360473252
 31
0.0
  0
ARC
  5
1AD46
330
1A65A
100
AcDbEntity
  8
U1
100
AcDbCircle
 10
8847.86703198606
 20
5712.665360473253
 30
0.0
 40
3.450000000000044
100
AcDbArc
 50
180.0
 51
0.0
  0
LINE
  5
1AD47
330
1A65A
100
AcDbEntity
  8
U1
100
AcDbLine
 10
8846.717031986059
 20
5712.665360473253
 30
0.0
 11
8846.717031986059
 21
5721.915360473252
 31
0.0
  0
LINE
  5
1AD48
330
1A65A
100
AcDbEntity
  8
U1
100
AcDbLine
 10
8849.017031986059
 20
5721.915360473253
 30
0.0
 11
8849.017031986059
 21
5712.665360473253
 31
0.0
  0
LINE
  5
1AD49
330
1A65A
100
AcDbEntity
  8
U1
100
AcDbLine
 10
8844.417031986059
 20
5712.665360473253
 30
0.0
 11
8844.417031986059
 21
5721.915360473253
 31
0.0
  0
ARC
  5
1AD4A
330
1A65A
100
AcDbEntity
  8
U1
100
AcDbCircle
 10
8860.41703198606
 20
5721.915360473253
 30
0.0
 40
4.0
100
AcDbArc
 50
0.0
 51
90.0
  0
LINE
  5
1AD4B
330
1A65A
100
AcDbEntity
  8
U1
100
AcDbLine
 10
8860.41703198606
 20
5725.915360473253
 30
0.0
 11
8853.017031986059
 21
5725.915360473253
 31
0.0
  0
ARC
  5
1AD4C
330
1A65A
100
AcDbEntity
  8
U1
100
AcDbCircle
 10
8853.017031986059
 20
5721.915360473253
 30
0.0
 40
4.0
100
AcDbArc
 50
90.0
 51
180.0
  0
LINE
  5
1AD4D
330
1A65A
100
AcDbEntity
  8
U1
100
AcDbLine
 10
8864.417031986061
 20
5669.515360473252
 30
0.0
 11
8864.417031986061
 21
5721.915360473253
 31
0.0
  0
LINE
  5
1AD4E
330
1A65A
100
AcDbEntity
  8
U1
100
AcDbLine
 10
7540.417031986061
 20
9325.915360473253
 30
0.0
 11
7508.017031986061
 21
9325.915360473253
 31
0.0
  0
LINE
  5
1AD4F
330
1A65A
100
AcDbEntity
  8
U1
100
AcDbLine
 10
7508.017031986061
 20
9265.515360473251
 30
0.0
 11
7560.41703198606
 21
9265.515360473251
 31
0.0
  0
ARC
  5
1AD50
330
1A65A
100
AcDbEntity
  8
U1
100
AcDbCircle
 10
7508.017031986061
 20
9269.515360473251
 30
0.0
 40
4.0
100
AcDbArc
 50
180.0
 51
270.0
  0
ARC
  5
1AD51
330
1A65A
100
AcDbEntity
  8
U1
100
AcDbCircle
 10
7508.017031986061
 20
9321.915360473253
 30
0.0
 40
4.0
100
AcDbArc
 50
90.0
 51
180.0
  0
LINE
  5
1AD52
330
1A65A
100
AcDbEntity
  8
U1
100
AcDbLine
 10
7504.017031986061
 20
9321.915360473253
 30
0.0
 11
7504.017031986061
 21
9269.515360473251
 31
0.0
  0
ARC
  5
1AD53
330
1A65A
100
AcDbEntity
  8
U1
100
AcDbCircle
 10
7560.41703198606
 20
9269.515360473251
 30
0.0
 40
4.0
100
AcDbArc
 50
270.0
 51
0.0
  0
ARC
  5
1AD54
330
1A65A
100
AcDbEntity
  8
U1
100
AcDbCircle
 10
7540.417031986061
 20
9321.915360473253
 30
0.0
 40
4.0
100
AcDbArc
 50
0.0
 51
90.0
  0
ARC
  5
1AD55
330
1A65A
100
AcDbEntity
  8
U1
100
AcDbCircle
 10
7547.867031986061
 20
9312.665360473252
 30
0.0
 40
1.149999999999977
100
AcDbArc
 50
180.0
 51
0.0
  0
LINE
  5
1AD56
330
1A65A
100
AcDbEntity
  8
U1
100
AcDbLine
 10
7551.31703198606
 20
9320.215360473252
 30
0.0
 11
7551.31703198606
 21
9312.665360473252
 31
0.0
  0
LINE
  5
1AD57
330
1A65A
100
AcDbEntity
  8
U1
100
AcDbLine
 10
7549.01703198606
 20
9320.215360473252
 30
0.0
 11
7551.31703198606
 21
9320.215360473252
 31
0.0
  0
LINE
  5
1AD58
330
1A65A
100
AcDbEntity
  8
U1
100
AcDbLine
 10
7546.717031986061
 20
9313.215360473252
 30
0.0
 11
7549.01703198606
 21
9313.215360473252
 31
0.0
  0
ARC
  5
1AD59
330
1A65A
100
AcDbEntity
  8
U1
100
AcDbCircle
 10
7547.867031986061
 20
9312.665360473252
 30
0.0
 40
3.450000000000044
100
AcDbArc
 50
180.0
 51
0.0
  0
LINE
  5
1AD5A
330
1A65A
100
AcDbEntity
  8
U1
100
AcDbLine
 10
7546.717031986061
 20
9312.665360473252
 30
0.0
 11
7546.71703198606
 21
9321.915360473253
 31
0.0
  0
LINE
  5
1AD5B
330
1A65A
100
AcDbEntity
  8
U1
100
AcDbLine
 10
7549.01703198606
 20
9321.915360473253
 30
0.0
 11
7549.01703198606
 21
9312.665360473252
 31
0.0
  0
LINE
  5
1AD5C
330
1A65A
100
AcDbEntity
  8
U1
100
AcDbLine
 10
7544.417031986061
 20
9312.665360473252
 30
0.0
 11
7544.417031986061
 21
9321.915360473253
 31
0.0
  0
ARC
  5
1AD5D
330
1A65A
100
AcDbEntity
  8
U1
100
AcDbCircle
 10
7560.41703198606
 20
9321.915360473253
 30
0.0
 40
4.0
100
AcDbArc
 50
0.0
 51
90.0
  0
LINE
  5
1AD5E
330
1A65A
100
AcDbEntity
  8
U1
100
AcDbLine
 10
7560.41703198606
 20
9325.915360473253
 30
0.0
 11
7553.017031986062
 21
9325.915360473253
 31
0.0
  0
ARC
  5
1AD5F
330
1A65A
100
AcDbEntity
  8
U1
100
AcDbCircle
 10
7553.017031986062
 20
9321.915360473253
 30
0.0
 40
4.0
100
AcDbArc
 50
90.0
 51
180.0
  0
LINE
  5
1AD60
330
1A65A
100
AcDbEntity
  8
U1
100
AcDbLine
 10
7564.417031986059
 20
9269.515360473251
 30
0.0
 11
7564.417031986059
 21
9321.915360473253
 31
0.0
  0
LINE
  5
1AD61
330
1A65A
100
AcDbEntity
  8
U1
100
AcDbLine
 10
7540.417031986061
 20
7525.915360473252
 30
0.0
 11
7508.017031986061
 21
7525.915360473252
 31
0.0
  0
LINE
  5
1AD62
330
1A65A
100
AcDbEntity
  8
U1
100
AcDbLine
 10
7508.017031986061
 20
7465.515360473251
 30
0.0
 11
7560.41703198606
 21
7465.515360473251
 31
0.0
  0
ARC
  5
1AD63
330
1A65A
100
AcDbEntity
  8
U1
100
AcDbCircle
 10
7508.017031986061
 20
7469.515360473251
 30
0.0
 40
4.0
100
AcDbArc
 50
180.0
 51
270.0
  0
ARC
  5
1AD64
330
1A65A
100
AcDbEntity
  8
U1
100
AcDbCircle
 10
7508.017031986061
 20
7521.915360473252
 30
0.0
 40
4.0
100
AcDbArc
 50
90.0
 51
180.0
  0
LINE
  5
1AD65
330
1A65A
100
AcDbEntity
  8
U1
100
AcDbLine
 10
7504.017031986061
 20
7521.915360473252
 30
0.0
 11
7504.017031986061
 21
7469.515360473251
 31
0.0
  0
ARC
  5
1AD66
330
1A65A
100
AcDbEntity
  8
U1
100
AcDbCircle
 10
7560.41703198606
 20
7469.515360473251
 30
0.0
 40
4.0
100
AcDbArc
 50
270.0
 51
0.0
  0
ARC
  5
1AD67
330
1A65A
100
AcDbEntity
  8
U1
100
AcDbCircle
 10
7540.417031986061
 20
7521.915360473252
 30
0.0
 40
4.0
100
AcDbArc
 50
0.0
 51
90.0
  0
ARC
  5
1AD68
330
1A65A
100
AcDbEntity
  8
U1
100
AcDbCircle
 10
7547.867031986061
 20
7512.665360473251
 30
0.0
 40
1.149999999999977
100
AcDbArc
 50
180.0
 51
0.0
  0
LINE
  5
1AD69
330
1A65A
100
AcDbEntity
  8
U1
100
AcDbLine
 10
7551.31703198606
 20
7520.215360473253
 30
0.0
 11
7551.31703198606
 21
7512.665360473251
 31
0.0
  0
LINE
  5
1AD6A
330
1A65A
100
AcDbEntity
  8
U1
100
AcDbLine
 10
7549.01703198606
 20
7520.215360473253
 30
0.0
 11
7551.31703198606
 21
7520.215360473253
 31
0.0
  0
LINE
  5
1AD6B
330
1A65A
100
AcDbEntity
  8
U1
100
AcDbLine
 10
7546.717031986061
 20
7513.215360473253
 30
0.0
 11
7549.01703198606
 21
7513.215360473253
 31
0.0
  0
ARC
  5
1AD6C
330
1A65A
100
AcDbEntity
  8
U1
100
AcDbCircle
 10
7547.867031986061
 20
7512.665360473251
 30
0.0
 40
3.450000000000044
100
AcDbArc
 50
180.0
 51
0.0
  0
LINE
  5
1AD6D
330
1A65A
100
AcDbEntity
  8
U1
100
AcDbLine
 10
7546.717031986061
 20
7512.665360473251
 30
0.0
 11
7546.71703198606
 21
7521.915360473252
 31
0.0
  0
LINE
  5
1AD6E
330
1A65A
100
AcDbEntity
  8
U1
100
AcDbLine
 10
7549.01703198606
 20
7521.915360473252
 30
0.0
 11
7549.01703198606
 21
7512.665360473251
 31
0.0
  0
LINE
  5
1AD6F
330
1A65A
100
AcDbEntity
  8
U1
100
AcDbLine
 10
7544.417031986061
 20
7512.665360473251
 30
0.0
 11
7544.417031986061
 21
7521.915360473252
 31
0.0
  0
ARC
  5
1AD70
330
1A65A
100
AcDbEntity
  8
U1
100
AcDbCircle
 10
7560.41703198606
 20
7521.915360473252
 30
0.0
 40
4.0
100
AcDbArc
 50
0.0
 51
90.0
  0
LINE
  5
1AD71
330
1A65A
100
AcDbEntity
  8
U1
100
AcDbLine
 10
7560.41703198606
 20
7525.915360473252
 30
0.0
 11
7553.017031986062
 21
7525.915360473252
 31
0.0
  0
ARC
  5
1AD72
330
1A65A
100
AcDbEntity
  8
U1
100
AcDbCircle
 10
7553.017031986062
 20
7521.915360473252
 30
0.0
 40
4.0
100
AcDbArc
 50
90.0
 51
180.0
  0
LINE
  5
1AD73
330
1A65A
100
AcDbEntity
  8
U1
100
AcDbLine
 10
7564.417031986059
 20
7469.515360473251
 30
0.0
 11
7564.417031986059
 21
7521.915360473252
 31
0.0
  0
LINE
  5
1AD74
330
1A65A
100
AcDbEntity
  8
U1
100
AcDbLine
 10
7540.417031986061
 20
5725.915360473253
 30
0.0
 11
7508.017031986061
 21
5725.915360473253
 31
0.0
  0
LINE
  5
1AD75
330
1A65A
100
AcDbEntity
  8
U1
100
AcDbLine
 10
7508.017031986061
 20
5665.515360473253
 30
0.0
 11
7560.41703198606
 21
5665.515360473253
 31
0.0
  0
ARC
  5
1AD76
330
1A65A
100
AcDbEntity
  8
U1
100
AcDbCircle
 10
7508.017031986061
 20
5669.515360473252
 30
0.0
 40
4.0
100
AcDbArc
 50
180.0
 51
270.0
  0
ARC
  5
1AD77
330
1A65A
100
AcDbEntity
  8
U1
100
AcDbCircle
 10
7508.017031986061
 20
5721.915360473253
 30
0.0
 40
4.0
100
AcDbArc
 50
90.0
 51
180.0
  0
LINE
  5
1AD78
330
1A65A
100
AcDbEntity
  8
U1
100
AcDbLine
 10
7504.017031986061
 20
5721.915360473253
 30
0.0
 11
7504.017031986061
 21
5669.515360473252
 31
0.0
  0
ARC
  5
1AD79
330
1A65A
100
AcDbEntity
  8
U1
100
AcDbCircle
 10
7560.41703198606
 20
5669.515360473252
 30
0.0
 40
4.0
100
AcDbArc
 50
270.0
 51
0.0
  0
ARC
  5
1AD7A
330
1A65A
100
AcDbEntity
  8
U1
100
AcDbCircle
 10
7540.417031986061
 20
5721.915360473253
 30
0.0
 40
4.0
100
AcDbArc
 50
0.0
 51
90.0
  0
ARC
  5
1AD7B
330
1A65A
100
AcDbEntity
  8
U1
100
AcDbCircle
 10
7547.867031986061
 20
5712.665360473253
 30
0.0
 40
1.149999999999977
100
AcDbArc
 50
180.0
 51
0.0
  0
LINE
  5
1AD7C
330
1A65A
100
AcDbEntity
  8
U1
100
AcDbLine
 10
7551.31703198606
 20
5720.215360473253
 30
0.0
 11
7551.31703198606
 21
5712.665360473253
 31
0.0
  0
LINE
  5
1AD7D
330
1A65A
100
AcDbEntity
  8
U1
100
AcDbLine
 10
7549.01703198606
 20
5720.215360473253
 30
0.0
 11
7551.31703198606
 21
5720.215360473253
 31
0.0
  0
LINE
  5
1AD7E
330
1A65A
100
AcDbEntity
  8
U1
100
AcDbLine
 10
7546.717031986061
 20
5713.215360473252
 30
0.0
 11
7549.01703198606
 21
5713.215360473252
 31
0.0
  0
ARC
  5
1AD7F
330
1A65A
100
AcDbEntity
  8
U1
100
AcDbCircle
 10
7547.867031986061
 20
5712.665360473253
 30
0.0
 40
3.450000000000044
100
AcDbArc
 50
180.0
 51
0.0
  0
LINE
  5
1AD80
330
1A65A
100
AcDbEntity
  8
U1
100
AcDbLine
 10
7546.717031986061
 20
5712.665360473253
 30
0.0
 11
7546.71703198606
 21
5721.915360473252
 31
0.0
  0
LINE
  5
1AD81
330
1A65A
100
AcDbEntity
  8
U1
100
AcDbLine
 10
7549.01703198606
 20
5721.915360473253
 30
0.0
 11
7549.01703198606
 21
5712.665360473253
 31
0.0
  0
LINE
  5
1AD82
330
1A65A
100
AcDbEntity
  8
U1
100
AcDbLine
 10
7544.417031986061
 20
5712.665360473253
 30
0.0
 11
7544.417031986061
 21
5721.915360473253
 31
0.0
  0
ARC
  5
1AD83
330
1A65A
100
AcDbEntity
  8
U1
100
AcDbCircle
 10
7560.41703198606
 20
5721.915360473253
 30
0.0
 40
4.0
100
AcDbArc
 50
0.0
 51
90.0
  0
LINE
  5
1AD84
330
1A65A
100
AcDbEntity
  8
U1
100
AcDbLine
 10
7560.41703198606
 20
5725.915360473253
 30
0.0
 11
7553.017031986062
 21
5725.915360473253
 31
0.0
  0
ARC
  5
1AD85
330
1A65A
100
AcDbEntity
  8
U1
100
AcDbCircle
 10
7553.017031986062
 20
5721.915360473253
 30
0.0
 40
4.0
100
AcDbArc
 50
90.0
 51
180.0
  0
LINE
  5
1AD86
330
1A65A
100
AcDbEntity
  8
U1
100
AcDbLine
 10
7564.417031986059
 20
5669.515360473252
 30
0.0
 11
7564.417031986059
 21
5721.915360473253
 31
0.0
  0
LINE
  5
1AD87
330
1A65A
100
AcDbEntity
  8
U1
100
AcDbLine
 10
5090.41703198606
 20
9325.915360473253
 30
0.0
 11
5058.01703198606
 21
9325.915360473253
 31
0.0
  0
LINE
  5
1AD88
330
1A65A
100
AcDbEntity
  8
U1
100
AcDbLine
 10
5058.01703198606
 20
9265.515360473251
 30
0.0
 11
5110.41703198606
 21
9265.515360473251
 31
0.0
  0
ARC
  5
1AD89
330
1A65A
100
AcDbEntity
  8
U1
100
AcDbCircle
 10
5058.01703198606
 20
9269.515360473251
 30
0.0
 40
4.0
100
AcDbArc
 50
180.0
 51
270.0
  0
ARC
  5
1AD8A
330
1A65A
100
AcDbEntity
  8
U1
100
AcDbCircle
 10
5058.01703198606
 20
9321.915360473253
 30
0.0
 40
4.0
100
AcDbArc
 50
90.0
 51
180.0
  0
LINE
  5
1AD8B
330
1A65A
100
AcDbEntity
  8
U1
100
AcDbLine
 10
5054.01703198606
 20
9321.915360473253
 30
0.0
 11
5054.01703198606
 21
9269.515360473251
 31
0.0
  0
ARC
  5
1AD8C
330
1A65A
100
AcDbEntity
  8
U1
100
AcDbCircle
 10
5110.41703198606
 20
9269.515360473251
 30
0.0
 40
4.0
100
AcDbArc
 50
270.0
 51
0.0
  0
ARC
  5
1AD8D
330
1A65A
100
AcDbEntity
  8
U1
100
AcDbCircle
 10
5090.41703198606
 20
9321.915360473253
 30
0.0
 40
4.0
100
AcDbArc
 50
0.0
 51
90.0
  0
ARC
  5
1AD8E
330
1A65A
100
AcDbEntity
  8
U1
100
AcDbCircle
 10
5097.86703198606
 20
9312.665360473252
 30
0.0
 40
1.149999999999977
100
AcDbArc
 50
180.0
 51
0.0
  0
LINE
  5
1AD8F
330
1A65A
100
AcDbEntity
  8
U1
100
AcDbLine
 10
5101.317031986059
 20
9320.215360473252
 30
0.0
 11
5101.317031986059
 21
9312.665360473252
 31
0.0
  0
LINE
  5
1AD90
330
1A65A
100
AcDbEntity
  8
U1
100
AcDbLine
 10
5099.01703198606
 20
9320.215360473252
 30
0.0
 11
5101.317031986059
 21
9320.215360473252
 31
0.0
  0
LINE
  5
1AD91
330
1A65A
100
AcDbEntity
  8
U1
100
AcDbLine
 10
5096.717031986059
 20
9313.215360473252
 30
0.0
 11
5099.01703198606
 21
9313.215360473252
 31
0.0
  0
ARC
  5
1AD92
330
1A65A
100
AcDbEntity
  8
U1
100
AcDbCircle
 10
5097.86703198606
 20
9312.665360473252
 30
0.0
 40
3.450000000000044
100
AcDbArc
 50
180.0
 51
0.0
  0
LINE
  5
1AD93
330
1A65A
100
AcDbEntity
  8
U1
100
AcDbLine
 10
5096.717031986059
 20
9312.665360473252
 30
0.0
 11
5096.717031986058
 21
9321.915360473253
 31
0.0
  0
LINE
  5
1AD94
330
1A65A
100
AcDbEntity
  8
U1
100
AcDbLine
 10
5099.01703198606
 20
9321.915360473253
 30
0.0
 11
5099.01703198606
 21
9312.665360473252
 31
0.0
  0
LINE
  5
1AD95
330
1A65A
100
AcDbEntity
  8
U1
100
AcDbLine
 10
5094.41703198606
 20
9312.665360473252
 30
0.0
 11
5094.41703198606
 21
9321.915360473253
 31
0.0
  0
ARC
  5
1AD96
330
1A65A
100
AcDbEntity
  8
U1
100
AcDbCircle
 10
5110.41703198606
 20
9321.915360473253
 30
0.0
 40
4.0
100
AcDbArc
 50
0.0
 51
90.0
  0
LINE
  5
1AD97
330
1A65A
100
AcDbEntity
  8
U1
100
AcDbLine
 10
5110.41703198606
 20
9325.915360473253
 30
0.0
 11
5103.01703198606
 21
9325.915360473253
 31
0.0
  0
ARC
  5
1AD98
330
1A65A
100
AcDbEntity
  8
U1
100
AcDbCircle
 10
5103.01703198606
 20
9321.915360473253
 30
0.0
 40
4.0
100
AcDbArc
 50
90.0
 51
180.0
  0
LINE
  5
1AD99
330
1A65A
100
AcDbEntity
  8
U1
100
AcDbLine
 10
5114.417031986061
 20
9269.515360473251
 30
0.0
 11
5114.417031986061
 21
9321.915360473253
 31
0.0
  0
LINE
  5
1AD9A
330
1A65A
100
AcDbEntity
  8
U1
100
AcDbLine
 10
5090.41703198606
 20
7525.915360473252
 30
0.0
 11
5058.01703198606
 21
7525.915360473252
 31
0.0
  0
LINE
  5
1AD9B
330
1A65A
100
AcDbEntity
  8
U1
100
AcDbLine
 10
5058.01703198606
 20
7465.515360473251
 30
0.0
 11
5110.41703198606
 21
7465.515360473251
 31
0.0
  0
ARC
  5
1AD9C
330
1A65A
100
AcDbEntity
  8
U1
100
AcDbCircle
 10
5058.01703198606
 20
7469.515360473251
 30
0.0
 40
4.0
100
AcDbArc
 50
180.0
 51
270.0
  0
ARC
  5
1AD9D
330
1A65A
100
AcDbEntity
  8
U1
100
AcDbCircle
 10
5058.01703198606
 20
7521.915360473252
 30
0.0
 40
4.0
100
AcDbArc
 50
90.0
 51
180.0
  0
LINE
  5
1AD9E
330
1A65A
100
AcDbEntity
  8
U1
100
AcDbLine
 10
5054.01703198606
 20
7521.915360473252
 30
0.0
 11
5054.01703198606
 21
7469.515360473251
 31
0.0
  0
ARC
  5
1AD9F
330
1A65A
100
AcDbEntity
  8
U1
100
AcDbCircle
 10
5110.41703198606
 20
7469.515360473251
 30
0.0
 40
4.0
100
AcDbArc
 50
270.0
 51
0.0
  0
ARC
  5
1ADA0
330
1A65A
100
AcDbEntity
  8
U1
100
AcDbCircle
 10
5090.41703198606
 20
7521.915360473252
 30
0.0
 40
4.0
100
AcDbArc
 50
0.0
 51
90.0
  0
ARC
  5
1ADA1
330
1A65A
100
AcDbEntity
  8
U1
100
AcDbCircle
 10
5097.86703198606
 20
7512.665360473251
 30
0.0
 40
1.149999999999977
100
AcDbArc
 50
180.0
 51
0.0
  0
LINE
  5
1ADA2
330
1A65A
100
AcDbEntity
  8
U1
100
AcDbLine
 10
5101.317031986059
 20
7520.215360473253
 30
0.0
 11
5101.317031986059
 21
7512.665360473251
 31
0.0
  0
LINE
  5
1ADA3
330
1A65A
100
AcDbEntity
  8
U1
100
AcDbLine
 10
5099.01703198606
 20
7520.215360473253
 30
0.0
 11
5101.317031986059
 21
7520.215360473253
 31
0.0
  0
LINE
  5
1ADA4
330
1A65A
100
AcDbEntity
  8
U1
100
AcDbLine
 10
5096.717031986059
 20
7513.215360473253
 30
0.0
 11
5099.01703198606
 21
7513.215360473253
 31
0.0
  0
ARC
  5
1ADA5
330
1A65A
100
AcDbEntity
  8
U1
100
AcDbCircle
 10
5097.86703198606
 20
7512.665360473251
 30
0.0
 40
3.450000000000044
100
AcDbArc
 50
180.0
 51
0.0
  0
LINE
  5
1ADA6
330
1A65A
100
AcDbEntity
  8
U1
100
AcDbLine
 10
5096.717031986059
 20
7512.665360473251
 30
0.0
 11
5096.717031986058
 21
7521.915360473252
 31
0.0
  0
LINE
  5
1ADA7
330
1A65A
100
AcDbEntity
  8
U1
100
AcDbLine
 10
5099.01703198606
 20
7521.915360473252
 30
0.0
 11
5099.01703198606
 21
7512.665360473251
 31
0.0
  0
LINE
  5
1ADA8
330
1A65A
100
AcDbEntity
  8
U1
100
AcDbLine
 10
5094.41703198606
 20
7512.665360473251
 30
0.0
 11
5094.41703198606
 21
7521.915360473252
 31
0.0
  0
ARC
  5
1ADA9
330
1A65A
100
AcDbEntity
  8
U1
100
AcDbCircle
 10
5110.41703198606
 20
7521.915360473252
 30
0.0
 40
4.0
100
AcDbArc
 50
0.0
 51
90.0
  0
LINE
  5
1ADAA
330
1A65A
100
AcDbEntity
  8
U1
100
AcDbLine
 10
5110.41703198606
 20
7525.915360473252
 30
0.0
 11
5103.01703198606
 21
7525.915360473252
 31
0.0
  0
ARC
  5
1ADAB
330
1A65A
100
AcDbEntity
  8
U1
100
AcDbCircle
 10
5103.01703198606
 20
7521.915360473252
 30
0.0
 40
4.0
100
AcDbArc
 50
90.0
 51
180.0
  0
LINE
  5
1ADAC
330
1A65A
100
AcDbEntity
  8
U1
100
AcDbLine
 10
5114.417031986061
 20
7469.515360473251
 30
0.0
 11
5114.417031986061
 21
7521.915360473252
 31
0.0
  0
LINE
  5
1ADAD
330
1A65A
100
AcDbEntity
  8
U1
100
AcDbLine
 10
5090.41703198606
 20
5725.915360473253
 30
0.0
 11
5058.01703198606
 21
5725.915360473253
 31
0.0
  0
LINE
  5
1ADAE
330
1A65A
100
AcDbEntity
  8
U1
100
AcDbLine
 10
5058.01703198606
 20
5665.515360473253
 30
0.0
 11
5110.41703198606
 21
5665.515360473253
 31
0.0
  0
ARC
  5
1ADAF
330
1A65A
100
AcDbEntity
  8
U1
100
AcDbCircle
 10
5058.01703198606
 20
5669.515360473252
 30
0.0
 40
4.0
100
AcDbArc
 50
180.0
 51
270.0
  0
ARC
  5
1ADB0
330
1A65A
100
AcDbEntity
  8
U1
100
AcDbCircle
 10
5058.01703198606
 20
5721.915360473253
 30
0.0
 40
4.0
100
AcDbArc
 50
90.0
 51
180.0
  0
LINE
  5
1ADB1
330
1A65A
100
AcDbEntity
  8
U1
100
AcDbLine
 10
5054.01703198606
 20
5721.915360473253
 30
0.0
 11
5054.01703198606
 21
5669.515360473252
 31
0.0
  0
ARC
  5
1ADB2
330
1A65A
100
AcDbEntity
  8
U1
100
AcDbCircle
 10
5110.41703198606
 20
5669.515360473252
 30
0.0
 40
4.0
100
AcDbArc
 50
270.0
 51
0.0
  0
ARC
  5
1ADB3
330
1A65A
100
AcDbEntity
  8
U1
100
AcDbCircle
 10
5090.41703198606
 20
5721.915360473253
 30
0.0
 40
4.0
100
AcDbArc
 50
0.0
 51
90.0
  0
ARC
  5
1ADB4
330
1A65A
100
AcDbEntity
  8
U1
100
AcDbCircle
 10
5097.86703198606
 20
5712.665360473253
 30
0.0
 40
1.149999999999977
100
AcDbArc
 50
180.0
 51
0.0
  0
LINE
  5
1ADB5
330
1A65A
100
AcDbEntity
  8
U1
100
AcDbLine
 10
5101.317031986059
 20
5720.215360473253
 30
0.0
 11
5101.317031986059
 21
5712.665360473253
 31
0.0
  0
LINE
  5
1ADB6
330
1A65A
100
AcDbEntity
  8
U1
100
AcDbLine
 10
5099.01703198606
 20
5720.215360473253
 30
0.0
 11
5101.317031986059
 21
5720.215360473253
 31
0.0
  0
LINE
  5
1ADB7
330
1A65A
100
AcDbEntity
  8
U1
100
AcDbLine
 10
5096.717031986059
 20
5713.215360473252
 30
0.0
 11
5099.01703198606
 21
5713.215360473252
 31
0.0
  0
ARC
  5
1ADB8
330
1A65A
100
AcDbEntity
  8
U1
100
AcDbCircle
 10
5097.86703198606
 20
5712.665360473253
 30
0.0
 40
3.450000000000044
100
AcDbArc
 50
180.0
 51
0.0
  0
LINE
  5
1ADB9
330
1A65A
100
AcDbEntity
  8
U1
100
AcDbLine
 10
5096.717031986059
 20
5712.665360473253
 30
0.0
 11
5096.717031986058
 21
5721.915360473252
 31
0.0
  0
LINE
  5
1ADBA
330
1A65A
100
AcDbEntity
  8
U1
100
AcDbLine
 10
5099.01703198606
 20
5721.915360473253
 30
0.0
 11
5099.01703198606
 21
5712.665360473253
 31
0.0
  0
LINE
  5
1ADBB
330
1A65A
100
AcDbEntity
  8
U1
100
AcDbLine
 10
5094.41703198606
 20
5712.665360473253
 30
0.0
 11
5094.41703198606
 21
5721.915360473253
 31
0.0
  0
ARC
  5
1ADBC
330
1A65A
100
AcDbEntity
  8
U1
100
AcDbCircle
 10
5110.41703198606
 20
5721.915360473253
 30
0.0
 40
4.0
100
AcDbArc
 50
0.0
 51
90.0
  0
LINE
  5
1ADBD
330
1A65A
100
AcDbEntity
  8
U1
100
AcDbLine
 10
5110.41703198606
 20
5725.915360473253
 30
0.0
 11
5103.01703198606
 21
5725.915360473253
 31
0.0
  0
ARC
  5
1ADBE
330
1A65A
100
AcDbEntity
  8
U1
100
AcDbCircle
 10
5103.01703198606
 20
5721.915360473253
 30
0.0
 40
4.0
100
AcDbArc
 50
90.0
 51
180.0
  0
LINE
  5
1ADBF
330
1A65A
100
AcDbEntity
  8
U1
100
AcDbLine
 10
5114.417031986061
 20
5669.515360473252
 30
0.0
 11
5114.417031986061
 21
5721.915360473253
 31
0.0
  0
LINE
  5
1ADC0
330
1A65A
100
AcDbEntity
  8
YANE
  6
2PL-L
 62
     6
100
AcDbLine
 10
11680.21703198605
 20
5295.715360473253
 30
0.0
 11
4688.217031986058
 21
5295.715360473253
 31
0.0
  0
LINE
  5
1ADC1
330
1A65A
100
AcDbEntity
  8
YANE
  6
2PL-L
 62
     6
100
AcDbLine
 10
4688.217031986058
 20
5295.715360473253
 30
0.0
 11
4688.217031986058
 21
9695.715360473252
 31
0.0
  0
LINE
  5
1ADC2
330
1A65A
100
AcDbEntity
  8
YANE
  6
2PL-L
 62
     6
100
AcDbLine
 10
4688.217031986058
 20
9695.715360473252
 30
0.0
 11
11680.21703198605
 21
9695.715360473252
 31
0.0
  0
LINE
  5
1ADC3
330
1A65A
100
AcDbEntity
  8
YANE
  6
2PL-L
 62
     6
100
AcDbLine
 10
11680.21703198605
 20
9695.715360473252
 30
0.0
 11
11680.21703198605
 21
5295.715360473253
 31
0.0
  0
LINE
  5
1ADC4
330
1A65A
100
AcDbEntity
  8
KISO
100
AcDbLine
 10
9134.217031986059
 20
8995.715360473253
 30
0.0
 11
8534.217031986059
 21
8995.715360473253
 31
0.0
  0
LINE
  5
1ADC5
330
1A65A
100
AcDbEntity
  8
KISO
100
AcDbLine
 10
8534.217031986059
 20
8995.715360473253
 30
0.0
 11
8534.217031986059
 21
9595.715360473253
 31
0.0
  0
LINE
  5
1ADC6
330
1A65A
100
AcDbEntity
  8
KISO
100
AcDbLine
 10
8534.217031986059
 20
9595.715360473253
 30
0.0
 11
9134.217031986059
 21
9595.715360473253
 31
0.0
  0
LINE
  5
1ADC7
330
1A65A
100
AcDbEntity
  8
KISO
100
AcDbLine
 10
9134.217031986059
 20
9595.715360473253
 30
0.0
 11
9134.217031986059
 21
8995.715360473253
 31
0.0
  0
LINE
  5
1ADC8
330
1A65A
100
AcDbEntity
  8
KISO
100
AcDbLine
 10
7234.21703198606
 20
5395.715360473253
 30
0.0
 11
7834.21703198606
 21
5395.715360473253
 31
0.0
  0
LINE
  5
1ADC9
330
1A65A
100
AcDbEntity
  8
KISO
100
AcDbLine
 10
7834.21703198606
 20
5395.715360473253
 30
0.0
 11
7834.21703198606
 21
5995.715360473253
 31
0.0
  0
LINE
  5
1ADCA
330
1A65A
100
AcDbEntity
  8
KISO
100
AcDbLine
 10
7834.21703198606
 20
5995.715360473253
 30
0.0
 11
7234.21703198606
 21
5995.715360473253
 31
0.0
  0
LINE
  5
1ADCB
330
1A65A
100
AcDbEntity
  8
KISO
100
AcDbLine
 10
7234.21703198606
 20
5995.715360473253
 30
0.0
 11
7234.21703198606
 21
5395.715360473253
 31
0.0
  0
LINE
  5
1ADCC
330
1A65A
100
AcDbEntity
  8
KISO
100
AcDbLine
 10
4784.217031986058
 20
5395.715360473253
 30
0.0
 11
5384.21703198606
 21
5395.715360473253
 31
0.0
  0
LINE
  5
1ADCD
330
1A65A
100
AcDbEntity
  8
KISO
100
AcDbLine
 10
5384.21703198606
 20
5395.715360473253
 30
0.0
 11
5384.21703198606
 21
5995.715360473253
 31
0.0
  0
LINE
  5
1ADCE
330
1A65A
100
AcDbEntity
  8
KISO
100
AcDbLine
 10
5384.21703198606
 20
5995.715360473253
 30
0.0
 11
4784.217031986058
 21
5995.715360473253
 31
0.0
  0
LINE
  5
1ADCF
330
1A65A
100
AcDbEntity
  8
KISO
100
AcDbLine
 10
4784.217031986058
 20
5995.715360473253
 30
0.0
 11
4784.217031986058
 21
5395.715360473253
 31
0.0
  0
LINE
  5
1ADD0
330
1A65A
100
AcDbEntity
  8
KISO
100
AcDbLine
 10
4784.217031986058
 20
8995.715360473253
 30
0.0
 11
5384.21703198606
 21
8995.715360473253
 31
0.0
  0
LINE
  5
1ADD1
330
1A65A
100
AcDbEntity
  8
KISO
100
AcDbLine
 10
5384.21703198606
 20
8995.715360473253
 30
0.0
 11
5384.21703198606
 21
9595.715360473253
 31
0.0
  0
LINE
  5
1ADD2
330
1A65A
100
AcDbEntity
  8
KISO
100
AcDbLine
 10
5384.21703198606
 20
9595.715360473253
 30
0.0
 11
4784.217031986058
 21
9595.715360473253
 31
0.0
  0
LINE
  5
1ADD3
330
1A65A
100
AcDbEntity
  8
KISO
100
AcDbLine
 10
4784.217031986058
 20
9595.715360473253
 30
0.0
 11
4784.217031986058
 21
8995.715360473253
 31
0.0
  0
LINE
  5
1ADD4
330
1A65A
100
AcDbEntity
  8
KISO
100
AcDbLine
 10
11584.21703198605
 20
8995.715360473253
 30
0.0
 11
10984.21703198606
 21
8995.715360473253
 31
0.0
  0
LINE
  5
1ADD5
330
1A65A
100
AcDbEntity
  8
KISO
100
AcDbLine
 10
10984.21703198606
 20
8995.715360473253
 30
0.0
 11
10984.21703198606
 21
9595.715360473253
 31
0.0
  0
LINE
  5
1ADD6
330
1A65A
100
AcDbEntity
  8
KISO
100
AcDbLine
 10
10984.21703198606
 20
9595.715360473253
 30
0.0
 11
11584.21703198605
 21
9595.715360473253
 31
0.0
  0
LINE
  5
1ADD7
330
1A65A
100
AcDbEntity
  8
KISO
100
AcDbLine
 10
11584.21703198605
 20
9595.715360473253
 30
0.0
 11
11584.21703198605
 21
8995.715360473253
 31
0.0
  0
LINE
  5
1ADD8
330
1A65A
100
AcDbEntity
  8
KISO
100
AcDbLine
 10
11584.21703198605
 20
5395.715360473253
 30
0.0
 11
10984.21703198606
 21
5395.715360473253
 31
0.0
  0
LINE
  5
1ADD9
330
1A65A
100
AcDbEntity
  8
KISO
100
AcDbLine
 10
10984.21703198606
 20
5395.715360473253
 30
0.0
 11
10984.21703198606
 21
5995.715360473253
 31
0.0
  0
LINE
  5
1ADDA
330
1A65A
100
AcDbEntity
  8
KISO
100
AcDbLine
 10
10984.21703198606
 20
5995.715360473253
 30
0.0
 11
11584.21703198605
 21
5995.715360473253
 31
0.0
  0
LINE
  5
1ADDB
330
1A65A
100
AcDbEntity
  8
KISO
100
AcDbLine
 10
11584.21703198605
 20
5995.715360473253
 30
0.0
 11
11584.21703198605
 21
5395.715360473253
 31
0.0
  0
LINE
  5
1ADDC
330
1A65A
100
AcDbEntity
  8
KISO
100
AcDbLine
 10
9134.217031986059
 20
5395.715360473253
 30
0.0
 11
8534.217031986059
 21
5395.715360473253
 31
0.0
  0
LINE
  5
1ADDD
330
1A65A
100
AcDbEntity
  8
KISO
100
AcDbLine
 10
8534.217031986059
 20
5395.715360473253
 30
0.0
 11
8534.217031986059
 21
5995.715360473253
 31
0.0
  0
LINE
  5
1ADDE
330
1A65A
100
AcDbEntity
  8
KISO
100
AcDbLine
 10
8534.217031986059
 20
5995.715360473253
 30
0.0
 11
9134.217031986059
 21
5995.715360473253
 31
0.0
  0
LINE
  5
1ADDF
330
1A65A
100
AcDbEntity
  8
KISO
100
AcDbLine
 10
9134.217031986059
 20
5995.715360473253
 30
0.0
 11
9134.217031986059
 21
5395.715360473253
 31
0.0
  0
LINE
  5
1ADE0
330
1A65A
100
AcDbEntity
  8
KISO
100
AcDbLine
 10
7834.21703198606
 20
8995.715360473253
 30
0.0
 11
7234.21703198606
 21
8995.715360473253
 31
0.0
  0
LINE
  5
1ADE1
330
1A65A
100
AcDbEntity
  8
KISO
100
AcDbLine
 10
7234.21703198606
 20
8995.715360473253
 30
0.0
 11
7234.21703198606
 21
9595.715360473253
 31
0.0
  0
LINE
  5
1ADE2
330
1A65A
100
AcDbEntity
  8
KISO
100
AcDbLine
 10
7234.21703198606
 20
9595.715360473253
 30
0.0
 11
7834.21703198606
 21
9595.715360473253
 31
0.0
  0
LINE
  5
1ADE3
330
1A65A
100
AcDbEntity
  8
KISO
100
AcDbLine
 10
7834.21703198606
 20
9595.715360473253
 30
0.0
 11
7834.21703198606
 21
8995.715360473253
 31
0.0
  0
LINE
  5
1ADE4
330
1A65A
100
AcDbEntity
  8
U3
100
AcDbLine
 10
9130.078259983639
 20
3525.966871722361
 30
0.0
 11
9357.853645156977
 21
3920.485411556196
 31
0.0
1001
ACAD
1000
DSTYLE
1002
{
1070
   147
1040
1.0
1070
    77
1070
     0
1002
}
  0
LINE
  5
1ADE5
330
1A65A
100
AcDbEntity
  8
0
100
AcDbLine
 10
9118.531254599844
 20
3532.633538389028
 30
0.0
 11
9090.07825998364
 21
3456.684839419605
 31
0.0
  0
LINE
  5
1ADE6
330
1A65A
100
AcDbEntity
  8
0
100
AcDbLine
 10
9090.07825998364
 20
3456.684839419605
 30
0.0
 11
9141.625265367435
 21
3519.300205055695
 31
0.0
  0
SOLID
  5
1ADE7
330
1A65A
100
AcDbEntity
  8
0
100
AcDbTrace
 10
9118.531254599844
 20
3532.633538389028
 30
0.0
 11
9141.625265367435
 21
3519.300205055695
 31
0.0
 12
9090.07825998364
 22
3456.684839419605
 32
0.0
 13
9090.07825998364
 23
3456.684839419605
 33
0.0
  0
LINE
  5
1ADE8
330
1A65A
100
AcDbEntity
  8
0
100
AcDbLine
 10
9141.625265367435
 20
3519.300205055695
 30
0.0
 11
9118.531254599844
 21
3532.633538389028
 31
0.0
  0
ARC
  5
1ADE9
330
1A65A
100
AcDbEntity
  8
U1
100
AcDbCircle
 10
11310.41703198606
 20
9321.915360473253
 30
0.0
 40
6.299999999999272
100
AcDbArc
 50
0.0
 51
90.0
  0
LINE
  5
1ADEA
330
1A65A
100
AcDbEntity
  8
U1
100
AcDbLine
 10
11310.41703198606
 20
9328.215360473253
 30
0.0
 11
11303.01703198606
 21
9328.215360473253
 31
0.0
  0
ARC
  5
1ADEB
330
1A65A
100
AcDbEntity
  8
U1
100
AcDbCircle
 10
11303.01703198606
 20
9321.915360473253
 30
0.0
 40
6.299999999999272
100
AcDbArc
 50
90.0
 51
180.0
  0
ARC
  5
1ADEC
330
1A65A
100
AcDbEntity
  8
U1
100
AcDbCircle
 10
11290.41703198606
 20
9321.915360473253
 30
0.0
 40
6.299999999999272
100
AcDbArc
 50
0.0
 51
90.0
  0
LINE
  5
1ADED
330
1A65A
100
AcDbEntity
  8
U1
100
AcDbLine
 10
11290.41703198606
 20
9328.215360473253
 30
0.0
 11
11258.01703198606
 21
9328.215360473253
 31
0.0
  0
ARC
  5
1ADEE
330
1A65A
100
AcDbEntity
  8
U1
100
AcDbCircle
 10
11258.01703198606
 20
9321.915360473253
 30
0.0
 40
6.299999999999272
100
AcDbArc
 50
90.0
 51
180.0
  0
LINE
  5
1ADEF
330
1A65A
100
AcDbEntity
  8
U1
100
AcDbLine
 10
11251.71703198605
 20
9321.915360473253
 30
0.0
 11
11251.71703198605
 21
9269.515360473251
 31
0.0
  0
ARC
  5
1ADF0
330
1A65A
100
AcDbEntity
  8
U1
100
AcDbCircle
 10
11258.01703198606
 20
9269.515360473251
 30
0.0
 40
6.299999999999272
100
AcDbArc
 50
180.0
 51
270.0
  0
LINE
  5
1ADF1
330
1A65A
100
AcDbEntity
  8
U1
100
AcDbLine
 10
11258.01703198606
 20
9263.215360473251
 30
0.0
 11
11310.41703198606
 21
9263.215360473251
 31
0.0
  0
ARC
  5
1ADF2
330
1A65A
100
AcDbEntity
  8
U1
100
AcDbCircle
 10
11310.41703198606
 20
9269.515360473251
 30
0.0
 40
6.299999999999272
100
AcDbArc
 50
270.0
 51
0.0
  0
LINE
  5
1ADF3
330
1A65A
100
AcDbEntity
  8
U1
100
AcDbLine
 10
11316.71703198606
 20
9269.515360473251
 30
0.0
 11
11316.71703198606
 21
9321.915360473253
 31
0.0
  0
ARC
  5
1ADF4
330
1A65A
100
AcDbEntity
  8
U1
100
AcDbCircle
 10
11310.41703198606
 20
7521.915360473252
 30
0.0
 40
6.299999999999272
100
AcDbArc
 50
0.0
 51
90.0
  0
LINE
  5
1ADF5
330
1A65A
100
AcDbEntity
  8
U1
100
AcDbLine
 10
11310.41703198606
 20
7528.215360473253
 30
0.0
 11
11303.01703198606
 21
7528.215360473253
 31
0.0
  0
ARC
  5
1ADF6
330
1A65A
100
AcDbEntity
  8
U1
100
AcDbCircle
 10
11303.01703198606
 20
7521.915360473252
 30
0.0
 40
6.300000000000181
100
AcDbArc
 50
90.0
 51
180.0
  0
ARC
  5
1ADF7
330
1A65A
100
AcDbEntity
  8
U1
100
AcDbCircle
 10
11290.41703198606
 20
7521.915360473252
 30
0.0
 40
6.299999999999272
100
AcDbArc
 50
0.0
 51
90.0
  0
LINE
  5
1ADF8
330
1A65A
100
AcDbEntity
  8
U1
100
AcDbLine
 10
11290.41703198606
 20
7528.215360473253
 30
0.0
 11
11258.01703198606
 21
7528.215360473253
 31
0.0
  0
ARC
  5
1ADF9
330
1A65A
100
AcDbEntity
  8
U1
100
AcDbCircle
 10
11258.01703198606
 20
7521.915360473252
 30
0.0
 40
6.300000000000181
100
AcDbArc
 50
90.0
 51
180.0
  0
LINE
  5
1ADFA
330
1A65A
100
AcDbEntity
  8
U1
100
AcDbLine
 10
11251.71703198605
 20
7521.915360473252
 30
0.0
 11
11251.71703198605
 21
7469.515360473251
 31
0.0
  0
ARC
  5
1ADFB
330
1A65A
100
AcDbEntity
  8
U1
100
AcDbCircle
 10
11258.01703198606
 20
7469.515360473251
 30
0.0
 40
6.299999999999272
100
AcDbArc
 50
180.0
 51
270.0
  0
LINE
  5
1ADFC
330
1A65A
100
AcDbEntity
  8
U1
100
AcDbLine
 10
11258.01703198606
 20
7463.215360473253
 30
0.0
 11
11310.41703198606
 21
7463.215360473253
 31
0.0
  0
ARC
  5
1ADFD
330
1A65A
100
AcDbEntity
  8
U1
100
AcDbCircle
 10
11310.41703198606
 20
7469.515360473251
 30
0.0
 40
6.299999999999272
100
AcDbArc
 50
270.0
 51
0.0
  0
LINE
  5
1ADFE
330
1A65A
100
AcDbEntity
  8
U1
100
AcDbLine
 10
11316.71703198606
 20
7469.515360473251
 30
0.0
 11
11316.71703198606
 21
7521.915360473252
 31
0.0
  0
ARC
  5
1ADFF
330
1A65A
100
AcDbEntity
  8
U1
100
AcDbCircle
 10
11310.41703198606
 20
5721.915360473253
 30
0.0
 40
6.299999999999272
100
AcDbArc
 50
0.0
 51
90.0
  0
LINE
  5
1AE00
330
1A65A
100
AcDbEntity
  8
U1
100
AcDbLine
 10
11310.41703198606
 20
5728.215360473253
 30
0.0
 11
11303.01703198606
 21
5728.215360473253
 31
0.0
  0
ARC
  5
1AE01
330
1A65A
100
AcDbEntity
  8
U1
100
AcDbCircle
 10
11303.01703198606
 20
5721.915360473253
 30
0.0
 40
6.300000000000181
100
AcDbArc
 50
90.0
 51
180.0
  0
ARC
  5
1AE02
330
1A65A
100
AcDbEntity
  8
U1
100
AcDbCircle
 10
11290.41703198606
 20
5721.915360473253
 30
0.0
 40
6.299999999999272
100
AcDbArc
 50
0.0
 51
90.0
  0
LINE
  5
1AE03
330
1A65A
100
AcDbEntity
  8
U1
100
AcDbLine
 10
11290.41703198606
 20
5728.215360473253
 30
0.0
 11
11258.01703198606
 21
5728.215360473253
 31
0.0
  0
ARC
  5
1AE04
330
1A65A
100
AcDbEntity
  8
U1
100
AcDbCircle
 10
11258.01703198606
 20
5721.915360473253
 30
0.0
 40
6.300000000000181
100
AcDbArc
 50
90.0
 51
180.0
  0
LINE
  5
1AE05
330
1A65A
100
AcDbEntity
  8
U1
100
AcDbLine
 10
11251.71703198605
 20
5721.915360473253
 30
0.0
 11
11251.71703198605
 21
5669.515360473252
 31
0.0
  0
ARC
  5
1AE06
330
1A65A
100
AcDbEntity
  8
U1
100
AcDbCircle
 10
11258.01703198606
 20
5669.515360473252
 30
0.0
 40
6.299999999999272
100
AcDbArc
 50
180.0
 51
270.0
  0
LINE
  5
1AE07
330
1A65A
100
AcDbEntity
  8
U1
100
AcDbLine
 10
11258.01703198606
 20
5663.215360473253
 30
0.0
 11
11310.41703198606
 21
5663.215360473253
 31
0.0
  0
ARC
  5
1AE08
330
1A65A
100
AcDbEntity
  8
U1
100
AcDbCircle
 10
11310.41703198606
 20
5669.515360473252
 30
0.0
 40
6.299999999999272
100
AcDbArc
 50
270.0
 51
0.0
  0
LINE
  5
1AE09
330
1A65A
100
AcDbEntity
  8
U1
100
AcDbLine
 10
11316.71703198606
 20
5669.515360473252
 30
0.0
 11
11316.71703198606
 21
5721.915360473253
 31
0.0
  0
ARC
  5
1AE0A
330
1A65A
100
AcDbEntity
  8
U1
100
AcDbCircle
 10
8860.41703198606
 20
9321.915360473253
 30
0.0
 40
6.299999999999272
100
AcDbArc
 50
0.0
 51
90.0
  0
LINE
  5
1AE0B
330
1A65A
100
AcDbEntity
  8
U1
100
AcDbLine
 10
8860.41703198606
 20
9328.215360473253
 30
0.0
 11
8853.017031986059
 21
9328.215360473253
 31
0.0
  0
ARC
  5
1AE0C
330
1A65A
100
AcDbEntity
  8
U1
100
AcDbCircle
 10
8853.017031986059
 20
9321.915360473253
 30
0.0
 40
6.299999999999272
100
AcDbArc
 50
90.0
 51
180.0
  0
ARC
  5
1AE0D
330
1A65A
100
AcDbEntity
  8
U1
100
AcDbCircle
 10
8840.417031986062
 20
9321.915360473253
 30
0.0
 40
6.299999999999272
100
AcDbArc
 50
0.0
 51
90.0
  0
LINE
  5
1AE0E
330
1A65A
100
AcDbEntity
  8
U1
100
AcDbLine
 10
8840.417031986062
 20
9328.215360473253
 30
0.0
 11
8808.017031986059
 21
9328.215360473253
 31
0.0
  0
ARC
  5
1AE0F
330
1A65A
100
AcDbEntity
  8
U1
100
AcDbCircle
 10
8808.017031986059
 20
9321.915360473253
 30
0.0
 40
6.299999999999272
100
AcDbArc
 50
90.0
 51
180.0
  0
LINE
  5
1AE10
330
1A65A
100
AcDbEntity
  8
U1
100
AcDbLine
 10
8801.71703198606
 20
9321.915360473253
 30
0.0
 11
8801.71703198606
 21
9269.515360473251
 31
0.0
  0
ARC
  5
1AE11
330
1A65A
100
AcDbEntity
  8
U1
100
AcDbCircle
 10
8808.017031986059
 20
9269.515360473251
 30
0.0
 40
6.299999999999272
100
AcDbArc
 50
180.0
 51
270.0
  0
LINE
  5
1AE12
330
1A65A
100
AcDbEntity
  8
U1
100
AcDbLine
 10
8808.017031986059
 20
9263.215360473251
 30
0.0
 11
8860.41703198606
 21
9263.215360473251
 31
0.0
  0
ARC
  5
1AE13
330
1A65A
100
AcDbEntity
  8
U1
100
AcDbCircle
 10
8860.41703198606
 20
9269.515360473251
 30
0.0
 40
6.299999999999272
100
AcDbArc
 50
270.0
 51
0.0
  0
LINE
  5
1AE14
330
1A65A
100
AcDbEntity
  8
U1
100
AcDbLine
 10
8866.717031986061
 20
9269.515360473251
 30
0.0
 11
8866.717031986061
 21
9321.915360473253
 31
0.0
  0
ARC
  5
1AE15
330
1A65A
100
AcDbEntity
  8
U1
100
AcDbCircle
 10
8860.41703198606
 20
7521.915360473252
 30
0.0
 40
6.299999999999272
100
AcDbArc
 50
0.0
 51
90.0
  0
LINE
  5
1AE16
330
1A65A
100
AcDbEntity
  8
U1
100
AcDbLine
 10
8860.41703198606
 20
7528.215360473253
 30
0.0
 11
8853.017031986059
 21
7528.215360473253
 31
0.0
  0
ARC
  5
1AE17
330
1A65A
100
AcDbEntity
  8
U1
100
AcDbCircle
 10
8853.017031986059
 20
7521.915360473252
 30
0.0
 40
6.300000000000181
100
AcDbArc
 50
90.0
 51
180.0
  0
ARC
  5
1AE18
330
1A65A
100
AcDbEntity
  8
U1
100
AcDbCircle
 10
8840.417031986062
 20
7521.915360473252
 30
0.0
 40
6.299999999999272
100
AcDbArc
 50
0.0
 51
90.0
  0
LINE
  5
1AE19
330
1A65A
100
AcDbEntity
  8
U1
100
AcDbLine
 10
8840.417031986062
 20
7528.215360473253
 30
0.0
 11
8808.017031986059
 21
7528.215360473253
 31
0.0
  0
ARC
  5
1AE1A
330
1A65A
100
AcDbEntity
  8
U1
100
AcDbCircle
 10
8808.017031986059
 20
7521.915360473252
 30
0.0
 40
6.300000000000181
100
AcDbArc
 50
90.0
 51
180.0
  0
LINE
  5
1AE1B
330
1A65A
100
AcDbEntity
  8
U1
100
AcDbLine
 10
8801.71703198606
 20
7521.915360473252
 30
0.0
 11
8801.71703198606
 21
7469.515360473251
 31
0.0
  0
ARC
  5
1AE1C
330
1A65A
100
AcDbEntity
  8
U1
100
AcDbCircle
 10
8808.017031986059
 20
7469.515360473251
 30
0.0
 40
6.299999999999272
100
AcDbArc
 50
180.0
 51
270.0
  0
LINE
  5
1AE1D
330
1A65A
100
AcDbEntity
  8
U1
100
AcDbLine
 10
8808.017031986059
 20
7463.215360473253
 30
0.0
 11
8860.41703198606
 21
7463.215360473253
 31
0.0
  0
ARC
  5
1AE1E
330
1A65A
100
AcDbEntity
  8
U1
100
AcDbCircle
 10
8860.41703198606
 20
7469.515360473251
 30
0.0
 40
6.299999999999272
100
AcDbArc
 50
270.0
 51
0.0
  0
LINE
  5
1AE1F
330
1A65A
100
AcDbEntity
  8
U1
100
AcDbLine
 10
8866.717031986061
 20
7469.515360473251
 30
0.0
 11
8866.717031986061
 21
7521.915360473252
 31
0.0
  0
ARC
  5
1AE20
330
1A65A
100
AcDbEntity
  8
U1
100
AcDbCircle
 10
8860.41703198606
 20
5721.915360473253
 30
0.0
 40
6.299999999999272
100
AcDbArc
 50
0.0
 51
90.0
  0
LINE
  5
1AE21
330
1A65A
100
AcDbEntity
  8
U1
100
AcDbLine
 10
8860.41703198606
 20
5728.215360473253
 30
0.0
 11
8853.017031986059
 21
5728.215360473253
 31
0.0
  0
ARC
  5
1AE22
330
1A65A
100
AcDbEntity
  8
U1
100
AcDbCircle
 10
8853.017031986059
 20
5721.915360473253
 30
0.0
 40
6.300000000000181
100
AcDbArc
 50
90.0
 51
180.0
  0
ARC
  5
1AE23
330
1A65A
100
AcDbEntity
  8
U1
100
AcDbCircle
 10
8840.417031986062
 20
5721.915360473253
 30
0.0
 40
6.299999999999272
100
AcDbArc
 50
0.0
 51
90.0
  0
LINE
  5
1AE24
330
1A65A
100
AcDbEntity
  8
U1
100
AcDbLine
 10
8840.417031986062
 20
5728.215360473253
 30
0.0
 11
8808.017031986059
 21
5728.215360473253
 31
0.0
  0
ARC
  5
1AE25
330
1A65A
100
AcDbEntity
  8
U1
100
AcDbCircle
 10
8808.017031986059
 20
5721.915360473253
 30
0.0
 40
6.300000000000181
100
AcDbArc
 50
90.0
 51
180.0
  0
LINE
  5
1AE26
330
1A65A
100
AcDbEntity
  8
U1
100
AcDbLine
 10
8801.71703198606
 20
5721.915360473253
 30
0.0
 11
8801.71703198606
 21
5669.515360473252
 31
0.0
  0
ARC
  5
1AE27
330
1A65A
100
AcDbEntity
  8
U1
100
AcDbCircle
 10
8808.017031986059
 20
5669.515360473252
 30
0.0
 40
6.299999999999272
100
AcDbArc
 50
180.0
 51
270.0
  0
LINE
  5
1AE28
330
1A65A
100
AcDbEntity
  8
U1
100
AcDbLine
 10
8808.017031986059
 20
5663.215360473253
 30
0.0
 11
8860.41703198606
 21
5663.215360473253
 31
0.0
  0
ARC
  5
1AE29
330
1A65A
100
AcDbEntity
  8
U1
100
AcDbCircle
 10
8860.41703198606
 20
5669.515360473252
 30
0.0
 40
6.299999999999272
100
AcDbArc
 50
270.0
 51
0.0
  0
LINE
  5
1AE2A
330
1A65A
100
AcDbEntity
  8
U1
100
AcDbLine
 10
8866.717031986061
 20
5669.515360473252
 30
0.0
 11
8866.717031986061
 21
5721.915360473253
 31
0.0
  0
ARC
  5
1AE2B
330
1A65A
100
AcDbEntity
  8
U1
100
AcDbCircle
 10
7560.41703198606
 20
9321.915360473253
 30
0.0
 40
6.299999999999272
100
AcDbArc
 50
0.0
 51
90.00000000000826
  0
LINE
  5
1AE2C
330
1A65A
100
AcDbEntity
  8
U1
100
AcDbLine
 10
7560.41703198606
 20
9328.215360473253
 30
0.0
 11
7553.017031986062
 21
9328.215360473253
 31
0.0
  0
ARC
  5
1AE2D
330
1A65A
100
AcDbEntity
  8
U1
100
AcDbCircle
 10
7553.017031986058
 20
9321.915360473253
 30
0.0
 40
6.299999999999272
100
AcDbArc
 50
89.99999999999173
 51
180.0
  0
ARC
  5
1AE2E
330
1A65A
100
AcDbEntity
  8
U1
100
AcDbCircle
 10
7540.417031986061
 20
9321.915360473253
 30
0.0
 40
6.299999999999272
100
AcDbArc
 50
0.0
 51
90.00000000000826
  0
LINE
  5
1AE2F
330
1A65A
100
AcDbEntity
  8
U1
100
AcDbLine
 10
7540.417031986058
 20
9328.215360473253
 30
0.0
 11
7508.017031986061
 21
9328.215360473253
 31
0.0
  0
ARC
  5
1AE30
330
1A65A
100
AcDbEntity
  8
U1
100
AcDbCircle
 10
7508.017031986058
 20
9321.915360473253
 30
0.0
 40
6.299999999999272
100
AcDbArc
 50
89.99999999999173
 51
180.0
  0
LINE
  5
1AE31
330
1A65A
100
AcDbEntity
  8
U1
100
AcDbLine
 10
7501.71703198606
 20
9321.915360473253
 30
0.0
 11
7501.71703198606
 21
9269.515360473251
 31
0.0
  0
ARC
  5
1AE32
330
1A65A
100
AcDbEntity
  8
U1
100
AcDbCircle
 10
7508.017031986058
 20
9269.515360473251
 30
0.0
 40
6.299999999999272
100
AcDbArc
 50
180.0
 51
270.0000000000081
  0
LINE
  5
1AE33
330
1A65A
100
AcDbEntity
  8
U1
100
AcDbLine
 10
7508.017031986061
 20
9263.215360473251
 30
0.0
 11
7560.41703198606
 21
9263.215360473251
 31
0.0
  0
ARC
  5
1AE34
330
1A65A
100
AcDbEntity
  8
U1
100
AcDbCircle
 10
7560.41703198606
 20
9269.515360473251
 30
0.0
 40
6.299999999999272
100
AcDbArc
 50
269.9999999999918
 51
0.0
  0
LINE
  5
1AE35
330
1A65A
100
AcDbEntity
  8
U1
100
AcDbLine
 10
7566.71703198606
 20
9269.515360473251
 30
0.0
 11
7566.71703198606
 21
9321.915360473253
 31
0.0
  0
ARC
  5
1AE36
330
1A65A
100
AcDbEntity
  8
U1
100
AcDbCircle
 10
7560.41703198606
 20
7521.915360473252
 30
0.0
 40
6.299999999999272
100
AcDbArc
 50
0.0
 51
90.00000000000826
  0
LINE
  5
1AE37
330
1A65A
100
AcDbEntity
  8
U1
100
AcDbLine
 10
7560.41703198606
 20
7528.215360473253
 30
0.0
 11
7553.017031986062
 21
7528.215360473253
 31
0.0
  0
ARC
  5
1AE38
330
1A65A
100
AcDbEntity
  8
U1
100
AcDbCircle
 10
7553.017031986058
 20
7521.915360473252
 30
0.0
 40
6.300000000000181
100
AcDbArc
 50
89.99999999999173
 51
180.0
  0
ARC
  5
1AE39
330
1A65A
100
AcDbEntity
  8
U1
100
AcDbCircle
 10
7540.417031986058
 20
7521.915360473252
 30
0.0
 40
6.300000000000181
100
AcDbArc
 50
0.0000000000082715
 51
90.0
  0
LINE
  5
1AE3A
330
1A65A
100
AcDbEntity
  8
U1
100
AcDbLine
 10
7540.417031986058
 20
7528.215360473253
 30
0.0
 11
7508.017031986061
 21
7528.215360473253
 31
0.0
  0
ARC
  5
1AE3B
330
1A65A
100
AcDbEntity
  8
U1
100
AcDbCircle
 10
7508.017031986058
 20
7521.915360473252
 30
0.0
 40
6.300000000000181
100
AcDbArc
 50
89.99999999999173
 51
180.0
  0
LINE
  5
1AE3C
330
1A65A
100
AcDbEntity
  8
U1
100
AcDbLine
 10
7501.71703198606
 20
7521.915360473252
 30
0.0
 11
7501.71703198606
 21
7469.515360473251
 31
0.0
  0
ARC
  5
1AE3D
330
1A65A
100
AcDbEntity
  8
U1
100
AcDbCircle
 10
7508.017031986058
 20
7469.515360473251
 30
0.0
 40
6.299999999999272
100
AcDbArc
 50
180.0
 51
270.0000000000081
  0
LINE
  5
1AE3E
330
1A65A
100
AcDbEntity
  8
U1
100
AcDbLine
 10
7508.017031986061
 20
7463.215360473253
 30
0.0
 11
7560.41703198606
 21
7463.215360473253
 31
0.0
  0
ARC
  5
1AE3F
330
1A65A
100
AcDbEntity
  8
U1
100
AcDbCircle
 10
7560.41703198606
 20
7469.515360473251
 30
0.0
 40
6.299999999999272
100
AcDbArc
 50
269.9999999999918
 51
0.0
  0
LINE
  5
1AE40
330
1A65A
100
AcDbEntity
  8
U1
100
AcDbLine
 10
7566.71703198606
 20
7469.515360473251
 30
0.0
 11
7566.71703198606
 21
7521.915360473252
 31
0.0
  0
ARC
  5
1AE41
330
1A65A
100
AcDbEntity
  8
U1
100
AcDbCircle
 10
7560.41703198606
 20
5721.915360473253
 30
0.0
 40
6.299999999999272
100
AcDbArc
 50
0.0
 51
90.00000000000826
  0
LINE
  5
1AE42
330
1A65A
100
AcDbEntity
  8
U1
100
AcDbLine
 10
7560.41703198606
 20
5728.215360473253
 30
0.0
 11
7553.017031986062
 21
5728.215360473253
 31
0.0
  0
ARC
  5
1AE43
330
1A65A
100
AcDbEntity
  8
U1
100
AcDbCircle
 10
7553.017031986058
 20
5721.915360473253
 30
0.0
 40
6.300000000000181
100
AcDbArc
 50
89.99999999999173
 51
180.0
  0
ARC
  5
1AE44
330
1A65A
100
AcDbEntity
  8
U1
100
AcDbCircle
 10
7540.417031986058
 20
5721.915360473252
 30
0.0
 40
6.300000000000181
100
AcDbArc
 50
0.0000000000082715
 51
90.0
  0
LINE
  5
1AE45
330
1A65A
100
AcDbEntity
  8
U1
100
AcDbLine
 10
7540.417031986058
 20
5728.215360473253
 30
0.0
 11
7508.017031986061
 21
5728.215360473253
 31
0.0
  0
ARC
  5
1AE46
330
1A65A
100
AcDbEntity
  8
U1
100
AcDbCircle
 10
7508.017031986058
 20
5721.915360473253
 30
0.0
 40
6.300000000000181
100
AcDbArc
 50
89.99999999999173
 51
180.0
  0
LINE
  5
1AE47
330
1A65A
100
AcDbEntity
  8
U1
100
AcDbLine
 10
7501.71703198606
 20
5721.915360473253
 30
0.0
 11
7501.71703198606
 21
5669.515360473252
 31
0.0
  0
ARC
  5
1AE48
330
1A65A
100
AcDbEntity
  8
U1
100
AcDbCircle
 10
7508.017031986058
 20
5669.515360473252
 30
0.0
 40
6.299999999999272
100
AcDbArc
 50
180.0
 51
270.0000000000081
  0
LINE
  5
1AE49
330
1A65A
100
AcDbEntity
  8
U1
100
AcDbLine
 10
7508.017031986061
 20
5663.215360473253
 30
0.0
 11
7560.41703198606
 21
5663.215360473253
 31
0.0
  0
ARC
  5
1AE4A
330
1A65A
100
AcDbEntity
  8
U1
100
AcDbCircle
 10
7560.41703198606
 20
5669.515360473252
 30
0.0
 40
6.299999999999272
100
AcDbArc
 50
269.9999999999918
 51
0.0
  0
LINE
  5
1AE4B
330
1A65A
100
AcDbEntity
  8
U1
100
AcDbLine
 10
7566.71703198606
 20
5669.515360473252
 30
0.0
 11
7566.71703198606
 21
5721.915360473253
 31
0.0
  0
ARC
  5
1AE4C
330
1A65A
100
AcDbEntity
  8
U1
100
AcDbCircle
 10
5110.41703198606
 20
9321.915360473253
 30
0.0
 40
6.299999999999272
100
AcDbArc
 50
0.0
 51
90.00000000000826
  0
LINE
  5
1AE4D
330
1A65A
100
AcDbEntity
  8
U1
100
AcDbLine
 10
5110.41703198606
 20
9328.215360473253
 30
0.0
 11
5103.01703198606
 21
9328.215360473253
 31
0.0
  0
ARC
  5
1AE4E
330
1A65A
100
AcDbEntity
  8
U1
100
AcDbCircle
 10
5103.017031986059
 20
9321.915360473253
 30
0.0
 40
6.299999999999272
100
AcDbArc
 50
89.99999999999173
 51
180.0
  0
ARC
  5
1AE4F
330
1A65A
100
AcDbEntity
  8
U1
100
AcDbCircle
 10
5090.41703198606
 20
9321.915360473253
 30
0.0
 40
6.299999999999272
100
AcDbArc
 50
0.0
 51
90.00000000000826
  0
LINE
  5
1AE50
330
1A65A
100
AcDbEntity
  8
U1
100
AcDbLine
 10
5090.41703198606
 20
9328.215360473253
 30
0.0
 11
5058.01703198606
 21
9328.215360473253
 31
0.0
  0
ARC
  5
1AE51
330
1A65A
100
AcDbEntity
  8
U1
100
AcDbCircle
 10
5058.017031986059
 20
9321.915360473253
 30
0.0
 40
6.299999999999272
100
AcDbArc
 50
89.99999999999173
 51
180.0
  0
LINE
  5
1AE52
330
1A65A
100
AcDbEntity
  8
U1
100
AcDbLine
 10
5051.71703198606
 20
9321.915360473253
 30
0.0
 11
5051.71703198606
 21
9269.515360473251
 31
0.0
  0
ARC
  5
1AE53
330
1A65A
100
AcDbEntity
  8
U1
100
AcDbCircle
 10
5058.017031986059
 20
9269.515360473251
 30
0.0
 40
6.299999999999272
100
AcDbArc
 50
180.0
 51
270.0000000000081
  0
LINE
  5
1AE54
330
1A65A
100
AcDbEntity
  8
U1
100
AcDbLine
 10
5058.01703198606
 20
9263.215360473251
 30
0.0
 11
5110.41703198606
 21
9263.215360473251
 31
0.0
  0
ARC
  5
1AE55
330
1A65A
100
AcDbEntity
  8
U1
100
AcDbCircle
 10
5110.41703198606
 20
9269.515360473251
 30
0.0
 40
6.299999999999272
100
AcDbArc
 50
269.9999999999918
 51
0.0
  0
LINE
  5
1AE56
330
1A65A
100
AcDbEntity
  8
U1
100
AcDbLine
 10
5116.717031986058
 20
9269.515360473251
 30
0.0
 11
5116.717031986058
 21
9321.915360473253
 31
0.0
  0
ARC
  5
1AE57
330
1A65A
100
AcDbEntity
  8
U1
100
AcDbCircle
 10
5110.41703198606
 20
7521.915360473252
 30
0.0
 40
6.299999999999272
100
AcDbArc
 50
0.0
 51
90.00000000000826
  0
LINE
  5
1AE58
330
1A65A
100
AcDbEntity
  8
U1
100
AcDbLine
 10
5110.41703198606
 20
7528.215360473253
 30
0.0
 11
5103.01703198606
 21
7528.215360473253
 31
0.0
  0
ARC
  5
1AE59
330
1A65A
100
AcDbEntity
  8
U1
100
AcDbCircle
 10
5103.017031986059
 20
7521.915360473252
 30
0.0
 40
6.300000000000181
100
AcDbArc
 50
89.99999999999173
 51
180.0
  0
ARC
  5
1AE5A
330
1A65A
100
AcDbEntity
  8
U1
100
AcDbCircle
 10
5090.41703198606
 20
7521.915360473252
 30
0.0
 40
6.300000000000181
100
AcDbArc
 50
0.0000000000082715
 51
90.0
  0
LINE
  5
1AE5B
330
1A65A
100
AcDbEntity
  8
U1
100
AcDbLine
 10
5090.41703198606
 20
7528.215360473253
 30
0.0
 11
5058.01703198606
 21
7528.215360473253
 31
0.0
  0
ARC
  5
1AE5C
330
1A65A
100
AcDbEntity
  8
U1
100
AcDbCircle
 10
5058.017031986059
 20
7521.915360473252
 30
0.0
 40
6.300000000000181
100
AcDbArc
 50
89.99999999999173
 51
180.0
  0
LINE
  5
1AE5D
330
1A65A
100
AcDbEntity
  8
U1
100
AcDbLine
 10
5051.71703198606
 20
7521.915360473252
 30
0.0
 11
5051.71703198606
 21
7469.515360473251
 31
0.0
  0
ARC
  5
1AE5E
330
1A65A
100
AcDbEntity
  8
U1
100
AcDbCircle
 10
5058.017031986059
 20
7469.515360473251
 30
0.0
 40
6.299999999999272
100
AcDbArc
 50
180.0
 51
270.0000000000081
  0
LINE
  5
1AE5F
330
1A65A
100
AcDbEntity
  8
U1
100
AcDbLine
 10
5058.01703198606
 20
7463.215360473253
 30
0.0
 11
5110.41703198606
 21
7463.215360473253
 31
0.0
  0
ARC
  5
1AE60
330
1A65A
100
AcDbEntity
  8
U1
100
AcDbCircle
 10
5110.41703198606
 20
7469.515360473251
 30
0.0
 40
6.299999999999272
100
AcDbArc
 50
269.9999999999918
 51
0.0
  0
LINE
  5
1AE61
330
1A65A
100
AcDbEntity
  8
U1
100
AcDbLine
 10
5116.717031986058
 20
7469.515360473251
 30
0.0
 11
5116.717031986058
 21
7521.915360473252
 31
0.0
  0
ARC
  5
1AE62
330
1A65A
100
AcDbEntity
  8
U1
100
AcDbCircle
 10
5110.41703198606
 20
5721.915360473253
 30
0.0
 40
6.299999999999272
100
AcDbArc
 50
0.0
 51
90.00000000000826
  0
LINE
  5
1AE63
330
1A65A
100
AcDbEntity
  8
U1
100
AcDbLine
 10
5110.41703198606
 20
5728.215360473253
 30
0.0
 11
5103.01703198606
 21
5728.215360473253
 31
0.0
  0
ARC
  5
1AE64
330
1A65A
100
AcDbEntity
  8
U1
100
AcDbCircle
 10
5103.017031986059
 20
5721.915360473253
 30
0.0
 40
6.300000000000181
100
AcDbArc
 50
89.99999999999173
 51
180.0
  0
ARC
  5
1AE65
330
1A65A
100
AcDbEntity
  8
U1
100
AcDbCircle
 10
5090.41703198606
 20
5721.915360473252
 30
0.0
 40
6.300000000000181
100
AcDbArc
 50
0.0000000000082715
 51
90.0
  0
LINE
  5
1AE66
330
1A65A
100
AcDbEntity
  8
U1
100
AcDbLine
 10
5090.41703198606
 20
5728.215360473253
 30
0.0
 11
5058.01703198606
 21
5728.215360473253
 31
0.0
  0
ARC
  5
1AE67
330
1A65A
100
AcDbEntity
  8
U1
100
AcDbCircle
 10
5058.017031986059
 20
5721.915360473253
 30
0.0
 40
6.300000000000181
100
AcDbArc
 50
89.99999999999173
 51
180.0
  0
LINE
  5
1AE68
330
1A65A
100
AcDbEntity
  8
U1
100
AcDbLine
 10
5051.71703198606
 20
5721.915360473253
 30
0.0
 11
5051.71703198606
 21
5669.515360473252
 31
0.0
  0
ARC
  5
1AE69
330
1A65A
100
AcDbEntity
  8
U1
100
AcDbCircle
 10
5058.017031986059
 20
5669.515360473252
 30
0.0
 40
6.299999999999272
100
AcDbArc
 50
180.0
 51
270.0000000000081
  0
LINE
  5
1AE6A
330
1A65A
100
AcDbEntity
  8
U1
100
AcDbLine
 10
5058.01703198606
 20
5663.215360473253
 30
0.0
 11
5110.41703198606
 21
5663.215360473253
 31
0.0
  0
ARC
  5
1AE6B
330
1A65A
100
AcDbEntity
  8
U1
100
AcDbCircle
 10
5110.41703198606
 20
5669.515360473252
 30
0.0
 40
6.299999999999272
100
AcDbArc
 50
269.9999999999918
 51
0.0
  0
LINE
  5
1AE6C
330
1A65A
100
AcDbEntity
  8
U1
100
AcDbLine
 10
5116.717031986058
 20
5669.515360473252
 30
0.0
 11
5116.717031986058
 21
5721.915360473253
 31
0.0
  0
TEXT
  5
1AE91
330
1A65A
100
AcDbEntity
  8
SUNPOU
100
AcDbText
 10
1267.093717504667
 20
4678.919670950093
 30
0.0
 40
90.0
  1
寒冷地の場合、凍結深度等を考慮し、実情に
  7
01
100
AcDbText
  0
TEXT
  5
1AE92
330
1A65A
100
AcDbEntity
  8
SUNPOU
100
AcDbText
 10
1267.093717504667
 20
4370.348242378662
 30
0.0
 40
90.0
  1
その他現地の実情にあわせて設計して下さい。
  7
01
100
AcDbText
  0
TEXT
  5
1AE93
330
1A65A
100
AcDbEntity
  8
SUNPOU
100
AcDbText
 10
892.1379724152743
 20
5058.205385235805
 30
0.0
 40
89.9993750043402
  1
地耐力   　　　 以上,コンクリート設計基準強度　　　　　以上
  7
01
100
AcDbText
  0
TEXT
  5
1AE94
330
1A65A
100
AcDbEntity
  8
SUNPOU
100
AcDbText
 10
1603.781823919156
 20
5417.267079989454
 30
0.0
 40
92.30769230769228
  1
（ S = 　　  ）
 41
0.6700000000000001
  7
00
 11
1603.781823919156
 21
5404.959387681762
 31
0.0
100
AcDbText
 73
     1
  0
TEXT
  5
1AE95
330
1A65A
100
AcDbEntity
  8
SUNPOU
100
AcDbText
 10
761.5743436990435
 20
5247.459387681763
 30
0.0
 40
90.0
  1
<下記条件での参考図>
  7
01
 72
     4
 11
1350.431486556186
 21
5292.459387681763
 31
0.0
100
AcDbText
  0
TEXT
  5
1AE96
330
1A65A
100
AcDbEntity
  8
SUNPOU
100
AcDbText
 10
1267.093717504667
 20
4524.633956664375
 30
0.0
 40
90.0
  1
あわせて設計して下さい。
  7
01
100
AcDbText
  0
TEXT
  5
1AE97
330
1A65A
100
AcDbEntity
  8
SUNPOU
100
AcDbText
 10
892.1379724152743
 20
4903.919670950092
 30
0.0
 40
89.9993750043402
  1
基準風速   　　 , 地表面粗度区分
  7
01
100
AcDbText
  0
TEXT
  5
1AE98
330
1A65A
100
AcDbEntity
  8
SUNPOU
100
AcDbText
 10
950.2540522025311
 20
4678.919670950093
 30
0.0
 40
90.0
  1
注　）
  7
01
100
AcDbText
  0
TEXT
  5
1AE99
330
1A65A
100
AcDbEntity
  8
SUNPOU
100
AcDbText
 10
950.2540522025311
 20
4370.348242378662
 30
0.0
 40
90.0
  1
注　）
  7
01
100
AcDbText
  0
ARC
  5
1AE9A
330
1A65A
100
AcDbEntity
  8
SUNPOU
100
AcDbCircle
 10
1045.096246322479
 20
5021.992808677637
 30
0.0
 40
225.0
100
AcDbArc
 50
148.3472725282829
 51
211.652727471717
  0
TEXT
  5
1AE9B
330
1A65A
100
AcDbEntity
  8
SUNPOU
100
AcDbText
 10
1060.887972415273
 20
4678.919670950093
 30
0.0
 40
90.0
  1
1
 41
0.6700000000000001
  7
01
100
AcDbText
  0
TEXT
  5
1AE9C
330
1A65A
100
AcDbEntity
  8
SUNPOU
100
AcDbText
 10
1060.887972415273
 20
4370.348242378662
 30
0.0
 40
90.0
  1
2
 41
0.6700000000000001
  7
01
100
AcDbText
  0
TEXT
  5
1AE9D
330
1A65A
100
AcDbEntity
  8
SUNPOU
100
AcDbText
 10
1375.901401080442
 20
4903.919670950092
 30
0.0
 40
89.9993750043402
  1
34 m/s
 41
0.6700000000000001
  7
01
100
AcDbText
  0
TEXT
  5
1AE9E
330
1A65A
100
AcDbEntity
  8
SUNPOU
100
AcDbText
 10
1266.396379840356
 20
5058.205385235805
 30
0.0
 40
89.9993750043402
  1
50  N/m
 41
0.6700000000000001
  7
01
100
AcDbText
  0
TEXT
  5
1AE9F
330
1A65A
100
AcDbEntity
  8
SUNPOU
100
AcDbText
 10
1402.23283262631
 20
5058.205385235805
 30
0.0
 40
71.99950000347218
  1
K
 41
0.6700000000000001
  7
01
100
AcDbText
  0
TEXT
  5
1AEA0
330
1A65A
100
AcDbEntity
  8
SUNPOU
100
AcDbText
 10
1669.872989354693
 20
5108.393811593291
 30
0.0
 40
46.28539285937498
  1
2
 41
0.6700000000000001
  7
00
100
AcDbText
  0
TEXT
  5
1AEA1
330
1A65A
100
AcDbEntity
  8
SUNPOU
100
AcDbText
 10
886.9314865561856
 20
5404.959387681762
 30
0.0
 40
120.0
  1
基礎断面図
  7
01
 72
     4
 11
1226.931486556185
 21
5464.959387681762
 31
0.0
100
AcDbText
  0
LINE
  5
1AEA2
330
1A65A
100
AcDbEntity
  8
SUNPOU
100
AcDbLine
 10
2683.953533981882
 20
4987.412034648872
 30
0.0
 11
2740.203533981882
 21
4987.412034648872
 31
0.0
  0
LINE
  5
1AEA3
330
1A65A
100
AcDbEntity
  8
SUNPOU
100
AcDbLine
 10
2683.953533981882
 20
4903.919670950091
 30
0.0
 11
2740.203533981882
 21
4903.919670950091
 31
0.0
  0
LINE
  5
1AEA4
330
1A65A
100
AcDbEntity
  8
SUNPOU
100
AcDbLine
 10
2695.203533981882
 20
4903.919670950092
 30
0.0
 11
2695.203533981882
 21
4987.412034648872
 31
0.0
  0
LINE
  5
1AEA5
330
1A65A
100
AcDbEntity
  8
SUNPOU
100
AcDbLine
 10
2712.078533981882
 20
4903.919670950092
 30
0.0
 11
2712.078533981882
 21
4987.412034648872
 31
0.0
  0
LINE
  5
1AEA6
330
1A65A
100
AcDbEntity
  8
SUNPOU
100
AcDbLine
 10
2728.953533981882
 20
4903.919670950092
 30
0.0
 11
2728.953533981882
 21
4987.412034648872
 31
0.0
  0
TEXT
  5
1AEA7
330
1A65A
100
AcDbEntity
  8
SUNPOU
100
AcDbText
 10
2035.840096041981
 20
5396.344003066377
 30
0.0
 40
73.84615384615384
  1
25
 41
0.6700000000000001
  7
00
 11
2035.840096041981
 21
5386.497849220223
 31
0.0
100
AcDbText
 73
     1
  0
TEXT
  5
1AEA8
330
1A65A
100
AcDbEntity
  8
SUNPOU
100
AcDbText
 10
1923.484525772241
 20
5433.267079989455
 30
0.0
 40
73.84615384615384
  1
1
 41
0.6700000000000001
  7
00
 11
1923.484525772241
 21
5423.4209261433
 31
0.0
100
AcDbText
 73
     1
  0
TEXT
  5
1AEA9
330
1A65A
100
AcDbEntity
  8
SUNPOU
100
AcDbText
 10
1971.890653087612
 20
5414.805541527917
 30
0.0
 40
73.84615384615384
  1
/
 41
0.6700000000000001
  7
00
 11
1971.890653087612
 21
5404.959387681762
 31
0.0
100
AcDbText
 73
     1
  0
TEXT
  5
1AEAA
330
1A65A
100
AcDbEntity
  8
SUNPOU
100
AcDbText
 10
3472.321650091921
 20
5058.205385235805
 30
0.0
 40
89.9993750043402
  1
N/mm
 41
0.6700000000000001
  7
01
100
AcDbText
  0
TEXT
  5
1AEAB
330
1A65A
100
AcDbEntity
  8
SUNPOU
100
AcDbText
 10
3336.485197305969
 20
5058.205385235805
 30
0.0
 40
89.9993750043402
  1
18
 41
0.6700000000000001
  7
01
100
AcDbText
  0
TEXT
  5
1AEAF
330
1A65A
100
AcDbEntity
  8
SUNPOU
100
AcDbText
 10
3776.786132123325
 20
5108.393811593291
 30
0.0
 40
46.28539285937498
  1
2
 41
0.6700000000000001
  7
00
100
AcDbText
  0
ARC
  5
1AEB0
330
1A65A
100
AcDbEntity
  8
SUNPOU
100
AcDbCircle
 10
3946.536529574041
 20
5021.992808677637
 30
0.0
 40
225.0
100
AcDbArc
 50
328.3472725282829
 51
31.65272747171703
  0
ENDSEC
  0
SECTION
  2
OBJECTS
  0
DICTIONARY
  5
1A648
330
0
100
AcDbDictionary
281
     1
  3
ACAD_GROUP
350
1A649
  3
ACAD_LAYOUT
350
1A655
  3
ACAD_MLINESTYLE
350
1A652
  3
ACAD_PLOTSETTINGS
350
1A654
  3
ACAD_PLOTSTYLENAME
350
1A64A
  3
AcDbVariableDictionary
350
1AEB1
  0
DICTIONARY
  5
1A649
102
{ACAD_REACTORS
330
1A648
102
}
330
1A648
100
AcDbDictionary
281
     1
  0
DICTIONARY
  5
1A655
102
{ACAD_REACTORS
330
1A648
102
}
330
1A648
100
AcDbDictionary
281
     1
  3
Model
350
1A65D
  3
ﾚｲｱｳﾄ1
350
1A659
  0
DICTIONARY
  5
1A652
102
{ACAD_REACTORS
330
1A648
102
}
330
1A648
100
AcDbDictionary
281
     1
  3
Standard
350
1A653
  0
DICTIONARY
  5
1A654
102
{ACAD_REACTORS
330
1A648
102
}
330
1A648
100
AcDbDictionary
281
     1
  0
ACDBDICTIONARYWDFLT
  5
1A64A
102
{ACAD_REACTORS
330
1A648
102
}
330
1A648
100
AcDbDictionary
281
     1
  3
Normal
350
1A64B
100
AcDbDictionaryWithDefault
340
1A64B
  0
DICTIONARY
  5
1AEB1
102
{ACAD_REACTORS
330
1A648
102
}
330
1A648
100
AcDbDictionary
281
     1
  3
DIMASSOC
350
1AEB2
  0
LAYOUT
  5
1A65D
102
{ACAD_REACTORS
330
1A655
102
}
330
1A655
100
AcDbPlotSettings
  1

  2
Muratec V-1200 Is@Web Printer
  4

  6

 40
0.0
 41
0.0
 42
0.0
 43
0.0
 44
0.0
 45
0.0
 46
0.0
 47
0.0
 48
0.0
 49
0.0
140
0.0
141
0.0
142
1.0
143
1.0
 70
  1712
 72
     0
 73
     0
 74
     0
  7

 75
     0
147
1.0
148
0.0
149
0.0
100
AcDbLayout
  1
Model
 70
     1
 71
     0
 10
0.0
 20
0.0
 11
12.0
 21
9.0
 12
0.0
 22
0.0
 32
0.0
 14
0.0
 24
0.0
 34
0.0
 15
0.0
 25
0.0
 35
0.0
146
0.0
 13
0.0
 23
0.0
 33
0.0
 16
1.0
 26
0.0
 36
0.0
 17
0.0
 27
1.0
 37
0.0
 76
     0
330
1A65A
  0
LAYOUT
  5
1A659
102
{ACAD_REACTORS
330
1A655
102
}
330
1A655
100
AcDbPlotSettings
  1

  2
Muratec V-1200 Is@Web Printer
  4

  6

 40
0.0
 41
0.0
 42
0.0
 43
0.0
 44
0.0
 45
0.0
 46
0.0
 47
0.0
 48
0.0
 49
0.0
140
0.0
141
0.0
142
1.0
143
1.0
 70
   688
 72
     0
 73
     0
 74
     5
  7

 75
    16
147
1.0
148
0.0
149
0.0
100
AcDbLayout
  1
ﾚｲｱｳﾄ1
 70
     0
 71
     1
 10
0.0
 20
0.0
 11
12.0
 21
9.0
 12
0.0
 22
0.0
 32
0.0
 14
1.000000000000000E+20
 24
1.000000000000000E+20
 34
1.000000000000000E+20
 15
-1.000000000000000E+20
 25
-1.000000000000000E+20
 35
-1.000000000000000E+20
146
0.0
 13
0.0
 23
0.0
 33
0.0
 16
1.0
 26
0.0
 36
0.0
 17
0.0
 27
1.0
 37
0.0
 76
     0
330
1A656
  0
MLINESTYLE
  5
1A653
102
{ACAD_REACTORS
330
1A652
102
}
330
1A652
100
AcDbMlineStyle
  2
STANDARD
 70
     0
  3

 62
   256
 51
90.0
 52
90.0
 71
     2
 49
0.5
 62
   256
  6
BYLAYER
 49
-0.5
 62
   256
  6
BYLAYER
  0
ACDBPLACEHOLDER
  5
1A64B
102
{ACAD_REACTORS
330
1A64A
102
}
330
1A64A
  0
DICTIONARYVAR
  5
1AEB2
102
{ACAD_REACTORS
330
1AEB1
102
}
330
1AEB1
100
DictionaryVariables
280
     0
  1
1
  0
ENDSEC
  0
EOF
