  0
SECTION
  2
HEADER
  9
$ACADVER
  1
AC1015
  9
$ACADMAINTVER
 70
    13
  9
$DWGCODEPAGE
  3
ANSI_932
  9
$INSBASE
 10
267.0
 20
194.8999999999998
 30
0.0
  9
$EXTMIN
 10
433.9966216520333
 20
163.6908237492789
 30
-0.0000000000000053
  9
$EXTMAX
 10
16382.6660542547
 20
11242.27663824599
 30
0.0000000000000099
  9
$LIMMIN
 10
0.0
 20
0.0
  9
$LIMMAX
 10
16800.0
 20
11880.0
  9
$ORTHOMODE
 70
     1
  9
$REGENMODE
 70
     1
  9
$FILLMODE
 70
     1
  9
$QTEXTMODE
 70
     0
  9
$MIRRTEXT
 70
     0
  9
$LTSCALE
 40
40.0
  9
$ATTMODE
 70
     1
  9
$TEXTSIZE
 40
0.2
  9
$TRACEWID
 40
0.05
  9
$TEXTSTYLE
  7
00
  9
$CLAYER
  8
SUNPOU
  9
$CELTYPE
  6
ByLayer
  9
$CECOLOR
 62
   256
  9
$CELTSCALE
 40
1.0
  9
$DISPSILH
 70
     0
  9
$DIMSCALE
 40
40.0
  9
$DIMASZ
 40
0.5
  9
$DIMEXO
 40
1.0
  9
$DIMDLI
 40
7.0
  9
$DIMRND
 40
0.0
  9
$DIMDLE
 40
3.0
  9
$DIMEXE
 40
1.5
  9
$DIMTP
 40
0.0
  9
$DIMTM
 40
0.0
  9
$DIMTXT
 40
3.0
  9
$DIMCEN
 40
0.0
  9
$DIMTSZ
 40
0.0
  9
$DIMTOL
 70
     0
  9
$DIMLIM
 70
     0
  9
$DIMTIH
 70
     0
  9
$DIMTOH
 70
     0
  9
$DIMSE1
 70
     0
  9
$DIMSE2
 70
     0
  9
$DIMTAD
 70
     1
  9
$DIMZIN
 70
     8
  9
$DIMBLK
  1
DOT
  9
$DIMASO
 70
     1
  9
$DIMSHO
 70
     0
  9
$DIMPOST
  1

  9
$DIMAPOST
  1

  9
$DIMALT
 70
     0
  9
$DIMALTD
 70
     2
  9
$DIMALTF
 40
25.4
  9
$DIMLFAC
 40
1.0
  9
$DIMTOFL
 70
     1
  9
$DIMTVP
 40
0.0
  9
$DIMTIX
 70
     0
  9
$DIMSOXD
 70
     0
  9
$DIMSAH
 70
     1
  9
$DIMBLK1
  1
DOT
  9
$DIMBLK2
  1
DOT
  9
$DIMSTYLE
  2
SUNPOU_図面名
  9
$DIMCLRD
 70
   256
  9
$DIMCLRE
 70
   256
  9
$DIMCLRT
 70
   256
  9
$DIMTFAC
 40
1.0
  9
$DIMGAP
 40
1.5
  9
$DIMJUST
 70
     0
  9
$DIMSD1
 70
     0
  9
$DIMSD2
 70
     0
  9
$DIMTOLJ
 70
     1
  9
$DIMTZIN
 70
     0
  9
$DIMALTZ
 70
     0
  9
$DIMALTTZ
 70
     0
  9
$DIMUPT
 70
     0
  9
$DIMDEC
 70
     4
  9
$DIMTDEC
 70
     4
  9
$DIMALTU
 70
     2
  9
$DIMALTTD
 70
     2
  9
$DIMTXSTY
  7
STANDARD
  9
$DIMAUNIT
 70
     0
  9
$DIMADEC
 70
     0
  9
$DIMALTRND
 40
0.0
  9
$DIMAZIN
 70
     0
  9
$DIMDSEP
 70
    46
  9
$DIMATFIT
 70
     3
  9
$DIMFRAC
 70
     0
  9
$DIMLDRBLK
  1
DOT
  9
$DIMLUNIT
 70
     2
  9
$DIMLWD
 70
    -2
  9
$DIMLWE
 70
    -2
  9
$DIMTMOVE
 70
     0
  9
$LUNITS
 70
     2
  9
$LUPREC
 70
     2
  9
$SKETCHINC
 40
0.1
  9
$FILLETRAD
 40
0.0
  9
$AUNITS
 70
     0
  9
$AUPREC
 70
     0
  9
$MENU
  1
A:\TIGER\MENU\TIGER
  9
$ELEVATION
 40
0.0
  9
$PELEVATION
 40
0.0
  9
$THICKNESS
 40
0.0
  9
$LIMCHECK
 70
     0
  9
$CHAMFERA
 40
0.0
  9
$CHAMFERB
 40
0.0
  9
$CHAMFERC
 40
0.0
  9
$CHAMFERD
 40
0.0
  9
$SKPOLY
 70
     0
  9
$TDCREATE
 40
2450266.571064815
  9
$TDUCREATE
 40
2450266.196064815
  9
$TDUPDATE
 40
2456332.376123402
  9
$TDUUPDATE
 40
2456332.001123402
  9
$TDINDWG
 40
0.2041531250
  9
$TDUSRTIMER
 40
0.2041531250
  9
$USRTIMER
 70
     1
  9
$ANGBASE
 50
0.0
  9
$ANGDIR
 70
     0
  9
$PDMODE
 70
     0
  9
$PDSIZE
 40
0.0
  9
$PLINEWID
 40
0.0
  9
$SPLFRAME
 70
     0
  9
$SPLINETYPE
 70
     6
  9
$SPLINESEGS
 70
     8
  9
$HANDSEED
  5
1B362
  9
$SURFTAB1
 70
     6
  9
$SURFTAB2
 70
     6
  9
$SURFTYPE
 70
     6
  9
$SURFU
 70
     6
  9
$SURFV
 70
     6
  9
$UCSBASE
  2

  9
$UCSNAME
  2

  9
$UCSORG
 10
0.0
 20
0.0
 30
0.0
  9
$UCSXDIR
 10
1.0
 20
0.0
 30
0.0
  9
$UCSYDIR
 10
0.0
 20
1.0
 30
0.0
  9
$UCSORTHOREF
  2

  9
$UCSORTHOVIEW
 70
     0
  9
$UCSORGTOP
 10
0.0
 20
0.0
 30
0.0
  9
$UCSORGBOTTOM
 10
0.0
 20
0.0
 30
0.0
  9
$UCSORGLEFT
 10
0.0
 20
0.0
 30
0.0
  9
$UCSORGRIGHT
 10
0.0
 20
0.0
 30
0.0
  9
$UCSORGFRONT
 10
0.0
 20
0.0
 30
0.0
  9
$UCSORGBACK
 10
0.0
 20
0.0
 30
0.0
  9
$PUCSBASE
  2

  9
$PUCSNAME
  2

  9
$PUCSORG
 10
0.0
 20
0.0
 30
0.0
  9
$PUCSXDIR
 10
1.0
 20
0.0
 30
0.0
  9
$PUCSYDIR
 10
0.0
 20
1.0
 30
0.0
  9
$PUCSORTHOREF
  2

  9
$PUCSORTHOVIEW
 70
     0
  9
$PUCSORGTOP
 10
0.0
 20
0.0
 30
0.0
  9
$PUCSORGBOTTOM
 10
0.0
 20
0.0
 30
0.0
  9
$PUCSORGLEFT
 10
0.0
 20
0.0
 30
0.0
  9
$PUCSORGRIGHT
 10
0.0
 20
0.0
 30
0.0
  9
$PUCSORGFRONT
 10
0.0
 20
0.0
 30
0.0
  9
$PUCSORGBACK
 10
0.0
 20
0.0
 30
0.0
  9
$USERI1
 70
     3
  9
$USERI2
 70
     0
  9
$USERI3
 70
     0
  9
$USERI4
 70
     0
  9
$USERI5
 70
  1103
  9
$USERR1
 40
0.0
  9
$USERR2
 40
1.0
  9
$USERR3
 40
0.0
  9
$USERR4
 40
0.0
  9
$USERR5
 40
0.0
  9
$WORLDVIEW
 70
     1
  9
$SHADEDGE
 70
     3
  9
$SHADEDIF
 70
    70
  9
$TILEMODE
 70
     1
  9
$MAXACTVP
 70
    16
  9
$PINSBASE
 10
0.0
 20
0.0
 30
0.0
  9
$PLIMCHECK
 70
     0
  9
$PEXTMIN
 10
1.000000000000000E+20
 20
1.000000000000000E+20
 30
1.000000000000000E+20
  9
$PEXTMAX
 10
-1.000000000000000E+20
 20
-1.000000000000000E+20
 30
-1.000000000000000E+20
  9
$PLIMMIN
 10
0.0
 20
0.0
  9
$PLIMMAX
 10
12.0
 20
9.0
  9
$UNITMODE
 70
     0
  9
$VISRETAIN
 70
     0
  9
$PLINEGEN
 70
     1
  9
$PSLTSCALE
 70
     0
  9
$TREEDEPTH
 70
  3020
  9
$CMLSTYLE
  2
Standard
  9
$CMLJUST
 70
     0
  9
$CMLSCALE
 40
1.0
  9
$PROXYGRAPHICS
 70
     1
  9
$MEASUREMENT
 70
     0
  9
$CELWEIGHT
370
    -1
  9
$ENDCAPS
280
     0
  9
$JOINSTYLE
280
     0
  9
$LWDISPLAY
290
     0
  9
$INSUNITS
 70
     0
  9
$HYPERLINKBASE
  1

  9
$STYLESHEET
  1

  9
$XEDIT
290
     1
  9
$CEPSNTYPE
380
     0
  9
$PSTYLEMODE
290
     1
  9
$FINGERPRINTGUID
  2
{100EC28E-1F21-4B89-921A-4788652E2DEB}
  9
$VERSIONGUID
  2
{5711619D-76E5-42A7-9395-AD23AC81DA9D}
  9
$EXTNAMES
290
     1
  9
$PSVPSCALE
 40
0.0
  9
$OLESTARTUP
290
     0
  0
ENDSEC
  0
SECTION
  2
CLASSES
  0
CLASS
  1
ACDBDICTIONARYWDFLT
  2
AcDbDictionaryWithDefault
  3
AutoCAD 2000
 90
        0
280
     0
281
     0
  0
CLASS
  1
ACDBPLACEHOLDER
  2
AcDbPlaceHolder
  3
AutoCAD 2000
 90
        0
280
     0
281
     0
  0
CLASS
  1
LAYOUT
  2
AcDbLayout
  3
AutoCAD 2000
 90
        0
280
     0
281
     0
  0
CLASS
  1
DICTIONARYVAR
  2
AcDbDictionaryVar
  3
AutoCAD 2000
 90
        0
280
     0
281
     0
  0
ENDSEC
  0
SECTION
  2
TABLES
  0
TABLE
  2
VPORT
  5
1AC4E
330
0
100
AcDbSymbolTable
 70
     2
  0
VPORT
  5
1B361
330
1AC4E
100
AcDbSymbolTableRecord
100
AcDbViewportTableRecord
  2
*Active
 70
     0
 10
0.0
 20
0.0
 11
1.0
 21
1.0
 12
8408.331337953367
 22
5702.983730997637
 13
0.0
 23
0.0
 14
1.0
 24
1.0
 15
0.0
 25
0.0
 16
0.0
 26
0.0
 36
1.0
 17
0.0
 27
0.0
 37
0.0
 40
11162.83361536741
 41
1.527918781725888
 42
50.0
 43
0.0
 44
0.0
 50
0.0
 51
0.0
 71
     0
 72
 10000
 73
     1
 74
     0
 75
     0
 76
     0
 77
     0
 78
     0
281
     0
 65
     1
110
0.0
120
0.0
130
0.0
111
1.0
121
0.0
131
0.0
112
0.0
122
1.0
132
0.0
 79
     0
146
0.0
  0
ENDTAB
  0
TABLE
  2
LTYPE
  5
1AC4B
330
0
100
AcDbSymbolTable
 70
     7
  0
LTYPE
  5
1AC59
330
1AC4B
100
AcDbSymbolTableRecord
100
AcDbLinetypeTableRecord
  2
ByBlock
 70
     0
  3

 72
    65
 73
     0
 40
0.0
  0
LTYPE
  5
1AC5A
330
1AC4B
100
AcDbSymbolTableRecord
100
AcDbLinetypeTableRecord
  2
ByLayer
 70
     0
  3

 72
    65
 73
     0
 40
0.0
  0
LTYPE
  5
1AC5B
330
1AC4B
100
AcDbSymbolTableRecord
100
AcDbLinetypeTableRecord
  2
CONTINUOUS
 70
     0
  3
実線
 72
    65
 73
     0
 40
0.0
  0
LTYPE
  5
1AC6B
330
1AC4B
100
AcDbSymbolTableRecord
100
AcDbLinetypeTableRecord
  2
TENSEN-
 70
     0
  3

 72
    65
 73
     2
 40
0.6000000000000001
 49
0.2
 74
     0
 49
-0.4
 74
     0
  0
LTYPE
  5
1AC6C
330
1AC4B
100
AcDbSymbolTableRecord
100
AcDbLinetypeTableRecord
  2
1PL-LL
 70
     0
  3

 72
    65
 73
     4
 40
106.0
 49
100.0
 74
     0
 49
-2.0
 74
     0
 49
2.0
 74
     0
 49
-2.0
 74
     0
  0
LTYPE
  5
1AC6D
330
1AC4B
100
AcDbSymbolTableRecord
100
AcDbLinetypeTableRecord
  2
1PL-M
 70
     0
  3

 72
    65
 73
     4
 40
15.0
 49
12.0
 74
     0
 49
-1.0
 74
     0
 49
1.0
 74
     0
 49
-1.0
 74
     0
  0
LTYPE
  5
1AC6E
330
1AC4B
100
AcDbSymbolTableRecord
100
AcDbLinetypeTableRecord
  2
1PL-S
 70
     0
  3

 72
    65
 73
     4
 40
4.0
 49
2.5
 74
     0
 49
-0.5
 74
     0
 49
0.5
 74
     0
 49
-0.5
 74
     0
  0
LTYPE
  5
1AC6F
330
1AC4B
100
AcDbSymbolTableRecord
100
AcDbLinetypeTableRecord
  2
2PL-L
 70
     0
  3

 72
    65
 73
     6
 40
60.0
 49
50.0
 74
     0
 49
-2.0
 74
     0
 49
2.0
 74
     0
 49
-2.0
 74
     0
 49
2.0
 74
     0
 49
-2.0
 74
     0
  0
LTYPE
  5
1AC70
330
1AC4B
100
AcDbSymbolTableRecord
100
AcDbLinetypeTableRecord
  2
1PL-12
 70
     0
  3

 72
    65
 73
     4
 40
15.0
 49
12.0
 74
     0
 49
-1.0
 74
     0
 49
1.0
 74
     0
 49
-1.0
 74
     0
  0
ENDTAB
  0
TABLE
  2
LAYER
  5
1AC48
330
0
100
AcDbSymbolTable
 70
    20
  0
LAYER
  5
1AC56
330
1AC48
100
AcDbSymbolTableRecord
100
AcDbLayerTableRecord
  2
0
 70
     0
 62
     7
  6
CONTINUOUS
370
    -3
390
1AC55
  0
LAYER
  5
1AC68
330
1AC48
100
AcDbSymbolTableRecord
100
AcDbLayerTableRecord
  2
SUNPOU
 70
     0
 62
     4
  6
CONTINUOUS
370
    -3
390
1AC55
  0
LAYER
  5
1AC71
330
1AC48
100
AcDbSymbolTableRecord
100
AcDbLayerTableRecord
  2
U1
 70
     0
 62
     3
  6
CONTINUOUS
370
    -3
390
1AC55
  0
LAYER
  5
1AC72
330
1AC48
100
AcDbSymbolTableRecord
100
AcDbLayerTableRecord
  2
U3
 70
     0
 62
     6
  6
CONTINUOUS
370
    -3
390
1AC55
  0
LAYER
  5
1AC73
330
1AC48
100
AcDbSymbolTableRecord
100
AcDbLayerTableRecord
  2
HIKIDASHI
 70
     0
 62
     6
  6
CONTINUOUS
370
    -3
390
1AC55
  0
LAYER
  5
1AC74
330
1AC48
100
AcDbSymbolTableRecord
100
AcDbLayerTableRecord
  2
TENSEN-1
 70
     0
 62
     6
  6
TENSEN-
370
    -3
390
1AC55
  0
LAYER
  5
1AC75
330
1AC48
100
AcDbSymbolTableRecord
100
AcDbLayerTableRecord
  2
1PL-S1
 70
     0
 62
     6
  6
1PL-S
370
    -3
390
1AC55
  0
LAYER
  5
1AC76
330
1AC48
100
AcDbSymbolTableRecord
100
AcDbLayerTableRecord
  2
1PL-M1
 70
     0
 62
     6
  6
1PL-M
370
    -3
390
1AC55
  0
LAYER
  5
1AC77
330
1AC48
100
AcDbSymbolTableRecord
100
AcDbLayerTableRecord
  2
NAME
 70
     0
 62
    20
  6
CONTINUOUS
370
    -3
390
1AC55
  0
LAYER
  5
1AC78
330
1AC48
100
AcDbSymbolTableRecord
100
AcDbLayerTableRecord
  2
FILENAME
 70
     0
 62
     7
  6
CONTINUOUS
370
    -3
390
1AC55
  0
LAYER
  5
1AC79
330
1AC48
100
AcDbSymbolTableRecord
100
AcDbLayerTableRecord
  2
CENTER
 70
     0
 62
     6
  6
1PL-LL
370
    -3
390
1AC55
  0
LAYER
  5
1AC7A
330
1AC48
100
AcDbSymbolTableRecord
100
AcDbLayerTableRecord
  2
KISO
 70
     0
 62
     2
  6
CONTINUOUS
370
    -3
390
1AC55
  0
LAYER
  5
1AC7B
330
1AC48
100
AcDbSymbolTableRecord
100
AcDbLayerTableRecord
  2
BOLT
 70
     0
 62
     4
  6
CONTINUOUS
370
    -3
390
1AC55
  0
LAYER
  5
1AC7C
330
1AC48
100
AcDbSymbolTableRecord
100
AcDbLayerTableRecord
  2
YANE
 70
     0
 62
     1
  6
1PL-12
370
    -3
390
1AC55
  0
LAYER
  5
1AC7D
330
1AC48
100
AcDbSymbolTableRecord
100
AcDbLayerTableRecord
  2
HATCH
 70
     0
 62
     1
  6
CONTINUOUS
370
    -3
390
1AC55
  0
LAYER
  5
1AC7E
330
1AC48
100
AcDbSymbolTableRecord
100
AcDbLayerTableRecord
  2
HASHIRA
 70
     0
 62
     3
  6
CONTINUOUS
370
    -3
390
1AC55
  0
LAYER
  5
1AC7F
330
1AC48
100
AcDbSymbolTableRecord
100
AcDbLayerTableRecord
  2
YODOROGO
 70
     0
 62
   130
  6
CONTINUOUS
370
    -3
390
1AC55
  0
LAYER
  5
1AC80
330
1AC48
100
AcDbSymbolTableRecord
100
AcDbLayerTableRecord
  2
WAKUSEN-01
 70
     0
 62
    50
  6
CONTINUOUS
370
    -3
390
1AC55
  0
LAYER
  5
1AC81
330
1AC48
100
AcDbSymbolTableRecord
100
AcDbLayerTableRecord
  2
WAKUSEN-02
 70
     0
 62
   130
  6
CONTINUOUS
370
    -3
390
1AC55
  0
LAYER
  5
1AC82
330
1AC48
100
AcDbSymbolTableRecord
100
AcDbLayerTableRecord
  2
WAKUMOJI-01
 70
     0
 62
   130
  6
CONTINUOUS
370
    -3
390
1AC55
  0
ENDTAB
  0
TABLE
  2
STYLE
  5
1AC49
330
0
100
AcDbSymbolTable
 70
     5
  0
STYLE
  5
1AC57
330
1AC49
100
AcDbSymbolTableRecord
100
AcDbTextStyleTableRecord
  2
STANDARD
 70
     0
 40
3.0
 41
1.0
 50
0.0
 71
     0
 42
0.2
  3
ROMANS
  4
EXTFONT
  0
STYLE
  5
1AC69
330
1AC49
100
AcDbSymbolTableRecord
100
AcDbTextStyleTableRecord
  2
00
 70
     0
 40
0.0
 41
0.6666666666666666
 50
0.0
 71
     0
 42
0.2
  3
ROMANS
  4
BIGFONT
  0
STYLE
  5
1AC83
330
1AC49
100
AcDbSymbolTableRecord
100
AcDbTextStyleTableRecord
  2
01
 70
     0
 40
3.0
 41
1.0
 50
0.0
 71
     0
 42
0.2
  3
ROMANS
  4
BIGFONT
  0
STYLE
  5
1AC84
330
1AC49
100
AcDbSymbolTableRecord
100
AcDbTextStyleTableRecord
  2
WAKUMOJI
 70
     0
 40
3.0
 41
1.0
 50
0.0
 71
     0
 42
3.0
  3
SIMPLEX
  4
BIGFONT
  0
STYLE
  5
1AC85
330
1AC49
100
AcDbSymbolTableRecord
100
AcDbTextStyleTableRecord
  2
FILENAME
 70
     0
 40
100.0
 41
1.0
 50
0.0
 71
     0
 42
100.0
  3
romans
  4
bigfont
  0
ENDTAB
  0
TABLE
  2
VIEW
  5
1AC4C
330
0
100
AcDbSymbolTable
 70
     0
  0
ENDTAB
  0
TABLE
  2
UCS
  5
1AC4D
330
0
100
AcDbSymbolTable
 70
     0
  0
ENDTAB
  0
TABLE
  2
APPID
  5
1AC4F
330
0
100
AcDbSymbolTable
 70
     5
  0
APPID
  5
1AC58
330
1AC4F
100
AcDbSymbolTableRecord
100
AcDbRegAppTableRecord
  2
ACAD
 70
     0
  0
APPID
  5
1AC86
330
1AC4F
100
AcDbSymbolTableRecord
100
AcDbRegAppTableRecord
  2
AUTOCAD_POSTSCRIPT_FIGURE
 70
     0
  0
APPID
  5
1AC87
330
1AC4F
100
AcDbSymbolTableRecord
100
AcDbRegAppTableRecord
  2
ACAD_EXEMPT_FROM_CAD_STANDARDS
 70
     0
  0
APPID
  5
1AC88
330
1AC4F
100
AcDbSymbolTableRecord
100
AcDbRegAppTableRecord
  2
ACAD_PSEXT
 70
     0
  0
APPID
  5
1AC89
330
1AC4F
100
AcDbSymbolTableRecord
100
AcDbRegAppTableRecord
  2
ACLAYERTOOLS
 70
     0
  0
ENDTAB
  0
TABLE
  2
DIMSTYLE
  5
1AC50
330
0
100
AcDbSymbolTable
 70
     1
100
AcDbDimStyleTable
 71
     0
  0
DIMSTYLE
105
1AC8A
330
1AC50
100
AcDbSymbolTableRecord
100
AcDbDimStyleTableRecord
  2
SUNPOU_図面名
 70
     0
 40
30.0
 41
0.5
 42
1.0
 43
7.0
 44
1.5
 46
3.0
 73
     0
 74
     0
 77
     1
 78
     8
140
3.0
141
0.0
147
1.5
172
     1
173
     1
176
   256
177
   256
178
   256
271
     2
272
     2
279
     2
284
     8
285
     8
286
     8
340
1AC69
  0
ENDTAB
  0
TABLE
  2
BLOCK_RECORD
  5
1AC47
330
0
100
AcDbSymbolTable
 70
    45
  0
BLOCK_RECORD
  5
1AC64
330
1AC47
100
AcDbSymbolTableRecord
100
AcDbBlockTableRecord
  2
*Model_Space
340
1AC67
  0
BLOCK_RECORD
  5
1AC60
330
1AC47
100
AcDbSymbolTableRecord
100
AcDbBlockTableRecord
  2
*Paper_Space
340
1AC63
  0
BLOCK_RECORD
  5
1AC8F
330
1AC47
100
AcDbSymbolTableRecord
100
AcDbBlockTableRecord
  2
$MODEL_SPACE
340
0
  0
BLOCK_RECORD
  5
1AC92
330
1AC47
100
AcDbSymbolTableRecord
100
AcDbBlockTableRecord
  2
$PAPER_SPACE
340
0
  0
BLOCK_RECORD
  5
1AC95
330
1AC47
100
AcDbSymbolTableRecord
100
AcDbBlockTableRecord
  2
DOT
340
0
  0
BLOCK_RECORD
  5
1AC9D
330
1AC47
100
AcDbSymbolTableRecord
100
AcDbBlockTableRecord
  2
*U3
340
0
  0
BLOCK_RECORD
  5
1ACA1
330
1AC47
100
AcDbSymbolTableRecord
100
AcDbBlockTableRecord
  2
*U4
340
0
  0
BLOCK_RECORD
  5
1ACA5
330
1AC47
100
AcDbSymbolTableRecord
100
AcDbBlockTableRecord
  2
*U5
340
0
  0
BLOCK_RECORD
  5
1ACA9
330
1AC47
100
AcDbSymbolTableRecord
100
AcDbBlockTableRecord
  2
*U6
340
0
  0
BLOCK_RECORD
  5
1ACAD
330
1AC47
100
AcDbSymbolTableRecord
100
AcDbBlockTableRecord
  2
*U7
340
0
  0
BLOCK_RECORD
  5
1ACB1
330
1AC47
100
AcDbSymbolTableRecord
100
AcDbBlockTableRecord
  2
*U8
340
0
  0
BLOCK_RECORD
  5
1ACB5
330
1AC47
100
AcDbSymbolTableRecord
100
AcDbBlockTableRecord
  2
*U9
340
0
  0
BLOCK_RECORD
  5
1ACB9
330
1AC47
100
AcDbSymbolTableRecord
100
AcDbBlockTableRecord
  2
*U10
340
0
  0
BLOCK_RECORD
  5
1ACBD
330
1AC47
100
AcDbSymbolTableRecord
100
AcDbBlockTableRecord
  2
*U11
340
0
  0
BLOCK_RECORD
  5
1ACC1
330
1AC47
100
AcDbSymbolTableRecord
100
AcDbBlockTableRecord
  2
*U12
340
0
  0
BLOCK_RECORD
  5
1ACC5
330
1AC47
100
AcDbSymbolTableRecord
100
AcDbBlockTableRecord
  2
*U13
340
0
  0
BLOCK_RECORD
  5
1ACC9
330
1AC47
100
AcDbSymbolTableRecord
100
AcDbBlockTableRecord
  2
*U14
340
0
  0
BLOCK_RECORD
  5
1ACCD
330
1AC47
100
AcDbSymbolTableRecord
100
AcDbBlockTableRecord
  2
*U15
340
0
  0
BLOCK_RECORD
  5
1ACD1
330
1AC47
100
AcDbSymbolTableRecord
100
AcDbBlockTableRecord
  2
*U16
340
0
  0
BLOCK_RECORD
  5
1ACD5
330
1AC47
100
AcDbSymbolTableRecord
100
AcDbBlockTableRecord
  2
*U17
340
0
  0
BLOCK_RECORD
  5
1ACD9
330
1AC47
100
AcDbSymbolTableRecord
100
AcDbBlockTableRecord
  2
*U18
340
0
  0
BLOCK_RECORD
  5
1ACDD
330
1AC47
100
AcDbSymbolTableRecord
100
AcDbBlockTableRecord
  2
*U19
340
0
  0
BLOCK_RECORD
  5
1ACE1
330
1AC47
100
AcDbSymbolTableRecord
100
AcDbBlockTableRecord
  2
*U20
340
0
  0
BLOCK_RECORD
  5
1ACE5
330
1AC47
100
AcDbSymbolTableRecord
100
AcDbBlockTableRecord
  2
*U21
340
0
  0
BLOCK_RECORD
  5
1ACE9
330
1AC47
100
AcDbSymbolTableRecord
100
AcDbBlockTableRecord
  2
*U22
340
0
  0
BLOCK_RECORD
  5
1ACED
330
1AC47
100
AcDbSymbolTableRecord
100
AcDbBlockTableRecord
  2
*U23
340
0
  0
BLOCK_RECORD
  5
1ACF1
330
1AC47
100
AcDbSymbolTableRecord
100
AcDbBlockTableRecord
  2
*U24
340
0
  0
BLOCK_RECORD
  5
1ACF5
330
1AC47
100
AcDbSymbolTableRecord
100
AcDbBlockTableRecord
  2
*U25
340
0
  0
BLOCK_RECORD
  5
1ACF9
330
1AC47
100
AcDbSymbolTableRecord
100
AcDbBlockTableRecord
  2
*U26
340
0
  0
BLOCK_RECORD
  5
1ACFD
330
1AC47
100
AcDbSymbolTableRecord
100
AcDbBlockTableRecord
  2
*U27
340
0
  0
BLOCK_RECORD
  5
1AD01
330
1AC47
100
AcDbSymbolTableRecord
100
AcDbBlockTableRecord
  2
*U28
340
0
  0
BLOCK_RECORD
  5
1AD05
330
1AC47
100
AcDbSymbolTableRecord
100
AcDbBlockTableRecord
  2
*U29
340
0
  0
BLOCK_RECORD
  5
1AD09
330
1AC47
100
AcDbSymbolTableRecord
100
AcDbBlockTableRecord
  2
*U30
340
0
  0
BLOCK_RECORD
  5
1AD0D
330
1AC47
100
AcDbSymbolTableRecord
100
AcDbBlockTableRecord
  2
*U31
340
0
  0
BLOCK_RECORD
  5
1AD11
330
1AC47
100
AcDbSymbolTableRecord
100
AcDbBlockTableRecord
  2
*U32
340
0
  0
BLOCK_RECORD
  5
1AD15
330
1AC47
100
AcDbSymbolTableRecord
100
AcDbBlockTableRecord
  2
*U33
340
0
  0
BLOCK_RECORD
  5
1AD19
330
1AC47
100
AcDbSymbolTableRecord
100
AcDbBlockTableRecord
  2
*U34
340
0
  0
BLOCK_RECORD
  5
1AD1D
330
1AC47
100
AcDbSymbolTableRecord
100
AcDbBlockTableRecord
  2
*U35
340
0
  0
BLOCK_RECORD
  5
1AD21
330
1AC47
100
AcDbSymbolTableRecord
100
AcDbBlockTableRecord
  2
*U36
340
0
  0
BLOCK_RECORD
  5
1AD25
330
1AC47
100
AcDbSymbolTableRecord
100
AcDbBlockTableRecord
  2
*U37
340
0
  0
BLOCK_RECORD
  5
1AD29
330
1AC47
100
AcDbSymbolTableRecord
100
AcDbBlockTableRecord
  2
*U38
340
0
  0
BLOCK_RECORD
  5
1AD2D
330
1AC47
100
AcDbSymbolTableRecord
100
AcDbBlockTableRecord
  2
*U39
340
0
  0
BLOCK_RECORD
  5
1AD31
330
1AC47
100
AcDbSymbolTableRecord
100
AcDbBlockTableRecord
  2
*U40
340
0
  0
BLOCK_RECORD
  5
1AD35
330
1AC47
100
AcDbSymbolTableRecord
100
AcDbBlockTableRecord
  2
*U41
340
0
  0
BLOCK_RECORD
  5
1AD39
330
1AC47
100
AcDbSymbolTableRecord
100
AcDbBlockTableRecord
  2
*U42
340
0
  0
BLOCK_RECORD
  5
1AD3D
330
1AC47
100
AcDbSymbolTableRecord
100
AcDbBlockTableRecord
  2
*U43
340
0
  0
BLOCK_RECORD
  5
1AD41
330
1AC47
100
AcDbSymbolTableRecord
100
AcDbBlockTableRecord
  2
*U44
340
0
  0
ENDTAB
  0
ENDSEC
  0
SECTION
  2
BLOCKS
  0
BLOCK
  5
1AC65
330
1AC64
100
AcDbEntity
  8
0
100
AcDbBlockBegin
  2
*Model_Space
 70
     0
 10
0.0
 20
0.0
 30
0.0
  3
*Model_Space
  1

  0
ENDBLK
  5
1AC66
330
1AC64
100
AcDbEntity
  8
0
100
AcDbBlockEnd
  0
BLOCK
  5
1AC61
330
1AC60
100
AcDbEntity
 67
     1
  8
0
100
AcDbBlockBegin
  2
*Paper_Space
 70
     0
 10
0.0
 20
0.0
 30
0.0
  3
*Paper_Space
  1

  0
ENDBLK
  5
1AC62
330
1AC60
100
AcDbEntity
 67
     1
  8
0
100
AcDbBlockEnd
  0
BLOCK
  5
1AC90
330
1AC8F
100
AcDbEntity
  8
0
100
AcDbBlockBegin
  2
$MODEL_SPACE
 70
     0
 10
0.0
 20
0.0
 30
0.0
  3
$MODEL_SPACE
  1

  0
ENDBLK
  5
1AC91
330
1AC8F
100
AcDbEntity
  8
0
100
AcDbBlockEnd
  0
BLOCK
  5
1AC93
330
1AC92
100
AcDbEntity
  8
0
100
AcDbBlockBegin
  2
$PAPER_SPACE
 70
     0
 10
0.0
 20
0.0
 30
0.0
  3
$PAPER_SPACE
  1

  0
ENDBLK
  5
1AC94
330
1AC92
100
AcDbEntity
  8
0
100
AcDbBlockEnd
  0
BLOCK
  5
1AC96
330
1AC95
100
AcDbEntity
  8
0
100
AcDbBlockBegin
  2
DOT
 70
     0
 10
0.0
 20
0.0
 30
0.0
  3
DOT
  1

  0
LWPOLYLINE
  5
1AC97
330
1AC95
100
AcDbEntity
  8
0
  6
ByBlock
 62
     0
100
AcDbPolyline
 90
        2
 70
     1
 43
0.75
 10
-0.375
 20
0.0
 42
1.0
 10
0.375
 20
0.0
 42
1.0
  0
LINE
  5
1AC9B
330
1AC95
100
AcDbEntity
  8
0
  6
ByBlock
 62
     0
100
AcDbLine
 10
-0.75
 20
0.0
 30
0.0
 11
-1.5
 21
0.0
 31
0.0
  0
ENDBLK
  5
1AC9C
330
1AC95
100
AcDbEntity
  8
0
100
AcDbBlockEnd
  0
BLOCK
  5
1AC9E
330
1AC9D
100
AcDbEntity
  8
0
100
AcDbBlockBegin
  2
*U3
 70
     1
 10
0.0
 20
0.0
 30
0.0
  3
*U3
  1

  0
TEXT
  5
1AC9F
330
1AC9D
100
AcDbEntity
  8
SUNPOU
100
AcDbText
 10
4474.082765553179
 20
4175.485411556191
 30
0.0
 40
90.0
  1
300
 41
0.6666666666666666
  7
00
100
AcDbText
  0
ENDBLK
  5
1ACA0
330
1AC9D
100
AcDbEntity
  8
0
100
AcDbBlockEnd
  0
BLOCK
  5
1ACA2
330
1ACA1
100
AcDbEntity
  8
0
100
AcDbBlockBegin
  2
*U4
 70
     1
 10
0.0
 20
0.0
 30
0.0
  3
*U4
  1

  0
TEXT
  5
1ACA3
330
1ACA1
100
AcDbEntity
  8
SUNPOU
100
AcDbText
 10
3415.443655266705
 20
3523.113410848177
 30
0.0
 40
90.0
  1
50
 50
90.0
 41
0.6666666666666666
  7
00
100
AcDbText
  0
ENDBLK
  5
1ACA4
330
1ACA1
100
AcDbEntity
  8
0
100
AcDbBlockEnd
  0
BLOCK
  5
1ACA6
330
1ACA5
100
AcDbEntity
  8
0
100
AcDbBlockBegin
  2
*U5
 70
     1
 10
0.0
 20
0.0
 30
0.0
  3
*U5
  1

  0
TEXT
  5
1ACA7
330
1ACA5
100
AcDbEntity
  8
SUNPOU
100
AcDbText
 10
4712.654194124605
 20
2193.684839419601
 30
0.0
 40
90.0
  1
600
 41
0.6666666666666666
  7
00
100
AcDbText
  0
ENDBLK
  5
1ACA8
330
1ACA5
100
AcDbEntity
  8
0
100
AcDbBlockEnd
  0
BLOCK
  5
1ACAA
330
1ACA9
100
AcDbEntity
  8
0
100
AcDbBlockBegin
  2
*U6
 70
     1
 10
0.0
 20
0.0
 30
0.0
  3
*U6
  1

  0
TEXT
  5
1ACAB
330
1ACA9
100
AcDbEntity
  8
SUNPOU
100
AcDbText
 10
3835.443655266704
 20
2865.370553705316
 30
0.0
 40
90.0
  1
300
 50
90.0
 41
0.6666666666666666
  7
00
100
AcDbText
  0
ENDBLK
  5
1ACAC
330
1ACA9
100
AcDbEntity
  8
0
100
AcDbBlockEnd
  0
BLOCK
  5
1ACAE
330
1ACAD
100
AcDbEntity
  8
0
100
AcDbBlockBegin
  2
*U7
 70
     1
 10
0.0
 20
0.0
 30
0.0
  3
*U7
  1

  0
TEXT
  5
1ACAF
330
1ACAD
100
AcDbEntity
  8
SUNPOU
100
AcDbText
 10
3835.443655266707
 20
3197.941982276741
 30
0.0
 40
90.0
  1
80
 50
90.0
 41
0.6666666666666666
  7
00
100
AcDbText
  0
ENDBLK
  5
1ACB0
330
1ACAD
100
AcDbEntity
  8
0
100
AcDbBlockEnd
  0
BLOCK
  5
1ACB2
330
1ACB1
100
AcDbEntity
  8
0
100
AcDbBlockBegin
  2
*U8
 70
     1
 10
0.0
 20
0.0
 30
0.0
  3
*U8
  1

  0
TEXT
  5
1ACB3
330
1ACB1
100
AcDbEntity
  8
SUNPOU
100
AcDbText
 10
11451.33837406208
 20
3229.170862655058
 30
0.0
 40
90.0
  1
160
 41
0.6666666666666666
  7
00
100
AcDbText
  0
ENDBLK
  5
1ACB4
330
1ACB1
100
AcDbEntity
  8
0
100
AcDbBlockEnd
  0
BLOCK
  5
1ACB6
330
1ACB5
100
AcDbEntity
  8
0
100
AcDbBlockBegin
  2
*U9
 70
     1
 10
0.0
 20
0.0
 30
0.0
  3
*U9
  1

  0
TEXT
  5
1ACB7
330
1ACB5
100
AcDbEntity
  8
SUNPOU
100
AcDbText
 10
11040.6240883478
 20
3439.170862655058
 30
0.0
 40
90.0
  1
20
 41
0.6666666666666666
  7
00
100
AcDbText
  0
ENDBLK
  5
1ACB8
330
1ACB5
100
AcDbEntity
  8
0
100
AcDbBlockEnd
  0
BLOCK
  5
1ACBA
330
1ACB9
100
AcDbEntity
  8
0
100
AcDbBlockBegin
  2
*U10
 70
     1
 10
0.0
 20
0.0
 30
0.0
  3
*U10
  1

  0
TEXT
  5
1ACBB
330
1ACB9
100
AcDbEntity
  8
SUNPOU
100
AcDbText
 10
11451.33837406209
 20
3439.170862655058
 30
0.0
 40
90.0
  1
120
 41
0.6666666666666666
  7
00
100
AcDbText
  0
ENDBLK
  5
1ACBC
330
1ACB9
100
AcDbEntity
  8
0
100
AcDbBlockEnd
  0
BLOCK
  5
1ACBE
330
1ACBD
100
AcDbEntity
  8
0
100
AcDbBlockBegin
  2
*U11
 70
     1
 10
0.0
 20
0.0
 30
0.0
  3
*U11
  1

  0
TEXT
  5
1ACBF
330
1ACBD
100
AcDbEntity
  8
SUNPOU
100
AcDbText
 10
11927.76694549065
 20
3439.170862655058
 30
0.0
 40
90.0
  1
20
 41
0.6666666666666666
  7
00
100
AcDbText
  0
ENDBLK
  5
1ACC0
330
1ACBD
100
AcDbEntity
  8
0
100
AcDbBlockEnd
  0
BLOCK
  5
1ACC2
330
1ACC1
100
AcDbEntity
  8
0
100
AcDbBlockBegin
  2
*U12
 70
     1
 10
0.0
 20
0.0
 30
0.0
  3
*U12
  1

  0
TEXT
  5
1ACC3
330
1ACC1
100
AcDbEntity
  8
SUNPOU
100
AcDbText
 10
10663.33837406209
 20
2643.001486910295
 30
0.0
 40
90.0
  1
80
 50
90.0
 41
0.6666666666666666
  7
00
100
AcDbText
  0
ENDBLK
  5
1ACC4
330
1ACC1
100
AcDbEntity
  8
0
100
AcDbBlockEnd
  0
BLOCK
  5
1ACC6
330
1ACC5
100
AcDbEntity
  8
0
100
AcDbBlockBegin
  2
*U13
 70
     1
 10
0.0
 20
0.0
 30
0.0
  3
*U13
  1

  0
TEXT
  5
1ACC7
330
1ACC5
100
AcDbEntity
  8
SUNPOU
100
AcDbText
 10
10873.33837406209
 20
2911.572915481723
 30
0.0
 40
90.0
  1
40
 50
90.0
 41
0.6666666666666666
  7
00
100
AcDbText
  0
ENDBLK
  5
1ACC8
330
1ACC5
100
AcDbEntity
  8
0
100
AcDbBlockEnd
  0
BLOCK
  5
1ACCA
330
1ACC9
100
AcDbEntity
  8
0
100
AcDbBlockBegin
  2
*U14
 70
     1
 10
0.0
 20
0.0
 30
0.0
  3
*U14
  1

  0
TEXT
  5
1ACCB
330
1ACC9
100
AcDbEntity
  8
SUNPOU
100
AcDbText
 10
10873.33837406209
 20
2374.430058338865
 30
0.0
 40
90.0
  1
40
 50
90.0
 41
0.6666666666666666
  7
00
100
AcDbText
  0
ENDBLK
  5
1ACCC
330
1ACC9
100
AcDbEntity
  8
0
100
AcDbBlockEnd
  0
BLOCK
  5
1ACCE
330
1ACCD
100
AcDbEntity
  8
0
100
AcDbBlockBegin
  2
*U15
 70
     1
 10
0.0
 20
0.0
 30
0.0
  3
*U15
  1

  0
TEXT
  5
1ACCF
330
1ACCD
100
AcDbEntity
  8
SUNPOU
100
AcDbText
 10
11451.33837406208
 20
2080.804976716085
 30
0.0
 40
90.0
  1
160
 41
0.6666666666666666
  7
00
100
AcDbText
  0
ENDBLK
  5
1ACD0
330
1ACCD
100
AcDbEntity
  8
0
100
AcDbBlockEnd
  0
BLOCK
  5
1ACD2
330
1ACD1
100
AcDbEntity
  8
0
100
AcDbBlockBegin
  2
*U16
 70
     1
 10
0.0
 20
0.0
 30
0.0
  3
*U16
  1

  0
TEXT
  5
1ACD3
330
1ACD1
100
AcDbEntity
  8
SUNPOU
100
AcDbText
 10
11040.6240883478
 20
2290.804976716086
 30
0.0
 40
90.0
  1
20
 41
0.6666666666666666
  7
00
100
AcDbText
  0
ENDBLK
  5
1ACD4
330
1ACD1
100
AcDbEntity
  8
0
100
AcDbBlockEnd
  0
BLOCK
  5
1ACD6
330
1ACD5
100
AcDbEntity
  8
0
100
AcDbBlockBegin
  2
*U17
 70
     1
 10
0.0
 20
0.0
 30
0.0
  3
*U17
  1

  0
TEXT
  5
1ACD7
330
1ACD5
100
AcDbEntity
  8
SUNPOU
100
AcDbText
 10
11451.33837406209
 20
2290.804976716086
 30
0.0
 40
90.0
  1
120
 41
0.6666666666666666
  7
00
100
AcDbText
  0
ENDBLK
  5
1ACD8
330
1ACD5
100
AcDbEntity
  8
0
100
AcDbBlockEnd
  0
BLOCK
  5
1ACDA
330
1ACD9
100
AcDbEntity
  8
0
100
AcDbBlockBegin
  2
*U18
 70
     1
 10
0.0
 20
0.0
 30
0.0
  3
*U18
  1

  0
TEXT
  5
1ACDB
330
1ACD9
100
AcDbEntity
  8
SUNPOU
100
AcDbText
 10
11927.76694549065
 20
2290.804976716086
 30
0.0
 40
90.0
  1
20
 41
0.6666666666666666
  7
00
100
AcDbText
  0
ENDBLK
  5
1ACDC
330
1ACD9
100
AcDbEntity
  8
0
100
AcDbBlockEnd
  0
BLOCK
  5
1ACDE
330
1ACDD
100
AcDbEntity
  8
0
100
AcDbBlockBegin
  2
*U19
 70
     1
 10
0.0
 20
0.0
 30
0.0
  3
*U19
  1

  0
TEXT
  5
1ACDF
330
1ACDD
100
AcDbEntity
  8
SUNPOU
100
AcDbText
 10
12228.40680314954
 20
3437.622750870277
 30
0.0
 40
90.0
  1
27
 50
90.0
 41
0.6666666666666666
  7
00
100
AcDbText
  0
ENDBLK
  5
1ACE0
330
1ACDD
100
AcDbEntity
  8
0
100
AcDbBlockEnd
  0
BLOCK
  5
1ACE2
330
1ACE1
100
AcDbEntity
  8
0
100
AcDbBlockBegin
  2
*U20
 70
     1
 10
0.0
 20
0.0
 30
0.0
  3
*U20
  1

  0
TEXT
  5
1ACE3
330
1ACE1
100
AcDbEntity
  8
SUNPOU
100
AcDbText
 10
12228.40680314954
 20
3937.765608013134
 30
0.0
 40
90.0
  1
40
 50
90.0
 41
0.6666666666666666
  7
00
100
AcDbText
  0
ENDBLK
  5
1ACE4
330
1ACE1
100
AcDbEntity
  8
0
100
AcDbBlockEnd
  0
BLOCK
  5
1ACE6
330
1ACE5
100
AcDbEntity
  8
0
100
AcDbBlockBegin
  2
*U21
 70
     1
 10
0.0
 20
0.0
 30
0.0
  3
*U21
  1

  0
TEXT
  5
1ACE7
330
1ACE5
100
AcDbEntity
  8
SUNPOU
100
AcDbText
 10
4714.082765553176
 20
1983.6848394196
 30
0.0
 40
90.0
  1
800
 41
0.6666666666666666
  7
00
100
AcDbText
  0
ENDBLK
  5
1ACE8
330
1ACE5
100
AcDbEntity
  8
0
100
AcDbBlockEnd
  0
BLOCK
  5
1ACEA
330
1ACE9
100
AcDbEntity
  8
0
100
AcDbBlockBegin
  2
*U22
 70
     1
 10
0.0
 20
0.0
 30
0.0
  3
*U22
  1

  0
TEXT
  5
1ACEB
330
1ACE9
100
AcDbEntity
  8
SUNPOU
100
AcDbText
 10
3835.443655266704
 20
2328.227696562461
 30
0.0
 40
90.0
  1
100
 50
90.0
 41
0.6666666666666666
  7
00
100
AcDbText
  0
ENDBLK
  5
1ACEC
330
1ACE9
100
AcDbEntity
  8
0
100
AcDbBlockEnd
  0
BLOCK
  5
1ACEE
330
1ACED
100
AcDbEntity
  8
0
100
AcDbBlockBegin
  2
*U23
 70
     1
 10
0.0
 20
0.0
 30
0.0
  3
*U23
  1

  0
TEXT
  5
1ACEF
330
1ACED
100
AcDbEntity
  8
SUNPOU
100
AcDbText
 10
3835.443655266704
 20
3508.113410848177
 30
0.0
 40
90.0
  1
80
 50
90.0
 41
0.6666666666666666
  7
00
100
AcDbText
  0
ENDBLK
  5
1ACF0
330
1ACED
100
AcDbEntity
  8
0
100
AcDbBlockEnd
  0
BLOCK
  5
1ACF2
330
1ACF1
100
AcDbEntity
  8
0
100
AcDbBlockBegin
  2
*U24
 70
     1
 10
0.0
 20
0.0
 30
0.0
  3
*U24
  1

  0
TEXT
  5
1ACF3
330
1ACF1
100
AcDbEntity
  8
SUNPOU
100
AcDbText
 10
3625.443655266705
 20
2918.170553705319
 30
0.0
 40
90.0
  1
560
 50
90.0
 41
0.6666666666666666
  7
00
100
AcDbText
  0
ENDBLK
  5
1ACF4
330
1ACF1
100
AcDbEntity
  8
0
100
AcDbBlockEnd
  0
BLOCK
  5
1ACF6
330
1ACF5
100
AcDbEntity
  8
0
100
AcDbBlockBegin
  2
*U25
 70
     1
 10
0.0
 20
0.0
 30
0.0
  3
*U25
  1

  0
TEXT
  5
1ACF7
330
1ACF5
100
AcDbEntity
  8
SUNPOU
100
AcDbText
 10
10374.21703198605
 20
7381.42964618754
 30
0.0
 40
90.0
  1
4200
 50
90.0
 41
0.6666666666666666
  7
00
100
AcDbText
  0
ENDBLK
  5
1ACF8
330
1ACF5
100
AcDbEntity
  8
0
100
AcDbBlockEnd
  0
BLOCK
  5
1ACFA
330
1ACF9
100
AcDbEntity
  8
0
100
AcDbBlockBegin
  2
*U26
 70
     1
 10
0.0
 20
0.0
 30
0.0
  3
*U26
  1

  0
TEXT
  5
1ACFB
330
1ACF9
100
AcDbEntity
  8
SUNPOU
100
AcDbText
 10
10164.21703198606
 20
5460.001074758968
 30
0.0
 40
90.0
  1
300
 50
90.0
 41
0.6666666666666666
  7
00
100
AcDbText
  0
ENDBLK
  5
1ACFC
330
1ACF9
100
AcDbEntity
  8
0
100
AcDbBlockEnd
  0
BLOCK
  5
1ACFE
330
1ACFD
100
AcDbEntity
  8
0
100
AcDbBlockBegin
  2
*U27
 70
     1
 10
0.0
 20
0.0
 30
0.0
  3
*U27
  1

  0
TEXT
  5
1ACFF
330
1ACFD
100
AcDbEntity
  8
SUNPOU
100
AcDbText
 10
10164.21703198606
 20
6477.143931901827
 30
0.0
 40
90.0
  1
1800
 50
90.0
 41
0.6666666666666666
  7
00
100
AcDbText
  0
ENDBLK
  5
1AD00
330
1ACFD
100
AcDbEntity
  8
0
100
AcDbBlockEnd
  0
BLOCK
  5
1AD02
330
1AD01
100
AcDbEntity
  8
0
100
AcDbBlockBegin
  2
*U28
 70
     1
 10
0.0
 20
0.0
 30
0.0
  3
*U28
  1

  0
TEXT
  5
1AD03
330
1AD01
100
AcDbEntity
  8
SUNPOU
100
AcDbText
 10
10164.21703198606
 20
8277.143931901827
 30
0.0
 40
90.0
  1
1800
 50
90.0
 41
0.6666666666666666
  7
00
100
AcDbText
  0
ENDBLK
  5
1AD04
330
1AD01
100
AcDbEntity
  8
0
100
AcDbBlockEnd
  0
BLOCK
  5
1AD06
330
1AD05
100
AcDbEntity
  8
0
100
AcDbBlockBegin
  2
*U29
 70
     1
 10
0.0
 20
0.0
 30
0.0
  3
*U29
  1

  0
TEXT
  5
1AD07
330
1AD05
100
AcDbEntity
  8
SUNPOU
100
AcDbText
 10
10164.21703198606
 20
9360.001074758967
 30
0.0
 40
90.0
  1
300
 50
90.0
 41
0.6666666666666666
  7
00
100
AcDbText
  0
ENDBLK
  5
1AD08
330
1AD05
100
AcDbEntity
  8
0
100
AcDbBlockEnd
  0
BLOCK
  5
1AD0A
330
1AD09
100
AcDbEntity
  8
0
100
AcDbBlockBegin
  2
*U30
 70
     1
 10
0.0
 20
0.0
 30
0.0
  3
*U30
  1

  0
TEXT
  5
1AD0B
330
1AD09
100
AcDbEntity
  8
SUNPOU
100
AcDbText
 10
6673.502746271774
 20
10040.71536047325
 30
0.0
 40
90.0
  1
400
 41
0.6666666666666666
  7
00
100
AcDbText
  0
ENDBLK
  5
1AD0C
330
1AD09
100
AcDbEntity
  8
0
100
AcDbBlockEnd
  0
BLOCK
  5
1AD0E
330
1AD0D
100
AcDbEntity
  8
0
100
AcDbBlockBegin
  2
*U31
 70
     1
 10
0.0
 20
0.0
 30
0.0
  3
*U31
  1

  0
TEXT
  5
1AD0F
330
1AD0D
100
AcDbEntity
  8
SUNPOU
100
AcDbText
 10
8069.931317700344
 20
10040.71536047325
 30
0.0
 40
90.0
  1
2450
 41
0.6666666666666666
  7
00
100
AcDbText
  0
ENDBLK
  5
1AD10
330
1AD0D
100
AcDbEntity
  8
0
100
AcDbBlockEnd
  0
BLOCK
  5
1AD12
330
1AD11
100
AcDbEntity
  8
0
100
AcDbBlockBegin
  2
*U32
 70
     1
 10
0.0
 20
0.0
 30
0.0
  3
*U32
  1

  0
TEXT
  5
1AD13
330
1AD11
100
AcDbEntity
  8
SUNPOU
100
AcDbText
 10
8069.931317700344
 20
10250.71536047325
 30
0.0
 40
90.0
  1
3250
 41
0.6666666666666666
  7
00
100
AcDbText
  0
ENDBLK
  5
1AD14
330
1AD11
100
AcDbEntity
  8
0
100
AcDbBlockEnd
  0
BLOCK
  5
1AD16
330
1AD15
100
AcDbEntity
  8
0
100
AcDbBlockBegin
  2
*U33
 70
     1
 10
0.0
 20
0.0
 30
0.0
  3
*U33
  1

  0
TEXT
  5
1AD17
330
1AD15
100
AcDbEntity
  8
SUNPOU
100
AcDbText
 10
9523.50274627177
 20
10040.71536047324
 30
0.0
 40
90.0
  1
400
 41
0.6666666666666666
  7
00
100
AcDbText
  0
ENDBLK
  5
1AD18
330
1AD15
100
AcDbEntity
  8
0
100
AcDbBlockEnd
  0
BLOCK
  5
1AD1A
330
1AD19
100
AcDbEntity
  8
0
100
AcDbBlockBegin
  2
*U34
 70
     1
 10
0.0
 20
0.0
 30
0.0
  3
*U34
  1

  0
TEXT
  5
1AD1B
330
1AD19
100
AcDbEntity
  8
SUNPOU
100
AcDbText
 10
9322.074174843205
 20
8740.715360473251
 30
0.0
 40
90.0
  1
600
 41
0.6666666666666666
  7
00
100
AcDbText
  0
ENDBLK
  5
1AD1C
330
1AD19
100
AcDbEntity
  8
0
100
AcDbBlockEnd
  0
BLOCK
  5
1AD1E
330
1AD1D
100
AcDbEntity
  8
0
100
AcDbBlockBegin
  2
*U35
 70
     1
 10
0.0
 20
0.0
 30
0.0
  3
*U35
  1

  0
TEXT
  5
1AD1F
330
1AD1D
100
AcDbEntity
  8
SUNPOU
100
AcDbText
 10
8764.217031986062
 20
9208.572503330399
 30
0.0
 40
90.0
  1
600
 50
90.0
 41
0.6666666666666666
  7
00
100
AcDbText
  0
ENDBLK
  5
1AD20
330
1AD1D
100
AcDbEntity
  8
0
100
AcDbBlockEnd
  0
BLOCK
  5
1AD22
330
1AD21
100
AcDbEntity
  8
0
100
AcDbBlockBegin
  2
*U36
 70
     1
 10
0.0
 20
0.0
 30
0.0
  3
*U36
  1

  0
TEXT
  5
1AD23
330
1AD21
100
AcDbEntity
  8
SUNPOU
100
AcDbText
 10
8794.217031986056
 20
7410.001074758969
 30
0.0
 40
90.0
  1
800
 50
90.0
 41
0.6666666666666666
  7
00
100
AcDbText
  0
ENDBLK
  5
1AD24
330
1AD21
100
AcDbEntity
  8
0
100
AcDbBlockEnd
  0
BLOCK
  5
1AD26
330
1AD25
100
AcDbEntity
  8
0
100
AcDbBlockBegin
  2
*U37
 70
     1
 10
0.0
 20
0.0
 30
0.0
  3
*U37
  1

  0
TEXT
  5
1AD27
330
1AD25
100
AcDbEntity
  8
SUNPOU
100
AcDbText
 10
9323.502746271772
 20
8110.715360473252
 30
0.0
 40
90.0
  1
800
 41
0.6666666666666666
  7
00
100
AcDbText
  0
ENDBLK
  5
1AD28
330
1AD25
100
AcDbEntity
  8
0
100
AcDbBlockEnd
  0
BLOCK
  5
1AD2A
330
1AD29
100
AcDbEntity
  8
0
100
AcDbBlockBegin
  2
*U38
 70
     1
 10
0.0
 20
0.0
 30
0.0
  3
*U38
  1

  0
TEXT
  5
1AD2B
330
1AD29
100
AcDbEntity
  8
SUNPOU
100
AcDbText
 10
7405.76985579035
 20
2918.17055370532
 30
0.0
 40
90.0
  1
560
 50
90.0
 41
0.6666666666666666
  7
00
100
AcDbText
  0
ENDBLK
  5
1AD2C
330
1AD29
100
AcDbEntity
  8
0
100
AcDbBlockEnd
  0
BLOCK
  5
1AD2E
330
1AD2D
100
AcDbEntity
  8
0
100
AcDbBlockBegin
  2
*U39
 70
     1
 10
0.0
 20
0.0
 30
0.0
  3
*U39
  1

  0
TEXT
  5
1AD2F
330
1AD2D
100
AcDbEntity
  8
SUNPOU
100
AcDbText
 10
7615.76985579035
 20
2328.227696562461
 30
0.0
 40
90.0
  1
100
 50
90.0
 41
0.6666666666666666
  7
00
100
AcDbText
  0
ENDBLK
  5
1AD30
330
1AD2D
100
AcDbEntity
  8
0
100
AcDbBlockEnd
  0
BLOCK
  5
1AD32
330
1AD31
100
AcDbEntity
  8
0
100
AcDbBlockBegin
  2
*U40
 70
     1
 10
0.0
 20
0.0
 30
0.0
  3
*U40
  1

  0
TEXT
  5
1AD33
330
1AD31
100
AcDbEntity
  8
SUNPOU
100
AcDbText
 10
7615.76985579035
 20
2865.37055370532
 30
0.0
 40
90.0
  1
300
 50
90.0
 41
0.6666666666666666
  7
00
100
AcDbText
  0
ENDBLK
  5
1AD34
330
1AD31
100
AcDbEntity
  8
0
100
AcDbBlockEnd
  0
BLOCK
  5
1AD36
330
1AD35
100
AcDbEntity
  8
0
100
AcDbBlockBegin
  2
*U41
 70
     1
 10
0.0
 20
0.0
 30
0.0
  3
*U41
  1

  0
TEXT
  5
1AD37
330
1AD35
100
AcDbEntity
  8
SUNPOU
100
AcDbText
 10
7615.76985579035
 20
3508.113410848177
 30
0.0
 40
90.0
  1
80
 50
90.0
 41
0.6666666666666666
  7
00
100
AcDbText
  0
ENDBLK
  5
1AD38
330
1AD35
100
AcDbEntity
  8
0
100
AcDbBlockEnd
  0
BLOCK
  5
1AD3A
330
1AD39
100
AcDbEntity
  8
0
100
AcDbBlockBegin
  2
*U42
 70
     1
 10
0.0
 20
0.0
 30
0.0
  3
*U42
  1

  0
TEXT
  5
1AD3B
330
1AD39
100
AcDbEntity
  8
SUNPOU
100
AcDbText
 10
7615.76985579035
 20
3197.941982276748
 30
0.0
 40
90.0
  1
80
 50
90.0
 41
0.6666666666666666
  7
00
100
AcDbText
  0
ENDBLK
  5
1AD3C
330
1AD39
100
AcDbEntity
  8
0
100
AcDbBlockEnd
  0
BLOCK
  5
1AD3E
330
1AD3D
100
AcDbEntity
  8
0
100
AcDbBlockBegin
  2
*U43
 70
     1
 10
0.0
 20
0.0
 30
0.0
  3
*U43
  1

  0
TEXT
  5
1AD3F
330
1AD3D
100
AcDbEntity
  8
SUNPOU
100
AcDbText
 10
8461.551823219677
 20
1983.684839419604
 30
0.0
 40
90.0
  1
1000
 41
0.6666666666666666
  7
00
100
AcDbText
  0
ENDBLK
  5
1AD40
330
1AD3D
100
AcDbEntity
  8
0
100
AcDbBlockEnd
  0
BLOCK
  5
1AD42
330
1AD41
100
AcDbEntity
  8
0
100
AcDbBlockBegin
  2
*U44
 70
     1
 10
0.0
 20
0.0
 30
0.0
  3
*U44
  1

  0
TEXT
  5
1AD43
330
1AD41
100
AcDbEntity
  8
SUNPOU
100
AcDbText
 10
8494.408966076823
 20
2193.684839419605
 30
0.0
 40
90.0
  1
800
 41
0.6666666666666666
  7
00
100
AcDbText
  0
ENDBLK
  5
1AD44
330
1AD41
100
AcDbEntity
  8
0
100
AcDbBlockEnd
  0
ENDSEC
  0
SECTION
  2
ENTITIES
  0
TEXT
  5
1AD45
330
1AC64
100
AcDbEntity
  8
NAME
100
AcDbText
 10
12303.32857318295
 20
1055.0
 30
0.0
 40
120.0
  1
Y O K C
 41
0.6666666666666666
  7
00
100
AcDbText
  0
TEXT
  5
1AD46
330
1AC64
100
AcDbEntity
  8
NAME
100
AcDbText
 10
11227.73587134625
 20
1055.0
 30
0.0
 40
120.0
  1
ヨド自転車置場　　　  型
  7
01
100
AcDbText
  0
TEXT
  5
1AD47
330
1AC64
100
AcDbEntity
  8
NAME
100
AcDbText
 10
10824.07508082364
 20
875.0
 30
0.0
 40
120.0
  1
背合せタイプ（アンカープレート方式）
  7
01
 72
     4
 11
12072.07508082364
 21
935.0
 31
0.0
100
AcDbText
  0
TEXT
  5
1AD48
330
1AC64
100
AcDbEntity
  8
NAME
100
AcDbText
 10
12854.79999999999
 20
541.0000000000001
 30
0.0
 40
160.0
  1
<3／3>
 41
0.6
  7
01
 72
     2
 11
13354.0
 21
541.0000000000001
 31
0.0
100
AcDbText
  0
TEXT
  5
1AD49
330
1AC64
100
AcDbEntity
  8
NAME
100
AcDbText
 10
10896.04264730428
 20
541.0
 30
0.0
 40
160.0
  1
YOKC-245
 41
0.7
  7
01
 72
     2
 11
11776.04264730429
 21
541.0
 31
0.0
100
AcDbText
  0
TEXT
  5
1AD4A
330
1AC64
100
AcDbEntity
  8
NAME
100
AcDbText
 10
11816.04264730429
 20
541.0
 30
0.0
 40
160.0
  1
型（一般地用）
 41
0.8
  7
01
100
AcDbText
  0
LINE
  5
1AD4B
330
1AC64
100
AcDbEntity
  8
1PL-M1
100
AcDbLine
 10
4799.797051267463
 20
2428.172125878786
 30
0.0
 11
4799.797051267463
 21
4175.485411556191
 31
0.0
  0
LINE
  5
1AD4C
330
1AC64
100
AcDbEntity
  8
KISO
100
AcDbLine
 10
6082.193774006775
 20
3456.684839419605
 30
0.0
 11
4851.797051267459
 21
3456.684839419605
 31
0.0
  0
LINE
  5
1AD4D
330
1AC64
100
AcDbEntity
  8
KISO
100
AcDbLine
 10
6082.193774006776
 20
3319.084839419605
 30
0.0
 11
4319.797051267466
 21
3319.084839419603
 31
0.0
  0
LINE
  5
1AD4E
330
1AC64
100
AcDbEntity
  8
HATCH
100
AcDbLine
 10
5031.155511458886
 20
3456.684839419605
 30
0.0
 11
4893.555511458895
 21
3319.084839419605
 31
0.0
  0
LINE
  5
1AD4F
330
1AC64
100
AcDbEntity
  8
U3
100
AcDbLine
 10
3353.961658022964
 20
3376.684839419603
 30
0.0
 11
3521.961658022965
 21
3208.684839419607
 31
0.0
  0
LINE
  5
1AD50
330
1AC64
100
AcDbEntity
  8
U3
100
AcDbLine
 10
3303.049969777532
 20
3325.773151174173
 30
0.0
 11
3420.1382815321
 21
3208.684839419603
 31
0.0
  0
LINE
  5
1AD51
330
1AC64
100
AcDbEntity
  8
U3
100
AcDbLine
 10
3589.820095533321
 20
3376.684839419604
 30
0.0
 11
3017.961658022965
 21
3376.684839419604
 31
0.0
  0
LINE
  5
1AD52
330
1AC64
100
AcDbEntity
  8
U3
100
AcDbLine
 10
3084.1382815321
 20
3310.508215910466
 30
0.0
 11
3150.314905041233
 21
3376.684839419601
 31
0.0
  0
LINE
  5
1AD53
330
1AC64
100
AcDbEntity
  8
U3
100
AcDbLine
 10
3017.961658022965
 20
3376.684839419601
 30
0.0
 11
3185.961658022964
 21
3208.684839419606
 31
0.0
  0
LINE
  5
1AD54
330
1AC64
100
AcDbEntity
  8
U3
100
AcDbLine
 10
3135.049969777532
 20
3259.596527665037
 30
0.0
 11
3252.1382815321
 21
3376.684839419601
 31
0.0
  0
LINE
  5
1AD55
330
1AC64
100
AcDbEntity
  8
U3
100
AcDbLine
 10
3185.961658022964
 20
3208.684839419606
 30
0.0
 11
3353.961658022964
 21
3376.684839419603
 31
0.0
  0
LINE
  5
1AD56
330
1AC64
100
AcDbEntity
  8
U3
100
AcDbLine
 10
3252.1382815321
 20
3274.86146292874
 30
0.0
 11
3318.314905041237
 21
3208.684839419603
 31
0.0
  0
LINE
  5
1AD57
330
1AC64
100
AcDbEntity
  8
U3
100
AcDbLine
 10
3521.961658022965
 20
3208.684839419607
 30
0.0
 11
3589.820095533321
 21
3276.543276929964
 31
0.0
  0
LINE
  5
1AD58
330
1AC64
100
AcDbEntity
  8
U3
100
AcDbLine
 10
3420.1382815321
 20
3310.508215910469
 30
0.0
 11
3486.314905041234
 21
3376.684839419603
 31
0.0
  0
LINE
  5
1AD59
330
1AC64
100
AcDbEntity
  8
U3
100
AcDbLine
 10
3471.049969777533
 20
3259.596527665038
 30
0.0
 11
3588.138281532103
 21
3376.684839419603
 31
0.0
  0
LINE
  5
1AD5A
330
1AC64
100
AcDbEntity
  8
HASHIRA
100
AcDbLine
 10
4851.797051267459
 20
3328.684839419607
 30
0.0
 11
4851.797051267459
 21
3718.91804462035
 31
0.0
  0
LINE
  5
1AD5B
330
1AC64
100
AcDbEntity
  8
HASHIRA
100
AcDbLine
 10
4747.797051267458
 20
3718.91804462035
 30
0.0
 11
4747.797051267458
 21
3328.684839419607
 31
0.0
  0
LINE
  5
1AD5C
330
1AC64
100
AcDbEntity
  8
U3
100
AcDbLine
 10
4319.797051267463
 20
3376.684839419605
 30
0.0
 11
3909.820095533321
 21
3376.684839419603
 31
0.0
  0
LINE
  5
1AD5D
330
1AC64
100
AcDbEntity
  8
U3
100
AcDbLine
 10
4098.782873409589
 20
3310.508215910469
 30
0.0
 11
4159.797051267463
 21
3371.522393768344
 31
0.0
  0
LINE
  5
1AD5E
330
1AC64
100
AcDbEntity
  8
U3
100
AcDbLine
 10
4032.606249900456
 20
3376.684839419603
 30
0.0
 11
4159.797051267463
 21
3249.494038052592
 31
0.0
  0
LINE
  5
1AD5F
330
1AC64
100
AcDbEntity
  8
U3
100
AcDbLine
 10
3975.765342899848
 20
3331.702369929347
 30
0.0
 11
4098.782873409595
 21
3208.684839419603
 31
0.0
  0
LINE
  5
1AD60
330
1AC64
100
AcDbEntity
  8
KISO
100
AcDbLine
 10
4747.797051267458
 20
3456.684839419605
 30
0.0
 11
4319.797051267466
 21
3456.684839419605
 31
0.0
  0
LINE
  5
1AD61
330
1AC64
100
AcDbEntity
  8
HATCH
100
AcDbLine
 10
4831.314626963208
 20
3319.08483941961
 30
0.0
 11
4810.197051267466
 21
3297.967263723867
 31
0.0
  0
LINE
  5
1AD62
330
1AC64
100
AcDbEntity
  8
KISO
100
AcDbLine
 10
5279.797051267472
 20
3191.084839419601
 30
0.0
 11
6082.193774006776
 21
3191.084839419605
 31
0.0
  0
LINE
  5
1AD63
330
1AC64
100
AcDbEntity
  8
HATCH
100
AcDbLine
 10
6038.673087154623
 20
3456.684839419603
 30
0.0
 11
5901.073087154634
 21
3319.084839419605
 31
0.0
  0
LINE
  5
1AD64
330
1AC64
100
AcDbEntity
  8
HATCH
100
AcDbLine
 10
6086.190662850363
 20
3456.684839419603
 30
0.0
 11
5948.590662850365
 21
3319.084839419605
 31
0.0
  0
LINE
  5
1AD65
330
1AC64
100
AcDbEntity
  8
HATCH
100
AcDbLine
 10
5511.155511458887
 20
3456.684839419605
 30
0.0
 11
5373.555511458892
 21
3319.084839419605
 31
0.0
  0
LINE
  5
1AD66
330
1AC64
100
AcDbEntity
  8
HATCH
100
AcDbLine
 10
5558.673087154621
 20
3456.684839419603
 30
0.0
 11
5421.073087154634
 21
3319.084839419605
 31
0.0
  0
LINE
  5
1AD67
330
1AC64
100
AcDbEntity
  8
HATCH
100
AcDbLine
 10
5126.190662850362
 20
3456.684839419603
 30
0.0
 11
4988.590662850366
 21
3319.084839419605
 31
0.0
  0
LINE
  5
1AD68
330
1AC64
100
AcDbEntity
  8
HATCH
100
AcDbLine
 10
5078.673087154623
 20
3456.684839419603
 30
0.0
 11
4941.073087154634
 21
3319.084839419605
 31
0.0
  0
LINE
  5
1AD69
330
1AC64
100
AcDbEntity
  8
HATCH
100
AcDbLine
 10
5606.190662850362
 20
3456.684839419603
 30
0.0
 11
5468.590662850367
 21
3319.084839419605
 31
0.0
  0
LINE
  5
1AD6A
330
1AC64
100
AcDbEntity
  8
HATCH
100
AcDbLine
 10
5991.155511458885
 20
3456.684839419605
 30
0.0
 11
5853.555511458891
 21
3319.084839419605
 31
0.0
  0
LINE
  5
1AD6B
330
1AC64
100
AcDbEntity
  8
KISO
100
AcDbLine
 10
4319.797051267466
 20
3456.684839419605
 30
0.0
 11
4319.797051267466
 21
2711.084839419603
 31
0.0
  0
LINE
  5
1AD6C
330
1AC64
100
AcDbEntity
  8
KISO
100
AcDbLine
 10
5279.797051267466
 20
3319.084839419601
 30
0.0
 11
5279.797051267466
 21
2711.084839419603
 31
0.0
  0
LINE
  5
1AD6D
330
1AC64
100
AcDbEntity
  8
HATCH
100
AcDbLine
 10
5279.797051267466
 20
2903.567263723863
 30
0.0
 11
5087.314626963208
 21
2711.084839419605
 31
0.0
  0
LINE
  5
1AD6E
330
1AC64
100
AcDbEntity
  8
HATCH
100
AcDbLine
 10
5279.797051267466
 20
3288.049688028129
 30
0.0
 11
4702.832202658948
 21
2711.084839419605
 31
0.0
  0
LINE
  5
1AD6F
330
1AC64
100
AcDbEntity
  8
HATCH
100
AcDbLine
 10
5263.314626963204
 20
3319.084839419601
 30
0.0
 11
4810.197051267466
 21
2865.96726372386
 31
0.0
  0
LINE
  5
1AD70
330
1AC64
100
AcDbEntity
  8
HATCH
100
AcDbLine
 10
5215.797051267466
 20
3319.084839419601
 30
0.0
 11
4810.197051267466
 21
2913.484839419598
 31
0.0
  0
LINE
  5
1AD71
330
1AC64
100
AcDbEntity
  8
HATCH
100
AcDbLine
 10
5279.797051267466
 20
2856.049688028123
 30
0.0
 11
5134.832202658948
 21
2711.084839419605
 31
0.0
  0
LINE
  5
1AD72
330
1AC64
100
AcDbEntity
  8
HATCH
100
AcDbLine
 10
5279.797051267466
 20
2808.53211233239
 30
0.0
 11
5182.34977835468
 21
2711.084839419605
 31
0.0
  0
LINE
  5
1AD73
330
1AC64
100
AcDbEntity
  8
HATCH
100
AcDbLine
 10
4783.797051267482
 20
3319.08483941961
 30
0.0
 11
4319.797051267466
 21
2855.084839419594
 31
0.0
  0
LINE
  5
1AD74
330
1AC64
100
AcDbEntity
  8
HATCH
100
AcDbLine
 10
4736.279475571732
 20
3319.084839419604
 30
0.0
 11
4319.797051267466
 21
2902.602415115334
 31
0.0
  0
LINE
  5
1AD75
330
1AC64
100
AcDbEntity
  8
HATCH
100
AcDbLine
 10
4789.397051267463
 20
3277.167263723864
 30
0.0
 11
4319.797051267466
 21
2807.567263723863
 31
0.0
  0
LINE
  5
1AD76
330
1AC64
100
AcDbEntity
  8
HATCH
100
AcDbLine
 10
4351.797051267472
 20
3319.084839419603
 30
0.0
 11
4319.797051267466
 21
3287.084839419597
 31
0.0
  0
LINE
  5
1AD77
330
1AC64
100
AcDbEntity
  8
HATCH
100
AcDbLine
 10
4789.397051267463
 20
2892.684839419597
 30
0.0
 11
4766.19705126748
 21
2869.48483941961
 31
0.0
  0
LINE
  5
1AD78
330
1AC64
100
AcDbEntity
  8
HATCH
100
AcDbLine
 10
4745.397051267482
 20
2848.684839419609
 30
0.0
 11
4607.797051267477
 21
2711.084839419605
 31
0.0
  0
LINE
  5
1AD79
330
1AC64
100
AcDbEntity
  8
U3
100
AcDbLine
 10
3924.853654654415
 20
3280.790681683919
 30
0.0
 11
3996.959496918732
 21
3208.684839419603
 31
0.0
  0
LINE
  5
1AD7A
330
1AC64
100
AcDbEntity
  8
U3
100
AcDbLine
 10
3909.820095533321
 20
3265.757122562824
 30
0.0
 11
4020.747812390101
 21
3376.684839419601
 31
0.0
  0
LINE
  5
1AD7B
330
1AC64
100
AcDbEntity
  8
HATCH
100
AcDbLine
 10
4792.914626963221
 20
2848.684839419609
 30
0.0
 11
4655.314626963214
 21
2711.084839419605
 31
0.0
  0
LINE
  5
1AD7C
330
1AC64
100
AcDbEntity
  8
HATCH
100
AcDbLine
 10
4646.190662850361
 20
3456.684839419603
 30
0.0
 11
4508.590662850366
 21
3319.084839419605
 31
0.0
  0
LINE
  5
1AD7D
330
1AC64
100
AcDbEntity
  8
HATCH
100
AcDbLine
 10
4598.673087154621
 20
3456.684839419603
 30
0.0
 11
4461.073087154633
 21
3319.084839419605
 31
0.0
  0
LINE
  5
1AD7E
330
1AC64
100
AcDbEntity
  8
HATCH
100
AcDbLine
 10
4551.155511458886
 20
3456.684839419605
 30
0.0
 11
4413.555511458896
 21
3319.084839419605
 31
0.0
  0
LINE
  5
1AD7F
330
1AC64
100
AcDbEntity
  8
SUNPOU
100
AcDbLine
 10
4799.797051267463
 20
4130.485411556192
 30
0.0
 11
6225.027558517715
 21
4130.485411556192
 31
0.0
  0
TEXT
  5
1AD80
330
1AC64
100
AcDbEntity
  8
SUNPOU
100
AcDbText
 10
5585.624750407928
 20
4175.485411556191
 30
0.0
 40
90.0
  1
2450
 41
0.6666666666666666
  7
00
 72
     4
 11
5699.910464693643
 21
4220.485411556191
 31
0.0
100
AcDbText
  0
LINE
  5
1AD81
330
1AC64
100
AcDbEntity
  8
HATCH
100
AcDbLine
 10
4854.393513160306
 20
2551.084839419603
 30
0.0
 11
4946.769555826971
 21
2711.084839419603
 31
0.0
  0
LINE
  5
1AD82
330
1AC64
100
AcDbEntity
  8
HATCH
100
AcDbLine
 10
4893.436222493638
 20
2711.084839419603
 30
0.0
 11
4920.102889160304
 21
2664.89681675294
 31
0.0
  0
LINE
  5
1AD83
330
1AC64
100
AcDbEntity
  8
HATCH
100
AcDbLine
 10
4881.060179826974
 20
2597.272860752933
 30
0.0
 11
4907.726846493638
 21
2551.084839419603
 31
0.0
  0
LINE
  5
1AD84
330
1AC64
100
AcDbEntity
  8
HATCH
100
AcDbLine
 10
4681.060179826974
 20
2597.272860752933
 30
0.0
 11
4707.726846493637
 21
2551.084839419603
 31
0.0
  0
LINE
  5
1AD85
330
1AC64
100
AcDbEntity
  8
HATCH
100
AcDbLine
 10
4693.436222493637
 20
2711.084839419603
 30
0.0
 11
4720.102889160304
 21
2664.89681675294
 31
0.0
  0
LINE
  5
1AD86
330
1AC64
100
AcDbEntity
  8
HATCH
100
AcDbLine
 10
4481.060179826974
 20
2597.272860752933
 30
0.0
 11
4507.726846493638
 21
2551.084839419603
 31
0.0
  0
LINE
  5
1AD87
330
1AC64
100
AcDbEntity
  8
HATCH
100
AcDbLine
 10
4454.393513160304
 20
2551.084839419603
 30
0.0
 11
4546.769555826971
 21
2711.084839419603
 31
0.0
  0
LINE
  5
1AD88
330
1AC64
100
AcDbEntity
  8
HATCH
100
AcDbLine
 10
4493.436222493636
 20
2711.084839419603
 30
0.0
 11
4520.102889160304
 21
2664.89681675294
 31
0.0
  0
LINE
  5
1AD89
330
1AC64
100
AcDbEntity
  8
HATCH
100
AcDbLine
 10
4281.060179826972
 20
2597.272860752933
 30
0.0
 11
4307.726846493639
 21
2551.084839419603
 31
0.0
  0
LINE
  5
1AD8A
330
1AC64
100
AcDbEntity
  8
HATCH
100
AcDbLine
 10
4293.436222493638
 20
2711.084839419603
 30
0.0
 11
4320.102889160303
 21
2664.89681675294
 31
0.0
  0
LINE
  5
1AD8B
330
1AC64
100
AcDbEntity
  8
HATCH
100
AcDbLine
 10
4254.393513160304
 20
2551.084839419603
 30
0.0
 11
4346.769555826971
 21
2711.084839419603
 31
0.0
  0
LINE
  5
1AD8C
330
1AC64
100
AcDbEntity
  8
HATCH
100
AcDbLine
 10
4654.393513160306
 20
2551.084839419603
 30
0.0
 11
4746.769555826971
 21
2711.084839419603
 31
0.0
  0
LINE
  5
1AD8D
330
1AC64
100
AcDbEntity
  8
HATCH
100
AcDbLine
 10
5093.436222493638
 20
2711.084839419603
 30
0.0
 11
5120.102889160303
 21
2664.89681675294
 31
0.0
  0
LINE
  5
1AD8E
330
1AC64
100
AcDbEntity
  8
HATCH
100
AcDbLine
 10
5054.393513160306
 20
2551.084839419603
 30
0.0
 11
5146.769555826971
 21
2711.084839419603
 31
0.0
  0
LINE
  5
1AD8F
330
1AC64
100
AcDbEntity
  8
HATCH
100
AcDbLine
 10
5081.060179826973
 20
2597.272860752933
 30
0.0
 11
5107.72684649364
 21
2551.084839419603
 31
0.0
  0
TEXT
  5
1AD90
330
1AC64
100
AcDbEntity
  8
SUNPOU
100
AcDbText
 10
3070.061516132469
 20
3511.684839419604
 30
0.0
 40
90.0
  1
G.L
 41
0.6700000000000001
  7
01
 72
     4
 11
3141.847230418183
 21
3556.684839419605
 31
0.0
100
AcDbText
  0
LINE
  5
1AD91
330
1AC64
100
AcDbEntity
  8
SUNPOU
100
AcDbLine
 10
3193.80875464525
 20
3466.684839419605
 30
0.0
 11
3089.885706191117
 21
3466.684839419605
 31
0.0
  0
LINE
  5
1AD92
330
1AC64
100
AcDbEntity
  8
SUNPOU
100
AcDbLine
 10
3089.885706191117
 20
3466.684839419605
 30
0.0
 11
3141.847230418183
 21
3376.684839419604
 31
0.0
  0
LINE
  5
1AD93
330
1AC64
100
AcDbEntity
  8
SUNPOU
100
AcDbLine
 10
3141.847230418183
 20
3376.684839419604
 30
0.0
 11
3193.80875464525
 21
3466.684839419605
 31
0.0
  0
TEXT
  5
1AD94
330
1AC64
100
AcDbEntity
  8
HIKIDASHI
100
AcDbText
 10
4876.000654146238
 20
1664.635820576935
 30
0.0
 40
90.0
  1
断 面
  7
01
100
AcDbText
  0
LINE
  5
1AD95
330
1AC64
100
AcDbEntity
  8
HIKIDASHI
100
AcDbLine
 10
4451.983374649677
 20
1619.635820576936
 30
0.0
 11
5147.610727885247
 21
1619.635820576936
 31
0.0
  0
LINE
  5
1AD96
330
1AC64
100
AcDbEntity
  8
HIKIDASHI
100
AcDbLine
 10
4451.983374649677
 20
1589.635820576935
 30
0.0
 11
5147.610727885247
 21
1589.635820576935
 31
0.0
  0
TEXT
  5
1AD97
330
1AC64
100
AcDbEntity
  8
HIKIDASHI
100
AcDbText
 10
4481.983374649677
 20
1664.635820576935
 30
0.0
 40
90.0
  1
A  ~  A'
 41
0.6700000000000001
  7
00
100
AcDbText
  0
TEXT
  5
1AD98
330
1AC64
100
AcDbEntity
  8
HIKIDASHI
100
AcDbText
 10
5718.705531692625
 20
2949.11470702088
 30
0.0
 40
90.0
  1
敷砂利又は砕石
  7
01
 72
     2
 11
6450.705531692626
 21
2994.11470702088
 31
0.0
100
AcDbText
 73
     2
  0
LINE
  5
1AD99
330
1AC64
100
AcDbEntity
  8
HIKIDASHI
100
AcDbLine
 10
6475.935832338305
 20
2904.11470702088
 30
0.0
 11
5674.871662611158
 21
2904.11470702088
 31
0.0
  0
TEXT
  5
1AD9A
330
1AC64
100
AcDbEntity
  8
HIKIDASHI
100
AcDbText
 10
5683.40570439457
 20
2393.304238552882
 30
0.0
 40
90.0
  1
砕　石
  7
01
 72
     2
 11
5983.40570439457
 21
2438.304238552882
 31
0.0
100
AcDbText
 73
     2
  0
LINE
  5
1AD9B
330
1AC64
100
AcDbEntity
  8
HIKIDASHI
100
AcDbLine
 10
6025.104473630285
 20
2348.304238552882
 30
0.0
 11
5656.338096802658
 21
2348.304238552882
 31
0.0
  0
TEXT
  5
1AD9C
330
1AC64
100
AcDbEntity
  8
SUNPOU
100
AcDbText
 10
5597.491760556315
 20
2578.884705856377
 30
0.0
 40
90.0
  1
4-D13×4-D13
 41
0.6700000000000001
  7
01
 72
     4
 11
5940.914617699172
 21
2623.884705856377
 31
0.0
100
AcDbText
  0
TEXT
  5
1AD9D
330
1AC64
100
AcDbEntity
  8
SUNPOU
100
AcDbText
 10
5732.60747484203
 20
2713.884705856377
 30
0.0
 40
90.0
  1
ベース筋
  7
01
 72
     4
 11
5936.60747484203
 21
2758.884705856377
 31
0.0
100
AcDbText
  0
TEXT
  5
1AD9E
330
1AC64
100
AcDbEntity
  8
HIKIDASHI
100
AcDbText
 10
3323.84503516408
 20
1814.878869270348
 30
0.0
 40
89.55223880597014
  1
x
 41
0.6700000000000001
  7
00
100
AcDbText
  0
TEXT
  5
1AD9F
330
1AC64
100
AcDbEntity
  8
HIKIDASHI
100
AcDbText
 10
3252.010097973705
 20
1803.088394027934
 30
0.0
 40
67.16417910447761
  1
2
 41
0.6700000000000001
  7
00
100
AcDbText
  0
TEXT
  5
1ADA0
330
1AC64
100
AcDbEntity
  8
HIKIDASHI
100
AcDbText
 10
3164.118061414784
 20
1830.114449058496
 30
0.0
 40
67.16417910447761
  1
1
 41
0.6700000000000001
  7
00
100
AcDbText
  0
TEXT
  5
1ADA1
330
1AC64
100
AcDbEntity
  8
HIKIDASHI
100
AcDbText
 10
3089.517250731561
 20
1803.684839419601
 30
0.0
 40
89.55223880597014
  1
W ／
 41
0.6700000000000001
  7
00
100
AcDbText
  0
TEXT
  5
1ADA2
330
1AC64
100
AcDbEntity
  8
HIKIDASHI
100
AcDbText
 10
3404.980414317213
 20
1803.475853219509
 30
0.0
 40
89.55223880597014
  1
300
 41
0.6700000000000001
  7
00
100
AcDbText
  0
TEXT
  5
1ADA3
330
1AC64
100
AcDbEntity
  8
HIKIDASHI
100
AcDbText
 10
3089.517250731561
 20
1983.6848394196
 30
0.0
 40
90.0
  1
アンカーボルト
  7
01
100
AcDbText
  0
LINE
  5
1ADA4
330
1AC64
100
AcDbEntity
  8
HIKIDASHI
100
AcDbLine
 10
3060.437641869853
 20
1938.6848394196
 30
0.0
 11
3880.443655266704
 21
1938.6848394196
 31
0.0
  0
TEXT
  5
1ADA5
330
1AC64
100
AcDbEntity
  8
SUNPOU
100
AcDbText
 10
3895.003061330612
 20
4888.567723306049
 30
0.0
 40
46.28539285937498
  1
2
 41
0.6700000000000001
  7
00
100
AcDbText
  0
TEXT
  5
1ADA6
330
1AC64
100
AcDbEntity
  8
SUNPOU
100
AcDbText
 10
3590.538579299208
 20
4838.379296948563
 30
0.0
 40
89.9993750043402
  1
N/mm
 41
0.6700000000000001
  7
01
100
AcDbText
  0
TEXT
  5
1ADA7
330
1AC64
100
AcDbEntity
  8
SUNPOU
100
AcDbText
 10
3454.702126513256
 20
4838.379296948563
 30
0.0
 40
89.9993750043402
  1
18
 41
0.6700000000000001
  7
01
100
AcDbText
  0
LINE
  5
1ADA8
330
1AC64
100
AcDbEntity
  8
SUNPOU
100
AcDbLine
 10
2847.170463189169
 20
4684.093582662851
 30
0.0
 11
2847.170463189169
 21
4767.58594636163
 31
0.0
  0
LINE
  5
1ADA9
330
1AC64
100
AcDbEntity
  8
SUNPOU
100
AcDbLine
 10
2830.295463189169
 20
4684.093582662851
 30
0.0
 11
2830.295463189169
 21
4767.58594636163
 31
0.0
  0
LINE
  5
1ADAA
330
1AC64
100
AcDbEntity
  8
SUNPOU
100
AcDbLine
 10
2813.420463189169
 20
4684.093582662851
 30
0.0
 11
2813.420463189169
 21
4767.58594636163
 31
0.0
  0
LINE
  5
1ADAB
330
1AC64
100
AcDbEntity
  8
SUNPOU
100
AcDbLine
 10
2802.170463189169
 20
4684.093582662848
 30
0.0
 11
2858.420463189169
 21
4684.093582662848
 31
0.0
  0
LINE
  5
1ADAC
330
1AC64
100
AcDbEntity
  8
SUNPOU
100
AcDbLine
 10
2802.170463189169
 20
4767.58594636163
 30
0.0
 11
2858.420463189169
 21
4767.58594636163
 31
0.0
  0
ARC
  5
1ADAD
330
1AC64
100
AcDbEntity
  8
SUNPOU
100
AcDbCircle
 10
4064.753458781328
 20
4802.166720390395
 30
0.0
 40
225.0
100
AcDbArc
 50
328.3472725282801
 51
31.6527274717198
  0
TEXT
  5
1ADAE
330
1AC64
100
AcDbEntity
  8
SUNPOU
100
AcDbText
 10
1788.08991856198
 20
4888.567723306049
 30
0.0
 40
46.28539285937498
  1
2
 41
0.6700000000000001
  7
00
100
AcDbText
  0
TEXT
  5
1ADAF
330
1AC64
100
AcDbEntity
  8
SUNPOU
100
AcDbText
 10
1520.449761833597
 20
4838.379296948563
 30
0.0
 40
71.99950000347218
  1
K
 41
0.6700000000000001
  7
01
100
AcDbText
  0
TEXT
  5
1ADB0
330
1AC64
100
AcDbEntity
  8
SUNPOU
100
AcDbText
 10
1384.613309047643
 20
4838.379296948563
 30
0.0
 40
89.9993750043402
  1
50  N/m
 41
0.6700000000000001
  7
01
100
AcDbText
  0
ARC
  5
1ADB1
330
1AC64
100
AcDbEntity
  8
SUNPOU
100
AcDbCircle
 10
1163.313175529766
 20
4802.166720390395
 30
0.0
 40
225.0
100
AcDbArc
 50
148.3472725282801
 51
211.6527274717198
  0
TEXT
  5
1ADB2
330
1AC64
100
AcDbEntity
  8
SUNPOU
100
AcDbText
 10
1494.118330287729
 20
4684.093582662851
 30
0.0
 40
89.9993750043402
  1
34 m/s
 41
0.6700000000000001
  7
01
100
AcDbText
  0
TEXT
  5
1ADB3
330
1AC64
100
AcDbEntity
  8
SUNPOU
100
AcDbText
 10
1010.354901622561
 20
4684.093582662851
 30
0.0
 40
89.9993750043402
  1
基準風速   　　 , 地表面粗度区分
  7
01
100
AcDbText
  0
TEXT
  5
1ADB4
330
1AC64
100
AcDbEntity
  8
SUNPOU
100
AcDbText
 10
1010.354901622561
 20
4838.379296948563
 30
0.0
 40
89.9993750043402
  1
地耐力   　　　 以上,コンクリート設計基準強度　　　　　以上
  7
01
100
AcDbText
  0
TEXT
  5
1ADB5
330
1AC64
100
AcDbEntity
  8
SUNPOU
100
AcDbText
 10
1179.10490162256
 20
4150.522154091421
 30
0.0
 40
90.0
  1
2
 41
0.6700000000000001
  7
01
100
AcDbText
  0
TEXT
  5
1ADB6
330
1AC64
100
AcDbEntity
  8
SUNPOU
100
AcDbText
 10
1068.470981409818
 20
4150.522154091421
 30
0.0
 40
90.0
  1
注　）
  7
01
100
AcDbText
  0
TEXT
  5
1ADB7
330
1AC64
100
AcDbEntity
  8
SUNPOU
100
AcDbText
 10
1068.470981409818
 20
4459.093582662851
 30
0.0
 40
90.0
  1
注　）
  7
01
100
AcDbText
  0
TEXT
  5
1ADB8
330
1AC64
100
AcDbEntity
  8
SUNPOU
100
AcDbText
 10
1179.10490162256
 20
4459.093582662851
 30
0.0
 40
90.0
  1
1
 41
0.6700000000000001
  7
01
100
AcDbText
  0
TEXT
  5
1ADB9
330
1AC64
100
AcDbEntity
  8
SUNPOU
100
AcDbText
 10
1385.310646711954
 20
4304.807868377134
 30
0.0
 40
90.0
  1
あわせて設計して下さい。
  7
01
100
AcDbText
  0
TEXT
  5
1ADBA
330
1AC64
100
AcDbEntity
  8
SUNPOU
100
AcDbText
 10
1385.310646711954
 20
4150.522154091421
 30
0.0
 40
90.0
  1
その他現地の実情にあわせて設計して下さい。
  7
01
100
AcDbText
  0
TEXT
  5
1ADBB
330
1AC64
100
AcDbEntity
  8
SUNPOU
100
AcDbText
 10
1385.310646711954
 20
4459.093582662851
 30
0.0
 40
90.0
  1
寒冷地の場合、凍結深度等を考慮し、実情に
  7
01
100
AcDbText
  0
TEXT
  5
1ADBC
330
1AC64
100
AcDbEntity
  8
SUNPOU
100
AcDbText
 10
879.79127290633
 20
5027.633299394521
 30
0.0
 40
90.0
  1
<下記条件での参考図>
  7
01
 72
     4
 11
1468.648415763473
 21
5072.633299394521
 31
0.0
100
AcDbText
  0
TEXT
  5
1ADBD
330
1AC64
100
AcDbEntity
  8
SUNPOU
100
AcDbText
 10
2090.107582294899
 20
5194.979453240675
 30
0.0
 40
73.84615384615384
  1
/
 41
0.6700000000000001
  7
00
 11
2090.107582294899
 21
5185.133299394521
 31
0.0
100
AcDbText
 73
     1
  0
TEXT
  5
1ADBE
330
1AC64
100
AcDbEntity
  8
SUNPOU
100
AcDbText
 10
2154.057025249268
 20
5176.517914779135
 30
0.0
 40
73.84615384615384
  1
25
 41
0.6700000000000001
  7
00
 11
2154.057025249268
 21
5166.671760932981
 31
0.0
100
AcDbText
 73
     1
  0
TEXT
  5
1ADBF
330
1AC64
100
AcDbEntity
  8
SUNPOU
100
AcDbText
 10
2041.701454979528
 20
5213.440991702213
 30
0.0
 40
73.84615384615384
  1
1
 41
0.6700000000000001
  7
00
 11
2041.701454979528
 21
5203.594837856059
 31
0.0
100
AcDbText
 73
     1
  0
TEXT
  5
1ADC0
330
1AC64
100
AcDbEntity
  8
SUNPOU
100
AcDbText
 10
1721.998753126443
 20
5197.440991702213
 30
0.0
 40
92.30769230769228
  1
（ S = 　　  ）
 41
0.6700000000000001
  7
00
 11
1721.998753126443
 21
5185.133299394521
 31
0.0
100
AcDbText
 73
     1
  0
TEXT
  5
1ADC1
330
1AC64
100
AcDbEntity
  8
SUNPOU
100
AcDbText
 10
1005.148415763472
 20
5185.133299394521
 30
0.0
 40
120.0
  1
基礎断面図
  7
01
 72
     4
 11
1345.148415763472
 21
5245.13329939452
 31
0.0
100
AcDbText
  0
TEXT
  5
1ADC2
330
1AC64
100
AcDbEntity
  8
SUNPOU
100
AcDbText
 10
10750.05141017947
 20
1674.586261835072
 30
0.0
 40
120.0
  1
柱脚金具詳細図
  7
01
 72
     4
 11
11234.05141017947
 21
1734.586261835072
 31
0.0
100
AcDbText
  0
TEXT
  5
1ADC3
330
1AC64
100
AcDbEntity
  8
SUNPOU
100
AcDbText
 10
12146.16023934792
 20
1672.124723373534
 30
0.0
 40
73.84615384615384
  1
/
 41
0.6700000000000001
  7
00
 11
12146.16023934792
 21
1662.27856952738
 31
0.0
100
AcDbText
 73
     1
  0
TEXT
  5
1ADC4
330
1AC64
100
AcDbEntity
  8
SUNPOU
100
AcDbText
 10
12210.1096823023
 20
1653.663184911995
 30
0.0
 40
73.84615384615384
  1
10
 41
0.6700000000000001
  7
00
 11
12210.1096823023
 21
1643.817031065841
 31
0.0
100
AcDbText
 73
     1
  0
TEXT
  5
1ADC5
330
1AC64
100
AcDbEntity
  8
SUNPOU
100
AcDbText
 10
12097.75411203255
 20
1690.586261835072
 30
0.0
 40
73.84615384615384
  1
1
 41
0.6700000000000001
  7
00
 11
12097.75411203255
 21
1680.740107988918
 31
0.0
100
AcDbText
 73
     1
  0
TEXT
  5
1ADC6
330
1AC64
100
AcDbEntity
  8
SUNPOU
100
AcDbText
 10
11778.05141017947
 20
1674.586261835072
 30
0.0
 40
92.30769230769228
  1
（ S = 　　  ）
 41
0.6700000000000001
  7
00
 11
11778.05141017947
 21
1662.27856952738
 31
0.0
100
AcDbText
 73
     1
  0
LINE
  5
1ADC7
330
1AC64
100
AcDbEntity
  8
1PL-S1
100
AcDbLine
 10
11225.33837406209
 20
2700.144344053149
 30
0.0
 11
11857.33837406209
 21
2700.144344053149
 31
0.0
  0
LINE
  5
1ADC8
330
1AC64
100
AcDbEntity
  8
U1
100
AcDbLine
 10
11391.33837406209
 20
3642.337036584561
 30
0.0
 11
11391.33837406209
 21
4026.401575763828
 31
0.0
  0
LINE
  5
1ADC9
330
1AC64
100
AcDbEntity
  8
U1
100
AcDbLine
 10
11691.33837406209
 20
3642.337036584561
 30
0.0
 11
11691.33837406209
 21
4026.401575763828
 31
0.0
  0
LINE
  5
1ADCA
330
1AC64
100
AcDbEntity
  8
1PL-S1
100
AcDbLine
 10
11541.33837406209
 20
3578.337036584561
 30
0.0
 11
11541.33837406209
 21
4066.401575763828
 31
0.0
  0
CIRCLE
  5
1ADCB
330
1AC64
100
AcDbEntity
  8
U1
100
AcDbCircle
 10
11541.33837406209
 20
3886.33703658456
 30
0.0
 40
24.0
  0
LINE
  5
1ADCC
330
1AC64
100
AcDbEntity
  8
1PL-S1
100
AcDbLine
 10
11301.33837406209
 20
2624.144344053149
 30
0.0
 11
11301.33837406209
 21
2776.144344053149
 31
0.0
  0
LINE
  5
1ADCD
330
1AC64
100
AcDbEntity
  8
1PL-S1
100
AcDbLine
 10
11781.33837406209
 20
2624.144344053149
 30
0.0
 11
11781.33837406209
 21
2776.144344053149
 31
0.0
  0
LINE
  5
1ADCE
330
1AC64
100
AcDbEntity
  8
1PL-S1
100
AcDbLine
 10
11541.33837406209
 20
2500.144344053149
 30
0.0
 11
11541.33837406209
 21
2900.144344053149
 31
0.0
  0
CIRCLE
  5
1ADCF
330
1AC64
100
AcDbEntity
  8
U1
100
AcDbCircle
 10
11301.33837406209
 20
2700.144344053149
 30
0.0
 40
36.0
  0
LINE
  5
1ADD0
330
1AC64
100
AcDbEntity
  8
U1
100
AcDbLine
 10
11691.33837406209
 20
2700.144344053149
 30
0.0
 11
11612.31129530375
 21
2700.144344053149
 31
0.0
  0
CIRCLE
  5
1ADD1
330
1AC64
100
AcDbEntity
  8
U1
100
AcDbCircle
 10
11781.33837406209
 20
2700.144344053149
 30
0.0
 40
36.0
  0
LINE
  5
1ADD2
330
1AC64
100
AcDbEntity
  8
1PL-S1
100
AcDbLine
 10
11477.33837406209
 20
3726.33703658456
 30
0.0
 11
11605.33837406209
 21
3726.33703658456
 31
0.0
  0
LINE
  5
1ADD3
330
1AC64
100
AcDbEntity
  8
1PL-S1
100
AcDbLine
 10
11301.33837406209
 20
3578.337036584561
 30
0.0
 11
11301.33837406209
 21
3682.337036584561
 31
0.0
  0
LINE
  5
1ADD4
330
1AC64
100
AcDbEntity
  8
1PL-S1
100
AcDbLine
 10
11781.33837406209
 20
3578.337036584561
 30
0.0
 11
11781.33837406209
 21
3682.337036584561
 31
0.0
  0
CIRCLE
  5
1ADD5
330
1AC64
100
AcDbEntity
  8
U1
100
AcDbCircle
 10
11541.33837406209
 20
3726.33703658456
 30
0.0
 40
24.0
  0
LINE
  5
1ADD6
330
1AC64
100
AcDbEntity
  8
1PL-S1
100
AcDbLine
 10
11477.33837406209
 20
3886.33703658456
 30
0.0
 11
11605.33837406209
 21
3886.33703658456
 31
0.0
  0
LINE
  5
1ADD7
330
1AC64
100
AcDbEntity
  8
HIKIDASHI
100
AcDbLine
 10
12256.64239875644
 20
2245.804976716085
 30
0.0
 11
12840.68319432041
 21
2245.804976716085
 31
0.0
  0
TEXT
  5
1ADD8
330
1AC64
100
AcDbEntity
  8
HIKIDASHI
100
AcDbText
 10
12288.10785773423
 20
2290.804976716086
 30
0.0
 40
90.0
  1
2
 41
0.6666666666666666
  7
00
 72
     2
 11
12336.67928630566
 21
2290.804976716086
 31
0.0
100
AcDbText
  0
TEXT
  5
1ADD9
330
1AC64
100
AcDbEntity
  8
HIKIDASHI
100
AcDbText
 10
12504.27139056829
 20
2290.804976716086
 30
0.0
 40
90.0
  1
18
 41
0.6666666666666666
  7
00
 72
     2
 11
12609.98567628258
 21
2290.804976716086
 31
0.0
100
AcDbText
  0
TEXT
  5
1ADDA
330
1AC64
100
AcDbEntity
  8
HIKIDASHI
100
AcDbText
 10
12439.02627454892
 20
2291.08896132193
 30
0.0
 40
89.99999909999997
  1
-
 41
0.6700000000000001
  7
00
100
AcDbText
  0
TEXT
  5
1ADDB
330
1AC64
100
AcDbEntity
  8
HIKIDASHI
100
AcDbText
 10
12364.48805587138
 20
2310.804976716088
 30
0.0
 40
89.99999909999997
  1
ヶ
  7
01
100
AcDbText
  0
TEXT
  5
1ADDC
330
1AC64
100
AcDbEntity
  8
HIKIDASHI
100
AcDbText
 10
12655.41042037726
 20
2304.79072515205
 30
0.0
 40
89.99999909999997
  1
%%c 
 41
0.6700000000000001
  7
00
100
AcDbText
  0
TEXT
  5
1ADDD
330
1AC64
100
AcDbEntity
  8
HIKIDASHI
100
AcDbText
 10
12733.90408052569
 20
2290.804976716086
 30
0.0
 40
90.0
  1
孔
  7
01
 72
     2
 11
12817.90408052569
 21
2290.804976716086
 31
0.0
100
AcDbText
  0
LINE
  5
1ADDE
330
1AC64
100
AcDbEntity
  8
HIKIDASHI
100
AcDbLine
 10
12073.23363223807
 20
3067.661600164834
 30
0.0
 11
12657.27442780204
 21
3067.661600164834
 31
0.0
  0
TEXT
  5
1ADDF
330
1AC64
100
AcDbEntity
  8
HIKIDASHI
100
AcDbText
 10
12092.5236300348
 20
3112.661600164834
 30
0.0
 40
90.0
  1
プレ－ト
  7
01
 72
     2
 11
12482.5236300348
 21
3112.661600164834
 31
0.0
100
AcDbText
  0
TEXT
  5
1ADE0
330
1AC64
100
AcDbEntity
  8
HIKIDASHI
100
AcDbText
 10
12520.97881071722
 20
3112.661600164834
 30
0.0
 40
90.0
  1
6
 41
0.6666666666666666
  7
00
 72
     2
 11
12569.55023928865
 21
3112.661600164834
 31
0.0
100
AcDbText
  0
TEXT
  5
1ADE1
330
1AC64
100
AcDbEntity
  8
HIKIDASHI
100
AcDbText
 10
12606.97646118922
 20
3126.647348600799
 30
0.0
 40
89.99999909999997
  1
t
 41
0.6700000000000001
  7
00
100
AcDbText
  0
LINE
  5
1ADE2
330
1AC64
100
AcDbEntity
  8
HATCH
100
AcDbLine
 10
5293.436222493638
 20
2711.084839419603
 30
0.0
 11
5320.102889160303
 21
2664.89681675294
 31
0.0
  0
LINE
  5
1ADE3
330
1AC64
100
AcDbEntity
  8
HATCH
100
AcDbLine
 10
5254.393513160305
 20
2551.084839419603
 30
0.0
 11
5346.769555826971
 21
2711.084839419603
 31
0.0
  0
LINE
  5
1ADE4
330
1AC64
100
AcDbEntity
  8
HATCH
100
AcDbLine
 10
5281.060179826972
 20
2597.272860752933
 30
0.0
 11
5307.726846493641
 21
2551.084839419603
 31
0.0
  0
LINE
  5
1ADE5
330
1AC64
100
AcDbEntity
  8
CENTER
  6
1PL-M
100
AcDbLine
 10
6489.217031986058
 20
7495.715360473255
 30
0.0
 11
8674.217031986056
 21
7495.715360473255
 31
0.0
  0
LINE
  5
1ADE6
330
1AC64
100
AcDbEntity
  8
CENTER
  6
1PL-M
100
AcDbLine
 10
6489.217031986058
 20
9295.715360473252
 30
0.0
 11
8644.217031986062
 21
9295.715360473252
 31
0.0
  0
LINE
  5
1ADE7
330
1AC64
100
AcDbEntity
  8
CENTER
  6
1PL-M
100
AcDbLine
 10
6489.217031986058
 20
5695.715360473253
 30
0.0
 11
10254.21703198605
 21
5695.715360473253
 31
0.0
  0
LINE
  5
1ADE8
330
1AC64
100
AcDbEntity
  8
CENTER
  6
1PL-M
100
AcDbLine
 10
6959.217031986058
 20
5295.715360473253
 30
0.0
 11
6959.217031986058
 21
9695.715360473252
 31
0.0
  0
LINE
  5
1ADE9
330
1AC64
100
AcDbEntity
  8
CENTER
  6
1PL-M
100
AcDbLine
 10
9409.217031986059
 20
5295.715360473253
 30
0.0
 11
9409.217031986059
 21
8080.715360473254
 31
0.0
  0
CIRCLE
  5
1ADEA
330
1AC64
100
AcDbEntity
  8
HASHIRA
100
AcDbCircle
 10
6959.217031986058
 20
5635.715360473253
 30
0.0
 40
9.0
  0
CIRCLE
  5
1ADEB
330
1AC64
100
AcDbEntity
  8
HASHIRA
100
AcDbCircle
 10
6959.217031986058
 20
5755.715360473253
 30
0.0
 40
9.0
  0
CIRCLE
  5
1ADEC
330
1AC64
100
AcDbEntity
  8
HASHIRA
100
AcDbCircle
 10
6959.217031986058
 20
7435.715360473253
 30
0.0
 40
9.0
  0
CIRCLE
  5
1ADED
330
1AC64
100
AcDbEntity
  8
HASHIRA
100
AcDbCircle
 10
6959.217031986058
 20
7555.715360473254
 30
0.0
 40
9.0
  0
CIRCLE
  5
1ADEE
330
1AC64
100
AcDbEntity
  8
HASHIRA
100
AcDbCircle
 10
6959.217031986058
 20
9235.715360473252
 30
0.0
 40
9.0
  0
CIRCLE
  5
1ADEF
330
1AC64
100
AcDbEntity
  8
HASHIRA
100
AcDbCircle
 10
6959.217031986058
 20
9355.715360473253
 30
0.0
 40
9.0
  0
CIRCLE
  5
1ADF0
330
1AC64
100
AcDbEntity
  8
HASHIRA
100
AcDbCircle
 10
9409.217031986059
 20
5635.715360473253
 30
0.0
 40
9.0
  0
CIRCLE
  5
1ADF1
330
1AC64
100
AcDbEntity
  8
HASHIRA
100
AcDbCircle
 10
9409.217031986059
 20
5755.715360473253
 30
0.0
 40
9.0
  0
CIRCLE
  5
1ADF2
330
1AC64
100
AcDbEntity
  8
HASHIRA
100
AcDbCircle
 10
9409.217031986059
 20
7435.715360473253
 30
0.0
 40
9.0
  0
CIRCLE
  5
1ADF3
330
1AC64
100
AcDbEntity
  8
HASHIRA
100
AcDbCircle
 10
9409.217031986059
 20
7555.715360473254
 30
0.0
 40
9.0
  0
CIRCLE
  5
1ADF4
330
1AC64
100
AcDbEntity
  8
HASHIRA
100
AcDbCircle
 10
9409.217031986059
 20
9235.715360473252
 30
0.0
 40
9.0
  0
CIRCLE
  5
1ADF5
330
1AC64
100
AcDbEntity
  8
HASHIRA
100
AcDbCircle
 10
9409.217031986059
 20
9355.715360473253
 30
0.0
 40
9.0
  0
TEXT
  5
1ADF6
330
1AC64
100
AcDbEntity
  8
HIKIDASHI
100
AcDbText
 10
7624.264373012015
 20
9740.715360473252
 30
0.0
 40
90.0
  1
（鼻隠し外面）
  7
01
100
AcDbText
  0
TEXT
  5
1ADF7
330
1AC64
100
AcDbEntity
  8
HIKIDASHI
100
AcDbText
 10
7540.155771095992
 20
9455.715360473243
 30
0.0
 40
90.0
  1
（土間コン後面位置）
  7
01
100
AcDbText
  0
SOLID
  5
1ADF8
330
1AC64
100
AcDbEntity
  8
SUNPOU
100
AcDbTrace
 10
6324.471366614858
 20
5905.715360473253
 30
0.0
 11
6354.471366614858
 21
5905.715360473253
 31
0.0
 12
6339.471366614858
 22
5995.715360473253
 32
0.0
 13
6339.471366614858
 23
5995.715360473253
 33
0.0
  0
TEXT
  5
1ADF9
330
1AC64
100
AcDbEntity
  8
SUNPOU
100
AcDbText
 10
6313.628509471998
 20
6040.715360473253
 30
0.0
 40
90.0
  1
A
 41
0.6700000000000001
  7
00
 72
     4
 11
6339.471366614855
 21
6085.715360473253
 31
0.0
100
AcDbText
  0
LINE
  5
1ADFA
330
1AC64
100
AcDbEntity
  8
SUNPOU
100
AcDbLine
 10
6339.471366614858
 20
5905.715360473253
 30
0.0
 11
6339.471366614858
 21
5695.715360473253
 31
0.0
  0
LINE
  5
1ADFB
330
1AC64
100
AcDbEntity
  8
SUNPOU
100
AcDbLine
 10
6339.471366614858
 20
5695.715360473253
 30
0.0
 11
6489.471366614859
 21
5695.715360473253
 31
0.0
  0
LINE
  5
1ADFC
330
1AC64
100
AcDbEntity
  8
SUNPOU
100
AcDbLine
 10
7444.630294679763
 20
5695.715360473253
 30
0.0
 11
7294.630294679757
 21
5695.715360473253
 31
0.0
  0
LINE
  5
1ADFD
330
1AC64
100
AcDbEntity
  8
SUNPOU
100
AcDbLine
 10
7444.630294679763
 20
5905.715360473253
 30
0.0
 11
7444.630294679763
 21
5695.715360473253
 31
0.0
  0
TEXT
  5
1ADFE
330
1AC64
100
AcDbEntity
  8
SUNPOU
100
AcDbText
 10
7408.737437536905
 20
6032.143931901824
 30
0.0
 40
90.0
  1
A'
 41
0.6700000000000001
  7
00
 72
     4
 11
7444.630294679763
 21
6085.715360473253
 31
0.0
100
AcDbText
  0
SOLID
  5
1ADFF
330
1AC64
100
AcDbEntity
  8
SUNPOU
100
AcDbTrace
 10
7459.630294679762
 20
5905.715360473253
 30
0.0
 11
7429.630294679758
 21
5905.715360473253
 31
0.0
 12
7444.630294679763
 22
5995.715360473253
 32
0.0
 13
7444.630294679763
 23
5995.715360473253
 33
0.0
  0
TEXT
  5
1AE00
330
1AC64
100
AcDbEntity
  8
HIKIDASHI
100
AcDbText
 10
7624.264373012015
 20
5160.715360473255
 30
0.0
 40
90.0
  1
（鼻隠し外面）
  7
01
100
AcDbText
  0
TEXT
  5
1AE01
330
1AC64
100
AcDbEntity
  8
HIKIDASHI
100
AcDbText
 10
7540.155771095992
 20
5445.71536047326
 30
0.0
 40
90.0
  1
（土間コン前面位置）
  7
01
100
AcDbText
  0
LINE
  5
1AE02
330
1AC64
100
AcDbEntity
  8
KISO
100
AcDbLine
 10
6559.217031986058
 20
9595.715360473253
 30
0.0
 11
9809.21703198606
 21
9595.715360473253
 31
0.0
  0
LINE
  5
1AE03
330
1AC64
100
AcDbEntity
  8
KISO
100
AcDbLine
 10
9809.21703198606
 20
9595.715360473253
 30
0.0
 11
9809.21703198606
 21
5395.715360473253
 31
0.0
  0
LINE
  5
1AE04
330
1AC64
100
AcDbEntity
  8
KISO
100
AcDbLine
 10
9809.21703198606
 20
5395.715360473253
 30
0.0
 11
6559.217031986058
 21
5395.715360473253
 31
0.0
  0
LINE
  5
1AE05
330
1AC64
100
AcDbEntity
  8
KISO
100
AcDbLine
 10
6559.217031986058
 20
5395.715360473253
 30
0.0
 11
6559.217031986058
 21
9595.715360473253
 31
0.0
  0
LINE
  5
1AE06
330
1AC64
100
AcDbEntity
  8
CENTER
  6
1PL-M
100
AcDbLine
 10
8794.217031986063
 20
9295.715360473252
 30
0.0
 11
10254.21703198605
 21
9295.715360473252
 31
0.0
  0
LINE
  5
1AE07
330
1AC64
100
AcDbEntity
  8
CENTER
  6
1PL-M
100
AcDbLine
 10
9409.217031986059
 20
8860.71536047325
 30
0.0
 11
9409.217031986059
 21
9695.715360473252
 31
0.0
  0
LINE
  5
1AE08
330
1AC64
100
AcDbEntity
  8
CENTER
  6
1PL-M
100
AcDbLine
 10
8824.217031986057
 20
7495.715360473255
 30
0.0
 11
10254.21703198605
 21
7495.715360473251
 31
0.0
  0
LINE
  5
1AE09
330
1AC64
100
AcDbEntity
  8
CENTER
  6
1PL-M
100
AcDbLine
 10
9409.217031986059
 20
8230.715360473253
 30
0.0
 11
9409.217031986059
 21
8710.715360473249
 31
0.0
  0
TEXT
  5
1AE0A
330
1AC64
100
AcDbEntity
  8
HIKIDASHI
100
AcDbText
 10
8772.515803529449
 20
4879.531802304223
 30
0.0
 40
80.0
  1
)
 41
0.6700000000000001
  7
00
100
AcDbText
  0
TEXT
  5
1AE0B
330
1AC64
100
AcDbEntity
  8
HIKIDASHI
100
AcDbText
 10
8571.657054840066
 20
4895.09328005242
 30
0.0
 40
80.0
  1
1
 41
0.6700000000000001
  7
00
100
AcDbText
  0
TEXT
  5
1AE0C
330
1AC64
100
AcDbEntity
  8
HIKIDASHI
100
AcDbText
 10
8604.794192704373
 20
4879.531802304223
 30
0.0
 40
80.0
  1
/
 41
0.6700000000000001
  7
00
100
AcDbText
  0
TEXT
  5
1AE0D
330
1AC64
100
AcDbEntity
  8
HIKIDASHI
100
AcDbText
 10
8651.089347467019
 20
4853.363971103946
 30
0.0
 40
80.0
  1
40
 41
0.6700000000000001
  7
00
100
AcDbText
  0
TEXT
  5
1AE0E
330
1AC64
100
AcDbEntity
  8
HIKIDASHI
100
AcDbText
 10
8390.949138902394
 20
4879.531802304223
 30
0.0
 40
80.0
  1
(S=
 41
0.6700000000000001
  7
00
100
AcDbText
  0
TEXT
  5
1AE0F
330
1AC64
100
AcDbEntity
  8
HIKIDASHI
100
AcDbText
 10
7548.949138902393
 20
4855.715360473254
 30
0.0
 40
120.0
  1
基 礎 伏 図
  7
01
 72
     2
 11
8300.949138902394
 21
4855.715360473254
 31
0.0
100
AcDbText
  0
CIRCLE
  5
1AE10
330
1AC64
100
AcDbEntity
  8
BOLT
100
AcDbCircle
 10
8580.123251791111
 20
3426.2848394196
 30
0.0
 40
13.2
  0
CIRCLE
  5
1AE11
330
1AC64
100
AcDbEntity
  8
BOLT
100
AcDbCircle
 10
8580.123251791111
 20
3426.2848394196
 30
0.0
 40
16.8
  0
CIRCLE
  5
1AE12
330
1AC64
100
AcDbEntity
  8
BOLT
100
AcDbCircle
 10
8580.123251791111
 20
3362.2848394196
 30
0.0
 40
16.8
  0
CIRCLE
  5
1AE13
330
1AC64
100
AcDbEntity
  8
BOLT
100
AcDbCircle
 10
8580.123251791111
 20
3362.2848394196
 30
0.0
 40
13.2
  0
LINE
  5
1AE14
330
1AC64
100
AcDbEntity
  8
KISO
100
AcDbLine
 10
9862.519974530416
 20
3456.684839419605
 30
0.0
 11
8632.123251791107
 21
3456.684839419605
 31
0.0
  0
LINE
  5
1AE15
330
1AC64
100
AcDbEntity
  8
KISO
100
AcDbLine
 10
7297.726529051804
 20
3191.0848394196
 30
0.0
 11
7940.12325179111
 21
3191.0848394196
 31
0.0
  0
LINE
  5
1AE16
330
1AC64
100
AcDbEntity
  8
KISO
100
AcDbLine
 10
9220.123251791108
 20
3191.084839419601
 30
0.0
 11
9862.519974530416
 21
3191.084839419603
 31
0.0
  0
LINE
  5
1AE17
330
1AC64
100
AcDbEntity
  8
KISO
100
AcDbLine
 10
8528.123251791111
 20
3456.684839419605
 30
0.0
 11
7297.726529051804
 21
3456.684839419605
 31
0.0
  0
LINE
  5
1AE18
330
1AC64
100
AcDbEntity
  8
HASHIRA
100
AcDbLine
 10
8632.123251791107
 20
3333.484839419603
 30
0.0
 11
8632.123251791101
 21
3583.485411556191
 31
0.0
  0
LINE
  5
1AE19
330
1AC64
100
AcDbEntity
  8
HASHIRA
100
AcDbLine
 10
8528.123251791111
 20
3583.485411556191
 30
0.0
 11
8528.123251791111
 21
3333.484839419603
 31
0.0
  0
LINE
  5
1AE1A
330
1AC64
100
AcDbEntity
  8
HATCH
100
AcDbLine
 10
8331.481711982535
 20
3456.684839419605
 30
0.0
 11
8193.881711982536
 21
3319.084839419603
 31
0.0
  0
LINE
  5
1AE1B
330
1AC64
100
AcDbEntity
  8
HATCH
100
AcDbLine
 10
8426.516863374008
 20
3456.684839419605
 30
0.0
 11
8288.916863374007
 21
3319.084839419603
 31
0.0
  0
LINE
  5
1AE1C
330
1AC64
100
AcDbEntity
  8
HATCH
100
AcDbLine
 10
8378.999287678274
 20
3456.684839419605
 30
0.0
 11
8241.399287678278
 21
3319.084839419603
 31
0.0
  0
LINE
  5
1AE1D
330
1AC64
100
AcDbEntity
  8
1PL-S1
100
AcDbLine
 10
8468.12325179111
 20
3309.484839419603
 30
0.0
 11
8468.12325179111
 21
3338.284839419605
 31
0.0
  0
LINE
  5
1AE1E
330
1AC64
100
AcDbEntity
  8
HATCH
100
AcDbLine
 10
8811.481711982535
 20
3456.684839419605
 30
0.0
 11
8673.881711982531
 21
3319.084839419603
 31
0.0
  0
LINE
  5
1AE1F
330
1AC64
100
AcDbEntity
  8
HATCH
100
AcDbLine
 10
8858.999287678274
 20
3456.684839419605
 30
0.0
 11
8721.399287678272
 21
3319.084839419603
 31
0.0
  0
LINE
  5
1AE20
330
1AC64
100
AcDbEntity
  8
1PL-S1
100
AcDbLine
 10
8692.123251791107
 20
3309.484839419599
 30
0.0
 11
8692.123251791107
 21
3338.284839419598
 31
0.0
  0
LINE
  5
1AE21
330
1AC64
100
AcDbEntity
  8
HATCH
100
AcDbLine
 10
8906.516863374006
 20
3456.684839419605
 30
0.0
 11
8768.916863374007
 21
3319.084839419603
 31
0.0
  0
LINE
  5
1AE22
330
1AC64
100
AcDbEntity
  8
HATCH
100
AcDbLine
 10
9291.481711982534
 20
3456.684839419605
 30
0.0
 11
9153.881711982533
 21
3319.084839419603
 31
0.0
  0
LINE
  5
1AE23
330
1AC64
100
AcDbEntity
  8
HATCH
100
AcDbLine
 10
9338.999287678275
 20
3456.684839419605
 30
0.0
 11
9201.399287678272
 21
3319.084839419603
 31
0.0
  0
LINE
  5
1AE24
330
1AC64
100
AcDbEntity
  8
HATCH
100
AcDbLine
 10
9386.516863374007
 20
3456.684839419605
 30
0.0
 11
9248.916863374004
 21
3319.084839419603
 31
0.0
  0
LINE
  5
1AE25
330
1AC64
100
AcDbEntity
  8
HATCH
100
AcDbLine
 10
9866.516863374007
 20
3456.684839419605
 30
0.0
 11
9728.916863374005
 21
3319.084839419603
 31
0.0
  0
LINE
  5
1AE26
330
1AC64
100
AcDbEntity
  8
HATCH
100
AcDbLine
 10
9818.999287678275
 20
3456.684839419605
 30
0.0
 11
9681.399287678276
 21
3319.084839419603
 31
0.0
  0
LINE
  5
1AE27
330
1AC64
100
AcDbEntity
  8
HATCH
100
AcDbLine
 10
9771.481711982536
 20
3456.684839419605
 30
0.0
 11
9633.881711982532
 21
3319.084839419603
 31
0.0
  0
LINE
  5
1AE28
330
1AC64
100
AcDbEntity
  8
KISO
100
AcDbLine
 10
9862.519974530416
 20
3319.084839419603
 30
0.0
 11
7297.726529051804
 21
3319.084839419603
 31
0.0
  0
LINE
  5
1AE29
330
1AC64
100
AcDbEntity
  8
HATCH
100
AcDbLine
 10
9220.123251791108
 20
3285.236002075317
 30
0.0
 11
9239.665887143591
 21
3319.084839419603
 31
0.0
  0
LINE
  5
1AE2A
330
1AC64
100
AcDbEntity
  8
HATCH
100
AcDbLine
 10
9220.123251791108
 20
3073.167263723867
 30
0.0
 11
8858.040827486851
 21
2711.084839419607
 31
0.0
  0
LINE
  5
1AE2B
330
1AC64
100
AcDbEntity
  8
HATCH
100
AcDbLine
 10
9220.123251791108
 20
3025.64968802813
 30
0.0
 11
8905.558403182586
 21
2711.084839419607
 31
0.0
  0
LINE
  5
1AE2C
330
1AC64
100
AcDbEntity
  8
HATCH
100
AcDbLine
 10
9220.123251791108
 20
2978.132112332395
 30
0.0
 11
8953.075978878327
 21
2711.084839419608
 31
0.0
  0
LINE
  5
1AE2D
330
1AC64
100
AcDbEntity
  8
HATCH
100
AcDbLine
 10
9034.040827486844
 20
3319.084839419603
 30
0.0
 11
8702.523251791111
 21
2987.567263723864
 31
0.0
  0
LINE
  5
1AE2E
330
1AC64
100
AcDbEntity
  8
HATCH
100
AcDbLine
 10
9081.558403182574
 20
3319.084839419603
 30
0.0
 11
8702.523251791111
 21
2940.049688028133
 31
0.0
  0
LINE
  5
1AE2F
330
1AC64
100
AcDbEntity
  8
HATCH
100
AcDbLine
 10
8986.523251791107
 20
3319.084839419601
 30
0.0
 11
8702.523251791111
 21
3035.084839419601
 31
0.0
  0
LINE
  5
1AE30
330
1AC64
100
AcDbEntity
  8
KISO
100
AcDbLine
 10
9220.123251791108
 20
3319.084839419605
 30
0.0
 11
9220.123251791108
 21
2711.084839419607
 31
0.0
  0
LINE
  5
1AE31
330
1AC64
100
AcDbEntity
  8
KISO
100
AcDbLine
 10
7940.12325179111
 20
3319.084839419605
 30
0.0
 11
7940.12325179111
 21
2711.084839419607
 31
0.0
  0
LINE
  5
1AE32
330
1AC64
100
AcDbEntity
  8
HATCH
100
AcDbLine
 10
8122.523251791113
 20
3319.084839419603
 30
0.0
 11
7940.12325179111
 21
3136.684839419602
 31
0.0
  0
LINE
  5
1AE33
330
1AC64
100
AcDbEntity
  8
HATCH
100
AcDbLine
 10
8070.205676095381
 20
3314.284839419603
 30
0.0
 11
7940.12325179111
 21
3184.202415115334
 31
0.0
  0
LINE
  5
1AE34
330
1AC64
100
AcDbEntity
  8
HATCH
100
AcDbLine
 10
8681.72325179111
 20
3014.284839419604
 30
0.0
 11
8378.523251791127
 21
2711.084839419607
 31
0.0
  0
LINE
  5
1AE35
330
1AC64
100
AcDbEntity
  8
HATCH
100
AcDbLine
 10
8681.723251791105
 20
2966.767263723863
 30
0.0
 11
8426.040827486863
 21
2711.084839419607
 31
0.0
  0
LINE
  5
1AE36
330
1AC64
100
AcDbEntity
  8
HATCH
100
AcDbLine
 10
8681.723251791105
 20
2919.249688028132
 30
0.0
 11
8473.55840318259
 21
2711.084839419607
 31
0.0
  0
LINE
  5
1AE37
330
1AC64
100
AcDbEntity
  8
HATCH
100
AcDbLine
 10
8507.005676095374
 20
3319.084839419603
 30
0.0
 11
8478.523251791115
 21
3290.602415115337
 31
0.0
  0
LINE
  5
1AE38
330
1AC64
100
AcDbEntity
  8
HATCH
100
AcDbLine
 10
8457.723251791113
 20
3269.802415115337
 30
0.0
 11
7940.12325179111
 21
2752.202415115339
 31
0.0
  0
LINE
  5
1AE39
330
1AC64
100
AcDbEntity
  8
HATCH
100
AcDbLine
 10
8554.523251791115
 20
3319.084839419603
 30
0.0
 11
8478.523251791115
 21
3243.084839419598
 31
0.0
  0
LINE
  5
1AE3A
330
1AC64
100
AcDbEntity
  8
HATCH
100
AcDbLine
 10
8457.723251791113
 20
3222.284839419597
 30
0.0
 11
7946.523251791126
 21
2711.084839419607
 31
0.0
  0
LINE
  5
1AE3B
330
1AC64
100
AcDbEntity
  8
HATCH
100
AcDbLine
 10
8602.040827486851
 20
3319.084839419603
 30
0.0
 11
8478.523251791115
 21
3195.567263723865
 31
0.0
  0
LINE
  5
1AE3C
330
1AC64
100
AcDbEntity
  8
HATCH
100
AcDbLine
 10
8457.723251791113
 20
3174.767263723866
 30
0.0
 11
7994.040827486853
 21
2711.084839419607
 31
0.0
  0
LINE
  5
1AE3D
330
1AC64
100
AcDbEntity
  8
HATCH
100
AcDbLine
 10
8027.488100399645
 20
3319.084839419603
 30
0.0
 11
7940.12325179111
 21
3231.719990811074
 31
0.0
  0
LINE
  5
1AE3E
330
1AC64
100
AcDbEntity
  8
1PL-M1
100
AcDbLine
 10
8580.123251791111
 20
2428.17212587879
 30
0.0
 11
8580.123251791111
 21
4175.485411556194
 31
0.0
  0
LINE
  5
1AE3F
330
1AC64
100
AcDbEntity
  8
KISO
100
AcDbLine
 10
9380.123251791109
 20
2711.084839419607
 30
0.0
 11
9380.123251791109
 21
2551.084839419603
 31
0.0
  0
LINE
  5
1AE40
330
1AC64
100
AcDbEntity
  8
HATCH
100
AcDbLine
 10
8608.053047017286
 20
2551.084839419607
 30
0.0
 11
8700.42908968395
 21
2711.084839419607
 31
0.0
  0
LINE
  5
1AE41
330
1AC64
100
AcDbEntity
  8
HATCH
100
AcDbLine
 10
8647.095756350616
 20
2711.084839419607
 30
0.0
 11
8673.762423017283
 21
2664.896816752944
 31
0.0
  0
LINE
  5
1AE42
330
1AC64
100
AcDbEntity
  8
HATCH
100
AcDbLine
 10
8634.719713683949
 20
2597.272860752938
 30
0.0
 11
8661.386380350618
 21
2551.084839419607
 31
0.0
  0
LINE
  5
1AE43
330
1AC64
100
AcDbEntity
  8
HATCH
100
AcDbLine
 10
8434.71971368395
 20
2597.272860752938
 30
0.0
 11
8461.386380350617
 21
2551.084839419607
 31
0.0
  0
LINE
  5
1AE44
330
1AC64
100
AcDbEntity
  8
HATCH
100
AcDbLine
 10
8447.095756350616
 20
2711.084839419607
 30
0.0
 11
8473.762423017282
 21
2664.896816752944
 31
0.0
  0
LINE
  5
1AE45
330
1AC64
100
AcDbEntity
  8
HATCH
100
AcDbLine
 10
8234.719713683949
 20
2597.272860752938
 30
0.0
 11
8261.386380350618
 21
2551.084839419607
 31
0.0
  0
LINE
  5
1AE46
330
1AC64
100
AcDbEntity
  8
HATCH
100
AcDbLine
 10
8208.053047017285
 20
2551.084839419607
 30
0.0
 11
8300.42908968395
 21
2711.084839419607
 31
0.0
  0
LINE
  5
1AE47
330
1AC64
100
AcDbEntity
  8
HATCH
100
AcDbLine
 10
8247.095756350615
 20
2711.084839419607
 30
0.0
 11
8273.762423017283
 21
2664.896816752944
 31
0.0
  0
LINE
  5
1AE48
330
1AC64
100
AcDbEntity
  8
KISO
100
AcDbLine
 10
7780.123251791109
 20
2711.084839419607
 30
0.0
 11
7780.123251791109
 21
2551.084839419603
 31
0.0
  0
LINE
  5
1AE49
330
1AC64
100
AcDbEntity
  8
HATCH
100
AcDbLine
 10
8034.719713683951
 20
2597.272860752938
 30
0.0
 11
8061.386380350617
 21
2551.084839419607
 31
0.0
  0
LINE
  5
1AE4A
330
1AC64
100
AcDbEntity
  8
HATCH
100
AcDbLine
 10
8047.095756350616
 20
2711.084839419607
 30
0.0
 11
8073.762423017283
 21
2664.896816752944
 31
0.0
  0
LINE
  5
1AE4B
330
1AC64
100
AcDbEntity
  8
HATCH
100
AcDbLine
 10
8008.053047017282
 20
2551.084839419607
 30
0.0
 11
8100.429089683949
 21
2711.084839419607
 31
0.0
  0
LINE
  5
1AE4C
330
1AC64
100
AcDbEntity
  8
HATCH
100
AcDbLine
 10
8408.053047017286
 20
2551.084839419607
 30
0.0
 11
8500.429089683951
 21
2711.084839419607
 31
0.0
  0
LINE
  5
1AE4D
330
1AC64
100
AcDbEntity
  8
KISO
100
AcDbLine
 10
7780.123251791109
 20
2551.084839419603
 30
0.0
 11
9380.123251791109
 21
2551.084839419603
 31
0.0
  0
LINE
  5
1AE4E
330
1AC64
100
AcDbEntity
  8
HATCH
100
AcDbLine
 10
8847.095756350617
 20
2711.084839419607
 30
0.0
 11
8873.762423017282
 21
2664.896816752944
 31
0.0
  0
LINE
  5
1AE4F
330
1AC64
100
AcDbEntity
  8
HATCH
100
AcDbLine
 10
8808.053047017287
 20
2551.084839419607
 30
0.0
 11
8900.429089683951
 21
2711.084839419607
 31
0.0
  0
LINE
  5
1AE50
330
1AC64
100
AcDbEntity
  8
HATCH
100
AcDbLine
 10
8834.71971368395
 20
2597.272860752938
 30
0.0
 11
8861.386380350618
 21
2551.084839419607
 31
0.0
  0
LINE
  5
1AE51
330
1AC64
100
AcDbEntity
  8
HATCH
100
AcDbLine
 10
9008.053047017282
 20
2551.084839419607
 30
0.0
 11
9100.429089683951
 21
2711.084839419607
 31
0.0
  0
LINE
  5
1AE52
330
1AC64
100
AcDbEntity
  8
HATCH
100
AcDbLine
 10
9047.095756350616
 20
2711.084839419607
 30
0.0
 11
9073.762423017283
 21
2664.896816752944
 31
0.0
  0
LINE
  5
1AE53
330
1AC64
100
AcDbEntity
  8
HATCH
100
AcDbLine
 10
9034.719713683951
 20
2597.272860752938
 30
0.0
 11
9061.386380350617
 21
2551.084839419607
 31
0.0
  0
LINE
  5
1AE54
330
1AC64
100
AcDbEntity
  8
HATCH
100
AcDbLine
 10
7847.095756350616
 20
2711.084839419607
 30
0.0
 11
7873.762423017281
 21
2664.896816752944
 31
0.0
  0
LINE
  5
1AE55
330
1AC64
100
AcDbEntity
  8
HATCH
100
AcDbLine
 10
7808.053047017286
 20
2551.084839419607
 30
0.0
 11
7900.429089683949
 21
2711.084839419607
 31
0.0
  0
LINE
  5
1AE56
330
1AC64
100
AcDbEntity
  8
HATCH
100
AcDbLine
 10
7834.719713683951
 20
2597.272860752938
 30
0.0
 11
7861.386380350618
 21
2551.084839419607
 31
0.0
  0
LINE
  5
1AE57
330
1AC64
100
AcDbEntity
  8
SUNPOU
100
AcDbLine
 10
8580.123251791111
 20
4130.485411556196
 30
0.0
 11
9701.364210973478
 21
4130.485411556196
 31
0.0
  0
TEXT
  5
1AE58
330
1AC64
100
AcDbEntity
  8
SUNPOU
100
AcDbText
 10
9090.021106547046
 20
4175.485411556197
 30
0.0
 40
90.0
  1
1800
 41
0.6666666666666666
  7
00
 72
     4
 11
9208.592535118475
 21
4220.485411556196
 31
0.0
100
AcDbText
  0
LINE
  5
1AE59
330
1AC64
100
AcDbEntity
  8
HIKIDASHI
100
AcDbLine
 10
9726.620021984601
 20
3920.485411556196
 30
0.0
 11
9357.853645156977
 21
3920.485411556196
 31
0.0
  0
TEXT
  5
1AE5A
330
1AC64
100
AcDbEntity
  8
HIKIDASHI
100
AcDbText
 10
9390.92125274889
 20
3965.485411556194
 30
0.0
 40
90.0
  1
土　間
  7
01
 72
     2
 11
9684.921252748893
 21
4010.485411556194
 31
0.0
100
AcDbText
 73
     2
  0
TEXT
  5
1AE5B
330
1AC64
100
AcDbEntity
  8
SUNPOU
100
AcDbText
 10
9478.587586282396
 20
3591.684839419605
 30
0.0
 40
90.0
  1
F.L
 41
0.6666666666666666
  7
00
 72
     4
 11
9547.159014853825
 21
3636.684839419604
 31
0.0
100
AcDbText
  0
LINE
  5
1AE5C
330
1AC64
100
AcDbEntity
  8
SUNPOU
100
AcDbLine
 10
9547.159014853825
 20
3456.684839419605
 30
0.0
 11
9599.120539080891
 21
3546.684839419604
 31
0.0
  0
LINE
  5
1AE5D
330
1AC64
100
AcDbEntity
  8
SUNPOU
100
AcDbLine
 10
9495.197490626756
 20
3546.684839419604
 30
0.0
 11
9547.159014853825
 21
3456.684839419605
 31
0.0
  0
LINE
  5
1AE5E
330
1AC64
100
AcDbEntity
  8
SUNPOU
100
AcDbLine
 10
9599.120539080891
 20
3546.684839419604
 30
0.0
 11
9495.197490626756
 21
3546.684839419604
 31
0.0
  0
TEXT
  5
1AE5F
330
1AC64
100
AcDbEntity
  8
HIKIDASHI
100
AcDbText
 10
7011.426786787378
 20
1814.878869270352
 30
0.0
 40
89.55223880597014
  1
x
 41
0.6700000000000001
  7
00
100
AcDbText
  0
TEXT
  5
1AE60
330
1AC64
100
AcDbEntity
  8
HIKIDASHI
100
AcDbText
 10
6939.591849597005
 20
1803.088394027939
 30
0.0
 40
67.16417910447761
  1
2
 41
0.6700000000000001
  7
00
100
AcDbText
  0
TEXT
  5
1AE61
330
1AC64
100
AcDbEntity
  8
HIKIDASHI
100
AcDbText
 10
6851.699813038081
 20
1830.1144490585
 30
0.0
 40
67.16417910447761
  1
1
 41
0.6700000000000001
  7
00
100
AcDbText
  0
TEXT
  5
1AE62
330
1AC64
100
AcDbEntity
  8
HIKIDASHI
100
AcDbText
 10
6777.099002354859
 20
1803.684839419606
 30
0.0
 40
89.55223880597014
  1
W ／
 41
0.6700000000000001
  7
00
100
AcDbText
  0
TEXT
  5
1AE63
330
1AC64
100
AcDbEntity
  8
HIKIDASHI
100
AcDbText
 10
7092.562165940511
 20
1803.475853219515
 30
0.0
 40
89.55223880597014
  1
300
 41
0.6700000000000001
  7
00
100
AcDbText
  0
TEXT
  5
1AE64
330
1AC64
100
AcDbEntity
  8
HIKIDASHI
100
AcDbText
 10
6777.099002354859
 20
1983.684839419604
 30
0.0
 40
90.0
  1
アンカーボルト
  7
01
100
AcDbText
  0
LINE
  5
1AE65
330
1AC64
100
AcDbEntity
  8
HIKIDASHI
100
AcDbLine
 10
6748.019393493152
 20
1938.684839419604
 30
0.0
 11
7568.025406890003
 21
1938.684839419604
 31
0.0
  0
TEXT
  5
1AE66
330
1AC64
100
AcDbEntity
  8
HIKIDASHI
100
AcDbText
 10
8262.30957517332
 20
1664.635820576939
 30
0.0
 40
90.0
  1
B  ~  B'
 41
0.6700000000000001
  7
00
100
AcDbText
  0
LINE
  5
1AE67
330
1AC64
100
AcDbEntity
  8
HIKIDASHI
100
AcDbLine
 10
8232.309575173323
 20
1589.635820576939
 30
0.0
 11
8927.93692840889
 21
1589.635820576939
 31
0.0
  0
LINE
  5
1AE68
330
1AC64
100
AcDbEntity
  8
HIKIDASHI
100
AcDbLine
 10
8232.309575173323
 20
1619.635820576939
 30
0.0
 11
8927.93692840889
 21
1619.635820576939
 31
0.0
  0
TEXT
  5
1AE69
330
1AC64
100
AcDbEntity
  8
HIKIDASHI
100
AcDbText
 10
8656.326854669883
 20
1664.635820576939
 30
0.0
 40
90.0
  1
断 面
  7
01
100
AcDbText
  0
TEXT
  5
1AE6A
330
1AC64
100
AcDbEntity
  8
SUNPOU
100
AcDbText
 10
9537.817961079962
 20
2578.884705856383
 30
0.0
 40
90.0
  1
5-D13×5-D13
 41
0.6700000000000001
  7
01
 72
     4
 11
9881.240818222821
 21
2623.884705856383
 31
0.0
100
AcDbText
  0
TEXT
  5
1AE6B
330
1AC64
100
AcDbEntity
  8
SUNPOU
100
AcDbText
 10
9672.933675365676
 20
2713.884705856383
 30
0.0
 40
90.0
  1
ベース筋
  7
01
 72
     4
 11
9876.933675365677
 21
2758.884705856383
 31
0.0
100
AcDbText
  0
LINE
  5
1AE6C
330
1AC64
100
AcDbEntity
  8
KISO
100
AcDbLine
 10
7780.123251791109
 20
2711.084839419607
 30
0.0
 11
9380.123251791109
 21
2711.084839419607
 31
0.0
  0
LINE
  5
1AE6D
330
1AC64
100
AcDbEntity
  8
HATCH
100
AcDbLine
 10
9208.053047017283
 20
2551.084839419611
 30
0.0
 11
9300.42908968395
 21
2711.084839419611
 31
0.0
  0
LINE
  5
1AE6E
330
1AC64
100
AcDbEntity
  8
HATCH
100
AcDbLine
 10
9247.095756350615
 20
2711.084839419611
 30
0.0
 11
9273.762423017281
 21
2664.896816752947
 31
0.0
  0
LINE
  5
1AE6F
330
1AC64
100
AcDbEntity
  8
HATCH
100
AcDbLine
 10
9234.719713683949
 20
2597.272860752941
 30
0.0
 11
9261.386380350616
 21
2551.084839419611
 31
0.0
  0
LINE
  5
1AE70
330
1AC64
100
AcDbEntity
  8
HATCH
100
AcDbLine
 10
7851.481711982538
 20
3456.684839419605
 30
0.0
 11
7713.881711982537
 21
3319.084839419603
 31
0.0
  0
LINE
  5
1AE71
330
1AC64
100
AcDbEntity
  8
HATCH
100
AcDbLine
 10
7946.516863374012
 20
3456.684839419605
 30
0.0
 11
7808.916863374007
 21
3319.084839419603
 31
0.0
  0
LINE
  5
1AE72
330
1AC64
100
AcDbEntity
  8
HATCH
100
AcDbLine
 10
7898.999287678278
 20
3456.684839419605
 30
0.0
 11
7761.399287678277
 21
3319.084839419603
 31
0.0
  0
LINE
  5
1AE73
330
1AC64
100
AcDbEntity
  8
HATCH
100
AcDbLine
 10
7371.481711982539
 20
3456.684839419605
 30
0.0
 11
7297.726529051804
 21
3382.929656488869
 31
0.0
  0
LINE
  5
1AE74
330
1AC64
100
AcDbEntity
  8
HATCH
100
AcDbLine
 10
7466.516863374012
 20
3456.684839419605
 30
0.0
 11
7328.91686337401
 21
3319.084839419603
 31
0.0
  0
LINE
  5
1AE75
330
1AC64
100
AcDbEntity
  8
HATCH
100
AcDbLine
 10
7418.999287678279
 20
3456.684839419605
 30
0.0
 11
7297.726529051804
 21
3335.412080793129
 31
0.0
  0
LINE
  5
1AE76
330
1AC64
100
AcDbEntity
  8
SUNPOU
100
AcDbLine
 10
8580.123251791111
 20
4130.485411556196
 30
0.0
 11
7458.882292608745
 21
4130.485411556196
 31
0.0
  0
TEXT
  5
1AE77
330
1AC64
100
AcDbEntity
  8
SUNPOU
100
AcDbText
 10
7833.082539892314
 20
4175.485411556197
 30
0.0
 40
90.0
  1
1800
 41
0.6666666666666666
  7
00
 72
     4
 11
7951.653968463742
 21
4220.485411556196
 31
0.0
100
AcDbText
  0
TEXT
  5
1AE78
330
1AC64
100
AcDbEntity
  8
SUNPOU
100
AcDbText
 10
7317.19781972598
 20
8040.715360473255
 30
0.0
 40
90.0
  1
B
 41
0.6700000000000001
  7
00
 72
     4
 11
7348.783534011693
 21
8085.715360473255
 31
0.0
100
AcDbText
  0
LINE
  5
1AE79
330
1AC64
100
AcDbEntity
  8
SUNPOU
100
AcDbLine
 10
6959.217031986058
 20
8085.715360473255
 30
0.0
 11
6959.217031986058
 21
7935.715360473254
 31
0.0
  0
LINE
  5
1AE7A
330
1AC64
100
AcDbEntity
  8
SUNPOU
100
AcDbLine
 10
7169.217031986057
 20
8085.715360473255
 30
0.0
 11
6959.217031986058
 21
8085.715360473255
 31
0.0
  0
SOLID
  5
1AE7B
330
1AC64
100
AcDbEntity
  8
SUNPOU
100
AcDbTrace
 10
7169.217031986057
 20
8100.715360473255
 30
0.0
 11
7169.217031986057
 21
8070.715360473256
 31
0.0
 12
7259.21703198606
 22
8085.715360473255
 32
0.0
 13
7259.21703198606
 23
8085.715360473255
 33
0.0
  0
TEXT
  5
1AE7C
330
1AC64
100
AcDbEntity
  8
SUNPOU
100
AcDbText
 10
7304.276391154551
 20
6852.143931901824
 30
0.0
 40
90.0
  1
B'
 41
0.6700000000000001
  7
00
 72
     4
 11
7348.783534011693
 21
6905.715360473253
 31
0.0
100
AcDbText
  0
LINE
  5
1AE7D
330
1AC64
100
AcDbEntity
  8
SUNPOU
100
AcDbLine
 10
6959.217031986058
 20
6905.715360473253
 30
0.0
 11
6959.217031986058
 21
7055.715360473254
 31
0.0
  0
LINE
  5
1AE7E
330
1AC64
100
AcDbEntity
  8
SUNPOU
100
AcDbLine
 10
7169.217031986057
 20
6905.715360473253
 30
0.0
 11
6959.217031986058
 21
6905.715360473253
 31
0.0
  0
SOLID
  5
1AE7F
330
1AC64
100
AcDbEntity
  8
SUNPOU
100
AcDbTrace
 10
7169.217031986057
 20
6890.715360473255
 30
0.0
 11
7169.217031986057
 21
6920.715360473256
 31
0.0
 12
7259.21703198606
 22
6905.715360473253
 32
0.0
 13
7259.21703198606
 23
6905.715360473253
 33
0.0
  0
LINE
  5
1AE80
330
1AC64
100
AcDbEntity
  8
HIKIDASHI
100
AcDbLine
 10
5702.626424666976
 20
3920.485411556192
 30
0.0
 11
5333.860047839355
 21
3920.485411556192
 31
0.0
  0
TEXT
  5
1AE81
330
1AC64
100
AcDbEntity
  8
HIKIDASHI
100
AcDbText
 10
5366.927655431265
 20
3965.485411556191
 30
0.0
 40
90.0
  1
土　間
  7
01
 72
     2
 11
5660.927655431265
 21
4010.48541155619
 31
0.0
100
AcDbText
 73
     2
  0
TEXT
  5
1AE82
330
1AC64
100
AcDbEntity
  8
FILENAME
100
AcDbText
 10
13568.66666666666
 20
174.0
 30
0.0
 40
100.0
  1
＜YOKC-245-SA-A1_3_JIS_GL.DXF ＞
  7
FILENAME
 72
     2
 11
16382.0
 21
174.0
 31
0.0
100
AcDbText
  0
LINE
  5
1AE83
330
1AC64
100
AcDbEntity
  8
WAKUSEN-01
100
AcDbLine
 10
434.0000000000008
 20
413.9999999999997
 30
0.0
 11
16382.0
 21
413.9999999999997
 31
0.0
  0
LINE
  5
1AE84
330
1AC64
100
AcDbEntity
  8
WAKUSEN-01
100
AcDbLine
 10
434.0000000000008
 20
11242.0
 30
0.0
 11
16382.0
 21
11242.0
 31
0.0
  0
LINE
  5
1AE85
330
1AC64
100
AcDbEntity
  8
WAKUSEN-01
100
AcDbLine
 10
434.0000000000008
 20
413.9999999999997
 30
0.0
 11
434.0000000000008
 21
11242.0
 31
0.0
  0
LINE
  5
1AE86
330
1AC64
100
AcDbEntity
  8
WAKUSEN-01
100
AcDbLine
 10
16382.0
 20
413.9999999999997
 30
0.0
 11
16382.0
 21
11242.0
 31
0.0
  0
LINE
  5
1AE87
330
1AC64
100
AcDbEntity
  8
WAKUSEN-01
100
AcDbLine
 10
10280.0
 20
1242.0
 30
0.0
 11
16382.0
 21
1242.0
 31
0.0
  0
LINE
  5
1AE88
330
1AC64
100
AcDbEntity
  8
WAKUSEN-02
100
AcDbLine
 10
10280.0
 20
827.9999999999997
 30
0.0
 11
13434.0
 21
827.9999999999997
 31
0.0
  0
TEXT
  5
1AE89
330
1AC64
100
AcDbEntity
  8
WAKUMOJI-01
100
AcDbText
 10
10335.13012998137
 20
1062.951504669661
 30
0.0
 40
120.0
  1
名　称
  7
WAKUMOJI
100
AcDbText
  0
TEXT
  5
1AE8A
330
1AC64
100
AcDbEntity
  8
WAKUMOJI-01
100
AcDbText
 10
10328.25274254596
 20
659.5644874899107
 30
0.0
 40
120.0
  1
機種名
  7
WAKUMOJI
100
AcDbText
  0
LINE
  5
1AE8B
330
1AC64
100
AcDbEntity
  8
WAKUSEN-01
100
AcDbLine
 10
10280.0
 20
413.9999999999985
 30
0.0
 11
10280.0
 21
1242.0
 31
0.0
  0
LINE
  5
1AE8C
330
1AC64
100
AcDbEntity
  8
WAKUSEN-02
100
AcDbLine
 10
13434.0
 20
413.9999999999963
 30
0.0
 11
13434.0
 21
1242.0
 31
0.0
  0
LINE
  5
1AE8D
330
1AC64
100
AcDbEntity
  8
YODOROGO
100
AcDbLine
 10
14988.80217064596
 20
997.8747482146435
 30
0.0
 11
14914.80217064596
 21
997.8747482146435
 31
0.0
1001
AUTOCAD_POSTSCRIPT_FIGURE
1002
{
1000
PSFILL
1000
Grayscale
1000
Grayscale
1070
    25
1002
}
  0
LINE
  5
1AE8E
330
1AC64
100
AcDbEntity
  8
YODOROGO
100
AcDbLine
 10
14914.80217064596
 20
973.8747482146434
 30
0.0
 11
14988.80217064596
 21
973.8747482146434
 31
0.0
1001
AUTOCAD_POSTSCRIPT_FIGURE
1002
{
1000
PSFILL
1000
Grayscale
1000
Grayscale
1070
    25
1002
}
  0
LINE
  5
1AE8F
330
1AC64
100
AcDbEntity
  8
YODOROGO
100
AcDbLine
 10
14988.80217064596
 20
953.874748214644
 30
0.0
 11
14914.80217064596
 21
953.874748214644
 31
0.0
1001
AUTOCAD_POSTSCRIPT_FIGURE
1002
{
1000
PSFILL
1000
Grayscale
1000
Grayscale
1070
    25
1002
}
  0
LINE
  5
1AE90
330
1AC64
100
AcDbEntity
  8
YODOROGO
100
AcDbLine
 10
14914.80217064596
 20
929.874748214644
 30
0.0
 11
14988.80217064596
 21
929.874748214644
 31
0.0
1001
AUTOCAD_POSTSCRIPT_FIGURE
1002
{
1000
PSFILL
1000
Grayscale
1000
Grayscale
1070
    25
1002
}
  0
LINE
  5
1AE91
330
1AC64
100
AcDbEntity
  8
YODOROGO
100
AcDbLine
 10
14988.80217064596
 20
909.8747482146439
 30
0.0
 11
14914.80217064596
 21
909.8747482146439
 31
0.0
1001
AUTOCAD_POSTSCRIPT_FIGURE
1002
{
1000
PSFILL
1000
Grayscale
1000
Grayscale
1070
    25
1002
}
  0
LINE
  5
1AE92
330
1AC64
100
AcDbEntity
  8
YODOROGO
100
AcDbLine
 10
14960.80217064594
 20
853.874748214644
 30
0.0
 11
14988.80217064596
 21
853.874748214644
 31
0.0
1001
AUTOCAD_POSTSCRIPT_FIGURE
1002
{
1000
PSFILL
1000
Grayscale
1000
Grayscale
1070
    25
1002
}
  0
LINE
  5
1AE93
330
1AC64
100
AcDbEntity
  8
YODOROGO
100
AcDbLine
 10
14868.80217064596
 20
713.8747482146436
 30
0.0
 11
14968.80217064596
 21
740.6696674577553
 31
0.0
  0
LINE
  5
1AE94
330
1AC64
100
AcDbEntity
  8
YODOROGO
100
AcDbLine
 10
14974.80217064595
 20
853.874748214644
 30
0.0
 11
14942.80217064596
 21
853.874748214644
 31
0.0
  0
ARC
  5
1AE95
330
1AC64
100
AcDbEntity
  8
YODOROGO
100
AcDbCircle
 10
15127.17387491394
 20
903.9323046166312
 30
0.0
 40
190.9434321028236
100
AcDbArc
 50
213.9611167766784
 51
264.4787207431779
  0
ARC
  5
1AE96
330
1AC64
100
AcDbEntity
  8
YODOROGO
100
AcDbCircle
 10
15127.17387491396
 20
903.9323046166513
 30
0.0
 40
190.9434321028408
100
AcDbArc
 50
208.141144204866
 51
212.9210361185994
  0
LINE
  5
1AE97
330
1AC64
100
AcDbEntity
  8
YODOROGO
100
AcDbLine
 10
14885.70493649264
 20
778.403830673117
 30
0.0
 11
14966.89206625426
 21
800.1578565285436
 31
0.0
  0
LINE
  5
1AE98
330
1AC64
100
AcDbEntity
  8
YODOROGO
100
AcDbLine
 10
14868.80217064596
 20
713.8747482146436
 30
0.0
 11
14968.80217064596
 21
740.6696674577553
 31
0.0
  0
LINE
  5
1AE99
330
1AC64
100
AcDbEntity
  8
YODOROGO
100
AcDbLine
 10
14974.80217064595
 20
853.874748214644
 30
0.0
 11
14942.80217064596
 21
853.874748214644
 31
0.0
  0
ARC
  5
1AE9A
330
1AC64
100
AcDbEntity
  8
YODOROGO
100
AcDbCircle
 10
15127.17387491394
 20
903.9323046166312
 30
0.0
 40
190.9434321028236
100
AcDbArc
 50
213.9611167766784
 51
264.4787207431779
  0
LINE
  5
1AE9B
330
1AC64
100
AcDbEntity
  8
YODOROGO
100
AcDbLine
 10
14396.80217064594
 20
909.8747482146439
 30
0.0
 11
14216.80217064594
 21
909.8747482146439
 31
0.0
  0
LINE
  5
1AE9C
330
1AC64
100
AcDbEntity
  8
YODOROGO
100
AcDbLine
 10
14256.80217064594
 20
713.8747482146436
 30
0.0
 11
14396.80217064594
 21
713.8747482146436
 31
0.0
  0
LINE
  5
1AE9D
330
1AC64
100
AcDbEntity
  8
YODOROGO
100
AcDbLine
 10
14364.80217064596
 20
961.8747482146432
 30
0.0
 11
14248.80217064594
 21
961.8747482146432
 31
0.0
  0
LINE
  5
1AE9E
330
1AC64
100
AcDbEntity
  8
YODOROGO
100
AcDbLine
 10
14292.80217064596
 20
1013.874748214644
 30
0.0
 11
14328.80217064596
 21
1013.874748214644
 31
0.0
  0
LINE
  5
1AE9F
330
1AC64
100
AcDbEntity
  8
YODOROGO
100
AcDbLine
 10
14216.80217064594
 20
853.874748214644
 30
0.0
 11
14216.80217064594
 21
753.8747482146439
 31
0.0
  0
LINE
  5
1AEA0
330
1AC64
100
AcDbEntity
  8
YODOROGO
100
AcDbLine
 10
14248.80217064594
 20
781.8747482146434
 30
0.0
 11
14248.80217064594
 21
853.874748214644
 31
0.0
  0
LINE
  5
1AEA1
330
1AC64
100
AcDbEntity
  8
YODOROGO
100
AcDbLine
 10
14292.80217064596
 20
873.8747482146449
 30
0.0
 11
14292.80217064596
 21
773.874748214644
 31
0.0
  0
LINE
  5
1AEA2
330
1AC64
100
AcDbEntity
  8
YODOROGO
100
AcDbLine
 10
13928.80217064596
 20
841.8747482146445
 30
0.0
 11
13888.80217064596
 21
809.9862070222856
 31
0.0
  0
LINE
  5
1AEA3
330
1AC64
100
AcDbEntity
  8
YODOROGO
100
AcDbLine
 10
13968.80217064596
 20
809.9862070222856
 30
0.0
 11
13928.80217064596
 21
841.8747482146445
 31
0.0
  0
LINE
  5
1AEA4
330
1AC64
100
AcDbEntity
  8
YODOROGO
100
AcDbLine
 10
13928.80217064596
 20
853.874748214644
 30
0.0
 11
13968.80217064596
 21
821.986207022285
 31
0.0
  0
LINE
  5
1AEA5
330
1AC64
100
AcDbEntity
  8
YODOROGO
100
AcDbLine
 10
13888.80217064596
 20
821.986207022285
 30
0.0
 11
13928.80217064596
 21
853.874748214644
 31
0.0
  0
LINE
  5
1AEA6
330
1AC64
100
AcDbEntity
  8
YODOROGO
100
AcDbLine
 10
14020.45660200844
 20
829.874748214644
 30
0.0
 11
14020.45660200844
 21
841.8747482146434
 31
0.0
  0
LINE
  5
1AEA7
330
1AC64
100
AcDbEntity
  8
YODOROGO
100
AcDbLine
 10
13988.80217064596
 20
841.8747482146434
 30
0.0
 11
13988.80217064596
 21
833.8747482146427
 31
0.0
  0
LINE
  5
1AEA8
330
1AC64
100
AcDbEntity
  8
YODOROGO
100
AcDbLine
 10
14049.06776011545
 20
853.874748214644
 30
0.0
 11
14049.06776011545
 21
827.751818637328
 31
0.0
1001
AUTOCAD_POSTSCRIPT_FIGURE
1002
{
1000
PSFILL
1000
Grayscale
1000
Grayscale
1070
   100
1002
}
  0
LINE
  5
1AEA9
330
1AC64
100
AcDbEntity
  8
YODOROGO
100
AcDbLine
 10
14041.06776011546
 20
827.751818637328
 30
0.0
 11
14041.06776011546
 21
853.874748214644
 31
0.0
1001
AUTOCAD_POSTSCRIPT_FIGURE
1002
{
1000
PSFILL
1000
Grayscale
1000
Grayscale
1070
   100
1002
}
  0
LINE
  5
1AEAA
330
1AC64
100
AcDbEntity
  8
YODOROGO
100
AcDbLine
 10
13904.80217064596
 20
804.3859520216292
 30
0.0
 11
13904.80217064596
 21
816.3859520216298
 31
0.0
  0
LINE
  5
1AEAB
330
1AC64
100
AcDbEntity
  8
YODOROGO
100
AcDbLine
 10
13952.80217064596
 20
804.3859520216292
 30
0.0
 11
13904.80217064596
 21
804.3859520216292
 31
0.0
  0
LINE
  5
1AEAC
330
1AC64
100
AcDbEntity
  8
YODOROGO
100
AcDbLine
 10
13952.80217064596
 20
816.3859520216298
 30
0.0
 11
13952.80217064596
 21
804.3859520216292
 31
0.0
  0
LINE
  5
1AEAD
330
1AC64
100
AcDbEntity
  8
YODOROGO
100
AcDbLine
 10
13904.80217064596
 20
816.3859520216298
 30
0.0
 11
13952.80217064596
 21
816.3859520216298
 31
0.0
  0
LINE
  5
1AEAE
330
1AC64
100
AcDbEntity
  8
YODOROGO
100
AcDbLine
 10
13912.25479445787
 20
784.2514286852374
 30
0.0
 11
13892.80217064596
 21
737.8747482146435
 31
0.0
1001
AUTOCAD_POSTSCRIPT_FIGURE
1002
{
1000
PSFILL
1000
Grayscale
1000
Grayscale
1070
   100
1002
}
  0
LINE
  5
1AEAF
330
1AC64
100
AcDbEntity
  8
YODOROGO
100
AcDbLine
 10
13888.80217064596
 20
784.2514286852374
 30
0.0
 11
13912.25479445787
 21
784.2514286852374
 31
0.0
1001
AUTOCAD_POSTSCRIPT_FIGURE
1002
{
1000
PSFILL
1000
Grayscale
1000
Grayscale
1070
   100
1002
}
  0
LINE
  5
1AEB0
330
1AC64
100
AcDbEntity
  8
YODOROGO
100
AcDbLine
 10
13888.80217064596
 20
794.2514286852374
 30
0.0
 11
13888.80217064596
 21
784.2514286852374
 31
0.0
1001
AUTOCAD_POSTSCRIPT_FIGURE
1002
{
1000
PSFILL
1000
Grayscale
1000
Grayscale
1070
   100
1002
}
  0
LINE
  5
1AEB1
330
1AC64
100
AcDbEntity
  8
YODOROGO
100
AcDbLine
 10
13968.80217064596
 20
794.2514286852374
 30
0.0
 11
13888.80217064596
 21
794.2514286852374
 31
0.0
1001
AUTOCAD_POSTSCRIPT_FIGURE
1002
{
1000
PSFILL
1000
Grayscale
1000
Grayscale
1070
   100
1002
}
  0
LINE
  5
1AEB2
330
1AC64
100
AcDbEntity
  8
YODOROGO
100
AcDbLine
 10
13968.80217064596
 20
784.2514286852374
 30
0.0
 11
13968.80217064596
 21
794.2514286852374
 31
0.0
1001
AUTOCAD_POSTSCRIPT_FIGURE
1002
{
1000
PSFILL
1000
Grayscale
1000
Grayscale
1070
   100
1002
}
  0
LINE
  5
1AEB3
330
1AC64
100
AcDbEntity
  8
YODOROGO
100
AcDbLine
 10
13922.25479445786
 20
784.2514286852374
 30
0.0
 11
13968.80217064596
 21
784.2514286852374
 31
0.0
1001
AUTOCAD_POSTSCRIPT_FIGURE
1002
{
1000
PSFILL
1000
Grayscale
1000
Grayscale
1070
   100
1002
}
  0
LINE
  5
1AEB4
330
1AC64
100
AcDbEntity
  8
YODOROGO
100
AcDbLine
 10
13907.77335914238
 20
747.8747482146435
 30
0.0
 11
13922.25479445786
 21
784.2514286852374
 31
0.0
1001
AUTOCAD_POSTSCRIPT_FIGURE
1002
{
1000
PSFILL
1000
Grayscale
1000
Grayscale
1070
   100
1002
}
  0
LINE
  5
1AEB5
330
1AC64
100
AcDbEntity
  8
YODOROGO
100
AcDbLine
 10
13951.02739540432
 20
747.8747482146435
 30
0.0
 11
13907.77335914238
 21
747.8747482146435
 31
0.0
1001
AUTOCAD_POSTSCRIPT_FIGURE
1002
{
1000
PSFILL
1000
Grayscale
1000
Grayscale
1070
   100
1002
}
  0
LINE
  5
1AEB6
330
1AC64
100
AcDbEntity
  8
YODOROGO
100
AcDbLine
 10
13942.53250239547
 20
768.1169053488464
 30
0.0
 11
13951.02739540432
 21
747.8747482146435
 31
0.0
1001
AUTOCAD_POSTSCRIPT_FIGURE
1002
{
1000
PSFILL
1000
Grayscale
1000
Grayscale
1070
   100
1002
}
  0
LINE
  5
1AEB7
330
1AC64
100
AcDbEntity
  8
YODOROGO
100
AcDbLine
 10
13950.53250239547
 20
768.1169053488464
 30
0.0
 11
13942.53250239547
 21
768.1169053488464
 31
0.0
1001
AUTOCAD_POSTSCRIPT_FIGURE
1002
{
1000
PSFILL
1000
Grayscale
1000
Grayscale
1070
   100
1002
}
  0
LINE
  5
1AEB8
330
1AC64
100
AcDbEntity
  8
YODOROGO
100
AcDbLine
 10
13964.80217064596
 20
737.8747482146435
 30
0.0
 11
13950.53250239547
 21
768.1169053488464
 31
0.0
1001
AUTOCAD_POSTSCRIPT_FIGURE
1002
{
1000
PSFILL
1000
Grayscale
1000
Grayscale
1070
   100
1002
}
  0
LINE
  5
1AEB9
330
1AC64
100
AcDbEntity
  8
YODOROGO
100
AcDbLine
 10
13892.80217064596
 20
737.8747482146435
 30
0.0
 11
13964.80217064596
 21
737.8747482146435
 31
0.0
1001
AUTOCAD_POSTSCRIPT_FIGURE
1002
{
1000
PSFILL
1000
Grayscale
1000
Grayscale
1070
   100
1002
}
  0
LINE
  5
1AEBA
330
1AC64
100
AcDbEntity
  8
YODOROGO
100
AcDbLine
 10
13888.80217064596
 20
809.9862070222856
 30
0.0
 11
13888.80217064596
 21
821.986207022285
 31
0.0
  0
LINE
  5
1AEBB
330
1AC64
100
AcDbEntity
  8
YODOROGO
100
AcDbLine
 10
13968.80217064596
 20
821.986207022285
 30
0.0
 11
13968.80217064596
 21
809.9862070222856
 31
0.0
  0
ARC
  5
1AEBC
330
1AC64
100
AcDbEntity
  8
YODOROGO
100
AcDbCircle
 10
14112.97022107348
 20
800.438882662663
 30
0.0
 40
87.99999999999995
100
AcDbArc
 50
280.3644312771313
 51
3.541483659218056
  0
ARC
  5
1AEBD
330
1AC64
100
AcDbEntity
  8
YODOROGO
100
AcDbCircle
 10
14117.87801537965
 20
816.798903480952
 30
0.0
 40
55.99999999999914
100
AcDbArc
 50
281.2490582504155
 51
348.7509417495832
  0
LINE
  5
1AEBE
330
1AC64
100
AcDbEntity
  8
YODOROGO
100
AcDbLine
 10
14128.80217064596
 20
761.8747482146434
 30
0.0
 11
14128.80217064596
 21
713.8747482146436
 31
0.0
  0
LINE
  5
1AEBF
330
1AC64
100
AcDbEntity
  8
YODOROGO
100
AcDbLine
 10
14010.04445186845
 20
805.3252825309574
 30
0.0
 11
14020.45660200844
 21
829.874748214644
 31
0.0
  0
LINE
  5
1AEC0
330
1AC64
100
AcDbEntity
  8
YODOROGO
100
AcDbLine
 10
14020.80217064596
 20
791.5602449742006
 30
0.0
 11
14010.04445186845
 21
805.3252825309574
 31
0.0
  0
LINE
  5
1AEC1
330
1AC64
100
AcDbEntity
  8
YODOROGO
100
AcDbLine
 10
14020.80217064596
 20
781.5602449741994
 30
0.0
 11
14020.80217064596
 21
791.5602449742006
 31
0.0
  0
LINE
  5
1AEC2
330
1AC64
100
AcDbEntity
  8
YODOROGO
100
AcDbLine
 10
14008.80217064596
 20
792.6185318747651
 30
0.0
 11
14020.80217064596
 21
781.5602449741994
 31
0.0
  0
LINE
  5
1AEC3
330
1AC64
100
AcDbEntity
  8
YODOROGO
100
AcDbLine
 10
14008.80217064596
 20
737.8747482146435
 30
0.0
 11
14008.80217064596
 21
792.6185318747651
 31
0.0
  0
LINE
  5
1AEC4
330
1AC64
100
AcDbEntity
  8
YODOROGO
100
AcDbLine
 10
14000.80217064596
 20
737.8747482146435
 30
0.0
 11
14008.80217064596
 21
737.8747482146435
 31
0.0
  0
LINE
  5
1AEC5
330
1AC64
100
AcDbEntity
  8
YODOROGO
100
AcDbLine
 10
14000.80217064596
 20
790.0026748448738
 30
0.0
 11
14000.80217064596
 21
737.8747482146435
 31
0.0
  0
LINE
  5
1AEC6
330
1AC64
100
AcDbEntity
  8
YODOROGO
100
AcDbLine
 10
13988.80217064596
 20
766.3840395167142
 30
0.0
 11
14000.80217064596
 21
790.0026748448738
 31
0.0
  0
LINE
  5
1AEC7
330
1AC64
100
AcDbEntity
  8
YODOROGO
100
AcDbLine
 10
13988.80217064596
 20
778.3840395167149
 30
0.0
 11
13988.80217064596
 21
766.3840395167142
 31
0.0
  0
LINE
  5
1AEC8
330
1AC64
100
AcDbEntity
  8
YODOROGO
100
AcDbLine
 10
14012.91438714567
 20
833.8747482146427
 30
0.0
 11
13988.80217064596
 21
778.3840395167149
 31
0.0
  0
LINE
  5
1AEC9
330
1AC64
100
AcDbEntity
  8
YODOROGO
100
AcDbLine
 10
13988.80217064596
 20
833.8747482146427
 30
0.0
 11
14012.91438714567
 21
833.8747482146427
 31
0.0
  0
LINE
  5
1AECA
330
1AC64
100
AcDbEntity
  8
YODOROGO
100
AcDbLine
 10
14025.06776011545
 20
827.751818637328
 30
0.0
 11
14041.06776011546
 21
827.751818637328
 31
0.0
1001
AUTOCAD_POSTSCRIPT_FIGURE
1002
{
1000
PSFILL
1000
Grayscale
1000
Grayscale
1070
   100
1002
}
  0
LINE
  5
1AECB
330
1AC64
100
AcDbEntity
  8
YODOROGO
100
AcDbLine
 10
14025.06776011545
 20
815.7518186373286
 30
0.0
 11
14025.06776011545
 21
827.751818637328
 31
0.0
1001
AUTOCAD_POSTSCRIPT_FIGURE
1002
{
1000
PSFILL
1000
Grayscale
1000
Grayscale
1070
   100
1002
}
  0
LINE
  5
1AECC
330
1AC64
100
AcDbEntity
  8
YODOROGO
100
AcDbLine
 10
14041.06776011546
 20
815.7518186373286
 30
0.0
 11
14025.06776011545
 21
815.7518186373286
 31
0.0
1001
AUTOCAD_POSTSCRIPT_FIGURE
1002
{
1000
PSFILL
1000
Grayscale
1000
Grayscale
1070
   100
1002
}
  0
LINE
  5
1AECD
330
1AC64
100
AcDbEntity
  8
YODOROGO
100
AcDbLine
 10
14041.06776011546
 20
749.8747482146441
 30
0.0
 11
14041.06776011546
 21
815.7518186373286
 31
0.0
1001
AUTOCAD_POSTSCRIPT_FIGURE
1002
{
1000
PSFILL
1000
Grayscale
1000
Grayscale
1070
   100
1002
}
  0
LINE
  5
1AECE
330
1AC64
100
AcDbEntity
  8
YODOROGO
100
AcDbLine
 10
14025.06776011545
 20
749.8747482146441
 30
0.0
 11
14041.06776011546
 21
749.8747482146441
 31
0.0
1001
AUTOCAD_POSTSCRIPT_FIGURE
1002
{
1000
PSFILL
1000
Grayscale
1000
Grayscale
1070
   100
1002
}
  0
LINE
  5
1AECF
330
1AC64
100
AcDbEntity
  8
YODOROGO
100
AcDbLine
 10
14025.06776011545
 20
737.8747482146435
 30
0.0
 11
14025.06776011545
 21
749.8747482146441
 31
0.0
1001
AUTOCAD_POSTSCRIPT_FIGURE
1002
{
1000
PSFILL
1000
Grayscale
1000
Grayscale
1070
   100
1002
}
  0
LINE
  5
1AED0
330
1AC64
100
AcDbEntity
  8
YODOROGO
100
AcDbLine
 10
14068.80217064596
 20
737.8747482146435
 30
0.0
 11
14025.06776011545
 21
737.8747482146435
 31
0.0
1001
AUTOCAD_POSTSCRIPT_FIGURE
1002
{
1000
PSFILL
1000
Grayscale
1000
Grayscale
1070
   100
1002
}
  0
LINE
  5
1AED1
330
1AC64
100
AcDbEntity
  8
YODOROGO
100
AcDbLine
 10
14068.80217064596
 20
749.8747482146441
 30
0.0
 11
14068.80217064596
 21
737.8747482146435
 31
0.0
1001
AUTOCAD_POSTSCRIPT_FIGURE
1002
{
1000
PSFILL
1000
Grayscale
1000
Grayscale
1070
   100
1002
}
  0
LINE
  5
1AED2
330
1AC64
100
AcDbEntity
  8
YODOROGO
100
AcDbLine
 10
14049.06776011545
 20
749.8747482146441
 30
0.0
 11
14068.80217064596
 21
749.8747482146441
 31
0.0
1001
AUTOCAD_POSTSCRIPT_FIGURE
1002
{
1000
PSFILL
1000
Grayscale
1000
Grayscale
1070
   100
1002
}
  0
LINE
  5
1AED3
330
1AC64
100
AcDbEntity
  8
YODOROGO
100
AcDbLine
 10
14049.06776011545
 20
815.7518186373286
 30
0.0
 11
14049.06776011545
 21
749.8747482146441
 31
0.0
1001
AUTOCAD_POSTSCRIPT_FIGURE
1002
{
1000
PSFILL
1000
Grayscale
1000
Grayscale
1070
   100
1002
}
  0
LINE
  5
1AED4
330
1AC64
100
AcDbEntity
  8
YODOROGO
100
AcDbLine
 10
14068.80217064596
 20
815.7518186373286
 30
0.0
 11
14049.06776011545
 21
815.7518186373286
 31
0.0
1001
AUTOCAD_POSTSCRIPT_FIGURE
1002
{
1000
PSFILL
1000
Grayscale
1000
Grayscale
1070
   100
1002
}
  0
LINE
  5
1AED5
330
1AC64
100
AcDbEntity
  8
YODOROGO
100
AcDbLine
 10
14068.80217064596
 20
827.751818637328
 30
0.0
 11
14068.80217064596
 21
815.7518186373286
 31
0.0
1001
AUTOCAD_POSTSCRIPT_FIGURE
1002
{
1000
PSFILL
1000
Grayscale
1000
Grayscale
1070
   100
1002
}
  0
LINE
  5
1AED6
330
1AC64
100
AcDbEntity
  8
YODOROGO
100
AcDbLine
 10
14049.06776011545
 20
827.751818637328
 30
0.0
 11
14068.80217064596
 21
827.751818637328
 31
0.0
1001
AUTOCAD_POSTSCRIPT_FIGURE
1002
{
1000
PSFILL
1000
Grayscale
1000
Grayscale
1070
   100
1002
}
  0
LINE
  5
1AED7
330
1AC64
100
AcDbEntity
  8
YODOROGO
100
AcDbLine
 10
14200.80217064594
 20
833.8747482146439
 30
0.0
 11
14172.80217064596
 21
833.8747482146439
 31
0.0
  0
LINE
  5
1AED8
330
1AC64
100
AcDbEntity
  8
YODOROGO
100
AcDbLine
 10
14200.80217064594
 20
805.8747482146443
 30
0.0
 11
14200.80217064594
 21
833.8747482146439
 31
0.0
  0
LINE
  5
1AED9
330
1AC64
100
AcDbEntity
  8
YODOROGO
100
AcDbLine
 10
14172.80217064596
 20
833.8747482146439
 30
0.0
 11
14172.80217064596
 21
805.8747482146443
 31
0.0
  0
ARC
  5
1AEDA
330
1AC64
100
AcDbEntity
  8
YODOROGO
100
AcDbCircle
 10
14256.80217064594
 20
753.8747482146439
 30
0.0
 40
40.0
100
AcDbArc
 50
180.0
 51
270.0
  0
ARC
  5
1AEDB
330
1AC64
100
AcDbEntity
  8
YODOROGO
100
AcDbCircle
 10
14268.80217064594
 20
781.8747482146434
 30
0.0
 40
20.0
100
AcDbArc
 50
180.0
 51
270.0
  0
LINE
  5
1AEDC
330
1AC64
100
AcDbEntity
  8
YODOROGO
100
AcDbLine
 10
14280.80217064596
 20
761.8747482146434
 30
0.0
 11
14268.80217064594
 21
761.8747482146434
 31
0.0
  0
ARC
  5
1AEDD
330
1AC64
100
AcDbEntity
  8
YODOROGO
100
AcDbCircle
 10
14280.80217064596
 20
773.8747482146427
 30
0.0
 40
11.99999999999818
100
AcDbArc
 50
270.0
 51
0.0000000000054281
  0
LINE
  5
1AEDE
330
1AC64
100
AcDbEntity
  8
YODOROGO
100
AcDbLine
 10
13900.80217064596
 20
945.3932903968532
 30
0.0
 11
13888.80217064596
 21
921.8883739758362
 31
0.0
1001
AUTOCAD_POSTSCRIPT_FIGURE
1002
{
1000
PSFILL
1000
Grayscale
1000
Grayscale
1070
   100
1002
}
  0
LINE
  5
1AEDF
330
1AC64
100
AcDbEntity
  8
YODOROGO
100
AcDbLine
 10
13900.80217064596
 20
873.8747482146434
 30
0.0
 11
13900.80217064596
 21
945.3932903968532
 31
0.0
1001
AUTOCAD_POSTSCRIPT_FIGURE
1002
{
1000
PSFILL
1000
Grayscale
1000
Grayscale
1070
   100
1002
}
  0
LINE
  5
1AEE0
330
1AC64
100
AcDbEntity
  8
YODOROGO
100
AcDbLine
 10
13908.80217064596
 20
873.8747482146434
 30
0.0
 11
13900.80217064596
 21
873.8747482146434
 31
0.0
1001
AUTOCAD_POSTSCRIPT_FIGURE
1002
{
1000
PSFILL
1000
Grayscale
1000
Grayscale
1070
   100
1002
}
  0
LINE
  5
1AEE1
330
1AC64
100
AcDbEntity
  8
YODOROGO
100
AcDbLine
 10
13908.80217064596
 20
946.8856660426332
 30
0.0
 11
13908.80217064596
 21
873.8747482146434
 31
0.0
1001
AUTOCAD_POSTSCRIPT_FIGURE
1002
{
1000
PSFILL
1000
Grayscale
1000
Grayscale
1070
   100
1002
}
  0
LINE
  5
1AEE2
330
1AC64
100
AcDbEntity
  8
YODOROGO
100
AcDbLine
 10
13920.80217064596
 20
933.8273791420684
 30
0.0
 11
13908.80217064596
 21
946.8856660426332
 31
0.0
1001
AUTOCAD_POSTSCRIPT_FIGURE
1002
{
1000
PSFILL
1000
Grayscale
1000
Grayscale
1070
   100
1002
}
  0
LINE
  5
1AEE3
330
1AC64
100
AcDbEntity
  8
YODOROGO
100
AcDbLine
 10
13920.80217064596
 20
941.8273791420681
 30
0.0
 11
13920.80217064596
 21
933.8273791420684
 31
0.0
1001
AUTOCAD_POSTSCRIPT_FIGURE
1002
{
1000
PSFILL
1000
Grayscale
1000
Grayscale
1070
   100
1002
}
  0
LINE
  5
1AEE4
330
1AC64
100
AcDbEntity
  8
YODOROGO
100
AcDbLine
 10
13908.80217064596
 20
958.8856660426325
 30
0.0
 11
13920.80217064596
 21
941.8273791420681
 31
0.0
1001
AUTOCAD_POSTSCRIPT_FIGURE
1002
{
1000
PSFILL
1000
Grayscale
1000
Grayscale
1070
   100
1002
}
  0
LINE
  5
1AEE5
330
1AC64
100
AcDbEntity
  8
YODOROGO
100
AcDbLine
 10
13908.80217064596
 20
969.8747482146441
 30
0.0
 11
13908.80217064596
 21
958.8856660426325
 31
0.0
1001
AUTOCAD_POSTSCRIPT_FIGURE
1002
{
1000
PSFILL
1000
Grayscale
1000
Grayscale
1070
   100
1002
}
  0
LINE
  5
1AEE6
330
1AC64
100
AcDbEntity
  8
YODOROGO
100
AcDbLine
 10
13944.80217064596
 20
969.8747482146441
 30
0.0
 11
13908.80217064596
 21
969.8747482146441
 31
0.0
1001
AUTOCAD_POSTSCRIPT_FIGURE
1002
{
1000
PSFILL
1000
Grayscale
1000
Grayscale
1070
   100
1002
}
  0
LINE
  5
1AEE7
330
1AC64
100
AcDbEntity
  8
YODOROGO
100
AcDbLine
 10
13944.80217064596
 20
950.2841744681497
 30
0.0
 11
13944.80217064596
 21
969.8747482146441
 31
0.0
1001
AUTOCAD_POSTSCRIPT_FIGURE
1002
{
1000
PSFILL
1000
Grayscale
1000
Grayscale
1070
   100
1002
}
  0
LINE
  5
1AEE8
330
1AC64
100
AcDbEntity
  8
YODOROGO
100
AcDbLine
 10
13928.80217064596
 20
950.2841744681497
 30
0.0
 11
13944.80217064596
 21
950.2841744681497
 31
0.0
1001
AUTOCAD_POSTSCRIPT_FIGURE
1002
{
1000
PSFILL
1000
Grayscale
1000
Grayscale
1070
   100
1002
}
  0
LINE
  5
1AEE9
330
1AC64
100
AcDbEntity
  8
YODOROGO
100
AcDbLine
 10
13928.80217064596
 20
942.2841744681491
 30
0.0
 11
13928.80217064596
 21
950.2841744681497
 31
0.0
1001
AUTOCAD_POSTSCRIPT_FIGURE
1002
{
1000
PSFILL
1000
Grayscale
1000
Grayscale
1070
   100
1002
}
  0
LINE
  5
1AEEA
330
1AC64
100
AcDbEntity
  8
YODOROGO
100
AcDbLine
 10
13944.80217064596
 20
942.2841744681491
 30
0.0
 11
13928.80217064596
 21
942.2841744681491
 31
0.0
1001
AUTOCAD_POSTSCRIPT_FIGURE
1002
{
1000
PSFILL
1000
Grayscale
1000
Grayscale
1070
   100
1002
}
  0
LINE
  5
1AEEB
330
1AC64
100
AcDbEntity
  8
YODOROGO
100
AcDbLine
 10
13944.80217064596
 20
939.8095889822196
 30
0.0
 11
13944.80217064596
 21
942.2841744681491
 31
0.0
1001
AUTOCAD_POSTSCRIPT_FIGURE
1002
{
1000
PSFILL
1000
Grayscale
1000
Grayscale
1070
   100
1002
}
  0
LINE
  5
1AEEC
330
1AC64
100
AcDbEntity
  8
YODOROGO
100
AcDbLine
 10
13924.80217064596
 20
906.4874905807087
 30
0.0
 11
13944.80217064596
 21
939.8095889822196
 31
0.0
1001
AUTOCAD_POSTSCRIPT_FIGURE
1002
{
1000
PSFILL
1000
Grayscale
1000
Grayscale
1070
   100
1002
}
  0
LINE
  5
1AEED
330
1AC64
100
AcDbEntity
  8
YODOROGO
100
AcDbLine
 10
13924.80217064596
 20
898.487490580708
 30
0.0
 11
13924.80217064596
 21
906.4874905807087
 31
0.0
1001
AUTOCAD_POSTSCRIPT_FIGURE
1002
{
1000
PSFILL
1000
Grayscale
1000
Grayscale
1070
   100
1002
}
  0
LINE
  5
1AEEE
330
1AC64
100
AcDbEntity
  8
YODOROGO
100
AcDbLine
 10
13944.80217064596
 20
923.8095889822183
 30
0.0
 11
13924.80217064596
 21
898.487490580708
 31
0.0
1001
AUTOCAD_POSTSCRIPT_FIGURE
1002
{
1000
PSFILL
1000
Grayscale
1000
Grayscale
1070
   100
1002
}
  0
LINE
  5
1AEEF
330
1AC64
100
AcDbEntity
  8
YODOROGO
100
AcDbLine
 10
13944.80217064596
 20
873.8747482146434
 30
0.0
 11
13944.80217064596
 21
923.8095889822183
 31
0.0
1001
AUTOCAD_POSTSCRIPT_FIGURE
1002
{
1000
PSFILL
1000
Grayscale
1000
Grayscale
1070
   100
1002
}
  0
LINE
  5
1AEF0
330
1AC64
100
AcDbEntity
  8
YODOROGO
100
AcDbLine
 10
13952.80217064596
 20
873.8747482146434
 30
0.0
 11
13944.80217064596
 21
873.8747482146434
 31
0.0
1001
AUTOCAD_POSTSCRIPT_FIGURE
1002
{
1000
PSFILL
1000
Grayscale
1000
Grayscale
1070
   100
1002
}
  0
LINE
  5
1AEF1
330
1AC64
100
AcDbEntity
  8
YODOROGO
100
AcDbLine
 10
13952.80217064596
 20
924.7045060794032
 30
0.0
 11
13952.80217064596
 21
873.8747482146434
 31
0.0
1001
AUTOCAD_POSTSCRIPT_FIGURE
1002
{
1000
PSFILL
1000
Grayscale
1000
Grayscale
1070
   100
1002
}
  0
LINE
  5
1AEF2
330
1AC64
100
AcDbEntity
  8
YODOROGO
100
AcDbLine
 10
13968.80217064596
 20
898.487490580708
 30
0.0
 11
13952.80217064596
 21
924.7045060794032
 31
0.0
1001
AUTOCAD_POSTSCRIPT_FIGURE
1002
{
1000
PSFILL
1000
Grayscale
1000
Grayscale
1070
   100
1002
}
  0
LINE
  5
1AEF3
330
1AC64
100
AcDbEntity
  8
YODOROGO
100
AcDbLine
 10
13968.80217064596
 20
906.4874905807087
 30
0.0
 11
13968.80217064596
 21
898.487490580708
 31
0.0
1001
AUTOCAD_POSTSCRIPT_FIGURE
1002
{
1000
PSFILL
1000
Grayscale
1000
Grayscale
1070
   100
1002
}
  0
LINE
  5
1AEF4
330
1AC64
100
AcDbEntity
  8
YODOROGO
100
AcDbLine
 10
13952.80217064596
 20
940.7045060794041
 30
0.0
 11
13968.80217064596
 21
906.4874905807087
 31
0.0
1001
AUTOCAD_POSTSCRIPT_FIGURE
1002
{
1000
PSFILL
1000
Grayscale
1000
Grayscale
1070
   100
1002
}
  0
LINE
  5
1AEF5
330
1AC64
100
AcDbEntity
  8
YODOROGO
100
AcDbLine
 10
13952.80217064596
 20
942.2841744681502
 30
0.0
 11
13952.80217064596
 21
940.7045060794041
 31
0.0
1001
AUTOCAD_POSTSCRIPT_FIGURE
1002
{
1000
PSFILL
1000
Grayscale
1000
Grayscale
1070
   100
1002
}
  0
LINE
  5
1AEF6
330
1AC64
100
AcDbEntity
  8
YODOROGO
100
AcDbLine
 10
13968.80217064596
 20
942.2841744681491
 30
0.0
 11
13952.80217064596
 21
942.2841744681502
 31
0.0
1001
AUTOCAD_POSTSCRIPT_FIGURE
1002
{
1000
PSFILL
1000
Grayscale
1000
Grayscale
1070
   100
1002
}
  0
LINE
  5
1AEF7
330
1AC64
100
AcDbEntity
  8
YODOROGO
100
AcDbLine
 10
13968.80217064596
 20
950.2841744681497
 30
0.0
 11
13968.80217064596
 21
942.2841744681491
 31
0.0
1001
AUTOCAD_POSTSCRIPT_FIGURE
1002
{
1000
PSFILL
1000
Grayscale
1000
Grayscale
1070
   100
1002
}
  0
LINE
  5
1AEF8
330
1AC64
100
AcDbEntity
  8
YODOROGO
100
AcDbLine
 10
13952.80217064596
 20
950.2841744681497
 30
0.0
 11
13968.80217064596
 21
950.2841744681497
 31
0.0
1001
AUTOCAD_POSTSCRIPT_FIGURE
1002
{
1000
PSFILL
1000
Grayscale
1000
Grayscale
1070
   100
1002
}
  0
LINE
  5
1AEF9
330
1AC64
100
AcDbEntity
  8
YODOROGO
100
AcDbLine
 10
13952.80217064596
 20
969.8747482146441
 30
0.0
 11
13952.80217064596
 21
950.2841744681497
 31
0.0
1001
AUTOCAD_POSTSCRIPT_FIGURE
1002
{
1000
PSFILL
1000
Grayscale
1000
Grayscale
1070
   100
1002
}
  0
LINE
  5
1AEFA
330
1AC64
100
AcDbEntity
  8
YODOROGO
100
AcDbLine
 10
13968.80217064596
 20
969.8747482146441
 30
0.0
 11
13952.80217064596
 21
969.8747482146441
 31
0.0
1001
AUTOCAD_POSTSCRIPT_FIGURE
1002
{
1000
PSFILL
1000
Grayscale
1000
Grayscale
1070
   100
1002
}
  0
LINE
  5
1AEFB
330
1AC64
100
AcDbEntity
  8
YODOROGO
100
AcDbLine
 10
13968.80217064596
 20
977.8747482146435
 30
0.0
 11
13968.80217064596
 21
969.8747482146441
 31
0.0
1001
AUTOCAD_POSTSCRIPT_FIGURE
1002
{
1000
PSFILL
1000
Grayscale
1000
Grayscale
1070
   100
1002
}
  0
LINE
  5
1AEFC
330
1AC64
100
AcDbEntity
  8
YODOROGO
100
AcDbLine
 10
13952.80217064596
 20
977.8747482146435
 30
0.0
 11
13968.80217064596
 21
977.8747482146435
 31
0.0
1001
AUTOCAD_POSTSCRIPT_FIGURE
1002
{
1000
PSFILL
1000
Grayscale
1000
Grayscale
1070
   100
1002
}
  0
LINE
  5
1AEFD
330
1AC64
100
AcDbEntity
  8
YODOROGO
100
AcDbLine
 10
13952.80217064596
 20
989.8747482146442
 30
0.0
 11
13952.80217064596
 21
977.8747482146435
 31
0.0
1001
AUTOCAD_POSTSCRIPT_FIGURE
1002
{
1000
PSFILL
1000
Grayscale
1000
Grayscale
1070
   100
1002
}
  0
LINE
  5
1AEFE
330
1AC64
100
AcDbEntity
  8
YODOROGO
100
AcDbLine
 10
13944.80217064596
 20
989.8747482146442
 30
0.0
 11
13952.80217064596
 21
989.8747482146442
 31
0.0
1001
AUTOCAD_POSTSCRIPT_FIGURE
1002
{
1000
PSFILL
1000
Grayscale
1000
Grayscale
1070
   100
1002
}
  0
LINE
  5
1AEFF
330
1AC64
100
AcDbEntity
  8
YODOROGO
100
AcDbLine
 10
13944.80217064596
 20
977.8747482146435
 30
0.0
 11
13944.80217064596
 21
989.8747482146442
 31
0.0
1001
AUTOCAD_POSTSCRIPT_FIGURE
1002
{
1000
PSFILL
1000
Grayscale
1000
Grayscale
1070
   100
1002
}
  0
LINE
  5
1AF00
330
1AC64
100
AcDbEntity
  8
YODOROGO
100
AcDbLine
 10
13932.80217064596
 20
977.8747482146435
 30
0.0
 11
13944.80217064596
 21
977.8747482146435
 31
0.0
1001
AUTOCAD_POSTSCRIPT_FIGURE
1002
{
1000
PSFILL
1000
Grayscale
1000
Grayscale
1070
   100
1002
}
  0
LINE
  5
1AF01
330
1AC64
100
AcDbEntity
  8
YODOROGO
100
AcDbLine
 10
13932.80217064596
 20
989.8747482146442
 30
0.0
 11
13932.80217064596
 21
977.8747482146435
 31
0.0
1001
AUTOCAD_POSTSCRIPT_FIGURE
1002
{
1000
PSFILL
1000
Grayscale
1000
Grayscale
1070
   100
1002
}
  0
LINE
  5
1AF02
330
1AC64
100
AcDbEntity
  8
YODOROGO
100
AcDbLine
 10
13924.80217064596
 20
989.8747482146442
 30
0.0
 11
13932.80217064596
 21
989.8747482146442
 31
0.0
1001
AUTOCAD_POSTSCRIPT_FIGURE
1002
{
1000
PSFILL
1000
Grayscale
1000
Grayscale
1070
   100
1002
}
  0
LINE
  5
1AF03
330
1AC64
100
AcDbEntity
  8
YODOROGO
100
AcDbLine
 10
13924.80217064596
 20
977.8747482146435
 30
0.0
 11
13924.80217064596
 21
989.8747482146442
 31
0.0
1001
AUTOCAD_POSTSCRIPT_FIGURE
1002
{
1000
PSFILL
1000
Grayscale
1000
Grayscale
1070
   100
1002
}
  0
LINE
  5
1AF04
330
1AC64
100
AcDbEntity
  8
YODOROGO
100
AcDbLine
 10
13908.80217064596
 20
977.8747482146435
 30
0.0
 11
13924.80217064596
 21
977.8747482146435
 31
0.0
1001
AUTOCAD_POSTSCRIPT_FIGURE
1002
{
1000
PSFILL
1000
Grayscale
1000
Grayscale
1070
   100
1002
}
  0
LINE
  5
1AF05
330
1AC64
100
AcDbEntity
  8
YODOROGO
100
AcDbLine
 10
13908.80217064596
 20
989.8747482146442
 30
0.0
 11
13908.80217064596
 21
977.8747482146435
 31
0.0
1001
AUTOCAD_POSTSCRIPT_FIGURE
1002
{
1000
PSFILL
1000
Grayscale
1000
Grayscale
1070
   100
1002
}
  0
LINE
  5
1AF06
330
1AC64
100
AcDbEntity
  8
YODOROGO
100
AcDbLine
 10
13900.80217064596
 20
989.8747482146442
 30
0.0
 11
13908.80217064596
 21
989.8747482146442
 31
0.0
1001
AUTOCAD_POSTSCRIPT_FIGURE
1002
{
1000
PSFILL
1000
Grayscale
1000
Grayscale
1070
   100
1002
}
  0
LINE
  5
1AF07
330
1AC64
100
AcDbEntity
  8
YODOROGO
100
AcDbLine
 10
13900.80217064596
 20
977.8747482146435
 30
0.0
 11
13900.80217064596
 21
989.8747482146442
 31
0.0
1001
AUTOCAD_POSTSCRIPT_FIGURE
1002
{
1000
PSFILL
1000
Grayscale
1000
Grayscale
1070
   100
1002
}
  0
LINE
  5
1AF08
330
1AC64
100
AcDbEntity
  8
YODOROGO
100
AcDbLine
 10
13888.80217064596
 20
977.8747482146435
 30
0.0
 11
13900.80217064596
 21
977.8747482146435
 31
0.0
1001
AUTOCAD_POSTSCRIPT_FIGURE
1002
{
1000
PSFILL
1000
Grayscale
1000
Grayscale
1070
   100
1002
}
  0
LINE
  5
1AF09
330
1AC64
100
AcDbEntity
  8
YODOROGO
100
AcDbLine
 10
13888.80217064596
 20
969.8747482146441
 30
0.0
 11
13888.80217064596
 21
977.8747482146435
 31
0.0
1001
AUTOCAD_POSTSCRIPT_FIGURE
1002
{
1000
PSFILL
1000
Grayscale
1000
Grayscale
1070
   100
1002
}
  0
LINE
  5
1AF0A
330
1AC64
100
AcDbEntity
  8
YODOROGO
100
AcDbLine
 10
13900.80217064596
 20
969.8747482146441
 30
0.0
 11
13888.80217064596
 21
969.8747482146441
 31
0.0
1001
AUTOCAD_POSTSCRIPT_FIGURE
1002
{
1000
PSFILL
1000
Grayscale
1000
Grayscale
1070
   100
1002
}
  0
LINE
  5
1AF0B
330
1AC64
100
AcDbEntity
  8
YODOROGO
100
AcDbLine
 10
13900.80217064596
 20
957.3932903968525
 30
0.0
 11
13900.80217064596
 21
969.8747482146441
 31
0.0
1001
AUTOCAD_POSTSCRIPT_FIGURE
1002
{
1000
PSFILL
1000
Grayscale
1000
Grayscale
1070
   100
1002
}
  0
LINE
  5
1AF0C
330
1AC64
100
AcDbEntity
  8
YODOROGO
100
AcDbLine
 10
13888.80217064596
 20
929.8883739758355
 30
0.0
 11
13900.80217064596
 21
957.3932903968525
 31
0.0
1001
AUTOCAD_POSTSCRIPT_FIGURE
1002
{
1000
PSFILL
1000
Grayscale
1000
Grayscale
1070
   100
1002
}
  0
LINE
  5
1AF0D
330
1AC64
100
AcDbEntity
  8
YODOROGO
100
AcDbLine
 10
13888.80217064596
 20
921.8883739758362
 30
0.0
 11
13888.80217064596
 21
929.8883739758355
 31
0.0
1001
AUTOCAD_POSTSCRIPT_FIGURE
1002
{
1000
PSFILL
1000
Grayscale
1000
Grayscale
1070
   100
1002
}
  0
LINE
  5
1AF0E
330
1AC64
100
AcDbEntity
  8
YODOROGO
100
AcDbLine
 10
14128.80217064596
 20
933.8747482146439
 30
0.0
 11
14200.80217064594
 21
912.4388128201532
 31
0.0
1001
AUTOCAD_POSTSCRIPT_FIGURE
1002
{
1000
PSFILL
1000
Grayscale
1000
Grayscale
1070
   100
1002
}
  0
LINE
  5
1AF0F
330
1AC64
100
AcDbEntity
  8
YODOROGO
100
AcDbLine
 10
14200.80217064594
 20
876.4388128201531
 30
0.0
 11
14128.80217064596
 21
897.8747482146435
 31
0.0
1001
AUTOCAD_POSTSCRIPT_FIGURE
1002
{
1000
PSFILL
1000
Grayscale
1000
Grayscale
1070
   100
1002
}
  0
LINE
  5
1AF10
330
1AC64
100
AcDbEntity
  8
YODOROGO
100
AcDbLine
 10
14200.80217064594
 20
992.4388128201531
 30
0.0
 11
14128.80217064596
 21
1013.874748214644
 31
0.0
1001
AUTOCAD_POSTSCRIPT_FIGURE
1002
{
1000
PSFILL
1000
Grayscale
1000
Grayscale
1070
   100
1002
}
  0
LINE
  5
1AF11
330
1AC64
100
AcDbEntity
  8
YODOROGO
100
AcDbLine
 10
14128.80217064596
 20
979.874748214644
 30
0.0
 11
14200.80217064594
 21
958.4388128201537
 31
0.0
1001
AUTOCAD_POSTSCRIPT_FIGURE
1002
{
1000
PSFILL
1000
Grayscale
1000
Grayscale
1070
   100
1002
}
  0
LINE
  5
1AF12
330
1AC64
100
AcDbEntity
  8
YODOROGO
100
AcDbLine
 10
14128.80217064596
 20
897.8747482146435
 30
0.0
 11
14128.80217064596
 21
933.8747482146439
 31
0.0
1001
AUTOCAD_POSTSCRIPT_FIGURE
1002
{
1000
PSFILL
1000
Grayscale
1000
Grayscale
1070
   100
1002
}
  0
LINE
  5
1AF13
330
1AC64
100
AcDbEntity
  8
YODOROGO
100
AcDbLine
 10
14128.80217064596
 20
1013.874748214644
 30
0.0
 11
14128.80217064596
 21
979.874748214644
 31
0.0
1001
AUTOCAD_POSTSCRIPT_FIGURE
1002
{
1000
PSFILL
1000
Grayscale
1000
Grayscale
1070
   100
1002
}
  0
LINE
  5
1AF14
330
1AC64
100
AcDbEntity
  8
YODOROGO
100
AcDbLine
 10
14040.11816010337
 20
969.8747482146441
 30
0.0
 11
14064.80217064595
 21
873.8747482146434
 31
0.0
1001
AUTOCAD_POSTSCRIPT_FIGURE
1002
{
1000
PSFILL
1000
Grayscale
1000
Grayscale
1070
   100
1002
}
  0
LINE
  5
1AF15
330
1AC64
100
AcDbEntity
  8
YODOROGO
100
AcDbLine
 10
13988.80217064596
 20
969.8747482146441
 30
0.0
 11
14040.11816010337
 21
969.8747482146441
 31
0.0
1001
AUTOCAD_POSTSCRIPT_FIGURE
1002
{
1000
PSFILL
1000
Grayscale
1000
Grayscale
1070
   100
1002
}
  0
LINE
  5
1AF16
330
1AC64
100
AcDbEntity
  8
YODOROGO
100
AcDbLine
 10
13988.80217064596
 20
977.8747482146435
 30
0.0
 11
13988.80217064596
 21
969.8747482146441
 31
0.0
1001
AUTOCAD_POSTSCRIPT_FIGURE
1002
{
1000
PSFILL
1000
Grayscale
1000
Grayscale
1070
   100
1002
}
  0
LINE
  5
1AF17
330
1AC64
100
AcDbEntity
  8
YODOROGO
100
AcDbLine
 10
14038.30343925995
 20
977.8747482146435
 30
0.0
 11
13988.80217064596
 21
977.8747482146435
 31
0.0
1001
AUTOCAD_POSTSCRIPT_FIGURE
1002
{
1000
PSFILL
1000
Grayscale
1000
Grayscale
1070
   100
1002
}
  0
LINE
  5
1AF18
330
1AC64
100
AcDbEntity
  8
YODOROGO
100
AcDbLine
 10
14035.58135799485
 20
989.8747482146442
 30
0.0
 11
14038.30343925995
 21
977.8747482146435
 31
0.0
1001
AUTOCAD_POSTSCRIPT_FIGURE
1002
{
1000
PSFILL
1000
Grayscale
1000
Grayscale
1070
   100
1002
}
  0
LINE
  5
1AF19
330
1AC64
100
AcDbEntity
  8
YODOROGO
100
AcDbLine
 10
14045.58135799485
 20
989.8747482146442
 30
0.0
 11
14035.58135799485
 21
989.8747482146442
 31
0.0
1001
AUTOCAD_POSTSCRIPT_FIGURE
1002
{
1000
PSFILL
1000
Grayscale
1000
Grayscale
1070
   100
1002
}
  0
LINE
  5
1AF1A
330
1AC64
100
AcDbEntity
  8
YODOROGO
100
AcDbLine
 10
14047.90343925997
 20
977.8747482146435
 30
0.0
 11
14045.58135799485
 21
989.8747482146442
 31
0.0
1001
AUTOCAD_POSTSCRIPT_FIGURE
1002
{
1000
PSFILL
1000
Grayscale
1000
Grayscale
1070
   100
1002
}
  0
LINE
  5
1AF1B
330
1AC64
100
AcDbEntity
  8
YODOROGO
100
AcDbLine
 10
14060.80217064596
 20
977.8747482146435
 30
0.0
 11
14047.90343925997
 21
977.8747482146435
 31
0.0
1001
AUTOCAD_POSTSCRIPT_FIGURE
1002
{
1000
PSFILL
1000
Grayscale
1000
Grayscale
1070
   100
1002
}
  0
LINE
  5
1AF1C
330
1AC64
100
AcDbEntity
  8
YODOROGO
100
AcDbLine
 10
14060.80217064596
 20
989.8747482146442
 30
0.0
 11
14060.80217064596
 21
977.8747482146435
 31
0.0
1001
AUTOCAD_POSTSCRIPT_FIGURE
1002
{
1000
PSFILL
1000
Grayscale
1000
Grayscale
1070
   100
1002
}
  0
LINE
  5
1AF1D
330
1AC64
100
AcDbEntity
  8
YODOROGO
100
AcDbLine
 10
14068.80217064596
 20
989.8747482146442
 30
0.0
 11
14060.80217064596
 21
989.8747482146442
 31
0.0
1001
AUTOCAD_POSTSCRIPT_FIGURE
1002
{
1000
PSFILL
1000
Grayscale
1000
Grayscale
1070
   100
1002
}
  0
LINE
  5
1AF1E
330
1AC64
100
AcDbEntity
  8
YODOROGO
100
AcDbLine
 10
14068.80217064596
 20
977.8747482146435
 30
0.0
 11
14068.80217064596
 21
989.8747482146442
 31
0.0
1001
AUTOCAD_POSTSCRIPT_FIGURE
1002
{
1000
PSFILL
1000
Grayscale
1000
Grayscale
1070
   100
1002
}
  0
LINE
  5
1AF1F
330
1AC64
100
AcDbEntity
  8
YODOROGO
100
AcDbLine
 10
14068.80217064596
 20
969.8747482146441
 30
0.0
 11
14068.80217064596
 21
977.8747482146435
 31
0.0
1001
AUTOCAD_POSTSCRIPT_FIGURE
1002
{
1000
PSFILL
1000
Grayscale
1000
Grayscale
1070
   100
1002
}
  0
LINE
  5
1AF20
330
1AC64
100
AcDbEntity
  8
YODOROGO
100
AcDbLine
 10
14049.45149343671
 20
969.8747482146441
 30
0.0
 11
14068.80217064596
 21
969.8747482146441
 31
0.0
1001
AUTOCAD_POSTSCRIPT_FIGURE
1002
{
1000
PSFILL
1000
Grayscale
1000
Grayscale
1070
   100
1002
}
  0
LINE
  5
1AF21
330
1AC64
100
AcDbEntity
  8
YODOROGO
100
AcDbLine
 10
14068.80217064596
 20
873.8747482146434
 30
0.0
 11
14049.45149343671
 21
969.8747482146441
 31
0.0
1001
AUTOCAD_POSTSCRIPT_FIGURE
1002
{
1000
PSFILL
1000
Grayscale
1000
Grayscale
1070
   100
1002
}
  0
LINE
  5
1AF22
330
1AC64
100
AcDbEntity
  8
YODOROGO
100
AcDbLine
 10
14064.80217064595
 20
873.8747482146434
 30
0.0
 11
14068.80217064596
 21
873.8747482146434
 31
0.0
1001
AUTOCAD_POSTSCRIPT_FIGURE
1002
{
1000
PSFILL
1000
Grayscale
1000
Grayscale
1070
   100
1002
}
  0
LINE
  5
1AF23
330
1AC64
100
AcDbEntity
  8
YODOROGO
100
AcDbLine
 10
14039.03460996689
 20
887.8703881493972
 30
0.0
 11
13988.80217064596
 21
873.8747482146434
 31
0.0
  0
LINE
  5
1AF24
330
1AC64
100
AcDbEntity
  8
YODOROGO
100
AcDbLine
 10
14039.03460996689
 20
899.3344897645364
 30
0.0
 11
14039.03460996689
 21
887.8703881493972
 31
0.0
  0
LINE
  5
1AF25
330
1AC64
100
AcDbEntity
  8
YODOROGO
100
AcDbLine
 10
14016.91839030643
 20
893.4084665668834
 30
0.0
 11
14039.03460996689
 21
899.3344897645364
 31
0.0
  0
LINE
  5
1AF26
330
1AC64
100
AcDbEntity
  8
YODOROGO
100
AcDbLine
 10
14016.91839030643
 20
936.2841744681499
 30
0.0
 11
14016.91839030643
 21
893.4084665668834
 31
0.0
  0
LINE
  5
1AF27
330
1AC64
100
AcDbEntity
  8
YODOROGO
100
AcDbLine
 10
14039.03460996689
 20
936.2841744681499
 30
0.0
 11
14016.91839030643
 21
936.2841744681499
 31
0.0
  0
LINE
  5
1AF28
330
1AC64
100
AcDbEntity
  8
YODOROGO
100
AcDbLine
 10
14039.03460996689
 20
946.2841744681487
 30
0.0
 11
14039.03460996689
 21
936.2841744681499
 31
0.0
  0
LINE
  5
1AF29
330
1AC64
100
AcDbEntity
  8
YODOROGO
100
AcDbLine
 10
13988.80217064596
 20
946.2841744681487
 30
0.0
 11
14039.03460996689
 21
946.2841744681487
 31
0.0
  0
LINE
  5
1AF2A
330
1AC64
100
AcDbEntity
  8
YODOROGO
100
AcDbLine
 10
13988.80217064596
 20
936.2841744681499
 30
0.0
 11
13988.80217064596
 21
946.2841744681487
 31
0.0
  0
LINE
  5
1AF2B
330
1AC64
100
AcDbEntity
  8
YODOROGO
100
AcDbLine
 10
14010.91839030643
 20
936.2841744681499
 30
0.0
 11
13988.80217064596
 21
936.2841744681499
 31
0.0
  0
LINE
  5
1AF2C
330
1AC64
100
AcDbEntity
  8
YODOROGO
100
AcDbLine
 10
14010.91839030643
 20
892.3366697971587
 30
0.0
 11
14010.91839030643
 21
936.2841744681499
 31
0.0
  0
LINE
  5
1AF2D
330
1AC64
100
AcDbEntity
  8
YODOROGO
100
AcDbLine
 10
13988.80217064596
 20
885.8747482146432
 30
0.0
 11
14010.91839030643
 21
892.3366697971587
 31
0.0
  0
LINE
  5
1AF2E
330
1AC64
100
AcDbEntity
  8
YODOROGO
100
AcDbLine
 10
13988.80217064596
 20
873.8747482146434
 30
0.0
 11
13988.80217064596
 21
885.8747482146432
 31
0.0
  0
LINE
  5
1AF2F
330
1AC64
100
AcDbEntity
  8
YODOROGO
100
AcDbLine
 10
14000.80217064596
 20
853.874748214644
 30
0.0
 11
14000.80217064596
 21
841.8747482146434
 31
0.0
  0
LINE
  5
1AF30
330
1AC64
100
AcDbEntity
  8
YODOROGO
100
AcDbLine
 10
14000.80217064596
 20
853.874748214644
 30
0.0
 11
14000.80217064596
 21
853.874748214644
 31
0.0
  0
LINE
  5
1AF31
330
1AC64
100
AcDbEntity
  8
YODOROGO
100
AcDbLine
 10
14008.80217064596
 20
853.874748214644
 30
0.0
 11
14000.80217064596
 21
853.874748214644
 31
0.0
  0
LINE
  5
1AF32
330
1AC64
100
AcDbEntity
  8
YODOROGO
100
AcDbLine
 10
14008.80217064596
 20
841.8747482146434
 30
0.0
 11
14008.80217064596
 21
853.874748214644
 31
0.0
  0
LINE
  5
1AF33
330
1AC64
100
AcDbEntity
  8
YODOROGO
100
AcDbLine
 10
14020.45660200844
 20
841.8747482146434
 30
0.0
 11
14008.80217064596
 21
841.8747482146434
 31
0.0
  0
LINE
  5
1AF34
330
1AC64
100
AcDbEntity
  8
YODOROGO
100
AcDbLine
 10
14000.80217064596
 20
841.8747482146434
 30
0.0
 11
13988.80217064596
 21
841.8747482146434
 31
0.0
  0
LINE
  5
1AF35
330
1AC64
100
AcDbEntity
  8
YODOROGO
100
AcDbLine
 10
14041.06776011546
 20
853.874748214644
 30
0.0
 11
14049.06776011545
 21
853.874748214644
 31
0.0
1001
AUTOCAD_POSTSCRIPT_FIGURE
1002
{
1000
PSFILL
1000
Grayscale
1000
Grayscale
1070
   100
1002
}
  0
LINE
  5
1AF36
330
1AC64
100
AcDbEntity
  8
YODOROGO
100
AcDbLine
 10
14200.80217064594
 20
912.4388128201532
 30
0.0
 11
14200.80217064594
 21
876.4388128201531
 31
0.0
1001
AUTOCAD_POSTSCRIPT_FIGURE
1002
{
1000
PSFILL
1000
Grayscale
1000
Grayscale
1070
   100
1002
}
  0
LINE
  5
1AF37
330
1AC64
100
AcDbEntity
  8
YODOROGO
100
AcDbLine
 10
14200.80217064594
 20
958.4388128201537
 30
0.0
 11
14200.80217064594
 21
992.4388128201531
 31
0.0
1001
AUTOCAD_POSTSCRIPT_FIGURE
1002
{
1000
PSFILL
1000
Grayscale
1000
Grayscale
1070
   100
1002
}
  0
LINE
  5
1AF38
330
1AC64
100
AcDbEntity
  8
YODOROGO
100
AcDbLine
 10
14216.80217064594
 20
909.8747482146439
 30
0.0
 11
14216.80217064594
 21
873.8747482146449
 31
0.0
  0
LINE
  5
1AF39
330
1AC64
100
AcDbEntity
  8
YODOROGO
100
AcDbLine
 10
14248.80217064594
 20
853.874748214644
 30
0.0
 11
14216.80217064594
 21
853.874748214644
 31
0.0
  0
LINE
  5
1AF3A
330
1AC64
100
AcDbEntity
  8
YODOROGO
100
AcDbLine
 10
14216.80217064594
 20
873.8747482146449
 30
0.0
 11
14292.80217064596
 21
873.8747482146449
 31
0.0
  0
LINE
  5
1AF3B
330
1AC64
100
AcDbEntity
  8
YODOROGO
100
AcDbLine
 10
14248.80217064594
 20
933.8747482146439
 30
0.0
 11
14216.80217064594
 21
933.8747482146439
 31
0.0
  0
LINE
  5
1AF3C
330
1AC64
100
AcDbEntity
  8
YODOROGO
100
AcDbLine
 10
14248.80217064594
 20
961.8747482146432
 30
0.0
 11
14248.80217064594
 21
933.8747482146439
 31
0.0
  0
LINE
  5
1AF3D
330
1AC64
100
AcDbEntity
  8
YODOROGO
100
AcDbLine
 10
14292.80217064596
 20
993.8747482146439
 30
0.0
 11
14292.80217064596
 21
1013.874748214644
 31
0.0
  0
LINE
  5
1AF3E
330
1AC64
100
AcDbEntity
  8
YODOROGO
100
AcDbLine
 10
14216.80217064594
 20
993.8747482146439
 30
0.0
 11
14292.80217064596
 21
993.8747482146439
 31
0.0
  0
LINE
  5
1AF3F
330
1AC64
100
AcDbEntity
  8
YODOROGO
100
AcDbLine
 10
14216.80217064594
 20
933.8747482146439
 30
0.0
 11
14216.80217064594
 21
993.8747482146439
 31
0.0
  0
LINE
  5
1AF40
330
1AC64
100
AcDbEntity
  8
YODOROGO
100
AcDbLine
 10
14500.80217064594
 20
1013.874748214644
 30
0.0
 11
14500.80217064594
 21
809.8747482146441
 31
0.0
  0
LINE
  5
1AF41
330
1AC64
100
AcDbEntity
  8
YODOROGO
100
AcDbLine
 10
14536.80217064596
 20
789.8747482146441
 30
0.0
 11
14536.80217064596
 21
1013.874748214644
 31
0.0
  0
LINE
  5
1AF42
330
1AC64
100
AcDbEntity
  8
YODOROGO
100
AcDbLine
 10
14630.80217064596
 20
745.8747482146431
 30
0.0
 11
14630.80217064596
 21
1003.874748214644
 31
0.0
  0
LINE
  5
1AF43
330
1AC64
100
AcDbEntity
  8
YODOROGO
100
AcDbLine
 10
14598.80217064596
 20
1003.874748214644
 30
0.0
 11
14598.80217064596
 21
745.8747482146431
 31
0.0
  0
LINE
  5
1AF44
330
1AC64
100
AcDbEntity
  8
YODOROGO
100
AcDbLine
 10
14692.80217064596
 20
1013.874748214644
 30
0.0
 11
14692.80217064596
 21
713.8747482146436
 31
0.0
  0
LINE
  5
1AF45
330
1AC64
100
AcDbEntity
  8
YODOROGO
100
AcDbLine
 10
14728.80217064596
 20
713.8747482146436
 30
0.0
 11
14728.80217064596
 21
1013.874748214644
 31
0.0
  0
LINE
  5
1AF46
330
1AC64
100
AcDbEntity
  8
YODOROGO
100
AcDbLine
 10
14328.80217064594
 20
833.8747482146439
 30
0.0
 11
14328.80217064594
 21
873.8747482146449
 31
0.0
  0
LINE
  5
1AF47
330
1AC64
100
AcDbEntity
  8
YODOROGO
100
AcDbLine
 10
14942.80217064596
 20
853.874748214644
 30
0.0
 11
14942.80217064596
 21
833.8747482146439
 31
0.0
  0
LINE
  5
1AF48
330
1AC64
100
AcDbEntity
  8
YODOROGO
100
AcDbLine
 10
14942.80217064596
 20
853.874748214644
 30
0.0
 11
14942.80217064596
 21
833.8747482146439
 31
0.0
  0
ARC
  5
1AF49
330
1AC64
100
AcDbEntity
  8
YODOROGO
100
AcDbCircle
 10
14453.45578809342
 20
809.1089322211363
 30
0.0
 40
47.35257558937082
100
AcDbArc
 50
274.052441629071
 51
0.9266642149310712
  0
ARC
  5
1AF4A
330
1AC64
100
AcDbEntity
  8
YODOROGO
100
AcDbCircle
 10
14454.5930853599
 20
796.30536430522
 30
0.0
 40
82.46021178042756
100
AcDbArc
 50
271.5351210653777
 51
355.5272775058505
  0
LINE
  5
1AF4B
330
1AC64
100
AcDbEntity
  8
YODOROGO
100
AcDbLine
 10
14456.80217064596
 20
761.8747482146434
 30
0.0
 11
14456.80217064596
 21
713.8747482146436
 31
0.0
  0
LINE
  5
1AF4C
330
1AC64
100
AcDbEntity
  8
YODOROGO
100
AcDbLine
 10
14396.80217064594
 20
833.8747482146439
 30
0.0
 11
14328.80217064594
 21
833.8747482146439
 31
0.0
  0
LINE
  5
1AF4D
330
1AC64
100
AcDbEntity
  8
YODOROGO
100
AcDbLine
 10
14396.80217064594
 20
801.8747482146444
 30
0.0
 11
14396.80217064594
 21
833.8747482146439
 31
0.0
  0
LINE
  5
1AF4E
330
1AC64
100
AcDbEntity
  8
YODOROGO
100
AcDbLine
 10
14328.80217064594
 20
801.8747482146444
 30
0.0
 11
14396.80217064594
 21
801.8747482146444
 31
0.0
  0
LINE
  5
1AF4F
330
1AC64
100
AcDbEntity
  8
YODOROGO
100
AcDbLine
 10
14328.80217064594
 20
761.8747482146434
 30
0.0
 11
14328.80217064594
 21
801.8747482146444
 31
0.0
  0
LINE
  5
1AF50
330
1AC64
100
AcDbEntity
  8
YODOROGO
100
AcDbLine
 10
14396.80217064594
 20
761.8747482146434
 30
0.0
 11
14328.80217064594
 21
761.8747482146434
 31
0.0
  0
LINE
  5
1AF51
330
1AC64
100
AcDbEntity
  8
YODOROGO
100
AcDbLine
 10
14396.80217064594
 20
713.8747482146436
 30
0.0
 11
14396.80217064594
 21
761.8747482146434
 31
0.0
  0
LINE
  5
1AF52
330
1AC64
100
AcDbEntity
  8
YODOROGO
100
AcDbLine
 10
14598.80217064596
 20
745.8747482146431
 30
0.0
 11
14630.80217064596
 21
745.8747482146431
 31
0.0
  0
LINE
  5
1AF53
330
1AC64
100
AcDbEntity
  8
YODOROGO
100
AcDbLine
 10
14692.80217064596
 20
713.8747482146436
 30
0.0
 11
14728.80217064596
 21
713.8747482146436
 31
0.0
  0
LINE
  5
1AF54
330
1AC64
100
AcDbEntity
  8
YODOROGO
100
AcDbLine
 10
14868.80217064596
 20
764.2207260852818
 30
0.0
 11
14868.80217064596
 21
713.8747482146436
 31
0.0
  0
LINE
  5
1AF55
330
1AC64
100
AcDbEntity
  8
YODOROGO
100
AcDbLine
 10
14808.80217064596
 20
713.8747482146436
 30
0.0
 11
14868.80217064596
 21
764.2207260852818
 31
0.0
  0
LINE
  5
1AF56
330
1AC64
100
AcDbEntity
  8
YODOROGO
100
AcDbLine
 10
14808.80217064596
 20
773.874748214644
 30
0.0
 11
14808.80217064596
 21
713.8747482146436
 31
0.0
  0
LINE
  5
1AF57
330
1AC64
100
AcDbEntity
  8
YODOROGO
100
AcDbLine
 10
14856.47231434973
 20
813.8747482146435
 30
0.0
 11
14808.80217064596
 21
773.874748214644
 31
0.0
  0
LINE
  5
1AF58
330
1AC64
100
AcDbEntity
  8
YODOROGO
100
AcDbLine
 10
14808.80217064596
 20
813.8747482146435
 30
0.0
 11
14856.47231434973
 21
813.8747482146435
 31
0.0
  0
LINE
  5
1AF59
330
1AC64
100
AcDbEntity
  8
YODOROGO
100
AcDbLine
 10
14808.80217064596
 20
833.8747482146439
 30
0.0
 11
14808.80217064596
 21
813.8747482146435
 31
0.0
  0
LINE
  5
1AF5A
330
1AC64
100
AcDbEntity
  8
YODOROGO
100
AcDbLine
 10
14942.80217064596
 20
833.8747482146439
 30
0.0
 11
14808.80217064596
 21
833.8747482146439
 31
0.0
  0
LINE
  5
1AF5B
330
1AC64
100
AcDbEntity
  8
YODOROGO
100
AcDbLine
 10
14958.80217064596
 20
813.8747482146435
 30
0.0
 11
14888.80217064596
 21
813.8747482146435
 31
0.0
  0
LINE
  5
1AF5C
330
1AC64
100
AcDbEntity
  8
YODOROGO
100
AcDbLine
 10
14888.80217064596
 20
781.0027187088283
 30
0.0
 11
14885.70493649264
 21
778.403830673117
 31
0.0
  0
LINE
  5
1AF5D
330
1AC64
100
AcDbEntity
  8
YODOROGO
100
AcDbLine
 10
14888.80217064596
 20
813.8747482146435
 30
0.0
 11
14888.80217064596
 21
781.0027187088283
 31
0.0
  0
LINE
  5
1AF5E
330
1AC64
100
AcDbEntity
  8
YODOROGO
100
AcDbLine
 10
14868.80217064596
 20
764.2207260852818
 30
0.0
 11
14868.80217064596
 21
713.8747482146436
 31
0.0
  0
LINE
  5
1AF5F
330
1AC64
100
AcDbEntity
  8
YODOROGO
100
AcDbLine
 10
14808.80217064596
 20
713.8747482146436
 30
0.0
 11
14868.80217064596
 21
764.2207260852818
 31
0.0
  0
LINE
  5
1AF60
330
1AC64
100
AcDbEntity
  8
YODOROGO
100
AcDbLine
 10
14808.80217064596
 20
773.874748214644
 30
0.0
 11
14808.80217064596
 21
713.8747482146436
 31
0.0
  0
LINE
  5
1AF61
330
1AC64
100
AcDbEntity
  8
YODOROGO
100
AcDbLine
 10
14856.47231434973
 20
813.8747482146435
 30
0.0
 11
14808.80217064596
 21
773.874748214644
 31
0.0
  0
LINE
  5
1AF62
330
1AC64
100
AcDbEntity
  8
YODOROGO
100
AcDbLine
 10
14808.80217064596
 20
813.8747482146435
 30
0.0
 11
14856.47231434973
 21
813.8747482146435
 31
0.0
  0
LINE
  5
1AF63
330
1AC64
100
AcDbEntity
  8
YODOROGO
100
AcDbLine
 10
14808.80217064596
 20
833.8747482146439
 30
0.0
 11
14808.80217064596
 21
813.8747482146435
 31
0.0
  0
LINE
  5
1AF64
330
1AC64
100
AcDbEntity
  8
YODOROGO
100
AcDbLine
 10
14942.80217064596
 20
833.8747482146439
 30
0.0
 11
14808.80217064596
 21
833.8747482146439
 31
0.0
  0
LINE
  5
1AF65
330
1AC64
100
AcDbEntity
  8
YODOROGO
100
AcDbLine
 10
14396.80217064594
 20
873.8747482146449
 30
0.0
 11
14396.80217064594
 21
909.8747482146439
 31
0.0
  0
LINE
  5
1AF66
330
1AC64
100
AcDbEntity
  8
YODOROGO
100
AcDbLine
 10
14328.80217064594
 20
873.8747482146449
 30
0.0
 11
14396.80217064594
 21
873.8747482146449
 31
0.0
  0
LINE
  5
1AF67
330
1AC64
100
AcDbEntity
  8
YODOROGO
100
AcDbLine
 10
14364.80217064596
 20
933.8747482146439
 30
0.0
 11
14364.80217064596
 21
961.8747482146432
 31
0.0
  0
LINE
  5
1AF68
330
1AC64
100
AcDbEntity
  8
YODOROGO
100
AcDbLine
 10
14396.80217064594
 20
933.8747482146439
 30
0.0
 11
14364.80217064596
 21
933.8747482146439
 31
0.0
  0
LINE
  5
1AF69
330
1AC64
100
AcDbEntity
  8
YODOROGO
100
AcDbLine
 10
14396.80217064594
 20
973.8747482146434
 30
0.0
 11
14396.80217064594
 21
933.8747482146439
 31
0.0
  0
ARC
  5
1AF6A
330
1AC64
100
AcDbEntity
  8
YODOROGO
100
AcDbCircle
 10
14376.80217064594
 20
973.8747482146434
 30
0.0
 40
20.0
100
AcDbArc
 50
0.0
 51
90.0
  0
LINE
  5
1AF6B
330
1AC64
100
AcDbEntity
  8
YODOROGO
100
AcDbLine
 10
14328.80217064596
 20
993.8747482146439
 30
0.0
 11
14376.80217064594
 21
993.8747482146439
 31
0.0
  0
LINE
  5
1AF6C
330
1AC64
100
AcDbEntity
  8
YODOROGO
100
AcDbLine
 10
14328.80217064596
 20
1013.874748214644
 30
0.0
 11
14328.80217064596
 21
993.8747482146439
 31
0.0
  0
LINE
  5
1AF6D
330
1AC64
100
AcDbEntity
  8
YODOROGO
100
AcDbLine
 10
14536.80217064596
 20
1013.874748214644
 30
0.0
 11
14500.80217064594
 21
1013.874748214644
 31
0.0
  0
LINE
  5
1AF6E
330
1AC64
100
AcDbEntity
  8
YODOROGO
100
AcDbLine
 10
14630.80217064596
 20
1003.874748214644
 30
0.0
 11
14598.80217064596
 21
1003.874748214644
 31
0.0
  0
LINE
  5
1AF6F
330
1AC64
100
AcDbEntity
  8
YODOROGO
100
AcDbLine
 10
14728.80217064596
 20
1013.874748214644
 30
0.0
 11
14692.80217064596
 21
1013.874748214644
 31
0.0
  0
LINE
  5
1AF70
330
1AC64
100
AcDbEntity
  8
YODOROGO
100
AcDbLine
 10
14836.80217064596
 20
853.874748214644
 30
0.0
 11
14836.80217064596
 21
885.8747482146441
 31
0.0
1001
AUTOCAD_POSTSCRIPT_FIGURE
1002
{
1000
PSFILL
1000
Grayscale
1000
Grayscale
1070
    25
1002
}
  0
LINE
  5
1AF71
330
1AC64
100
AcDbEntity
  8
YODOROGO
100
AcDbLine
 10
14808.80217064596
 20
853.874748214644
 30
0.0
 11
14836.80217064596
 21
853.874748214644
 31
0.0
1001
AUTOCAD_POSTSCRIPT_FIGURE
1002
{
1000
PSFILL
1000
Grayscale
1000
Grayscale
1070
    25
1002
}
  0
LINE
  5
1AF72
330
1AC64
100
AcDbEntity
  8
YODOROGO
100
AcDbLine
 10
14808.80217064596
 20
909.8747482146439
 30
0.0
 11
14808.80217064596
 21
853.874748214644
 31
0.0
1001
AUTOCAD_POSTSCRIPT_FIGURE
1002
{
1000
PSFILL
1000
Grayscale
1000
Grayscale
1070
    25
1002
}
  0
LINE
  5
1AF73
330
1AC64
100
AcDbEntity
  8
YODOROGO
100
AcDbLine
 10
14882.80217064596
 20
909.8747482146439
 30
0.0
 11
14808.80217064596
 21
909.8747482146439
 31
0.0
1001
AUTOCAD_POSTSCRIPT_FIGURE
1002
{
1000
PSFILL
1000
Grayscale
1000
Grayscale
1070
    25
1002
}
  0
LINE
  5
1AF74
330
1AC64
100
AcDbEntity
  8
YODOROGO
100
AcDbLine
 10
14882.80217064596
 20
929.874748214644
 30
0.0
 11
14882.80217064596
 21
909.8747482146439
 31
0.0
1001
AUTOCAD_POSTSCRIPT_FIGURE
1002
{
1000
PSFILL
1000
Grayscale
1000
Grayscale
1070
    25
1002
}
  0
LINE
  5
1AF75
330
1AC64
100
AcDbEntity
  8
YODOROGO
100
AcDbLine
 10
14808.80217064596
 20
929.874748214644
 30
0.0
 11
14882.80217064596
 21
929.874748214644
 31
0.0
1001
AUTOCAD_POSTSCRIPT_FIGURE
1002
{
1000
PSFILL
1000
Grayscale
1000
Grayscale
1070
    25
1002
}
  0
LINE
  5
1AF76
330
1AC64
100
AcDbEntity
  8
YODOROGO
100
AcDbLine
 10
14808.80217064596
 20
953.874748214644
 30
0.0
 11
14808.80217064596
 21
929.874748214644
 31
0.0
1001
AUTOCAD_POSTSCRIPT_FIGURE
1002
{
1000
PSFILL
1000
Grayscale
1000
Grayscale
1070
    25
1002
}
  0
LINE
  5
1AF77
330
1AC64
100
AcDbEntity
  8
YODOROGO
100
AcDbLine
 10
14882.80217064596
 20
953.874748214644
 30
0.0
 11
14808.80217064596
 21
953.874748214644
 31
0.0
1001
AUTOCAD_POSTSCRIPT_FIGURE
1002
{
1000
PSFILL
1000
Grayscale
1000
Grayscale
1070
    25
1002
}
  0
LINE
  5
1AF78
330
1AC64
100
AcDbEntity
  8
YODOROGO
100
AcDbLine
 10
14882.80217064596
 20
973.8747482146434
 30
0.0
 11
14882.80217064596
 21
953.874748214644
 31
0.0
1001
AUTOCAD_POSTSCRIPT_FIGURE
1002
{
1000
PSFILL
1000
Grayscale
1000
Grayscale
1070
    25
1002
}
  0
LINE
  5
1AF79
330
1AC64
100
AcDbEntity
  8
YODOROGO
100
AcDbLine
 10
14808.80217064596
 20
973.8747482146434
 30
0.0
 11
14882.80217064596
 21
973.8747482146434
 31
0.0
1001
AUTOCAD_POSTSCRIPT_FIGURE
1002
{
1000
PSFILL
1000
Grayscale
1000
Grayscale
1070
    25
1002
}
  0
LINE
  5
1AF7A
330
1AC64
100
AcDbEntity
  8
YODOROGO
100
AcDbLine
 10
14808.80217064596
 20
1013.874748214644
 30
0.0
 11
14808.80217064596
 21
973.8747482146434
 31
0.0
1001
AUTOCAD_POSTSCRIPT_FIGURE
1002
{
1000
PSFILL
1000
Grayscale
1000
Grayscale
1070
    25
1002
}
  0
LINE
  5
1AF7B
330
1AC64
100
AcDbEntity
  8
YODOROGO
100
AcDbLine
 10
14832.80217064596
 20
1013.874748214644
 30
0.0
 11
14808.80217064596
 21
1013.874748214644
 31
0.0
1001
AUTOCAD_POSTSCRIPT_FIGURE
1002
{
1000
PSFILL
1000
Grayscale
1000
Grayscale
1070
    25
1002
}
  0
LINE
  5
1AF7C
330
1AC64
100
AcDbEntity
  8
YODOROGO
100
AcDbLine
 10
14832.80217064596
 20
997.8747482146435
 30
0.0
 11
14832.80217064596
 21
1013.874748214644
 31
0.0
1001
AUTOCAD_POSTSCRIPT_FIGURE
1002
{
1000
PSFILL
1000
Grayscale
1000
Grayscale
1070
    25
1002
}
  0
LINE
  5
1AF7D
330
1AC64
100
AcDbEntity
  8
YODOROGO
100
AcDbLine
 10
14882.80217064596
 20
997.8747482146435
 30
0.0
 11
14832.80217064596
 21
997.8747482146435
 31
0.0
1001
AUTOCAD_POSTSCRIPT_FIGURE
1002
{
1000
PSFILL
1000
Grayscale
1000
Grayscale
1070
    25
1002
}
  0
LINE
  5
1AF7E
330
1AC64
100
AcDbEntity
  8
YODOROGO
100
AcDbLine
 10
14882.80217064596
 20
1013.874748214644
 30
0.0
 11
14882.80217064596
 21
997.8747482146435
 31
0.0
1001
AUTOCAD_POSTSCRIPT_FIGURE
1002
{
1000
PSFILL
1000
Grayscale
1000
Grayscale
1070
    25
1002
}
  0
LINE
  5
1AF7F
330
1AC64
100
AcDbEntity
  8
YODOROGO
100
AcDbLine
 10
14914.80217064596
 20
1013.874748214644
 30
0.0
 11
14882.80217064596
 21
1013.874748214644
 31
0.0
1001
AUTOCAD_POSTSCRIPT_FIGURE
1002
{
1000
PSFILL
1000
Grayscale
1000
Grayscale
1070
    25
1002
}
  0
LINE
  5
1AF80
330
1AC64
100
AcDbEntity
  8
YODOROGO
100
AcDbLine
 10
14914.80217064596
 20
997.8747482146435
 30
0.0
 11
14914.80217064596
 21
1013.874748214644
 31
0.0
1001
AUTOCAD_POSTSCRIPT_FIGURE
1002
{
1000
PSFILL
1000
Grayscale
1000
Grayscale
1070
    25
1002
}
  0
LINE
  5
1AF81
330
1AC64
100
AcDbEntity
  8
YODOROGO
100
AcDbLine
 10
14914.80217064596
 20
953.874748214644
 30
0.0
 11
14914.80217064596
 21
973.8747482146434
 31
0.0
1001
AUTOCAD_POSTSCRIPT_FIGURE
1002
{
1000
PSFILL
1000
Grayscale
1000
Grayscale
1070
    25
1002
}
  0
LINE
  5
1AF82
330
1AC64
100
AcDbEntity
  8
YODOROGO
100
AcDbLine
 10
14914.80217064596
 20
909.8747482146439
 30
0.0
 11
14914.80217064596
 21
929.874748214644
 31
0.0
1001
AUTOCAD_POSTSCRIPT_FIGURE
1002
{
1000
PSFILL
1000
Grayscale
1000
Grayscale
1070
    25
1002
}
  0
LINE
  5
1AF83
330
1AC64
100
AcDbEntity
  8
YODOROGO
100
AcDbLine
 10
14960.80217064594
 20
885.8747482146441
 30
0.0
 11
14960.80217064594
 21
853.874748214644
 31
0.0
1001
AUTOCAD_POSTSCRIPT_FIGURE
1002
{
1000
PSFILL
1000
Grayscale
1000
Grayscale
1070
    25
1002
}
  0
LINE
  5
1AF84
330
1AC64
100
AcDbEntity
  8
YODOROGO
100
AcDbLine
 10
14914.80217064596
 20
885.8747482146441
 30
0.0
 11
14960.80217064594
 21
885.8747482146441
 31
0.0
1001
AUTOCAD_POSTSCRIPT_FIGURE
1002
{
1000
PSFILL
1000
Grayscale
1000
Grayscale
1070
    25
1002
}
  0
LINE
  5
1AF85
330
1AC64
100
AcDbEntity
  8
YODOROGO
100
AcDbLine
 10
14914.80217064596
 20
853.874748214644
 30
0.0
 11
14914.80217064596
 21
885.8747482146441
 31
0.0
1001
AUTOCAD_POSTSCRIPT_FIGURE
1002
{
1000
PSFILL
1000
Grayscale
1000
Grayscale
1070
    25
1002
}
  0
LINE
  5
1AF86
330
1AC64
100
AcDbEntity
  8
YODOROGO
100
AcDbLine
 10
14882.80217064596
 20
853.874748214644
 30
0.0
 11
14914.80217064596
 21
853.874748214644
 31
0.0
1001
AUTOCAD_POSTSCRIPT_FIGURE
1002
{
1000
PSFILL
1000
Grayscale
1000
Grayscale
1070
    25
1002
}
  0
LINE
  5
1AF87
330
1AC64
100
AcDbEntity
  8
YODOROGO
100
AcDbLine
 10
14882.80217064596
 20
885.8747482146441
 30
0.0
 11
14882.80217064596
 21
853.874748214644
 31
0.0
1001
AUTOCAD_POSTSCRIPT_FIGURE
1002
{
1000
PSFILL
1000
Grayscale
1000
Grayscale
1070
    25
1002
}
  0
LINE
  5
1AF88
330
1AC64
100
AcDbEntity
  8
YODOROGO
100
AcDbLine
 10
14836.80217064596
 20
885.8747482146441
 30
0.0
 11
14882.80217064596
 21
885.8747482146441
 31
0.0
1001
AUTOCAD_POSTSCRIPT_FIGURE
1002
{
1000
PSFILL
1000
Grayscale
1000
Grayscale
1070
    25
1002
}
  0
ARC
  5
1AF89
330
1AC64
100
AcDbEntity
  8
YODOROGO
100
AcDbCircle
 10
15529.75894667896
 20
801.3403687577881
 30
0.0
 40
89.11064055536078
100
AcDbArc
 50
281.0262749542535
 51
357.771135755738
  0
LINE
  5
1AF8A
330
1AC64
100
AcDbEntity
  8
YODOROGO
100
AcDbLine
 10
15706.80217064596
 20
953.874748214644
 30
0.0
 11
15582.80217064596
 21
953.874748214644
 31
0.0
  0
LINE
  5
1AF8B
330
1AC64
100
AcDbEntity
  8
YODOROGO
100
AcDbLine
 10
15706.80217064596
 20
1013.874748214644
 30
0.0
 11
15582.80217064596
 21
1013.874748214644
 31
0.0
  0
LINE
  5
1AF8C
330
1AC64
100
AcDbEntity
  8
YODOROGO
100
AcDbLine
 10
15582.80217064596
 20
981.8747482146434
 30
0.0
 11
15706.80217064596
 21
981.8747482146434
 31
0.0
  0
LINE
  5
1AF8D
330
1AC64
100
AcDbEntity
  8
YODOROGO
100
AcDbLine
 10
15395.80217064596
 20
781.8747482146434
 30
0.0
 11
15395.80217064596
 21
877.8747482146435
 31
0.0
  0
LINE
  5
1AF8E
330
1AC64
100
AcDbEntity
  8
YODOROGO
100
AcDbLine
 10
15381.80217064596
 20
845.8747482146444
 30
0.0
 11
15381.80217064596
 21
781.8747482146434
 31
0.0
  0
LINE
  5
1AF8F
330
1AC64
100
AcDbEntity
  8
YODOROGO
100
AcDbLine
 10
15361.80217064596
 20
745.8747482146443
 30
0.0
 11
15361.80217064596
 21
845.8747482146444
 31
0.0
  0
LINE
  5
1AF90
330
1AC64
100
AcDbEntity
  8
YODOROGO
100
AcDbLine
 10
15449.80217064596
 20
845.8747482146444
 30
0.0
 11
15449.80217064596
 21
745.8747482146443
 31
0.0
  0
LINE
  5
1AF91
330
1AC64
100
AcDbEntity
  8
YODOROGO
100
AcDbLine
 10
15429.80217064596
 20
781.8747482146434
 30
0.0
 11
15429.80217064596
 21
845.8747482146444
 31
0.0
  0
LINE
  5
1AF92
330
1AC64
100
AcDbEntity
  8
YODOROGO
100
AcDbLine
 10
15415.80217064596
 20
877.8747482146435
 30
0.0
 11
15415.80217064596
 21
781.8747482146434
 31
0.0
  0
LINE
  5
1AF93
330
1AC64
100
AcDbEntity
  8
YODOROGO
100
AcDbLine
 10
15486.80217064596
 20
1013.874748214644
 30
0.0
 11
15486.80217064596
 21
733.8747482146435
 31
0.0
  0
LINE
  5
1AF94
330
1AC64
100
AcDbEntity
  8
YODOROGO
100
AcDbLine
 10
15322.80217064596
 20
713.8747482146436
 30
0.0
 11
15322.80217064596
 21
1013.874748214644
 31
0.0
  0
LINE
  5
1AF95
330
1AC64
100
AcDbEntity
  8
YODOROGO
100
AcDbLine
 10
15348.80217064596
 20
981.8747482146434
 30
0.0
 11
15348.80217064596
 21
713.8747482146436
 31
0.0
  0
LINE
  5
1AF96
330
1AC64
100
AcDbEntity
  8
YODOROGO
100
AcDbLine
 10
15462.80217064596
 20
773.874748214644
 30
0.0
 11
15462.80217064596
 21
981.8747482146434
 31
0.0
  0
LINE
  5
1AF97
330
1AC64
100
AcDbEntity
  8
YODOROGO
100
AcDbLine
 10
15190.80217064596
 20
813.8747482146435
 30
0.0
 11
15190.80217064596
 21
839.8747482146442
 31
0.0
  0
LINE
  5
1AF98
330
1AC64
100
AcDbEntity
  8
YODOROGO
100
AcDbLine
 10
15308.80217064596
 20
839.8747482146442
 30
0.0
 11
15308.80217064596
 21
813.8747482146435
 31
0.0
  0
LINE
  5
1AF99
330
1AC64
100
AcDbEntity
  8
YODOROGO
100
AcDbLine
 10
15582.80217064596
 20
953.874748214644
 30
0.0
 11
15582.80217064596
 21
817.8747482146436
 31
0.0
  0
LINE
  5
1AF9A
330
1AC64
100
AcDbEntity
  8
YODOROGO
100
AcDbLine
 10
14974.80217064595
 20
833.8747482146439
 30
0.0
 11
14974.80217064595
 21
853.874748214644
 31
0.0
  0
LINE
  5
1AF9B
330
1AC64
100
AcDbEntity
  8
YODOROGO
100
AcDbLine
 10
14974.80217064595
 20
833.8747482146439
 30
0.0
 11
14974.80217064595
 21
853.874748214644
 31
0.0
  0
ARC
  5
1AF9C
330
1AC64
100
AcDbEntity
  8
YODOROGO
100
AcDbCircle
 10
15268.80217064596
 20
753.8747482146439
 30
0.0
 40
40.0
100
AcDbArc
 50
270.0
 51
0.0
  0
LINE
  5
1AF9D
330
1AC64
100
AcDbEntity
  8
YODOROGO
100
AcDbLine
 10
15284.80217064596
 20
799.8747482146441
 30
0.0
 11
15308.80217064596
 21
799.8747482146441
 31
0.0
  0
LINE
  5
1AF9E
330
1AC64
100
AcDbEntity
  8
YODOROGO
100
AcDbLine
 10
15308.80217064596
 20
813.8747482146435
 30
0.0
 11
15264.80217064596
 21
813.8747482146435
 31
0.0
  0
LINE
  5
1AF9F
330
1AC64
100
AcDbEntity
  8
YODOROGO
100
AcDbLine
 10
15108.80217064596
 20
833.8747482146439
 30
0.0
 11
14974.80217064595
 21
833.8747482146439
 31
0.0
  0
LINE
  5
1AFA0
330
1AC64
100
AcDbEntity
  8
YODOROGO
100
AcDbLine
 10
15108.80217064596
 20
813.8747482146435
 30
0.0
 11
15108.80217064596
 21
833.8747482146439
 31
0.0
  0
LINE
  5
1AFA1
330
1AC64
100
AcDbEntity
  8
YODOROGO
100
AcDbLine
 10
15008.80217064596
 20
813.8747482146435
 30
0.0
 11
15108.80217064596
 21
813.8747482146435
 31
0.0
  0
ARC
  5
1AFA2
330
1AC64
100
AcDbEntity
  8
YODOROGO
100
AcDbCircle
 10
15115.02941435068
 20
934.4428574764513
 30
0.0
 40
160.6888181426141
100
AcDbArc
 50
228.6181454618993
 51
245.660289248906
  0
LINE
  5
1AFA3
330
1AC64
100
AcDbEntity
  8
YODOROGO
100
AcDbLine
 10
15052.80217064596
 20
801.8747482146444
 30
0.0
 11
15048.80217064598
 21
788.0364079349501
 31
0.0
  0
LINE
  5
1AFA4
330
1AC64
100
AcDbEntity
  8
YODOROGO
100
AcDbLine
 10
15094.80217064596
 20
801.8747482146444
 30
0.0
 11
15052.80217064596
 21
801.8747482146444
 31
0.0
  0
LINE
  5
1AFA5
330
1AC64
100
AcDbEntity
  8
YODOROGO
100
AcDbLine
 10
15088.80217064596
 20
775.9088612367134
 30
0.0
 11
15094.80217064596
 21
801.8747482146444
 31
0.0
  0
ARC
  5
1AFA6
330
1AC64
100
AcDbEntity
  8
YODOROGO
100
AcDbCircle
 10
15115.02941435023
 20
934.4428574765014
 30
0.0
 40
160.6888181426453
100
AcDbArc
 50
260.6062929796992
 51
267.7790355655586
  0
LINE
  5
1AFA7
330
1AC64
100
AcDbEntity
  8
YODOROGO
100
AcDbLine
 10
15108.80217064596
 20
713.8747482146428
 30
0.0
 11
15108.80217064596
 21
773.874748214644
 31
0.0
  0
LINE
  5
1AFA8
330
1AC64
100
AcDbEntity
  8
YODOROGO
100
AcDbLine
 10
14968.80217064596
 20
740.6696674577553
 30
0.0
 11
14968.80217064596
 21
797.2655452655705
 31
0.0
  0
LINE
  5
1AFA9
330
1AC64
100
AcDbEntity
  8
YODOROGO
100
AcDbLine
 10
15108.80217064596
 20
833.8747482146439
 30
0.0
 11
14974.80217064595
 21
833.8747482146439
 31
0.0
  0
LINE
  5
1AFAA
330
1AC64
100
AcDbEntity
  8
YODOROGO
100
AcDbLine
 10
15108.80217064596
 20
813.8747482146435
 30
0.0
 11
15108.80217064596
 21
833.8747482146439
 31
0.0
  0
LINE
  5
1AFAB
330
1AC64
100
AcDbEntity
  8
YODOROGO
100
AcDbLine
 10
15008.80217064596
 20
813.8747482146435
 30
0.0
 11
15108.80217064596
 21
813.8747482146435
 31
0.0
  0
ARC
  5
1AFAC
330
1AC64
100
AcDbEntity
  8
YODOROGO
100
AcDbCircle
 10
15115.02941435068
 20
934.4428574764513
 30
0.0
 40
160.6888181426141
100
AcDbArc
 50
228.6181454618993
 51
245.660289248906
  0
LINE
  5
1AFAD
330
1AC64
100
AcDbEntity
  8
YODOROGO
100
AcDbLine
 10
15052.80217064596
 20
801.8747482146444
 30
0.0
 11
15048.80217064598
 21
788.0364079349501
 31
0.0
  0
LINE
  5
1AFAE
330
1AC64
100
AcDbEntity
  8
YODOROGO
100
AcDbLine
 10
15094.80217064596
 20
801.8747482146444
 30
0.0
 11
15052.80217064596
 21
801.8747482146444
 31
0.0
  0
LINE
  5
1AFAF
330
1AC64
100
AcDbEntity
  8
YODOROGO
100
AcDbLine
 10
15088.80217064596
 20
775.9088612367134
 30
0.0
 11
15094.80217064596
 21
801.8747482146444
 31
0.0
  0
ARC
  5
1AFB0
330
1AC64
100
AcDbEntity
  8
YODOROGO
100
AcDbCircle
 10
15115.02941435023
 20
934.4428574765014
 30
0.0
 40
160.6888181426453
100
AcDbArc
 50
260.6062929796992
 51
267.7790355655586
  0
LINE
  5
1AFB1
330
1AC64
100
AcDbEntity
  8
YODOROGO
100
AcDbLine
 10
15108.80217064596
 20
713.8747482146428
 30
0.0
 11
15108.80217064596
 21
773.874748214644
 31
0.0
  0
LINE
  5
1AFB2
330
1AC64
100
AcDbEntity
  8
YODOROGO
100
AcDbLine
 10
14968.80217064596
 20
740.6696674577553
 30
0.0
 11
14968.80217064596
 21
797.2655452655705
 31
0.0
  0
LINE
  5
1AFB3
330
1AC64
100
AcDbEntity
  8
YODOROGO
100
AcDbLine
 10
15216.80217064596
 20
786.8747482146444
 30
0.0
 11
15190.80217064596
 21
786.8747482146444
 31
0.0
  0
LINE
  5
1AFB4
330
1AC64
100
AcDbEntity
  8
YODOROGO
100
AcDbLine
 10
15216.80217064596
 20
800.8747482146432
 30
0.0
 11
15216.80217064596
 21
786.8747482146444
 31
0.0
  0
LINE
  5
1AFB5
330
1AC64
100
AcDbEntity
  8
YODOROGO
100
AcDbLine
 10
15190.80217064596
 20
800.8747482146432
 30
0.0
 11
15216.80217064596
 21
800.8747482146432
 31
0.0
  0
LINE
  5
1AFB6
330
1AC64
100
AcDbEntity
  8
YODOROGO
100
AcDbLine
 10
15190.80217064596
 20
786.8747482146444
 30
0.0
 11
15190.80217064596
 21
800.8747482146432
 31
0.0
  0
LINE
  5
1AFB7
330
1AC64
100
AcDbEntity
  8
YODOROGO
100
AcDbLine
 10
15214.80217064596
 20
788.8747482146436
 30
0.0
 11
15192.80217064595
 21
788.8747482146436
 31
0.0
  0
LINE
  5
1AFB8
330
1AC64
100
AcDbEntity
  8
YODOROGO
100
AcDbLine
 10
15214.80217064596
 20
798.874748214644
 30
0.0
 11
15214.80217064596
 21
788.8747482146436
 31
0.0
  0
LINE
  5
1AFB9
330
1AC64
100
AcDbEntity
  8
YODOROGO
100
AcDbLine
 10
15192.80217064595
 20
798.874748214644
 30
0.0
 11
15214.80217064596
 21
798.874748214644
 31
0.0
  0
LINE
  5
1AFBA
330
1AC64
100
AcDbEntity
  8
YODOROGO
100
AcDbLine
 10
15192.80217064595
 20
788.8747482146436
 30
0.0
 11
15192.80217064595
 21
798.874748214644
 31
0.0
  0
LINE
  5
1AFBB
330
1AC64
100
AcDbEntity
  8
YODOROGO
100
AcDbLine
 10
15212.80217064596
 20
790.8747482146432
 30
0.0
 11
15194.80217064596
 21
790.8747482146432
 31
0.0
  0
LINE
  5
1AFBC
330
1AC64
100
AcDbEntity
  8
YODOROGO
100
AcDbLine
 10
15212.80217064596
 20
796.8747482146445
 30
0.0
 11
15212.80217064596
 21
790.8747482146432
 31
0.0
  0
LINE
  5
1AFBD
330
1AC64
100
AcDbEntity
  8
YODOROGO
100
AcDbLine
 10
15194.80217064596
 20
796.8747482146445
 30
0.0
 11
15212.80217064596
 21
796.8747482146445
 31
0.0
  0
LINE
  5
1AFBE
330
1AC64
100
AcDbEntity
  8
YODOROGO
100
AcDbLine
 10
15194.80217064596
 20
790.8747482146432
 30
0.0
 11
15194.80217064596
 21
796.8747482146445
 31
0.0
  0
LINE
  5
1AFBF
330
1AC64
100
AcDbEntity
  8
YODOROGO
100
AcDbLine
 10
15210.80217064596
 20
792.8747482146435
 30
0.0
 11
15196.80217064596
 21
792.8747482146435
 31
0.0
  0
LINE
  5
1AFC0
330
1AC64
100
AcDbEntity
  8
YODOROGO
100
AcDbLine
 10
15210.80217064596
 20
794.8747482146441
 30
0.0
 11
15210.80217064596
 21
792.8747482146435
 31
0.0
  0
LINE
  5
1AFC1
330
1AC64
100
AcDbEntity
  8
YODOROGO
100
AcDbLine
 10
15196.80217064596
 20
794.8747482146441
 30
0.0
 11
15210.80217064596
 21
794.8747482146441
 31
0.0
  0
LINE
  5
1AFC2
330
1AC64
100
AcDbEntity
  8
YODOROGO
100
AcDbLine
 10
15196.80217064596
 20
792.8747482146435
 30
0.0
 11
15196.80217064596
 21
794.8747482146441
 31
0.0
  0
LINE
  5
1AFC3
330
1AC64
100
AcDbEntity
  8
YODOROGO
100
AcDbLine
 10
15232.80217064596
 20
813.8747482146435
 30
0.0
 11
15190.80217064596
 21
813.8747482146435
 31
0.0
  0
LINE
  5
1AFC4
330
1AC64
100
AcDbEntity
  8
YODOROGO
100
AcDbLine
 10
15232.80217064596
 20
773.874748214644
 30
0.0
 11
15232.80217064596
 21
813.8747482146435
 31
0.0
  0
LINE
  5
1AFC5
330
1AC64
100
AcDbEntity
  8
YODOROGO
100
AcDbLine
 10
15190.80217064596
 20
773.874748214644
 30
0.0
 11
15232.80217064596
 21
773.874748214644
 31
0.0
  0
LINE
  5
1AFC6
330
1AC64
100
AcDbEntity
  8
YODOROGO
100
AcDbLine
 10
15190.80217064596
 20
713.8747482146436
 30
0.0
 11
15190.80217064596
 21
773.874748214644
 31
0.0
  0
LINE
  5
1AFC7
330
1AC64
100
AcDbEntity
  8
YODOROGO
100
AcDbLine
 10
15268.80217064596
 20
713.8747482146436
 30
0.0
 11
15190.80217064596
 21
713.8747482146436
 31
0.0
  0
LINE
  5
1AFC8
330
1AC64
100
AcDbEntity
  8
YODOROGO
100
AcDbLine
 10
15284.80217064596
 20
785.8747482146432
 30
0.0
 11
15284.80217064596
 21
799.8747482146441
 31
0.0
  0
ARC
  5
1AFC9
330
1AC64
100
AcDbEntity
  8
YODOROGO
100
AcDbCircle
 10
15272.80217064594
 20
785.8747482146457
 30
0.0
 40
12.00000000000187
100
AcDbArc
 50
270.0
 51
359.9999999999877
  0
LINE
  5
1AFCA
330
1AC64
100
AcDbEntity
  8
YODOROGO
100
AcDbLine
 10
15264.80217064596
 20
773.874748214644
 30
0.0
 11
15272.80217064594
 21
773.874748214644
 31
0.0
  0
LINE
  5
1AFCB
330
1AC64
100
AcDbEntity
  8
YODOROGO
100
AcDbLine
 10
15264.80217064596
 20
813.8747482146435
 30
0.0
 11
15264.80217064596
 21
773.874748214644
 31
0.0
  0
LINE
  5
1AFCC
330
1AC64
100
AcDbEntity
  8
YODOROGO
100
AcDbLine
 10
15449.80217064596
 20
773.874748214644
 30
0.0
 11
15462.80217064596
 21
773.874748214644
 31
0.0
  0
LINE
  5
1AFCD
330
1AC64
100
AcDbEntity
  8
YODOROGO
100
AcDbLine
 10
15466.80217064596
 20
713.8747482146436
 30
0.0
 11
15449.80217064596
 21
713.8747482146436
 31
0.0
  0
LINE
  5
1AFCE
330
1AC64
100
AcDbEntity
  8
YODOROGO
100
AcDbLine
 10
15381.80217064596
 20
781.8747482146434
 30
0.0
 11
15395.80217064596
 21
781.8747482146434
 31
0.0
  0
LINE
  5
1AFCF
330
1AC64
100
AcDbEntity
  8
YODOROGO
100
AcDbLine
 10
15449.80217064596
 20
745.8747482146443
 30
0.0
 11
15361.80217064596
 21
745.8747482146443
 31
0.0
  0
LINE
  5
1AFD0
330
1AC64
100
AcDbEntity
  8
YODOROGO
100
AcDbLine
 10
15415.80217064596
 20
781.8747482146434
 30
0.0
 11
15429.80217064596
 21
781.8747482146434
 31
0.0
  0
LINE
  5
1AFD1
330
1AC64
100
AcDbEntity
  8
YODOROGO
100
AcDbLine
 10
15449.80217064596
 20
713.8747482146436
 30
0.0
 11
15449.80217064596
 21
773.874748214644
 31
0.0
  0
LINE
  5
1AFD2
330
1AC64
100
AcDbEntity
  8
YODOROGO
100
AcDbLine
 10
15348.80217064596
 20
713.8747482146436
 30
0.0
 11
15322.80217064596
 21
713.8747482146436
 31
0.0
  0
LINE
  5
1AFD3
330
1AC64
100
AcDbEntity
  8
YODOROGO
100
AcDbLine
 10
15308.80217064596
 20
799.8747482146441
 30
0.0
 11
15308.80217064596
 21
753.8747482146439
 31
0.0
  0
ARC
  5
1AFD4
330
1AC64
100
AcDbEntity
  8
YODOROGO
100
AcDbCircle
 10
15466.80217064596
 20
733.8747482146435
 30
0.0
 40
20.0
100
AcDbArc
 50
270.0
 51
0.0
  0
LINE
  5
1AFD5
330
1AC64
100
AcDbEntity
  8
YODOROGO
100
AcDbLine
 10
15546.80217064596
 20
761.8747482146434
 30
0.0
 11
15546.80217064596
 21
713.8747482146436
 31
0.0
  0
ARC
  5
1AFD6
330
1AC64
100
AcDbEntity
  8
YODOROGO
100
AcDbCircle
 10
15519.86069778339
 20
818.7656950548664
 30
0.0
 40
62.94777829583771
100
AcDbArc
 50
295.3405244216011
 51
359.1890230341867
  0
LINE
  5
1AFD7
330
1AC64
100
AcDbEntity
  8
YODOROGO
100
AcDbLine
 10
15308.80217064596
 20
929.874748214644
 30
0.0
 11
15248.80217064596
 21
969.8747482146441
 31
0.0
  0
LINE
  5
1AFD8
330
1AC64
100
AcDbEntity
  8
YODOROGO
100
AcDbLine
 10
15248.80217064596
 20
1013.874748214644
 30
0.0
 11
15308.80217064596
 21
973.8747482146434
 31
0.0
  0
LINE
  5
1AFD9
330
1AC64
100
AcDbEntity
  8
YODOROGO
100
AcDbLine
 10
15264.80217064596
 20
839.8747482146442
 30
0.0
 11
15308.80217064596
 21
839.8747482146442
 31
0.0
  0
LINE
  5
1AFDA
330
1AC64
100
AcDbEntity
  8
YODOROGO
100
AcDbLine
 10
15308.80217064596
 20
867.8747482146436
 30
0.0
 11
15264.80217064596
 21
867.8747482146436
 31
0.0
  0
LINE
  5
1AFDB
330
1AC64
100
AcDbEntity
  8
YODOROGO
100
AcDbLine
 10
15190.80217064596
 20
897.8747482146435
 30
0.0
 11
15308.80217064596
 21
897.8747482146435
 31
0.0
  0
LINE
  5
1AFDC
330
1AC64
100
AcDbEntity
  8
YODOROGO
100
AcDbLine
 10
15040.80217064596
 20
1013.874748214644
 30
0.0
 11
15010.80217064596
 21
1013.874748214644
 31
0.0
  0
LINE
  5
1AFDD
330
1AC64
100
AcDbEntity
  8
YODOROGO
100
AcDbLine
 10
15040.80217064596
 20
913.8747482146435
 30
0.0
 11
15040.80217064596
 21
1013.874748214644
 31
0.0
  0
LINE
  5
1AFDE
330
1AC64
100
AcDbEntity
  8
YODOROGO
100
AcDbLine
 10
15010.80217064596
 20
913.8747482146435
 30
0.0
 11
15040.80217064596
 21
913.8747482146435
 31
0.0
  0
LINE
  5
1AFDF
330
1AC64
100
AcDbEntity
  8
YODOROGO
100
AcDbLine
 10
15010.80217064596
 20
1013.874748214644
 30
0.0
 11
15010.80217064596
 21
913.8747482146435
 31
0.0
  0
LINE
  5
1AFE0
330
1AC64
100
AcDbEntity
  8
YODOROGO
100
AcDbLine
 10
15080.80217064596
 20
1013.874748214644
 30
0.0
 11
15108.80217064596
 21
1013.874748214644
 31
0.0
  0
LINE
  5
1AFE1
330
1AC64
100
AcDbEntity
  8
YODOROGO
100
AcDbLine
 10
15080.80217064596
 20
905.8747482146443
 30
0.0
 11
15080.80217064596
 21
1013.874748214644
 31
0.0
  0
ARC
  5
1AFE2
330
1AC64
100
AcDbEntity
  8
YODOROGO
100
AcDbCircle
 10
15060.80217064596
 20
905.8747482146443
 30
0.0
 40
20.0
100
AcDbArc
 50
270.0
 51
0.0
  0
LINE
  5
1AFE3
330
1AC64
100
AcDbEntity
  8
YODOROGO
100
AcDbLine
 10
15010.80217064596
 20
885.8747482146441
 30
0.0
 11
15060.80217064596
 21
885.8747482146441
 31
0.0
  0
LINE
  5
1AFE4
330
1AC64
100
AcDbEntity
  8
YODOROGO
100
AcDbLine
 10
15010.80217064596
 20
853.874748214644
 30
0.0
 11
15010.80217064596
 21
885.8747482146441
 31
0.0
  0
LINE
  5
1AFE5
330
1AC64
100
AcDbEntity
  8
YODOROGO
100
AcDbLine
 10
15068.80217064596
 20
853.874748214644
 30
0.0
 11
15010.80217064596
 21
853.874748214644
 31
0.0
  0
ARC
  5
1AFE6
330
1AC64
100
AcDbEntity
  8
YODOROGO
100
AcDbCircle
 10
15068.80217064596
 20
893.8747482146439
 30
0.0
 40
40.0
100
AcDbArc
 50
270.0
 51
0.0
  0
LINE
  5
1AFE7
330
1AC64
100
AcDbEntity
  8
YODOROGO
100
AcDbLine
 10
15108.80217064596
 20
1013.874748214644
 30
0.0
 11
15108.80217064596
 21
893.8747482146439
 31
0.0
  0
LINE
  5
1AFE8
330
1AC64
100
AcDbEntity
  8
YODOROGO
100
AcDbLine
 10
14988.80217064596
 20
973.8747482146434
 30
0.0
 11
14988.80217064596
 21
997.8747482146435
 31
0.0
1001
AUTOCAD_POSTSCRIPT_FIGURE
1002
{
1000
PSFILL
1000
Grayscale
1000
Grayscale
1070
    25
1002
}
  0
LINE
  5
1AFE9
330
1AC64
100
AcDbEntity
  8
YODOROGO
100
AcDbLine
 10
14988.80217064596
 20
929.874748214644
 30
0.0
 11
14988.80217064596
 21
953.874748214644
 31
0.0
1001
AUTOCAD_POSTSCRIPT_FIGURE
1002
{
1000
PSFILL
1000
Grayscale
1000
Grayscale
1070
    25
1002
}
  0
LINE
  5
1AFEA
330
1AC64
100
AcDbEntity
  8
YODOROGO
100
AcDbLine
 10
14988.80217064596
 20
853.874748214644
 30
0.0
 11
14988.80217064596
 21
909.8747482146439
 31
0.0
1001
AUTOCAD_POSTSCRIPT_FIGURE
1002
{
1000
PSFILL
1000
Grayscale
1000
Grayscale
1070
    25
1002
}
  0
LINE
  5
1AFEB
330
1AC64
100
AcDbEntity
  8
YODOROGO
100
AcDbLine
 10
15190.80217064596
 20
953.874748214644
 30
0.0
 11
15248.80217064596
 21
1013.874748214644
 31
0.0
  0
LINE
  5
1AFEC
330
1AC64
100
AcDbEntity
  8
YODOROGO
100
AcDbLine
 10
15190.80217064596
 20
909.8747482146439
 30
0.0
 11
15190.80217064596
 21
953.874748214644
 31
0.0
  0
LINE
  5
1AFED
330
1AC64
100
AcDbEntity
  8
YODOROGO
100
AcDbLine
 10
15248.80217064596
 20
969.8747482146441
 30
0.0
 11
15190.80217064596
 21
909.8747482146439
 31
0.0
  0
LINE
  5
1AFEE
330
1AC64
100
AcDbEntity
  8
YODOROGO
100
AcDbLine
 10
15232.80217064596
 20
839.8747482146442
 30
0.0
 11
15232.80217064596
 21
867.8747482146436
 31
0.0
  0
LINE
  5
1AFEF
330
1AC64
100
AcDbEntity
  8
YODOROGO
100
AcDbLine
 10
15190.80217064596
 20
839.8747482146442
 30
0.0
 11
15232.80217064596
 21
839.8747482146442
 31
0.0
  0
LINE
  5
1AFF0
330
1AC64
100
AcDbEntity
  8
YODOROGO
100
AcDbLine
 10
15264.80217064596
 20
867.8747482146436
 30
0.0
 11
15264.80217064596
 21
839.8747482146442
 31
0.0
  0
LINE
  5
1AFF1
330
1AC64
100
AcDbEntity
  8
YODOROGO
100
AcDbLine
 10
15190.80217064596
 20
867.8747482146436
 30
0.0
 11
15190.80217064596
 21
897.8747482146435
 31
0.0
  0
LINE
  5
1AFF2
330
1AC64
100
AcDbEntity
  8
YODOROGO
100
AcDbLine
 10
15232.80217064596
 20
867.8747482146436
 30
0.0
 11
15190.80217064596
 21
867.8747482146436
 31
0.0
  0
LINE
  5
1AFF3
330
1AC64
100
AcDbEntity
  8
YODOROGO
100
AcDbLine
 10
15322.80217064596
 20
1013.874748214644
 30
0.0
 11
15486.80217064596
 21
1013.874748214644
 31
0.0
  0
LINE
  5
1AFF4
330
1AC64
100
AcDbEntity
  8
YODOROGO
100
AcDbLine
 10
15462.80217064596
 20
981.8747482146434
 30
0.0
 11
15348.80217064596
 21
981.8747482146434
 31
0.0
  0
LINE
  5
1AFF5
330
1AC64
100
AcDbEntity
  8
YODOROGO
100
AcDbLine
 10
15436.80217064595
 20
909.8747482146439
 30
0.0
 11
15449.80217064596
 21
909.8747482146439
 31
0.0
  0
LINE
  5
1AFF6
330
1AC64
100
AcDbEntity
  8
YODOROGO
100
AcDbLine
 10
15449.80217064596
 20
969.8747482146441
 30
0.0
 11
15436.80217064595
 21
909.8747482146439
 31
0.0
  0
LINE
  5
1AFF7
330
1AC64
100
AcDbEntity
  8
YODOROGO
100
AcDbLine
 10
15425.80217064596
 20
969.8747482146441
 30
0.0
 11
15449.80217064596
 21
969.8747482146441
 31
0.0
  0
LINE
  5
1AFF8
330
1AC64
100
AcDbEntity
  8
YODOROGO
100
AcDbLine
 10
15412.80217064596
 20
909.8747482146439
 30
0.0
 11
15425.80217064596
 21
969.8747482146441
 31
0.0
  0
LINE
  5
1AFF9
330
1AC64
100
AcDbEntity
  8
YODOROGO
100
AcDbLine
 10
15398.80217064596
 20
909.8747482146439
 30
0.0
 11
15412.80217064596
 21
909.8747482146439
 31
0.0
  0
LINE
  5
1AFFA
330
1AC64
100
AcDbEntity
  8
YODOROGO
100
AcDbLine
 10
15385.80217064596
 20
969.8747482146441
 30
0.0
 11
15398.80217064596
 21
909.8747482146439
 31
0.0
  0
LINE
  5
1AFFB
330
1AC64
100
AcDbEntity
  8
YODOROGO
100
AcDbLine
 10
15361.80217064596
 20
969.8747482146441
 30
0.0
 11
15385.80217064596
 21
969.8747482146441
 31
0.0
  0
LINE
  5
1AFFC
330
1AC64
100
AcDbEntity
  8
YODOROGO
100
AcDbLine
 10
15374.80217064596
 20
909.8747482146439
 30
0.0
 11
15361.80217064596
 21
969.8747482146441
 31
0.0
  0
LINE
  5
1AFFD
330
1AC64
100
AcDbEntity
  8
YODOROGO
100
AcDbLine
 10
15361.80217064596
 20
909.8747482146439
 30
0.0
 11
15374.80217064596
 21
909.8747482146439
 31
0.0
  0
LINE
  5
1AFFE
330
1AC64
100
AcDbEntity
  8
YODOROGO
100
AcDbLine
 10
15361.80217064596
 20
877.8747482146435
 30
0.0
 11
15361.80217064596
 21
909.8747482146439
 31
0.0
  0
LINE
  5
1AFFF
330
1AC64
100
AcDbEntity
  8
YODOROGO
100
AcDbLine
 10
15449.80217064596
 20
877.8747482146435
 30
0.0
 11
15361.80217064596
 21
877.8747482146435
 31
0.0
  0
LINE
  5
1B000
330
1AC64
100
AcDbEntity
  8
YODOROGO
100
AcDbLine
 10
15449.80217064596
 20
909.8747482146439
 30
0.0
 11
15449.80217064596
 21
877.8747482146435
 31
0.0
  0
LINE
  5
1B001
330
1AC64
100
AcDbEntity
  8
YODOROGO
100
AcDbLine
 10
15308.80217064596
 20
973.8747482146434
 30
0.0
 11
15308.80217064596
 21
929.874748214644
 31
0.0
  0
LINE
  5
1B002
330
1AC64
100
AcDbEntity
  8
YODOROGO
100
AcDbLine
 10
15395.80217064596
 20
877.8747482146435
 30
0.0
 11
15415.80217064596
 21
877.8747482146435
 31
0.0
  0
LINE
  5
1B003
330
1AC64
100
AcDbEntity
  8
YODOROGO
100
AcDbLine
 10
15361.80217064596
 20
845.8747482146444
 30
0.0
 11
15381.80217064596
 21
845.8747482146444
 31
0.0
  0
LINE
  5
1B004
330
1AC64
100
AcDbEntity
  8
YODOROGO
100
AcDbLine
 10
15429.80217064596
 20
845.8747482146444
 30
0.0
 11
15449.80217064596
 21
845.8747482146444
 31
0.0
  0
LINE
  5
1B005
330
1AC64
100
AcDbEntity
  8
YODOROGO
100
AcDbLine
 10
15308.80217064596
 20
897.8747482146435
 30
0.0
 11
15308.80217064596
 21
867.8747482146436
 31
0.0
  0
LINE
  5
1B006
330
1AC64
100
AcDbEntity
  8
YODOROGO
100
AcDbLine
 10
15582.80217064596
 20
1013.874748214644
 30
0.0
 11
15582.80217064596
 21
981.8747482146434
 31
0.0
  0
LINE
  5
1B007
330
1AC64
100
AcDbEntity
  8
YODOROGO
100
AcDbLine
 10
15766.80217064596
 20
797.8747482146435
 30
0.0
 11
15766.80217064594
 21
905.8747482146443
 31
0.0
  0
LINE
  5
1B008
330
1AC64
100
AcDbEntity
  8
YODOROGO
100
AcDbLine
 10
15730.80217064594
 20
993.8747482146439
 30
0.0
 11
15730.80217064594
 21
817.8747482146436
 31
0.0
  0
LINE
  5
1B009
330
1AC64
100
AcDbEntity
  8
YODOROGO
100
AcDbLine
 10
15826.80217064596
 20
713.8747482146436
 30
0.0
 11
15826.80217064594
 21
905.8747482146443
 31
0.0
  0
LINE
  5
1B00A
330
1AC64
100
AcDbEntity
  8
YODOROGO
100
AcDbLine
 10
15794.80217064596
 20
905.8747482146443
 30
0.0
 11
15794.80217064596
 21
713.8747482146436
 31
0.0
  0
LINE
  5
1B00B
330
1AC64
100
AcDbEntity
  8
YODOROGO
100
AcDbLine
 10
15618.80217064596
 20
797.8747482146435
 30
0.0
 11
15618.80217064596
 21
853.874748214644
 31
0.0
  0
ARC
  5
1B00C
330
1AC64
100
AcDbEntity
  8
YODOROGO
100
AcDbCircle
 10
15676.95743255803
 20
803.8951756442788
 30
0.0
 40
90.04622428799429
100
AcDbArc
 50
268.6284910216979
 51
356.1663845733032
  0
LINE
  5
1B00D
330
1AC64
100
AcDbEntity
  8
YODOROGO
100
AcDbLine
 10
15674.80217064596
 20
763.8747482146435
 30
0.0
 11
15674.80217064596
 21
713.8747482146436
 31
0.0
  0
ARC
  5
1B00E
330
1AC64
100
AcDbEntity
  8
YODOROGO
100
AcDbCircle
 10
15675.75903786228
 20
818.9194785088275
 30
0.0
 40
55.05304649180608
100
AcDbArc
 50
269.0041020930593
 51
358.9126445549248
  0
LINE
  5
1B00F
330
1AC64
100
AcDbEntity
  8
YODOROGO
100
AcDbLine
 10
15794.80217064596
 20
713.8747482146436
 30
0.0
 11
15826.80217064596
 21
713.8747482146436
 31
0.0
  0
LINE
  5
1B010
330
1AC64
100
AcDbEntity
  8
YODOROGO
100
AcDbLine
 10
15766.80217064594
 20
905.8747482146443
 30
0.0
 11
15794.80217064596
 21
905.8747482146443
 31
0.0
  0
LINE
  5
1B011
330
1AC64
100
AcDbEntity
  8
YODOROGO
100
AcDbLine
 10
15810.80217064596
 20
993.8747482146439
 30
0.0
 11
15730.80217064594
 21
993.8747482146439
 31
0.0
  0
LINE
  5
1B012
330
1AC64
100
AcDbEntity
  8
YODOROGO
100
AcDbLine
 10
15766.80217064594
 20
957.8747482146436
 30
0.0
 11
15830.80217064596
 21
957.8747482146436
 31
0.0
  0
LINE
  5
1B013
330
1AC64
100
AcDbEntity
  8
YODOROGO
100
AcDbLine
 10
15850.80217064596
 20
937.8747482146435
 30
0.0
 11
15766.80217064594
 21
937.8747482146435
 31
0.0
  0
LINE
  5
1B014
330
1AC64
100
AcDbEntity
  8
YODOROGO
100
AcDbLine
 10
15618.80217064596
 20
889.8747482146442
 30
0.0
 11
15674.80217064596
 21
889.8747482146442
 31
0.0
  0
LINE
  5
1B015
330
1AC64
100
AcDbEntity
  8
YODOROGO
100
AcDbLine
 10
15618.80217064596
 20
917.8747482146436
 30
0.0
 11
15618.80217064596
 21
889.8747482146442
 31
0.0
  0
LINE
  5
1B016
330
1AC64
100
AcDbEntity
  8
YODOROGO
100
AcDbLine
 10
15674.80217064596
 20
917.8747482146436
 30
0.0
 11
15618.80217064596
 21
917.8747482146436
 31
0.0
  0
LINE
  5
1B017
330
1AC64
100
AcDbEntity
  8
YODOROGO
100
AcDbLine
 10
15674.80217064596
 20
889.8747482146442
 30
0.0
 11
15674.80217064596
 21
917.8747482146436
 31
0.0
  0
LINE
  5
1B018
330
1AC64
100
AcDbEntity
  8
YODOROGO
100
AcDbLine
 10
15766.80217064594
 20
937.8747482146435
 30
0.0
 11
15766.80217064594
 21
957.8747482146436
 31
0.0
  0
LINE
  5
1B019
330
1AC64
100
AcDbEntity
  8
YODOROGO
100
AcDbLine
 10
15706.80217064596
 20
853.874748214644
 30
0.0
 11
15706.80217064596
 21
953.874748214644
 31
0.0
  0
LINE
  5
1B01A
330
1AC64
100
AcDbEntity
  8
YODOROGO
100
AcDbLine
 10
15618.80217064596
 20
853.874748214644
 30
0.0
 11
15706.80217064596
 21
853.874748214644
 31
0.0
  0
LINE
  5
1B01B
330
1AC64
100
AcDbEntity
  8
YODOROGO
100
AcDbLine
 10
15706.80217064596
 20
981.8747482146434
 30
0.0
 11
15706.80217064596
 21
1013.874748214644
 31
0.0
  0
ARC
  5
1B01C
330
1AC64
100
AcDbEntity
  8
YODOROGO
100
AcDbCircle
 10
15810.80217064596
 20
1001.874748214642
 30
0.0
 40
7.99999999999727
100
AcDbArc
 50
270.0
 51
0.0000000000081422
  0
LINE
  5
1B01D
330
1AC64
100
AcDbEntity
  8
YODOROGO
100
AcDbLine
 10
15818.80217064596
 20
1013.874748214644
 30
0.0
 11
15818.80217064596
 21
1001.874748214643
 31
0.0
  0
LINE
  5
1B01E
330
1AC64
100
AcDbEntity
  8
YODOROGO
100
AcDbLine
 10
15850.80217064596
 20
1013.874748214644
 30
0.0
 11
15818.80217064596
 21
1013.874748214644
 31
0.0
  0
LINE
  5
1B01F
330
1AC64
100
AcDbEntity
  8
YODOROGO
100
AcDbLine
 10
15850.80217064596
 20
977.8747482146435
 30
0.0
 11
15850.80217064596
 21
1013.874748214644
 31
0.0
  0
ARC
  5
1B020
330
1AC64
100
AcDbEntity
  8
YODOROGO
100
AcDbCircle
 10
15830.80217064596
 20
977.8747482146435
 30
0.0
 40
20.0
100
AcDbArc
 50
270.0
 51
0.0
  0
LINE
  5
1B021
330
1AC64
100
AcDbEntity
  8
YODOROGO
100
AcDbLine
 10
15850.80217064596
 20
905.8747482146443
 30
0.0
 11
15850.80217064596
 21
937.8747482146435
 31
0.0
  0
LINE
  5
1B022
330
1AC64
100
AcDbEntity
  8
YODOROGO
100
AcDbLine
 10
15826.80217064594
 20
905.8747482146443
 30
0.0
 11
15850.80217064596
 21
905.8747482146443
 31
0.0
  0
LINE
  5
1B023
330
1AC64
100
AcDbEntity
  8
SUNPOU
100
AcDbLine
 10
7338.882292608748
 20
4130.485411556196
 30
0.0
 11
7398.882292608762
 21
4130.485411556196
 31
0.0
  0
LINE
  5
1B024
330
1AC64
100
AcDbEntity
  8
SUNPOU
100
AcDbLine
 10
7338.882292608755
 20
4130.485411556196
 30
0.0
 11
7398.882292608757
 21
4146.562363102066
 31
0.0
  0
LINE
  5
1B025
330
1AC64
100
AcDbEntity
  8
SUNPOU
100
AcDbLine
 10
7338.882292608748
 20
4130.485411556196
 30
0.0
 11
7398.882292608762
 21
4114.408460010326
 31
0.0
  0
LINE
  5
1B026
330
1AC64
100
AcDbEntity
  8
SUNPOU
100
AcDbLine
 10
7398.88229260875
 20
4130.485411556196
 30
0.0
 11
7458.882292608763
 21
4130.485411556196
 31
0.0
  0
LINE
  5
1B027
330
1AC64
100
AcDbEntity
  8
SUNPOU
100
AcDbLine
 10
7398.882292608757
 20
4130.485411556196
 30
0.0
 11
7458.882292608755
 21
4146.562363102066
 31
0.0
  0
LINE
  5
1B028
330
1AC64
100
AcDbEntity
  8
SUNPOU
100
AcDbLine
 10
7398.88229260875
 20
4130.485411556196
 30
0.0
 11
7458.882292608763
 21
4114.408460010326
 31
0.0
  0
LINE
  5
1B029
330
1AC64
100
AcDbEntity
  8
SUNPOU
100
AcDbLine
 10
8580.123251791111
 20
4141.735411556195
 30
0.0
 11
8580.123251791111
 21
4152.985411556197
 31
0.0
  0
LINE
  5
1B02A
330
1AC64
100
AcDbEntity
  8
SUNPOU
100
AcDbLine
 10
7940.12325179111
 20
2681.084839419607
 30
0.0
 11
7940.12325179111
 21
2103.684839419604
 31
0.0
  0
LINE
  5
1B02B
330
1AC64
100
AcDbEntity
  8
SUNPOU
100
AcDbLine
 10
9220.123251791108
 20
2681.084839419607
 30
0.0
 11
9220.123251791108
 21
2103.684839419604
 31
0.0
  0
LINE
  5
1B02C
330
1AC64
100
AcDbEntity
  8
SUNPOU
100
AcDbLine
 10
7955.123251791109
 20
2148.684839419604
 30
0.0
 11
9205.123251791109
 21
2148.684839419604
 31
0.0
  0
LINE
  5
1B02D
330
1AC64
100
AcDbEntity
  8
SUNPOU
100
AcDbLine
 10
7780.123251791109
 20
2521.084839419604
 30
0.0
 11
7780.123251791109
 21
1893.684839419604
 31
0.0
  0
LINE
  5
1B02E
330
1AC64
100
AcDbEntity
  8
SUNPOU
100
AcDbLine
 10
9380.123251791109
 20
2521.084839419604
 30
0.0
 11
9380.123251791109
 21
1893.684839419604
 31
0.0
  0
LINE
  5
1B02F
330
1AC64
100
AcDbEntity
  8
SUNPOU
100
AcDbLine
 10
7795.123251791108
 20
1938.684839419604
 30
0.0
 11
9365.123251791109
 21
1938.684839419604
 31
0.0
  0
LINE
  5
1B030
330
1AC64
100
AcDbEntity
  8
SUNPOU
100
AcDbLine
 10
7910.12325179111
 20
3319.084839419605
 30
0.0
 11
7615.769855790354
 21
3319.084839419605
 31
0.0
  0
LINE
  5
1B031
330
1AC64
100
AcDbEntity
  8
SUNPOU
100
AcDbLine
 10
7910.12325179111
 20
3191.0848394196
 30
0.0
 11
7615.769855790354
 21
3191.0848394196
 31
0.0
  0
LINE
  5
1B032
330
1AC64
100
AcDbEntity
  8
SUNPOU
100
AcDbLine
 10
7660.769855790352
 20
3304.084839419605
 30
0.0
 11
7660.769855790352
 21
3206.084839419601
 31
0.0
  0
LINE
  5
1B033
330
1AC64
100
AcDbEntity
  8
SUNPOU
100
AcDbLine
 10
7910.12325179111
 20
3319.084839419603
 30
0.0
 11
7615.76985579035
 21
3319.084839419603
 31
0.0
  0
LINE
  5
1B034
330
1AC64
100
AcDbEntity
  8
SUNPOU
100
AcDbLine
 10
8070.123251791107
 20
3456.684839419605
 30
0.0
 11
7615.76985579035
 21
3456.684839419605
 31
0.0
  0
LINE
  5
1B035
330
1AC64
100
AcDbEntity
  8
SUNPOU
100
AcDbLine
 10
7660.769855790352
 20
3334.084839419602
 30
0.0
 11
7660.769855790352
 21
3441.684839419604
 31
0.0
  0
LINE
  5
1B036
330
1AC64
100
AcDbEntity
  8
SUNPOU
100
AcDbLine
 10
7660.769855790352
 20
3456.684839419605
 30
0.0
 11
7660.769855790352
 21
3658.827696562461
 31
0.0
  0
LINE
  5
1B037
330
1AC64
100
AcDbEntity
  8
SUNPOU
100
AcDbLine
 10
7750.123251791109
 20
2711.084839419607
 30
0.0
 11
7615.76985579035
 21
2711.084839419607
 31
0.0
  0
LINE
  5
1B038
330
1AC64
100
AcDbEntity
  8
SUNPOU
100
AcDbLine
 10
7910.12325179111
 20
3191.0848394196
 30
0.0
 11
7615.76985579035
 21
3191.0848394196
 31
0.0
  0
LINE
  5
1B039
330
1AC64
100
AcDbEntity
  8
SUNPOU
100
AcDbLine
 10
7660.769855790352
 20
2726.084839419607
 30
0.0
 11
7660.769855790352
 21
3176.084839419601
 31
0.0
  0
LINE
  5
1B03A
330
1AC64
100
AcDbEntity
  8
SUNPOU
100
AcDbLine
 10
7750.123251791109
 20
2711.084839419607
 30
0.0
 11
7615.76985579035
 21
2711.084839419607
 31
0.0
  0
LINE
  5
1B03B
330
1AC64
100
AcDbEntity
  8
SUNPOU
100
AcDbLine
 10
7750.123251791109
 20
2551.084839419603
 30
0.0
 11
7615.76985579035
 21
2551.084839419603
 31
0.0
  0
LINE
  5
1B03C
330
1AC64
100
AcDbEntity
  8
SUNPOU
100
AcDbLine
 10
7660.769855790352
 20
2696.084839419607
 30
0.0
 11
7660.769855790352
 21
2566.084839419604
 31
0.0
  0
LINE
  5
1B03D
330
1AC64
100
AcDbEntity
  8
SUNPOU
100
AcDbLine
 10
7660.769855790352
 20
2551.084839419603
 30
0.0
 11
7660.769855790352
 21
2300.370553705317
 31
0.0
  0
LINE
  5
1B03E
330
1AC64
100
AcDbEntity
  8
SUNPOU
100
AcDbLine
 10
8070.123251791107
 20
3456.684839419605
 30
0.0
 11
7405.769855790352
 21
3456.684839419605
 31
0.0
  0
LINE
  5
1B03F
330
1AC64
100
AcDbEntity
  8
SUNPOU
100
AcDbLine
 10
7750.123251791109
 20
2551.084839419603
 30
0.0
 11
7405.769855790352
 21
2551.084839419603
 31
0.0
  0
LINE
  5
1B040
330
1AC64
100
AcDbEntity
  8
SUNPOU
100
AcDbLine
 10
7450.769855790351
 20
3441.684839419604
 30
0.0
 11
7450.769855790351
 21
2566.084839419604
 31
0.0
  0
LINE
  5
1B041
330
1AC64
100
AcDbEntity
  8
SUNPOU
100
AcDbLine
 10
9821.364210973474
 20
4130.485411556196
 30
0.0
 11
9761.364210973455
 21
4130.485411556196
 31
0.0
  0
LINE
  5
1B042
330
1AC64
100
AcDbEntity
  8
SUNPOU
100
AcDbLine
 10
9821.364210973465
 20
4130.485411556196
 30
0.0
 11
9761.364210973468
 21
4146.562363102066
 31
0.0
  0
LINE
  5
1B043
330
1AC64
100
AcDbEntity
  8
SUNPOU
100
AcDbLine
 10
9821.364210973474
 20
4130.485411556196
 30
0.0
 11
9761.364210973455
 21
4114.408460010326
 31
0.0
  0
LINE
  5
1B044
330
1AC64
100
AcDbEntity
  8
SUNPOU
100
AcDbLine
 10
9761.364210973473
 20
4130.485411556196
 30
0.0
 11
9701.364210973459
 21
4130.485411556196
 31
0.0
  0
LINE
  5
1B045
330
1AC64
100
AcDbEntity
  8
SUNPOU
100
AcDbLine
 10
9761.364210973468
 20
4130.485411556196
 30
0.0
 11
9701.364210973466
 21
4146.562363102066
 31
0.0
  0
LINE
  5
1B046
330
1AC64
100
AcDbEntity
  8
SUNPOU
100
AcDbLine
 10
9761.364210973473
 20
4130.485411556196
 30
0.0
 11
9701.364210973459
 21
4114.408460010326
 31
0.0
  0
LINE
  5
1B047
330
1AC64
100
AcDbEntity
  8
SUNPOU
100
AcDbLine
 10
9009.217031986059
 20
7925.715360473255
 30
0.0
 11
9009.217031986059
 21
8110.715360473253
 31
0.0
  0
LINE
  5
1B048
330
1AC64
100
AcDbEntity
  8
SUNPOU
100
AcDbLine
 10
9809.21703198606
 20
7925.715360473255
 30
0.0
 11
9809.21703198606
 21
8110.715360473253
 31
0.0
  0
LINE
  5
1B049
330
1AC64
100
AcDbEntity
  8
SUNPOU
100
AcDbLine
 10
9024.21703198606
 20
8065.715360473253
 30
0.0
 11
9794.217031986059
 21
8065.715360473253
 31
0.0
  0
LINE
  5
1B04A
330
1AC64
100
AcDbEntity
  8
SUNPOU
100
AcDbLine
 10
8979.21703198606
 20
7095.715360473253
 30
0.0
 11
8794.217031986059
 21
7095.715360473253
 31
0.0
  0
LINE
  5
1B04B
330
1AC64
100
AcDbEntity
  8
SUNPOU
100
AcDbLine
 10
8979.21703198606
 20
7895.715360473253
 30
0.0
 11
8794.217031986059
 21
7895.715360473253
 31
0.0
  0
LINE
  5
1B04C
330
1AC64
100
AcDbEntity
  8
SUNPOU
100
AcDbLine
 10
8839.217031986059
 20
7110.715360473253
 30
0.0
 11
8839.217031986059
 21
7880.715360473253
 31
0.0
  0
LINE
  5
1B04D
330
1AC64
100
AcDbEntity
  8
SUNPOU
100
AcDbLine
 10
9079.217031986066
 20
9595.715360473253
 30
0.0
 11
8764.217031986062
 21
9595.715360473253
 31
0.0
  0
LINE
  5
1B04E
330
1AC64
100
AcDbEntity
  8
SUNPOU
100
AcDbLine
 10
9079.217031986066
 20
8995.715360473253
 30
0.0
 11
8764.217031986062
 21
8995.715360473253
 31
0.0
  0
LINE
  5
1B04F
330
1AC64
100
AcDbEntity
  8
SUNPOU
100
AcDbLine
 10
8809.217031986062
 20
9580.715360473252
 30
0.0
 11
8809.217031986062
 21
9010.715360473252
 31
0.0
  0
LINE
  5
1B050
330
1AC64
100
AcDbEntity
  8
SUNPOU
100
AcDbLine
 10
9109.217031986066
 20
8965.71536047325
 30
0.0
 11
9109.217031986066
 21
8650.715360473251
 31
0.0
  0
LINE
  5
1B051
330
1AC64
100
AcDbEntity
  8
SUNPOU
100
AcDbLine
 10
9709.217031986066
 20
8965.71536047325
 30
0.0
 11
9709.217031986066
 21
8650.715360473251
 31
0.0
  0
LINE
  5
1B052
330
1AC64
100
AcDbEntity
  8
SUNPOU
100
AcDbLine
 10
9124.217031986065
 20
8695.715360473251
 30
0.0
 11
9694.217031986065
 21
8695.715360473251
 31
0.0
  0
LINE
  5
1B053
330
1AC64
100
AcDbEntity
  8
SUNPOU
100
AcDbLine
 10
9409.217031986056
 20
9725.715360473239
 30
0.0
 11
9409.217031986056
 21
10040.71536047324
 31
0.0
  0
LINE
  5
1B054
330
1AC64
100
AcDbEntity
  8
SUNPOU
100
AcDbLine
 10
9809.217031986054
 20
9625.715360473236
 30
0.0
 11
9809.217031986054
 21
10040.71536047324
 31
0.0
  0
LINE
  5
1B055
330
1AC64
100
AcDbEntity
  8
SUNPOU
100
AcDbLine
 10
9424.217031986056
 20
9995.715360473241
 30
0.0
 11
9794.217031986057
 21
9995.715360473241
 31
0.0
  0
LINE
  5
1B056
330
1AC64
100
AcDbEntity
  8
SUNPOU
100
AcDbLine
 10
6559.217031986058
 20
9625.715360473252
 30
0.0
 11
6559.217031986058
 21
10250.71536047325
 31
0.0
  0
LINE
  5
1B057
330
1AC64
100
AcDbEntity
  8
SUNPOU
100
AcDbLine
 10
9809.21703198606
 20
9625.715360473252
 30
0.0
 11
9809.21703198606
 21
10250.71536047325
 31
0.0
  0
LINE
  5
1B058
330
1AC64
100
AcDbEntity
  8
SUNPOU
100
AcDbLine
 10
6574.217031986058
 20
10205.71536047325
 30
0.0
 11
9794.217031986059
 21
10205.71536047325
 31
0.0
  0
LINE
  5
1B059
330
1AC64
100
AcDbEntity
  8
SUNPOU
100
AcDbLine
 10
9409.217031986059
 20
9725.715360473252
 30
0.0
 11
9409.217031986059
 21
10040.71536047325
 31
0.0
  0
LINE
  5
1B05A
330
1AC64
100
AcDbEntity
  8
SUNPOU
100
AcDbLine
 10
6959.217031986058
 20
9725.715360473252
 30
0.0
 11
6959.217031986058
 21
10040.71536047325
 31
0.0
  0
LINE
  5
1B05B
330
1AC64
100
AcDbEntity
  8
SUNPOU
100
AcDbLine
 10
9394.217031986059
 20
9995.715360473253
 30
0.0
 11
6974.217031986057
 21
9995.715360473253
 31
0.0
  0
LINE
  5
1B05C
330
1AC64
100
AcDbEntity
  8
SUNPOU
100
AcDbLine
 10
6959.217031986058
 20
9725.715360473252
 30
0.0
 11
6959.217031986058
 21
10040.71536047325
 31
0.0
  0
LINE
  5
1B05D
330
1AC64
100
AcDbEntity
  8
SUNPOU
100
AcDbLine
 10
6559.217031986058
 20
9625.715360473252
 30
0.0
 11
6559.217031986058
 21
10040.71536047325
 31
0.0
  0
LINE
  5
1B05E
330
1AC64
100
AcDbEntity
  8
SUNPOU
100
AcDbLine
 10
6944.21703198606
 20
9995.715360473253
 30
0.0
 11
6574.217031986058
 21
9995.715360473253
 31
0.0
  0
LINE
  5
1B05F
330
1AC64
100
AcDbEntity
  8
SUNPOU
100
AcDbLine
 10
10179.21703198606
 20
9295.715360473252
 30
0.0
 11
10164.21703198606
 21
9295.715360473252
 31
0.0
  0
LINE
  5
1B060
330
1AC64
100
AcDbEntity
  8
SUNPOU
100
AcDbLine
 10
9839.217031986059
 20
9595.715360473253
 30
0.0
 11
10254.21703198605
 21
9595.715360473253
 31
0.0
  0
LINE
  5
1B061
330
1AC64
100
AcDbEntity
  8
SUNPOU
100
AcDbLine
 10
10209.21703198605
 20
9310.715360473251
 30
0.0
 11
10209.21703198605
 21
9580.715360473252
 31
0.0
  0
LINE
  5
1B062
330
1AC64
100
AcDbEntity
  8
SUNPOU
100
AcDbLine
 10
10179.21703198606
 20
7495.715360473251
 30
0.0
 11
10164.21703198606
 21
7495.715360473251
 31
0.0
  0
LINE
  5
1B063
330
1AC64
100
AcDbEntity
  8
SUNPOU
100
AcDbLine
 10
10179.21703198606
 20
9295.715360473252
 30
0.0
 11
10164.21703198606
 21
9295.715360473252
 31
0.0
  0
LINE
  5
1B064
330
1AC64
100
AcDbEntity
  8
SUNPOU
100
AcDbLine
 10
10209.21703198605
 20
7510.715360473253
 30
0.0
 11
10209.21703198605
 21
9280.71536047325
 31
0.0
  0
LINE
  5
1B065
330
1AC64
100
AcDbEntity
  8
SUNPOU
100
AcDbLine
 10
10179.21703198606
 20
5695.715360473253
 30
0.0
 11
10164.21703198606
 21
5695.715360473253
 31
0.0
  0
LINE
  5
1B066
330
1AC64
100
AcDbEntity
  8
SUNPOU
100
AcDbLine
 10
10179.21703198606
 20
7495.715360473255
 30
0.0
 11
10164.21703198606
 21
7495.715360473255
 31
0.0
  0
LINE
  5
1B067
330
1AC64
100
AcDbEntity
  8
SUNPOU
100
AcDbLine
 10
10209.21703198605
 20
5710.715360473253
 30
0.0
 11
10209.21703198605
 21
7480.715360473254
 31
0.0
  0
LINE
  5
1B068
330
1AC64
100
AcDbEntity
  8
SUNPOU
100
AcDbLine
 10
9839.217031986059
 20
5395.715360473253
 30
0.0
 11
10254.21703198605
 21
5395.715360473253
 31
0.0
  0
LINE
  5
1B069
330
1AC64
100
AcDbEntity
  8
SUNPOU
100
AcDbLine
 10
10179.21703198606
 20
5695.715360473253
 30
0.0
 11
10164.21703198606
 21
5695.715360473253
 31
0.0
  0
LINE
  5
1B06A
330
1AC64
100
AcDbEntity
  8
SUNPOU
100
AcDbLine
 10
10209.21703198605
 20
5410.715360473253
 30
0.0
 11
10209.21703198605
 21
5680.715360473254
 31
0.0
  0
LINE
  5
1B06B
330
1AC64
100
AcDbEntity
  8
SUNPOU
100
AcDbLine
 10
9839.217031986059
 20
9595.715360473253
 30
0.0
 11
10464.21703198606
 21
9595.715360473253
 31
0.0
  0
LINE
  5
1B06C
330
1AC64
100
AcDbEntity
  8
SUNPOU
100
AcDbLine
 10
9839.217031986059
 20
5395.715360473253
 30
0.0
 11
10464.21703198606
 21
5395.715360473253
 31
0.0
  0
LINE
  5
1B06D
330
1AC64
100
AcDbEntity
  8
SUNPOU
100
AcDbLine
 10
10419.21703198606
 20
9580.715360473252
 30
0.0
 11
10419.21703198606
 21
5410.715360473252
 31
0.0
  0
LINE
  5
1B06E
330
1AC64
100
AcDbEntity
  8
SUNPOU
100
AcDbLine
 10
11635.33837406208
 20
3726.33703658456
 30
0.0
 11
12318.40680314955
 21
3726.33703658456
 31
0.0
  0
LINE
  5
1B06F
330
1AC64
100
AcDbEntity
  8
SUNPOU
100
AcDbLine
 10
11635.33837406208
 20
3886.33703658456
 30
0.0
 11
12318.40680314955
 21
3886.33703658456
 31
0.0
  0
LINE
  5
1B070
330
1AC64
100
AcDbEntity
  8
SUNPOU
100
AcDbLine
 10
12273.40680314955
 20
3741.33703658456
 30
0.0
 11
12273.40680314955
 21
3871.337036584561
 31
0.0
  0
LINE
  5
1B071
330
1AC64
100
AcDbEntity
  8
SUNPOU
100
AcDbLine
 10
12273.40680314955
 20
3886.33703658456
 30
0.0
 11
12273.40680314955
 21
4088.479893727416
 31
0.0
  0
LINE
  5
1B072
330
1AC64
100
AcDbEntity
  8
SUNPOU
100
AcDbLine
 10
11635.33837406208
 20
3726.33703658456
 30
0.0
 11
12318.40680314955
 21
3726.33703658456
 31
0.0
  0
LINE
  5
1B073
330
1AC64
100
AcDbEntity
  8
SUNPOU
100
AcDbLine
 10
11891.33837406209
 20
3618.337036584561
 30
0.0
 11
12318.40680314955
 21
3618.337036584561
 31
0.0
  0
LINE
  5
1B074
330
1AC64
100
AcDbEntity
  8
SUNPOU
100
AcDbLine
 10
12273.40680314955
 20
3741.33703658456
 30
0.0
 11
12273.40680314955
 21
3756.337036584561
 31
0.0
  0
LINE
  5
1B075
330
1AC64
100
AcDbEntity
  8
SUNPOU
100
AcDbLine
 10
12273.40680314955
 20
3603.337036584561
 30
0.0
 11
12273.40680314955
 21
3401.194179441703
 31
0.0
  0
LINE
  5
1B076
330
1AC64
100
AcDbEntity
  8
SUNPOU
100
AcDbLine
 10
12273.40680314955
 20
3726.33703658456
 30
0.0
 11
12273.40680314955
 21
3618.337036584561
 31
0.0
  0
LINE
  5
1B077
330
1AC64
100
AcDbEntity
  8
SUNPOU
100
AcDbLine
 10
11781.33837406209
 20
2470.144344053149
 30
0.0
 11
11781.33837406209
 21
2200.804976716085
 31
0.0
  0
LINE
  5
1B078
330
1AC64
100
AcDbEntity
  8
SUNPOU
100
AcDbLine
 10
11861.33837406209
 20
2510.144344053149
 30
0.0
 11
11861.33837406209
 21
2200.804976716085
 31
0.0
  0
LINE
  5
1B079
330
1AC64
100
AcDbEntity
  8
SUNPOU
100
AcDbLine
 10
11766.33837406209
 20
2245.804976716085
 30
0.0
 11
11751.33837406209
 21
2245.804976716085
 31
0.0
  0
LINE
  5
1B07A
330
1AC64
100
AcDbEntity
  8
SUNPOU
100
AcDbLine
 10
11876.33837406208
 20
2245.804976716085
 30
0.0
 11
12078.48123120495
 21
2245.804976716085
 31
0.0
  0
LINE
  5
1B07B
330
1AC64
100
AcDbEntity
  8
SUNPOU
100
AcDbLine
 10
11781.33837406209
 20
2245.804976716085
 30
0.0
 11
11861.33837406209
 21
2245.804976716085
 31
0.0
  0
LINE
  5
1B07C
330
1AC64
100
AcDbEntity
  8
SUNPOU
100
AcDbLine
 10
11301.33837406209
 20
2470.144344053149
 30
0.0
 11
11301.33837406209
 21
2200.804976716085
 31
0.0
  0
LINE
  5
1B07D
330
1AC64
100
AcDbEntity
  8
SUNPOU
100
AcDbLine
 10
11781.33837406209
 20
2470.144344053149
 30
0.0
 11
11781.33837406209
 21
2200.804976716085
 31
0.0
  0
LINE
  5
1B07E
330
1AC64
100
AcDbEntity
  8
SUNPOU
100
AcDbLine
 10
11316.3383740621
 20
2245.804976716085
 30
0.0
 11
11766.33837406209
 21
2245.804976716085
 31
0.0
  0
LINE
  5
1B07F
330
1AC64
100
AcDbEntity
  8
SUNPOU
100
AcDbLine
 10
11301.33837406209
 20
2470.144344053149
 30
0.0
 11
11301.33837406209
 21
2200.804976716085
 31
0.0
  0
LINE
  5
1B080
330
1AC64
100
AcDbEntity
  8
SUNPOU
100
AcDbLine
 10
11221.33837406209
 20
2510.144344053149
 30
0.0
 11
11221.33837406209
 21
2200.804976716085
 31
0.0
  0
LINE
  5
1B081
330
1AC64
100
AcDbEntity
  8
SUNPOU
100
AcDbLine
 10
11316.3383740621
 20
2245.804976716085
 30
0.0
 11
11331.33837406209
 21
2245.804976716085
 31
0.0
  0
LINE
  5
1B082
330
1AC64
100
AcDbEntity
  8
SUNPOU
100
AcDbLine
 10
11206.33837406209
 20
2245.804976716085
 30
0.0
 11
11004.19551691922
 21
2245.804976716085
 31
0.0
  0
LINE
  5
1B083
330
1AC64
100
AcDbEntity
  8
SUNPOU
100
AcDbLine
 10
11301.33837406209
 20
2245.804976716085
 30
0.0
 11
11221.33837406209
 21
2245.804976716085
 31
0.0
  0
LINE
  5
1B084
330
1AC64
100
AcDbEntity
  8
SUNPOU
100
AcDbLine
 10
11221.33837406209
 20
2510.144344053149
 30
0.0
 11
11221.33837406209
 21
1990.804976716086
 31
0.0
  0
LINE
  5
1B085
330
1AC64
100
AcDbEntity
  8
SUNPOU
100
AcDbLine
 10
11861.33837406209
 20
2510.144344053149
 30
0.0
 11
11861.33837406209
 21
1990.804976716086
 31
0.0
  0
LINE
  5
1B086
330
1AC64
100
AcDbEntity
  8
SUNPOU
100
AcDbLine
 10
11236.33837406209
 20
2035.804976716086
 30
0.0
 11
11846.33837406209
 21
2035.804976716086
 31
0.0
  0
LINE
  5
1B087
330
1AC64
100
AcDbEntity
  8
SUNPOU
100
AcDbLine
 10
11195.33837406209
 20
2700.144344053149
 30
0.0
 11
10873.33837406209
 21
2700.144344053149
 31
0.0
  0
LINE
  5
1B088
330
1AC64
100
AcDbEntity
  8
SUNPOU
100
AcDbLine
 10
11191.33837406208
 20
2540.144344053149
 30
0.0
 11
10873.33837406209
 21
2540.144344053149
 31
0.0
  0
LINE
  5
1B089
330
1AC64
100
AcDbEntity
  8
SUNPOU
100
AcDbLine
 10
10918.33837406209
 20
2685.144344053149
 30
0.0
 11
10918.33837406209
 21
2555.144344053149
 31
0.0
  0
LINE
  5
1B08A
330
1AC64
100
AcDbEntity
  8
SUNPOU
100
AcDbLine
 10
10918.33837406209
 20
2540.144344053149
 30
0.0
 11
10918.33837406209
 21
2338.001486910291
 31
0.0
  0
LINE
  5
1B08B
330
1AC64
100
AcDbEntity
  8
SUNPOU
100
AcDbLine
 10
11195.33837406209
 20
2700.144344053149
 30
0.0
 11
10873.33837406209
 21
2700.144344053149
 31
0.0
  0
LINE
  5
1B08C
330
1AC64
100
AcDbEntity
  8
SUNPOU
100
AcDbLine
 10
11191.33837406208
 20
2860.144344053149
 30
0.0
 11
10873.33837406209
 21
2860.144344053149
 31
0.0
  0
LINE
  5
1B08D
330
1AC64
100
AcDbEntity
  8
SUNPOU
100
AcDbLine
 10
10918.33837406209
 20
2715.144344053149
 30
0.0
 11
10918.33837406209
 21
2845.144344053149
 31
0.0
  0
LINE
  5
1B08E
330
1AC64
100
AcDbEntity
  8
SUNPOU
100
AcDbLine
 10
10918.33837406209
 20
2860.144344053149
 30
0.0
 11
10918.33837406209
 21
3062.287201196007
 31
0.0
  0
LINE
  5
1B08F
330
1AC64
100
AcDbEntity
  8
SUNPOU
100
AcDbLine
 10
11191.33837406208
 20
2540.144344053149
 30
0.0
 11
10663.33837406209
 21
2540.144344053149
 31
0.0
  0
LINE
  5
1B090
330
1AC64
100
AcDbEntity
  8
SUNPOU
100
AcDbLine
 10
11191.33837406208
 20
2860.144344053149
 30
0.0
 11
10663.33837406209
 21
2860.144344053149
 31
0.0
  0
LINE
  5
1B091
330
1AC64
100
AcDbEntity
  8
SUNPOU
100
AcDbLine
 10
10708.33837406208
 20
2555.144344053149
 30
0.0
 11
10708.33837406208
 21
2845.144344053149
 31
0.0
  0
LINE
  5
1B092
330
1AC64
100
AcDbEntity
  8
SUNPOU
100
AcDbLine
 10
11781.33837406209
 20
3548.33703658456
 30
0.0
 11
11781.33837406209
 21
3349.170862655058
 31
0.0
  0
LINE
  5
1B093
330
1AC64
100
AcDbEntity
  8
SUNPOU
100
AcDbLine
 10
11861.33837406209
 20
3588.337036584561
 30
0.0
 11
11861.33837406209
 21
3349.170862655058
 31
0.0
  0
LINE
  5
1B094
330
1AC64
100
AcDbEntity
  8
SUNPOU
100
AcDbLine
 10
11766.33837406209
 20
3394.170862655057
 30
0.0
 11
11751.33837406209
 21
3394.170862655057
 31
0.0
  0
LINE
  5
1B095
330
1AC64
100
AcDbEntity
  8
SUNPOU
100
AcDbLine
 10
11876.33837406208
 20
3394.170862655057
 30
0.0
 11
12078.48123120495
 21
3394.170862655057
 31
0.0
  0
LINE
  5
1B096
330
1AC64
100
AcDbEntity
  8
SUNPOU
100
AcDbLine
 10
11781.33837406209
 20
3394.170862655057
 30
0.0
 11
11861.33837406209
 21
3394.170862655057
 31
0.0
  0
LINE
  5
1B097
330
1AC64
100
AcDbEntity
  8
SUNPOU
100
AcDbLine
 10
11301.33837406209
 20
3548.33703658456
 30
0.0
 11
11301.33837406209
 21
3349.170862655058
 31
0.0
  0
LINE
  5
1B098
330
1AC64
100
AcDbEntity
  8
SUNPOU
100
AcDbLine
 10
11781.33837406209
 20
3548.33703658456
 30
0.0
 11
11781.33837406209
 21
3349.170862655058
 31
0.0
  0
LINE
  5
1B099
330
1AC64
100
AcDbEntity
  8
SUNPOU
100
AcDbLine
 10
11316.3383740621
 20
3394.170862655057
 30
0.0
 11
11766.33837406209
 21
3394.170862655057
 31
0.0
  0
LINE
  5
1B09A
330
1AC64
100
AcDbEntity
  8
SUNPOU
100
AcDbLine
 10
11301.33837406209
 20
3548.33703658456
 30
0.0
 11
11301.33837406209
 21
3349.170862655058
 31
0.0
  0
LINE
  5
1B09B
330
1AC64
100
AcDbEntity
  8
SUNPOU
100
AcDbLine
 10
11221.33837406209
 20
3588.337036584561
 30
0.0
 11
11221.33837406209
 21
3349.170862655058
 31
0.0
  0
LINE
  5
1B09C
330
1AC64
100
AcDbEntity
  8
SUNPOU
100
AcDbLine
 10
11316.3383740621
 20
3394.170862655057
 30
0.0
 11
11331.33837406209
 21
3394.170862655057
 31
0.0
  0
LINE
  5
1B09D
330
1AC64
100
AcDbEntity
  8
SUNPOU
100
AcDbLine
 10
11206.33837406209
 20
3394.170862655057
 30
0.0
 11
11004.19551691922
 21
3394.170862655057
 31
0.0
  0
LINE
  5
1B09E
330
1AC64
100
AcDbEntity
  8
SUNPOU
100
AcDbLine
 10
11301.33837406209
 20
3394.170862655057
 30
0.0
 11
11221.33837406209
 21
3394.170862655057
 31
0.0
  0
LINE
  5
1B09F
330
1AC64
100
AcDbEntity
  8
SUNPOU
100
AcDbLine
 10
11221.33837406209
 20
3588.337036584561
 30
0.0
 11
11221.33837406209
 21
3139.170862655058
 31
0.0
  0
LINE
  5
1B0A0
330
1AC64
100
AcDbEntity
  8
SUNPOU
100
AcDbLine
 10
11861.33837406209
 20
3588.337036584561
 30
0.0
 11
11861.33837406209
 21
3139.170862655058
 31
0.0
  0
LINE
  5
1B0A1
330
1AC64
100
AcDbEntity
  8
SUNPOU
100
AcDbLine
 10
11236.33837406209
 20
3184.170862655058
 30
0.0
 11
11846.33837406209
 21
3184.170862655058
 31
0.0
  0
LINE
  5
1B0A2
330
1AC64
100
AcDbEntity
  8
SUNPOU
100
AcDbLine
 10
4319.797051267463
 20
2690.684839419602
 30
0.0
 11
4319.797051267463
 21
2103.684839419599
 31
0.0
  0
LINE
  5
1B0A3
330
1AC64
100
AcDbEntity
  8
SUNPOU
100
AcDbLine
 10
5279.797051267464
 20
2690.684839419602
 30
0.0
 11
5279.797051267464
 21
2103.684839419599
 31
0.0
  0
LINE
  5
1B0A4
330
1AC64
100
AcDbEntity
  8
SUNPOU
100
AcDbLine
 10
4334.797051267464
 20
2148.684839419601
 30
0.0
 11
5264.797051267464
 21
2148.684839419601
 31
0.0
  0
LINE
  5
1B0A5
330
1AC64
100
AcDbEntity
  8
SUNPOU
100
AcDbLine
 10
4159.797051267462
 20
2530.684839419601
 30
0.0
 11
4159.797051267462
 21
1893.6848394196
 31
0.0
  0
LINE
  5
1B0A6
330
1AC64
100
AcDbEntity
  8
SUNPOU
100
AcDbLine
 10
5439.797051267461
 20
2530.684839419601
 30
0.0
 11
5439.797051267461
 21
1893.6848394196
 31
0.0
  0
LINE
  5
1B0A7
330
1AC64
100
AcDbEntity
  8
SUNPOU
100
AcDbLine
 10
4174.797051267462
 20
1938.6848394196
 30
0.0
 11
5424.797051267462
 21
1938.6848394196
 31
0.0
  0
LINE
  5
1B0A8
330
1AC64
100
AcDbEntity
  8
SUNPOU
100
AcDbLine
 10
3490.443655266703
 20
3376.684839419604
 30
0.0
 11
3505.443655266704
 21
3376.684839419604
 31
0.0
  0
LINE
  5
1B0A9
330
1AC64
100
AcDbEntity
  8
SUNPOU
100
AcDbLine
 10
4289.797051267464
 20
3456.684839419605
 30
0.0
 11
3415.443655266705
 21
3456.684839419605
 31
0.0
  0
LINE
  5
1B0AA
330
1AC64
100
AcDbEntity
  8
SUNPOU
100
AcDbLine
 10
3460.443655266704
 20
3361.684839419604
 30
0.0
 11
3460.443655266704
 21
3346.684839419604
 31
0.0
  0
LINE
  5
1B0AB
330
1AC64
100
AcDbEntity
  8
SUNPOU
100
AcDbLine
 10
3460.443655266704
 20
3471.684839419605
 30
0.0
 11
3460.443655266704
 21
3673.827696562461
 31
0.0
  0
LINE
  5
1B0AC
330
1AC64
100
AcDbEntity
  8
SUNPOU
100
AcDbLine
 10
3460.443655266704
 20
3376.684839419604
 30
0.0
 11
3460.443655266704
 21
3456.684839419605
 31
0.0
  0
LINE
  5
1B0AD
330
1AC64
100
AcDbEntity
  8
SUNPOU
100
AcDbLine
 10
4289.797051267465
 20
3319.084839419601
 30
0.0
 11
3835.443655266707
 21
3319.084839419601
 31
0.0
  0
LINE
  5
1B0AE
330
1AC64
100
AcDbEntity
  8
SUNPOU
100
AcDbLine
 10
4289.797051267465
 20
3191.084839419597
 30
0.0
 11
3835.443655266707
 21
3191.084839419597
 31
0.0
  0
LINE
  5
1B0AF
330
1AC64
100
AcDbEntity
  8
SUNPOU
100
AcDbLine
 10
3880.443655266708
 20
3304.084839419601
 30
0.0
 11
3880.443655266708
 21
3206.084839419597
 31
0.0
  0
LINE
  5
1B0B0
330
1AC64
100
AcDbEntity
  8
SUNPOU
100
AcDbLine
 10
4289.797051267465
 20
3319.084839419603
 30
0.0
 11
3835.443655266704
 21
3319.084839419603
 31
0.0
  0
LINE
  5
1B0B1
330
1AC64
100
AcDbEntity
  8
SUNPOU
100
AcDbLine
 10
4289.797051267464
 20
3456.684839419605
 30
0.0
 11
3835.443655266704
 21
3456.684839419605
 31
0.0
  0
LINE
  5
1B0B2
330
1AC64
100
AcDbEntity
  8
SUNPOU
100
AcDbLine
 10
3880.443655266704
 20
3334.084839419602
 30
0.0
 11
3880.443655266704
 21
3441.684839419604
 31
0.0
  0
LINE
  5
1B0B3
330
1AC64
100
AcDbEntity
  8
SUNPOU
100
AcDbLine
 10
3880.443655266704
 20
3456.684839419605
 30
0.0
 11
3880.443655266704
 21
3658.827696562461
 31
0.0
  0
LINE
  5
1B0B4
330
1AC64
100
AcDbEntity
  8
SUNPOU
100
AcDbLine
 10
4129.797051267462
 20
2711.084839419603
 30
0.0
 11
3835.443655266704
 21
2711.084839419603
 31
0.0
  0
LINE
  5
1B0B5
330
1AC64
100
AcDbEntity
  8
SUNPOU
100
AcDbLine
 10
4289.797051267464
 20
3191.084839419598
 30
0.0
 11
3835.443655266704
 21
3191.084839419598
 31
0.0
  0
LINE
  5
1B0B6
330
1AC64
100
AcDbEntity
  8
SUNPOU
100
AcDbLine
 10
3880.443655266704
 20
2726.084839419604
 30
0.0
 11
3880.443655266704
 21
3176.084839419598
 31
0.0
  0
LINE
  5
1B0B7
330
1AC64
100
AcDbEntity
  8
SUNPOU
100
AcDbLine
 10
4129.797051267462
 20
2711.084839419603
 30
0.0
 11
3835.443655266704
 21
2711.084839419603
 31
0.0
  0
LINE
  5
1B0B8
330
1AC64
100
AcDbEntity
  8
SUNPOU
100
AcDbLine
 10
4129.797051267462
 20
2551.084839419603
 30
0.0
 11
3835.443655266704
 21
2551.084839419603
 31
0.0
  0
LINE
  5
1B0B9
330
1AC64
100
AcDbEntity
  8
SUNPOU
100
AcDbLine
 10
3880.443655266704
 20
2696.084839419603
 30
0.0
 11
3880.443655266704
 21
2566.084839419604
 31
0.0
  0
LINE
  5
1B0BA
330
1AC64
100
AcDbEntity
  8
SUNPOU
100
AcDbLine
 10
3880.443655266704
 20
2551.084839419603
 30
0.0
 11
3880.443655266704
 21
2300.370553705317
 31
0.0
  0
LINE
  5
1B0BB
330
1AC64
100
AcDbEntity
  8
SUNPOU
100
AcDbLine
 10
4289.797051267464
 20
3456.684839419605
 30
0.0
 11
3625.443655266705
 21
3456.684839419605
 31
0.0
  0
LINE
  5
1B0BC
330
1AC64
100
AcDbEntity
  8
SUNPOU
100
AcDbLine
 10
4129.797051267463
 20
2551.084839419603
 30
0.0
 11
3625.443655266705
 21
2551.084839419603
 31
0.0
  0
LINE
  5
1B0BD
330
1AC64
100
AcDbEntity
  8
SUNPOU
100
AcDbLine
 10
3670.443655266705
 20
3441.684839419604
 30
0.0
 11
3670.443655266705
 21
2566.084839419604
 31
0.0
  0
LINE
  5
1B0BE
330
1AC64
100
AcDbEntity
  8
SUNPOU
100
AcDbLine
 10
6345.027558517712
 20
4130.485411556192
 30
0.0
 11
6285.0275585177
 21
4130.485411556192
 31
0.0
  0
LINE
  5
1B0BF
330
1AC64
100
AcDbEntity
  8
SUNPOU
100
AcDbLine
 10
6345.027558517706
 20
4130.485411556192
 30
0.0
 11
6285.027558517706
 21
4146.562363102062
 31
0.0
  0
LINE
  5
1B0C0
330
1AC64
100
AcDbEntity
  8
SUNPOU
100
AcDbLine
 10
6345.027558517712
 20
4130.485411556192
 30
0.0
 11
6285.0275585177
 21
4114.408460010323
 31
0.0
  0
LINE
  5
1B0C1
330
1AC64
100
AcDbEntity
  8
SUNPOU
100
AcDbLine
 10
6285.027558517714
 20
4130.485411556192
 30
0.0
 11
6225.027558517701
 21
4130.485411556192
 31
0.0
  0
LINE
  5
1B0C2
330
1AC64
100
AcDbEntity
  8
SUNPOU
100
AcDbLine
 10
6285.027558517706
 20
4130.485411556192
 30
0.0
 11
6225.027558517706
 21
4146.562363102062
 31
0.0
  0
LINE
  5
1B0C3
330
1AC64
100
AcDbEntity
  8
SUNPOU
100
AcDbLine
 10
6285.027558517714
 20
4130.485411556192
 30
0.0
 11
6225.027558517701
 21
4114.408460010323
 31
0.0
  0
LINE
  5
1B0C4
330
1AC64
100
AcDbEntity
  8
SUNPOU
100
AcDbLine
 10
4799.797051267463
 20
4160.485411556192
 30
0.0
 11
4799.797051267463
 21
4175.485411556191
 31
0.0
  0
LINE
  5
1B0C5
330
1AC64
100
AcDbEntity
  8
SUNPOU
100
AcDbLine
 10
4319.797051267463
 20
3486.684839419604
 30
0.0
 11
4319.797051267463
 21
4175.485411556191
 31
0.0
  0
LINE
  5
1B0C6
330
1AC64
100
AcDbEntity
  8
SUNPOU
100
AcDbLine
 10
4784.797051267463
 20
4130.485411556192
 30
0.0
 11
4334.797051267464
 21
4130.485411556192
 31
0.0
  0
ARC
  5
1B0C7
330
1AC64
100
AcDbEntity
  8
SUNPOU
100
AcDbCircle
 10
8580.123251791111
 20
4130.485411556196
 30
0.0
 40
5.625
100
AcDbArc
 50
90.0
 51
270.0
  0
ARC
  5
1B0C8
330
1AC64
100
AcDbEntity
  8
SUNPOU
100
AcDbCircle
 10
8580.123251791111
 20
4130.485411556196
 30
0.0
 40
5.625
100
AcDbArc
 50
270.0
 51
90.0
  0
TEXT
  5
1B0C9
330
1AC64
100
AcDbEntity
  8
SUNPOU
100
AcDbText
 10
8494.408966076823
 20
2193.684839419605
 30
0.0
 40
90.0
  1
800
 41
0.6666666666666666
  7
00
100
AcDbText
  0
LINE
  5
1B0CA
330
1AC64
100
AcDbEntity
  8
SUNPOU
100
AcDbLine
 10
9208.873251791109
 20
2148.684839419604
 30
0.0
 11
9197.623251791108
 21
2148.684839419604
 31
0.0
  0
LINE
  5
1B0CB
330
1AC64
100
AcDbEntity
  8
SUNPOU
100
AcDbLine
 10
7951.373251791109
 20
2148.684839419604
 30
0.0
 11
7962.623251791109
 21
2148.684839419604
 31
0.0
  0
TEXT
  5
1B0CC
330
1AC64
100
AcDbEntity
  8
SUNPOU
100
AcDbText
 10
8461.551823219677
 20
1983.684839419604
 30
0.0
 40
90.0
  1
1000
 41
0.6666666666666666
  7
00
100
AcDbText
  0
LINE
  5
1B0CD
330
1AC64
100
AcDbEntity
  8
SUNPOU
100
AcDbLine
 10
9368.873251791109
 20
1938.684839419604
 30
0.0
 11
9357.623251791109
 21
1938.684839419604
 31
0.0
  0
LINE
  5
1B0CE
330
1AC64
100
AcDbEntity
  8
SUNPOU
100
AcDbLine
 10
7791.373251791107
 20
1938.684839419604
 30
0.0
 11
7802.623251791108
 21
1938.684839419604
 31
0.0
  0
TEXT
  5
1B0CF
330
1AC64
100
AcDbEntity
  8
SUNPOU
100
AcDbText
 10
7615.76985579035
 20
3197.941982276748
 30
0.0
 40
90.0
  1
80
 50
90.0
 41
0.6666666666666666
  7
00
100
AcDbText
  0
LINE
  5
1B0D0
330
1AC64
100
AcDbEntity
  8
SUNPOU
100
AcDbLine
 10
7660.769855790352
 20
3202.334839419601
 30
0.0
 11
7660.769855790352
 21
3213.584839419601
 31
0.0
  0
LINE
  5
1B0D1
330
1AC64
100
AcDbEntity
  8
SUNPOU
100
AcDbLine
 10
7660.769855790352
 20
3307.834839419605
 30
0.0
 11
7660.769855790352
 21
3296.584839419606
 31
0.0
  0
TEXT
  5
1B0D2
330
1AC64
100
AcDbEntity
  8
SUNPOU
100
AcDbText
 10
7615.76985579035
 20
3508.113410848177
 30
0.0
 40
90.0
  1
80
 50
90.0
 41
0.6666666666666666
  7
00
100
AcDbText
  0
LINE
  5
1B0D3
330
1AC64
100
AcDbEntity
  8
SUNPOU
100
AcDbLine
 10
7660.769855790352
 20
3445.434839419605
 30
0.0
 11
7660.769855790352
 21
3434.184839419605
 31
0.0
  0
LINE
  5
1B0D4
330
1AC64
100
AcDbEntity
  8
SUNPOU
100
AcDbLine
 10
7660.769855790352
 20
3330.334839419603
 30
0.0
 11
7660.769855790352
 21
3341.584839419603
 31
0.0
  0
TEXT
  5
1B0D5
330
1AC64
100
AcDbEntity
  8
SUNPOU
100
AcDbText
 10
7615.76985579035
 20
2865.37055370532
 30
0.0
 40
90.0
  1
300
 50
90.0
 41
0.6666666666666666
  7
00
100
AcDbText
  0
LINE
  5
1B0D6
330
1AC64
100
AcDbEntity
  8
SUNPOU
100
AcDbLine
 10
7660.769855790352
 20
3179.834839419601
 30
0.0
 11
7660.769855790352
 21
3168.584839419601
 31
0.0
  0
LINE
  5
1B0D7
330
1AC64
100
AcDbEntity
  8
SUNPOU
100
AcDbLine
 10
7660.769855790352
 20
2722.334839419608
 30
0.0
 11
7660.769855790352
 21
2733.584839419608
 31
0.0
  0
TEXT
  5
1B0D8
330
1AC64
100
AcDbEntity
  8
SUNPOU
100
AcDbText
 10
7615.76985579035
 20
2328.227696562461
 30
0.0
 40
90.0
  1
100
 50
90.0
 41
0.6666666666666666
  7
00
100
AcDbText
  0
LINE
  5
1B0D9
330
1AC64
100
AcDbEntity
  8
SUNPOU
100
AcDbLine
 10
7660.769855790352
 20
2562.334839419603
 30
0.0
 11
7660.769855790352
 21
2573.584839419603
 31
0.0
  0
LINE
  5
1B0DA
330
1AC64
100
AcDbEntity
  8
SUNPOU
100
AcDbLine
 10
7660.769855790352
 20
2699.834839419608
 30
0.0
 11
7660.769855790352
 21
2688.584839419608
 31
0.0
  0
TEXT
  5
1B0DB
330
1AC64
100
AcDbEntity
  8
SUNPOU
100
AcDbText
 10
7405.76985579035
 20
2918.17055370532
 30
0.0
 40
90.0
  1
560
 50
90.0
 41
0.6666666666666666
  7
00
100
AcDbText
  0
LINE
  5
1B0DC
330
1AC64
100
AcDbEntity
  8
SUNPOU
100
AcDbLine
 10
7450.769855790351
 20
2562.334839419603
 30
0.0
 11
7450.769855790351
 21
2573.584839419603
 31
0.0
  0
LINE
  5
1B0DD
330
1AC64
100
AcDbEntity
  8
SUNPOU
100
AcDbLine
 10
7450.769855790351
 20
3445.434839419605
 30
0.0
 11
7450.769855790351
 21
3434.184839419605
 31
0.0
  0
TEXT
  5
1B0DE
330
1AC64
100
AcDbEntity
  8
SUNPOU
100
AcDbText
 10
9323.502746271772
 20
8110.715360473252
 30
0.0
 40
90.0
  1
800
 41
0.6666666666666666
  7
00
100
AcDbText
  0
LINE
  5
1B0DF
330
1AC64
100
AcDbEntity
  8
SUNPOU
100
AcDbLine
 10
9797.967031986061
 20
8065.715360473253
 30
0.0
 11
9786.717031986061
 21
8065.715360473253
 31
0.0
  0
LINE
  5
1B0E0
330
1AC64
100
AcDbEntity
  8
SUNPOU
100
AcDbLine
 10
9020.46703198606
 20
8065.715360473253
 30
0.0
 11
9031.71703198606
 21
8065.715360473253
 31
0.0
  0
TEXT
  5
1B0E1
330
1AC64
100
AcDbEntity
  8
SUNPOU
100
AcDbText
 10
8794.217031986056
 20
7410.001074758969
 30
0.0
 40
90.0
  1
800
 50
90.0
 41
0.6666666666666666
  7
00
100
AcDbText
  0
LINE
  5
1B0E2
330
1AC64
100
AcDbEntity
  8
SUNPOU
100
AcDbLine
 10
8839.217031986059
 20
7884.465360473253
 30
0.0
 11
8839.217031986059
 21
7873.215360473253
 31
0.0
  0
LINE
  5
1B0E3
330
1AC64
100
AcDbEntity
  8
SUNPOU
100
AcDbLine
 10
8839.217031986059
 20
7106.965360473253
 30
0.0
 11
8839.217031986059
 21
7118.215360473254
 31
0.0
  0
TEXT
  5
1B0E4
330
1AC64
100
AcDbEntity
  8
SUNPOU
100
AcDbText
 10
8764.217031986062
 20
9208.572503330399
 30
0.0
 40
90.0
  1
600
 50
90.0
 41
0.6666666666666666
  7
00
100
AcDbText
  0
LINE
  5
1B0E5
330
1AC64
100
AcDbEntity
  8
SUNPOU
100
AcDbLine
 10
8809.217031986062
 20
9006.96536047325
 30
0.0
 11
8809.217031986062
 21
9018.215360473252
 31
0.0
  0
LINE
  5
1B0E6
330
1AC64
100
AcDbEntity
  8
SUNPOU
100
AcDbLine
 10
8809.217031986062
 20
9584.465360473252
 30
0.0
 11
8809.217031986062
 21
9573.215360473252
 31
0.0
  0
TEXT
  5
1B0E7
330
1AC64
100
AcDbEntity
  8
SUNPOU
100
AcDbText
 10
9322.074174843205
 20
8740.715360473251
 30
0.0
 40
90.0
  1
600
 41
0.6666666666666666
  7
00
100
AcDbText
  0
LINE
  5
1B0E8
330
1AC64
100
AcDbEntity
  8
SUNPOU
100
AcDbLine
 10
9697.967031986067
 20
8695.715360473251
 30
0.0
 11
9686.717031986065
 21
8695.715360473251
 31
0.0
  0
LINE
  5
1B0E9
330
1AC64
100
AcDbEntity
  8
SUNPOU
100
AcDbLine
 10
9120.467031986065
 20
8695.715360473251
 30
0.0
 11
9131.717031986065
 21
8695.715360473251
 31
0.0
  0
TEXT
  5
1B0EA
330
1AC64
100
AcDbEntity
  8
SUNPOU
100
AcDbText
 10
9523.50274627177
 20
10040.71536047324
 30
0.0
 40
90.0
  1
400
 41
0.6666666666666666
  7
00
100
AcDbText
  0
LINE
  5
1B0EB
330
1AC64
100
AcDbEntity
  8
SUNPOU
100
AcDbLine
 10
9797.967031986054
 20
9995.715360473241
 30
0.0
 11
9786.717031986055
 21
9995.715360473241
 31
0.0
  0
LINE
  5
1B0EC
330
1AC64
100
AcDbEntity
  8
SUNPOU
100
AcDbLine
 10
9420.467031986056
 20
9995.715360473241
 30
0.0
 11
9431.717031986057
 21
9995.715360473241
 31
0.0
  0
TEXT
  5
1B0ED
330
1AC64
100
AcDbEntity
  8
SUNPOU
100
AcDbText
 10
8069.931317700344
 20
10250.71536047325
 30
0.0
 40
90.0
  1
3250
 41
0.6666666666666666
  7
00
100
AcDbText
  0
LINE
  5
1B0EE
330
1AC64
100
AcDbEntity
  8
SUNPOU
100
AcDbLine
 10
9797.967031986061
 20
10205.71536047325
 30
0.0
 11
9786.717031986061
 21
10205.71536047325
 31
0.0
  0
LINE
  5
1B0EF
330
1AC64
100
AcDbEntity
  8
SUNPOU
100
AcDbLine
 10
6570.467031986058
 20
10205.71536047325
 30
0.0
 11
6581.717031986058
 21
10205.71536047325
 31
0.0
  0
TEXT
  5
1B0F0
330
1AC64
100
AcDbEntity
  8
SUNPOU
100
AcDbText
 10
8069.931317700344
 20
10040.71536047325
 30
0.0
 40
90.0
  1
2450
 41
0.6666666666666666
  7
00
100
AcDbText
  0
LINE
  5
1B0F1
330
1AC64
100
AcDbEntity
  8
SUNPOU
100
AcDbLine
 10
6970.46703198606
 20
9995.715360473253
 30
0.0
 11
6981.717031986057
 21
9995.715360473253
 31
0.0
  0
LINE
  5
1B0F2
330
1AC64
100
AcDbEntity
  8
SUNPOU
100
AcDbLine
 10
9397.967031986061
 20
9995.715360473253
 30
0.0
 11
9386.71703198606
 21
9995.715360473253
 31
0.0
  0
TEXT
  5
1B0F3
330
1AC64
100
AcDbEntity
  8
SUNPOU
100
AcDbText
 10
6673.502746271774
 20
10040.71536047325
 30
0.0
 40
90.0
  1
400
 41
0.6666666666666666
  7
00
100
AcDbText
  0
LINE
  5
1B0F4
330
1AC64
100
AcDbEntity
  8
SUNPOU
100
AcDbLine
 10
6570.467031986058
 20
9995.715360473253
 30
0.0
 11
6581.717031986058
 21
9995.715360473253
 31
0.0
  0
LINE
  5
1B0F5
330
1AC64
100
AcDbEntity
  8
SUNPOU
100
AcDbLine
 10
6947.967031986057
 20
9995.715360473253
 30
0.0
 11
6936.717031986058
 21
9995.715360473253
 31
0.0
  0
TEXT
  5
1B0F6
330
1AC64
100
AcDbEntity
  8
SUNPOU
100
AcDbText
 10
10164.21703198606
 20
9360.001074758967
 30
0.0
 40
90.0
  1
300
 50
90.0
 41
0.6666666666666666
  7
00
100
AcDbText
  0
LINE
  5
1B0F7
330
1AC64
100
AcDbEntity
  8
SUNPOU
100
AcDbLine
 10
10209.21703198605
 20
9584.465360473252
 30
0.0
 11
10209.21703198605
 21
9573.215360473252
 31
0.0
  0
LINE
  5
1B0F8
330
1AC64
100
AcDbEntity
  8
SUNPOU
100
AcDbLine
 10
10209.21703198605
 20
9306.965360473252
 30
0.0
 11
10209.21703198605
 21
9318.215360473251
 31
0.0
  0
TEXT
  5
1B0F9
330
1AC64
100
AcDbEntity
  8
SUNPOU
100
AcDbText
 10
10164.21703198606
 20
8277.143931901827
 30
0.0
 40
90.0
  1
1800
 50
90.0
 41
0.6666666666666666
  7
00
100
AcDbText
  0
LINE
  5
1B0FA
330
1AC64
100
AcDbEntity
  8
SUNPOU
100
AcDbLine
 10
10209.21703198605
 20
9284.465360473253
 30
0.0
 11
10209.21703198605
 21
9273.215360473249
 31
0.0
  0
LINE
  5
1B0FB
330
1AC64
100
AcDbEntity
  8
SUNPOU
100
AcDbLine
 10
10209.21703198605
 20
7506.965360473255
 30
0.0
 11
10209.21703198605
 21
7518.215360473253
 31
0.0
  0
TEXT
  5
1B0FC
330
1AC64
100
AcDbEntity
  8
SUNPOU
100
AcDbText
 10
10164.21703198606
 20
6477.143931901827
 30
0.0
 40
90.0
  1
1800
 50
90.0
 41
0.6666666666666666
  7
00
100
AcDbText
  0
LINE
  5
1B0FD
330
1AC64
100
AcDbEntity
  8
SUNPOU
100
AcDbLine
 10
10209.21703198605
 20
7484.465360473255
 30
0.0
 11
10209.21703198605
 21
7473.215360473254
 31
0.0
  0
LINE
  5
1B0FE
330
1AC64
100
AcDbEntity
  8
SUNPOU
100
AcDbLine
 10
10209.21703198605
 20
5706.965360473253
 30
0.0
 11
10209.21703198605
 21
5718.215360473253
 31
0.0
  0
TEXT
  5
1B0FF
330
1AC64
100
AcDbEntity
  8
SUNPOU
100
AcDbText
 10
10164.21703198606
 20
5460.001074758968
 30
0.0
 40
90.0
  1
300
 50
90.0
 41
0.6666666666666666
  7
00
100
AcDbText
  0
LINE
  5
1B100
330
1AC64
100
AcDbEntity
  8
SUNPOU
100
AcDbLine
 10
10209.21703198605
 20
5684.465360473253
 30
0.0
 11
10209.21703198605
 21
5673.215360473253
 31
0.0
  0
LINE
  5
1B101
330
1AC64
100
AcDbEntity
  8
SUNPOU
100
AcDbLine
 10
10209.21703198605
 20
5406.965360473253
 30
0.0
 11
10209.21703198605
 21
5418.215360473253
 31
0.0
  0
TEXT
  5
1B102
330
1AC64
100
AcDbEntity
  8
SUNPOU
100
AcDbText
 10
10374.21703198605
 20
7381.42964618754
 30
0.0
 40
90.0
  1
4200
 50
90.0
 41
0.6666666666666666
  7
00
100
AcDbText
  0
LINE
  5
1B103
330
1AC64
100
AcDbEntity
  8
SUNPOU
100
AcDbLine
 10
10419.21703198606
 20
5406.965360473252
 30
0.0
 11
10419.21703198606
 21
5418.215360473252
 31
0.0
  0
LINE
  5
1B104
330
1AC64
100
AcDbEntity
  8
SUNPOU
100
AcDbLine
 10
10419.21703198606
 20
9584.465360473252
 30
0.0
 11
10419.21703198606
 21
9573.215360473252
 31
0.0
  0
TEXT
  5
1B105
330
1AC64
100
AcDbEntity
  8
SUNPOU
100
AcDbText
 10
12228.40680314954
 20
3937.765608013134
 30
0.0
 40
90.0
  1
40
 50
90.0
 41
0.6666666666666666
  7
00
100
AcDbText
  0
LINE
  5
1B106
330
1AC64
100
AcDbEntity
  8
SUNPOU
100
AcDbLine
 10
12273.40680314955
 20
3875.087036584561
 30
0.0
 11
12273.40680314955
 21
3863.83703658456
 31
0.0
  0
LINE
  5
1B107
330
1AC64
100
AcDbEntity
  8
SUNPOU
100
AcDbLine
 10
12273.40680314955
 20
3737.587036584561
 30
0.0
 11
12273.40680314955
 21
3748.837036584561
 31
0.0
  0
TEXT
  5
1B108
330
1AC64
100
AcDbEntity
  8
SUNPOU
100
AcDbText
 10
12228.40680314954
 20
3437.622750870277
 30
0.0
 40
90.0
  1
27
 50
90.0
 41
0.6666666666666666
  7
00
100
AcDbText
  0
LINE
  5
1B109
330
1AC64
100
AcDbEntity
  8
SUNPOU
100
AcDbLine
 10
12273.40680314955
 20
3607.087036584561
 30
0.0
 11
12273.40680314955
 21
3595.837036584561
 31
0.0
  0
LINE
  5
1B10A
330
1AC64
100
AcDbEntity
  8
SUNPOU
100
AcDbLine
 10
12273.40680314955
 20
3737.587036584561
 30
0.0
 11
12273.40680314955
 21
3748.837036584561
 31
0.0
  0
TEXT
  5
1B10B
330
1AC64
100
AcDbEntity
  8
SUNPOU
100
AcDbText
 10
11927.76694549065
 20
2290.804976716086
 30
0.0
 40
90.0
  1
20
 41
0.6666666666666666
  7
00
100
AcDbText
  0
LINE
  5
1B10C
330
1AC64
100
AcDbEntity
  8
SUNPOU
100
AcDbLine
 10
11872.58837406209
 20
2245.804976716085
 30
0.0
 11
11883.83837406209
 21
2245.804976716085
 31
0.0
  0
LINE
  5
1B10D
330
1AC64
100
AcDbEntity
  8
SUNPOU
100
AcDbLine
 10
11770.08837406209
 20
2245.804976716085
 30
0.0
 11
11758.83837406209
 21
2245.804976716085
 31
0.0
  0
TEXT
  5
1B10E
330
1AC64
100
AcDbEntity
  8
SUNPOU
100
AcDbText
 10
11451.33837406209
 20
2290.804976716086
 30
0.0
 40
90.0
  1
120
 41
0.6666666666666666
  7
00
100
AcDbText
  0
LINE
  5
1B10F
330
1AC64
100
AcDbEntity
  8
SUNPOU
100
AcDbLine
 10
11770.08837406209
 20
2245.804976716085
 30
0.0
 11
11758.83837406209
 21
2245.804976716085
 31
0.0
  0
LINE
  5
1B110
330
1AC64
100
AcDbEntity
  8
SUNPOU
100
AcDbLine
 10
11312.5883740621
 20
2245.804976716085
 30
0.0
 11
11323.8383740621
 21
2245.804976716085
 31
0.0
  0
TEXT
  5
1B111
330
1AC64
100
AcDbEntity
  8
SUNPOU
100
AcDbText
 10
11040.6240883478
 20
2290.804976716086
 30
0.0
 40
90.0
  1
20
 41
0.6666666666666666
  7
00
100
AcDbText
  0
LINE
  5
1B112
330
1AC64
100
AcDbEntity
  8
SUNPOU
100
AcDbLine
 10
11210.08837406209
 20
2245.804976716085
 30
0.0
 11
11198.83837406209
 21
2245.804976716085
 31
0.0
  0
LINE
  5
1B113
330
1AC64
100
AcDbEntity
  8
SUNPOU
100
AcDbLine
 10
11312.5883740621
 20
2245.804976716085
 30
0.0
 11
11323.8383740621
 21
2245.804976716085
 31
0.0
  0
TEXT
  5
1B114
330
1AC64
100
AcDbEntity
  8
SUNPOU
100
AcDbText
 10
11451.33837406208
 20
2080.804976716085
 30
0.0
 40
90.0
  1
160
 41
0.6666666666666666
  7
00
100
AcDbText
  0
LINE
  5
1B115
330
1AC64
100
AcDbEntity
  8
SUNPOU
100
AcDbLine
 10
11850.08837406209
 20
2035.804976716086
 30
0.0
 11
11838.83837406209
 21
2035.804976716086
 31
0.0
  0
LINE
  5
1B116
330
1AC64
100
AcDbEntity
  8
SUNPOU
100
AcDbLine
 10
11232.58837406209
 20
2035.804976716086
 30
0.0
 11
11243.83837406209
 21
2035.804976716086
 31
0.0
  0
TEXT
  5
1B117
330
1AC64
100
AcDbEntity
  8
SUNPOU
100
AcDbText
 10
10873.33837406209
 20
2374.430058338865
 30
0.0
 40
90.0
  1
40
 50
90.0
 41
0.6666666666666666
  7
00
100
AcDbText
  0
LINE
  5
1B118
330
1AC64
100
AcDbEntity
  8
SUNPOU
100
AcDbLine
 10
10918.33837406209
 20
2551.394344053149
 30
0.0
 11
10918.33837406209
 21
2562.644344053149
 31
0.0
  0
LINE
  5
1B119
330
1AC64
100
AcDbEntity
  8
SUNPOU
100
AcDbLine
 10
10918.33837406209
 20
2688.894344053149
 30
0.0
 11
10918.33837406209
 21
2677.644344053149
 31
0.0
  0
TEXT
  5
1B11A
330
1AC64
100
AcDbEntity
  8
SUNPOU
100
AcDbText
 10
10873.33837406209
 20
2911.572915481723
 30
0.0
 40
90.0
  1
40
 50
90.0
 41
0.6666666666666666
  7
00
100
AcDbText
  0
LINE
  5
1B11B
330
1AC64
100
AcDbEntity
  8
SUNPOU
100
AcDbLine
 10
10918.33837406209
 20
2848.894344053149
 30
0.0
 11
10918.33837406209
 21
2837.644344053149
 31
0.0
  0
LINE
  5
1B11C
330
1AC64
100
AcDbEntity
  8
SUNPOU
100
AcDbLine
 10
10918.33837406209
 20
2711.394344053149
 30
0.0
 11
10918.33837406209
 21
2722.644344053149
 31
0.0
  0
TEXT
  5
1B11D
330
1AC64
100
AcDbEntity
  8
SUNPOU
100
AcDbText
 10
10663.33837406209
 20
2643.001486910295
 30
0.0
 40
90.0
  1
80
 50
90.0
 41
0.6666666666666666
  7
00
100
AcDbText
  0
LINE
  5
1B11E
330
1AC64
100
AcDbEntity
  8
SUNPOU
100
AcDbLine
 10
10708.33837406208
 20
2848.894344053149
 30
0.0
 11
10708.33837406208
 21
2837.644344053149
 31
0.0
  0
LINE
  5
1B11F
330
1AC64
100
AcDbEntity
  8
SUNPOU
100
AcDbLine
 10
10708.33837406208
 20
2551.394344053149
 30
0.0
 11
10708.33837406208
 21
2562.644344053149
 31
0.0
  0
TEXT
  5
1B120
330
1AC64
100
AcDbEntity
  8
SUNPOU
100
AcDbText
 10
11927.76694549065
 20
3439.170862655058
 30
0.0
 40
90.0
  1
20
 41
0.6666666666666666
  7
00
100
AcDbText
  0
LINE
  5
1B121
330
1AC64
100
AcDbEntity
  8
SUNPOU
100
AcDbLine
 10
11872.58837406209
 20
3394.170862655057
 30
0.0
 11
11883.83837406209
 21
3394.170862655057
 31
0.0
  0
LINE
  5
1B122
330
1AC64
100
AcDbEntity
  8
SUNPOU
100
AcDbLine
 10
11770.08837406209
 20
3394.170862655057
 30
0.0
 11
11758.83837406209
 21
3394.170862655057
 31
0.0
  0
TEXT
  5
1B123
330
1AC64
100
AcDbEntity
  8
SUNPOU
100
AcDbText
 10
11451.33837406209
 20
3439.170862655058
 30
0.0
 40
90.0
  1
120
 41
0.6666666666666666
  7
00
100
AcDbText
  0
LINE
  5
1B124
330
1AC64
100
AcDbEntity
  8
SUNPOU
100
AcDbLine
 10
11770.08837406209
 20
3394.170862655057
 30
0.0
 11
11758.83837406209
 21
3394.170862655057
 31
0.0
  0
LINE
  5
1B125
330
1AC64
100
AcDbEntity
  8
SUNPOU
100
AcDbLine
 10
11312.5883740621
 20
3394.170862655057
 30
0.0
 11
11323.8383740621
 21
3394.170862655057
 31
0.0
  0
TEXT
  5
1B126
330
1AC64
100
AcDbEntity
  8
SUNPOU
100
AcDbText
 10
11040.6240883478
 20
3439.170862655058
 30
0.0
 40
90.0
  1
20
 41
0.6666666666666666
  7
00
100
AcDbText
  0
LINE
  5
1B127
330
1AC64
100
AcDbEntity
  8
SUNPOU
100
AcDbLine
 10
11210.08837406209
 20
3394.170862655057
 30
0.0
 11
11198.83837406209
 21
3394.170862655057
 31
0.0
  0
LINE
  5
1B128
330
1AC64
100
AcDbEntity
  8
SUNPOU
100
AcDbLine
 10
11312.5883740621
 20
3394.170862655057
 30
0.0
 11
11323.8383740621
 21
3394.170862655057
 31
0.0
  0
TEXT
  5
1B129
330
1AC64
100
AcDbEntity
  8
SUNPOU
100
AcDbText
 10
11451.33837406208
 20
3229.170862655058
 30
0.0
 40
90.0
  1
160
 41
0.6666666666666666
  7
00
100
AcDbText
  0
LINE
  5
1B12A
330
1AC64
100
AcDbEntity
  8
SUNPOU
100
AcDbLine
 10
11850.08837406209
 20
3184.170862655058
 30
0.0
 11
11838.83837406209
 21
3184.170862655058
 31
0.0
  0
LINE
  5
1B12B
330
1AC64
100
AcDbEntity
  8
SUNPOU
100
AcDbLine
 10
11232.58837406209
 20
3184.170862655058
 30
0.0
 11
11243.83837406209
 21
3184.170862655058
 31
0.0
  0
TEXT
  5
1B12C
330
1AC64
100
AcDbEntity
  8
SUNPOU
100
AcDbText
 10
4712.654194124605
 20
2193.684839419601
 30
0.0
 40
90.0
  1
600
 41
0.6666666666666666
  7
00
100
AcDbText
  0
LINE
  5
1B12D
330
1AC64
100
AcDbEntity
  8
SUNPOU
100
AcDbLine
 10
5268.547051267464
 20
2148.684839419601
 30
0.0
 11
5257.297051267464
 21
2148.684839419601
 31
0.0
  0
LINE
  5
1B12E
330
1AC64
100
AcDbEntity
  8
SUNPOU
100
AcDbLine
 10
4331.047051267463
 20
2148.684839419601
 30
0.0
 11
4342.297051267464
 21
2148.684839419601
 31
0.0
  0
TEXT
  5
1B12F
330
1AC64
100
AcDbEntity
  8
SUNPOU
100
AcDbText
 10
4714.082765553176
 20
1983.6848394196
 30
0.0
 40
90.0
  1
800
 41
0.6666666666666666
  7
00
100
AcDbText
  0
LINE
  5
1B130
330
1AC64
100
AcDbEntity
  8
SUNPOU
100
AcDbLine
 10
5428.547051267462
 20
1938.6848394196
 30
0.0
 11
5417.297051267462
 21
1938.6848394196
 31
0.0
  0
LINE
  5
1B131
330
1AC64
100
AcDbEntity
  8
SUNPOU
100
AcDbLine
 10
4171.047051267462
 20
1938.6848394196
 30
0.0
 11
4182.297051267462
 21
1938.6848394196
 31
0.0
  0
TEXT
  5
1B132
330
1AC64
100
AcDbEntity
  8
SUNPOU
100
AcDbText
 10
3415.443655266705
 20
3523.113410848177
 30
0.0
 40
90.0
  1
50
 50
90.0
 41
0.6666666666666666
  7
00
100
AcDbText
  0
LINE
  5
1B133
330
1AC64
100
AcDbEntity
  8
SUNPOU
100
AcDbLine
 10
3460.443655266704
 20
3467.934839419605
 30
0.0
 11
3460.443655266704
 21
3479.184839419604
 31
0.0
  0
LINE
  5
1B134
330
1AC64
100
AcDbEntity
  8
SUNPOU
100
AcDbLine
 10
3460.443655266704
 20
3365.434839419604
 30
0.0
 11
3460.443655266704
 21
3354.184839419604
 31
0.0
  0
TEXT
  5
1B135
330
1AC64
100
AcDbEntity
  8
SUNPOU
100
AcDbText
 10
3835.443655266707
 20
3197.941982276741
 30
0.0
 40
90.0
  1
80
 50
90.0
 41
0.6666666666666666
  7
00
100
AcDbText
  0
LINE
  5
1B136
330
1AC64
100
AcDbEntity
  8
SUNPOU
100
AcDbLine
 10
3880.443655266708
 20
3202.334839419596
 30
0.0
 11
3880.443655266708
 21
3213.584839419597
 31
0.0
  0
LINE
  5
1B137
330
1AC64
100
AcDbEntity
  8
SUNPOU
100
AcDbLine
 10
3880.443655266708
 20
3307.834839419601
 30
0.0
 11
3880.443655266708
 21
3296.584839419601
 31
0.0
  0
TEXT
  5
1B138
330
1AC64
100
AcDbEntity
  8
SUNPOU
100
AcDbText
 10
3835.443655266704
 20
3508.113410848177
 30
0.0
 40
90.0
  1
80
 50
90.0
 41
0.6666666666666666
  7
00
100
AcDbText
  0
LINE
  5
1B139
330
1AC64
100
AcDbEntity
  8
SUNPOU
100
AcDbLine
 10
3880.443655266704
 20
3445.434839419605
 30
0.0
 11
3880.443655266704
 21
3434.184839419605
 31
0.0
  0
LINE
  5
1B13A
330
1AC64
100
AcDbEntity
  8
SUNPOU
100
AcDbLine
 10
3880.443655266704
 20
3330.334839419603
 30
0.0
 11
3880.443655266704
 21
3341.584839419603
 31
0.0
  0
TEXT
  5
1B13B
330
1AC64
100
AcDbEntity
  8
SUNPOU
100
AcDbText
 10
3835.443655266704
 20
2865.370553705316
 30
0.0
 40
90.0
  1
300
 50
90.0
 41
0.6666666666666666
  7
00
100
AcDbText
  0
LINE
  5
1B13C
330
1AC64
100
AcDbEntity
  8
SUNPOU
100
AcDbLine
 10
3880.443655266704
 20
3179.834839419598
 30
0.0
 11
3880.443655266704
 21
3168.584839419598
 31
0.0
  0
LINE
  5
1B13D
330
1AC64
100
AcDbEntity
  8
SUNPOU
100
AcDbLine
 10
3880.443655266704
 20
2722.334839419604
 30
0.0
 11
3880.443655266704
 21
2733.584839419604
 31
0.0
  0
TEXT
  5
1B13E
330
1AC64
100
AcDbEntity
  8
SUNPOU
100
AcDbText
 10
3835.443655266704
 20
2328.227696562461
 30
0.0
 40
90.0
  1
100
 50
90.0
 41
0.6666666666666666
  7
00
100
AcDbText
  0
LINE
  5
1B13F
330
1AC64
100
AcDbEntity
  8
SUNPOU
100
AcDbLine
 10
3880.443655266704
 20
2562.334839419603
 30
0.0
 11
3880.443655266704
 21
2573.584839419603
 31
0.0
  0
LINE
  5
1B140
330
1AC64
100
AcDbEntity
  8
SUNPOU
100
AcDbLine
 10
3880.443655266704
 20
2699.834839419605
 30
0.0
 11
3880.443655266704
 21
2688.584839419605
 31
0.0
  0
TEXT
  5
1B141
330
1AC64
100
AcDbEntity
  8
SUNPOU
100
AcDbText
 10
3625.443655266705
 20
2918.170553705319
 30
0.0
 40
90.0
  1
560
 50
90.0
 41
0.6666666666666666
  7
00
100
AcDbText
  0
LINE
  5
1B142
330
1AC64
100
AcDbEntity
  8
SUNPOU
100
AcDbLine
 10
3670.443655266705
 20
2562.334839419603
 30
0.0
 11
3670.443655266705
 21
2573.584839419603
 31
0.0
  0
LINE
  5
1B143
330
1AC64
100
AcDbEntity
  8
SUNPOU
100
AcDbLine
 10
3670.443655266705
 20
3445.434839419605
 30
0.0
 11
3670.443655266705
 21
3434.184839419605
 31
0.0
  0
TEXT
  5
1B144
330
1AC64
100
AcDbEntity
  8
SUNPOU
100
AcDbText
 10
4474.082765553179
 20
4175.485411556191
 30
0.0
 40
90.0
  1
300
 41
0.6666666666666666
  7
00
100
AcDbText
  0
LINE
  5
1B145
330
1AC64
100
AcDbEntity
  8
SUNPOU
100
AcDbLine
 10
4331.047051267463
 20
4130.485411556192
 30
0.0
 11
4342.297051267464
 21
4130.485411556192
 31
0.0
  0
LINE
  5
1B146
330
1AC64
100
AcDbEntity
  8
SUNPOU
100
AcDbLine
 10
4788.547051267463
 20
4130.485411556192
 30
0.0
 11
4777.297051267463
 21
4130.485411556192
 31
0.0
  0
ARC
  5
1B147
330
1AC64
100
AcDbEntity
  8
SUNPOU
100
AcDbCircle
 10
9220.123251791108
 20
2148.684839419604
 30
0.0
 40
5.625
100
AcDbArc
 50
180.0
 51
0.0
  0
ARC
  5
1B148
330
1AC64
100
AcDbEntity
  8
SUNPOU
100
AcDbCircle
 10
9220.123251791108
 20
2148.684839419604
 30
0.0
 40
5.625
100
AcDbArc
 50
0.0
 51
180.0
  0
ARC
  5
1B149
330
1AC64
100
AcDbEntity
  8
SUNPOU
100
AcDbCircle
 10
7940.12325179111
 20
2148.684839419604
 30
0.0
 40
5.625
100
AcDbArc
 50
0.0
 51
180.0
  0
ARC
  5
1B14A
330
1AC64
100
AcDbEntity
  8
SUNPOU
100
AcDbCircle
 10
7940.12325179111
 20
2148.684839419604
 30
0.0
 40
5.625
100
AcDbArc
 50
180.0
 51
0.0
  0
ARC
  5
1B14B
330
1AC64
100
AcDbEntity
  8
SUNPOU
100
AcDbCircle
 10
9380.123251791109
 20
1938.684839419604
 30
0.0
 40
5.625
100
AcDbArc
 50
180.0
 51
0.0
  0
ARC
  5
1B14C
330
1AC64
100
AcDbEntity
  8
SUNPOU
100
AcDbCircle
 10
9380.123251791109
 20
1938.684839419604
 30
0.0
 40
5.625
100
AcDbArc
 50
0.0
 51
180.0
  0
ARC
  5
1B14D
330
1AC64
100
AcDbEntity
  8
SUNPOU
100
AcDbCircle
 10
7780.123251791109
 20
1938.684839419604
 30
0.0
 40
5.625
100
AcDbArc
 50
0.0
 51
180.0
  0
ARC
  5
1B14E
330
1AC64
100
AcDbEntity
  8
SUNPOU
100
AcDbCircle
 10
7780.123251791109
 20
1938.684839419604
 30
0.0
 40
5.625
100
AcDbArc
 50
180.0
 51
0.0
  0
ARC
  5
1B14F
330
1AC64
100
AcDbEntity
  8
SUNPOU
100
AcDbCircle
 10
7660.769855790352
 20
3191.0848394196
 30
0.0
 40
5.625
100
AcDbArc
 50
90.0
 51
270.0
  0
ARC
  5
1B150
330
1AC64
100
AcDbEntity
  8
SUNPOU
100
AcDbCircle
 10
7660.769855790352
 20
3191.0848394196
 30
0.0
 40
5.625
100
AcDbArc
 50
270.0
 51
90.0
  0
ARC
  5
1B151
330
1AC64
100
AcDbEntity
  8
SUNPOU
100
AcDbCircle
 10
7660.769855790352
 20
3319.084839419605
 30
0.0
 40
5.625
100
AcDbArc
 50
270.0
 51
90.0
  0
ARC
  5
1B152
330
1AC64
100
AcDbEntity
  8
SUNPOU
100
AcDbCircle
 10
7660.769855790352
 20
3319.084839419605
 30
0.0
 40
5.625
100
AcDbArc
 50
90.0
 51
270.0
  0
ARC
  5
1B153
330
1AC64
100
AcDbEntity
  8
SUNPOU
100
AcDbCircle
 10
7660.769855790352
 20
3456.684839419605
 30
0.0
 40
5.625
100
AcDbArc
 50
270.0
 51
90.0
  0
ARC
  5
1B154
330
1AC64
100
AcDbEntity
  8
SUNPOU
100
AcDbCircle
 10
7660.769855790352
 20
3456.684839419605
 30
0.0
 40
5.625
100
AcDbArc
 50
90.0
 51
270.0
  0
ARC
  5
1B155
330
1AC64
100
AcDbEntity
  8
SUNPOU
100
AcDbCircle
 10
7660.769855790352
 20
3319.084839419603
 30
0.0
 40
5.625
100
AcDbArc
 50
90.0
 51
270.0
  0
ARC
  5
1B156
330
1AC64
100
AcDbEntity
  8
SUNPOU
100
AcDbCircle
 10
7660.769855790352
 20
3319.084839419603
 30
0.0
 40
5.625
100
AcDbArc
 50
270.0
 51
90.0
  0
ARC
  5
1B157
330
1AC64
100
AcDbEntity
  8
SUNPOU
100
AcDbCircle
 10
7660.769855790352
 20
3191.0848394196
 30
0.0
 40
5.625
100
AcDbArc
 50
270.0
 51
90.0
  0
ARC
  5
1B158
330
1AC64
100
AcDbEntity
  8
SUNPOU
100
AcDbCircle
 10
7660.769855790352
 20
3191.0848394196
 30
0.0
 40
5.625
100
AcDbArc
 50
90.0
 51
270.0
  0
ARC
  5
1B159
330
1AC64
100
AcDbEntity
  8
SUNPOU
100
AcDbCircle
 10
7660.769855790352
 20
2711.084839419607
 30
0.0
 40
5.625
100
AcDbArc
 50
90.0
 51
270.0
  0
ARC
  5
1B15A
330
1AC64
100
AcDbEntity
  8
SUNPOU
100
AcDbCircle
 10
7660.769855790352
 20
2711.084839419607
 30
0.0
 40
5.625
100
AcDbArc
 50
270.0
 51
90.0
  0
ARC
  5
1B15B
330
1AC64
100
AcDbEntity
  8
SUNPOU
100
AcDbCircle
 10
7660.769855790352
 20
2551.084839419603
 30
0.0
 40
5.625
100
AcDbArc
 50
90.0
 51
270.0
  0
ARC
  5
1B15C
330
1AC64
100
AcDbEntity
  8
SUNPOU
100
AcDbCircle
 10
7660.769855790352
 20
2551.084839419603
 30
0.0
 40
5.625
100
AcDbArc
 50
270.0
 51
90.0
  0
ARC
  5
1B15D
330
1AC64
100
AcDbEntity
  8
SUNPOU
100
AcDbCircle
 10
7660.769855790352
 20
2711.084839419607
 30
0.0
 40
5.625
100
AcDbArc
 50
270.0
 51
90.0
  0
ARC
  5
1B15E
330
1AC64
100
AcDbEntity
  8
SUNPOU
100
AcDbCircle
 10
7660.769855790352
 20
2711.084839419607
 30
0.0
 40
5.625
100
AcDbArc
 50
90.0
 51
270.0
  0
ARC
  5
1B15F
330
1AC64
100
AcDbEntity
  8
SUNPOU
100
AcDbCircle
 10
7450.769855790351
 20
2551.084839419603
 30
0.0
 40
5.625
100
AcDbArc
 50
90.0
 51
270.0
  0
ARC
  5
1B160
330
1AC64
100
AcDbEntity
  8
SUNPOU
100
AcDbCircle
 10
7450.769855790351
 20
2551.084839419603
 30
0.0
 40
5.625
100
AcDbArc
 50
270.0
 51
90.0
  0
ARC
  5
1B161
330
1AC64
100
AcDbEntity
  8
SUNPOU
100
AcDbCircle
 10
7450.769855790351
 20
3456.684839419605
 30
0.0
 40
5.625
100
AcDbArc
 50
270.0
 51
90.0
  0
ARC
  5
1B162
330
1AC64
100
AcDbEntity
  8
SUNPOU
100
AcDbCircle
 10
7450.769855790351
 20
3456.684839419605
 30
0.0
 40
5.625
100
AcDbArc
 50
90.0
 51
270.0
  0
ARC
  5
1B163
330
1AC64
100
AcDbEntity
  8
SUNPOU
100
AcDbCircle
 10
9809.21703198606
 20
8065.715360473253
 30
0.0
 40
5.625
100
AcDbArc
 50
180.0
 51
0.0
  0
ARC
  5
1B164
330
1AC64
100
AcDbEntity
  8
SUNPOU
100
AcDbCircle
 10
9809.21703198606
 20
8065.715360473253
 30
0.0
 40
5.625
100
AcDbArc
 50
0.0
 51
180.0
  0
ARC
  5
1B165
330
1AC64
100
AcDbEntity
  8
SUNPOU
100
AcDbCircle
 10
9009.217031986059
 20
8065.715360473253
 30
0.0
 40
5.625
100
AcDbArc
 50
0.0
 51
180.0
  0
ARC
  5
1B166
330
1AC64
100
AcDbEntity
  8
SUNPOU
100
AcDbCircle
 10
9009.217031986059
 20
8065.715360473253
 30
0.0
 40
5.625
100
AcDbArc
 50
180.0
 51
0.0
  0
ARC
  5
1B167
330
1AC64
100
AcDbEntity
  8
SUNPOU
100
AcDbCircle
 10
8839.217031986059
 20
7895.715360473253
 30
0.0
 40
5.625
100
AcDbArc
 50
270.0
 51
90.0
  0
ARC
  5
1B168
330
1AC64
100
AcDbEntity
  8
SUNPOU
100
AcDbCircle
 10
8839.217031986059
 20
7895.715360473253
 30
0.0
 40
5.625
100
AcDbArc
 50
90.0
 51
270.0
  0
ARC
  5
1B169
330
1AC64
100
AcDbEntity
  8
SUNPOU
100
AcDbCircle
 10
8839.217031986059
 20
7095.715360473253
 30
0.0
 40
5.625
100
AcDbArc
 50
90.0
 51
270.0
  0
ARC
  5
1B16A
330
1AC64
100
AcDbEntity
  8
SUNPOU
100
AcDbCircle
 10
8839.217031986059
 20
7095.715360473253
 30
0.0
 40
5.625
100
AcDbArc
 50
270.0
 51
90.0
  0
ARC
  5
1B16B
330
1AC64
100
AcDbEntity
  8
SUNPOU
100
AcDbCircle
 10
8809.217031986062
 20
8995.715360473253
 30
0.0
 40
5.625
100
AcDbArc
 50
90.0
 51
270.0
  0
ARC
  5
1B16C
330
1AC64
100
AcDbEntity
  8
SUNPOU
100
AcDbCircle
 10
8809.217031986062
 20
8995.715360473253
 30
0.0
 40
5.625
100
AcDbArc
 50
270.0
 51
90.0
  0
ARC
  5
1B16D
330
1AC64
100
AcDbEntity
  8
SUNPOU
100
AcDbCircle
 10
8809.217031986062
 20
9595.715360473253
 30
0.0
 40
5.625
100
AcDbArc
 50
270.0
 51
90.0
  0
ARC
  5
1B16E
330
1AC64
100
AcDbEntity
  8
SUNPOU
100
AcDbCircle
 10
8809.217031986062
 20
9595.715360473253
 30
0.0
 40
5.625
100
AcDbArc
 50
90.0
 51
270.0
  0
ARC
  5
1B16F
330
1AC64
100
AcDbEntity
  8
SUNPOU
100
AcDbCircle
 10
9709.217031986066
 20
8695.715360473251
 30
0.0
 40
5.625
100
AcDbArc
 50
180.0
 51
0.0
  0
ARC
  5
1B170
330
1AC64
100
AcDbEntity
  8
SUNPOU
100
AcDbCircle
 10
9709.217031986066
 20
8695.715360473251
 30
0.0
 40
5.625
100
AcDbArc
 50
0.0
 51
180.0
  0
ARC
  5
1B171
330
1AC64
100
AcDbEntity
  8
SUNPOU
100
AcDbCircle
 10
9109.217031986066
 20
8695.715360473251
 30
0.0
 40
5.625
100
AcDbArc
 50
0.0
 51
180.0
  0
ARC
  5
1B172
330
1AC64
100
AcDbEntity
  8
SUNPOU
100
AcDbCircle
 10
9109.217031986066
 20
8695.715360473251
 30
0.0
 40
5.625
100
AcDbArc
 50
180.0
 51
0.0
  0
ARC
  5
1B173
330
1AC64
100
AcDbEntity
  8
SUNPOU
100
AcDbCircle
 10
9809.217031986054
 20
9995.715360473241
 30
0.0
 40
5.625
100
AcDbArc
 50
180.0
 51
0.0
  0
ARC
  5
1B174
330
1AC64
100
AcDbEntity
  8
SUNPOU
100
AcDbCircle
 10
9809.217031986054
 20
9995.715360473241
 30
0.0
 40
5.625
100
AcDbArc
 50
0.0
 51
180.0
  0
ARC
  5
1B175
330
1AC64
100
AcDbEntity
  8
SUNPOU
100
AcDbCircle
 10
9409.217031986056
 20
9995.715360473241
 30
0.0
 40
5.625
100
AcDbArc
 50
0.0
 51
180.0
  0
ARC
  5
1B176
330
1AC64
100
AcDbEntity
  8
SUNPOU
100
AcDbCircle
 10
9409.217031986056
 20
9995.715360473241
 30
0.0
 40
5.625
100
AcDbArc
 50
180.0
 51
0.0
  0
ARC
  5
1B177
330
1AC64
100
AcDbEntity
  8
SUNPOU
100
AcDbCircle
 10
9809.21703198606
 20
10205.71536047325
 30
0.0
 40
5.625
100
AcDbArc
 50
180.0
 51
0.0
  0
ARC
  5
1B178
330
1AC64
100
AcDbEntity
  8
SUNPOU
100
AcDbCircle
 10
9809.21703198606
 20
10205.71536047325
 30
0.0
 40
5.625
100
AcDbArc
 50
0.0
 51
180.0
  0
ARC
  5
1B179
330
1AC64
100
AcDbEntity
  8
SUNPOU
100
AcDbCircle
 10
6559.217031986058
 20
10205.71536047325
 30
0.0
 40
5.625
100
AcDbArc
 50
0.0
 51
180.0
  0
ARC
  5
1B17A
330
1AC64
100
AcDbEntity
  8
SUNPOU
100
AcDbCircle
 10
6559.217031986058
 20
10205.71536047325
 30
0.0
 40
5.625
100
AcDbArc
 50
180.0
 51
0.0
  0
ARC
  5
1B17B
330
1AC64
100
AcDbEntity
  8
SUNPOU
100
AcDbCircle
 10
6959.217031986058
 20
9995.715360473253
 30
0.0
 40
5.625
100
AcDbArc
 50
0.0
 51
180.0
  0
ARC
  5
1B17C
330
1AC64
100
AcDbEntity
  8
SUNPOU
100
AcDbCircle
 10
6959.217031986058
 20
9995.715360473253
 30
0.0
 40
5.625
100
AcDbArc
 50
180.0
 51
0.0
  0
ARC
  5
1B17D
330
1AC64
100
AcDbEntity
  8
SUNPOU
100
AcDbCircle
 10
9409.217031986059
 20
9995.715360473253
 30
0.0
 40
5.625
100
AcDbArc
 50
180.0
 51
0.0
  0
ARC
  5
1B17E
330
1AC64
100
AcDbEntity
  8
SUNPOU
100
AcDbCircle
 10
9409.217031986059
 20
9995.715360473253
 30
0.0
 40
5.625
100
AcDbArc
 50
0.0
 51
180.0
  0
ARC
  5
1B17F
330
1AC64
100
AcDbEntity
  8
SUNPOU
100
AcDbCircle
 10
6559.217031986058
 20
9995.715360473253
 30
0.0
 40
5.625
100
AcDbArc
 50
0.0
 51
180.0
  0
ARC
  5
1B180
330
1AC64
100
AcDbEntity
  8
SUNPOU
100
AcDbCircle
 10
6559.217031986058
 20
9995.715360473253
 30
0.0
 40
5.625
100
AcDbArc
 50
180.0
 51
0.0
  0
ARC
  5
1B181
330
1AC64
100
AcDbEntity
  8
SUNPOU
100
AcDbCircle
 10
6959.217031986058
 20
9995.715360473253
 30
0.0
 40
5.625
100
AcDbArc
 50
180.0
 51
0.0
  0
ARC
  5
1B182
330
1AC64
100
AcDbEntity
  8
SUNPOU
100
AcDbCircle
 10
6959.217031986058
 20
9995.715360473253
 30
0.0
 40
5.625
100
AcDbArc
 50
0.0
 51
180.0
  0
ARC
  5
1B183
330
1AC64
100
AcDbEntity
  8
SUNPOU
100
AcDbCircle
 10
10209.21703198605
 20
9595.715360473253
 30
0.0
 40
5.625
100
AcDbArc
 50
270.0
 51
90.0
  0
ARC
  5
1B184
330
1AC64
100
AcDbEntity
  8
SUNPOU
100
AcDbCircle
 10
10209.21703198605
 20
9595.715360473253
 30
0.0
 40
5.625
100
AcDbArc
 50
90.0
 51
270.0
  0
ARC
  5
1B185
330
1AC64
100
AcDbEntity
  8
SUNPOU
100
AcDbCircle
 10
10209.21703198605
 20
9295.715360473252
 30
0.0
 40
5.625
100
AcDbArc
 50
90.0
 51
270.0
  0
ARC
  5
1B186
330
1AC64
100
AcDbEntity
  8
SUNPOU
100
AcDbCircle
 10
10209.21703198605
 20
9295.715360473252
 30
0.0
 40
5.625
100
AcDbArc
 50
270.0
 51
90.0
  0
ARC
  5
1B187
330
1AC64
100
AcDbEntity
  8
SUNPOU
100
AcDbCircle
 10
10209.21703198605
 20
9295.715360473252
 30
0.0
 40
5.625
100
AcDbArc
 50
270.0
 51
90.0
  0
ARC
  5
1B188
330
1AC64
100
AcDbEntity
  8
SUNPOU
100
AcDbCircle
 10
10209.21703198605
 20
9295.715360473252
 30
0.0
 40
5.625
100
AcDbArc
 50
90.0
 51
270.0
  0
ARC
  5
1B189
330
1AC64
100
AcDbEntity
  8
SUNPOU
100
AcDbCircle
 10
10209.21703198605
 20
7495.715360473251
 30
0.0
 40
5.625
100
AcDbArc
 50
90.0
 51
270.0
  0
ARC
  5
1B18A
330
1AC64
100
AcDbEntity
  8
SUNPOU
100
AcDbCircle
 10
10209.21703198605
 20
7495.715360473251
 30
0.0
 40
5.625
100
AcDbArc
 50
270.0
 51
90.0
  0
ARC
  5
1B18B
330
1AC64
100
AcDbEntity
  8
SUNPOU
100
AcDbCircle
 10
10209.21703198605
 20
7495.715360473255
 30
0.0
 40
5.625
100
AcDbArc
 50
270.0
 51
90.0
  0
ARC
  5
1B18C
330
1AC64
100
AcDbEntity
  8
SUNPOU
100
AcDbCircle
 10
10209.21703198605
 20
7495.715360473255
 30
0.0
 40
5.625
100
AcDbArc
 50
90.0
 51
270.0
  0
ARC
  5
1B18D
330
1AC64
100
AcDbEntity
  8
SUNPOU
100
AcDbCircle
 10
10209.21703198605
 20
5695.715360473253
 30
0.0
 40
5.625
100
AcDbArc
 50
90.0
 51
270.0
  0
ARC
  5
1B18E
330
1AC64
100
AcDbEntity
  8
SUNPOU
100
AcDbCircle
 10
10209.21703198605
 20
5695.715360473253
 30
0.0
 40
5.625
100
AcDbArc
 50
270.0
 51
90.0
  0
ARC
  5
1B18F
330
1AC64
100
AcDbEntity
  8
SUNPOU
100
AcDbCircle
 10
10209.21703198605
 20
5695.715360473253
 30
0.0
 40
5.625
100
AcDbArc
 50
270.0
 51
90.0
  0
ARC
  5
1B190
330
1AC64
100
AcDbEntity
  8
SUNPOU
100
AcDbCircle
 10
10209.21703198605
 20
5695.715360473253
 30
0.0
 40
5.625
100
AcDbArc
 50
90.0
 51
270.0
  0
ARC
  5
1B191
330
1AC64
100
AcDbEntity
  8
SUNPOU
100
AcDbCircle
 10
10209.21703198605
 20
5395.715360473253
 30
0.0
 40
5.625
100
AcDbArc
 50
90.0
 51
270.0
  0
ARC
  5
1B192
330
1AC64
100
AcDbEntity
  8
SUNPOU
100
AcDbCircle
 10
10209.21703198605
 20
5395.715360473253
 30
0.0
 40
5.625
100
AcDbArc
 50
270.0
 51
90.0
  0
ARC
  5
1B193
330
1AC64
100
AcDbEntity
  8
SUNPOU
100
AcDbCircle
 10
10419.21703198606
 20
5395.715360473253
 30
0.0
 40
5.625
100
AcDbArc
 50
90.0
 51
270.0
  0
ARC
  5
1B194
330
1AC64
100
AcDbEntity
  8
SUNPOU
100
AcDbCircle
 10
10419.21703198606
 20
5395.715360473253
 30
0.0
 40
5.625
100
AcDbArc
 50
270.0
 51
90.0
  0
ARC
  5
1B195
330
1AC64
100
AcDbEntity
  8
SUNPOU
100
AcDbCircle
 10
10419.21703198606
 20
9595.715360473253
 30
0.0
 40
5.625
100
AcDbArc
 50
270.0
 51
90.0
  0
ARC
  5
1B196
330
1AC64
100
AcDbEntity
  8
SUNPOU
100
AcDbCircle
 10
10419.21703198606
 20
9595.715360473253
 30
0.0
 40
5.625
100
AcDbArc
 50
90.0
 51
270.0
  0
ARC
  5
1B197
330
1AC64
100
AcDbEntity
  8
SUNPOU
100
AcDbCircle
 10
12273.40680314955
 20
3886.33703658456
 30
0.0
 40
5.625
100
AcDbArc
 50
270.0
 51
90.0
  0
ARC
  5
1B198
330
1AC64
100
AcDbEntity
  8
SUNPOU
100
AcDbCircle
 10
12273.40680314955
 20
3886.33703658456
 30
0.0
 40
5.625
100
AcDbArc
 50
90.0
 51
270.0
  0
ARC
  5
1B199
330
1AC64
100
AcDbEntity
  8
SUNPOU
100
AcDbCircle
 10
12273.40680314955
 20
3726.33703658456
 30
0.0
 40
5.625
100
AcDbArc
 50
90.0
 51
270.0
  0
ARC
  5
1B19A
330
1AC64
100
AcDbEntity
  8
SUNPOU
100
AcDbCircle
 10
12273.40680314955
 20
3726.33703658456
 30
0.0
 40
5.625
100
AcDbArc
 50
270.0
 51
90.0
  0
ARC
  5
1B19B
330
1AC64
100
AcDbEntity
  8
SUNPOU
100
AcDbCircle
 10
12273.40680314955
 20
3618.337036584561
 30
0.0
 40
5.625
100
AcDbArc
 50
270.0
 51
90.0
  0
ARC
  5
1B19C
330
1AC64
100
AcDbEntity
  8
SUNPOU
100
AcDbCircle
 10
12273.40680314955
 20
3618.337036584561
 30
0.0
 40
5.625
100
AcDbArc
 50
90.0
 51
270.0
  0
ARC
  5
1B19D
330
1AC64
100
AcDbEntity
  8
SUNPOU
100
AcDbCircle
 10
12273.40680314955
 20
3726.33703658456
 30
0.0
 40
5.625
100
AcDbArc
 50
90.0
 51
270.0
  0
ARC
  5
1B19E
330
1AC64
100
AcDbEntity
  8
SUNPOU
100
AcDbCircle
 10
12273.40680314955
 20
3726.33703658456
 30
0.0
 40
5.625
100
AcDbArc
 50
270.0
 51
90.0
  0
ARC
  5
1B19F
330
1AC64
100
AcDbEntity
  8
SUNPOU
100
AcDbCircle
 10
11861.33837406209
 20
2245.804976716085
 30
0.0
 40
5.625
100
AcDbArc
 50
0.0
 51
180.0
  0
ARC
  5
1B1A0
330
1AC64
100
AcDbEntity
  8
SUNPOU
100
AcDbCircle
 10
11861.33837406209
 20
2245.804976716085
 30
0.0
 40
5.625
100
AcDbArc
 50
180.0
 51
0.0
  0
ARC
  5
1B1A1
330
1AC64
100
AcDbEntity
  8
SUNPOU
100
AcDbCircle
 10
11781.33837406209
 20
2245.804976716085
 30
0.0
 40
5.625
100
AcDbArc
 50
180.0
 51
0.0
  0
ARC
  5
1B1A2
330
1AC64
100
AcDbEntity
  8
SUNPOU
100
AcDbCircle
 10
11781.33837406209
 20
2245.804976716085
 30
0.0
 40
5.625
100
AcDbArc
 50
0.0
 51
180.0
  0
ARC
  5
1B1A3
330
1AC64
100
AcDbEntity
  8
SUNPOU
100
AcDbCircle
 10
11781.33837406209
 20
2245.804976716085
 30
0.0
 40
5.625
100
AcDbArc
 50
180.0
 51
0.0
  0
ARC
  5
1B1A4
330
1AC64
100
AcDbEntity
  8
SUNPOU
100
AcDbCircle
 10
11781.33837406209
 20
2245.804976716085
 30
0.0
 40
5.625
100
AcDbArc
 50
0.0
 51
180.0
  0
ARC
  5
1B1A5
330
1AC64
100
AcDbEntity
  8
SUNPOU
100
AcDbCircle
 10
11301.33837406209
 20
2245.804976716085
 30
0.0
 40
5.625
100
AcDbArc
 50
0.0
 51
180.0
  0
ARC
  5
1B1A6
330
1AC64
100
AcDbEntity
  8
SUNPOU
100
AcDbCircle
 10
11301.33837406209
 20
2245.804976716085
 30
0.0
 40
5.625
100
AcDbArc
 50
180.0
 51
0.0
  0
ARC
  5
1B1A7
330
1AC64
100
AcDbEntity
  8
SUNPOU
100
AcDbCircle
 10
11221.33837406209
 20
2245.804976716085
 30
0.0
 40
5.625
100
AcDbArc
 50
180.0
 51
0.0
  0
ARC
  5
1B1A8
330
1AC64
100
AcDbEntity
  8
SUNPOU
100
AcDbCircle
 10
11221.33837406209
 20
2245.804976716085
 30
0.0
 40
5.625
100
AcDbArc
 50
0.0
 51
180.0
  0
ARC
  5
1B1A9
330
1AC64
100
AcDbEntity
  8
SUNPOU
100
AcDbCircle
 10
11301.33837406209
 20
2245.804976716085
 30
0.0
 40
5.625
100
AcDbArc
 50
0.0
 51
180.0
  0
ARC
  5
1B1AA
330
1AC64
100
AcDbEntity
  8
SUNPOU
100
AcDbCircle
 10
11301.33837406209
 20
2245.804976716085
 30
0.0
 40
5.625
100
AcDbArc
 50
180.0
 51
0.0
  0
ARC
  5
1B1AB
330
1AC64
100
AcDbEntity
  8
SUNPOU
100
AcDbCircle
 10
11861.33837406209
 20
2035.804976716086
 30
0.0
 40
5.625
100
AcDbArc
 50
180.0
 51
0.0
  0
ARC
  5
1B1AC
330
1AC64
100
AcDbEntity
  8
SUNPOU
100
AcDbCircle
 10
11861.33837406209
 20
2035.804976716086
 30
0.0
 40
5.625
100
AcDbArc
 50
0.0
 51
180.0
  0
ARC
  5
1B1AD
330
1AC64
100
AcDbEntity
  8
SUNPOU
100
AcDbCircle
 10
11221.33837406209
 20
2035.804976716086
 30
0.0
 40
5.625
100
AcDbArc
 50
0.0
 51
180.0
  0
ARC
  5
1B1AE
330
1AC64
100
AcDbEntity
  8
SUNPOU
100
AcDbCircle
 10
11221.33837406209
 20
2035.804976716086
 30
0.0
 40
5.625
100
AcDbArc
 50
180.0
 51
0.0
  0
ARC
  5
1B1AF
330
1AC64
100
AcDbEntity
  8
SUNPOU
100
AcDbCircle
 10
10918.33837406209
 20
2540.144344053149
 30
0.0
 40
5.625
100
AcDbArc
 50
90.0
 51
270.0
  0
ARC
  5
1B1B0
330
1AC64
100
AcDbEntity
  8
SUNPOU
100
AcDbCircle
 10
10918.33837406209
 20
2540.144344053149
 30
0.0
 40
5.625
100
AcDbArc
 50
270.0
 51
90.0
  0
ARC
  5
1B1B1
330
1AC64
100
AcDbEntity
  8
SUNPOU
100
AcDbCircle
 10
10918.33837406209
 20
2700.144344053149
 30
0.0
 40
5.625
100
AcDbArc
 50
270.0
 51
90.0
  0
ARC
  5
1B1B2
330
1AC64
100
AcDbEntity
  8
SUNPOU
100
AcDbCircle
 10
10918.33837406209
 20
2700.144344053149
 30
0.0
 40
5.625
100
AcDbArc
 50
90.0
 51
270.0
  0
ARC
  5
1B1B3
330
1AC64
100
AcDbEntity
  8
SUNPOU
100
AcDbCircle
 10
10918.33837406209
 20
2860.144344053149
 30
0.0
 40
5.625
100
AcDbArc
 50
270.0
 51
90.0
  0
ARC
  5
1B1B4
330
1AC64
100
AcDbEntity
  8
SUNPOU
100
AcDbCircle
 10
10918.33837406209
 20
2860.144344053149
 30
0.0
 40
5.625
100
AcDbArc
 50
90.0
 51
270.0
  0
ARC
  5
1B1B5
330
1AC64
100
AcDbEntity
  8
SUNPOU
100
AcDbCircle
 10
10918.33837406209
 20
2700.144344053149
 30
0.0
 40
5.625
100
AcDbArc
 50
90.0
 51
270.0
  0
ARC
  5
1B1B6
330
1AC64
100
AcDbEntity
  8
SUNPOU
100
AcDbCircle
 10
10918.33837406209
 20
2700.144344053149
 30
0.0
 40
5.625
100
AcDbArc
 50
270.0
 51
90.0
  0
ARC
  5
1B1B7
330
1AC64
100
AcDbEntity
  8
SUNPOU
100
AcDbCircle
 10
10708.33837406208
 20
2860.144344053149
 30
0.0
 40
5.625
100
AcDbArc
 50
270.0
 51
90.0
  0
ARC
  5
1B1B8
330
1AC64
100
AcDbEntity
  8
SUNPOU
100
AcDbCircle
 10
10708.33837406208
 20
2860.144344053149
 30
0.0
 40
5.625
100
AcDbArc
 50
90.0
 51
270.0
  0
ARC
  5
1B1B9
330
1AC64
100
AcDbEntity
  8
SUNPOU
100
AcDbCircle
 10
10708.33837406208
 20
2540.144344053149
 30
0.0
 40
5.625
100
AcDbArc
 50
90.0
 51
270.0
  0
ARC
  5
1B1BA
330
1AC64
100
AcDbEntity
  8
SUNPOU
100
AcDbCircle
 10
10708.33837406208
 20
2540.144344053149
 30
0.0
 40
5.625
100
AcDbArc
 50
270.0
 51
90.0
  0
ARC
  5
1B1BB
330
1AC64
100
AcDbEntity
  8
SUNPOU
100
AcDbCircle
 10
11861.33837406209
 20
3394.170862655057
 30
0.0
 40
5.625
100
AcDbArc
 50
0.0
 51
180.0
  0
ARC
  5
1B1BC
330
1AC64
100
AcDbEntity
  8
SUNPOU
100
AcDbCircle
 10
11861.33837406209
 20
3394.170862655057
 30
0.0
 40
5.625
100
AcDbArc
 50
180.0
 51
0.0
  0
ARC
  5
1B1BD
330
1AC64
100
AcDbEntity
  8
SUNPOU
100
AcDbCircle
 10
11781.33837406209
 20
3394.170862655057
 30
0.0
 40
5.625
100
AcDbArc
 50
180.0
 51
0.0
  0
ARC
  5
1B1BE
330
1AC64
100
AcDbEntity
  8
SUNPOU
100
AcDbCircle
 10
11781.33837406209
 20
3394.170862655057
 30
0.0
 40
5.625
100
AcDbArc
 50
0.0
 51
180.0
  0
ARC
  5
1B1BF
330
1AC64
100
AcDbEntity
  8
SUNPOU
100
AcDbCircle
 10
11781.33837406209
 20
3394.170862655057
 30
0.0
 40
5.625
100
AcDbArc
 50
180.0
 51
0.0
  0
ARC
  5
1B1C0
330
1AC64
100
AcDbEntity
  8
SUNPOU
100
AcDbCircle
 10
11781.33837406209
 20
3394.170862655057
 30
0.0
 40
5.625
100
AcDbArc
 50
0.0
 51
180.0
  0
ARC
  5
1B1C1
330
1AC64
100
AcDbEntity
  8
SUNPOU
100
AcDbCircle
 10
11301.33837406209
 20
3394.170862655057
 30
0.0
 40
5.625
100
AcDbArc
 50
0.0
 51
180.0
  0
ARC
  5
1B1C2
330
1AC64
100
AcDbEntity
  8
SUNPOU
100
AcDbCircle
 10
11301.33837406209
 20
3394.170862655057
 30
0.0
 40
5.625
100
AcDbArc
 50
180.0
 51
0.0
  0
ARC
  5
1B1C3
330
1AC64
100
AcDbEntity
  8
SUNPOU
100
AcDbCircle
 10
11221.33837406209
 20
3394.170862655057
 30
0.0
 40
5.625
100
AcDbArc
 50
180.0
 51
0.0
  0
ARC
  5
1B1C4
330
1AC64
100
AcDbEntity
  8
SUNPOU
100
AcDbCircle
 10
11221.33837406209
 20
3394.170862655057
 30
0.0
 40
5.625
100
AcDbArc
 50
0.0
 51
180.0
  0
ARC
  5
1B1C5
330
1AC64
100
AcDbEntity
  8
SUNPOU
100
AcDbCircle
 10
11301.33837406209
 20
3394.170862655057
 30
0.0
 40
5.625
100
AcDbArc
 50
0.0
 51
180.0
  0
ARC
  5
1B1C6
330
1AC64
100
AcDbEntity
  8
SUNPOU
100
AcDbCircle
 10
11301.33837406209
 20
3394.170862655057
 30
0.0
 40
5.625
100
AcDbArc
 50
180.0
 51
0.0
  0
ARC
  5
1B1C7
330
1AC64
100
AcDbEntity
  8
SUNPOU
100
AcDbCircle
 10
11861.33837406209
 20
3184.170862655058
 30
0.0
 40
5.625
100
AcDbArc
 50
180.0
 51
0.0
  0
ARC
  5
1B1C8
330
1AC64
100
AcDbEntity
  8
SUNPOU
100
AcDbCircle
 10
11861.33837406209
 20
3184.170862655058
 30
0.0
 40
5.625
100
AcDbArc
 50
0.0
 51
180.0
  0
ARC
  5
1B1C9
330
1AC64
100
AcDbEntity
  8
SUNPOU
100
AcDbCircle
 10
11221.33837406209
 20
3184.170862655058
 30
0.0
 40
5.625
100
AcDbArc
 50
0.0
 51
180.0
  0
ARC
  5
1B1CA
330
1AC64
100
AcDbEntity
  8
SUNPOU
100
AcDbCircle
 10
11221.33837406209
 20
3184.170862655058
 30
0.0
 40
5.625
100
AcDbArc
 50
180.0
 51
0.0
  0
ARC
  5
1B1CB
330
1AC64
100
AcDbEntity
  8
SUNPOU
100
AcDbCircle
 10
5279.797051267464
 20
2148.684839419601
 30
0.0
 40
5.625
100
AcDbArc
 50
180.0
 51
0.0
  0
ARC
  5
1B1CC
330
1AC64
100
AcDbEntity
  8
SUNPOU
100
AcDbCircle
 10
5279.797051267464
 20
2148.684839419601
 30
0.0
 40
5.625
100
AcDbArc
 50
0.0
 51
180.0
  0
ARC
  5
1B1CD
330
1AC64
100
AcDbEntity
  8
SUNPOU
100
AcDbCircle
 10
4319.797051267463
 20
2148.684839419601
 30
0.0
 40
5.625
100
AcDbArc
 50
0.0
 51
180.0
  0
ARC
  5
1B1CE
330
1AC64
100
AcDbEntity
  8
SUNPOU
100
AcDbCircle
 10
4319.797051267463
 20
2148.684839419601
 30
0.0
 40
5.625
100
AcDbArc
 50
180.0
 51
0.0
  0
ARC
  5
1B1CF
330
1AC64
100
AcDbEntity
  8
SUNPOU
100
AcDbCircle
 10
5439.797051267461
 20
1938.6848394196
 30
0.0
 40
5.625
100
AcDbArc
 50
180.0
 51
0.0
  0
ARC
  5
1B1D0
330
1AC64
100
AcDbEntity
  8
SUNPOU
100
AcDbCircle
 10
5439.797051267461
 20
1938.6848394196
 30
0.0
 40
5.625
100
AcDbArc
 50
0.0
 51
180.0
  0
ARC
  5
1B1D1
330
1AC64
100
AcDbEntity
  8
SUNPOU
100
AcDbCircle
 10
4159.797051267462
 20
1938.6848394196
 30
0.0
 40
5.625
100
AcDbArc
 50
0.0
 51
180.0
  0
ARC
  5
1B1D2
330
1AC64
100
AcDbEntity
  8
SUNPOU
100
AcDbCircle
 10
4159.797051267462
 20
1938.6848394196
 30
0.0
 40
5.625
100
AcDbArc
 50
180.0
 51
0.0
  0
ARC
  5
1B1D3
330
1AC64
100
AcDbEntity
  8
SUNPOU
100
AcDbCircle
 10
3460.443655266704
 20
3456.684839419605
 30
0.0
 40
5.625
100
AcDbArc
 50
90.0
 51
270.0
  0
ARC
  5
1B1D4
330
1AC64
100
AcDbEntity
  8
SUNPOU
100
AcDbCircle
 10
3460.443655266704
 20
3456.684839419605
 30
0.0
 40
5.625
100
AcDbArc
 50
270.0
 51
90.0
  0
ARC
  5
1B1D5
330
1AC64
100
AcDbEntity
  8
SUNPOU
100
AcDbCircle
 10
3460.443655266704
 20
3376.684839419604
 30
0.0
 40
5.625
100
AcDbArc
 50
270.0
 51
90.0
  0
ARC
  5
1B1D6
330
1AC64
100
AcDbEntity
  8
SUNPOU
100
AcDbCircle
 10
3460.443655266704
 20
3376.684839419604
 30
0.0
 40
5.625
100
AcDbArc
 50
90.0
 51
270.0
  0
ARC
  5
1B1D7
330
1AC64
100
AcDbEntity
  8
SUNPOU
100
AcDbCircle
 10
3880.443655266708
 20
3191.084839419597
 30
0.0
 40
5.625
100
AcDbArc
 50
90.0
 51
270.0
  0
ARC
  5
1B1D8
330
1AC64
100
AcDbEntity
  8
SUNPOU
100
AcDbCircle
 10
3880.443655266708
 20
3191.084839419597
 30
0.0
 40
5.625
100
AcDbArc
 50
270.0
 51
90.0
  0
ARC
  5
1B1D9
330
1AC64
100
AcDbEntity
  8
SUNPOU
100
AcDbCircle
 10
3880.443655266708
 20
3319.084839419601
 30
0.0
 40
5.625
100
AcDbArc
 50
270.0
 51
90.0
  0
ARC
  5
1B1DA
330
1AC64
100
AcDbEntity
  8
SUNPOU
100
AcDbCircle
 10
3880.443655266708
 20
3319.084839419601
 30
0.0
 40
5.625
100
AcDbArc
 50
90.0
 51
270.0
  0
ARC
  5
1B1DB
330
1AC64
100
AcDbEntity
  8
SUNPOU
100
AcDbCircle
 10
3880.443655266704
 20
3456.684839419605
 30
0.0
 40
5.625
100
AcDbArc
 50
270.0
 51
90.0
  0
ARC
  5
1B1DC
330
1AC64
100
AcDbEntity
  8
SUNPOU
100
AcDbCircle
 10
3880.443655266704
 20
3456.684839419605
 30
0.0
 40
5.625
100
AcDbArc
 50
90.0
 51
270.0
  0
ARC
  5
1B1DD
330
1AC64
100
AcDbEntity
  8
SUNPOU
100
AcDbCircle
 10
3880.443655266704
 20
3319.084839419603
 30
0.0
 40
5.625
100
AcDbArc
 50
90.0
 51
270.0
  0
ARC
  5
1B1DE
330
1AC64
100
AcDbEntity
  8
SUNPOU
100
AcDbCircle
 10
3880.443655266704
 20
3319.084839419603
 30
0.0
 40
5.625
100
AcDbArc
 50
270.0
 51
90.0
  0
ARC
  5
1B1DF
330
1AC64
100
AcDbEntity
  8
SUNPOU
100
AcDbCircle
 10
3880.443655266704
 20
3191.084839419598
 30
0.0
 40
5.625
100
AcDbArc
 50
270.0
 51
90.0
  0
ARC
  5
1B1E0
330
1AC64
100
AcDbEntity
  8
SUNPOU
100
AcDbCircle
 10
3880.443655266704
 20
3191.084839419598
 30
0.0
 40
5.625
100
AcDbArc
 50
90.0
 51
270.0
  0
ARC
  5
1B1E1
330
1AC64
100
AcDbEntity
  8
SUNPOU
100
AcDbCircle
 10
3880.443655266704
 20
2711.084839419603
 30
0.0
 40
5.625
100
AcDbArc
 50
90.0
 51
270.0
  0
ARC
  5
1B1E2
330
1AC64
100
AcDbEntity
  8
SUNPOU
100
AcDbCircle
 10
3880.443655266704
 20
2711.084839419603
 30
0.0
 40
5.625
100
AcDbArc
 50
270.0
 51
90.0
  0
ARC
  5
1B1E3
330
1AC64
100
AcDbEntity
  8
SUNPOU
100
AcDbCircle
 10
3880.443655266704
 20
2551.084839419603
 30
0.0
 40
5.625
100
AcDbArc
 50
90.0
 51
270.0
  0
ARC
  5
1B1E4
330
1AC64
100
AcDbEntity
  8
SUNPOU
100
AcDbCircle
 10
3880.443655266704
 20
2551.084839419603
 30
0.0
 40
5.625
100
AcDbArc
 50
270.0
 51
90.0
  0
ARC
  5
1B1E5
330
1AC64
100
AcDbEntity
  8
SUNPOU
100
AcDbCircle
 10
3880.443655266704
 20
2711.084839419603
 30
0.0
 40
5.625
100
AcDbArc
 50
270.0
 51
90.0
  0
ARC
  5
1B1E6
330
1AC64
100
AcDbEntity
  8
SUNPOU
100
AcDbCircle
 10
3880.443655266704
 20
2711.084839419603
 30
0.0
 40
5.625
100
AcDbArc
 50
90.0
 51
270.0
  0
ARC
  5
1B1E7
330
1AC64
100
AcDbEntity
  8
SUNPOU
100
AcDbCircle
 10
3670.443655266705
 20
2551.084839419603
 30
0.0
 40
5.625
100
AcDbArc
 50
90.0
 51
270.0
  0
ARC
  5
1B1E8
330
1AC64
100
AcDbEntity
  8
SUNPOU
100
AcDbCircle
 10
3670.443655266705
 20
2551.084839419603
 30
0.0
 40
5.625
100
AcDbArc
 50
270.0
 51
90.0
  0
ARC
  5
1B1E9
330
1AC64
100
AcDbEntity
  8
SUNPOU
100
AcDbCircle
 10
3670.443655266705
 20
3456.684839419605
 30
0.0
 40
5.625
100
AcDbArc
 50
270.0
 51
90.0
  0
ARC
  5
1B1EA
330
1AC64
100
AcDbEntity
  8
SUNPOU
100
AcDbCircle
 10
3670.443655266705
 20
3456.684839419605
 30
0.0
 40
5.625
100
AcDbArc
 50
90.0
 51
270.0
  0
ARC
  5
1B1EB
330
1AC64
100
AcDbEntity
  8
SUNPOU
100
AcDbCircle
 10
4319.797051267463
 20
4130.485411556192
 30
0.0
 40
5.625
100
AcDbArc
 50
0.0
 51
180.0
  0
ARC
  5
1B1EC
330
1AC64
100
AcDbEntity
  8
SUNPOU
100
AcDbCircle
 10
4319.797051267463
 20
4130.485411556192
 30
0.0
 40
5.625
100
AcDbArc
 50
180.0
 51
0.0
  0
ARC
  5
1B1ED
330
1AC64
100
AcDbEntity
  8
SUNPOU
100
AcDbCircle
 10
4799.797051267463
 20
4130.485411556192
 30
0.0
 40
5.625
100
AcDbArc
 50
180.0
 51
0.0
  0
ARC
  5
1B1EE
330
1AC64
100
AcDbEntity
  8
SUNPOU
100
AcDbCircle
 10
4799.797051267463
 20
4130.485411556192
 30
0.0
 40
5.625
100
AcDbArc
 50
0.0
 51
180.0
  0
ARC
  5
1B1EF
330
1AC64
100
AcDbEntity
  8
HIKIDASHI
100
AcDbCircle
 10
7368.753186178046
 20
1889.069567942468
 30
0.0
 40
74.66417910452284
100
AcDbArc
 50
164.8596129850915
 51
237.504500294165
  0
ARC
  5
1B1F0
330
1AC64
100
AcDbEntity
  8
HIKIDASHI
100
AcDbCircle
 10
7305.32939213174
 20
1906.230591426951
 30
0.0
 40
8.959701492542745
100
AcDbArc
 50
15.14038701503429
 51
164.8596129849655
  0
ARC
  5
1B1F1
330
1AC64
100
AcDbEntity
  8
HIKIDASHI
100
AcDbCircle
 10
3681.171434554746
 20
1889.069567942463
 30
0.0
 40
74.66417910452284
100
AcDbArc
 50
164.859612985099
 51
237.5045002941407
  0
ARC
  5
1B1F2
330
1AC64
100
AcDbEntity
  8
HIKIDASHI
100
AcDbCircle
 10
3617.747640508442
 20
1906.230591426947
 30
0.0
 40
8.959701492542745
100
AcDbArc
 50
15.14038701503429
 51
164.8596129849655
  0
LINE
  5
1B1F3
330
1AC64
100
AcDbEntity
  8
HIKIDASHI
100
AcDbLine
 10
8349.997383446192
 20
2789.774820102782
 30
0.0
 11
7568.025406890003
 21
1938.684839419604
 31
0.0
1001
ACAD
1000
DSTYLE
1002
{
1070
   147
1040
1.0
1070
    77
1070
     0
1002
}
  0
LINE
  5
1B1F4
330
1AC64
100
AcDbEntity
  8
HIKIDASHI
100
AcDbLine
 10
8359.815719998994
 20
2780.753842045294
 30
0.0
 11
8404.12325179111
 21
2848.684839419603
 31
0.0
  0
LINE
  5
1B1F5
330
1AC64
100
AcDbEntity
  8
HIKIDASHI
100
AcDbLine
 10
8404.12325179111
 20
2848.684839419603
 30
0.0
 11
8340.179046893387
 21
2798.795798160268
 31
0.0
  0
SOLID
  5
1B1F6
330
1AC64
100
AcDbEntity
  8
HIKIDASHI
100
AcDbTrace
 10
8359.815719998994
 20
2780.753842045294
 30
0.0
 11
8340.179046893387
 21
2798.795798160268
 31
0.0
 12
8404.12325179111
 22
2848.684839419603
 32
0.0
 13
8404.12325179111
 23
2848.684839419603
 33
0.0
  0
LINE
  5
1B1F7
330
1AC64
100
AcDbEntity
  8
HIKIDASHI
100
AcDbLine
 10
8340.179046893387
 20
2798.795798160268
 30
0.0
 11
8359.815719998994
 21
2780.753842045294
 31
0.0
  0
ARC
  5
1B1F8
330
1AC64
100
AcDbEntity
  8
HIKIDASHI
100
AcDbCircle
 10
7243.085124621173
 20
1890.249695302057
 30
0.0
 40
74.66417910452232
100
AcDbArc
 50
301.7712278330705
 51
15.14038701490951
  0
LINE
  5
1B1F9
330
1AC64
100
AcDbEntity
  8
HIKIDASHI
100
AcDbLine
 10
11865.19119696312
 20
2619.990092191335
 30
0.0
 11
12256.64239875644
 21
2245.804976716085
 31
0.0
1001
ACAD
1000
DSTYLE
1002
{
1070
   147
1040
1.0
1070
    77
1070
     0
1002
}
  0
LINE
  5
1B1FA
330
1AC64
100
AcDbEntity
  8
HIKIDASHI
100
AcDbLine
 10
11874.40432936103
 20
2629.628347697202
 30
0.0
 11
11807.36166392793
 21
2675.268886578793
 31
0.0
  0
LINE
  5
1B1FB
330
1AC64
100
AcDbEntity
  8
HIKIDASHI
100
AcDbLine
 10
11807.36166392793
 20
2675.268886578793
 30
0.0
 11
11855.97806456522
 21
2610.351836685468
 31
0.0
  0
SOLID
  5
1B1FC
330
1AC64
100
AcDbEntity
  8
HIKIDASHI
100
AcDbTrace
 10
11874.40432936103
 20
2629.628347697202
 30
0.0
 11
11855.97806456522
 21
2610.351836685468
 31
0.0
 12
11807.36166392793
 22
2675.268886578793
 32
0.0
 13
11807.36166392793
 23
2675.268886578793
 33
0.0
  0
LINE
  5
1B1FD
330
1AC64
100
AcDbEntity
  8
HIKIDASHI
100
AcDbLine
 10
11855.97806456522
 20
2610.351836685468
 30
0.0
 11
11874.40432936103
 21
2629.628347697202
 31
0.0
  0
LINE
  5
1B1FE
330
1AC64
100
AcDbEntity
  8
HIKIDASHI
100
AcDbLine
 10
11918.49428872015
 20
2916.119351150967
 30
0.0
 11
12073.23363223807
 21
3067.661600164834
 31
0.0
1001
ACAD
1000
DSTYLE
1002
{
1070
   147
1040
1.0
1070
    77
1070
     0
1002
}
  0
LINE
  5
1B1FF
330
1AC64
100
AcDbEntity
  8
HIKIDASHI
100
AcDbLine
 10
11909.16512087051
 20
2925.645336927309
 30
0.0
 11
11861.33837406209
 21
2860.144344053149
 31
0.0
  0
LINE
  5
1B200
330
1AC64
100
AcDbEntity
  8
HIKIDASHI
100
AcDbLine
 10
11861.33837406209
 20
2860.144344053149
 30
0.0
 11
11927.82345656978
 21
2906.593365374622
 31
0.0
  0
SOLID
  5
1B201
330
1AC64
100
AcDbEntity
  8
HIKIDASHI
100
AcDbTrace
 10
11909.16512087051
 20
2925.645336927309
 30
0.0
 11
11927.82345656978
 21
2906.593365374622
 31
0.0
 12
11861.33837406209
 22
2860.144344053149
 32
0.0
 13
11861.33837406209
 23
2860.144344053149
 33
0.0
  0
LINE
  5
1B202
330
1AC64
100
AcDbEntity
  8
HIKIDASHI
100
AcDbLine
 10
11927.82345656978
 20
2906.593365374622
 30
0.0
 11
11909.16512087051
 21
2925.645336927309
 31
0.0
  0
LINE
  5
1B203
330
1AC64
100
AcDbEntity
  8
HIKIDASHI
100
AcDbLine
 10
4739.144060259712
 20
3002.326297915248
 30
0.0
 11
3880.443655266704
 21
1938.6848394196
 31
0.0
1001
ACAD
1000
DSTYLE
1002
{
1070
   147
1040
1.0
1070
    77
1070
     0
1002
}
  0
LINE
  5
1B204
330
1AC64
100
AcDbEntity
  8
HIKIDASHI
100
AcDbLine
 10
4749.518490491424
 20
2993.950799413955
 30
0.0
 11
4789.397051267463
 21
3064.572879305512
 31
0.0
  0
LINE
  5
1B205
330
1AC64
100
AcDbEntity
  8
HIKIDASHI
100
AcDbLine
 10
4789.397051267463
 20
3064.572879305512
 30
0.0
 11
4728.769630028001
 21
3010.701796416539
 31
0.0
  0
SOLID
  5
1B206
330
1AC64
100
AcDbEntity
  8
HIKIDASHI
100
AcDbTrace
 10
4749.518490491424
 20
2993.950799413955
 30
0.0
 11
4728.769630028001
 21
3010.701796416539
 31
0.0
 12
4789.397051267463
 22
3064.572879305512
 32
0.0
 13
4789.397051267463
 23
3064.572879305512
 33
0.0
  0
LINE
  5
1B207
330
1AC64
100
AcDbEntity
  8
HIKIDASHI
100
AcDbLine
 10
4728.769630028001
 20
3010.701796416539
 30
0.0
 11
4749.518490491424
 21
2993.950799413955
 31
0.0
  0
ARC
  5
1B208
330
1AC64
100
AcDbEntity
  8
HIKIDASHI
100
AcDbCircle
 10
3555.503372997875
 20
1890.249695302052
 30
0.0
 40
74.66417910452256
100
AcDbArc
 50
301.7712278330707
 51
15.14038701490941
  0
LINE
  5
1B209
330
1AC64
100
AcDbEntity
  8
HIKIDASHI
100
AcDbLine
 10
5106.084662666018
 20
3525.966871722361
 30
0.0
 11
5333.860047839355
 21
3920.485411556192
 31
0.0
1001
ACAD
1000
DSTYLE
1002
{
1070
   147
1040
1.0
1070
    77
1070
     0
1002
}
  0
LINE
  5
1B20A
330
1AC64
100
AcDbEntity
  8
HIKIDASHI
100
AcDbLine
 10
5094.537657282226
 20
3532.633538389028
 30
0.0
 11
5066.084662666021
 21
3456.684839419605
 31
0.0
  0
LINE
  5
1B20B
330
1AC64
100
AcDbEntity
  8
HIKIDASHI
100
AcDbLine
 10
5066.084662666021
 20
3456.684839419605
 30
0.0
 11
5117.631668049813
 21
3519.300205055695
 31
0.0
  0
SOLID
  5
1B20C
330
1AC64
100
AcDbEntity
  8
HIKIDASHI
100
AcDbTrace
 10
5094.537657282226
 20
3532.633538389028
 30
0.0
 11
5117.631668049813
 21
3519.300205055695
 31
0.0
 12
5066.084662666021
 22
3456.684839419605
 32
0.0
 13
5066.084662666021
 23
3456.684839419605
 33
0.0
  0
LINE
  5
1B20D
330
1AC64
100
AcDbEntity
  8
HIKIDASHI
100
AcDbLine
 10
5117.631668049813
 20
3519.300205055695
 30
0.0
 11
5094.537657282226
 21
3532.633538389028
 31
0.0
  0
LINE
  5
1B20E
330
1AC64
100
AcDbEntity
  8
HIKIDASHI
100
AcDbLine
 10
5489.136067929489
 20
2561.711341542923
 30
0.0
 11
5656.338096802658
 21
2348.304238552882
 31
0.0
1001
ACAD
1000
DSTYLE
1002
{
1070
   147
1040
1.0
1070
    77
1070
     0
1002
}
  0
LINE
  5
1B20F
330
1AC64
100
AcDbEntity
  8
HIKIDASHI
100
AcDbLine
 10
5499.631650908938
 20
2569.934510986595
 30
0.0
 11
5439.797051267461
 21
2624.684839419602
 31
0.0
  0
LINE
  5
1B210
330
1AC64
100
AcDbEntity
  8
HIKIDASHI
100
AcDbLine
 10
5439.797051267461
 20
2624.684839419602
 30
0.0
 11
5478.640484950044
 21
2553.488172099251
 31
0.0
  0
SOLID
  5
1B211
330
1AC64
100
AcDbEntity
  8
HIKIDASHI
100
AcDbTrace
 10
5499.631650908938
 20
2569.934510986595
 30
0.0
 11
5478.640484950044
 21
2553.488172099251
 31
0.0
 12
5439.797051267461
 22
2624.684839419602
 32
0.0
 13
5439.797051267461
 23
2624.684839419602
 33
0.0
  0
LINE
  5
1B212
330
1AC64
100
AcDbEntity
  8
HIKIDASHI
100
AcDbLine
 10
5478.640484950044
 20
2553.488172099251
 30
0.0
 11
5499.631650908938
 21
2569.934510986595
 31
0.0
  0
LINE
  5
1B213
330
1AC64
100
AcDbEntity
  8
HIKIDASHI
100
AcDbLine
 10
5517.958310807199
 20
3204.439659000036
 30
0.0
 11
5674.871662611158
 21
2904.11470702088
 31
0.0
1001
ACAD
1000
DSTYLE
1002
{
1070
    41
1040
2.0
1070
   173
1070
     0
1070
   341
1005
125B0
1002
}
  0
ARC
  5
1B214
330
1AC64
100
AcDbEntity
  8
HIKIDASHI
100
AcDbCircle
 10
5472.271108781362
 20
3259.491130329859
 30
0.0
 40
18.0
100
AcDbArc
 50
241.1434129563095
 51
354.0287934324676
  0
ARC
  5
1B215
330
1AC64
100
AcDbEntity
  8
HIKIDASHI
100
AcDbCircle
 10
5508.075783564776
 20
3255.746098466976
 30
0.0
 40
18.0
100
AcDbArc
 50
61.1434129563095
 51
174.0287934324675
  0
LINE
  5
1B216
330
1AC64
100
AcDbEntity
  8
HIKIDASHI
100
AcDbLine
 10
5490.173446173068
 20
3257.618614398416
 30
0.0
 11
5517.958310807205
 21
3204.439659000024
 31
0.0
  0
LINE
  5
1B217
330
1AC64
100
AcDbEntity
  8
HATCH
100
AcDbLine
 10
7395.822417332898
 20
3191.084839420303
 30
0.0
 11
7469.72325178917
 21
3319.084839420297
 31
0.0
  0
LINE
  5
1B218
330
1AC64
100
AcDbEntity
  8
HATCH
100
AcDbLine
 10
7431.323251789172
 20
3319.084839420296
 30
0.0
 11
7450.523251789171
 21
3285.829463914978
 31
0.0
  0
LINE
  5
1B219
330
1AC64
100
AcDbEntity
  8
HATCH
100
AcDbLine
 10
7395.822417334819
 20
3191.084839420923
 30
0.0
 11
7469.723251791108
 21
3319.084839420952
 31
0.0
  0
LINE
  5
1B21A
330
1AC64
100
AcDbEntity
  8
HATCH
100
AcDbLine
 10
7431.323251791098
 20
3319.084839420951
 30
0.0
 11
7450.523251791103
 21
3285.829463915624
 31
0.0
  0
LINE
  5
1B21B
330
1AC64
100
AcDbEntity
  8
HATCH
100
AcDbLine
 10
7683.822417332899
 20
3191.084839419027
 30
0.0
 11
7757.72325178917
 21
3319.084839419021
 31
0.0
  0
LINE
  5
1B21C
330
1AC64
100
AcDbEntity
  8
HATCH
100
AcDbLine
 10
7719.32325178917
 20
3319.084839419019
 30
0.0
 11
7738.523251789171
 21
3285.829463913701
 31
0.0
  0
LINE
  5
1B21D
330
1AC64
100
AcDbEntity
  8
HATCH
100
AcDbLine
 10
7827.8224173329
 20
3191.084839419027
 30
0.0
 11
7901.723251789167
 21
3319.084839419021
 31
0.0
  0
LINE
  5
1B21E
330
1AC64
100
AcDbEntity
  8
HATCH
100
AcDbLine
 10
7863.32325178917
 20
3319.084839419019
 30
0.0
 11
7882.52325178917
 21
3285.829463913701
 31
0.0
  0
LINE
  5
1B21F
330
1AC64
100
AcDbEntity
  8
HATCH
100
AcDbLine
 10
7683.822417334815
 20
3191.084839419646
 30
0.0
 11
7757.723251791105
 21
3319.084839419675
 31
0.0
  0
LINE
  5
1B220
330
1AC64
100
AcDbEntity
  8
HATCH
100
AcDbLine
 10
7719.323251791097
 20
3319.084839419675
 30
0.0
 11
7738.5232517911
 21
3285.829463914346
 31
0.0
  0
LINE
  5
1B221
330
1AC64
100
AcDbEntity
  8
HATCH
100
AcDbLine
 10
7827.822417334818
 20
3191.084839419646
 30
0.0
 11
7901.723251791107
 21
3319.084839419675
 31
0.0
  0
LINE
  5
1B222
330
1AC64
100
AcDbEntity
  8
HATCH
100
AcDbLine
 10
7863.323251791097
 20
3319.084839419675
 30
0.0
 11
7882.5232517911
 21
3285.829463914346
 31
0.0
  0
LINE
  5
1B223
330
1AC64
100
AcDbEntity
  8
HATCH
100
AcDbLine
 10
9597.765052686932
 20
3191.084839420268
 30
0.0
 11
9671.665887143205
 21
3319.084839420261
 31
0.0
  0
LINE
  5
1B224
330
1AC64
100
AcDbEntity
  8
HATCH
100
AcDbLine
 10
9633.265887143204
 20
3319.084839420259
 30
0.0
 11
9652.465887143202
 21
3285.829463914943
 31
0.0
  0
LINE
  5
1B225
330
1AC64
100
AcDbEntity
  8
HATCH
100
AcDbLine
 10
9309.765052686932
 20
3191.084839420268
 30
0.0
 11
9383.6658871432
 21
3319.084839420261
 31
0.0
  0
LINE
  5
1B226
330
1AC64
100
AcDbEntity
  8
HATCH
100
AcDbLine
 10
9345.265887143204
 20
3319.084839420259
 30
0.0
 11
9364.465887143202
 21
3285.829463914943
 31
0.0
  0
LINE
  5
1B227
330
1AC64
100
AcDbEntity
  8
HATCH
100
AcDbLine
 10
9453.765052686932
 20
3191.084839420268
 30
0.0
 11
9527.665887143198
 21
3319.084839420261
 31
0.0
  0
LINE
  5
1B228
330
1AC64
100
AcDbEntity
  8
HATCH
100
AcDbLine
 10
9489.265887143199
 20
3319.084839420259
 30
0.0
 11
9508.465887143202
 21
3285.829463914943
 31
0.0
  0
LINE
  5
1B229
330
1AC64
100
AcDbEntity
  8
HATCH
100
AcDbLine
 10
9741.765052686934
 20
3191.084839420268
 30
0.0
 11
9815.665887143204
 21
3319.084839420261
 31
0.0
  0
LINE
  5
1B22A
330
1AC64
100
AcDbEntity
  8
HATCH
100
AcDbLine
 10
9777.265887143206
 20
3319.084839420259
 30
0.0
 11
9796.465887143202
 21
3285.829463914943
 31
0.0
  0
LINE
  5
1B22B
330
1AC64
100
AcDbEntity
  8
HATCH
100
AcDbLine
 10
9597.765052688851
 20
3191.084839420887
 30
0.0
 11
9671.66588714514
 21
3319.084839420916
 31
0.0
  0
LINE
  5
1B22C
330
1AC64
100
AcDbEntity
  8
HATCH
100
AcDbLine
 10
9633.265887145132
 20
3319.084839420915
 30
0.0
 11
9652.465887145137
 21
3285.829463915587
 31
0.0
  0
LINE
  5
1B22D
330
1AC64
100
AcDbEntity
  8
HATCH
100
AcDbLine
 10
9741.765052688851
 20
3191.084839420887
 30
0.0
 11
9815.66588714514
 21
3319.084839420916
 31
0.0
  0
LINE
  5
1B22E
330
1AC64
100
AcDbEntity
  8
HATCH
100
AcDbLine
 10
9777.265887145132
 20
3319.084839420915
 30
0.0
 11
9796.465887145137
 21
3285.829463915587
 31
0.0
  0
LINE
  5
1B22F
330
1AC64
100
AcDbEntity
  8
HATCH
100
AcDbLine
 10
9453.765052688849
 20
3191.084839420887
 30
0.0
 11
9527.66588714514
 21
3319.084839420916
 31
0.0
  0
LINE
  5
1B230
330
1AC64
100
AcDbEntity
  8
HATCH
100
AcDbLine
 10
9489.265887145132
 20
3319.084839420915
 30
0.0
 11
9508.465887145135
 21
3285.829463915587
 31
0.0
  0
LINE
  5
1B231
330
1AC64
100
AcDbEntity
  8
HATCH
100
AcDbLine
 10
9309.765052688851
 20
3191.084839420887
 30
0.0
 11
9383.66588714514
 21
3319.084839420916
 31
0.0
  0
LINE
  5
1B232
330
1AC64
100
AcDbEntity
  8
HATCH
100
AcDbLine
 10
9345.265887145131
 20
3319.084839420915
 30
0.0
 11
9364.465887145135
 21
3285.829463915587
 31
0.0
  0
LINE
  5
1B233
330
1AC64
100
AcDbEntity
  8
HATCH
100
AcDbLine
 10
5385.438852163286
 20
3191.084839420224
 30
0.0
 11
5459.339686619554
 21
3319.084839420217
 31
0.0
  0
LINE
  5
1B234
330
1AC64
100
AcDbEntity
  8
HATCH
100
AcDbLine
 10
5420.939686619557
 20
3319.084839420217
 30
0.0
 11
5440.139686619557
 21
3285.829463914899
 31
0.0
  0
LINE
  5
1B235
330
1AC64
100
AcDbEntity
  8
HATCH
100
AcDbLine
 10
5817.438852163286
 20
3191.084839420224
 30
0.0
 11
5891.339686619555
 21
3319.084839420217
 31
0.0
  0
LINE
  5
1B236
330
1AC64
100
AcDbEntity
  8
HATCH
100
AcDbLine
 10
5852.939686619555
 20
3319.084839420217
 30
0.0
 11
5872.139686619554
 21
3285.829463914899
 31
0.0
  0
LINE
  5
1B237
330
1AC64
100
AcDbEntity
  8
HATCH
100
AcDbLine
 10
5529.438852163288
 20
3191.084839420224
 30
0.0
 11
5603.339686619555
 21
3319.084839420217
 31
0.0
  0
LINE
  5
1B238
330
1AC64
100
AcDbEntity
  8
HATCH
100
AcDbLine
 10
5564.939686619556
 20
3319.084839420217
 30
0.0
 11
5584.139686619558
 21
3285.829463914899
 31
0.0
  0
LINE
  5
1B239
330
1AC64
100
AcDbEntity
  8
HATCH
100
AcDbLine
 10
5673.438852163286
 20
3191.084839420224
 30
0.0
 11
5747.339686619554
 21
3319.084839420217
 31
0.0
  0
LINE
  5
1B23A
330
1AC64
100
AcDbEntity
  8
HATCH
100
AcDbLine
 10
5708.939686619555
 20
3319.084839420217
 30
0.0
 11
5728.139686619557
 21
3285.829463914899
 31
0.0
  0
LINE
  5
1B23B
330
1AC64
100
AcDbEntity
  8
HATCH
100
AcDbLine
 10
5961.438852163286
 20
3191.084839420224
 30
0.0
 11
6035.339686619554
 21
3319.084839420217
 31
0.0
  0
LINE
  5
1B23C
330
1AC64
100
AcDbEntity
  8
HATCH
100
AcDbLine
 10
5996.939686619557
 20
3319.084839420217
 30
0.0
 11
6016.139686619557
 21
3285.829463914899
 31
0.0
  0
LINE
  5
1B23D
330
1AC64
100
AcDbEntity
  8
HATCH
100
AcDbLine
 10
7434.222417332896
 20
3191.084839420305
 30
0.0
 11
7415.022417332895
 21
3224.340214925621
 31
0.0
  0
LINE
  5
1B23E
330
1AC64
100
AcDbEntity
  8
HATCH
100
AcDbLine
 10
7434.222417334821
 20
3191.084839420923
 30
0.0
 11
7415.022417334819
 21
3224.34021492625
 31
0.0
  0
LINE
  5
1B23F
330
1AC64
100
AcDbEntity
  8
HATCH
100
AcDbLine
 10
7722.222417332893
 20
3191.084839419027
 30
0.0
 11
7703.022417332895
 21
3224.340214924346
 31
0.0
  0
LINE
  5
1B240
330
1AC64
100
AcDbEntity
  8
HATCH
100
AcDbLine
 10
7866.222417332894
 20
3191.084839419027
 30
0.0
 11
7847.022417332894
 21
3224.340214924346
 31
0.0
  0
LINE
  5
1B241
330
1AC64
100
AcDbEntity
  8
HATCH
100
AcDbLine
 10
7722.222417334821
 20
3191.084839419646
 30
0.0
 11
7703.02241733482
 21
3224.340214924974
 31
0.0
  0
LINE
  5
1B242
330
1AC64
100
AcDbEntity
  8
HATCH
100
AcDbLine
 10
7866.222417334822
 20
3191.084839419646
 30
0.0
 11
7847.022417334817
 21
3224.340214924974
 31
0.0
  0
LINE
  5
1B243
330
1AC64
100
AcDbEntity
  8
HATCH
100
AcDbLine
 10
9636.165052686925
 20
3191.084839420268
 30
0.0
 11
9616.965052686927
 21
3224.340214925586
 31
0.0
  0
LINE
  5
1B244
330
1AC64
100
AcDbEntity
  8
HATCH
100
AcDbLine
 10
9348.16505268693
 20
3191.084839420268
 30
0.0
 11
9328.965052686926
 21
3224.340214925586
 31
0.0
  0
LINE
  5
1B245
330
1AC64
100
AcDbEntity
  8
HATCH
100
AcDbLine
 10
9492.165052686925
 20
3191.084839420268
 30
0.0
 11
9472.965052686927
 21
3224.340214925586
 31
0.0
  0
LINE
  5
1B246
330
1AC64
100
AcDbEntity
  8
HATCH
100
AcDbLine
 10
9780.165052686927
 20
3191.084839420268
 30
0.0
 11
9760.965052686927
 21
3224.340214925586
 31
0.0
  0
LINE
  5
1B247
330
1AC64
100
AcDbEntity
  8
HATCH
100
AcDbLine
 10
9636.165052688857
 20
3191.084839420887
 30
0.0
 11
9616.965052688854
 21
3224.340214926215
 31
0.0
  0
LINE
  5
1B248
330
1AC64
100
AcDbEntity
  8
HATCH
100
AcDbLine
 10
9780.165052688857
 20
3191.084839420887
 30
0.0
 11
9760.965052688852
 21
3224.340214926215
 31
0.0
  0
LINE
  5
1B249
330
1AC64
100
AcDbEntity
  8
HATCH
100
AcDbLine
 10
9492.165052688857
 20
3191.084839420887
 30
0.0
 11
9472.965052688854
 21
3224.340214926215
 31
0.0
  0
LINE
  5
1B24A
330
1AC64
100
AcDbEntity
  8
HATCH
100
AcDbLine
 10
9348.165052688857
 20
3191.084839420887
 30
0.0
 11
9328.965052688852
 21
3224.340214926215
 31
0.0
  0
LINE
  5
1B24B
330
1AC64
100
AcDbEntity
  8
TENSEN-1
100
AcDbLine
 10
8756.123251791107
 20
2869.484839419598
 30
0.0
 11
8702.523251791111
 21
2869.484839419598
 31
0.0
  0
LINE
  5
1B24C
330
1AC64
100
AcDbEntity
  8
TENSEN-1
100
AcDbLine
 10
8702.523251791111
 20
2869.484839419598
 30
0.0
 11
8702.523251791111
 21
3360.6848394196
 31
0.0
  0
LINE
  5
1B24D
330
1AC64
100
AcDbEntity
  8
TENSEN-1
100
AcDbLine
 10
8702.523251791111
 20
3360.6848394196
 30
0.0
 11
8681.72325179111
 21
3360.6848394196
 31
0.0
  0
LINE
  5
1B24E
330
1AC64
100
AcDbEntity
  8
TENSEN-1
100
AcDbLine
 10
8681.72325179111
 20
3360.6848394196
 30
0.0
 11
8681.723251791105
 21
2848.6848394196
 31
0.0
  0
LINE
  5
1B24F
330
1AC64
100
AcDbEntity
  8
TENSEN-1
100
AcDbLine
 10
8681.723251791105
 20
2848.6848394196
 30
0.0
 11
8756.123251791107
 21
2848.6848394196
 31
0.0
  0
LINE
  5
1B250
330
1AC64
100
AcDbEntity
  8
TENSEN-1
100
AcDbLine
 10
8756.123251791107
 20
2848.6848394196
 30
0.0
 11
8756.123251791107
 21
2869.484839419598
 31
0.0
  0
LINE
  5
1B251
330
1AC64
100
AcDbEntity
  8
TENSEN-1
100
AcDbLine
 10
8404.12325179111
 20
2869.484839419603
 30
0.0
 11
8457.723251791113
 21
2869.484839419603
 31
0.0
  0
LINE
  5
1B252
330
1AC64
100
AcDbEntity
  8
TENSEN-1
100
AcDbLine
 10
8457.723251791113
 20
2869.484839419603
 30
0.0
 11
8457.723251791113
 21
3360.684839419604
 31
0.0
  0
LINE
  5
1B253
330
1AC64
100
AcDbEntity
  8
TENSEN-1
100
AcDbLine
 10
8457.723251791113
 20
3360.684839419604
 30
0.0
 11
8478.523251791115
 21
3360.684839419604
 31
0.0
  0
LINE
  5
1B254
330
1AC64
100
AcDbEntity
  8
TENSEN-1
100
AcDbLine
 10
8478.523251791115
 20
3360.684839419604
 30
0.0
 11
8478.523251791115
 21
2848.684839419603
 31
0.0
  0
LINE
  5
1B255
330
1AC64
100
AcDbEntity
  8
TENSEN-1
100
AcDbLine
 10
8478.523251791115
 20
2848.684839419603
 30
0.0
 11
8404.12325179111
 21
2848.684839419603
 31
0.0
  0
LINE
  5
1B256
330
1AC64
100
AcDbEntity
  8
TENSEN-1
100
AcDbLine
 10
8404.12325179111
 20
2848.684839419603
 30
0.0
 11
8404.12325179111
 21
2869.484839419603
 31
0.0
  0
LINE
  5
1B257
330
1AC64
100
AcDbEntity
  8
HASHIRA
100
AcDbLine
 10
8436.12325179111
 20
3319.084839419598
 30
0.0
 11
8724.123251791107
 21
3319.084839419603
 31
0.0
  0
LINE
  5
1B258
330
1AC64
100
AcDbEntity
  8
HASHIRA
100
AcDbLine
 10
8724.123251791107
 20
3319.084839419603
 30
0.0
 11
8724.123251791107
 21
3333.484839419603
 31
0.0
  0
LINE
  5
1B259
330
1AC64
100
AcDbEntity
  8
HASHIRA
100
AcDbLine
 10
8724.123251791107
 20
3333.484839419603
 30
0.0
 11
8436.12325179111
 21
3333.484839419599
 31
0.0
  0
LINE
  5
1B25A
330
1AC64
100
AcDbEntity
  8
HASHIRA
100
AcDbLine
 10
8436.12325179111
 20
3333.484839419599
 30
0.0
 11
8436.12325179111
 21
3319.084839419598
 31
0.0
  0
LINE
  5
1B25B
330
1AC64
100
AcDbEntity
  8
BOLT
100
AcDbLine
 10
8593.723251791109
 20
3362.2848394196
 30
0.0
 11
8593.723251791109
 21
3370.136803080576
 31
0.0
  0
LINE
  5
1B25C
330
1AC64
100
AcDbEntity
  8
BOLT
100
AcDbLine
 10
8593.723251791109
 20
3370.136803080576
 30
0.0
 11
8580.123251791111
 21
3377.988766741558
 31
0.0
  0
LINE
  5
1B25D
330
1AC64
100
AcDbEntity
  8
BOLT
100
AcDbLine
 10
8580.123251791111
 20
3377.988766741558
 30
0.0
 11
8566.523251791107
 21
3370.136803080576
 31
0.0
  0
LINE
  5
1B25E
330
1AC64
100
AcDbEntity
  8
BOLT
100
AcDbLine
 10
8566.523251791107
 20
3370.136803080576
 30
0.0
 11
8566.523251791107
 21
3362.2848394196
 31
0.0
  0
LINE
  5
1B25F
330
1AC64
100
AcDbEntity
  8
BOLT
100
AcDbLine
 10
8566.523251791107
 20
3362.2848394196
 30
0.0
 11
8566.523251791107
 21
3354.432875758621
 31
0.0
  0
LINE
  5
1B260
330
1AC64
100
AcDbEntity
  8
BOLT
100
AcDbLine
 10
8566.523251791107
 20
3354.432875758621
 30
0.0
 11
8580.123251791111
 21
3346.580912097639
 31
0.0
  0
LINE
  5
1B261
330
1AC64
100
AcDbEntity
  8
BOLT
100
AcDbLine
 10
8580.123251791111
 20
3346.580912097639
 30
0.0
 11
8593.723251791109
 21
3354.432875758621
 31
0.0
  0
LINE
  5
1B262
330
1AC64
100
AcDbEntity
  8
BOLT
100
AcDbLine
 10
8593.723251791109
 20
3354.432875758621
 30
0.0
 11
8593.723251791109
 21
3362.2848394196
 31
0.0
  0
LINE
  5
1B263
330
1AC64
100
AcDbEntity
  8
BOLT
100
AcDbLine
 10
8593.723251791109
 20
3426.2848394196
 30
0.0
 11
8593.723251791109
 21
3434.136803080576
 31
0.0
  0
LINE
  5
1B264
330
1AC64
100
AcDbEntity
  8
BOLT
100
AcDbLine
 10
8593.723251791109
 20
3434.136803080576
 30
0.0
 11
8580.123251791111
 21
3441.988766741558
 31
0.0
  0
LINE
  5
1B265
330
1AC64
100
AcDbEntity
  8
BOLT
100
AcDbLine
 10
8580.123251791111
 20
3441.988766741558
 30
0.0
 11
8566.523251791107
 21
3434.136803080576
 31
0.0
  0
LINE
  5
1B266
330
1AC64
100
AcDbEntity
  8
BOLT
100
AcDbLine
 10
8566.523251791107
 20
3434.136803080576
 30
0.0
 11
8566.523251791107
 21
3426.2848394196
 31
0.0
  0
LINE
  5
1B267
330
1AC64
100
AcDbEntity
  8
BOLT
100
AcDbLine
 10
8566.523251791107
 20
3426.2848394196
 30
0.0
 11
8566.523251791107
 21
3418.432875758621
 31
0.0
  0
LINE
  5
1B268
330
1AC64
100
AcDbEntity
  8
BOLT
100
AcDbLine
 10
8566.523251791107
 20
3418.432875758621
 30
0.0
 11
8580.123251791111
 21
3410.580912097639
 31
0.0
  0
LINE
  5
1B269
330
1AC64
100
AcDbEntity
  8
BOLT
100
AcDbLine
 10
8580.123251791111
 20
3410.580912097639
 30
0.0
 11
8593.723251791109
 21
3418.432875758621
 31
0.0
  0
LINE
  5
1B26A
330
1AC64
100
AcDbEntity
  8
BOLT
100
AcDbLine
 10
8593.723251791109
 20
3418.432875758621
 30
0.0
 11
8593.723251791109
 21
3426.2848394196
 31
0.0
  0
LINE
  5
1B26B
330
1AC64
100
AcDbEntity
  8
KISO
100
AcDbLine
 10
6559.217031986058
 20
7095.715360473253
 30
0.0
 11
7359.217031986059
 21
7095.715360473253
 31
0.0
  0
LINE
  5
1B26C
330
1AC64
100
AcDbEntity
  8
KISO
100
AcDbLine
 10
7359.217031986059
 20
7095.715360473253
 30
0.0
 11
7359.217031986059
 21
7895.715360473253
 31
0.0
  0
LINE
  5
1B26D
330
1AC64
100
AcDbEntity
  8
KISO
100
AcDbLine
 10
7359.217031986059
 20
7895.715360473253
 30
0.0
 11
6559.217031986058
 21
7895.715360473253
 31
0.0
  0
LINE
  5
1B26E
330
1AC64
100
AcDbEntity
  8
KISO
100
AcDbLine
 10
6559.217031986058
 20
7895.715360473253
 30
0.0
 11
6559.217031986058
 21
7095.715360473253
 31
0.0
  0
LINE
  5
1B26F
330
1AC64
100
AcDbEntity
  8
KISO
100
AcDbLine
 10
9009.217031986059
 20
7095.715360473253
 30
0.0
 11
9809.21703198606
 21
7095.715360473253
 31
0.0
  0
LINE
  5
1B270
330
1AC64
100
AcDbEntity
  8
KISO
100
AcDbLine
 10
9809.21703198606
 20
7095.715360473253
 30
0.0
 11
9809.21703198606
 21
7895.715360473253
 31
0.0
  0
LINE
  5
1B271
330
1AC64
100
AcDbEntity
  8
KISO
100
AcDbLine
 10
9809.21703198606
 20
7895.715360473253
 30
0.0
 11
9009.217031986059
 21
7895.715360473253
 31
0.0
  0
LINE
  5
1B272
330
1AC64
100
AcDbEntity
  8
KISO
100
AcDbLine
 10
9009.217031986059
 20
7895.715360473253
 30
0.0
 11
9009.217031986059
 21
7095.715360473253
 31
0.0
  0
LINE
  5
1B273
330
1AC64
100
AcDbEntity
  8
U1
100
AcDbLine
 10
9415.417031986061
 20
9325.915360473253
 30
0.0
 11
9383.017031986055
 21
9325.915360473253
 31
0.0
  0
LINE
  5
1B274
330
1AC64
100
AcDbEntity
  8
U1
100
AcDbLine
 10
9383.017031986055
 20
9265.515360473251
 30
0.0
 11
9435.417031986061
 21
9265.515360473251
 31
0.0
  0
ARC
  5
1B275
330
1AC64
100
AcDbEntity
  8
U1
100
AcDbCircle
 10
9383.017031986055
 20
9269.515360473251
 30
0.0
 40
4.0
100
AcDbArc
 50
180.0
 51
270.0
  0
ARC
  5
1B276
330
1AC64
100
AcDbEntity
  8
U1
100
AcDbCircle
 10
9383.017031986055
 20
9321.915360473253
 30
0.0
 40
4.0
100
AcDbArc
 50
90.0
 51
180.0
  0
LINE
  5
1B277
330
1AC64
100
AcDbEntity
  8
U1
100
AcDbLine
 10
9379.017031986059
 20
9321.915360473253
 30
0.0
 11
9379.017031986059
 21
9269.515360473251
 31
0.0
  0
ARC
  5
1B278
330
1AC64
100
AcDbEntity
  8
U1
100
AcDbCircle
 10
9435.417031986061
 20
9269.515360473251
 30
0.0
 40
4.0
100
AcDbArc
 50
270.0
 51
0.0
  0
ARC
  5
1B279
330
1AC64
100
AcDbEntity
  8
U1
100
AcDbCircle
 10
9415.417031986061
 20
9321.915360473253
 30
0.0
 40
4.0
100
AcDbArc
 50
0.0
 51
90.0
  0
ARC
  5
1B27A
330
1AC64
100
AcDbEntity
  8
U1
100
AcDbCircle
 10
9422.86703198606
 20
9312.665360473252
 30
0.0
 40
1.149999999999977
100
AcDbArc
 50
180.0
 51
0.0
  0
LINE
  5
1B27B
330
1AC64
100
AcDbEntity
  8
U1
100
AcDbLine
 10
9426.31703198606
 20
9320.215360473252
 30
0.0
 11
9426.31703198606
 21
9312.665360473252
 31
0.0
  0
LINE
  5
1B27C
330
1AC64
100
AcDbEntity
  8
U1
100
AcDbLine
 10
9424.017031986059
 20
9320.215360473252
 30
0.0
 11
9426.31703198606
 21
9320.215360473252
 31
0.0
  0
LINE
  5
1B27D
330
1AC64
100
AcDbEntity
  8
U1
100
AcDbLine
 10
9421.717031986061
 20
9313.215360473252
 30
0.0
 11
9424.017031986059
 21
9313.215360473252
 31
0.0
  0
ARC
  5
1B27E
330
1AC64
100
AcDbEntity
  8
U1
100
AcDbCircle
 10
9422.86703198606
 20
9312.665360473252
 30
0.0
 40
3.450000000000044
100
AcDbArc
 50
180.0
 51
0.0
  0
LINE
  5
1B27F
330
1AC64
100
AcDbEntity
  8
U1
100
AcDbLine
 10
9421.717031986061
 20
9312.665360473252
 30
0.0
 11
9421.717031986061
 21
9321.915360473253
 31
0.0
  0
LINE
  5
1B280
330
1AC64
100
AcDbEntity
  8
U1
100
AcDbLine
 10
9424.017031986059
 20
9321.915360473253
 30
0.0
 11
9424.017031986059
 21
9312.665360473252
 31
0.0
  0
LINE
  5
1B281
330
1AC64
100
AcDbEntity
  8
U1
100
AcDbLine
 10
9419.417031986061
 20
9312.665360473252
 30
0.0
 11
9419.417031986061
 21
9321.915360473253
 31
0.0
  0
ARC
  5
1B282
330
1AC64
100
AcDbEntity
  8
U1
100
AcDbCircle
 10
9435.417031986061
 20
9321.915360473253
 30
0.0
 40
4.0
100
AcDbArc
 50
0.0
 51
90.0
  0
LINE
  5
1B283
330
1AC64
100
AcDbEntity
  8
U1
100
AcDbLine
 10
9435.417031986061
 20
9325.915360473253
 30
0.0
 11
9428.017031986057
 21
9325.915360473253
 31
0.0
  0
ARC
  5
1B284
330
1AC64
100
AcDbEntity
  8
U1
100
AcDbCircle
 10
9428.017031986057
 20
9321.915360473253
 30
0.0
 40
4.0
100
AcDbArc
 50
90.0
 51
180.0
  0
LINE
  5
1B285
330
1AC64
100
AcDbEntity
  8
U1
100
AcDbLine
 10
9439.41703198606
 20
9269.515360473251
 30
0.0
 11
9439.41703198606
 21
9321.915360473253
 31
0.0
  0
LINE
  5
1B286
330
1AC64
100
AcDbEntity
  8
U1
100
AcDbLine
 10
9415.417031986061
 20
7525.915360473252
 30
0.0
 11
9383.017031986055
 21
7525.915360473252
 31
0.0
  0
LINE
  5
1B287
330
1AC64
100
AcDbEntity
  8
U1
100
AcDbLine
 10
9383.017031986055
 20
7465.515360473251
 30
0.0
 11
9435.417031986061
 21
7465.515360473251
 31
0.0
  0
ARC
  5
1B288
330
1AC64
100
AcDbEntity
  8
U1
100
AcDbCircle
 10
9383.017031986055
 20
7469.515360473251
 30
0.0
 40
4.0
100
AcDbArc
 50
180.0
 51
270.0
  0
ARC
  5
1B289
330
1AC64
100
AcDbEntity
  8
U1
100
AcDbCircle
 10
9383.017031986055
 20
7521.915360473252
 30
0.0
 40
4.0
100
AcDbArc
 50
90.0
 51
180.0
  0
LINE
  5
1B28A
330
1AC64
100
AcDbEntity
  8
U1
100
AcDbLine
 10
9379.017031986059
 20
7521.915360473252
 30
0.0
 11
9379.017031986059
 21
7469.515360473251
 31
0.0
  0
ARC
  5
1B28B
330
1AC64
100
AcDbEntity
  8
U1
100
AcDbCircle
 10
9435.417031986061
 20
7469.515360473251
 30
0.0
 40
4.0
100
AcDbArc
 50
270.0
 51
0.0
  0
ARC
  5
1B28C
330
1AC64
100
AcDbEntity
  8
U1
100
AcDbCircle
 10
9415.417031986061
 20
7521.915360473252
 30
0.0
 40
4.0
100
AcDbArc
 50
0.0
 51
90.0
  0
ARC
  5
1B28D
330
1AC64
100
AcDbEntity
  8
U1
100
AcDbCircle
 10
9422.86703198606
 20
7512.665360473251
 30
0.0
 40
1.149999999999977
100
AcDbArc
 50
180.0
 51
0.0
  0
LINE
  5
1B28E
330
1AC64
100
AcDbEntity
  8
U1
100
AcDbLine
 10
9426.31703198606
 20
7520.215360473253
 30
0.0
 11
9426.31703198606
 21
7512.665360473251
 31
0.0
  0
LINE
  5
1B28F
330
1AC64
100
AcDbEntity
  8
U1
100
AcDbLine
 10
9424.017031986059
 20
7520.215360473253
 30
0.0
 11
9426.31703198606
 21
7520.215360473253
 31
0.0
  0
LINE
  5
1B290
330
1AC64
100
AcDbEntity
  8
U1
100
AcDbLine
 10
9421.717031986061
 20
7513.215360473253
 30
0.0
 11
9424.017031986059
 21
7513.215360473253
 31
0.0
  0
ARC
  5
1B291
330
1AC64
100
AcDbEntity
  8
U1
100
AcDbCircle
 10
9422.86703198606
 20
7512.665360473251
 30
0.0
 40
3.450000000000044
100
AcDbArc
 50
180.0
 51
0.0
  0
LINE
  5
1B292
330
1AC64
100
AcDbEntity
  8
U1
100
AcDbLine
 10
9421.717031986061
 20
7512.665360473251
 30
0.0
 11
9421.717031986061
 21
7521.915360473252
 31
0.0
  0
LINE
  5
1B293
330
1AC64
100
AcDbEntity
  8
U1
100
AcDbLine
 10
9424.017031986059
 20
7521.915360473252
 30
0.0
 11
9424.017031986059
 21
7512.665360473251
 31
0.0
  0
LINE
  5
1B294
330
1AC64
100
AcDbEntity
  8
U1
100
AcDbLine
 10
9419.417031986061
 20
7512.665360473251
 30
0.0
 11
9419.417031986061
 21
7521.915360473252
 31
0.0
  0
ARC
  5
1B295
330
1AC64
100
AcDbEntity
  8
U1
100
AcDbCircle
 10
9435.417031986061
 20
7521.915360473252
 30
0.0
 40
4.0
100
AcDbArc
 50
0.0
 51
90.0
  0
LINE
  5
1B296
330
1AC64
100
AcDbEntity
  8
U1
100
AcDbLine
 10
9435.417031986061
 20
7525.915360473252
 30
0.0
 11
9428.017031986057
 21
7525.915360473252
 31
0.0
  0
ARC
  5
1B297
330
1AC64
100
AcDbEntity
  8
U1
100
AcDbCircle
 10
9428.017031986057
 20
7521.915360473252
 30
0.0
 40
4.0
100
AcDbArc
 50
90.0
 51
180.0
  0
LINE
  5
1B298
330
1AC64
100
AcDbEntity
  8
U1
100
AcDbLine
 10
9439.41703198606
 20
7469.515360473251
 30
0.0
 11
9439.41703198606
 21
7521.915360473252
 31
0.0
  0
LINE
  5
1B299
330
1AC64
100
AcDbEntity
  8
U1
100
AcDbLine
 10
9415.417031986061
 20
5725.915360473253
 30
0.0
 11
9383.017031986055
 21
5725.915360473253
 31
0.0
  0
LINE
  5
1B29A
330
1AC64
100
AcDbEntity
  8
U1
100
AcDbLine
 10
9383.017031986055
 20
5665.515360473253
 30
0.0
 11
9435.417031986061
 21
5665.515360473253
 31
0.0
  0
ARC
  5
1B29B
330
1AC64
100
AcDbEntity
  8
U1
100
AcDbCircle
 10
9383.017031986055
 20
5669.515360473252
 30
0.0
 40
4.0
100
AcDbArc
 50
180.0
 51
270.0
  0
ARC
  5
1B29C
330
1AC64
100
AcDbEntity
  8
U1
100
AcDbCircle
 10
9383.017031986055
 20
5721.915360473253
 30
0.0
 40
4.0
100
AcDbArc
 50
90.0
 51
180.0
  0
LINE
  5
1B29D
330
1AC64
100
AcDbEntity
  8
U1
100
AcDbLine
 10
9379.017031986059
 20
5721.915360473253
 30
0.0
 11
9379.017031986059
 21
5669.515360473252
 31
0.0
  0
ARC
  5
1B29E
330
1AC64
100
AcDbEntity
  8
U1
100
AcDbCircle
 10
9435.417031986061
 20
5669.515360473252
 30
0.0
 40
4.0
100
AcDbArc
 50
270.0
 51
0.0
  0
ARC
  5
1B29F
330
1AC64
100
AcDbEntity
  8
U1
100
AcDbCircle
 10
9415.417031986061
 20
5721.915360473253
 30
0.0
 40
4.0
100
AcDbArc
 50
0.0
 51
90.0
  0
ARC
  5
1B2A0
330
1AC64
100
AcDbEntity
  8
U1
100
AcDbCircle
 10
9422.86703198606
 20
5712.665360473253
 30
0.0
 40
1.149999999999977
100
AcDbArc
 50
180.0
 51
0.0
  0
LINE
  5
1B2A1
330
1AC64
100
AcDbEntity
  8
U1
100
AcDbLine
 10
9426.31703198606
 20
5720.215360473253
 30
0.0
 11
9426.31703198606
 21
5712.665360473253
 31
0.0
  0
LINE
  5
1B2A2
330
1AC64
100
AcDbEntity
  8
U1
100
AcDbLine
 10
9424.017031986059
 20
5720.215360473253
 30
0.0
 11
9426.31703198606
 21
5720.215360473253
 31
0.0
  0
LINE
  5
1B2A3
330
1AC64
100
AcDbEntity
  8
U1
100
AcDbLine
 10
9421.717031986061
 20
5713.215360473252
 30
0.0
 11
9424.017031986059
 21
5713.215360473252
 31
0.0
  0
ARC
  5
1B2A4
330
1AC64
100
AcDbEntity
  8
U1
100
AcDbCircle
 10
9422.86703198606
 20
5712.665360473253
 30
0.0
 40
3.450000000000044
100
AcDbArc
 50
180.0
 51
0.0
  0
LINE
  5
1B2A5
330
1AC64
100
AcDbEntity
  8
U1
100
AcDbLine
 10
9421.717031986061
 20
5712.665360473253
 30
0.0
 11
9421.717031986061
 21
5721.915360473252
 31
0.0
  0
LINE
  5
1B2A6
330
1AC64
100
AcDbEntity
  8
U1
100
AcDbLine
 10
9424.017031986059
 20
5721.915360473253
 30
0.0
 11
9424.017031986059
 21
5712.665360473253
 31
0.0
  0
LINE
  5
1B2A7
330
1AC64
100
AcDbEntity
  8
U1
100
AcDbLine
 10
9419.417031986061
 20
5712.665360473253
 30
0.0
 11
9419.417031986061
 21
5721.915360473253
 31
0.0
  0
ARC
  5
1B2A8
330
1AC64
100
AcDbEntity
  8
U1
100
AcDbCircle
 10
9435.417031986061
 20
5721.915360473253
 30
0.0
 40
4.0
100
AcDbArc
 50
0.0
 51
90.0
  0
LINE
  5
1B2A9
330
1AC64
100
AcDbEntity
  8
U1
100
AcDbLine
 10
9435.417031986061
 20
5725.915360473253
 30
0.0
 11
9428.017031986057
 21
5725.915360473253
 31
0.0
  0
ARC
  5
1B2AA
330
1AC64
100
AcDbEntity
  8
U1
100
AcDbCircle
 10
9428.017031986057
 20
5721.915360473253
 30
0.0
 40
4.0
100
AcDbArc
 50
90.0
 51
180.0
  0
LINE
  5
1B2AB
330
1AC64
100
AcDbEntity
  8
U1
100
AcDbLine
 10
9439.41703198606
 20
5669.515360473252
 30
0.0
 11
9439.41703198606
 21
5721.915360473253
 31
0.0
  0
LINE
  5
1B2AC
330
1AC64
100
AcDbEntity
  8
U1
100
AcDbLine
 10
6965.41703198606
 20
9325.915360473253
 30
0.0
 11
6933.017031986058
 21
9325.915360473253
 31
0.0
  0
LINE
  5
1B2AD
330
1AC64
100
AcDbEntity
  8
U1
100
AcDbLine
 10
6933.017031986058
 20
9265.515360473251
 30
0.0
 11
6985.41703198606
 21
9265.515360473251
 31
0.0
  0
ARC
  5
1B2AE
330
1AC64
100
AcDbEntity
  8
U1
100
AcDbCircle
 10
6933.017031986058
 20
9269.515360473251
 30
0.0
 40
4.0
100
AcDbArc
 50
180.0
 51
270.0
  0
ARC
  5
1B2AF
330
1AC64
100
AcDbEntity
  8
U1
100
AcDbCircle
 10
6933.017031986058
 20
9321.915360473253
 30
0.0
 40
4.0
100
AcDbArc
 50
90.0
 51
180.0
  0
LINE
  5
1B2B0
330
1AC64
100
AcDbEntity
  8
U1
100
AcDbLine
 10
6929.01703198606
 20
9321.915360473253
 30
0.0
 11
6929.01703198606
 21
9269.515360473251
 31
0.0
  0
ARC
  5
1B2B1
330
1AC64
100
AcDbEntity
  8
U1
100
AcDbCircle
 10
6985.41703198606
 20
9269.515360473251
 30
0.0
 40
4.0
100
AcDbArc
 50
270.0
 51
0.0
  0
ARC
  5
1B2B2
330
1AC64
100
AcDbEntity
  8
U1
100
AcDbCircle
 10
6965.41703198606
 20
9321.915360473253
 30
0.0
 40
4.0
100
AcDbArc
 50
0.0
 51
90.0
  0
ARC
  5
1B2B3
330
1AC64
100
AcDbEntity
  8
U1
100
AcDbCircle
 10
6972.867031986059
 20
9312.665360473252
 30
0.0
 40
1.149999999999977
100
AcDbArc
 50
180.0
 51
0.0
  0
LINE
  5
1B2B4
330
1AC64
100
AcDbEntity
  8
U1
100
AcDbLine
 10
6976.317031986059
 20
9320.215360473252
 30
0.0
 11
6976.317031986059
 21
9312.665360473252
 31
0.0
  0
LINE
  5
1B2B5
330
1AC64
100
AcDbEntity
  8
U1
100
AcDbLine
 10
6974.017031986059
 20
9320.215360473252
 30
0.0
 11
6976.317031986059
 21
9320.215360473252
 31
0.0
  0
LINE
  5
1B2B6
330
1AC64
100
AcDbEntity
  8
U1
100
AcDbLine
 10
6971.717031986059
 20
9313.215360473252
 30
0.0
 11
6974.017031986059
 21
9313.215360473252
 31
0.0
  0
ARC
  5
1B2B7
330
1AC64
100
AcDbEntity
  8
U1
100
AcDbCircle
 10
6972.867031986059
 20
9312.665360473252
 30
0.0
 40
3.450000000000044
100
AcDbArc
 50
180.0
 51
0.0
  0
LINE
  5
1B2B8
330
1AC64
100
AcDbEntity
  8
U1
100
AcDbLine
 10
6971.717031986059
 20
9312.665360473252
 30
0.0
 11
6971.717031986059
 21
9321.915360473253
 31
0.0
  0
LINE
  5
1B2B9
330
1AC64
100
AcDbEntity
  8
U1
100
AcDbLine
 10
6974.017031986059
 20
9321.915360473253
 30
0.0
 11
6974.017031986059
 21
9312.665360473252
 31
0.0
  0
LINE
  5
1B2BA
330
1AC64
100
AcDbEntity
  8
U1
100
AcDbLine
 10
6969.41703198606
 20
9312.665360473252
 30
0.0
 11
6969.41703198606
 21
9321.915360473253
 31
0.0
  0
ARC
  5
1B2BB
330
1AC64
100
AcDbEntity
  8
U1
100
AcDbCircle
 10
6985.417031986059
 20
9321.915360473253
 30
0.0
 40
4.0
100
AcDbArc
 50
0.0
 51
90.0
  0
LINE
  5
1B2BC
330
1AC64
100
AcDbEntity
  8
U1
100
AcDbLine
 10
6985.417031986059
 20
9325.915360473253
 30
0.0
 11
6978.01703198606
 21
9325.915360473253
 31
0.0
  0
ARC
  5
1B2BD
330
1AC64
100
AcDbEntity
  8
U1
100
AcDbCircle
 10
6978.01703198606
 20
9321.915360473253
 30
0.0
 40
4.0
100
AcDbArc
 50
90.0
 51
180.0
  0
LINE
  5
1B2BE
330
1AC64
100
AcDbEntity
  8
U1
100
AcDbLine
 10
6989.417031986059
 20
9269.515360473251
 30
0.0
 11
6989.417031986059
 21
9321.915360473253
 31
0.0
  0
LINE
  5
1B2BF
330
1AC64
100
AcDbEntity
  8
U1
100
AcDbLine
 10
6965.41703198606
 20
7525.915360473252
 30
0.0
 11
6933.017031986058
 21
7525.915360473252
 31
0.0
  0
LINE
  5
1B2C0
330
1AC64
100
AcDbEntity
  8
U1
100
AcDbLine
 10
6933.017031986058
 20
7465.515360473251
 30
0.0
 11
6985.41703198606
 21
7465.515360473251
 31
0.0
  0
ARC
  5
1B2C1
330
1AC64
100
AcDbEntity
  8
U1
100
AcDbCircle
 10
6933.017031986058
 20
7469.515360473251
 30
0.0
 40
4.0
100
AcDbArc
 50
180.0
 51
270.0
  0
ARC
  5
1B2C2
330
1AC64
100
AcDbEntity
  8
U1
100
AcDbCircle
 10
6933.017031986058
 20
7521.915360473252
 30
0.0
 40
4.0
100
AcDbArc
 50
90.0
 51
180.0
  0
LINE
  5
1B2C3
330
1AC64
100
AcDbEntity
  8
U1
100
AcDbLine
 10
6929.01703198606
 20
7521.915360473252
 30
0.0
 11
6929.01703198606
 21
7469.515360473251
 31
0.0
  0
ARC
  5
1B2C4
330
1AC64
100
AcDbEntity
  8
U1
100
AcDbCircle
 10
6985.41703198606
 20
7469.515360473251
 30
0.0
 40
4.0
100
AcDbArc
 50
270.0
 51
0.0
  0
ARC
  5
1B2C5
330
1AC64
100
AcDbEntity
  8
U1
100
AcDbCircle
 10
6965.41703198606
 20
7521.915360473252
 30
0.0
 40
4.0
100
AcDbArc
 50
0.0
 51
90.0
  0
ARC
  5
1B2C6
330
1AC64
100
AcDbEntity
  8
U1
100
AcDbCircle
 10
6972.867031986059
 20
7512.665360473251
 30
0.0
 40
1.149999999999977
100
AcDbArc
 50
180.0
 51
0.0
  0
LINE
  5
1B2C7
330
1AC64
100
AcDbEntity
  8
U1
100
AcDbLine
 10
6976.317031986059
 20
7520.215360473253
 30
0.0
 11
6976.317031986059
 21
7512.665360473251
 31
0.0
  0
LINE
  5
1B2C8
330
1AC64
100
AcDbEntity
  8
U1
100
AcDbLine
 10
6974.017031986059
 20
7520.215360473253
 30
0.0
 11
6976.317031986059
 21
7520.215360473253
 31
0.0
  0
LINE
  5
1B2C9
330
1AC64
100
AcDbEntity
  8
U1
100
AcDbLine
 10
6971.717031986059
 20
7513.215360473253
 30
0.0
 11
6974.017031986059
 21
7513.215360473253
 31
0.0
  0
ARC
  5
1B2CA
330
1AC64
100
AcDbEntity
  8
U1
100
AcDbCircle
 10
6972.867031986059
 20
7512.665360473251
 30
0.0
 40
3.450000000000044
100
AcDbArc
 50
180.0
 51
0.0
  0
LINE
  5
1B2CB
330
1AC64
100
AcDbEntity
  8
U1
100
AcDbLine
 10
6971.717031986059
 20
7512.665360473251
 30
0.0
 11
6971.717031986059
 21
7521.915360473252
 31
0.0
  0
LINE
  5
1B2CC
330
1AC64
100
AcDbEntity
  8
U1
100
AcDbLine
 10
6974.017031986059
 20
7521.915360473252
 30
0.0
 11
6974.017031986059
 21
7512.665360473251
 31
0.0
  0
LINE
  5
1B2CD
330
1AC64
100
AcDbEntity
  8
U1
100
AcDbLine
 10
6969.41703198606
 20
7512.665360473251
 30
0.0
 11
6969.41703198606
 21
7521.915360473252
 31
0.0
  0
ARC
  5
1B2CE
330
1AC64
100
AcDbEntity
  8
U1
100
AcDbCircle
 10
6985.417031986059
 20
7521.915360473252
 30
0.0
 40
4.0
100
AcDbArc
 50
0.0
 51
90.0
  0
LINE
  5
1B2CF
330
1AC64
100
AcDbEntity
  8
U1
100
AcDbLine
 10
6985.417031986059
 20
7525.915360473252
 30
0.0
 11
6978.01703198606
 21
7525.915360473252
 31
0.0
  0
ARC
  5
1B2D0
330
1AC64
100
AcDbEntity
  8
U1
100
AcDbCircle
 10
6978.01703198606
 20
7521.915360473252
 30
0.0
 40
4.0
100
AcDbArc
 50
90.0
 51
180.0
  0
LINE
  5
1B2D1
330
1AC64
100
AcDbEntity
  8
U1
100
AcDbLine
 10
6989.417031986059
 20
7469.515360473251
 30
0.0
 11
6989.417031986059
 21
7521.915360473252
 31
0.0
  0
LINE
  5
1B2D2
330
1AC64
100
AcDbEntity
  8
U1
100
AcDbLine
 10
6965.41703198606
 20
5725.915360473253
 30
0.0
 11
6933.017031986058
 21
5725.915360473253
 31
0.0
  0
LINE
  5
1B2D3
330
1AC64
100
AcDbEntity
  8
U1
100
AcDbLine
 10
6933.017031986058
 20
5665.515360473253
 30
0.0
 11
6985.41703198606
 21
5665.515360473253
 31
0.0
  0
ARC
  5
1B2D4
330
1AC64
100
AcDbEntity
  8
U1
100
AcDbCircle
 10
6933.017031986058
 20
5669.515360473252
 30
0.0
 40
4.0
100
AcDbArc
 50
180.0
 51
270.0
  0
ARC
  5
1B2D5
330
1AC64
100
AcDbEntity
  8
U1
100
AcDbCircle
 10
6933.017031986058
 20
5721.915360473253
 30
0.0
 40
4.0
100
AcDbArc
 50
90.0
 51
180.0
  0
LINE
  5
1B2D6
330
1AC64
100
AcDbEntity
  8
U1
100
AcDbLine
 10
6929.01703198606
 20
5721.915360473253
 30
0.0
 11
6929.01703198606
 21
5669.515360473252
 31
0.0
  0
ARC
  5
1B2D7
330
1AC64
100
AcDbEntity
  8
U1
100
AcDbCircle
 10
6985.41703198606
 20
5669.515360473252
 30
0.0
 40
4.0
100
AcDbArc
 50
270.0
 51
0.0
  0
ARC
  5
1B2D8
330
1AC64
100
AcDbEntity
  8
U1
100
AcDbCircle
 10
6965.41703198606
 20
5721.915360473253
 30
0.0
 40
4.0
100
AcDbArc
 50
0.0
 51
90.0
  0
ARC
  5
1B2D9
330
1AC64
100
AcDbEntity
  8
U1
100
AcDbCircle
 10
6972.867031986059
 20
5712.665360473253
 30
0.0
 40
1.149999999999977
100
AcDbArc
 50
180.0
 51
0.0
  0
LINE
  5
1B2DA
330
1AC64
100
AcDbEntity
  8
U1
100
AcDbLine
 10
6976.317031986059
 20
5720.215360473253
 30
0.0
 11
6976.317031986059
 21
5712.665360473253
 31
0.0
  0
LINE
  5
1B2DB
330
1AC64
100
AcDbEntity
  8
U1
100
AcDbLine
 10
6974.017031986059
 20
5720.215360473253
 30
0.0
 11
6976.317031986059
 21
5720.215360473253
 31
0.0
  0
LINE
  5
1B2DC
330
1AC64
100
AcDbEntity
  8
U1
100
AcDbLine
 10
6971.717031986059
 20
5713.215360473252
 30
0.0
 11
6974.017031986059
 21
5713.215360473252
 31
0.0
  0
ARC
  5
1B2DD
330
1AC64
100
AcDbEntity
  8
U1
100
AcDbCircle
 10
6972.867031986059
 20
5712.665360473253
 30
0.0
 40
3.450000000000044
100
AcDbArc
 50
180.0
 51
0.0
  0
LINE
  5
1B2DE
330
1AC64
100
AcDbEntity
  8
U1
100
AcDbLine
 10
6971.717031986059
 20
5712.665360473253
 30
0.0
 11
6971.717031986059
 21
5721.915360473252
 31
0.0
  0
LINE
  5
1B2DF
330
1AC64
100
AcDbEntity
  8
U1
100
AcDbLine
 10
6974.017031986059
 20
5721.915360473253
 30
0.0
 11
6974.017031986059
 21
5712.665360473253
 31
0.0
  0
LINE
  5
1B2E0
330
1AC64
100
AcDbEntity
  8
U1
100
AcDbLine
 10
6969.41703198606
 20
5712.665360473253
 30
0.0
 11
6969.41703198606
 21
5721.915360473253
 31
0.0
  0
ARC
  5
1B2E1
330
1AC64
100
AcDbEntity
  8
U1
100
AcDbCircle
 10
6985.417031986059
 20
5721.915360473253
 30
0.0
 40
4.0
100
AcDbArc
 50
0.0
 51
90.0
  0
LINE
  5
1B2E2
330
1AC64
100
AcDbEntity
  8
U1
100
AcDbLine
 10
6985.417031986059
 20
5725.915360473253
 30
0.0
 11
6978.01703198606
 21
5725.915360473253
 31
0.0
  0
ARC
  5
1B2E3
330
1AC64
100
AcDbEntity
  8
U1
100
AcDbCircle
 10
6978.01703198606
 20
5721.915360473253
 30
0.0
 40
4.0
100
AcDbArc
 50
90.0
 51
180.0
  0
LINE
  5
1B2E4
330
1AC64
100
AcDbEntity
  8
U1
100
AcDbLine
 10
6989.417031986059
 20
5669.515360473252
 30
0.0
 11
6989.417031986059
 21
5721.915360473253
 31
0.0
  0
LINE
  5
1B2E5
330
1AC64
100
AcDbEntity
  8
YANE
  6
2PL-L
 62
     6
100
AcDbLine
 10
9805.21703198606
 20
5295.715360473253
 30
0.0
 11
6563.217031986058
 21
5295.715360473253
 31
0.0
  0
LINE
  5
1B2E6
330
1AC64
100
AcDbEntity
  8
YANE
  6
2PL-L
 62
     6
100
AcDbLine
 10
6563.217031986058
 20
5295.715360473253
 30
0.0
 11
6563.217031986058
 21
9695.715360473252
 31
0.0
  0
LINE
  5
1B2E7
330
1AC64
100
AcDbEntity
  8
YANE
  6
2PL-L
 62
     6
100
AcDbLine
 10
6563.217031986058
 20
9695.715360473252
 30
0.0
 11
9805.21703198606
 21
9695.715360473252
 31
0.0
  0
LINE
  5
1B2E8
330
1AC64
100
AcDbEntity
  8
YANE
  6
2PL-L
 62
     6
100
AcDbLine
 10
9805.21703198606
 20
9695.715360473252
 30
0.0
 11
9805.21703198606
 21
5295.715360473253
 31
0.0
  0
LINE
  5
1B2E9
330
1AC64
100
AcDbEntity
  8
KISO
100
AcDbLine
 10
6659.217031986059
 20
5395.715360473253
 30
0.0
 11
7259.21703198606
 21
5395.715360473253
 31
0.0
  0
LINE
  5
1B2EA
330
1AC64
100
AcDbEntity
  8
KISO
100
AcDbLine
 10
7259.21703198606
 20
5395.715360473253
 30
0.0
 11
7259.21703198606
 21
5995.715360473253
 31
0.0
  0
LINE
  5
1B2EB
330
1AC64
100
AcDbEntity
  8
KISO
100
AcDbLine
 10
7259.21703198606
 20
5995.715360473253
 30
0.0
 11
6659.217031986059
 21
5995.715360473253
 31
0.0
  0
LINE
  5
1B2EC
330
1AC64
100
AcDbEntity
  8
KISO
100
AcDbLine
 10
6659.217031986059
 20
5995.715360473253
 30
0.0
 11
6659.217031986059
 21
5395.715360473253
 31
0.0
  0
LINE
  5
1B2ED
330
1AC64
100
AcDbEntity
  8
KISO
100
AcDbLine
 10
6659.217031986059
 20
8995.715360473253
 30
0.0
 11
7259.21703198606
 21
8995.715360473253
 31
0.0
  0
LINE
  5
1B2EE
330
1AC64
100
AcDbEntity
  8
KISO
100
AcDbLine
 10
7259.21703198606
 20
8995.715360473253
 30
0.0
 11
7259.21703198606
 21
9595.715360473253
 31
0.0
  0
LINE
  5
1B2EF
330
1AC64
100
AcDbEntity
  8
KISO
100
AcDbLine
 10
7259.21703198606
 20
9595.715360473253
 30
0.0
 11
6659.217031986059
 21
9595.715360473253
 31
0.0
  0
LINE
  5
1B2F0
330
1AC64
100
AcDbEntity
  8
KISO
100
AcDbLine
 10
6659.217031986059
 20
9595.715360473253
 30
0.0
 11
6659.217031986059
 21
8995.715360473253
 31
0.0
  0
LINE
  5
1B2F1
330
1AC64
100
AcDbEntity
  8
KISO
100
AcDbLine
 10
9709.217031986066
 20
8995.715360473253
 30
0.0
 11
9109.217031986066
 21
8995.715360473253
 31
0.0
  0
LINE
  5
1B2F2
330
1AC64
100
AcDbEntity
  8
KISO
100
AcDbLine
 10
9109.217031986066
 20
8995.715360473253
 30
0.0
 11
9109.217031986066
 21
9595.715360473253
 31
0.0
  0
LINE
  5
1B2F3
330
1AC64
100
AcDbEntity
  8
KISO
100
AcDbLine
 10
9109.217031986066
 20
9595.715360473253
 30
0.0
 11
9709.217031986066
 21
9595.715360473253
 31
0.0
  0
LINE
  5
1B2F4
330
1AC64
100
AcDbEntity
  8
KISO
100
AcDbLine
 10
9709.217031986066
 20
9595.715360473253
 30
0.0
 11
9709.217031986066
 21
8995.715360473253
 31
0.0
  0
LINE
  5
1B2F5
330
1AC64
100
AcDbEntity
  8
KISO
100
AcDbLine
 10
9709.217031986066
 20
5395.715360473253
 30
0.0
 11
9109.217031986066
 21
5395.715360473253
 31
0.0
  0
LINE
  5
1B2F6
330
1AC64
100
AcDbEntity
  8
KISO
100
AcDbLine
 10
9109.217031986066
 20
5395.715360473253
 30
0.0
 11
9109.217031986066
 21
5995.715360473253
 31
0.0
  0
LINE
  5
1B2F7
330
1AC64
100
AcDbEntity
  8
KISO
100
AcDbLine
 10
9109.217031986066
 20
5995.715360473253
 30
0.0
 11
9709.217031986066
 21
5995.715360473253
 31
0.0
  0
LINE
  5
1B2F8
330
1AC64
100
AcDbEntity
  8
KISO
100
AcDbLine
 10
9709.217031986066
 20
5995.715360473253
 30
0.0
 11
9709.217031986066
 21
5395.715360473253
 31
0.0
  0
LINE
  5
1B2F9
330
1AC64
100
AcDbEntity
  8
U1
100
AcDbLine
 10
11391.33837406208
 20
2550.144344053149
 30
0.0
 11
11691.33837406209
 21
2550.144344053149
 31
0.0
  0
LINE
  5
1B2FA
330
1AC64
100
AcDbEntity
  8
U1
100
AcDbLine
 10
11691.33837406209
 20
2550.144344053149
 30
0.0
 11
11691.33837406209
 21
2850.144344053148
 31
0.0
  0
LINE
  5
1B2FB
330
1AC64
100
AcDbEntity
  8
U1
100
AcDbLine
 10
11691.33837406209
 20
2850.144344053148
 30
0.0
 11
11391.33837406208
 21
2850.144344053148
 31
0.0
  0
LINE
  5
1B2FC
330
1AC64
100
AcDbEntity
  8
U1
100
AcDbLine
 10
11391.33837406208
 20
2850.144344053148
 30
0.0
 11
11391.33837406208
 21
2550.144344053149
 31
0.0
  0
LINE
  5
1B2FD
330
1AC64
100
AcDbEntity
  8
U1
100
AcDbLine
 10
11221.33837406209
 20
2540.144344053149
 30
0.0
 11
11861.33837406209
 21
2540.144344053149
 31
0.0
  0
LINE
  5
1B2FE
330
1AC64
100
AcDbEntity
  8
U1
100
AcDbLine
 10
11861.33837406209
 20
2540.144344053149
 30
0.0
 11
11861.33837406209
 21
2860.144344053149
 31
0.0
  0
LINE
  5
1B2FF
330
1AC64
100
AcDbEntity
  8
U1
100
AcDbLine
 10
11861.33837406209
 20
2860.144344053149
 30
0.0
 11
11221.33837406209
 21
2860.144344053149
 31
0.0
  0
LINE
  5
1B300
330
1AC64
100
AcDbEntity
  8
U1
100
AcDbLine
 10
11221.33837406209
 20
2860.144344053149
 30
0.0
 11
11221.33837406209
 21
2540.144344053149
 31
0.0
  0
LINE
  5
1B301
330
1AC64
100
AcDbEntity
  8
U1
100
AcDbLine
 10
11221.33837406209
 20
3618.337036584561
 30
0.0
 11
11861.33837406209
 21
3618.337036584561
 31
0.0
  0
LINE
  5
1B302
330
1AC64
100
AcDbEntity
  8
U1
100
AcDbLine
 10
11861.33837406209
 20
3618.337036584561
 30
0.0
 11
11861.33837406209
 21
3642.337036584561
 31
0.0
  0
LINE
  5
1B303
330
1AC64
100
AcDbEntity
  8
U1
100
AcDbLine
 10
11861.33837406209
 20
3642.337036584561
 30
0.0
 11
11221.33837406209
 21
3642.337036584561
 31
0.0
  0
LINE
  5
1B304
330
1AC64
100
AcDbEntity
  8
U1
100
AcDbLine
 10
11221.33837406209
 20
3642.337036584561
 30
0.0
 11
11221.33837406209
 21
3618.337036584561
 31
0.0
  0
LINE
  5
1B305
330
1AC64
100
AcDbEntity
  8
KISO
100
AcDbLine
 10
4159.797051267463
 20
2551.084839419603
 30
0.0
 11
5439.797051267463
 21
2551.084839419603
 31
0.0
  0
LINE
  5
1B306
330
1AC64
100
AcDbEntity
  8
KISO
100
AcDbLine
 10
5439.797051267463
 20
2551.084839419603
 30
0.0
 11
5439.797051267463
 21
2711.084839419603
 31
0.0
  0
LINE
  5
1B307
330
1AC64
100
AcDbEntity
  8
KISO
100
AcDbLine
 10
5439.797051267463
 20
2711.084839419603
 30
0.0
 11
4159.797051267463
 21
2711.084839419603
 31
0.0
  0
LINE
  5
1B308
330
1AC64
100
AcDbEntity
  8
KISO
100
AcDbLine
 10
4159.797051267463
 20
2711.084839419603
 30
0.0
 11
4159.797051267463
 21
2551.084839419603
 31
0.0
  0
LINE
  5
1B309
330
1AC64
100
AcDbEntity
  8
HATCH
100
AcDbLine
 10
5423.83885216328
 20
3191.084839420225
 30
0.0
 11
5404.63885216328
 21
3224.340214925542
 31
0.0
  0
LINE
  5
1B30A
330
1AC64
100
AcDbEntity
  8
HATCH
100
AcDbLine
 10
5855.83885216328
 20
3191.084839420225
 30
0.0
 11
5836.638852163281
 21
3224.340214925542
 31
0.0
  0
LINE
  5
1B30B
330
1AC64
100
AcDbEntity
  8
HATCH
100
AcDbLine
 10
5567.83885216328
 20
3191.084839420225
 30
0.0
 11
5548.638852163282
 21
3224.340214925542
 31
0.0
  0
LINE
  5
1B30C
330
1AC64
100
AcDbEntity
  8
HATCH
100
AcDbLine
 10
5711.838852163278
 20
3191.084839420225
 30
0.0
 11
5692.63885216328
 21
3224.340214925542
 31
0.0
  0
LINE
  5
1B30D
330
1AC64
100
AcDbEntity
  8
HATCH
100
AcDbLine
 10
5999.838852163279
 20
3191.084839420225
 30
0.0
 11
5980.638852163282
 21
3224.340214925542
 31
0.0
  0
LINE
  5
1B30E
330
1AC64
100
AcDbEntity
  8
HASHIRA
100
AcDbLine
 10
4735.797051267462
 20
3319.084839419608
 30
0.0
 11
4863.797051267464
 21
3319.084839419608
 31
0.0
  0
LINE
  5
1B30F
330
1AC64
100
AcDbEntity
  8
HASHIRA
100
AcDbLine
 10
4863.797051267464
 20
3319.084839419608
 30
0.0
 11
4863.797051267464
 21
3328.684839419607
 31
0.0
  0
LINE
  5
1B310
330
1AC64
100
AcDbEntity
  8
HASHIRA
100
AcDbLine
 10
4863.797051267464
 20
3328.684839419607
 30
0.0
 11
4735.797051267462
 21
3328.684839419607
 31
0.0
  0
LINE
  5
1B311
330
1AC64
100
AcDbEntity
  8
HASHIRA
100
AcDbLine
 10
4735.797051267462
 20
3328.684839419607
 30
0.0
 11
4735.797051267462
 21
3319.084839419608
 31
0.0
  0
LINE
  5
1B312
330
1AC64
100
AcDbEntity
  8
TENSEN-1
100
AcDbLine
 10
4735.797051267462
 20
2869.484839419607
 30
0.0
 11
4789.397051267463
 21
2869.484839419607
 31
0.0
  0
LINE
  5
1B313
330
1AC64
100
AcDbEntity
  8
TENSEN-1
100
AcDbLine
 10
4789.397051267463
 20
2869.484839419607
 30
0.0
 11
4789.397051267463
 21
3360.684839419607
 31
0.0
  0
LINE
  5
1B314
330
1AC64
100
AcDbEntity
  8
TENSEN-1
100
AcDbLine
 10
4789.397051267463
 20
3360.684839419607
 30
0.0
 11
4810.197051267465
 21
3360.684839419607
 31
0.0
  0
LINE
  5
1B315
330
1AC64
100
AcDbEntity
  8
TENSEN-1
100
AcDbLine
 10
4810.197051267465
 20
3360.684839419607
 30
0.0
 11
4810.197051267465
 21
2848.684839419608
 31
0.0
  0
LINE
  5
1B316
330
1AC64
100
AcDbEntity
  8
TENSEN-1
100
AcDbLine
 10
4810.197051267465
 20
2848.684839419608
 30
0.0
 11
4735.797051267462
 21
2848.684839419608
 31
0.0
  0
LINE
  5
1B317
330
1AC64
100
AcDbEntity
  8
TENSEN-1
100
AcDbLine
 10
4735.797051267462
 20
2848.684839419608
 30
0.0
 11
4735.797051267462
 21
2869.484839419607
 31
0.0
  0
LINE
  5
1B318
330
1AC64
100
AcDbEntity
  8
U3
100
AcDbLine
 10
9130.078259983639
 20
3525.966871722361
 30
0.0
 11
9357.853645156977
 21
3920.485411556196
 31
0.0
1001
ACAD
1000
DSTYLE
1002
{
1070
   147
1040
1.0
1070
    77
1070
     0
1002
}
  0
LINE
  5
1B319
330
1AC64
100
AcDbEntity
  8
0
100
AcDbLine
 10
9118.531254599844
 20
3532.633538389028
 30
0.0
 11
9090.07825998364
 21
3456.684839419605
 31
0.0
  0
LINE
  5
1B31A
330
1AC64
100
AcDbEntity
  8
0
100
AcDbLine
 10
9090.07825998364
 20
3456.684839419605
 30
0.0
 11
9141.625265367435
 21
3519.300205055695
 31
0.0
  0
SOLID
  5
1B31B
330
1AC64
100
AcDbEntity
  8
0
100
AcDbTrace
 10
9118.531254599844
 20
3532.633538389028
 30
0.0
 11
9141.625265367435
 21
3519.300205055695
 31
0.0
 12
9090.07825998364
 22
3456.684839419605
 32
0.0
 13
9090.07825998364
 23
3456.684839419605
 33
0.0
  0
LINE
  5
1B31C
330
1AC64
100
AcDbEntity
  8
0
100
AcDbLine
 10
9141.625265367435
 20
3519.300205055695
 30
0.0
 11
9118.531254599844
 21
3532.633538389028
 31
0.0
  0
ARC
  5
1B31D
330
1AC64
100
AcDbEntity
  8
U1
100
AcDbCircle
 10
9435.417031986061
 20
9321.915360473253
 30
0.0
 40
6.299999999999272
100
AcDbArc
 50
0.0
 51
90.0
  0
LINE
  5
1B31E
330
1AC64
100
AcDbEntity
  8
U1
100
AcDbLine
 10
9435.417031986061
 20
9328.215360473253
 30
0.0
 11
9428.017031986057
 21
9328.215360473253
 31
0.0
  0
ARC
  5
1B31F
330
1AC64
100
AcDbEntity
  8
U1
100
AcDbCircle
 10
9428.017031986057
 20
9321.915360473253
 30
0.0
 40
6.299999999999272
100
AcDbArc
 50
90.0
 51
180.0
  0
ARC
  5
1B320
330
1AC64
100
AcDbEntity
  8
U1
100
AcDbCircle
 10
9415.417031986061
 20
9321.915360473253
 30
0.0
 40
6.299999999999272
100
AcDbArc
 50
0.0
 51
90.0
  0
LINE
  5
1B321
330
1AC64
100
AcDbEntity
  8
U1
100
AcDbLine
 10
9415.417031986061
 20
9328.215360473253
 30
0.0
 11
9383.017031986055
 21
9328.215360473253
 31
0.0
  0
ARC
  5
1B322
330
1AC64
100
AcDbEntity
  8
U1
100
AcDbCircle
 10
9383.017031986055
 20
9321.915360473253
 30
0.0
 40
6.299999999999272
100
AcDbArc
 50
90.0
 51
180.0
  0
LINE
  5
1B323
330
1AC64
100
AcDbEntity
  8
U1
100
AcDbLine
 10
9376.717031986059
 20
9321.915360473253
 30
0.0
 11
9376.717031986059
 21
9269.515360473251
 31
0.0
  0
ARC
  5
1B324
330
1AC64
100
AcDbEntity
  8
U1
100
AcDbCircle
 10
9383.017031986055
 20
9269.515360473251
 30
0.0
 40
6.299999999999272
100
AcDbArc
 50
180.0
 51
270.0
  0
LINE
  5
1B325
330
1AC64
100
AcDbEntity
  8
U1
100
AcDbLine
 10
9383.017031986055
 20
9263.215360473251
 30
0.0
 11
9435.417031986061
 21
9263.215360473251
 31
0.0
  0
ARC
  5
1B326
330
1AC64
100
AcDbEntity
  8
U1
100
AcDbCircle
 10
9435.417031986061
 20
9269.515360473251
 30
0.0
 40
6.299999999999272
100
AcDbArc
 50
270.0
 51
0.0
  0
LINE
  5
1B327
330
1AC64
100
AcDbEntity
  8
U1
100
AcDbLine
 10
9441.71703198606
 20
9269.515360473251
 30
0.0
 11
9441.71703198606
 21
9321.915360473253
 31
0.0
  0
ARC
  5
1B328
330
1AC64
100
AcDbEntity
  8
U1
100
AcDbCircle
 10
9435.417031986061
 20
7521.915360473252
 30
0.0
 40
6.299999999999272
100
AcDbArc
 50
0.0
 51
90.0
  0
LINE
  5
1B329
330
1AC64
100
AcDbEntity
  8
U1
100
AcDbLine
 10
9435.417031986061
 20
7528.215360473253
 30
0.0
 11
9428.017031986057
 21
7528.215360473253
 31
0.0
  0
ARC
  5
1B32A
330
1AC64
100
AcDbEntity
  8
U1
100
AcDbCircle
 10
9428.017031986057
 20
7521.915360473252
 30
0.0
 40
6.300000000000181
100
AcDbArc
 50
90.0
 51
180.0
  0
ARC
  5
1B32B
330
1AC64
100
AcDbEntity
  8
U1
100
AcDbCircle
 10
9415.417031986061
 20
7521.915360473252
 30
0.0
 40
6.299999999999272
100
AcDbArc
 50
0.0
 51
90.0
  0
LINE
  5
1B32C
330
1AC64
100
AcDbEntity
  8
U1
100
AcDbLine
 10
9415.417031986061
 20
7528.215360473253
 30
0.0
 11
9383.017031986055
 21
7528.215360473253
 31
0.0
  0
ARC
  5
1B32D
330
1AC64
100
AcDbEntity
  8
U1
100
AcDbCircle
 10
9383.017031986055
 20
7521.915360473252
 30
0.0
 40
6.300000000000181
100
AcDbArc
 50
90.0
 51
180.0
  0
LINE
  5
1B32E
330
1AC64
100
AcDbEntity
  8
U1
100
AcDbLine
 10
9376.717031986059
 20
7521.915360473252
 30
0.0
 11
9376.717031986059
 21
7469.515360473251
 31
0.0
  0
ARC
  5
1B32F
330
1AC64
100
AcDbEntity
  8
U1
100
AcDbCircle
 10
9383.017031986055
 20
7469.515360473251
 30
0.0
 40
6.299999999999272
100
AcDbArc
 50
180.0
 51
270.0
  0
LINE
  5
1B330
330
1AC64
100
AcDbEntity
  8
U1
100
AcDbLine
 10
9383.017031986055
 20
7463.215360473253
 30
0.0
 11
9435.417031986061
 21
7463.215360473253
 31
0.0
  0
ARC
  5
1B331
330
1AC64
100
AcDbEntity
  8
U1
100
AcDbCircle
 10
9435.417031986061
 20
7469.515360473251
 30
0.0
 40
6.299999999999272
100
AcDbArc
 50
270.0
 51
0.0
  0
LINE
  5
1B332
330
1AC64
100
AcDbEntity
  8
U1
100
AcDbLine
 10
9441.71703198606
 20
7469.515360473251
 30
0.0
 11
9441.71703198606
 21
7521.915360473252
 31
0.0
  0
ARC
  5
1B333
330
1AC64
100
AcDbEntity
  8
U1
100
AcDbCircle
 10
9435.417031986061
 20
5721.915360473253
 30
0.0
 40
6.299999999999272
100
AcDbArc
 50
0.0
 51
90.0
  0
LINE
  5
1B334
330
1AC64
100
AcDbEntity
  8
U1
100
AcDbLine
 10
9435.417031986061
 20
5728.215360473253
 30
0.0
 11
9428.017031986057
 21
5728.215360473253
 31
0.0
  0
ARC
  5
1B335
330
1AC64
100
AcDbEntity
  8
U1
100
AcDbCircle
 10
9428.017031986057
 20
5721.915360473253
 30
0.0
 40
6.300000000000181
100
AcDbArc
 50
90.0
 51
180.0
  0
ARC
  5
1B336
330
1AC64
100
AcDbEntity
  8
U1
100
AcDbCircle
 10
9415.417031986061
 20
5721.915360473253
 30
0.0
 40
6.299999999999272
100
AcDbArc
 50
0.0
 51
90.0
  0
LINE
  5
1B337
330
1AC64
100
AcDbEntity
  8
U1
100
AcDbLine
 10
9415.417031986061
 20
5728.215360473253
 30
0.0
 11
9383.017031986055
 21
5728.215360473253
 31
0.0
  0
ARC
  5
1B338
330
1AC64
100
AcDbEntity
  8
U1
100
AcDbCircle
 10
9383.017031986055
 20
5721.915360473253
 30
0.0
 40
6.300000000000181
100
AcDbArc
 50
90.0
 51
180.0
  0
LINE
  5
1B339
330
1AC64
100
AcDbEntity
  8
U1
100
AcDbLine
 10
9376.717031986059
 20
5721.915360473253
 30
0.0
 11
9376.717031986059
 21
5669.515360473252
 31
0.0
  0
ARC
  5
1B33A
330
1AC64
100
AcDbEntity
  8
U1
100
AcDbCircle
 10
9383.017031986055
 20
5669.515360473252
 30
0.0
 40
6.299999999999272
100
AcDbArc
 50
180.0
 51
270.0
  0
LINE
  5
1B33B
330
1AC64
100
AcDbEntity
  8
U1
100
AcDbLine
 10
9383.017031986055
 20
5663.215360473253
 30
0.0
 11
9435.417031986061
 21
5663.215360473253
 31
0.0
  0
ARC
  5
1B33C
330
1AC64
100
AcDbEntity
  8
U1
100
AcDbCircle
 10
9435.417031986061
 20
5669.515360473252
 30
0.0
 40
6.299999999999272
100
AcDbArc
 50
270.0
 51
0.0
  0
LINE
  5
1B33D
330
1AC64
100
AcDbEntity
  8
U1
100
AcDbLine
 10
9441.71703198606
 20
5669.515360473252
 30
0.0
 11
9441.71703198606
 21
5721.915360473253
 31
0.0
  0
ARC
  5
1B33E
330
1AC64
100
AcDbEntity
  8
U1
100
AcDbCircle
 10
6985.417031986059
 20
9321.915360473253
 30
0.0
 40
6.300000000000181
100
AcDbArc
 50
0.0
 51
90.0
  0
LINE
  5
1B33F
330
1AC64
100
AcDbEntity
  8
U1
100
AcDbLine
 10
6985.417031986059
 20
9328.215360473253
 30
0.0
 11
6978.01703198606
 21
9328.215360473253
 31
0.0
  0
ARC
  5
1B340
330
1AC64
100
AcDbEntity
  8
U1
100
AcDbCircle
 10
6978.01703198606
 20
9321.915360473253
 30
0.0
 40
6.299999999999272
100
AcDbArc
 50
90.0
 51
180.0
  0
ARC
  5
1B341
330
1AC64
100
AcDbEntity
  8
U1
100
AcDbCircle
 10
6965.417031986058
 20
9321.915360473253
 30
0.0
 40
6.300000000000181
100
AcDbArc
 50
0.0
 51
90.0
  0
LINE
  5
1B342
330
1AC64
100
AcDbEntity
  8
U1
100
AcDbLine
 10
6965.417031986058
 20
9328.215360473253
 30
0.0
 11
6933.017031986058
 21
9328.215360473253
 31
0.0
  0
ARC
  5
1B343
330
1AC64
100
AcDbEntity
  8
U1
100
AcDbCircle
 10
6933.017031986058
 20
9321.915360473253
 30
0.0
 40
6.299999999999272
100
AcDbArc
 50
90.0
 51
180.0
  0
LINE
  5
1B344
330
1AC64
100
AcDbEntity
  8
U1
100
AcDbLine
 10
6926.71703198606
 20
9321.915360473253
 30
0.0
 11
6926.71703198606
 21
9269.515360473251
 31
0.0
  0
ARC
  5
1B345
330
1AC64
100
AcDbEntity
  8
U1
100
AcDbCircle
 10
6933.017031986058
 20
9269.515360473251
 30
0.0
 40
6.300000000000181
100
AcDbArc
 50
180.0
 51
270.0
  0
LINE
  5
1B346
330
1AC64
100
AcDbEntity
  8
U1
100
AcDbLine
 10
6933.017031986058
 20
9263.215360473251
 30
0.0
 11
6985.417031986059
 21
9263.215360473251
 31
0.0
  0
ARC
  5
1B347
330
1AC64
100
AcDbEntity
  8
U1
100
AcDbCircle
 10
6985.417031986059
 20
9269.515360473251
 30
0.0
 40
6.299999999999272
100
AcDbArc
 50
270.0
 51
0.0
  0
LINE
  5
1B348
330
1AC64
100
AcDbEntity
  8
U1
100
AcDbLine
 10
6991.717031986057
 20
9269.515360473251
 30
0.0
 11
6991.717031986057
 21
9321.915360473253
 31
0.0
  0
ARC
  5
1B349
330
1AC64
100
AcDbEntity
  8
U1
100
AcDbCircle
 10
6985.417031986059
 20
7521.915360473252
 30
0.0
 40
6.300000000000181
100
AcDbArc
 50
0.0
 51
90.0
  0
LINE
  5
1B34A
330
1AC64
100
AcDbEntity
  8
U1
100
AcDbLine
 10
6985.417031986059
 20
7528.215360473253
 30
0.0
 11
6978.01703198606
 21
7528.215360473253
 31
0.0
  0
ARC
  5
1B34B
330
1AC64
100
AcDbEntity
  8
U1
100
AcDbCircle
 10
6978.01703198606
 20
7521.915360473252
 30
0.0
 40
6.300000000000181
100
AcDbArc
 50
90.0
 51
180.0
  0
ARC
  5
1B34C
330
1AC64
100
AcDbEntity
  8
U1
100
AcDbCircle
 10
6965.417031986058
 20
7521.915360473252
 30
0.0
 40
6.300000000001091
100
AcDbArc
 50
0.0000000000082715
 51
89.99999999999173
  0
LINE
  5
1B34D
330
1AC64
100
AcDbEntity
  8
U1
100
AcDbLine
 10
6965.417031986058
 20
7528.215360473253
 30
0.0
 11
6933.017031986058
 21
7528.215360473253
 31
0.0
  0
ARC
  5
1B34E
330
1AC64
100
AcDbEntity
  8
U1
100
AcDbCircle
 10
6933.017031986058
 20
7521.915360473252
 30
0.0
 40
6.300000000000181
100
AcDbArc
 50
90.0
 51
180.0
  0
LINE
  5
1B34F
330
1AC64
100
AcDbEntity
  8
U1
100
AcDbLine
 10
6926.71703198606
 20
7521.915360473252
 30
0.0
 11
6926.71703198606
 21
7469.515360473251
 31
0.0
  0
ARC
  5
1B350
330
1AC64
100
AcDbEntity
  8
U1
100
AcDbCircle
 10
6933.017031986058
 20
7469.515360473251
 30
0.0
 40
6.300000000000181
100
AcDbArc
 50
180.0
 51
270.0
  0
LINE
  5
1B351
330
1AC64
100
AcDbEntity
  8
U1
100
AcDbLine
 10
6933.017031986058
 20
7463.215360473253
 30
0.0
 11
6985.417031986059
 21
7463.215360473253
 31
0.0
  0
ARC
  5
1B352
330
1AC64
100
AcDbEntity
  8
U1
100
AcDbCircle
 10
6985.417031986059
 20
7469.515360473251
 30
0.0
 40
6.299999999999272
100
AcDbArc
 50
270.0
 51
0.0
  0
LINE
  5
1B353
330
1AC64
100
AcDbEntity
  8
U1
100
AcDbLine
 10
6991.717031986057
 20
7469.515360473251
 30
0.0
 11
6991.717031986057
 21
7521.915360473252
 31
0.0
  0
ARC
  5
1B354
330
1AC64
100
AcDbEntity
  8
U1
100
AcDbCircle
 10
6985.417031986059
 20
5721.915360473253
 30
0.0
 40
6.300000000000181
100
AcDbArc
 50
0.0
 51
90.0
  0
LINE
  5
1B355
330
1AC64
100
AcDbEntity
  8
U1
100
AcDbLine
 10
6985.417031986059
 20
5728.215360473253
 30
0.0
 11
6978.01703198606
 21
5728.215360473253
 31
0.0
  0
ARC
  5
1B356
330
1AC64
100
AcDbEntity
  8
U1
100
AcDbCircle
 10
6978.01703198606
 20
5721.915360473253
 30
0.0
 40
6.300000000000181
100
AcDbArc
 50
90.0
 51
180.0
  0
ARC
  5
1B357
330
1AC64
100
AcDbEntity
  8
U1
100
AcDbCircle
 10
6965.417031986058
 20
5721.915360473252
 30
0.0
 40
6.300000000001091
100
AcDbArc
 50
0.0000000000082715
 51
89.99999999999173
  0
LINE
  5
1B358
330
1AC64
100
AcDbEntity
  8
U1
100
AcDbLine
 10
6965.417031986058
 20
5728.215360473253
 30
0.0
 11
6933.017031986058
 21
5728.215360473253
 31
0.0
  0
ARC
  5
1B359
330
1AC64
100
AcDbEntity
  8
U1
100
AcDbCircle
 10
6933.017031986058
 20
5721.915360473253
 30
0.0
 40
6.300000000000181
100
AcDbArc
 50
90.0
 51
180.0
  0
LINE
  5
1B35A
330
1AC64
100
AcDbEntity
  8
U1
100
AcDbLine
 10
6926.71703198606
 20
5721.915360473253
 30
0.0
 11
6926.71703198606
 21
5669.515360473252
 31
0.0
  0
ARC
  5
1B35B
330
1AC64
100
AcDbEntity
  8
U1
100
AcDbCircle
 10
6933.017031986058
 20
5669.515360473252
 30
0.0
 40
6.300000000000181
100
AcDbArc
 50
180.0
 51
270.0
  0
LINE
  5
1B35C
330
1AC64
100
AcDbEntity
  8
U1
100
AcDbLine
 10
6933.017031986058
 20
5663.215360473253
 30
0.0
 11
6985.417031986059
 21
5663.215360473253
 31
0.0
  0
ARC
  5
1B35D
330
1AC64
100
AcDbEntity
  8
U1
100
AcDbCircle
 10
6985.417031986059
 20
5669.515360473252
 30
0.0
 40
6.299999999999272
100
AcDbArc
 50
270.0
 51
0.0
  0
LINE
  5
1B35E
330
1AC64
100
AcDbEntity
  8
U1
100
AcDbLine
 10
6991.717031986057
 20
5669.515360473252
 30
0.0
 11
6991.717031986057
 21
5721.915360473253
 31
0.0
  0
ENDSEC
  0
SECTION
  2
OBJECTS
  0
DICTIONARY
  5
1AC52
330
0
100
AcDbDictionary
281
     1
  3
ACAD_GROUP
350
1AC53
  3
ACAD_LAYOUT
350
1AC5F
  3
ACAD_MLINESTYLE
350
1AC5C
  3
ACAD_PLOTSETTINGS
350
1AC5E
  3
ACAD_PLOTSTYLENAME
350
1AC54
  3
AcDbVariableDictionary
350
1B35F
  0
DICTIONARY
  5
1AC53
102
{ACAD_REACTORS
330
1AC52
102
}
330
1AC52
100
AcDbDictionary
281
     1
  0
DICTIONARY
  5
1AC5F
102
{ACAD_REACTORS
330
1AC52
102
}
330
1AC52
100
AcDbDictionary
281
     1
  3
Model
350
1AC67
  3
ﾚｲｱｳﾄ1
350
1AC63
  0
DICTIONARY
  5
1AC5C
102
{ACAD_REACTORS
330
1AC52
102
}
330
1AC52
100
AcDbDictionary
281
     1
  3
Standard
350
1AC5D
  0
DICTIONARY
  5
1AC5E
102
{ACAD_REACTORS
330
1AC52
102
}
330
1AC52
100
AcDbDictionary
281
     1
  0
ACDBDICTIONARYWDFLT
  5
1AC54
102
{ACAD_REACTORS
330
1AC52
102
}
330
1AC52
100
AcDbDictionary
281
     1
  3
Normal
350
1AC55
100
AcDbDictionaryWithDefault
340
1AC55
  0
DICTIONARY
  5
1B35F
102
{ACAD_REACTORS
330
1AC52
102
}
330
1AC52
100
AcDbDictionary
281
     1
  3
DIMASSOC
350
1B360
  0
LAYOUT
  5
1AC67
102
{ACAD_REACTORS
330
1AC5F
102
}
330
1AC5F
100
AcDbPlotSettings
  1

  2
Muratec V-1200 Is@Web Printer
  4

  6

 40
0.0
 41
0.0
 42
0.0
 43
0.0
 44
0.0
 45
0.0
 46
0.0
 47
0.0
 48
0.0
 49
0.0
140
0.0
141
0.0
142
1.0
143
1.0
 70
  1712
 72
     0
 73
     0
 74
     0
  7

 75
     0
147
1.0
148
0.0
149
0.0
100
AcDbLayout
  1
Model
 70
     1
 71
     0
 10
0.0
 20
0.0
 11
12.0
 21
9.0
 12
0.0
 22
0.0
 32
0.0
 14
0.0
 24
0.0
 34
0.0
 15
0.0
 25
0.0
 35
0.0
146
0.0
 13
0.0
 23
0.0
 33
0.0
 16
1.0
 26
0.0
 36
0.0
 17
0.0
 27
1.0
 37
0.0
 76
     0
330
1AC64
  0
LAYOUT
  5
1AC63
102
{ACAD_REACTORS
330
1AC5F
102
}
330
1AC5F
100
AcDbPlotSettings
  1

  2
Muratec V-1200 Is@Web Printer
  4

  6

 40
0.0
 41
0.0
 42
0.0
 43
0.0
 44
0.0
 45
0.0
 46
0.0
 47
0.0
 48
0.0
 49
0.0
140
0.0
141
0.0
142
1.0
143
1.0
 70
   688
 72
     0
 73
     0
 74
     5
  7

 75
    16
147
1.0
148
0.0
149
0.0
100
AcDbLayout
  1
ﾚｲｱｳﾄ1
 70
     0
 71
     1
 10
0.0
 20
0.0
 11
12.0
 21
9.0
 12
0.0
 22
0.0
 32
0.0
 14
1.000000000000000E+20
 24
1.000000000000000E+20
 34
1.000000000000000E+20
 15
-1.000000000000000E+20
 25
-1.000000000000000E+20
 35
-1.000000000000000E+20
146
0.0
 13
0.0
 23
0.0
 33
0.0
 16
1.0
 26
0.0
 36
0.0
 17
0.0
 27
1.0
 37
0.0
 76
     0
330
1AC60
  0
MLINESTYLE
  5
1AC5D
102
{ACAD_REACTORS
330
1AC5C
102
}
330
1AC5C
100
AcDbMlineStyle
  2
STANDARD
 70
     0
  3

 62
   256
 51
90.0
 52
90.0
 71
     2
 49
0.5
 62
   256
  6
BYLAYER
 49
-0.5
 62
   256
  6
BYLAYER
  0
ACDBPLACEHOLDER
  5
1AC55
102
{ACAD_REACTORS
330
1AC54
102
}
330
1AC54
  0
DICTIONARYVAR
  5
1B360
102
{ACAD_REACTORS
330
1B35F
102
}
330
1B35F
100
DictionaryVariables
280
     0
  1
1
  0
ENDSEC
  0
EOF
