  0
SECTION
  2
HEADER
  9
$ACADVER
  1
AC1015
  9
$ACADMAINTVER
 70
    13
  9
$DWGCODEPAGE
  3
ANSI_932
  9
$INSBASE
 10
267.0
 20
194.8999999999998
 30
0.0
  9
$EXTMIN
 10
433.9966216520333
 20
163.6908237492789
 30
-0.0000000000000053
  9
$EXTMAX
 10
16382.6660542547
 20
11242.27663824599
 30
0.00000000000001
  9
$LIMMIN
 10
0.0
 20
0.0
  9
$LIMMAX
 10
16800.0
 20
11880.0
  9
$ORTHOMODE
 70
     1
  9
$REGENMODE
 70
     1
  9
$FILLMODE
 70
     1
  9
$QTEXTMODE
 70
     0
  9
$MIRRTEXT
 70
     0
  9
$LTSCALE
 40
40.0
  9
$ATTMODE
 70
     1
  9
$TEXTSIZE
 40
120.0
  9
$TRACEWID
 40
0.05
  9
$TEXTSTYLE
  7
00
  9
$CLAYER
  8
SUNPOU
  9
$CELTYPE
  6
ByLayer
  9
$CECOLOR
 62
   256
  9
$CELTSCALE
 40
1.0
  9
$DISPSILH
 70
     0
  9
$DIMSCALE
 40
40.0
  9
$DIMASZ
 40
0.5
  9
$DIMEXO
 40
1.0
  9
$DIMDLI
 40
7.0
  9
$DIMRND
 40
0.0
  9
$DIMDLE
 40
3.0
  9
$DIMEXE
 40
1.5
  9
$DIMTP
 40
0.0
  9
$DIMTM
 40
0.0
  9
$DIMTXT
 40
3.0
  9
$DIMCEN
 40
0.0
  9
$DIMTSZ
 40
0.0
  9
$DIMTOL
 70
     0
  9
$DIMLIM
 70
     0
  9
$DIMTIH
 70
     0
  9
$DIMTOH
 70
     0
  9
$DIMSE1
 70
     0
  9
$DIMSE2
 70
     0
  9
$DIMTAD
 70
     1
  9
$DIMZIN
 70
     8
  9
$DIMBLK
  1
DOT
  9
$DIMASO
 70
     1
  9
$DIMSHO
 70
     0
  9
$DIMPOST
  1

  9
$DIMAPOST
  1

  9
$DIMALT
 70
     0
  9
$DIMALTD
 70
     2
  9
$DIMALTF
 40
25.4
  9
$DIMLFAC
 40
1.0
  9
$DIMTOFL
 70
     1
  9
$DIMTVP
 40
0.0
  9
$DIMTIX
 70
     0
  9
$DIMSOXD
 70
     0
  9
$DIMSAH
 70
     1
  9
$DIMBLK1
  1
DOT
  9
$DIMBLK2
  1
DOT
  9
$DIMSTYLE
  2
SUNPOU_図面名
  9
$DIMCLRD
 70
   256
  9
$DIMCLRE
 70
   256
  9
$DIMCLRT
 70
   256
  9
$DIMTFAC
 40
1.0
  9
$DIMGAP
 40
1.5
  9
$DIMJUST
 70
     0
  9
$DIMSD1
 70
     0
  9
$DIMSD2
 70
     0
  9
$DIMTOLJ
 70
     1
  9
$DIMTZIN
 70
     0
  9
$DIMALTZ
 70
     0
  9
$DIMALTTZ
 70
     0
  9
$DIMUPT
 70
     0
  9
$DIMDEC
 70
     4
  9
$DIMTDEC
 70
     4
  9
$DIMALTU
 70
     2
  9
$DIMALTTD
 70
     2
  9
$DIMTXSTY
  7
STANDARD
  9
$DIMAUNIT
 70
     0
  9
$DIMADEC
 70
     0
  9
$DIMALTRND
 40
0.0
  9
$DIMAZIN
 70
     0
  9
$DIMDSEP
 70
    46
  9
$DIMATFIT
 70
     3
  9
$DIMFRAC
 70
     0
  9
$DIMLDRBLK
  1
DOT
  9
$DIMLUNIT
 70
     2
  9
$DIMLWD
 70
    -2
  9
$DIMLWE
 70
    -2
  9
$DIMTMOVE
 70
     0
  9
$LUNITS
 70
     2
  9
$LUPREC
 70
     2
  9
$SKETCHINC
 40
0.1
  9
$FILLETRAD
 40
0.0
  9
$AUNITS
 70
     0
  9
$AUPREC
 70
     0
  9
$MENU
  1
A:\TIGER\MENU\TIGER
  9
$ELEVATION
 40
0.0
  9
$PELEVATION
 40
0.0
  9
$THICKNESS
 40
0.0
  9
$LIMCHECK
 70
     0
  9
$CHAMFERA
 40
0.0
  9
$CHAMFERB
 40
0.0
  9
$CHAMFERC
 40
0.0
  9
$CHAMFERD
 40
0.0
  9
$SKPOLY
 70
     0
  9
$TDCREATE
 40
2450266.571064815
  9
$TDUCREATE
 40
2450266.196064815
  9
$TDUPDATE
 40
2456332.359305370
  9
$TDUUPDATE
 40
2456331.984305371
  9
$TDINDWG
 40
0.2357819560
  9
$TDUSRTIMER
 40
0.2357817824
  9
$USRTIMER
 70
     1
  9
$ANGBASE
 50
0.0
  9
$ANGDIR
 70
     0
  9
$PDMODE
 70
     0
  9
$PDSIZE
 40
0.0
  9
$PLINEWID
 40
0.0
  9
$SPLFRAME
 70
     0
  9
$SPLINETYPE
 70
     6
  9
$SPLINESEGS
 70
     8
  9
$HANDSEED
  5
1DD3F
  9
$SURFTAB1
 70
     6
  9
$SURFTAB2
 70
     6
  9
$SURFTYPE
 70
     6
  9
$SURFU
 70
     6
  9
$SURFV
 70
     6
  9
$UCSBASE
  2

  9
$UCSNAME
  2

  9
$UCSORG
 10
0.0
 20
0.0
 30
0.0
  9
$UCSXDIR
 10
1.0
 20
0.0
 30
0.0
  9
$UCSYDIR
 10
0.0
 20
1.0
 30
0.0
  9
$UCSORTHOREF
  2

  9
$UCSORTHOVIEW
 70
     0
  9
$UCSORGTOP
 10
0.0
 20
0.0
 30
0.0
  9
$UCSORGBOTTOM
 10
0.0
 20
0.0
 30
0.0
  9
$UCSORGLEFT
 10
0.0
 20
0.0
 30
0.0
  9
$UCSORGRIGHT
 10
0.0
 20
0.0
 30
0.0
  9
$UCSORGFRONT
 10
0.0
 20
0.0
 30
0.0
  9
$UCSORGBACK
 10
0.0
 20
0.0
 30
0.0
  9
$PUCSBASE
  2

  9
$PUCSNAME
  2

  9
$PUCSORG
 10
0.0
 20
0.0
 30
0.0
  9
$PUCSXDIR
 10
1.0
 20
0.0
 30
0.0
  9
$PUCSYDIR
 10
0.0
 20
1.0
 30
0.0
  9
$PUCSORTHOREF
  2

  9
$PUCSORTHOVIEW
 70
     0
  9
$PUCSORGTOP
 10
0.0
 20
0.0
 30
0.0
  9
$PUCSORGBOTTOM
 10
0.0
 20
0.0
 30
0.0
  9
$PUCSORGLEFT
 10
0.0
 20
0.0
 30
0.0
  9
$PUCSORGRIGHT
 10
0.0
 20
0.0
 30
0.0
  9
$PUCSORGFRONT
 10
0.0
 20
0.0
 30
0.0
  9
$PUCSORGBACK
 10
0.0
 20
0.0
 30
0.0
  9
$USERI1
 70
     3
  9
$USERI2
 70
     0
  9
$USERI3
 70
     0
  9
$USERI4
 70
     0
  9
$USERI5
 70
  1103
  9
$USERR1
 40
0.0
  9
$USERR2
 40
1.0
  9
$USERR3
 40
0.0
  9
$USERR4
 40
0.0
  9
$USERR5
 40
0.0
  9
$WORLDVIEW
 70
     1
  9
$SHADEDGE
 70
     3
  9
$SHADEDIF
 70
    70
  9
$TILEMODE
 70
     1
  9
$MAXACTVP
 70
    16
  9
$PINSBASE
 10
0.0
 20
0.0
 30
0.0
  9
$PLIMCHECK
 70
     0
  9
$PEXTMIN
 10
1.000000000000000E+20
 20
1.000000000000000E+20
 30
1.000000000000000E+20
  9
$PEXTMAX
 10
-1.000000000000000E+20
 20
-1.000000000000000E+20
 30
-1.000000000000000E+20
  9
$PLIMMIN
 10
0.0
 20
0.0
  9
$PLIMMAX
 10
12.0
 20
9.0
  9
$UNITMODE
 70
     0
  9
$VISRETAIN
 70
     0
  9
$PLINEGEN
 70
     1
  9
$PSLTSCALE
 70
     0
  9
$TREEDEPTH
 70
  3020
  9
$CMLSTYLE
  2
Standard
  9
$CMLJUST
 70
     0
  9
$CMLSCALE
 40
1.0
  9
$PROXYGRAPHICS
 70
     1
  9
$MEASUREMENT
 70
     0
  9
$CELWEIGHT
370
    -1
  9
$ENDCAPS
280
     0
  9
$JOINSTYLE
280
     0
  9
$LWDISPLAY
290
     0
  9
$INSUNITS
 70
     0
  9
$HYPERLINKBASE
  1

  9
$STYLESHEET
  1

  9
$XEDIT
290
     1
  9
$CEPSNTYPE
380
     0
  9
$PSTYLEMODE
290
     1
  9
$FINGERPRINTGUID
  2
{7E23261C-EFD7-48A3-AC9A-F60F9CC865D0}
  9
$VERSIONGUID
  2
{F8AEFDDE-403E-4E2A-A071-4F8CBE911E1C}
  9
$EXTNAMES
290
     1
  9
$PSVPSCALE
 40
0.0
  9
$OLESTARTUP
290
     0
  0
ENDSEC
  0
SECTION
  2
CLASSES
  0
CLASS
  1
ACDBDICTIONARYWDFLT
  2
AcDbDictionaryWithDefault
  3
AutoCAD 2000
 90
        0
280
     0
281
     0
  0
CLASS
  1
ACDBPLACEHOLDER
  2
AcDbPlaceHolder
  3
AutoCAD 2000
 90
        0
280
     0
281
     0
  0
CLASS
  1
LAYOUT
  2
AcDbLayout
  3
AutoCAD 2000
 90
        0
280
     0
281
     0
  0
CLASS
  1
DICTIONARYVAR
  2
AcDbDictionaryVar
  3
AutoCAD 2000
 90
        0
280
     0
281
     0
  0
ENDSEC
  0
SECTION
  2
TABLES
  0
TABLE
  2
VPORT
  5
1D614
330
0
100
AcDbSymbolTable
 70
     2
  0
VPORT
  5
1DD3E
330
1D614
100
AcDbSymbolTableRecord
100
AcDbViewportTableRecord
  2
*Active
 70
     0
 10
0.0
 20
0.0
 11
1.0
 21
1.0
 12
8408.331337953367
 22
5702.983730997637
 13
0.0
 23
0.0
 14
1.0
 24
1.0
 15
0.0
 25
0.0
 16
0.0
 26
0.0
 36
1.0
 17
0.0
 27
0.0
 37
0.0
 40
11162.83361536741
 41
1.527918781725888
 42
50.0
 43
0.0
 44
0.0
 50
0.0
 51
0.0
 71
     0
 72
 10000
 73
     1
 74
     0
 75
     0
 76
     0
 77
     0
 78
     0
281
     0
 65
     1
110
0.0
120
0.0
130
0.0
111
1.0
121
0.0
131
0.0
112
0.0
122
1.0
132
0.0
 79
     0
146
0.0
  0
ENDTAB
  0
TABLE
  2
LTYPE
  5
1D611
330
0
100
AcDbSymbolTable
 70
     7
  0
LTYPE
  5
1D61F
330
1D611
100
AcDbSymbolTableRecord
100
AcDbLinetypeTableRecord
  2
ByBlock
 70
     0
  3

 72
    65
 73
     0
 40
0.0
  0
LTYPE
  5
1D620
330
1D611
100
AcDbSymbolTableRecord
100
AcDbLinetypeTableRecord
  2
ByLayer
 70
     0
  3

 72
    65
 73
     0
 40
0.0
  0
LTYPE
  5
1D621
330
1D611
100
AcDbSymbolTableRecord
100
AcDbLinetypeTableRecord
  2
CONTINUOUS
 70
     0
  3
実線
 72
    65
 73
     0
 40
0.0
  0
LTYPE
  5
1D631
330
1D611
100
AcDbSymbolTableRecord
100
AcDbLinetypeTableRecord
  2
TENSEN-
 70
     0
  3

 72
    65
 73
     2
 40
0.6000000000000001
 49
0.2
 74
     0
 49
-0.4
 74
     0
  0
LTYPE
  5
1D632
330
1D611
100
AcDbSymbolTableRecord
100
AcDbLinetypeTableRecord
  2
1PL-LL
 70
     0
  3

 72
    65
 73
     4
 40
106.0
 49
100.0
 74
     0
 49
-2.0
 74
     0
 49
2.0
 74
     0
 49
-2.0
 74
     0
  0
LTYPE
  5
1D633
330
1D611
100
AcDbSymbolTableRecord
100
AcDbLinetypeTableRecord
  2
1PL-M
 70
     0
  3

 72
    65
 73
     4
 40
15.0
 49
12.0
 74
     0
 49
-1.0
 74
     0
 49
1.0
 74
     0
 49
-1.0
 74
     0
  0
LTYPE
  5
1D634
330
1D611
100
AcDbSymbolTableRecord
100
AcDbLinetypeTableRecord
  2
1PL-S
 70
     0
  3

 72
    65
 73
     4
 40
4.0
 49
2.5
 74
     0
 49
-0.5
 74
     0
 49
0.5
 74
     0
 49
-0.5
 74
     0
  0
LTYPE
  5
1D635
330
1D611
100
AcDbSymbolTableRecord
100
AcDbLinetypeTableRecord
  2
2PL-L
 70
     0
  3

 72
    65
 73
     6
 40
60.0
 49
50.0
 74
     0
 49
-2.0
 74
     0
 49
2.0
 74
     0
 49
-2.0
 74
     0
 49
2.0
 74
     0
 49
-2.0
 74
     0
  0
LTYPE
  5
1D636
330
1D611
100
AcDbSymbolTableRecord
100
AcDbLinetypeTableRecord
  2
1PL-12
 70
     0
  3

 72
    65
 73
     4
 40
15.0
 49
12.0
 74
     0
 49
-1.0
 74
     0
 49
1.0
 74
     0
 49
-1.0
 74
     0
  0
ENDTAB
  0
TABLE
  2
LAYER
  5
1D60E
330
0
100
AcDbSymbolTable
 70
    21
  0
LAYER
  5
1D61C
330
1D60E
100
AcDbSymbolTableRecord
100
AcDbLayerTableRecord
  2
0
 70
     0
 62
     7
  6
CONTINUOUS
370
    -3
390
1D61B
  0
LAYER
  5
1D62E
330
1D60E
100
AcDbSymbolTableRecord
100
AcDbLayerTableRecord
  2
SUNPOU
 70
     0
 62
     4
  6
CONTINUOUS
370
    -3
390
1D61B
  0
LAYER
  5
1D637
330
1D60E
100
AcDbSymbolTableRecord
100
AcDbLayerTableRecord
  2
U1
 70
     0
 62
     3
  6
CONTINUOUS
370
    -3
390
1D61B
  0
LAYER
  5
1D638
330
1D60E
100
AcDbSymbolTableRecord
100
AcDbLayerTableRecord
  2
U3
 70
     0
 62
     6
  6
CONTINUOUS
370
    -3
390
1D61B
  0
LAYER
  5
1D639
330
1D60E
100
AcDbSymbolTableRecord
100
AcDbLayerTableRecord
  2
HIKIDASHI
 70
     0
 62
     6
  6
CONTINUOUS
370
    -3
390
1D61B
  0
LAYER
  5
1D63A
330
1D60E
100
AcDbSymbolTableRecord
100
AcDbLayerTableRecord
  2
TENSEN-1
 70
     0
 62
     6
  6
TENSEN-
370
    -3
390
1D61B
  0
LAYER
  5
1D63B
330
1D60E
100
AcDbSymbolTableRecord
100
AcDbLayerTableRecord
  2
1PL-S1
 70
     0
 62
     6
  6
1PL-S
370
    -3
390
1D61B
  0
LAYER
  5
1D63C
330
1D60E
100
AcDbSymbolTableRecord
100
AcDbLayerTableRecord
  2
1PL-M1
 70
     0
 62
     6
  6
1PL-M
370
    -3
390
1D61B
  0
LAYER
  5
1D63D
330
1D60E
100
AcDbSymbolTableRecord
100
AcDbLayerTableRecord
  2
NAME
 70
     0
 62
    20
  6
CONTINUOUS
370
    -3
390
1D61B
  0
LAYER
  5
1D63E
330
1D60E
100
AcDbSymbolTableRecord
100
AcDbLayerTableRecord
  2
FILENAME
 70
     0
 62
     7
  6
CONTINUOUS
370
    -3
390
1D61B
  0
LAYER
  5
1D63F
330
1D60E
100
AcDbSymbolTableRecord
100
AcDbLayerTableRecord
  2
CENTER
 70
     0
 62
     6
  6
1PL-LL
370
    -3
390
1D61B
  0
LAYER
  5
1D640
330
1D60E
100
AcDbSymbolTableRecord
100
AcDbLayerTableRecord
  2
KISO
 70
     0
 62
     2
  6
CONTINUOUS
370
    -3
390
1D61B
  0
LAYER
  5
1D641
330
1D60E
100
AcDbSymbolTableRecord
100
AcDbLayerTableRecord
  2
BOLT
 70
     0
 62
     4
  6
CONTINUOUS
370
    -3
390
1D61B
  0
LAYER
  5
1D642
330
1D60E
100
AcDbSymbolTableRecord
100
AcDbLayerTableRecord
  2
YANE
 70
     0
 62
     1
  6
1PL-12
370
    -3
390
1D61B
  0
LAYER
  5
1D643
330
1D60E
100
AcDbSymbolTableRecord
100
AcDbLayerTableRecord
  2
HATCH
 70
     0
 62
     1
  6
CONTINUOUS
370
    -3
390
1D61B
  0
LAYER
  5
1D644
330
1D60E
100
AcDbSymbolTableRecord
100
AcDbLayerTableRecord
  2
HASHIRA
 70
     0
 62
     3
  6
CONTINUOUS
370
    -3
390
1D61B
  0
LAYER
  5
1D645
330
1D60E
100
AcDbSymbolTableRecord
100
AcDbLayerTableRecord
  2
DOMAKON
 70
     0
 62
     2
  6
CONTINUOUS
370
    -3
390
1D61B
  0
LAYER
  5
1D646
330
1D60E
100
AcDbSymbolTableRecord
100
AcDbLayerTableRecord
  2
YODOROGO
 70
     0
 62
   130
  6
CONTINUOUS
370
    -3
390
1D61B
  0
LAYER
  5
1D647
330
1D60E
100
AcDbSymbolTableRecord
100
AcDbLayerTableRecord
  2
WAKUSEN-01
 70
     0
 62
    50
  6
CONTINUOUS
370
    -3
390
1D61B
  0
LAYER
  5
1D648
330
1D60E
100
AcDbSymbolTableRecord
100
AcDbLayerTableRecord
  2
WAKUSEN-02
 70
     0
 62
   130
  6
CONTINUOUS
370
    -3
390
1D61B
  0
LAYER
  5
1D649
330
1D60E
100
AcDbSymbolTableRecord
100
AcDbLayerTableRecord
  2
WAKUMOJI-01
 70
     0
 62
   130
  6
CONTINUOUS
370
    -3
390
1D61B
  0
ENDTAB
  0
TABLE
  2
STYLE
  5
1D60F
330
0
100
AcDbSymbolTable
 70
     5
  0
STYLE
  5
1D61D
330
1D60F
100
AcDbSymbolTableRecord
100
AcDbTextStyleTableRecord
  2
STANDARD
 70
     0
 40
3.0
 41
1.0
 50
0.0
 71
     0
 42
0.2
  3
ROMANS
  4
EXTFONT
  0
STYLE
  5
1D62F
330
1D60F
100
AcDbSymbolTableRecord
100
AcDbTextStyleTableRecord
  2
00
 70
     0
 40
0.0
 41
0.6666666666666666
 50
0.0
 71
     0
 42
120.0
  3
ROMANS
  4
BIGFONT
  0
STYLE
  5
1D64A
330
1D60F
100
AcDbSymbolTableRecord
100
AcDbTextStyleTableRecord
  2
01
 70
     0
 40
3.0
 41
1.0
 50
0.0
 71
     0
 42
120.0
  3
ROMANS
  4
BIGFONT
  0
STYLE
  5
1D64B
330
1D60F
100
AcDbSymbolTableRecord
100
AcDbTextStyleTableRecord
  2
WAKUMOJI
 70
     0
 40
3.0
 41
1.0
 50
0.0
 71
     0
 42
3.0
  3
SIMPLEX
  4
BIGFONT
  0
STYLE
  5
1D64C
330
1D60F
100
AcDbSymbolTableRecord
100
AcDbTextStyleTableRecord
  2
FILENAME
 70
     0
 40
100.0
 41
1.0
 50
0.0
 71
     0
 42
100.0
  3
romans
  4
bigfont
  0
ENDTAB
  0
TABLE
  2
VIEW
  5
1D612
330
0
100
AcDbSymbolTable
 70
     0
  0
ENDTAB
  0
TABLE
  2
UCS
  5
1D613
330
0
100
AcDbSymbolTable
 70
     0
  0
ENDTAB
  0
TABLE
  2
APPID
  5
1D615
330
0
100
AcDbSymbolTable
 70
     5
  0
APPID
  5
1D61E
330
1D615
100
AcDbSymbolTableRecord
100
AcDbRegAppTableRecord
  2
ACAD
 70
     0
  0
APPID
  5
1D64D
330
1D615
100
AcDbSymbolTableRecord
100
AcDbRegAppTableRecord
  2
AUTOCAD_POSTSCRIPT_FIGURE
 70
     0
  0
APPID
  5
1D64E
330
1D615
100
AcDbSymbolTableRecord
100
AcDbRegAppTableRecord
  2
ACAD_EXEMPT_FROM_CAD_STANDARDS
 70
     0
  0
APPID
  5
1D64F
330
1D615
100
AcDbSymbolTableRecord
100
AcDbRegAppTableRecord
  2
ACAD_PSEXT
 70
     0
  0
APPID
  5
1D650
330
1D615
100
AcDbSymbolTableRecord
100
AcDbRegAppTableRecord
  2
ACLAYERTOOLS
 70
     0
  0
ENDTAB
  0
TABLE
  2
DIMSTYLE
  5
1D616
330
0
100
AcDbSymbolTable
 70
     1
100
AcDbDimStyleTable
 71
     0
  0
DIMSTYLE
105
1D651
330
1D616
100
AcDbSymbolTableRecord
100
AcDbDimStyleTableRecord
  2
SUNPOU_図面名
 70
     0
 40
30.0
 41
0.5
 42
1.0
 43
7.0
 44
1.5
 46
3.0
 73
     0
 74
     0
 77
     1
 78
     8
140
3.0
141
0.0
147
1.5
172
     1
173
     1
176
   256
177
   256
178
   256
271
     2
272
     2
279
     2
284
     8
285
     8
286
     8
340
1D62F
  0
ENDTAB
  0
TABLE
  2
BLOCK_RECORD
  5
1D60D
330
0
100
AcDbSymbolTable
 70
    45
  0
BLOCK_RECORD
  5
1D62A
330
1D60D
100
AcDbSymbolTableRecord
100
AcDbBlockTableRecord
  2
*Model_Space
340
1D62D
  0
BLOCK_RECORD
  5
1D626
330
1D60D
100
AcDbSymbolTableRecord
100
AcDbBlockTableRecord
  2
*Paper_Space
340
1D629
  0
BLOCK_RECORD
  5
1D656
330
1D60D
100
AcDbSymbolTableRecord
100
AcDbBlockTableRecord
  2
$MODEL_SPACE
340
0
  0
BLOCK_RECORD
  5
1D659
330
1D60D
100
AcDbSymbolTableRecord
100
AcDbBlockTableRecord
  2
$PAPER_SPACE
340
0
  0
BLOCK_RECORD
  5
1D65C
330
1D60D
100
AcDbSymbolTableRecord
100
AcDbBlockTableRecord
  2
DOT
340
0
  0
BLOCK_RECORD
  5
1D664
330
1D60D
100
AcDbSymbolTableRecord
100
AcDbBlockTableRecord
  2
*U3
340
0
  0
BLOCK_RECORD
  5
1D668
330
1D60D
100
AcDbSymbolTableRecord
100
AcDbBlockTableRecord
  2
*U4
340
0
  0
BLOCK_RECORD
  5
1D66C
330
1D60D
100
AcDbSymbolTableRecord
100
AcDbBlockTableRecord
  2
*U5
340
0
  0
BLOCK_RECORD
  5
1D670
330
1D60D
100
AcDbSymbolTableRecord
100
AcDbBlockTableRecord
  2
*U6
340
0
  0
BLOCK_RECORD
  5
1D674
330
1D60D
100
AcDbSymbolTableRecord
100
AcDbBlockTableRecord
  2
*U7
340
0
  0
BLOCK_RECORD
  5
1D678
330
1D60D
100
AcDbSymbolTableRecord
100
AcDbBlockTableRecord
  2
*U8
340
0
  0
BLOCK_RECORD
  5
1D67C
330
1D60D
100
AcDbSymbolTableRecord
100
AcDbBlockTableRecord
  2
*U9
340
0
  0
BLOCK_RECORD
  5
1D680
330
1D60D
100
AcDbSymbolTableRecord
100
AcDbBlockTableRecord
  2
*U10
340
0
  0
BLOCK_RECORD
  5
1D684
330
1D60D
100
AcDbSymbolTableRecord
100
AcDbBlockTableRecord
  2
*U11
340
0
  0
BLOCK_RECORD
  5
1D688
330
1D60D
100
AcDbSymbolTableRecord
100
AcDbBlockTableRecord
  2
*U12
340
0
  0
BLOCK_RECORD
  5
1D68C
330
1D60D
100
AcDbSymbolTableRecord
100
AcDbBlockTableRecord
  2
*U13
340
0
  0
BLOCK_RECORD
  5
1D690
330
1D60D
100
AcDbSymbolTableRecord
100
AcDbBlockTableRecord
  2
*U14
340
0
  0
BLOCK_RECORD
  5
1D694
330
1D60D
100
AcDbSymbolTableRecord
100
AcDbBlockTableRecord
  2
*U15
340
0
  0
BLOCK_RECORD
  5
1D698
330
1D60D
100
AcDbSymbolTableRecord
100
AcDbBlockTableRecord
  2
*U16
340
0
  0
BLOCK_RECORD
  5
1D69C
330
1D60D
100
AcDbSymbolTableRecord
100
AcDbBlockTableRecord
  2
*U17
340
0
  0
BLOCK_RECORD
  5
1D6A0
330
1D60D
100
AcDbSymbolTableRecord
100
AcDbBlockTableRecord
  2
*U18
340
0
  0
BLOCK_RECORD
  5
1D6A4
330
1D60D
100
AcDbSymbolTableRecord
100
AcDbBlockTableRecord
  2
*U19
340
0
  0
BLOCK_RECORD
  5
1D6A8
330
1D60D
100
AcDbSymbolTableRecord
100
AcDbBlockTableRecord
  2
*U20
340
0
  0
BLOCK_RECORD
  5
1D6AC
330
1D60D
100
AcDbSymbolTableRecord
100
AcDbBlockTableRecord
  2
*U21
340
0
  0
BLOCK_RECORD
  5
1D6B0
330
1D60D
100
AcDbSymbolTableRecord
100
AcDbBlockTableRecord
  2
*U22
340
0
  0
BLOCK_RECORD
  5
1D6B4
330
1D60D
100
AcDbSymbolTableRecord
100
AcDbBlockTableRecord
  2
*U23
340
0
  0
BLOCK_RECORD
  5
1D6B8
330
1D60D
100
AcDbSymbolTableRecord
100
AcDbBlockTableRecord
  2
*U24
340
0
  0
BLOCK_RECORD
  5
1D6BC
330
1D60D
100
AcDbSymbolTableRecord
100
AcDbBlockTableRecord
  2
*U25
340
0
  0
BLOCK_RECORD
  5
1D6C0
330
1D60D
100
AcDbSymbolTableRecord
100
AcDbBlockTableRecord
  2
*U26
340
0
  0
BLOCK_RECORD
  5
1D6C4
330
1D60D
100
AcDbSymbolTableRecord
100
AcDbBlockTableRecord
  2
*U27
340
0
  0
BLOCK_RECORD
  5
1D6C8
330
1D60D
100
AcDbSymbolTableRecord
100
AcDbBlockTableRecord
  2
*U28
340
0
  0
BLOCK_RECORD
  5
1D6CC
330
1D60D
100
AcDbSymbolTableRecord
100
AcDbBlockTableRecord
  2
*U29
340
0
  0
BLOCK_RECORD
  5
1D6D0
330
1D60D
100
AcDbSymbolTableRecord
100
AcDbBlockTableRecord
  2
*U30
340
0
  0
BLOCK_RECORD
  5
1D6D4
330
1D60D
100
AcDbSymbolTableRecord
100
AcDbBlockTableRecord
  2
*U31
340
0
  0
BLOCK_RECORD
  5
1D6D8
330
1D60D
100
AcDbSymbolTableRecord
100
AcDbBlockTableRecord
  2
*U32
340
0
  0
BLOCK_RECORD
  5
1D6DC
330
1D60D
100
AcDbSymbolTableRecord
100
AcDbBlockTableRecord
  2
*U33
340
0
  0
BLOCK_RECORD
  5
1D6E0
330
1D60D
100
AcDbSymbolTableRecord
100
AcDbBlockTableRecord
  2
*U34
340
0
  0
BLOCK_RECORD
  5
1D6E4
330
1D60D
100
AcDbSymbolTableRecord
100
AcDbBlockTableRecord
  2
*U35
340
0
  0
BLOCK_RECORD
  5
1D6E8
330
1D60D
100
AcDbSymbolTableRecord
100
AcDbBlockTableRecord
  2
*U36
340
0
  0
BLOCK_RECORD
  5
1D6EC
330
1D60D
100
AcDbSymbolTableRecord
100
AcDbBlockTableRecord
  2
*U37
340
0
  0
BLOCK_RECORD
  5
1D6F0
330
1D60D
100
AcDbSymbolTableRecord
100
AcDbBlockTableRecord
  2
*U38
340
0
  0
BLOCK_RECORD
  5
1D6F4
330
1D60D
100
AcDbSymbolTableRecord
100
AcDbBlockTableRecord
  2
*U39
340
0
  0
BLOCK_RECORD
  5
1D6F8
330
1D60D
100
AcDbSymbolTableRecord
100
AcDbBlockTableRecord
  2
*U40
340
0
  0
BLOCK_RECORD
  5
1D6FC
330
1D60D
100
AcDbSymbolTableRecord
100
AcDbBlockTableRecord
  2
*U41
340
0
  0
BLOCK_RECORD
  5
1D700
330
1D60D
100
AcDbSymbolTableRecord
100
AcDbBlockTableRecord
  2
*U42
340
0
  0
BLOCK_RECORD
  5
1D704
330
1D60D
100
AcDbSymbolTableRecord
100
AcDbBlockTableRecord
  2
*U43
340
0
  0
BLOCK_RECORD
  5
1D708
330
1D60D
100
AcDbSymbolTableRecord
100
AcDbBlockTableRecord
  2
*U44
340
0
  0
ENDTAB
  0
ENDSEC
  0
SECTION
  2
BLOCKS
  0
BLOCK
  5
1D62B
330
1D62A
100
AcDbEntity
  8
0
100
AcDbBlockBegin
  2
*Model_Space
 70
     0
 10
0.0
 20
0.0
 30
0.0
  3
*Model_Space
  1

  0
ENDBLK
  5
1D62C
330
1D62A
100
AcDbEntity
  8
0
100
AcDbBlockEnd
  0
BLOCK
  5
1D627
330
1D626
100
AcDbEntity
 67
     1
  8
0
100
AcDbBlockBegin
  2
*Paper_Space
 70
     0
 10
0.0
 20
0.0
 30
0.0
  3
*Paper_Space
  1

  0
ENDBLK
  5
1D628
330
1D626
100
AcDbEntity
 67
     1
  8
0
100
AcDbBlockEnd
  0
BLOCK
  5
1D657
330
1D656
100
AcDbEntity
  8
0
100
AcDbBlockBegin
  2
$MODEL_SPACE
 70
     0
 10
0.0
 20
0.0
 30
0.0
  3
$MODEL_SPACE
  1

  0
ENDBLK
  5
1D658
330
1D656
100
AcDbEntity
  8
0
100
AcDbBlockEnd
  0
BLOCK
  5
1D65A
330
1D659
100
AcDbEntity
  8
0
100
AcDbBlockBegin
  2
$PAPER_SPACE
 70
     0
 10
0.0
 20
0.0
 30
0.0
  3
$PAPER_SPACE
  1

  0
ENDBLK
  5
1D65B
330
1D659
100
AcDbEntity
  8
0
100
AcDbBlockEnd
  0
BLOCK
  5
1D65D
330
1D65C
100
AcDbEntity
  8
0
100
AcDbBlockBegin
  2
DOT
 70
     0
 10
0.0
 20
0.0
 30
0.0
  3
DOT
  1

  0
LWPOLYLINE
  5
1D65E
330
1D65C
100
AcDbEntity
  8
0
  6
ByBlock
 62
     0
100
AcDbPolyline
 90
        2
 70
     1
 43
0.75
 10
-0.375
 20
0.0
 42
1.0
 10
0.375
 20
0.0
 42
1.0
  0
LINE
  5
1D662
330
1D65C
100
AcDbEntity
  8
0
  6
ByBlock
 62
     0
100
AcDbLine
 10
-0.75
 20
0.0
 30
0.0
 11
-1.5
 21
0.0
 31
0.0
  0
ENDBLK
  5
1D663
330
1D65C
100
AcDbEntity
  8
0
100
AcDbBlockEnd
  0
BLOCK
  5
1D665
330
1D664
100
AcDbEntity
  8
0
100
AcDbBlockBegin
  2
*U3
 70
     1
 10
0.0
 20
0.0
 30
0.0
  3
*U3
  1

  0
TEXT
  5
1D666
330
1D664
100
AcDbEntity
  8
SUNPOU
100
AcDbText
 10
6673.502746271774
 20
10040.71536047325
 30
0.0
 40
90.0
  1
400
 41
0.6666666666666666
  7
00
100
AcDbText
  0
ENDBLK
  5
1D667
330
1D664
100
AcDbEntity
  8
0
100
AcDbBlockEnd
  0
BLOCK
  5
1D669
330
1D668
100
AcDbEntity
  8
0
100
AcDbBlockBegin
  2
*U4
 70
     1
 10
0.0
 20
0.0
 30
0.0
  3
*U4
  1

  0
TEXT
  5
1D66A
330
1D668
100
AcDbEntity
  8
SUNPOU
100
AcDbText
 10
8069.931317700344
 20
10040.71536047325
 30
0.0
 40
90.0
  1
2450
 41
0.6666666666666666
  7
00
100
AcDbText
  0
ENDBLK
  5
1D66B
330
1D668
100
AcDbEntity
  8
0
100
AcDbBlockEnd
  0
BLOCK
  5
1D66D
330
1D66C
100
AcDbEntity
  8
0
100
AcDbBlockBegin
  2
*U5
 70
     1
 10
0.0
 20
0.0
 30
0.0
  3
*U5
  1

  0
TEXT
  5
1D66E
330
1D66C
100
AcDbEntity
  8
SUNPOU
100
AcDbText
 10
8069.931317700344
 20
10250.71536047325
 30
0.0
 40
90.0
  1
3250
 41
0.6666666666666666
  7
00
100
AcDbText
  0
ENDBLK
  5
1D66F
330
1D66C
100
AcDbEntity
  8
0
100
AcDbBlockEnd
  0
BLOCK
  5
1D671
330
1D670
100
AcDbEntity
  8
0
100
AcDbBlockBegin
  2
*U6
 70
     1
 10
0.0
 20
0.0
 30
0.0
  3
*U6
  1

  0
TEXT
  5
1D672
330
1D670
100
AcDbEntity
  8
SUNPOU
100
AcDbText
 10
9523.502746271772
 20
10040.71536047325
 30
0.0
 40
90.0
  1
400
 41
0.6666666666666666
  7
00
100
AcDbText
  0
ENDBLK
  5
1D673
330
1D670
100
AcDbEntity
  8
0
100
AcDbBlockEnd
  0
BLOCK
  5
1D675
330
1D674
100
AcDbEntity
  8
0
100
AcDbBlockBegin
  2
*U7
 70
     1
 10
0.0
 20
0.0
 30
0.0
  3
*U7
  1

  0
TEXT
  5
1D676
330
1D674
100
AcDbEntity
  8
SUNPOU
100
AcDbText
 10
10374.21703198605
 20
7381.429646187537
 30
0.0
 40
90.0
  1
4200
 50
90.0
 41
0.6666666666666666
  7
00
100
AcDbText
  0
ENDBLK
  5
1D677
330
1D674
100
AcDbEntity
  8
0
100
AcDbBlockEnd
  0
BLOCK
  5
1D679
330
1D678
100
AcDbEntity
  8
0
100
AcDbBlockBegin
  2
*U8
 70
     1
 10
0.0
 20
0.0
 30
0.0
  3
*U8
  1

  0
TEXT
  5
1D67A
330
1D678
100
AcDbEntity
  8
SUNPOU
100
AcDbText
 10
10164.21703198606
 20
5460.001074758966
 30
0.0
 40
90.0
  1
300
 50
90.0
 41
0.6666666666666666
  7
00
100
AcDbText
  0
ENDBLK
  5
1D67B
330
1D678
100
AcDbEntity
  8
0
100
AcDbBlockEnd
  0
BLOCK
  5
1D67D
330
1D67C
100
AcDbEntity
  8
0
100
AcDbBlockBegin
  2
*U9
 70
     1
 10
0.0
 20
0.0
 30
0.0
  3
*U9
  1

  0
TEXT
  5
1D67E
330
1D67C
100
AcDbEntity
  8
SUNPOU
100
AcDbText
 10
10164.21703198606
 20
6477.143931901823
 30
0.0
 40
90.0
  1
1800
 50
90.0
 41
0.6666666666666666
  7
00
100
AcDbText
  0
ENDBLK
  5
1D67F
330
1D67C
100
AcDbEntity
  8
0
100
AcDbBlockEnd
  0
BLOCK
  5
1D681
330
1D680
100
AcDbEntity
  8
0
100
AcDbBlockBegin
  2
*U10
 70
     1
 10
0.0
 20
0.0
 30
0.0
  3
*U10
  1

  0
TEXT
  5
1D682
330
1D680
100
AcDbEntity
  8
SUNPOU
100
AcDbText
 10
10164.21703198606
 20
8277.143931901823
 30
0.0
 40
90.0
  1
1800
 50
90.0
 41
0.6666666666666666
  7
00
100
AcDbText
  0
ENDBLK
  5
1D683
330
1D680
100
AcDbEntity
  8
0
100
AcDbBlockEnd
  0
BLOCK
  5
1D685
330
1D684
100
AcDbEntity
  8
0
100
AcDbBlockBegin
  2
*U11
 70
     1
 10
0.0
 20
0.0
 30
0.0
  3
*U11
  1

  0
TEXT
  5
1D686
330
1D684
100
AcDbEntity
  8
SUNPOU
100
AcDbText
 10
10164.21703198606
 20
9360.001074758962
 30
0.0
 40
90.0
  1
300
 50
90.0
 41
0.6666666666666666
  7
00
100
AcDbText
  0
ENDBLK
  5
1D687
330
1D684
100
AcDbEntity
  8
0
100
AcDbBlockEnd
  0
BLOCK
  5
1D689
330
1D688
100
AcDbEntity
  8
0
100
AcDbBlockBegin
  2
*U12
 70
     1
 10
0.0
 20
0.0
 30
0.0
  3
*U12
  1

  0
TEXT
  5
1D68A
330
1D688
100
AcDbEntity
  8
SUNPOU
100
AcDbText
 10
9322.074174843205
 20
8740.715360473251
 30
0.0
 40
90.0
  1
600
 41
0.6666666666666666
  7
00
100
AcDbText
  0
ENDBLK
  5
1D68B
330
1D688
100
AcDbEntity
  8
0
100
AcDbBlockEnd
  0
BLOCK
  5
1D68D
330
1D68C
100
AcDbEntity
  8
0
100
AcDbBlockBegin
  2
*U13
 70
     1
 10
0.0
 20
0.0
 30
0.0
  3
*U13
  1

  0
TEXT
  5
1D68E
330
1D68C
100
AcDbEntity
  8
SUNPOU
100
AcDbText
 10
8764.217031986062
 20
9208.572503330396
 30
0.0
 40
90.0
  1
600
 50
90.0
 41
0.6666666666666666
  7
00
100
AcDbText
  0
ENDBLK
  5
1D68F
330
1D68C
100
AcDbEntity
  8
0
100
AcDbBlockEnd
  0
BLOCK
  5
1D691
330
1D690
100
AcDbEntity
  8
0
100
AcDbBlockBegin
  2
*U14
 70
     1
 10
0.0
 20
0.0
 30
0.0
  3
*U14
  1

  0
TEXT
  5
1D692
330
1D690
100
AcDbEntity
  8
SUNPOU
100
AcDbText
 10
9323.502746271772
 20
8110.715360473248
 30
0.0
 40
90.0
  1
800
 41
0.6666666666666666
  7
00
100
AcDbText
  0
ENDBLK
  5
1D693
330
1D690
100
AcDbEntity
  8
0
100
AcDbBlockEnd
  0
BLOCK
  5
1D695
330
1D694
100
AcDbEntity
  8
0
100
AcDbBlockBegin
  2
*U15
 70
     1
 10
0.0
 20
0.0
 30
0.0
  3
*U15
  1

  0
TEXT
  5
1D696
330
1D694
100
AcDbEntity
  8
SUNPOU
100
AcDbText
 10
8764.217031986062
 20
7410.001074758966
 30
0.0
 40
90.0
  1
800
 50
90.0
 41
0.6666666666666666
  7
00
100
AcDbText
  0
ENDBLK
  5
1D697
330
1D694
100
AcDbEntity
  8
0
100
AcDbBlockEnd
  0
BLOCK
  5
1D699
330
1D698
100
AcDbEntity
  8
0
100
AcDbBlockBegin
  2
*U16
 70
     1
 10
0.0
 20
0.0
 30
0.0
  3
*U16
  1

  0
TEXT
  5
1D69A
330
1D698
100
AcDbEntity
  8
SUNPOU
100
AcDbText
 10
12409.67906519162
 20
3236.00991145763
 30
0.0
 40
90.0
  1
160
 41
0.6666666666666666
  7
00
100
AcDbText
  0
ENDBLK
  5
1D69B
330
1D698
100
AcDbEntity
  8
0
100
AcDbBlockEnd
  0
BLOCK
  5
1D69D
330
1D69C
100
AcDbEntity
  8
0
100
AcDbBlockBegin
  2
*U17
 70
     1
 10
0.0
 20
0.0
 30
0.0
  3
*U17
  1

  0
TEXT
  5
1D69E
330
1D69C
100
AcDbEntity
  8
SUNPOU
100
AcDbText
 10
11998.96477947732
 20
3446.009911457631
 30
0.0
 40
90.0
  1
20
 41
0.6666666666666666
  7
00
100
AcDbText
  0
ENDBLK
  5
1D69F
330
1D69C
100
AcDbEntity
  8
0
100
AcDbBlockEnd
  0
BLOCK
  5
1D6A1
330
1D6A0
100
AcDbEntity
  8
0
100
AcDbBlockBegin
  2
*U18
 70
     1
 10
0.0
 20
0.0
 30
0.0
  3
*U18
  1

  0
TEXT
  5
1D6A2
330
1D6A0
100
AcDbEntity
  8
SUNPOU
100
AcDbText
 10
12409.67906519163
 20
3446.009911457631
 30
0.0
 40
90.0
  1
120
 41
0.6666666666666666
  7
00
100
AcDbText
  0
ENDBLK
  5
1D6A3
330
1D6A0
100
AcDbEntity
  8
0
100
AcDbBlockEnd
  0
BLOCK
  5
1D6A5
330
1D6A4
100
AcDbEntity
  8
0
100
AcDbBlockBegin
  2
*U19
 70
     1
 10
0.0
 20
0.0
 30
0.0
  3
*U19
  1

  0
TEXT
  5
1D6A6
330
1D6A4
100
AcDbEntity
  8
SUNPOU
100
AcDbText
 10
12886.10763662019
 20
3446.009911457631
 30
0.0
 40
90.0
  1
20
 41
0.6666666666666666
  7
00
100
AcDbText
  0
ENDBLK
  5
1D6A7
330
1D6A4
100
AcDbEntity
  8
0
100
AcDbBlockEnd
  0
BLOCK
  5
1D6A9
330
1D6A8
100
AcDbEntity
  8
0
100
AcDbBlockBegin
  2
*U20
 70
     1
 10
0.0
 20
0.0
 30
0.0
  3
*U20
  1

  0
TEXT
  5
1D6AA
330
1D6A8
100
AcDbEntity
  8
SUNPOU
100
AcDbText
 10
11621.67906519162
 20
2649.840535712867
 30
0.0
 40
90.0
  1
80
 50
90.0
 41
0.6666666666666666
  7
00
100
AcDbText
  0
ENDBLK
  5
1D6AB
330
1D6A8
100
AcDbEntity
  8
0
100
AcDbBlockEnd
  0
BLOCK
  5
1D6AD
330
1D6AC
100
AcDbEntity
  8
0
100
AcDbBlockBegin
  2
*U21
 70
     1
 10
0.0
 20
0.0
 30
0.0
  3
*U21
  1

  0
TEXT
  5
1D6AE
330
1D6AC
100
AcDbEntity
  8
SUNPOU
100
AcDbText
 10
11831.67906519162
 20
2918.411964284295
 30
0.0
 40
90.0
  1
40
 50
90.0
 41
0.6666666666666666
  7
00
100
AcDbText
  0
ENDBLK
  5
1D6AF
330
1D6AC
100
AcDbEntity
  8
0
100
AcDbBlockEnd
  0
BLOCK
  5
1D6B1
330
1D6B0
100
AcDbEntity
  8
0
100
AcDbBlockBegin
  2
*U22
 70
     1
 10
0.0
 20
0.0
 30
0.0
  3
*U22
  1

  0
TEXT
  5
1D6B2
330
1D6B0
100
AcDbEntity
  8
SUNPOU
100
AcDbText
 10
11831.67906519162
 20
2381.269107141437
 30
0.0
 40
90.0
  1
40
 50
90.0
 41
0.6666666666666666
  7
00
100
AcDbText
  0
ENDBLK
  5
1D6B3
330
1D6B0
100
AcDbEntity
  8
0
100
AcDbBlockEnd
  0
BLOCK
  5
1D6B5
330
1D6B4
100
AcDbEntity
  8
0
100
AcDbBlockBegin
  2
*U23
 70
     1
 10
0.0
 20
0.0
 30
0.0
  3
*U23
  1

  0
TEXT
  5
1D6B6
330
1D6B4
100
AcDbEntity
  8
SUNPOU
100
AcDbText
 10
12409.67906519162
 20
2087.644025518657
 30
0.0
 40
90.0
  1
160
 41
0.6666666666666666
  7
00
100
AcDbText
  0
ENDBLK
  5
1D6B7
330
1D6B4
100
AcDbEntity
  8
0
100
AcDbBlockEnd
  0
BLOCK
  5
1D6B9
330
1D6B8
100
AcDbEntity
  8
0
100
AcDbBlockBegin
  2
*U24
 70
     1
 10
0.0
 20
0.0
 30
0.0
  3
*U24
  1

  0
TEXT
  5
1D6BA
330
1D6B8
100
AcDbEntity
  8
SUNPOU
100
AcDbText
 10
11998.96477947732
 20
2297.644025518658
 30
0.0
 40
90.0
  1
20
 41
0.6666666666666666
  7
00
100
AcDbText
  0
ENDBLK
  5
1D6BB
330
1D6B8
100
AcDbEntity
  8
0
100
AcDbBlockEnd
  0
BLOCK
  5
1D6BD
330
1D6BC
100
AcDbEntity
  8
0
100
AcDbBlockBegin
  2
*U25
 70
     1
 10
0.0
 20
0.0
 30
0.0
  3
*U25
  1

  0
TEXT
  5
1D6BE
330
1D6BC
100
AcDbEntity
  8
SUNPOU
100
AcDbText
 10
12409.67906519163
 20
2297.644025518658
 30
0.0
 40
90.0
  1
120
 41
0.6666666666666666
  7
00
100
AcDbText
  0
ENDBLK
  5
1D6BF
330
1D6BC
100
AcDbEntity
  8
0
100
AcDbBlockEnd
  0
BLOCK
  5
1D6C1
330
1D6C0
100
AcDbEntity
  8
0
100
AcDbBlockBegin
  2
*U26
 70
     1
 10
0.0
 20
0.0
 30
0.0
  3
*U26
  1

  0
TEXT
  5
1D6C2
330
1D6C0
100
AcDbEntity
  8
SUNPOU
100
AcDbText
 10
12886.10763662019
 20
2297.644025518658
 30
0.0
 40
90.0
  1
20
 41
0.6666666666666666
  7
00
100
AcDbText
  0
ENDBLK
  5
1D6C3
330
1D6C0
100
AcDbEntity
  8
0
100
AcDbBlockEnd
  0
BLOCK
  5
1D6C5
330
1D6C4
100
AcDbEntity
  8
0
100
AcDbBlockBegin
  2
*U27
 70
     1
 10
0.0
 20
0.0
 30
0.0
  3
*U27
  1

  0
TEXT
  5
1D6C6
330
1D6C4
100
AcDbEntity
  8
SUNPOU
100
AcDbText
 10
5352.42345668271
 20
4182.324460358763
 30
0.0
 40
90.0
  1
400
 41
0.6666666666666666
  7
00
100
AcDbText
  0
ENDBLK
  5
1D6C7
330
1D6C4
100
AcDbEntity
  8
0
100
AcDbBlockEnd
  0
BLOCK
  5
1D6C9
330
1D6C8
100
AcDbEntity
  8
0
100
AcDbBlockBegin
  2
*U28
 70
     1
 10
0.0
 20
0.0
 30
0.0
  3
*U28
  1

  0
TEXT
  5
1D6CA
330
1D6C8
100
AcDbEntity
  8
SUNPOU
100
AcDbText
 10
4583.784346396234
 20
2921.981031079321
 30
0.0
 40
90.0
  1
564
 50
90.0
 41
0.6666666666666666
  7
00
100
AcDbText
  0
ENDBLK
  5
1D6CB
330
1D6C8
100
AcDbEntity
  8
0
100
AcDbBlockEnd
  0
BLOCK
  5
1D6CD
330
1D6CC
100
AcDbEntity
  8
0
100
AcDbBlockBegin
  2
*U29
 70
     1
 10
0.0
 20
0.0
 30
0.0
  3
*U29
  1

  0
TEXT
  5
1D6CE
330
1D6CC
100
AcDbEntity
  8
SUNPOU
100
AcDbText
 10
4793.784346396234
 20
2335.066745365034
 30
0.0
 40
90.0
  1
100
 50
90.0
 41
0.6666666666666666
  7
00
100
AcDbText
  0
ENDBLK
  5
1D6CF
330
1D6CC
100
AcDbEntity
  8
0
100
AcDbBlockEnd
  0
BLOCK
  5
1D6D1
330
1D6D0
100
AcDbEntity
  8
0
100
AcDbBlockBegin
  2
*U30
 70
     1
 10
0.0
 20
0.0
 30
0.0
  3
*U30
  1

  0
TEXT
  5
1D6D2
330
1D6D0
100
AcDbEntity
  8
SUNPOU
100
AcDbText
 10
4793.784346396234
 20
2872.209602507888
 30
0.0
 40
90.0
  1
300
 50
90.0
 41
0.6666666666666666
  7
00
100
AcDbText
  0
ENDBLK
  5
1D6D3
330
1D6D0
100
AcDbEntity
  8
0
100
AcDbBlockEnd
  0
BLOCK
  5
1D6D5
330
1D6D4
100
AcDbEntity
  8
0
100
AcDbBlockBegin
  2
*U31
 70
     1
 10
0.0
 20
0.0
 30
0.0
  3
*U31
  1

  0
TEXT
  5
1D6D6
330
1D6D4
100
AcDbEntity
  8
SUNPOU
100
AcDbText
 10
4793.784346396234
 20
3511.752459650749
 30
0.0
 40
90.0
  1
84
 50
90.0
 41
0.6666666666666666
  7
00
100
AcDbText
  0
ENDBLK
  5
1D6D7
330
1D6D4
100
AcDbEntity
  8
0
100
AcDbBlockEnd
  0
BLOCK
  5
1D6D9
330
1D6D8
100
AcDbEntity
  8
0
100
AcDbBlockBegin
  2
*U32
 70
     1
 10
0.0
 20
0.0
 30
0.0
  3
*U32
  1

  0
TEXT
  5
1D6DA
330
1D6D8
100
AcDbEntity
  8
SUNPOU
100
AcDbText
 10
4793.784346396237
 20
3204.781031079315
 30
0.0
 40
90.0
  1
80
 50
90.0
 41
0.6666666666666666
  7
00
100
AcDbText
  0
ENDBLK
  5
1D6DB
330
1D6D8
100
AcDbEntity
  8
0
100
AcDbBlockEnd
  0
BLOCK
  5
1D6DD
330
1D6DC
100
AcDbEntity
  8
0
100
AcDbBlockBegin
  2
*U33
 70
     1
 10
0.0
 20
0.0
 30
0.0
  3
*U33
  1

  0
TEXT
  5
1D6DE
330
1D6DC
100
AcDbEntity
  8
SUNPOU
100
AcDbText
 10
4373.784346396234
 20
3526.752459650748
 30
0.0
 40
90.0
  1
50
 50
90.0
 41
0.6666666666666666
  7
00
100
AcDbText
  0
ENDBLK
  5
1D6DF
330
1D6DC
100
AcDbEntity
  8
0
100
AcDbBlockEnd
  0
BLOCK
  5
1D6E1
330
1D6E0
100
AcDbEntity
  8
0
100
AcDbBlockBegin
  2
*U34
 70
     1
 10
0.0
 20
0.0
 30
0.0
  3
*U34
  1

  0
TEXT
  5
1D6E2
330
1D6E0
100
AcDbEntity
  8
SUNPOU
100
AcDbText
 10
5672.423456682707
 20
1990.523888222173
 30
0.0
 40
90.0
  1
800
 41
0.6666666666666666
  7
00
100
AcDbText
  0
ENDBLK
  5
1D6E3
330
1D6E0
100
AcDbEntity
  8
0
100
AcDbBlockEnd
  0
BLOCK
  5
1D6E5
330
1D6E4
100
AcDbEntity
  8
0
100
AcDbBlockBegin
  2
*U35
 70
     1
 10
0.0
 20
0.0
 30
0.0
  3
*U35
  1

  0
TEXT
  5
1D6E6
330
1D6E4
100
AcDbEntity
  8
SUNPOU
100
AcDbText
 10
5670.994885254138
 20
2200.523888222173
 30
0.0
 40
90.0
  1
600
 41
0.6666666666666666
  7
00
100
AcDbText
  0
ENDBLK
  5
1D6E7
330
1D6E4
100
AcDbEntity
  8
0
100
AcDbBlockEnd
  0
BLOCK
  5
1D6E9
330
1D6E8
100
AcDbEntity
  8
0
100
AcDbBlockBegin
  2
*U36
 70
     1
 10
0.0
 20
0.0
 30
0.0
  3
*U36
  1

  0
TEXT
  5
1D6EA
330
1D6E8
100
AcDbEntity
  8
SUNPOU
100
AcDbText
 10
13186.74749427908
 20
3444.461799672849
 30
0.0
 40
90.0
  1
27
 50
90.0
 41
0.6666666666666666
  7
00
100
AcDbText
  0
ENDBLK
  5
1D6EB
330
1D6E8
100
AcDbEntity
  8
0
100
AcDbBlockEnd
  0
BLOCK
  5
1D6ED
330
1D6EC
100
AcDbEntity
  8
0
100
AcDbBlockBegin
  2
*U37
 70
     1
 10
0.0
 20
0.0
 30
0.0
  3
*U37
  1

  0
TEXT
  5
1D6EE
330
1D6EC
100
AcDbEntity
  8
SUNPOU
100
AcDbText
 10
13186.74749427908
 20
3944.604656815706
 30
0.0
 40
90.0
  1
40
 50
90.0
 41
0.6666666666666666
  7
00
100
AcDbText
  0
ENDBLK
  5
1D6EF
330
1D6EC
100
AcDbEntity
  8
0
100
AcDbBlockEnd
  0
BLOCK
  5
1D6F1
330
1D6F0
100
AcDbEntity
  8
0
100
AcDbBlockBegin
  2
*U38
 70
     1
 10
0.0
 20
0.0
 30
0.0
  3
*U38
  1

  0
TEXT
  5
1D6F2
330
1D6F0
100
AcDbEntity
  8
SUNPOU
100
AcDbText
 10
8364.11054691988
 20
2921.981031079321
 30
0.0
 40
90.0
  1
564
 50
90.0
 41
0.6666666666666666
  7
00
100
AcDbText
  0
ENDBLK
  5
1D6F3
330
1D6F0
100
AcDbEntity
  8
0
100
AcDbBlockEnd
  0
BLOCK
  5
1D6F5
330
1D6F4
100
AcDbEntity
  8
0
100
AcDbBlockBegin
  2
*U39
 70
     1
 10
0.0
 20
0.0
 30
0.0
  3
*U39
  1

  0
TEXT
  5
1D6F6
330
1D6F4
100
AcDbEntity
  8
SUNPOU
100
AcDbText
 10
8574.110546919881
 20
2335.066745365034
 30
0.0
 40
90.0
  1
100
 50
90.0
 41
0.6666666666666666
  7
00
100
AcDbText
  0
ENDBLK
  5
1D6F7
330
1D6F4
100
AcDbEntity
  8
0
100
AcDbBlockEnd
  0
BLOCK
  5
1D6F9
330
1D6F8
100
AcDbEntity
  8
0
100
AcDbBlockBegin
  2
*U40
 70
     1
 10
0.0
 20
0.0
 30
0.0
  3
*U40
  1

  0
TEXT
  5
1D6FA
330
1D6F8
100
AcDbEntity
  8
SUNPOU
100
AcDbText
 10
8574.110546919881
 20
2872.209602507892
 30
0.0
 40
90.0
  1
300
 50
90.0
 41
0.6666666666666666
  7
00
100
AcDbText
  0
ENDBLK
  5
1D6FB
330
1D6F8
100
AcDbEntity
  8
0
100
AcDbBlockEnd
  0
BLOCK
  5
1D6FD
330
1D6FC
100
AcDbEntity
  8
0
100
AcDbBlockBegin
  2
*U41
 70
     1
 10
0.0
 20
0.0
 30
0.0
  3
*U41
  1

  0
TEXT
  5
1D6FE
330
1D6FC
100
AcDbEntity
  8
SUNPOU
100
AcDbText
 10
8574.110546919881
 20
3511.75245965075
 30
0.0
 40
90.0
  1
84
 50
90.0
 41
0.6666666666666666
  7
00
100
AcDbText
  0
ENDBLK
  5
1D6FF
330
1D6FC
100
AcDbEntity
  8
0
100
AcDbBlockEnd
  0
BLOCK
  5
1D701
330
1D700
100
AcDbEntity
  8
0
100
AcDbBlockBegin
  2
*U42
 70
     1
 10
0.0
 20
0.0
 30
0.0
  3
*U42
  1

  0
TEXT
  5
1D702
330
1D700
100
AcDbEntity
  8
SUNPOU
100
AcDbText
 10
8574.110546919881
 20
3204.78103107932
 30
0.0
 40
90.0
  1
80
 50
90.0
 41
0.6666666666666666
  7
00
100
AcDbText
  0
ENDBLK
  5
1D703
330
1D700
100
AcDbEntity
  8
0
100
AcDbBlockEnd
  0
BLOCK
  5
1D705
330
1D704
100
AcDbEntity
  8
0
100
AcDbBlockBegin
  2
*U43
 70
     1
 10
0.0
 20
0.0
 30
0.0
  3
*U43
  1

  0
TEXT
  5
1D706
330
1D704
100
AcDbEntity
  8
SUNPOU
100
AcDbText
 10
9419.892514349211
 20
1990.523888222177
 30
0.0
 40
90.0
  1
1000
 41
0.6666666666666666
  7
00
100
AcDbText
  0
ENDBLK
  5
1D707
330
1D704
100
AcDbEntity
  8
0
100
AcDbBlockEnd
  0
BLOCK
  5
1D709
330
1D708
100
AcDbEntity
  8
0
100
AcDbBlockBegin
  2
*U44
 70
     1
 10
0.0
 20
0.0
 30
0.0
  3
*U44
  1

  0
TEXT
  5
1D70A
330
1D708
100
AcDbEntity
  8
SUNPOU
100
AcDbText
 10
9452.749657206352
 20
2200.523888222177
 30
0.0
 40
90.0
  1
800
 41
0.6666666666666666
  7
00
100
AcDbText
  0
ENDBLK
  5
1D70B
330
1D708
100
AcDbEntity
  8
0
100
AcDbBlockEnd
  0
ENDSEC
  0
SECTION
  2
ENTITIES
  0
TEXT
  5
1D70C
330
1D62A
100
AcDbEntity
  8
NAME
100
AcDbText
 10
12303.32857318295
 20
1055.0
 30
0.0
 40
120.0
  1
Y O K C
 41
0.6666666666666666
  7
00
100
AcDbText
  0
TEXT
  5
1D70D
330
1D62A
100
AcDbEntity
  8
NAME
100
AcDbText
 10
11227.73587134625
 20
1055.0
 30
0.0
 40
120.0
  1
ヨド自転車置場　　　  型
  7
01
100
AcDbText
  0
TEXT
  5
1D70E
330
1D62A
100
AcDbEntity
  8
NAME
100
AcDbText
 10
10824.07508082364
 20
875.0
 30
0.0
 40
120.0
  1
棟合せタイプ（アンカープレート方式）
  7
01
 72
     4
 11
12072.07508082364
 21
935.0
 31
0.0
100
AcDbText
  0
TEXT
  5
1D70F
330
1D62A
100
AcDbEntity
  8
NAME
100
AcDbText
 10
12854.79999999999
 20
541.0000000000001
 30
0.0
 40
160.0
  1
<3／3>
 41
0.6
  7
01
 72
     2
 11
13354.0
 21
541.0000000000001
 31
0.0
100
AcDbText
  0
TEXT
  5
1D710
330
1D62A
100
AcDbEntity
  8
NAME
100
AcDbText
 10
10896.04264730428
 20
541.0
 30
0.0
 40
160.0
  1
YOKC-245
 41
0.7
  7
01
 72
     2
 11
11776.04264730429
 21
541.0
 31
0.0
100
AcDbText
  0
TEXT
  5
1D711
330
1D62A
100
AcDbEntity
  8
NAME
100
AcDbText
 10
11816.04264730429
 20
541.0
 30
0.0
 40
160.0
  1
型（一般地用）
 41
0.8
  7
01
100
AcDbText
  0
TEXT
  5
1D712
330
1D62A
100
AcDbEntity
  8
HIKIDASHI
100
AcDbText
 10
8772.515803529449
 20
4879.531802304223
 30
0.0
 40
80.0
  1
)
 41
0.6700000000000001
  7
00
100
AcDbText
  0
TEXT
  5
1D713
330
1D62A
100
AcDbEntity
  8
HIKIDASHI
100
AcDbText
 10
8571.657054840066
 20
4895.09328005242
 30
0.0
 40
80.0
  1
1
 41
0.6700000000000001
  7
00
100
AcDbText
  0
TEXT
  5
1D714
330
1D62A
100
AcDbEntity
  8
HIKIDASHI
100
AcDbText
 10
8604.794192704373
 20
4879.531802304223
 30
0.0
 40
80.0
  1
/
 41
0.6700000000000001
  7
00
100
AcDbText
  0
TEXT
  5
1D715
330
1D62A
100
AcDbEntity
  8
HIKIDASHI
100
AcDbText
 10
8651.089347467019
 20
4853.363971103946
 30
0.0
 40
80.0
  1
40
 41
0.6700000000000001
  7
00
100
AcDbText
  0
TEXT
  5
1D716
330
1D62A
100
AcDbEntity
  8
HIKIDASHI
100
AcDbText
 10
8390.949138902394
 20
4879.531802304223
 30
0.0
 40
80.0
  1
(S=
 41
0.6700000000000001
  7
00
100
AcDbText
  0
TEXT
  5
1D717
330
1D62A
100
AcDbEntity
  8
HIKIDASHI
100
AcDbText
 10
7548.949138902393
 20
4855.715360473254
 30
0.0
 40
120.0
  1
基 礎 伏 図
  7
01
 72
     2
 11
8300.949138902394
 21
4855.715360473254
 31
0.0
100
AcDbText
  0
LINE
  5
1D718
330
1D62A
100
AcDbEntity
  8
CENTER
  6
1PL-M
100
AcDbLine
 10
6489.217031986058
 20
7495.715360473251
 30
0.0
 11
8644.217031986059
 21
7495.715360473251
 31
0.0
  0
LINE
  5
1D719
330
1D62A
100
AcDbEntity
  8
CENTER
  6
1PL-M
100
AcDbLine
 10
6489.21703198606
 20
9295.715360473252
 30
0.0
 11
8644.217031986059
 21
9295.715360473252
 31
0.0
  0
LINE
  5
1D71A
330
1D62A
100
AcDbEntity
  8
CENTER
  6
1PL-M
100
AcDbLine
 10
6959.21703198606
 20
5295.715360473252
 30
0.0
 11
6959.21703198606
 21
9695.715360473252
 31
0.0
  0
LINE
  5
1D71B
330
1D62A
100
AcDbEntity
  8
CENTER
  6
1PL-M
100
AcDbLine
 10
6489.21703198606
 20
5695.715360473252
 30
0.0
 11
10254.21703198605
 21
5695.715360473251
 31
0.0
  0
LINE
  5
1D71C
330
1D62A
100
AcDbEntity
  8
CENTER
  6
1PL-M
100
AcDbLine
 10
9409.217031986059
 20
5295.71536047325
 30
0.0
 11
9409.217031986059
 21
8080.715360473249
 31
0.0
  0
CIRCLE
  5
1D71D
330
1D62A
100
AcDbEntity
  8
HASHIRA
100
AcDbCircle
 10
6959.21703198606
 20
5755.715360473252
 30
0.0
 40
9.0
  0
CIRCLE
  5
1D71E
330
1D62A
100
AcDbEntity
  8
HASHIRA
100
AcDbCircle
 10
6959.21703198606
 20
5635.715360473252
 30
0.0
 40
9.0
  0
CIRCLE
  5
1D71F
330
1D62A
100
AcDbEntity
  8
HASHIRA
100
AcDbCircle
 10
6959.21703198606
 20
7555.715360473252
 30
0.0
 40
9.0
  0
CIRCLE
  5
1D720
330
1D62A
100
AcDbEntity
  8
HASHIRA
100
AcDbCircle
 10
6959.21703198606
 20
7435.715360473252
 30
0.0
 40
9.0
  0
CIRCLE
  5
1D721
330
1D62A
100
AcDbEntity
  8
HASHIRA
100
AcDbCircle
 10
6959.21703198606
 20
9355.715360473253
 30
0.0
 40
9.0
  0
CIRCLE
  5
1D722
330
1D62A
100
AcDbEntity
  8
HASHIRA
100
AcDbCircle
 10
6959.21703198606
 20
9235.715360473252
 30
0.0
 40
9.0
  0
CIRCLE
  5
1D723
330
1D62A
100
AcDbEntity
  8
HASHIRA
100
AcDbCircle
 10
9409.217031986059
 20
5755.715360473249
 30
0.0
 40
9.0
  0
CIRCLE
  5
1D724
330
1D62A
100
AcDbEntity
  8
HASHIRA
100
AcDbCircle
 10
9409.217031986059
 20
5635.715360473249
 30
0.0
 40
9.0
  0
CIRCLE
  5
1D725
330
1D62A
100
AcDbEntity
  8
HASHIRA
100
AcDbCircle
 10
9409.217031986059
 20
7555.715360473249
 30
0.0
 40
9.0
  0
CIRCLE
  5
1D726
330
1D62A
100
AcDbEntity
  8
HASHIRA
100
AcDbCircle
 10
9409.217031986059
 20
7435.715360473249
 30
0.0
 40
9.0
  0
CIRCLE
  5
1D727
330
1D62A
100
AcDbEntity
  8
HASHIRA
100
AcDbCircle
 10
9409.217031986059
 20
9355.715360473251
 30
0.0
 40
9.0
  0
CIRCLE
  5
1D728
330
1D62A
100
AcDbEntity
  8
HASHIRA
100
AcDbCircle
 10
9409.217031986059
 20
9235.71536047325
 30
0.0
 40
9.0
  0
TEXT
  5
1D729
330
1D62A
100
AcDbEntity
  8
SUNPOU
100
AcDbText
 10
10164.21703198606
 20
5460.001074758964
 30
0.0
 40
90.0
  1
300
 50
90.0
 41
0.6666666666666666
  7
00
 72
     4
 11
10119.21703198606
 21
5545.715360473249
 31
0.0
100
AcDbText
  0
TEXT
  5
1D72A
330
1D62A
100
AcDbEntity
  8
SUNPOU
100
AcDbText
 10
10164.21703198606
 20
9360.001074758962
 30
0.0
 40
90.0
  1
300
 50
90.0
 41
0.6666666666666666
  7
00
 72
     1
 11
10119.21703198606
 21
9445.715360473249
 31
0.0
100
AcDbText
 73
     2
  0
SOLID
  5
1D72B
330
1D62A
100
AcDbEntity
  8
SUNPOU
100
AcDbTrace
 10
6324.47136661486
 20
5905.715360473251
 30
0.0
 11
6354.47136661486
 21
5905.715360473251
 31
0.0
 12
6339.47136661486
 22
5995.715360473252
 32
0.0
 13
6339.47136661486
 23
5995.715360473252
 33
0.0
  0
TEXT
  5
1D72C
330
1D62A
100
AcDbEntity
  8
SUNPOU
100
AcDbText
 10
6313.628509472001
 20
6040.715360473252
 30
0.0
 40
90.0
  1
A
 41
0.6700000000000001
  7
00
 72
     4
 11
6339.471366614858
 21
6085.715360473252
 31
0.0
100
AcDbText
  0
LINE
  5
1D72D
330
1D62A
100
AcDbEntity
  8
SUNPOU
100
AcDbLine
 10
6339.47136661486
 20
5905.715360473251
 30
0.0
 11
6339.47136661486
 21
5695.715360473252
 31
0.0
  0
LINE
  5
1D72E
330
1D62A
100
AcDbEntity
  8
SUNPOU
100
AcDbLine
 10
6339.47136661486
 20
5695.715360473252
 30
0.0
 11
6489.471366614861
 21
5695.715360473252
 31
0.0
  0
LINE
  5
1D72F
330
1D62A
100
AcDbEntity
  8
SUNPOU
100
AcDbLine
 10
7444.630294679763
 20
5695.715360473252
 30
0.0
 11
7294.630294679759
 21
5695.715360473252
 31
0.0
  0
LINE
  5
1D730
330
1D62A
100
AcDbEntity
  8
SUNPOU
100
AcDbLine
 10
7444.630294679763
 20
5905.715360473251
 30
0.0
 11
7444.630294679763
 21
5695.715360473252
 31
0.0
  0
TEXT
  5
1D731
330
1D62A
100
AcDbEntity
  8
SUNPOU
100
AcDbText
 10
7408.737437536906
 20
6032.143931901824
 30
0.0
 40
90.0
  1
A'
 41
0.6700000000000001
  7
00
 72
     4
 11
7444.630294679763
 21
6085.715360473252
 31
0.0
100
AcDbText
  0
SOLID
  5
1D732
330
1D62A
100
AcDbEntity
  8
SUNPOU
100
AcDbTrace
 10
7459.630294679762
 20
5905.715360473251
 30
0.0
 11
7429.630294679762
 21
5905.715360473251
 31
0.0
 12
7444.630294679763
 22
5995.715360473252
 32
0.0
 13
7444.630294679763
 23
5995.715360473252
 33
0.0
  0
LINE
  5
1D733
330
1D62A
100
AcDbEntity
  8
CENTER
  6
1PL-M
100
AcDbLine
 10
9409.217031986059
 20
8860.71536047325
 30
0.0
 11
9409.217031986059
 21
9695.715360473249
 31
0.0
  0
LINE
  5
1D734
330
1D62A
100
AcDbEntity
  8
CENTER
  6
1PL-M
100
AcDbLine
 10
9409.217031986059
 20
8230.715360473251
 30
0.0
 11
9409.217031986059
 21
8710.715360473249
 31
0.0
  0
LINE
  5
1D735
330
1D62A
100
AcDbEntity
  8
CENTER
  6
1PL-M
100
AcDbLine
 10
8794.217031986059
 20
9295.715360473252
 30
0.0
 11
10254.21703198605
 21
9295.71536047325
 31
0.0
  0
LINE
  5
1D736
330
1D62A
100
AcDbEntity
  8
CENTER
  6
1PL-M
100
AcDbLine
 10
8794.217031986059
 20
7495.715360473251
 30
0.0
 11
10254.21703198605
 21
7495.715360473251
 31
0.0
  0
TEXT
  5
1D737
330
1D62A
100
AcDbEntity
  8
HIKIDASHI
100
AcDbText
 10
7624.264373012015
 20
9691.715360473253
 30
0.0
 40
90.0
  1
（屋根前面位置）
  7
01
100
AcDbText
  0
TEXT
  5
1D738
330
1D62A
100
AcDbEntity
  8
HIKIDASHI
100
AcDbText
 10
7540.155771095993
 20
9455.715360473243
 30
0.0
 40
90.0
  1
（土間コン後面位置）
  7
01
100
AcDbText
  0
TEXT
  5
1D739
330
1D62A
100
AcDbEntity
  8
HIKIDASHI
100
AcDbText
 10
7624.264373012015
 20
5209.715360473254
 30
0.0
 40
90.0
  1
（屋根前面位置）
  7
01
100
AcDbText
  0
TEXT
  5
1D73A
330
1D62A
100
AcDbEntity
  8
HIKIDASHI
100
AcDbText
 10
7540.155771095993
 20
5445.715360473259
 30
0.0
 40
90.0
  1
（土間コン前面位置）
  7
01
100
AcDbText
  0
TEXT
  5
1D73B
330
1D62A
100
AcDbEntity
  8
SUNPOU
100
AcDbText
 10
7317.19781972598
 20
8040.715360473251
 30
0.0
 40
90.0
  1
B
 41
0.6700000000000001
  7
00
 72
     4
 11
7348.783534011694
 21
8085.715360473251
 31
0.0
100
AcDbText
  0
LINE
  5
1D73C
330
1D62A
100
AcDbEntity
  8
SUNPOU
100
AcDbLine
 10
6959.21703198606
 20
8085.715360473251
 30
0.0
 11
6959.21703198606
 21
7935.715360473252
 31
0.0
  0
LINE
  5
1D73D
330
1D62A
100
AcDbEntity
  8
SUNPOU
100
AcDbLine
 10
7169.217031986057
 20
8085.715360473251
 30
0.0
 11
6959.21703198606
 21
8085.715360473251
 31
0.0
  0
SOLID
  5
1D73E
330
1D62A
100
AcDbEntity
  8
SUNPOU
100
AcDbTrace
 10
7169.217031986057
 20
8100.71536047325
 30
0.0
 11
7169.217031986057
 21
8070.715360473251
 31
0.0
 12
7259.21703198606
 22
8085.715360473251
 32
0.0
 13
7259.21703198606
 23
8085.715360473251
 33
0.0
  0
TEXT
  5
1D73F
330
1D62A
100
AcDbEntity
  8
SUNPOU
100
AcDbText
 10
7304.276391154552
 20
6852.143931901823
 30
0.0
 40
90.0
  1
B'
 41
0.6700000000000001
  7
00
 72
     4
 11
7348.783534011694
 21
6905.715360473251
 31
0.0
100
AcDbText
  0
LINE
  5
1D740
330
1D62A
100
AcDbEntity
  8
SUNPOU
100
AcDbLine
 10
6959.21703198606
 20
6905.715360473251
 30
0.0
 11
6959.21703198606
 21
7055.715360473252
 31
0.0
  0
LINE
  5
1D741
330
1D62A
100
AcDbEntity
  8
SUNPOU
100
AcDbLine
 10
7169.217031986057
 20
6905.715360473251
 30
0.0
 11
6959.21703198606
 21
6905.715360473251
 31
0.0
  0
SOLID
  5
1D742
330
1D62A
100
AcDbEntity
  8
SUNPOU
100
AcDbTrace
 10
7169.217031986057
 20
6890.715360473251
 30
0.0
 11
7169.217031986057
 21
6920.715360473251
 31
0.0
 12
7259.21703198606
 22
6905.715360473251
 32
0.0
 13
7259.21703198606
 23
6905.715360473251
 33
0.0
  0
LINE
  5
1D743
330
1D62A
100
AcDbEntity
  8
1PL-S1
100
AcDbLine
 10
12183.67906519162
 20
2706.983392855721
 30
0.0
 11
12815.67906519162
 21
2706.983392855721
 31
0.0
  0
LINE
  5
1D744
330
1D62A
100
AcDbEntity
  8
U1
100
AcDbLine
 10
12349.67906519164
 20
3649.176085387133
 30
0.0
 11
12349.67906519164
 21
4033.2406245664
 31
0.0
  0
LINE
  5
1D745
330
1D62A
100
AcDbEntity
  8
U1
100
AcDbLine
 10
12649.67906519162
 20
3649.176085387133
 30
0.0
 11
12649.67906519162
 21
4033.2406245664
 31
0.0
  0
LINE
  5
1D746
330
1D62A
100
AcDbEntity
  8
1PL-S1
100
AcDbLine
 10
12499.67906519162
 20
3585.176085387133
 30
0.0
 11
12499.67906519162
 21
4073.240624566401
 31
0.0
  0
CIRCLE
  5
1D747
330
1D62A
100
AcDbEntity
  8
U1
100
AcDbCircle
 10
12499.67906519162
 20
3893.176085387133
 30
0.0
 40
24.0
  0
LINE
  5
1D748
330
1D62A
100
AcDbEntity
  8
1PL-S1
100
AcDbLine
 10
12259.67906519162
 20
2630.983392855721
 30
0.0
 11
12259.67906519162
 21
2782.983392855721
 31
0.0
  0
LINE
  5
1D749
330
1D62A
100
AcDbEntity
  8
1PL-S1
100
AcDbLine
 10
12739.67906519162
 20
2630.983392855721
 30
0.0
 11
12739.67906519162
 21
2782.983392855721
 31
0.0
  0
LINE
  5
1D74A
330
1D62A
100
AcDbEntity
  8
1PL-S1
100
AcDbLine
 10
12499.67906519162
 20
2506.983392855721
 30
0.0
 11
12499.67906519162
 21
2906.983392855721
 31
0.0
  0
CIRCLE
  5
1D74B
330
1D62A
100
AcDbEntity
  8
U1
100
AcDbCircle
 10
12259.67906519162
 20
2706.983392855721
 30
0.0
 40
36.0
  0
LINE
  5
1D74C
330
1D62A
100
AcDbEntity
  8
U1
100
AcDbLine
 10
12649.67906519162
 20
2706.983392855721
 30
0.0
 11
12570.65198643327
 21
2706.983392855721
 31
0.0
  0
CIRCLE
  5
1D74D
330
1D62A
100
AcDbEntity
  8
U1
100
AcDbCircle
 10
12739.67906519162
 20
2706.983392855721
 30
0.0
 40
36.0
  0
LINE
  5
1D74E
330
1D62A
100
AcDbEntity
  8
1PL-S1
100
AcDbLine
 10
12435.67906519162
 20
3733.176085387134
 30
0.0
 11
12563.67906519162
 21
3733.176085387134
 31
0.0
  0
LINE
  5
1D74F
330
1D62A
100
AcDbEntity
  8
1PL-S1
100
AcDbLine
 10
12259.67906519163
 20
3585.176085387133
 30
0.0
 11
12259.67906519162
 21
3689.176085387134
 31
0.0
  0
LINE
  5
1D750
330
1D62A
100
AcDbEntity
  8
1PL-S1
100
AcDbLine
 10
12739.67906519162
 20
3585.176085387133
 30
0.0
 11
12739.67906519162
 21
3689.176085387134
 31
0.0
  0
CIRCLE
  5
1D751
330
1D62A
100
AcDbEntity
  8
U1
100
AcDbCircle
 10
12499.67906519162
 20
3733.176085387134
 30
0.0
 40
24.0
  0
LINE
  5
1D752
330
1D62A
100
AcDbEntity
  8
1PL-S1
100
AcDbLine
 10
12435.67906519162
 20
3893.176085387133
 30
0.0
 11
12563.67906519162
 21
3893.176085387133
 31
0.0
  0
LINE
  5
1D753
330
1D62A
100
AcDbEntity
  8
HIKIDASHI
100
AcDbLine
 10
13031.5743233676
 20
3074.500648967407
 30
0.0
 11
13615.61511893156
 21
3074.500648967407
 31
0.0
  0
TEXT
  5
1D754
330
1D62A
100
AcDbEntity
  8
HIKIDASHI
100
AcDbText
 10
13050.86432116434
 20
3119.500648967407
 30
0.0
 40
90.0
  1
プレ－ト
  7
01
 72
     2
 11
13440.86432116434
 21
3119.500648967407
 31
0.0
100
AcDbText
  0
TEXT
  5
1D755
330
1D62A
100
AcDbEntity
  8
HIKIDASHI
100
AcDbText
 10
13479.31950184674
 20
3119.500648967407
 30
0.0
 40
90.0
  1
6
 41
0.6666666666666666
  7
00
 72
     2
 11
13527.89093041817
 21
3119.500648967407
 31
0.0
100
AcDbText
  0
TEXT
  5
1D756
330
1D62A
100
AcDbEntity
  8
HIKIDASHI
100
AcDbText
 10
13565.31715231874
 20
3133.486397403372
 30
0.0
 40
89.99999909999997
  1
t
 41
0.6700000000000001
  7
00
100
AcDbText
  0
LINE
  5
1D757
330
1D62A
100
AcDbEntity
  8
1PL-M1
100
AcDbLine
 10
5758.137742396995
 20
2435.011174681359
 30
0.0
 11
5758.137742396995
 21
4182.324460358763
 31
0.0
  0
LINE
  5
1D758
330
1D62A
100
AcDbEntity
  8
KISO
100
AcDbLine
 10
7040.534465136305
 20
3460.323888222176
 30
0.0
 11
5810.137742396987
 21
3460.323888222176
 31
0.0
  0
LINE
  5
1D759
330
1D62A
100
AcDbEntity
  8
KISO
100
AcDbLine
 10
7040.534465136305
 20
3325.923888222177
 30
0.0
 11
5278.137742396996
 21
3325.923888222175
 31
0.0
  0
LINE
  5
1D75A
330
1D62A
100
AcDbEntity
  8
HATCH
100
AcDbLine
 10
5986.296202588415
 20
3460.323888222176
 30
0.0
 11
5851.896202588426
 21
3325.923888222178
 31
0.0
  0
LINE
  5
1D75B
330
1D62A
100
AcDbEntity
  8
U3
100
AcDbLine
 10
4312.302349152495
 20
3380.323888222175
 30
0.0
 11
4480.302349152498
 21
3212.32388822218
 31
0.0
  0
LINE
  5
1D75C
330
1D62A
100
AcDbEntity
  8
U3
100
AcDbLine
 10
4261.390660907062
 20
3329.412199976744
 30
0.0
 11
4378.478972661631
 21
3212.323888222175
 31
0.0
  0
LINE
  5
1D75D
330
1D62A
100
AcDbEntity
  8
U3
100
AcDbLine
 10
4548.160786662853
 20
3380.323888222175
 30
0.0
 11
3976.302349152496
 21
3380.323888222175
 31
0.0
  0
LINE
  5
1D75E
330
1D62A
100
AcDbEntity
  8
U3
100
AcDbLine
 10
4042.478972661631
 20
3314.147264713039
 30
0.0
 11
4108.655596170764
 21
3380.323888222174
 31
0.0
  0
LINE
  5
1D75F
330
1D62A
100
AcDbEntity
  8
U3
100
AcDbLine
 10
3976.302349152496
 20
3380.323888222174
 30
0.0
 11
4144.302349152495
 21
3212.323888222178
 31
0.0
  0
LINE
  5
1D760
330
1D62A
100
AcDbEntity
  8
U3
100
AcDbLine
 10
4093.390660907064
 20
3263.235576467609
 30
0.0
 11
4210.478972661631
 21
3380.323888222174
 31
0.0
  0
LINE
  5
1D761
330
1D62A
100
AcDbEntity
  8
U3
100
AcDbLine
 10
4144.302349152495
 20
3212.323888222178
 30
0.0
 11
4312.302349152495
 21
3380.323888222175
 31
0.0
  0
LINE
  5
1D762
330
1D62A
100
AcDbEntity
  8
U3
100
AcDbLine
 10
4210.478972661631
 20
3278.500511731312
 30
0.0
 11
4276.655596170768
 21
3212.323888222175
 31
0.0
  0
LINE
  5
1D763
330
1D62A
100
AcDbEntity
  8
U3
100
AcDbLine
 10
4480.302349152498
 20
3212.32388822218
 30
0.0
 11
4548.160786662853
 21
3280.182325732535
 31
0.0
  0
LINE
  5
1D764
330
1D62A
100
AcDbEntity
  8
U3
100
AcDbLine
 10
4378.478972661631
 20
3314.14726471304
 30
0.0
 11
4444.655596170764
 21
3380.323888222175
 31
0.0
  0
LINE
  5
1D765
330
1D62A
100
AcDbEntity
  8
U3
100
AcDbLine
 10
4429.390660907063
 20
3263.235576467611
 30
0.0
 11
4546.478972661634
 21
3380.323888222175
 31
0.0
  0
LINE
  5
1D766
330
1D62A
100
AcDbEntity
  8
HASHIRA
100
AcDbLine
 10
5810.137742396987
 20
3335.52388822218
 30
0.0
 11
5810.137742396987
 21
3725.757093422924
 31
0.0
  0
LINE
  5
1D767
330
1D62A
100
AcDbEntity
  8
HASHIRA
100
AcDbLine
 10
5706.137742396987
 20
3725.757093422924
 30
0.0
 11
5706.137742396987
 21
3335.52388822218
 31
0.0
  0
LINE
  5
1D768
330
1D62A
100
AcDbEntity
  8
U3
100
AcDbLine
 10
5118.137742396996
 20
3380.323888222175
 30
0.0
 11
4868.160786662853
 21
3380.323888222175
 31
0.0
  0
LINE
  5
1D769
330
1D62A
100
AcDbEntity
  8
U3
100
AcDbLine
 10
4934.106034029378
 20
3335.34141873192
 30
0.0
 11
5057.123564539126
 21
3212.323888222175
 31
0.0
  0
LINE
  5
1D76A
330
1D62A
100
AcDbEntity
  8
KISO
100
AcDbLine
 10
5706.137742396987
 20
3460.323888222176
 30
0.0
 11
5118.137742396996
 21
3460.323888222176
 31
0.0
  0
LINE
  5
1D76B
330
1D62A
100
AcDbEntity
  8
HATCH
100
AcDbLine
 10
5789.655318092737
 20
3325.923888222182
 30
0.0
 11
5768.537742396997
 21
3304.806312526439
 31
0.0
  0
LINE
  5
1D76C
330
1D62A
100
AcDbEntity
  8
KISO
100
AcDbLine
 10
6238.137742397004
 20
3197.923888222176
 30
0.0
 11
7040.534465136305
 21
3197.923888222177
 31
0.0
  0
LINE
  5
1D76D
330
1D62A
100
AcDbEntity
  8
HATCH
100
AcDbLine
 10
6993.813778284151
 20
3460.323888222176
 30
0.0
 11
6859.413778284165
 21
3325.923888222177
 31
0.0
  0
LINE
  5
1D76E
330
1D62A
100
AcDbEntity
  8
HATCH
100
AcDbLine
 10
7041.331353979891
 20
3460.323888222176
 30
0.0
 11
6906.931353979896
 21
3325.923888222177
 31
0.0
  0
LINE
  5
1D76F
330
1D62A
100
AcDbEntity
  8
HATCH
100
AcDbLine
 10
6466.296202588414
 20
3460.323888222176
 30
0.0
 11
6331.896202588422
 21
3325.923888222178
 31
0.0
  0
LINE
  5
1D770
330
1D62A
100
AcDbEntity
  8
HATCH
100
AcDbLine
 10
6513.813778284151
 20
3460.323888222176
 30
0.0
 11
6379.413778284165
 21
3325.923888222177
 31
0.0
  0
LINE
  5
1D771
330
1D62A
100
AcDbEntity
  8
HATCH
100
AcDbLine
 10
6081.331353979892
 20
3460.323888222176
 30
0.0
 11
5946.931353979896
 21
3325.923888222177
 31
0.0
  0
LINE
  5
1D772
330
1D62A
100
AcDbEntity
  8
HATCH
100
AcDbLine
 10
6033.813778284152
 20
3460.323888222176
 30
0.0
 11
5899.413778284166
 21
3325.923888222177
 31
0.0
  0
LINE
  5
1D773
330
1D62A
100
AcDbEntity
  8
HATCH
100
AcDbLine
 10
6561.331353979891
 20
3460.323888222176
 30
0.0
 11
6426.931353979897
 21
3325.923888222177
 31
0.0
  0
LINE
  5
1D774
330
1D62A
100
AcDbEntity
  8
HATCH
100
AcDbLine
 10
6946.296202588415
 20
3460.323888222176
 30
0.0
 11
6811.89620258842
 21
3325.923888222178
 31
0.0
  0
LINE
  5
1D775
330
1D62A
100
AcDbEntity
  8
KISO
100
AcDbLine
 10
5278.137742396996
 20
3325.923888222175
 30
0.0
 11
5278.137742396996
 21
2717.923888222177
 31
0.0
  0
LINE
  5
1D776
330
1D62A
100
AcDbEntity
  8
KISO
100
AcDbLine
 10
6238.137742396994
 20
3325.923888222175
 30
0.0
 11
6238.137742396994
 21
2717.923888222177
 31
0.0
  0
LINE
  5
1D777
330
1D62A
100
AcDbEntity
  8
HATCH
100
AcDbLine
 10
6238.137742396994
 20
2910.406312526436
 30
0.0
 11
6045.655318092737
 21
2717.923888222177
 31
0.0
  0
LINE
  5
1D778
330
1D62A
100
AcDbEntity
  8
HATCH
100
AcDbLine
 10
6238.137742396994
 20
3294.888736830703
 30
0.0
 11
5661.172893788478
 21
2717.923888222177
 31
0.0
  0
LINE
  5
1D779
330
1D62A
100
AcDbEntity
  8
HATCH
100
AcDbLine
 10
6221.655318092736
 20
3325.923888222173
 30
0.0
 11
5768.537742396997
 21
2872.806312526432
 31
0.0
  0
LINE
  5
1D77A
330
1D62A
100
AcDbEntity
  8
HATCH
100
AcDbLine
 10
6174.137742396994
 20
3325.923888222173
 30
0.0
 11
5768.537742396997
 21
2920.323888222171
 31
0.0
  0
LINE
  5
1D77B
330
1D62A
100
AcDbEntity
  8
HATCH
100
AcDbLine
 10
6238.137742396994
 20
2862.888736830697
 30
0.0
 11
6093.172893788478
 21
2717.923888222177
 31
0.0
  0
LINE
  5
1D77C
330
1D62A
100
AcDbEntity
  8
HATCH
100
AcDbLine
 10
6238.137742396994
 20
2815.371161134964
 30
0.0
 11
6140.69046948421
 21
2717.923888222177
 31
0.0
  0
LINE
  5
1D77D
330
1D62A
100
AcDbEntity
  8
HATCH
100
AcDbLine
 10
5742.137742397012
 20
3325.923888222182
 30
0.0
 11
5278.137742396996
 21
2861.923888222166
 31
0.0
  0
LINE
  5
1D77E
330
1D62A
100
AcDbEntity
  8
HATCH
100
AcDbLine
 10
5694.620166701263
 20
3325.923888222177
 30
0.0
 11
5278.137742396996
 21
2909.441463917907
 31
0.0
  0
LINE
  5
1D77F
330
1D62A
100
AcDbEntity
  8
HATCH
100
AcDbLine
 10
5747.737742396994
 20
3284.006312526437
 30
0.0
 11
5278.137742396996
 21
2814.406312526436
 31
0.0
  0
LINE
  5
1D780
330
1D62A
100
AcDbEntity
  8
HATCH
100
AcDbLine
 10
5310.137742397003
 20
3325.923888222175
 30
0.0
 11
5278.137742396996
 21
3293.923888222169
 31
0.0
  0
LINE
  5
1D781
330
1D62A
100
AcDbEntity
  8
HATCH
100
AcDbLine
 10
5747.737742396994
 20
2899.523888222169
 30
0.0
 11
5724.537742397011
 21
2876.323888222183
 31
0.0
  0
LINE
  5
1D782
330
1D62A
100
AcDbEntity
  8
HATCH
100
AcDbLine
 10
5703.737742397012
 20
2855.523888222182
 30
0.0
 11
5566.137742397007
 21
2717.923888222177
 31
0.0
  0
LINE
  5
1D783
330
1D62A
100
AcDbEntity
  8
U3
100
AcDbLine
 10
4883.194345783946
 20
3284.429730486489
 30
0.0
 11
4955.300188048265
 21
3212.323888222175
 31
0.0
  0
LINE
  5
1D784
330
1D62A
100
AcDbEntity
  8
U3
100
AcDbLine
 10
4868.160786662853
 20
3269.396171365396
 30
0.0
 11
4979.088503519632
 21
3380.323888222174
 31
0.0
  0
LINE
  5
1D785
330
1D62A
100
AcDbEntity
  8
HATCH
100
AcDbLine
 10
5751.255318092752
 20
2855.523888222182
 30
0.0
 11
5613.655318092747
 21
2717.923888222177
 31
0.0
  0
LINE
  5
1D786
330
1D62A
100
AcDbEntity
  8
HATCH
100
AcDbLine
 10
5601.331353979893
 20
3460.323888222176
 30
0.0
 11
5466.931353979897
 21
3325.923888222177
 31
0.0
  0
LINE
  5
1D787
330
1D62A
100
AcDbEntity
  8
HATCH
100
AcDbLine
 10
5553.813778284151
 20
3460.323888222176
 30
0.0
 11
5419.413778284166
 21
3325.923888222177
 31
0.0
  0
LINE
  5
1D788
330
1D62A
100
AcDbEntity
  8
HATCH
100
AcDbLine
 10
5506.296202588416
 20
3460.323888222176
 30
0.0
 11
5371.896202588426
 21
3325.923888222178
 31
0.0
  0
LINE
  5
1D789
330
1D62A
100
AcDbEntity
  8
SUNPOU
100
AcDbLine
 10
5758.137742396995
 20
4137.324460358764
 30
0.0
 11
7183.368249647246
 21
4137.324460358764
 31
0.0
  0
TEXT
  5
1D78A
330
1D62A
100
AcDbEntity
  8
SUNPOU
100
AcDbText
 10
6543.965441537459
 20
4182.324460358762
 30
0.0
 40
90.0
  1
2450
 41
0.6666666666666666
  7
00
 72
     4
 11
6658.251155823174
 21
4227.324460358762
 31
0.0
100
AcDbText
  0
LINE
  5
1D78B
330
1D62A
100
AcDbEntity
  8
HATCH
100
AcDbLine
 10
5812.734204289836
 20
2557.923888222175
 30
0.0
 11
5905.110246956501
 21
2717.923888222177
 31
0.0
  0
LINE
  5
1D78C
330
1D62A
100
AcDbEntity
  8
HATCH
100
AcDbLine
 10
5851.776913623166
 20
2717.923888222177
 30
0.0
 11
5878.443580289835
 21
2671.735865555513
 31
0.0
  0
LINE
  5
1D78D
330
1D62A
100
AcDbEntity
  8
HATCH
100
AcDbLine
 10
5839.400870956501
 20
2604.111909555508
 30
0.0
 11
5866.06753762317
 21
2557.923888222175
 31
0.0
  0
LINE
  5
1D78E
330
1D62A
100
AcDbEntity
  8
HATCH
100
AcDbLine
 10
5639.400870956501
 20
2604.111909555508
 30
0.0
 11
5666.06753762317
 21
2557.923888222175
 31
0.0
  0
LINE
  5
1D78F
330
1D62A
100
AcDbEntity
  8
HATCH
100
AcDbLine
 10
5651.776913623166
 20
2717.923888222177
 30
0.0
 11
5678.443580289835
 21
2671.735865555513
 31
0.0
  0
LINE
  5
1D790
330
1D62A
100
AcDbEntity
  8
HATCH
100
AcDbLine
 10
5439.400870956502
 20
2604.111909555508
 30
0.0
 11
5466.06753762317
 21
2557.923888222175
 31
0.0
  0
LINE
  5
1D791
330
1D62A
100
AcDbEntity
  8
HATCH
100
AcDbLine
 10
5412.734204289836
 20
2557.923888222175
 30
0.0
 11
5505.110246956501
 21
2717.923888222177
 31
0.0
  0
LINE
  5
1D792
330
1D62A
100
AcDbEntity
  8
HATCH
100
AcDbLine
 10
5451.776913623167
 20
2717.923888222177
 30
0.0
 11
5478.443580289835
 21
2671.735865555513
 31
0.0
  0
LINE
  5
1D793
330
1D62A
100
AcDbEntity
  8
HATCH
100
AcDbLine
 10
5239.400870956502
 20
2604.111909555508
 30
0.0
 11
5266.06753762317
 21
2557.923888222175
 31
0.0
  0
LINE
  5
1D794
330
1D62A
100
AcDbEntity
  8
HATCH
100
AcDbLine
 10
5251.776913623167
 20
2717.923888222177
 30
0.0
 11
5278.443580289835
 21
2671.735865555513
 31
0.0
  0
LINE
  5
1D795
330
1D62A
100
AcDbEntity
  8
HATCH
100
AcDbLine
 10
5212.734204289835
 20
2557.923888222175
 30
0.0
 11
5305.110246956502
 21
2717.923888222177
 31
0.0
  0
LINE
  5
1D796
330
1D62A
100
AcDbEntity
  8
HATCH
100
AcDbLine
 10
5612.734204289836
 20
2557.923888222175
 30
0.0
 11
5705.110246956501
 21
2717.923888222177
 31
0.0
  0
LINE
  5
1D797
330
1D62A
100
AcDbEntity
  8
HATCH
100
AcDbLine
 10
6051.776913623166
 20
2717.923888222177
 30
0.0
 11
6078.443580289835
 21
2671.735865555513
 31
0.0
  0
LINE
  5
1D798
330
1D62A
100
AcDbEntity
  8
HATCH
100
AcDbLine
 10
6012.734204289836
 20
2557.923888222175
 30
0.0
 11
6105.110246956502
 21
2717.923888222177
 31
0.0
  0
LINE
  5
1D799
330
1D62A
100
AcDbEntity
  8
HATCH
100
AcDbLine
 10
6039.400870956502
 20
2604.111909555508
 30
0.0
 11
6066.06753762317
 21
2557.923888222175
 31
0.0
  0
TEXT
  5
1D79A
330
1D62A
100
AcDbEntity
  8
SUNPOU
100
AcDbText
 10
4028.402207262
 20
3515.323888222175
 30
0.0
 40
90.0
  1
G.L
 41
0.6700000000000001
  7
01
 72
     4
 11
4100.187921547713
 21
3560.323888222176
 31
0.0
100
AcDbText
  0
LINE
  5
1D79B
330
1D62A
100
AcDbEntity
  8
SUNPOU
100
AcDbLine
 10
4152.149445774781
 20
3470.323888222176
 30
0.0
 11
4048.226397320648
 21
3470.323888222176
 31
0.0
  0
LINE
  5
1D79C
330
1D62A
100
AcDbEntity
  8
SUNPOU
100
AcDbLine
 10
4048.226397320648
 20
3470.323888222176
 30
0.0
 11
4100.187921547713
 21
3380.323888222175
 31
0.0
  0
LINE
  5
1D79D
330
1D62A
100
AcDbEntity
  8
SUNPOU
100
AcDbLine
 10
4100.187921547713
 20
3380.323888222175
 30
0.0
 11
4152.149445774781
 21
3470.323888222176
 31
0.0
  0
TEXT
  5
1D79E
330
1D62A
100
AcDbEntity
  8
HIKIDASHI
100
AcDbText
 10
5834.341345275769
 20
1671.474869379508
 30
0.0
 40
90.0
  1
断 面
  7
01
100
AcDbText
  0
LINE
  5
1D79F
330
1D62A
100
AcDbEntity
  8
HIKIDASHI
100
AcDbLine
 10
5410.324065779207
 20
1626.474869379508
 30
0.0
 11
6105.951419014776
 21
1626.474869379508
 31
0.0
  0
LINE
  5
1D7A0
330
1D62A
100
AcDbEntity
  8
HIKIDASHI
100
AcDbLine
 10
5410.324065779207
 20
1596.474869379508
 30
0.0
 11
6105.951419014776
 21
1596.474869379508
 31
0.0
  0
TEXT
  5
1D7A1
330
1D62A
100
AcDbEntity
  8
HIKIDASHI
100
AcDbText
 10
5440.324065779208
 20
1671.474869379508
 30
0.0
 40
90.0
  1
A  ~  A'
 41
0.6700000000000001
  7
00
100
AcDbText
  0
TEXT
  5
1D7A2
330
1D62A
100
AcDbEntity
  8
HIKIDASHI
100
AcDbText
 10
6677.046222822155
 20
2955.953755823452
 30
0.0
 40
90.0
  1
敷砂利又は砕石
  7
01
 72
     2
 11
7409.046222822155
 21
3000.953755823453
 31
0.0
100
AcDbText
 73
     2
  0
LINE
  5
1D7A3
330
1D62A
100
AcDbEntity
  8
HIKIDASHI
100
AcDbLine
 10
7434.276523467835
 20
2910.953755823452
 30
0.0
 11
6633.212353740688
 21
2910.953755823452
 31
0.0
  0
TEXT
  5
1D7A4
330
1D62A
100
AcDbEntity
  8
HIKIDASHI
100
AcDbText
 10
6641.746395524101
 20
2400.143287355454
 30
0.0
 40
90.0
  1
砕　石
  7
01
 72
     2
 11
6941.746395524102
 21
2445.143287355454
 31
0.0
100
AcDbText
 73
     2
  0
LINE
  5
1D7A5
330
1D62A
100
AcDbEntity
  8
HIKIDASHI
100
AcDbLine
 10
6983.445164759816
 20
2355.143287355454
 30
0.0
 11
6614.678787932191
 21
2355.143287355454
 31
0.0
  0
TEXT
  5
1D7A6
330
1D62A
100
AcDbEntity
  8
SUNPOU
100
AcDbText
 10
6555.832451685846
 20
2585.723754658951
 30
0.0
 40
90.0
  1
4-D13×4-D13
 41
0.6700000000000001
  7
01
 72
     4
 11
6899.255308828704
 21
2630.723754658951
 31
0.0
100
AcDbText
  0
TEXT
  5
1D7A7
330
1D62A
100
AcDbEntity
  8
SUNPOU
100
AcDbText
 10
6690.948165971561
 20
2720.723754658949
 30
0.0
 40
90.0
  1
ベース筋
  7
01
 72
     4
 11
6894.94816597156
 21
2765.723754658949
 31
0.0
100
AcDbText
  0
TEXT
  5
1D7A8
330
1D62A
100
AcDbEntity
  8
HIKIDASHI
100
AcDbText
 10
4282.185726293611
 20
1821.71791807292
 30
0.0
 40
89.55223880597014
  1
x
 41
0.6700000000000001
  7
00
100
AcDbText
  0
TEXT
  5
1D7A9
330
1D62A
100
AcDbEntity
  8
HIKIDASHI
100
AcDbText
 10
4210.350789103236
 20
1809.927442830507
 30
0.0
 40
67.16417910447761
  1
2
 41
0.6700000000000001
  7
00
100
AcDbText
  0
TEXT
  5
1D7AA
330
1D62A
100
AcDbEntity
  8
HIKIDASHI
100
AcDbText
 10
4122.458752544313
 20
1836.953497861068
 30
0.0
 40
67.16417910447761
  1
1
 41
0.6700000000000001
  7
00
100
AcDbText
  0
TEXT
  5
1D7AB
330
1D62A
100
AcDbEntity
  8
HIKIDASHI
100
AcDbText
 10
4047.857941861089
 20
1810.523888222174
 30
0.0
 40
89.55223880597014
  1
W ／
 41
0.6700000000000001
  7
00
100
AcDbText
  0
TEXT
  5
1D7AC
330
1D62A
100
AcDbEntity
  8
HIKIDASHI
100
AcDbText
 10
4363.321105446742
 20
1810.314902022082
 30
0.0
 40
89.55223880597014
  1
300
 41
0.6700000000000001
  7
00
100
AcDbText
  0
TEXT
  5
1D7AD
330
1D62A
100
AcDbEntity
  8
HIKIDASHI
100
AcDbText
 10
4047.857941861089
 20
1990.523888222173
 30
0.0
 40
90.0
  1
アンカーボルト
  7
01
100
AcDbText
  0
LINE
  5
1D7AE
330
1D62A
100
AcDbEntity
  8
HIKIDASHI
100
AcDbLine
 10
4018.778332999384
 20
1945.523888222172
 30
0.0
 11
4838.784346396234
 21
1945.523888222172
 31
0.0
  0
TEXT
  5
1D7AF
330
1D62A
100
AcDbEntity
  8
SUNPOU
100
AcDbText
 10
4610.06643454631
 20
5217.936004918009
 30
0.0
 40
46.28539285937498
  1
2
 41
0.6700000000000001
  7
00
100
AcDbText
  0
TEXT
  5
1D7B0
330
1D62A
100
AcDbEntity
  8
SUNPOU
100
AcDbText
 10
4305.601952514906
 20
5167.747578560521
 30
0.0
 40
89.9993750043402
  1
N/mm
 41
0.6700000000000001
  7
01
100
AcDbText
  0
TEXT
  5
1D7B1
330
1D62A
100
AcDbEntity
  8
SUNPOU
100
AcDbText
 10
4169.765499728955
 20
5167.747578560521
 30
0.0
 40
89.9993750043402
  1
18
 41
0.6700000000000001
  7
01
100
AcDbText
  0
LINE
  5
1D7B2
330
1D62A
100
AcDbEntity
  8
SUNPOU
100
AcDbLine
 10
3579.160152777156
 20
5013.46186427481
 30
0.0
 11
3579.160152777156
 21
5096.954227973589
 31
0.0
  0
LINE
  5
1D7B3
330
1D62A
100
AcDbEntity
  8
SUNPOU
100
AcDbLine
 10
3562.285152777156
 20
5013.46186427481
 30
0.0
 11
3562.285152777156
 21
5096.954227973589
 31
0.0
  0
LINE
  5
1D7B4
330
1D62A
100
AcDbEntity
  8
SUNPOU
100
AcDbLine
 10
3545.410152777156
 20
5013.46186427481
 30
0.0
 11
3545.410152777156
 21
5096.954227973589
 31
0.0
  0
LINE
  5
1D7B5
330
1D62A
100
AcDbEntity
  8
SUNPOU
100
AcDbLine
 10
3534.160152777156
 20
5013.461864274806
 30
0.0
 11
3590.410152777156
 21
5013.461864274806
 31
0.0
  0
LINE
  5
1D7B6
330
1D62A
100
AcDbEntity
  8
SUNPOU
100
AcDbLine
 10
3534.160152777156
 20
5096.954227973589
 30
0.0
 11
3590.410152777156
 21
5096.954227973589
 31
0.0
  0
ARC
  5
1D7B7
330
1D62A
100
AcDbEntity
  8
SUNPOU
100
AcDbCircle
 10
4744.190368119393
 20
5131.535002002352
 30
0.0
 40
225.0
100
AcDbArc
 50
328.3472725282801
 51
31.6527274717198
  0
TEXT
  5
1D7B8
330
1D62A
100
AcDbEntity
  8
SUNPOU
100
AcDbText
 10
2520.079608149966
 20
5217.936004918009
 30
0.0
 40
46.28539285937498
  1
2
 41
0.6700000000000001
  7
00
100
AcDbText
  0
TEXT
  5
1D7B9
330
1D62A
100
AcDbEntity
  8
SUNPOU
100
AcDbText
 10
2252.439451421583
 20
5167.747578560521
 30
0.0
 40
71.99950000347218
  1
K
 41
0.6700000000000001
  7
01
100
AcDbText
  0
TEXT
  5
1D7BA
330
1D62A
100
AcDbEntity
  8
SUNPOU
100
AcDbText
 10
2116.602998635628
 20
5167.747578560521
 30
0.0
 40
89.9993750043402
  1
50  N/m
 41
0.6700000000000001
  7
01
100
AcDbText
  0
ARC
  5
1D7BB
330
1D62A
100
AcDbEntity
  8
SUNPOU
100
AcDbCircle
 10
1895.302865117752
 20
5131.535002002352
 30
0.0
 40
225.0
100
AcDbArc
 50
148.3472725282801
 51
211.6527274717198
  0
TEXT
  5
1D7BC
330
1D62A
100
AcDbEntity
  8
SUNPOU
100
AcDbText
 10
2226.108019875714
 20
5013.46186427481
 30
0.0
 40
89.9993750043402
  1
34 m/s
 41
0.6700000000000001
  7
01
100
AcDbText
  0
TEXT
  5
1D7BD
330
1D62A
100
AcDbEntity
  8
SUNPOU
100
AcDbText
 10
1742.344591210546
 20
5013.46186427481
 30
0.0
 40
89.9993750043402
  1
基準風速   　　 , 地表面粗度区分
  7
01
100
AcDbText
  0
TEXT
  5
1D7BE
330
1D62A
100
AcDbEntity
  8
SUNPOU
100
AcDbText
 10
1742.344591210546
 20
5167.747578560521
 30
0.0
 40
89.9993750043402
  1
地耐力   　　　 以上,コンクリート設計基準強度　　　　　以上
  7
01
100
AcDbText
  0
TEXT
  5
1D7BF
330
1D62A
100
AcDbEntity
  8
SUNPOU
100
AcDbText
 10
1911.094591210546
 20
4479.890435703381
 30
0.0
 40
90.0
  1
2
 41
0.6700000000000001
  7
01
100
AcDbText
  0
TEXT
  5
1D7C0
330
1D62A
100
AcDbEntity
  8
SUNPOU
100
AcDbText
 10
1800.460670997804
 20
4479.890435703381
 30
0.0
 40
90.0
  1
注　）
  7
01
100
AcDbText
  0
TEXT
  5
1D7C1
330
1D62A
100
AcDbEntity
  8
SUNPOU
100
AcDbText
 10
1800.460670997804
 20
4788.461864274808
 30
0.0
 40
90.0
  1
注　）
  7
01
100
AcDbText
  0
TEXT
  5
1D7C2
330
1D62A
100
AcDbEntity
  8
SUNPOU
100
AcDbText
 10
1911.094591210546
 20
4788.461864274808
 30
0.0
 40
90.0
  1
1
 41
0.6700000000000001
  7
01
100
AcDbText
  0
TEXT
  5
1D7C3
330
1D62A
100
AcDbEntity
  8
SUNPOU
100
AcDbText
 10
2117.30033629994
 20
4634.17614998909
 30
0.0
 40
90.0
  1
あわせて設計して下さい。
  7
01
100
AcDbText
  0
TEXT
  5
1D7C4
330
1D62A
100
AcDbEntity
  8
SUNPOU
100
AcDbText
 10
2117.30033629994
 20
4479.890435703381
 30
0.0
 40
90.0
  1
その他現地の実情にあわせて設計して下さい。
  7
01
100
AcDbText
  0
TEXT
  5
1D7C5
330
1D62A
100
AcDbEntity
  8
SUNPOU
100
AcDbText
 10
2117.30033629994
 20
4788.461864274808
 30
0.0
 40
90.0
  1
寒冷地の場合、凍結深度等を考慮し、実情に
  7
01
100
AcDbText
  0
TEXT
  5
1D7C6
330
1D62A
100
AcDbEntity
  8
SUNPOU
100
AcDbText
 10
1611.780962494316
 20
5357.001581006478
 30
0.0
 40
90.0
  1
<下記条件での参考図>
  7
01
 72
     4
 11
2200.638105351459
 21
5402.001581006479
 31
0.0
100
AcDbText
  0
TEXT
  5
1D7C7
330
1D62A
100
AcDbEntity
  8
SUNPOU
100
AcDbText
 10
2822.097271882885
 20
5524.347734852633
 30
0.0
 40
73.84615384615384
  1
/
 41
0.6700000000000001
  7
00
 11
2822.097271882885
 21
5514.501581006479
 31
0.0
100
AcDbText
 73
     1
  0
TEXT
  5
1D7C8
330
1D62A
100
AcDbEntity
  8
SUNPOU
100
AcDbText
 10
2886.046714837254
 20
5505.886196391093
 30
0.0
 40
73.84615384615384
  1
25
 41
0.6700000000000001
  7
00
 11
2886.046714837254
 21
5496.040042544939
 31
0.0
100
AcDbText
 73
     1
  0
TEXT
  5
1D7C9
330
1D62A
100
AcDbEntity
  8
SUNPOU
100
AcDbText
 10
2773.691144567513
 20
5542.809273314171
 30
0.0
 40
73.84615384615384
  1
1
 41
0.6700000000000001
  7
00
 11
2773.691144567513
 21
5532.963119468017
 31
0.0
100
AcDbText
 73
     1
  0
TEXT
  5
1D7CA
330
1D62A
100
AcDbEntity
  8
SUNPOU
100
AcDbText
 10
2453.988442714428
 20
5526.809273314171
 30
0.0
 40
92.30769230769228
  1
（ S = 　　  ）
 41
0.6700000000000001
  7
00
 11
2453.988442714428
 21
5514.501581006479
 31
0.0
100
AcDbText
 73
     1
  0
TEXT
  5
1D7CB
330
1D62A
100
AcDbEntity
  8
SUNPOU
100
AcDbText
 10
1737.138105351459
 20
5514.501581006477
 30
0.0
 40
120.0
  1
基礎断面図
  7
01
 72
     4
 11
2077.138105351459
 21
5574.501581006478
 31
0.0
100
AcDbText
  0
TEXT
  5
1D7CC
330
1D62A
100
AcDbEntity
  8
SUNPOU
100
AcDbText
 10
11708.39210130901
 20
1681.425310637645
 30
0.0
 40
120.0
  1
柱脚金具詳細図
  7
01
 72
     4
 11
12192.39210130901
 21
1741.425310637644
 31
0.0
100
AcDbText
  0
TEXT
  5
1D7CD
330
1D62A
100
AcDbEntity
  8
SUNPOU
100
AcDbText
 10
13104.50093047746
 20
1678.963772176106
 30
0.0
 40
73.84615384615384
  1
/
 41
0.6700000000000001
  7
00
 11
13104.50093047746
 21
1669.117618329952
 31
0.0
100
AcDbText
 73
     1
  0
TEXT
  5
1D7CE
330
1D62A
100
AcDbEntity
  8
SUNPOU
100
AcDbText
 10
13168.45037343182
 20
1660.502233714566
 30
0.0
 40
73.84615384615384
  1
10
 41
0.6700000000000001
  7
00
 11
13168.45037343182
 21
1650.656079868412
 31
0.0
100
AcDbText
 73
     1
  0
TEXT
  5
1D7CF
330
1D62A
100
AcDbEntity
  8
SUNPOU
100
AcDbText
 10
13056.09480316209
 20
1697.425310637645
 30
0.0
 40
73.84615384615384
  1
1
 41
0.6700000000000001
  7
00
 11
13056.09480316209
 21
1687.579156791491
 31
0.0
100
AcDbText
 73
     1
  0
TEXT
  5
1D7D0
330
1D62A
100
AcDbEntity
  8
SUNPOU
100
AcDbText
 10
12736.39210130901
 20
1681.425310637644
 30
0.0
 40
92.30769230769228
  1
（ S = 　　  ）
 41
0.6700000000000001
  7
00
 11
12736.39210130901
 21
1669.117618329952
 31
0.0
100
AcDbText
 73
     1
  0
LINE
  5
1D7D1
330
1D62A
100
AcDbEntity
  8
HATCH
100
AcDbLine
 10
6251.776913623166
 20
2717.923888222177
 30
0.0
 11
6278.443580289835
 21
2671.735865555513
 31
0.0
  0
LINE
  5
1D7D2
330
1D62A
100
AcDbEntity
  8
HATCH
100
AcDbLine
 10
6212.734204289836
 20
2557.923888222175
 30
0.0
 11
6305.110246956502
 21
2717.923888222177
 31
0.0
  0
LINE
  5
1D7D3
330
1D62A
100
AcDbEntity
  8
HATCH
100
AcDbLine
 10
6239.400870956501
 20
2604.111909555508
 30
0.0
 11
6266.06753762317
 21
2557.923888222175
 31
0.0
  0
CIRCLE
  5
1D7D4
330
1D62A
100
AcDbEntity
  8
BOLT
100
AcDbCircle
 10
9538.463942920641
 20
3433.123888222172
 30
0.0
 40
13.2
  0
CIRCLE
  5
1D7D5
330
1D62A
100
AcDbEntity
  8
BOLT
100
AcDbCircle
 10
9538.463942920641
 20
3433.123888222172
 30
0.0
 40
16.8
  0
CIRCLE
  5
1D7D6
330
1D62A
100
AcDbEntity
  8
BOLT
100
AcDbCircle
 10
9538.463942920641
 20
3369.123888222172
 30
0.0
 40
16.8
  0
CIRCLE
  5
1D7D7
330
1D62A
100
AcDbEntity
  8
BOLT
100
AcDbCircle
 10
9538.463942920641
 20
3369.123888222172
 30
0.0
 40
13.2
  0
LINE
  5
1D7D8
330
1D62A
100
AcDbEntity
  8
KISO
100
AcDbLine
 10
10820.86066565994
 20
3460.323888222177
 30
0.0
 11
9590.463942920637
 21
3460.323888222176
 31
0.0
  0
LINE
  5
1D7D9
330
1D62A
100
AcDbEntity
  8
KISO
100
AcDbLine
 10
8256.067220181336
 20
3197.923888222172
 30
0.0
 11
8898.46394292064
 21
3197.923888222172
 31
0.0
  0
LINE
  5
1D7DA
330
1D62A
100
AcDbEntity
  8
KISO
100
AcDbLine
 10
10178.46394292064
 20
3197.923888222173
 30
0.0
 11
10820.86066565995
 21
3197.923888222176
 31
0.0
  0
LINE
  5
1D7DB
330
1D62A
100
AcDbEntity
  8
KISO
100
AcDbLine
 10
9486.463942920636
 20
3460.323888222176
 30
0.0
 11
8256.06722018133
 21
3460.323888222177
 31
0.0
  0
LINE
  5
1D7DC
330
1D62A
100
AcDbEntity
  8
HASHIRA
100
AcDbLine
 10
9590.46394292064
 20
3340.323888222175
 30
0.0
 11
9590.463942920633
 21
3590.324460358764
 31
0.0
  0
LINE
  5
1D7DD
330
1D62A
100
AcDbEntity
  8
HASHIRA
100
AcDbLine
 10
9486.463942920641
 20
3590.324460358764
 30
0.0
 11
9486.463942920641
 21
3340.323888222175
 31
0.0
  0
LINE
  5
1D7DE
330
1D62A
100
AcDbEntity
  8
HATCH
100
AcDbLine
 10
9289.822403112067
 20
3463.523888222177
 30
0.0
 11
9152.222403112068
 21
3325.923888222177
 31
0.0
  0
LINE
  5
1D7DF
330
1D62A
100
AcDbEntity
  8
HATCH
100
AcDbLine
 10
9384.857554503538
 20
3463.523888222177
 30
0.0
 11
9247.257554503539
 21
3325.923888222175
 31
0.0
  0
LINE
  5
1D7E0
330
1D62A
100
AcDbEntity
  8
HATCH
100
AcDbLine
 10
9337.339978807806
 20
3463.523888222177
 30
0.0
 11
9199.739978807803
 21
3325.923888222175
 31
0.0
  0
LINE
  5
1D7E1
330
1D62A
100
AcDbEntity
  8
1PL-S1
100
AcDbLine
 10
9426.463942920639
 20
3316.323888222175
 30
0.0
 11
9426.463942920639
 21
3345.123888222178
 31
0.0
  0
LINE
  5
1D7E2
330
1D62A
100
AcDbEntity
  8
HATCH
100
AcDbLine
 10
9766.622403112064
 20
3460.323888222176
 30
0.0
 11
9632.222403112061
 21
3325.923888222175
 31
0.0
  0
LINE
  5
1D7E3
330
1D62A
100
AcDbEntity
  8
HATCH
100
AcDbLine
 10
9814.139978807803
 20
3460.323888222176
 30
0.0
 11
9679.739978807804
 21
3325.923888222175
 31
0.0
  0
LINE
  5
1D7E4
330
1D62A
100
AcDbEntity
  8
1PL-S1
100
AcDbLine
 10
9650.463942920641
 20
3316.32388822217
 30
0.0
 11
9650.463942920641
 21
3345.123888222172
 31
0.0
  0
LINE
  5
1D7E5
330
1D62A
100
AcDbEntity
  8
HATCH
100
AcDbLine
 10
9861.657554503537
 20
3460.323888222176
 30
0.0
 11
9727.257554503538
 21
3325.923888222175
 31
0.0
  0
LINE
  5
1D7E6
330
1D62A
100
AcDbEntity
  8
HATCH
100
AcDbLine
 10
10246.62240311206
 20
3460.323888222176
 30
0.0
 11
10112.22240311205
 21
3325.923888222175
 31
0.0
  0
LINE
  5
1D7E7
330
1D62A
100
AcDbEntity
  8
HATCH
100
AcDbLine
 10
10294.13997880779
 20
3460.323888222176
 30
0.0
 11
10159.7399788078
 21
3325.923888222175
 31
0.0
  0
LINE
  5
1D7E8
330
1D62A
100
AcDbEntity
  8
HATCH
100
AcDbLine
 10
10341.65755450354
 20
3460.323888222176
 30
0.0
 11
10207.25755450353
 21
3325.923888222175
 31
0.0
  0
LINE
  5
1D7E9
330
1D62A
100
AcDbEntity
  8
HATCH
100
AcDbLine
 10
10820.86066565994
 20
3459.526999378581
 30
0.0
 11
10687.25755450353
 21
3325.923888222175
 31
0.0
  0
LINE
  5
1D7EA
330
1D62A
100
AcDbEntity
  8
HATCH
100
AcDbLine
 10
10774.13997880779
 20
3460.323888222176
 30
0.0
 11
10639.7399788078
 21
3325.923888222175
 31
0.0
  0
LINE
  5
1D7EB
330
1D62A
100
AcDbEntity
  8
HATCH
100
AcDbLine
 10
10726.62240311206
 20
3460.323888222176
 30
0.0
 11
10592.22240311205
 21
3325.923888222175
 31
0.0
  0
LINE
  5
1D7EC
330
1D62A
100
AcDbEntity
  8
KISO
100
AcDbLine
 10
10820.86066565995
 20
3325.923888222175
 30
0.0
 11
8256.067220181336
 21
3325.923888222175
 31
0.0
  0
LINE
  5
1D7ED
330
1D62A
100
AcDbEntity
  8
HATCH
100
AcDbLine
 10
10178.46394292064
 20
3292.075050877889
 30
0.0
 11
10198.00657827311
 21
3325.923888222175
 31
0.0
  0
LINE
  5
1D7EE
330
1D62A
100
AcDbEntity
  8
HATCH
100
AcDbLine
 10
10178.46394292064
 20
3080.006312526439
 30
0.0
 11
9816.381518616379
 21
2717.92388822218
 31
0.0
  0
LINE
  5
1D7EF
330
1D62A
100
AcDbEntity
  8
HATCH
100
AcDbLine
 10
10178.46394292064
 20
3032.488736830703
 30
0.0
 11
9863.899094312117
 21
2717.92388822218
 31
0.0
  0
LINE
  5
1D7F0
330
1D62A
100
AcDbEntity
  8
HATCH
100
AcDbLine
 10
10178.46394292064
 20
2984.971161134968
 30
0.0
 11
9911.416670007859
 21
2717.923888222181
 31
0.0
  0
LINE
  5
1D7F1
330
1D62A
100
AcDbEntity
  8
HATCH
100
AcDbLine
 10
9992.381518616372
 20
3325.923888222175
 30
0.0
 11
9660.86394292064
 21
2994.406312526436
 31
0.0
  0
LINE
  5
1D7F2
330
1D62A
100
AcDbEntity
  8
HATCH
100
AcDbLine
 10
10039.89909431209
 20
3325.923888222175
 30
0.0
 11
9660.86394292064
 21
2946.888736830706
 31
0.0
  0
LINE
  5
1D7F3
330
1D62A
100
AcDbEntity
  8
HATCH
100
AcDbLine
 10
9944.86394292064
 20
3325.923888222175
 30
0.0
 11
9660.86394292064
 21
3041.923888222175
 31
0.0
  0
LINE
  5
1D7F4
330
1D62A
100
AcDbEntity
  8
KISO
100
AcDbLine
 10
10178.46394292064
 20
3325.923888222177
 30
0.0
 11
10178.46394292064
 21
2717.92388822218
 31
0.0
  0
LINE
  5
1D7F5
330
1D62A
100
AcDbEntity
  8
KISO
100
AcDbLine
 10
8898.46394292064
 20
3325.923888222177
 30
0.0
 11
8898.46394292064
 21
2717.92388822218
 31
0.0
  0
LINE
  5
1D7F6
330
1D62A
100
AcDbEntity
  8
HATCH
100
AcDbLine
 10
9080.86394292064
 20
3325.923888222175
 30
0.0
 11
8898.46394292064
 21
3143.523888222173
 31
0.0
  0
LINE
  5
1D7F7
330
1D62A
100
AcDbEntity
  8
HATCH
100
AcDbLine
 10
9028.546367224912
 20
3321.123888222174
 30
0.0
 11
8898.46394292064
 21
3191.041463917906
 31
0.0
  0
LINE
  5
1D7F8
330
1D62A
100
AcDbEntity
  8
HATCH
100
AcDbLine
 10
9640.063942920642
 20
3021.123888222175
 30
0.0
 11
9336.863942920659
 21
2717.92388822218
 31
0.0
  0
LINE
  5
1D7F9
330
1D62A
100
AcDbEntity
  8
HATCH
100
AcDbLine
 10
9640.06394292064
 20
2973.606312526436
 30
0.0
 11
9384.381518616391
 21
2717.92388822218
 31
0.0
  0
LINE
  5
1D7FA
330
1D62A
100
AcDbEntity
  8
HATCH
100
AcDbLine
 10
9640.06394292064
 20
2926.088736830703
 30
0.0
 11
9431.89909431212
 21
2717.92388822218
 31
0.0
  0
LINE
  5
1D7FB
330
1D62A
100
AcDbEntity
  8
HATCH
100
AcDbLine
 10
9465.346367224903
 20
3325.923888222175
 30
0.0
 11
9436.86394292064
 21
3297.441463917909
 31
0.0
  0
LINE
  5
1D7FC
330
1D62A
100
AcDbEntity
  8
HATCH
100
AcDbLine
 10
9416.063942920642
 20
3276.64146391791
 30
0.0
 11
8898.46394292064
 21
2759.041463917909
 31
0.0
  0
LINE
  5
1D7FD
330
1D62A
100
AcDbEntity
  8
HATCH
100
AcDbLine
 10
9512.863942920645
 20
3325.923888222175
 30
0.0
 11
9436.86394292064
 21
3249.923888222171
 31
0.0
  0
LINE
  5
1D7FE
330
1D62A
100
AcDbEntity
  8
HATCH
100
AcDbLine
 10
9416.063942920642
 20
3229.123888222171
 30
0.0
 11
8904.863942920654
 21
2717.92388822218
 31
0.0
  0
LINE
  5
1D7FF
330
1D62A
100
AcDbEntity
  8
HATCH
100
AcDbLine
 10
9560.381518616379
 20
3325.923888222175
 30
0.0
 11
9436.86394292064
 21
3202.406312526437
 31
0.0
  0
LINE
  5
1D800
330
1D62A
100
AcDbEntity
  8
HATCH
100
AcDbLine
 10
9416.063942920642
 20
3181.606312526438
 30
0.0
 11
8952.381518616384
 21
2717.92388822218
 31
0.0
  0
LINE
  5
1D801
330
1D62A
100
AcDbEntity
  8
HATCH
100
AcDbLine
 10
8985.82879152917
 20
3325.923888222175
 30
0.0
 11
8898.46394292064
 21
3238.559039613646
 31
0.0
  0
LINE
  5
1D802
330
1D62A
100
AcDbEntity
  8
1PL-M1
100
AcDbLine
 10
9538.463942920641
 20
2435.011174681364
 30
0.0
 11
9538.463942920641
 21
4182.324460358767
 31
0.0
  0
LINE
  5
1D803
330
1D62A
100
AcDbEntity
  8
KISO
100
AcDbLine
 10
10338.46394292064
 20
2717.92388822218
 30
0.0
 11
10338.46394292064
 21
2557.923888222175
 31
0.0
  0
LINE
  5
1D804
330
1D62A
100
AcDbEntity
  8
HATCH
100
AcDbLine
 10
9566.393738146818
 20
2557.923888222179
 30
0.0
 11
9658.769780813482
 21
2717.92388822218
 31
0.0
  0
LINE
  5
1D805
330
1D62A
100
AcDbEntity
  8
HATCH
100
AcDbLine
 10
9605.436447480148
 20
2717.92388822218
 30
0.0
 11
9632.103114146813
 21
2671.735865555517
 31
0.0
  0
LINE
  5
1D806
330
1D62A
100
AcDbEntity
  8
HATCH
100
AcDbLine
 10
9593.060404813481
 20
2604.11190955551
 30
0.0
 11
9619.727071480149
 21
2557.923888222179
 31
0.0
  0
LINE
  5
1D807
330
1D62A
100
AcDbEntity
  8
HATCH
100
AcDbLine
 10
9393.06040481348
 20
2604.11190955551
 30
0.0
 11
9419.727071480147
 21
2557.923888222179
 31
0.0
  0
LINE
  5
1D808
330
1D62A
100
AcDbEntity
  8
HATCH
100
AcDbLine
 10
9405.436447480147
 20
2717.92388822218
 30
0.0
 11
9432.103114146812
 21
2671.735865555517
 31
0.0
  0
LINE
  5
1D809
330
1D62A
100
AcDbEntity
  8
HATCH
100
AcDbLine
 10
9193.060404813481
 20
2604.11190955551
 30
0.0
 11
9219.727071480148
 21
2557.923888222179
 31
0.0
  0
LINE
  5
1D80A
330
1D62A
100
AcDbEntity
  8
HATCH
100
AcDbLine
 10
9166.393738146817
 20
2557.923888222179
 30
0.0
 11
9258.769780813482
 21
2717.92388822218
 31
0.0
  0
LINE
  5
1D80B
330
1D62A
100
AcDbEntity
  8
HATCH
100
AcDbLine
 10
9205.436447480147
 20
2717.92388822218
 30
0.0
 11
9232.103114146813
 21
2671.735865555517
 31
0.0
  0
LINE
  5
1D80C
330
1D62A
100
AcDbEntity
  8
KISO
100
AcDbLine
 10
8738.46394292064
 20
2717.92388822218
 30
0.0
 11
8738.46394292064
 21
2557.923888222175
 31
0.0
  0
LINE
  5
1D80D
330
1D62A
100
AcDbEntity
  8
HATCH
100
AcDbLine
 10
8993.060404813482
 20
2604.11190955551
 30
0.0
 11
9019.727071480147
 21
2557.923888222179
 31
0.0
  0
LINE
  5
1D80E
330
1D62A
100
AcDbEntity
  8
HATCH
100
AcDbLine
 10
9005.436447480146
 20
2717.92388822218
 30
0.0
 11
9032.103114146812
 21
2671.735865555517
 31
0.0
  0
LINE
  5
1D80F
330
1D62A
100
AcDbEntity
  8
HATCH
100
AcDbLine
 10
8966.393738146818
 20
2557.923888222179
 30
0.0
 11
9058.769780813481
 21
2717.92388822218
 31
0.0
  0
LINE
  5
1D810
330
1D62A
100
AcDbEntity
  8
HATCH
100
AcDbLine
 10
9366.393738146816
 20
2557.923888222179
 30
0.0
 11
9458.769780813481
 21
2717.92388822218
 31
0.0
  0
LINE
  5
1D811
330
1D62A
100
AcDbEntity
  8
KISO
100
AcDbLine
 10
8738.46394292064
 20
2557.923888222175
 30
0.0
 11
10338.46394292064
 21
2557.923888222175
 31
0.0
  0
LINE
  5
1D812
330
1D62A
100
AcDbEntity
  8
HATCH
100
AcDbLine
 10
9805.436447480147
 20
2717.92388822218
 30
0.0
 11
9832.103114146812
 21
2671.735865555517
 31
0.0
  0
LINE
  5
1D813
330
1D62A
100
AcDbEntity
  8
HATCH
100
AcDbLine
 10
9766.393738146817
 20
2557.923888222179
 30
0.0
 11
9858.769780813481
 21
2717.92388822218
 31
0.0
  0
LINE
  5
1D814
330
1D62A
100
AcDbEntity
  8
HATCH
100
AcDbLine
 10
9793.060404813481
 20
2604.11190955551
 30
0.0
 11
9819.727071480151
 21
2557.923888222179
 31
0.0
  0
LINE
  5
1D815
330
1D62A
100
AcDbEntity
  8
HATCH
100
AcDbLine
 10
9966.393738146818
 20
2557.923888222179
 30
0.0
 11
10058.76978081348
 21
2717.92388822218
 31
0.0
  0
LINE
  5
1D816
330
1D62A
100
AcDbEntity
  8
HATCH
100
AcDbLine
 10
10005.43644748014
 20
2717.92388822218
 30
0.0
 11
10032.1031141468
 21
2671.735865555517
 31
0.0
  0
LINE
  5
1D817
330
1D62A
100
AcDbEntity
  8
HATCH
100
AcDbLine
 10
9993.060404813482
 20
2604.11190955551
 30
0.0
 11
10019.72707148015
 21
2557.923888222179
 31
0.0
  0
LINE
  5
1D818
330
1D62A
100
AcDbEntity
  8
HATCH
100
AcDbLine
 10
8805.436447480145
 20
2717.92388822218
 30
0.0
 11
8832.103114146812
 21
2671.735865555517
 31
0.0
  0
LINE
  5
1D819
330
1D62A
100
AcDbEntity
  8
HATCH
100
AcDbLine
 10
8766.393738146817
 20
2557.923888222179
 30
0.0
 11
8858.76978081348
 21
2717.92388822218
 31
0.0
  0
LINE
  5
1D81A
330
1D62A
100
AcDbEntity
  8
HATCH
100
AcDbLine
 10
8793.060404813481
 20
2604.11190955551
 30
0.0
 11
8819.72707148015
 21
2557.923888222179
 31
0.0
  0
LINE
  5
1D81B
330
1D62A
100
AcDbEntity
  8
SUNPOU
100
AcDbLine
 10
9538.463942920641
 20
4137.324460358767
 30
0.0
 11
10659.70490210299
 21
4137.324460358767
 31
0.0
  0
TEXT
  5
1D81C
330
1D62A
100
AcDbEntity
  8
SUNPOU
100
AcDbText
 10
10048.36179767657
 20
4182.324460358767
 30
0.0
 40
90.0
  1
1800
 41
0.6666666666666666
  7
00
 72
     4
 11
10166.933226248
 21
4227.324460358767
 31
0.0
100
AcDbText
  0
LINE
  5
1D81D
330
1D62A
100
AcDbEntity
  8
HIKIDASHI
100
AcDbLine
 10
10684.96071311412
 20
3927.324460358768
 30
0.0
 11
10316.1943362865
 21
3927.324460358768
 31
0.0
  0
TEXT
  5
1D81E
330
1D62A
100
AcDbEntity
  8
HIKIDASHI
100
AcDbText
 10
10349.26194387842
 20
3972.324460358768
 30
0.0
 40
90.0
  1
土　間
  7
01
 72
     2
 11
10643.26194387842
 21
4017.324460358767
 31
0.0
100
AcDbText
 73
     2
  0
TEXT
  5
1D81F
330
1D62A
100
AcDbEntity
  8
SUNPOU
100
AcDbText
 10
10436.92827741191
 20
3595.323888222176
 30
0.0
 40
90.0
  1
F.L
 41
0.6666666666666666
  7
00
 72
     4
 11
10505.49970598334
 21
3640.323888222175
 31
0.0
100
AcDbText
  0
LINE
  5
1D820
330
1D62A
100
AcDbEntity
  8
SUNPOU
100
AcDbLine
 10
10505.49970598334
 20
3460.323888222176
 30
0.0
 11
10557.46123021042
 21
3550.323888222175
 31
0.0
  0
LINE
  5
1D821
330
1D62A
100
AcDbEntity
  8
SUNPOU
100
AcDbLine
 10
10453.53818175629
 20
3550.323888222175
 30
0.0
 11
10505.49970598334
 21
3460.323888222176
 31
0.0
  0
LINE
  5
1D822
330
1D62A
100
AcDbEntity
  8
SUNPOU
100
AcDbLine
 10
10557.46123021042
 20
3550.323888222175
 30
0.0
 11
10453.53818175629
 21
3550.323888222175
 31
0.0
  0
TEXT
  5
1D823
330
1D62A
100
AcDbEntity
  8
HIKIDASHI
100
AcDbText
 10
7969.76747791691
 20
1821.717918072924
 30
0.0
 40
89.55223880597014
  1
x
 41
0.6700000000000001
  7
00
100
AcDbText
  0
TEXT
  5
1D824
330
1D62A
100
AcDbEntity
  8
HIKIDASHI
100
AcDbText
 10
7897.932540726535
 20
1809.927442830512
 30
0.0
 40
67.16417910447761
  1
2
 41
0.6700000000000001
  7
00
100
AcDbText
  0
TEXT
  5
1D825
330
1D62A
100
AcDbEntity
  8
HIKIDASHI
100
AcDbText
 10
7810.040504167613
 20
1836.953497861074
 30
0.0
 40
67.16417910447761
  1
1
 41
0.6700000000000001
  7
00
100
AcDbText
  0
TEXT
  5
1D826
330
1D62A
100
AcDbEntity
  8
HIKIDASHI
100
AcDbText
 10
7735.439693484391
 20
1810.523888222179
 30
0.0
 40
89.55223880597014
  1
W ／
 41
0.6700000000000001
  7
00
100
AcDbText
  0
TEXT
  5
1D827
330
1D62A
100
AcDbEntity
  8
HIKIDASHI
100
AcDbText
 10
8050.902857070045
 20
1810.314902022088
 30
0.0
 40
89.55223880597014
  1
300
 41
0.6700000000000001
  7
00
100
AcDbText
  0
TEXT
  5
1D828
330
1D62A
100
AcDbEntity
  8
HIKIDASHI
100
AcDbText
 10
7735.439693484391
 20
1990.523888222177
 30
0.0
 40
90.0
  1
アンカーボルト
  7
01
100
AcDbText
  0
LINE
  5
1D829
330
1D62A
100
AcDbEntity
  8
HIKIDASHI
100
AcDbLine
 10
7706.360084622684
 20
1945.523888222177
 30
0.0
 11
8526.366098019535
 21
1945.523888222177
 31
0.0
  0
TEXT
  5
1D82A
330
1D62A
100
AcDbEntity
  8
HIKIDASHI
100
AcDbText
 10
9220.650266302852
 20
1671.474869379512
 30
0.0
 40
90.0
  1
B  ~  B'
 41
0.6700000000000001
  7
00
100
AcDbText
  0
LINE
  5
1D82B
330
1D62A
100
AcDbEntity
  8
HIKIDASHI
100
AcDbLine
 10
9190.650266302851
 20
1596.474869379512
 30
0.0
 11
9886.277619538422
 21
1596.474869379512
 31
0.0
  0
LINE
  5
1D82C
330
1D62A
100
AcDbEntity
  8
HIKIDASHI
100
AcDbLine
 10
9190.650266302851
 20
1626.474869379512
 30
0.0
 11
9886.277619538422
 21
1626.474869379512
 31
0.0
  0
TEXT
  5
1D82D
330
1D62A
100
AcDbEntity
  8
HIKIDASHI
100
AcDbText
 10
9614.667545799413
 20
1671.474869379512
 30
0.0
 40
90.0
  1
断 面
  7
01
100
AcDbText
  0
TEXT
  5
1D82E
330
1D62A
100
AcDbEntity
  8
SUNPOU
100
AcDbText
 10
10496.15865220949
 20
2585.723754658955
 30
0.0
 40
90.0
  1
5-D13×5-D13
 41
0.6700000000000001
  7
01
 72
     4
 11
10839.58150935235
 21
2630.723754658955
 31
0.0
100
AcDbText
  0
TEXT
  5
1D82F
330
1D62A
100
AcDbEntity
  8
SUNPOU
100
AcDbText
 10
10631.2743664952
 20
2720.723754658955
 30
0.0
 40
90.0
  1
ベース筋
  7
01
 72
     4
 11
10835.2743664952
 21
2765.723754658955
 31
0.0
100
AcDbText
  0
LINE
  5
1D830
330
1D62A
100
AcDbEntity
  8
KISO
100
AcDbLine
 10
8738.46394292064
 20
2717.92388822218
 30
0.0
 11
10338.46394292064
 21
2717.92388822218
 31
0.0
  0
LINE
  5
1D831
330
1D62A
100
AcDbEntity
  8
HATCH
100
AcDbLine
 10
10166.3937381468
 20
2557.923888222183
 30
0.0
 11
10258.76978081348
 21
2717.923888222184
 31
0.0
  0
LINE
  5
1D832
330
1D62A
100
AcDbEntity
  8
HATCH
100
AcDbLine
 10
10205.43644748014
 20
2717.923888222184
 30
0.0
 11
10232.1031141468
 21
2671.73586555552
 31
0.0
  0
LINE
  5
1D833
330
1D62A
100
AcDbEntity
  8
HATCH
100
AcDbLine
 10
10193.06040481348
 20
2604.111909555513
 30
0.0
 11
10219.72707148014
 21
2557.923888222183
 31
0.0
  0
LINE
  5
1D834
330
1D62A
100
AcDbEntity
  8
HATCH
100
AcDbLine
 10
8806.62240311207
 20
3460.323888222177
 30
0.0
 11
8672.222403112066
 21
3325.923888222177
 31
0.0
  0
LINE
  5
1D835
330
1D62A
100
AcDbEntity
  8
HATCH
100
AcDbLine
 10
8901.657554503541
 20
3460.323888222177
 30
0.0
 11
8767.25755450354
 21
3325.923888222175
 31
0.0
  0
LINE
  5
1D836
330
1D62A
100
AcDbEntity
  8
HATCH
100
AcDbLine
 10
8854.139978807806
 20
3460.323888222177
 30
0.0
 11
8719.739978807806
 21
3325.923888222175
 31
0.0
  0
LINE
  5
1D837
330
1D62A
100
AcDbEntity
  8
HATCH
100
AcDbLine
 10
8329.822403112073
 20
3463.523888222177
 30
0.0
 11
8256.067220181336
 21
3389.768705291441
 31
0.0
  0
LINE
  5
1D838
330
1D62A
100
AcDbEntity
  8
HATCH
100
AcDbLine
 10
8424.857554503542
 20
3463.523888222177
 30
0.0
 11
8287.257554503542
 21
3325.923888222175
 31
0.0
  0
LINE
  5
1D839
330
1D62A
100
AcDbEntity
  8
HATCH
100
AcDbLine
 10
8377.339978807809
 20
3463.523888222177
 30
0.0
 11
8256.067220181336
 21
3342.251129595704
 31
0.0
  0
LINE
  5
1D83A
330
1D62A
100
AcDbEntity
  8
SUNPOU
100
AcDbLine
 10
9538.463942920641
 20
4137.324460358767
 30
0.0
 11
8417.222983738275
 21
4137.324460358767
 31
0.0
  0
TEXT
  5
1D83B
330
1D62A
100
AcDbEntity
  8
SUNPOU
100
AcDbText
 10
8791.423231021845
 20
4182.324460358767
 30
0.0
 40
90.0
  1
1800
 41
0.6666666666666666
  7
00
 72
     4
 11
8909.994659593275
 21
4227.324460358767
 31
0.0
100
AcDbText
  0
LINE
  5
1D83C
330
1D62A
100
AcDbEntity
  8
HIKIDASHI
100
AcDbLine
 10
6660.967115796506
 20
3927.324460358765
 30
0.0
 11
6292.200738968885
 21
3927.324460358765
 31
0.0
  0
TEXT
  5
1D83D
330
1D62A
100
AcDbEntity
  8
HIKIDASHI
100
AcDbText
 10
6325.268346560794
 20
3972.324460358764
 30
0.0
 40
90.0
  1
土　間
  7
01
 72
     2
 11
6619.268346560794
 21
4017.324460358763
 31
0.0
100
AcDbText
 73
     2
  0
LINE
  5
1D83E
330
1D62A
100
AcDbEntity
  8
KISO
100
AcDbLine
 10
5118.137742396996
 20
3460.323888222176
 30
0.0
 11
5118.137742396994
 21
3197.923888222173
 31
0.0
  0
LINE
  5
1D83F
330
1D62A
100
AcDbEntity
  8
KISO
100
AcDbLine
 10
5118.137742396994
 20
3197.923888222173
 30
0.0
 11
5278.137742396996
 21
3197.923888222173
 31
0.0
  0
LINE
  5
1D840
330
1D62A
100
AcDbEntity
  8
KISO
100
AcDbLine
 10
5278.137742396996
 20
3325.923888222175
 30
0.0
 11
5118.137742396996
 21
3325.923888222175
 31
0.0
  0
LINE
  5
1D841
330
1D62A
100
AcDbEntity
  8
HATCH
100
AcDbLine
 10
5254.412887386102
 20
3460.323888222176
 30
0.0
 11
5120.012887386101
 21
3325.923888222175
 31
0.0
  0
LINE
  5
1D842
330
1D62A
100
AcDbEntity
  8
HATCH
100
AcDbLine
 10
5206.8953113861
 20
3460.323888222176
 30
0.0
 11
5118.137742396996
 21
3371.566319233069
 31
0.0
  0
LINE
  5
1D843
330
1D62A
100
AcDbEntity
  8
HATCH
100
AcDbLine
 10
5159.377735386102
 20
3460.323888222176
 30
0.0
 11
5118.137742396996
 21
3419.083895233068
 31
0.0
  0
TEXT
  5
1D844
330
1D62A
100
AcDbEntity
  8
HIKIDASHI
100
AcDbText
 10
10617.3724233458
 20
2955.953755823455
 30
0.0
 40
90.0
  1
敷砂利又は砕石
  7
01
 72
     2
 11
11349.3724233458
 21
3000.953755823455
 31
0.0
100
AcDbText
 73
     2
  0
LINE
  5
1D845
330
1D62A
100
AcDbEntity
  8
HIKIDASHI
100
AcDbLine
 10
11374.60272399148
 20
2910.953755823456
 30
0.0
 11
10573.53855426433
 21
2910.953755823456
 31
0.0
  0
TEXT
  5
1D846
330
1D62A
100
AcDbEntity
  8
HIKIDASHI
100
AcDbText
 10
10582.07259604774
 20
2400.143287355456
 30
0.0
 40
90.0
  1
砕　石
  7
01
 72
     2
 11
10882.07259604774
 21
2445.143287355457
 31
0.0
100
AcDbText
 73
     2
  0
LINE
  5
1D847
330
1D62A
100
AcDbEntity
  8
HIKIDASHI
100
AcDbLine
 10
10923.77136528345
 20
2355.143287355456
 30
0.0
 11
10555.00498845583
 21
2355.143287355456
 31
0.0
  0
TEXT
  5
1D848
330
1D62A
100
AcDbEntity
  8
HIKIDASHI
100
AcDbText
 10
13244.98308988596
 20
2297.644025518658
 30
0.0
 40
90.0
  1
2
 41
0.6666666666666666
  7
00
100
AcDbText
  0
TEXT
  5
1D849
330
1D62A
100
AcDbEntity
  8
HIKIDASHI
100
AcDbText
 10
13323.55451845738
 20
2312.644025518657
 30
0.0
 40
90.0
  1
ｹ
  7
01
100
AcDbText
  0
TEXT
  5
1D84A
330
1D62A
100
AcDbEntity
  8
HIKIDASHI
100
AcDbText
 10
13404.55451845738
 20
2297.644025518658
 30
0.0
 40
90.0
  1
-
 41
0.6666666666666666
  7
00
100
AcDbText
  0
TEXT
  5
1D84B
330
1D62A
100
AcDbEntity
  8
HIKIDASHI
100
AcDbText
 10
13512.41166131454
 20
2297.644025518658
 30
0.0
 40
90.0
  1
18
 41
0.6666666666666666
  7
00
100
AcDbText
  0
TEXT
  5
1D84C
330
1D62A
100
AcDbEntity
  8
HIKIDASHI
100
AcDbText
 10
13648.12594702882
 20
2312.644025518657
 30
0.0
 40
90.0
  1
%%c
 41
0.6666666666666666
  7
00
100
AcDbText
  0
TEXT
  5
1D84D
330
1D62A
100
AcDbEntity
  8
HIKIDASHI
100
AcDbText
 10
13723.84023274311
 20
2297.644025518658
 30
0.0
 40
90.0
  1
孔
  7
01
100
AcDbText
  0
LINE
  5
1D84E
330
1D62A
100
AcDbEntity
  8
HIKIDASHI
100
AcDbLine
 10
13214.98308988596
 20
2252.644025518658
 30
0.0
 11
13837.84023274311
 21
2252.644025518658
 31
0.0
  0
TEXT
  5
1D84F
330
1D62A
100
AcDbEntity
  8
FILENAME
100
AcDbText
 10
13663.90476190475
 20
174.0
 30
0.0
 40
100.0
  1
＜YOKC-245-MA-A1_3JIS_GL.DXF ＞
  7
FILENAME
 72
     2
 11
16382.0
 21
174.0
 31
0.0
100
AcDbText
  0
LINE
  5
1D850
330
1D62A
100
AcDbEntity
  8
WAKUSEN-01
100
AcDbLine
 10
434.0000000000008
 20
413.9999999999997
 30
0.0
 11
16382.0
 21
413.9999999999997
 31
0.0
  0
LINE
  5
1D851
330
1D62A
100
AcDbEntity
  8
WAKUSEN-01
100
AcDbLine
 10
434.0000000000008
 20
11242.0
 30
0.0
 11
16382.0
 21
11242.0
 31
0.0
  0
LINE
  5
1D852
330
1D62A
100
AcDbEntity
  8
WAKUSEN-01
100
AcDbLine
 10
434.0000000000008
 20
413.9999999999997
 30
0.0
 11
434.0000000000008
 21
11242.0
 31
0.0
  0
LINE
  5
1D853
330
1D62A
100
AcDbEntity
  8
WAKUSEN-01
100
AcDbLine
 10
16382.0
 20
413.9999999999997
 30
0.0
 11
16382.0
 21
11242.0
 31
0.0
  0
LINE
  5
1D854
330
1D62A
100
AcDbEntity
  8
WAKUSEN-01
100
AcDbLine
 10
10280.0
 20
1242.0
 30
0.0
 11
16382.0
 21
1242.0
 31
0.0
  0
LINE
  5
1D855
330
1D62A
100
AcDbEntity
  8
WAKUSEN-02
100
AcDbLine
 10
10280.0
 20
827.9999999999997
 30
0.0
 11
13434.0
 21
827.9999999999997
 31
0.0
  0
TEXT
  5
1D856
330
1D62A
100
AcDbEntity
  8
WAKUMOJI-01
100
AcDbText
 10
10335.13012998137
 20
1062.951504669661
 30
0.0
 40
120.0
  1
名　称
  7
WAKUMOJI
100
AcDbText
  0
TEXT
  5
1D857
330
1D62A
100
AcDbEntity
  8
WAKUMOJI-01
100
AcDbText
 10
10328.25274254596
 20
659.5644874899107
 30
0.0
 40
120.0
  1
機種名
  7
WAKUMOJI
100
AcDbText
  0
LINE
  5
1D858
330
1D62A
100
AcDbEntity
  8
WAKUSEN-01
100
AcDbLine
 10
10280.0
 20
413.9999999999985
 30
0.0
 11
10280.0
 21
1242.0
 31
0.0
  0
LINE
  5
1D859
330
1D62A
100
AcDbEntity
  8
WAKUSEN-02
100
AcDbLine
 10
13434.0
 20
413.9999999999963
 30
0.0
 11
13434.0
 21
1242.0
 31
0.0
  0
LINE
  5
1D85A
330
1D62A
100
AcDbEntity
  8
YODOROGO
100
AcDbLine
 10
14988.80217064596
 20
997.8747482146435
 30
0.0
 11
14914.80217064596
 21
997.8747482146435
 31
0.0
1001
AUTOCAD_POSTSCRIPT_FIGURE
1002
{
1000
PSFILL
1000
Grayscale
1000
Grayscale
1070
    25
1002
}
  0
LINE
  5
1D85B
330
1D62A
100
AcDbEntity
  8
YODOROGO
100
AcDbLine
 10
14914.80217064596
 20
973.8747482146434
 30
0.0
 11
14988.80217064596
 21
973.8747482146434
 31
0.0
1001
AUTOCAD_POSTSCRIPT_FIGURE
1002
{
1000
PSFILL
1000
Grayscale
1000
Grayscale
1070
    25
1002
}
  0
LINE
  5
1D85C
330
1D62A
100
AcDbEntity
  8
YODOROGO
100
AcDbLine
 10
14988.80217064596
 20
953.874748214644
 30
0.0
 11
14914.80217064596
 21
953.874748214644
 31
0.0
1001
AUTOCAD_POSTSCRIPT_FIGURE
1002
{
1000
PSFILL
1000
Grayscale
1000
Grayscale
1070
    25
1002
}
  0
LINE
  5
1D85D
330
1D62A
100
AcDbEntity
  8
YODOROGO
100
AcDbLine
 10
14914.80217064596
 20
929.874748214644
 30
0.0
 11
14988.80217064596
 21
929.874748214644
 31
0.0
1001
AUTOCAD_POSTSCRIPT_FIGURE
1002
{
1000
PSFILL
1000
Grayscale
1000
Grayscale
1070
    25
1002
}
  0
LINE
  5
1D85E
330
1D62A
100
AcDbEntity
  8
YODOROGO
100
AcDbLine
 10
14988.80217064596
 20
909.8747482146439
 30
0.0
 11
14914.80217064596
 21
909.8747482146439
 31
0.0
1001
AUTOCAD_POSTSCRIPT_FIGURE
1002
{
1000
PSFILL
1000
Grayscale
1000
Grayscale
1070
    25
1002
}
  0
LINE
  5
1D85F
330
1D62A
100
AcDbEntity
  8
YODOROGO
100
AcDbLine
 10
14960.80217064594
 20
853.874748214644
 30
0.0
 11
14988.80217064596
 21
853.874748214644
 31
0.0
1001
AUTOCAD_POSTSCRIPT_FIGURE
1002
{
1000
PSFILL
1000
Grayscale
1000
Grayscale
1070
    25
1002
}
  0
LINE
  5
1D860
330
1D62A
100
AcDbEntity
  8
YODOROGO
100
AcDbLine
 10
14868.80217064596
 20
713.8747482146436
 30
0.0
 11
14968.80217064596
 21
740.6696674577553
 31
0.0
  0
LINE
  5
1D861
330
1D62A
100
AcDbEntity
  8
YODOROGO
100
AcDbLine
 10
14974.80217064595
 20
853.874748214644
 30
0.0
 11
14942.80217064596
 21
853.874748214644
 31
0.0
  0
ARC
  5
1D862
330
1D62A
100
AcDbEntity
  8
YODOROGO
100
AcDbCircle
 10
15127.17387491394
 20
903.9323046166312
 30
0.0
 40
190.9434321028236
100
AcDbArc
 50
213.9611167766784
 51
264.4787207431779
  0
ARC
  5
1D863
330
1D62A
100
AcDbEntity
  8
YODOROGO
100
AcDbCircle
 10
15127.17387491396
 20
903.9323046166513
 30
0.0
 40
190.9434321028408
100
AcDbArc
 50
208.141144204866
 51
212.9210361185994
  0
LINE
  5
1D864
330
1D62A
100
AcDbEntity
  8
YODOROGO
100
AcDbLine
 10
14885.70493649264
 20
778.403830673117
 30
0.0
 11
14966.89206625426
 21
800.1578565285436
 31
0.0
  0
LINE
  5
1D865
330
1D62A
100
AcDbEntity
  8
YODOROGO
100
AcDbLine
 10
14868.80217064596
 20
713.8747482146436
 30
0.0
 11
14968.80217064596
 21
740.6696674577553
 31
0.0
  0
LINE
  5
1D866
330
1D62A
100
AcDbEntity
  8
YODOROGO
100
AcDbLine
 10
14974.80217064595
 20
853.874748214644
 30
0.0
 11
14942.80217064596
 21
853.874748214644
 31
0.0
  0
ARC
  5
1D867
330
1D62A
100
AcDbEntity
  8
YODOROGO
100
AcDbCircle
 10
15127.17387491394
 20
903.9323046166312
 30
0.0
 40
190.9434321028236
100
AcDbArc
 50
213.9611167766784
 51
264.4787207431779
  0
LINE
  5
1D868
330
1D62A
100
AcDbEntity
  8
YODOROGO
100
AcDbLine
 10
14396.80217064594
 20
909.8747482146439
 30
0.0
 11
14216.80217064594
 21
909.8747482146439
 31
0.0
  0
LINE
  5
1D869
330
1D62A
100
AcDbEntity
  8
YODOROGO
100
AcDbLine
 10
14256.80217064594
 20
713.8747482146436
 30
0.0
 11
14396.80217064594
 21
713.8747482146436
 31
0.0
  0
LINE
  5
1D86A
330
1D62A
100
AcDbEntity
  8
YODOROGO
100
AcDbLine
 10
14364.80217064596
 20
961.8747482146432
 30
0.0
 11
14248.80217064594
 21
961.8747482146432
 31
0.0
  0
LINE
  5
1D86B
330
1D62A
100
AcDbEntity
  8
YODOROGO
100
AcDbLine
 10
14292.80217064596
 20
1013.874748214644
 30
0.0
 11
14328.80217064596
 21
1013.874748214644
 31
0.0
  0
LINE
  5
1D86C
330
1D62A
100
AcDbEntity
  8
YODOROGO
100
AcDbLine
 10
14216.80217064594
 20
853.874748214644
 30
0.0
 11
14216.80217064594
 21
753.8747482146439
 31
0.0
  0
LINE
  5
1D86D
330
1D62A
100
AcDbEntity
  8
YODOROGO
100
AcDbLine
 10
14248.80217064594
 20
781.8747482146434
 30
0.0
 11
14248.80217064594
 21
853.874748214644
 31
0.0
  0
LINE
  5
1D86E
330
1D62A
100
AcDbEntity
  8
YODOROGO
100
AcDbLine
 10
14292.80217064596
 20
873.8747482146449
 30
0.0
 11
14292.80217064596
 21
773.874748214644
 31
0.0
  0
LINE
  5
1D86F
330
1D62A
100
AcDbEntity
  8
YODOROGO
100
AcDbLine
 10
13928.80217064596
 20
841.8747482146445
 30
0.0
 11
13888.80217064596
 21
809.9862070222856
 31
0.0
  0
LINE
  5
1D870
330
1D62A
100
AcDbEntity
  8
YODOROGO
100
AcDbLine
 10
13968.80217064596
 20
809.9862070222856
 30
0.0
 11
13928.80217064596
 21
841.8747482146445
 31
0.0
  0
LINE
  5
1D871
330
1D62A
100
AcDbEntity
  8
YODOROGO
100
AcDbLine
 10
13928.80217064596
 20
853.874748214644
 30
0.0
 11
13968.80217064596
 21
821.986207022285
 31
0.0
  0
LINE
  5
1D872
330
1D62A
100
AcDbEntity
  8
YODOROGO
100
AcDbLine
 10
13888.80217064596
 20
821.986207022285
 30
0.0
 11
13928.80217064596
 21
853.874748214644
 31
0.0
  0
LINE
  5
1D873
330
1D62A
100
AcDbEntity
  8
YODOROGO
100
AcDbLine
 10
14020.45660200844
 20
829.874748214644
 30
0.0
 11
14020.45660200844
 21
841.8747482146434
 31
0.0
  0
LINE
  5
1D874
330
1D62A
100
AcDbEntity
  8
YODOROGO
100
AcDbLine
 10
13988.80217064596
 20
841.8747482146434
 30
0.0
 11
13988.80217064596
 21
833.8747482146427
 31
0.0
  0
LINE
  5
1D875
330
1D62A
100
AcDbEntity
  8
YODOROGO
100
AcDbLine
 10
14049.06776011545
 20
853.874748214644
 30
0.0
 11
14049.06776011545
 21
827.751818637328
 31
0.0
1001
AUTOCAD_POSTSCRIPT_FIGURE
1002
{
1000
PSFILL
1000
Grayscale
1000
Grayscale
1070
   100
1002
}
  0
LINE
  5
1D876
330
1D62A
100
AcDbEntity
  8
YODOROGO
100
AcDbLine
 10
14041.06776011546
 20
827.751818637328
 30
0.0
 11
14041.06776011546
 21
853.874748214644
 31
0.0
1001
AUTOCAD_POSTSCRIPT_FIGURE
1002
{
1000
PSFILL
1000
Grayscale
1000
Grayscale
1070
   100
1002
}
  0
LINE
  5
1D877
330
1D62A
100
AcDbEntity
  8
YODOROGO
100
AcDbLine
 10
13904.80217064596
 20
804.3859520216292
 30
0.0
 11
13904.80217064596
 21
816.3859520216298
 31
0.0
  0
LINE
  5
1D878
330
1D62A
100
AcDbEntity
  8
YODOROGO
100
AcDbLine
 10
13952.80217064596
 20
804.3859520216292
 30
0.0
 11
13904.80217064596
 21
804.3859520216292
 31
0.0
  0
LINE
  5
1D879
330
1D62A
100
AcDbEntity
  8
YODOROGO
100
AcDbLine
 10
13952.80217064596
 20
816.3859520216298
 30
0.0
 11
13952.80217064596
 21
804.3859520216292
 31
0.0
  0
LINE
  5
1D87A
330
1D62A
100
AcDbEntity
  8
YODOROGO
100
AcDbLine
 10
13904.80217064596
 20
816.3859520216298
 30
0.0
 11
13952.80217064596
 21
816.3859520216298
 31
0.0
  0
LINE
  5
1D87B
330
1D62A
100
AcDbEntity
  8
YODOROGO
100
AcDbLine
 10
13912.25479445787
 20
784.2514286852374
 30
0.0
 11
13892.80217064596
 21
737.8747482146435
 31
0.0
1001
AUTOCAD_POSTSCRIPT_FIGURE
1002
{
1000
PSFILL
1000
Grayscale
1000
Grayscale
1070
   100
1002
}
  0
LINE
  5
1D87C
330
1D62A
100
AcDbEntity
  8
YODOROGO
100
AcDbLine
 10
13888.80217064596
 20
784.2514286852374
 30
0.0
 11
13912.25479445787
 21
784.2514286852374
 31
0.0
1001
AUTOCAD_POSTSCRIPT_FIGURE
1002
{
1000
PSFILL
1000
Grayscale
1000
Grayscale
1070
   100
1002
}
  0
LINE
  5
1D87D
330
1D62A
100
AcDbEntity
  8
YODOROGO
100
AcDbLine
 10
13888.80217064596
 20
794.2514286852374
 30
0.0
 11
13888.80217064596
 21
784.2514286852374
 31
0.0
1001
AUTOCAD_POSTSCRIPT_FIGURE
1002
{
1000
PSFILL
1000
Grayscale
1000
Grayscale
1070
   100
1002
}
  0
LINE
  5
1D87E
330
1D62A
100
AcDbEntity
  8
YODOROGO
100
AcDbLine
 10
13968.80217064596
 20
794.2514286852374
 30
0.0
 11
13888.80217064596
 21
794.2514286852374
 31
0.0
1001
AUTOCAD_POSTSCRIPT_FIGURE
1002
{
1000
PSFILL
1000
Grayscale
1000
Grayscale
1070
   100
1002
}
  0
LINE
  5
1D87F
330
1D62A
100
AcDbEntity
  8
YODOROGO
100
AcDbLine
 10
13968.80217064596
 20
784.2514286852374
 30
0.0
 11
13968.80217064596
 21
794.2514286852374
 31
0.0
1001
AUTOCAD_POSTSCRIPT_FIGURE
1002
{
1000
PSFILL
1000
Grayscale
1000
Grayscale
1070
   100
1002
}
  0
LINE
  5
1D880
330
1D62A
100
AcDbEntity
  8
YODOROGO
100
AcDbLine
 10
13922.25479445786
 20
784.2514286852374
 30
0.0
 11
13968.80217064596
 21
784.2514286852374
 31
0.0
1001
AUTOCAD_POSTSCRIPT_FIGURE
1002
{
1000
PSFILL
1000
Grayscale
1000
Grayscale
1070
   100
1002
}
  0
LINE
  5
1D881
330
1D62A
100
AcDbEntity
  8
YODOROGO
100
AcDbLine
 10
13907.77335914238
 20
747.8747482146435
 30
0.0
 11
13922.25479445786
 21
784.2514286852374
 31
0.0
1001
AUTOCAD_POSTSCRIPT_FIGURE
1002
{
1000
PSFILL
1000
Grayscale
1000
Grayscale
1070
   100
1002
}
  0
LINE
  5
1D882
330
1D62A
100
AcDbEntity
  8
YODOROGO
100
AcDbLine
 10
13951.02739540432
 20
747.8747482146435
 30
0.0
 11
13907.77335914238
 21
747.8747482146435
 31
0.0
1001
AUTOCAD_POSTSCRIPT_FIGURE
1002
{
1000
PSFILL
1000
Grayscale
1000
Grayscale
1070
   100
1002
}
  0
LINE
  5
1D883
330
1D62A
100
AcDbEntity
  8
YODOROGO
100
AcDbLine
 10
13942.53250239547
 20
768.1169053488464
 30
0.0
 11
13951.02739540432
 21
747.8747482146435
 31
0.0
1001
AUTOCAD_POSTSCRIPT_FIGURE
1002
{
1000
PSFILL
1000
Grayscale
1000
Grayscale
1070
   100
1002
}
  0
LINE
  5
1D884
330
1D62A
100
AcDbEntity
  8
YODOROGO
100
AcDbLine
 10
13950.53250239547
 20
768.1169053488464
 30
0.0
 11
13942.53250239547
 21
768.1169053488464
 31
0.0
1001
AUTOCAD_POSTSCRIPT_FIGURE
1002
{
1000
PSFILL
1000
Grayscale
1000
Grayscale
1070
   100
1002
}
  0
LINE
  5
1D885
330
1D62A
100
AcDbEntity
  8
YODOROGO
100
AcDbLine
 10
13964.80217064596
 20
737.8747482146435
 30
0.0
 11
13950.53250239547
 21
768.1169053488464
 31
0.0
1001
AUTOCAD_POSTSCRIPT_FIGURE
1002
{
1000
PSFILL
1000
Grayscale
1000
Grayscale
1070
   100
1002
}
  0
LINE
  5
1D886
330
1D62A
100
AcDbEntity
  8
YODOROGO
100
AcDbLine
 10
13892.80217064596
 20
737.8747482146435
 30
0.0
 11
13964.80217064596
 21
737.8747482146435
 31
0.0
1001
AUTOCAD_POSTSCRIPT_FIGURE
1002
{
1000
PSFILL
1000
Grayscale
1000
Grayscale
1070
   100
1002
}
  0
LINE
  5
1D887
330
1D62A
100
AcDbEntity
  8
YODOROGO
100
AcDbLine
 10
13888.80217064596
 20
809.9862070222856
 30
0.0
 11
13888.80217064596
 21
821.986207022285
 31
0.0
  0
LINE
  5
1D888
330
1D62A
100
AcDbEntity
  8
YODOROGO
100
AcDbLine
 10
13968.80217064596
 20
821.986207022285
 30
0.0
 11
13968.80217064596
 21
809.9862070222856
 31
0.0
  0
ARC
  5
1D889
330
1D62A
100
AcDbEntity
  8
YODOROGO
100
AcDbCircle
 10
14112.97022107348
 20
800.438882662663
 30
0.0
 40
87.99999999999995
100
AcDbArc
 50
280.3644312771313
 51
3.541483659218056
  0
ARC
  5
1D88A
330
1D62A
100
AcDbEntity
  8
YODOROGO
100
AcDbCircle
 10
14117.87801537965
 20
816.798903480952
 30
0.0
 40
55.99999999999914
100
AcDbArc
 50
281.2490582504155
 51
348.7509417495832
  0
LINE
  5
1D88B
330
1D62A
100
AcDbEntity
  8
YODOROGO
100
AcDbLine
 10
14128.80217064596
 20
761.8747482146434
 30
0.0
 11
14128.80217064596
 21
713.8747482146436
 31
0.0
  0
LINE
  5
1D88C
330
1D62A
100
AcDbEntity
  8
YODOROGO
100
AcDbLine
 10
14010.04445186845
 20
805.3252825309574
 30
0.0
 11
14020.45660200844
 21
829.874748214644
 31
0.0
  0
LINE
  5
1D88D
330
1D62A
100
AcDbEntity
  8
YODOROGO
100
AcDbLine
 10
14020.80217064596
 20
791.5602449742006
 30
0.0
 11
14010.04445186845
 21
805.3252825309574
 31
0.0
  0
LINE
  5
1D88E
330
1D62A
100
AcDbEntity
  8
YODOROGO
100
AcDbLine
 10
14020.80217064596
 20
781.5602449741994
 30
0.0
 11
14020.80217064596
 21
791.5602449742006
 31
0.0
  0
LINE
  5
1D88F
330
1D62A
100
AcDbEntity
  8
YODOROGO
100
AcDbLine
 10
14008.80217064596
 20
792.6185318747651
 30
0.0
 11
14020.80217064596
 21
781.5602449741994
 31
0.0
  0
LINE
  5
1D890
330
1D62A
100
AcDbEntity
  8
YODOROGO
100
AcDbLine
 10
14008.80217064596
 20
737.8747482146435
 30
0.0
 11
14008.80217064596
 21
792.6185318747651
 31
0.0
  0
LINE
  5
1D891
330
1D62A
100
AcDbEntity
  8
YODOROGO
100
AcDbLine
 10
14000.80217064596
 20
737.8747482146435
 30
0.0
 11
14008.80217064596
 21
737.8747482146435
 31
0.0
  0
LINE
  5
1D892
330
1D62A
100
AcDbEntity
  8
YODOROGO
100
AcDbLine
 10
14000.80217064596
 20
790.0026748448738
 30
0.0
 11
14000.80217064596
 21
737.8747482146435
 31
0.0
  0
LINE
  5
1D893
330
1D62A
100
AcDbEntity
  8
YODOROGO
100
AcDbLine
 10
13988.80217064596
 20
766.3840395167142
 30
0.0
 11
14000.80217064596
 21
790.0026748448738
 31
0.0
  0
LINE
  5
1D894
330
1D62A
100
AcDbEntity
  8
YODOROGO
100
AcDbLine
 10
13988.80217064596
 20
778.3840395167149
 30
0.0
 11
13988.80217064596
 21
766.3840395167142
 31
0.0
  0
LINE
  5
1D895
330
1D62A
100
AcDbEntity
  8
YODOROGO
100
AcDbLine
 10
14012.91438714567
 20
833.8747482146427
 30
0.0
 11
13988.80217064596
 21
778.3840395167149
 31
0.0
  0
LINE
  5
1D896
330
1D62A
100
AcDbEntity
  8
YODOROGO
100
AcDbLine
 10
13988.80217064596
 20
833.8747482146427
 30
0.0
 11
14012.91438714567
 21
833.8747482146427
 31
0.0
  0
LINE
  5
1D897
330
1D62A
100
AcDbEntity
  8
YODOROGO
100
AcDbLine
 10
14025.06776011545
 20
827.751818637328
 30
0.0
 11
14041.06776011546
 21
827.751818637328
 31
0.0
1001
AUTOCAD_POSTSCRIPT_FIGURE
1002
{
1000
PSFILL
1000
Grayscale
1000
Grayscale
1070
   100
1002
}
  0
LINE
  5
1D898
330
1D62A
100
AcDbEntity
  8
YODOROGO
100
AcDbLine
 10
14025.06776011545
 20
815.7518186373286
 30
0.0
 11
14025.06776011545
 21
827.751818637328
 31
0.0
1001
AUTOCAD_POSTSCRIPT_FIGURE
1002
{
1000
PSFILL
1000
Grayscale
1000
Grayscale
1070
   100
1002
}
  0
LINE
  5
1D899
330
1D62A
100
AcDbEntity
  8
YODOROGO
100
AcDbLine
 10
14041.06776011546
 20
815.7518186373286
 30
0.0
 11
14025.06776011545
 21
815.7518186373286
 31
0.0
1001
AUTOCAD_POSTSCRIPT_FIGURE
1002
{
1000
PSFILL
1000
Grayscale
1000
Grayscale
1070
   100
1002
}
  0
LINE
  5
1D89A
330
1D62A
100
AcDbEntity
  8
YODOROGO
100
AcDbLine
 10
14041.06776011546
 20
749.8747482146441
 30
0.0
 11
14041.06776011546
 21
815.7518186373286
 31
0.0
1001
AUTOCAD_POSTSCRIPT_FIGURE
1002
{
1000
PSFILL
1000
Grayscale
1000
Grayscale
1070
   100
1002
}
  0
LINE
  5
1D89B
330
1D62A
100
AcDbEntity
  8
YODOROGO
100
AcDbLine
 10
14025.06776011545
 20
749.8747482146441
 30
0.0
 11
14041.06776011546
 21
749.8747482146441
 31
0.0
1001
AUTOCAD_POSTSCRIPT_FIGURE
1002
{
1000
PSFILL
1000
Grayscale
1000
Grayscale
1070
   100
1002
}
  0
LINE
  5
1D89C
330
1D62A
100
AcDbEntity
  8
YODOROGO
100
AcDbLine
 10
14025.06776011545
 20
737.8747482146435
 30
0.0
 11
14025.06776011545
 21
749.8747482146441
 31
0.0
1001
AUTOCAD_POSTSCRIPT_FIGURE
1002
{
1000
PSFILL
1000
Grayscale
1000
Grayscale
1070
   100
1002
}
  0
LINE
  5
1D89D
330
1D62A
100
AcDbEntity
  8
YODOROGO
100
AcDbLine
 10
14068.80217064596
 20
737.8747482146435
 30
0.0
 11
14025.06776011545
 21
737.8747482146435
 31
0.0
1001
AUTOCAD_POSTSCRIPT_FIGURE
1002
{
1000
PSFILL
1000
Grayscale
1000
Grayscale
1070
   100
1002
}
  0
LINE
  5
1D89E
330
1D62A
100
AcDbEntity
  8
YODOROGO
100
AcDbLine
 10
14068.80217064596
 20
749.8747482146441
 30
0.0
 11
14068.80217064596
 21
737.8747482146435
 31
0.0
1001
AUTOCAD_POSTSCRIPT_FIGURE
1002
{
1000
PSFILL
1000
Grayscale
1000
Grayscale
1070
   100
1002
}
  0
LINE
  5
1D89F
330
1D62A
100
AcDbEntity
  8
YODOROGO
100
AcDbLine
 10
14049.06776011545
 20
749.8747482146441
 30
0.0
 11
14068.80217064596
 21
749.8747482146441
 31
0.0
1001
AUTOCAD_POSTSCRIPT_FIGURE
1002
{
1000
PSFILL
1000
Grayscale
1000
Grayscale
1070
   100
1002
}
  0
LINE
  5
1D8A0
330
1D62A
100
AcDbEntity
  8
YODOROGO
100
AcDbLine
 10
14049.06776011545
 20
815.7518186373286
 30
0.0
 11
14049.06776011545
 21
749.8747482146441
 31
0.0
1001
AUTOCAD_POSTSCRIPT_FIGURE
1002
{
1000
PSFILL
1000
Grayscale
1000
Grayscale
1070
   100
1002
}
  0
LINE
  5
1D8A1
330
1D62A
100
AcDbEntity
  8
YODOROGO
100
AcDbLine
 10
14068.80217064596
 20
815.7518186373286
 30
0.0
 11
14049.06776011545
 21
815.7518186373286
 31
0.0
1001
AUTOCAD_POSTSCRIPT_FIGURE
1002
{
1000
PSFILL
1000
Grayscale
1000
Grayscale
1070
   100
1002
}
  0
LINE
  5
1D8A2
330
1D62A
100
AcDbEntity
  8
YODOROGO
100
AcDbLine
 10
14068.80217064596
 20
827.751818637328
 30
0.0
 11
14068.80217064596
 21
815.7518186373286
 31
0.0
1001
AUTOCAD_POSTSCRIPT_FIGURE
1002
{
1000
PSFILL
1000
Grayscale
1000
Grayscale
1070
   100
1002
}
  0
LINE
  5
1D8A3
330
1D62A
100
AcDbEntity
  8
YODOROGO
100
AcDbLine
 10
14049.06776011545
 20
827.751818637328
 30
0.0
 11
14068.80217064596
 21
827.751818637328
 31
0.0
1001
AUTOCAD_POSTSCRIPT_FIGURE
1002
{
1000
PSFILL
1000
Grayscale
1000
Grayscale
1070
   100
1002
}
  0
LINE
  5
1D8A4
330
1D62A
100
AcDbEntity
  8
YODOROGO
100
AcDbLine
 10
14200.80217064594
 20
833.8747482146439
 30
0.0
 11
14172.80217064596
 21
833.8747482146439
 31
0.0
  0
LINE
  5
1D8A5
330
1D62A
100
AcDbEntity
  8
YODOROGO
100
AcDbLine
 10
14200.80217064594
 20
805.8747482146443
 30
0.0
 11
14200.80217064594
 21
833.8747482146439
 31
0.0
  0
LINE
  5
1D8A6
330
1D62A
100
AcDbEntity
  8
YODOROGO
100
AcDbLine
 10
14172.80217064596
 20
833.8747482146439
 30
0.0
 11
14172.80217064596
 21
805.8747482146443
 31
0.0
  0
ARC
  5
1D8A7
330
1D62A
100
AcDbEntity
  8
YODOROGO
100
AcDbCircle
 10
14256.80217064594
 20
753.8747482146439
 30
0.0
 40
40.0
100
AcDbArc
 50
180.0
 51
270.0
  0
ARC
  5
1D8A8
330
1D62A
100
AcDbEntity
  8
YODOROGO
100
AcDbCircle
 10
14268.80217064594
 20
781.8747482146434
 30
0.0
 40
20.0
100
AcDbArc
 50
180.0
 51
270.0
  0
LINE
  5
1D8A9
330
1D62A
100
AcDbEntity
  8
YODOROGO
100
AcDbLine
 10
14280.80217064596
 20
761.8747482146434
 30
0.0
 11
14268.80217064594
 21
761.8747482146434
 31
0.0
  0
ARC
  5
1D8AA
330
1D62A
100
AcDbEntity
  8
YODOROGO
100
AcDbCircle
 10
14280.80217064596
 20
773.8747482146427
 30
0.0
 40
11.99999999999818
100
AcDbArc
 50
270.0
 51
0.0000000000054281
  0
LINE
  5
1D8AB
330
1D62A
100
AcDbEntity
  8
YODOROGO
100
AcDbLine
 10
13900.80217064596
 20
945.3932903968532
 30
0.0
 11
13888.80217064596
 21
921.8883739758362
 31
0.0
1001
AUTOCAD_POSTSCRIPT_FIGURE
1002
{
1000
PSFILL
1000
Grayscale
1000
Grayscale
1070
   100
1002
}
  0
LINE
  5
1D8AC
330
1D62A
100
AcDbEntity
  8
YODOROGO
100
AcDbLine
 10
13900.80217064596
 20
873.8747482146434
 30
0.0
 11
13900.80217064596
 21
945.3932903968532
 31
0.0
1001
AUTOCAD_POSTSCRIPT_FIGURE
1002
{
1000
PSFILL
1000
Grayscale
1000
Grayscale
1070
   100
1002
}
  0
LINE
  5
1D8AD
330
1D62A
100
AcDbEntity
  8
YODOROGO
100
AcDbLine
 10
13908.80217064596
 20
873.8747482146434
 30
0.0
 11
13900.80217064596
 21
873.8747482146434
 31
0.0
1001
AUTOCAD_POSTSCRIPT_FIGURE
1002
{
1000
PSFILL
1000
Grayscale
1000
Grayscale
1070
   100
1002
}
  0
LINE
  5
1D8AE
330
1D62A
100
AcDbEntity
  8
YODOROGO
100
AcDbLine
 10
13908.80217064596
 20
946.8856660426332
 30
0.0
 11
13908.80217064596
 21
873.8747482146434
 31
0.0
1001
AUTOCAD_POSTSCRIPT_FIGURE
1002
{
1000
PSFILL
1000
Grayscale
1000
Grayscale
1070
   100
1002
}
  0
LINE
  5
1D8AF
330
1D62A
100
AcDbEntity
  8
YODOROGO
100
AcDbLine
 10
13920.80217064596
 20
933.8273791420684
 30
0.0
 11
13908.80217064596
 21
946.8856660426332
 31
0.0
1001
AUTOCAD_POSTSCRIPT_FIGURE
1002
{
1000
PSFILL
1000
Grayscale
1000
Grayscale
1070
   100
1002
}
  0
LINE
  5
1D8B0
330
1D62A
100
AcDbEntity
  8
YODOROGO
100
AcDbLine
 10
13920.80217064596
 20
941.8273791420681
 30
0.0
 11
13920.80217064596
 21
933.8273791420684
 31
0.0
1001
AUTOCAD_POSTSCRIPT_FIGURE
1002
{
1000
PSFILL
1000
Grayscale
1000
Grayscale
1070
   100
1002
}
  0
LINE
  5
1D8B1
330
1D62A
100
AcDbEntity
  8
YODOROGO
100
AcDbLine
 10
13908.80217064596
 20
958.8856660426325
 30
0.0
 11
13920.80217064596
 21
941.8273791420681
 31
0.0
1001
AUTOCAD_POSTSCRIPT_FIGURE
1002
{
1000
PSFILL
1000
Grayscale
1000
Grayscale
1070
   100
1002
}
  0
LINE
  5
1D8B2
330
1D62A
100
AcDbEntity
  8
YODOROGO
100
AcDbLine
 10
13908.80217064596
 20
969.8747482146441
 30
0.0
 11
13908.80217064596
 21
958.8856660426325
 31
0.0
1001
AUTOCAD_POSTSCRIPT_FIGURE
1002
{
1000
PSFILL
1000
Grayscale
1000
Grayscale
1070
   100
1002
}
  0
LINE
  5
1D8B3
330
1D62A
100
AcDbEntity
  8
YODOROGO
100
AcDbLine
 10
13944.80217064596
 20
969.8747482146441
 30
0.0
 11
13908.80217064596
 21
969.8747482146441
 31
0.0
1001
AUTOCAD_POSTSCRIPT_FIGURE
1002
{
1000
PSFILL
1000
Grayscale
1000
Grayscale
1070
   100
1002
}
  0
LINE
  5
1D8B4
330
1D62A
100
AcDbEntity
  8
YODOROGO
100
AcDbLine
 10
13944.80217064596
 20
950.2841744681497
 30
0.0
 11
13944.80217064596
 21
969.8747482146441
 31
0.0
1001
AUTOCAD_POSTSCRIPT_FIGURE
1002
{
1000
PSFILL
1000
Grayscale
1000
Grayscale
1070
   100
1002
}
  0
LINE
  5
1D8B5
330
1D62A
100
AcDbEntity
  8
YODOROGO
100
AcDbLine
 10
13928.80217064596
 20
950.2841744681497
 30
0.0
 11
13944.80217064596
 21
950.2841744681497
 31
0.0
1001
AUTOCAD_POSTSCRIPT_FIGURE
1002
{
1000
PSFILL
1000
Grayscale
1000
Grayscale
1070
   100
1002
}
  0
LINE
  5
1D8B6
330
1D62A
100
AcDbEntity
  8
YODOROGO
100
AcDbLine
 10
13928.80217064596
 20
942.2841744681491
 30
0.0
 11
13928.80217064596
 21
950.2841744681497
 31
0.0
1001
AUTOCAD_POSTSCRIPT_FIGURE
1002
{
1000
PSFILL
1000
Grayscale
1000
Grayscale
1070
   100
1002
}
  0
LINE
  5
1D8B7
330
1D62A
100
AcDbEntity
  8
YODOROGO
100
AcDbLine
 10
13944.80217064596
 20
942.2841744681491
 30
0.0
 11
13928.80217064596
 21
942.2841744681491
 31
0.0
1001
AUTOCAD_POSTSCRIPT_FIGURE
1002
{
1000
PSFILL
1000
Grayscale
1000
Grayscale
1070
   100
1002
}
  0
LINE
  5
1D8B8
330
1D62A
100
AcDbEntity
  8
YODOROGO
100
AcDbLine
 10
13944.80217064596
 20
939.8095889822196
 30
0.0
 11
13944.80217064596
 21
942.2841744681491
 31
0.0
1001
AUTOCAD_POSTSCRIPT_FIGURE
1002
{
1000
PSFILL
1000
Grayscale
1000
Grayscale
1070
   100
1002
}
  0
LINE
  5
1D8B9
330
1D62A
100
AcDbEntity
  8
YODOROGO
100
AcDbLine
 10
13924.80217064596
 20
906.4874905807087
 30
0.0
 11
13944.80217064596
 21
939.8095889822196
 31
0.0
1001
AUTOCAD_POSTSCRIPT_FIGURE
1002
{
1000
PSFILL
1000
Grayscale
1000
Grayscale
1070
   100
1002
}
  0
LINE
  5
1D8BA
330
1D62A
100
AcDbEntity
  8
YODOROGO
100
AcDbLine
 10
13924.80217064596
 20
898.487490580708
 30
0.0
 11
13924.80217064596
 21
906.4874905807087
 31
0.0
1001
AUTOCAD_POSTSCRIPT_FIGURE
1002
{
1000
PSFILL
1000
Grayscale
1000
Grayscale
1070
   100
1002
}
  0
LINE
  5
1D8BB
330
1D62A
100
AcDbEntity
  8
YODOROGO
100
AcDbLine
 10
13944.80217064596
 20
923.8095889822183
 30
0.0
 11
13924.80217064596
 21
898.487490580708
 31
0.0
1001
AUTOCAD_POSTSCRIPT_FIGURE
1002
{
1000
PSFILL
1000
Grayscale
1000
Grayscale
1070
   100
1002
}
  0
LINE
  5
1D8BC
330
1D62A
100
AcDbEntity
  8
YODOROGO
100
AcDbLine
 10
13944.80217064596
 20
873.8747482146434
 30
0.0
 11
13944.80217064596
 21
923.8095889822183
 31
0.0
1001
AUTOCAD_POSTSCRIPT_FIGURE
1002
{
1000
PSFILL
1000
Grayscale
1000
Grayscale
1070
   100
1002
}
  0
LINE
  5
1D8BD
330
1D62A
100
AcDbEntity
  8
YODOROGO
100
AcDbLine
 10
13952.80217064596
 20
873.8747482146434
 30
0.0
 11
13944.80217064596
 21
873.8747482146434
 31
0.0
1001
AUTOCAD_POSTSCRIPT_FIGURE
1002
{
1000
PSFILL
1000
Grayscale
1000
Grayscale
1070
   100
1002
}
  0
LINE
  5
1D8BE
330
1D62A
100
AcDbEntity
  8
YODOROGO
100
AcDbLine
 10
13952.80217064596
 20
924.7045060794032
 30
0.0
 11
13952.80217064596
 21
873.8747482146434
 31
0.0
1001
AUTOCAD_POSTSCRIPT_FIGURE
1002
{
1000
PSFILL
1000
Grayscale
1000
Grayscale
1070
   100
1002
}
  0
LINE
  5
1D8BF
330
1D62A
100
AcDbEntity
  8
YODOROGO
100
AcDbLine
 10
13968.80217064596
 20
898.487490580708
 30
0.0
 11
13952.80217064596
 21
924.7045060794032
 31
0.0
1001
AUTOCAD_POSTSCRIPT_FIGURE
1002
{
1000
PSFILL
1000
Grayscale
1000
Grayscale
1070
   100
1002
}
  0
LINE
  5
1D8C0
330
1D62A
100
AcDbEntity
  8
YODOROGO
100
AcDbLine
 10
13968.80217064596
 20
906.4874905807087
 30
0.0
 11
13968.80217064596
 21
898.487490580708
 31
0.0
1001
AUTOCAD_POSTSCRIPT_FIGURE
1002
{
1000
PSFILL
1000
Grayscale
1000
Grayscale
1070
   100
1002
}
  0
LINE
  5
1D8C1
330
1D62A
100
AcDbEntity
  8
YODOROGO
100
AcDbLine
 10
13952.80217064596
 20
940.7045060794041
 30
0.0
 11
13968.80217064596
 21
906.4874905807087
 31
0.0
1001
AUTOCAD_POSTSCRIPT_FIGURE
1002
{
1000
PSFILL
1000
Grayscale
1000
Grayscale
1070
   100
1002
}
  0
LINE
  5
1D8C2
330
1D62A
100
AcDbEntity
  8
YODOROGO
100
AcDbLine
 10
13952.80217064596
 20
942.2841744681502
 30
0.0
 11
13952.80217064596
 21
940.7045060794041
 31
0.0
1001
AUTOCAD_POSTSCRIPT_FIGURE
1002
{
1000
PSFILL
1000
Grayscale
1000
Grayscale
1070
   100
1002
}
  0
LINE
  5
1D8C3
330
1D62A
100
AcDbEntity
  8
YODOROGO
100
AcDbLine
 10
13968.80217064596
 20
942.2841744681491
 30
0.0
 11
13952.80217064596
 21
942.2841744681502
 31
0.0
1001
AUTOCAD_POSTSCRIPT_FIGURE
1002
{
1000
PSFILL
1000
Grayscale
1000
Grayscale
1070
   100
1002
}
  0
LINE
  5
1D8C4
330
1D62A
100
AcDbEntity
  8
YODOROGO
100
AcDbLine
 10
13968.80217064596
 20
950.2841744681497
 30
0.0
 11
13968.80217064596
 21
942.2841744681491
 31
0.0
1001
AUTOCAD_POSTSCRIPT_FIGURE
1002
{
1000
PSFILL
1000
Grayscale
1000
Grayscale
1070
   100
1002
}
  0
LINE
  5
1D8C5
330
1D62A
100
AcDbEntity
  8
YODOROGO
100
AcDbLine
 10
13952.80217064596
 20
950.2841744681497
 30
0.0
 11
13968.80217064596
 21
950.2841744681497
 31
0.0
1001
AUTOCAD_POSTSCRIPT_FIGURE
1002
{
1000
PSFILL
1000
Grayscale
1000
Grayscale
1070
   100
1002
}
  0
LINE
  5
1D8C6
330
1D62A
100
AcDbEntity
  8
YODOROGO
100
AcDbLine
 10
13952.80217064596
 20
969.8747482146441
 30
0.0
 11
13952.80217064596
 21
950.2841744681497
 31
0.0
1001
AUTOCAD_POSTSCRIPT_FIGURE
1002
{
1000
PSFILL
1000
Grayscale
1000
Grayscale
1070
   100
1002
}
  0
LINE
  5
1D8C7
330
1D62A
100
AcDbEntity
  8
YODOROGO
100
AcDbLine
 10
13968.80217064596
 20
969.8747482146441
 30
0.0
 11
13952.80217064596
 21
969.8747482146441
 31
0.0
1001
AUTOCAD_POSTSCRIPT_FIGURE
1002
{
1000
PSFILL
1000
Grayscale
1000
Grayscale
1070
   100
1002
}
  0
LINE
  5
1D8C8
330
1D62A
100
AcDbEntity
  8
YODOROGO
100
AcDbLine
 10
13968.80217064596
 20
977.8747482146435
 30
0.0
 11
13968.80217064596
 21
969.8747482146441
 31
0.0
1001
AUTOCAD_POSTSCRIPT_FIGURE
1002
{
1000
PSFILL
1000
Grayscale
1000
Grayscale
1070
   100
1002
}
  0
LINE
  5
1D8C9
330
1D62A
100
AcDbEntity
  8
YODOROGO
100
AcDbLine
 10
13952.80217064596
 20
977.8747482146435
 30
0.0
 11
13968.80217064596
 21
977.8747482146435
 31
0.0
1001
AUTOCAD_POSTSCRIPT_FIGURE
1002
{
1000
PSFILL
1000
Grayscale
1000
Grayscale
1070
   100
1002
}
  0
LINE
  5
1D8CA
330
1D62A
100
AcDbEntity
  8
YODOROGO
100
AcDbLine
 10
13952.80217064596
 20
989.8747482146442
 30
0.0
 11
13952.80217064596
 21
977.8747482146435
 31
0.0
1001
AUTOCAD_POSTSCRIPT_FIGURE
1002
{
1000
PSFILL
1000
Grayscale
1000
Grayscale
1070
   100
1002
}
  0
LINE
  5
1D8CB
330
1D62A
100
AcDbEntity
  8
YODOROGO
100
AcDbLine
 10
13944.80217064596
 20
989.8747482146442
 30
0.0
 11
13952.80217064596
 21
989.8747482146442
 31
0.0
1001
AUTOCAD_POSTSCRIPT_FIGURE
1002
{
1000
PSFILL
1000
Grayscale
1000
Grayscale
1070
   100
1002
}
  0
LINE
  5
1D8CC
330
1D62A
100
AcDbEntity
  8
YODOROGO
100
AcDbLine
 10
13944.80217064596
 20
977.8747482146435
 30
0.0
 11
13944.80217064596
 21
989.8747482146442
 31
0.0
1001
AUTOCAD_POSTSCRIPT_FIGURE
1002
{
1000
PSFILL
1000
Grayscale
1000
Grayscale
1070
   100
1002
}
  0
LINE
  5
1D8CD
330
1D62A
100
AcDbEntity
  8
YODOROGO
100
AcDbLine
 10
13932.80217064596
 20
977.8747482146435
 30
0.0
 11
13944.80217064596
 21
977.8747482146435
 31
0.0
1001
AUTOCAD_POSTSCRIPT_FIGURE
1002
{
1000
PSFILL
1000
Grayscale
1000
Grayscale
1070
   100
1002
}
  0
LINE
  5
1D8CE
330
1D62A
100
AcDbEntity
  8
YODOROGO
100
AcDbLine
 10
13932.80217064596
 20
989.8747482146442
 30
0.0
 11
13932.80217064596
 21
977.8747482146435
 31
0.0
1001
AUTOCAD_POSTSCRIPT_FIGURE
1002
{
1000
PSFILL
1000
Grayscale
1000
Grayscale
1070
   100
1002
}
  0
LINE
  5
1D8CF
330
1D62A
100
AcDbEntity
  8
YODOROGO
100
AcDbLine
 10
13924.80217064596
 20
989.8747482146442
 30
0.0
 11
13932.80217064596
 21
989.8747482146442
 31
0.0
1001
AUTOCAD_POSTSCRIPT_FIGURE
1002
{
1000
PSFILL
1000
Grayscale
1000
Grayscale
1070
   100
1002
}
  0
LINE
  5
1D8D0
330
1D62A
100
AcDbEntity
  8
YODOROGO
100
AcDbLine
 10
13924.80217064596
 20
977.8747482146435
 30
0.0
 11
13924.80217064596
 21
989.8747482146442
 31
0.0
1001
AUTOCAD_POSTSCRIPT_FIGURE
1002
{
1000
PSFILL
1000
Grayscale
1000
Grayscale
1070
   100
1002
}
  0
LINE
  5
1D8D1
330
1D62A
100
AcDbEntity
  8
YODOROGO
100
AcDbLine
 10
13908.80217064596
 20
977.8747482146435
 30
0.0
 11
13924.80217064596
 21
977.8747482146435
 31
0.0
1001
AUTOCAD_POSTSCRIPT_FIGURE
1002
{
1000
PSFILL
1000
Grayscale
1000
Grayscale
1070
   100
1002
}
  0
LINE
  5
1D8D2
330
1D62A
100
AcDbEntity
  8
YODOROGO
100
AcDbLine
 10
13908.80217064596
 20
989.8747482146442
 30
0.0
 11
13908.80217064596
 21
977.8747482146435
 31
0.0
1001
AUTOCAD_POSTSCRIPT_FIGURE
1002
{
1000
PSFILL
1000
Grayscale
1000
Grayscale
1070
   100
1002
}
  0
LINE
  5
1D8D3
330
1D62A
100
AcDbEntity
  8
YODOROGO
100
AcDbLine
 10
13900.80217064596
 20
989.8747482146442
 30
0.0
 11
13908.80217064596
 21
989.8747482146442
 31
0.0
1001
AUTOCAD_POSTSCRIPT_FIGURE
1002
{
1000
PSFILL
1000
Grayscale
1000
Grayscale
1070
   100
1002
}
  0
LINE
  5
1D8D4
330
1D62A
100
AcDbEntity
  8
YODOROGO
100
AcDbLine
 10
13900.80217064596
 20
977.8747482146435
 30
0.0
 11
13900.80217064596
 21
989.8747482146442
 31
0.0
1001
AUTOCAD_POSTSCRIPT_FIGURE
1002
{
1000
PSFILL
1000
Grayscale
1000
Grayscale
1070
   100
1002
}
  0
LINE
  5
1D8D5
330
1D62A
100
AcDbEntity
  8
YODOROGO
100
AcDbLine
 10
13888.80217064596
 20
977.8747482146435
 30
0.0
 11
13900.80217064596
 21
977.8747482146435
 31
0.0
1001
AUTOCAD_POSTSCRIPT_FIGURE
1002
{
1000
PSFILL
1000
Grayscale
1000
Grayscale
1070
   100
1002
}
  0
LINE
  5
1D8D6
330
1D62A
100
AcDbEntity
  8
YODOROGO
100
AcDbLine
 10
13888.80217064596
 20
969.8747482146441
 30
0.0
 11
13888.80217064596
 21
977.8747482146435
 31
0.0
1001
AUTOCAD_POSTSCRIPT_FIGURE
1002
{
1000
PSFILL
1000
Grayscale
1000
Grayscale
1070
   100
1002
}
  0
LINE
  5
1D8D7
330
1D62A
100
AcDbEntity
  8
YODOROGO
100
AcDbLine
 10
13900.80217064596
 20
969.8747482146441
 30
0.0
 11
13888.80217064596
 21
969.8747482146441
 31
0.0
1001
AUTOCAD_POSTSCRIPT_FIGURE
1002
{
1000
PSFILL
1000
Grayscale
1000
Grayscale
1070
   100
1002
}
  0
LINE
  5
1D8D8
330
1D62A
100
AcDbEntity
  8
YODOROGO
100
AcDbLine
 10
13900.80217064596
 20
957.3932903968525
 30
0.0
 11
13900.80217064596
 21
969.8747482146441
 31
0.0
1001
AUTOCAD_POSTSCRIPT_FIGURE
1002
{
1000
PSFILL
1000
Grayscale
1000
Grayscale
1070
   100
1002
}
  0
LINE
  5
1D8D9
330
1D62A
100
AcDbEntity
  8
YODOROGO
100
AcDbLine
 10
13888.80217064596
 20
929.8883739758355
 30
0.0
 11
13900.80217064596
 21
957.3932903968525
 31
0.0
1001
AUTOCAD_POSTSCRIPT_FIGURE
1002
{
1000
PSFILL
1000
Grayscale
1000
Grayscale
1070
   100
1002
}
  0
LINE
  5
1D8DA
330
1D62A
100
AcDbEntity
  8
YODOROGO
100
AcDbLine
 10
13888.80217064596
 20
921.8883739758362
 30
0.0
 11
13888.80217064596
 21
929.8883739758355
 31
0.0
1001
AUTOCAD_POSTSCRIPT_FIGURE
1002
{
1000
PSFILL
1000
Grayscale
1000
Grayscale
1070
   100
1002
}
  0
LINE
  5
1D8DB
330
1D62A
100
AcDbEntity
  8
YODOROGO
100
AcDbLine
 10
14128.80217064596
 20
933.8747482146439
 30
0.0
 11
14200.80217064594
 21
912.4388128201532
 31
0.0
1001
AUTOCAD_POSTSCRIPT_FIGURE
1002
{
1000
PSFILL
1000
Grayscale
1000
Grayscale
1070
   100
1002
}
  0
LINE
  5
1D8DC
330
1D62A
100
AcDbEntity
  8
YODOROGO
100
AcDbLine
 10
14200.80217064594
 20
876.4388128201531
 30
0.0
 11
14128.80217064596
 21
897.8747482146435
 31
0.0
1001
AUTOCAD_POSTSCRIPT_FIGURE
1002
{
1000
PSFILL
1000
Grayscale
1000
Grayscale
1070
   100
1002
}
  0
LINE
  5
1D8DD
330
1D62A
100
AcDbEntity
  8
YODOROGO
100
AcDbLine
 10
14200.80217064594
 20
992.4388128201531
 30
0.0
 11
14128.80217064596
 21
1013.874748214644
 31
0.0
1001
AUTOCAD_POSTSCRIPT_FIGURE
1002
{
1000
PSFILL
1000
Grayscale
1000
Grayscale
1070
   100
1002
}
  0
LINE
  5
1D8DE
330
1D62A
100
AcDbEntity
  8
YODOROGO
100
AcDbLine
 10
14128.80217064596
 20
979.874748214644
 30
0.0
 11
14200.80217064594
 21
958.4388128201537
 31
0.0
1001
AUTOCAD_POSTSCRIPT_FIGURE
1002
{
1000
PSFILL
1000
Grayscale
1000
Grayscale
1070
   100
1002
}
  0
LINE
  5
1D8DF
330
1D62A
100
AcDbEntity
  8
YODOROGO
100
AcDbLine
 10
14128.80217064596
 20
897.8747482146435
 30
0.0
 11
14128.80217064596
 21
933.8747482146439
 31
0.0
1001
AUTOCAD_POSTSCRIPT_FIGURE
1002
{
1000
PSFILL
1000
Grayscale
1000
Grayscale
1070
   100
1002
}
  0
LINE
  5
1D8E0
330
1D62A
100
AcDbEntity
  8
YODOROGO
100
AcDbLine
 10
14128.80217064596
 20
1013.874748214644
 30
0.0
 11
14128.80217064596
 21
979.874748214644
 31
0.0
1001
AUTOCAD_POSTSCRIPT_FIGURE
1002
{
1000
PSFILL
1000
Grayscale
1000
Grayscale
1070
   100
1002
}
  0
LINE
  5
1D8E1
330
1D62A
100
AcDbEntity
  8
YODOROGO
100
AcDbLine
 10
14040.11816010337
 20
969.8747482146441
 30
0.0
 11
14064.80217064595
 21
873.8747482146434
 31
0.0
1001
AUTOCAD_POSTSCRIPT_FIGURE
1002
{
1000
PSFILL
1000
Grayscale
1000
Grayscale
1070
   100
1002
}
  0
LINE
  5
1D8E2
330
1D62A
100
AcDbEntity
  8
YODOROGO
100
AcDbLine
 10
13988.80217064596
 20
969.8747482146441
 30
0.0
 11
14040.11816010337
 21
969.8747482146441
 31
0.0
1001
AUTOCAD_POSTSCRIPT_FIGURE
1002
{
1000
PSFILL
1000
Grayscale
1000
Grayscale
1070
   100
1002
}
  0
LINE
  5
1D8E3
330
1D62A
100
AcDbEntity
  8
YODOROGO
100
AcDbLine
 10
13988.80217064596
 20
977.8747482146435
 30
0.0
 11
13988.80217064596
 21
969.8747482146441
 31
0.0
1001
AUTOCAD_POSTSCRIPT_FIGURE
1002
{
1000
PSFILL
1000
Grayscale
1000
Grayscale
1070
   100
1002
}
  0
LINE
  5
1D8E4
330
1D62A
100
AcDbEntity
  8
YODOROGO
100
AcDbLine
 10
14038.30343925995
 20
977.8747482146435
 30
0.0
 11
13988.80217064596
 21
977.8747482146435
 31
0.0
1001
AUTOCAD_POSTSCRIPT_FIGURE
1002
{
1000
PSFILL
1000
Grayscale
1000
Grayscale
1070
   100
1002
}
  0
LINE
  5
1D8E5
330
1D62A
100
AcDbEntity
  8
YODOROGO
100
AcDbLine
 10
14035.58135799485
 20
989.8747482146442
 30
0.0
 11
14038.30343925995
 21
977.8747482146435
 31
0.0
1001
AUTOCAD_POSTSCRIPT_FIGURE
1002
{
1000
PSFILL
1000
Grayscale
1000
Grayscale
1070
   100
1002
}
  0
LINE
  5
1D8E6
330
1D62A
100
AcDbEntity
  8
YODOROGO
100
AcDbLine
 10
14045.58135799485
 20
989.8747482146442
 30
0.0
 11
14035.58135799485
 21
989.8747482146442
 31
0.0
1001
AUTOCAD_POSTSCRIPT_FIGURE
1002
{
1000
PSFILL
1000
Grayscale
1000
Grayscale
1070
   100
1002
}
  0
LINE
  5
1D8E7
330
1D62A
100
AcDbEntity
  8
YODOROGO
100
AcDbLine
 10
14047.90343925997
 20
977.8747482146435
 30
0.0
 11
14045.58135799485
 21
989.8747482146442
 31
0.0
1001
AUTOCAD_POSTSCRIPT_FIGURE
1002
{
1000
PSFILL
1000
Grayscale
1000
Grayscale
1070
   100
1002
}
  0
LINE
  5
1D8E8
330
1D62A
100
AcDbEntity
  8
YODOROGO
100
AcDbLine
 10
14060.80217064596
 20
977.8747482146435
 30
0.0
 11
14047.90343925997
 21
977.8747482146435
 31
0.0
1001
AUTOCAD_POSTSCRIPT_FIGURE
1002
{
1000
PSFILL
1000
Grayscale
1000
Grayscale
1070
   100
1002
}
  0
LINE
  5
1D8E9
330
1D62A
100
AcDbEntity
  8
YODOROGO
100
AcDbLine
 10
14060.80217064596
 20
989.8747482146442
 30
0.0
 11
14060.80217064596
 21
977.8747482146435
 31
0.0
1001
AUTOCAD_POSTSCRIPT_FIGURE
1002
{
1000
PSFILL
1000
Grayscale
1000
Grayscale
1070
   100
1002
}
  0
LINE
  5
1D8EA
330
1D62A
100
AcDbEntity
  8
YODOROGO
100
AcDbLine
 10
14068.80217064596
 20
989.8747482146442
 30
0.0
 11
14060.80217064596
 21
989.8747482146442
 31
0.0
1001
AUTOCAD_POSTSCRIPT_FIGURE
1002
{
1000
PSFILL
1000
Grayscale
1000
Grayscale
1070
   100
1002
}
  0
LINE
  5
1D8EB
330
1D62A
100
AcDbEntity
  8
YODOROGO
100
AcDbLine
 10
14068.80217064596
 20
977.8747482146435
 30
0.0
 11
14068.80217064596
 21
989.8747482146442
 31
0.0
1001
AUTOCAD_POSTSCRIPT_FIGURE
1002
{
1000
PSFILL
1000
Grayscale
1000
Grayscale
1070
   100
1002
}
  0
LINE
  5
1D8EC
330
1D62A
100
AcDbEntity
  8
YODOROGO
100
AcDbLine
 10
14068.80217064596
 20
969.8747482146441
 30
0.0
 11
14068.80217064596
 21
977.8747482146435
 31
0.0
1001
AUTOCAD_POSTSCRIPT_FIGURE
1002
{
1000
PSFILL
1000
Grayscale
1000
Grayscale
1070
   100
1002
}
  0
LINE
  5
1D8ED
330
1D62A
100
AcDbEntity
  8
YODOROGO
100
AcDbLine
 10
14049.45149343671
 20
969.8747482146441
 30
0.0
 11
14068.80217064596
 21
969.8747482146441
 31
0.0
1001
AUTOCAD_POSTSCRIPT_FIGURE
1002
{
1000
PSFILL
1000
Grayscale
1000
Grayscale
1070
   100
1002
}
  0
LINE
  5
1D8EE
330
1D62A
100
AcDbEntity
  8
YODOROGO
100
AcDbLine
 10
14068.80217064596
 20
873.8747482146434
 30
0.0
 11
14049.45149343671
 21
969.8747482146441
 31
0.0
1001
AUTOCAD_POSTSCRIPT_FIGURE
1002
{
1000
PSFILL
1000
Grayscale
1000
Grayscale
1070
   100
1002
}
  0
LINE
  5
1D8EF
330
1D62A
100
AcDbEntity
  8
YODOROGO
100
AcDbLine
 10
14064.80217064595
 20
873.8747482146434
 30
0.0
 11
14068.80217064596
 21
873.8747482146434
 31
0.0
1001
AUTOCAD_POSTSCRIPT_FIGURE
1002
{
1000
PSFILL
1000
Grayscale
1000
Grayscale
1070
   100
1002
}
  0
LINE
  5
1D8F0
330
1D62A
100
AcDbEntity
  8
YODOROGO
100
AcDbLine
 10
14039.03460996689
 20
887.8703881493972
 30
0.0
 11
13988.80217064596
 21
873.8747482146434
 31
0.0
  0
LINE
  5
1D8F1
330
1D62A
100
AcDbEntity
  8
YODOROGO
100
AcDbLine
 10
14039.03460996689
 20
899.3344897645364
 30
0.0
 11
14039.03460996689
 21
887.8703881493972
 31
0.0
  0
LINE
  5
1D8F2
330
1D62A
100
AcDbEntity
  8
YODOROGO
100
AcDbLine
 10
14016.91839030643
 20
893.4084665668834
 30
0.0
 11
14039.03460996689
 21
899.3344897645364
 31
0.0
  0
LINE
  5
1D8F3
330
1D62A
100
AcDbEntity
  8
YODOROGO
100
AcDbLine
 10
14016.91839030643
 20
936.2841744681499
 30
0.0
 11
14016.91839030643
 21
893.4084665668834
 31
0.0
  0
LINE
  5
1D8F4
330
1D62A
100
AcDbEntity
  8
YODOROGO
100
AcDbLine
 10
14039.03460996689
 20
936.2841744681499
 30
0.0
 11
14016.91839030643
 21
936.2841744681499
 31
0.0
  0
LINE
  5
1D8F5
330
1D62A
100
AcDbEntity
  8
YODOROGO
100
AcDbLine
 10
14039.03460996689
 20
946.2841744681487
 30
0.0
 11
14039.03460996689
 21
936.2841744681499
 31
0.0
  0
LINE
  5
1D8F6
330
1D62A
100
AcDbEntity
  8
YODOROGO
100
AcDbLine
 10
13988.80217064596
 20
946.2841744681487
 30
0.0
 11
14039.03460996689
 21
946.2841744681487
 31
0.0
  0
LINE
  5
1D8F7
330
1D62A
100
AcDbEntity
  8
YODOROGO
100
AcDbLine
 10
13988.80217064596
 20
936.2841744681499
 30
0.0
 11
13988.80217064596
 21
946.2841744681487
 31
0.0
  0
LINE
  5
1D8F8
330
1D62A
100
AcDbEntity
  8
YODOROGO
100
AcDbLine
 10
14010.91839030643
 20
936.2841744681499
 30
0.0
 11
13988.80217064596
 21
936.2841744681499
 31
0.0
  0
LINE
  5
1D8F9
330
1D62A
100
AcDbEntity
  8
YODOROGO
100
AcDbLine
 10
14010.91839030643
 20
892.3366697971587
 30
0.0
 11
14010.91839030643
 21
936.2841744681499
 31
0.0
  0
LINE
  5
1D8FA
330
1D62A
100
AcDbEntity
  8
YODOROGO
100
AcDbLine
 10
13988.80217064596
 20
885.8747482146432
 30
0.0
 11
14010.91839030643
 21
892.3366697971587
 31
0.0
  0
LINE
  5
1D8FB
330
1D62A
100
AcDbEntity
  8
YODOROGO
100
AcDbLine
 10
13988.80217064596
 20
873.8747482146434
 30
0.0
 11
13988.80217064596
 21
885.8747482146432
 31
0.0
  0
LINE
  5
1D8FC
330
1D62A
100
AcDbEntity
  8
YODOROGO
100
AcDbLine
 10
14000.80217064596
 20
853.874748214644
 30
0.0
 11
14000.80217064596
 21
841.8747482146434
 31
0.0
  0
LINE
  5
1D8FD
330
1D62A
100
AcDbEntity
  8
YODOROGO
100
AcDbLine
 10
14000.80217064596
 20
853.874748214644
 30
0.0
 11
14000.80217064596
 21
853.874748214644
 31
0.0
  0
LINE
  5
1D8FE
330
1D62A
100
AcDbEntity
  8
YODOROGO
100
AcDbLine
 10
14008.80217064596
 20
853.874748214644
 30
0.0
 11
14000.80217064596
 21
853.874748214644
 31
0.0
  0
LINE
  5
1D8FF
330
1D62A
100
AcDbEntity
  8
YODOROGO
100
AcDbLine
 10
14008.80217064596
 20
841.8747482146434
 30
0.0
 11
14008.80217064596
 21
853.874748214644
 31
0.0
  0
LINE
  5
1D900
330
1D62A
100
AcDbEntity
  8
YODOROGO
100
AcDbLine
 10
14020.45660200844
 20
841.8747482146434
 30
0.0
 11
14008.80217064596
 21
841.8747482146434
 31
0.0
  0
LINE
  5
1D901
330
1D62A
100
AcDbEntity
  8
YODOROGO
100
AcDbLine
 10
14000.80217064596
 20
841.8747482146434
 30
0.0
 11
13988.80217064596
 21
841.8747482146434
 31
0.0
  0
LINE
  5
1D902
330
1D62A
100
AcDbEntity
  8
YODOROGO
100
AcDbLine
 10
14041.06776011546
 20
853.874748214644
 30
0.0
 11
14049.06776011545
 21
853.874748214644
 31
0.0
1001
AUTOCAD_POSTSCRIPT_FIGURE
1002
{
1000
PSFILL
1000
Grayscale
1000
Grayscale
1070
   100
1002
}
  0
LINE
  5
1D903
330
1D62A
100
AcDbEntity
  8
YODOROGO
100
AcDbLine
 10
14200.80217064594
 20
912.4388128201532
 30
0.0
 11
14200.80217064594
 21
876.4388128201531
 31
0.0
1001
AUTOCAD_POSTSCRIPT_FIGURE
1002
{
1000
PSFILL
1000
Grayscale
1000
Grayscale
1070
   100
1002
}
  0
LINE
  5
1D904
330
1D62A
100
AcDbEntity
  8
YODOROGO
100
AcDbLine
 10
14200.80217064594
 20
958.4388128201537
 30
0.0
 11
14200.80217064594
 21
992.4388128201531
 31
0.0
1001
AUTOCAD_POSTSCRIPT_FIGURE
1002
{
1000
PSFILL
1000
Grayscale
1000
Grayscale
1070
   100
1002
}
  0
LINE
  5
1D905
330
1D62A
100
AcDbEntity
  8
YODOROGO
100
AcDbLine
 10
14216.80217064594
 20
909.8747482146439
 30
0.0
 11
14216.80217064594
 21
873.8747482146449
 31
0.0
  0
LINE
  5
1D906
330
1D62A
100
AcDbEntity
  8
YODOROGO
100
AcDbLine
 10
14248.80217064594
 20
853.874748214644
 30
0.0
 11
14216.80217064594
 21
853.874748214644
 31
0.0
  0
LINE
  5
1D907
330
1D62A
100
AcDbEntity
  8
YODOROGO
100
AcDbLine
 10
14216.80217064594
 20
873.8747482146449
 30
0.0
 11
14292.80217064596
 21
873.8747482146449
 31
0.0
  0
LINE
  5
1D908
330
1D62A
100
AcDbEntity
  8
YODOROGO
100
AcDbLine
 10
14248.80217064594
 20
933.8747482146439
 30
0.0
 11
14216.80217064594
 21
933.8747482146439
 31
0.0
  0
LINE
  5
1D909
330
1D62A
100
AcDbEntity
  8
YODOROGO
100
AcDbLine
 10
14248.80217064594
 20
961.8747482146432
 30
0.0
 11
14248.80217064594
 21
933.8747482146439
 31
0.0
  0
LINE
  5
1D90A
330
1D62A
100
AcDbEntity
  8
YODOROGO
100
AcDbLine
 10
14292.80217064596
 20
993.8747482146439
 30
0.0
 11
14292.80217064596
 21
1013.874748214644
 31
0.0
  0
LINE
  5
1D90B
330
1D62A
100
AcDbEntity
  8
YODOROGO
100
AcDbLine
 10
14216.80217064594
 20
993.8747482146439
 30
0.0
 11
14292.80217064596
 21
993.8747482146439
 31
0.0
  0
LINE
  5
1D90C
330
1D62A
100
AcDbEntity
  8
YODOROGO
100
AcDbLine
 10
14216.80217064594
 20
933.8747482146439
 30
0.0
 11
14216.80217064594
 21
993.8747482146439
 31
0.0
  0
LINE
  5
1D90D
330
1D62A
100
AcDbEntity
  8
YODOROGO
100
AcDbLine
 10
14500.80217064594
 20
1013.874748214644
 30
0.0
 11
14500.80217064594
 21
809.8747482146441
 31
0.0
  0
LINE
  5
1D90E
330
1D62A
100
AcDbEntity
  8
YODOROGO
100
AcDbLine
 10
14536.80217064596
 20
789.8747482146441
 30
0.0
 11
14536.80217064596
 21
1013.874748214644
 31
0.0
  0
LINE
  5
1D90F
330
1D62A
100
AcDbEntity
  8
YODOROGO
100
AcDbLine
 10
14630.80217064596
 20
745.8747482146431
 30
0.0
 11
14630.80217064596
 21
1003.874748214644
 31
0.0
  0
LINE
  5
1D910
330
1D62A
100
AcDbEntity
  8
YODOROGO
100
AcDbLine
 10
14598.80217064596
 20
1003.874748214644
 30
0.0
 11
14598.80217064596
 21
745.8747482146431
 31
0.0
  0
LINE
  5
1D911
330
1D62A
100
AcDbEntity
  8
YODOROGO
100
AcDbLine
 10
14692.80217064596
 20
1013.874748214644
 30
0.0
 11
14692.80217064596
 21
713.8747482146436
 31
0.0
  0
LINE
  5
1D912
330
1D62A
100
AcDbEntity
  8
YODOROGO
100
AcDbLine
 10
14728.80217064596
 20
713.8747482146436
 30
0.0
 11
14728.80217064596
 21
1013.874748214644
 31
0.0
  0
LINE
  5
1D913
330
1D62A
100
AcDbEntity
  8
YODOROGO
100
AcDbLine
 10
14328.80217064594
 20
833.8747482146439
 30
0.0
 11
14328.80217064594
 21
873.8747482146449
 31
0.0
  0
LINE
  5
1D914
330
1D62A
100
AcDbEntity
  8
YODOROGO
100
AcDbLine
 10
14942.80217064596
 20
853.874748214644
 30
0.0
 11
14942.80217064596
 21
833.8747482146439
 31
0.0
  0
LINE
  5
1D915
330
1D62A
100
AcDbEntity
  8
YODOROGO
100
AcDbLine
 10
14942.80217064596
 20
853.874748214644
 30
0.0
 11
14942.80217064596
 21
833.8747482146439
 31
0.0
  0
ARC
  5
1D916
330
1D62A
100
AcDbEntity
  8
YODOROGO
100
AcDbCircle
 10
14453.45578809342
 20
809.1089322211363
 30
0.0
 40
47.35257558937082
100
AcDbArc
 50
274.052441629071
 51
0.9266642149310712
  0
ARC
  5
1D917
330
1D62A
100
AcDbEntity
  8
YODOROGO
100
AcDbCircle
 10
14454.5930853599
 20
796.30536430522
 30
0.0
 40
82.46021178042756
100
AcDbArc
 50
271.5351210653777
 51
355.5272775058505
  0
LINE
  5
1D918
330
1D62A
100
AcDbEntity
  8
YODOROGO
100
AcDbLine
 10
14456.80217064596
 20
761.8747482146434
 30
0.0
 11
14456.80217064596
 21
713.8747482146436
 31
0.0
  0
LINE
  5
1D919
330
1D62A
100
AcDbEntity
  8
YODOROGO
100
AcDbLine
 10
14396.80217064594
 20
833.8747482146439
 30
0.0
 11
14328.80217064594
 21
833.8747482146439
 31
0.0
  0
LINE
  5
1D91A
330
1D62A
100
AcDbEntity
  8
YODOROGO
100
AcDbLine
 10
14396.80217064594
 20
801.8747482146444
 30
0.0
 11
14396.80217064594
 21
833.8747482146439
 31
0.0
  0
LINE
  5
1D91B
330
1D62A
100
AcDbEntity
  8
YODOROGO
100
AcDbLine
 10
14328.80217064594
 20
801.8747482146444
 30
0.0
 11
14396.80217064594
 21
801.8747482146444
 31
0.0
  0
LINE
  5
1D91C
330
1D62A
100
AcDbEntity
  8
YODOROGO
100
AcDbLine
 10
14328.80217064594
 20
761.8747482146434
 30
0.0
 11
14328.80217064594
 21
801.8747482146444
 31
0.0
  0
LINE
  5
1D91D
330
1D62A
100
AcDbEntity
  8
YODOROGO
100
AcDbLine
 10
14396.80217064594
 20
761.8747482146434
 30
0.0
 11
14328.80217064594
 21
761.8747482146434
 31
0.0
  0
LINE
  5
1D91E
330
1D62A
100
AcDbEntity
  8
YODOROGO
100
AcDbLine
 10
14396.80217064594
 20
713.8747482146436
 30
0.0
 11
14396.80217064594
 21
761.8747482146434
 31
0.0
  0
LINE
  5
1D91F
330
1D62A
100
AcDbEntity
  8
YODOROGO
100
AcDbLine
 10
14598.80217064596
 20
745.8747482146431
 30
0.0
 11
14630.80217064596
 21
745.8747482146431
 31
0.0
  0
LINE
  5
1D920
330
1D62A
100
AcDbEntity
  8
YODOROGO
100
AcDbLine
 10
14692.80217064596
 20
713.8747482146436
 30
0.0
 11
14728.80217064596
 21
713.8747482146436
 31
0.0
  0
LINE
  5
1D921
330
1D62A
100
AcDbEntity
  8
YODOROGO
100
AcDbLine
 10
14868.80217064596
 20
764.2207260852818
 30
0.0
 11
14868.80217064596
 21
713.8747482146436
 31
0.0
  0
LINE
  5
1D922
330
1D62A
100
AcDbEntity
  8
YODOROGO
100
AcDbLine
 10
14808.80217064596
 20
713.8747482146436
 30
0.0
 11
14868.80217064596
 21
764.2207260852818
 31
0.0
  0
LINE
  5
1D923
330
1D62A
100
AcDbEntity
  8
YODOROGO
100
AcDbLine
 10
14808.80217064596
 20
773.874748214644
 30
0.0
 11
14808.80217064596
 21
713.8747482146436
 31
0.0
  0
LINE
  5
1D924
330
1D62A
100
AcDbEntity
  8
YODOROGO
100
AcDbLine
 10
14856.47231434973
 20
813.8747482146435
 30
0.0
 11
14808.80217064596
 21
773.874748214644
 31
0.0
  0
LINE
  5
1D925
330
1D62A
100
AcDbEntity
  8
YODOROGO
100
AcDbLine
 10
14808.80217064596
 20
813.8747482146435
 30
0.0
 11
14856.47231434973
 21
813.8747482146435
 31
0.0
  0
LINE
  5
1D926
330
1D62A
100
AcDbEntity
  8
YODOROGO
100
AcDbLine
 10
14808.80217064596
 20
833.8747482146439
 30
0.0
 11
14808.80217064596
 21
813.8747482146435
 31
0.0
  0
LINE
  5
1D927
330
1D62A
100
AcDbEntity
  8
YODOROGO
100
AcDbLine
 10
14942.80217064596
 20
833.8747482146439
 30
0.0
 11
14808.80217064596
 21
833.8747482146439
 31
0.0
  0
LINE
  5
1D928
330
1D62A
100
AcDbEntity
  8
YODOROGO
100
AcDbLine
 10
14958.80217064596
 20
813.8747482146435
 30
0.0
 11
14888.80217064596
 21
813.8747482146435
 31
0.0
  0
LINE
  5
1D929
330
1D62A
100
AcDbEntity
  8
YODOROGO
100
AcDbLine
 10
14888.80217064596
 20
781.0027187088283
 30
0.0
 11
14885.70493649264
 21
778.403830673117
 31
0.0
  0
LINE
  5
1D92A
330
1D62A
100
AcDbEntity
  8
YODOROGO
100
AcDbLine
 10
14888.80217064596
 20
813.8747482146435
 30
0.0
 11
14888.80217064596
 21
781.0027187088283
 31
0.0
  0
LINE
  5
1D92B
330
1D62A
100
AcDbEntity
  8
YODOROGO
100
AcDbLine
 10
14868.80217064596
 20
764.2207260852818
 30
0.0
 11
14868.80217064596
 21
713.8747482146436
 31
0.0
  0
LINE
  5
1D92C
330
1D62A
100
AcDbEntity
  8
YODOROGO
100
AcDbLine
 10
14808.80217064596
 20
713.8747482146436
 30
0.0
 11
14868.80217064596
 21
764.2207260852818
 31
0.0
  0
LINE
  5
1D92D
330
1D62A
100
AcDbEntity
  8
YODOROGO
100
AcDbLine
 10
14808.80217064596
 20
773.874748214644
 30
0.0
 11
14808.80217064596
 21
713.8747482146436
 31
0.0
  0
LINE
  5
1D92E
330
1D62A
100
AcDbEntity
  8
YODOROGO
100
AcDbLine
 10
14856.47231434973
 20
813.8747482146435
 30
0.0
 11
14808.80217064596
 21
773.874748214644
 31
0.0
  0
LINE
  5
1D92F
330
1D62A
100
AcDbEntity
  8
YODOROGO
100
AcDbLine
 10
14808.80217064596
 20
813.8747482146435
 30
0.0
 11
14856.47231434973
 21
813.8747482146435
 31
0.0
  0
LINE
  5
1D930
330
1D62A
100
AcDbEntity
  8
YODOROGO
100
AcDbLine
 10
14808.80217064596
 20
833.8747482146439
 30
0.0
 11
14808.80217064596
 21
813.8747482146435
 31
0.0
  0
LINE
  5
1D931
330
1D62A
100
AcDbEntity
  8
YODOROGO
100
AcDbLine
 10
14942.80217064596
 20
833.8747482146439
 30
0.0
 11
14808.80217064596
 21
833.8747482146439
 31
0.0
  0
LINE
  5
1D932
330
1D62A
100
AcDbEntity
  8
YODOROGO
100
AcDbLine
 10
14396.80217064594
 20
873.8747482146449
 30
0.0
 11
14396.80217064594
 21
909.8747482146439
 31
0.0
  0
LINE
  5
1D933
330
1D62A
100
AcDbEntity
  8
YODOROGO
100
AcDbLine
 10
14328.80217064594
 20
873.8747482146449
 30
0.0
 11
14396.80217064594
 21
873.8747482146449
 31
0.0
  0
LINE
  5
1D934
330
1D62A
100
AcDbEntity
  8
YODOROGO
100
AcDbLine
 10
14364.80217064596
 20
933.8747482146439
 30
0.0
 11
14364.80217064596
 21
961.8747482146432
 31
0.0
  0
LINE
  5
1D935
330
1D62A
100
AcDbEntity
  8
YODOROGO
100
AcDbLine
 10
14396.80217064594
 20
933.8747482146439
 30
0.0
 11
14364.80217064596
 21
933.8747482146439
 31
0.0
  0
LINE
  5
1D936
330
1D62A
100
AcDbEntity
  8
YODOROGO
100
AcDbLine
 10
14396.80217064594
 20
973.8747482146434
 30
0.0
 11
14396.80217064594
 21
933.8747482146439
 31
0.0
  0
ARC
  5
1D937
330
1D62A
100
AcDbEntity
  8
YODOROGO
100
AcDbCircle
 10
14376.80217064594
 20
973.8747482146434
 30
0.0
 40
20.0
100
AcDbArc
 50
0.0
 51
90.0
  0
LINE
  5
1D938
330
1D62A
100
AcDbEntity
  8
YODOROGO
100
AcDbLine
 10
14328.80217064596
 20
993.8747482146439
 30
0.0
 11
14376.80217064594
 21
993.8747482146439
 31
0.0
  0
LINE
  5
1D939
330
1D62A
100
AcDbEntity
  8
YODOROGO
100
AcDbLine
 10
14328.80217064596
 20
1013.874748214644
 30
0.0
 11
14328.80217064596
 21
993.8747482146439
 31
0.0
  0
LINE
  5
1D93A
330
1D62A
100
AcDbEntity
  8
YODOROGO
100
AcDbLine
 10
14536.80217064596
 20
1013.874748214644
 30
0.0
 11
14500.80217064594
 21
1013.874748214644
 31
0.0
  0
LINE
  5
1D93B
330
1D62A
100
AcDbEntity
  8
YODOROGO
100
AcDbLine
 10
14630.80217064596
 20
1003.874748214644
 30
0.0
 11
14598.80217064596
 21
1003.874748214644
 31
0.0
  0
LINE
  5
1D93C
330
1D62A
100
AcDbEntity
  8
YODOROGO
100
AcDbLine
 10
14728.80217064596
 20
1013.874748214644
 30
0.0
 11
14692.80217064596
 21
1013.874748214644
 31
0.0
  0
LINE
  5
1D93D
330
1D62A
100
AcDbEntity
  8
YODOROGO
100
AcDbLine
 10
14836.80217064596
 20
853.874748214644
 30
0.0
 11
14836.80217064596
 21
885.8747482146441
 31
0.0
1001
AUTOCAD_POSTSCRIPT_FIGURE
1002
{
1000
PSFILL
1000
Grayscale
1000
Grayscale
1070
    25
1002
}
  0
LINE
  5
1D93E
330
1D62A
100
AcDbEntity
  8
YODOROGO
100
AcDbLine
 10
14808.80217064596
 20
853.874748214644
 30
0.0
 11
14836.80217064596
 21
853.874748214644
 31
0.0
1001
AUTOCAD_POSTSCRIPT_FIGURE
1002
{
1000
PSFILL
1000
Grayscale
1000
Grayscale
1070
    25
1002
}
  0
LINE
  5
1D93F
330
1D62A
100
AcDbEntity
  8
YODOROGO
100
AcDbLine
 10
14808.80217064596
 20
909.8747482146439
 30
0.0
 11
14808.80217064596
 21
853.874748214644
 31
0.0
1001
AUTOCAD_POSTSCRIPT_FIGURE
1002
{
1000
PSFILL
1000
Grayscale
1000
Grayscale
1070
    25
1002
}
  0
LINE
  5
1D940
330
1D62A
100
AcDbEntity
  8
YODOROGO
100
AcDbLine
 10
14882.80217064596
 20
909.8747482146439
 30
0.0
 11
14808.80217064596
 21
909.8747482146439
 31
0.0
1001
AUTOCAD_POSTSCRIPT_FIGURE
1002
{
1000
PSFILL
1000
Grayscale
1000
Grayscale
1070
    25
1002
}
  0
LINE
  5
1D941
330
1D62A
100
AcDbEntity
  8
YODOROGO
100
AcDbLine
 10
14882.80217064596
 20
929.874748214644
 30
0.0
 11
14882.80217064596
 21
909.8747482146439
 31
0.0
1001
AUTOCAD_POSTSCRIPT_FIGURE
1002
{
1000
PSFILL
1000
Grayscale
1000
Grayscale
1070
    25
1002
}
  0
LINE
  5
1D942
330
1D62A
100
AcDbEntity
  8
YODOROGO
100
AcDbLine
 10
14808.80217064596
 20
929.874748214644
 30
0.0
 11
14882.80217064596
 21
929.874748214644
 31
0.0
1001
AUTOCAD_POSTSCRIPT_FIGURE
1002
{
1000
PSFILL
1000
Grayscale
1000
Grayscale
1070
    25
1002
}
  0
LINE
  5
1D943
330
1D62A
100
AcDbEntity
  8
YODOROGO
100
AcDbLine
 10
14808.80217064596
 20
953.874748214644
 30
0.0
 11
14808.80217064596
 21
929.874748214644
 31
0.0
1001
AUTOCAD_POSTSCRIPT_FIGURE
1002
{
1000
PSFILL
1000
Grayscale
1000
Grayscale
1070
    25
1002
}
  0
LINE
  5
1D944
330
1D62A
100
AcDbEntity
  8
YODOROGO
100
AcDbLine
 10
14882.80217064596
 20
953.874748214644
 30
0.0
 11
14808.80217064596
 21
953.874748214644
 31
0.0
1001
AUTOCAD_POSTSCRIPT_FIGURE
1002
{
1000
PSFILL
1000
Grayscale
1000
Grayscale
1070
    25
1002
}
  0
LINE
  5
1D945
330
1D62A
100
AcDbEntity
  8
YODOROGO
100
AcDbLine
 10
14882.80217064596
 20
973.8747482146434
 30
0.0
 11
14882.80217064596
 21
953.874748214644
 31
0.0
1001
AUTOCAD_POSTSCRIPT_FIGURE
1002
{
1000
PSFILL
1000
Grayscale
1000
Grayscale
1070
    25
1002
}
  0
LINE
  5
1D946
330
1D62A
100
AcDbEntity
  8
YODOROGO
100
AcDbLine
 10
14808.80217064596
 20
973.8747482146434
 30
0.0
 11
14882.80217064596
 21
973.8747482146434
 31
0.0
1001
AUTOCAD_POSTSCRIPT_FIGURE
1002
{
1000
PSFILL
1000
Grayscale
1000
Grayscale
1070
    25
1002
}
  0
LINE
  5
1D947
330
1D62A
100
AcDbEntity
  8
YODOROGO
100
AcDbLine
 10
14808.80217064596
 20
1013.874748214644
 30
0.0
 11
14808.80217064596
 21
973.8747482146434
 31
0.0
1001
AUTOCAD_POSTSCRIPT_FIGURE
1002
{
1000
PSFILL
1000
Grayscale
1000
Grayscale
1070
    25
1002
}
  0
LINE
  5
1D948
330
1D62A
100
AcDbEntity
  8
YODOROGO
100
AcDbLine
 10
14832.80217064596
 20
1013.874748214644
 30
0.0
 11
14808.80217064596
 21
1013.874748214644
 31
0.0
1001
AUTOCAD_POSTSCRIPT_FIGURE
1002
{
1000
PSFILL
1000
Grayscale
1000
Grayscale
1070
    25
1002
}
  0
LINE
  5
1D949
330
1D62A
100
AcDbEntity
  8
YODOROGO
100
AcDbLine
 10
14832.80217064596
 20
997.8747482146435
 30
0.0
 11
14832.80217064596
 21
1013.874748214644
 31
0.0
1001
AUTOCAD_POSTSCRIPT_FIGURE
1002
{
1000
PSFILL
1000
Grayscale
1000
Grayscale
1070
    25
1002
}
  0
LINE
  5
1D94A
330
1D62A
100
AcDbEntity
  8
YODOROGO
100
AcDbLine
 10
14882.80217064596
 20
997.8747482146435
 30
0.0
 11
14832.80217064596
 21
997.8747482146435
 31
0.0
1001
AUTOCAD_POSTSCRIPT_FIGURE
1002
{
1000
PSFILL
1000
Grayscale
1000
Grayscale
1070
    25
1002
}
  0
LINE
  5
1D94B
330
1D62A
100
AcDbEntity
  8
YODOROGO
100
AcDbLine
 10
14882.80217064596
 20
1013.874748214644
 30
0.0
 11
14882.80217064596
 21
997.8747482146435
 31
0.0
1001
AUTOCAD_POSTSCRIPT_FIGURE
1002
{
1000
PSFILL
1000
Grayscale
1000
Grayscale
1070
    25
1002
}
  0
LINE
  5
1D94C
330
1D62A
100
AcDbEntity
  8
YODOROGO
100
AcDbLine
 10
14914.80217064596
 20
1013.874748214644
 30
0.0
 11
14882.80217064596
 21
1013.874748214644
 31
0.0
1001
AUTOCAD_POSTSCRIPT_FIGURE
1002
{
1000
PSFILL
1000
Grayscale
1000
Grayscale
1070
    25
1002
}
  0
LINE
  5
1D94D
330
1D62A
100
AcDbEntity
  8
YODOROGO
100
AcDbLine
 10
14914.80217064596
 20
997.8747482146435
 30
0.0
 11
14914.80217064596
 21
1013.874748214644
 31
0.0
1001
AUTOCAD_POSTSCRIPT_FIGURE
1002
{
1000
PSFILL
1000
Grayscale
1000
Grayscale
1070
    25
1002
}
  0
LINE
  5
1D94E
330
1D62A
100
AcDbEntity
  8
YODOROGO
100
AcDbLine
 10
14914.80217064596
 20
953.874748214644
 30
0.0
 11
14914.80217064596
 21
973.8747482146434
 31
0.0
1001
AUTOCAD_POSTSCRIPT_FIGURE
1002
{
1000
PSFILL
1000
Grayscale
1000
Grayscale
1070
    25
1002
}
  0
LINE
  5
1D94F
330
1D62A
100
AcDbEntity
  8
YODOROGO
100
AcDbLine
 10
14914.80217064596
 20
909.8747482146439
 30
0.0
 11
14914.80217064596
 21
929.874748214644
 31
0.0
1001
AUTOCAD_POSTSCRIPT_FIGURE
1002
{
1000
PSFILL
1000
Grayscale
1000
Grayscale
1070
    25
1002
}
  0
LINE
  5
1D950
330
1D62A
100
AcDbEntity
  8
YODOROGO
100
AcDbLine
 10
14960.80217064594
 20
885.8747482146441
 30
0.0
 11
14960.80217064594
 21
853.874748214644
 31
0.0
1001
AUTOCAD_POSTSCRIPT_FIGURE
1002
{
1000
PSFILL
1000
Grayscale
1000
Grayscale
1070
    25
1002
}
  0
LINE
  5
1D951
330
1D62A
100
AcDbEntity
  8
YODOROGO
100
AcDbLine
 10
14914.80217064596
 20
885.8747482146441
 30
0.0
 11
14960.80217064594
 21
885.8747482146441
 31
0.0
1001
AUTOCAD_POSTSCRIPT_FIGURE
1002
{
1000
PSFILL
1000
Grayscale
1000
Grayscale
1070
    25
1002
}
  0
LINE
  5
1D952
330
1D62A
100
AcDbEntity
  8
YODOROGO
100
AcDbLine
 10
14914.80217064596
 20
853.874748214644
 30
0.0
 11
14914.80217064596
 21
885.8747482146441
 31
0.0
1001
AUTOCAD_POSTSCRIPT_FIGURE
1002
{
1000
PSFILL
1000
Grayscale
1000
Grayscale
1070
    25
1002
}
  0
LINE
  5
1D953
330
1D62A
100
AcDbEntity
  8
YODOROGO
100
AcDbLine
 10
14882.80217064596
 20
853.874748214644
 30
0.0
 11
14914.80217064596
 21
853.874748214644
 31
0.0
1001
AUTOCAD_POSTSCRIPT_FIGURE
1002
{
1000
PSFILL
1000
Grayscale
1000
Grayscale
1070
    25
1002
}
  0
LINE
  5
1D954
330
1D62A
100
AcDbEntity
  8
YODOROGO
100
AcDbLine
 10
14882.80217064596
 20
885.8747482146441
 30
0.0
 11
14882.80217064596
 21
853.874748214644
 31
0.0
1001
AUTOCAD_POSTSCRIPT_FIGURE
1002
{
1000
PSFILL
1000
Grayscale
1000
Grayscale
1070
    25
1002
}
  0
LINE
  5
1D955
330
1D62A
100
AcDbEntity
  8
YODOROGO
100
AcDbLine
 10
14836.80217064596
 20
885.8747482146441
 30
0.0
 11
14882.80217064596
 21
885.8747482146441
 31
0.0
1001
AUTOCAD_POSTSCRIPT_FIGURE
1002
{
1000
PSFILL
1000
Grayscale
1000
Grayscale
1070
    25
1002
}
  0
ARC
  5
1D956
330
1D62A
100
AcDbEntity
  8
YODOROGO
100
AcDbCircle
 10
15529.75894667896
 20
801.3403687577881
 30
0.0
 40
89.11064055536078
100
AcDbArc
 50
281.0262749542535
 51
357.771135755738
  0
LINE
  5
1D957
330
1D62A
100
AcDbEntity
  8
YODOROGO
100
AcDbLine
 10
15706.80217064596
 20
953.874748214644
 30
0.0
 11
15582.80217064596
 21
953.874748214644
 31
0.0
  0
LINE
  5
1D958
330
1D62A
100
AcDbEntity
  8
YODOROGO
100
AcDbLine
 10
15706.80217064596
 20
1013.874748214644
 30
0.0
 11
15582.80217064596
 21
1013.874748214644
 31
0.0
  0
LINE
  5
1D959
330
1D62A
100
AcDbEntity
  8
YODOROGO
100
AcDbLine
 10
15582.80217064596
 20
981.8747482146434
 30
0.0
 11
15706.80217064596
 21
981.8747482146434
 31
0.0
  0
LINE
  5
1D95A
330
1D62A
100
AcDbEntity
  8
YODOROGO
100
AcDbLine
 10
15395.80217064596
 20
781.8747482146434
 30
0.0
 11
15395.80217064596
 21
877.8747482146435
 31
0.0
  0
LINE
  5
1D95B
330
1D62A
100
AcDbEntity
  8
YODOROGO
100
AcDbLine
 10
15381.80217064596
 20
845.8747482146444
 30
0.0
 11
15381.80217064596
 21
781.8747482146434
 31
0.0
  0
LINE
  5
1D95C
330
1D62A
100
AcDbEntity
  8
YODOROGO
100
AcDbLine
 10
15361.80217064596
 20
745.8747482146443
 30
0.0
 11
15361.80217064596
 21
845.8747482146444
 31
0.0
  0
LINE
  5
1D95D
330
1D62A
100
AcDbEntity
  8
YODOROGO
100
AcDbLine
 10
15449.80217064596
 20
845.8747482146444
 30
0.0
 11
15449.80217064596
 21
745.8747482146443
 31
0.0
  0
LINE
  5
1D95E
330
1D62A
100
AcDbEntity
  8
YODOROGO
100
AcDbLine
 10
15429.80217064596
 20
781.8747482146434
 30
0.0
 11
15429.80217064596
 21
845.8747482146444
 31
0.0
  0
LINE
  5
1D95F
330
1D62A
100
AcDbEntity
  8
YODOROGO
100
AcDbLine
 10
15415.80217064596
 20
877.8747482146435
 30
0.0
 11
15415.80217064596
 21
781.8747482146434
 31
0.0
  0
LINE
  5
1D960
330
1D62A
100
AcDbEntity
  8
YODOROGO
100
AcDbLine
 10
15486.80217064596
 20
1013.874748214644
 30
0.0
 11
15486.80217064596
 21
733.8747482146435
 31
0.0
  0
LINE
  5
1D961
330
1D62A
100
AcDbEntity
  8
YODOROGO
100
AcDbLine
 10
15322.80217064596
 20
713.8747482146436
 30
0.0
 11
15322.80217064596
 21
1013.874748214644
 31
0.0
  0
LINE
  5
1D962
330
1D62A
100
AcDbEntity
  8
YODOROGO
100
AcDbLine
 10
15348.80217064596
 20
981.8747482146434
 30
0.0
 11
15348.80217064596
 21
713.8747482146436
 31
0.0
  0
LINE
  5
1D963
330
1D62A
100
AcDbEntity
  8
YODOROGO
100
AcDbLine
 10
15462.80217064596
 20
773.874748214644
 30
0.0
 11
15462.80217064596
 21
981.8747482146434
 31
0.0
  0
LINE
  5
1D964
330
1D62A
100
AcDbEntity
  8
YODOROGO
100
AcDbLine
 10
15190.80217064596
 20
813.8747482146435
 30
0.0
 11
15190.80217064596
 21
839.8747482146442
 31
0.0
  0
LINE
  5
1D965
330
1D62A
100
AcDbEntity
  8
YODOROGO
100
AcDbLine
 10
15308.80217064596
 20
839.8747482146442
 30
0.0
 11
15308.80217064596
 21
813.8747482146435
 31
0.0
  0
LINE
  5
1D966
330
1D62A
100
AcDbEntity
  8
YODOROGO
100
AcDbLine
 10
15582.80217064596
 20
953.874748214644
 30
0.0
 11
15582.80217064596
 21
817.8747482146436
 31
0.0
  0
LINE
  5
1D967
330
1D62A
100
AcDbEntity
  8
YODOROGO
100
AcDbLine
 10
14974.80217064595
 20
833.8747482146439
 30
0.0
 11
14974.80217064595
 21
853.874748214644
 31
0.0
  0
LINE
  5
1D968
330
1D62A
100
AcDbEntity
  8
YODOROGO
100
AcDbLine
 10
14974.80217064595
 20
833.8747482146439
 30
0.0
 11
14974.80217064595
 21
853.874748214644
 31
0.0
  0
ARC
  5
1D969
330
1D62A
100
AcDbEntity
  8
YODOROGO
100
AcDbCircle
 10
15268.80217064596
 20
753.8747482146439
 30
0.0
 40
40.0
100
AcDbArc
 50
270.0
 51
0.0
  0
LINE
  5
1D96A
330
1D62A
100
AcDbEntity
  8
YODOROGO
100
AcDbLine
 10
15284.80217064596
 20
799.8747482146441
 30
0.0
 11
15308.80217064596
 21
799.8747482146441
 31
0.0
  0
LINE
  5
1D96B
330
1D62A
100
AcDbEntity
  8
YODOROGO
100
AcDbLine
 10
15308.80217064596
 20
813.8747482146435
 30
0.0
 11
15264.80217064596
 21
813.8747482146435
 31
0.0
  0
LINE
  5
1D96C
330
1D62A
100
AcDbEntity
  8
YODOROGO
100
AcDbLine
 10
15108.80217064596
 20
833.8747482146439
 30
0.0
 11
14974.80217064595
 21
833.8747482146439
 31
0.0
  0
LINE
  5
1D96D
330
1D62A
100
AcDbEntity
  8
YODOROGO
100
AcDbLine
 10
15108.80217064596
 20
813.8747482146435
 30
0.0
 11
15108.80217064596
 21
833.8747482146439
 31
0.0
  0
LINE
  5
1D96E
330
1D62A
100
AcDbEntity
  8
YODOROGO
100
AcDbLine
 10
15008.80217064596
 20
813.8747482146435
 30
0.0
 11
15108.80217064596
 21
813.8747482146435
 31
0.0
  0
ARC
  5
1D96F
330
1D62A
100
AcDbEntity
  8
YODOROGO
100
AcDbCircle
 10
15115.02941435068
 20
934.4428574764513
 30
0.0
 40
160.6888181426141
100
AcDbArc
 50
228.6181454618993
 51
245.660289248906
  0
LINE
  5
1D970
330
1D62A
100
AcDbEntity
  8
YODOROGO
100
AcDbLine
 10
15052.80217064596
 20
801.8747482146444
 30
0.0
 11
15048.80217064598
 21
788.0364079349501
 31
0.0
  0
LINE
  5
1D971
330
1D62A
100
AcDbEntity
  8
YODOROGO
100
AcDbLine
 10
15094.80217064596
 20
801.8747482146444
 30
0.0
 11
15052.80217064596
 21
801.8747482146444
 31
0.0
  0
LINE
  5
1D972
330
1D62A
100
AcDbEntity
  8
YODOROGO
100
AcDbLine
 10
15088.80217064596
 20
775.9088612367134
 30
0.0
 11
15094.80217064596
 21
801.8747482146444
 31
0.0
  0
ARC
  5
1D973
330
1D62A
100
AcDbEntity
  8
YODOROGO
100
AcDbCircle
 10
15115.02941435023
 20
934.4428574765014
 30
0.0
 40
160.6888181426453
100
AcDbArc
 50
260.6062929796992
 51
267.7790355655586
  0
LINE
  5
1D974
330
1D62A
100
AcDbEntity
  8
YODOROGO
100
AcDbLine
 10
15108.80217064596
 20
713.8747482146428
 30
0.0
 11
15108.80217064596
 21
773.874748214644
 31
0.0
  0
LINE
  5
1D975
330
1D62A
100
AcDbEntity
  8
YODOROGO
100
AcDbLine
 10
14968.80217064596
 20
740.6696674577553
 30
0.0
 11
14968.80217064596
 21
797.2655452655705
 31
0.0
  0
LINE
  5
1D976
330
1D62A
100
AcDbEntity
  8
YODOROGO
100
AcDbLine
 10
15108.80217064596
 20
833.8747482146439
 30
0.0
 11
14974.80217064595
 21
833.8747482146439
 31
0.0
  0
LINE
  5
1D977
330
1D62A
100
AcDbEntity
  8
YODOROGO
100
AcDbLine
 10
15108.80217064596
 20
813.8747482146435
 30
0.0
 11
15108.80217064596
 21
833.8747482146439
 31
0.0
  0
LINE
  5
1D978
330
1D62A
100
AcDbEntity
  8
YODOROGO
100
AcDbLine
 10
15008.80217064596
 20
813.8747482146435
 30
0.0
 11
15108.80217064596
 21
813.8747482146435
 31
0.0
  0
ARC
  5
1D979
330
1D62A
100
AcDbEntity
  8
YODOROGO
100
AcDbCircle
 10
15115.02941435068
 20
934.4428574764513
 30
0.0
 40
160.6888181426141
100
AcDbArc
 50
228.6181454618993
 51
245.660289248906
  0
LINE
  5
1D97A
330
1D62A
100
AcDbEntity
  8
YODOROGO
100
AcDbLine
 10
15052.80217064596
 20
801.8747482146444
 30
0.0
 11
15048.80217064598
 21
788.0364079349501
 31
0.0
  0
LINE
  5
1D97B
330
1D62A
100
AcDbEntity
  8
YODOROGO
100
AcDbLine
 10
15094.80217064596
 20
801.8747482146444
 30
0.0
 11
15052.80217064596
 21
801.8747482146444
 31
0.0
  0
LINE
  5
1D97C
330
1D62A
100
AcDbEntity
  8
YODOROGO
100
AcDbLine
 10
15088.80217064596
 20
775.9088612367134
 30
0.0
 11
15094.80217064596
 21
801.8747482146444
 31
0.0
  0
ARC
  5
1D97D
330
1D62A
100
AcDbEntity
  8
YODOROGO
100
AcDbCircle
 10
15115.02941435023
 20
934.4428574765014
 30
0.0
 40
160.6888181426453
100
AcDbArc
 50
260.6062929796992
 51
267.7790355655586
  0
LINE
  5
1D97E
330
1D62A
100
AcDbEntity
  8
YODOROGO
100
AcDbLine
 10
15108.80217064596
 20
713.8747482146428
 30
0.0
 11
15108.80217064596
 21
773.874748214644
 31
0.0
  0
LINE
  5
1D97F
330
1D62A
100
AcDbEntity
  8
YODOROGO
100
AcDbLine
 10
14968.80217064596
 20
740.6696674577553
 30
0.0
 11
14968.80217064596
 21
797.2655452655705
 31
0.0
  0
LINE
  5
1D980
330
1D62A
100
AcDbEntity
  8
YODOROGO
100
AcDbLine
 10
15216.80217064596
 20
786.8747482146444
 30
0.0
 11
15190.80217064596
 21
786.8747482146444
 31
0.0
  0
LINE
  5
1D981
330
1D62A
100
AcDbEntity
  8
YODOROGO
100
AcDbLine
 10
15216.80217064596
 20
800.8747482146432
 30
0.0
 11
15216.80217064596
 21
786.8747482146444
 31
0.0
  0
LINE
  5
1D982
330
1D62A
100
AcDbEntity
  8
YODOROGO
100
AcDbLine
 10
15190.80217064596
 20
800.8747482146432
 30
0.0
 11
15216.80217064596
 21
800.8747482146432
 31
0.0
  0
LINE
  5
1D983
330
1D62A
100
AcDbEntity
  8
YODOROGO
100
AcDbLine
 10
15190.80217064596
 20
786.8747482146444
 30
0.0
 11
15190.80217064596
 21
800.8747482146432
 31
0.0
  0
LINE
  5
1D984
330
1D62A
100
AcDbEntity
  8
YODOROGO
100
AcDbLine
 10
15214.80217064596
 20
788.8747482146436
 30
0.0
 11
15192.80217064595
 21
788.8747482146436
 31
0.0
  0
LINE
  5
1D985
330
1D62A
100
AcDbEntity
  8
YODOROGO
100
AcDbLine
 10
15214.80217064596
 20
798.874748214644
 30
0.0
 11
15214.80217064596
 21
788.8747482146436
 31
0.0
  0
LINE
  5
1D986
330
1D62A
100
AcDbEntity
  8
YODOROGO
100
AcDbLine
 10
15192.80217064595
 20
798.874748214644
 30
0.0
 11
15214.80217064596
 21
798.874748214644
 31
0.0
  0
LINE
  5
1D987
330
1D62A
100
AcDbEntity
  8
YODOROGO
100
AcDbLine
 10
15192.80217064595
 20
788.8747482146436
 30
0.0
 11
15192.80217064595
 21
798.874748214644
 31
0.0
  0
LINE
  5
1D988
330
1D62A
100
AcDbEntity
  8
YODOROGO
100
AcDbLine
 10
15212.80217064596
 20
790.8747482146432
 30
0.0
 11
15194.80217064596
 21
790.8747482146432
 31
0.0
  0
LINE
  5
1D989
330
1D62A
100
AcDbEntity
  8
YODOROGO
100
AcDbLine
 10
15212.80217064596
 20
796.8747482146445
 30
0.0
 11
15212.80217064596
 21
790.8747482146432
 31
0.0
  0
LINE
  5
1D98A
330
1D62A
100
AcDbEntity
  8
YODOROGO
100
AcDbLine
 10
15194.80217064596
 20
796.8747482146445
 30
0.0
 11
15212.80217064596
 21
796.8747482146445
 31
0.0
  0
LINE
  5
1D98B
330
1D62A
100
AcDbEntity
  8
YODOROGO
100
AcDbLine
 10
15194.80217064596
 20
790.8747482146432
 30
0.0
 11
15194.80217064596
 21
796.8747482146445
 31
0.0
  0
LINE
  5
1D98C
330
1D62A
100
AcDbEntity
  8
YODOROGO
100
AcDbLine
 10
15210.80217064596
 20
792.8747482146435
 30
0.0
 11
15196.80217064596
 21
792.8747482146435
 31
0.0
  0
LINE
  5
1D98D
330
1D62A
100
AcDbEntity
  8
YODOROGO
100
AcDbLine
 10
15210.80217064596
 20
794.8747482146441
 30
0.0
 11
15210.80217064596
 21
792.8747482146435
 31
0.0
  0
LINE
  5
1D98E
330
1D62A
100
AcDbEntity
  8
YODOROGO
100
AcDbLine
 10
15196.80217064596
 20
794.8747482146441
 30
0.0
 11
15210.80217064596
 21
794.8747482146441
 31
0.0
  0
LINE
  5
1D98F
330
1D62A
100
AcDbEntity
  8
YODOROGO
100
AcDbLine
 10
15196.80217064596
 20
792.8747482146435
 30
0.0
 11
15196.80217064596
 21
794.8747482146441
 31
0.0
  0
LINE
  5
1D990
330
1D62A
100
AcDbEntity
  8
YODOROGO
100
AcDbLine
 10
15232.80217064596
 20
813.8747482146435
 30
0.0
 11
15190.80217064596
 21
813.8747482146435
 31
0.0
  0
LINE
  5
1D991
330
1D62A
100
AcDbEntity
  8
YODOROGO
100
AcDbLine
 10
15232.80217064596
 20
773.874748214644
 30
0.0
 11
15232.80217064596
 21
813.8747482146435
 31
0.0
  0
LINE
  5
1D992
330
1D62A
100
AcDbEntity
  8
YODOROGO
100
AcDbLine
 10
15190.80217064596
 20
773.874748214644
 30
0.0
 11
15232.80217064596
 21
773.874748214644
 31
0.0
  0
LINE
  5
1D993
330
1D62A
100
AcDbEntity
  8
YODOROGO
100
AcDbLine
 10
15190.80217064596
 20
713.8747482146436
 30
0.0
 11
15190.80217064596
 21
773.874748214644
 31
0.0
  0
LINE
  5
1D994
330
1D62A
100
AcDbEntity
  8
YODOROGO
100
AcDbLine
 10
15268.80217064596
 20
713.8747482146436
 30
0.0
 11
15190.80217064596
 21
713.8747482146436
 31
0.0
  0
LINE
  5
1D995
330
1D62A
100
AcDbEntity
  8
YODOROGO
100
AcDbLine
 10
15284.80217064596
 20
785.8747482146432
 30
0.0
 11
15284.80217064596
 21
799.8747482146441
 31
0.0
  0
ARC
  5
1D996
330
1D62A
100
AcDbEntity
  8
YODOROGO
100
AcDbCircle
 10
15272.80217064594
 20
785.8747482146457
 30
0.0
 40
12.00000000000187
100
AcDbArc
 50
270.0
 51
359.9999999999877
  0
LINE
  5
1D997
330
1D62A
100
AcDbEntity
  8
YODOROGO
100
AcDbLine
 10
15264.80217064596
 20
773.874748214644
 30
0.0
 11
15272.80217064594
 21
773.874748214644
 31
0.0
  0
LINE
  5
1D998
330
1D62A
100
AcDbEntity
  8
YODOROGO
100
AcDbLine
 10
15264.80217064596
 20
813.8747482146435
 30
0.0
 11
15264.80217064596
 21
773.874748214644
 31
0.0
  0
LINE
  5
1D999
330
1D62A
100
AcDbEntity
  8
YODOROGO
100
AcDbLine
 10
15449.80217064596
 20
773.874748214644
 30
0.0
 11
15462.80217064596
 21
773.874748214644
 31
0.0
  0
LINE
  5
1D99A
330
1D62A
100
AcDbEntity
  8
YODOROGO
100
AcDbLine
 10
15466.80217064596
 20
713.8747482146436
 30
0.0
 11
15449.80217064596
 21
713.8747482146436
 31
0.0
  0
LINE
  5
1D99B
330
1D62A
100
AcDbEntity
  8
YODOROGO
100
AcDbLine
 10
15381.80217064596
 20
781.8747482146434
 30
0.0
 11
15395.80217064596
 21
781.8747482146434
 31
0.0
  0
LINE
  5
1D99C
330
1D62A
100
AcDbEntity
  8
YODOROGO
100
AcDbLine
 10
15449.80217064596
 20
745.8747482146443
 30
0.0
 11
15361.80217064596
 21
745.8747482146443
 31
0.0
  0
LINE
  5
1D99D
330
1D62A
100
AcDbEntity
  8
YODOROGO
100
AcDbLine
 10
15415.80217064596
 20
781.8747482146434
 30
0.0
 11
15429.80217064596
 21
781.8747482146434
 31
0.0
  0
LINE
  5
1D99E
330
1D62A
100
AcDbEntity
  8
YODOROGO
100
AcDbLine
 10
15449.80217064596
 20
713.8747482146436
 30
0.0
 11
15449.80217064596
 21
773.874748214644
 31
0.0
  0
LINE
  5
1D99F
330
1D62A
100
AcDbEntity
  8
YODOROGO
100
AcDbLine
 10
15348.80217064596
 20
713.8747482146436
 30
0.0
 11
15322.80217064596
 21
713.8747482146436
 31
0.0
  0
LINE
  5
1D9A0
330
1D62A
100
AcDbEntity
  8
YODOROGO
100
AcDbLine
 10
15308.80217064596
 20
799.8747482146441
 30
0.0
 11
15308.80217064596
 21
753.8747482146439
 31
0.0
  0
ARC
  5
1D9A1
330
1D62A
100
AcDbEntity
  8
YODOROGO
100
AcDbCircle
 10
15466.80217064596
 20
733.8747482146435
 30
0.0
 40
20.0
100
AcDbArc
 50
270.0
 51
0.0
  0
LINE
  5
1D9A2
330
1D62A
100
AcDbEntity
  8
YODOROGO
100
AcDbLine
 10
15546.80217064596
 20
761.8747482146434
 30
0.0
 11
15546.80217064596
 21
713.8747482146436
 31
0.0
  0
ARC
  5
1D9A3
330
1D62A
100
AcDbEntity
  8
YODOROGO
100
AcDbCircle
 10
15519.86069778339
 20
818.7656950548664
 30
0.0
 40
62.94777829583771
100
AcDbArc
 50
295.3405244216011
 51
359.1890230341867
  0
LINE
  5
1D9A4
330
1D62A
100
AcDbEntity
  8
YODOROGO
100
AcDbLine
 10
15308.80217064596
 20
929.874748214644
 30
0.0
 11
15248.80217064596
 21
969.8747482146441
 31
0.0
  0
LINE
  5
1D9A5
330
1D62A
100
AcDbEntity
  8
YODOROGO
100
AcDbLine
 10
15248.80217064596
 20
1013.874748214644
 30
0.0
 11
15308.80217064596
 21
973.8747482146434
 31
0.0
  0
LINE
  5
1D9A6
330
1D62A
100
AcDbEntity
  8
YODOROGO
100
AcDbLine
 10
15264.80217064596
 20
839.8747482146442
 30
0.0
 11
15308.80217064596
 21
839.8747482146442
 31
0.0
  0
LINE
  5
1D9A7
330
1D62A
100
AcDbEntity
  8
YODOROGO
100
AcDbLine
 10
15308.80217064596
 20
867.8747482146436
 30
0.0
 11
15264.80217064596
 21
867.8747482146436
 31
0.0
  0
LINE
  5
1D9A8
330
1D62A
100
AcDbEntity
  8
YODOROGO
100
AcDbLine
 10
15190.80217064596
 20
897.8747482146435
 30
0.0
 11
15308.80217064596
 21
897.8747482146435
 31
0.0
  0
LINE
  5
1D9A9
330
1D62A
100
AcDbEntity
  8
YODOROGO
100
AcDbLine
 10
15040.80217064596
 20
1013.874748214644
 30
0.0
 11
15010.80217064596
 21
1013.874748214644
 31
0.0
  0
LINE
  5
1D9AA
330
1D62A
100
AcDbEntity
  8
YODOROGO
100
AcDbLine
 10
15040.80217064596
 20
913.8747482146435
 30
0.0
 11
15040.80217064596
 21
1013.874748214644
 31
0.0
  0
LINE
  5
1D9AB
330
1D62A
100
AcDbEntity
  8
YODOROGO
100
AcDbLine
 10
15010.80217064596
 20
913.8747482146435
 30
0.0
 11
15040.80217064596
 21
913.8747482146435
 31
0.0
  0
LINE
  5
1D9AC
330
1D62A
100
AcDbEntity
  8
YODOROGO
100
AcDbLine
 10
15010.80217064596
 20
1013.874748214644
 30
0.0
 11
15010.80217064596
 21
913.8747482146435
 31
0.0
  0
LINE
  5
1D9AD
330
1D62A
100
AcDbEntity
  8
YODOROGO
100
AcDbLine
 10
15080.80217064596
 20
1013.874748214644
 30
0.0
 11
15108.80217064596
 21
1013.874748214644
 31
0.0
  0
LINE
  5
1D9AE
330
1D62A
100
AcDbEntity
  8
YODOROGO
100
AcDbLine
 10
15080.80217064596
 20
905.8747482146443
 30
0.0
 11
15080.80217064596
 21
1013.874748214644
 31
0.0
  0
ARC
  5
1D9AF
330
1D62A
100
AcDbEntity
  8
YODOROGO
100
AcDbCircle
 10
15060.80217064596
 20
905.8747482146443
 30
0.0
 40
20.0
100
AcDbArc
 50
270.0
 51
0.0
  0
LINE
  5
1D9B0
330
1D62A
100
AcDbEntity
  8
YODOROGO
100
AcDbLine
 10
15010.80217064596
 20
885.8747482146441
 30
0.0
 11
15060.80217064596
 21
885.8747482146441
 31
0.0
  0
LINE
  5
1D9B1
330
1D62A
100
AcDbEntity
  8
YODOROGO
100
AcDbLine
 10
15010.80217064596
 20
853.874748214644
 30
0.0
 11
15010.80217064596
 21
885.8747482146441
 31
0.0
  0
LINE
  5
1D9B2
330
1D62A
100
AcDbEntity
  8
YODOROGO
100
AcDbLine
 10
15068.80217064596
 20
853.874748214644
 30
0.0
 11
15010.80217064596
 21
853.874748214644
 31
0.0
  0
ARC
  5
1D9B3
330
1D62A
100
AcDbEntity
  8
YODOROGO
100
AcDbCircle
 10
15068.80217064596
 20
893.8747482146439
 30
0.0
 40
40.0
100
AcDbArc
 50
270.0
 51
0.0
  0
LINE
  5
1D9B4
330
1D62A
100
AcDbEntity
  8
YODOROGO
100
AcDbLine
 10
15108.80217064596
 20
1013.874748214644
 30
0.0
 11
15108.80217064596
 21
893.8747482146439
 31
0.0
  0
LINE
  5
1D9B5
330
1D62A
100
AcDbEntity
  8
YODOROGO
100
AcDbLine
 10
14988.80217064596
 20
973.8747482146434
 30
0.0
 11
14988.80217064596
 21
997.8747482146435
 31
0.0
1001
AUTOCAD_POSTSCRIPT_FIGURE
1002
{
1000
PSFILL
1000
Grayscale
1000
Grayscale
1070
    25
1002
}
  0
LINE
  5
1D9B6
330
1D62A
100
AcDbEntity
  8
YODOROGO
100
AcDbLine
 10
14988.80217064596
 20
929.874748214644
 30
0.0
 11
14988.80217064596
 21
953.874748214644
 31
0.0
1001
AUTOCAD_POSTSCRIPT_FIGURE
1002
{
1000
PSFILL
1000
Grayscale
1000
Grayscale
1070
    25
1002
}
  0
LINE
  5
1D9B7
330
1D62A
100
AcDbEntity
  8
YODOROGO
100
AcDbLine
 10
14988.80217064596
 20
853.874748214644
 30
0.0
 11
14988.80217064596
 21
909.8747482146439
 31
0.0
1001
AUTOCAD_POSTSCRIPT_FIGURE
1002
{
1000
PSFILL
1000
Grayscale
1000
Grayscale
1070
    25
1002
}
  0
LINE
  5
1D9B8
330
1D62A
100
AcDbEntity
  8
YODOROGO
100
AcDbLine
 10
15190.80217064596
 20
953.874748214644
 30
0.0
 11
15248.80217064596
 21
1013.874748214644
 31
0.0
  0
LINE
  5
1D9B9
330
1D62A
100
AcDbEntity
  8
YODOROGO
100
AcDbLine
 10
15190.80217064596
 20
909.8747482146439
 30
0.0
 11
15190.80217064596
 21
953.874748214644
 31
0.0
  0
LINE
  5
1D9BA
330
1D62A
100
AcDbEntity
  8
YODOROGO
100
AcDbLine
 10
15248.80217064596
 20
969.8747482146441
 30
0.0
 11
15190.80217064596
 21
909.8747482146439
 31
0.0
  0
LINE
  5
1D9BB
330
1D62A
100
AcDbEntity
  8
YODOROGO
100
AcDbLine
 10
15232.80217064596
 20
839.8747482146442
 30
0.0
 11
15232.80217064596
 21
867.8747482146436
 31
0.0
  0
LINE
  5
1D9BC
330
1D62A
100
AcDbEntity
  8
YODOROGO
100
AcDbLine
 10
15190.80217064596
 20
839.8747482146442
 30
0.0
 11
15232.80217064596
 21
839.8747482146442
 31
0.0
  0
LINE
  5
1D9BD
330
1D62A
100
AcDbEntity
  8
YODOROGO
100
AcDbLine
 10
15264.80217064596
 20
867.8747482146436
 30
0.0
 11
15264.80217064596
 21
839.8747482146442
 31
0.0
  0
LINE
  5
1D9BE
330
1D62A
100
AcDbEntity
  8
YODOROGO
100
AcDbLine
 10
15190.80217064596
 20
867.8747482146436
 30
0.0
 11
15190.80217064596
 21
897.8747482146435
 31
0.0
  0
LINE
  5
1D9BF
330
1D62A
100
AcDbEntity
  8
YODOROGO
100
AcDbLine
 10
15232.80217064596
 20
867.8747482146436
 30
0.0
 11
15190.80217064596
 21
867.8747482146436
 31
0.0
  0
LINE
  5
1D9C0
330
1D62A
100
AcDbEntity
  8
YODOROGO
100
AcDbLine
 10
15322.80217064596
 20
1013.874748214644
 30
0.0
 11
15486.80217064596
 21
1013.874748214644
 31
0.0
  0
LINE
  5
1D9C1
330
1D62A
100
AcDbEntity
  8
YODOROGO
100
AcDbLine
 10
15462.80217064596
 20
981.8747482146434
 30
0.0
 11
15348.80217064596
 21
981.8747482146434
 31
0.0
  0
LINE
  5
1D9C2
330
1D62A
100
AcDbEntity
  8
YODOROGO
100
AcDbLine
 10
15436.80217064595
 20
909.8747482146439
 30
0.0
 11
15449.80217064596
 21
909.8747482146439
 31
0.0
  0
LINE
  5
1D9C3
330
1D62A
100
AcDbEntity
  8
YODOROGO
100
AcDbLine
 10
15449.80217064596
 20
969.8747482146441
 30
0.0
 11
15436.80217064595
 21
909.8747482146439
 31
0.0
  0
LINE
  5
1D9C4
330
1D62A
100
AcDbEntity
  8
YODOROGO
100
AcDbLine
 10
15425.80217064596
 20
969.8747482146441
 30
0.0
 11
15449.80217064596
 21
969.8747482146441
 31
0.0
  0
LINE
  5
1D9C5
330
1D62A
100
AcDbEntity
  8
YODOROGO
100
AcDbLine
 10
15412.80217064596
 20
909.8747482146439
 30
0.0
 11
15425.80217064596
 21
969.8747482146441
 31
0.0
  0
LINE
  5
1D9C6
330
1D62A
100
AcDbEntity
  8
YODOROGO
100
AcDbLine
 10
15398.80217064596
 20
909.8747482146439
 30
0.0
 11
15412.80217064596
 21
909.8747482146439
 31
0.0
  0
LINE
  5
1D9C7
330
1D62A
100
AcDbEntity
  8
YODOROGO
100
AcDbLine
 10
15385.80217064596
 20
969.8747482146441
 30
0.0
 11
15398.80217064596
 21
909.8747482146439
 31
0.0
  0
LINE
  5
1D9C8
330
1D62A
100
AcDbEntity
  8
YODOROGO
100
AcDbLine
 10
15361.80217064596
 20
969.8747482146441
 30
0.0
 11
15385.80217064596
 21
969.8747482146441
 31
0.0
  0
LINE
  5
1D9C9
330
1D62A
100
AcDbEntity
  8
YODOROGO
100
AcDbLine
 10
15374.80217064596
 20
909.8747482146439
 30
0.0
 11
15361.80217064596
 21
969.8747482146441
 31
0.0
  0
LINE
  5
1D9CA
330
1D62A
100
AcDbEntity
  8
YODOROGO
100
AcDbLine
 10
15361.80217064596
 20
909.8747482146439
 30
0.0
 11
15374.80217064596
 21
909.8747482146439
 31
0.0
  0
LINE
  5
1D9CB
330
1D62A
100
AcDbEntity
  8
YODOROGO
100
AcDbLine
 10
15361.80217064596
 20
877.8747482146435
 30
0.0
 11
15361.80217064596
 21
909.8747482146439
 31
0.0
  0
LINE
  5
1D9CC
330
1D62A
100
AcDbEntity
  8
YODOROGO
100
AcDbLine
 10
15449.80217064596
 20
877.8747482146435
 30
0.0
 11
15361.80217064596
 21
877.8747482146435
 31
0.0
  0
LINE
  5
1D9CD
330
1D62A
100
AcDbEntity
  8
YODOROGO
100
AcDbLine
 10
15449.80217064596
 20
909.8747482146439
 30
0.0
 11
15449.80217064596
 21
877.8747482146435
 31
0.0
  0
LINE
  5
1D9CE
330
1D62A
100
AcDbEntity
  8
YODOROGO
100
AcDbLine
 10
15308.80217064596
 20
973.8747482146434
 30
0.0
 11
15308.80217064596
 21
929.874748214644
 31
0.0
  0
LINE
  5
1D9CF
330
1D62A
100
AcDbEntity
  8
YODOROGO
100
AcDbLine
 10
15395.80217064596
 20
877.8747482146435
 30
0.0
 11
15415.80217064596
 21
877.8747482146435
 31
0.0
  0
LINE
  5
1D9D0
330
1D62A
100
AcDbEntity
  8
YODOROGO
100
AcDbLine
 10
15361.80217064596
 20
845.8747482146444
 30
0.0
 11
15381.80217064596
 21
845.8747482146444
 31
0.0
  0
LINE
  5
1D9D1
330
1D62A
100
AcDbEntity
  8
YODOROGO
100
AcDbLine
 10
15429.80217064596
 20
845.8747482146444
 30
0.0
 11
15449.80217064596
 21
845.8747482146444
 31
0.0
  0
LINE
  5
1D9D2
330
1D62A
100
AcDbEntity
  8
YODOROGO
100
AcDbLine
 10
15308.80217064596
 20
897.8747482146435
 30
0.0
 11
15308.80217064596
 21
867.8747482146436
 31
0.0
  0
LINE
  5
1D9D3
330
1D62A
100
AcDbEntity
  8
YODOROGO
100
AcDbLine
 10
15582.80217064596
 20
1013.874748214644
 30
0.0
 11
15582.80217064596
 21
981.8747482146434
 31
0.0
  0
LINE
  5
1D9D4
330
1D62A
100
AcDbEntity
  8
YODOROGO
100
AcDbLine
 10
15766.80217064596
 20
797.8747482146435
 30
0.0
 11
15766.80217064594
 21
905.8747482146443
 31
0.0
  0
LINE
  5
1D9D5
330
1D62A
100
AcDbEntity
  8
YODOROGO
100
AcDbLine
 10
15730.80217064594
 20
993.8747482146439
 30
0.0
 11
15730.80217064594
 21
817.8747482146436
 31
0.0
  0
LINE
  5
1D9D6
330
1D62A
100
AcDbEntity
  8
YODOROGO
100
AcDbLine
 10
15826.80217064596
 20
713.8747482146436
 30
0.0
 11
15826.80217064594
 21
905.8747482146443
 31
0.0
  0
LINE
  5
1D9D7
330
1D62A
100
AcDbEntity
  8
YODOROGO
100
AcDbLine
 10
15794.80217064596
 20
905.8747482146443
 30
0.0
 11
15794.80217064596
 21
713.8747482146436
 31
0.0
  0
LINE
  5
1D9D8
330
1D62A
100
AcDbEntity
  8
YODOROGO
100
AcDbLine
 10
15618.80217064596
 20
797.8747482146435
 30
0.0
 11
15618.80217064596
 21
853.874748214644
 31
0.0
  0
ARC
  5
1D9D9
330
1D62A
100
AcDbEntity
  8
YODOROGO
100
AcDbCircle
 10
15676.95743255803
 20
803.8951756442788
 30
0.0
 40
90.04622428799429
100
AcDbArc
 50
268.6284910216979
 51
356.1663845733032
  0
LINE
  5
1D9DA
330
1D62A
100
AcDbEntity
  8
YODOROGO
100
AcDbLine
 10
15674.80217064596
 20
763.8747482146435
 30
0.0
 11
15674.80217064596
 21
713.8747482146436
 31
0.0
  0
ARC
  5
1D9DB
330
1D62A
100
AcDbEntity
  8
YODOROGO
100
AcDbCircle
 10
15675.75903786228
 20
818.9194785088275
 30
0.0
 40
55.05304649180608
100
AcDbArc
 50
269.0041020930593
 51
358.9126445549248
  0
LINE
  5
1D9DC
330
1D62A
100
AcDbEntity
  8
YODOROGO
100
AcDbLine
 10
15794.80217064596
 20
713.8747482146436
 30
0.0
 11
15826.80217064596
 21
713.8747482146436
 31
0.0
  0
LINE
  5
1D9DD
330
1D62A
100
AcDbEntity
  8
YODOROGO
100
AcDbLine
 10
15766.80217064594
 20
905.8747482146443
 30
0.0
 11
15794.80217064596
 21
905.8747482146443
 31
0.0
  0
LINE
  5
1D9DE
330
1D62A
100
AcDbEntity
  8
YODOROGO
100
AcDbLine
 10
15810.80217064596
 20
993.8747482146439
 30
0.0
 11
15730.80217064594
 21
993.8747482146439
 31
0.0
  0
LINE
  5
1D9DF
330
1D62A
100
AcDbEntity
  8
YODOROGO
100
AcDbLine
 10
15766.80217064594
 20
957.8747482146436
 30
0.0
 11
15830.80217064596
 21
957.8747482146436
 31
0.0
  0
LINE
  5
1D9E0
330
1D62A
100
AcDbEntity
  8
YODOROGO
100
AcDbLine
 10
15850.80217064596
 20
937.8747482146435
 30
0.0
 11
15766.80217064594
 21
937.8747482146435
 31
0.0
  0
LINE
  5
1D9E1
330
1D62A
100
AcDbEntity
  8
YODOROGO
100
AcDbLine
 10
15618.80217064596
 20
889.8747482146442
 30
0.0
 11
15674.80217064596
 21
889.8747482146442
 31
0.0
  0
LINE
  5
1D9E2
330
1D62A
100
AcDbEntity
  8
YODOROGO
100
AcDbLine
 10
15618.80217064596
 20
917.8747482146436
 30
0.0
 11
15618.80217064596
 21
889.8747482146442
 31
0.0
  0
LINE
  5
1D9E3
330
1D62A
100
AcDbEntity
  8
YODOROGO
100
AcDbLine
 10
15674.80217064596
 20
917.8747482146436
 30
0.0
 11
15618.80217064596
 21
917.8747482146436
 31
0.0
  0
LINE
  5
1D9E4
330
1D62A
100
AcDbEntity
  8
YODOROGO
100
AcDbLine
 10
15674.80217064596
 20
889.8747482146442
 30
0.0
 11
15674.80217064596
 21
917.8747482146436
 31
0.0
  0
LINE
  5
1D9E5
330
1D62A
100
AcDbEntity
  8
YODOROGO
100
AcDbLine
 10
15766.80217064594
 20
937.8747482146435
 30
0.0
 11
15766.80217064594
 21
957.8747482146436
 31
0.0
  0
LINE
  5
1D9E6
330
1D62A
100
AcDbEntity
  8
YODOROGO
100
AcDbLine
 10
15706.80217064596
 20
853.874748214644
 30
0.0
 11
15706.80217064596
 21
953.874748214644
 31
0.0
  0
LINE
  5
1D9E7
330
1D62A
100
AcDbEntity
  8
YODOROGO
100
AcDbLine
 10
15618.80217064596
 20
853.874748214644
 30
0.0
 11
15706.80217064596
 21
853.874748214644
 31
0.0
  0
LINE
  5
1D9E8
330
1D62A
100
AcDbEntity
  8
YODOROGO
100
AcDbLine
 10
15706.80217064596
 20
981.8747482146434
 30
0.0
 11
15706.80217064596
 21
1013.874748214644
 31
0.0
  0
ARC
  5
1D9E9
330
1D62A
100
AcDbEntity
  8
YODOROGO
100
AcDbCircle
 10
15810.80217064596
 20
1001.874748214642
 30
0.0
 40
7.99999999999727
100
AcDbArc
 50
270.0
 51
0.0000000000081422
  0
LINE
  5
1D9EA
330
1D62A
100
AcDbEntity
  8
YODOROGO
100
AcDbLine
 10
15818.80217064596
 20
1013.874748214644
 30
0.0
 11
15818.80217064596
 21
1001.874748214643
 31
0.0
  0
LINE
  5
1D9EB
330
1D62A
100
AcDbEntity
  8
YODOROGO
100
AcDbLine
 10
15850.80217064596
 20
1013.874748214644
 30
0.0
 11
15818.80217064596
 21
1013.874748214644
 31
0.0
  0
LINE
  5
1D9EC
330
1D62A
100
AcDbEntity
  8
YODOROGO
100
AcDbLine
 10
15850.80217064596
 20
977.8747482146435
 30
0.0
 11
15850.80217064596
 21
1013.874748214644
 31
0.0
  0
ARC
  5
1D9ED
330
1D62A
100
AcDbEntity
  8
YODOROGO
100
AcDbCircle
 10
15830.80217064596
 20
977.8747482146435
 30
0.0
 40
20.0
100
AcDbArc
 50
270.0
 51
0.0
  0
LINE
  5
1D9EE
330
1D62A
100
AcDbEntity
  8
YODOROGO
100
AcDbLine
 10
15850.80217064596
 20
905.8747482146443
 30
0.0
 11
15850.80217064596
 21
937.8747482146435
 31
0.0
  0
LINE
  5
1D9EF
330
1D62A
100
AcDbEntity
  8
YODOROGO
100
AcDbLine
 10
15826.80217064594
 20
905.8747482146443
 30
0.0
 11
15850.80217064596
 21
905.8747482146443
 31
0.0
  0
LINE
  5
1D9F0
330
1D62A
100
AcDbEntity
  8
SUNPOU
100
AcDbLine
 10
8297.222983738278
 20
4137.324460358767
 30
0.0
 11
8357.222983738294
 21
4137.324460358767
 31
0.0
  0
LINE
  5
1D9F1
330
1D62A
100
AcDbEntity
  8
SUNPOU
100
AcDbLine
 10
8297.222983738285
 20
4137.324460358767
 30
0.0
 11
8357.222983738287
 21
4153.401411904638
 31
0.0
  0
LINE
  5
1D9F2
330
1D62A
100
AcDbEntity
  8
SUNPOU
100
AcDbLine
 10
8297.222983738278
 20
4137.324460358767
 30
0.0
 11
8357.222983738294
 21
4121.247508812897
 31
0.0
  0
LINE
  5
1D9F3
330
1D62A
100
AcDbEntity
  8
SUNPOU
100
AcDbLine
 10
8357.22298373828
 20
4137.324460358767
 30
0.0
 11
8417.222983738293
 21
4137.324460358767
 31
0.0
  0
LINE
  5
1D9F4
330
1D62A
100
AcDbEntity
  8
SUNPOU
100
AcDbLine
 10
8357.222983738287
 20
4137.324460358767
 30
0.0
 11
8417.222983738286
 21
4153.401411904638
 31
0.0
  0
LINE
  5
1D9F5
330
1D62A
100
AcDbEntity
  8
SUNPOU
100
AcDbLine
 10
8357.22298373828
 20
4137.324460358767
 30
0.0
 11
8417.222983738293
 21
4121.247508812897
 31
0.0
  0
LINE
  5
1D9F6
330
1D62A
100
AcDbEntity
  8
SUNPOU
100
AcDbLine
 10
9538.463942920641
 20
4148.574460358767
 30
0.0
 11
9538.463942920641
 21
4159.824460358767
 31
0.0
  0
LINE
  5
1D9F7
330
1D62A
100
AcDbEntity
  8
SUNPOU
100
AcDbLine
 10
8898.46394292064
 20
2687.923888222179
 30
0.0
 11
8898.46394292064
 21
2110.523888222177
 31
0.0
  0
LINE
  5
1D9F8
330
1D62A
100
AcDbEntity
  8
SUNPOU
100
AcDbLine
 10
10178.46394292064
 20
2687.923888222179
 30
0.0
 11
10178.46394292064
 21
2110.523888222177
 31
0.0
  0
LINE
  5
1D9F9
330
1D62A
100
AcDbEntity
  8
SUNPOU
100
AcDbLine
 10
8913.463942920644
 20
2155.523888222177
 30
0.0
 11
10163.46394292064
 21
2155.523888222177
 31
0.0
  0
LINE
  5
1D9FA
330
1D62A
100
AcDbEntity
  8
SUNPOU
100
AcDbLine
 10
8738.46394292064
 20
2527.923888222176
 30
0.0
 11
8738.46394292064
 21
1900.523888222177
 31
0.0
  0
LINE
  5
1D9FB
330
1D62A
100
AcDbEntity
  8
SUNPOU
100
AcDbLine
 10
10338.46394292064
 20
2527.923888222176
 30
0.0
 11
10338.46394292064
 21
1900.523888222177
 31
0.0
  0
LINE
  5
1D9FC
330
1D62A
100
AcDbEntity
  8
SUNPOU
100
AcDbLine
 10
8753.463942920644
 20
1945.523888222177
 30
0.0
 11
10323.46394292064
 21
1945.523888222177
 31
0.0
  0
LINE
  5
1D9FD
330
1D62A
100
AcDbEntity
  8
SUNPOU
100
AcDbLine
 10
8868.463942920639
 20
3325.923888222177
 30
0.0
 11
8574.110546919881
 21
3325.923888222177
 31
0.0
  0
LINE
  5
1D9FE
330
1D62A
100
AcDbEntity
  8
SUNPOU
100
AcDbLine
 10
8868.463942920639
 20
3197.923888222173
 30
0.0
 11
8574.110546919881
 21
3197.923888222173
 31
0.0
  0
LINE
  5
1D9FF
330
1D62A
100
AcDbEntity
  8
SUNPOU
100
AcDbLine
 10
8619.110546919882
 20
3310.923888222177
 30
0.0
 11
8619.110546919882
 21
3212.923888222173
 31
0.0
  0
LINE
  5
1DA00
330
1D62A
100
AcDbEntity
  8
SUNPOU
100
AcDbLine
 10
8868.463942920639
 20
3325.923888222175
 30
0.0
 11
8574.110546919881
 21
3325.923888222175
 31
0.0
  0
LINE
  5
1DA01
330
1D62A
100
AcDbEntity
  8
SUNPOU
100
AcDbLine
 10
8776.622403112069
 20
3460.323888222177
 30
0.0
 11
8574.110546919881
 21
3460.323888222177
 31
0.0
  0
LINE
  5
1DA02
330
1D62A
100
AcDbEntity
  8
SUNPOU
100
AcDbLine
 10
8619.110546919882
 20
3340.923888222175
 30
0.0
 11
8619.110546919882
 21
3445.323888222177
 31
0.0
  0
LINE
  5
1DA03
330
1D62A
100
AcDbEntity
  8
SUNPOU
100
AcDbLine
 10
8619.110546919882
 20
3460.323888222177
 30
0.0
 11
8619.110546919882
 21
3665.323888222177
 31
0.0
  0
LINE
  5
1DA04
330
1D62A
100
AcDbEntity
  8
SUNPOU
100
AcDbLine
 10
8708.463942920642
 20
2717.92388822218
 30
0.0
 11
8574.110546919881
 21
2717.92388822218
 31
0.0
  0
LINE
  5
1DA05
330
1D62A
100
AcDbEntity
  8
SUNPOU
100
AcDbLine
 10
8868.463942920639
 20
3197.923888222173
 30
0.0
 11
8574.110546919881
 21
3197.923888222173
 31
0.0
  0
LINE
  5
1DA06
330
1D62A
100
AcDbEntity
  8
SUNPOU
100
AcDbLine
 10
8619.110546919882
 20
2732.923888222179
 30
0.0
 11
8619.110546919882
 21
3182.923888222173
 31
0.0
  0
LINE
  5
1DA07
330
1D62A
100
AcDbEntity
  8
SUNPOU
100
AcDbLine
 10
8708.463942920642
 20
2717.92388822218
 30
0.0
 11
8574.110546919881
 21
2717.92388822218
 31
0.0
  0
LINE
  5
1DA08
330
1D62A
100
AcDbEntity
  8
SUNPOU
100
AcDbLine
 10
8708.463942920642
 20
2557.923888222175
 30
0.0
 11
8574.110546919881
 21
2557.923888222175
 31
0.0
  0
LINE
  5
1DA09
330
1D62A
100
AcDbEntity
  8
SUNPOU
100
AcDbLine
 10
8619.110546919882
 20
2702.923888222179
 30
0.0
 11
8619.110546919882
 21
2572.923888222176
 31
0.0
  0
LINE
  5
1DA0A
330
1D62A
100
AcDbEntity
  8
SUNPOU
100
AcDbLine
 10
8619.110546919882
 20
2557.923888222175
 30
0.0
 11
8619.110546919882
 21
2307.209602507889
 31
0.0
  0
LINE
  5
1DA0B
330
1D62A
100
AcDbEntity
  8
SUNPOU
100
AcDbLine
 10
8776.622403112069
 20
3460.323888222177
 30
0.0
 11
8364.11054691988
 21
3460.323888222177
 31
0.0
  0
LINE
  5
1DA0C
330
1D62A
100
AcDbEntity
  8
SUNPOU
100
AcDbLine
 10
8708.463942920642
 20
2557.923888222175
 30
0.0
 11
8364.11054691988
 21
2557.923888222175
 31
0.0
  0
LINE
  5
1DA0D
330
1D62A
100
AcDbEntity
  8
SUNPOU
100
AcDbLine
 10
8409.110546919881
 20
3445.323888222177
 30
0.0
 11
8409.110546919881
 21
2572.923888222176
 31
0.0
  0
LINE
  5
1DA0E
330
1D62A
100
AcDbEntity
  8
SUNPOU
100
AcDbLine
 10
10779.704902103
 20
4137.324460358767
 30
0.0
 11
10719.70490210299
 21
4137.324460358767
 31
0.0
  0
LINE
  5
1DA0F
330
1D62A
100
AcDbEntity
  8
SUNPOU
100
AcDbLine
 10
10779.70490210299
 20
4137.324460358767
 30
0.0
 11
10719.70490210299
 21
4153.401411904638
 31
0.0
  0
LINE
  5
1DA10
330
1D62A
100
AcDbEntity
  8
SUNPOU
100
AcDbLine
 10
10779.704902103
 20
4137.324460358767
 30
0.0
 11
10719.70490210299
 21
4121.247508812897
 31
0.0
  0
LINE
  5
1DA11
330
1D62A
100
AcDbEntity
  8
SUNPOU
100
AcDbLine
 10
10719.70490210299
 20
4137.324460358767
 30
0.0
 11
10659.70490210299
 21
4137.324460358767
 31
0.0
  0
LINE
  5
1DA12
330
1D62A
100
AcDbEntity
  8
SUNPOU
100
AcDbLine
 10
10719.70490210299
 20
4137.324460358767
 30
0.0
 11
10659.70490210299
 21
4153.401411904638
 31
0.0
  0
LINE
  5
1DA13
330
1D62A
100
AcDbEntity
  8
SUNPOU
100
AcDbLine
 10
10719.70490210299
 20
4137.324460358767
 30
0.0
 11
10659.70490210299
 21
4121.247508812897
 31
0.0
  0
LINE
  5
1DA14
330
1D62A
100
AcDbEntity
  8
SUNPOU
100
AcDbLine
 10
12593.67906519162
 20
3733.176085387134
 30
0.0
 11
13276.74749427907
 21
3733.176085387134
 31
0.0
  0
LINE
  5
1DA15
330
1D62A
100
AcDbEntity
  8
SUNPOU
100
AcDbLine
 10
12593.67906519162
 20
3893.176085387133
 30
0.0
 11
13276.74749427907
 21
3893.176085387133
 31
0.0
  0
LINE
  5
1DA16
330
1D62A
100
AcDbEntity
  8
SUNPOU
100
AcDbLine
 10
13231.74749427908
 20
3748.176085387133
 30
0.0
 11
13231.74749427908
 21
3878.176085387133
 31
0.0
  0
LINE
  5
1DA17
330
1D62A
100
AcDbEntity
  8
SUNPOU
100
AcDbLine
 10
13231.74749427908
 20
3893.176085387133
 30
0.0
 11
13231.74749427908
 21
4095.318942529988
 31
0.0
  0
LINE
  5
1DA18
330
1D62A
100
AcDbEntity
  8
SUNPOU
100
AcDbLine
 10
12593.67906519162
 20
3733.176085387134
 30
0.0
 11
13276.74749427907
 21
3733.176085387134
 31
0.0
  0
LINE
  5
1DA19
330
1D62A
100
AcDbEntity
  8
SUNPOU
100
AcDbLine
 10
12849.67906519162
 20
3625.176085387133
 30
0.0
 11
13276.74749427907
 21
3625.176085387133
 31
0.0
  0
LINE
  5
1DA1A
330
1D62A
100
AcDbEntity
  8
SUNPOU
100
AcDbLine
 10
13231.74749427908
 20
3748.176085387133
 30
0.0
 11
13231.74749427908
 21
3763.176085387133
 31
0.0
  0
LINE
  5
1DA1B
330
1D62A
100
AcDbEntity
  8
SUNPOU
100
AcDbLine
 10
13231.74749427908
 20
3610.176085387133
 30
0.0
 11
13231.74749427908
 21
3408.033228244276
 31
0.0
  0
LINE
  5
1DA1C
330
1D62A
100
AcDbEntity
  8
SUNPOU
100
AcDbLine
 10
13231.74749427908
 20
3733.176085387134
 30
0.0
 11
13231.74749427908
 21
3625.176085387133
 31
0.0
  0
LINE
  5
1DA1D
330
1D62A
100
AcDbEntity
  8
SUNPOU
100
AcDbLine
 10
5278.137742396994
 20
2697.523888222175
 30
0.0
 11
5278.137742396994
 21
2110.523888222173
 31
0.0
  0
LINE
  5
1DA1E
330
1D62A
100
AcDbEntity
  8
SUNPOU
100
AcDbLine
 10
6238.137742396993
 20
2697.523888222175
 30
0.0
 11
6238.137742396993
 21
2110.523888222173
 31
0.0
  0
LINE
  5
1DA1F
330
1D62A
100
AcDbEntity
  8
SUNPOU
100
AcDbLine
 10
5293.137742396994
 20
2155.523888222173
 30
0.0
 11
6223.137742396994
 21
2155.523888222173
 31
0.0
  0
LINE
  5
1DA20
330
1D62A
100
AcDbEntity
  8
SUNPOU
100
AcDbLine
 10
5118.137742396992
 20
2537.523888222175
 30
0.0
 11
5118.137742396992
 21
1900.523888222172
 31
0.0
  0
LINE
  5
1DA21
330
1D62A
100
AcDbEntity
  8
SUNPOU
100
AcDbLine
 10
6398.137742396992
 20
2537.523888222175
 30
0.0
 11
6398.137742396992
 21
1900.523888222172
 31
0.0
  0
LINE
  5
1DA22
330
1D62A
100
AcDbEntity
  8
SUNPOU
100
AcDbLine
 10
5133.137742396995
 20
1945.523888222172
 30
0.0
 11
6383.137742396993
 21
1945.523888222172
 31
0.0
  0
LINE
  5
1DA23
330
1D62A
100
AcDbEntity
  8
SUNPOU
100
AcDbLine
 10
4448.784346396233
 20
3380.323888222175
 30
0.0
 11
4463.784346396234
 21
3380.323888222175
 31
0.0
  0
LINE
  5
1DA24
330
1D62A
100
AcDbEntity
  8
SUNPOU
100
AcDbLine
 10
5088.137742396995
 20
3460.323888222177
 30
0.0
 11
4373.784346396234
 21
3460.323888222177
 31
0.0
  0
LINE
  5
1DA25
330
1D62A
100
AcDbEntity
  8
SUNPOU
100
AcDbLine
 10
4418.784346396234
 20
3365.323888222175
 30
0.0
 11
4418.784346396234
 21
3350.323888222176
 31
0.0
  0
LINE
  5
1DA26
330
1D62A
100
AcDbEntity
  8
SUNPOU
100
AcDbLine
 10
4418.784346396234
 20
3475.323888222177
 30
0.0
 11
4418.784346396234
 21
3677.466745365034
 31
0.0
  0
LINE
  5
1DA27
330
1D62A
100
AcDbEntity
  8
SUNPOU
100
AcDbLine
 10
4418.784346396234
 20
3380.323888222175
 30
0.0
 11
4418.784346396234
 21
3460.323888222177
 31
0.0
  0
LINE
  5
1DA28
330
1D62A
100
AcDbEntity
  8
SUNPOU
100
AcDbLine
 10
5088.137742396995
 20
3325.923888222173
 30
0.0
 11
4793.784346396238
 21
3325.923888222173
 31
0.0
  0
LINE
  5
1DA29
330
1D62A
100
AcDbEntity
  8
SUNPOU
100
AcDbLine
 10
5088.137742396995
 20
3197.923888222169
 30
0.0
 11
4793.784346396238
 21
3197.923888222169
 31
0.0
  0
LINE
  5
1DA2A
330
1D62A
100
AcDbEntity
  8
SUNPOU
100
AcDbLine
 10
4838.784346396238
 20
3310.923888222173
 30
0.0
 11
4838.784346396238
 21
3212.92388822217
 31
0.0
  0
LINE
  5
1DA2B
330
1D62A
100
AcDbEntity
  8
SUNPOU
100
AcDbLine
 10
5088.137742396995
 20
3325.923888222175
 30
0.0
 11
4793.784346396234
 21
3325.923888222175
 31
0.0
  0
LINE
  5
1DA2C
330
1D62A
100
AcDbEntity
  8
SUNPOU
100
AcDbLine
 10
5088.137742396995
 20
3460.323888222177
 30
0.0
 11
4793.784346396234
 21
3460.323888222177
 31
0.0
  0
LINE
  5
1DA2D
330
1D62A
100
AcDbEntity
  8
SUNPOU
100
AcDbLine
 10
4838.784346396234
 20
3340.923888222175
 30
0.0
 11
4838.784346396234
 21
3445.323888222177
 31
0.0
  0
LINE
  5
1DA2E
330
1D62A
100
AcDbEntity
  8
SUNPOU
100
AcDbLine
 10
4838.784346396234
 20
3460.323888222177
 30
0.0
 11
4838.784346396234
 21
3665.323888222177
 31
0.0
  0
LINE
  5
1DA2F
330
1D62A
100
AcDbEntity
  8
SUNPOU
100
AcDbLine
 10
5088.137742396992
 20
2717.923888222177
 30
0.0
 11
4793.784346396234
 21
2717.923888222177
 31
0.0
  0
LINE
  5
1DA30
330
1D62A
100
AcDbEntity
  8
SUNPOU
100
AcDbLine
 10
5088.137742396992
 20
3197.923888222171
 30
0.0
 11
4793.784346396234
 21
3197.923888222171
 31
0.0
  0
LINE
  5
1DA31
330
1D62A
100
AcDbEntity
  8
SUNPOU
100
AcDbLine
 10
4838.784346396234
 20
2732.923888222178
 30
0.0
 11
4838.784346396234
 21
3182.923888222171
 31
0.0
  0
LINE
  5
1DA32
330
1D62A
100
AcDbEntity
  8
SUNPOU
100
AcDbLine
 10
5088.137742396992
 20
2717.923888222177
 30
0.0
 11
4793.784346396234
 21
2717.923888222177
 31
0.0
  0
LINE
  5
1DA33
330
1D62A
100
AcDbEntity
  8
SUNPOU
100
AcDbLine
 10
5088.137742396992
 20
2557.923888222177
 30
0.0
 11
4793.784346396234
 21
2557.923888222177
 31
0.0
  0
LINE
  5
1DA34
330
1D62A
100
AcDbEntity
  8
SUNPOU
100
AcDbLine
 10
4838.784346396234
 20
2702.923888222177
 30
0.0
 11
4838.784346396234
 21
2572.923888222177
 31
0.0
  0
LINE
  5
1DA35
330
1D62A
100
AcDbEntity
  8
SUNPOU
100
AcDbLine
 10
4838.784346396234
 20
2557.923888222177
 30
0.0
 11
4838.784346396234
 21
2307.20960250789
 31
0.0
  0
LINE
  5
1DA36
330
1D62A
100
AcDbEntity
  8
SUNPOU
100
AcDbLine
 10
5088.137742396995
 20
3460.323888222177
 30
0.0
 11
4583.784346396234
 21
3460.323888222177
 31
0.0
  0
LINE
  5
1DA37
330
1D62A
100
AcDbEntity
  8
SUNPOU
100
AcDbLine
 10
5088.137742396995
 20
2557.923888222177
 30
0.0
 11
4583.784346396234
 21
2557.923888222177
 31
0.0
  0
LINE
  5
1DA38
330
1D62A
100
AcDbEntity
  8
SUNPOU
100
AcDbLine
 10
4628.784346396234
 20
3445.323888222177
 30
0.0
 11
4628.784346396234
 21
2572.923888222177
 31
0.0
  0
LINE
  5
1DA39
330
1D62A
100
AcDbEntity
  8
SUNPOU
100
AcDbLine
 10
7303.368249647245
 20
4137.324460358764
 30
0.0
 11
7243.36824964723
 21
4137.324460358764
 31
0.0
  0
LINE
  5
1DA3A
330
1D62A
100
AcDbEntity
  8
SUNPOU
100
AcDbLine
 10
7303.368249647238
 20
4137.324460358764
 30
0.0
 11
7243.368249647234
 21
4153.401411904634
 31
0.0
  0
LINE
  5
1DA3B
330
1D62A
100
AcDbEntity
  8
SUNPOU
100
AcDbLine
 10
7303.368249647245
 20
4137.324460358764
 30
0.0
 11
7243.36824964723
 21
4121.247508812895
 31
0.0
  0
LINE
  5
1DA3C
330
1D62A
100
AcDbEntity
  8
SUNPOU
100
AcDbLine
 10
7243.368249647244
 20
4137.324460358764
 30
0.0
 11
7183.36824964723
 21
4137.324460358764
 31
0.0
  0
LINE
  5
1DA3D
330
1D62A
100
AcDbEntity
  8
SUNPOU
100
AcDbLine
 10
7243.368249647234
 20
4137.324460358764
 30
0.0
 11
7183.368249647237
 21
4153.401411904634
 31
0.0
  0
LINE
  5
1DA3E
330
1D62A
100
AcDbEntity
  8
SUNPOU
100
AcDbLine
 10
7243.368249647244
 20
4137.324460358764
 30
0.0
 11
7183.36824964723
 21
4121.247508812895
 31
0.0
  0
LINE
  5
1DA3F
330
1D62A
100
AcDbEntity
  8
SUNPOU
100
AcDbLine
 10
5758.137742396995
 20
4167.324460358766
 30
0.0
 11
5758.137742396995
 21
4182.324460358763
 31
0.0
  0
LINE
  5
1DA40
330
1D62A
100
AcDbEntity
  8
SUNPOU
100
AcDbLine
 10
5118.137742396996
 20
3490.323888222175
 30
0.0
 11
5118.137742396996
 21
4182.324460358763
 31
0.0
  0
LINE
  5
1DA41
330
1D62A
100
AcDbEntity
  8
SUNPOU
100
AcDbLine
 10
5743.137742396993
 20
4137.324460358764
 30
0.0
 11
5133.137742396995
 21
4137.324460358764
 31
0.0
  0
LINE
  5
1DA42
330
1D62A
100
AcDbEntity
  8
SUNPOU
100
AcDbLine
 10
12739.67906519162
 20
2476.983392855721
 30
0.0
 11
12739.67906519162
 21
2207.644025518658
 31
0.0
  0
LINE
  5
1DA43
330
1D62A
100
AcDbEntity
  8
SUNPOU
100
AcDbLine
 10
12819.67906519162
 20
2516.983392855721
 30
0.0
 11
12819.67906519162
 21
2207.644025518658
 31
0.0
  0
LINE
  5
1DA44
330
1D62A
100
AcDbEntity
  8
SUNPOU
100
AcDbLine
 10
12724.67906519162
 20
2252.644025518658
 30
0.0
 11
12709.67906519162
 21
2252.644025518658
 31
0.0
  0
LINE
  5
1DA45
330
1D62A
100
AcDbEntity
  8
SUNPOU
100
AcDbLine
 10
12834.67906519162
 20
2252.644025518658
 30
0.0
 11
13036.82192233448
 21
2252.644025518658
 31
0.0
  0
LINE
  5
1DA46
330
1D62A
100
AcDbEntity
  8
SUNPOU
100
AcDbLine
 10
12739.67906519162
 20
2252.644025518658
 30
0.0
 11
12819.67906519162
 21
2252.644025518658
 31
0.0
  0
LINE
  5
1DA47
330
1D62A
100
AcDbEntity
  8
SUNPOU
100
AcDbLine
 10
12259.67906519163
 20
2476.983392855721
 30
0.0
 11
12259.67906519163
 21
2207.644025518658
 31
0.0
  0
LINE
  5
1DA48
330
1D62A
100
AcDbEntity
  8
SUNPOU
100
AcDbLine
 10
12739.67906519162
 20
2476.983392855721
 30
0.0
 11
12739.67906519162
 21
2207.644025518658
 31
0.0
  0
LINE
  5
1DA49
330
1D62A
100
AcDbEntity
  8
SUNPOU
100
AcDbLine
 10
12274.67906519164
 20
2252.644025518658
 30
0.0
 11
12724.67906519162
 21
2252.644025518658
 31
0.0
  0
LINE
  5
1DA4A
330
1D62A
100
AcDbEntity
  8
SUNPOU
100
AcDbLine
 10
12259.67906519163
 20
2476.983392855721
 30
0.0
 11
12259.67906519163
 21
2207.644025518658
 31
0.0
  0
LINE
  5
1DA4B
330
1D62A
100
AcDbEntity
  8
SUNPOU
100
AcDbLine
 10
12179.67906519162
 20
2516.983392855721
 30
0.0
 11
12179.67906519162
 21
2207.644025518658
 31
0.0
  0
LINE
  5
1DA4C
330
1D62A
100
AcDbEntity
  8
SUNPOU
100
AcDbLine
 10
12274.67906519164
 20
2252.644025518658
 30
0.0
 11
12289.67906519164
 21
2252.644025518658
 31
0.0
  0
LINE
  5
1DA4D
330
1D62A
100
AcDbEntity
  8
SUNPOU
100
AcDbLine
 10
12164.67906519162
 20
2252.644025518658
 30
0.0
 11
11962.53620804875
 21
2252.644025518658
 31
0.0
  0
LINE
  5
1DA4E
330
1D62A
100
AcDbEntity
  8
SUNPOU
100
AcDbLine
 10
12259.67906519163
 20
2252.644025518658
 30
0.0
 11
12179.67906519162
 21
2252.644025518658
 31
0.0
  0
LINE
  5
1DA4F
330
1D62A
100
AcDbEntity
  8
SUNPOU
100
AcDbLine
 10
12179.67906519162
 20
2516.983392855721
 30
0.0
 11
12179.67906519162
 21
1997.644025518658
 31
0.0
  0
LINE
  5
1DA50
330
1D62A
100
AcDbEntity
  8
SUNPOU
100
AcDbLine
 10
12819.67906519162
 20
2516.983392855721
 30
0.0
 11
12819.67906519162
 21
1997.644025518658
 31
0.0
  0
LINE
  5
1DA51
330
1D62A
100
AcDbEntity
  8
SUNPOU
100
AcDbLine
 10
12194.67906519162
 20
2042.644025518657
 30
0.0
 11
12804.67906519162
 21
2042.644025518657
 31
0.0
  0
LINE
  5
1DA52
330
1D62A
100
AcDbEntity
  8
SUNPOU
100
AcDbLine
 10
12153.67906519162
 20
2706.983392855721
 30
0.0
 11
11831.67906519162
 21
2706.983392855721
 31
0.0
  0
LINE
  5
1DA53
330
1D62A
100
AcDbEntity
  8
SUNPOU
100
AcDbLine
 10
12149.67906519162
 20
2546.983392855721
 30
0.0
 11
11831.67906519162
 21
2546.983392855721
 31
0.0
  0
LINE
  5
1DA54
330
1D62A
100
AcDbEntity
  8
SUNPOU
100
AcDbLine
 10
11876.67906519162
 20
2691.983392855721
 30
0.0
 11
11876.67906519162
 21
2561.983392855721
 31
0.0
  0
LINE
  5
1DA55
330
1D62A
100
AcDbEntity
  8
SUNPOU
100
AcDbLine
 10
11876.67906519162
 20
2546.983392855721
 30
0.0
 11
11876.67906519162
 21
2344.840535712865
 31
0.0
  0
LINE
  5
1DA56
330
1D62A
100
AcDbEntity
  8
SUNPOU
100
AcDbLine
 10
12153.67906519162
 20
2706.983392855721
 30
0.0
 11
11831.67906519162
 21
2706.983392855721
 31
0.0
  0
LINE
  5
1DA57
330
1D62A
100
AcDbEntity
  8
SUNPOU
100
AcDbLine
 10
12149.67906519162
 20
2866.983392855721
 30
0.0
 11
11831.67906519162
 21
2866.983392855721
 31
0.0
  0
LINE
  5
1DA58
330
1D62A
100
AcDbEntity
  8
SUNPOU
100
AcDbLine
 10
11876.67906519162
 20
2721.983392855721
 30
0.0
 11
11876.67906519162
 21
2851.983392855721
 31
0.0
  0
LINE
  5
1DA59
330
1D62A
100
AcDbEntity
  8
SUNPOU
100
AcDbLine
 10
11876.67906519162
 20
2866.983392855721
 30
0.0
 11
11876.67906519162
 21
3069.126249998579
 31
0.0
  0
LINE
  5
1DA5A
330
1D62A
100
AcDbEntity
  8
SUNPOU
100
AcDbLine
 10
12149.67906519162
 20
2546.983392855721
 30
0.0
 11
11621.67906519162
 21
2546.983392855721
 31
0.0
  0
LINE
  5
1DA5B
330
1D62A
100
AcDbEntity
  8
SUNPOU
100
AcDbLine
 10
12149.67906519162
 20
2866.983392855721
 30
0.0
 11
11621.67906519162
 21
2866.983392855721
 31
0.0
  0
LINE
  5
1DA5C
330
1D62A
100
AcDbEntity
  8
SUNPOU
100
AcDbLine
 10
11666.67906519162
 20
2561.983392855721
 30
0.0
 11
11666.67906519162
 21
2851.983392855721
 31
0.0
  0
LINE
  5
1DA5D
330
1D62A
100
AcDbEntity
  8
SUNPOU
100
AcDbLine
 10
12739.67906519162
 20
3555.176085387133
 30
0.0
 11
12739.67906519162
 21
3356.00991145763
 31
0.0
  0
LINE
  5
1DA5E
330
1D62A
100
AcDbEntity
  8
SUNPOU
100
AcDbLine
 10
12819.67906519162
 20
3595.176085387133
 30
0.0
 11
12819.67906519162
 21
3356.00991145763
 31
0.0
  0
LINE
  5
1DA5F
330
1D62A
100
AcDbEntity
  8
SUNPOU
100
AcDbLine
 10
12724.67906519162
 20
3401.009911457631
 30
0.0
 11
12709.67906519162
 21
3401.009911457631
 31
0.0
  0
LINE
  5
1DA60
330
1D62A
100
AcDbEntity
  8
SUNPOU
100
AcDbLine
 10
12834.67906519162
 20
3401.009911457631
 30
0.0
 11
13036.82192233448
 21
3401.009911457631
 31
0.0
  0
LINE
  5
1DA61
330
1D62A
100
AcDbEntity
  8
SUNPOU
100
AcDbLine
 10
12739.67906519162
 20
3401.009911457631
 30
0.0
 11
12819.67906519162
 21
3401.009911457631
 31
0.0
  0
LINE
  5
1DA62
330
1D62A
100
AcDbEntity
  8
SUNPOU
100
AcDbLine
 10
12259.67906519163
 20
3555.176085387133
 30
0.0
 11
12259.67906519163
 21
3356.00991145763
 31
0.0
  0
LINE
  5
1DA63
330
1D62A
100
AcDbEntity
  8
SUNPOU
100
AcDbLine
 10
12739.67906519162
 20
3555.176085387133
 30
0.0
 11
12739.67906519162
 21
3356.00991145763
 31
0.0
  0
LINE
  5
1DA64
330
1D62A
100
AcDbEntity
  8
SUNPOU
100
AcDbLine
 10
12274.67906519164
 20
3401.009911457631
 30
0.0
 11
12724.67906519162
 21
3401.009911457631
 31
0.0
  0
LINE
  5
1DA65
330
1D62A
100
AcDbEntity
  8
SUNPOU
100
AcDbLine
 10
12259.67906519163
 20
3555.176085387133
 30
0.0
 11
12259.67906519163
 21
3356.00991145763
 31
0.0
  0
LINE
  5
1DA66
330
1D62A
100
AcDbEntity
  8
SUNPOU
100
AcDbLine
 10
12179.67906519162
 20
3595.176085387133
 30
0.0
 11
12179.67906519162
 21
3356.00991145763
 31
0.0
  0
LINE
  5
1DA67
330
1D62A
100
AcDbEntity
  8
SUNPOU
100
AcDbLine
 10
12274.67906519164
 20
3401.009911457631
 30
0.0
 11
12289.67906519164
 21
3401.009911457631
 31
0.0
  0
LINE
  5
1DA68
330
1D62A
100
AcDbEntity
  8
SUNPOU
100
AcDbLine
 10
12164.67906519162
 20
3401.009911457631
 30
0.0
 11
11962.53620804875
 21
3401.009911457631
 31
0.0
  0
LINE
  5
1DA69
330
1D62A
100
AcDbEntity
  8
SUNPOU
100
AcDbLine
 10
12259.67906519163
 20
3401.009911457631
 30
0.0
 11
12179.67906519162
 21
3401.009911457631
 31
0.0
  0
LINE
  5
1DA6A
330
1D62A
100
AcDbEntity
  8
SUNPOU
100
AcDbLine
 10
12179.67906519162
 20
3595.176085387133
 30
0.0
 11
12179.67906519162
 21
3146.00991145763
 31
0.0
  0
LINE
  5
1DA6B
330
1D62A
100
AcDbEntity
  8
SUNPOU
100
AcDbLine
 10
12819.67906519162
 20
3595.176085387133
 30
0.0
 11
12819.67906519162
 21
3146.00991145763
 31
0.0
  0
LINE
  5
1DA6C
330
1D62A
100
AcDbEntity
  8
SUNPOU
100
AcDbLine
 10
12194.67906519162
 20
3191.00991145763
 30
0.0
 11
12804.67906519162
 21
3191.00991145763
 31
0.0
  0
LINE
  5
1DA6D
330
1D62A
100
AcDbEntity
  8
SUNPOU
100
AcDbLine
 10
8979.21703198606
 20
7095.715360473251
 30
0.0
 11
8764.217031986062
 21
7095.715360473251
 31
0.0
  0
LINE
  5
1DA6E
330
1D62A
100
AcDbEntity
  8
SUNPOU
100
AcDbLine
 10
8979.21703198606
 20
7895.715360473251
 30
0.0
 11
8764.217031986062
 21
7895.715360473251
 31
0.0
  0
LINE
  5
1DA6F
330
1D62A
100
AcDbEntity
  8
SUNPOU
100
AcDbLine
 10
8809.217031986062
 20
7110.715360473249
 30
0.0
 11
8809.217031986062
 21
7880.715360473249
 31
0.0
  0
LINE
  5
1DA70
330
1D62A
100
AcDbEntity
  8
SUNPOU
100
AcDbLine
 10
9009.217031986059
 20
7925.715360473251
 30
0.0
 11
9009.217031986059
 21
8110.715360473248
 31
0.0
  0
LINE
  5
1DA71
330
1D62A
100
AcDbEntity
  8
SUNPOU
100
AcDbLine
 10
9809.21703198606
 20
7925.715360473251
 30
0.0
 11
9809.21703198606
 21
8110.715360473248
 31
0.0
  0
LINE
  5
1DA72
330
1D62A
100
AcDbEntity
  8
SUNPOU
100
AcDbLine
 10
9024.21703198606
 20
8065.715360473248
 30
0.0
 11
9794.217031986059
 21
8065.715360473248
 31
0.0
  0
LINE
  5
1DA73
330
1D62A
100
AcDbEntity
  8
SUNPOU
100
AcDbLine
 10
9079.217031986066
 20
9595.715360473251
 30
0.0
 11
8764.217031986062
 21
9595.715360473251
 31
0.0
  0
LINE
  5
1DA74
330
1D62A
100
AcDbEntity
  8
SUNPOU
100
AcDbLine
 10
9079.217031986066
 20
8995.715360473251
 30
0.0
 11
8764.217031986062
 21
8995.715360473251
 31
0.0
  0
LINE
  5
1DA75
330
1D62A
100
AcDbEntity
  8
SUNPOU
100
AcDbLine
 10
8809.217031986062
 20
9580.71536047325
 30
0.0
 11
8809.217031986062
 21
9010.71536047325
 31
0.0
  0
LINE
  5
1DA76
330
1D62A
100
AcDbEntity
  8
SUNPOU
100
AcDbLine
 10
9109.217031986066
 20
8965.71536047325
 30
0.0
 11
9109.217031986066
 21
8650.715360473251
 31
0.0
  0
LINE
  5
1DA77
330
1D62A
100
AcDbEntity
  8
SUNPOU
100
AcDbLine
 10
9709.217031986066
 20
8965.71536047325
 30
0.0
 11
9709.217031986066
 21
8650.715360473251
 31
0.0
  0
LINE
  5
1DA78
330
1D62A
100
AcDbEntity
  8
SUNPOU
100
AcDbLine
 10
9124.217031986065
 20
8695.715360473251
 30
0.0
 11
9694.217031986065
 21
8695.715360473251
 31
0.0
  0
LINE
  5
1DA79
330
1D62A
100
AcDbEntity
  8
SUNPOU
100
AcDbLine
 10
10179.21703198606
 20
9295.715360473248
 30
0.0
 11
10164.21703198606
 21
9295.715360473248
 31
0.0
  0
LINE
  5
1DA7A
330
1D62A
100
AcDbEntity
  8
SUNPOU
100
AcDbLine
 10
9839.217031986059
 20
9595.715360473247
 30
0.0
 11
10254.21703198605
 21
9595.715360473247
 31
0.0
  0
LINE
  5
1DA7B
330
1D62A
100
AcDbEntity
  8
SUNPOU
100
AcDbLine
 10
10209.21703198605
 20
9310.715360473249
 30
0.0
 11
10209.21703198605
 21
9580.715360473249
 31
0.0
  0
LINE
  5
1DA7C
330
1D62A
100
AcDbEntity
  8
SUNPOU
100
AcDbLine
 10
10179.21703198606
 20
7495.715360473251
 30
0.0
 11
10164.21703198606
 21
7495.715360473251
 31
0.0
  0
LINE
  5
1DA7D
330
1D62A
100
AcDbEntity
  8
SUNPOU
100
AcDbLine
 10
10179.21703198606
 20
9295.715360473248
 30
0.0
 11
10164.21703198606
 21
9295.715360473248
 31
0.0
  0
LINE
  5
1DA7E
330
1D62A
100
AcDbEntity
  8
SUNPOU
100
AcDbLine
 10
10209.21703198605
 20
7510.715360473248
 30
0.0
 11
10209.21703198605
 21
9280.71536047325
 31
0.0
  0
LINE
  5
1DA7F
330
1D62A
100
AcDbEntity
  8
SUNPOU
100
AcDbLine
 10
10179.21703198606
 20
5695.715360473251
 30
0.0
 11
10164.21703198606
 21
5695.715360473251
 31
0.0
  0
LINE
  5
1DA80
330
1D62A
100
AcDbEntity
  8
SUNPOU
100
AcDbLine
 10
10179.21703198606
 20
7495.715360473251
 30
0.0
 11
10164.21703198606
 21
7495.715360473251
 31
0.0
  0
LINE
  5
1DA81
330
1D62A
100
AcDbEntity
  8
SUNPOU
100
AcDbLine
 10
10209.21703198605
 20
5710.715360473249
 30
0.0
 11
10209.21703198605
 21
7480.715360473252
 31
0.0
  0
LINE
  5
1DA82
330
1D62A
100
AcDbEntity
  8
SUNPOU
100
AcDbLine
 10
9839.217031986059
 20
5395.71536047325
 30
0.0
 11
10254.21703198605
 21
5395.71536047325
 31
0.0
  0
LINE
  5
1DA83
330
1D62A
100
AcDbEntity
  8
SUNPOU
100
AcDbLine
 10
10179.21703198606
 20
5695.715360473251
 30
0.0
 11
10164.21703198606
 21
5695.715360473251
 31
0.0
  0
LINE
  5
1DA84
330
1D62A
100
AcDbEntity
  8
SUNPOU
100
AcDbLine
 10
10209.21703198605
 20
5410.71536047325
 30
0.0
 11
10209.21703198605
 21
5680.715360473249
 31
0.0
  0
LINE
  5
1DA85
330
1D62A
100
AcDbEntity
  8
SUNPOU
100
AcDbLine
 10
9839.217031986059
 20
5395.71536047325
 30
0.0
 11
10464.21703198606
 21
5395.71536047325
 31
0.0
  0
LINE
  5
1DA86
330
1D62A
100
AcDbEntity
  8
SUNPOU
100
AcDbLine
 10
9839.217031986059
 20
9595.715360473247
 30
0.0
 11
10464.21703198606
 21
9595.715360473247
 31
0.0
  0
LINE
  5
1DA87
330
1D62A
100
AcDbEntity
  8
SUNPOU
100
AcDbLine
 10
10419.21703198606
 20
5410.71536047325
 30
0.0
 11
10419.21703198606
 21
9580.715360473249
 31
0.0
  0
LINE
  5
1DA88
330
1D62A
100
AcDbEntity
  8
SUNPOU
100
AcDbLine
 10
9409.217031986059
 20
9725.715360473252
 30
0.0
 11
9409.217031986059
 21
10040.71536047325
 31
0.0
  0
LINE
  5
1DA89
330
1D62A
100
AcDbEntity
  8
SUNPOU
100
AcDbLine
 10
9809.21703198606
 20
9625.715360473252
 30
0.0
 11
9809.21703198606
 21
10040.71536047325
 31
0.0
  0
LINE
  5
1DA8A
330
1D62A
100
AcDbEntity
  8
SUNPOU
100
AcDbLine
 10
9424.21703198606
 20
9995.715360473253
 30
0.0
 11
9794.217031986059
 21
9995.715360473253
 31
0.0
  0
LINE
  5
1DA8B
330
1D62A
100
AcDbEntity
  8
SUNPOU
100
AcDbLine
 10
6559.21703198606
 20
9625.715360473252
 30
0.0
 11
6559.21703198606
 21
10250.71536047325
 31
0.0
  0
LINE
  5
1DA8C
330
1D62A
100
AcDbEntity
  8
SUNPOU
100
AcDbLine
 10
9809.21703198606
 20
9625.71536047325
 30
0.0
 11
9809.21703198606
 21
10250.71536047325
 31
0.0
  0
LINE
  5
1DA8D
330
1D62A
100
AcDbEntity
  8
SUNPOU
100
AcDbLine
 10
6574.21703198606
 20
10205.71536047325
 30
0.0
 11
9794.217031986059
 21
10205.71536047325
 31
0.0
  0
LINE
  5
1DA8E
330
1D62A
100
AcDbEntity
  8
SUNPOU
100
AcDbLine
 10
9409.217031986059
 20
9725.715360473252
 30
0.0
 11
9409.217031986059
 21
10040.71536047325
 31
0.0
  0
LINE
  5
1DA8F
330
1D62A
100
AcDbEntity
  8
SUNPOU
100
AcDbLine
 10
6959.21703198606
 20
9725.715360473252
 30
0.0
 11
6959.21703198606
 21
10040.71536047325
 31
0.0
  0
LINE
  5
1DA90
330
1D62A
100
AcDbEntity
  8
SUNPOU
100
AcDbLine
 10
9394.217031986059
 20
9995.715360473253
 30
0.0
 11
6974.217031986061
 21
9995.715360473253
 31
0.0
  0
LINE
  5
1DA91
330
1D62A
100
AcDbEntity
  8
SUNPOU
100
AcDbLine
 10
6959.21703198606
 20
9725.715360473252
 30
0.0
 11
6959.21703198606
 21
10040.71536047325
 31
0.0
  0
LINE
  5
1DA92
330
1D62A
100
AcDbEntity
  8
SUNPOU
100
AcDbLine
 10
6559.21703198606
 20
9625.715360473252
 30
0.0
 11
6559.21703198606
 21
10040.71536047325
 31
0.0
  0
LINE
  5
1DA93
330
1D62A
100
AcDbEntity
  8
SUNPOU
100
AcDbLine
 10
6944.21703198606
 20
9995.715360473253
 30
0.0
 11
6574.21703198606
 21
9995.715360473253
 31
0.0
  0
ARC
  5
1DA94
330
1D62A
100
AcDbEntity
  8
SUNPOU
100
AcDbCircle
 10
9538.463942920641
 20
4137.324460358767
 30
0.0
 40
5.625
100
AcDbArc
 50
90.0
 51
270.0
  0
ARC
  5
1DA95
330
1D62A
100
AcDbEntity
  8
SUNPOU
100
AcDbCircle
 10
9538.463942920641
 20
4137.324460358767
 30
0.0
 40
5.625
100
AcDbArc
 50
270.0
 51
90.0
  0
TEXT
  5
1DA96
330
1D62A
100
AcDbEntity
  8
SUNPOU
100
AcDbText
 10
9452.749657206352
 20
2200.523888222177
 30
0.0
 40
90.0
  1
800
 41
0.6666666666666666
  7
00
100
AcDbText
  0
LINE
  5
1DA97
330
1D62A
100
AcDbEntity
  8
SUNPOU
100
AcDbLine
 10
10167.21394292064
 20
2155.523888222177
 30
0.0
 11
10155.96394292064
 21
2155.523888222177
 31
0.0
  0
LINE
  5
1DA98
330
1D62A
100
AcDbEntity
  8
SUNPOU
100
AcDbLine
 10
8909.713942920644
 20
2155.523888222177
 30
0.0
 11
8920.963942920643
 21
2155.523888222177
 31
0.0
  0
TEXT
  5
1DA99
330
1D62A
100
AcDbEntity
  8
SUNPOU
100
AcDbText
 10
9419.892514349211
 20
1990.523888222177
 30
0.0
 40
90.0
  1
1000
 41
0.6666666666666666
  7
00
100
AcDbText
  0
LINE
  5
1DA9A
330
1D62A
100
AcDbEntity
  8
SUNPOU
100
AcDbLine
 10
10327.21394292064
 20
1945.523888222177
 30
0.0
 11
10315.96394292064
 21
1945.523888222177
 31
0.0
  0
LINE
  5
1DA9B
330
1D62A
100
AcDbEntity
  8
SUNPOU
100
AcDbLine
 10
8749.71394292064
 20
1945.523888222177
 30
0.0
 11
8760.963942920637
 21
1945.523888222177
 31
0.0
  0
TEXT
  5
1DA9C
330
1D62A
100
AcDbEntity
  8
SUNPOU
100
AcDbText
 10
8574.110546919881
 20
3204.78103107932
 30
0.0
 40
90.0
  1
80
 50
90.0
 41
0.6666666666666666
  7
00
100
AcDbText
  0
LINE
  5
1DA9D
330
1D62A
100
AcDbEntity
  8
SUNPOU
100
AcDbLine
 10
8619.110546919882
 20
3209.173888222173
 30
0.0
 11
8619.110546919882
 21
3220.423888222173
 31
0.0
  0
LINE
  5
1DA9E
330
1D62A
100
AcDbEntity
  8
SUNPOU
100
AcDbLine
 10
8619.110546919882
 20
3314.673888222177
 30
0.0
 11
8619.110546919882
 21
3303.423888222178
 31
0.0
  0
TEXT
  5
1DA9F
330
1D62A
100
AcDbEntity
  8
SUNPOU
100
AcDbText
 10
8574.110546919881
 20
3511.75245965075
 30
0.0
 40
90.0
  1
84
 50
90.0
 41
0.6666666666666666
  7
00
100
AcDbText
  0
LINE
  5
1DAA0
330
1D62A
100
AcDbEntity
  8
SUNPOU
100
AcDbLine
 10
8619.110546919882
 20
3449.073888222176
 30
0.0
 11
8619.110546919882
 21
3437.823888222176
 31
0.0
  0
LINE
  5
1DAA1
330
1D62A
100
AcDbEntity
  8
SUNPOU
100
AcDbLine
 10
8619.110546919882
 20
3337.173888222175
 30
0.0
 11
8619.110546919882
 21
3348.423888222175
 31
0.0
  0
TEXT
  5
1DAA2
330
1D62A
100
AcDbEntity
  8
SUNPOU
100
AcDbText
 10
8574.110546919881
 20
2872.209602507892
 30
0.0
 40
90.0
  1
300
 50
90.0
 41
0.6666666666666666
  7
00
100
AcDbText
  0
LINE
  5
1DAA3
330
1D62A
100
AcDbEntity
  8
SUNPOU
100
AcDbLine
 10
8619.110546919882
 20
3186.673888222173
 30
0.0
 11
8619.110546919882
 21
3175.423888222173
 31
0.0
  0
LINE
  5
1DAA4
330
1D62A
100
AcDbEntity
  8
SUNPOU
100
AcDbLine
 10
8619.110546919882
 20
2729.17388822218
 30
0.0
 11
8619.110546919882
 21
2740.42388822218
 31
0.0
  0
TEXT
  5
1DAA5
330
1D62A
100
AcDbEntity
  8
SUNPOU
100
AcDbText
 10
8574.110546919881
 20
2335.066745365034
 30
0.0
 40
90.0
  1
100
 50
90.0
 41
0.6666666666666666
  7
00
100
AcDbText
  0
LINE
  5
1DAA6
330
1D62A
100
AcDbEntity
  8
SUNPOU
100
AcDbLine
 10
8619.110546919882
 20
2569.173888222175
 30
0.0
 11
8619.110546919882
 21
2580.423888222175
 31
0.0
  0
LINE
  5
1DAA7
330
1D62A
100
AcDbEntity
  8
SUNPOU
100
AcDbLine
 10
8619.110546919882
 20
2706.67388822218
 30
0.0
 11
8619.110546919882
 21
2695.42388822218
 31
0.0
  0
TEXT
  5
1DAA8
330
1D62A
100
AcDbEntity
  8
SUNPOU
100
AcDbText
 10
8364.11054691988
 20
2921.981031079321
 30
0.0
 40
90.0
  1
564
 50
90.0
 41
0.6666666666666666
  7
00
100
AcDbText
  0
LINE
  5
1DAA9
330
1D62A
100
AcDbEntity
  8
SUNPOU
100
AcDbLine
 10
8409.110546919881
 20
2569.173888222175
 30
0.0
 11
8409.110546919881
 21
2580.423888222175
 31
0.0
  0
LINE
  5
1DAAA
330
1D62A
100
AcDbEntity
  8
SUNPOU
100
AcDbLine
 10
8409.110546919881
 20
3449.073888222176
 30
0.0
 11
8409.110546919881
 21
3437.823888222176
 31
0.0
  0
TEXT
  5
1DAAB
330
1D62A
100
AcDbEntity
  8
SUNPOU
100
AcDbText
 10
13186.74749427908
 20
3944.604656815706
 30
0.0
 40
90.0
  1
40
 50
90.0
 41
0.6666666666666666
  7
00
100
AcDbText
  0
LINE
  5
1DAAC
330
1D62A
100
AcDbEntity
  8
SUNPOU
100
AcDbLine
 10
13231.74749427908
 20
3881.926085387133
 30
0.0
 11
13231.74749427908
 21
3870.676085387133
 31
0.0
  0
LINE
  5
1DAAD
330
1D62A
100
AcDbEntity
  8
SUNPOU
100
AcDbLine
 10
13231.74749427908
 20
3744.426085387133
 30
0.0
 11
13231.74749427908
 21
3755.676085387133
 31
0.0
  0
TEXT
  5
1DAAE
330
1D62A
100
AcDbEntity
  8
SUNPOU
100
AcDbText
 10
13186.74749427908
 20
3444.461799672849
 30
0.0
 40
90.0
  1
27
 50
90.0
 41
0.6666666666666666
  7
00
100
AcDbText
  0
LINE
  5
1DAAF
330
1D62A
100
AcDbEntity
  8
SUNPOU
100
AcDbLine
 10
13231.74749427908
 20
3613.926085387133
 30
0.0
 11
13231.74749427908
 21
3602.676085387133
 31
0.0
  0
LINE
  5
1DAB0
330
1D62A
100
AcDbEntity
  8
SUNPOU
100
AcDbLine
 10
13231.74749427908
 20
3744.426085387133
 30
0.0
 11
13231.74749427908
 21
3755.676085387133
 31
0.0
  0
TEXT
  5
1DAB1
330
1D62A
100
AcDbEntity
  8
SUNPOU
100
AcDbText
 10
5670.994885254138
 20
2200.523888222173
 30
0.0
 40
90.0
  1
600
 41
0.6666666666666666
  7
00
100
AcDbText
  0
LINE
  5
1DAB2
330
1D62A
100
AcDbEntity
  8
SUNPOU
100
AcDbLine
 10
6226.887742396995
 20
2155.523888222173
 30
0.0
 11
6215.637742396993
 21
2155.523888222173
 31
0.0
  0
LINE
  5
1DAB3
330
1D62A
100
AcDbEntity
  8
SUNPOU
100
AcDbLine
 10
5289.387742396995
 20
2155.523888222173
 30
0.0
 11
5300.637742396994
 21
2155.523888222173
 31
0.0
  0
TEXT
  5
1DAB4
330
1D62A
100
AcDbEntity
  8
SUNPOU
100
AcDbText
 10
5672.423456682707
 20
1990.523888222173
 30
0.0
 40
90.0
  1
800
 41
0.6666666666666666
  7
00
100
AcDbText
  0
LINE
  5
1DAB5
330
1D62A
100
AcDbEntity
  8
SUNPOU
100
AcDbLine
 10
6386.887742396993
 20
1945.523888222172
 30
0.0
 11
6375.637742396992
 21
1945.523888222172
 31
0.0
  0
LINE
  5
1DAB6
330
1D62A
100
AcDbEntity
  8
SUNPOU
100
AcDbLine
 10
5129.387742396994
 20
1945.523888222172
 30
0.0
 11
5140.637742396994
 21
1945.523888222172
 31
0.0
  0
TEXT
  5
1DAB7
330
1D62A
100
AcDbEntity
  8
SUNPOU
100
AcDbText
 10
4373.784346396234
 20
3526.752459650748
 30
0.0
 40
90.0
  1
50
 50
90.0
 41
0.6666666666666666
  7
00
100
AcDbText
  0
LINE
  5
1DAB8
330
1D62A
100
AcDbEntity
  8
SUNPOU
100
AcDbLine
 10
4418.784346396234
 20
3471.573888222177
 30
0.0
 11
4418.784346396234
 21
3482.823888222177
 31
0.0
  0
LINE
  5
1DAB9
330
1D62A
100
AcDbEntity
  8
SUNPOU
100
AcDbLine
 10
4418.784346396234
 20
3369.073888222176
 30
0.0
 11
4418.784346396234
 21
3357.823888222176
 31
0.0
  0
TEXT
  5
1DABA
330
1D62A
100
AcDbEntity
  8
SUNPOU
100
AcDbText
 10
4793.784346396237
 20
3204.781031079315
 30
0.0
 40
90.0
  1
80
 50
90.0
 41
0.6666666666666666
  7
00
100
AcDbText
  0
LINE
  5
1DABB
330
1D62A
100
AcDbEntity
  8
SUNPOU
100
AcDbLine
 10
4838.784346396238
 20
3209.173888222169
 30
0.0
 11
4838.784346396238
 21
3220.423888222169
 31
0.0
  0
LINE
  5
1DABC
330
1D62A
100
AcDbEntity
  8
SUNPOU
100
AcDbLine
 10
4838.784346396238
 20
3314.673888222173
 30
0.0
 11
4838.784346396238
 21
3303.423888222173
 31
0.0
  0
TEXT
  5
1DABD
330
1D62A
100
AcDbEntity
  8
SUNPOU
100
AcDbText
 10
4793.784346396234
 20
3511.752459650749
 30
0.0
 40
90.0
  1
84
 50
90.0
 41
0.6666666666666666
  7
00
100
AcDbText
  0
LINE
  5
1DABE
330
1D62A
100
AcDbEntity
  8
SUNPOU
100
AcDbLine
 10
4838.784346396234
 20
3449.073888222176
 30
0.0
 11
4838.784346396234
 21
3437.823888222176
 31
0.0
  0
LINE
  5
1DABF
330
1D62A
100
AcDbEntity
  8
SUNPOU
100
AcDbLine
 10
4838.784346396234
 20
3337.173888222175
 30
0.0
 11
4838.784346396234
 21
3348.423888222175
 31
0.0
  0
TEXT
  5
1DAC0
330
1D62A
100
AcDbEntity
  8
SUNPOU
100
AcDbText
 10
4793.784346396234
 20
2872.209602507888
 30
0.0
 40
90.0
  1
300
 50
90.0
 41
0.6666666666666666
  7
00
100
AcDbText
  0
LINE
  5
1DAC1
330
1D62A
100
AcDbEntity
  8
SUNPOU
100
AcDbLine
 10
4838.784346396234
 20
3186.673888222171
 30
0.0
 11
4838.784346396234
 21
3175.423888222171
 31
0.0
  0
LINE
  5
1DAC2
330
1D62A
100
AcDbEntity
  8
SUNPOU
100
AcDbLine
 10
4838.784346396234
 20
2729.173888222177
 30
0.0
 11
4838.784346396234
 21
2740.423888222177
 31
0.0
  0
TEXT
  5
1DAC3
330
1D62A
100
AcDbEntity
  8
SUNPOU
100
AcDbText
 10
4793.784346396234
 20
2335.066745365034
 30
0.0
 40
90.0
  1
100
 50
90.0
 41
0.6666666666666666
  7
00
100
AcDbText
  0
LINE
  5
1DAC4
330
1D62A
100
AcDbEntity
  8
SUNPOU
100
AcDbLine
 10
4838.784346396234
 20
2569.173888222177
 30
0.0
 11
4838.784346396234
 21
2580.423888222177
 31
0.0
  0
LINE
  5
1DAC5
330
1D62A
100
AcDbEntity
  8
SUNPOU
100
AcDbLine
 10
4838.784346396234
 20
2706.673888222177
 30
0.0
 11
4838.784346396234
 21
2695.423888222177
 31
0.0
  0
TEXT
  5
1DAC6
330
1D62A
100
AcDbEntity
  8
SUNPOU
100
AcDbText
 10
4583.784346396234
 20
2921.981031079321
 30
0.0
 40
90.0
  1
564
 50
90.0
 41
0.6666666666666666
  7
00
100
AcDbText
  0
LINE
  5
1DAC7
330
1D62A
100
AcDbEntity
  8
SUNPOU
100
AcDbLine
 10
4628.784346396234
 20
2569.173888222177
 30
0.0
 11
4628.784346396234
 21
2580.423888222177
 31
0.0
  0
LINE
  5
1DAC8
330
1D62A
100
AcDbEntity
  8
SUNPOU
100
AcDbLine
 10
4628.784346396234
 20
3449.073888222176
 30
0.0
 11
4628.784346396234
 21
3437.823888222176
 31
0.0
  0
TEXT
  5
1DAC9
330
1D62A
100
AcDbEntity
  8
SUNPOU
100
AcDbText
 10
5352.42345668271
 20
4182.324460358763
 30
0.0
 40
90.0
  1
400
 41
0.6666666666666666
  7
00
100
AcDbText
  0
LINE
  5
1DACA
330
1D62A
100
AcDbEntity
  8
SUNPOU
100
AcDbLine
 10
5129.387742396995
 20
4137.324460358764
 30
0.0
 11
5140.637742396997
 21
4137.324460358764
 31
0.0
  0
LINE
  5
1DACB
330
1D62A
100
AcDbEntity
  8
SUNPOU
100
AcDbLine
 10
5746.887742396993
 20
4137.324460358764
 30
0.0
 11
5735.637742396995
 21
4137.324460358764
 31
0.0
  0
TEXT
  5
1DACC
330
1D62A
100
AcDbEntity
  8
SUNPOU
100
AcDbText
 10
12886.10763662019
 20
2297.644025518658
 30
0.0
 40
90.0
  1
20
 41
0.6666666666666666
  7
00
100
AcDbText
  0
LINE
  5
1DACD
330
1D62A
100
AcDbEntity
  8
SUNPOU
100
AcDbLine
 10
12830.92906519162
 20
2252.644025518658
 30
0.0
 11
12842.17906519162
 21
2252.644025518658
 31
0.0
  0
LINE
  5
1DACE
330
1D62A
100
AcDbEntity
  8
SUNPOU
100
AcDbLine
 10
12728.42906519162
 20
2252.644025518658
 30
0.0
 11
12717.17906519162
 21
2252.644025518658
 31
0.0
  0
TEXT
  5
1DACF
330
1D62A
100
AcDbEntity
  8
SUNPOU
100
AcDbText
 10
12409.67906519163
 20
2297.644025518658
 30
0.0
 40
90.0
  1
120
 41
0.6666666666666666
  7
00
100
AcDbText
  0
LINE
  5
1DAD0
330
1D62A
100
AcDbEntity
  8
SUNPOU
100
AcDbLine
 10
12728.42906519162
 20
2252.644025518658
 30
0.0
 11
12717.17906519162
 21
2252.644025518658
 31
0.0
  0
LINE
  5
1DAD1
330
1D62A
100
AcDbEntity
  8
SUNPOU
100
AcDbLine
 10
12270.92906519164
 20
2252.644025518658
 30
0.0
 11
12282.17906519164
 21
2252.644025518658
 31
0.0
  0
TEXT
  5
1DAD2
330
1D62A
100
AcDbEntity
  8
SUNPOU
100
AcDbText
 10
11998.96477947732
 20
2297.644025518658
 30
0.0
 40
90.0
  1
20
 41
0.6666666666666666
  7
00
100
AcDbText
  0
LINE
  5
1DAD3
330
1D62A
100
AcDbEntity
  8
SUNPOU
100
AcDbLine
 10
12168.42906519162
 20
2252.644025518658
 30
0.0
 11
12157.17906519162
 21
2252.644025518658
 31
0.0
  0
LINE
  5
1DAD4
330
1D62A
100
AcDbEntity
  8
SUNPOU
100
AcDbLine
 10
12270.92906519164
 20
2252.644025518658
 30
0.0
 11
12282.17906519164
 21
2252.644025518658
 31
0.0
  0
TEXT
  5
1DAD5
330
1D62A
100
AcDbEntity
  8
SUNPOU
100
AcDbText
 10
12409.67906519162
 20
2087.644025518657
 30
0.0
 40
90.0
  1
160
 41
0.6666666666666666
  7
00
100
AcDbText
  0
LINE
  5
1DAD6
330
1D62A
100
AcDbEntity
  8
SUNPOU
100
AcDbLine
 10
12808.42906519162
 20
2042.644025518657
 30
0.0
 11
12797.17906519162
 21
2042.644025518657
 31
0.0
  0
LINE
  5
1DAD7
330
1D62A
100
AcDbEntity
  8
SUNPOU
100
AcDbLine
 10
12190.92906519162
 20
2042.644025518657
 30
0.0
 11
12202.17906519162
 21
2042.644025518657
 31
0.0
  0
TEXT
  5
1DAD8
330
1D62A
100
AcDbEntity
  8
SUNPOU
100
AcDbText
 10
11831.67906519162
 20
2381.269107141437
 30
0.0
 40
90.0
  1
40
 50
90.0
 41
0.6666666666666666
  7
00
100
AcDbText
  0
LINE
  5
1DAD9
330
1D62A
100
AcDbEntity
  8
SUNPOU
100
AcDbLine
 10
11876.67906519162
 20
2558.233392855721
 30
0.0
 11
11876.67906519162
 21
2569.483392855721
 31
0.0
  0
LINE
  5
1DADA
330
1D62A
100
AcDbEntity
  8
SUNPOU
100
AcDbLine
 10
11876.67906519162
 20
2695.733392855721
 30
0.0
 11
11876.67906519162
 21
2684.483392855721
 31
0.0
  0
TEXT
  5
1DADB
330
1D62A
100
AcDbEntity
  8
SUNPOU
100
AcDbText
 10
11831.67906519162
 20
2918.411964284295
 30
0.0
 40
90.0
  1
40
 50
90.0
 41
0.6666666666666666
  7
00
100
AcDbText
  0
LINE
  5
1DADC
330
1D62A
100
AcDbEntity
  8
SUNPOU
100
AcDbLine
 10
11876.67906519162
 20
2855.733392855721
 30
0.0
 11
11876.67906519162
 21
2844.483392855721
 31
0.0
  0
LINE
  5
1DADD
330
1D62A
100
AcDbEntity
  8
SUNPOU
100
AcDbLine
 10
11876.67906519162
 20
2718.233392855721
 30
0.0
 11
11876.67906519162
 21
2729.483392855721
 31
0.0
  0
TEXT
  5
1DADE
330
1D62A
100
AcDbEntity
  8
SUNPOU
100
AcDbText
 10
11621.67906519162
 20
2649.840535712867
 30
0.0
 40
90.0
  1
80
 50
90.0
 41
0.6666666666666666
  7
00
100
AcDbText
  0
LINE
  5
1DADF
330
1D62A
100
AcDbEntity
  8
SUNPOU
100
AcDbLine
 10
11666.67906519162
 20
2855.733392855721
 30
0.0
 11
11666.67906519162
 21
2844.483392855721
 31
0.0
  0
LINE
  5
1DAE0
330
1D62A
100
AcDbEntity
  8
SUNPOU
100
AcDbLine
 10
11666.67906519162
 20
2558.233392855721
 30
0.0
 11
11666.67906519162
 21
2569.483392855721
 31
0.0
  0
TEXT
  5
1DAE1
330
1D62A
100
AcDbEntity
  8
SUNPOU
100
AcDbText
 10
12886.10763662019
 20
3446.009911457631
 30
0.0
 40
90.0
  1
20
 41
0.6666666666666666
  7
00
100
AcDbText
  0
LINE
  5
1DAE2
330
1D62A
100
AcDbEntity
  8
SUNPOU
100
AcDbLine
 10
12830.92906519162
 20
3401.009911457631
 30
0.0
 11
12842.17906519162
 21
3401.009911457631
 31
0.0
  0
LINE
  5
1DAE3
330
1D62A
100
AcDbEntity
  8
SUNPOU
100
AcDbLine
 10
12728.42906519162
 20
3401.009911457631
 30
0.0
 11
12717.17906519162
 21
3401.009911457631
 31
0.0
  0
TEXT
  5
1DAE4
330
1D62A
100
AcDbEntity
  8
SUNPOU
100
AcDbText
 10
12409.67906519163
 20
3446.009911457631
 30
0.0
 40
90.0
  1
120
 41
0.6666666666666666
  7
00
100
AcDbText
  0
LINE
  5
1DAE5
330
1D62A
100
AcDbEntity
  8
SUNPOU
100
AcDbLine
 10
12728.42906519162
 20
3401.009911457631
 30
0.0
 11
12717.17906519162
 21
3401.009911457631
 31
0.0
  0
LINE
  5
1DAE6
330
1D62A
100
AcDbEntity
  8
SUNPOU
100
AcDbLine
 10
12270.92906519164
 20
3401.009911457631
 30
0.0
 11
12282.17906519164
 21
3401.009911457631
 31
0.0
  0
TEXT
  5
1DAE7
330
1D62A
100
AcDbEntity
  8
SUNPOU
100
AcDbText
 10
11998.96477947732
 20
3446.009911457631
 30
0.0
 40
90.0
  1
20
 41
0.6666666666666666
  7
00
100
AcDbText
  0
LINE
  5
1DAE8
330
1D62A
100
AcDbEntity
  8
SUNPOU
100
AcDbLine
 10
12168.42906519162
 20
3401.009911457631
 30
0.0
 11
12157.17906519162
 21
3401.009911457631
 31
0.0
  0
LINE
  5
1DAE9
330
1D62A
100
AcDbEntity
  8
SUNPOU
100
AcDbLine
 10
12270.92906519164
 20
3401.009911457631
 30
0.0
 11
12282.17906519164
 21
3401.009911457631
 31
0.0
  0
TEXT
  5
1DAEA
330
1D62A
100
AcDbEntity
  8
SUNPOU
100
AcDbText
 10
12409.67906519162
 20
3236.00991145763
 30
0.0
 40
90.0
  1
160
 41
0.6666666666666666
  7
00
100
AcDbText
  0
LINE
  5
1DAEB
330
1D62A
100
AcDbEntity
  8
SUNPOU
100
AcDbLine
 10
12808.42906519162
 20
3191.00991145763
 30
0.0
 11
12797.17906519162
 21
3191.00991145763
 31
0.0
  0
LINE
  5
1DAEC
330
1D62A
100
AcDbEntity
  8
SUNPOU
100
AcDbLine
 10
12190.92906519162
 20
3191.00991145763
 30
0.0
 11
12202.17906519162
 21
3191.00991145763
 31
0.0
  0
TEXT
  5
1DAED
330
1D62A
100
AcDbEntity
  8
SUNPOU
100
AcDbText
 10
8764.217031986062
 20
7410.001074758966
 30
0.0
 40
90.0
  1
800
 50
90.0
 41
0.6666666666666666
  7
00
100
AcDbText
  0
LINE
  5
1DAEE
330
1D62A
100
AcDbEntity
  8
SUNPOU
100
AcDbLine
 10
8809.217031986062
 20
7884.465360473249
 30
0.0
 11
8809.217031986062
 21
7873.215360473249
 31
0.0
  0
LINE
  5
1DAEF
330
1D62A
100
AcDbEntity
  8
SUNPOU
100
AcDbLine
 10
8809.217031986062
 20
7106.965360473251
 30
0.0
 11
8809.217031986062
 21
7118.215360473249
 31
0.0
  0
TEXT
  5
1DAF0
330
1D62A
100
AcDbEntity
  8
SUNPOU
100
AcDbText
 10
9323.502746271772
 20
8110.715360473248
 30
0.0
 40
90.0
  1
800
 41
0.6666666666666666
  7
00
100
AcDbText
  0
LINE
  5
1DAF1
330
1D62A
100
AcDbEntity
  8
SUNPOU
100
AcDbLine
 10
9797.967031986061
 20
8065.715360473248
 30
0.0
 11
9786.717031986061
 21
8065.715360473248
 31
0.0
  0
LINE
  5
1DAF2
330
1D62A
100
AcDbEntity
  8
SUNPOU
100
AcDbLine
 10
9020.46703198606
 20
8065.715360473248
 30
0.0
 11
9031.71703198606
 21
8065.715360473248
 31
0.0
  0
TEXT
  5
1DAF3
330
1D62A
100
AcDbEntity
  8
SUNPOU
100
AcDbText
 10
8764.217031986062
 20
9208.572503330396
 30
0.0
 40
90.0
  1
600
 50
90.0
 41
0.6666666666666666
  7
00
100
AcDbText
  0
LINE
  5
1DAF4
330
1D62A
100
AcDbEntity
  8
SUNPOU
100
AcDbLine
 10
8809.217031986062
 20
9006.96536047325
 30
0.0
 11
8809.217031986062
 21
9018.21536047325
 31
0.0
  0
LINE
  5
1DAF5
330
1D62A
100
AcDbEntity
  8
SUNPOU
100
AcDbLine
 10
8809.217031986062
 20
9584.465360473251
 30
0.0
 11
8809.217031986062
 21
9573.21536047325
 31
0.0
  0
TEXT
  5
1DAF6
330
1D62A
100
AcDbEntity
  8
SUNPOU
100
AcDbText
 10
9322.074174843205
 20
8740.715360473251
 30
0.0
 40
90.0
  1
600
 41
0.6666666666666666
  7
00
100
AcDbText
  0
LINE
  5
1DAF7
330
1D62A
100
AcDbEntity
  8
SUNPOU
100
AcDbLine
 10
9697.967031986067
 20
8695.715360473251
 30
0.0
 11
9686.717031986065
 21
8695.715360473251
 31
0.0
  0
LINE
  5
1DAF8
330
1D62A
100
AcDbEntity
  8
SUNPOU
100
AcDbLine
 10
9120.467031986065
 20
8695.715360473251
 30
0.0
 11
9131.717031986065
 21
8695.715360473251
 31
0.0
  0
TEXT
  5
1DAF9
330
1D62A
100
AcDbEntity
  8
SUNPOU
100
AcDbText
 10
10164.21703198606
 20
9360.001074758962
 30
0.0
 40
90.0
  1
300
 50
90.0
 41
0.6666666666666666
  7
00
100
AcDbText
  0
LINE
  5
1DAFA
330
1D62A
100
AcDbEntity
  8
SUNPOU
100
AcDbLine
 10
10209.21703198605
 20
9584.465360473249
 30
0.0
 11
10209.21703198605
 21
9573.215360473248
 31
0.0
  0
LINE
  5
1DAFB
330
1D62A
100
AcDbEntity
  8
SUNPOU
100
AcDbLine
 10
10209.21703198605
 20
9306.965360473247
 30
0.0
 11
10209.21703198605
 21
9318.215360473249
 31
0.0
  0
TEXT
  5
1DAFC
330
1D62A
100
AcDbEntity
  8
SUNPOU
100
AcDbText
 10
10164.21703198606
 20
8277.143931901823
 30
0.0
 40
90.0
  1
1800
 50
90.0
 41
0.6666666666666666
  7
00
100
AcDbText
  0
LINE
  5
1DAFD
330
1D62A
100
AcDbEntity
  8
SUNPOU
100
AcDbLine
 10
10209.21703198605
 20
9284.465360473248
 30
0.0
 11
10209.21703198605
 21
9273.215360473249
 31
0.0
  0
LINE
  5
1DAFE
330
1D62A
100
AcDbEntity
  8
SUNPOU
100
AcDbLine
 10
10209.21703198605
 20
7506.965360473251
 30
0.0
 11
10209.21703198605
 21
7518.215360473249
 31
0.0
  0
TEXT
  5
1DAFF
330
1D62A
100
AcDbEntity
  8
SUNPOU
100
AcDbText
 10
10164.21703198606
 20
6477.143931901823
 30
0.0
 40
90.0
  1
1800
 50
90.0
 41
0.6666666666666666
  7
00
100
AcDbText
  0
LINE
  5
1DB00
330
1D62A
100
AcDbEntity
  8
SUNPOU
100
AcDbLine
 10
10209.21703198605
 20
7484.46536047325
 30
0.0
 11
10209.21703198605
 21
7473.215360473249
 31
0.0
  0
LINE
  5
1DB01
330
1D62A
100
AcDbEntity
  8
SUNPOU
100
AcDbLine
 10
10209.21703198605
 20
5706.965360473249
 30
0.0
 11
10209.21703198605
 21
5718.215360473251
 31
0.0
  0
TEXT
  5
1DB02
330
1D62A
100
AcDbEntity
  8
SUNPOU
100
AcDbText
 10
10164.21703198606
 20
5460.001074758966
 30
0.0
 40
90.0
  1
300
 50
90.0
 41
0.6666666666666666
  7
00
100
AcDbText
  0
LINE
  5
1DB03
330
1D62A
100
AcDbEntity
  8
SUNPOU
100
AcDbLine
 10
10209.21703198605
 20
5684.465360473249
 30
0.0
 11
10209.21703198605
 21
5673.21536047325
 31
0.0
  0
LINE
  5
1DB04
330
1D62A
100
AcDbEntity
  8
SUNPOU
100
AcDbLine
 10
10209.21703198605
 20
5406.96536047325
 30
0.0
 11
10209.21703198605
 21
5418.215360473251
 31
0.0
  0
TEXT
  5
1DB05
330
1D62A
100
AcDbEntity
  8
SUNPOU
100
AcDbText
 10
10374.21703198605
 20
7381.429646187537
 30
0.0
 40
90.0
  1
4200
 50
90.0
 41
0.6666666666666666
  7
00
100
AcDbText
  0
LINE
  5
1DB06
330
1D62A
100
AcDbEntity
  8
SUNPOU
100
AcDbLine
 10
10419.21703198606
 20
9584.465360473249
 30
0.0
 11
10419.21703198606
 21
9573.215360473248
 31
0.0
  0
LINE
  5
1DB07
330
1D62A
100
AcDbEntity
  8
SUNPOU
100
AcDbLine
 10
10419.21703198606
 20
5406.965360473249
 30
0.0
 11
10419.21703198606
 21
5418.215360473249
 31
0.0
  0
TEXT
  5
1DB08
330
1D62A
100
AcDbEntity
  8
SUNPOU
100
AcDbText
 10
9523.502746271772
 20
10040.71536047325
 30
0.0
 40
90.0
  1
400
 41
0.6666666666666666
  7
00
100
AcDbText
  0
LINE
  5
1DB09
330
1D62A
100
AcDbEntity
  8
SUNPOU
100
AcDbLine
 10
9797.967031986061
 20
9995.715360473253
 30
0.0
 11
9786.717031986061
 21
9995.715360473253
 31
0.0
  0
LINE
  5
1DB0A
330
1D62A
100
AcDbEntity
  8
SUNPOU
100
AcDbLine
 10
9420.46703198606
 20
9995.715360473253
 30
0.0
 11
9431.717031986059
 21
9995.715360473253
 31
0.0
  0
TEXT
  5
1DB0B
330
1D62A
100
AcDbEntity
  8
SUNPOU
100
AcDbText
 10
8069.931317700344
 20
10250.71536047325
 30
0.0
 40
90.0
  1
3250
 41
0.6666666666666666
  7
00
100
AcDbText
  0
LINE
  5
1DB0C
330
1D62A
100
AcDbEntity
  8
SUNPOU
100
AcDbLine
 10
9797.967031986061
 20
10205.71536047325
 30
0.0
 11
9786.717031986061
 21
10205.71536047325
 31
0.0
  0
LINE
  5
1DB0D
330
1D62A
100
AcDbEntity
  8
SUNPOU
100
AcDbLine
 10
6570.467031986058
 20
10205.71536047325
 30
0.0
 11
6581.717031986058
 21
10205.71536047325
 31
0.0
  0
TEXT
  5
1DB0E
330
1D62A
100
AcDbEntity
  8
SUNPOU
100
AcDbText
 10
8069.931317700344
 20
10040.71536047325
 30
0.0
 40
90.0
  1
2450
 41
0.6666666666666666
  7
00
100
AcDbText
  0
LINE
  5
1DB0F
330
1D62A
100
AcDbEntity
  8
SUNPOU
100
AcDbLine
 10
6970.46703198606
 20
9995.715360473253
 30
0.0
 11
6981.717031986057
 21
9995.715360473253
 31
0.0
  0
LINE
  5
1DB10
330
1D62A
100
AcDbEntity
  8
SUNPOU
100
AcDbLine
 10
9397.967031986061
 20
9995.715360473253
 30
0.0
 11
9386.71703198606
 21
9995.715360473253
 31
0.0
  0
TEXT
  5
1DB11
330
1D62A
100
AcDbEntity
  8
SUNPOU
100
AcDbText
 10
6673.502746271774
 20
10040.71536047325
 30
0.0
 40
90.0
  1
400
 41
0.6666666666666666
  7
00
100
AcDbText
  0
LINE
  5
1DB12
330
1D62A
100
AcDbEntity
  8
SUNPOU
100
AcDbLine
 10
6570.467031986058
 20
9995.715360473253
 30
0.0
 11
6581.717031986058
 21
9995.715360473253
 31
0.0
  0
LINE
  5
1DB13
330
1D62A
100
AcDbEntity
  8
SUNPOU
100
AcDbLine
 10
6947.96703198606
 20
9995.715360473253
 30
0.0
 11
6936.71703198606
 21
9995.715360473253
 31
0.0
  0
ARC
  5
1DB14
330
1D62A
100
AcDbEntity
  8
SUNPOU
100
AcDbCircle
 10
10178.46394292064
 20
2155.523888222177
 30
0.0
 40
5.625
100
AcDbArc
 50
180.0
 51
0.0
  0
ARC
  5
1DB15
330
1D62A
100
AcDbEntity
  8
SUNPOU
100
AcDbCircle
 10
10178.46394292064
 20
2155.523888222177
 30
0.0
 40
5.625
100
AcDbArc
 50
0.0
 51
180.0
  0
ARC
  5
1DB16
330
1D62A
100
AcDbEntity
  8
SUNPOU
100
AcDbCircle
 10
8898.46394292064
 20
2155.523888222177
 30
0.0
 40
5.625
100
AcDbArc
 50
0.0
 51
180.0
  0
ARC
  5
1DB17
330
1D62A
100
AcDbEntity
  8
SUNPOU
100
AcDbCircle
 10
8898.46394292064
 20
2155.523888222177
 30
0.0
 40
5.625
100
AcDbArc
 50
180.0
 51
0.0
  0
ARC
  5
1DB18
330
1D62A
100
AcDbEntity
  8
SUNPOU
100
AcDbCircle
 10
10338.46394292064
 20
1945.523888222177
 30
0.0
 40
5.625
100
AcDbArc
 50
180.0
 51
0.0
  0
ARC
  5
1DB19
330
1D62A
100
AcDbEntity
  8
SUNPOU
100
AcDbCircle
 10
10338.46394292064
 20
1945.523888222177
 30
0.0
 40
5.625
100
AcDbArc
 50
0.0
 51
180.0
  0
ARC
  5
1DB1A
330
1D62A
100
AcDbEntity
  8
SUNPOU
100
AcDbCircle
 10
8738.46394292064
 20
1945.523888222177
 30
0.0
 40
5.625
100
AcDbArc
 50
0.0
 51
180.0
  0
ARC
  5
1DB1B
330
1D62A
100
AcDbEntity
  8
SUNPOU
100
AcDbCircle
 10
8738.46394292064
 20
1945.523888222177
 30
0.0
 40
5.625
100
AcDbArc
 50
180.0
 51
0.0
  0
ARC
  5
1DB1C
330
1D62A
100
AcDbEntity
  8
SUNPOU
100
AcDbCircle
 10
8619.110546919882
 20
3197.923888222173
 30
0.0
 40
5.625
100
AcDbArc
 50
90.0
 51
270.0
  0
ARC
  5
1DB1D
330
1D62A
100
AcDbEntity
  8
SUNPOU
100
AcDbCircle
 10
8619.110546919882
 20
3197.923888222173
 30
0.0
 40
5.625
100
AcDbArc
 50
270.0
 51
90.0
  0
ARC
  5
1DB1E
330
1D62A
100
AcDbEntity
  8
SUNPOU
100
AcDbCircle
 10
8619.110546919882
 20
3325.923888222177
 30
0.0
 40
5.625
100
AcDbArc
 50
270.0
 51
90.0
  0
ARC
  5
1DB1F
330
1D62A
100
AcDbEntity
  8
SUNPOU
100
AcDbCircle
 10
8619.110546919882
 20
3325.923888222177
 30
0.0
 40
5.625
100
AcDbArc
 50
90.0
 51
270.0
  0
ARC
  5
1DB20
330
1D62A
100
AcDbEntity
  8
SUNPOU
100
AcDbCircle
 10
8619.110546919882
 20
3460.323888222177
 30
0.0
 40
5.625
100
AcDbArc
 50
270.0
 51
90.0
  0
ARC
  5
1DB21
330
1D62A
100
AcDbEntity
  8
SUNPOU
100
AcDbCircle
 10
8619.110546919882
 20
3460.323888222177
 30
0.0
 40
5.625
100
AcDbArc
 50
90.0
 51
270.0
  0
ARC
  5
1DB22
330
1D62A
100
AcDbEntity
  8
SUNPOU
100
AcDbCircle
 10
8619.110546919882
 20
3325.923888222175
 30
0.0
 40
5.625
100
AcDbArc
 50
90.0
 51
270.0
  0
ARC
  5
1DB23
330
1D62A
100
AcDbEntity
  8
SUNPOU
100
AcDbCircle
 10
8619.110546919882
 20
3325.923888222175
 30
0.0
 40
5.625
100
AcDbArc
 50
270.0
 51
90.0
  0
ARC
  5
1DB24
330
1D62A
100
AcDbEntity
  8
SUNPOU
100
AcDbCircle
 10
8619.110546919882
 20
3197.923888222173
 30
0.0
 40
5.625
100
AcDbArc
 50
270.0
 51
90.0
  0
ARC
  5
1DB25
330
1D62A
100
AcDbEntity
  8
SUNPOU
100
AcDbCircle
 10
8619.110546919882
 20
3197.923888222173
 30
0.0
 40
5.625
100
AcDbArc
 50
90.0
 51
270.0
  0
ARC
  5
1DB26
330
1D62A
100
AcDbEntity
  8
SUNPOU
100
AcDbCircle
 10
8619.110546919882
 20
2717.92388822218
 30
0.0
 40
5.625
100
AcDbArc
 50
90.0
 51
270.0
  0
ARC
  5
1DB27
330
1D62A
100
AcDbEntity
  8
SUNPOU
100
AcDbCircle
 10
8619.110546919882
 20
2717.92388822218
 30
0.0
 40
5.625
100
AcDbArc
 50
270.0
 51
90.0
  0
ARC
  5
1DB28
330
1D62A
100
AcDbEntity
  8
SUNPOU
100
AcDbCircle
 10
8619.110546919882
 20
2557.923888222175
 30
0.0
 40
5.625
100
AcDbArc
 50
90.0
 51
270.0
  0
ARC
  5
1DB29
330
1D62A
100
AcDbEntity
  8
SUNPOU
100
AcDbCircle
 10
8619.110546919882
 20
2557.923888222175
 30
0.0
 40
5.625
100
AcDbArc
 50
270.0
 51
90.0
  0
ARC
  5
1DB2A
330
1D62A
100
AcDbEntity
  8
SUNPOU
100
AcDbCircle
 10
8619.110546919882
 20
2717.92388822218
 30
0.0
 40
5.625
100
AcDbArc
 50
270.0
 51
90.0
  0
ARC
  5
1DB2B
330
1D62A
100
AcDbEntity
  8
SUNPOU
100
AcDbCircle
 10
8619.110546919882
 20
2717.92388822218
 30
0.0
 40
5.625
100
AcDbArc
 50
90.0
 51
270.0
  0
ARC
  5
1DB2C
330
1D62A
100
AcDbEntity
  8
SUNPOU
100
AcDbCircle
 10
8409.110546919881
 20
2557.923888222175
 30
0.0
 40
5.625
100
AcDbArc
 50
90.0
 51
270.0
  0
ARC
  5
1DB2D
330
1D62A
100
AcDbEntity
  8
SUNPOU
100
AcDbCircle
 10
8409.110546919881
 20
2557.923888222175
 30
0.0
 40
5.625
100
AcDbArc
 50
270.0
 51
90.0
  0
ARC
  5
1DB2E
330
1D62A
100
AcDbEntity
  8
SUNPOU
100
AcDbCircle
 10
8409.110546919881
 20
3460.323888222177
 30
0.0
 40
5.625
100
AcDbArc
 50
270.0
 51
90.0
  0
ARC
  5
1DB2F
330
1D62A
100
AcDbEntity
  8
SUNPOU
100
AcDbCircle
 10
8409.110546919881
 20
3460.323888222177
 30
0.0
 40
5.625
100
AcDbArc
 50
90.0
 51
270.0
  0
ARC
  5
1DB30
330
1D62A
100
AcDbEntity
  8
SUNPOU
100
AcDbCircle
 10
13231.74749427908
 20
3893.176085387133
 30
0.0
 40
5.625
100
AcDbArc
 50
270.0
 51
90.0
  0
ARC
  5
1DB31
330
1D62A
100
AcDbEntity
  8
SUNPOU
100
AcDbCircle
 10
13231.74749427908
 20
3893.176085387133
 30
0.0
 40
5.625
100
AcDbArc
 50
90.0
 51
270.0
  0
ARC
  5
1DB32
330
1D62A
100
AcDbEntity
  8
SUNPOU
100
AcDbCircle
 10
13231.74749427908
 20
3733.176085387134
 30
0.0
 40
5.625
100
AcDbArc
 50
90.0
 51
270.0
  0
ARC
  5
1DB33
330
1D62A
100
AcDbEntity
  8
SUNPOU
100
AcDbCircle
 10
13231.74749427908
 20
3733.176085387134
 30
0.0
 40
5.625
100
AcDbArc
 50
270.0
 51
90.0
  0
ARC
  5
1DB34
330
1D62A
100
AcDbEntity
  8
SUNPOU
100
AcDbCircle
 10
13231.74749427908
 20
3625.176085387133
 30
0.0
 40
5.625
100
AcDbArc
 50
270.0
 51
90.0
  0
ARC
  5
1DB35
330
1D62A
100
AcDbEntity
  8
SUNPOU
100
AcDbCircle
 10
13231.74749427908
 20
3625.176085387133
 30
0.0
 40
5.625
100
AcDbArc
 50
90.0
 51
270.0
  0
ARC
  5
1DB36
330
1D62A
100
AcDbEntity
  8
SUNPOU
100
AcDbCircle
 10
13231.74749427908
 20
3733.176085387134
 30
0.0
 40
5.625
100
AcDbArc
 50
90.0
 51
270.0
  0
ARC
  5
1DB37
330
1D62A
100
AcDbEntity
  8
SUNPOU
100
AcDbCircle
 10
13231.74749427908
 20
3733.176085387134
 30
0.0
 40
5.625
100
AcDbArc
 50
270.0
 51
90.0
  0
ARC
  5
1DB38
330
1D62A
100
AcDbEntity
  8
SUNPOU
100
AcDbCircle
 10
6238.137742396993
 20
2155.523888222173
 30
0.0
 40
5.625
100
AcDbArc
 50
180.0
 51
0.0
  0
ARC
  5
1DB39
330
1D62A
100
AcDbEntity
  8
SUNPOU
100
AcDbCircle
 10
6238.137742396993
 20
2155.523888222173
 30
0.0
 40
5.625
100
AcDbArc
 50
0.0
 51
180.0
  0
ARC
  5
1DB3A
330
1D62A
100
AcDbEntity
  8
SUNPOU
100
AcDbCircle
 10
5278.137742396994
 20
2155.523888222173
 30
0.0
 40
5.625
100
AcDbArc
 50
0.0
 51
180.0
  0
ARC
  5
1DB3B
330
1D62A
100
AcDbEntity
  8
SUNPOU
100
AcDbCircle
 10
5278.137742396994
 20
2155.523888222173
 30
0.0
 40
5.625
100
AcDbArc
 50
180.0
 51
0.0
  0
ARC
  5
1DB3C
330
1D62A
100
AcDbEntity
  8
SUNPOU
100
AcDbCircle
 10
6398.137742396992
 20
1945.523888222172
 30
0.0
 40
5.625
100
AcDbArc
 50
180.0
 51
0.0
  0
ARC
  5
1DB3D
330
1D62A
100
AcDbEntity
  8
SUNPOU
100
AcDbCircle
 10
6398.137742396992
 20
1945.523888222172
 30
0.0
 40
5.625
100
AcDbArc
 50
0.0
 51
180.0
  0
ARC
  5
1DB3E
330
1D62A
100
AcDbEntity
  8
SUNPOU
100
AcDbCircle
 10
5118.137742396992
 20
1945.523888222172
 30
0.0
 40
5.625
100
AcDbArc
 50
0.0
 51
180.0
  0
ARC
  5
1DB3F
330
1D62A
100
AcDbEntity
  8
SUNPOU
100
AcDbCircle
 10
5118.137742396992
 20
1945.523888222172
 30
0.0
 40
5.625
100
AcDbArc
 50
180.0
 51
0.0
  0
ARC
  5
1DB40
330
1D62A
100
AcDbEntity
  8
SUNPOU
100
AcDbCircle
 10
4418.784346396234
 20
3460.323888222177
 30
0.0
 40
5.625
100
AcDbArc
 50
90.0
 51
270.0
  0
ARC
  5
1DB41
330
1D62A
100
AcDbEntity
  8
SUNPOU
100
AcDbCircle
 10
4418.784346396234
 20
3460.323888222177
 30
0.0
 40
5.625
100
AcDbArc
 50
270.0
 51
90.0
  0
ARC
  5
1DB42
330
1D62A
100
AcDbEntity
  8
SUNPOU
100
AcDbCircle
 10
4418.784346396234
 20
3380.323888222175
 30
0.0
 40
5.625
100
AcDbArc
 50
270.0
 51
90.0
  0
ARC
  5
1DB43
330
1D62A
100
AcDbEntity
  8
SUNPOU
100
AcDbCircle
 10
4418.784346396234
 20
3380.323888222175
 30
0.0
 40
5.625
100
AcDbArc
 50
90.0
 51
270.0
  0
ARC
  5
1DB44
330
1D62A
100
AcDbEntity
  8
SUNPOU
100
AcDbCircle
 10
4838.784346396238
 20
3197.923888222169
 30
0.0
 40
5.625
100
AcDbArc
 50
90.0
 51
270.0
  0
ARC
  5
1DB45
330
1D62A
100
AcDbEntity
  8
SUNPOU
100
AcDbCircle
 10
4838.784346396238
 20
3197.923888222169
 30
0.0
 40
5.625
100
AcDbArc
 50
270.0
 51
90.0
  0
ARC
  5
1DB46
330
1D62A
100
AcDbEntity
  8
SUNPOU
100
AcDbCircle
 10
4838.784346396238
 20
3325.923888222173
 30
0.0
 40
5.625
100
AcDbArc
 50
270.0
 51
90.0
  0
ARC
  5
1DB47
330
1D62A
100
AcDbEntity
  8
SUNPOU
100
AcDbCircle
 10
4838.784346396238
 20
3325.923888222173
 30
0.0
 40
5.625
100
AcDbArc
 50
90.0
 51
270.0
  0
ARC
  5
1DB48
330
1D62A
100
AcDbEntity
  8
SUNPOU
100
AcDbCircle
 10
4838.784346396234
 20
3460.323888222177
 30
0.0
 40
5.625
100
AcDbArc
 50
270.0
 51
90.0
  0
ARC
  5
1DB49
330
1D62A
100
AcDbEntity
  8
SUNPOU
100
AcDbCircle
 10
4838.784346396234
 20
3460.323888222177
 30
0.0
 40
5.625
100
AcDbArc
 50
90.0
 51
270.0
  0
ARC
  5
1DB4A
330
1D62A
100
AcDbEntity
  8
SUNPOU
100
AcDbCircle
 10
4838.784346396234
 20
3325.923888222175
 30
0.0
 40
5.625
100
AcDbArc
 50
90.0
 51
270.0
  0
ARC
  5
1DB4B
330
1D62A
100
AcDbEntity
  8
SUNPOU
100
AcDbCircle
 10
4838.784346396234
 20
3325.923888222175
 30
0.0
 40
5.625
100
AcDbArc
 50
270.0
 51
90.0
  0
ARC
  5
1DB4C
330
1D62A
100
AcDbEntity
  8
SUNPOU
100
AcDbCircle
 10
4838.784346396234
 20
3197.923888222171
 30
0.0
 40
5.625
100
AcDbArc
 50
270.0
 51
90.0
  0
ARC
  5
1DB4D
330
1D62A
100
AcDbEntity
  8
SUNPOU
100
AcDbCircle
 10
4838.784346396234
 20
3197.923888222171
 30
0.0
 40
5.625
100
AcDbArc
 50
90.0
 51
270.0
  0
ARC
  5
1DB4E
330
1D62A
100
AcDbEntity
  8
SUNPOU
100
AcDbCircle
 10
4838.784346396234
 20
2717.923888222177
 30
0.0
 40
5.625
100
AcDbArc
 50
90.0
 51
270.0
  0
ARC
  5
1DB4F
330
1D62A
100
AcDbEntity
  8
SUNPOU
100
AcDbCircle
 10
4838.784346396234
 20
2717.923888222177
 30
0.0
 40
5.625
100
AcDbArc
 50
270.0
 51
90.0
  0
ARC
  5
1DB50
330
1D62A
100
AcDbEntity
  8
SUNPOU
100
AcDbCircle
 10
4838.784346396234
 20
2557.923888222177
 30
0.0
 40
5.625
100
AcDbArc
 50
90.0
 51
270.0
  0
ARC
  5
1DB51
330
1D62A
100
AcDbEntity
  8
SUNPOU
100
AcDbCircle
 10
4838.784346396234
 20
2557.923888222177
 30
0.0
 40
5.625
100
AcDbArc
 50
270.0
 51
90.0
  0
ARC
  5
1DB52
330
1D62A
100
AcDbEntity
  8
SUNPOU
100
AcDbCircle
 10
4838.784346396234
 20
2717.923888222177
 30
0.0
 40
5.625
100
AcDbArc
 50
270.0
 51
90.0
  0
ARC
  5
1DB53
330
1D62A
100
AcDbEntity
  8
SUNPOU
100
AcDbCircle
 10
4838.784346396234
 20
2717.923888222177
 30
0.0
 40
5.625
100
AcDbArc
 50
90.0
 51
270.0
  0
ARC
  5
1DB54
330
1D62A
100
AcDbEntity
  8
SUNPOU
100
AcDbCircle
 10
4628.784346396234
 20
2557.923888222177
 30
0.0
 40
5.625
100
AcDbArc
 50
90.0
 51
270.0
  0
ARC
  5
1DB55
330
1D62A
100
AcDbEntity
  8
SUNPOU
100
AcDbCircle
 10
4628.784346396234
 20
2557.923888222177
 30
0.0
 40
5.625
100
AcDbArc
 50
270.0
 51
90.0
  0
ARC
  5
1DB56
330
1D62A
100
AcDbEntity
  8
SUNPOU
100
AcDbCircle
 10
4628.784346396234
 20
3460.323888222177
 30
0.0
 40
5.625
100
AcDbArc
 50
270.0
 51
90.0
  0
ARC
  5
1DB57
330
1D62A
100
AcDbEntity
  8
SUNPOU
100
AcDbCircle
 10
4628.784346396234
 20
3460.323888222177
 30
0.0
 40
5.625
100
AcDbArc
 50
90.0
 51
270.0
  0
ARC
  5
1DB58
330
1D62A
100
AcDbEntity
  8
SUNPOU
100
AcDbCircle
 10
5118.137742396996
 20
4137.324460358764
 30
0.0
 40
5.625
100
AcDbArc
 50
0.0
 51
180.0
  0
ARC
  5
1DB59
330
1D62A
100
AcDbEntity
  8
SUNPOU
100
AcDbCircle
 10
5118.137742396996
 20
4137.324460358764
 30
0.0
 40
5.625
100
AcDbArc
 50
180.0
 51
0.0
  0
ARC
  5
1DB5A
330
1D62A
100
AcDbEntity
  8
SUNPOU
100
AcDbCircle
 10
5758.137742396995
 20
4137.324460358764
 30
0.0
 40
5.625
100
AcDbArc
 50
180.0
 51
0.0
  0
ARC
  5
1DB5B
330
1D62A
100
AcDbEntity
  8
SUNPOU
100
AcDbCircle
 10
5758.137742396995
 20
4137.324460358764
 30
0.0
 40
5.625
100
AcDbArc
 50
0.0
 51
180.0
  0
ARC
  5
1DB5C
330
1D62A
100
AcDbEntity
  8
SUNPOU
100
AcDbCircle
 10
12819.67906519162
 20
2252.644025518658
 30
0.0
 40
5.625
100
AcDbArc
 50
0.0
 51
180.0
  0
ARC
  5
1DB5D
330
1D62A
100
AcDbEntity
  8
SUNPOU
100
AcDbCircle
 10
12819.67906519162
 20
2252.644025518658
 30
0.0
 40
5.625
100
AcDbArc
 50
180.0
 51
0.0
  0
ARC
  5
1DB5E
330
1D62A
100
AcDbEntity
  8
SUNPOU
100
AcDbCircle
 10
12739.67906519162
 20
2252.644025518658
 30
0.0
 40
5.625
100
AcDbArc
 50
180.0
 51
0.0
  0
ARC
  5
1DB5F
330
1D62A
100
AcDbEntity
  8
SUNPOU
100
AcDbCircle
 10
12739.67906519162
 20
2252.644025518658
 30
0.0
 40
5.625
100
AcDbArc
 50
0.0
 51
180.0
  0
ARC
  5
1DB60
330
1D62A
100
AcDbEntity
  8
SUNPOU
100
AcDbCircle
 10
12739.67906519162
 20
2252.644025518658
 30
0.0
 40
5.625
100
AcDbArc
 50
180.0
 51
0.0
  0
ARC
  5
1DB61
330
1D62A
100
AcDbEntity
  8
SUNPOU
100
AcDbCircle
 10
12739.67906519162
 20
2252.644025518658
 30
0.0
 40
5.625
100
AcDbArc
 50
0.0
 51
180.0
  0
ARC
  5
1DB62
330
1D62A
100
AcDbEntity
  8
SUNPOU
100
AcDbCircle
 10
12259.67906519163
 20
2252.644025518658
 30
0.0
 40
5.625
100
AcDbArc
 50
0.0
 51
180.0
  0
ARC
  5
1DB63
330
1D62A
100
AcDbEntity
  8
SUNPOU
100
AcDbCircle
 10
12259.67906519163
 20
2252.644025518658
 30
0.0
 40
5.625
100
AcDbArc
 50
180.0
 51
0.0
  0
ARC
  5
1DB64
330
1D62A
100
AcDbEntity
  8
SUNPOU
100
AcDbCircle
 10
12179.67906519162
 20
2252.644025518658
 30
0.0
 40
5.625
100
AcDbArc
 50
180.0
 51
0.0
  0
ARC
  5
1DB65
330
1D62A
100
AcDbEntity
  8
SUNPOU
100
AcDbCircle
 10
12179.67906519162
 20
2252.644025518658
 30
0.0
 40
5.625
100
AcDbArc
 50
0.0
 51
180.0
  0
ARC
  5
1DB66
330
1D62A
100
AcDbEntity
  8
SUNPOU
100
AcDbCircle
 10
12259.67906519163
 20
2252.644025518658
 30
0.0
 40
5.625
100
AcDbArc
 50
0.0
 51
180.0
  0
ARC
  5
1DB67
330
1D62A
100
AcDbEntity
  8
SUNPOU
100
AcDbCircle
 10
12259.67906519163
 20
2252.644025518658
 30
0.0
 40
5.625
100
AcDbArc
 50
180.0
 51
0.0
  0
ARC
  5
1DB68
330
1D62A
100
AcDbEntity
  8
SUNPOU
100
AcDbCircle
 10
12819.67906519162
 20
2042.644025518657
 30
0.0
 40
5.625
100
AcDbArc
 50
180.0
 51
0.0
  0
ARC
  5
1DB69
330
1D62A
100
AcDbEntity
  8
SUNPOU
100
AcDbCircle
 10
12819.67906519162
 20
2042.644025518657
 30
0.0
 40
5.625
100
AcDbArc
 50
0.0
 51
180.0
  0
ARC
  5
1DB6A
330
1D62A
100
AcDbEntity
  8
SUNPOU
100
AcDbCircle
 10
12179.67906519162
 20
2042.644025518657
 30
0.0
 40
5.625
100
AcDbArc
 50
0.0
 51
180.0
  0
ARC
  5
1DB6B
330
1D62A
100
AcDbEntity
  8
SUNPOU
100
AcDbCircle
 10
12179.67906519162
 20
2042.644025518657
 30
0.0
 40
5.625
100
AcDbArc
 50
180.0
 51
0.0
  0
ARC
  5
1DB6C
330
1D62A
100
AcDbEntity
  8
SUNPOU
100
AcDbCircle
 10
11876.67906519162
 20
2546.983392855721
 30
0.0
 40
5.625
100
AcDbArc
 50
90.0
 51
270.0
  0
ARC
  5
1DB6D
330
1D62A
100
AcDbEntity
  8
SUNPOU
100
AcDbCircle
 10
11876.67906519162
 20
2546.983392855721
 30
0.0
 40
5.625
100
AcDbArc
 50
270.0
 51
90.0
  0
ARC
  5
1DB6E
330
1D62A
100
AcDbEntity
  8
SUNPOU
100
AcDbCircle
 10
11876.67906519162
 20
2706.983392855721
 30
0.0
 40
5.625
100
AcDbArc
 50
270.0
 51
90.0
  0
ARC
  5
1DB6F
330
1D62A
100
AcDbEntity
  8
SUNPOU
100
AcDbCircle
 10
11876.67906519162
 20
2706.983392855721
 30
0.0
 40
5.625
100
AcDbArc
 50
90.0
 51
270.0
  0
ARC
  5
1DB70
330
1D62A
100
AcDbEntity
  8
SUNPOU
100
AcDbCircle
 10
11876.67906519162
 20
2866.983392855721
 30
0.0
 40
5.625
100
AcDbArc
 50
270.0
 51
90.0
  0
ARC
  5
1DB71
330
1D62A
100
AcDbEntity
  8
SUNPOU
100
AcDbCircle
 10
11876.67906519162
 20
2866.983392855721
 30
0.0
 40
5.625
100
AcDbArc
 50
90.0
 51
270.0
  0
ARC
  5
1DB72
330
1D62A
100
AcDbEntity
  8
SUNPOU
100
AcDbCircle
 10
11876.67906519162
 20
2706.983392855721
 30
0.0
 40
5.625
100
AcDbArc
 50
90.0
 51
270.0
  0
ARC
  5
1DB73
330
1D62A
100
AcDbEntity
  8
SUNPOU
100
AcDbCircle
 10
11876.67906519162
 20
2706.983392855721
 30
0.0
 40
5.625
100
AcDbArc
 50
270.0
 51
90.0
  0
ARC
  5
1DB74
330
1D62A
100
AcDbEntity
  8
SUNPOU
100
AcDbCircle
 10
11666.67906519162
 20
2866.983392855721
 30
0.0
 40
5.625
100
AcDbArc
 50
270.0
 51
90.0
  0
ARC
  5
1DB75
330
1D62A
100
AcDbEntity
  8
SUNPOU
100
AcDbCircle
 10
11666.67906519162
 20
2866.983392855721
 30
0.0
 40
5.625
100
AcDbArc
 50
90.0
 51
270.0
  0
ARC
  5
1DB76
330
1D62A
100
AcDbEntity
  8
SUNPOU
100
AcDbCircle
 10
11666.67906519162
 20
2546.983392855721
 30
0.0
 40
5.625
100
AcDbArc
 50
90.0
 51
270.0
  0
ARC
  5
1DB77
330
1D62A
100
AcDbEntity
  8
SUNPOU
100
AcDbCircle
 10
11666.67906519162
 20
2546.983392855721
 30
0.0
 40
5.625
100
AcDbArc
 50
270.0
 51
90.0
  0
ARC
  5
1DB78
330
1D62A
100
AcDbEntity
  8
SUNPOU
100
AcDbCircle
 10
12819.67906519162
 20
3401.009911457631
 30
0.0
 40
5.625
100
AcDbArc
 50
0.0
 51
180.0
  0
ARC
  5
1DB79
330
1D62A
100
AcDbEntity
  8
SUNPOU
100
AcDbCircle
 10
12819.67906519162
 20
3401.009911457631
 30
0.0
 40
5.625
100
AcDbArc
 50
180.0
 51
0.0
  0
ARC
  5
1DB7A
330
1D62A
100
AcDbEntity
  8
SUNPOU
100
AcDbCircle
 10
12739.67906519162
 20
3401.009911457631
 30
0.0
 40
5.625
100
AcDbArc
 50
180.0
 51
0.0
  0
ARC
  5
1DB7B
330
1D62A
100
AcDbEntity
  8
SUNPOU
100
AcDbCircle
 10
12739.67906519162
 20
3401.009911457631
 30
0.0
 40
5.625
100
AcDbArc
 50
0.0
 51
180.0
  0
ARC
  5
1DB7C
330
1D62A
100
AcDbEntity
  8
SUNPOU
100
AcDbCircle
 10
12739.67906519162
 20
3401.009911457631
 30
0.0
 40
5.625
100
AcDbArc
 50
180.0
 51
0.0
  0
ARC
  5
1DB7D
330
1D62A
100
AcDbEntity
  8
SUNPOU
100
AcDbCircle
 10
12739.67906519162
 20
3401.009911457631
 30
0.0
 40
5.625
100
AcDbArc
 50
0.0
 51
180.0
  0
ARC
  5
1DB7E
330
1D62A
100
AcDbEntity
  8
SUNPOU
100
AcDbCircle
 10
12259.67906519163
 20
3401.009911457631
 30
0.0
 40
5.625
100
AcDbArc
 50
0.0
 51
180.0
  0
ARC
  5
1DB7F
330
1D62A
100
AcDbEntity
  8
SUNPOU
100
AcDbCircle
 10
12259.67906519163
 20
3401.009911457631
 30
0.0
 40
5.625
100
AcDbArc
 50
180.0
 51
0.0
  0
ARC
  5
1DB80
330
1D62A
100
AcDbEntity
  8
SUNPOU
100
AcDbCircle
 10
12179.67906519162
 20
3401.009911457631
 30
0.0
 40
5.625
100
AcDbArc
 50
180.0
 51
0.0
  0
ARC
  5
1DB81
330
1D62A
100
AcDbEntity
  8
SUNPOU
100
AcDbCircle
 10
12179.67906519162
 20
3401.009911457631
 30
0.0
 40
5.625
100
AcDbArc
 50
0.0
 51
180.0
  0
ARC
  5
1DB82
330
1D62A
100
AcDbEntity
  8
SUNPOU
100
AcDbCircle
 10
12259.67906519163
 20
3401.009911457631
 30
0.0
 40
5.625
100
AcDbArc
 50
0.0
 51
180.0
  0
ARC
  5
1DB83
330
1D62A
100
AcDbEntity
  8
SUNPOU
100
AcDbCircle
 10
12259.67906519163
 20
3401.009911457631
 30
0.0
 40
5.625
100
AcDbArc
 50
180.0
 51
0.0
  0
ARC
  5
1DB84
330
1D62A
100
AcDbEntity
  8
SUNPOU
100
AcDbCircle
 10
12819.67906519162
 20
3191.00991145763
 30
0.0
 40
5.625
100
AcDbArc
 50
180.0
 51
0.0
  0
ARC
  5
1DB85
330
1D62A
100
AcDbEntity
  8
SUNPOU
100
AcDbCircle
 10
12819.67906519162
 20
3191.00991145763
 30
0.0
 40
5.625
100
AcDbArc
 50
0.0
 51
180.0
  0
ARC
  5
1DB86
330
1D62A
100
AcDbEntity
  8
SUNPOU
100
AcDbCircle
 10
12179.67906519162
 20
3191.00991145763
 30
0.0
 40
5.625
100
AcDbArc
 50
0.0
 51
180.0
  0
ARC
  5
1DB87
330
1D62A
100
AcDbEntity
  8
SUNPOU
100
AcDbCircle
 10
12179.67906519162
 20
3191.00991145763
 30
0.0
 40
5.625
100
AcDbArc
 50
180.0
 51
0.0
  0
ARC
  5
1DB88
330
1D62A
100
AcDbEntity
  8
SUNPOU
100
AcDbCircle
 10
8809.217031986062
 20
7895.715360473251
 30
0.0
 40
5.625
100
AcDbArc
 50
270.0
 51
90.0
  0
ARC
  5
1DB89
330
1D62A
100
AcDbEntity
  8
SUNPOU
100
AcDbCircle
 10
8809.217031986062
 20
7895.715360473251
 30
0.0
 40
5.625
100
AcDbArc
 50
90.0
 51
270.0
  0
ARC
  5
1DB8A
330
1D62A
100
AcDbEntity
  8
SUNPOU
100
AcDbCircle
 10
8809.217031986062
 20
7095.715360473251
 30
0.0
 40
5.625
100
AcDbArc
 50
90.0
 51
270.0
  0
ARC
  5
1DB8B
330
1D62A
100
AcDbEntity
  8
SUNPOU
100
AcDbCircle
 10
8809.217031986062
 20
7095.715360473251
 30
0.0
 40
5.625
100
AcDbArc
 50
270.0
 51
90.0
  0
ARC
  5
1DB8C
330
1D62A
100
AcDbEntity
  8
SUNPOU
100
AcDbCircle
 10
9809.21703198606
 20
8065.715360473248
 30
0.0
 40
5.625
100
AcDbArc
 50
180.0
 51
0.0
  0
ARC
  5
1DB8D
330
1D62A
100
AcDbEntity
  8
SUNPOU
100
AcDbCircle
 10
9809.21703198606
 20
8065.715360473248
 30
0.0
 40
5.625
100
AcDbArc
 50
0.0
 51
180.0
  0
ARC
  5
1DB8E
330
1D62A
100
AcDbEntity
  8
SUNPOU
100
AcDbCircle
 10
9009.217031986059
 20
8065.715360473248
 30
0.0
 40
5.625
100
AcDbArc
 50
0.0
 51
180.0
  0
ARC
  5
1DB8F
330
1D62A
100
AcDbEntity
  8
SUNPOU
100
AcDbCircle
 10
9009.217031986059
 20
8065.715360473248
 30
0.0
 40
5.625
100
AcDbArc
 50
180.0
 51
0.0
  0
ARC
  5
1DB90
330
1D62A
100
AcDbEntity
  8
SUNPOU
100
AcDbCircle
 10
8809.217031986062
 20
8995.715360473251
 30
0.0
 40
5.625
100
AcDbArc
 50
90.0
 51
270.0
  0
ARC
  5
1DB91
330
1D62A
100
AcDbEntity
  8
SUNPOU
100
AcDbCircle
 10
8809.217031986062
 20
8995.715360473251
 30
0.0
 40
5.625
100
AcDbArc
 50
270.0
 51
90.0
  0
ARC
  5
1DB92
330
1D62A
100
AcDbEntity
  8
SUNPOU
100
AcDbCircle
 10
8809.217031986062
 20
9595.715360473251
 30
0.0
 40
5.625
100
AcDbArc
 50
270.0
 51
90.0
  0
ARC
  5
1DB93
330
1D62A
100
AcDbEntity
  8
SUNPOU
100
AcDbCircle
 10
8809.217031986062
 20
9595.715360473251
 30
0.0
 40
5.625
100
AcDbArc
 50
90.0
 51
270.0
  0
ARC
  5
1DB94
330
1D62A
100
AcDbEntity
  8
SUNPOU
100
AcDbCircle
 10
9709.217031986066
 20
8695.715360473251
 30
0.0
 40
5.625
100
AcDbArc
 50
180.0
 51
0.0
  0
ARC
  5
1DB95
330
1D62A
100
AcDbEntity
  8
SUNPOU
100
AcDbCircle
 10
9709.217031986066
 20
8695.715360473251
 30
0.0
 40
5.625
100
AcDbArc
 50
0.0
 51
180.0
  0
ARC
  5
1DB96
330
1D62A
100
AcDbEntity
  8
SUNPOU
100
AcDbCircle
 10
9109.217031986066
 20
8695.715360473251
 30
0.0
 40
5.625
100
AcDbArc
 50
0.0
 51
180.0
  0
ARC
  5
1DB97
330
1D62A
100
AcDbEntity
  8
SUNPOU
100
AcDbCircle
 10
9109.217031986066
 20
8695.715360473251
 30
0.0
 40
5.625
100
AcDbArc
 50
180.0
 51
0.0
  0
ARC
  5
1DB98
330
1D62A
100
AcDbEntity
  8
SUNPOU
100
AcDbCircle
 10
10209.21703198605
 20
9595.715360473247
 30
0.0
 40
5.625
100
AcDbArc
 50
270.0
 51
90.0
  0
ARC
  5
1DB99
330
1D62A
100
AcDbEntity
  8
SUNPOU
100
AcDbCircle
 10
10209.21703198605
 20
9595.715360473247
 30
0.0
 40
5.625
100
AcDbArc
 50
90.0
 51
270.0
  0
ARC
  5
1DB9A
330
1D62A
100
AcDbEntity
  8
SUNPOU
100
AcDbCircle
 10
10209.21703198605
 20
9295.715360473248
 30
0.0
 40
5.625
100
AcDbArc
 50
90.0
 51
270.0
  0
ARC
  5
1DB9B
330
1D62A
100
AcDbEntity
  8
SUNPOU
100
AcDbCircle
 10
10209.21703198605
 20
9295.715360473248
 30
0.0
 40
5.625
100
AcDbArc
 50
270.0
 51
90.0
  0
ARC
  5
1DB9C
330
1D62A
100
AcDbEntity
  8
SUNPOU
100
AcDbCircle
 10
10209.21703198605
 20
9295.715360473248
 30
0.0
 40
5.625
100
AcDbArc
 50
270.0
 51
90.0
  0
ARC
  5
1DB9D
330
1D62A
100
AcDbEntity
  8
SUNPOU
100
AcDbCircle
 10
10209.21703198605
 20
9295.715360473248
 30
0.0
 40
5.625
100
AcDbArc
 50
90.0
 51
270.0
  0
ARC
  5
1DB9E
330
1D62A
100
AcDbEntity
  8
SUNPOU
100
AcDbCircle
 10
10209.21703198605
 20
7495.715360473251
 30
0.0
 40
5.625
100
AcDbArc
 50
90.0
 51
270.0
  0
ARC
  5
1DB9F
330
1D62A
100
AcDbEntity
  8
SUNPOU
100
AcDbCircle
 10
10209.21703198605
 20
7495.715360473251
 30
0.0
 40
5.625
100
AcDbArc
 50
270.0
 51
90.0
  0
ARC
  5
1DBA0
330
1D62A
100
AcDbEntity
  8
SUNPOU
100
AcDbCircle
 10
10209.21703198605
 20
7495.715360473251
 30
0.0
 40
5.625
100
AcDbArc
 50
270.0
 51
90.0
  0
ARC
  5
1DBA1
330
1D62A
100
AcDbEntity
  8
SUNPOU
100
AcDbCircle
 10
10209.21703198605
 20
7495.715360473251
 30
0.0
 40
5.625
100
AcDbArc
 50
90.0
 51
270.0
  0
ARC
  5
1DBA2
330
1D62A
100
AcDbEntity
  8
SUNPOU
100
AcDbCircle
 10
10209.21703198605
 20
5695.715360473251
 30
0.0
 40
5.625
100
AcDbArc
 50
90.0
 51
270.0
  0
ARC
  5
1DBA3
330
1D62A
100
AcDbEntity
  8
SUNPOU
100
AcDbCircle
 10
10209.21703198605
 20
5695.715360473251
 30
0.0
 40
5.625
100
AcDbArc
 50
270.0
 51
90.0
  0
ARC
  5
1DBA4
330
1D62A
100
AcDbEntity
  8
SUNPOU
100
AcDbCircle
 10
10209.21703198605
 20
5695.715360473251
 30
0.0
 40
5.625
100
AcDbArc
 50
270.0
 51
90.0
  0
ARC
  5
1DBA5
330
1D62A
100
AcDbEntity
  8
SUNPOU
100
AcDbCircle
 10
10209.21703198605
 20
5695.715360473251
 30
0.0
 40
5.625
100
AcDbArc
 50
90.0
 51
270.0
  0
ARC
  5
1DBA6
330
1D62A
100
AcDbEntity
  8
SUNPOU
100
AcDbCircle
 10
10209.21703198605
 20
5395.71536047325
 30
0.0
 40
5.625
100
AcDbArc
 50
90.0
 51
270.0
  0
ARC
  5
1DBA7
330
1D62A
100
AcDbEntity
  8
SUNPOU
100
AcDbCircle
 10
10209.21703198605
 20
5395.71536047325
 30
0.0
 40
5.625
100
AcDbArc
 50
270.0
 51
90.0
  0
ARC
  5
1DBA8
330
1D62A
100
AcDbEntity
  8
SUNPOU
100
AcDbCircle
 10
10419.21703198606
 20
9595.715360473247
 30
0.0
 40
5.625
100
AcDbArc
 50
270.0
 51
90.0
  0
ARC
  5
1DBA9
330
1D62A
100
AcDbEntity
  8
SUNPOU
100
AcDbCircle
 10
10419.21703198606
 20
9595.715360473247
 30
0.0
 40
5.625
100
AcDbArc
 50
90.0
 51
270.0
  0
ARC
  5
1DBAA
330
1D62A
100
AcDbEntity
  8
SUNPOU
100
AcDbCircle
 10
10419.21703198606
 20
5395.71536047325
 30
0.0
 40
5.625
100
AcDbArc
 50
90.0
 51
270.0
  0
ARC
  5
1DBAB
330
1D62A
100
AcDbEntity
  8
SUNPOU
100
AcDbCircle
 10
10419.21703198606
 20
5395.71536047325
 30
0.0
 40
5.625
100
AcDbArc
 50
270.0
 51
90.0
  0
ARC
  5
1DBAC
330
1D62A
100
AcDbEntity
  8
SUNPOU
100
AcDbCircle
 10
9809.21703198606
 20
9995.715360473253
 30
0.0
 40
5.625
100
AcDbArc
 50
180.0
 51
0.0
  0
ARC
  5
1DBAD
330
1D62A
100
AcDbEntity
  8
SUNPOU
100
AcDbCircle
 10
9809.21703198606
 20
9995.715360473253
 30
0.0
 40
5.625
100
AcDbArc
 50
0.0
 51
180.0
  0
ARC
  5
1DBAE
330
1D62A
100
AcDbEntity
  8
SUNPOU
100
AcDbCircle
 10
9409.217031986059
 20
9995.715360473253
 30
0.0
 40
5.625
100
AcDbArc
 50
0.0
 51
180.0
  0
ARC
  5
1DBAF
330
1D62A
100
AcDbEntity
  8
SUNPOU
100
AcDbCircle
 10
9409.217031986059
 20
9995.715360473253
 30
0.0
 40
5.625
100
AcDbArc
 50
180.0
 51
0.0
  0
ARC
  5
1DBB0
330
1D62A
100
AcDbEntity
  8
SUNPOU
100
AcDbCircle
 10
9809.21703198606
 20
10205.71536047325
 30
0.0
 40
5.625
100
AcDbArc
 50
180.0
 51
0.0
  0
ARC
  5
1DBB1
330
1D62A
100
AcDbEntity
  8
SUNPOU
100
AcDbCircle
 10
9809.21703198606
 20
10205.71536047325
 30
0.0
 40
5.625
100
AcDbArc
 50
0.0
 51
180.0
  0
ARC
  5
1DBB2
330
1D62A
100
AcDbEntity
  8
SUNPOU
100
AcDbCircle
 10
6559.21703198606
 20
10205.71536047325
 30
0.0
 40
5.625
100
AcDbArc
 50
0.0
 51
180.0
  0
ARC
  5
1DBB3
330
1D62A
100
AcDbEntity
  8
SUNPOU
100
AcDbCircle
 10
6559.21703198606
 20
10205.71536047325
 30
0.0
 40
5.625
100
AcDbArc
 50
180.0
 51
0.0
  0
ARC
  5
1DBB4
330
1D62A
100
AcDbEntity
  8
SUNPOU
100
AcDbCircle
 10
6959.21703198606
 20
9995.715360473253
 30
0.0
 40
5.625
100
AcDbArc
 50
0.0
 51
180.0
  0
ARC
  5
1DBB5
330
1D62A
100
AcDbEntity
  8
SUNPOU
100
AcDbCircle
 10
6959.21703198606
 20
9995.715360473253
 30
0.0
 40
5.625
100
AcDbArc
 50
180.0
 51
0.0
  0
ARC
  5
1DBB6
330
1D62A
100
AcDbEntity
  8
SUNPOU
100
AcDbCircle
 10
9409.217031986059
 20
9995.715360473253
 30
0.0
 40
5.625
100
AcDbArc
 50
180.0
 51
0.0
  0
ARC
  5
1DBB7
330
1D62A
100
AcDbEntity
  8
SUNPOU
100
AcDbCircle
 10
9409.217031986059
 20
9995.715360473253
 30
0.0
 40
5.625
100
AcDbArc
 50
0.0
 51
180.0
  0
ARC
  5
1DBB8
330
1D62A
100
AcDbEntity
  8
SUNPOU
100
AcDbCircle
 10
6559.21703198606
 20
9995.715360473253
 30
0.0
 40
5.625
100
AcDbArc
 50
0.0
 51
180.0
  0
ARC
  5
1DBB9
330
1D62A
100
AcDbEntity
  8
SUNPOU
100
AcDbCircle
 10
6559.21703198606
 20
9995.715360473253
 30
0.0
 40
5.625
100
AcDbArc
 50
180.0
 51
0.0
  0
ARC
  5
1DBBA
330
1D62A
100
AcDbEntity
  8
SUNPOU
100
AcDbCircle
 10
6959.21703198606
 20
9995.715360473253
 30
0.0
 40
5.625
100
AcDbArc
 50
180.0
 51
0.0
  0
ARC
  5
1DBBB
330
1D62A
100
AcDbEntity
  8
SUNPOU
100
AcDbCircle
 10
6959.21703198606
 20
9995.715360473253
 30
0.0
 40
5.625
100
AcDbArc
 50
0.0
 51
180.0
  0
ARC
  5
1DBBC
330
1D62A
100
AcDbEntity
  8
HIKIDASHI
100
AcDbCircle
 10
8327.093877307575
 20
1895.90861674504
 30
0.0
 40
74.66417910452284
100
AcDbArc
 50
164.8596129850915
 51
237.504500294165
  0
ARC
  5
1DBBD
330
1D62A
100
AcDbEntity
  8
HIKIDASHI
100
AcDbCircle
 10
8263.670083261271
 20
1913.069640229525
 30
0.0
 40
8.959701492542745
100
AcDbArc
 50
15.14038701503429
 51
164.8596129849655
  0
ARC
  5
1DBBE
330
1D62A
100
AcDbEntity
  8
HIKIDASHI
100
AcDbCircle
 10
4639.512125684277
 20
1895.908616745035
 30
0.0
 40
74.66417910452284
100
AcDbArc
 50
164.8596129850915
 51
237.504500294165
  0
ARC
  5
1DBBF
330
1D62A
100
AcDbEntity
  8
HIKIDASHI
100
AcDbCircle
 10
4576.088331637971
 20
1913.06964022952
 30
0.0
 40
8.959701492542745
100
AcDbArc
 50
15.14038701503429
 51
164.8596129849655
  0
LINE
  5
1DBC0
330
1D62A
100
AcDbEntity
  8
HIKIDASHI
100
AcDbLine
 10
10387.80295958267
 20
2568.550390345497
 30
0.0
 11
10555.00498845583
 21
2355.143287355456
 31
0.0
1001
ACAD
1000
DSTYLE
1002
{
1070
   147
1040
1.0
1070
    77
1070
     0
1002
}
  0
LINE
  5
1DBC1
330
1D62A
100
AcDbEntity
  8
HIKIDASHI
100
AcDbLine
 10
10398.2985425621
 20
2576.77355978917
 30
0.0
 11
10338.46394292064
 21
2631.523888222177
 31
0.0
  0
LINE
  5
1DBC2
330
1D62A
100
AcDbEntity
  8
HIKIDASHI
100
AcDbLine
 10
10338.46394292064
 20
2631.523888222177
 30
0.0
 11
10377.30737660321
 21
2560.327220901827
 31
0.0
  0
SOLID
  5
1DBC3
330
1D62A
100
AcDbEntity
  8
HIKIDASHI
100
AcDbTrace
 10
10398.2985425621
 20
2576.77355978917
 30
0.0
 11
10377.30737660321
 21
2560.327220901827
 31
0.0
 12
10338.46394292064
 22
2631.523888222177
 32
0.0
 13
10338.46394292064
 23
2631.523888222177
 33
0.0
  0
LINE
  5
1DBC4
330
1D62A
100
AcDbEntity
  8
HIKIDASHI
100
AcDbLine
 10
10377.30737660321
 20
2560.327220901827
 30
0.0
 11
10398.2985425621
 21
2576.77355978917
 31
0.0
  0
LINE
  5
1DBC5
330
1D62A
100
AcDbEntity
  8
HIKIDASHI
100
AcDbLine
 10
10416.62520246036
 20
3211.278707802612
 30
0.0
 11
10573.53855426433
 21
2910.953755823456
 31
0.0
1001
ACAD
1000
DSTYLE
1002
{
1070
    41
1040
2.0
1070
   173
1070
     0
1070
   341
1005
125B0
1002
}
  0
ARC
  5
1DBC6
330
1D62A
100
AcDbEntity
  8
HIKIDASHI
100
AcDbCircle
 10
10370.93800043453
 20
3266.330179132433
 30
0.0
 40
18.0
100
AcDbArc
 50
241.1434129563086
 51
354.0287934324676
  0
ARC
  5
1DBC7
330
1D62A
100
AcDbEntity
  8
HIKIDASHI
100
AcDbCircle
 10
10406.74267521795
 20
3262.585147269552
 30
0.0
 40
18.0
100
AcDbArc
 50
61.14341295630873
 51
174.0287934324676
  0
LINE
  5
1DBC8
330
1D62A
100
AcDbEntity
  8
HIKIDASHI
100
AcDbLine
 10
10388.84033782624
 20
3264.457663200991
 30
0.0
 11
10416.62520246038
 21
3211.2787078026
 31
0.0
  0
LINE
  5
1DBC9
330
1D62A
100
AcDbEntity
  8
HIKIDASHI
100
AcDbLine
 10
9308.33807457572
 20
2796.613868905354
 30
0.0
 11
8526.366098019535
 21
1945.523888222177
 31
0.0
1001
ACAD
1000
DSTYLE
1002
{
1070
   147
1040
1.0
1070
    77
1070
     0
1002
}
  0
LINE
  5
1DBCA
330
1D62A
100
AcDbEntity
  8
HIKIDASHI
100
AcDbLine
 10
9318.156411128525
 20
2787.592890847867
 30
0.0
 11
9362.463942920639
 21
2855.523888222176
 31
0.0
  0
LINE
  5
1DBCB
330
1D62A
100
AcDbEntity
  8
HIKIDASHI
100
AcDbLine
 10
9362.463942920639
 20
2855.523888222176
 30
0.0
 11
9298.519738022916
 21
2805.634846962841
 31
0.0
  0
SOLID
  5
1DBCC
330
1D62A
100
AcDbEntity
  8
HIKIDASHI
100
AcDbTrace
 10
9318.156411128525
 20
2787.592890847867
 30
0.0
 11
9298.519738022916
 21
2805.634846962841
 31
0.0
 12
9362.463942920639
 22
2855.523888222176
 32
0.0
 13
9362.463942920639
 23
2855.523888222176
 33
0.0
  0
LINE
  5
1DBCD
330
1D62A
100
AcDbEntity
  8
HIKIDASHI
100
AcDbLine
 10
9298.519738022916
 20
2805.634846962841
 30
0.0
 11
9318.156411128525
 21
2787.592890847867
 31
0.0
  0
ARC
  5
1DBCE
330
1D62A
100
AcDbEntity
  8
HIKIDASHI
100
AcDbCircle
 10
8201.425815750704
 20
1897.08874410463
 30
0.0
 40
74.66417910452232
100
AcDbArc
 50
301.7712278330705
 51
15.14038701490951
  0
LINE
  5
1DBCF
330
1D62A
100
AcDbEntity
  8
HIKIDASHI
100
AcDbLine
 10
5697.484751389242
 20
3009.16534671782
 30
0.0
 11
4838.784346396234
 21
1945.523888222172
 31
0.0
1001
ACAD
1000
DSTYLE
1002
{
1070
   147
1040
1.0
1070
    77
1070
     0
1002
}
  0
LINE
  5
1DBD0
330
1D62A
100
AcDbEntity
  8
HIKIDASHI
100
AcDbLine
 10
5707.859181620954
 20
3000.789848216527
 30
0.0
 11
5747.737742396992
 21
3071.411928108086
 31
0.0
  0
LINE
  5
1DBD1
330
1D62A
100
AcDbEntity
  8
HIKIDASHI
100
AcDbLine
 10
5747.737742396992
 20
3071.411928108086
 30
0.0
 11
5687.110321157532
 21
3017.540845219111
 31
0.0
  0
SOLID
  5
1DBD2
330
1D62A
100
AcDbEntity
  8
HIKIDASHI
100
AcDbTrace
 10
5707.859181620954
 20
3000.789848216527
 30
0.0
 11
5687.110321157532
 21
3017.540845219111
 31
0.0
 12
5747.737742396992
 22
3071.411928108086
 32
0.0
 13
5747.737742396992
 23
3071.411928108086
 33
0.0
  0
LINE
  5
1DBD3
330
1D62A
100
AcDbEntity
  8
HIKIDASHI
100
AcDbLine
 10
5687.110321157532
 20
3017.540845219111
 30
0.0
 11
5707.859181620954
 21
3000.789848216527
 31
0.0
  0
ARC
  5
1DBD4
330
1D62A
100
AcDbEntity
  8
HIKIDASHI
100
AcDbCircle
 10
4513.844064127407
 20
1897.088744104625
 30
0.0
 40
74.66417910452232
100
AcDbArc
 50
301.7712278330705
 51
15.14038701490951
  0
LINE
  5
1DBD5
330
1D62A
100
AcDbEntity
  8
HIKIDASHI
100
AcDbLine
 10
6064.219258073771
 20
3529.724501924766
 30
0.0
 11
6292.200738968885
 21
3927.324460358765
 31
0.0
1001
ACAD
1000
DSTYLE
1002
{
1070
   147
1040
1.0
1070
    77
1070
     0
1002
}
  0
LINE
  5
1DBD6
330
1D62A
100
AcDbEntity
  8
HIKIDASHI
100
AcDbLine
 10
6052.652489123339
 20
3536.356819304469
 30
0.0
 11
6024.425353795553
 21
3460.323888222176
 31
0.0
  0
LINE
  5
1DBD7
330
1D62A
100
AcDbEntity
  8
HIKIDASHI
100
AcDbLine
 10
6024.425353795553
 20
3460.323888222176
 30
0.0
 11
6075.786027024202
 21
3523.092184545062
 31
0.0
  0
SOLID
  5
1DBD8
330
1D62A
100
AcDbEntity
  8
HIKIDASHI
100
AcDbTrace
 10
6052.652489123339
 20
3536.356819304469
 30
0.0
 11
6075.786027024202
 21
3523.092184545062
 31
0.0
 12
6024.425353795553
 22
3460.323888222176
 32
0.0
 13
6024.425353795553
 23
3460.323888222176
 33
0.0
  0
LINE
  5
1DBD9
330
1D62A
100
AcDbEntity
  8
HIKIDASHI
100
AcDbLine
 10
6075.786027024202
 20
3523.092184545062
 30
0.0
 11
6052.652489123339
 21
3536.356819304469
 31
0.0
  0
LINE
  5
1DBDA
330
1D62A
100
AcDbEntity
  8
HIKIDASHI
100
AcDbLine
 10
6447.47675905902
 20
2568.550390345496
 30
0.0
 11
6614.678787932191
 21
2355.143287355454
 31
0.0
1001
ACAD
1000
DSTYLE
1002
{
1070
   147
1040
1.0
1070
    77
1070
     0
1002
}
  0
LINE
  5
1DBDB
330
1D62A
100
AcDbEntity
  8
HIKIDASHI
100
AcDbLine
 10
6457.972342038468
 20
2576.773559789168
 30
0.0
 11
6398.137742396992
 21
2631.523888222175
 31
0.0
  0
LINE
  5
1DBDC
330
1D62A
100
AcDbEntity
  8
HIKIDASHI
100
AcDbLine
 10
6398.137742396992
 20
2631.523888222175
 30
0.0
 11
6436.981176079574
 21
2560.327220901824
 31
0.0
  0
SOLID
  5
1DBDD
330
1D62A
100
AcDbEntity
  8
HIKIDASHI
100
AcDbTrace
 10
6457.972342038468
 20
2576.773559789168
 30
0.0
 11
6436.981176079574
 21
2560.327220901824
 31
0.0
 12
6398.137742396992
 22
2631.523888222175
 32
0.0
 13
6398.137742396992
 23
2631.523888222175
 33
0.0
  0
LINE
  5
1DBDE
330
1D62A
100
AcDbEntity
  8
HIKIDASHI
100
AcDbLine
 10
6436.981176079574
 20
2560.327220901824
 30
0.0
 11
6457.972342038468
 21
2576.773559789168
 31
0.0
  0
LINE
  5
1DBDF
330
1D62A
100
AcDbEntity
  8
HIKIDASHI
100
AcDbLine
 10
6476.299001936729
 20
3211.278707802609
 30
0.0
 11
6633.212353740688
 21
2910.953755823452
 31
0.0
1001
ACAD
1000
DSTYLE
1002
{
1070
    41
1040
2.0
1070
   173
1070
     0
1070
   341
1005
125B0
1002
}
  0
ARC
  5
1DBE0
330
1D62A
100
AcDbEntity
  8
HIKIDASHI
100
AcDbCircle
 10
6430.611799910892
 20
3266.33017913243
 30
0.0
 40
18.0
100
AcDbArc
 50
241.1434129563095
 51
354.0287934324676
  0
ARC
  5
1DBE1
330
1D62A
100
AcDbEntity
  8
HIKIDASHI
100
AcDbCircle
 10
6466.416474694305
 20
3262.585147269549
 30
0.0
 40
18.0
100
AcDbArc
 50
61.1434129563095
 51
174.0287934324675
  0
LINE
  5
1DBE2
330
1D62A
100
AcDbEntity
  8
HIKIDASHI
100
AcDbLine
 10
6448.514137302599
 20
3264.457663200988
 30
0.0
 11
6476.299001936737
 21
3211.278707802597
 31
0.0
  0
LINE
  5
1DBE3
330
1D62A
100
AcDbEntity
  8
HIKIDASHI
100
AcDbLine
 10
12823.53188809266
 20
2626.829140993907
 30
0.0
 11
13214.98308988596
 21
2252.644025518658
 31
0.0
1001
ACAD
1000
DSTYLE
1002
{
1070
   147
1040
1.0
1070
    77
1070
     0
1002
}
  0
LINE
  5
1DBE4
330
1D62A
100
AcDbEntity
  8
HIKIDASHI
100
AcDbLine
 10
12832.74502049057
 20
2636.467396499774
 30
0.0
 11
12765.70235505746
 21
2682.107935381366
 31
0.0
  0
LINE
  5
1DBE5
330
1D62A
100
AcDbEntity
  8
HIKIDASHI
100
AcDbLine
 10
12765.70235505746
 20
2682.107935381366
 30
0.0
 11
12814.31875569475
 21
2617.190885488041
 31
0.0
  0
SOLID
  5
1DBE6
330
1D62A
100
AcDbEntity
  8
HIKIDASHI
100
AcDbTrace
 10
12832.74502049057
 20
2636.467396499774
 30
0.0
 11
12814.31875569475
 21
2617.190885488041
 31
0.0
 12
12765.70235505746
 22
2682.107935381366
 32
0.0
 13
12765.70235505746
 23
2682.107935381366
 33
0.0
  0
LINE
  5
1DBE7
330
1D62A
100
AcDbEntity
  8
HIKIDASHI
100
AcDbLine
 10
12814.31875569475
 20
2617.190885488041
 30
0.0
 11
12832.74502049057
 21
2636.467396499774
 31
0.0
  0
LINE
  5
1DBE8
330
1D62A
100
AcDbEntity
  8
HIKIDASHI
100
AcDbLine
 10
12876.83497984968
 20
2922.958399953539
 30
0.0
 11
13031.5743233676
 21
3074.500648967407
 31
0.0
1001
ACAD
1000
DSTYLE
1002
{
1070
   147
1040
1.0
1070
    77
1070
     0
1002
}
  0
LINE
  5
1DBE9
330
1D62A
100
AcDbEntity
  8
HIKIDASHI
100
AcDbLine
 10
12867.50581200003
 20
2932.484385729882
 30
0.0
 11
12819.67906519162
 21
2866.983392855721
 31
0.0
  0
LINE
  5
1DBEA
330
1D62A
100
AcDbEntity
  8
HIKIDASHI
100
AcDbLine
 10
12819.67906519162
 20
2866.983392855721
 30
0.0
 11
12886.16414769931
 21
2913.432414177195
 31
0.0
  0
SOLID
  5
1DBEB
330
1D62A
100
AcDbEntity
  8
HIKIDASHI
100
AcDbTrace
 10
12867.50581200003
 20
2932.484385729882
 30
0.0
 11
12886.16414769931
 21
2913.432414177195
 31
0.0
 12
12819.67906519162
 22
2866.983392855721
 32
0.0
 13
12819.67906519162
 23
2866.983392855721
 33
0.0
  0
LINE
  5
1DBEC
330
1D62A
100
AcDbEntity
  8
HIKIDASHI
100
AcDbLine
 10
12886.16414769931
 20
2913.432414177195
 30
0.0
 11
12867.50581200003
 21
2932.484385729882
 31
0.0
  0
LINE
  5
1DBED
330
1D62A
100
AcDbEntity
  8
HATCH
100
AcDbLine
 10
5161.938028947274
 20
3197.923888222797
 30
0.0
 11
5235.838863403543
 21
3325.923888222791
 31
0.0
  0
LINE
  5
1DBEE
330
1D62A
100
AcDbEntity
  8
HATCH
100
AcDbLine
 10
5197.438863403545
 20
3325.923888222789
 30
0.0
 11
5216.638863403544
 21
3292.668512717471
 31
0.0
  0
LINE
  5
1DBEF
330
1D62A
100
AcDbEntity
  8
HATCH
100
AcDbLine
 10
8354.163108462433
 20
3197.923888222877
 30
0.0
 11
8428.063942918702
 21
3325.92388822287
 31
0.0
  0
LINE
  5
1DBF0
330
1D62A
100
AcDbEntity
  8
HATCH
100
AcDbLine
 10
8389.663942918701
 20
3325.923888222869
 30
0.0
 11
8408.863942918703
 21
3292.668512717551
 31
0.0
  0
LINE
  5
1DBF1
330
1D62A
100
AcDbEntity
  8
HATCH
100
AcDbLine
 10
8354.163108464351
 20
3197.923888223495
 30
0.0
 11
8428.063942920639
 21
3325.923888223524
 31
0.0
  0
LINE
  5
1DBF2
330
1D62A
100
AcDbEntity
  8
HATCH
100
AcDbLine
 10
8389.663942920631
 20
3325.923888223523
 30
0.0
 11
8408.863942920634
 21
3292.668512718196
 31
0.0
  0
LINE
  5
1DBF3
330
1D62A
100
AcDbEntity
  8
HATCH
100
AcDbLine
 10
8642.16310846243
 20
3197.923888221601
 30
0.0
 11
8716.063942918699
 21
3325.923888221594
 31
0.0
  0
LINE
  5
1DBF4
330
1D62A
100
AcDbEntity
  8
HATCH
100
AcDbLine
 10
8677.663942918702
 20
3325.923888221593
 30
0.0
 11
8696.863942918701
 21
3292.668512716275
 31
0.0
  0
LINE
  5
1DBF5
330
1D62A
100
AcDbEntity
  8
HATCH
100
AcDbLine
 10
8786.16310846243
 20
3197.923888221601
 30
0.0
 11
8860.063942918699
 21
3325.923888221594
 31
0.0
  0
LINE
  5
1DBF6
330
1D62A
100
AcDbEntity
  8
HATCH
100
AcDbLine
 10
8821.663942918702
 20
3325.923888221593
 30
0.0
 11
8840.8639429187
 21
3292.668512716275
 31
0.0
  0
LINE
  5
1DBF7
330
1D62A
100
AcDbEntity
  8
HATCH
100
AcDbLine
 10
8642.16310846435
 20
3197.923888222219
 30
0.0
 11
8716.063942920639
 21
3325.923888222249
 31
0.0
  0
LINE
  5
1DBF8
330
1D62A
100
AcDbEntity
  8
HATCH
100
AcDbLine
 10
8677.663942920629
 20
3325.923888222247
 30
0.0
 11
8696.863942920634
 21
3292.668512716919
 31
0.0
  0
LINE
  5
1DBF9
330
1D62A
100
AcDbEntity
  8
HATCH
100
AcDbLine
 10
8786.163108464348
 20
3197.923888222219
 30
0.0
 11
8860.063942920637
 21
3325.923888222249
 31
0.0
  0
LINE
  5
1DBFA
330
1D62A
100
AcDbEntity
  8
HATCH
100
AcDbLine
 10
8821.663942920629
 20
3325.923888222247
 30
0.0
 11
8840.863942920634
 21
3292.668512716919
 31
0.0
  0
LINE
  5
1DBFB
330
1D62A
100
AcDbEntity
  8
HATCH
100
AcDbLine
 10
10556.10574381646
 20
3197.923888222841
 30
0.0
 11
10630.00657827273
 21
3325.923888222834
 31
0.0
  0
LINE
  5
1DBFC
330
1D62A
100
AcDbEntity
  8
HATCH
100
AcDbLine
 10
10591.60657827272
 20
3325.923888222833
 30
0.0
 11
10610.80657827273
 21
3292.668512717515
 31
0.0
  0
LINE
  5
1DBFD
330
1D62A
100
AcDbEntity
  8
HATCH
100
AcDbLine
 10
10268.10574381646
 20
3197.923888222841
 30
0.0
 11
10342.00657827273
 21
3325.923888222834
 31
0.0
  0
LINE
  5
1DBFE
330
1D62A
100
AcDbEntity
  8
HATCH
100
AcDbLine
 10
10303.60657827273
 20
3325.923888222833
 30
0.0
 11
10322.80657827272
 21
3292.668512717515
 31
0.0
  0
LINE
  5
1DBFF
330
1D62A
100
AcDbEntity
  8
HATCH
100
AcDbLine
 10
10412.10574381646
 20
3197.923888222841
 30
0.0
 11
10486.00657827273
 21
3325.923888222834
 31
0.0
  0
LINE
  5
1DC00
330
1D62A
100
AcDbEntity
  8
HATCH
100
AcDbLine
 10
10447.60657827273
 20
3325.923888222833
 30
0.0
 11
10466.80657827272
 21
3292.668512717515
 31
0.0
  0
LINE
  5
1DC01
330
1D62A
100
AcDbEntity
  8
HATCH
100
AcDbLine
 10
10700.10574381646
 20
3197.923888222841
 30
0.0
 11
10774.00657827273
 21
3325.923888222834
 31
0.0
  0
LINE
  5
1DC02
330
1D62A
100
AcDbEntity
  8
HATCH
100
AcDbLine
 10
10735.60657827272
 20
3325.923888222833
 30
0.0
 11
10754.80657827273
 21
3292.668512717515
 31
0.0
  0
LINE
  5
1DC03
330
1D62A
100
AcDbEntity
  8
HATCH
100
AcDbLine
 10
10556.10574381838
 20
3197.92388822346
 30
0.0
 11
10630.00657827467
 21
3325.923888223488
 31
0.0
  0
LINE
  5
1DC04
330
1D62A
100
AcDbEntity
  8
HATCH
100
AcDbLine
 10
10591.60657827465
 20
3325.923888223488
 30
0.0
 11
10610.80657827466
 21
3292.66851271816
 31
0.0
  0
LINE
  5
1DC05
330
1D62A
100
AcDbEntity
  8
HATCH
100
AcDbLine
 10
10700.10574381837
 20
3197.92388822346
 30
0.0
 11
10774.00657827467
 21
3325.923888223488
 31
0.0
  0
LINE
  5
1DC06
330
1D62A
100
AcDbEntity
  8
HATCH
100
AcDbLine
 10
10735.60657827465
 20
3325.923888223488
 30
0.0
 11
10754.80657827466
 21
3292.66851271816
 31
0.0
  0
LINE
  5
1DC07
330
1D62A
100
AcDbEntity
  8
HATCH
100
AcDbLine
 10
10412.10574381838
 20
3197.92388822346
 30
0.0
 11
10486.00657827466
 21
3325.923888223488
 31
0.0
  0
LINE
  5
1DC08
330
1D62A
100
AcDbEntity
  8
HATCH
100
AcDbLine
 10
10447.60657827465
 20
3325.923888223488
 30
0.0
 11
10466.80657827466
 21
3292.66851271816
 31
0.0
  0
LINE
  5
1DC09
330
1D62A
100
AcDbEntity
  8
HATCH
100
AcDbLine
 10
10268.10574381838
 20
3197.92388822346
 30
0.0
 11
10342.00657827466
 21
3325.923888223488
 31
0.0
  0
LINE
  5
1DC0A
330
1D62A
100
AcDbEntity
  8
HATCH
100
AcDbLine
 10
10303.60657827465
 20
3325.923888223488
 30
0.0
 11
10322.80657827467
 21
3292.66851271816
 31
0.0
  0
LINE
  5
1DC0B
330
1D62A
100
AcDbEntity
  8
HATCH
100
AcDbLine
 10
6343.779543292818
 20
3197.923888222797
 30
0.0
 11
6417.680377749085
 21
3325.923888222791
 31
0.0
  0
LINE
  5
1DC0C
330
1D62A
100
AcDbEntity
  8
HATCH
100
AcDbLine
 10
6379.280377749087
 20
3325.923888222789
 30
0.0
 11
6398.480377749086
 21
3292.668512717471
 31
0.0
  0
LINE
  5
1DC0D
330
1D62A
100
AcDbEntity
  8
HATCH
100
AcDbLine
 10
6775.779543292817
 20
3197.923888222797
 30
0.0
 11
6849.680377749084
 21
3325.923888222791
 31
0.0
  0
LINE
  5
1DC0E
330
1D62A
100
AcDbEntity
  8
HATCH
100
AcDbLine
 10
6811.280377749087
 20
3325.923888222789
 30
0.0
 11
6830.480377749086
 21
3292.668512717471
 31
0.0
  0
LINE
  5
1DC0F
330
1D62A
100
AcDbEntity
  8
HATCH
100
AcDbLine
 10
6487.779543292816
 20
3197.923888222797
 30
0.0
 11
6561.680377749084
 21
3325.923888222791
 31
0.0
  0
LINE
  5
1DC10
330
1D62A
100
AcDbEntity
  8
HATCH
100
AcDbLine
 10
6523.280377749087
 20
3325.923888222789
 30
0.0
 11
6542.480377749086
 21
3292.668512717471
 31
0.0
  0
LINE
  5
1DC11
330
1D62A
100
AcDbEntity
  8
HATCH
100
AcDbLine
 10
6631.779543292816
 20
3197.923888222797
 30
0.0
 11
6705.680377749086
 21
3325.923888222791
 31
0.0
  0
LINE
  5
1DC12
330
1D62A
100
AcDbEntity
  8
HATCH
100
AcDbLine
 10
6667.280377749086
 20
3325.923888222789
 30
0.0
 11
6686.480377749086
 21
3292.668512717471
 31
0.0
  0
LINE
  5
1DC13
330
1D62A
100
AcDbEntity
  8
HATCH
100
AcDbLine
 10
6919.779543292817
 20
3197.923888222797
 30
0.0
 11
6993.680377749083
 21
3325.923888222791
 31
0.0
  0
LINE
  5
1DC14
330
1D62A
100
AcDbEntity
  8
HATCH
100
AcDbLine
 10
6955.280377749088
 20
3325.923888222789
 30
0.0
 11
6974.480377749086
 21
3292.668512717471
 31
0.0
  0
LINE
  5
1DC15
330
1D62A
100
AcDbEntity
  8
HATCH
100
AcDbLine
 10
5200.338028947268
 20
3197.923888222797
 30
0.0
 11
5181.138028947271
 21
3231.179263728115
 31
0.0
  0
LINE
  5
1DC16
330
1D62A
100
AcDbEntity
  8
HATCH
100
AcDbLine
 10
8392.563108462425
 20
3197.923888222877
 30
0.0
 11
8373.363108462429
 21
3231.179263728196
 31
0.0
  0
LINE
  5
1DC17
330
1D62A
100
AcDbEntity
  8
HATCH
100
AcDbLine
 10
8392.563108464354
 20
3197.923888223495
 30
0.0
 11
8373.363108464349
 21
3231.179263728823
 31
0.0
  0
LINE
  5
1DC18
330
1D62A
100
AcDbEntity
  8
HATCH
100
AcDbLine
 10
8680.563108462425
 20
3197.923888221601
 30
0.0
 11
8661.363108462424
 21
3231.179263726918
 31
0.0
  0
LINE
  5
1DC19
330
1D62A
100
AcDbEntity
  8
HATCH
100
AcDbLine
 10
8824.563108462426
 20
3197.923888221601
 30
0.0
 11
8805.363108462426
 21
3231.179263726918
 31
0.0
  0
LINE
  5
1DC1A
330
1D62A
100
AcDbEntity
  8
HATCH
100
AcDbLine
 10
8680.563108464353
 20
3197.923888222219
 30
0.0
 11
8661.36310846435
 21
3231.179263727547
 31
0.0
  0
LINE
  5
1DC1B
330
1D62A
100
AcDbEntity
  8
HATCH
100
AcDbLine
 10
8824.563108464353
 20
3197.923888222219
 30
0.0
 11
8805.36310846435
 21
3231.179263727547
 31
0.0
  0
LINE
  5
1DC1C
330
1D62A
100
AcDbEntity
  8
HATCH
100
AcDbLine
 10
10594.50574381646
 20
3197.923888222841
 30
0.0
 11
10575.30574381646
 21
3231.179263728158
 31
0.0
  0
LINE
  5
1DC1D
330
1D62A
100
AcDbEntity
  8
HATCH
100
AcDbLine
 10
10306.50574381646
 20
3197.923888222841
 30
0.0
 11
10287.30574381645
 21
3231.179263728158
 31
0.0
  0
LINE
  5
1DC1E
330
1D62A
100
AcDbEntity
  8
HATCH
100
AcDbLine
 10
10450.50574381646
 20
3197.923888222841
 30
0.0
 11
10431.30574381645
 21
3231.179263728158
 31
0.0
  0
LINE
  5
1DC1F
330
1D62A
100
AcDbEntity
  8
HATCH
100
AcDbLine
 10
10738.50574381645
 20
3197.923888222841
 30
0.0
 11
10719.30574381646
 21
3231.179263728158
 31
0.0
  0
LINE
  5
1DC20
330
1D62A
100
AcDbEntity
  8
HATCH
100
AcDbLine
 10
10594.50574381838
 20
3197.92388822346
 30
0.0
 11
10575.30574381838
 21
3231.179263728787
 31
0.0
  0
LINE
  5
1DC21
330
1D62A
100
AcDbEntity
  8
HATCH
100
AcDbLine
 10
10738.50574381838
 20
3197.92388822346
 30
0.0
 11
10719.30574381838
 21
3231.179263728787
 31
0.0
  0
LINE
  5
1DC22
330
1D62A
100
AcDbEntity
  8
HATCH
100
AcDbLine
 10
10450.50574381839
 20
3197.92388822346
 30
0.0
 11
10431.30574381838
 21
3231.179263728787
 31
0.0
  0
LINE
  5
1DC23
330
1D62A
100
AcDbEntity
  8
HATCH
100
AcDbLine
 10
10306.50574381839
 20
3197.92388822346
 30
0.0
 11
10287.30574381838
 21
3231.179263728787
 31
0.0
  0
LINE
  5
1DC24
330
1D62A
100
AcDbEntity
  8
TENSEN-1
100
AcDbLine
 10
9714.463942920641
 20
2876.323888222172
 30
0.0
 11
9660.86394292064
 21
2876.323888222172
 31
0.0
  0
LINE
  5
1DC25
330
1D62A
100
AcDbEntity
  8
TENSEN-1
100
AcDbLine
 10
9660.86394292064
 20
2876.323888222172
 30
0.0
 11
9660.86394292064
 21
3367.523888222172
 31
0.0
  0
LINE
  5
1DC26
330
1D62A
100
AcDbEntity
  8
TENSEN-1
100
AcDbLine
 10
9660.86394292064
 20
3367.523888222172
 30
0.0
 11
9640.063942920642
 21
3367.523888222172
 31
0.0
  0
LINE
  5
1DC27
330
1D62A
100
AcDbEntity
  8
TENSEN-1
100
AcDbLine
 10
9640.063942920642
 20
3367.523888222172
 30
0.0
 11
9640.06394292064
 21
2855.523888222172
 31
0.0
  0
LINE
  5
1DC28
330
1D62A
100
AcDbEntity
  8
TENSEN-1
100
AcDbLine
 10
9640.06394292064
 20
2855.523888222172
 30
0.0
 11
9714.463942920641
 21
2855.523888222172
 31
0.0
  0
LINE
  5
1DC29
330
1D62A
100
AcDbEntity
  8
TENSEN-1
100
AcDbLine
 10
9714.463942920641
 20
2855.523888222172
 30
0.0
 11
9714.463942920641
 21
2876.323888222172
 31
0.0
  0
LINE
  5
1DC2A
330
1D62A
100
AcDbEntity
  8
TENSEN-1
100
AcDbLine
 10
9362.463942920639
 20
2876.323888222175
 30
0.0
 11
9416.063942920642
 21
2876.323888222175
 31
0.0
  0
LINE
  5
1DC2B
330
1D62A
100
AcDbEntity
  8
TENSEN-1
100
AcDbLine
 10
9416.063942920642
 20
2876.323888222175
 30
0.0
 11
9416.063942920642
 21
3367.523888222176
 31
0.0
  0
LINE
  5
1DC2C
330
1D62A
100
AcDbEntity
  8
TENSEN-1
100
AcDbLine
 10
9416.063942920642
 20
3367.523888222176
 30
0.0
 11
9436.86394292064
 21
3367.523888222176
 31
0.0
  0
LINE
  5
1DC2D
330
1D62A
100
AcDbEntity
  8
TENSEN-1
100
AcDbLine
 10
9436.86394292064
 20
3367.523888222176
 30
0.0
 11
9436.86394292064
 21
2855.523888222176
 31
0.0
  0
LINE
  5
1DC2E
330
1D62A
100
AcDbEntity
  8
TENSEN-1
100
AcDbLine
 10
9436.86394292064
 20
2855.523888222176
 30
0.0
 11
9362.463942920639
 21
2855.523888222176
 31
0.0
  0
LINE
  5
1DC2F
330
1D62A
100
AcDbEntity
  8
TENSEN-1
100
AcDbLine
 10
9362.463942920639
 20
2855.523888222176
 30
0.0
 11
9362.463942920639
 21
2876.323888222175
 31
0.0
  0
LINE
  5
1DC30
330
1D62A
100
AcDbEntity
  8
HASHIRA
100
AcDbLine
 10
9394.463942920641
 20
3325.92388822217
 30
0.0
 11
9682.463942920641
 21
3325.923888222175
 31
0.0
  0
LINE
  5
1DC31
330
1D62A
100
AcDbEntity
  8
HASHIRA
100
AcDbLine
 10
9682.463942920641
 20
3325.923888222175
 30
0.0
 11
9682.463942920641
 21
3340.323888222175
 31
0.0
  0
LINE
  5
1DC32
330
1D62A
100
AcDbEntity
  8
HASHIRA
100
AcDbLine
 10
9682.463942920641
 20
3340.323888222175
 30
0.0
 11
9394.463942920641
 21
3340.323888222171
 31
0.0
  0
LINE
  5
1DC33
330
1D62A
100
AcDbEntity
  8
HASHIRA
100
AcDbLine
 10
9394.463942920641
 20
3340.323888222171
 30
0.0
 11
9394.463942920641
 21
3325.92388822217
 31
0.0
  0
LINE
  5
1DC34
330
1D62A
100
AcDbEntity
  8
BOLT
100
AcDbLine
 10
9552.063942920637
 20
3369.123888222172
 30
0.0
 11
9552.063942920637
 21
3376.97585188315
 31
0.0
  0
LINE
  5
1DC35
330
1D62A
100
AcDbEntity
  8
BOLT
100
AcDbLine
 10
9552.063942920637
 20
3376.97585188315
 30
0.0
 11
9538.463942920641
 21
3384.827815544132
 31
0.0
  0
LINE
  5
1DC36
330
1D62A
100
AcDbEntity
  8
BOLT
100
AcDbLine
 10
9538.463942920641
 20
3384.827815544132
 30
0.0
 11
9524.863942920637
 21
3376.97585188315
 31
0.0
  0
LINE
  5
1DC37
330
1D62A
100
AcDbEntity
  8
BOLT
100
AcDbLine
 10
9524.863942920637
 20
3376.97585188315
 30
0.0
 11
9524.863942920637
 21
3369.123888222172
 31
0.0
  0
LINE
  5
1DC38
330
1D62A
100
AcDbEntity
  8
BOLT
100
AcDbLine
 10
9524.863942920637
 20
3369.123888222172
 30
0.0
 11
9524.863942920637
 21
3361.271924561193
 31
0.0
  0
LINE
  5
1DC39
330
1D62A
100
AcDbEntity
  8
BOLT
100
AcDbLine
 10
9524.863942920637
 20
3361.271924561193
 30
0.0
 11
9538.463942920641
 21
3353.419960900213
 31
0.0
  0
LINE
  5
1DC3A
330
1D62A
100
AcDbEntity
  8
BOLT
100
AcDbLine
 10
9538.463942920641
 20
3353.419960900213
 30
0.0
 11
9552.063942920637
 21
3361.271924561193
 31
0.0
  0
LINE
  5
1DC3B
330
1D62A
100
AcDbEntity
  8
BOLT
100
AcDbLine
 10
9552.063942920637
 20
3361.271924561193
 30
0.0
 11
9552.063942920637
 21
3369.123888222172
 31
0.0
  0
LINE
  5
1DC3C
330
1D62A
100
AcDbEntity
  8
BOLT
100
AcDbLine
 10
9552.063942920637
 20
3433.123888222172
 30
0.0
 11
9552.063942920637
 21
3440.97585188315
 31
0.0
  0
LINE
  5
1DC3D
330
1D62A
100
AcDbEntity
  8
BOLT
100
AcDbLine
 10
9552.063942920637
 20
3440.97585188315
 30
0.0
 11
9538.463942920641
 21
3448.827815544132
 31
0.0
  0
LINE
  5
1DC3E
330
1D62A
100
AcDbEntity
  8
BOLT
100
AcDbLine
 10
9538.463942920641
 20
3448.827815544132
 30
0.0
 11
9524.863942920637
 21
3440.97585188315
 31
0.0
  0
LINE
  5
1DC3F
330
1D62A
100
AcDbEntity
  8
BOLT
100
AcDbLine
 10
9524.863942920637
 20
3440.97585188315
 30
0.0
 11
9524.863942920637
 21
3433.123888222172
 31
0.0
  0
LINE
  5
1DC40
330
1D62A
100
AcDbEntity
  8
BOLT
100
AcDbLine
 10
9524.863942920637
 20
3433.123888222172
 30
0.0
 11
9524.863942920637
 21
3425.271924561193
 31
0.0
  0
LINE
  5
1DC41
330
1D62A
100
AcDbEntity
  8
BOLT
100
AcDbLine
 10
9524.863942920637
 20
3425.271924561193
 30
0.0
 11
9538.463942920641
 21
3417.419960900213
 31
0.0
  0
LINE
  5
1DC42
330
1D62A
100
AcDbEntity
  8
BOLT
100
AcDbLine
 10
9538.463942920641
 20
3417.419960900213
 30
0.0
 11
9552.063942920637
 21
3425.271924561193
 31
0.0
  0
LINE
  5
1DC43
330
1D62A
100
AcDbEntity
  8
BOLT
100
AcDbLine
 10
9552.063942920637
 20
3425.271924561193
 30
0.0
 11
9552.063942920637
 21
3433.123888222172
 31
0.0
  0
LINE
  5
1DC44
330
1D62A
100
AcDbEntity
  8
KISO
100
AcDbLine
 10
5118.137742396994
 20
2557.923888222177
 30
0.0
 11
6398.137742396993
 21
2557.923888222177
 31
0.0
  0
LINE
  5
1DC45
330
1D62A
100
AcDbEntity
  8
KISO
100
AcDbLine
 10
6398.137742396993
 20
2557.923888222177
 30
0.0
 11
6398.137742396993
 21
2717.923888222177
 31
0.0
  0
LINE
  5
1DC46
330
1D62A
100
AcDbEntity
  8
KISO
100
AcDbLine
 10
6398.137742396993
 20
2717.923888222177
 30
0.0
 11
5118.137742396994
 21
2717.923888222177
 31
0.0
  0
LINE
  5
1DC47
330
1D62A
100
AcDbEntity
  8
KISO
100
AcDbLine
 10
5118.137742396994
 20
2717.923888222177
 30
0.0
 11
5118.137742396994
 21
2557.923888222177
 31
0.0
  0
LINE
  5
1DC48
330
1D62A
100
AcDbEntity
  8
HATCH
100
AcDbLine
 10
6382.17954329281
 20
3197.923888222797
 30
0.0
 11
6362.979543292811
 21
3231.179263728115
 31
0.0
  0
LINE
  5
1DC49
330
1D62A
100
AcDbEntity
  8
HATCH
100
AcDbLine
 10
6814.17954329281
 20
3197.923888222797
 30
0.0
 11
6794.979543292811
 21
3231.179263728115
 31
0.0
  0
LINE
  5
1DC4A
330
1D62A
100
AcDbEntity
  8
HATCH
100
AcDbLine
 10
6526.179543292809
 20
3197.923888222797
 30
0.0
 11
6506.979543292811
 21
3231.179263728115
 31
0.0
  0
LINE
  5
1DC4B
330
1D62A
100
AcDbEntity
  8
HATCH
100
AcDbLine
 10
6670.17954329281
 20
3197.923888222797
 30
0.0
 11
6650.979543292812
 21
3231.179263728115
 31
0.0
  0
LINE
  5
1DC4C
330
1D62A
100
AcDbEntity
  8
HATCH
100
AcDbLine
 10
6958.179543292811
 20
3197.923888222797
 30
0.0
 11
6938.979543292811
 21
3231.179263728115
 31
0.0
  0
LINE
  5
1DC4D
330
1D62A
100
AcDbEntity
  8
HASHIRA
100
AcDbLine
 10
5694.137742396993
 20
3325.923888222181
 30
0.0
 11
5822.137742396995
 21
3325.923888222181
 31
0.0
  0
LINE
  5
1DC4E
330
1D62A
100
AcDbEntity
  8
HASHIRA
100
AcDbLine
 10
5822.137742396995
 20
3325.923888222181
 30
0.0
 11
5822.137742396995
 21
3335.52388822218
 31
0.0
  0
LINE
  5
1DC4F
330
1D62A
100
AcDbEntity
  8
HASHIRA
100
AcDbLine
 10
5822.137742396995
 20
3335.52388822218
 30
0.0
 11
5694.137742396993
 21
3335.52388822218
 31
0.0
  0
LINE
  5
1DC50
330
1D62A
100
AcDbEntity
  8
HASHIRA
100
AcDbLine
 10
5694.137742396993
 20
3335.52388822218
 30
0.0
 11
5694.137742396993
 21
3325.923888222181
 31
0.0
  0
LINE
  5
1DC51
330
1D62A
100
AcDbEntity
  8
TENSEN-1
100
AcDbLine
 10
5694.137742396993
 20
2876.32388822218
 30
0.0
 11
5747.737742396992
 21
2876.32388822218
 31
0.0
  0
LINE
  5
1DC52
330
1D62A
100
AcDbEntity
  8
TENSEN-1
100
AcDbLine
 10
5747.737742396992
 20
2876.32388822218
 30
0.0
 11
5747.737742396992
 21
3367.52388822218
 31
0.0
  0
LINE
  5
1DC53
330
1D62A
100
AcDbEntity
  8
TENSEN-1
100
AcDbLine
 10
5747.737742396992
 20
3367.52388822218
 30
0.0
 11
5768.537742396996
 21
3367.52388822218
 31
0.0
  0
LINE
  5
1DC54
330
1D62A
100
AcDbEntity
  8
TENSEN-1
100
AcDbLine
 10
5768.537742396996
 20
3367.52388822218
 30
0.0
 11
5768.537742396996
 21
2855.52388822218
 31
0.0
  0
LINE
  5
1DC55
330
1D62A
100
AcDbEntity
  8
TENSEN-1
100
AcDbLine
 10
5768.537742396996
 20
2855.52388822218
 30
0.0
 11
5694.137742396993
 21
2855.52388822218
 31
0.0
  0
LINE
  5
1DC56
330
1D62A
100
AcDbEntity
  8
TENSEN-1
100
AcDbLine
 10
5694.137742396993
 20
2855.52388822218
 30
0.0
 11
5694.137742396993
 21
2876.32388822218
 31
0.0
  0
LINE
  5
1DC57
330
1D62A
100
AcDbEntity
  8
U1
100
AcDbLine
 10
12349.67906519162
 20
2556.983392855721
 30
0.0
 11
12649.67906519162
 21
2556.983392855721
 31
0.0
  0
LINE
  5
1DC58
330
1D62A
100
AcDbEntity
  8
U1
100
AcDbLine
 10
12649.67906519162
 20
2556.983392855721
 30
0.0
 11
12649.67906519162
 21
2856.983392855721
 31
0.0
  0
LINE
  5
1DC59
330
1D62A
100
AcDbEntity
  8
U1
100
AcDbLine
 10
12649.67906519162
 20
2856.983392855721
 30
0.0
 11
12349.67906519162
 21
2856.983392855721
 31
0.0
  0
LINE
  5
1DC5A
330
1D62A
100
AcDbEntity
  8
U1
100
AcDbLine
 10
12349.67906519162
 20
2856.983392855721
 30
0.0
 11
12349.67906519162
 21
2556.983392855721
 31
0.0
  0
LINE
  5
1DC5B
330
1D62A
100
AcDbEntity
  8
U1
100
AcDbLine
 10
12179.67906519162
 20
2546.983392855721
 30
0.0
 11
12819.67906519162
 21
2546.983392855721
 31
0.0
  0
LINE
  5
1DC5C
330
1D62A
100
AcDbEntity
  8
U1
100
AcDbLine
 10
12819.67906519162
 20
2546.983392855721
 30
0.0
 11
12819.67906519162
 21
2866.983392855721
 31
0.0
  0
LINE
  5
1DC5D
330
1D62A
100
AcDbEntity
  8
U1
100
AcDbLine
 10
12819.67906519162
 20
2866.983392855721
 30
0.0
 11
12179.67906519162
 21
2866.983392855721
 31
0.0
  0
LINE
  5
1DC5E
330
1D62A
100
AcDbEntity
  8
U1
100
AcDbLine
 10
12179.67906519162
 20
2866.983392855721
 30
0.0
 11
12179.67906519162
 21
2546.983392855721
 31
0.0
  0
LINE
  5
1DC5F
330
1D62A
100
AcDbEntity
  8
U1
100
AcDbLine
 10
12179.67906519162
 20
3625.176085387133
 30
0.0
 11
12819.67906519162
 21
3625.176085387133
 31
0.0
  0
LINE
  5
1DC60
330
1D62A
100
AcDbEntity
  8
U1
100
AcDbLine
 10
12819.67906519162
 20
3625.176085387133
 30
0.0
 11
12819.67906519162
 21
3649.176085387133
 31
0.0
  0
LINE
  5
1DC61
330
1D62A
100
AcDbEntity
  8
U1
100
AcDbLine
 10
12819.67906519162
 20
3649.176085387133
 30
0.0
 11
12179.67906519162
 21
3649.176085387133
 31
0.0
  0
LINE
  5
1DC62
330
1D62A
100
AcDbEntity
  8
U1
100
AcDbLine
 10
12179.67906519162
 20
3649.176085387133
 30
0.0
 11
12179.67906519162
 21
3625.176085387133
 31
0.0
  0
LINE
  5
1DC63
330
1D62A
100
AcDbEntity
  8
DOMAKON
100
AcDbLine
 10
6559.21703198606
 20
5395.715360473253
 30
0.0
 11
9809.21703198606
 21
5395.71536047325
 31
0.0
  0
LINE
  5
1DC64
330
1D62A
100
AcDbEntity
  8
DOMAKON
100
AcDbLine
 10
9809.21703198606
 20
5395.71536047325
 30
0.0
 11
9809.21703198606
 21
9595.715360473251
 31
0.0
  0
LINE
  5
1DC65
330
1D62A
100
AcDbEntity
  8
DOMAKON
100
AcDbLine
 10
9809.21703198606
 20
9595.715360473251
 30
0.0
 11
6559.21703198606
 21
9595.715360473253
 31
0.0
  0
LINE
  5
1DC66
330
1D62A
100
AcDbEntity
  8
DOMAKON
100
AcDbLine
 10
6559.21703198606
 20
9595.715360473253
 30
0.0
 11
6559.21703198606
 21
5395.715360473253
 31
0.0
  0
LINE
  5
1DC67
330
1D62A
100
AcDbEntity
  8
U1
100
AcDbLine
 10
9415.417031986061
 20
9325.915360473249
 30
0.0
 11
9383.017031986055
 21
9325.915360473249
 31
0.0
  0
LINE
  5
1DC68
330
1D62A
100
AcDbEntity
  8
U1
100
AcDbLine
 10
9383.017031986055
 20
9265.515360473248
 30
0.0
 11
9435.417031986061
 21
9265.515360473248
 31
0.0
  0
ARC
  5
1DC69
330
1D62A
100
AcDbEntity
  8
U1
100
AcDbCircle
 10
9383.017031986055
 20
9269.515360473247
 30
0.0
 40
4.0
100
AcDbArc
 50
180.0
 51
270.0
  0
ARC
  5
1DC6A
330
1D62A
100
AcDbEntity
  8
U1
100
AcDbCircle
 10
9383.017031986055
 20
9321.91536047325
 30
0.0
 40
4.0
100
AcDbArc
 50
90.0
 51
180.0
  0
LINE
  5
1DC6B
330
1D62A
100
AcDbEntity
  8
U1
100
AcDbLine
 10
9379.017031986059
 20
9321.91536047325
 30
0.0
 11
9379.017031986059
 21
9269.515360473247
 31
0.0
  0
ARC
  5
1DC6C
330
1D62A
100
AcDbEntity
  8
U1
100
AcDbCircle
 10
9435.417031986061
 20
9269.515360473247
 30
0.0
 40
4.0
100
AcDbArc
 50
270.0
 51
0.0
  0
ARC
  5
1DC6D
330
1D62A
100
AcDbEntity
  8
U1
100
AcDbCircle
 10
9415.417031986061
 20
9321.91536047325
 30
0.0
 40
4.0
100
AcDbArc
 50
0.0
 51
90.0
  0
ARC
  5
1DC6E
330
1D62A
100
AcDbEntity
  8
U1
100
AcDbCircle
 10
9422.86703198606
 20
9312.66536047325
 30
0.0
 40
1.149999999999977
100
AcDbArc
 50
180.0
 51
0.0
  0
LINE
  5
1DC6F
330
1D62A
100
AcDbEntity
  8
U1
100
AcDbLine
 10
9426.31703198606
 20
9320.21536047325
 30
0.0
 11
9426.31703198606
 21
9312.66536047325
 31
0.0
  0
LINE
  5
1DC70
330
1D62A
100
AcDbEntity
  8
U1
100
AcDbLine
 10
9424.017031986059
 20
9320.21536047325
 30
0.0
 11
9426.31703198606
 21
9320.21536047325
 31
0.0
  0
LINE
  5
1DC71
330
1D62A
100
AcDbEntity
  8
U1
100
AcDbLine
 10
9421.717031986061
 20
9313.21536047325
 30
0.0
 11
9424.017031986059
 21
9313.21536047325
 31
0.0
  0
ARC
  5
1DC72
330
1D62A
100
AcDbEntity
  8
U1
100
AcDbCircle
 10
9422.86703198606
 20
9312.66536047325
 30
0.0
 40
3.450000000000044
100
AcDbArc
 50
180.0
 51
0.0
  0
LINE
  5
1DC73
330
1D62A
100
AcDbEntity
  8
U1
100
AcDbLine
 10
9421.717031986061
 20
9312.66536047325
 30
0.0
 11
9421.717031986061
 21
9321.91536047325
 31
0.0
  0
LINE
  5
1DC74
330
1D62A
100
AcDbEntity
  8
U1
100
AcDbLine
 10
9424.017031986059
 20
9321.91536047325
 30
0.0
 11
9424.017031986059
 21
9312.66536047325
 31
0.0
  0
LINE
  5
1DC75
330
1D62A
100
AcDbEntity
  8
U1
100
AcDbLine
 10
9419.417031986061
 20
9312.66536047325
 30
0.0
 11
9419.417031986061
 21
9321.91536047325
 31
0.0
  0
ARC
  5
1DC76
330
1D62A
100
AcDbEntity
  8
U1
100
AcDbCircle
 10
9435.417031986061
 20
9321.91536047325
 30
0.0
 40
4.0
100
AcDbArc
 50
0.0
 51
90.0
  0
LINE
  5
1DC77
330
1D62A
100
AcDbEntity
  8
U1
100
AcDbLine
 10
9435.417031986061
 20
9325.915360473249
 30
0.0
 11
9428.017031986057
 21
9325.915360473249
 31
0.0
  0
ARC
  5
1DC78
330
1D62A
100
AcDbEntity
  8
U1
100
AcDbCircle
 10
9428.017031986057
 20
9321.91536047325
 30
0.0
 40
4.0
100
AcDbArc
 50
90.0
 51
180.0
  0
LINE
  5
1DC79
330
1D62A
100
AcDbEntity
  8
U1
100
AcDbLine
 10
9439.41703198606
 20
9269.515360473247
 30
0.0
 11
9439.41703198606
 21
9321.91536047325
 31
0.0
  0
LINE
  5
1DC7A
330
1D62A
100
AcDbEntity
  8
U1
100
AcDbLine
 10
9415.417031986061
 20
7525.915360473248
 30
0.0
 11
9383.017031986055
 21
7525.915360473248
 31
0.0
  0
LINE
  5
1DC7B
330
1D62A
100
AcDbEntity
  8
U1
100
AcDbLine
 10
9383.017031986055
 20
7465.515360473249
 30
0.0
 11
9435.417031986061
 21
7465.515360473249
 31
0.0
  0
ARC
  5
1DC7C
330
1D62A
100
AcDbEntity
  8
U1
100
AcDbCircle
 10
9383.017031986055
 20
7469.515360473248
 30
0.0
 40
4.0
100
AcDbArc
 50
180.0
 51
270.0
  0
ARC
  5
1DC7D
330
1D62A
100
AcDbEntity
  8
U1
100
AcDbCircle
 10
9383.017031986055
 20
7521.91536047325
 30
0.0
 40
4.0
100
AcDbArc
 50
90.0
 51
180.0
  0
LINE
  5
1DC7E
330
1D62A
100
AcDbEntity
  8
U1
100
AcDbLine
 10
9379.017031986059
 20
7521.91536047325
 30
0.0
 11
9379.017031986059
 21
7469.515360473248
 31
0.0
  0
ARC
  5
1DC7F
330
1D62A
100
AcDbEntity
  8
U1
100
AcDbCircle
 10
9435.417031986061
 20
7469.515360473248
 30
0.0
 40
4.0
100
AcDbArc
 50
270.0
 51
0.0
  0
ARC
  5
1DC80
330
1D62A
100
AcDbEntity
  8
U1
100
AcDbCircle
 10
9415.417031986061
 20
7521.91536047325
 30
0.0
 40
4.0
100
AcDbArc
 50
0.0
 51
90.0
  0
ARC
  5
1DC81
330
1D62A
100
AcDbEntity
  8
U1
100
AcDbCircle
 10
9422.86703198606
 20
7512.665360473249
 30
0.0
 40
1.149999999999977
100
AcDbArc
 50
180.0
 51
0.0
  0
LINE
  5
1DC82
330
1D62A
100
AcDbEntity
  8
U1
100
AcDbLine
 10
9426.31703198606
 20
7520.21536047325
 30
0.0
 11
9426.31703198606
 21
7512.665360473249
 31
0.0
  0
LINE
  5
1DC83
330
1D62A
100
AcDbEntity
  8
U1
100
AcDbLine
 10
9424.017031986059
 20
7520.21536047325
 30
0.0
 11
9426.31703198606
 21
7520.21536047325
 31
0.0
  0
LINE
  5
1DC84
330
1D62A
100
AcDbEntity
  8
U1
100
AcDbLine
 10
9421.717031986061
 20
7513.215360473251
 30
0.0
 11
9424.017031986059
 21
7513.215360473251
 31
0.0
  0
ARC
  5
1DC85
330
1D62A
100
AcDbEntity
  8
U1
100
AcDbCircle
 10
9422.86703198606
 20
7512.665360473249
 30
0.0
 40
3.450000000000044
100
AcDbArc
 50
180.0
 51
0.0
  0
LINE
  5
1DC86
330
1D62A
100
AcDbEntity
  8
U1
100
AcDbLine
 10
9421.717031986061
 20
7512.665360473249
 30
0.0
 11
9421.717031986061
 21
7521.91536047325
 31
0.0
  0
LINE
  5
1DC87
330
1D62A
100
AcDbEntity
  8
U1
100
AcDbLine
 10
9424.017031986059
 20
7521.91536047325
 30
0.0
 11
9424.017031986059
 21
7512.665360473249
 31
0.0
  0
LINE
  5
1DC88
330
1D62A
100
AcDbEntity
  8
U1
100
AcDbLine
 10
9419.417031986061
 20
7512.665360473249
 30
0.0
 11
9419.417031986061
 21
7521.91536047325
 31
0.0
  0
ARC
  5
1DC89
330
1D62A
100
AcDbEntity
  8
U1
100
AcDbCircle
 10
9435.417031986061
 20
7521.91536047325
 30
0.0
 40
4.0
100
AcDbArc
 50
0.0
 51
90.0
  0
LINE
  5
1DC8A
330
1D62A
100
AcDbEntity
  8
U1
100
AcDbLine
 10
9435.417031986061
 20
7525.915360473248
 30
0.0
 11
9428.017031986057
 21
7525.915360473248
 31
0.0
  0
ARC
  5
1DC8B
330
1D62A
100
AcDbEntity
  8
U1
100
AcDbCircle
 10
9428.017031986057
 20
7521.91536047325
 30
0.0
 40
4.0
100
AcDbArc
 50
90.0
 51
180.0
  0
LINE
  5
1DC8C
330
1D62A
100
AcDbEntity
  8
U1
100
AcDbLine
 10
9439.41703198606
 20
7469.515360473248
 30
0.0
 11
9439.41703198606
 21
7521.91536047325
 31
0.0
  0
LINE
  5
1DC8D
330
1D62A
100
AcDbEntity
  8
U1
100
AcDbLine
 10
9415.417031986061
 20
5725.915360473249
 30
0.0
 11
9383.017031986055
 21
5725.915360473249
 31
0.0
  0
LINE
  5
1DC8E
330
1D62A
100
AcDbEntity
  8
U1
100
AcDbLine
 10
9383.017031986055
 20
5665.51536047325
 30
0.0
 11
9435.417031986061
 21
5665.51536047325
 31
0.0
  0
ARC
  5
1DC8F
330
1D62A
100
AcDbEntity
  8
U1
100
AcDbCircle
 10
9383.017031986055
 20
5669.515360473249
 30
0.0
 40
4.0
100
AcDbArc
 50
180.0
 51
270.0
  0
ARC
  5
1DC90
330
1D62A
100
AcDbEntity
  8
U1
100
AcDbCircle
 10
9383.017031986055
 20
5721.915360473249
 30
0.0
 40
4.0
100
AcDbArc
 50
90.0
 51
180.0
  0
LINE
  5
1DC91
330
1D62A
100
AcDbEntity
  8
U1
100
AcDbLine
 10
9379.017031986059
 20
5721.915360473249
 30
0.0
 11
9379.017031986059
 21
5669.515360473249
 31
0.0
  0
ARC
  5
1DC92
330
1D62A
100
AcDbEntity
  8
U1
100
AcDbCircle
 10
9435.417031986061
 20
5669.515360473249
 30
0.0
 40
4.0
100
AcDbArc
 50
270.0
 51
0.0
  0
ARC
  5
1DC93
330
1D62A
100
AcDbEntity
  8
U1
100
AcDbCircle
 10
9415.417031986061
 20
5721.915360473249
 30
0.0
 40
4.0
100
AcDbArc
 50
0.0
 51
90.0
  0
ARC
  5
1DC94
330
1D62A
100
AcDbEntity
  8
U1
100
AcDbCircle
 10
9422.86703198606
 20
5712.665360473249
 30
0.0
 40
1.149999999999977
100
AcDbArc
 50
180.0
 51
0.0
  0
LINE
  5
1DC95
330
1D62A
100
AcDbEntity
  8
U1
100
AcDbLine
 10
9426.31703198606
 20
5720.215360473249
 30
0.0
 11
9426.31703198606
 21
5712.665360473249
 31
0.0
  0
LINE
  5
1DC96
330
1D62A
100
AcDbEntity
  8
U1
100
AcDbLine
 10
9424.017031986059
 20
5720.215360473249
 30
0.0
 11
9426.31703198606
 21
5720.215360473249
 31
0.0
  0
LINE
  5
1DC97
330
1D62A
100
AcDbEntity
  8
U1
100
AcDbLine
 10
9421.717031986061
 20
5713.215360473249
 30
0.0
 11
9424.017031986059
 21
5713.215360473249
 31
0.0
  0
ARC
  5
1DC98
330
1D62A
100
AcDbEntity
  8
U1
100
AcDbCircle
 10
9422.86703198606
 20
5712.665360473249
 30
0.0
 40
3.450000000000044
100
AcDbArc
 50
180.0
 51
0.0
  0
LINE
  5
1DC99
330
1D62A
100
AcDbEntity
  8
U1
100
AcDbLine
 10
9421.717031986061
 20
5712.665360473249
 30
0.0
 11
9421.717031986061
 21
5721.915360473249
 31
0.0
  0
LINE
  5
1DC9A
330
1D62A
100
AcDbEntity
  8
U1
100
AcDbLine
 10
9424.017031986059
 20
5721.915360473249
 30
0.0
 11
9424.017031986059
 21
5712.665360473249
 31
0.0
  0
LINE
  5
1DC9B
330
1D62A
100
AcDbEntity
  8
U1
100
AcDbLine
 10
9419.417031986061
 20
5712.665360473249
 30
0.0
 11
9419.417031986061
 21
5721.915360473249
 31
0.0
  0
ARC
  5
1DC9C
330
1D62A
100
AcDbEntity
  8
U1
100
AcDbCircle
 10
9435.417031986061
 20
5721.915360473249
 30
0.0
 40
4.0
100
AcDbArc
 50
0.0
 51
90.0
  0
LINE
  5
1DC9D
330
1D62A
100
AcDbEntity
  8
U1
100
AcDbLine
 10
9435.417031986061
 20
5725.915360473249
 30
0.0
 11
9428.017031986057
 21
5725.915360473249
 31
0.0
  0
ARC
  5
1DC9E
330
1D62A
100
AcDbEntity
  8
U1
100
AcDbCircle
 10
9428.017031986057
 20
5721.915360473249
 30
0.0
 40
4.0
100
AcDbArc
 50
90.0
 51
180.0
  0
LINE
  5
1DC9F
330
1D62A
100
AcDbEntity
  8
U1
100
AcDbLine
 10
9439.41703198606
 20
5669.515360473249
 30
0.0
 11
9439.41703198606
 21
5721.915360473249
 31
0.0
  0
LINE
  5
1DCA0
330
1D62A
100
AcDbEntity
  8
U1
100
AcDbLine
 10
6965.417031986061
 20
9325.915360473253
 30
0.0
 11
6933.01703198606
 21
9325.915360473253
 31
0.0
  0
LINE
  5
1DCA1
330
1D62A
100
AcDbEntity
  8
U1
100
AcDbLine
 10
6933.01703198606
 20
9265.515360473251
 30
0.0
 11
6985.41703198606
 21
9265.515360473251
 31
0.0
  0
ARC
  5
1DCA2
330
1D62A
100
AcDbEntity
  8
U1
100
AcDbCircle
 10
6933.01703198606
 20
9269.515360473251
 30
0.0
 40
4.0
100
AcDbArc
 50
180.0
 51
270.0
  0
ARC
  5
1DCA3
330
1D62A
100
AcDbEntity
  8
U1
100
AcDbCircle
 10
6933.01703198606
 20
9321.915360473253
 30
0.0
 40
4.0
100
AcDbArc
 50
90.0
 51
180.0
  0
LINE
  5
1DCA4
330
1D62A
100
AcDbEntity
  8
U1
100
AcDbLine
 10
6929.01703198606
 20
9321.915360473253
 30
0.0
 11
6929.01703198606
 21
9269.515360473251
 31
0.0
  0
ARC
  5
1DCA5
330
1D62A
100
AcDbEntity
  8
U1
100
AcDbCircle
 10
6985.41703198606
 20
9269.515360473251
 30
0.0
 40
4.0
100
AcDbArc
 50
270.0
 51
0.0
  0
ARC
  5
1DCA6
330
1D62A
100
AcDbEntity
  8
U1
100
AcDbCircle
 10
6965.417031986061
 20
9321.915360473253
 30
0.0
 40
4.0
100
AcDbArc
 50
0.0
 51
90.0
  0
ARC
  5
1DCA7
330
1D62A
100
AcDbEntity
  8
U1
100
AcDbCircle
 10
6972.867031986059
 20
9312.665360473252
 30
0.0
 40
1.149999999999977
100
AcDbArc
 50
180.0
 51
0.0
  0
LINE
  5
1DCA8
330
1D62A
100
AcDbEntity
  8
U1
100
AcDbLine
 10
6976.317031986059
 20
9320.215360473252
 30
0.0
 11
6976.317031986059
 21
9312.665360473252
 31
0.0
  0
LINE
  5
1DCA9
330
1D62A
100
AcDbEntity
  8
U1
100
AcDbLine
 10
6974.017031986059
 20
9320.215360473252
 30
0.0
 11
6976.317031986059
 21
9320.215360473252
 31
0.0
  0
LINE
  5
1DCAA
330
1D62A
100
AcDbEntity
  8
U1
100
AcDbLine
 10
6971.717031986061
 20
9313.215360473252
 30
0.0
 11
6974.017031986059
 21
9313.215360473252
 31
0.0
  0
ARC
  5
1DCAB
330
1D62A
100
AcDbEntity
  8
U1
100
AcDbCircle
 10
6972.867031986059
 20
9312.665360473252
 30
0.0
 40
3.450000000000044
100
AcDbArc
 50
180.0
 51
0.0
  0
LINE
  5
1DCAC
330
1D62A
100
AcDbEntity
  8
U1
100
AcDbLine
 10
6971.717031986061
 20
9312.665360473252
 30
0.0
 11
6971.717031986059
 21
9321.915360473253
 31
0.0
  0
LINE
  5
1DCAD
330
1D62A
100
AcDbEntity
  8
U1
100
AcDbLine
 10
6974.017031986059
 20
9321.915360473253
 30
0.0
 11
6974.017031986059
 21
9312.665360473252
 31
0.0
  0
LINE
  5
1DCAE
330
1D62A
100
AcDbEntity
  8
U1
100
AcDbLine
 10
6969.41703198606
 20
9312.665360473252
 30
0.0
 11
6969.41703198606
 21
9321.915360473253
 31
0.0
  0
ARC
  5
1DCAF
330
1D62A
100
AcDbEntity
  8
U1
100
AcDbCircle
 10
6985.41703198606
 20
9321.915360473253
 30
0.0
 40
4.0
100
AcDbArc
 50
0.0
 51
90.0
  0
LINE
  5
1DCB0
330
1D62A
100
AcDbEntity
  8
U1
100
AcDbLine
 10
6985.41703198606
 20
9325.915360473253
 30
0.0
 11
6978.01703198606
 21
9325.915360473253
 31
0.0
  0
ARC
  5
1DCB1
330
1D62A
100
AcDbEntity
  8
U1
100
AcDbCircle
 10
6978.01703198606
 20
9321.915360473253
 30
0.0
 40
4.0
100
AcDbArc
 50
90.0
 51
180.0
  0
LINE
  5
1DCB2
330
1D62A
100
AcDbEntity
  8
U1
100
AcDbLine
 10
6989.417031986061
 20
9269.515360473251
 30
0.0
 11
6989.417031986059
 21
9321.915360473253
 31
0.0
  0
LINE
  5
1DCB3
330
1D62A
100
AcDbEntity
  8
U1
100
AcDbLine
 10
6965.417031986061
 20
7525.915360473253
 30
0.0
 11
6933.01703198606
 21
7525.915360473253
 31
0.0
  0
LINE
  5
1DCB4
330
1D62A
100
AcDbEntity
  8
U1
100
AcDbLine
 10
6933.01703198606
 20
7465.515360473251
 30
0.0
 11
6985.41703198606
 21
7465.515360473251
 31
0.0
  0
ARC
  5
1DCB5
330
1D62A
100
AcDbEntity
  8
U1
100
AcDbCircle
 10
6933.01703198606
 20
7469.515360473251
 30
0.0
 40
4.0
100
AcDbArc
 50
180.0
 51
270.0
  0
ARC
  5
1DCB6
330
1D62A
100
AcDbEntity
  8
U1
100
AcDbCircle
 10
6933.01703198606
 20
7521.915360473252
 30
0.0
 40
4.0
100
AcDbArc
 50
90.0
 51
180.0
  0
LINE
  5
1DCB7
330
1D62A
100
AcDbEntity
  8
U1
100
AcDbLine
 10
6929.01703198606
 20
7521.915360473252
 30
0.0
 11
6929.01703198606
 21
7469.515360473251
 31
0.0
  0
ARC
  5
1DCB8
330
1D62A
100
AcDbEntity
  8
U1
100
AcDbCircle
 10
6985.41703198606
 20
7469.515360473251
 30
0.0
 40
4.0
100
AcDbArc
 50
270.0
 51
0.0
  0
ARC
  5
1DCB9
330
1D62A
100
AcDbEntity
  8
U1
100
AcDbCircle
 10
6965.417031986061
 20
7521.915360473252
 30
0.0
 40
4.0
100
AcDbArc
 50
0.0
 51
90.0
  0
ARC
  5
1DCBA
330
1D62A
100
AcDbEntity
  8
U1
100
AcDbCircle
 10
6972.867031986059
 20
7512.665360473251
 30
0.0
 40
1.149999999999977
100
AcDbArc
 50
180.0
 51
0.0
  0
LINE
  5
1DCBB
330
1D62A
100
AcDbEntity
  8
U1
100
AcDbLine
 10
6976.317031986059
 20
7520.215360473251
 30
0.0
 11
6976.317031986059
 21
7512.665360473251
 31
0.0
  0
LINE
  5
1DCBC
330
1D62A
100
AcDbEntity
  8
U1
100
AcDbLine
 10
6974.017031986059
 20
7520.215360473251
 30
0.0
 11
6976.317031986059
 21
7520.215360473251
 31
0.0
  0
LINE
  5
1DCBD
330
1D62A
100
AcDbEntity
  8
U1
100
AcDbLine
 10
6971.717031986061
 20
7513.215360473251
 30
0.0
 11
6974.017031986059
 21
7513.215360473251
 31
0.0
  0
ARC
  5
1DCBE
330
1D62A
100
AcDbEntity
  8
U1
100
AcDbCircle
 10
6972.867031986059
 20
7512.665360473251
 30
0.0
 40
3.450000000000044
100
AcDbArc
 50
180.0
 51
0.0
  0
LINE
  5
1DCBF
330
1D62A
100
AcDbEntity
  8
U1
100
AcDbLine
 10
6971.717031986061
 20
7512.665360473251
 30
0.0
 11
6971.717031986059
 21
7521.915360473251
 31
0.0
  0
LINE
  5
1DCC0
330
1D62A
100
AcDbEntity
  8
U1
100
AcDbLine
 10
6974.017031986059
 20
7521.915360473252
 30
0.0
 11
6974.017031986059
 21
7512.665360473251
 31
0.0
  0
LINE
  5
1DCC1
330
1D62A
100
AcDbEntity
  8
U1
100
AcDbLine
 10
6969.41703198606
 20
7512.665360473251
 30
0.0
 11
6969.41703198606
 21
7521.915360473252
 31
0.0
  0
ARC
  5
1DCC2
330
1D62A
100
AcDbEntity
  8
U1
100
AcDbCircle
 10
6985.41703198606
 20
7521.915360473252
 30
0.0
 40
4.0
100
AcDbArc
 50
0.0
 51
90.0
  0
LINE
  5
1DCC3
330
1D62A
100
AcDbEntity
  8
U1
100
AcDbLine
 10
6985.41703198606
 20
7525.915360473253
 30
0.0
 11
6978.01703198606
 21
7525.915360473253
 31
0.0
  0
ARC
  5
1DCC4
330
1D62A
100
AcDbEntity
  8
U1
100
AcDbCircle
 10
6978.01703198606
 20
7521.915360473252
 30
0.0
 40
4.0
100
AcDbArc
 50
90.0
 51
180.0
  0
LINE
  5
1DCC5
330
1D62A
100
AcDbEntity
  8
U1
100
AcDbLine
 10
6989.417031986061
 20
7469.515360473251
 30
0.0
 11
6989.417031986059
 21
7521.915360473252
 31
0.0
  0
LINE
  5
1DCC6
330
1D62A
100
AcDbEntity
  8
U1
100
AcDbLine
 10
6965.417031986061
 20
5725.915360473251
 30
0.0
 11
6933.01703198606
 21
5725.915360473251
 31
0.0
  0
LINE
  5
1DCC7
330
1D62A
100
AcDbEntity
  8
U1
100
AcDbLine
 10
6933.01703198606
 20
5665.51536047325
 30
0.0
 11
6985.41703198606
 21
5665.51536047325
 31
0.0
  0
ARC
  5
1DCC8
330
1D62A
100
AcDbEntity
  8
U1
100
AcDbCircle
 10
6933.01703198606
 20
5669.51536047325
 30
0.0
 40
4.0
100
AcDbArc
 50
180.0
 51
270.0
  0
ARC
  5
1DCC9
330
1D62A
100
AcDbEntity
  8
U1
100
AcDbCircle
 10
6933.01703198606
 20
5721.915360473252
 30
0.0
 40
4.0
100
AcDbArc
 50
90.0
 51
180.0
  0
LINE
  5
1DCCA
330
1D62A
100
AcDbEntity
  8
U1
100
AcDbLine
 10
6929.01703198606
 20
5721.915360473252
 30
0.0
 11
6929.01703198606
 21
5669.51536047325
 31
0.0
  0
ARC
  5
1DCCB
330
1D62A
100
AcDbEntity
  8
U1
100
AcDbCircle
 10
6985.41703198606
 20
5669.51536047325
 30
0.0
 40
4.0
100
AcDbArc
 50
270.0
 51
0.0
  0
ARC
  5
1DCCC
330
1D62A
100
AcDbEntity
  8
U1
100
AcDbCircle
 10
6965.417031986061
 20
5721.915360473252
 30
0.0
 40
4.0
100
AcDbArc
 50
0.0
 51
90.0
  0
ARC
  5
1DCCD
330
1D62A
100
AcDbEntity
  8
U1
100
AcDbCircle
 10
6972.867031986059
 20
5712.665360473252
 30
0.0
 40
1.149999999999977
100
AcDbArc
 50
180.0
 51
0.0
  0
LINE
  5
1DCCE
330
1D62A
100
AcDbEntity
  8
U1
100
AcDbLine
 10
6976.317031986059
 20
5720.215360473252
 30
0.0
 11
6976.317031986059
 21
5712.665360473252
 31
0.0
  0
LINE
  5
1DCCF
330
1D62A
100
AcDbEntity
  8
U1
100
AcDbLine
 10
6974.017031986059
 20
5720.215360473252
 30
0.0
 11
6976.317031986059
 21
5720.215360473252
 31
0.0
  0
LINE
  5
1DCD0
330
1D62A
100
AcDbEntity
  8
U1
100
AcDbLine
 10
6971.717031986061
 20
5713.215360473252
 30
0.0
 11
6974.017031986059
 21
5713.215360473252
 31
0.0
  0
ARC
  5
1DCD1
330
1D62A
100
AcDbEntity
  8
U1
100
AcDbCircle
 10
6972.867031986059
 20
5712.665360473252
 30
0.0
 40
3.450000000000044
100
AcDbArc
 50
180.0
 51
0.0
  0
LINE
  5
1DCD2
330
1D62A
100
AcDbEntity
  8
U1
100
AcDbLine
 10
6971.717031986061
 20
5712.665360473252
 30
0.0
 11
6971.717031986059
 21
5721.915360473251
 31
0.0
  0
LINE
  5
1DCD3
330
1D62A
100
AcDbEntity
  8
U1
100
AcDbLine
 10
6974.017031986059
 20
5721.915360473252
 30
0.0
 11
6974.017031986059
 21
5712.665360473252
 31
0.0
  0
LINE
  5
1DCD4
330
1D62A
100
AcDbEntity
  8
U1
100
AcDbLine
 10
6969.41703198606
 20
5712.665360473252
 30
0.0
 11
6969.41703198606
 21
5721.915360473252
 31
0.0
  0
ARC
  5
1DCD5
330
1D62A
100
AcDbEntity
  8
U1
100
AcDbCircle
 10
6985.41703198606
 20
5721.915360473252
 30
0.0
 40
4.0
100
AcDbArc
 50
0.0
 51
90.0
  0
LINE
  5
1DCD6
330
1D62A
100
AcDbEntity
  8
U1
100
AcDbLine
 10
6985.41703198606
 20
5725.915360473251
 30
0.0
 11
6978.01703198606
 21
5725.915360473251
 31
0.0
  0
ARC
  5
1DCD7
330
1D62A
100
AcDbEntity
  8
U1
100
AcDbCircle
 10
6978.01703198606
 20
5721.915360473252
 30
0.0
 40
4.0
100
AcDbArc
 50
90.0
 51
180.0
  0
LINE
  5
1DCD8
330
1D62A
100
AcDbEntity
  8
U1
100
AcDbLine
 10
6989.417031986061
 20
5669.51536047325
 30
0.0
 11
6989.417031986059
 21
5721.915360473252
 31
0.0
  0
LINE
  5
1DCD9
330
1D62A
100
AcDbEntity
  8
KISO
100
AcDbLine
 10
6559.21703198606
 20
7095.715360473253
 30
0.0
 11
7359.21703198606
 21
7095.715360473253
 31
0.0
  0
LINE
  5
1DCDA
330
1D62A
100
AcDbEntity
  8
KISO
100
AcDbLine
 10
7359.21703198606
 20
7095.715360473253
 30
0.0
 11
7359.21703198606
 21
7895.715360473253
 31
0.0
  0
LINE
  5
1DCDB
330
1D62A
100
AcDbEntity
  8
KISO
100
AcDbLine
 10
7359.21703198606
 20
7895.715360473253
 30
0.0
 11
6559.21703198606
 21
7895.715360473253
 31
0.0
  0
LINE
  5
1DCDC
330
1D62A
100
AcDbEntity
  8
KISO
100
AcDbLine
 10
6559.21703198606
 20
7895.715360473253
 30
0.0
 11
6559.21703198606
 21
7095.715360473253
 31
0.0
  0
LINE
  5
1DCDD
330
1D62A
100
AcDbEntity
  8
KISO
100
AcDbLine
 10
9009.217031986059
 20
7095.715360473251
 30
0.0
 11
9809.21703198606
 21
7095.715360473251
 31
0.0
  0
LINE
  5
1DCDE
330
1D62A
100
AcDbEntity
  8
KISO
100
AcDbLine
 10
9809.21703198606
 20
7095.715360473251
 30
0.0
 11
9809.21703198606
 21
7895.715360473251
 31
0.0
  0
LINE
  5
1DCDF
330
1D62A
100
AcDbEntity
  8
KISO
100
AcDbLine
 10
9809.21703198606
 20
7895.715360473251
 30
0.0
 11
9009.217031986059
 21
7895.715360473251
 31
0.0
  0
LINE
  5
1DCE0
330
1D62A
100
AcDbEntity
  8
KISO
100
AcDbLine
 10
9009.217031986059
 20
7895.715360473251
 30
0.0
 11
9009.217031986059
 21
7095.715360473251
 31
0.0
  0
LINE
  5
1DCE1
330
1D62A
100
AcDbEntity
  8
YANE
  6
2PL-L
 62
     6
100
AcDbLine
 10
9805.21703198606
 20
5344.715360473252
 30
0.0
 11
6563.217031986058
 21
5344.715360473252
 31
0.0
  0
LINE
  5
1DCE2
330
1D62A
100
AcDbEntity
  8
YANE
  6
2PL-L
 62
     6
100
AcDbLine
 10
6563.217031986058
 20
5344.715360473252
 30
0.0
 11
6563.217031986058
 21
9646.715360473251
 31
0.0
  0
LINE
  5
1DCE3
330
1D62A
100
AcDbEntity
  8
YANE
  6
2PL-L
 62
     6
100
AcDbLine
 10
6563.217031986058
 20
9646.715360473251
 30
0.0
 11
9805.21703198606
 21
9646.715360473251
 31
0.0
  0
LINE
  5
1DCE4
330
1D62A
100
AcDbEntity
  8
YANE
  6
2PL-L
 62
     6
100
AcDbLine
 10
9805.21703198606
 20
9646.715360473251
 30
0.0
 11
9805.21703198606
 21
5344.715360473252
 31
0.0
  0
LINE
  5
1DCE5
330
1D62A
100
AcDbEntity
  8
KISO
100
AcDbLine
 10
6659.217031986059
 20
5395.715360473253
 30
0.0
 11
7259.21703198606
 21
5395.715360473253
 31
0.0
  0
LINE
  5
1DCE6
330
1D62A
100
AcDbEntity
  8
KISO
100
AcDbLine
 10
7259.21703198606
 20
5395.715360473253
 30
0.0
 11
7259.21703198606
 21
5995.715360473252
 31
0.0
  0
LINE
  5
1DCE7
330
1D62A
100
AcDbEntity
  8
KISO
100
AcDbLine
 10
7259.21703198606
 20
5995.715360473252
 30
0.0
 11
6659.217031986059
 21
5995.715360473252
 31
0.0
  0
LINE
  5
1DCE8
330
1D62A
100
AcDbEntity
  8
KISO
100
AcDbLine
 10
6659.217031986059
 20
5995.715360473252
 30
0.0
 11
6659.217031986059
 21
5395.715360473253
 31
0.0
  0
LINE
  5
1DCE9
330
1D62A
100
AcDbEntity
  8
KISO
100
AcDbLine
 10
6659.217031986059
 20
8995.715360473253
 30
0.0
 11
7259.21703198606
 21
8995.715360473253
 31
0.0
  0
LINE
  5
1DCEA
330
1D62A
100
AcDbEntity
  8
KISO
100
AcDbLine
 10
7259.21703198606
 20
8995.715360473253
 30
0.0
 11
7259.21703198606
 21
9595.715360473253
 31
0.0
  0
LINE
  5
1DCEB
330
1D62A
100
AcDbEntity
  8
KISO
100
AcDbLine
 10
7259.21703198606
 20
9595.715360473253
 30
0.0
 11
6659.217031986059
 21
9595.715360473253
 31
0.0
  0
LINE
  5
1DCEC
330
1D62A
100
AcDbEntity
  8
KISO
100
AcDbLine
 10
6659.217031986059
 20
9595.715360473253
 30
0.0
 11
6659.217031986059
 21
8995.715360473253
 31
0.0
  0
LINE
  5
1DCED
330
1D62A
100
AcDbEntity
  8
KISO
100
AcDbLine
 10
9709.217031986066
 20
8995.715360473251
 30
0.0
 11
9109.217031986066
 21
8995.715360473251
 31
0.0
  0
LINE
  5
1DCEE
330
1D62A
100
AcDbEntity
  8
KISO
100
AcDbLine
 10
9109.217031986066
 20
8995.715360473251
 30
0.0
 11
9109.217031986066
 21
9595.715360473251
 31
0.0
  0
LINE
  5
1DCEF
330
1D62A
100
AcDbEntity
  8
KISO
100
AcDbLine
 10
9109.217031986066
 20
9595.715360473251
 30
0.0
 11
9709.217031986066
 21
9595.715360473251
 31
0.0
  0
LINE
  5
1DCF0
330
1D62A
100
AcDbEntity
  8
KISO
100
AcDbLine
 10
9709.217031986066
 20
9595.715360473251
 30
0.0
 11
9709.217031986066
 21
8995.715360473251
 31
0.0
  0
LINE
  5
1DCF1
330
1D62A
100
AcDbEntity
  8
KISO
100
AcDbLine
 10
9709.217031986066
 20
5395.71536047325
 30
0.0
 11
9109.217031986066
 21
5395.71536047325
 31
0.0
  0
LINE
  5
1DCF2
330
1D62A
100
AcDbEntity
  8
KISO
100
AcDbLine
 10
9109.217031986066
 20
5395.71536047325
 30
0.0
 11
9109.217031986066
 21
5995.71536047325
 31
0.0
  0
LINE
  5
1DCF3
330
1D62A
100
AcDbEntity
  8
KISO
100
AcDbLine
 10
9109.217031986066
 20
5995.71536047325
 30
0.0
 11
9709.217031986066
 21
5995.71536047325
 31
0.0
  0
LINE
  5
1DCF4
330
1D62A
100
AcDbEntity
  8
KISO
100
AcDbLine
 10
9709.217031986066
 20
5995.71536047325
 30
0.0
 11
9709.217031986066
 21
5395.71536047325
 31
0.0
  0
LINE
  5
1DCF5
330
1D62A
100
AcDbEntity
  8
U3
100
AcDbLine
 10
10088.41895111316
 20
3532.805920524933
 30
0.0
 11
10316.1943362865
 21
3927.324460358768
 31
0.0
1001
ACAD
1000
DSTYLE
1002
{
1070
   147
1040
1.0
1070
    77
1070
     0
1002
}
  0
LINE
  5
1DCF6
330
1D62A
100
AcDbEntity
  8
0
100
AcDbLine
 10
10076.87194572937
 20
3539.4725871916
 30
0.0
 11
10048.41895111316
 21
3463.523888222177
 31
0.0
  0
LINE
  5
1DCF7
330
1D62A
100
AcDbEntity
  8
0
100
AcDbLine
 10
10048.41895111316
 20
3463.523888222177
 30
0.0
 11
10099.96595649696
 21
3526.139253858267
 31
0.0
  0
SOLID
  5
1DCF8
330
1D62A
100
AcDbEntity
  8
0
100
AcDbTrace
 10
10076.87194572937
 20
3539.4725871916
 30
0.0
 11
10099.96595649696
 21
3526.139253858267
 31
0.0
 12
10048.41895111316
 22
3463.523888222177
 32
0.0
 13
10048.41895111316
 23
3463.523888222177
 33
0.0
  0
LINE
  5
1DCF9
330
1D62A
100
AcDbEntity
  8
0
100
AcDbLine
 10
10099.96595649696
 20
3526.139253858267
 30
0.0
 11
10076.87194572937
 21
3539.4725871916
 31
0.0
  0
ARC
  5
1DCFA
330
1D62A
100
AcDbEntity
  8
U1
100
AcDbCircle
 10
9435.417031986061
 20
9321.915360473253
 30
0.0
 40
6.299999999999272
100
AcDbArc
 50
359.9999999999833
 51
90.0
  0
LINE
  5
1DCFB
330
1D62A
100
AcDbEntity
  8
U1
100
AcDbLine
 10
9435.417031986061
 20
9328.215360473249
 30
0.0
 11
9428.017031986057
 21
9328.215360473249
 31
0.0
  0
ARC
  5
1DCFC
330
1D62A
100
AcDbEntity
  8
U1
100
AcDbCircle
 10
9428.017031986057
 20
9321.915360473253
 30
0.0
 40
6.299999999999272
100
AcDbArc
 50
90.0
 51
180.0000000000165
  0
ARC
  5
1DCFD
330
1D62A
100
AcDbEntity
  8
U1
100
AcDbCircle
 10
9415.417031986057
 20
9321.915360473253
 30
0.0
 40
6.300000000001091
100
AcDbArc
 50
359.9999999999833
 51
89.99999999998346
  0
LINE
  5
1DCFE
330
1D62A
100
AcDbEntity
  8
U1
100
AcDbLine
 10
9415.417031986061
 20
9328.215360473249
 30
0.0
 11
9383.017031986055
 21
9328.215360473249
 31
0.0
  0
ARC
  5
1DCFF
330
1D62A
100
AcDbEntity
  8
U1
100
AcDbCircle
 10
9383.017031986055
 20
9321.915360473253
 30
0.0
 40
6.299999999999272
100
AcDbArc
 50
90.0
 51
180.0000000000165
  0
LINE
  5
1DD00
330
1D62A
100
AcDbEntity
  8
U1
100
AcDbLine
 10
9376.717031986059
 20
9321.91536047325
 30
0.0
 11
9376.717031986059
 21
9269.515360473247
 31
0.0
  0
ARC
  5
1DD01
330
1D62A
100
AcDbEntity
  8
U1
100
AcDbCircle
 10
9383.017031986055
 20
9269.515360473247
 30
0.0
 40
6.299999999999272
100
AcDbArc
 50
180.0
 51
270.0
  0
LINE
  5
1DD02
330
1D62A
100
AcDbEntity
  8
U1
100
AcDbLine
 10
9383.017031986055
 20
9263.215360473251
 30
0.0
 11
9435.417031986061
 21
9263.215360473251
 31
0.0
  0
ARC
  5
1DD03
330
1D62A
100
AcDbEntity
  8
U1
100
AcDbCircle
 10
9435.417031986061
 20
9269.515360473247
 30
0.0
 40
6.299999999999272
100
AcDbArc
 50
270.0
 51
0.0
  0
LINE
  5
1DD04
330
1D62A
100
AcDbEntity
  8
U1
100
AcDbLine
 10
9441.71703198606
 20
9269.515360473247
 30
0.0
 11
9441.71703198606
 21
9321.91536047325
 31
0.0
  0
ARC
  5
1DD05
330
1D62A
100
AcDbEntity
  8
U1
100
AcDbCircle
 10
9435.417031986061
 20
7521.915360473251
 30
0.0
 40
6.299999999999272
100
AcDbArc
 50
359.9999999999917
 51
90.0
  0
LINE
  5
1DD06
330
1D62A
100
AcDbEntity
  8
U1
100
AcDbLine
 10
9435.417031986061
 20
7528.21536047325
 30
0.0
 11
9428.017031986057
 21
7528.21536047325
 31
0.0
  0
ARC
  5
1DD07
330
1D62A
100
AcDbEntity
  8
U1
100
AcDbCircle
 10
9428.017031986057
 20
7521.915360473251
 30
0.0
 40
6.299999999999272
100
AcDbArc
 50
90.0
 51
180.0000000000082
  0
ARC
  5
1DD08
330
1D62A
100
AcDbEntity
  8
U1
100
AcDbCircle
 10
9415.417031986061
 20
7521.915360473251
 30
0.0
 40
6.299999999999272
100
AcDbArc
 50
359.9999999999917
 51
90.0
  0
LINE
  5
1DD09
330
1D62A
100
AcDbEntity
  8
U1
100
AcDbLine
 10
9415.417031986061
 20
7528.21536047325
 30
0.0
 11
9383.017031986055
 21
7528.21536047325
 31
0.0
  0
ARC
  5
1DD0A
330
1D62A
100
AcDbEntity
  8
U1
100
AcDbCircle
 10
9383.017031986055
 20
7521.915360473251
 30
0.0
 40
6.299999999999272
100
AcDbArc
 50
90.0
 51
180.0000000000082
  0
LINE
  5
1DD0B
330
1D62A
100
AcDbEntity
  8
U1
100
AcDbLine
 10
9376.717031986059
 20
7521.91536047325
 30
0.0
 11
9376.717031986059
 21
7469.515360473248
 31
0.0
  0
ARC
  5
1DD0C
330
1D62A
100
AcDbEntity
  8
U1
100
AcDbCircle
 10
9383.017031986055
 20
7469.515360473248
 30
0.0
 40
6.299999999999272
100
AcDbArc
 50
180.0
 51
270.0
  0
LINE
  5
1DD0D
330
1D62A
100
AcDbEntity
  8
U1
100
AcDbLine
 10
9383.017031986055
 20
7463.215360473251
 30
0.0
 11
9435.417031986061
 21
7463.215360473251
 31
0.0
  0
ARC
  5
1DD0E
330
1D62A
100
AcDbEntity
  8
U1
100
AcDbCircle
 10
9435.417031986061
 20
7469.515360473248
 30
0.0
 40
6.299999999999272
100
AcDbArc
 50
270.0
 51
0.0
  0
LINE
  5
1DD0F
330
1D62A
100
AcDbEntity
  8
U1
100
AcDbLine
 10
9441.71703198606
 20
7469.515360473248
 30
0.0
 11
9441.71703198606
 21
7521.91536047325
 31
0.0
  0
ARC
  5
1DD10
330
1D62A
100
AcDbEntity
  8
U1
100
AcDbCircle
 10
9435.417031986061
 20
5721.915360473251
 30
0.0
 40
6.299999999999272
100
AcDbArc
 50
359.9999999999917
 51
90.0
  0
LINE
  5
1DD11
330
1D62A
100
AcDbEntity
  8
U1
100
AcDbLine
 10
9435.417031986061
 20
5728.215360473249
 30
0.0
 11
9428.017031986057
 21
5728.215360473249
 31
0.0
  0
ARC
  5
1DD12
330
1D62A
100
AcDbEntity
  8
U1
100
AcDbCircle
 10
9428.017031986057
 20
5721.915360473251
 30
0.0
 40
6.299999999999272
100
AcDbArc
 50
90.0
 51
180.0000000000082
  0
ARC
  5
1DD13
330
1D62A
100
AcDbEntity
  8
U1
100
AcDbCircle
 10
9415.417031986061
 20
5721.915360473251
 30
0.0
 40
6.299999999999272
100
AcDbArc
 50
359.9999999999917
 51
90.0
  0
LINE
  5
1DD14
330
1D62A
100
AcDbEntity
  8
U1
100
AcDbLine
 10
9415.417031986061
 20
5728.215360473249
 30
0.0
 11
9383.017031986055
 21
5728.215360473249
 31
0.0
  0
ARC
  5
1DD15
330
1D62A
100
AcDbEntity
  8
U1
100
AcDbCircle
 10
9383.017031986055
 20
5721.915360473251
 30
0.0
 40
6.299999999999272
100
AcDbArc
 50
90.0
 51
180.0000000000082
  0
LINE
  5
1DD16
330
1D62A
100
AcDbEntity
  8
U1
100
AcDbLine
 10
9376.717031986059
 20
5721.915360473249
 30
0.0
 11
9376.717031986059
 21
5669.515360473249
 31
0.0
  0
ARC
  5
1DD17
330
1D62A
100
AcDbEntity
  8
U1
100
AcDbCircle
 10
9383.017031986055
 20
5669.515360473249
 30
0.0
 40
6.299999999999272
100
AcDbArc
 50
180.0
 51
270.0
  0
LINE
  5
1DD18
330
1D62A
100
AcDbEntity
  8
U1
100
AcDbLine
 10
9383.017031986055
 20
5663.215360473249
 30
0.0
 11
9435.417031986061
 21
5663.215360473249
 31
0.0
  0
ARC
  5
1DD19
330
1D62A
100
AcDbEntity
  8
U1
100
AcDbCircle
 10
9435.417031986061
 20
5669.515360473249
 30
0.0
 40
6.299999999999272
100
AcDbArc
 50
270.0
 51
0.0
  0
LINE
  5
1DD1A
330
1D62A
100
AcDbEntity
  8
U1
100
AcDbLine
 10
9441.71703198606
 20
5669.515360473249
 30
0.0
 11
9441.71703198606
 21
5721.915360473249
 31
0.0
  0
ARC
  5
1DD1B
330
1D62A
100
AcDbEntity
  8
U1
100
AcDbCircle
 10
6985.41703198606
 20
9321.915360473253
 30
0.0
 40
6.299999999999272
100
AcDbArc
 50
0.0
 51
90.00000000000826
  0
LINE
  5
1DD1C
330
1D62A
100
AcDbEntity
  8
U1
100
AcDbLine
 10
6985.41703198606
 20
9328.215360473253
 30
0.0
 11
6978.01703198606
 21
9328.215360473253
 31
0.0
  0
ARC
  5
1DD1D
330
1D62A
100
AcDbEntity
  8
U1
100
AcDbCircle
 10
6978.01703198606
 20
9321.915360473253
 30
0.0
 40
6.299999999999272
100
AcDbArc
 50
89.99999999999173
 51
180.0
  0
ARC
  5
1DD1E
330
1D62A
100
AcDbEntity
  8
U1
100
AcDbCircle
 10
6965.417031986061
 20
9321.915360473253
 30
0.0
 40
6.299999999999272
100
AcDbArc
 50
0.0
 51
90.00000000000826
  0
LINE
  5
1DD1F
330
1D62A
100
AcDbEntity
  8
U1
100
AcDbLine
 10
6965.41703198606
 20
9328.215360473253
 30
0.0
 11
6933.01703198606
 21
9328.215360473253
 31
0.0
  0
ARC
  5
1DD20
330
1D62A
100
AcDbEntity
  8
U1
100
AcDbCircle
 10
6933.017031986058
 20
9321.915360473253
 30
0.0
 40
6.299999999999272
100
AcDbArc
 50
89.99999999999173
 51
180.0
  0
LINE
  5
1DD21
330
1D62A
100
AcDbEntity
  8
U1
100
AcDbLine
 10
6926.71703198606
 20
9321.915360473253
 30
0.0
 11
6926.71703198606
 21
9269.515360473251
 31
0.0
  0
ARC
  5
1DD22
330
1D62A
100
AcDbEntity
  8
U1
100
AcDbCircle
 10
6933.017031986058
 20
9269.515360473251
 30
0.0
 40
6.299999999999272
100
AcDbArc
 50
180.0
 51
270.0000000000081
  0
LINE
  5
1DD23
330
1D62A
100
AcDbEntity
  8
U1
100
AcDbLine
 10
6933.01703198606
 20
9263.215360473251
 30
0.0
 11
6985.41703198606
 21
9263.215360473251
 31
0.0
  0
ARC
  5
1DD24
330
1D62A
100
AcDbEntity
  8
U1
100
AcDbCircle
 10
6985.41703198606
 20
9269.515360473251
 30
0.0
 40
6.299999999999272
100
AcDbArc
 50
269.9999999999918
 51
0.0
  0
LINE
  5
1DD25
330
1D62A
100
AcDbEntity
  8
U1
100
AcDbLine
 10
6991.71703198606
 20
9269.515360473251
 30
0.0
 11
6991.71703198606
 21
9321.915360473253
 31
0.0
  0
ARC
  5
1DD26
330
1D62A
100
AcDbEntity
  8
U1
100
AcDbCircle
 10
6985.41703198606
 20
7521.915360473252
 30
0.0
 40
6.299999999999272
100
AcDbArc
 50
359.9999999999917
 51
90.00000000000826
  0
LINE
  5
1DD27
330
1D62A
100
AcDbEntity
  8
U1
100
AcDbLine
 10
6985.41703198606
 20
7528.215360473253
 30
0.0
 11
6978.01703198606
 21
7528.215360473253
 31
0.0
  0
ARC
  5
1DD28
330
1D62A
100
AcDbEntity
  8
U1
100
AcDbCircle
 10
6978.01703198606
 20
7521.915360473252
 30
0.0
 40
6.299999999999272
100
AcDbArc
 50
89.99999999999173
 51
180.0000000000082
  0
ARC
  5
1DD29
330
1D62A
100
AcDbEntity
  8
U1
100
AcDbCircle
 10
6965.41703198606
 20
7521.915360473252
 30
0.0
 40
6.300000000000181
100
AcDbArc
 50
0.0
 51
90.0
  0
LINE
  5
1DD2A
330
1D62A
100
AcDbEntity
  8
U1
100
AcDbLine
 10
6965.41703198606
 20
7528.215360473253
 30
0.0
 11
6933.01703198606
 21
7528.215360473253
 31
0.0
  0
ARC
  5
1DD2B
330
1D62A
100
AcDbEntity
  8
U1
100
AcDbCircle
 10
6933.017031986058
 20
7521.915360473252
 30
0.0
 40
6.299999999999272
100
AcDbArc
 50
89.99999999999173
 51
180.0000000000082
  0
LINE
  5
1DD2C
330
1D62A
100
AcDbEntity
  8
U1
100
AcDbLine
 10
6926.71703198606
 20
7521.915360473252
 30
0.0
 11
6926.71703198606
 21
7469.515360473251
 31
0.0
  0
ARC
  5
1DD2D
330
1D62A
100
AcDbEntity
  8
U1
100
AcDbCircle
 10
6933.017031986058
 20
7469.515360473251
 30
0.0
 40
6.299999999999272
100
AcDbArc
 50
180.0
 51
270.0000000000081
  0
LINE
  5
1DD2E
330
1D62A
100
AcDbEntity
  8
U1
100
AcDbLine
 10
6933.01703198606
 20
7463.215360473251
 30
0.0
 11
6985.41703198606
 21
7463.215360473251
 31
0.0
  0
ARC
  5
1DD2F
330
1D62A
100
AcDbEntity
  8
U1
100
AcDbCircle
 10
6985.41703198606
 20
7469.515360473251
 30
0.0
 40
6.299999999999272
100
AcDbArc
 50
269.9999999999918
 51
0.0
  0
LINE
  5
1DD30
330
1D62A
100
AcDbEntity
  8
U1
100
AcDbLine
 10
6991.71703198606
 20
7469.515360473251
 30
0.0
 11
6991.71703198606
 21
7521.915360473252
 31
0.0
  0
ARC
  5
1DD31
330
1D62A
100
AcDbEntity
  8
U1
100
AcDbCircle
 10
6985.41703198606
 20
5721.915360473253
 30
0.0
 40
6.299999999999272
100
AcDbArc
 50
359.9999999999917
 51
90.00000000000826
  0
LINE
  5
1DD32
330
1D62A
100
AcDbEntity
  8
U1
100
AcDbLine
 10
6985.41703198606
 20
5728.215360473252
 30
0.0
 11
6978.01703198606
 21
5728.215360473252
 31
0.0
  0
ARC
  5
1DD33
330
1D62A
100
AcDbEntity
  8
U1
100
AcDbCircle
 10
6978.01703198606
 20
5721.915360473253
 30
0.0
 40
6.299999999999272
100
AcDbArc
 50
89.99999999999173
 51
180.0000000000082
  0
ARC
  5
1DD34
330
1D62A
100
AcDbEntity
  8
U1
100
AcDbCircle
 10
6965.41703198606
 20
5721.915360473252
 30
0.0
 40
6.300000000000181
100
AcDbArc
 50
0.0
 51
90.0
  0
LINE
  5
1DD35
330
1D62A
100
AcDbEntity
  8
U1
100
AcDbLine
 10
6965.41703198606
 20
5728.215360473252
 30
0.0
 11
6933.01703198606
 21
5728.215360473252
 31
0.0
  0
ARC
  5
1DD36
330
1D62A
100
AcDbEntity
  8
U1
100
AcDbCircle
 10
6933.017031986058
 20
5721.915360473253
 30
0.0
 40
6.299999999999272
100
AcDbArc
 50
89.99999999999173
 51
180.0000000000082
  0
LINE
  5
1DD37
330
1D62A
100
AcDbEntity
  8
U1
100
AcDbLine
 10
6926.71703198606
 20
5721.915360473252
 30
0.0
 11
6926.71703198606
 21
5669.51536047325
 31
0.0
  0
ARC
  5
1DD38
330
1D62A
100
AcDbEntity
  8
U1
100
AcDbCircle
 10
6933.017031986058
 20
5669.51536047325
 30
0.0
 40
6.299999999999272
100
AcDbArc
 50
180.0
 51
270.0000000000081
  0
LINE
  5
1DD39
330
1D62A
100
AcDbEntity
  8
U1
100
AcDbLine
 10
6933.01703198606
 20
5663.215360473252
 30
0.0
 11
6985.41703198606
 21
5663.215360473252
 31
0.0
  0
ARC
  5
1DD3A
330
1D62A
100
AcDbEntity
  8
U1
100
AcDbCircle
 10
6985.41703198606
 20
5669.51536047325
 30
0.0
 40
6.299999999999272
100
AcDbArc
 50
269.9999999999918
 51
0.0
  0
LINE
  5
1DD3B
330
1D62A
100
AcDbEntity
  8
U1
100
AcDbLine
 10
6991.71703198606
 20
5669.51536047325
 30
0.0
 11
6991.71703198606
 21
5721.915360473252
 31
0.0
  0
ENDSEC
  0
SECTION
  2
OBJECTS
  0
DICTIONARY
  5
1D618
330
0
100
AcDbDictionary
281
     1
  3
ACAD_GROUP
350
1D619
  3
ACAD_LAYOUT
350
1D625
  3
ACAD_MLINESTYLE
350
1D622
  3
ACAD_PLOTSETTINGS
350
1D624
  3
ACAD_PLOTSTYLENAME
350
1D61A
  3
AcDbVariableDictionary
350
1DD3C
  0
DICTIONARY
  5
1D619
102
{ACAD_REACTORS
330
1D618
102
}
330
1D618
100
AcDbDictionary
281
     1
  0
DICTIONARY
  5
1D625
102
{ACAD_REACTORS
330
1D618
102
}
330
1D618
100
AcDbDictionary
281
     1
  3
Model
350
1D62D
  3
ﾚｲｱｳﾄ1
350
1D629
  0
DICTIONARY
  5
1D622
102
{ACAD_REACTORS
330
1D618
102
}
330
1D618
100
AcDbDictionary
281
     1
  3
Standard
350
1D623
  0
DICTIONARY
  5
1D624
102
{ACAD_REACTORS
330
1D618
102
}
330
1D618
100
AcDbDictionary
281
     1
  0
ACDBDICTIONARYWDFLT
  5
1D61A
102
{ACAD_REACTORS
330
1D618
102
}
330
1D618
100
AcDbDictionary
281
     1
  3
Normal
350
1D61B
100
AcDbDictionaryWithDefault
340
1D61B
  0
DICTIONARY
  5
1DD3C
102
{ACAD_REACTORS
330
1D618
102
}
330
1D618
100
AcDbDictionary
281
     1
  3
DIMASSOC
350
1DD3D
  0
LAYOUT
  5
1D62D
102
{ACAD_REACTORS
330
1D625
102
}
330
1D625
100
AcDbPlotSettings
  1

  2
Muratec V-1200 Is@Web Printer
  4

  6

 40
0.0
 41
0.0
 42
0.0
 43
0.0
 44
0.0
 45
0.0
 46
0.0
 47
0.0
 48
0.0
 49
0.0
140
0.0
141
0.0
142
1.0
143
1.0
 70
  1712
 72
     0
 73
     0
 74
     0
  7

 75
     0
147
1.0
148
0.0
149
0.0
100
AcDbLayout
  1
Model
 70
     1
 71
     0
 10
0.0
 20
0.0
 11
12.0
 21
9.0
 12
0.0
 22
0.0
 32
0.0
 14
0.0
 24
0.0
 34
0.0
 15
0.0
 25
0.0
 35
0.0
146
0.0
 13
0.0
 23
0.0
 33
0.0
 16
1.0
 26
0.0
 36
0.0
 17
0.0
 27
1.0
 37
0.0
 76
     0
330
1D62A
  0
LAYOUT
  5
1D629
102
{ACAD_REACTORS
330
1D625
102
}
330
1D625
100
AcDbPlotSettings
  1

  2
Muratec V-1200 Is@Web Printer
  4

  6

 40
0.0
 41
0.0
 42
0.0
 43
0.0
 44
0.0
 45
0.0
 46
0.0
 47
0.0
 48
0.0
 49
0.0
140
0.0
141
0.0
142
1.0
143
1.0
 70
   688
 72
     0
 73
     0
 74
     5
  7

 75
    16
147
1.0
148
0.0
149
0.0
100
AcDbLayout
  1
ﾚｲｱｳﾄ1
 70
     0
 71
     1
 10
0.0
 20
0.0
 11
12.0
 21
9.0
 12
0.0
 22
0.0
 32
0.0
 14
1.000000000000000E+20
 24
1.000000000000000E+20
 34
1.000000000000000E+20
 15
-1.000000000000000E+20
 25
-1.000000000000000E+20
 35
-1.000000000000000E+20
146
0.0
 13
0.0
 23
0.0
 33
0.0
 16
1.0
 26
0.0
 36
0.0
 17
0.0
 27
1.0
 37
0.0
 76
     0
330
1D626
  0
MLINESTYLE
  5
1D623
102
{ACAD_REACTORS
330
1D622
102
}
330
1D622
100
AcDbMlineStyle
  2
STANDARD
 70
     0
  3

 62
   256
 51
90.0
 52
90.0
 71
     2
 49
0.5
 62
   256
  6
BYLAYER
 49
-0.5
 62
   256
  6
BYLAYER
  0
ACDBPLACEHOLDER
  5
1D61B
102
{ACAD_REACTORS
330
1D61A
102
}
330
1D61A
  0
DICTIONARYVAR
  5
1DD3D
102
{ACAD_REACTORS
330
1DD3C
102
}
330
1DD3C
100
DictionaryVariables
280
     0
  1
1
  0
ENDSEC
  0
EOF
