  0
SECTION
  2
HEADER
  9
$ACADVER
  1
AC1015
  9
$ACADMAINTVER
 70
    13
  9
$DWGCODEPAGE
  3
ANSI_932
  9
$INSBASE
 10
267.0
 20
194.8999999999998
 30
0.0
  9
$EXTMIN
 10
433.9966216520333
 20
163.6908237492789
 30
-0.000000000000013
  9
$EXTMAX
 10
16382.6660542547
 20
11242.27663824599
 30
0.0000000000000023
  9
$LIMMIN
 10
0.0
 20
0.0
  9
$LIMMAX
 10
16800.0
 20
11880.0
  9
$ORTHOMODE
 70
     0
  9
$REGENMODE
 70
     1
  9
$FILLMODE
 70
     1
  9
$QTEXTMODE
 70
     0
  9
$MIRRTEXT
 70
     0
  9
$LTSCALE
 40
40.0
  9
$ATTMODE
 70
     1
  9
$TEXTSIZE
 40
0.2
  9
$TRACEWID
 40
0.05
  9
$TEXTSTYLE
  7
00
  9
$CLAYER
  8
HIKIDASHI
  9
$CELTYPE
  6
ByLayer
  9
$CECOLOR
 62
   256
  9
$CELTSCALE
 40
1.0
  9
$DISPSILH
 70
     0
  9
$DIMSCALE
 40
40.0
  9
$DIMASZ
 40
0.5
  9
$DIMEXO
 40
1.0
  9
$DIMDLI
 40
7.0
  9
$DIMRND
 40
0.0
  9
$DIMDLE
 40
3.0
  9
$DIMEXE
 40
1.0
  9
$DIMTP
 40
0.0
  9
$DIMTM
 40
0.0
  9
$DIMTXT
 40
2.0
  9
$DIMCEN
 40
0.0
  9
$DIMTSZ
 40
0.0
  9
$DIMTOL
 70
     0
  9
$DIMLIM
 70
     0
  9
$DIMTIH
 70
     0
  9
$DIMTOH
 70
     0
  9
$DIMSE1
 70
     0
  9
$DIMSE2
 70
     0
  9
$DIMTAD
 70
     1
  9
$DIMZIN
 70
     8
  9
$DIMBLK
  1
DOT
  9
$DIMASO
 70
     1
  9
$DIMSHO
 70
     0
  9
$DIMPOST
  1

  9
$DIMAPOST
  1

  9
$DIMALT
 70
     0
  9
$DIMALTD
 70
     2
  9
$DIMALTF
 40
25.4
  9
$DIMLFAC
 40
1.0
  9
$DIMTOFL
 70
     1
  9
$DIMTVP
 40
0.0
  9
$DIMTIX
 70
     0
  9
$DIMSOXD
 70
     0
  9
$DIMSAH
 70
     1
  9
$DIMBLK1
  1
DOT
  9
$DIMBLK2
  1
DOT
  9
$DIMSTYLE
  2
SUNPOU_申請図
  9
$DIMCLRD
 70
   256
  9
$DIMCLRE
 70
   256
  9
$DIMCLRT
 70
   256
  9
$DIMTFAC
 40
1.0
  9
$DIMGAP
 40
1.0
  9
$DIMJUST
 70
     0
  9
$DIMSD1
 70
     0
  9
$DIMSD2
 70
     0
  9
$DIMTOLJ
 70
     1
  9
$DIMTZIN
 70
     0
  9
$DIMALTZ
 70
     0
  9
$DIMALTTZ
 70
     0
  9
$DIMUPT
 70
     0
  9
$DIMDEC
 70
     2
  9
$DIMTDEC
 70
     2
  9
$DIMALTU
 70
     2
  9
$DIMALTTD
 70
     2
  9
$DIMTXSTY
  7
STANDARD
  9
$DIMAUNIT
 70
     0
  9
$DIMADEC
 70
     0
  9
$DIMALTRND
 40
0.0
  9
$DIMAZIN
 70
     0
  9
$DIMDSEP
 70
    46
  9
$DIMATFIT
 70
     3
  9
$DIMFRAC
 70
     0
  9
$DIMLDRBLK
  1

  9
$DIMLUNIT
 70
     2
  9
$DIMLWD
 70
    -2
  9
$DIMLWE
 70
    -2
  9
$DIMTMOVE
 70
     2
  9
$LUNITS
 70
     2
  9
$LUPREC
 70
     2
  9
$SKETCHINC
 40
0.1
  9
$FILLETRAD
 40
0.0
  9
$AUNITS
 70
     0
  9
$AUPREC
 70
     0
  9
$MENU
  1
A:\TIGER\MENU\TIGER
  9
$ELEVATION
 40
0.0
  9
$PELEVATION
 40
0.0
  9
$THICKNESS
 40
0.0
  9
$LIMCHECK
 70
     0
  9
$CHAMFERA
 40
0.0
  9
$CHAMFERB
 40
0.0
  9
$CHAMFERC
 40
1.0
  9
$CHAMFERD
 40
0.0
  9
$SKPOLY
 70
     0
  9
$TDCREATE
 40
2450266.571064815
  9
$TDUCREATE
 40
2450266.196064815
  9
$TDUPDATE
 40
2456331.646101886
  9
$TDUUPDATE
 40
2456331.271101886
  9
$TDINDWG
 40
0.1706311111
  9
$TDUSRTIMER
 40
0.1706311111
  9
$USRTIMER
 70
     1
  9
$ANGBASE
 50
0.0
  9
$ANGDIR
 70
     0
  9
$PDMODE
 70
     0
  9
$PDSIZE
 40
0.0
  9
$PLINEWID
 40
0.0
  9
$SPLFRAME
 70
     0
  9
$SPLINETYPE
 70
     6
  9
$SPLINESEGS
 70
     8
  9
$HANDSEED
  5
17BE1
  9
$SURFTAB1
 70
     6
  9
$SURFTAB2
 70
     6
  9
$SURFTYPE
 70
     6
  9
$SURFU
 70
     6
  9
$SURFV
 70
     6
  9
$UCSBASE
  2

  9
$UCSNAME
  2

  9
$UCSORG
 10
0.0
 20
0.0
 30
0.0
  9
$UCSXDIR
 10
1.0
 20
0.0
 30
0.0
  9
$UCSYDIR
 10
0.0
 20
1.0
 30
0.0
  9
$UCSORTHOREF
  2

  9
$UCSORTHOVIEW
 70
     0
  9
$UCSORGTOP
 10
0.0
 20
0.0
 30
0.0
  9
$UCSORGBOTTOM
 10
0.0
 20
0.0
 30
0.0
  9
$UCSORGLEFT
 10
0.0
 20
0.0
 30
0.0
  9
$UCSORGRIGHT
 10
0.0
 20
0.0
 30
0.0
  9
$UCSORGFRONT
 10
0.0
 20
0.0
 30
0.0
  9
$UCSORGBACK
 10
0.0
 20
0.0
 30
0.0
  9
$PUCSBASE
  2

  9
$PUCSNAME
  2

  9
$PUCSORG
 10
0.0
 20
0.0
 30
0.0
  9
$PUCSXDIR
 10
1.0
 20
0.0
 30
0.0
  9
$PUCSYDIR
 10
0.0
 20
1.0
 30
0.0
  9
$PUCSORTHOREF
  2

  9
$PUCSORTHOVIEW
 70
     0
  9
$PUCSORGTOP
 10
0.0
 20
0.0
 30
0.0
  9
$PUCSORGBOTTOM
 10
0.0
 20
0.0
 30
0.0
  9
$PUCSORGLEFT
 10
0.0
 20
0.0
 30
0.0
  9
$PUCSORGRIGHT
 10
0.0
 20
0.0
 30
0.0
  9
$PUCSORGFRONT
 10
0.0
 20
0.0
 30
0.0
  9
$PUCSORGBACK
 10
0.0
 20
0.0
 30
0.0
  9
$USERI1
 70
     3
  9
$USERI2
 70
     0
  9
$USERI3
 70
     0
  9
$USERI4
 70
     0
  9
$USERI5
 70
  1103
  9
$USERR1
 40
0.0
  9
$USERR2
 40
1.0
  9
$USERR3
 40
0.0
  9
$USERR4
 40
0.0
  9
$USERR5
 40
0.0
  9
$WORLDVIEW
 70
     1
  9
$SHADEDGE
 70
     3
  9
$SHADEDIF
 70
    70
  9
$TILEMODE
 70
     1
  9
$MAXACTVP
 70
    16
  9
$PINSBASE
 10
0.0
 20
0.0
 30
0.0
  9
$PLIMCHECK
 70
     0
  9
$PEXTMIN
 10
1.000000000000000E+20
 20
1.000000000000000E+20
 30
1.000000000000000E+20
  9
$PEXTMAX
 10
-1.000000000000000E+20
 20
-1.000000000000000E+20
 30
-1.000000000000000E+20
  9
$PLIMMIN
 10
0.0
 20
0.0
  9
$PLIMMAX
 10
12.0
 20
9.0
  9
$UNITMODE
 70
     0
  9
$VISRETAIN
 70
     0
  9
$PLINEGEN
 70
     1
  9
$PSLTSCALE
 70
     0
  9
$TREEDEPTH
 70
  3020
  9
$CMLSTYLE
  2
Standard
  9
$CMLJUST
 70
     0
  9
$CMLSCALE
 40
1.0
  9
$PROXYGRAPHICS
 70
     1
  9
$MEASUREMENT
 70
     0
  9
$CELWEIGHT
370
    -1
  9
$ENDCAPS
280
     0
  9
$JOINSTYLE
280
     0
  9
$LWDISPLAY
290
     0
  9
$INSUNITS
 70
     0
  9
$HYPERLINKBASE
  1

  9
$STYLESHEET
  1

  9
$XEDIT
290
     1
  9
$CEPSNTYPE
380
     0
  9
$PSTYLEMODE
290
     1
  9
$FINGERPRINTGUID
  2
{D7B46BD9-DB9F-4AA4-AB6A-544889F4F96E}
  9
$VERSIONGUID
  2
{D10681D2-D14F-4A84-A0F5-94B78049766E}
  9
$EXTNAMES
290
     1
  9
$PSVPSCALE
 40
0.0
  9
$OLESTARTUP
290
     0
  0
ENDSEC
  0
SECTION
  2
CLASSES
  0
CLASS
  1
ACDBDICTIONARYWDFLT
  2
AcDbDictionaryWithDefault
  3
AutoCAD 2000
 90
        0
280
     0
281
     0
  0
CLASS
  1
ACDBPLACEHOLDER
  2
AcDbPlaceHolder
  3
AutoCAD 2000
 90
        0
280
     0
281
     0
  0
CLASS
  1
LAYOUT
  2
AcDbLayout
  3
AutoCAD 2000
 90
        0
280
     0
281
     0
  0
CLASS
  1
DICTIONARYVAR
  2
AcDbDictionaryVar
  3
AutoCAD 2000
 90
        0
280
     0
281
     0
  0
ENDSEC
  0
SECTION
  2
TABLES
  0
TABLE
  2
VPORT
  5
17B58
330
0
100
AcDbSymbolTable
 70
     2
  0
VPORT
  5
17BE0
330
17B58
100
AcDbSymbolTableRecord
100
AcDbViewportTableRecord
  2
*Active
 70
     0
 10
0.0
 20
0.0
 11
1.0
 21
1.0
 12
8408.331337953368
 22
5702.983730997637
 13
0.0
 23
0.0
 14
1.0
 24
1.0
 15
0.0
 25
0.0
 16
0.0
 26
0.0
 36
1.0
 17
0.0
 27
0.0
 37
0.0
 40
12985.73988638911
 41
1.236040609137055
 42
50.0
 43
0.0
 44
0.0
 50
0.0
 51
0.0
 71
     0
 72
 10000
 73
     1
 74
     0
 75
     0
 76
     0
 77
     0
 78
     0
281
     0
 65
     0
110
0.0
120
0.0
130
0.0
111
1.0
121
0.0
131
0.0
112
0.0
122
1.0
132
0.0
 79
     0
146
0.0
  0
ENDTAB
  0
TABLE
  2
LTYPE
  5
17B55
330
0
100
AcDbSymbolTable
 70
     5
  0
LTYPE
  5
17B63
330
17B55
100
AcDbSymbolTableRecord
100
AcDbLinetypeTableRecord
  2
ByBlock
 70
     0
  3

 72
    65
 73
     0
 40
0.0
  0
LTYPE
  5
17B64
330
17B55
100
AcDbSymbolTableRecord
100
AcDbLinetypeTableRecord
  2
ByLayer
 70
     0
  3

 72
    65
 73
     0
 40
0.0
  0
LTYPE
  5
17B65
330
17B55
100
AcDbSymbolTableRecord
100
AcDbLinetypeTableRecord
  2
CONTINUOUS
 70
     0
  3
実線
 72
    65
 73
     0
 40
0.0
  0
LTYPE
  5
17B71
330
17B55
100
AcDbSymbolTableRecord
100
AcDbLinetypeTableRecord
  2
1PL-LL
 70
     0
  3

 72
    65
 73
     4
 40
106.0
 49
100.0
 74
     0
 49
-2.0
 74
     0
 49
2.0
 74
     0
 49
-2.0
 74
     0
  0
LTYPE
  5
17B72
330
17B55
100
AcDbSymbolTableRecord
100
AcDbLinetypeTableRecord
  2
1PL-M
 70
     0
  3

 72
    65
 73
     4
 40
15.0
 49
12.0
 74
     0
 49
-1.0
 74
     0
 49
1.0
 74
     0
 49
-1.0
 74
     0
  0
LTYPE
  5
17B73
330
17B55
100
AcDbSymbolTableRecord
100
AcDbLinetypeTableRecord
  2
2PL-L
 70
     0
  3

 72
    65
 73
     6
 40
60.0
 49
50.0
 74
     0
 49
-2.0
 74
     0
 49
2.0
 74
     0
 49
-2.0
 74
     0
 49
2.0
 74
     0
 49
-2.0
 74
     0
  0
LTYPE
  5
17B74
330
17B55
100
AcDbSymbolTableRecord
100
AcDbLinetypeTableRecord
  2
1PL-12
 70
     0
  3

 72
    65
 73
     4
 40
15.0
 49
12.0
 74
     0
 49
-1.0
 74
     0
 49
1.0
 74
     0
 49
-1.0
 74
     0
  0
ENDTAB
  0
TABLE
  2
LAYER
  5
17B52
330
0
100
AcDbSymbolTable
 70
    20
  0
LAYER
  5
17B60
330
17B52
100
AcDbSymbolTableRecord
100
AcDbLayerTableRecord
  2
0
 70
     0
 62
     7
  6
CONTINUOUS
370
    -3
390
17B5F
  0
LAYER
  5
17B76
330
17B52
100
AcDbSymbolTableRecord
100
AcDbLayerTableRecord
  2
U1
 70
     0
 62
     3
  6
CONTINUOUS
370
    -3
390
17B5F
  0
LAYER
  5
17B77
330
17B52
100
AcDbSymbolTableRecord
100
AcDbLayerTableRecord
  2
U3
 70
     0
 62
     6
  6
CONTINUOUS
370
    -3
390
17B5F
  0
LAYER
  5
17B78
330
17B52
100
AcDbSymbolTableRecord
100
AcDbLayerTableRecord
  2
SUNPOU
 70
     0
 62
     4
  6
CONTINUOUS
370
    -3
390
17B5F
  0
LAYER
  5
17B79
330
17B52
100
AcDbSymbolTableRecord
100
AcDbLayerTableRecord
  2
HIKIDASHI
 70
     0
 62
     6
  6
CONTINUOUS
370
    -3
390
17B5F
  0
LAYER
  5
17B7A
330
17B52
100
AcDbSymbolTableRecord
100
AcDbLayerTableRecord
  2
1PL-M1
 70
     0
 62
     6
  6
1PL-M
370
    -3
390
17B5F
  0
LAYER
  5
17B7B
330
17B52
100
AcDbSymbolTableRecord
100
AcDbLayerTableRecord
  2
NAME
 70
     0
 62
    20
  6
CONTINUOUS
370
    -3
390
17B5F
  0
LAYER
  5
17B7C
330
17B52
100
AcDbSymbolTableRecord
100
AcDbLayerTableRecord
  2
FILENAME
 70
     0
 62
     7
  6
CONTINUOUS
370
    -3
390
17B5F
  0
LAYER
  5
17B7D
330
17B52
100
AcDbSymbolTableRecord
100
AcDbLayerTableRecord
  2
CENTER
 70
     0
 62
     6
  6
1PL-LL
370
    -3
390
17B5F
  0
LAYER
  5
17B7E
330
17B52
100
AcDbSymbolTableRecord
100
AcDbLayerTableRecord
  2
KISO
 70
     0
 62
     2
  6
CONTINUOUS
370
    -3
390
17B5F
  0
LAYER
  5
17B7F
330
17B52
100
AcDbSymbolTableRecord
100
AcDbLayerTableRecord
  2
YANE
 70
     0
 62
     1
  6
1PL-12
370
    -3
390
17B5F
  0
LAYER
  5
17B80
330
17B52
100
AcDbSymbolTableRecord
100
AcDbLayerTableRecord
  2
HATCH
 70
     0
 62
     1
  6
CONTINUOUS
370
    -3
390
17B5F
  0
LAYER
  5
17B81
330
17B52
100
AcDbSymbolTableRecord
100
AcDbLayerTableRecord
  2
HASHIRA
 70
     0
 62
     3
  6
CONTINUOUS
370
    -3
390
17B5F
  0
LAYER
  5
17B82
330
17B52
100
AcDbSymbolTableRecord
100
AcDbLayerTableRecord
  2
TEKKIN
 70
     0
 62
     2
  6
CONTINUOUS
370
    -3
390
17B5F
  0
LAYER
  5
17B83
330
17B52
100
AcDbSymbolTableRecord
100
AcDbLayerTableRecord
  2
DOMAKON
 70
     0
 62
     2
  6
CONTINUOUS
370
    -3
390
17B5F
  0
LAYER
  5
17B84
330
17B52
100
AcDbSymbolTableRecord
100
AcDbLayerTableRecord
  2
YODOROGO
 70
     0
 62
   130
  6
CONTINUOUS
370
    -3
390
17B5F
  0
LAYER
  5
17B85
330
17B52
100
AcDbSymbolTableRecord
100
AcDbLayerTableRecord
  2
YODOROGO-HATCH-F
 70
     0
 62
    80
  6
CONTINUOUS
370
    -3
390
17B5F
  0
LAYER
  5
17B86
330
17B52
100
AcDbSymbolTableRecord
100
AcDbLayerTableRecord
  2
WAKUSEN-01
 70
     0
 62
    50
  6
CONTINUOUS
370
    -3
390
17B5F
  0
LAYER
  5
17B87
330
17B52
100
AcDbSymbolTableRecord
100
AcDbLayerTableRecord
  2
WAKUSEN-02
 70
     0
 62
   130
  6
CONTINUOUS
370
    -3
390
17B5F
  0
LAYER
  5
17B88
330
17B52
100
AcDbSymbolTableRecord
100
AcDbLayerTableRecord
  2
WAKUMOJI-01
 70
     0
 62
   130
  6
CONTINUOUS
370
    -3
390
17B5F
  0
ENDTAB
  0
TABLE
  2
STYLE
  5
17B53
330
0
100
AcDbSymbolTable
 70
     5
  0
STYLE
  5
17B61
330
17B53
100
AcDbSymbolTableRecord
100
AcDbTextStyleTableRecord
  2
STANDARD
 70
     0
 40
3.0
 41
1.0
 50
0.0
 71
     0
 42
0.2
  3
ROMANS
  4
EXTFONT
  0
STYLE
  5
17B8A
330
17B53
100
AcDbSymbolTableRecord
100
AcDbTextStyleTableRecord
  2
01
 70
     0
 40
3.0
 41
1.0
 50
0.0
 71
     0
 42
0.2
  3
ROMANS
  4
BIGFONT
  0
STYLE
  5
17B8B
330
17B53
100
AcDbSymbolTableRecord
100
AcDbTextStyleTableRecord
  2
00
 70
     0
 40
0.0
 41
0.6666666666666666
 50
0.0
 71
     0
 42
0.2
  3
ROMANS
  4
BIGFONT
  0
STYLE
  5
17B8C
330
17B53
100
AcDbSymbolTableRecord
100
AcDbTextStyleTableRecord
  2
WAKUMOJI
 70
     0
 40
3.0
 41
1.0
 50
0.0
 71
     0
 42
3.0
  3
SIMPLEX
  4
BIGFONT
  0
STYLE
  5
17B8D
330
17B53
100
AcDbSymbolTableRecord
100
AcDbTextStyleTableRecord
  2
FILENAME
 70
     0
 40
75.0
 41
1.0
 50
0.0
 71
     0
 42
75.0
  3
romans
  4
bigfont
  0
ENDTAB
  0
TABLE
  2
VIEW
  5
17B56
330
0
100
AcDbSymbolTable
 70
     0
  0
ENDTAB
  0
TABLE
  2
UCS
  5
17B57
330
0
100
AcDbSymbolTable
 70
     0
  0
ENDTAB
  0
TABLE
  2
APPID
  5
17B59
330
0
100
AcDbSymbolTable
 70
     5
  0
APPID
  5
17B62
330
17B59
100
AcDbSymbolTableRecord
100
AcDbRegAppTableRecord
  2
ACAD
 70
     0
  0
APPID
  5
17B8F
330
17B59
100
AcDbSymbolTableRecord
100
AcDbRegAppTableRecord
  2
AUTOCAD_POSTSCRIPT_FIGURE
 70
     0
  0
APPID
  5
17B90
330
17B59
100
AcDbSymbolTableRecord
100
AcDbRegAppTableRecord
  2
ACAD_PSEXT
 70
     0
  0
APPID
  5
17B91
330
17B59
100
AcDbSymbolTableRecord
100
AcDbRegAppTableRecord
  2
ACAD_EXEMPT_FROM_CAD_STANDARDS
 70
     0
  0
APPID
  5
17B92
330
17B59
100
AcDbSymbolTableRecord
100
AcDbRegAppTableRecord
  2
ACAD_MLEADERVER
 70
     0
  0
ENDTAB
  0
TABLE
  2
DIMSTYLE
  5
17B5A
330
0
100
AcDbSymbolTable
 70
     2
100
AcDbDimStyleTable
 71
     0
  0
DIMSTYLE
105
D00
330
17B5A
100
AcDbSymbolTableRecord
100
AcDbDimStyleTableRecord
  2
SUNPOU_申請図
 70
     0
 40
40.0
 41
0.5
 42
1.0
 43
7.0
 44
1.0
 46
3.0
 73
     0
 74
     0
 77
     1
 78
     8
140
2.0
141
0.0
147
1.0
172
     1
173
     1
176
   256
177
   256
178
   256
340
17B8B
341
17B96
342
17B96
343
17B96
344
17B96
  0
DIMSTYLE
105
17B9F
330
17B5A
100
AcDbSymbolTableRecord
100
AcDbDimStyleTableRecord
  2
SUNPOU_図面名
 70
     0
 40
30.0
 41
0.5
 42
1.0
 43
7.0
 44
1.5
 46
3.0
 73
     0
 74
     0
 77
     1
 78
     8
140
3.0
141
0.0
147
1.5
172
     1
173
     1
176
   256
177
   256
178
   256
340
17B8B
341
17B96
342
17B96
343
17B96
344
17B96
  0
ENDTAB
  0
TABLE
  2
BLOCK_RECORD
  5
17B51
330
0
100
AcDbSymbolTable
 70
     2
  0
BLOCK_RECORD
  5
17B6C
330
17B51
100
AcDbSymbolTableRecord
100
AcDbBlockTableRecord
  2
*Model_Space
340
17B6D
  0
BLOCK_RECORD
  5
17B6A
330
17B51
100
AcDbSymbolTableRecord
100
AcDbBlockTableRecord
  2
*Paper_Space
340
17B6B
  0
BLOCK_RECORD
  5
17B96
330
17B51
100
AcDbSymbolTableRecord
100
AcDbBlockTableRecord
  2
DOT
340
0
  0
ENDTAB
  0
ENDSEC
  0
SECTION
  2
BLOCKS
  0
BLOCK
  5
17B93
330
17B6C
100
AcDbEntity
  8
0
100
AcDbBlockBegin
  2
*Model_Space
 70
     0
 10
0.0
 20
0.0
 30
0.0
  3
*Model_Space
  1

  0
ENDBLK
  5
125F7
330
17B6C
100
AcDbEntity
  8
0
100
AcDbBlockEnd
  0
BLOCK
  5
17B94
330
17B6A
100
AcDbEntity
 67
     1
  8
0
100
AcDbBlockBegin
  2
*Paper_Space
 70
     0
 10
0.0
 20
0.0
 30
0.0
  3
*Paper_Space
  1

  0
ENDBLK
  5
125F5
330
17B6A
100
AcDbEntity
 67
     1
  8
0
100
AcDbBlockEnd
  0
BLOCK
  5
17B95
330
17B96
100
AcDbEntity
  8
0
100
AcDbBlockBegin
  2
DOT
 70
     0
 10
0.0
 20
0.0
 30
0.0
  3
DOT
  1

  0
LWPOLYLINE
  5
12987
330
17B96
100
AcDbEntity
  8
0
  6
ByBlock
 62
     0
100
AcDbPolyline
 90
        2
 70
     1
 43
0.75
 10
-0.375
 20
0.0
 42
1.0
 10
0.375
 20
0.0
 42
1.0
  0
LINE
  5
12988
330
17B96
100
AcDbEntity
  8
0
  6
ByBlock
 62
     0
100
AcDbLine
 10
-0.75
 20
0.0
 30
0.0
 11
-1.5
 21
0.0
 31
0.0
  0
ENDBLK
  5
12989
330
17B96
100
AcDbEntity
  8
0
100
AcDbBlockEnd
  0
ENDSEC
  0
SECTION
  2
ENTITIES
  0
TEXT
  5
12ADD
330
17B6C
100
AcDbEntity
  8
NAME
100
AcDbText
 10
11516.07508082364
 20
875.0
 30
0.0
 40
120.0
  1
（埋め込み方式）
  7
01
 72
     4
 11
12072.07508082364
 21
935.0
 31
0.0
100
AcDbText
  0
TEXT
  5
12AE0
330
17B6C
100
AcDbEntity
  8
FILENAME
100
AcDbText
 10
13904.85714285714
 20
174.0
 30
0.0
 40
100.0
  1
＜YOKCU-280-U_3_JIS_GL.DXF＞
  7
FILENAME
 72
     2
 11
16382.0
 21
174.0
 31
0.0
100
AcDbText
  0
TEXT
  5
159C6
330
17B6C
100
AcDbEntity
  8
NAME
100
AcDbText
 10
12854.79999999999
 20
541.0000000000001
 30
0.0
 40
160.0
  1
<3／3>
 41
0.6
  7
01
 72
     2
 11
13354.0
 21
541.0000000000001
 31
0.0
100
AcDbText
  0
TEXT
  5
159C7
330
17B6C
100
AcDbEntity
  8
NAME
100
AcDbText
 10
10778.70931397095
 20
541.0
 30
0.0
 40
160.0
  1
YOKCU-280
 41
0.7
  7
01
 72
     2
 11
11776.04264730429
 21
541.0
 31
0.0
100
AcDbText
  0
TEXT
  5
159C8
330
17B6C
100
AcDbEntity
  8
NAME
100
AcDbText
 10
11816.04264730429
 20
541.0
 30
0.0
 40
160.0
  1
型（豪雪地用）
 41
0.8
  7
01
100
AcDbText
  0
LINE
  5
166AB
330
17B6C
100
AcDbEntity
  8
CENTER
  6
1PL-M
100
AcDbLine
 10
8489.12750789964
 20
6908.243182432326
 30
0.0
 11
9679.127507899641
 21
6908.243182432326
 31
0.0
  0
LINE
  5
166AC
330
17B6C
100
AcDbEntity
  8
CENTER
  6
1PL-M
100
AcDbLine
 10
8489.12750789964
 20
8718.243182432329
 30
0.0
 11
12484.12750789964
 21
8718.243182432329
 31
0.0
  0
TEXT
  5
166B9
330
17B6C
100
AcDbEntity
  8
SUNPOU
100
AcDbText
 10
10986.25954751383
 20
5915.177183942747
 30
0.0
 40
90.0
  1
（  ：スパン数）
  7
01
 11
10986.25954751383
 21
5960.177183942747
 31
0.0
100
AcDbText
 73
     2
  0
TEXT
  5
166BA
330
17B6C
100
AcDbEntity
  8
SUNPOU
100
AcDbText
 10
11116.72075856533
 20
5915.177183942747
 30
0.0
 40
90.0
  1
N
 41
0.6666666666666666
  7
00
 72
     4
 11
11148.1493299939
 21
5960.177183942747
 31
0.0
100
AcDbText
  0
LINE
  5
166BB
330
17B6C
100
AcDbEntity
  8
CENTER
  6
1PL-M
100
AcDbLine
 10
4496.977929614668
 20
6908.243182432326
 30
0.0
 11
8369.127507899641
 21
6908.243182432326
 31
0.0
  0
LINE
  5
166BD
330
17B6C
100
AcDbEntity
  8
CENTER
  6
1PL-M
100
AcDbLine
 10
7077.877507899639
 20
8718.243182432329
 30
0.0
 11
8369.127507899641
 21
8718.243182432329
 31
0.0
  0
LINE
  5
166BE
330
17B6C
100
AcDbEntity
  8
SUNPOU
100
AcDbLine
 10
8369.127507899641
 20
9208.243182432328
 30
0.0
 11
8369.127507899641
 21
6388.243182432327
 31
0.0
  0
LINE
  5
166BF
330
17B6C
100
AcDbEntity
  8
CENTER
  6
1PL-M
100
AcDbLine
 10
4919.12750789964
 20
6308.243182432327
 30
0.0
 11
4919.12750789964
 21
9318.243182432329
 31
0.0
  0
LINE
  5
166C0
330
17B6C
100
AcDbEntity
  8
CENTER
  6
1PL-M
100
AcDbLine
 10
7729.127507899637
 20
8168.243182432327
 30
0.0
 11
7729.127507899639
 21
9318.243182432329
 31
0.0
  0
LINE
  5
166C1
330
17B6C
100
AcDbEntity
  8
CENTER
  6
1PL-M
100
AcDbLine
 10
7729.127507899639
 20
6308.243182432327
 30
0.0
 11
7729.127507899639
 21
7973.243182432327
 31
0.0
  0
LINE
  5
166C2
330
17B6C
100
AcDbEntity
  8
CENTER
  6
1PL-M
100
AcDbLine
 10
4374.127507899639
 20
8718.243182432329
 30
0.0
 11
6879.127507899639
 21
8718.243182432329
 31
0.0
  0
LINE
  5
166C3
330
17B6C
100
AcDbEntity
  8
CENTER
  6
1PL-M
100
AcDbLine
 10
9874.127507899641
 20
6908.243182432326
 30
0.0
 11
12484.12750789964
 21
6908.243182432326
 31
0.0
  0
LINE
  5
166C4
330
17B6C
100
AcDbEntity
  8
SUNPOU
100
AcDbLine
 10
12369.12750789964
 20
9118.243182432328
 30
0.0
 11
13204.12750789964
 21
9118.243182432328
 31
0.0
  0
LINE
  5
166C5
330
17B6C
100
AcDbEntity
  8
SUNPOU
100
AcDbLine
 10
12369.12750789964
 20
6508.243182432327
 30
0.0
 11
13204.12750789964
 21
6508.243182432327
 31
0.0
  0
LINE
  5
166C6
330
17B6C
100
AcDbEntity
  8
SUNPOU
100
AcDbLine
 10
8489.12750789964
 20
9208.243182432328
 30
0.0
 11
8489.12750789964
 21
6388.243182432327
 31
0.0
  0
LINE
  5
166C7
330
17B6C
100
AcDbEntity
  8
CENTER
  6
1PL-M
100
AcDbLine
 10
11939.12750789964
 20
6308.243182432327
 30
0.0
 11
11939.12750789964
 21
9318.243182432329
 31
0.0
  0
LINE
  5
166C8
330
17B6C
100
AcDbEntity
  8
CENTER
  6
1PL-M
100
AcDbLine
 10
9129.127507899641
 20
6308.243182432327
 30
0.0
 11
9129.127507899637
 21
7563.243182432326
 31
0.0
  0
LINE
  5
166C9
330
17B6C
100
AcDbEntity
  8
SUNPOU
100
AcDbLine
 10
13159.12750789964
 20
9103.243182432327
 30
0.0
 11
13159.12750789964
 21
6523.243182432327
 31
0.0
  0
LINE
  5
166CA
330
17B6C
100
AcDbEntity
  8
SUNPOU
100
AcDbLine
 10
12949.12750789964
 20
8703.243182432327
 30
0.0
 11
12949.12750789964
 21
6923.243182432327
 31
0.0
  0
LINE
  5
166CB
330
17B6C
100
AcDbEntity
  8
SUNPOU
100
AcDbLine
 10
12949.12750789964
 20
6893.243182432327
 30
0.0
 11
12949.12750789964
 21
6523.243182432327
 31
0.0
  0
LINE
  5
166CD
330
17B6C
100
AcDbEntity
  8
SUNPOU
100
AcDbLine
 10
12919.12750789964
 20
6508.243182432327
 30
0.0
 11
12904.12750789964
 21
6508.243182432327
 31
0.0
  0
TEXT
  5
166CF
330
17B6C
100
AcDbEntity
  8
SUNPOU
100
AcDbText
 10
12904.12750789964
 20
6622.528896718041
 30
0.0
 40
90.0
  1
400
 50
90.0
 41
0.6666666666666666
  7
00
 72
     4
 11
12859.12750789964
 21
6708.243182432326
 31
0.0
100
AcDbText
  0
TEXT
  5
166D0
330
17B6C
100
AcDbEntity
  8
SUNPOU
100
AcDbText
 10
13114.12750789964
 20
7693.957468146613
 30
0.0
 40
90.0
  1
2610
 50
90.0
 41
0.6666666666666666
  7
00
 72
     4
 11
13069.12750789964
 21
7808.243182432327
 31
0.0
100
AcDbText
  0
TEXT
  5
166D3
330
17B6C
100
AcDbEntity
  8
SUNPOU
100
AcDbText
 10
12904.12750789964
 20
7689.671753860898
 30
0.0
 40
90.0
  1
1810
 50
90.0
 41
0.6666666666666666
  7
00
 72
     4
 11
12859.12750789964
 21
7808.243182432327
 31
0.0
100
AcDbText
  0
LINE
  5
166D4
330
17B6C
100
AcDbEntity
  8
SUNPOU
100
AcDbLine
 10
12949.12750789964
 20
9103.243182432327
 30
0.0
 11
12949.12750789964
 21
8733.243182432326
 31
0.0
  0
TEXT
  5
166D5
330
17B6C
100
AcDbEntity
  8
SUNPOU
100
AcDbText
 10
12904.12750789964
 20
8832.528896718041
 30
0.0
 40
90.0
  1
400
 50
90.0
 41
0.6666666666666666
  7
00
 72
     1
 11
12859.12750789964
 21
8918.243182432327
 31
0.0
100
AcDbText
 73
     2
  0
LINE
  5
166D9
330
17B6C
100
AcDbEntity
  8
SUNPOU
100
AcDbLine
 10
12919.12750789964
 20
9118.243182432328
 30
0.0
 11
12904.12750789964
 21
9118.243182432328
 31
0.0
  0
LINE
  5
166DB
330
17B6C
100
AcDbEntity
  8
CENTER
  6
1PL-M
100
AcDbLine
 10
9129.127507899641
 20
7758.243182432327
 30
0.0
 11
9129.127507899641
 21
9318.243182432329
 31
0.0
  0
LINE
  5
166E1
330
17B6C
100
AcDbEntity
  8
SUNPOU
  6
Continuous
100
AcDbLine
 10
9129.127507899641
 20
9348.243182432328
 30
0.0
 11
9129.127507899641
 21
9463.243182432329
 31
0.0
  0
LINE
  5
166E2
330
17B6C
100
AcDbEntity
  8
SUNPOU
  6
Continuous
100
AcDbLine
 10
7729.127507899639
 20
9348.243182432328
 30
0.0
 11
7729.127507899639
 21
9463.243182432329
 31
0.0
  0
LINE
  5
166E3
330
17B6C
100
AcDbEntity
  8
SUNPOU
  6
Continuous
100
AcDbLine
 10
9114.12750789964
 20
9418.243182432329
 30
0.0
 11
7744.127507899638
 21
9418.243182432329
 31
0.0
  0
LINE
  5
166F1
330
17B6C
100
AcDbEntity
  8
SUNPOU
100
AcDbLine
 10
4309.127507899637
 20
7118.243182432327
 30
0.0
 11
4309.127507899637
 21
6908.243182432326
 31
0.0
  0
LINE
  5
166F2
330
17B6C
100
AcDbEntity
  8
SUNPOU
100
AcDbLine
 10
4309.127507899638
 20
6908.243182432326
 30
0.0
 11
4459.12750789964
 21
6908.243182432326
 31
0.0
  0
TEXT
  5
166F4
330
17B6C
100
AcDbEntity
  8
SUNPOU
100
AcDbText
 10
4283.28465075678
 20
7253.243182432327
 30
0.0
 40
90.0
  1
A
 41
0.6700000000000001
  7
00
 72
     4
 11
4309.127507899637
 21
7298.243182432327
 31
0.0
100
AcDbText
  0
LINE
  5
166F5
330
17B6C
100
AcDbEntity
  8
SUNPOU
100
AcDbLine
 10
5529.127507899637
 20
7118.243182432327
 30
0.0
 11
5529.127507899637
 21
6908.243182432326
 31
0.0
  0
LINE
  5
166F6
330
17B6C
100
AcDbEntity
  8
SUNPOU
100
AcDbLine
 10
5529.127507899637
 20
6908.243182432326
 30
0.0
 11
5379.12750789964
 21
6908.243182432326
 31
0.0
  0
TEXT
  5
166F8
330
17B6C
100
AcDbEntity
  8
SUNPOU
100
AcDbText
 10
5493.234650756781
 20
7244.671753860898
 30
0.0
 40
90.0
  1
A'
 41
0.6700000000000001
  7
00
 72
     4
 11
5529.127507899637
 21
7298.243182432327
 31
0.0
100
AcDbText
  0
LINE
  5
166FE
330
17B6C
100
AcDbEntity
  8
SUNPOU
100
AcDbLine
 10
12514.12750789964
 20
8718.243182432329
 30
0.0
 11
12994.12750789964
 21
8718.243182432329
 31
0.0
  0
LINE
  5
166FF
330
17B6C
100
AcDbEntity
  8
SUNPOU
100
AcDbLine
 10
12514.12750789964
 20
6908.243182432326
 30
0.0
 11
12994.12750789964
 21
6908.243182432326
 31
0.0
  0
TEXT
  5
16703
330
17B6C
100
AcDbEntity
  8
HIKIDASHI
100
AcDbText
 10
5692.824073304894
 20
9013.243182432329
 30
0.0
 40
90.0
  1
（屋根後面位置）
  7
01
100
AcDbText
  0
TEXT
  5
16704
330
17B6C
100
AcDbEntity
  8
HIKIDASHI
100
AcDbText
 10
5608.715471388875
 20
8783.243182432327
 30
0.0
 40
90.0
  1
（土間コン後面位置）
  7
01
100
AcDbText
  0
TEXT
  5
16705
330
17B6C
100
AcDbEntity
  8
HIKIDASHI
100
AcDbText
 10
5715.736109815655
 20
6283.243182432325
 30
0.0
 40
90.0
  1
（鼻隠し外面）
  7
01
100
AcDbText
  0
TEXT
  5
16706
330
17B6C
100
AcDbEntity
  8
HIKIDASHI
100
AcDbText
 10
5631.627507899639
 20
6563.243182432326
 30
0.0
 40
90.0
  1
（土間コン前面位置）
  7
01
100
AcDbText
  0
TEXT
  5
167F6
330
17B6C
100
AcDbEntity
  8
HIKIDASHI
100
AcDbText
 10
9017.426279443023
 20
5992.059624263298
 30
0.0
 40
80.0
  1
)
 41
0.6700000000000001
  7
00
100
AcDbText
  0
TEXT
  5
167F7
330
17B6C
100
AcDbEntity
  8
HIKIDASHI
100
AcDbText
 10
8816.567530753644
 20
6007.621102011493
 30
0.0
 40
80.0
  1
1
 41
0.6700000000000001
  7
00
100
AcDbText
  0
TEXT
  5
167F8
330
17B6C
100
AcDbEntity
  8
HIKIDASHI
100
AcDbText
 10
8849.704668617953
 20
5992.059624263298
 30
0.0
 40
80.0
  1
/
 41
0.6700000000000001
  7
00
100
AcDbText
  0
TEXT
  5
167F9
330
17B6C
100
AcDbEntity
  8
HIKIDASHI
100
AcDbText
 10
8895.999823380597
 20
5965.891793063018
 30
0.0
 40
80.0
  1
40
 41
0.6700000000000001
  7
00
100
AcDbText
  0
TEXT
  5
167FA
330
17B6C
100
AcDbEntity
  8
HIKIDASHI
100
AcDbText
 10
8635.85961481597
 20
5992.059624263298
 30
0.0
 40
80.0
  1
(S=
 41
0.6700000000000001
  7
00
100
AcDbText
  0
TEXT
  5
167FB
330
17B6C
100
AcDbEntity
  8
HIKIDASHI
100
AcDbText
 10
7793.85961481597
 20
5968.243182432328
 30
0.0
 40
120.0
  1
基 礎 伏 図
  7
01
 72
     2
 11
8545.85961481597
 21
5968.243182432328
 31
0.0
100
AcDbText
  0
TEXT
  5
16EB2
330
17B6C
100
AcDbEntity
  8
NAME
100
AcDbText
 10
12159.06898735705
 20
1063.242132579307
 30
0.0
 40
120.0
  1
Y O K C U
 41
0.6666666666666666
  7
00
100
AcDbText
  0
TEXT
  5
16EB3
330
17B6C
100
AcDbEntity
  8
NAME
100
AcDbText
 10
11083.47628552035
 20
1063.242132579307
 30
0.0
 40
120.0
  1
ヨド自転車置場　　　    型
  7
01
100
AcDbText
  0
LINE
  5
16F97
330
17B6C
100
AcDbEntity
  8
HIKIDASHI
100
AcDbLine
 10
4186.816957180232
 20
4083.204154334509
 30
0.0
 11
3405.031576763642
 21
4083.204154334509
 31
0.0
  0
LINE
  5
16F9A
330
17B6C
100
AcDbEntity
  8
1PL-M1
100
AcDbLine
 10
4889.856483595693
 20
2873.96373352073
 30
0.0
 11
4889.856483595691
 21
4601.963733520728
 31
0.0
  0
LINE
  5
16F9B
330
17B6C
100
AcDbEntity
  8
HASHIRA
100
AcDbLine
 10
4837.856483595691
 20
3145.963733520729
 30
0.0
 11
4837.856483595691
 21
4233.963733520726
 31
0.0
  0
LINE
  5
16F9C
330
17B6C
100
AcDbEntity
  8
HASHIRA
100
AcDbLine
 10
4941.856483595691
 20
3145.963733520729
 30
0.0
 11
4941.856483595691
 21
4233.963733520726
 31
0.0
  0
LINE
  5
16F9D
330
17B6C
100
AcDbEntity
  8
HATCH
100
AcDbLine
 10
6088.042305995692
 20
3563.21910792073
 30
0.0
 11
6107.242305995693
 21
3529.963733520729
 31
0.0
  0
LINE
  5
16F9E
330
17B6C
100
AcDbEntity
  8
HATCH
100
AcDbLine
 10
6232.042305995692
 20
3563.21910792073
 30
0.0
 11
6251.242305995694
 21
3529.963733520729
 31
0.0
  0
LINE
  5
16F9F
330
17B6C
100
AcDbEntity
  8
HATCH
100
AcDbLine
 10
6229.867931595691
 20
3625.963733520729
 30
0.0
 11
6249.067931595693
 21
3592.708357520729
 31
0.0
  0
LINE
  5
16FA0
330
17B6C
100
AcDbEntity
  8
HATCH
100
AcDbLine
 10
6212.842305995692
 20
3529.963733520729
 30
0.0
 11
6268.267931595691
 21
3625.963733520729
 31
0.0
  0
LINE
  5
16FA1
330
17B6C
100
AcDbEntity
  8
HATCH
100
AcDbLine
 10
6336.250096395694
 20
3753.963733520729
 30
0.0
 11
6208.250096395694
 21
3625.963733520729
 31
0.0
  0
LINE
  5
16FA2
330
17B6C
100
AcDbEntity
  8
HATCH
100
AcDbLine
 10
6241.21494439569
 20
3753.963733520729
 30
0.0
 11
6113.21494439569
 21
3625.963733520729
 31
0.0
  0
LINE
  5
16FA3
330
17B6C
100
AcDbEntity
  8
HATCH
100
AcDbLine
 10
6288.732520395693
 20
3753.963733520729
 30
0.0
 11
6160.732520395693
 21
3625.963733520729
 31
0.0
  0
LINE
  5
16FA4
330
17B6C
100
AcDbEntity
  8
HATCH
100
AcDbLine
 10
5960.042305995692
 20
3563.21910792073
 30
0.0
 11
5979.242305995693
 21
3529.963733520729
 31
0.0
  0
LINE
  5
16FA5
330
17B6C
100
AcDbEntity
  8
HATCH
100
AcDbLine
 10
5957.867931595689
 20
3625.963733520729
 30
0.0
 11
5977.067931595691
 21
3592.708357520729
 31
0.0
  0
LINE
  5
16FA6
330
17B6C
100
AcDbEntity
  8
HATCH
100
AcDbLine
 10
5940.842305995693
 20
3529.963733520729
 30
0.0
 11
5996.267931595689
 21
3625.963733520729
 31
0.0
  0
LINE
  5
16FA7
330
17B6C
100
AcDbEntity
  8
HATCH
100
AcDbLine
 10
5717.016790795693
 20
3625.963733520729
 30
0.0
 11
5701.016790795693
 21
3625.963733520729
 31
0.0
  0
LINE
  5
16FA8
330
17B6C
100
AcDbEntity
  8
HATCH
100
AcDbLine
 10
5816.042305995694
 20
3563.21910792073
 30
0.0
 11
5835.242305995691
 21
3529.963733520729
 31
0.0
  0
LINE
  5
16FA9
330
17B6C
100
AcDbEntity
  8
HATCH
100
AcDbLine
 10
5796.842305995693
 20
3529.963733520729
 30
0.0
 11
5852.267931595689
 21
3625.963733520729
 31
0.0
  0
LINE
  5
16FAA
330
17B6C
100
AcDbEntity
  8
HATCH
100
AcDbLine
 10
5813.867931595691
 20
3625.963733520729
 30
0.0
 11
5833.067931595691
 21
3592.708357520729
 31
0.0
  0
LINE
  5
16FAB
330
17B6C
100
AcDbEntity
  8
HATCH
100
AcDbLine
 10
5856.250096395695
 20
3753.963733520729
 30
0.0
 11
5728.250096395695
 21
3625.963733520729
 31
0.0
  0
LINE
  5
16FAC
330
17B6C
100
AcDbEntity
  8
HATCH
100
AcDbLine
 10
5672.042305995695
 20
3563.21910792073
 30
0.0
 11
5691.242305995693
 21
3529.963733520729
 31
0.0
  0
LINE
  5
16FAD
330
17B6C
100
AcDbEntity
  8
HATCH
100
AcDbLine
 10
5669.867931595691
 20
3625.963733520729
 30
0.0
 11
5689.067931595691
 21
3592.708357520729
 31
0.0
  0
LINE
  5
16FAE
330
17B6C
100
AcDbEntity
  8
HATCH
100
AcDbLine
 10
5529.856483595692
 20
3566.36135696226
 30
0.0
 11
5564.26793159569
 21
3625.963733520729
 31
0.0
  0
LINE
  5
16FAF
330
17B6C
100
AcDbEntity
  8
HATCH
100
AcDbLine
 10
5529.856483595692
 20
3619.055358705336
 30
0.0
 11
5545.067931595691
 21
3592.708357520729
 31
0.0
  0
LINE
  5
16FB0
330
17B6C
100
AcDbEntity
  8
HATCH
100
AcDbLine
 10
5529.856483595692
 20
3560.076860248017
 30
0.0
 11
5547.242305995694
 21
3529.963733520729
 31
0.0
  0
LINE
  5
16FB1
330
17B6C
100
AcDbEntity
  8
HATCH
100
AcDbLine
 10
5573.016790795693
 20
3625.963733520729
 30
0.0
 11
5557.016790795692
 21
3625.963733520729
 31
0.0
  0
LINE
  5
16FB2
330
17B6C
100
AcDbEntity
  8
HATCH
100
AcDbLine
 10
5808.73252039569
 20
3753.963733520729
 30
0.0
 11
5680.732520395693
 21
3625.963733520729
 31
0.0
  0
LINE
  5
16FB3
330
17B6C
100
AcDbEntity
  8
HATCH
100
AcDbLine
 10
5761.214944395693
 20
3753.963733520729
 30
0.0
 11
5633.214944395693
 21
3625.963733520729
 31
0.0
  0
LINE
  5
16FB4
330
17B6C
100
AcDbEntity
  8
HATCH
100
AcDbLine
 10
5652.842305995695
 20
3529.963733520729
 30
0.0
 11
5708.267931595689
 21
3625.963733520729
 31
0.0
  0
LINE
  5
16FB5
330
17B6C
100
AcDbEntity
  8
HATCH
100
AcDbLine
 10
6085.867931595689
 20
3625.963733520729
 30
0.0
 11
6105.067931595691
 21
3592.708357520729
 31
0.0
  0
LINE
  5
16FB6
330
17B6C
100
AcDbEntity
  8
HATCH
100
AcDbLine
 10
6068.842305995693
 20
3529.963733520729
 30
0.0
 11
6124.267931595689
 21
3625.963733520729
 31
0.0
  0
LINE
  5
16FB7
330
17B6C
100
AcDbEntity
  8
KISO
100
AcDbLine
 10
5529.856483595692
 20
3529.963733520729
 30
0.0
 11
6367.249978138846
 21
3529.96373352073
 31
0.0
  0
LINE
  5
16FB8
330
17B6C
100
AcDbEntity
  8
KISO
100
AcDbLine
 10
6367.249978138846
 20
3625.963733520729
 30
0.0
 11
5529.856483595692
 21
3625.963733520729
 31
0.0
  0
LINE
  5
16FB9
330
17B6C
100
AcDbEntity
  8
KISO
100
AcDbLine
 10
5529.856483595692
 20
3753.963733520729
 30
0.0
 11
5529.856483595692
 21
3145.963733520729
 31
0.0
  0
LINE
  5
16FBA
330
17B6C
100
AcDbEntity
  8
U3
100
AcDbLine
 10
4138.665683595692
 20
3673.963733520729
 30
0.0
 11
4249.856483595691
 21
3562.772931920729
 31
0.0
  0
LINE
  5
16FBB
330
17B6C
100
AcDbEntity
  8
U3
100
AcDbLine
 10
4087.753993995693
 20
3623.052043920729
 30
0.0
 11
4204.842305995692
 21
3505.963733520729
 31
0.0
  0
LINE
  5
16FBC
330
17B6C
100
AcDbEntity
  8
U3
100
AcDbLine
 10
3919.753993995694
 20
3556.875421520731
 30
0.0
 11
4036.842305995692
 21
3673.963733520729
 31
0.0
  0
LINE
  5
16FBD
330
17B6C
100
AcDbEntity
  8
U3
100
AcDbLine
 10
4036.842305995692
 20
3572.140355920728
 30
0.0
 11
4103.01892999569
 21
3505.963733520729
 31
0.0
  0
LINE
  5
16FBE
330
17B6C
100
AcDbEntity
  8
U3
100
AcDbLine
 10
3970.665683595692
 20
3505.963733520729
 30
0.0
 11
4138.665683595692
 21
3673.963733520729
 31
0.0
  0
LINE
  5
16FBF
330
17B6C
100
AcDbEntity
  8
KISO
100
AcDbLine
 10
4837.856483595691
 20
3753.963733520729
 30
0.0
 11
4249.856483595691
 21
3753.963733520729
 31
0.0
  0
LINE
  5
16FC0
330
17B6C
100
AcDbEntity
  8
HATCH
100
AcDbLine
 10
4799.916475201962
 20
3753.963733520729
 30
0.0
 11
4249.856483595691
 21
3203.903741914457
 31
0.0
  0
LINE
  5
16FC1
330
17B6C
100
AcDbEntity
  8
HATCH
100
AcDbLine
 10
4752.398899201963
 20
3753.963733520729
 30
0.0
 11
4249.856483595691
 21
3251.421317914457
 31
0.0
  0
LINE
  5
16FC2
330
17B6C
100
AcDbEntity
  8
HATCH
100
AcDbLine
 10
4704.881324801961
 20
3753.963733520729
 30
0.0
 11
4249.856483595691
 21
3298.938892314453
 31
0.0
  0
LINE
  5
16FC3
330
17B6C
100
AcDbEntity
  8
U3
100
AcDbLine
 10
3700.842305995694
 20
3572.140355920728
 30
0.0
 11
3767.018929995692
 21
3505.963733520729
 31
0.0
  0
LINE
  5
16FC4
330
17B6C
100
AcDbEntity
  8
U3
100
AcDbLine
 10
3751.753993995694
 20
3623.052043920729
 30
0.0
 11
3868.842305995693
 21
3505.963733520729
 31
0.0
  0
LINE
  5
16FC5
330
17B6C
100
AcDbEntity
  8
U3
100
AcDbLine
 10
3532.842305995694
 20
3607.787109520728
 30
0.0
 11
3599.018929995692
 21
3673.963733520729
 31
0.0
  0
LINE
  5
16FC6
330
17B6C
100
AcDbEntity
  8
U3
100
AcDbLine
 10
3634.665683595692
 20
3505.963733520729
 30
0.0
 11
3802.665683595693
 21
3673.963733520729
 31
0.0
  0
LINE
  5
16FC7
330
17B6C
100
AcDbEntity
  8
U3
100
AcDbLine
 10
3583.753993995694
 20
3556.875421520731
 30
0.0
 11
3700.842305995694
 21
3673.963733520729
 31
0.0
  0
LINE
  5
16FC8
330
17B6C
100
AcDbEntity
  8
U3
100
AcDbLine
 10
3466.665683595692
 20
3673.963733520729
 30
0.0
 11
3634.665683595692
 21
3505.963733520729
 31
0.0
  0
LINE
  5
16FC9
330
17B6C
100
AcDbEntity
  8
U3
100
AcDbLine
 10
3868.842305995693
 20
3607.787109520728
 30
0.0
 11
3935.018929995692
 21
3673.963733520729
 31
0.0
  0
LINE
  5
16FCA
330
17B6C
100
AcDbEntity
  8
U3
100
AcDbLine
 10
3802.665683595693
 20
3673.963733520729
 30
0.0
 11
3970.665683595692
 21
3505.963733520729
 31
0.0
  0
LINE
  5
16FCB
330
17B6C
100
AcDbEntity
  8
U3
100
AcDbLine
 10
4249.856483595691
 20
3673.963733520729
 30
0.0
 11
3466.665683595692
 21
3673.963733520729
 31
0.0
  0
LINE
  5
16FCC
330
17B6C
100
AcDbEntity
  8
HATCH
100
AcDbLine
 10
4837.856483595691
 20
3404.311689551324
 30
0.0
 11
4683.508527565098
 21
3249.963733520729
 31
0.0
  0
LINE
  5
16FCD
330
17B6C
100
AcDbEntity
  8
KISO
100
AcDbLine
 10
4249.856483595691
 20
3753.963733520729
 30
0.0
 11
4249.856483595691
 21
3145.963733520729
 31
0.0
  0
LINE
  5
16FCE
330
17B6C
100
AcDbEntity
  8
HATCH
100
AcDbLine
 10
4837.856483595691
 20
3499.346839951326
 30
0.0
 11
4484.473377165095
 21
3145.96373352073
 31
0.0
  0
LINE
  5
16FCF
330
17B6C
100
AcDbEntity
  8
HATCH
100
AcDbLine
 10
4837.856483595691
 20
3451.829265551324
 30
0.0
 11
4635.990951565096
 21
3249.963733520729
 31
0.0
  0
LINE
  5
16FD0
330
17B6C
100
AcDbEntity
  8
HATCH
100
AcDbLine
 10
5187.508527565098
 20
3753.963733520729
 30
0.0
 11
4941.856483595691
 21
3508.311689551324
 31
0.0
  0
LINE
  5
16FD1
330
17B6C
100
AcDbEntity
  8
HATCH
100
AcDbLine
 10
5139.990951565096
 20
3753.963733520729
 30
0.0
 11
4941.856483595691
 21
3555.829265551323
 31
0.0
  0
LINE
  5
16FD2
330
17B6C
100
AcDbEntity
  8
HATCH
100
AcDbLine
 10
5092.473377165095
 20
3753.963733520729
 30
0.0
 11
4941.856483595691
 21
3603.346839951324
 31
0.0
  0
LINE
  5
16FD3
330
17B6C
100
AcDbEntity
  8
KISO
100
AcDbLine
 10
6367.249978138845
 20
3753.963733520729
 30
0.0
 11
4941.856483595691
 21
3753.963733520729
 31
0.0
  0
LINE
  5
16FD4
330
17B6C
100
AcDbEntity
  8
HATCH
100
AcDbLine
 10
4364.80684683883
 20
3753.963733520729
 30
0.0
 11
4249.856483595693
 21
3639.013370277589
 31
0.0
  0
LINE
  5
16FD5
330
17B6C
100
AcDbEntity
  8
HATCH
100
AcDbLine
 10
4412.324422838832
 20
3753.963733520729
 30
0.0
 11
4249.856483595691
 21
3591.49579427759
 31
0.0
  0
LINE
  5
16FD6
330
17B6C
100
AcDbEntity
  8
HATCH
100
AcDbLine
 10
4317.289272438831
 20
3753.963733520729
 30
0.0
 11
4249.856483595691
 21
3686.530944677587
 31
0.0
  0
LINE
  5
16FD7
330
17B6C
100
AcDbEntity
  8
HATCH
100
AcDbLine
 10
5529.856483595692
 20
3708.719637188189
 30
0.0
 11
5071.100579928232
 21
3249.963733520729
 31
0.0
  0
LINE
  5
16FD8
330
17B6C
100
AcDbEntity
  8
HATCH
100
AcDbLine
 10
5527.583003928228
 20
3753.963733520729
 30
0.0
 11
5023.583003928232
 21
3249.963733520728
 31
0.0
  0
LINE
  5
16FD9
330
17B6C
100
AcDbEntity
  8
HATCH
100
AcDbLine
 10
5480.065429528228
 20
3753.963733520729
 30
0.0
 11
4941.856483595691
 21
3215.754787588188
 31
0.0
  0
LINE
  5
16FDA
330
17B6C
100
AcDbEntity
  8
HATCH
100
AcDbLine
 10
5529.856483595692
 20
3416.162735225057
 30
0.0
 11
5259.657481891365
 21
3145.963733520729
 31
0.0
  0
LINE
  5
16FDB
330
17B6C
100
AcDbEntity
  8
HATCH
100
AcDbLine
 10
5529.856483595692
 20
3368.645160825057
 30
0.0
 11
5307.175056291369
 21
3145.963733520729
 31
0.0
  0
LINE
  5
16FDC
330
17B6C
100
AcDbEntity
  8
HATCH
100
AcDbLine
 10
5529.856483595693
 20
3321.127584825055
 30
0.0
 11
5354.692632291366
 21
3145.963733520729
 31
0.0
  0
LINE
  5
16FDD
330
17B6C
100
AcDbEntity
  8
HATCH
100
AcDbLine
 10
4619.990951565096
 20
3233.96373352073
 30
0.0
 11
4531.990951565096
 21
3145.963733520729
 31
0.0
  0
LINE
  5
16FDE
330
17B6C
100
AcDbEntity
  8
HATCH
100
AcDbLine
 10
4667.508527565098
 20
3233.96373352073
 30
0.0
 11
4579.508527565098
 21
3145.963733520729
 31
0.0
  0
LINE
  5
16FDF
330
17B6C
100
AcDbEntity
  8
HATCH
100
AcDbLine
 10
4960.065429528231
 20
3233.96373352073
 30
0.0
 11
4941.856483595691
 21
3215.754787588188
 31
0.0
  0
LINE
  5
16FE0
330
17B6C
100
AcDbEntity
  8
HATCH
100
AcDbLine
 10
5007.583003928234
 20
3233.96373352073
 30
0.0
 11
4941.856483595691
 21
3168.237213188188
 31
0.0
  0
LINE
  5
16FE1
330
17B6C
100
AcDbEntity
  8
HATCH
100
AcDbLine
 10
5055.100579928232
 20
3233.96373352073
 30
0.0
 11
4967.100579928231
 21
3145.963733520729
 31
0.0
  0
TEXT
  5
16FE4
330
17B6C
100
AcDbEntity
  8
HIKIDASHI
100
AcDbText
 10
4966.060086474469
 20
2119.914714678058
 30
0.0
 40
90.0
  1
断 面
  7
01
100
AcDbText
  0
LINE
  5
16FE5
330
17B6C
100
AcDbEntity
  8
HIKIDASHI
100
AcDbLine
 10
4542.042806977907
 20
2074.914714678058
 30
0.0
 11
5237.670160213478
 21
2074.914714678058
 31
0.0
  0
LINE
  5
16FE6
330
17B6C
100
AcDbEntity
  8
HIKIDASHI
100
AcDbLine
 10
4542.042806977907
 20
2044.914714678057
 30
0.0
 11
5237.670160213478
 21
2044.914714678057
 31
0.0
  0
TEXT
  5
16FE7
330
17B6C
100
AcDbEntity
  8
HIKIDASHI
100
AcDbText
 10
4572.042806977907
 20
2119.914714678058
 30
0.0
 40
90.0
  1
A  ~  A'
 41
0.6700000000000001
  7
00
100
AcDbText
  0
LINE
  5
16FEB
330
17B6C
100
AcDbEntity
  8
SUNPOU
100
AcDbLine
 10
4889.856483595693
 20
4556.963733520728
 30
0.0
 11
6315.086990845943
 21
4556.963733520728
 31
0.0
  0
TEXT
  5
16FEC
330
17B6C
100
AcDbEntity
  8
SUNPOU
100
AcDbText
 10
5675.684182736158
 20
4601.963733520728
 30
0.0
 40
90.0
  1
2810
 41
0.6666666666666666
  7
00
 72
     4
 11
5789.969897021872
 21
4646.963733520728
 31
0.0
100
AcDbText
  0
LINE
  5
16FF0
330
17B6C
100
AcDbEntity
  8
HIKIDASHI
100
AcDbLine
 10
3864.689878611732
 20
2573.963733520729
 30
0.0
 11
3495.92350178411
 21
2573.963733520729
 31
0.0
  0
TEXT
  5
16FF1
330
17B6C
100
AcDbEntity
  8
HIKIDASHI
100
AcDbText
 10
3522.991109376021
 20
2618.963733520729
 30
0.0
 40
90.0
  1
砕　石
  7
01
 72
     2
 11
3822.991109376021
 21
2663.963733520729
 31
0.0
100
AcDbText
 73
     2
  0
TEXT
  5
16FF3
330
17B6C
100
AcDbEntity
  8
SUNPOU
100
AcDbText
 10
6214.517344503915
 20
2588.570487822471
 30
0.0
 40
90.0
  1
5-D13×5-D13
 41
0.6700000000000001
  7
01
 72
     4
 11
6557.940201646772
 21
2633.570487822471
 31
0.0
100
AcDbText
  0
TEXT
  5
16FF4
330
17B6C
100
AcDbEntity
  8
SUNPOU
100
AcDbText
 10
5727.69726306127
 20
2588.570487822471
 30
0.0
 40
90.0
  1
ベース筋
  7
01
 72
     4
 11
5931.69726306127
 21
2633.570487822471
 31
0.0
100
AcDbText
  0
LINE
  5
16FF5
330
17B6C
100
AcDbEntity
  8
HIKIDASHI
100
AcDbLine
 10
6997.547440734263
 20
4083.963733520728
 30
0.0
 11
6196.483271007121
 21
4083.963733520728
 31
0.0
  0
TEXT
  5
16FF6
330
17B6C
100
AcDbEntity
  8
HIKIDASHI
100
AcDbText
 10
6240.317140088584
 20
4128.963733520728
 30
0.0
 40
90.0
  1
敷砂利又は砕石
  7
01
 72
     2
 11
6972.317140088584
 21
4173.963733520728
 31
0.0
100
AcDbText
 73
     2
  0
TEXT
  5
16FF7
330
17B6C
100
AcDbEntity
  8
HIKIDASHI
100
AcDbText
 10
6024.221954446723
 20
4338.963733520728
 30
0.0
 40
90.0
  1
土　間
  7
01
 72
     2
 11
6318.221954446722
 21
4383.963733520728
 31
0.0
100
AcDbText
 73
     2
  0
LINE
  5
16FF8
330
17B6C
100
AcDbEntity
  8
HIKIDASHI
100
AcDbLine
 10
6359.920723682438
 20
4293.963733520728
 30
0.0
 11
5991.154346854814
 21
4293.963733520728
 31
0.0
  0
TEXT
  5
16FF9
330
17B6C
100
AcDbEntity
  8
SUNPOU
100
AcDbText
 10
6200.509196873749
 20
3888.963733520728
 30
0.0
 40
90.0
  1
F.L
 41
0.6666666666666666
  7
00
 72
     4
 11
6269.080625445177
 21
3933.963733520729
 31
0.0
100
AcDbText
  0
LINE
  5
16FFA
330
17B6C
100
AcDbEntity
  8
SUNPOU
100
AcDbLine
 10
6269.080625445177
 20
3753.963733520729
 30
0.0
 11
6321.042149672243
 21
3843.963733520729
 31
0.0
  0
LINE
  5
16FFB
330
17B6C
100
AcDbEntity
  8
SUNPOU
100
AcDbLine
 10
6217.119101218109
 20
3843.963733520729
 30
0.0
 11
6269.080625445177
 21
3753.963733520729
 31
0.0
  0
LINE
  5
16FFC
330
17B6C
100
AcDbEntity
  8
SUNPOU
100
AcDbLine
 10
6321.042149672243
 20
3843.963733520729
 30
0.0
 11
6217.119101218109
 21
3843.963733520729
 31
0.0
  0
TEXT
  5
17000
330
17B6C
100
AcDbEntity
  8
HIKIDASHI
100
AcDbText
 10
3941.197894611569
 20
4128.754747320638
 30
0.0
 40
89.55223880597015
  1
350
 41
0.6700000000000001
  7
00
100
AcDbText
  0
TEXT
  5
17001
330
17B6C
100
AcDbEntity
  8
HIKIDASHI
100
AcDbText
 10
3647.115610627791
 20
4128.963733520728
 30
0.0
 40
89.55223880597015
  1
10
 41
0.6700000000000001
  7
00
100
AcDbText
  0
TEXT
  5
17002
330
17B6C
100
AcDbEntity
  8
HIKIDASHI
100
AcDbText
 10
3775.492365645627
 20
4155.393343159622
 30
0.0
 40
90.0
  1
%%c
 41
0.6700000000000001
  7
00
100
AcDbText
  0
TEXT
  5
17003
330
17B6C
100
AcDbEntity
  8
HIKIDASHI
100
AcDbText
 10
3415.608897026134
 20
4128.963733520728
 30
0.0
 40
90.0
  1
鉄筋
  7
01
100
AcDbText
  0
TEXT
  5
17004
330
17B6C
100
AcDbEntity
  8
HIKIDASHI
100
AcDbText
 10
3860.062515458436
 20
4140.157763371475
 30
0.0
 40
89.55223880597015
  1
x
 41
0.6700000000000001
  7
00
100
AcDbText
  0
LINE
  5
17006
330
17B6C
100
AcDbEntity
  8
KISO
100
AcDbLine
 10
4089.856483595691
 20
2985.963733520728
 30
0.0
 11
5689.856483595686
 21
2985.963733520732
 31
0.0
  0
LINE
  5
17009
330
17B6C
100
AcDbEntity
  8
KISO
100
AcDbLine
 10
4089.856483595691
 20
2985.963733520728
 30
0.0
 11
4089.856483595691
 21
3145.963733520729
 31
0.0
  0
LINE
  5
1700D
330
17B6C
100
AcDbEntity
  8
KISO
100
AcDbLine
 10
5689.856483595686
 20
2985.963733520732
 30
0.0
 11
5689.856483595686
 21
3145.963733520728
 31
0.0
  0
LINE
  5
1700E
330
17B6C
100
AcDbEntity
  8
KISO
100
AcDbLine
 10
4089.856483595691
 20
3145.963733520729
 30
0.0
 11
5689.856483595686
 21
3145.963733520728
 31
0.0
  0
TEXT
  5
17460
330
17B6C
100
AcDbEntity
  8
WAKUMOJI-01
100
AcDbText
 10
10328.25274254596
 20
659.5644874899107
 30
0.0
 40
120.0
  1
機種名
  7
WAKUMOJI
100
AcDbText
  0
TEXT
  5
17461
330
17B6C
100
AcDbEntity
  8
WAKUMOJI-01
100
AcDbText
 10
10335.13012998137
 20
1062.951504669661
 30
0.0
 40
120.0
  1
名　称
  7
WAKUMOJI
100
AcDbText
  0
LINE
  5
17462
330
17B6C
100
AcDbEntity
  8
WAKUSEN-02
100
AcDbLine
 10
13434.0
 20
413.9999999999963
 30
0.0
 11
13434.0
 21
1242.0
 31
0.0
  0
LINE
  5
17463
330
17B6C
100
AcDbEntity
  8
WAKUSEN-01
100
AcDbLine
 10
10280.0
 20
413.9999999999986
 30
0.0
 11
10280.0
 21
1242.0
 31
0.0
  0
LINE
  5
17464
330
17B6C
100
AcDbEntity
  8
WAKUSEN-01
100
AcDbLine
 10
10280.0
 20
1242.0
 30
0.0
 11
16382.0
 21
1242.0
 31
0.0
  0
LINE
  5
17465
330
17B6C
100
AcDbEntity
  8
WAKUSEN-02
100
AcDbLine
 10
10280.0
 20
827.9999999999997
 30
0.0
 11
13434.0
 21
827.9999999999997
 31
0.0
  0
LINE
  5
17466
330
17B6C
100
AcDbEntity
  8
WAKUSEN-01
100
AcDbLine
 10
434.0000000000008
 20
11242.0
 30
0.0
 11
16382.0
 21
11242.0
 31
0.0
  0
LINE
  5
17467
330
17B6C
100
AcDbEntity
  8
WAKUSEN-01
100
AcDbLine
 10
16382.0
 20
413.9999999999997
 30
0.0
 11
16382.0
 21
11242.0
 31
0.0
  0
LINE
  5
17468
330
17B6C
100
AcDbEntity
  8
WAKUSEN-01
100
AcDbLine
 10
434.0000000000008
 20
413.9999999999997
 30
0.0
 11
434.0000000000008
 21
11242.0
 31
0.0
  0
LINE
  5
17469
330
17B6C
100
AcDbEntity
  8
WAKUSEN-01
100
AcDbLine
 10
434.0000000000008
 20
413.9999999999997
 30
0.0
 11
16382.0
 21
413.9999999999997
 31
0.0
  0
LINE
  5
176E9
330
17B6C
100
AcDbEntity
  8
SUNPOU
100
AcDbLine
 10
4889.856483595693
 20
4586.963733520728
 30
0.0
 11
4889.856483595693
 21
4601.963733520728
 31
0.0
  0
LINE
  5
176EA
330
17B6C
100
AcDbEntity
  8
SUNPOU
100
AcDbLine
 10
4249.856483595691
 20
3783.963733520729
 30
0.0
 11
4249.856483595691
 21
4601.963733520728
 31
0.0
  0
LINE
  5
176EB
330
17B6C
100
AcDbEntity
  8
SUNPOU
100
AcDbLine
 10
4874.856483595692
 20
4556.963733520728
 30
0.0
 11
4264.856483595691
 21
4556.963733520728
 31
0.0
  0
LINE
  5
176EF
330
17B6C
100
AcDbEntity
  8
SUNPOU
  6
ByBlock
100
AcDbLine
 10
6375.086990845943
 20
4556.963733520728
 30
0.0
 11
6315.086990845929
 21
4556.963733520728
 31
0.0
  0
LINE
  5
176F0
330
17B6C
100
AcDbEntity
  8
SUNPOU
  6
ByBlock
100
AcDbLine
 10
6375.086990845936
 20
4556.963733520728
 30
0.0
 11
6315.086990845935
 21
4573.040685066597
 31
0.0
  0
LINE
  5
176F1
330
17B6C
100
AcDbEntity
  8
SUNPOU
  6
ByBlock
100
AcDbLine
 10
6375.086990845943
 20
4556.963733520728
 30
0.0
 11
6315.086990845929
 21
4540.886781974857
 31
0.0
  0
LINE
  5
176F2
330
17B6C
100
AcDbEntity
  8
SUNPOU
100
AcDbLine
 10
6397.249978138844
 20
3753.963733520729
 30
0.0
 11
6863.18758900464
 21
3753.963733520729
 31
0.0
  0
LINE
  5
176F3
330
17B6C
100
AcDbEntity
  8
SUNPOU
100
AcDbLine
 10
5719.856483595691
 20
3145.963733520729
 30
0.0
 11
6863.18758900464
 21
3145.963733520729
 31
0.0
  0
LINE
  5
176F4
330
17B6C
100
AcDbEntity
  8
SUNPOU
100
AcDbLine
 10
6818.18758900464
 20
3738.963733520729
 30
0.0
 11
6818.18758900464
 21
3160.963733520729
 31
0.0
  0
LINE
  5
176F8
330
17B6C
100
AcDbEntity
  8
SUNPOU
100
AcDbLine
 10
5719.856483595692
 20
3145.963733520728
 30
0.0
 11
6863.18758900464
 21
3145.963733520728
 31
0.0
  0
LINE
  5
176F9
330
17B6C
100
AcDbEntity
  8
SUNPOU
100
AcDbLine
 10
5719.856483595692
 20
2985.963733520732
 30
0.0
 11
6863.18758900464
 21
2985.963733520732
 31
0.0
  0
LINE
  5
176FA
330
17B6C
100
AcDbEntity
  8
SUNPOU
100
AcDbLine
 10
6818.18758900464
 20
3130.963733520728
 30
0.0
 11
6818.18758900464
 21
3000.963733520731
 31
0.0
  0
LINE
  5
176FE
330
17B6C
100
AcDbEntity
  8
SUNPOU
100
AcDbLine
 10
6397.249978138844
 20
3753.963733520729
 30
0.0
 11
7069.437589004642
 21
3753.963733520729
 31
0.0
  0
LINE
  5
176FF
330
17B6C
100
AcDbEntity
  8
SUNPOU
100
AcDbLine
 10
5719.856483595692
 20
2985.963733520732
 30
0.0
 11
7069.437589004642
 21
2985.963733520732
 31
0.0
  0
LINE
  5
17700
330
17B6C
100
AcDbEntity
  8
SUNPOU
100
AcDbLine
 10
7024.43758900464
 20
3738.963733520729
 30
0.0
 11
7024.43758900464
 21
3000.963733520731
 31
0.0
  0
LINE
  5
17704
330
17B6C
100
AcDbEntity
  8
SUNPOU
100
AcDbLine
 10
4249.856483595691
 20
3115.963733520729
 30
0.0
 11
4249.856483595691
 21
2560.963733520728
 31
0.0
  0
LINE
  5
17705
330
17B6C
100
AcDbEntity
  8
SUNPOU
100
AcDbLine
 10
5529.856483595692
 20
3115.963733520729
 30
0.0
 11
5529.856483595692
 21
2560.963733520728
 31
0.0
  0
LINE
  5
17706
330
17B6C
100
AcDbEntity
  8
SUNPOU
100
AcDbLine
 10
4264.856483595691
 20
2605.963733520728
 30
0.0
 11
5514.856483595691
 21
2605.963733520728
 31
0.0
  0
LINE
  5
1770A
330
17B6C
100
AcDbEntity
  8
SUNPOU
100
AcDbLine
 10
4089.856483595691
 20
2955.963733520729
 30
0.0
 11
4089.856483595691
 21
2350.963733520728
 31
0.0
  0
LINE
  5
1770B
330
17B6C
100
AcDbEntity
  8
SUNPOU
100
AcDbLine
 10
5689.856483595693
 20
2955.963733520731
 30
0.0
 11
5689.856483595693
 21
2350.963733520728
 31
0.0
  0
LINE
  5
1770C
330
17B6C
100
AcDbEntity
  8
SUNPOU
100
AcDbLine
 10
4104.856483595692
 20
2395.963733520728
 30
0.0
 11
5674.856483595693
 21
2395.963733520728
 31
0.0
  0
LINE
  5
17710
330
17B6C
100
AcDbEntity
  8
SUNPOU
100
AcDbLine
 10
12365.12750789964
 20
8918.243182432327
 30
0.0
 11
12784.12750789964
 21
8918.243182432327
 31
0.0
  0
LINE
  5
17711
330
17B6C
100
AcDbEntity
  8
SUNPOU
100
AcDbLine
 10
12369.12750789964
 20
9118.243182432328
 30
0.0
 11
12784.12750789964
 21
9118.243182432328
 31
0.0
  0
LINE
  5
17712
330
17B6C
100
AcDbEntity
  8
SUNPOU
100
AcDbLine
 10
12739.12750789964
 20
8933.243182432326
 30
0.0
 11
12739.12750789964
 21
9103.243182432327
 31
0.0
  0
LINE
  5
17713
330
17B6C
100
AcDbEntity
  8
SUNPOU
100
AcDbLine
 10
12739.12750789964
 20
9118.243182432328
 30
0.0
 11
12739.12750789964
 21
9377.52889671804
 31
0.0
  0
LINE
  5
17717
330
17B6C
100
AcDbEntity
  8
SUNPOU
100
AcDbLine
 10
12514.12750789964
 20
8718.243182432329
 30
0.0
 11
12784.12750789964
 21
8718.243182432329
 31
0.0
  0
LINE
  5
17718
330
17B6C
100
AcDbEntity
  8
SUNPOU
100
AcDbLine
 10
12369.12750789964
 20
8918.243182432327
 30
0.0
 11
12784.12750789964
 21
8918.243182432327
 31
0.0
  0
LINE
  5
17719
330
17B6C
100
AcDbEntity
  8
SUNPOU
100
AcDbLine
 10
12739.12750789964
 20
8903.243182432326
 30
0.0
 11
12739.12750789964
 21
8733.243182432326
 31
0.0
  0
LINE
  5
1771A
330
17B6C
100
AcDbEntity
  8
SUNPOU
100
AcDbLine
 10
12739.12750789964
 20
8718.243182432329
 30
0.0
 11
12739.12750789964
 21
8458.957468146612
 31
0.0
  0
LINE
  5
1771E
330
17B6C
100
AcDbEntity
  8
SUNPOU
100
AcDbLine
 10
9559.12750789964
 20
7308.243182432327
 30
0.0
 11
9874.127507899641
 21
7308.243182432327
 31
0.0
  0
LINE
  5
1771F
330
17B6C
100
AcDbEntity
  8
SUNPOU
100
AcDbLine
 10
9559.12750789964
 20
6508.243182432327
 30
0.0
 11
9874.127507899641
 21
6508.243182432327
 31
0.0
  0
LINE
  5
17720
330
17B6C
100
AcDbEntity
  8
SUNPOU
100
AcDbLine
 10
9829.127507899642
 20
7293.243182432327
 30
0.0
 11
9829.127507899642
 21
6523.243182432327
 31
0.0
  0
LINE
  5
17724
330
17B6C
100
AcDbEntity
  8
SUNPOU
100
AcDbLine
 10
5544.127507899639
 20
7118.243182432327
 30
0.0
 11
5529.127507899637
 21
7208.243182432326
 31
0.0
  0
LINE
  5
17725
330
17B6C
100
AcDbEntity
  8
SUNPOU
100
AcDbLine
 10
5529.127507899637
 20
7208.243182432326
 30
0.0
 11
5514.127507899639
 21
7118.243182432327
 31
0.0
  0
SOLID
  5
17726
330
17B6C
100
AcDbEntity
  8
SUNPOU
100
AcDbTrace
 10
5544.127507899639
 20
7118.243182432327
 30
0.0
 11
5514.127507899639
 21
7118.243182432327
 31
0.0
 12
5529.127507899637
 22
7208.243182432326
 32
0.0
 13
5529.127507899637
 23
7208.243182432326
 33
0.0
  0
LINE
  5
17727
330
17B6C
100
AcDbEntity
  8
SUNPOU
100
AcDbLine
 10
5514.127507899639
 20
7118.243182432327
 30
0.0
 11
5544.127507899639
 21
7118.243182432327
 31
0.0
  0
LINE
  5
17728
330
17B6C
100
AcDbEntity
  8
SUNPOU
100
AcDbLine
 10
4294.127507899637
 20
7118.243182432327
 30
0.0
 11
4309.127507899637
 21
7208.243182432326
 31
0.0
  0
LINE
  5
17729
330
17B6C
100
AcDbEntity
  8
SUNPOU
100
AcDbLine
 10
4309.127507899637
 20
7208.243182432326
 30
0.0
 11
4324.127507899635
 21
7118.243182432327
 31
0.0
  0
SOLID
  5
1772A
330
17B6C
100
AcDbEntity
  8
SUNPOU
100
AcDbTrace
 10
4294.127507899637
 20
7118.243182432327
 30
0.0
 11
4324.127507899635
 21
7118.243182432327
 31
0.0
 12
4309.127507899637
 22
7208.243182432326
 32
0.0
 13
4309.127507899637
 23
7208.243182432326
 33
0.0
  0
LINE
  5
1772B
330
17B6C
100
AcDbEntity
  8
SUNPOU
100
AcDbLine
 10
4324.127507899635
 20
7118.243182432327
 30
0.0
 11
4294.127507899637
 21
7118.243182432327
 31
0.0
  0
TEXT
  5
1772C
330
17B6C
100
AcDbEntity
  8
SUNPOU
100
AcDbText
 10
8021.413222185353
 20
9463.243182432329
 30
0.0
 40
90.0
  1
2810 × （ N - 2 ）
 41
0.6666666666666666
  7
00
100
AcDbText
  0
LINE
  5
1772E
330
17B6C
100
AcDbEntity
  8
SUNPOU
  6
ByBlock
100
AcDbLine
 10
7740.377507899639
 20
9418.243182432329
 30
0.0
 11
7751.627507899637
 21
9418.243182432329
 31
0.0
  0
LINE
  5
17730
330
17B6C
100
AcDbEntity
  8
SUNPOU
  6
ByBlock
100
AcDbLine
 10
9117.87750789964
 20
9418.243182432329
 30
0.0
 11
9106.627507899641
 21
9418.243182432329
 31
0.0
  0
LINE
  5
17731
330
17B6C
100
AcDbEntity
  8
SUNPOU
100
AcDbLine
 10
4519.127507899638
 20
9148.243182432329
 30
0.0
 11
4519.127507899638
 21
9673.243182432329
 31
0.0
  0
LINE
  5
17732
330
17B6C
100
AcDbEntity
  8
SUNPOU
100
AcDbLine
 10
12339.12750789964
 20
9148.243182432329
 30
0.0
 11
12339.12750789964
 21
9673.243182432329
 31
0.0
  0
LINE
  5
17733
330
17B6C
100
AcDbEntity
  8
SUNPOU
100
AcDbLine
 10
4534.127507899639
 20
9628.243182432328
 30
0.0
 11
12324.12750789964
 21
9628.243182432328
 31
0.0
  0
LINE
  5
17737
330
17B6C
100
AcDbEntity
  8
SUNPOU
100
AcDbLine
 10
7729.127507899639
 20
9348.243182432328
 30
0.0
 11
7729.127507899639
 21
9463.243182432329
 31
0.0
  0
LINE
  5
17738
330
17B6C
100
AcDbEntity
  8
SUNPOU
100
AcDbLine
 10
4919.12750789964
 20
9348.243182432328
 30
0.0
 11
4919.12750789964
 21
9463.243182432329
 31
0.0
  0
LINE
  5
17739
330
17B6C
100
AcDbEntity
  8
SUNPOU
100
AcDbLine
 10
7714.127507899639
 20
9418.243182432329
 30
0.0
 11
4934.127507899638
 21
9418.243182432329
 31
0.0
  0
LINE
  5
1773D
330
17B6C
100
AcDbEntity
  8
SUNPOU
100
AcDbLine
 10
11939.12750789964
 20
9348.243182432328
 30
0.0
 11
11939.12750789964
 21
9463.243182432329
 31
0.0
  0
LINE
  5
1773E
330
17B6C
100
AcDbEntity
  8
SUNPOU
100
AcDbLine
 10
9129.127507899641
 20
9348.243182432328
 30
0.0
 11
9129.127507899641
 21
9463.243182432329
 31
0.0
  0
LINE
  5
1773F
330
17B6C
100
AcDbEntity
  8
SUNPOU
100
AcDbLine
 10
11924.12750789964
 20
9418.243182432329
 30
0.0
 11
9144.127507899641
 21
9418.243182432329
 31
0.0
  0
LINE
  5
17743
330
17B6C
100
AcDbEntity
  8
SUNPOU
100
AcDbLine
 10
4919.12750789964
 20
9348.243182432328
 30
0.0
 11
4919.12750789964
 21
9463.243182432329
 31
0.0
  0
LINE
  5
17744
330
17B6C
100
AcDbEntity
  8
SUNPOU
100
AcDbLine
 10
4519.127507899638
 20
9148.243182432329
 30
0.0
 11
4519.127507899638
 21
9463.243182432329
 31
0.0
  0
LINE
  5
17745
330
17B6C
100
AcDbEntity
  8
SUNPOU
100
AcDbLine
 10
4904.127507899637
 20
9418.243182432329
 30
0.0
 11
4534.127507899639
 21
9418.243182432329
 31
0.0
  0
LINE
  5
17749
330
17B6C
100
AcDbEntity
  8
SUNPOU
100
AcDbLine
 10
11939.12750789964
 20
9348.243182432328
 30
0.0
 11
11939.12750789964
 21
9463.243182432329
 31
0.0
  0
LINE
  5
1774A
330
17B6C
100
AcDbEntity
  8
SUNPOU
100
AcDbLine
 10
12339.12750789964
 20
9148.243182432329
 30
0.0
 11
12339.12750789964
 21
9463.243182432329
 31
0.0
  0
LINE
  5
1774B
330
17B6C
100
AcDbEntity
  8
SUNPOU
100
AcDbLine
 10
11954.12750789964
 20
9418.243182432329
 30
0.0
 11
12324.12750789964
 21
9418.243182432329
 31
0.0
  0
LINE
  5
17750
330
17B6C
100
AcDbEntity
  8
SUNPOU
  6
ByBlock
100
AcDbLine
 10
13159.12750789964
 20
9106.993182432329
 30
0.0
 11
13159.12750789964
 21
9095.743182432327
 31
0.0
  0
LINE
  5
17752
330
17B6C
100
AcDbEntity
  8
SUNPOU
  6
ByBlock
100
AcDbLine
 10
12949.12750789964
 20
9106.993182432329
 30
0.0
 11
12949.12750789964
 21
9095.743182432327
 31
0.0
  0
LINE
  5
17754
330
17B6C
100
AcDbEntity
  8
SUNPOU
  6
ByBlock
100
AcDbLine
 10
12949.12750789964
 20
8706.993182432325
 30
0.0
 11
12949.12750789964
 21
8695.743182432327
 31
0.0
  0
LINE
  5
17756
330
17B6C
100
AcDbEntity
  8
SUNPOU
  6
ByBlock
100
AcDbLine
 10
12949.12750789964
 20
8729.493182432326
 30
0.0
 11
12949.12750789964
 21
8740.743182432327
 31
0.0
  0
LINE
  5
17758
330
17B6C
100
AcDbEntity
  8
SUNPOU
  6
ByBlock
100
AcDbLine
 10
12949.12750789964
 20
6896.993182432327
 30
0.0
 11
12949.12750789964
 21
6885.743182432327
 31
0.0
  0
LINE
  5
1775A
330
17B6C
100
AcDbEntity
  8
SUNPOU
  6
ByBlock
100
AcDbLine
 10
12949.12750789964
 20
6919.493182432326
 30
0.0
 11
12949.12750789964
 21
6930.743182432327
 31
0.0
  0
LINE
  5
1775C
330
17B6C
100
AcDbEntity
  8
SUNPOU
  6
ByBlock
100
AcDbLine
 10
13159.12750789964
 20
6519.493182432326
 30
0.0
 11
13159.12750789964
 21
6530.743182432328
 31
0.0
  0
LINE
  5
1775E
330
17B6C
100
AcDbEntity
  8
SUNPOU
  6
ByBlock
100
AcDbLine
 10
12949.12750789964
 20
6519.493182432326
 30
0.0
 11
12949.12750789964
 21
6530.743182432328
 31
0.0
  0
LINE
  5
1775F
330
17B6C
100
AcDbEntity
  8
SUNPOU
100
AcDbLine
 10
7299.12750789964
 20
9118.243182432328
 30
0.0
 11
6984.127507899639
 21
9118.243182432328
 31
0.0
  0
LINE
  5
17760
330
17B6C
100
AcDbEntity
  8
SUNPOU
100
AcDbLine
 10
7299.12750789964
 20
8318.243182432327
 30
0.0
 11
6984.127507899639
 21
8318.243182432327
 31
0.0
  0
LINE
  5
17761
330
17B6C
100
AcDbEntity
  8
SUNPOU
100
AcDbLine
 10
7029.127507899639
 20
9103.243182432327
 30
0.0
 11
7029.127507899639
 21
8333.243182432326
 31
0.0
  0
LINE
  5
17765
330
17B6C
100
AcDbEntity
  8
SUNPOU
100
AcDbLine
 10
7329.127507899639
 20
8288.243182432326
 30
0.0
 11
7329.127507899639
 21
7973.243182432327
 31
0.0
  0
LINE
  5
17766
330
17B6C
100
AcDbEntity
  8
SUNPOU
100
AcDbLine
 10
8129.127507899639
 20
8288.243182432326
 30
0.0
 11
8129.127507899639
 21
7973.243182432327
 31
0.0
  0
LINE
  5
17767
330
17B6C
100
AcDbEntity
  8
SUNPOU
100
AcDbLine
 10
7344.127507899639
 20
8018.243182432327
 30
0.0
 11
8114.127507899636
 21
8018.243182432327
 31
0.0
  0
LINE
  5
1776B
330
17B6C
100
AcDbEntity
  8
SUNPOU
100
AcDbLine
 10
8729.127507899638
 20
7338.243182432326
 30
0.0
 11
8729.127507899638
 21
7653.243182432325
 31
0.0
  0
LINE
  5
1776C
330
17B6C
100
AcDbEntity
  8
SUNPOU
100
AcDbLine
 10
9529.127507899641
 20
7338.243182432326
 30
0.0
 11
9529.127507899641
 21
7653.243182432325
 31
0.0
  0
LINE
  5
1776D
330
17B6C
100
AcDbEntity
  8
SUNPOU
100
AcDbLine
 10
8744.127507899639
 20
7608.243182432326
 30
0.0
 11
9514.12750789964
 21
7608.243182432326
 31
0.0
  0
TEXT
  5
17771
330
17B6C
100
AcDbEntity
  8
SUNPOU
100
AcDbText
 10
4484.142197881406
 20
4601.963733520728
 30
0.0
 40
90.0
  1
400
 41
0.6666666666666666
  7
00
100
AcDbText
  0
LINE
  5
17773
330
17B6C
100
AcDbEntity
  8
SUNPOU
  6
ByBlock
100
AcDbLine
 10
4261.106483595692
 20
4556.963733520728
 30
0.0
 11
4272.356483595691
 21
4556.963733520728
 31
0.0
  0
LINE
  5
17775
330
17B6C
100
AcDbEntity
  8
SUNPOU
  6
ByBlock
100
AcDbLine
 10
4878.606483595692
 20
4556.963733520728
 30
0.0
 11
4867.356483595692
 21
4556.963733520728
 31
0.0
  0
TEXT
  5
17776
330
17B6C
100
AcDbEntity
  8
SUNPOU
100
AcDbText
 10
6773.187589004638
 20
3364.249447806444
 30
0.0
 40
90.0
  1
380
 50
90.0
 41
0.6666666666666666
  7
00
100
AcDbText
  0
LINE
  5
17778
330
17B6C
100
AcDbEntity
  8
SUNPOU
  6
ByBlock
100
AcDbLine
 10
6818.18758900464
 20
3157.213733520729
 30
0.0
 11
6818.18758900464
 21
3168.463733520729
 31
0.0
  0
LINE
  5
1777A
330
17B6C
100
AcDbEntity
  8
SUNPOU
  6
ByBlock
100
AcDbLine
 10
6818.18758900464
 20
3742.713733520729
 30
0.0
 11
6818.18758900464
 21
3731.463733520728
 31
0.0
  0
LINE
  5
1777C
330
17B6C
100
AcDbEntity
  8
SUNPOU
  6
ByBlock
100
AcDbLine
 10
6818.18758900464
 20
2997.213733520732
 30
0.0
 11
6818.18758900464
 21
3008.463733520732
 31
0.0
  0
LINE
  5
1777E
330
17B6C
100
AcDbEntity
  8
SUNPOU
  6
ByBlock
100
AcDbLine
 10
6818.18758900464
 20
3134.713733520728
 30
0.0
 11
6818.18758900464
 21
3123.463733520728
 31
0.0
  0
TEXT
  5
1777F
330
17B6C
100
AcDbEntity
  8
SUNPOU
100
AcDbText
 10
6775.015821249391
 20
2760.243102996788
 30
0.0
 40
90.0
  1
100
 50
90.0
 41
0.6666666666666666
  7
00
100
AcDbText
  0
TEXT
  5
17780
330
17B6C
100
AcDbEntity
  8
SUNPOU
100
AcDbText
 10
6979.437589004638
 20
3284.249447806444
 30
0.0
 40
90.0
  1
480
 50
90.0
 41
0.6666666666666666
  7
00
100
AcDbText
  0
LINE
  5
17782
330
17B6C
100
AcDbEntity
  8
SUNPOU
  6
ByBlock
100
AcDbLine
 10
7024.43758900464
 20
2997.213733520732
 30
0.0
 11
7024.43758900464
 21
3008.463733520732
 31
0.0
  0
LINE
  5
17784
330
17B6C
100
AcDbEntity
  8
SUNPOU
  6
ByBlock
100
AcDbLine
 10
7024.43758900464
 20
3742.713733520729
 30
0.0
 11
7024.43758900464
 21
3731.463733520728
 31
0.0
  0
TEXT
  5
17785
330
17B6C
100
AcDbEntity
  8
SUNPOU
100
AcDbText
 10
4804.142197881406
 20
2650.963733520728
 30
0.0
 40
90.0
  1
800
 41
0.6666666666666666
  7
00
100
AcDbText
  0
LINE
  5
17787
330
17B6C
100
AcDbEntity
  8
SUNPOU
  6
ByBlock
100
AcDbLine
 10
5518.606483595691
 20
2605.963733520728
 30
0.0
 11
5507.356483595692
 21
2605.963733520728
 31
0.0
  0
LINE
  5
17789
330
17B6C
100
AcDbEntity
  8
SUNPOU
  6
ByBlock
100
AcDbLine
 10
4261.106483595692
 20
2605.963733520728
 30
0.0
 11
4272.356483595691
 21
2605.963733520728
 31
0.0
  0
TEXT
  5
1778A
330
17B6C
100
AcDbEntity
  8
SUNPOU
100
AcDbText
 10
4771.285055024263
 20
2440.963733520729
 30
0.0
 40
90.0
  1
1000
 41
0.6666666666666666
  7
00
100
AcDbText
  0
LINE
  5
1778C
330
17B6C
100
AcDbEntity
  8
SUNPOU
  6
ByBlock
100
AcDbLine
 10
5678.606483595692
 20
2395.963733520728
 30
0.0
 11
5667.356483595693
 21
2395.963733520728
 31
0.0
  0
LINE
  5
1778E
330
17B6C
100
AcDbEntity
  8
SUNPOU
  6
ByBlock
100
AcDbLine
 10
4101.106483595692
 20
2395.963733520728
 30
0.0
 11
4112.356483595691
 21
2395.963733520728
 31
0.0
  0
TEXT
  5
1778F
330
17B6C
100
AcDbEntity
  8
SUNPOU
100
AcDbText
 10
12694.12750789964
 20
9169.6717538609
 30
0.0
 40
90.0
  1
200
 50
90.0
 41
0.6666666666666666
  7
00
100
AcDbText
  0
LINE
  5
17791
330
17B6C
100
AcDbEntity
  8
SUNPOU
  6
ByBlock
100
AcDbLine
 10
12739.12750789964
 20
9106.993182432329
 30
0.0
 11
12739.12750789964
 21
9095.743182432327
 31
0.0
  0
LINE
  5
17793
330
17B6C
100
AcDbEntity
  8
SUNPOU
  6
ByBlock
100
AcDbLine
 10
12739.12750789964
 20
8929.493182432327
 30
0.0
 11
12739.12750789964
 21
8940.743182432326
 31
0.0
  0
TEXT
  5
17794
330
17B6C
100
AcDbEntity
  8
SUNPOU
100
AcDbText
 10
12694.12750789964
 20
8495.386039575187
 30
0.0
 40
90.0
  1
200
 50
90.0
 41
0.6666666666666666
  7
00
100
AcDbText
  0
LINE
  5
17796
330
17B6C
100
AcDbEntity
  8
SUNPOU
  6
ByBlock
100
AcDbLine
 10
12739.12750789964
 20
8729.493182432326
 30
0.0
 11
12739.12750789964
 21
8740.743182432327
 31
0.0
  0
LINE
  5
17798
330
17B6C
100
AcDbEntity
  8
SUNPOU
  6
ByBlock
100
AcDbLine
 10
12739.12750789964
 20
8906.993182432326
 30
0.0
 11
12739.12750789964
 21
8895.743182432326
 31
0.0
  0
TEXT
  5
17799
330
17B6C
100
AcDbEntity
  8
SUNPOU
100
AcDbText
 10
9784.12750789964
 20
6822.528896718042
 30
0.0
 40
90.0
  1
800
 50
90.0
 41
0.6666666666666666
  7
00
100
AcDbText
  0
LINE
  5
1779B
330
17B6C
100
AcDbEntity
  8
SUNPOU
  6
ByBlock
100
AcDbLine
 10
9829.127507899642
 20
6519.493182432326
 30
0.0
 11
9829.127507899642
 21
6530.743182432328
 31
0.0
  0
LINE
  5
1779D
330
17B6C
100
AcDbEntity
  8
SUNPOU
  6
ByBlock
100
AcDbLine
 10
9829.127507899642
 20
7296.993182432327
 30
0.0
 11
9829.127507899642
 21
7285.743182432327
 31
0.0
  0
ARC
  5
1779E
330
17B6C
100
AcDbEntity
  8
SUNPOU
  6
ByBlock
100
AcDbCircle
 10
7729.127507899639
 20
9418.243182432329
 30
0.0
 40
5.625
100
AcDbArc
 50
0.0
 51
180.0
  0
ARC
  5
1779F
330
17B6C
100
AcDbEntity
  8
SUNPOU
  6
ByBlock
100
AcDbCircle
 10
7729.127507899639
 20
9418.243182432329
 30
0.0
 40
5.625
100
AcDbArc
 50
180.0
 51
0.0
  0
ARC
  5
177A0
330
17B6C
100
AcDbEntity
  8
SUNPOU
  6
ByBlock
100
AcDbCircle
 10
9129.127507899641
 20
9418.243182432329
 30
0.0
 40
5.625
100
AcDbArc
 50
180.0
 51
0.0
  0
ARC
  5
177A1
330
17B6C
100
AcDbEntity
  8
SUNPOU
  6
ByBlock
100
AcDbCircle
 10
9129.127507899641
 20
9418.243182432329
 30
0.0
 40
5.625
100
AcDbArc
 50
0.0
 51
180.0
  0
TEXT
  5
177A2
330
17B6C
100
AcDbEntity
  8
SUNPOU
100
AcDbText
 10
7965.413222185353
 20
9673.243182432329
 30
0.0
 40
90.0
  1
L = 2810 x N + 800
 41
0.6666666666666666
  7
00
100
AcDbText
  0
LINE
  5
177A4
330
17B6C
100
AcDbEntity
  8
SUNPOU
  6
ByBlock
100
AcDbLine
 10
12327.87750789964
 20
9628.243182432328
 30
0.0
 11
12316.62750789964
 21
9628.243182432328
 31
0.0
  0
LINE
  5
177A6
330
17B6C
100
AcDbEntity
  8
SUNPOU
  6
ByBlock
100
AcDbLine
 10
4530.377507899639
 20
9628.243182432328
 30
0.0
 11
4541.627507899637
 21
9628.243182432328
 31
0.0
  0
TEXT
  5
177A7
330
17B6C
100
AcDbEntity
  8
SUNPOU
100
AcDbText
 10
6209.841793613925
 20
9463.243182432329
 30
0.0
 40
90.0
  1
2810
 41
0.6666666666666666
  7
00
100
AcDbText
  0
LINE
  5
177A9
330
17B6C
100
AcDbEntity
  8
SUNPOU
  6
ByBlock
100
AcDbLine
 10
4930.377507899638
 20
9418.243182432329
 30
0.0
 11
4941.62750789964
 21
9418.243182432329
 31
0.0
  0
LINE
  5
177AB
330
17B6C
100
AcDbEntity
  8
SUNPOU
  6
ByBlock
100
AcDbLine
 10
7717.877507899641
 20
9418.243182432329
 30
0.0
 11
7706.627507899638
 21
9418.243182432329
 31
0.0
  0
TEXT
  5
177AC
330
17B6C
100
AcDbEntity
  8
SUNPOU
100
AcDbText
 10
10419.84179361392
 20
9463.243182432329
 30
0.0
 40
90.0
  1
2810
 41
0.6666666666666666
  7
00
100
AcDbText
  0
LINE
  5
177AE
330
17B6C
100
AcDbEntity
  8
SUNPOU
  6
ByBlock
100
AcDbLine
 10
9140.377507899641
 20
9418.243182432329
 30
0.0
 11
9151.62750789964
 21
9418.243182432329
 31
0.0
  0
LINE
  5
177B0
330
17B6C
100
AcDbEntity
  8
SUNPOU
  6
ByBlock
100
AcDbLine
 10
11927.87750789964
 20
9418.243182432329
 30
0.0
 11
11916.62750789964
 21
9418.243182432329
 31
0.0
  0
TEXT
  5
177B1
330
17B6C
100
AcDbEntity
  8
SUNPOU
100
AcDbText
 10
4633.413222185352
 20
9463.243182432329
 30
0.0
 40
90.0
  1
400
 41
0.6666666666666666
  7
00
100
AcDbText
  0
LINE
  5
177B3
330
17B6C
100
AcDbEntity
  8
SUNPOU
  6
ByBlock
100
AcDbLine
 10
4530.377507899639
 20
9418.243182432329
 30
0.0
 11
4541.627507899637
 21
9418.243182432329
 31
0.0
  0
LINE
  5
177B5
330
17B6C
100
AcDbEntity
  8
SUNPOU
  6
ByBlock
100
AcDbLine
 10
4907.877507899637
 20
9418.243182432329
 30
0.0
 11
4896.62750789964
 21
9418.243182432329
 31
0.0
  0
TEXT
  5
177B6
330
17B6C
100
AcDbEntity
  8
SUNPOU
100
AcDbText
 10
12053.41322218534
 20
9463.243182432329
 30
0.0
 40
90.0
  1
400
 41
0.6666666666666666
  7
00
100
AcDbText
  0
LINE
  5
177B8
330
17B6C
100
AcDbEntity
  8
SUNPOU
  6
ByBlock
100
AcDbLine
 10
12327.87750789964
 20
9418.243182432329
 30
0.0
 11
12316.62750789964
 21
9418.243182432329
 31
0.0
  0
LINE
  5
177BA
330
17B6C
100
AcDbEntity
  8
SUNPOU
  6
ByBlock
100
AcDbLine
 10
11950.37750789964
 20
9418.243182432329
 30
0.0
 11
11961.62750789964
 21
9418.243182432329
 31
0.0
  0
ARC
  5
177BB
330
17B6C
100
AcDbEntity
  8
SUNPOU
  6
ByBlock
100
AcDbCircle
 10
13159.12750789964
 20
9118.243182432328
 30
0.0
 40
5.625
100
AcDbArc
 50
270.0
 51
90.0
  0
ARC
  5
177BC
330
17B6C
100
AcDbEntity
  8
SUNPOU
  6
ByBlock
100
AcDbCircle
 10
13159.12750789964
 20
9118.243182432328
 30
0.0
 40
5.625
100
AcDbArc
 50
90.0
 51
270.0
  0
ARC
  5
177BD
330
17B6C
100
AcDbEntity
  8
SUNPOU
  6
ByBlock
100
AcDbCircle
 10
12949.12750789964
 20
9118.243182432328
 30
0.0
 40
5.625
100
AcDbArc
 50
270.0
 51
90.0
  0
ARC
  5
177BE
330
17B6C
100
AcDbEntity
  8
SUNPOU
  6
ByBlock
100
AcDbCircle
 10
12949.12750789964
 20
9118.243182432328
 30
0.0
 40
5.625
100
AcDbArc
 50
90.0
 51
270.0
  0
ARC
  5
177BF
330
17B6C
100
AcDbEntity
  8
SUNPOU
  6
ByBlock
100
AcDbCircle
 10
12949.12750789964
 20
8718.243182432329
 30
0.0
 40
5.625
100
AcDbArc
 50
270.0
 51
90.0
  0
ARC
  5
177C0
330
17B6C
100
AcDbEntity
  8
SUNPOU
  6
ByBlock
100
AcDbCircle
 10
12949.12750789964
 20
8718.243182432329
 30
0.0
 40
5.625
100
AcDbArc
 50
90.0
 51
270.0
  0
ARC
  5
177C1
330
17B6C
100
AcDbEntity
  8
SUNPOU
  6
ByBlock
100
AcDbCircle
 10
12949.12750789964
 20
8718.243182432329
 30
0.0
 40
5.625
100
AcDbArc
 50
90.0
 51
270.0
  0
ARC
  5
177C2
330
17B6C
100
AcDbEntity
  8
SUNPOU
  6
ByBlock
100
AcDbCircle
 10
12949.12750789964
 20
8718.243182432329
 30
0.0
 40
5.625
100
AcDbArc
 50
270.0
 51
90.0
  0
ARC
  5
177C3
330
17B6C
100
AcDbEntity
  8
SUNPOU
  6
ByBlock
100
AcDbCircle
 10
12949.12750789964
 20
6908.243182432326
 30
0.0
 40
5.625
100
AcDbArc
 50
270.0
 51
90.0
  0
ARC
  5
177C4
330
17B6C
100
AcDbEntity
  8
SUNPOU
  6
ByBlock
100
AcDbCircle
 10
12949.12750789964
 20
6908.243182432326
 30
0.0
 40
5.625
100
AcDbArc
 50
90.0
 51
270.0
  0
ARC
  5
177C5
330
17B6C
100
AcDbEntity
  8
SUNPOU
  6
ByBlock
100
AcDbCircle
 10
12949.12750789964
 20
6908.243182432326
 30
0.0
 40
5.625
100
AcDbArc
 50
90.0
 51
270.0
  0
ARC
  5
177C6
330
17B6C
100
AcDbEntity
  8
SUNPOU
  6
ByBlock
100
AcDbCircle
 10
12949.12750789964
 20
6908.243182432326
 30
0.0
 40
5.625
100
AcDbArc
 50
270.0
 51
90.0
  0
ARC
  5
177C7
330
17B6C
100
AcDbEntity
  8
SUNPOU
  6
ByBlock
100
AcDbCircle
 10
13159.12750789964
 20
6508.243182432327
 30
0.0
 40
5.625
100
AcDbArc
 50
90.0
 51
270.0
  0
ARC
  5
177C8
330
17B6C
100
AcDbEntity
  8
SUNPOU
  6
ByBlock
100
AcDbCircle
 10
13159.12750789964
 20
6508.243182432327
 30
0.0
 40
5.625
100
AcDbArc
 50
270.0
 51
90.0
  0
ARC
  5
177C9
330
17B6C
100
AcDbEntity
  8
SUNPOU
  6
ByBlock
100
AcDbCircle
 10
12949.12750789964
 20
6508.243182432327
 30
0.0
 40
5.625
100
AcDbArc
 50
90.0
 51
270.0
  0
ARC
  5
177CA
330
17B6C
100
AcDbEntity
  8
SUNPOU
  6
ByBlock
100
AcDbCircle
 10
12949.12750789964
 20
6508.243182432327
 30
0.0
 40
5.625
100
AcDbArc
 50
270.0
 51
90.0
  0
TEXT
  5
177CB
330
17B6C
100
AcDbEntity
  8
SUNPOU
100
AcDbText
 10
6984.127507899637
 20
8632.528896718042
 30
0.0
 40
90.0
  1
800
 50
90.0
 41
0.6666666666666666
  7
00
100
AcDbText
  0
LINE
  5
177CD
330
17B6C
100
AcDbEntity
  8
SUNPOU
  6
ByBlock
100
AcDbLine
 10
7029.127507899639
 20
8329.493182432328
 30
0.0
 11
7029.127507899639
 21
8340.743182432326
 31
0.0
  0
LINE
  5
177CF
330
17B6C
100
AcDbEntity
  8
SUNPOU
  6
ByBlock
100
AcDbLine
 10
7029.127507899639
 20
9106.993182432329
 30
0.0
 11
7029.127507899639
 21
9095.743182432327
 31
0.0
  0
TEXT
  5
177D0
330
17B6C
100
AcDbEntity
  8
SUNPOU
100
AcDbText
 10
7643.413222185353
 20
8063.243182432326
 30
0.0
 40
90.0
  1
800
 41
0.6666666666666666
  7
00
100
AcDbText
  0
LINE
  5
177D2
330
17B6C
100
AcDbEntity
  8
SUNPOU
  6
ByBlock
100
AcDbLine
 10
8117.87750789964
 20
8018.243182432327
 30
0.0
 11
8106.627507899638
 21
8018.243182432327
 31
0.0
  0
LINE
  5
177D4
330
17B6C
100
AcDbEntity
  8
SUNPOU
  6
ByBlock
100
AcDbLine
 10
7340.377507899638
 20
8018.243182432327
 30
0.0
 11
7351.627507899639
 21
8018.243182432327
 31
0.0
  0
TEXT
  5
177D5
330
17B6C
100
AcDbEntity
  8
SUNPOU
100
AcDbText
 10
9043.413222185353
 20
7653.243182432325
 30
0.0
 40
90.0
  1
800
 41
0.6666666666666666
  7
00
100
AcDbText
  0
LINE
  5
177D7
330
17B6C
100
AcDbEntity
  8
SUNPOU
  6
ByBlock
100
AcDbLine
 10
9517.87750789964
 20
7608.243182432326
 30
0.0
 11
9506.627507899642
 21
7608.243182432326
 31
0.0
  0
LINE
  5
177D9
330
17B6C
100
AcDbEntity
  8
SUNPOU
  6
ByBlock
100
AcDbLine
 10
8740.377507899639
 20
7608.243182432326
 30
0.0
 11
8751.627507899639
 21
7608.243182432326
 31
0.0
  0
ARC
  5
177DA
330
17B6C
100
AcDbEntity
  8
SUNPOU
  6
ByBlock
100
AcDbCircle
 10
4249.856483595691
 20
4556.963733520728
 30
0.0
 40
5.625
100
AcDbArc
 50
0.0
 51
180.0
  0
ARC
  5
177DB
330
17B6C
100
AcDbEntity
  8
SUNPOU
  6
ByBlock
100
AcDbCircle
 10
4249.856483595691
 20
4556.963733520728
 30
0.0
 40
5.625
100
AcDbArc
 50
180.0
 51
0.0
  0
ARC
  5
177DC
330
17B6C
100
AcDbEntity
  8
SUNPOU
  6
ByBlock
100
AcDbCircle
 10
4889.856483595693
 20
4556.963733520728
 30
0.0
 40
5.625
100
AcDbArc
 50
180.0
 51
0.0
  0
ARC
  5
177DD
330
17B6C
100
AcDbEntity
  8
SUNPOU
  6
ByBlock
100
AcDbCircle
 10
4889.856483595693
 20
4556.963733520728
 30
0.0
 40
5.625
100
AcDbArc
 50
0.0
 51
180.0
  0
ARC
  5
177DE
330
17B6C
100
AcDbEntity
  8
SUNPOU
  6
ByBlock
100
AcDbCircle
 10
6818.18758900464
 20
3145.963733520729
 30
0.0
 40
5.625
100
AcDbArc
 50
90.0
 51
270.0
  0
ARC
  5
177DF
330
17B6C
100
AcDbEntity
  8
SUNPOU
  6
ByBlock
100
AcDbCircle
 10
6818.18758900464
 20
3145.963733520729
 30
0.0
 40
5.625
100
AcDbArc
 50
270.0
 51
90.0
  0
ARC
  5
177E0
330
17B6C
100
AcDbEntity
  8
SUNPOU
  6
ByBlock
100
AcDbCircle
 10
6818.18758900464
 20
3753.963733520729
 30
0.0
 40
5.625
100
AcDbArc
 50
270.0
 51
90.0
  0
ARC
  5
177E1
330
17B6C
100
AcDbEntity
  8
SUNPOU
  6
ByBlock
100
AcDbCircle
 10
6818.18758900464
 20
3753.963733520729
 30
0.0
 40
5.625
100
AcDbArc
 50
90.0
 51
270.0
  0
ARC
  5
177E2
330
17B6C
100
AcDbEntity
  8
SUNPOU
  6
ByBlock
100
AcDbCircle
 10
6818.18758900464
 20
2985.963733520732
 30
0.0
 40
5.625
100
AcDbArc
 50
90.0
 51
270.0
  0
ARC
  5
177E3
330
17B6C
100
AcDbEntity
  8
SUNPOU
  6
ByBlock
100
AcDbCircle
 10
6818.18758900464
 20
2985.963733520732
 30
0.0
 40
5.625
100
AcDbArc
 50
270.0
 51
90.0
  0
ARC
  5
177E4
330
17B6C
100
AcDbEntity
  8
SUNPOU
  6
ByBlock
100
AcDbCircle
 10
6818.18758900464
 20
3145.963733520728
 30
0.0
 40
5.625
100
AcDbArc
 50
270.0
 51
90.0
  0
ARC
  5
177E5
330
17B6C
100
AcDbEntity
  8
SUNPOU
  6
ByBlock
100
AcDbCircle
 10
6818.18758900464
 20
3145.963733520728
 30
0.0
 40
5.625
100
AcDbArc
 50
90.0
 51
270.0
  0
ARC
  5
177E6
330
17B6C
100
AcDbEntity
  8
SUNPOU
  6
ByBlock
100
AcDbCircle
 10
7024.43758900464
 20
2985.963733520732
 30
0.0
 40
5.625
100
AcDbArc
 50
90.0
 51
270.0
  0
ARC
  5
177E7
330
17B6C
100
AcDbEntity
  8
SUNPOU
  6
ByBlock
100
AcDbCircle
 10
7024.43758900464
 20
2985.963733520732
 30
0.0
 40
5.625
100
AcDbArc
 50
270.0
 51
90.0
  0
ARC
  5
177E8
330
17B6C
100
AcDbEntity
  8
SUNPOU
  6
ByBlock
100
AcDbCircle
 10
7024.43758900464
 20
3753.963733520729
 30
0.0
 40
5.625
100
AcDbArc
 50
270.0
 51
90.0
  0
ARC
  5
177E9
330
17B6C
100
AcDbEntity
  8
SUNPOU
  6
ByBlock
100
AcDbCircle
 10
7024.43758900464
 20
3753.963733520729
 30
0.0
 40
5.625
100
AcDbArc
 50
90.0
 51
270.0
  0
ARC
  5
177EA
330
17B6C
100
AcDbEntity
  8
SUNPOU
  6
ByBlock
100
AcDbCircle
 10
5529.856483595692
 20
2605.963733520728
 30
0.0
 40
5.625
100
AcDbArc
 50
180.0
 51
0.0
  0
ARC
  5
177EB
330
17B6C
100
AcDbEntity
  8
SUNPOU
  6
ByBlock
100
AcDbCircle
 10
5529.856483595692
 20
2605.963733520728
 30
0.0
 40
5.625
100
AcDbArc
 50
0.0
 51
180.0
  0
ARC
  5
177EC
330
17B6C
100
AcDbEntity
  8
SUNPOU
  6
ByBlock
100
AcDbCircle
 10
4249.856483595691
 20
2605.963733520728
 30
0.0
 40
5.625
100
AcDbArc
 50
0.0
 51
180.0
  0
ARC
  5
177ED
330
17B6C
100
AcDbEntity
  8
SUNPOU
  6
ByBlock
100
AcDbCircle
 10
4249.856483595691
 20
2605.963733520728
 30
0.0
 40
5.625
100
AcDbArc
 50
180.0
 51
0.0
  0
ARC
  5
177EE
330
17B6C
100
AcDbEntity
  8
SUNPOU
  6
ByBlock
100
AcDbCircle
 10
5689.856483595693
 20
2395.963733520728
 30
0.0
 40
5.625
100
AcDbArc
 50
180.0
 51
0.0
  0
ARC
  5
177EF
330
17B6C
100
AcDbEntity
  8
SUNPOU
  6
ByBlock
100
AcDbCircle
 10
5689.856483595693
 20
2395.963733520728
 30
0.0
 40
5.625
100
AcDbArc
 50
0.0
 51
180.0
  0
ARC
  5
177F0
330
17B6C
100
AcDbEntity
  8
SUNPOU
  6
ByBlock
100
AcDbCircle
 10
4089.856483595691
 20
2395.963733520728
 30
0.0
 40
5.625
100
AcDbArc
 50
0.0
 51
180.0
  0
ARC
  5
177F1
330
17B6C
100
AcDbEntity
  8
SUNPOU
  6
ByBlock
100
AcDbCircle
 10
4089.856483595691
 20
2395.963733520728
 30
0.0
 40
5.625
100
AcDbArc
 50
180.0
 51
0.0
  0
ARC
  5
177F2
330
17B6C
100
AcDbEntity
  8
SUNPOU
  6
ByBlock
100
AcDbCircle
 10
12739.12750789964
 20
9118.243182432328
 30
0.0
 40
5.625
100
AcDbArc
 50
270.0
 51
90.0
  0
ARC
  5
177F3
330
17B6C
100
AcDbEntity
  8
SUNPOU
  6
ByBlock
100
AcDbCircle
 10
12739.12750789964
 20
9118.243182432328
 30
0.0
 40
5.625
100
AcDbArc
 50
90.0
 51
270.0
  0
ARC
  5
177F4
330
17B6C
100
AcDbEntity
  8
SUNPOU
  6
ByBlock
100
AcDbCircle
 10
12739.12750789964
 20
8918.243182432327
 30
0.0
 40
5.625
100
AcDbArc
 50
90.0
 51
270.0
  0
ARC
  5
177F5
330
17B6C
100
AcDbEntity
  8
SUNPOU
  6
ByBlock
100
AcDbCircle
 10
12739.12750789964
 20
8918.243182432327
 30
0.0
 40
5.625
100
AcDbArc
 50
270.0
 51
90.0
  0
ARC
  5
177F6
330
17B6C
100
AcDbEntity
  8
SUNPOU
  6
ByBlock
100
AcDbCircle
 10
12739.12750789964
 20
8718.243182432329
 30
0.0
 40
5.625
100
AcDbArc
 50
90.0
 51
270.0
  0
ARC
  5
177F7
330
17B6C
100
AcDbEntity
  8
SUNPOU
  6
ByBlock
100
AcDbCircle
 10
12739.12750789964
 20
8718.243182432329
 30
0.0
 40
5.625
100
AcDbArc
 50
270.0
 51
90.0
  0
ARC
  5
177F8
330
17B6C
100
AcDbEntity
  8
SUNPOU
  6
ByBlock
100
AcDbCircle
 10
12739.12750789964
 20
8918.243182432327
 30
0.0
 40
5.625
100
AcDbArc
 50
270.0
 51
90.0
  0
ARC
  5
177F9
330
17B6C
100
AcDbEntity
  8
SUNPOU
  6
ByBlock
100
AcDbCircle
 10
12739.12750789964
 20
8918.243182432327
 30
0.0
 40
5.625
100
AcDbArc
 50
90.0
 51
270.0
  0
ARC
  5
177FA
330
17B6C
100
AcDbEntity
  8
SUNPOU
  6
ByBlock
100
AcDbCircle
 10
9829.127507899642
 20
6508.243182432327
 30
0.0
 40
5.625
100
AcDbArc
 50
90.0
 51
270.0
  0
ARC
  5
177FB
330
17B6C
100
AcDbEntity
  8
SUNPOU
  6
ByBlock
100
AcDbCircle
 10
9829.127507899642
 20
6508.243182432327
 30
0.0
 40
5.625
100
AcDbArc
 50
270.0
 51
90.0
  0
ARC
  5
177FC
330
17B6C
100
AcDbEntity
  8
SUNPOU
  6
ByBlock
100
AcDbCircle
 10
9829.127507899642
 20
7308.243182432327
 30
0.0
 40
5.625
100
AcDbArc
 50
270.0
 51
90.0
  0
ARC
  5
177FD
330
17B6C
100
AcDbEntity
  8
SUNPOU
  6
ByBlock
100
AcDbCircle
 10
9829.127507899642
 20
7308.243182432327
 30
0.0
 40
5.625
100
AcDbArc
 50
90.0
 51
270.0
  0
ARC
  5
177FE
330
17B6C
100
AcDbEntity
  8
SUNPOU
  6
ByBlock
100
AcDbCircle
 10
12339.12750789964
 20
9628.243182432328
 30
0.0
 40
5.625
100
AcDbArc
 50
180.0
 51
0.0
  0
ARC
  5
177FF
330
17B6C
100
AcDbEntity
  8
SUNPOU
  6
ByBlock
100
AcDbCircle
 10
12339.12750789964
 20
9628.243182432328
 30
0.0
 40
5.625
100
AcDbArc
 50
0.0
 51
180.0
  0
ARC
  5
17800
330
17B6C
100
AcDbEntity
  8
SUNPOU
  6
ByBlock
100
AcDbCircle
 10
4519.127507899638
 20
9628.243182432328
 30
0.0
 40
5.625
100
AcDbArc
 50
0.0
 51
180.0
  0
ARC
  5
17801
330
17B6C
100
AcDbEntity
  8
SUNPOU
  6
ByBlock
100
AcDbCircle
 10
4519.127507899638
 20
9628.243182432328
 30
0.0
 40
5.625
100
AcDbArc
 50
180.0
 51
0.0
  0
ARC
  5
17802
330
17B6C
100
AcDbEntity
  8
SUNPOU
  6
ByBlock
100
AcDbCircle
 10
4919.12750789964
 20
9418.243182432329
 30
0.0
 40
5.625
100
AcDbArc
 50
0.0
 51
180.0
  0
ARC
  5
17803
330
17B6C
100
AcDbEntity
  8
SUNPOU
  6
ByBlock
100
AcDbCircle
 10
4919.12750789964
 20
9418.243182432329
 30
0.0
 40
5.625
100
AcDbArc
 50
180.0
 51
0.0
  0
ARC
  5
17804
330
17B6C
100
AcDbEntity
  8
SUNPOU
  6
ByBlock
100
AcDbCircle
 10
7729.127507899639
 20
9418.243182432329
 30
0.0
 40
5.625
100
AcDbArc
 50
180.0
 51
0.0
  0
ARC
  5
17805
330
17B6C
100
AcDbEntity
  8
SUNPOU
  6
ByBlock
100
AcDbCircle
 10
7729.127507899639
 20
9418.243182432329
 30
0.0
 40
5.625
100
AcDbArc
 50
0.0
 51
180.0
  0
ARC
  5
17806
330
17B6C
100
AcDbEntity
  8
SUNPOU
  6
ByBlock
100
AcDbCircle
 10
9129.127507899641
 20
9418.243182432329
 30
0.0
 40
5.625
100
AcDbArc
 50
0.0
 51
180.0
  0
ARC
  5
17807
330
17B6C
100
AcDbEntity
  8
SUNPOU
  6
ByBlock
100
AcDbCircle
 10
9129.127507899641
 20
9418.243182432329
 30
0.0
 40
5.625
100
AcDbArc
 50
180.0
 51
0.0
  0
ARC
  5
17808
330
17B6C
100
AcDbEntity
  8
SUNPOU
  6
ByBlock
100
AcDbCircle
 10
11939.12750789964
 20
9418.243182432329
 30
0.0
 40
5.625
100
AcDbArc
 50
180.0
 51
0.0
  0
ARC
  5
17809
330
17B6C
100
AcDbEntity
  8
SUNPOU
  6
ByBlock
100
AcDbCircle
 10
11939.12750789964
 20
9418.243182432329
 30
0.0
 40
5.625
100
AcDbArc
 50
0.0
 51
180.0
  0
ARC
  5
1780A
330
17B6C
100
AcDbEntity
  8
SUNPOU
  6
ByBlock
100
AcDbCircle
 10
4519.127507899638
 20
9418.243182432329
 30
0.0
 40
5.625
100
AcDbArc
 50
0.0
 51
180.0
  0
ARC
  5
1780B
330
17B6C
100
AcDbEntity
  8
SUNPOU
  6
ByBlock
100
AcDbCircle
 10
4519.127507899638
 20
9418.243182432329
 30
0.0
 40
5.625
100
AcDbArc
 50
180.0
 51
0.0
  0
ARC
  5
1780C
330
17B6C
100
AcDbEntity
  8
SUNPOU
  6
ByBlock
100
AcDbCircle
 10
4919.12750789964
 20
9418.243182432329
 30
0.0
 40
5.625
100
AcDbArc
 50
180.0
 51
0.0
  0
ARC
  5
1780D
330
17B6C
100
AcDbEntity
  8
SUNPOU
  6
ByBlock
100
AcDbCircle
 10
4919.12750789964
 20
9418.243182432329
 30
0.0
 40
5.625
100
AcDbArc
 50
0.0
 51
180.0
  0
ARC
  5
1780E
330
17B6C
100
AcDbEntity
  8
SUNPOU
  6
ByBlock
100
AcDbCircle
 10
12339.12750789964
 20
9418.243182432329
 30
0.0
 40
5.625
100
AcDbArc
 50
180.0
 51
0.0
  0
ARC
  5
1780F
330
17B6C
100
AcDbEntity
  8
SUNPOU
  6
ByBlock
100
AcDbCircle
 10
12339.12750789964
 20
9418.243182432329
 30
0.0
 40
5.625
100
AcDbArc
 50
0.0
 51
180.0
  0
ARC
  5
17810
330
17B6C
100
AcDbEntity
  8
SUNPOU
  6
ByBlock
100
AcDbCircle
 10
11939.12750789964
 20
9418.243182432329
 30
0.0
 40
5.625
100
AcDbArc
 50
0.0
 51
180.0
  0
ARC
  5
17811
330
17B6C
100
AcDbEntity
  8
SUNPOU
  6
ByBlock
100
AcDbCircle
 10
11939.12750789964
 20
9418.243182432329
 30
0.0
 40
5.625
100
AcDbArc
 50
180.0
 51
0.0
  0
ARC
  5
17812
330
17B6C
100
AcDbEntity
  8
SUNPOU
  6
ByBlock
100
AcDbCircle
 10
7029.127507899639
 20
8318.243182432327
 30
0.0
 40
5.625
100
AcDbArc
 50
90.0
 51
270.0
  0
ARC
  5
17813
330
17B6C
100
AcDbEntity
  8
SUNPOU
  6
ByBlock
100
AcDbCircle
 10
7029.127507899639
 20
8318.243182432327
 30
0.0
 40
5.625
100
AcDbArc
 50
270.0
 51
90.0
  0
ARC
  5
17814
330
17B6C
100
AcDbEntity
  8
SUNPOU
  6
ByBlock
100
AcDbCircle
 10
7029.127507899639
 20
9118.243182432328
 30
0.0
 40
5.625
100
AcDbArc
 50
270.0
 51
90.0
  0
ARC
  5
17815
330
17B6C
100
AcDbEntity
  8
SUNPOU
  6
ByBlock
100
AcDbCircle
 10
7029.127507899639
 20
9118.243182432328
 30
0.0
 40
5.625
100
AcDbArc
 50
90.0
 51
270.0
  0
ARC
  5
17816
330
17B6C
100
AcDbEntity
  8
SUNPOU
  6
ByBlock
100
AcDbCircle
 10
8129.127507899639
 20
8018.243182432327
 30
0.0
 40
5.625
100
AcDbArc
 50
180.0
 51
0.0
  0
ARC
  5
17817
330
17B6C
100
AcDbEntity
  8
SUNPOU
  6
ByBlock
100
AcDbCircle
 10
8129.127507899639
 20
8018.243182432327
 30
0.0
 40
5.625
100
AcDbArc
 50
0.0
 51
180.0
  0
ARC
  5
17818
330
17B6C
100
AcDbEntity
  8
SUNPOU
  6
ByBlock
100
AcDbCircle
 10
7329.127507899639
 20
8018.243182432327
 30
0.0
 40
5.625
100
AcDbArc
 50
0.0
 51
180.0
  0
ARC
  5
17819
330
17B6C
100
AcDbEntity
  8
SUNPOU
  6
ByBlock
100
AcDbCircle
 10
7329.127507899639
 20
8018.243182432327
 30
0.0
 40
5.625
100
AcDbArc
 50
180.0
 51
0.0
  0
ARC
  5
1781A
330
17B6C
100
AcDbEntity
  8
SUNPOU
  6
ByBlock
100
AcDbCircle
 10
9529.127507899641
 20
7608.243182432326
 30
0.0
 40
5.625
100
AcDbArc
 50
180.0
 51
0.0
  0
ARC
  5
1781B
330
17B6C
100
AcDbEntity
  8
SUNPOU
  6
ByBlock
100
AcDbCircle
 10
9529.127507899641
 20
7608.243182432326
 30
0.0
 40
5.625
100
AcDbArc
 50
0.0
 51
180.0
  0
ARC
  5
1781C
330
17B6C
100
AcDbEntity
  8
SUNPOU
  6
ByBlock
100
AcDbCircle
 10
8729.127507899638
 20
7608.243182432326
 30
0.0
 40
5.625
100
AcDbArc
 50
0.0
 51
180.0
  0
ARC
  5
1781D
330
17B6C
100
AcDbEntity
  8
SUNPOU
  6
ByBlock
100
AcDbCircle
 10
8729.127507899638
 20
7608.243182432326
 30
0.0
 40
5.625
100
AcDbArc
 50
180.0
 51
0.0
  0
ARC
  5
17821
330
17B6C
100
AcDbEntity
  8
HIKIDASHI
100
AcDbCircle
 10
4217.388914848876
 20
4214.34846204352
 30
0.0
 40
74.66417910446155
100
AcDbArc
 50
164.8596129851117
 51
237.5045002941574
  0
ARC
  5
17822
330
17B6C
100
AcDbEntity
  8
HIKIDASHI
100
AcDbCircle
 10
4153.965120802623
 20
4231.50948552799
 30
0.0
 40
8.959701492535391
100
AcDbArc
 50
15.14038701506339
 51
164.8596129849366
  0
LINE
  5
17829
330
17B6C
100
AcDbEntity
  8
HIKIDASHI
100
AcDbLine
 10
4627.888538436751
 20
3319.245765823483
 30
0.0
 11
4186.816957180232
 21
4083.204154334509
 31
0.0
1001
ACAD
1000
DSTYLE
1002
{
1070
   147
1040
1.0
1070
    77
1070
     0
1002
}
  0
LINE
  5
1782A
330
17B6C
100
AcDbEntity
  8
HIKIDASHI
100
AcDbLine
 10
4616.341533052959
 20
3312.579099156816
 30
0.0
 11
4667.888538436751
 21
3249.963733520729
 31
0.0
  0
LINE
  5
1782B
330
17B6C
100
AcDbEntity
  8
HIKIDASHI
100
AcDbLine
 10
4667.888538436751
 20
3249.963733520729
 30
0.0
 11
4639.435543820545
 21
3325.912432490151
 31
0.0
  0
SOLID
  5
1782C
330
17B6C
100
AcDbEntity
  8
HIKIDASHI
100
AcDbTrace
 10
4616.341533052959
 20
3312.579099156816
 30
0.0
 11
4639.435543820545
 21
3325.912432490151
 31
0.0
 12
4667.888538436751
 22
3249.963733520729
 32
0.0
 13
4667.888538436751
 23
3249.963733520729
 33
0.0
  0
LINE
  5
1782D
330
17B6C
100
AcDbEntity
  8
HIKIDASHI
100
AcDbLine
 10
4639.435543820545
 20
3325.912432490151
 30
0.0
 11
4616.341533052959
 21
3312.579099156816
 31
0.0
  0
ARC
  5
1782E
330
17B6C
100
AcDbEntity
  8
HIKIDASHI
100
AcDbCircle
 10
4091.720853292108
 20
4215.528589403109
 30
0.0
 40
74.66417910446081
100
AcDbArc
 50
301.7712278330701
 51
15.1403870149094
  0
LINE
  5
1782F
330
17B6C
100
AcDbEntity
  8
HIKIDASHI
100
AcDbLine
 10
5936.424512455826
 20
3642.477924325876
 30
0.0
 11
6196.483271007117
 21
4083.963733520728
 31
0.0
1001
ACAD
1000
DSTYLE
1002
{
1070
   147
1040
1.0
1070
    77
1070
     0
1070
   173
1070
     0
1070
   341
1005
125B0
1002
}
  0
ARC
  5
17830
330
17B6C
100
AcDbEntity
  8
HIKIDASHI
  6
ByBlock
100
AcDbCircle
 10
5906.320199686221
 20
3551.966211169526
 30
0.0
 40
24.0
100
AcDbArc
 50
3.056949146300892
 51
115.9423296224592
  0
ARC
  5
17831
330
17B6C
100
AcDbEntity
  8
HIKIDASHI
  6
ByBlock
100
AcDbCircle
 10
5885.321819467964
 20
3595.129482920051
 30
0.0
 40
24.0
100
AcDbArc
 50
183.0569491463009
 51
295.9423296224593
  0
LINE
  5
17832
330
17B6C
100
AcDbEntity
  8
HIKIDASHI
  6
ByBlock
100
AcDbLine
 10
5895.821009577092
 20
3573.547847044789
 30
0.0
 11
5936.424512455836
 21
3642.477924325891
 31
0.0
  0
LINE
  5
17833
330
17B6C
100
AcDbEntity
  8
HIKIDASHI
100
AcDbLine
 10
5719.385201492448
 20
3823.245765823486
 30
0.0
 11
5991.154346854814
 21
4293.963733520728
 31
0.0
1001
ACAD
1000
DSTYLE
1002
{
1070
   147
1040
1.0
1070
    77
1070
     0
1002
}
  0
LINE
  5
17834
330
17B6C
100
AcDbEntity
  8
HIKIDASHI
100
AcDbLine
 10
5707.838196108657
 20
3829.912432490152
 30
0.0
 11
5679.385201492451
 21
3753.963733520729
 31
0.0
  0
LINE
  5
17835
330
17B6C
100
AcDbEntity
  8
HIKIDASHI
100
AcDbLine
 10
5679.385201492451
 20
3753.963733520729
 30
0.0
 11
5730.932206876241
 21
3816.57909915682
 31
0.0
  0
SOLID
  5
17836
330
17B6C
100
AcDbEntity
  8
HIKIDASHI
100
AcDbTrace
 10
5707.838196108657
 20
3829.912432490152
 30
0.0
 11
5730.932206876241
 21
3816.57909915682
 31
0.0
 12
5679.385201492451
 22
3753.963733520729
 32
0.0
 13
5679.385201492451
 23
3753.963733520729
 33
0.0
  0
LINE
  5
17837
330
17B6C
100
AcDbEntity
  8
HIKIDASHI
100
AcDbLine
 10
5730.932206876241
 20
3816.57909915682
 30
0.0
 11
5707.838196108657
 21
3829.912432490152
 31
0.0
  0
LINE
  5
17838
330
17B6C
100
AcDbEntity
  8
HIKIDASHI
100
AcDbLine
 10
4058.272423574408
 20
3024.462392359007
 30
0.0
 11
3864.689878611732
 21
2573.963733520729
 31
0.0
  0
LINE
  5
17839
330
17B6C
100
AcDbEntity
  8
HIKIDASHI
100
AcDbLine
 10
4070.522647101362
 20
3019.198382355458
 30
0.0
 11
4089.856483595691
 21
3097.963733520729
 31
0.0
  0
LINE
  5
1783A
330
17B6C
100
AcDbEntity
  8
HIKIDASHI
100
AcDbLine
 10
4089.856483595691
 20
3097.963733520729
 30
0.0
 11
4046.022200047453
 21
3029.726402362554
 31
0.0
  0
SOLID
  5
1783B
330
17B6C
100
AcDbEntity
  8
HIKIDASHI
100
AcDbTrace
 10
4070.522647101362
 20
3019.198382355458
 30
0.0
 11
4046.022200047453
 21
3029.726402362554
 31
0.0
 12
4089.856483595691
 22
3097.963733520729
 32
0.0
 13
4089.856483595691
 23
3097.963733520729
 33
0.0
  0
LINE
  5
1783C
330
17B6C
100
AcDbEntity
  8
HIKIDASHI
100
AcDbLine
 10
4046.022200047453
 20
3029.726402362554
 30
0.0
 11
4070.522647101362
 21
3019.198382355458
 31
0.0
  0
LINE
  5
1783D
330
17B6C
100
AcDbEntity
  8
HATCH
100
AcDbLine
 10
5353.544817397462
 20
2985.963733520728
 30
0.0
 11
5445.920860467789
 21
3145.963733520705
 31
0.0
  0
LINE
  5
1783E
330
17B6C
100
AcDbEntity
  8
HATCH
100
AcDbLine
 10
5381.920860467798
 20
3145.963733520704
 30
0.0
 11
5413.920860467793
 21
3090.538107678512
 31
0.0
  0
LINE
  5
1783F
330
17B6C
100
AcDbEntity
  8
HATCH
100
AcDbLine
 10
5385.544817397457
 20
3041.389359362927
 30
0.0
 11
5417.544817397452
 21
2985.963733520728
 31
0.0
  0
LINE
  5
17840
330
17B6C
100
AcDbEntity
  8
HATCH
100
AcDbLine
 10
5153.544817397462
 20
2985.963733520728
 30
0.0
 11
5245.920860467789
 21
3145.963733520705
 31
0.0
  0
LINE
  5
17841
330
17B6C
100
AcDbEntity
  8
HATCH
100
AcDbLine
 10
5181.920860467798
 20
3145.963733520704
 30
0.0
 11
5213.920860467793
 21
3090.538107678512
 31
0.0
  0
LINE
  5
17842
330
17B6C
100
AcDbEntity
  8
HATCH
100
AcDbLine
 10
5185.544817397457
 20
3041.389359362927
 30
0.0
 11
5217.544817397453
 21
2985.963733520728
 31
0.0
  0
LINE
  5
17843
330
17B6C
100
AcDbEntity
  8
HATCH
100
AcDbLine
 10
4953.544817397462
 20
2985.963733520728
 30
0.0
 11
5045.920860467789
 21
3145.963733520705
 31
0.0
  0
LINE
  5
17844
330
17B6C
100
AcDbEntity
  8
HATCH
100
AcDbLine
 10
4981.920860467798
 20
3145.963733520704
 30
0.0
 11
5013.920860467793
 21
3090.538107678512
 31
0.0
  0
LINE
  5
17845
330
17B6C
100
AcDbEntity
  8
HATCH
100
AcDbLine
 10
4985.544817397457
 20
3041.389359362927
 30
0.0
 11
5017.544817397452
 21
2985.963733520728
 31
0.0
  0
LINE
  5
17846
330
17B6C
100
AcDbEntity
  8
HATCH
100
AcDbLine
 10
4553.544817397462
 20
2985.963733520728
 30
0.0
 11
4645.920860467787
 21
3145.963733520705
 31
0.0
  0
LINE
  5
17847
330
17B6C
100
AcDbEntity
  8
HATCH
100
AcDbLine
 10
4581.920860467798
 20
3145.963733520704
 30
0.0
 11
4613.920860467793
 21
3090.538107678512
 31
0.0
  0
LINE
  5
17848
330
17B6C
100
AcDbEntity
  8
HATCH
100
AcDbLine
 10
4585.544817397457
 20
3041.389359362927
 30
0.0
 11
4617.544817397452
 21
2985.963733520728
 31
0.0
  0
LINE
  5
17849
330
17B6C
100
AcDbEntity
  8
HATCH
100
AcDbLine
 10
4353.544817397462
 20
2985.963733520728
 30
0.0
 11
4445.920860467789
 21
3145.963733520705
 31
0.0
  0
LINE
  5
1784A
330
17B6C
100
AcDbEntity
  8
HATCH
100
AcDbLine
 10
4381.920860467798
 20
3145.963733520704
 30
0.0
 11
4413.920860467793
 21
3090.538107678512
 31
0.0
  0
LINE
  5
1784B
330
17B6C
100
AcDbEntity
  8
HATCH
100
AcDbLine
 10
4385.544817397457
 20
3041.389359362927
 30
0.0
 11
4417.544817397452
 21
2985.963733520728
 31
0.0
  0
LINE
  5
1784C
330
17B6C
100
AcDbEntity
  8
HATCH
100
AcDbLine
 10
4753.544817397462
 20
2985.963733520728
 30
0.0
 11
4845.920860467789
 21
3145.963733520705
 31
0.0
  0
LINE
  5
1784D
330
17B6C
100
AcDbEntity
  8
HATCH
100
AcDbLine
 10
4781.920860467798
 20
3145.963733520704
 30
0.0
 11
4813.920860467793
 21
3090.538107678512
 31
0.0
  0
LINE
  5
1784E
330
17B6C
100
AcDbEntity
  8
HATCH
100
AcDbLine
 10
4785.544817397457
 20
3041.389359362927
 30
0.0
 11
4817.544817397452
 21
2985.963733520728
 31
0.0
  0
LINE
  5
1784F
330
17B6C
100
AcDbEntity
  8
TEKKIN
100
AcDbLine
 10
4837.856483595691
 20
3249.963733520729
 30
0.0
 11
4609.856483595691
 21
3249.963733520729
 31
0.0
  0
LINE
  5
17850
330
17B6C
100
AcDbEntity
  8
TEKKIN
100
AcDbLine
 10
4609.856483595691
 20
3249.963733520729
 30
0.0
 11
4609.856483595691
 21
3233.96373352073
 31
0.0
  0
LINE
  5
17851
330
17B6C
100
AcDbEntity
  8
TEKKIN
100
AcDbLine
 10
4609.856483595691
 20
3233.96373352073
 30
0.0
 11
4837.856483595691
 21
3233.96373352073
 31
0.0
  0
LINE
  5
17852
330
17B6C
100
AcDbEntity
  8
TEKKIN
100
AcDbLine
 10
4941.856483595691
 20
3233.96373352073
 30
0.0
 11
5169.856483595691
 21
3233.96373352073
 31
0.0
  0
LINE
  5
17853
330
17B6C
100
AcDbEntity
  8
TEKKIN
100
AcDbLine
 10
5169.856483595691
 20
3233.96373352073
 30
0.0
 11
5169.856483595691
 21
3249.963733520729
 31
0.0
  0
LINE
  5
17854
330
17B6C
100
AcDbEntity
  8
TEKKIN
100
AcDbLine
 10
5169.856483595691
 20
3249.963733520729
 30
0.0
 11
4941.856483595691
 21
3249.963733520729
 31
0.0
  0
LINE
  5
17855
330
17B6C
100
AcDbEntity
  8
HATCH
100
AcDbLine
 10
5553.544817397463
 20
2985.96373352073
 30
0.0
 11
5645.920860467789
 21
3145.963733520706
 31
0.0
  0
LINE
  5
17856
330
17B6C
100
AcDbEntity
  8
HATCH
100
AcDbLine
 10
5581.920860467799
 20
3145.963733520704
 30
0.0
 11
5613.920860467795
 21
3090.538107678512
 31
0.0
  0
LINE
  5
17857
330
17B6C
100
AcDbEntity
  8
HATCH
100
AcDbLine
 10
5585.544817397458
 20
3041.389359362927
 30
0.0
 11
5617.544817397453
 21
2985.96373352073
 31
0.0
  0
LINE
  5
17858
330
17B6C
100
AcDbEntity
  8
HATCH
100
AcDbLine
 10
4153.544817397462
 20
2985.963733520728
 30
0.0
 11
4245.92086046779
 21
3145.963733520704
 31
0.0
  0
LINE
  5
17859
330
17B6C
100
AcDbEntity
  8
HATCH
100
AcDbLine
 10
4181.920860467799
 20
3145.963733520703
 30
0.0
 11
4213.920860467793
 21
3090.538107678511
 31
0.0
  0
LINE
  5
1785A
330
17B6C
100
AcDbEntity
  8
HATCH
100
AcDbLine
 10
4185.544817397459
 20
3041.389359362926
 30
0.0
 11
4217.544817397453
 21
2985.963733520728
 31
0.0
  0
LINE
  5
1785B
330
17B6C
100
AcDbEntity
  8
YANE
  6
2PL-L
 62
     6
100
AcDbLine
 10
12335.12750789964
 20
6408.243182432326
 30
0.0
 11
4523.12750789964
 21
6408.243182432326
 31
0.0
  0
LINE
  5
1785C
330
17B6C
100
AcDbEntity
  8
YANE
  6
2PL-L
 62
     6
100
AcDbLine
 10
4523.12750789964
 20
6408.243182432326
 30
0.0
 11
4523.12750789964
 21
8968.243182432329
 31
0.0
  0
LINE
  5
1785D
330
17B6C
100
AcDbEntity
  8
YANE
  6
2PL-L
 62
     6
100
AcDbLine
 10
4523.12750789964
 20
8968.243182432329
 30
0.0
 11
12335.12750789964
 21
8968.243182432329
 31
0.0
  0
LINE
  5
1785E
330
17B6C
100
AcDbEntity
  8
YANE
  6
2PL-L
 62
     6
100
AcDbLine
 10
12335.12750789964
 20
8968.243182432329
 30
0.0
 11
12335.12750789964
 21
6408.243182432326
 31
0.0
  0
LINE
  5
1785F
330
17B6C
100
AcDbEntity
  8
DOMAKON
100
AcDbLine
 10
8369.127507899641
 20
8918.243182432327
 30
0.0
 11
4519.127507899638
 21
8918.243182432327
 31
0.0
  0
LINE
  5
17860
330
17B6C
100
AcDbEntity
  8
DOMAKON
100
AcDbLine
 10
4519.127507899638
 20
8918.243182432327
 30
0.0
 11
4519.127507899638
 21
6508.243182432327
 31
0.0
  0
LINE
  5
17861
330
17B6C
100
AcDbEntity
  8
DOMAKON
100
AcDbLine
 10
4519.127507899638
 20
6508.243182432327
 30
0.0
 11
8369.127507899641
 21
6508.243182432327
 31
0.0
  0
LINE
  5
17862
330
17B6C
100
AcDbEntity
  8
DOMAKON
100
AcDbLine
 10
8489.12750789964
 20
6508.243182432327
 30
0.0
 11
12339.12750789964
 21
6508.243182432327
 31
0.0
  0
LINE
  5
17863
330
17B6C
100
AcDbEntity
  8
DOMAKON
100
AcDbLine
 10
12339.12750789964
 20
6508.243182432327
 30
0.0
 11
12339.12750789964
 21
8918.243182432327
 31
0.0
  0
LINE
  5
17864
330
17B6C
100
AcDbEntity
  8
DOMAKON
100
AcDbLine
 10
12339.12750789964
 20
8918.243182432327
 30
0.0
 11
8489.12750789964
 21
8918.243182432327
 31
0.0
  0
LINE
  5
17865
330
17B6C
100
AcDbEntity
  8
KISO
100
AcDbLine
 10
9529.127507899641
 20
6508.243182432327
 30
0.0
 11
8729.127507899638
 21
6508.243182432327
 31
0.0
  0
LINE
  5
17866
330
17B6C
100
AcDbEntity
  8
KISO
100
AcDbLine
 10
8729.127507899638
 20
6508.243182432327
 30
0.0
 11
8729.127507899638
 21
7308.243182432327
 31
0.0
  0
LINE
  5
17867
330
17B6C
100
AcDbEntity
  8
KISO
100
AcDbLine
 10
8729.127507899638
 20
7308.243182432327
 30
0.0
 11
9529.127507899641
 21
7308.243182432327
 31
0.0
  0
LINE
  5
17868
330
17B6C
100
AcDbEntity
  8
KISO
100
AcDbLine
 10
9529.127507899641
 20
7308.243182432327
 30
0.0
 11
9529.127507899641
 21
6508.243182432327
 31
0.0
  0
LINE
  5
17869
330
17B6C
100
AcDbEntity
  8
KISO
100
AcDbLine
 10
8129.127507899639
 20
6508.243182432327
 30
0.0
 11
7329.127507899639
 21
6508.243182432327
 31
0.0
  0
LINE
  5
1786A
330
17B6C
100
AcDbEntity
  8
KISO
100
AcDbLine
 10
7329.127507899639
 20
6508.243182432327
 30
0.0
 11
7329.127507899639
 21
7308.243182432327
 31
0.0
  0
LINE
  5
1786B
330
17B6C
100
AcDbEntity
  8
KISO
100
AcDbLine
 10
7329.127507899639
 20
7308.243182432327
 30
0.0
 11
8129.127507899639
 21
7308.243182432327
 31
0.0
  0
LINE
  5
1786C
330
17B6C
100
AcDbEntity
  8
KISO
100
AcDbLine
 10
8129.127507899639
 20
7308.243182432327
 30
0.0
 11
8129.127507899639
 21
6508.243182432327
 31
0.0
  0
LINE
  5
1786D
330
17B6C
100
AcDbEntity
  8
KISO
100
AcDbLine
 10
5319.12750789964
 20
6508.243182432327
 30
0.0
 11
4519.127507899638
 21
6508.243182432327
 31
0.0
  0
LINE
  5
1786E
330
17B6C
100
AcDbEntity
  8
KISO
100
AcDbLine
 10
4519.127507899638
 20
6508.243182432327
 30
0.0
 11
4519.127507899638
 21
7308.243182432327
 31
0.0
  0
LINE
  5
1786F
330
17B6C
100
AcDbEntity
  8
KISO
100
AcDbLine
 10
4519.127507899638
 20
7308.243182432327
 30
0.0
 11
5319.12750789964
 21
7308.243182432327
 31
0.0
  0
LINE
  5
17870
330
17B6C
100
AcDbEntity
  8
KISO
100
AcDbLine
 10
5319.12750789964
 20
7308.243182432327
 30
0.0
 11
5319.12750789964
 21
6508.243182432327
 31
0.0
  0
LINE
  5
17871
330
17B6C
100
AcDbEntity
  8
KISO
100
AcDbLine
 10
5319.12750789964
 20
8318.243182432327
 30
0.0
 11
4519.127507899638
 21
8318.243182432327
 31
0.0
  0
LINE
  5
17872
330
17B6C
100
AcDbEntity
  8
KISO
100
AcDbLine
 10
4519.127507899638
 20
8318.243182432327
 30
0.0
 11
4519.127507899638
 21
9118.243182432328
 31
0.0
  0
LINE
  5
17873
330
17B6C
100
AcDbEntity
  8
KISO
100
AcDbLine
 10
4519.127507899638
 20
9118.243182432328
 30
0.0
 11
5319.12750789964
 21
9118.243182432328
 31
0.0
  0
LINE
  5
17874
330
17B6C
100
AcDbEntity
  8
KISO
100
AcDbLine
 10
5319.12750789964
 20
9118.243182432328
 30
0.0
 11
5319.12750789964
 21
8318.243182432327
 31
0.0
  0
LINE
  5
17875
330
17B6C
100
AcDbEntity
  8
KISO
100
AcDbLine
 10
8129.127507899639
 20
8318.243182432327
 30
0.0
 11
7329.127507899639
 21
8318.243182432327
 31
0.0
  0
LINE
  5
17876
330
17B6C
100
AcDbEntity
  8
KISO
100
AcDbLine
 10
7329.127507899639
 20
8318.243182432327
 30
0.0
 11
7329.127507899639
 21
9118.243182432328
 31
0.0
  0
LINE
  5
17877
330
17B6C
100
AcDbEntity
  8
KISO
100
AcDbLine
 10
7329.127507899639
 20
9118.243182432328
 30
0.0
 11
8129.127507899639
 21
9118.243182432328
 31
0.0
  0
LINE
  5
17878
330
17B6C
100
AcDbEntity
  8
KISO
100
AcDbLine
 10
8129.127507899639
 20
9118.243182432328
 30
0.0
 11
8129.127507899639
 21
8318.243182432327
 31
0.0
  0
LINE
  5
17879
330
17B6C
100
AcDbEntity
  8
KISO
100
AcDbLine
 10
12339.12750789964
 20
6508.243182432327
 30
0.0
 11
11539.12750789964
 21
6508.243182432327
 31
0.0
  0
LINE
  5
1787A
330
17B6C
100
AcDbEntity
  8
KISO
100
AcDbLine
 10
11539.12750789964
 20
6508.243182432327
 30
0.0
 11
11539.12750789964
 21
7308.243182432327
 31
0.0
  0
LINE
  5
1787B
330
17B6C
100
AcDbEntity
  8
KISO
100
AcDbLine
 10
11539.12750789964
 20
7308.243182432327
 30
0.0
 11
12339.12750789964
 21
7308.243182432327
 31
0.0
  0
LINE
  5
1787C
330
17B6C
100
AcDbEntity
  8
KISO
100
AcDbLine
 10
12339.12750789964
 20
7308.243182432327
 30
0.0
 11
12339.12750789964
 21
6508.243182432327
 31
0.0
  0
LINE
  5
1787D
330
17B6C
100
AcDbEntity
  8
KISO
100
AcDbLine
 10
9529.127507899641
 20
8318.243182432327
 30
0.0
 11
8729.127507899638
 21
8318.243182432327
 31
0.0
  0
LINE
  5
1787E
330
17B6C
100
AcDbEntity
  8
KISO
100
AcDbLine
 10
8729.127507899638
 20
8318.243182432327
 30
0.0
 11
8729.127507899638
 21
9118.243182432328
 31
0.0
  0
LINE
  5
1787F
330
17B6C
100
AcDbEntity
  8
KISO
100
AcDbLine
 10
8729.127507899638
 20
9118.243182432328
 30
0.0
 11
9529.127507899641
 21
9118.243182432328
 31
0.0
  0
LINE
  5
17880
330
17B6C
100
AcDbEntity
  8
KISO
100
AcDbLine
 10
9529.127507899641
 20
9118.243182432328
 30
0.0
 11
9529.127507899641
 21
8318.243182432327
 31
0.0
  0
LINE
  5
17881
330
17B6C
100
AcDbEntity
  8
KISO
100
AcDbLine
 10
12339.12750789964
 20
8318.243182432327
 30
0.0
 11
11539.12750789964
 21
8318.243182432327
 31
0.0
  0
LINE
  5
17882
330
17B6C
100
AcDbEntity
  8
KISO
100
AcDbLine
 10
11539.12750789964
 20
8318.243182432327
 30
0.0
 11
11539.12750789964
 21
9118.243182432328
 31
0.0
  0
LINE
  5
17883
330
17B6C
100
AcDbEntity
  8
KISO
100
AcDbLine
 10
11539.12750789964
 20
9118.243182432328
 30
0.0
 11
12339.12750789964
 21
9118.243182432328
 31
0.0
  0
LINE
  5
17884
330
17B6C
100
AcDbEntity
  8
KISO
100
AcDbLine
 10
12339.12750789964
 20
9118.243182432328
 30
0.0
 11
12339.12750789964
 21
8318.243182432327
 31
0.0
  0
LINE
  5
17885
330
17B6C
100
AcDbEntity
  8
U1
100
AcDbLine
 10
11945.32750789964
 20
8688.043182432329
 30
0.0
 11
11912.92750789964
 21
8688.043182432329
 31
0.0
  0
LINE
  5
17886
330
17B6C
100
AcDbEntity
  8
U1
100
AcDbLine
 10
11912.92750789964
 20
8748.443182432328
 30
0.0
 11
11965.32750789964
 21
8748.443182432328
 31
0.0
  0
ARC
  5
17888
330
17B6C
100
AcDbEntity
  8
U1
100
AcDbCircle
 10
11912.92750789964
 20
8744.443182432327
 30
0.0
 40
4.0
100
AcDbArc
 50
90.0
 51
180.0
  0
ARC
  5
17889
330
17B6C
100
AcDbEntity
  8
U1
100
AcDbCircle
 10
11912.92750789964
 20
8692.043182432326
 30
0.0
 40
4.0
100
AcDbArc
 50
180.0
 51
270.0
  0
LINE
  5
1788A
330
17B6C
100
AcDbEntity
  8
U1
100
AcDbLine
 10
11908.92750789964
 20
8692.043182432326
 30
0.0
 11
11908.92750789964
 21
8744.443182432327
 31
0.0
  0
ARC
  5
1788B
330
17B6C
100
AcDbEntity
  8
U1
100
AcDbCircle
 10
11965.32750789964
 20
8744.443182432327
 30
0.0
 40
4.0
100
AcDbArc
 50
0.0
 51
90.0
  0
ARC
  5
1788C
330
17B6C
100
AcDbEntity
  8
U1
100
AcDbCircle
 10
11945.32750789964
 20
8692.043182432326
 30
0.0
 40
4.0
100
AcDbArc
 50
270.0
 51
0.0
  0
ARC
  5
1788D
330
17B6C
100
AcDbEntity
  8
U1
100
AcDbCircle
 10
11952.77750789964
 20
8701.293182432328
 30
0.0
 40
1.149999999999977
100
AcDbArc
 50
0.0
 51
180.0
  0
LINE
  5
1788E
330
17B6C
100
AcDbEntity
  8
U1
100
AcDbLine
 10
11956.22750789964
 20
8693.743182432326
 30
0.0
 11
11956.22750789964
 21
8701.293182432326
 31
0.0
  0
LINE
  5
1788F
330
17B6C
100
AcDbEntity
  8
U1
100
AcDbLine
 10
11953.92750789962
 20
8693.743182432326
 30
0.0
 11
11956.22750789964
 21
8693.743182432326
 31
0.0
  0
LINE
  5
17890
330
17B6C
100
AcDbEntity
  8
U1
100
AcDbLine
 10
11951.62750789964
 20
8700.743182432326
 30
0.0
 11
11953.92750789962
 21
8700.743182432326
 31
0.0
  0
ARC
  5
17891
330
17B6C
100
AcDbEntity
  8
U1
100
AcDbCircle
 10
11952.77750789964
 20
8701.293182432328
 30
0.0
 40
3.450000000000044
100
AcDbArc
 50
0.0
 51
180.0
  0
LINE
  5
17892
330
17B6C
100
AcDbEntity
  8
U1
100
AcDbLine
 10
11951.62750789964
 20
8701.293182432328
 30
0.0
 11
11951.62750789964
 21
8692.043182432326
 31
0.0
  0
LINE
  5
17893
330
17B6C
100
AcDbEntity
  8
U1
100
AcDbLine
 10
11953.92750789962
 20
8692.043182432326
 30
0.0
 11
11953.92750789962
 21
8701.293182432326
 31
0.0
  0
LINE
  5
17894
330
17B6C
100
AcDbEntity
  8
U1
100
AcDbLine
 10
11949.32750789964
 20
8701.293182432328
 30
0.0
 11
11949.32750789964
 21
8692.043182432326
 31
0.0
  0
ARC
  5
17895
330
17B6C
100
AcDbEntity
  8
U1
100
AcDbCircle
 10
11965.32750789964
 20
8692.043182432326
 30
0.0
 40
4.0
100
AcDbArc
 50
270.0
 51
0.0
  0
LINE
  5
17896
330
17B6C
100
AcDbEntity
  8
U1
100
AcDbLine
 10
11965.32750789964
 20
8688.043182432329
 30
0.0
 11
11957.92750789964
 21
8688.043182432329
 31
0.0
  0
ARC
  5
17897
330
17B6C
100
AcDbEntity
  8
U1
100
AcDbCircle
 10
11957.92750789964
 20
8692.043182432326
 30
0.0
 40
4.0
100
AcDbArc
 50
180.0
 51
270.0
  0
LINE
  5
17898
330
17B6C
100
AcDbEntity
  8
U1
100
AcDbLine
 10
11969.32750789964
 20
8744.443182432327
 30
0.0
 11
11969.32750789964
 21
8692.043182432326
 31
0.0
  0
LINE
  5
17899
330
17B6C
100
AcDbEntity
  8
U1
100
AcDbLine
 10
9135.327507899637
 20
8688.043182432329
 30
0.0
 11
9102.927507899638
 21
8688.043182432329
 31
0.0
  0
LINE
  5
1789A
330
17B6C
100
AcDbEntity
  8
U1
100
AcDbLine
 10
9102.927507899641
 20
8748.443182432328
 30
0.0
 11
9155.32750789964
 21
8748.443182432328
 31
0.0
  0
ARC
  5
1789C
330
17B6C
100
AcDbEntity
  8
U1
100
AcDbCircle
 10
9102.927507899641
 20
8744.443182432327
 30
0.0
 40
4.0
100
AcDbArc
 50
90.0
 51
180.0
  0
ARC
  5
1789D
330
17B6C
100
AcDbEntity
  8
U1
100
AcDbCircle
 10
9102.927507899638
 20
8692.043182432326
 30
0.0
 40
4.0
100
AcDbArc
 50
180.0
 51
270.0
  0
LINE
  5
1789E
330
17B6C
100
AcDbEntity
  8
U1
100
AcDbLine
 10
9098.927507899638
 20
8692.043182432326
 30
0.0
 11
9098.927507899642
 21
8744.443182432327
 31
0.0
  0
ARC
  5
1789F
330
17B6C
100
AcDbEntity
  8
U1
100
AcDbCircle
 10
9155.32750789964
 20
8744.443182432327
 30
0.0
 40
4.0
100
AcDbArc
 50
0.0
 51
90.0
  0
ARC
  5
178A0
330
17B6C
100
AcDbEntity
  8
U1
100
AcDbCircle
 10
9135.327507899637
 20
8692.043182432326
 30
0.0
 40
4.0
100
AcDbArc
 50
270.0
 51
0.0
  0
ARC
  5
178A1
330
17B6C
100
AcDbEntity
  8
U1
100
AcDbCircle
 10
9142.777507899639
 20
8701.293182432328
 30
0.0
 40
1.149999999999977
100
AcDbArc
 50
0.0
 51
180.0
  0
LINE
  5
178A2
330
17B6C
100
AcDbEntity
  8
U1
100
AcDbLine
 10
9146.227507899642
 20
8693.743182432326
 30
0.0
 11
9146.227507899642
 21
8701.293182432326
 31
0.0
  0
LINE
  5
178A3
330
17B6C
100
AcDbEntity
  8
U1
100
AcDbLine
 10
9143.927507899638
 20
8693.743182432326
 30
0.0
 11
9146.227507899642
 21
8693.743182432326
 31
0.0
  0
LINE
  5
178A4
330
17B6C
100
AcDbEntity
  8
U1
100
AcDbLine
 10
9141.62750789964
 20
8700.743182432326
 30
0.0
 11
9143.927507899638
 21
8700.743182432326
 31
0.0
  0
ARC
  5
178A5
330
17B6C
100
AcDbEntity
  8
U1
100
AcDbCircle
 10
9142.777507899639
 20
8701.293182432328
 30
0.0
 40
3.450000000000044
100
AcDbArc
 50
0.0
 51
180.0
  0
LINE
  5
178A6
330
17B6C
100
AcDbEntity
  8
U1
100
AcDbLine
 10
9141.62750789964
 20
8701.293182432328
 30
0.0
 11
9141.62750789964
 21
8692.043182432326
 31
0.0
  0
LINE
  5
178A7
330
17B6C
100
AcDbEntity
  8
U1
100
AcDbLine
 10
9143.927507899638
 20
8692.043182432326
 30
0.0
 11
9143.927507899638
 21
8701.293182432326
 31
0.0
  0
LINE
  5
178A8
330
17B6C
100
AcDbEntity
  8
U1
100
AcDbLine
 10
9139.327507899642
 20
8701.293182432328
 30
0.0
 11
9139.327507899642
 21
8692.043182432326
 31
0.0
  0
ARC
  5
178A9
330
17B6C
100
AcDbEntity
  8
U1
100
AcDbCircle
 10
9155.327507899638
 20
8692.043182432326
 30
0.0
 40
4.0
100
AcDbArc
 50
270.0
 51
0.0
  0
LINE
  5
178AA
330
17B6C
100
AcDbEntity
  8
U1
100
AcDbLine
 10
9155.327507899638
 20
8688.043182432329
 30
0.0
 11
9147.927507899638
 21
8688.043182432329
 31
0.0
  0
ARC
  5
178AB
330
17B6C
100
AcDbEntity
  8
U1
100
AcDbCircle
 10
9147.927507899638
 20
8692.043182432326
 30
0.0
 40
4.0
100
AcDbArc
 50
180.0
 51
270.0
  0
LINE
  5
178AC
330
17B6C
100
AcDbEntity
  8
U1
100
AcDbLine
 10
9159.327507899641
 20
8744.443182432327
 30
0.0
 11
9159.327507899638
 21
8692.043182432326
 31
0.0
  0
LINE
  5
178AD
330
17B6C
100
AcDbEntity
  8
U1
100
AcDbLine
 10
7735.327507899639
 20
8688.043182432329
 30
0.0
 11
7702.927507899639
 21
8688.043182432329
 31
0.0
  0
LINE
  5
178AE
330
17B6C
100
AcDbEntity
  8
U1
100
AcDbLine
 10
7702.927507899639
 20
8748.443182432328
 30
0.0
 11
7755.327507899639
 21
8748.443182432328
 31
0.0
  0
ARC
  5
178B0
330
17B6C
100
AcDbEntity
  8
U1
100
AcDbCircle
 10
7702.927507899639
 20
8744.443182432327
 30
0.0
 40
4.0
100
AcDbArc
 50
90.0
 51
180.0
  0
ARC
  5
178B1
330
17B6C
100
AcDbEntity
  8
U1
100
AcDbCircle
 10
7702.927507899639
 20
8692.043182432326
 30
0.0
 40
4.0
100
AcDbArc
 50
180.0
 51
270.0
  0
LINE
  5
178B2
330
17B6C
100
AcDbEntity
  8
U1
100
AcDbLine
 10
7698.927507899639
 20
8692.043182432326
 30
0.0
 11
7698.927507899639
 21
8744.443182432327
 31
0.0
  0
ARC
  5
178B3
330
17B6C
100
AcDbEntity
  8
U1
100
AcDbCircle
 10
7755.327507899639
 20
8744.443182432327
 30
0.0
 40
4.0
100
AcDbArc
 50
0.0
 51
90.0
  0
ARC
  5
178B4
330
17B6C
100
AcDbEntity
  8
U1
100
AcDbCircle
 10
7735.327507899639
 20
8692.043182432326
 30
0.0
 40
4.0
100
AcDbArc
 50
270.0
 51
0.0
  0
ARC
  5
178B5
330
17B6C
100
AcDbEntity
  8
U1
100
AcDbCircle
 10
7742.777507899639
 20
8701.293182432328
 30
0.0
 40
1.149999999999977
100
AcDbArc
 50
0.0
 51
180.0
  0
LINE
  5
178B6
330
17B6C
100
AcDbEntity
  8
U1
100
AcDbLine
 10
7746.227507899639
 20
8693.743182432326
 30
0.0
 11
7746.227507899639
 21
8701.293182432326
 31
0.0
  0
LINE
  5
178B7
330
17B6C
100
AcDbEntity
  8
U1
100
AcDbLine
 10
7743.927507899639
 20
8693.743182432326
 30
0.0
 11
7746.227507899639
 21
8693.743182432326
 31
0.0
  0
LINE
  5
178B8
330
17B6C
100
AcDbEntity
  8
U1
100
AcDbLine
 10
7741.627507899639
 20
8700.743182432326
 30
0.0
 11
7743.927507899639
 21
8700.743182432326
 31
0.0
  0
ARC
  5
178B9
330
17B6C
100
AcDbEntity
  8
U1
100
AcDbCircle
 10
7742.777507899639
 20
8701.293182432328
 30
0.0
 40
3.450000000000044
100
AcDbArc
 50
0.0
 51
180.0
  0
LINE
  5
178BA
330
17B6C
100
AcDbEntity
  8
U1
100
AcDbLine
 10
7741.627507899639
 20
8701.293182432328
 30
0.0
 11
7741.627507899639
 21
8692.043182432326
 31
0.0
  0
LINE
  5
178BB
330
17B6C
100
AcDbEntity
  8
U1
100
AcDbLine
 10
7743.927507899639
 20
8692.043182432326
 30
0.0
 11
7743.927507899639
 21
8701.293182432326
 31
0.0
  0
LINE
  5
178BC
330
17B6C
100
AcDbEntity
  8
U1
100
AcDbLine
 10
7739.327507899638
 20
8701.293182432328
 30
0.0
 11
7739.327507899638
 21
8692.043182432326
 31
0.0
  0
ARC
  5
178BD
330
17B6C
100
AcDbEntity
  8
U1
100
AcDbCircle
 10
7755.327507899639
 20
8692.043182432326
 30
0.0
 40
4.0
100
AcDbArc
 50
270.0
 51
0.0
  0
LINE
  5
178BE
330
17B6C
100
AcDbEntity
  8
U1
100
AcDbLine
 10
7755.327507899639
 20
8688.043182432329
 30
0.0
 11
7747.927507899639
 21
8688.043182432329
 31
0.0
  0
ARC
  5
178BF
330
17B6C
100
AcDbEntity
  8
U1
100
AcDbCircle
 10
7747.927507899639
 20
8692.043182432326
 30
0.0
 40
4.0
100
AcDbArc
 50
180.0
 51
270.0
  0
LINE
  5
178C0
330
17B6C
100
AcDbEntity
  8
U1
100
AcDbLine
 10
7759.327507899641
 20
8744.443182432327
 30
0.0
 11
7759.327507899637
 21
8692.043182432326
 31
0.0
  0
LINE
  5
178C1
330
17B6C
100
AcDbEntity
  8
U1
100
AcDbLine
 10
4912.927507899638
 20
8688.043182432329
 30
0.0
 11
4945.327507899638
 21
8688.043182432329
 31
0.0
  0
LINE
  5
178C2
330
17B6C
100
AcDbEntity
  8
U1
100
AcDbLine
 10
4945.327507899638
 20
8748.443182432328
 30
0.0
 11
4892.927507899639
 21
8748.443182432328
 31
0.0
  0
ARC
  5
178C4
330
17B6C
100
AcDbEntity
  8
U1
100
AcDbCircle
 10
4945.327507899638
 20
8744.443182432327
 30
0.0
 40
4.0
100
AcDbArc
 50
0.0
 51
90.0
  0
ARC
  5
178C5
330
17B6C
100
AcDbEntity
  8
U1
100
AcDbCircle
 10
4945.327507899638
 20
8692.043182432326
 30
0.0
 40
4.0
100
AcDbArc
 50
270.0
 51
0.0
  0
LINE
  5
178C6
330
17B6C
100
AcDbEntity
  8
U1
100
AcDbLine
 10
4949.327507899639
 20
8692.043182432326
 30
0.0
 11
4949.327507899639
 21
8744.443182432327
 31
0.0
  0
ARC
  5
178C7
330
17B6C
100
AcDbEntity
  8
U1
100
AcDbCircle
 10
4892.927507899639
 20
8744.443182432327
 30
0.0
 40
4.0
100
AcDbArc
 50
90.0
 51
180.0
  0
ARC
  5
178C8
330
17B6C
100
AcDbEntity
  8
U1
100
AcDbCircle
 10
4912.927507899638
 20
8692.043182432326
 30
0.0
 40
4.0
100
AcDbArc
 50
180.0
 51
270.0
  0
ARC
  5
178C9
330
17B6C
100
AcDbEntity
  8
U1
100
AcDbCircle
 10
4905.477507899639
 20
8701.293182432328
 30
0.0
 40
1.149999999999977
100
AcDbArc
 50
0.0
 51
180.0
  0
LINE
  5
178CA
330
17B6C
100
AcDbEntity
  8
U1
100
AcDbLine
 10
4902.027507899639
 20
8693.743182432326
 30
0.0
 11
4902.027507899639
 21
8701.293182432328
 31
0.0
  0
LINE
  5
178CB
330
17B6C
100
AcDbEntity
  8
U1
100
AcDbLine
 10
4904.32750789964
 20
8693.743182432326
 30
0.0
 11
4902.027507899639
 21
8693.743182432326
 31
0.0
  0
LINE
  5
178CC
330
17B6C
100
AcDbEntity
  8
U1
100
AcDbLine
 10
4906.627507899638
 20
8700.743182432326
 30
0.0
 11
4904.32750789964
 21
8700.743182432326
 31
0.0
  0
ARC
  5
178CD
330
17B6C
100
AcDbEntity
  8
U1
100
AcDbCircle
 10
4905.477507899639
 20
8701.293182432328
 30
0.0
 40
3.450000000000044
100
AcDbArc
 50
0.0
 51
180.0
  0
LINE
  5
178CE
330
17B6C
100
AcDbEntity
  8
U1
100
AcDbLine
 10
4906.627507899638
 20
8701.293182432328
 30
0.0
 11
4906.627507899639
 21
8692.043182432326
 31
0.0
  0
LINE
  5
178CF
330
17B6C
100
AcDbEntity
  8
U1
100
AcDbLine
 10
4904.32750789964
 20
8692.043182432326
 30
0.0
 11
4904.32750789964
 21
8701.293182432328
 31
0.0
  0
LINE
  5
178D0
330
17B6C
100
AcDbEntity
  8
U1
100
AcDbLine
 10
4908.927507899638
 20
8701.293182432328
 30
0.0
 11
4908.927507899638
 21
8692.043182432326
 31
0.0
  0
ARC
  5
178D1
330
17B6C
100
AcDbEntity
  8
U1
100
AcDbCircle
 10
4892.927507899639
 20
8692.043182432326
 30
0.0
 40
4.0
100
AcDbArc
 50
180.0
 51
270.0
  0
LINE
  5
178D2
330
17B6C
100
AcDbEntity
  8
U1
100
AcDbLine
 10
4892.927507899639
 20
8688.043182432329
 30
0.0
 11
4900.327507899639
 21
8688.043182432329
 31
0.0
  0
ARC
  5
178D3
330
17B6C
100
AcDbEntity
  8
U1
100
AcDbCircle
 10
4900.327507899639
 20
8692.043182432326
 30
0.0
 40
4.0
100
AcDbArc
 50
270.0
 51
0.0
  0
LINE
  5
178D4
330
17B6C
100
AcDbEntity
  8
U1
100
AcDbLine
 10
4888.927507899637
 20
8744.443182432327
 30
0.0
 11
4888.927507899639
 21
8692.043182432326
 31
0.0
  0
LINE
  5
178D5
330
17B6C
100
AcDbEntity
  8
U1
100
AcDbLine
 10
7735.327507899639
 20
6938.443182432327
 30
0.0
 11
7702.927507899639
 21
6938.443182432327
 31
0.0
  0
LINE
  5
178D6
330
17B6C
100
AcDbEntity
  8
U1
100
AcDbLine
 10
7702.927507899639
 20
6878.043182432326
 30
0.0
 11
7755.327507899639
 21
6878.043182432326
 31
0.0
  0
ARC
  5
178D8
330
17B6C
100
AcDbEntity
  8
U1
100
AcDbCircle
 10
7702.927507899639
 20
6882.043182432325
 30
0.0
 40
4.0
100
AcDbArc
 50
180.0
 51
270.0
  0
ARC
  5
178D9
330
17B6C
100
AcDbEntity
  8
U1
100
AcDbCircle
 10
7702.927507899639
 20
6934.443182432325
 30
0.0
 40
4.0
100
AcDbArc
 50
90.0
 51
180.0
  0
LINE
  5
178DA
330
17B6C
100
AcDbEntity
  8
U1
100
AcDbLine
 10
7698.927507899639
 20
6934.443182432325
 30
0.0
 11
7698.927507899639
 21
6882.043182432325
 31
0.0
  0
ARC
  5
178DB
330
17B6C
100
AcDbEntity
  8
U1
100
AcDbCircle
 10
7755.327507899639
 20
6882.043182432325
 30
0.0
 40
4.0
100
AcDbArc
 50
270.0
 51
0.0
  0
ARC
  5
178DC
330
17B6C
100
AcDbEntity
  8
U1
100
AcDbCircle
 10
7735.327507899639
 20
6934.443182432325
 30
0.0
 40
4.0
100
AcDbArc
 50
0.0
 51
90.0
  0
ARC
  5
178DD
330
17B6C
100
AcDbEntity
  8
U1
100
AcDbCircle
 10
7742.777507899639
 20
6925.193182432327
 30
0.0
 40
1.149999999999977
100
AcDbArc
 50
180.0
 51
0.0
  0
LINE
  5
178DE
330
17B6C
100
AcDbEntity
  8
U1
100
AcDbLine
 10
7746.227507899639
 20
6932.743182432327
 30
0.0
 11
7746.227507899639
 21
6925.193182432327
 31
0.0
  0
LINE
  5
178DF
330
17B6C
100
AcDbEntity
  8
U1
100
AcDbLine
 10
7743.927507899639
 20
6932.743182432327
 30
0.0
 11
7746.227507899639
 21
6932.743182432327
 31
0.0
  0
LINE
  5
178E0
330
17B6C
100
AcDbEntity
  8
U1
100
AcDbLine
 10
7741.627507899639
 20
6925.743182432326
 30
0.0
 11
7743.927507899639
 21
6925.743182432326
 31
0.0
  0
ARC
  5
178E1
330
17B6C
100
AcDbEntity
  8
U1
100
AcDbCircle
 10
7742.777507899639
 20
6925.193182432327
 30
0.0
 40
3.450000000000044
100
AcDbArc
 50
180.0
 51
0.0
  0
LINE
  5
178E2
330
17B6C
100
AcDbEntity
  8
U1
100
AcDbLine
 10
7741.627507899639
 20
6925.193182432327
 30
0.0
 11
7741.627507899639
 21
6934.443182432325
 31
0.0
  0
LINE
  5
178E3
330
17B6C
100
AcDbEntity
  8
U1
100
AcDbLine
 10
7743.927507899639
 20
6934.443182432325
 30
0.0
 11
7743.927507899639
 21
6925.193182432327
 31
0.0
  0
LINE
  5
178E4
330
17B6C
100
AcDbEntity
  8
U1
100
AcDbLine
 10
7739.327507899638
 20
6925.193182432327
 30
0.0
 11
7739.327507899638
 21
6934.443182432325
 31
0.0
  0
ARC
  5
178E5
330
17B6C
100
AcDbEntity
  8
U1
100
AcDbCircle
 10
7755.327507899639
 20
6934.443182432325
 30
0.0
 40
4.0
100
AcDbArc
 50
0.0
 51
90.0
  0
LINE
  5
178E6
330
17B6C
100
AcDbEntity
  8
U1
100
AcDbLine
 10
7755.327507899639
 20
6938.443182432327
 30
0.0
 11
7747.927507899639
 21
6938.443182432327
 31
0.0
  0
ARC
  5
178E7
330
17B6C
100
AcDbEntity
  8
U1
100
AcDbCircle
 10
7747.927507899639
 20
6934.443182432325
 30
0.0
 40
4.0
100
AcDbArc
 50
90.0
 51
180.0
  0
LINE
  5
178E8
330
17B6C
100
AcDbEntity
  8
U1
100
AcDbLine
 10
7759.327507899641
 20
6882.043182432325
 30
0.0
 11
7759.327507899637
 21
6934.443182432325
 31
0.0
  0
LINE
  5
178E9
330
17B6C
100
AcDbEntity
  8
U1
100
AcDbLine
 10
4912.927507899638
 20
6938.443182432327
 30
0.0
 11
4945.327507899638
 21
6938.443182432327
 31
0.0
  0
LINE
  5
178EA
330
17B6C
100
AcDbEntity
  8
U1
100
AcDbLine
 10
4945.327507899638
 20
6878.043182432326
 30
0.0
 11
4892.927507899639
 21
6878.043182432326
 31
0.0
  0
ARC
  5
178EC
330
17B6C
100
AcDbEntity
  8
U1
100
AcDbCircle
 10
4945.327507899638
 20
6882.043182432325
 30
0.0
 40
4.0
100
AcDbArc
 50
270.0
 51
0.0
  0
ARC
  5
178ED
330
17B6C
100
AcDbEntity
  8
U1
100
AcDbCircle
 10
4945.327507899638
 20
6934.443182432325
 30
0.0
 40
4.0
100
AcDbArc
 50
0.0
 51
90.0
  0
LINE
  5
178EE
330
17B6C
100
AcDbEntity
  8
U1
100
AcDbLine
 10
4949.327507899639
 20
6934.443182432325
 30
0.0
 11
4949.327507899639
 21
6882.043182432325
 31
0.0
  0
ARC
  5
178EF
330
17B6C
100
AcDbEntity
  8
U1
100
AcDbCircle
 10
4892.927507899639
 20
6882.043182432325
 30
0.0
 40
4.0
100
AcDbArc
 50
180.0
 51
270.0
  0
ARC
  5
178F0
330
17B6C
100
AcDbEntity
  8
U1
100
AcDbCircle
 10
4912.927507899638
 20
6934.443182432325
 30
0.0
 40
4.0
100
AcDbArc
 50
90.0
 51
180.0
  0
ARC
  5
178F1
330
17B6C
100
AcDbEntity
  8
U1
100
AcDbCircle
 10
4905.477507899639
 20
6925.193182432327
 30
0.0
 40
1.149999999999977
100
AcDbArc
 50
180.0
 51
0.0
  0
LINE
  5
178F2
330
17B6C
100
AcDbEntity
  8
U1
100
AcDbLine
 10
4902.027507899639
 20
6932.743182432327
 30
0.0
 11
4902.027507899639
 21
6925.193182432327
 31
0.0
  0
LINE
  5
178F3
330
17B6C
100
AcDbEntity
  8
U1
100
AcDbLine
 10
4904.32750789964
 20
6932.743182432327
 30
0.0
 11
4902.027507899639
 21
6932.743182432327
 31
0.0
  0
LINE
  5
178F4
330
17B6C
100
AcDbEntity
  8
U1
100
AcDbLine
 10
4906.627507899638
 20
6925.743182432326
 30
0.0
 11
4904.32750789964
 21
6925.743182432326
 31
0.0
  0
ARC
  5
178F5
330
17B6C
100
AcDbEntity
  8
U1
100
AcDbCircle
 10
4905.477507899639
 20
6925.193182432327
 30
0.0
 40
3.450000000000044
100
AcDbArc
 50
180.0
 51
0.0
  0
LINE
  5
178F6
330
17B6C
100
AcDbEntity
  8
U1
100
AcDbLine
 10
4906.627507899638
 20
6925.193182432327
 30
0.0
 11
4906.627507899639
 21
6934.443182432325
 31
0.0
  0
LINE
  5
178F7
330
17B6C
100
AcDbEntity
  8
U1
100
AcDbLine
 10
4904.32750789964
 20
6934.443182432325
 30
0.0
 11
4904.32750789964
 21
6925.193182432327
 31
0.0
  0
LINE
  5
178F8
330
17B6C
100
AcDbEntity
  8
U1
100
AcDbLine
 10
4908.927507899638
 20
6925.193182432327
 30
0.0
 11
4908.927507899638
 21
6934.443182432325
 31
0.0
  0
ARC
  5
178F9
330
17B6C
100
AcDbEntity
  8
U1
100
AcDbCircle
 10
4892.927507899639
 20
6934.443182432325
 30
0.0
 40
4.0
100
AcDbArc
 50
90.0
 51
180.0
  0
LINE
  5
178FA
330
17B6C
100
AcDbEntity
  8
U1
100
AcDbLine
 10
4892.927507899639
 20
6938.443182432327
 30
0.0
 11
4900.327507899639
 21
6938.443182432327
 31
0.0
  0
ARC
  5
178FB
330
17B6C
100
AcDbEntity
  8
U1
100
AcDbCircle
 10
4900.327507899639
 20
6934.443182432325
 30
0.0
 40
4.0
100
AcDbArc
 50
0.0
 51
90.0
  0
LINE
  5
178FC
330
17B6C
100
AcDbEntity
  8
U1
100
AcDbLine
 10
4888.927507899637
 20
6882.043182432325
 30
0.0
 11
4888.927507899639
 21
6934.443182432325
 31
0.0
  0
LINE
  5
178FD
330
17B6C
100
AcDbEntity
  8
U1
100
AcDbLine
 10
9135.327507899637
 20
6938.443182432327
 30
0.0
 11
9102.927507899641
 21
6938.443182432327
 31
0.0
  0
LINE
  5
178FE
330
17B6C
100
AcDbEntity
  8
U1
100
AcDbLine
 10
9102.927507899641
 20
6878.043182432326
 30
0.0
 11
9155.32750789964
 21
6878.043182432326
 31
0.0
  0
ARC
  5
17900
330
17B6C
100
AcDbEntity
  8
U1
100
AcDbCircle
 10
9102.927507899641
 20
6882.043182432325
 30
0.0
 40
4.0
100
AcDbArc
 50
180.0
 51
270.0
  0
ARC
  5
17901
330
17B6C
100
AcDbEntity
  8
U1
100
AcDbCircle
 10
9102.927507899641
 20
6934.443182432325
 30
0.0
 40
4.0
100
AcDbArc
 50
90.0
 51
180.0
  0
LINE
  5
17902
330
17B6C
100
AcDbEntity
  8
U1
100
AcDbLine
 10
9098.927507899642
 20
6934.443182432325
 30
0.0
 11
9098.927507899642
 21
6882.043182432325
 31
0.0
  0
ARC
  5
17903
330
17B6C
100
AcDbEntity
  8
U1
100
AcDbCircle
 10
9155.32750789964
 20
6882.043182432325
 30
0.0
 40
4.0
100
AcDbArc
 50
270.0
 51
0.0
  0
ARC
  5
17904
330
17B6C
100
AcDbEntity
  8
U1
100
AcDbCircle
 10
9135.327507899637
 20
6934.443182432325
 30
0.0
 40
4.0
100
AcDbArc
 50
0.0
 51
90.0
  0
ARC
  5
17905
330
17B6C
100
AcDbEntity
  8
U1
100
AcDbCircle
 10
9142.777507899639
 20
6925.193182432327
 30
0.0
 40
1.149999999999977
100
AcDbArc
 50
180.0
 51
0.0
  0
LINE
  5
17906
330
17B6C
100
AcDbEntity
  8
U1
100
AcDbLine
 10
9146.227507899642
 20
6932.743182432327
 30
0.0
 11
9146.227507899642
 21
6925.193182432327
 31
0.0
  0
LINE
  5
17907
330
17B6C
100
AcDbEntity
  8
U1
100
AcDbLine
 10
9143.927507899642
 20
6932.743182432327
 30
0.0
 11
9146.227507899642
 21
6932.743182432327
 31
0.0
  0
LINE
  5
17908
330
17B6C
100
AcDbEntity
  8
U1
100
AcDbLine
 10
9141.62750789964
 20
6925.743182432326
 30
0.0
 11
9143.927507899642
 21
6925.743182432326
 31
0.0
  0
ARC
  5
17909
330
17B6C
100
AcDbEntity
  8
U1
100
AcDbCircle
 10
9142.777507899639
 20
6925.193182432327
 30
0.0
 40
3.450000000000044
100
AcDbArc
 50
180.0
 51
0.0
  0
LINE
  5
1790A
330
17B6C
100
AcDbEntity
  8
U1
100
AcDbLine
 10
9141.62750789964
 20
6925.193182432327
 30
0.0
 11
9141.62750789964
 21
6934.443182432325
 31
0.0
  0
LINE
  5
1790B
330
17B6C
100
AcDbEntity
  8
U1
100
AcDbLine
 10
9143.927507899642
 20
6934.443182432325
 30
0.0
 11
9143.927507899642
 21
6925.193182432327
 31
0.0
  0
LINE
  5
1790C
330
17B6C
100
AcDbEntity
  8
U1
100
AcDbLine
 10
9139.327507899642
 20
6925.193182432327
 30
0.0
 11
9139.327507899642
 21
6934.443182432325
 31
0.0
  0
ARC
  5
1790D
330
17B6C
100
AcDbEntity
  8
U1
100
AcDbCircle
 10
9155.327507899638
 20
6934.443182432325
 30
0.0
 40
4.0
100
AcDbArc
 50
0.0
 51
90.0
  0
LINE
  5
1790E
330
17B6C
100
AcDbEntity
  8
U1
100
AcDbLine
 10
9155.327507899638
 20
6938.443182432327
 30
0.0
 11
9147.927507899643
 21
6938.443182432327
 31
0.0
  0
ARC
  5
1790F
330
17B6C
100
AcDbEntity
  8
U1
100
AcDbCircle
 10
9147.927507899643
 20
6934.443182432325
 30
0.0
 40
4.0
100
AcDbArc
 50
90.0
 51
180.0
  0
LINE
  5
17910
330
17B6C
100
AcDbEntity
  8
U1
100
AcDbLine
 10
9159.327507899641
 20
6882.043182432325
 30
0.0
 11
9159.327507899638
 21
6934.443182432325
 31
0.0
  0
LINE
  5
17911
330
17B6C
100
AcDbEntity
  8
U1
100
AcDbLine
 10
11945.32750789964
 20
6938.443182432327
 30
0.0
 11
11912.92750789964
 21
6938.443182432327
 31
0.0
  0
LINE
  5
17912
330
17B6C
100
AcDbEntity
  8
U1
100
AcDbLine
 10
11912.92750789964
 20
6878.043182432326
 30
0.0
 11
11965.32750789964
 21
6878.043182432326
 31
0.0
  0
ARC
  5
17914
330
17B6C
100
AcDbEntity
  8
U1
100
AcDbCircle
 10
11912.92750789964
 20
6882.043182432325
 30
0.0
 40
4.0
100
AcDbArc
 50
180.0
 51
270.0
  0
ARC
  5
17915
330
17B6C
100
AcDbEntity
  8
U1
100
AcDbCircle
 10
11912.92750789964
 20
6934.443182432325
 30
0.0
 40
4.0
100
AcDbArc
 50
90.0
 51
180.0
  0
LINE
  5
17916
330
17B6C
100
AcDbEntity
  8
U1
100
AcDbLine
 10
11908.92750789964
 20
6934.443182432325
 30
0.0
 11
11908.92750789964
 21
6882.043182432325
 31
0.0
  0
ARC
  5
17917
330
17B6C
100
AcDbEntity
  8
U1
100
AcDbCircle
 10
11965.32750789964
 20
6882.043182432325
 30
0.0
 40
4.0
100
AcDbArc
 50
270.0
 51
0.0
  0
ARC
  5
17918
330
17B6C
100
AcDbEntity
  8
U1
100
AcDbCircle
 10
11945.32750789964
 20
6934.443182432325
 30
0.0
 40
4.0
100
AcDbArc
 50
0.0
 51
90.0
  0
ARC
  5
17919
330
17B6C
100
AcDbEntity
  8
U1
100
AcDbCircle
 10
11952.77750789964
 20
6925.193182432327
 30
0.0
 40
1.149999999999977
100
AcDbArc
 50
180.0
 51
0.0
  0
LINE
  5
1791A
330
17B6C
100
AcDbEntity
  8
U1
100
AcDbLine
 10
11956.22750789964
 20
6932.743182432327
 30
0.0
 11
11956.22750789964
 21
6925.193182432327
 31
0.0
  0
LINE
  5
1791B
330
17B6C
100
AcDbEntity
  8
U1
100
AcDbLine
 10
11953.92750789964
 20
6932.743182432327
 30
0.0
 11
11956.22750789964
 21
6932.743182432327
 31
0.0
  0
LINE
  5
1791C
330
17B6C
100
AcDbEntity
  8
U1
100
AcDbLine
 10
11951.62750789964
 20
6925.743182432326
 30
0.0
 11
11953.92750789964
 21
6925.743182432326
 31
0.0
  0
ARC
  5
1791D
330
17B6C
100
AcDbEntity
  8
U1
100
AcDbCircle
 10
11952.77750789964
 20
6925.193182432327
 30
0.0
 40
3.450000000000044
100
AcDbArc
 50
180.0
 51
0.0
  0
LINE
  5
1791E
330
17B6C
100
AcDbEntity
  8
U1
100
AcDbLine
 10
11951.62750789964
 20
6925.193182432327
 30
0.0
 11
11951.62750789964
 21
6934.443182432325
 31
0.0
  0
LINE
  5
1791F
330
17B6C
100
AcDbEntity
  8
U1
100
AcDbLine
 10
11953.92750789964
 20
6934.443182432325
 30
0.0
 11
11953.92750789964
 21
6925.193182432327
 31
0.0
  0
LINE
  5
17920
330
17B6C
100
AcDbEntity
  8
U1
100
AcDbLine
 10
11949.32750789964
 20
6925.193182432327
 30
0.0
 11
11949.32750789964
 21
6934.443182432325
 31
0.0
  0
ARC
  5
17921
330
17B6C
100
AcDbEntity
  8
U1
100
AcDbCircle
 10
11965.32750789964
 20
6934.443182432325
 30
0.0
 40
4.0
100
AcDbArc
 50
0.0
 51
90.0
  0
LINE
  5
17922
330
17B6C
100
AcDbEntity
  8
U1
100
AcDbLine
 10
11965.32750789964
 20
6938.443182432327
 30
0.0
 11
11957.92750789964
 21
6938.443182432327
 31
0.0
  0
ARC
  5
17923
330
17B6C
100
AcDbEntity
  8
U1
100
AcDbCircle
 10
11957.92750789964
 20
6934.443182432325
 30
0.0
 40
4.0
100
AcDbArc
 50
90.0
 51
180.0
  0
LINE
  5
17924
330
17B6C
100
AcDbEntity
  8
U1
100
AcDbLine
 10
11969.32750789964
 20
6882.043182432325
 30
0.0
 11
11969.32750789964
 21
6934.443182432325
 31
0.0
  0
LINE
  5
17925
330
17B6C
100
AcDbEntity
  8
YODOROGO
100
AcDbLine
 10
15232.80217064596
 20
867.8747482146436
 30
0.0
 11
15190.80217064596
 21
867.8747482146436
 31
0.0
  0
LINE
  5
17926
330
17B6C
100
AcDbEntity
  8
YODOROGO
100
AcDbLine
 10
15190.80217064596
 20
867.8747482146436
 30
0.0
 11
15190.80217064596
 21
897.8747482146435
 31
0.0
  0
LINE
  5
17927
330
17B6C
100
AcDbEntity
  8
YODOROGO
100
AcDbLine
 10
15190.80217064596
 20
897.8747482146435
 30
0.0
 11
15308.80217064596
 21
897.8747482146435
 31
0.0
  0
LINE
  5
17928
330
17B6C
100
AcDbEntity
  8
YODOROGO
100
AcDbLine
 10
15308.80217064596
 20
897.8747482146435
 30
0.0
 11
15308.80217064596
 21
867.8747482146436
 31
0.0
  0
LINE
  5
17929
330
17B6C
100
AcDbEntity
  8
YODOROGO
100
AcDbLine
 10
15308.80217064596
 20
867.8747482146436
 30
0.0
 11
15264.80217064596
 21
867.8747482146436
 31
0.0
  0
LINE
  5
1792A
330
17B6C
100
AcDbEntity
  8
YODOROGO
100
AcDbLine
 10
15264.80217064596
 20
867.8747482146436
 30
0.0
 11
15264.80217064596
 21
839.8747482146443
 31
0.0
  0
LINE
  5
1792B
330
17B6C
100
AcDbEntity
  8
YODOROGO
100
AcDbLine
 10
15264.80217064596
 20
839.8747482146443
 30
0.0
 11
15308.80217064596
 21
839.8747482146443
 31
0.0
  0
LINE
  5
1792C
330
17B6C
100
AcDbEntity
  8
YODOROGO
100
AcDbLine
 10
15308.80217064596
 20
839.8747482146443
 30
0.0
 11
15308.80217064596
 21
813.8747482146436
 31
0.0
  0
LINE
  5
1792D
330
17B6C
100
AcDbEntity
  8
YODOROGO
100
AcDbLine
 10
15308.80217064596
 20
813.8747482146436
 30
0.0
 11
15264.80217064596
 21
813.8747482146436
 31
0.0
  0
LINE
  5
1792E
330
17B6C
100
AcDbEntity
  8
YODOROGO
100
AcDbLine
 10
15264.80217064596
 20
813.8747482146436
 30
0.0
 11
15264.80217064596
 21
773.8747482146439
 31
0.0
  0
LINE
  5
1792F
330
17B6C
100
AcDbEntity
  8
YODOROGO
100
AcDbLine
 10
15264.80217064596
 20
773.8747482146439
 30
0.0
 11
15272.80217064594
 21
773.8747482146439
 31
0.0
  0
ARC
  5
17930
330
17B6C
100
AcDbEntity
  8
YODOROGO
100
AcDbCircle
 10
15272.80217064594
 20
785.8747482146443
 30
0.0
 40
12.00000000000044
100
AcDbArc
 50
270.0
 51
359.9999999999945
  0
LINE
  5
17931
330
17B6C
100
AcDbEntity
  8
YODOROGO
100
AcDbLine
 10
15284.80217064594
 20
785.8747482146432
 30
0.0
 11
15284.80217064596
 21
799.8747482146441
 31
0.0
  0
LINE
  5
17932
330
17B6C
100
AcDbEntity
  8
YODOROGO
100
AcDbLine
 10
15284.80217064596
 20
799.8747482146441
 30
0.0
 11
15308.80217064596
 21
799.8747482146441
 31
0.0
  0
LINE
  5
17933
330
17B6C
100
AcDbEntity
  8
YODOROGO
100
AcDbLine
 10
15308.80217064596
 20
799.8747482146441
 30
0.0
 11
15308.80217064596
 21
753.8747482146439
 31
0.0
  0
ARC
  5
17934
330
17B6C
100
AcDbEntity
  8
YODOROGO
100
AcDbCircle
 10
15268.80217064596
 20
753.8747482146439
 30
0.0
 40
40.0
100
AcDbArc
 50
270.0
 51
0.0
  0
LINE
  5
17935
330
17B6C
100
AcDbEntity
  8
YODOROGO
100
AcDbLine
 10
15268.80217064596
 20
713.8747482146436
 30
0.0
 11
15190.80217064596
 21
713.8747482146436
 31
0.0
  0
LINE
  5
17936
330
17B6C
100
AcDbEntity
  8
YODOROGO
100
AcDbLine
 10
15190.80217064596
 20
713.8747482146436
 30
0.0
 11
15190.80217064596
 21
773.8747482146439
 31
0.0
  0
LINE
  5
17937
330
17B6C
100
AcDbEntity
  8
YODOROGO
100
AcDbLine
 10
15190.80217064596
 20
773.8747482146439
 30
0.0
 11
15232.80217064596
 21
773.8747482146439
 31
0.0
  0
LINE
  5
17938
330
17B6C
100
AcDbEntity
  8
YODOROGO
100
AcDbLine
 10
15232.80217064596
 20
773.8747482146439
 30
0.0
 11
15232.80217064596
 21
813.8747482146436
 31
0.0
  0
LINE
  5
17939
330
17B6C
100
AcDbEntity
  8
YODOROGO
100
AcDbLine
 10
15232.80217064596
 20
813.8747482146436
 30
0.0
 11
15190.80217064596
 21
813.8747482146436
 31
0.0
  0
LINE
  5
1793A
330
17B6C
100
AcDbEntity
  8
YODOROGO
100
AcDbLine
 10
15190.80217064596
 20
813.8747482146436
 30
0.0
 11
15190.80217064596
 21
839.8747482146443
 31
0.0
  0
LINE
  5
1793B
330
17B6C
100
AcDbEntity
  8
YODOROGO
100
AcDbLine
 10
15190.80217064596
 20
839.8747482146443
 30
0.0
 11
15232.80217064596
 21
839.8747482146443
 31
0.0
  0
LINE
  5
1793C
330
17B6C
100
AcDbEntity
  8
YODOROGO
100
AcDbLine
 10
15232.80217064596
 20
839.8747482146443
 30
0.0
 11
15232.80217064596
 21
867.8747482146436
 31
0.0
  0
LINE
  5
1793D
330
17B6C
100
AcDbEntity
  8
YODOROGO
100
AcDbLine
 10
15248.80217064596
 20
969.8747482146441
 30
0.0
 11
15190.80217064596
 21
909.8747482146439
 31
0.0
  0
LINE
  5
1793E
330
17B6C
100
AcDbEntity
  8
YODOROGO
100
AcDbLine
 10
15190.80217064596
 20
909.8747482146439
 30
0.0
 11
15190.80217064596
 21
953.874748214644
 31
0.0
  0
LINE
  5
1793F
330
17B6C
100
AcDbEntity
  8
YODOROGO
100
AcDbLine
 10
15190.80217064596
 20
953.874748214644
 30
0.0
 11
15248.80217064596
 21
1013.874748214644
 31
0.0
  0
LINE
  5
17940
330
17B6C
100
AcDbEntity
  8
YODOROGO
100
AcDbLine
 10
15248.80217064596
 20
1013.874748214644
 30
0.0
 11
15308.80217064596
 21
973.8747482146436
 31
0.0
  0
LINE
  5
17941
330
17B6C
100
AcDbEntity
  8
YODOROGO
100
AcDbLine
 10
15308.80217064596
 20
973.8747482146436
 30
0.0
 11
15308.80217064596
 21
929.874748214644
 31
0.0
  0
LINE
  5
17942
330
17B6C
100
AcDbEntity
  8
YODOROGO
100
AcDbLine
 10
15308.80217064596
 20
929.874748214644
 30
0.0
 11
15248.80217064596
 21
969.8747482146441
 31
0.0
  0
LINE
  5
17943
330
17B6C
100
AcDbEntity
  8
YODOROGO
100
AcDbLine
 10
15582.80217064596
 20
1013.874748214644
 30
0.0
 11
15582.80217064596
 21
981.8747482146434
 31
0.0
  0
LINE
  5
17944
330
17B6C
100
AcDbEntity
  8
YODOROGO
100
AcDbLine
 10
15582.80217064596
 20
981.8747482146434
 30
0.0
 11
15706.80217064596
 21
981.8747482146434
 31
0.0
  0
LINE
  5
17945
330
17B6C
100
AcDbEntity
  8
YODOROGO
100
AcDbLine
 10
15706.80217064596
 20
981.8747482146434
 30
0.0
 11
15706.80217064596
 21
1013.874748214644
 31
0.0
  0
LINE
  5
17946
330
17B6C
100
AcDbEntity
  8
YODOROGO
100
AcDbLine
 10
15706.80217064596
 20
1013.874748214644
 30
0.0
 11
15582.80217064596
 21
1013.874748214644
 31
0.0
  0
LINE
  5
17947
330
17B6C
100
AcDbEntity
  8
YODOROGO
100
AcDbLine
 10
15674.80217064596
 20
889.8747482146443
 30
0.0
 11
15674.80217064596
 21
917.8747482146436
 31
0.0
  0
LINE
  5
17948
330
17B6C
100
AcDbEntity
  8
YODOROGO
100
AcDbLine
 10
15674.80217064596
 20
917.8747482146436
 30
0.0
 11
15618.80217064596
 21
917.8747482146436
 31
0.0
  0
LINE
  5
17949
330
17B6C
100
AcDbEntity
  8
YODOROGO
100
AcDbLine
 10
15618.80217064596
 20
917.8747482146436
 30
0.0
 11
15618.80217064596
 21
889.8747482146443
 31
0.0
  0
LINE
  5
1794A
330
17B6C
100
AcDbEntity
  8
YODOROGO
100
AcDbLine
 10
15618.80217064596
 20
889.8747482146443
 30
0.0
 11
15674.80217064596
 21
889.8747482146443
 31
0.0
  0
LINE
  5
1794B
330
17B6C
100
AcDbEntity
  8
YODOROGO
100
AcDbLine
 10
15618.80217064596
 20
797.8747482146435
 30
0.0
 11
15618.80217064596
 21
853.8747482146439
 31
0.0
  0
LINE
  5
1794C
330
17B6C
100
AcDbEntity
  8
YODOROGO
100
AcDbLine
 10
15618.80217064596
 20
853.8747482146439
 30
0.0
 11
15706.80217064596
 21
853.8747482146439
 31
0.0
  0
LINE
  5
1794D
330
17B6C
100
AcDbEntity
  8
YODOROGO
100
AcDbLine
 10
15706.80217064596
 20
853.8747482146439
 30
0.0
 11
15706.80217064596
 21
953.874748214644
 31
0.0
  0
LINE
  5
1794E
330
17B6C
100
AcDbEntity
  8
YODOROGO
100
AcDbLine
 10
15706.80217064596
 20
953.874748214644
 30
0.0
 11
15582.80217064596
 21
953.874748214644
 31
0.0
  0
LINE
  5
1794F
330
17B6C
100
AcDbEntity
  8
YODOROGO
100
AcDbLine
 10
15582.80217064596
 20
953.874748214644
 30
0.0
 11
15582.80217064596
 21
817.8747482146436
 31
0.0
  0
ARC
  5
17950
330
17B6C
100
AcDbEntity
  8
YODOROGO
100
AcDbCircle
 10
15519.86069778339
 20
818.7656950548673
 30
0.0
 40
62.94777829583681
100
AcDbArc
 50
295.3405244215991
 51
359.1890230341858
  0
LINE
  5
17951
330
17B6C
100
AcDbEntity
  8
YODOROGO
100
AcDbLine
 10
15546.80217064596
 20
761.8747482146434
 30
0.0
 11
15546.80217064596
 21
713.8747482146436
 31
0.0
  0
ARC
  5
17952
330
17B6C
100
AcDbEntity
  8
YODOROGO
100
AcDbCircle
 10
15529.75894667896
 20
801.3403687577882
 30
0.0
 40
89.11064055536078
100
AcDbArc
 50
281.0262749542535
 51
357.7711357557378
  0
LINE
  5
17953
330
17B6C
100
AcDbEntity
  8
YODOROGO
100
AcDbLine
 10
15794.80217064596
 20
905.8747482146443
 30
0.0
 11
15794.80217064596
 21
713.8747482146436
 31
0.0
  0
LINE
  5
17954
330
17B6C
100
AcDbEntity
  8
YODOROGO
100
AcDbLine
 10
15794.80217064596
 20
713.8747482146436
 30
0.0
 11
15826.80217064596
 21
713.8747482146436
 31
0.0
  0
LINE
  5
17955
330
17B6C
100
AcDbEntity
  8
YODOROGO
100
AcDbLine
 10
15826.80217064596
 20
713.8747482146436
 30
0.0
 11
15826.80217064595
 21
905.8747482146443
 31
0.0
  0
LINE
  5
17956
330
17B6C
100
AcDbEntity
  8
YODOROGO
100
AcDbLine
 10
15826.80217064595
 20
905.8747482146443
 30
0.0
 11
15850.80217064596
 21
905.8747482146443
 31
0.0
  0
LINE
  5
17957
330
17B6C
100
AcDbEntity
  8
YODOROGO
100
AcDbLine
 10
15850.80217064596
 20
905.8747482146443
 30
0.0
 11
15850.80217064596
 21
937.8747482146435
 31
0.0
  0
LINE
  5
17958
330
17B6C
100
AcDbEntity
  8
YODOROGO
100
AcDbLine
 10
15850.80217064596
 20
937.8747482146435
 30
0.0
 11
15766.80217064595
 21
937.8747482146435
 31
0.0
  0
LINE
  5
17959
330
17B6C
100
AcDbEntity
  8
YODOROGO
100
AcDbLine
 10
15766.80217064595
 20
937.8747482146435
 30
0.0
 11
15766.80217064595
 21
957.8747482146436
 31
0.0
  0
LINE
  5
1795A
330
17B6C
100
AcDbEntity
  8
YODOROGO
100
AcDbLine
 10
15766.80217064595
 20
957.8747482146436
 30
0.0
 11
15830.80217064596
 21
957.8747482146436
 31
0.0
  0
ARC
  5
1795B
330
17B6C
100
AcDbEntity
  8
YODOROGO
100
AcDbCircle
 10
15830.80217064596
 20
977.8747482146435
 30
0.0
 40
20.0
100
AcDbArc
 50
270.0
 51
0.0
  0
LINE
  5
1795C
330
17B6C
100
AcDbEntity
  8
YODOROGO
100
AcDbLine
 10
15850.80217064596
 20
977.8747482146435
 30
0.0
 11
15850.80217064596
 21
1013.874748214644
 31
0.0
  0
LINE
  5
1795D
330
17B6C
100
AcDbEntity
  8
YODOROGO
100
AcDbLine
 10
15850.80217064596
 20
1013.874748214644
 30
0.0
 11
15818.80217064596
 21
1013.874748214644
 31
0.0
  0
LINE
  5
1795E
330
17B6C
100
AcDbEntity
  8
YODOROGO
100
AcDbLine
 10
15818.80217064596
 20
1013.874748214644
 30
0.0
 11
15818.80217064596
 21
1001.874748214643
 31
0.0
  0
ARC
  5
1795F
330
17B6C
100
AcDbEntity
  8
YODOROGO
100
AcDbCircle
 10
15810.80217064596
 20
1001.874748214643
 30
0.0
 40
8.0
100
AcDbArc
 50
270.0
 51
359.9999999999984
  0
LINE
  5
17960
330
17B6C
100
AcDbEntity
  8
YODOROGO
100
AcDbLine
 10
15810.80217064596
 20
993.8747482146439
 30
0.0
 11
15730.80217064594
 21
993.8747482146439
 31
0.0
  0
LINE
  5
17961
330
17B6C
100
AcDbEntity
  8
YODOROGO
100
AcDbLine
 10
15730.80217064594
 20
993.8747482146439
 30
0.0
 11
15730.80217064594
 21
817.8747482146436
 31
0.0
  0
ARC
  5
17962
330
17B6C
100
AcDbEntity
  8
YODOROGO
100
AcDbCircle
 10
15675.75903786228
 20
818.9194785088282
 30
0.0
 40
55.05304649180792
100
AcDbArc
 50
269.0041020930593
 51
358.912644554924
  0
LINE
  5
17963
330
17B6C
100
AcDbEntity
  8
YODOROGO
100
AcDbLine
 10
15674.80217064596
 20
763.8747482146436
 30
0.0
 11
15674.80217064596
 21
713.8747482146436
 31
0.0
  0
ARC
  5
17964
330
17B6C
100
AcDbEntity
  8
YODOROGO
100
AcDbCircle
 10
15676.95743255803
 20
803.8951756442788
 30
0.0
 40
90.0462242879942
100
AcDbArc
 50
268.6284910216985
 51
356.1663845733032
  0
LINE
  5
17965
330
17B6C
100
AcDbEntity
  8
YODOROGO
100
AcDbLine
 10
15766.80217064596
 20
797.8747482146435
 30
0.0
 11
15766.80217064595
 21
905.8747482146443
 31
0.0
  0
LINE
  5
17966
330
17B6C
100
AcDbEntity
  8
YODOROGO
100
AcDbLine
 10
15766.80217064595
 20
905.8747482146443
 30
0.0
 11
15794.80217064596
 21
905.8747482146443
 31
0.0
  0
LINE
  5
17967
330
17B6C
100
AcDbEntity
  8
YODOROGO
100
AcDbLine
 10
15462.80217064596
 20
773.8747482146439
 30
0.0
 11
15462.80217064596
 21
981.8747482146434
 31
0.0
  0
LINE
  5
17968
330
17B6C
100
AcDbEntity
  8
YODOROGO
100
AcDbLine
 10
15462.80217064596
 20
981.8747482146434
 30
0.0
 11
15348.80217064596
 21
981.8747482146434
 31
0.0
  0
LINE
  5
17969
330
17B6C
100
AcDbEntity
  8
YODOROGO
100
AcDbLine
 10
15348.80217064596
 20
981.8747482146434
 30
0.0
 11
15348.80217064596
 21
713.8747482146436
 31
0.0
  0
LINE
  5
1796A
330
17B6C
100
AcDbEntity
  8
YODOROGO
100
AcDbLine
 10
15348.80217064596
 20
713.8747482146436
 30
0.0
 11
15322.80217064596
 21
713.8747482146436
 31
0.0
  0
LINE
  5
1796B
330
17B6C
100
AcDbEntity
  8
YODOROGO
100
AcDbLine
 10
15322.80217064596
 20
713.8747482146436
 30
0.0
 11
15322.80217064596
 21
1013.874748214644
 31
0.0
  0
LINE
  5
1796C
330
17B6C
100
AcDbEntity
  8
YODOROGO
100
AcDbLine
 10
15322.80217064596
 20
1013.874748214644
 30
0.0
 11
15486.80217064596
 21
1013.874748214644
 31
0.0
  0
LINE
  5
1796D
330
17B6C
100
AcDbEntity
  8
YODOROGO
100
AcDbLine
 10
15486.80217064596
 20
1013.874748214644
 30
0.0
 11
15486.80217064596
 21
733.8747482146437
 31
0.0
  0
ARC
  5
1796E
330
17B6C
100
AcDbEntity
  8
YODOROGO
100
AcDbCircle
 10
15466.80217064596
 20
733.8747482146437
 30
0.0
 40
20.0
100
AcDbArc
 50
270.0
 51
0.0
  0
LINE
  5
1796F
330
17B6C
100
AcDbEntity
  8
YODOROGO
100
AcDbLine
 10
15466.80217064596
 20
713.8747482146436
 30
0.0
 11
15449.80217064596
 21
713.8747482146436
 31
0.0
  0
LINE
  5
17970
330
17B6C
100
AcDbEntity
  8
YODOROGO
100
AcDbLine
 10
15449.80217064596
 20
713.8747482146436
 30
0.0
 11
15449.80217064596
 21
773.8747482146439
 31
0.0
  0
LINE
  5
17971
330
17B6C
100
AcDbEntity
  8
YODOROGO
100
AcDbLine
 10
15449.80217064596
 20
773.8747482146439
 30
0.0
 11
15462.80217064596
 21
773.8747482146439
 31
0.0
  0
LINE
  5
17972
330
17B6C
100
AcDbEntity
  8
YODOROGO
100
AcDbLine
 10
15415.80217064596
 20
877.8747482146437
 30
0.0
 11
15415.80217064596
 21
781.8747482146434
 31
0.0
  0
LINE
  5
17973
330
17B6C
100
AcDbEntity
  8
YODOROGO
100
AcDbLine
 10
15415.80217064596
 20
781.8747482146434
 30
0.0
 11
15429.80217064596
 21
781.8747482146434
 31
0.0
  0
LINE
  5
17974
330
17B6C
100
AcDbEntity
  8
YODOROGO
100
AcDbLine
 10
15429.80217064596
 20
781.8747482146434
 30
0.0
 11
15429.80217064596
 21
845.8747482146444
 31
0.0
  0
LINE
  5
17975
330
17B6C
100
AcDbEntity
  8
YODOROGO
100
AcDbLine
 10
15429.80217064596
 20
845.8747482146444
 30
0.0
 11
15449.80217064596
 21
845.8747482146444
 31
0.0
  0
LINE
  5
17976
330
17B6C
100
AcDbEntity
  8
YODOROGO
100
AcDbLine
 10
15449.80217064596
 20
845.8747482146444
 30
0.0
 11
15449.80217064596
 21
745.8747482146443
 31
0.0
  0
LINE
  5
17977
330
17B6C
100
AcDbEntity
  8
YODOROGO
100
AcDbLine
 10
15449.80217064596
 20
745.8747482146443
 30
0.0
 11
15361.80217064596
 21
745.8747482146443
 31
0.0
  0
LINE
  5
17978
330
17B6C
100
AcDbEntity
  8
YODOROGO
100
AcDbLine
 10
15361.80217064596
 20
745.8747482146443
 30
0.0
 11
15361.80217064596
 21
845.8747482146444
 31
0.0
  0
LINE
  5
17979
330
17B6C
100
AcDbEntity
  8
YODOROGO
100
AcDbLine
 10
15361.80217064596
 20
845.8747482146444
 30
0.0
 11
15381.80217064596
 21
845.8747482146444
 31
0.0
  0
LINE
  5
1797A
330
17B6C
100
AcDbEntity
  8
YODOROGO
100
AcDbLine
 10
15381.80217064596
 20
845.8747482146444
 30
0.0
 11
15381.80217064596
 21
781.8747482146434
 31
0.0
  0
LINE
  5
1797B
330
17B6C
100
AcDbEntity
  8
YODOROGO
100
AcDbLine
 10
15381.80217064596
 20
781.8747482146434
 30
0.0
 11
15395.80217064596
 21
781.8747482146434
 31
0.0
  0
LINE
  5
1797C
330
17B6C
100
AcDbEntity
  8
YODOROGO
100
AcDbLine
 10
15395.80217064596
 20
781.8747482146434
 30
0.0
 11
15395.80217064596
 21
877.8747482146437
 31
0.0
  0
LINE
  5
1797D
330
17B6C
100
AcDbEntity
  8
YODOROGO
100
AcDbLine
 10
15395.80217064596
 20
877.8747482146437
 30
0.0
 11
15415.80217064596
 21
877.8747482146437
 31
0.0
  0
LINE
  5
1797E
330
17B6C
100
AcDbEntity
  8
YODOROGO
100
AcDbLine
 10
15449.80217064596
 20
909.8747482146439
 30
0.0
 11
15449.80217064596
 21
877.8747482146437
 31
0.0
  0
LINE
  5
1797F
330
17B6C
100
AcDbEntity
  8
YODOROGO
100
AcDbLine
 10
15449.80217064596
 20
877.8747482146437
 30
0.0
 11
15361.80217064596
 21
877.8747482146437
 31
0.0
  0
LINE
  5
17980
330
17B6C
100
AcDbEntity
  8
YODOROGO
100
AcDbLine
 10
15361.80217064596
 20
877.8747482146437
 30
0.0
 11
15361.80217064596
 21
909.8747482146439
 31
0.0
  0
LINE
  5
17981
330
17B6C
100
AcDbEntity
  8
YODOROGO
100
AcDbLine
 10
15361.80217064596
 20
909.8747482146439
 30
0.0
 11
15374.80217064596
 21
909.8747482146439
 31
0.0
  0
LINE
  5
17982
330
17B6C
100
AcDbEntity
  8
YODOROGO
100
AcDbLine
 10
15374.80217064596
 20
909.8747482146439
 30
0.0
 11
15361.80217064596
 21
969.8747482146441
 31
0.0
  0
LINE
  5
17983
330
17B6C
100
AcDbEntity
  8
YODOROGO
100
AcDbLine
 10
15361.80217064596
 20
969.8747482146441
 30
0.0
 11
15385.80217064596
 21
969.8747482146441
 31
0.0
  0
LINE
  5
17984
330
17B6C
100
AcDbEntity
  8
YODOROGO
100
AcDbLine
 10
15385.80217064596
 20
969.8747482146441
 30
0.0
 11
15398.80217064596
 21
909.8747482146439
 31
0.0
  0
LINE
  5
17985
330
17B6C
100
AcDbEntity
  8
YODOROGO
100
AcDbLine
 10
15398.80217064596
 20
909.8747482146439
 30
0.0
 11
15412.80217064596
 21
909.8747482146439
 31
0.0
  0
LINE
  5
17986
330
17B6C
100
AcDbEntity
  8
YODOROGO
100
AcDbLine
 10
15412.80217064596
 20
909.8747482146439
 30
0.0
 11
15425.80217064596
 21
969.8747482146441
 31
0.0
  0
LINE
  5
17987
330
17B6C
100
AcDbEntity
  8
YODOROGO
100
AcDbLine
 10
15425.80217064596
 20
969.8747482146441
 30
0.0
 11
15449.80217064596
 21
969.8747482146441
 31
0.0
  0
LINE
  5
17988
330
17B6C
100
AcDbEntity
  8
YODOROGO
100
AcDbLine
 10
15449.80217064596
 20
969.8747482146441
 30
0.0
 11
15436.80217064595
 21
909.8747482146439
 31
0.0
  0
LINE
  5
17989
330
17B6C
100
AcDbEntity
  8
YODOROGO
100
AcDbLine
 10
15436.80217064595
 20
909.8747482146439
 30
0.0
 11
15449.80217064596
 21
909.8747482146439
 31
0.0
  0
LINE
  5
1798A
330
17B6C
100
AcDbEntity
  8
YODOROGO
100
AcDbLine
 10
15108.80217064596
 20
1013.874748214644
 30
0.0
 11
15108.80217064596
 21
893.8747482146439
 31
0.0
  0
ARC
  5
1798B
330
17B6C
100
AcDbEntity
  8
YODOROGO
100
AcDbCircle
 10
15068.80217064596
 20
893.8747482146439
 30
0.0
 40
40.0
100
AcDbArc
 50
270.0
 51
0.0
  0
LINE
  5
1798C
330
17B6C
100
AcDbEntity
  8
YODOROGO
100
AcDbLine
 10
15068.80217064596
 20
853.8747482146439
 30
0.0
 11
15010.80217064596
 21
853.8747482146439
 31
0.0
  0
LINE
  5
1798D
330
17B6C
100
AcDbEntity
  8
YODOROGO
100
AcDbLine
 10
15010.80217064596
 20
853.8747482146439
 30
0.0
 11
15010.80217064596
 21
885.8747482146442
 31
0.0
  0
LINE
  5
1798E
330
17B6C
100
AcDbEntity
  8
YODOROGO
100
AcDbLine
 10
15010.80217064596
 20
885.8747482146442
 30
0.0
 11
15060.80217064596
 21
885.8747482146442
 31
0.0
  0
ARC
  5
1798F
330
17B6C
100
AcDbEntity
  8
YODOROGO
100
AcDbCircle
 10
15060.80217064596
 20
905.8747482146443
 30
0.0
 40
20.0
100
AcDbArc
 50
270.0
 51
0.0
  0
LINE
  5
17990
330
17B6C
100
AcDbEntity
  8
YODOROGO
100
AcDbLine
 10
15080.80217064596
 20
905.8747482146443
 30
0.0
 11
15080.80217064596
 21
1013.874748214644
 31
0.0
  0
LINE
  5
17991
330
17B6C
100
AcDbEntity
  8
YODOROGO
100
AcDbLine
 10
15080.80217064596
 20
1013.874748214644
 30
0.0
 11
15108.80217064596
 21
1013.874748214644
 31
0.0
  0
LINE
  5
17992
330
17B6C
100
AcDbEntity
  8
YODOROGO
100
AcDbLine
 10
14968.80217064596
 20
740.6696674577553
 30
0.0
 11
14968.80217064596
 21
797.2655452655707
 31
0.0
  0
ARC
  5
17993
330
17B6C
100
AcDbEntity
  8
YODOROGO
100
AcDbCircle
 10
15127.17387491395
 20
903.9323046166312
 30
0.0
 40
190.9434321028236
100
AcDbArc
 50
213.9611167766784
 51
264.4787207431779
  0
LINE
  5
17994
330
17B6C
100
AcDbEntity
  8
YODOROGO
100
AcDbLine
 10
15108.80217064596
 20
713.8747482146428
 30
0.0
 11
15108.80217064596
 21
773.8747482146439
 31
0.0
  0
ARC
  5
17995
330
17B6C
100
AcDbEntity
  8
YODOROGO
100
AcDbCircle
 10
15115.02941435022
 20
934.4428574765013
 30
0.0
 40
160.6888181426453
100
AcDbArc
 50
260.6062929797
 51
267.7790355655591
  0
LINE
  5
17996
330
17B6C
100
AcDbEntity
  8
YODOROGO
100
AcDbLine
 10
15088.80217064596
 20
775.9088612367134
 30
0.0
 11
15094.80217064596
 21
801.8747482146446
 31
0.0
  0
LINE
  5
17997
330
17B6C
100
AcDbEntity
  8
YODOROGO
100
AcDbLine
 10
15094.80217064596
 20
801.8747482146446
 30
0.0
 11
15052.80217064596
 21
801.8747482146446
 31
0.0
  0
LINE
  5
17998
330
17B6C
100
AcDbEntity
  8
YODOROGO
100
AcDbLine
 10
15052.80217064596
 20
801.8747482146446
 30
0.0
 11
15048.80217064598
 21
788.0364079349501
 31
0.0
  0
ARC
  5
17999
330
17B6C
100
AcDbEntity
  8
YODOROGO
100
AcDbCircle
 10
15115.02941435068
 20
934.4428574764542
 30
0.0
 40
160.6888181426165
100
AcDbArc
 50
228.6181454618999
 51
245.6602892489066
  0
LINE
  5
1799A
330
17B6C
100
AcDbEntity
  8
YODOROGO
100
AcDbLine
 10
15008.80217064596
 20
813.8747482146436
 30
0.0
 11
15108.80217064596
 21
813.8747482146436
 31
0.0
  0
LINE
  5
1799B
330
17B6C
100
AcDbEntity
  8
YODOROGO
100
AcDbLine
 10
15108.80217064596
 20
813.8747482146436
 30
0.0
 11
15108.80217064596
 21
833.8747482146439
 31
0.0
  0
LINE
  5
1799C
330
17B6C
100
AcDbEntity
  8
YODOROGO
100
AcDbLine
 10
15108.80217064596
 20
833.8747482146439
 30
0.0
 11
14974.80217064595
 21
833.8747482146439
 31
0.0
  0
LINE
  5
1799D
330
17B6C
100
AcDbEntity
  8
YODOROGO
100
AcDbLine
 10
14974.80217064595
 20
833.8747482146439
 30
0.0
 11
14974.80217064595
 21
853.8747482146439
 31
0.0
  0
LINE
  5
1799E
330
17B6C
100
AcDbEntity
  8
YODOROGO
100
AcDbLine
 10
14974.80217064595
 20
853.8747482146439
 30
0.0
 11
14942.80217064596
 21
853.8747482146439
 31
0.0
  0
LINE
  5
1799F
330
17B6C
100
AcDbEntity
  8
YODOROGO
100
AcDbLine
 10
14942.80217064596
 20
853.8747482146439
 30
0.0
 11
14942.80217064596
 21
833.8747482146439
 31
0.0
  0
LINE
  5
179A0
330
17B6C
100
AcDbEntity
  8
YODOROGO
100
AcDbLine
 10
14942.80217064596
 20
833.8747482146439
 30
0.0
 11
14808.80217064596
 21
833.8747482146439
 31
0.0
  0
LINE
  5
179A1
330
17B6C
100
AcDbEntity
  8
YODOROGO
100
AcDbLine
 10
14808.80217064596
 20
833.8747482146439
 30
0.0
 11
14808.80217064596
 21
813.8747482146436
 31
0.0
  0
LINE
  5
179A2
330
17B6C
100
AcDbEntity
  8
YODOROGO
100
AcDbLine
 10
14808.80217064596
 20
813.8747482146436
 30
0.0
 11
14856.47231434973
 21
813.8747482146436
 31
0.0
  0
LINE
  5
179A3
330
17B6C
100
AcDbEntity
  8
YODOROGO
100
AcDbLine
 10
14856.47231434973
 20
813.8747482146436
 30
0.0
 11
14808.80217064596
 21
773.8747482146439
 31
0.0
  0
LINE
  5
179A4
330
17B6C
100
AcDbEntity
  8
YODOROGO
100
AcDbLine
 10
14808.80217064596
 20
773.8747482146439
 30
0.0
 11
14808.80217064596
 21
713.8747482146436
 31
0.0
  0
LINE
  5
179A5
330
17B6C
100
AcDbEntity
  8
YODOROGO
100
AcDbLine
 10
14808.80217064596
 20
713.8747482146436
 30
0.0
 11
14868.80217064596
 21
764.2207260852821
 31
0.0
  0
LINE
  5
179A6
330
17B6C
100
AcDbEntity
  8
YODOROGO
100
AcDbLine
 10
14868.80217064596
 20
764.2207260852821
 30
0.0
 11
14868.80217064596
 21
713.8747482146436
 31
0.0
  0
LINE
  5
179A7
330
17B6C
100
AcDbEntity
  8
YODOROGO
100
AcDbLine
 10
14868.80217064596
 20
713.8747482146436
 30
0.0
 11
14968.80217064596
 21
740.6696674577553
 31
0.0
  0
LINE
  5
179A8
330
17B6C
100
AcDbEntity
  8
YODOROGO
100
AcDbLine
 10
14888.80217064596
 20
813.8747482146436
 30
0.0
 11
14888.80217064596
 21
781.0027187088283
 31
0.0
  0
LINE
  5
179A9
330
17B6C
100
AcDbEntity
  8
YODOROGO
100
AcDbLine
 10
14888.80217064596
 20
781.0027187088283
 30
0.0
 11
14885.70493649264
 21
778.403830673117
 31
0.0
  0
LINE
  5
179AA
330
17B6C
100
AcDbEntity
  8
YODOROGO
100
AcDbLine
 10
14885.70493649264
 20
778.403830673117
 30
0.0
 11
14966.89206625426
 21
800.1578565285436
 31
0.0
  0
ARC
  5
179AB
330
17B6C
100
AcDbEntity
  8
YODOROGO
100
AcDbCircle
 10
15127.17387491396
 20
903.9323046166183
 30
0.0
 40
190.9434321028238
100
AcDbArc
 50
208.1411442048576
 51
212.9210361185911
  0
LINE
  5
179AC
330
17B6C
100
AcDbEntity
  8
YODOROGO
100
AcDbLine
 10
14958.80217064596
 20
813.8747482146436
 30
0.0
 11
14888.80217064596
 21
813.8747482146436
 31
0.0
  0
LINE
  5
179AD
330
17B6C
100
AcDbEntity
  8
YODOROGO
100
AcDbLine
 10
14968.80217064596
 20
740.6696674577553
 30
0.0
 11
14968.80217064596
 21
797.2655452655707
 31
0.0
  0
ARC
  5
179AE
330
17B6C
100
AcDbEntity
  8
YODOROGO
100
AcDbCircle
 10
15127.17387491395
 20
903.9323046166312
 30
0.0
 40
190.9434321028236
100
AcDbArc
 50
213.9611167766784
 51
264.4787207431779
  0
LINE
  5
179AF
330
17B6C
100
AcDbEntity
  8
YODOROGO
100
AcDbLine
 10
15108.80217064596
 20
713.8747482146428
 30
0.0
 11
15108.80217064596
 21
773.8747482146439
 31
0.0
  0
ARC
  5
179B0
330
17B6C
100
AcDbEntity
  8
YODOROGO
100
AcDbCircle
 10
15115.02941435022
 20
934.4428574765013
 30
0.0
 40
160.6888181426453
100
AcDbArc
 50
260.6062929797
 51
267.7790355655591
  0
LINE
  5
179B1
330
17B6C
100
AcDbEntity
  8
YODOROGO
100
AcDbLine
 10
15088.80217064596
 20
775.9088612367134
 30
0.0
 11
15094.80217064596
 21
801.8747482146446
 31
0.0
  0
LINE
  5
179B2
330
17B6C
100
AcDbEntity
  8
YODOROGO
100
AcDbLine
 10
15094.80217064596
 20
801.8747482146446
 30
0.0
 11
15052.80217064596
 21
801.8747482146446
 31
0.0
  0
LINE
  5
179B3
330
17B6C
100
AcDbEntity
  8
YODOROGO
100
AcDbLine
 10
15052.80217064596
 20
801.8747482146446
 30
0.0
 11
15048.80217064598
 21
788.0364079349501
 31
0.0
  0
ARC
  5
179B4
330
17B6C
100
AcDbEntity
  8
YODOROGO
100
AcDbCircle
 10
15115.02941435068
 20
934.4428574764542
 30
0.0
 40
160.6888181426165
100
AcDbArc
 50
228.6181454618999
 51
245.6602892489066
  0
LINE
  5
179B5
330
17B6C
100
AcDbEntity
  8
YODOROGO
100
AcDbLine
 10
15008.80217064596
 20
813.8747482146436
 30
0.0
 11
15108.80217064596
 21
813.8747482146436
 31
0.0
  0
LINE
  5
179B6
330
17B6C
100
AcDbEntity
  8
YODOROGO
100
AcDbLine
 10
15108.80217064596
 20
813.8747482146436
 30
0.0
 11
15108.80217064596
 21
833.8747482146439
 31
0.0
  0
LINE
  5
179B7
330
17B6C
100
AcDbEntity
  8
YODOROGO
100
AcDbLine
 10
15108.80217064596
 20
833.8747482146439
 30
0.0
 11
14974.80217064595
 21
833.8747482146439
 31
0.0
  0
LINE
  5
179B8
330
17B6C
100
AcDbEntity
  8
YODOROGO
100
AcDbLine
 10
14974.80217064595
 20
833.8747482146439
 30
0.0
 11
14974.80217064595
 21
853.8747482146439
 31
0.0
  0
LINE
  5
179B9
330
17B6C
100
AcDbEntity
  8
YODOROGO
100
AcDbLine
 10
14974.80217064595
 20
853.8747482146439
 30
0.0
 11
14942.80217064596
 21
853.8747482146439
 31
0.0
  0
LINE
  5
179BA
330
17B6C
100
AcDbEntity
  8
YODOROGO
100
AcDbLine
 10
14942.80217064596
 20
853.8747482146439
 30
0.0
 11
14942.80217064596
 21
833.8747482146439
 31
0.0
  0
LINE
  5
179BB
330
17B6C
100
AcDbEntity
  8
YODOROGO
100
AcDbLine
 10
14942.80217064596
 20
833.8747482146439
 30
0.0
 11
14808.80217064596
 21
833.8747482146439
 31
0.0
  0
LINE
  5
179BC
330
17B6C
100
AcDbEntity
  8
YODOROGO
100
AcDbLine
 10
14808.80217064596
 20
833.8747482146439
 30
0.0
 11
14808.80217064596
 21
813.8747482146436
 31
0.0
  0
LINE
  5
179BD
330
17B6C
100
AcDbEntity
  8
YODOROGO
100
AcDbLine
 10
14808.80217064596
 20
813.8747482146436
 30
0.0
 11
14856.47231434973
 21
813.8747482146436
 31
0.0
  0
LINE
  5
179BE
330
17B6C
100
AcDbEntity
  8
YODOROGO
100
AcDbLine
 10
14856.47231434973
 20
813.8747482146436
 30
0.0
 11
14808.80217064596
 21
773.8747482146439
 31
0.0
  0
LINE
  5
179BF
330
17B6C
100
AcDbEntity
  8
YODOROGO
100
AcDbLine
 10
14808.80217064596
 20
773.8747482146439
 30
0.0
 11
14808.80217064596
 21
713.8747482146436
 31
0.0
  0
LINE
  5
179C0
330
17B6C
100
AcDbEntity
  8
YODOROGO
100
AcDbLine
 10
14808.80217064596
 20
713.8747482146436
 30
0.0
 11
14868.80217064596
 21
764.2207260852821
 31
0.0
  0
LINE
  5
179C1
330
17B6C
100
AcDbEntity
  8
YODOROGO
100
AcDbLine
 10
14868.80217064596
 20
764.2207260852821
 30
0.0
 11
14868.80217064596
 21
713.8747482146436
 31
0.0
  0
LINE
  5
179C2
330
17B6C
100
AcDbEntity
  8
YODOROGO
100
AcDbLine
 10
14868.80217064596
 20
713.8747482146436
 30
0.0
 11
14968.80217064596
 21
740.6696674577553
 31
0.0
  0
LINE
  5
179C3
330
17B6C
100
AcDbEntity
  8
YODOROGO
100
AcDbLine
 10
15010.80217064596
 20
1013.874748214644
 30
0.0
 11
15010.80217064596
 21
913.8747482146436
 31
0.0
  0
LINE
  5
179C4
330
17B6C
100
AcDbEntity
  8
YODOROGO
100
AcDbLine
 10
15010.80217064596
 20
913.8747482146436
 30
0.0
 11
15040.80217064596
 21
913.8747482146436
 31
0.0
  0
LINE
  5
179C5
330
17B6C
100
AcDbEntity
  8
YODOROGO
100
AcDbLine
 10
15040.80217064596
 20
913.8747482146436
 30
0.0
 11
15040.80217064596
 21
1013.874748214644
 31
0.0
  0
LINE
  5
179C6
330
17B6C
100
AcDbEntity
  8
YODOROGO
100
AcDbLine
 10
15040.80217064596
 20
1013.874748214644
 30
0.0
 11
15010.80217064596
 21
1013.874748214644
 31
0.0
  0
LINE
  5
179C7
330
17B6C
100
AcDbEntity
  8
YODOROGO
100
AcDbLine
 10
14836.80217064596
 20
885.8747482146442
 30
0.0
 11
14882.80217064596
 21
885.8747482146442
 31
0.0
1001
AUTOCAD_POSTSCRIPT_FIGURE
1002
{
1000
PSFILL
1000
Grayscale
1000
Grayscale
1070
    25
1002
}
  0
LINE
  5
179C8
330
17B6C
100
AcDbEntity
  8
YODOROGO
100
AcDbLine
 10
14882.80217064596
 20
885.8747482146442
 30
0.0
 11
14882.80217064596
 21
853.8747482146439
 31
0.0
1001
AUTOCAD_POSTSCRIPT_FIGURE
1002
{
1000
PSFILL
1000
Grayscale
1000
Grayscale
1070
    25
1002
}
  0
LINE
  5
179C9
330
17B6C
100
AcDbEntity
  8
YODOROGO
100
AcDbLine
 10
14882.80217064596
 20
853.8747482146439
 30
0.0
 11
14914.80217064596
 21
853.8747482146439
 31
0.0
1001
AUTOCAD_POSTSCRIPT_FIGURE
1002
{
1000
PSFILL
1000
Grayscale
1000
Grayscale
1070
    25
1002
}
  0
LINE
  5
179CA
330
17B6C
100
AcDbEntity
  8
YODOROGO
100
AcDbLine
 10
14914.80217064596
 20
853.8747482146439
 30
0.0
 11
14914.80217064596
 21
885.8747482146442
 31
0.0
1001
AUTOCAD_POSTSCRIPT_FIGURE
1002
{
1000
PSFILL
1000
Grayscale
1000
Grayscale
1070
    25
1002
}
  0
LINE
  5
179CB
330
17B6C
100
AcDbEntity
  8
YODOROGO
100
AcDbLine
 10
14914.80217064596
 20
885.8747482146442
 30
0.0
 11
14960.80217064594
 21
885.8747482146442
 31
0.0
1001
AUTOCAD_POSTSCRIPT_FIGURE
1002
{
1000
PSFILL
1000
Grayscale
1000
Grayscale
1070
    25
1002
}
  0
LINE
  5
179CC
330
17B6C
100
AcDbEntity
  8
YODOROGO
100
AcDbLine
 10
14960.80217064594
 20
885.8747482146442
 30
0.0
 11
14960.80217064594
 21
853.8747482146439
 31
0.0
1001
AUTOCAD_POSTSCRIPT_FIGURE
1002
{
1000
PSFILL
1000
Grayscale
1000
Grayscale
1070
    25
1002
}
  0
LINE
  5
179CD
330
17B6C
100
AcDbEntity
  8
YODOROGO
100
AcDbLine
 10
14960.80217064594
 20
853.8747482146439
 30
0.0
 11
14988.80217064596
 21
853.8747482146439
 31
0.0
1001
AUTOCAD_POSTSCRIPT_FIGURE
1002
{
1000
PSFILL
1000
Grayscale
1000
Grayscale
1070
    25
1002
}
  0
LINE
  5
179CE
330
17B6C
100
AcDbEntity
  8
YODOROGO
100
AcDbLine
 10
14988.80217064596
 20
853.8747482146439
 30
0.0
 11
14988.80217064596
 21
909.8747482146439
 31
0.0
1001
AUTOCAD_POSTSCRIPT_FIGURE
1002
{
1000
PSFILL
1000
Grayscale
1000
Grayscale
1070
    25
1002
}
  0
LINE
  5
179CF
330
17B6C
100
AcDbEntity
  8
YODOROGO
100
AcDbLine
 10
14988.80217064596
 20
909.8747482146439
 30
0.0
 11
14914.80217064596
 21
909.8747482146439
 31
0.0
1001
AUTOCAD_POSTSCRIPT_FIGURE
1002
{
1000
PSFILL
1000
Grayscale
1000
Grayscale
1070
    25
1002
}
  0
LINE
  5
179D0
330
17B6C
100
AcDbEntity
  8
YODOROGO
100
AcDbLine
 10
14914.80217064596
 20
909.8747482146439
 30
0.0
 11
14914.80217064596
 21
929.874748214644
 31
0.0
1001
AUTOCAD_POSTSCRIPT_FIGURE
1002
{
1000
PSFILL
1000
Grayscale
1000
Grayscale
1070
    25
1002
}
  0
LINE
  5
179D1
330
17B6C
100
AcDbEntity
  8
YODOROGO
100
AcDbLine
 10
14914.80217064596
 20
929.874748214644
 30
0.0
 11
14988.80217064596
 21
929.874748214644
 31
0.0
1001
AUTOCAD_POSTSCRIPT_FIGURE
1002
{
1000
PSFILL
1000
Grayscale
1000
Grayscale
1070
    25
1002
}
  0
LINE
  5
179D2
330
17B6C
100
AcDbEntity
  8
YODOROGO
100
AcDbLine
 10
14988.80217064596
 20
929.874748214644
 30
0.0
 11
14988.80217064596
 21
953.874748214644
 31
0.0
1001
AUTOCAD_POSTSCRIPT_FIGURE
1002
{
1000
PSFILL
1000
Grayscale
1000
Grayscale
1070
    25
1002
}
  0
LINE
  5
179D3
330
17B6C
100
AcDbEntity
  8
YODOROGO
100
AcDbLine
 10
14988.80217064596
 20
953.874748214644
 30
0.0
 11
14914.80217064596
 21
953.874748214644
 31
0.0
1001
AUTOCAD_POSTSCRIPT_FIGURE
1002
{
1000
PSFILL
1000
Grayscale
1000
Grayscale
1070
    25
1002
}
  0
LINE
  5
179D4
330
17B6C
100
AcDbEntity
  8
YODOROGO
100
AcDbLine
 10
14914.80217064596
 20
953.874748214644
 30
0.0
 11
14914.80217064596
 21
973.8747482146436
 31
0.0
1001
AUTOCAD_POSTSCRIPT_FIGURE
1002
{
1000
PSFILL
1000
Grayscale
1000
Grayscale
1070
    25
1002
}
  0
LINE
  5
179D5
330
17B6C
100
AcDbEntity
  8
YODOROGO
100
AcDbLine
 10
14914.80217064596
 20
973.8747482146436
 30
0.0
 11
14988.80217064596
 21
973.8747482146436
 31
0.0
1001
AUTOCAD_POSTSCRIPT_FIGURE
1002
{
1000
PSFILL
1000
Grayscale
1000
Grayscale
1070
    25
1002
}
  0
LINE
  5
179D6
330
17B6C
100
AcDbEntity
  8
YODOROGO
100
AcDbLine
 10
14988.80217064596
 20
973.8747482146436
 30
0.0
 11
14988.80217064596
 21
997.8747482146435
 31
0.0
1001
AUTOCAD_POSTSCRIPT_FIGURE
1002
{
1000
PSFILL
1000
Grayscale
1000
Grayscale
1070
    25
1002
}
  0
LINE
  5
179D7
330
17B6C
100
AcDbEntity
  8
YODOROGO
100
AcDbLine
 10
14988.80217064596
 20
997.8747482146435
 30
0.0
 11
14914.80217064596
 21
997.8747482146435
 31
0.0
1001
AUTOCAD_POSTSCRIPT_FIGURE
1002
{
1000
PSFILL
1000
Grayscale
1000
Grayscale
1070
    25
1002
}
  0
LINE
  5
179D8
330
17B6C
100
AcDbEntity
  8
YODOROGO
100
AcDbLine
 10
14914.80217064596
 20
997.8747482146435
 30
0.0
 11
14914.80217064596
 21
1013.874748214644
 31
0.0
1001
AUTOCAD_POSTSCRIPT_FIGURE
1002
{
1000
PSFILL
1000
Grayscale
1000
Grayscale
1070
    25
1002
}
  0
LINE
  5
179D9
330
17B6C
100
AcDbEntity
  8
YODOROGO
100
AcDbLine
 10
14914.80217064596
 20
1013.874748214644
 30
0.0
 11
14882.80217064596
 21
1013.874748214644
 31
0.0
1001
AUTOCAD_POSTSCRIPT_FIGURE
1002
{
1000
PSFILL
1000
Grayscale
1000
Grayscale
1070
    25
1002
}
  0
LINE
  5
179DA
330
17B6C
100
AcDbEntity
  8
YODOROGO
100
AcDbLine
 10
14882.80217064596
 20
1013.874748214644
 30
0.0
 11
14882.80217064596
 21
997.8747482146435
 31
0.0
1001
AUTOCAD_POSTSCRIPT_FIGURE
1002
{
1000
PSFILL
1000
Grayscale
1000
Grayscale
1070
    25
1002
}
  0
LINE
  5
179DB
330
17B6C
100
AcDbEntity
  8
YODOROGO
100
AcDbLine
 10
14882.80217064596
 20
997.8747482146435
 30
0.0
 11
14832.80217064596
 21
997.8747482146435
 31
0.0
1001
AUTOCAD_POSTSCRIPT_FIGURE
1002
{
1000
PSFILL
1000
Grayscale
1000
Grayscale
1070
    25
1002
}
  0
LINE
  5
179DC
330
17B6C
100
AcDbEntity
  8
YODOROGO
100
AcDbLine
 10
14832.80217064596
 20
997.8747482146435
 30
0.0
 11
14832.80217064596
 21
1013.874748214644
 31
0.0
1001
AUTOCAD_POSTSCRIPT_FIGURE
1002
{
1000
PSFILL
1000
Grayscale
1000
Grayscale
1070
    25
1002
}
  0
LINE
  5
179DD
330
17B6C
100
AcDbEntity
  8
YODOROGO
100
AcDbLine
 10
14832.80217064596
 20
1013.874748214644
 30
0.0
 11
14808.80217064596
 21
1013.874748214644
 31
0.0
1001
AUTOCAD_POSTSCRIPT_FIGURE
1002
{
1000
PSFILL
1000
Grayscale
1000
Grayscale
1070
    25
1002
}
  0
LINE
  5
179DE
330
17B6C
100
AcDbEntity
  8
YODOROGO
100
AcDbLine
 10
14808.80217064596
 20
1013.874748214644
 30
0.0
 11
14808.80217064596
 21
973.8747482146436
 31
0.0
1001
AUTOCAD_POSTSCRIPT_FIGURE
1002
{
1000
PSFILL
1000
Grayscale
1000
Grayscale
1070
    25
1002
}
  0
LINE
  5
179DF
330
17B6C
100
AcDbEntity
  8
YODOROGO
100
AcDbLine
 10
14808.80217064596
 20
973.8747482146436
 30
0.0
 11
14882.80217064596
 21
973.8747482146436
 31
0.0
1001
AUTOCAD_POSTSCRIPT_FIGURE
1002
{
1000
PSFILL
1000
Grayscale
1000
Grayscale
1070
    25
1002
}
  0
LINE
  5
179E0
330
17B6C
100
AcDbEntity
  8
YODOROGO
100
AcDbLine
 10
14882.80217064596
 20
973.8747482146436
 30
0.0
 11
14882.80217064596
 21
953.874748214644
 31
0.0
1001
AUTOCAD_POSTSCRIPT_FIGURE
1002
{
1000
PSFILL
1000
Grayscale
1000
Grayscale
1070
    25
1002
}
  0
LINE
  5
179E1
330
17B6C
100
AcDbEntity
  8
YODOROGO
100
AcDbLine
 10
14882.80217064596
 20
953.874748214644
 30
0.0
 11
14808.80217064596
 21
953.874748214644
 31
0.0
1001
AUTOCAD_POSTSCRIPT_FIGURE
1002
{
1000
PSFILL
1000
Grayscale
1000
Grayscale
1070
    25
1002
}
  0
LINE
  5
179E2
330
17B6C
100
AcDbEntity
  8
YODOROGO
100
AcDbLine
 10
14808.80217064596
 20
953.874748214644
 30
0.0
 11
14808.80217064596
 21
929.874748214644
 31
0.0
1001
AUTOCAD_POSTSCRIPT_FIGURE
1002
{
1000
PSFILL
1000
Grayscale
1000
Grayscale
1070
    25
1002
}
  0
LINE
  5
179E3
330
17B6C
100
AcDbEntity
  8
YODOROGO
100
AcDbLine
 10
14808.80217064596
 20
929.874748214644
 30
0.0
 11
14882.80217064596
 21
929.874748214644
 31
0.0
1001
AUTOCAD_POSTSCRIPT_FIGURE
1002
{
1000
PSFILL
1000
Grayscale
1000
Grayscale
1070
    25
1002
}
  0
LINE
  5
179E4
330
17B6C
100
AcDbEntity
  8
YODOROGO
100
AcDbLine
 10
14882.80217064596
 20
929.874748214644
 30
0.0
 11
14882.80217064596
 21
909.8747482146439
 31
0.0
1001
AUTOCAD_POSTSCRIPT_FIGURE
1002
{
1000
PSFILL
1000
Grayscale
1000
Grayscale
1070
    25
1002
}
  0
LINE
  5
179E5
330
17B6C
100
AcDbEntity
  8
YODOROGO
100
AcDbLine
 10
14882.80217064596
 20
909.8747482146439
 30
0.0
 11
14808.80217064596
 21
909.8747482146439
 31
0.0
1001
AUTOCAD_POSTSCRIPT_FIGURE
1002
{
1000
PSFILL
1000
Grayscale
1000
Grayscale
1070
    25
1002
}
  0
LINE
  5
179E6
330
17B6C
100
AcDbEntity
  8
YODOROGO
100
AcDbLine
 10
14808.80217064596
 20
909.8747482146439
 30
0.0
 11
14808.80217064596
 21
853.8747482146439
 31
0.0
1001
AUTOCAD_POSTSCRIPT_FIGURE
1002
{
1000
PSFILL
1000
Grayscale
1000
Grayscale
1070
    25
1002
}
  0
LINE
  5
179E7
330
17B6C
100
AcDbEntity
  8
YODOROGO
100
AcDbLine
 10
14808.80217064596
 20
853.8747482146439
 30
0.0
 11
14836.80217064596
 21
853.8747482146439
 31
0.0
1001
AUTOCAD_POSTSCRIPT_FIGURE
1002
{
1000
PSFILL
1000
Grayscale
1000
Grayscale
1070
    25
1002
}
  0
LINE
  5
179E8
330
17B6C
100
AcDbEntity
  8
YODOROGO
100
AcDbLine
 10
14836.80217064596
 20
853.8747482146439
 30
0.0
 11
14836.80217064596
 21
885.8747482146442
 31
0.0
1001
AUTOCAD_POSTSCRIPT_FIGURE
1002
{
1000
PSFILL
1000
Grayscale
1000
Grayscale
1070
    25
1002
}
  0
LINE
  5
179E9
330
17B6C
100
AcDbEntity
  8
YODOROGO
100
AcDbLine
 10
14728.80217064596
 20
713.8747482146436
 30
0.0
 11
14728.80217064596
 21
1013.874748214644
 31
0.0
  0
LINE
  5
179EA
330
17B6C
100
AcDbEntity
  8
YODOROGO
100
AcDbLine
 10
14728.80217064596
 20
1013.874748214644
 30
0.0
 11
14692.80217064595
 21
1013.874748214644
 31
0.0
  0
LINE
  5
179EB
330
17B6C
100
AcDbEntity
  8
YODOROGO
100
AcDbLine
 10
14692.80217064595
 20
1013.874748214644
 30
0.0
 11
14692.80217064595
 21
713.8747482146436
 31
0.0
  0
LINE
  5
179EC
330
17B6C
100
AcDbEntity
  8
YODOROGO
100
AcDbLine
 10
14692.80217064595
 20
713.8747482146436
 30
0.0
 11
14728.80217064596
 21
713.8747482146436
 31
0.0
  0
LINE
  5
179ED
330
17B6C
100
AcDbEntity
  8
YODOROGO
100
AcDbLine
 10
14630.80217064596
 20
1003.874748214644
 30
0.0
 11
14598.80217064596
 21
1003.874748214644
 31
0.0
  0
LINE
  5
179EE
330
17B6C
100
AcDbEntity
  8
YODOROGO
100
AcDbLine
 10
14598.80217064596
 20
1003.874748214644
 30
0.0
 11
14598.80217064596
 21
745.8747482146431
 31
0.0
  0
LINE
  5
179EF
330
17B6C
100
AcDbEntity
  8
YODOROGO
100
AcDbLine
 10
14598.80217064596
 20
745.8747482146431
 30
0.0
 11
14630.80217064596
 21
745.8747482146431
 31
0.0
  0
LINE
  5
179F0
330
17B6C
100
AcDbEntity
  8
YODOROGO
100
AcDbLine
 10
14630.80217064596
 20
745.8747482146431
 30
0.0
 11
14630.80217064596
 21
1003.874748214644
 31
0.0
  0
ARC
  5
179F1
330
17B6C
100
AcDbEntity
  8
YODOROGO
100
AcDbCircle
 10
14454.59308535991
 20
796.3053643052199
 30
0.0
 40
82.46021178042751
100
AcDbArc
 50
271.5351210653781
 51
355.5272775058505
  0
LINE
  5
179F2
330
17B6C
100
AcDbEntity
  8
YODOROGO
100
AcDbLine
 10
14536.80217064596
 20
789.8747482146441
 30
0.0
 11
14536.80217064596
 21
1013.874748214644
 31
0.0
  0
LINE
  5
179F3
330
17B6C
100
AcDbEntity
  8
YODOROGO
100
AcDbLine
 10
14536.80217064596
 20
1013.874748214644
 30
0.0
 11
14500.80217064595
 21
1013.874748214644
 31
0.0
  0
LINE
  5
179F4
330
17B6C
100
AcDbEntity
  8
YODOROGO
100
AcDbLine
 10
14500.80217064595
 20
1013.874748214644
 30
0.0
 11
14500.80217064595
 21
809.8747482146441
 31
0.0
  0
ARC
  5
179F5
330
17B6C
100
AcDbEntity
  8
YODOROGO
100
AcDbCircle
 10
14453.45578809341
 20
809.1089322211374
 30
0.0
 40
47.35257558937171
100
AcDbArc
 50
274.05244162907
 51
0.9266642149298844
  0
LINE
  5
179F6
330
17B6C
100
AcDbEntity
  8
YODOROGO
100
AcDbLine
 10
14456.80217064596
 20
761.8747482146434
 30
0.0
 11
14456.80217064596
 21
713.8747482146436
 31
0.0
  0
LINE
  5
179F7
330
17B6C
100
AcDbEntity
  8
YODOROGO
100
AcDbLine
 10
14216.80217064595
 20
933.8747482146439
 30
0.0
 11
14216.80217064595
 21
993.8747482146439
 31
0.0
  0
LINE
  5
179F8
330
17B6C
100
AcDbEntity
  8
YODOROGO
100
AcDbLine
 10
14216.80217064595
 20
993.8747482146439
 30
0.0
 11
14292.80217064595
 21
993.8747482146439
 31
0.0
  0
LINE
  5
179F9
330
17B6C
100
AcDbEntity
  8
YODOROGO
100
AcDbLine
 10
14292.80217064595
 20
993.8747482146439
 30
0.0
 11
14292.80217064595
 21
1013.874748214644
 31
0.0
  0
LINE
  5
179FA
330
17B6C
100
AcDbEntity
  8
YODOROGO
100
AcDbLine
 10
14292.80217064595
 20
1013.874748214644
 30
0.0
 11
14328.80217064596
 21
1013.874748214644
 31
0.0
  0
LINE
  5
179FB
330
17B6C
100
AcDbEntity
  8
YODOROGO
100
AcDbLine
 10
14328.80217064596
 20
1013.874748214644
 30
0.0
 11
14328.80217064596
 21
993.8747482146439
 31
0.0
  0
LINE
  5
179FC
330
17B6C
100
AcDbEntity
  8
YODOROGO
100
AcDbLine
 10
14328.80217064596
 20
993.8747482146439
 30
0.0
 11
14376.80217064595
 21
993.8747482146439
 31
0.0
  0
ARC
  5
179FD
330
17B6C
100
AcDbEntity
  8
YODOROGO
100
AcDbCircle
 10
14376.80217064595
 20
973.8747482146436
 30
0.0
 40
20.0
100
AcDbArc
 50
0.0
 51
90.0
  0
LINE
  5
179FE
330
17B6C
100
AcDbEntity
  8
YODOROGO
100
AcDbLine
 10
14396.80217064594
 20
973.8747482146436
 30
0.0
 11
14396.80217064594
 21
933.8747482146439
 31
0.0
  0
LINE
  5
179FF
330
17B6C
100
AcDbEntity
  8
YODOROGO
100
AcDbLine
 10
14396.80217064594
 20
933.8747482146439
 30
0.0
 11
14364.80217064596
 21
933.8747482146439
 31
0.0
  0
LINE
  5
17A00
330
17B6C
100
AcDbEntity
  8
YODOROGO
100
AcDbLine
 10
14364.80217064596
 20
933.8747482146439
 30
0.0
 11
14364.80217064596
 21
961.8747482146432
 31
0.0
  0
LINE
  5
17A01
330
17B6C
100
AcDbEntity
  8
YODOROGO
100
AcDbLine
 10
14364.80217064596
 20
961.8747482146432
 30
0.0
 11
14248.80217064595
 21
961.8747482146432
 31
0.0
  0
LINE
  5
17A02
330
17B6C
100
AcDbEntity
  8
YODOROGO
100
AcDbLine
 10
14248.80217064595
 20
961.8747482146432
 30
0.0
 11
14248.80217064595
 21
933.8747482146439
 31
0.0
  0
LINE
  5
17A03
330
17B6C
100
AcDbEntity
  8
YODOROGO
100
AcDbLine
 10
14248.80217064595
 20
933.8747482146439
 30
0.0
 11
14216.80217064595
 21
933.8747482146439
 31
0.0
  0
LINE
  5
17A04
330
17B6C
100
AcDbEntity
  8
YODOROGO
100
AcDbLine
 10
14128.80217064596
 20
1013.874748214644
 30
0.0
 11
14128.80217064596
 21
979.874748214644
 31
0.0
1001
AUTOCAD_POSTSCRIPT_FIGURE
1002
{
1000
PSFILL
1000
Grayscale
1000
Grayscale
1070
   100
1002
}
  0
LINE
  5
17A05
330
17B6C
100
AcDbEntity
  8
YODOROGO
100
AcDbLine
 10
14128.80217064596
 20
979.874748214644
 30
0.0
 11
14200.80217064595
 21
958.4388128201537
 31
0.0
1001
AUTOCAD_POSTSCRIPT_FIGURE
1002
{
1000
PSFILL
1000
Grayscale
1000
Grayscale
1070
   100
1002
}
  0
LINE
  5
17A06
330
17B6C
100
AcDbEntity
  8
YODOROGO
100
AcDbLine
 10
14200.80217064595
 20
958.4388128201537
 30
0.0
 11
14200.80217064595
 21
992.4388128201531
 31
0.0
1001
AUTOCAD_POSTSCRIPT_FIGURE
1002
{
1000
PSFILL
1000
Grayscale
1000
Grayscale
1070
   100
1002
}
  0
LINE
  5
17A07
330
17B6C
100
AcDbEntity
  8
YODOROGO
100
AcDbLine
 10
14200.80217064595
 20
992.4388128201531
 30
0.0
 11
14128.80217064596
 21
1013.874748214644
 31
0.0
1001
AUTOCAD_POSTSCRIPT_FIGURE
1002
{
1000
PSFILL
1000
Grayscale
1000
Grayscale
1070
   100
1002
}
  0
LINE
  5
17A08
330
17B6C
100
AcDbEntity
  8
YODOROGO
100
AcDbLine
 10
14200.80217064595
 20
912.4388128201532
 30
0.0
 11
14200.80217064595
 21
876.4388128201531
 31
0.0
1001
AUTOCAD_POSTSCRIPT_FIGURE
1002
{
1000
PSFILL
1000
Grayscale
1000
Grayscale
1070
   100
1002
}
  0
LINE
  5
17A09
330
17B6C
100
AcDbEntity
  8
YODOROGO
100
AcDbLine
 10
14200.80217064595
 20
876.4388128201531
 30
0.0
 11
14128.80217064596
 21
897.8747482146435
 31
0.0
1001
AUTOCAD_POSTSCRIPT_FIGURE
1002
{
1000
PSFILL
1000
Grayscale
1000
Grayscale
1070
   100
1002
}
  0
LINE
  5
17A0A
330
17B6C
100
AcDbEntity
  8
YODOROGO
100
AcDbLine
 10
14128.80217064596
 20
897.8747482146435
 30
0.0
 11
14128.80217064596
 21
933.8747482146439
 31
0.0
1001
AUTOCAD_POSTSCRIPT_FIGURE
1002
{
1000
PSFILL
1000
Grayscale
1000
Grayscale
1070
   100
1002
}
  0
LINE
  5
17A0B
330
17B6C
100
AcDbEntity
  8
YODOROGO
100
AcDbLine
 10
14128.80217064596
 20
933.8747482146439
 30
0.0
 11
14200.80217064595
 21
912.4388128201532
 31
0.0
1001
AUTOCAD_POSTSCRIPT_FIGURE
1002
{
1000
PSFILL
1000
Grayscale
1000
Grayscale
1070
   100
1002
}
  0
LINE
  5
17A0C
330
17B6C
100
AcDbEntity
  8
YODOROGO
100
AcDbLine
 10
14172.80217064596
 20
833.8747482146439
 30
0.0
 11
14172.80217064596
 21
805.8747482146443
 31
0.0
  0
ARC
  5
17A0D
330
17B6C
100
AcDbEntity
  8
YODOROGO
100
AcDbCircle
 10
14117.87801537965
 20
816.7989034809528
 30
0.0
 40
56.00000000000107
100
AcDbArc
 50
281.2490582504164
 51
348.7509417495829
  0
LINE
  5
17A0E
330
17B6C
100
AcDbEntity
  8
YODOROGO
100
AcDbLine
 10
14128.80217064596
 20
761.8747482146434
 30
0.0
 11
14128.80217064596
 21
713.8747482146436
 31
0.0
  0
ARC
  5
17A0F
330
17B6C
100
AcDbEntity
  8
YODOROGO
100
AcDbCircle
 10
14112.97022107349
 20
800.438882662663
 30
0.0
 40
87.99999999999977
100
AcDbArc
 50
280.3644312771306
 51
3.541483659218113
  0
LINE
  5
17A10
330
17B6C
100
AcDbEntity
  8
YODOROGO
100
AcDbLine
 10
14200.80217064595
 20
805.8747482146443
 30
0.0
 11
14200.80217064595
 21
833.8747482146439
 31
0.0
  0
LINE
  5
17A11
330
17B6C
100
AcDbEntity
  8
YODOROGO
100
AcDbLine
 10
14200.80217064595
 20
833.8747482146439
 30
0.0
 11
14172.80217064596
 21
833.8747482146439
 31
0.0
  0
LINE
  5
17A12
330
17B6C
100
AcDbEntity
  8
YODOROGO
100
AcDbLine
 10
14216.80217064595
 20
873.8747482146449
 30
0.0
 11
14292.80217064595
 21
873.8747482146449
 31
0.0
  0
LINE
  5
17A13
330
17B6C
100
AcDbEntity
  8
YODOROGO
100
AcDbLine
 10
14292.80217064595
 20
873.8747482146449
 30
0.0
 11
14292.80217064596
 21
773.8747482146439
 31
0.0
  0
ARC
  5
17A14
330
17B6C
100
AcDbEntity
  8
YODOROGO
100
AcDbCircle
 10
14280.80217064596
 20
773.8747482146444
 30
0.0
 40
12.00000000000182
100
AcDbArc
 50
270.0
 51
359.9999999999968
  0
LINE
  5
17A15
330
17B6C
100
AcDbEntity
  8
YODOROGO
100
AcDbLine
 10
14280.80217064596
 20
761.8747482146434
 30
0.0
 11
14268.80217064595
 21
761.8747482146434
 31
0.0
  0
ARC
  5
17A16
330
17B6C
100
AcDbEntity
  8
YODOROGO
100
AcDbCircle
 10
14268.80217064595
 20
781.8747482146434
 30
0.0
 40
20.0
100
AcDbArc
 50
180.0
 51
270.0
  0
LINE
  5
17A17
330
17B6C
100
AcDbEntity
  8
YODOROGO
100
AcDbLine
 10
14248.80217064595
 20
781.8747482146434
 30
0.0
 11
14248.80217064595
 21
853.8747482146439
 31
0.0
  0
LINE
  5
17A18
330
17B6C
100
AcDbEntity
  8
YODOROGO
100
AcDbLine
 10
14248.80217064595
 20
853.8747482146439
 30
0.0
 11
14216.80217064595
 21
853.8747482146439
 31
0.0
  0
LINE
  5
17A19
330
17B6C
100
AcDbEntity
  8
YODOROGO
100
AcDbLine
 10
14216.80217064595
 20
853.8747482146439
 30
0.0
 11
14216.80217064595
 21
753.8747482146439
 31
0.0
  0
ARC
  5
17A1A
330
17B6C
100
AcDbEntity
  8
YODOROGO
100
AcDbCircle
 10
14256.80217064595
 20
753.8747482146439
 30
0.0
 40
40.0
100
AcDbArc
 50
180.0
 51
270.0
  0
LINE
  5
17A1B
330
17B6C
100
AcDbEntity
  8
YODOROGO
100
AcDbLine
 10
14256.80217064595
 20
713.8747482146436
 30
0.0
 11
14396.80217064594
 21
713.8747482146436
 31
0.0
  0
LINE
  5
17A1C
330
17B6C
100
AcDbEntity
  8
YODOROGO
100
AcDbLine
 10
14396.80217064594
 20
713.8747482146436
 30
0.0
 11
14396.80217064594
 21
761.8747482146434
 31
0.0
  0
LINE
  5
17A1D
330
17B6C
100
AcDbEntity
  8
YODOROGO
100
AcDbLine
 10
14396.80217064594
 20
761.8747482146434
 30
0.0
 11
14328.80217064595
 21
761.8747482146434
 31
0.0
  0
LINE
  5
17A1E
330
17B6C
100
AcDbEntity
  8
YODOROGO
100
AcDbLine
 10
14328.80217064595
 20
761.8747482146434
 30
0.0
 11
14328.80217064595
 21
801.8747482146446
 31
0.0
  0
LINE
  5
17A1F
330
17B6C
100
AcDbEntity
  8
YODOROGO
100
AcDbLine
 10
14328.80217064595
 20
801.8747482146446
 30
0.0
 11
14396.80217064594
 21
801.8747482146446
 31
0.0
  0
LINE
  5
17A20
330
17B6C
100
AcDbEntity
  8
YODOROGO
100
AcDbLine
 10
14396.80217064594
 20
801.8747482146446
 30
0.0
 11
14396.80217064594
 21
833.8747482146439
 31
0.0
  0
LINE
  5
17A21
330
17B6C
100
AcDbEntity
  8
YODOROGO
100
AcDbLine
 10
14396.80217064594
 20
833.8747482146439
 30
0.0
 11
14328.80217064595
 21
833.8747482146439
 31
0.0
  0
LINE
  5
17A22
330
17B6C
100
AcDbEntity
  8
YODOROGO
100
AcDbLine
 10
14328.80217064595
 20
833.8747482146439
 30
0.0
 11
14328.80217064595
 21
873.8747482146449
 31
0.0
  0
LINE
  5
17A23
330
17B6C
100
AcDbEntity
  8
YODOROGO
100
AcDbLine
 10
14328.80217064595
 20
873.8747482146449
 30
0.0
 11
14396.80217064594
 21
873.8747482146449
 31
0.0
  0
LINE
  5
17A24
330
17B6C
100
AcDbEntity
  8
YODOROGO
100
AcDbLine
 10
14396.80217064594
 20
873.8747482146449
 30
0.0
 11
14396.80217064594
 21
909.8747482146439
 31
0.0
  0
LINE
  5
17A25
330
17B6C
100
AcDbEntity
  8
YODOROGO
100
AcDbLine
 10
14396.80217064594
 20
909.8747482146439
 30
0.0
 11
14216.80217064595
 21
909.8747482146439
 31
0.0
  0
LINE
  5
17A26
330
17B6C
100
AcDbEntity
  8
YODOROGO
100
AcDbLine
 10
14216.80217064595
 20
909.8747482146439
 30
0.0
 11
14216.80217064595
 21
873.8747482146449
 31
0.0
  0
LINE
  5
17A27
330
17B6C
100
AcDbEntity
  8
YODOROGO
100
AcDbLine
 10
15196.80217064596
 20
792.8747482146435
 30
0.0
 11
15196.80217064596
 21
794.8747482146441
 31
0.0
  0
LINE
  5
17A28
330
17B6C
100
AcDbEntity
  8
YODOROGO
100
AcDbLine
 10
15196.80217064596
 20
794.8747482146441
 30
0.0
 11
15210.80217064596
 21
794.8747482146441
 31
0.0
  0
LINE
  5
17A29
330
17B6C
100
AcDbEntity
  8
YODOROGO
100
AcDbLine
 10
15210.80217064596
 20
794.8747482146441
 30
0.0
 11
15210.80217064596
 21
792.8747482146435
 31
0.0
  0
LINE
  5
17A2A
330
17B6C
100
AcDbEntity
  8
YODOROGO
100
AcDbLine
 10
15210.80217064596
 20
792.8747482146435
 30
0.0
 11
15196.80217064596
 21
792.8747482146435
 31
0.0
  0
LINE
  5
17A2B
330
17B6C
100
AcDbEntity
  8
YODOROGO
100
AcDbLine
 10
15194.80217064596
 20
790.8747482146432
 30
0.0
 11
15194.80217064596
 21
796.8747482146445
 31
0.0
  0
LINE
  5
17A2C
330
17B6C
100
AcDbEntity
  8
YODOROGO
100
AcDbLine
 10
15194.80217064596
 20
796.8747482146445
 30
0.0
 11
15212.80217064596
 21
796.8747482146445
 31
0.0
  0
LINE
  5
17A2D
330
17B6C
100
AcDbEntity
  8
YODOROGO
100
AcDbLine
 10
15212.80217064596
 20
796.8747482146445
 30
0.0
 11
15212.80217064596
 21
790.8747482146432
 31
0.0
  0
LINE
  5
17A2E
330
17B6C
100
AcDbEntity
  8
YODOROGO
100
AcDbLine
 10
15212.80217064596
 20
790.8747482146432
 30
0.0
 11
15194.80217064596
 21
790.8747482146432
 31
0.0
  0
LINE
  5
17A2F
330
17B6C
100
AcDbEntity
  8
YODOROGO
100
AcDbLine
 10
15192.80217064595
 20
788.8747482146436
 30
0.0
 11
15192.80217064595
 21
798.8747482146439
 31
0.0
  0
LINE
  5
17A30
330
17B6C
100
AcDbEntity
  8
YODOROGO
100
AcDbLine
 10
15192.80217064595
 20
798.8747482146439
 30
0.0
 11
15214.80217064596
 21
798.8747482146439
 31
0.0
  0
LINE
  5
17A31
330
17B6C
100
AcDbEntity
  8
YODOROGO
100
AcDbLine
 10
15214.80217064596
 20
798.8747482146439
 30
0.0
 11
15214.80217064596
 21
788.8747482146436
 31
0.0
  0
LINE
  5
17A32
330
17B6C
100
AcDbEntity
  8
YODOROGO
100
AcDbLine
 10
15214.80217064596
 20
788.8747482146436
 30
0.0
 11
15192.80217064595
 21
788.8747482146436
 31
0.0
  0
LINE
  5
17A33
330
17B6C
100
AcDbEntity
  8
YODOROGO
100
AcDbLine
 10
13988.80217064596
 20
873.8747482146436
 30
0.0
 11
13988.80217064596
 21
885.8747482146432
 31
0.0
  0
LINE
  5
17A34
330
17B6C
100
AcDbEntity
  8
YODOROGO
100
AcDbLine
 10
13988.80217064596
 20
885.8747482146432
 30
0.0
 11
14010.91839030643
 21
892.3366697971587
 31
0.0
  0
LINE
  5
17A35
330
17B6C
100
AcDbEntity
  8
YODOROGO
100
AcDbLine
 10
14010.91839030643
 20
892.3366697971587
 30
0.0
 11
14010.91839030643
 21
936.2841744681499
 31
0.0
  0
LINE
  5
17A36
330
17B6C
100
AcDbEntity
  8
YODOROGO
100
AcDbLine
 10
14010.91839030643
 20
936.2841744681499
 30
0.0
 11
13988.80217064596
 21
936.2841744681499
 31
0.0
  0
LINE
  5
17A37
330
17B6C
100
AcDbEntity
  8
YODOROGO
100
AcDbLine
 10
13988.80217064596
 20
936.2841744681499
 30
0.0
 11
13988.80217064596
 21
946.2841744681487
 31
0.0
  0
LINE
  5
17A38
330
17B6C
100
AcDbEntity
  8
YODOROGO
100
AcDbLine
 10
13988.80217064596
 20
946.2841744681487
 30
0.0
 11
14039.03460996689
 21
946.2841744681487
 31
0.0
  0
LINE
  5
17A39
330
17B6C
100
AcDbEntity
  8
YODOROGO
100
AcDbLine
 10
14039.03460996689
 20
946.2841744681487
 30
0.0
 11
14039.03460996689
 21
936.2841744681499
 31
0.0
  0
LINE
  5
17A3A
330
17B6C
100
AcDbEntity
  8
YODOROGO
100
AcDbLine
 10
14039.03460996689
 20
936.2841744681499
 30
0.0
 11
14016.91839030643
 21
936.2841744681499
 31
0.0
  0
LINE
  5
17A3B
330
17B6C
100
AcDbEntity
  8
YODOROGO
100
AcDbLine
 10
14016.91839030643
 20
936.2841744681499
 30
0.0
 11
14016.91839030643
 21
893.4084665668834
 31
0.0
  0
LINE
  5
17A3C
330
17B6C
100
AcDbEntity
  8
YODOROGO
100
AcDbLine
 10
14016.91839030643
 20
893.4084665668834
 30
0.0
 11
14039.03460996689
 21
899.3344897645366
 31
0.0
  0
LINE
  5
17A3D
330
17B6C
100
AcDbEntity
  8
YODOROGO
100
AcDbLine
 10
14039.03460996689
 20
899.3344897645366
 30
0.0
 11
14039.03460996688
 21
887.8703881493972
 31
0.0
  0
LINE
  5
17A3E
330
17B6C
100
AcDbEntity
  8
YODOROGO
100
AcDbLine
 10
14039.03460996688
 20
887.8703881493972
 30
0.0
 11
13988.80217064596
 21
873.8747482146436
 31
0.0
  0
LINE
  5
17A3F
330
17B6C
100
AcDbEntity
  8
YODOROGO
100
AcDbLine
 10
14041.06776011546
 20
827.751818637328
 30
0.0
 11
14041.06776011546
 21
853.8747482146439
 31
0.0
1001
AUTOCAD_POSTSCRIPT_FIGURE
1002
{
1000
PSFILL
1000
Grayscale
1000
Grayscale
1070
   100
1002
}
  0
LINE
  5
17A40
330
17B6C
100
AcDbEntity
  8
YODOROGO
100
AcDbLine
 10
14041.06776011546
 20
853.8747482146439
 30
0.0
 11
14049.06776011545
 21
853.8747482146439
 31
0.0
1001
AUTOCAD_POSTSCRIPT_FIGURE
1002
{
1000
PSFILL
1000
Grayscale
1000
Grayscale
1070
   100
1002
}
  0
LINE
  5
17A41
330
17B6C
100
AcDbEntity
  8
YODOROGO
100
AcDbLine
 10
14049.06776011545
 20
853.8747482146439
 30
0.0
 11
14049.06776011545
 21
827.751818637328
 31
0.0
1001
AUTOCAD_POSTSCRIPT_FIGURE
1002
{
1000
PSFILL
1000
Grayscale
1000
Grayscale
1070
   100
1002
}
  0
LINE
  5
17A42
330
17B6C
100
AcDbEntity
  8
YODOROGO
100
AcDbLine
 10
14049.06776011545
 20
827.751818637328
 30
0.0
 11
14068.80217064596
 21
827.751818637328
 31
0.0
1001
AUTOCAD_POSTSCRIPT_FIGURE
1002
{
1000
PSFILL
1000
Grayscale
1000
Grayscale
1070
   100
1002
}
  0
LINE
  5
17A43
330
17B6C
100
AcDbEntity
  8
YODOROGO
100
AcDbLine
 10
14068.80217064596
 20
827.751818637328
 30
0.0
 11
14068.80217064596
 21
815.7518186373286
 31
0.0
1001
AUTOCAD_POSTSCRIPT_FIGURE
1002
{
1000
PSFILL
1000
Grayscale
1000
Grayscale
1070
   100
1002
}
  0
LINE
  5
17A44
330
17B6C
100
AcDbEntity
  8
YODOROGO
100
AcDbLine
 10
14068.80217064596
 20
815.7518186373286
 30
0.0
 11
14049.06776011545
 21
815.7518186373286
 31
0.0
1001
AUTOCAD_POSTSCRIPT_FIGURE
1002
{
1000
PSFILL
1000
Grayscale
1000
Grayscale
1070
   100
1002
}
  0
LINE
  5
17A45
330
17B6C
100
AcDbEntity
  8
YODOROGO
100
AcDbLine
 10
14049.06776011545
 20
815.7518186373286
 30
0.0
 11
14049.06776011545
 21
749.8747482146441
 31
0.0
1001
AUTOCAD_POSTSCRIPT_FIGURE
1002
{
1000
PSFILL
1000
Grayscale
1000
Grayscale
1070
   100
1002
}
  0
LINE
  5
17A46
330
17B6C
100
AcDbEntity
  8
YODOROGO
100
AcDbLine
 10
14049.06776011545
 20
749.8747482146441
 30
0.0
 11
14068.80217064596
 21
749.8747482146441
 31
0.0
1001
AUTOCAD_POSTSCRIPT_FIGURE
1002
{
1000
PSFILL
1000
Grayscale
1000
Grayscale
1070
   100
1002
}
  0
LINE
  5
17A47
330
17B6C
100
AcDbEntity
  8
YODOROGO
100
AcDbLine
 10
14068.80217064596
 20
749.8747482146441
 30
0.0
 11
14068.80217064596
 21
737.8747482146437
 31
0.0
1001
AUTOCAD_POSTSCRIPT_FIGURE
1002
{
1000
PSFILL
1000
Grayscale
1000
Grayscale
1070
   100
1002
}
  0
LINE
  5
17A48
330
17B6C
100
AcDbEntity
  8
YODOROGO
100
AcDbLine
 10
14068.80217064596
 20
737.8747482146437
 30
0.0
 11
14025.06776011545
 21
737.8747482146437
 31
0.0
1001
AUTOCAD_POSTSCRIPT_FIGURE
1002
{
1000
PSFILL
1000
Grayscale
1000
Grayscale
1070
   100
1002
}
  0
LINE
  5
17A49
330
17B6C
100
AcDbEntity
  8
YODOROGO
100
AcDbLine
 10
14025.06776011545
 20
737.8747482146437
 30
0.0
 11
14025.06776011545
 21
749.8747482146441
 31
0.0
1001
AUTOCAD_POSTSCRIPT_FIGURE
1002
{
1000
PSFILL
1000
Grayscale
1000
Grayscale
1070
   100
1002
}
  0
LINE
  5
17A4A
330
17B6C
100
AcDbEntity
  8
YODOROGO
100
AcDbLine
 10
14025.06776011545
 20
749.8747482146441
 30
0.0
 11
14041.06776011546
 21
749.8747482146441
 31
0.0
1001
AUTOCAD_POSTSCRIPT_FIGURE
1002
{
1000
PSFILL
1000
Grayscale
1000
Grayscale
1070
   100
1002
}
  0
LINE
  5
17A4B
330
17B6C
100
AcDbEntity
  8
YODOROGO
100
AcDbLine
 10
14041.06776011546
 20
749.8747482146441
 30
0.0
 11
14041.06776011546
 21
815.7518186373286
 31
0.0
1001
AUTOCAD_POSTSCRIPT_FIGURE
1002
{
1000
PSFILL
1000
Grayscale
1000
Grayscale
1070
   100
1002
}
  0
LINE
  5
17A4C
330
17B6C
100
AcDbEntity
  8
YODOROGO
100
AcDbLine
 10
14041.06776011546
 20
815.7518186373286
 30
0.0
 11
14025.06776011545
 21
815.7518186373286
 31
0.0
1001
AUTOCAD_POSTSCRIPT_FIGURE
1002
{
1000
PSFILL
1000
Grayscale
1000
Grayscale
1070
   100
1002
}
  0
LINE
  5
17A4D
330
17B6C
100
AcDbEntity
  8
YODOROGO
100
AcDbLine
 10
14025.06776011545
 20
815.7518186373286
 30
0.0
 11
14025.06776011545
 21
827.751818637328
 31
0.0
1001
AUTOCAD_POSTSCRIPT_FIGURE
1002
{
1000
PSFILL
1000
Grayscale
1000
Grayscale
1070
   100
1002
}
  0
LINE
  5
17A4E
330
17B6C
100
AcDbEntity
  8
YODOROGO
100
AcDbLine
 10
14025.06776011545
 20
827.751818637328
 30
0.0
 11
14041.06776011546
 21
827.751818637328
 31
0.0
1001
AUTOCAD_POSTSCRIPT_FIGURE
1002
{
1000
PSFILL
1000
Grayscale
1000
Grayscale
1070
   100
1002
}
  0
LINE
  5
17A4F
330
17B6C
100
AcDbEntity
  8
YODOROGO
100
AcDbLine
 10
14000.80217064594
 20
841.8747482146434
 30
0.0
 11
13988.80217064596
 21
841.8747482146434
 31
0.0
  0
LINE
  5
17A50
330
17B6C
100
AcDbEntity
  8
YODOROGO
100
AcDbLine
 10
13988.80217064596
 20
841.8747482146434
 30
0.0
 11
13988.80217064596
 21
833.8747482146427
 31
0.0
  0
LINE
  5
17A51
330
17B6C
100
AcDbEntity
  8
YODOROGO
100
AcDbLine
 10
13988.80217064596
 20
833.8747482146427
 30
0.0
 11
14012.91438714567
 21
833.8747482146427
 31
0.0
  0
LINE
  5
17A52
330
17B6C
100
AcDbEntity
  8
YODOROGO
100
AcDbLine
 10
14012.91438714567
 20
833.8747482146427
 30
0.0
 11
13988.80217064596
 21
778.3840395167149
 31
0.0
  0
LINE
  5
17A53
330
17B6C
100
AcDbEntity
  8
YODOROGO
100
AcDbLine
 10
13988.80217064596
 20
778.3840395167149
 30
0.0
 11
13988.80217064596
 21
766.3840395167142
 31
0.0
  0
LINE
  5
17A54
330
17B6C
100
AcDbEntity
  8
YODOROGO
100
AcDbLine
 10
13988.80217064596
 20
766.3840395167142
 30
0.0
 11
14000.80217064596
 21
790.0026748448738
 31
0.0
  0
LINE
  5
17A55
330
17B6C
100
AcDbEntity
  8
YODOROGO
100
AcDbLine
 10
14000.80217064596
 20
790.0026748448738
 30
0.0
 11
14000.80217064596
 21
737.8747482146437
 31
0.0
  0
LINE
  5
17A56
330
17B6C
100
AcDbEntity
  8
YODOROGO
100
AcDbLine
 10
14000.80217064596
 20
737.8747482146437
 30
0.0
 11
14008.80217064596
 21
737.8747482146437
 31
0.0
  0
LINE
  5
17A57
330
17B6C
100
AcDbEntity
  8
YODOROGO
100
AcDbLine
 10
14008.80217064596
 20
737.8747482146437
 30
0.0
 11
14008.80217064596
 21
792.6185318747652
 31
0.0
  0
LINE
  5
17A58
330
17B6C
100
AcDbEntity
  8
YODOROGO
100
AcDbLine
 10
14008.80217064596
 20
792.6185318747652
 30
0.0
 11
14020.80217064596
 21
781.5602449741995
 31
0.0
  0
LINE
  5
17A59
330
17B6C
100
AcDbEntity
  8
YODOROGO
100
AcDbLine
 10
14020.80217064596
 20
781.5602449741995
 30
0.0
 11
14020.80217064596
 21
791.5602449742006
 31
0.0
  0
LINE
  5
17A5A
330
17B6C
100
AcDbEntity
  8
YODOROGO
100
AcDbLine
 10
14020.80217064596
 20
791.5602449742006
 30
0.0
 11
14010.04445186844
 21
805.3252825309574
 31
0.0
  0
LINE
  5
17A5B
330
17B6C
100
AcDbEntity
  8
YODOROGO
100
AcDbLine
 10
14010.04445186844
 20
805.3252825309574
 30
0.0
 11
14020.45660200845
 21
829.874748214644
 31
0.0
  0
LINE
  5
17A5C
330
17B6C
100
AcDbEntity
  8
YODOROGO
100
AcDbLine
 10
14020.45660200845
 20
829.874748214644
 30
0.0
 11
14020.45660200845
 21
841.8747482146434
 31
0.0
  0
LINE
  5
17A5D
330
17B6C
100
AcDbEntity
  8
YODOROGO
100
AcDbLine
 10
14020.45660200845
 20
841.8747482146434
 30
0.0
 11
14008.80217064596
 21
841.8747482146434
 31
0.0
  0
LINE
  5
17A5E
330
17B6C
100
AcDbEntity
  8
YODOROGO
100
AcDbLine
 10
14008.80217064596
 20
841.8747482146434
 30
0.0
 11
14008.80217064596
 21
853.8747482146439
 31
0.0
  0
LINE
  5
17A5F
330
17B6C
100
AcDbEntity
  8
YODOROGO
100
AcDbLine
 10
14008.80217064596
 20
853.8747482146439
 30
0.0
 11
14000.80217064596
 21
853.8747482146439
 31
0.0
  0
LINE
  5
17A61
330
17B6C
100
AcDbEntity
  8
YODOROGO
100
AcDbLine
 10
14000.80217064596
 20
853.8747482146439
 30
0.0
 11
14000.80217064594
 21
841.8747482146434
 31
0.0
  0
LINE
  5
17A62
330
17B6C
100
AcDbEntity
  8
YODOROGO
100
AcDbLine
 10
13892.80217064596
 20
737.8747482146437
 30
0.0
 11
13964.80217064596
 21
737.8747482146437
 31
0.0
1001
AUTOCAD_POSTSCRIPT_FIGURE
1002
{
1000
PSFILL
1000
Grayscale
1000
Grayscale
1070
   100
1002
}
  0
LINE
  5
17A63
330
17B6C
100
AcDbEntity
  8
YODOROGO
100
AcDbLine
 10
13964.80217064596
 20
737.8747482146437
 30
0.0
 11
13950.53250239547
 21
768.1169053488464
 31
0.0
1001
AUTOCAD_POSTSCRIPT_FIGURE
1002
{
1000
PSFILL
1000
Grayscale
1000
Grayscale
1070
   100
1002
}
  0
LINE
  5
17A64
330
17B6C
100
AcDbEntity
  8
YODOROGO
100
AcDbLine
 10
13950.53250239547
 20
768.1169053488464
 30
0.0
 11
13942.53250239547
 21
768.1169053488464
 31
0.0
1001
AUTOCAD_POSTSCRIPT_FIGURE
1002
{
1000
PSFILL
1000
Grayscale
1000
Grayscale
1070
   100
1002
}
  0
LINE
  5
17A65
330
17B6C
100
AcDbEntity
  8
YODOROGO
100
AcDbLine
 10
13942.53250239547
 20
768.1169053488464
 30
0.0
 11
13951.02739540432
 21
747.8747482146435
 31
0.0
1001
AUTOCAD_POSTSCRIPT_FIGURE
1002
{
1000
PSFILL
1000
Grayscale
1000
Grayscale
1070
   100
1002
}
  0
LINE
  5
17A66
330
17B6C
100
AcDbEntity
  8
YODOROGO
100
AcDbLine
 10
13951.02739540432
 20
747.8747482146435
 30
0.0
 11
13907.77335914239
 21
747.8747482146435
 31
0.0
1001
AUTOCAD_POSTSCRIPT_FIGURE
1002
{
1000
PSFILL
1000
Grayscale
1000
Grayscale
1070
   100
1002
}
  0
LINE
  5
17A67
330
17B6C
100
AcDbEntity
  8
YODOROGO
100
AcDbLine
 10
13907.77335914239
 20
747.8747482146435
 30
0.0
 11
13922.25479445787
 21
784.2514286852374
 31
0.0
1001
AUTOCAD_POSTSCRIPT_FIGURE
1002
{
1000
PSFILL
1000
Grayscale
1000
Grayscale
1070
   100
1002
}
  0
LINE
  5
17A68
330
17B6C
100
AcDbEntity
  8
YODOROGO
100
AcDbLine
 10
13922.25479445787
 20
784.2514286852374
 30
0.0
 11
13968.80217064596
 21
784.2514286852374
 31
0.0
1001
AUTOCAD_POSTSCRIPT_FIGURE
1002
{
1000
PSFILL
1000
Grayscale
1000
Grayscale
1070
   100
1002
}
  0
LINE
  5
17A69
330
17B6C
100
AcDbEntity
  8
YODOROGO
100
AcDbLine
 10
13968.80217064596
 20
784.2514286852374
 30
0.0
 11
13968.80217064596
 21
794.2514286852374
 31
0.0
1001
AUTOCAD_POSTSCRIPT_FIGURE
1002
{
1000
PSFILL
1000
Grayscale
1000
Grayscale
1070
   100
1002
}
  0
LINE
  5
17A6A
330
17B6C
100
AcDbEntity
  8
YODOROGO
100
AcDbLine
 10
13968.80217064596
 20
794.2514286852374
 30
0.0
 11
13888.80217064596
 21
794.2514286852374
 31
0.0
1001
AUTOCAD_POSTSCRIPT_FIGURE
1002
{
1000
PSFILL
1000
Grayscale
1000
Grayscale
1070
   100
1002
}
  0
LINE
  5
17A6B
330
17B6C
100
AcDbEntity
  8
YODOROGO
100
AcDbLine
 10
13888.80217064596
 20
794.2514286852374
 30
0.0
 11
13888.80217064596
 21
784.2514286852374
 31
0.0
1001
AUTOCAD_POSTSCRIPT_FIGURE
1002
{
1000
PSFILL
1000
Grayscale
1000
Grayscale
1070
   100
1002
}
  0
LINE
  5
17A6C
330
17B6C
100
AcDbEntity
  8
YODOROGO
100
AcDbLine
 10
13888.80217064596
 20
784.2514286852374
 30
0.0
 11
13912.25479445787
 21
784.2514286852374
 31
0.0
1001
AUTOCAD_POSTSCRIPT_FIGURE
1002
{
1000
PSFILL
1000
Grayscale
1000
Grayscale
1070
   100
1002
}
  0
LINE
  5
17A6D
330
17B6C
100
AcDbEntity
  8
YODOROGO
100
AcDbLine
 10
13912.25479445787
 20
784.2514286852374
 30
0.0
 11
13892.80217064596
 21
737.8747482146437
 31
0.0
1001
AUTOCAD_POSTSCRIPT_FIGURE
1002
{
1000
PSFILL
1000
Grayscale
1000
Grayscale
1070
   100
1002
}
  0
LINE
  5
17A6E
330
17B6C
100
AcDbEntity
  8
YODOROGO
100
AcDbLine
 10
13888.80217064596
 20
821.986207022285
 30
0.0
 11
13928.80217064596
 21
853.8747482146439
 31
0.0
  0
LINE
  5
17A6F
330
17B6C
100
AcDbEntity
  8
YODOROGO
100
AcDbLine
 10
13928.80217064596
 20
853.8747482146439
 30
0.0
 11
13968.80217064596
 21
821.986207022285
 31
0.0
  0
LINE
  5
17A70
330
17B6C
100
AcDbEntity
  8
YODOROGO
100
AcDbLine
 10
13968.80217064596
 20
821.986207022285
 30
0.0
 11
13968.80217064596
 21
809.9862070222856
 31
0.0
  0
LINE
  5
17A71
330
17B6C
100
AcDbEntity
  8
YODOROGO
100
AcDbLine
 10
13968.80217064596
 20
809.9862070222856
 30
0.0
 11
13928.80217064596
 21
841.8747482146445
 31
0.0
  0
LINE
  5
17A72
330
17B6C
100
AcDbEntity
  8
YODOROGO
100
AcDbLine
 10
13928.80217064596
 20
841.8747482146445
 30
0.0
 11
13888.80217064596
 21
809.9862070222856
 31
0.0
  0
LINE
  5
17A73
330
17B6C
100
AcDbEntity
  8
YODOROGO
100
AcDbLine
 10
13888.80217064596
 20
809.9862070222856
 30
0.0
 11
13888.80217064596
 21
821.986207022285
 31
0.0
  0
LINE
  5
17A74
330
17B6C
100
AcDbEntity
  8
YODOROGO
100
AcDbLine
 10
13904.80217064596
 20
816.3859520216298
 30
0.0
 11
13952.80217064596
 21
816.3859520216298
 31
0.0
  0
LINE
  5
17A75
330
17B6C
100
AcDbEntity
  8
YODOROGO
100
AcDbLine
 10
13952.80217064596
 20
816.3859520216298
 30
0.0
 11
13952.80217064596
 21
804.3859520216292
 31
0.0
  0
LINE
  5
17A76
330
17B6C
100
AcDbEntity
  8
YODOROGO
100
AcDbLine
 10
13952.80217064596
 20
804.3859520216292
 30
0.0
 11
13904.80217064596
 21
804.3859520216292
 31
0.0
  0
LINE
  5
17A77
330
17B6C
100
AcDbEntity
  8
YODOROGO
100
AcDbLine
 10
13904.80217064596
 20
804.3859520216292
 30
0.0
 11
13904.80217064596
 21
816.3859520216298
 31
0.0
  0
LINE
  5
17A78
330
17B6C
100
AcDbEntity
  8
YODOROGO
100
AcDbLine
 10
14064.80217064595
 20
873.8747482146436
 30
0.0
 11
14068.80217064596
 21
873.8747482146436
 31
0.0
1001
AUTOCAD_POSTSCRIPT_FIGURE
1002
{
1000
PSFILL
1000
Grayscale
1000
Grayscale
1070
   100
1002
}
  0
LINE
  5
17A79
330
17B6C
100
AcDbEntity
  8
YODOROGO
100
AcDbLine
 10
14068.80217064596
 20
873.8747482146436
 30
0.0
 11
14049.4514934367
 21
969.8747482146441
 31
0.0
1001
AUTOCAD_POSTSCRIPT_FIGURE
1002
{
1000
PSFILL
1000
Grayscale
1000
Grayscale
1070
   100
1002
}
  0
LINE
  5
17A7A
330
17B6C
100
AcDbEntity
  8
YODOROGO
100
AcDbLine
 10
14049.4514934367
 20
969.8747482146441
 30
0.0
 11
14068.80217064596
 21
969.8747482146441
 31
0.0
1001
AUTOCAD_POSTSCRIPT_FIGURE
1002
{
1000
PSFILL
1000
Grayscale
1000
Grayscale
1070
   100
1002
}
  0
LINE
  5
17A7B
330
17B6C
100
AcDbEntity
  8
YODOROGO
100
AcDbLine
 10
14068.80217064596
 20
969.8747482146441
 30
0.0
 11
14068.80217064596
 21
977.8747482146435
 31
0.0
1001
AUTOCAD_POSTSCRIPT_FIGURE
1002
{
1000
PSFILL
1000
Grayscale
1000
Grayscale
1070
   100
1002
}
  0
LINE
  5
17A7C
330
17B6C
100
AcDbEntity
  8
YODOROGO
100
AcDbLine
 10
14068.80217064596
 20
977.8747482146435
 30
0.0
 11
14068.80217064596
 21
989.8747482146443
 31
0.0
1001
AUTOCAD_POSTSCRIPT_FIGURE
1002
{
1000
PSFILL
1000
Grayscale
1000
Grayscale
1070
   100
1002
}
  0
LINE
  5
17A7D
330
17B6C
100
AcDbEntity
  8
YODOROGO
100
AcDbLine
 10
14068.80217064596
 20
989.8747482146443
 30
0.0
 11
14060.80217064596
 21
989.8747482146443
 31
0.0
1001
AUTOCAD_POSTSCRIPT_FIGURE
1002
{
1000
PSFILL
1000
Grayscale
1000
Grayscale
1070
   100
1002
}
  0
LINE
  5
17A7E
330
17B6C
100
AcDbEntity
  8
YODOROGO
100
AcDbLine
 10
14060.80217064596
 20
989.8747482146443
 30
0.0
 11
14060.80217064596
 21
977.8747482146435
 31
0.0
1001
AUTOCAD_POSTSCRIPT_FIGURE
1002
{
1000
PSFILL
1000
Grayscale
1000
Grayscale
1070
   100
1002
}
  0
LINE
  5
17A7F
330
17B6C
100
AcDbEntity
  8
YODOROGO
100
AcDbLine
 10
14060.80217064596
 20
977.8747482146435
 30
0.0
 11
14047.90343925997
 21
977.8747482146435
 31
0.0
1001
AUTOCAD_POSTSCRIPT_FIGURE
1002
{
1000
PSFILL
1000
Grayscale
1000
Grayscale
1070
   100
1002
}
  0
LINE
  5
17A80
330
17B6C
100
AcDbEntity
  8
YODOROGO
100
AcDbLine
 10
14047.90343925997
 20
977.8747482146435
 30
0.0
 11
14045.58135799486
 21
989.8747482146443
 31
0.0
1001
AUTOCAD_POSTSCRIPT_FIGURE
1002
{
1000
PSFILL
1000
Grayscale
1000
Grayscale
1070
   100
1002
}
  0
LINE
  5
17A81
330
17B6C
100
AcDbEntity
  8
YODOROGO
100
AcDbLine
 10
14045.58135799486
 20
989.8747482146443
 30
0.0
 11
14035.58135799485
 21
989.8747482146443
 31
0.0
1001
AUTOCAD_POSTSCRIPT_FIGURE
1002
{
1000
PSFILL
1000
Grayscale
1000
Grayscale
1070
   100
1002
}
  0
LINE
  5
17A82
330
17B6C
100
AcDbEntity
  8
YODOROGO
100
AcDbLine
 10
14035.58135799485
 20
989.8747482146443
 30
0.0
 11
14038.30343925995
 21
977.8747482146435
 31
0.0
1001
AUTOCAD_POSTSCRIPT_FIGURE
1002
{
1000
PSFILL
1000
Grayscale
1000
Grayscale
1070
   100
1002
}
  0
LINE
  5
17A83
330
17B6C
100
AcDbEntity
  8
YODOROGO
100
AcDbLine
 10
14038.30343925995
 20
977.8747482146435
 30
0.0
 11
13988.80217064596
 21
977.8747482146435
 31
0.0
1001
AUTOCAD_POSTSCRIPT_FIGURE
1002
{
1000
PSFILL
1000
Grayscale
1000
Grayscale
1070
   100
1002
}
  0
LINE
  5
17A84
330
17B6C
100
AcDbEntity
  8
YODOROGO
100
AcDbLine
 10
13988.80217064596
 20
977.8747482146435
 30
0.0
 11
13988.80217064596
 21
969.8747482146441
 31
0.0
1001
AUTOCAD_POSTSCRIPT_FIGURE
1002
{
1000
PSFILL
1000
Grayscale
1000
Grayscale
1070
   100
1002
}
  0
LINE
  5
17A85
330
17B6C
100
AcDbEntity
  8
YODOROGO
100
AcDbLine
 10
13988.80217064596
 20
969.8747482146441
 30
0.0
 11
14040.11816010337
 21
969.8747482146441
 31
0.0
1001
AUTOCAD_POSTSCRIPT_FIGURE
1002
{
1000
PSFILL
1000
Grayscale
1000
Grayscale
1070
   100
1002
}
  0
LINE
  5
17A86
330
17B6C
100
AcDbEntity
  8
YODOROGO
100
AcDbLine
 10
14040.11816010337
 20
969.8747482146441
 30
0.0
 11
14064.80217064595
 21
873.8747482146436
 31
0.0
1001
AUTOCAD_POSTSCRIPT_FIGURE
1002
{
1000
PSFILL
1000
Grayscale
1000
Grayscale
1070
   100
1002
}
  0
LINE
  5
17A87
330
17B6C
100
AcDbEntity
  8
YODOROGO
100
AcDbLine
 10
13888.80217064596
 20
921.8883739758362
 30
0.0
 11
13888.80217064596
 21
929.8883739758355
 31
0.0
1001
AUTOCAD_POSTSCRIPT_FIGURE
1002
{
1000
PSFILL
1000
Grayscale
1000
Grayscale
1070
   100
1002
}
  0
LINE
  5
17A88
330
17B6C
100
AcDbEntity
  8
YODOROGO
100
AcDbLine
 10
13888.80217064596
 20
929.8883739758355
 30
0.0
 11
13900.80217064596
 21
957.3932903968524
 31
0.0
1001
AUTOCAD_POSTSCRIPT_FIGURE
1002
{
1000
PSFILL
1000
Grayscale
1000
Grayscale
1070
   100
1002
}
  0
LINE
  5
17A89
330
17B6C
100
AcDbEntity
  8
YODOROGO
100
AcDbLine
 10
13900.80217064596
 20
957.3932903968524
 30
0.0
 11
13900.80217064596
 21
969.8747482146441
 31
0.0
1001
AUTOCAD_POSTSCRIPT_FIGURE
1002
{
1000
PSFILL
1000
Grayscale
1000
Grayscale
1070
   100
1002
}
  0
LINE
  5
17A8A
330
17B6C
100
AcDbEntity
  8
YODOROGO
100
AcDbLine
 10
13900.80217064596
 20
969.8747482146441
 30
0.0
 11
13888.80217064596
 21
969.8747482146441
 31
0.0
1001
AUTOCAD_POSTSCRIPT_FIGURE
1002
{
1000
PSFILL
1000
Grayscale
1000
Grayscale
1070
   100
1002
}
  0
LINE
  5
17A8B
330
17B6C
100
AcDbEntity
  8
YODOROGO
100
AcDbLine
 10
13888.80217064596
 20
969.8747482146441
 30
0.0
 11
13888.80217064596
 21
977.8747482146435
 31
0.0
1001
AUTOCAD_POSTSCRIPT_FIGURE
1002
{
1000
PSFILL
1000
Grayscale
1000
Grayscale
1070
   100
1002
}
  0
LINE
  5
17A8C
330
17B6C
100
AcDbEntity
  8
YODOROGO
100
AcDbLine
 10
13888.80217064596
 20
977.8747482146435
 30
0.0
 11
13900.80217064596
 21
977.8747482146435
 31
0.0
1001
AUTOCAD_POSTSCRIPT_FIGURE
1002
{
1000
PSFILL
1000
Grayscale
1000
Grayscale
1070
   100
1002
}
  0
LINE
  5
17A8D
330
17B6C
100
AcDbEntity
  8
YODOROGO
100
AcDbLine
 10
13900.80217064596
 20
977.8747482146435
 30
0.0
 11
13900.80217064596
 21
989.8747482146443
 31
0.0
1001
AUTOCAD_POSTSCRIPT_FIGURE
1002
{
1000
PSFILL
1000
Grayscale
1000
Grayscale
1070
   100
1002
}
  0
LINE
  5
17A8E
330
17B6C
100
AcDbEntity
  8
YODOROGO
100
AcDbLine
 10
13900.80217064596
 20
989.8747482146443
 30
0.0
 11
13908.80217064596
 21
989.8747482146443
 31
0.0
1001
AUTOCAD_POSTSCRIPT_FIGURE
1002
{
1000
PSFILL
1000
Grayscale
1000
Grayscale
1070
   100
1002
}
  0
LINE
  5
17A8F
330
17B6C
100
AcDbEntity
  8
YODOROGO
100
AcDbLine
 10
13908.80217064596
 20
989.8747482146443
 30
0.0
 11
13908.80217064596
 21
977.8747482146435
 31
0.0
1001
AUTOCAD_POSTSCRIPT_FIGURE
1002
{
1000
PSFILL
1000
Grayscale
1000
Grayscale
1070
   100
1002
}
  0
LINE
  5
17A90
330
17B6C
100
AcDbEntity
  8
YODOROGO
100
AcDbLine
 10
13908.80217064596
 20
977.8747482146435
 30
0.0
 11
13924.80217064594
 21
977.8747482146435
 31
0.0
1001
AUTOCAD_POSTSCRIPT_FIGURE
1002
{
1000
PSFILL
1000
Grayscale
1000
Grayscale
1070
   100
1002
}
  0
LINE
  5
17A91
330
17B6C
100
AcDbEntity
  8
YODOROGO
100
AcDbLine
 10
13924.80217064594
 20
977.8747482146435
 30
0.0
 11
13924.80217064594
 21
989.8747482146443
 31
0.0
1001
AUTOCAD_POSTSCRIPT_FIGURE
1002
{
1000
PSFILL
1000
Grayscale
1000
Grayscale
1070
   100
1002
}
  0
LINE
  5
17A92
330
17B6C
100
AcDbEntity
  8
YODOROGO
100
AcDbLine
 10
13924.80217064594
 20
989.8747482146443
 30
0.0
 11
13932.80217064595
 21
989.8747482146443
 31
0.0
1001
AUTOCAD_POSTSCRIPT_FIGURE
1002
{
1000
PSFILL
1000
Grayscale
1000
Grayscale
1070
   100
1002
}
  0
LINE
  5
17A93
330
17B6C
100
AcDbEntity
  8
YODOROGO
100
AcDbLine
 10
13932.80217064595
 20
989.8747482146443
 30
0.0
 11
13932.80217064595
 21
977.8747482146435
 31
0.0
1001
AUTOCAD_POSTSCRIPT_FIGURE
1002
{
1000
PSFILL
1000
Grayscale
1000
Grayscale
1070
   100
1002
}
  0
LINE
  5
17A94
330
17B6C
100
AcDbEntity
  8
YODOROGO
100
AcDbLine
 10
13932.80217064595
 20
977.8747482146435
 30
0.0
 11
13944.80217064596
 21
977.8747482146435
 31
0.0
1001
AUTOCAD_POSTSCRIPT_FIGURE
1002
{
1000
PSFILL
1000
Grayscale
1000
Grayscale
1070
   100
1002
}
  0
LINE
  5
17A95
330
17B6C
100
AcDbEntity
  8
YODOROGO
100
AcDbLine
 10
13944.80217064596
 20
977.8747482146435
 30
0.0
 11
13944.80217064596
 21
989.8747482146443
 31
0.0
1001
AUTOCAD_POSTSCRIPT_FIGURE
1002
{
1000
PSFILL
1000
Grayscale
1000
Grayscale
1070
   100
1002
}
  0
LINE
  5
17A96
330
17B6C
100
AcDbEntity
  8
YODOROGO
100
AcDbLine
 10
13944.80217064596
 20
989.8747482146443
 30
0.0
 11
13952.80217064596
 21
989.8747482146443
 31
0.0
1001
AUTOCAD_POSTSCRIPT_FIGURE
1002
{
1000
PSFILL
1000
Grayscale
1000
Grayscale
1070
   100
1002
}
  0
LINE
  5
17A97
330
17B6C
100
AcDbEntity
  8
YODOROGO
100
AcDbLine
 10
13952.80217064596
 20
989.8747482146443
 30
0.0
 11
13952.80217064596
 21
977.8747482146435
 31
0.0
1001
AUTOCAD_POSTSCRIPT_FIGURE
1002
{
1000
PSFILL
1000
Grayscale
1000
Grayscale
1070
   100
1002
}
  0
LINE
  5
17A98
330
17B6C
100
AcDbEntity
  8
YODOROGO
100
AcDbLine
 10
13952.80217064596
 20
977.8747482146435
 30
0.0
 11
13968.80217064596
 21
977.8747482146435
 31
0.0
1001
AUTOCAD_POSTSCRIPT_FIGURE
1002
{
1000
PSFILL
1000
Grayscale
1000
Grayscale
1070
   100
1002
}
  0
LINE
  5
17A99
330
17B6C
100
AcDbEntity
  8
YODOROGO
100
AcDbLine
 10
13968.80217064596
 20
977.8747482146435
 30
0.0
 11
13968.80217064596
 21
969.8747482146441
 31
0.0
1001
AUTOCAD_POSTSCRIPT_FIGURE
1002
{
1000
PSFILL
1000
Grayscale
1000
Grayscale
1070
   100
1002
}
  0
LINE
  5
17A9A
330
17B6C
100
AcDbEntity
  8
YODOROGO
100
AcDbLine
 10
13968.80217064596
 20
969.8747482146441
 30
0.0
 11
13952.80217064596
 21
969.8747482146441
 31
0.0
1001
AUTOCAD_POSTSCRIPT_FIGURE
1002
{
1000
PSFILL
1000
Grayscale
1000
Grayscale
1070
   100
1002
}
  0
LINE
  5
17A9B
330
17B6C
100
AcDbEntity
  8
YODOROGO
100
AcDbLine
 10
13952.80217064596
 20
969.8747482146441
 30
0.0
 11
13952.80217064596
 21
950.2841744681497
 31
0.0
1001
AUTOCAD_POSTSCRIPT_FIGURE
1002
{
1000
PSFILL
1000
Grayscale
1000
Grayscale
1070
   100
1002
}
  0
LINE
  5
17A9C
330
17B6C
100
AcDbEntity
  8
YODOROGO
100
AcDbLine
 10
13952.80217064596
 20
950.2841744681497
 30
0.0
 11
13968.80217064596
 21
950.2841744681497
 31
0.0
1001
AUTOCAD_POSTSCRIPT_FIGURE
1002
{
1000
PSFILL
1000
Grayscale
1000
Grayscale
1070
   100
1002
}
  0
LINE
  5
17A9D
330
17B6C
100
AcDbEntity
  8
YODOROGO
100
AcDbLine
 10
13968.80217064596
 20
950.2841744681497
 30
0.0
 11
13968.80217064596
 21
942.2841744681491
 31
0.0
1001
AUTOCAD_POSTSCRIPT_FIGURE
1002
{
1000
PSFILL
1000
Grayscale
1000
Grayscale
1070
   100
1002
}
  0
LINE
  5
17A9E
330
17B6C
100
AcDbEntity
  8
YODOROGO
100
AcDbLine
 10
13968.80217064596
 20
942.2841744681491
 30
0.0
 11
13952.80217064596
 21
942.2841744681502
 31
0.0
1001
AUTOCAD_POSTSCRIPT_FIGURE
1002
{
1000
PSFILL
1000
Grayscale
1000
Grayscale
1070
   100
1002
}
  0
LINE
  5
17A9F
330
17B6C
100
AcDbEntity
  8
YODOROGO
100
AcDbLine
 10
13952.80217064596
 20
942.2841744681502
 30
0.0
 11
13952.80217064596
 21
940.7045060794045
 31
0.0
1001
AUTOCAD_POSTSCRIPT_FIGURE
1002
{
1000
PSFILL
1000
Grayscale
1000
Grayscale
1070
   100
1002
}
  0
LINE
  5
17AA0
330
17B6C
100
AcDbEntity
  8
YODOROGO
100
AcDbLine
 10
13952.80217064596
 20
940.7045060794045
 30
0.0
 11
13968.80217064596
 21
906.4874905807087
 31
0.0
1001
AUTOCAD_POSTSCRIPT_FIGURE
1002
{
1000
PSFILL
1000
Grayscale
1000
Grayscale
1070
   100
1002
}
  0
LINE
  5
17AA1
330
17B6C
100
AcDbEntity
  8
YODOROGO
100
AcDbLine
 10
13968.80217064596
 20
906.4874905807087
 30
0.0
 11
13968.80217064596
 21
898.487490580708
 31
0.0
1001
AUTOCAD_POSTSCRIPT_FIGURE
1002
{
1000
PSFILL
1000
Grayscale
1000
Grayscale
1070
   100
1002
}
  0
LINE
  5
17AA2
330
17B6C
100
AcDbEntity
  8
YODOROGO
100
AcDbLine
 10
13968.80217064596
 20
898.487490580708
 30
0.0
 11
13952.80217064596
 21
924.7045060794032
 31
0.0
1001
AUTOCAD_POSTSCRIPT_FIGURE
1002
{
1000
PSFILL
1000
Grayscale
1000
Grayscale
1070
   100
1002
}
  0
LINE
  5
17AA3
330
17B6C
100
AcDbEntity
  8
YODOROGO
100
AcDbLine
 10
13952.80217064596
 20
924.7045060794032
 30
0.0
 11
13952.80217064596
 21
873.8747482146436
 31
0.0
1001
AUTOCAD_POSTSCRIPT_FIGURE
1002
{
1000
PSFILL
1000
Grayscale
1000
Grayscale
1070
   100
1002
}
  0
LINE
  5
17AA4
330
17B6C
100
AcDbEntity
  8
YODOROGO
100
AcDbLine
 10
13952.80217064596
 20
873.8747482146436
 30
0.0
 11
13944.80217064596
 21
873.8747482146436
 31
0.0
1001
AUTOCAD_POSTSCRIPT_FIGURE
1002
{
1000
PSFILL
1000
Grayscale
1000
Grayscale
1070
   100
1002
}
  0
LINE
  5
17AA5
330
17B6C
100
AcDbEntity
  8
YODOROGO
100
AcDbLine
 10
13944.80217064596
 20
873.8747482146436
 30
0.0
 11
13944.80217064596
 21
923.8095889822183
 31
0.0
1001
AUTOCAD_POSTSCRIPT_FIGURE
1002
{
1000
PSFILL
1000
Grayscale
1000
Grayscale
1070
   100
1002
}
  0
LINE
  5
17AA6
330
17B6C
100
AcDbEntity
  8
YODOROGO
100
AcDbLine
 10
13944.80217064596
 20
923.8095889822183
 30
0.0
 11
13924.80217064594
 21
898.487490580708
 31
0.0
1001
AUTOCAD_POSTSCRIPT_FIGURE
1002
{
1000
PSFILL
1000
Grayscale
1000
Grayscale
1070
   100
1002
}
  0
LINE
  5
17AA7
330
17B6C
100
AcDbEntity
  8
YODOROGO
100
AcDbLine
 10
13924.80217064594
 20
898.487490580708
 30
0.0
 11
13924.80217064594
 21
906.4874905807087
 31
0.0
1001
AUTOCAD_POSTSCRIPT_FIGURE
1002
{
1000
PSFILL
1000
Grayscale
1000
Grayscale
1070
   100
1002
}
  0
LINE
  5
17AA8
330
17B6C
100
AcDbEntity
  8
YODOROGO
100
AcDbLine
 10
13924.80217064594
 20
906.4874905807087
 30
0.0
 11
13944.80217064596
 21
939.8095889822197
 31
0.0
1001
AUTOCAD_POSTSCRIPT_FIGURE
1002
{
1000
PSFILL
1000
Grayscale
1000
Grayscale
1070
   100
1002
}
  0
LINE
  5
17AA9
330
17B6C
100
AcDbEntity
  8
YODOROGO
100
AcDbLine
 10
13944.80217064596
 20
939.8095889822197
 30
0.0
 11
13944.80217064596
 21
942.2841744681491
 31
0.0
1001
AUTOCAD_POSTSCRIPT_FIGURE
1002
{
1000
PSFILL
1000
Grayscale
1000
Grayscale
1070
   100
1002
}
  0
LINE
  5
17AAA
330
17B6C
100
AcDbEntity
  8
YODOROGO
100
AcDbLine
 10
13944.80217064596
 20
942.2841744681491
 30
0.0
 11
13928.80217064595
 21
942.2841744681491
 31
0.0
1001
AUTOCAD_POSTSCRIPT_FIGURE
1002
{
1000
PSFILL
1000
Grayscale
1000
Grayscale
1070
   100
1002
}
  0
LINE
  5
17AAB
330
17B6C
100
AcDbEntity
  8
YODOROGO
100
AcDbLine
 10
13928.80217064595
 20
942.2841744681491
 30
0.0
 11
13928.80217064595
 21
950.2841744681497
 31
0.0
1001
AUTOCAD_POSTSCRIPT_FIGURE
1002
{
1000
PSFILL
1000
Grayscale
1000
Grayscale
1070
   100
1002
}
  0
LINE
  5
17AAC
330
17B6C
100
AcDbEntity
  8
YODOROGO
100
AcDbLine
 10
13928.80217064595
 20
950.2841744681497
 30
0.0
 11
13944.80217064596
 21
950.2841744681497
 31
0.0
1001
AUTOCAD_POSTSCRIPT_FIGURE
1002
{
1000
PSFILL
1000
Grayscale
1000
Grayscale
1070
   100
1002
}
  0
LINE
  5
17AAD
330
17B6C
100
AcDbEntity
  8
YODOROGO
100
AcDbLine
 10
13944.80217064596
 20
950.2841744681497
 30
0.0
 11
13944.80217064596
 21
969.8747482146441
 31
0.0
1001
AUTOCAD_POSTSCRIPT_FIGURE
1002
{
1000
PSFILL
1000
Grayscale
1000
Grayscale
1070
   100
1002
}
  0
LINE
  5
17AAE
330
17B6C
100
AcDbEntity
  8
YODOROGO
100
AcDbLine
 10
13944.80217064596
 20
969.8747482146441
 30
0.0
 11
13908.80217064596
 21
969.8747482146441
 31
0.0
1001
AUTOCAD_POSTSCRIPT_FIGURE
1002
{
1000
PSFILL
1000
Grayscale
1000
Grayscale
1070
   100
1002
}
  0
LINE
  5
17AAF
330
17B6C
100
AcDbEntity
  8
YODOROGO
100
AcDbLine
 10
13908.80217064596
 20
969.8747482146441
 30
0.0
 11
13908.80217064596
 21
958.8856660426326
 31
0.0
1001
AUTOCAD_POSTSCRIPT_FIGURE
1002
{
1000
PSFILL
1000
Grayscale
1000
Grayscale
1070
   100
1002
}
  0
LINE
  5
17AB0
330
17B6C
100
AcDbEntity
  8
YODOROGO
100
AcDbLine
 10
13908.80217064596
 20
958.8856660426326
 30
0.0
 11
13920.80217064596
 21
941.8273791420681
 31
0.0
1001
AUTOCAD_POSTSCRIPT_FIGURE
1002
{
1000
PSFILL
1000
Grayscale
1000
Grayscale
1070
   100
1002
}
  0
LINE
  5
17AB1
330
17B6C
100
AcDbEntity
  8
YODOROGO
100
AcDbLine
 10
13920.80217064596
 20
941.8273791420681
 30
0.0
 11
13920.80217064596
 21
933.8273791420684
 31
0.0
1001
AUTOCAD_POSTSCRIPT_FIGURE
1002
{
1000
PSFILL
1000
Grayscale
1000
Grayscale
1070
   100
1002
}
  0
LINE
  5
17AB2
330
17B6C
100
AcDbEntity
  8
YODOROGO
100
AcDbLine
 10
13920.80217064596
 20
933.8273791420684
 30
0.0
 11
13908.80217064596
 21
946.8856660426334
 31
0.0
1001
AUTOCAD_POSTSCRIPT_FIGURE
1002
{
1000
PSFILL
1000
Grayscale
1000
Grayscale
1070
   100
1002
}
  0
LINE
  5
17AB3
330
17B6C
100
AcDbEntity
  8
YODOROGO
100
AcDbLine
 10
13908.80217064596
 20
946.8856660426334
 30
0.0
 11
13908.80217064596
 21
873.8747482146436
 31
0.0
1001
AUTOCAD_POSTSCRIPT_FIGURE
1002
{
1000
PSFILL
1000
Grayscale
1000
Grayscale
1070
   100
1002
}
  0
LINE
  5
17AB4
330
17B6C
100
AcDbEntity
  8
YODOROGO
100
AcDbLine
 10
13908.80217064596
 20
873.8747482146436
 30
0.0
 11
13900.80217064596
 21
873.8747482146436
 31
0.0
1001
AUTOCAD_POSTSCRIPT_FIGURE
1002
{
1000
PSFILL
1000
Grayscale
1000
Grayscale
1070
   100
1002
}
  0
LINE
  5
17AB5
330
17B6C
100
AcDbEntity
  8
YODOROGO
100
AcDbLine
 10
13900.80217064596
 20
873.8747482146436
 30
0.0
 11
13900.80217064596
 21
945.3932903968532
 31
0.0
1001
AUTOCAD_POSTSCRIPT_FIGURE
1002
{
1000
PSFILL
1000
Grayscale
1000
Grayscale
1070
   100
1002
}
  0
LINE
  5
17AB6
330
17B6C
100
AcDbEntity
  8
YODOROGO
100
AcDbLine
 10
13900.80217064596
 20
945.3932903968532
 30
0.0
 11
13888.80217064596
 21
921.8883739758362
 31
0.0
1001
AUTOCAD_POSTSCRIPT_FIGURE
1002
{
1000
PSFILL
1000
Grayscale
1000
Grayscale
1070
   100
1002
}
  0
LINE
  5
17AB7
330
17B6C
100
AcDbEntity
  8
YODOROGO
100
AcDbLine
 10
15190.80217064596
 20
786.8747482146446
 30
0.0
 11
15190.80217064596
 21
800.8747482146432
 31
0.0
  0
LINE
  5
17AB8
330
17B6C
100
AcDbEntity
  8
YODOROGO
100
AcDbLine
 10
15190.80217064596
 20
800.8747482146432
 30
0.0
 11
15216.80217064596
 21
800.8747482146432
 31
0.0
  0
LINE
  5
17AB9
330
17B6C
100
AcDbEntity
  8
YODOROGO
100
AcDbLine
 10
15216.80217064596
 20
800.8747482146432
 30
0.0
 11
15216.80217064596
 21
786.8747482146446
 31
0.0
  0
LINE
  5
17ABA
330
17B6C
100
AcDbEntity
  8
YODOROGO
100
AcDbLine
 10
15216.80217064596
 20
786.8747482146446
 30
0.0
 11
15190.80217064596
 21
786.8747482146446
 31
0.0
  0
ARC
  5
17ABB
330
17B6C
100
AcDbEntity
  8
U1
100
AcDbCircle
 10
11965.32750789964
 20
8692.043182432326
 30
0.0
 40
6.299999999999272
100
AcDbArc
 50
269.9999999999834
 51
0.0
  0
LINE
  5
17ABC
330
17B6C
100
AcDbEntity
  8
U1
100
AcDbLine
 10
11965.32750789964
 20
8685.743182432327
 30
0.0
 11
11957.92750789964
 21
8685.743182432327
 31
0.0
  0
ARC
  5
17ABD
330
17B6C
100
AcDbEntity
  8
U1
100
AcDbCircle
 10
11957.92750789964
 20
8692.043182432326
 30
0.0
 40
6.299999999999272
100
AcDbArc
 50
179.9999999999833
 51
270.0
  0
ARC
  5
17ABE
330
17B6C
100
AcDbEntity
  8
U1
100
AcDbCircle
 10
11945.32750789964
 20
8692.043182432326
 30
0.0
 40
6.30000000000109
100
AcDbArc
 50
270.0
 51
0.0
  0
LINE
  5
17ABF
330
17B6C
100
AcDbEntity
  8
U1
100
AcDbLine
 10
11945.32750789964
 20
8685.743182432327
 30
0.0
 11
11912.92750789964
 21
8685.743182432327
 31
0.0
  0
ARC
  5
17AC0
330
17B6C
100
AcDbEntity
  8
U1
100
AcDbCircle
 10
11912.92750789964
 20
8692.043182432326
 30
0.0
 40
6.299999999999272
100
AcDbArc
 50
179.9999999999833
 51
270.0
  0
LINE
  5
17AC1
330
17B6C
100
AcDbEntity
  8
U1
100
AcDbLine
 10
11906.62750789964
 20
8692.043182432326
 30
0.0
 11
11906.62750789964
 21
8744.443182432327
 31
0.0
  0
ARC
  5
17AC2
330
17B6C
100
AcDbEntity
  8
U1
100
AcDbCircle
 10
11912.92750789964
 20
8744.443182432327
 30
0.0
 40
6.299999999999272
100
AcDbArc
 50
89.99999999998344
 51
180.0
  0
LINE
  5
17AC3
330
17B6C
100
AcDbEntity
  8
U1
100
AcDbLine
 10
11912.92750789964
 20
8750.743182432326
 30
0.0
 11
11965.32750789964
 21
8750.743182432326
 31
0.0
  0
ARC
  5
17AC4
330
17B6C
100
AcDbEntity
  8
U1
100
AcDbCircle
 10
11965.32750789964
 20
8744.443182432327
 30
0.0
 40
6.299999999999272
100
AcDbArc
 50
0.0
 51
90.0
  0
LINE
  5
17AC5
330
17B6C
100
AcDbEntity
  8
U1
100
AcDbLine
 10
11971.62750789964
 20
8744.443182432327
 30
0.0
 11
11971.62750789964
 21
8692.043182432326
 31
0.0
  0
ARC
  5
17AC6
330
17B6C
100
AcDbEntity
  8
U1
100
AcDbCircle
 10
9155.32750789964
 20
8692.043182432326
 30
0.0
 40
6.299999999999272
100
AcDbArc
 50
269.9999999999834
 51
0.0
  0
LINE
  5
17AC7
330
17B6C
100
AcDbEntity
  8
U1
100
AcDbLine
 10
9155.327507899638
 20
8685.743182432327
 30
0.0
 11
9147.927507899638
 21
8685.743182432327
 31
0.0
  0
ARC
  5
17AC8
330
17B6C
100
AcDbEntity
  8
U1
100
AcDbCircle
 10
9147.927507899638
 20
8692.043182432326
 30
0.0
 40
6.299999999999272
100
AcDbArc
 50
179.9999999999833
 51
270.0
  0
ARC
  5
17AC9
330
17B6C
100
AcDbEntity
  8
U1
100
AcDbCircle
 10
9135.327507899637
 20
8692.043182432326
 30
0.0
 40
6.30000000000109
100
AcDbArc
 50
270.0
 51
0.0
  0
LINE
  5
17ACA
330
17B6C
100
AcDbEntity
  8
U1
100
AcDbLine
 10
9135.327507899637
 20
8685.743182432327
 30
0.0
 11
9102.927507899638
 21
8685.743182432327
 31
0.0
  0
ARC
  5
17ACB
330
17B6C
100
AcDbEntity
  8
U1
100
AcDbCircle
 10
9102.927507899638
 20
8692.043182432326
 30
0.0
 40
6.299999999999272
100
AcDbArc
 50
179.9999999999833
 51
270.0
  0
LINE
  5
17ACC
330
17B6C
100
AcDbEntity
  8
U1
100
AcDbLine
 10
9096.62750789964
 20
8692.043182432326
 30
0.0
 11
9096.62750789964
 21
8744.443182432327
 31
0.0
  0
ARC
  5
17ACD
330
17B6C
100
AcDbEntity
  8
U1
100
AcDbCircle
 10
9102.927507899638
 20
8744.443182432327
 30
0.0
 40
6.299999999999272
100
AcDbArc
 50
89.99999999998344
 51
180.0
  0
LINE
  5
17ACE
330
17B6C
100
AcDbEntity
  8
U1
100
AcDbLine
 10
9102.927507899641
 20
8750.743182432326
 30
0.0
 11
9155.32750789964
 21
8750.743182432326
 31
0.0
  0
ARC
  5
17ACF
330
17B6C
100
AcDbEntity
  8
U1
100
AcDbCircle
 10
9155.32750789964
 20
8744.443182432327
 30
0.0
 40
6.299999999999272
100
AcDbArc
 50
0.0
 51
90.0
  0
LINE
  5
17AD0
330
17B6C
100
AcDbEntity
  8
U1
100
AcDbLine
 10
9161.627507899641
 20
8744.443182432327
 30
0.0
 11
9161.627507899641
 21
8692.043182432326
 31
0.0
  0
ARC
  5
17AD1
330
17B6C
100
AcDbEntity
  8
U1
100
AcDbCircle
 10
7755.327507899639
 20
8692.043182432326
 30
0.0
 40
6.299999999999272
100
AcDbArc
 50
269.9999999999918
 51
0.0
  0
LINE
  5
17AD2
330
17B6C
100
AcDbEntity
  8
U1
100
AcDbLine
 10
7755.327507899639
 20
8685.743182432327
 30
0.0
 11
7747.927507899639
 21
8685.743182432327
 31
0.0
  0
ARC
  5
17AD3
330
17B6C
100
AcDbEntity
  8
U1
100
AcDbCircle
 10
7747.927507899639
 20
8692.043182432326
 30
0.0
 40
6.299999999999272
100
AcDbArc
 50
179.9999999999833
 51
270.0
  0
ARC
  5
17AD4
330
17B6C
100
AcDbEntity
  8
U1
100
AcDbCircle
 10
7735.327507899639
 20
8692.043182432326
 30
0.0
 40
6.300000000000181
100
AcDbArc
 50
270.0
 51
0.0000000000165429
  0
LINE
  5
17AD5
330
17B6C
100
AcDbEntity
  8
U1
100
AcDbLine
 10
7735.327507899639
 20
8685.743182432327
 30
0.0
 11
7702.927507899639
 21
8685.743182432327
 31
0.0
  0
ARC
  5
17AD6
330
17B6C
100
AcDbEntity
  8
U1
100
AcDbCircle
 10
7702.927507899639
 20
8692.043182432326
 30
0.0
 40
6.299999999999272
100
AcDbArc
 50
179.9999999999833
 51
270.0
  0
LINE
  5
17AD7
330
17B6C
100
AcDbEntity
  8
U1
100
AcDbLine
 10
7696.627507899639
 20
8692.043182432326
 30
0.0
 11
7696.627507899639
 21
8744.443182432327
 31
0.0
  0
ARC
  5
17AD8
330
17B6C
100
AcDbEntity
  8
U1
100
AcDbCircle
 10
7702.927507899637
 20
8744.443182432327
 30
0.0
 40
6.299999999999272
100
AcDbArc
 50
89.99999999999173
 51
180.0
  0
LINE
  5
17AD9
330
17B6C
100
AcDbEntity
  8
U1
100
AcDbLine
 10
7702.927507899639
 20
8750.743182432326
 30
0.0
 11
7755.327507899639
 21
8750.743182432326
 31
0.0
  0
ARC
  5
17ADA
330
17B6C
100
AcDbEntity
  8
U1
100
AcDbCircle
 10
7755.327507899639
 20
8744.443182432327
 30
0.0
 40
6.299999999999272
100
AcDbArc
 50
0.0
 51
90.00000000000826
  0
LINE
  5
17ADB
330
17B6C
100
AcDbEntity
  8
U1
100
AcDbLine
 10
7761.627507899639
 20
8744.443182432327
 30
0.0
 11
7761.627507899639
 21
8692.043182432326
 31
0.0
  0
ARC
  5
17ADC
330
17B6C
100
AcDbEntity
  8
U1
100
AcDbCircle
 10
4892.927507899639
 20
8692.043182432326
 30
0.0
 40
6.300000000000181
100
AcDbArc
 50
179.9999999999833
 51
270.0
  0
LINE
  5
17ADD
330
17B6C
100
AcDbEntity
  8
U1
100
AcDbLine
 10
4892.927507899639
 20
8685.743182432327
 30
0.0
 11
4900.327507899639
 21
8685.743182432327
 31
0.0
  0
ARC
  5
17ADE
330
17B6C
100
AcDbEntity
  8
U1
100
AcDbCircle
 10
4900.327507899639
 20
8692.043182432326
 30
0.0
 40
6.299999999999272
100
AcDbArc
 50
270.0
 51
0.0000000000165429
  0
ARC
  5
17ADF
330
17B6C
100
AcDbEntity
  8
U1
100
AcDbCircle
 10
4912.927507899638
 20
8692.043182432326
 30
0.0
 40
6.300000000000181
100
AcDbArc
 50
179.9999999999833
 51
270.0
  0
LINE
  5
17AE0
330
17B6C
100
AcDbEntity
  8
U1
100
AcDbLine
 10
4912.927507899638
 20
8685.743182432327
 30
0.0
 11
4945.327507899638
 21
8685.743182432327
 31
0.0
  0
ARC
  5
17AE1
330
17B6C
100
AcDbEntity
  8
U1
100
AcDbCircle
 10
4945.327507899641
 20
8692.043182432326
 30
0.0
 40
6.299999999999272
100
AcDbArc
 50
269.9999999999918
 51
0.0
  0
LINE
  5
17AE2
330
17B6C
100
AcDbEntity
  8
U1
100
AcDbLine
 10
4951.627507899639
 20
8692.043182432326
 30
0.0
 11
4951.627507899639
 21
8744.443182432327
 31
0.0
  0
ARC
  5
17AE3
330
17B6C
100
AcDbEntity
  8
U1
100
AcDbCircle
 10
4945.327507899641
 20
8744.443182432327
 30
0.0
 40
6.299999999999272
100
AcDbArc
 50
0.0
 51
90.00000000000826
  0
LINE
  5
17AE4
330
17B6C
100
AcDbEntity
  8
U1
100
AcDbLine
 10
4945.327507899638
 20
8750.743182432326
 30
0.0
 11
4892.927507899639
 21
8750.743182432326
 31
0.0
  0
ARC
  5
17AE5
330
17B6C
100
AcDbEntity
  8
U1
100
AcDbCircle
 10
4892.927507899639
 20
8744.443182432327
 30
0.0
 40
6.299999999999272
100
AcDbArc
 50
89.99999999999173
 51
180.0
  0
LINE
  5
17AE6
330
17B6C
100
AcDbEntity
  8
U1
100
AcDbLine
 10
4886.627507899639
 20
8744.443182432327
 30
0.0
 11
4886.627507899639
 21
8692.043182432326
 31
0.0
  0
ARC
  5
17AE7
330
17B6C
100
AcDbEntity
  8
U1
100
AcDbCircle
 10
7755.327507899639
 20
6934.443182432328
 30
0.0
 40
6.299999999999272
100
AcDbArc
 50
359.9999999999917
 51
90.00000000000826
  0
LINE
  5
17AE8
330
17B6C
100
AcDbEntity
  8
U1
100
AcDbLine
 10
7755.327507899639
 20
6940.743182432327
 30
0.0
 11
7747.927507899639
 21
6940.743182432327
 31
0.0
  0
ARC
  5
17AE9
330
17B6C
100
AcDbEntity
  8
U1
100
AcDbCircle
 10
7747.927507899636
 20
6934.443182432328
 30
0.0
 40
6.299999999999272
100
AcDbArc
 50
89.99999999999173
 51
180.0000000000082
  0
ARC
  5
17AEA
330
17B6C
100
AcDbEntity
  8
U1
100
AcDbCircle
 10
7735.327507899639
 20
6934.443182432325
 30
0.0
 40
6.300000000000181
100
AcDbArc
 50
0.0
 51
90.0
  0
LINE
  5
17AEB
330
17B6C
100
AcDbEntity
  8
U1
100
AcDbLine
 10
7735.327507899639
 20
6940.743182432327
 30
0.0
 11
7702.927507899639
 21
6940.743182432327
 31
0.0
  0
ARC
  5
17AEC
330
17B6C
100
AcDbEntity
  8
U1
100
AcDbCircle
 10
7702.927507899637
 20
6934.443182432328
 30
0.0
 40
6.299999999999272
100
AcDbArc
 50
89.99999999999173
 51
180.0000000000082
  0
LINE
  5
17AED
330
17B6C
100
AcDbEntity
  8
U1
100
AcDbLine
 10
7696.627507899639
 20
6934.443182432325
 30
0.0
 11
7696.627507899639
 21
6882.043182432325
 31
0.0
  0
ARC
  5
17AEE
330
17B6C
100
AcDbEntity
  8
U1
100
AcDbCircle
 10
7702.927507899637
 20
6882.043182432325
 30
0.0
 40
6.299999999999272
100
AcDbArc
 50
180.0
 51
270.0000000000081
  0
LINE
  5
17AEF
330
17B6C
100
AcDbEntity
  8
U1
100
AcDbLine
 10
7702.927507899639
 20
6875.743182432326
 30
0.0
 11
7755.327507899639
 21
6875.743182432326
 31
0.0
  0
ARC
  5
17AF0
330
17B6C
100
AcDbEntity
  8
U1
100
AcDbCircle
 10
7755.327507899639
 20
6882.043182432325
 30
0.0
 40
6.299999999999272
100
AcDbArc
 50
269.9999999999918
 51
0.0
  0
LINE
  5
17AF1
330
17B6C
100
AcDbEntity
  8
U1
100
AcDbLine
 10
7761.627507899639
 20
6882.043182432325
 30
0.0
 11
7761.627507899639
 21
6934.443182432325
 31
0.0
  0
ARC
  5
17AF2
330
17B6C
100
AcDbEntity
  8
U1
100
AcDbCircle
 10
4892.927507899639
 20
6934.443182432328
 30
0.0
 40
6.299999999999272
100
AcDbArc
 50
89.99999999999173
 51
180.0000000000082
  0
LINE
  5
17AF3
330
17B6C
100
AcDbEntity
  8
U1
100
AcDbLine
 10
4892.927507899639
 20
6940.743182432327
 30
0.0
 11
4900.327507899639
 21
6940.743182432327
 31
0.0
  0
ARC
  5
17AF4
330
17B6C
100
AcDbEntity
  8
U1
100
AcDbCircle
 10
4900.327507899639
 20
6934.443182432328
 30
0.0
 40
6.299999999999272
100
AcDbArc
 50
359.9999999999917
 51
90.00000000000826
  0
ARC
  5
17AF5
330
17B6C
100
AcDbEntity
  8
U1
100
AcDbCircle
 10
4912.927507899638
 20
6934.443182432325
 30
0.0
 40
6.300000000000181
100
AcDbArc
 50
90.0
 51
180.0
  0
LINE
  5
17AF6
330
17B6C
100
AcDbEntity
  8
U1
100
AcDbLine
 10
4912.927507899638
 20
6940.743182432327
 30
0.0
 11
4945.327507899638
 21
6940.743182432327
 31
0.0
  0
ARC
  5
17AF7
330
17B6C
100
AcDbEntity
  8
U1
100
AcDbCircle
 10
4945.327507899641
 20
6934.443182432328
 30
0.0
 40
6.299999999999272
100
AcDbArc
 50
359.9999999999917
 51
90.00000000000826
  0
LINE
  5
17AF8
330
17B6C
100
AcDbEntity
  8
U1
100
AcDbLine
 10
4951.627507899639
 20
6934.443182432325
 30
0.0
 11
4951.627507899639
 21
6882.043182432325
 31
0.0
  0
ARC
  5
17AF9
330
17B6C
100
AcDbEntity
  8
U1
100
AcDbCircle
 10
4945.327507899641
 20
6882.043182432325
 30
0.0
 40
6.299999999999272
100
AcDbArc
 50
269.9999999999918
 51
0.0
  0
LINE
  5
17AFA
330
17B6C
100
AcDbEntity
  8
U1
100
AcDbLine
 10
4945.327507899638
 20
6875.743182432326
 30
0.0
 11
4892.927507899639
 21
6875.743182432326
 31
0.0
  0
ARC
  5
17AFB
330
17B6C
100
AcDbEntity
  8
U1
100
AcDbCircle
 10
4892.927507899639
 20
6882.043182432325
 30
0.0
 40
6.299999999999272
100
AcDbArc
 50
180.0
 51
270.0000000000081
  0
LINE
  5
17AFC
330
17B6C
100
AcDbEntity
  8
U1
100
AcDbLine
 10
4886.627507899639
 20
6882.043182432325
 30
0.0
 11
4886.627507899639
 21
6934.443182432325
 31
0.0
  0
ARC
  5
17AFD
330
17B6C
100
AcDbEntity
  8
U1
100
AcDbCircle
 10
9155.32750789964
 20
6934.443182432325
 30
0.0
 40
6.299999999999272
100
AcDbArc
 50
0.0
 51
90.00000000001655
  0
LINE
  5
17AFE
330
17B6C
100
AcDbEntity
  8
U1
100
AcDbLine
 10
9155.327507899638
 20
6940.743182432327
 30
0.0
 11
9147.927507899643
 21
6940.743182432327
 31
0.0
  0
ARC
  5
17AFF
330
17B6C
100
AcDbEntity
  8
U1
100
AcDbCircle
 10
9147.927507899638
 20
6934.443182432325
 30
0.0
 40
6.300000000000181
100
AcDbArc
 50
89.99999999998344
 51
180.0
  0
ARC
  5
17B00
330
17B6C
100
AcDbEntity
  8
U1
100
AcDbCircle
 10
9135.327507899637
 20
6934.443182432325
 30
0.0
 40
6.299999999999272
100
AcDbArc
 50
0.0
 51
90.00000000001655
  0
LINE
  5
17B01
330
17B6C
100
AcDbEntity
  8
U1
100
AcDbLine
 10
9135.327507899637
 20
6940.743182432327
 30
0.0
 11
9102.927507899641
 21
6940.743182432327
 31
0.0
  0
ARC
  5
17B02
330
17B6C
100
AcDbEntity
  8
U1
100
AcDbCircle
 10
9102.927507899638
 20
6934.443182432325
 30
0.0
 40
6.300000000000181
100
AcDbArc
 50
89.99999999998344
 51
180.0
  0
LINE
  5
17B03
330
17B6C
100
AcDbEntity
  8
U1
100
AcDbLine
 10
9096.62750789964
 20
6934.443182432325
 30
0.0
 11
9096.62750789964
 21
6882.043182432325
 31
0.0
  0
ARC
  5
17B04
330
17B6C
100
AcDbEntity
  8
U1
100
AcDbCircle
 10
9102.927507899638
 20
6882.043182432325
 30
0.0
 40
6.299999999999272
100
AcDbArc
 50
180.0000000000082
 51
270.0000000000165
  0
LINE
  5
17B05
330
17B6C
100
AcDbEntity
  8
U1
100
AcDbLine
 10
9102.927507899641
 20
6875.743182432326
 30
0.0
 11
9155.327507899638
 21
6875.743182432326
 31
0.0
  0
ARC
  5
17B06
330
17B6C
100
AcDbEntity
  8
U1
100
AcDbCircle
 10
9155.32750789964
 20
6882.043182432325
 30
0.0
 40
6.300000000000181
100
AcDbArc
 50
269.9999999999834
 51
359.9999999999917
  0
LINE
  5
17B07
330
17B6C
100
AcDbEntity
  8
U1
100
AcDbLine
 10
9161.627507899641
 20
6882.043182432325
 30
0.0
 11
9161.627507899641
 21
6934.443182432325
 31
0.0
  0
ARC
  5
17B08
330
17B6C
100
AcDbEntity
  8
U1
100
AcDbCircle
 10
11965.32750789964
 20
6934.443182432325
 30
0.0
 40
6.299999999999272
100
AcDbArc
 50
0.0
 51
90.00000000001655
  0
LINE
  5
17B09
330
17B6C
100
AcDbEntity
  8
U1
100
AcDbLine
 10
11965.32750789964
 20
6940.743182432327
 30
0.0
 11
11957.92750789964
 21
6940.743182432327
 31
0.0
  0
ARC
  5
17B0A
330
17B6C
100
AcDbEntity
  8
U1
100
AcDbCircle
 10
11957.92750789964
 20
6934.443182432325
 30
0.0
 40
6.300000000000181
100
AcDbArc
 50
89.99999999998344
 51
180.0
  0
ARC
  5
17B0B
330
17B6C
100
AcDbEntity
  8
U1
100
AcDbCircle
 10
11945.32750789964
 20
6934.443182432325
 30
0.0
 40
6.299999999999272
100
AcDbArc
 50
0.0
 51
90.00000000001655
  0
LINE
  5
17B0C
330
17B6C
100
AcDbEntity
  8
U1
100
AcDbLine
 10
11945.32750789964
 20
6940.743182432327
 30
0.0
 11
11912.92750789964
 21
6940.743182432327
 31
0.0
  0
ARC
  5
17B0D
330
17B6C
100
AcDbEntity
  8
U1
100
AcDbCircle
 10
11912.92750789964
 20
6934.443182432325
 30
0.0
 40
6.300000000000181
100
AcDbArc
 50
89.99999999998344
 51
180.0
  0
LINE
  5
17B0E
330
17B6C
100
AcDbEntity
  8
U1
100
AcDbLine
 10
11906.62750789964
 20
6934.443182432325
 30
0.0
 11
11906.62750789964
 21
6882.043182432325
 31
0.0
  0
ARC
  5
17B0F
330
17B6C
100
AcDbEntity
  8
U1
100
AcDbCircle
 10
11912.92750789964
 20
6882.043182432325
 30
0.0
 40
6.299999999999272
100
AcDbArc
 50
180.0000000000082
 51
270.0000000000165
  0
LINE
  5
17B10
330
17B6C
100
AcDbEntity
  8
U1
100
AcDbLine
 10
11912.92750789964
 20
6875.743182432326
 30
0.0
 11
11965.32750789964
 21
6875.743182432326
 31
0.0
  0
ARC
  5
17B11
330
17B6C
100
AcDbEntity
  8
U1
100
AcDbCircle
 10
11965.32750789964
 20
6882.043182432325
 30
0.0
 40
6.300000000000181
100
AcDbArc
 50
269.9999999999834
 51
359.9999999999917
  0
LINE
  5
17B12
330
17B6C
100
AcDbEntity
  8
U1
100
AcDbLine
 10
11971.62750789964
 20
6882.043182432325
 30
0.0
 11
11971.62750789964
 21
6934.443182432325
 31
0.0
  0
TEXT
  5
17BC1
330
17B6C
100
AcDbEntity
  8
SUNPOU
100
AcDbText
 10
8138.737247540076
 20
3079.856375231009
 30
0.0
 40
89.9993750043402
  1
50  N/m
 41
0.6700000000000001
  7
01
100
AcDbText
  0
TEXT
  5
17BC2
330
17B6C
100
AcDbEntity
  8
SUNPOU
100
AcDbText
 10
7759.272354255914
 20
3426.610377676963
 30
0.0
 40
120.0
  1
基礎断面図
  7
01
 72
     4
 11
8099.272354255914
 21
3486.610377676963
 31
0.0
100
AcDbText
  0
TEXT
  5
17BC3
330
17B6C
100
AcDbEntity
  8
SUNPOU
100
AcDbText
 10
7633.915211398771
 20
3269.110377676965
 30
0.0
 40
90.0
  1
<下記条件での参考図>
  7
01
 72
     4
 11
8222.772354255914
 21
3314.110377676965
 31
0.0
100
AcDbText
  0
TEXT
  5
17BC4
330
17B6C
100
AcDbEntity
  8
SUNPOU
100
AcDbText
 10
7764.478840115003
 20
2925.570660945293
 30
0.0
 40
89.9993750043402
  1
基準風速   　　 , 地表面粗度区分
  7
01
100
AcDbText
  0
TEXT
  5
17BC5
330
17B6C
100
AcDbEntity
  8
SUNPOU
100
AcDbText
 10
8073.46506300689
 20
2582.032147275054
 30
0.0
 40
90.0
  1
あわせて設計して下さい。
  7
01
100
AcDbText
  0
TEXT
  5
17BC6
330
17B6C
100
AcDbEntity
  8
SUNPOU
100
AcDbText
 10
7764.478840115003
 20
3079.856375231009
 30
0.0
 40
89.9993750043402
  1
地耐力   　　　 以上,コンクリート設計基準強度　　　　　以上
  7
01
100
AcDbText
  0
TEXT
  5
17BC7
330
17B6C
100
AcDbEntity
  8
SUNPOU
100
AcDbText
 10
8073.46506300689
 20
2736.317861560773
 30
0.0
 40
90.0
  1
寒冷地の場合、凍結深度等を考慮し、実情に
  7
01
100
AcDbText
  0
TEXT
  5
17BC8
330
17B6C
100
AcDbEntity
  8
SUNPOU
100
AcDbText
 10
8073.46506300689
 20
2427.746432989344
 30
0.0
 40
90.0
  1
その他現地の実情にあわせて設計して下さい。
  7
01
100
AcDbText
  0
ARC
  5
17BC9
330
17B6C
100
AcDbEntity
  8
SUNPOU
100
AcDbCircle
 10
7917.437114022203
 20
3043.643798672841
 30
0.0
 40
225.0
100
AcDbArc
 50
148.3472725282761
 51
211.6527274717238
  0
TEXT
  5
17BCA
330
17B6C
100
AcDbEntity
  8
SUNPOU
100
AcDbText
 10
7756.625397704758
 20
2427.746432989344
 30
0.0
 40
90.0
  1
注　）
  7
01
100
AcDbText
  0
TEXT
  5
17BCB
330
17B6C
100
AcDbEntity
  8
SUNPOU
100
AcDbText
 10
7867.259317917497
 20
2427.746432989344
 30
0.0
 40
90.0
  1
2
 41
0.6700000000000001
  7
01
100
AcDbText
  0
TEXT
  5
17BCC
330
17B6C
100
AcDbEntity
  8
SUNPOU
100
AcDbText
 10
7756.625397704758
 20
2736.317861560773
 30
0.0
 40
90.0
  1
注　）
  7
01
100
AcDbText
  0
TEXT
  5
17BCD
330
17B6C
100
AcDbEntity
  8
SUNPOU
100
AcDbText
 10
7867.259317917497
 20
2736.317861560773
 30
0.0
 40
90.0
  1
1
 41
0.6700000000000001
  7
01
100
AcDbText
  0
TEXT
  5
17BCE
330
17B6C
100
AcDbEntity
  8
SUNPOU
100
AcDbText
 10
8248.242268780165
 20
2925.570660945293
 30
0.0
 40
89.9993750043402
  1
34 m/s
 41
0.6700000000000001
  7
01
100
AcDbText
  0
TEXT
  5
17BCF
330
17B6C
100
AcDbEntity
  8
SUNPOU
100
AcDbText
 10
8476.122691618884
 20
3438.918069984659
 30
0.0
 40
92.30769230769228
  1
（ S = 　　  ）
 41
0.6700000000000001
  7
00
 11
8476.122691618884
 21
3426.610377676967
 31
0.0
100
AcDbText
 73
     1
  0
TEXT
  5
17BD0
330
17B6C
100
AcDbEntity
  8
SUNPOU
100
AcDbText
 10
8844.231520787323
 20
3436.456531523121
 30
0.0
 40
73.84615384615384
  1
/
 41
0.6700000000000001
  7
00
 11
8844.231520787323
 21
3426.610377676967
 31
0.0
100
AcDbText
 73
     1
  0
TEXT
  5
17BD1
330
17B6C
100
AcDbEntity
  8
SUNPOU
100
AcDbText
 10
8795.825393471952
 20
3454.918069984659
 30
0.0
 40
73.84615384615384
  1
1
 41
0.6700000000000001
  7
00
 11
8795.825393471952
 21
3445.071916138505
 31
0.0
100
AcDbText
 73
     1
  0
TEXT
  5
17BD2
330
17B6C
100
AcDbEntity
  8
SUNPOU
100
AcDbText
 10
8542.213857054425
 20
3130.044801588494
 30
0.0
 40
46.28539285937498
  1
2
 41
0.6700000000000001
  7
00
100
AcDbText
  0
TEXT
  5
17BD3
330
17B6C
100
AcDbEntity
  8
SUNPOU
100
AcDbText
 10
8274.573700326024
 20
3079.856375231009
 30
0.0
 40
71.99950000347218
  1
K
 41
0.6700000000000001
  7
01
100
AcDbText
  0
TEXT
  5
17BD4
330
17B6C
100
AcDbEntity
  8
SUNPOU
100
AcDbText
 10
8908.180963741706
 20
3417.994993061579
 30
0.0
 40
73.84615384615384
  1
25
 41
0.6700000000000001
  7
00
 11
8908.180963741706
 21
3408.148839215426
 31
0.0
100
AcDbText
 73
     1
  0
LINE
  5
17BD5
330
17B6C
100
AcDbEntity
  8
SUNPOU
100
AcDbLine
 10
9601.294401681608
 20
2925.570660945293
 30
0.0
 11
9601.294401681608
 21
3009.063024644077
 31
0.0
  0
LINE
  5
17BD6
330
17B6C
100
AcDbEntity
  8
SUNPOU
100
AcDbLine
 10
9567.544401681606
 20
2925.570660945293
 30
0.0
 11
9567.544401681606
 21
3009.063024644077
 31
0.0
  0
LINE
  5
17BD7
330
17B6C
100
AcDbEntity
  8
SUNPOU
100
AcDbLine
 10
9584.419401681607
 20
2925.570660945293
 30
0.0
 11
9584.419401681607
 21
3009.063024644077
 31
0.0
  0
LINE
  5
17BD8
330
17B6C
100
AcDbEntity
  8
SUNPOU
100
AcDbLine
 10
9556.294401681608
 20
3009.063024644077
 30
0.0
 11
9612.544401681608
 21
3009.063024644077
 31
0.0
  0
LINE
  5
17BD9
330
17B6C
100
AcDbEntity
  8
SUNPOU
100
AcDbLine
 10
9556.294401681608
 20
2925.570660945293
 30
0.0
 11
9612.544401681608
 21
2925.570660945293
 31
0.0
  0
TEXT
  5
17BDA
330
17B6C
100
AcDbEntity
  8
SUNPOU
100
AcDbText
 10
10183.4893184017
 20
3079.856375231009
 30
0.0
 40
89.9993750043402
  1
18
 41
0.6700000000000001
  7
01
100
AcDbText
  0
TEXT
  5
17BDB
330
17B6C
100
AcDbEntity
  8
SUNPOU
100
AcDbText
 10
10319.32577118765
 20
3079.856375231009
 30
0.0
 40
89.9993750043402
  1
N/mm
 41
0.6700000000000001
  7
01
100
AcDbText
  0
TEXT
  5
17BDC
330
17B6C
100
AcDbEntity
  8
SUNPOU
100
AcDbText
 10
10623.79025321905
 20
3130.044801588494
 30
0.0
 40
46.28539285937498
  1
2
 41
0.6700000000000001
  7
00
100
AcDbText
  0
ARC
  5
17BDD
330
17B6C
100
AcDbEntity
  8
SUNPOU
100
AcDbCircle
 10
10772.66751775267
 20
3066.128079458631
 30
0.0
 40
225.0
100
AcDbArc
 50
328.3472725282761
 51
31.65272747172387
  0
ENDSEC
  0
SECTION
  2
OBJECTS
  0
DICTIONARY
  5
17B5C
330
0
100
AcDbDictionary
281
     1
  3
ACAD_GROUP
350
17B5D
  3
ACAD_LAYOUT
350
17B69
  3
ACAD_MLEADERSTYLE
350
17B98
  3
ACAD_MLINESTYLE
350
17B66
  3
ACAD_PLOTSETTINGS
350
17B68
  3
ACAD_PLOTSTYLENAME
350
17B5E
  3
ACAD_TABLESTYLE
350
17B97
  3
AcDbVariableDictionary
350
17BDE
  0
DICTIONARY
  5
17B5D
102
{ACAD_REACTORS
330
17B5C
102
}
330
17B5C
100
AcDbDictionary
281
     1
  0
DICTIONARY
  5
17B69
102
{ACAD_REACTORS
330
17B5C
102
}
330
17B5C
100
AcDbDictionary
281
     1
  3
Layout1
350
17B6B
  3
Model
350
17B6D
  0
DICTIONARY
  5
17B98
102
{ACAD_REACTORS
330
17B5C
102
}
330
17B5C
100
AcDbDictionary
281
     1
  0
DICTIONARY
  5
17B66
102
{ACAD_REACTORS
330
17B5C
102
}
330
17B5C
100
AcDbDictionary
281
     1
  3
Standard
350
17B67
  0
DICTIONARY
  5
17B68
102
{ACAD_REACTORS
330
17B5C
102
}
330
17B5C
100
AcDbDictionary
281
     1
  0
ACDBDICTIONARYWDFLT
  5
17B5E
102
{ACAD_REACTORS
330
17B5C
102
}
330
17B5C
100
AcDbDictionary
281
     1
  3
Normal
350
17B5F
100
AcDbDictionaryWithDefault
340
17B5F
  0
DICTIONARY
  5
17B97
102
{ACAD_REACTORS
330
17B5C
102
}
330
17B5C
100
AcDbDictionary
281
     1
  0
DICTIONARY
  5
17BDE
102
{ACAD_REACTORS
330
17B5C
102
}
330
17B5C
100
AcDbDictionary
281
     1
  3
DIMASSOC
350
17BDF
  0
LAYOUT
  5
17B6B
102
{ACAD_REACTORS
330
17B69
102
}
330
17B69
100
AcDbPlotSettings
  1

  2
none_device
  4

  6

 40
0.0
 41
0.0
 42
0.0
 43
0.0
 44
0.0
 45
0.0
 46
0.0
 47
0.0
 48
0.0
 49
0.0
140
0.0
141
0.0
142
1.0
143
1.0
 70
   688
 72
     0
 73
     0
 74
     5
  7

 75
    16
147
1.0
148
0.0
149
0.0
100
AcDbLayout
  1
Layout1
 70
     0
 71
     1
 10
0.0
 20
0.0
 11
12.0
 21
9.0
 12
0.0
 22
0.0
 32
0.0
 14
1.000000000000000E+20
 24
1.000000000000000E+20
 34
1.000000000000000E+20
 15
-1.000000000000000E+20
 25
-1.000000000000000E+20
 35
-1.000000000000000E+20
146
0.0
 13
0.0
 23
0.0
 33
0.0
 16
1.0
 26
0.0
 36
0.0
 17
0.0
 27
1.0
 37
0.0
 76
     0
330
17B6A
  0
LAYOUT
  5
17B6D
102
{ACAD_REACTORS
330
17B69
102
}
330
17B69
100
AcDbPlotSettings
  1

  2
none_device
  4

  6

 40
0.0
 41
0.0
 42
0.0
 43
0.0
 44
0.0
 45
0.0
 46
0.0
 47
0.0
 48
0.0
 49
0.0
140
0.0
141
0.0
142
1.0
143
1.0
 70
  1712
 72
     0
 73
     0
 74
     0
  7

 75
     0
147
1.0
148
0.0
149
0.0
100
AcDbLayout
  1
Model
 70
     1
 71
     0
 10
0.0
 20
0.0
 11
12.0
 21
9.0
 12
267.0
 22
194.8999999999998
 32
0.0
 14
433.9966216520332
 24
163.6908237492789
 34
-0.0000000000000053
 15
16382.66605425469
 25
11242.27663824599
 35
0.0000000000000099
146
0.0
 13
0.0
 23
0.0
 33
0.0
 16
1.0
 26
0.0
 36
0.0
 17
0.0
 27
1.0
 37
0.0
 76
     0
330
17B6C
331
17B6F
  0
MLINESTYLE
  5
17B67
102
{ACAD_REACTORS
330
17B66
102
}
330
17B66
100
AcDbMlineStyle
  2
STANDARD
 70
     0
  3

 62
   256
 51
90.0
 52
90.0
 71
     2
 49
0.5
 62
   256
  6
BYLAYER
 49
-0.5
 62
   256
  6
BYLAYER
  0
ACDBPLACEHOLDER
  5
17B5F
102
{ACAD_REACTORS
330
17B5E
102
}
330
17B5E
  0
DICTIONARYVAR
  5
17BDF
102
{ACAD_REACTORS
330
17BDE
102
}
330
17BDE
100
DictionaryVariables
280
     0
  1
1
  0
ENDSEC
  0
EOF
