  0
SECTION
  2
HEADER
  9
$ACADVER
  1
AC1024
  9
$ACADMAINTVER
 70
    37
  9
$DWGCODEPAGE
  3
ANSI_932
  9
$LASTSAVEDBY
  1
93036
  9
$INSBASE
 10
267.0000000000001
 20
194.8999999999998
 30
0.0
  9
$EXTMIN
 10
433.9966216520333
 20
163.6908237492789
 30
-0.0015258207003583
  9
$EXTMAX
 10
16382.6660542547
 20
11242.27663824599
 30
0.0000000349246037
  9
$LIMMIN
 10
0.0
 20
0.0
  9
$LIMMAX
 10
16800.0
 20
11880.0
  9
$ORTHOMODE
 70
     0
  9
$REGENMODE
 70
     1
  9
$FILLMODE
 70
     1
  9
$QTEXTMODE
 70
     0
  9
$MIRRTEXT
 70
     0
  9
$LTSCALE
 40
40.0
  9
$ATTMODE
 70
     1
  9
$TEXTSIZE
 40
0.2
  9
$TRACEWID
 40
0.05
  9
$TEXTSTYLE
  7
00
  9
$CLAYER
  8
HIKIDASHI
  9
$CELTYPE
  6
BYLAYER
  9
$CECOLOR
 62
   256
  9
$CELTSCALE
 40
1.0
  9
$DISPSILH
 70
     0
  9
$DIMSCALE
 40
40.0
  9
$DIMASZ
 40
0.5
  9
$DIMEXO
 40
1.0
  9
$DIMDLI
 40
7.0
  9
$DIMRND
 40
0.0
  9
$DIMDLE
 40
3.0
  9
$DIMEXE
 40
1.0
  9
$DIMTP
 40
0.0
  9
$DIMTM
 40
0.0
  9
$DIMTXT
 40
2.0
  9
$DIMCEN
 40
0.0
  9
$DIMTSZ
 40
0.0
  9
$DIMTOL
 70
     0
  9
$DIMLIM
 70
     0
  9
$DIMTIH
 70
     0
  9
$DIMTOH
 70
     0
  9
$DIMSE1
 70
     0
  9
$DIMSE2
 70
     0
  9
$DIMTAD
 70
     1
  9
$DIMZIN
 70
     8
  9
$DIMBLK
  1
DOT
  9
$DIMASO
 70
     1
  9
$DIMSHO
 70
     0
  9
$DIMPOST
  1

  9
$DIMAPOST
  1

  9
$DIMALT
 70
     0
  9
$DIMALTD
 70
     2
  9
$DIMALTF
 40
25.4
  9
$DIMLFAC
 40
1.0
  9
$DIMTOFL
 70
     1
  9
$DIMTVP
 40
0.0
  9
$DIMTIX
 70
     0
  9
$DIMSOXD
 70
     0
  9
$DIMSAH
 70
     1
  9
$DIMBLK1
  1
DOT
  9
$DIMBLK2
  1
DOT
  9
$DIMSTYLE
  2
SUNPOU_申請図
  9
$DIMCLRD
 70
   256
  9
$DIMCLRE
 70
   256
  9
$DIMCLRT
 70
   256
  9
$DIMTFAC
 40
1.0
  9
$DIMGAP
 40
1.0
  9
$DIMJUST
 70
     0
  9
$DIMSD1
 70
     0
  9
$DIMSD2
 70
     0
  9
$DIMTOLJ
 70
     1
  9
$DIMTZIN
 70
     0
  9
$DIMALTZ
 70
     0
  9
$DIMALTTZ
 70
     0
  9
$DIMUPT
 70
     0
  9
$DIMDEC
 70
     2
  9
$DIMTDEC
 70
     2
  9
$DIMALTU
 70
     2
  9
$DIMALTTD
 70
     2
  9
$DIMTXSTY
  7
00
  9
$DIMAUNIT
 70
     0
  9
$DIMADEC
 70
     0
  9
$DIMALTRND
 40
0.0
  9
$DIMAZIN
 70
     0
  9
$DIMDSEP
 70
    46
  9
$DIMATFIT
 70
     3
  9
$DIMFRAC
 70
     0
  9
$DIMLDRBLK
  1
DOT
  9
$DIMLUNIT
 70
     2
  9
$DIMLWD
 70
    -2
  9
$DIMLWE
 70
    -2
  9
$DIMTMOVE
 70
     0
  9
$DIMFXL
 40
1.0
  9
$DIMFXLON
 70
     0
  9
$DIMJOGANG
 40
0.7853981633974483
  9
$DIMTFILL
 70
     0
  9
$DIMTFILLCLR
 70
     0
  9
$DIMARCSYM
 70
     0
  9
$DIMLTYPE
  6

  9
$DIMLTEX1
  6

  9
$DIMLTEX2
  6

  9
$DIMTXTDIRECTION
 70
     0
  9
$LUNITS
 70
     2
  9
$LUPREC
 70
     2
  9
$SKETCHINC
 40
0.1
  9
$FILLETRAD
 40
0.0
  9
$AUNITS
 70
     0
  9
$AUPREC
 70
     0
  9
$MENU
  1
A:\TIGER\MENU\TIGER
  9
$ELEVATION
 40
0.0
  9
$PELEVATION
 40
0.0
  9
$THICKNESS
 40
0.0
  9
$LIMCHECK
 70
     0
  9
$CHAMFERA
 40
0.0
  9
$CHAMFERB
 40
0.0
  9
$CHAMFERC
 40
0.0
  9
$CHAMFERD
 40
0.0
  9
$SKPOLY
 70
     0
  9
$TDCREATE
 40
2450266.571064815
  9
$TDUCREATE
 40
2450266.196064815
  9
$TDUPDATE
 40
2456399.988996609
  9
$TDUUPDATE
 40
2456399.613996609
  9
$TDINDWG
 40
0.1550025000
  9
$TDUSRTIMER
 40
0.1550025000
  9
$USRTIMER
 70
     1
  9
$ANGBASE
 50
0.0
  9
$ANGDIR
 70
     0
  9
$PDMODE
 70
     0
  9
$PDSIZE
 40
0.0
  9
$PLINEWID
 40
0.0
  9
$SPLFRAME
 70
     0
  9
$SPLINETYPE
 70
     6
  9
$SPLINESEGS
 70
     8
  9
$HANDSEED
  5
17D77
  9
$SURFTAB1
 70
     6
  9
$SURFTAB2
 70
     6
  9
$SURFTYPE
 70
     6
  9
$SURFU
 70
     6
  9
$SURFV
 70
     6
  9
$UCSBASE
  2

  9
$UCSNAME
  2

  9
$UCSORG
 10
0.0
 20
0.0
 30
0.0
  9
$UCSXDIR
 10
1.0
 20
0.0
 30
0.0
  9
$UCSYDIR
 10
0.0
 20
1.0
 30
0.0
  9
$UCSORTHOREF
  2

  9
$UCSORTHOVIEW
 70
     0
  9
$UCSORGTOP
 10
0.0
 20
0.0
 30
0.0
  9
$UCSORGBOTTOM
 10
0.0
 20
0.0
 30
0.0
  9
$UCSORGLEFT
 10
0.0
 20
0.0
 30
0.0
  9
$UCSORGRIGHT
 10
0.0
 20
0.0
 30
0.0
  9
$UCSORGFRONT
 10
0.0
 20
0.0
 30
0.0
  9
$UCSORGBACK
 10
0.0
 20
0.0
 30
0.0
  9
$PUCSBASE
  2

  9
$PUCSNAME
  2

  9
$PUCSORG
 10
0.0
 20
0.0
 30
0.0
  9
$PUCSXDIR
 10
1.0
 20
0.0
 30
0.0
  9
$PUCSYDIR
 10
0.0
 20
1.0
 30
0.0
  9
$PUCSORTHOREF
  2

  9
$PUCSORTHOVIEW
 70
     0
  9
$PUCSORGTOP
 10
0.0
 20
0.0
 30
0.0
  9
$PUCSORGBOTTOM
 10
0.0
 20
0.0
 30
0.0
  9
$PUCSORGLEFT
 10
0.0
 20
0.0
 30
0.0
  9
$PUCSORGRIGHT
 10
0.0
 20
0.0
 30
0.0
  9
$PUCSORGFRONT
 10
0.0
 20
0.0
 30
0.0
  9
$PUCSORGBACK
 10
0.0
 20
0.0
 30
0.0
  9
$USERI1
 70
     3
  9
$USERI2
 70
     0
  9
$USERI3
 70
     0
  9
$USERI4
 70
     0
  9
$USERI5
 70
  1103
  9
$USERR1
 40
0.0
  9
$USERR2
 40
1.0
  9
$USERR3
 40
0.0
  9
$USERR4
 40
0.0
  9
$USERR5
 40
0.0
  9
$WORLDVIEW
 70
     1
  9
$SHADEDGE
 70
     3
  9
$SHADEDIF
 70
    70
  9
$TILEMODE
 70
     1
  9
$MAXACTVP
 70
    16
  9
$PINSBASE
 10
267.0000000000001
 20
194.8999999999998
 30
0.0
  9
$PLIMCHECK
 70
     0
  9
$PEXTMIN
 10
1.000000000000000E+20
 20
1.000000000000000E+20
 30
1.000000000000000E+20
  9
$PEXTMAX
 10
-1.000000000000000E+20
 20
-1.000000000000000E+20
 30
-1.000000000000000E+20
  9
$PLIMMIN
 10
0.0
 20
0.0
  9
$PLIMMAX
 10
12.0
 20
9.0
  9
$UNITMODE
 70
     0
  9
$VISRETAIN
 70
     0
  9
$PLINEGEN
 70
     1
  9
$PSLTSCALE
 70
     0
  9
$TREEDEPTH
 70
  3020
  9
$CMLSTYLE
  2
STANDARD
  9
$CMLJUST
 70
     0
  9
$CMLSCALE
 40
1.0
  9
$PROXYGRAPHICS
 70
     1
  9
$MEASUREMENT
 70
     0
  9
$CELWEIGHT
370
    -1
  9
$ENDCAPS
280
     0
  9
$JOINSTYLE
280
     0
  9
$LWDISPLAY
290
     0
  9
$INSUNITS
 70
     0
  9
$HYPERLINKBASE
  1

  9
$STYLESHEET
  1
SINSEI-A3.CTB
  9
$XEDIT
290
     1
  9
$CEPSNTYPE
380
     0
  9
$PSTYLEMODE
290
     1
  9
$FINGERPRINTGUID
  2
{E6DDE4A3-3185-11D4-AFBC-0040266D0056}
  9
$VERSIONGUID
  2
{C1C0E166-077E-4236-AF33-CEB51C624ED8}
  9
$EXTNAMES
290
     1
  9
$PSVPSCALE
 40
0.0
  9
$OLESTARTUP
290
     0
  9
$SORTENTS
280
   127
  9
$INDEXCTL
280
     0
  9
$HIDETEXT
280
     0
  9
$XCLIPFRAME
280
     2
  9
$HALOGAP
280
     0
  9
$OBSCOLOR
 70
   257
  9
$OBSLTYPE
280
     0
  9
$INTERSECTIONDISPLAY
280
     0
  9
$INTERSECTIONCOLOR
 70
   257
  9
$DIMASSOC
280
     1
  9
$PROJECTNAME
  1

  9
$CAMERADISPLAY
290
     0
  9
$LENSLENGTH
 40
50.0
  9
$CAMERAHEIGHT
 40
0.0
  9
$STEPSPERSEC
 40
2.0
  9
$STEPSIZE
 40
6.0
  9
$3DDWFPREC
 40
2.0
  9
$PSOLWIDTH
 40
0.25
  9
$PSOLHEIGHT
 40
4.0
  9
$LOFTANG1
 40
1.570796326794896
  9
$LOFTANG2
 40
1.570796326794896
  9
$LOFTMAG1
 40
0.0
  9
$LOFTMAG2
 40
0.0
  9
$LOFTPARAM
 70
     7
  9
$LOFTNORMALS
280
     1
  9
$LATITUDE
 40
37.795
  9
$LONGITUDE
 40
-122.394
  9
$NORTHDIRECTION
 40
0.0
  9
$TIMEZONE
 70
 -8000
  9
$LIGHTGLYPHDISPLAY
280
     1
  9
$TILEMODELIGHTSYNCH
280
     1
  9
$CMATERIAL
347
15B20
  9
$SOLIDHIST
280
     1
  9
$SHOWHIST
280
     1
  9
$DWFFRAME
280
     2
  9
$DGNFRAME
280
     0
  9
$REALWORLDSCALE
290
     1
  9
$INTERFERECOLOR
 62
     1
  9
$INTERFEREOBJVS
345
15B2D
  9
$INTERFEREVPVS
346
15B2A
  9
$CSHADOW
280
     0
  9
$SHADOWPLANELOCATION
 40
0.0
  0
ENDSEC
  0
SECTION
  2
CLASSES
  0
CLASS
  1
ACDBDICTIONARYWDFLT
  2
AcDbDictionaryWithDefault
  3
ObjectDBX Classes
 90
        0
 91
        1
280
     0
281
     0
  0
CLASS
  1
DICTIONARYVAR
  2
AcDbDictionaryVar
  3
ObjectDBX Classes
 90
        0
 91
       11
280
     0
281
     0
  0
CLASS
  1
MATERIAL
  2
AcDbMaterial
  3
ObjectDBX Classes
 90
     1153
 91
        3
280
     0
281
     0
  0
CLASS
  1
VISUALSTYLE
  2
AcDbVisualStyle
  3
ObjectDBX Classes
 90
     4095
 91
       26
280
     0
281
     0
  0
CLASS
  1
TABLESTYLE
  2
AcDbTableStyle
  3
ObjectDBX Classes
 90
     4095
 91
        1
280
     0
281
     0
  0
CLASS
  1
EXACTERMXREFMAP
  2
ExAcTermXrefMap
  3
EXAC_SERVICE
 90
     1025
 91
        0
280
     0
281
     0
  0
CLASS
  1
NPOCOLLECTION
  2
AcDbImpNonPersistentObjectsCollection
  3
ObjectDBX Classes
 90
     1153
 91
        0
280
     0
281
     0
  0
CLASS
  1
EXACXREFPANELOBJECT
  2
ExAcXREFPanelObject
  3
EXAC_ESW
 90
     1025
 91
        0
280
     0
281
     0
  0
CLASS
  1
SORTENTSTABLE
  2
AcDbSortentsTable
  3
ObjectDBX Classes
 90
        0
 91
        1
280
     0
281
     0
  0
CLASS
  1
SCALE
  2
AcDbScale
  3
ObjectDBX Classes
 90
     1153
 91
       33
280
     0
281
     0
  0
CLASS
  1
MLEADERSTYLE
  2
AcDbMLeaderStyle
  3
ACDB_MLEADERSTYLE_CLASS
 90
     4095
 91
        1
280
     0
281
     0
  0
CLASS
  1
CELLSTYLEMAP
  2
AcDbCellStyleMap
  3
ObjectDBX Classes
 90
     1152
 91
        2
280
     0
281
     0
  0
ENDSEC
  0
SECTION
  2
TABLES
  0
TABLE
  2
VPORT
  5
1259A
102
{ACAD_XDICTIONARY
360
15C08
102
}
330
0
100
AcDbSymbolTable
 70
     1
  0
VPORT
  5
1743A
330
1259A
100
AcDbSymbolTableRecord
100
AcDbViewportTableRecord
  2
*Active
 70
     0
 10
0.0
 20
0.0
 11
1.0
 21
1.0
 12
8408.331337953368
 22
5702.983730997637
 13
0.0
 23
0.0
 14
1.0
 24
1.0
 15
0.0
 25
0.0
 16
0.0
 26
0.0
 36
1.0
 17
0.0
 27
0.0
 37
0.0
 40
11172.33971419626
 41
1.800847457627118
 42
50.0
 43
0.0
 44
0.0
 50
0.0
 51
0.0
 71
     0
 72
 10000
 73
     1
 74
     0
 75
     0
 76
     0
 77
     0
 78
     0
281
     0
 65
     1
110
0.0
120
0.0
130
0.0
111
1.0
121
0.0
131
0.0
112
0.0
122
1.0
132
0.0
 79
     0
146
0.0
348
15B29
 60
     3
 61
     5
292
     1
282
     1
141
0.0
142
0.0
 63
   250
421
  3355443
  0
ENDTAB
  0
TABLE
  2
LTYPE
  5
12597
330
0
100
AcDbSymbolTable
 70
     6
  0
LTYPE
  5
125A4
330
12597
100
AcDbSymbolTableRecord
100
AcDbLinetypeTableRecord
  2
BYBLOCK
 70
     0
  3

 72
    65
 73
     0
 40
0.0
  0
LTYPE
  5
125A5
330
12597
100
AcDbSymbolTableRecord
100
AcDbLinetypeTableRecord
  2
BYLAYER
 70
     0
  3

 72
    65
 73
     0
 40
0.0
  0
LTYPE
  5
125A6
330
12597
100
AcDbSymbolTableRecord
100
AcDbLinetypeTableRecord
  2
CONTINUOUS
 70
     0
  3
実線
 72
    65
 73
     0
 40
0.0
  0
LTYPE
  5
125B9
330
12597
100
AcDbSymbolTableRecord
100
AcDbLinetypeTableRecord
  2
1PL-LL
 70
     0
  3

 72
    65
 73
     4
 40
106.0
 49
100.0
 74
     0
 49
-2.0
 74
     0
 49
2.0
 74
     0
 49
-2.0
 74
     0
  0
LTYPE
  5
125BC
330
12597
100
AcDbSymbolTableRecord
100
AcDbLinetypeTableRecord
  2
1PL-M
 70
     0
  3

 72
    65
 73
     4
 40
15.0
 49
12.0
 74
     0
 49
-1.0
 74
     0
 49
1.0
 74
     0
 49
-1.0
 74
     0
  0
LTYPE
  5
125C0
330
12597
100
AcDbSymbolTableRecord
100
AcDbLinetypeTableRecord
  2
2PL-L
 70
     0
  3

 72
    65
 73
     6
 40
60.0
 49
50.0
 74
     0
 49
-2.0
 74
     0
 49
2.0
 74
     0
 49
-2.0
 74
     0
 49
2.0
 74
     0
 49
-2.0
 74
     0
  0
LTYPE
  5
12C5B
330
12597
100
AcDbSymbolTableRecord
100
AcDbLinetypeTableRecord
  2
1PL-12
 70
     0
  3

 72
    65
 73
     4
 40
15.0
 49
12.0
 74
     0
 49
-1.0
 74
     0
 49
1.0
 74
     0
 49
-1.0
 74
     0
  0
ENDTAB
  0
TABLE
  2
LAYER
  5
12594
330
0
100
AcDbSymbolTable
 70
    20
  0
LAYER
  5
125A1
330
12594
100
AcDbSymbolTableRecord
100
AcDbLayerTableRecord
  2
0
 70
     0
 62
     7
  6
CONTINUOUS
370
    -3
390
1297A
347
15B22
  0
LAYER
  5
125C8
330
12594
100
AcDbSymbolTableRecord
100
AcDbLayerTableRecord
  2
U1
 70
     0
 62
     3
  6
CONTINUOUS
370
    -3
390
1297A
347
15B22
  0
LAYER
  5
125CA
330
12594
100
AcDbSymbolTableRecord
100
AcDbLayerTableRecord
  2
U3
 70
     0
 62
     6
  6
CONTINUOUS
370
    -3
390
1297A
347
15B22
  0
LAYER
  5
125D1
330
12594
100
AcDbSymbolTableRecord
100
AcDbLayerTableRecord
  2
SUNPOU
 70
     0
 62
     4
  6
CONTINUOUS
370
    -3
390
1297A
347
15B22
  0
LAYER
  5
125D2
330
12594
100
AcDbSymbolTableRecord
100
AcDbLayerTableRecord
  2
HIKIDASHI
 70
     0
 62
     6
  6
CONTINUOUS
370
    -3
390
1297A
347
15B22
  0
LAYER
  5
125E5
330
12594
100
AcDbSymbolTableRecord
100
AcDbLayerTableRecord
  2
1PL-M1
 70
     0
 62
     6
  6
1PL-M
370
    -3
390
1297A
347
15B22
  0
LAYER
  5
12ACD
330
12594
100
AcDbSymbolTableRecord
100
AcDbLayerTableRecord
  2
NAME
 70
     0
 62
    20
  6
CONTINUOUS
370
    -3
390
1297A
347
15B22
  0
LAYER
  5
12ACE
330
12594
100
AcDbSymbolTableRecord
100
AcDbLayerTableRecord
  2
FILENAME
 70
     0
 62
     7
  6
CONTINUOUS
370
    -3
390
1297A
347
15B22
  0
LAYER
  5
12C5C
330
12594
100
AcDbSymbolTableRecord
100
AcDbLayerTableRecord
  2
CENTER
 70
     0
 62
     6
  6
1PL-LL
370
    -3
390
1297A
347
15B22
  0
LAYER
  5
12C5D
330
12594
100
AcDbSymbolTableRecord
100
AcDbLayerTableRecord
  2
KISO
 70
     0
 62
     2
  6
CONTINUOUS
370
    -3
390
1297A
347
15B22
  0
LAYER
  5
12C70
330
12594
100
AcDbSymbolTableRecord
100
AcDbLayerTableRecord
  2
YANE
 70
     0
 62
     1
  6
1PL-12
370
    -3
390
1297A
347
15B22
  0
LAYER
  5
15354
330
12594
100
AcDbSymbolTableRecord
100
AcDbLayerTableRecord
  2
HATCH
 70
     0
 62
     1
  6
CONTINUOUS
370
    -3
390
1297A
347
15B22
  0
LAYER
  5
15355
330
12594
100
AcDbSymbolTableRecord
100
AcDbLayerTableRecord
  2
HASHIRA
 70
     0
 62
     3
  6
CONTINUOUS
370
    -3
390
1297A
347
15B22
  0
LAYER
  5
15356
330
12594
100
AcDbSymbolTableRecord
100
AcDbLayerTableRecord
  2
tekkin
 70
     0
 62
     2
  6
CONTINUOUS
370
    -3
390
1297A
347
15B22
  0
LAYER
  5
15357
330
12594
100
AcDbSymbolTableRecord
100
AcDbLayerTableRecord
  2
DOMAKON
 70
     0
 62
     2
  6
CONTINUOUS
370
    -3
390
1297A
347
15B22
  0
LAYER
  5
1746F
330
12594
100
AcDbSymbolTableRecord
100
AcDbLayerTableRecord
  2
YODOROGO
 70
     0
 62
   130
  6
CONTINUOUS
370
    -3
390
1297A
347
15B22
  0
LAYER
  5
17471
330
12594
100
AcDbSymbolTableRecord
100
AcDbLayerTableRecord
  2
YODOROGO-HATCH-F
 70
     0
 62
    80
  6
CONTINUOUS
370
    -3
390
1297A
347
15B22
  0
LAYER
  5
17472
330
12594
100
AcDbSymbolTableRecord
100
AcDbLayerTableRecord
  2
WAKUSEN-01
 70
     0
 62
    50
  6
CONTINUOUS
370
    -3
390
1297A
347
15B22
  0
LAYER
  5
17473
330
12594
100
AcDbSymbolTableRecord
100
AcDbLayerTableRecord
  2
WAKUSEN-02
 70
     0
 62
   130
  6
CONTINUOUS
370
    -3
390
1297A
347
15B22
  0
LAYER
  5
17474
330
12594
100
AcDbSymbolTableRecord
100
AcDbLayerTableRecord
  2
WAKUMOJI-01
 70
     0
 62
   130
  6
CONTINUOUS
370
    -3
390
1297A
347
15B22
  0
ENDTAB
  0
TABLE
  2
STYLE
  5
12595
330
0
100
AcDbSymbolTable
 70
     5
  0
STYLE
  5
125A2
330
12595
100
AcDbSymbolTableRecord
100
AcDbTextStyleTableRecord
  2
STANDARD
 70
     0
 40
3.0
 41
1.0
 50
0.0
 71
     0
 42
0.2
  3
ROMANS
  4
EXTFONT
  0
STYLE
  5
125B1
330
12595
100
AcDbSymbolTableRecord
100
AcDbTextStyleTableRecord
  2
01
 70
     0
 40
3.0
 41
1.0
 50
0.0
 71
     0
 42
0.2
  3
ROMANS
  4
BIGFONT
  0
STYLE
  5
125B3
330
12595
100
AcDbSymbolTableRecord
100
AcDbTextStyleTableRecord
  2
00
 70
     0
 40
0.0
 41
0.6666666666666666
 50
0.0
 71
     0
 42
0.2
  3
ROMANS
  4
BIGFONT
  0
STYLE
  5
126E5
330
12595
100
AcDbSymbolTableRecord
100
AcDbTextStyleTableRecord
  2
WAKUMOJI
 70
     0
 40
3.0
 41
1.0
 50
0.0
 71
     0
 42
3.0
  3
SIMPLEX
  4
BIGFONT
  0
STYLE
  5
12ACF
330
12595
100
AcDbSymbolTableRecord
100
AcDbTextStyleTableRecord
  2
FILENAME
 70
     0
 40
75.0
 41
1.0
 50
0.0
 71
     0
 42
75.0
  3
romans
  4
bigfont
  0
ENDTAB
  0
TABLE
  2
VIEW
  5
12598
330
0
100
AcDbSymbolTable
 70
     0
  0
ENDTAB
  0
TABLE
  2
UCS
  5
12599
330
0
100
AcDbSymbolTable
 70
     0
  0
ENDTAB
  0
TABLE
  2
APPID
  5
1259B
330
0
100
AcDbSymbolTable
 70
     4
  0
APPID
  5
125A3
330
1259B
100
AcDbSymbolTableRecord
100
AcDbRegAppTableRecord
  2
ACAD
 70
     0
  0
APPID
  5
1263C
330
1259B
100
AcDbSymbolTableRecord
100
AcDbRegAppTableRecord
  2
AUTOCAD_POSTSCRIPT_FIGURE
 70
     0
  0
APPID
  5
16C92
330
1259B
100
AcDbSymbolTableRecord
100
AcDbRegAppTableRecord
  2
ACAD_PSEXT
 70
     0
  0
APPID
  5
17476
330
1259B
100
AcDbSymbolTableRecord
100
AcDbRegAppTableRecord
  2
ACAD_EXEMPT_FROM_CAD_STANDARDS
 70
     0
  0
ENDTAB
  0
TABLE
  2
DIMSTYLE
  5
1259C
330
0
100
AcDbSymbolTable
 70
     1
100
AcDbDimStyleTable
 71
     1
340
12947
  0
DIMSTYLE
105
12947
330
1259C
100
AcDbSymbolTableRecord
100
AcDbDimStyleTableRecord
  2
SUNPOU_申請図
 70
     0
 40
40.0
 41
0.5
 42
1.0
 43
7.0
 44
1.0
 46
3.0
 73
     0
 74
     0
 77
     1
 78
     8
140
2.0
141
0.0
147
1.0
172
     1
173
     1
176
   256
177
   256
178
   256
271
     2
272
     2
340
125B3
341
125AE
342
125AE
343
125AE
344
125AE
  0
ENDTAB
  0
TABLE
  2
BLOCK_RECORD
  5
12593
330
0
100
AcDbSymbolTable
 70
     1
  0
BLOCK_RECORD
  5
125AA
102
{ACAD_XDICTIONARY
360
129B1
102
}
330
12593
100
AcDbSymbolTableRecord
100
AcDbBlockTableRecord
  2
*MODEL_SPACE
340
1297D
 70
     0
280
     1
281
     0
  0
BLOCK_RECORD
  5
125A7
102
{ACAD_XDICTIONARY
360
129AF
102
}
330
12593
100
AcDbSymbolTableRecord
100
AcDbBlockTableRecord
  2
*PAPER_SPACE
340
1297E
 70
     0
280
     1
281
     0
  0
BLOCK_RECORD
  5
125AE
330
12593
100
AcDbSymbolTableRecord
100
AcDbBlockTableRecord
  2
DOT
340
0
 70
     0
280
     1
281
     0
  0
ENDTAB
  0
ENDSEC
  0
SECTION
  2
BLOCKS
  0
BLOCK
  5
125F6
330
125AA
100
AcDbEntity
  8
0
100
AcDbBlockBegin
  2
*MODEL_SPACE
 70
     0
 10
0.0
 20
0.0
 30
0.0
  3
*MODEL_SPACE
  1

  0
ENDBLK
  5
125F7
330
125AA
100
AcDbEntity
  8
0
100
AcDbBlockEnd
  0
BLOCK
  5
125F4
330
125A7
100
AcDbEntity
 67
     1
  8
0
100
AcDbBlockBegin
  2
*PAPER_SPACE
 70
     0
 10
0.0
 20
0.0
 30
0.0
  3
*PAPER_SPACE
  1

  0
ENDBLK
  5
125F5
330
125A7
100
AcDbEntity
 67
     1
  8
0
100
AcDbBlockEnd
  0
BLOCK
  5
12986
330
125AE
100
AcDbEntity
  8
0
100
AcDbBlockBegin
  2
DOT
 70
     0
 10
0.0
 20
0.0
 30
0.0
  3
DOT
  1

  0
LWPOLYLINE
  5
12987
330
125AE
100
AcDbEntity
  8
0
  6
ByBlock
 62
     0
100
AcDbPolyline
 90
        2
 70
     1
 43
0.75
 10
-0.375
 20
0.0
 42
1.0
 10
0.375
 20
0.0
 42
1.0
  0
LINE
  5
12988
330
125AE
100
AcDbEntity
  8
0
  6
ByBlock
 62
     0
100
AcDbLine
 10
-0.75
 20
0.0
 30
0.0
 11
-1.5
 21
0.0
 31
0.0
  0
ENDBLK
  5
12989
330
125AE
100
AcDbEntity
  8
0
100
AcDbBlockEnd
  0
ENDSEC
  0
SECTION
  2
ENTITIES
  0
TEXT
  5
12ADD
330
125AA
100
AcDbEntity
  8
NAME
100
AcDbText
 10
11516.07508082364
 20
875.0
 30
0.0
 40
120.0
  1
（埋め込み方式）
  7
01
 72
     4
 11
12072.07508082364
 21
935.0
 31
0.0
100
AcDbText
  0
TEXT
  5
12AE0
330
125AA
100
AcDbEntity
  8
FILENAME
100
AcDbText
 10
13809.61904761904
 20
174.0
 30
0.0
 40
100.0
  1
＜YOKCU-280-U1_3_JIS_GL.DXF＞
  7
FILENAME
 72
     2
 11
16382.0
 21
174.0
 31
0.0
100
AcDbText
  0
TEXT
  5
159C6
330
125AA
100
AcDbEntity
  8
NAME
100
AcDbText
 10
12854.8
 20
541.0000000000001
 30
0.0
 40
160.0
  1
<3／3>
 41
0.6
  7
01
 72
     2
 11
13354.0
 21
541.0000000000001
 31
0.0
100
AcDbText
  0
TEXT
  5
159C7
330
125AA
100
AcDbEntity
  8
NAME
100
AcDbText
 10
10778.70931397095
 20
541.0
 30
0.0
 40
160.0
  1
YOKCU-280
 41
0.7
  7
01
 72
     2
 11
11776.04264730429
 21
541.0
 31
0.0
100
AcDbText
  0
TEXT
  5
159C8
330
125AA
100
AcDbEntity
  8
NAME
100
AcDbText
 10
11816.04264730429
 20
541.0
 30
0.0
 40
160.0
  1
型（豪雪地用）
 41
0.8
  7
01
100
AcDbText
  0
TEXT
  5
16360
330
125AA
100
AcDbEntity
  8
SUNPOU
100
AcDbText
 10
9884.42061063643
 20
2943.607321016884
 30
0.0
 40
46.28539285937498
  1
2
 41
0.6700000000000001
  7
00
100
AcDbText
  0
TEXT
  5
16361
330
125AA
100
AcDbEntity
  8
SUNPOU
100
AcDbText
 10
9579.956128605024
 20
2893.418894659396
 30
0.0
 40
89.99937500434022
  1
N/mm
 41
0.6700000000000001
  7
01
100
AcDbText
  0
TEXT
  5
16362
330
125AA
100
AcDbEntity
  8
SUNPOU
100
AcDbText
 10
9444.119675819072
 20
2893.418894659396
 30
0.0
 40
89.99937500434022
  1
21
 41
0.6700000000000001
  7
01
100
AcDbText
  0
LINE
  5
16363
330
125AA
100
AcDbEntity
  8
SUNPOU
100
AcDbLine
 10
9267.68850707362
 20
2739.133180373684
 30
0.0
 11
9267.68850707362
 21
2822.625544072464
 31
0.0
  0
LINE
  5
16364
330
125AA
100
AcDbEntity
  8
SUNPOU
100
AcDbLine
 10
9250.813507073621
 20
2739.133180373684
 30
0.0
 11
9250.813507073621
 21
2822.625544072464
 31
0.0
  0
LINE
  5
16365
330
125AA
100
AcDbEntity
  8
SUNPOU
100
AcDbLine
 10
9233.938507073622
 20
2739.133180373684
 30
0.0
 11
9233.938507073622
 21
2822.625544072464
 31
0.0
  0
LINE
  5
16366
330
125AA
100
AcDbEntity
  8
SUNPOU
100
AcDbLine
 10
9222.68850707362
 20
2739.133180373682
 30
0.0
 11
9278.93850707362
 21
2739.133180373682
 31
0.0
  0
LINE
  5
16367
330
125AA
100
AcDbEntity
  8
SUNPOU
100
AcDbLine
 10
9222.68850707362
 20
2822.625544072464
 30
0.0
 11
9278.93850707362
 21
2822.625544072464
 31
0.0
  0
ARC
  5
16368
330
125AA
100
AcDbEntity
  8
SUNPOU
100
AcDbCircle
 10
9768.113682510662
 20
2857.206318101228
 30
0.0
 40
225.0
100
AcDbArc
 50
328.347272528283
 51
31.65272747171703
  0
TEXT
  5
16369
330
125AA
100
AcDbEntity
  8
SUNPOU
100
AcDbText
 10
8208.607962446434
 20
2943.607321016884
 30
0.0
 40
46.28539285937498
  1
2
 41
0.6700000000000001
  7
00
100
AcDbText
  0
TEXT
  5
1636A
330
125AA
100
AcDbEntity
  8
SUNPOU
100
AcDbText
 10
7940.967805718049
 20
2893.418894659396
 30
0.0
 40
71.99950000347218
  1
K
 41
0.6700000000000001
  7
01
100
AcDbText
  0
TEXT
  5
1636B
330
125AA
100
AcDbEntity
  8
SUNPOU
100
AcDbText
 10
7805.131352932095
 20
2893.418894659396
 30
0.0
 40
89.99937500434022
  1
50  N/m
 41
0.6700000000000001
  7
01
100
AcDbText
  0
ARC
  5
1636C
330
125AA
100
AcDbEntity
  8
SUNPOU
100
AcDbCircle
 10
7583.831219414218
 20
2857.206318101228
 30
0.0
 40
225.0
100
AcDbArc
 50
148.3472725282829
 51
211.652727471717
  0
TEXT
  5
1636D
330
125AA
100
AcDbEntity
  8
SUNPOU
100
AcDbText
 10
7914.63637417218
 20
2739.133180373684
 30
0.0
 40
89.99937500434022
  1
34 m/s
 41
0.6700000000000001
  7
01
100
AcDbText
  0
TEXT
  5
1636E
330
125AA
100
AcDbEntity
  8
SUNPOU
100
AcDbText
 10
7430.872945507012
 20
2739.133180373684
 30
0.0
 40
89.99937500434022
  1
基準風速   　　 , 地表面粗度区分
  7
01
100
AcDbText
  0
TEXT
  5
1636F
330
125AA
100
AcDbEntity
  8
SUNPOU
100
AcDbText
 10
7430.872945507012
 20
2893.418894659396
 30
0.0
 40
89.99937500434022
  1
地耐力   　　　 以上,コンクリート強度
  7
01
100
AcDbText
  0
TEXT
  5
16370
330
125AA
100
AcDbEntity
  8
SUNPOU
100
AcDbText
 10
7599.622945507012
 20
2205.561751802256
 30
0.0
 40
90.0
  1
2
 41
0.6700000000000001
  7
01
100
AcDbText
  0
TEXT
  5
16371
330
125AA
100
AcDbEntity
  8
SUNPOU
100
AcDbText
 10
7488.989025294269
 20
2205.561751802256
 30
0.0
 40
90.0
  1
注　）
  7
01
100
AcDbText
  0
TEXT
  5
16372
330
125AA
100
AcDbEntity
  8
SUNPOU
100
AcDbText
 10
7488.989025294269
 20
2514.133180373684
 30
0.0
 40
90.0
  1
注　）
  7
01
100
AcDbText
  0
TEXT
  5
16373
330
125AA
100
AcDbEntity
  8
SUNPOU
100
AcDbText
 10
7599.622945507012
 20
2514.133180373684
 30
0.0
 40
90.0
  1
1
 41
0.6700000000000001
  7
01
100
AcDbText
  0
TEXT
  5
16374
330
125AA
100
AcDbEntity
  8
SUNPOU
100
AcDbText
 10
7805.828690596405
 20
2359.847466087968
 30
0.0
 40
90.0
  1
あわせて設計して下さい。
  7
01
100
AcDbText
  0
TEXT
  5
16375
330
125AA
100
AcDbEntity
  8
SUNPOU
100
AcDbText
 10
7805.828690596405
 20
2205.561751802256
 30
0.0
 40
90.0
  1
その他現地の実情にあわせて設計して下さい。
  7
01
100
AcDbText
  0
TEXT
  5
16376
330
125AA
100
AcDbEntity
  8
SUNPOU
100
AcDbText
 10
7805.828690596405
 20
2514.133180373684
 30
0.0
 40
90.0
  1
寒冷地の場合、凍結深度等を考慮し、実情に
  7
01
100
AcDbText
  0
TEXT
  5
16377
330
125AA
100
AcDbEntity
  8
SUNPOU
100
AcDbText
 10
7300.30931679078
 20
3082.672897105353
 30
0.0
 40
90.0
  1
<下記条件での参考図>
  7
01
 72
     4
 11
7889.166459647923
 21
3127.672897105353
 31
0.0
100
AcDbText
  0
TEXT
  5
16378
330
125AA
100
AcDbEntity
  8
SUNPOU
100
AcDbText
 10
8510.625626179352
 20
3250.019050951507
 30
0.0
 40
73.84615384615384
  1
/
 41
0.6700000000000001
  7
00
 11
8510.625626179352
 21
3240.172897105353
 31
0.0
100
AcDbText
 73
     1
  0
TEXT
  5
16379
330
125AA
100
AcDbEntity
  8
SUNPOU
100
AcDbText
 10
8574.57506913372
 20
3231.557512489968
 30
0.0
 40
73.84615384615384
  1
25
 41
0.6700000000000001
  7
00
 11
8574.57506913372
 21
3221.711358643814
 31
0.0
100
AcDbText
 73
     1
  0
TEXT
  5
1637A
330
125AA
100
AcDbEntity
  8
SUNPOU
100
AcDbText
 10
8462.219498863978
 20
3268.480589413047
 30
0.0
 40
73.84615384615384
  1
1
 41
0.6700000000000001
  7
00
 11
8462.219498863978
 21
3258.634435566892
 31
0.0
100
AcDbText
 73
     1
  0
TEXT
  5
1637B
330
125AA
100
AcDbEntity
  8
SUNPOU
100
AcDbText
 10
8142.516797010896
 20
3252.480589413045
 30
0.0
 40
92.30769230769228
  1
（ S = 　　  ）
 41
0.6700000000000001
  7
00
 11
8142.516797010896
 21
3240.172897105353
 31
0.0
100
AcDbText
 73
     1
  0
TEXT
  5
1637C
330
125AA
100
AcDbEntity
  8
SUNPOU
100
AcDbText
 10
7425.666459647924
 20
3240.172897105352
 30
0.0
 40
120.0
  1
基礎断面図
  7
01
 72
     4
 11
7765.666459647923
 21
3300.172897105352
 31
0.0
100
AcDbText
  0
TEXT
  5
167F6
330
125AA
100
AcDbEntity
  8
HIKIDASHI
100
AcDbText
 10
9017.426279443023
 20
5992.059624263298
 30
0.0
 40
80.0
  1
)
 41
0.6700000000000001
  7
00
100
AcDbText
  0
TEXT
  5
167F7
330
125AA
100
AcDbEntity
  8
HIKIDASHI
100
AcDbText
 10
8816.567530753644
 20
6007.621102011493
 30
0.0
 40
80.0
  1
1
 41
0.6700000000000001
  7
00
100
AcDbText
  0
TEXT
  5
167F8
330
125AA
100
AcDbEntity
  8
HIKIDASHI
100
AcDbText
 10
8849.704668617953
 20
5992.059624263298
 30
0.0
 40
80.0
  1
/
 41
0.6700000000000001
  7
00
100
AcDbText
  0
TEXT
  5
167F9
330
125AA
100
AcDbEntity
  8
HIKIDASHI
100
AcDbText
 10
8895.999823380597
 20
5965.891793063018
 30
0.0
 40
80.0
  1
40
 41
0.6700000000000001
  7
00
100
AcDbText
  0
TEXT
  5
167FA
330
125AA
100
AcDbEntity
  8
HIKIDASHI
100
AcDbText
 10
8635.85961481597
 20
5992.059624263298
 30
0.0
 40
80.0
  1
(S=
 41
0.6700000000000001
  7
00
100
AcDbText
  0
TEXT
  5
167FB
330
125AA
100
AcDbEntity
  8
HIKIDASHI
100
AcDbText
 10
7793.85961481597
 20
5968.243182432328
 30
0.0
 40
120.0
  1
基 礎 伏 図
  7
01
 72
     2
 11
8545.85961481597
 21
5968.243182432328
 31
0.0
100
AcDbText
  0
LINE
  5
16E86
330
125AA
100
AcDbEntity
  8
CENTER
  6
1PL-M
100
AcDbLine
 10
6479.127507899639
 20
8718.243182432329
 30
0.0
 11
8969.127507899639
 21
8718.243182432329
 31
0.0
  0
LINE
  5
16E87
330
125AA
100
AcDbEntity
  8
CENTER
  6
1PL-M
100
AcDbLine
 10
9119.127507899641
 20
8718.243182432329
 30
0.0
 11
10379.12750789964
 21
8718.243182432329
 31
0.0
  0
LINE
  5
16E8E
330
125AA
100
AcDbEntity
  8
CENTER
  6
1PL-M
100
AcDbLine
 10
7024.127507899639
 20
6308.243182432327
 30
0.0
 11
7024.127507899639
 21
9318.243182432329
 31
0.0
  0
LINE
  5
16E8F
330
125AA
100
AcDbEntity
  8
CENTER
  6
1PL-M
100
AcDbLine
 10
6601.977929614668
 20
6908.243182432328
 30
0.0
 11
10379.12750789964
 21
6908.243182432328
 31
0.0
  0
LINE
  5
16E90
330
125AA
100
AcDbEntity
  8
CENTER
  6
1PL-M
100
AcDbLine
 10
9834.127507899641
 20
6308.243182432327
 30
0.0
 11
9834.127507899641
 21
8033.243182432327
 31
0.0
  0
LINE
  5
16E91
330
125AA
100
AcDbEntity
  8
CENTER
  6
1PL-M
100
AcDbLine
 10
9834.127507899641
 20
8183.243182432326
 30
0.0
 11
9834.127507899641
 21
9318.243182432329
 31
0.0
  0
LINE
  5
16E9A
330
125AA
100
AcDbEntity
  8
SUNPOU
100
AcDbLine
 10
6414.127507899635
 20
7118.24318243233
 30
0.0
 11
6414.127507899635
 21
6908.243182432328
 31
0.0
  0
LINE
  5
16E9B
330
125AA
100
AcDbEntity
  8
SUNPOU
100
AcDbLine
 10
6414.127507899639
 20
6908.243182432328
 30
0.0
 11
6564.127507899637
 21
6908.243182432328
 31
0.0
  0
TEXT
  5
16E9D
330
125AA
100
AcDbEntity
  8
SUNPOU
100
AcDbText
 10
6388.284650756778
 20
7253.24318243233
 30
0.0
 40
90.0
  1
A
 41
0.6700000000000001
  7
00
 72
     4
 11
6414.127507899635
 21
7298.243182432329
 31
0.0
100
AcDbText
  0
LINE
  5
16E9E
330
125AA
100
AcDbEntity
  8
SUNPOU
100
AcDbLine
 10
7634.127507899639
 20
7118.24318243233
 30
0.0
 11
7634.127507899639
 21
6908.243182432328
 31
0.0
  0
LINE
  5
16E9F
330
125AA
100
AcDbEntity
  8
SUNPOU
100
AcDbLine
 10
7634.127507899639
 20
6908.243182432328
 30
0.0
 11
7484.127507899639
 21
6908.243182432328
 31
0.0
  0
TEXT
  5
16EA1
330
125AA
100
AcDbEntity
  8
SUNPOU
100
AcDbText
 10
7598.234650756783
 20
7244.671753860901
 30
0.0
 40
90.0
  1
A'
 41
0.6700000000000001
  7
00
 72
     4
 11
7634.127507899639
 21
7298.243182432329
 31
0.0
100
AcDbText
  0
TEXT
  5
16EA5
330
125AA
100
AcDbEntity
  8
HIKIDASHI
100
AcDbText
 10
7822.824073304892
 20
9013.243182432329
 30
0.0
 40
90.0
  1
（屋根後面位置）
  7
01
100
AcDbText
  0
TEXT
  5
16EA6
330
125AA
100
AcDbEntity
  8
HIKIDASHI
100
AcDbText
 10
7738.715471388871
 20
8783.243182432327
 30
0.0
 40
90.0
  1
（土間コン後面位置）
  7
01
100
AcDbText
  0
TEXT
  5
16EA7
330
125AA
100
AcDbEntity
  8
HIKIDASHI
100
AcDbText
 10
7845.736109815657
 20
6273.243182432327
 30
0.0
 40
90.0
  1
（鼻隠し外面）
  7
01
100
AcDbText
  0
TEXT
  5
16EA8
330
125AA
100
AcDbEntity
  8
HIKIDASHI
100
AcDbText
 10
7761.627507899639
 20
6553.243182432328
 30
0.0
 40
90.0
  1
（土間コン前面位置）
  7
01
100
AcDbText
  0
TEXT
  5
17193
330
125AA
100
AcDbEntity
  8
NAME
100
AcDbText
 10
12159.06898735705
 20
1063.242132579307
 30
0.0
 40
120.0
  1
Y O K C U
 41
0.6666666666666666
  7
00
100
AcDbText
  0
TEXT
  5
17194
330
125AA
100
AcDbEntity
  8
NAME
100
AcDbText
 10
11083.47628552035
 20
1063.242132579307
 30
0.0
 40
120.0
  1
ヨド自転車置場　　　    型
  7
01
100
AcDbText
  0
LINE
  5
17364
330
125AA
100
AcDbEntity
  8
HIKIDASHI
100
AcDbLine
 10
4186.816957180232
 20
4083.204154334509
 30
0.0
 11
3405.031576763642
 21
4083.204154334509
 31
0.0
  0
LINE
  5
17367
330
125AA
100
AcDbEntity
  8
1PL-M1
100
AcDbLine
 10
4889.856483595693
 20
2873.96373352073
 30
0.0
 11
4889.856483595691
 21
4601.963733520728
 31
0.0
  0
LINE
  5
17368
330
125AA
100
AcDbEntity
  8
HASHIRA
100
AcDbLine
 10
4837.856483595691
 20
3145.963733520729
 30
0.0
 11
4837.856483595691
 21
4233.963733520726
 31
0.0
  0
LINE
  5
17369
330
125AA
100
AcDbEntity
  8
HASHIRA
100
AcDbLine
 10
4941.856483595691
 20
3145.963733520729
 30
0.0
 11
4941.856483595691
 21
4233.963733520726
 31
0.0
  0
LINE
  5
1736A
330
125AA
100
AcDbEntity
  8
HATCH
100
AcDbLine
 10
6088.042305995692
 20
3563.21910792073
 30
0.0
 11
6107.242305995693
 21
3529.963733520729
 31
0.0
  0
LINE
  5
1736B
330
125AA
100
AcDbEntity
  8
HATCH
100
AcDbLine
 10
6232.042305995692
 20
3563.21910792073
 30
0.0
 11
6251.242305995694
 21
3529.963733520729
 31
0.0
  0
LINE
  5
1736C
330
125AA
100
AcDbEntity
  8
HATCH
100
AcDbLine
 10
6229.867931595691
 20
3625.963733520729
 30
0.0
 11
6249.067931595693
 21
3592.708357520729
 31
0.0
  0
LINE
  5
1736D
330
125AA
100
AcDbEntity
  8
HATCH
100
AcDbLine
 10
6212.842305995692
 20
3529.963733520729
 30
0.0
 11
6268.267931595691
 21
3625.963733520729
 31
0.0
  0
LINE
  5
1736E
330
125AA
100
AcDbEntity
  8
HATCH
100
AcDbLine
 10
6336.250096395694
 20
3753.963733520729
 30
0.0
 11
6208.250096395694
 21
3625.963733520729
 31
0.0
  0
LINE
  5
1736F
330
125AA
100
AcDbEntity
  8
HATCH
100
AcDbLine
 10
6241.21494439569
 20
3753.963733520729
 30
0.0
 11
6113.21494439569
 21
3625.963733520729
 31
0.0
  0
LINE
  5
17370
330
125AA
100
AcDbEntity
  8
HATCH
100
AcDbLine
 10
6288.732520395693
 20
3753.963733520729
 30
0.0
 11
6160.732520395693
 21
3625.963733520729
 31
0.0
  0
LINE
  5
17371
330
125AA
100
AcDbEntity
  8
HATCH
100
AcDbLine
 10
5960.042305995692
 20
3563.21910792073
 30
0.0
 11
5979.242305995693
 21
3529.963733520729
 31
0.0
  0
LINE
  5
17372
330
125AA
100
AcDbEntity
  8
HATCH
100
AcDbLine
 10
5957.867931595689
 20
3625.963733520729
 30
0.0
 11
5977.067931595691
 21
3592.708357520729
 31
0.0
  0
LINE
  5
17373
330
125AA
100
AcDbEntity
  8
HATCH
100
AcDbLine
 10
5940.842305995693
 20
3529.963733520729
 30
0.0
 11
5996.267931595689
 21
3625.963733520729
 31
0.0
  0
LINE
  5
17374
330
125AA
100
AcDbEntity
  8
HATCH
100
AcDbLine
 10
5717.016790795693
 20
3625.963733520729
 30
0.0
 11
5701.016790795693
 21
3625.963733520729
 31
0.0
  0
LINE
  5
17375
330
125AA
100
AcDbEntity
  8
HATCH
100
AcDbLine
 10
5816.042305995694
 20
3563.21910792073
 30
0.0
 11
5835.242305995691
 21
3529.963733520729
 31
0.0
  0
LINE
  5
17376
330
125AA
100
AcDbEntity
  8
HATCH
100
AcDbLine
 10
5796.842305995693
 20
3529.963733520729
 30
0.0
 11
5852.267931595689
 21
3625.963733520729
 31
0.0
  0
LINE
  5
17377
330
125AA
100
AcDbEntity
  8
HATCH
100
AcDbLine
 10
5813.867931595691
 20
3625.963733520729
 30
0.0
 11
5833.067931595691
 21
3592.708357520729
 31
0.0
  0
LINE
  5
17378
330
125AA
100
AcDbEntity
  8
HATCH
100
AcDbLine
 10
5856.250096395695
 20
3753.963733520729
 30
0.0
 11
5728.250096395695
 21
3625.963733520729
 31
0.0
  0
LINE
  5
17379
330
125AA
100
AcDbEntity
  8
HATCH
100
AcDbLine
 10
5672.042305995695
 20
3563.21910792073
 30
0.0
 11
5691.242305995693
 21
3529.963733520729
 31
0.0
  0
LINE
  5
1737A
330
125AA
100
AcDbEntity
  8
HATCH
100
AcDbLine
 10
5669.867931595691
 20
3625.963733520729
 30
0.0
 11
5689.067931595691
 21
3592.708357520729
 31
0.0
  0
LINE
  5
1737B
330
125AA
100
AcDbEntity
  8
HATCH
100
AcDbLine
 10
5529.856483595692
 20
3566.361356962261
 30
0.0
 11
5564.26793159569
 21
3625.963733520729
 31
0.0
  0
LINE
  5
1737C
330
125AA
100
AcDbEntity
  8
HATCH
100
AcDbLine
 10
5529.856483595692
 20
3619.055358705337
 30
0.0
 11
5545.067931595691
 21
3592.708357520729
 31
0.0
  0
LINE
  5
1737D
330
125AA
100
AcDbEntity
  8
HATCH
100
AcDbLine
 10
5529.856483595692
 20
3560.076860248017
 30
0.0
 11
5547.242305995694
 21
3529.963733520729
 31
0.0
  0
LINE
  5
1737E
330
125AA
100
AcDbEntity
  8
HATCH
100
AcDbLine
 10
5573.016790795693
 20
3625.963733520729
 30
0.0
 11
5557.016790795692
 21
3625.963733520729
 31
0.0
  0
LINE
  5
1737F
330
125AA
100
AcDbEntity
  8
HATCH
100
AcDbLine
 10
5808.73252039569
 20
3753.963733520729
 30
0.0
 11
5680.732520395693
 21
3625.963733520729
 31
0.0
  0
LINE
  5
17380
330
125AA
100
AcDbEntity
  8
HATCH
100
AcDbLine
 10
5761.214944395693
 20
3753.963733520729
 30
0.0
 11
5633.214944395693
 21
3625.963733520729
 31
0.0
  0
LINE
  5
17381
330
125AA
100
AcDbEntity
  8
HATCH
100
AcDbLine
 10
5652.842305995695
 20
3529.963733520729
 30
0.0
 11
5708.267931595689
 21
3625.963733520729
 31
0.0
  0
LINE
  5
17382
330
125AA
100
AcDbEntity
  8
HATCH
100
AcDbLine
 10
6085.867931595689
 20
3625.963733520729
 30
0.0
 11
6105.067931595691
 21
3592.708357520729
 31
0.0
  0
LINE
  5
17383
330
125AA
100
AcDbEntity
  8
HATCH
100
AcDbLine
 10
6068.842305995693
 20
3529.963733520729
 30
0.0
 11
6124.267931595689
 21
3625.963733520729
 31
0.0
  0
LINE
  5
17384
330
125AA
100
AcDbEntity
  8
KISO
100
AcDbLine
 10
5529.856483595692
 20
3529.963733520729
 30
0.0
 11
6367.249978138846
 21
3529.96373352073
 31
0.0
  0
LINE
  5
17385
330
125AA
100
AcDbEntity
  8
KISO
100
AcDbLine
 10
6367.249978138846
 20
3625.963733520729
 30
0.0
 11
5529.856483595692
 21
3625.963733520729
 31
0.0
  0
LINE
  5
17386
330
125AA
100
AcDbEntity
  8
KISO
100
AcDbLine
 10
5529.856483595692
 20
3753.963733520729
 30
0.0
 11
5529.856483595692
 21
3145.963733520729
 31
0.0
  0
LINE
  5
17387
330
125AA
100
AcDbEntity
  8
U3
100
AcDbLine
 10
4138.665683595692
 20
3673.963733520729
 30
0.0
 11
4249.856483595691
 21
3562.772931920729
 31
0.0
  0
LINE
  5
17388
330
125AA
100
AcDbEntity
  8
U3
100
AcDbLine
 10
4087.753993995693
 20
3623.05204392073
 30
0.0
 11
4204.842305995692
 21
3505.963733520729
 31
0.0
  0
LINE
  5
17389
330
125AA
100
AcDbEntity
  8
U3
100
AcDbLine
 10
3919.753993995694
 20
3556.875421520731
 30
0.0
 11
4036.842305995692
 21
3673.963733520729
 31
0.0
  0
LINE
  5
1738A
330
125AA
100
AcDbEntity
  8
U3
100
AcDbLine
 10
4036.842305995692
 20
3572.140355920728
 30
0.0
 11
4103.01892999569
 21
3505.963733520729
 31
0.0
  0
LINE
  5
1738B
330
125AA
100
AcDbEntity
  8
U3
100
AcDbLine
 10
3970.665683595693
 20
3505.963733520729
 30
0.0
 11
4138.665683595692
 21
3673.963733520729
 31
0.0
  0
LINE
  5
1738C
330
125AA
100
AcDbEntity
  8
KISO
100
AcDbLine
 10
4837.856483595691
 20
3753.963733520729
 30
0.0
 11
4249.856483595691
 21
3753.963733520729
 31
0.0
  0
LINE
  5
1738D
330
125AA
100
AcDbEntity
  8
HATCH
100
AcDbLine
 10
4799.916475201962
 20
3753.963733520729
 30
0.0
 11
4249.856483595691
 21
3203.903741914458
 31
0.0
  0
LINE
  5
1738E
330
125AA
100
AcDbEntity
  8
HATCH
100
AcDbLine
 10
4752.398899201963
 20
3753.963733520729
 30
0.0
 11
4249.856483595691
 21
3251.421317914457
 31
0.0
  0
LINE
  5
1738F
330
125AA
100
AcDbEntity
  8
HATCH
100
AcDbLine
 10
4704.881324801961
 20
3753.963733520729
 30
0.0
 11
4249.856483595691
 21
3298.938892314453
 31
0.0
  0
LINE
  5
17390
330
125AA
100
AcDbEntity
  8
U3
100
AcDbLine
 10
3700.842305995694
 20
3572.140355920728
 30
0.0
 11
3767.018929995693
 21
3505.963733520729
 31
0.0
  0
LINE
  5
17391
330
125AA
100
AcDbEntity
  8
U3
100
AcDbLine
 10
3751.753993995694
 20
3623.05204392073
 30
0.0
 11
3868.842305995694
 21
3505.963733520729
 31
0.0
  0
LINE
  5
17392
330
125AA
100
AcDbEntity
  8
U3
100
AcDbLine
 10
3532.842305995694
 20
3607.787109520729
 30
0.0
 11
3599.018929995692
 21
3673.963733520729
 31
0.0
  0
LINE
  5
17393
330
125AA
100
AcDbEntity
  8
U3
100
AcDbLine
 10
3634.665683595693
 20
3505.963733520729
 30
0.0
 11
3802.665683595693
 21
3673.963733520729
 31
0.0
  0
LINE
  5
17394
330
125AA
100
AcDbEntity
  8
U3
100
AcDbLine
 10
3583.753993995694
 20
3556.875421520731
 30
0.0
 11
3700.842305995694
 21
3673.963733520729
 31
0.0
  0
LINE
  5
17395
330
125AA
100
AcDbEntity
  8
U3
100
AcDbLine
 10
3466.665683595692
 20
3673.963733520729
 30
0.0
 11
3634.665683595693
 21
3505.963733520729
 31
0.0
  0
LINE
  5
17396
330
125AA
100
AcDbEntity
  8
U3
100
AcDbLine
 10
3868.842305995694
 20
3607.787109520729
 30
0.0
 11
3935.018929995692
 21
3673.963733520729
 31
0.0
  0
LINE
  5
17397
330
125AA
100
AcDbEntity
  8
U3
100
AcDbLine
 10
3802.665683595693
 20
3673.963733520729
 30
0.0
 11
3970.665683595693
 21
3505.963733520729
 31
0.0
  0
LINE
  5
17398
330
125AA
100
AcDbEntity
  8
U3
100
AcDbLine
 10
4249.856483595691
 20
3673.963733520729
 30
0.0
 11
3466.665683595692
 21
3673.963733520729
 31
0.0
  0
LINE
  5
17399
330
125AA
100
AcDbEntity
  8
HATCH
100
AcDbLine
 10
4837.856483595691
 20
3404.311689551324
 30
0.0
 11
4683.508527565098
 21
3249.963733520729
 31
0.0
  0
LINE
  5
1739A
330
125AA
100
AcDbEntity
  8
KISO
100
AcDbLine
 10
4249.856483595691
 20
3753.963733520729
 30
0.0
 11
4249.856483595691
 21
3145.963733520729
 31
0.0
  0
LINE
  5
1739B
330
125AA
100
AcDbEntity
  8
HATCH
100
AcDbLine
 10
4837.856483595691
 20
3499.346839951326
 30
0.0
 11
4484.473377165095
 21
3145.96373352073
 31
0.0
  0
LINE
  5
1739C
330
125AA
100
AcDbEntity
  8
HATCH
100
AcDbLine
 10
4837.856483595691
 20
3451.829265551325
 30
0.0
 11
4635.990951565096
 21
3249.963733520729
 31
0.0
  0
LINE
  5
1739D
330
125AA
100
AcDbEntity
  8
HATCH
100
AcDbLine
 10
5187.508527565098
 20
3753.963733520729
 30
0.0
 11
4941.856483595691
 21
3508.311689551324
 31
0.0
  0
LINE
  5
1739E
330
125AA
100
AcDbEntity
  8
HATCH
100
AcDbLine
 10
5139.990951565096
 20
3753.963733520729
 30
0.0
 11
4941.856483595691
 21
3555.829265551324
 31
0.0
  0
LINE
  5
1739F
330
125AA
100
AcDbEntity
  8
HATCH
100
AcDbLine
 10
5092.473377165095
 20
3753.963733520729
 30
0.0
 11
4941.856483595691
 21
3603.346839951325
 31
0.0
  0
LINE
  5
173A0
330
125AA
100
AcDbEntity
  8
KISO
100
AcDbLine
 10
6367.249978138845
 20
3753.963733520729
 30
0.0
 11
4941.856483595691
 21
3753.963733520729
 31
0.0
  0
LINE
  5
173A1
330
125AA
100
AcDbEntity
  8
HATCH
100
AcDbLine
 10
4364.80684683883
 20
3753.963733520729
 30
0.0
 11
4249.856483595693
 21
3639.013370277589
 31
0.0
  0
LINE
  5
173A2
330
125AA
100
AcDbEntity
  8
HATCH
100
AcDbLine
 10
4412.324422838832
 20
3753.963733520729
 30
0.0
 11
4249.856483595691
 21
3591.49579427759
 31
0.0
  0
LINE
  5
173A3
330
125AA
100
AcDbEntity
  8
HATCH
100
AcDbLine
 10
4317.289272438831
 20
3753.963733520729
 30
0.0
 11
4249.856483595691
 21
3686.530944677588
 31
0.0
  0
LINE
  5
173A4
330
125AA
100
AcDbEntity
  8
HATCH
100
AcDbLine
 10
5529.856483595692
 20
3708.71963718819
 30
0.0
 11
5071.100579928232
 21
3249.963733520729
 31
0.0
  0
LINE
  5
173A5
330
125AA
100
AcDbEntity
  8
HATCH
100
AcDbLine
 10
5527.583003928228
 20
3753.963733520729
 30
0.0
 11
5023.583003928232
 21
3249.963733520728
 31
0.0
  0
LINE
  5
173A6
330
125AA
100
AcDbEntity
  8
HATCH
100
AcDbLine
 10
5480.065429528228
 20
3753.963733520729
 30
0.0
 11
4941.856483595691
 21
3215.754787588188
 31
0.0
  0
LINE
  5
173A7
330
125AA
100
AcDbEntity
  8
HATCH
100
AcDbLine
 10
5529.856483595692
 20
3416.162735225057
 30
0.0
 11
5259.657481891365
 21
3145.963733520729
 31
0.0
  0
LINE
  5
173A8
330
125AA
100
AcDbEntity
  8
HATCH
100
AcDbLine
 10
5529.856483595692
 20
3368.645160825057
 30
0.0
 11
5307.175056291369
 21
3145.963733520729
 31
0.0
  0
LINE
  5
173A9
330
125AA
100
AcDbEntity
  8
HATCH
100
AcDbLine
 10
5529.856483595693
 20
3321.127584825055
 30
0.0
 11
5354.692632291366
 21
3145.963733520729
 31
0.0
  0
LINE
  5
173AA
330
125AA
100
AcDbEntity
  8
HATCH
100
AcDbLine
 10
4619.990951565096
 20
3233.96373352073
 30
0.0
 11
4531.990951565096
 21
3145.963733520729
 31
0.0
  0
LINE
  5
173AB
330
125AA
100
AcDbEntity
  8
HATCH
100
AcDbLine
 10
4667.508527565098
 20
3233.96373352073
 30
0.0
 11
4579.508527565098
 21
3145.963733520729
 31
0.0
  0
LINE
  5
173AC
330
125AA
100
AcDbEntity
  8
HATCH
100
AcDbLine
 10
4960.065429528231
 20
3233.96373352073
 30
0.0
 11
4941.856483595691
 21
3215.754787588188
 31
0.0
  0
LINE
  5
173AD
330
125AA
100
AcDbEntity
  8
HATCH
100
AcDbLine
 10
5007.583003928234
 20
3233.96373352073
 30
0.0
 11
4941.856483595691
 21
3168.237213188188
 31
0.0
  0
LINE
  5
173AE
330
125AA
100
AcDbEntity
  8
HATCH
100
AcDbLine
 10
5055.100579928232
 20
3233.96373352073
 30
0.0
 11
4967.100579928231
 21
3145.963733520729
 31
0.0
  0
TEXT
  5
173B1
330
125AA
100
AcDbEntity
  8
HIKIDASHI
100
AcDbText
 10
4966.060086474469
 20
2119.914714678058
 30
0.0
 40
90.0
  1
断 面
  7
01
100
AcDbText
  0
LINE
  5
173B2
330
125AA
100
AcDbEntity
  8
HIKIDASHI
100
AcDbLine
 10
4542.042806977907
 20
2074.914714678058
 30
0.0
 11
5237.670160213478
 21
2074.914714678058
 31
0.0
  0
LINE
  5
173B3
330
125AA
100
AcDbEntity
  8
HIKIDASHI
100
AcDbLine
 10
4542.042806977907
 20
2044.914714678057
 30
0.0
 11
5237.670160213478
 21
2044.914714678057
 31
0.0
  0
TEXT
  5
173B4
330
125AA
100
AcDbEntity
  8
HIKIDASHI
100
AcDbText
 10
4572.042806977907
 20
2119.914714678058
 30
0.0
 40
90.0
  1
A  ~  A'
 41
0.6700000000000001
  7
00
100
AcDbText
  0
LINE
  5
173B8
330
125AA
100
AcDbEntity
  8
SUNPOU
100
AcDbLine
 10
4889.856483595693
 20
4556.963733520728
 30
0.0
 11
6315.086990845943
 21
4556.963733520728
 31
0.0
  0
TEXT
  5
173B9
330
125AA
100
AcDbEntity
  8
SUNPOU
100
AcDbText
 10
5675.684182736158
 20
4601.963733520728
 30
0.0
 40
90.0
  1
2810
 41
0.6666666666666666
  7
00
 72
     4
 11
5789.969897021872
 21
4646.963733520728
 31
0.0
100
AcDbText
  0
LINE
  5
173BD
330
125AA
100
AcDbEntity
  8
HIKIDASHI
100
AcDbLine
 10
3864.689878611733
 20
2573.963733520729
 30
0.0
 11
3495.923501784111
 21
2573.963733520729
 31
0.0
  0
TEXT
  5
173BE
330
125AA
100
AcDbEntity
  8
HIKIDASHI
100
AcDbText
 10
3522.991109376022
 20
2618.963733520729
 30
0.0
 40
90.0
  1
砕　石
  7
01
 72
     2
 11
3822.991109376022
 21
2663.963733520729
 31
0.0
100
AcDbText
 73
     2
  0
TEXT
  5
173C0
330
125AA
100
AcDbEntity
  8
SUNPOU
100
AcDbText
 10
6214.517344503915
 20
2588.570487822471
 30
0.0
 40
90.0
  1
5-D13×5-D13
 41
0.6700000000000001
  7
01
 72
     4
 11
6557.940201646772
 21
2633.570487822471
 31
0.0
100
AcDbText
  0
TEXT
  5
173C1
330
125AA
100
AcDbEntity
  8
SUNPOU
100
AcDbText
 10
5727.69726306127
 20
2588.570487822471
 30
0.0
 40
90.0
  1
ベース筋
  7
01
 72
     4
 11
5931.69726306127
 21
2633.570487822471
 31
0.0
100
AcDbText
  0
LINE
  5
173C2
330
125AA
100
AcDbEntity
  8
HIKIDASHI
100
AcDbLine
 10
6997.547440734263
 20
4083.963733520728
 30
0.0
 11
6196.483271007121
 21
4083.963733520728
 31
0.0
  0
TEXT
  5
173C3
330
125AA
100
AcDbEntity
  8
HIKIDASHI
100
AcDbText
 10
6240.317140088584
 20
4128.963733520728
 30
0.0
 40
90.0
  1
敷砂利又は砕石
  7
01
 72
     2
 11
6972.317140088584
 21
4173.963733520728
 31
0.0
100
AcDbText
 73
     2
  0
TEXT
  5
173C4
330
125AA
100
AcDbEntity
  8
HIKIDASHI
100
AcDbText
 10
6024.221954446723
 20
4338.963733520728
 30
0.0
 40
90.0
  1
土　間
  7
01
 72
     2
 11
6318.221954446722
 21
4383.963733520728
 31
0.0
100
AcDbText
 73
     2
  0
LINE
  5
173C5
330
125AA
100
AcDbEntity
  8
HIKIDASHI
100
AcDbLine
 10
6359.920723682438
 20
4293.963733520728
 30
0.0
 11
5991.154346854814
 21
4293.963733520728
 31
0.0
  0
TEXT
  5
173C6
330
125AA
100
AcDbEntity
  8
SUNPOU
100
AcDbText
 10
6200.509196873749
 20
3888.963733520729
 30
0.0
 40
90.0
  1
F.L
 41
0.6666666666666666
  7
00
 72
     4
 11
6269.080625445177
 21
3933.963733520729
 31
0.0
100
AcDbText
  0
LINE
  5
173C7
330
125AA
100
AcDbEntity
  8
SUNPOU
100
AcDbLine
 10
6269.080625445177
 20
3753.963733520729
 30
0.0
 11
6321.042149672243
 21
3843.963733520729
 31
0.0
  0
LINE
  5
173C8
330
125AA
100
AcDbEntity
  8
SUNPOU
100
AcDbLine
 10
6217.119101218109
 20
3843.963733520729
 30
0.0
 11
6269.080625445177
 21
3753.963733520729
 31
0.0
  0
LINE
  5
173C9
330
125AA
100
AcDbEntity
  8
SUNPOU
100
AcDbLine
 10
6321.042149672243
 20
3843.963733520729
 30
0.0
 11
6217.119101218109
 21
3843.963733520729
 31
0.0
  0
TEXT
  5
173CD
330
125AA
100
AcDbEntity
  8
HIKIDASHI
100
AcDbText
 10
3941.197894611569
 20
4128.754747320638
 30
0.0
 40
89.55223880597015
  1
350
 41
0.6700000000000001
  7
00
100
AcDbText
  0
TEXT
  5
173CE
330
125AA
100
AcDbEntity
  8
HIKIDASHI
100
AcDbText
 10
3647.115610627792
 20
4128.963733520728
 30
0.0
 40
89.55223880597015
  1
10
 41
0.6700000000000001
  7
00
100
AcDbText
  0
TEXT
  5
173CF
330
125AA
100
AcDbEntity
  8
HIKIDASHI
100
AcDbText
 10
3775.492365645627
 20
4155.393343159622
 30
0.0
 40
90.0
  1
%%c
 41
0.6700000000000001
  7
00
100
AcDbText
  0
TEXT
  5
173D0
330
125AA
100
AcDbEntity
  8
HIKIDASHI
100
AcDbText
 10
3415.608897026134
 20
4128.963733520728
 30
0.0
 40
90.0
  1
鉄筋
  7
01
100
AcDbText
  0
TEXT
  5
173D1
330
125AA
100
AcDbEntity
  8
HIKIDASHI
100
AcDbText
 10
3860.062515458436
 20
4140.157763371475
 30
0.0
 40
89.55223880597015
  1
x
 41
0.6700000000000001
  7
00
100
AcDbText
  0
LINE
  5
173D3
330
125AA
100
AcDbEntity
  8
KISO
100
AcDbLine
 10
4089.856483595691
 20
2985.963733520729
 30
0.0
 11
5689.856483595686
 21
2985.963733520732
 31
0.0
  0
LINE
  5
173D6
330
125AA
100
AcDbEntity
  8
KISO
100
AcDbLine
 10
4089.856483595691
 20
2985.963733520729
 30
0.0
 11
4089.856483595691
 21
3145.963733520729
 31
0.0
  0
LINE
  5
173DA
330
125AA
100
AcDbEntity
  8
KISO
100
AcDbLine
 10
5689.856483595686
 20
2985.963733520732
 30
0.0
 11
5689.856483595686
 21
3145.963733520728
 31
0.0
  0
LINE
  5
173DB
330
125AA
100
AcDbEntity
  8
KISO
100
AcDbLine
 10
4089.856483595691
 20
3145.963733520729
 30
0.0
 11
5689.856483595686
 21
3145.963733520728
 31
0.0
  0
TEXT
  5
17750
330
125AA
100
AcDbEntity
  8
WAKUMOJI-01
100
AcDbText
 10
10328.25274254596
 20
659.5644874899107
 30
0.0
 40
120.0
  1
機種名
  7
WAKUMOJI
100
AcDbText
  0
TEXT
  5
17751
330
125AA
100
AcDbEntity
  8
WAKUMOJI-01
100
AcDbText
 10
10335.13012998138
 20
1062.951504669661
 30
0.0
 40
120.0
  1
名　称
  7
WAKUMOJI
100
AcDbText
  0
LINE
  5
17752
330
125AA
100
AcDbEntity
  8
WAKUSEN-02
100
AcDbLine
 10
13434.0
 20
413.9999999999963
 30
0.0
 11
13434.0
 21
1242.0
 31
0.0
  0
LINE
  5
17753
330
125AA
100
AcDbEntity
  8
WAKUSEN-01
100
AcDbLine
 10
10280.0
 20
413.9999999999986
 30
0.0
 11
10280.0
 21
1242.0
 31
0.0
  0
LINE
  5
17754
330
125AA
100
AcDbEntity
  8
WAKUSEN-01
100
AcDbLine
 10
10280.0
 20
1242.0
 30
0.0
 11
16382.0
 21
1242.0
 31
0.0
  0
LINE
  5
17755
330
125AA
100
AcDbEntity
  8
WAKUSEN-02
100
AcDbLine
 10
10280.0
 20
827.9999999999997
 30
0.0
 11
13434.0
 21
827.9999999999997
 31
0.0
  0
LINE
  5
17756
330
125AA
100
AcDbEntity
  8
WAKUSEN-01
100
AcDbLine
 10
434.0000000000008
 20
11242.0
 30
0.0
 11
16382.0
 21
11242.0
 31
0.0
  0
LINE
  5
17757
330
125AA
100
AcDbEntity
  8
WAKUSEN-01
100
AcDbLine
 10
16382.0
 20
413.9999999999997
 30
0.0
 11
16382.0
 21
11242.0
 31
0.0
  0
LINE
  5
17758
330
125AA
100
AcDbEntity
  8
WAKUSEN-01
100
AcDbLine
 10
434.0000000000008
 20
413.9999999999997
 30
0.0
 11
434.0000000000008
 21
11242.0
 31
0.0
  0
LINE
  5
17759
330
125AA
100
AcDbEntity
  8
WAKUSEN-01
100
AcDbLine
 10
434.0000000000008
 20
413.9999999999997
 30
0.0
 11
16382.0
 21
413.9999999999997
 31
0.0
  0
LINE
  5
179D9
330
125AA
100
AcDbEntity
  8
SUNPOU
100
AcDbLine
 10
4889.856483595693
 20
4586.963733520728
 30
0.0
 11
4889.856483595693
 21
4601.963733520728
 31
0.0
  0
LINE
  5
179DA
330
125AA
100
AcDbEntity
  8
SUNPOU
100
AcDbLine
 10
4249.856483595691
 20
3783.963733520729
 30
0.0
 11
4249.856483595691
 21
4601.963733520728
 31
0.0
  0
LINE
  5
179DB
330
125AA
100
AcDbEntity
  8
SUNPOU
100
AcDbLine
 10
4874.856483595692
 20
4556.963733520728
 30
0.0
 11
4264.856483595691
 21
4556.963733520728
 31
0.0
  0
LINE
  5
179DF
330
125AA
100
AcDbEntity
  8
SUNPOU
  6
ByBlock
100
AcDbLine
 10
6435.086990845943
 20
4556.963733520728
 30
0.0
 11
6375.086990845929
 21
4556.963733520728
 31
0.0
  0
LINE
  5
179E0
330
125AA
100
AcDbEntity
  8
SUNPOU
  6
ByBlock
100
AcDbLine
 10
6435.086990845936
 20
4556.963733520728
 30
0.0
 11
6375.086990845936
 21
4573.040685066597
 31
0.0
  0
LINE
  5
179E1
330
125AA
100
AcDbEntity
  8
SUNPOU
  6
ByBlock
100
AcDbLine
 10
6435.086990845943
 20
4556.963733520728
 30
0.0
 11
6375.086990845929
 21
4540.886781974857
 31
0.0
  0
LINE
  5
179E2
330
125AA
100
AcDbEntity
  8
SUNPOU
  6
ByBlock
100
AcDbLine
 10
6375.086990845943
 20
4556.963733520728
 30
0.0
 11
6315.086990845929
 21
4556.963733520728
 31
0.0
  0
LINE
  5
179E3
330
125AA
100
AcDbEntity
  8
SUNPOU
  6
ByBlock
100
AcDbLine
 10
6375.086990845936
 20
4556.963733520728
 30
0.0
 11
6315.086990845935
 21
4573.040685066597
 31
0.0
  0
LINE
  5
179E4
330
125AA
100
AcDbEntity
  8
SUNPOU
  6
ByBlock
100
AcDbLine
 10
6375.086990845943
 20
4556.963733520728
 30
0.0
 11
6315.086990845929
 21
4540.886781974857
 31
0.0
  0
LINE
  5
179E5
330
125AA
100
AcDbEntity
  8
SUNPOU
100
AcDbLine
 10
6397.249978138844
 20
3753.963733520729
 30
0.0
 11
6863.18758900464
 21
3753.963733520729
 31
0.0
  0
LINE
  5
179E6
330
125AA
100
AcDbEntity
  8
SUNPOU
100
AcDbLine
 10
5719.856483595691
 20
3145.963733520729
 30
0.0
 11
6863.18758900464
 21
3145.963733520729
 31
0.0
  0
LINE
  5
179E7
330
125AA
100
AcDbEntity
  8
SUNPOU
100
AcDbLine
 10
6818.18758900464
 20
3738.963733520729
 30
0.0
 11
6818.18758900464
 21
3160.963733520729
 31
0.0
  0
LINE
  5
179EB
330
125AA
100
AcDbEntity
  8
SUNPOU
100
AcDbLine
 10
5719.856483595692
 20
3145.963733520728
 30
0.0
 11
6863.18758900464
 21
3145.963733520728
 31
0.0
  0
LINE
  5
179EC
330
125AA
100
AcDbEntity
  8
SUNPOU
100
AcDbLine
 10
5719.856483595692
 20
2985.963733520732
 30
0.0
 11
6863.18758900464
 21
2985.963733520732
 31
0.0
  0
LINE
  5
179ED
330
125AA
100
AcDbEntity
  8
SUNPOU
100
AcDbLine
 10
6818.18758900464
 20
3130.963733520728
 30
0.0
 11
6818.18758900464
 21
3000.963733520732
 31
0.0
  0
LINE
  5
179F1
330
125AA
100
AcDbEntity
  8
SUNPOU
100
AcDbLine
 10
6397.249978138844
 20
3753.963733520729
 30
0.0
 11
7069.437589004642
 21
3753.963733520729
 31
0.0
  0
LINE
  5
179F2
330
125AA
100
AcDbEntity
  8
SUNPOU
100
AcDbLine
 10
5719.856483595692
 20
2985.963733520732
 30
0.0
 11
7069.437589004642
 21
2985.963733520732
 31
0.0
  0
LINE
  5
179F3
330
125AA
100
AcDbEntity
  8
SUNPOU
100
AcDbLine
 10
7024.43758900464
 20
3738.963733520729
 30
0.0
 11
7024.43758900464
 21
3000.963733520732
 31
0.0
  0
LINE
  5
179F7
330
125AA
100
AcDbEntity
  8
SUNPOU
100
AcDbLine
 10
4249.856483595691
 20
3115.963733520729
 30
0.0
 11
4249.856483595691
 21
2560.963733520728
 31
0.0
  0
LINE
  5
179F8
330
125AA
100
AcDbEntity
  8
SUNPOU
100
AcDbLine
 10
5529.856483595692
 20
3115.963733520729
 30
0.0
 11
5529.856483595692
 21
2560.963733520728
 31
0.0
  0
LINE
  5
179F9
330
125AA
100
AcDbEntity
  8
SUNPOU
100
AcDbLine
 10
4264.856483595691
 20
2605.963733520728
 30
0.0
 11
5514.856483595691
 21
2605.963733520728
 31
0.0
  0
LINE
  5
179FD
330
125AA
100
AcDbEntity
  8
SUNPOU
100
AcDbLine
 10
4089.856483595691
 20
2955.963733520729
 30
0.0
 11
4089.856483595691
 21
2350.963733520728
 31
0.0
  0
LINE
  5
179FE
330
125AA
100
AcDbEntity
  8
SUNPOU
100
AcDbLine
 10
5689.856483595693
 20
2955.963733520732
 30
0.0
 11
5689.856483595693
 21
2350.963733520728
 31
0.0
  0
LINE
  5
179FF
330
125AA
100
AcDbEntity
  8
SUNPOU
100
AcDbLine
 10
4104.856483595692
 20
2395.963733520728
 30
0.0
 11
5674.856483595693
 21
2395.963733520728
 31
0.0
  0
LINE
  5
17A03
330
125AA
100
AcDbEntity
  8
SUNPOU
100
AcDbLine
 10
10264.12750789964
 20
9118.243182432328
 30
0.0
 11
11099.12750789964
 21
9118.243182432328
 31
0.0
  0
LINE
  5
17A04
330
125AA
100
AcDbEntity
  8
SUNPOU
100
AcDbLine
 10
10264.12750789964
 20
6508.243182432328
 30
0.0
 11
11099.12750789964
 21
6508.243182432328
 31
0.0
  0
LINE
  5
17A05
330
125AA
100
AcDbEntity
  8
SUNPOU
100
AcDbLine
 10
11054.12750789964
 20
9103.243182432327
 30
0.0
 11
11054.12750789964
 21
6523.243182432327
 31
0.0
  0
LINE
  5
17A09
330
125AA
100
AcDbEntity
  8
SUNPOU
100
AcDbLine
 10
10409.12750789964
 20
8718.243182432329
 30
0.0
 11
10889.12750789964
 21
8718.243182432329
 31
0.0
  0
LINE
  5
17A0A
330
125AA
100
AcDbEntity
  8
SUNPOU
100
AcDbLine
 10
10264.12750789964
 20
9118.243182432328
 30
0.0
 11
10889.12750789964
 21
9118.243182432328
 31
0.0
  0
LINE
  5
17A0B
330
125AA
100
AcDbEntity
  8
SUNPOU
100
AcDbLine
 10
10844.12750789964
 20
8733.243182432328
 30
0.0
 11
10844.12750789964
 21
9103.243182432327
 31
0.0
  0
LINE
  5
17A0F
330
125AA
100
AcDbEntity
  8
SUNPOU
100
AcDbLine
 10
10409.12750789964
 20
6908.243182432328
 30
0.0
 11
10889.12750789964
 21
6908.243182432328
 31
0.0
  0
LINE
  5
17A10
330
125AA
100
AcDbEntity
  8
SUNPOU
100
AcDbLine
 10
10409.12750789964
 20
8718.243182432329
 30
0.0
 11
10889.12750789964
 21
8718.243182432329
 31
0.0
  0
LINE
  5
17A11
330
125AA
100
AcDbEntity
  8
SUNPOU
100
AcDbLine
 10
10844.12750789964
 20
6923.243182432329
 30
0.0
 11
10844.12750789964
 21
8703.243182432329
 31
0.0
  0
LINE
  5
17A15
330
125AA
100
AcDbEntity
  8
SUNPOU
100
AcDbLine
 10
10264.12750789964
 20
6508.243182432328
 30
0.0
 11
10889.12750789964
 21
6508.243182432328
 31
0.0
  0
LINE
  5
17A16
330
125AA
100
AcDbEntity
  8
SUNPOU
100
AcDbLine
 10
10409.12750789964
 20
6908.243182432328
 30
0.0
 11
10889.12750789964
 21
6908.243182432328
 31
0.0
  0
LINE
  5
17A17
330
125AA
100
AcDbEntity
  8
SUNPOU
100
AcDbLine
 10
10844.12750789964
 20
6523.243182432327
 30
0.0
 11
10844.12750789964
 21
6893.243182432327
 31
0.0
  0
LINE
  5
17A1B
330
125AA
100
AcDbEntity
  8
SUNPOU
100
AcDbLine
 10
10260.12750789964
 20
8918.243182432329
 30
0.0
 11
10679.12750789964
 21
8918.243182432329
 31
0.0
  0
LINE
  5
17A1C
330
125AA
100
AcDbEntity
  8
SUNPOU
100
AcDbLine
 10
10264.12750789964
 20
9118.243182432328
 30
0.0
 11
10679.12750789964
 21
9118.243182432328
 31
0.0
  0
LINE
  5
17A1D
330
125AA
100
AcDbEntity
  8
SUNPOU
100
AcDbLine
 10
10634.12750789964
 20
8933.243182432326
 30
0.0
 11
10634.12750789964
 21
9103.243182432327
 31
0.0
  0
LINE
  5
17A1E
330
125AA
100
AcDbEntity
  8
SUNPOU
100
AcDbLine
 10
10634.12750789964
 20
9118.243182432328
 30
0.0
 11
10634.12750789964
 21
9377.528896718045
 31
0.0
  0
LINE
  5
17A22
330
125AA
100
AcDbEntity
  8
SUNPOU
100
AcDbLine
 10
10409.12750789964
 20
8718.243182432329
 30
0.0
 11
10679.12750789964
 21
8718.243182432329
 31
0.0
  0
LINE
  5
17A23
330
125AA
100
AcDbEntity
  8
SUNPOU
100
AcDbLine
 10
10264.12750789964
 20
8918.243182432329
 30
0.0
 11
10679.12750789964
 21
8918.243182432329
 31
0.0
  0
LINE
  5
17A24
330
125AA
100
AcDbEntity
  8
SUNPOU
100
AcDbLine
 10
10634.12750789964
 20
8903.243182432328
 30
0.0
 11
10634.12750789964
 21
8733.243182432328
 31
0.0
  0
LINE
  5
17A25
330
125AA
100
AcDbEntity
  8
SUNPOU
100
AcDbLine
 10
10634.12750789964
 20
8718.243182432329
 30
0.0
 11
10634.12750789964
 21
8458.957468146612
 31
0.0
  0
LINE
  5
17A29
330
125AA
100
AcDbEntity
  8
SUNPOU
100
AcDbLine
 10
7649.127507899639
 20
7118.24318243233
 30
0.0
 11
7634.127507899639
 21
7208.243182432328
 31
0.0
  0
LINE
  5
17A2A
330
125AA
100
AcDbEntity
  8
SUNPOU
100
AcDbLine
 10
7634.127507899639
 20
7208.243182432328
 30
0.0
 11
7619.127507899638
 21
7118.24318243233
 31
0.0
  0
SOLID
  5
17A2B
330
125AA
100
AcDbEntity
  8
SUNPOU
100
AcDbTrace
 10
7649.127507899639
 20
7118.24318243233
 30
0.0
 11
7619.127507899638
 21
7118.24318243233
 31
0.0
 12
7634.127507899639
 22
7208.243182432328
 32
0.0
 13
7634.127507899639
 23
7208.243182432328
 33
0.0
  0
LINE
  5
17A2C
330
125AA
100
AcDbEntity
  8
SUNPOU
100
AcDbLine
 10
7619.127507899638
 20
7118.24318243233
 30
0.0
 11
7649.127507899639
 21
7118.24318243233
 31
0.0
  0
LINE
  5
17A2D
330
125AA
100
AcDbEntity
  8
SUNPOU
100
AcDbLine
 10
6399.127507899635
 20
7118.24318243233
 30
0.0
 11
6414.127507899635
 21
7208.243182432328
 31
0.0
  0
LINE
  5
17A2E
330
125AA
100
AcDbEntity
  8
SUNPOU
100
AcDbLine
 10
6414.127507899635
 20
7208.243182432328
 30
0.0
 11
6429.127507899635
 21
7118.24318243233
 31
0.0
  0
SOLID
  5
17A2F
330
125AA
100
AcDbEntity
  8
SUNPOU
100
AcDbTrace
 10
6399.127507899635
 20
7118.24318243233
 30
0.0
 11
6429.127507899635
 21
7118.24318243233
 31
0.0
 12
6414.127507899635
 22
7208.243182432328
 32
0.0
 13
6414.127507899635
 23
7208.243182432328
 33
0.0
  0
LINE
  5
17A30
330
125AA
100
AcDbEntity
  8
SUNPOU
100
AcDbLine
 10
6429.127507899635
 20
7118.24318243233
 30
0.0
 11
6399.127507899635
 21
7118.24318243233
 31
0.0
  0
LINE
  5
17A31
330
125AA
100
AcDbEntity
  8
SUNPOU
100
AcDbLine
 10
6624.127507899638
 20
9148.243182432329
 30
0.0
 11
6624.127507899638
 21
9673.243182432329
 31
0.0
  0
LINE
  5
17A32
330
125AA
100
AcDbEntity
  8
SUNPOU
100
AcDbLine
 10
10234.12750789964
 20
9148.243182432329
 30
0.0
 11
10234.12750789964
 21
9673.243182432329
 31
0.0
  0
LINE
  5
17A33
330
125AA
100
AcDbEntity
  8
SUNPOU
100
AcDbLine
 10
6639.127507899639
 20
9628.243182432328
 30
0.0
 11
10219.12750789964
 21
9628.243182432328
 31
0.0
  0
LINE
  5
17A37
330
125AA
100
AcDbEntity
  8
SUNPOU
100
AcDbLine
 10
9834.127507899641
 20
9348.243182432328
 30
0.0
 11
9834.127507899641
 21
9463.243182432329
 31
0.0
  0
LINE
  5
17A38
330
125AA
100
AcDbEntity
  8
SUNPOU
100
AcDbLine
 10
7024.127507899639
 20
9348.243182432328
 30
0.0
 11
7024.127507899639
 21
9463.243182432329
 31
0.0
  0
LINE
  5
17A39
330
125AA
100
AcDbEntity
  8
SUNPOU
100
AcDbLine
 10
9819.127507899636
 20
9418.243182432329
 30
0.0
 11
7039.127507899639
 21
9418.243182432329
 31
0.0
  0
LINE
  5
17A3D
330
125AA
100
AcDbEntity
  8
SUNPOU
100
AcDbLine
 10
7024.127507899639
 20
9348.243182432328
 30
0.0
 11
7024.127507899639
 21
9463.243182432329
 31
0.0
  0
LINE
  5
17A3E
330
125AA
100
AcDbEntity
  8
SUNPOU
100
AcDbLine
 10
6624.127507899638
 20
9148.243182432329
 30
0.0
 11
6624.127507899638
 21
9463.243182432329
 31
0.0
  0
LINE
  5
17A3F
330
125AA
100
AcDbEntity
  8
SUNPOU
100
AcDbLine
 10
7009.127507899639
 20
9418.243182432329
 30
0.0
 11
6639.127507899639
 21
9418.243182432329
 31
0.0
  0
LINE
  5
17A43
330
125AA
100
AcDbEntity
  8
SUNPOU
100
AcDbLine
 10
9834.127507899641
 20
9348.243182432328
 30
0.0
 11
9834.127507899641
 21
9463.243182432329
 31
0.0
  0
LINE
  5
17A44
330
125AA
100
AcDbEntity
  8
SUNPOU
100
AcDbLine
 10
10234.12750789964
 20
9148.243182432329
 30
0.0
 11
10234.12750789964
 21
9463.243182432329
 31
0.0
  0
LINE
  5
17A45
330
125AA
100
AcDbEntity
  8
SUNPOU
100
AcDbLine
 10
9849.127507899641
 20
9418.243182432329
 30
0.0
 11
10219.12750789964
 21
9418.243182432329
 31
0.0
  0
LINE
  5
17A49
330
125AA
100
AcDbEntity
  8
SUNPOU
100
AcDbLine
 10
9404.127507899641
 20
9118.243182432328
 30
0.0
 11
9089.127507899638
 21
9118.243182432328
 31
0.0
  0
LINE
  5
17A4A
330
125AA
100
AcDbEntity
  8
SUNPOU
100
AcDbLine
 10
9404.127507899641
 20
8318.243182432329
 30
0.0
 11
9089.127507899638
 21
8318.243182432329
 31
0.0
  0
LINE
  5
17A4B
330
125AA
100
AcDbEntity
  8
SUNPOU
100
AcDbLine
 10
9134.12750789964
 20
9103.243182432327
 30
0.0
 11
9134.12750789964
 21
8333.243182432328
 31
0.0
  0
LINE
  5
17A4F
330
125AA
100
AcDbEntity
  8
SUNPOU
100
AcDbLine
 10
9434.127507899637
 20
8288.24318243233
 30
0.0
 11
9434.127507899637
 21
7973.243182432327
 31
0.0
  0
LINE
  5
17A50
330
125AA
100
AcDbEntity
  8
SUNPOU
100
AcDbLine
 10
10234.12750789964
 20
8288.24318243233
 30
0.0
 11
10234.12750789964
 21
7973.243182432327
 31
0.0
  0
LINE
  5
17A51
330
125AA
100
AcDbEntity
  8
SUNPOU
100
AcDbLine
 10
9449.127507899641
 20
8018.243182432327
 30
0.0
 11
10219.12750789964
 21
8018.243182432327
 31
0.0
  0
TEXT
  5
17A55
330
125AA
100
AcDbEntity
  8
SUNPOU
100
AcDbText
 10
4484.142197881406
 20
4601.963733520728
 30
0.0
 40
90.0
  1
400
 41
0.6666666666666666
  7
00
100
AcDbText
  0
LINE
  5
17A57
330
125AA
100
AcDbEntity
  8
SUNPOU
  6
ByBlock
100
AcDbLine
 10
4261.106483595692
 20
4556.963733520728
 30
0.0
 11
4272.356483595691
 21
4556.963733520728
 31
0.0
  0
LINE
  5
17A59
330
125AA
100
AcDbEntity
  8
SUNPOU
  6
ByBlock
100
AcDbLine
 10
4878.606483595692
 20
4556.963733520728
 30
0.0
 11
4867.356483595692
 21
4556.963733520728
 31
0.0
  0
TEXT
  5
17A5A
330
125AA
100
AcDbEntity
  8
SUNPOU
100
AcDbText
 10
6773.187589004638
 20
3364.249447806444
 30
0.0
 40
90.0
  1
380
 50
90.0
 41
0.6666666666666666
  7
00
100
AcDbText
  0
LINE
  5
17A5C
330
125AA
100
AcDbEntity
  8
SUNPOU
  6
ByBlock
100
AcDbLine
 10
6818.18758900464
 20
3157.213733520729
 30
0.0
 11
6818.18758900464
 21
3168.463733520729
 31
0.0
  0
LINE
  5
17A5E
330
125AA
100
AcDbEntity
  8
SUNPOU
  6
ByBlock
100
AcDbLine
 10
6818.18758900464
 20
3742.713733520729
 30
0.0
 11
6818.18758900464
 21
3731.463733520729
 31
0.0
  0
LINE
  5
17A60
330
125AA
100
AcDbEntity
  8
SUNPOU
  6
ByBlock
100
AcDbLine
 10
6818.18758900464
 20
2997.213733520732
 30
0.0
 11
6818.18758900464
 21
3008.463733520732
 31
0.0
  0
LINE
  5
17A62
330
125AA
100
AcDbEntity
  8
SUNPOU
  6
ByBlock
100
AcDbLine
 10
6818.18758900464
 20
3134.713733520728
 30
0.0
 11
6818.18758900464
 21
3123.463733520728
 31
0.0
  0
TEXT
  5
17A63
330
125AA
100
AcDbEntity
  8
SUNPOU
100
AcDbText
 10
6775.015821249391
 20
2760.243102996789
 30
0.0
 40
90.0
  1
100
 50
90.0
 41
0.6666666666666666
  7
00
100
AcDbText
  0
TEXT
  5
17A64
330
125AA
100
AcDbEntity
  8
SUNPOU
100
AcDbText
 10
6979.437589004638
 20
3284.249447806445
 30
0.0
 40
90.0
  1
480
 50
90.0
 41
0.6666666666666666
  7
00
100
AcDbText
  0
LINE
  5
17A66
330
125AA
100
AcDbEntity
  8
SUNPOU
  6
ByBlock
100
AcDbLine
 10
7024.43758900464
 20
2997.213733520732
 30
0.0
 11
7024.43758900464
 21
3008.463733520732
 31
0.0
  0
LINE
  5
17A68
330
125AA
100
AcDbEntity
  8
SUNPOU
  6
ByBlock
100
AcDbLine
 10
7024.43758900464
 20
3742.713733520729
 30
0.0
 11
7024.43758900464
 21
3731.463733520729
 31
0.0
  0
TEXT
  5
17A69
330
125AA
100
AcDbEntity
  8
SUNPOU
100
AcDbText
 10
4804.142197881406
 20
2650.963733520728
 30
0.0
 40
90.0
  1
800
 41
0.6666666666666666
  7
00
100
AcDbText
  0
LINE
  5
17A6B
330
125AA
100
AcDbEntity
  8
SUNPOU
  6
ByBlock
100
AcDbLine
 10
5518.606483595691
 20
2605.963733520728
 30
0.0
 11
5507.356483595692
 21
2605.963733520728
 31
0.0
  0
LINE
  5
17A6D
330
125AA
100
AcDbEntity
  8
SUNPOU
  6
ByBlock
100
AcDbLine
 10
4261.106483595692
 20
2605.963733520728
 30
0.0
 11
4272.356483595691
 21
2605.963733520728
 31
0.0
  0
TEXT
  5
17A6E
330
125AA
100
AcDbEntity
  8
SUNPOU
100
AcDbText
 10
4771.285055024263
 20
2440.963733520729
 30
0.0
 40
90.0
  1
1000
 41
0.6666666666666666
  7
00
100
AcDbText
  0
LINE
  5
17A70
330
125AA
100
AcDbEntity
  8
SUNPOU
  6
ByBlock
100
AcDbLine
 10
5678.606483595692
 20
2395.963733520728
 30
0.0
 11
5667.356483595693
 21
2395.963733520728
 31
0.0
  0
LINE
  5
17A72
330
125AA
100
AcDbEntity
  8
SUNPOU
  6
ByBlock
100
AcDbLine
 10
4101.106483595692
 20
2395.963733520728
 30
0.0
 11
4112.356483595691
 21
2395.963733520728
 31
0.0
  0
TEXT
  5
17A73
330
125AA
100
AcDbEntity
  8
SUNPOU
100
AcDbText
 10
11009.12750789963
 20
7698.957468146615
 30
0.0
 40
90.0
  1
2610
 50
90.0
 41
0.6666666666666666
  7
00
100
AcDbText
  0
LINE
  5
17A75
330
125AA
100
AcDbEntity
  8
SUNPOU
  6
ByBlock
100
AcDbLine
 10
11054.12750789964
 20
6519.493182432326
 30
0.0
 11
11054.12750789964
 21
6530.743182432328
 31
0.0
  0
LINE
  5
17A77
330
125AA
100
AcDbEntity
  8
SUNPOU
  6
ByBlock
100
AcDbLine
 10
11054.12750789964
 20
9106.993182432329
 30
0.0
 11
11054.12750789964
 21
9095.743182432327
 31
0.0
  0
TEXT
  5
17A78
330
125AA
100
AcDbEntity
  8
SUNPOU
100
AcDbText
 10
10799.12750789963
 20
8832.528896718043
 30
0.0
 40
90.0
  1
400
 50
90.0
 41
0.6666666666666666
  7
00
100
AcDbText
  0
LINE
  5
17A7A
330
125AA
100
AcDbEntity
  8
SUNPOU
  6
ByBlock
100
AcDbLine
 10
10844.12750789964
 20
9106.993182432329
 30
0.0
 11
10844.12750789964
 21
9095.743182432327
 31
0.0
  0
LINE
  5
17A7C
330
125AA
100
AcDbEntity
  8
SUNPOU
  6
ByBlock
100
AcDbLine
 10
10844.12750789964
 20
8729.493182432328
 30
0.0
 11
10844.12750789964
 21
8740.743182432328
 31
0.0
  0
TEXT
  5
17A7D
330
125AA
100
AcDbEntity
  8
SUNPOU
100
AcDbText
 10
10799.12750789963
 20
7694.671753860901
 30
0.0
 40
90.0
  1
1810
 50
90.0
 41
0.6666666666666666
  7
00
100
AcDbText
  0
LINE
  5
17A7F
330
125AA
100
AcDbEntity
  8
SUNPOU
  6
ByBlock
100
AcDbLine
 10
10844.12750789964
 20
8706.993182432329
 30
0.0
 11
10844.12750789964
 21
8695.743182432329
 31
0.0
  0
LINE
  5
17A81
330
125AA
100
AcDbEntity
  8
SUNPOU
  6
ByBlock
100
AcDbLine
 10
10844.12750789964
 20
6919.493182432329
 30
0.0
 11
10844.12750789964
 21
6930.74318243233
 31
0.0
  0
TEXT
  5
17A82
330
125AA
100
AcDbEntity
  8
SUNPOU
100
AcDbText
 10
10799.12750789963
 20
6622.528896718044
 30
0.0
 40
90.0
  1
400
 50
90.0
 41
0.6666666666666666
  7
00
100
AcDbText
  0
LINE
  5
17A84
330
125AA
100
AcDbEntity
  8
SUNPOU
  6
ByBlock
100
AcDbLine
 10
10844.12750789964
 20
6896.993182432328
 30
0.0
 11
10844.12750789964
 21
6885.743182432327
 31
0.0
  0
LINE
  5
17A86
330
125AA
100
AcDbEntity
  8
SUNPOU
  6
ByBlock
100
AcDbLine
 10
10844.12750789964
 20
6519.493182432326
 30
0.0
 11
10844.12750789964
 21
6530.743182432328
 31
0.0
  0
TEXT
  5
17A87
330
125AA
100
AcDbEntity
  8
SUNPOU
100
AcDbText
 10
10589.12750789964
 20
9169.671753860905
 30
0.0
 40
90.0
  1
200
 50
90.0
 41
0.6666666666666666
  7
00
100
AcDbText
  0
LINE
  5
17A89
330
125AA
100
AcDbEntity
  8
SUNPOU
  6
ByBlock
100
AcDbLine
 10
10634.12750789964
 20
9106.993182432329
 30
0.0
 11
10634.12750789964
 21
9095.743182432327
 31
0.0
  0
LINE
  5
17A8B
330
125AA
100
AcDbEntity
  8
SUNPOU
  6
ByBlock
100
AcDbLine
 10
10634.12750789964
 20
8929.493182432329
 30
0.0
 11
10634.12750789964
 21
8940.743182432328
 31
0.0
  0
TEXT
  5
17A8C
330
125AA
100
AcDbEntity
  8
SUNPOU
100
AcDbText
 10
10589.12750789964
 20
8495.386039575185
 30
0.0
 40
90.0
  1
200
 50
90.0
 41
0.6666666666666666
  7
00
100
AcDbText
  0
LINE
  5
17A8E
330
125AA
100
AcDbEntity
  8
SUNPOU
  6
ByBlock
100
AcDbLine
 10
10634.12750789964
 20
8729.493182432328
 30
0.0
 11
10634.12750789964
 21
8740.743182432328
 31
0.0
  0
LINE
  5
17A90
330
125AA
100
AcDbEntity
  8
SUNPOU
  6
ByBlock
100
AcDbLine
 10
10634.12750789964
 20
8906.993182432328
 30
0.0
 11
10634.12750789964
 21
8895.743182432328
 31
0.0
  0
TEXT
  5
17A91
330
125AA
100
AcDbEntity
  8
SUNPOU
100
AcDbText
 10
8314.841793613926
 20
9673.243182432329
 30
0.0
 40
90.0
  1
3610
 41
0.6666666666666666
  7
00
100
AcDbText
  0
LINE
  5
17A93
330
125AA
100
AcDbEntity
  8
SUNPOU
  6
ByBlock
100
AcDbLine
 10
10222.87750789964
 20
9628.243182432328
 30
0.0
 11
10211.62750789964
 21
9628.243182432328
 31
0.0
  0
LINE
  5
17A95
330
125AA
100
AcDbEntity
  8
SUNPOU
  6
ByBlock
100
AcDbLine
 10
6635.377507899639
 20
9628.243182432328
 30
0.0
 11
6646.627507899639
 21
9628.243182432328
 31
0.0
  0
TEXT
  5
17A96
330
125AA
100
AcDbEntity
  8
SUNPOU
100
AcDbText
 10
8314.841793613926
 20
9463.243182432329
 30
0.0
 40
90.0
  1
2810
 41
0.6666666666666666
  7
00
100
AcDbText
  0
LINE
  5
17A98
330
125AA
100
AcDbEntity
  8
SUNPOU
  6
ByBlock
100
AcDbLine
 10
7035.377507899639
 20
9418.243182432329
 30
0.0
 11
7046.627507899639
 21
9418.243182432329
 31
0.0
  0
LINE
  5
17A9A
330
125AA
100
AcDbEntity
  8
SUNPOU
  6
ByBlock
100
AcDbLine
 10
9822.87750789964
 20
9418.243182432329
 30
0.0
 11
9811.627507899641
 21
9418.243182432329
 31
0.0
  0
TEXT
  5
17A9B
330
125AA
100
AcDbEntity
  8
SUNPOU
100
AcDbText
 10
6738.413222185354
 20
9463.243182432329
 30
0.0
 40
90.0
  1
400
 41
0.6666666666666666
  7
00
100
AcDbText
  0
LINE
  5
17A9D
330
125AA
100
AcDbEntity
  8
SUNPOU
  6
ByBlock
100
AcDbLine
 10
6635.377507899639
 20
9418.243182432329
 30
0.0
 11
6646.627507899639
 21
9418.243182432329
 31
0.0
  0
LINE
  5
17A9F
330
125AA
100
AcDbEntity
  8
SUNPOU
  6
ByBlock
100
AcDbLine
 10
7012.877507899638
 20
9418.243182432329
 30
0.0
 11
7001.627507899637
 21
9418.243182432329
 31
0.0
  0
TEXT
  5
17AA0
330
125AA
100
AcDbEntity
  8
SUNPOU
100
AcDbText
 10
9948.413222185353
 20
9463.243182432329
 30
0.0
 40
90.0
  1
400
 41
0.6666666666666666
  7
00
100
AcDbText
  0
LINE
  5
17AA2
330
125AA
100
AcDbEntity
  8
SUNPOU
  6
ByBlock
100
AcDbLine
 10
10222.87750789964
 20
9418.243182432329
 30
0.0
 11
10211.62750789964
 21
9418.243182432329
 31
0.0
  0
LINE
  5
17AA4
330
125AA
100
AcDbEntity
  8
SUNPOU
  6
ByBlock
100
AcDbLine
 10
9845.377507899641
 20
9418.243182432329
 30
0.0
 11
9856.627507899638
 21
9418.243182432329
 31
0.0
  0
TEXT
  5
17AA5
330
125AA
100
AcDbEntity
  8
SUNPOU
100
AcDbText
 10
9089.127507899638
 20
8632.528896718044
 30
0.0
 40
90.0
  1
800
 50
90.0
 41
0.6666666666666666
  7
00
100
AcDbText
  0
LINE
  5
17AA7
330
125AA
100
AcDbEntity
  8
SUNPOU
  6
ByBlock
100
AcDbLine
 10
9134.12750789964
 20
8329.493182432328
 30
0.0
 11
9134.12750789964
 21
8340.743182432328
 31
0.0
  0
LINE
  5
17AA9
330
125AA
100
AcDbEntity
  8
SUNPOU
  6
ByBlock
100
AcDbLine
 10
9134.12750789964
 20
9106.993182432329
 30
0.0
 11
9134.12750789964
 21
9095.743182432327
 31
0.0
  0
TEXT
  5
17AAA
330
125AA
100
AcDbEntity
  8
SUNPOU
100
AcDbText
 10
9748.413222185353
 20
8063.243182432328
 30
0.0
 40
90.0
  1
800
 41
0.6666666666666666
  7
00
100
AcDbText
  0
LINE
  5
17AAC
330
125AA
100
AcDbEntity
  8
SUNPOU
  6
ByBlock
100
AcDbLine
 10
10222.87750789964
 20
8018.243182432327
 30
0.0
 11
10211.62750789964
 21
8018.243182432327
 31
0.0
  0
LINE
  5
17AAE
330
125AA
100
AcDbEntity
  8
SUNPOU
  6
ByBlock
100
AcDbLine
 10
9445.377507899641
 20
8018.243182432327
 30
0.0
 11
9456.627507899638
 21
8018.243182432327
 31
0.0
  0
ARC
  5
17AAF
330
125AA
100
AcDbEntity
  8
SUNPOU
  6
ByBlock
100
AcDbCircle
 10
4249.856483595691
 20
4556.963733520728
 30
0.0
 40
5.625
100
AcDbArc
 50
0.0
 51
180.0
  0
ARC
  5
17AB0
330
125AA
100
AcDbEntity
  8
SUNPOU
  6
ByBlock
100
AcDbCircle
 10
4249.856483595691
 20
4556.963733520728
 30
0.0
 40
5.625
100
AcDbArc
 50
180.0
 51
0.0
  0
ARC
  5
17AB1
330
125AA
100
AcDbEntity
  8
SUNPOU
  6
ByBlock
100
AcDbCircle
 10
4889.856483595693
 20
4556.963733520728
 30
0.0
 40
5.625
100
AcDbArc
 50
180.0
 51
0.0
  0
ARC
  5
17AB2
330
125AA
100
AcDbEntity
  8
SUNPOU
  6
ByBlock
100
AcDbCircle
 10
4889.856483595693
 20
4556.963733520728
 30
0.0
 40
5.625
100
AcDbArc
 50
0.0
 51
180.0
  0
ARC
  5
17AB3
330
125AA
100
AcDbEntity
  8
SUNPOU
  6
ByBlock
100
AcDbCircle
 10
6818.18758900464
 20
3145.963733520729
 30
0.0
 40
5.625
100
AcDbArc
 50
90.0
 51
270.0
  0
ARC
  5
17AB4
330
125AA
100
AcDbEntity
  8
SUNPOU
  6
ByBlock
100
AcDbCircle
 10
6818.18758900464
 20
3145.963733520729
 30
0.0
 40
5.625
100
AcDbArc
 50
270.0
 51
90.0
  0
ARC
  5
17AB5
330
125AA
100
AcDbEntity
  8
SUNPOU
  6
ByBlock
100
AcDbCircle
 10
6818.18758900464
 20
3753.963733520729
 30
0.0
 40
5.625
100
AcDbArc
 50
270.0
 51
90.0
  0
ARC
  5
17AB6
330
125AA
100
AcDbEntity
  8
SUNPOU
  6
ByBlock
100
AcDbCircle
 10
6818.18758900464
 20
3753.963733520729
 30
0.0
 40
5.625
100
AcDbArc
 50
90.0
 51
270.0
  0
ARC
  5
17AB7
330
125AA
100
AcDbEntity
  8
SUNPOU
  6
ByBlock
100
AcDbCircle
 10
6818.18758900464
 20
2985.963733520732
 30
0.0
 40
5.625
100
AcDbArc
 50
90.0
 51
270.0
  0
ARC
  5
17AB8
330
125AA
100
AcDbEntity
  8
SUNPOU
  6
ByBlock
100
AcDbCircle
 10
6818.18758900464
 20
2985.963733520732
 30
0.0
 40
5.625
100
AcDbArc
 50
270.0
 51
90.0
  0
ARC
  5
17AB9
330
125AA
100
AcDbEntity
  8
SUNPOU
  6
ByBlock
100
AcDbCircle
 10
6818.18758900464
 20
3145.963733520728
 30
0.0
 40
5.625
100
AcDbArc
 50
270.0
 51
90.0
  0
ARC
  5
17ABA
330
125AA
100
AcDbEntity
  8
SUNPOU
  6
ByBlock
100
AcDbCircle
 10
6818.18758900464
 20
3145.963733520728
 30
0.0
 40
5.625
100
AcDbArc
 50
90.0
 51
270.0
  0
ARC
  5
17ABB
330
125AA
100
AcDbEntity
  8
SUNPOU
  6
ByBlock
100
AcDbCircle
 10
7024.43758900464
 20
2985.963733520732
 30
0.0
 40
5.625
100
AcDbArc
 50
90.0
 51
270.0
  0
ARC
  5
17ABC
330
125AA
100
AcDbEntity
  8
SUNPOU
  6
ByBlock
100
AcDbCircle
 10
7024.43758900464
 20
2985.963733520732
 30
0.0
 40
5.625
100
AcDbArc
 50
270.0
 51
90.0
  0
ARC
  5
17ABD
330
125AA
100
AcDbEntity
  8
SUNPOU
  6
ByBlock
100
AcDbCircle
 10
7024.43758900464
 20
3753.963733520729
 30
0.0
 40
5.625
100
AcDbArc
 50
270.0
 51
90.0
  0
ARC
  5
17ABE
330
125AA
100
AcDbEntity
  8
SUNPOU
  6
ByBlock
100
AcDbCircle
 10
7024.43758900464
 20
3753.963733520729
 30
0.0
 40
5.625
100
AcDbArc
 50
90.0
 51
270.0
  0
ARC
  5
17ABF
330
125AA
100
AcDbEntity
  8
SUNPOU
  6
ByBlock
100
AcDbCircle
 10
5529.856483595692
 20
2605.963733520728
 30
0.0
 40
5.625
100
AcDbArc
 50
180.0
 51
0.0
  0
ARC
  5
17AC0
330
125AA
100
AcDbEntity
  8
SUNPOU
  6
ByBlock
100
AcDbCircle
 10
5529.856483595692
 20
2605.963733520728
 30
0.0
 40
5.625
100
AcDbArc
 50
0.0
 51
180.0
  0
ARC
  5
17AC1
330
125AA
100
AcDbEntity
  8
SUNPOU
  6
ByBlock
100
AcDbCircle
 10
4249.856483595691
 20
2605.963733520728
 30
0.0
 40
5.625
100
AcDbArc
 50
0.0
 51
180.0
  0
ARC
  5
17AC2
330
125AA
100
AcDbEntity
  8
SUNPOU
  6
ByBlock
100
AcDbCircle
 10
4249.856483595691
 20
2605.963733520728
 30
0.0
 40
5.625
100
AcDbArc
 50
180.0
 51
0.0
  0
ARC
  5
17AC3
330
125AA
100
AcDbEntity
  8
SUNPOU
  6
ByBlock
100
AcDbCircle
 10
5689.856483595693
 20
2395.963733520728
 30
0.0
 40
5.625
100
AcDbArc
 50
180.0
 51
0.0
  0
ARC
  5
17AC4
330
125AA
100
AcDbEntity
  8
SUNPOU
  6
ByBlock
100
AcDbCircle
 10
5689.856483595693
 20
2395.963733520728
 30
0.0
 40
5.625
100
AcDbArc
 50
0.0
 51
180.0
  0
ARC
  5
17AC5
330
125AA
100
AcDbEntity
  8
SUNPOU
  6
ByBlock
100
AcDbCircle
 10
4089.856483595691
 20
2395.963733520728
 30
0.0
 40
5.625
100
AcDbArc
 50
0.0
 51
180.0
  0
ARC
  5
17AC6
330
125AA
100
AcDbEntity
  8
SUNPOU
  6
ByBlock
100
AcDbCircle
 10
4089.856483595691
 20
2395.963733520728
 30
0.0
 40
5.625
100
AcDbArc
 50
180.0
 51
0.0
  0
ARC
  5
17AC7
330
125AA
100
AcDbEntity
  8
SUNPOU
  6
ByBlock
100
AcDbCircle
 10
11054.12750789964
 20
6508.243182432328
 30
0.0
 40
5.625
100
AcDbArc
 50
90.0
 51
270.0
  0
ARC
  5
17AC8
330
125AA
100
AcDbEntity
  8
SUNPOU
  6
ByBlock
100
AcDbCircle
 10
11054.12750789964
 20
6508.243182432328
 30
0.0
 40
5.625
100
AcDbArc
 50
270.0
 51
90.0
  0
ARC
  5
17AC9
330
125AA
100
AcDbEntity
  8
SUNPOU
  6
ByBlock
100
AcDbCircle
 10
11054.12750789964
 20
9118.243182432328
 30
0.0
 40
5.625
100
AcDbArc
 50
270.0
 51
90.0
  0
ARC
  5
17ACA
330
125AA
100
AcDbEntity
  8
SUNPOU
  6
ByBlock
100
AcDbCircle
 10
11054.12750789964
 20
9118.243182432328
 30
0.0
 40
5.625
100
AcDbArc
 50
90.0
 51
270.0
  0
ARC
  5
17ACB
330
125AA
100
AcDbEntity
  8
SUNPOU
  6
ByBlock
100
AcDbCircle
 10
10844.12750789964
 20
9118.243182432328
 30
0.0
 40
5.625
100
AcDbArc
 50
270.0
 51
90.0
  0
ARC
  5
17ACC
330
125AA
100
AcDbEntity
  8
SUNPOU
  6
ByBlock
100
AcDbCircle
 10
10844.12750789964
 20
9118.243182432328
 30
0.0
 40
5.625
100
AcDbArc
 50
90.0
 51
270.0
  0
ARC
  5
17ACD
330
125AA
100
AcDbEntity
  8
SUNPOU
  6
ByBlock
100
AcDbCircle
 10
10844.12750789964
 20
8718.243182432329
 30
0.0
 40
5.625
100
AcDbArc
 50
90.0
 51
270.0
  0
ARC
  5
17ACE
330
125AA
100
AcDbEntity
  8
SUNPOU
  6
ByBlock
100
AcDbCircle
 10
10844.12750789964
 20
8718.243182432329
 30
0.0
 40
5.625
100
AcDbArc
 50
270.0
 51
90.0
  0
ARC
  5
17ACF
330
125AA
100
AcDbEntity
  8
SUNPOU
  6
ByBlock
100
AcDbCircle
 10
10844.12750789964
 20
8718.243182432329
 30
0.0
 40
5.625
100
AcDbArc
 50
270.0
 51
90.0
  0
ARC
  5
17AD0
330
125AA
100
AcDbEntity
  8
SUNPOU
  6
ByBlock
100
AcDbCircle
 10
10844.12750789964
 20
8718.243182432329
 30
0.0
 40
5.625
100
AcDbArc
 50
90.0
 51
270.0
  0
ARC
  5
17AD1
330
125AA
100
AcDbEntity
  8
SUNPOU
  6
ByBlock
100
AcDbCircle
 10
10844.12750789964
 20
6908.243182432328
 30
0.0
 40
5.625
100
AcDbArc
 50
90.0
 51
270.0
  0
ARC
  5
17AD2
330
125AA
100
AcDbEntity
  8
SUNPOU
  6
ByBlock
100
AcDbCircle
 10
10844.12750789964
 20
6908.243182432328
 30
0.0
 40
5.625
100
AcDbArc
 50
270.0
 51
90.0
  0
ARC
  5
17AD3
330
125AA
100
AcDbEntity
  8
SUNPOU
  6
ByBlock
100
AcDbCircle
 10
10844.12750789964
 20
6908.243182432328
 30
0.0
 40
5.625
100
AcDbArc
 50
270.0
 51
90.0
  0
ARC
  5
17AD4
330
125AA
100
AcDbEntity
  8
SUNPOU
  6
ByBlock
100
AcDbCircle
 10
10844.12750789964
 20
6908.243182432328
 30
0.0
 40
5.625
100
AcDbArc
 50
90.0
 51
270.0
  0
ARC
  5
17AD5
330
125AA
100
AcDbEntity
  8
SUNPOU
  6
ByBlock
100
AcDbCircle
 10
10844.12750789964
 20
6508.243182432328
 30
0.0
 40
5.625
100
AcDbArc
 50
90.0
 51
270.0
  0
ARC
  5
17AD6
330
125AA
100
AcDbEntity
  8
SUNPOU
  6
ByBlock
100
AcDbCircle
 10
10844.12750789964
 20
6508.243182432328
 30
0.0
 40
5.625
100
AcDbArc
 50
270.0
 51
90.0
  0
ARC
  5
17AD7
330
125AA
100
AcDbEntity
  8
SUNPOU
  6
ByBlock
100
AcDbCircle
 10
10634.12750789964
 20
9118.243182432328
 30
0.0
 40
5.625
100
AcDbArc
 50
270.0
 51
90.0
  0
ARC
  5
17AD8
330
125AA
100
AcDbEntity
  8
SUNPOU
  6
ByBlock
100
AcDbCircle
 10
10634.12750789964
 20
9118.243182432328
 30
0.0
 40
5.625
100
AcDbArc
 50
90.0
 51
270.0
  0
ARC
  5
17AD9
330
125AA
100
AcDbEntity
  8
SUNPOU
  6
ByBlock
100
AcDbCircle
 10
10634.12750789964
 20
8918.243182432329
 30
0.0
 40
5.625
100
AcDbArc
 50
90.0
 51
270.0
  0
ARC
  5
17ADA
330
125AA
100
AcDbEntity
  8
SUNPOU
  6
ByBlock
100
AcDbCircle
 10
10634.12750789964
 20
8918.243182432329
 30
0.0
 40
5.625
100
AcDbArc
 50
270.0
 51
90.0
  0
ARC
  5
17ADB
330
125AA
100
AcDbEntity
  8
SUNPOU
  6
ByBlock
100
AcDbCircle
 10
10634.12750789964
 20
8718.243182432329
 30
0.0
 40
5.625
100
AcDbArc
 50
90.0
 51
270.0
  0
ARC
  5
17ADC
330
125AA
100
AcDbEntity
  8
SUNPOU
  6
ByBlock
100
AcDbCircle
 10
10634.12750789964
 20
8718.243182432329
 30
0.0
 40
5.625
100
AcDbArc
 50
270.0
 51
90.0
  0
ARC
  5
17ADD
330
125AA
100
AcDbEntity
  8
SUNPOU
  6
ByBlock
100
AcDbCircle
 10
10634.12750789964
 20
8918.243182432329
 30
0.0
 40
5.625
100
AcDbArc
 50
270.0
 51
90.0
  0
ARC
  5
17ADE
330
125AA
100
AcDbEntity
  8
SUNPOU
  6
ByBlock
100
AcDbCircle
 10
10634.12750789964
 20
8918.243182432329
 30
0.0
 40
5.625
100
AcDbArc
 50
90.0
 51
270.0
  0
ARC
  5
17ADF
330
125AA
100
AcDbEntity
  8
SUNPOU
  6
ByBlock
100
AcDbCircle
 10
10234.12750789964
 20
9628.243182432328
 30
0.0
 40
5.625
100
AcDbArc
 50
180.0
 51
0.0
  0
ARC
  5
17AE0
330
125AA
100
AcDbEntity
  8
SUNPOU
  6
ByBlock
100
AcDbCircle
 10
10234.12750789964
 20
9628.243182432328
 30
0.0
 40
5.625
100
AcDbArc
 50
0.0
 51
180.0
  0
ARC
  5
17AE1
330
125AA
100
AcDbEntity
  8
SUNPOU
  6
ByBlock
100
AcDbCircle
 10
6624.127507899638
 20
9628.243182432328
 30
0.0
 40
5.625
100
AcDbArc
 50
0.0
 51
180.0
  0
ARC
  5
17AE2
330
125AA
100
AcDbEntity
  8
SUNPOU
  6
ByBlock
100
AcDbCircle
 10
6624.127507899638
 20
9628.243182432328
 30
0.0
 40
5.625
100
AcDbArc
 50
180.0
 51
0.0
  0
ARC
  5
17AE3
330
125AA
100
AcDbEntity
  8
SUNPOU
  6
ByBlock
100
AcDbCircle
 10
7024.127507899639
 20
9418.243182432329
 30
0.0
 40
5.625
100
AcDbArc
 50
0.0
 51
180.0
  0
ARC
  5
17AE4
330
125AA
100
AcDbEntity
  8
SUNPOU
  6
ByBlock
100
AcDbCircle
 10
7024.127507899639
 20
9418.243182432329
 30
0.0
 40
5.625
100
AcDbArc
 50
180.0
 51
0.0
  0
ARC
  5
17AE5
330
125AA
100
AcDbEntity
  8
SUNPOU
  6
ByBlock
100
AcDbCircle
 10
9834.127507899641
 20
9418.243182432329
 30
0.0
 40
5.625
100
AcDbArc
 50
180.0
 51
0.0
  0
ARC
  5
17AE6
330
125AA
100
AcDbEntity
  8
SUNPOU
  6
ByBlock
100
AcDbCircle
 10
9834.127507899641
 20
9418.243182432329
 30
0.0
 40
5.625
100
AcDbArc
 50
0.0
 51
180.0
  0
ARC
  5
17AE7
330
125AA
100
AcDbEntity
  8
SUNPOU
  6
ByBlock
100
AcDbCircle
 10
6624.127507899638
 20
9418.243182432329
 30
0.0
 40
5.625
100
AcDbArc
 50
0.0
 51
180.0
  0
ARC
  5
17AE8
330
125AA
100
AcDbEntity
  8
SUNPOU
  6
ByBlock
100
AcDbCircle
 10
6624.127507899638
 20
9418.243182432329
 30
0.0
 40
5.625
100
AcDbArc
 50
180.0
 51
0.0
  0
ARC
  5
17AE9
330
125AA
100
AcDbEntity
  8
SUNPOU
  6
ByBlock
100
AcDbCircle
 10
7024.127507899639
 20
9418.243182432329
 30
0.0
 40
5.625
100
AcDbArc
 50
180.0
 51
0.0
  0
ARC
  5
17AEA
330
125AA
100
AcDbEntity
  8
SUNPOU
  6
ByBlock
100
AcDbCircle
 10
7024.127507899639
 20
9418.243182432329
 30
0.0
 40
5.625
100
AcDbArc
 50
0.0
 51
180.0
  0
ARC
  5
17AEB
330
125AA
100
AcDbEntity
  8
SUNPOU
  6
ByBlock
100
AcDbCircle
 10
10234.12750789964
 20
9418.243182432329
 30
0.0
 40
5.625
100
AcDbArc
 50
180.0
 51
0.0
  0
ARC
  5
17AEC
330
125AA
100
AcDbEntity
  8
SUNPOU
  6
ByBlock
100
AcDbCircle
 10
10234.12750789964
 20
9418.243182432329
 30
0.0
 40
5.625
100
AcDbArc
 50
0.0
 51
180.0
  0
ARC
  5
17AED
330
125AA
100
AcDbEntity
  8
SUNPOU
  6
ByBlock
100
AcDbCircle
 10
9834.127507899641
 20
9418.243182432329
 30
0.0
 40
5.625
100
AcDbArc
 50
0.0
 51
180.0
  0
ARC
  5
17AEE
330
125AA
100
AcDbEntity
  8
SUNPOU
  6
ByBlock
100
AcDbCircle
 10
9834.127507899641
 20
9418.243182432329
 30
0.0
 40
5.625
100
AcDbArc
 50
180.0
 51
0.0
  0
ARC
  5
17AEF
330
125AA
100
AcDbEntity
  8
SUNPOU
  6
ByBlock
100
AcDbCircle
 10
9134.12750789964
 20
8318.243182432329
 30
0.0
 40
5.625
100
AcDbArc
 50
90.0
 51
270.0
  0
ARC
  5
17AF0
330
125AA
100
AcDbEntity
  8
SUNPOU
  6
ByBlock
100
AcDbCircle
 10
9134.12750789964
 20
8318.243182432329
 30
0.0
 40
5.625
100
AcDbArc
 50
270.0
 51
90.0
  0
ARC
  5
17AF1
330
125AA
100
AcDbEntity
  8
SUNPOU
  6
ByBlock
100
AcDbCircle
 10
9134.12750789964
 20
9118.243182432328
 30
0.0
 40
5.625
100
AcDbArc
 50
270.0
 51
90.0
  0
ARC
  5
17AF2
330
125AA
100
AcDbEntity
  8
SUNPOU
  6
ByBlock
100
AcDbCircle
 10
9134.12750789964
 20
9118.243182432328
 30
0.0
 40
5.625
100
AcDbArc
 50
90.0
 51
270.0
  0
ARC
  5
17AF3
330
125AA
100
AcDbEntity
  8
SUNPOU
  6
ByBlock
100
AcDbCircle
 10
10234.12750789964
 20
8018.243182432327
 30
0.0
 40
5.625
100
AcDbArc
 50
180.0
 51
0.0
  0
ARC
  5
17AF4
330
125AA
100
AcDbEntity
  8
SUNPOU
  6
ByBlock
100
AcDbCircle
 10
10234.12750789964
 20
8018.243182432327
 30
0.0
 40
5.625
100
AcDbArc
 50
0.0
 51
180.0
  0
ARC
  5
17AF5
330
125AA
100
AcDbEntity
  8
SUNPOU
  6
ByBlock
100
AcDbCircle
 10
9434.127507899637
 20
8018.243182432327
 30
0.0
 40
5.625
100
AcDbArc
 50
0.0
 51
180.0
  0
ARC
  5
17AF6
330
125AA
100
AcDbEntity
  8
SUNPOU
  6
ByBlock
100
AcDbCircle
 10
9434.127507899637
 20
8018.243182432327
 30
0.0
 40
5.625
100
AcDbArc
 50
180.0
 51
0.0
  0
ARC
  5
17AFA
330
125AA
100
AcDbEntity
  8
HIKIDASHI
100
AcDbCircle
 10
4217.388914848876
 20
4214.34846204352
 30
0.0
 40
74.66417910446155
100
AcDbArc
 50
164.8596129851118
 51
237.5045002941574
  0
ARC
  5
17AFB
330
125AA
100
AcDbEntity
  8
HIKIDASHI
100
AcDbCircle
 10
4153.965120802623
 20
4231.50948552799
 30
0.0
 40
8.959701492535389
100
AcDbArc
 50
15.14038701506339
 51
164.8596129849366
  0
LINE
  5
17B02
330
125AA
100
AcDbEntity
  8
HIKIDASHI
100
AcDbLine
 10
4627.888538436751
 20
3319.245765823484
 30
0.0
 11
4186.816957180232
 21
4083.204154334509
 31
0.0
1001
ACAD
1000
DSTYLE
1002
{
1070
   147
1040
1.0
1070
    77
1070
     0
1002
}
  0
LINE
  5
17B03
330
125AA
100
AcDbEntity
  8
HIKIDASHI
100
AcDbLine
 10
4616.341533052959
 20
3312.579099156817
 30
0.0
 11
4667.888538436751
 21
3249.963733520729
 31
0.0
  0
LINE
  5
17B04
330
125AA
100
AcDbEntity
  8
HIKIDASHI
100
AcDbLine
 10
4667.888538436751
 20
3249.963733520729
 30
0.0
 11
4639.435543820545
 21
3325.912432490151
 31
0.0
  0
SOLID
  5
17B05
330
125AA
100
AcDbEntity
  8
HIKIDASHI
100
AcDbTrace
 10
4616.341533052959
 20
3312.579099156817
 30
0.0
 11
4639.435543820545
 21
3325.912432490151
 31
0.0
 12
4667.888538436751
 22
3249.963733520729
 32
0.0
 13
4667.888538436751
 23
3249.963733520729
 33
0.0
  0
LINE
  5
17B06
330
125AA
100
AcDbEntity
  8
HIKIDASHI
100
AcDbLine
 10
4639.435543820545
 20
3325.912432490151
 30
0.0
 11
4616.341533052959
 21
3312.579099156817
 31
0.0
  0
ARC
  5
17B07
330
125AA
100
AcDbEntity
  8
HIKIDASHI
100
AcDbCircle
 10
4091.720853292108
 20
4215.528589403109
 30
0.0
 40
74.66417910446081
100
AcDbArc
 50
301.7712278330701
 51
15.1403870149094
  0
LINE
  5
17B08
330
125AA
100
AcDbEntity
  8
HIKIDASHI
100
AcDbLine
 10
5936.424512455826
 20
3642.477924325876
 30
0.0
 11
6196.483271007117
 21
4083.963733520728
 31
0.0
1001
ACAD
1000
DSTYLE
1002
{
1070
   147
1040
1.0
1070
    77
1070
     0
1070
   173
1070
     0
1070
   341
1005
125B0
1002
}
  0
ARC
  5
17B09
330
125AA
100
AcDbEntity
  8
HIKIDASHI
  6
ByBlock
100
AcDbCircle
 10
5906.320199686221
 20
3551.966211169527
 30
0.0
 40
24.0
100
AcDbArc
 50
3.056949146300892
 51
115.9423296224593
  0
ARC
  5
17B0A
330
125AA
100
AcDbEntity
  8
HIKIDASHI
  6
ByBlock
100
AcDbCircle
 10
5885.321819467964
 20
3595.129482920051
 30
0.0
 40
24.0
100
AcDbArc
 50
183.0569491463009
 51
295.9423296224594
  0
LINE
  5
17B0B
330
125AA
100
AcDbEntity
  8
HIKIDASHI
  6
ByBlock
100
AcDbLine
 10
5895.821009577092
 20
3573.547847044789
 30
0.0
 11
5936.424512455836
 21
3642.477924325891
 31
0.0
  0
LINE
  5
17B0C
330
125AA
100
AcDbEntity
  8
HIKIDASHI
100
AcDbLine
 10
5719.385201492448
 20
3823.245765823486
 30
0.0
 11
5991.154346854814
 21
4293.963733520728
 31
0.0
1001
ACAD
1000
DSTYLE
1002
{
1070
   147
1040
1.0
1070
    77
1070
     0
1002
}
  0
LINE
  5
17B0D
330
125AA
100
AcDbEntity
  8
HIKIDASHI
100
AcDbLine
 10
5707.838196108657
 20
3829.912432490152
 30
0.0
 11
5679.385201492451
 21
3753.963733520729
 31
0.0
  0
LINE
  5
17B0E
330
125AA
100
AcDbEntity
  8
HIKIDASHI
100
AcDbLine
 10
5679.385201492451
 20
3753.963733520729
 30
0.0
 11
5730.932206876241
 21
3816.57909915682
 31
0.0
  0
SOLID
  5
17B0F
330
125AA
100
AcDbEntity
  8
HIKIDASHI
100
AcDbTrace
 10
5707.838196108657
 20
3829.912432490152
 30
0.0
 11
5730.932206876241
 21
3816.57909915682
 31
0.0
 12
5679.385201492451
 22
3753.963733520729
 32
0.0
 13
5679.385201492451
 23
3753.963733520729
 33
0.0
  0
LINE
  5
17B10
330
125AA
100
AcDbEntity
  8
HIKIDASHI
100
AcDbLine
 10
5730.932206876241
 20
3816.57909915682
 30
0.0
 11
5707.838196108657
 21
3829.912432490152
 31
0.0
  0
LINE
  5
17B11
330
125AA
100
AcDbEntity
  8
HIKIDASHI
100
AcDbLine
 10
4058.272423574408
 20
3024.462392359007
 30
0.0
 11
3864.689878611733
 21
2573.963733520729
 31
0.0
  0
LINE
  5
17B12
330
125AA
100
AcDbEntity
  8
HIKIDASHI
100
AcDbLine
 10
4070.522647101362
 20
3019.198382355459
 30
0.0
 11
4089.856483595691
 21
3097.963733520729
 31
0.0
  0
LINE
  5
17B13
330
125AA
100
AcDbEntity
  8
HIKIDASHI
100
AcDbLine
 10
4089.856483595691
 20
3097.963733520729
 30
0.0
 11
4046.022200047453
 21
3029.726402362554
 31
0.0
  0
SOLID
  5
17B14
330
125AA
100
AcDbEntity
  8
HIKIDASHI
100
AcDbTrace
 10
4070.522647101362
 20
3019.198382355459
 30
0.0
 11
4046.022200047453
 21
3029.726402362554
 31
0.0
 12
4089.856483595691
 22
3097.963733520729
 32
0.0
 13
4089.856483595691
 23
3097.963733520729
 33
0.0
  0
LINE
  5
17B15
330
125AA
100
AcDbEntity
  8
HIKIDASHI
100
AcDbLine
 10
4046.022200047453
 20
3029.726402362554
 30
0.0
 11
4070.522647101362
 21
3019.198382355459
 31
0.0
  0
LINE
  5
17B16
330
125AA
100
AcDbEntity
  8
HATCH
100
AcDbLine
 10
5353.544817397462
 20
2985.963733520729
 30
0.0
 11
5445.920860467789
 21
3145.963733520705
 31
0.0
  0
LINE
  5
17B17
330
125AA
100
AcDbEntity
  8
HATCH
100
AcDbLine
 10
5381.920860467798
 20
3145.963733520704
 30
0.0
 11
5413.920860467793
 21
3090.538107678512
 31
0.0
  0
LINE
  5
17B18
330
125AA
100
AcDbEntity
  8
HATCH
100
AcDbLine
 10
5385.544817397457
 20
3041.389359362927
 30
0.0
 11
5417.544817397452
 21
2985.963733520729
 31
0.0
  0
LINE
  5
17B19
330
125AA
100
AcDbEntity
  8
HATCH
100
AcDbLine
 10
5153.544817397462
 20
2985.963733520729
 30
0.0
 11
5245.920860467789
 21
3145.963733520705
 31
0.0
  0
LINE
  5
17B1A
330
125AA
100
AcDbEntity
  8
HATCH
100
AcDbLine
 10
5181.920860467798
 20
3145.963733520704
 30
0.0
 11
5213.920860467793
 21
3090.538107678512
 31
0.0
  0
LINE
  5
17B1B
330
125AA
100
AcDbEntity
  8
HATCH
100
AcDbLine
 10
5185.544817397457
 20
3041.389359362927
 30
0.0
 11
5217.544817397453
 21
2985.963733520729
 31
0.0
  0
LINE
  5
17B1C
330
125AA
100
AcDbEntity
  8
HATCH
100
AcDbLine
 10
4953.544817397462
 20
2985.963733520729
 30
0.0
 11
5045.920860467789
 21
3145.963733520705
 31
0.0
  0
LINE
  5
17B1D
330
125AA
100
AcDbEntity
  8
HATCH
100
AcDbLine
 10
4981.920860467798
 20
3145.963733520704
 30
0.0
 11
5013.920860467793
 21
3090.538107678512
 31
0.0
  0
LINE
  5
17B1E
330
125AA
100
AcDbEntity
  8
HATCH
100
AcDbLine
 10
4985.544817397457
 20
3041.389359362927
 30
0.0
 11
5017.544817397452
 21
2985.963733520729
 31
0.0
  0
LINE
  5
17B1F
330
125AA
100
AcDbEntity
  8
HATCH
100
AcDbLine
 10
4553.544817397462
 20
2985.963733520729
 30
0.0
 11
4645.920860467787
 21
3145.963733520705
 31
0.0
  0
LINE
  5
17B20
330
125AA
100
AcDbEntity
  8
HATCH
100
AcDbLine
 10
4581.920860467798
 20
3145.963733520704
 30
0.0
 11
4613.920860467793
 21
3090.538107678512
 31
0.0
  0
LINE
  5
17B21
330
125AA
100
AcDbEntity
  8
HATCH
100
AcDbLine
 10
4585.544817397457
 20
3041.389359362927
 30
0.0
 11
4617.544817397452
 21
2985.963733520729
 31
0.0
  0
LINE
  5
17B22
330
125AA
100
AcDbEntity
  8
HATCH
100
AcDbLine
 10
4353.544817397462
 20
2985.963733520729
 30
0.0
 11
4445.920860467789
 21
3145.963733520705
 31
0.0
  0
LINE
  5
17B23
330
125AA
100
AcDbEntity
  8
HATCH
100
AcDbLine
 10
4381.920860467798
 20
3145.963733520704
 30
0.0
 11
4413.920860467793
 21
3090.538107678512
 31
0.0
  0
LINE
  5
17B24
330
125AA
100
AcDbEntity
  8
HATCH
100
AcDbLine
 10
4385.544817397457
 20
3041.389359362927
 30
0.0
 11
4417.544817397452
 21
2985.963733520729
 31
0.0
  0
LINE
  5
17B25
330
125AA
100
AcDbEntity
  8
HATCH
100
AcDbLine
 10
4753.544817397462
 20
2985.963733520729
 30
0.0
 11
4845.920860467789
 21
3145.963733520705
 31
0.0
  0
LINE
  5
17B26
330
125AA
100
AcDbEntity
  8
HATCH
100
AcDbLine
 10
4781.920860467798
 20
3145.963733520704
 30
0.0
 11
4813.920860467793
 21
3090.538107678512
 31
0.0
  0
LINE
  5
17B27
330
125AA
100
AcDbEntity
  8
HATCH
100
AcDbLine
 10
4785.544817397457
 20
3041.389359362927
 30
0.0
 11
4817.544817397452
 21
2985.963733520729
 31
0.0
  0
LINE
  5
17B28
330
125AA
100
AcDbEntity
  8
tekkin
100
AcDbLine
 10
4837.856483595691
 20
3249.963733520729
 30
0.0
 11
4609.856483595691
 21
3249.963733520729
 31
0.0
  0
LINE
  5
17B29
330
125AA
100
AcDbEntity
  8
tekkin
100
AcDbLine
 10
4609.856483595691
 20
3249.963733520729
 30
0.0
 11
4609.856483595691
 21
3233.96373352073
 31
0.0
  0
LINE
  5
17B2A
330
125AA
100
AcDbEntity
  8
tekkin
100
AcDbLine
 10
4609.856483595691
 20
3233.96373352073
 30
0.0
 11
4837.856483595691
 21
3233.96373352073
 31
0.0
  0
LINE
  5
17B2B
330
125AA
100
AcDbEntity
  8
tekkin
100
AcDbLine
 10
4941.856483595691
 20
3233.96373352073
 30
0.0
 11
5169.856483595691
 21
3233.96373352073
 31
0.0
  0
LINE
  5
17B2C
330
125AA
100
AcDbEntity
  8
tekkin
100
AcDbLine
 10
5169.856483595691
 20
3233.96373352073
 30
0.0
 11
5169.856483595691
 21
3249.963733520729
 31
0.0
  0
LINE
  5
17B2D
330
125AA
100
AcDbEntity
  8
tekkin
100
AcDbLine
 10
5169.856483595691
 20
3249.963733520729
 30
0.0
 11
4941.856483595691
 21
3249.963733520729
 31
0.0
  0
LINE
  5
17B2E
330
125AA
100
AcDbEntity
  8
HATCH
100
AcDbLine
 10
5553.544817397463
 20
2985.96373352073
 30
0.0
 11
5645.920860467789
 21
3145.963733520706
 31
0.0
  0
LINE
  5
17B2F
330
125AA
100
AcDbEntity
  8
HATCH
100
AcDbLine
 10
5581.920860467799
 20
3145.963733520704
 30
0.0
 11
5613.920860467795
 21
3090.538107678512
 31
0.0
  0
LINE
  5
17B30
330
125AA
100
AcDbEntity
  8
HATCH
100
AcDbLine
 10
5585.544817397458
 20
3041.389359362927
 30
0.0
 11
5617.544817397453
 21
2985.96373352073
 31
0.0
  0
LINE
  5
17B31
330
125AA
100
AcDbEntity
  8
HATCH
100
AcDbLine
 10
4153.544817397462
 20
2985.963733520728
 30
0.0
 11
4245.92086046779
 21
3145.963733520704
 31
0.0
  0
LINE
  5
17B32
330
125AA
100
AcDbEntity
  8
HATCH
100
AcDbLine
 10
4181.920860467799
 20
3145.963733520703
 30
0.0
 11
4213.920860467793
 21
3090.538107678511
 31
0.0
  0
LINE
  5
17B33
330
125AA
100
AcDbEntity
  8
HATCH
100
AcDbLine
 10
4185.544817397459
 20
3041.389359362926
 30
0.0
 11
4217.544817397453
 21
2985.963733520728
 31
0.0
  0
LINE
  5
17B34
330
125AA
100
AcDbEntity
  8
DOMAKON
100
AcDbLine
 10
10234.12750789964
 20
6508.243182432328
 30
0.0
 11
6624.127507899638
 21
6508.243182432328
 31
0.0
  0
LINE
  5
17B35
330
125AA
100
AcDbEntity
  8
DOMAKON
100
AcDbLine
 10
6624.127507899638
 20
6508.243182432328
 30
0.0
 11
6624.127507899638
 21
8918.243182432329
 31
0.0
  0
LINE
  5
17B36
330
125AA
100
AcDbEntity
  8
DOMAKON
100
AcDbLine
 10
6624.127507899638
 20
8918.243182432329
 30
0.0
 11
10234.12750789964
 21
8918.243182432329
 31
0.0
  0
LINE
  5
17B37
330
125AA
100
AcDbEntity
  8
DOMAKON
100
AcDbLine
 10
10234.12750789964
 20
8918.243182432329
 30
0.0
 11
10234.12750789964
 21
6508.243182432328
 31
0.0
  0
LINE
  5
17B38
330
125AA
100
AcDbEntity
  8
YANE
  6
2PL-L
 62
     6
100
AcDbLine
 10
10230.12750789964
 20
6408.243182432328
 30
0.0
 11
6628.127507899638
 21
6408.243182432328
 31
0.0
  0
LINE
  5
17B39
330
125AA
100
AcDbEntity
  8
YANE
  6
2PL-L
 62
     6
100
AcDbLine
 10
6628.127507899638
 20
6408.243182432328
 30
0.0
 11
6628.127507899638
 21
8968.243182432329
 31
0.0
  0
LINE
  5
17B3A
330
125AA
100
AcDbEntity
  8
YANE
  6
2PL-L
 62
     6
100
AcDbLine
 10
6628.127507899638
 20
8968.243182432329
 30
0.0
 11
10230.12750789964
 21
8968.243182432329
 31
0.0
  0
LINE
  5
17B3B
330
125AA
100
AcDbEntity
  8
YANE
  6
2PL-L
 62
     6
100
AcDbLine
 10
10230.12750789964
 20
8968.243182432329
 30
0.0
 11
10230.12750789964
 21
6408.243182432328
 31
0.0
  0
LINE
  5
17B3C
330
125AA
100
AcDbEntity
  8
KISO
100
AcDbLine
 10
7424.12750789964
 20
6508.243182432328
 30
0.0
 11
6624.127507899638
 21
6508.243182432328
 31
0.0
  0
LINE
  5
17B3D
330
125AA
100
AcDbEntity
  8
KISO
100
AcDbLine
 10
6624.127507899638
 20
6508.243182432328
 30
0.0
 11
6624.127507899638
 21
7308.243182432327
 31
0.0
  0
LINE
  5
17B3E
330
125AA
100
AcDbEntity
  8
KISO
100
AcDbLine
 10
6624.127507899638
 20
7308.243182432327
 30
0.0
 11
7424.12750789964
 21
7308.243182432327
 31
0.0
  0
LINE
  5
17B3F
330
125AA
100
AcDbEntity
  8
KISO
100
AcDbLine
 10
7424.12750789964
 20
7308.243182432327
 30
0.0
 11
7424.12750789964
 21
6508.243182432328
 31
0.0
  0
LINE
  5
17B40
330
125AA
100
AcDbEntity
  8
KISO
100
AcDbLine
 10
7424.12750789964
 20
8318.243182432329
 30
0.0
 11
6624.127507899638
 21
8318.243182432329
 31
0.0
  0
LINE
  5
17B41
330
125AA
100
AcDbEntity
  8
KISO
100
AcDbLine
 10
6624.127507899638
 20
8318.243182432329
 30
0.0
 11
6624.127507899638
 21
9118.243182432328
 31
0.0
  0
LINE
  5
17B42
330
125AA
100
AcDbEntity
  8
KISO
100
AcDbLine
 10
6624.127507899638
 20
9118.243182432328
 30
0.0
 11
7424.12750789964
 21
9118.243182432328
 31
0.0
  0
LINE
  5
17B43
330
125AA
100
AcDbEntity
  8
KISO
100
AcDbLine
 10
7424.12750789964
 20
9118.243182432328
 30
0.0
 11
7424.12750789964
 21
8318.243182432329
 31
0.0
  0
LINE
  5
17B44
330
125AA
100
AcDbEntity
  8
KISO
100
AcDbLine
 10
10234.12750789964
 20
6508.243182432328
 30
0.0
 11
9434.127507899637
 21
6508.243182432328
 31
0.0
  0
LINE
  5
17B45
330
125AA
100
AcDbEntity
  8
KISO
100
AcDbLine
 10
9434.127507899637
 20
6508.243182432328
 30
0.0
 11
9434.127507899637
 21
7308.243182432327
 31
0.0
  0
LINE
  5
17B46
330
125AA
100
AcDbEntity
  8
KISO
100
AcDbLine
 10
9434.127507899637
 20
7308.243182432327
 30
0.0
 11
10234.12750789964
 21
7308.243182432327
 31
0.0
  0
LINE
  5
17B47
330
125AA
100
AcDbEntity
  8
KISO
100
AcDbLine
 10
10234.12750789964
 20
7308.243182432327
 30
0.0
 11
10234.12750789964
 21
6508.243182432328
 31
0.0
  0
LINE
  5
17B48
330
125AA
100
AcDbEntity
  8
KISO
100
AcDbLine
 10
10234.12750789964
 20
8318.243182432329
 30
0.0
 11
9434.127507899637
 21
8318.243182432329
 31
0.0
  0
LINE
  5
17B49
330
125AA
100
AcDbEntity
  8
KISO
100
AcDbLine
 10
9434.127507899637
 20
8318.243182432329
 30
0.0
 11
9434.127507899637
 21
9118.243182432328
 31
0.0
  0
LINE
  5
17B4A
330
125AA
100
AcDbEntity
  8
KISO
100
AcDbLine
 10
9434.127507899637
 20
9118.243182432328
 30
0.0
 11
10234.12750789964
 21
9118.243182432328
 31
0.0
  0
LINE
  5
17B4B
330
125AA
100
AcDbEntity
  8
KISO
100
AcDbLine
 10
10234.12750789964
 20
9118.243182432328
 30
0.0
 11
10234.12750789964
 21
8318.243182432329
 31
0.0
  0
LINE
  5
17B4C
330
125AA
100
AcDbEntity
  8
U1
100
AcDbLine
 10
9840.327507899642
 20
8688.043182432329
 30
0.0
 11
9807.927507899638
 21
8688.043182432329
 31
0.0
  0
LINE
  5
17B4D
330
125AA
100
AcDbEntity
  8
U1
100
AcDbLine
 10
9807.927507899641
 20
8748.44318243233
 30
0.0
 11
9860.327507899642
 21
8748.44318243233
 31
0.0
  0
ARC
  5
17B4F
330
125AA
100
AcDbEntity
  8
U1
100
AcDbCircle
 10
9807.927507899641
 20
8744.443182432329
 30
0.0
 40
4.0
100
AcDbArc
 50
90.0
 51
180.0
  0
ARC
  5
17B50
330
125AA
100
AcDbEntity
  8
U1
100
AcDbCircle
 10
9807.927507899638
 20
8692.04318243233
 30
0.0
 40
4.0
100
AcDbArc
 50
180.0
 51
270.0
  0
LINE
  5
17B51
330
125AA
100
AcDbEntity
  8
U1
100
AcDbLine
 10
9803.927507899638
 20
8692.04318243233
 30
0.0
 11
9803.927507899642
 21
8744.443182432329
 31
0.0
  0
ARC
  5
17B52
330
125AA
100
AcDbEntity
  8
U1
100
AcDbCircle
 10
9860.327507899642
 20
8744.443182432329
 30
0.0
 40
4.0
100
AcDbArc
 50
0.0
 51
90.0
  0
ARC
  5
17B53
330
125AA
100
AcDbEntity
  8
U1
100
AcDbCircle
 10
9840.327507899642
 20
8692.043182432326
 30
0.0
 40
4.0
100
AcDbArc
 50
270.0
 51
0.0
  0
ARC
  5
17B54
330
125AA
100
AcDbEntity
  8
U1
100
AcDbCircle
 10
9847.777507899641
 20
8701.293182432328
 30
0.0
 40
1.149999999999977
100
AcDbArc
 50
0.0
 51
180.0
  0
LINE
  5
17B55
330
125AA
100
AcDbEntity
  8
U1
100
AcDbLine
 10
9851.227507899642
 20
8693.743182432328
 30
0.0
 11
9851.227507899642
 21
8701.293182432328
 31
0.0
  0
LINE
  5
17B56
330
125AA
100
AcDbEntity
  8
U1
100
AcDbLine
 10
9848.927507899638
 20
8693.743182432328
 30
0.0
 11
9851.227507899642
 21
8693.743182432328
 31
0.0
  0
LINE
  5
17B57
330
125AA
100
AcDbEntity
  8
U1
100
AcDbLine
 10
9846.62750789964
 20
8700.743182432329
 30
0.0
 11
9848.927507899638
 21
8700.743182432329
 31
0.0
  0
ARC
  5
17B58
330
125AA
100
AcDbEntity
  8
U1
100
AcDbCircle
 10
9847.777507899641
 20
8701.293182432328
 30
0.0
 40
3.450000000000044
100
AcDbArc
 50
0.0
 51
180.0
  0
LINE
  5
17B59
330
125AA
100
AcDbEntity
  8
U1
100
AcDbLine
 10
9846.62750789964
 20
8701.293182432328
 30
0.0
 11
9846.62750789964
 21
8692.04318243233
 31
0.0
  0
LINE
  5
17B5A
330
125AA
100
AcDbEntity
  8
U1
100
AcDbLine
 10
9848.927507899638
 20
8692.043182432326
 30
0.0
 11
9848.927507899638
 21
8701.293182432328
 31
0.0
  0
LINE
  5
17B5B
330
125AA
100
AcDbEntity
  8
U1
100
AcDbLine
 10
9844.327507899642
 20
8701.293182432328
 30
0.0
 11
9844.327507899642
 21
8692.043182432326
 31
0.0
  0
ARC
  5
17B5C
330
125AA
100
AcDbEntity
  8
U1
100
AcDbCircle
 10
9860.327507899638
 20
8692.043182432326
 30
0.0
 40
4.0
100
AcDbArc
 50
270.0
 51
0.0
  0
LINE
  5
17B5D
330
125AA
100
AcDbEntity
  8
U1
100
AcDbLine
 10
9860.327507899638
 20
8688.043182432329
 30
0.0
 11
9852.927507899638
 21
8688.043182432329
 31
0.0
  0
ARC
  5
17B5E
330
125AA
100
AcDbEntity
  8
U1
100
AcDbCircle
 10
9852.927507899638
 20
8692.043182432326
 30
0.0
 40
4.0
100
AcDbArc
 50
180.0
 51
270.0
  0
LINE
  5
17B5F
330
125AA
100
AcDbEntity
  8
U1
100
AcDbLine
 10
9864.327507899639
 20
8744.443182432329
 30
0.0
 11
9864.327507899638
 21
8692.043182432326
 31
0.0
  0
LINE
  5
17B60
330
125AA
100
AcDbEntity
  8
U1
100
AcDbLine
 10
7017.927507899639
 20
8688.043182432329
 30
0.0
 11
7050.327507899638
 21
8688.043182432329
 31
0.0
  0
LINE
  5
17B61
330
125AA
100
AcDbEntity
  8
U1
100
AcDbLine
 10
7050.327507899638
 20
8748.44318243233
 30
0.0
 11
6997.927507899636
 21
8748.44318243233
 31
0.0
  0
ARC
  5
17B63
330
125AA
100
AcDbEntity
  8
U1
100
AcDbCircle
 10
7050.327507899638
 20
8744.443182432329
 30
0.0
 40
4.0
100
AcDbArc
 50
0.0
 51
90.0
  0
ARC
  5
17B64
330
125AA
100
AcDbEntity
  8
U1
100
AcDbCircle
 10
7050.327507899638
 20
8692.043182432326
 30
0.0
 40
4.0
100
AcDbArc
 50
270.0
 51
0.0
  0
LINE
  5
17B65
330
125AA
100
AcDbEntity
  8
U1
100
AcDbLine
 10
7054.327507899639
 20
8692.043182432326
 30
0.0
 11
7054.327507899639
 21
8744.443182432329
 31
0.0
  0
ARC
  5
17B66
330
125AA
100
AcDbEntity
  8
U1
100
AcDbCircle
 10
6997.927507899636
 20
8744.443182432329
 30
0.0
 40
4.0
100
AcDbArc
 50
90.0
 51
180.0
  0
ARC
  5
17B67
330
125AA
100
AcDbEntity
  8
U1
100
AcDbCircle
 10
7017.927507899639
 20
8692.043182432326
 30
0.0
 40
4.0
100
AcDbArc
 50
180.0
 51
270.0
  0
ARC
  5
17B68
330
125AA
100
AcDbEntity
  8
U1
100
AcDbCircle
 10
7010.477507899636
 20
8701.293182432328
 30
0.0
 40
1.149999999999977
100
AcDbArc
 50
0.0
 51
180.0
  0
LINE
  5
17B69
330
125AA
100
AcDbEntity
  8
U1
100
AcDbLine
 10
7007.027507899639
 20
8693.743182432328
 30
0.0
 11
7007.027507899639
 21
8701.29318243233
 31
0.0
  0
LINE
  5
17B6A
330
125AA
100
AcDbEntity
  8
U1
100
AcDbLine
 10
7009.327507899637
 20
8693.743182432328
 30
0.0
 11
7007.027507899639
 21
8693.743182432328
 31
0.0
  0
LINE
  5
17B6B
330
125AA
100
AcDbEntity
  8
U1
100
AcDbLine
 10
7011.627507899638
 20
8700.743182432329
 30
0.0
 11
7009.327507899637
 21
8700.743182432329
 31
0.0
  0
ARC
  5
17B6C
330
125AA
100
AcDbEntity
  8
U1
100
AcDbCircle
 10
7010.477507899636
 20
8701.293182432328
 30
0.0
 40
3.450000000000044
100
AcDbArc
 50
0.0
 51
180.0
  0
LINE
  5
17B6D
330
125AA
100
AcDbEntity
  8
U1
100
AcDbLine
 10
7011.627507899638
 20
8701.293182432328
 30
0.0
 11
7011.627507899639
 21
8692.04318243233
 31
0.0
  0
LINE
  5
17B6E
330
125AA
100
AcDbEntity
  8
U1
100
AcDbLine
 10
7009.327507899637
 20
8692.04318243233
 30
0.0
 11
7009.327507899637
 21
8701.29318243233
 31
0.0
  0
LINE
  5
17B6F
330
125AA
100
AcDbEntity
  8
U1
100
AcDbLine
 10
7013.927507899637
 20
8701.293182432328
 30
0.0
 11
7013.927507899637
 21
8692.043182432326
 31
0.0
  0
ARC
  5
17B70
330
125AA
100
AcDbEntity
  8
U1
100
AcDbCircle
 10
6997.927507899639
 20
8692.04318243233
 30
0.0
 40
4.0
100
AcDbArc
 50
180.0
 51
270.0
  0
LINE
  5
17B71
330
125AA
100
AcDbEntity
  8
U1
100
AcDbLine
 10
6997.927507899639
 20
8688.043182432329
 30
0.0
 11
7005.327507899639
 21
8688.043182432329
 31
0.0
  0
ARC
  5
17B72
330
125AA
100
AcDbEntity
  8
U1
100
AcDbCircle
 10
7005.327507899639
 20
8692.04318243233
 30
0.0
 40
4.0
100
AcDbArc
 50
270.0
 51
0.0
  0
LINE
  5
17B73
330
125AA
100
AcDbEntity
  8
U1
100
AcDbLine
 10
6993.927507899638
 20
8744.443182432329
 30
0.0
 11
6993.927507899639
 21
8692.04318243233
 31
0.0
  0
LINE
  5
17B74
330
125AA
100
AcDbEntity
  8
U1
100
AcDbLine
 10
7017.927507899639
 20
6938.44318243233
 30
0.0
 11
7050.327507899638
 21
6938.44318243233
 31
0.0
  0
LINE
  5
17B75
330
125AA
100
AcDbEntity
  8
U1
100
AcDbLine
 10
7050.327507899638
 20
6878.043182432327
 30
0.0
 11
6997.927507899636
 21
6878.043182432327
 31
0.0
  0
ARC
  5
17B77
330
125AA
100
AcDbEntity
  8
U1
100
AcDbCircle
 10
7050.327507899638
 20
6882.043182432328
 30
0.0
 40
4.0
100
AcDbArc
 50
270.0
 51
0.0
  0
ARC
  5
17B78
330
125AA
100
AcDbEntity
  8
U1
100
AcDbCircle
 10
7050.327507899638
 20
6934.443182432328
 30
0.0
 40
4.0
100
AcDbArc
 50
0.0
 51
90.0
  0
LINE
  5
17B79
330
125AA
100
AcDbEntity
  8
U1
100
AcDbLine
 10
7054.327507899639
 20
6934.443182432328
 30
0.0
 11
7054.327507899639
 21
6882.043182432328
 31
0.0
  0
ARC
  5
17B7A
330
125AA
100
AcDbEntity
  8
U1
100
AcDbCircle
 10
6997.927507899636
 20
6882.043182432328
 30
0.0
 40
4.0
100
AcDbArc
 50
180.0
 51
270.0
  0
ARC
  5
17B7B
330
125AA
100
AcDbEntity
  8
U1
100
AcDbCircle
 10
7017.927507899639
 20
6934.443182432328
 30
0.0
 40
4.0
100
AcDbArc
 50
90.0
 51
180.0
  0
ARC
  5
17B7C
330
125AA
100
AcDbEntity
  8
U1
100
AcDbCircle
 10
7010.477507899636
 20
6925.193182432328
 30
0.0
 40
1.149999999999977
100
AcDbArc
 50
180.0
 51
0.0
  0
LINE
  5
17B7D
330
125AA
100
AcDbEntity
  8
U1
100
AcDbLine
 10
7007.027507899639
 20
6932.74318243233
 30
0.0
 11
7007.027507899639
 21
6925.193182432328
 31
0.0
  0
LINE
  5
17B7E
330
125AA
100
AcDbEntity
  8
U1
100
AcDbLine
 10
7009.327507899637
 20
6932.74318243233
 30
0.0
 11
7007.027507899639
 21
6932.74318243233
 31
0.0
  0
LINE
  5
17B7F
330
125AA
100
AcDbEntity
  8
U1
100
AcDbLine
 10
7011.627507899638
 20
6925.743182432329
 30
0.0
 11
7009.327507899637
 21
6925.743182432329
 31
0.0
  0
ARC
  5
17B80
330
125AA
100
AcDbEntity
  8
U1
100
AcDbCircle
 10
7010.477507899636
 20
6925.193182432328
 30
0.0
 40
3.450000000000044
100
AcDbArc
 50
180.0
 51
0.0
  0
LINE
  5
17B81
330
125AA
100
AcDbEntity
  8
U1
100
AcDbLine
 10
7011.627507899638
 20
6925.193182432328
 30
0.0
 11
7011.627507899639
 21
6934.443182432328
 31
0.0
  0
LINE
  5
17B82
330
125AA
100
AcDbEntity
  8
U1
100
AcDbLine
 10
7009.327507899637
 20
6934.443182432328
 30
0.0
 11
7009.327507899637
 21
6925.193182432328
 31
0.0
  0
LINE
  5
17B83
330
125AA
100
AcDbEntity
  8
U1
100
AcDbLine
 10
7013.927507899637
 20
6925.193182432328
 30
0.0
 11
7013.927507899637
 21
6934.443182432328
 31
0.0
  0
ARC
  5
17B84
330
125AA
100
AcDbEntity
  8
U1
100
AcDbCircle
 10
6997.927507899639
 20
6934.443182432328
 30
0.0
 40
4.0
100
AcDbArc
 50
90.0
 51
180.0
  0
LINE
  5
17B85
330
125AA
100
AcDbEntity
  8
U1
100
AcDbLine
 10
6997.927507899639
 20
6938.44318243233
 30
0.0
 11
7005.327507899639
 21
6938.44318243233
 31
0.0
  0
ARC
  5
17B86
330
125AA
100
AcDbEntity
  8
U1
100
AcDbCircle
 10
7005.327507899639
 20
6934.443182432328
 30
0.0
 40
4.0
100
AcDbArc
 50
0.0
 51
90.0
  0
LINE
  5
17B87
330
125AA
100
AcDbEntity
  8
U1
100
AcDbLine
 10
6993.927507899638
 20
6882.043182432328
 30
0.0
 11
6993.927507899639
 21
6934.443182432328
 31
0.0
  0
LINE
  5
17B88
330
125AA
100
AcDbEntity
  8
U1
100
AcDbLine
 10
9840.327507899642
 20
6938.44318243233
 30
0.0
 11
9807.927507899641
 21
6938.44318243233
 31
0.0
  0
LINE
  5
17B89
330
125AA
100
AcDbEntity
  8
U1
100
AcDbLine
 10
9807.927507899641
 20
6878.043182432327
 30
0.0
 11
9860.327507899642
 21
6878.043182432327
 31
0.0
  0
ARC
  5
17B8B
330
125AA
100
AcDbEntity
  8
U1
100
AcDbCircle
 10
9807.927507899641
 20
6882.043182432328
 30
0.0
 40
4.0
100
AcDbArc
 50
180.0
 51
270.0
  0
ARC
  5
17B8C
330
125AA
100
AcDbEntity
  8
U1
100
AcDbCircle
 10
9807.927507899641
 20
6934.443182432328
 30
0.0
 40
4.0
100
AcDbArc
 50
90.0
 51
180.0
  0
LINE
  5
17B8D
330
125AA
100
AcDbEntity
  8
U1
100
AcDbLine
 10
9803.927507899642
 20
6934.443182432328
 30
0.0
 11
9803.927507899642
 21
6882.043182432328
 31
0.0
  0
ARC
  5
17B8E
330
125AA
100
AcDbEntity
  8
U1
100
AcDbCircle
 10
9860.327507899642
 20
6882.043182432328
 30
0.0
 40
4.0
100
AcDbArc
 50
270.0
 51
0.0
  0
ARC
  5
17B8F
330
125AA
100
AcDbEntity
  8
U1
100
AcDbCircle
 10
9840.327507899642
 20
6934.443182432328
 30
0.0
 40
4.0
100
AcDbArc
 50
0.0
 51
90.0
  0
ARC
  5
17B90
330
125AA
100
AcDbEntity
  8
U1
100
AcDbCircle
 10
9847.777507899641
 20
6925.193182432328
 30
0.0
 40
1.149999999999977
100
AcDbArc
 50
180.0
 51
0.0
  0
LINE
  5
17B91
330
125AA
100
AcDbEntity
  8
U1
100
AcDbLine
 10
9851.227507899642
 20
6932.74318243233
 30
0.0
 11
9851.227507899642
 21
6925.193182432328
 31
0.0
  0
LINE
  5
17B92
330
125AA
100
AcDbEntity
  8
U1
100
AcDbLine
 10
9848.927507899642
 20
6932.74318243233
 30
0.0
 11
9851.227507899642
 21
6932.74318243233
 31
0.0
  0
LINE
  5
17B93
330
125AA
100
AcDbEntity
  8
U1
100
AcDbLine
 10
9846.62750789964
 20
6925.743182432329
 30
0.0
 11
9848.927507899642
 21
6925.743182432329
 31
0.0
  0
ARC
  5
17B94
330
125AA
100
AcDbEntity
  8
U1
100
AcDbCircle
 10
9847.777507899641
 20
6925.193182432328
 30
0.0
 40
3.450000000000044
100
AcDbArc
 50
180.0
 51
0.0
  0
LINE
  5
17B95
330
125AA
100
AcDbEntity
  8
U1
100
AcDbLine
 10
9846.62750789964
 20
6925.193182432328
 30
0.0
 11
9846.62750789964
 21
6934.443182432328
 31
0.0
  0
LINE
  5
17B96
330
125AA
100
AcDbEntity
  8
U1
100
AcDbLine
 10
9848.927507899642
 20
6934.443182432328
 30
0.0
 11
9848.927507899642
 21
6925.193182432328
 31
0.0
  0
LINE
  5
17B97
330
125AA
100
AcDbEntity
  8
U1
100
AcDbLine
 10
9844.327507899642
 20
6925.193182432328
 30
0.0
 11
9844.327507899642
 21
6934.443182432328
 31
0.0
  0
ARC
  5
17B98
330
125AA
100
AcDbEntity
  8
U1
100
AcDbCircle
 10
9860.327507899638
 20
6934.443182432328
 30
0.0
 40
4.0
100
AcDbArc
 50
0.0
 51
90.0
  0
LINE
  5
17B99
330
125AA
100
AcDbEntity
  8
U1
100
AcDbLine
 10
9860.327507899638
 20
6938.44318243233
 30
0.0
 11
9852.927507899641
 21
6938.44318243233
 31
0.0
  0
ARC
  5
17B9A
330
125AA
100
AcDbEntity
  8
U1
100
AcDbCircle
 10
9852.927507899641
 20
6934.443182432328
 30
0.0
 40
4.0
100
AcDbArc
 50
90.0
 51
180.0
  0
LINE
  5
17B9B
330
125AA
100
AcDbEntity
  8
U1
100
AcDbLine
 10
9864.327507899639
 20
6882.043182432328
 30
0.0
 11
9864.327507899638
 21
6934.443182432328
 31
0.0
  0
LINE
  5
17B9C
330
125AA
100
AcDbEntity
  8
YODOROGO
100
AcDbLine
 10
15232.80217064596
 20
867.8747482146436
 30
0.0
 11
15190.80217064596
 21
867.8747482146436
 31
0.0
  0
LINE
  5
17B9D
330
125AA
100
AcDbEntity
  8
YODOROGO
100
AcDbLine
 10
15190.80217064596
 20
867.8747482146436
 30
0.0
 11
15190.80217064596
 21
897.8747482146435
 31
0.0
  0
LINE
  5
17B9E
330
125AA
100
AcDbEntity
  8
YODOROGO
100
AcDbLine
 10
15190.80217064596
 20
897.8747482146435
 30
0.0
 11
15308.80217064596
 21
897.8747482146435
 31
0.0
  0
LINE
  5
17B9F
330
125AA
100
AcDbEntity
  8
YODOROGO
100
AcDbLine
 10
15308.80217064596
 20
897.8747482146435
 30
0.0
 11
15308.80217064596
 21
867.8747482146436
 31
0.0
  0
LINE
  5
17BA0
330
125AA
100
AcDbEntity
  8
YODOROGO
100
AcDbLine
 10
15308.80217064596
 20
867.8747482146436
 30
0.0
 11
15264.80217064596
 21
867.8747482146436
 31
0.0
  0
LINE
  5
17BA1
330
125AA
100
AcDbEntity
  8
YODOROGO
100
AcDbLine
 10
15264.80217064596
 20
867.8747482146436
 30
0.0
 11
15264.80217064596
 21
839.8747482146443
 31
0.0
  0
LINE
  5
17BA2
330
125AA
100
AcDbEntity
  8
YODOROGO
100
AcDbLine
 10
15264.80217064596
 20
839.8747482146443
 30
0.0
 11
15308.80217064596
 21
839.8747482146443
 31
0.0
  0
LINE
  5
17BA3
330
125AA
100
AcDbEntity
  8
YODOROGO
100
AcDbLine
 10
15308.80217064596
 20
839.8747482146443
 30
0.0
 11
15308.80217064596
 21
813.8747482146436
 31
0.0
  0
LINE
  5
17BA4
330
125AA
100
AcDbEntity
  8
YODOROGO
100
AcDbLine
 10
15308.80217064596
 20
813.8747482146436
 30
0.0
 11
15264.80217064596
 21
813.8747482146436
 31
0.0
  0
LINE
  5
17BA5
330
125AA
100
AcDbEntity
  8
YODOROGO
100
AcDbLine
 10
15264.80217064596
 20
813.8747482146436
 30
0.0
 11
15264.80217064596
 21
773.8747482146439
 31
0.0
  0
LINE
  5
17BA6
330
125AA
100
AcDbEntity
  8
YODOROGO
100
AcDbLine
 10
15264.80217064596
 20
773.8747482146439
 30
0.0
 11
15272.80217064595
 21
773.8747482146439
 31
0.0
  0
ARC
  5
17BA7
330
125AA
100
AcDbEntity
  8
YODOROGO
100
AcDbCircle
 10
15272.80217064595
 20
785.8747482146443
 30
0.0
 40
12.00000000000045
100
AcDbArc
 50
270.0
 51
359.9999999999945
  0
LINE
  5
17BA8
330
125AA
100
AcDbEntity
  8
YODOROGO
100
AcDbLine
 10
15284.80217064595
 20
785.8747482146432
 30
0.0
 11
15284.80217064596
 21
799.8747482146441
 31
0.0
  0
LINE
  5
17BA9
330
125AA
100
AcDbEntity
  8
YODOROGO
100
AcDbLine
 10
15284.80217064596
 20
799.8747482146441
 30
0.0
 11
15308.80217064596
 21
799.8747482146441
 31
0.0
  0
LINE
  5
17BAA
330
125AA
100
AcDbEntity
  8
YODOROGO
100
AcDbLine
 10
15308.80217064596
 20
799.8747482146441
 30
0.0
 11
15308.80217064596
 21
753.8747482146439
 31
0.0
  0
ARC
  5
17BAB
330
125AA
100
AcDbEntity
  8
YODOROGO
100
AcDbCircle
 10
15268.80217064596
 20
753.8747482146439
 30
0.0
 40
40.0
100
AcDbArc
 50
270.0
 51
0.0
  0
LINE
  5
17BAC
330
125AA
100
AcDbEntity
  8
YODOROGO
100
AcDbLine
 10
15268.80217064596
 20
713.8747482146436
 30
0.0
 11
15190.80217064596
 21
713.8747482146436
 31
0.0
  0
LINE
  5
17BAD
330
125AA
100
AcDbEntity
  8
YODOROGO
100
AcDbLine
 10
15190.80217064596
 20
713.8747482146436
 30
0.0
 11
15190.80217064596
 21
773.8747482146439
 31
0.0
  0
LINE
  5
17BAE
330
125AA
100
AcDbEntity
  8
YODOROGO
100
AcDbLine
 10
15190.80217064596
 20
773.8747482146439
 30
0.0
 11
15232.80217064596
 21
773.8747482146439
 31
0.0
  0
LINE
  5
17BAF
330
125AA
100
AcDbEntity
  8
YODOROGO
100
AcDbLine
 10
15232.80217064596
 20
773.8747482146439
 30
0.0
 11
15232.80217064596
 21
813.8747482146436
 31
0.0
  0
LINE
  5
17BB0
330
125AA
100
AcDbEntity
  8
YODOROGO
100
AcDbLine
 10
15232.80217064596
 20
813.8747482146436
 30
0.0
 11
15190.80217064596
 21
813.8747482146436
 31
0.0
  0
LINE
  5
17BB1
330
125AA
100
AcDbEntity
  8
YODOROGO
100
AcDbLine
 10
15190.80217064596
 20
813.8747482146436
 30
0.0
 11
15190.80217064596
 21
839.8747482146443
 31
0.0
  0
LINE
  5
17BB2
330
125AA
100
AcDbEntity
  8
YODOROGO
100
AcDbLine
 10
15190.80217064596
 20
839.8747482146443
 30
0.0
 11
15232.80217064596
 21
839.8747482146443
 31
0.0
  0
LINE
  5
17BB3
330
125AA
100
AcDbEntity
  8
YODOROGO
100
AcDbLine
 10
15232.80217064596
 20
839.8747482146443
 30
0.0
 11
15232.80217064596
 21
867.8747482146436
 31
0.0
  0
LINE
  5
17BB4
330
125AA
100
AcDbEntity
  8
YODOROGO
100
AcDbLine
 10
15248.80217064596
 20
969.8747482146441
 30
0.0
 11
15190.80217064596
 21
909.8747482146439
 31
0.0
  0
LINE
  5
17BB5
330
125AA
100
AcDbEntity
  8
YODOROGO
100
AcDbLine
 10
15190.80217064596
 20
909.8747482146439
 30
0.0
 11
15190.80217064596
 21
953.874748214644
 31
0.0
  0
LINE
  5
17BB6
330
125AA
100
AcDbEntity
  8
YODOROGO
100
AcDbLine
 10
15190.80217064596
 20
953.874748214644
 30
0.0
 11
15248.80217064596
 21
1013.874748214644
 31
0.0
  0
LINE
  5
17BB7
330
125AA
100
AcDbEntity
  8
YODOROGO
100
AcDbLine
 10
15248.80217064596
 20
1013.874748214644
 30
0.0
 11
15308.80217064596
 21
973.8747482146436
 31
0.0
  0
LINE
  5
17BB8
330
125AA
100
AcDbEntity
  8
YODOROGO
100
AcDbLine
 10
15308.80217064596
 20
973.8747482146436
 30
0.0
 11
15308.80217064596
 21
929.874748214644
 31
0.0
  0
LINE
  5
17BB9
330
125AA
100
AcDbEntity
  8
YODOROGO
100
AcDbLine
 10
15308.80217064596
 20
929.874748214644
 30
0.0
 11
15248.80217064596
 21
969.8747482146441
 31
0.0
  0
LINE
  5
17BBA
330
125AA
100
AcDbEntity
  8
YODOROGO
100
AcDbLine
 10
15582.80217064596
 20
1013.874748214644
 30
0.0
 11
15582.80217064596
 21
981.8747482146434
 31
0.0
  0
LINE
  5
17BBB
330
125AA
100
AcDbEntity
  8
YODOROGO
100
AcDbLine
 10
15582.80217064596
 20
981.8747482146434
 30
0.0
 11
15706.80217064596
 21
981.8747482146434
 31
0.0
  0
LINE
  5
17BBC
330
125AA
100
AcDbEntity
  8
YODOROGO
100
AcDbLine
 10
15706.80217064596
 20
981.8747482146434
 30
0.0
 11
15706.80217064596
 21
1013.874748214644
 31
0.0
  0
LINE
  5
17BBD
330
125AA
100
AcDbEntity
  8
YODOROGO
100
AcDbLine
 10
15706.80217064596
 20
1013.874748214644
 30
0.0
 11
15582.80217064596
 21
1013.874748214644
 31
0.0
  0
LINE
  5
17BBE
330
125AA
100
AcDbEntity
  8
YODOROGO
100
AcDbLine
 10
15674.80217064596
 20
889.8747482146443
 30
0.0
 11
15674.80217064596
 21
917.8747482146436
 31
0.0
  0
LINE
  5
17BBF
330
125AA
100
AcDbEntity
  8
YODOROGO
100
AcDbLine
 10
15674.80217064596
 20
917.8747482146436
 30
0.0
 11
15618.80217064596
 21
917.8747482146436
 31
0.0
  0
LINE
  5
17BC0
330
125AA
100
AcDbEntity
  8
YODOROGO
100
AcDbLine
 10
15618.80217064596
 20
917.8747482146436
 30
0.0
 11
15618.80217064596
 21
889.8747482146443
 31
0.0
  0
LINE
  5
17BC1
330
125AA
100
AcDbEntity
  8
YODOROGO
100
AcDbLine
 10
15618.80217064596
 20
889.8747482146443
 30
0.0
 11
15674.80217064596
 21
889.8747482146443
 31
0.0
  0
LINE
  5
17BC2
330
125AA
100
AcDbEntity
  8
YODOROGO
100
AcDbLine
 10
15618.80217064596
 20
797.8747482146435
 30
0.0
 11
15618.80217064596
 21
853.8747482146439
 31
0.0
  0
LINE
  5
17BC3
330
125AA
100
AcDbEntity
  8
YODOROGO
100
AcDbLine
 10
15618.80217064596
 20
853.8747482146439
 30
0.0
 11
15706.80217064596
 21
853.8747482146439
 31
0.0
  0
LINE
  5
17BC4
330
125AA
100
AcDbEntity
  8
YODOROGO
100
AcDbLine
 10
15706.80217064596
 20
853.8747482146439
 30
0.0
 11
15706.80217064596
 21
953.874748214644
 31
0.0
  0
LINE
  5
17BC5
330
125AA
100
AcDbEntity
  8
YODOROGO
100
AcDbLine
 10
15706.80217064596
 20
953.874748214644
 30
0.0
 11
15582.80217064596
 21
953.874748214644
 31
0.0
  0
LINE
  5
17BC6
330
125AA
100
AcDbEntity
  8
YODOROGO
100
AcDbLine
 10
15582.80217064596
 20
953.874748214644
 30
0.0
 11
15582.80217064596
 21
817.8747482146436
 31
0.0
  0
ARC
  5
17BC7
330
125AA
100
AcDbEntity
  8
YODOROGO
100
AcDbCircle
 10
15519.86069778339
 20
818.7656950548673
 30
0.0
 40
62.94777829583681
100
AcDbArc
 50
295.3405244215992
 51
359.1890230341859
  0
LINE
  5
17BC8
330
125AA
100
AcDbEntity
  8
YODOROGO
100
AcDbLine
 10
15546.80217064596
 20
761.8747482146434
 30
0.0
 11
15546.80217064596
 21
713.8747482146436
 31
0.0
  0
ARC
  5
17BC9
330
125AA
100
AcDbEntity
  8
YODOROGO
100
AcDbCircle
 10
15529.75894667896
 20
801.3403687577881
 30
0.0
 40
89.11064055536078
100
AcDbArc
 50
281.0262749542535
 51
357.7711357557378
  0
LINE
  5
17BCA
330
125AA
100
AcDbEntity
  8
YODOROGO
100
AcDbLine
 10
15794.80217064596
 20
905.8747482146443
 30
0.0
 11
15794.80217064596
 21
713.8747482146436
 31
0.0
  0
LINE
  5
17BCB
330
125AA
100
AcDbEntity
  8
YODOROGO
100
AcDbLine
 10
15794.80217064596
 20
713.8747482146436
 30
0.0
 11
15826.80217064596
 21
713.8747482146436
 31
0.0
  0
LINE
  5
17BCC
330
125AA
100
AcDbEntity
  8
YODOROGO
100
AcDbLine
 10
15826.80217064596
 20
713.8747482146436
 30
0.0
 11
15826.80217064595
 21
905.8747482146443
 31
0.0
  0
LINE
  5
17BCD
330
125AA
100
AcDbEntity
  8
YODOROGO
100
AcDbLine
 10
15826.80217064595
 20
905.8747482146443
 30
0.0
 11
15850.80217064596
 21
905.8747482146443
 31
0.0
  0
LINE
  5
17BCE
330
125AA
100
AcDbEntity
  8
YODOROGO
100
AcDbLine
 10
15850.80217064596
 20
905.8747482146443
 30
0.0
 11
15850.80217064596
 21
937.8747482146435
 31
0.0
  0
LINE
  5
17BCF
330
125AA
100
AcDbEntity
  8
YODOROGO
100
AcDbLine
 10
15850.80217064596
 20
937.8747482146435
 30
0.0
 11
15766.80217064595
 21
937.8747482146435
 31
0.0
  0
LINE
  5
17BD0
330
125AA
100
AcDbEntity
  8
YODOROGO
100
AcDbLine
 10
15766.80217064595
 20
937.8747482146435
 30
0.0
 11
15766.80217064595
 21
957.8747482146436
 31
0.0
  0
LINE
  5
17BD1
330
125AA
100
AcDbEntity
  8
YODOROGO
100
AcDbLine
 10
15766.80217064595
 20
957.8747482146436
 30
0.0
 11
15830.80217064596
 21
957.8747482146436
 31
0.0
  0
ARC
  5
17BD2
330
125AA
100
AcDbEntity
  8
YODOROGO
100
AcDbCircle
 10
15830.80217064596
 20
977.8747482146435
 30
0.0
 40
20.0
100
AcDbArc
 50
270.0
 51
0.0
  0
LINE
  5
17BD3
330
125AA
100
AcDbEntity
  8
YODOROGO
100
AcDbLine
 10
15850.80217064596
 20
977.8747482146435
 30
0.0
 11
15850.80217064596
 21
1013.874748214644
 31
0.0
  0
LINE
  5
17BD4
330
125AA
100
AcDbEntity
  8
YODOROGO
100
AcDbLine
 10
15850.80217064596
 20
1013.874748214644
 30
0.0
 11
15818.80217064596
 21
1013.874748214644
 31
0.0
  0
LINE
  5
17BD5
330
125AA
100
AcDbEntity
  8
YODOROGO
100
AcDbLine
 10
15818.80217064596
 20
1013.874748214644
 30
0.0
 11
15818.80217064596
 21
1001.874748214643
 31
0.0
  0
ARC
  5
17BD6
330
125AA
100
AcDbEntity
  8
YODOROGO
100
AcDbCircle
 10
15810.80217064596
 20
1001.874748214643
 30
0.0
 40
8.0
100
AcDbArc
 50
270.0
 51
359.9999999999984
  0
LINE
  5
17BD7
330
125AA
100
AcDbEntity
  8
YODOROGO
100
AcDbLine
 10
15810.80217064596
 20
993.8747482146439
 30
0.0
 11
15730.80217064595
 21
993.8747482146439
 31
0.0
  0
LINE
  5
17BD8
330
125AA
100
AcDbEntity
  8
YODOROGO
100
AcDbLine
 10
15730.80217064595
 20
993.8747482146439
 30
0.0
 11
15730.80217064595
 21
817.8747482146436
 31
0.0
  0
ARC
  5
17BD9
330
125AA
100
AcDbEntity
  8
YODOROGO
100
AcDbCircle
 10
15675.75903786228
 20
818.9194785088282
 30
0.0
 40
55.05304649180792
100
AcDbArc
 50
269.0041020930594
 51
358.9126445549241
  0
LINE
  5
17BDA
330
125AA
100
AcDbEntity
  8
YODOROGO
100
AcDbLine
 10
15674.80217064596
 20
763.8747482146436
 30
0.0
 11
15674.80217064596
 21
713.8747482146436
 31
0.0
  0
ARC
  5
17BDB
330
125AA
100
AcDbEntity
  8
YODOROGO
100
AcDbCircle
 10
15676.95743255803
 20
803.8951756442784
 30
0.0
 40
90.0462242879942
100
AcDbArc
 50
268.6284910216985
 51
356.1663845733032
  0
LINE
  5
17BDC
330
125AA
100
AcDbEntity
  8
YODOROGO
100
AcDbLine
 10
15766.80217064596
 20
797.8747482146435
 30
0.0
 11
15766.80217064595
 21
905.8747482146443
 31
0.0
  0
LINE
  5
17BDD
330
125AA
100
AcDbEntity
  8
YODOROGO
100
AcDbLine
 10
15766.80217064595
 20
905.8747482146443
 30
0.0
 11
15794.80217064596
 21
905.8747482146443
 31
0.0
  0
LINE
  5
17BDE
330
125AA
100
AcDbEntity
  8
YODOROGO
100
AcDbLine
 10
15462.80217064596
 20
773.8747482146439
 30
0.0
 11
15462.80217064596
 21
981.8747482146434
 31
0.0
  0
LINE
  5
17BDF
330
125AA
100
AcDbEntity
  8
YODOROGO
100
AcDbLine
 10
15462.80217064596
 20
981.8747482146434
 30
0.0
 11
15348.80217064596
 21
981.8747482146434
 31
0.0
  0
LINE
  5
17BE0
330
125AA
100
AcDbEntity
  8
YODOROGO
100
AcDbLine
 10
15348.80217064596
 20
981.8747482146434
 30
0.0
 11
15348.80217064596
 21
713.8747482146436
 31
0.0
  0
LINE
  5
17BE1
330
125AA
100
AcDbEntity
  8
YODOROGO
100
AcDbLine
 10
15348.80217064596
 20
713.8747482146436
 30
0.0
 11
15322.80217064596
 21
713.8747482146436
 31
0.0
  0
LINE
  5
17BE2
330
125AA
100
AcDbEntity
  8
YODOROGO
100
AcDbLine
 10
15322.80217064596
 20
713.8747482146436
 30
0.0
 11
15322.80217064596
 21
1013.874748214644
 31
0.0
  0
LINE
  5
17BE3
330
125AA
100
AcDbEntity
  8
YODOROGO
100
AcDbLine
 10
15322.80217064596
 20
1013.874748214644
 30
0.0
 11
15486.80217064596
 21
1013.874748214644
 31
0.0
  0
LINE
  5
17BE4
330
125AA
100
AcDbEntity
  8
YODOROGO
100
AcDbLine
 10
15486.80217064596
 20
1013.874748214644
 30
0.0
 11
15486.80217064596
 21
733.8747482146437
 31
0.0
  0
ARC
  5
17BE5
330
125AA
100
AcDbEntity
  8
YODOROGO
100
AcDbCircle
 10
15466.80217064596
 20
733.8747482146437
 30
0.0
 40
20.0
100
AcDbArc
 50
270.0
 51
0.0
  0
LINE
  5
17BE6
330
125AA
100
AcDbEntity
  8
YODOROGO
100
AcDbLine
 10
15466.80217064596
 20
713.8747482146436
 30
0.0
 11
15449.80217064596
 21
713.8747482146436
 31
0.0
  0
LINE
  5
17BE7
330
125AA
100
AcDbEntity
  8
YODOROGO
100
AcDbLine
 10
15449.80217064596
 20
713.8747482146436
 30
0.0
 11
15449.80217064596
 21
773.8747482146439
 31
0.0
  0
LINE
  5
17BE8
330
125AA
100
AcDbEntity
  8
YODOROGO
100
AcDbLine
 10
15449.80217064596
 20
773.8747482146439
 30
0.0
 11
15462.80217064596
 21
773.8747482146439
 31
0.0
  0
LINE
  5
17BE9
330
125AA
100
AcDbEntity
  8
YODOROGO
100
AcDbLine
 10
15415.80217064596
 20
877.8747482146437
 30
0.0
 11
15415.80217064596
 21
781.8747482146434
 31
0.0
  0
LINE
  5
17BEA
330
125AA
100
AcDbEntity
  8
YODOROGO
100
AcDbLine
 10
15415.80217064596
 20
781.8747482146434
 30
0.0
 11
15429.80217064596
 21
781.8747482146434
 31
0.0
  0
LINE
  5
17BEB
330
125AA
100
AcDbEntity
  8
YODOROGO
100
AcDbLine
 10
15429.80217064596
 20
781.8747482146434
 30
0.0
 11
15429.80217064596
 21
845.8747482146444
 31
0.0
  0
LINE
  5
17BEC
330
125AA
100
AcDbEntity
  8
YODOROGO
100
AcDbLine
 10
15429.80217064596
 20
845.8747482146444
 30
0.0
 11
15449.80217064596
 21
845.8747482146444
 31
0.0
  0
LINE
  5
17BED
330
125AA
100
AcDbEntity
  8
YODOROGO
100
AcDbLine
 10
15449.80217064596
 20
845.8747482146444
 30
0.0
 11
15449.80217064596
 21
745.8747482146443
 31
0.0
  0
LINE
  5
17BEE
330
125AA
100
AcDbEntity
  8
YODOROGO
100
AcDbLine
 10
15449.80217064596
 20
745.8747482146443
 30
0.0
 11
15361.80217064596
 21
745.8747482146443
 31
0.0
  0
LINE
  5
17BEF
330
125AA
100
AcDbEntity
  8
YODOROGO
100
AcDbLine
 10
15361.80217064596
 20
745.8747482146443
 30
0.0
 11
15361.80217064596
 21
845.8747482146444
 31
0.0
  0
LINE
  5
17BF0
330
125AA
100
AcDbEntity
  8
YODOROGO
100
AcDbLine
 10
15361.80217064596
 20
845.8747482146444
 30
0.0
 11
15381.80217064596
 21
845.8747482146444
 31
0.0
  0
LINE
  5
17BF1
330
125AA
100
AcDbEntity
  8
YODOROGO
100
AcDbLine
 10
15381.80217064596
 20
845.8747482146444
 30
0.0
 11
15381.80217064596
 21
781.8747482146434
 31
0.0
  0
LINE
  5
17BF2
330
125AA
100
AcDbEntity
  8
YODOROGO
100
AcDbLine
 10
15381.80217064596
 20
781.8747482146434
 30
0.0
 11
15395.80217064596
 21
781.8747482146434
 31
0.0
  0
LINE
  5
17BF3
330
125AA
100
AcDbEntity
  8
YODOROGO
100
AcDbLine
 10
15395.80217064596
 20
781.8747482146434
 30
0.0
 11
15395.80217064596
 21
877.8747482146437
 31
0.0
  0
LINE
  5
17BF4
330
125AA
100
AcDbEntity
  8
YODOROGO
100
AcDbLine
 10
15395.80217064596
 20
877.8747482146437
 30
0.0
 11
15415.80217064596
 21
877.8747482146437
 31
0.0
  0
LINE
  5
17BF5
330
125AA
100
AcDbEntity
  8
YODOROGO
100
AcDbLine
 10
15449.80217064596
 20
909.8747482146439
 30
0.0
 11
15449.80217064596
 21
877.8747482146437
 31
0.0
  0
LINE
  5
17BF6
330
125AA
100
AcDbEntity
  8
YODOROGO
100
AcDbLine
 10
15449.80217064596
 20
877.8747482146437
 30
0.0
 11
15361.80217064596
 21
877.8747482146437
 31
0.0
  0
LINE
  5
17BF7
330
125AA
100
AcDbEntity
  8
YODOROGO
100
AcDbLine
 10
15361.80217064596
 20
877.8747482146437
 30
0.0
 11
15361.80217064596
 21
909.8747482146439
 31
0.0
  0
LINE
  5
17BF8
330
125AA
100
AcDbEntity
  8
YODOROGO
100
AcDbLine
 10
15361.80217064596
 20
909.8747482146439
 30
0.0
 11
15374.80217064596
 21
909.8747482146439
 31
0.0
  0
LINE
  5
17BF9
330
125AA
100
AcDbEntity
  8
YODOROGO
100
AcDbLine
 10
15374.80217064596
 20
909.8747482146439
 30
0.0
 11
15361.80217064596
 21
969.8747482146441
 31
0.0
  0
LINE
  5
17BFA
330
125AA
100
AcDbEntity
  8
YODOROGO
100
AcDbLine
 10
15361.80217064596
 20
969.8747482146441
 30
0.0
 11
15385.80217064596
 21
969.8747482146441
 31
0.0
  0
LINE
  5
17BFB
330
125AA
100
AcDbEntity
  8
YODOROGO
100
AcDbLine
 10
15385.80217064596
 20
969.8747482146441
 30
0.0
 11
15398.80217064596
 21
909.8747482146439
 31
0.0
  0
LINE
  5
17BFC
330
125AA
100
AcDbEntity
  8
YODOROGO
100
AcDbLine
 10
15398.80217064596
 20
909.8747482146439
 30
0.0
 11
15412.80217064596
 21
909.8747482146439
 31
0.0
  0
LINE
  5
17BFD
330
125AA
100
AcDbEntity
  8
YODOROGO
100
AcDbLine
 10
15412.80217064596
 20
909.8747482146439
 30
0.0
 11
15425.80217064596
 21
969.8747482146441
 31
0.0
  0
LINE
  5
17BFE
330
125AA
100
AcDbEntity
  8
YODOROGO
100
AcDbLine
 10
15425.80217064596
 20
969.8747482146441
 30
0.0
 11
15449.80217064596
 21
969.8747482146441
 31
0.0
  0
LINE
  5
17BFF
330
125AA
100
AcDbEntity
  8
YODOROGO
100
AcDbLine
 10
15449.80217064596
 20
969.8747482146441
 30
0.0
 11
15436.80217064596
 21
909.8747482146439
 31
0.0
  0
LINE
  5
17C00
330
125AA
100
AcDbEntity
  8
YODOROGO
100
AcDbLine
 10
15436.80217064596
 20
909.8747482146439
 30
0.0
 11
15449.80217064596
 21
909.8747482146439
 31
0.0
  0
LINE
  5
17C01
330
125AA
100
AcDbEntity
  8
YODOROGO
100
AcDbLine
 10
15108.80217064596
 20
1013.874748214644
 30
0.0
 11
15108.80217064596
 21
893.8747482146439
 31
0.0
  0
ARC
  5
17C02
330
125AA
100
AcDbEntity
  8
YODOROGO
100
AcDbCircle
 10
15068.80217064596
 20
893.8747482146439
 30
0.0
 40
40.0
100
AcDbArc
 50
270.0
 51
0.0
  0
LINE
  5
17C03
330
125AA
100
AcDbEntity
  8
YODOROGO
100
AcDbLine
 10
15068.80217064596
 20
853.8747482146439
 30
0.0
 11
15010.80217064596
 21
853.8747482146439
 31
0.0
  0
LINE
  5
17C04
330
125AA
100
AcDbEntity
  8
YODOROGO
100
AcDbLine
 10
15010.80217064596
 20
853.8747482146439
 30
0.0
 11
15010.80217064596
 21
885.8747482146442
 31
0.0
  0
LINE
  5
17C05
330
125AA
100
AcDbEntity
  8
YODOROGO
100
AcDbLine
 10
15010.80217064596
 20
885.8747482146442
 30
0.0
 11
15060.80217064596
 21
885.8747482146442
 31
0.0
  0
ARC
  5
17C06
330
125AA
100
AcDbEntity
  8
YODOROGO
100
AcDbCircle
 10
15060.80217064596
 20
905.8747482146443
 30
0.0
 40
20.0
100
AcDbArc
 50
270.0
 51
0.0
  0
LINE
  5
17C07
330
125AA
100
AcDbEntity
  8
YODOROGO
100
AcDbLine
 10
15080.80217064596
 20
905.8747482146443
 30
0.0
 11
15080.80217064596
 21
1013.874748214644
 31
0.0
  0
LINE
  5
17C08
330
125AA
100
AcDbEntity
  8
YODOROGO
100
AcDbLine
 10
15080.80217064596
 20
1013.874748214644
 30
0.0
 11
15108.80217064596
 21
1013.874748214644
 31
0.0
  0
LINE
  5
17C09
330
125AA
100
AcDbEntity
  8
YODOROGO
100
AcDbLine
 10
14968.80217064596
 20
740.6696674577553
 30
0.0
 11
14968.80217064596
 21
797.2655452655707
 31
0.0
  0
ARC
  5
17C0A
330
125AA
100
AcDbEntity
  8
YODOROGO
100
AcDbCircle
 10
15127.17387491395
 20
903.9323046166312
 30
0.0
 40
190.9434321028236
100
AcDbArc
 50
213.9611167766785
 51
264.4787207431779
  0
LINE
  5
17C0B
330
125AA
100
AcDbEntity
  8
YODOROGO
100
AcDbLine
 10
15108.80217064596
 20
713.8747482146428
 30
0.0
 11
15108.80217064596
 21
773.8747482146439
 31
0.0
  0
ARC
  5
17C0C
330
125AA
100
AcDbEntity
  8
YODOROGO
100
AcDbCircle
 10
15115.02941435022
 20
934.4428574765013
 30
0.0
 40
160.6888181426453
100
AcDbArc
 50
260.6062929797
 51
267.7790355655592
  0
LINE
  5
17C0D
330
125AA
100
AcDbEntity
  8
YODOROGO
100
AcDbLine
 10
15088.80217064596
 20
775.9088612367134
 30
0.0
 11
15094.80217064596
 21
801.8747482146446
 31
0.0
  0
LINE
  5
17C0E
330
125AA
100
AcDbEntity
  8
YODOROGO
100
AcDbLine
 10
15094.80217064596
 20
801.8747482146446
 30
0.0
 11
15052.80217064596
 21
801.8747482146446
 31
0.0
  0
LINE
  5
17C0F
330
125AA
100
AcDbEntity
  8
YODOROGO
100
AcDbLine
 10
15052.80217064596
 20
801.8747482146446
 30
0.0
 11
15048.80217064598
 21
788.0364079349501
 31
0.0
  0
ARC
  5
17C10
330
125AA
100
AcDbEntity
  8
YODOROGO
100
AcDbCircle
 10
15115.02941435068
 20
934.4428574764542
 30
0.0
 40
160.6888181426165
100
AcDbArc
 50
228.6181454619
 51
245.6602892489067
  0
LINE
  5
17C11
330
125AA
100
AcDbEntity
  8
YODOROGO
100
AcDbLine
 10
15008.80217064596
 20
813.8747482146436
 30
0.0
 11
15108.80217064596
 21
813.8747482146436
 31
0.0
  0
LINE
  5
17C12
330
125AA
100
AcDbEntity
  8
YODOROGO
100
AcDbLine
 10
15108.80217064596
 20
813.8747482146436
 30
0.0
 11
15108.80217064596
 21
833.8747482146439
 31
0.0
  0
LINE
  5
17C13
330
125AA
100
AcDbEntity
  8
YODOROGO
100
AcDbLine
 10
15108.80217064596
 20
833.8747482146439
 30
0.0
 11
14974.80217064596
 21
833.8747482146439
 31
0.0
  0
LINE
  5
17C14
330
125AA
100
AcDbEntity
  8
YODOROGO
100
AcDbLine
 10
14974.80217064596
 20
833.8747482146439
 30
0.0
 11
14974.80217064596
 21
853.8747482146439
 31
0.0
  0
LINE
  5
17C15
330
125AA
100
AcDbEntity
  8
YODOROGO
100
AcDbLine
 10
14974.80217064596
 20
853.8747482146439
 30
0.0
 11
14942.80217064596
 21
853.8747482146439
 31
0.0
  0
LINE
  5
17C16
330
125AA
100
AcDbEntity
  8
YODOROGO
100
AcDbLine
 10
14942.80217064596
 20
853.8747482146439
 30
0.0
 11
14942.80217064596
 21
833.8747482146439
 31
0.0
  0
LINE
  5
17C17
330
125AA
100
AcDbEntity
  8
YODOROGO
100
AcDbLine
 10
14942.80217064596
 20
833.8747482146439
 30
0.0
 11
14808.80217064596
 21
833.8747482146439
 31
0.0
  0
LINE
  5
17C18
330
125AA
100
AcDbEntity
  8
YODOROGO
100
AcDbLine
 10
14808.80217064596
 20
833.8747482146439
 30
0.0
 11
14808.80217064596
 21
813.8747482146436
 31
0.0
  0
LINE
  5
17C19
330
125AA
100
AcDbEntity
  8
YODOROGO
100
AcDbLine
 10
14808.80217064596
 20
813.8747482146436
 30
0.0
 11
14856.47231434973
 21
813.8747482146436
 31
0.0
  0
LINE
  5
17C1A
330
125AA
100
AcDbEntity
  8
YODOROGO
100
AcDbLine
 10
14856.47231434973
 20
813.8747482146436
 30
0.0
 11
14808.80217064596
 21
773.8747482146439
 31
0.0
  0
LINE
  5
17C1B
330
125AA
100
AcDbEntity
  8
YODOROGO
100
AcDbLine
 10
14808.80217064596
 20
773.8747482146439
 30
0.0
 11
14808.80217064596
 21
713.8747482146436
 31
0.0
  0
LINE
  5
17C1C
330
125AA
100
AcDbEntity
  8
YODOROGO
100
AcDbLine
 10
14808.80217064596
 20
713.8747482146436
 30
0.0
 11
14868.80217064596
 21
764.2207260852821
 31
0.0
  0
LINE
  5
17C1D
330
125AA
100
AcDbEntity
  8
YODOROGO
100
AcDbLine
 10
14868.80217064596
 20
764.2207260852821
 30
0.0
 11
14868.80217064596
 21
713.8747482146436
 31
0.0
  0
LINE
  5
17C1E
330
125AA
100
AcDbEntity
  8
YODOROGO
100
AcDbLine
 10
14868.80217064596
 20
713.8747482146436
 30
0.0
 11
14968.80217064596
 21
740.6696674577553
 31
0.0
  0
LINE
  5
17C1F
330
125AA
100
AcDbEntity
  8
YODOROGO
100
AcDbLine
 10
14888.80217064596
 20
813.8747482146436
 30
0.0
 11
14888.80217064596
 21
781.0027187088283
 31
0.0
  0
LINE
  5
17C20
330
125AA
100
AcDbEntity
  8
YODOROGO
100
AcDbLine
 10
14888.80217064596
 20
781.0027187088283
 30
0.0
 11
14885.70493649265
 21
778.403830673117
 31
0.0
  0
LINE
  5
17C21
330
125AA
100
AcDbEntity
  8
YODOROGO
100
AcDbLine
 10
14885.70493649265
 20
778.403830673117
 30
0.0
 11
14966.89206625427
 21
800.1578565285436
 31
0.0
  0
ARC
  5
17C22
330
125AA
100
AcDbEntity
  8
YODOROGO
100
AcDbCircle
 10
15127.17387491396
 20
903.9323046166183
 30
0.0
 40
190.9434321028238
100
AcDbArc
 50
208.1411442048576
 51
212.9210361185911
  0
LINE
  5
17C23
330
125AA
100
AcDbEntity
  8
YODOROGO
100
AcDbLine
 10
14958.80217064596
 20
813.8747482146436
 30
0.0
 11
14888.80217064596
 21
813.8747482146436
 31
0.0
  0
LINE
  5
17C24
330
125AA
100
AcDbEntity
  8
YODOROGO
100
AcDbLine
 10
14968.80217064596
 20
740.6696674577553
 30
0.0
 11
14968.80217064596
 21
797.2655452655707
 31
0.0
  0
ARC
  5
17C25
330
125AA
100
AcDbEntity
  8
YODOROGO
100
AcDbCircle
 10
15127.17387491395
 20
903.9323046166312
 30
0.0
 40
190.9434321028236
100
AcDbArc
 50
213.9611167766785
 51
264.4787207431779
  0
LINE
  5
17C26
330
125AA
100
AcDbEntity
  8
YODOROGO
100
AcDbLine
 10
15108.80217064596
 20
713.8747482146428
 30
0.0
 11
15108.80217064596
 21
773.8747482146439
 31
0.0
  0
ARC
  5
17C27
330
125AA
100
AcDbEntity
  8
YODOROGO
100
AcDbCircle
 10
15115.02941435022
 20
934.4428574765013
 30
0.0
 40
160.6888181426453
100
AcDbArc
 50
260.6062929797
 51
267.7790355655592
  0
LINE
  5
17C28
330
125AA
100
AcDbEntity
  8
YODOROGO
100
AcDbLine
 10
15088.80217064596
 20
775.9088612367134
 30
0.0
 11
15094.80217064596
 21
801.8747482146446
 31
0.0
  0
LINE
  5
17C29
330
125AA
100
AcDbEntity
  8
YODOROGO
100
AcDbLine
 10
15094.80217064596
 20
801.8747482146446
 30
0.0
 11
15052.80217064596
 21
801.8747482146446
 31
0.0
  0
LINE
  5
17C2A
330
125AA
100
AcDbEntity
  8
YODOROGO
100
AcDbLine
 10
15052.80217064596
 20
801.8747482146446
 30
0.0
 11
15048.80217064598
 21
788.0364079349501
 31
0.0
  0
ARC
  5
17C2B
330
125AA
100
AcDbEntity
  8
YODOROGO
100
AcDbCircle
 10
15115.02941435068
 20
934.4428574764542
 30
0.0
 40
160.6888181426165
100
AcDbArc
 50
228.6181454619
 51
245.6602892489067
  0
LINE
  5
17C2C
330
125AA
100
AcDbEntity
  8
YODOROGO
100
AcDbLine
 10
15008.80217064596
 20
813.8747482146436
 30
0.0
 11
15108.80217064596
 21
813.8747482146436
 31
0.0
  0
LINE
  5
17C2D
330
125AA
100
AcDbEntity
  8
YODOROGO
100
AcDbLine
 10
15108.80217064596
 20
813.8747482146436
 30
0.0
 11
15108.80217064596
 21
833.8747482146439
 31
0.0
  0
LINE
  5
17C2E
330
125AA
100
AcDbEntity
  8
YODOROGO
100
AcDbLine
 10
15108.80217064596
 20
833.8747482146439
 30
0.0
 11
14974.80217064596
 21
833.8747482146439
 31
0.0
  0
LINE
  5
17C2F
330
125AA
100
AcDbEntity
  8
YODOROGO
100
AcDbLine
 10
14974.80217064596
 20
833.8747482146439
 30
0.0
 11
14974.80217064596
 21
853.8747482146439
 31
0.0
  0
LINE
  5
17C30
330
125AA
100
AcDbEntity
  8
YODOROGO
100
AcDbLine
 10
14974.80217064596
 20
853.8747482146439
 30
0.0
 11
14942.80217064596
 21
853.8747482146439
 31
0.0
  0
LINE
  5
17C31
330
125AA
100
AcDbEntity
  8
YODOROGO
100
AcDbLine
 10
14942.80217064596
 20
853.8747482146439
 30
0.0
 11
14942.80217064596
 21
833.8747482146439
 31
0.0
  0
LINE
  5
17C32
330
125AA
100
AcDbEntity
  8
YODOROGO
100
AcDbLine
 10
14942.80217064596
 20
833.8747482146439
 30
0.0
 11
14808.80217064596
 21
833.8747482146439
 31
0.0
  0
LINE
  5
17C33
330
125AA
100
AcDbEntity
  8
YODOROGO
100
AcDbLine
 10
14808.80217064596
 20
833.8747482146439
 30
0.0
 11
14808.80217064596
 21
813.8747482146436
 31
0.0
  0
LINE
  5
17C34
330
125AA
100
AcDbEntity
  8
YODOROGO
100
AcDbLine
 10
14808.80217064596
 20
813.8747482146436
 30
0.0
 11
14856.47231434973
 21
813.8747482146436
 31
0.0
  0
LINE
  5
17C35
330
125AA
100
AcDbEntity
  8
YODOROGO
100
AcDbLine
 10
14856.47231434973
 20
813.8747482146436
 30
0.0
 11
14808.80217064596
 21
773.8747482146439
 31
0.0
  0
LINE
  5
17C36
330
125AA
100
AcDbEntity
  8
YODOROGO
100
AcDbLine
 10
14808.80217064596
 20
773.8747482146439
 30
0.0
 11
14808.80217064596
 21
713.8747482146436
 31
0.0
  0
LINE
  5
17C37
330
125AA
100
AcDbEntity
  8
YODOROGO
100
AcDbLine
 10
14808.80217064596
 20
713.8747482146436
 30
0.0
 11
14868.80217064596
 21
764.2207260852821
 31
0.0
  0
LINE
  5
17C38
330
125AA
100
AcDbEntity
  8
YODOROGO
100
AcDbLine
 10
14868.80217064596
 20
764.2207260852821
 30
0.0
 11
14868.80217064596
 21
713.8747482146436
 31
0.0
  0
LINE
  5
17C39
330
125AA
100
AcDbEntity
  8
YODOROGO
100
AcDbLine
 10
14868.80217064596
 20
713.8747482146436
 30
0.0
 11
14968.80217064596
 21
740.6696674577553
 31
0.0
  0
LINE
  5
17C3A
330
125AA
100
AcDbEntity
  8
YODOROGO
100
AcDbLine
 10
15010.80217064596
 20
1013.874748214644
 30
0.0
 11
15010.80217064596
 21
913.8747482146436
 31
0.0
  0
LINE
  5
17C3B
330
125AA
100
AcDbEntity
  8
YODOROGO
100
AcDbLine
 10
15010.80217064596
 20
913.8747482146436
 30
0.0
 11
15040.80217064596
 21
913.8747482146436
 31
0.0
  0
LINE
  5
17C3C
330
125AA
100
AcDbEntity
  8
YODOROGO
100
AcDbLine
 10
15040.80217064596
 20
913.8747482146436
 30
0.0
 11
15040.80217064596
 21
1013.874748214644
 31
0.0
  0
LINE
  5
17C3D
330
125AA
100
AcDbEntity
  8
YODOROGO
100
AcDbLine
 10
15040.80217064596
 20
1013.874748214644
 30
0.0
 11
15010.80217064596
 21
1013.874748214644
 31
0.0
  0
LINE
  5
17C3E
330
125AA
100
AcDbEntity
  8
YODOROGO
100
AcDbLine
 10
14836.80217064596
 20
885.8747482146442
 30
0.0
 11
14882.80217064596
 21
885.8747482146442
 31
0.0
1001
AUTOCAD_POSTSCRIPT_FIGURE
1002
{
1000
PSFILL
1000
Grayscale
1000
Grayscale
1070
    25
1002
}
  0
LINE
  5
17C3F
330
125AA
100
AcDbEntity
  8
YODOROGO
100
AcDbLine
 10
14882.80217064596
 20
885.8747482146442
 30
0.0
 11
14882.80217064596
 21
853.8747482146439
 31
0.0
1001
AUTOCAD_POSTSCRIPT_FIGURE
1002
{
1000
PSFILL
1000
Grayscale
1000
Grayscale
1070
    25
1002
}
  0
LINE
  5
17C40
330
125AA
100
AcDbEntity
  8
YODOROGO
100
AcDbLine
 10
14882.80217064596
 20
853.8747482146439
 30
0.0
 11
14914.80217064596
 21
853.8747482146439
 31
0.0
1001
AUTOCAD_POSTSCRIPT_FIGURE
1002
{
1000
PSFILL
1000
Grayscale
1000
Grayscale
1070
    25
1002
}
  0
LINE
  5
17C41
330
125AA
100
AcDbEntity
  8
YODOROGO
100
AcDbLine
 10
14914.80217064596
 20
853.8747482146439
 30
0.0
 11
14914.80217064596
 21
885.8747482146442
 31
0.0
1001
AUTOCAD_POSTSCRIPT_FIGURE
1002
{
1000
PSFILL
1000
Grayscale
1000
Grayscale
1070
    25
1002
}
  0
LINE
  5
17C42
330
125AA
100
AcDbEntity
  8
YODOROGO
100
AcDbLine
 10
14914.80217064596
 20
885.8747482146442
 30
0.0
 11
14960.80217064595
 21
885.8747482146442
 31
0.0
1001
AUTOCAD_POSTSCRIPT_FIGURE
1002
{
1000
PSFILL
1000
Grayscale
1000
Grayscale
1070
    25
1002
}
  0
LINE
  5
17C43
330
125AA
100
AcDbEntity
  8
YODOROGO
100
AcDbLine
 10
14960.80217064595
 20
885.8747482146442
 30
0.0
 11
14960.80217064595
 21
853.8747482146439
 31
0.0
1001
AUTOCAD_POSTSCRIPT_FIGURE
1002
{
1000
PSFILL
1000
Grayscale
1000
Grayscale
1070
    25
1002
}
  0
LINE
  5
17C44
330
125AA
100
AcDbEntity
  8
YODOROGO
100
AcDbLine
 10
14960.80217064595
 20
853.8747482146439
 30
0.0
 11
14988.80217064596
 21
853.8747482146439
 31
0.0
1001
AUTOCAD_POSTSCRIPT_FIGURE
1002
{
1000
PSFILL
1000
Grayscale
1000
Grayscale
1070
    25
1002
}
  0
LINE
  5
17C45
330
125AA
100
AcDbEntity
  8
YODOROGO
100
AcDbLine
 10
14988.80217064596
 20
853.8747482146439
 30
0.0
 11
14988.80217064596
 21
909.8747482146439
 31
0.0
1001
AUTOCAD_POSTSCRIPT_FIGURE
1002
{
1000
PSFILL
1000
Grayscale
1000
Grayscale
1070
    25
1002
}
  0
LINE
  5
17C46
330
125AA
100
AcDbEntity
  8
YODOROGO
100
AcDbLine
 10
14988.80217064596
 20
909.8747482146439
 30
0.0
 11
14914.80217064596
 21
909.8747482146439
 31
0.0
1001
AUTOCAD_POSTSCRIPT_FIGURE
1002
{
1000
PSFILL
1000
Grayscale
1000
Grayscale
1070
    25
1002
}
  0
LINE
  5
17C47
330
125AA
100
AcDbEntity
  8
YODOROGO
100
AcDbLine
 10
14914.80217064596
 20
909.8747482146439
 30
0.0
 11
14914.80217064596
 21
929.874748214644
 31
0.0
1001
AUTOCAD_POSTSCRIPT_FIGURE
1002
{
1000
PSFILL
1000
Grayscale
1000
Grayscale
1070
    25
1002
}
  0
LINE
  5
17C48
330
125AA
100
AcDbEntity
  8
YODOROGO
100
AcDbLine
 10
14914.80217064596
 20
929.874748214644
 30
0.0
 11
14988.80217064596
 21
929.874748214644
 31
0.0
1001
AUTOCAD_POSTSCRIPT_FIGURE
1002
{
1000
PSFILL
1000
Grayscale
1000
Grayscale
1070
    25
1002
}
  0
LINE
  5
17C49
330
125AA
100
AcDbEntity
  8
YODOROGO
100
AcDbLine
 10
14988.80217064596
 20
929.874748214644
 30
0.0
 11
14988.80217064596
 21
953.874748214644
 31
0.0
1001
AUTOCAD_POSTSCRIPT_FIGURE
1002
{
1000
PSFILL
1000
Grayscale
1000
Grayscale
1070
    25
1002
}
  0
LINE
  5
17C4A
330
125AA
100
AcDbEntity
  8
YODOROGO
100
AcDbLine
 10
14988.80217064596
 20
953.874748214644
 30
0.0
 11
14914.80217064596
 21
953.874748214644
 31
0.0
1001
AUTOCAD_POSTSCRIPT_FIGURE
1002
{
1000
PSFILL
1000
Grayscale
1000
Grayscale
1070
    25
1002
}
  0
LINE
  5
17C4B
330
125AA
100
AcDbEntity
  8
YODOROGO
100
AcDbLine
 10
14914.80217064596
 20
953.874748214644
 30
0.0
 11
14914.80217064596
 21
973.8747482146436
 31
0.0
1001
AUTOCAD_POSTSCRIPT_FIGURE
1002
{
1000
PSFILL
1000
Grayscale
1000
Grayscale
1070
    25
1002
}
  0
LINE
  5
17C4C
330
125AA
100
AcDbEntity
  8
YODOROGO
100
AcDbLine
 10
14914.80217064596
 20
973.8747482146436
 30
0.0
 11
14988.80217064596
 21
973.8747482146436
 31
0.0
1001
AUTOCAD_POSTSCRIPT_FIGURE
1002
{
1000
PSFILL
1000
Grayscale
1000
Grayscale
1070
    25
1002
}
  0
LINE
  5
17C4D
330
125AA
100
AcDbEntity
  8
YODOROGO
100
AcDbLine
 10
14988.80217064596
 20
973.8747482146436
 30
0.0
 11
14988.80217064596
 21
997.8747482146435
 31
0.0
1001
AUTOCAD_POSTSCRIPT_FIGURE
1002
{
1000
PSFILL
1000
Grayscale
1000
Grayscale
1070
    25
1002
}
  0
LINE
  5
17C4E
330
125AA
100
AcDbEntity
  8
YODOROGO
100
AcDbLine
 10
14988.80217064596
 20
997.8747482146435
 30
0.0
 11
14914.80217064596
 21
997.8747482146435
 31
0.0
1001
AUTOCAD_POSTSCRIPT_FIGURE
1002
{
1000
PSFILL
1000
Grayscale
1000
Grayscale
1070
    25
1002
}
  0
LINE
  5
17C4F
330
125AA
100
AcDbEntity
  8
YODOROGO
100
AcDbLine
 10
14914.80217064596
 20
997.8747482146435
 30
0.0
 11
14914.80217064596
 21
1013.874748214644
 31
0.0
1001
AUTOCAD_POSTSCRIPT_FIGURE
1002
{
1000
PSFILL
1000
Grayscale
1000
Grayscale
1070
    25
1002
}
  0
LINE
  5
17C50
330
125AA
100
AcDbEntity
  8
YODOROGO
100
AcDbLine
 10
14914.80217064596
 20
1013.874748214644
 30
0.0
 11
14882.80217064596
 21
1013.874748214644
 31
0.0
1001
AUTOCAD_POSTSCRIPT_FIGURE
1002
{
1000
PSFILL
1000
Grayscale
1000
Grayscale
1070
    25
1002
}
  0
LINE
  5
17C51
330
125AA
100
AcDbEntity
  8
YODOROGO
100
AcDbLine
 10
14882.80217064596
 20
1013.874748214644
 30
0.0
 11
14882.80217064596
 21
997.8747482146435
 31
0.0
1001
AUTOCAD_POSTSCRIPT_FIGURE
1002
{
1000
PSFILL
1000
Grayscale
1000
Grayscale
1070
    25
1002
}
  0
LINE
  5
17C52
330
125AA
100
AcDbEntity
  8
YODOROGO
100
AcDbLine
 10
14882.80217064596
 20
997.8747482146435
 30
0.0
 11
14832.80217064596
 21
997.8747482146435
 31
0.0
1001
AUTOCAD_POSTSCRIPT_FIGURE
1002
{
1000
PSFILL
1000
Grayscale
1000
Grayscale
1070
    25
1002
}
  0
LINE
  5
17C53
330
125AA
100
AcDbEntity
  8
YODOROGO
100
AcDbLine
 10
14832.80217064596
 20
997.8747482146435
 30
0.0
 11
14832.80217064596
 21
1013.874748214644
 31
0.0
1001
AUTOCAD_POSTSCRIPT_FIGURE
1002
{
1000
PSFILL
1000
Grayscale
1000
Grayscale
1070
    25
1002
}
  0
LINE
  5
17C54
330
125AA
100
AcDbEntity
  8
YODOROGO
100
AcDbLine
 10
14832.80217064596
 20
1013.874748214644
 30
0.0
 11
14808.80217064596
 21
1013.874748214644
 31
0.0
1001
AUTOCAD_POSTSCRIPT_FIGURE
1002
{
1000
PSFILL
1000
Grayscale
1000
Grayscale
1070
    25
1002
}
  0
LINE
  5
17C55
330
125AA
100
AcDbEntity
  8
YODOROGO
100
AcDbLine
 10
14808.80217064596
 20
1013.874748214644
 30
0.0
 11
14808.80217064596
 21
973.8747482146436
 31
0.0
1001
AUTOCAD_POSTSCRIPT_FIGURE
1002
{
1000
PSFILL
1000
Grayscale
1000
Grayscale
1070
    25
1002
}
  0
LINE
  5
17C56
330
125AA
100
AcDbEntity
  8
YODOROGO
100
AcDbLine
 10
14808.80217064596
 20
973.8747482146436
 30
0.0
 11
14882.80217064596
 21
973.8747482146436
 31
0.0
1001
AUTOCAD_POSTSCRIPT_FIGURE
1002
{
1000
PSFILL
1000
Grayscale
1000
Grayscale
1070
    25
1002
}
  0
LINE
  5
17C57
330
125AA
100
AcDbEntity
  8
YODOROGO
100
AcDbLine
 10
14882.80217064596
 20
973.8747482146436
 30
0.0
 11
14882.80217064596
 21
953.874748214644
 31
0.0
1001
AUTOCAD_POSTSCRIPT_FIGURE
1002
{
1000
PSFILL
1000
Grayscale
1000
Grayscale
1070
    25
1002
}
  0
LINE
  5
17C58
330
125AA
100
AcDbEntity
  8
YODOROGO
100
AcDbLine
 10
14882.80217064596
 20
953.874748214644
 30
0.0
 11
14808.80217064596
 21
953.874748214644
 31
0.0
1001
AUTOCAD_POSTSCRIPT_FIGURE
1002
{
1000
PSFILL
1000
Grayscale
1000
Grayscale
1070
    25
1002
}
  0
LINE
  5
17C59
330
125AA
100
AcDbEntity
  8
YODOROGO
100
AcDbLine
 10
14808.80217064596
 20
953.874748214644
 30
0.0
 11
14808.80217064596
 21
929.874748214644
 31
0.0
1001
AUTOCAD_POSTSCRIPT_FIGURE
1002
{
1000
PSFILL
1000
Grayscale
1000
Grayscale
1070
    25
1002
}
  0
LINE
  5
17C5A
330
125AA
100
AcDbEntity
  8
YODOROGO
100
AcDbLine
 10
14808.80217064596
 20
929.874748214644
 30
0.0
 11
14882.80217064596
 21
929.874748214644
 31
0.0
1001
AUTOCAD_POSTSCRIPT_FIGURE
1002
{
1000
PSFILL
1000
Grayscale
1000
Grayscale
1070
    25
1002
}
  0
LINE
  5
17C5B
330
125AA
100
AcDbEntity
  8
YODOROGO
100
AcDbLine
 10
14882.80217064596
 20
929.874748214644
 30
0.0
 11
14882.80217064596
 21
909.8747482146439
 31
0.0
1001
AUTOCAD_POSTSCRIPT_FIGURE
1002
{
1000
PSFILL
1000
Grayscale
1000
Grayscale
1070
    25
1002
}
  0
LINE
  5
17C5C
330
125AA
100
AcDbEntity
  8
YODOROGO
100
AcDbLine
 10
14882.80217064596
 20
909.8747482146439
 30
0.0
 11
14808.80217064596
 21
909.8747482146439
 31
0.0
1001
AUTOCAD_POSTSCRIPT_FIGURE
1002
{
1000
PSFILL
1000
Grayscale
1000
Grayscale
1070
    25
1002
}
  0
LINE
  5
17C5D
330
125AA
100
AcDbEntity
  8
YODOROGO
100
AcDbLine
 10
14808.80217064596
 20
909.8747482146439
 30
0.0
 11
14808.80217064596
 21
853.8747482146439
 31
0.0
1001
AUTOCAD_POSTSCRIPT_FIGURE
1002
{
1000
PSFILL
1000
Grayscale
1000
Grayscale
1070
    25
1002
}
  0
LINE
  5
17C5E
330
125AA
100
AcDbEntity
  8
YODOROGO
100
AcDbLine
 10
14808.80217064596
 20
853.8747482146439
 30
0.0
 11
14836.80217064596
 21
853.8747482146439
 31
0.0
1001
AUTOCAD_POSTSCRIPT_FIGURE
1002
{
1000
PSFILL
1000
Grayscale
1000
Grayscale
1070
    25
1002
}
  0
LINE
  5
17C5F
330
125AA
100
AcDbEntity
  8
YODOROGO
100
AcDbLine
 10
14836.80217064596
 20
853.8747482146439
 30
0.0
 11
14836.80217064596
 21
885.8747482146442
 31
0.0
1001
AUTOCAD_POSTSCRIPT_FIGURE
1002
{
1000
PSFILL
1000
Grayscale
1000
Grayscale
1070
    25
1002
}
  0
LINE
  5
17C60
330
125AA
100
AcDbEntity
  8
YODOROGO
100
AcDbLine
 10
14728.80217064596
 20
713.8747482146436
 30
0.0
 11
14728.80217064596
 21
1013.874748214644
 31
0.0
  0
LINE
  5
17C61
330
125AA
100
AcDbEntity
  8
YODOROGO
100
AcDbLine
 10
14728.80217064596
 20
1013.874748214644
 30
0.0
 11
14692.80217064595
 21
1013.874748214644
 31
0.0
  0
LINE
  5
17C62
330
125AA
100
AcDbEntity
  8
YODOROGO
100
AcDbLine
 10
14692.80217064595
 20
1013.874748214644
 30
0.0
 11
14692.80217064595
 21
713.8747482146436
 31
0.0
  0
LINE
  5
17C63
330
125AA
100
AcDbEntity
  8
YODOROGO
100
AcDbLine
 10
14692.80217064595
 20
713.8747482146436
 30
0.0
 11
14728.80217064596
 21
713.8747482146436
 31
0.0
  0
LINE
  5
17C64
330
125AA
100
AcDbEntity
  8
YODOROGO
100
AcDbLine
 10
14630.80217064596
 20
1003.874748214644
 30
0.0
 11
14598.80217064596
 21
1003.874748214644
 31
0.0
  0
LINE
  5
17C65
330
125AA
100
AcDbEntity
  8
YODOROGO
100
AcDbLine
 10
14598.80217064596
 20
1003.874748214644
 30
0.0
 11
14598.80217064596
 21
745.8747482146431
 31
0.0
  0
LINE
  5
17C66
330
125AA
100
AcDbEntity
  8
YODOROGO
100
AcDbLine
 10
14598.80217064596
 20
745.8747482146431
 30
0.0
 11
14630.80217064596
 21
745.8747482146431
 31
0.0
  0
LINE
  5
17C67
330
125AA
100
AcDbEntity
  8
YODOROGO
100
AcDbLine
 10
14630.80217064596
 20
745.8747482146431
 30
0.0
 11
14630.80217064596
 21
1003.874748214644
 31
0.0
  0
ARC
  5
17C68
330
125AA
100
AcDbEntity
  8
YODOROGO
100
AcDbCircle
 10
14454.59308535991
 20
796.3053643052199
 30
0.0
 40
82.46021178042751
100
AcDbArc
 50
271.5351210653781
 51
355.5272775058506
  0
LINE
  5
17C69
330
125AA
100
AcDbEntity
  8
YODOROGO
100
AcDbLine
 10
14536.80217064596
 20
789.8747482146441
 30
0.0
 11
14536.80217064596
 21
1013.874748214644
 31
0.0
  0
LINE
  5
17C6A
330
125AA
100
AcDbEntity
  8
YODOROGO
100
AcDbLine
 10
14536.80217064596
 20
1013.874748214644
 30
0.0
 11
14500.80217064595
 21
1013.874748214644
 31
0.0
  0
LINE
  5
17C6B
330
125AA
100
AcDbEntity
  8
YODOROGO
100
AcDbLine
 10
14500.80217064595
 20
1013.874748214644
 30
0.0
 11
14500.80217064595
 21
809.8747482146441
 31
0.0
  0
ARC
  5
17C6C
330
125AA
100
AcDbEntity
  8
YODOROGO
100
AcDbCircle
 10
14453.45578809342
 20
809.1089322211374
 30
0.0
 40
47.35257558937171
100
AcDbArc
 50
274.05244162907
 51
0.9266642149298844
  0
LINE
  5
17C6D
330
125AA
100
AcDbEntity
  8
YODOROGO
100
AcDbLine
 10
14456.80217064596
 20
761.8747482146434
 30
0.0
 11
14456.80217064596
 21
713.8747482146436
 31
0.0
  0
LINE
  5
17C6E
330
125AA
100
AcDbEntity
  8
YODOROGO
100
AcDbLine
 10
14216.80217064595
 20
933.8747482146439
 30
0.0
 11
14216.80217064595
 21
993.8747482146439
 31
0.0
  0
LINE
  5
17C6F
330
125AA
100
AcDbEntity
  8
YODOROGO
100
AcDbLine
 10
14216.80217064595
 20
993.8747482146439
 30
0.0
 11
14292.80217064595
 21
993.8747482146439
 31
0.0
  0
LINE
  5
17C70
330
125AA
100
AcDbEntity
  8
YODOROGO
100
AcDbLine
 10
14292.80217064595
 20
993.8747482146439
 30
0.0
 11
14292.80217064595
 21
1013.874748214644
 31
0.0
  0
LINE
  5
17C71
330
125AA
100
AcDbEntity
  8
YODOROGO
100
AcDbLine
 10
14292.80217064595
 20
1013.874748214644
 30
0.0
 11
14328.80217064596
 21
1013.874748214644
 31
0.0
  0
LINE
  5
17C72
330
125AA
100
AcDbEntity
  8
YODOROGO
100
AcDbLine
 10
14328.80217064596
 20
1013.874748214644
 30
0.0
 11
14328.80217064596
 21
993.8747482146439
 31
0.0
  0
LINE
  5
17C73
330
125AA
100
AcDbEntity
  8
YODOROGO
100
AcDbLine
 10
14328.80217064596
 20
993.8747482146439
 30
0.0
 11
14376.80217064595
 21
993.8747482146439
 31
0.0
  0
ARC
  5
17C74
330
125AA
100
AcDbEntity
  8
YODOROGO
100
AcDbCircle
 10
14376.80217064595
 20
973.8747482146436
 30
0.0
 40
20.0
100
AcDbArc
 50
0.0
 51
90.0
  0
LINE
  5
17C75
330
125AA
100
AcDbEntity
  8
YODOROGO
100
AcDbLine
 10
14396.80217064595
 20
973.8747482146436
 30
0.0
 11
14396.80217064595
 21
933.8747482146439
 31
0.0
  0
LINE
  5
17C76
330
125AA
100
AcDbEntity
  8
YODOROGO
100
AcDbLine
 10
14396.80217064595
 20
933.8747482146439
 30
0.0
 11
14364.80217064596
 21
933.8747482146439
 31
0.0
  0
LINE
  5
17C77
330
125AA
100
AcDbEntity
  8
YODOROGO
100
AcDbLine
 10
14364.80217064596
 20
933.8747482146439
 30
0.0
 11
14364.80217064596
 21
961.8747482146432
 31
0.0
  0
LINE
  5
17C78
330
125AA
100
AcDbEntity
  8
YODOROGO
100
AcDbLine
 10
14364.80217064596
 20
961.8747482146432
 30
0.0
 11
14248.80217064595
 21
961.8747482146432
 31
0.0
  0
LINE
  5
17C79
330
125AA
100
AcDbEntity
  8
YODOROGO
100
AcDbLine
 10
14248.80217064595
 20
961.8747482146432
 30
0.0
 11
14248.80217064595
 21
933.8747482146439
 31
0.0
  0
LINE
  5
17C7A
330
125AA
100
AcDbEntity
  8
YODOROGO
100
AcDbLine
 10
14248.80217064595
 20
933.8747482146439
 30
0.0
 11
14216.80217064595
 21
933.8747482146439
 31
0.0
  0
LINE
  5
17C7B
330
125AA
100
AcDbEntity
  8
YODOROGO
100
AcDbLine
 10
14128.80217064596
 20
1013.874748214644
 30
0.0
 11
14128.80217064596
 21
979.874748214644
 31
0.0
1001
AUTOCAD_POSTSCRIPT_FIGURE
1002
{
1000
PSFILL
1000
Grayscale
1000
Grayscale
1070
   100
1002
}
  0
LINE
  5
17C7C
330
125AA
100
AcDbEntity
  8
YODOROGO
100
AcDbLine
 10
14128.80217064596
 20
979.874748214644
 30
0.0
 11
14200.80217064595
 21
958.4388128201537
 31
0.0
1001
AUTOCAD_POSTSCRIPT_FIGURE
1002
{
1000
PSFILL
1000
Grayscale
1000
Grayscale
1070
   100
1002
}
  0
LINE
  5
17C7D
330
125AA
100
AcDbEntity
  8
YODOROGO
100
AcDbLine
 10
14200.80217064595
 20
958.4388128201537
 30
0.0
 11
14200.80217064595
 21
992.4388128201531
 31
0.0
1001
AUTOCAD_POSTSCRIPT_FIGURE
1002
{
1000
PSFILL
1000
Grayscale
1000
Grayscale
1070
   100
1002
}
  0
LINE
  5
17C7E
330
125AA
100
AcDbEntity
  8
YODOROGO
100
AcDbLine
 10
14200.80217064595
 20
992.4388128201531
 30
0.0
 11
14128.80217064596
 21
1013.874748214644
 31
0.0
1001
AUTOCAD_POSTSCRIPT_FIGURE
1002
{
1000
PSFILL
1000
Grayscale
1000
Grayscale
1070
   100
1002
}
  0
LINE
  5
17C7F
330
125AA
100
AcDbEntity
  8
YODOROGO
100
AcDbLine
 10
14200.80217064595
 20
912.4388128201532
 30
0.0
 11
14200.80217064595
 21
876.4388128201531
 31
0.0
1001
AUTOCAD_POSTSCRIPT_FIGURE
1002
{
1000
PSFILL
1000
Grayscale
1000
Grayscale
1070
   100
1002
}
  0
LINE
  5
17C80
330
125AA
100
AcDbEntity
  8
YODOROGO
100
AcDbLine
 10
14200.80217064595
 20
876.4388128201531
 30
0.0
 11
14128.80217064596
 21
897.8747482146435
 31
0.0
1001
AUTOCAD_POSTSCRIPT_FIGURE
1002
{
1000
PSFILL
1000
Grayscale
1000
Grayscale
1070
   100
1002
}
  0
LINE
  5
17C81
330
125AA
100
AcDbEntity
  8
YODOROGO
100
AcDbLine
 10
14128.80217064596
 20
897.8747482146435
 30
0.0
 11
14128.80217064596
 21
933.8747482146439
 31
0.0
1001
AUTOCAD_POSTSCRIPT_FIGURE
1002
{
1000
PSFILL
1000
Grayscale
1000
Grayscale
1070
   100
1002
}
  0
LINE
  5
17C82
330
125AA
100
AcDbEntity
  8
YODOROGO
100
AcDbLine
 10
14128.80217064596
 20
933.8747482146439
 30
0.0
 11
14200.80217064595
 21
912.4388128201532
 31
0.0
1001
AUTOCAD_POSTSCRIPT_FIGURE
1002
{
1000
PSFILL
1000
Grayscale
1000
Grayscale
1070
   100
1002
}
  0
LINE
  5
17C83
330
125AA
100
AcDbEntity
  8
YODOROGO
100
AcDbLine
 10
14172.80217064596
 20
833.8747482146439
 30
0.0
 11
14172.80217064596
 21
805.8747482146443
 31
0.0
  0
ARC
  5
17C84
330
125AA
100
AcDbEntity
  8
YODOROGO
100
AcDbCircle
 10
14117.87801537965
 20
816.7989034809529
 30
0.0
 40
56.00000000000107
100
AcDbArc
 50
281.2490582504164
 51
348.750941749583
  0
LINE
  5
17C85
330
125AA
100
AcDbEntity
  8
YODOROGO
100
AcDbLine
 10
14128.80217064596
 20
761.8747482146434
 30
0.0
 11
14128.80217064596
 21
713.8747482146436
 31
0.0
  0
ARC
  5
17C86
330
125AA
100
AcDbEntity
  8
YODOROGO
100
AcDbCircle
 10
14112.97022107349
 20
800.438882662663
 30
0.0
 40
87.99999999999977
100
AcDbArc
 50
280.3644312771307
 51
3.541483659218113
  0
LINE
  5
17C87
330
125AA
100
AcDbEntity
  8
YODOROGO
100
AcDbLine
 10
14200.80217064595
 20
805.8747482146443
 30
0.0
 11
14200.80217064595
 21
833.8747482146439
 31
0.0
  0
LINE
  5
17C88
330
125AA
100
AcDbEntity
  8
YODOROGO
100
AcDbLine
 10
14200.80217064595
 20
833.8747482146439
 30
0.0
 11
14172.80217064596
 21
833.8747482146439
 31
0.0
  0
LINE
  5
17C89
330
125AA
100
AcDbEntity
  8
YODOROGO
100
AcDbLine
 10
14216.80217064595
 20
873.8747482146449
 30
0.0
 11
14292.80217064595
 21
873.8747482146449
 31
0.0
  0
LINE
  5
17C8A
330
125AA
100
AcDbEntity
  8
YODOROGO
100
AcDbLine
 10
14292.80217064595
 20
873.8747482146449
 30
0.0
 11
14292.80217064596
 21
773.8747482146439
 31
0.0
  0
ARC
  5
17C8B
330
125AA
100
AcDbEntity
  8
YODOROGO
100
AcDbCircle
 10
14280.80217064596
 20
773.8747482146444
 30
0.0
 40
12.00000000000182
100
AcDbArc
 50
270.0
 51
359.9999999999968
  0
LINE
  5
17C8C
330
125AA
100
AcDbEntity
  8
YODOROGO
100
AcDbLine
 10
14280.80217064596
 20
761.8747482146434
 30
0.0
 11
14268.80217064595
 21
761.8747482146434
 31
0.0
  0
ARC
  5
17C8D
330
125AA
100
AcDbEntity
  8
YODOROGO
100
AcDbCircle
 10
14268.80217064595
 20
781.8747482146434
 30
0.0
 40
20.0
100
AcDbArc
 50
180.0
 51
270.0
  0
LINE
  5
17C8E
330
125AA
100
AcDbEntity
  8
YODOROGO
100
AcDbLine
 10
14248.80217064595
 20
781.8747482146434
 30
0.0
 11
14248.80217064595
 21
853.8747482146439
 31
0.0
  0
LINE
  5
17C8F
330
125AA
100
AcDbEntity
  8
YODOROGO
100
AcDbLine
 10
14248.80217064595
 20
853.8747482146439
 30
0.0
 11
14216.80217064595
 21
853.8747482146439
 31
0.0
  0
LINE
  5
17C90
330
125AA
100
AcDbEntity
  8
YODOROGO
100
AcDbLine
 10
14216.80217064595
 20
853.8747482146439
 30
0.0
 11
14216.80217064595
 21
753.8747482146439
 31
0.0
  0
ARC
  5
17C91
330
125AA
100
AcDbEntity
  8
YODOROGO
100
AcDbCircle
 10
14256.80217064595
 20
753.8747482146439
 30
0.0
 40
40.0
100
AcDbArc
 50
180.0
 51
270.0
  0
LINE
  5
17C92
330
125AA
100
AcDbEntity
  8
YODOROGO
100
AcDbLine
 10
14256.80217064595
 20
713.8747482146436
 30
0.0
 11
14396.80217064595
 21
713.8747482146436
 31
0.0
  0
LINE
  5
17C93
330
125AA
100
AcDbEntity
  8
YODOROGO
100
AcDbLine
 10
14396.80217064595
 20
713.8747482146436
 30
0.0
 11
14396.80217064595
 21
761.8747482146434
 31
0.0
  0
LINE
  5
17C94
330
125AA
100
AcDbEntity
  8
YODOROGO
100
AcDbLine
 10
14396.80217064595
 20
761.8747482146434
 30
0.0
 11
14328.80217064595
 21
761.8747482146434
 31
0.0
  0
LINE
  5
17C95
330
125AA
100
AcDbEntity
  8
YODOROGO
100
AcDbLine
 10
14328.80217064595
 20
761.8747482146434
 30
0.0
 11
14328.80217064595
 21
801.8747482146446
 31
0.0
  0
LINE
  5
17C96
330
125AA
100
AcDbEntity
  8
YODOROGO
100
AcDbLine
 10
14328.80217064595
 20
801.8747482146446
 30
0.0
 11
14396.80217064595
 21
801.8747482146446
 31
0.0
  0
LINE
  5
17C97
330
125AA
100
AcDbEntity
  8
YODOROGO
100
AcDbLine
 10
14396.80217064595
 20
801.8747482146446
 30
0.0
 11
14396.80217064595
 21
833.8747482146439
 31
0.0
  0
LINE
  5
17C98
330
125AA
100
AcDbEntity
  8
YODOROGO
100
AcDbLine
 10
14396.80217064595
 20
833.8747482146439
 30
0.0
 11
14328.80217064595
 21
833.8747482146439
 31
0.0
  0
LINE
  5
17C99
330
125AA
100
AcDbEntity
  8
YODOROGO
100
AcDbLine
 10
14328.80217064595
 20
833.8747482146439
 30
0.0
 11
14328.80217064595
 21
873.8747482146449
 31
0.0
  0
LINE
  5
17C9A
330
125AA
100
AcDbEntity
  8
YODOROGO
100
AcDbLine
 10
14328.80217064595
 20
873.8747482146449
 30
0.0
 11
14396.80217064595
 21
873.8747482146449
 31
0.0
  0
LINE
  5
17C9B
330
125AA
100
AcDbEntity
  8
YODOROGO
100
AcDbLine
 10
14396.80217064595
 20
873.8747482146449
 30
0.0
 11
14396.80217064595
 21
909.8747482146439
 31
0.0
  0
LINE
  5
17C9C
330
125AA
100
AcDbEntity
  8
YODOROGO
100
AcDbLine
 10
14396.80217064595
 20
909.8747482146439
 30
0.0
 11
14216.80217064595
 21
909.8747482146439
 31
0.0
  0
LINE
  5
17C9D
330
125AA
100
AcDbEntity
  8
YODOROGO
100
AcDbLine
 10
14216.80217064595
 20
909.8747482146439
 30
0.0
 11
14216.80217064595
 21
873.8747482146449
 31
0.0
  0
LINE
  5
17C9E
330
125AA
100
AcDbEntity
  8
YODOROGO
100
AcDbLine
 10
15196.80217064596
 20
792.8747482146435
 30
0.0
 11
15196.80217064596
 21
794.8747482146441
 31
0.0
  0
LINE
  5
17C9F
330
125AA
100
AcDbEntity
  8
YODOROGO
100
AcDbLine
 10
15196.80217064596
 20
794.8747482146441
 30
0.0
 11
15210.80217064596
 21
794.8747482146441
 31
0.0
  0
LINE
  5
17CA0
330
125AA
100
AcDbEntity
  8
YODOROGO
100
AcDbLine
 10
15210.80217064596
 20
794.8747482146441
 30
0.0
 11
15210.80217064596
 21
792.8747482146435
 31
0.0
  0
LINE
  5
17CA1
330
125AA
100
AcDbEntity
  8
YODOROGO
100
AcDbLine
 10
15210.80217064596
 20
792.8747482146435
 30
0.0
 11
15196.80217064596
 21
792.8747482146435
 31
0.0
  0
LINE
  5
17CA2
330
125AA
100
AcDbEntity
  8
YODOROGO
100
AcDbLine
 10
15194.80217064596
 20
790.8747482146432
 30
0.0
 11
15194.80217064596
 21
796.8747482146445
 31
0.0
  0
LINE
  5
17CA3
330
125AA
100
AcDbEntity
  8
YODOROGO
100
AcDbLine
 10
15194.80217064596
 20
796.8747482146445
 30
0.0
 11
15212.80217064596
 21
796.8747482146445
 31
0.0
  0
LINE
  5
17CA4
330
125AA
100
AcDbEntity
  8
YODOROGO
100
AcDbLine
 10
15212.80217064596
 20
796.8747482146445
 30
0.0
 11
15212.80217064596
 21
790.8747482146432
 31
0.0
  0
LINE
  5
17CA5
330
125AA
100
AcDbEntity
  8
YODOROGO
100
AcDbLine
 10
15212.80217064596
 20
790.8747482146432
 30
0.0
 11
15194.80217064596
 21
790.8747482146432
 31
0.0
  0
LINE
  5
17CA6
330
125AA
100
AcDbEntity
  8
YODOROGO
100
AcDbLine
 10
15192.80217064596
 20
788.8747482146436
 30
0.0
 11
15192.80217064596
 21
798.8747482146439
 31
0.0
  0
LINE
  5
17CA7
330
125AA
100
AcDbEntity
  8
YODOROGO
100
AcDbLine
 10
15192.80217064596
 20
798.8747482146439
 30
0.0
 11
15214.80217064596
 21
798.8747482146439
 31
0.0
  0
LINE
  5
17CA8
330
125AA
100
AcDbEntity
  8
YODOROGO
100
AcDbLine
 10
15214.80217064596
 20
798.8747482146439
 30
0.0
 11
15214.80217064596
 21
788.8747482146436
 31
0.0
  0
LINE
  5
17CA9
330
125AA
100
AcDbEntity
  8
YODOROGO
100
AcDbLine
 10
15214.80217064596
 20
788.8747482146436
 30
0.0
 11
15192.80217064596
 21
788.8747482146436
 31
0.0
  0
LINE
  5
17CAA
330
125AA
100
AcDbEntity
  8
YODOROGO
100
AcDbLine
 10
13988.80217064596
 20
873.8747482146436
 30
0.0
 11
13988.80217064596
 21
885.8747482146432
 31
0.0
  0
LINE
  5
17CAB
330
125AA
100
AcDbEntity
  8
YODOROGO
100
AcDbLine
 10
13988.80217064596
 20
885.8747482146432
 30
0.0
 11
14010.91839030643
 21
892.3366697971587
 31
0.0
  0
LINE
  5
17CAC
330
125AA
100
AcDbEntity
  8
YODOROGO
100
AcDbLine
 10
14010.91839030643
 20
892.3366697971587
 30
0.0
 11
14010.91839030643
 21
936.2841744681499
 31
0.0
  0
LINE
  5
17CAD
330
125AA
100
AcDbEntity
  8
YODOROGO
100
AcDbLine
 10
14010.91839030643
 20
936.2841744681499
 30
0.0
 11
13988.80217064596
 21
936.2841744681499
 31
0.0
  0
LINE
  5
17CAE
330
125AA
100
AcDbEntity
  8
YODOROGO
100
AcDbLine
 10
13988.80217064596
 20
936.2841744681499
 30
0.0
 11
13988.80217064596
 21
946.2841744681487
 31
0.0
  0
LINE
  5
17CAF
330
125AA
100
AcDbEntity
  8
YODOROGO
100
AcDbLine
 10
13988.80217064596
 20
946.2841744681487
 30
0.0
 11
14039.0346099669
 21
946.2841744681487
 31
0.0
  0
LINE
  5
17CB0
330
125AA
100
AcDbEntity
  8
YODOROGO
100
AcDbLine
 10
14039.0346099669
 20
946.2841744681487
 30
0.0
 11
14039.0346099669
 21
936.2841744681499
 31
0.0
  0
LINE
  5
17CB1
330
125AA
100
AcDbEntity
  8
YODOROGO
100
AcDbLine
 10
14039.0346099669
 20
936.2841744681499
 30
0.0
 11
14016.91839030643
 21
936.2841744681499
 31
0.0
  0
LINE
  5
17CB2
330
125AA
100
AcDbEntity
  8
YODOROGO
100
AcDbLine
 10
14016.91839030643
 20
936.2841744681499
 30
0.0
 11
14016.91839030643
 21
893.4084665668834
 31
0.0
  0
LINE
  5
17CB3
330
125AA
100
AcDbEntity
  8
YODOROGO
100
AcDbLine
 10
14016.91839030643
 20
893.4084665668834
 30
0.0
 11
14039.0346099669
 21
899.3344897645366
 31
0.0
  0
LINE
  5
17CB4
330
125AA
100
AcDbEntity
  8
YODOROGO
100
AcDbLine
 10
14039.0346099669
 20
899.3344897645366
 30
0.0
 11
14039.03460996689
 21
887.8703881493972
 31
0.0
  0
LINE
  5
17CB5
330
125AA
100
AcDbEntity
  8
YODOROGO
100
AcDbLine
 10
14039.03460996689
 20
887.8703881493972
 30
0.0
 11
13988.80217064596
 21
873.8747482146436
 31
0.0
  0
LINE
  5
17CB6
330
125AA
100
AcDbEntity
  8
YODOROGO
100
AcDbLine
 10
14041.06776011546
 20
827.751818637328
 30
0.0
 11
14041.06776011546
 21
853.8747482146439
 31
0.0
1001
AUTOCAD_POSTSCRIPT_FIGURE
1002
{
1000
PSFILL
1000
Grayscale
1000
Grayscale
1070
   100
1002
}
  0
LINE
  5
17CB7
330
125AA
100
AcDbEntity
  8
YODOROGO
100
AcDbLine
 10
14041.06776011546
 20
853.8747482146439
 30
0.0
 11
14049.06776011546
 21
853.8747482146439
 31
0.0
1001
AUTOCAD_POSTSCRIPT_FIGURE
1002
{
1000
PSFILL
1000
Grayscale
1000
Grayscale
1070
   100
1002
}
  0
LINE
  5
17CB8
330
125AA
100
AcDbEntity
  8
YODOROGO
100
AcDbLine
 10
14049.06776011546
 20
853.8747482146439
 30
0.0
 11
14049.06776011546
 21
827.751818637328
 31
0.0
1001
AUTOCAD_POSTSCRIPT_FIGURE
1002
{
1000
PSFILL
1000
Grayscale
1000
Grayscale
1070
   100
1002
}
  0
LINE
  5
17CB9
330
125AA
100
AcDbEntity
  8
YODOROGO
100
AcDbLine
 10
14049.06776011546
 20
827.751818637328
 30
0.0
 11
14068.80217064596
 21
827.751818637328
 31
0.0
1001
AUTOCAD_POSTSCRIPT_FIGURE
1002
{
1000
PSFILL
1000
Grayscale
1000
Grayscale
1070
   100
1002
}
  0
LINE
  5
17CBA
330
125AA
100
AcDbEntity
  8
YODOROGO
100
AcDbLine
 10
14068.80217064596
 20
827.751818637328
 30
0.0
 11
14068.80217064596
 21
815.7518186373286
 31
0.0
1001
AUTOCAD_POSTSCRIPT_FIGURE
1002
{
1000
PSFILL
1000
Grayscale
1000
Grayscale
1070
   100
1002
}
  0
LINE
  5
17CBB
330
125AA
100
AcDbEntity
  8
YODOROGO
100
AcDbLine
 10
14068.80217064596
 20
815.7518186373286
 30
0.0
 11
14049.06776011546
 21
815.7518186373286
 31
0.0
1001
AUTOCAD_POSTSCRIPT_FIGURE
1002
{
1000
PSFILL
1000
Grayscale
1000
Grayscale
1070
   100
1002
}
  0
LINE
  5
17CBC
330
125AA
100
AcDbEntity
  8
YODOROGO
100
AcDbLine
 10
14049.06776011546
 20
815.7518186373286
 30
0.0
 11
14049.06776011546
 21
749.8747482146441
 31
0.0
1001
AUTOCAD_POSTSCRIPT_FIGURE
1002
{
1000
PSFILL
1000
Grayscale
1000
Grayscale
1070
   100
1002
}
  0
LINE
  5
17CBD
330
125AA
100
AcDbEntity
  8
YODOROGO
100
AcDbLine
 10
14049.06776011546
 20
749.8747482146441
 30
0.0
 11
14068.80217064596
 21
749.8747482146441
 31
0.0
1001
AUTOCAD_POSTSCRIPT_FIGURE
1002
{
1000
PSFILL
1000
Grayscale
1000
Grayscale
1070
   100
1002
}
  0
LINE
  5
17CBE
330
125AA
100
AcDbEntity
  8
YODOROGO
100
AcDbLine
 10
14068.80217064596
 20
749.8747482146441
 30
0.0
 11
14068.80217064596
 21
737.8747482146437
 31
0.0
1001
AUTOCAD_POSTSCRIPT_FIGURE
1002
{
1000
PSFILL
1000
Grayscale
1000
Grayscale
1070
   100
1002
}
  0
LINE
  5
17CBF
330
125AA
100
AcDbEntity
  8
YODOROGO
100
AcDbLine
 10
14068.80217064596
 20
737.8747482146437
 30
0.0
 11
14025.06776011546
 21
737.8747482146437
 31
0.0
1001
AUTOCAD_POSTSCRIPT_FIGURE
1002
{
1000
PSFILL
1000
Grayscale
1000
Grayscale
1070
   100
1002
}
  0
LINE
  5
17CC0
330
125AA
100
AcDbEntity
  8
YODOROGO
100
AcDbLine
 10
14025.06776011546
 20
737.8747482146437
 30
0.0
 11
14025.06776011546
 21
749.8747482146441
 31
0.0
1001
AUTOCAD_POSTSCRIPT_FIGURE
1002
{
1000
PSFILL
1000
Grayscale
1000
Grayscale
1070
   100
1002
}
  0
LINE
  5
17CC1
330
125AA
100
AcDbEntity
  8
YODOROGO
100
AcDbLine
 10
14025.06776011546
 20
749.8747482146441
 30
0.0
 11
14041.06776011546
 21
749.8747482146441
 31
0.0
1001
AUTOCAD_POSTSCRIPT_FIGURE
1002
{
1000
PSFILL
1000
Grayscale
1000
Grayscale
1070
   100
1002
}
  0
LINE
  5
17CC2
330
125AA
100
AcDbEntity
  8
YODOROGO
100
AcDbLine
 10
14041.06776011546
 20
749.8747482146441
 30
0.0
 11
14041.06776011546
 21
815.7518186373286
 31
0.0
1001
AUTOCAD_POSTSCRIPT_FIGURE
1002
{
1000
PSFILL
1000
Grayscale
1000
Grayscale
1070
   100
1002
}
  0
LINE
  5
17CC3
330
125AA
100
AcDbEntity
  8
YODOROGO
100
AcDbLine
 10
14041.06776011546
 20
815.7518186373286
 30
0.0
 11
14025.06776011546
 21
815.7518186373286
 31
0.0
1001
AUTOCAD_POSTSCRIPT_FIGURE
1002
{
1000
PSFILL
1000
Grayscale
1000
Grayscale
1070
   100
1002
}
  0
LINE
  5
17CC4
330
125AA
100
AcDbEntity
  8
YODOROGO
100
AcDbLine
 10
14025.06776011546
 20
815.7518186373286
 30
0.0
 11
14025.06776011546
 21
827.751818637328
 31
0.0
1001
AUTOCAD_POSTSCRIPT_FIGURE
1002
{
1000
PSFILL
1000
Grayscale
1000
Grayscale
1070
   100
1002
}
  0
LINE
  5
17CC5
330
125AA
100
AcDbEntity
  8
YODOROGO
100
AcDbLine
 10
14025.06776011546
 20
827.751818637328
 30
0.0
 11
14041.06776011546
 21
827.751818637328
 31
0.0
1001
AUTOCAD_POSTSCRIPT_FIGURE
1002
{
1000
PSFILL
1000
Grayscale
1000
Grayscale
1070
   100
1002
}
  0
LINE
  5
17CC6
330
125AA
100
AcDbEntity
  8
YODOROGO
100
AcDbLine
 10
14000.80217064595
 20
841.8747482146434
 30
0.0
 11
13988.80217064596
 21
841.8747482146434
 31
0.0
  0
LINE
  5
17CC7
330
125AA
100
AcDbEntity
  8
YODOROGO
100
AcDbLine
 10
13988.80217064596
 20
841.8747482146434
 30
0.0
 11
13988.80217064596
 21
833.8747482146427
 31
0.0
  0
LINE
  5
17CC8
330
125AA
100
AcDbEntity
  8
YODOROGO
100
AcDbLine
 10
13988.80217064596
 20
833.8747482146427
 30
0.0
 11
14012.91438714567
 21
833.8747482146427
 31
0.0
  0
LINE
  5
17CC9
330
125AA
100
AcDbEntity
  8
YODOROGO
100
AcDbLine
 10
14012.91438714567
 20
833.8747482146427
 30
0.0
 11
13988.80217064596
 21
778.3840395167149
 31
0.0
  0
LINE
  5
17CCA
330
125AA
100
AcDbEntity
  8
YODOROGO
100
AcDbLine
 10
13988.80217064596
 20
778.3840395167149
 30
0.0
 11
13988.80217064596
 21
766.3840395167142
 31
0.0
  0
LINE
  5
17CCB
330
125AA
100
AcDbEntity
  8
YODOROGO
100
AcDbLine
 10
13988.80217064596
 20
766.3840395167142
 30
0.0
 11
14000.80217064596
 21
790.0026748448738
 31
0.0
  0
LINE
  5
17CCC
330
125AA
100
AcDbEntity
  8
YODOROGO
100
AcDbLine
 10
14000.80217064596
 20
790.0026748448738
 30
0.0
 11
14000.80217064596
 21
737.8747482146437
 31
0.0
  0
LINE
  5
17CCD
330
125AA
100
AcDbEntity
  8
YODOROGO
100
AcDbLine
 10
14000.80217064596
 20
737.8747482146437
 30
0.0
 11
14008.80217064596
 21
737.8747482146437
 31
0.0
  0
LINE
  5
17CCE
330
125AA
100
AcDbEntity
  8
YODOROGO
100
AcDbLine
 10
14008.80217064596
 20
737.8747482146437
 30
0.0
 11
14008.80217064596
 21
792.6185318747652
 31
0.0
  0
LINE
  5
17CCF
330
125AA
100
AcDbEntity
  8
YODOROGO
100
AcDbLine
 10
14008.80217064596
 20
792.6185318747652
 30
0.0
 11
14020.80217064596
 21
781.5602449741995
 31
0.0
  0
LINE
  5
17CD0
330
125AA
100
AcDbEntity
  8
YODOROGO
100
AcDbLine
 10
14020.80217064596
 20
781.5602449741995
 30
0.0
 11
14020.80217064596
 21
791.5602449742006
 31
0.0
  0
LINE
  5
17CD1
330
125AA
100
AcDbEntity
  8
YODOROGO
100
AcDbLine
 10
14020.80217064596
 20
791.5602449742006
 30
0.0
 11
14010.04445186844
 21
805.3252825309574
 31
0.0
  0
LINE
  5
17CD2
330
125AA
100
AcDbEntity
  8
YODOROGO
100
AcDbLine
 10
14010.04445186844
 20
805.3252825309574
 30
0.0
 11
14020.45660200845
 21
829.874748214644
 31
0.0
  0
LINE
  5
17CD3
330
125AA
100
AcDbEntity
  8
YODOROGO
100
AcDbLine
 10
14020.45660200845
 20
829.874748214644
 30
0.0
 11
14020.45660200845
 21
841.8747482146434
 31
0.0
  0
LINE
  5
17CD4
330
125AA
100
AcDbEntity
  8
YODOROGO
100
AcDbLine
 10
14020.45660200845
 20
841.8747482146434
 30
0.0
 11
14008.80217064596
 21
841.8747482146434
 31
0.0
  0
LINE
  5
17CD5
330
125AA
100
AcDbEntity
  8
YODOROGO
100
AcDbLine
 10
14008.80217064596
 20
841.8747482146434
 30
0.0
 11
14008.80217064596
 21
853.8747482146439
 31
0.0
  0
LINE
  5
17CD6
330
125AA
100
AcDbEntity
  8
YODOROGO
100
AcDbLine
 10
14008.80217064596
 20
853.8747482146439
 30
0.0
 11
14000.80217064596
 21
853.8747482146439
 31
0.0
  0
LINE
  5
17CD8
330
125AA
100
AcDbEntity
  8
YODOROGO
100
AcDbLine
 10
14000.80217064596
 20
853.8747482146439
 30
0.0
 11
14000.80217064595
 21
841.8747482146434
 31
0.0
  0
LINE
  5
17CD9
330
125AA
100
AcDbEntity
  8
YODOROGO
100
AcDbLine
 10
13892.80217064596
 20
737.8747482146437
 30
0.0
 11
13964.80217064596
 21
737.8747482146437
 31
0.0
1001
AUTOCAD_POSTSCRIPT_FIGURE
1002
{
1000
PSFILL
1000
Grayscale
1000
Grayscale
1070
   100
1002
}
  0
LINE
  5
17CDA
330
125AA
100
AcDbEntity
  8
YODOROGO
100
AcDbLine
 10
13964.80217064596
 20
737.8747482146437
 30
0.0
 11
13950.53250239547
 21
768.1169053488464
 31
0.0
1001
AUTOCAD_POSTSCRIPT_FIGURE
1002
{
1000
PSFILL
1000
Grayscale
1000
Grayscale
1070
   100
1002
}
  0
LINE
  5
17CDB
330
125AA
100
AcDbEntity
  8
YODOROGO
100
AcDbLine
 10
13950.53250239547
 20
768.1169053488464
 30
0.0
 11
13942.53250239547
 21
768.1169053488464
 31
0.0
1001
AUTOCAD_POSTSCRIPT_FIGURE
1002
{
1000
PSFILL
1000
Grayscale
1000
Grayscale
1070
   100
1002
}
  0
LINE
  5
17CDC
330
125AA
100
AcDbEntity
  8
YODOROGO
100
AcDbLine
 10
13942.53250239547
 20
768.1169053488464
 30
0.0
 11
13951.02739540432
 21
747.8747482146435
 31
0.0
1001
AUTOCAD_POSTSCRIPT_FIGURE
1002
{
1000
PSFILL
1000
Grayscale
1000
Grayscale
1070
   100
1002
}
  0
LINE
  5
17CDD
330
125AA
100
AcDbEntity
  8
YODOROGO
100
AcDbLine
 10
13951.02739540432
 20
747.8747482146435
 30
0.0
 11
13907.77335914239
 21
747.8747482146435
 31
0.0
1001
AUTOCAD_POSTSCRIPT_FIGURE
1002
{
1000
PSFILL
1000
Grayscale
1000
Grayscale
1070
   100
1002
}
  0
LINE
  5
17CDE
330
125AA
100
AcDbEntity
  8
YODOROGO
100
AcDbLine
 10
13907.77335914239
 20
747.8747482146435
 30
0.0
 11
13922.25479445787
 21
784.2514286852374
 31
0.0
1001
AUTOCAD_POSTSCRIPT_FIGURE
1002
{
1000
PSFILL
1000
Grayscale
1000
Grayscale
1070
   100
1002
}
  0
LINE
  5
17CDF
330
125AA
100
AcDbEntity
  8
YODOROGO
100
AcDbLine
 10
13922.25479445787
 20
784.2514286852374
 30
0.0
 11
13968.80217064596
 21
784.2514286852374
 31
0.0
1001
AUTOCAD_POSTSCRIPT_FIGURE
1002
{
1000
PSFILL
1000
Grayscale
1000
Grayscale
1070
   100
1002
}
  0
LINE
  5
17CE0
330
125AA
100
AcDbEntity
  8
YODOROGO
100
AcDbLine
 10
13968.80217064596
 20
784.2514286852374
 30
0.0
 11
13968.80217064596
 21
794.2514286852374
 31
0.0
1001
AUTOCAD_POSTSCRIPT_FIGURE
1002
{
1000
PSFILL
1000
Grayscale
1000
Grayscale
1070
   100
1002
}
  0
LINE
  5
17CE1
330
125AA
100
AcDbEntity
  8
YODOROGO
100
AcDbLine
 10
13968.80217064596
 20
794.2514286852374
 30
0.0
 11
13888.80217064596
 21
794.2514286852374
 31
0.0
1001
AUTOCAD_POSTSCRIPT_FIGURE
1002
{
1000
PSFILL
1000
Grayscale
1000
Grayscale
1070
   100
1002
}
  0
LINE
  5
17CE2
330
125AA
100
AcDbEntity
  8
YODOROGO
100
AcDbLine
 10
13888.80217064596
 20
794.2514286852374
 30
0.0
 11
13888.80217064596
 21
784.2514286852374
 31
0.0
1001
AUTOCAD_POSTSCRIPT_FIGURE
1002
{
1000
PSFILL
1000
Grayscale
1000
Grayscale
1070
   100
1002
}
  0
LINE
  5
17CE3
330
125AA
100
AcDbEntity
  8
YODOROGO
100
AcDbLine
 10
13888.80217064596
 20
784.2514286852374
 30
0.0
 11
13912.25479445787
 21
784.2514286852374
 31
0.0
1001
AUTOCAD_POSTSCRIPT_FIGURE
1002
{
1000
PSFILL
1000
Grayscale
1000
Grayscale
1070
   100
1002
}
  0
LINE
  5
17CE4
330
125AA
100
AcDbEntity
  8
YODOROGO
100
AcDbLine
 10
13912.25479445787
 20
784.2514286852374
 30
0.0
 11
13892.80217064596
 21
737.8747482146437
 31
0.0
1001
AUTOCAD_POSTSCRIPT_FIGURE
1002
{
1000
PSFILL
1000
Grayscale
1000
Grayscale
1070
   100
1002
}
  0
LINE
  5
17CE5
330
125AA
100
AcDbEntity
  8
YODOROGO
100
AcDbLine
 10
13888.80217064596
 20
821.986207022285
 30
0.0
 11
13928.80217064596
 21
853.8747482146439
 31
0.0
  0
LINE
  5
17CE6
330
125AA
100
AcDbEntity
  8
YODOROGO
100
AcDbLine
 10
13928.80217064596
 20
853.8747482146439
 30
0.0
 11
13968.80217064596
 21
821.986207022285
 31
0.0
  0
LINE
  5
17CE7
330
125AA
100
AcDbEntity
  8
YODOROGO
100
AcDbLine
 10
13968.80217064596
 20
821.986207022285
 30
0.0
 11
13968.80217064596
 21
809.9862070222856
 31
0.0
  0
LINE
  5
17CE8
330
125AA
100
AcDbEntity
  8
YODOROGO
100
AcDbLine
 10
13968.80217064596
 20
809.9862070222856
 30
0.0
 11
13928.80217064596
 21
841.8747482146445
 31
0.0
  0
LINE
  5
17CE9
330
125AA
100
AcDbEntity
  8
YODOROGO
100
AcDbLine
 10
13928.80217064596
 20
841.8747482146445
 30
0.0
 11
13888.80217064596
 21
809.9862070222856
 31
0.0
  0
LINE
  5
17CEA
330
125AA
100
AcDbEntity
  8
YODOROGO
100
AcDbLine
 10
13888.80217064596
 20
809.9862070222856
 30
0.0
 11
13888.80217064596
 21
821.986207022285
 31
0.0
  0
LINE
  5
17CEB
330
125AA
100
AcDbEntity
  8
YODOROGO
100
AcDbLine
 10
13904.80217064596
 20
816.3859520216298
 30
0.0
 11
13952.80217064596
 21
816.3859520216298
 31
0.0
  0
LINE
  5
17CEC
330
125AA
100
AcDbEntity
  8
YODOROGO
100
AcDbLine
 10
13952.80217064596
 20
816.3859520216298
 30
0.0
 11
13952.80217064596
 21
804.3859520216292
 31
0.0
  0
LINE
  5
17CED
330
125AA
100
AcDbEntity
  8
YODOROGO
100
AcDbLine
 10
13952.80217064596
 20
804.3859520216292
 30
0.0
 11
13904.80217064596
 21
804.3859520216292
 31
0.0
  0
LINE
  5
17CEE
330
125AA
100
AcDbEntity
  8
YODOROGO
100
AcDbLine
 10
13904.80217064596
 20
804.3859520216292
 30
0.0
 11
13904.80217064596
 21
816.3859520216298
 31
0.0
  0
LINE
  5
17CEF
330
125AA
100
AcDbEntity
  8
YODOROGO
100
AcDbLine
 10
14064.80217064596
 20
873.8747482146436
 30
0.0
 11
14068.80217064596
 21
873.8747482146436
 31
0.0
1001
AUTOCAD_POSTSCRIPT_FIGURE
1002
{
1000
PSFILL
1000
Grayscale
1000
Grayscale
1070
   100
1002
}
  0
LINE
  5
17CF0
330
125AA
100
AcDbEntity
  8
YODOROGO
100
AcDbLine
 10
14068.80217064596
 20
873.8747482146436
 30
0.0
 11
14049.45149343671
 21
969.8747482146441
 31
0.0
1001
AUTOCAD_POSTSCRIPT_FIGURE
1002
{
1000
PSFILL
1000
Grayscale
1000
Grayscale
1070
   100
1002
}
  0
LINE
  5
17CF1
330
125AA
100
AcDbEntity
  8
YODOROGO
100
AcDbLine
 10
14049.45149343671
 20
969.8747482146441
 30
0.0
 11
14068.80217064596
 21
969.8747482146441
 31
0.0
1001
AUTOCAD_POSTSCRIPT_FIGURE
1002
{
1000
PSFILL
1000
Grayscale
1000
Grayscale
1070
   100
1002
}
  0
LINE
  5
17CF2
330
125AA
100
AcDbEntity
  8
YODOROGO
100
AcDbLine
 10
14068.80217064596
 20
969.8747482146441
 30
0.0
 11
14068.80217064596
 21
977.8747482146435
 31
0.0
1001
AUTOCAD_POSTSCRIPT_FIGURE
1002
{
1000
PSFILL
1000
Grayscale
1000
Grayscale
1070
   100
1002
}
  0
LINE
  5
17CF3
330
125AA
100
AcDbEntity
  8
YODOROGO
100
AcDbLine
 10
14068.80217064596
 20
977.8747482146435
 30
0.0
 11
14068.80217064596
 21
989.8747482146443
 31
0.0
1001
AUTOCAD_POSTSCRIPT_FIGURE
1002
{
1000
PSFILL
1000
Grayscale
1000
Grayscale
1070
   100
1002
}
  0
LINE
  5
17CF4
330
125AA
100
AcDbEntity
  8
YODOROGO
100
AcDbLine
 10
14068.80217064596
 20
989.8747482146443
 30
0.0
 11
14060.80217064596
 21
989.8747482146443
 31
0.0
1001
AUTOCAD_POSTSCRIPT_FIGURE
1002
{
1000
PSFILL
1000
Grayscale
1000
Grayscale
1070
   100
1002
}
  0
LINE
  5
17CF5
330
125AA
100
AcDbEntity
  8
YODOROGO
100
AcDbLine
 10
14060.80217064596
 20
989.8747482146443
 30
0.0
 11
14060.80217064596
 21
977.8747482146435
 31
0.0
1001
AUTOCAD_POSTSCRIPT_FIGURE
1002
{
1000
PSFILL
1000
Grayscale
1000
Grayscale
1070
   100
1002
}
  0
LINE
  5
17CF6
330
125AA
100
AcDbEntity
  8
YODOROGO
100
AcDbLine
 10
14060.80217064596
 20
977.8747482146435
 30
0.0
 11
14047.90343925997
 21
977.8747482146435
 31
0.0
1001
AUTOCAD_POSTSCRIPT_FIGURE
1002
{
1000
PSFILL
1000
Grayscale
1000
Grayscale
1070
   100
1002
}
  0
LINE
  5
17CF7
330
125AA
100
AcDbEntity
  8
YODOROGO
100
AcDbLine
 10
14047.90343925997
 20
977.8747482146435
 30
0.0
 11
14045.58135799486
 21
989.8747482146443
 31
0.0
1001
AUTOCAD_POSTSCRIPT_FIGURE
1002
{
1000
PSFILL
1000
Grayscale
1000
Grayscale
1070
   100
1002
}
  0
LINE
  5
17CF8
330
125AA
100
AcDbEntity
  8
YODOROGO
100
AcDbLine
 10
14045.58135799486
 20
989.8747482146443
 30
0.0
 11
14035.58135799485
 21
989.8747482146443
 31
0.0
1001
AUTOCAD_POSTSCRIPT_FIGURE
1002
{
1000
PSFILL
1000
Grayscale
1000
Grayscale
1070
   100
1002
}
  0
LINE
  5
17CF9
330
125AA
100
AcDbEntity
  8
YODOROGO
100
AcDbLine
 10
14035.58135799485
 20
989.8747482146443
 30
0.0
 11
14038.30343925996
 21
977.8747482146435
 31
0.0
1001
AUTOCAD_POSTSCRIPT_FIGURE
1002
{
1000
PSFILL
1000
Grayscale
1000
Grayscale
1070
   100
1002
}
  0
LINE
  5
17CFA
330
125AA
100
AcDbEntity
  8
YODOROGO
100
AcDbLine
 10
14038.30343925996
 20
977.8747482146435
 30
0.0
 11
13988.80217064596
 21
977.8747482146435
 31
0.0
1001
AUTOCAD_POSTSCRIPT_FIGURE
1002
{
1000
PSFILL
1000
Grayscale
1000
Grayscale
1070
   100
1002
}
  0
LINE
  5
17CFB
330
125AA
100
AcDbEntity
  8
YODOROGO
100
AcDbLine
 10
13988.80217064596
 20
977.8747482146435
 30
0.0
 11
13988.80217064596
 21
969.8747482146441
 31
0.0
1001
AUTOCAD_POSTSCRIPT_FIGURE
1002
{
1000
PSFILL
1000
Grayscale
1000
Grayscale
1070
   100
1002
}
  0
LINE
  5
17CFC
330
125AA
100
AcDbEntity
  8
YODOROGO
100
AcDbLine
 10
13988.80217064596
 20
969.8747482146441
 30
0.0
 11
14040.11816010337
 21
969.8747482146441
 31
0.0
1001
AUTOCAD_POSTSCRIPT_FIGURE
1002
{
1000
PSFILL
1000
Grayscale
1000
Grayscale
1070
   100
1002
}
  0
LINE
  5
17CFD
330
125AA
100
AcDbEntity
  8
YODOROGO
100
AcDbLine
 10
14040.11816010337
 20
969.8747482146441
 30
0.0
 11
14064.80217064596
 21
873.8747482146436
 31
0.0
1001
AUTOCAD_POSTSCRIPT_FIGURE
1002
{
1000
PSFILL
1000
Grayscale
1000
Grayscale
1070
   100
1002
}
  0
LINE
  5
17CFE
330
125AA
100
AcDbEntity
  8
YODOROGO
100
AcDbLine
 10
13888.80217064596
 20
921.8883739758362
 30
0.0
 11
13888.80217064596
 21
929.8883739758355
 31
0.0
1001
AUTOCAD_POSTSCRIPT_FIGURE
1002
{
1000
PSFILL
1000
Grayscale
1000
Grayscale
1070
   100
1002
}
  0
LINE
  5
17CFF
330
125AA
100
AcDbEntity
  8
YODOROGO
100
AcDbLine
 10
13888.80217064596
 20
929.8883739758355
 30
0.0
 11
13900.80217064596
 21
957.3932903968524
 31
0.0
1001
AUTOCAD_POSTSCRIPT_FIGURE
1002
{
1000
PSFILL
1000
Grayscale
1000
Grayscale
1070
   100
1002
}
  0
LINE
  5
17D00
330
125AA
100
AcDbEntity
  8
YODOROGO
100
AcDbLine
 10
13900.80217064596
 20
957.3932903968524
 30
0.0
 11
13900.80217064596
 21
969.8747482146441
 31
0.0
1001
AUTOCAD_POSTSCRIPT_FIGURE
1002
{
1000
PSFILL
1000
Grayscale
1000
Grayscale
1070
   100
1002
}
  0
LINE
  5
17D01
330
125AA
100
AcDbEntity
  8
YODOROGO
100
AcDbLine
 10
13900.80217064596
 20
969.8747482146441
 30
0.0
 11
13888.80217064596
 21
969.8747482146441
 31
0.0
1001
AUTOCAD_POSTSCRIPT_FIGURE
1002
{
1000
PSFILL
1000
Grayscale
1000
Grayscale
1070
   100
1002
}
  0
LINE
  5
17D02
330
125AA
100
AcDbEntity
  8
YODOROGO
100
AcDbLine
 10
13888.80217064596
 20
969.8747482146441
 30
0.0
 11
13888.80217064596
 21
977.8747482146435
 31
0.0
1001
AUTOCAD_POSTSCRIPT_FIGURE
1002
{
1000
PSFILL
1000
Grayscale
1000
Grayscale
1070
   100
1002
}
  0
LINE
  5
17D03
330
125AA
100
AcDbEntity
  8
YODOROGO
100
AcDbLine
 10
13888.80217064596
 20
977.8747482146435
 30
0.0
 11
13900.80217064596
 21
977.8747482146435
 31
0.0
1001
AUTOCAD_POSTSCRIPT_FIGURE
1002
{
1000
PSFILL
1000
Grayscale
1000
Grayscale
1070
   100
1002
}
  0
LINE
  5
17D04
330
125AA
100
AcDbEntity
  8
YODOROGO
100
AcDbLine
 10
13900.80217064596
 20
977.8747482146435
 30
0.0
 11
13900.80217064596
 21
989.8747482146443
 31
0.0
1001
AUTOCAD_POSTSCRIPT_FIGURE
1002
{
1000
PSFILL
1000
Grayscale
1000
Grayscale
1070
   100
1002
}
  0
LINE
  5
17D05
330
125AA
100
AcDbEntity
  8
YODOROGO
100
AcDbLine
 10
13900.80217064596
 20
989.8747482146443
 30
0.0
 11
13908.80217064596
 21
989.8747482146443
 31
0.0
1001
AUTOCAD_POSTSCRIPT_FIGURE
1002
{
1000
PSFILL
1000
Grayscale
1000
Grayscale
1070
   100
1002
}
  0
LINE
  5
17D06
330
125AA
100
AcDbEntity
  8
YODOROGO
100
AcDbLine
 10
13908.80217064596
 20
989.8747482146443
 30
0.0
 11
13908.80217064596
 21
977.8747482146435
 31
0.0
1001
AUTOCAD_POSTSCRIPT_FIGURE
1002
{
1000
PSFILL
1000
Grayscale
1000
Grayscale
1070
   100
1002
}
  0
LINE
  5
17D07
330
125AA
100
AcDbEntity
  8
YODOROGO
100
AcDbLine
 10
13908.80217064596
 20
977.8747482146435
 30
0.0
 11
13924.80217064595
 21
977.8747482146435
 31
0.0
1001
AUTOCAD_POSTSCRIPT_FIGURE
1002
{
1000
PSFILL
1000
Grayscale
1000
Grayscale
1070
   100
1002
}
  0
LINE
  5
17D08
330
125AA
100
AcDbEntity
  8
YODOROGO
100
AcDbLine
 10
13924.80217064595
 20
977.8747482146435
 30
0.0
 11
13924.80217064595
 21
989.8747482146443
 31
0.0
1001
AUTOCAD_POSTSCRIPT_FIGURE
1002
{
1000
PSFILL
1000
Grayscale
1000
Grayscale
1070
   100
1002
}
  0
LINE
  5
17D09
330
125AA
100
AcDbEntity
  8
YODOROGO
100
AcDbLine
 10
13924.80217064595
 20
989.8747482146443
 30
0.0
 11
13932.80217064595
 21
989.8747482146443
 31
0.0
1001
AUTOCAD_POSTSCRIPT_FIGURE
1002
{
1000
PSFILL
1000
Grayscale
1000
Grayscale
1070
   100
1002
}
  0
LINE
  5
17D0A
330
125AA
100
AcDbEntity
  8
YODOROGO
100
AcDbLine
 10
13932.80217064595
 20
989.8747482146443
 30
0.0
 11
13932.80217064595
 21
977.8747482146435
 31
0.0
1001
AUTOCAD_POSTSCRIPT_FIGURE
1002
{
1000
PSFILL
1000
Grayscale
1000
Grayscale
1070
   100
1002
}
  0
LINE
  5
17D0B
330
125AA
100
AcDbEntity
  8
YODOROGO
100
AcDbLine
 10
13932.80217064595
 20
977.8747482146435
 30
0.0
 11
13944.80217064596
 21
977.8747482146435
 31
0.0
1001
AUTOCAD_POSTSCRIPT_FIGURE
1002
{
1000
PSFILL
1000
Grayscale
1000
Grayscale
1070
   100
1002
}
  0
LINE
  5
17D0C
330
125AA
100
AcDbEntity
  8
YODOROGO
100
AcDbLine
 10
13944.80217064596
 20
977.8747482146435
 30
0.0
 11
13944.80217064596
 21
989.8747482146443
 31
0.0
1001
AUTOCAD_POSTSCRIPT_FIGURE
1002
{
1000
PSFILL
1000
Grayscale
1000
Grayscale
1070
   100
1002
}
  0
LINE
  5
17D0D
330
125AA
100
AcDbEntity
  8
YODOROGO
100
AcDbLine
 10
13944.80217064596
 20
989.8747482146443
 30
0.0
 11
13952.80217064596
 21
989.8747482146443
 31
0.0
1001
AUTOCAD_POSTSCRIPT_FIGURE
1002
{
1000
PSFILL
1000
Grayscale
1000
Grayscale
1070
   100
1002
}
  0
LINE
  5
17D0E
330
125AA
100
AcDbEntity
  8
YODOROGO
100
AcDbLine
 10
13952.80217064596
 20
989.8747482146443
 30
0.0
 11
13952.80217064596
 21
977.8747482146435
 31
0.0
1001
AUTOCAD_POSTSCRIPT_FIGURE
1002
{
1000
PSFILL
1000
Grayscale
1000
Grayscale
1070
   100
1002
}
  0
LINE
  5
17D0F
330
125AA
100
AcDbEntity
  8
YODOROGO
100
AcDbLine
 10
13952.80217064596
 20
977.8747482146435
 30
0.0
 11
13968.80217064596
 21
977.8747482146435
 31
0.0
1001
AUTOCAD_POSTSCRIPT_FIGURE
1002
{
1000
PSFILL
1000
Grayscale
1000
Grayscale
1070
   100
1002
}
  0
LINE
  5
17D10
330
125AA
100
AcDbEntity
  8
YODOROGO
100
AcDbLine
 10
13968.80217064596
 20
977.8747482146435
 30
0.0
 11
13968.80217064596
 21
969.8747482146441
 31
0.0
1001
AUTOCAD_POSTSCRIPT_FIGURE
1002
{
1000
PSFILL
1000
Grayscale
1000
Grayscale
1070
   100
1002
}
  0
LINE
  5
17D11
330
125AA
100
AcDbEntity
  8
YODOROGO
100
AcDbLine
 10
13968.80217064596
 20
969.8747482146441
 30
0.0
 11
13952.80217064596
 21
969.8747482146441
 31
0.0
1001
AUTOCAD_POSTSCRIPT_FIGURE
1002
{
1000
PSFILL
1000
Grayscale
1000
Grayscale
1070
   100
1002
}
  0
LINE
  5
17D12
330
125AA
100
AcDbEntity
  8
YODOROGO
100
AcDbLine
 10
13952.80217064596
 20
969.8747482146441
 30
0.0
 11
13952.80217064596
 21
950.2841744681497
 31
0.0
1001
AUTOCAD_POSTSCRIPT_FIGURE
1002
{
1000
PSFILL
1000
Grayscale
1000
Grayscale
1070
   100
1002
}
  0
LINE
  5
17D13
330
125AA
100
AcDbEntity
  8
YODOROGO
100
AcDbLine
 10
13952.80217064596
 20
950.2841744681497
 30
0.0
 11
13968.80217064596
 21
950.2841744681497
 31
0.0
1001
AUTOCAD_POSTSCRIPT_FIGURE
1002
{
1000
PSFILL
1000
Grayscale
1000
Grayscale
1070
   100
1002
}
  0
LINE
  5
17D14
330
125AA
100
AcDbEntity
  8
YODOROGO
100
AcDbLine
 10
13968.80217064596
 20
950.2841744681497
 30
0.0
 11
13968.80217064596
 21
942.2841744681491
 31
0.0
1001
AUTOCAD_POSTSCRIPT_FIGURE
1002
{
1000
PSFILL
1000
Grayscale
1000
Grayscale
1070
   100
1002
}
  0
LINE
  5
17D15
330
125AA
100
AcDbEntity
  8
YODOROGO
100
AcDbLine
 10
13968.80217064596
 20
942.2841744681491
 30
0.0
 11
13952.80217064596
 21
942.2841744681502
 31
0.0
1001
AUTOCAD_POSTSCRIPT_FIGURE
1002
{
1000
PSFILL
1000
Grayscale
1000
Grayscale
1070
   100
1002
}
  0
LINE
  5
17D16
330
125AA
100
AcDbEntity
  8
YODOROGO
100
AcDbLine
 10
13952.80217064596
 20
942.2841744681502
 30
0.0
 11
13952.80217064596
 21
940.7045060794045
 31
0.0
1001
AUTOCAD_POSTSCRIPT_FIGURE
1002
{
1000
PSFILL
1000
Grayscale
1000
Grayscale
1070
   100
1002
}
  0
LINE
  5
17D17
330
125AA
100
AcDbEntity
  8
YODOROGO
100
AcDbLine
 10
13952.80217064596
 20
940.7045060794045
 30
0.0
 11
13968.80217064596
 21
906.4874905807087
 31
0.0
1001
AUTOCAD_POSTSCRIPT_FIGURE
1002
{
1000
PSFILL
1000
Grayscale
1000
Grayscale
1070
   100
1002
}
  0
LINE
  5
17D18
330
125AA
100
AcDbEntity
  8
YODOROGO
100
AcDbLine
 10
13968.80217064596
 20
906.4874905807087
 30
0.0
 11
13968.80217064596
 21
898.487490580708
 31
0.0
1001
AUTOCAD_POSTSCRIPT_FIGURE
1002
{
1000
PSFILL
1000
Grayscale
1000
Grayscale
1070
   100
1002
}
  0
LINE
  5
17D19
330
125AA
100
AcDbEntity
  8
YODOROGO
100
AcDbLine
 10
13968.80217064596
 20
898.487490580708
 30
0.0
 11
13952.80217064596
 21
924.7045060794032
 31
0.0
1001
AUTOCAD_POSTSCRIPT_FIGURE
1002
{
1000
PSFILL
1000
Grayscale
1000
Grayscale
1070
   100
1002
}
  0
LINE
  5
17D1A
330
125AA
100
AcDbEntity
  8
YODOROGO
100
AcDbLine
 10
13952.80217064596
 20
924.7045060794032
 30
0.0
 11
13952.80217064596
 21
873.8747482146436
 31
0.0
1001
AUTOCAD_POSTSCRIPT_FIGURE
1002
{
1000
PSFILL
1000
Grayscale
1000
Grayscale
1070
   100
1002
}
  0
LINE
  5
17D1B
330
125AA
100
AcDbEntity
  8
YODOROGO
100
AcDbLine
 10
13952.80217064596
 20
873.8747482146436
 30
0.0
 11
13944.80217064596
 21
873.8747482146436
 31
0.0
1001
AUTOCAD_POSTSCRIPT_FIGURE
1002
{
1000
PSFILL
1000
Grayscale
1000
Grayscale
1070
   100
1002
}
  0
LINE
  5
17D1C
330
125AA
100
AcDbEntity
  8
YODOROGO
100
AcDbLine
 10
13944.80217064596
 20
873.8747482146436
 30
0.0
 11
13944.80217064596
 21
923.8095889822183
 31
0.0
1001
AUTOCAD_POSTSCRIPT_FIGURE
1002
{
1000
PSFILL
1000
Grayscale
1000
Grayscale
1070
   100
1002
}
  0
LINE
  5
17D1D
330
125AA
100
AcDbEntity
  8
YODOROGO
100
AcDbLine
 10
13944.80217064596
 20
923.8095889822183
 30
0.0
 11
13924.80217064595
 21
898.487490580708
 31
0.0
1001
AUTOCAD_POSTSCRIPT_FIGURE
1002
{
1000
PSFILL
1000
Grayscale
1000
Grayscale
1070
   100
1002
}
  0
LINE
  5
17D1E
330
125AA
100
AcDbEntity
  8
YODOROGO
100
AcDbLine
 10
13924.80217064595
 20
898.487490580708
 30
0.0
 11
13924.80217064595
 21
906.4874905807087
 31
0.0
1001
AUTOCAD_POSTSCRIPT_FIGURE
1002
{
1000
PSFILL
1000
Grayscale
1000
Grayscale
1070
   100
1002
}
  0
LINE
  5
17D1F
330
125AA
100
AcDbEntity
  8
YODOROGO
100
AcDbLine
 10
13924.80217064595
 20
906.4874905807087
 30
0.0
 11
13944.80217064596
 21
939.8095889822197
 31
0.0
1001
AUTOCAD_POSTSCRIPT_FIGURE
1002
{
1000
PSFILL
1000
Grayscale
1000
Grayscale
1070
   100
1002
}
  0
LINE
  5
17D20
330
125AA
100
AcDbEntity
  8
YODOROGO
100
AcDbLine
 10
13944.80217064596
 20
939.8095889822197
 30
0.0
 11
13944.80217064596
 21
942.2841744681491
 31
0.0
1001
AUTOCAD_POSTSCRIPT_FIGURE
1002
{
1000
PSFILL
1000
Grayscale
1000
Grayscale
1070
   100
1002
}
  0
LINE
  5
17D21
330
125AA
100
AcDbEntity
  8
YODOROGO
100
AcDbLine
 10
13944.80217064596
 20
942.2841744681491
 30
0.0
 11
13928.80217064595
 21
942.2841744681491
 31
0.0
1001
AUTOCAD_POSTSCRIPT_FIGURE
1002
{
1000
PSFILL
1000
Grayscale
1000
Grayscale
1070
   100
1002
}
  0
LINE
  5
17D22
330
125AA
100
AcDbEntity
  8
YODOROGO
100
AcDbLine
 10
13928.80217064595
 20
942.2841744681491
 30
0.0
 11
13928.80217064595
 21
950.2841744681497
 31
0.0
1001
AUTOCAD_POSTSCRIPT_FIGURE
1002
{
1000
PSFILL
1000
Grayscale
1000
Grayscale
1070
   100
1002
}
  0
LINE
  5
17D23
330
125AA
100
AcDbEntity
  8
YODOROGO
100
AcDbLine
 10
13928.80217064595
 20
950.2841744681497
 30
0.0
 11
13944.80217064596
 21
950.2841744681497
 31
0.0
1001
AUTOCAD_POSTSCRIPT_FIGURE
1002
{
1000
PSFILL
1000
Grayscale
1000
Grayscale
1070
   100
1002
}
  0
LINE
  5
17D24
330
125AA
100
AcDbEntity
  8
YODOROGO
100
AcDbLine
 10
13944.80217064596
 20
950.2841744681497
 30
0.0
 11
13944.80217064596
 21
969.8747482146441
 31
0.0
1001
AUTOCAD_POSTSCRIPT_FIGURE
1002
{
1000
PSFILL
1000
Grayscale
1000
Grayscale
1070
   100
1002
}
  0
LINE
  5
17D25
330
125AA
100
AcDbEntity
  8
YODOROGO
100
AcDbLine
 10
13944.80217064596
 20
969.8747482146441
 30
0.0
 11
13908.80217064596
 21
969.8747482146441
 31
0.0
1001
AUTOCAD_POSTSCRIPT_FIGURE
1002
{
1000
PSFILL
1000
Grayscale
1000
Grayscale
1070
   100
1002
}
  0
LINE
  5
17D26
330
125AA
100
AcDbEntity
  8
YODOROGO
100
AcDbLine
 10
13908.80217064596
 20
969.8747482146441
 30
0.0
 11
13908.80217064596
 21
958.8856660426326
 31
0.0
1001
AUTOCAD_POSTSCRIPT_FIGURE
1002
{
1000
PSFILL
1000
Grayscale
1000
Grayscale
1070
   100
1002
}
  0
LINE
  5
17D27
330
125AA
100
AcDbEntity
  8
YODOROGO
100
AcDbLine
 10
13908.80217064596
 20
958.8856660426326
 30
0.0
 11
13920.80217064596
 21
941.8273791420681
 31
0.0
1001
AUTOCAD_POSTSCRIPT_FIGURE
1002
{
1000
PSFILL
1000
Grayscale
1000
Grayscale
1070
   100
1002
}
  0
LINE
  5
17D28
330
125AA
100
AcDbEntity
  8
YODOROGO
100
AcDbLine
 10
13920.80217064596
 20
941.8273791420681
 30
0.0
 11
13920.80217064596
 21
933.8273791420684
 31
0.0
1001
AUTOCAD_POSTSCRIPT_FIGURE
1002
{
1000
PSFILL
1000
Grayscale
1000
Grayscale
1070
   100
1002
}
  0
LINE
  5
17D29
330
125AA
100
AcDbEntity
  8
YODOROGO
100
AcDbLine
 10
13920.80217064596
 20
933.8273791420684
 30
0.0
 11
13908.80217064596
 21
946.8856660426334
 31
0.0
1001
AUTOCAD_POSTSCRIPT_FIGURE
1002
{
1000
PSFILL
1000
Grayscale
1000
Grayscale
1070
   100
1002
}
  0
LINE
  5
17D2A
330
125AA
100
AcDbEntity
  8
YODOROGO
100
AcDbLine
 10
13908.80217064596
 20
946.8856660426334
 30
0.0
 11
13908.80217064596
 21
873.8747482146436
 31
0.0
1001
AUTOCAD_POSTSCRIPT_FIGURE
1002
{
1000
PSFILL
1000
Grayscale
1000
Grayscale
1070
   100
1002
}
  0
LINE
  5
17D2B
330
125AA
100
AcDbEntity
  8
YODOROGO
100
AcDbLine
 10
13908.80217064596
 20
873.8747482146436
 30
0.0
 11
13900.80217064596
 21
873.8747482146436
 31
0.0
1001
AUTOCAD_POSTSCRIPT_FIGURE
1002
{
1000
PSFILL
1000
Grayscale
1000
Grayscale
1070
   100
1002
}
  0
LINE
  5
17D2C
330
125AA
100
AcDbEntity
  8
YODOROGO
100
AcDbLine
 10
13900.80217064596
 20
873.8747482146436
 30
0.0
 11
13900.80217064596
 21
945.3932903968532
 31
0.0
1001
AUTOCAD_POSTSCRIPT_FIGURE
1002
{
1000
PSFILL
1000
Grayscale
1000
Grayscale
1070
   100
1002
}
  0
LINE
  5
17D2D
330
125AA
100
AcDbEntity
  8
YODOROGO
100
AcDbLine
 10
13900.80217064596
 20
945.3932903968532
 30
0.0
 11
13888.80217064596
 21
921.8883739758362
 31
0.0
1001
AUTOCAD_POSTSCRIPT_FIGURE
1002
{
1000
PSFILL
1000
Grayscale
1000
Grayscale
1070
   100
1002
}
  0
LINE
  5
17D2E
330
125AA
100
AcDbEntity
  8
YODOROGO
100
AcDbLine
 10
15190.80217064596
 20
786.8747482146446
 30
0.0
 11
15190.80217064596
 21
800.8747482146432
 31
0.0
  0
LINE
  5
17D2F
330
125AA
100
AcDbEntity
  8
YODOROGO
100
AcDbLine
 10
15190.80217064596
 20
800.8747482146432
 30
0.0
 11
15216.80217064596
 21
800.8747482146432
 31
0.0
  0
LINE
  5
17D30
330
125AA
100
AcDbEntity
  8
YODOROGO
100
AcDbLine
 10
15216.80217064596
 20
800.8747482146432
 30
0.0
 11
15216.80217064596
 21
786.8747482146446
 31
0.0
  0
LINE
  5
17D31
330
125AA
100
AcDbEntity
  8
YODOROGO
100
AcDbLine
 10
15216.80217064596
 20
786.8747482146446
 30
0.0
 11
15190.80217064596
 21
786.8747482146446
 31
0.0
  0
ARC
  5
17D32
330
125AA
100
AcDbEntity
  8
U1
100
AcDbCircle
 10
9860.327507899642
 20
8692.043182432326
 30
0.0
 40
6.299999999999272
100
AcDbArc
 50
269.9999999999834
 51
0.0
  0
LINE
  5
17D33
330
125AA
100
AcDbEntity
  8
U1
100
AcDbLine
 10
9860.327507899638
 20
8685.743182432329
 30
0.0
 11
9852.927507899638
 21
8685.743182432329
 31
0.0
  0
ARC
  5
17D34
330
125AA
100
AcDbEntity
  8
U1
100
AcDbCircle
 10
9852.927507899638
 20
8692.043182432326
 30
0.0
 40
6.299999999999272
100
AcDbArc
 50
180.0
 51
270.0
  0
ARC
  5
17D35
330
125AA
100
AcDbEntity
  8
U1
100
AcDbCircle
 10
9840.327507899642
 20
8692.04318243233
 30
0.0
 40
6.299999999999272
100
AcDbArc
 50
269.9999999999834
 51
359.9999999999833
  0
LINE
  5
17D36
330
125AA
100
AcDbEntity
  8
U1
100
AcDbLine
 10
9840.327507899637
 20
8685.743182432329
 30
0.0
 11
9807.927507899638
 21
8685.743182432329
 31
0.0
  0
ARC
  5
17D37
330
125AA
100
AcDbEntity
  8
U1
100
AcDbCircle
 10
9807.927507899638
 20
8692.04318243233
 30
0.0
 40
6.30000000000109
100
AcDbArc
 50
180.0
 51
270.0
  0
LINE
  5
17D38
330
125AA
100
AcDbEntity
  8
U1
100
AcDbLine
 10
9801.627507899638
 20
8692.04318243233
 30
0.0
 11
9801.627507899638
 21
8744.443182432329
 31
0.0
  0
ARC
  5
17D39
330
125AA
100
AcDbEntity
  8
U1
100
AcDbCircle
 10
9807.927507899638
 20
8744.443182432329
 30
0.0
 40
6.299999999999272
100
AcDbArc
 50
89.99999999998344
 51
180.0
  0
LINE
  5
17D3A
330
125AA
100
AcDbEntity
  8
U1
100
AcDbLine
 10
9807.927507899641
 20
8750.743182432328
 30
0.0
 11
9860.327507899642
 21
8750.743182432328
 31
0.0
  0
ARC
  5
17D3B
330
125AA
100
AcDbEntity
  8
U1
100
AcDbCircle
 10
9860.327507899642
 20
8744.443182432329
 30
0.0
 40
6.299999999999272
100
AcDbArc
 50
0.0
 51
90.0
  0
LINE
  5
17D3C
330
125AA
100
AcDbEntity
  8
U1
100
AcDbLine
 10
9866.627507899641
 20
8744.443182432329
 30
0.0
 11
9866.627507899641
 21
8692.043182432326
 31
0.0
  0
ARC
  5
17D3D
330
125AA
100
AcDbEntity
  8
U1
100
AcDbCircle
 10
6997.927507899639
 20
8692.04318243233
 30
0.0
 40
6.300000000000181
100
AcDbArc
 50
180.0
 51
270.0
  0
LINE
  5
17D3E
330
125AA
100
AcDbEntity
  8
U1
100
AcDbLine
 10
6997.927507899639
 20
8685.743182432329
 30
0.0
 11
7005.327507899639
 21
8685.743182432329
 31
0.0
  0
ARC
  5
17D3F
330
125AA
100
AcDbEntity
  8
U1
100
AcDbCircle
 10
7005.327507899639
 20
8692.043182432326
 30
0.0
 40
6.299999999999272
100
AcDbArc
 50
269.9999999999918
 51
0.0
  0
ARC
  5
17D40
330
125AA
100
AcDbEntity
  8
U1
100
AcDbCircle
 10
7017.927507899639
 20
8692.043182432326
 30
0.0
 40
6.299999999999272
100
AcDbArc
 50
180.0
 51
270.0000000000082
  0
LINE
  5
17D41
330
125AA
100
AcDbEntity
  8
U1
100
AcDbLine
 10
7017.927507899639
 20
8685.743182432329
 30
0.0
 11
7050.327507899638
 21
8685.743182432329
 31
0.0
  0
ARC
  5
17D42
330
125AA
100
AcDbEntity
  8
U1
100
AcDbCircle
 10
7050.327507899638
 20
8692.043182432326
 30
0.0
 40
6.299999999999272
100
AcDbArc
 50
269.9999999999918
 51
0.0
  0
LINE
  5
17D43
330
125AA
100
AcDbEntity
  8
U1
100
AcDbLine
 10
7056.627507899638
 20
8692.043182432326
 30
0.0
 11
7056.627507899638
 21
8744.443182432329
 31
0.0
  0
ARC
  5
17D44
330
125AA
100
AcDbEntity
  8
U1
100
AcDbCircle
 10
7050.327507899638
 20
8744.443182432329
 30
0.0
 40
6.299999999999272
100
AcDbArc
 50
0.0
 51
90.00000000000826
  0
LINE
  5
17D45
330
125AA
100
AcDbEntity
  8
U1
100
AcDbLine
 10
7050.327507899638
 20
8750.743182432328
 30
0.0
 11
6997.927507899639
 21
8750.743182432328
 31
0.0
  0
ARC
  5
17D46
330
125AA
100
AcDbEntity
  8
U1
100
AcDbCircle
 10
6997.927507899636
 20
8744.443182432329
 30
0.0
 40
6.299999999999272
100
AcDbArc
 50
89.99999999999173
 51
180.0
  0
LINE
  5
17D47
330
125AA
100
AcDbEntity
  8
U1
100
AcDbLine
 10
6991.627507899639
 20
8744.443182432329
 30
0.0
 11
6991.627507899639
 21
8692.04318243233
 31
0.0
  0
ARC
  5
17D48
330
125AA
100
AcDbEntity
  8
U1
100
AcDbCircle
 10
6997.927507899636
 20
6934.443182432329
 30
0.0
 40
6.299999999999272
100
AcDbArc
 50
89.99999999999173
 51
180.0000000000082
  0
LINE
  5
17D49
330
125AA
100
AcDbEntity
  8
U1
100
AcDbLine
 10
6997.927507899639
 20
6940.743182432328
 30
0.0
 11
7005.327507899639
 21
6940.743182432328
 31
0.0
  0
ARC
  5
17D4A
330
125AA
100
AcDbEntity
  8
U1
100
AcDbCircle
 10
7005.327507899639
 20
6934.443182432329
 30
0.0
 40
6.299999999999272
100
AcDbArc
 50
359.9999999999917
 51
90.00000000000826
  0
ARC
  5
17D4B
330
125AA
100
AcDbEntity
  8
U1
100
AcDbCircle
 10
7017.927507899639
 20
6934.443182432328
 30
0.0
 40
6.300000000000181
100
AcDbArc
 50
90.0
 51
180.0
  0
LINE
  5
17D4C
330
125AA
100
AcDbEntity
  8
U1
100
AcDbLine
 10
7017.927507899639
 20
6940.743182432328
 30
0.0
 11
7050.327507899638
 21
6940.743182432328
 31
0.0
  0
ARC
  5
17D4D
330
125AA
100
AcDbEntity
  8
U1
100
AcDbCircle
 10
7050.327507899638
 20
6934.443182432329
 30
0.0
 40
6.299999999999272
100
AcDbArc
 50
359.9999999999917
 51
90.00000000000826
  0
LINE
  5
17D4E
330
125AA
100
AcDbEntity
  8
U1
100
AcDbLine
 10
7056.627507899638
 20
6934.443182432328
 30
0.0
 11
7056.627507899638
 21
6882.043182432328
 31
0.0
  0
ARC
  5
17D4F
330
125AA
100
AcDbEntity
  8
U1
100
AcDbCircle
 10
7050.327507899638
 20
6882.043182432328
 30
0.0
 40
6.299999999999272
100
AcDbArc
 50
269.9999999999918
 51
0.0
  0
LINE
  5
17D50
330
125AA
100
AcDbEntity
  8
U1
100
AcDbLine
 10
7050.327507899638
 20
6875.743182432329
 30
0.0
 11
6997.927507899639
 21
6875.743182432329
 31
0.0
  0
ARC
  5
17D51
330
125AA
100
AcDbEntity
  8
U1
100
AcDbCircle
 10
6997.927507899636
 20
6882.043182432328
 30
0.0
 40
6.299999999999272
100
AcDbArc
 50
180.0
 51
270.0000000000082
  0
LINE
  5
17D52
330
125AA
100
AcDbEntity
  8
U1
100
AcDbLine
 10
6991.627507899639
 20
6882.043182432328
 30
0.0
 11
6991.627507899639
 21
6934.443182432328
 31
0.0
  0
ARC
  5
17D53
330
125AA
100
AcDbEntity
  8
U1
100
AcDbCircle
 10
9860.327507899642
 20
6934.443182432328
 30
0.0
 40
6.299999999999272
100
AcDbArc
 50
0.0
 51
90.00000000001655
  0
LINE
  5
17D54
330
125AA
100
AcDbEntity
  8
U1
100
AcDbLine
 10
9860.327507899638
 20
6940.743182432328
 30
0.0
 11
9852.927507899641
 21
6940.743182432328
 31
0.0
  0
ARC
  5
17D55
330
125AA
100
AcDbEntity
  8
U1
100
AcDbCircle
 10
9852.927507899638
 20
6934.443182432328
 30
0.0
 40
6.300000000000181
100
AcDbArc
 50
89.99999999998344
 51
180.0
  0
ARC
  5
17D56
330
125AA
100
AcDbEntity
  8
U1
100
AcDbCircle
 10
9840.327507899642
 20
6934.443182432328
 30
0.0
 40
6.299999999999272
100
AcDbArc
 50
0.0
 51
90.00000000001655
  0
LINE
  5
17D57
330
125AA
100
AcDbEntity
  8
U1
100
AcDbLine
 10
9840.327507899637
 20
6940.743182432328
 30
0.0
 11
9807.927507899641
 21
6940.743182432328
 31
0.0
  0
ARC
  5
17D58
330
125AA
100
AcDbEntity
  8
U1
100
AcDbCircle
 10
9807.927507899638
 20
6934.443182432328
 30
0.0
 40
6.300000000000181
100
AcDbArc
 50
89.99999999998344
 51
180.0
  0
LINE
  5
17D59
330
125AA
100
AcDbEntity
  8
U1
100
AcDbLine
 10
9801.627507899638
 20
6934.443182432328
 30
0.0
 11
9801.627507899638
 21
6882.043182432328
 31
0.0
  0
ARC
  5
17D5A
330
125AA
100
AcDbEntity
  8
U1
100
AcDbCircle
 10
9807.927507899638
 20
6882.04318243233
 30
0.0
 40
6.299999999999272
100
AcDbArc
 50
180.0000000000082
 51
270.0000000000165
  0
LINE
  5
17D5B
330
125AA
100
AcDbEntity
  8
U1
100
AcDbLine
 10
9807.927507899641
 20
6875.743182432329
 30
0.0
 11
9860.327507899638
 21
6875.743182432329
 31
0.0
  0
ARC
  5
17D5C
330
125AA
100
AcDbEntity
  8
U1
100
AcDbCircle
 10
9860.327507899642
 20
6882.04318243233
 30
0.0
 40
6.300000000000181
100
AcDbArc
 50
269.9999999999834
 51
359.9999999999917
  0
LINE
  5
17D5D
330
125AA
100
AcDbEntity
  8
U1
100
AcDbLine
 10
9866.627507899641
 20
6882.043182432328
 30
0.0
 11
9866.627507899641
 21
6934.443182432328
 31
0.0
  0
ENDSEC
  0
SECTION
  2
OBJECTS
  0
DICTIONARY
  5
1259E
330
0
100
AcDbDictionary
281
     1
  3
ACAD_COLOR
350
12AC1
  3
ACAD_GROUP
350
1259F
  3
ACAD_LAYOUT
350
1297B
  3
ACAD_MATERIAL
350
12AC0
  3
ACAD_MLEADERSTYLE
350
17469
  3
ACAD_MLINESTYLE
350
125A0
  3
ACAD_PLOTSETTINGS
350
1297C
  3
ACAD_PLOTSTYLENAME
350
12979
  3
ACAD_SCALELIST
350
17447
  3
ACAD_TABLESTYLE
350
15B34
  3
ACAD_VISUALSTYLE
350
15B23
  3
ACDB_RECOMPOSE_DATA
350
17D76
  3
AcDbVariableDictionary
350
13B02
  0
DICTIONARY
  5
15C08
330
1259A
100
AcDbDictionary
280
     1
281
     1
  0
DICTIONARY
  5
129B1
330
125AA
100
AcDbDictionary
280
     1
281
     1
  3
ACAD_LAYOUTSELFREF
360
12A86
  3
ACAD_SORTENTS
360
1774E
  0
DICTIONARY
  5
129AF
330
125A7
100
AcDbDictionary
280
     1
281
     1
  3
ACAD_LAYOUTSELFREF
360
12A85
  0
DICTIONARY
  5
12AC1
102
{ACAD_REACTORS
330
1259E
102
}
330
1259E
100
AcDbDictionary
281
     1
  0
DICTIONARY
  5
1259F
102
{ACAD_REACTORS
330
1259E
102
}
330
1259E
100
AcDbDictionary
281
     1
  0
DICTIONARY
  5
1297B
102
{ACAD_REACTORS
330
1259E
102
}
330
1259E
100
AcDbDictionary
281
     1
  3
Model
350
1297D
  3
ﾚｲｱｳﾄ1
350
1297E
  0
DICTIONARY
  5
12AC0
102
{ACAD_REACTORS
330
1259E
102
}
330
1259E
100
AcDbDictionary
281
     1
  3
ByBlock
350
15B21
  3
ByLayer
350
15B20
  3
Global
350
15B22
  0
DICTIONARY
  5
17469
102
{ACAD_REACTORS
330
1259E
102
}
330
1259E
100
AcDbDictionary
281
     1
  3
Standard
350
1746A
  0
DICTIONARY
  5
125A0
102
{ACAD_REACTORS
330
1259E
102
}
330
1259E
100
AcDbDictionary
281
     1
  3
STANDARD
350
125AD
  0
DICTIONARY
  5
1297C
102
{ACAD_REACTORS
330
1259E
102
}
330
1259E
100
AcDbDictionary
281
     1
  0
ACDBDICTIONARYWDFLT
  5
12979
102
{ACAD_REACTORS
330
1259E
102
}
330
1259E
100
AcDbDictionary
281
     1
  3
Normal
350
1297A
100
AcDbDictionaryWithDefault
340
1297A
1001
ACAD
1000
TREAT_AS_HARD
1070
     0
1000
TREAT_AS_HARD
1070
     0
1000
TREAT_AS_HARD
1070
     0
  0
DICTIONARY
  5
17447
102
{ACAD_REACTORS
330
1259E
102
}
330
1259E
100
AcDbDictionary
281
     1
  3
A0
350
17448
  3
A1
350
17449
  3
A2
350
1744A
  3
A3
350
1744B
  3
A4
350
1744C
  3
A5
350
1744D
  3
A6
350
1744E
  3
A7
350
1744F
  3
A8
350
17450
  3
A9
350
17451
  3
B0
350
17452
  3
B1
350
17453
  3
B2
350
17454
  3
B3
350
17455
  3
B4
350
17456
  3
B5
350
17457
  3
B6
350
17458
  3
B7
350
17459
  3
B8
350
1745A
  3
B9
350
1745B
  3
C0
350
1745C
  3
C1
350
1745D
  3
C2
350
1745E
  3
C3
350
1745F
  3
C4
350
17460
  3
C5
350
17461
  3
C6
350
17462
  3
C7
350
17463
  3
C8
350
17464
  3
C9
350
17465
  3
D0
350
17466
  3
D1
350
17467
  3
D2
350
17468
  0
DICTIONARY
  5
15B34
102
{ACAD_REACTORS
330
1259E
102
}
330
1259E
100
AcDbDictionary
281
     1
  3
Standard
350
15B35
  0
DICTIONARY
  5
15B23
102
{ACAD_REACTORS
330
1259E
102
}
330
1259E
100
AcDbDictionary
281
     1
  3
2dWireframe
350
15B29
  3
3D Hidden
350
15B2B
  3
3dWireframe
350
15B2A
  3
Basic
350
15B28
  3
Brighten
350
15B2F
  3
ColorChange
350
15B33
  3
Conceptual
350
15B2C
  3
Dim
350
15B2E
  3
EdgeColorOff
350
17446
  3
Facepattern
350
15B32
  3
Flat
350
15B24
  3
FlatWithEdges
350
15B25
  3
Gouraud
350
15B26
  3
GouraudWithEdges
350
15B27
  3
Hidden
350
17D6D
  3
JitterOff
350
17444
  3
Linepattern
350
15B31
  3
OverhangOff
350
17445
  3
Realistic
350
15B2D
  3
Shaded
350
17D72
  3
Shaded with edges
350
17D71
  3
Shades of Gray
350
17D6E
  3
Sketchy
350
17D6F
  3
Thicken
350
15B30
  3
Wireframe
350
17D6C
  3
X-Ray
350
17D70
  0
XRECORD
  5
17D76
102
{ACAD_REACTORS
330
1259E
102
}
330
1259E
100
AcDbXrecord
280
     1
 90
        1
330
15B35
  0
DICTIONARY
  5
13B02
102
{ACAD_REACTORS
330
1259E
102
}
330
1259E
100
AcDbDictionary
281
     1
  3
CANNOSCALE
350
17D60
  3
CMLEADERSTYLE
350
17D5E
  3
CTABLESTYLE
350
15CCA
  3
DIMASSOC
350
13B03
  3
INDEXCTL
350
15CCC
  3
LAYEREVAL
350
17D62
  3
LAYERNOTIFY
350
17D63
  3
LIGHTINGUNITS
350
17D61
  3
MSLTSCALE
350
17D5F
  3
PROJECTNAME
350
13B04
  3
SORTENTS
350
15CCB
  0
XRECORD
  5
12A86
102
{ACAD_REACTORS
330
129B1
102
}
330
129B1
100
AcDbXrecord
280
     1
340
125AA
  0
SORTENTSTABLE
  5
1774E
102
{ACAD_REACTORS
330
129B1
102
}
330
129B1
100
AcDbSortentsTable
330
125AA
331
17394
  5
17CBE
331
1739C
  5
17CC6
331
16E8E
  5
17BEE
331
16367
  5
17B40
331
173A4
  5
17CCE
331
1636F
  5
17B48
331
1736D
  5
17C97
331
173AC
  5
17CD6
331
16E9E
  5
17C31
331
16EA6
  5
17C53
331
16377
  5
17B50
331
17A2B
  5
17C35
331
17AE0
  5
17C17
331
173CD
  5
17D3E
331
17B1F
  5
17D50
331
17B5E
  5
17BD8
331
17A72
  5
17CDE
331
17AA9
  5
17BE9
331
17A33
  5
17C12
331
17AE8
  5
17C03
331
17AF0
  5
17BEB
331
17B27
  5
17D4B
331
17A7A
  5
17C72
331
17A04
  5
17C75
331
17AB1
  5
17D1A
331
17B66
  5
17BAE
331
17C81
  5
17A14
331
17CC0
  5
179C9
331
17BD4
  5
17AE1
331
17C0B
  5
17A95
331
17B6E
  5
17BB6
331
17B2F
  5
17C88
331
17B95
  5
17B77
331
17C4A
  5
17A52
331
17A43
  5
17BF2
331
17755
  5
17B2F
331
17A82
  5
17C5F
331
17AB9
  5
17CFF
331
17CFF
  5
17907
331
17D3E
  5
17BA1
331
17C52
  5
17A5C
331
17C89
  5
179F1
331
17BDC
  5
17AF2
331
17C13
  5
17A9D
331
17CC8
  5
17993
331
17B37
  5
17C81
331
17B9D
  5
17B0F
331
17D07
  5
1790F
331
17D46
  5
17BA9
331
17C5A
  5
17A66
331
17C91
  5
179F9
331
17BA5
  5
17B1B
331
17BE4
  5
17ACF
331
17C1B
  5
17AA5
331
17CD0
  5
179A1
331
17CD8
  5
179B4
331
17D0F
  5
17917
331
17C23
  5
17A92
331
17C62
  5
17A44
331
17BAD
  5
17B23
331
17BEC
  5
17AC0
331
17C99
  5
17A01
331
17D4E
  5
17B86
331
17D56
  5
17B64
331
17D17
  5
1791F
331
17375
  5
17C9F
331
173B4
  5
17CF0
331
1737D
  5
17CA7
331
167F7
  5
17B57
331
17385
  5
17CAF
331
173C4
  5
17D2C
331
1738D
  5
17CB7
331
16E87
  5
17B5D
331
17AC1
  5
17CE6
331
17A4B
  5
17BE6
331
17B3F
  5
17C29
331
17B7E
  5
17B93
331
17A1C
  5
17C48
331
17AC9
  5
17C77
331
17B08
  5
17D3A
331
17B10
  5
17D35
331
17B47
  5
17C21
331
17A9A
  5
17C0B
331
179E5
  5
17D05
331
17A24
  5
17C3E
331
17AD1
  5
17C63
331
17B86
  5
17B9B
331
17CA1
  5
179F0
331
17CE0
  5
17984
331
17BF4
  5
17AC8
331
17C2B
  5
17A7D
331
17BB5
  5
17B07
331
17C6A
  5
17A38
331
17B4F
  5
17BC9
331
17A63
  5
17CFE
331
179ED
  5
17CFD
331
17AD9
  5
17C4B
331
17B8E
  5
17B6F
331
17D1F
  5
17927
331
17CA9
  5
179E5
331
17CE8
  5
17976
331
17BFC
  5
17AB8
331
17C33
  5
17A85
331
17B57
  5
17BD1
331
17BBD
  5
17B05
331
17C72
  5
17A27
331
17D27
  5
1792F
331
17C7A
  5
17A2F
331
17CB1
  5
179DA
331
17BC5
  5
17AF9
331
17C04
  5
17AAC
331
17C3B
  5
17A6F
331
17CF0
  5
1793D
331
17D2F
  5
17903
331
17C43
  5
17A4B
331
17BCD
  5
17AD7
331
17CB9
  5
179BB
331
17D37
  5
17BC3
331
159C8
  5
17B38
331
17395
  5
17CBF
331
16360
  5
17B39
331
1739D
  5
17CC7
331
16E8F
  5
17BEF
331
16368
  5
17B41
331
173A5
  5
17CCF
331
16E9F
  5
17C32
331
173AD
  5
17CD7
331
1736E
  5
17C98
331
16370
  5
17B49
331
16EA7
  5
17C54
331
17AE1
  5
17C13
331
17B18
  5
17D5D
331
17A2C
  5
17C36
331
173CE
  5
17D3F
331
17A6B
  5
17CEB
331
17AA2
  5
17BFA
331
17B5F
  5
17BD9
331
17AAA
  5
17BE3
331
17AE9
  5
17BFF
331
17A73
  5
17C7D
331
17B20
  5
17D51
331
173D6
  5
17D4F
331
179FD
  5
17CD9
331
17B67
  5
17BAF
331
17A05
  5
17C76
331
17AB2
  5
17D1B
331
17AF1
  5
17BE7
331
17B28
  5
17C8E
331
17CC1
  5
179CB
331
17CF8
  5
17956
331
17C4B
  5
17A53
331
17C82
  5
17A15
331
17B96
  5
17B78
331
17B30
  5
17C89
331
17ABA
  5
17D00
331
17B6F
  5
17BB7
331
17BD5
  5
17AE2
331
17756
  5
17B30
331
17A44
  5
17BF3
331
17C0C
  5
17A96
331
17CC9
  5
17994
331
17D00
  5
17908
331
17C14
  5
17A9E
331
17C53
  5
17A5D
331
17B9E
  5
17B13
331
17B77
  5
17B8C
331
17BDD
  5
17AF3
331
17C8A
  5
179F2
331
17D3F
  5
17BA2
331
17D47
  5
17BAA
331
17C92
  5
179FA
331
17CD1
  5
179A2
331
17BE5
  5
17AD0
331
17C1C
  5
17AA6
331
17BA6
  5
17B1C
331
17C5B
  5
17A67
331
17D08
  5
17910
331
17D10
  5
17918
331
17D4F
  5
17B87
331
17C63
  5
17A45
331
17C9A
  5
17A02
331
17BED
  5
17AC1
331
17C24
  5
17A72
331
17CD9
  5
1797A
331
17BAE
  5
17B24
331
17D57
  5
17B65
331
17376
  5
17CA0
331
16378
  5
17B51
331
1737E
  5
17CA8
331
173BD
  5
17D21
331
167F8
  5
17B58
331
17386
  5
17CB0
331
173C5
  5
17D2D
331
17367
  5
17C91
331
1738E
  5
17CB8
331
17B38
  5
17C38
331
17A8B
  5
17C4D
331
17A15
  5
17C56
331
17AC2
  5
17CE7
331
17B7F
  5
17B94
331
17B09
  5
17D37
331
17B40
  5
17C22
331
17A93
  5
17C18
331
17A1D
  5
17C49
331
17ACA
  5
17C78
331
17B87
  5
17B9D
331
17AD2
  5
17C64
331
17B11
  5
17D27
331
17A25
  5
17C3F
331
17A5C
  5
17D0D
331
179E6
  5
17D06
331
17A9B
  5
17C05
331
17B48
  5
17C1A
331
17D18
  5
17920
331
17C6B
  5
17A3B
331
17CA2
  5
179E7
331
17BB6
  5
17B08
331
17B50
  5
17BCA
331
17ADA
  5
17C4C
331
17B8F
  5
17B70
331
17BF5
  5
17AB1
331
17A64
  5
17CFA
331
17C2C
  5
17A7E
331
17CE1
  5
17985
331
17CE9
  5
17977
331
17D20
  5
17928
331
17C34
  5
17A86
331
17C73
  5
17A28
331
17BBE
  5
17AFE
331
17BFD
  5
17AB9
331
17CAA
  5
179D0
331
17CB2
  5
179DB
331
17CF1
  5
1793E
331
17C05
  5
17AAD
331
17C3C
  5
17A70
331
17BC6
  5
17AFA
331
17C7B
  5
17A16
331
17D28
  5
17930
331
17D30
  5
17904
331
17CBA
  5
179BC
331
17C44
  5
17A4C
331
17BCE
  5
17AD8
331
17396
  5
17CC0
331
16361
  5
17B3A
331
1739E
  5
17CC8
331
16E90
  5
17BF0
331
16369
  5
17B42
331
173A6
  5
17CD0
331
16371
  5
17B4A
331
1736F
  5
17C99
331
173AE
  5
17CD8
331
17B19
  5
17D56
331
17B58
  5
17BD2
331
17A2D
  5
17C2C
331
17AE2
  5
17C14
331
173CF
  5
17D40
331
17B21
  5
17D52
331
17B60
  5
17B9E
331
179FE
  5
17CDA
331
17AEA
  5
17C00
331
17AF2
  5
17BE8
331
17B29
  5
17C8F
331
17A3D
  5
17BFC
331
17A7C
  5
17C6F
331
17AB3
  5
17D0B
331
17B68
  5
17BB0
331
17D38
  5
17BC4
331
17C83
  5
17A06
331
17CC2
  5
179CC
331
17BD6
  5
17AE3
331
17C0D
  5
17A97
331
17B70
  5
17BB8
331
17ABB
  5
17CF7
331
17AFA
  5
17D3C
331
17A45
  5
17BF4
331
17757
  5
17B31
331
17A84
  5
17C5E
331
17B31
  5
17C84
331
17B97
  5
17B79
331
17C4C
  5
17A54
331
17CF9
  5
1795F
331
17D01
  5
17909
331
17D40
  5
17BA3
331
17C54
  5
17A5F
331
17C8B
  5
179F3
331
17B9F
  5
17B14
331
17BDE
  5
17AC9
331
17C15
  5
17A9F
331
17CCA
  5
17995
331
17CD2
  5
179A3
331
17D09
  5
17911
331
17C5C
  5
17A68
331
17C93
  5
179FB
331
17D48
  5
17B80
331
17BA7
  5
17B1D
331
17BE6
  5
17AD1
331
17C1D
  5
17AA7
331
17CDA
  5
1797C
331
17D11
  5
17919
331
17C25
  5
17A74
331
17C64
  5
17A3E
331
17BAF
  5
17B25
331
17BEE
  5
17AC2
331
17C9B
  5
17A03
331
17D50
  5
17B89
331
16EA8
  5
17C55
331
17377
  5
17CA1
331
16379
  5
17B52
331
173BE
  5
17D22
331
1737F
  5
17CA9
331
167F9
  5
17B59
331
17387
  5
17CB1
331
173C6
  5
17D2E
331
1738F
  5
17CB9
331
17B78
  5
17B8D
331
17AC3
  5
17CDF
331
17B02
  5
17D47
331
17A16
  5
17C57
331
17A8C
  5
17C46
331
17B39
  5
17C39
331
17B41
  5
17C23
331
17B80
  5
17B95
331
17ACB
  5
17C70
331
179DF
  5
17D14
331
17A1E
  5
17C4A
331
17A55
  5
17D20
331
17B0A
  5
17D38
331
17B12
  5
17D23
331
17B49
  5
17C1B
331
179E7
  5
17D07
331
17AD3
  5
17C5C
331
17B88
  5
17B5E
331
17D58
  5
17B66
331
17CA3
  5
179E8
331
17CE2
  5
17986
331
17BF6
  5
17AB2
331
17C2D
  5
17A7F
331
17B51
  5
17BCB
331
17BB7
  5
17B09
331
17C6C
  5
17A3C
331
17D19
  5
17921
331
17ADB
  5
17C43
331
17D21
  5
17929
331
17C74
  5
17A29
331
17CAB
  5
179D1
331
17BFE
  5
17ABA
331
17C35
  5
17A87
331
17CEA
  5
17978
331
17BBF
  5
17AFF
331
17D29
  5
17931
331
17C7C
  5
17A17
331
17CB3
  5
179DD
331
17BC7
  5
17AFB
331
17C06
  5
17AAE
331
17C3D
  5
17A71
331
17CF2
  5
17947
331
17D31
  5
17905
331
17C45
  5
17A4D
331
17BCF
  5
17ADC
331
17CBB
  5
179BD
331
17397
  5
17CC1
331
16362
  5
17B3B
331
1739F
  5
17CC9
331
16E91
  5
17BF1
331
173A7
  5
17CD1
331
17368
  5
17C92
331
1636A
  5
17B43
331
16372
  5
17B4B
331
16EA1
  5
17C37
331
173C8
  5
17D30
331
17AE3
  5
17C0C
331
17B1A
  5
17D57
331
17A2E
  5
17C2D
331
17A6D
  5
17CE8
331
173D0
  5
17D41
331
179F7
  5
17CE3
331
17AA4
  5
17BF7
331
17B59
  5
17BD3
331
17B61
  5
17B9F
331
17AAC
  5
17BE2
331
17AEB
  5
17BF8
331
179FF
  5
17CDB
331
17A75
  5
17C7C
331
17B22
  5
17D4C
331
17B90
  5
17B71
331
17B2A
  5
17C90
331
17B69
  5
17BB1
331
17AB4
  5
17D0C
331
17AF3
  5
17BE0
331
17A3E
  5
17BFD
331
17750
  5
17B2A
331
17A7D
  5
17C69
331
17CC3
  5
179CD
331
17CFA
  5
17960
331
17C0E
  5
17A98
331
17C4D
  5
17A55
331
17B98
  5
17B7A
331
17B32
  5
17C85
331
17B71
  5
17BB9
331
17BD7
  5
17AE7
331
17C84
  5
17A07
331
17D39
  5
17BC5
331
17A0F
  5
17C60
331
17ABC
  5
17CF8
331
17AFB
  5
17D3D
331
17D41
  5
17BA4
331
17CCB
  5
17996
331
17D02
  5
1790A
331
17C16
  5
17AA0
331
17C55
  5
17A61
331
17BA0
  5
17B16
331
17BDF
  5
17ACA
331
17C8C
  5
179F4
331
17D49
  5
17B81
331
17C94
  5
179FC
331
17CD3
  5
179A7
331
17BE7
  5
17AD2
331
17C1E
  5
17AA8
331
17BA8
  5
17B1E
331
17C5D
  5
17A69
331
17D0A
  5
17912
331
17D12
  5
1791A
331
17D51
  5
17B8A
331
17C65
  5
17A3F
331
17C9C
  5
17A04
331
17BEF
  5
17AC3
331
17C26
  5
17A76
331
17CDB
  5
1797D
331
17370
  5
17C9A
331
17378
  5
17CA2
331
12ADD
  5
17B34
331
1637A
  5
17B53
331
17380
  5
17CAA
331
167FA
  5
17B5A
331
17388
  5
17CB2
331
173C7
  5
17D2F
331
17758
  5
17B32
331
17B03
  5
17D43
331
17B3A
  5
17C3A
331
17A17
  5
17C58
331
17AC4
  5
17CE0
331
17B79
  5
17B8E
331
17B81
  5
17B96
331
17ACC
  5
17C71
331
17B0B
  5
17D39
331
179E0
  5
17D15
331
17A95
  5
17C15
331
17B42
  5
17C24
331
17BB0
  5
17B26
331
17B89
  5
17B5F
331
17AD4
  5
17C5D
331
17B13
  5
17D24
331
17A5E
  5
17D0A
331
17A9D
  5
17C04
331
17B4A
  5
17C1C
331
17CE3
  5
1798A
331
17D1A
  5
17922
331
17C6D
  5
17A3D
331
17CA4
  5
179E9
331
17D59
  5
17B67
331
17B52
  5
17BCC
331
17BB8
  5
17B0A
331
17ADC
  5
17C44
331
17BF7
  5
17AB3
331
17A66
  5
17CF9
331
17C2E
  5
17A80
331
17CEB
  5
1796A
331
17D22
  5
1792A
331
17C36
  5
17A88
331
17C75
  5
17A2A
331
17BC0
  5
17B00
331
17BFF
  5
17ABB
331
17CAC
  5
179D2
331
17CB4
  5
179DF
331
17CF3
  5
1794D
331
17C07
  5
17AAF
331
17C3E
  5
17A46
331
17BC8
  5
17AFC
331
17C7D
  5
17A1B
331
17D2A
  5
17932
331
17D32
  5
17BBE
331
17CBC
  5
179BE
331
17C46
  5
17A4E
331
17390
  5
17CBA
331
17398
  5
17CC2
331
16363
  5
17B3C
331
173A0
  5
17CCA
331
1636B
  5
17B44
331
17369
  5
17C93
331
173A8
  5
17CD2
331
16E9A
  5
17C2A
331
16373
  5
17B4C
331
173C9
  5
17D31
331
17B1B
  5
17D58
331
17B5A
  5
17BD4
331
17A6E
  5
17CE2
331
17AA5
  5
17BED
331
179F8
  5
17CE4
331
17A2F
  5
17C2E
331
17AE4
  5
17C0D
331
173D1
  5
17D42
331
17B23
  5
17D4D
331
17A37
  5
17C06
331
17AEC
  5
17BF9
331
17B91
  5
17B72
331
17AF4
  5
17BE1
331
17B2B
  5
17C8B
331
17A3F
  5
17BFE
331
17751
  5
17B2B
331
17AB5
  5
17D08
331
17B6A
  5
17BB2
331
17BD0
  5
17ADD
331
17D3A
  5
17BC6
331
17C85
  5
17A0B
331
17CC4
  5
179CE
331
17BD8
  5
17AE8
331
17C0F
  5
17A99
331
17B72
  5
17BBA
331
17ABD
  5
17CF4
331
17A86
  5
17C5B
331
17B33
  5
17C86
331
17B99
  5
17B7B
331
17C4E
  5
17A57
331
17CFB
  5
17964
331
17D03
  5
1790B
331
17D42
  5
17BA5
331
17C56
  5
17A62
331
17C8D
  5
179F5
331
17BA1
  5
17B17
331
17BE0
  5
17ACB
331
17C17
  5
17AA1
331
17CCC
  5
17997
331
17CD4
  5
179A8
331
17D0B
  5
17913
331
17C1F
  5
17A8E
331
17C5E
  5
17A6B
331
17BA9
  5
17B1F
331
17BE8
  5
17AD3
331
17C95
  5
179FD
331
17D4A
  5
17B82
331
17D52
  5
17B8B
331
17CDC
  5
1797E
331
17D13
  5
1791B
331
17C27
  5
17A77
331
17C66
  5
17A40
331
17C9D
  5
17A05
331
17371
  5
17C9B
331
173B8
  5
17D0F
331
17379
  5
17CA3
331
1637B
  5
17B54
331
173C0
  5
17D28
331
17381
  5
17CAB
331
17389
  5
17CB3
331
159C6
  5
17B36
331
167FB
  5
17B5B
331
17A10
  5
17C61
331
17759
  5
17B33
331
17B3B
  5
17C3B
331
17B7A
  5
17B8F
331
17AC5
  5
17CDC
331
17B04
  5
17D44
331
17A4F
  5
17BDA
331
179D9
  5
17D17
331
17A8E
  5
17C45
331
17B43
  5
17C25
331
17B82
  5
17B97
331
17A96
  5
17C0F
331
17ACD
  5
17C6D
331
179E1
  5
17D16
331
17A57
  5
17D1F
331
17B0C
  5
17D36
331
17B14
  5
17D25
331
17B4B
  5
17C1D
331
17BB1
  5
17B27
331
17AD5
  5
17C59
331
17BF0
  5
17AC4
331
17D5A
  5
17B68
331
17CA5
  5
179EA
331
17CE4
  5
1798B
331
17BF8
  5
17AB4
331
17C2F
  5
17A81
331
17ADD
  5
17C40
331
17B53
  5
17BCD
331
17BB9
  5
17B0B
331
17C6E
  5
17A1D
331
17D1B
  5
17923
331
17D23
  5
1792B
331
17C76
  5
17A2B
331
17CAD
  5
179D3
331
17BC1
  5
17B01
331
17C00
  5
17ABC
331
17C37
  5
17A89
331
17CEC
  5
1796B
331
17CF4
  5
1794F
331
17D2B
  5
17933
331
17C7E
  5
17A1C
331
17CB5
  5
179E0
331
17BC9
  5
17AFD
331
17C3F
  5
17A47
331
17D33
  5
17BBF
331
17C47
  5
17A4F
331
17CBD
  5
179C0
331
17391
  5
17CBB
331
17399
  5
17CC3
331
16364
  5
17B3D
331
173A1
  5
17CCB
331
16E9B
  5
17C2B
331
173A9
  5
17CD3
331
1736A
  5
17C94
331
1636C
  5
17B45
331
16374
  5
17B4D
331
179F1
  5
17CF1
331
17A30
  5
17C2F
331
17AE5
  5
17C09
331
17B1C
  5
17D53
331
179F9
  5
17CE5
331
17B5B
  5
17BD5
331
17B63
  5
17BAB
331
17AAE
  5
17BDF
331
17AED
  5
17BF5
331
17A38
  5
17C07
331
173DA
  5
17D59
331
17A77
  5
17C79
331
17B24
  5
17D4E
331
17B92
  5
17B73
331
17B2C
  5
17C8C
331
17B6B
  5
17BB3
331
17BD1
  5
17ADE
331
17A7F
  5
17C68
331
17A09
  5
17C6A
331
17AB6
  5
17D09
331
17AF5
  5
17BDD
331
17C08
  5
17AB0
331
17752
  5
17B2C
331
17CC5
  5
179CF
331
17CFC
  5
17965
331
17C10
  5
17A9A
331
17C4F
  5
17A59
331
17B9A
  5
17B7C
331
17B34
  5
17C7E
331
17A87
  5
17C51
331
17ABE
  5
17CF5
331
17B73
  5
17BBB
331
17BD9
  5
17AEF
331
17C86
  5
17A0C
331
17D3B
  5
17BC7
331
17D43
  5
17BA6
331
17C8E
  5
179F6
331
17CCD
  5
1799B
331
17C18
  5
17AA2
331
17C57
  5
17A63
331
17D04
  5
1790C
331
17BA2
  5
17B18
331
17BE1
  5
17ACC
331
17D4B
  5
17B83
331
17C96
  5
179FE
331
17CD5
  5
179A9
331
17BE9
  5
17ABD
331
17C20
  5
17A8F
331
17BAA
  5
17B20
331
17C5F
  5
17A6D
331
17D0C
  5
17914
331
17D14
  5
1791C
331
17D53
  5
17B61
331
17C67
  5
17A41
331
17C9E
  5
179EB
331
17CDD
  5
1797F
331
173B1
  5
17CED
331
17372
  5
17C9C
331
1637C
  5
17B55
331
1737A
  5
17CA4
331
173B9
  5
17D10
331
17382
  5
17CAC
331
173C1
  5
17D29
331
17193
  5
17C82
331
1738A
  5
17CB4
331
159C7
  5
17B37
331
17A11
  5
17C62
331
17B05
  5
17D45
331
17B3C
  5
17C26
331
17A50
  5
17BDB
331
179DA
  5
17D18
331
17AC6
  5
17CDD
331
17B7B
  5
17B90
331
17B83
  5
17B98
331
17ACE
  5
17C6E
331
17B0D
  5
17D32
331
179E2
  5
17D11
331
17B44
  5
17C1E
331
17BB2
  5
17B28
331
17B4C
  5
17BBC
331
17B8B
  5
17B6C
331
17BF1
  5
17AC5
331
17AD6
  5
17C5A
331
17B15
  5
17D26
331
17C28
  5
17A78
331
17A60
  5
17D04
331
17A9F
  5
17C01
331
17CE5
  5
17972
331
17D1C
  5
17924
331
17C30
  5
17A82
331
17C6F
  5
17A21
331
17B54
  5
17BCE
331
17BBA
  5
17B02
331
17ADE
  5
17C41
331
17BF9
  5
17AB5
331
17CA6
  5
179E1
331
17D5B
  5
17B69
331
17CED
  5
1796C
331
17D24
  5
1792C
331
17C38
  5
17A8B
331
17C77
  5
17A2C
331
17BC2
  5
17AF4
331
17C01
  5
17AA9
331
17CAE
  5
179D5
331
17CB6
  5
179B5
331
17CF5
  5
17950
331
17C40
  5
17A48
331
17BCA
  5
17AD4
331
17C7F
  5
17A12
331
17D2C
  5
17934
331
17D34
  5
17BC0
331
17CBE
  5
179C6
331
17392
  5
17CBC
331
1739A
  5
17CC4
331
16365
  5
17B3E
331
173A2
  5
17CCC
331
1636D
  5
17B46
331
1736B
  5
17C95
331
173AA
  5
17CD4
331
16375
  5
17B4E
331
179F2
  5
17CF2
331
17A29
  5
17C33
331
17A68
  5
17CF6
331
17B1D
  5
17D54
331
17B5C
  5
17BD6
331
17A70
  5
17CE1
331
17AA7
  5
17BEC
331
173D3
  5
17D48
331
17A31
  5
17C10
331
17AE6
  5
17C0A
331
17AEE
  5
17BF6
331
17B25
  5
17D49
331
17A78
  5
17C73
331
17AAF
  5
17D1D
331
17B64
  5
17BAC
331
173DB
  5
17D5A
331
17A39
  5
17C08
331
17BD2
  5
17ADF
331
17C09
  5
17A93
331
17B93
  5
17B75
331
17C48
  5
17A50
331
17AF6
  5
17BDE
331
17B2D
  5
17C8D
331
17753
  5
17B2D
331
17A0A
  5
17C6B
331
17AB7
  5
17D02
331
17B6C
  5
17BB4
331
17CFD
  5
17966
331
17D3C
  5
17BC8
331
17C87
  5
17A0D
331
17CC6
  5
1798D
331
17BDA
  5
17AF0
331
17C11
  5
17A9B
331
17B74
  5
17B7E
331
17ABF
  5
17CE9
331
17B35
  5
17C7F
331
17B9B
  5
17B7D
331
17C50
  5
17A5A
331
17D05
  5
1790D
331
17D44
  5
17BA7
331
17C58
  5
17A64
331
17C8F
  5
179F7
331
17BA3
  5
17B19
331
17BE2
  5
17ACD
331
17C19
  5
17AA3
331
17CCE
  5
1799C
331
17CD6
  5
179AF
331
17D0D
  5
17915
331
17C21
  5
17A90
331
17C60
  5
17A42
331
17BAB
  5
17B21
331
17BEA
  5
17ABE
331
17C97
  5
179FF
331
17D4C
  5
17B84
331
17D54
  5
17B62
331
17C9F
  5
179ED
331
17CDE
  5
17980
331
17D15
  5
1791D
331
17373
  5
17C9D
331
173B2
  5
17CEE
331
1737B
  5
17CA5
331
12AE0
  5
17B35
331
173C2
  5
17D2A
331
17194
  5
17C83
331
17383
  5
17CAD
331
1738B
  5
17CB5
331
17364
  5
17C8A
331
17A49
  5
17BE4
331
17B3D
  5
17C27
331
17B7C
  5
17B91
331
17A90
  5
17C42
331
17AC7
  5
17C7A
331
17A51
  5
17BDC
331
17B06
  5
17D46
331
179DB
  5
17D19
331
17B45
  5
17C1F
331
17B84
  5
17B99
331
17A98
  5
17C0E
331
17ACF
  5
17C66
331
179E3
  5
17D12
331
17A22
  5
17C3C
331
17A59
  5
17D1C
331
17B0E
  5
17D33
331
17C29
  5
17A79
331
17C68
  5
17A31
331
17BB3
  5
17B29
331
17B16
  5
17D5B
331
17B4D
  5
17BBD
331
179EB
  5
17CFB
331
17AD7
  5
17C4E
331
17B8C
  5
17B6D
331
17BF2
  5
17AC6
331
17D5C
  5
17B6A
331
17CA7
  5
179E2
331
17CE6
  5
17974
331
17BFA
  5
17AB6
331
17C31
  5
17A83
331
17ADF
  5
17C16
331
17B55
  5
17BCF
331
17BBB
  5
17B03
331
17C70
  5
17A22
331
17D1D
  5
17925
331
17D25
  5
1792D
331
17C78
  5
17A2D
331
17CAF
  5
179D7
331
17BC3
  5
17AF5
331
17C02
  5
17AAA
331
17C39
  5
17A8D
331
17CEE
  5
17970
331
17CF6
  5
17953
331
17D2D
  5
17935
331
17C41
  5
17A49
331
17BCB
  5
17AD5
331
17CB7
  5
179B9
331
17D35
  5
17BC1
331
17CBF
  5
179C7
331
17393
  5
17CBD
331
1739B
  5
17CC5
331
16366
  5
17B3F
331
173A3
  5
17CCD
331
16E9D
  5
17C30
331
173AB
  5
17CD5
331
1736C
  5
17C96
331
1636E
  5
17B47
331
16376
  5
17B4F
331
16EA5
  5
17C52
331
17A2A
  5
17C34
331
17A69
  5
17CEC
331
179F3
  5
17CF3
331
17AA0
  5
17BFB
331
17B5D
  5
17BD7
331
17A32
  5
17C11
331
17AE7
  5
17C02
331
17B1E
  5
17D55
331
17B65
  5
17BAD
331
17A03
  5
17C74
331
17AB0
  5
17D1E
331
17AEF
  5
17BEA
331
17B26
  5
17D4A
331
17C49
  5
17A51
331
17C80
  5
17A13
331
17B94
  5
17B76
331
17B2E
  5
17C87
331
17A81
  5
17C65
331
17754
  5
17B2E
331
17A0B
  5
17C6C
331
17AB8
  5
17D03
331
17B6D
  5
17BB5
331
17BD3
  5
17AE0
331
17C0A
  5
17A94
331
17CC7
  5
17992
331
17CFE
  5
17906
331
17C12
  5
17A9C
331
17C51
  5
17A5B
331
17B9C
  5
17B0C
331
17B36
  5
17C80
331
17B75
  5
17B7F
331
17BDB
  5
17AF1
331
17C88
  5
17A11
331
17D3D
  5
17BA0
331
17D45
  5
17BA8
331
17C90
  5
179F8
331
17CCF
  5
1799D
331
17BE3
  5
17ACE
331
17C1A
  5
17AA4
331
17BA4
  5
17B1A
331
17C59
  5
17A65
331
17D06
  5
1790E
331
17D0E
  5
17916
331
17C98
  5
17A00
331
17D4D
  5
17B85
331
17BEB
  5
17ABF
331
17C22
  5
17A91
331
17BAC
  5
17B22
331
17C61
  5
17A43
331
17D16
  5
1791E
331
17D55
  5
17B63
331
17CDF
  5
17982
331
17374
  5
17C9E
331
173B3
  5
17CEF
331
1737C
  5
17CA6
331
167F6
  5
17B56
331
17384
  5
17CAE
331
173C3
  5
17D2B
331
1738C
  5
17CB6
331
16E86
  5
17B5C
331
17A89
  5
17C50
331
17AC0
  5
17CEA
331
17A4A
  5
17BE5
331
17B07
  5
17D3B
331
17B3E
  5
17C28
331
17A91
  5
17C19
331
17A1B
  5
17C47
331
17AC8
  5
17C7B
331
17B7D
  5
17B92
331
17B85
  5
17B9A
331
17AD0
  5
17C67
331
17A23
  5
17C3D
331
17A5A
  5
17D0E
331
17B0F
  5
17D34
331
179E4
  5
17D13
331
17B46
  5
17C20
331
17C69
  5
17A35
331
17CA0
  5
179EF
331
17BB4
  5
17B06
331
17B8D
  5
17B6E
331
17BF3
  5
17AC7
331
17AD8
  5
17C4F
331
17A62
  5
17D01
331
17B17
  5
17D5C
331
17C2A
  5
17A7B
331
179EC
  5
17CFC
331
17CE7
  5
17975
331
17D1E
  5
17926
331
17C32
  5
17A84
331
17C71
  5
17A23
331
17B56
  5
17BD0
331
17BBC
  5
17B04
331
17BFB
  5
17AB7
331
17CA8
  5
179E3
331
17D5D
  5
17B6B
331
17CB0
  5
179D9
331
17CEF
  5
1793C
331
17C3A
  5
17A6E
331
17C79
  5
17A2E
331
17D26
  5
1792E
331
17BC4
  5
17AF8
331
17C03
  5
17AAB
331
17CB8
  5
179BA
331
17C42
  5
17A4A
331
17CF7
  5
17954
331
17BCC
  5
17AD6
331
17D2E
  5
17902
331
17D36
  5
17BC2
  0
XRECORD
  5
12A85
102
{ACAD_REACTORS
330
129AF
102
}
330
129AF
100
AcDbXrecord
280
     1
340
125A7
  0
LAYOUT
  5
1297D
102
{ACAD_REACTORS
330
1297B
102
}
330
1297B
100
AcDbPlotSettings
  1

  2
いきなりPDF Professional
  4
User76
  6

 40
3.174999952316283
 41
3.174999952316283
 42
3.17498779296875
 43
3.17498779296875
 44
419.9889831542968
 45
297.0106506347656
 46
7.459999999999999
 47
6.849999999999998
 48
0.0
 49
0.0
140
0.0
141
0.0
142
1.0
143
40.0
 70
 11940
 72
     1
 73
     0
 74
     1
  7
sinsei-a3.ctb
 75
     0
147
0.025
 76
     1
 77
     2
 78
   300
148
-433.9966216520332
149
-163.6908237492789
100
AcDbLayout
  1
Model
 70
     1
 71
     0
 10
0.0
 20
0.0
 11
12.0
 21
9.0
 12
0.0
 22
0.0
 32
0.0
 14
0.0
 24
0.0
 34
0.0
 15
0.0
 25
0.0
 35
0.0
146
0.0
 13
0.0
 23
0.0
 33
0.0
 16
1.0
 26
0.0
 36
0.0
 17
0.0
 27
1.0
 37
0.0
 76
     0
330
125AA
331
1743A
1001
ACAD_PSEXT
1000
いきなりPDF Professional
1000
いきなりPDF Professional
1000
SN PDFPro Port
1000

1070
     0
  0
LAYOUT
  5
1297E
102
{ACAD_REACTORS
330
1297B
102
}
330
1297B
100
AcDbPlotSettings
  1

  2
RICOH NX-210 RPDL
  4

  6

 40
0.0
 41
0.0
 42
0.0
 43
0.0
 44
0.0
 45
0.0
 46
0.0
 47
0.0
 48
0.0
 49
0.0
140
0.0
141
0.0
142
1.0
143
1.0
 70
   688
 72
     0
 73
     0
 74
     5
  7
sinsei-a3.ctb
 75
    16
147
1.0
 76
     0
 77
     2
 78
   300
148
0.0
149
0.0
100
AcDbLayout
  1
ﾚｲｱｳﾄ1
 70
     0
 71
     1
 10
0.0
 20
0.0
 11
12.0
 21
9.0
 12
267.0000000000001
 22
194.8999999999998
 32
0.0
 14
1.000000000000000E+20
 24
1.000000000000000E+20
 34
1.000000000000000E+20
 15
-1.000000000000000E+20
 25
-1.000000000000000E+20
 35
-1.000000000000000E+20
146
0.0
 13
0.0
 23
0.0
 33
0.0
 16
1.0
 26
0.0
 36
0.0
 17
0.0
 27
1.0
 37
0.0
 76
     0
330
125A7
  0
MATERIAL
  5
15B21
102
{ACAD_REACTORS
330
12AC0
102
}
330
12AC0
100
AcDbMaterial
  1
ByBlock
 73
     1
 78
     1
172
     1
176
     1
270
     1
274
     1
 94
       63
  0
MATERIAL
  5
15B20
102
{ACAD_REACTORS
330
12AC0
102
}
330
12AC0
100
AcDbMaterial
  1
ByLayer
 73
     1
 78
     1
172
     1
176
     1
270
     1
274
     1
 94
       63
  0
MATERIAL
  5
15B22
102
{ACAD_REACTORS
330
12AC0
102
}
330
12AC0
100
AcDbMaterial
  1
Global
 73
     1
 78
     1
172
     1
176
     1
270
     1
274
     1
 94
       63
  0
MLEADERSTYLE
  5
1746A
102
{ACAD_REACTORS
330
17469
102
}
330
17469
100
AcDbMLeaderStyle
179
     2
170
     2
171
     1
172
     0
 90
        2
 40
0.0
 41
0.0
173
     1
 91
-1056964608
340
125A4
 92
       -2
290
     1
 42
0.09
291
     1
 43
0.36
  3
Standard
 44
0.18
300

342
125A2
174
     1
178
     6
175
     1
176
     0
 93
-1056964608
 45
0.18
292
     0
297
     0
 46
0.18
 94
-1056964608
 47
1.0
 49
1.0
140
1.0
293
     1
141
0.0
294
     1
177
     0
142
1.0
295
     0
296
     0
143
0.125
271
     0
272
     9
273
     9
  0
MLINESTYLE
  5
125AD
102
{ACAD_REACTORS
330
125A0
102
}
330
125A0
100
AcDbMlineStyle
  2
STANDARD
 70
     0
  3

 62
     0
 51
90.0
 52
90.0
 71
     2
 49
0.5
 62
   256
  6
BYLAYER
 49
-0.5
 62
   256
  6
BYLAYER
  0
ACDBPLACEHOLDER
  5
1297A
102
{ACAD_REACTORS
330
12979
102
}
330
12979
  0
SCALE
  5
17448
102
{ACAD_REACTORS
330
17447
102
}
330
17447
100
AcDbScale
 70
     0
300
1:1
140
1.0
141
1.0
290
     1
  0
SCALE
  5
17449
102
{ACAD_REACTORS
330
17447
102
}
330
17447
100
AcDbScale
 70
     0
300
1:2
140
1.0
141
2.0
290
     0
  0
SCALE
  5
1744A
102
{ACAD_REACTORS
330
17447
102
}
330
17447
100
AcDbScale
 70
     0
300
1:4
140
1.0
141
4.0
290
     0
  0
SCALE
  5
1744B
102
{ACAD_REACTORS
330
17447
102
}
330
17447
100
AcDbScale
 70
     0
300
1:5
140
1.0
141
5.0
290
     0
  0
SCALE
  5
1744C
102
{ACAD_REACTORS
330
17447
102
}
330
17447
100
AcDbScale
 70
     0
300
1:8
140
1.0
141
8.0
290
     0
  0
SCALE
  5
1744D
102
{ACAD_REACTORS
330
17447
102
}
330
17447
100
AcDbScale
 70
     0
300
1:10
140
1.0
141
10.0
290
     0
  0
SCALE
  5
1744E
102
{ACAD_REACTORS
330
17447
102
}
330
17447
100
AcDbScale
 70
     0
300
1:16
140
1.0
141
16.0
290
     0
  0
SCALE
  5
1744F
102
{ACAD_REACTORS
330
17447
102
}
330
17447
100
AcDbScale
 70
     0
300
1:20
140
1.0
141
20.0
290
     0
  0
SCALE
  5
17450
102
{ACAD_REACTORS
330
17447
102
}
330
17447
100
AcDbScale
 70
     0
300
1:30
140
1.0
141
30.0
290
     0
  0
SCALE
  5
17451
102
{ACAD_REACTORS
330
17447
102
}
330
17447
100
AcDbScale
 70
     0
300
1:40
140
1.0
141
40.0
290
     0
  0
SCALE
  5
17452
102
{ACAD_REACTORS
330
17447
102
}
330
17447
100
AcDbScale
 70
     0
300
1:50
140
1.0
141
50.0
290
     0
  0
SCALE
  5
17453
102
{ACAD_REACTORS
330
17447
102
}
330
17447
100
AcDbScale
 70
     0
300
1:100
140
1.0
141
100.0
290
     0
  0
SCALE
  5
17454
102
{ACAD_REACTORS
330
17447
102
}
330
17447
100
AcDbScale
 70
     0
300
2:1
140
2.0
141
1.0
290
     0
  0
SCALE
  5
17455
102
{ACAD_REACTORS
330
17447
102
}
330
17447
100
AcDbScale
 70
     0
300
4:1
140
4.0
141
1.0
290
     0
  0
SCALE
  5
17456
102
{ACAD_REACTORS
330
17447
102
}
330
17447
100
AcDbScale
 70
     0
300
8:1
140
8.0
141
1.0
290
     0
  0
SCALE
  5
17457
102
{ACAD_REACTORS
330
17447
102
}
330
17447
100
AcDbScale
 70
     0
300
10:1
140
10.0
141
1.0
290
     0
  0
SCALE
  5
17458
102
{ACAD_REACTORS
330
17447
102
}
330
17447
100
AcDbScale
 70
     0
300
100:1
140
100.0
141
1.0
290
     0
  0
SCALE
  5
17459
102
{ACAD_REACTORS
330
17447
102
}
330
17447
100
AcDbScale
 70
     0
300
1/128" = 1'-0"
140
0.0078125
141
12.0
290
     0
  0
SCALE
  5
1745A
102
{ACAD_REACTORS
330
17447
102
}
330
17447
100
AcDbScale
 70
     0
300
1/64" = 1'-0"
140
0.015625
141
12.0
290
     0
  0
SCALE
  5
1745B
102
{ACAD_REACTORS
330
17447
102
}
330
17447
100
AcDbScale
 70
     0
300
1/32" = 1'-0"
140
0.03125
141
12.0
290
     0
  0
SCALE
  5
1745C
102
{ACAD_REACTORS
330
17447
102
}
330
17447
100
AcDbScale
 70
     0
300
1/16" = 1'-0"
140
0.0625
141
12.0
290
     0
  0
SCALE
  5
1745D
102
{ACAD_REACTORS
330
17447
102
}
330
17447
100
AcDbScale
 70
     0
300
3/32" = 1'-0"
140
0.09375
141
12.0
290
     0
  0
SCALE
  5
1745E
102
{ACAD_REACTORS
330
17447
102
}
330
17447
100
AcDbScale
 70
     0
300
1/8" = 1'-0"
140
0.125
141
12.0
290
     0
  0
SCALE
  5
1745F
102
{ACAD_REACTORS
330
17447
102
}
330
17447
100
AcDbScale
 70
     0
300
3/16" = 1'-0"
140
0.1875
141
12.0
290
     0
  0
SCALE
  5
17460
102
{ACAD_REACTORS
330
17447
102
}
330
17447
100
AcDbScale
 70
     0
300
1/4" = 1'-0"
140
0.25
141
12.0
290
     0
  0
SCALE
  5
17461
102
{ACAD_REACTORS
330
17447
102
}
330
17447
100
AcDbScale
 70
     0
300
3/8" = 1'-0"
140
0.375
141
12.0
290
     0
  0
SCALE
  5
17462
102
{ACAD_REACTORS
330
17447
102
}
330
17447
100
AcDbScale
 70
     0
300
1/2" = 1'-0"
140
0.5
141
12.0
290
     0
  0
SCALE
  5
17463
102
{ACAD_REACTORS
330
17447
102
}
330
17447
100
AcDbScale
 70
     0
300
3/4" = 1'-0"
140
0.75
141
12.0
290
     0
  0
SCALE
  5
17464
102
{ACAD_REACTORS
330
17447
102
}
330
17447
100
AcDbScale
 70
     0
300
1" = 1'-0"
140
1.0
141
12.0
290
     0
  0
SCALE
  5
17465
102
{ACAD_REACTORS
330
17447
102
}
330
17447
100
AcDbScale
 70
     0
300
1-1/2" = 1'-0"
140
1.5
141
12.0
290
     0
  0
SCALE
  5
17466
102
{ACAD_REACTORS
330
17447
102
}
330
17447
100
AcDbScale
 70
     0
300
3" = 1'-0"
140
3.0
141
12.0
290
     0
  0
SCALE
  5
17467
102
{ACAD_REACTORS
330
17447
102
}
330
17447
100
AcDbScale
 70
     0
300
6" = 1'-0"
140
6.0
141
12.0
290
     0
  0
SCALE
  5
17468
102
{ACAD_REACTORS
330
17447
102
}
330
17447
100
AcDbScale
 70
     0
300
1'-0" = 1'-0"
140
12.0
141
12.0
290
     0
  0
TABLESTYLE
  5
15B35
102
{ACAD_XDICTIONARY
360
17D64
102
}
102
{ACAD_REACTORS
330
15B34
102
}
330
15B34
100
AcDbTableStyle
280
     0
  3
Standard
 70
     0
 71
     0
 40
0.06
 41
0.06
280
     0
281
     0
  7
STANDARD
140
0.18
170
     2
 62
     0
 63
     7
283
     0
 90
      512
 91
        0
  1

274
    -2
284
     1
 64
     0
275
    -2
285
     1
 65
     0
276
    -2
286
     1
 66
     0
277
    -2
287
     1
 67
     0
278
    -2
288
     1
 68
     0
279
    -2
289
     1
 69
     0
  7
STANDARD
140
0.25
170
     5
 62
     0
 63
     7
283
     0
 90
      512
 91
        0
  1

274
    -2
284
     1
 64
     0
275
    -2
285
     1
 65
     0
276
    -2
286
     1
 66
     0
277
    -2
287
     1
 67
     0
278
    -2
288
     1
 68
     0
279
    -2
289
     1
 69
     0
  7
STANDARD
140
0.18
170
     5
 62
     0
 63
     7
283
     0
 90
      512
 91
        0
  1

274
    -2
284
     1
 64
     0
275
    -2
285
     1
 65
     0
276
    -2
286
     1
 66
     0
277
    -2
287
     1
 67
     0
278
    -2
288
     1
 68
     0
279
    -2
289
     1
 69
     0
1001
ACAD
1000
AcRTDxfName
1000
TABLESTYLE
1000
AcRTDxfName
1000
TABLESTYLE
1000
AcRTDxfName
1000
TABLESTYLE
1000
AcRTDxfName
1000
TABLESTYLE
1000
AcRTDxfName
1000
TABLESTYLE
  0
VISUALSTYLE
  5
15B29
102
{ACAD_REACTORS
330
15B23
102
}
330
15B23
100
AcDbVisualStyle
  2
2dWireframe
 70
     4
177
     2
291
     0
 71
     0
176
     1
 72
     2
176
     1
 73
     0
176
     1
 90
        0
176
     1
 40
0.6
176
     1
 41
30.0
176
     1
 63
     7
176
     1
 74
     1
176
     1
 91
        4
176
     1
 64
     7
176
     1
 65
   257
176
     1
 75
     1
176
     1
175
     1
176
     1
 42
1.0
176
     1
 92
        0
176
     1
 66
   257
176
     1
 43
1.0
176
     1
 76
     1
176
     1
 77
     6
176
     1
 78
     2
176
     1
 67
     7
176
     1
 79
     5
176
     1
170
     0
176
     1
171
     0
176
     1
290
     0
176
     1
 93
        1
176
     1
 44
0.0
176
     1
173
     0
176
     1
1001
ACAD
1000
AcRTDxfName
1000
VISUALSTYLE
1000
AcRTDxfName
1000
VISUALSTYLE
1000
AcRTDxfName
1000
VISUALSTYLE
1000
AcRTDxfName
1000
VISUALSTYLE
1000
AcRTDxfName
1000
VISUALSTYLE
  0
VISUALSTYLE
  5
15B2B
102
{ACAD_REACTORS
330
15B23
102
}
330
15B23
100
AcDbVisualStyle
  2
3D Hidden
 70
     6
177
     2
291
     0
 71
     1
176
     1
 72
     2
176
     1
 73
     2
176
     1
 90
        0
176
     1
 40
0.6
176
     1
 41
30.0
176
     1
 63
     7
176
     1
 74
     2
176
     1
 91
        2
176
     1
 64
     7
176
     1
 65
   257
176
     1
 75
     2
176
     1
175
     1
176
     1
 42
40.0
176
     1
 92
        0
176
     1
 66
   257
176
     1
 43
1.0
176
     1
 76
     1
176
     1
 77
     6
176
     1
 78
     2
176
     1
 67
     7
176
     1
 79
     3
176
     1
170
     0
176
     1
171
     0
176
     1
290
     0
176
     1
 93
        1
176
     1
 44
0.0
176
     1
173
     0
176
     1
1001
ACAD
1000
AcRTDxfName
1000
VISUALSTYLE
1000
AcRTDxfName
1000
VISUALSTYLE
1000
AcRTDxfName
1000
VISUALSTYLE
1000
AcRTDxfName
1000
VISUALSTYLE
1000
AcRTDxfName
1000
VISUALSTYLE
  0
VISUALSTYLE
  5
15B2A
102
{ACAD_REACTORS
330
15B23
102
}
330
15B23
100
AcDbVisualStyle
  2
3dWireframe
 70
     5
177
     2
291
     0
 71
     0
176
     1
 72
     2
176
     1
 73
     0
176
     1
 90
        0
176
     1
 40
0.6
176
     1
 41
30.0
176
     1
 63
     7
176
     1
 74
     1
176
     1
 91
        4
176
     1
 64
     7
176
     1
 65
   257
176
     1
 75
     1
176
     1
175
     1
176
     1
 42
1.0
176
     1
 92
        0
176
     1
 66
   257
176
     1
 43
1.0
176
     1
 76
     1
176
     1
 77
     6
176
     1
 78
     2
176
     1
 67
     7
176
     1
 79
     5
176
     1
170
     0
176
     1
171
     0
176
     1
290
     0
176
     1
 93
        1
176
     1
 44
0.0
176
     1
173
     0
176
     1
1001
ACAD
1000
AcRTDxfName
1000
VISUALSTYLE
1000
AcRTDxfName
1000
VISUALSTYLE
1000
AcRTDxfName
1000
VISUALSTYLE
1000
AcRTDxfName
1000
VISUALSTYLE
1000
AcRTDxfName
1000
VISUALSTYLE
  0
VISUALSTYLE
  5
15B28
102
{ACAD_REACTORS
330
15B23
102
}
330
15B23
100
AcDbVisualStyle
  2
Basic
 70
     7
177
     2
291
     1
 71
     1
176
     1
 72
     0
176
     1
 73
     1
176
     1
 90
        0
176
     1
 40
0.6
176
     1
 41
30.0
176
     1
 63
     7
176
     1
 74
     0
176
     1
 91
        4
176
     1
 64
     7
176
     1
 65
   257
176
     1
 75
     1
176
     1
175
     1
176
     1
 42
1.0
176
     1
 92
        8
176
     1
 66
     7
176
     1
 43
1.0
176
     1
 76
     1
176
     1
 77
     6
176
     1
 78
     2
176
     1
 67
     7
176
     1
 79
     5
176
     1
170
     0
176
     1
171
     0
176
     1
290
     0
176
     1
 93
        1
176
     1
 44
0.0
176
     1
173
     0
176
     1
1001
ACAD
1000
AcRTDxfName
1000
VISUALSTYLE
1000
AcRTDxfName
1000
VISUALSTYLE
1000
AcRTDxfName
1000
VISUALSTYLE
1000
AcRTDxfName
1000
VISUALSTYLE
1000
AcRTDxfName
1000
VISUALSTYLE
  0
VISUALSTYLE
  5
15B2F
102
{ACAD_REACTORS
330
15B23
102
}
330
15B23
100
AcDbVisualStyle
  2
Brighten
 70
    12
177
     2
291
     1
 71
     2
176
     1
 72
     2
176
     1
 73
     0
176
     1
 90
        0
176
     1
 40
0.6
176
     1
 41
30.0
176
     1
 63
     7
176
     1
 74
     1
176
     1
 91
        4
176
     1
 64
     7
176
     1
 65
   257
176
     1
 75
     1
176
     1
175
     1
176
     1
 42
1.0
176
     1
 92
        8
176
     1
 66
     7
176
     1
 43
1.0
176
     1
 76
     1
176
     1
 77
     6
176
     1
 78
     2
176
     1
 67
     7
176
     1
 79
     5
176
     1
170
     0
176
     1
171
     0
176
     1
290
     0
176
     1
 93
        1
176
     1
 44
50.0
176
     1
173
     0
176
     1
1001
ACAD
1000
AcRTDxfName
1000
VISUALSTYLE
1000
AcRTDxfName
1000
VISUALSTYLE
1000
AcRTDxfName
1000
VISUALSTYLE
1000
AcRTDxfName
1000
VISUALSTYLE
1000
AcRTDxfName
1000
VISUALSTYLE
  0
VISUALSTYLE
  5
15B33
102
{ACAD_REACTORS
330
15B23
102
}
330
15B23
100
AcDbVisualStyle
  2
ColorChange
 70
    16
177
     2
291
     1
 71
     2
176
     1
 72
     2
176
     1
 73
     3
176
     1
 90
        0
176
     1
 40
0.6
176
     1
 41
30.0
176
     1
 63
     8
176
     1
 74
     1
176
     1
 91
        4
176
     1
 64
     7
176
     1
 65
   257
176
     1
 75
     1
176
     1
175
     1
176
     1
 42
1.0
176
     1
 92
        8
176
     1
 66
     8
176
     1
 43
1.0
176
     1
 76
     1
176
     1
 77
     6
176
     1
 78
     2
176
     1
 67
     7
176
     1
 79
     5
176
     1
170
     0
176
     1
171
     0
176
     1
290
     0
176
     1
 93
        1
176
     1
 44
0.0
176
     1
173
     0
176
     1
1001
ACAD
1000
AcRTDxfName
1000
VISUALSTYLE
1000
AcRTDxfName
1000
VISUALSTYLE
1000
AcRTDxfName
1000
VISUALSTYLE
1000
AcRTDxfName
1000
VISUALSTYLE
1000
AcRTDxfName
1000
VISUALSTYLE
  0
VISUALSTYLE
  5
15B2C
102
{ACAD_REACTORS
330
15B23
102
}
330
15B23
100
AcDbVisualStyle
  2
Conceptual
 70
     9
177
     2
291
     0
 71
     3
176
     1
 72
     2
176
     1
 73
     0
176
     1
 90
        0
176
     1
 40
0.6
176
     1
 41
30.0
176
     1
 63
     7
176
     1
 74
     2
176
     1
 91
        2
176
     1
 64
     7
176
     1
 65
   257
176
     1
 75
     1
176
     1
175
     1
176
     1
 42
40.0
176
     1
 92
        8
176
     1
 66
     7
176
     1
 43
1.0
176
     1
 76
     1
176
     1
 77
     6
176
     1
 78
     2
176
     1
 67
     7
176
     1
 79
     3
176
     1
170
     0
176
     1
171
     0
176
     1
290
     0
176
     1
 93
        1
176
     1
 44
0.0
176
     1
173
     0
176
     1
1001
ACAD
1000
AcRTDxfName
1000
VISUALSTYLE
1000
AcRTDxfName
1000
VISUALSTYLE
1000
AcRTDxfName
1000
VISUALSTYLE
1000
AcRTDxfName
1000
VISUALSTYLE
1000
AcRTDxfName
1000
VISUALSTYLE
  0
VISUALSTYLE
  5
15B2E
102
{ACAD_REACTORS
330
15B23
102
}
330
15B23
100
AcDbVisualStyle
  2
Dim
 70
    11
177
     2
291
     1
 71
     2
176
     1
 72
     2
176
     1
 73
     0
176
     1
 90
        0
176
     1
 40
0.6
176
     1
 41
30.0
176
     1
 63
     7
176
     1
 74
     1
176
     1
 91
        4
176
     1
 64
     7
176
     1
 65
   257
176
     1
 75
     1
176
     1
175
     1
176
     1
 42
1.0
176
     1
 92
        8
176
     1
 66
     7
176
     1
 43
1.0
176
     1
 76
     1
176
     1
 77
     6
176
     1
 78
     2
176
     1
 67
     7
176
     1
 79
     5
176
     1
170
     0
176
     1
171
     0
176
     1
290
     0
176
     1
 93
        1
176
     1
 44
-50.0
176
     1
173
     0
176
     1
1001
ACAD
1000
AcRTDxfName
1000
VISUALSTYLE
1000
AcRTDxfName
1000
VISUALSTYLE
1000
AcRTDxfName
1000
VISUALSTYLE
1000
AcRTDxfName
1000
VISUALSTYLE
1000
AcRTDxfName
1000
VISUALSTYLE
  0
VISUALSTYLE
  5
17446
102
{ACAD_REACTORS
330
15B23
102
}
330
15B23
100
AcDbVisualStyle
  2
EdgeColorOff
 70
    22
177
     2
291
     1
 71
     2
176
     0
 72
     2
176
     0
 73
     0
176
     0
 90
        0
176
     0
 40
0.6
176
     0
 41
30.0
176
     0
 63
     7
421
 16777215
176
     0
 74
     1
176
     0
 91
        4
176
     0
 64
     7
176
     0
 65
   257
176
     0
 75
     1
176
     0
175
     1
176
     0
 42
1.0
176
     0
 92
        8
176
     2
 66
     7
176
     0
 43
1.0
176
     0
 76
     1
176
     0
 77
     6
176
     0
 78
     2
176
     0
 67
     7
176
     0
 79
     5
176
     0
170
     0
176
     0
171
     0
176
     0
290
     0
176
     0
 93
        1
176
     0
 44
0.0
176
     0
173
     0
176
     0
  0
VISUALSTYLE
  5
15B32
102
{ACAD_REACTORS
330
15B23
102
}
330
15B23
100
AcDbVisualStyle
  2
Facepattern
 70
    15
177
     2
291
     1
 71
     2
176
     1
 72
     2
176
     1
 73
     0
176
     1
 90
        0
176
     1
 40
0.6
176
     1
 41
30.0
176
     1
 63
     7
176
     1
 74
     1
176
     1
 91
        4
176
     1
 64
     7
176
     1
 65
   257
176
     1
 75
     1
176
     1
175
     1
176
     1
 42
1.0
176
     1
 92
        8
176
     1
 66
     7
176
     1
 43
1.0
176
     1
 76
     1
176
     1
 77
     6
176
     1
 78
     2
176
     1
 67
     7
176
     1
 79
     5
176
     1
170
     0
176
     1
171
     0
176
     1
290
     0
176
     1
 93
        1
176
     1
 44
0.0
176
     1
173
     0
176
     1
1001
ACAD
1000
AcRTDxfName
1000
VISUALSTYLE
1000
AcRTDxfName
1000
VISUALSTYLE
1000
AcRTDxfName
1000
VISUALSTYLE
1000
AcRTDxfName
1000
VISUALSTYLE
1000
AcRTDxfName
1000
VISUALSTYLE
  0
VISUALSTYLE
  5
15B24
102
{ACAD_REACTORS
330
15B23
102
}
330
15B23
100
AcDbVisualStyle
  2
Flat
 70
     0
177
     2
291
     1
 71
     2
176
     1
 72
     1
176
     1
 73
     1
176
     1
 90
        2
176
     1
 40
0.6
176
     1
 41
30.0
176
     1
 63
     7
176
     1
 74
     0
176
     1
 91
        4
176
     1
 64
     7
176
     1
 65
   257
176
     1
 75
     1
176
     1
175
     1
176
     1
 42
1.0
176
     1
 92
        8
176
     1
 66
     7
176
     1
 43
1.0
176
     1
 76
     1
176
     1
 77
     6
176
     1
 78
     2
176
     1
 67
     7
176
     1
 79
     5
176
     1
170
     0
176
     1
171
     0
176
     1
290
     0
176
     1
 93
       13
176
     1
 44
0.0
176
     1
173
     0
176
     1
1001
ACAD
1000
AcRTDxfName
1000
VISUALSTYLE
1000
AcRTDxfName
1000
VISUALSTYLE
1000
AcRTDxfName
1000
VISUALSTYLE
1000
AcRTDxfName
1000
VISUALSTYLE
1000
AcRTDxfName
1000
VISUALSTYLE
  0
VISUALSTYLE
  5
15B25
102
{ACAD_REACTORS
330
15B23
102
}
330
15B23
100
AcDbVisualStyle
  2
FlatWithEdges
 70
     1
177
     2
291
     1
 71
     2
176
     1
 72
     1
176
     1
 73
     1
176
     1
 90
        2
176
     1
 40
0.6
176
     1
 41
30.0
176
     1
 63
     7
176
     1
 74
     1
176
     1
 91
        4
176
     1
 64
     7
176
     1
 65
   257
176
     1
 75
     1
176
     1
175
     1
176
     1
 42
1.0
176
     1
 92
        0
176
     1
 66
   257
176
     1
 43
1.0
176
     1
 76
     1
176
     1
 77
     6
176
     1
 78
     2
176
     1
 67
     7
176
     1
 79
     5
176
     1
170
     0
176
     1
171
     0
176
     1
290
     0
176
     1
 93
       13
176
     1
 44
0.0
176
     1
173
     0
176
     1
1001
ACAD
1000
AcRTDxfName
1000
VISUALSTYLE
1000
AcRTDxfName
1000
VISUALSTYLE
1000
AcRTDxfName
1000
VISUALSTYLE
1000
AcRTDxfName
1000
VISUALSTYLE
1000
AcRTDxfName
1000
VISUALSTYLE
  0
VISUALSTYLE
  5
15B26
102
{ACAD_REACTORS
330
15B23
102
}
330
15B23
100
AcDbVisualStyle
  2
Gouraud
 70
     2
177
     2
291
     1
 71
     2
176
     1
 72
     2
176
     1
 73
     1
176
     1
 90
        2
176
     1
 40
0.6
176
     1
 41
30.0
176
     1
 63
     7
176
     1
 74
     0
176
     1
 91
        4
176
     1
 64
     7
176
     1
 65
   257
176
     1
 75
     1
176
     1
175
     1
176
     1
 42
1.0
176
     1
 92
        0
176
     1
 66
     7
176
     1
 43
1.0
176
     1
 76
     1
176
     1
 77
     6
176
     1
 78
     2
176
     1
 67
     7
176
     1
 79
     5
176
     1
170
     0
176
     1
171
     0
176
     1
290
     0
176
     1
 93
       13
176
     1
 44
0.0
176
     1
173
     0
176
     1
1001
ACAD
1000
AcRTDxfName
1000
VISUALSTYLE
1000
AcRTDxfName
1000
VISUALSTYLE
1000
AcRTDxfName
1000
VISUALSTYLE
1000
AcRTDxfName
1000
VISUALSTYLE
1000
AcRTDxfName
1000
VISUALSTYLE
  0
VISUALSTYLE
  5
15B27
102
{ACAD_REACTORS
330
15B23
102
}
330
15B23
100
AcDbVisualStyle
  2
GouraudWithEdges
 70
     3
177
     2
291
     1
 71
     2
176
     1
 72
     2
176
     1
 73
     1
176
     1
 90
        2
176
     1
 40
0.6
176
     1
 41
30.0
176
     1
 63
     7
176
     1
 74
     1
176
     1
 91
        4
176
     1
 64
     7
176
     1
 65
   257
176
     1
 75
     1
176
     1
175
     1
176
     1
 42
1.0
176
     1
 92
        0
176
     1
 66
   257
176
     1
 43
1.0
176
     1
 76
     1
176
     1
 77
     6
176
     1
 78
     2
176
     1
 67
     7
176
     1
 79
     5
176
     1
170
     0
176
     1
171
     0
176
     1
290
     0
176
     1
 93
       13
176
     1
 44
0.0
176
     1
173
     0
176
     1
1001
ACAD
1000
AcRTDxfName
1000
VISUALSTYLE
1000
AcRTDxfName
1000
VISUALSTYLE
1000
AcRTDxfName
1000
VISUALSTYLE
1000
AcRTDxfName
1000
VISUALSTYLE
1000
AcRTDxfName
1000
VISUALSTYLE
  0
VISUALSTYLE
  5
17D6D
102
{ACAD_REACTORS
330
15B23
102
}
330
15B23
100
AcDbVisualStyle
  2
Hidden
 70
     6
177
     2
291
     0
 71
     1
176
     1
 72
     2
176
     1
 73
     2
176
     1
 90
        0
176
     1
 40
0.6
176
     1
 41
30.0
176
     1
 63
     7
421
 16777215
176
     1
 74
     2
176
     1
 91
        2
176
     1
 64
     7
176
     1
 65
   257
176
     1
 75
     2
176
     1
175
     1
176
     1
 42
40.0
176
     1
 92
        0
176
     1
 66
   257
176
     1
 43
1.0
176
     1
 76
     1
176
     1
 77
     6
176
     1
 78
     2
176
     1
 67
     7
176
     1
 79
     3
176
     1
170
     0
176
     1
171
     0
176
     1
290
     0
176
     1
 93
        1
176
     1
 44
0.0
176
     1
173
     0
176
     1
  0
VISUALSTYLE
  5
17444
102
{ACAD_REACTORS
330
15B23
102
}
330
15B23
100
AcDbVisualStyle
  2
JitterOff
 70
    20
177
     2
291
     1
 71
     2
176
     0
 72
     2
176
     0
 73
     0
176
     0
 90
        0
176
     0
 40
0.6
176
     0
 41
30.0
176
     0
 63
     7
421
 16777215
176
     0
 74
     1
176
     0
 91
        4
176
     0
 64
     7
176
     0
 65
   257
176
     0
 75
     1
176
     0
175
     1
176
     0
 42
1.0
176
     0
 92
       10
176
     2
 66
     7
176
     0
 43
1.0
176
     0
 76
     1
176
     0
 77
     6
176
     0
 78
     2
176
     0
 67
     7
176
     0
 79
     5
176
     0
170
     0
176
     0
171
     0
176
     0
290
     0
176
     0
 93
        1
176
     0
 44
0.0
176
     0
173
     0
176
     0
  0
VISUALSTYLE
  5
15B31
102
{ACAD_REACTORS
330
15B23
102
}
330
15B23
100
AcDbVisualStyle
  2
Linepattern
 70
    14
177
     2
291
     1
 71
     2
176
     1
 72
     2
176
     1
 73
     0
176
     1
 90
        0
176
     1
 40
0.6
176
     1
 41
30.0
176
     1
 63
     7
176
     1
 74
     1
176
     1
 91
        4
176
     1
 64
     7
176
     1
 65
   257
176
     1
 75
     7
176
     1
175
     7
176
     1
 42
1.0
176
     1
 92
        8
176
     1
 66
     7
176
     1
 43
1.0
176
     1
 76
     1
176
     1
 77
     6
176
     1
 78
     2
176
     1
 67
     7
176
     1
 79
     5
176
     1
170
     0
176
     1
171
     0
176
     1
290
     0
176
     1
 93
        1
176
     1
 44
0.0
176
     1
173
     0
176
     1
1001
ACAD
1000
AcRTDxfName
1000
VISUALSTYLE
1000
AcRTDxfName
1000
VISUALSTYLE
1000
AcRTDxfName
1000
VISUALSTYLE
1000
AcRTDxfName
1000
VISUALSTYLE
1000
AcRTDxfName
1000
VISUALSTYLE
  0
VISUALSTYLE
  5
17445
102
{ACAD_REACTORS
330
15B23
102
}
330
15B23
100
AcDbVisualStyle
  2
OverhangOff
 70
    21
177
     2
291
     1
 71
     2
176
     0
 72
     2
176
     0
 73
     0
176
     0
 90
        0
176
     0
 40
0.6
176
     0
 41
30.0
176
     0
 63
     7
421
 16777215
176
     0
 74
     1
176
     0
 91
        4
176
     0
 64
     7
176
     0
 65
   257
176
     0
 75
     1
176
     0
175
     1
176
     0
 42
1.0
176
     0
 92
        9
176
     2
 66
     7
176
     0
 43
1.0
176
     0
 76
     1
176
     0
 77
     6
176
     0
 78
     2
176
     0
 67
     7
176
     0
 79
     5
176
     0
170
     0
176
     0
171
     0
176
     0
290
     0
176
     0
 93
        1
176
     0
 44
0.0
176
     0
173
     0
176
     0
  0
VISUALSTYLE
  5
15B2D
102
{ACAD_REACTORS
330
15B23
102
}
330
15B23
100
AcDbVisualStyle
  2
Realistic
 70
     8
177
     2
291
     0
 71
     2
176
     1
 72
     2
176
     1
 73
     0
176
     1
 90
        0
176
     1
 40
0.6
176
     1
 41
30.0
176
     1
 63
     7
176
     1
 74
     1
176
     1
 91
        0
176
     1
 64
     7
176
     1
 65
   257
176
     1
 75
     1
176
     1
175
     1
176
     1
 42
1.0
176
     1
 92
        8
176
     1
 66
     8
176
     1
 43
1.0
176
     1
 76
     1
176
     1
 77
     6
176
     1
 78
     2
176
     1
 67
     7
176
     1
 79
     5
176
     1
170
     0
176
     1
171
     0
176
     1
290
     0
176
     1
 93
       13
176
     1
 44
0.0
176
     1
173
     0
176
     1
1001
ACAD
1000
AcRTDxfName
1000
VISUALSTYLE
1000
AcRTDxfName
1000
VISUALSTYLE
1000
AcRTDxfName
1000
VISUALSTYLE
1000
AcRTDxfName
1000
VISUALSTYLE
1000
AcRTDxfName
1000
VISUALSTYLE
  0
VISUALSTYLE
  5
17D72
102
{ACAD_REACTORS
330
15B23
102
}
330
15B23
100
AcDbVisualStyle
  2
Shaded
 70
    27
177
     2
291
     0
 71
     2
176
     1
 72
     2
176
     1
 73
     1
176
     1
 90
        2
176
     1
 40
0.6
176
     1
 41
30.0
176
     1
 63
     7
421
 16777215
176
     1
 74
     0
176
     1
 91
        4
176
     1
 64
     7
176
     1
 65
   257
176
     1
 75
     1
176
     1
175
     1
176
     1
 42
1.0
176
     1
 92
        8
176
     1
 66
   257
176
     1
 43
1.0
176
     1
 76
     1
176
     1
 77
     6
176
     1
 78
     2
176
     1
 67
     8
425
  7895160
176
     1
 79
     3
176
     1
170
     0
176
     1
171
     0
176
     1
290
     0
176
     1
 93
        5
176
     1
 44
0.0
176
     1
173
     0
176
     1
  0
VISUALSTYLE
  5
17D71
102
{ACAD_REACTORS
330
15B23
102
}
330
15B23
100
AcDbVisualStyle
  2
Shaded with edges
 70
    26
177
     2
291
     0
 71
     2
176
     1
 72
     2
176
     1
 73
     1
176
     1
 90
        2
176
     1
 40
0.6
176
     1
 41
30.0
176
     1
 63
     7
421
 16777215
176
     1
 74
     1
176
     1
 91
       10
176
     1
 64
     7
176
     1
 65
   257
176
     1
 75
     2
176
     1
175
     1
176
     1
 42
1.0
176
     1
 92
        8
176
     1
 66
   257
176
     1
 43
1.0
176
     1
 76
     1
176
     1
 77
     6
176
     1
 78
     2
176
     1
 67
     7
176
     1
 79
     3
176
     1
170
     0
176
     1
171
     0
176
     1
290
     0
176
     1
 93
        5
176
     1
 44
0.0
176
     1
173
     0
176
     1
  0
VISUALSTYLE
  5
17D6E
102
{ACAD_REACTORS
330
15B23
102
}
330
15B23
100
AcDbVisualStyle
  2
Shades of Gray
 70
    23
177
     2
291
     0
 71
     2
176
     1
 72
     2
176
     1
 73
     3
176
     1
 90
        0
176
     1
 40
0.6
176
     1
 41
30.0
176
     1
 63
     7
421
 16777215
176
     1
 74
     2
176
     1
 91
        2
176
     1
 64
     7
176
     1
 65
     7
176
     1
 75
     1
176
     1
175
     1
176
     1
 42
40.0
176
     1
 92
        8
176
     1
 66
     7
176
     1
 43
1.0
176
     1
 76
     1
176
     1
 77
     6
176
     1
 78
     2
176
     1
 67
     7
176
     1
 79
     3
176
     1
170
     0
176
     1
171
     0
176
     1
290
     0
176
     1
 93
        1
176
     1
 44
0.0
176
     1
173
     0
176
     1
  0
VISUALSTYLE
  5
17D6F
102
{ACAD_REACTORS
330
15B23
102
}
330
15B23
100
AcDbVisualStyle
  2
Sketchy
 70
    24
177
     2
291
     0
 71
     1
176
     1
 72
     2
176
     1
 73
     2
176
     1
 90
        0
176
     1
 40
0.6
176
     1
 41
30.0
176
     1
 63
     7
421
 16777215
176
     1
 74
     2
176
     1
 91
        2
176
     1
 64
     7
176
     1
 65
     7
176
     1
 75
     1
176
     1
175
     1
176
     1
 42
40.0
176
     1
 92
       11
176
     1
 66
     7
176
     1
 43
1.0
176
     1
 76
     1
176
     1
 77
     6
176
     1
 78
     2
176
     1
 67
     7
176
     1
 79
     6
176
     1
170
     0
176
     1
171
     0
176
     1
290
     0
176
     1
 93
        1
176
     1
 44
0.0
176
     1
173
     0
176
     1
  0
VISUALSTYLE
  5
15B30
102
{ACAD_REACTORS
330
15B23
102
}
330
15B23
100
AcDbVisualStyle
  2
Thicken
 70
    13
177
     2
291
     1
 71
     2
176
     1
 72
     2
176
     1
 73
     0
176
     1
 90
        0
176
     1
 40
0.6
176
     1
 41
30.0
176
     1
 63
     7
176
     1
 74
     1
176
     1
 91
        4
176
     1
 64
     7
176
     1
 65
   257
176
     1
 75
     1
176
     1
175
     1
176
     1
 42
1.0
176
     1
 92
       12
176
     1
 66
     7
176
     1
 43
1.0
176
     1
 76
     1
176
     1
 77
     6
176
     1
 78
     2
176
     1
 67
     7
176
     1
 79
     5
176
     1
170
     0
176
     1
171
     0
176
     1
290
     0
176
     1
 93
        1
176
     1
 44
0.0
176
     1
173
     0
176
     1
1001
ACAD
1000
AcRTDxfName
1000
VISUALSTYLE
1000
AcRTDxfName
1000
VISUALSTYLE
1000
AcRTDxfName
1000
VISUALSTYLE
1000
AcRTDxfName
1000
VISUALSTYLE
1000
AcRTDxfName
1000
VISUALSTYLE
  0
VISUALSTYLE
  5
17D6C
102
{ACAD_REACTORS
330
15B23
102
}
330
15B23
100
AcDbVisualStyle
  2
Wireframe
 70
     5
177
     2
291
     0
 71
     0
176
     1
 72
     2
176
     1
 73
     0
176
     1
 90
        0
176
     1
 40
0.6
176
     1
 41
30.0
176
     1
 63
     7
421
 16777215
176
     1
 74
     1
176
     1
 91
        4
176
     1
 64
     7
176
     1
 65
   257
176
     1
 75
     1
176
     1
175
     1
176
     1
 42
1.0
176
     1
 92
        0
176
     1
 66
   257
176
     1
 43
1.0
176
     1
 76
     1
176
     1
 77
     6
176
     1
 78
     2
176
     1
 67
     7
176
     1
 79
     3
176
     1
170
     0
176
     1
171
     0
176
     1
290
     0
176
     1
 93
        1
176
     1
 44
0.0
176
     1
173
     0
176
     1
  0
VISUALSTYLE
  5
17D70
102
{ACAD_REACTORS
330
15B23
102
}
330
15B23
100
AcDbVisualStyle
  2
X-Ray
 70
    25
177
     2
291
     0
 71
     2
176
     1
 72
     2
176
     1
 73
     1
176
     1
 90
        1
176
     1
 40
0.5
176
     1
 41
30.0
176
     1
 63
     7
421
 16777215
176
     1
 74
     1
176
     1
 91
        0
176
     1
 64
     7
176
     1
 65
   257
176
     1
 75
     1
176
     1
175
     1
176
     1
 42
1.0
176
     1
 92
        8
176
     1
 66
     7
176
     1
 43
1.0
176
     1
 76
     1
176
     1
 77
     6
176
     1
 78
     2
176
     1
 67
     7
176
     1
 79
     3
176
     1
170
     0
176
     1
171
     0
176
     1
290
     0
176
     1
 93
       13
176
     1
 44
0.0
176
     1
173
     0
176
     1
  0
DICTIONARYVAR
  5
17D60
102
{ACAD_REACTORS
330
13B02
102
}
330
13B02
100
DictionaryVariables
280
     0
  1
1:1
  0
DICTIONARYVAR
  5
17D5E
102
{ACAD_REACTORS
330
13B02
102
}
330
13B02
100
DictionaryVariables
280
     0
  1
STANDARD
  0
DICTIONARYVAR
  5
15CCA
102
{ACAD_REACTORS
330
13B02
102
}
330
13B02
100
DictionaryVariables
280
     0
  1
STANDARD
  0
DICTIONARYVAR
  5
13B03
102
{ACAD_REACTORS
330
13B02
102
}
330
13B02
100
DictionaryVariables
280
     0
  1
1
  0
DICTIONARYVAR
  5
15CCC
102
{ACAD_REACTORS
330
13B02
102
}
330
13B02
100
DictionaryVariables
280
     0
  1
0
  0
DICTIONARYVAR
  5
17D62
102
{ACAD_REACTORS
330
13B02
102
}
330
13B02
100
DictionaryVariables
280
     0
  1
1
  0
DICTIONARYVAR
  5
17D63
102
{ACAD_REACTORS
330
13B02
102
}
330
13B02
100
DictionaryVariables
280
     0
  1
15
  0
DICTIONARYVAR
  5
17D61
102
{ACAD_REACTORS
330
13B02
102
}
330
13B02
100
DictionaryVariables
280
     0
  1
0
  0
DICTIONARYVAR
  5
17D5F
102
{ACAD_REACTORS
330
13B02
102
}
330
13B02
100
DictionaryVariables
280
     0
  1
0
  0
DICTIONARYVAR
  5
13B04
102
{ACAD_REACTORS
330
13B02
102
}
330
13B02
100
DictionaryVariables
280
     0
  1

  0
DICTIONARYVAR
  5
15CCB
102
{ACAD_REACTORS
330
13B02
102
}
330
13B02
100
DictionaryVariables
280
     0
  1
127
  0
DICTIONARY
  5
17D64
330
15B35
100
AcDbDictionary
280
     1
281
     1
  3
ACAD_ROUNDTRIP_2008_TABLESTYLE_CELLSTYLEMAP
360
17D75
  0
CELLSTYLEMAP
  5
17D75
102
{ACAD_REACTORS
330
17D64
102
}
330
17D64
100
AcDbCellStyleMap
 90
        3
300
CELLSTYLE
  1
TABLEFORMAT_BEGIN
 90
        5
170
     1
 91
        0
 92
    32768
 62
   257
 93
        1
300
CONTENTFORMAT
  1
CONTENTFORMAT_BEGIN
 90
        0
 91
        0
 92
      512
 93
        0
300

 40
0.0
140
1.0
 94
        5
 62
     0
340
125A2
144
0.25
309
CONTENTFORMAT_END
171
     1
301
MARGIN
  1
CELLMARGIN_BEGIN
 40
0.06
 40
0.06
 40
0.06
 40
0.06
 40
0.18
 40
0.18
309
CELLMARGIN_END
 94
        6
 95
        1
302
GRIDFORMAT
  1
GRIDFORMAT_BEGIN
 90
        0
 91
        1
 62
     0
 92
       -2
340
0
 93
        0
 40
0.045
309
GRIDFORMAT_END
 95
        2
302
GRIDFORMAT
  1
GRIDFORMAT_BEGIN
 90
        0
 91
        1
 62
     0
 92
       -2
340
0
 93
        0
 40
0.045
309
GRIDFORMAT_END
 95
        4
302
GRIDFORMAT
  1
GRIDFORMAT_BEGIN
 90
        0
 91
        1
 62
     0
 92
       -2
340
0
 93
        0
 40
0.045
309
GRIDFORMAT_END
 95
        8
302
GRIDFORMAT
  1
GRIDFORMAT_BEGIN
 90
        0
 91
        1
 62
     0
 92
       -2
340
0
 93
        0
 40
0.045
309
GRIDFORMAT_END
 95
       16
302
GRIDFORMAT
  1
GRIDFORMAT_BEGIN
 90
        0
 91
        1
 62
     0
 92
       -2
340
0
 93
        0
 40
0.045
309
GRIDFORMAT_END
 95
       32
302
GRIDFORMAT
  1
GRIDFORMAT_BEGIN
 90
        0
 91
        1
 62
     0
 92
       -2
340
0
 93
        0
 40
0.045
309
GRIDFORMAT_END
309
TABLEFORMAT_END
  1
CELLSTYLE_BEGIN
 90
        1
 91
        1
300
_TITLE
309
CELLSTYLE_END
300
CELLSTYLE
  1
TABLEFORMAT_BEGIN
 90
        5
170
     1
 91
        0
 92
        0
 62
   257
 93
        1
300
CONTENTFORMAT
  1
CONTENTFORMAT_BEGIN
 90
        0
 91
        0
 92
      512
 93
        0
300

 40
0.0
140
1.0
 94
        5
 62
     0
340
125A2
144
0.18
309
CONTENTFORMAT_END
171
     1
301
MARGIN
  1
CELLMARGIN_BEGIN
 40
0.06
 40
0.06
 40
0.06
 40
0.06
 40
0.18
 40
0.18
309
CELLMARGIN_END
 94
        6
 95
        1
302
GRIDFORMAT
  1
GRIDFORMAT_BEGIN
 90
        0
 91
        1
 62
     0
 92
       -2
340
0
 93
        0
 40
0.045
309
GRIDFORMAT_END
 95
        2
302
GRIDFORMAT
  1
GRIDFORMAT_BEGIN
 90
        0
 91
        1
 62
     0
 92
       -2
340
0
 93
        0
 40
0.045
309
GRIDFORMAT_END
 95
        4
302
GRIDFORMAT
  1
GRIDFORMAT_BEGIN
 90
        0
 91
        1
 62
     0
 92
       -2
340
0
 93
        0
 40
0.045
309
GRIDFORMAT_END
 95
        8
302
GRIDFORMAT
  1
GRIDFORMAT_BEGIN
 90
        0
 91
        1
 62
     0
 92
       -2
340
0
 93
        0
 40
0.045
309
GRIDFORMAT_END
 95
       16
302
GRIDFORMAT
  1
GRIDFORMAT_BEGIN
 90
        0
 91
        1
 62
     0
 92
       -2
340
0
 93
        0
 40
0.045
309
GRIDFORMAT_END
 95
       32
302
GRIDFORMAT
  1
GRIDFORMAT_BEGIN
 90
        0
 91
        1
 62
     0
 92
       -2
340
0
 93
        0
 40
0.045
309
GRIDFORMAT_END
309
TABLEFORMAT_END
  1
CELLSTYLE_BEGIN
 90
        2
 91
        1
300
_HEADER
309
CELLSTYLE_END
300
CELLSTYLE
  1
TABLEFORMAT_BEGIN
 90
        5
170
     1
 91
        0
 92
        0
 62
   257
 93
        1
300
CONTENTFORMAT
  1
CONTENTFORMAT_BEGIN
 90
        0
 91
        0
 92
      512
 93
        0
300

 40
0.0
140
1.0
 94
        2
 62
     0
340
125A2
144
0.18
309
CONTENTFORMAT_END
171
     1
301
MARGIN
  1
CELLMARGIN_BEGIN
 40
0.06
 40
0.06
 40
0.06
 40
0.06
 40
0.18
 40
0.18
309
CELLMARGIN_END
 94
        6
 95
        1
302
GRIDFORMAT
  1
GRIDFORMAT_BEGIN
 90
        0
 91
        1
 62
     0
 92
       -2
340
0
 93
        0
 40
0.045
309
GRIDFORMAT_END
 95
        2
302
GRIDFORMAT
  1
GRIDFORMAT_BEGIN
 90
        0
 91
        1
 62
     0
 92
       -2
340
0
 93
        0
 40
0.045
309
GRIDFORMAT_END
 95
        4
302
GRIDFORMAT
  1
GRIDFORMAT_BEGIN
 90
        0
 91
        1
 62
     0
 92
       -2
340
0
 93
        0
 40
0.045
309
GRIDFORMAT_END
 95
        8
302
GRIDFORMAT
  1
GRIDFORMAT_BEGIN
 90
        0
 91
        1
 62
     0
 92
       -2
340
0
 93
        0
 40
0.045
309
GRIDFORMAT_END
 95
       16
302
GRIDFORMAT
  1
GRIDFORMAT_BEGIN
 90
        0
 91
        1
 62
     0
 92
       -2
340
0
 93
        0
 40
0.045
309
GRIDFORMAT_END
 95
       32
302
GRIDFORMAT
  1
GRIDFORMAT_BEGIN
 90
        0
 91
        1
 62
     0
 92
       -2
340
0
 93
        0
 40
0.045
309
GRIDFORMAT_END
309
TABLEFORMAT_END
  1
CELLSTYLE_BEGIN
 90
        3
 91
        2
300
_DATA
309
CELLSTYLE_END
  0
ENDSEC
  0
EOF
