  0
SECTION
  2
HEADER
  9
$ACADVER
  1
AC1015
  9
$ACADMAINTVER
 70
    13
  9
$DWGCODEPAGE
  3
ANSI_932
  9
$INSBASE
 10
267.0
 20
194.8999999999998
 30
0.0
  9
$EXTMIN
 10
433.9966216520333
 20
163.6908237492789
 30
-0.000000000000013
  9
$EXTMAX
 10
16382.6660542547
 20
11242.27663824599
 30
0.0000000000000023
  9
$LIMMIN
 10
0.0
 20
0.0
  9
$LIMMAX
 10
16800.0
 20
11880.0
  9
$ORTHOMODE
 70
     0
  9
$REGENMODE
 70
     1
  9
$FILLMODE
 70
     1
  9
$QTEXTMODE
 70
     0
  9
$MIRRTEXT
 70
     0
  9
$LTSCALE
 40
40.0
  9
$ATTMODE
 70
     1
  9
$TEXTSIZE
 40
0.2
  9
$TRACEWID
 40
0.05
  9
$TEXTSTYLE
  7
00
  9
$CLAYER
  8
SUNPOU
  9
$CELTYPE
  6
ByLayer
  9
$CECOLOR
 62
   256
  9
$CELTSCALE
 40
1.0
  9
$DISPSILH
 70
     0
  9
$DIMSCALE
 40
40.0
  9
$DIMASZ
 40
0.5
  9
$DIMEXO
 40
1.0
  9
$DIMDLI
 40
7.0
  9
$DIMRND
 40
0.0
  9
$DIMDLE
 40
3.0
  9
$DIMEXE
 40
1.0
  9
$DIMTP
 40
0.0
  9
$DIMTM
 40
0.0
  9
$DIMTXT
 40
2.0
  9
$DIMCEN
 40
0.0
  9
$DIMTSZ
 40
0.0
  9
$DIMTOL
 70
     0
  9
$DIMLIM
 70
     0
  9
$DIMTIH
 70
     0
  9
$DIMTOH
 70
     0
  9
$DIMSE1
 70
     0
  9
$DIMSE2
 70
     0
  9
$DIMTAD
 70
     1
  9
$DIMZIN
 70
     8
  9
$DIMBLK
  1
DOT
  9
$DIMASO
 70
     1
  9
$DIMSHO
 70
     0
  9
$DIMPOST
  1

  9
$DIMAPOST
  1

  9
$DIMALT
 70
     0
  9
$DIMALTD
 70
     2
  9
$DIMALTF
 40
25.4
  9
$DIMLFAC
 40
1.0
  9
$DIMTOFL
 70
     1
  9
$DIMTVP
 40
0.0
  9
$DIMTIX
 70
     0
  9
$DIMSOXD
 70
     0
  9
$DIMSAH
 70
     1
  9
$DIMBLK1
  1
DOT
  9
$DIMBLK2
  1
DOT
  9
$DIMSTYLE
  2
SUNPOU_申請図
  9
$DIMCLRD
 70
   256
  9
$DIMCLRE
 70
   256
  9
$DIMCLRT
 70
   256
  9
$DIMTFAC
 40
1.0
  9
$DIMGAP
 40
1.0
  9
$DIMJUST
 70
     0
  9
$DIMSD1
 70
     0
  9
$DIMSD2
 70
     0
  9
$DIMTOLJ
 70
     1
  9
$DIMTZIN
 70
     0
  9
$DIMALTZ
 70
     0
  9
$DIMALTTZ
 70
     0
  9
$DIMUPT
 70
     0
  9
$DIMDEC
 70
     4
  9
$DIMTDEC
 70
     4
  9
$DIMALTU
 70
     2
  9
$DIMALTTD
 70
     2
  9
$DIMTXSTY
  7
STANDARD
  9
$DIMAUNIT
 70
     0
  9
$DIMADEC
 70
     0
  9
$DIMALTRND
 40
0.0
  9
$DIMAZIN
 70
     0
  9
$DIMDSEP
 70
    46
  9
$DIMATFIT
 70
     3
  9
$DIMFRAC
 70
     0
  9
$DIMLDRBLK
  1
DOT
  9
$DIMLUNIT
 70
     2
  9
$DIMLWD
 70
    -2
  9
$DIMLWE
 70
    -2
  9
$DIMTMOVE
 70
     0
  9
$LUNITS
 70
     2
  9
$LUPREC
 70
     2
  9
$SKETCHINC
 40
0.1
  9
$FILLETRAD
 40
0.0
  9
$AUNITS
 70
     0
  9
$AUPREC
 70
     0
  9
$MENU
  1
A:\TIGER\MENU\TIGER
  9
$ELEVATION
 40
0.0
  9
$PELEVATION
 40
0.0
  9
$THICKNESS
 40
0.0
  9
$LIMCHECK
 70
     0
  9
$CHAMFERA
 40
0.0
  9
$CHAMFERB
 40
0.0
  9
$CHAMFERC
 40
0.0
  9
$CHAMFERD
 40
0.0
  9
$SKPOLY
 70
     0
  9
$TDCREATE
 40
2450266.571064815
  9
$TDUCREATE
 40
2450266.196064815
  9
$TDUPDATE
 40
2456332.402419340
  9
$TDUUPDATE
 40
2456332.027419340
  9
$TDINDWG
 40
0.1593789468
  9
$TDUSRTIMER
 40
0.1593789468
  9
$USRTIMER
 70
     1
  9
$ANGBASE
 50
0.0
  9
$ANGDIR
 70
     0
  9
$PDMODE
 70
     0
  9
$PDSIZE
 40
0.0
  9
$PLINEWID
 40
0.0
  9
$SPLFRAME
 70
     0
  9
$SPLINETYPE
 70
     6
  9
$SPLINESEGS
 70
     8
  9
$HANDSEED
  5
1A2CD
  9
$SURFTAB1
 70
     6
  9
$SURFTAB2
 70
     6
  9
$SURFTYPE
 70
     6
  9
$SURFU
 70
     6
  9
$SURFV
 70
     6
  9
$UCSBASE
  2

  9
$UCSNAME
  2

  9
$UCSORG
 10
0.0
 20
0.0
 30
0.0
  9
$UCSXDIR
 10
1.0
 20
0.0
 30
0.0
  9
$UCSYDIR
 10
0.0
 20
1.0
 30
0.0
  9
$UCSORTHOREF
  2

  9
$UCSORTHOVIEW
 70
     0
  9
$UCSORGTOP
 10
0.0
 20
0.0
 30
0.0
  9
$UCSORGBOTTOM
 10
0.0
 20
0.0
 30
0.0
  9
$UCSORGLEFT
 10
0.0
 20
0.0
 30
0.0
  9
$UCSORGRIGHT
 10
0.0
 20
0.0
 30
0.0
  9
$UCSORGFRONT
 10
0.0
 20
0.0
 30
0.0
  9
$UCSORGBACK
 10
0.0
 20
0.0
 30
0.0
  9
$PUCSBASE
  2

  9
$PUCSNAME
  2

  9
$PUCSORG
 10
0.0
 20
0.0
 30
0.0
  9
$PUCSXDIR
 10
1.0
 20
0.0
 30
0.0
  9
$PUCSYDIR
 10
0.0
 20
1.0
 30
0.0
  9
$PUCSORTHOREF
  2

  9
$PUCSORTHOVIEW
 70
     0
  9
$PUCSORGTOP
 10
0.0
 20
0.0
 30
0.0
  9
$PUCSORGBOTTOM
 10
0.0
 20
0.0
 30
0.0
  9
$PUCSORGLEFT
 10
0.0
 20
0.0
 30
0.0
  9
$PUCSORGRIGHT
 10
0.0
 20
0.0
 30
0.0
  9
$PUCSORGFRONT
 10
0.0
 20
0.0
 30
0.0
  9
$PUCSORGBACK
 10
0.0
 20
0.0
 30
0.0
  9
$USERI1
 70
     3
  9
$USERI2
 70
     0
  9
$USERI3
 70
     0
  9
$USERI4
 70
     0
  9
$USERI5
 70
  1103
  9
$USERR1
 40
0.0
  9
$USERR2
 40
1.0
  9
$USERR3
 40
0.0
  9
$USERR4
 40
0.0
  9
$USERR5
 40
0.0
  9
$WORLDVIEW
 70
     1
  9
$SHADEDGE
 70
     3
  9
$SHADEDIF
 70
    70
  9
$TILEMODE
 70
     1
  9
$MAXACTVP
 70
    16
  9
$PINSBASE
 10
0.0
 20
0.0
 30
0.0
  9
$PLIMCHECK
 70
     0
  9
$PEXTMIN
 10
1.000000000000000E+20
 20
1.000000000000000E+20
 30
1.000000000000000E+20
  9
$PEXTMAX
 10
-1.000000000000000E+20
 20
-1.000000000000000E+20
 30
-1.000000000000000E+20
  9
$PLIMMIN
 10
0.0
 20
0.0
  9
$PLIMMAX
 10
12.0
 20
9.0
  9
$UNITMODE
 70
     0
  9
$VISRETAIN
 70
     0
  9
$PLINEGEN
 70
     1
  9
$PSLTSCALE
 70
     0
  9
$TREEDEPTH
 70
  3020
  9
$CMLSTYLE
  2
Standard
  9
$CMLJUST
 70
     0
  9
$CMLSCALE
 40
1.0
  9
$PROXYGRAPHICS
 70
     1
  9
$MEASUREMENT
 70
     0
  9
$CELWEIGHT
370
    -1
  9
$ENDCAPS
280
     0
  9
$JOINSTYLE
280
     0
  9
$LWDISPLAY
290
     0
  9
$INSUNITS
 70
     0
  9
$HYPERLINKBASE
  1

  9
$STYLESHEET
  1

  9
$XEDIT
290
     1
  9
$CEPSNTYPE
380
     0
  9
$PSTYLEMODE
290
     1
  9
$FINGERPRINTGUID
  2
{7739EC12-5754-4FF4-A27D-38F1D6697D01}
  9
$VERSIONGUID
  2
{99D19287-0B1F-4955-9833-03DEE9526184}
  9
$EXTNAMES
290
     1
  9
$PSVPSCALE
 40
0.0
  9
$OLESTARTUP
290
     0
  0
ENDSEC
  0
SECTION
  2
CLASSES
  0
CLASS
  1
ACDBDICTIONARYWDFLT
  2
AcDbDictionaryWithDefault
  3
AutoCAD 2000
 90
        0
280
     0
281
     0
  0
CLASS
  1
ACDBPLACEHOLDER
  2
AcDbPlaceHolder
  3
AutoCAD 2000
 90
        0
280
     0
281
     0
  0
CLASS
  1
LAYOUT
  2
AcDbLayout
  3
AutoCAD 2000
 90
        0
280
     0
281
     0
  0
CLASS
  1
DICTIONARYVAR
  2
AcDbDictionaryVar
  3
AutoCAD 2000
 90
        0
280
     0
281
     0
  0
ENDSEC
  0
SECTION
  2
TABLES
  0
TABLE
  2
VPORT
  5
19BC2
330
0
100
AcDbSymbolTable
 70
     2
  0
VPORT
  5
1A2CC
330
19BC2
100
AcDbSymbolTableRecord
100
AcDbViewportTableRecord
  2
*Active
 70
     0
 10
0.0
 20
0.0
 11
1.0
 21
1.0
 12
8408.331337953367
 22
5702.983730997637
 13
0.0
 23
0.0
 14
1.0
 24
1.0
 15
0.0
 25
0.0
 16
0.0
 26
0.0
 36
1.0
 17
0.0
 27
0.0
 37
0.0
 40
11162.83361536741
 41
1.527918781725888
 42
50.0
 43
0.0
 44
0.0
 50
0.0
 51
0.0
 71
     0
 72
 10000
 73
     1
 74
     0
 75
     0
 76
     0
 77
     0
 78
     0
281
     0
 65
     1
110
0.0
120
0.0
130
0.0
111
1.0
121
0.0
131
0.0
112
0.0
122
1.0
132
0.0
 79
     0
146
0.0
  0
ENDTAB
  0
TABLE
  2
LTYPE
  5
19BBF
330
0
100
AcDbSymbolTable
 70
     7
  0
LTYPE
  5
19BCD
330
19BBF
100
AcDbSymbolTableRecord
100
AcDbLinetypeTableRecord
  2
ByBlock
 70
     0
  3

 72
    65
 73
     0
 40
0.0
  0
LTYPE
  5
19BCE
330
19BBF
100
AcDbSymbolTableRecord
100
AcDbLinetypeTableRecord
  2
ByLayer
 70
     0
  3

 72
    65
 73
     0
 40
0.0
  0
LTYPE
  5
19BCF
330
19BBF
100
AcDbSymbolTableRecord
100
AcDbLinetypeTableRecord
  2
CONTINUOUS
 70
     0
  3
実線
 72
    65
 73
     0
 40
0.0
  0
LTYPE
  5
19BDF
330
19BBF
100
AcDbSymbolTableRecord
100
AcDbLinetypeTableRecord
  2
TENSEN-
 70
     0
  3

 72
    65
 73
     2
 40
0.6000000000000001
 49
0.2
 74
     0
 49
-0.4
 74
     0
  0
LTYPE
  5
19BE0
330
19BBF
100
AcDbSymbolTableRecord
100
AcDbLinetypeTableRecord
  2
1PL-LL
 70
     0
  3

 72
    65
 73
     4
 40
106.0
 49
100.0
 74
     0
 49
-2.0
 74
     0
 49
2.0
 74
     0
 49
-2.0
 74
     0
  0
LTYPE
  5
19BE1
330
19BBF
100
AcDbSymbolTableRecord
100
AcDbLinetypeTableRecord
  2
1PL-M
 70
     0
  3

 72
    65
 73
     4
 40
15.0
 49
12.0
 74
     0
 49
-1.0
 74
     0
 49
1.0
 74
     0
 49
-1.0
 74
     0
  0
LTYPE
  5
19BE2
330
19BBF
100
AcDbSymbolTableRecord
100
AcDbLinetypeTableRecord
  2
1PL-S
 70
     0
  3

 72
    65
 73
     4
 40
4.0
 49
2.5
 74
     0
 49
-0.5
 74
     0
 49
0.5
 74
     0
 49
-0.5
 74
     0
  0
LTYPE
  5
19BE3
330
19BBF
100
AcDbSymbolTableRecord
100
AcDbLinetypeTableRecord
  2
2PL-L
 70
     0
  3

 72
    65
 73
     6
 40
60.0
 49
50.0
 74
     0
 49
-2.0
 74
     0
 49
2.0
 74
     0
 49
-2.0
 74
     0
 49
2.0
 74
     0
 49
-2.0
 74
     0
  0
LTYPE
  5
19BE4
330
19BBF
100
AcDbSymbolTableRecord
100
AcDbLinetypeTableRecord
  2
1PL-12
 70
     0
  3

 72
    65
 73
     4
 40
15.0
 49
12.0
 74
     0
 49
-1.0
 74
     0
 49
1.0
 74
     0
 49
-1.0
 74
     0
  0
ENDTAB
  0
TABLE
  2
LAYER
  5
19BBC
330
0
100
AcDbSymbolTable
 70
    21
  0
LAYER
  5
19BCA
330
19BBC
100
AcDbSymbolTableRecord
100
AcDbLayerTableRecord
  2
0
 70
     0
 62
     7
  6
CONTINUOUS
370
    -3
390
19BC9
  0
LAYER
  5
19BDC
330
19BBC
100
AcDbSymbolTableRecord
100
AcDbLayerTableRecord
  2
SUNPOU
 70
     0
 62
     4
  6
CONTINUOUS
370
    -3
390
19BC9
  0
LAYER
  5
19BE5
330
19BBC
100
AcDbSymbolTableRecord
100
AcDbLayerTableRecord
  2
U1
 70
     0
 62
     3
  6
CONTINUOUS
370
    -3
390
19BC9
  0
LAYER
  5
19BE6
330
19BBC
100
AcDbSymbolTableRecord
100
AcDbLayerTableRecord
  2
U3
 70
     0
 62
     6
  6
CONTINUOUS
370
    -3
390
19BC9
  0
LAYER
  5
19BE7
330
19BBC
100
AcDbSymbolTableRecord
100
AcDbLayerTableRecord
  2
HIKIDASHI
 70
     0
 62
     6
  6
CONTINUOUS
370
    -3
390
19BC9
  0
LAYER
  5
19BE8
330
19BBC
100
AcDbSymbolTableRecord
100
AcDbLayerTableRecord
  2
TENSEN-1
 70
     0
 62
     6
  6
TENSEN-
370
    -3
390
19BC9
  0
LAYER
  5
19BE9
330
19BBC
100
AcDbSymbolTableRecord
100
AcDbLayerTableRecord
  2
1PL-S1
 70
     0
 62
     6
  6
1PL-S
370
    -3
390
19BC9
  0
LAYER
  5
19BEA
330
19BBC
100
AcDbSymbolTableRecord
100
AcDbLayerTableRecord
  2
1PL-M1
 70
     0
 62
     6
  6
1PL-M
370
    -3
390
19BC9
  0
LAYER
  5
19BEB
330
19BBC
100
AcDbSymbolTableRecord
100
AcDbLayerTableRecord
  2
NAME
 70
     0
 62
    20
  6
CONTINUOUS
370
    -3
390
19BC9
  0
LAYER
  5
19BEC
330
19BBC
100
AcDbSymbolTableRecord
100
AcDbLayerTableRecord
  2
FILENAME
 70
     0
 62
     7
  6
CONTINUOUS
370
    -3
390
19BC9
  0
LAYER
  5
19BED
330
19BBC
100
AcDbSymbolTableRecord
100
AcDbLayerTableRecord
  2
CENTER
 70
     0
 62
     6
  6
1PL-LL
370
    -3
390
19BC9
  0
LAYER
  5
19BEE
330
19BBC
100
AcDbSymbolTableRecord
100
AcDbLayerTableRecord
  2
KISO
 70
     0
 62
     2
  6
CONTINUOUS
370
    -3
390
19BC9
  0
LAYER
  5
19BEF
330
19BBC
100
AcDbSymbolTableRecord
100
AcDbLayerTableRecord
  2
BOLT
 70
     0
 62
     4
  6
CONTINUOUS
370
    -3
390
19BC9
  0
LAYER
  5
19BF0
330
19BBC
100
AcDbSymbolTableRecord
100
AcDbLayerTableRecord
  2
YANE
 70
     0
 62
     1
  6
1PL-12
370
    -3
390
19BC9
  0
LAYER
  5
19BF1
330
19BBC
100
AcDbSymbolTableRecord
100
AcDbLayerTableRecord
  2
HATCH
 70
     0
 62
     1
  6
CONTINUOUS
370
    -3
390
19BC9
  0
LAYER
  5
19BF2
330
19BBC
100
AcDbSymbolTableRecord
100
AcDbLayerTableRecord
  2
HASHIRA
 70
     0
 62
     3
  6
CONTINUOUS
370
    -3
390
19BC9
  0
LAYER
  5
19BF3
330
19BBC
100
AcDbSymbolTableRecord
100
AcDbLayerTableRecord
  2
DOMAKON
 70
     0
 62
     2
  6
CONTINUOUS
370
    -3
390
19BC9
  0
LAYER
  5
19BF4
330
19BBC
100
AcDbSymbolTableRecord
100
AcDbLayerTableRecord
  2
YODOROGO
 70
     0
 62
   130
  6
CONTINUOUS
370
    -3
390
19BC9
  0
LAYER
  5
19BF5
330
19BBC
100
AcDbSymbolTableRecord
100
AcDbLayerTableRecord
  2
WAKUSEN-01
 70
     0
 62
    50
  6
CONTINUOUS
370
    -3
390
19BC9
  0
LAYER
  5
19BF6
330
19BBC
100
AcDbSymbolTableRecord
100
AcDbLayerTableRecord
  2
WAKUSEN-02
 70
     0
 62
   130
  6
CONTINUOUS
370
    -3
390
19BC9
  0
LAYER
  5
19BF7
330
19BBC
100
AcDbSymbolTableRecord
100
AcDbLayerTableRecord
  2
WAKUMOJI-01
 70
     0
 62
   130
  6
CONTINUOUS
370
    -3
390
19BC9
  0
ENDTAB
  0
TABLE
  2
STYLE
  5
19BBD
330
0
100
AcDbSymbolTable
 70
     5
  0
STYLE
  5
19BCB
330
19BBD
100
AcDbSymbolTableRecord
100
AcDbTextStyleTableRecord
  2
STANDARD
 70
     0
 40
3.0
 41
1.0
 50
0.0
 71
     0
 42
0.2
  3
ROMANS
  4
EXTFONT
  0
STYLE
  5
19BDD
330
19BBD
100
AcDbSymbolTableRecord
100
AcDbTextStyleTableRecord
  2
00
 70
     0
 40
0.0
 41
0.6666666666666666
 50
0.0
 71
     0
 42
0.2
  3
ROMANS
  4
BIGFONT
  0
STYLE
  5
19BF8
330
19BBD
100
AcDbSymbolTableRecord
100
AcDbTextStyleTableRecord
  2
01
 70
     0
 40
3.0
 41
1.0
 50
0.0
 71
     0
 42
0.2
  3
ROMANS
  4
BIGFONT
  0
STYLE
  5
19BF9
330
19BBD
100
AcDbSymbolTableRecord
100
AcDbTextStyleTableRecord
  2
WAKUMOJI
 70
     0
 40
3.0
 41
1.0
 50
0.0
 71
     0
 42
3.0
  3
SIMPLEX
  4
BIGFONT
  0
STYLE
  5
19BFA
330
19BBD
100
AcDbSymbolTableRecord
100
AcDbTextStyleTableRecord
  2
FILENAME
 70
     0
 40
100.0
 41
1.0
 50
0.0
 71
     0
 42
100.0
  3
romans
  4
bigfont
  0
ENDTAB
  0
TABLE
  2
VIEW
  5
19BC0
330
0
100
AcDbSymbolTable
 70
     0
  0
ENDTAB
  0
TABLE
  2
UCS
  5
19BC1
330
0
100
AcDbSymbolTable
 70
     0
  0
ENDTAB
  0
TABLE
  2
APPID
  5
19BC3
330
0
100
AcDbSymbolTable
 70
     3
  0
APPID
  5
19BCC
330
19BC3
100
AcDbSymbolTableRecord
100
AcDbRegAppTableRecord
  2
ACAD
 70
     0
  0
APPID
  5
19BFB
330
19BC3
100
AcDbSymbolTableRecord
100
AcDbRegAppTableRecord
  2
AUTOCAD_POSTSCRIPT_FIGURE
 70
     0
  0
APPID
  5
19BFC
330
19BC3
100
AcDbSymbolTableRecord
100
AcDbRegAppTableRecord
  2
ACAD_PSEXT
 70
     0
  0
ENDTAB
  0
TABLE
  2
DIMSTYLE
  5
19BC4
330
0
100
AcDbSymbolTable
 70
     2
100
AcDbDimStyleTable
 71
     0
  0
DIMSTYLE
105
19BFD
330
19BC4
100
AcDbSymbolTableRecord
100
AcDbDimStyleTableRecord
  2
SUNPOU_申請図
 70
     0
 40
40.0
 41
0.5
 42
1.0
 43
7.0
 44
1.0
 46
3.0
 73
     0
 74
     0
 77
     1
 78
     8
140
2.0
141
0.0
147
1.0
172
     1
173
     1
176
   256
177
   256
178
   256
271
     2
272
     2
279
     2
284
     8
285
     8
286
     8
340
19BDD
  0
DIMSTYLE
105
1A28B
330
19BC4
100
AcDbSymbolTableRecord
100
AcDbDimStyleTableRecord
  2
SUNPOU_図面名
 70
     0
 40
30.0
 41
0.5
 42
1.0
 43
7.0
 44
1.5
 46
3.0
 73
     0
 74
     0
 77
     1
 78
     8
140
3.0
141
0.0
147
1.5
172
     1
173
     1
176
   256
177
   256
178
   256
271
     2
272
     2
279
     2
284
     8
285
     8
286
     8
340
19BDD
  0
ENDTAB
  0
TABLE
  2
BLOCK_RECORD
  5
19BBB
330
0
100
AcDbSymbolTable
 70
    47
  0
BLOCK_RECORD
  5
19BD8
330
19BBB
100
AcDbSymbolTableRecord
100
AcDbBlockTableRecord
  2
*Model_Space
340
19BDB
  0
BLOCK_RECORD
  5
19BD4
330
19BBB
100
AcDbSymbolTableRecord
100
AcDbBlockTableRecord
  2
*Paper_Space
340
19BD7
  0
BLOCK_RECORD
  5
19C02
330
19BBB
100
AcDbSymbolTableRecord
100
AcDbBlockTableRecord
  2
$MODEL_SPACE
340
0
  0
BLOCK_RECORD
  5
19C05
330
19BBB
100
AcDbSymbolTableRecord
100
AcDbBlockTableRecord
  2
$PAPER_SPACE
340
0
  0
BLOCK_RECORD
  5
19C08
330
19BBB
100
AcDbSymbolTableRecord
100
AcDbBlockTableRecord
  2
DOT
340
0
  0
BLOCK_RECORD
  5
19C10
330
19BBB
100
AcDbSymbolTableRecord
100
AcDbBlockTableRecord
  2
*U3
340
0
  0
BLOCK_RECORD
  5
19C14
330
19BBB
100
AcDbSymbolTableRecord
100
AcDbBlockTableRecord
  2
*U4
340
0
  0
BLOCK_RECORD
  5
19C18
330
19BBB
100
AcDbSymbolTableRecord
100
AcDbBlockTableRecord
  2
*U5
340
0
  0
BLOCK_RECORD
  5
19C1C
330
19BBB
100
AcDbSymbolTableRecord
100
AcDbBlockTableRecord
  2
*U6
340
0
  0
BLOCK_RECORD
  5
19C20
330
19BBB
100
AcDbSymbolTableRecord
100
AcDbBlockTableRecord
  2
*U7
340
0
  0
BLOCK_RECORD
  5
19C24
330
19BBB
100
AcDbSymbolTableRecord
100
AcDbBlockTableRecord
  2
*U8
340
0
  0
BLOCK_RECORD
  5
19C28
330
19BBB
100
AcDbSymbolTableRecord
100
AcDbBlockTableRecord
  2
*U9
340
0
  0
BLOCK_RECORD
  5
19C2C
330
19BBB
100
AcDbSymbolTableRecord
100
AcDbBlockTableRecord
  2
*U10
340
0
  0
BLOCK_RECORD
  5
19C30
330
19BBB
100
AcDbSymbolTableRecord
100
AcDbBlockTableRecord
  2
*U11
340
0
  0
BLOCK_RECORD
  5
19C34
330
19BBB
100
AcDbSymbolTableRecord
100
AcDbBlockTableRecord
  2
*U12
340
0
  0
BLOCK_RECORD
  5
19C38
330
19BBB
100
AcDbSymbolTableRecord
100
AcDbBlockTableRecord
  2
*U13
340
0
  0
BLOCK_RECORD
  5
19C3C
330
19BBB
100
AcDbSymbolTableRecord
100
AcDbBlockTableRecord
  2
*U14
340
0
  0
BLOCK_RECORD
  5
19C40
330
19BBB
100
AcDbSymbolTableRecord
100
AcDbBlockTableRecord
  2
*U15
340
0
  0
BLOCK_RECORD
  5
19C44
330
19BBB
100
AcDbSymbolTableRecord
100
AcDbBlockTableRecord
  2
*U16
340
0
  0
BLOCK_RECORD
  5
19C48
330
19BBB
100
AcDbSymbolTableRecord
100
AcDbBlockTableRecord
  2
*U17
340
0
  0
BLOCK_RECORD
  5
19C4C
330
19BBB
100
AcDbSymbolTableRecord
100
AcDbBlockTableRecord
  2
*U18
340
0
  0
BLOCK_RECORD
  5
19C50
330
19BBB
100
AcDbSymbolTableRecord
100
AcDbBlockTableRecord
  2
*U19
340
0
  0
BLOCK_RECORD
  5
19C54
330
19BBB
100
AcDbSymbolTableRecord
100
AcDbBlockTableRecord
  2
*U20
340
0
  0
BLOCK_RECORD
  5
19C58
330
19BBB
100
AcDbSymbolTableRecord
100
AcDbBlockTableRecord
  2
*U21
340
0
  0
BLOCK_RECORD
  5
19C5C
330
19BBB
100
AcDbSymbolTableRecord
100
AcDbBlockTableRecord
  2
*U22
340
0
  0
BLOCK_RECORD
  5
19C60
330
19BBB
100
AcDbSymbolTableRecord
100
AcDbBlockTableRecord
  2
*U23
340
0
  0
BLOCK_RECORD
  5
19C64
330
19BBB
100
AcDbSymbolTableRecord
100
AcDbBlockTableRecord
  2
*U24
340
0
  0
BLOCK_RECORD
  5
19C68
330
19BBB
100
AcDbSymbolTableRecord
100
AcDbBlockTableRecord
  2
*U25
340
0
  0
BLOCK_RECORD
  5
19C6C
330
19BBB
100
AcDbSymbolTableRecord
100
AcDbBlockTableRecord
  2
*U26
340
0
  0
BLOCK_RECORD
  5
19C70
330
19BBB
100
AcDbSymbolTableRecord
100
AcDbBlockTableRecord
  2
*U27
340
0
  0
BLOCK_RECORD
  5
19C74
330
19BBB
100
AcDbSymbolTableRecord
100
AcDbBlockTableRecord
  2
*U28
340
0
  0
BLOCK_RECORD
  5
19C78
330
19BBB
100
AcDbSymbolTableRecord
100
AcDbBlockTableRecord
  2
*U29
340
0
  0
BLOCK_RECORD
  5
19C7C
330
19BBB
100
AcDbSymbolTableRecord
100
AcDbBlockTableRecord
  2
*U30
340
0
  0
BLOCK_RECORD
  5
19C80
330
19BBB
100
AcDbSymbolTableRecord
100
AcDbBlockTableRecord
  2
*U31
340
0
  0
BLOCK_RECORD
  5
19C84
330
19BBB
100
AcDbSymbolTableRecord
100
AcDbBlockTableRecord
  2
*U32
340
0
  0
BLOCK_RECORD
  5
19C88
330
19BBB
100
AcDbSymbolTableRecord
100
AcDbBlockTableRecord
  2
*U33
340
0
  0
BLOCK_RECORD
  5
19C8C
330
19BBB
100
AcDbSymbolTableRecord
100
AcDbBlockTableRecord
  2
*U34
340
0
  0
BLOCK_RECORD
  5
19C90
330
19BBB
100
AcDbSymbolTableRecord
100
AcDbBlockTableRecord
  2
*U35
340
0
  0
BLOCK_RECORD
  5
19C94
330
19BBB
100
AcDbSymbolTableRecord
100
AcDbBlockTableRecord
  2
*U36
340
0
  0
BLOCK_RECORD
  5
19C98
330
19BBB
100
AcDbSymbolTableRecord
100
AcDbBlockTableRecord
  2
*U37
340
0
  0
BLOCK_RECORD
  5
19C9C
330
19BBB
100
AcDbSymbolTableRecord
100
AcDbBlockTableRecord
  2
*U38
340
0
  0
BLOCK_RECORD
  5
19CA0
330
19BBB
100
AcDbSymbolTableRecord
100
AcDbBlockTableRecord
  2
*U39
340
0
  0
BLOCK_RECORD
  5
19CA4
330
19BBB
100
AcDbSymbolTableRecord
100
AcDbBlockTableRecord
  2
*U40
340
0
  0
BLOCK_RECORD
  5
19CA8
330
19BBB
100
AcDbSymbolTableRecord
100
AcDbBlockTableRecord
  2
*U41
340
0
  0
BLOCK_RECORD
  5
19CAC
330
19BBB
100
AcDbSymbolTableRecord
100
AcDbBlockTableRecord
  2
*U42
340
0
  0
BLOCK_RECORD
  5
19CB0
330
19BBB
100
AcDbSymbolTableRecord
100
AcDbBlockTableRecord
  2
*U43
340
0
  0
BLOCK_RECORD
  5
19CB4
330
19BBB
100
AcDbSymbolTableRecord
100
AcDbBlockTableRecord
  2
*U44
340
0
  0
BLOCK_RECORD
  5
19CB8
330
19BBB
100
AcDbSymbolTableRecord
100
AcDbBlockTableRecord
  2
*U45
340
0
  0
ENDTAB
  0
ENDSEC
  0
SECTION
  2
BLOCKS
  0
BLOCK
  5
19BD9
330
19BD8
100
AcDbEntity
  8
0
100
AcDbBlockBegin
  2
*Model_Space
 70
     0
 10
0.0
 20
0.0
 30
0.0
  3
*Model_Space
  1

  0
ENDBLK
  5
19BDA
330
19BD8
100
AcDbEntity
  8
0
100
AcDbBlockEnd
  0
BLOCK
  5
19BD5
330
19BD4
100
AcDbEntity
 67
     1
  8
0
100
AcDbBlockBegin
  2
*Paper_Space
 70
     0
 10
0.0
 20
0.0
 30
0.0
  3
*Paper_Space
  1

  0
ENDBLK
  5
19BD6
330
19BD4
100
AcDbEntity
 67
     1
  8
0
100
AcDbBlockEnd
  0
BLOCK
  5
19C03
330
19C02
100
AcDbEntity
  8
0
100
AcDbBlockBegin
  2
$MODEL_SPACE
 70
     0
 10
0.0
 20
0.0
 30
0.0
  3
$MODEL_SPACE
  1

  0
ENDBLK
  5
19C04
330
19C02
100
AcDbEntity
  8
0
100
AcDbBlockEnd
  0
BLOCK
  5
19C06
330
19C05
100
AcDbEntity
  8
0
100
AcDbBlockBegin
  2
$PAPER_SPACE
 70
     0
 10
0.0
 20
0.0
 30
0.0
  3
$PAPER_SPACE
  1

  0
ENDBLK
  5
19C07
330
19C05
100
AcDbEntity
  8
0
100
AcDbBlockEnd
  0
BLOCK
  5
19C09
330
19C08
100
AcDbEntity
  8
0
100
AcDbBlockBegin
  2
DOT
 70
     0
 10
0.0
 20
0.0
 30
0.0
  3
DOT
  1

  0
LWPOLYLINE
  5
19C0A
330
19C08
100
AcDbEntity
  8
0
  6
ByBlock
 62
     0
100
AcDbPolyline
 90
        2
 70
     1
 43
0.75
 10
-0.375
 20
0.0
 42
1.0
 10
0.375
 20
0.0
 42
1.0
  0
LINE
  5
19C0E
330
19C08
100
AcDbEntity
  8
0
  6
ByBlock
 62
     0
100
AcDbLine
 10
-0.75
 20
0.0
 30
0.0
 11
-1.5
 21
0.0
 31
0.0
  0
ENDBLK
  5
19C0F
330
19C08
100
AcDbEntity
  8
0
100
AcDbBlockEnd
  0
BLOCK
  5
19C11
330
19C10
100
AcDbEntity
  8
0
100
AcDbBlockBegin
  2
*U3
 70
     1
 10
0.0
 20
0.0
 30
0.0
  3
*U3
  1

  0
TEXT
  5
19C12
330
19C10
100
AcDbEntity
  8
SUNPOU
100
AcDbText
 10
9748.413222185353
 20
8063.243182432326
 30
0.0
 40
90.0
  1
800
 41
0.6666666666666666
  7
00
100
AcDbText
  0
ENDBLK
  5
19C13
330
19C10
100
AcDbEntity
  8
0
100
AcDbBlockEnd
  0
BLOCK
  5
19C15
330
19C14
100
AcDbEntity
  8
0
100
AcDbBlockBegin
  2
*U4
 70
     1
 10
0.0
 20
0.0
 30
0.0
  3
*U4
  1

  0
TEXT
  5
19C16
330
19C14
100
AcDbEntity
  8
SUNPOU
100
AcDbText
 10
9089.127507899638
 20
8632.528896718044
 30
0.0
 40
90.0
  1
800
 50
90.0
 41
0.6666666666666666
  7
00
100
AcDbText
  0
ENDBLK
  5
19C17
330
19C14
100
AcDbEntity
  8
0
100
AcDbBlockEnd
  0
BLOCK
  5
19C19
330
19C18
100
AcDbEntity
  8
0
100
AcDbBlockBegin
  2
*U5
 70
     1
 10
0.0
 20
0.0
 30
0.0
  3
*U5
  1

  0
TEXT
  5
19C1A
330
19C18
100
AcDbEntity
  8
SUNPOU
100
AcDbText
 10
9948.413222185353
 20
9463.243182432325
 30
0.0
 40
90.0
  1
400
 41
0.6666666666666666
  7
00
100
AcDbText
  0
ENDBLK
  5
19C1B
330
19C18
100
AcDbEntity
  8
0
100
AcDbBlockEnd
  0
BLOCK
  5
19C1D
330
19C1C
100
AcDbEntity
  8
0
100
AcDbBlockBegin
  2
*U6
 70
     1
 10
0.0
 20
0.0
 30
0.0
  3
*U6
  1

  0
TEXT
  5
19C1E
330
19C1C
100
AcDbEntity
  8
SUNPOU
100
AcDbText
 10
6738.413222185354
 20
9463.243182432325
 30
0.0
 40
90.0
  1
400
 41
0.6666666666666666
  7
00
100
AcDbText
  0
ENDBLK
  5
19C1F
330
19C1C
100
AcDbEntity
  8
0
100
AcDbBlockEnd
  0
BLOCK
  5
19C21
330
19C20
100
AcDbEntity
  8
0
100
AcDbBlockBegin
  2
*U7
 70
     1
 10
0.0
 20
0.0
 30
0.0
  3
*U7
  1

  0
TEXT
  5
19C22
330
19C20
100
AcDbEntity
  8
SUNPOU
100
AcDbText
 10
8314.841793613926
 20
9463.243182432325
 30
0.0
 40
90.0
  1
2810
 41
0.6666666666666666
  7
00
100
AcDbText
  0
ENDBLK
  5
19C23
330
19C20
100
AcDbEntity
  8
0
100
AcDbBlockEnd
  0
BLOCK
  5
19C25
330
19C24
100
AcDbEntity
  8
0
100
AcDbBlockBegin
  2
*U8
 70
     1
 10
0.0
 20
0.0
 30
0.0
  3
*U8
  1

  0
TEXT
  5
19C26
330
19C24
100
AcDbEntity
  8
SUNPOU
100
AcDbText
 10
8314.841793613926
 20
9673.243182432329
 30
0.0
 40
90.0
  1
3610
 41
0.6666666666666666
  7
00
100
AcDbText
  0
ENDBLK
  5
19C27
330
19C24
100
AcDbEntity
  8
0
100
AcDbBlockEnd
  0
BLOCK
  5
19C29
330
19C28
100
AcDbEntity
  8
0
100
AcDbBlockBegin
  2
*U9
 70
     1
 10
0.0
 20
0.0
 30
0.0
  3
*U9
  1

  0
TEXT
  5
19C2A
330
19C28
100
AcDbEntity
  8
SUNPOU
100
AcDbText
 10
10589.12750789964
 20
8495.386039575185
 30
0.0
 40
90.0
  1
200
 50
90.0
 41
0.6666666666666666
  7
00
100
AcDbText
  0
ENDBLK
  5
19C2B
330
19C28
100
AcDbEntity
  8
0
100
AcDbBlockEnd
  0
BLOCK
  5
19C2D
330
19C2C
100
AcDbEntity
  8
0
100
AcDbBlockBegin
  2
*U10
 70
     1
 10
0.0
 20
0.0
 30
0.0
  3
*U10
  1

  0
TEXT
  5
19C2E
330
19C2C
100
AcDbEntity
  8
SUNPOU
100
AcDbText
 10
10589.12750789964
 20
9169.671753860903
 30
0.0
 40
90.0
  1
200
 50
90.0
 41
0.6666666666666666
  7
00
100
AcDbText
  0
ENDBLK
  5
19C2F
330
19C2C
100
AcDbEntity
  8
0
100
AcDbBlockEnd
  0
BLOCK
  5
19C31
330
19C30
100
AcDbEntity
  8
0
100
AcDbBlockBegin
  2
*U11
 70
     1
 10
0.0
 20
0.0
 30
0.0
  3
*U11
  1

  0
TEXT
  5
19C32
330
19C30
100
AcDbEntity
  8
SUNPOU
100
AcDbText
 10
10799.12750789963
 20
6622.528896718044
 30
0.0
 40
90.0
  1
400
 50
90.0
 41
0.6666666666666666
  7
00
100
AcDbText
  0
ENDBLK
  5
19C33
330
19C30
100
AcDbEntity
  8
0
100
AcDbBlockEnd
  0
BLOCK
  5
19C35
330
19C34
100
AcDbEntity
  8
0
100
AcDbBlockBegin
  2
*U12
 70
     1
 10
0.0
 20
0.0
 30
0.0
  3
*U12
  1

  0
TEXT
  5
19C36
330
19C34
100
AcDbEntity
  8
SUNPOU
100
AcDbText
 10
10799.12750789963
 20
7694.671753860901
 30
0.0
 40
90.0
  1
1810
 50
90.0
 41
0.6666666666666666
  7
00
100
AcDbText
  0
ENDBLK
  5
19C37
330
19C34
100
AcDbEntity
  8
0
100
AcDbBlockEnd
  0
BLOCK
  5
19C39
330
19C38
100
AcDbEntity
  8
0
100
AcDbBlockBegin
  2
*U13
 70
     1
 10
0.0
 20
0.0
 30
0.0
  3
*U13
  1

  0
TEXT
  5
19C3A
330
19C38
100
AcDbEntity
  8
SUNPOU
100
AcDbText
 10
10799.12750789963
 20
8832.528896718043
 30
0.0
 40
90.0
  1
400
 50
90.0
 41
0.6666666666666666
  7
00
100
AcDbText
  0
ENDBLK
  5
19C3B
330
19C38
100
AcDbEntity
  8
0
100
AcDbBlockEnd
  0
BLOCK
  5
19C3D
330
19C3C
100
AcDbEntity
  8
0
100
AcDbBlockBegin
  2
*U14
 70
     1
 10
0.0
 20
0.0
 30
0.0
  3
*U14
  1

  0
TEXT
  5
19C3E
330
19C3C
100
AcDbEntity
  8
SUNPOU
100
AcDbText
 10
11009.12750789962
 20
7698.957468146613
 30
0.0
 40
90.0
  1
2610
 50
90.0
 41
0.6666666666666666
  7
00
100
AcDbText
  0
ENDBLK
  5
19C3F
330
19C3C
100
AcDbEntity
  8
0
100
AcDbBlockEnd
  0
BLOCK
  5
19C41
330
19C40
100
AcDbEntity
  8
0
100
AcDbBlockBegin
  2
*U15
 70
     1
 10
0.0
 20
0.0
 30
0.0
  3
*U15
  1

  0
TEXT
  5
19C42
330
19C40
100
AcDbEntity
  8
SUNPOU
100
AcDbText
 10
3835.443655266704
 20
2860.570553705313
 30
0.0
 40
90.0
  1
300
 50
90.0
 41
0.6666666666666666
  7
00
100
AcDbText
  0
ENDBLK
  5
19C43
330
19C40
100
AcDbEntity
  8
0
100
AcDbBlockEnd
  0
BLOCK
  5
19C45
330
19C44
100
AcDbEntity
  8
0
100
AcDbBlockBegin
  2
*U16
 70
     1
 10
0.0
 20
0.0
 30
0.0
  3
*U16
  1

  0
TEXT
  5
19C46
330
19C44
100
AcDbEntity
  8
SUNPOU
100
AcDbText
 10
3835.443655266704
 20
3508.113410848177
 30
0.0
 40
90.0
  1
80
 50
90.0
 41
0.6666666666666666
  7
00
100
AcDbText
  0
ENDBLK
  5
19C47
330
19C44
100
AcDbEntity
  8
0
100
AcDbBlockEnd
  0
BLOCK
  5
19C49
330
19C48
100
AcDbEntity
  8
0
100
AcDbBlockBegin
  2
*U17
 70
     1
 10
0.0
 20
0.0
 30
0.0
  3
*U17
  1

  0
TEXT
  5
19C4A
330
19C48
100
AcDbEntity
  8
SUNPOU
100
AcDbText
 10
3835.443655266704
 20
3193.141982276742
 30
0.0
 40
90.0
  1
80
 50
90.0
 41
0.6666666666666666
  7
00
100
AcDbText
  0
ENDBLK
  5
19C4B
330
19C48
100
AcDbEntity
  8
0
100
AcDbBlockEnd
  0
BLOCK
  5
19C4D
330
19C4C
100
AcDbEntity
  8
0
100
AcDbBlockBegin
  2
*U18
 70
     1
 10
0.0
 20
0.0
 30
0.0
  3
*U18
  1

  0
TEXT
  5
19C4E
330
19C4C
100
AcDbEntity
  8
SUNPOU
100
AcDbText
 10
3415.443655266705
 20
3523.113410848177
 30
0.0
 40
90.0
  1
50
 50
90.0
 41
0.6666666666666666
  7
00
100
AcDbText
  0
ENDBLK
  5
19C4F
330
19C4C
100
AcDbEntity
  8
0
100
AcDbBlockEnd
  0
BLOCK
  5
19C51
330
19C50
100
AcDbEntity
  8
0
100
AcDbBlockBegin
  2
*U19
 70
     1
 10
0.0
 20
0.0
 30
0.0
  3
*U19
  1

  0
TEXT
  5
19C52
330
19C50
100
AcDbEntity
  8
SUNPOU
100
AcDbText
 10
4681.225622696032
 20
1983.6848394196
 30
0.0
 40
90.0
  1
1000
 41
0.6666666666666666
  7
00
100
AcDbText
  0
ENDBLK
  5
19C53
330
19C50
100
AcDbEntity
  8
0
100
AcDbBlockEnd
  0
BLOCK
  5
19C55
330
19C54
100
AcDbEntity
  8
0
100
AcDbBlockBegin
  2
*U20
 70
     1
 10
0.0
 20
0.0
 30
0.0
  3
*U20
  1

  0
TEXT
  5
19C56
330
19C54
100
AcDbEntity
  8
SUNPOU
100
AcDbText
 10
4714.082765553178
 20
2193.684839419601
 30
0.0
 40
90.0
  1
800
 41
0.6666666666666666
  7
00
100
AcDbText
  0
ENDBLK
  5
19C57
330
19C54
100
AcDbEntity
  8
0
100
AcDbBlockEnd
  0
BLOCK
  5
19C59
330
19C58
100
AcDbEntity
  8
0
100
AcDbBlockBegin
  2
*U21
 70
     1
 10
0.0
 20
0.0
 30
0.0
  3
*U21
  1

  0
TEXT
  5
19C5A
330
19C58
100
AcDbEntity
  8
SUNPOU
100
AcDbText
 10
8334.408966076827
 20
4175.485411556194
 30
0.0
 40
90.0
  1
200
 41
0.6666666666666666
  7
00
100
AcDbText
  0
ENDBLK
  5
19C5B
330
19C58
100
AcDbEntity
  8
0
100
AcDbBlockEnd
  0
BLOCK
  5
19C5D
330
19C5C
100
AcDbEntity
  8
0
100
AcDbBlockBegin
  2
*U22
 70
     1
 10
0.0
 20
0.0
 30
0.0
  3
*U22
  1

  0
TEXT
  5
19C5E
330
19C5C
100
AcDbEntity
  8
SUNPOU
100
AcDbText
 10
7615.76985579035
 20
2860.57055370532
 30
0.0
 40
90.0
  1
300
 50
90.0
 41
0.6666666666666666
  7
00
100
AcDbText
  0
ENDBLK
  5
19C5F
330
19C5C
100
AcDbEntity
  8
0
100
AcDbBlockEnd
  0
BLOCK
  5
19C61
330
19C60
100
AcDbEntity
  8
0
100
AcDbBlockBegin
  2
*U23
 70
     1
 10
0.0
 20
0.0
 30
0.0
  3
*U23
  1

  0
TEXT
  5
19C62
330
19C60
100
AcDbEntity
  8
SUNPOU
100
AcDbText
 10
7615.76985579035
 20
3508.113410848177
 30
0.0
 40
90.0
  1
80
 50
90.0
 41
0.6666666666666666
  7
00
100
AcDbText
  0
ENDBLK
  5
19C63
330
19C60
100
AcDbEntity
  8
0
100
AcDbBlockEnd
  0
BLOCK
  5
19C65
330
19C64
100
AcDbEntity
  8
0
100
AcDbBlockBegin
  2
*U24
 70
     1
 10
0.0
 20
0.0
 30
0.0
  3
*U24
  1

  0
TEXT
  5
19C66
330
19C64
100
AcDbEntity
  8
SUNPOU
100
AcDbText
 10
7615.76985579035
 20
3193.141982276748
 30
0.0
 40
90.0
  1
80
 50
90.0
 41
0.6666666666666666
  7
00
100
AcDbText
  0
ENDBLK
  5
19C67
330
19C64
100
AcDbEntity
  8
0
100
AcDbBlockEnd
  0
BLOCK
  5
19C69
330
19C68
100
AcDbEntity
  8
0
100
AcDbBlockBegin
  2
*U25
 70
     1
 10
0.0
 20
0.0
 30
0.0
  3
*U25
  1

  0
TEXT
  5
19C6A
330
19C68
100
AcDbEntity
  8
SUNPOU
100
AcDbText
 10
7195.769855790351
 20
3523.113410848177
 30
0.0
 40
90.0
  1
50
 50
90.0
 41
0.6666666666666666
  7
00
100
AcDbText
  0
ENDBLK
  5
19C6B
330
19C68
100
AcDbEntity
  8
0
100
AcDbBlockEnd
  0
BLOCK
  5
19C6D
330
19C6C
100
AcDbEntity
  8
0
100
AcDbBlockBegin
  2
*U26
 70
     1
 10
0.0
 20
0.0
 30
0.0
  3
*U26
  1

  0
TEXT
  5
19C6E
330
19C6C
100
AcDbEntity
  8
SUNPOU
100
AcDbText
 10
8461.551823219677
 20
1983.684839419604
 30
0.0
 40
90.0
  1
1000
 41
0.6666666666666666
  7
00
100
AcDbText
  0
ENDBLK
  5
19C6F
330
19C6C
100
AcDbEntity
  8
0
100
AcDbBlockEnd
  0
BLOCK
  5
19C71
330
19C70
100
AcDbEntity
  8
0
100
AcDbBlockBegin
  2
*U27
 70
     1
 10
0.0
 20
0.0
 30
0.0
  3
*U27
  1

  0
TEXT
  5
19C72
330
19C70
100
AcDbEntity
  8
SUNPOU
100
AcDbText
 10
8494.408966076823
 20
2193.684839419605
 30
0.0
 40
90.0
  1
800
 41
0.6666666666666666
  7
00
100
AcDbText
  0
ENDBLK
  5
19C73
330
19C70
100
AcDbEntity
  8
0
100
AcDbBlockEnd
  0
BLOCK
  5
19C75
330
19C74
100
AcDbEntity
  8
0
100
AcDbBlockBegin
  2
*U28
 70
     1
 10
0.0
 20
0.0
 30
0.0
  3
*U28
  1

  0
TEXT
  5
19C76
330
19C74
100
AcDbEntity
  8
SUNPOU
100
AcDbText
 10
11451.33837406207
 20
3229.170862655062
 30
0.0
 40
90.0
  1
180
 41
0.6666666666666666
  7
00
100
AcDbText
  0
ENDBLK
  5
19C77
330
19C74
100
AcDbEntity
  8
0
100
AcDbBlockEnd
  0
BLOCK
  5
19C79
330
19C78
100
AcDbEntity
  8
0
100
AcDbBlockBegin
  2
*U29
 70
     1
 10
0.0
 20
0.0
 30
0.0
  3
*U29
  1

  0
TEXT
  5
19C7A
330
19C78
100
AcDbEntity
  8
SUNPOU
100
AcDbText
 10
11000.62408834778
 20
3439.170862655061
 30
0.0
 40
90.0
  1
20
 41
0.6666666666666666
  7
00
100
AcDbText
  0
ENDBLK
  5
19C7B
330
19C78
100
AcDbEntity
  8
0
100
AcDbBlockEnd
  0
BLOCK
  5
19C7D
330
19C7C
100
AcDbEntity
  8
0
100
AcDbBlockBegin
  2
*U30
 70
     1
 10
0.0
 20
0.0
 30
0.0
  3
*U30
  1

  0
TEXT
  5
19C7E
330
19C7C
100
AcDbEntity
  8
SUNPOU
100
AcDbText
 10
11451.33837406208
 20
3439.170862655062
 30
0.0
 40
90.0
  1
140
 41
0.6666666666666666
  7
00
100
AcDbText
  0
ENDBLK
  5
19C7F
330
19C7C
100
AcDbEntity
  8
0
100
AcDbBlockEnd
  0
BLOCK
  5
19C81
330
19C80
100
AcDbEntity
  8
0
100
AcDbBlockBegin
  2
*U31
 70
     1
 10
0.0
 20
0.0
 30
0.0
  3
*U31
  1

  0
TEXT
  5
19C82
330
19C80
100
AcDbEntity
  8
SUNPOU
100
AcDbText
 10
11967.76694549065
 20
3439.170862655061
 30
0.0
 40
90.0
  1
20
 41
0.6666666666666666
  7
00
100
AcDbText
  0
ENDBLK
  5
19C83
330
19C80
100
AcDbEntity
  8
0
100
AcDbBlockEnd
  0
BLOCK
  5
19C85
330
19C84
100
AcDbEntity
  8
0
100
AcDbBlockBegin
  2
*U32
 70
     1
 10
0.0
 20
0.0
 30
0.0
  3
*U32
  1

  0
TEXT
  5
19C86
330
19C84
100
AcDbEntity
  8
SUNPOU
100
AcDbText
 10
10663.33837406209
 20
2610.144344053151
 30
0.0
 40
90.0
  1
100
 50
90.0
 41
0.6666666666666666
  7
00
100
AcDbText
  0
ENDBLK
  5
19C87
330
19C84
100
AcDbEntity
  8
0
100
AcDbBlockEnd
  0
BLOCK
  5
19C89
330
19C88
100
AcDbEntity
  8
0
100
AcDbBlockBegin
  2
*U33
 70
     1
 10
0.0
 20
0.0
 30
0.0
  3
*U33
  1

  0
TEXT
  5
19C8A
330
19C88
100
AcDbEntity
  8
SUNPOU
100
AcDbText
 10
10873.33837406209
 20
2743.001486910295
 30
0.0
 40
90.0
  1
50
 50
90.0
 41
0.6666666666666666
  7
00
100
AcDbText
  0
ENDBLK
  5
19C8B
330
19C88
100
AcDbEntity
  8
0
100
AcDbBlockEnd
  0
BLOCK
  5
19C8D
330
19C8C
100
AcDbEntity
  8
0
100
AcDbBlockBegin
  2
*U34
 70
     1
 10
0.0
 20
0.0
 30
0.0
  3
*U34
  1

  0
TEXT
  5
19C8E
330
19C8C
100
AcDbEntity
  8
SUNPOU
100
AcDbText
 10
10873.33837406209
 20
2543.001486910295
 30
0.0
 40
90.0
  1
50
 50
90.0
 41
0.6666666666666666
  7
00
100
AcDbText
  0
ENDBLK
  5
19C8F
330
19C8C
100
AcDbEntity
  8
0
100
AcDbBlockEnd
  0
BLOCK
  5
19C91
330
19C90
100
AcDbEntity
  8
0
100
AcDbBlockBegin
  2
*U35
 70
     1
 10
0.0
 20
0.0
 30
0.0
  3
*U35
  1

  0
TEXT
  5
19C92
330
19C90
100
AcDbEntity
  8
SUNPOU
100
AcDbText
 10
11451.33837406208
 20
2080.804976716085
 30
0.0
 40
90.0
  1
180
 41
0.6666666666666666
  7
00
100
AcDbText
  0
ENDBLK
  5
19C93
330
19C90
100
AcDbEntity
  8
0
100
AcDbBlockEnd
  0
BLOCK
  5
19C95
330
19C94
100
AcDbEntity
  8
0
100
AcDbBlockBegin
  2
*U36
 70
     1
 10
0.0
 20
0.0
 30
0.0
  3
*U36
  1

  0
TEXT
  5
19C96
330
19C94
100
AcDbEntity
  8
SUNPOU
100
AcDbText
 10
11000.6240883478
 20
2290.804976716086
 30
0.0
 40
90.0
  1
20
 41
0.6666666666666666
  7
00
100
AcDbText
  0
ENDBLK
  5
19C97
330
19C94
100
AcDbEntity
  8
0
100
AcDbBlockEnd
  0
BLOCK
  5
19C99
330
19C98
100
AcDbEntity
  8
0
100
AcDbBlockBegin
  2
*U37
 70
     1
 10
0.0
 20
0.0
 30
0.0
  3
*U37
  1

  0
TEXT
  5
19C9A
330
19C98
100
AcDbEntity
  8
SUNPOU
100
AcDbText
 10
11451.33837406209
 20
2290.804976716086
 30
0.0
 40
90.0
  1
140
 41
0.6666666666666666
  7
00
100
AcDbText
  0
ENDBLK
  5
19C9B
330
19C98
100
AcDbEntity
  8
0
100
AcDbBlockEnd
  0
BLOCK
  5
19C9D
330
19C9C
100
AcDbEntity
  8
0
100
AcDbBlockBegin
  2
*U38
 70
     1
 10
0.0
 20
0.0
 30
0.0
  3
*U38
  1

  0
TEXT
  5
19C9E
330
19C9C
100
AcDbEntity
  8
SUNPOU
100
AcDbText
 10
11967.76694549065
 20
2290.804976716086
 30
0.0
 40
90.0
  1
20
 41
0.6666666666666666
  7
00
100
AcDbText
  0
ENDBLK
  5
19C9F
330
19C9C
100
AcDbEntity
  8
0
100
AcDbBlockEnd
  0
BLOCK
  5
19CA1
330
19CA0
100
AcDbEntity
  8
0
100
AcDbBlockBegin
  2
*U39
 70
     1
 10
0.0
 20
0.0
 30
0.0
  3
*U39
  1

  0
TEXT
  5
19CA2
330
19CA0
100
AcDbEntity
  8
SUNPOU
100
AcDbText
 10
12268.40680314954
 20
3437.622750870279
 30
0.0
 40
90.0
  1
26
 50
90.0
 41
0.6666666666666666
  7
00
100
AcDbText
  0
ENDBLK
  5
19CA3
330
19CA0
100
AcDbEntity
  8
0
100
AcDbBlockEnd
  0
BLOCK
  5
19CA5
330
19CA4
100
AcDbEntity
  8
0
100
AcDbBlockBegin
  2
*U40
 70
     1
 10
0.0
 20
0.0
 30
0.0
  3
*U40
  1

  0
TEXT
  5
19CA6
330
19CA4
100
AcDbEntity
  8
SUNPOU
100
AcDbText
 10
12268.40680314954
 20
3933.765608013134
 30
0.0
 40
90.0
  1
40
 50
90.0
 41
0.6666666666666666
  7
00
100
AcDbText
  0
ENDBLK
  5
19CA7
330
19CA4
100
AcDbEntity
  8
0
100
AcDbBlockEnd
  0
BLOCK
  5
19CA9
330
19CA8
100
AcDbEntity
  8
0
100
AcDbBlockBegin
  2
*U41
 70
     1
 10
0.0
 20
0.0
 30
0.0
  3
*U41
  1

  0
TEXT
  5
19CAA
330
19CA8
100
AcDbEntity
  8
SUNPOU
100
AcDbText
 10
4394.082765553178
 20
4175.485411556191
 30
0.0
 40
90.0
  1
400
 41
0.6666666666666666
  7
00
100
AcDbText
  0
ENDBLK
  5
19CAB
330
19CA8
100
AcDbEntity
  8
0
100
AcDbBlockEnd
  0
BLOCK
  5
19CAD
330
19CAC
100
AcDbEntity
  8
0
100
AcDbBlockBegin
  2
*U42
 70
     1
 10
0.0
 20
0.0
 30
0.0
  3
*U42
  1

  0
TEXT
  5
19CAE
330
19CAC
100
AcDbEntity
  8
SUNPOU
100
AcDbText
 10
7615.76985579035
 20
2323.427696562461
 30
0.0
 40
90.0
  1
100
 50
90.0
 41
0.6666666666666666
  7
00
100
AcDbText
  0
ENDBLK
  5
19CAF
330
19CAC
100
AcDbEntity
  8
0
100
AcDbBlockEnd
  0
BLOCK
  5
19CB1
330
19CB0
100
AcDbEntity
  8
0
100
AcDbBlockBegin
  2
*U43
 70
     1
 10
0.0
 20
0.0
 30
0.0
  3
*U43
  1

  0
TEXT
  5
19CB2
330
19CB0
100
AcDbEntity
  8
SUNPOU
100
AcDbText
 10
7397.341352050445
 20
2915.770553705319
 30
0.0
 40
90.0
  1
560
 50
90.0
 41
0.6666666666666666
  7
00
100
AcDbText
  0
ENDBLK
  5
19CB3
330
19CB0
100
AcDbEntity
  8
0
100
AcDbBlockEnd
  0
BLOCK
  5
19CB5
330
19CB4
100
AcDbEntity
  8
0
100
AcDbBlockBegin
  2
*U44
 70
     1
 10
0.0
 20
0.0
 30
0.0
  3
*U44
  1

  0
TEXT
  5
19CB6
330
19CB4
100
AcDbEntity
  8
SUNPOU
100
AcDbText
 10
3835.443655266704
 20
2323.427696562459
 30
0.0
 40
90.0
  1
100
 50
90.0
 41
0.6666666666666666
  7
00
100
AcDbText
  0
ENDBLK
  5
19CB7
330
19CB4
100
AcDbEntity
  8
0
100
AcDbBlockEnd
  0
BLOCK
  5
19CB9
330
19CB8
100
AcDbEntity
  8
0
100
AcDbBlockBegin
  2
*U45
 70
     1
 10
0.0
 20
0.0
 30
0.0
  3
*U45
  1

  0
TEXT
  5
19CBA
330
19CB8
100
AcDbEntity
  8
SUNPOU
100
AcDbText
 10
3620.129893712837
 20
2915.77055370532
 30
0.0
 40
90.0
  1
560
 50
90.0
 41
0.6666666666666666
  7
00
100
AcDbText
  0
ENDBLK
  5
19CBB
330
19CB8
100
AcDbEntity
  8
0
100
AcDbBlockEnd
  0
ENDSEC
  0
SECTION
  2
ENTITIES
  0
TEXT
  5
19CBC
330
19BD8
100
AcDbEntity
  8
NAME
100
AcDbText
 10
12854.79999999999
 20
541.0000000000001
 30
0.0
 40
160.0
  1
<3／3>
 41
0.6
  7
01
 72
     2
 11
13354.0
 21
541.0000000000001
 31
0.0
100
AcDbText
  0
TEXT
  5
19CBD
330
19BD8
100
AcDbEntity
  8
NAME
100
AcDbText
 10
10778.70931397095
 20
541.0
 30
0.0
 40
160.0
  1
YOKCU-280
 41
0.7
  7
01
 72
     2
 11
11776.04264730429
 21
541.0
 31
0.0
100
AcDbText
  0
TEXT
  5
19CBE
330
19BD8
100
AcDbEntity
  8
NAME
100
AcDbText
 10
11816.04264730429
 20
541.0
 30
0.0
 40
160.0
  1
型（豪雪地用）
 41
0.8
  7
01
100
AcDbText
  0
TEXT
  5
19CBF
330
19BD8
100
AcDbEntity
  8
HIKIDASHI
100
AcDbText
 10
9017.426279443023
 20
5992.059624263298
 30
0.0
 40
80.0
  1
)
 41
0.6700000000000001
  7
00
100
AcDbText
  0
TEXT
  5
19CC0
330
19BD8
100
AcDbEntity
  8
HIKIDASHI
100
AcDbText
 10
8816.567530753644
 20
6007.621102011493
 30
0.0
 40
80.0
  1
1
 41
0.6700000000000001
  7
00
100
AcDbText
  0
TEXT
  5
19CC1
330
19BD8
100
AcDbEntity
  8
HIKIDASHI
100
AcDbText
 10
8849.704668617951
 20
5992.059624263298
 30
0.0
 40
80.0
  1
/
 41
0.6700000000000001
  7
00
100
AcDbText
  0
TEXT
  5
19CC2
330
19BD8
100
AcDbEntity
  8
HIKIDASHI
100
AcDbText
 10
8895.999823380595
 20
5965.891793063018
 30
0.0
 40
80.0
  1
40
 41
0.6700000000000001
  7
00
100
AcDbText
  0
TEXT
  5
19CC3
330
19BD8
100
AcDbEntity
  8
HIKIDASHI
100
AcDbText
 10
8635.85961481597
 20
5992.059624263298
 30
0.0
 40
80.0
  1
(S=
 41
0.6700000000000001
  7
00
100
AcDbText
  0
TEXT
  5
19CC4
330
19BD8
100
AcDbEntity
  8
HIKIDASHI
100
AcDbText
 10
7793.85961481597
 20
5968.243182432328
 30
0.0
 40
120.0
  1
基 礎 伏 図
  7
01
 72
     2
 11
8545.85961481597
 21
5968.243182432328
 31
0.0
100
AcDbText
  0
LINE
  5
19CC5
330
19BD8
100
AcDbEntity
  8
CENTER
  6
1PL-M
100
AcDbLine
 10
6479.127507899639
 20
8718.243182432329
 30
0.0
 11
8969.127507899637
 21
8718.243182432329
 31
0.0
  0
LINE
  5
19CC6
330
19BD8
100
AcDbEntity
  8
CENTER
  6
1PL-M
100
AcDbLine
 10
9119.127507899637
 20
8718.243182432329
 30
0.0
 11
10379.12750789964
 21
8718.243182432329
 31
0.0
  0
LINE
  5
19CC7
330
19BD8
100
AcDbEntity
  8
CENTER
  6
1PL-M
100
AcDbLine
 10
7024.127507899639
 20
6308.243182432327
 30
0.0
 11
7024.127507899639
 21
9318.243182432329
 31
0.0
  0
LINE
  5
19CC8
330
19BD8
100
AcDbEntity
  8
CENTER
  6
1PL-M
100
AcDbLine
 10
6601.977929614668
 20
6908.243182432328
 30
0.0
 11
10379.12750789964
 21
6908.243182432328
 31
0.0
  0
LINE
  5
19CC9
330
19BD8
100
AcDbEntity
  8
CENTER
  6
1PL-M
100
AcDbLine
 10
9834.127507899637
 20
6308.243182432327
 30
0.0
 11
9834.127507899637
 21
8033.243182432327
 31
0.0
  0
LINE
  5
19CCA
330
19BD8
100
AcDbEntity
  8
CENTER
  6
1PL-M
100
AcDbLine
 10
9834.127507899637
 20
8183.243182432326
 30
0.0
 11
9834.127507899637
 21
9318.243182432329
 31
0.0
  0
LINE
  5
19CCB
330
19BD8
100
AcDbEntity
  8
SUNPOU
100
AcDbLine
 10
6414.127507899635
 20
7118.24318243233
 30
0.0
 11
6414.127507899635
 21
6908.243182432328
 31
0.0
  0
LINE
  5
19CCC
330
19BD8
100
AcDbEntity
  8
SUNPOU
100
AcDbLine
 10
6414.127507899639
 20
6908.243182432328
 30
0.0
 11
6564.127507899637
 21
6908.243182432328
 31
0.0
  0
TEXT
  5
19CCD
330
19BD8
100
AcDbEntity
  8
SUNPOU
100
AcDbText
 10
6388.284650756778
 20
7253.243182432331
 30
0.0
 40
90.0
  1
A
 41
0.6700000000000001
  7
00
 72
     4
 11
6414.127507899635
 21
7298.243182432329
 31
0.0
100
AcDbText
  0
LINE
  5
19CCE
330
19BD8
100
AcDbEntity
  8
SUNPOU
100
AcDbLine
 10
7634.127507899638
 20
7118.24318243233
 30
0.0
 11
7634.127507899638
 21
6908.243182432328
 31
0.0
  0
LINE
  5
19CCF
330
19BD8
100
AcDbEntity
  8
SUNPOU
100
AcDbLine
 10
7634.127507899638
 20
6908.243182432328
 30
0.0
 11
7484.127507899637
 21
6908.243182432328
 31
0.0
  0
TEXT
  5
19CD0
330
19BD8
100
AcDbEntity
  8
SUNPOU
100
AcDbText
 10
7598.234650756781
 20
7244.671753860902
 30
0.0
 40
90.0
  1
A'
 41
0.6700000000000001
  7
00
 72
     4
 11
7634.127507899638
 21
7298.243182432329
 31
0.0
100
AcDbText
  0
TEXT
  5
19CD1
330
19BD8
100
AcDbEntity
  8
HIKIDASHI
100
AcDbText
 10
7822.824073304892
 20
9013.243182432329
 30
0.0
 40
90.0
  1
（屋根後面位置）
  7
01
100
AcDbText
  0
TEXT
  5
19CD2
330
19BD8
100
AcDbEntity
  8
HIKIDASHI
100
AcDbText
 10
7738.715471388869
 20
8783.243182432325
 30
0.0
 40
90.0
  1
（土間コン後面位置）
  7
01
100
AcDbText
  0
TEXT
  5
19CD3
330
19BD8
100
AcDbEntity
  8
HIKIDASHI
100
AcDbText
 10
7845.736109815658
 20
6273.243182432327
 30
0.0
 40
90.0
  1
（鼻隠し外面）
  7
01
100
AcDbText
  0
TEXT
  5
19CD4
330
19BD8
100
AcDbEntity
  8
HIKIDASHI
100
AcDbText
 10
7761.627507899638
 20
6553.243182432328
 30
0.0
 40
90.0
  1
（土間コン前面位置）
  7
01
100
AcDbText
  0
TEXT
  5
19CD5
330
19BD8
100
AcDbEntity
  8
NAME
100
AcDbText
 10
12159.06898735705
 20
1063.242132579307
 30
0.0
 40
120.0
  1
Y O K C U
 41
0.6666666666666666
  7
00
100
AcDbText
  0
TEXT
  5
19CD6
330
19BD8
100
AcDbEntity
  8
NAME
100
AcDbText
 10
11083.47628552035
 20
1063.242132579307
 30
0.0
 40
120.0
  1
ヨド自転車置場　　　    型
  7
01
100
AcDbText
  0
TEXT
  5
19CD7
330
19BD8
100
AcDbEntity
  8
NAME
100
AcDbText
 10
11135.41263922338
 20
875.822736869413
 30
0.0
 40
120.0
  1
（アンカープレート方式）
  7
01
 72
     4
 11
11979.41263922339
 21
935.822736869413
 31
0.0
100
AcDbText
  0
LINE
  5
19CD8
330
19BD8
100
AcDbEntity
  8
SUNPOU
100
AcDbLine
 10
7230.127507899638
 20
9268.243182432332
 30
0.0
 11
7020.127507899639
 21
9268.243182432332
 31
0.0
  0
TEXT
  5
19CD9
330
19BD8
100
AcDbEntity
  8
SUNPOU
100
AcDbText
 10
7359.082114877264
 20
9214.671753860899
 30
0.0
 40
90.0
  1
B'
 41
0.6700000000000001
  7
00
 72
     4
 11
7403.589257734406
 21
9268.243182432328
 31
0.0
100
AcDbText
  0
LINE
  5
19CDA
330
19BD8
100
AcDbEntity
  8
SUNPOU
100
AcDbLine
 10
7020.127507899639
 20
9268.243182432328
 30
0.0
 11
7020.127507899639
 21
9118.243182432328
 31
0.0
  0
LINE
  5
19CDB
330
19BD8
100
AcDbEntity
  8
SUNPOU
100
AcDbLine
 10
7230.127507899638
 20
8168.243182432325
 30
0.0
 11
7020.127507899639
 21
8168.243182432325
 31
0.0
  0
LINE
  5
19CDC
330
19BD8
100
AcDbEntity
  8
SUNPOU
100
AcDbLine
 10
7020.127507899639
 20
8168.24318243233
 30
0.0
 11
7020.127507899639
 21
8318.243182432329
 31
0.0
  0
TEXT
  5
19CDD
330
19BD8
100
AcDbEntity
  8
SUNPOU
100
AcDbText
 10
7372.003543448691
 20
8123.243182432331
 30
0.0
 40
90.0
  1
B
 41
0.6700000000000001
  7
00
 72
     4
 11
7403.589257734406
 21
8168.24318243233
 31
0.0
100
AcDbText
  0
LINE
  5
19CFB
330
19BD8
100
AcDbEntity
  8
1PL-M1
100
AcDbLine
 10
4799.797051267463
 20
2428.172125878786
 30
0.0
 11
4799.797051267463
 21
4175.485411556191
 31
0.0
  0
LINE
  5
19CFC
330
19BD8
100
AcDbEntity
  8
KISO
100
AcDbLine
 10
6082.193774006775
 20
3456.684839419605
 30
0.0
 11
4851.797051267459
 21
3456.684839419605
 31
0.0
  0
LINE
  5
19CFD
330
19BD8
100
AcDbEntity
  8
KISO
100
AcDbLine
 10
6082.193774006775
 20
3314.284839419603
 30
0.0
 11
4851.797051267459
 21
3314.284839419602
 31
0.0
  0
LINE
  5
19CFE
330
19BD8
100
AcDbEntity
  8
HATCH
100
AcDbLine
 10
5031.155511458886
 20
3456.684839419605
 30
0.0
 11
4888.755511458894
 21
3314.284839419605
 31
0.0
  0
LINE
  5
19CFF
330
19BD8
100
AcDbEntity
  8
U3
100
AcDbLine
 10
3353.961658022964
 20
3376.684839419603
 30
0.0
 11
3521.961658022965
 21
3208.684839419607
 31
0.0
  0
LINE
  5
19D00
330
19BD8
100
AcDbEntity
  8
U3
100
AcDbLine
 10
3303.049969777532
 20
3325.773151174173
 30
0.0
 11
3420.1382815321
 21
3208.684839419603
 31
0.0
  0
LINE
  5
19D01
330
19BD8
100
AcDbEntity
  8
U3
100
AcDbLine
 10
3589.820095533321
 20
3376.684839419604
 30
0.0
 11
3017.961658022965
 21
3376.684839419604
 31
0.0
  0
LINE
  5
19D02
330
19BD8
100
AcDbEntity
  8
U3
100
AcDbLine
 10
3084.1382815321
 20
3310.508215910466
 30
0.0
 11
3150.314905041233
 21
3376.684839419601
 31
0.0
  0
LINE
  5
19D03
330
19BD8
100
AcDbEntity
  8
U3
100
AcDbLine
 10
3017.961658022965
 20
3376.684839419601
 30
0.0
 11
3185.961658022964
 21
3208.684839419606
 31
0.0
  0
LINE
  5
19D04
330
19BD8
100
AcDbEntity
  8
U3
100
AcDbLine
 10
3135.049969777532
 20
3259.596527665037
 30
0.0
 11
3252.1382815321
 21
3376.684839419601
 31
0.0
  0
LINE
  5
19D05
330
19BD8
100
AcDbEntity
  8
U3
100
AcDbLine
 10
3185.961658022964
 20
3208.684839419606
 30
0.0
 11
3353.961658022964
 21
3376.684839419603
 31
0.0
  0
LINE
  5
19D06
330
19BD8
100
AcDbEntity
  8
U3
100
AcDbLine
 10
3252.1382815321
 20
3274.86146292874
 30
0.0
 11
3318.314905041237
 21
3208.684839419603
 31
0.0
  0
LINE
  5
19D07
330
19BD8
100
AcDbEntity
  8
U3
100
AcDbLine
 10
3521.961658022965
 20
3208.684839419607
 30
0.0
 11
3589.820095533321
 21
3276.543276929964
 31
0.0
  0
LINE
  5
19D08
330
19BD8
100
AcDbEntity
  8
U3
100
AcDbLine
 10
3420.1382815321
 20
3310.508215910469
 30
0.0
 11
3486.314905041234
 21
3376.684839419603
 31
0.0
  0
LINE
  5
19D09
330
19BD8
100
AcDbEntity
  8
U3
100
AcDbLine
 10
3471.049969777533
 20
3259.596527665038
 30
0.0
 11
3588.138281532103
 21
3376.684839419603
 31
0.0
  0
LINE
  5
19D0A
330
19BD8
100
AcDbEntity
  8
HASHIRA
100
AcDbLine
 10
4851.797051267459
 20
3328.6848394196
 30
0.0
 11
4851.797051267459
 21
3718.91804462035
 31
0.0
  0
LINE
  5
19D0B
330
19BD8
100
AcDbEntity
  8
HASHIRA
100
AcDbLine
 10
4747.797051267458
 20
3718.91804462035
 30
0.0
 11
4747.797051267458
 21
3328.6848394196
 31
0.0
  0
LINE
  5
19D0C
330
19BD8
100
AcDbEntity
  8
KISO
100
AcDbLine
 10
4747.797051267458
 20
3314.284839419602
 30
0.0
 11
4159.797051267463
 21
3314.284839419603
 31
0.0
  0
LINE
  5
19D0D
330
19BD8
100
AcDbEntity
  8
U3
100
AcDbLine
 10
4159.797051267463
 20
3376.684839419604
 30
0.0
 11
3909.820095533321
 21
3376.684839419603
 31
0.0
  0
LINE
  5
19D0E
330
19BD8
100
AcDbEntity
  8
U3
100
AcDbLine
 10
4098.782873409589
 20
3310.508215910469
 30
0.0
 11
4159.797051267463
 21
3371.522393768344
 31
0.0
  0
LINE
  5
19D0F
330
19BD8
100
AcDbEntity
  8
U3
100
AcDbLine
 10
4032.606249900456
 20
3376.684839419603
 30
0.0
 11
4159.797051267463
 21
3249.494038052592
 31
0.0
  0
LINE
  5
19D10
330
19BD8
100
AcDbEntity
  8
U3
100
AcDbLine
 10
3975.765342899848
 20
3331.702369929347
 30
0.0
 11
4098.782873409595
 21
3208.684839419603
 31
0.0
  0
LINE
  5
19D11
330
19BD8
100
AcDbEntity
  8
KISO
100
AcDbLine
 10
4747.797051267458
 20
3456.684839419605
 30
0.0
 11
4159.797051267463
 21
3456.684839419605
 31
0.0
  0
LINE
  5
19D12
330
19BD8
100
AcDbEntity
  8
KISO
100
AcDbLine
 10
4159.797051267463
 20
3456.684839419608
 30
0.0
 11
4159.797051267463
 21
3314.284839419603
 31
0.0
  0
LINE
  5
19D13
330
19BD8
100
AcDbEntity
  8
HATCH
100
AcDbLine
 10
4816.914626963201
 20
3314.284839419602
 30
0.0
 11
4810.197051267465
 21
3307.567263723864
 31
0.0
  0
LINE
  5
19D14
330
19BD8
100
AcDbEntity
  8
KISO
100
AcDbLine
 10
5439.797051267471
 20
3186.284839419601
 30
0.0
 11
6082.193774006775
 21
3186.284839419603
 31
0.0
  0
LINE
  5
19D15
330
19BD8
100
AcDbEntity
  8
HATCH
100
AcDbLine
 10
6038.673087154623
 20
3456.684839419603
 30
0.0
 11
5896.273087154634
 21
3314.284839419605
 31
0.0
  0
LINE
  5
19D16
330
19BD8
100
AcDbEntity
  8
HATCH
100
AcDbLine
 10
6086.190662850363
 20
3456.684839419603
 30
0.0
 11
5943.790662850366
 21
3314.284839419605
 31
0.0
  0
LINE
  5
19D17
330
19BD8
100
AcDbEntity
  8
HATCH
100
AcDbLine
 10
5511.155511458887
 20
3456.684839419605
 30
0.0
 11
5368.755511458889
 21
3314.284839419605
 31
0.0
  0
LINE
  5
19D18
330
19BD8
100
AcDbEntity
  8
HATCH
100
AcDbLine
 10
5558.673087154621
 20
3456.684839419603
 30
0.0
 11
5416.273087154634
 21
3314.284839419605
 31
0.0
  0
LINE
  5
19D19
330
19BD8
100
AcDbEntity
  8
HATCH
100
AcDbLine
 10
5126.190662850362
 20
3456.684839419603
 30
0.0
 11
4983.790662850366
 21
3314.284839419605
 31
0.0
  0
LINE
  5
19D1A
330
19BD8
100
AcDbEntity
  8
HATCH
100
AcDbLine
 10
5078.673087154623
 20
3456.684839419603
 30
0.0
 11
4936.273087154634
 21
3314.284839419605
 31
0.0
  0
LINE
  5
19D1B
330
19BD8
100
AcDbEntity
  8
HATCH
100
AcDbLine
 10
5606.190662850362
 20
3456.684839419603
 30
0.0
 11
5463.790662850366
 21
3314.284839419605
 31
0.0
  0
LINE
  5
19D1C
330
19BD8
100
AcDbEntity
  8
HATCH
100
AcDbLine
 10
5991.155511458885
 20
3456.684839419605
 30
0.0
 11
5848.75551145889
 21
3314.284839419605
 31
0.0
  0
LINE
  5
19D1D
330
19BD8
100
AcDbEntity
  8
KISO
100
AcDbLine
 10
4159.797051267463
 20
3314.284839419601
 30
0.0
 11
4159.797051267463
 21
2706.284839419603
 31
0.0
  0
LINE
  5
19D1E
330
19BD8
100
AcDbEntity
  8
KISO
100
AcDbLine
 10
5439.797051267464
 20
3314.284839419601
 30
0.0
 11
5439.797051267464
 21
2706.284839419603
 31
0.0
  0
LINE
  5
19D1F
330
19BD8
100
AcDbEntity
  8
HATCH
100
AcDbLine
 10
5439.797051267464
 20
3073.167263723862
 30
0.0
 11
5072.914626963208
 21
2706.284839419602
 31
0.0
  0
LINE
  5
19D20
330
19BD8
100
AcDbEntity
  8
HATCH
100
AcDbLine
 10
5296.432202658937
 20
3314.284839419602
 30
0.0
 11
4688.432202658947
 21
2706.284839419603
 31
0.0
  0
LINE
  5
19D21
330
19BD8
100
AcDbEntity
  8
HATCH
100
AcDbLine
 10
5248.914626963204
 20
3314.284839419602
 30
0.0
 11
4810.197051267465
 21
2875.567263723857
 31
0.0
  0
LINE
  5
19D22
330
19BD8
100
AcDbEntity
  8
HATCH
100
AcDbLine
 10
5201.397051267465
 20
3314.284839419602
 30
0.0
 11
4810.197051267465
 21
2923.084839419596
 31
0.0
  0
LINE
  5
19D23
330
19BD8
100
AcDbEntity
  8
HATCH
100
AcDbLine
 10
5439.797051267464
 20
3025.649688028125
 30
0.0
 11
5120.432202658947
 21
2706.284839419602
 31
0.0
  0
LINE
  5
19D24
330
19BD8
100
AcDbEntity
  8
HATCH
100
AcDbLine
 10
5439.797051267464
 20
2978.132112332392
 30
0.0
 11
5167.949778354681
 21
2706.284839419602
 31
0.0
  0
LINE
  5
19D25
330
19BD8
100
AcDbEntity
  8
HATCH
100
AcDbLine
 10
4769.397051267475
 20
3314.284839419602
 30
0.0
 11
4161.397051267475
 21
2706.284839419603
 31
0.0
  0
LINE
  5
19D26
330
19BD8
100
AcDbEntity
  8
HATCH
100
AcDbLine
 10
4721.879475571731
 20
3314.284839419602
 30
0.0
 11
4159.797051267463
 21
2752.202415115331
 31
0.0
  0
LINE
  5
19D27
330
19BD8
100
AcDbEntity
  8
HATCH
100
AcDbLine
 10
4789.397051267463
 20
3286.767263723862
 30
0.0
 11
4208.914626963208
 21
2706.284839419603
 31
0.0
  0
LINE
  5
19D28
330
19BD8
100
AcDbEntity
  8
HATCH
100
AcDbLine
 10
4337.397051267472
 20
3314.284839419603
 30
0.0
 11
4159.797051267463
 21
3136.684839419597
 31
0.0
  0
LINE
  5
19D29
330
19BD8
100
AcDbEntity
  8
HATCH
100
AcDbLine
 10
4242.361899876001
 20
3314.284839419603
 30
0.0
 11
4159.797051267463
 21
3231.719990811068
 31
0.0
  0
LINE
  5
19D2A
330
19BD8
100
AcDbEntity
  8
HATCH
100
AcDbLine
 10
4289.879475571739
 20
3314.284839419602
 30
0.0
 11
4159.797051267463
 21
3184.202415115327
 31
0.0
  0
LINE
  5
19D2B
330
19BD8
100
AcDbEntity
  8
HATCH
100
AcDbLine
 10
4789.397051267463
 20
2902.284839419595
 30
0.0
 11
4751.797051267482
 21
2864.684839419608
 31
0.0
  0
LINE
  5
19D2C
330
19BD8
100
AcDbEntity
  8
HATCH
100
AcDbLine
 10
4735.797051267462
 20
2848.684839419589
 30
0.0
 11
4593.397051267474
 21
2706.284839419603
 31
0.0
  0
LINE
  5
19D2D
330
19BD8
100
AcDbEntity
  8
HATCH
100
AcDbLine
 10
5439.797051267464
 20
3280.436002075317
 30
0.0
 11
5459.339686619942
 21
3314.284839419603
 31
0.0
  0
LINE
  5
19D2E
330
19BD8
100
AcDbEntity
  8
U3
100
AcDbLine
 10
3924.853654654415
 20
3280.790681683919
 30
0.0
 11
3996.959496918732
 21
3208.684839419603
 31
0.0
  0
LINE
  5
19D2F
330
19BD8
100
AcDbEntity
  8
U3
100
AcDbLine
 10
3909.820095533321
 20
3265.757122562824
 30
0.0
 11
4020.747812390101
 21
3376.684839419601
 31
0.0
  0
LINE
  5
19D30
330
19BD8
100
AcDbEntity
  8
HATCH
100
AcDbLine
 10
4778.514626963221
 20
2843.884839419608
 30
0.0
 11
4640.914626963214
 21
2706.284839419603
 31
0.0
  0
LINE
  5
19D31
330
19BD8
100
AcDbEntity
  8
HATCH
100
AcDbLine
 10
4646.190662850361
 20
3456.684839419603
 30
0.0
 11
4503.790662850366
 21
3314.284839419605
 31
0.0
  0
LINE
  5
19D32
330
19BD8
100
AcDbEntity
  8
HATCH
100
AcDbLine
 10
4598.673087154621
 20
3456.684839419603
 30
0.0
 11
4456.273087154634
 21
3314.284839419605
 31
0.0
  0
LINE
  5
19D33
330
19BD8
100
AcDbEntity
  8
HATCH
100
AcDbLine
 10
4551.155511458886
 20
3456.684839419605
 30
0.0
 11
4408.755511458894
 21
3314.284839419605
 31
0.0
  0
LINE
  5
19D34
330
19BD8
100
AcDbEntity
  8
SUNPOU
100
AcDbLine
 10
4799.797051267463
 20
4130.485411556192
 30
0.0
 11
6225.027558517715
 21
4130.485411556192
 31
0.0
  0
TEXT
  5
19D35
330
19BD8
100
AcDbEntity
  8
SUNPOU
100
AcDbText
 10
5585.624750407928
 20
4175.485411556191
 30
0.0
 40
90.0
  1
2810
 41
0.6666666666666666
  7
00
 72
     4
 11
5699.910464693643
 21
4220.485411556191
 31
0.0
100
AcDbText
  0
LINE
  5
19D36
330
19BD8
100
AcDbEntity
  8
KISO
100
AcDbLine
 10
5599.797051267461
 20
2706.284839419603
 30
0.0
 11
5599.797051267461
 21
2546.284839419602
 31
0.0
  0
LINE
  5
19D37
330
19BD8
100
AcDbEntity
  8
HATCH
100
AcDbLine
 10
4827.726846493639
 20
2546.284839419602
 30
0.0
 11
4920.102889160304
 21
2706.284839419603
 31
0.0
  0
LINE
  5
19D38
330
19BD8
100
AcDbEntity
  8
HATCH
100
AcDbLine
 10
4866.769555826969
 20
2706.284839419603
 30
0.0
 11
4893.436222493637
 21
2660.096816752937
 31
0.0
  0
LINE
  5
19D39
330
19BD8
100
AcDbEntity
  8
HATCH
100
AcDbLine
 10
4854.393513160305
 20
2592.472860752933
 30
0.0
 11
4881.06017982697
 21
2546.284839419602
 31
0.0
  0
LINE
  5
19D3A
330
19BD8
100
AcDbEntity
  8
HATCH
100
AcDbLine
 10
4654.393513160305
 20
2592.472860752933
 30
0.0
 11
4681.06017982697
 21
2546.284839419602
 31
0.0
  0
LINE
  5
19D3B
330
19BD8
100
AcDbEntity
  8
HATCH
100
AcDbLine
 10
4666.769555826969
 20
2706.284839419603
 30
0.0
 11
4693.436222493637
 21
2660.096816752937
 31
0.0
  0
LINE
  5
19D3C
330
19BD8
100
AcDbEntity
  8
HATCH
100
AcDbLine
 10
4454.393513160304
 20
2592.472860752933
 30
0.0
 11
4481.06017982697
 21
2546.284839419602
 31
0.0
  0
LINE
  5
19D3D
330
19BD8
100
AcDbEntity
  8
HATCH
100
AcDbLine
 10
4427.726846493636
 20
2546.284839419602
 30
0.0
 11
4520.102889160303
 21
2706.284839419603
 31
0.0
  0
LINE
  5
19D3E
330
19BD8
100
AcDbEntity
  8
HATCH
100
AcDbLine
 10
4466.76955582697
 20
2706.284839419603
 30
0.0
 11
4493.436222493635
 21
2660.096816752937
 31
0.0
  0
LINE
  5
19D3F
330
19BD8
100
AcDbEntity
  8
KISO
100
AcDbLine
 10
3999.797051267461
 20
2706.284839419603
 30
0.0
 11
3999.797051267462
 21
2546.284839419602
 31
0.0
  0
LINE
  5
19D40
330
19BD8
100
AcDbEntity
  8
HATCH
100
AcDbLine
 10
4254.393513160304
 20
2592.472860752933
 30
0.0
 11
4281.060179826972
 21
2546.284839419602
 31
0.0
  0
LINE
  5
19D41
330
19BD8
100
AcDbEntity
  8
HATCH
100
AcDbLine
 10
4266.76955582697
 20
2706.284839419603
 30
0.0
 11
4293.436222493635
 21
2660.096816752937
 31
0.0
  0
LINE
  5
19D42
330
19BD8
100
AcDbEntity
  8
HATCH
100
AcDbLine
 10
4227.726846493637
 20
2546.284839419602
 30
0.0
 11
4320.102889160303
 21
2706.284839419603
 31
0.0
  0
LINE
  5
19D43
330
19BD8
100
AcDbEntity
  8
HATCH
100
AcDbLine
 10
4627.726846493636
 20
2546.284839419602
 30
0.0
 11
4720.102889160303
 21
2706.284839419603
 31
0.0
  0
LINE
  5
19D44
330
19BD8
100
AcDbEntity
  8
KISO
100
AcDbLine
 10
5599.797051267461
 20
2706.284839419603
 30
0.0
 11
3999.797051267461
 21
2706.284839419603
 31
0.0
  0
LINE
  5
19D45
330
19BD8
100
AcDbEntity
  8
KISO
100
AcDbLine
 10
3999.797051267462
 20
2546.284839419602
 30
0.0
 11
5599.797051267461
 21
2546.284839419602
 31
0.0
  0
LINE
  5
19D46
330
19BD8
100
AcDbEntity
  8
HATCH
100
AcDbLine
 10
5066.76955582697
 20
2706.284839419603
 30
0.0
 11
5093.436222493636
 21
2660.096816752937
 31
0.0
  0
LINE
  5
19D47
330
19BD8
100
AcDbEntity
  8
HATCH
100
AcDbLine
 10
5027.726846493639
 20
2546.284839419602
 30
0.0
 11
5120.102889160303
 21
2706.284839419603
 31
0.0
  0
LINE
  5
19D48
330
19BD8
100
AcDbEntity
  8
HATCH
100
AcDbLine
 10
5054.393513160305
 20
2592.472860752933
 30
0.0
 11
5081.06017982697
 21
2546.284839419602
 31
0.0
  0
LINE
  5
19D49
330
19BD8
100
AcDbEntity
  8
HATCH
100
AcDbLine
 10
5227.726846493639
 20
2546.284839419602
 30
0.0
 11
5320.102889160303
 21
2706.284839419603
 31
0.0
  0
LINE
  5
19D4A
330
19BD8
100
AcDbEntity
  8
HATCH
100
AcDbLine
 10
5266.769555826971
 20
2706.284839419603
 30
0.0
 11
5293.436222493635
 21
2660.096816752937
 31
0.0
  0
LINE
  5
19D4B
330
19BD8
100
AcDbEntity
  8
HATCH
100
AcDbLine
 10
5254.393513160305
 20
2592.472860752933
 30
0.0
 11
5281.060179826972
 21
2546.284839419602
 31
0.0
  0
LINE
  5
19D4C
330
19BD8
100
AcDbEntity
  8
HATCH
100
AcDbLine
 10
4066.76955582697
 20
2706.284839419603
 30
0.0
 11
4093.436222493635
 21
2660.096816752937
 31
0.0
  0
LINE
  5
19D4D
330
19BD8
100
AcDbEntity
  8
HATCH
100
AcDbLine
 10
4027.726846493638
 20
2546.284839419602
 30
0.0
 11
4120.102889160301
 21
2706.284839419603
 31
0.0
  0
LINE
  5
19D4E
330
19BD8
100
AcDbEntity
  8
HATCH
100
AcDbLine
 10
4054.393513160305
 20
2592.472860752933
 30
0.0
 11
4081.060179826971
 21
2546.284839419602
 31
0.0
  0
TEXT
  5
19D4F
330
19BD8
100
AcDbEntity
  8
SUNPOU
100
AcDbText
 10
3070.061516132469
 20
3511.684839419604
 30
0.0
 40
90.0
  1
G.L
 41
0.6700000000000001
  7
01
 72
     4
 11
3141.847230418183
 21
3556.684839419605
 31
0.0
100
AcDbText
  0
LINE
  5
19D50
330
19BD8
100
AcDbEntity
  8
SUNPOU
100
AcDbLine
 10
3193.80875464525
 20
3466.684839419605
 30
0.0
 11
3089.885706191117
 21
3466.684839419605
 31
0.0
  0
LINE
  5
19D51
330
19BD8
100
AcDbEntity
  8
SUNPOU
100
AcDbLine
 10
3089.885706191117
 20
3466.684839419605
 30
0.0
 11
3141.847230418183
 21
3376.684839419604
 31
0.0
  0
LINE
  5
19D52
330
19BD8
100
AcDbEntity
  8
SUNPOU
100
AcDbLine
 10
3141.847230418183
 20
3376.684839419604
 30
0.0
 11
3193.80875464525
 21
3466.684839419605
 31
0.0
  0
TEXT
  5
19D53
330
19BD8
100
AcDbEntity
  8
HIKIDASHI
100
AcDbText
 10
4876.000654146238
 20
1664.635820576935
 30
0.0
 40
90.0
  1
断 面
  7
01
100
AcDbText
  0
LINE
  5
19D54
330
19BD8
100
AcDbEntity
  8
HIKIDASHI
100
AcDbLine
 10
4451.983374649677
 20
1619.635820576936
 30
0.0
 11
5147.610727885247
 21
1619.635820576936
 31
0.0
  0
LINE
  5
19D55
330
19BD8
100
AcDbEntity
  8
HIKIDASHI
100
AcDbLine
 10
4451.983374649677
 20
1589.635820576935
 30
0.0
 11
5147.610727885247
 21
1589.635820576935
 31
0.0
  0
TEXT
  5
19D56
330
19BD8
100
AcDbEntity
  8
HIKIDASHI
100
AcDbText
 10
4481.983374649677
 20
1664.635820576935
 30
0.0
 40
90.0
  1
A  ~  A'
 41
0.6700000000000001
  7
00
100
AcDbText
  0
TEXT
  5
19D57
330
19BD8
100
AcDbEntity
  8
HIKIDASHI
100
AcDbText
 10
5718.705531692625
 20
2949.11470702088
 30
0.0
 40
90.0
  1
敷砂利又は砕石
  7
01
 72
     2
 11
6450.705531692626
 21
2994.11470702088
 31
0.0
100
AcDbText
 73
     2
  0
LINE
  5
19D58
330
19BD8
100
AcDbEntity
  8
HIKIDASHI
100
AcDbLine
 10
6475.935832338305
 20
2904.11470702088
 30
0.0
 11
5674.871662611158
 21
2904.11470702088
 31
0.0
  0
TEXT
  5
19D59
330
19BD8
100
AcDbEntity
  8
HIKIDASHI
100
AcDbText
 10
5843.40570439457
 20
2393.304238552882
 30
0.0
 40
90.0
  1
砕　石
  7
01
 72
     2
 11
6143.40570439457
 21
2438.304238552882
 31
0.0
100
AcDbText
 73
     2
  0
LINE
  5
19D5A
330
19BD8
100
AcDbEntity
  8
HIKIDASHI
100
AcDbLine
 10
6185.104473630285
 20
2348.304238552882
 30
0.0
 11
5816.338096802661
 21
2348.304238552882
 31
0.0
  0
LINE
  5
19D5B
330
19BD8
100
AcDbEntity
  8
HIKIDASHI
100
AcDbLine
 10
6961.513680660954
 20
3920.485411556192
 30
0.0
 11
5333.860047839355
 21
3920.485411556192
 31
0.0
  0
TEXT
  5
19D5C
330
19BD8
100
AcDbEntity
  8
HIKIDASHI
100
AcDbText
 10
5358.925780378814
 20
3965.485411556191
 30
0.0
 40
90.0
  1
土間：コンクリ－ト天端コテ押え
  7
01
 72
     2
 11
6948.925780378814
 21
4010.48541155619
 31
0.0
100
AcDbText
 73
     2
  0
CIRCLE
  5
19D5D
330
19BD8
100
AcDbEntity
  8
BOLT
100
AcDbCircle
 10
8580.123251791111
 20
3419.884839419608
 30
0.0
 40
13.2
  0
CIRCLE
  5
19D5E
330
19BD8
100
AcDbEntity
  8
BOLT
100
AcDbCircle
 10
8580.123251791111
 20
3419.884839419608
 30
0.0
 40
16.8
  0
CIRCLE
  5
19D5F
330
19BD8
100
AcDbEntity
  8
BOLT
100
AcDbCircle
 10
8580.123251791111
 20
3355.884839419608
 30
0.0
 40
16.8
  0
CIRCLE
  5
19D60
330
19BD8
100
AcDbEntity
  8
BOLT
100
AcDbCircle
 10
8580.123251791111
 20
3355.884839419608
 30
0.0
 40
13.2
  0
LINE
  5
19D61
330
19BD8
100
AcDbEntity
  8
KISO
100
AcDbLine
 10
9862.519974530416
 20
3456.684839419605
 30
0.0
 11
8632.123251791107
 21
3456.684839419605
 31
0.0
  0
LINE
  5
19D62
330
19BD8
100
AcDbEntity
  8
KISO
100
AcDbLine
 10
9220.123251791108
 20
3186.284839419602
 30
0.0
 11
9862.519974530416
 21
3186.284839419603
 31
0.0
  0
LINE
  5
19D63
330
19BD8
100
AcDbEntity
  8
KISO
100
AcDbLine
 10
8528.123251791111
 20
3314.284839419603
 30
0.0
 11
7940.12325179111
 21
3314.284839419603
 31
0.0
  0
LINE
  5
19D64
330
19BD8
100
AcDbEntity
  8
KISO
100
AcDbLine
 10
8528.123251791111
 20
3456.684839419605
 30
0.0
 11
8260.12325179111
 21
3456.684839419605
 31
0.0
  0
LINE
  5
19D65
330
19BD8
100
AcDbEntity
  8
KISO
100
AcDbLine
 10
8260.12325179111
 20
3456.684839419607
 30
0.0
 11
8260.12325179111
 21
3314.284839419602
 31
0.0
  0
LINE
  5
19D66
330
19BD8
100
AcDbEntity
  8
KISO
100
AcDbLine
 10
7940.12325179111
 20
3314.284839419603
 30
0.0
 11
7940.12325179111
 21
3186.284839419603
 31
0.0
  0
LINE
  5
19D67
330
19BD8
100
AcDbEntity
  8
HASHIRA
100
AcDbLine
 10
8632.123251791107
 20
3328.684839419608
 30
0.0
 11
8632.123251791101
 21
3583.485411556191
 31
0.0
  0
LINE
  5
19D68
330
19BD8
100
AcDbEntity
  8
HASHIRA
100
AcDbLine
 10
8528.123251791111
 20
3583.485411556191
 30
0.0
 11
8528.123251791111
 21
3328.684839419608
 31
0.0
  0
LINE
  5
19D69
330
19BD8
100
AcDbEntity
  8
HATCH
100
AcDbLine
 10
8331.481711982535
 20
3456.684839419605
 30
0.0
 11
8260.12325179111
 21
3385.326379228178
 31
0.0
  0
LINE
  5
19D6A
330
19BD8
100
AcDbEntity
  8
HATCH
100
AcDbLine
 10
8426.516863374008
 20
3456.684839419605
 30
0.0
 11
8284.116863374006
 21
3314.284839419603
 31
0.0
  0
LINE
  5
19D6B
330
19BD8
100
AcDbEntity
  8
HATCH
100
AcDbLine
 10
8378.999287678274
 20
3456.684839419605
 30
0.0
 11
8260.12325179111
 21
3337.808803532439
 31
0.0
  0
LINE
  5
19D6C
330
19BD8
100
AcDbEntity
  8
1PL-S1
100
AcDbLine
 10
8468.12325179111
 20
3304.684839419607
 30
0.0
 11
8468.12325179111
 21
3333.484839419608
 31
0.0
  0
LINE
  5
19D6D
330
19BD8
100
AcDbEntity
  8
HATCH
100
AcDbLine
 10
8811.481711982535
 20
3456.684839419605
 30
0.0
 11
8669.08171198253
 21
3314.284839419603
 31
0.0
  0
LINE
  5
19D6E
330
19BD8
100
AcDbEntity
  8
HATCH
100
AcDbLine
 10
8858.999287678274
 20
3456.684839419605
 30
0.0
 11
8716.599287678276
 21
3314.284839419603
 31
0.0
  0
LINE
  5
19D6F
330
19BD8
100
AcDbEntity
  8
1PL-S1
100
AcDbLine
 10
8692.123251791107
 20
3304.684839419604
 30
0.0
 11
8692.123251791107
 21
3333.484839419603
 31
0.0
  0
LINE
  5
19D70
330
19BD8
100
AcDbEntity
  8
HATCH
100
AcDbLine
 10
8906.516863374006
 20
3456.684839419605
 30
0.0
 11
8764.116863374004
 21
3314.284839419603
 31
0.0
  0
LINE
  5
19D71
330
19BD8
100
AcDbEntity
  8
HATCH
100
AcDbLine
 10
9291.481711982534
 20
3456.684839419605
 30
0.0
 11
9149.081711982532
 21
3314.284839419603
 31
0.0
  0
LINE
  5
19D72
330
19BD8
100
AcDbEntity
  8
HATCH
100
AcDbLine
 10
9338.999287678275
 20
3456.684839419605
 30
0.0
 11
9196.599287678271
 21
3314.284839419603
 31
0.0
  0
LINE
  5
19D73
330
19BD8
100
AcDbEntity
  8
HATCH
100
AcDbLine
 10
9386.516863374007
 20
3456.684839419605
 30
0.0
 11
9244.116863374001
 21
3314.284839419603
 31
0.0
  0
LINE
  5
19D74
330
19BD8
100
AcDbEntity
  8
HATCH
100
AcDbLine
 10
9866.516863374007
 20
3456.684839419605
 30
0.0
 11
9724.116863374
 21
3314.284839419603
 31
0.0
  0
LINE
  5
19D75
330
19BD8
100
AcDbEntity
  8
HATCH
100
AcDbLine
 10
9818.999287678275
 20
3456.684839419605
 30
0.0
 11
9676.599287678278
 21
3314.284839419603
 31
0.0
  0
LINE
  5
19D76
330
19BD8
100
AcDbEntity
  8
HATCH
100
AcDbLine
 10
9771.481711982536
 20
3456.684839419605
 30
0.0
 11
9629.081711982532
 21
3314.284839419603
 31
0.0
  0
LINE
  5
19D77
330
19BD8
100
AcDbEntity
  8
KISO
100
AcDbLine
 10
9862.519974530416
 20
3314.284839419603
 30
0.0
 11
7940.12325179111
 21
3314.284839419603
 31
0.0
  0
LINE
  5
19D78
330
19BD8
100
AcDbEntity
  8
HATCH
100
AcDbLine
 10
9220.123251791108
 20
3280.436002076059
 30
0.0
 11
9239.665887143591
 21
3314.284839420345
 31
0.0
  0
LINE
  5
19D79
330
19BD8
100
AcDbEntity
  8
HATCH
100
AcDbLine
 10
9220.123251791108
 20
3073.167263723867
 30
0.0
 11
8853.240827486855
 21
2706.284839419607
 31
0.0
  0
LINE
  5
19D7A
330
19BD8
100
AcDbEntity
  8
HATCH
100
AcDbLine
 10
9220.123251791108
 20
3025.64968802813
 30
0.0
 11
8900.758403182587
 21
2706.284839419607
 31
0.0
  0
LINE
  5
19D7B
330
19BD8
100
AcDbEntity
  8
HATCH
100
AcDbLine
 10
9220.123251791108
 20
2978.132112332395
 30
0.0
 11
8948.275978878326
 21
2706.284839419607
 31
0.0
  0
LINE
  5
19D7C
330
19BD8
100
AcDbEntity
  8
HATCH
100
AcDbLine
 10
9029.240827486844
 20
3314.284839419603
 30
0.0
 11
8702.523251791111
 21
2987.567263723864
 31
0.0
  0
LINE
  5
19D7D
330
19BD8
100
AcDbEntity
  8
HATCH
100
AcDbLine
 10
9076.758403182576
 20
3314.284839419603
 30
0.0
 11
8702.523251791111
 21
2940.049688028133
 31
0.0
  0
LINE
  5
19D7E
330
19BD8
100
AcDbEntity
  8
HATCH
100
AcDbLine
 10
8981.723251791107
 20
3314.284839419603
 30
0.0
 11
8702.523251791111
 21
3035.084839419601
 31
0.0
  0
LINE
  5
19D7F
330
19BD8
100
AcDbEntity
  8
KISO
100
AcDbLine
 10
9220.123251791108
 20
3314.284839419605
 30
0.0
 11
9220.123251791108
 21
2706.284839419607
 31
0.0
  0
LINE
  5
19D80
330
19BD8
100
AcDbEntity
  8
KISO
100
AcDbLine
 10
7940.12325179111
 20
3314.284839419605
 30
0.0
 11
7940.12325179111
 21
2706.284839419607
 31
0.0
  0
LINE
  5
19D81
330
19BD8
100
AcDbEntity
  8
HATCH
100
AcDbLine
 10
8117.72325179111
 20
3314.284839419603
 30
0.0
 11
7940.12325179111
 21
3136.684839419602
 31
0.0
  0
LINE
  5
19D82
330
19BD8
100
AcDbEntity
  8
HATCH
100
AcDbLine
 10
8070.205676095381
 20
3314.284839419603
 30
0.0
 11
7940.12325179111
 21
3184.202415115334
 31
0.0
  0
LINE
  5
19D83
330
19BD8
100
AcDbEntity
  8
HATCH
100
AcDbLine
 10
8681.72325179111
 20
3014.284839419604
 30
0.0
 11
8373.723251791124
 21
2706.284839419607
 31
0.0
  0
LINE
  5
19D84
330
19BD8
100
AcDbEntity
  8
HATCH
100
AcDbLine
 10
8681.723251791105
 20
2966.767263723863
 30
0.0
 11
8421.24082748686
 21
2706.284839419607
 31
0.0
  0
LINE
  5
19D85
330
19BD8
100
AcDbEntity
  8
HATCH
100
AcDbLine
 10
8681.723251791105
 20
2919.249688028132
 30
0.0
 11
8468.75840318259
 21
2706.284839419607
 31
0.0
  0
LINE
  5
19D86
330
19BD8
100
AcDbEntity
  8
HATCH
100
AcDbLine
 10
8502.205676095377
 20
3314.284839419602
 30
0.0
 11
8478.523251791115
 21
3290.602415115337
 31
0.0
  0
LINE
  5
19D87
330
19BD8
100
AcDbEntity
  8
HATCH
100
AcDbLine
 10
8457.723251791113
 20
3269.802415115337
 30
0.0
 11
7940.12325179111
 21
2752.202415115339
 31
0.0
  0
LINE
  5
19D88
330
19BD8
100
AcDbEntity
  8
HATCH
100
AcDbLine
 10
8549.723251791114
 20
3314.284839419603
 30
0.0
 11
8478.523251791115
 21
3243.084839419598
 31
0.0
  0
LINE
  5
19D89
330
19BD8
100
AcDbEntity
  8
HATCH
100
AcDbLine
 10
8457.723251791113
 20
3222.284839419597
 30
0.0
 11
7941.723251791126
 21
2706.284839419607
 31
0.0
  0
LINE
  5
19D8A
330
19BD8
100
AcDbEntity
  8
HATCH
100
AcDbLine
 10
8597.240827486848
 20
3314.284839419603
 30
0.0
 11
8478.523251791115
 21
3195.567263723865
 31
0.0
  0
LINE
  5
19D8B
330
19BD8
100
AcDbEntity
  8
HATCH
100
AcDbLine
 10
8457.723251791113
 20
3174.767263723866
 30
0.0
 11
7989.24082748685
 21
2706.284839419607
 31
0.0
  0
LINE
  5
19D8C
330
19BD8
100
AcDbEntity
  8
HATCH
100
AcDbLine
 10
8022.688100399646
 20
3314.284839419603
 30
0.0
 11
7940.12325179111
 21
3231.719990811074
 31
0.0
  0
LINE
  5
19D8D
330
19BD8
100
AcDbEntity
  8
U3
100
AcDbLine
 10
8015.109073933235
 20
3328.684839419603
 30
0.0
 11
8063.109073933231
 21
3376.684839419604
 31
0.0
  0
LINE
  5
19D8E
330
19BD8
100
AcDbEntity
  8
U3
100
AcDbLine
 10
8116.932450424092
 20
3328.684839419603
 30
0.0
 11
8164.9324504241
 21
3376.684839419605
 31
0.0
  0
LINE
  5
19D8F
330
19BD8
100
AcDbEntity
  8
U3
100
AcDbLine
 10
8164.932450424096
 20
3376.684839419604
 30
0.0
 11
8212.9324504241
 21
3328.684839419603
 31
0.0
  0
LINE
  5
19D90
330
19BD8
100
AcDbEntity
  8
1PL-M1
100
AcDbLine
 10
8580.123251791111
 20
2428.17212587879
 30
0.0
 11
8580.123251791111
 21
4175.485411556194
 31
0.0
  0
LINE
  5
19D91
330
19BD8
100
AcDbEntity
  8
KISO
100
AcDbLine
 10
9380.123251791109
 20
2706.284839419607
 30
0.0
 11
9380.123251791109
 21
2546.284839419602
 31
0.0
  0
LINE
  5
19D92
330
19BD8
100
AcDbEntity
  8
HATCH
100
AcDbLine
 10
8608.053047017286
 20
2546.284839419607
 30
0.0
 11
8700.429089683948
 21
2706.284839419607
 31
0.0
  0
LINE
  5
19D93
330
19BD8
100
AcDbEntity
  8
HATCH
100
AcDbLine
 10
8647.095756350616
 20
2706.284839419607
 30
0.0
 11
8673.762423017281
 21
2660.096816752943
 31
0.0
  0
LINE
  5
19D94
330
19BD8
100
AcDbEntity
  8
HATCH
100
AcDbLine
 10
8634.719713683949
 20
2592.472860752937
 30
0.0
 11
8661.386380350618
 21
2546.284839419607
 31
0.0
  0
LINE
  5
19D95
330
19BD8
100
AcDbEntity
  8
HATCH
100
AcDbLine
 10
8434.71971368395
 20
2592.472860752937
 30
0.0
 11
8461.386380350617
 21
2546.284839419607
 31
0.0
  0
LINE
  5
19D96
330
19BD8
100
AcDbEntity
  8
HATCH
100
AcDbLine
 10
8447.095756350616
 20
2706.284839419607
 30
0.0
 11
8473.762423017282
 21
2660.096816752943
 31
0.0
  0
LINE
  5
19D97
330
19BD8
100
AcDbEntity
  8
HATCH
100
AcDbLine
 10
8234.719713683949
 20
2592.472860752937
 30
0.0
 11
8261.386380350618
 21
2546.284839419607
 31
0.0
  0
LINE
  5
19D98
330
19BD8
100
AcDbEntity
  8
HATCH
100
AcDbLine
 10
8208.053047017285
 20
2546.284839419607
 30
0.0
 11
8300.42908968395
 21
2706.284839419607
 31
0.0
  0
LINE
  5
19D99
330
19BD8
100
AcDbEntity
  8
HATCH
100
AcDbLine
 10
8247.095756350615
 20
2706.284839419607
 30
0.0
 11
8273.762423017283
 21
2660.096816752943
 31
0.0
  0
LINE
  5
19D9A
330
19BD8
100
AcDbEntity
  8
KISO
100
AcDbLine
 10
7780.123251791109
 20
2706.284839419607
 30
0.0
 11
7780.123251791109
 21
2546.284839419602
 31
0.0
  0
LINE
  5
19D9B
330
19BD8
100
AcDbEntity
  8
HATCH
100
AcDbLine
 10
8034.719713683951
 20
2592.472860752937
 30
0.0
 11
8061.386380350617
 21
2546.284839419607
 31
0.0
  0
LINE
  5
19D9C
330
19BD8
100
AcDbEntity
  8
HATCH
100
AcDbLine
 10
8047.095756350616
 20
2706.284839419607
 30
0.0
 11
8073.762423017283
 21
2660.096816752943
 31
0.0
  0
LINE
  5
19D9D
330
19BD8
100
AcDbEntity
  8
HATCH
100
AcDbLine
 10
8008.053047017282
 20
2546.284839419607
 30
0.0
 11
8100.429089683949
 21
2706.284839419607
 31
0.0
  0
LINE
  5
19D9E
330
19BD8
100
AcDbEntity
  8
HATCH
100
AcDbLine
 10
8408.053047017286
 20
2546.284839419607
 30
0.0
 11
8500.429089683951
 21
2706.284839419607
 31
0.0
  0
LINE
  5
19D9F
330
19BD8
100
AcDbEntity
  8
KISO
100
AcDbLine
 10
7780.123251791109
 20
2546.284839419602
 30
0.0
 11
9380.123251791109
 21
2546.284839419602
 31
0.0
  0
LINE
  5
19DA0
330
19BD8
100
AcDbEntity
  8
HATCH
100
AcDbLine
 10
8847.095756350617
 20
2706.284839419607
 30
0.0
 11
8873.76242301728
 21
2660.096816752943
 31
0.0
  0
LINE
  5
19DA1
330
19BD8
100
AcDbEntity
  8
HATCH
100
AcDbLine
 10
8808.053047017287
 20
2546.284839419607
 30
0.0
 11
8900.429089683949
 21
2706.284839419607
 31
0.0
  0
LINE
  5
19DA2
330
19BD8
100
AcDbEntity
  8
HATCH
100
AcDbLine
 10
8834.71971368395
 20
2592.472860752937
 30
0.0
 11
8861.386380350618
 21
2546.284839419607
 31
0.0
  0
LINE
  5
19DA3
330
19BD8
100
AcDbEntity
  8
HATCH
100
AcDbLine
 10
9008.053047017282
 20
2546.284839419607
 30
0.0
 11
9100.429089683949
 21
2706.284839419607
 31
0.0
  0
LINE
  5
19DA4
330
19BD8
100
AcDbEntity
  8
HATCH
100
AcDbLine
 10
9047.095756350616
 20
2706.284839419607
 30
0.0
 11
9073.762423017281
 21
2660.096816752943
 31
0.0
  0
LINE
  5
19DA5
330
19BD8
100
AcDbEntity
  8
HATCH
100
AcDbLine
 10
9034.719713683948
 20
2592.472860752937
 30
0.0
 11
9061.386380350617
 21
2546.284839419607
 31
0.0
  0
LINE
  5
19DA6
330
19BD8
100
AcDbEntity
  8
HATCH
100
AcDbLine
 10
7847.095756350616
 20
2706.284839419607
 30
0.0
 11
7873.762423017281
 21
2660.096816752943
 31
0.0
  0
LINE
  5
19DA7
330
19BD8
100
AcDbEntity
  8
HATCH
100
AcDbLine
 10
7808.053047017286
 20
2546.284839419607
 30
0.0
 11
7900.429089683949
 21
2706.284839419607
 31
0.0
  0
LINE
  5
19DA8
330
19BD8
100
AcDbEntity
  8
HATCH
100
AcDbLine
 10
7834.719713683951
 20
2592.472860752937
 30
0.0
 11
7861.386380350618
 21
2546.284839419607
 31
0.0
  0
LINE
  5
19DA9
330
19BD8
100
AcDbEntity
  8
SUNPOU
100
AcDbLine
 10
8580.123251791111
 20
4130.485411556196
 30
0.0
 11
10005.35375904135
 21
4130.485411556196
 31
0.0
  0
TEXT
  5
19DAA
330
19BD8
100
AcDbEntity
  8
SUNPOU
100
AcDbText
 10
9361.665236645858
 20
4175.485411556197
 30
0.0
 40
90.0
  1
1810
 41
0.6666666666666666
  7
00
 72
     4
 11
9480.236665217288
 21
4220.485411556196
 31
0.0
100
AcDbText
  0
TEXT
  5
19DAB
330
19BD8
100
AcDbEntity
  8
SUNPOU
100
AcDbText
 10
6850.387716656114
 20
3511.684839419609
 30
0.0
 40
90.0
  1
G.L
 41
0.6700000000000001
  7
01
 72
     4
 11
6922.173430941829
 21
3556.684839419608
 31
0.0
100
AcDbText
  0
LINE
  5
19DAC
330
19BD8
100
AcDbEntity
  8
SUNPOU
100
AcDbLine
 10
6974.134955168897
 20
3466.684839419608
 30
0.0
 11
6870.211906714764
 21
3466.684839419608
 31
0.0
  0
LINE
  5
19DAD
330
19BD8
100
AcDbEntity
  8
SUNPOU
100
AcDbLine
 10
6870.211906714764
 20
3466.684839419608
 30
0.0
 11
6922.173430941829
 21
3376.684839419608
 31
0.0
  0
LINE
  5
19DAE
330
19BD8
100
AcDbEntity
  8
SUNPOU
100
AcDbLine
 10
6922.173430941829
 20
3376.684839419608
 30
0.0
 11
6974.134955168897
 21
3466.684839419608
 31
0.0
  0
LINE
  5
19DAF
330
19BD8
100
AcDbEntity
  8
U3
100
AcDbLine
 10
7134.287858546611
 20
3376.684839419603
 30
0.0
 11
7302.287858546612
 21
3208.684839419607
 31
0.0
  0
LINE
  5
19DB0
330
19BD8
100
AcDbEntity
  8
U3
100
AcDbLine
 10
7083.376170301177
 20
3325.773151174173
 30
0.0
 11
7200.464482055746
 21
3208.684839419603
 31
0.0
  0
LINE
  5
19DB1
330
19BD8
100
AcDbEntity
  8
U3
100
AcDbLine
 10
7370.146296056971
 20
3376.684839419604
 30
0.0
 11
6798.287858546611
 21
3376.684839419604
 31
0.0
  0
LINE
  5
19DB2
330
19BD8
100
AcDbEntity
  8
U3
100
AcDbLine
 10
6864.464482055746
 20
3310.508215910466
 30
0.0
 11
6930.64110556488
 21
3376.684839419601
 31
0.0
  0
LINE
  5
19DB3
330
19BD8
100
AcDbEntity
  8
U3
100
AcDbLine
 10
6798.287858546611
 20
3376.684839419601
 30
0.0
 11
6966.287858546611
 21
3208.684839419606
 31
0.0
  0
LINE
  5
19DB4
330
19BD8
100
AcDbEntity
  8
U3
100
AcDbLine
 10
6915.376170301178
 20
3259.596527665037
 30
0.0
 11
7032.464482055747
 21
3376.684839419601
 31
0.0
  0
LINE
  5
19DB5
330
19BD8
100
AcDbEntity
  8
U3
100
AcDbLine
 10
6966.287858546611
 20
3208.684839419606
 30
0.0
 11
7134.287858546611
 21
3376.684839419603
 31
0.0
  0
LINE
  5
19DB6
330
19BD8
100
AcDbEntity
  8
U3
100
AcDbLine
 10
7032.464482055747
 20
3274.86146292874
 30
0.0
 11
7098.641105564884
 21
3208.684839419603
 31
0.0
  0
LINE
  5
19DB7
330
19BD8
100
AcDbEntity
  8
U3
100
AcDbLine
 10
7302.287858546612
 20
3208.684839419607
 30
0.0
 11
7370.146296056971
 21
3276.543276929964
 31
0.0
  0
LINE
  5
19DB8
330
19BD8
100
AcDbEntity
  8
U3
100
AcDbLine
 10
7200.464482055746
 20
3310.508215910469
 30
0.0
 11
7266.641105564882
 21
3376.684839419603
 31
0.0
  0
LINE
  5
19DB9
330
19BD8
100
AcDbEntity
  8
U3
100
AcDbLine
 10
7251.376170301178
 20
3259.596527665038
 30
0.0
 11
7368.464482055746
 21
3376.684839419603
 31
0.0
  0
LINE
  5
19DBA
330
19BD8
100
AcDbEntity
  8
U3
100
AcDbLine
 10
8260.12325179111
 20
3376.684839419604
 30
0.0
 11
7690.146296056967
 21
3376.684839419603
 31
0.0
  0
LINE
  5
19DBB
330
19BD8
100
AcDbEntity
  8
U3
100
AcDbLine
 10
7879.109073933235
 20
3310.508215910469
 30
0.0
 11
7940.12325179111
 21
3371.522393768344
 31
0.0
  0
LINE
  5
19DBC
330
19BD8
100
AcDbEntity
  8
U3
100
AcDbLine
 10
7812.932450424101
 20
3376.684839419603
 30
0.0
 11
7940.12325179111
 21
3249.494038052592
 31
0.0
  0
LINE
  5
19DBD
330
19BD8
100
AcDbEntity
  8
U3
100
AcDbLine
 10
7756.091543423494
 20
3331.702369929347
 30
0.0
 11
7879.109073933242
 21
3208.684839419603
 31
0.0
  0
LINE
  5
19DBE
330
19BD8
100
AcDbEntity
  8
U3
100
AcDbLine
 10
7705.179855178061
 20
3280.790681683919
 30
0.0
 11
7777.285697442379
 21
3208.684839419603
 31
0.0
  0
LINE
  5
19DBF
330
19BD8
100
AcDbEntity
  8
U3
100
AcDbLine
 10
7690.146296056967
 20
3265.757122562824
 30
0.0
 11
7801.074012913748
 21
3376.684839419601
 31
0.0
  0
LINE
  5
19DC0
330
19BD8
100
AcDbEntity
  8
HIKIDASHI
100
AcDbLine
 10
9726.620021984601
 20
3920.485411556196
 30
0.0
 11
9357.853645156977
 21
3920.485411556196
 31
0.0
  0
TEXT
  5
19DC1
330
19BD8
100
AcDbEntity
  8
HIKIDASHI
100
AcDbText
 10
9390.92125274889
 20
3965.485411556194
 30
0.0
 40
90.0
  1
土　間
  7
01
 72
     2
 11
9684.921252748893
 21
4010.485411556194
 31
0.0
100
AcDbText
 73
     2
  0
TEXT
  5
19DC2
330
19BD8
100
AcDbEntity
  8
SUNPOU
100
AcDbText
 10
9478.587586282396
 20
3591.684839419605
 30
0.0
 40
90.0
  1
F.L
 41
0.6666666666666666
  7
00
 72
     4
 11
9547.159014853825
 21
3636.684839419604
 31
0.0
100
AcDbText
  0
LINE
  5
19DC3
330
19BD8
100
AcDbEntity
  8
SUNPOU
100
AcDbLine
 10
9547.159014853825
 20
3456.684839419605
 30
0.0
 11
9599.120539080891
 21
3546.684839419604
 31
0.0
  0
LINE
  5
19DC4
330
19BD8
100
AcDbEntity
  8
SUNPOU
100
AcDbLine
 10
9495.197490626756
 20
3546.684839419604
 30
0.0
 11
9547.159014853825
 21
3456.684839419605
 31
0.0
  0
LINE
  5
19DC5
330
19BD8
100
AcDbEntity
  8
SUNPOU
100
AcDbLine
 10
9599.120539080891
 20
3546.684839419604
 30
0.0
 11
9495.197490626756
 21
3546.684839419604
 31
0.0
  0
TEXT
  5
19DC6
330
19BD8
100
AcDbEntity
  8
HIKIDASHI
100
AcDbText
 10
7011.426786787378
 20
1814.878869270352
 30
0.0
 40
89.55223880597014
  1
x
 41
0.6700000000000001
  7
00
100
AcDbText
  0
TEXT
  5
19DC7
330
19BD8
100
AcDbEntity
  8
HIKIDASHI
100
AcDbText
 10
6939.591849597005
 20
1803.088394027939
 30
0.0
 40
67.16417910447761
  1
2
 41
0.6700000000000001
  7
00
100
AcDbText
  0
TEXT
  5
19DC8
330
19BD8
100
AcDbEntity
  8
HIKIDASHI
100
AcDbText
 10
6851.699813038081
 20
1830.1144490585
 30
0.0
 40
67.16417910447761
  1
1
 41
0.6700000000000001
  7
00
100
AcDbText
  0
TEXT
  5
19DC9
330
19BD8
100
AcDbEntity
  8
HIKIDASHI
100
AcDbText
 10
6777.099002354859
 20
1803.684839419606
 30
0.0
 40
89.55223880597014
  1
W ／
 41
0.6700000000000001
  7
00
100
AcDbText
  0
TEXT
  5
19DCA
330
19BD8
100
AcDbEntity
  8
HIKIDASHI
100
AcDbText
 10
7092.562165940511
 20
1803.475853219515
 30
0.0
 40
89.55223880597014
  1
300
 41
0.6700000000000001
  7
00
100
AcDbText
  0
TEXT
  5
19DCB
330
19BD8
100
AcDbEntity
  8
HIKIDASHI
100
AcDbText
 10
6777.099002354859
 20
1983.684839419604
 30
0.0
 40
90.0
  1
アンカーボルト
  7
01
100
AcDbText
  0
LINE
  5
19DCC
330
19BD8
100
AcDbEntity
  8
HIKIDASHI
100
AcDbLine
 10
6748.019393493152
 20
1938.684839419604
 30
0.0
 11
7568.025406890003
 21
1938.684839419604
 31
0.0
  0
TEXT
  5
19DCD
330
19BD8
100
AcDbEntity
  8
HIKIDASHI
100
AcDbText
 10
8262.30957517332
 20
1664.635820576939
 30
0.0
 40
90.0
  1
B  ~  B'
 41
0.6700000000000001
  7
00
100
AcDbText
  0
LINE
  5
19DCE
330
19BD8
100
AcDbEntity
  8
HIKIDASHI
100
AcDbLine
 10
8232.309575173323
 20
1589.635820576939
 30
0.0
 11
8927.93692840889
 21
1589.635820576939
 31
0.0
  0
LINE
  5
19DCF
330
19BD8
100
AcDbEntity
  8
HIKIDASHI
100
AcDbLine
 10
8232.309575173323
 20
1619.635820576939
 30
0.0
 11
8927.93692840889
 21
1619.635820576939
 31
0.0
  0
TEXT
  5
19DD0
330
19BD8
100
AcDbEntity
  8
HIKIDASHI
100
AcDbText
 10
8656.326854669883
 20
1664.635820576939
 30
0.0
 40
90.0
  1
断 面
  7
01
100
AcDbText
  0
LINE
  5
19DD1
330
19BD8
100
AcDbEntity
  8
1PL-S1
100
AcDbLine
 10
11185.33837406209
 20
2700.144344053149
 30
0.0
 11
11897.33837406208
 21
2700.144344053149
 31
0.0
  0
LINE
  5
19DD2
330
19BD8
100
AcDbEntity
  8
U1
100
AcDbLine
 10
11411.33837406209
 20
3642.337036584561
 30
0.0
 11
11411.33837406209
 21
4026.401575763828
 31
0.0
  0
LINE
  5
19DD3
330
19BD8
100
AcDbEntity
  8
U1
100
AcDbLine
 10
11671.33837406211
 20
3642.337036584561
 30
0.0
 11
11671.33837406211
 21
4026.401575763828
 31
0.0
  0
LINE
  5
19DD4
330
19BD8
100
AcDbEntity
  8
1PL-S1
100
AcDbLine
 10
11541.33837406209
 20
3578.337036584561
 30
0.0
 11
11541.33837406209
 21
4066.401575763828
 31
0.0
  0
CIRCLE
  5
19DD5
330
19BD8
100
AcDbEntity
  8
U1
100
AcDbCircle
 10
11541.33837406209
 20
3882.337036584561
 30
0.0
 40
24.0
  0
LINE
  5
19DD6
330
19BD8
100
AcDbEntity
  8
1PL-S1
100
AcDbLine
 10
11261.33837406209
 20
2624.144344053149
 30
0.0
 11
11261.33837406209
 21
2816.144344053149
 31
0.0
  0
LINE
  5
19DD7
330
19BD8
100
AcDbEntity
  8
1PL-S1
100
AcDbLine
 10
11821.33837406209
 20
2624.144344053149
 30
0.0
 11
11821.33837406209
 21
2816.144344053149
 31
0.0
  0
LINE
  5
19DD8
330
19BD8
100
AcDbEntity
  8
1PL-S1
100
AcDbLine
 10
11541.33837406209
 20
2460.144344053149
 30
0.0
 11
11541.33837406209
 21
2940.144344053149
 31
0.0
  0
CIRCLE
  5
19DD9
330
19BD8
100
AcDbEntity
  8
U1
100
AcDbCircle
 10
11261.33837406209
 20
2700.144344053149
 30
0.0
 40
36.0
  0
LINE
  5
19DDA
330
19BD8
100
AcDbEntity
  8
U1
100
AcDbLine
 10
11671.33837406211
 20
2700.144344053149
 30
0.0
 11
11592.31129530376
 21
2700.144344053149
 31
0.0
  0
CIRCLE
  5
19DDB
330
19BD8
100
AcDbEntity
  8
U1
100
AcDbCircle
 10
11821.33837406209
 20
2700.144344053149
 30
0.0
 40
36.0
  0
LINE
  5
19DDC
330
19BD8
100
AcDbEntity
  8
1PL-S1
100
AcDbLine
 10
11477.33837406209
 20
3722.337036584561
 30
0.0
 11
11605.33837406209
 21
3722.337036584561
 31
0.0
  0
LINE
  5
19DDD
330
19BD8
100
AcDbEntity
  8
1PL-S1
100
AcDbLine
 10
11261.33837406209
 20
3578.337036584562
 30
0.0
 11
11261.33837406207
 21
3682.337036584562
 31
0.0
  0
LINE
  5
19DDE
330
19BD8
100
AcDbEntity
  8
1PL-S1
100
AcDbLine
 10
11821.33837406209
 20
3578.337036584562
 30
0.0
 11
11821.33837406209
 21
3682.337036584562
 31
0.0
  0
CIRCLE
  5
19DDF
330
19BD8
100
AcDbEntity
  8
U1
100
AcDbCircle
 10
11541.33837406209
 20
3722.337036584561
 30
0.0
 40
24.0
  0
LINE
  5
19DE0
330
19BD8
100
AcDbEntity
  8
1PL-S1
100
AcDbLine
 10
11477.33837406209
 20
3882.337036584561
 30
0.0
 11
11605.33837406209
 21
3882.337036584561
 31
0.0
  0
TEXT
  5
19DE1
330
19BD8
100
AcDbEntity
  8
SUNPOU
100
AcDbText
 10
10750.05141017947
 20
1674.586261835072
 30
0.0
 40
120.0
  1
柱脚金具詳細図
  7
01
 72
     4
 11
11234.05141017947
 21
1734.586261835072
 31
0.0
100
AcDbText
  0
TEXT
  5
19DE2
330
19BD8
100
AcDbEntity
  8
SUNPOU
100
AcDbText
 10
12146.16023934792
 20
1672.124723373534
 30
0.0
 40
73.84615384615384
  1
/
 41
0.6700000000000001
  7
00
 11
12146.16023934792
 21
1662.27856952738
 31
0.0
100
AcDbText
 73
     1
  0
TEXT
  5
19DE3
330
19BD8
100
AcDbEntity
  8
SUNPOU
100
AcDbText
 10
12210.1096823023
 20
1653.663184911995
 30
0.0
 40
73.84615384615384
  1
10
 41
0.6700000000000001
  7
00
 11
12210.1096823023
 21
1643.817031065841
 31
0.0
100
AcDbText
 73
     1
  0
TEXT
  5
19DE4
330
19BD8
100
AcDbEntity
  8
SUNPOU
100
AcDbText
 10
12097.75411203255
 20
1690.586261835072
 30
0.0
 40
73.84615384615384
  1
1
 41
0.6700000000000001
  7
00
 11
12097.75411203255
 21
1680.740107988918
 31
0.0
100
AcDbText
 73
     1
  0
TEXT
  5
19DE5
330
19BD8
100
AcDbEntity
  8
SUNPOU
100
AcDbText
 10
11778.05141017947
 20
1674.586261835072
 30
0.0
 40
92.30769230769228
  1
（ S = 　　  ）
 41
0.6700000000000001
  7
00
 11
11778.05141017947
 21
1662.27856952738
 31
0.0
100
AcDbText
 73
     1
  0
LINE
  5
19DE6
330
19BD8
100
AcDbEntity
  8
HIKIDASHI
100
AcDbLine
 10
12073.23363223807
 20
3067.661600164834
 30
0.0
 11
12657.27442780204
 21
3067.661600164834
 31
0.0
  0
TEXT
  5
19DE7
330
19BD8
100
AcDbEntity
  8
HIKIDASHI
100
AcDbText
 10
12092.52363003481
 20
3112.661600164834
 30
0.0
 40
90.0
  1
プレ－ト
  7
01
 72
     2
 11
12482.5236300348
 21
3112.661600164834
 31
0.0
100
AcDbText
  0
TEXT
  5
19DE8
330
19BD8
100
AcDbEntity
  8
HIKIDASHI
100
AcDbText
 10
12523.83595357436
 20
3112.661600164834
 30
0.0
 40
90.0
  1
9
 41
0.6666666666666666
  7
00
 72
     2
 11
12569.55023928865
 21
3112.661600164834
 31
0.0
100
AcDbText
  0
TEXT
  5
19DE9
330
19BD8
100
AcDbEntity
  8
HIKIDASHI
100
AcDbText
 10
12606.97646118922
 20
3126.647348600799
 30
0.0
 40
89.99999909999997
  1
t
 41
0.6700000000000001
  7
00
100
AcDbText
  0
TEXT
  5
19DEA
330
19BD8
100
AcDbEntity
  8
SUNPOU
100
AcDbText
 10
5757.491760556316
 20
2578.884705856377
 30
0.0
 40
90.0
  1
5-D13×5-D13
 41
0.6700000000000001
  7
01
 72
     4
 11
6100.914617699173
 21
2623.884705856377
 31
0.0
100
AcDbText
  0
TEXT
  5
19DEB
330
19BD8
100
AcDbEntity
  8
SUNPOU
100
AcDbText
 10
5892.60747484203
 20
2713.884705856377
 30
0.0
 40
90.0
  1
ベース筋
  7
01
 72
     4
 11
6096.60747484203
 21
2758.884705856377
 31
0.0
100
AcDbText
  0
TEXT
  5
19DEC
330
19BD8
100
AcDbEntity
  8
SUNPOU
100
AcDbText
 10
9537.817961079962
 20
2578.884705856383
 30
0.0
 40
90.0
  1
5-D13×5-D13
 41
0.6700000000000001
  7
01
 72
     4
 11
9881.240818222821
 21
2623.884705856383
 31
0.0
100
AcDbText
  0
TEXT
  5
19DED
330
19BD8
100
AcDbEntity
  8
SUNPOU
100
AcDbText
 10
9672.933675365676
 20
2713.884705856383
 30
0.0
 40
90.0
  1
ベース筋
  7
01
 72
     4
 11
9876.933675365677
 21
2758.884705856383
 31
0.0
100
AcDbText
  0
LINE
  5
19DEE
330
19BD8
100
AcDbEntity
  8
KISO
100
AcDbLine
 10
7780.123251791109
 20
2706.284839419607
 30
0.0
 11
9380.123251791109
 21
2706.284839419607
 31
0.0
  0
LINE
  5
19DEF
330
19BD8
100
AcDbEntity
  8
HATCH
100
AcDbLine
 10
5427.726846493639
 20
2546.284839419602
 30
0.0
 11
5520.102889160304
 21
2706.284839419603
 31
0.0
  0
LINE
  5
19DF0
330
19BD8
100
AcDbEntity
  8
HATCH
100
AcDbLine
 10
5466.769555826971
 20
2706.284839419603
 30
0.0
 11
5493.436222493635
 21
2660.096816752937
 31
0.0
  0
LINE
  5
19DF1
330
19BD8
100
AcDbEntity
  8
HATCH
100
AcDbLine
 10
5454.393513160304
 20
2592.472860752933
 30
0.0
 11
5481.060179826972
 21
2546.284839419602
 31
0.0
  0
LINE
  5
19DF2
330
19BD8
100
AcDbEntity
  8
HATCH
100
AcDbLine
 10
9208.053047017283
 20
2546.284839419607
 30
0.0
 11
9300.42908968395
 21
2706.284839419607
 31
0.0
  0
LINE
  5
19DF3
330
19BD8
100
AcDbEntity
  8
HATCH
100
AcDbLine
 10
9247.095756350615
 20
2706.284839419607
 30
0.0
 11
9273.762423017281
 21
2660.096816752943
 31
0.0
  0
LINE
  5
19DF4
330
19BD8
100
AcDbEntity
  8
HATCH
100
AcDbLine
 10
9234.719713683949
 20
2592.472860752937
 30
0.0
 11
9261.386380350616
 21
2546.284839419607
 31
0.0
  0
TEXT
  5
19DF5
330
19BD8
100
AcDbEntity
  8
HIKIDASHI
100
AcDbText
 10
12286.64239875644
 20
2290.804976716086
 30
0.0
 40
90.0
  1
2
 41
0.6666666666666666
  7
00
100
AcDbText
  0
TEXT
  5
19DF6
330
19BD8
100
AcDbEntity
  8
HIKIDASHI
100
AcDbText
 10
12365.21382732787
 20
2305.804976716085
 30
0.0
 40
90.0
  1
ｹ
  7
01
100
AcDbText
  0
TEXT
  5
19DF7
330
19BD8
100
AcDbEntity
  8
HIKIDASHI
100
AcDbText
 10
12446.21382732787
 20
2290.804976716086
 30
0.0
 40
90.0
  1
-
 41
0.6666666666666666
  7
00
100
AcDbText
  0
TEXT
  5
19DF8
330
19BD8
100
AcDbEntity
  8
HIKIDASHI
100
AcDbText
 10
12554.07097018501
 20
2290.804976716086
 30
0.0
 40
90.0
  1
18
 41
0.6666666666666666
  7
00
100
AcDbText
  0
TEXT
  5
19DF9
330
19BD8
100
AcDbEntity
  8
HIKIDASHI
100
AcDbText
 10
12689.78525589929
 20
2305.804976716085
 30
0.0
 40
90.0
  1
%%c
 41
0.6666666666666666
  7
00
100
AcDbText
  0
TEXT
  5
19DFA
330
19BD8
100
AcDbEntity
  8
HIKIDASHI
100
AcDbText
 10
12765.49954161357
 20
2290.804976716086
 30
0.0
 40
90.0
  1
孔
  7
01
100
AcDbText
  0
LINE
  5
19DFB
330
19BD8
100
AcDbEntity
  8
HIKIDASHI
100
AcDbLine
 10
12256.64239875644
 20
2245.804976716085
 30
0.0
 11
12879.49954161357
 21
2245.804976716085
 31
0.0
  0
TEXT
  5
19DFC
330
19BD8
100
AcDbEntity
  8
FILENAME
100
AcDbText
 10
13768.66666666666
 20
174.0
 30
0.0
 40
100.0
  1
＜YOKCU-280-A1_3_JIS_GL.DXF ＞
  7
FILENAME
 72
     2
 11
16382.0
 21
174.0
 31
0.0
100
AcDbText
  0
LINE
  5
19DFD
330
19BD8
100
AcDbEntity
  8
WAKUSEN-01
100
AcDbLine
 10
434.0000000000008
 20
413.9999999999997
 30
0.0
 11
16382.0
 21
413.9999999999997
 31
0.0
  0
LINE
  5
19DFE
330
19BD8
100
AcDbEntity
  8
WAKUSEN-01
100
AcDbLine
 10
434.0000000000008
 20
11242.0
 30
0.0
 11
16382.0
 21
11242.0
 31
0.0
  0
LINE
  5
19DFF
330
19BD8
100
AcDbEntity
  8
WAKUSEN-01
100
AcDbLine
 10
434.0000000000008
 20
413.9999999999997
 30
0.0
 11
434.0000000000008
 21
11242.0
 31
0.0
  0
LINE
  5
19E00
330
19BD8
100
AcDbEntity
  8
WAKUSEN-01
100
AcDbLine
 10
16382.0
 20
413.9999999999997
 30
0.0
 11
16382.0
 21
11242.0
 31
0.0
  0
LINE
  5
19E01
330
19BD8
100
AcDbEntity
  8
WAKUSEN-01
100
AcDbLine
 10
10280.0
 20
1242.0
 30
0.0
 11
16382.0
 21
1242.0
 31
0.0
  0
LINE
  5
19E02
330
19BD8
100
AcDbEntity
  8
WAKUSEN-02
100
AcDbLine
 10
10280.0
 20
827.9999999999997
 30
0.0
 11
13434.0
 21
827.9999999999997
 31
0.0
  0
TEXT
  5
19E03
330
19BD8
100
AcDbEntity
  8
WAKUMOJI-01
100
AcDbText
 10
10335.13012998137
 20
1062.951504669661
 30
0.0
 40
120.0
  1
名　称
  7
WAKUMOJI
100
AcDbText
  0
TEXT
  5
19E04
330
19BD8
100
AcDbEntity
  8
WAKUMOJI-01
100
AcDbText
 10
10328.25274254596
 20
659.5644874899107
 30
0.0
 40
120.0
  1
機種名
  7
WAKUMOJI
100
AcDbText
  0
LINE
  5
19E05
330
19BD8
100
AcDbEntity
  8
WAKUSEN-01
100
AcDbLine
 10
10280.0
 20
413.9999999999985
 30
0.0
 11
10280.0
 21
1242.0
 31
0.0
  0
LINE
  5
19E06
330
19BD8
100
AcDbEntity
  8
WAKUSEN-02
100
AcDbLine
 10
13434.0
 20
413.9999999999963
 30
0.0
 11
13434.0
 21
1242.0
 31
0.0
  0
LINE
  5
19E07
330
19BD8
100
AcDbEntity
  8
YODOROGO
100
AcDbLine
 10
14988.80217064596
 20
997.8747482146435
 30
0.0
 11
14914.80217064596
 21
997.8747482146435
 31
0.0
1001
AUTOCAD_POSTSCRIPT_FIGURE
1002
{
1000
PSFILL
1000
Grayscale
1000
Grayscale
1070
    25
1002
}
  0
LINE
  5
19E08
330
19BD8
100
AcDbEntity
  8
YODOROGO
100
AcDbLine
 10
14914.80217064596
 20
973.8747482146434
 30
0.0
 11
14988.80217064596
 21
973.8747482146434
 31
0.0
1001
AUTOCAD_POSTSCRIPT_FIGURE
1002
{
1000
PSFILL
1000
Grayscale
1000
Grayscale
1070
    25
1002
}
  0
LINE
  5
19E09
330
19BD8
100
AcDbEntity
  8
YODOROGO
100
AcDbLine
 10
14988.80217064596
 20
953.874748214644
 30
0.0
 11
14914.80217064596
 21
953.874748214644
 31
0.0
1001
AUTOCAD_POSTSCRIPT_FIGURE
1002
{
1000
PSFILL
1000
Grayscale
1000
Grayscale
1070
    25
1002
}
  0
LINE
  5
19E0A
330
19BD8
100
AcDbEntity
  8
YODOROGO
100
AcDbLine
 10
14914.80217064596
 20
929.874748214644
 30
0.0
 11
14988.80217064596
 21
929.874748214644
 31
0.0
1001
AUTOCAD_POSTSCRIPT_FIGURE
1002
{
1000
PSFILL
1000
Grayscale
1000
Grayscale
1070
    25
1002
}
  0
LINE
  5
19E0B
330
19BD8
100
AcDbEntity
  8
YODOROGO
100
AcDbLine
 10
14988.80217064596
 20
909.8747482146439
 30
0.0
 11
14914.80217064596
 21
909.8747482146439
 31
0.0
1001
AUTOCAD_POSTSCRIPT_FIGURE
1002
{
1000
PSFILL
1000
Grayscale
1000
Grayscale
1070
    25
1002
}
  0
LINE
  5
19E0C
330
19BD8
100
AcDbEntity
  8
YODOROGO
100
AcDbLine
 10
14960.80217064594
 20
853.874748214644
 30
0.0
 11
14988.80217064596
 21
853.874748214644
 31
0.0
1001
AUTOCAD_POSTSCRIPT_FIGURE
1002
{
1000
PSFILL
1000
Grayscale
1000
Grayscale
1070
    25
1002
}
  0
LINE
  5
19E0D
330
19BD8
100
AcDbEntity
  8
YODOROGO
100
AcDbLine
 10
14868.80217064596
 20
713.8747482146436
 30
0.0
 11
14968.80217064596
 21
740.6696674577553
 31
0.0
  0
LINE
  5
19E0E
330
19BD8
100
AcDbEntity
  8
YODOROGO
100
AcDbLine
 10
14974.80217064595
 20
853.874748214644
 30
0.0
 11
14942.80217064596
 21
853.874748214644
 31
0.0
  0
ARC
  5
19E0F
330
19BD8
100
AcDbEntity
  8
YODOROGO
100
AcDbCircle
 10
15127.17387491394
 20
903.9323046166312
 30
0.0
 40
190.9434321028236
100
AcDbArc
 50
213.9611167766784
 51
264.4787207431779
  0
ARC
  5
19E10
330
19BD8
100
AcDbEntity
  8
YODOROGO
100
AcDbCircle
 10
15127.17387491396
 20
903.9323046166513
 30
0.0
 40
190.9434321028408
100
AcDbArc
 50
208.141144204866
 51
212.9210361185994
  0
LINE
  5
19E11
330
19BD8
100
AcDbEntity
  8
YODOROGO
100
AcDbLine
 10
14885.70493649264
 20
778.403830673117
 30
0.0
 11
14966.89206625426
 21
800.1578565285436
 31
0.0
  0
LINE
  5
19E12
330
19BD8
100
AcDbEntity
  8
YODOROGO
100
AcDbLine
 10
14868.80217064596
 20
713.8747482146436
 30
0.0
 11
14968.80217064596
 21
740.6696674577553
 31
0.0
  0
LINE
  5
19E13
330
19BD8
100
AcDbEntity
  8
YODOROGO
100
AcDbLine
 10
14974.80217064595
 20
853.874748214644
 30
0.0
 11
14942.80217064596
 21
853.874748214644
 31
0.0
  0
ARC
  5
19E14
330
19BD8
100
AcDbEntity
  8
YODOROGO
100
AcDbCircle
 10
15127.17387491394
 20
903.9323046166312
 30
0.0
 40
190.9434321028236
100
AcDbArc
 50
213.9611167766784
 51
264.4787207431779
  0
LINE
  5
19E15
330
19BD8
100
AcDbEntity
  8
YODOROGO
100
AcDbLine
 10
14396.80217064594
 20
909.8747482146439
 30
0.0
 11
14216.80217064594
 21
909.8747482146439
 31
0.0
  0
LINE
  5
19E16
330
19BD8
100
AcDbEntity
  8
YODOROGO
100
AcDbLine
 10
14256.80217064594
 20
713.8747482146436
 30
0.0
 11
14396.80217064594
 21
713.8747482146436
 31
0.0
  0
LINE
  5
19E17
330
19BD8
100
AcDbEntity
  8
YODOROGO
100
AcDbLine
 10
14364.80217064596
 20
961.8747482146432
 30
0.0
 11
14248.80217064594
 21
961.8747482146432
 31
0.0
  0
LINE
  5
19E18
330
19BD8
100
AcDbEntity
  8
YODOROGO
100
AcDbLine
 10
14292.80217064596
 20
1013.874748214644
 30
0.0
 11
14328.80217064596
 21
1013.874748214644
 31
0.0
  0
LINE
  5
19E19
330
19BD8
100
AcDbEntity
  8
YODOROGO
100
AcDbLine
 10
14216.80217064594
 20
853.874748214644
 30
0.0
 11
14216.80217064594
 21
753.8747482146439
 31
0.0
  0
LINE
  5
19E1A
330
19BD8
100
AcDbEntity
  8
YODOROGO
100
AcDbLine
 10
14248.80217064594
 20
781.8747482146434
 30
0.0
 11
14248.80217064594
 21
853.874748214644
 31
0.0
  0
LINE
  5
19E1B
330
19BD8
100
AcDbEntity
  8
YODOROGO
100
AcDbLine
 10
14292.80217064596
 20
873.8747482146449
 30
0.0
 11
14292.80217064596
 21
773.874748214644
 31
0.0
  0
LINE
  5
19E1C
330
19BD8
100
AcDbEntity
  8
YODOROGO
100
AcDbLine
 10
13928.80217064596
 20
841.8747482146445
 30
0.0
 11
13888.80217064596
 21
809.9862070222856
 31
0.0
  0
LINE
  5
19E1D
330
19BD8
100
AcDbEntity
  8
YODOROGO
100
AcDbLine
 10
13968.80217064596
 20
809.9862070222856
 30
0.0
 11
13928.80217064596
 21
841.8747482146445
 31
0.0
  0
LINE
  5
19E1E
330
19BD8
100
AcDbEntity
  8
YODOROGO
100
AcDbLine
 10
13928.80217064596
 20
853.874748214644
 30
0.0
 11
13968.80217064596
 21
821.986207022285
 31
0.0
  0
LINE
  5
19E1F
330
19BD8
100
AcDbEntity
  8
YODOROGO
100
AcDbLine
 10
13888.80217064596
 20
821.986207022285
 30
0.0
 11
13928.80217064596
 21
853.874748214644
 31
0.0
  0
LINE
  5
19E20
330
19BD8
100
AcDbEntity
  8
YODOROGO
100
AcDbLine
 10
14020.45660200844
 20
829.874748214644
 30
0.0
 11
14020.45660200844
 21
841.8747482146434
 31
0.0
  0
LINE
  5
19E21
330
19BD8
100
AcDbEntity
  8
YODOROGO
100
AcDbLine
 10
13988.80217064596
 20
841.8747482146434
 30
0.0
 11
13988.80217064596
 21
833.8747482146427
 31
0.0
  0
LINE
  5
19E22
330
19BD8
100
AcDbEntity
  8
YODOROGO
100
AcDbLine
 10
14049.06776011545
 20
853.874748214644
 30
0.0
 11
14049.06776011545
 21
827.751818637328
 31
0.0
1001
AUTOCAD_POSTSCRIPT_FIGURE
1002
{
1000
PSFILL
1000
Grayscale
1000
Grayscale
1070
   100
1002
}
  0
LINE
  5
19E23
330
19BD8
100
AcDbEntity
  8
YODOROGO
100
AcDbLine
 10
14041.06776011546
 20
827.751818637328
 30
0.0
 11
14041.06776011546
 21
853.874748214644
 31
0.0
1001
AUTOCAD_POSTSCRIPT_FIGURE
1002
{
1000
PSFILL
1000
Grayscale
1000
Grayscale
1070
   100
1002
}
  0
LINE
  5
19E24
330
19BD8
100
AcDbEntity
  8
YODOROGO
100
AcDbLine
 10
13904.80217064596
 20
804.3859520216292
 30
0.0
 11
13904.80217064596
 21
816.3859520216298
 31
0.0
  0
LINE
  5
19E25
330
19BD8
100
AcDbEntity
  8
YODOROGO
100
AcDbLine
 10
13952.80217064596
 20
804.3859520216292
 30
0.0
 11
13904.80217064596
 21
804.3859520216292
 31
0.0
  0
LINE
  5
19E26
330
19BD8
100
AcDbEntity
  8
YODOROGO
100
AcDbLine
 10
13952.80217064596
 20
816.3859520216298
 30
0.0
 11
13952.80217064596
 21
804.3859520216292
 31
0.0
  0
LINE
  5
19E27
330
19BD8
100
AcDbEntity
  8
YODOROGO
100
AcDbLine
 10
13904.80217064596
 20
816.3859520216298
 30
0.0
 11
13952.80217064596
 21
816.3859520216298
 31
0.0
  0
LINE
  5
19E28
330
19BD8
100
AcDbEntity
  8
YODOROGO
100
AcDbLine
 10
13912.25479445787
 20
784.2514286852374
 30
0.0
 11
13892.80217064596
 21
737.8747482146435
 31
0.0
1001
AUTOCAD_POSTSCRIPT_FIGURE
1002
{
1000
PSFILL
1000
Grayscale
1000
Grayscale
1070
   100
1002
}
  0
LINE
  5
19E29
330
19BD8
100
AcDbEntity
  8
YODOROGO
100
AcDbLine
 10
13888.80217064596
 20
784.2514286852374
 30
0.0
 11
13912.25479445787
 21
784.2514286852374
 31
0.0
1001
AUTOCAD_POSTSCRIPT_FIGURE
1002
{
1000
PSFILL
1000
Grayscale
1000
Grayscale
1070
   100
1002
}
  0
LINE
  5
19E2A
330
19BD8
100
AcDbEntity
  8
YODOROGO
100
AcDbLine
 10
13888.80217064596
 20
794.2514286852374
 30
0.0
 11
13888.80217064596
 21
784.2514286852374
 31
0.0
1001
AUTOCAD_POSTSCRIPT_FIGURE
1002
{
1000
PSFILL
1000
Grayscale
1000
Grayscale
1070
   100
1002
}
  0
LINE
  5
19E2B
330
19BD8
100
AcDbEntity
  8
YODOROGO
100
AcDbLine
 10
13968.80217064596
 20
794.2514286852374
 30
0.0
 11
13888.80217064596
 21
794.2514286852374
 31
0.0
1001
AUTOCAD_POSTSCRIPT_FIGURE
1002
{
1000
PSFILL
1000
Grayscale
1000
Grayscale
1070
   100
1002
}
  0
LINE
  5
19E2C
330
19BD8
100
AcDbEntity
  8
YODOROGO
100
AcDbLine
 10
13968.80217064596
 20
784.2514286852374
 30
0.0
 11
13968.80217064596
 21
794.2514286852374
 31
0.0
1001
AUTOCAD_POSTSCRIPT_FIGURE
1002
{
1000
PSFILL
1000
Grayscale
1000
Grayscale
1070
   100
1002
}
  0
LINE
  5
19E2D
330
19BD8
100
AcDbEntity
  8
YODOROGO
100
AcDbLine
 10
13922.25479445786
 20
784.2514286852374
 30
0.0
 11
13968.80217064596
 21
784.2514286852374
 31
0.0
1001
AUTOCAD_POSTSCRIPT_FIGURE
1002
{
1000
PSFILL
1000
Grayscale
1000
Grayscale
1070
   100
1002
}
  0
LINE
  5
19E2E
330
19BD8
100
AcDbEntity
  8
YODOROGO
100
AcDbLine
 10
13907.77335914238
 20
747.8747482146435
 30
0.0
 11
13922.25479445786
 21
784.2514286852374
 31
0.0
1001
AUTOCAD_POSTSCRIPT_FIGURE
1002
{
1000
PSFILL
1000
Grayscale
1000
Grayscale
1070
   100
1002
}
  0
LINE
  5
19E2F
330
19BD8
100
AcDbEntity
  8
YODOROGO
100
AcDbLine
 10
13951.02739540432
 20
747.8747482146435
 30
0.0
 11
13907.77335914238
 21
747.8747482146435
 31
0.0
1001
AUTOCAD_POSTSCRIPT_FIGURE
1002
{
1000
PSFILL
1000
Grayscale
1000
Grayscale
1070
   100
1002
}
  0
LINE
  5
19E30
330
19BD8
100
AcDbEntity
  8
YODOROGO
100
AcDbLine
 10
13942.53250239547
 20
768.1169053488464
 30
0.0
 11
13951.02739540432
 21
747.8747482146435
 31
0.0
1001
AUTOCAD_POSTSCRIPT_FIGURE
1002
{
1000
PSFILL
1000
Grayscale
1000
Grayscale
1070
   100
1002
}
  0
LINE
  5
19E31
330
19BD8
100
AcDbEntity
  8
YODOROGO
100
AcDbLine
 10
13950.53250239547
 20
768.1169053488464
 30
0.0
 11
13942.53250239547
 21
768.1169053488464
 31
0.0
1001
AUTOCAD_POSTSCRIPT_FIGURE
1002
{
1000
PSFILL
1000
Grayscale
1000
Grayscale
1070
   100
1002
}
  0
LINE
  5
19E32
330
19BD8
100
AcDbEntity
  8
YODOROGO
100
AcDbLine
 10
13964.80217064596
 20
737.8747482146435
 30
0.0
 11
13950.53250239547
 21
768.1169053488464
 31
0.0
1001
AUTOCAD_POSTSCRIPT_FIGURE
1002
{
1000
PSFILL
1000
Grayscale
1000
Grayscale
1070
   100
1002
}
  0
LINE
  5
19E33
330
19BD8
100
AcDbEntity
  8
YODOROGO
100
AcDbLine
 10
13892.80217064596
 20
737.8747482146435
 30
0.0
 11
13964.80217064596
 21
737.8747482146435
 31
0.0
1001
AUTOCAD_POSTSCRIPT_FIGURE
1002
{
1000
PSFILL
1000
Grayscale
1000
Grayscale
1070
   100
1002
}
  0
LINE
  5
19E34
330
19BD8
100
AcDbEntity
  8
YODOROGO
100
AcDbLine
 10
13888.80217064596
 20
809.9862070222856
 30
0.0
 11
13888.80217064596
 21
821.986207022285
 31
0.0
  0
LINE
  5
19E35
330
19BD8
100
AcDbEntity
  8
YODOROGO
100
AcDbLine
 10
13968.80217064596
 20
821.986207022285
 30
0.0
 11
13968.80217064596
 21
809.9862070222856
 31
0.0
  0
ARC
  5
19E36
330
19BD8
100
AcDbEntity
  8
YODOROGO
100
AcDbCircle
 10
14112.97022107348
 20
800.438882662663
 30
0.0
 40
87.99999999999995
100
AcDbArc
 50
280.3644312771313
 51
3.541483659218056
  0
ARC
  5
19E37
330
19BD8
100
AcDbEntity
  8
YODOROGO
100
AcDbCircle
 10
14117.87801537965
 20
816.798903480952
 30
0.0
 40
55.99999999999914
100
AcDbArc
 50
281.2490582504155
 51
348.7509417495832
  0
LINE
  5
19E38
330
19BD8
100
AcDbEntity
  8
YODOROGO
100
AcDbLine
 10
14128.80217064596
 20
761.8747482146434
 30
0.0
 11
14128.80217064596
 21
713.8747482146436
 31
0.0
  0
LINE
  5
19E39
330
19BD8
100
AcDbEntity
  8
YODOROGO
100
AcDbLine
 10
14010.04445186845
 20
805.3252825309574
 30
0.0
 11
14020.45660200844
 21
829.874748214644
 31
0.0
  0
LINE
  5
19E3A
330
19BD8
100
AcDbEntity
  8
YODOROGO
100
AcDbLine
 10
14020.80217064596
 20
791.5602449742006
 30
0.0
 11
14010.04445186845
 21
805.3252825309574
 31
0.0
  0
LINE
  5
19E3B
330
19BD8
100
AcDbEntity
  8
YODOROGO
100
AcDbLine
 10
14020.80217064596
 20
781.5602449741994
 30
0.0
 11
14020.80217064596
 21
791.5602449742006
 31
0.0
  0
LINE
  5
19E3C
330
19BD8
100
AcDbEntity
  8
YODOROGO
100
AcDbLine
 10
14008.80217064596
 20
792.6185318747651
 30
0.0
 11
14020.80217064596
 21
781.5602449741994
 31
0.0
  0
LINE
  5
19E3D
330
19BD8
100
AcDbEntity
  8
YODOROGO
100
AcDbLine
 10
14008.80217064596
 20
737.8747482146435
 30
0.0
 11
14008.80217064596
 21
792.6185318747651
 31
0.0
  0
LINE
  5
19E3E
330
19BD8
100
AcDbEntity
  8
YODOROGO
100
AcDbLine
 10
14000.80217064596
 20
737.8747482146435
 30
0.0
 11
14008.80217064596
 21
737.8747482146435
 31
0.0
  0
LINE
  5
19E3F
330
19BD8
100
AcDbEntity
  8
YODOROGO
100
AcDbLine
 10
14000.80217064596
 20
790.0026748448738
 30
0.0
 11
14000.80217064596
 21
737.8747482146435
 31
0.0
  0
LINE
  5
19E40
330
19BD8
100
AcDbEntity
  8
YODOROGO
100
AcDbLine
 10
13988.80217064596
 20
766.3840395167142
 30
0.0
 11
14000.80217064596
 21
790.0026748448738
 31
0.0
  0
LINE
  5
19E41
330
19BD8
100
AcDbEntity
  8
YODOROGO
100
AcDbLine
 10
13988.80217064596
 20
778.3840395167149
 30
0.0
 11
13988.80217064596
 21
766.3840395167142
 31
0.0
  0
LINE
  5
19E42
330
19BD8
100
AcDbEntity
  8
YODOROGO
100
AcDbLine
 10
14012.91438714567
 20
833.8747482146427
 30
0.0
 11
13988.80217064596
 21
778.3840395167149
 31
0.0
  0
LINE
  5
19E43
330
19BD8
100
AcDbEntity
  8
YODOROGO
100
AcDbLine
 10
13988.80217064596
 20
833.8747482146427
 30
0.0
 11
14012.91438714567
 21
833.8747482146427
 31
0.0
  0
LINE
  5
19E44
330
19BD8
100
AcDbEntity
  8
YODOROGO
100
AcDbLine
 10
14025.06776011545
 20
827.751818637328
 30
0.0
 11
14041.06776011546
 21
827.751818637328
 31
0.0
1001
AUTOCAD_POSTSCRIPT_FIGURE
1002
{
1000
PSFILL
1000
Grayscale
1000
Grayscale
1070
   100
1002
}
  0
LINE
  5
19E45
330
19BD8
100
AcDbEntity
  8
YODOROGO
100
AcDbLine
 10
14025.06776011545
 20
815.7518186373286
 30
0.0
 11
14025.06776011545
 21
827.751818637328
 31
0.0
1001
AUTOCAD_POSTSCRIPT_FIGURE
1002
{
1000
PSFILL
1000
Grayscale
1000
Grayscale
1070
   100
1002
}
  0
LINE
  5
19E46
330
19BD8
100
AcDbEntity
  8
YODOROGO
100
AcDbLine
 10
14041.06776011546
 20
815.7518186373286
 30
0.0
 11
14025.06776011545
 21
815.7518186373286
 31
0.0
1001
AUTOCAD_POSTSCRIPT_FIGURE
1002
{
1000
PSFILL
1000
Grayscale
1000
Grayscale
1070
   100
1002
}
  0
LINE
  5
19E47
330
19BD8
100
AcDbEntity
  8
YODOROGO
100
AcDbLine
 10
14041.06776011546
 20
749.8747482146441
 30
0.0
 11
14041.06776011546
 21
815.7518186373286
 31
0.0
1001
AUTOCAD_POSTSCRIPT_FIGURE
1002
{
1000
PSFILL
1000
Grayscale
1000
Grayscale
1070
   100
1002
}
  0
LINE
  5
19E48
330
19BD8
100
AcDbEntity
  8
YODOROGO
100
AcDbLine
 10
14025.06776011545
 20
749.8747482146441
 30
0.0
 11
14041.06776011546
 21
749.8747482146441
 31
0.0
1001
AUTOCAD_POSTSCRIPT_FIGURE
1002
{
1000
PSFILL
1000
Grayscale
1000
Grayscale
1070
   100
1002
}
  0
LINE
  5
19E49
330
19BD8
100
AcDbEntity
  8
YODOROGO
100
AcDbLine
 10
14025.06776011545
 20
737.8747482146435
 30
0.0
 11
14025.06776011545
 21
749.8747482146441
 31
0.0
1001
AUTOCAD_POSTSCRIPT_FIGURE
1002
{
1000
PSFILL
1000
Grayscale
1000
Grayscale
1070
   100
1002
}
  0
LINE
  5
19E4A
330
19BD8
100
AcDbEntity
  8
YODOROGO
100
AcDbLine
 10
14068.80217064596
 20
737.8747482146435
 30
0.0
 11
14025.06776011545
 21
737.8747482146435
 31
0.0
1001
AUTOCAD_POSTSCRIPT_FIGURE
1002
{
1000
PSFILL
1000
Grayscale
1000
Grayscale
1070
   100
1002
}
  0
LINE
  5
19E4B
330
19BD8
100
AcDbEntity
  8
YODOROGO
100
AcDbLine
 10
14068.80217064596
 20
749.8747482146441
 30
0.0
 11
14068.80217064596
 21
737.8747482146435
 31
0.0
1001
AUTOCAD_POSTSCRIPT_FIGURE
1002
{
1000
PSFILL
1000
Grayscale
1000
Grayscale
1070
   100
1002
}
  0
LINE
  5
19E4C
330
19BD8
100
AcDbEntity
  8
YODOROGO
100
AcDbLine
 10
14049.06776011545
 20
749.8747482146441
 30
0.0
 11
14068.80217064596
 21
749.8747482146441
 31
0.0
1001
AUTOCAD_POSTSCRIPT_FIGURE
1002
{
1000
PSFILL
1000
Grayscale
1000
Grayscale
1070
   100
1002
}
  0
LINE
  5
19E4D
330
19BD8
100
AcDbEntity
  8
YODOROGO
100
AcDbLine
 10
14049.06776011545
 20
815.7518186373286
 30
0.0
 11
14049.06776011545
 21
749.8747482146441
 31
0.0
1001
AUTOCAD_POSTSCRIPT_FIGURE
1002
{
1000
PSFILL
1000
Grayscale
1000
Grayscale
1070
   100
1002
}
  0
LINE
  5
19E4E
330
19BD8
100
AcDbEntity
  8
YODOROGO
100
AcDbLine
 10
14068.80217064596
 20
815.7518186373286
 30
0.0
 11
14049.06776011545
 21
815.7518186373286
 31
0.0
1001
AUTOCAD_POSTSCRIPT_FIGURE
1002
{
1000
PSFILL
1000
Grayscale
1000
Grayscale
1070
   100
1002
}
  0
LINE
  5
19E4F
330
19BD8
100
AcDbEntity
  8
YODOROGO
100
AcDbLine
 10
14068.80217064596
 20
827.751818637328
 30
0.0
 11
14068.80217064596
 21
815.7518186373286
 31
0.0
1001
AUTOCAD_POSTSCRIPT_FIGURE
1002
{
1000
PSFILL
1000
Grayscale
1000
Grayscale
1070
   100
1002
}
  0
LINE
  5
19E50
330
19BD8
100
AcDbEntity
  8
YODOROGO
100
AcDbLine
 10
14049.06776011545
 20
827.751818637328
 30
0.0
 11
14068.80217064596
 21
827.751818637328
 31
0.0
1001
AUTOCAD_POSTSCRIPT_FIGURE
1002
{
1000
PSFILL
1000
Grayscale
1000
Grayscale
1070
   100
1002
}
  0
LINE
  5
19E51
330
19BD8
100
AcDbEntity
  8
YODOROGO
100
AcDbLine
 10
14200.80217064594
 20
833.8747482146439
 30
0.0
 11
14172.80217064596
 21
833.8747482146439
 31
0.0
  0
LINE
  5
19E52
330
19BD8
100
AcDbEntity
  8
YODOROGO
100
AcDbLine
 10
14200.80217064594
 20
805.8747482146443
 30
0.0
 11
14200.80217064594
 21
833.8747482146439
 31
0.0
  0
LINE
  5
19E53
330
19BD8
100
AcDbEntity
  8
YODOROGO
100
AcDbLine
 10
14172.80217064596
 20
833.8747482146439
 30
0.0
 11
14172.80217064596
 21
805.8747482146443
 31
0.0
  0
ARC
  5
19E54
330
19BD8
100
AcDbEntity
  8
YODOROGO
100
AcDbCircle
 10
14256.80217064594
 20
753.8747482146439
 30
0.0
 40
40.0
100
AcDbArc
 50
180.0
 51
270.0
  0
ARC
  5
19E55
330
19BD8
100
AcDbEntity
  8
YODOROGO
100
AcDbCircle
 10
14268.80217064594
 20
781.8747482146434
 30
0.0
 40
20.0
100
AcDbArc
 50
180.0
 51
270.0
  0
LINE
  5
19E56
330
19BD8
100
AcDbEntity
  8
YODOROGO
100
AcDbLine
 10
14280.80217064596
 20
761.8747482146434
 30
0.0
 11
14268.80217064594
 21
761.8747482146434
 31
0.0
  0
ARC
  5
19E57
330
19BD8
100
AcDbEntity
  8
YODOROGO
100
AcDbCircle
 10
14280.80217064596
 20
773.8747482146427
 30
0.0
 40
11.99999999999818
100
AcDbArc
 50
270.0
 51
0.0000000000054281
  0
LINE
  5
19E58
330
19BD8
100
AcDbEntity
  8
YODOROGO
100
AcDbLine
 10
13900.80217064596
 20
945.3932903968532
 30
0.0
 11
13888.80217064596
 21
921.8883739758362
 31
0.0
1001
AUTOCAD_POSTSCRIPT_FIGURE
1002
{
1000
PSFILL
1000
Grayscale
1000
Grayscale
1070
   100
1002
}
  0
LINE
  5
19E59
330
19BD8
100
AcDbEntity
  8
YODOROGO
100
AcDbLine
 10
13900.80217064596
 20
873.8747482146434
 30
0.0
 11
13900.80217064596
 21
945.3932903968532
 31
0.0
1001
AUTOCAD_POSTSCRIPT_FIGURE
1002
{
1000
PSFILL
1000
Grayscale
1000
Grayscale
1070
   100
1002
}
  0
LINE
  5
19E5A
330
19BD8
100
AcDbEntity
  8
YODOROGO
100
AcDbLine
 10
13908.80217064596
 20
873.8747482146434
 30
0.0
 11
13900.80217064596
 21
873.8747482146434
 31
0.0
1001
AUTOCAD_POSTSCRIPT_FIGURE
1002
{
1000
PSFILL
1000
Grayscale
1000
Grayscale
1070
   100
1002
}
  0
LINE
  5
19E5B
330
19BD8
100
AcDbEntity
  8
YODOROGO
100
AcDbLine
 10
13908.80217064596
 20
946.8856660426332
 30
0.0
 11
13908.80217064596
 21
873.8747482146434
 31
0.0
1001
AUTOCAD_POSTSCRIPT_FIGURE
1002
{
1000
PSFILL
1000
Grayscale
1000
Grayscale
1070
   100
1002
}
  0
LINE
  5
19E5C
330
19BD8
100
AcDbEntity
  8
YODOROGO
100
AcDbLine
 10
13920.80217064596
 20
933.8273791420684
 30
0.0
 11
13908.80217064596
 21
946.8856660426332
 31
0.0
1001
AUTOCAD_POSTSCRIPT_FIGURE
1002
{
1000
PSFILL
1000
Grayscale
1000
Grayscale
1070
   100
1002
}
  0
LINE
  5
19E5D
330
19BD8
100
AcDbEntity
  8
YODOROGO
100
AcDbLine
 10
13920.80217064596
 20
941.8273791420681
 30
0.0
 11
13920.80217064596
 21
933.8273791420684
 31
0.0
1001
AUTOCAD_POSTSCRIPT_FIGURE
1002
{
1000
PSFILL
1000
Grayscale
1000
Grayscale
1070
   100
1002
}
  0
LINE
  5
19E5E
330
19BD8
100
AcDbEntity
  8
YODOROGO
100
AcDbLine
 10
13908.80217064596
 20
958.8856660426325
 30
0.0
 11
13920.80217064596
 21
941.8273791420681
 31
0.0
1001
AUTOCAD_POSTSCRIPT_FIGURE
1002
{
1000
PSFILL
1000
Grayscale
1000
Grayscale
1070
   100
1002
}
  0
LINE
  5
19E5F
330
19BD8
100
AcDbEntity
  8
YODOROGO
100
AcDbLine
 10
13908.80217064596
 20
969.8747482146441
 30
0.0
 11
13908.80217064596
 21
958.8856660426325
 31
0.0
1001
AUTOCAD_POSTSCRIPT_FIGURE
1002
{
1000
PSFILL
1000
Grayscale
1000
Grayscale
1070
   100
1002
}
  0
LINE
  5
19E60
330
19BD8
100
AcDbEntity
  8
YODOROGO
100
AcDbLine
 10
13944.80217064596
 20
969.8747482146441
 30
0.0
 11
13908.80217064596
 21
969.8747482146441
 31
0.0
1001
AUTOCAD_POSTSCRIPT_FIGURE
1002
{
1000
PSFILL
1000
Grayscale
1000
Grayscale
1070
   100
1002
}
  0
LINE
  5
19E61
330
19BD8
100
AcDbEntity
  8
YODOROGO
100
AcDbLine
 10
13944.80217064596
 20
950.2841744681497
 30
0.0
 11
13944.80217064596
 21
969.8747482146441
 31
0.0
1001
AUTOCAD_POSTSCRIPT_FIGURE
1002
{
1000
PSFILL
1000
Grayscale
1000
Grayscale
1070
   100
1002
}
  0
LINE
  5
19E62
330
19BD8
100
AcDbEntity
  8
YODOROGO
100
AcDbLine
 10
13928.80217064596
 20
950.2841744681497
 30
0.0
 11
13944.80217064596
 21
950.2841744681497
 31
0.0
1001
AUTOCAD_POSTSCRIPT_FIGURE
1002
{
1000
PSFILL
1000
Grayscale
1000
Grayscale
1070
   100
1002
}
  0
LINE
  5
19E63
330
19BD8
100
AcDbEntity
  8
YODOROGO
100
AcDbLine
 10
13928.80217064596
 20
942.2841744681491
 30
0.0
 11
13928.80217064596
 21
950.2841744681497
 31
0.0
1001
AUTOCAD_POSTSCRIPT_FIGURE
1002
{
1000
PSFILL
1000
Grayscale
1000
Grayscale
1070
   100
1002
}
  0
LINE
  5
19E64
330
19BD8
100
AcDbEntity
  8
YODOROGO
100
AcDbLine
 10
13944.80217064596
 20
942.2841744681491
 30
0.0
 11
13928.80217064596
 21
942.2841744681491
 31
0.0
1001
AUTOCAD_POSTSCRIPT_FIGURE
1002
{
1000
PSFILL
1000
Grayscale
1000
Grayscale
1070
   100
1002
}
  0
LINE
  5
19E65
330
19BD8
100
AcDbEntity
  8
YODOROGO
100
AcDbLine
 10
13944.80217064596
 20
939.8095889822196
 30
0.0
 11
13944.80217064596
 21
942.2841744681491
 31
0.0
1001
AUTOCAD_POSTSCRIPT_FIGURE
1002
{
1000
PSFILL
1000
Grayscale
1000
Grayscale
1070
   100
1002
}
  0
LINE
  5
19E66
330
19BD8
100
AcDbEntity
  8
YODOROGO
100
AcDbLine
 10
13924.80217064596
 20
906.4874905807087
 30
0.0
 11
13944.80217064596
 21
939.8095889822196
 31
0.0
1001
AUTOCAD_POSTSCRIPT_FIGURE
1002
{
1000
PSFILL
1000
Grayscale
1000
Grayscale
1070
   100
1002
}
  0
LINE
  5
19E67
330
19BD8
100
AcDbEntity
  8
YODOROGO
100
AcDbLine
 10
13924.80217064596
 20
898.487490580708
 30
0.0
 11
13924.80217064596
 21
906.4874905807087
 31
0.0
1001
AUTOCAD_POSTSCRIPT_FIGURE
1002
{
1000
PSFILL
1000
Grayscale
1000
Grayscale
1070
   100
1002
}
  0
LINE
  5
19E68
330
19BD8
100
AcDbEntity
  8
YODOROGO
100
AcDbLine
 10
13944.80217064596
 20
923.8095889822183
 30
0.0
 11
13924.80217064596
 21
898.487490580708
 31
0.0
1001
AUTOCAD_POSTSCRIPT_FIGURE
1002
{
1000
PSFILL
1000
Grayscale
1000
Grayscale
1070
   100
1002
}
  0
LINE
  5
19E69
330
19BD8
100
AcDbEntity
  8
YODOROGO
100
AcDbLine
 10
13944.80217064596
 20
873.8747482146434
 30
0.0
 11
13944.80217064596
 21
923.8095889822183
 31
0.0
1001
AUTOCAD_POSTSCRIPT_FIGURE
1002
{
1000
PSFILL
1000
Grayscale
1000
Grayscale
1070
   100
1002
}
  0
LINE
  5
19E6A
330
19BD8
100
AcDbEntity
  8
YODOROGO
100
AcDbLine
 10
13952.80217064596
 20
873.8747482146434
 30
0.0
 11
13944.80217064596
 21
873.8747482146434
 31
0.0
1001
AUTOCAD_POSTSCRIPT_FIGURE
1002
{
1000
PSFILL
1000
Grayscale
1000
Grayscale
1070
   100
1002
}
  0
LINE
  5
19E6B
330
19BD8
100
AcDbEntity
  8
YODOROGO
100
AcDbLine
 10
13952.80217064596
 20
924.7045060794032
 30
0.0
 11
13952.80217064596
 21
873.8747482146434
 31
0.0
1001
AUTOCAD_POSTSCRIPT_FIGURE
1002
{
1000
PSFILL
1000
Grayscale
1000
Grayscale
1070
   100
1002
}
  0
LINE
  5
19E6C
330
19BD8
100
AcDbEntity
  8
YODOROGO
100
AcDbLine
 10
13968.80217064596
 20
898.487490580708
 30
0.0
 11
13952.80217064596
 21
924.7045060794032
 31
0.0
1001
AUTOCAD_POSTSCRIPT_FIGURE
1002
{
1000
PSFILL
1000
Grayscale
1000
Grayscale
1070
   100
1002
}
  0
LINE
  5
19E6D
330
19BD8
100
AcDbEntity
  8
YODOROGO
100
AcDbLine
 10
13968.80217064596
 20
906.4874905807087
 30
0.0
 11
13968.80217064596
 21
898.487490580708
 31
0.0
1001
AUTOCAD_POSTSCRIPT_FIGURE
1002
{
1000
PSFILL
1000
Grayscale
1000
Grayscale
1070
   100
1002
}
  0
LINE
  5
19E6E
330
19BD8
100
AcDbEntity
  8
YODOROGO
100
AcDbLine
 10
13952.80217064596
 20
940.7045060794041
 30
0.0
 11
13968.80217064596
 21
906.4874905807087
 31
0.0
1001
AUTOCAD_POSTSCRIPT_FIGURE
1002
{
1000
PSFILL
1000
Grayscale
1000
Grayscale
1070
   100
1002
}
  0
LINE
  5
19E6F
330
19BD8
100
AcDbEntity
  8
YODOROGO
100
AcDbLine
 10
13952.80217064596
 20
942.2841744681502
 30
0.0
 11
13952.80217064596
 21
940.7045060794041
 31
0.0
1001
AUTOCAD_POSTSCRIPT_FIGURE
1002
{
1000
PSFILL
1000
Grayscale
1000
Grayscale
1070
   100
1002
}
  0
LINE
  5
19E70
330
19BD8
100
AcDbEntity
  8
YODOROGO
100
AcDbLine
 10
13968.80217064596
 20
942.2841744681491
 30
0.0
 11
13952.80217064596
 21
942.2841744681502
 31
0.0
1001
AUTOCAD_POSTSCRIPT_FIGURE
1002
{
1000
PSFILL
1000
Grayscale
1000
Grayscale
1070
   100
1002
}
  0
LINE
  5
19E71
330
19BD8
100
AcDbEntity
  8
YODOROGO
100
AcDbLine
 10
13968.80217064596
 20
950.2841744681497
 30
0.0
 11
13968.80217064596
 21
942.2841744681491
 31
0.0
1001
AUTOCAD_POSTSCRIPT_FIGURE
1002
{
1000
PSFILL
1000
Grayscale
1000
Grayscale
1070
   100
1002
}
  0
LINE
  5
19E72
330
19BD8
100
AcDbEntity
  8
YODOROGO
100
AcDbLine
 10
13952.80217064596
 20
950.2841744681497
 30
0.0
 11
13968.80217064596
 21
950.2841744681497
 31
0.0
1001
AUTOCAD_POSTSCRIPT_FIGURE
1002
{
1000
PSFILL
1000
Grayscale
1000
Grayscale
1070
   100
1002
}
  0
LINE
  5
19E73
330
19BD8
100
AcDbEntity
  8
YODOROGO
100
AcDbLine
 10
13952.80217064596
 20
969.8747482146441
 30
0.0
 11
13952.80217064596
 21
950.2841744681497
 31
0.0
1001
AUTOCAD_POSTSCRIPT_FIGURE
1002
{
1000
PSFILL
1000
Grayscale
1000
Grayscale
1070
   100
1002
}
  0
LINE
  5
19E74
330
19BD8
100
AcDbEntity
  8
YODOROGO
100
AcDbLine
 10
13968.80217064596
 20
969.8747482146441
 30
0.0
 11
13952.80217064596
 21
969.8747482146441
 31
0.0
1001
AUTOCAD_POSTSCRIPT_FIGURE
1002
{
1000
PSFILL
1000
Grayscale
1000
Grayscale
1070
   100
1002
}
  0
LINE
  5
19E75
330
19BD8
100
AcDbEntity
  8
YODOROGO
100
AcDbLine
 10
13968.80217064596
 20
977.8747482146435
 30
0.0
 11
13968.80217064596
 21
969.8747482146441
 31
0.0
1001
AUTOCAD_POSTSCRIPT_FIGURE
1002
{
1000
PSFILL
1000
Grayscale
1000
Grayscale
1070
   100
1002
}
  0
LINE
  5
19E76
330
19BD8
100
AcDbEntity
  8
YODOROGO
100
AcDbLine
 10
13952.80217064596
 20
977.8747482146435
 30
0.0
 11
13968.80217064596
 21
977.8747482146435
 31
0.0
1001
AUTOCAD_POSTSCRIPT_FIGURE
1002
{
1000
PSFILL
1000
Grayscale
1000
Grayscale
1070
   100
1002
}
  0
LINE
  5
19E77
330
19BD8
100
AcDbEntity
  8
YODOROGO
100
AcDbLine
 10
13952.80217064596
 20
989.8747482146442
 30
0.0
 11
13952.80217064596
 21
977.8747482146435
 31
0.0
1001
AUTOCAD_POSTSCRIPT_FIGURE
1002
{
1000
PSFILL
1000
Grayscale
1000
Grayscale
1070
   100
1002
}
  0
LINE
  5
19E78
330
19BD8
100
AcDbEntity
  8
YODOROGO
100
AcDbLine
 10
13944.80217064596
 20
989.8747482146442
 30
0.0
 11
13952.80217064596
 21
989.8747482146442
 31
0.0
1001
AUTOCAD_POSTSCRIPT_FIGURE
1002
{
1000
PSFILL
1000
Grayscale
1000
Grayscale
1070
   100
1002
}
  0
LINE
  5
19E79
330
19BD8
100
AcDbEntity
  8
YODOROGO
100
AcDbLine
 10
13944.80217064596
 20
977.8747482146435
 30
0.0
 11
13944.80217064596
 21
989.8747482146442
 31
0.0
1001
AUTOCAD_POSTSCRIPT_FIGURE
1002
{
1000
PSFILL
1000
Grayscale
1000
Grayscale
1070
   100
1002
}
  0
LINE
  5
19E7A
330
19BD8
100
AcDbEntity
  8
YODOROGO
100
AcDbLine
 10
13932.80217064596
 20
977.8747482146435
 30
0.0
 11
13944.80217064596
 21
977.8747482146435
 31
0.0
1001
AUTOCAD_POSTSCRIPT_FIGURE
1002
{
1000
PSFILL
1000
Grayscale
1000
Grayscale
1070
   100
1002
}
  0
LINE
  5
19E7B
330
19BD8
100
AcDbEntity
  8
YODOROGO
100
AcDbLine
 10
13932.80217064596
 20
989.8747482146442
 30
0.0
 11
13932.80217064596
 21
977.8747482146435
 31
0.0
1001
AUTOCAD_POSTSCRIPT_FIGURE
1002
{
1000
PSFILL
1000
Grayscale
1000
Grayscale
1070
   100
1002
}
  0
LINE
  5
19E7C
330
19BD8
100
AcDbEntity
  8
YODOROGO
100
AcDbLine
 10
13924.80217064596
 20
989.8747482146442
 30
0.0
 11
13932.80217064596
 21
989.8747482146442
 31
0.0
1001
AUTOCAD_POSTSCRIPT_FIGURE
1002
{
1000
PSFILL
1000
Grayscale
1000
Grayscale
1070
   100
1002
}
  0
LINE
  5
19E7D
330
19BD8
100
AcDbEntity
  8
YODOROGO
100
AcDbLine
 10
13924.80217064596
 20
977.8747482146435
 30
0.0
 11
13924.80217064596
 21
989.8747482146442
 31
0.0
1001
AUTOCAD_POSTSCRIPT_FIGURE
1002
{
1000
PSFILL
1000
Grayscale
1000
Grayscale
1070
   100
1002
}
  0
LINE
  5
19E7E
330
19BD8
100
AcDbEntity
  8
YODOROGO
100
AcDbLine
 10
13908.80217064596
 20
977.8747482146435
 30
0.0
 11
13924.80217064596
 21
977.8747482146435
 31
0.0
1001
AUTOCAD_POSTSCRIPT_FIGURE
1002
{
1000
PSFILL
1000
Grayscale
1000
Grayscale
1070
   100
1002
}
  0
LINE
  5
19E7F
330
19BD8
100
AcDbEntity
  8
YODOROGO
100
AcDbLine
 10
13908.80217064596
 20
989.8747482146442
 30
0.0
 11
13908.80217064596
 21
977.8747482146435
 31
0.0
1001
AUTOCAD_POSTSCRIPT_FIGURE
1002
{
1000
PSFILL
1000
Grayscale
1000
Grayscale
1070
   100
1002
}
  0
LINE
  5
19E80
330
19BD8
100
AcDbEntity
  8
YODOROGO
100
AcDbLine
 10
13900.80217064596
 20
989.8747482146442
 30
0.0
 11
13908.80217064596
 21
989.8747482146442
 31
0.0
1001
AUTOCAD_POSTSCRIPT_FIGURE
1002
{
1000
PSFILL
1000
Grayscale
1000
Grayscale
1070
   100
1002
}
  0
LINE
  5
19E81
330
19BD8
100
AcDbEntity
  8
YODOROGO
100
AcDbLine
 10
13900.80217064596
 20
977.8747482146435
 30
0.0
 11
13900.80217064596
 21
989.8747482146442
 31
0.0
1001
AUTOCAD_POSTSCRIPT_FIGURE
1002
{
1000
PSFILL
1000
Grayscale
1000
Grayscale
1070
   100
1002
}
  0
LINE
  5
19E82
330
19BD8
100
AcDbEntity
  8
YODOROGO
100
AcDbLine
 10
13888.80217064596
 20
977.8747482146435
 30
0.0
 11
13900.80217064596
 21
977.8747482146435
 31
0.0
1001
AUTOCAD_POSTSCRIPT_FIGURE
1002
{
1000
PSFILL
1000
Grayscale
1000
Grayscale
1070
   100
1002
}
  0
LINE
  5
19E83
330
19BD8
100
AcDbEntity
  8
YODOROGO
100
AcDbLine
 10
13888.80217064596
 20
969.8747482146441
 30
0.0
 11
13888.80217064596
 21
977.8747482146435
 31
0.0
1001
AUTOCAD_POSTSCRIPT_FIGURE
1002
{
1000
PSFILL
1000
Grayscale
1000
Grayscale
1070
   100
1002
}
  0
LINE
  5
19E84
330
19BD8
100
AcDbEntity
  8
YODOROGO
100
AcDbLine
 10
13900.80217064596
 20
969.8747482146441
 30
0.0
 11
13888.80217064596
 21
969.8747482146441
 31
0.0
1001
AUTOCAD_POSTSCRIPT_FIGURE
1002
{
1000
PSFILL
1000
Grayscale
1000
Grayscale
1070
   100
1002
}
  0
LINE
  5
19E85
330
19BD8
100
AcDbEntity
  8
YODOROGO
100
AcDbLine
 10
13900.80217064596
 20
957.3932903968525
 30
0.0
 11
13900.80217064596
 21
969.8747482146441
 31
0.0
1001
AUTOCAD_POSTSCRIPT_FIGURE
1002
{
1000
PSFILL
1000
Grayscale
1000
Grayscale
1070
   100
1002
}
  0
LINE
  5
19E86
330
19BD8
100
AcDbEntity
  8
YODOROGO
100
AcDbLine
 10
13888.80217064596
 20
929.8883739758355
 30
0.0
 11
13900.80217064596
 21
957.3932903968525
 31
0.0
1001
AUTOCAD_POSTSCRIPT_FIGURE
1002
{
1000
PSFILL
1000
Grayscale
1000
Grayscale
1070
   100
1002
}
  0
LINE
  5
19E87
330
19BD8
100
AcDbEntity
  8
YODOROGO
100
AcDbLine
 10
13888.80217064596
 20
921.8883739758362
 30
0.0
 11
13888.80217064596
 21
929.8883739758355
 31
0.0
1001
AUTOCAD_POSTSCRIPT_FIGURE
1002
{
1000
PSFILL
1000
Grayscale
1000
Grayscale
1070
   100
1002
}
  0
LINE
  5
19E88
330
19BD8
100
AcDbEntity
  8
YODOROGO
100
AcDbLine
 10
14128.80217064596
 20
933.8747482146439
 30
0.0
 11
14200.80217064594
 21
912.4388128201532
 31
0.0
1001
AUTOCAD_POSTSCRIPT_FIGURE
1002
{
1000
PSFILL
1000
Grayscale
1000
Grayscale
1070
   100
1002
}
  0
LINE
  5
19E89
330
19BD8
100
AcDbEntity
  8
YODOROGO
100
AcDbLine
 10
14200.80217064594
 20
876.4388128201531
 30
0.0
 11
14128.80217064596
 21
897.8747482146435
 31
0.0
1001
AUTOCAD_POSTSCRIPT_FIGURE
1002
{
1000
PSFILL
1000
Grayscale
1000
Grayscale
1070
   100
1002
}
  0
LINE
  5
19E8A
330
19BD8
100
AcDbEntity
  8
YODOROGO
100
AcDbLine
 10
14200.80217064594
 20
992.4388128201531
 30
0.0
 11
14128.80217064596
 21
1013.874748214644
 31
0.0
1001
AUTOCAD_POSTSCRIPT_FIGURE
1002
{
1000
PSFILL
1000
Grayscale
1000
Grayscale
1070
   100
1002
}
  0
LINE
  5
19E8B
330
19BD8
100
AcDbEntity
  8
YODOROGO
100
AcDbLine
 10
14128.80217064596
 20
979.874748214644
 30
0.0
 11
14200.80217064594
 21
958.4388128201537
 31
0.0
1001
AUTOCAD_POSTSCRIPT_FIGURE
1002
{
1000
PSFILL
1000
Grayscale
1000
Grayscale
1070
   100
1002
}
  0
LINE
  5
19E8C
330
19BD8
100
AcDbEntity
  8
YODOROGO
100
AcDbLine
 10
14128.80217064596
 20
897.8747482146435
 30
0.0
 11
14128.80217064596
 21
933.8747482146439
 31
0.0
1001
AUTOCAD_POSTSCRIPT_FIGURE
1002
{
1000
PSFILL
1000
Grayscale
1000
Grayscale
1070
   100
1002
}
  0
LINE
  5
19E8D
330
19BD8
100
AcDbEntity
  8
YODOROGO
100
AcDbLine
 10
14128.80217064596
 20
1013.874748214644
 30
0.0
 11
14128.80217064596
 21
979.874748214644
 31
0.0
1001
AUTOCAD_POSTSCRIPT_FIGURE
1002
{
1000
PSFILL
1000
Grayscale
1000
Grayscale
1070
   100
1002
}
  0
LINE
  5
19E8E
330
19BD8
100
AcDbEntity
  8
YODOROGO
100
AcDbLine
 10
14040.11816010337
 20
969.8747482146441
 30
0.0
 11
14064.80217064595
 21
873.8747482146434
 31
0.0
1001
AUTOCAD_POSTSCRIPT_FIGURE
1002
{
1000
PSFILL
1000
Grayscale
1000
Grayscale
1070
   100
1002
}
  0
LINE
  5
19E8F
330
19BD8
100
AcDbEntity
  8
YODOROGO
100
AcDbLine
 10
13988.80217064596
 20
969.8747482146441
 30
0.0
 11
14040.11816010337
 21
969.8747482146441
 31
0.0
1001
AUTOCAD_POSTSCRIPT_FIGURE
1002
{
1000
PSFILL
1000
Grayscale
1000
Grayscale
1070
   100
1002
}
  0
LINE
  5
19E90
330
19BD8
100
AcDbEntity
  8
YODOROGO
100
AcDbLine
 10
13988.80217064596
 20
977.8747482146435
 30
0.0
 11
13988.80217064596
 21
969.8747482146441
 31
0.0
1001
AUTOCAD_POSTSCRIPT_FIGURE
1002
{
1000
PSFILL
1000
Grayscale
1000
Grayscale
1070
   100
1002
}
  0
LINE
  5
19E91
330
19BD8
100
AcDbEntity
  8
YODOROGO
100
AcDbLine
 10
14038.30343925995
 20
977.8747482146435
 30
0.0
 11
13988.80217064596
 21
977.8747482146435
 31
0.0
1001
AUTOCAD_POSTSCRIPT_FIGURE
1002
{
1000
PSFILL
1000
Grayscale
1000
Grayscale
1070
   100
1002
}
  0
LINE
  5
19E92
330
19BD8
100
AcDbEntity
  8
YODOROGO
100
AcDbLine
 10
14035.58135799485
 20
989.8747482146442
 30
0.0
 11
14038.30343925995
 21
977.8747482146435
 31
0.0
1001
AUTOCAD_POSTSCRIPT_FIGURE
1002
{
1000
PSFILL
1000
Grayscale
1000
Grayscale
1070
   100
1002
}
  0
LINE
  5
19E93
330
19BD8
100
AcDbEntity
  8
YODOROGO
100
AcDbLine
 10
14045.58135799485
 20
989.8747482146442
 30
0.0
 11
14035.58135799485
 21
989.8747482146442
 31
0.0
1001
AUTOCAD_POSTSCRIPT_FIGURE
1002
{
1000
PSFILL
1000
Grayscale
1000
Grayscale
1070
   100
1002
}
  0
LINE
  5
19E94
330
19BD8
100
AcDbEntity
  8
YODOROGO
100
AcDbLine
 10
14047.90343925997
 20
977.8747482146435
 30
0.0
 11
14045.58135799485
 21
989.8747482146442
 31
0.0
1001
AUTOCAD_POSTSCRIPT_FIGURE
1002
{
1000
PSFILL
1000
Grayscale
1000
Grayscale
1070
   100
1002
}
  0
LINE
  5
19E95
330
19BD8
100
AcDbEntity
  8
YODOROGO
100
AcDbLine
 10
14060.80217064596
 20
977.8747482146435
 30
0.0
 11
14047.90343925997
 21
977.8747482146435
 31
0.0
1001
AUTOCAD_POSTSCRIPT_FIGURE
1002
{
1000
PSFILL
1000
Grayscale
1000
Grayscale
1070
   100
1002
}
  0
LINE
  5
19E96
330
19BD8
100
AcDbEntity
  8
YODOROGO
100
AcDbLine
 10
14060.80217064596
 20
989.8747482146442
 30
0.0
 11
14060.80217064596
 21
977.8747482146435
 31
0.0
1001
AUTOCAD_POSTSCRIPT_FIGURE
1002
{
1000
PSFILL
1000
Grayscale
1000
Grayscale
1070
   100
1002
}
  0
LINE
  5
19E97
330
19BD8
100
AcDbEntity
  8
YODOROGO
100
AcDbLine
 10
14068.80217064596
 20
989.8747482146442
 30
0.0
 11
14060.80217064596
 21
989.8747482146442
 31
0.0
1001
AUTOCAD_POSTSCRIPT_FIGURE
1002
{
1000
PSFILL
1000
Grayscale
1000
Grayscale
1070
   100
1002
}
  0
LINE
  5
19E98
330
19BD8
100
AcDbEntity
  8
YODOROGO
100
AcDbLine
 10
14068.80217064596
 20
977.8747482146435
 30
0.0
 11
14068.80217064596
 21
989.8747482146442
 31
0.0
1001
AUTOCAD_POSTSCRIPT_FIGURE
1002
{
1000
PSFILL
1000
Grayscale
1000
Grayscale
1070
   100
1002
}
  0
LINE
  5
19E99
330
19BD8
100
AcDbEntity
  8
YODOROGO
100
AcDbLine
 10
14068.80217064596
 20
969.8747482146441
 30
0.0
 11
14068.80217064596
 21
977.8747482146435
 31
0.0
1001
AUTOCAD_POSTSCRIPT_FIGURE
1002
{
1000
PSFILL
1000
Grayscale
1000
Grayscale
1070
   100
1002
}
  0
LINE
  5
19E9A
330
19BD8
100
AcDbEntity
  8
YODOROGO
100
AcDbLine
 10
14049.45149343671
 20
969.8747482146441
 30
0.0
 11
14068.80217064596
 21
969.8747482146441
 31
0.0
1001
AUTOCAD_POSTSCRIPT_FIGURE
1002
{
1000
PSFILL
1000
Grayscale
1000
Grayscale
1070
   100
1002
}
  0
LINE
  5
19E9B
330
19BD8
100
AcDbEntity
  8
YODOROGO
100
AcDbLine
 10
14068.80217064596
 20
873.8747482146434
 30
0.0
 11
14049.45149343671
 21
969.8747482146441
 31
0.0
1001
AUTOCAD_POSTSCRIPT_FIGURE
1002
{
1000
PSFILL
1000
Grayscale
1000
Grayscale
1070
   100
1002
}
  0
LINE
  5
19E9C
330
19BD8
100
AcDbEntity
  8
YODOROGO
100
AcDbLine
 10
14064.80217064595
 20
873.8747482146434
 30
0.0
 11
14068.80217064596
 21
873.8747482146434
 31
0.0
1001
AUTOCAD_POSTSCRIPT_FIGURE
1002
{
1000
PSFILL
1000
Grayscale
1000
Grayscale
1070
   100
1002
}
  0
LINE
  5
19E9D
330
19BD8
100
AcDbEntity
  8
YODOROGO
100
AcDbLine
 10
14039.03460996689
 20
887.8703881493972
 30
0.0
 11
13988.80217064596
 21
873.8747482146434
 31
0.0
  0
LINE
  5
19E9E
330
19BD8
100
AcDbEntity
  8
YODOROGO
100
AcDbLine
 10
14039.03460996689
 20
899.3344897645364
 30
0.0
 11
14039.03460996689
 21
887.8703881493972
 31
0.0
  0
LINE
  5
19E9F
330
19BD8
100
AcDbEntity
  8
YODOROGO
100
AcDbLine
 10
14016.91839030643
 20
893.4084665668834
 30
0.0
 11
14039.03460996689
 21
899.3344897645364
 31
0.0
  0
LINE
  5
19EA0
330
19BD8
100
AcDbEntity
  8
YODOROGO
100
AcDbLine
 10
14016.91839030643
 20
936.2841744681499
 30
0.0
 11
14016.91839030643
 21
893.4084665668834
 31
0.0
  0
LINE
  5
19EA1
330
19BD8
100
AcDbEntity
  8
YODOROGO
100
AcDbLine
 10
14039.03460996689
 20
936.2841744681499
 30
0.0
 11
14016.91839030643
 21
936.2841744681499
 31
0.0
  0
LINE
  5
19EA2
330
19BD8
100
AcDbEntity
  8
YODOROGO
100
AcDbLine
 10
14039.03460996689
 20
946.2841744681487
 30
0.0
 11
14039.03460996689
 21
936.2841744681499
 31
0.0
  0
LINE
  5
19EA3
330
19BD8
100
AcDbEntity
  8
YODOROGO
100
AcDbLine
 10
13988.80217064596
 20
946.2841744681487
 30
0.0
 11
14039.03460996689
 21
946.2841744681487
 31
0.0
  0
LINE
  5
19EA4
330
19BD8
100
AcDbEntity
  8
YODOROGO
100
AcDbLine
 10
13988.80217064596
 20
936.2841744681499
 30
0.0
 11
13988.80217064596
 21
946.2841744681487
 31
0.0
  0
LINE
  5
19EA5
330
19BD8
100
AcDbEntity
  8
YODOROGO
100
AcDbLine
 10
14010.91839030643
 20
936.2841744681499
 30
0.0
 11
13988.80217064596
 21
936.2841744681499
 31
0.0
  0
LINE
  5
19EA6
330
19BD8
100
AcDbEntity
  8
YODOROGO
100
AcDbLine
 10
14010.91839030643
 20
892.3366697971587
 30
0.0
 11
14010.91839030643
 21
936.2841744681499
 31
0.0
  0
LINE
  5
19EA7
330
19BD8
100
AcDbEntity
  8
YODOROGO
100
AcDbLine
 10
13988.80217064596
 20
885.8747482146432
 30
0.0
 11
14010.91839030643
 21
892.3366697971587
 31
0.0
  0
LINE
  5
19EA8
330
19BD8
100
AcDbEntity
  8
YODOROGO
100
AcDbLine
 10
13988.80217064596
 20
873.8747482146434
 30
0.0
 11
13988.80217064596
 21
885.8747482146432
 31
0.0
  0
LINE
  5
19EA9
330
19BD8
100
AcDbEntity
  8
YODOROGO
100
AcDbLine
 10
14000.80217064596
 20
853.874748214644
 30
0.0
 11
14000.80217064596
 21
841.8747482146434
 31
0.0
  0
LINE
  5
19EAA
330
19BD8
100
AcDbEntity
  8
YODOROGO
100
AcDbLine
 10
14000.80217064596
 20
853.874748214644
 30
0.0
 11
14000.80217064596
 21
853.874748214644
 31
0.0
  0
LINE
  5
19EAB
330
19BD8
100
AcDbEntity
  8
YODOROGO
100
AcDbLine
 10
14008.80217064596
 20
853.874748214644
 30
0.0
 11
14000.80217064596
 21
853.874748214644
 31
0.0
  0
LINE
  5
19EAC
330
19BD8
100
AcDbEntity
  8
YODOROGO
100
AcDbLine
 10
14008.80217064596
 20
841.8747482146434
 30
0.0
 11
14008.80217064596
 21
853.874748214644
 31
0.0
  0
LINE
  5
19EAD
330
19BD8
100
AcDbEntity
  8
YODOROGO
100
AcDbLine
 10
14020.45660200844
 20
841.8747482146434
 30
0.0
 11
14008.80217064596
 21
841.8747482146434
 31
0.0
  0
LINE
  5
19EAE
330
19BD8
100
AcDbEntity
  8
YODOROGO
100
AcDbLine
 10
14000.80217064596
 20
841.8747482146434
 30
0.0
 11
13988.80217064596
 21
841.8747482146434
 31
0.0
  0
LINE
  5
19EAF
330
19BD8
100
AcDbEntity
  8
YODOROGO
100
AcDbLine
 10
14041.06776011546
 20
853.874748214644
 30
0.0
 11
14049.06776011545
 21
853.874748214644
 31
0.0
1001
AUTOCAD_POSTSCRIPT_FIGURE
1002
{
1000
PSFILL
1000
Grayscale
1000
Grayscale
1070
   100
1002
}
  0
LINE
  5
19EB0
330
19BD8
100
AcDbEntity
  8
YODOROGO
100
AcDbLine
 10
14200.80217064594
 20
912.4388128201532
 30
0.0
 11
14200.80217064594
 21
876.4388128201531
 31
0.0
1001
AUTOCAD_POSTSCRIPT_FIGURE
1002
{
1000
PSFILL
1000
Grayscale
1000
Grayscale
1070
   100
1002
}
  0
LINE
  5
19EB1
330
19BD8
100
AcDbEntity
  8
YODOROGO
100
AcDbLine
 10
14200.80217064594
 20
958.4388128201537
 30
0.0
 11
14200.80217064594
 21
992.4388128201531
 31
0.0
1001
AUTOCAD_POSTSCRIPT_FIGURE
1002
{
1000
PSFILL
1000
Grayscale
1000
Grayscale
1070
   100
1002
}
  0
LINE
  5
19EB2
330
19BD8
100
AcDbEntity
  8
YODOROGO
100
AcDbLine
 10
14216.80217064594
 20
909.8747482146439
 30
0.0
 11
14216.80217064594
 21
873.8747482146449
 31
0.0
  0
LINE
  5
19EB3
330
19BD8
100
AcDbEntity
  8
YODOROGO
100
AcDbLine
 10
14248.80217064594
 20
853.874748214644
 30
0.0
 11
14216.80217064594
 21
853.874748214644
 31
0.0
  0
LINE
  5
19EB4
330
19BD8
100
AcDbEntity
  8
YODOROGO
100
AcDbLine
 10
14216.80217064594
 20
873.8747482146449
 30
0.0
 11
14292.80217064596
 21
873.8747482146449
 31
0.0
  0
LINE
  5
19EB5
330
19BD8
100
AcDbEntity
  8
YODOROGO
100
AcDbLine
 10
14248.80217064594
 20
933.8747482146439
 30
0.0
 11
14216.80217064594
 21
933.8747482146439
 31
0.0
  0
LINE
  5
19EB6
330
19BD8
100
AcDbEntity
  8
YODOROGO
100
AcDbLine
 10
14248.80217064594
 20
961.8747482146432
 30
0.0
 11
14248.80217064594
 21
933.8747482146439
 31
0.0
  0
LINE
  5
19EB7
330
19BD8
100
AcDbEntity
  8
YODOROGO
100
AcDbLine
 10
14292.80217064596
 20
993.8747482146439
 30
0.0
 11
14292.80217064596
 21
1013.874748214644
 31
0.0
  0
LINE
  5
19EB8
330
19BD8
100
AcDbEntity
  8
YODOROGO
100
AcDbLine
 10
14216.80217064594
 20
993.8747482146439
 30
0.0
 11
14292.80217064596
 21
993.8747482146439
 31
0.0
  0
LINE
  5
19EB9
330
19BD8
100
AcDbEntity
  8
YODOROGO
100
AcDbLine
 10
14216.80217064594
 20
933.8747482146439
 30
0.0
 11
14216.80217064594
 21
993.8747482146439
 31
0.0
  0
LINE
  5
19EBA
330
19BD8
100
AcDbEntity
  8
YODOROGO
100
AcDbLine
 10
14500.80217064594
 20
1013.874748214644
 30
0.0
 11
14500.80217064594
 21
809.8747482146441
 31
0.0
  0
LINE
  5
19EBB
330
19BD8
100
AcDbEntity
  8
YODOROGO
100
AcDbLine
 10
14536.80217064596
 20
789.8747482146441
 30
0.0
 11
14536.80217064596
 21
1013.874748214644
 31
0.0
  0
LINE
  5
19EBC
330
19BD8
100
AcDbEntity
  8
YODOROGO
100
AcDbLine
 10
14630.80217064596
 20
745.8747482146431
 30
0.0
 11
14630.80217064596
 21
1003.874748214644
 31
0.0
  0
LINE
  5
19EBD
330
19BD8
100
AcDbEntity
  8
YODOROGO
100
AcDbLine
 10
14598.80217064596
 20
1003.874748214644
 30
0.0
 11
14598.80217064596
 21
745.8747482146431
 31
0.0
  0
LINE
  5
19EBE
330
19BD8
100
AcDbEntity
  8
YODOROGO
100
AcDbLine
 10
14692.80217064596
 20
1013.874748214644
 30
0.0
 11
14692.80217064596
 21
713.8747482146436
 31
0.0
  0
LINE
  5
19EBF
330
19BD8
100
AcDbEntity
  8
YODOROGO
100
AcDbLine
 10
14728.80217064596
 20
713.8747482146436
 30
0.0
 11
14728.80217064596
 21
1013.874748214644
 31
0.0
  0
LINE
  5
19EC0
330
19BD8
100
AcDbEntity
  8
YODOROGO
100
AcDbLine
 10
14328.80217064594
 20
833.8747482146439
 30
0.0
 11
14328.80217064594
 21
873.8747482146449
 31
0.0
  0
LINE
  5
19EC1
330
19BD8
100
AcDbEntity
  8
YODOROGO
100
AcDbLine
 10
14942.80217064596
 20
853.874748214644
 30
0.0
 11
14942.80217064596
 21
833.8747482146439
 31
0.0
  0
LINE
  5
19EC2
330
19BD8
100
AcDbEntity
  8
YODOROGO
100
AcDbLine
 10
14942.80217064596
 20
853.874748214644
 30
0.0
 11
14942.80217064596
 21
833.8747482146439
 31
0.0
  0
ARC
  5
19EC3
330
19BD8
100
AcDbEntity
  8
YODOROGO
100
AcDbCircle
 10
14453.45578809342
 20
809.1089322211363
 30
0.0
 40
47.35257558937082
100
AcDbArc
 50
274.052441629071
 51
0.9266642149310712
  0
ARC
  5
19EC4
330
19BD8
100
AcDbEntity
  8
YODOROGO
100
AcDbCircle
 10
14454.5930853599
 20
796.30536430522
 30
0.0
 40
82.46021178042756
100
AcDbArc
 50
271.5351210653777
 51
355.5272775058505
  0
LINE
  5
19EC5
330
19BD8
100
AcDbEntity
  8
YODOROGO
100
AcDbLine
 10
14456.80217064596
 20
761.8747482146434
 30
0.0
 11
14456.80217064596
 21
713.8747482146436
 31
0.0
  0
LINE
  5
19EC6
330
19BD8
100
AcDbEntity
  8
YODOROGO
100
AcDbLine
 10
14396.80217064594
 20
833.8747482146439
 30
0.0
 11
14328.80217064594
 21
833.8747482146439
 31
0.0
  0
LINE
  5
19EC7
330
19BD8
100
AcDbEntity
  8
YODOROGO
100
AcDbLine
 10
14396.80217064594
 20
801.8747482146444
 30
0.0
 11
14396.80217064594
 21
833.8747482146439
 31
0.0
  0
LINE
  5
19EC8
330
19BD8
100
AcDbEntity
  8
YODOROGO
100
AcDbLine
 10
14328.80217064594
 20
801.8747482146444
 30
0.0
 11
14396.80217064594
 21
801.8747482146444
 31
0.0
  0
LINE
  5
19EC9
330
19BD8
100
AcDbEntity
  8
YODOROGO
100
AcDbLine
 10
14328.80217064594
 20
761.8747482146434
 30
0.0
 11
14328.80217064594
 21
801.8747482146444
 31
0.0
  0
LINE
  5
19ECA
330
19BD8
100
AcDbEntity
  8
YODOROGO
100
AcDbLine
 10
14396.80217064594
 20
761.8747482146434
 30
0.0
 11
14328.80217064594
 21
761.8747482146434
 31
0.0
  0
LINE
  5
19ECB
330
19BD8
100
AcDbEntity
  8
YODOROGO
100
AcDbLine
 10
14396.80217064594
 20
713.8747482146436
 30
0.0
 11
14396.80217064594
 21
761.8747482146434
 31
0.0
  0
LINE
  5
19ECC
330
19BD8
100
AcDbEntity
  8
YODOROGO
100
AcDbLine
 10
14598.80217064596
 20
745.8747482146431
 30
0.0
 11
14630.80217064596
 21
745.8747482146431
 31
0.0
  0
LINE
  5
19ECD
330
19BD8
100
AcDbEntity
  8
YODOROGO
100
AcDbLine
 10
14692.80217064596
 20
713.8747482146436
 30
0.0
 11
14728.80217064596
 21
713.8747482146436
 31
0.0
  0
LINE
  5
19ECE
330
19BD8
100
AcDbEntity
  8
YODOROGO
100
AcDbLine
 10
14868.80217064596
 20
764.2207260852818
 30
0.0
 11
14868.80217064596
 21
713.8747482146436
 31
0.0
  0
LINE
  5
19ECF
330
19BD8
100
AcDbEntity
  8
YODOROGO
100
AcDbLine
 10
14808.80217064596
 20
713.8747482146436
 30
0.0
 11
14868.80217064596
 21
764.2207260852818
 31
0.0
  0
LINE
  5
19ED0
330
19BD8
100
AcDbEntity
  8
YODOROGO
100
AcDbLine
 10
14808.80217064596
 20
773.874748214644
 30
0.0
 11
14808.80217064596
 21
713.8747482146436
 31
0.0
  0
LINE
  5
19ED1
330
19BD8
100
AcDbEntity
  8
YODOROGO
100
AcDbLine
 10
14856.47231434973
 20
813.8747482146435
 30
0.0
 11
14808.80217064596
 21
773.874748214644
 31
0.0
  0
LINE
  5
19ED2
330
19BD8
100
AcDbEntity
  8
YODOROGO
100
AcDbLine
 10
14808.80217064596
 20
813.8747482146435
 30
0.0
 11
14856.47231434973
 21
813.8747482146435
 31
0.0
  0
LINE
  5
19ED3
330
19BD8
100
AcDbEntity
  8
YODOROGO
100
AcDbLine
 10
14808.80217064596
 20
833.8747482146439
 30
0.0
 11
14808.80217064596
 21
813.8747482146435
 31
0.0
  0
LINE
  5
19ED4
330
19BD8
100
AcDbEntity
  8
YODOROGO
100
AcDbLine
 10
14942.80217064596
 20
833.8747482146439
 30
0.0
 11
14808.80217064596
 21
833.8747482146439
 31
0.0
  0
LINE
  5
19ED5
330
19BD8
100
AcDbEntity
  8
YODOROGO
100
AcDbLine
 10
14958.80217064596
 20
813.8747482146435
 30
0.0
 11
14888.80217064596
 21
813.8747482146435
 31
0.0
  0
LINE
  5
19ED6
330
19BD8
100
AcDbEntity
  8
YODOROGO
100
AcDbLine
 10
14888.80217064596
 20
781.0027187088283
 30
0.0
 11
14885.70493649264
 21
778.403830673117
 31
0.0
  0
LINE
  5
19ED7
330
19BD8
100
AcDbEntity
  8
YODOROGO
100
AcDbLine
 10
14888.80217064596
 20
813.8747482146435
 30
0.0
 11
14888.80217064596
 21
781.0027187088283
 31
0.0
  0
LINE
  5
19ED8
330
19BD8
100
AcDbEntity
  8
YODOROGO
100
AcDbLine
 10
14868.80217064596
 20
764.2207260852818
 30
0.0
 11
14868.80217064596
 21
713.8747482146436
 31
0.0
  0
LINE
  5
19ED9
330
19BD8
100
AcDbEntity
  8
YODOROGO
100
AcDbLine
 10
14808.80217064596
 20
713.8747482146436
 30
0.0
 11
14868.80217064596
 21
764.2207260852818
 31
0.0
  0
LINE
  5
19EDA
330
19BD8
100
AcDbEntity
  8
YODOROGO
100
AcDbLine
 10
14808.80217064596
 20
773.874748214644
 30
0.0
 11
14808.80217064596
 21
713.8747482146436
 31
0.0
  0
LINE
  5
19EDB
330
19BD8
100
AcDbEntity
  8
YODOROGO
100
AcDbLine
 10
14856.47231434973
 20
813.8747482146435
 30
0.0
 11
14808.80217064596
 21
773.874748214644
 31
0.0
  0
LINE
  5
19EDC
330
19BD8
100
AcDbEntity
  8
YODOROGO
100
AcDbLine
 10
14808.80217064596
 20
813.8747482146435
 30
0.0
 11
14856.47231434973
 21
813.8747482146435
 31
0.0
  0
LINE
  5
19EDD
330
19BD8
100
AcDbEntity
  8
YODOROGO
100
AcDbLine
 10
14808.80217064596
 20
833.8747482146439
 30
0.0
 11
14808.80217064596
 21
813.8747482146435
 31
0.0
  0
LINE
  5
19EDE
330
19BD8
100
AcDbEntity
  8
YODOROGO
100
AcDbLine
 10
14942.80217064596
 20
833.8747482146439
 30
0.0
 11
14808.80217064596
 21
833.8747482146439
 31
0.0
  0
LINE
  5
19EDF
330
19BD8
100
AcDbEntity
  8
YODOROGO
100
AcDbLine
 10
14396.80217064594
 20
873.8747482146449
 30
0.0
 11
14396.80217064594
 21
909.8747482146439
 31
0.0
  0
LINE
  5
19EE0
330
19BD8
100
AcDbEntity
  8
YODOROGO
100
AcDbLine
 10
14328.80217064594
 20
873.8747482146449
 30
0.0
 11
14396.80217064594
 21
873.8747482146449
 31
0.0
  0
LINE
  5
19EE1
330
19BD8
100
AcDbEntity
  8
YODOROGO
100
AcDbLine
 10
14364.80217064596
 20
933.8747482146439
 30
0.0
 11
14364.80217064596
 21
961.8747482146432
 31
0.0
  0
LINE
  5
19EE2
330
19BD8
100
AcDbEntity
  8
YODOROGO
100
AcDbLine
 10
14396.80217064594
 20
933.8747482146439
 30
0.0
 11
14364.80217064596
 21
933.8747482146439
 31
0.0
  0
LINE
  5
19EE3
330
19BD8
100
AcDbEntity
  8
YODOROGO
100
AcDbLine
 10
14396.80217064594
 20
973.8747482146434
 30
0.0
 11
14396.80217064594
 21
933.8747482146439
 31
0.0
  0
ARC
  5
19EE4
330
19BD8
100
AcDbEntity
  8
YODOROGO
100
AcDbCircle
 10
14376.80217064594
 20
973.8747482146434
 30
0.0
 40
20.0
100
AcDbArc
 50
0.0
 51
90.0
  0
LINE
  5
19EE5
330
19BD8
100
AcDbEntity
  8
YODOROGO
100
AcDbLine
 10
14328.80217064596
 20
993.8747482146439
 30
0.0
 11
14376.80217064594
 21
993.8747482146439
 31
0.0
  0
LINE
  5
19EE6
330
19BD8
100
AcDbEntity
  8
YODOROGO
100
AcDbLine
 10
14328.80217064596
 20
1013.874748214644
 30
0.0
 11
14328.80217064596
 21
993.8747482146439
 31
0.0
  0
LINE
  5
19EE7
330
19BD8
100
AcDbEntity
  8
YODOROGO
100
AcDbLine
 10
14536.80217064596
 20
1013.874748214644
 30
0.0
 11
14500.80217064594
 21
1013.874748214644
 31
0.0
  0
LINE
  5
19EE8
330
19BD8
100
AcDbEntity
  8
YODOROGO
100
AcDbLine
 10
14630.80217064596
 20
1003.874748214644
 30
0.0
 11
14598.80217064596
 21
1003.874748214644
 31
0.0
  0
LINE
  5
19EE9
330
19BD8
100
AcDbEntity
  8
YODOROGO
100
AcDbLine
 10
14728.80217064596
 20
1013.874748214644
 30
0.0
 11
14692.80217064596
 21
1013.874748214644
 31
0.0
  0
LINE
  5
19EEA
330
19BD8
100
AcDbEntity
  8
YODOROGO
100
AcDbLine
 10
14836.80217064596
 20
853.874748214644
 30
0.0
 11
14836.80217064596
 21
885.8747482146441
 31
0.0
1001
AUTOCAD_POSTSCRIPT_FIGURE
1002
{
1000
PSFILL
1000
Grayscale
1000
Grayscale
1070
    25
1002
}
  0
LINE
  5
19EEB
330
19BD8
100
AcDbEntity
  8
YODOROGO
100
AcDbLine
 10
14808.80217064596
 20
853.874748214644
 30
0.0
 11
14836.80217064596
 21
853.874748214644
 31
0.0
1001
AUTOCAD_POSTSCRIPT_FIGURE
1002
{
1000
PSFILL
1000
Grayscale
1000
Grayscale
1070
    25
1002
}
  0
LINE
  5
19EEC
330
19BD8
100
AcDbEntity
  8
YODOROGO
100
AcDbLine
 10
14808.80217064596
 20
909.8747482146439
 30
0.0
 11
14808.80217064596
 21
853.874748214644
 31
0.0
1001
AUTOCAD_POSTSCRIPT_FIGURE
1002
{
1000
PSFILL
1000
Grayscale
1000
Grayscale
1070
    25
1002
}
  0
LINE
  5
19EED
330
19BD8
100
AcDbEntity
  8
YODOROGO
100
AcDbLine
 10
14882.80217064596
 20
909.8747482146439
 30
0.0
 11
14808.80217064596
 21
909.8747482146439
 31
0.0
1001
AUTOCAD_POSTSCRIPT_FIGURE
1002
{
1000
PSFILL
1000
Grayscale
1000
Grayscale
1070
    25
1002
}
  0
LINE
  5
19EEE
330
19BD8
100
AcDbEntity
  8
YODOROGO
100
AcDbLine
 10
14882.80217064596
 20
929.874748214644
 30
0.0
 11
14882.80217064596
 21
909.8747482146439
 31
0.0
1001
AUTOCAD_POSTSCRIPT_FIGURE
1002
{
1000
PSFILL
1000
Grayscale
1000
Grayscale
1070
    25
1002
}
  0
LINE
  5
19EEF
330
19BD8
100
AcDbEntity
  8
YODOROGO
100
AcDbLine
 10
14808.80217064596
 20
929.874748214644
 30
0.0
 11
14882.80217064596
 21
929.874748214644
 31
0.0
1001
AUTOCAD_POSTSCRIPT_FIGURE
1002
{
1000
PSFILL
1000
Grayscale
1000
Grayscale
1070
    25
1002
}
  0
LINE
  5
19EF0
330
19BD8
100
AcDbEntity
  8
YODOROGO
100
AcDbLine
 10
14808.80217064596
 20
953.874748214644
 30
0.0
 11
14808.80217064596
 21
929.874748214644
 31
0.0
1001
AUTOCAD_POSTSCRIPT_FIGURE
1002
{
1000
PSFILL
1000
Grayscale
1000
Grayscale
1070
    25
1002
}
  0
LINE
  5
19EF1
330
19BD8
100
AcDbEntity
  8
YODOROGO
100
AcDbLine
 10
14882.80217064596
 20
953.874748214644
 30
0.0
 11
14808.80217064596
 21
953.874748214644
 31
0.0
1001
AUTOCAD_POSTSCRIPT_FIGURE
1002
{
1000
PSFILL
1000
Grayscale
1000
Grayscale
1070
    25
1002
}
  0
LINE
  5
19EF2
330
19BD8
100
AcDbEntity
  8
YODOROGO
100
AcDbLine
 10
14882.80217064596
 20
973.8747482146434
 30
0.0
 11
14882.80217064596
 21
953.874748214644
 31
0.0
1001
AUTOCAD_POSTSCRIPT_FIGURE
1002
{
1000
PSFILL
1000
Grayscale
1000
Grayscale
1070
    25
1002
}
  0
LINE
  5
19EF3
330
19BD8
100
AcDbEntity
  8
YODOROGO
100
AcDbLine
 10
14808.80217064596
 20
973.8747482146434
 30
0.0
 11
14882.80217064596
 21
973.8747482146434
 31
0.0
1001
AUTOCAD_POSTSCRIPT_FIGURE
1002
{
1000
PSFILL
1000
Grayscale
1000
Grayscale
1070
    25
1002
}
  0
LINE
  5
19EF4
330
19BD8
100
AcDbEntity
  8
YODOROGO
100
AcDbLine
 10
14808.80217064596
 20
1013.874748214644
 30
0.0
 11
14808.80217064596
 21
973.8747482146434
 31
0.0
1001
AUTOCAD_POSTSCRIPT_FIGURE
1002
{
1000
PSFILL
1000
Grayscale
1000
Grayscale
1070
    25
1002
}
  0
LINE
  5
19EF5
330
19BD8
100
AcDbEntity
  8
YODOROGO
100
AcDbLine
 10
14832.80217064596
 20
1013.874748214644
 30
0.0
 11
14808.80217064596
 21
1013.874748214644
 31
0.0
1001
AUTOCAD_POSTSCRIPT_FIGURE
1002
{
1000
PSFILL
1000
Grayscale
1000
Grayscale
1070
    25
1002
}
  0
LINE
  5
19EF6
330
19BD8
100
AcDbEntity
  8
YODOROGO
100
AcDbLine
 10
14832.80217064596
 20
997.8747482146435
 30
0.0
 11
14832.80217064596
 21
1013.874748214644
 31
0.0
1001
AUTOCAD_POSTSCRIPT_FIGURE
1002
{
1000
PSFILL
1000
Grayscale
1000
Grayscale
1070
    25
1002
}
  0
LINE
  5
19EF7
330
19BD8
100
AcDbEntity
  8
YODOROGO
100
AcDbLine
 10
14882.80217064596
 20
997.8747482146435
 30
0.0
 11
14832.80217064596
 21
997.8747482146435
 31
0.0
1001
AUTOCAD_POSTSCRIPT_FIGURE
1002
{
1000
PSFILL
1000
Grayscale
1000
Grayscale
1070
    25
1002
}
  0
LINE
  5
19EF8
330
19BD8
100
AcDbEntity
  8
YODOROGO
100
AcDbLine
 10
14882.80217064596
 20
1013.874748214644
 30
0.0
 11
14882.80217064596
 21
997.8747482146435
 31
0.0
1001
AUTOCAD_POSTSCRIPT_FIGURE
1002
{
1000
PSFILL
1000
Grayscale
1000
Grayscale
1070
    25
1002
}
  0
LINE
  5
19EF9
330
19BD8
100
AcDbEntity
  8
YODOROGO
100
AcDbLine
 10
14914.80217064596
 20
1013.874748214644
 30
0.0
 11
14882.80217064596
 21
1013.874748214644
 31
0.0
1001
AUTOCAD_POSTSCRIPT_FIGURE
1002
{
1000
PSFILL
1000
Grayscale
1000
Grayscale
1070
    25
1002
}
  0
LINE
  5
19EFA
330
19BD8
100
AcDbEntity
  8
YODOROGO
100
AcDbLine
 10
14914.80217064596
 20
997.8747482146435
 30
0.0
 11
14914.80217064596
 21
1013.874748214644
 31
0.0
1001
AUTOCAD_POSTSCRIPT_FIGURE
1002
{
1000
PSFILL
1000
Grayscale
1000
Grayscale
1070
    25
1002
}
  0
LINE
  5
19EFB
330
19BD8
100
AcDbEntity
  8
YODOROGO
100
AcDbLine
 10
14914.80217064596
 20
953.874748214644
 30
0.0
 11
14914.80217064596
 21
973.8747482146434
 31
0.0
1001
AUTOCAD_POSTSCRIPT_FIGURE
1002
{
1000
PSFILL
1000
Grayscale
1000
Grayscale
1070
    25
1002
}
  0
LINE
  5
19EFC
330
19BD8
100
AcDbEntity
  8
YODOROGO
100
AcDbLine
 10
14914.80217064596
 20
909.8747482146439
 30
0.0
 11
14914.80217064596
 21
929.874748214644
 31
0.0
1001
AUTOCAD_POSTSCRIPT_FIGURE
1002
{
1000
PSFILL
1000
Grayscale
1000
Grayscale
1070
    25
1002
}
  0
LINE
  5
19EFD
330
19BD8
100
AcDbEntity
  8
YODOROGO
100
AcDbLine
 10
14960.80217064594
 20
885.8747482146441
 30
0.0
 11
14960.80217064594
 21
853.874748214644
 31
0.0
1001
AUTOCAD_POSTSCRIPT_FIGURE
1002
{
1000
PSFILL
1000
Grayscale
1000
Grayscale
1070
    25
1002
}
  0
LINE
  5
19EFE
330
19BD8
100
AcDbEntity
  8
YODOROGO
100
AcDbLine
 10
14914.80217064596
 20
885.8747482146441
 30
0.0
 11
14960.80217064594
 21
885.8747482146441
 31
0.0
1001
AUTOCAD_POSTSCRIPT_FIGURE
1002
{
1000
PSFILL
1000
Grayscale
1000
Grayscale
1070
    25
1002
}
  0
LINE
  5
19EFF
330
19BD8
100
AcDbEntity
  8
YODOROGO
100
AcDbLine
 10
14914.80217064596
 20
853.874748214644
 30
0.0
 11
14914.80217064596
 21
885.8747482146441
 31
0.0
1001
AUTOCAD_POSTSCRIPT_FIGURE
1002
{
1000
PSFILL
1000
Grayscale
1000
Grayscale
1070
    25
1002
}
  0
LINE
  5
19F00
330
19BD8
100
AcDbEntity
  8
YODOROGO
100
AcDbLine
 10
14882.80217064596
 20
853.874748214644
 30
0.0
 11
14914.80217064596
 21
853.874748214644
 31
0.0
1001
AUTOCAD_POSTSCRIPT_FIGURE
1002
{
1000
PSFILL
1000
Grayscale
1000
Grayscale
1070
    25
1002
}
  0
LINE
  5
19F01
330
19BD8
100
AcDbEntity
  8
YODOROGO
100
AcDbLine
 10
14882.80217064596
 20
885.8747482146441
 30
0.0
 11
14882.80217064596
 21
853.874748214644
 31
0.0
1001
AUTOCAD_POSTSCRIPT_FIGURE
1002
{
1000
PSFILL
1000
Grayscale
1000
Grayscale
1070
    25
1002
}
  0
LINE
  5
19F02
330
19BD8
100
AcDbEntity
  8
YODOROGO
100
AcDbLine
 10
14836.80217064596
 20
885.8747482146441
 30
0.0
 11
14882.80217064596
 21
885.8747482146441
 31
0.0
1001
AUTOCAD_POSTSCRIPT_FIGURE
1002
{
1000
PSFILL
1000
Grayscale
1000
Grayscale
1070
    25
1002
}
  0
ARC
  5
19F03
330
19BD8
100
AcDbEntity
  8
YODOROGO
100
AcDbCircle
 10
15529.75894667896
 20
801.3403687577881
 30
0.0
 40
89.11064055536078
100
AcDbArc
 50
281.0262749542535
 51
357.771135755738
  0
LINE
  5
19F04
330
19BD8
100
AcDbEntity
  8
YODOROGO
100
AcDbLine
 10
15706.80217064596
 20
953.874748214644
 30
0.0
 11
15582.80217064596
 21
953.874748214644
 31
0.0
  0
LINE
  5
19F05
330
19BD8
100
AcDbEntity
  8
YODOROGO
100
AcDbLine
 10
15706.80217064596
 20
1013.874748214644
 30
0.0
 11
15582.80217064596
 21
1013.874748214644
 31
0.0
  0
LINE
  5
19F06
330
19BD8
100
AcDbEntity
  8
YODOROGO
100
AcDbLine
 10
15582.80217064596
 20
981.8747482146434
 30
0.0
 11
15706.80217064596
 21
981.8747482146434
 31
0.0
  0
LINE
  5
19F07
330
19BD8
100
AcDbEntity
  8
YODOROGO
100
AcDbLine
 10
15395.80217064596
 20
781.8747482146434
 30
0.0
 11
15395.80217064596
 21
877.8747482146435
 31
0.0
  0
LINE
  5
19F08
330
19BD8
100
AcDbEntity
  8
YODOROGO
100
AcDbLine
 10
15381.80217064596
 20
845.8747482146444
 30
0.0
 11
15381.80217064596
 21
781.8747482146434
 31
0.0
  0
LINE
  5
19F09
330
19BD8
100
AcDbEntity
  8
YODOROGO
100
AcDbLine
 10
15361.80217064596
 20
745.8747482146443
 30
0.0
 11
15361.80217064596
 21
845.8747482146444
 31
0.0
  0
LINE
  5
19F0A
330
19BD8
100
AcDbEntity
  8
YODOROGO
100
AcDbLine
 10
15449.80217064596
 20
845.8747482146444
 30
0.0
 11
15449.80217064596
 21
745.8747482146443
 31
0.0
  0
LINE
  5
19F0B
330
19BD8
100
AcDbEntity
  8
YODOROGO
100
AcDbLine
 10
15429.80217064596
 20
781.8747482146434
 30
0.0
 11
15429.80217064596
 21
845.8747482146444
 31
0.0
  0
LINE
  5
19F0C
330
19BD8
100
AcDbEntity
  8
YODOROGO
100
AcDbLine
 10
15415.80217064596
 20
877.8747482146435
 30
0.0
 11
15415.80217064596
 21
781.8747482146434
 31
0.0
  0
LINE
  5
19F0D
330
19BD8
100
AcDbEntity
  8
YODOROGO
100
AcDbLine
 10
15486.80217064596
 20
1013.874748214644
 30
0.0
 11
15486.80217064596
 21
733.8747482146435
 31
0.0
  0
LINE
  5
19F0E
330
19BD8
100
AcDbEntity
  8
YODOROGO
100
AcDbLine
 10
15322.80217064596
 20
713.8747482146436
 30
0.0
 11
15322.80217064596
 21
1013.874748214644
 31
0.0
  0
LINE
  5
19F0F
330
19BD8
100
AcDbEntity
  8
YODOROGO
100
AcDbLine
 10
15348.80217064596
 20
981.8747482146434
 30
0.0
 11
15348.80217064596
 21
713.8747482146436
 31
0.0
  0
LINE
  5
19F10
330
19BD8
100
AcDbEntity
  8
YODOROGO
100
AcDbLine
 10
15462.80217064596
 20
773.874748214644
 30
0.0
 11
15462.80217064596
 21
981.8747482146434
 31
0.0
  0
LINE
  5
19F11
330
19BD8
100
AcDbEntity
  8
YODOROGO
100
AcDbLine
 10
15190.80217064596
 20
813.8747482146435
 30
0.0
 11
15190.80217064596
 21
839.8747482146442
 31
0.0
  0
LINE
  5
19F12
330
19BD8
100
AcDbEntity
  8
YODOROGO
100
AcDbLine
 10
15308.80217064596
 20
839.8747482146442
 30
0.0
 11
15308.80217064596
 21
813.8747482146435
 31
0.0
  0
LINE
  5
19F13
330
19BD8
100
AcDbEntity
  8
YODOROGO
100
AcDbLine
 10
15582.80217064596
 20
953.874748214644
 30
0.0
 11
15582.80217064596
 21
817.8747482146436
 31
0.0
  0
LINE
  5
19F14
330
19BD8
100
AcDbEntity
  8
YODOROGO
100
AcDbLine
 10
14974.80217064595
 20
833.8747482146439
 30
0.0
 11
14974.80217064595
 21
853.874748214644
 31
0.0
  0
LINE
  5
19F15
330
19BD8
100
AcDbEntity
  8
YODOROGO
100
AcDbLine
 10
14974.80217064595
 20
833.8747482146439
 30
0.0
 11
14974.80217064595
 21
853.874748214644
 31
0.0
  0
ARC
  5
19F16
330
19BD8
100
AcDbEntity
  8
YODOROGO
100
AcDbCircle
 10
15268.80217064596
 20
753.8747482146439
 30
0.0
 40
40.0
100
AcDbArc
 50
270.0
 51
0.0
  0
LINE
  5
19F17
330
19BD8
100
AcDbEntity
  8
YODOROGO
100
AcDbLine
 10
15284.80217064596
 20
799.8747482146441
 30
0.0
 11
15308.80217064596
 21
799.8747482146441
 31
0.0
  0
LINE
  5
19F18
330
19BD8
100
AcDbEntity
  8
YODOROGO
100
AcDbLine
 10
15308.80217064596
 20
813.8747482146435
 30
0.0
 11
15264.80217064596
 21
813.8747482146435
 31
0.0
  0
LINE
  5
19F19
330
19BD8
100
AcDbEntity
  8
YODOROGO
100
AcDbLine
 10
15108.80217064596
 20
833.8747482146439
 30
0.0
 11
14974.80217064595
 21
833.8747482146439
 31
0.0
  0
LINE
  5
19F1A
330
19BD8
100
AcDbEntity
  8
YODOROGO
100
AcDbLine
 10
15108.80217064596
 20
813.8747482146435
 30
0.0
 11
15108.80217064596
 21
833.8747482146439
 31
0.0
  0
LINE
  5
19F1B
330
19BD8
100
AcDbEntity
  8
YODOROGO
100
AcDbLine
 10
15008.80217064596
 20
813.8747482146435
 30
0.0
 11
15108.80217064596
 21
813.8747482146435
 31
0.0
  0
ARC
  5
19F1C
330
19BD8
100
AcDbEntity
  8
YODOROGO
100
AcDbCircle
 10
15115.02941435068
 20
934.4428574764513
 30
0.0
 40
160.6888181426141
100
AcDbArc
 50
228.6181454618993
 51
245.660289248906
  0
LINE
  5
19F1D
330
19BD8
100
AcDbEntity
  8
YODOROGO
100
AcDbLine
 10
15052.80217064596
 20
801.8747482146444
 30
0.0
 11
15048.80217064598
 21
788.0364079349501
 31
0.0
  0
LINE
  5
19F1E
330
19BD8
100
AcDbEntity
  8
YODOROGO
100
AcDbLine
 10
15094.80217064596
 20
801.8747482146444
 30
0.0
 11
15052.80217064596
 21
801.8747482146444
 31
0.0
  0
LINE
  5
19F1F
330
19BD8
100
AcDbEntity
  8
YODOROGO
100
AcDbLine
 10
15088.80217064596
 20
775.9088612367134
 30
0.0
 11
15094.80217064596
 21
801.8747482146444
 31
0.0
  0
ARC
  5
19F20
330
19BD8
100
AcDbEntity
  8
YODOROGO
100
AcDbCircle
 10
15115.02941435023
 20
934.4428574765014
 30
0.0
 40
160.6888181426453
100
AcDbArc
 50
260.6062929796992
 51
267.7790355655586
  0
LINE
  5
19F21
330
19BD8
100
AcDbEntity
  8
YODOROGO
100
AcDbLine
 10
15108.80217064596
 20
713.8747482146428
 30
0.0
 11
15108.80217064596
 21
773.874748214644
 31
0.0
  0
LINE
  5
19F22
330
19BD8
100
AcDbEntity
  8
YODOROGO
100
AcDbLine
 10
14968.80217064596
 20
740.6696674577553
 30
0.0
 11
14968.80217064596
 21
797.2655452655705
 31
0.0
  0
LINE
  5
19F23
330
19BD8
100
AcDbEntity
  8
YODOROGO
100
AcDbLine
 10
15108.80217064596
 20
833.8747482146439
 30
0.0
 11
14974.80217064595
 21
833.8747482146439
 31
0.0
  0
LINE
  5
19F24
330
19BD8
100
AcDbEntity
  8
YODOROGO
100
AcDbLine
 10
15108.80217064596
 20
813.8747482146435
 30
0.0
 11
15108.80217064596
 21
833.8747482146439
 31
0.0
  0
LINE
  5
19F25
330
19BD8
100
AcDbEntity
  8
YODOROGO
100
AcDbLine
 10
15008.80217064596
 20
813.8747482146435
 30
0.0
 11
15108.80217064596
 21
813.8747482146435
 31
0.0
  0
ARC
  5
19F26
330
19BD8
100
AcDbEntity
  8
YODOROGO
100
AcDbCircle
 10
15115.02941435068
 20
934.4428574764513
 30
0.0
 40
160.6888181426141
100
AcDbArc
 50
228.6181454618993
 51
245.660289248906
  0
LINE
  5
19F27
330
19BD8
100
AcDbEntity
  8
YODOROGO
100
AcDbLine
 10
15052.80217064596
 20
801.8747482146444
 30
0.0
 11
15048.80217064598
 21
788.0364079349501
 31
0.0
  0
LINE
  5
19F28
330
19BD8
100
AcDbEntity
  8
YODOROGO
100
AcDbLine
 10
15094.80217064596
 20
801.8747482146444
 30
0.0
 11
15052.80217064596
 21
801.8747482146444
 31
0.0
  0
LINE
  5
19F29
330
19BD8
100
AcDbEntity
  8
YODOROGO
100
AcDbLine
 10
15088.80217064596
 20
775.9088612367134
 30
0.0
 11
15094.80217064596
 21
801.8747482146444
 31
0.0
  0
ARC
  5
19F2A
330
19BD8
100
AcDbEntity
  8
YODOROGO
100
AcDbCircle
 10
15115.02941435023
 20
934.4428574765014
 30
0.0
 40
160.6888181426453
100
AcDbArc
 50
260.6062929796992
 51
267.7790355655586
  0
LINE
  5
19F2B
330
19BD8
100
AcDbEntity
  8
YODOROGO
100
AcDbLine
 10
15108.80217064596
 20
713.8747482146428
 30
0.0
 11
15108.80217064596
 21
773.874748214644
 31
0.0
  0
LINE
  5
19F2C
330
19BD8
100
AcDbEntity
  8
YODOROGO
100
AcDbLine
 10
14968.80217064596
 20
740.6696674577553
 30
0.0
 11
14968.80217064596
 21
797.2655452655705
 31
0.0
  0
LINE
  5
19F2D
330
19BD8
100
AcDbEntity
  8
YODOROGO
100
AcDbLine
 10
15216.80217064596
 20
786.8747482146444
 30
0.0
 11
15190.80217064596
 21
786.8747482146444
 31
0.0
  0
LINE
  5
19F2E
330
19BD8
100
AcDbEntity
  8
YODOROGO
100
AcDbLine
 10
15216.80217064596
 20
800.8747482146432
 30
0.0
 11
15216.80217064596
 21
786.8747482146444
 31
0.0
  0
LINE
  5
19F2F
330
19BD8
100
AcDbEntity
  8
YODOROGO
100
AcDbLine
 10
15190.80217064596
 20
800.8747482146432
 30
0.0
 11
15216.80217064596
 21
800.8747482146432
 31
0.0
  0
LINE
  5
19F30
330
19BD8
100
AcDbEntity
  8
YODOROGO
100
AcDbLine
 10
15190.80217064596
 20
786.8747482146444
 30
0.0
 11
15190.80217064596
 21
800.8747482146432
 31
0.0
  0
LINE
  5
19F31
330
19BD8
100
AcDbEntity
  8
YODOROGO
100
AcDbLine
 10
15214.80217064596
 20
788.8747482146436
 30
0.0
 11
15192.80217064595
 21
788.8747482146436
 31
0.0
  0
LINE
  5
19F32
330
19BD8
100
AcDbEntity
  8
YODOROGO
100
AcDbLine
 10
15214.80217064596
 20
798.874748214644
 30
0.0
 11
15214.80217064596
 21
788.8747482146436
 31
0.0
  0
LINE
  5
19F33
330
19BD8
100
AcDbEntity
  8
YODOROGO
100
AcDbLine
 10
15192.80217064595
 20
798.874748214644
 30
0.0
 11
15214.80217064596
 21
798.874748214644
 31
0.0
  0
LINE
  5
19F34
330
19BD8
100
AcDbEntity
  8
YODOROGO
100
AcDbLine
 10
15192.80217064595
 20
788.8747482146436
 30
0.0
 11
15192.80217064595
 21
798.874748214644
 31
0.0
  0
LINE
  5
19F35
330
19BD8
100
AcDbEntity
  8
YODOROGO
100
AcDbLine
 10
15212.80217064596
 20
790.8747482146432
 30
0.0
 11
15194.80217064596
 21
790.8747482146432
 31
0.0
  0
LINE
  5
19F36
330
19BD8
100
AcDbEntity
  8
YODOROGO
100
AcDbLine
 10
15212.80217064596
 20
796.8747482146445
 30
0.0
 11
15212.80217064596
 21
790.8747482146432
 31
0.0
  0
LINE
  5
19F37
330
19BD8
100
AcDbEntity
  8
YODOROGO
100
AcDbLine
 10
15194.80217064596
 20
796.8747482146445
 30
0.0
 11
15212.80217064596
 21
796.8747482146445
 31
0.0
  0
LINE
  5
19F38
330
19BD8
100
AcDbEntity
  8
YODOROGO
100
AcDbLine
 10
15194.80217064596
 20
790.8747482146432
 30
0.0
 11
15194.80217064596
 21
796.8747482146445
 31
0.0
  0
LINE
  5
19F39
330
19BD8
100
AcDbEntity
  8
YODOROGO
100
AcDbLine
 10
15210.80217064596
 20
792.8747482146435
 30
0.0
 11
15196.80217064596
 21
792.8747482146435
 31
0.0
  0
LINE
  5
19F3A
330
19BD8
100
AcDbEntity
  8
YODOROGO
100
AcDbLine
 10
15210.80217064596
 20
794.8747482146441
 30
0.0
 11
15210.80217064596
 21
792.8747482146435
 31
0.0
  0
LINE
  5
19F3B
330
19BD8
100
AcDbEntity
  8
YODOROGO
100
AcDbLine
 10
15196.80217064596
 20
794.8747482146441
 30
0.0
 11
15210.80217064596
 21
794.8747482146441
 31
0.0
  0
LINE
  5
19F3C
330
19BD8
100
AcDbEntity
  8
YODOROGO
100
AcDbLine
 10
15196.80217064596
 20
792.8747482146435
 30
0.0
 11
15196.80217064596
 21
794.8747482146441
 31
0.0
  0
LINE
  5
19F3D
330
19BD8
100
AcDbEntity
  8
YODOROGO
100
AcDbLine
 10
15232.80217064596
 20
813.8747482146435
 30
0.0
 11
15190.80217064596
 21
813.8747482146435
 31
0.0
  0
LINE
  5
19F3E
330
19BD8
100
AcDbEntity
  8
YODOROGO
100
AcDbLine
 10
15232.80217064596
 20
773.874748214644
 30
0.0
 11
15232.80217064596
 21
813.8747482146435
 31
0.0
  0
LINE
  5
19F3F
330
19BD8
100
AcDbEntity
  8
YODOROGO
100
AcDbLine
 10
15190.80217064596
 20
773.874748214644
 30
0.0
 11
15232.80217064596
 21
773.874748214644
 31
0.0
  0
LINE
  5
19F40
330
19BD8
100
AcDbEntity
  8
YODOROGO
100
AcDbLine
 10
15190.80217064596
 20
713.8747482146436
 30
0.0
 11
15190.80217064596
 21
773.874748214644
 31
0.0
  0
LINE
  5
19F41
330
19BD8
100
AcDbEntity
  8
YODOROGO
100
AcDbLine
 10
15268.80217064596
 20
713.8747482146436
 30
0.0
 11
15190.80217064596
 21
713.8747482146436
 31
0.0
  0
LINE
  5
19F42
330
19BD8
100
AcDbEntity
  8
YODOROGO
100
AcDbLine
 10
15284.80217064596
 20
785.8747482146432
 30
0.0
 11
15284.80217064596
 21
799.8747482146441
 31
0.0
  0
ARC
  5
19F43
330
19BD8
100
AcDbEntity
  8
YODOROGO
100
AcDbCircle
 10
15272.80217064594
 20
785.8747482146457
 30
0.0
 40
12.00000000000187
100
AcDbArc
 50
270.0
 51
359.9999999999877
  0
LINE
  5
19F44
330
19BD8
100
AcDbEntity
  8
YODOROGO
100
AcDbLine
 10
15264.80217064596
 20
773.874748214644
 30
0.0
 11
15272.80217064594
 21
773.874748214644
 31
0.0
  0
LINE
  5
19F45
330
19BD8
100
AcDbEntity
  8
YODOROGO
100
AcDbLine
 10
15264.80217064596
 20
813.8747482146435
 30
0.0
 11
15264.80217064596
 21
773.874748214644
 31
0.0
  0
LINE
  5
19F46
330
19BD8
100
AcDbEntity
  8
YODOROGO
100
AcDbLine
 10
15449.80217064596
 20
773.874748214644
 30
0.0
 11
15462.80217064596
 21
773.874748214644
 31
0.0
  0
LINE
  5
19F47
330
19BD8
100
AcDbEntity
  8
YODOROGO
100
AcDbLine
 10
15466.80217064596
 20
713.8747482146436
 30
0.0
 11
15449.80217064596
 21
713.8747482146436
 31
0.0
  0
LINE
  5
19F48
330
19BD8
100
AcDbEntity
  8
YODOROGO
100
AcDbLine
 10
15381.80217064596
 20
781.8747482146434
 30
0.0
 11
15395.80217064596
 21
781.8747482146434
 31
0.0
  0
LINE
  5
19F49
330
19BD8
100
AcDbEntity
  8
YODOROGO
100
AcDbLine
 10
15449.80217064596
 20
745.8747482146443
 30
0.0
 11
15361.80217064596
 21
745.8747482146443
 31
0.0
  0
LINE
  5
19F4A
330
19BD8
100
AcDbEntity
  8
YODOROGO
100
AcDbLine
 10
15415.80217064596
 20
781.8747482146434
 30
0.0
 11
15429.80217064596
 21
781.8747482146434
 31
0.0
  0
LINE
  5
19F4B
330
19BD8
100
AcDbEntity
  8
YODOROGO
100
AcDbLine
 10
15449.80217064596
 20
713.8747482146436
 30
0.0
 11
15449.80217064596
 21
773.874748214644
 31
0.0
  0
LINE
  5
19F4C
330
19BD8
100
AcDbEntity
  8
YODOROGO
100
AcDbLine
 10
15348.80217064596
 20
713.8747482146436
 30
0.0
 11
15322.80217064596
 21
713.8747482146436
 31
0.0
  0
LINE
  5
19F4D
330
19BD8
100
AcDbEntity
  8
YODOROGO
100
AcDbLine
 10
15308.80217064596
 20
799.8747482146441
 30
0.0
 11
15308.80217064596
 21
753.8747482146439
 31
0.0
  0
ARC
  5
19F4E
330
19BD8
100
AcDbEntity
  8
YODOROGO
100
AcDbCircle
 10
15466.80217064596
 20
733.8747482146435
 30
0.0
 40
20.0
100
AcDbArc
 50
270.0
 51
0.0
  0
LINE
  5
19F4F
330
19BD8
100
AcDbEntity
  8
YODOROGO
100
AcDbLine
 10
15546.80217064596
 20
761.8747482146434
 30
0.0
 11
15546.80217064596
 21
713.8747482146436
 31
0.0
  0
ARC
  5
19F50
330
19BD8
100
AcDbEntity
  8
YODOROGO
100
AcDbCircle
 10
15519.86069778339
 20
818.7656950548664
 30
0.0
 40
62.94777829583771
100
AcDbArc
 50
295.3405244216011
 51
359.1890230341867
  0
LINE
  5
19F51
330
19BD8
100
AcDbEntity
  8
YODOROGO
100
AcDbLine
 10
15308.80217064596
 20
929.874748214644
 30
0.0
 11
15248.80217064596
 21
969.8747482146441
 31
0.0
  0
LINE
  5
19F52
330
19BD8
100
AcDbEntity
  8
YODOROGO
100
AcDbLine
 10
15248.80217064596
 20
1013.874748214644
 30
0.0
 11
15308.80217064596
 21
973.8747482146434
 31
0.0
  0
LINE
  5
19F53
330
19BD8
100
AcDbEntity
  8
YODOROGO
100
AcDbLine
 10
15264.80217064596
 20
839.8747482146442
 30
0.0
 11
15308.80217064596
 21
839.8747482146442
 31
0.0
  0
LINE
  5
19F54
330
19BD8
100
AcDbEntity
  8
YODOROGO
100
AcDbLine
 10
15308.80217064596
 20
867.8747482146436
 30
0.0
 11
15264.80217064596
 21
867.8747482146436
 31
0.0
  0
LINE
  5
19F55
330
19BD8
100
AcDbEntity
  8
YODOROGO
100
AcDbLine
 10
15190.80217064596
 20
897.8747482146435
 30
0.0
 11
15308.80217064596
 21
897.8747482146435
 31
0.0
  0
LINE
  5
19F56
330
19BD8
100
AcDbEntity
  8
YODOROGO
100
AcDbLine
 10
15040.80217064596
 20
1013.874748214644
 30
0.0
 11
15010.80217064596
 21
1013.874748214644
 31
0.0
  0
LINE
  5
19F57
330
19BD8
100
AcDbEntity
  8
YODOROGO
100
AcDbLine
 10
15040.80217064596
 20
913.8747482146435
 30
0.0
 11
15040.80217064596
 21
1013.874748214644
 31
0.0
  0
LINE
  5
19F58
330
19BD8
100
AcDbEntity
  8
YODOROGO
100
AcDbLine
 10
15010.80217064596
 20
913.8747482146435
 30
0.0
 11
15040.80217064596
 21
913.8747482146435
 31
0.0
  0
LINE
  5
19F59
330
19BD8
100
AcDbEntity
  8
YODOROGO
100
AcDbLine
 10
15010.80217064596
 20
1013.874748214644
 30
0.0
 11
15010.80217064596
 21
913.8747482146435
 31
0.0
  0
LINE
  5
19F5A
330
19BD8
100
AcDbEntity
  8
YODOROGO
100
AcDbLine
 10
15080.80217064596
 20
1013.874748214644
 30
0.0
 11
15108.80217064596
 21
1013.874748214644
 31
0.0
  0
LINE
  5
19F5B
330
19BD8
100
AcDbEntity
  8
YODOROGO
100
AcDbLine
 10
15080.80217064596
 20
905.8747482146443
 30
0.0
 11
15080.80217064596
 21
1013.874748214644
 31
0.0
  0
ARC
  5
19F5C
330
19BD8
100
AcDbEntity
  8
YODOROGO
100
AcDbCircle
 10
15060.80217064596
 20
905.8747482146443
 30
0.0
 40
20.0
100
AcDbArc
 50
270.0
 51
0.0
  0
LINE
  5
19F5D
330
19BD8
100
AcDbEntity
  8
YODOROGO
100
AcDbLine
 10
15010.80217064596
 20
885.8747482146441
 30
0.0
 11
15060.80217064596
 21
885.8747482146441
 31
0.0
  0
LINE
  5
19F5E
330
19BD8
100
AcDbEntity
  8
YODOROGO
100
AcDbLine
 10
15010.80217064596
 20
853.874748214644
 30
0.0
 11
15010.80217064596
 21
885.8747482146441
 31
0.0
  0
LINE
  5
19F5F
330
19BD8
100
AcDbEntity
  8
YODOROGO
100
AcDbLine
 10
15068.80217064596
 20
853.874748214644
 30
0.0
 11
15010.80217064596
 21
853.874748214644
 31
0.0
  0
ARC
  5
19F60
330
19BD8
100
AcDbEntity
  8
YODOROGO
100
AcDbCircle
 10
15068.80217064596
 20
893.8747482146439
 30
0.0
 40
40.0
100
AcDbArc
 50
270.0
 51
0.0
  0
LINE
  5
19F61
330
19BD8
100
AcDbEntity
  8
YODOROGO
100
AcDbLine
 10
15108.80217064596
 20
1013.874748214644
 30
0.0
 11
15108.80217064596
 21
893.8747482146439
 31
0.0
  0
LINE
  5
19F62
330
19BD8
100
AcDbEntity
  8
YODOROGO
100
AcDbLine
 10
14988.80217064596
 20
973.8747482146434
 30
0.0
 11
14988.80217064596
 21
997.8747482146435
 31
0.0
1001
AUTOCAD_POSTSCRIPT_FIGURE
1002
{
1000
PSFILL
1000
Grayscale
1000
Grayscale
1070
    25
1002
}
  0
LINE
  5
19F63
330
19BD8
100
AcDbEntity
  8
YODOROGO
100
AcDbLine
 10
14988.80217064596
 20
929.874748214644
 30
0.0
 11
14988.80217064596
 21
953.874748214644
 31
0.0
1001
AUTOCAD_POSTSCRIPT_FIGURE
1002
{
1000
PSFILL
1000
Grayscale
1000
Grayscale
1070
    25
1002
}
  0
LINE
  5
19F64
330
19BD8
100
AcDbEntity
  8
YODOROGO
100
AcDbLine
 10
14988.80217064596
 20
853.874748214644
 30
0.0
 11
14988.80217064596
 21
909.8747482146439
 31
0.0
1001
AUTOCAD_POSTSCRIPT_FIGURE
1002
{
1000
PSFILL
1000
Grayscale
1000
Grayscale
1070
    25
1002
}
  0
LINE
  5
19F65
330
19BD8
100
AcDbEntity
  8
YODOROGO
100
AcDbLine
 10
15190.80217064596
 20
953.874748214644
 30
0.0
 11
15248.80217064596
 21
1013.874748214644
 31
0.0
  0
LINE
  5
19F66
330
19BD8
100
AcDbEntity
  8
YODOROGO
100
AcDbLine
 10
15190.80217064596
 20
909.8747482146439
 30
0.0
 11
15190.80217064596
 21
953.874748214644
 31
0.0
  0
LINE
  5
19F67
330
19BD8
100
AcDbEntity
  8
YODOROGO
100
AcDbLine
 10
15248.80217064596
 20
969.8747482146441
 30
0.0
 11
15190.80217064596
 21
909.8747482146439
 31
0.0
  0
LINE
  5
19F68
330
19BD8
100
AcDbEntity
  8
YODOROGO
100
AcDbLine
 10
15232.80217064596
 20
839.8747482146442
 30
0.0
 11
15232.80217064596
 21
867.8747482146436
 31
0.0
  0
LINE
  5
19F69
330
19BD8
100
AcDbEntity
  8
YODOROGO
100
AcDbLine
 10
15190.80217064596
 20
839.8747482146442
 30
0.0
 11
15232.80217064596
 21
839.8747482146442
 31
0.0
  0
LINE
  5
19F6A
330
19BD8
100
AcDbEntity
  8
YODOROGO
100
AcDbLine
 10
15264.80217064596
 20
867.8747482146436
 30
0.0
 11
15264.80217064596
 21
839.8747482146442
 31
0.0
  0
LINE
  5
19F6B
330
19BD8
100
AcDbEntity
  8
YODOROGO
100
AcDbLine
 10
15190.80217064596
 20
867.8747482146436
 30
0.0
 11
15190.80217064596
 21
897.8747482146435
 31
0.0
  0
LINE
  5
19F6C
330
19BD8
100
AcDbEntity
  8
YODOROGO
100
AcDbLine
 10
15232.80217064596
 20
867.8747482146436
 30
0.0
 11
15190.80217064596
 21
867.8747482146436
 31
0.0
  0
LINE
  5
19F6D
330
19BD8
100
AcDbEntity
  8
YODOROGO
100
AcDbLine
 10
15322.80217064596
 20
1013.874748214644
 30
0.0
 11
15486.80217064596
 21
1013.874748214644
 31
0.0
  0
LINE
  5
19F6E
330
19BD8
100
AcDbEntity
  8
YODOROGO
100
AcDbLine
 10
15462.80217064596
 20
981.8747482146434
 30
0.0
 11
15348.80217064596
 21
981.8747482146434
 31
0.0
  0
LINE
  5
19F6F
330
19BD8
100
AcDbEntity
  8
YODOROGO
100
AcDbLine
 10
15436.80217064595
 20
909.8747482146439
 30
0.0
 11
15449.80217064596
 21
909.8747482146439
 31
0.0
  0
LINE
  5
19F70
330
19BD8
100
AcDbEntity
  8
YODOROGO
100
AcDbLine
 10
15449.80217064596
 20
969.8747482146441
 30
0.0
 11
15436.80217064595
 21
909.8747482146439
 31
0.0
  0
LINE
  5
19F71
330
19BD8
100
AcDbEntity
  8
YODOROGO
100
AcDbLine
 10
15425.80217064596
 20
969.8747482146441
 30
0.0
 11
15449.80217064596
 21
969.8747482146441
 31
0.0
  0
LINE
  5
19F72
330
19BD8
100
AcDbEntity
  8
YODOROGO
100
AcDbLine
 10
15412.80217064596
 20
909.8747482146439
 30
0.0
 11
15425.80217064596
 21
969.8747482146441
 31
0.0
  0
LINE
  5
19F73
330
19BD8
100
AcDbEntity
  8
YODOROGO
100
AcDbLine
 10
15398.80217064596
 20
909.8747482146439
 30
0.0
 11
15412.80217064596
 21
909.8747482146439
 31
0.0
  0
LINE
  5
19F74
330
19BD8
100
AcDbEntity
  8
YODOROGO
100
AcDbLine
 10
15385.80217064596
 20
969.8747482146441
 30
0.0
 11
15398.80217064596
 21
909.8747482146439
 31
0.0
  0
LINE
  5
19F75
330
19BD8
100
AcDbEntity
  8
YODOROGO
100
AcDbLine
 10
15361.80217064596
 20
969.8747482146441
 30
0.0
 11
15385.80217064596
 21
969.8747482146441
 31
0.0
  0
LINE
  5
19F76
330
19BD8
100
AcDbEntity
  8
YODOROGO
100
AcDbLine
 10
15374.80217064596
 20
909.8747482146439
 30
0.0
 11
15361.80217064596
 21
969.8747482146441
 31
0.0
  0
LINE
  5
19F77
330
19BD8
100
AcDbEntity
  8
YODOROGO
100
AcDbLine
 10
15361.80217064596
 20
909.8747482146439
 30
0.0
 11
15374.80217064596
 21
909.8747482146439
 31
0.0
  0
LINE
  5
19F78
330
19BD8
100
AcDbEntity
  8
YODOROGO
100
AcDbLine
 10
15361.80217064596
 20
877.8747482146435
 30
0.0
 11
15361.80217064596
 21
909.8747482146439
 31
0.0
  0
LINE
  5
19F79
330
19BD8
100
AcDbEntity
  8
YODOROGO
100
AcDbLine
 10
15449.80217064596
 20
877.8747482146435
 30
0.0
 11
15361.80217064596
 21
877.8747482146435
 31
0.0
  0
LINE
  5
19F7A
330
19BD8
100
AcDbEntity
  8
YODOROGO
100
AcDbLine
 10
15449.80217064596
 20
909.8747482146439
 30
0.0
 11
15449.80217064596
 21
877.8747482146435
 31
0.0
  0
LINE
  5
19F7B
330
19BD8
100
AcDbEntity
  8
YODOROGO
100
AcDbLine
 10
15308.80217064596
 20
973.8747482146434
 30
0.0
 11
15308.80217064596
 21
929.874748214644
 31
0.0
  0
LINE
  5
19F7C
330
19BD8
100
AcDbEntity
  8
YODOROGO
100
AcDbLine
 10
15395.80217064596
 20
877.8747482146435
 30
0.0
 11
15415.80217064596
 21
877.8747482146435
 31
0.0
  0
LINE
  5
19F7D
330
19BD8
100
AcDbEntity
  8
YODOROGO
100
AcDbLine
 10
15361.80217064596
 20
845.8747482146444
 30
0.0
 11
15381.80217064596
 21
845.8747482146444
 31
0.0
  0
LINE
  5
19F7E
330
19BD8
100
AcDbEntity
  8
YODOROGO
100
AcDbLine
 10
15429.80217064596
 20
845.8747482146444
 30
0.0
 11
15449.80217064596
 21
845.8747482146444
 31
0.0
  0
LINE
  5
19F7F
330
19BD8
100
AcDbEntity
  8
YODOROGO
100
AcDbLine
 10
15308.80217064596
 20
897.8747482146435
 30
0.0
 11
15308.80217064596
 21
867.8747482146436
 31
0.0
  0
LINE
  5
19F80
330
19BD8
100
AcDbEntity
  8
YODOROGO
100
AcDbLine
 10
15582.80217064596
 20
1013.874748214644
 30
0.0
 11
15582.80217064596
 21
981.8747482146434
 31
0.0
  0
LINE
  5
19F81
330
19BD8
100
AcDbEntity
  8
YODOROGO
100
AcDbLine
 10
15766.80217064596
 20
797.8747482146435
 30
0.0
 11
15766.80217064594
 21
905.8747482146443
 31
0.0
  0
LINE
  5
19F82
330
19BD8
100
AcDbEntity
  8
YODOROGO
100
AcDbLine
 10
15730.80217064594
 20
993.8747482146439
 30
0.0
 11
15730.80217064594
 21
817.8747482146436
 31
0.0
  0
LINE
  5
19F83
330
19BD8
100
AcDbEntity
  8
YODOROGO
100
AcDbLine
 10
15826.80217064596
 20
713.8747482146436
 30
0.0
 11
15826.80217064594
 21
905.8747482146443
 31
0.0
  0
LINE
  5
19F84
330
19BD8
100
AcDbEntity
  8
YODOROGO
100
AcDbLine
 10
15794.80217064596
 20
905.8747482146443
 30
0.0
 11
15794.80217064596
 21
713.8747482146436
 31
0.0
  0
LINE
  5
19F85
330
19BD8
100
AcDbEntity
  8
YODOROGO
100
AcDbLine
 10
15618.80217064596
 20
797.8747482146435
 30
0.0
 11
15618.80217064596
 21
853.874748214644
 31
0.0
  0
ARC
  5
19F86
330
19BD8
100
AcDbEntity
  8
YODOROGO
100
AcDbCircle
 10
15676.95743255803
 20
803.8951756442788
 30
0.0
 40
90.04622428799429
100
AcDbArc
 50
268.6284910216979
 51
356.1663845733032
  0
LINE
  5
19F87
330
19BD8
100
AcDbEntity
  8
YODOROGO
100
AcDbLine
 10
15674.80217064596
 20
763.8747482146435
 30
0.0
 11
15674.80217064596
 21
713.8747482146436
 31
0.0
  0
ARC
  5
19F88
330
19BD8
100
AcDbEntity
  8
YODOROGO
100
AcDbCircle
 10
15675.75903786228
 20
818.9194785088275
 30
0.0
 40
55.05304649180608
100
AcDbArc
 50
269.0041020930593
 51
358.9126445549248
  0
LINE
  5
19F89
330
19BD8
100
AcDbEntity
  8
YODOROGO
100
AcDbLine
 10
15794.80217064596
 20
713.8747482146436
 30
0.0
 11
15826.80217064596
 21
713.8747482146436
 31
0.0
  0
LINE
  5
19F8A
330
19BD8
100
AcDbEntity
  8
YODOROGO
100
AcDbLine
 10
15766.80217064594
 20
905.8747482146443
 30
0.0
 11
15794.80217064596
 21
905.8747482146443
 31
0.0
  0
LINE
  5
19F8B
330
19BD8
100
AcDbEntity
  8
YODOROGO
100
AcDbLine
 10
15810.80217064596
 20
993.8747482146439
 30
0.0
 11
15730.80217064594
 21
993.8747482146439
 31
0.0
  0
LINE
  5
19F8C
330
19BD8
100
AcDbEntity
  8
YODOROGO
100
AcDbLine
 10
15766.80217064594
 20
957.8747482146436
 30
0.0
 11
15830.80217064596
 21
957.8747482146436
 31
0.0
  0
LINE
  5
19F8D
330
19BD8
100
AcDbEntity
  8
YODOROGO
100
AcDbLine
 10
15850.80217064596
 20
937.8747482146435
 30
0.0
 11
15766.80217064594
 21
937.8747482146435
 31
0.0
  0
LINE
  5
19F8E
330
19BD8
100
AcDbEntity
  8
YODOROGO
100
AcDbLine
 10
15618.80217064596
 20
889.8747482146442
 30
0.0
 11
15674.80217064596
 21
889.8747482146442
 31
0.0
  0
LINE
  5
19F8F
330
19BD8
100
AcDbEntity
  8
YODOROGO
100
AcDbLine
 10
15618.80217064596
 20
917.8747482146436
 30
0.0
 11
15618.80217064596
 21
889.8747482146442
 31
0.0
  0
LINE
  5
19F90
330
19BD8
100
AcDbEntity
  8
YODOROGO
100
AcDbLine
 10
15674.80217064596
 20
917.8747482146436
 30
0.0
 11
15618.80217064596
 21
917.8747482146436
 31
0.0
  0
LINE
  5
19F91
330
19BD8
100
AcDbEntity
  8
YODOROGO
100
AcDbLine
 10
15674.80217064596
 20
889.8747482146442
 30
0.0
 11
15674.80217064596
 21
917.8747482146436
 31
0.0
  0
LINE
  5
19F92
330
19BD8
100
AcDbEntity
  8
YODOROGO
100
AcDbLine
 10
15766.80217064594
 20
937.8747482146435
 30
0.0
 11
15766.80217064594
 21
957.8747482146436
 31
0.0
  0
LINE
  5
19F93
330
19BD8
100
AcDbEntity
  8
YODOROGO
100
AcDbLine
 10
15706.80217064596
 20
853.874748214644
 30
0.0
 11
15706.80217064596
 21
953.874748214644
 31
0.0
  0
LINE
  5
19F94
330
19BD8
100
AcDbEntity
  8
YODOROGO
100
AcDbLine
 10
15618.80217064596
 20
853.874748214644
 30
0.0
 11
15706.80217064596
 21
853.874748214644
 31
0.0
  0
LINE
  5
19F95
330
19BD8
100
AcDbEntity
  8
YODOROGO
100
AcDbLine
 10
15706.80217064596
 20
981.8747482146434
 30
0.0
 11
15706.80217064596
 21
1013.874748214644
 31
0.0
  0
ARC
  5
19F96
330
19BD8
100
AcDbEntity
  8
YODOROGO
100
AcDbCircle
 10
15810.80217064596
 20
1001.874748214642
 30
0.0
 40
7.99999999999727
100
AcDbArc
 50
270.0
 51
0.0000000000081422
  0
LINE
  5
19F97
330
19BD8
100
AcDbEntity
  8
YODOROGO
100
AcDbLine
 10
15818.80217064596
 20
1013.874748214644
 30
0.0
 11
15818.80217064596
 21
1001.874748214643
 31
0.0
  0
LINE
  5
19F98
330
19BD8
100
AcDbEntity
  8
YODOROGO
100
AcDbLine
 10
15850.80217064596
 20
1013.874748214644
 30
0.0
 11
15818.80217064596
 21
1013.874748214644
 31
0.0
  0
LINE
  5
19F99
330
19BD8
100
AcDbEntity
  8
YODOROGO
100
AcDbLine
 10
15850.80217064596
 20
977.8747482146435
 30
0.0
 11
15850.80217064596
 21
1013.874748214644
 31
0.0
  0
ARC
  5
19F9A
330
19BD8
100
AcDbEntity
  8
YODOROGO
100
AcDbCircle
 10
15830.80217064596
 20
977.8747482146435
 30
0.0
 40
20.0
100
AcDbArc
 50
270.0
 51
0.0
  0
LINE
  5
19F9B
330
19BD8
100
AcDbEntity
  8
YODOROGO
100
AcDbLine
 10
15850.80217064596
 20
905.8747482146443
 30
0.0
 11
15850.80217064596
 21
937.8747482146435
 31
0.0
  0
LINE
  5
19F9C
330
19BD8
100
AcDbEntity
  8
YODOROGO
100
AcDbLine
 10
15826.80217064594
 20
905.8747482146443
 30
0.0
 11
15850.80217064596
 21
905.8747482146443
 31
0.0
  0
LINE
  5
19F9D
330
19BD8
100
AcDbEntity
  8
SUNPOU
100
AcDbLine
 10
3969.797051267461
 20
2706.284839419603
 30
0.0
 11
3835.443655266704
 21
2706.284839419603
 31
0.0
  0
LINE
  5
19F9E
330
19BD8
100
AcDbEntity
  8
SUNPOU
100
AcDbLine
 10
3969.797051267461
 20
2546.284839419602
 30
0.0
 11
3835.443655266704
 21
2546.284839419602
 31
0.0
  0
LINE
  5
19F9F
330
19BD8
100
AcDbEntity
  8
SUNPOU
100
AcDbLine
 10
3880.443655266704
 20
2691.284839419603
 30
0.0
 11
3880.443655266704
 21
2561.284839419602
 31
0.0
  0
LINE
  5
19FA0
330
19BD8
100
AcDbEntity
  8
SUNPOU
100
AcDbLine
 10
3880.443655266704
 20
2546.284839419602
 30
0.0
 11
3880.443655266704
 21
2295.570553705315
 31
0.0
  0
LINE
  5
19FA1
330
19BD8
100
AcDbEntity
  8
SUNPOU
100
AcDbLine
 10
3969.797051267461
 20
2546.284839419602
 30
0.0
 11
3620.129893712837
 21
2546.284839419602
 31
0.0
  0
LINE
  5
19FA2
330
19BD8
100
AcDbEntity
  8
SUNPOU
100
AcDbLine
 10
4129.797051267463
 20
3456.684839419608
 30
0.0
 11
3620.129893712838
 21
3456.684839419608
 31
0.0
  0
LINE
  5
19FA3
330
19BD8
100
AcDbEntity
  8
SUNPOU
100
AcDbLine
 10
3665.129893712836
 20
2561.284839419602
 30
0.0
 11
3665.129893712839
 21
3441.684839419608
 31
0.0
  0
LINE
  5
19FA4
330
19BD8
100
AcDbEntity
  8
SUNPOU
100
AcDbLine
 10
7750.123251791109
 20
2706.284839419607
 30
0.0
 11
7615.76985579035
 21
2706.284839419607
 31
0.0
  0
LINE
  5
19FA5
330
19BD8
100
AcDbEntity
  8
SUNPOU
100
AcDbLine
 10
7750.123251791109
 20
2546.284839419602
 30
0.0
 11
7615.76985579035
 21
2546.284839419602
 31
0.0
  0
LINE
  5
19FA6
330
19BD8
100
AcDbEntity
  8
SUNPOU
100
AcDbLine
 10
7660.769855790352
 20
2691.284839419607
 30
0.0
 11
7660.769855790352
 21
2561.284839419602
 31
0.0
  0
LINE
  5
19FA7
330
19BD8
100
AcDbEntity
  8
SUNPOU
100
AcDbLine
 10
7660.769855790352
 20
2546.284839419602
 30
0.0
 11
7660.769855790352
 21
2295.570553705315
 31
0.0
  0
LINE
  5
19FA8
330
19BD8
100
AcDbEntity
  8
SUNPOU
100
AcDbLine
 10
7750.123251791109
 20
2546.284839419602
 30
0.0
 11
7397.341352050448
 21
2546.284839419602
 31
0.0
  0
LINE
  5
19FA9
330
19BD8
100
AcDbEntity
  8
SUNPOU
100
AcDbLine
 10
8230.123251791111
 20
3456.684839419605
 30
0.0
 11
7397.341352050448
 21
3456.684839419605
 31
0.0
  0
LINE
  5
19FAA
330
19BD8
100
AcDbEntity
  8
SUNPOU
100
AcDbLine
 10
7442.341352050445
 20
2561.284839419602
 30
0.0
 11
7442.341352050445
 21
3441.684839419604
 31
0.0
  0
LINE
  5
19FAB
330
19BD8
100
AcDbEntity
  8
SUNPOU
100
AcDbLine
 10
11635.33837406208
 20
3722.337036584561
 30
0.0
 11
12358.40680314955
 21
3722.337036584561
 31
0.0
  0
LINE
  5
19FAC
330
19BD8
100
AcDbEntity
  8
SUNPOU
100
AcDbLine
 10
11635.33837406208
 20
3882.337036584561
 30
0.0
 11
12358.40680314955
 21
3882.337036584561
 31
0.0
  0
LINE
  5
19FAD
330
19BD8
100
AcDbEntity
  8
SUNPOU
100
AcDbLine
 10
12313.40680314955
 20
3737.33703658456
 30
0.0
 11
12313.40680314955
 21
3867.337036584561
 31
0.0
  0
LINE
  5
19FAE
330
19BD8
100
AcDbEntity
  8
SUNPOU
100
AcDbLine
 10
12313.40680314955
 20
3882.337036584561
 30
0.0
 11
12313.40680314955
 21
4084.479893727418
 31
0.0
  0
LINE
  5
19FAF
330
19BD8
100
AcDbEntity
  8
SUNPOU
100
AcDbLine
 10
11635.33837406208
 20
3722.337036584561
 30
0.0
 11
12358.40680314955
 21
3722.337036584561
 31
0.0
  0
LINE
  5
19FB0
330
19BD8
100
AcDbEntity
  8
SUNPOU
100
AcDbLine
 10
11931.33837406209
 20
3618.337036584563
 30
0.0
 11
12358.40680314955
 21
3618.337036584563
 31
0.0
  0
LINE
  5
19FB1
330
19BD8
100
AcDbEntity
  8
SUNPOU
100
AcDbLine
 10
12313.40680314955
 20
3737.33703658456
 30
0.0
 11
12313.40680314955
 21
3752.33703658456
 31
0.0
  0
LINE
  5
19FB2
330
19BD8
100
AcDbEntity
  8
SUNPOU
100
AcDbLine
 10
12313.40680314955
 20
3603.337036584562
 30
0.0
 11
12313.40680314955
 21
3401.194179441704
 31
0.0
  0
LINE
  5
19FB3
330
19BD8
100
AcDbEntity
  8
SUNPOU
100
AcDbLine
 10
12313.40680314955
 20
3722.337036584561
 30
0.0
 11
12313.40680314955
 21
3618.337036584563
 31
0.0
  0
LINE
  5
19FB4
330
19BD8
100
AcDbEntity
  8
SUNPOU
100
AcDbLine
 10
11821.33837406209
 20
2430.144344053149
 30
0.0
 11
11821.33837406209
 21
2200.804976716085
 31
0.0
  0
LINE
  5
19FB5
330
19BD8
100
AcDbEntity
  8
SUNPOU
100
AcDbLine
 10
11901.33837406209
 20
2470.144344053149
 30
0.0
 11
11901.33837406209
 21
2200.804976716085
 31
0.0
  0
LINE
  5
19FB6
330
19BD8
100
AcDbEntity
  8
SUNPOU
100
AcDbLine
 10
11806.33837406209
 20
2245.804976716085
 30
0.0
 11
11791.33837406209
 21
2245.804976716085
 31
0.0
  0
LINE
  5
19FB7
330
19BD8
100
AcDbEntity
  8
SUNPOU
100
AcDbLine
 10
11916.33837406208
 20
2245.804976716085
 30
0.0
 11
12118.48123120495
 21
2245.804976716085
 31
0.0
  0
LINE
  5
19FB8
330
19BD8
100
AcDbEntity
  8
SUNPOU
100
AcDbLine
 10
11821.33837406209
 20
2245.804976716085
 30
0.0
 11
11901.33837406209
 21
2245.804976716085
 31
0.0
  0
LINE
  5
19FB9
330
19BD8
100
AcDbEntity
  8
SUNPOU
100
AcDbLine
 10
11261.33837406209
 20
2430.144344053149
 30
0.0
 11
11261.33837406209
 21
2200.804976716085
 31
0.0
  0
LINE
  5
19FBA
330
19BD8
100
AcDbEntity
  8
SUNPOU
100
AcDbLine
 10
11821.33837406209
 20
2430.144344053149
 30
0.0
 11
11821.33837406209
 21
2200.804976716085
 31
0.0
  0
LINE
  5
19FBB
330
19BD8
100
AcDbEntity
  8
SUNPOU
100
AcDbLine
 10
11276.3383740621
 20
2245.804976716085
 30
0.0
 11
11806.33837406209
 21
2245.804976716085
 31
0.0
  0
LINE
  5
19FBC
330
19BD8
100
AcDbEntity
  8
SUNPOU
100
AcDbLine
 10
11261.33837406209
 20
2430.144344053149
 30
0.0
 11
11261.33837406209
 21
2200.804976716085
 31
0.0
  0
LINE
  5
19FBD
330
19BD8
100
AcDbEntity
  8
SUNPOU
100
AcDbLine
 10
11181.33837406209
 20
2470.144344053149
 30
0.0
 11
11181.33837406209
 21
2200.804976716085
 31
0.0
  0
LINE
  5
19FBE
330
19BD8
100
AcDbEntity
  8
SUNPOU
100
AcDbLine
 10
11276.3383740621
 20
2245.804976716085
 30
0.0
 11
11291.3383740621
 21
2245.804976716085
 31
0.0
  0
LINE
  5
19FBF
330
19BD8
100
AcDbEntity
  8
SUNPOU
100
AcDbLine
 10
11166.33837406209
 20
2245.804976716085
 30
0.0
 11
10964.19551691923
 21
2245.804976716085
 31
0.0
  0
LINE
  5
19FC0
330
19BD8
100
AcDbEntity
  8
SUNPOU
100
AcDbLine
 10
11261.33837406209
 20
2245.804976716085
 30
0.0
 11
11181.33837406209
 21
2245.804976716085
 31
0.0
  0
LINE
  5
19FC1
330
19BD8
100
AcDbEntity
  8
SUNPOU
100
AcDbLine
 10
11181.33837406209
 20
2470.144344053149
 30
0.0
 11
11181.33837406209
 21
1990.804976716086
 31
0.0
  0
LINE
  5
19FC2
330
19BD8
100
AcDbEntity
  8
SUNPOU
100
AcDbLine
 10
11901.33837406209
 20
2470.144344053149
 30
0.0
 11
11901.33837406209
 21
1990.804976716086
 31
0.0
  0
LINE
  5
19FC3
330
19BD8
100
AcDbEntity
  8
SUNPOU
100
AcDbLine
 10
11196.33837406209
 20
2035.804976716086
 30
0.0
 11
11886.33837406209
 21
2035.804976716086
 31
0.0
  0
LINE
  5
19FC4
330
19BD8
100
AcDbEntity
  8
SUNPOU
100
AcDbLine
 10
11155.33837406209
 20
2700.144344053149
 30
0.0
 11
10873.33837406209
 21
2700.144344053149
 31
0.0
  0
LINE
  5
19FC5
330
19BD8
100
AcDbEntity
  8
SUNPOU
100
AcDbLine
 10
11151.33837406208
 20
2500.144344053149
 30
0.0
 11
10873.33837406209
 21
2500.144344053149
 31
0.0
  0
LINE
  5
19FC6
330
19BD8
100
AcDbEntity
  8
SUNPOU
100
AcDbLine
 10
10918.33837406209
 20
2685.144344053149
 30
0.0
 11
10918.33837406209
 21
2515.144344053149
 31
0.0
  0
LINE
  5
19FC7
330
19BD8
100
AcDbEntity
  8
SUNPOU
100
AcDbLine
 10
11155.33837406209
 20
2700.144344053149
 30
0.0
 11
10873.33837406209
 21
2700.144344053149
 31
0.0
  0
LINE
  5
19FC8
330
19BD8
100
AcDbEntity
  8
SUNPOU
100
AcDbLine
 10
11151.33837406208
 20
2900.144344053149
 30
0.0
 11
10873.33837406209
 21
2900.144344053149
 31
0.0
  0
LINE
  5
19FC9
330
19BD8
100
AcDbEntity
  8
SUNPOU
100
AcDbLine
 10
10918.33837406209
 20
2715.144344053149
 30
0.0
 11
10918.33837406209
 21
2885.144344053149
 31
0.0
  0
LINE
  5
19FCA
330
19BD8
100
AcDbEntity
  8
SUNPOU
100
AcDbLine
 10
11151.33837406208
 20
2500.144344053149
 30
0.0
 11
10663.33837406209
 21
2500.144344053149
 31
0.0
  0
LINE
  5
19FCB
330
19BD8
100
AcDbEntity
  8
SUNPOU
100
AcDbLine
 10
11151.33837406208
 20
2900.144344053149
 30
0.0
 11
10663.33837406209
 21
2900.144344053149
 31
0.0
  0
LINE
  5
19FCC
330
19BD8
100
AcDbEntity
  8
SUNPOU
100
AcDbLine
 10
10708.33837406208
 20
2515.144344053149
 30
0.0
 11
10708.33837406208
 21
2885.144344053149
 31
0.0
  0
LINE
  5
19FCD
330
19BD8
100
AcDbEntity
  8
SUNPOU
100
AcDbLine
 10
11821.33837406209
 20
3548.337036584563
 30
0.0
 11
11821.33837406209
 21
3349.170862655059
 31
0.0
  0
LINE
  5
19FCE
330
19BD8
100
AcDbEntity
  8
SUNPOU
100
AcDbLine
 10
11901.33837406209
 20
3588.337036584562
 30
0.0
 11
11901.33837406209
 21
3349.170862655059
 31
0.0
  0
LINE
  5
19FCF
330
19BD8
100
AcDbEntity
  8
SUNPOU
100
AcDbLine
 10
11806.33837406209
 20
3394.17086265506
 30
0.0
 11
11791.33837406209
 21
3394.17086265506
 31
0.0
  0
LINE
  5
19FD0
330
19BD8
100
AcDbEntity
  8
SUNPOU
100
AcDbLine
 10
11916.33837406208
 20
3394.17086265506
 30
0.0
 11
12118.48123120495
 21
3394.17086265506
 31
0.0
  0
LINE
  5
19FD1
330
19BD8
100
AcDbEntity
  8
SUNPOU
100
AcDbLine
 10
11821.33837406209
 20
3394.17086265506
 30
0.0
 11
11901.33837406209
 21
3394.17086265506
 31
0.0
  0
LINE
  5
19FD2
330
19BD8
100
AcDbEntity
  8
SUNPOU
100
AcDbLine
 10
11261.33837406209
 20
3548.337036584563
 30
0.0
 11
11261.33837406209
 21
3349.170862655062
 31
0.0
  0
LINE
  5
19FD3
330
19BD8
100
AcDbEntity
  8
SUNPOU
100
AcDbLine
 10
11821.33837406209
 20
3548.337036584563
 30
0.0
 11
11821.33837406209
 21
3349.170862655062
 31
0.0
  0
LINE
  5
19FD4
330
19BD8
100
AcDbEntity
  8
SUNPOU
100
AcDbLine
 10
11276.33837406209
 20
3394.170862655061
 30
0.0
 11
11806.33837406209
 21
3394.170862655061
 31
0.0
  0
LINE
  5
19FD5
330
19BD8
100
AcDbEntity
  8
SUNPOU
100
AcDbLine
 10
11261.33837406209
 20
3548.337036584563
 30
0.0
 11
11261.33837406209
 21
3349.170862655059
 31
0.0
  0
LINE
  5
19FD6
330
19BD8
100
AcDbEntity
  8
SUNPOU
100
AcDbLine
 10
11181.33837406207
 20
3588.337036584562
 30
0.0
 11
11181.33837406207
 21
3349.170862655059
 31
0.0
  0
LINE
  5
19FD7
330
19BD8
100
AcDbEntity
  8
SUNPOU
100
AcDbLine
 10
11276.33837406209
 20
3394.17086265506
 30
0.0
 11
11291.33837406208
 21
3394.17086265506
 31
0.0
  0
LINE
  5
19FD8
330
19BD8
100
AcDbEntity
  8
SUNPOU
100
AcDbLine
 10
11166.33837406207
 20
3394.17086265506
 30
0.0
 11
10964.19551691922
 21
3394.17086265506
 31
0.0
  0
LINE
  5
19FD9
330
19BD8
100
AcDbEntity
  8
SUNPOU
100
AcDbLine
 10
11261.33837406209
 20
3394.17086265506
 30
0.0
 11
11181.33837406207
 21
3394.17086265506
 31
0.0
  0
LINE
  5
19FDA
330
19BD8
100
AcDbEntity
  8
SUNPOU
100
AcDbLine
 10
11181.33837406207
 20
3588.337036584562
 30
0.0
 11
11181.33837406207
 21
3139.170862655062
 31
0.0
  0
LINE
  5
19FDB
330
19BD8
100
AcDbEntity
  8
SUNPOU
100
AcDbLine
 10
11901.33837406209
 20
3588.337036584562
 30
0.0
 11
11901.33837406209
 21
3139.170862655062
 31
0.0
  0
LINE
  5
19FDC
330
19BD8
100
AcDbEntity
  8
SUNPOU
100
AcDbLine
 10
11196.33837406208
 20
3184.170862655062
 30
0.0
 11
11886.33837406209
 21
3184.170862655062
 31
0.0
  0
LINE
  5
19FDD
330
19BD8
100
AcDbEntity
  8
SUNPOU
100
AcDbLine
 10
7940.12325179111
 20
2676.284839419607
 30
0.0
 11
7940.12325179111
 21
2103.684839419604
 31
0.0
  0
LINE
  5
19FDE
330
19BD8
100
AcDbEntity
  8
SUNPOU
100
AcDbLine
 10
9220.123251791108
 20
2676.284839419607
 30
0.0
 11
9220.123251791108
 21
2103.684839419604
 31
0.0
  0
LINE
  5
19FDF
330
19BD8
100
AcDbEntity
  8
SUNPOU
100
AcDbLine
 10
7955.123251791109
 20
2148.684839419604
 30
0.0
 11
9205.123251791109
 21
2148.684839419604
 31
0.0
  0
LINE
  5
19FE0
330
19BD8
100
AcDbEntity
  8
SUNPOU
100
AcDbLine
 10
7780.123251791109
 20
2516.284839419602
 30
0.0
 11
7780.123251791109
 21
1893.684839419604
 31
0.0
  0
LINE
  5
19FE1
330
19BD8
100
AcDbEntity
  8
SUNPOU
100
AcDbLine
 10
9380.123251791109
 20
2516.284839419602
 30
0.0
 11
9380.123251791109
 21
1893.684839419604
 31
0.0
  0
LINE
  5
19FE2
330
19BD8
100
AcDbEntity
  8
SUNPOU
100
AcDbLine
 10
7795.123251791108
 20
1938.684839419604
 30
0.0
 11
9365.123251791109
 21
1938.684839419604
 31
0.0
  0
LINE
  5
19FE3
330
19BD8
100
AcDbEntity
  8
SUNPOU
100
AcDbLine
 10
7270.769855790351
 20
3376.684839419608
 30
0.0
 11
7285.769855790352
 21
3376.684839419608
 31
0.0
  0
LINE
  5
19FE4
330
19BD8
100
AcDbEntity
  8
SUNPOU
100
AcDbLine
 10
8230.123251791111
 20
3456.684839419605
 30
0.0
 11
7195.769855790351
 21
3456.684839419605
 31
0.0
  0
LINE
  5
19FE5
330
19BD8
100
AcDbEntity
  8
SUNPOU
100
AcDbLine
 10
7240.76985579035
 20
3361.684839419608
 30
0.0
 11
7240.76985579035
 21
3346.684839419608
 31
0.0
  0
LINE
  5
19FE6
330
19BD8
100
AcDbEntity
  8
SUNPOU
100
AcDbLine
 10
7240.76985579035
 20
3471.684839419604
 30
0.0
 11
7240.76985579035
 21
3673.827696562461
 31
0.0
  0
LINE
  5
19FE7
330
19BD8
100
AcDbEntity
  8
SUNPOU
100
AcDbLine
 10
7240.76985579035
 20
3376.684839419608
 30
0.0
 11
7240.76985579035
 21
3456.684839419605
 31
0.0
  0
LINE
  5
19FE8
330
19BD8
100
AcDbEntity
  8
SUNPOU
100
AcDbLine
 10
7910.12325179111
 20
3314.284839419605
 30
0.0
 11
7615.769855790354
 21
3314.284839419605
 31
0.0
  0
LINE
  5
19FE9
330
19BD8
100
AcDbEntity
  8
SUNPOU
100
AcDbLine
 10
7910.12325179111
 20
3186.284839419601
 30
0.0
 11
7615.769855790354
 21
3186.284839419601
 31
0.0
  0
LINE
  5
19FEA
330
19BD8
100
AcDbEntity
  8
SUNPOU
100
AcDbLine
 10
7660.769855790352
 20
3299.284839419605
 30
0.0
 11
7660.769855790352
 21
3201.2848394196
 31
0.0
  0
LINE
  5
19FEB
330
19BD8
100
AcDbEntity
  8
SUNPOU
100
AcDbLine
 10
7910.12325179111
 20
3314.284839419603
 30
0.0
 11
7615.76985579035
 21
3314.284839419603
 31
0.0
  0
LINE
  5
19FEC
330
19BD8
100
AcDbEntity
  8
SUNPOU
100
AcDbLine
 10
8230.123251791111
 20
3456.684839419605
 30
0.0
 11
7615.76985579035
 21
3456.684839419605
 31
0.0
  0
LINE
  5
19FED
330
19BD8
100
AcDbEntity
  8
SUNPOU
100
AcDbLine
 10
7660.769855790352
 20
3329.284839419603
 30
0.0
 11
7660.769855790352
 21
3441.684839419604
 31
0.0
  0
LINE
  5
19FEE
330
19BD8
100
AcDbEntity
  8
SUNPOU
100
AcDbLine
 10
7660.769855790352
 20
3456.684839419605
 30
0.0
 11
7660.769855790352
 21
3658.827696562461
 31
0.0
  0
LINE
  5
19FEF
330
19BD8
100
AcDbEntity
  8
SUNPOU
100
AcDbLine
 10
7750.123251791109
 20
2706.284839419607
 30
0.0
 11
7615.76985579035
 21
2706.284839419607
 31
0.0
  0
LINE
  5
19FF0
330
19BD8
100
AcDbEntity
  8
SUNPOU
100
AcDbLine
 10
7910.12325179111
 20
3186.284839419601
 30
0.0
 11
7615.76985579035
 21
3186.284839419601
 31
0.0
  0
LINE
  5
19FF1
330
19BD8
100
AcDbEntity
  8
SUNPOU
100
AcDbLine
 10
7660.769855790352
 20
2721.284839419607
 30
0.0
 11
7660.769855790352
 21
3171.2848394196
 31
0.0
  0
LINE
  5
19FF2
330
19BD8
100
AcDbEntity
  8
SUNPOU
100
AcDbLine
 10
10125.35375904136
 20
4130.485411556196
 30
0.0
 11
10065.35375904133
 21
4130.485411556196
 31
0.0
  0
LINE
  5
19FF3
330
19BD8
100
AcDbEntity
  8
SUNPOU
100
AcDbLine
 10
10125.35375904135
 20
4130.485411556196
 30
0.0
 11
10065.35375904135
 21
4146.562363102066
 31
0.0
  0
LINE
  5
19FF4
330
19BD8
100
AcDbEntity
  8
SUNPOU
100
AcDbLine
 10
10125.35375904136
 20
4130.485411556196
 30
0.0
 11
10065.35375904133
 21
4114.408460010326
 31
0.0
  0
LINE
  5
19FF5
330
19BD8
100
AcDbEntity
  8
SUNPOU
100
AcDbLine
 10
10065.35375904135
 20
4130.485411556196
 30
0.0
 11
10005.35375904133
 21
4130.485411556196
 31
0.0
  0
LINE
  5
19FF6
330
19BD8
100
AcDbEntity
  8
SUNPOU
100
AcDbLine
 10
10065.35375904135
 20
4130.485411556196
 30
0.0
 11
10005.35375904135
 21
4146.562363102066
 31
0.0
  0
LINE
  5
19FF7
330
19BD8
100
AcDbEntity
  8
SUNPOU
100
AcDbLine
 10
10065.35375904135
 20
4130.485411556196
 30
0.0
 11
10005.35375904133
 21
4114.408460010326
 31
0.0
  0
LINE
  5
19FF8
330
19BD8
100
AcDbEntity
  8
SUNPOU
100
AcDbLine
 10
8580.123251791111
 20
4160.485411556194
 30
0.0
 11
8580.123251791111
 21
4175.485411556194
 31
0.0
  0
LINE
  5
19FF9
330
19BD8
100
AcDbEntity
  8
SUNPOU
100
AcDbLine
 10
8260.12325179111
 20
3486.684839419604
 30
0.0
 11
8260.12325179111
 21
4175.485411556194
 31
0.0
  0
LINE
  5
19FFA
330
19BD8
100
AcDbEntity
  8
SUNPOU
100
AcDbLine
 10
8565.123251791112
 20
4130.485411556196
 30
0.0
 11
8275.123251791111
 21
4130.485411556196
 31
0.0
  0
LINE
  5
19FFB
330
19BD8
100
AcDbEntity
  8
SUNPOU
100
AcDbLine
 10
4159.797051267463
 20
2676.284839419603
 30
0.0
 11
4159.797051267463
 21
2103.684839419599
 31
0.0
  0
LINE
  5
19FFC
330
19BD8
100
AcDbEntity
  8
SUNPOU
100
AcDbLine
 10
5439.797051267464
 20
2676.284839419603
 30
0.0
 11
5439.797051267464
 21
2103.684839419599
 31
0.0
  0
LINE
  5
19FFD
330
19BD8
100
AcDbEntity
  8
SUNPOU
100
AcDbLine
 10
4174.797051267463
 20
2148.684839419601
 30
0.0
 11
5424.797051267464
 21
2148.684839419601
 31
0.0
  0
LINE
  5
19FFE
330
19BD8
100
AcDbEntity
  8
SUNPOU
100
AcDbLine
 10
3999.797051267462
 20
2516.284839419602
 30
0.0
 11
3999.797051267462
 21
1893.6848394196
 31
0.0
  0
LINE
  5
19FFF
330
19BD8
100
AcDbEntity
  8
SUNPOU
100
AcDbLine
 10
5599.797051267461
 20
2516.284839419602
 30
0.0
 11
5599.797051267461
 21
1893.6848394196
 31
0.0
  0
LINE
  5
1A000
330
19BD8
100
AcDbEntity
  8
SUNPOU
100
AcDbLine
 10
4014.797051267462
 20
1938.6848394196
 30
0.0
 11
5584.797051267462
 21
1938.6848394196
 31
0.0
  0
LINE
  5
1A001
330
19BD8
100
AcDbEntity
  8
SUNPOU
100
AcDbLine
 10
3490.443655266703
 20
3376.684839419604
 30
0.0
 11
3505.443655266704
 21
3376.684839419604
 31
0.0
  0
LINE
  5
1A002
330
19BD8
100
AcDbEntity
  8
SUNPOU
100
AcDbLine
 10
4129.797051267463
 20
3456.684839419605
 30
0.0
 11
3415.443655266705
 21
3456.684839419605
 31
0.0
  0
LINE
  5
1A003
330
19BD8
100
AcDbEntity
  8
SUNPOU
100
AcDbLine
 10
3460.443655266704
 20
3361.684839419604
 30
0.0
 11
3460.443655266704
 21
3346.684839419604
 31
0.0
  0
LINE
  5
1A004
330
19BD8
100
AcDbEntity
  8
SUNPOU
100
AcDbLine
 10
3460.443655266704
 20
3471.684839419605
 30
0.0
 11
3460.443655266704
 21
3673.827696562461
 31
0.0
  0
LINE
  5
1A005
330
19BD8
100
AcDbEntity
  8
SUNPOU
100
AcDbLine
 10
3460.443655266704
 20
3376.684839419604
 30
0.0
 11
3460.443655266704
 21
3456.684839419605
 31
0.0
  0
LINE
  5
1A006
330
19BD8
100
AcDbEntity
  8
SUNPOU
100
AcDbLine
 10
4129.797051267463
 20
3314.284839419601
 30
0.0
 11
3835.443655266705
 21
3314.284839419601
 31
0.0
  0
LINE
  5
1A007
330
19BD8
100
AcDbEntity
  8
SUNPOU
100
AcDbLine
 10
4129.797051267463
 20
3186.284839419597
 30
0.0
 11
3835.443655266705
 21
3186.284839419597
 31
0.0
  0
LINE
  5
1A008
330
19BD8
100
AcDbEntity
  8
SUNPOU
100
AcDbLine
 10
3880.443655266705
 20
3299.284839419601
 30
0.0
 11
3880.443655266705
 21
3201.284839419595
 31
0.0
  0
LINE
  5
1A009
330
19BD8
100
AcDbEntity
  8
SUNPOU
100
AcDbLine
 10
4129.797051267463
 20
3314.284839419603
 30
0.0
 11
3835.443655266704
 21
3314.284839419603
 31
0.0
  0
LINE
  5
1A00A
330
19BD8
100
AcDbEntity
  8
SUNPOU
100
AcDbLine
 10
4129.797051267463
 20
3456.684839419605
 30
0.0
 11
3835.443655266704
 21
3456.684839419605
 31
0.0
  0
LINE
  5
1A00B
330
19BD8
100
AcDbEntity
  8
SUNPOU
100
AcDbLine
 10
3880.443655266704
 20
3329.284839419603
 30
0.0
 11
3880.443655266704
 21
3441.684839419605
 31
0.0
  0
LINE
  5
1A00C
330
19BD8
100
AcDbEntity
  8
SUNPOU
100
AcDbLine
 10
3880.443655266704
 20
3456.684839419605
 30
0.0
 11
3880.443655266704
 21
3658.827696562461
 31
0.0
  0
LINE
  5
1A00D
330
19BD8
100
AcDbEntity
  8
SUNPOU
100
AcDbLine
 10
3969.797051267461
 20
2706.284839419603
 30
0.0
 11
3835.443655266704
 21
2706.284839419603
 31
0.0
  0
LINE
  5
1A00E
330
19BD8
100
AcDbEntity
  8
SUNPOU
100
AcDbLine
 10
4129.797051267463
 20
3186.284839419597
 30
0.0
 11
3835.443655266704
 21
3186.284839419597
 31
0.0
  0
LINE
  5
1A00F
330
19BD8
100
AcDbEntity
  8
SUNPOU
100
AcDbLine
 10
3880.443655266704
 20
2721.284839419602
 30
0.0
 11
3880.443655266704
 21
3171.284839419596
 31
0.0
  0
LINE
  5
1A010
330
19BD8
100
AcDbEntity
  8
SUNPOU
100
AcDbLine
 10
6345.027558517712
 20
4130.485411556192
 30
0.0
 11
6285.0275585177
 21
4130.485411556192
 31
0.0
  0
LINE
  5
1A011
330
19BD8
100
AcDbEntity
  8
SUNPOU
100
AcDbLine
 10
6345.027558517706
 20
4130.485411556192
 30
0.0
 11
6285.027558517706
 21
4146.562363102062
 31
0.0
  0
LINE
  5
1A012
330
19BD8
100
AcDbEntity
  8
SUNPOU
100
AcDbLine
 10
6345.027558517712
 20
4130.485411556192
 30
0.0
 11
6285.0275585177
 21
4114.408460010323
 31
0.0
  0
LINE
  5
1A013
330
19BD8
100
AcDbEntity
  8
SUNPOU
100
AcDbLine
 10
6285.027558517714
 20
4130.485411556192
 30
0.0
 11
6225.027558517701
 21
4130.485411556192
 31
0.0
  0
LINE
  5
1A014
330
19BD8
100
AcDbEntity
  8
SUNPOU
100
AcDbLine
 10
6285.027558517706
 20
4130.485411556192
 30
0.0
 11
6225.027558517706
 21
4146.562363102062
 31
0.0
  0
LINE
  5
1A015
330
19BD8
100
AcDbEntity
  8
SUNPOU
100
AcDbLine
 10
6285.027558517714
 20
4130.485411556192
 30
0.0
 11
6225.027558517701
 21
4114.408460010323
 31
0.0
  0
LINE
  5
1A016
330
19BD8
100
AcDbEntity
  8
SUNPOU
100
AcDbLine
 10
4799.797051267463
 20
4160.485411556192
 30
0.0
 11
4799.797051267463
 21
4175.485411556191
 31
0.0
  0
LINE
  5
1A017
330
19BD8
100
AcDbEntity
  8
SUNPOU
100
AcDbLine
 10
4159.797051267463
 20
3486.684839419604
 30
0.0
 11
4159.797051267463
 21
4175.485411556191
 31
0.0
  0
LINE
  5
1A018
330
19BD8
100
AcDbEntity
  8
SUNPOU
100
AcDbLine
 10
4784.797051267463
 20
4130.485411556192
 30
0.0
 11
4174.797051267463
 21
4130.485411556192
 31
0.0
  0
LINE
  5
1A019
330
19BD8
100
AcDbEntity
  8
SUNPOU
100
AcDbLine
 10
7230.127507899638
 20
8153.243182432325
 30
0.0
 11
7320.127507899638
 21
8168.243182432325
 31
0.0
  0
LINE
  5
1A01A
330
19BD8
100
AcDbEntity
  8
SUNPOU
100
AcDbLine
 10
7320.127507899638
 20
8168.243182432325
 30
0.0
 11
7230.127507899638
 21
8183.243182432326
 31
0.0
  0
SOLID
  5
1A01B
330
19BD8
100
AcDbEntity
  8
SUNPOU
100
AcDbTrace
 10
7230.127507899638
 20
8153.243182432325
 30
0.0
 11
7230.127507899638
 21
8183.243182432326
 31
0.0
 12
7320.127507899638
 22
8168.243182432325
 32
0.0
 13
7320.127507899638
 23
8168.243182432325
 33
0.0
  0
LINE
  5
1A01C
330
19BD8
100
AcDbEntity
  8
SUNPOU
100
AcDbLine
 10
7230.127507899638
 20
8183.243182432326
 30
0.0
 11
7230.127507899638
 21
8153.243182432325
 31
0.0
  0
LINE
  5
1A01D
330
19BD8
100
AcDbEntity
  8
SUNPOU
100
AcDbLine
 10
7230.127507899638
 20
9283.243182432332
 30
0.0
 11
7320.127507899638
 21
9268.243182432332
 31
0.0
  0
LINE
  5
1A01E
330
19BD8
100
AcDbEntity
  8
SUNPOU
100
AcDbLine
 10
7320.127507899638
 20
9268.243182432332
 30
0.0
 11
7230.127507899638
 21
9253.243182432333
 31
0.0
  0
SOLID
  5
1A01F
330
19BD8
100
AcDbEntity
  8
SUNPOU
100
AcDbTrace
 10
7230.127507899638
 20
9283.243182432332
 30
0.0
 11
7230.127507899638
 21
9253.243182432333
 31
0.0
 12
7320.127507899638
 22
9268.243182432332
 32
0.0
 13
7320.127507899638
 23
9268.243182432332
 33
0.0
  0
LINE
  5
1A020
330
19BD8
100
AcDbEntity
  8
SUNPOU
100
AcDbLine
 10
7230.127507899638
 20
9253.243182432333
 30
0.0
 11
7230.127507899638
 21
9283.243182432332
 31
0.0
  0
LINE
  5
1A021
330
19BD8
100
AcDbEntity
  8
SUNPOU
100
AcDbLine
 10
10264.12750789964
 20
9118.243182432328
 30
0.0
 11
11099.12750789964
 21
9118.243182432328
 31
0.0
  0
LINE
  5
1A022
330
19BD8
100
AcDbEntity
  8
SUNPOU
100
AcDbLine
 10
10264.12750789964
 20
6508.243182432328
 30
0.0
 11
11099.12750789964
 21
6508.243182432328
 31
0.0
  0
LINE
  5
1A023
330
19BD8
100
AcDbEntity
  8
SUNPOU
100
AcDbLine
 10
11054.12750789964
 20
9103.243182432326
 30
0.0
 11
11054.12750789964
 21
6523.243182432327
 31
0.0
  0
LINE
  5
1A024
330
19BD8
100
AcDbEntity
  8
SUNPOU
100
AcDbLine
 10
10409.12750789964
 20
8718.243182432329
 30
0.0
 11
10889.12750789964
 21
8718.243182432329
 31
0.0
  0
LINE
  5
1A025
330
19BD8
100
AcDbEntity
  8
SUNPOU
100
AcDbLine
 10
10264.12750789964
 20
9118.243182432328
 30
0.0
 11
10889.12750789964
 21
9118.243182432328
 31
0.0
  0
LINE
  5
1A026
330
19BD8
100
AcDbEntity
  8
SUNPOU
100
AcDbLine
 10
10844.12750789964
 20
8733.243182432328
 30
0.0
 11
10844.12750789964
 21
9103.243182432326
 31
0.0
  0
LINE
  5
1A027
330
19BD8
100
AcDbEntity
  8
SUNPOU
100
AcDbLine
 10
10409.12750789964
 20
6908.243182432328
 30
0.0
 11
10889.12750789964
 21
6908.243182432328
 31
0.0
  0
LINE
  5
1A028
330
19BD8
100
AcDbEntity
  8
SUNPOU
100
AcDbLine
 10
10409.12750789964
 20
8718.243182432329
 30
0.0
 11
10889.12750789964
 21
8718.243182432329
 31
0.0
  0
LINE
  5
1A029
330
19BD8
100
AcDbEntity
  8
SUNPOU
100
AcDbLine
 10
10844.12750789964
 20
6923.243182432329
 30
0.0
 11
10844.12750789964
 21
8703.243182432329
 31
0.0
  0
LINE
  5
1A02A
330
19BD8
100
AcDbEntity
  8
SUNPOU
100
AcDbLine
 10
10264.12750789964
 20
6508.243182432328
 30
0.0
 11
10889.12750789964
 21
6508.243182432328
 31
0.0
  0
LINE
  5
1A02B
330
19BD8
100
AcDbEntity
  8
SUNPOU
100
AcDbLine
 10
10409.12750789964
 20
6908.243182432328
 30
0.0
 11
10889.12750789964
 21
6908.243182432328
 31
0.0
  0
LINE
  5
1A02C
330
19BD8
100
AcDbEntity
  8
SUNPOU
100
AcDbLine
 10
10844.12750789964
 20
6523.243182432327
 30
0.0
 11
10844.12750789964
 21
6893.243182432327
 31
0.0
  0
LINE
  5
1A02D
330
19BD8
100
AcDbEntity
  8
SUNPOU
100
AcDbLine
 10
10260.12750789964
 20
8918.243182432329
 30
0.0
 11
10679.12750789964
 21
8918.243182432329
 31
0.0
  0
LINE
  5
1A02E
330
19BD8
100
AcDbEntity
  8
SUNPOU
100
AcDbLine
 10
10264.12750789964
 20
9118.243182432328
 30
0.0
 11
10679.12750789964
 21
9118.243182432328
 31
0.0
  0
LINE
  5
1A02F
330
19BD8
100
AcDbEntity
  8
SUNPOU
100
AcDbLine
 10
10634.12750789964
 20
8933.243182432326
 30
0.0
 11
10634.12750789964
 21
9103.243182432326
 31
0.0
  0
LINE
  5
1A030
330
19BD8
100
AcDbEntity
  8
SUNPOU
100
AcDbLine
 10
10634.12750789964
 20
9118.243182432328
 30
0.0
 11
10634.12750789964
 21
9377.528896718045
 31
0.0
  0
LINE
  5
1A031
330
19BD8
100
AcDbEntity
  8
SUNPOU
100
AcDbLine
 10
10409.12750789964
 20
8718.243182432329
 30
0.0
 11
10679.12750789964
 21
8718.243182432329
 31
0.0
  0
LINE
  5
1A032
330
19BD8
100
AcDbEntity
  8
SUNPOU
100
AcDbLine
 10
10264.12750789964
 20
8918.243182432329
 30
0.0
 11
10679.12750789964
 21
8918.243182432329
 31
0.0
  0
LINE
  5
1A033
330
19BD8
100
AcDbEntity
  8
SUNPOU
100
AcDbLine
 10
10634.12750789964
 20
8903.243182432328
 30
0.0
 11
10634.12750789964
 21
8733.243182432328
 31
0.0
  0
LINE
  5
1A034
330
19BD8
100
AcDbEntity
  8
SUNPOU
100
AcDbLine
 10
10634.12750789964
 20
8718.243182432329
 30
0.0
 11
10634.12750789964
 21
8458.957468146612
 31
0.0
  0
LINE
  5
1A035
330
19BD8
100
AcDbEntity
  8
SUNPOU
100
AcDbLine
 10
7649.127507899638
 20
7118.24318243233
 30
0.0
 11
7634.127507899638
 21
7208.243182432326
 31
0.0
  0
LINE
  5
1A036
330
19BD8
100
AcDbEntity
  8
SUNPOU
100
AcDbLine
 10
7634.127507899638
 20
7208.243182432326
 30
0.0
 11
7619.127507899638
 21
7118.24318243233
 31
0.0
  0
SOLID
  5
1A037
330
19BD8
100
AcDbEntity
  8
SUNPOU
100
AcDbTrace
 10
7649.127507899638
 20
7118.24318243233
 30
0.0
 11
7619.127507899638
 21
7118.24318243233
 31
0.0
 12
7634.127507899638
 22
7208.243182432326
 32
0.0
 13
7634.127507899638
 23
7208.243182432326
 33
0.0
  0
LINE
  5
1A038
330
19BD8
100
AcDbEntity
  8
SUNPOU
100
AcDbLine
 10
7619.127507899638
 20
7118.24318243233
 30
0.0
 11
7649.127507899638
 21
7118.24318243233
 31
0.0
  0
LINE
  5
1A039
330
19BD8
100
AcDbEntity
  8
SUNPOU
100
AcDbLine
 10
6399.127507899635
 20
7118.24318243233
 30
0.0
 11
6414.127507899635
 21
7208.243182432326
 31
0.0
  0
LINE
  5
1A03A
330
19BD8
100
AcDbEntity
  8
SUNPOU
100
AcDbLine
 10
6414.127507899635
 20
7208.243182432326
 30
0.0
 11
6429.127507899635
 21
7118.24318243233
 31
0.0
  0
SOLID
  5
1A03B
330
19BD8
100
AcDbEntity
  8
SUNPOU
100
AcDbTrace
 10
6399.127507899635
 20
7118.24318243233
 30
0.0
 11
6429.127507899635
 21
7118.24318243233
 31
0.0
 12
6414.127507899635
 22
7208.243182432326
 32
0.0
 13
6414.127507899635
 23
7208.243182432326
 33
0.0
  0
LINE
  5
1A03C
330
19BD8
100
AcDbEntity
  8
SUNPOU
100
AcDbLine
 10
6429.127507899635
 20
7118.24318243233
 30
0.0
 11
6399.127507899635
 21
7118.24318243233
 31
0.0
  0
LINE
  5
1A03D
330
19BD8
100
AcDbEntity
  8
SUNPOU
100
AcDbLine
 10
6624.127507899638
 20
9148.243182432329
 30
0.0
 11
6624.127507899638
 21
9673.243182432329
 31
0.0
  0
LINE
  5
1A03E
330
19BD8
100
AcDbEntity
  8
SUNPOU
100
AcDbLine
 10
10234.12750789964
 20
9148.243182432329
 30
0.0
 11
10234.12750789964
 21
9673.243182432329
 31
0.0
  0
LINE
  5
1A03F
330
19BD8
100
AcDbEntity
  8
SUNPOU
100
AcDbLine
 10
6639.127507899639
 20
9628.243182432328
 30
0.0
 11
10219.12750789964
 21
9628.243182432328
 31
0.0
  0
LINE
  5
1A040
330
19BD8
100
AcDbEntity
  8
SUNPOU
100
AcDbLine
 10
9834.127507899637
 20
9348.243182432328
 30
0.0
 11
9834.127507899637
 21
9463.243182432325
 31
0.0
  0
LINE
  5
1A041
330
19BD8
100
AcDbEntity
  8
SUNPOU
100
AcDbLine
 10
7024.127507899639
 20
9348.243182432328
 30
0.0
 11
7024.127507899639
 21
9463.243182432325
 31
0.0
  0
LINE
  5
1A042
330
19BD8
100
AcDbEntity
  8
SUNPOU
100
AcDbLine
 10
9819.127507899636
 20
9418.243182432325
 30
0.0
 11
7039.127507899639
 21
9418.243182432325
 31
0.0
  0
LINE
  5
1A043
330
19BD8
100
AcDbEntity
  8
SUNPOU
100
AcDbLine
 10
7024.127507899639
 20
9348.243182432328
 30
0.0
 11
7024.127507899639
 21
9463.243182432325
 31
0.0
  0
LINE
  5
1A044
330
19BD8
100
AcDbEntity
  8
SUNPOU
100
AcDbLine
 10
6624.127507899638
 20
9148.243182432329
 30
0.0
 11
6624.127507899638
 21
9463.243182432325
 31
0.0
  0
LINE
  5
1A045
330
19BD8
100
AcDbEntity
  8
SUNPOU
100
AcDbLine
 10
7009.127507899639
 20
9418.243182432325
 30
0.0
 11
6639.127507899639
 21
9418.243182432325
 31
0.0
  0
LINE
  5
1A046
330
19BD8
100
AcDbEntity
  8
SUNPOU
100
AcDbLine
 10
9834.127507899637
 20
9348.243182432328
 30
0.0
 11
9834.127507899637
 21
9463.243182432325
 31
0.0
  0
LINE
  5
1A047
330
19BD8
100
AcDbEntity
  8
SUNPOU
100
AcDbLine
 10
10234.12750789964
 20
9148.243182432329
 30
0.0
 11
10234.12750789964
 21
9463.243182432325
 31
0.0
  0
LINE
  5
1A048
330
19BD8
100
AcDbEntity
  8
SUNPOU
100
AcDbLine
 10
9849.127507899638
 20
9418.243182432325
 30
0.0
 11
10219.12750789964
 21
9418.243182432325
 31
0.0
  0
LINE
  5
1A049
330
19BD8
100
AcDbEntity
  8
SUNPOU
100
AcDbLine
 10
9404.127507899636
 20
9118.243182432328
 30
0.0
 11
9089.127507899638
 21
9118.243182432328
 31
0.0
  0
LINE
  5
1A04A
330
19BD8
100
AcDbEntity
  8
SUNPOU
100
AcDbLine
 10
9404.127507899636
 20
8318.243182432329
 30
0.0
 11
9089.127507899638
 21
8318.243182432329
 31
0.0
  0
LINE
  5
1A04B
330
19BD8
100
AcDbEntity
  8
SUNPOU
100
AcDbLine
 10
9134.12750789964
 20
9103.243182432326
 30
0.0
 11
9134.12750789964
 21
8333.243182432328
 31
0.0
  0
LINE
  5
1A04C
330
19BD8
100
AcDbEntity
  8
SUNPOU
100
AcDbLine
 10
9434.127507899637
 20
8288.24318243233
 30
0.0
 11
9434.127507899637
 21
7973.243182432326
 31
0.0
  0
LINE
  5
1A04D
330
19BD8
100
AcDbEntity
  8
SUNPOU
100
AcDbLine
 10
10234.12750789964
 20
8288.24318243233
 30
0.0
 11
10234.12750789964
 21
7973.243182432326
 31
0.0
  0
LINE
  5
1A04E
330
19BD8
100
AcDbEntity
  8
SUNPOU
100
AcDbLine
 10
9449.127507899637
 20
8018.243182432327
 30
0.0
 11
10219.12750789964
 21
8018.243182432327
 31
0.0
  0
TEXT
  5
1A04F
330
19BD8
100
AcDbEntity
  8
SUNPOU
100
AcDbText
 10
3835.443655266704
 20
2323.427696562459
 30
0.0
 40
90.0
  1
100
 50
90.0
 41
0.6666666666666666
  7
00
100
AcDbText
  0
LINE
  5
1A050
330
19BD8
100
AcDbEntity
  8
SUNPOU
100
AcDbLine
 10
3880.443655266704
 20
2557.534839419602
 30
0.0
 11
3880.443655266704
 21
2568.784839419602
 31
0.0
  0
LINE
  5
1A051
330
19BD8
100
AcDbEntity
  8
SUNPOU
100
AcDbLine
 10
3880.443655266704
 20
2695.034839419603
 30
0.0
 11
3880.443655266704
 21
2683.784839419603
 31
0.0
  0
TEXT
  5
1A052
330
19BD8
100
AcDbEntity
  8
SUNPOU
100
AcDbText
 10
3620.129893712837
 20
2915.77055370532
 30
0.0
 40
90.0
  1
560
 50
90.0
 41
0.6666666666666666
  7
00
100
AcDbText
  0
LINE
  5
1A053
330
19BD8
100
AcDbEntity
  8
SUNPOU
100
AcDbLine
 10
3665.129893712839
 20
3445.434839419608
 30
0.0
 11
3665.129893712839
 21
3434.184839419608
 31
0.0
  0
LINE
  5
1A054
330
19BD8
100
AcDbEntity
  8
SUNPOU
100
AcDbLine
 10
3665.129893712836
 20
2557.534839419602
 30
0.0
 11
3665.129893712836
 21
2568.784839419602
 31
0.0
  0
TEXT
  5
1A055
330
19BD8
100
AcDbEntity
  8
SUNPOU
100
AcDbText
 10
7615.76985579035
 20
2323.427696562461
 30
0.0
 40
90.0
  1
100
 50
90.0
 41
0.6666666666666666
  7
00
100
AcDbText
  0
LINE
  5
1A056
330
19BD8
100
AcDbEntity
  8
SUNPOU
100
AcDbLine
 10
7660.769855790352
 20
2557.534839419602
 30
0.0
 11
7660.769855790352
 21
2568.784839419602
 31
0.0
  0
LINE
  5
1A057
330
19BD8
100
AcDbEntity
  8
SUNPOU
100
AcDbLine
 10
7660.769855790352
 20
2695.034839419607
 30
0.0
 11
7660.769855790352
 21
2683.784839419607
 31
0.0
  0
TEXT
  5
1A058
330
19BD8
100
AcDbEntity
  8
SUNPOU
100
AcDbText
 10
7397.341352050445
 20
2915.770553705319
 30
0.0
 40
90.0
  1
560
 50
90.0
 41
0.6666666666666666
  7
00
100
AcDbText
  0
LINE
  5
1A059
330
19BD8
100
AcDbEntity
  8
SUNPOU
100
AcDbLine
 10
7442.341352050445
 20
3445.434839419604
 30
0.0
 11
7442.341352050445
 21
3434.184839419604
 31
0.0
  0
LINE
  5
1A05A
330
19BD8
100
AcDbEntity
  8
SUNPOU
100
AcDbLine
 10
7442.341352050445
 20
2557.534839419602
 30
0.0
 11
7442.341352050445
 21
2568.784839419602
 31
0.0
  0
TEXT
  5
1A05B
330
19BD8
100
AcDbEntity
  8
SUNPOU
100
AcDbText
 10
12268.40680314954
 20
3933.765608013134
 30
0.0
 40
90.0
  1
40
 50
90.0
 41
0.6666666666666666
  7
00
100
AcDbText
  0
LINE
  5
1A05C
330
19BD8
100
AcDbEntity
  8
SUNPOU
100
AcDbLine
 10
12313.40680314955
 20
3871.08703658456
 30
0.0
 11
12313.40680314955
 21
3859.83703658456
 31
0.0
  0
LINE
  5
1A05D
330
19BD8
100
AcDbEntity
  8
SUNPOU
100
AcDbLine
 10
12313.40680314955
 20
3733.58703658456
 30
0.0
 11
12313.40680314955
 21
3744.837036584561
 31
0.0
  0
TEXT
  5
1A05E
330
19BD8
100
AcDbEntity
  8
SUNPOU
100
AcDbText
 10
12268.40680314954
 20
3437.622750870279
 30
0.0
 40
90.0
  1
26
 50
90.0
 41
0.6666666666666666
  7
00
100
AcDbText
  0
LINE
  5
1A05F
330
19BD8
100
AcDbEntity
  8
SUNPOU
100
AcDbLine
 10
12313.40680314955
 20
3607.087036584561
 30
0.0
 11
12313.40680314955
 21
3595.837036584562
 31
0.0
  0
LINE
  5
1A060
330
19BD8
100
AcDbEntity
  8
SUNPOU
100
AcDbLine
 10
12313.40680314955
 20
3733.58703658456
 30
0.0
 11
12313.40680314955
 21
3744.837036584561
 31
0.0
  0
TEXT
  5
1A061
330
19BD8
100
AcDbEntity
  8
SUNPOU
100
AcDbText
 10
11967.76694549065
 20
2290.804976716086
 30
0.0
 40
90.0
  1
20
 41
0.6666666666666666
  7
00
100
AcDbText
  0
LINE
  5
1A062
330
19BD8
100
AcDbEntity
  8
SUNPOU
100
AcDbLine
 10
11912.58837406208
 20
2245.804976716085
 30
0.0
 11
11923.83837406209
 21
2245.804976716085
 31
0.0
  0
LINE
  5
1A063
330
19BD8
100
AcDbEntity
  8
SUNPOU
100
AcDbLine
 10
11810.08837406209
 20
2245.804976716085
 30
0.0
 11
11798.83837406209
 21
2245.804976716085
 31
0.0
  0
TEXT
  5
1A064
330
19BD8
100
AcDbEntity
  8
SUNPOU
100
AcDbText
 10
11451.33837406209
 20
2290.804976716086
 30
0.0
 40
90.0
  1
140
 41
0.6666666666666666
  7
00
100
AcDbText
  0
LINE
  5
1A065
330
19BD8
100
AcDbEntity
  8
SUNPOU
100
AcDbLine
 10
11810.08837406209
 20
2245.804976716085
 30
0.0
 11
11798.83837406209
 21
2245.804976716085
 31
0.0
  0
LINE
  5
1A066
330
19BD8
100
AcDbEntity
  8
SUNPOU
100
AcDbLine
 10
11272.5883740621
 20
2245.804976716085
 30
0.0
 11
11283.8383740621
 21
2245.804976716085
 31
0.0
  0
TEXT
  5
1A067
330
19BD8
100
AcDbEntity
  8
SUNPOU
100
AcDbText
 10
11000.6240883478
 20
2290.804976716086
 30
0.0
 40
90.0
  1
20
 41
0.6666666666666666
  7
00
100
AcDbText
  0
LINE
  5
1A068
330
19BD8
100
AcDbEntity
  8
SUNPOU
100
AcDbLine
 10
11170.08837406209
 20
2245.804976716085
 30
0.0
 11
11158.83837406209
 21
2245.804976716085
 31
0.0
  0
LINE
  5
1A069
330
19BD8
100
AcDbEntity
  8
SUNPOU
100
AcDbLine
 10
11272.5883740621
 20
2245.804976716085
 30
0.0
 11
11283.8383740621
 21
2245.804976716085
 31
0.0
  0
TEXT
  5
1A06A
330
19BD8
100
AcDbEntity
  8
SUNPOU
100
AcDbText
 10
11451.33837406208
 20
2080.804976716085
 30
0.0
 40
90.0
  1
180
 41
0.6666666666666666
  7
00
100
AcDbText
  0
LINE
  5
1A06B
330
19BD8
100
AcDbEntity
  8
SUNPOU
100
AcDbLine
 10
11890.08837406209
 20
2035.804976716086
 30
0.0
 11
11878.83837406209
 21
2035.804976716086
 31
0.0
  0
LINE
  5
1A06C
330
19BD8
100
AcDbEntity
  8
SUNPOU
100
AcDbLine
 10
11192.58837406209
 20
2035.804976716086
 30
0.0
 11
11203.83837406209
 21
2035.804976716086
 31
0.0
  0
TEXT
  5
1A06D
330
19BD8
100
AcDbEntity
  8
SUNPOU
100
AcDbText
 10
10873.33837406209
 20
2543.001486910295
 30
0.0
 40
90.0
  1
50
 50
90.0
 41
0.6666666666666666
  7
00
100
AcDbText
  0
LINE
  5
1A06E
330
19BD8
100
AcDbEntity
  8
SUNPOU
100
AcDbLine
 10
10918.33837406209
 20
2511.394344053149
 30
0.0
 11
10918.33837406209
 21
2522.644344053149
 31
0.0
  0
LINE
  5
1A06F
330
19BD8
100
AcDbEntity
  8
SUNPOU
100
AcDbLine
 10
10918.33837406209
 20
2688.894344053149
 30
0.0
 11
10918.33837406209
 21
2677.644344053149
 31
0.0
  0
TEXT
  5
1A070
330
19BD8
100
AcDbEntity
  8
SUNPOU
100
AcDbText
 10
10873.33837406209
 20
2743.001486910295
 30
0.0
 40
90.0
  1
50
 50
90.0
 41
0.6666666666666666
  7
00
100
AcDbText
  0
LINE
  5
1A071
330
19BD8
100
AcDbEntity
  8
SUNPOU
100
AcDbLine
 10
10918.33837406209
 20
2888.894344053149
 30
0.0
 11
10918.33837406209
 21
2877.644344053149
 31
0.0
  0
LINE
  5
1A072
330
19BD8
100
AcDbEntity
  8
SUNPOU
100
AcDbLine
 10
10918.33837406209
 20
2711.394344053149
 30
0.0
 11
10918.33837406209
 21
2722.644344053149
 31
0.0
  0
TEXT
  5
1A073
330
19BD8
100
AcDbEntity
  8
SUNPOU
100
AcDbText
 10
10663.33837406209
 20
2610.144344053151
 30
0.0
 40
90.0
  1
100
 50
90.0
 41
0.6666666666666666
  7
00
100
AcDbText
  0
LINE
  5
1A074
330
19BD8
100
AcDbEntity
  8
SUNPOU
100
AcDbLine
 10
10708.33837406208
 20
2888.894344053149
 30
0.0
 11
10708.33837406208
 21
2877.644344053149
 31
0.0
  0
LINE
  5
1A075
330
19BD8
100
AcDbEntity
  8
SUNPOU
100
AcDbLine
 10
10708.33837406208
 20
2511.394344053149
 30
0.0
 11
10708.33837406208
 21
2522.644344053149
 31
0.0
  0
TEXT
  5
1A076
330
19BD8
100
AcDbEntity
  8
SUNPOU
100
AcDbText
 10
11967.76694549065
 20
3439.170862655061
 30
0.0
 40
90.0
  1
20
 41
0.6666666666666666
  7
00
100
AcDbText
  0
LINE
  5
1A077
330
19BD8
100
AcDbEntity
  8
SUNPOU
100
AcDbLine
 10
11912.58837406208
 20
3394.17086265506
 30
0.0
 11
11923.83837406209
 21
3394.17086265506
 31
0.0
  0
LINE
  5
1A078
330
19BD8
100
AcDbEntity
  8
SUNPOU
100
AcDbLine
 10
11810.08837406209
 20
3394.17086265506
 30
0.0
 11
11798.83837406209
 21
3394.17086265506
 31
0.0
  0
TEXT
  5
1A079
330
19BD8
100
AcDbEntity
  8
SUNPOU
100
AcDbText
 10
11451.33837406208
 20
3439.170862655062
 30
0.0
 40
90.0
  1
140
 41
0.6666666666666666
  7
00
100
AcDbText
  0
LINE
  5
1A07A
330
19BD8
100
AcDbEntity
  8
SUNPOU
100
AcDbLine
 10
11810.08837406209
 20
3394.170862655061
 30
0.0
 11
11798.83837406209
 21
3394.170862655061
 31
0.0
  0
LINE
  5
1A07B
330
19BD8
100
AcDbEntity
  8
SUNPOU
100
AcDbLine
 10
11272.58837406209
 20
3394.170862655061
 30
0.0
 11
11283.83837406209
 21
3394.170862655061
 31
0.0
  0
TEXT
  5
1A07C
330
19BD8
100
AcDbEntity
  8
SUNPOU
100
AcDbText
 10
11000.62408834778
 20
3439.170862655061
 30
0.0
 40
90.0
  1
20
 41
0.6666666666666666
  7
00
100
AcDbText
  0
LINE
  5
1A07D
330
19BD8
100
AcDbEntity
  8
SUNPOU
100
AcDbLine
 10
11170.08837406207
 20
3394.17086265506
 30
0.0
 11
11158.83837406207
 21
3394.17086265506
 31
0.0
  0
LINE
  5
1A07E
330
19BD8
100
AcDbEntity
  8
SUNPOU
100
AcDbLine
 10
11272.58837406209
 20
3394.17086265506
 30
0.0
 11
11283.83837406209
 21
3394.17086265506
 31
0.0
  0
TEXT
  5
1A07F
330
19BD8
100
AcDbEntity
  8
SUNPOU
100
AcDbText
 10
11451.33837406207
 20
3229.170862655062
 30
0.0
 40
90.0
  1
180
 41
0.6666666666666666
  7
00
100
AcDbText
  0
LINE
  5
1A080
330
19BD8
100
AcDbEntity
  8
SUNPOU
100
AcDbLine
 10
11890.08837406209
 20
3184.170862655062
 30
0.0
 11
11878.83837406209
 21
3184.170862655062
 31
0.0
  0
LINE
  5
1A081
330
19BD8
100
AcDbEntity
  8
SUNPOU
100
AcDbLine
 10
11192.58837406208
 20
3184.170862655062
 30
0.0
 11
11203.83837406208
 21
3184.170862655062
 31
0.0
  0
TEXT
  5
1A082
330
19BD8
100
AcDbEntity
  8
SUNPOU
100
AcDbText
 10
8494.408966076823
 20
2193.684839419605
 30
0.0
 40
90.0
  1
800
 41
0.6666666666666666
  7
00
100
AcDbText
  0
LINE
  5
1A083
330
19BD8
100
AcDbEntity
  8
SUNPOU
100
AcDbLine
 10
9208.873251791109
 20
2148.684839419604
 30
0.0
 11
9197.623251791108
 21
2148.684839419604
 31
0.0
  0
LINE
  5
1A084
330
19BD8
100
AcDbEntity
  8
SUNPOU
100
AcDbLine
 10
7951.373251791109
 20
2148.684839419604
 30
0.0
 11
7962.623251791109
 21
2148.684839419604
 31
0.0
  0
TEXT
  5
1A085
330
19BD8
100
AcDbEntity
  8
SUNPOU
100
AcDbText
 10
8461.551823219677
 20
1983.684839419604
 30
0.0
 40
90.0
  1
1000
 41
0.6666666666666666
  7
00
100
AcDbText
  0
LINE
  5
1A086
330
19BD8
100
AcDbEntity
  8
SUNPOU
100
AcDbLine
 10
9368.873251791109
 20
1938.684839419604
 30
0.0
 11
9357.623251791109
 21
1938.684839419604
 31
0.0
  0
LINE
  5
1A087
330
19BD8
100
AcDbEntity
  8
SUNPOU
100
AcDbLine
 10
7791.373251791107
 20
1938.684839419604
 30
0.0
 11
7802.623251791108
 21
1938.684839419604
 31
0.0
  0
TEXT
  5
1A088
330
19BD8
100
AcDbEntity
  8
SUNPOU
100
AcDbText
 10
7195.769855790351
 20
3523.113410848177
 30
0.0
 40
90.0
  1
50
 50
90.0
 41
0.6666666666666666
  7
00
100
AcDbText
  0
LINE
  5
1A089
330
19BD8
100
AcDbEntity
  8
SUNPOU
100
AcDbLine
 10
7240.76985579035
 20
3467.934839419604
 30
0.0
 11
7240.76985579035
 21
3479.184839419604
 31
0.0
  0
LINE
  5
1A08A
330
19BD8
100
AcDbEntity
  8
SUNPOU
100
AcDbLine
 10
7240.76985579035
 20
3365.434839419608
 30
0.0
 11
7240.76985579035
 21
3354.184839419608
 31
0.0
  0
TEXT
  5
1A08B
330
19BD8
100
AcDbEntity
  8
SUNPOU
100
AcDbText
 10
7615.76985579035
 20
3193.141982276748
 30
0.0
 40
90.0
  1
80
 50
90.0
 41
0.6666666666666666
  7
00
100
AcDbText
  0
LINE
  5
1A08C
330
19BD8
100
AcDbEntity
  8
SUNPOU
100
AcDbLine
 10
7660.769855790352
 20
3197.534839419601
 30
0.0
 11
7660.769855790352
 21
3208.784839419601
 31
0.0
  0
LINE
  5
1A08D
330
19BD8
100
AcDbEntity
  8
SUNPOU
100
AcDbLine
 10
7660.769855790352
 20
3303.034839419606
 30
0.0
 11
7660.769855790352
 21
3291.784839419606
 31
0.0
  0
TEXT
  5
1A08E
330
19BD8
100
AcDbEntity
  8
SUNPOU
100
AcDbText
 10
7615.76985579035
 20
3508.113410848177
 30
0.0
 40
90.0
  1
80
 50
90.0
 41
0.6666666666666666
  7
00
100
AcDbText
  0
LINE
  5
1A08F
330
19BD8
100
AcDbEntity
  8
SUNPOU
100
AcDbLine
 10
7660.769855790352
 20
3445.434839419604
 30
0.0
 11
7660.769855790352
 21
3434.184839419604
 31
0.0
  0
LINE
  5
1A090
330
19BD8
100
AcDbEntity
  8
SUNPOU
100
AcDbLine
 10
7660.769855790352
 20
3325.534839419603
 30
0.0
 11
7660.769855790352
 21
3336.784839419602
 31
0.0
  0
TEXT
  5
1A091
330
19BD8
100
AcDbEntity
  8
SUNPOU
100
AcDbText
 10
7615.76985579035
 20
2860.57055370532
 30
0.0
 40
90.0
  1
300
 50
90.0
 41
0.6666666666666666
  7
00
100
AcDbText
  0
LINE
  5
1A092
330
19BD8
100
AcDbEntity
  8
SUNPOU
100
AcDbLine
 10
7660.769855790352
 20
3175.034839419601
 30
0.0
 11
7660.769855790352
 21
3163.784839419601
 31
0.0
  0
LINE
  5
1A093
330
19BD8
100
AcDbEntity
  8
SUNPOU
100
AcDbLine
 10
7660.769855790352
 20
2717.534839419607
 30
0.0
 11
7660.769855790352
 21
2728.784839419607
 31
0.0
  0
TEXT
  5
1A094
330
19BD8
100
AcDbEntity
  8
SUNPOU
100
AcDbText
 10
8334.408966076827
 20
4175.485411556194
 30
0.0
 40
90.0
  1
200
 41
0.6666666666666666
  7
00
100
AcDbText
  0
LINE
  5
1A095
330
19BD8
100
AcDbEntity
  8
SUNPOU
100
AcDbLine
 10
8271.373251791111
 20
4130.485411556196
 30
0.0
 11
8282.623251791111
 21
4130.485411556196
 31
0.0
  0
LINE
  5
1A096
330
19BD8
100
AcDbEntity
  8
SUNPOU
100
AcDbLine
 10
8568.87325179111
 20
4130.485411556196
 30
0.0
 11
8557.623251791111
 21
4130.485411556196
 31
0.0
  0
TEXT
  5
1A097
330
19BD8
100
AcDbEntity
  8
SUNPOU
100
AcDbText
 10
4714.082765553178
 20
2193.684839419601
 30
0.0
 40
90.0
  1
800
 41
0.6666666666666666
  7
00
100
AcDbText
  0
LINE
  5
1A098
330
19BD8
100
AcDbEntity
  8
SUNPOU
100
AcDbLine
 10
5428.547051267464
 20
2148.684839419601
 30
0.0
 11
5417.297051267464
 21
2148.684839419601
 31
0.0
  0
LINE
  5
1A099
330
19BD8
100
AcDbEntity
  8
SUNPOU
100
AcDbLine
 10
4171.047051267463
 20
2148.684839419601
 30
0.0
 11
4182.297051267464
 21
2148.684839419601
 31
0.0
  0
TEXT
  5
1A09A
330
19BD8
100
AcDbEntity
  8
SUNPOU
100
AcDbText
 10
4681.225622696032
 20
1983.6848394196
 30
0.0
 40
90.0
  1
1000
 41
0.6666666666666666
  7
00
100
AcDbText
  0
LINE
  5
1A09B
330
19BD8
100
AcDbEntity
  8
SUNPOU
100
AcDbLine
 10
5588.547051267462
 20
1938.6848394196
 30
0.0
 11
5577.297051267462
 21
1938.6848394196
 31
0.0
  0
LINE
  5
1A09C
330
19BD8
100
AcDbEntity
  8
SUNPOU
100
AcDbLine
 10
4011.047051267461
 20
1938.6848394196
 30
0.0
 11
4022.297051267463
 21
1938.6848394196
 31
0.0
  0
TEXT
  5
1A09D
330
19BD8
100
AcDbEntity
  8
SUNPOU
100
AcDbText
 10
3415.443655266705
 20
3523.113410848177
 30
0.0
 40
90.0
  1
50
 50
90.0
 41
0.6666666666666666
  7
00
100
AcDbText
  0
LINE
  5
1A09E
330
19BD8
100
AcDbEntity
  8
SUNPOU
100
AcDbLine
 10
3460.443655266704
 20
3467.934839419605
 30
0.0
 11
3460.443655266704
 21
3479.184839419605
 31
0.0
  0
LINE
  5
1A09F
330
19BD8
100
AcDbEntity
  8
SUNPOU
100
AcDbLine
 10
3460.443655266704
 20
3365.434839419604
 30
0.0
 11
3460.443655266704
 21
3354.184839419604
 31
0.0
  0
TEXT
  5
1A0A0
330
19BD8
100
AcDbEntity
  8
SUNPOU
100
AcDbText
 10
3835.443655266704
 20
3193.141982276742
 30
0.0
 40
90.0
  1
80
 50
90.0
 41
0.6666666666666666
  7
00
100
AcDbText
  0
LINE
  5
1A0A1
330
19BD8
100
AcDbEntity
  8
SUNPOU
100
AcDbLine
 10
3880.443655266705
 20
3197.534839419596
 30
0.0
 11
3880.443655266705
 21
3208.784839419597
 31
0.0
  0
LINE
  5
1A0A2
330
19BD8
100
AcDbEntity
  8
SUNPOU
100
AcDbLine
 10
3880.443655266705
 20
3303.034839419601
 30
0.0
 11
3880.443655266705
 21
3291.7848394196
 31
0.0
  0
TEXT
  5
1A0A3
330
19BD8
100
AcDbEntity
  8
SUNPOU
100
AcDbText
 10
3835.443655266704
 20
3508.113410848177
 30
0.0
 40
90.0
  1
80
 50
90.0
 41
0.6666666666666666
  7
00
100
AcDbText
  0
LINE
  5
1A0A4
330
19BD8
100
AcDbEntity
  8
SUNPOU
100
AcDbLine
 10
3880.443655266704
 20
3445.434839419605
 30
0.0
 11
3880.443655266704
 21
3434.184839419605
 31
0.0
  0
LINE
  5
1A0A5
330
19BD8
100
AcDbEntity
  8
SUNPOU
100
AcDbLine
 10
3880.443655266704
 20
3325.534839419603
 30
0.0
 11
3880.443655266704
 21
3336.784839419602
 31
0.0
  0
TEXT
  5
1A0A6
330
19BD8
100
AcDbEntity
  8
SUNPOU
100
AcDbText
 10
3835.443655266704
 20
2860.570553705313
 30
0.0
 40
90.0
  1
300
 50
90.0
 41
0.6666666666666666
  7
00
100
AcDbText
  0
LINE
  5
1A0A7
330
19BD8
100
AcDbEntity
  8
SUNPOU
100
AcDbLine
 10
3880.443655266704
 20
3175.034839419597
 30
0.0
 11
3880.443655266704
 21
3163.784839419597
 31
0.0
  0
LINE
  5
1A0A8
330
19BD8
100
AcDbEntity
  8
SUNPOU
100
AcDbLine
 10
3880.443655266704
 20
2717.534839419603
 30
0.0
 11
3880.443655266704
 21
2728.784839419603
 31
0.0
  0
TEXT
  5
1A0A9
330
19BD8
100
AcDbEntity
  8
SUNPOU
100
AcDbText
 10
4394.082765553178
 20
4175.485411556191
 30
0.0
 40
90.0
  1
400
 41
0.6666666666666666
  7
00
100
AcDbText
  0
LINE
  5
1A0AA
330
19BD8
100
AcDbEntity
  8
SUNPOU
100
AcDbLine
 10
4171.047051267463
 20
4130.485411556192
 30
0.0
 11
4182.297051267464
 21
4130.485411556192
 31
0.0
  0
LINE
  5
1A0AB
330
19BD8
100
AcDbEntity
  8
SUNPOU
100
AcDbLine
 10
4788.547051267463
 20
4130.485411556192
 30
0.0
 11
4777.297051267463
 21
4130.485411556192
 31
0.0
  0
TEXT
  5
1A0AC
330
19BD8
100
AcDbEntity
  8
SUNPOU
100
AcDbText
 10
11009.12750789962
 20
7698.957468146613
 30
0.0
 40
90.0
  1
2610
 50
90.0
 41
0.6666666666666666
  7
00
100
AcDbText
  0
LINE
  5
1A0AD
330
19BD8
100
AcDbEntity
  8
SUNPOU
100
AcDbLine
 10
11054.12750789964
 20
6519.493182432326
 30
0.0
 11
11054.12750789964
 21
6530.743182432328
 31
0.0
  0
LINE
  5
1A0AE
330
19BD8
100
AcDbEntity
  8
SUNPOU
100
AcDbLine
 10
11054.12750789964
 20
9106.993182432329
 30
0.0
 11
11054.12750789964
 21
9095.743182432325
 31
0.0
  0
TEXT
  5
1A0AF
330
19BD8
100
AcDbEntity
  8
SUNPOU
100
AcDbText
 10
10799.12750789963
 20
8832.528896718043
 30
0.0
 40
90.0
  1
400
 50
90.0
 41
0.6666666666666666
  7
00
100
AcDbText
  0
LINE
  5
1A0B0
330
19BD8
100
AcDbEntity
  8
SUNPOU
100
AcDbLine
 10
10844.12750789964
 20
9106.993182432329
 30
0.0
 11
10844.12750789964
 21
9095.743182432325
 31
0.0
  0
LINE
  5
1A0B1
330
19BD8
100
AcDbEntity
  8
SUNPOU
100
AcDbLine
 10
10844.12750789964
 20
8729.493182432328
 30
0.0
 11
10844.12750789964
 21
8740.743182432328
 31
0.0
  0
TEXT
  5
1A0B2
330
19BD8
100
AcDbEntity
  8
SUNPOU
100
AcDbText
 10
10799.12750789963
 20
7694.671753860901
 30
0.0
 40
90.0
  1
1810
 50
90.0
 41
0.6666666666666666
  7
00
100
AcDbText
  0
LINE
  5
1A0B3
330
19BD8
100
AcDbEntity
  8
SUNPOU
100
AcDbLine
 10
10844.12750789964
 20
8706.993182432329
 30
0.0
 11
10844.12750789964
 21
8695.743182432329
 31
0.0
  0
LINE
  5
1A0B4
330
19BD8
100
AcDbEntity
  8
SUNPOU
100
AcDbLine
 10
10844.12750789964
 20
6919.49318243233
 30
0.0
 11
10844.12750789964
 21
6930.74318243233
 31
0.0
  0
TEXT
  5
1A0B5
330
19BD8
100
AcDbEntity
  8
SUNPOU
100
AcDbText
 10
10799.12750789963
 20
6622.528896718044
 30
0.0
 40
90.0
  1
400
 50
90.0
 41
0.6666666666666666
  7
00
100
AcDbText
  0
LINE
  5
1A0B6
330
19BD8
100
AcDbEntity
  8
SUNPOU
100
AcDbLine
 10
10844.12750789964
 20
6896.993182432328
 30
0.0
 11
10844.12750789964
 21
6885.743182432327
 31
0.0
  0
LINE
  5
1A0B7
330
19BD8
100
AcDbEntity
  8
SUNPOU
100
AcDbLine
 10
10844.12750789964
 20
6519.493182432326
 30
0.0
 11
10844.12750789964
 21
6530.743182432328
 31
0.0
  0
TEXT
  5
1A0B8
330
19BD8
100
AcDbEntity
  8
SUNPOU
100
AcDbText
 10
10589.12750789964
 20
9169.671753860903
 30
0.0
 40
90.0
  1
200
 50
90.0
 41
0.6666666666666666
  7
00
100
AcDbText
  0
LINE
  5
1A0B9
330
19BD8
100
AcDbEntity
  8
SUNPOU
100
AcDbLine
 10
10634.12750789964
 20
9106.993182432329
 30
0.0
 11
10634.12750789964
 21
9095.743182432325
 31
0.0
  0
LINE
  5
1A0BA
330
19BD8
100
AcDbEntity
  8
SUNPOU
100
AcDbLine
 10
10634.12750789964
 20
8929.493182432329
 30
0.0
 11
10634.12750789964
 21
8940.743182432328
 31
0.0
  0
TEXT
  5
1A0BB
330
19BD8
100
AcDbEntity
  8
SUNPOU
100
AcDbText
 10
10589.12750789964
 20
8495.386039575185
 30
0.0
 40
90.0
  1
200
 50
90.0
 41
0.6666666666666666
  7
00
100
AcDbText
  0
LINE
  5
1A0BC
330
19BD8
100
AcDbEntity
  8
SUNPOU
100
AcDbLine
 10
10634.12750789964
 20
8729.493182432328
 30
0.0
 11
10634.12750789964
 21
8740.743182432328
 31
0.0
  0
LINE
  5
1A0BD
330
19BD8
100
AcDbEntity
  8
SUNPOU
100
AcDbLine
 10
10634.12750789964
 20
8906.993182432328
 30
0.0
 11
10634.12750789964
 21
8895.743182432328
 31
0.0
  0
TEXT
  5
1A0BE
330
19BD8
100
AcDbEntity
  8
SUNPOU
100
AcDbText
 10
8314.841793613926
 20
9673.243182432329
 30
0.0
 40
90.0
  1
3610
 41
0.6666666666666666
  7
00
100
AcDbText
  0
LINE
  5
1A0BF
330
19BD8
100
AcDbEntity
  8
SUNPOU
100
AcDbLine
 10
10222.87750789964
 20
9628.243182432328
 30
0.0
 11
10211.62750789964
 21
9628.243182432328
 31
0.0
  0
LINE
  5
1A0C0
330
19BD8
100
AcDbEntity
  8
SUNPOU
100
AcDbLine
 10
6635.377507899639
 20
9628.243182432328
 30
0.0
 11
6646.627507899639
 21
9628.243182432328
 31
0.0
  0
TEXT
  5
1A0C1
330
19BD8
100
AcDbEntity
  8
SUNPOU
100
AcDbText
 10
8314.841793613926
 20
9463.243182432325
 30
0.0
 40
90.0
  1
2810
 41
0.6666666666666666
  7
00
100
AcDbText
  0
LINE
  5
1A0C2
330
19BD8
100
AcDbEntity
  8
SUNPOU
100
AcDbLine
 10
7035.377507899639
 20
9418.243182432325
 30
0.0
 11
7046.627507899639
 21
9418.243182432325
 31
0.0
  0
LINE
  5
1A0C3
330
19BD8
100
AcDbEntity
  8
SUNPOU
100
AcDbLine
 10
9822.87750789964
 20
9418.243182432325
 30
0.0
 11
9811.627507899641
 21
9418.243182432325
 31
0.0
  0
TEXT
  5
1A0C4
330
19BD8
100
AcDbEntity
  8
SUNPOU
100
AcDbText
 10
6738.413222185354
 20
9463.243182432325
 30
0.0
 40
90.0
  1
400
 41
0.6666666666666666
  7
00
100
AcDbText
  0
LINE
  5
1A0C5
330
19BD8
100
AcDbEntity
  8
SUNPOU
100
AcDbLine
 10
6635.377507899639
 20
9418.243182432325
 30
0.0
 11
6646.627507899639
 21
9418.243182432325
 31
0.0
  0
LINE
  5
1A0C6
330
19BD8
100
AcDbEntity
  8
SUNPOU
100
AcDbLine
 10
7012.877507899638
 20
9418.243182432325
 30
0.0
 11
7001.627507899637
 21
9418.243182432325
 31
0.0
  0
TEXT
  5
1A0C7
330
19BD8
100
AcDbEntity
  8
SUNPOU
100
AcDbText
 10
9948.413222185353
 20
9463.243182432325
 30
0.0
 40
90.0
  1
400
 41
0.6666666666666666
  7
00
100
AcDbText
  0
LINE
  5
1A0C8
330
19BD8
100
AcDbEntity
  8
SUNPOU
100
AcDbLine
 10
10222.87750789964
 20
9418.243182432325
 30
0.0
 11
10211.62750789964
 21
9418.243182432325
 31
0.0
  0
LINE
  5
1A0C9
330
19BD8
100
AcDbEntity
  8
SUNPOU
100
AcDbLine
 10
9845.377507899637
 20
9418.243182432325
 30
0.0
 11
9856.627507899638
 21
9418.243182432325
 31
0.0
  0
TEXT
  5
1A0CA
330
19BD8
100
AcDbEntity
  8
SUNPOU
100
AcDbText
 10
9089.127507899638
 20
8632.528896718044
 30
0.0
 40
90.0
  1
800
 50
90.0
 41
0.6666666666666666
  7
00
100
AcDbText
  0
LINE
  5
1A0CB
330
19BD8
100
AcDbEntity
  8
SUNPOU
100
AcDbLine
 10
9134.12750789964
 20
8329.493182432328
 30
0.0
 11
9134.12750789964
 21
8340.743182432328
 31
0.0
  0
LINE
  5
1A0CC
330
19BD8
100
AcDbEntity
  8
SUNPOU
100
AcDbLine
 10
9134.12750789964
 20
9106.993182432329
 30
0.0
 11
9134.12750789964
 21
9095.743182432325
 31
0.0
  0
TEXT
  5
1A0CD
330
19BD8
100
AcDbEntity
  8
SUNPOU
100
AcDbText
 10
9748.413222185353
 20
8063.243182432326
 30
0.0
 40
90.0
  1
800
 41
0.6666666666666666
  7
00
100
AcDbText
  0
LINE
  5
1A0CE
330
19BD8
100
AcDbEntity
  8
SUNPOU
100
AcDbLine
 10
10222.87750789964
 20
8018.243182432327
 30
0.0
 11
10211.62750789964
 21
8018.243182432327
 31
0.0
  0
LINE
  5
1A0CF
330
19BD8
100
AcDbEntity
  8
SUNPOU
100
AcDbLine
 10
9445.377507899637
 20
8018.243182432327
 30
0.0
 11
9456.627507899638
 21
8018.243182432327
 31
0.0
  0
ARC
  5
1A0D0
330
19BD8
100
AcDbEntity
  8
SUNPOU
100
AcDbCircle
 10
3880.443655266704
 20
2546.284839419602
 30
0.0
 40
5.625
100
AcDbArc
 50
90.0
 51
270.0
  0
ARC
  5
1A0D1
330
19BD8
100
AcDbEntity
  8
SUNPOU
100
AcDbCircle
 10
3880.443655266704
 20
2546.284839419602
 30
0.0
 40
5.625
100
AcDbArc
 50
270.0
 51
90.0
  0
ARC
  5
1A0D2
330
19BD8
100
AcDbEntity
  8
SUNPOU
100
AcDbCircle
 10
3880.443655266704
 20
2706.284839419603
 30
0.0
 40
5.625
100
AcDbArc
 50
270.0
 51
90.0
  0
ARC
  5
1A0D3
330
19BD8
100
AcDbEntity
  8
SUNPOU
100
AcDbCircle
 10
3880.443655266704
 20
2706.284839419603
 30
0.0
 40
5.625
100
AcDbArc
 50
90.0
 51
270.0
  0
ARC
  5
1A0D4
330
19BD8
100
AcDbEntity
  8
SUNPOU
100
AcDbCircle
 10
3665.129893712839
 20
3456.684839419608
 30
0.0
 40
5.625
100
AcDbArc
 50
270.0
 51
90.0
  0
ARC
  5
1A0D5
330
19BD8
100
AcDbEntity
  8
SUNPOU
100
AcDbCircle
 10
3665.129893712839
 20
3456.684839419608
 30
0.0
 40
5.625
100
AcDbArc
 50
90.0
 51
270.0
  0
ARC
  5
1A0D6
330
19BD8
100
AcDbEntity
  8
SUNPOU
100
AcDbCircle
 10
3665.129893712836
 20
2546.284839419602
 30
0.0
 40
5.625
100
AcDbArc
 50
90.0
 51
270.0
  0
ARC
  5
1A0D7
330
19BD8
100
AcDbEntity
  8
SUNPOU
100
AcDbCircle
 10
3665.129893712836
 20
2546.284839419602
 30
0.0
 40
5.625
100
AcDbArc
 50
270.0
 51
90.0
  0
ARC
  5
1A0D8
330
19BD8
100
AcDbEntity
  8
SUNPOU
100
AcDbCircle
 10
7660.769855790352
 20
2546.284839419602
 30
0.0
 40
5.625
100
AcDbArc
 50
90.0
 51
270.0
  0
ARC
  5
1A0D9
330
19BD8
100
AcDbEntity
  8
SUNPOU
100
AcDbCircle
 10
7660.769855790352
 20
2546.284839419602
 30
0.0
 40
5.625
100
AcDbArc
 50
270.0
 51
90.0
  0
ARC
  5
1A0DA
330
19BD8
100
AcDbEntity
  8
SUNPOU
100
AcDbCircle
 10
7660.769855790352
 20
2706.284839419607
 30
0.0
 40
5.625
100
AcDbArc
 50
270.0
 51
90.0
  0
ARC
  5
1A0DB
330
19BD8
100
AcDbEntity
  8
SUNPOU
100
AcDbCircle
 10
7660.769855790352
 20
2706.284839419607
 30
0.0
 40
5.625
100
AcDbArc
 50
90.0
 51
270.0
  0
ARC
  5
1A0DC
330
19BD8
100
AcDbEntity
  8
SUNPOU
100
AcDbCircle
 10
7442.341352050445
 20
3456.684839419605
 30
0.0
 40
5.625
100
AcDbArc
 50
270.0
 51
90.0
  0
ARC
  5
1A0DD
330
19BD8
100
AcDbEntity
  8
SUNPOU
100
AcDbCircle
 10
7442.341352050445
 20
3456.684839419605
 30
0.0
 40
5.625
100
AcDbArc
 50
90.0
 51
270.0
  0
ARC
  5
1A0DE
330
19BD8
100
AcDbEntity
  8
SUNPOU
100
AcDbCircle
 10
7442.341352050445
 20
2546.284839419602
 30
0.0
 40
5.625
100
AcDbArc
 50
90.0
 51
270.0
  0
ARC
  5
1A0DF
330
19BD8
100
AcDbEntity
  8
SUNPOU
100
AcDbCircle
 10
7442.341352050445
 20
2546.284839419602
 30
0.0
 40
5.625
100
AcDbArc
 50
270.0
 51
90.0
  0
ARC
  5
1A0E0
330
19BD8
100
AcDbEntity
  8
SUNPOU
100
AcDbCircle
 10
12313.40680314955
 20
3882.337036584561
 30
0.0
 40
5.625
100
AcDbArc
 50
270.0
 51
90.0
  0
ARC
  5
1A0E1
330
19BD8
100
AcDbEntity
  8
SUNPOU
100
AcDbCircle
 10
12313.40680314955
 20
3882.337036584561
 30
0.0
 40
5.625
100
AcDbArc
 50
90.0
 51
270.0
  0
ARC
  5
1A0E2
330
19BD8
100
AcDbEntity
  8
SUNPOU
100
AcDbCircle
 10
12313.40680314955
 20
3722.337036584561
 30
0.0
 40
5.625
100
AcDbArc
 50
90.0
 51
270.0
  0
ARC
  5
1A0E3
330
19BD8
100
AcDbEntity
  8
SUNPOU
100
AcDbCircle
 10
12313.40680314955
 20
3722.337036584561
 30
0.0
 40
5.625
100
AcDbArc
 50
270.0
 51
90.0
  0
ARC
  5
1A0E4
330
19BD8
100
AcDbEntity
  8
SUNPOU
100
AcDbCircle
 10
12313.40680314955
 20
3618.337036584563
 30
0.0
 40
5.625
100
AcDbArc
 50
270.0
 51
90.0
  0
ARC
  5
1A0E5
330
19BD8
100
AcDbEntity
  8
SUNPOU
100
AcDbCircle
 10
12313.40680314955
 20
3618.337036584563
 30
0.0
 40
5.625
100
AcDbArc
 50
90.0
 51
270.0
  0
ARC
  5
1A0E6
330
19BD8
100
AcDbEntity
  8
SUNPOU
100
AcDbCircle
 10
12313.40680314955
 20
3722.337036584561
 30
0.0
 40
5.625
100
AcDbArc
 50
90.0
 51
270.0
  0
ARC
  5
1A0E7
330
19BD8
100
AcDbEntity
  8
SUNPOU
100
AcDbCircle
 10
12313.40680314955
 20
3722.337036584561
 30
0.0
 40
5.625
100
AcDbArc
 50
270.0
 51
90.0
  0
ARC
  5
1A0E8
330
19BD8
100
AcDbEntity
  8
SUNPOU
100
AcDbCircle
 10
11901.33837406209
 20
2245.804976716085
 30
0.0
 40
5.625
100
AcDbArc
 50
0.0
 51
180.0
  0
ARC
  5
1A0E9
330
19BD8
100
AcDbEntity
  8
SUNPOU
100
AcDbCircle
 10
11901.33837406209
 20
2245.804976716085
 30
0.0
 40
5.625
100
AcDbArc
 50
180.0
 51
0.0
  0
ARC
  5
1A0EA
330
19BD8
100
AcDbEntity
  8
SUNPOU
100
AcDbCircle
 10
11821.33837406209
 20
2245.804976716085
 30
0.0
 40
5.625
100
AcDbArc
 50
180.0
 51
0.0
  0
ARC
  5
1A0EB
330
19BD8
100
AcDbEntity
  8
SUNPOU
100
AcDbCircle
 10
11821.33837406209
 20
2245.804976716085
 30
0.0
 40
5.625
100
AcDbArc
 50
0.0
 51
180.0
  0
ARC
  5
1A0EC
330
19BD8
100
AcDbEntity
  8
SUNPOU
100
AcDbCircle
 10
11821.33837406209
 20
2245.804976716085
 30
0.0
 40
5.625
100
AcDbArc
 50
180.0
 51
0.0
  0
ARC
  5
1A0ED
330
19BD8
100
AcDbEntity
  8
SUNPOU
100
AcDbCircle
 10
11821.33837406209
 20
2245.804976716085
 30
0.0
 40
5.625
100
AcDbArc
 50
0.0
 51
180.0
  0
ARC
  5
1A0EE
330
19BD8
100
AcDbEntity
  8
SUNPOU
100
AcDbCircle
 10
11261.33837406209
 20
2245.804976716085
 30
0.0
 40
5.625
100
AcDbArc
 50
0.0
 51
180.0
  0
ARC
  5
1A0EF
330
19BD8
100
AcDbEntity
  8
SUNPOU
100
AcDbCircle
 10
11261.33837406209
 20
2245.804976716085
 30
0.0
 40
5.625
100
AcDbArc
 50
180.0
 51
0.0
  0
ARC
  5
1A0F0
330
19BD8
100
AcDbEntity
  8
SUNPOU
100
AcDbCircle
 10
11181.33837406209
 20
2245.804976716085
 30
0.0
 40
5.625
100
AcDbArc
 50
180.0
 51
0.0
  0
ARC
  5
1A0F1
330
19BD8
100
AcDbEntity
  8
SUNPOU
100
AcDbCircle
 10
11181.33837406209
 20
2245.804976716085
 30
0.0
 40
5.625
100
AcDbArc
 50
0.0
 51
180.0
  0
ARC
  5
1A0F2
330
19BD8
100
AcDbEntity
  8
SUNPOU
100
AcDbCircle
 10
11261.33837406209
 20
2245.804976716085
 30
0.0
 40
5.625
100
AcDbArc
 50
0.0
 51
180.0
  0
ARC
  5
1A0F3
330
19BD8
100
AcDbEntity
  8
SUNPOU
100
AcDbCircle
 10
11261.33837406209
 20
2245.804976716085
 30
0.0
 40
5.625
100
AcDbArc
 50
180.0
 51
0.0
  0
ARC
  5
1A0F4
330
19BD8
100
AcDbEntity
  8
SUNPOU
100
AcDbCircle
 10
11901.33837406209
 20
2035.804976716086
 30
0.0
 40
5.625
100
AcDbArc
 50
180.0
 51
0.0
  0
ARC
  5
1A0F5
330
19BD8
100
AcDbEntity
  8
SUNPOU
100
AcDbCircle
 10
11901.33837406209
 20
2035.804976716086
 30
0.0
 40
5.625
100
AcDbArc
 50
0.0
 51
180.0
  0
ARC
  5
1A0F6
330
19BD8
100
AcDbEntity
  8
SUNPOU
100
AcDbCircle
 10
11181.33837406209
 20
2035.804976716086
 30
0.0
 40
5.625
100
AcDbArc
 50
0.0
 51
180.0
  0
ARC
  5
1A0F7
330
19BD8
100
AcDbEntity
  8
SUNPOU
100
AcDbCircle
 10
11181.33837406209
 20
2035.804976716086
 30
0.0
 40
5.625
100
AcDbArc
 50
180.0
 51
0.0
  0
ARC
  5
1A0F8
330
19BD8
100
AcDbEntity
  8
SUNPOU
100
AcDbCircle
 10
10918.33837406209
 20
2500.144344053149
 30
0.0
 40
5.625
100
AcDbArc
 50
90.0
 51
270.0
  0
ARC
  5
1A0F9
330
19BD8
100
AcDbEntity
  8
SUNPOU
100
AcDbCircle
 10
10918.33837406209
 20
2500.144344053149
 30
0.0
 40
5.625
100
AcDbArc
 50
270.0
 51
90.0
  0
ARC
  5
1A0FA
330
19BD8
100
AcDbEntity
  8
SUNPOU
100
AcDbCircle
 10
10918.33837406209
 20
2700.144344053149
 30
0.0
 40
5.625
100
AcDbArc
 50
270.0
 51
90.0
  0
ARC
  5
1A0FB
330
19BD8
100
AcDbEntity
  8
SUNPOU
100
AcDbCircle
 10
10918.33837406209
 20
2700.144344053149
 30
0.0
 40
5.625
100
AcDbArc
 50
90.0
 51
270.0
  0
ARC
  5
1A0FC
330
19BD8
100
AcDbEntity
  8
SUNPOU
100
AcDbCircle
 10
10918.33837406209
 20
2900.144344053149
 30
0.0
 40
5.625
100
AcDbArc
 50
270.0
 51
90.0
  0
ARC
  5
1A0FD
330
19BD8
100
AcDbEntity
  8
SUNPOU
100
AcDbCircle
 10
10918.33837406209
 20
2900.144344053149
 30
0.0
 40
5.625
100
AcDbArc
 50
90.0
 51
270.0
  0
ARC
  5
1A0FE
330
19BD8
100
AcDbEntity
  8
SUNPOU
100
AcDbCircle
 10
10918.33837406209
 20
2700.144344053149
 30
0.0
 40
5.625
100
AcDbArc
 50
90.0
 51
270.0
  0
ARC
  5
1A0FF
330
19BD8
100
AcDbEntity
  8
SUNPOU
100
AcDbCircle
 10
10918.33837406209
 20
2700.144344053149
 30
0.0
 40
5.625
100
AcDbArc
 50
270.0
 51
90.0
  0
ARC
  5
1A100
330
19BD8
100
AcDbEntity
  8
SUNPOU
100
AcDbCircle
 10
10708.33837406208
 20
2900.144344053149
 30
0.0
 40
5.625
100
AcDbArc
 50
270.0
 51
90.0
  0
ARC
  5
1A101
330
19BD8
100
AcDbEntity
  8
SUNPOU
100
AcDbCircle
 10
10708.33837406208
 20
2900.144344053149
 30
0.0
 40
5.625
100
AcDbArc
 50
90.0
 51
270.0
  0
ARC
  5
1A102
330
19BD8
100
AcDbEntity
  8
SUNPOU
100
AcDbCircle
 10
10708.33837406208
 20
2500.144344053149
 30
0.0
 40
5.625
100
AcDbArc
 50
90.0
 51
270.0
  0
ARC
  5
1A103
330
19BD8
100
AcDbEntity
  8
SUNPOU
100
AcDbCircle
 10
10708.33837406208
 20
2500.144344053149
 30
0.0
 40
5.625
100
AcDbArc
 50
270.0
 51
90.0
  0
ARC
  5
1A104
330
19BD8
100
AcDbEntity
  8
SUNPOU
100
AcDbCircle
 10
11901.33837406209
 20
3394.17086265506
 30
0.0
 40
5.625
100
AcDbArc
 50
0.0
 51
180.0
  0
ARC
  5
1A105
330
19BD8
100
AcDbEntity
  8
SUNPOU
100
AcDbCircle
 10
11901.33837406209
 20
3394.17086265506
 30
0.0
 40
5.625
100
AcDbArc
 50
180.0
 51
0.0
  0
ARC
  5
1A106
330
19BD8
100
AcDbEntity
  8
SUNPOU
100
AcDbCircle
 10
11821.33837406209
 20
3394.17086265506
 30
0.0
 40
5.625
100
AcDbArc
 50
180.0
 51
0.0
  0
ARC
  5
1A107
330
19BD8
100
AcDbEntity
  8
SUNPOU
100
AcDbCircle
 10
11821.33837406209
 20
3394.17086265506
 30
0.0
 40
5.625
100
AcDbArc
 50
0.0
 51
180.0
  0
ARC
  5
1A108
330
19BD8
100
AcDbEntity
  8
SUNPOU
100
AcDbCircle
 10
11821.33837406209
 20
3394.170862655061
 30
0.0
 40
5.625
100
AcDbArc
 50
180.0
 51
0.0
  0
ARC
  5
1A109
330
19BD8
100
AcDbEntity
  8
SUNPOU
100
AcDbCircle
 10
11821.33837406209
 20
3394.170862655061
 30
0.0
 40
5.625
100
AcDbArc
 50
0.0
 51
180.0
  0
ARC
  5
1A10A
330
19BD8
100
AcDbEntity
  8
SUNPOU
100
AcDbCircle
 10
11261.33837406209
 20
3394.170862655061
 30
0.0
 40
5.625
100
AcDbArc
 50
0.0
 51
180.0
  0
ARC
  5
1A10B
330
19BD8
100
AcDbEntity
  8
SUNPOU
100
AcDbCircle
 10
11261.33837406209
 20
3394.170862655061
 30
0.0
 40
5.625
100
AcDbArc
 50
180.0
 51
0.0
  0
ARC
  5
1A10C
330
19BD8
100
AcDbEntity
  8
SUNPOU
100
AcDbCircle
 10
11181.33837406207
 20
3394.17086265506
 30
0.0
 40
5.625
100
AcDbArc
 50
180.0
 51
0.0
  0
ARC
  5
1A10D
330
19BD8
100
AcDbEntity
  8
SUNPOU
100
AcDbCircle
 10
11181.33837406207
 20
3394.17086265506
 30
0.0
 40
5.625
100
AcDbArc
 50
0.0
 51
180.0
  0
ARC
  5
1A10E
330
19BD8
100
AcDbEntity
  8
SUNPOU
100
AcDbCircle
 10
11261.33837406209
 20
3394.17086265506
 30
0.0
 40
5.625
100
AcDbArc
 50
0.0
 51
180.0
  0
ARC
  5
1A10F
330
19BD8
100
AcDbEntity
  8
SUNPOU
100
AcDbCircle
 10
11261.33837406209
 20
3394.17086265506
 30
0.0
 40
5.625
100
AcDbArc
 50
180.0
 51
0.0
  0
ARC
  5
1A110
330
19BD8
100
AcDbEntity
  8
SUNPOU
100
AcDbCircle
 10
11901.33837406209
 20
3184.170862655062
 30
0.0
 40
5.625
100
AcDbArc
 50
180.0
 51
0.0
  0
ARC
  5
1A111
330
19BD8
100
AcDbEntity
  8
SUNPOU
100
AcDbCircle
 10
11901.33837406209
 20
3184.170862655062
 30
0.0
 40
5.625
100
AcDbArc
 50
0.0
 51
180.0
  0
ARC
  5
1A112
330
19BD8
100
AcDbEntity
  8
SUNPOU
100
AcDbCircle
 10
11181.33837406207
 20
3184.170862655062
 30
0.0
 40
5.625
100
AcDbArc
 50
0.0
 51
180.0
  0
ARC
  5
1A113
330
19BD8
100
AcDbEntity
  8
SUNPOU
100
AcDbCircle
 10
11181.33837406207
 20
3184.170862655062
 30
0.0
 40
5.625
100
AcDbArc
 50
180.0
 51
0.0
  0
ARC
  5
1A114
330
19BD8
100
AcDbEntity
  8
SUNPOU
100
AcDbCircle
 10
9220.123251791108
 20
2148.684839419604
 30
0.0
 40
5.625
100
AcDbArc
 50
180.0
 51
0.0
  0
ARC
  5
1A115
330
19BD8
100
AcDbEntity
  8
SUNPOU
100
AcDbCircle
 10
9220.123251791108
 20
2148.684839419604
 30
0.0
 40
5.625
100
AcDbArc
 50
0.0
 51
180.0
  0
ARC
  5
1A116
330
19BD8
100
AcDbEntity
  8
SUNPOU
100
AcDbCircle
 10
7940.12325179111
 20
2148.684839419604
 30
0.0
 40
5.625
100
AcDbArc
 50
0.0
 51
180.0
  0
ARC
  5
1A117
330
19BD8
100
AcDbEntity
  8
SUNPOU
100
AcDbCircle
 10
7940.12325179111
 20
2148.684839419604
 30
0.0
 40
5.625
100
AcDbArc
 50
180.0
 51
0.0
  0
ARC
  5
1A118
330
19BD8
100
AcDbEntity
  8
SUNPOU
100
AcDbCircle
 10
9380.123251791109
 20
1938.684839419604
 30
0.0
 40
5.625
100
AcDbArc
 50
180.0
 51
0.0
  0
ARC
  5
1A119
330
19BD8
100
AcDbEntity
  8
SUNPOU
100
AcDbCircle
 10
9380.123251791109
 20
1938.684839419604
 30
0.0
 40
5.625
100
AcDbArc
 50
0.0
 51
180.0
  0
ARC
  5
1A11A
330
19BD8
100
AcDbEntity
  8
SUNPOU
100
AcDbCircle
 10
7780.123251791109
 20
1938.684839419604
 30
0.0
 40
5.625
100
AcDbArc
 50
0.0
 51
180.0
  0
ARC
  5
1A11B
330
19BD8
100
AcDbEntity
  8
SUNPOU
100
AcDbCircle
 10
7780.123251791109
 20
1938.684839419604
 30
0.0
 40
5.625
100
AcDbArc
 50
180.0
 51
0.0
  0
ARC
  5
1A11C
330
19BD8
100
AcDbEntity
  8
SUNPOU
100
AcDbCircle
 10
7240.76985579035
 20
3456.684839419605
 30
0.0
 40
5.625
100
AcDbArc
 50
90.0
 51
270.0
  0
ARC
  5
1A11D
330
19BD8
100
AcDbEntity
  8
SUNPOU
100
AcDbCircle
 10
7240.76985579035
 20
3456.684839419605
 30
0.0
 40
5.625
100
AcDbArc
 50
270.0
 51
90.0
  0
ARC
  5
1A11E
330
19BD8
100
AcDbEntity
  8
SUNPOU
100
AcDbCircle
 10
7240.76985579035
 20
3376.684839419608
 30
0.0
 40
5.625
100
AcDbArc
 50
270.0
 51
90.0
  0
ARC
  5
1A11F
330
19BD8
100
AcDbEntity
  8
SUNPOU
100
AcDbCircle
 10
7240.76985579035
 20
3376.684839419608
 30
0.0
 40
5.625
100
AcDbArc
 50
90.0
 51
270.0
  0
ARC
  5
1A120
330
19BD8
100
AcDbEntity
  8
SUNPOU
100
AcDbCircle
 10
7660.769855790352
 20
3186.284839419601
 30
0.0
 40
5.625
100
AcDbArc
 50
90.0
 51
270.0
  0
ARC
  5
1A121
330
19BD8
100
AcDbEntity
  8
SUNPOU
100
AcDbCircle
 10
7660.769855790352
 20
3186.284839419601
 30
0.0
 40
5.625
100
AcDbArc
 50
270.0
 51
90.0
  0
ARC
  5
1A122
330
19BD8
100
AcDbEntity
  8
SUNPOU
100
AcDbCircle
 10
7660.769855790352
 20
3314.284839419605
 30
0.0
 40
5.625
100
AcDbArc
 50
270.0
 51
90.0
  0
ARC
  5
1A123
330
19BD8
100
AcDbEntity
  8
SUNPOU
100
AcDbCircle
 10
7660.769855790352
 20
3314.284839419605
 30
0.0
 40
5.625
100
AcDbArc
 50
90.0
 51
270.0
  0
ARC
  5
1A124
330
19BD8
100
AcDbEntity
  8
SUNPOU
100
AcDbCircle
 10
7660.769855790352
 20
3456.684839419605
 30
0.0
 40
5.625
100
AcDbArc
 50
270.0
 51
90.0
  0
ARC
  5
1A125
330
19BD8
100
AcDbEntity
  8
SUNPOU
100
AcDbCircle
 10
7660.769855790352
 20
3456.684839419605
 30
0.0
 40
5.625
100
AcDbArc
 50
90.0
 51
270.0
  0
ARC
  5
1A126
330
19BD8
100
AcDbEntity
  8
SUNPOU
100
AcDbCircle
 10
7660.769855790352
 20
3314.284839419603
 30
0.0
 40
5.625
100
AcDbArc
 50
90.0
 51
270.0
  0
ARC
  5
1A127
330
19BD8
100
AcDbEntity
  8
SUNPOU
100
AcDbCircle
 10
7660.769855790352
 20
3314.284839419603
 30
0.0
 40
5.625
100
AcDbArc
 50
270.0
 51
90.0
  0
ARC
  5
1A128
330
19BD8
100
AcDbEntity
  8
SUNPOU
100
AcDbCircle
 10
7660.769855790352
 20
3186.284839419601
 30
0.0
 40
5.625
100
AcDbArc
 50
270.0
 51
90.0
  0
ARC
  5
1A129
330
19BD8
100
AcDbEntity
  8
SUNPOU
100
AcDbCircle
 10
7660.769855790352
 20
3186.284839419601
 30
0.0
 40
5.625
100
AcDbArc
 50
90.0
 51
270.0
  0
ARC
  5
1A12A
330
19BD8
100
AcDbEntity
  8
SUNPOU
100
AcDbCircle
 10
7660.769855790352
 20
2706.284839419607
 30
0.0
 40
5.625
100
AcDbArc
 50
90.0
 51
270.0
  0
ARC
  5
1A12B
330
19BD8
100
AcDbEntity
  8
SUNPOU
100
AcDbCircle
 10
7660.769855790352
 20
2706.284839419607
 30
0.0
 40
5.625
100
AcDbArc
 50
270.0
 51
90.0
  0
ARC
  5
1A12C
330
19BD8
100
AcDbEntity
  8
SUNPOU
100
AcDbCircle
 10
8260.12325179111
 20
4130.485411556196
 30
0.0
 40
5.625
100
AcDbArc
 50
0.0
 51
180.0
  0
ARC
  5
1A12D
330
19BD8
100
AcDbEntity
  8
SUNPOU
100
AcDbCircle
 10
8260.12325179111
 20
4130.485411556196
 30
0.0
 40
5.625
100
AcDbArc
 50
180.0
 51
0.0
  0
ARC
  5
1A12E
330
19BD8
100
AcDbEntity
  8
SUNPOU
100
AcDbCircle
 10
8580.123251791111
 20
4130.485411556196
 30
0.0
 40
5.625
100
AcDbArc
 50
180.0
 51
0.0
  0
ARC
  5
1A12F
330
19BD8
100
AcDbEntity
  8
SUNPOU
100
AcDbCircle
 10
8580.123251791111
 20
4130.485411556196
 30
0.0
 40
5.625
100
AcDbArc
 50
0.0
 51
180.0
  0
ARC
  5
1A130
330
19BD8
100
AcDbEntity
  8
SUNPOU
100
AcDbCircle
 10
5439.797051267464
 20
2148.684839419601
 30
0.0
 40
5.625
100
AcDbArc
 50
180.0
 51
0.0
  0
ARC
  5
1A131
330
19BD8
100
AcDbEntity
  8
SUNPOU
100
AcDbCircle
 10
5439.797051267464
 20
2148.684839419601
 30
0.0
 40
5.625
100
AcDbArc
 50
0.0
 51
180.0
  0
ARC
  5
1A132
330
19BD8
100
AcDbEntity
  8
SUNPOU
100
AcDbCircle
 10
4159.797051267463
 20
2148.684839419601
 30
0.0
 40
5.625
100
AcDbArc
 50
0.0
 51
180.0
  0
ARC
  5
1A133
330
19BD8
100
AcDbEntity
  8
SUNPOU
100
AcDbCircle
 10
4159.797051267463
 20
2148.684839419601
 30
0.0
 40
5.625
100
AcDbArc
 50
180.0
 51
0.0
  0
ARC
  5
1A134
330
19BD8
100
AcDbEntity
  8
SUNPOU
100
AcDbCircle
 10
5599.797051267461
 20
1938.6848394196
 30
0.0
 40
5.625
100
AcDbArc
 50
180.0
 51
0.0
  0
ARC
  5
1A135
330
19BD8
100
AcDbEntity
  8
SUNPOU
100
AcDbCircle
 10
5599.797051267461
 20
1938.6848394196
 30
0.0
 40
5.625
100
AcDbArc
 50
0.0
 51
180.0
  0
ARC
  5
1A136
330
19BD8
100
AcDbEntity
  8
SUNPOU
100
AcDbCircle
 10
3999.797051267462
 20
1938.6848394196
 30
0.0
 40
5.625
100
AcDbArc
 50
0.0
 51
180.0
  0
ARC
  5
1A137
330
19BD8
100
AcDbEntity
  8
SUNPOU
100
AcDbCircle
 10
3999.797051267462
 20
1938.6848394196
 30
0.0
 40
5.625
100
AcDbArc
 50
180.0
 51
0.0
  0
ARC
  5
1A138
330
19BD8
100
AcDbEntity
  8
SUNPOU
100
AcDbCircle
 10
3460.443655266704
 20
3456.684839419605
 30
0.0
 40
5.625
100
AcDbArc
 50
90.0
 51
270.0
  0
ARC
  5
1A139
330
19BD8
100
AcDbEntity
  8
SUNPOU
100
AcDbCircle
 10
3460.443655266704
 20
3456.684839419605
 30
0.0
 40
5.625
100
AcDbArc
 50
270.0
 51
90.0
  0
ARC
  5
1A13A
330
19BD8
100
AcDbEntity
  8
SUNPOU
100
AcDbCircle
 10
3460.443655266704
 20
3376.684839419604
 30
0.0
 40
5.625
100
AcDbArc
 50
270.0
 51
90.0
  0
ARC
  5
1A13B
330
19BD8
100
AcDbEntity
  8
SUNPOU
100
AcDbCircle
 10
3460.443655266704
 20
3376.684839419604
 30
0.0
 40
5.625
100
AcDbArc
 50
90.0
 51
270.0
  0
ARC
  5
1A13C
330
19BD8
100
AcDbEntity
  8
SUNPOU
100
AcDbCircle
 10
3880.443655266705
 20
3186.284839419597
 30
0.0
 40
5.625
100
AcDbArc
 50
90.0
 51
270.0
  0
ARC
  5
1A13D
330
19BD8
100
AcDbEntity
  8
SUNPOU
100
AcDbCircle
 10
3880.443655266705
 20
3186.284839419597
 30
0.0
 40
5.625
100
AcDbArc
 50
270.0
 51
90.0
  0
ARC
  5
1A13E
330
19BD8
100
AcDbEntity
  8
SUNPOU
100
AcDbCircle
 10
3880.443655266705
 20
3314.284839419601
 30
0.0
 40
5.625
100
AcDbArc
 50
270.0
 51
90.0
  0
ARC
  5
1A13F
330
19BD8
100
AcDbEntity
  8
SUNPOU
100
AcDbCircle
 10
3880.443655266705
 20
3314.284839419601
 30
0.0
 40
5.625
100
AcDbArc
 50
90.0
 51
270.0
  0
ARC
  5
1A140
330
19BD8
100
AcDbEntity
  8
SUNPOU
100
AcDbCircle
 10
3880.443655266704
 20
3456.684839419605
 30
0.0
 40
5.625
100
AcDbArc
 50
270.0
 51
90.0
  0
ARC
  5
1A141
330
19BD8
100
AcDbEntity
  8
SUNPOU
100
AcDbCircle
 10
3880.443655266704
 20
3456.684839419605
 30
0.0
 40
5.625
100
AcDbArc
 50
90.0
 51
270.0
  0
ARC
  5
1A142
330
19BD8
100
AcDbEntity
  8
SUNPOU
100
AcDbCircle
 10
3880.443655266704
 20
3314.284839419603
 30
0.0
 40
5.625
100
AcDbArc
 50
90.0
 51
270.0
  0
ARC
  5
1A143
330
19BD8
100
AcDbEntity
  8
SUNPOU
100
AcDbCircle
 10
3880.443655266704
 20
3314.284839419603
 30
0.0
 40
5.625
100
AcDbArc
 50
270.0
 51
90.0
  0
ARC
  5
1A144
330
19BD8
100
AcDbEntity
  8
SUNPOU
100
AcDbCircle
 10
3880.443655266704
 20
3186.284839419597
 30
0.0
 40
5.625
100
AcDbArc
 50
270.0
 51
90.0
  0
ARC
  5
1A145
330
19BD8
100
AcDbEntity
  8
SUNPOU
100
AcDbCircle
 10
3880.443655266704
 20
3186.284839419597
 30
0.0
 40
5.625
100
AcDbArc
 50
90.0
 51
270.0
  0
ARC
  5
1A146
330
19BD8
100
AcDbEntity
  8
SUNPOU
100
AcDbCircle
 10
3880.443655266704
 20
2706.284839419603
 30
0.0
 40
5.625
100
AcDbArc
 50
90.0
 51
270.0
  0
ARC
  5
1A147
330
19BD8
100
AcDbEntity
  8
SUNPOU
100
AcDbCircle
 10
3880.443655266704
 20
2706.284839419603
 30
0.0
 40
5.625
100
AcDbArc
 50
270.0
 51
90.0
  0
ARC
  5
1A148
330
19BD8
100
AcDbEntity
  8
SUNPOU
100
AcDbCircle
 10
4159.797051267463
 20
4130.485411556192
 30
0.0
 40
5.625
100
AcDbArc
 50
0.0
 51
180.0
  0
ARC
  5
1A149
330
19BD8
100
AcDbEntity
  8
SUNPOU
100
AcDbCircle
 10
4159.797051267463
 20
4130.485411556192
 30
0.0
 40
5.625
100
AcDbArc
 50
180.0
 51
0.0
  0
ARC
  5
1A14A
330
19BD8
100
AcDbEntity
  8
SUNPOU
100
AcDbCircle
 10
4799.797051267463
 20
4130.485411556192
 30
0.0
 40
5.625
100
AcDbArc
 50
180.0
 51
0.0
  0
ARC
  5
1A14B
330
19BD8
100
AcDbEntity
  8
SUNPOU
100
AcDbCircle
 10
4799.797051267463
 20
4130.485411556192
 30
0.0
 40
5.625
100
AcDbArc
 50
0.0
 51
180.0
  0
ARC
  5
1A14C
330
19BD8
100
AcDbEntity
  8
SUNPOU
100
AcDbCircle
 10
11054.12750789964
 20
6508.243182432328
 30
0.0
 40
5.625
100
AcDbArc
 50
90.0
 51
270.0
  0
ARC
  5
1A14D
330
19BD8
100
AcDbEntity
  8
SUNPOU
100
AcDbCircle
 10
11054.12750789964
 20
6508.243182432328
 30
0.0
 40
5.625
100
AcDbArc
 50
270.0
 51
90.0
  0
ARC
  5
1A14E
330
19BD8
100
AcDbEntity
  8
SUNPOU
100
AcDbCircle
 10
11054.12750789964
 20
9118.243182432328
 30
0.0
 40
5.625
100
AcDbArc
 50
270.0
 51
90.0
  0
ARC
  5
1A14F
330
19BD8
100
AcDbEntity
  8
SUNPOU
100
AcDbCircle
 10
11054.12750789964
 20
9118.243182432328
 30
0.0
 40
5.625
100
AcDbArc
 50
90.0
 51
270.0
  0
ARC
  5
1A150
330
19BD8
100
AcDbEntity
  8
SUNPOU
100
AcDbCircle
 10
10844.12750789964
 20
9118.243182432328
 30
0.0
 40
5.625
100
AcDbArc
 50
270.0
 51
90.0
  0
ARC
  5
1A151
330
19BD8
100
AcDbEntity
  8
SUNPOU
100
AcDbCircle
 10
10844.12750789964
 20
9118.243182432328
 30
0.0
 40
5.625
100
AcDbArc
 50
90.0
 51
270.0
  0
ARC
  5
1A152
330
19BD8
100
AcDbEntity
  8
SUNPOU
100
AcDbCircle
 10
10844.12750789964
 20
8718.243182432329
 30
0.0
 40
5.625
100
AcDbArc
 50
90.0
 51
270.0
  0
ARC
  5
1A153
330
19BD8
100
AcDbEntity
  8
SUNPOU
100
AcDbCircle
 10
10844.12750789964
 20
8718.243182432329
 30
0.0
 40
5.625
100
AcDbArc
 50
270.0
 51
90.0
  0
ARC
  5
1A154
330
19BD8
100
AcDbEntity
  8
SUNPOU
100
AcDbCircle
 10
10844.12750789964
 20
8718.243182432329
 30
0.0
 40
5.625
100
AcDbArc
 50
270.0
 51
90.0
  0
ARC
  5
1A155
330
19BD8
100
AcDbEntity
  8
SUNPOU
100
AcDbCircle
 10
10844.12750789964
 20
8718.243182432329
 30
0.0
 40
5.625
100
AcDbArc
 50
90.0
 51
270.0
  0
ARC
  5
1A156
330
19BD8
100
AcDbEntity
  8
SUNPOU
100
AcDbCircle
 10
10844.12750789964
 20
6908.243182432328
 30
0.0
 40
5.625
100
AcDbArc
 50
90.0
 51
270.0
  0
ARC
  5
1A157
330
19BD8
100
AcDbEntity
  8
SUNPOU
100
AcDbCircle
 10
10844.12750789964
 20
6908.243182432328
 30
0.0
 40
5.625
100
AcDbArc
 50
270.0
 51
90.0
  0
ARC
  5
1A158
330
19BD8
100
AcDbEntity
  8
SUNPOU
100
AcDbCircle
 10
10844.12750789964
 20
6908.243182432328
 30
0.0
 40
5.625
100
AcDbArc
 50
270.0
 51
90.0
  0
ARC
  5
1A159
330
19BD8
100
AcDbEntity
  8
SUNPOU
100
AcDbCircle
 10
10844.12750789964
 20
6908.243182432328
 30
0.0
 40
5.625
100
AcDbArc
 50
90.0
 51
270.0
  0
ARC
  5
1A15A
330
19BD8
100
AcDbEntity
  8
SUNPOU
100
AcDbCircle
 10
10844.12750789964
 20
6508.243182432328
 30
0.0
 40
5.625
100
AcDbArc
 50
90.0
 51
270.0
  0
ARC
  5
1A15B
330
19BD8
100
AcDbEntity
  8
SUNPOU
100
AcDbCircle
 10
10844.12750789964
 20
6508.243182432328
 30
0.0
 40
5.625
100
AcDbArc
 50
270.0
 51
90.0
  0
ARC
  5
1A15C
330
19BD8
100
AcDbEntity
  8
SUNPOU
100
AcDbCircle
 10
10634.12750789964
 20
9118.243182432328
 30
0.0
 40
5.625
100
AcDbArc
 50
270.0
 51
90.0
  0
ARC
  5
1A15D
330
19BD8
100
AcDbEntity
  8
SUNPOU
100
AcDbCircle
 10
10634.12750789964
 20
9118.243182432328
 30
0.0
 40
5.625
100
AcDbArc
 50
90.0
 51
270.0
  0
ARC
  5
1A15E
330
19BD8
100
AcDbEntity
  8
SUNPOU
100
AcDbCircle
 10
10634.12750789964
 20
8918.243182432329
 30
0.0
 40
5.625
100
AcDbArc
 50
90.0
 51
270.0
  0
ARC
  5
1A15F
330
19BD8
100
AcDbEntity
  8
SUNPOU
100
AcDbCircle
 10
10634.12750789964
 20
8918.243182432329
 30
0.0
 40
5.625
100
AcDbArc
 50
270.0
 51
90.0
  0
ARC
  5
1A160
330
19BD8
100
AcDbEntity
  8
SUNPOU
100
AcDbCircle
 10
10634.12750789964
 20
8718.243182432329
 30
0.0
 40
5.625
100
AcDbArc
 50
90.0
 51
270.0
  0
ARC
  5
1A161
330
19BD8
100
AcDbEntity
  8
SUNPOU
100
AcDbCircle
 10
10634.12750789964
 20
8718.243182432329
 30
0.0
 40
5.625
100
AcDbArc
 50
270.0
 51
90.0
  0
ARC
  5
1A162
330
19BD8
100
AcDbEntity
  8
SUNPOU
100
AcDbCircle
 10
10634.12750789964
 20
8918.243182432329
 30
0.0
 40
5.625
100
AcDbArc
 50
270.0
 51
90.0
  0
ARC
  5
1A163
330
19BD8
100
AcDbEntity
  8
SUNPOU
100
AcDbCircle
 10
10634.12750789964
 20
8918.243182432329
 30
0.0
 40
5.625
100
AcDbArc
 50
90.0
 51
270.0
  0
ARC
  5
1A164
330
19BD8
100
AcDbEntity
  8
SUNPOU
100
AcDbCircle
 10
10234.12750789964
 20
9628.243182432328
 30
0.0
 40
5.625
100
AcDbArc
 50
180.0
 51
0.0
  0
ARC
  5
1A165
330
19BD8
100
AcDbEntity
  8
SUNPOU
100
AcDbCircle
 10
10234.12750789964
 20
9628.243182432328
 30
0.0
 40
5.625
100
AcDbArc
 50
0.0
 51
180.0
  0
ARC
  5
1A166
330
19BD8
100
AcDbEntity
  8
SUNPOU
100
AcDbCircle
 10
6624.127507899638
 20
9628.243182432328
 30
0.0
 40
5.625
100
AcDbArc
 50
0.0
 51
180.0
  0
ARC
  5
1A167
330
19BD8
100
AcDbEntity
  8
SUNPOU
100
AcDbCircle
 10
6624.127507899638
 20
9628.243182432328
 30
0.0
 40
5.625
100
AcDbArc
 50
180.0
 51
0.0
  0
ARC
  5
1A168
330
19BD8
100
AcDbEntity
  8
SUNPOU
100
AcDbCircle
 10
7024.127507899639
 20
9418.243182432325
 30
0.0
 40
5.625
100
AcDbArc
 50
0.0
 51
180.0
  0
ARC
  5
1A169
330
19BD8
100
AcDbEntity
  8
SUNPOU
100
AcDbCircle
 10
7024.127507899639
 20
9418.243182432325
 30
0.0
 40
5.625
100
AcDbArc
 50
180.0
 51
0.0
  0
ARC
  5
1A16A
330
19BD8
100
AcDbEntity
  8
SUNPOU
100
AcDbCircle
 10
9834.127507899637
 20
9418.243182432325
 30
0.0
 40
5.625
100
AcDbArc
 50
180.0
 51
0.0
  0
ARC
  5
1A16B
330
19BD8
100
AcDbEntity
  8
SUNPOU
100
AcDbCircle
 10
9834.127507899637
 20
9418.243182432325
 30
0.0
 40
5.625
100
AcDbArc
 50
0.0
 51
180.0
  0
ARC
  5
1A16C
330
19BD8
100
AcDbEntity
  8
SUNPOU
100
AcDbCircle
 10
6624.127507899638
 20
9418.243182432325
 30
0.0
 40
5.625
100
AcDbArc
 50
0.0
 51
180.0
  0
ARC
  5
1A16D
330
19BD8
100
AcDbEntity
  8
SUNPOU
100
AcDbCircle
 10
6624.127507899638
 20
9418.243182432325
 30
0.0
 40
5.625
100
AcDbArc
 50
180.0
 51
0.0
  0
ARC
  5
1A16E
330
19BD8
100
AcDbEntity
  8
SUNPOU
100
AcDbCircle
 10
7024.127507899639
 20
9418.243182432325
 30
0.0
 40
5.625
100
AcDbArc
 50
180.0
 51
0.0
  0
ARC
  5
1A16F
330
19BD8
100
AcDbEntity
  8
SUNPOU
100
AcDbCircle
 10
7024.127507899639
 20
9418.243182432325
 30
0.0
 40
5.625
100
AcDbArc
 50
0.0
 51
180.0
  0
ARC
  5
1A170
330
19BD8
100
AcDbEntity
  8
SUNPOU
100
AcDbCircle
 10
10234.12750789964
 20
9418.243182432325
 30
0.0
 40
5.625
100
AcDbArc
 50
180.0
 51
0.0
  0
ARC
  5
1A171
330
19BD8
100
AcDbEntity
  8
SUNPOU
100
AcDbCircle
 10
10234.12750789964
 20
9418.243182432325
 30
0.0
 40
5.625
100
AcDbArc
 50
0.0
 51
180.0
  0
ARC
  5
1A172
330
19BD8
100
AcDbEntity
  8
SUNPOU
100
AcDbCircle
 10
9834.127507899637
 20
9418.243182432325
 30
0.0
 40
5.625
100
AcDbArc
 50
0.0
 51
180.0
  0
ARC
  5
1A173
330
19BD8
100
AcDbEntity
  8
SUNPOU
100
AcDbCircle
 10
9834.127507899637
 20
9418.243182432325
 30
0.0
 40
5.625
100
AcDbArc
 50
180.0
 51
0.0
  0
ARC
  5
1A174
330
19BD8
100
AcDbEntity
  8
SUNPOU
100
AcDbCircle
 10
9134.12750789964
 20
8318.243182432329
 30
0.0
 40
5.625
100
AcDbArc
 50
90.0
 51
270.0
  0
ARC
  5
1A175
330
19BD8
100
AcDbEntity
  8
SUNPOU
100
AcDbCircle
 10
9134.12750789964
 20
8318.243182432329
 30
0.0
 40
5.625
100
AcDbArc
 50
270.0
 51
90.0
  0
ARC
  5
1A176
330
19BD8
100
AcDbEntity
  8
SUNPOU
100
AcDbCircle
 10
9134.12750789964
 20
9118.243182432328
 30
0.0
 40
5.625
100
AcDbArc
 50
270.0
 51
90.0
  0
ARC
  5
1A177
330
19BD8
100
AcDbEntity
  8
SUNPOU
100
AcDbCircle
 10
9134.12750789964
 20
9118.243182432328
 30
0.0
 40
5.625
100
AcDbArc
 50
90.0
 51
270.0
  0
ARC
  5
1A178
330
19BD8
100
AcDbEntity
  8
SUNPOU
100
AcDbCircle
 10
10234.12750789964
 20
8018.243182432327
 30
0.0
 40
5.625
100
AcDbArc
 50
180.0
 51
0.0
  0
ARC
  5
1A179
330
19BD8
100
AcDbEntity
  8
SUNPOU
100
AcDbCircle
 10
10234.12750789964
 20
8018.243182432327
 30
0.0
 40
5.625
100
AcDbArc
 50
0.0
 51
180.0
  0
ARC
  5
1A17A
330
19BD8
100
AcDbEntity
  8
SUNPOU
100
AcDbCircle
 10
9434.127507899637
 20
8018.243182432327
 30
0.0
 40
5.625
100
AcDbArc
 50
0.0
 51
180.0
  0
ARC
  5
1A17B
330
19BD8
100
AcDbEntity
  8
SUNPOU
100
AcDbCircle
 10
9434.127507899637
 20
8018.243182432327
 30
0.0
 40
5.625
100
AcDbArc
 50
180.0
 51
0.0
  0
ARC
  5
1A17C
330
19BD8
100
AcDbEntity
  8
HIKIDASHI
100
AcDbCircle
 10
7368.753186178046
 20
1889.069567942468
 30
0.0
 40
74.66417910452284
100
AcDbArc
 50
164.8596129850915
 51
237.504500294165
  0
ARC
  5
1A17D
330
19BD8
100
AcDbEntity
  8
HIKIDASHI
100
AcDbCircle
 10
7305.32939213174
 20
1906.230591426951
 30
0.0
 40
8.959701492542745
100
AcDbArc
 50
15.14038701503429
 51
164.8596129849655
  0
LINE
  5
1A17E
330
19BD8
100
AcDbEntity
  8
HIKIDASHI
100
AcDbLine
 10
11902.55298930124
 20
2617.355869013334
 30
0.0
 11
12256.64239875644
 21
2245.804976716085
 31
0.0
1001
ACAD
1000
DSTYLE
1002
{
1070
   147
1040
1.0
1070
    77
1070
     0
1002
}
  0
LINE
  5
1A17F
330
19BD8
100
AcDbEntity
  8
HIKIDASHI
100
AcDbLine
 10
11912.20515889549
 20
2626.554423242219
 30
0.0
 11
11847.36166392793
 21
2675.268886578793
 31
0.0
  0
LINE
  5
1A180
330
19BD8
100
AcDbEntity
  8
HIKIDASHI
100
AcDbLine
 10
11847.36166392793
 20
2675.268886578793
 30
0.0
 11
11892.90081970699
 21
2608.157314784449
 31
0.0
  0
SOLID
  5
1A181
330
19BD8
100
AcDbEntity
  8
HIKIDASHI
100
AcDbTrace
 10
11912.20515889549
 20
2626.554423242219
 30
0.0
 11
11892.90081970699
 21
2608.157314784449
 31
0.0
 12
11847.36166392793
 22
2675.268886578793
 32
0.0
 13
11847.36166392793
 23
2675.268886578793
 33
0.0
  0
LINE
  5
1A182
330
19BD8
100
AcDbEntity
  8
HIKIDASHI
100
AcDbLine
 10
11892.90081970699
 20
2608.157314784449
 30
0.0
 11
11912.20515889549
 21
2626.554423242219
 31
0.0
  0
LINE
  5
1A183
330
19BD8
100
AcDbEntity
  8
HIKIDASHI
100
AcDbLine
 10
11958.6318148711
 20
2955.978577640303
 30
0.0
 11
12073.23363223807
 21
3067.661600164834
 31
0.0
1001
ACAD
1000
DSTYLE
1002
{
1070
   147
1040
1.0
1070
    77
1070
     0
1002
}
  0
LINE
  5
1A184
330
19BD8
100
AcDbEntity
  8
HIKIDASHI
100
AcDbLine
 10
11949.32610927323
 20
2965.527484441805
 30
0.0
 11
11901.33837406209
 21
2900.144344053149
 31
0.0
  0
LINE
  5
1A185
330
19BD8
100
AcDbEntity
  8
HIKIDASHI
100
AcDbLine
 10
11901.33837406209
 20
2900.144344053149
 30
0.0
 11
11967.93752046894
 21
2946.429670838803
 31
0.0
  0
SOLID
  5
1A186
330
19BD8
100
AcDbEntity
  8
HIKIDASHI
100
AcDbTrace
 10
11949.32610927323
 20
2965.527484441805
 30
0.0
 11
11967.93752046894
 21
2946.429670838803
 31
0.0
 12
11901.33837406209
 22
2900.144344053149
 32
0.0
 13
11901.33837406209
 23
2900.144344053149
 33
0.0
  0
LINE
  5
1A187
330
19BD8
100
AcDbEntity
  8
HIKIDASHI
100
AcDbLine
 10
11967.93752046894
 20
2946.429670838803
 30
0.0
 11
11949.32610927323
 21
2965.527484441805
 31
0.0
  0
LINE
  5
1A188
330
19BD8
100
AcDbEntity
  8
HIKIDASHI
100
AcDbLine
 10
8349.842316441685
 20
2785.117671225183
 30
0.0
 11
7568.025406890003
 21
1938.684839419604
 31
0.0
1001
ACAD
1000
DSTYLE
1002
{
1070
   147
1040
1.0
1070
    77
1070
     0
1002
}
  0
LINE
  5
1A189
330
19BD8
100
AcDbEntity
  8
HIKIDASHI
100
AcDbLine
 10
8359.636844474094
 20
2776.070848666947
 30
0.0
 11
8404.12325179111
 21
2843.884839419608
 31
0.0
  0
LINE
  5
1A18A
330
19BD8
100
AcDbEntity
  8
HIKIDASHI
100
AcDbLine
 10
8404.12325179111
 20
2843.884839419608
 30
0.0
 11
8340.047788409282
 21
2794.164493783422
 31
0.0
  0
SOLID
  5
1A18B
330
19BD8
100
AcDbEntity
  8
HIKIDASHI
100
AcDbTrace
 10
8359.636844474094
 20
2776.070848666947
 30
0.0
 11
8340.047788409282
 21
2794.164493783422
 31
0.0
 12
8404.12325179111
 22
2843.884839419608
 32
0.0
 13
8404.12325179111
 23
2843.884839419608
 33
0.0
  0
LINE
  5
1A18C
330
19BD8
100
AcDbEntity
  8
HIKIDASHI
100
AcDbLine
 10
8340.047788409282
 20
2794.164493783422
 30
0.0
 11
8359.636844474094
 21
2776.070848666947
 31
0.0
  0
ARC
  5
1A18D
330
19BD8
100
AcDbEntity
  8
HIKIDASHI
100
AcDbCircle
 10
7243.085124621173
 20
1890.249695302057
 30
0.0
 40
74.66417910452232
100
AcDbArc
 50
301.7712278330705
 51
15.14038701490951
  0
LINE
  5
1A18E
330
19BD8
100
AcDbEntity
  8
HIKIDASHI
100
AcDbLine
 10
5106.084662666018
 20
3525.966871722361
 30
0.0
 11
5333.860047839355
 21
3920.485411556192
 31
0.0
1001
ACAD
1000
DSTYLE
1002
{
1070
   147
1040
1.0
1070
    77
1070
     0
1002
}
  0
LINE
  5
1A18F
330
19BD8
100
AcDbEntity
  8
HIKIDASHI
100
AcDbLine
 10
5094.537657282226
 20
3532.633538389028
 30
0.0
 11
5066.084662666021
 21
3456.684839419605
 31
0.0
  0
LINE
  5
1A190
330
19BD8
100
AcDbEntity
  8
HIKIDASHI
100
AcDbLine
 10
5066.084662666021
 20
3456.684839419605
 30
0.0
 11
5117.631668049813
 21
3519.300205055695
 31
0.0
  0
SOLID
  5
1A191
330
19BD8
100
AcDbEntity
  8
HIKIDASHI
100
AcDbTrace
 10
5094.537657282226
 20
3532.633538389028
 30
0.0
 11
5117.631668049813
 21
3519.300205055695
 31
0.0
 12
5066.084662666021
 22
3456.684839419605
 32
0.0
 13
5066.084662666021
 23
3456.684839419605
 33
0.0
  0
LINE
  5
1A192
330
19BD8
100
AcDbEntity
  8
HIKIDASHI
100
AcDbLine
 10
5117.631668049813
 20
3519.300205055695
 30
0.0
 11
5094.537657282226
 21
3532.633538389028
 31
0.0
  0
LINE
  5
1A193
330
19BD8
100
AcDbEntity
  8
HIKIDASHI
100
AcDbLine
 10
5649.136067929489
 20
2561.711341542924
 30
0.0
 11
5816.338096802661
 21
2348.304238552882
 31
0.0
1001
ACAD
1000
DSTYLE
1002
{
1070
   147
1040
1.0
1070
    77
1070
     0
1002
}
  0
LINE
  5
1A194
330
19BD8
100
AcDbEntity
  8
HIKIDASHI
100
AcDbLine
 10
5659.631650908938
 20
2569.934510986595
 30
0.0
 11
5599.797051267461
 21
2624.684839419602
 31
0.0
  0
LINE
  5
1A195
330
19BD8
100
AcDbEntity
  8
HIKIDASHI
100
AcDbLine
 10
5599.797051267461
 20
2624.684839419602
 30
0.0
 11
5638.640484950045
 21
2553.488172099252
 31
0.0
  0
SOLID
  5
1A196
330
19BD8
100
AcDbEntity
  8
HIKIDASHI
100
AcDbTrace
 10
5659.631650908938
 20
2569.934510986595
 30
0.0
 11
5638.640484950045
 21
2553.488172099252
 31
0.0
 12
5599.797051267461
 22
2624.684839419602
 32
0.0
 13
5599.797051267461
 23
2624.684839419602
 33
0.0
  0
LINE
  5
1A197
330
19BD8
100
AcDbEntity
  8
HIKIDASHI
100
AcDbLine
 10
5638.640484950045
 20
2553.488172099252
 30
0.0
 11
5659.631650908938
 21
2569.934510986595
 31
0.0
  0
LINE
  5
1A198
330
19BD8
100
AcDbEntity
  8
HIKIDASHI
100
AcDbLine
 10
5517.958310807199
 20
3204.439659000036
 30
0.0
 11
5674.871662611158
 21
2904.11470702088
 31
0.0
1001
ACAD
1000
DSTYLE
1002
{
1070
    41
1040
2.0
1070
   173
1070
     0
1070
   341
1005
125B0
1002
}
  0
ARC
  5
1A199
330
19BD8
100
AcDbEntity
  8
HIKIDASHI
100
AcDbCircle
 10
5472.271108781362
 20
3259.491130329859
 30
0.0
 40
18.0
100
AcDbArc
 50
241.1434129563095
 51
354.0287934324676
  0
ARC
  5
1A19A
330
19BD8
100
AcDbEntity
  8
HIKIDASHI
100
AcDbCircle
 10
5508.075783564776
 20
3255.746098466976
 30
0.0
 40
18.0
100
AcDbArc
 50
61.1434129563095
 51
174.0287934324675
  0
LINE
  5
1A19B
330
19BD8
100
AcDbEntity
  8
HIKIDASHI
100
AcDbLine
 10
5490.173446173068
 20
3257.618614398416
 30
0.0
 11
5517.958310807205
 21
3204.439659000024
 31
0.0
  0
LINE
  5
1A19C
330
19BD8
100
AcDbEntity
  8
HATCH
100
AcDbLine
 10
9597.765052686932
 20
3186.284839420224
 30
0.0
 11
9671.665887143205
 21
3314.284839420217
 31
0.0
  0
LINE
  5
1A19D
330
19BD8
100
AcDbEntity
  8
HATCH
100
AcDbLine
 10
9633.265887143204
 20
3314.284839420216
 30
0.0
 11
9652.465887143202
 21
3281.029463914897
 31
0.0
  0
LINE
  5
1A19E
330
19BD8
100
AcDbEntity
  8
HATCH
100
AcDbLine
 10
9309.765052686932
 20
3186.284839420224
 30
0.0
 11
9383.6658871432
 21
3314.284839420217
 31
0.0
  0
LINE
  5
1A19F
330
19BD8
100
AcDbEntity
  8
HATCH
100
AcDbLine
 10
9345.265887143204
 20
3314.284839420216
 30
0.0
 11
9364.465887143202
 21
3281.029463914897
 31
0.0
  0
LINE
  5
1A1A0
330
19BD8
100
AcDbEntity
  8
HATCH
100
AcDbLine
 10
9453.765052686932
 20
3186.284839420224
 30
0.0
 11
9527.665887143198
 21
3314.284839420217
 31
0.0
  0
LINE
  5
1A1A1
330
19BD8
100
AcDbEntity
  8
HATCH
100
AcDbLine
 10
9489.265887143199
 20
3314.284839420216
 30
0.0
 11
9508.465887143202
 21
3281.029463914897
 31
0.0
  0
LINE
  5
1A1A2
330
19BD8
100
AcDbEntity
  8
HATCH
100
AcDbLine
 10
9741.765052686934
 20
3186.284839420224
 30
0.0
 11
9815.665887143204
 21
3314.284839420217
 31
0.0
  0
LINE
  5
1A1A3
330
19BD8
100
AcDbEntity
  8
HATCH
100
AcDbLine
 10
9777.265887143206
 20
3314.284839420216
 30
0.0
 11
9796.465887143202
 21
3281.029463914897
 31
0.0
  0
LINE
  5
1A1A4
330
19BD8
100
AcDbEntity
  8
HATCH
100
AcDbLine
 10
9597.765052688851
 20
3186.284839420842
 30
0.0
 11
9671.66588714514
 21
3314.284839420871
 31
0.0
  0
LINE
  5
1A1A5
330
19BD8
100
AcDbEntity
  8
HATCH
100
AcDbLine
 10
9633.265887145132
 20
3314.284839420869
 30
0.0
 11
9652.465887145137
 21
3281.029463915543
 31
0.0
  0
LINE
  5
1A1A6
330
19BD8
100
AcDbEntity
  8
HATCH
100
AcDbLine
 10
9741.765052688851
 20
3186.284839420842
 30
0.0
 11
9815.66588714514
 21
3314.284839420871
 31
0.0
  0
LINE
  5
1A1A7
330
19BD8
100
AcDbEntity
  8
HATCH
100
AcDbLine
 10
9777.265887145132
 20
3314.284839420869
 30
0.0
 11
9796.465887145137
 21
3281.029463915543
 31
0.0
  0
LINE
  5
1A1A8
330
19BD8
100
AcDbEntity
  8
HATCH
100
AcDbLine
 10
9453.765052688849
 20
3186.284839420842
 30
0.0
 11
9527.66588714514
 21
3314.284839420871
 31
0.0
  0
LINE
  5
1A1A9
330
19BD8
100
AcDbEntity
  8
HATCH
100
AcDbLine
 10
9489.265887145132
 20
3314.284839420869
 30
0.0
 11
9508.465887145135
 21
3281.029463915543
 31
0.0
  0
LINE
  5
1A1AA
330
19BD8
100
AcDbEntity
  8
HATCH
100
AcDbLine
 10
9309.765052688851
 20
3186.284839420842
 30
0.0
 11
9383.66588714514
 21
3314.284839420871
 31
0.0
  0
LINE
  5
1A1AB
330
19BD8
100
AcDbEntity
  8
HATCH
100
AcDbLine
 10
9345.265887145131
 20
3314.284839420869
 30
0.0
 11
9364.465887145135
 21
3281.029463915543
 31
0.0
  0
LINE
  5
1A1AC
330
19BD8
100
AcDbEntity
  8
HATCH
100
AcDbLine
 10
5817.438852163286
 20
3186.284839419477
 30
0.0
 11
5891.339686619555
 21
3314.28483941947
 31
0.0
  0
LINE
  5
1A1AD
330
19BD8
100
AcDbEntity
  8
HATCH
100
AcDbLine
 10
5852.939686619555
 20
3314.284839419468
 30
0.0
 11
5872.139686619554
 21
3281.029463914151
 31
0.0
  0
LINE
  5
1A1AE
330
19BD8
100
AcDbEntity
  8
HATCH
100
AcDbLine
 10
5529.438852163288
 20
3186.284839419477
 30
0.0
 11
5603.339686619555
 21
3314.28483941947
 31
0.0
  0
LINE
  5
1A1AF
330
19BD8
100
AcDbEntity
  8
HATCH
100
AcDbLine
 10
5564.939686619556
 20
3314.284839419468
 30
0.0
 11
5584.139686619558
 21
3281.029463914151
 31
0.0
  0
LINE
  5
1A1B0
330
19BD8
100
AcDbEntity
  8
HATCH
100
AcDbLine
 10
5673.438852163286
 20
3186.284839419477
 30
0.0
 11
5747.339686619554
 21
3314.28483941947
 31
0.0
  0
LINE
  5
1A1B1
330
19BD8
100
AcDbEntity
  8
HATCH
100
AcDbLine
 10
5708.939686619555
 20
3314.284839419468
 30
0.0
 11
5728.139686619557
 21
3281.029463914151
 31
0.0
  0
LINE
  5
1A1B2
330
19BD8
100
AcDbEntity
  8
HATCH
100
AcDbLine
 10
5961.438852163286
 20
3186.284839419477
 30
0.0
 11
6035.339686619554
 21
3314.28483941947
 31
0.0
  0
LINE
  5
1A1B3
330
19BD8
100
AcDbEntity
  8
HATCH
100
AcDbLine
 10
5996.939686619557
 20
3314.284839419468
 30
0.0
 11
6016.139686619557
 21
3281.029463914151
 31
0.0
  0
LINE
  5
1A1B4
330
19BD8
100
AcDbEntity
  8
U1
100
AcDbLine
 10
11411.33837406209
 20
2570.144344053149
 30
0.0
 11
11671.33837406211
 21
2570.144344053149
 31
0.0
  0
LINE
  5
1A1B5
330
19BD8
100
AcDbEntity
  8
U1
100
AcDbLine
 10
11671.33837406211
 20
2570.144344053149
 30
0.0
 11
11671.33837406211
 21
2830.144344053149
 31
0.0
  0
LINE
  5
1A1B6
330
19BD8
100
AcDbEntity
  8
U1
100
AcDbLine
 10
11671.33837406211
 20
2830.144344053149
 30
0.0
 11
11411.33837406209
 21
2830.144344053149
 31
0.0
  0
LINE
  5
1A1B7
330
19BD8
100
AcDbEntity
  8
U1
100
AcDbLine
 10
11411.33837406209
 20
2830.144344053149
 30
0.0
 11
11411.33837406209
 21
2570.144344053149
 31
0.0
  0
LINE
  5
1A1B8
330
19BD8
100
AcDbEntity
  8
U1
100
AcDbLine
 10
11181.33837406209
 20
2500.144344053149
 30
0.0
 11
11901.33837406209
 21
2500.144344053149
 31
0.0
  0
LINE
  5
1A1B9
330
19BD8
100
AcDbEntity
  8
U1
100
AcDbLine
 10
11901.33837406209
 20
2500.144344053149
 30
0.0
 11
11901.33837406209
 21
2900.144344053149
 31
0.0
  0
LINE
  5
1A1BA
330
19BD8
100
AcDbEntity
  8
U1
100
AcDbLine
 10
11901.33837406209
 20
2900.144344053149
 30
0.0
 11
11181.33837406209
 21
2900.144344053149
 31
0.0
  0
LINE
  5
1A1BB
330
19BD8
100
AcDbEntity
  8
U1
100
AcDbLine
 10
11181.33837406209
 20
2900.144344053149
 30
0.0
 11
11181.33837406209
 21
2500.144344053149
 31
0.0
  0
LINE
  5
1A1BC
330
19BD8
100
AcDbEntity
  8
U1
100
AcDbLine
 10
11181.33837406207
 20
3618.337036584563
 30
0.0
 11
11901.33837406209
 21
3618.337036584563
 31
0.0
  0
LINE
  5
1A1BD
330
19BD8
100
AcDbEntity
  8
U1
100
AcDbLine
 10
11901.33837406209
 20
3618.337036584563
 30
0.0
 11
11901.33837406209
 21
3642.337036584562
 31
0.0
  0
LINE
  5
1A1BE
330
19BD8
100
AcDbEntity
  8
U1
100
AcDbLine
 10
11901.33837406209
 20
3642.337036584562
 30
0.0
 11
11181.33837406207
 21
3642.337036584562
 31
0.0
  0
LINE
  5
1A1BF
330
19BD8
100
AcDbEntity
  8
U1
100
AcDbLine
 10
11181.33837406207
 20
3642.337036584562
 30
0.0
 11
11181.33837406207
 21
3618.337036584563
 31
0.0
  0
LINE
  5
1A1C0
330
19BD8
100
AcDbEntity
  8
HATCH
100
AcDbLine
 10
9636.165052686925
 20
3186.284839420224
 30
0.0
 11
9616.965052686927
 21
3219.540214925541
 31
0.0
  0
LINE
  5
1A1C1
330
19BD8
100
AcDbEntity
  8
HATCH
100
AcDbLine
 10
9348.16505268693
 20
3186.284839420224
 30
0.0
 11
9328.965052686926
 21
3219.540214925541
 31
0.0
  0
LINE
  5
1A1C2
330
19BD8
100
AcDbEntity
  8
HATCH
100
AcDbLine
 10
9492.165052686925
 20
3186.284839420224
 30
0.0
 11
9472.965052686927
 21
3219.540214925541
 31
0.0
  0
LINE
  5
1A1C3
330
19BD8
100
AcDbEntity
  8
HATCH
100
AcDbLine
 10
9780.165052686927
 20
3186.284839420224
 30
0.0
 11
9760.965052686927
 21
3219.540214925541
 31
0.0
  0
LINE
  5
1A1C4
330
19BD8
100
AcDbEntity
  8
HATCH
100
AcDbLine
 10
9636.165052688857
 20
3186.284839420842
 30
0.0
 11
9616.965052688854
 21
3219.540214926169
 31
0.0
  0
LINE
  5
1A1C5
330
19BD8
100
AcDbEntity
  8
HATCH
100
AcDbLine
 10
9780.165052688857
 20
3186.284839420842
 30
0.0
 11
9760.965052688852
 21
3219.540214926169
 31
0.0
  0
LINE
  5
1A1C6
330
19BD8
100
AcDbEntity
  8
HATCH
100
AcDbLine
 10
9492.165052688857
 20
3186.284839420842
 30
0.0
 11
9472.965052688854
 21
3219.540214926169
 31
0.0
  0
LINE
  5
1A1C7
330
19BD8
100
AcDbEntity
  8
HATCH
100
AcDbLine
 10
9348.165052688857
 20
3186.284839420842
 30
0.0
 11
9328.965052688852
 21
3219.540214926169
 31
0.0
  0
LINE
  5
1A1C8
330
19BD8
100
AcDbEntity
  8
TENSEN-1
100
AcDbLine
 10
8756.123251791107
 20
2864.684839419603
 30
0.0
 11
8702.523251791111
 21
2864.684839419603
 31
0.0
  0
LINE
  5
1A1C9
330
19BD8
100
AcDbEntity
  8
TENSEN-1
100
AcDbLine
 10
8702.523251791111
 20
2864.684839419603
 30
0.0
 11
8702.523251791111
 21
3355.884839419604
 31
0.0
  0
LINE
  5
1A1CA
330
19BD8
100
AcDbEntity
  8
TENSEN-1
100
AcDbLine
 10
8702.523251791111
 20
3355.884839419604
 30
0.0
 11
8681.72325179111
 21
3355.884839419604
 31
0.0
  0
LINE
  5
1A1CB
330
19BD8
100
AcDbEntity
  8
TENSEN-1
100
AcDbLine
 10
8681.72325179111
 20
3355.884839419604
 30
0.0
 11
8681.723251791105
 21
2843.884839419604
 31
0.0
  0
LINE
  5
1A1CC
330
19BD8
100
AcDbEntity
  8
TENSEN-1
100
AcDbLine
 10
8681.723251791105
 20
2843.884839419604
 30
0.0
 11
8756.123251791107
 21
2843.884839419604
 31
0.0
  0
LINE
  5
1A1CD
330
19BD8
100
AcDbEntity
  8
TENSEN-1
100
AcDbLine
 10
8756.123251791107
 20
2843.884839419604
 30
0.0
 11
8756.123251791107
 21
2864.684839419603
 31
0.0
  0
LINE
  5
1A1CE
330
19BD8
100
AcDbEntity
  8
TENSEN-1
100
AcDbLine
 10
8404.12325179111
 20
2864.684839419607
 30
0.0
 11
8457.723251791113
 21
2864.684839419607
 31
0.0
  0
LINE
  5
1A1CF
330
19BD8
100
AcDbEntity
  8
TENSEN-1
100
AcDbLine
 10
8457.723251791113
 20
2864.684839419607
 30
0.0
 11
8457.723251791113
 21
3355.884839419608
 31
0.0
  0
LINE
  5
1A1D0
330
19BD8
100
AcDbEntity
  8
TENSEN-1
100
AcDbLine
 10
8457.723251791113
 20
3355.884839419608
 30
0.0
 11
8478.523251791115
 21
3355.884839419608
 31
0.0
  0
LINE
  5
1A1D1
330
19BD8
100
AcDbEntity
  8
TENSEN-1
100
AcDbLine
 10
8478.523251791115
 20
3355.884839419608
 30
0.0
 11
8478.523251791115
 21
2843.884839419608
 31
0.0
  0
LINE
  5
1A1D2
330
19BD8
100
AcDbEntity
  8
TENSEN-1
100
AcDbLine
 10
8478.523251791115
 20
2843.884839419608
 30
0.0
 11
8404.12325179111
 21
2843.884839419608
 31
0.0
  0
LINE
  5
1A1D3
330
19BD8
100
AcDbEntity
  8
TENSEN-1
100
AcDbLine
 10
8404.12325179111
 20
2843.884839419608
 30
0.0
 11
8404.12325179111
 21
2864.684839419607
 31
0.0
  0
LINE
  5
1A1D4
330
19BD8
100
AcDbEntity
  8
HASHIRA
100
AcDbLine
 10
8436.12325179111
 20
3314.284839419603
 30
0.0
 11
8724.123251791107
 21
3314.284839419607
 31
0.0
  0
LINE
  5
1A1D5
330
19BD8
100
AcDbEntity
  8
HASHIRA
100
AcDbLine
 10
8724.123251791107
 20
3314.284839419607
 30
0.0
 11
8724.123251791107
 21
3328.684839419608
 31
0.0
  0
LINE
  5
1A1D6
330
19BD8
100
AcDbEntity
  8
HASHIRA
100
AcDbLine
 10
8724.123251791107
 20
3328.684839419608
 30
0.0
 11
8436.12325179111
 21
3328.684839419604
 31
0.0
  0
LINE
  5
1A1D7
330
19BD8
100
AcDbEntity
  8
HASHIRA
100
AcDbLine
 10
8436.12325179111
 20
3328.684839419604
 30
0.0
 11
8436.12325179111
 21
3314.284839419603
 31
0.0
  0
LINE
  5
1A1D8
330
19BD8
100
AcDbEntity
  8
BOLT
100
AcDbLine
 10
8593.723251791109
 20
3355.884839419608
 30
0.0
 11
8593.723251791109
 21
3363.736803080584
 31
0.0
  0
LINE
  5
1A1D9
330
19BD8
100
AcDbEntity
  8
BOLT
100
AcDbLine
 10
8593.723251791109
 20
3363.736803080584
 30
0.0
 11
8580.123251791111
 21
3371.588766741567
 31
0.0
  0
LINE
  5
1A1DA
330
19BD8
100
AcDbEntity
  8
BOLT
100
AcDbLine
 10
8580.123251791111
 20
3371.588766741567
 30
0.0
 11
8566.523251791107
 21
3363.736803080584
 31
0.0
  0
LINE
  5
1A1DB
330
19BD8
100
AcDbEntity
  8
BOLT
100
AcDbLine
 10
8566.523251791107
 20
3363.736803080584
 30
0.0
 11
8566.523251791107
 21
3355.884839419608
 31
0.0
  0
LINE
  5
1A1DC
330
19BD8
100
AcDbEntity
  8
BOLT
100
AcDbLine
 10
8566.523251791107
 20
3355.884839419608
 30
0.0
 11
8566.523251791107
 21
3348.032875758628
 31
0.0
  0
LINE
  5
1A1DD
330
19BD8
100
AcDbEntity
  8
BOLT
100
AcDbLine
 10
8566.523251791107
 20
3348.032875758628
 30
0.0
 11
8580.123251791111
 21
3340.180912097648
 31
0.0
  0
LINE
  5
1A1DE
330
19BD8
100
AcDbEntity
  8
BOLT
100
AcDbLine
 10
8580.123251791111
 20
3340.180912097648
 30
0.0
 11
8593.723251791109
 21
3348.032875758628
 31
0.0
  0
LINE
  5
1A1DF
330
19BD8
100
AcDbEntity
  8
BOLT
100
AcDbLine
 10
8593.723251791109
 20
3348.032875758628
 30
0.0
 11
8593.723251791109
 21
3355.884839419608
 31
0.0
  0
LINE
  5
1A1E0
330
19BD8
100
AcDbEntity
  8
BOLT
100
AcDbLine
 10
8593.723251791109
 20
3419.884839419608
 30
0.0
 11
8593.723251791109
 21
3427.736803080584
 31
0.0
  0
LINE
  5
1A1E1
330
19BD8
100
AcDbEntity
  8
BOLT
100
AcDbLine
 10
8593.723251791109
 20
3427.736803080584
 30
0.0
 11
8580.123251791111
 21
3435.588766741567
 31
0.0
  0
LINE
  5
1A1E2
330
19BD8
100
AcDbEntity
  8
BOLT
100
AcDbLine
 10
8580.123251791111
 20
3435.588766741567
 30
0.0
 11
8566.523251791107
 21
3427.736803080584
 31
0.0
  0
LINE
  5
1A1E3
330
19BD8
100
AcDbEntity
  8
BOLT
100
AcDbLine
 10
8566.523251791107
 20
3427.736803080584
 30
0.0
 11
8566.523251791107
 21
3419.884839419608
 31
0.0
  0
LINE
  5
1A1E4
330
19BD8
100
AcDbEntity
  8
BOLT
100
AcDbLine
 10
8566.523251791107
 20
3419.884839419608
 30
0.0
 11
8566.523251791107
 21
3412.032875758628
 31
0.0
  0
LINE
  5
1A1E5
330
19BD8
100
AcDbEntity
  8
BOLT
100
AcDbLine
 10
8566.523251791107
 20
3412.032875758628
 30
0.0
 11
8580.123251791111
 21
3404.180912097648
 31
0.0
  0
LINE
  5
1A1E6
330
19BD8
100
AcDbEntity
  8
BOLT
100
AcDbLine
 10
8580.123251791111
 20
3404.180912097648
 30
0.0
 11
8593.723251791109
 21
3412.032875758628
 31
0.0
  0
LINE
  5
1A1E7
330
19BD8
100
AcDbEntity
  8
BOLT
100
AcDbLine
 10
8593.723251791109
 20
3412.032875758628
 30
0.0
 11
8593.723251791109
 21
3419.884839419608
 31
0.0
  0
LINE
  5
1A1E8
330
19BD8
100
AcDbEntity
  8
HATCH
100
AcDbLine
 10
5855.83885216328
 20
3186.284839419478
 30
0.0
 11
5836.638852163281
 21
3219.540214924796
 31
0.0
  0
LINE
  5
1A1E9
330
19BD8
100
AcDbEntity
  8
HATCH
100
AcDbLine
 10
5567.83885216328
 20
3186.284839419478
 30
0.0
 11
5548.638852163282
 21
3219.540214924796
 31
0.0
  0
LINE
  5
1A1EA
330
19BD8
100
AcDbEntity
  8
HATCH
100
AcDbLine
 10
5711.838852163278
 20
3186.284839419478
 30
0.0
 11
5692.63885216328
 21
3219.540214924796
 31
0.0
  0
LINE
  5
1A1EB
330
19BD8
100
AcDbEntity
  8
HATCH
100
AcDbLine
 10
5999.838852163279
 20
3186.284839419478
 30
0.0
 11
5980.638852163282
 21
3219.540214924796
 31
0.0
  0
LINE
  5
1A1EC
330
19BD8
100
AcDbEntity
  8
HASHIRA
100
AcDbLine
 10
4719.797051267462
 20
3314.284839419608
 30
0.0
 11
4879.797051267463
 21
3314.284839419608
 31
0.0
  0
LINE
  5
1A1ED
330
19BD8
100
AcDbEntity
  8
HASHIRA
100
AcDbLine
 10
4879.797051267463
 20
3314.284839419608
 30
0.0
 11
4879.797051267463
 21
3328.6848394196
 31
0.0
  0
LINE
  5
1A1EE
330
19BD8
100
AcDbEntity
  8
HASHIRA
100
AcDbLine
 10
4879.797051267463
 20
3328.6848394196
 30
0.0
 11
4719.797051267462
 21
3328.6848394196
 31
0.0
  0
LINE
  5
1A1EF
330
19BD8
100
AcDbEntity
  8
HASHIRA
100
AcDbLine
 10
4719.797051267462
 20
3328.6848394196
 30
0.0
 11
4719.797051267462
 21
3314.284839419608
 31
0.0
  0
LINE
  5
1A1F0
330
19BD8
100
AcDbEntity
  8
TENSEN-1
100
AcDbLine
 10
4735.797051267462
 20
2864.684839419608
 30
0.0
 11
4789.397051267463
 21
2864.684839419608
 31
0.0
  0
LINE
  5
1A1F1
330
19BD8
100
AcDbEntity
  8
TENSEN-1
100
AcDbLine
 10
4789.397051267463
 20
2864.684839419608
 30
0.0
 11
4789.397051267463
 21
3355.884839419608
 31
0.0
  0
LINE
  5
1A1F2
330
19BD8
100
AcDbEntity
  8
TENSEN-1
100
AcDbLine
 10
4789.397051267463
 20
3355.884839419608
 30
0.0
 11
4810.197051267465
 21
3355.884839419608
 31
0.0
  0
LINE
  5
1A1F3
330
19BD8
100
AcDbEntity
  8
TENSEN-1
100
AcDbLine
 10
4810.197051267465
 20
3355.884839419608
 30
0.0
 11
4810.197051267465
 21
2843.884839419608
 31
0.0
  0
LINE
  5
1A1F4
330
19BD8
100
AcDbEntity
  8
TENSEN-1
100
AcDbLine
 10
4810.197051267465
 20
2843.884839419608
 30
0.0
 11
4735.797051267462
 21
2843.884839419608
 31
0.0
  0
LINE
  5
1A1F5
330
19BD8
100
AcDbEntity
  8
TENSEN-1
100
AcDbLine
 10
4735.797051267462
 20
2843.884839419608
 30
0.0
 11
4735.797051267462
 21
2864.684839419608
 31
0.0
  0
LINE
  5
1A1F6
330
19BD8
100
AcDbEntity
  8
DOMAKON
100
AcDbLine
 10
10234.12750789964
 20
6508.243182432328
 30
0.0
 11
6624.127507899638
 21
6508.243182432328
 31
0.0
  0
LINE
  5
1A1F7
330
19BD8
100
AcDbEntity
  8
DOMAKON
100
AcDbLine
 10
6624.127507899638
 20
6508.243182432328
 30
0.0
 11
6624.127507899638
 21
8918.243182432329
 31
0.0
  0
LINE
  5
1A1F8
330
19BD8
100
AcDbEntity
  8
DOMAKON
100
AcDbLine
 10
6624.127507899638
 20
8918.243182432329
 30
0.0
 11
10234.12750789964
 21
8918.243182432329
 31
0.0
  0
LINE
  5
1A1F9
330
19BD8
100
AcDbEntity
  8
DOMAKON
100
AcDbLine
 10
10234.12750789964
 20
8918.243182432329
 30
0.0
 11
10234.12750789964
 21
6508.243182432328
 31
0.0
  0
LINE
  5
1A1FA
330
19BD8
100
AcDbEntity
  8
YANE
  6
2PL-L
 62
     6
100
AcDbLine
 10
10230.12750789964
 20
6408.243182432328
 30
0.0
 11
6628.127507899638
 21
6408.243182432328
 31
0.0
  0
LINE
  5
1A1FB
330
19BD8
100
AcDbEntity
  8
YANE
  6
2PL-L
 62
     6
100
AcDbLine
 10
6628.127507899638
 20
6408.243182432328
 30
0.0
 11
6628.127507899638
 21
8968.243182432329
 31
0.0
  0
LINE
  5
1A1FC
330
19BD8
100
AcDbEntity
  8
YANE
  6
2PL-L
 62
     6
100
AcDbLine
 10
6628.127507899638
 20
8968.243182432329
 30
0.0
 11
10230.12750789964
 21
8968.243182432329
 31
0.0
  0
LINE
  5
1A1FD
330
19BD8
100
AcDbEntity
  8
YANE
  6
2PL-L
 62
     6
100
AcDbLine
 10
10230.12750789964
 20
8968.243182432329
 30
0.0
 11
10230.12750789964
 21
6408.243182432328
 31
0.0
  0
LINE
  5
1A1FE
330
19BD8
100
AcDbEntity
  8
KISO
100
AcDbLine
 10
7424.127507899638
 20
6508.243182432328
 30
0.0
 11
6624.127507899638
 21
6508.243182432328
 31
0.0
  0
LINE
  5
1A1FF
330
19BD8
100
AcDbEntity
  8
KISO
100
AcDbLine
 10
6624.127507899638
 20
6508.243182432328
 30
0.0
 11
6624.127507899638
 21
7308.243182432327
 31
0.0
  0
LINE
  5
1A200
330
19BD8
100
AcDbEntity
  8
KISO
100
AcDbLine
 10
6624.127507899638
 20
7308.243182432327
 30
0.0
 11
7424.127507899638
 21
7308.243182432327
 31
0.0
  0
LINE
  5
1A201
330
19BD8
100
AcDbEntity
  8
KISO
100
AcDbLine
 10
7424.127507899638
 20
7308.243182432327
 30
0.0
 11
7424.127507899638
 21
6508.243182432328
 31
0.0
  0
LINE
  5
1A202
330
19BD8
100
AcDbEntity
  8
KISO
100
AcDbLine
 10
7424.127507899638
 20
8318.243182432329
 30
0.0
 11
6624.127507899638
 21
8318.243182432329
 31
0.0
  0
LINE
  5
1A203
330
19BD8
100
AcDbEntity
  8
KISO
100
AcDbLine
 10
6624.127507899638
 20
8318.243182432329
 30
0.0
 11
6624.127507899638
 21
9118.243182432328
 31
0.0
  0
LINE
  5
1A204
330
19BD8
100
AcDbEntity
  8
KISO
100
AcDbLine
 10
6624.127507899638
 20
9118.243182432328
 30
0.0
 11
7424.127507899638
 21
9118.243182432328
 31
0.0
  0
LINE
  5
1A205
330
19BD8
100
AcDbEntity
  8
KISO
100
AcDbLine
 10
7424.127507899638
 20
9118.243182432328
 30
0.0
 11
7424.127507899638
 21
8318.243182432329
 31
0.0
  0
LINE
  5
1A206
330
19BD8
100
AcDbEntity
  8
KISO
100
AcDbLine
 10
10234.12750789964
 20
6508.243182432328
 30
0.0
 11
9434.127507899637
 21
6508.243182432328
 31
0.0
  0
LINE
  5
1A207
330
19BD8
100
AcDbEntity
  8
KISO
100
AcDbLine
 10
9434.127507899637
 20
6508.243182432328
 30
0.0
 11
9434.127507899637
 21
7308.243182432327
 31
0.0
  0
LINE
  5
1A208
330
19BD8
100
AcDbEntity
  8
KISO
100
AcDbLine
 10
9434.127507899637
 20
7308.243182432327
 30
0.0
 11
10234.12750789964
 21
7308.243182432327
 31
0.0
  0
LINE
  5
1A209
330
19BD8
100
AcDbEntity
  8
KISO
100
AcDbLine
 10
10234.12750789964
 20
7308.243182432327
 30
0.0
 11
10234.12750789964
 21
6508.243182432328
 31
0.0
  0
LINE
  5
1A20A
330
19BD8
100
AcDbEntity
  8
KISO
100
AcDbLine
 10
10234.12750789964
 20
8318.243182432329
 30
0.0
 11
9434.127507899637
 21
8318.243182432329
 31
0.0
  0
LINE
  5
1A20B
330
19BD8
100
AcDbEntity
  8
KISO
100
AcDbLine
 10
9434.127507899637
 20
8318.243182432329
 30
0.0
 11
9434.127507899637
 21
9118.243182432328
 31
0.0
  0
LINE
  5
1A20C
330
19BD8
100
AcDbEntity
  8
KISO
100
AcDbLine
 10
9434.127507899637
 20
9118.243182432328
 30
0.0
 11
10234.12750789964
 21
9118.243182432328
 31
0.0
  0
LINE
  5
1A20D
330
19BD8
100
AcDbEntity
  8
KISO
100
AcDbLine
 10
10234.12750789964
 20
9118.243182432328
 30
0.0
 11
10234.12750789964
 21
8318.243182432329
 31
0.0
  0
LINE
  5
1A20E
330
19BD8
100
AcDbEntity
  8
U1
100
AcDbLine
 10
9840.32750789964
 20
8688.043182432329
 30
0.0
 11
9807.927507899636
 21
8688.043182432329
 31
0.0
  0
LINE
  5
1A20F
330
19BD8
100
AcDbEntity
  8
U1
100
AcDbLine
 10
9807.927507899641
 20
8748.44318243233
 30
0.0
 11
9860.32750789964
 21
8748.44318243233
 31
0.0
  0
ARC
  5
1A210
330
19BD8
100
AcDbEntity
  8
U1
100
AcDbCircle
 10
9807.927507899641
 20
8744.443182432332
 30
0.0
 40
4.0
100
AcDbArc
 50
90.0
 51
180.0
  0
ARC
  5
1A211
330
19BD8
100
AcDbEntity
  8
U1
100
AcDbCircle
 10
9807.927507899636
 20
8692.04318243233
 30
0.0
 40
4.0
100
AcDbArc
 50
180.0
 51
270.0
  0
LINE
  5
1A212
330
19BD8
100
AcDbEntity
  8
U1
100
AcDbLine
 10
9803.927507899636
 20
8692.04318243233
 30
0.0
 11
9803.92750789964
 21
8744.443182432332
 31
0.0
  0
ARC
  5
1A213
330
19BD8
100
AcDbEntity
  8
U1
100
AcDbCircle
 10
9860.32750789964
 20
8744.443182432332
 30
0.0
 40
4.0
100
AcDbArc
 50
0.0
 51
90.0
  0
ARC
  5
1A214
330
19BD8
100
AcDbEntity
  8
U1
100
AcDbCircle
 10
9840.32750789964
 20
8692.043182432326
 30
0.0
 40
4.0
100
AcDbArc
 50
270.0
 51
0.0
  0
ARC
  5
1A215
330
19BD8
100
AcDbEntity
  8
U1
100
AcDbCircle
 10
9847.777507899639
 20
8701.293182432326
 30
0.0
 40
1.149999999999977
100
AcDbArc
 50
0.0
 51
180.0
  0
LINE
  5
1A216
330
19BD8
100
AcDbEntity
  8
U1
100
AcDbLine
 10
9851.227507899643
 20
8693.743182432328
 30
0.0
 11
9851.227507899643
 21
8701.293182432326
 31
0.0
  0
LINE
  5
1A217
330
19BD8
100
AcDbEntity
  8
U1
100
AcDbLine
 10
9848.927507899636
 20
8693.743182432328
 30
0.0
 11
9851.227507899643
 21
8693.743182432328
 31
0.0
  0
LINE
  5
1A218
330
19BD8
100
AcDbEntity
  8
U1
100
AcDbLine
 10
9846.62750789964
 20
8700.743182432329
 30
0.0
 11
9848.927507899636
 21
8700.743182432329
 31
0.0
  0
ARC
  5
1A219
330
19BD8
100
AcDbEntity
  8
U1
100
AcDbCircle
 10
9847.777507899639
 20
8701.293182432326
 30
0.0
 40
3.450000000000044
100
AcDbArc
 50
0.0
 51
180.0
  0
LINE
  5
1A21A
330
19BD8
100
AcDbEntity
  8
U1
100
AcDbLine
 10
9846.62750789964
 20
8701.293182432326
 30
0.0
 11
9846.62750789964
 21
8692.04318243233
 31
0.0
  0
LINE
  5
1A21B
330
19BD8
100
AcDbEntity
  8
U1
100
AcDbLine
 10
9848.927507899636
 20
8692.043182432326
 30
0.0
 11
9848.927507899636
 21
8701.293182432326
 31
0.0
  0
LINE
  5
1A21C
330
19BD8
100
AcDbEntity
  8
U1
100
AcDbLine
 10
9844.32750789964
 20
8701.293182432326
 30
0.0
 11
9844.32750789964
 21
8692.043182432326
 31
0.0
  0
ARC
  5
1A21D
330
19BD8
100
AcDbEntity
  8
U1
100
AcDbCircle
 10
9860.327507899636
 20
8692.043182432326
 30
0.0
 40
4.0
100
AcDbArc
 50
270.0
 51
0.0
  0
LINE
  5
1A21E
330
19BD8
100
AcDbEntity
  8
U1
100
AcDbLine
 10
9860.327507899636
 20
8688.043182432329
 30
0.0
 11
9852.927507899636
 21
8688.043182432329
 31
0.0
  0
ARC
  5
1A21F
330
19BD8
100
AcDbEntity
  8
U1
100
AcDbCircle
 10
9852.927507899636
 20
8692.043182432326
 30
0.0
 40
4.0
100
AcDbArc
 50
180.0
 51
270.0
  0
LINE
  5
1A220
330
19BD8
100
AcDbEntity
  8
U1
100
AcDbLine
 10
9864.327507899639
 20
8744.443182432332
 30
0.0
 11
9864.327507899636
 21
8692.043182432326
 31
0.0
  0
LINE
  5
1A221
330
19BD8
100
AcDbEntity
  8
U1
100
AcDbLine
 10
7017.927507899639
 20
8688.043182432329
 30
0.0
 11
7050.327507899638
 21
8688.043182432329
 31
0.0
  0
LINE
  5
1A222
330
19BD8
100
AcDbEntity
  8
U1
100
AcDbLine
 10
7050.327507899638
 20
8748.44318243233
 30
0.0
 11
6997.927507899636
 21
8748.44318243233
 31
0.0
  0
ARC
  5
1A223
330
19BD8
100
AcDbEntity
  8
U1
100
AcDbCircle
 10
7050.327507899638
 20
8744.443182432332
 30
0.0
 40
4.0
100
AcDbArc
 50
0.0
 51
90.0
  0
ARC
  5
1A224
330
19BD8
100
AcDbEntity
  8
U1
100
AcDbCircle
 10
7050.327507899638
 20
8692.043182432326
 30
0.0
 40
4.0
100
AcDbArc
 50
270.0
 51
0.0
  0
LINE
  5
1A225
330
19BD8
100
AcDbEntity
  8
U1
100
AcDbLine
 10
7054.32750789964
 20
8692.043182432326
 30
0.0
 11
7054.32750789964
 21
8744.443182432332
 31
0.0
  0
ARC
  5
1A226
330
19BD8
100
AcDbEntity
  8
U1
100
AcDbCircle
 10
6997.927507899636
 20
8744.443182432332
 30
0.0
 40
4.0
100
AcDbArc
 50
90.0
 51
180.0
  0
ARC
  5
1A227
330
19BD8
100
AcDbEntity
  8
U1
100
AcDbCircle
 10
7017.927507899639
 20
8692.043182432326
 30
0.0
 40
4.0
100
AcDbArc
 50
180.0
 51
270.0
  0
ARC
  5
1A228
330
19BD8
100
AcDbEntity
  8
U1
100
AcDbCircle
 10
7010.477507899636
 20
8701.293182432326
 30
0.0
 40
1.149999999999977
100
AcDbArc
 50
0.0
 51
180.0
  0
LINE
  5
1A229
330
19BD8
100
AcDbEntity
  8
U1
100
AcDbLine
 10
7007.027507899639
 20
8693.743182432328
 30
0.0
 11
7007.027507899639
 21
8701.29318243233
 31
0.0
  0
LINE
  5
1A22A
330
19BD8
100
AcDbEntity
  8
U1
100
AcDbLine
 10
7009.327507899637
 20
8693.743182432328
 30
0.0
 11
7007.027507899639
 21
8693.743182432328
 31
0.0
  0
LINE
  5
1A22B
330
19BD8
100
AcDbEntity
  8
U1
100
AcDbLine
 10
7011.627507899638
 20
8700.743182432329
 30
0.0
 11
7009.327507899637
 21
8700.743182432329
 31
0.0
  0
ARC
  5
1A22C
330
19BD8
100
AcDbEntity
  8
U1
100
AcDbCircle
 10
7010.477507899636
 20
8701.293182432326
 30
0.0
 40
3.450000000000044
100
AcDbArc
 50
0.0
 51
180.0
  0
LINE
  5
1A22D
330
19BD8
100
AcDbEntity
  8
U1
100
AcDbLine
 10
7011.627507899638
 20
8701.293182432326
 30
0.0
 11
7011.627507899639
 21
8692.04318243233
 31
0.0
  0
LINE
  5
1A22E
330
19BD8
100
AcDbEntity
  8
U1
100
AcDbLine
 10
7009.327507899637
 20
8692.04318243233
 30
0.0
 11
7009.327507899637
 21
8701.29318243233
 31
0.0
  0
LINE
  5
1A22F
330
19BD8
100
AcDbEntity
  8
U1
100
AcDbLine
 10
7013.927507899637
 20
8701.293182432326
 30
0.0
 11
7013.927507899637
 21
8692.043182432326
 31
0.0
  0
ARC
  5
1A230
330
19BD8
100
AcDbEntity
  8
U1
100
AcDbCircle
 10
6997.927507899639
 20
8692.04318243233
 30
0.0
 40
4.0
100
AcDbArc
 50
180.0
 51
270.0
  0
LINE
  5
1A231
330
19BD8
100
AcDbEntity
  8
U1
100
AcDbLine
 10
6997.927507899639
 20
8688.043182432329
 30
0.0
 11
7005.32750789964
 21
8688.043182432329
 31
0.0
  0
ARC
  5
1A232
330
19BD8
100
AcDbEntity
  8
U1
100
AcDbCircle
 10
7005.32750789964
 20
8692.04318243233
 30
0.0
 40
4.0
100
AcDbArc
 50
270.0
 51
0.0
  0
LINE
  5
1A233
330
19BD8
100
AcDbEntity
  8
U1
100
AcDbLine
 10
6993.927507899638
 20
8744.443182432332
 30
0.0
 11
6993.927507899639
 21
8692.04318243233
 31
0.0
  0
LINE
  5
1A234
330
19BD8
100
AcDbEntity
  8
U1
100
AcDbLine
 10
7017.927507899639
 20
6938.44318243233
 30
0.0
 11
7050.327507899638
 21
6938.44318243233
 31
0.0
  0
LINE
  5
1A235
330
19BD8
100
AcDbEntity
  8
U1
100
AcDbLine
 10
7050.327507899638
 20
6878.043182432327
 30
0.0
 11
6997.927507899636
 21
6878.043182432327
 31
0.0
  0
ARC
  5
1A236
330
19BD8
100
AcDbEntity
  8
U1
100
AcDbCircle
 10
7050.327507899638
 20
6882.043182432328
 30
0.0
 40
4.0
100
AcDbArc
 50
270.0
 51
0.0
  0
ARC
  5
1A237
330
19BD8
100
AcDbEntity
  8
U1
100
AcDbCircle
 10
7050.327507899638
 20
6934.443182432328
 30
0.0
 40
4.0
100
AcDbArc
 50
0.0
 51
90.0
  0
LINE
  5
1A238
330
19BD8
100
AcDbEntity
  8
U1
100
AcDbLine
 10
7054.32750789964
 20
6934.443182432328
 30
0.0
 11
7054.32750789964
 21
6882.043182432328
 31
0.0
  0
ARC
  5
1A239
330
19BD8
100
AcDbEntity
  8
U1
100
AcDbCircle
 10
6997.927507899636
 20
6882.043182432328
 30
0.0
 40
4.0
100
AcDbArc
 50
180.0
 51
270.0
  0
ARC
  5
1A23A
330
19BD8
100
AcDbEntity
  8
U1
100
AcDbCircle
 10
7017.927507899639
 20
6934.443182432328
 30
0.0
 40
4.0
100
AcDbArc
 50
90.0
 51
180.0
  0
ARC
  5
1A23B
330
19BD8
100
AcDbEntity
  8
U1
100
AcDbCircle
 10
7010.477507899636
 20
6925.193182432328
 30
0.0
 40
1.149999999999977
100
AcDbArc
 50
180.0
 51
0.0
  0
LINE
  5
1A23C
330
19BD8
100
AcDbEntity
  8
U1
100
AcDbLine
 10
7007.027507899639
 20
6932.74318243233
 30
0.0
 11
7007.027507899639
 21
6925.193182432328
 31
0.0
  0
LINE
  5
1A23D
330
19BD8
100
AcDbEntity
  8
U1
100
AcDbLine
 10
7009.327507899637
 20
6932.74318243233
 30
0.0
 11
7007.027507899639
 21
6932.74318243233
 31
0.0
  0
LINE
  5
1A23E
330
19BD8
100
AcDbEntity
  8
U1
100
AcDbLine
 10
7011.627507899638
 20
6925.743182432331
 30
0.0
 11
7009.327507899637
 21
6925.743182432331
 31
0.0
  0
ARC
  5
1A23F
330
19BD8
100
AcDbEntity
  8
U1
100
AcDbCircle
 10
7010.477507899636
 20
6925.193182432328
 30
0.0
 40
3.450000000000044
100
AcDbArc
 50
180.0
 51
0.0
  0
LINE
  5
1A240
330
19BD8
100
AcDbEntity
  8
U1
100
AcDbLine
 10
7011.627507899638
 20
6925.193182432328
 30
0.0
 11
7011.627507899639
 21
6934.443182432328
 31
0.0
  0
LINE
  5
1A241
330
19BD8
100
AcDbEntity
  8
U1
100
AcDbLine
 10
7009.327507899637
 20
6934.443182432328
 30
0.0
 11
7009.327507899637
 21
6925.193182432328
 31
0.0
  0
LINE
  5
1A242
330
19BD8
100
AcDbEntity
  8
U1
100
AcDbLine
 10
7013.927507899637
 20
6925.193182432328
 30
0.0
 11
7013.927507899637
 21
6934.443182432328
 31
0.0
  0
ARC
  5
1A243
330
19BD8
100
AcDbEntity
  8
U1
100
AcDbCircle
 10
6997.927507899639
 20
6934.443182432328
 30
0.0
 40
4.0
100
AcDbArc
 50
90.0
 51
180.0
  0
LINE
  5
1A244
330
19BD8
100
AcDbEntity
  8
U1
100
AcDbLine
 10
6997.927507899639
 20
6938.44318243233
 30
0.0
 11
7005.32750789964
 21
6938.44318243233
 31
0.0
  0
ARC
  5
1A245
330
19BD8
100
AcDbEntity
  8
U1
100
AcDbCircle
 10
7005.32750789964
 20
6934.443182432328
 30
0.0
 40
4.0
100
AcDbArc
 50
0.0
 51
90.0
  0
LINE
  5
1A246
330
19BD8
100
AcDbEntity
  8
U1
100
AcDbLine
 10
6993.927507899638
 20
6882.043182432328
 30
0.0
 11
6993.927507899639
 21
6934.443182432328
 31
0.0
  0
LINE
  5
1A247
330
19BD8
100
AcDbEntity
  8
U1
100
AcDbLine
 10
9840.32750789964
 20
6938.44318243233
 30
0.0
 11
9807.927507899641
 21
6938.44318243233
 31
0.0
  0
LINE
  5
1A248
330
19BD8
100
AcDbEntity
  8
U1
100
AcDbLine
 10
9807.927507899641
 20
6878.043182432327
 30
0.0
 11
9860.32750789964
 21
6878.043182432327
 31
0.0
  0
ARC
  5
1A249
330
19BD8
100
AcDbEntity
  8
U1
100
AcDbCircle
 10
9807.927507899641
 20
6882.043182432328
 30
0.0
 40
4.0
100
AcDbArc
 50
180.0
 51
270.0
  0
ARC
  5
1A24A
330
19BD8
100
AcDbEntity
  8
U1
100
AcDbCircle
 10
9807.927507899641
 20
6934.443182432328
 30
0.0
 40
4.0
100
AcDbArc
 50
90.0
 51
180.0
  0
LINE
  5
1A24B
330
19BD8
100
AcDbEntity
  8
U1
100
AcDbLine
 10
9803.92750789964
 20
6934.443182432328
 30
0.0
 11
9803.92750789964
 21
6882.043182432328
 31
0.0
  0
ARC
  5
1A24C
330
19BD8
100
AcDbEntity
  8
U1
100
AcDbCircle
 10
9860.32750789964
 20
6882.043182432328
 30
0.0
 40
4.0
100
AcDbArc
 50
270.0
 51
0.0
  0
ARC
  5
1A24D
330
19BD8
100
AcDbEntity
  8
U1
100
AcDbCircle
 10
9840.32750789964
 20
6934.443182432328
 30
0.0
 40
4.0
100
AcDbArc
 50
0.0
 51
90.0
  0
ARC
  5
1A24E
330
19BD8
100
AcDbEntity
  8
U1
100
AcDbCircle
 10
9847.777507899639
 20
6925.193182432328
 30
0.0
 40
1.149999999999977
100
AcDbArc
 50
180.0
 51
0.0
  0
LINE
  5
1A24F
330
19BD8
100
AcDbEntity
  8
U1
100
AcDbLine
 10
9851.227507899643
 20
6932.74318243233
 30
0.0
 11
9851.227507899643
 21
6925.193182432328
 31
0.0
  0
LINE
  5
1A250
330
19BD8
100
AcDbEntity
  8
U1
100
AcDbLine
 10
9848.92750789964
 20
6932.74318243233
 30
0.0
 11
9851.227507899643
 21
6932.74318243233
 31
0.0
  0
LINE
  5
1A251
330
19BD8
100
AcDbEntity
  8
U1
100
AcDbLine
 10
9846.62750789964
 20
6925.743182432331
 30
0.0
 11
9848.92750789964
 21
6925.743182432331
 31
0.0
  0
ARC
  5
1A252
330
19BD8
100
AcDbEntity
  8
U1
100
AcDbCircle
 10
9847.777507899639
 20
6925.193182432328
 30
0.0
 40
3.450000000000044
100
AcDbArc
 50
180.0
 51
0.0
  0
LINE
  5
1A253
330
19BD8
100
AcDbEntity
  8
U1
100
AcDbLine
 10
9846.62750789964
 20
6925.193182432328
 30
0.0
 11
9846.62750789964
 21
6934.443182432328
 31
0.0
  0
LINE
  5
1A254
330
19BD8
100
AcDbEntity
  8
U1
100
AcDbLine
 10
9848.92750789964
 20
6934.443182432328
 30
0.0
 11
9848.92750789964
 21
6925.193182432328
 31
0.0
  0
LINE
  5
1A255
330
19BD8
100
AcDbEntity
  8
U1
100
AcDbLine
 10
9844.32750789964
 20
6925.193182432328
 30
0.0
 11
9844.32750789964
 21
6934.443182432328
 31
0.0
  0
ARC
  5
1A256
330
19BD8
100
AcDbEntity
  8
U1
100
AcDbCircle
 10
9860.327507899636
 20
6934.443182432328
 30
0.0
 40
4.0
100
AcDbArc
 50
0.0
 51
90.0
  0
LINE
  5
1A257
330
19BD8
100
AcDbEntity
  8
U1
100
AcDbLine
 10
9860.327507899636
 20
6938.44318243233
 30
0.0
 11
9852.927507899641
 21
6938.44318243233
 31
0.0
  0
ARC
  5
1A258
330
19BD8
100
AcDbEntity
  8
U1
100
AcDbCircle
 10
9852.927507899641
 20
6934.443182432328
 30
0.0
 40
4.0
100
AcDbArc
 50
90.0
 51
180.0
  0
LINE
  5
1A259
330
19BD8
100
AcDbEntity
  8
U1
100
AcDbLine
 10
9864.327507899639
 20
6882.043182432328
 30
0.0
 11
9864.327507899636
 21
6934.443182432328
 31
0.0
  0
LINE
  5
1A25A
330
19BD8
100
AcDbEntity
  8
U3
100
AcDbLine
 10
9130.078259983639
 20
3525.966871722361
 30
0.0
 11
9357.853645156977
 21
3920.485411556196
 31
0.0
1001
ACAD
1000
DSTYLE
1002
{
1070
   147
1040
1.0
1070
    77
1070
     0
1002
}
  0
LINE
  5
1A25B
330
19BD8
100
AcDbEntity
  8
0
100
AcDbLine
 10
9118.531254599844
 20
3532.633538389028
 30
0.0
 11
9090.07825998364
 21
3456.684839419605
 31
0.0
  0
LINE
  5
1A25C
330
19BD8
100
AcDbEntity
  8
0
100
AcDbLine
 10
9090.07825998364
 20
3456.684839419605
 30
0.0
 11
9141.625265367435
 21
3519.300205055695
 31
0.0
  0
SOLID
  5
1A25D
330
19BD8
100
AcDbEntity
  8
0
100
AcDbTrace
 10
9118.531254599844
 20
3532.633538389028
 30
0.0
 11
9141.625265367435
 21
3519.300205055695
 31
0.0
 12
9090.07825998364
 22
3456.684839419605
 32
0.0
 13
9090.07825998364
 23
3456.684839419605
 33
0.0
  0
LINE
  5
1A25E
330
19BD8
100
AcDbEntity
  8
0
100
AcDbLine
 10
9141.625265367435
 20
3519.300205055695
 30
0.0
 11
9118.531254599844
 21
3532.633538389028
 31
0.0
  0
ARC
  5
1A25F
330
19BD8
100
AcDbEntity
  8
U1
100
AcDbCircle
 10
9860.32750789964
 20
8692.043182432326
 30
0.0
 40
6.299999999999272
100
AcDbArc
 50
269.9999999999834
 51
0.0
  0
LINE
  5
1A260
330
19BD8
100
AcDbEntity
  8
U1
100
AcDbLine
 10
9860.327507899636
 20
8685.743182432329
 30
0.0
 11
9852.927507899636
 21
8685.743182432329
 31
0.0
  0
ARC
  5
1A261
330
19BD8
100
AcDbEntity
  8
U1
100
AcDbCircle
 10
9852.927507899636
 20
8692.043182432326
 30
0.0
 40
6.299999999999272
100
AcDbArc
 50
180.0
 51
270.0
  0
ARC
  5
1A262
330
19BD8
100
AcDbEntity
  8
U1
100
AcDbCircle
 10
9840.32750789964
 20
8692.04318243233
 30
0.0
 40
6.299999999999272
100
AcDbArc
 50
269.9999999999834
 51
359.9999999999833
  0
LINE
  5
1A263
330
19BD8
100
AcDbEntity
  8
U1
100
AcDbLine
 10
9840.327507899637
 20
8685.743182432329
 30
0.0
 11
9807.927507899636
 21
8685.743182432329
 31
0.0
  0
ARC
  5
1A264
330
19BD8
100
AcDbEntity
  8
U1
100
AcDbCircle
 10
9807.927507899636
 20
8692.04318243233
 30
0.0
 40
6.300000000001091
100
AcDbArc
 50
180.0
 51
270.0
  0
LINE
  5
1A265
330
19BD8
100
AcDbEntity
  8
U1
100
AcDbLine
 10
9801.627507899638
 20
8692.04318243233
 30
0.0
 11
9801.627507899638
 21
8744.443182432332
 31
0.0
  0
ARC
  5
1A266
330
19BD8
100
AcDbEntity
  8
U1
100
AcDbCircle
 10
9807.927507899636
 20
8744.443182432332
 30
0.0
 40
6.299999999999272
100
AcDbArc
 50
89.99999999998346
 51
180.0
  0
LINE
  5
1A267
330
19BD8
100
AcDbEntity
  8
U1
100
AcDbLine
 10
9807.927507899641
 20
8750.743182432328
 30
0.0
 11
9860.32750789964
 21
8750.743182432328
 31
0.0
  0
ARC
  5
1A268
330
19BD8
100
AcDbEntity
  8
U1
100
AcDbCircle
 10
9860.32750789964
 20
8744.443182432332
 30
0.0
 40
6.299999999999272
100
AcDbArc
 50
0.0
 51
90.0
  0
LINE
  5
1A269
330
19BD8
100
AcDbEntity
  8
U1
100
AcDbLine
 10
9866.627507899636
 20
8744.443182432332
 30
0.0
 11
9866.627507899636
 21
8692.043182432326
 31
0.0
  0
ARC
  5
1A26A
330
19BD8
100
AcDbEntity
  8
U1
100
AcDbCircle
 10
6997.927507899639
 20
8692.04318243233
 30
0.0
 40
6.300000000000181
100
AcDbArc
 50
180.0
 51
270.0
  0
LINE
  5
1A26B
330
19BD8
100
AcDbEntity
  8
U1
100
AcDbLine
 10
6997.927507899639
 20
8685.743182432329
 30
0.0
 11
7005.32750789964
 21
8685.743182432329
 31
0.0
  0
ARC
  5
1A26C
330
19BD8
100
AcDbEntity
  8
U1
100
AcDbCircle
 10
7005.32750789964
 20
8692.043182432326
 30
0.0
 40
6.299999999999272
100
AcDbArc
 50
269.9999999999918
 51
0.0
  0
ARC
  5
1A26D
330
19BD8
100
AcDbEntity
  8
U1
100
AcDbCircle
 10
7017.927507899639
 20
8692.043182432326
 30
0.0
 40
6.299999999999272
100
AcDbArc
 50
180.0
 51
270.0000000000081
  0
LINE
  5
1A26E
330
19BD8
100
AcDbEntity
  8
U1
100
AcDbLine
 10
7017.927507899639
 20
8685.743182432329
 30
0.0
 11
7050.327507899638
 21
8685.743182432329
 31
0.0
  0
ARC
  5
1A26F
330
19BD8
100
AcDbEntity
  8
U1
100
AcDbCircle
 10
7050.327507899641
 20
8692.043182432326
 30
0.0
 40
6.299999999999272
100
AcDbArc
 50
269.9999999999918
 51
0.0
  0
LINE
  5
1A270
330
19BD8
100
AcDbEntity
  8
U1
100
AcDbLine
 10
7056.627507899638
 20
8692.043182432326
 30
0.0
 11
7056.627507899638
 21
8744.443182432332
 31
0.0
  0
ARC
  5
1A271
330
19BD8
100
AcDbEntity
  8
U1
100
AcDbCircle
 10
7050.327507899641
 20
8744.443182432332
 30
0.0
 40
6.299999999999272
100
AcDbArc
 50
0.0
 51
90.00000000000826
  0
LINE
  5
1A272
330
19BD8
100
AcDbEntity
  8
U1
100
AcDbLine
 10
7050.327507899638
 20
8750.743182432328
 30
0.0
 11
6997.927507899639
 21
8750.743182432328
 31
0.0
  0
ARC
  5
1A273
330
19BD8
100
AcDbEntity
  8
U1
100
AcDbCircle
 10
6997.927507899636
 20
8744.443182432332
 30
0.0
 40
6.299999999999272
100
AcDbArc
 50
89.99999999999173
 51
180.0
  0
LINE
  5
1A274
330
19BD8
100
AcDbEntity
  8
U1
100
AcDbLine
 10
6991.627507899639
 20
8744.443182432332
 30
0.0
 11
6991.627507899639
 21
8692.04318243233
 31
0.0
  0
ARC
  5
1A275
330
19BD8
100
AcDbEntity
  8
U1
100
AcDbCircle
 10
6997.927507899636
 20
6934.443182432329
 30
0.0
 40
6.299999999999272
100
AcDbArc
 50
89.99999999999173
 51
180.0000000000082
  0
LINE
  5
1A276
330
19BD8
100
AcDbEntity
  8
U1
100
AcDbLine
 10
6997.927507899639
 20
6940.743182432328
 30
0.0
 11
7005.32750789964
 21
6940.743182432328
 31
0.0
  0
ARC
  5
1A277
330
19BD8
100
AcDbEntity
  8
U1
100
AcDbCircle
 10
7005.32750789964
 20
6934.443182432329
 30
0.0
 40
6.299999999999272
100
AcDbArc
 50
359.9999999999917
 51
90.00000000000826
  0
ARC
  5
1A278
330
19BD8
100
AcDbEntity
  8
U1
100
AcDbCircle
 10
7017.927507899639
 20
6934.443182432328
 30
0.0
 40
6.300000000000181
100
AcDbArc
 50
90.0
 51
180.0
  0
LINE
  5
1A279
330
19BD8
100
AcDbEntity
  8
U1
100
AcDbLine
 10
7017.927507899639
 20
6940.743182432328
 30
0.0
 11
7050.327507899638
 21
6940.743182432328
 31
0.0
  0
ARC
  5
1A27A
330
19BD8
100
AcDbEntity
  8
U1
100
AcDbCircle
 10
7050.327507899641
 20
6934.443182432329
 30
0.0
 40
6.299999999999272
100
AcDbArc
 50
359.9999999999917
 51
90.00000000000826
  0
LINE
  5
1A27B
330
19BD8
100
AcDbEntity
  8
U1
100
AcDbLine
 10
7056.627507899638
 20
6934.443182432328
 30
0.0
 11
7056.627507899638
 21
6882.043182432328
 31
0.0
  0
ARC
  5
1A27C
330
19BD8
100
AcDbEntity
  8
U1
100
AcDbCircle
 10
7050.327507899641
 20
6882.043182432328
 30
0.0
 40
6.299999999999272
100
AcDbArc
 50
269.9999999999918
 51
0.0
  0
LINE
  5
1A27D
330
19BD8
100
AcDbEntity
  8
U1
100
AcDbLine
 10
7050.327507899638
 20
6875.74318243233
 30
0.0
 11
6997.927507899639
 21
6875.74318243233
 31
0.0
  0
ARC
  5
1A27E
330
19BD8
100
AcDbEntity
  8
U1
100
AcDbCircle
 10
6997.927507899636
 20
6882.043182432328
 30
0.0
 40
6.299999999999272
100
AcDbArc
 50
180.0
 51
270.0000000000081
  0
LINE
  5
1A27F
330
19BD8
100
AcDbEntity
  8
U1
100
AcDbLine
 10
6991.627507899639
 20
6882.043182432328
 30
0.0
 11
6991.627507899639
 21
6934.443182432328
 31
0.0
  0
ARC
  5
1A280
330
19BD8
100
AcDbEntity
  8
U1
100
AcDbCircle
 10
9860.32750789964
 20
6934.443182432328
 30
0.0
 40
6.299999999999272
100
AcDbArc
 50
0.0
 51
90.00000000001655
  0
LINE
  5
1A281
330
19BD8
100
AcDbEntity
  8
U1
100
AcDbLine
 10
9860.327507899636
 20
6940.743182432328
 30
0.0
 11
9852.927507899641
 21
6940.743182432328
 31
0.0
  0
ARC
  5
1A282
330
19BD8
100
AcDbEntity
  8
U1
100
AcDbCircle
 10
9852.927507899636
 20
6934.443182432328
 30
0.0
 40
6.300000000000181
100
AcDbArc
 50
89.99999999998346
 51
180.0
  0
ARC
  5
1A283
330
19BD8
100
AcDbEntity
  8
U1
100
AcDbCircle
 10
9840.32750789964
 20
6934.443182432328
 30
0.0
 40
6.299999999999272
100
AcDbArc
 50
0.0
 51
90.00000000001655
  0
LINE
  5
1A284
330
19BD8
100
AcDbEntity
  8
U1
100
AcDbLine
 10
9840.327507899637
 20
6940.743182432328
 30
0.0
 11
9807.927507899641
 21
6940.743182432328
 31
0.0
  0
ARC
  5
1A285
330
19BD8
100
AcDbEntity
  8
U1
100
AcDbCircle
 10
9807.927507899636
 20
6934.443182432328
 30
0.0
 40
6.300000000000181
100
AcDbArc
 50
89.99999999998346
 51
180.0
  0
LINE
  5
1A286
330
19BD8
100
AcDbEntity
  8
U1
100
AcDbLine
 10
9801.627507899638
 20
6934.443182432328
 30
0.0
 11
9801.627507899638
 21
6882.043182432328
 31
0.0
  0
ARC
  5
1A287
330
19BD8
100
AcDbEntity
  8
U1
100
AcDbCircle
 10
9807.927507899636
 20
6882.04318243233
 30
0.0
 40
6.299999999999272
100
AcDbArc
 50
180.0000000000082
 51
270.0000000000164
  0
LINE
  5
1A288
330
19BD8
100
AcDbEntity
  8
U1
100
AcDbLine
 10
9807.927507899641
 20
6875.74318243233
 30
0.0
 11
9860.327507899636
 21
6875.74318243233
 31
0.0
  0
ARC
  5
1A289
330
19BD8
100
AcDbEntity
  8
U1
100
AcDbCircle
 10
9860.32750789964
 20
6882.04318243233
 30
0.0
 40
6.300000000000181
100
AcDbArc
 50
269.9999999999834
 51
359.9999999999917
  0
LINE
  5
1A28A
330
19BD8
100
AcDbEntity
  8
U1
100
AcDbLine
 10
9866.627507899636
 20
6882.043182432328
 30
0.0
 11
9866.627507899636
 21
6934.443182432328
 31
0.0
  0
TEXT
  5
1A2AD
330
19BD8
100
AcDbEntity
  8
SUNPOU
100
AcDbText
 10
2079.190948833717
 20
5676.435003771055
 30
0.0
 40
73.84615384615384
  1
1
 41
0.6700000000000001
  7
00
 11
2079.190948833717
 21
5666.588849924901
 31
0.0
100
AcDbText
 73
     1
  0
TEXT
  5
1A2AE
330
19BD8
100
AcDbEntity
  8
SUNPOU
100
AcDbText
 10
1759.488246980632
 20
5660.435003771053
 30
0.0
 40
92.30769230769228
  1
（ S = 　　  ）
 41
0.6700000000000001
  7
00
 11
1759.488246980632
 21
5648.127311463361
 31
0.0
100
AcDbText
 73
     1
  0
TEXT
  5
1A2AF
330
19BD8
100
AcDbEntity
  8
SUNPOU
100
AcDbText
 10
1042.637909617663
 20
5648.127311463362
 30
0.0
 40
120.0
  1
基礎断面図
  7
01
 72
     4
 11
1382.637909617662
 21
5708.127311463362
 31
0.0
100
AcDbText
  0
TEXT
  5
1A2B0
330
19BD8
100
AcDbEntity
  8
SUNPOU
100
AcDbText
 10
2191.546519103457
 20
5639.511926847976
 30
0.0
 40
73.84615384615384
  1
25
 41
0.6700000000000001
  7
00
 11
2191.546519103457
 21
5629.665773001821
 31
0.0
100
AcDbText
 73
     1
  0
TEXT
  5
1A2B1
330
19BD8
100
AcDbEntity
  8
SUNPOU
100
AcDbText
 10
2127.597076149089
 20
5657.973465309515
 30
0.0
 40
73.84615384615384
  1
/
 41
0.6700000000000001
  7
00
 11
2127.597076149089
 21
5648.127311463361
 31
0.0
100
AcDbText
 73
     1
  0
TEXT
  5
1A2B2
330
19BD8
100
AcDbEntity
  8
SUNPOU
100
AcDbText
 10
1422.800140566145
 20
4922.087594731692
 30
0.0
 40
90.0
  1
寒冷地の場合、凍結深度等を考慮し、実情に
  7
01
100
AcDbText
  0
TEXT
  5
1A2B3
330
19BD8
100
AcDbEntity
  8
SUNPOU
100
AcDbText
 10
1422.800140566145
 20
4613.516166160261
 30
0.0
 40
90.0
  1
その他現地の実情にあわせて設計して下さい。
  7
01
100
AcDbText
  0
TEXT
  5
1A2B4
330
19BD8
100
AcDbEntity
  8
SUNPOU
100
AcDbText
 10
1047.844395476751
 20
5301.373309017403
 30
0.0
 40
89.9993750043402
  1
地耐力   　　　 以上,コンクリート設計基準強度　　　　　以上
  7
01
100
AcDbText
  0
TEXT
  5
1A2B5
330
19BD8
100
AcDbEntity
  8
SUNPOU
100
AcDbText
 10
917.28076676052
 20
5490.62731146336
 30
0.0
 40
90.0
  1
<下記条件での参考図>
  7
01
 72
     4
 11
1506.137909617662
 21
5535.627311463361
 31
0.0
100
AcDbText
  0
TEXT
  5
1A2B6
330
19BD8
100
AcDbEntity
  8
SUNPOU
100
AcDbText
 10
1422.800140566145
 20
4767.801880445975
 30
0.0
 40
90.0
  1
あわせて設計して下さい。
  7
01
100
AcDbText
  0
TEXT
  5
1A2B7
330
19BD8
100
AcDbEntity
  8
SUNPOU
100
AcDbText
 10
1047.844395476751
 20
5147.087594731692
 30
0.0
 40
89.9993750043402
  1
基準風速   　　 , 地表面粗度区分
  7
01
100
AcDbText
  0
TEXT
  5
1A2B8
330
19BD8
100
AcDbEntity
  8
SUNPOU
100
AcDbText
 10
1105.960475264008
 20
4613.516166160261
 30
0.0
 40
90.0
  1
注　）
  7
01
100
AcDbText
  0
TEXT
  5
1A2B9
330
19BD8
100
AcDbEntity
  8
SUNPOU
100
AcDbText
 10
1216.594395476749
 20
4613.516166160261
 30
0.0
 40
90.0
  1
2
 41
0.6700000000000001
  7
01
100
AcDbText
  0
TEXT
  5
1A2BA
330
19BD8
100
AcDbEntity
  8
SUNPOU
100
AcDbText
 10
1105.960475264008
 20
4922.087594731692
 30
0.0
 40
90.0
  1
注　）
  7
01
100
AcDbText
  0
TEXT
  5
1A2BB
330
19BD8
100
AcDbEntity
  8
SUNPOU
100
AcDbText
 10
1216.594395476749
 20
4922.087594731692
 30
0.0
 40
90.0
  1
1
 41
0.6700000000000001
  7
01
100
AcDbText
  0
ARC
  5
1A2BC
330
19BD8
100
AcDbEntity
  8
SUNPOU
100
AcDbCircle
 10
1200.802669383956
 20
5265.160732459236
 30
0.0
 40
225.0
100
AcDbArc
 50
148.3472725282829
 51
211.652727471717
  0
TEXT
  5
1A2BD
330
19BD8
100
AcDbEntity
  8
SUNPOU
100
AcDbText
 10
1531.607824141919
 20
5147.087594731692
 30
0.0
 40
89.9993750043402
  1
34 m/s
 41
0.6700000000000001
  7
01
100
AcDbText
  0
TEXT
  5
1A2BE
330
19BD8
100
AcDbEntity
  8
SUNPOU
100
AcDbText
 10
1422.102802901834
 20
5301.373309017403
 30
0.0
 40
89.9993750043402
  1
50  N/m
 41
0.6700000000000001
  7
01
100
AcDbText
  0
TEXT
  5
1A2BF
330
19BD8
100
AcDbEntity
  8
SUNPOU
100
AcDbText
 10
1557.939255687788
 20
5301.373309017403
 30
0.0
 40
71.99950000347218
  1
K
 41
0.6700000000000001
  7
01
100
AcDbText
  0
TEXT
  5
1A2C0
330
19BD8
100
AcDbEntity
  8
SUNPOU
100
AcDbText
 10
1825.579412416169
 20
5351.561735374891
 30
0.0
 40
46.28539285937498
  1
2
 41
0.6700000000000001
  7
00
100
AcDbText
  0
LINE
  5
1A2C1
330
19BD8
100
AcDbEntity
  8
SUNPOU
100
AcDbLine
 10
2839.659957043359
 20
5230.579958430471
 30
0.0
 11
2895.909957043359
 21
5230.579958430471
 31
0.0
  0
LINE
  5
1A2C2
330
19BD8
100
AcDbEntity
  8
SUNPOU
100
AcDbLine
 10
2839.659957043359
 20
5147.087594731688
 30
0.0
 11
2895.909957043359
 21
5147.087594731688
 31
0.0
  0
LINE
  5
1A2C3
330
19BD8
100
AcDbEntity
  8
SUNPOU
100
AcDbLine
 10
2850.909957043359
 20
5147.087594731692
 30
0.0
 11
2850.909957043359
 21
5230.579958430471
 31
0.0
  0
LINE
  5
1A2C4
330
19BD8
100
AcDbEntity
  8
SUNPOU
100
AcDbLine
 10
2867.784957043359
 20
5147.087594731692
 30
0.0
 11
2867.784957043359
 21
5230.579958430471
 31
0.0
  0
LINE
  5
1A2C5
330
19BD8
100
AcDbEntity
  8
SUNPOU
100
AcDbLine
 10
2884.659957043359
 20
5147.087594731692
 30
0.0
 11
2884.659957043359
 21
5230.579958430471
 31
0.0
  0
TEXT
  5
1A2C6
330
19BD8
100
AcDbEntity
  8
SUNPOU
100
AcDbText
 10
3628.028073153398
 20
5301.373309017403
 30
0.0
 40
89.9993750043402
  1
N/mm
 41
0.6700000000000001
  7
01
100
AcDbText
  0
TEXT
  5
1A2C7
330
19BD8
100
AcDbEntity
  8
SUNPOU
100
AcDbText
 10
3492.191620367448
 20
5301.373309017403
 30
0.0
 40
89.9993750043402
  1
18
 41
0.6700000000000001
  7
01
100
AcDbText
  0
ARC
  5
1A2C8
330
19BD8
100
AcDbEntity
  8
SUNPOU
100
AcDbCircle
 10
4102.242952635517
 20
5265.160732459236
 30
0.0
 40
225.0
100
AcDbArc
 50
328.3472725282829
 51
31.65272747171703
  0
TEXT
  5
1A2C9
330
19BD8
100
AcDbEntity
  8
SUNPOU
100
AcDbText
 10
3932.492555184803
 20
5351.561735374891
 30
0.0
 40
46.28539285937498
  1
2
 41
0.6700000000000001
  7
00
100
AcDbText
  0
ENDSEC
  0
SECTION
  2
OBJECTS
  0
DICTIONARY
  5
19BC6
330
0
100
AcDbDictionary
281
     1
  3
ACAD_GROUP
350
19BC7
  3
ACAD_LAYOUT
350
19BD3
  3
ACAD_MLINESTYLE
350
19BD0
  3
ACAD_PLOTSETTINGS
350
19BD2
  3
ACAD_PLOTSTYLENAME
350
19BC8
  3
AcDbVariableDictionary
350
1A2CA
  0
DICTIONARY
  5
19BC7
102
{ACAD_REACTORS
330
19BC6
102
}
330
19BC6
100
AcDbDictionary
281
     1
  0
DICTIONARY
  5
19BD3
102
{ACAD_REACTORS
330
19BC6
102
}
330
19BC6
100
AcDbDictionary
281
     1
  3
Model
350
19BDB
  3
ﾚｲｱｳﾄ1
350
19BD7
  0
DICTIONARY
  5
19BD0
102
{ACAD_REACTORS
330
19BC6
102
}
330
19BC6
100
AcDbDictionary
281
     1
  3
Standard
350
19BD1
  0
DICTIONARY
  5
19BD2
102
{ACAD_REACTORS
330
19BC6
102
}
330
19BC6
100
AcDbDictionary
281
     1
  0
ACDBDICTIONARYWDFLT
  5
19BC8
102
{ACAD_REACTORS
330
19BC6
102
}
330
19BC6
100
AcDbDictionary
281
     1
  3
Normal
350
19BC9
100
AcDbDictionaryWithDefault
340
19BC9
  0
DICTIONARY
  5
1A2CA
102
{ACAD_REACTORS
330
19BC6
102
}
330
19BC6
100
AcDbDictionary
281
     1
  3
DIMASSOC
350
1A2CB
  0
LAYOUT
  5
19BDB
102
{ACAD_REACTORS
330
19BD3
102
}
330
19BD3
100
AcDbPlotSettings
  1

  2
Muratec V-1200 Is@Web Printer
  4

  6

 40
0.0
 41
0.0
 42
0.0
 43
0.0
 44
0.0
 45
0.0
 46
0.0
 47
0.0
 48
0.0
 49
0.0
140
0.0
141
0.0
142
1.0
143
1.0
 70
  1712
 72
     0
 73
     0
 74
     0
  7

 75
     0
147
1.0
148
0.0
149
0.0
100
AcDbLayout
  1
Model
 70
     1
 71
     0
 10
0.0
 20
0.0
 11
12.0
 21
9.0
 12
0.0
 22
0.0
 32
0.0
 14
0.0
 24
0.0
 34
0.0
 15
0.0
 25
0.0
 35
0.0
146
0.0
 13
0.0
 23
0.0
 33
0.0
 16
1.0
 26
0.0
 36
0.0
 17
0.0
 27
1.0
 37
0.0
 76
     0
330
19BD8
  0
LAYOUT
  5
19BD7
102
{ACAD_REACTORS
330
19BD3
102
}
330
19BD3
100
AcDbPlotSettings
  1

  2
Muratec V-1200 Is@Web Printer
  4

  6

 40
0.0
 41
0.0
 42
0.0
 43
0.0
 44
0.0
 45
0.0
 46
0.0
 47
0.0
 48
0.0
 49
0.0
140
0.0
141
0.0
142
1.0
143
1.0
 70
   688
 72
     0
 73
     0
 74
     5
  7

 75
    16
147
1.0
148
0.0
149
0.0
100
AcDbLayout
  1
ﾚｲｱｳﾄ1
 70
     0
 71
     1
 10
0.0
 20
0.0
 11
12.0
 21
9.0
 12
0.0
 22
0.0
 32
0.0
 14
1.000000000000000E+20
 24
1.000000000000000E+20
 34
1.000000000000000E+20
 15
-1.000000000000000E+20
 25
-1.000000000000000E+20
 35
-1.000000000000000E+20
146
0.0
 13
0.0
 23
0.0
 33
0.0
 16
1.0
 26
0.0
 36
0.0
 17
0.0
 27
1.0
 37
0.0
 76
     0
330
19BD4
  0
MLINESTYLE
  5
19BD1
102
{ACAD_REACTORS
330
19BD0
102
}
330
19BD0
100
AcDbMlineStyle
  2
STANDARD
 70
     0
  3

 62
   256
 51
90.0
 52
90.0
 71
     2
 49
0.5
 62
   256
  6
BYLAYER
 49
-0.5
 62
   256
  6
BYLAYER
  0
ACDBPLACEHOLDER
  5
19BC9
102
{ACAD_REACTORS
330
19BC8
102
}
330
19BC8
  0
DICTIONARYVAR
  5
1A2CB
102
{ACAD_REACTORS
330
1A2CA
102
}
330
1A2CA
100
DictionaryVariables
280
     0
  1
1
  0
ENDSEC
  0
EOF
