  0
SECTION
  2
HEADER
  9
$ACADVER
  1
AC1024
  9
$ACADMAINTVER
 70
     6
  9
$DWGCODEPAGE
  3
ANSI_932
  9
$LASTSAVEDBY
  1
G機
  9
$INSBASE
 10
267.0000000000001
 20
194.8999999999998
 30
0.0
  9
$EXTMIN
 10
433.9966216520333
 20
163.6908237492789
 30
-0.0000000000000053
  9
$EXTMAX
 10
16382.6660542547
 20
11242.27663824599
 30
0.0000000000000099
  9
$LIMMIN
 10
0.0
 20
0.0
  9
$LIMMAX
 10
16800.0
 20
11880.0
  9
$ORTHOMODE
 70
     0
  9
$REGENMODE
 70
     1
  9
$FILLMODE
 70
     1
  9
$QTEXTMODE
 70
     0
  9
$MIRRTEXT
 70
     0
  9
$LTSCALE
 40
40.0
  9
$ATTMODE
 70
     1
  9
$TEXTSIZE
 40
0.2
  9
$TRACEWID
 40
0.05
  9
$TEXTSTYLE
  7
00
  9
$CLAYER
  8
HIKIDASHI
  9
$CELTYPE
  6
BYLAYER
  9
$CECOLOR
 62
   256
  9
$CELTSCALE
 40
1.0
  9
$DISPSILH
 70
     0
  9
$DIMSCALE
 40
30.0
  9
$DIMASZ
 40
0.5
  9
$DIMEXO
 40
1.0
  9
$DIMDLI
 40
7.0
  9
$DIMRND
 40
0.0
  9
$DIMDLE
 40
3.0
  9
$DIMEXE
 40
1.5
  9
$DIMTP
 40
0.0
  9
$DIMTM
 40
0.0
  9
$DIMTXT
 40
3.0
  9
$DIMCEN
 40
0.0
  9
$DIMTSZ
 40
0.0
  9
$DIMTOL
 70
     0
  9
$DIMLIM
 70
     0
  9
$DIMTIH
 70
     0
  9
$DIMTOH
 70
     0
  9
$DIMSE1
 70
     0
  9
$DIMSE2
 70
     0
  9
$DIMTAD
 70
     1
  9
$DIMZIN
 70
     8
  9
$DIMBLK
  1
DOT
  9
$DIMASO
 70
     1
  9
$DIMSHO
 70
     0
  9
$DIMPOST
  1

  9
$DIMAPOST
  1

  9
$DIMALT
 70
     0
  9
$DIMALTD
 70
     2
  9
$DIMALTF
 40
25.4
  9
$DIMLFAC
 40
1.0
  9
$DIMTOFL
 70
     1
  9
$DIMTVP
 40
0.0
  9
$DIMTIX
 70
     0
  9
$DIMSOXD
 70
     0
  9
$DIMSAH
 70
     1
  9
$DIMBLK1
  1
DOT
  9
$DIMBLK2
  1
DOT
  9
$DIMSTYLE
  2
SUNPOU_図面名
  9
$DIMCLRD
 70
   256
  9
$DIMCLRE
 70
   256
  9
$DIMCLRT
 70
   256
  9
$DIMTFAC
 40
1.0
  9
$DIMGAP
 40
1.5
  9
$DIMJUST
 70
     0
  9
$DIMSD1
 70
     0
  9
$DIMSD2
 70
     0
  9
$DIMTOLJ
 70
     1
  9
$DIMTZIN
 70
     0
  9
$DIMALTZ
 70
     0
  9
$DIMALTTZ
 70
     0
  9
$DIMUPT
 70
     0
  9
$DIMDEC
 70
     2
  9
$DIMTDEC
 70
     2
  9
$DIMALTU
 70
     2
  9
$DIMALTTD
 70
     2
  9
$DIMTXSTY
  7
00
  9
$DIMAUNIT
 70
     0
  9
$DIMADEC
 70
     0
  9
$DIMALTRND
 40
0.0
  9
$DIMAZIN
 70
     0
  9
$DIMDSEP
 70
    46
  9
$DIMATFIT
 70
     3
  9
$DIMFRAC
 70
     0
  9
$DIMLDRBLK
  1
DOT
  9
$DIMLUNIT
 70
     2
  9
$DIMLWD
 70
    -2
  9
$DIMLWE
 70
    -2
  9
$DIMTMOVE
 70
     0
  9
$DIMFXL
 40
1.0
  9
$DIMFXLON
 70
     0
  9
$DIMJOGANG
 40
0.7853981633974483
  9
$DIMTFILL
 70
     0
  9
$DIMTFILLCLR
 70
     0
  9
$DIMARCSYM
 70
     0
  9
$DIMLTYPE
  6

  9
$DIMLTEX1
  6

  9
$DIMLTEX2
  6

  9
$DIMTXTDIRECTION
 70
     0
  9
$LUNITS
 70
     2
  9
$LUPREC
 70
     2
  9
$SKETCHINC
 40
0.1
  9
$FILLETRAD
 40
0.0
  9
$AUNITS
 70
     0
  9
$AUPREC
 70
     0
  9
$MENU
  1
A:\TIGER\MENU\TIGER
  9
$ELEVATION
 40
0.0
  9
$PELEVATION
 40
0.0
  9
$THICKNESS
 40
0.0
  9
$LIMCHECK
 70
     0
  9
$CHAMFERA
 40
0.0
  9
$CHAMFERB
 40
0.0
  9
$CHAMFERC
 40
0.0
  9
$CHAMFERD
 40
0.0
  9
$SKPOLY
 70
     0
  9
$TDCREATE
 40
2450266.571064815
  9
$TDUCREATE
 40
2450266.196064815
  9
$TDUPDATE
 40
2455105.483689051
  9
$TDUUPDATE
 40
2455105.108689051
  9
$TDINDWG
 40
0.1659754745
  9
$TDUSRTIMER
 40
0.1659754745
  9
$USRTIMER
 70
     1
  9
$ANGBASE
 50
0.0
  9
$ANGDIR
 70
     0
  9
$PDMODE
 70
     0
  9
$PDSIZE
 40
0.0
  9
$PLINEWID
 40
0.0
  9
$SPLFRAME
 70
     0
  9
$SPLINETYPE
 70
     6
  9
$SPLINESEGS
 70
     8
  9
$HANDSEED
  5
17887
  9
$SURFTAB1
 70
     6
  9
$SURFTAB2
 70
     6
  9
$SURFTYPE
 70
     6
  9
$SURFU
 70
     6
  9
$SURFV
 70
     6
  9
$UCSBASE
  2

  9
$UCSNAME
  2

  9
$UCSORG
 10
0.0
 20
0.0
 30
0.0
  9
$UCSXDIR
 10
1.0
 20
0.0
 30
0.0
  9
$UCSYDIR
 10
0.0
 20
1.0
 30
0.0
  9
$UCSORTHOREF
  2

  9
$UCSORTHOVIEW
 70
     0
  9
$UCSORGTOP
 10
0.0
 20
0.0
 30
0.0
  9
$UCSORGBOTTOM
 10
0.0
 20
0.0
 30
0.0
  9
$UCSORGLEFT
 10
0.0
 20
0.0
 30
0.0
  9
$UCSORGRIGHT
 10
0.0
 20
0.0
 30
0.0
  9
$UCSORGFRONT
 10
0.0
 20
0.0
 30
0.0
  9
$UCSORGBACK
 10
0.0
 20
0.0
 30
0.0
  9
$PUCSBASE
  2

  9
$PUCSNAME
  2

  9
$PUCSORG
 10
0.0
 20
0.0
 30
0.0
  9
$PUCSXDIR
 10
1.0
 20
0.0
 30
0.0
  9
$PUCSYDIR
 10
0.0
 20
1.0
 30
0.0
  9
$PUCSORTHOREF
  2

  9
$PUCSORTHOVIEW
 70
     0
  9
$PUCSORGTOP
 10
0.0
 20
0.0
 30
0.0
  9
$PUCSORGBOTTOM
 10
0.0
 20
0.0
 30
0.0
  9
$PUCSORGLEFT
 10
0.0
 20
0.0
 30
0.0
  9
$PUCSORGRIGHT
 10
0.0
 20
0.0
 30
0.0
  9
$PUCSORGFRONT
 10
0.0
 20
0.0
 30
0.0
  9
$PUCSORGBACK
 10
0.0
 20
0.0
 30
0.0
  9
$USERI1
 70
     3
  9
$USERI2
 70
     0
  9
$USERI3
 70
     0
  9
$USERI4
 70
     0
  9
$USERI5
 70
  1103
  9
$USERR1
 40
0.0
  9
$USERR2
 40
1.0
  9
$USERR3
 40
0.0
  9
$USERR4
 40
0.0
  9
$USERR5
 40
0.0
  9
$WORLDVIEW
 70
     1
  9
$SHADEDGE
 70
     3
  9
$SHADEDIF
 70
    70
  9
$TILEMODE
 70
     1
  9
$MAXACTVP
 70
    16
  9
$PINSBASE
 10
267.0000000000001
 20
194.8999999999998
 30
0.0
  9
$PLIMCHECK
 70
     0
  9
$PEXTMIN
 10
1.000000000000000E+20
 20
1.000000000000000E+20
 30
1.000000000000000E+20
  9
$PEXTMAX
 10
-1.000000000000000E+20
 20
-1.000000000000000E+20
 30
-1.000000000000000E+20
  9
$PLIMMIN
 10
0.0
 20
0.0
  9
$PLIMMAX
 10
12.0
 20
9.0
  9
$UNITMODE
 70
     0
  9
$VISRETAIN
 70
     0
  9
$PLINEGEN
 70
     1
  9
$PSLTSCALE
 70
     0
  9
$TREEDEPTH
 70
  3020
  9
$CMLSTYLE
  2
STANDARD
  9
$CMLJUST
 70
     0
  9
$CMLSCALE
 40
1.0
  9
$PROXYGRAPHICS
 70
     1
  9
$MEASUREMENT
 70
     0
  9
$CELWEIGHT
370
    -1
  9
$ENDCAPS
280
     0
  9
$JOINSTYLE
280
     0
  9
$LWDISPLAY
290
     0
  9
$INSUNITS
 70
     0
  9
$HYPERLINKBASE
  1

  9
$STYLESHEET
  1
sinsei-a3.ctb
  9
$XEDIT
290
     1
  9
$CEPSNTYPE
380
     0
  9
$PSTYLEMODE
290
     1
  9
$FINGERPRINTGUID
  2
{E6DDE4A3-3185-11D4-AFBC-0040266D0056}
  9
$VERSIONGUID
  2
{2CB1D237-AFF9-4F23-9328-C2AF551E940D}
  9
$EXTNAMES
290
     1
  9
$PSVPSCALE
 40
0.0
  9
$OLESTARTUP
290
     0
  9
$SORTENTS
280
   127
  9
$INDEXCTL
280
     0
  9
$HIDETEXT
280
     0
  9
$XCLIPFRAME
280
     2
  9
$HALOGAP
280
     0
  9
$OBSCOLOR
 70
   257
  9
$OBSLTYPE
280
     0
  9
$INTERSECTIONDISPLAY
280
     0
  9
$INTERSECTIONCOLOR
 70
   257
  9
$DIMASSOC
280
     1
  9
$PROJECTNAME
  1

  9
$CAMERADISPLAY
290
     0
  9
$LENSLENGTH
 40
50.0
  9
$CAMERAHEIGHT
 40
0.0
  9
$STEPSPERSEC
 40
2.0
  9
$STEPSIZE
 40
6.0
  9
$3DDWFPREC
 40
2.0
  9
$PSOLWIDTH
 40
0.25
  9
$PSOLHEIGHT
 40
4.0
  9
$LOFTANG1
 40
1.570796326794896
  9
$LOFTANG2
 40
1.570796326794896
  9
$LOFTMAG1
 40
0.0
  9
$LOFTMAG2
 40
0.0
  9
$LOFTPARAM
 70
     7
  9
$LOFTNORMALS
280
     1
  9
$LATITUDE
 40
37.795
  9
$LONGITUDE
 40
-122.394
  9
$NORTHDIRECTION
 40
0.0
  9
$TIMEZONE
 70
 -8000
  9
$LIGHTGLYPHDISPLAY
280
     1
  9
$TILEMODELIGHTSYNCH
280
     1
  9
$CMATERIAL
347
15B20
  9
$SOLIDHIST
280
     1
  9
$SHOWHIST
280
     1
  9
$DWFFRAME
280
     2
  9
$DGNFRAME
280
     0
  9
$REALWORLDSCALE
290
     1
  9
$INTERFERECOLOR
 62
     1
  9
$INTERFEREOBJVS
345
15B2D
  9
$INTERFEREVPVS
346
15B2A
  9
$CSHADOW
280
     0
  9
$SHADOWPLANELOCATION
 40
0.0
  0
ENDSEC
  0
SECTION
  2
CLASSES
  0
CLASS
  1
ACDBDICTIONARYWDFLT
  2
AcDbDictionaryWithDefault
  3
ObjectDBX Classes
 90
        0
 91
        1
280
     0
281
     0
  0
CLASS
  1
DICTIONARYVAR
  2
AcDbDictionaryVar
  3
ObjectDBX Classes
 90
        0
 91
       20
280
     0
281
     0
  0
CLASS
  1
MATERIAL
  2
AcDbMaterial
  3
ObjectDBX Classes
 90
     1153
 91
        3
280
     0
281
     0
  0
CLASS
  1
VISUALSTYLE
  2
AcDbVisualStyle
  3
ObjectDBX Classes
 90
     4095
 91
       19
280
     0
281
     0
  0
CLASS
  1
TABLESTYLE
  2
AcDbTableStyle
  3
ObjectDBX Classes
 90
     4095
 91
        1
280
     0
281
     0
  0
CLASS
  1
EXACTERMXREFMAP
  2
ExAcTermXrefMap
  3
EXAC_SERVICE
 90
     1025
 91
        0
280
     0
281
     0
  0
CLASS
  1
NPOCOLLECTION
  2
AcDbImpNonPersistentObjectsCollection
  3
ObjectDBX Classes
 90
     1153
 91
        1
280
     0
281
     0
  0
CLASS
  1
EXACXREFPANELOBJECT
  2
ExAcXREFPanelObject
  3
EXAC_ESW
 90
     1025
 91
        1
280
     0
281
     0
  0
CLASS
  1
SCALE
  2
AcDbScale
  3
ObjectDBX Classes
 90
     1153
 91
       33
280
     0
281
     0
  0
CLASS
  1
MLEADERSTYLE
  2
AcDbMLeaderStyle
  3
ACDB_MLEADERSTYLE_CLASS
 90
     4095
 91
        1
280
     0
281
     0
  0
CLASS
  1
CELLSTYLEMAP
  2
AcDbCellStyleMap
  3
ObjectDBX Classes
 90
     1152
 91
        2
280
     0
281
     0
  0
CLASS
  1
SORTENTSTABLE
  2
AcDbSortentsTable
  3
ObjectDBX Classes
 90
        0
 91
        1
280
     0
281
     0
  0
ENDSEC
  0
SECTION
  2
TABLES
  0
TABLE
  2
VPORT
  5
1259A
102
{ACAD_XDICTIONARY
360
15B8E
102
}
330
0
100
AcDbSymbolTable
 70
     1
  0
VPORT
  5
16F6B
330
1259A
100
AcDbSymbolTableRecord
100
AcDbViewportTableRecord
  2
*Active
 70
     0
 10
0.0
 20
0.0
 11
1.0
 21
1.0
 12
8399.999999999998
 22
5940.000000000001
 13
0.0
 23
0.0
 14
1.0
 24
1.0
 15
0.0
 25
0.0
 16
0.0
 26
0.0
 36
1.0
 17
0.0
 27
0.0
 37
0.0
 40
12263.96195996978
 41
1.378116343490304
 42
50.0
 43
0.0
 44
0.0
 50
0.0
 51
0.0
 71
     0
 72
 10000
 73
     1
 74
     0
 75
     0
 76
     0
 77
     0
 78
     0
281
     0
 65
     1
110
0.0
120
0.0
130
0.0
111
1.0
121
0.0
131
0.0
112
0.0
122
1.0
132
0.0
 79
     0
146
0.0
348
15B29
 60
     3
 61
     5
292
     1
282
     1
141
0.0
142
0.0
 63
   250
421
  3355443
  0
ENDTAB
  0
TABLE
  2
LTYPE
  5
12597
330
0
100
AcDbSymbolTable
 70
    20
  0
LTYPE
  5
125A4
330
12597
100
AcDbSymbolTableRecord
100
AcDbLinetypeTableRecord
  2
BYBLOCK
 70
     0
  3

 72
    65
 73
     0
 40
0.0
  0
LTYPE
  5
125A5
330
12597
100
AcDbSymbolTableRecord
100
AcDbLinetypeTableRecord
  2
BYLAYER
 70
     0
  3

 72
    65
 73
     0
 40
0.0
  0
LTYPE
  5
125A6
330
12597
100
AcDbSymbolTableRecord
100
AcDbLinetypeTableRecord
  2
CONTINUOUS
 70
     0
  3
実線
 72
    65
 73
     0
 40
0.0
  0
LTYPE
  5
125B9
330
12597
100
AcDbSymbolTableRecord
100
AcDbLinetypeTableRecord
  2
1PL-LL
 70
     0
  3

 72
    65
 73
     4
 40
106.0
 49
100.0
 74
     0
 49
-2.0
 74
     0
 49
2.0
 74
     0
 49
-2.0
 74
     0
  0
LTYPE
  5
125BC
330
12597
100
AcDbSymbolTableRecord
100
AcDbLinetypeTableRecord
  2
1PL-M
 70
     0
  3

 72
    65
 73
     4
 40
15.0
 49
12.0
 74
     0
 49
-1.0
 74
     0
 49
1.0
 74
     0
 49
-1.0
 74
     0
  0
LTYPE
  5
125C0
330
12597
100
AcDbSymbolTableRecord
100
AcDbLinetypeTableRecord
  2
2PL-L
 70
     0
  3

 72
    65
 73
     6
 40
60.0
 49
50.0
 74
     0
 49
-2.0
 74
     0
 49
2.0
 74
     0
 49
-2.0
 74
     0
 49
2.0
 74
     0
 49
-2.0
 74
     0
  0
LTYPE
  5
12C5B
330
12597
100
AcDbSymbolTableRecord
100
AcDbLinetypeTableRecord
  2
1PL-12
 70
     0
  3

 72
    65
 73
     4
 40
15.0
 49
12.0
 74
     0
 49
-1.0
 74
     0
 49
1.0
 74
     0
 49
-1.0
 74
     0
  0
ENDTAB
  0
TABLE
  2
LAYER
  5
12594
330
0
100
AcDbSymbolTable
 70
    90
  0
LAYER
  5
125A1
102
{ACAD_XDICTIONARY
360
16FA9
102
}
330
12594
100
AcDbSymbolTableRecord
100
AcDbLayerTableRecord
  2
0
 70
     0
 62
     7
  6
CONTINUOUS
370
    -3
390
1297A
347
15B22
  0
LAYER
  5
125C8
102
{ACAD_XDICTIONARY
360
16FAD
102
}
330
12594
100
AcDbSymbolTableRecord
100
AcDbLayerTableRecord
  2
U1
 70
     0
 62
     3
  6
CONTINUOUS
370
    -3
390
1297A
347
15B22
  0
LAYER
  5
125CA
102
{ACAD_XDICTIONARY
360
16FB1
102
}
330
12594
100
AcDbSymbolTableRecord
100
AcDbLayerTableRecord
  2
U3
 70
     0
 62
     6
  6
CONTINUOUS
370
    -3
390
1297A
347
15B22
  0
LAYER
  5
125D1
102
{ACAD_XDICTIONARY
360
16FBF
102
}
330
12594
100
AcDbSymbolTableRecord
100
AcDbLayerTableRecord
  2
SUNPOU
 70
     0
 62
     4
  6
CONTINUOUS
370
    -3
390
1297A
347
15B22
  0
LAYER
  5
125D2
102
{ACAD_XDICTIONARY
360
16FC1
102
}
330
12594
100
AcDbSymbolTableRecord
100
AcDbLayerTableRecord
  2
HIKIDASHI
 70
     0
 62
     6
  6
CONTINUOUS
370
    -3
390
1297A
347
15B22
  0
LAYER
  5
125E5
102
{ACAD_XDICTIONARY
360
16FE7
102
}
330
12594
100
AcDbSymbolTableRecord
100
AcDbLayerTableRecord
  2
1PL-M1
 70
     0
 62
     6
  6
1PL-M
370
    -3
390
1297A
347
15B22
  0
LAYER
  5
12ACD
102
{ACAD_XDICTIONARY
360
1700B
102
}
330
12594
100
AcDbSymbolTableRecord
100
AcDbLayerTableRecord
  2
NAME
 70
     0
 62
    20
  6
CONTINUOUS
370
    -3
390
1297A
347
15B22
  0
LAYER
  5
12ACE
102
{ACAD_XDICTIONARY
360
1700D
102
}
330
12594
100
AcDbSymbolTableRecord
100
AcDbLayerTableRecord
  2
FILENAME
 70
     0
 62
     7
  6
CONTINUOUS
370
    -3
390
1297A
347
15B22
  0
LAYER
  5
12C5C
102
{ACAD_XDICTIONARY
360
1700F
102
}
330
12594
100
AcDbSymbolTableRecord
100
AcDbLayerTableRecord
  2
CENTER
 70
     0
 62
     6
  6
1PL-LL
370
    -3
390
1297A
347
15B22
  0
LAYER
  5
12C5D
102
{ACAD_XDICTIONARY
360
17011
102
}
330
12594
100
AcDbSymbolTableRecord
100
AcDbLayerTableRecord
  2
KISO
 70
     0
 62
     2
  6
CONTINUOUS
370
    -3
390
1297A
347
15B22
  0
LAYER
  5
12C70
102
{ACAD_XDICTIONARY
360
17037
102
}
330
12594
100
AcDbSymbolTableRecord
100
AcDbLayerTableRecord
  2
YANE
 70
     0
 62
     1
  6
1PL-12
370
    -3
390
1297A
347
15B22
  0
LAYER
  5
15354
102
{ACAD_XDICTIONARY
360
17047
102
}
330
12594
100
AcDbSymbolTableRecord
100
AcDbLayerTableRecord
  2
HATCH
 70
     0
 62
     1
  6
CONTINUOUS
370
    -3
390
1297A
347
15B22
  0
LAYER
  5
15355
102
{ACAD_XDICTIONARY
360
17049
102
}
330
12594
100
AcDbSymbolTableRecord
100
AcDbLayerTableRecord
  2
HASHIRA
 70
     0
 62
     3
  6
CONTINUOUS
370
    -3
390
1297A
347
15B22
  0
LAYER
  5
15356
102
{ACAD_XDICTIONARY
360
1704B
102
}
330
12594
100
AcDbSymbolTableRecord
100
AcDbLayerTableRecord
  2
tekkin
 70
     0
 62
     2
  6
CONTINUOUS
370
    -3
390
1297A
347
15B22
  0
LAYER
  5
15357
102
{ACAD_XDICTIONARY
360
1704D
102
}
330
12594
100
AcDbSymbolTableRecord
100
AcDbLayerTableRecord
  2
DOMAKON
 70
     0
 62
     2
  6
CONTINUOUS
370
    -3
390
1297A
347
15B22
  0
LAYER
  5
16FA0
102
{ACAD_XDICTIONARY
360
1704F
102
}
330
12594
100
AcDbSymbolTableRecord
100
AcDbLayerTableRecord
  2
YODOROGO
 70
     0
 62
   130
  6
CONTINUOUS
370
    -3
390
1297A
347
15B22
  0
LAYER
  5
16FA2
102
{ACAD_XDICTIONARY
360
17053
102
}
330
12594
100
AcDbSymbolTableRecord
100
AcDbLayerTableRecord
  2
YODOROGO-HATCH-F
 70
     0
 62
    80
  6
CONTINUOUS
370
    -3
390
1297A
347
15B22
  0
LAYER
  5
16FA3
102
{ACAD_XDICTIONARY
360
17055
102
}
330
12594
100
AcDbSymbolTableRecord
100
AcDbLayerTableRecord
  2
WAKUSEN-01
 70
     0
 62
    50
  6
CONTINUOUS
370
    -3
390
1297A
347
15B22
  0
LAYER
  5
16FA4
102
{ACAD_XDICTIONARY
360
17057
102
}
330
12594
100
AcDbSymbolTableRecord
100
AcDbLayerTableRecord
  2
WAKUSEN-02
 70
     0
 62
   130
  6
CONTINUOUS
370
    -3
390
1297A
347
15B22
  0
LAYER
  5
16FA5
102
{ACAD_XDICTIONARY
360
17059
102
}
330
12594
100
AcDbSymbolTableRecord
100
AcDbLayerTableRecord
  2
WAKUMOJI-01
 70
     0
 62
   130
  6
CONTINUOUS
370
    -3
390
1297A
347
15B22
  0
ENDTAB
  0
TABLE
  2
STYLE
  5
12595
330
0
100
AcDbSymbolTable
 70
    12
  0
STYLE
  5
125A2
330
12595
100
AcDbSymbolTableRecord
100
AcDbTextStyleTableRecord
  2
STANDARD
 70
     0
 40
3.0
 41
1.0
 50
0.0
 71
     0
 42
0.2
  3
ROMANS
  4
EXTFONT
  0
STYLE
  5
125B1
330
12595
100
AcDbSymbolTableRecord
100
AcDbTextStyleTableRecord
  2
01
 70
     0
 40
3.0
 41
1.0
 50
0.0
 71
     0
 42
0.2
  3
ROMANS
  4
BIGFONT
  0
STYLE
  5
125B3
330
12595
100
AcDbSymbolTableRecord
100
AcDbTextStyleTableRecord
  2
00
 70
     0
 40
0.0
 41
0.6666666666666666
 50
0.0
 71
     0
 42
0.2
  3
ROMANS
  4
BIGFONT
  0
STYLE
  5
126E5
330
12595
100
AcDbSymbolTableRecord
100
AcDbTextStyleTableRecord
  2
WAKUMOJI
 70
     0
 40
3.0
 41
1.0
 50
0.0
 71
     0
 42
3.0
  3
SIMPLEX
  4
BIGFONT
  0
STYLE
  5
12ACF
330
12595
100
AcDbSymbolTableRecord
100
AcDbTextStyleTableRecord
  2
FILENAME
 70
     0
 40
75.0
 41
1.0
 50
0.0
 71
     0
 42
75.0
  3
romans
  4
bigfont
  0
ENDTAB
  0
TABLE
  2
VIEW
  5
12598
330
0
100
AcDbSymbolTable
 70
     0
  0
ENDTAB
  0
TABLE
  2
UCS
  5
12599
330
0
100
AcDbSymbolTable
 70
     0
  0
ENDTAB
  0
TABLE
  2
APPID
  5
1259B
330
0
100
AcDbSymbolTable
 70
     4
  0
APPID
  5
125A3
330
1259B
100
AcDbSymbolTableRecord
100
AcDbRegAppTableRecord
  2
ACAD
 70
     0
  0
APPID
  5
1263C
330
1259B
100
AcDbSymbolTableRecord
100
AcDbRegAppTableRecord
  2
AUTOCAD_POSTSCRIPT_FIGURE
 70
     0
  0
APPID
  5
16B99
330
1259B
100
AcDbSymbolTableRecord
100
AcDbRegAppTableRecord
  2
ACAD_PSEXT
 70
     0
  0
APPID
  5
16FA7
330
1259B
100
AcDbSymbolTableRecord
100
AcDbRegAppTableRecord
  2
ACAD_EXEMPT_FROM_CAD_STANDARDS
 70
     0
  0
ENDTAB
  0
TABLE
  2
DIMSTYLE
  5
1259C
330
0
100
AcDbSymbolTable
 70
    27
100
AcDbDimStyleTable
 71
     1
340
12C72
  0
DIMSTYLE
105
12C72
330
1259C
100
AcDbSymbolTableRecord
100
AcDbDimStyleTableRecord
  2
SUNPOU_図面名
 70
     0
 40
30.0
 41
0.5
 42
1.0
 43
7.0
 44
1.5
 46
3.0
 73
     0
 74
     0
 77
     1
 78
     8
140
3.0
141
0.0
147
1.5
172
     1
173
     1
176
   256
177
   256
178
   256
271
     2
272
     2
340
125B3
341
125AE
342
125AE
343
125AE
344
125AE
  0
ENDTAB
  0
TABLE
  2
BLOCK_RECORD
  5
12593
330
0
100
AcDbSymbolTable
 70
    45
  0
BLOCK_RECORD
  5
125AA
102
{ACAD_XDICTIONARY
360
129B1
102
}
330
12593
100
AcDbSymbolTableRecord
100
AcDbBlockTableRecord
  2
*MODEL_SPACE
340
1297D
 70
     0
280
     1
281
     0
  0
BLOCK_RECORD
  5
125A7
102
{ACAD_XDICTIONARY
360
129AF
102
}
330
12593
100
AcDbSymbolTableRecord
100
AcDbBlockTableRecord
  2
*PAPER_SPACE
340
1297E
 70
     0
280
     1
281
     0
  0
BLOCK_RECORD
  5
125AE
330
12593
100
AcDbSymbolTableRecord
100
AcDbBlockTableRecord
  2
DOT
340
0
 70
     0
280
     1
281
     0
  0
ENDTAB
  0
ENDSEC
  0
SECTION
  2
BLOCKS
  0
BLOCK
  5
125F6
330
125AA
100
AcDbEntity
  8
0
100
AcDbBlockBegin
  2
*MODEL_SPACE
 70
     0
 10
0.0
 20
0.0
 30
0.0
  3
*MODEL_SPACE
  1

  0
ENDBLK
  5
125F7
330
125AA
100
AcDbEntity
  8
0
100
AcDbBlockEnd
  0
BLOCK
  5
125F4
330
125A7
100
AcDbEntity
 67
     1
  8
0
100
AcDbBlockBegin
  2
*PAPER_SPACE
 70
     0
 10
0.0
 20
0.0
 30
0.0
  3
*PAPER_SPACE
  1

  0
ENDBLK
  5
125F5
330
125A7
100
AcDbEntity
 67
     1
  8
0
100
AcDbBlockEnd
  0
BLOCK
  5
12986
330
125AE
100
AcDbEntity
  8
0
100
AcDbBlockBegin
  2
DOT
 70
     0
 10
0.0
 20
0.0
 30
0.0
  3
DOT
  1

  0
LWPOLYLINE
  5
12987
330
125AE
100
AcDbEntity
  8
0
  6
ByBlock
 62
     0
100
AcDbPolyline
 90
        2
 70
     1
 43
0.75
 10
-0.375
 20
0.0
 42
1.0
 10
0.375
 20
0.0
 42
1.0
  0
LINE
  5
12988
330
125AE
100
AcDbEntity
  8
0
  6
ByBlock
 62
     0
100
AcDbLine
 10
-0.75
 20
0.0
 30
0.0
 11
-1.5
 21
0.0
 31
0.0
  0
ENDBLK
  5
12989
330
125AE
100
AcDbEntity
  8
0
100
AcDbBlockEnd
  0
ENDSEC
  0
SECTION
  2
ENTITIES
  0
TEXT
  5
12ADD
330
125AA
100
AcDbEntity
  8
NAME
100
AcDbText
 10
11516.07508082364
 20
875.0
 30
0.0
 40
120.0
  1
（埋め込み方式）
  7
01
 72
     4
 11
12072.07508082364
 21
935.0
 31
0.0
100
AcDbText
  0
TEXT
  5
12AE0
330
125AA
100
AcDbEntity
  8
FILENAME
100
AcDbText
 10
14523.90476190476
 20
174.0
 30
0.0
 40
100.0
  1
＜YOKCU-245-U_3.DXF＞
  7
FILENAME
 72
     2
 11
16382.0
 21
174.0
 31
0.0
100
AcDbText
  0
TEXT
  5
1546C
330
125AA
100
AcDbEntity
  8
HIKIDASHI
100
AcDbText
 10
9007.426279443025
 20
5992.059624263297
 30
0.0
 40
80.0
  1
)
 41
0.6700000000000001
  7
00
100
AcDbText
  0
TEXT
  5
1546D
330
125AA
100
AcDbEntity
  8
HIKIDASHI
100
AcDbText
 10
8806.567530753644
 20
6007.621102011493
 30
0.0
 40
80.0
  1
1
 41
0.6700000000000001
  7
00
100
AcDbText
  0
TEXT
  5
1546E
330
125AA
100
AcDbEntity
  8
HIKIDASHI
100
AcDbText
 10
8839.704668617953
 20
5992.059624263297
 30
0.0
 40
80.0
  1
/
 41
0.6700000000000001
  7
00
100
AcDbText
  0
TEXT
  5
1546F
330
125AA
100
AcDbEntity
  8
HIKIDASHI
100
AcDbText
 10
8885.999823380597
 20
5965.891793063019
 30
0.0
 40
80.0
  1
40
 41
0.6700000000000001
  7
00
100
AcDbText
  0
TEXT
  5
15470
330
125AA
100
AcDbEntity
  8
HIKIDASHI
100
AcDbText
 10
8625.85961481597
 20
5992.059624263297
 30
0.0
 40
80.0
  1
(S=
 41
0.6700000000000001
  7
00
100
AcDbText
  0
TEXT
  5
15471
330
125AA
100
AcDbEntity
  8
HIKIDASHI
100
AcDbText
 10
7783.859614815971
 20
5968.243182432328
 30
0.0
 40
120.0
  1
基 礎 伏 図
  7
01
 72
     2
 11
8535.85961481597
 21
5968.243182432328
 31
0.0
100
AcDbText
  0
LINE
  5
15472
330
125AA
100
AcDbEntity
  8
CENTER
  6
1PL-M
100
AcDbLine
 10
8479.12750789964
 20
6898.243182432327
 30
0.0
 11
9669.127507899641
 21
6898.243182432327
 31
0.0
  0
LINE
  5
15473
330
125AA
100
AcDbEntity
  8
CENTER
  6
1PL-M
100
AcDbLine
 10
8479.12750789964
 20
8708.243182432326
 30
0.0
 11
12124.12750789964
 21
8708.243182432326
 31
0.0
  0
TEXT
  5
15480
330
125AA
100
AcDbEntity
  8
SUNPOU
100
AcDbText
 10
10976.25954751383
 20
5905.177183942746
 30
0.0
 40
90.0
  1
（  ：スパン数）
  7
01
 11
10976.25954751383
 21
5950.177183942745
 31
0.0
100
AcDbText
 73
     2
  0
TEXT
  5
15481
330
125AA
100
AcDbEntity
  8
SUNPOU
100
AcDbText
 10
11106.72075856534
 20
5905.177183942746
 30
0.0
 40
90.0
  1
N
 41
0.6666666666666666
  7
00
 72
     4
 11
11138.14932999391
 21
5950.177183942745
 31
0.0
100
AcDbText
  0
LINE
  5
15482
330
125AA
100
AcDbEntity
  8
CENTER
  6
1PL-M
100
AcDbLine
 10
4836.977929614668
 20
6898.243182432327
 30
0.0
 11
8359.127507899641
 21
6898.243182432327
 31
0.0
  0
LINE
  5
15483
330
125AA
100
AcDbEntity
  8
CENTER
  6
1PL-M
100
AcDbLine
 10
7067.877507899639
 20
8708.243182432324
 30
0.0
 11
8359.127507899641
 21
8708.243182432326
 31
0.0
  0
LINE
  5
15484
330
125AA
100
AcDbEntity
  8
SUNPOU
100
AcDbLine
 10
8359.127507899641
 20
9198.243182432326
 30
0.0
 11
8359.127507899641
 21
6378.243182432327
 31
0.0
  0
LINE
  5
15485
330
125AA
100
AcDbEntity
  8
CENTER
  6
1PL-M
100
AcDbLine
 10
5259.127507899639
 20
6298.243182432327
 30
0.0
 11
5259.127507899639
 21
9308.243182432326
 31
0.0
  0
LINE
  5
15486
330
125AA
100
AcDbEntity
  8
CENTER
  6
1PL-M
100
AcDbLine
 10
7719.127507899637
 20
8158.243182432327
 30
0.0
 11
7719.127507899639
 21
9308.243182432326
 31
0.0
  0
LINE
  5
15487
330
125AA
100
AcDbEntity
  8
CENTER
  6
1PL-M
100
AcDbLine
 10
7719.127507899639
 20
6298.243182432327
 30
0.0
 11
7719.127507899639
 21
7963.243182432326
 31
0.0
  0
LINE
  5
15488
330
125AA
100
AcDbEntity
  8
CENTER
  6
1PL-M
100
AcDbLine
 10
4714.127507899639
 20
8708.243182432326
 30
0.0
 11
6869.12750789964
 21
8708.243182432326
 31
0.0
  0
LINE
  5
15489
330
125AA
100
AcDbEntity
  8
CENTER
  6
1PL-M
100
AcDbLine
 10
9864.127507899638
 20
6898.243182432327
 30
0.0
 11
12124.12750789964
 21
6898.243182432327
 31
0.0
  0
LINE
  5
1548C
330
125AA
100
AcDbEntity
  8
SUNPOU
100
AcDbLine
 10
8479.12750789964
 20
9198.243182432326
 30
0.0
 11
8479.12750789964
 21
6378.243182432327
 31
0.0
  0
LINE
  5
1548D
330
125AA
100
AcDbEntity
  8
CENTER
  6
1PL-M
100
AcDbLine
 10
11579.12750789964
 20
6298.243182432327
 30
0.0
 11
11579.12750789964
 21
9308.243182432326
 31
0.0
  0
LINE
  5
1548E
330
125AA
100
AcDbEntity
  8
CENTER
  6
1PL-M
100
AcDbLine
 10
9119.127507899639
 20
6298.243182432327
 30
0.0
 11
9119.127507899637
 21
7553.243182432327
 31
0.0
  0
LINE
  5
154A1
330
125AA
100
AcDbEntity
  8
CENTER
  6
1PL-M
100
AcDbLine
 10
9119.127507899639
 20
7748.243182432327
 30
0.0
 11
9119.127507899639
 21
9308.243182432326
 31
0.0
  0
LINE
  5
154A7
330
125AA
100
AcDbEntity
  8
SUNPOU
  6
Continuous
100
AcDbLine
 10
9119.127507899639
 20
9338.243182432327
 30
0.0
 11
9119.127507899639
 21
9453.243182432325
 31
0.0
  0
LINE
  5
154A8
330
125AA
100
AcDbEntity
  8
SUNPOU
  6
Continuous
100
AcDbLine
 10
7719.127507899639
 20
9338.243182432327
 30
0.0
 11
7719.127507899639
 21
9453.243182432325
 31
0.0
  0
LINE
  5
154A9
330
125AA
100
AcDbEntity
  8
SUNPOU
  6
Continuous
100
AcDbLine
 10
9104.127507899638
 20
9408.243182432325
 30
0.0
 11
7734.127507899639
 21
9408.243182432325
 31
0.0
  0
LINE
  5
154B3
330
125AA
100
AcDbEntity
  8
SUNPOU
100
AcDbLine
 10
4649.127507899637
 20
7108.243182432326
 30
0.0
 11
4649.127507899637
 21
6898.243182432327
 31
0.0
  0
LINE
  5
154B4
330
125AA
100
AcDbEntity
  8
SUNPOU
100
AcDbLine
 10
4649.127507899638
 20
6898.243182432327
 30
0.0
 11
4799.127507899639
 21
6898.243182432327
 31
0.0
  0
TEXT
  5
154B6
330
125AA
100
AcDbEntity
  8
SUNPOU
100
AcDbText
 10
4623.284650756779
 20
7243.243182432327
 30
0.0
 40
90.0
  1
A
 41
0.6700000000000001
  7
00
 72
     4
 11
4649.127507899637
 21
7288.243182432326
 31
0.0
100
AcDbText
  0
LINE
  5
154B7
330
125AA
100
AcDbEntity
  8
SUNPOU
100
AcDbLine
 10
5869.127507899639
 20
7108.243182432326
 30
0.0
 11
5869.127507899639
 21
6898.243182432327
 31
0.0
  0
LINE
  5
154B8
330
125AA
100
AcDbEntity
  8
SUNPOU
100
AcDbLine
 10
5869.127507899639
 20
6898.243182432327
 30
0.0
 11
5719.127507899639
 21
6898.243182432327
 31
0.0
  0
TEXT
  5
154BA
330
125AA
100
AcDbEntity
  8
SUNPOU
100
AcDbText
 10
5833.234650756782
 20
7234.671753860898
 30
0.0
 40
90.0
  1
A'
 41
0.6700000000000001
  7
00
 72
     4
 11
5869.127507899639
 21
7288.243182432326
 31
0.0
100
AcDbText
  0
TEXT
  5
154C5
330
125AA
100
AcDbEntity
  8
HIKIDASHI
100
AcDbText
 10
5882.824073304893
 20
9003.243182432326
 30
0.0
 40
90.0
  1
（屋根後面位置）
  7
01
100
AcDbText
  0
TEXT
  5
154C6
330
125AA
100
AcDbEntity
  8
HIKIDASHI
100
AcDbText
 10
5798.715471388874
 20
8773.243182432327
 30
0.0
 40
90.0
  1
（土間コン後面位置）
  7
01
100
AcDbText
  0
TEXT
  5
154C7
330
125AA
100
AcDbEntity
  8
HIKIDASHI
100
AcDbText
 10
5905.736109815656
 20
6263.243182432327
 30
0.0
 40
90.0
  1
（鼻隠し外面）
  7
01
100
AcDbText
  0
TEXT
  5
154C8
330
125AA
100
AcDbEntity
  8
HIKIDASHI
100
AcDbText
 10
5821.627507899639
 20
6543.243182432327
 30
0.0
 40
90.0
  1
（土間コン前面位置）
  7
01
100
AcDbText
  0
TEXT
  5
159C6
330
125AA
100
AcDbEntity
  8
NAME
100
AcDbText
 10
12854.8
 20
541.0000000000002
 30
0.0
 40
160.0
  1
<3／3>
 41
0.6
  7
01
 72
     2
 11
13354.0
 21
541.0000000000002
 31
0.0
100
AcDbText
  0
TEXT
  5
159C7
330
125AA
100
AcDbEntity
  8
NAME
100
AcDbText
 10
10778.70931397095
 20
541.0
 30
0.0
 40
160.0
  1
YOKCU-245
 41
0.7
  7
01
 72
     2
 11
11776.04264730429
 21
541.0
 31
0.0
100
AcDbText
  0
TEXT
  5
159C8
330
125AA
100
AcDbEntity
  8
NAME
100
AcDbText
 10
11816.04264730429
 20
541.0
 30
0.0
 40
160.0
  1
型（豪雪地用）
 41
0.8
  7
01
100
AcDbText
  0
TEXT
  5
16789
330
125AA
100
AcDbEntity
  8
SUNPOU
100
AcDbText
 10
9884.42061063643
 20
2943.607321016884
 30
0.0
 40
46.28539285937498
  1
2
 41
0.6700000000000001
  7
00
100
AcDbText
  0
TEXT
  5
1678A
330
125AA
100
AcDbEntity
  8
SUNPOU
100
AcDbText
 10
9579.956128605024
 20
2893.418894659396
 30
0.0
 40
89.99937500434024
  1
N/mm
 41
0.6700000000000001
  7
01
100
AcDbText
  0
TEXT
  5
1678B
330
125AA
100
AcDbEntity
  8
SUNPOU
100
AcDbText
 10
9444.119675819072
 20
2893.418894659396
 30
0.0
 40
89.99937500434024
  1
21
 41
0.6700000000000001
  7
01
100
AcDbText
  0
LINE
  5
1678C
330
125AA
100
AcDbEntity
  8
SUNPOU
100
AcDbLine
 10
9267.68850707362
 20
2739.133180373684
 30
0.0
 11
9267.68850707362
 21
2822.625544072464
 31
0.0
  0
LINE
  5
1678D
330
125AA
100
AcDbEntity
  8
SUNPOU
100
AcDbLine
 10
9250.813507073621
 20
2739.133180373684
 30
0.0
 11
9250.813507073621
 21
2822.625544072464
 31
0.0
  0
LINE
  5
1678E
330
125AA
100
AcDbEntity
  8
SUNPOU
100
AcDbLine
 10
9233.938507073622
 20
2739.133180373684
 30
0.0
 11
9233.938507073622
 21
2822.625544072464
 31
0.0
  0
LINE
  5
1678F
330
125AA
100
AcDbEntity
  8
SUNPOU
100
AcDbLine
 10
9222.68850707362
 20
2739.133180373682
 30
0.0
 11
9278.93850707362
 21
2739.133180373682
 31
0.0
  0
LINE
  5
16790
330
125AA
100
AcDbEntity
  8
SUNPOU
100
AcDbLine
 10
9222.68850707362
 20
2822.625544072464
 30
0.0
 11
9278.93850707362
 21
2822.625544072464
 31
0.0
  0
ARC
  5
16791
330
125AA
100
AcDbEntity
  8
SUNPOU
100
AcDbCircle
 10
9768.113682510662
 20
2857.206318101228
 30
0.0
 40
225.0
100
AcDbArc
 50
328.347272528283
 51
31.65272747171703
  0
TEXT
  5
16792
330
125AA
100
AcDbEntity
  8
SUNPOU
100
AcDbText
 10
8208.607962446432
 20
2943.607321016884
 30
0.0
 40
46.28539285937498
  1
2
 41
0.6700000000000001
  7
00
100
AcDbText
  0
TEXT
  5
16793
330
125AA
100
AcDbEntity
  8
SUNPOU
100
AcDbText
 10
7940.967805718049
 20
2893.418894659396
 30
0.0
 40
71.99950000347219
  1
K
 41
0.6700000000000001
  7
01
100
AcDbText
  0
TEXT
  5
16794
330
125AA
100
AcDbEntity
  8
SUNPOU
100
AcDbText
 10
7805.131352932095
 20
2893.418894659396
 30
0.0
 40
89.99937500434024
  1
50  N/m
 41
0.6700000000000001
  7
01
100
AcDbText
  0
ARC
  5
16795
330
125AA
100
AcDbEntity
  8
SUNPOU
100
AcDbCircle
 10
7583.831219414218
 20
2857.206318101228
 30
0.0
 40
225.0
100
AcDbArc
 50
148.3472725282829
 51
211.652727471717
  0
TEXT
  5
16796
330
125AA
100
AcDbEntity
  8
SUNPOU
100
AcDbText
 10
7914.63637417218
 20
2739.133180373684
 30
0.0
 40
89.99937500434024
  1
34 m/s
 41
0.6700000000000001
  7
01
100
AcDbText
  0
TEXT
  5
16797
330
125AA
100
AcDbEntity
  8
SUNPOU
100
AcDbText
 10
7430.872945507012
 20
2739.133180373684
 30
0.0
 40
89.99937500434024
  1
基準風速   　　 , 地表面粗度区分
  7
01
100
AcDbText
  0
TEXT
  5
16798
330
125AA
100
AcDbEntity
  8
SUNPOU
100
AcDbText
 10
7430.872945507012
 20
2893.418894659396
 30
0.0
 40
89.99937500434024
  1
地耐力   　　　 以上,コンクリート強度
  7
01
100
AcDbText
  0
TEXT
  5
16799
330
125AA
100
AcDbEntity
  8
SUNPOU
100
AcDbText
 10
7599.622945507012
 20
2205.561751802256
 30
0.0
 40
90.0
  1
2
 41
0.6700000000000001
  7
01
100
AcDbText
  0
TEXT
  5
1679A
330
125AA
100
AcDbEntity
  8
SUNPOU
100
AcDbText
 10
7488.989025294269
 20
2205.561751802256
 30
0.0
 40
90.0
  1
注　）
  7
01
100
AcDbText
  0
TEXT
  5
1679B
330
125AA
100
AcDbEntity
  8
SUNPOU
100
AcDbText
 10
7488.989025294269
 20
2514.133180373684
 30
0.0
 40
90.0
  1
注　）
  7
01
100
AcDbText
  0
TEXT
  5
1679C
330
125AA
100
AcDbEntity
  8
SUNPOU
100
AcDbText
 10
7599.622945507012
 20
2514.133180373684
 30
0.0
 40
90.0
  1
1
 41
0.6700000000000001
  7
01
100
AcDbText
  0
TEXT
  5
1679D
330
125AA
100
AcDbEntity
  8
SUNPOU
100
AcDbText
 10
7805.828690596405
 20
2359.847466087968
 30
0.0
 40
90.0
  1
あわせて設計して下さい。
  7
01
100
AcDbText
  0
TEXT
  5
1679E
330
125AA
100
AcDbEntity
  8
SUNPOU
100
AcDbText
 10
7805.828690596405
 20
2205.561751802256
 30
0.0
 40
90.0
  1
その他現地の実情にあわせて設計して下さい。
  7
01
100
AcDbText
  0
TEXT
  5
1679F
330
125AA
100
AcDbEntity
  8
SUNPOU
100
AcDbText
 10
7805.828690596405
 20
2514.133180373684
 30
0.0
 40
90.0
  1
寒冷地の場合、凍結深度等を考慮し、実情に
  7
01
100
AcDbText
  0
TEXT
  5
167A0
330
125AA
100
AcDbEntity
  8
SUNPOU
100
AcDbText
 10
7300.30931679078
 20
3082.672897105353
 30
0.0
 40
90.0
  1
<下記条件での参考図>
  7
01
 72
     4
 11
7889.166459647924
 21
3127.672897105353
 31
0.0
100
AcDbText
  0
TEXT
  5
167A1
330
125AA
100
AcDbEntity
  8
SUNPOU
100
AcDbText
 10
8510.625626179351
 20
3250.019050951507
 30
0.0
 40
73.84615384615384
  1
/
 41
0.6700000000000001
  7
00
 11
8510.625626179351
 21
3240.172897105353
 31
0.0
100
AcDbText
 73
     1
  0
TEXT
  5
167A2
330
125AA
100
AcDbEntity
  8
SUNPOU
100
AcDbText
 10
8574.57506913372
 20
3231.557512489967
 30
0.0
 40
73.84615384615384
  1
25
 41
0.6700000000000001
  7
00
 11
8574.57506913372
 21
3221.711358643814
 31
0.0
100
AcDbText
 73
     1
  0
TEXT
  5
167A3
330
125AA
100
AcDbEntity
  8
SUNPOU
100
AcDbText
 10
8462.219498863978
 20
3268.480589413046
 30
0.0
 40
73.84615384615384
  1
1
 41
0.6700000000000001
  7
00
 11
8462.219498863978
 21
3258.634435566892
 31
0.0
100
AcDbText
 73
     1
  0
TEXT
  5
167A4
330
125AA
100
AcDbEntity
  8
SUNPOU
100
AcDbText
 10
8142.516797010895
 20
3252.480589413045
 30
0.0
 40
92.30769230769229
  1
（ S = 　　  ）
 41
0.6700000000000001
  7
00
 11
8142.516797010895
 21
3240.172897105353
 31
0.0
100
AcDbText
 73
     1
  0
TEXT
  5
167A5
330
125AA
100
AcDbEntity
  8
SUNPOU
100
AcDbText
 10
7425.666459647924
 20
3240.172897105353
 30
0.0
 40
120.0
  1
基礎断面図
  7
01
 72
     4
 11
7765.666459647924
 21
3300.172897105352
 31
0.0
100
AcDbText
  0
TEXT
  5
16DB9
330
125AA
100
AcDbEntity
  8
NAME
100
AcDbText
 10
12159.06898735705
 20
1063.242132579307
 30
0.0
 40
120.0
  1
Y O K C U
 41
0.6666666666666666
  7
00
100
AcDbText
  0
TEXT
  5
16DBA
330
125AA
100
AcDbEntity
  8
NAME
100
AcDbText
 10
11083.47628552035
 20
1063.242132579307
 30
0.0
 40
120.0
  1
ヨド自転車置場　　　    型
  7
01
100
AcDbText
  0
LINE
  5
16E8C
330
125AA
100
AcDbEntity
  8
HIKIDASHI
100
AcDbLine
 10
4186.816957180232
 20
4083.204154334509
 30
0.0
 11
3405.031576763642
 21
4083.204154334509
 31
0.0
  0
LINE
  5
16E8F
330
125AA
100
AcDbEntity
  8
1PL-M1
100
AcDbLine
 10
4889.856483595693
 20
2873.96373352073
 30
0.0
 11
4889.856483595691
 21
4601.963733520728
 31
0.0
  0
LINE
  5
16E90
330
125AA
100
AcDbEntity
  8
HASHIRA
100
AcDbLine
 10
4837.856483595691
 20
3145.963733520729
 30
0.0
 11
4837.856483595691
 21
4233.963733520727
 31
0.0
  0
LINE
  5
16E91
330
125AA
100
AcDbEntity
  8
HASHIRA
100
AcDbLine
 10
4941.856483595691
 20
3145.963733520729
 30
0.0
 11
4941.856483595691
 21
4233.963733520727
 31
0.0
  0
LINE
  5
16E92
330
125AA
100
AcDbEntity
  8
HATCH
100
AcDbLine
 10
6088.042305995692
 20
3563.21910792073
 30
0.0
 11
6107.242305995693
 21
3529.963733520729
 31
0.0
  0
LINE
  5
16E93
330
125AA
100
AcDbEntity
  8
HATCH
100
AcDbLine
 10
6232.042305995692
 20
3563.21910792073
 30
0.0
 11
6251.242305995693
 21
3529.963733520729
 31
0.0
  0
LINE
  5
16E94
330
125AA
100
AcDbEntity
  8
HATCH
100
AcDbLine
 10
6229.867931595691
 20
3625.963733520729
 30
0.0
 11
6249.067931595692
 21
3592.708357520729
 31
0.0
  0
LINE
  5
16E95
330
125AA
100
AcDbEntity
  8
HATCH
100
AcDbLine
 10
6212.842305995692
 20
3529.963733520729
 30
0.0
 11
6268.267931595691
 21
3625.963733520729
 31
0.0
  0
LINE
  5
16E96
330
125AA
100
AcDbEntity
  8
HATCH
100
AcDbLine
 10
6336.250096395694
 20
3753.963733520729
 30
0.0
 11
6208.250096395694
 21
3625.963733520729
 31
0.0
  0
LINE
  5
16E97
330
125AA
100
AcDbEntity
  8
HATCH
100
AcDbLine
 10
6241.214944395691
 20
3753.963733520729
 30
0.0
 11
6113.214944395691
 21
3625.963733520729
 31
0.0
  0
LINE
  5
16E98
330
125AA
100
AcDbEntity
  8
HATCH
100
AcDbLine
 10
6288.732520395692
 20
3753.963733520729
 30
0.0
 11
6160.732520395692
 21
3625.963733520729
 31
0.0
  0
LINE
  5
16E99
330
125AA
100
AcDbEntity
  8
HATCH
100
AcDbLine
 10
5960.042305995692
 20
3563.21910792073
 30
0.0
 11
5979.242305995693
 21
3529.963733520729
 31
0.0
  0
LINE
  5
16E9A
330
125AA
100
AcDbEntity
  8
HATCH
100
AcDbLine
 10
5957.86793159569
 20
3625.963733520729
 30
0.0
 11
5977.067931595691
 21
3592.708357520729
 31
0.0
  0
LINE
  5
16E9B
330
125AA
100
AcDbEntity
  8
HATCH
100
AcDbLine
 10
5940.842305995693
 20
3529.963733520729
 30
0.0
 11
5996.26793159569
 21
3625.963733520729
 31
0.0
  0
LINE
  5
16E9C
330
125AA
100
AcDbEntity
  8
HATCH
100
AcDbLine
 10
5717.016790795693
 20
3625.963733520729
 30
0.0
 11
5701.016790795693
 21
3625.963733520729
 31
0.0
  0
LINE
  5
16E9D
330
125AA
100
AcDbEntity
  8
HATCH
100
AcDbLine
 10
5816.042305995694
 20
3563.21910792073
 30
0.0
 11
5835.242305995692
 21
3529.963733520729
 31
0.0
  0
LINE
  5
16E9E
330
125AA
100
AcDbEntity
  8
HATCH
100
AcDbLine
 10
5796.842305995693
 20
3529.963733520729
 30
0.0
 11
5852.26793159569
 21
3625.963733520729
 31
0.0
  0
LINE
  5
16E9F
330
125AA
100
AcDbEntity
  8
HATCH
100
AcDbLine
 10
5813.867931595691
 20
3625.963733520729
 30
0.0
 11
5833.067931595691
 21
3592.708357520729
 31
0.0
  0
LINE
  5
16EA0
330
125AA
100
AcDbEntity
  8
HATCH
100
AcDbLine
 10
5856.250096395694
 20
3753.963733520729
 30
0.0
 11
5728.250096395694
 21
3625.963733520729
 31
0.0
  0
LINE
  5
16EA1
330
125AA
100
AcDbEntity
  8
HATCH
100
AcDbLine
 10
5672.042305995694
 20
3563.21910792073
 30
0.0
 11
5691.242305995693
 21
3529.963733520729
 31
0.0
  0
LINE
  5
16EA2
330
125AA
100
AcDbEntity
  8
HATCH
100
AcDbLine
 10
5669.867931595691
 20
3625.963733520729
 30
0.0
 11
5689.067931595691
 21
3592.708357520729
 31
0.0
  0
LINE
  5
16EA3
330
125AA
100
AcDbEntity
  8
HATCH
100
AcDbLine
 10
5529.856483595692
 20
3566.36135696226
 30
0.0
 11
5564.26793159569
 21
3625.963733520729
 31
0.0
  0
LINE
  5
16EA4
330
125AA
100
AcDbEntity
  8
HATCH
100
AcDbLine
 10
5529.856483595692
 20
3619.055358705336
 30
0.0
 11
5545.067931595691
 21
3592.708357520729
 31
0.0
  0
LINE
  5
16EA5
330
125AA
100
AcDbEntity
  8
HATCH
100
AcDbLine
 10
5529.856483595692
 20
3560.076860248017
 30
0.0
 11
5547.242305995693
 21
3529.963733520729
 31
0.0
  0
LINE
  5
16EA6
330
125AA
100
AcDbEntity
  8
HATCH
100
AcDbLine
 10
5573.016790795693
 20
3625.963733520729
 30
0.0
 11
5557.016790795692
 21
3625.963733520729
 31
0.0
  0
LINE
  5
16EA7
330
125AA
100
AcDbEntity
  8
HATCH
100
AcDbLine
 10
5808.732520395691
 20
3753.963733520729
 30
0.0
 11
5680.732520395693
 21
3625.963733520729
 31
0.0
  0
LINE
  5
16EA8
330
125AA
100
AcDbEntity
  8
HATCH
100
AcDbLine
 10
5761.214944395693
 20
3753.963733520729
 30
0.0
 11
5633.214944395693
 21
3625.963733520729
 31
0.0
  0
LINE
  5
16EA9
330
125AA
100
AcDbEntity
  8
HATCH
100
AcDbLine
 10
5652.842305995694
 20
3529.963733520729
 30
0.0
 11
5708.26793159569
 21
3625.963733520729
 31
0.0
  0
LINE
  5
16EAA
330
125AA
100
AcDbEntity
  8
HATCH
100
AcDbLine
 10
6085.86793159569
 20
3625.963733520729
 30
0.0
 11
6105.067931595691
 21
3592.708357520729
 31
0.0
  0
LINE
  5
16EAB
330
125AA
100
AcDbEntity
  8
HATCH
100
AcDbLine
 10
6068.842305995693
 20
3529.963733520729
 30
0.0
 11
6124.26793159569
 21
3625.963733520729
 31
0.0
  0
LINE
  5
16EAC
330
125AA
100
AcDbEntity
  8
KISO
100
AcDbLine
 10
5529.856483595692
 20
3529.963733520729
 30
0.0
 11
6367.249978138847
 21
3529.96373352073
 31
0.0
  0
LINE
  5
16EAD
330
125AA
100
AcDbEntity
  8
KISO
100
AcDbLine
 10
6367.249978138847
 20
3625.963733520729
 30
0.0
 11
5529.856483595692
 21
3625.963733520729
 31
0.0
  0
LINE
  5
16EAE
330
125AA
100
AcDbEntity
  8
KISO
100
AcDbLine
 10
5529.856483595692
 20
3753.963733520729
 30
0.0
 11
5529.856483595692
 21
3145.963733520729
 31
0.0
  0
LINE
  5
16EAF
330
125AA
100
AcDbEntity
  8
U3
100
AcDbLine
 10
4138.665683595692
 20
3673.963733520729
 30
0.0
 11
4249.856483595691
 21
3562.772931920729
 31
0.0
  0
LINE
  5
16EB0
330
125AA
100
AcDbEntity
  8
U3
100
AcDbLine
 10
4087.753993995693
 20
3623.05204392073
 30
0.0
 11
4204.842305995692
 21
3505.963733520729
 31
0.0
  0
LINE
  5
16EB1
330
125AA
100
AcDbEntity
  8
U3
100
AcDbLine
 10
3919.753993995694
 20
3556.875421520731
 30
0.0
 11
4036.842305995693
 21
3673.963733520729
 31
0.0
  0
LINE
  5
16EB2
330
125AA
100
AcDbEntity
  8
U3
100
AcDbLine
 10
4036.842305995693
 20
3572.140355920728
 30
0.0
 11
4103.01892999569
 21
3505.963733520729
 31
0.0
  0
LINE
  5
16EB3
330
125AA
100
AcDbEntity
  8
U3
100
AcDbLine
 10
3970.665683595693
 20
3505.963733520729
 30
0.0
 11
4138.665683595692
 21
3673.963733520729
 31
0.0
  0
LINE
  5
16EB4
330
125AA
100
AcDbEntity
  8
KISO
100
AcDbLine
 10
4837.856483595691
 20
3753.963733520729
 30
0.0
 11
4249.856483595691
 21
3753.963733520729
 31
0.0
  0
LINE
  5
16EB5
330
125AA
100
AcDbEntity
  8
HATCH
100
AcDbLine
 10
4799.916475201962
 20
3753.963733520729
 30
0.0
 11
4249.856483595691
 21
3203.903741914458
 31
0.0
  0
LINE
  5
16EB6
330
125AA
100
AcDbEntity
  8
HATCH
100
AcDbLine
 10
4752.398899201963
 20
3753.963733520729
 30
0.0
 11
4249.856483595691
 21
3251.421317914457
 31
0.0
  0
LINE
  5
16EB7
330
125AA
100
AcDbEntity
  8
HATCH
100
AcDbLine
 10
4704.881324801961
 20
3753.963733520729
 30
0.0
 11
4249.856483595691
 21
3298.938892314453
 31
0.0
  0
LINE
  5
16EB8
330
125AA
100
AcDbEntity
  8
U3
100
AcDbLine
 10
3700.842305995694
 20
3572.140355920728
 30
0.0
 11
3767.018929995692
 21
3505.963733520729
 31
0.0
  0
LINE
  5
16EB9
330
125AA
100
AcDbEntity
  8
U3
100
AcDbLine
 10
3751.753993995694
 20
3623.05204392073
 30
0.0
 11
3868.842305995694
 21
3505.963733520729
 31
0.0
  0
LINE
  5
16EBA
330
125AA
100
AcDbEntity
  8
U3
100
AcDbLine
 10
3532.842305995694
 20
3607.787109520729
 30
0.0
 11
3599.018929995692
 21
3673.963733520729
 31
0.0
  0
LINE
  5
16EBB
330
125AA
100
AcDbEntity
  8
U3
100
AcDbLine
 10
3634.665683595693
 20
3505.963733520729
 30
0.0
 11
3802.665683595693
 21
3673.963733520729
 31
0.0
  0
LINE
  5
16EBC
330
125AA
100
AcDbEntity
  8
U3
100
AcDbLine
 10
3583.753993995694
 20
3556.875421520731
 30
0.0
 11
3700.842305995694
 21
3673.963733520729
 31
0.0
  0
LINE
  5
16EBD
330
125AA
100
AcDbEntity
  8
U3
100
AcDbLine
 10
3466.665683595692
 20
3673.963733520729
 30
0.0
 11
3634.665683595693
 21
3505.963733520729
 31
0.0
  0
LINE
  5
16EBE
330
125AA
100
AcDbEntity
  8
U3
100
AcDbLine
 10
3868.842305995694
 20
3607.787109520729
 30
0.0
 11
3935.018929995692
 21
3673.963733520729
 31
0.0
  0
LINE
  5
16EBF
330
125AA
100
AcDbEntity
  8
U3
100
AcDbLine
 10
3802.665683595693
 20
3673.963733520729
 30
0.0
 11
3970.665683595693
 21
3505.963733520729
 31
0.0
  0
LINE
  5
16EC0
330
125AA
100
AcDbEntity
  8
U3
100
AcDbLine
 10
4249.856483595691
 20
3673.963733520729
 30
0.0
 11
3466.665683595692
 21
3673.963733520729
 31
0.0
  0
LINE
  5
16EC1
330
125AA
100
AcDbEntity
  8
HATCH
100
AcDbLine
 10
4837.856483595691
 20
3404.311689551324
 30
0.0
 11
4683.508527565098
 21
3249.963733520729
 31
0.0
  0
LINE
  5
16EC2
330
125AA
100
AcDbEntity
  8
KISO
100
AcDbLine
 10
4249.856483595691
 20
3753.963733520729
 30
0.0
 11
4249.856483595691
 21
3145.963733520729
 31
0.0
  0
LINE
  5
16EC3
330
125AA
100
AcDbEntity
  8
HATCH
100
AcDbLine
 10
4837.856483595691
 20
3499.346839951326
 30
0.0
 11
4484.473377165095
 21
3145.96373352073
 31
0.0
  0
LINE
  5
16EC4
330
125AA
100
AcDbEntity
  8
HATCH
100
AcDbLine
 10
4837.856483595691
 20
3451.829265551325
 30
0.0
 11
4635.990951565096
 21
3249.963733520729
 31
0.0
  0
LINE
  5
16EC5
330
125AA
100
AcDbEntity
  8
HATCH
100
AcDbLine
 10
5187.508527565098
 20
3753.963733520729
 30
0.0
 11
4941.856483595691
 21
3508.311689551324
 31
0.0
  0
LINE
  5
16EC6
330
125AA
100
AcDbEntity
  8
HATCH
100
AcDbLine
 10
5139.990951565096
 20
3753.963733520729
 30
0.0
 11
4941.856483595691
 21
3555.829265551324
 31
0.0
  0
LINE
  5
16EC7
330
125AA
100
AcDbEntity
  8
HATCH
100
AcDbLine
 10
5092.473377165095
 20
3753.963733520729
 30
0.0
 11
4941.856483595691
 21
3603.346839951325
 31
0.0
  0
LINE
  5
16EC8
330
125AA
100
AcDbEntity
  8
KISO
100
AcDbLine
 10
6367.249978138845
 20
3753.963733520729
 30
0.0
 11
4941.856483595691
 21
3753.963733520729
 31
0.0
  0
LINE
  5
16EC9
330
125AA
100
AcDbEntity
  8
HATCH
100
AcDbLine
 10
4364.806846838831
 20
3753.963733520729
 30
0.0
 11
4249.856483595693
 21
3639.013370277589
 31
0.0
  0
LINE
  5
16ECA
330
125AA
100
AcDbEntity
  8
HATCH
100
AcDbLine
 10
4412.324422838832
 20
3753.963733520729
 30
0.0
 11
4249.856483595691
 21
3591.49579427759
 31
0.0
  0
LINE
  5
16ECB
330
125AA
100
AcDbEntity
  8
HATCH
100
AcDbLine
 10
4317.289272438831
 20
3753.963733520729
 30
0.0
 11
4249.856483595691
 21
3686.530944677588
 31
0.0
  0
LINE
  5
16ECC
330
125AA
100
AcDbEntity
  8
HATCH
100
AcDbLine
 10
5529.856483595692
 20
3708.71963718819
 30
0.0
 11
5071.100579928232
 21
3249.963733520729
 31
0.0
  0
LINE
  5
16ECD
330
125AA
100
AcDbEntity
  8
HATCH
100
AcDbLine
 10
5527.583003928228
 20
3753.963733520729
 30
0.0
 11
5023.583003928232
 21
3249.963733520728
 31
0.0
  0
LINE
  5
16ECE
330
125AA
100
AcDbEntity
  8
HATCH
100
AcDbLine
 10
5480.065429528229
 20
3753.963733520729
 30
0.0
 11
4941.856483595691
 21
3215.754787588188
 31
0.0
  0
LINE
  5
16ECF
330
125AA
100
AcDbEntity
  8
HATCH
100
AcDbLine
 10
5529.856483595692
 20
3416.162735225057
 30
0.0
 11
5259.657481891365
 21
3145.963733520729
 31
0.0
  0
LINE
  5
16ED0
330
125AA
100
AcDbEntity
  8
HATCH
100
AcDbLine
 10
5529.856483595692
 20
3368.645160825057
 30
0.0
 11
5307.175056291369
 21
3145.963733520729
 31
0.0
  0
LINE
  5
16ED1
330
125AA
100
AcDbEntity
  8
HATCH
100
AcDbLine
 10
5529.856483595693
 20
3321.127584825055
 30
0.0
 11
5354.692632291366
 21
3145.963733520729
 31
0.0
  0
LINE
  5
16ED2
330
125AA
100
AcDbEntity
  8
HATCH
100
AcDbLine
 10
4619.990951565096
 20
3233.96373352073
 30
0.0
 11
4531.990951565096
 21
3145.963733520729
 31
0.0
  0
LINE
  5
16ED3
330
125AA
100
AcDbEntity
  8
HATCH
100
AcDbLine
 10
4667.508527565098
 20
3233.96373352073
 30
0.0
 11
4579.508527565098
 21
3145.963733520729
 31
0.0
  0
LINE
  5
16ED4
330
125AA
100
AcDbEntity
  8
HATCH
100
AcDbLine
 10
4960.065429528231
 20
3233.96373352073
 30
0.0
 11
4941.856483595691
 21
3215.754787588188
 31
0.0
  0
LINE
  5
16ED5
330
125AA
100
AcDbEntity
  8
HATCH
100
AcDbLine
 10
5007.583003928234
 20
3233.96373352073
 30
0.0
 11
4941.856483595691
 21
3168.237213188188
 31
0.0
  0
LINE
  5
16ED6
330
125AA
100
AcDbEntity
  8
HATCH
100
AcDbLine
 10
5055.100579928232
 20
3233.96373352073
 30
0.0
 11
4967.100579928231
 21
3145.963733520729
 31
0.0
  0
TEXT
  5
16ED9
330
125AA
100
AcDbEntity
  8
HIKIDASHI
100
AcDbText
 10
4966.060086474469
 20
2119.914714678058
 30
0.0
 40
90.0
  1
断 面
  7
01
100
AcDbText
  0
LINE
  5
16EDA
330
125AA
100
AcDbEntity
  8
HIKIDASHI
100
AcDbLine
 10
4542.042806977908
 20
2074.914714678058
 30
0.0
 11
5237.670160213478
 21
2074.914714678058
 31
0.0
  0
LINE
  5
16EDB
330
125AA
100
AcDbEntity
  8
HIKIDASHI
100
AcDbLine
 10
4542.042806977908
 20
2044.914714678057
 30
0.0
 11
5237.670160213478
 21
2044.914714678057
 31
0.0
  0
TEXT
  5
16EDC
330
125AA
100
AcDbEntity
  8
HIKIDASHI
100
AcDbText
 10
4572.042806977908
 20
2119.914714678058
 30
0.0
 40
90.0
  1
A  ~  A'
 41
0.6700000000000001
  7
00
100
AcDbText
  0
LINE
  5
16EE0
330
125AA
100
AcDbEntity
  8
SUNPOU
100
AcDbLine
 10
4889.856483595693
 20
4556.963733520728
 30
0.0
 11
6315.086990845943
 21
4556.963733520728
 31
0.0
  0
TEXT
  5
16EE1
330
125AA
100
AcDbEntity
  8
SUNPOU
100
AcDbText
 10
5675.684182736158
 20
4601.963733520728
 30
0.0
 40
90.0
  1
2460
 41
0.6666666666666666
  7
00
 72
     4
 11
5789.969897021872
 21
4646.963733520728
 31
0.0
100
AcDbText
  0
LINE
  5
16EE5
330
125AA
100
AcDbEntity
  8
HIKIDASHI
100
AcDbLine
 10
3864.689878611733
 20
2573.963733520729
 30
0.0
 11
3495.92350178411
 21
2573.963733520729
 31
0.0
  0
TEXT
  5
16EE6
330
125AA
100
AcDbEntity
  8
HIKIDASHI
100
AcDbText
 10
3522.991109376021
 20
2618.963733520729
 30
0.0
 40
90.0
  1
砕　石
  7
01
 72
     2
 11
3822.991109376021
 21
2663.963733520729
 31
0.0
100
AcDbText
 73
     2
  0
TEXT
  5
16EE8
330
125AA
100
AcDbEntity
  8
SUNPOU
100
AcDbText
 10
6214.517344503915
 20
2588.570487822472
 30
0.0
 40
90.0
  1
5-D13×5-D13
 41
0.6700000000000001
  7
01
 72
     4
 11
6557.940201646772
 21
2633.570487822471
 31
0.0
100
AcDbText
  0
TEXT
  5
16EE9
330
125AA
100
AcDbEntity
  8
SUNPOU
100
AcDbText
 10
5727.697263061269
 20
2588.570487822472
 30
0.0
 40
90.0
  1
ベース筋
  7
01
 72
     4
 11
5931.697263061269
 21
2633.570487822471
 31
0.0
100
AcDbText
  0
LINE
  5
16EEA
330
125AA
100
AcDbEntity
  8
HIKIDASHI
100
AcDbLine
 10
6997.547440734263
 20
4083.963733520728
 30
0.0
 11
6196.48327100712
 21
4083.963733520728
 31
0.0
  0
TEXT
  5
16EEB
330
125AA
100
AcDbEntity
  8
HIKIDASHI
100
AcDbText
 10
6240.317140088585
 20
4128.963733520728
 30
0.0
 40
90.0
  1
敷砂利又は砕石
  7
01
 72
     2
 11
6972.317140088584
 21
4173.963733520728
 31
0.0
100
AcDbText
 73
     2
  0
TEXT
  5
16EEC
330
125AA
100
AcDbEntity
  8
HIKIDASHI
100
AcDbText
 10
6024.221954446723
 20
4338.963733520728
 30
0.0
 40
90.0
  1
土　間
  7
01
 72
     2
 11
6318.221954446723
 21
4383.963733520728
 31
0.0
100
AcDbText
 73
     2
  0
LINE
  5
16EED
330
125AA
100
AcDbEntity
  8
HIKIDASHI
100
AcDbLine
 10
6359.920723682438
 20
4293.963733520728
 30
0.0
 11
5991.154346854814
 21
4293.963733520728
 31
0.0
  0
TEXT
  5
16EEE
330
125AA
100
AcDbEntity
  8
SUNPOU
100
AcDbText
 10
6200.509196873748
 20
3888.963733520729
 30
0.0
 40
90.0
  1
F.L
 41
0.6666666666666666
  7
00
 72
     4
 11
6269.080625445177
 21
3933.963733520729
 31
0.0
100
AcDbText
  0
LINE
  5
16EEF
330
125AA
100
AcDbEntity
  8
SUNPOU
100
AcDbLine
 10
6269.080625445177
 20
3753.963733520729
 30
0.0
 11
6321.042149672243
 21
3843.963733520729
 31
0.0
  0
LINE
  5
16EF0
330
125AA
100
AcDbEntity
  8
SUNPOU
100
AcDbLine
 10
6217.119101218109
 20
3843.963733520729
 30
0.0
 11
6269.080625445177
 21
3753.963733520729
 31
0.0
  0
LINE
  5
16EF1
330
125AA
100
AcDbEntity
  8
SUNPOU
100
AcDbLine
 10
6321.042149672243
 20
3843.963733520729
 30
0.0
 11
6217.119101218109
 21
3843.963733520729
 31
0.0
  0
TEXT
  5
16EF5
330
125AA
100
AcDbEntity
  8
HIKIDASHI
100
AcDbText
 10
3941.197894611569
 20
4128.754747320638
 30
0.0
 40
89.55223880597015
  1
350
 41
0.6700000000000001
  7
00
100
AcDbText
  0
TEXT
  5
16EF6
330
125AA
100
AcDbEntity
  8
HIKIDASHI
100
AcDbText
 10
3647.115610627791
 20
4128.963733520728
 30
0.0
 40
89.55223880597015
  1
10
 41
0.6700000000000001
  7
00
100
AcDbText
  0
TEXT
  5
16EF7
330
125AA
100
AcDbEntity
  8
HIKIDASHI
100
AcDbText
 10
3775.492365645627
 20
4155.393343159623
 30
0.0
 40
90.0
  1
%%c
 41
0.6700000000000001
  7
00
100
AcDbText
  0
TEXT
  5
16EF8
330
125AA
100
AcDbEntity
  8
HIKIDASHI
100
AcDbText
 10
3415.608897026134
 20
4128.963733520728
 30
0.0
 40
90.0
  1
鉄筋
  7
01
100
AcDbText
  0
TEXT
  5
16EF9
330
125AA
100
AcDbEntity
  8
HIKIDASHI
100
AcDbText
 10
3860.062515458436
 20
4140.157763371475
 30
0.0
 40
89.55223880597015
  1
x
 41
0.6700000000000001
  7
00
100
AcDbText
  0
LINE
  5
16EFB
330
125AA
100
AcDbEntity
  8
KISO
100
AcDbLine
 10
4089.856483595691
 20
2985.963733520729
 30
0.0
 11
5689.856483595686
 21
2985.963733520732
 31
0.0
  0
LINE
  5
16EFE
330
125AA
100
AcDbEntity
  8
KISO
100
AcDbLine
 10
4089.856483595691
 20
2985.963733520729
 30
0.0
 11
4089.856483595691
 21
3145.963733520729
 31
0.0
  0
LINE
  5
16F02
330
125AA
100
AcDbEntity
  8
KISO
100
AcDbLine
 10
5689.856483595686
 20
2985.963733520732
 30
0.0
 11
5689.856483595686
 21
3145.963733520728
 31
0.0
  0
LINE
  5
16F03
330
125AA
100
AcDbEntity
  8
KISO
100
AcDbLine
 10
4089.856483595691
 20
3145.963733520729
 30
0.0
 11
5689.856483595686
 21
3145.963733520728
 31
0.0
  0
TEXT
  5
17342
330
125AA
100
AcDbEntity
  8
WAKUMOJI-01
100
AcDbText
 10
10328.25274254596
 20
659.5644874899107
 30
0.0
 40
120.0
  1
機種名
  7
WAKUMOJI
100
AcDbText
  0
TEXT
  5
17343
330
125AA
100
AcDbEntity
  8
WAKUMOJI-01
100
AcDbText
 10
10335.13012998138
 20
1062.951504669661
 30
0.0
 40
120.0
  1
名　称
  7
WAKUMOJI
100
AcDbText
  0
LINE
  5
17344
330
125AA
100
AcDbEntity
  8
WAKUSEN-02
100
AcDbLine
 10
13434.0
 20
413.9999999999963
 30
0.0
 11
13434.0
 21
1242.0
 31
0.0
  0
LINE
  5
17345
330
125AA
100
AcDbEntity
  8
WAKUSEN-01
100
AcDbLine
 10
10280.0
 20
413.9999999999986
 30
0.0
 11
10280.0
 21
1242.0
 31
0.0
  0
LINE
  5
17346
330
125AA
100
AcDbEntity
  8
WAKUSEN-01
100
AcDbLine
 10
10280.0
 20
1242.0
 30
0.0
 11
16382.0
 21
1242.0
 31
0.0
  0
LINE
  5
17347
330
125AA
100
AcDbEntity
  8
WAKUSEN-02
100
AcDbLine
 10
10280.0
 20
827.9999999999997
 30
0.0
 11
13434.0
 21
827.9999999999997
 31
0.0
  0
LINE
  5
17348
330
125AA
100
AcDbEntity
  8
WAKUSEN-01
100
AcDbLine
 10
434.0000000000009
 20
11242.0
 30
0.0
 11
16382.0
 21
11242.0
 31
0.0
  0
LINE
  5
17349
330
125AA
100
AcDbEntity
  8
WAKUSEN-01
100
AcDbLine
 10
16382.0
 20
413.9999999999997
 30
0.0
 11
16382.0
 21
11242.0
 31
0.0
  0
LINE
  5
1734A
330
125AA
100
AcDbEntity
  8
WAKUSEN-01
100
AcDbLine
 10
434.0000000000009
 20
413.9999999999997
 30
0.0
 11
434.0000000000009
 21
11242.0
 31
0.0
  0
LINE
  5
1734B
330
125AA
100
AcDbEntity
  8
WAKUSEN-01
100
AcDbLine
 10
434.0000000000009
 20
413.9999999999997
 30
0.0
 11
16382.0
 21
413.9999999999997
 31
0.0
  0
LWPOLYLINE
  5
1734C
330
125AA
100
AcDbEntity
  8
YODOROGO
100
AcDbPolyline
 90
        4
 70
     1
 43
0.0
 10
15190.80217064596
 20
786.8747482146446
 10
15190.80217064596
 20
800.8747482146432
 10
15216.80217064596
 20
800.8747482146432
 10
15216.80217064596
 20
786.8747482146446
  0
LWPOLYLINE
  5
1734D
330
125AA
100
AcDbEntity
  8
YODOROGO
100
AcDbPolyline
 90
       48
 70
     1
 43
0.0
 10
13888.80217064596
 20
921.8883739758362
 10
13888.80217064596
 20
929.8883739758357
 10
13900.80217064596
 20
957.3932903968525
 10
13900.80217064596
 20
969.8747482146441
 10
13888.80217064596
 20
969.8747482146441
 10
13888.80217064596
 20
977.8747482146437
 10
13900.80217064596
 20
977.8747482146437
 10
13900.80217064596
 20
989.8747482146442
 10
13908.80217064596
 20
989.8747482146442
 10
13908.80217064596
 20
977.8747482146437
 10
13924.80217064595
 20
977.8747482146437
 10
13924.80217064595
 20
989.8747482146442
 10
13932.80217064595
 20
989.8747482146442
 10
13932.80217064595
 20
977.8747482146437
 10
13944.80217064596
 20
977.8747482146437
 10
13944.80217064596
 20
989.8747482146442
 10
13952.80217064596
 20
989.8747482146442
 10
13952.80217064596
 20
977.8747482146437
 10
13968.80217064596
 20
977.8747482146437
 10
13968.80217064596
 20
969.8747482146441
 10
13952.80217064596
 20
969.8747482146441
 10
13952.80217064596
 20
950.2841744681498
 10
13968.80217064596
 20
950.2841744681498
 10
13968.80217064596
 20
942.2841744681491
 10
13952.80217064596
 20
942.2841744681502
 10
13952.80217064596
 20
940.7045060794043
 10
13968.80217064596
 20
906.4874905807087
 10
13968.80217064596
 20
898.487490580708
 10
13952.80217064596
 20
924.7045060794031
 10
13952.80217064596
 20
873.8747482146438
 10
13944.80217064596
 20
873.8747482146438
 10
13944.80217064596
 20
923.8095889822185
 10
13924.80217064595
 20
898.487490580708
 10
13924.80217064595
 20
906.4874905807087
 10
13944.80217064596
 20
939.8095889822197
 10
13944.80217064596
 20
942.2841744681491
 10
13928.80217064595
 20
942.2841744681491
 10
13928.80217064595
 20
950.2841744681498
 10
13944.80217064596
 20
950.2841744681498
 10
13944.80217064596
 20
969.8747482146441
 10
13908.80217064596
 20
969.8747482146441
 10
13908.80217064596
 20
958.8856660426326
 10
13920.80217064596
 20
941.8273791420679
 10
13920.80217064596
 20
933.8273791420684
 10
13908.80217064596
 20
946.8856660426334
 10
13908.80217064596
 20
873.8747482146438
 10
13900.80217064596
 20
873.8747482146438
 10
13900.80217064596
 20
945.3932903968532
1001
AUTOCAD_POSTSCRIPT_FIGURE
1002
{
1000
PSFILL
1000
Grayscale
1000
Grayscale
1070
   100
1002
}
  0
LWPOLYLINE
  5
1734E
330
125AA
100
AcDbEntity
  8
YODOROGO
100
AcDbPolyline
 90
       15
 70
     1
 43
0.0
 10
14064.80217064596
 20
873.8747482146438
 10
14068.80217064596
 20
873.8747482146438
 10
14049.45149343671
 20
969.8747482146441
 10
14068.80217064596
 20
969.8747482146441
 10
14068.80217064596
 20
977.8747482146437
 10
14068.80217064596
 20
989.8747482146442
 10
14060.80217064596
 20
989.8747482146442
 10
14060.80217064596
 20
977.8747482146437
 10
14047.90343925997
 20
977.8747482146437
 10
14045.58135799486
 20
989.8747482146442
 10
14035.58135799485
 20
989.8747482146442
 10
14038.30343925996
 20
977.8747482146437
 10
13988.80217064596
 20
977.8747482146437
 10
13988.80217064596
 20
969.8747482146441
 10
14040.11816010337
 20
969.8747482146441
1001
AUTOCAD_POSTSCRIPT_FIGURE
1002
{
1000
PSFILL
1000
Grayscale
1000
Grayscale
1070
   100
1002
}
  0
LWPOLYLINE
  5
1734F
330
125AA
100
AcDbEntity
  8
YODOROGO
100
AcDbPolyline
 90
        4
 70
     1
 43
0.0
 10
13904.80217064596
 20
816.3859520216297
 10
13952.80217064596
 20
816.3859520216297
 10
13952.80217064596
 20
804.3859520216292
 10
13904.80217064596
 20
804.3859520216292
  0
LWPOLYLINE
  5
17350
330
125AA
100
AcDbEntity
  8
YODOROGO
100
AcDbPolyline
 90
        6
 70
     1
 43
0.0
 10
13888.80217064596
 20
821.986207022285
 10
13928.80217064596
 20
853.8747482146439
 10
13968.80217064596
 20
821.986207022285
 10
13968.80217064596
 20
809.9862070222856
 10
13928.80217064596
 20
841.8747482146445
 10
13888.80217064596
 20
809.9862070222856
  0
LWPOLYLINE
  5
17351
330
125AA
100
AcDbEntity
  8
YODOROGO
100
AcDbPolyline
 90
       12
 70
     1
 43
0.0
 10
13892.80217064596
 20
737.8747482146437
 10
13964.80217064596
 20
737.8747482146437
 10
13950.53250239547
 20
768.1169053488465
 10
13942.53250239547
 20
768.1169053488465
 10
13951.02739540432
 20
747.8747482146436
 10
13907.77335914239
 20
747.8747482146436
 10
13922.25479445787
 20
784.2514286852374
 10
13968.80217064596
 20
784.2514286852374
 10
13968.80217064596
 20
794.2514286852374
 10
13888.80217064596
 20
794.2514286852374
 10
13888.80217064596
 20
784.2514286852374
 10
13912.25479445787
 20
784.2514286852374
1001
AUTOCAD_POSTSCRIPT_FIGURE
1002
{
1000
PSFILL
1000
Grayscale
1000
Grayscale
1070
   100
1002
}
  0
LWPOLYLINE
  5
17352
330
125AA
100
AcDbEntity
  8
YODOROGO
100
AcDbPolyline
 90
       19
 70
     1
 43
0.0
 10
14000.80217064595
 20
841.8747482146434
 10
13988.80217064596
 20
841.8747482146434
 10
13988.80217064596
 20
833.8747482146427
 10
14012.91438714567
 20
833.8747482146427
 10
13988.80217064596
 20
778.3840395167149
 10
13988.80217064596
 20
766.3840395167144
 10
14000.80217064596
 20
790.002674844874
 10
14000.80217064596
 20
737.8747482146437
 10
14008.80217064596
 20
737.8747482146437
 10
14008.80217064596
 20
792.6185318747652
 10
14020.80217064596
 20
781.5602449741995
 10
14020.80217064596
 20
791.5602449742006
 10
14010.04445186844
 20
805.3252825309575
 10
14020.45660200845
 20
829.874748214644
 10
14020.45660200845
 20
841.8747482146434
 10
14008.80217064596
 20
841.8747482146434
 10
14008.80217064596
 20
853.8747482146439
 10
14000.80217064596
 20
853.8747482146439
 10
14000.80217064596
 20
853.8747482146439
  0
LWPOLYLINE
  5
17353
330
125AA
100
AcDbEntity
  8
YODOROGO
100
AcDbPolyline
 90
       16
 70
     1
 43
0.0
 10
14041.06776011546
 20
827.751818637328
 10
14041.06776011546
 20
853.8747482146439
 10
14049.06776011546
 20
853.8747482146439
 10
14049.06776011546
 20
827.751818637328
 10
14068.80217064596
 20
827.751818637328
 10
14068.80217064596
 20
815.7518186373286
 10
14049.06776011546
 20
815.7518186373286
 10
14049.06776011546
 20
749.8747482146441
 10
14068.80217064596
 20
749.8747482146441
 10
14068.80217064596
 20
737.8747482146437
 10
14025.06776011546
 20
737.8747482146437
 10
14025.06776011546
 20
749.8747482146441
 10
14041.06776011546
 20
749.8747482146441
 10
14041.06776011546
 20
815.7518186373286
 10
14025.06776011546
 20
815.7518186373286
 10
14025.06776011546
 20
827.751818637328
1001
AUTOCAD_POSTSCRIPT_FIGURE
1002
{
1000
PSFILL
1000
Grayscale
1000
Grayscale
1070
   100
1002
}
  0
LWPOLYLINE
  5
17354
330
125AA
100
AcDbEntity
  8
YODOROGO
100
AcDbPolyline
 90
       12
 70
     1
 43
0.0
 10
13988.80217064596
 20
873.8747482146438
 10
13988.80217064596
 20
885.8747482146432
 10
14010.91839030643
 20
892.3366697971587
 10
14010.91839030643
 20
936.2841744681499
 10
13988.80217064596
 20
936.2841744681499
 10
13988.80217064596
 20
946.2841744681488
 10
14039.0346099669
 20
946.2841744681488
 10
14039.0346099669
 20
936.2841744681499
 10
14016.91839030643
 20
936.2841744681499
 10
14016.91839030643
 20
893.4084665668834
 10
14039.0346099669
 20
899.3344897645366
 10
14039.03460996689
 20
887.8703881493972
  0
LWPOLYLINE
  5
17355
330
125AA
100
AcDbEntity
  8
YODOROGO
100
AcDbPolyline
 90
        4
 70
     1
 43
0.0
 10
15192.80217064596
 20
788.8747482146438
 10
15192.80217064596
 20
798.8747482146439
 10
15214.80217064596
 20
798.8747482146439
 10
15214.80217064596
 20
788.8747482146438
  0
LWPOLYLINE
  5
17356
330
125AA
100
AcDbEntity
  8
YODOROGO
100
AcDbPolyline
 90
        4
 70
     1
 43
0.0
 10
15194.80217064596
 20
790.8747482146432
 10
15194.80217064596
 20
796.8747482146445
 10
15212.80217064596
 20
796.8747482146445
 10
15212.80217064596
 20
790.8747482146432
  0
LWPOLYLINE
  5
17357
330
125AA
100
AcDbEntity
  8
YODOROGO
100
AcDbPolyline
 90
        4
 70
     1
 43
0.0
 10
15196.80217064596
 20
792.8747482146436
 10
15196.80217064596
 20
794.8747482146441
 10
15210.80217064596
 20
794.8747482146441
 10
15210.80217064596
 20
792.8747482146436
  0
LWPOLYLINE
  5
17358
330
125AA
100
AcDbEntity
  8
YODOROGO
100
AcDbPolyline
 90
       21
 70
     1
 43
0.0
 10
14216.80217064595
 20
873.874748214645
 10
14292.80217064595
 20
873.874748214645
 10
14292.80217064596
 20
773.8747482146439
 42
-0.4142135623730966
 10
14280.80217064596
 20
761.8747482146434
 10
14268.80217064595
 20
761.8747482146434
 42
-0.4142135623730951
 10
14248.80217064595
 20
781.8747482146434
 10
14248.80217064595
 20
853.8747482146439
 10
14216.80217064595
 20
853.8747482146439
 10
14216.80217064595
 20
753.8747482146439
 42
0.4142135623730951
 10
14256.80217064595
 20
713.8747482146438
 10
14396.80217064595
 20
713.8747482146438
 10
14396.80217064595
 20
761.8747482146434
 10
14328.80217064595
 20
761.8747482146434
 10
14328.80217064595
 20
801.8747482146446
 10
14396.80217064595
 20
801.8747482146446
 10
14396.80217064595
 20
833.8747482146439
 10
14328.80217064595
 20
833.8747482146439
 10
14328.80217064595
 20
873.874748214645
 10
14396.80217064595
 20
873.874748214645
 10
14396.80217064595
 20
909.8747482146441
 10
14216.80217064595
 20
909.8747482146441
  0
LWPOLYLINE
  5
17359
330
125AA
100
AcDbEntity
  8
YODOROGO
100
AcDbPolyline
 90
        6
 70
     1
 43
0.0
 10
14172.80217064596
 20
833.8747482146439
 10
14172.80217064596
 20
805.8747482146443
 42
-0.3033556581880987
 10
14128.80217064596
 20
761.8747482146434
 10
14128.80217064596
 20
713.8747482146438
 42
0.3797497938303935
 10
14200.80217064595
 20
805.8747482146443
 10
14200.80217064595
 20
833.8747482146439
  0
LWPOLYLINE
  5
1735A
330
125AA
100
AcDbEntity
  8
YODOROGO
100
AcDbPolyline
 90
        4
 70
     1
 43
0.0
 10
14200.80217064595
 20
912.4388128201532
 10
14200.80217064595
 20
876.4388128201531
 10
14128.80217064596
 20
897.8747482146436
 10
14128.80217064596
 20
933.8747482146439
1001
AUTOCAD_POSTSCRIPT_FIGURE
1002
{
1000
PSFILL
1000
Grayscale
1000
Grayscale
1070
   100
1002
}
  0
LWPOLYLINE
  5
1735B
330
125AA
100
AcDbEntity
  8
YODOROGO
100
AcDbPolyline
 90
        4
 70
     1
 43
0.0
 10
14128.80217064596
 20
1013.874748214644
 10
14128.80217064596
 20
979.874748214644
 10
14200.80217064595
 20
958.4388128201535
 10
14200.80217064595
 20
992.4388128201533
1001
AUTOCAD_POSTSCRIPT_FIGURE
1002
{
1000
PSFILL
1000
Grayscale
1000
Grayscale
1070
   100
1002
}
  0
LWPOLYLINE
  5
1735C
330
125AA
100
AcDbEntity
  8
YODOROGO
100
AcDbPolyline
 90
       13
 70
     1
 43
0.0
 10
14216.80217064595
 20
933.8747482146439
 10
14216.80217064595
 20
993.8747482146439
 10
14292.80217064595
 20
993.8747482146439
 10
14292.80217064595
 20
1013.874748214644
 10
14328.80217064596
 20
1013.874748214644
 10
14328.80217064596
 20
993.8747482146439
 10
14376.80217064595
 20
993.8747482146439
 42
-0.4142135623730951
 10
14396.80217064595
 20
973.8747482146438
 10
14396.80217064595
 20
933.8747482146439
 10
14364.80217064596
 20
933.8747482146439
 10
14364.80217064596
 20
961.8747482146433
 10
14248.80217064595
 20
961.8747482146433
 10
14248.80217064595
 20
933.8747482146439
  0
LWPOLYLINE
  5
1735D
330
125AA
100
AcDbEntity
  8
YODOROGO
100
AcDbPolyline
 90
        6
 70
     1
 43
0.0
 10
14456.80217064596
 20
713.8747482146438
 42
0.3838247686077346
 10
14536.80217064596
 20
789.8747482146441
 10
14536.80217064596
 20
1013.874748214644
 10
14500.80217064595
 20
1013.874748214644
 10
14500.80217064595
 20
809.8747482146441
 42
-0.3983235246806523
 10
14456.80217064596
 20
761.8747482146434
  0
LWPOLYLINE
  5
1735E
330
125AA
100
AcDbEntity
  8
YODOROGO
100
AcDbPolyline
 90
        4
 70
     1
 43
0.0
 10
14630.80217064596
 20
1003.874748214644
 10
14598.80217064596
 20
1003.874748214644
 10
14598.80217064596
 20
745.8747482146431
 10
14630.80217064596
 20
745.8747482146431
  0
LWPOLYLINE
  5
1735F
330
125AA
100
AcDbEntity
  8
YODOROGO
100
AcDbPolyline
 90
        4
 70
     1
 43
0.0
 10
14728.80217064596
 20
713.8747482146438
 10
14728.80217064596
 20
1013.874748214644
 10
14692.80217064595
 20
1013.874748214644
 10
14692.80217064595
 20
713.8747482146438
  0
LWPOLYLINE
  5
17360
330
125AA
100
AcDbEntity
  8
YODOROGO
100
AcDbPolyline
 90
       34
 70
     1
 43
0.0
 10
14836.80217064596
 20
885.8747482146442
 10
14882.80217064596
 20
885.8747482146442
 10
14882.80217064596
 20
853.8747482146439
 10
14914.80217064596
 20
853.8747482146439
 10
14914.80217064596
 20
885.8747482146442
 10
14960.80217064595
 20
885.8747482146442
 10
14960.80217064595
 20
853.8747482146439
 10
14988.80217064596
 20
853.8747482146439
 10
14988.80217064596
 20
909.8747482146441
 10
14914.80217064596
 20
909.8747482146441
 10
14914.80217064596
 20
929.874748214644
 10
14988.80217064596
 20
929.874748214644
 10
14988.80217064596
 20
953.8747482146439
 10
14914.80217064596
 20
953.8747482146439
 10
14914.80217064596
 20
973.8747482146438
 10
14988.80217064596
 20
973.8747482146438
 10
14988.80217064596
 20
997.8747482146436
 10
14914.80217064596
 20
997.8747482146436
 10
14914.80217064596
 20
1013.874748214644
 10
14882.80217064596
 20
1013.874748214644
 10
14882.80217064596
 20
997.8747482146436
 10
14832.80217064596
 20
997.8747482146436
 10
14832.80217064596
 20
1013.874748214644
 10
14808.80217064596
 20
1013.874748214644
 10
14808.80217064596
 20
973.8747482146438
 10
14882.80217064596
 20
973.8747482146438
 10
14882.80217064596
 20
953.8747482146439
 10
14808.80217064596
 20
953.8747482146439
 10
14808.80217064596
 20
929.874748214644
 10
14882.80217064596
 20
929.874748214644
 10
14882.80217064596
 20
909.8747482146441
 10
14808.80217064596
 20
909.8747482146441
 10
14808.80217064596
 20
853.8747482146439
 10
14836.80217064596
 20
853.8747482146439
1001
AUTOCAD_POSTSCRIPT_FIGURE
1002
{
1000
PSFILL
1000
Grayscale
1000
Grayscale
1070
    25
1002
}
  0
LWPOLYLINE
  5
17361
330
125AA
100
AcDbEntity
  8
YODOROGO
100
AcDbPolyline
 90
        4
 70
     1
 43
0.0
 10
15010.80217064596
 20
1013.874748214644
 10
15010.80217064596
 20
913.8747482146438
 10
15040.80217064596
 20
913.8747482146438
 10
15040.80217064596
 20
1013.874748214644
  0
LWPOLYLINE
  5
17362
330
125AA
100
AcDbEntity
  8
YODOROGO
100
AcDbPolyline
 90
       22
 70
     1
 43
0.0
 10
14968.80217064596
 20
740.6696674577553
 10
14968.80217064596
 20
797.2655452655706
 42
0.224065327635455
 10
15108.80217064596
 20
713.8747482146428
 10
15108.80217064596
 20
773.8747482146439
 42
-0.0313072161228184
 10
15088.80217064596
 20
775.9088612367136
 10
15094.80217064596
 20
801.8747482146446
 10
15052.80217064596
 20
801.8747482146446
 10
15048.80217064598
 20
788.0364079349501
 42
-0.0744977417275713
 10
15008.80217064596
 20
813.8747482146438
 10
15108.80217064596
 20
813.8747482146438
 10
15108.80217064596
 20
833.8747482146439
 10
14974.80217064596
 20
833.8747482146439
 10
14974.80217064596
 20
853.8747482146439
 10
14942.80217064596
 20
853.8747482146439
 10
14942.80217064596
 20
833.8747482146439
 10
14808.80217064596
 20
833.8747482146439
 10
14808.80217064596
 20
813.8747482146438
 10
14856.47231434973
 20
813.8747482146438
 10
14808.80217064596
 20
773.8747482146439
 10
14808.80217064596
 20
713.8747482146438
 10
14868.80217064596
 20
764.2207260852821
 10
14868.80217064596
 20
713.8747482146438
  0
LWPOLYLINE
  5
17363
330
125AA
100
AcDbEntity
  8
YODOROGO
100
AcDbPolyline
 90
        5
 70
     1
 43
0.0
 10
14888.80217064596
 20
813.8747482146438
 10
14888.80217064596
 20
781.0027187088283
 10
14885.70493649265
 20
778.403830673117
 10
14966.89206625427
 20
800.1578565285436
 42
-0.0208592374953635
 10
14958.80217064596
 20
813.8747482146438
  0
LWPOLYLINE
  5
17364
330
125AA
100
AcDbEntity
  8
YODOROGO
100
AcDbPolyline
 90
       22
 70
     1
 43
0.0
 10
14968.80217064596
 20
740.6696674577553
 10
14968.80217064596
 20
797.2655452655706
 42
0.224065327635455
 10
15108.80217064596
 20
713.8747482146428
 10
15108.80217064596
 20
773.8747482146439
 42
-0.0313072161228184
 10
15088.80217064596
 20
775.9088612367136
 10
15094.80217064596
 20
801.8747482146446
 10
15052.80217064596
 20
801.8747482146446
 10
15048.80217064598
 20
788.0364079349501
 42
-0.0744977417275713
 10
15008.80217064596
 20
813.8747482146438
 10
15108.80217064596
 20
813.8747482146438
 10
15108.80217064596
 20
833.8747482146439
 10
14974.80217064596
 20
833.8747482146439
 10
14974.80217064596
 20
853.8747482146439
 10
14942.80217064596
 20
853.8747482146439
 10
14942.80217064596
 20
833.8747482146439
 10
14808.80217064596
 20
833.8747482146439
 10
14808.80217064596
 20
813.8747482146438
 10
14856.47231434973
 20
813.8747482146438
 10
14808.80217064596
 20
773.8747482146439
 10
14808.80217064596
 20
713.8747482146438
 10
14868.80217064596
 20
764.2207260852821
 10
14868.80217064596
 20
713.8747482146438
  0
LWPOLYLINE
  5
17365
330
125AA
100
AcDbEntity
  8
YODOROGO
100
AcDbPolyline
 90
        8
 70
     1
 43
0.0
 10
15108.80217064596
 20
1013.874748214644
 10
15108.80217064596
 20
893.8747482146439
 42
-0.4142135623730951
 10
15068.80217064596
 20
853.8747482146439
 10
15010.80217064596
 20
853.8747482146439
 10
15010.80217064596
 20
885.8747482146442
 10
15060.80217064596
 20
885.8747482146442
 42
0.4142135623730951
 10
15080.80217064596
 20
905.8747482146443
 10
15080.80217064596
 20
1013.874748214644
  0
LWPOLYLINE
  5
17366
330
125AA
100
AcDbEntity
  8
YODOROGO
100
AcDbPolyline
 90
       12
 70
     1
 43
0.0
 10
15449.80217064596
 20
909.8747482146441
 10
15449.80217064596
 20
877.8747482146437
 10
15361.80217064596
 20
877.8747482146437
 10
15361.80217064596
 20
909.8747482146441
 10
15374.80217064596
 20
909.8747482146441
 10
15361.80217064596
 20
969.8747482146441
 10
15385.80217064596
 20
969.8747482146441
 10
15398.80217064596
 20
909.8747482146441
 10
15412.80217064596
 20
909.8747482146441
 10
15425.80217064596
 20
969.8747482146441
 10
15449.80217064596
 20
969.8747482146441
 10
15436.80217064596
 20
909.8747482146441
  0
LWPOLYLINE
  5
17367
330
125AA
100
AcDbEntity
  8
YODOROGO
100
AcDbPolyline
 90
       12
 70
     1
 43
0.0
 10
15415.80217064596
 20
877.8747482146437
 10
15415.80217064596
 20
781.8747482146434
 10
15429.80217064596
 20
781.8747482146434
 10
15429.80217064596
 20
845.8747482146444
 10
15449.80217064596
 20
845.8747482146444
 10
15449.80217064596
 20
745.8747482146443
 10
15361.80217064596
 20
745.8747482146443
 10
15361.80217064596
 20
845.8747482146444
 10
15381.80217064596
 20
845.8747482146444
 10
15381.80217064596
 20
781.8747482146434
 10
15395.80217064596
 20
781.8747482146434
 10
15395.80217064596
 20
877.8747482146437
  0
LWPOLYLINE
  5
17368
330
125AA
100
AcDbEntity
  8
YODOROGO
100
AcDbPolyline
 90
       11
 70
     1
 43
0.0
 10
15462.80217064596
 20
773.8747482146439
 10
15462.80217064596
 20
981.8747482146434
 10
15348.80217064596
 20
981.8747482146434
 10
15348.80217064596
 20
713.8747482146438
 10
15322.80217064596
 20
713.8747482146438
 10
15322.80217064596
 20
1013.874748214644
 10
15486.80217064596
 20
1013.874748214644
 10
15486.80217064596
 20
733.8747482146438
 42
-0.4142135623730951
 10
15466.80217064596
 20
713.8747482146438
 10
15449.80217064596
 20
713.8747482146438
 10
15449.80217064596
 20
773.8747482146439
  0
LWPOLYLINE
  5
17369
330
125AA
100
AcDbEntity
  8
YODOROGO
100
AcDbPolyline
 90
       20
 70
     1
 43
0.0
 10
15794.80217064596
 20
905.8747482146443
 10
15794.80217064596
 20
713.8747482146438
 10
15826.80217064596
 20
713.8747482146438
 10
15826.80217064595
 20
905.8747482146443
 10
15850.80217064596
 20
905.8747482146443
 10
15850.80217064596
 20
937.8747482146437
 10
15766.80217064595
 20
937.8747482146437
 10
15766.80217064595
 20
957.8747482146436
 10
15830.80217064596
 20
957.8747482146436
 42
0.4142135623730951
 10
15850.80217064596
 20
977.8747482146437
 10
15850.80217064596
 20
1013.874748214644
 10
15818.80217064596
 20
1013.874748214644
 10
15818.80217064596
 20
1001.874748214643
 42
-0.4142135623730951
 10
15810.80217064596
 20
993.8747482146439
 10
15730.80217064595
 20
993.8747482146439
 10
15730.80217064595
 20
817.8747482146436
 42
-0.413746113159742
 10
15674.80217064596
 20
763.8747482146438
 10
15674.80217064596
 20
713.8747482146438
 42
0.401682673696678
 10
15766.80217064596
 20
797.8747482146436
 10
15766.80217064595
 20
905.8747482146443
  0
LWPOLYLINE
  5
1736A
330
125AA
100
AcDbEntity
  8
YODOROGO
100
AcDbPolyline
 90
        8
 70
     1
 43
0.0
 10
15618.80217064596
 20
797.8747482146436
 10
15618.80217064596
 20
853.8747482146439
 10
15706.80217064596
 20
853.8747482146439
 10
15706.80217064596
 20
953.8747482146439
 10
15582.80217064596
 20
953.8747482146439
 10
15582.80217064596
 20
817.8747482146436
 42
-0.2860301183093825
 10
15546.80217064596
 20
761.8747482146434
 10
15546.80217064596
 20
713.8747482146438
 42
0.3479671003727703
  0
LWPOLYLINE
  5
1736B
330
125AA
100
AcDbEntity
  8
YODOROGO
100
AcDbPolyline
 90
        4
 70
     1
 43
0.0
 10
15674.80217064596
 20
889.8747482146442
 10
15674.80217064596
 20
917.8747482146436
 10
15618.80217064596
 20
917.8747482146436
 10
15618.80217064596
 20
889.8747482146442
  0
LWPOLYLINE
  5
1736C
330
125AA
100
AcDbEntity
  8
YODOROGO
100
AcDbPolyline
 90
        4
 70
     1
 43
0.0
 10
15582.80217064596
 20
1013.874748214644
 10
15582.80217064596
 20
981.8747482146434
 10
15706.80217064596
 20
981.8747482146434
 10
15706.80217064596
 20
1013.874748214644
  0
LWPOLYLINE
  5
1736D
330
125AA
100
AcDbEntity
  8
YODOROGO
100
AcDbPolyline
 90
        6
 70
     1
 43
0.0
 10
15248.80217064596
 20
969.8747482146441
 10
15190.80217064596
 20
909.8747482146441
 10
15190.80217064596
 20
953.8747482146439
 10
15248.80217064596
 20
1013.874748214644
 10
15308.80217064596
 20
973.8747482146438
 10
15308.80217064596
 20
929.874748214644
  0
LWPOLYLINE
  5
1736E
330
125AA
100
AcDbEntity
  8
YODOROGO
100
AcDbPolyline
 90
       24
 70
     1
 43
0.0
 10
15232.80217064596
 20
867.8747482146436
 10
15190.80217064596
 20
867.8747482146436
 10
15190.80217064596
 20
897.8747482146436
 10
15308.80217064596
 20
897.8747482146436
 10
15308.80217064596
 20
867.8747482146436
 10
15264.80217064596
 20
867.8747482146436
 10
15264.80217064596
 20
839.8747482146442
 10
15308.80217064596
 20
839.8747482146442
 10
15308.80217064596
 20
813.8747482146438
 10
15264.80217064596
 20
813.8747482146438
 10
15264.80217064596
 20
773.8747482146439
 10
15272.80217064595
 20
773.8747482146439
 42
0.4142135623730582
 10
15284.80217064595
 20
785.8747482146432
 10
15284.80217064596
 20
799.8747482146441
 10
15308.80217064596
 20
799.8747482146441
 10
15308.80217064596
 20
753.8747482146439
 42
-0.4142135623730951
 10
15268.80217064596
 20
713.8747482146438
 10
15190.80217064596
 20
713.8747482146438
 10
15190.80217064596
 20
773.8747482146439
 10
15232.80217064596
 20
773.8747482146439
 10
15232.80217064596
 20
813.8747482146438
 10
15190.80217064596
 20
813.8747482146438
 10
15190.80217064596
 20
839.8747482146442
 10
15232.80217064596
 20
839.8747482146442
  0
LINE
  5
175CB
330
125AA
100
AcDbEntity
  8
SUNPOU
100
AcDbLine
 10
4889.856483595693
 20
4586.963733520728
 30
0.0
 11
4889.856483595693
 21
4601.963733520728
 31
0.0
  0
LINE
  5
175CC
330
125AA
100
AcDbEntity
  8
SUNPOU
100
AcDbLine
 10
4249.856483595691
 20
3783.963733520729
 30
0.0
 11
4249.856483595691
 21
4601.963733520728
 31
0.0
  0
LINE
  5
175CD
330
125AA
100
AcDbEntity
  8
SUNPOU
100
AcDbLine
 10
4874.856483595692
 20
4556.963733520728
 30
0.0
 11
4264.856483595691
 21
4556.963733520728
 31
0.0
  0
LINE
  5
175D1
330
125AA
100
AcDbEntity
  8
SUNPOU
  6
ByBlock
100
AcDbLine
 10
6435.086990845943
 20
4556.963733520728
 30
0.0
 11
6375.086990845929
 21
4556.963733520728
 31
0.0
  0
LINE
  5
175D2
330
125AA
100
AcDbEntity
  8
SUNPOU
  6
ByBlock
100
AcDbLine
 10
6435.086990845936
 20
4556.963733520728
 30
0.0
 11
6375.086990845936
 21
4573.040685066597
 31
0.0
  0
LINE
  5
175D3
330
125AA
100
AcDbEntity
  8
SUNPOU
  6
ByBlock
100
AcDbLine
 10
6435.086990845943
 20
4556.963733520728
 30
0.0
 11
6375.086990845929
 21
4540.886781974858
 31
0.0
  0
LINE
  5
175D4
330
125AA
100
AcDbEntity
  8
SUNPOU
  6
ByBlock
100
AcDbLine
 10
6375.086990845943
 20
4556.963733520728
 30
0.0
 11
6315.086990845929
 21
4556.963733520728
 31
0.0
  0
LINE
  5
175D5
330
125AA
100
AcDbEntity
  8
SUNPOU
  6
ByBlock
100
AcDbLine
 10
6375.086990845936
 20
4556.963733520728
 30
0.0
 11
6315.086990845935
 21
4573.040685066597
 31
0.0
  0
LINE
  5
175D6
330
125AA
100
AcDbEntity
  8
SUNPOU
  6
ByBlock
100
AcDbLine
 10
6375.086990845943
 20
4556.963733520728
 30
0.0
 11
6315.086990845929
 21
4540.886781974858
 31
0.0
  0
LINE
  5
175D7
330
125AA
100
AcDbEntity
  8
SUNPOU
100
AcDbLine
 10
6397.249978138844
 20
3753.963733520729
 30
0.0
 11
6863.18758900464
 21
3753.963733520729
 31
0.0
  0
LINE
  5
175D8
330
125AA
100
AcDbEntity
  8
SUNPOU
100
AcDbLine
 10
5719.856483595691
 20
3145.963733520729
 30
0.0
 11
6863.18758900464
 21
3145.963733520729
 31
0.0
  0
LINE
  5
175D9
330
125AA
100
AcDbEntity
  8
SUNPOU
100
AcDbLine
 10
6818.18758900464
 20
3738.963733520729
 30
0.0
 11
6818.18758900464
 21
3160.963733520729
 31
0.0
  0
LINE
  5
175DD
330
125AA
100
AcDbEntity
  8
SUNPOU
100
AcDbLine
 10
5719.856483595692
 20
3145.963733520728
 30
0.0
 11
6863.18758900464
 21
3145.963733520728
 31
0.0
  0
LINE
  5
175DE
330
125AA
100
AcDbEntity
  8
SUNPOU
100
AcDbLine
 10
5719.856483595692
 20
2985.963733520732
 30
0.0
 11
6863.18758900464
 21
2985.963733520732
 31
0.0
  0
LINE
  5
175DF
330
125AA
100
AcDbEntity
  8
SUNPOU
100
AcDbLine
 10
6818.18758900464
 20
3130.963733520728
 30
0.0
 11
6818.18758900464
 21
3000.963733520732
 31
0.0
  0
LINE
  5
175E3
330
125AA
100
AcDbEntity
  8
SUNPOU
100
AcDbLine
 10
6397.249978138844
 20
3753.963733520729
 30
0.0
 11
7069.43758900464
 21
3753.963733520729
 31
0.0
  0
LINE
  5
175E4
330
125AA
100
AcDbEntity
  8
SUNPOU
100
AcDbLine
 10
5719.856483595692
 20
2985.963733520732
 30
0.0
 11
7069.43758900464
 21
2985.963733520732
 31
0.0
  0
LINE
  5
175E5
330
125AA
100
AcDbEntity
  8
SUNPOU
100
AcDbLine
 10
7024.43758900464
 20
3738.963733520729
 30
0.0
 11
7024.43758900464
 21
3000.963733520732
 31
0.0
  0
LINE
  5
175E9
330
125AA
100
AcDbEntity
  8
SUNPOU
100
AcDbLine
 10
4249.856483595691
 20
3115.963733520729
 30
0.0
 11
4249.856483595691
 21
2560.963733520728
 31
0.0
  0
LINE
  5
175EA
330
125AA
100
AcDbEntity
  8
SUNPOU
100
AcDbLine
 10
5529.856483595692
 20
3115.963733520729
 30
0.0
 11
5529.856483595692
 21
2560.963733520728
 31
0.0
  0
LINE
  5
175EB
330
125AA
100
AcDbEntity
  8
SUNPOU
100
AcDbLine
 10
4264.856483595691
 20
2605.963733520728
 30
0.0
 11
5514.856483595691
 21
2605.963733520728
 31
0.0
  0
LINE
  5
175EF
330
125AA
100
AcDbEntity
  8
SUNPOU
100
AcDbLine
 10
4089.856483595691
 20
2955.963733520729
 30
0.0
 11
4089.856483595691
 21
2350.963733520728
 31
0.0
  0
LINE
  5
175F0
330
125AA
100
AcDbEntity
  8
SUNPOU
100
AcDbLine
 10
5689.856483595693
 20
2955.963733520732
 30
0.0
 11
5689.856483595693
 21
2350.963733520728
 31
0.0
  0
LINE
  5
175F1
330
125AA
100
AcDbEntity
  8
SUNPOU
100
AcDbLine
 10
4104.856483595692
 20
2395.963733520728
 30
0.0
 11
5674.856483595693
 21
2395.963733520728
 31
0.0
  0
LINE
  5
175F5
330
125AA
100
AcDbEntity
  8
SUNPOU
100
AcDbLine
 10
12009.12750789964
 20
9108.243182432326
 30
0.0
 11
12844.12750789964
 21
9108.243182432325
 31
0.0
  0
LINE
  5
175F6
330
125AA
100
AcDbEntity
  8
SUNPOU
100
AcDbLine
 10
12009.12750789964
 20
6498.243182432327
 30
0.0
 11
12844.12750789964
 21
6498.243182432327
 31
0.0
  0
LINE
  5
175F7
330
125AA
100
AcDbEntity
  8
SUNPOU
100
AcDbLine
 10
12799.12750789964
 20
9093.243182432324
 30
0.0
 11
12799.12750789964
 21
6513.243182432326
 31
0.0
  0
LINE
  5
175FB
330
125AA
100
AcDbEntity
  8
SUNPOU
100
AcDbLine
 10
12154.12750789964
 20
8708.243182432326
 30
0.0
 11
12634.12750789964
 21
8708.243182432324
 31
0.0
  0
LINE
  5
175FC
330
125AA
100
AcDbEntity
  8
SUNPOU
100
AcDbLine
 10
12009.12750789964
 20
9108.243182432326
 30
0.0
 11
12634.12750789964
 21
9108.243182432325
 31
0.0
  0
LINE
  5
175FD
330
125AA
100
AcDbEntity
  8
SUNPOU
100
AcDbLine
 10
12589.12750789964
 20
8723.243182432325
 30
0.0
 11
12589.12750789964
 21
9093.243182432324
 31
0.0
  0
LINE
  5
17601
330
125AA
100
AcDbEntity
  8
SUNPOU
100
AcDbLine
 10
12154.12750789964
 20
6898.243182432327
 30
0.0
 11
12634.12750789964
 21
6898.243182432327
 31
0.0
  0
LINE
  5
17602
330
125AA
100
AcDbEntity
  8
SUNPOU
100
AcDbLine
 10
12154.12750789964
 20
8708.243182432326
 30
0.0
 11
12634.12750789964
 21
8708.243182432324
 31
0.0
  0
LINE
  5
17603
330
125AA
100
AcDbEntity
  8
SUNPOU
100
AcDbLine
 10
12589.12750789964
 20
6913.243182432326
 30
0.0
 11
12589.12750789964
 21
8693.243182432324
 31
0.0
  0
LINE
  5
17607
330
125AA
100
AcDbEntity
  8
SUNPOU
100
AcDbLine
 10
12009.12750789964
 20
6498.243182432327
 30
0.0
 11
12634.12750789964
 21
6498.243182432327
 31
0.0
  0
LINE
  5
17608
330
125AA
100
AcDbEntity
  8
SUNPOU
100
AcDbLine
 10
12154.12750789964
 20
6898.243182432327
 30
0.0
 11
12634.12750789964
 21
6898.243182432327
 31
0.0
  0
LINE
  5
17609
330
125AA
100
AcDbEntity
  8
SUNPOU
100
AcDbLine
 10
12589.12750789964
 20
6513.243182432326
 30
0.0
 11
12589.12750789964
 21
6883.243182432327
 31
0.0
  0
LINE
  5
1760D
330
125AA
100
AcDbEntity
  8
SUNPOU
100
AcDbLine
 10
12005.12750789964
 20
8908.243182432327
 30
0.0
 11
12424.12750789964
 21
8908.243182432325
 31
0.0
  0
LINE
  5
1760E
330
125AA
100
AcDbEntity
  8
SUNPOU
100
AcDbLine
 10
12009.12750789964
 20
9108.243182432326
 30
0.0
 11
12424.12750789964
 21
9108.243182432325
 31
0.0
  0
LINE
  5
1760F
330
125AA
100
AcDbEntity
  8
SUNPOU
100
AcDbLine
 10
12379.12750789964
 20
8923.243182432326
 30
0.0
 11
12379.12750789964
 21
9093.243182432324
 31
0.0
  0
LINE
  5
17610
330
125AA
100
AcDbEntity
  8
SUNPOU
100
AcDbLine
 10
12379.12750789964
 20
9108.243182432325
 30
0.0
 11
12379.12750789964
 21
9367.52889671804
 31
0.0
  0
LINE
  5
17614
330
125AA
100
AcDbEntity
  8
SUNPOU
100
AcDbLine
 10
12154.12750789964
 20
8708.243182432326
 30
0.0
 11
12424.12750789964
 21
8708.243182432324
 31
0.0
  0
LINE
  5
17615
330
125AA
100
AcDbEntity
  8
SUNPOU
100
AcDbLine
 10
12009.12750789964
 20
8908.243182432327
 30
0.0
 11
12424.12750789964
 21
8908.243182432325
 31
0.0
  0
LINE
  5
17616
330
125AA
100
AcDbEntity
  8
SUNPOU
100
AcDbLine
 10
12379.12750789964
 20
8893.243182432325
 30
0.0
 11
12379.12750789964
 21
8723.243182432325
 31
0.0
  0
LINE
  5
17617
330
125AA
100
AcDbEntity
  8
SUNPOU
100
AcDbLine
 10
12379.12750789964
 20
8708.243182432324
 30
0.0
 11
12379.12750789964
 21
8448.957468146611
 31
0.0
  0
LINE
  5
1761B
330
125AA
100
AcDbEntity
  8
SUNPOU
100
AcDbLine
 10
9549.127507899639
 20
7298.243182432327
 30
0.0
 11
9864.12750789964
 21
7298.243182432327
 31
0.0
  0
LINE
  5
1761C
330
125AA
100
AcDbEntity
  8
SUNPOU
100
AcDbLine
 10
9549.127507899639
 20
6498.243182432327
 30
0.0
 11
9864.12750789964
 21
6498.243182432327
 31
0.0
  0
LINE
  5
1761D
330
125AA
100
AcDbEntity
  8
SUNPOU
100
AcDbLine
 10
9819.127507899642
 20
7283.243182432326
 30
0.0
 11
9819.127507899642
 21
6513.243182432326
 31
0.0
  0
LINE
  5
17621
330
125AA
100
AcDbEntity
  8
SUNPOU
100
AcDbLine
 10
5884.127507899639
 20
7108.243182432326
 30
0.0
 11
5869.127507899639
 21
7198.243182432327
 31
0.0
  0
LINE
  5
17622
330
125AA
100
AcDbEntity
  8
SUNPOU
100
AcDbLine
 10
5869.127507899639
 20
7198.243182432327
 30
0.0
 11
5854.127507899638
 21
7108.243182432326
 31
0.0
  0
SOLID
  5
17623
330
125AA
100
AcDbEntity
  8
SUNPOU
100
AcDbTrace
 10
5884.127507899639
 20
7108.243182432326
 30
0.0
 11
5854.127507899638
 21
7108.243182432326
 31
0.0
 12
5869.127507899639
 22
7198.243182432327
 32
0.0
 13
5869.127507899639
 23
7198.243182432327
 33
0.0
  0
LINE
  5
17624
330
125AA
100
AcDbEntity
  8
SUNPOU
100
AcDbLine
 10
5854.127507899638
 20
7108.243182432326
 30
0.0
 11
5884.127507899639
 21
7108.243182432326
 31
0.0
  0
LINE
  5
17625
330
125AA
100
AcDbEntity
  8
SUNPOU
100
AcDbLine
 10
4634.127507899637
 20
7108.243182432326
 30
0.0
 11
4649.127507899637
 21
7198.243182432327
 31
0.0
  0
LINE
  5
17626
330
125AA
100
AcDbEntity
  8
SUNPOU
100
AcDbLine
 10
4649.127507899637
 20
7198.243182432327
 30
0.0
 11
4664.127507899637
 21
7108.243182432326
 31
0.0
  0
SOLID
  5
17627
330
125AA
100
AcDbEntity
  8
SUNPOU
100
AcDbTrace
 10
4634.127507899637
 20
7108.243182432326
 30
0.0
 11
4664.127507899637
 21
7108.243182432326
 31
0.0
 12
4649.127507899637
 22
7198.243182432327
 32
0.0
 13
4649.127507899637
 23
7198.243182432327
 33
0.0
  0
LINE
  5
17628
330
125AA
100
AcDbEntity
  8
SUNPOU
100
AcDbLine
 10
4664.127507899637
 20
7108.243182432326
 30
0.0
 11
4634.127507899637
 21
7108.243182432326
 31
0.0
  0
TEXT
  5
17629
330
125AA
100
AcDbEntity
  8
SUNPOU
100
AcDbText
 10
8011.413222185353
 20
9453.243182432325
 30
0.0
 40
90.0
  1
2460 × （ N - 2 ）
 41
0.6666666666666666
  7
00
100
AcDbText
  0
LINE
  5
1762B
330
125AA
100
AcDbEntity
  8
SUNPOU
  6
ByBlock
100
AcDbLine
 10
7730.377507899639
 20
9408.243182432325
 30
0.0
 11
7741.627507899639
 21
9408.243182432325
 31
0.0
  0
LINE
  5
1762D
330
125AA
100
AcDbEntity
  8
SUNPOU
  6
ByBlock
100
AcDbLine
 10
9107.877507899639
 20
9408.243182432325
 30
0.0
 11
9096.627507899638
 21
9408.243182432325
 31
0.0
  0
LINE
  5
1762E
330
125AA
100
AcDbEntity
  8
SUNPOU
100
AcDbLine
 10
4859.127507899639
 20
9138.243182432326
 30
0.0
 11
4859.127507899639
 21
9663.243182432324
 31
0.0
  0
LINE
  5
1762F
330
125AA
100
AcDbEntity
  8
SUNPOU
100
AcDbLine
 10
11979.12750789964
 20
9138.243182432326
 30
0.0
 11
11979.12750789964
 21
9663.243182432324
 31
0.0
  0
LINE
  5
17630
330
125AA
100
AcDbEntity
  8
SUNPOU
100
AcDbLine
 10
4874.127507899639
 20
9618.243182432324
 30
0.0
 11
11964.12750789964
 21
9618.243182432324
 31
0.0
  0
LINE
  5
17634
330
125AA
100
AcDbEntity
  8
SUNPOU
100
AcDbLine
 10
7719.127507899639
 20
9338.243182432327
 30
0.0
 11
7719.127507899639
 21
9453.243182432325
 31
0.0
  0
LINE
  5
17635
330
125AA
100
AcDbEntity
  8
SUNPOU
100
AcDbLine
 10
5259.127507899639
 20
9338.243182432327
 30
0.0
 11
5259.127507899639
 21
9453.243182432325
 31
0.0
  0
LINE
  5
17636
330
125AA
100
AcDbEntity
  8
SUNPOU
100
AcDbLine
 10
7704.127507899639
 20
9408.243182432325
 30
0.0
 11
5274.127507899638
 21
9408.243182432325
 31
0.0
  0
LINE
  5
1763A
330
125AA
100
AcDbEntity
  8
SUNPOU
100
AcDbLine
 10
11579.12750789964
 20
9338.243182432327
 30
0.0
 11
11579.12750789964
 21
9453.243182432325
 31
0.0
  0
LINE
  5
1763B
330
125AA
100
AcDbEntity
  8
SUNPOU
100
AcDbLine
 10
9119.127507899639
 20
9338.243182432327
 30
0.0
 11
9119.127507899639
 21
9453.243182432325
 31
0.0
  0
LINE
  5
1763C
330
125AA
100
AcDbEntity
  8
SUNPOU
100
AcDbLine
 10
11564.12750789964
 20
9408.243182432325
 30
0.0
 11
9134.12750789964
 21
9408.243182432325
 31
0.0
  0
LINE
  5
17640
330
125AA
100
AcDbEntity
  8
SUNPOU
100
AcDbLine
 10
5259.127507899639
 20
9338.243182432327
 30
0.0
 11
5259.127507899639
 21
9453.243182432325
 31
0.0
  0
LINE
  5
17641
330
125AA
100
AcDbEntity
  8
SUNPOU
100
AcDbLine
 10
4859.127507899639
 20
9138.243182432326
 30
0.0
 11
4859.127507899639
 21
9453.243182432325
 31
0.0
  0
LINE
  5
17642
330
125AA
100
AcDbEntity
  8
SUNPOU
100
AcDbLine
 10
5244.127507899639
 20
9408.243182432325
 30
0.0
 11
4874.127507899639
 21
9408.243182432325
 31
0.0
  0
LINE
  5
17646
330
125AA
100
AcDbEntity
  8
SUNPOU
100
AcDbLine
 10
11579.12750789964
 20
9338.243182432327
 30
0.0
 11
11579.12750789964
 21
9453.243182432325
 31
0.0
  0
LINE
  5
17647
330
125AA
100
AcDbEntity
  8
SUNPOU
100
AcDbLine
 10
11979.12750789964
 20
9138.243182432326
 30
0.0
 11
11979.12750789964
 21
9453.243182432325
 31
0.0
  0
LINE
  5
17648
330
125AA
100
AcDbEntity
  8
SUNPOU
100
AcDbLine
 10
11594.12750789964
 20
9408.243182432325
 30
0.0
 11
11964.12750789964
 21
9408.243182432325
 31
0.0
  0
LINE
  5
1764C
330
125AA
100
AcDbEntity
  8
SUNPOU
100
AcDbLine
 10
7289.127507899639
 20
9108.243182432326
 30
0.0
 11
6974.127507899639
 21
9108.243182432326
 31
0.0
  0
LINE
  5
1764D
330
125AA
100
AcDbEntity
  8
SUNPOU
100
AcDbLine
 10
7289.127507899639
 20
8308.243182432326
 30
0.0
 11
6974.127507899639
 21
8308.243182432326
 31
0.0
  0
LINE
  5
1764E
330
125AA
100
AcDbEntity
  8
SUNPOU
100
AcDbLine
 10
7019.127507899638
 20
9093.243182432328
 30
0.0
 11
7019.127507899638
 21
8323.243182432326
 31
0.0
  0
LINE
  5
17652
330
125AA
100
AcDbEntity
  8
SUNPOU
100
AcDbLine
 10
7319.127507899638
 20
8278.243182432326
 30
0.0
 11
7319.127507899638
 21
7963.243182432326
 31
0.0
  0
LINE
  5
17653
330
125AA
100
AcDbEntity
  8
SUNPOU
100
AcDbLine
 10
8119.127507899639
 20
8278.243182432326
 30
0.0
 11
8119.127507899639
 21
7963.243182432326
 31
0.0
  0
LINE
  5
17654
330
125AA
100
AcDbEntity
  8
SUNPOU
100
AcDbLine
 10
7334.127507899639
 20
8008.243182432327
 30
0.0
 11
8104.127507899638
 21
8008.243182432327
 31
0.0
  0
LINE
  5
17658
330
125AA
100
AcDbEntity
  8
SUNPOU
100
AcDbLine
 10
8719.127507899639
 20
7328.243182432327
 30
0.0
 11
8719.127507899639
 21
7643.243182432327
 31
0.0
  0
LINE
  5
17659
330
125AA
100
AcDbEntity
  8
SUNPOU
100
AcDbLine
 10
9519.127507899638
 20
7328.243182432327
 30
0.0
 11
9519.127507899638
 21
7643.243182432327
 31
0.0
  0
LINE
  5
1765A
330
125AA
100
AcDbEntity
  8
SUNPOU
100
AcDbLine
 10
8734.127507899639
 20
7598.243182432327
 30
0.0
 11
9504.127507899639
 21
7598.243182432327
 31
0.0
  0
TEXT
  5
1765E
330
125AA
100
AcDbEntity
  8
SUNPOU
100
AcDbText
 10
4484.142197881406
 20
4601.963733520728
 30
0.0
 40
90.0
  1
400
 41
0.6666666666666666
  7
00
100
AcDbText
  0
LINE
  5
17660
330
125AA
100
AcDbEntity
  8
SUNPOU
  6
ByBlock
100
AcDbLine
 10
4261.106483595692
 20
4556.963733520728
 30
0.0
 11
4272.356483595691
 21
4556.963733520728
 31
0.0
  0
LINE
  5
17662
330
125AA
100
AcDbEntity
  8
SUNPOU
  6
ByBlock
100
AcDbLine
 10
4878.606483595692
 20
4556.963733520728
 30
0.0
 11
4867.356483595692
 21
4556.963733520728
 31
0.0
  0
TEXT
  5
17663
330
125AA
100
AcDbEntity
  8
SUNPOU
100
AcDbText
 10
6773.187589004638
 20
3364.249447806444
 30
0.0
 40
90.0
  1
380
 50
90.0
 41
0.6666666666666666
  7
00
100
AcDbText
  0
LINE
  5
17665
330
125AA
100
AcDbEntity
  8
SUNPOU
  6
ByBlock
100
AcDbLine
 10
6818.18758900464
 20
3157.213733520729
 30
0.0
 11
6818.18758900464
 21
3168.463733520729
 31
0.0
  0
LINE
  5
17667
330
125AA
100
AcDbEntity
  8
SUNPOU
  6
ByBlock
100
AcDbLine
 10
6818.18758900464
 20
3742.713733520729
 30
0.0
 11
6818.18758900464
 21
3731.463733520729
 31
0.0
  0
LINE
  5
17669
330
125AA
100
AcDbEntity
  8
SUNPOU
  6
ByBlock
100
AcDbLine
 10
6818.18758900464
 20
2997.213733520732
 30
0.0
 11
6818.18758900464
 21
3008.463733520732
 31
0.0
  0
LINE
  5
1766B
330
125AA
100
AcDbEntity
  8
SUNPOU
  6
ByBlock
100
AcDbLine
 10
6818.18758900464
 20
3134.713733520728
 30
0.0
 11
6818.18758900464
 21
3123.463733520728
 31
0.0
  0
TEXT
  5
1766C
330
125AA
100
AcDbEntity
  8
SUNPOU
100
AcDbText
 10
6775.015821249391
 20
2760.243102996789
 30
0.0
 40
90.0
  1
100
 50
90.0
 41
0.6666666666666666
  7
00
100
AcDbText
  0
TEXT
  5
1766D
330
125AA
100
AcDbEntity
  8
SUNPOU
100
AcDbText
 10
6979.437589004638
 20
3284.249447806445
 30
0.0
 40
90.0
  1
480
 50
90.0
 41
0.6666666666666666
  7
00
100
AcDbText
  0
LINE
  5
1766F
330
125AA
100
AcDbEntity
  8
SUNPOU
  6
ByBlock
100
AcDbLine
 10
7024.43758900464
 20
2997.213733520732
 30
0.0
 11
7024.43758900464
 21
3008.463733520732
 31
0.0
  0
LINE
  5
17671
330
125AA
100
AcDbEntity
  8
SUNPOU
  6
ByBlock
100
AcDbLine
 10
7024.43758900464
 20
3742.713733520729
 30
0.0
 11
7024.43758900464
 21
3731.463733520729
 31
0.0
  0
TEXT
  5
17672
330
125AA
100
AcDbEntity
  8
SUNPOU
100
AcDbText
 10
4804.142197881406
 20
2650.963733520728
 30
0.0
 40
90.0
  1
800
 41
0.6666666666666666
  7
00
100
AcDbText
  0
LINE
  5
17674
330
125AA
100
AcDbEntity
  8
SUNPOU
  6
ByBlock
100
AcDbLine
 10
5518.606483595691
 20
2605.963733520728
 30
0.0
 11
5507.356483595692
 21
2605.963733520728
 31
0.0
  0
LINE
  5
17676
330
125AA
100
AcDbEntity
  8
SUNPOU
  6
ByBlock
100
AcDbLine
 10
4261.106483595692
 20
2605.963733520728
 30
0.0
 11
4272.356483595691
 21
2605.963733520728
 31
0.0
  0
TEXT
  5
17677
330
125AA
100
AcDbEntity
  8
SUNPOU
100
AcDbText
 10
4771.285055024263
 20
2440.963733520729
 30
0.0
 40
90.0
  1
1000
 41
0.6666666666666666
  7
00
100
AcDbText
  0
LINE
  5
17679
330
125AA
100
AcDbEntity
  8
SUNPOU
  6
ByBlock
100
AcDbLine
 10
5678.606483595692
 20
2395.963733520728
 30
0.0
 11
5667.356483595693
 21
2395.963733520728
 31
0.0
  0
LINE
  5
1767B
330
125AA
100
AcDbEntity
  8
SUNPOU
  6
ByBlock
100
AcDbLine
 10
4101.106483595692
 20
2395.963733520728
 30
0.0
 11
4112.356483595691
 21
2395.963733520728
 31
0.0
  0
TEXT
  5
1767C
330
125AA
100
AcDbEntity
  8
SUNPOU
100
AcDbText
 10
12754.12750789964
 20
7688.957468146615
 30
0.0
 40
90.0
  1
2610
 50
90.0
 41
0.6666666666666666
  7
00
100
AcDbText
  0
LINE
  5
1767E
330
125AA
100
AcDbEntity
  8
SUNPOU
  6
ByBlock
100
AcDbLine
 10
12799.12750789964
 20
6509.493182432326
 30
0.0
 11
12799.12750789964
 21
6520.743182432326
 31
0.0
  0
LINE
  5
17680
330
125AA
100
AcDbEntity
  8
SUNPOU
  6
ByBlock
100
AcDbLine
 10
12799.12750789964
 20
9096.993182432326
 30
0.0
 11
12799.12750789964
 21
9085.743182432326
 31
0.0
  0
TEXT
  5
17681
330
125AA
100
AcDbEntity
  8
SUNPOU
100
AcDbText
 10
12544.12750789964
 20
8822.528896718042
 30
0.0
 40
90.0
  1
400
 50
90.0
 41
0.6666666666666666
  7
00
100
AcDbText
  0
LINE
  5
17683
330
125AA
100
AcDbEntity
  8
SUNPOU
  6
ByBlock
100
AcDbLine
 10
12589.12750789964
 20
9096.993182432326
 30
0.0
 11
12589.12750789964
 21
9085.743182432326
 31
0.0
  0
LINE
  5
17685
330
125AA
100
AcDbEntity
  8
SUNPOU
  6
ByBlock
100
AcDbLine
 10
12589.12750789964
 20
8719.493182432325
 30
0.0
 11
12589.12750789964
 21
8730.743182432325
 31
0.0
  0
TEXT
  5
17686
330
125AA
100
AcDbEntity
  8
SUNPOU
100
AcDbText
 10
12544.12750789964
 20
7684.6717538609
 30
0.0
 40
90.0
  1
1810
 50
90.0
 41
0.6666666666666666
  7
00
100
AcDbText
  0
LINE
  5
17688
330
125AA
100
AcDbEntity
  8
SUNPOU
  6
ByBlock
100
AcDbLine
 10
12589.12750789964
 20
8696.993182432326
 30
0.0
 11
12589.12750789964
 21
8685.743182432325
 31
0.0
  0
LINE
  5
1768A
330
125AA
100
AcDbEntity
  8
SUNPOU
  6
ByBlock
100
AcDbLine
 10
12589.12750789964
 20
6909.493182432327
 30
0.0
 11
12589.12750789964
 21
6920.743182432326
 31
0.0
  0
TEXT
  5
1768B
330
125AA
100
AcDbEntity
  8
SUNPOU
100
AcDbText
 10
12544.12750789964
 20
6612.528896718044
 30
0.0
 40
90.0
  1
400
 50
90.0
 41
0.6666666666666666
  7
00
100
AcDbText
  0
LINE
  5
1768D
330
125AA
100
AcDbEntity
  8
SUNPOU
  6
ByBlock
100
AcDbLine
 10
12589.12750789964
 20
6886.993182432327
 30
0.0
 11
12589.12750789964
 21
6875.743182432326
 31
0.0
  0
LINE
  5
1768F
330
125AA
100
AcDbEntity
  8
SUNPOU
  6
ByBlock
100
AcDbLine
 10
12589.12750789964
 20
6509.493182432326
 30
0.0
 11
12589.12750789964
 21
6520.743182432326
 31
0.0
  0
TEXT
  5
17690
330
125AA
100
AcDbEntity
  8
SUNPOU
100
AcDbText
 10
12334.12750789964
 20
9159.6717538609
 30
0.0
 40
90.0
  1
200
 50
90.0
 41
0.6666666666666666
  7
00
100
AcDbText
  0
LINE
  5
17692
330
125AA
100
AcDbEntity
  8
SUNPOU
  6
ByBlock
100
AcDbLine
 10
12379.12750789964
 20
9096.993182432326
 30
0.0
 11
12379.12750789964
 21
9085.743182432326
 31
0.0
  0
LINE
  5
17694
330
125AA
100
AcDbEntity
  8
SUNPOU
  6
ByBlock
100
AcDbLine
 10
12379.12750789964
 20
8919.493182432324
 30
0.0
 11
12379.12750789964
 21
8930.743182432324
 31
0.0
  0
TEXT
  5
17695
330
125AA
100
AcDbEntity
  8
SUNPOU
100
AcDbText
 10
12334.12750789964
 20
8485.386039575185
 30
0.0
 40
90.0
  1
200
 50
90.0
 41
0.6666666666666666
  7
00
100
AcDbText
  0
LINE
  5
17697
330
125AA
100
AcDbEntity
  8
SUNPOU
  6
ByBlock
100
AcDbLine
 10
12379.12750789964
 20
8719.493182432325
 30
0.0
 11
12379.12750789964
 21
8730.743182432325
 31
0.0
  0
LINE
  5
17699
330
125AA
100
AcDbEntity
  8
SUNPOU
  6
ByBlock
100
AcDbLine
 10
12379.12750789964
 20
8896.993182432325
 30
0.0
 11
12379.12750789964
 21
8885.743182432326
 31
0.0
  0
TEXT
  5
1769A
330
125AA
100
AcDbEntity
  8
SUNPOU
100
AcDbText
 10
9774.12750789964
 20
6812.528896718042
 30
0.0
 40
90.0
  1
800
 50
90.0
 41
0.6666666666666666
  7
00
100
AcDbText
  0
LINE
  5
1769C
330
125AA
100
AcDbEntity
  8
SUNPOU
  6
ByBlock
100
AcDbLine
 10
9819.127507899642
 20
6509.493182432326
 30
0.0
 11
9819.127507899642
 21
6520.743182432326
 31
0.0
  0
LINE
  5
1769E
330
125AA
100
AcDbEntity
  8
SUNPOU
  6
ByBlock
100
AcDbLine
 10
9819.127507899642
 20
7286.993182432327
 30
0.0
 11
9819.127507899642
 21
7275.743182432326
 31
0.0
  0
ARC
  5
1769F
330
125AA
100
AcDbEntity
  8
SUNPOU
  6
ByBlock
100
AcDbCircle
 10
7719.127507899639
 20
9408.243182432325
 30
0.0
 40
5.625
100
AcDbArc
 50
0.0
 51
180.0
  0
ARC
  5
176A0
330
125AA
100
AcDbEntity
  8
SUNPOU
  6
ByBlock
100
AcDbCircle
 10
7719.127507899639
 20
9408.243182432325
 30
0.0
 40
5.625
100
AcDbArc
 50
180.0
 51
0.0
  0
ARC
  5
176A1
330
125AA
100
AcDbEntity
  8
SUNPOU
  6
ByBlock
100
AcDbCircle
 10
9119.127507899639
 20
9408.243182432325
 30
0.0
 40
5.625
100
AcDbArc
 50
180.0
 51
0.0
  0
ARC
  5
176A2
330
125AA
100
AcDbEntity
  8
SUNPOU
  6
ByBlock
100
AcDbCircle
 10
9119.127507899639
 20
9408.243182432325
 30
0.0
 40
5.625
100
AcDbArc
 50
0.0
 51
180.0
  0
TEXT
  5
176A3
330
125AA
100
AcDbEntity
  8
SUNPOU
100
AcDbText
 10
7955.413222185355
 20
9663.243182432324
 30
0.0
 40
90.0
  1
L = 2460 x N + 800
 41
0.6666666666666666
  7
00
100
AcDbText
  0
LINE
  5
176A5
330
125AA
100
AcDbEntity
  8
SUNPOU
  6
ByBlock
100
AcDbLine
 10
11967.87750789964
 20
9618.243182432324
 30
0.0
 11
11956.62750789964
 21
9618.243182432324
 31
0.0
  0
LINE
  5
176A7
330
125AA
100
AcDbEntity
  8
SUNPOU
  6
ByBlock
100
AcDbLine
 10
4870.377507899639
 20
9618.243182432324
 30
0.0
 11
4881.627507899639
 21
9618.243182432324
 31
0.0
  0
TEXT
  5
176A8
330
125AA
100
AcDbEntity
  8
SUNPOU
100
AcDbText
 10
6374.841793613924
 20
9453.243182432325
 30
0.0
 40
90.0
  1
2460
 41
0.6666666666666666
  7
00
100
AcDbText
  0
LINE
  5
176AA
330
125AA
100
AcDbEntity
  8
SUNPOU
  6
ByBlock
100
AcDbLine
 10
5270.377507899638
 20
9408.243182432325
 30
0.0
 11
5281.627507899639
 21
9408.243182432325
 31
0.0
  0
LINE
  5
176AC
330
125AA
100
AcDbEntity
  8
SUNPOU
  6
ByBlock
100
AcDbLine
 10
7707.877507899638
 20
9408.243182432325
 30
0.0
 11
7696.627507899639
 21
9408.243182432325
 31
0.0
  0
TEXT
  5
176AD
330
125AA
100
AcDbEntity
  8
SUNPOU
100
AcDbText
 10
10234.84179361392
 20
9453.243182432325
 30
0.0
 40
90.0
  1
2460
 41
0.6666666666666666
  7
00
100
AcDbText
  0
LINE
  5
176AF
330
125AA
100
AcDbEntity
  8
SUNPOU
  6
ByBlock
100
AcDbLine
 10
9130.377507899639
 20
9408.243182432325
 30
0.0
 11
9141.62750789964
 21
9408.243182432325
 31
0.0
  0
LINE
  5
176B1
330
125AA
100
AcDbEntity
  8
SUNPOU
  6
ByBlock
100
AcDbLine
 10
11567.87750789964
 20
9408.243182432325
 30
0.0
 11
11556.62750789964
 21
9408.243182432325
 31
0.0
  0
TEXT
  5
176B2
330
125AA
100
AcDbEntity
  8
SUNPOU
100
AcDbText
 10
4973.413222185353
 20
9453.243182432325
 30
0.0
 40
90.0
  1
400
 41
0.6666666666666666
  7
00
100
AcDbText
  0
LINE
  5
176B4
330
125AA
100
AcDbEntity
  8
SUNPOU
  6
ByBlock
100
AcDbLine
 10
4870.377507899639
 20
9408.243182432325
 30
0.0
 11
4881.627507899639
 21
9408.243182432325
 31
0.0
  0
LINE
  5
176B6
330
125AA
100
AcDbEntity
  8
SUNPOU
  6
ByBlock
100
AcDbLine
 10
5247.877507899638
 20
9408.243182432325
 30
0.0
 11
5236.627507899639
 21
9408.243182432325
 31
0.0
  0
TEXT
  5
176B7
330
125AA
100
AcDbEntity
  8
SUNPOU
100
AcDbText
 10
11693.41322218535
 20
9453.243182432325
 30
0.0
 40
90.0
  1
400
 41
0.6666666666666666
  7
00
100
AcDbText
  0
LINE
  5
176B9
330
125AA
100
AcDbEntity
  8
SUNPOU
  6
ByBlock
100
AcDbLine
 10
11967.87750789964
 20
9408.243182432325
 30
0.0
 11
11956.62750789964
 21
9408.243182432325
 31
0.0
  0
LINE
  5
176BB
330
125AA
100
AcDbEntity
  8
SUNPOU
  6
ByBlock
100
AcDbLine
 10
11590.37750789964
 20
9408.243182432325
 30
0.0
 11
11601.62750789964
 21
9408.243182432325
 31
0.0
  0
TEXT
  5
176BC
330
125AA
100
AcDbEntity
  8
SUNPOU
100
AcDbText
 10
6974.127507899638
 20
8622.528896718042
 30
0.0
 40
90.0
  1
800
 50
90.0
 41
0.6666666666666666
  7
00
100
AcDbText
  0
LINE
  5
176BE
330
125AA
100
AcDbEntity
  8
SUNPOU
  6
ByBlock
100
AcDbLine
 10
7019.127507899638
 20
8319.493182432326
 30
0.0
 11
7019.127507899638
 21
8330.743182432327
 31
0.0
  0
LINE
  5
176C0
330
125AA
100
AcDbEntity
  8
SUNPOU
  6
ByBlock
100
AcDbLine
 10
7019.127507899638
 20
9096.993182432326
 30
0.0
 11
7019.127507899638
 21
9085.743182432327
 31
0.0
  0
TEXT
  5
176C1
330
125AA
100
AcDbEntity
  8
SUNPOU
100
AcDbText
 10
7633.413222185353
 20
8053.243182432327
 30
0.0
 40
90.0
  1
800
 41
0.6666666666666666
  7
00
100
AcDbText
  0
LINE
  5
176C3
330
125AA
100
AcDbEntity
  8
SUNPOU
  6
ByBlock
100
AcDbLine
 10
8107.877507899639
 20
8008.243182432327
 30
0.0
 11
8096.627507899638
 21
8008.243182432327
 31
0.0
  0
LINE
  5
176C5
330
125AA
100
AcDbEntity
  8
SUNPOU
  6
ByBlock
100
AcDbLine
 10
7330.37750789964
 20
8008.243182432327
 30
0.0
 11
7341.627507899639
 21
8008.243182432327
 31
0.0
  0
TEXT
  5
176C6
330
125AA
100
AcDbEntity
  8
SUNPOU
100
AcDbText
 10
9033.413222185352
 20
7643.243182432327
 30
0.0
 40
90.0
  1
800
 41
0.6666666666666666
  7
00
100
AcDbText
  0
LINE
  5
176C8
330
125AA
100
AcDbEntity
  8
SUNPOU
  6
ByBlock
100
AcDbLine
 10
9507.877507899639
 20
7598.243182432327
 30
0.0
 11
9496.627507899638
 21
7598.243182432327
 31
0.0
  0
LINE
  5
176CA
330
125AA
100
AcDbEntity
  8
SUNPOU
  6
ByBlock
100
AcDbLine
 10
8730.377507899639
 20
7598.243182432327
 30
0.0
 11
8741.627507899639
 21
7598.243182432327
 31
0.0
  0
ARC
  5
176CB
330
125AA
100
AcDbEntity
  8
SUNPOU
  6
ByBlock
100
AcDbCircle
 10
4249.856483595691
 20
4556.963733520728
 30
0.0
 40
5.625
100
AcDbArc
 50
0.0
 51
180.0
  0
ARC
  5
176CC
330
125AA
100
AcDbEntity
  8
SUNPOU
  6
ByBlock
100
AcDbCircle
 10
4249.856483595691
 20
4556.963733520728
 30
0.0
 40
5.625
100
AcDbArc
 50
180.0
 51
0.0
  0
ARC
  5
176CD
330
125AA
100
AcDbEntity
  8
SUNPOU
  6
ByBlock
100
AcDbCircle
 10
4889.856483595693
 20
4556.963733520728
 30
0.0
 40
5.625
100
AcDbArc
 50
180.0
 51
0.0
  0
ARC
  5
176CE
330
125AA
100
AcDbEntity
  8
SUNPOU
  6
ByBlock
100
AcDbCircle
 10
4889.856483595693
 20
4556.963733520728
 30
0.0
 40
5.625
100
AcDbArc
 50
0.0
 51
180.0
  0
ARC
  5
176CF
330
125AA
100
AcDbEntity
  8
SUNPOU
  6
ByBlock
100
AcDbCircle
 10
6818.18758900464
 20
3145.963733520729
 30
0.0
 40
5.625
100
AcDbArc
 50
90.0
 51
270.0
  0
ARC
  5
176D0
330
125AA
100
AcDbEntity
  8
SUNPOU
  6
ByBlock
100
AcDbCircle
 10
6818.18758900464
 20
3145.963733520729
 30
0.0
 40
5.625
100
AcDbArc
 50
270.0
 51
90.0
  0
ARC
  5
176D1
330
125AA
100
AcDbEntity
  8
SUNPOU
  6
ByBlock
100
AcDbCircle
 10
6818.18758900464
 20
3753.963733520729
 30
0.0
 40
5.625
100
AcDbArc
 50
270.0
 51
90.0
  0
ARC
  5
176D2
330
125AA
100
AcDbEntity
  8
SUNPOU
  6
ByBlock
100
AcDbCircle
 10
6818.18758900464
 20
3753.963733520729
 30
0.0
 40
5.625
100
AcDbArc
 50
90.0
 51
270.0
  0
ARC
  5
176D3
330
125AA
100
AcDbEntity
  8
SUNPOU
  6
ByBlock
100
AcDbCircle
 10
6818.18758900464
 20
2985.963733520732
 30
0.0
 40
5.625
100
AcDbArc
 50
90.0
 51
270.0
  0
ARC
  5
176D4
330
125AA
100
AcDbEntity
  8
SUNPOU
  6
ByBlock
100
AcDbCircle
 10
6818.18758900464
 20
2985.963733520732
 30
0.0
 40
5.625
100
AcDbArc
 50
270.0
 51
90.0
  0
ARC
  5
176D5
330
125AA
100
AcDbEntity
  8
SUNPOU
  6
ByBlock
100
AcDbCircle
 10
6818.18758900464
 20
3145.963733520728
 30
0.0
 40
5.625
100
AcDbArc
 50
270.0
 51
90.0
  0
ARC
  5
176D6
330
125AA
100
AcDbEntity
  8
SUNPOU
  6
ByBlock
100
AcDbCircle
 10
6818.18758900464
 20
3145.963733520728
 30
0.0
 40
5.625
100
AcDbArc
 50
90.0
 51
270.0
  0
ARC
  5
176D7
330
125AA
100
AcDbEntity
  8
SUNPOU
  6
ByBlock
100
AcDbCircle
 10
7024.43758900464
 20
2985.963733520732
 30
0.0
 40
5.625
100
AcDbArc
 50
90.0
 51
270.0
  0
ARC
  5
176D8
330
125AA
100
AcDbEntity
  8
SUNPOU
  6
ByBlock
100
AcDbCircle
 10
7024.43758900464
 20
2985.963733520732
 30
0.0
 40
5.625
100
AcDbArc
 50
270.0
 51
90.0
  0
ARC
  5
176D9
330
125AA
100
AcDbEntity
  8
SUNPOU
  6
ByBlock
100
AcDbCircle
 10
7024.43758900464
 20
3753.963733520729
 30
0.0
 40
5.625
100
AcDbArc
 50
270.0
 51
90.0
  0
ARC
  5
176DA
330
125AA
100
AcDbEntity
  8
SUNPOU
  6
ByBlock
100
AcDbCircle
 10
7024.43758900464
 20
3753.963733520729
 30
0.0
 40
5.625
100
AcDbArc
 50
90.0
 51
270.0
  0
ARC
  5
176DB
330
125AA
100
AcDbEntity
  8
SUNPOU
  6
ByBlock
100
AcDbCircle
 10
5529.856483595692
 20
2605.963733520728
 30
0.0
 40
5.625
100
AcDbArc
 50
180.0
 51
0.0
  0
ARC
  5
176DC
330
125AA
100
AcDbEntity
  8
SUNPOU
  6
ByBlock
100
AcDbCircle
 10
5529.856483595692
 20
2605.963733520728
 30
0.0
 40
5.625
100
AcDbArc
 50
0.0
 51
180.0
  0
ARC
  5
176DD
330
125AA
100
AcDbEntity
  8
SUNPOU
  6
ByBlock
100
AcDbCircle
 10
4249.856483595691
 20
2605.963733520728
 30
0.0
 40
5.625
100
AcDbArc
 50
0.0
 51
180.0
  0
ARC
  5
176DE
330
125AA
100
AcDbEntity
  8
SUNPOU
  6
ByBlock
100
AcDbCircle
 10
4249.856483595691
 20
2605.963733520728
 30
0.0
 40
5.625
100
AcDbArc
 50
180.0
 51
0.0
  0
ARC
  5
176DF
330
125AA
100
AcDbEntity
  8
SUNPOU
  6
ByBlock
100
AcDbCircle
 10
5689.856483595693
 20
2395.963733520728
 30
0.0
 40
5.625
100
AcDbArc
 50
180.0
 51
0.0
  0
ARC
  5
176E0
330
125AA
100
AcDbEntity
  8
SUNPOU
  6
ByBlock
100
AcDbCircle
 10
5689.856483595693
 20
2395.963733520728
 30
0.0
 40
5.625
100
AcDbArc
 50
0.0
 51
180.0
  0
ARC
  5
176E1
330
125AA
100
AcDbEntity
  8
SUNPOU
  6
ByBlock
100
AcDbCircle
 10
4089.856483595691
 20
2395.963733520728
 30
0.0
 40
5.625
100
AcDbArc
 50
0.0
 51
180.0
  0
ARC
  5
176E2
330
125AA
100
AcDbEntity
  8
SUNPOU
  6
ByBlock
100
AcDbCircle
 10
4089.856483595691
 20
2395.963733520728
 30
0.0
 40
5.625
100
AcDbArc
 50
180.0
 51
0.0
  0
ARC
  5
176E3
330
125AA
100
AcDbEntity
  8
SUNPOU
  6
ByBlock
100
AcDbCircle
 10
12799.12750789964
 20
6498.243182432327
 30
0.0
 40
5.625
100
AcDbArc
 50
90.0
 51
270.0
  0
ARC
  5
176E4
330
125AA
100
AcDbEntity
  8
SUNPOU
  6
ByBlock
100
AcDbCircle
 10
12799.12750789964
 20
6498.243182432327
 30
0.0
 40
5.625
100
AcDbArc
 50
270.0
 51
90.0
  0
ARC
  5
176E5
330
125AA
100
AcDbEntity
  8
SUNPOU
  6
ByBlock
100
AcDbCircle
 10
12799.12750789964
 20
9108.243182432325
 30
0.0
 40
5.625
100
AcDbArc
 50
270.0
 51
90.0
  0
ARC
  5
176E6
330
125AA
100
AcDbEntity
  8
SUNPOU
  6
ByBlock
100
AcDbCircle
 10
12799.12750789964
 20
9108.243182432325
 30
0.0
 40
5.625
100
AcDbArc
 50
90.0
 51
270.0
  0
ARC
  5
176E7
330
125AA
100
AcDbEntity
  8
SUNPOU
  6
ByBlock
100
AcDbCircle
 10
12589.12750789964
 20
9108.243182432325
 30
0.0
 40
5.625
100
AcDbArc
 50
270.0
 51
90.0
  0
ARC
  5
176E8
330
125AA
100
AcDbEntity
  8
SUNPOU
  6
ByBlock
100
AcDbCircle
 10
12589.12750789964
 20
9108.243182432325
 30
0.0
 40
5.625
100
AcDbArc
 50
90.0
 51
270.0
  0
ARC
  5
176E9
330
125AA
100
AcDbEntity
  8
SUNPOU
  6
ByBlock
100
AcDbCircle
 10
12589.12750789964
 20
8708.243182432324
 30
0.0
 40
5.625
100
AcDbArc
 50
90.0
 51
270.0
  0
ARC
  5
176EA
330
125AA
100
AcDbEntity
  8
SUNPOU
  6
ByBlock
100
AcDbCircle
 10
12589.12750789964
 20
8708.243182432324
 30
0.0
 40
5.625
100
AcDbArc
 50
270.0
 51
90.0
  0
ARC
  5
176EB
330
125AA
100
AcDbEntity
  8
SUNPOU
  6
ByBlock
100
AcDbCircle
 10
12589.12750789964
 20
8708.243182432324
 30
0.0
 40
5.625
100
AcDbArc
 50
270.0
 51
90.0
  0
ARC
  5
176EC
330
125AA
100
AcDbEntity
  8
SUNPOU
  6
ByBlock
100
AcDbCircle
 10
12589.12750789964
 20
8708.243182432324
 30
0.0
 40
5.625
100
AcDbArc
 50
90.0
 51
270.0
  0
ARC
  5
176ED
330
125AA
100
AcDbEntity
  8
SUNPOU
  6
ByBlock
100
AcDbCircle
 10
12589.12750789964
 20
6898.243182432327
 30
0.0
 40
5.625
100
AcDbArc
 50
90.0
 51
270.0
  0
ARC
  5
176EE
330
125AA
100
AcDbEntity
  8
SUNPOU
  6
ByBlock
100
AcDbCircle
 10
12589.12750789964
 20
6898.243182432327
 30
0.0
 40
5.625
100
AcDbArc
 50
270.0
 51
90.0
  0
ARC
  5
176EF
330
125AA
100
AcDbEntity
  8
SUNPOU
  6
ByBlock
100
AcDbCircle
 10
12589.12750789964
 20
6898.243182432327
 30
0.0
 40
5.625
100
AcDbArc
 50
270.0
 51
90.0
  0
ARC
  5
176F0
330
125AA
100
AcDbEntity
  8
SUNPOU
  6
ByBlock
100
AcDbCircle
 10
12589.12750789964
 20
6898.243182432327
 30
0.0
 40
5.625
100
AcDbArc
 50
90.0
 51
270.0
  0
ARC
  5
176F1
330
125AA
100
AcDbEntity
  8
SUNPOU
  6
ByBlock
100
AcDbCircle
 10
12589.12750789964
 20
6498.243182432327
 30
0.0
 40
5.625
100
AcDbArc
 50
90.0
 51
270.0
  0
ARC
  5
176F2
330
125AA
100
AcDbEntity
  8
SUNPOU
  6
ByBlock
100
AcDbCircle
 10
12589.12750789964
 20
6498.243182432327
 30
0.0
 40
5.625
100
AcDbArc
 50
270.0
 51
90.0
  0
ARC
  5
176F3
330
125AA
100
AcDbEntity
  8
SUNPOU
  6
ByBlock
100
AcDbCircle
 10
12379.12750789964
 20
9108.243182432325
 30
0.0
 40
5.625
100
AcDbArc
 50
270.0
 51
90.0
  0
ARC
  5
176F4
330
125AA
100
AcDbEntity
  8
SUNPOU
  6
ByBlock
100
AcDbCircle
 10
12379.12750789964
 20
9108.243182432325
 30
0.0
 40
5.625
100
AcDbArc
 50
90.0
 51
270.0
  0
ARC
  5
176F5
330
125AA
100
AcDbEntity
  8
SUNPOU
  6
ByBlock
100
AcDbCircle
 10
12379.12750789964
 20
8908.243182432325
 30
0.0
 40
5.625
100
AcDbArc
 50
90.0
 51
270.0
  0
ARC
  5
176F6
330
125AA
100
AcDbEntity
  8
SUNPOU
  6
ByBlock
100
AcDbCircle
 10
12379.12750789964
 20
8908.243182432325
 30
0.0
 40
5.625
100
AcDbArc
 50
270.0
 51
90.0
  0
ARC
  5
176F7
330
125AA
100
AcDbEntity
  8
SUNPOU
  6
ByBlock
100
AcDbCircle
 10
12379.12750789964
 20
8708.243182432324
 30
0.0
 40
5.625
100
AcDbArc
 50
90.0
 51
270.0
  0
ARC
  5
176F8
330
125AA
100
AcDbEntity
  8
SUNPOU
  6
ByBlock
100
AcDbCircle
 10
12379.12750789964
 20
8708.243182432324
 30
0.0
 40
5.625
100
AcDbArc
 50
270.0
 51
90.0
  0
ARC
  5
176F9
330
125AA
100
AcDbEntity
  8
SUNPOU
  6
ByBlock
100
AcDbCircle
 10
12379.12750789964
 20
8908.243182432325
 30
0.0
 40
5.625
100
AcDbArc
 50
270.0
 51
90.0
  0
ARC
  5
176FA
330
125AA
100
AcDbEntity
  8
SUNPOU
  6
ByBlock
100
AcDbCircle
 10
12379.12750789964
 20
8908.243182432325
 30
0.0
 40
5.625
100
AcDbArc
 50
90.0
 51
270.0
  0
ARC
  5
176FB
330
125AA
100
AcDbEntity
  8
SUNPOU
  6
ByBlock
100
AcDbCircle
 10
9819.127507899642
 20
6498.243182432327
 30
0.0
 40
5.625
100
AcDbArc
 50
90.0
 51
270.0
  0
ARC
  5
176FC
330
125AA
100
AcDbEntity
  8
SUNPOU
  6
ByBlock
100
AcDbCircle
 10
9819.127507899642
 20
6498.243182432327
 30
0.0
 40
5.625
100
AcDbArc
 50
270.0
 51
90.0
  0
ARC
  5
176FD
330
125AA
100
AcDbEntity
  8
SUNPOU
  6
ByBlock
100
AcDbCircle
 10
9819.127507899642
 20
7298.243182432327
 30
0.0
 40
5.625
100
AcDbArc
 50
270.0
 51
90.0
  0
ARC
  5
176FE
330
125AA
100
AcDbEntity
  8
SUNPOU
  6
ByBlock
100
AcDbCircle
 10
9819.127507899642
 20
7298.243182432327
 30
0.0
 40
5.625
100
AcDbArc
 50
90.0
 51
270.0
  0
ARC
  5
176FF
330
125AA
100
AcDbEntity
  8
SUNPOU
  6
ByBlock
100
AcDbCircle
 10
11979.12750789964
 20
9618.243182432324
 30
0.0
 40
5.625
100
AcDbArc
 50
180.0
 51
0.0
  0
ARC
  5
17700
330
125AA
100
AcDbEntity
  8
SUNPOU
  6
ByBlock
100
AcDbCircle
 10
11979.12750789964
 20
9618.243182432324
 30
0.0
 40
5.625
100
AcDbArc
 50
0.0
 51
180.0
  0
ARC
  5
17701
330
125AA
100
AcDbEntity
  8
SUNPOU
  6
ByBlock
100
AcDbCircle
 10
4859.127507899639
 20
9618.243182432324
 30
0.0
 40
5.625
100
AcDbArc
 50
0.0
 51
180.0
  0
ARC
  5
17702
330
125AA
100
AcDbEntity
  8
SUNPOU
  6
ByBlock
100
AcDbCircle
 10
4859.127507899639
 20
9618.243182432324
 30
0.0
 40
5.625
100
AcDbArc
 50
180.0
 51
0.0
  0
ARC
  5
17703
330
125AA
100
AcDbEntity
  8
SUNPOU
  6
ByBlock
100
AcDbCircle
 10
5259.127507899639
 20
9408.243182432325
 30
0.0
 40
5.625
100
AcDbArc
 50
0.0
 51
180.0
  0
ARC
  5
17704
330
125AA
100
AcDbEntity
  8
SUNPOU
  6
ByBlock
100
AcDbCircle
 10
5259.127507899639
 20
9408.243182432325
 30
0.0
 40
5.625
100
AcDbArc
 50
180.0
 51
0.0
  0
ARC
  5
17705
330
125AA
100
AcDbEntity
  8
SUNPOU
  6
ByBlock
100
AcDbCircle
 10
7719.127507899639
 20
9408.243182432325
 30
0.0
 40
5.625
100
AcDbArc
 50
180.0
 51
0.0
  0
ARC
  5
17706
330
125AA
100
AcDbEntity
  8
SUNPOU
  6
ByBlock
100
AcDbCircle
 10
7719.127507899639
 20
9408.243182432325
 30
0.0
 40
5.625
100
AcDbArc
 50
0.0
 51
180.0
  0
ARC
  5
17707
330
125AA
100
AcDbEntity
  8
SUNPOU
  6
ByBlock
100
AcDbCircle
 10
9119.127507899639
 20
9408.243182432325
 30
0.0
 40
5.625
100
AcDbArc
 50
0.0
 51
180.0
  0
ARC
  5
17708
330
125AA
100
AcDbEntity
  8
SUNPOU
  6
ByBlock
100
AcDbCircle
 10
9119.127507899639
 20
9408.243182432325
 30
0.0
 40
5.625
100
AcDbArc
 50
180.0
 51
0.0
  0
ARC
  5
17709
330
125AA
100
AcDbEntity
  8
SUNPOU
  6
ByBlock
100
AcDbCircle
 10
11579.12750789964
 20
9408.243182432325
 30
0.0
 40
5.625
100
AcDbArc
 50
180.0
 51
0.0
  0
ARC
  5
1770A
330
125AA
100
AcDbEntity
  8
SUNPOU
  6
ByBlock
100
AcDbCircle
 10
11579.12750789964
 20
9408.243182432325
 30
0.0
 40
5.625
100
AcDbArc
 50
0.0
 51
180.0
  0
ARC
  5
1770B
330
125AA
100
AcDbEntity
  8
SUNPOU
  6
ByBlock
100
AcDbCircle
 10
4859.127507899639
 20
9408.243182432325
 30
0.0
 40
5.625
100
AcDbArc
 50
0.0
 51
180.0
  0
ARC
  5
1770C
330
125AA
100
AcDbEntity
  8
SUNPOU
  6
ByBlock
100
AcDbCircle
 10
4859.127507899639
 20
9408.243182432325
 30
0.0
 40
5.625
100
AcDbArc
 50
180.0
 51
0.0
  0
ARC
  5
1770D
330
125AA
100
AcDbEntity
  8
SUNPOU
  6
ByBlock
100
AcDbCircle
 10
5259.127507899639
 20
9408.243182432325
 30
0.0
 40
5.625
100
AcDbArc
 50
180.0
 51
0.0
  0
ARC
  5
1770E
330
125AA
100
AcDbEntity
  8
SUNPOU
  6
ByBlock
100
AcDbCircle
 10
5259.127507899639
 20
9408.243182432325
 30
0.0
 40
5.625
100
AcDbArc
 50
0.0
 51
180.0
  0
ARC
  5
1770F
330
125AA
100
AcDbEntity
  8
SUNPOU
  6
ByBlock
100
AcDbCircle
 10
11979.12750789964
 20
9408.243182432325
 30
0.0
 40
5.625
100
AcDbArc
 50
180.0
 51
0.0
  0
ARC
  5
17710
330
125AA
100
AcDbEntity
  8
SUNPOU
  6
ByBlock
100
AcDbCircle
 10
11979.12750789964
 20
9408.243182432325
 30
0.0
 40
5.625
100
AcDbArc
 50
0.0
 51
180.0
  0
ARC
  5
17711
330
125AA
100
AcDbEntity
  8
SUNPOU
  6
ByBlock
100
AcDbCircle
 10
11579.12750789964
 20
9408.243182432325
 30
0.0
 40
5.625
100
AcDbArc
 50
0.0
 51
180.0
  0
ARC
  5
17712
330
125AA
100
AcDbEntity
  8
SUNPOU
  6
ByBlock
100
AcDbCircle
 10
11579.12750789964
 20
9408.243182432325
 30
0.0
 40
5.625
100
AcDbArc
 50
180.0
 51
0.0
  0
ARC
  5
17713
330
125AA
100
AcDbEntity
  8
SUNPOU
  6
ByBlock
100
AcDbCircle
 10
7019.127507899638
 20
8308.243182432326
 30
0.0
 40
5.625
100
AcDbArc
 50
90.0
 51
270.0
  0
ARC
  5
17714
330
125AA
100
AcDbEntity
  8
SUNPOU
  6
ByBlock
100
AcDbCircle
 10
7019.127507899638
 20
8308.243182432326
 30
0.0
 40
5.625
100
AcDbArc
 50
270.0
 51
90.0
  0
ARC
  5
17715
330
125AA
100
AcDbEntity
  8
SUNPOU
  6
ByBlock
100
AcDbCircle
 10
7019.127507899638
 20
9108.243182432326
 30
0.0
 40
5.625
100
AcDbArc
 50
270.0
 51
90.0
  0
ARC
  5
17716
330
125AA
100
AcDbEntity
  8
SUNPOU
  6
ByBlock
100
AcDbCircle
 10
7019.127507899638
 20
9108.243182432326
 30
0.0
 40
5.625
100
AcDbArc
 50
90.0
 51
270.0
  0
ARC
  5
17717
330
125AA
100
AcDbEntity
  8
SUNPOU
  6
ByBlock
100
AcDbCircle
 10
8119.127507899639
 20
8008.243182432327
 30
0.0
 40
5.625
100
AcDbArc
 50
180.0
 51
0.0
  0
ARC
  5
17718
330
125AA
100
AcDbEntity
  8
SUNPOU
  6
ByBlock
100
AcDbCircle
 10
8119.127507899639
 20
8008.243182432327
 30
0.0
 40
5.625
100
AcDbArc
 50
0.0
 51
180.0
  0
ARC
  5
17719
330
125AA
100
AcDbEntity
  8
SUNPOU
  6
ByBlock
100
AcDbCircle
 10
7319.127507899638
 20
8008.243182432327
 30
0.0
 40
5.625
100
AcDbArc
 50
0.0
 51
180.0
  0
ARC
  5
1771A
330
125AA
100
AcDbEntity
  8
SUNPOU
  6
ByBlock
100
AcDbCircle
 10
7319.127507899638
 20
8008.243182432327
 30
0.0
 40
5.625
100
AcDbArc
 50
180.0
 51
0.0
  0
ARC
  5
1771B
330
125AA
100
AcDbEntity
  8
SUNPOU
  6
ByBlock
100
AcDbCircle
 10
9519.127507899638
 20
7598.243182432327
 30
0.0
 40
5.625
100
AcDbArc
 50
180.0
 51
0.0
  0
ARC
  5
1771C
330
125AA
100
AcDbEntity
  8
SUNPOU
  6
ByBlock
100
AcDbCircle
 10
9519.127507899638
 20
7598.243182432327
 30
0.0
 40
5.625
100
AcDbArc
 50
0.0
 51
180.0
  0
ARC
  5
1771D
330
125AA
100
AcDbEntity
  8
SUNPOU
  6
ByBlock
100
AcDbCircle
 10
8719.127507899639
 20
7598.243182432327
 30
0.0
 40
5.625
100
AcDbArc
 50
0.0
 51
180.0
  0
ARC
  5
1771E
330
125AA
100
AcDbEntity
  8
SUNPOU
  6
ByBlock
100
AcDbCircle
 10
8719.127507899639
 20
7598.243182432327
 30
0.0
 40
5.625
100
AcDbArc
 50
180.0
 51
0.0
  0
ARC
  5
17722
330
125AA
100
AcDbEntity
  8
HIKIDASHI
100
AcDbCircle
 10
4217.388914848876
 20
4214.34846204352
 30
0.0
 40
74.66417910446155
100
AcDbArc
 50
164.8596129851118
 51
237.5045002941574
  0
ARC
  5
17723
330
125AA
100
AcDbEntity
  8
HIKIDASHI
100
AcDbCircle
 10
4153.965120802623
 20
4231.50948552799
 30
0.0
 40
8.959701492535389
100
AcDbArc
 50
15.14038701506339
 51
164.8596129849366
  0
LINE
  5
1772A
330
125AA
100
AcDbEntity
  8
HIKIDASHI
100
AcDbLine
 10
4627.888538436752
 20
3319.245765823484
 30
0.0
 11
4186.816957180232
 21
4083.204154334509
 31
0.0
1001
ACAD
1000
DSTYLE
1002
{
1070
   147
1040
1.0
1070
    77
1070
     0
1002
}
  0
LINE
  5
1772B
330
125AA
100
AcDbEntity
  8
HIKIDASHI
100
AcDbLine
 10
4616.341533052959
 20
3312.579099156817
 30
0.0
 11
4667.888538436752
 21
3249.963733520729
 31
0.0
  0
LINE
  5
1772C
330
125AA
100
AcDbEntity
  8
HIKIDASHI
100
AcDbLine
 10
4667.888538436752
 20
3249.963733520729
 30
0.0
 11
4639.435543820545
 21
3325.912432490151
 31
0.0
  0
SOLID
  5
1772D
330
125AA
100
AcDbEntity
  8
HIKIDASHI
100
AcDbTrace
 10
4616.341533052959
 20
3312.579099156817
 30
0.0
 11
4639.435543820545
 21
3325.912432490151
 31
0.0
 12
4667.888538436752
 22
3249.963733520729
 32
0.0
 13
4667.888538436752
 23
3249.963733520729
 33
0.0
  0
LINE
  5
1772E
330
125AA
100
AcDbEntity
  8
HIKIDASHI
100
AcDbLine
 10
4639.435543820545
 20
3325.912432490151
 30
0.0
 11
4616.341533052959
 21
3312.579099156817
 31
0.0
  0
ARC
  5
1772F
330
125AA
100
AcDbEntity
  8
HIKIDASHI
100
AcDbCircle
 10
4091.720853292108
 20
4215.528589403109
 30
0.0
 40
74.66417910446081
100
AcDbArc
 50
301.7712278330701
 51
15.1403870149094
  0
LINE
  5
17730
330
125AA
100
AcDbEntity
  8
HIKIDASHI
100
AcDbLine
 10
5936.424512455827
 20
3642.477924325876
 30
0.0
 11
6196.483271007118
 21
4083.963733520728
 31
0.0
1001
ACAD
1000
DSTYLE
1002
{
1070
   147
1040
1.0
1070
    77
1070
     0
1070
   173
1070
     0
1070
   341
1005
125B0
1002
}
  0
ARC
  5
17731
330
125AA
100
AcDbEntity
  8
HIKIDASHI
  6
ByBlock
100
AcDbCircle
 10
5906.32019968622
 20
3551.966211169527
 30
0.0
 40
24.0
100
AcDbArc
 50
3.056949146300893
 51
115.9423296224593
  0
ARC
  5
17732
330
125AA
100
AcDbEntity
  8
HIKIDASHI
  6
ByBlock
100
AcDbCircle
 10
5885.321819467964
 20
3595.129482920051
 30
0.0
 40
24.0
100
AcDbArc
 50
183.0569491463009
 51
295.9423296224594
  0
LINE
  5
17733
330
125AA
100
AcDbEntity
  8
HIKIDASHI
  6
ByBlock
100
AcDbLine
 10
5895.821009577092
 20
3573.547847044789
 30
0.0
 11
5936.424512455836
 21
3642.477924325891
 31
0.0
  0
LINE
  5
17734
330
125AA
100
AcDbEntity
  8
HIKIDASHI
100
AcDbLine
 10
5719.385201492448
 20
3823.245765823486
 30
0.0
 11
5991.154346854814
 21
4293.963733520728
 31
0.0
1001
ACAD
1000
DSTYLE
1002
{
1070
   147
1040
1.0
1070
    77
1070
     0
1002
}
  0
LINE
  5
17735
330
125AA
100
AcDbEntity
  8
HIKIDASHI
100
AcDbLine
 10
5707.838196108656
 20
3829.912432490152
 30
0.0
 11
5679.385201492451
 21
3753.963733520729
 31
0.0
  0
LINE
  5
17736
330
125AA
100
AcDbEntity
  8
HIKIDASHI
100
AcDbLine
 10
5679.385201492451
 20
3753.963733520729
 30
0.0
 11
5730.932206876241
 21
3816.57909915682
 31
0.0
  0
SOLID
  5
17737
330
125AA
100
AcDbEntity
  8
HIKIDASHI
100
AcDbTrace
 10
5707.838196108656
 20
3829.912432490152
 30
0.0
 11
5730.932206876241
 21
3816.57909915682
 31
0.0
 12
5679.385201492451
 22
3753.963733520729
 32
0.0
 13
5679.385201492451
 23
3753.963733520729
 33
0.0
  0
LINE
  5
17738
330
125AA
100
AcDbEntity
  8
HIKIDASHI
100
AcDbLine
 10
5730.932206876241
 20
3816.57909915682
 30
0.0
 11
5707.838196108656
 21
3829.912432490152
 31
0.0
  0
LINE
  5
17739
330
125AA
100
AcDbEntity
  8
HIKIDASHI
100
AcDbLine
 10
4058.272423574408
 20
3024.462392359007
 30
0.0
 11
3864.689878611733
 21
2573.963733520729
 31
0.0
  0
LINE
  5
1773A
330
125AA
100
AcDbEntity
  8
HIKIDASHI
100
AcDbLine
 10
4070.522647101362
 20
3019.198382355459
 30
0.0
 11
4089.856483595691
 21
3097.963733520729
 31
0.0
  0
LINE
  5
1773B
330
125AA
100
AcDbEntity
  8
HIKIDASHI
100
AcDbLine
 10
4089.856483595691
 20
3097.963733520729
 30
0.0
 11
4046.022200047453
 21
3029.726402362554
 31
0.0
  0
SOLID
  5
1773C
330
125AA
100
AcDbEntity
  8
HIKIDASHI
100
AcDbTrace
 10
4070.522647101362
 20
3019.198382355459
 30
0.0
 11
4046.022200047453
 21
3029.726402362554
 31
0.0
 12
4089.856483595691
 22
3097.963733520729
 32
0.0
 13
4089.856483595691
 23
3097.963733520729
 33
0.0
  0
LINE
  5
1773D
330
125AA
100
AcDbEntity
  8
HIKIDASHI
100
AcDbLine
 10
4046.022200047453
 20
3029.726402362554
 30
0.0
 11
4070.522647101362
 21
3019.198382355459
 31
0.0
  0
LINE
  5
1773E
330
125AA
100
AcDbEntity
  8
HATCH
100
AcDbLine
 10
5353.544817397462
 20
2985.963733520729
 30
0.0
 11
5445.920860467789
 21
3145.963733520705
 31
0.0
  0
LINE
  5
1773F
330
125AA
100
AcDbEntity
  8
HATCH
100
AcDbLine
 10
5381.920860467798
 20
3145.963733520704
 30
0.0
 11
5413.920860467793
 21
3090.538107678512
 31
0.0
  0
LINE
  5
17740
330
125AA
100
AcDbEntity
  8
HATCH
100
AcDbLine
 10
5385.544817397457
 20
3041.389359362927
 30
0.0
 11
5417.544817397452
 21
2985.963733520729
 31
0.0
  0
LINE
  5
17741
330
125AA
100
AcDbEntity
  8
HATCH
100
AcDbLine
 10
5153.544817397462
 20
2985.963733520729
 30
0.0
 11
5245.920860467789
 21
3145.963733520705
 31
0.0
  0
LINE
  5
17742
330
125AA
100
AcDbEntity
  8
HATCH
100
AcDbLine
 10
5181.920860467798
 20
3145.963733520704
 30
0.0
 11
5213.920860467793
 21
3090.538107678512
 31
0.0
  0
LINE
  5
17743
330
125AA
100
AcDbEntity
  8
HATCH
100
AcDbLine
 10
5185.544817397457
 20
3041.389359362927
 30
0.0
 11
5217.544817397453
 21
2985.963733520729
 31
0.0
  0
LINE
  5
17744
330
125AA
100
AcDbEntity
  8
HATCH
100
AcDbLine
 10
4953.544817397462
 20
2985.963733520729
 30
0.0
 11
5045.920860467789
 21
3145.963733520705
 31
0.0
  0
LINE
  5
17745
330
125AA
100
AcDbEntity
  8
HATCH
100
AcDbLine
 10
4981.920860467798
 20
3145.963733520704
 30
0.0
 11
5013.920860467793
 21
3090.538107678512
 31
0.0
  0
LINE
  5
17746
330
125AA
100
AcDbEntity
  8
HATCH
100
AcDbLine
 10
4985.544817397457
 20
3041.389359362927
 30
0.0
 11
5017.544817397452
 21
2985.963733520729
 31
0.0
  0
LINE
  5
17747
330
125AA
100
AcDbEntity
  8
HATCH
100
AcDbLine
 10
4553.544817397462
 20
2985.963733520729
 30
0.0
 11
4645.920860467788
 21
3145.963733520705
 31
0.0
  0
LINE
  5
17748
330
125AA
100
AcDbEntity
  8
HATCH
100
AcDbLine
 10
4581.920860467798
 20
3145.963733520704
 30
0.0
 11
4613.920860467793
 21
3090.538107678512
 31
0.0
  0
LINE
  5
17749
330
125AA
100
AcDbEntity
  8
HATCH
100
AcDbLine
 10
4585.544817397457
 20
3041.389359362927
 30
0.0
 11
4617.544817397452
 21
2985.963733520729
 31
0.0
  0
LINE
  5
1774A
330
125AA
100
AcDbEntity
  8
HATCH
100
AcDbLine
 10
4353.544817397462
 20
2985.963733520729
 30
0.0
 11
4445.920860467789
 21
3145.963733520705
 31
0.0
  0
LINE
  5
1774B
330
125AA
100
AcDbEntity
  8
HATCH
100
AcDbLine
 10
4381.920860467798
 20
3145.963733520704
 30
0.0
 11
4413.920860467793
 21
3090.538107678512
 31
0.0
  0
LINE
  5
1774C
330
125AA
100
AcDbEntity
  8
HATCH
100
AcDbLine
 10
4385.544817397457
 20
3041.389359362927
 30
0.0
 11
4417.544817397452
 21
2985.963733520729
 31
0.0
  0
LINE
  5
1774D
330
125AA
100
AcDbEntity
  8
HATCH
100
AcDbLine
 10
4753.544817397462
 20
2985.963733520729
 30
0.0
 11
4845.920860467789
 21
3145.963733520705
 31
0.0
  0
LINE
  5
1774E
330
125AA
100
AcDbEntity
  8
HATCH
100
AcDbLine
 10
4781.920860467798
 20
3145.963733520704
 30
0.0
 11
4813.920860467793
 21
3090.538107678512
 31
0.0
  0
LINE
  5
1774F
330
125AA
100
AcDbEntity
  8
HATCH
100
AcDbLine
 10
4785.544817397457
 20
3041.389359362927
 30
0.0
 11
4817.544817397452
 21
2985.963733520729
 31
0.0
  0
LINE
  5
17750
330
125AA
100
AcDbEntity
  8
tekkin
100
AcDbLine
 10
4837.856483595691
 20
3249.963733520729
 30
0.0
 11
4609.856483595691
 21
3249.963733520729
 31
0.0
  0
LINE
  5
17751
330
125AA
100
AcDbEntity
  8
tekkin
100
AcDbLine
 10
4609.856483595691
 20
3249.963733520729
 30
0.0
 11
4609.856483595691
 21
3233.96373352073
 31
0.0
  0
LINE
  5
17752
330
125AA
100
AcDbEntity
  8
tekkin
100
AcDbLine
 10
4609.856483595691
 20
3233.96373352073
 30
0.0
 11
4837.856483595691
 21
3233.96373352073
 31
0.0
  0
LINE
  5
17753
330
125AA
100
AcDbEntity
  8
tekkin
100
AcDbLine
 10
4941.856483595691
 20
3233.96373352073
 30
0.0
 11
5169.856483595691
 21
3233.96373352073
 31
0.0
  0
LINE
  5
17754
330
125AA
100
AcDbEntity
  8
tekkin
100
AcDbLine
 10
5169.856483595691
 20
3233.96373352073
 30
0.0
 11
5169.856483595691
 21
3249.963733520729
 31
0.0
  0
LINE
  5
17755
330
125AA
100
AcDbEntity
  8
tekkin
100
AcDbLine
 10
5169.856483595691
 20
3249.963733520729
 30
0.0
 11
4941.856483595691
 21
3249.963733520729
 31
0.0
  0
LINE
  5
17756
330
125AA
100
AcDbEntity
  8
HATCH
100
AcDbLine
 10
5553.544817397463
 20
2985.96373352073
 30
0.0
 11
5645.920860467789
 21
3145.963733520706
 31
0.0
  0
LINE
  5
17757
330
125AA
100
AcDbEntity
  8
HATCH
100
AcDbLine
 10
5581.920860467799
 20
3145.963733520704
 30
0.0
 11
5613.920860467795
 21
3090.538107678512
 31
0.0
  0
LINE
  5
17758
330
125AA
100
AcDbEntity
  8
HATCH
100
AcDbLine
 10
5585.544817397458
 20
3041.389359362927
 30
0.0
 11
5617.544817397453
 21
2985.96373352073
 31
0.0
  0
LINE
  5
17759
330
125AA
100
AcDbEntity
  8
HATCH
100
AcDbLine
 10
4153.544817397462
 20
2985.963733520728
 30
0.0
 11
4245.92086046779
 21
3145.963733520704
 31
0.0
  0
LINE
  5
1775A
330
125AA
100
AcDbEntity
  8
HATCH
100
AcDbLine
 10
4181.920860467799
 20
3145.963733520703
 30
0.0
 11
4213.920860467793
 21
3090.538107678511
 31
0.0
  0
LINE
  5
1775B
330
125AA
100
AcDbEntity
  8
HATCH
100
AcDbLine
 10
4185.544817397459
 20
3041.389359362926
 30
0.0
 11
4217.544817397453
 21
2985.963733520728
 31
0.0
  0
LINE
  5
1775C
330
125AA
100
AcDbEntity
  8
YANE
  6
2PL-L
 62
     6
100
AcDbLine
 10
11975.12750789964
 20
6398.243182432327
 30
0.0
 11
4863.127507899639
 21
6398.243182432327
 31
0.0
  0
LINE
  5
1775D
330
125AA
100
AcDbEntity
  8
YANE
  6
2PL-L
 62
     6
100
AcDbLine
 10
4863.127507899639
 20
6398.243182432327
 30
0.0
 11
4863.127507899639
 21
8958.243182432326
 31
0.0
  0
LINE
  5
1775E
330
125AA
100
AcDbEntity
  8
YANE
  6
2PL-L
 62
     6
100
AcDbLine
 10
4863.127507899639
 20
8958.243182432326
 30
0.0
 11
11975.12750789964
 21
8958.243182432326
 31
0.0
  0
LINE
  5
1775F
330
125AA
100
AcDbEntity
  8
YANE
  6
2PL-L
 62
     6
100
AcDbLine
 10
11975.12750789964
 20
8958.243182432326
 30
0.0
 11
11975.12750789964
 21
6398.243182432327
 31
0.0
  0
LINE
  5
17760
330
125AA
100
AcDbEntity
  8
DOMAKON
100
AcDbLine
 10
8359.127507899641
 20
8908.243182432327
 30
0.0
 11
4859.127507899639
 21
8908.243182432327
 31
0.0
  0
LINE
  5
17761
330
125AA
100
AcDbEntity
  8
DOMAKON
100
AcDbLine
 10
4859.127507899639
 20
8908.243182432327
 30
0.0
 11
4859.127507899639
 21
6498.243182432327
 31
0.0
  0
LINE
  5
17762
330
125AA
100
AcDbEntity
  8
DOMAKON
100
AcDbLine
 10
4859.127507899639
 20
6498.243182432327
 30
0.0
 11
8359.127507899641
 21
6498.243182432327
 31
0.0
  0
LINE
  5
17763
330
125AA
100
AcDbEntity
  8
DOMAKON
100
AcDbLine
 10
8479.12750789964
 20
6498.243182432327
 30
0.0
 11
11979.12750789964
 21
6498.243182432327
 31
0.0
  0
LINE
  5
17764
330
125AA
100
AcDbEntity
  8
DOMAKON
100
AcDbLine
 10
11979.12750789964
 20
6498.243182432327
 30
0.0
 11
11979.12750789964
 21
8908.243182432327
 31
0.0
  0
LINE
  5
17765
330
125AA
100
AcDbEntity
  8
DOMAKON
100
AcDbLine
 10
11979.12750789964
 20
8908.243182432327
 30
0.0
 11
8479.12750789964
 21
8908.243182432327
 31
0.0
  0
LINE
  5
17766
330
125AA
100
AcDbEntity
  8
KISO
100
AcDbLine
 10
9519.127507899638
 20
6498.243182432327
 30
0.0
 11
8719.127507899639
 21
6498.243182432327
 31
0.0
  0
LINE
  5
17767
330
125AA
100
AcDbEntity
  8
KISO
100
AcDbLine
 10
8719.127507899639
 20
6498.243182432327
 30
0.0
 11
8719.127507899639
 21
7298.243182432327
 31
0.0
  0
LINE
  5
17768
330
125AA
100
AcDbEntity
  8
KISO
100
AcDbLine
 10
8719.127507899639
 20
7298.243182432327
 30
0.0
 11
9519.127507899638
 21
7298.243182432327
 31
0.0
  0
LINE
  5
17769
330
125AA
100
AcDbEntity
  8
KISO
100
AcDbLine
 10
9519.127507899638
 20
7298.243182432327
 30
0.0
 11
9519.127507899638
 21
6498.243182432327
 31
0.0
  0
LINE
  5
1776A
330
125AA
100
AcDbEntity
  8
KISO
100
AcDbLine
 10
8119.127507899639
 20
6498.243182432327
 30
0.0
 11
7319.127507899638
 21
6498.243182432327
 31
0.0
  0
LINE
  5
1776B
330
125AA
100
AcDbEntity
  8
KISO
100
AcDbLine
 10
7319.127507899638
 20
6498.243182432327
 30
0.0
 11
7319.127507899638
 21
7298.243182432327
 31
0.0
  0
LINE
  5
1776C
330
125AA
100
AcDbEntity
  8
KISO
100
AcDbLine
 10
7319.127507899638
 20
7298.243182432327
 30
0.0
 11
8119.127507899639
 21
7298.243182432327
 31
0.0
  0
LINE
  5
1776D
330
125AA
100
AcDbEntity
  8
KISO
100
AcDbLine
 10
8119.127507899639
 20
7298.243182432327
 30
0.0
 11
8119.127507899639
 21
6498.243182432327
 31
0.0
  0
LINE
  5
1776E
330
125AA
100
AcDbEntity
  8
KISO
100
AcDbLine
 10
5659.127507899639
 20
6498.243182432327
 30
0.0
 11
4859.127507899639
 21
6498.243182432327
 31
0.0
  0
LINE
  5
1776F
330
125AA
100
AcDbEntity
  8
KISO
100
AcDbLine
 10
4859.127507899639
 20
6498.243182432327
 30
0.0
 11
4859.127507899639
 21
7298.243182432327
 31
0.0
  0
LINE
  5
17770
330
125AA
100
AcDbEntity
  8
KISO
100
AcDbLine
 10
4859.127507899639
 20
7298.243182432327
 30
0.0
 11
5659.127507899639
 21
7298.243182432327
 31
0.0
  0
LINE
  5
17771
330
125AA
100
AcDbEntity
  8
KISO
100
AcDbLine
 10
5659.127507899639
 20
7298.243182432327
 30
0.0
 11
5659.127507899639
 21
6498.243182432327
 31
0.0
  0
LINE
  5
17772
330
125AA
100
AcDbEntity
  8
KISO
100
AcDbLine
 10
5659.127507899639
 20
8308.243182432326
 30
0.0
 11
4859.127507899639
 21
8308.243182432326
 31
0.0
  0
LINE
  5
17773
330
125AA
100
AcDbEntity
  8
KISO
100
AcDbLine
 10
4859.127507899639
 20
8308.243182432326
 30
0.0
 11
4859.127507899639
 21
9108.243182432326
 31
0.0
  0
LINE
  5
17774
330
125AA
100
AcDbEntity
  8
KISO
100
AcDbLine
 10
4859.127507899639
 20
9108.243182432326
 30
0.0
 11
5659.127507899639
 21
9108.243182432326
 31
0.0
  0
LINE
  5
17775
330
125AA
100
AcDbEntity
  8
KISO
100
AcDbLine
 10
5659.127507899639
 20
9108.243182432326
 30
0.0
 11
5659.127507899639
 21
8308.243182432326
 31
0.0
  0
LINE
  5
17776
330
125AA
100
AcDbEntity
  8
KISO
100
AcDbLine
 10
8119.127507899639
 20
8308.243182432326
 30
0.0
 11
7319.127507899638
 21
8308.243182432326
 31
0.0
  0
LINE
  5
17777
330
125AA
100
AcDbEntity
  8
KISO
100
AcDbLine
 10
7319.127507899638
 20
8308.243182432326
 30
0.0
 11
7319.127507899638
 21
9108.243182432326
 31
0.0
  0
LINE
  5
17778
330
125AA
100
AcDbEntity
  8
KISO
100
AcDbLine
 10
7319.127507899638
 20
9108.243182432326
 30
0.0
 11
8119.127507899639
 21
9108.243182432326
 31
0.0
  0
LINE
  5
17779
330
125AA
100
AcDbEntity
  8
KISO
100
AcDbLine
 10
8119.127507899639
 20
9108.243182432326
 30
0.0
 11
8119.127507899639
 21
8308.243182432326
 31
0.0
  0
LINE
  5
1777A
330
125AA
100
AcDbEntity
  8
KISO
100
AcDbLine
 10
11979.12750789964
 20
6498.243182432327
 30
0.0
 11
11179.12750789964
 21
6498.243182432327
 31
0.0
  0
LINE
  5
1777B
330
125AA
100
AcDbEntity
  8
KISO
100
AcDbLine
 10
11179.12750789964
 20
6498.243182432327
 30
0.0
 11
11179.12750789964
 21
7298.243182432327
 31
0.0
  0
LINE
  5
1777C
330
125AA
100
AcDbEntity
  8
KISO
100
AcDbLine
 10
11179.12750789964
 20
7298.243182432327
 30
0.0
 11
11979.12750789964
 21
7298.243182432327
 31
0.0
  0
LINE
  5
1777D
330
125AA
100
AcDbEntity
  8
KISO
100
AcDbLine
 10
11979.12750789964
 20
7298.243182432327
 30
0.0
 11
11979.12750789964
 21
6498.243182432327
 31
0.0
  0
LINE
  5
1777E
330
125AA
100
AcDbEntity
  8
KISO
100
AcDbLine
 10
9519.127507899638
 20
8308.243182432326
 30
0.0
 11
8719.127507899639
 21
8308.243182432326
 31
0.0
  0
LINE
  5
1777F
330
125AA
100
AcDbEntity
  8
KISO
100
AcDbLine
 10
8719.127507899639
 20
8308.243182432326
 30
0.0
 11
8719.127507899639
 21
9108.243182432326
 31
0.0
  0
LINE
  5
17780
330
125AA
100
AcDbEntity
  8
KISO
100
AcDbLine
 10
8719.127507899639
 20
9108.243182432326
 30
0.0
 11
9519.127507899638
 21
9108.243182432326
 31
0.0
  0
LINE
  5
17781
330
125AA
100
AcDbEntity
  8
KISO
100
AcDbLine
 10
9519.127507899638
 20
9108.243182432326
 30
0.0
 11
9519.127507899638
 21
8308.243182432326
 31
0.0
  0
LINE
  5
17782
330
125AA
100
AcDbEntity
  8
KISO
100
AcDbLine
 10
11979.12750789964
 20
8308.243182432326
 30
0.0
 11
11179.12750789964
 21
8308.243182432326
 31
0.0
  0
LINE
  5
17783
330
125AA
100
AcDbEntity
  8
KISO
100
AcDbLine
 10
11179.12750789964
 20
8308.243182432326
 30
0.0
 11
11179.12750789964
 21
9108.243182432326
 31
0.0
  0
LINE
  5
17784
330
125AA
100
AcDbEntity
  8
KISO
100
AcDbLine
 10
11179.12750789964
 20
9108.243182432326
 30
0.0
 11
11979.12750789964
 21
9108.243182432326
 31
0.0
  0
LINE
  5
17785
330
125AA
100
AcDbEntity
  8
KISO
100
AcDbLine
 10
11979.12750789964
 20
9108.243182432326
 30
0.0
 11
11979.12750789964
 21
8308.243182432326
 31
0.0
  0
LINE
  5
17786
330
125AA
100
AcDbEntity
  8
U1
100
AcDbLine
 10
11585.32750789964
 20
8678.043182432327
 30
0.0
 11
11552.92750789964
 21
8678.043182432327
 31
0.0
  0
LINE
  5
17787
330
125AA
100
AcDbEntity
  8
U1
100
AcDbLine
 10
11552.92750789964
 20
8738.443182432327
 30
0.0
 11
11605.32750789964
 21
8738.443182432327
 31
0.0
  0
ARC
  5
17789
330
125AA
100
AcDbEntity
  8
U1
100
AcDbCircle
 10
11552.92750789964
 20
8734.443182432327
 30
0.0
 40
4.0
100
AcDbArc
 50
90.0
 51
180.0
  0
ARC
  5
1778A
330
125AA
100
AcDbEntity
  8
U1
100
AcDbCircle
 10
11552.92750789964
 20
8682.043182432328
 30
0.0
 40
4.0
100
AcDbArc
 50
180.0
 51
270.0
  0
LINE
  5
1778B
330
125AA
100
AcDbEntity
  8
U1
100
AcDbLine
 10
11548.92750789964
 20
8682.043182432328
 30
0.0
 11
11548.92750789964
 21
8734.443182432327
 31
0.0
  0
ARC
  5
1778C
330
125AA
100
AcDbEntity
  8
U1
100
AcDbCircle
 10
11605.32750789964
 20
8734.443182432327
 30
0.0
 40
4.0
100
AcDbArc
 50
0.0
 51
90.0
  0
ARC
  5
1778D
330
125AA
100
AcDbEntity
  8
U1
100
AcDbCircle
 10
11585.32750789964
 20
8682.043182432328
 30
0.0
 40
4.0
100
AcDbArc
 50
270.0
 51
0.0
  0
ARC
  5
1778E
330
125AA
100
AcDbEntity
  8
U1
100
AcDbCircle
 10
11592.77750789964
 20
8691.293182432328
 30
0.0
 40
1.149999999999977
100
AcDbArc
 50
0.0
 51
180.0
  0
LINE
  5
1778F
330
125AA
100
AcDbEntity
  8
U1
100
AcDbLine
 10
11596.22750789964
 20
8683.743182432328
 30
0.0
 11
11596.22750789964
 21
8691.293182432326
 31
0.0
  0
LINE
  5
17790
330
125AA
100
AcDbEntity
  8
U1
100
AcDbLine
 10
11593.92750789964
 20
8683.743182432328
 30
0.0
 11
11596.22750789964
 21
8683.743182432328
 31
0.0
  0
LINE
  5
17791
330
125AA
100
AcDbEntity
  8
U1
100
AcDbLine
 10
11591.62750789964
 20
8690.743182432326
 30
0.0
 11
11593.92750789964
 21
8690.743182432326
 31
0.0
  0
ARC
  5
17792
330
125AA
100
AcDbEntity
  8
U1
100
AcDbCircle
 10
11592.77750789964
 20
8691.293182432328
 30
0.0
 40
3.450000000000045
100
AcDbArc
 50
0.0
 51
180.0
  0
LINE
  5
17793
330
125AA
100
AcDbEntity
  8
U1
100
AcDbLine
 10
11591.62750789964
 20
8691.293182432328
 30
0.0
 11
11591.62750789964
 21
8682.043182432328
 31
0.0
  0
LINE
  5
17794
330
125AA
100
AcDbEntity
  8
U1
100
AcDbLine
 10
11593.92750789964
 20
8682.043182432327
 30
0.0
 11
11593.92750789964
 21
8691.293182432326
 31
0.0
  0
LINE
  5
17795
330
125AA
100
AcDbEntity
  8
U1
100
AcDbLine
 10
11589.32750789964
 20
8691.293182432328
 30
0.0
 11
11589.32750789964
 21
8682.043182432328
 31
0.0
  0
ARC
  5
17796
330
125AA
100
AcDbEntity
  8
U1
100
AcDbCircle
 10
11605.32750789964
 20
8682.043182432327
 30
0.0
 40
4.0
100
AcDbArc
 50
270.0
 51
0.0
  0
LINE
  5
17797
330
125AA
100
AcDbEntity
  8
U1
100
AcDbLine
 10
11605.32750789964
 20
8678.043182432325
 30
0.0
 11
11597.92750789964
 21
8678.043182432325
 31
0.0
  0
ARC
  5
17798
330
125AA
100
AcDbEntity
  8
U1
100
AcDbCircle
 10
11597.92750789964
 20
8682.043182432327
 30
0.0
 40
4.0
100
AcDbArc
 50
180.0
 51
270.0
  0
LINE
  5
17799
330
125AA
100
AcDbEntity
  8
U1
100
AcDbLine
 10
11609.32750789964
 20
8734.443182432327
 30
0.0
 11
11609.32750789964
 21
8682.043182432327
 31
0.0
  0
LINE
  5
1779A
330
125AA
100
AcDbEntity
  8
U1
100
AcDbLine
 10
9125.327507899639
 20
8678.043182432327
 30
0.0
 11
9092.927507899638
 21
8678.043182432327
 31
0.0
  0
LINE
  5
1779B
330
125AA
100
AcDbEntity
  8
U1
100
AcDbLine
 10
9092.92750789964
 20
8738.443182432327
 30
0.0
 11
9145.32750789964
 21
8738.443182432327
 31
0.0
  0
ARC
  5
1779D
330
125AA
100
AcDbEntity
  8
U1
100
AcDbCircle
 10
9092.92750789964
 20
8734.443182432327
 30
0.0
 40
4.0
100
AcDbArc
 50
90.0
 51
180.0
  0
ARC
  5
1779E
330
125AA
100
AcDbEntity
  8
U1
100
AcDbCircle
 10
9092.927507899638
 20
8682.043182432328
 30
0.0
 40
4.0
100
AcDbArc
 50
180.0
 51
270.0
  0
LINE
  5
1779F
330
125AA
100
AcDbEntity
  8
U1
100
AcDbLine
 10
9088.927507899638
 20
8682.043182432328
 30
0.0
 11
9088.92750789964
 21
8734.443182432327
 31
0.0
  0
ARC
  5
177A0
330
125AA
100
AcDbEntity
  8
U1
100
AcDbCircle
 10
9145.32750789964
 20
8734.443182432327
 30
0.0
 40
4.0
100
AcDbArc
 50
0.0
 51
90.0
  0
ARC
  5
177A1
330
125AA
100
AcDbEntity
  8
U1
100
AcDbCircle
 10
9125.327507899639
 20
8682.043182432328
 30
0.0
 40
4.0
100
AcDbArc
 50
270.0
 51
0.0
  0
ARC
  5
177A2
330
125AA
100
AcDbEntity
  8
U1
100
AcDbCircle
 10
9132.777507899637
 20
8691.293182432328
 30
0.0
 40
1.149999999999977
100
AcDbArc
 50
0.0
 51
180.0
  0
LINE
  5
177A3
330
125AA
100
AcDbEntity
  8
U1
100
AcDbLine
 10
9136.227507899638
 20
8683.743182432328
 30
0.0
 11
9136.227507899638
 21
8691.293182432326
 31
0.0
  0
LINE
  5
177A4
330
125AA
100
AcDbEntity
  8
U1
100
AcDbLine
 10
9133.927507899638
 20
8683.743182432328
 30
0.0
 11
9136.227507899638
 21
8683.743182432328
 31
0.0
  0
LINE
  5
177A5
330
125AA
100
AcDbEntity
  8
U1
100
AcDbLine
 10
9131.627507899638
 20
8690.743182432326
 30
0.0
 11
9133.927507899638
 21
8690.743182432326
 31
0.0
  0
ARC
  5
177A6
330
125AA
100
AcDbEntity
  8
U1
100
AcDbCircle
 10
9132.777507899637
 20
8691.293182432328
 30
0.0
 40
3.450000000000045
100
AcDbArc
 50
0.0
 51
180.0
  0
LINE
  5
177A7
330
125AA
100
AcDbEntity
  8
U1
100
AcDbLine
 10
9131.627507899638
 20
8691.293182432328
 30
0.0
 11
9131.627507899638
 21
8682.043182432328
 31
0.0
  0
LINE
  5
177A8
330
125AA
100
AcDbEntity
  8
U1
100
AcDbLine
 10
9133.927507899638
 20
8682.043182432327
 30
0.0
 11
9133.927507899638
 21
8691.293182432326
 31
0.0
  0
LINE
  5
177A9
330
125AA
100
AcDbEntity
  8
U1
100
AcDbLine
 10
9129.32750789964
 20
8691.293182432328
 30
0.0
 11
9129.32750789964
 21
8682.043182432328
 31
0.0
  0
ARC
  5
177AA
330
125AA
100
AcDbEntity
  8
U1
100
AcDbCircle
 10
9145.327507899638
 20
8682.043182432327
 30
0.0
 40
4.0
100
AcDbArc
 50
270.0
 51
0.0
  0
LINE
  5
177AB
330
125AA
100
AcDbEntity
  8
U1
100
AcDbLine
 10
9145.327507899638
 20
8678.043182432325
 30
0.0
 11
9137.927507899638
 21
8678.043182432325
 31
0.0
  0
ARC
  5
177AC
330
125AA
100
AcDbEntity
  8
U1
100
AcDbCircle
 10
9137.927507899638
 20
8682.043182432327
 30
0.0
 40
4.0
100
AcDbArc
 50
180.0
 51
270.0
  0
LINE
  5
177AD
330
125AA
100
AcDbEntity
  8
U1
100
AcDbLine
 10
9149.32750789964
 20
8734.443182432327
 30
0.0
 11
9149.327507899638
 21
8682.043182432327
 31
0.0
  0
LINE
  5
177AE
330
125AA
100
AcDbEntity
  8
U1
100
AcDbLine
 10
7725.327507899639
 20
8678.043182432327
 30
0.0
 11
7692.927507899638
 21
8678.043182432327
 31
0.0
  0
LINE
  5
177AF
330
125AA
100
AcDbEntity
  8
U1
100
AcDbLine
 10
7692.927507899638
 20
8738.443182432327
 30
0.0
 11
7745.32750789964
 21
8738.443182432327
 31
0.0
  0
ARC
  5
177B1
330
125AA
100
AcDbEntity
  8
U1
100
AcDbCircle
 10
7692.927507899638
 20
8734.443182432327
 30
0.0
 40
4.0
100
AcDbArc
 50
90.0
 51
180.0
  0
ARC
  5
177B2
330
125AA
100
AcDbEntity
  8
U1
100
AcDbCircle
 10
7692.927507899638
 20
8682.043182432328
 30
0.0
 40
4.0
100
AcDbArc
 50
180.0
 51
270.0
  0
LINE
  5
177B3
330
125AA
100
AcDbEntity
  8
U1
100
AcDbLine
 10
7688.927507899639
 20
8682.043182432328
 30
0.0
 11
7688.927507899639
 21
8734.443182432327
 31
0.0
  0
ARC
  5
177B4
330
125AA
100
AcDbEntity
  8
U1
100
AcDbCircle
 10
7745.32750789964
 20
8734.443182432327
 30
0.0
 40
4.0
100
AcDbArc
 50
0.0
 51
90.0
  0
ARC
  5
177B5
330
125AA
100
AcDbEntity
  8
U1
100
AcDbCircle
 10
7725.327507899639
 20
8682.043182432328
 30
0.0
 40
4.0
100
AcDbArc
 50
270.0
 51
0.0
  0
ARC
  5
177B6
330
125AA
100
AcDbEntity
  8
U1
100
AcDbCircle
 10
7732.77750789964
 20
8691.293182432328
 30
0.0
 40
1.149999999999977
100
AcDbArc
 50
0.0
 51
180.0
  0
LINE
  5
177B7
330
125AA
100
AcDbEntity
  8
U1
100
AcDbLine
 10
7736.227507899639
 20
8683.743182432328
 30
0.0
 11
7736.227507899639
 21
8691.293182432326
 31
0.0
  0
LINE
  5
177B8
330
125AA
100
AcDbEntity
  8
U1
100
AcDbLine
 10
7733.92750789964
 20
8683.743182432328
 30
0.0
 11
7736.227507899639
 21
8683.743182432328
 31
0.0
  0
LINE
  5
177B9
330
125AA
100
AcDbEntity
  8
U1
100
AcDbLine
 10
7731.62750789964
 20
8690.743182432326
 30
0.0
 11
7733.92750789964
 21
8690.743182432326
 31
0.0
  0
ARC
  5
177BA
330
125AA
100
AcDbEntity
  8
U1
100
AcDbCircle
 10
7732.77750789964
 20
8691.293182432328
 30
0.0
 40
3.450000000000045
100
AcDbArc
 50
0.0
 51
180.0
  0
LINE
  5
177BB
330
125AA
100
AcDbEntity
  8
U1
100
AcDbLine
 10
7731.62750789964
 20
8691.293182432328
 30
0.0
 11
7731.627507899638
 21
8682.043182432328
 31
0.0
  0
LINE
  5
177BC
330
125AA
100
AcDbEntity
  8
U1
100
AcDbLine
 10
7733.92750789964
 20
8682.043182432327
 30
0.0
 11
7733.92750789964
 21
8691.293182432326
 31
0.0
  0
LINE
  5
177BD
330
125AA
100
AcDbEntity
  8
U1
100
AcDbLine
 10
7729.32750789964
 20
8691.293182432328
 30
0.0
 11
7729.32750789964
 21
8682.043182432328
 31
0.0
  0
ARC
  5
177BE
330
125AA
100
AcDbEntity
  8
U1
100
AcDbCircle
 10
7745.327507899638
 20
8682.043182432327
 30
0.0
 40
4.0
100
AcDbArc
 50
270.0
 51
0.0
  0
LINE
  5
177BF
330
125AA
100
AcDbEntity
  8
U1
100
AcDbLine
 10
7745.327507899638
 20
8678.043182432325
 30
0.0
 11
7737.927507899638
 21
8678.043182432325
 31
0.0
  0
ARC
  5
177C0
330
125AA
100
AcDbEntity
  8
U1
100
AcDbCircle
 10
7737.927507899638
 20
8682.043182432327
 30
0.0
 40
4.0
100
AcDbArc
 50
180.0
 51
270.0
  0
LINE
  5
177C1
330
125AA
100
AcDbEntity
  8
U1
100
AcDbLine
 10
7749.327507899639
 20
8734.443182432327
 30
0.0
 11
7749.327507899639
 21
8682.043182432327
 31
0.0
  0
LINE
  5
177C2
330
125AA
100
AcDbEntity
  8
U1
100
AcDbLine
 10
5252.927507899638
 20
8678.043182432327
 30
0.0
 11
5285.327507899638
 21
8678.043182432325
 31
0.0
  0
LINE
  5
177C3
330
125AA
100
AcDbEntity
  8
U1
100
AcDbLine
 10
5285.327507899638
 20
8738.443182432327
 30
0.0
 11
5232.927507899638
 21
8738.443182432327
 31
0.0
  0
ARC
  5
177C5
330
125AA
100
AcDbEntity
  8
U1
100
AcDbCircle
 10
5285.327507899638
 20
8734.443182432327
 30
0.0
 40
4.0
100
AcDbArc
 50
0.0
 51
90.0
  0
ARC
  5
177C6
330
125AA
100
AcDbEntity
  8
U1
100
AcDbCircle
 10
5285.327507899638
 20
8682.043182432327
 30
0.0
 40
4.0
100
AcDbArc
 50
270.0
 51
0.0
  0
LINE
  5
177C7
330
125AA
100
AcDbEntity
  8
U1
100
AcDbLine
 10
5289.327507899638
 20
8682.043182432327
 30
0.0
 11
5289.327507899638
 21
8734.443182432327
 31
0.0
  0
ARC
  5
177C8
330
125AA
100
AcDbEntity
  8
U1
100
AcDbCircle
 10
5232.927507899638
 20
8734.443182432327
 30
0.0
 40
4.0
100
AcDbArc
 50
90.0
 51
180.0
  0
ARC
  5
177C9
330
125AA
100
AcDbEntity
  8
U1
100
AcDbCircle
 10
5252.927507899638
 20
8682.043182432328
 30
0.0
 40
4.0
100
AcDbArc
 50
180.0
 51
270.0
  0
ARC
  5
177CA
330
125AA
100
AcDbEntity
  8
U1
100
AcDbCircle
 10
5245.477507899638
 20
8691.293182432328
 30
0.0
 40
1.149999999999977
100
AcDbArc
 50
0.0
 51
180.0
  0
LINE
  5
177CB
330
125AA
100
AcDbEntity
  8
U1
100
AcDbLine
 10
5242.027507899639
 20
8683.743182432328
 30
0.0
 11
5242.027507899639
 21
8691.293182432328
 31
0.0
  0
LINE
  5
177CC
330
125AA
100
AcDbEntity
  8
U1
100
AcDbLine
 10
5244.327507899638
 20
8683.743182432328
 30
0.0
 11
5242.027507899639
 21
8683.743182432328
 31
0.0
  0
LINE
  5
177CD
330
125AA
100
AcDbEntity
  8
U1
100
AcDbLine
 10
5246.627507899638
 20
8690.743182432326
 30
0.0
 11
5244.327507899638
 21
8690.743182432326
 31
0.0
  0
ARC
  5
177CE
330
125AA
100
AcDbEntity
  8
U1
100
AcDbCircle
 10
5245.477507899638
 20
8691.293182432328
 30
0.0
 40
3.450000000000045
100
AcDbArc
 50
0.0
 51
180.0
  0
LINE
  5
177CF
330
125AA
100
AcDbEntity
  8
U1
100
AcDbLine
 10
5246.627507899638
 20
8691.293182432328
 30
0.0
 11
5246.627507899638
 21
8682.043182432328
 31
0.0
  0
LINE
  5
177D0
330
125AA
100
AcDbEntity
  8
U1
100
AcDbLine
 10
5244.327507899638
 20
8682.043182432328
 30
0.0
 11
5244.327507899638
 21
8691.293182432328
 31
0.0
  0
LINE
  5
177D1
330
125AA
100
AcDbEntity
  8
U1
100
AcDbLine
 10
5248.927507899638
 20
8691.293182432328
 30
0.0
 11
5248.927507899638
 21
8682.043182432328
 31
0.0
  0
ARC
  5
177D2
330
125AA
100
AcDbEntity
  8
U1
100
AcDbCircle
 10
5232.927507899638
 20
8682.043182432328
 30
0.0
 40
4.0
100
AcDbArc
 50
180.0
 51
270.0
  0
LINE
  5
177D3
330
125AA
100
AcDbEntity
  8
U1
100
AcDbLine
 10
5232.927507899638
 20
8678.043182432327
 30
0.0
 11
5240.327507899639
 21
8678.043182432327
 31
0.0
  0
ARC
  5
177D4
330
125AA
100
AcDbEntity
  8
U1
100
AcDbCircle
 10
5240.327507899639
 20
8682.043182432328
 30
0.0
 40
4.0
100
AcDbArc
 50
270.0
 51
0.0
  0
LINE
  5
177D5
330
125AA
100
AcDbEntity
  8
U1
100
AcDbLine
 10
5228.927507899638
 20
8734.443182432327
 30
0.0
 11
5228.927507899639
 21
8682.043182432328
 31
0.0
  0
LINE
  5
177D6
330
125AA
100
AcDbEntity
  8
U1
100
AcDbLine
 10
7725.327507899639
 20
6928.443182432326
 30
0.0
 11
7692.927507899638
 21
6928.443182432326
 31
0.0
  0
LINE
  5
177D7
330
125AA
100
AcDbEntity
  8
U1
100
AcDbLine
 10
7692.927507899638
 20
6868.043182432327
 30
0.0
 11
7745.32750789964
 21
6868.043182432327
 31
0.0
  0
ARC
  5
177D9
330
125AA
100
AcDbEntity
  8
U1
100
AcDbCircle
 10
7692.927507899638
 20
6872.043182432325
 30
0.0
 40
4.0
100
AcDbArc
 50
180.0
 51
270.0
  0
ARC
  5
177DA
330
125AA
100
AcDbEntity
  8
U1
100
AcDbCircle
 10
7692.927507899638
 20
6924.443182432327
 30
0.0
 40
4.0
100
AcDbArc
 50
90.0
 51
180.0
  0
LINE
  5
177DB
330
125AA
100
AcDbEntity
  8
U1
100
AcDbLine
 10
7688.927507899639
 20
6924.443182432327
 30
0.0
 11
7688.927507899639
 21
6872.043182432325
 31
0.0
  0
ARC
  5
177DC
330
125AA
100
AcDbEntity
  8
U1
100
AcDbCircle
 10
7745.32750789964
 20
6872.043182432325
 30
0.0
 40
4.0
100
AcDbArc
 50
270.0
 51
0.0
  0
ARC
  5
177DD
330
125AA
100
AcDbEntity
  8
U1
100
AcDbCircle
 10
7725.327507899639
 20
6924.443182432327
 30
0.0
 40
4.0
100
AcDbArc
 50
0.0
 51
90.0
  0
ARC
  5
177DE
330
125AA
100
AcDbEntity
  8
U1
100
AcDbCircle
 10
7732.77750789964
 20
6915.193182432327
 30
0.0
 40
1.149999999999977
100
AcDbArc
 50
180.0
 51
0.0
  0
LINE
  5
177DF
330
125AA
100
AcDbEntity
  8
U1
100
AcDbLine
 10
7736.227507899639
 20
6922.743182432326
 30
0.0
 11
7736.227507899639
 21
6915.193182432327
 31
0.0
  0
LINE
  5
177E0
330
125AA
100
AcDbEntity
  8
U1
100
AcDbLine
 10
7733.92750789964
 20
6922.743182432326
 30
0.0
 11
7736.227507899639
 21
6922.743182432326
 31
0.0
  0
LINE
  5
177E1
330
125AA
100
AcDbEntity
  8
U1
100
AcDbLine
 10
7731.62750789964
 20
6915.743182432326
 30
0.0
 11
7733.92750789964
 21
6915.743182432326
 31
0.0
  0
ARC
  5
177E2
330
125AA
100
AcDbEntity
  8
U1
100
AcDbCircle
 10
7732.77750789964
 20
6915.193182432327
 30
0.0
 40
3.450000000000045
100
AcDbArc
 50
180.0
 51
0.0
  0
LINE
  5
177E3
330
125AA
100
AcDbEntity
  8
U1
100
AcDbLine
 10
7731.62750789964
 20
6915.193182432327
 30
0.0
 11
7731.627507899638
 21
6924.443182432326
 31
0.0
  0
LINE
  5
177E4
330
125AA
100
AcDbEntity
  8
U1
100
AcDbLine
 10
7733.92750789964
 20
6924.443182432327
 30
0.0
 11
7733.92750789964
 21
6915.193182432327
 31
0.0
  0
LINE
  5
177E5
330
125AA
100
AcDbEntity
  8
U1
100
AcDbLine
 10
7729.32750789964
 20
6915.193182432327
 30
0.0
 11
7729.32750789964
 21
6924.443182432327
 31
0.0
  0
ARC
  5
177E6
330
125AA
100
AcDbEntity
  8
U1
100
AcDbCircle
 10
7745.327507899638
 20
6924.443182432327
 30
0.0
 40
4.0
100
AcDbArc
 50
0.0
 51
90.0
  0
LINE
  5
177E7
330
125AA
100
AcDbEntity
  8
U1
100
AcDbLine
 10
7745.327507899638
 20
6928.443182432326
 30
0.0
 11
7737.927507899638
 21
6928.443182432326
 31
0.0
  0
ARC
  5
177E8
330
125AA
100
AcDbEntity
  8
U1
100
AcDbCircle
 10
7737.927507899638
 20
6924.443182432327
 30
0.0
 40
4.0
100
AcDbArc
 50
90.0
 51
180.0
  0
LINE
  5
177E9
330
125AA
100
AcDbEntity
  8
U1
100
AcDbLine
 10
7749.327507899639
 20
6872.043182432325
 30
0.0
 11
7749.327507899639
 21
6924.443182432327
 31
0.0
  0
LINE
  5
177EA
330
125AA
100
AcDbEntity
  8
U1
100
AcDbLine
 10
5252.927507899638
 20
6928.443182432326
 30
0.0
 11
5285.327507899638
 21
6928.443182432326
 31
0.0
  0
LINE
  5
177EB
330
125AA
100
AcDbEntity
  8
U1
100
AcDbLine
 10
5285.327507899638
 20
6868.043182432327
 30
0.0
 11
5232.927507899638
 21
6868.043182432327
 31
0.0
  0
ARC
  5
177ED
330
125AA
100
AcDbEntity
  8
U1
100
AcDbCircle
 10
5285.327507899638
 20
6872.043182432325
 30
0.0
 40
4.0
100
AcDbArc
 50
270.0
 51
0.0
  0
ARC
  5
177EE
330
125AA
100
AcDbEntity
  8
U1
100
AcDbCircle
 10
5285.327507899638
 20
6924.443182432327
 30
0.0
 40
4.0
100
AcDbArc
 50
0.0
 51
90.0
  0
LINE
  5
177EF
330
125AA
100
AcDbEntity
  8
U1
100
AcDbLine
 10
5289.327507899638
 20
6924.443182432327
 30
0.0
 11
5289.327507899638
 21
6872.043182432325
 31
0.0
  0
ARC
  5
177F0
330
125AA
100
AcDbEntity
  8
U1
100
AcDbCircle
 10
5232.927507899638
 20
6872.043182432325
 30
0.0
 40
4.0
100
AcDbArc
 50
180.0
 51
270.0
  0
ARC
  5
177F1
330
125AA
100
AcDbEntity
  8
U1
100
AcDbCircle
 10
5252.927507899638
 20
6924.443182432327
 30
0.0
 40
4.0
100
AcDbArc
 50
90.0
 51
180.0
  0
ARC
  5
177F2
330
125AA
100
AcDbEntity
  8
U1
100
AcDbCircle
 10
5245.477507899638
 20
6915.193182432327
 30
0.0
 40
1.149999999999977
100
AcDbArc
 50
180.0
 51
0.0
  0
LINE
  5
177F3
330
125AA
100
AcDbEntity
  8
U1
100
AcDbLine
 10
5242.027507899639
 20
6922.743182432326
 30
0.0
 11
5242.027507899639
 21
6915.193182432327
 31
0.0
  0
LINE
  5
177F4
330
125AA
100
AcDbEntity
  8
U1
100
AcDbLine
 10
5244.327507899638
 20
6922.743182432326
 30
0.0
 11
5242.027507899639
 21
6922.743182432326
 31
0.0
  0
LINE
  5
177F5
330
125AA
100
AcDbEntity
  8
U1
100
AcDbLine
 10
5246.627507899638
 20
6915.743182432326
 30
0.0
 11
5244.327507899638
 21
6915.743182432326
 31
0.0
  0
ARC
  5
177F6
330
125AA
100
AcDbEntity
  8
U1
100
AcDbCircle
 10
5245.477507899638
 20
6915.193182432327
 30
0.0
 40
3.450000000000045
100
AcDbArc
 50
180.0
 51
0.0
  0
LINE
  5
177F7
330
125AA
100
AcDbEntity
  8
U1
100
AcDbLine
 10
5246.627507899638
 20
6915.193182432327
 30
0.0
 11
5246.627507899638
 21
6924.443182432326
 31
0.0
  0
LINE
  5
177F8
330
125AA
100
AcDbEntity
  8
U1
100
AcDbLine
 10
5244.327507899638
 20
6924.443182432327
 30
0.0
 11
5244.327507899638
 21
6915.193182432327
 31
0.0
  0
LINE
  5
177F9
330
125AA
100
AcDbEntity
  8
U1
100
AcDbLine
 10
5248.927507899638
 20
6915.193182432327
 30
0.0
 11
5248.927507899638
 21
6924.443182432327
 31
0.0
  0
ARC
  5
177FA
330
125AA
100
AcDbEntity
  8
U1
100
AcDbCircle
 10
5232.927507899638
 20
6924.443182432327
 30
0.0
 40
4.0
100
AcDbArc
 50
90.0
 51
180.0
  0
LINE
  5
177FB
330
125AA
100
AcDbEntity
  8
U1
100
AcDbLine
 10
5232.927507899638
 20
6928.443182432326
 30
0.0
 11
5240.327507899639
 21
6928.443182432326
 31
0.0
  0
ARC
  5
177FC
330
125AA
100
AcDbEntity
  8
U1
100
AcDbCircle
 10
5240.327507899639
 20
6924.443182432327
 30
0.0
 40
4.0
100
AcDbArc
 50
0.0
 51
90.0
  0
LINE
  5
177FD
330
125AA
100
AcDbEntity
  8
U1
100
AcDbLine
 10
5228.927507899638
 20
6872.043182432325
 30
0.0
 11
5228.927507899639
 21
6924.443182432327
 31
0.0
  0
LINE
  5
177FE
330
125AA
100
AcDbEntity
  8
U1
100
AcDbLine
 10
9125.327507899639
 20
6928.443182432326
 30
0.0
 11
9092.92750789964
 21
6928.443182432326
 31
0.0
  0
LINE
  5
177FF
330
125AA
100
AcDbEntity
  8
U1
100
AcDbLine
 10
9092.92750789964
 20
6868.043182432327
 30
0.0
 11
9145.32750789964
 21
6868.043182432327
 31
0.0
  0
ARC
  5
17801
330
125AA
100
AcDbEntity
  8
U1
100
AcDbCircle
 10
9092.92750789964
 20
6872.043182432325
 30
0.0
 40
4.0
100
AcDbArc
 50
180.0
 51
270.0
  0
ARC
  5
17802
330
125AA
100
AcDbEntity
  8
U1
100
AcDbCircle
 10
9092.92750789964
 20
6924.443182432327
 30
0.0
 40
4.0
100
AcDbArc
 50
90.0
 51
180.0
  0
LINE
  5
17803
330
125AA
100
AcDbEntity
  8
U1
100
AcDbLine
 10
9088.92750789964
 20
6924.443182432327
 30
0.0
 11
9088.92750789964
 21
6872.043182432325
 31
0.0
  0
ARC
  5
17804
330
125AA
100
AcDbEntity
  8
U1
100
AcDbCircle
 10
9145.32750789964
 20
6872.043182432325
 30
0.0
 40
4.0
100
AcDbArc
 50
270.0
 51
0.0
  0
ARC
  5
17805
330
125AA
100
AcDbEntity
  8
U1
100
AcDbCircle
 10
9125.327507899639
 20
6924.443182432327
 30
0.0
 40
4.0
100
AcDbArc
 50
0.0
 51
90.0
  0
ARC
  5
17806
330
125AA
100
AcDbEntity
  8
U1
100
AcDbCircle
 10
9132.777507899637
 20
6915.193182432327
 30
0.0
 40
1.149999999999977
100
AcDbArc
 50
180.0
 51
0.0
  0
LINE
  5
17807
330
125AA
100
AcDbEntity
  8
U1
100
AcDbLine
 10
9136.227507899638
 20
6922.743182432326
 30
0.0
 11
9136.227507899638
 21
6915.193182432327
 31
0.0
  0
LINE
  5
17808
330
125AA
100
AcDbEntity
  8
U1
100
AcDbLine
 10
9133.92750789964
 20
6922.743182432326
 30
0.0
 11
9136.227507899638
 21
6922.743182432326
 31
0.0
  0
LINE
  5
17809
330
125AA
100
AcDbEntity
  8
U1
100
AcDbLine
 10
9131.627507899642
 20
6915.743182432326
 30
0.0
 11
9133.92750789964
 21
6915.743182432326
 31
0.0
  0
ARC
  5
1780A
330
125AA
100
AcDbEntity
  8
U1
100
AcDbCircle
 10
9132.777507899637
 20
6915.193182432327
 30
0.0
 40
3.450000000000045
100
AcDbArc
 50
180.0
 51
0.0
  0
LINE
  5
1780B
330
125AA
100
AcDbEntity
  8
U1
100
AcDbLine
 10
9131.627507899642
 20
6915.193182432327
 30
0.0
 11
9131.627507899638
 21
6924.443182432326
 31
0.0
  0
LINE
  5
1780C
330
125AA
100
AcDbEntity
  8
U1
100
AcDbLine
 10
9133.92750789964
 20
6924.443182432327
 30
0.0
 11
9133.92750789964
 21
6915.193182432327
 31
0.0
  0
LINE
  5
1780D
330
125AA
100
AcDbEntity
  8
U1
100
AcDbLine
 10
9129.32750789964
 20
6915.193182432327
 30
0.0
 11
9129.32750789964
 21
6924.443182432327
 31
0.0
  0
ARC
  5
1780E
330
125AA
100
AcDbEntity
  8
U1
100
AcDbCircle
 10
9145.327507899638
 20
6924.443182432327
 30
0.0
 40
4.0
100
AcDbArc
 50
0.0
 51
90.0
  0
LINE
  5
1780F
330
125AA
100
AcDbEntity
  8
U1
100
AcDbLine
 10
9145.327507899638
 20
6928.443182432326
 30
0.0
 11
9137.92750789964
 21
6928.443182432326
 31
0.0
  0
ARC
  5
17810
330
125AA
100
AcDbEntity
  8
U1
100
AcDbCircle
 10
9137.92750789964
 20
6924.443182432327
 30
0.0
 40
4.0
100
AcDbArc
 50
90.0
 51
180.0
  0
LINE
  5
17811
330
125AA
100
AcDbEntity
  8
U1
100
AcDbLine
 10
9149.32750789964
 20
6872.043182432325
 30
0.0
 11
9149.327507899638
 21
6924.443182432327
 31
0.0
  0
LINE
  5
17812
330
125AA
100
AcDbEntity
  8
U1
100
AcDbLine
 10
11585.32750789964
 20
6928.443182432326
 30
0.0
 11
11552.92750789964
 21
6928.443182432326
 31
0.0
  0
LINE
  5
17813
330
125AA
100
AcDbEntity
  8
U1
100
AcDbLine
 10
11552.92750789964
 20
6868.043182432327
 30
0.0
 11
11605.32750789964
 21
6868.043182432327
 31
0.0
  0
ARC
  5
17815
330
125AA
100
AcDbEntity
  8
U1
100
AcDbCircle
 10
11552.92750789964
 20
6872.043182432325
 30
0.0
 40
4.0
100
AcDbArc
 50
180.0
 51
270.0
  0
ARC
  5
17816
330
125AA
100
AcDbEntity
  8
U1
100
AcDbCircle
 10
11552.92750789964
 20
6924.443182432327
 30
0.0
 40
4.0
100
AcDbArc
 50
90.0
 51
180.0
  0
LINE
  5
17817
330
125AA
100
AcDbEntity
  8
U1
100
AcDbLine
 10
11548.92750789964
 20
6924.443182432327
 30
0.0
 11
11548.92750789964
 21
6872.043182432325
 31
0.0
  0
ARC
  5
17818
330
125AA
100
AcDbEntity
  8
U1
100
AcDbCircle
 10
11605.32750789964
 20
6872.043182432325
 30
0.0
 40
4.0
100
AcDbArc
 50
270.0
 51
0.0
  0
ARC
  5
17819
330
125AA
100
AcDbEntity
  8
U1
100
AcDbCircle
 10
11585.32750789964
 20
6924.443182432327
 30
0.0
 40
4.0
100
AcDbArc
 50
0.0
 51
90.0
  0
ARC
  5
1781A
330
125AA
100
AcDbEntity
  8
U1
100
AcDbCircle
 10
11592.77750789964
 20
6915.193182432327
 30
0.0
 40
1.149999999999977
100
AcDbArc
 50
180.0
 51
0.0
  0
LINE
  5
1781B
330
125AA
100
AcDbEntity
  8
U1
100
AcDbLine
 10
11596.22750789964
 20
6922.743182432326
 30
0.0
 11
11596.22750789964
 21
6915.193182432327
 31
0.0
  0
LINE
  5
1781C
330
125AA
100
AcDbEntity
  8
U1
100
AcDbLine
 10
11593.92750789964
 20
6922.743182432326
 30
0.0
 11
11596.22750789964
 21
6922.743182432326
 31
0.0
  0
LINE
  5
1781D
330
125AA
100
AcDbEntity
  8
U1
100
AcDbLine
 10
11591.62750789964
 20
6915.743182432326
 30
0.0
 11
11593.92750789964
 21
6915.743182432326
 31
0.0
  0
ARC
  5
1781E
330
125AA
100
AcDbEntity
  8
U1
100
AcDbCircle
 10
11592.77750789964
 20
6915.193182432327
 30
0.0
 40
3.450000000000045
100
AcDbArc
 50
180.0
 51
0.0
  0
LINE
  5
1781F
330
125AA
100
AcDbEntity
  8
U1
100
AcDbLine
 10
11591.62750789964
 20
6915.193182432327
 30
0.0
 11
11591.62750789964
 21
6924.443182432326
 31
0.0
  0
LINE
  5
17820
330
125AA
100
AcDbEntity
  8
U1
100
AcDbLine
 10
11593.92750789964
 20
6924.443182432327
 30
0.0
 11
11593.92750789964
 21
6915.193182432327
 31
0.0
  0
LINE
  5
17821
330
125AA
100
AcDbEntity
  8
U1
100
AcDbLine
 10
11589.32750789964
 20
6915.193182432327
 30
0.0
 11
11589.32750789964
 21
6924.443182432327
 31
0.0
  0
ARC
  5
17822
330
125AA
100
AcDbEntity
  8
U1
100
AcDbCircle
 10
11605.32750789964
 20
6924.443182432327
 30
0.0
 40
4.0
100
AcDbArc
 50
0.0
 51
90.0
  0
LINE
  5
17823
330
125AA
100
AcDbEntity
  8
U1
100
AcDbLine
 10
11605.32750789964
 20
6928.443182432326
 30
0.0
 11
11597.92750789964
 21
6928.443182432326
 31
0.0
  0
ARC
  5
17824
330
125AA
100
AcDbEntity
  8
U1
100
AcDbCircle
 10
11597.92750789964
 20
6924.443182432327
 30
0.0
 40
4.0
100
AcDbArc
 50
90.0
 51
180.0
  0
LINE
  5
17825
330
125AA
100
AcDbEntity
  8
U1
100
AcDbLine
 10
11609.32750789964
 20
6872.043182432325
 30
0.0
 11
11609.32750789964
 21
6924.443182432327
 31
0.0
  0
ARC
  5
17826
330
125AA
100
AcDbEntity
  8
U1
100
AcDbCircle
 10
11605.32750789964
 20
8682.043182432327
 30
0.0
 40
6.300000000001091
100
AcDbArc
 50
270.0
 51
0.0
  0
LINE
  5
17827
330
125AA
100
AcDbEntity
  8
U1
100
AcDbLine
 10
11605.32750789964
 20
8675.743182432325
 30
0.0
 11
11597.92750789964
 21
8675.743182432325
 31
0.0
  0
ARC
  5
17828
330
125AA
100
AcDbEntity
  8
U1
100
AcDbCircle
 10
11597.92750789964
 20
8682.043182432327
 30
0.0
 40
6.299999999999272
100
AcDbArc
 50
179.9999999999834
 51
270.0
  0
ARC
  5
17829
330
125AA
100
AcDbEntity
  8
U1
100
AcDbCircle
 10
11585.32750789964
 20
8682.043182432328
 30
0.0
 40
6.30000000000291
100
AcDbArc
 50
270.0000000000165
 51
0.0
  0
LINE
  5
1782A
330
125AA
100
AcDbEntity
  8
U1
100
AcDbLine
 10
11585.32750789964
 20
8675.743182432325
 30
0.0
 11
11552.92750789964
 21
8675.743182432325
 31
0.0
  0
ARC
  5
1782B
330
125AA
100
AcDbEntity
  8
U1
100
AcDbCircle
 10
11552.92750789964
 20
8682.043182432327
 30
0.0
 40
6.299999999999272
100
AcDbArc
 50
179.9999999999834
 51
270.0
  0
LINE
  5
1782C
330
125AA
100
AcDbEntity
  8
U1
100
AcDbLine
 10
11546.62750789964
 20
8682.043182432328
 30
0.0
 11
11546.62750789964
 21
8734.443182432327
 31
0.0
  0
ARC
  5
1782D
330
125AA
100
AcDbEntity
  8
U1
100
AcDbCircle
 10
11552.92750789964
 20
8734.443182432327
 30
0.0
 40
6.300000000001091
100
AcDbArc
 50
90.0
 51
180.0
  0
LINE
  5
1782E
330
125AA
100
AcDbEntity
  8
U1
100
AcDbLine
 10
11552.92750789964
 20
8740.743182432327
 30
0.0
 11
11605.32750789964
 21
8740.743182432327
 31
0.0
  0
ARC
  5
1782F
330
125AA
100
AcDbEntity
  8
U1
100
AcDbCircle
 10
11605.32750789964
 20
8734.443182432327
 30
0.0
 40
6.299999999999272
100
AcDbArc
 50
0.0
 51
90.0
  0
LINE
  5
17830
330
125AA
100
AcDbEntity
  8
U1
100
AcDbLine
 10
11611.62750789964
 20
8734.443182432327
 30
0.0
 11
11611.62750789964
 21
8682.043182432327
 31
0.0
  0
ARC
  5
17831
330
125AA
100
AcDbEntity
  8
U1
100
AcDbCircle
 10
9145.32750789964
 20
8682.043182432327
 30
0.0
 40
6.299999999999272
100
AcDbArc
 50
269.9999999999834
 51
0.0
  0
LINE
  5
17832
330
125AA
100
AcDbEntity
  8
U1
100
AcDbLine
 10
9145.327507899638
 20
8675.743182432325
 30
0.0
 11
9137.927507899638
 21
8675.743182432325
 31
0.0
  0
ARC
  5
17833
330
125AA
100
AcDbEntity
  8
U1
100
AcDbCircle
 10
9137.927507899638
 20
8682.043182432327
 30
0.0
 40
6.299999999999272
100
AcDbArc
 50
179.9999999999834
 51
270.0
  0
ARC
  5
17834
330
125AA
100
AcDbEntity
  8
U1
100
AcDbCircle
 10
9125.327507899639
 20
8682.043182432328
 30
0.0
 40
6.300000000001091
100
AcDbArc
 50
270.0
 51
0.0
  0
LINE
  5
17835
330
125AA
100
AcDbEntity
  8
U1
100
AcDbLine
 10
9125.327507899639
 20
8675.743182432325
 30
0.0
 11
9092.927507899638
 21
8675.743182432325
 31
0.0
  0
ARC
  5
17836
330
125AA
100
AcDbEntity
  8
U1
100
AcDbCircle
 10
9092.927507899638
 20
8682.043182432327
 30
0.0
 40
6.299999999999272
100
AcDbArc
 50
179.9999999999834
 51
270.0
  0
LINE
  5
17837
330
125AA
100
AcDbEntity
  8
U1
100
AcDbLine
 10
9086.62750789964
 20
8682.043182432328
 30
0.0
 11
9086.62750789964
 21
8734.443182432327
 31
0.0
  0
ARC
  5
17838
330
125AA
100
AcDbEntity
  8
U1
100
AcDbCircle
 10
9092.927507899638
 20
8734.443182432327
 30
0.0
 40
6.299999999999272
100
AcDbArc
 50
89.99999999998346
 51
180.0
  0
LINE
  5
17839
330
125AA
100
AcDbEntity
  8
U1
100
AcDbLine
 10
9092.92750789964
 20
8740.743182432327
 30
0.0
 11
9145.32750789964
 21
8740.743182432327
 31
0.0
  0
ARC
  5
1783A
330
125AA
100
AcDbEntity
  8
U1
100
AcDbCircle
 10
9145.32750789964
 20
8734.443182432327
 30
0.0
 40
6.299999999999272
100
AcDbArc
 50
0.0
 51
90.0
  0
LINE
  5
1783B
330
125AA
100
AcDbEntity
  8
U1
100
AcDbLine
 10
9151.627507899638
 20
8734.443182432327
 30
0.0
 11
9151.627507899638
 21
8682.043182432327
 31
0.0
  0
ARC
  5
1783C
330
125AA
100
AcDbEntity
  8
U1
100
AcDbCircle
 10
7745.32750789964
 20
8682.043182432327
 30
0.0
 40
6.299999999999272
100
AcDbArc
 50
269.9999999999918
 51
0.0
  0
LINE
  5
1783D
330
125AA
100
AcDbEntity
  8
U1
100
AcDbLine
 10
7745.327507899638
 20
8675.743182432325
 30
0.0
 11
7737.927507899638
 21
8675.743182432325
 31
0.0
  0
ARC
  5
1783E
330
125AA
100
AcDbEntity
  8
U1
100
AcDbCircle
 10
7737.927507899638
 20
8682.043182432327
 30
0.0
 40
6.299999999999272
100
AcDbArc
 50
179.9999999999834
 51
270.0
  0
ARC
  5
1783F
330
125AA
100
AcDbEntity
  8
U1
100
AcDbCircle
 10
7725.327507899638
 20
8682.043182432327
 30
0.0
 40
6.300000000000181
100
AcDbArc
 50
270.0
 51
0.0000000000165429
  0
LINE
  5
17840
330
125AA
100
AcDbEntity
  8
U1
100
AcDbLine
 10
7725.327507899638
 20
8675.743182432325
 30
0.0
 11
7692.927507899638
 21
8675.743182432325
 31
0.0
  0
ARC
  5
17841
330
125AA
100
AcDbEntity
  8
U1
100
AcDbCircle
 10
7692.927507899638
 20
8682.043182432327
 30
0.0
 40
6.299999999999272
100
AcDbArc
 50
179.9999999999834
 51
270.0
  0
LINE
  5
17842
330
125AA
100
AcDbEntity
  8
U1
100
AcDbLine
 10
7686.62750789964
 20
8682.043182432328
 30
0.0
 11
7686.62750789964
 21
8734.443182432327
 31
0.0
  0
ARC
  5
17843
330
125AA
100
AcDbEntity
  8
U1
100
AcDbCircle
 10
7692.927507899638
 20
8734.443182432327
 30
0.0
 40
6.299999999999272
100
AcDbArc
 50
89.99999999999173
 51
180.0
  0
LINE
  5
17844
330
125AA
100
AcDbEntity
  8
U1
100
AcDbLine
 10
7692.927507899638
 20
8740.743182432327
 30
0.0
 11
7745.327507899638
 21
8740.743182432327
 31
0.0
  0
ARC
  5
17845
330
125AA
100
AcDbEntity
  8
U1
100
AcDbCircle
 10
7745.32750789964
 20
8734.443182432327
 30
0.0
 40
6.299999999999272
100
AcDbArc
 50
0.0
 51
90.00000000000827
  0
LINE
  5
17846
330
125AA
100
AcDbEntity
  8
U1
100
AcDbLine
 10
7751.627507899638
 20
8734.443182432327
 30
0.0
 11
7751.627507899638
 21
8682.043182432327
 31
0.0
  0
ARC
  5
17847
330
125AA
100
AcDbEntity
  8
U1
100
AcDbCircle
 10
5232.927507899638
 20
8682.043182432327
 30
0.0
 40
6.300000000000181
100
AcDbArc
 50
179.9999999999834
 51
270.0
  0
LINE
  5
17848
330
125AA
100
AcDbEntity
  8
U1
100
AcDbLine
 10
5232.927507899638
 20
8675.743182432325
 30
0.0
 11
5240.327507899639
 21
8675.743182432325
 31
0.0
  0
ARC
  5
17849
330
125AA
100
AcDbEntity
  8
U1
100
AcDbCircle
 10
5240.327507899639
 20
8682.043182432327
 30
0.0
 40
6.299999999999272
100
AcDbArc
 50
270.0
 51
0.0000000000165429
  0
ARC
  5
1784A
330
125AA
100
AcDbEntity
  8
U1
100
AcDbCircle
 10
5252.927507899639
 20
8682.043182432327
 30
0.0
 40
6.300000000000181
100
AcDbArc
 50
179.9999999999834
 51
270.0
  0
LINE
  5
1784B
330
125AA
100
AcDbEntity
  8
U1
100
AcDbLine
 10
5252.927507899639
 20
8675.743182432325
 30
0.0
 11
5285.327507899638
 21
8675.743182432325
 31
0.0
  0
ARC
  5
1784C
330
125AA
100
AcDbEntity
  8
U1
100
AcDbCircle
 10
5285.32750789964
 20
8682.043182432327
 30
0.0
 40
6.299999999999272
100
AcDbArc
 50
269.9999999999918
 51
0.0
  0
LINE
  5
1784D
330
125AA
100
AcDbEntity
  8
U1
100
AcDbLine
 10
5291.627507899638
 20
8682.043182432327
 30
0.0
 11
5291.627507899638
 21
8734.443182432327
 31
0.0
  0
ARC
  5
1784E
330
125AA
100
AcDbEntity
  8
U1
100
AcDbCircle
 10
5285.32750789964
 20
8734.443182432327
 30
0.0
 40
6.299999999999272
100
AcDbArc
 50
0.0
 51
90.00000000000827
  0
LINE
  5
1784F
330
125AA
100
AcDbEntity
  8
U1
100
AcDbLine
 10
5285.327507899638
 20
8740.743182432327
 30
0.0
 11
5232.927507899638
 21
8740.743182432327
 31
0.0
  0
ARC
  5
17850
330
125AA
100
AcDbEntity
  8
U1
100
AcDbCircle
 10
5232.927507899638
 20
8734.443182432327
 30
0.0
 40
6.299999999999272
100
AcDbArc
 50
89.99999999999173
 51
180.0
  0
LINE
  5
17851
330
125AA
100
AcDbEntity
  8
U1
100
AcDbLine
 10
5226.627507899639
 20
8734.443182432327
 30
0.0
 11
5226.627507899639
 21
8682.043182432328
 31
0.0
  0
ARC
  5
17852
330
125AA
100
AcDbEntity
  8
U1
100
AcDbCircle
 10
7745.32750789964
 20
6924.443182432327
 30
0.0
 40
6.299999999999272
100
AcDbArc
 50
359.9999999999917
 51
90.00000000000827
  0
LINE
  5
17853
330
125AA
100
AcDbEntity
  8
U1
100
AcDbLine
 10
7745.327507899638
 20
6930.743182432327
 30
0.0
 11
7737.927507899638
 21
6930.743182432327
 31
0.0
  0
ARC
  5
17854
330
125AA
100
AcDbEntity
  8
U1
100
AcDbCircle
 10
7737.927507899638
 20
6924.443182432327
 30
0.0
 40
6.299999999999272
100
AcDbArc
 50
89.99999999999173
 51
180.0000000000082
  0
ARC
  5
17855
330
125AA
100
AcDbEntity
  8
U1
100
AcDbCircle
 10
7725.327507899638
 20
6924.443182432327
 30
0.0
 40
6.300000000000181
100
AcDbArc
 50
0.0
 51
90.0
  0
LINE
  5
17856
330
125AA
100
AcDbEntity
  8
U1
100
AcDbLine
 10
7725.327507899638
 20
6930.743182432327
 30
0.0
 11
7692.927507899638
 21
6930.743182432327
 31
0.0
  0
ARC
  5
17857
330
125AA
100
AcDbEntity
  8
U1
100
AcDbCircle
 10
7692.927507899638
 20
6924.443182432327
 30
0.0
 40
6.299999999999272
100
AcDbArc
 50
89.99999999999173
 51
180.0000000000082
  0
LINE
  5
17858
330
125AA
100
AcDbEntity
  8
U1
100
AcDbLine
 10
7686.62750789964
 20
6924.443182432327
 30
0.0
 11
7686.62750789964
 21
6872.043182432325
 31
0.0
  0
ARC
  5
17859
330
125AA
100
AcDbEntity
  8
U1
100
AcDbCircle
 10
7692.927507899638
 20
6872.043182432325
 30
0.0
 40
6.299999999999272
100
AcDbArc
 50
180.0
 51
270.0000000000082
  0
LINE
  5
1785A
330
125AA
100
AcDbEntity
  8
U1
100
AcDbLine
 10
7692.927507899638
 20
6865.743182432327
 30
0.0
 11
7745.327507899638
 21
6865.743182432327
 31
0.0
  0
ARC
  5
1785B
330
125AA
100
AcDbEntity
  8
U1
100
AcDbCircle
 10
7745.32750789964
 20
6872.043182432325
 30
0.0
 40
6.299999999999272
100
AcDbArc
 50
269.9999999999918
 51
0.0
  0
LINE
  5
1785C
330
125AA
100
AcDbEntity
  8
U1
100
AcDbLine
 10
7751.627507899638
 20
6872.043182432325
 30
0.0
 11
7751.627507899638
 21
6924.443182432327
 31
0.0
  0
ARC
  5
1785D
330
125AA
100
AcDbEntity
  8
U1
100
AcDbCircle
 10
5232.927507899638
 20
6924.443182432327
 30
0.0
 40
6.299999999999272
100
AcDbArc
 50
89.99999999999173
 51
180.0000000000082
  0
LINE
  5
1785E
330
125AA
100
AcDbEntity
  8
U1
100
AcDbLine
 10
5232.927507899638
 20
6930.743182432327
 30
0.0
 11
5240.327507899639
 21
6930.743182432327
 31
0.0
  0
ARC
  5
1785F
330
125AA
100
AcDbEntity
  8
U1
100
AcDbCircle
 10
5240.327507899639
 20
6924.443182432327
 30
0.0
 40
6.299999999999272
100
AcDbArc
 50
359.9999999999917
 51
90.00000000000827
  0
ARC
  5
17860
330
125AA
100
AcDbEntity
  8
U1
100
AcDbCircle
 10
5252.927507899639
 20
6924.443182432327
 30
0.0
 40
6.300000000000181
100
AcDbArc
 50
90.0
 51
180.0
  0
LINE
  5
17861
330
125AA
100
AcDbEntity
  8
U1
100
AcDbLine
 10
5252.927507899639
 20
6930.743182432327
 30
0.0
 11
5285.327507899638
 21
6930.743182432327
 31
0.0
  0
ARC
  5
17862
330
125AA
100
AcDbEntity
  8
U1
100
AcDbCircle
 10
5285.32750789964
 20
6924.443182432327
 30
0.0
 40
6.299999999999272
100
AcDbArc
 50
359.9999999999917
 51
90.00000000000827
  0
LINE
  5
17863
330
125AA
100
AcDbEntity
  8
U1
100
AcDbLine
 10
5291.627507899638
 20
6924.443182432327
 30
0.0
 11
5291.627507899638
 21
6872.043182432325
 31
0.0
  0
ARC
  5
17864
330
125AA
100
AcDbEntity
  8
U1
100
AcDbCircle
 10
5285.32750789964
 20
6872.043182432325
 30
0.0
 40
6.299999999999272
100
AcDbArc
 50
269.9999999999918
 51
0.0
  0
LINE
  5
17865
330
125AA
100
AcDbEntity
  8
U1
100
AcDbLine
 10
5285.327507899638
 20
6865.743182432327
 30
0.0
 11
5232.927507899638
 21
6865.743182432327
 31
0.0
  0
ARC
  5
17866
330
125AA
100
AcDbEntity
  8
U1
100
AcDbCircle
 10
5232.927507899638
 20
6872.043182432325
 30
0.0
 40
6.299999999999272
100
AcDbArc
 50
180.0
 51
270.0000000000082
  0
LINE
  5
17867
330
125AA
100
AcDbEntity
  8
U1
100
AcDbLine
 10
5226.627507899639
 20
6872.043182432325
 30
0.0
 11
5226.627507899639
 21
6924.443182432327
 31
0.0
  0
ARC
  5
17868
330
125AA
100
AcDbEntity
  8
U1
100
AcDbCircle
 10
9145.32750789964
 20
6924.443182432327
 30
0.0
 40
6.299999999999272
100
AcDbArc
 50
0.0
 51
90.00000000001655
  0
LINE
  5
17869
330
125AA
100
AcDbEntity
  8
U1
100
AcDbLine
 10
9145.327507899638
 20
6930.743182432327
 30
0.0
 11
9137.92750789964
 21
6930.743182432327
 31
0.0
  0
ARC
  5
1786A
330
125AA
100
AcDbEntity
  8
U1
100
AcDbCircle
 10
9137.927507899638
 20
6924.443182432327
 30
0.0
 40
6.300000000000181
100
AcDbArc
 50
89.99999999998346
 51
180.0
  0
ARC
  5
1786B
330
125AA
100
AcDbEntity
  8
U1
100
AcDbCircle
 10
9125.327507899639
 20
6924.443182432327
 30
0.0
 40
6.299999999999272
100
AcDbArc
 50
0.0
 51
90.00000000001655
  0
LINE
  5
1786C
330
125AA
100
AcDbEntity
  8
U1
100
AcDbLine
 10
9125.327507899639
 20
6930.743182432327
 30
0.0
 11
9092.92750789964
 21
6930.743182432327
 31
0.0
  0
ARC
  5
1786D
330
125AA
100
AcDbEntity
  8
U1
100
AcDbCircle
 10
9092.927507899638
 20
6924.443182432327
 30
0.0
 40
6.300000000000181
100
AcDbArc
 50
89.99999999998346
 51
180.0
  0
LINE
  5
1786E
330
125AA
100
AcDbEntity
  8
U1
100
AcDbLine
 10
9086.62750789964
 20
6924.443182432327
 30
0.0
 11
9086.62750789964
 21
6872.043182432325
 31
0.0
  0
ARC
  5
1786F
330
125AA
100
AcDbEntity
  8
U1
100
AcDbCircle
 10
9092.927507899638
 20
6872.043182432327
 30
0.0
 40
6.299999999999272
100
AcDbArc
 50
180.0000000000082
 51
270.0000000000165
  0
LINE
  5
17870
330
125AA
100
AcDbEntity
  8
U1
100
AcDbLine
 10
9092.92750789964
 20
6865.743182432327
 30
0.0
 11
9145.327507899638
 21
6865.743182432327
 31
0.0
  0
ARC
  5
17871
330
125AA
100
AcDbEntity
  8
U1
100
AcDbCircle
 10
9145.32750789964
 20
6872.043182432327
 30
0.0
 40
6.300000000000181
100
AcDbArc
 50
269.9999999999834
 51
359.9999999999917
  0
LINE
  5
17872
330
125AA
100
AcDbEntity
  8
U1
100
AcDbLine
 10
9151.627507899638
 20
6872.043182432325
 30
0.0
 11
9151.627507899638
 21
6924.443182432327
 31
0.0
  0
ARC
  5
17873
330
125AA
100
AcDbEntity
  8
U1
100
AcDbCircle
 10
11605.32750789964
 20
6924.443182432327
 30
0.0
 40
6.299999999999272
100
AcDbArc
 50
359.9999999999917
 51
90.0
  0
LINE
  5
17874
330
125AA
100
AcDbEntity
  8
U1
100
AcDbLine
 10
11605.32750789964
 20
6930.743182432327
 30
0.0
 11
11597.92750789964
 21
6930.743182432327
 31
0.0
  0
ARC
  5
17875
330
125AA
100
AcDbEntity
  8
U1
100
AcDbCircle
 10
11597.92750789964
 20
6924.443182432327
 30
0.0
 40
6.299999999999272
100
AcDbArc
 50
90.0
 51
180.0000000000082
  0
ARC
  5
17876
330
125AA
100
AcDbEntity
  8
U1
100
AcDbCircle
 10
11585.32750789964
 20
6924.443182432327
 30
0.0
 40
6.299999999999272
100
AcDbArc
 50
359.9999999999917
 51
90.0
  0
LINE
  5
17877
330
125AA
100
AcDbEntity
  8
U1
100
AcDbLine
 10
11585.32750789964
 20
6930.743182432327
 30
0.0
 11
11552.92750789964
 21
6930.743182432327
 31
0.0
  0
ARC
  5
17878
330
125AA
100
AcDbEntity
  8
U1
100
AcDbCircle
 10
11552.92750789964
 20
6924.443182432327
 30
0.0
 40
6.299999999999272
100
AcDbArc
 50
90.0
 51
180.0000000000082
  0
LINE
  5
17879
330
125AA
100
AcDbEntity
  8
U1
100
AcDbLine
 10
11546.62750789964
 20
6924.443182432327
 30
0.0
 11
11546.62750789964
 21
6872.043182432325
 31
0.0
  0
ARC
  5
1787A
330
125AA
100
AcDbEntity
  8
U1
100
AcDbCircle
 10
11552.92750789964
 20
6872.043182432325
 30
0.0
 40
6.299999999999272
100
AcDbArc
 50
180.0
 51
270.0
  0
LINE
  5
1787B
330
125AA
100
AcDbEntity
  8
U1
100
AcDbLine
 10
11552.92750789964
 20
6865.743182432327
 30
0.0
 11
11605.32750789964
 21
6865.743182432327
 31
0.0
  0
ARC
  5
1787C
330
125AA
100
AcDbEntity
  8
U1
100
AcDbCircle
 10
11605.32750789964
 20
6872.043182432325
 30
0.0
 40
6.299999999999272
100
AcDbArc
 50
270.0
 51
0.0
  0
LINE
  5
1787D
330
125AA
100
AcDbEntity
  8
U1
100
AcDbLine
 10
11611.62750789964
 20
6872.043182432325
 30
0.0
 11
11611.62750789964
 21
6924.443182432327
 31
0.0
  0
ENDSEC
  0
SECTION
  2
OBJECTS
  0
DICTIONARY
  5
1259E
330
0
100
AcDbDictionary
281
     1
  3
ACAD_COLOR
350
12AC1
  3
ACAD_GROUP
350
1259F
  3
ACAD_LAYOUT
350
1297B
  3
ACAD_MATERIAL
350
12AC0
  3
ACAD_MLEADERSTYLE
350
16F9A
  3
ACAD_MLINESTYLE
350
125A0
  3
ACAD_PLOTSETTINGS
350
1297C
  3
ACAD_PLOTSTYLENAME
350
12979
  3
ACAD_SCALELIST
350
16F78
  3
ACAD_TABLESTYLE
350
15B34
  3
ACAD_VISUALSTYLE
350
15B23
  3
ACDB_RECOMPOSE_DATA
350
17886
  3
AcDbVariableDictionary
350
13B02
  0
DICTIONARY
  5
15B8E
330
1259A
100
AcDbDictionary
280
     1
281
     1
  0
DICTIONARY
  5
16FA9
330
125A1
100
AcDbDictionary
280
     1
281
     1
  3
ADSK_XREC_LAYER_RECONCILED
360
16FAA
  0
DICTIONARY
  5
16FAD
330
125C8
100
AcDbDictionary
280
     1
281
     1
  3
ADSK_XREC_LAYER_RECONCILED
360
16FAE
  0
DICTIONARY
  5
16FB1
330
125CA
100
AcDbDictionary
280
     1
281
     1
  3
ADSK_XREC_LAYER_RECONCILED
360
16FB2
  0
DICTIONARY
  5
16FBF
330
125D1
100
AcDbDictionary
280
     1
281
     1
  3
ADSK_XREC_LAYER_RECONCILED
360
16FC0
  0
DICTIONARY
  5
16FC1
330
125D2
100
AcDbDictionary
280
     1
281
     1
  3
ADSK_XREC_LAYER_RECONCILED
360
16FC2
  0
DICTIONARY
  5
16FE7
330
125E5
100
AcDbDictionary
280
     1
281
     1
  3
ADSK_XREC_LAYER_RECONCILED
360
16FE8
  0
DICTIONARY
  5
1700B
330
12ACD
100
AcDbDictionary
280
     1
281
     1
  3
ADSK_XREC_LAYER_RECONCILED
360
1700C
  0
DICTIONARY
  5
1700D
330
12ACE
100
AcDbDictionary
280
     1
281
     1
  3
ADSK_XREC_LAYER_RECONCILED
360
1700E
  0
DICTIONARY
  5
1700F
330
12C5C
100
AcDbDictionary
280
     1
281
     1
  3
ADSK_XREC_LAYER_RECONCILED
360
17010
  0
DICTIONARY
  5
17011
330
12C5D
100
AcDbDictionary
280
     1
281
     1
  3
ADSK_XREC_LAYER_RECONCILED
360
17012
  0
DICTIONARY
  5
17037
330
12C70
100
AcDbDictionary
280
     1
281
     1
  3
ADSK_XREC_LAYER_RECONCILED
360
17038
  0
DICTIONARY
  5
17047
330
15354
100
AcDbDictionary
280
     1
281
     1
  3
ADSK_XREC_LAYER_RECONCILED
360
17048
  0
DICTIONARY
  5
17049
330
15355
100
AcDbDictionary
280
     1
281
     1
  3
ADSK_XREC_LAYER_RECONCILED
360
1704A
  0
DICTIONARY
  5
1704B
330
15356
100
AcDbDictionary
280
     1
281
     1
  3
ADSK_XREC_LAYER_RECONCILED
360
1704C
  0
DICTIONARY
  5
1704D
330
15357
100
AcDbDictionary
280
     1
281
     1
  3
ADSK_XREC_LAYER_RECONCILED
360
1704E
  0
DICTIONARY
  5
1704F
330
16FA0
100
AcDbDictionary
280
     1
281
     1
  3
ADSK_XREC_LAYER_RECONCILED
360
17050
  0
DICTIONARY
  5
17053
330
16FA2
100
AcDbDictionary
280
     1
281
     1
  3
ADSK_XREC_LAYER_RECONCILED
360
17054
  0
DICTIONARY
  5
17055
330
16FA3
100
AcDbDictionary
280
     1
281
     1
  3
ADSK_XREC_LAYER_RECONCILED
360
17056
  0
DICTIONARY
  5
17057
330
16FA4
100
AcDbDictionary
280
     1
281
     1
  3
ADSK_XREC_LAYER_RECONCILED
360
17058
  0
DICTIONARY
  5
17059
330
16FA5
100
AcDbDictionary
280
     1
281
     1
  3
ADSK_XREC_LAYER_RECONCILED
360
1705A
  0
DICTIONARY
  5
129B1
330
125AA
100
AcDbDictionary
280
     1
281
     1
  3
ACAD_LAYOUTSELFREF
360
12A86
  3
ACAD_SORTENTS
360
17340
  0
DICTIONARY
  5
129AF
330
125A7
100
AcDbDictionary
280
     1
281
     1
  3
ACAD_LAYOUTSELFREF
360
12A85
  0
DICTIONARY
  5
12AC1
102
{ACAD_REACTORS
330
1259E
102
}
330
1259E
100
AcDbDictionary
281
     1
  0
DICTIONARY
  5
1259F
102
{ACAD_REACTORS
330
1259E
102
}
330
1259E
100
AcDbDictionary
281
     1
  0
DICTIONARY
  5
1297B
102
{ACAD_REACTORS
330
1259E
102
}
330
1259E
100
AcDbDictionary
281
     1
  3
Model
350
1297D
  3
ﾚｲｱｳﾄ1
350
1297E
  0
DICTIONARY
  5
12AC0
102
{ACAD_REACTORS
330
1259E
102
}
330
1259E
100
AcDbDictionary
281
     1
  3
ByBlock
350
15B21
  3
ByLayer
350
15B20
  3
Global
350
15B22
  0
DICTIONARY
  5
16F9A
102
{ACAD_REACTORS
330
1259E
102
}
330
1259E
100
AcDbDictionary
281
     1
  3
Standard
350
16F9B
  0
DICTIONARY
  5
125A0
102
{ACAD_REACTORS
330
1259E
102
}
330
1259E
100
AcDbDictionary
281
     1
  3
STANDARD
350
125AD
  0
DICTIONARY
  5
1297C
102
{ACAD_REACTORS
330
1259E
102
}
330
1259E
100
AcDbDictionary
281
     1
  0
ACDBDICTIONARYWDFLT
  5
12979
102
{ACAD_REACTORS
330
1259E
102
}
330
1259E
100
AcDbDictionary
281
     1
  3
Normal
350
1297A
100
AcDbDictionaryWithDefault
340
1297A
1001
ACAD
1000
TREAT_AS_HARD
1070
     0
1000
TREAT_AS_HARD
1070
     0
1000
TREAT_AS_HARD
1070
     0
  0
DICTIONARY
  5
16F78
102
{ACAD_REACTORS
330
1259E
102
}
330
1259E
100
AcDbDictionary
281
     1
  3
A0
350
16F79
  3
A1
350
16F7A
  3
A2
350
16F7B
  3
A3
350
16F7C
  3
A4
350
16F7D
  3
A5
350
16F7E
  3
A6
350
16F7F
  3
A7
350
16F80
  3
A8
350
16F81
  3
A9
350
16F82
  3
B0
350
16F83
  3
B1
350
16F84
  3
B2
350
16F85
  3
B3
350
16F86
  3
B4
350
16F87
  3
B5
350
16F88
  3
B6
350
16F89
  3
B7
350
16F8A
  3
B8
350
16F8B
  3
B9
350
16F8C
  3
C0
350
16F8D
  3
C1
350
16F8E
  3
C2
350
16F8F
  3
C3
350
16F90
  3
C4
350
16F91
  3
C5
350
16F92
  3
C6
350
16F93
  3
C7
350
16F94
  3
C8
350
16F95
  3
C9
350
16F96
  3
D0
350
16F97
  3
D1
350
16F98
  3
D2
350
16F99
  0
DICTIONARY
  5
15B34
102
{ACAD_REACTORS
330
1259E
102
}
330
1259E
100
AcDbDictionary
281
     1
  3
Standard
350
15B35
  0
DICTIONARY
  5
15B23
102
{ACAD_REACTORS
330
1259E
102
}
330
1259E
100
AcDbDictionary
281
     1
  3
2dWireframe
350
15B29
  3
3D Hidden
350
15B2B
  3
3dWireframe
350
15B2A
  3
Basic
350
15B28
  3
Brighten
350
15B2F
  3
ColorChange
350
15B33
  3
Conceptual
350
15B2C
  3
Dim
350
15B2E
  3
EdgeColorOff
350
16F77
  3
Facepattern
350
15B32
  3
Flat
350
15B24
  3
FlatWithEdges
350
15B25
  3
Gouraud
350
15B26
  3
GouraudWithEdges
350
15B27
  3
JitterOff
350
16F75
  3
Linepattern
350
15B31
  3
OverhangOff
350
16F76
  3
Realistic
350
15B2D
  3
Thicken
350
15B30
  0
XRECORD
  5
17886
102
{ACAD_REACTORS
330
1259E
102
}
330
1259E
100
AcDbXrecord
280
     1
 90
        1
330
15B35
  0
DICTIONARY
  5
13B02
102
{ACAD_REACTORS
330
1259E
102
}
330
1259E
100
AcDbDictionary
281
     1
  3
CANNOSCALE
350
17880
  3
CMLEADERSTYLE
350
1787E
  3
CTABLESTYLE
350
15C50
  3
DIMASSOC
350
13B03
  3
INDEXCTL
350
15C52
  3
LAYEREVAL
350
17882
  3
LAYERNOTIFY
350
17883
  3
LIGHTINGUNITS
350
17881
  3
MSLTSCALE
350
1787F
  3
PROJECTNAME
350
13B04
  3
SORTENTS
350
15C51
  0
XRECORD
  5
16FAA
102
{ACAD_REACTORS
330
16FA9
102
}
330
16FA9
100
AcDbXrecord
280
     1
290
     1
  0
XRECORD
  5
16FAE
102
{ACAD_REACTORS
330
16FAD
102
}
330
16FAD
100
AcDbXrecord
280
     1
290
     1
  0
XRECORD
  5
16FB2
102
{ACAD_REACTORS
330
16FB1
102
}
330
16FB1
100
AcDbXrecord
280
     1
290
     1
  0
XRECORD
  5
16FC0
102
{ACAD_REACTORS
330
16FBF
102
}
330
16FBF
100
AcDbXrecord
280
     1
290
     1
  0
XRECORD
  5
16FC2
102
{ACAD_REACTORS
330
16FC1
102
}
330
16FC1
100
AcDbXrecord
280
     1
290
     1
  0
XRECORD
  5
16FE8
102
{ACAD_REACTORS
330
16FE7
102
}
330
16FE7
100
AcDbXrecord
280
     1
290
     1
  0
XRECORD
  5
1700C
102
{ACAD_REACTORS
330
1700B
102
}
330
1700B
100
AcDbXrecord
280
     1
290
     1
  0
XRECORD
  5
1700E
102
{ACAD_REACTORS
330
1700D
102
}
330
1700D
100
AcDbXrecord
280
     1
290
     1
  0
XRECORD
  5
17010
102
{ACAD_REACTORS
330
1700F
102
}
330
1700F
100
AcDbXrecord
280
     1
290
     1
  0
XRECORD
  5
17012
102
{ACAD_REACTORS
330
17011
102
}
330
17011
100
AcDbXrecord
280
     1
290
     1
  0
XRECORD
  5
17038
102
{ACAD_REACTORS
330
17037
102
}
330
17037
100
AcDbXrecord
280
     1
290
     1
  0
XRECORD
  5
17048
102
{ACAD_REACTORS
330
17047
102
}
330
17047
100
AcDbXrecord
280
     1
290
     1
  0
XRECORD
  5
1704A
102
{ACAD_REACTORS
330
17049
102
}
330
17049
100
AcDbXrecord
280
     1
290
     1
  0
XRECORD
  5
1704C
102
{ACAD_REACTORS
330
1704B
102
}
330
1704B
100
AcDbXrecord
280
     1
290
     1
  0
XRECORD
  5
1704E
102
{ACAD_REACTORS
330
1704D
102
}
330
1704D
100
AcDbXrecord
280
     1
290
     1
  0
XRECORD
  5
17050
102
{ACAD_REACTORS
330
1704F
102
}
330
1704F
100
AcDbXrecord
280
     1
290
     1
  0
XRECORD
  5
17054
102
{ACAD_REACTORS
330
17053
102
}
330
17053
100
AcDbXrecord
280
     1
290
     1
  0
XRECORD
  5
17056
102
{ACAD_REACTORS
330
17055
102
}
330
17055
100
AcDbXrecord
280
     1
290
     1
  0
XRECORD
  5
17058
102
{ACAD_REACTORS
330
17057
102
}
330
17057
100
AcDbXrecord
280
     1
290
     1
  0
XRECORD
  5
1705A
102
{ACAD_REACTORS
330
17059
102
}
330
17059
100
AcDbXrecord
280
     1
290
     1
  0
XRECORD
  5
12A86
102
{ACAD_REACTORS
330
129B1
102
}
330
129B1
100
AcDbXrecord
280
     1
340
125AA
  0
SORTENTSTABLE
  5
17340
102
{ACAD_REACTORS
330
129B1
102
}
330
129B1
100
AcDbSortentsTable
330
125AA
331
17798
  5
17675
331
177BA
  5
17624
331
177DC
  5
175CA
331
176CD
  5
1783A
331
175DE
  5
1781C
331
177FE
  5
17542
331
176EF
  5
17763
331
17364
  5
15484
331
16790
  5
1778C
331
17818
  5
17520
331
16EA1
  5
177C3
331
17711
  5
176B1
331
1774B
  5
1786D
331
17622
  5
17718
331
1783A
  5
17640
331
16EC3
  5
177E5
331
16EE5
  5
17841
331
1776D
  5
17721
331
1763C
  5
176C4
331
1785C
  5
175C4
331
1765E
  5
17840
331
17680
  5
17780
331
1778F
  5
1766A
331
176A2
  5
176E4
331
177A9
  5
1764E
331
176BC
  5
1769C
331
177CB
  5
175FA
331
175CD
  5
17839
331
177ED
  5
1758A
331
176DE
  5
17807
331
175EF
  5
177F9
331
1780F
  5
1756F
331
1773A
  5
17843
331
17829
  5
17658
331
16EB2
  5
177D4
331
16ED4
  5
177F6
331
1775C
  5
1773B
331
1784B
  5
175EA
331
1786D
  5
17550
331
17700
  5
176DD
331
1734F
  5
1546F
331
16EF6
  5
1785F
331
1777E
  5
176EE
331
1764D
  5
17692
331
1766F
  5
17819
331
1546D
  5
174E4
331
177B8
  5
1761F
331
177DA
  5
175C8
331
176CB
  5
1783D
331
176ED
  5
1776A
331
177FC
  5
175AB
331
17362
  5
15482
331
1678E
  5
1778A
331
17816
  5
1751D
331
16E9F
  5
177C1
331
1770F
  5
176B4
331
17749
  5
17872
331
17838
  5
1763E
331
16EC1
  5
177E3
331
1776B
  5
1771D
331
1763A
  5
176C2
331
1785A
  5
175C2
331
1767E
  5
17783
331
1778D
  5
17668
331
1787C
  5
17517
331
176A0
  5
176E7
331
177A7
  5
1764C
331
177C9
  5
175F8
331
175CB
  5
17837
331
176DC
  5
1780A
331
177EB
  5
1757B
331
176FE
  5
17730
331
1780D
  5
1756C
331
1734D
  5
1546D
331
16E96
  5
177B8
331
17738
  5
17855
331
1679F
  5
1779B
331
1760F
  5
1774D
331
17827
  5
17656
331
16EB0
  5
177D2
331
16ED2
  5
177F4
331
1775A
  5
177A5
331
17849
  5
175E8
331
1777C
  5
176F4
331
1786B
  5
1754E
331
1766D
  5
1781A
331
1548D
  5
176AB
331
1768F
  5
17762
331
1735E
  5
1547E
331
176EB
  5
1776D
331
177FA
  5
175A6
331
17360
  5
15480
331
1678C
  5
17788
331
175FC
  5
17772
331
16E9D
  5
177BF
331
1770D
  5
176BB
331
17747
  5
17870
331
17836
  5
17639
331
16EBF
  5
177E1
331
16EE1
  5
17830
331
17769
  5
17725
331
17858
  5
175B8
331
1765A
  5
17679
331
1787A
  5
17515
331
16F03
  5
1787A
331
1778B
  5
17666
331
1767C
  5
17784
331
1769E
  5
17731
331
177C7
  5
175F6
331
177A5
  5
1764A
331
176DA
  5
17815
331
177E9
  5
175E0
331
16DBA
  5
177A3
331
175EB
  5
17805
331
1780B
  5
17567
331
176FC
  5
17733
331
1734B
  5
174E0
331
16E94
  5
177B6
331
17736
  5
17853
331
1679D
  5
17799
331
1760D
  5
1774B
331
17825
  5
17541
331
16EAE
  5
177D0
331
1771E
  5
1767D
331
16ED0
  5
177F2
331
17758
  5
177A9
331
1762F
  5
176D7
331
17847
  5
175E5
331
1766B
  5
17821
331
1777A
  5
176F2
331
17869
  5
17548
331
1768D
  5
17765
331
177B6
  5
1761D
331
159C6
  5
1775A
331
1735C
  5
1547C
331
175D8
  5
17826
331
177F8
  5
175A1
331
176E9
  5
17774
331
17723
  5
1785D
331
1678A
  5
17786
331
16E9B
  5
177BD
331
1770B
  5
176BE
331
17745
  5
17874
331
167A4
  5
177A0
331
1761C
  5
1772D
331
17834
  5
17637
331
16EBD
  5
177DF
331
17767
  5
17723
331
17636
  5
176CE
331
17856
  5
175B5
331
17658
  5
17677
331
17878
  5
17511
331
17789
  5
17664
331
1769C
  5
17734
331
177A3
  5
17648
331
176B6
  5
176BD
331
177C5
  5
175F3
331
17812
  5
174F6
331
176D8
  5
17818
331
177E7
  5
175DD
331
175E9
  5
17803
331
17809
  5
17564
331
176FA
  5
17745
331
17349
  5
174DE
331
16E92
  5
177B4
331
17734
  5
17856
331
1679B
  5
17797
331
17823
  5
1753C
331
16EAC
  5
177CE
331
16ECE
  5
177F0
331
17756
  5
177A7
331
1762D
  5
176E5
331
17845
  5
17610
331
16EF0
  5
17850
331
17778
  5
176F8
331
17647
  5
176AF
331
17867
  5
17589
331
17669
  5
17824
331
15489
  5
176A9
331
1768B
  5
17766
331
177B4
  5
1761B
331
177D6
  5
175AD
331
1771C
  5
17680
331
1735A
  5
1547A
331
16E99
  5
177BB
331
17709
  5
176C5
331
17810
  5
17574
331
17743
  5
17878
331
167A2
  5
1779E
331
17832
  5
17635
331
16EBB
  5
177DD
331
17765
  5
17728
331
17634
  5
176CC
331
17854
  5
175B1
331
154A8
  5
176E1
331
17787
  5
17654
331
17876
  5
17504
331
1769A
  5
17737
331
177A1
  5
17646
331
176B4
  5
176C0
331
177C3
  5
175E2
331
177E5
  5
175D9
331
176D6
  5
17820
331
176F8
  5
17748
331
17807
  5
17561
331
16E90
  5
177B2
331
17732
  5
17858
331
16799
  5
17795
331
17609
  5
1775F
331
17821
  5
1753A
331
16EAA
  5
177CC
331
16ECC
  5
177EE
331
17754
  5
177AC
331
1762B
  5
176E8
331
17843
  5
1760E
331
16EEE
  5
1784E
331
17776
  5
176F6
331
17865
  5
17584
331
17667
  5
1782A
331
15487
  5
176A5
331
177B2
  5
17616
331
176C5
  5
1768A
331
177D4
  5
17603
331
175D6
  5
17833
331
177F6
  5
1759F
331
176E7
  5
17777
331
1771A
  5
17689
331
17358
  5
15478
331
1736D
  5
154A1
331
17347
  5
174DC
331
17741
  5
17876
331
167A0
  5
1779C
331
17830
  5
17663
331
16EB9
  5
177DB
331
16EDB
  5
1780F
331
17763
  5
17726
331
17852
  5
175AF
331
17676
  5
17808
331
17785
  5
176ED
331
17654
  5
17685
331
17874
  5
17502
331
154C8
  5
17759
331
1779F
  5
17644
331
176B2
  5
176C1
331
177C1
  5
17631
331
177E3
  5
175D7
331
176D4
  5
17823
331
175E5
  5
17813
331
17805
  5
1755F
331
176F6
  5
17750
331
17730
  5
1785A
331
16797
  5
17793
331
17607
  5
1775D
331
1781F
  5
17535
331
16EA8
  5
177CA
331
17718
  5
1768C
331
16ECA
  5
177EC
331
17752
  5
177B0
331
17629
  5
176E9
331
17841
  5
1760C
331
16EEC
  5
1784C
331
17774
  5
176FC
331
17863
  5
17582
331
17665
  5
1782D
331
15485
  5
176A3
331
154B7
  5
1770F
331
17796
  5
17671
331
176C3
  5
1768D
331
177D2
  5
17601
331
175D4
  5
17831
331
177F4
  5
1759B
331
176E5
  5
1777E
331
17356
  5
15476
331
1736B
  5
1548D
331
175F6
  5
1777C
331
17707
  5
176C8
331
17345
  5
174DA
331
16ED9
  5
1780D
331
17761
  5
1772A
331
17630
  5
176D8
331
17850
  5
175F1
331
17872
  5
17558
331
16EFB
  5
17868
331
17783
  5
176EB
331
17652
  5
17683
331
17674
  5
1780B
331
154C6
  5
17757
331
1779D
  5
17642
331
177BF
  5
1762C
331
177E1
  5
175CF
331
15472
  5
174E9
331
176D2
  5
17829
331
175E3
  5
17811
331
17803
  5
1755C
331
176F4
  5
17753
331
16E8C
  5
177AA
331
1772E
  5
17866
331
16795
  5
17791
331
1781D
  5
1752C
331
16EA6
  5
177C8
331
17750
  5
177AE
331
17627
  5
17709
331
1783F
  5
1760A
331
17716
  5
17695
331
17354
  5
15474
331
17369
  5
15489
331
16EC8
  5
177EA
331
16EEA
  5
1784A
331
17772
  5
176FA
331
17641
  5
176B9
331
17861
  5
17580
331
17663
  5
1782E
331
15483
  5
176A1
331
17685
  5
17776
331
17794
  5
1766F
331
176A7
  5
176DB
331
177AE
  5
17605
331
176C1
  5
1768E
331
177D0
  5
175FF
331
175D2
  5
17835
331
177F2
  5
17596
331
176E3
  5
17781
331
17705
  5
176CF
331
1773F
  5
1787C
331
17616
  5
17742
331
1782E
  5
1765D
331
16EB7
  5
177D9
331
17343
  5
174D8
331
12AE0
  5
174E2
331
17870
  5
17556
331
16EF9
  5
17862
331
17781
  5
176F1
331
17672
  5
1780C
331
17694
  5
17751
331
1779B
  5
17633
331
177BD
  5
1762A
331
177DF
  5
175CD
331
15470
  5
174E7
331
176D0
  5
1782C
331
176F2
  5
17761
331
17801
  5
17559
331
1772C
  5
17864
331
16793
  5
1778F
331
17603
  5
17769
331
1781B
  5
17526
331
16EA4
  5
177C6
331
17714
  5
1769A
331
1774E
  5
1786A
331
17625
  5
17707
331
1783D
  5
17608
331
16EC6
  5
177E8
331
16EE8
  5
17848
331
17770
  5
17700
331
1785F
  5
1757E
331
15481
  5
1769F
331
17683
  5
17779
331
154B3
  5
17705
331
17792
  5
1766D
331
176A5
  5
176DE
331
177AC
  5
17651
331
177CE
  5
175FD
331
176E1
  5
177FC
331
177F0
  5
17590
331
17703
  5
176D2
331
1773D
  5
17846
331
17614
  5
17740
331
1782C
  5
1765B
331
1775F
  5
1773F
331
1784E
  5
175EF
331
16EB5
  5
177D7
331
17352
  5
15472
331
17367
  5
15487
331
17692
  5
17754
331
17799
  5
17676
331
176AC
  5
176D1
331
177BB
  5
17625
331
177DD
  5
175CB
331
176CE
  5
1783B
331
175DF
  5
1781D
331
177FF
  5
17546
331
176F0
  5
17764
331
1772A
  5
17867
331
16791
  5
1778D
331
17601
  5
17767
331
17819
  5
17521
331
16EA2
  5
177C4
331
17712
  5
176B2
331
1774C
  5
1786E
331
17623
  5
17719
331
1783B
  5
17641
331
16EC4
  5
177E6
331
16EE6
  5
17842
331
1776E
  5
176FE
331
1785D
  5
1757C
331
17681
  5
1777A
331
17790
  5
1766B
331
176A3
  5
176DF
331
177AA
  5
1764F
331
177CC
  5
175FB
331
176DF
  5
177FF
331
177EE
  5
1758E
331
175F0
  5
177FA
331
17701
  5
176D9
331
1773B
  5
17844
331
16EB3
  5
177D5
331
16ED5
  5
177F7
331
1775D
  5
1773C
331
1784C
  5
175EB
331
1786E
  5
17551
331
1782A
  5
17659
331
17350
  5
15470
331
17365
  5
15485
331
16EF7
  5
17860
331
1777F
  5
176EF
331
1764E
  5
17693
331
1546E
  5
174E5
331
17690
  5
17755
331
176AA
  5
176D4
331
177B9
  5
17620
331
177DB
  5
175C9
331
176CC
  5
1783E
331
175DD
  5
1781B
331
177FD
  5
175AC
331
176EE
  5
1776B
331
1678F
  5
1778B
331
17817
  5
1751F
331
16EA0
  5
177C2
331
17710
  5
176B5
331
1774A
  5
1786C
331
17621
  5
17717
331
17839
  5
1763F
331
16EC2
  5
177E4
331
1776C
  5
17720
331
1763B
  5
176C3
331
1785B
  5
175C3
331
1778E
  5
17669
331
1787D
  5
17519
331
176A1
  5
176E3
331
177A8
  5
1764D
331
175CC
  5
17838
331
176BB
  5
176B3
331
177CA
  5
175F9
331
176DD
  5
17806
331
176FF
  5
176DC
331
1780E
  5
1756D
331
1734E
  5
1546E
331
17363
  5
15483
331
16E97
  5
177B9
331
17739
  5
17847
331
17610
  5
1774E
331
17828
  5
17657
331
16EB1
  5
177D3
331
16ED3
  5
177F5
331
1775B
  5
177A6
331
1784A
  5
175E9
331
1786C
  5
1754F
331
16EF5
  5
1785E
331
1777D
  5
176F5
331
1764C
  5
17690
331
1548E
  5
176AC
331
1546C
  5
174E3
331
1735F
  5
1547F
331
176A8
  5
176D5
331
177D9
  5
175C6
331
176CA
  5
1767E
331
176EC
  5
1776E
331
177FB
  5
175A7
331
17361
  5
15481
331
1678D
  5
17789
331
175FD
  5
17773
331
17815
  5
1751A
331
16E9E
  5
177C0
331
1770E
  5
176BC
331
17748
  5
17871
331
17837
  5
1763A
331
16EC0
  5
177E2
331
1776A
  5
1771C
331
17859
  5
175C1
331
1778C
  5
17667
331
1787B
  5
17516
331
1769F
  5
176E6
331
177A6
  5
1764B
331
176B9
  5
176B6
331
177C8
  5
175F7
331
176DB
  5
17809
331
176FD
  5
1772F
331
1780C
  5
17568
331
177EA
  5
17577
331
1734C
  5
1546C
331
16E95
  5
177B7
331
17737
  5
17854
331
1679E
  5
1779A
331
1760E
  5
1774C
331
17826
  5
17655
331
16EAF
  5
177D1
331
159C7
  5
1775B
331
16ED1
  5
177F3
331
17759
  5
177A4
331
17848
  5
175E7
331
1777B
  5
176F3
331
1786A
  5
1754C
331
1766C
  5
1781E
331
1548C
  5
176AA
331
177B7
  5
1761E
331
1735D
  5
1547D
331
176C8
  5
17681
331
175D9
  5
17827
331
177F9
  5
175A2
331
176EA
  5
17775
331
1678B
  5
17787
331
175FB
  5
17771
331
16E9C
  5
177BE
331
1770C
  5
176BF
331
17746
  5
17875
331
167A5
  5
177A1
331
1761D
  5
1772E
331
17835
  5
17638
331
16EBE
  5
177E0
331
16EE0
  5
1782F
331
17768
  5
17724
331
17857
  5
175B7
331
17659
  5
17678
331
17879
  5
17513
331
16F02
  5
17879
331
1778A
  5
17665
331
1767B
  5
177FE
331
177A4
  5
17649
331
17813
  5
174F7
331
177C6
  5
175F4
331
176D9
  5
17814
331
177E8
  5
175DF
331
16DB9
  5
177A2
331
175EA
  5
17804
331
1780A
  5
17566
331
176FB
  5
17732
331
1734A
  5
174DF
331
16E93
  5
177B5
331
17735
  5
17852
331
1679C
  5
17798
331
17824
  5
17540
331
16EAD
  5
177CF
331
16ECF
  5
177F1
331
17757
  5
177A8
331
1762E
  5
176D6
331
17846
  5
17614
331
16EF1
  5
17851
331
17779
  5
176F9
331
17648
  5
176B0
331
17868
  5
17547
331
177B5
  5
1761C
331
177D7
  5
175AE
331
1771D
  5
1767B
331
1735B
  5
1547B
331
176E8
  5
17778
331
17722
  5
1785C
331
16789
  5
17785
331
17811
  5
17576
331
16E9A
  5
177BC
331
1770A
  5
176C6
331
17744
  5
17873
331
167A3
  5
1779F
331
1761B
  5
1772C
331
17833
  5
17636
331
16EBC
  5
177DE
331
17766
  5
17722
331
17635
  5
176CD
331
17855
  5
175B3
331
17679
  5
17801
331
154A9
  5
176E2
331
17877
  5
17510
331
177A2
  5
17647
331
177E6
  5
175DB
331
17348
  5
174DD
331
176D7
  5
17817
331
176F9
  5
17744
331
17808
  5
17562
331
16E91
  5
177B3
331
17733
  5
17859
331
1679A
  5
17796
331
17822
  5
1753B
331
16EAB
  5
177CD
331
16ECD
  5
177EF
331
17755
  5
177AD
331
17844
  5
1760F
331
16EEF
  5
1784F
331
17777
  5
176F7
331
17646
  5
176AE
331
17866
  5
17588
331
1768A
  5
1776C
331
154BA
  5
1771B
331
15488
  5
176A7
331
177B3
  5
1761A
331
176C6
  5
17682
331
177D5
  5
17604
331
175D7
  5
17825
331
177F7
  5
175A0
331
1771B
  5
1767F
331
17359
  5
15479
331
1736E
  5
154A2
331
16E98
  5
177BA
331
17708
  5
176C9
331
17742
  5
17877
331
167A1
  5
1779D
331
17831
  5
17634
331
16EBA
  5
177DC
331
16EDC
  5
17810
331
17764
  5
17727
331
17853
  5
175B0
331
16EFE
  5
1786F
331
17786
  5
17653
331
17875
  5
17503
331
17677
  5
17802
331
154A7
  5
176E0
331
17699
  5
17746
331
177A0
  5
17645
331
177C2
  5
175E1
331
177E4
  5
175D8
331
176D5
  5
1781F
331
176F7
  5
17747
331
17806
  5
17560
331
16E8F
  5
177B1
331
17731
  5
17857
331
16798
  5
17794
331
17608
  5
1775E
331
17820
  5
17536
331
16EA9
  5
177CB
331
16ECB
  5
177ED
331
17753
  5
177AB
331
17842
  5
1760D
331
16EED
  5
1784D
331
17775
  5
176FD
331
17864
  5
17583
331
15486
  5
176A4
331
17688
  5
1776F
331
154B8
  5
17710
331
17797
  5
17673
331
177B1
  5
17615
331
177D3
  5
17602
331
175D5
  5
17832
331
177F5
  5
1759C
331
17719
  5
17687
331
176E6
  5
1777F
331
17357
  5
15477
331
1736C
  5
1548E
331
175F7
  5
1777D
331
17346
  5
174DB
331
17740
  5
1787D
331
16EB8
  5
177DA
331
159C8
  5
1775C
331
16EDA
  5
1780E
331
17762
  5
1772B
331
17851
  5
175F2
331
17873
  5
174FD
331
17784
  5
176EC
331
17653
  5
17684
331
154C7
  5
17758
331
1779E
  5
17643
331
17697
  5
17749
331
176B1
  5
176C7
331
177C0
  5
17630
331
177E2
  5
175D0
331
15473
  5
174EA
331
176D3
  5
17822
331
175E4
  5
17812
331
17804
  5
1755E
331
176F5
  5
1774F
331
1772F
  5
1785B
331
16796
  5
17792
331
1781E
  5
17534
331
16EA7
  5
177C9
331
17717
  5
1768B
331
16EC9
  5
177EB
331
17751
  5
177AF
331
17628
  5
1770A
331
17840
  5
1760B
331
16EEB
  5
1784B
331
17773
  5
176FB
331
17642
  5
176BA
331
17862
  5
17581
331
15484
  5
176A2
331
17686
  5
17770
331
154B6
  5
1770B
331
17795
  5
17670
331
177AF
  5
17606
331
177D1
  5
17600
331
175D3
  5
17836
331
177F3
  5
1759A
331
176E4
  5
17782
331
17355
  5
15475
331
1736A
  5
1548C
331
175F5
  5
1777B
331
17706
  5
176D0
331
17617
  5
17743
331
1782F
  5
17660
331
17344
  5
174D9
331
17760
  5
17729
331
17871
  5
17557
331
154C5
  5
17756
331
17782
  5
176EA
331
17695
  5
1774A
331
176AF
  5
176CA
331
177BE
  5
1762B
331
177E0
  5
175CE
331
15471
  5
174E8
331
176D1
  5
17828
331
176F3
  5
17752
331
17802
  5
1755A
331
1772D
  5
17865
331
16794
  5
17790
331
1781C
  5
1752A
331
16EA5
  5
177C7
331
17715
  5
17694
331
1774F
  5
1786B
331
17626
  5
17708
331
1783E
  5
17609
331
16EC7
  5
177E9
331
16EE9
  5
17849
331
17771
  5
17704
331
17640
  5
176B8
331
17860
  5
1757F
331
17662
  5
1783C
331
15482
  5
176A0
331
154B4
  5
17706
331
17793
  5
1766E
331
177AD
  5
17652
331
176C0
  5
17697
331
177CF
  5
175FE
331
175D1
  5
17834
331
177F1
  5
17594
331
176E2
  5
177FD
331
17353
  5
15473
331
17368
  5
15488
331
17704
  5
176D3
331
1773E
  5
1787B
331
17615
  5
17741
331
1782D
  5
1765C
331
16EB6
  5
177D8
331
1784F
  5
175F0
331
17342
  5
174D7
331
16EF8
  5
17861
331
17780
  5
176F0
331
17671
  5
17816
331
154A1
  5
176AD
331
1779A
  5
17632
331
176AD
  5
176CB
331
177BC
  5
17626
331
177DE
  5
175CC
331
176CF
  5
1782B
331
176F1
  5
17760
331
1772B
  5
17863
331
16792
  5
1778E
331
17602
  5
17768
331
1781A
  5
17523
331
16EA3
  5
177C5
331
17713
  5
17699
331
1774D
  5
17869
331
17624
  5
1771A
331
1783C
  5
17607
331
17351
  5
15471
331
16EC5
  5
177E7
331
1776F
  5
176FF
331
1785E
  5
1757D
331
17660
  5
1783F
331
15480
  5
1769E
331
17791
  5
1766C
331
177AB
  5
17650
331
176BE
  5
1769B
331
177CD
  5
175FC
331
176E0
  5
17800
331
177EF
  5
1758F
331
175F1
  5
177FB
331
17702
  5
176DA
331
1773C
  5
17845
331
16EB4
  5
177D6
331
16ED6
  5
177F8
331
1775E
  5
1773E
331
1784D
  5
175ED
331
1786F
  5
17552
331
1782B
  5
1765A
331
12ADD
  5
174E1
331
17366
  5
15486
331
1546F
  5
174E6
  0
XRECORD
  5
12A85
102
{ACAD_REACTORS
330
129AF
102
}
330
129AF
100
AcDbXrecord
280
     1
340
125A7
  0
LAYOUT
  5
1297D
102
{ACAD_REACTORS
330
1297B
102
}
330
1297B
100
AcDbPlotSettings
  1

  2
いきなりPDF Professional
  4
User76
  6

 40
3.174999952316284
 41
3.174999952316284
 42
3.17498779296875
 43
3.17498779296875
 44
419.9889831542968
 45
297.0106506347656
 46
7.459999999999999
 47
6.849999999999999
 48
0.0
 49
0.0
140
0.0
141
0.0
142
1.0
143
40.0
 70
 11940
 72
     1
 73
     0
 74
     1
  7
sinsei-a3.ctb
 75
     0
147
0.025
 76
     1
 77
     2
 78
   300
148
-433.9966216520333
149
-163.6908237492789
100
AcDbLayout
  1
Model
 70
     1
 71
     0
 10
0.0
 20
0.0
 11
12.0
 21
9.0
 12
0.0
 22
0.0
 32
0.0
 14
0.0
 24
0.0
 34
0.0
 15
0.0
 25
0.0
 35
0.0
146
0.0
 13
0.0
 23
0.0
 33
0.0
 16
1.0
 26
0.0
 36
0.0
 17
0.0
 27
1.0
 37
0.0
 76
     0
330
125AA
331
16F6B
1001
ACAD_PSEXT
1000
いきなりPDF Professional
1000
いきなりPDF Professional
1000
SN PDFPro Port
1000

1070
     0
  0
LAYOUT
  5
1297E
102
{ACAD_REACTORS
330
1297B
102
}
330
1297B
100
AcDbPlotSettings
  1

  2
RICOH NX-210 RPDL
  4

  6

 40
0.0
 41
0.0
 42
0.0
 43
0.0
 44
0.0
 45
0.0
 46
0.0
 47
0.0
 48
0.0
 49
0.0
140
0.0
141
0.0
142
1.0
143
1.0
 70
   688
 72
     0
 73
     0
 74
     5
  7
sinsei-a3.ctb
 75
    16
147
1.0
 76
     0
 77
     2
 78
   300
148
0.0
149
0.0
100
AcDbLayout
  1
ﾚｲｱｳﾄ1
 70
     0
 71
     1
 10
0.0
 20
0.0
 11
12.0
 21
9.0
 12
267.0000000000001
 22
194.8999999999998
 32
0.0
 14
1.000000000000000E+20
 24
1.000000000000000E+20
 34
1.000000000000000E+20
 15
-1.000000000000000E+20
 25
-1.000000000000000E+20
 35
-1.000000000000000E+20
146
0.0
 13
0.0
 23
0.0
 33
0.0
 16
1.0
 26
0.0
 36
0.0
 17
0.0
 27
1.0
 37
0.0
 76
     0
330
125A7
  0
MATERIAL
  5
15B21
102
{ACAD_REACTORS
330
12AC0
102
}
330
12AC0
100
AcDbMaterial
  1
ByBlock
 73
     1
 78
     1
172
     1
176
     1
270
     1
274
     1
 94
       63
  0
MATERIAL
  5
15B20
102
{ACAD_REACTORS
330
12AC0
102
}
330
12AC0
100
AcDbMaterial
  1
ByLayer
 73
     1
 78
     1
172
     1
176
     1
270
     1
274
     1
 94
       63
  0
MATERIAL
  5
15B22
102
{ACAD_REACTORS
330
12AC0
102
}
330
12AC0
100
AcDbMaterial
  1
Global
 73
     1
 78
     1
172
     1
176
     1
270
     1
274
     1
 94
       63
  0
MLEADERSTYLE
  5
16F9B
102
{ACAD_REACTORS
330
16F9A
102
}
330
16F9A
100
AcDbMLeaderStyle
179
     2
170
     2
171
     1
172
     0
 90
        2
 40
0.0
 41
0.0
173
     1
 91
-1056964608
340
125A4
 92
       -2
290
     1
 42
0.09
291
     1
 43
0.36
  3
Standard
 44
0.18
300

342
125A2
174
     1
178
     6
175
     1
176
     0
 93
-1056964608
 45
0.18
292
     0
297
     0
 46
0.18
 94
-1056964608
 47
1.0
 49
1.0
140
1.0
293
     1
141
0.0
294
     1
177
     0
142
1.0
295
     0
296
     0
143
0.125
271
     0
272
     9
273
     9
  0
MLINESTYLE
  5
125AD
102
{ACAD_REACTORS
330
125A0
102
}
330
125A0
100
AcDbMlineStyle
  2
STANDARD
 70
     0
  3

 62
     0
 51
90.0
 52
90.0
 71
     2
 49
0.5
 62
   256
  6
BYLAYER
 49
-0.5
 62
   256
  6
BYLAYER
  0
ACDBPLACEHOLDER
  5
1297A
102
{ACAD_REACTORS
330
12979
102
}
330
12979
  0
SCALE
  5
16F79
102
{ACAD_REACTORS
330
16F78
102
}
330
16F78
100
AcDbScale
 70
     0
300
1:1
140
1.0
141
1.0
290
     1
  0
SCALE
  5
16F7A
102
{ACAD_REACTORS
330
16F78
102
}
330
16F78
100
AcDbScale
 70
     0
300
1:2
140
1.0
141
2.0
290
     0
  0
SCALE
  5
16F7B
102
{ACAD_REACTORS
330
16F78
102
}
330
16F78
100
AcDbScale
 70
     0
300
1:4
140
1.0
141
4.0
290
     0
  0
SCALE
  5
16F7C
102
{ACAD_REACTORS
330
16F78
102
}
330
16F78
100
AcDbScale
 70
     0
300
1:5
140
1.0
141
5.0
290
     0
  0
SCALE
  5
16F7D
102
{ACAD_REACTORS
330
16F78
102
}
330
16F78
100
AcDbScale
 70
     0
300
1:8
140
1.0
141
8.0
290
     0
  0
SCALE
  5
16F7E
102
{ACAD_REACTORS
330
16F78
102
}
330
16F78
100
AcDbScale
 70
     0
300
1:10
140
1.0
141
10.0
290
     0
  0
SCALE
  5
16F7F
102
{ACAD_REACTORS
330
16F78
102
}
330
16F78
100
AcDbScale
 70
     0
300
1:16
140
1.0
141
16.0
290
     0
  0
SCALE
  5
16F80
102
{ACAD_REACTORS
330
16F78
102
}
330
16F78
100
AcDbScale
 70
     0
300
1:20
140
1.0
141
20.0
290
     0
  0
SCALE
  5
16F81
102
{ACAD_REACTORS
330
16F78
102
}
330
16F78
100
AcDbScale
 70
     0
300
1:30
140
1.0
141
30.0
290
     0
  0
SCALE
  5
16F82
102
{ACAD_REACTORS
330
16F78
102
}
330
16F78
100
AcDbScale
 70
     0
300
1:40
140
1.0
141
40.0
290
     0
  0
SCALE
  5
16F83
102
{ACAD_REACTORS
330
16F78
102
}
330
16F78
100
AcDbScale
 70
     0
300
1:50
140
1.0
141
50.0
290
     0
  0
SCALE
  5
16F84
102
{ACAD_REACTORS
330
16F78
102
}
330
16F78
100
AcDbScale
 70
     0
300
1:100
140
1.0
141
100.0
290
     0
  0
SCALE
  5
16F85
102
{ACAD_REACTORS
330
16F78
102
}
330
16F78
100
AcDbScale
 70
     0
300
2:1
140
2.0
141
1.0
290
     0
  0
SCALE
  5
16F86
102
{ACAD_REACTORS
330
16F78
102
}
330
16F78
100
AcDbScale
 70
     0
300
4:1
140
4.0
141
1.0
290
     0
  0
SCALE
  5
16F87
102
{ACAD_REACTORS
330
16F78
102
}
330
16F78
100
AcDbScale
 70
     0
300
8:1
140
8.0
141
1.0
290
     0
  0
SCALE
  5
16F88
102
{ACAD_REACTORS
330
16F78
102
}
330
16F78
100
AcDbScale
 70
     0
300
10:1
140
10.0
141
1.0
290
     0
  0
SCALE
  5
16F89
102
{ACAD_REACTORS
330
16F78
102
}
330
16F78
100
AcDbScale
 70
     0
300
100:1
140
100.0
141
1.0
290
     0
  0
SCALE
  5
16F8A
102
{ACAD_REACTORS
330
16F78
102
}
330
16F78
100
AcDbScale
 70
     0
300
1/128" = 1'-0"
140
0.0078125
141
12.0
290
     0
  0
SCALE
  5
16F8B
102
{ACAD_REACTORS
330
16F78
102
}
330
16F78
100
AcDbScale
 70
     0
300
1/64" = 1'-0"
140
0.015625
141
12.0
290
     0
  0
SCALE
  5
16F8C
102
{ACAD_REACTORS
330
16F78
102
}
330
16F78
100
AcDbScale
 70
     0
300
1/32" = 1'-0"
140
0.03125
141
12.0
290
     0
  0
SCALE
  5
16F8D
102
{ACAD_REACTORS
330
16F78
102
}
330
16F78
100
AcDbScale
 70
     0
300
1/16" = 1'-0"
140
0.0625
141
12.0
290
     0
  0
SCALE
  5
16F8E
102
{ACAD_REACTORS
330
16F78
102
}
330
16F78
100
AcDbScale
 70
     0
300
3/32" = 1'-0"
140
0.09375
141
12.0
290
     0
  0
SCALE
  5
16F8F
102
{ACAD_REACTORS
330
16F78
102
}
330
16F78
100
AcDbScale
 70
     0
300
1/8" = 1'-0"
140
0.125
141
12.0
290
     0
  0
SCALE
  5
16F90
102
{ACAD_REACTORS
330
16F78
102
}
330
16F78
100
AcDbScale
 70
     0
300
3/16" = 1'-0"
140
0.1875
141
12.0
290
     0
  0
SCALE
  5
16F91
102
{ACAD_REACTORS
330
16F78
102
}
330
16F78
100
AcDbScale
 70
     0
300
1/4" = 1'-0"
140
0.25
141
12.0
290
     0
  0
SCALE
  5
16F92
102
{ACAD_REACTORS
330
16F78
102
}
330
16F78
100
AcDbScale
 70
     0
300
3/8" = 1'-0"
140
0.375
141
12.0
290
     0
  0
SCALE
  5
16F93
102
{ACAD_REACTORS
330
16F78
102
}
330
16F78
100
AcDbScale
 70
     0
300
1/2" = 1'-0"
140
0.5
141
12.0
290
     0
  0
SCALE
  5
16F94
102
{ACAD_REACTORS
330
16F78
102
}
330
16F78
100
AcDbScale
 70
     0
300
3/4" = 1'-0"
140
0.75
141
12.0
290
     0
  0
SCALE
  5
16F95
102
{ACAD_REACTORS
330
16F78
102
}
330
16F78
100
AcDbScale
 70
     0
300
1" = 1'-0"
140
1.0
141
12.0
290
     0
  0
SCALE
  5
16F96
102
{ACAD_REACTORS
330
16F78
102
}
330
16F78
100
AcDbScale
 70
     0
300
1-1/2" = 1'-0"
140
1.5
141
12.0
290
     0
  0
SCALE
  5
16F97
102
{ACAD_REACTORS
330
16F78
102
}
330
16F78
100
AcDbScale
 70
     0
300
3" = 1'-0"
140
3.0
141
12.0
290
     0
  0
SCALE
  5
16F98
102
{ACAD_REACTORS
330
16F78
102
}
330
16F78
100
AcDbScale
 70
     0
300
6" = 1'-0"
140
6.0
141
12.0
290
     0
  0
SCALE
  5
16F99
102
{ACAD_REACTORS
330
16F78
102
}
330
16F78
100
AcDbScale
 70
     0
300
1'-0" = 1'-0"
140
12.0
141
12.0
290
     0
  0
TABLESTYLE
  5
15B35
102
{ACAD_XDICTIONARY
360
17884
102
}
102
{ACAD_REACTORS
330
15B34
102
}
330
15B34
100
AcDbTableStyle
280
     0
  3
Standard
 70
     0
 71
     0
 40
0.06
 41
0.06
280
     0
281
     0
  7
STANDARD
140
0.18
170
     2
 62
     0
 63
     7
283
     0
 90
      512
 91
        0
  1

274
    -2
284
     1
 64
     0
275
    -2
285
     1
 65
     0
276
    -2
286
     1
 66
     0
277
    -2
287
     1
 67
     0
278
    -2
288
     1
 68
     0
279
    -2
289
     1
 69
     0
  7
STANDARD
140
0.25
170
     5
 62
     0
 63
     7
283
     0
 90
      512
 91
        0
  1

274
    -2
284
     1
 64
     0
275
    -2
285
     1
 65
     0
276
    -2
286
     1
 66
     0
277
    -2
287
     1
 67
     0
278
    -2
288
     1
 68
     0
279
    -2
289
     1
 69
     0
  7
STANDARD
140
0.18
170
     5
 62
     0
 63
     7
283
     0
 90
      512
 91
        0
  1

274
    -2
284
     1
 64
     0
275
    -2
285
     1
 65
     0
276
    -2
286
     1
 66
     0
277
    -2
287
     1
 67
     0
278
    -2
288
     1
 68
     0
279
    -2
289
     1
 69
     0
1001
ACAD
1000
AcRTDxfName
1000
TABLESTYLE
1000
AcRTDxfName
1000
TABLESTYLE
1000
AcRTDxfName
1000
TABLESTYLE
1000
AcRTDxfName
1000
TABLESTYLE
1000
AcRTDxfName
1000
TABLESTYLE
  0
VISUALSTYLE
  5
15B29
102
{ACAD_REACTORS
330
15B23
102
}
330
15B23
100
AcDbVisualStyle
  2
2dWireframe
 70
     4
177
     2
291
     0
 71
     0
176
     1
 72
     2
176
     1
 73
     0
176
     1
 90
        0
176
     1
 40
0.6
176
     1
 41
30.0
176
     1
 63
     7
176
     1
 74
     1
176
     1
 91
        4
176
     1
 64
     7
176
     1
 65
   257
176
     1
 75
     1
176
     1
175
     1
176
     1
 42
1.0
176
     1
 92
        0
176
     1
 66
   257
176
     1
 43
1.0
176
     1
 76
     1
176
     1
 77
     6
176
     1
 78
     2
176
     1
 67
     7
176
     1
 79
     5
176
     1
170
     0
176
     1
171
     0
176
     1
290
     0
176
     1
 93
        1
176
     1
 44
0.0
176
     1
173
     0
176
     1
1001
ACAD
1000
AcRTDxfName
1000
VISUALSTYLE
1000
AcRTDxfName
1000
VISUALSTYLE
1000
AcRTDxfName
1000
VISUALSTYLE
1000
AcRTDxfName
1000
VISUALSTYLE
1000
AcRTDxfName
1000
VISUALSTYLE
  0
VISUALSTYLE
  5
15B2B
102
{ACAD_REACTORS
330
15B23
102
}
330
15B23
100
AcDbVisualStyle
  2
3D Hidden
 70
     6
177
     2
291
     0
 71
     1
176
     1
 72
     2
176
     1
 73
     2
176
     1
 90
        0
176
     1
 40
0.6
176
     1
 41
30.0
176
     1
 63
     7
176
     1
 74
     2
176
     1
 91
        2
176
     1
 64
     7
176
     1
 65
   257
176
     1
 75
     2
176
     1
175
     1
176
     1
 42
40.0
176
     1
 92
        0
176
     1
 66
   257
176
     1
 43
1.0
176
     1
 76
     1
176
     1
 77
     6
176
     1
 78
     2
176
     1
 67
     7
176
     1
 79
     3
176
     1
170
     0
176
     1
171
     0
176
     1
290
     0
176
     1
 93
        1
176
     1
 44
0.0
176
     1
173
     0
176
     1
1001
ACAD
1000
AcRTDxfName
1000
VISUALSTYLE
1000
AcRTDxfName
1000
VISUALSTYLE
1000
AcRTDxfName
1000
VISUALSTYLE
1000
AcRTDxfName
1000
VISUALSTYLE
1000
AcRTDxfName
1000
VISUALSTYLE
  0
VISUALSTYLE
  5
15B2A
102
{ACAD_REACTORS
330
15B23
102
}
330
15B23
100
AcDbVisualStyle
  2
3dWireframe
 70
     5
177
     2
291
     0
 71
     0
176
     1
 72
     2
176
     1
 73
     0
176
     1
 90
        0
176
     1
 40
0.6
176
     1
 41
30.0
176
     1
 63
     7
176
     1
 74
     1
176
     1
 91
        4
176
     1
 64
     7
176
     1
 65
   257
176
     1
 75
     1
176
     1
175
     1
176
     1
 42
1.0
176
     1
 92
        0
176
     1
 66
   257
176
     1
 43
1.0
176
     1
 76
     1
176
     1
 77
     6
176
     1
 78
     2
176
     1
 67
     7
176
     1
 79
     5
176
     1
170
     0
176
     1
171
     0
176
     1
290
     0
176
     1
 93
        1
176
     1
 44
0.0
176
     1
173
     0
176
     1
1001
ACAD
1000
AcRTDxfName
1000
VISUALSTYLE
1000
AcRTDxfName
1000
VISUALSTYLE
1000
AcRTDxfName
1000
VISUALSTYLE
1000
AcRTDxfName
1000
VISUALSTYLE
1000
AcRTDxfName
1000
VISUALSTYLE
  0
VISUALSTYLE
  5
15B28
102
{ACAD_REACTORS
330
15B23
102
}
330
15B23
100
AcDbVisualStyle
  2
Basic
 70
     7
177
     2
291
     1
 71
     1
176
     1
 72
     0
176
     1
 73
     1
176
     1
 90
        0
176
     1
 40
0.6
176
     1
 41
30.0
176
     1
 63
     7
176
     1
 74
     0
176
     1
 91
        4
176
     1
 64
     7
176
     1
 65
   257
176
     1
 75
     1
176
     1
175
     1
176
     1
 42
1.0
176
     1
 92
        8
176
     1
 66
     7
176
     1
 43
1.0
176
     1
 76
     1
176
     1
 77
     6
176
     1
 78
     2
176
     1
 67
     7
176
     1
 79
     5
176
     1
170
     0
176
     1
171
     0
176
     1
290
     0
176
     1
 93
        1
176
     1
 44
0.0
176
     1
173
     0
176
     1
1001
ACAD
1000
AcRTDxfName
1000
VISUALSTYLE
1000
AcRTDxfName
1000
VISUALSTYLE
1000
AcRTDxfName
1000
VISUALSTYLE
1000
AcRTDxfName
1000
VISUALSTYLE
1000
AcRTDxfName
1000
VISUALSTYLE
  0
VISUALSTYLE
  5
15B2F
102
{ACAD_REACTORS
330
15B23
102
}
330
15B23
100
AcDbVisualStyle
  2
Brighten
 70
    12
177
     2
291
     1
 71
     2
176
     1
 72
     2
176
     1
 73
     0
176
     1
 90
        0
176
     1
 40
0.6
176
     1
 41
30.0
176
     1
 63
     7
176
     1
 74
     1
176
     1
 91
        4
176
     1
 64
     7
176
     1
 65
   257
176
     1
 75
     1
176
     1
175
     1
176
     1
 42
1.0
176
     1
 92
        8
176
     1
 66
     7
176
     1
 43
1.0
176
     1
 76
     1
176
     1
 77
     6
176
     1
 78
     2
176
     1
 67
     7
176
     1
 79
     5
176
     1
170
     0
176
     1
171
     0
176
     1
290
     0
176
     1
 93
        1
176
     1
 44
50.0
176
     1
173
     0
176
     1
1001
ACAD
1000
AcRTDxfName
1000
VISUALSTYLE
1000
AcRTDxfName
1000
VISUALSTYLE
1000
AcRTDxfName
1000
VISUALSTYLE
1000
AcRTDxfName
1000
VISUALSTYLE
1000
AcRTDxfName
1000
VISUALSTYLE
  0
VISUALSTYLE
  5
15B33
102
{ACAD_REACTORS
330
15B23
102
}
330
15B23
100
AcDbVisualStyle
  2
ColorChange
 70
    16
177
     2
291
     1
 71
     2
176
     1
 72
     2
176
     1
 73
     3
176
     1
 90
        0
176
     1
 40
0.6
176
     1
 41
30.0
176
     1
 63
     8
176
     1
 74
     1
176
     1
 91
        4
176
     1
 64
     7
176
     1
 65
   257
176
     1
 75
     1
176
     1
175
     1
176
     1
 42
1.0
176
     1
 92
        8
176
     1
 66
     8
176
     1
 43
1.0
176
     1
 76
     1
176
     1
 77
     6
176
     1
 78
     2
176
     1
 67
     7
176
     1
 79
     5
176
     1
170
     0
176
     1
171
     0
176
     1
290
     0
176
     1
 93
        1
176
     1
 44
0.0
176
     1
173
     0
176
     1
1001
ACAD
1000
AcRTDxfName
1000
VISUALSTYLE
1000
AcRTDxfName
1000
VISUALSTYLE
1000
AcRTDxfName
1000
VISUALSTYLE
1000
AcRTDxfName
1000
VISUALSTYLE
1000
AcRTDxfName
1000
VISUALSTYLE
  0
VISUALSTYLE
  5
15B2C
102
{ACAD_REACTORS
330
15B23
102
}
330
15B23
100
AcDbVisualStyle
  2
Conceptual
 70
     9
177
     2
291
     0
 71
     3
176
     1
 72
     2
176
     1
 73
     0
176
     1
 90
        0
176
     1
 40
0.6
176
     1
 41
30.0
176
     1
 63
     7
176
     1
 74
     2
176
     1
 91
        2
176
     1
 64
     7
176
     1
 65
   257
176
     1
 75
     1
176
     1
175
     1
176
     1
 42
40.0
176
     1
 92
        8
176
     1
 66
     7
176
     1
 43
1.0
176
     1
 76
     1
176
     1
 77
     6
176
     1
 78
     2
176
     1
 67
     7
176
     1
 79
     3
176
     1
170
     0
176
     1
171
     0
176
     1
290
     0
176
     1
 93
        1
176
     1
 44
0.0
176
     1
173
     0
176
     1
1001
ACAD
1000
AcRTDxfName
1000
VISUALSTYLE
1000
AcRTDxfName
1000
VISUALSTYLE
1000
AcRTDxfName
1000
VISUALSTYLE
1000
AcRTDxfName
1000
VISUALSTYLE
1000
AcRTDxfName
1000
VISUALSTYLE
  0
VISUALSTYLE
  5
15B2E
102
{ACAD_REACTORS
330
15B23
102
}
330
15B23
100
AcDbVisualStyle
  2
Dim
 70
    11
177
     2
291
     1
 71
     2
176
     1
 72
     2
176
     1
 73
     0
176
     1
 90
        0
176
     1
 40
0.6
176
     1
 41
30.0
176
     1
 63
     7
176
     1
 74
     1
176
     1
 91
        4
176
     1
 64
     7
176
     1
 65
   257
176
     1
 75
     1
176
     1
175
     1
176
     1
 42
1.0
176
     1
 92
        8
176
     1
 66
     7
176
     1
 43
1.0
176
     1
 76
     1
176
     1
 77
     6
176
     1
 78
     2
176
     1
 67
     7
176
     1
 79
     5
176
     1
170
     0
176
     1
171
     0
176
     1
290
     0
176
     1
 93
        1
176
     1
 44
-50.0
176
     1
173
     0
176
     1
1001
ACAD
1000
AcRTDxfName
1000
VISUALSTYLE
1000
AcRTDxfName
1000
VISUALSTYLE
1000
AcRTDxfName
1000
VISUALSTYLE
1000
AcRTDxfName
1000
VISUALSTYLE
1000
AcRTDxfName
1000
VISUALSTYLE
  0
VISUALSTYLE
  5
16F77
102
{ACAD_REACTORS
330
15B23
102
}
330
15B23
100
AcDbVisualStyle
  2
EdgeColorOff
 70
    22
177
     2
291
     1
 71
     2
176
     0
 72
     2
176
     0
 73
     0
176
     0
 90
        0
176
     0
 40
0.6
176
     0
 41
30.0
176
     0
 63
     7
421
 16777215
176
     0
 74
     1
176
     0
 91
        4
176
     0
 64
     7
176
     0
 65
   257
176
     0
 75
     1
176
     0
175
     1
176
     0
 42
1.0
176
     0
 92
        8
176
     2
 66
     7
176
     0
 43
1.0
176
     0
 76
     1
176
     0
 77
     6
176
     0
 78
     2
176
     0
 67
     7
176
     0
 79
     5
176
     0
170
     0
176
     0
171
     0
176
     0
290
     0
176
     0
 93
        1
176
     0
 44
0.0
176
     0
173
     0
176
     0
  0
VISUALSTYLE
  5
15B32
102
{ACAD_REACTORS
330
15B23
102
}
330
15B23
100
AcDbVisualStyle
  2
Facepattern
 70
    15
177
     2
291
     1
 71
     2
176
     1
 72
     2
176
     1
 73
     0
176
     1
 90
        0
176
     1
 40
0.6
176
     1
 41
30.0
176
     1
 63
     7
176
     1
 74
     1
176
     1
 91
        4
176
     1
 64
     7
176
     1
 65
   257
176
     1
 75
     1
176
     1
175
     1
176
     1
 42
1.0
176
     1
 92
        8
176
     1
 66
     7
176
     1
 43
1.0
176
     1
 76
     1
176
     1
 77
     6
176
     1
 78
     2
176
     1
 67
     7
176
     1
 79
     5
176
     1
170
     0
176
     1
171
     0
176
     1
290
     0
176
     1
 93
        1
176
     1
 44
0.0
176
     1
173
     0
176
     1
1001
ACAD
1000
AcRTDxfName
1000
VISUALSTYLE
1000
AcRTDxfName
1000
VISUALSTYLE
1000
AcRTDxfName
1000
VISUALSTYLE
1000
AcRTDxfName
1000
VISUALSTYLE
1000
AcRTDxfName
1000
VISUALSTYLE
  0
VISUALSTYLE
  5
15B24
102
{ACAD_REACTORS
330
15B23
102
}
330
15B23
100
AcDbVisualStyle
  2
Flat
 70
     0
177
     2
291
     1
 71
     2
176
     1
 72
     1
176
     1
 73
     1
176
     1
 90
        2
176
     1
 40
0.6
176
     1
 41
30.0
176
     1
 63
     7
176
     1
 74
     0
176
     1
 91
        4
176
     1
 64
     7
176
     1
 65
   257
176
     1
 75
     1
176
     1
175
     1
176
     1
 42
1.0
176
     1
 92
        8
176
     1
 66
     7
176
     1
 43
1.0
176
     1
 76
     1
176
     1
 77
     6
176
     1
 78
     2
176
     1
 67
     7
176
     1
 79
     5
176
     1
170
     0
176
     1
171
     0
176
     1
290
     0
176
     1
 93
       13
176
     1
 44
0.0
176
     1
173
     0
176
     1
1001
ACAD
1000
AcRTDxfName
1000
VISUALSTYLE
1000
AcRTDxfName
1000
VISUALSTYLE
1000
AcRTDxfName
1000
VISUALSTYLE
1000
AcRTDxfName
1000
VISUALSTYLE
1000
AcRTDxfName
1000
VISUALSTYLE
  0
VISUALSTYLE
  5
15B25
102
{ACAD_REACTORS
330
15B23
102
}
330
15B23
100
AcDbVisualStyle
  2
FlatWithEdges
 70
     1
177
     2
291
     1
 71
     2
176
     1
 72
     1
176
     1
 73
     1
176
     1
 90
        2
176
     1
 40
0.6
176
     1
 41
30.0
176
     1
 63
     7
176
     1
 74
     1
176
     1
 91
        4
176
     1
 64
     7
176
     1
 65
   257
176
     1
 75
     1
176
     1
175
     1
176
     1
 42
1.0
176
     1
 92
        0
176
     1
 66
   257
176
     1
 43
1.0
176
     1
 76
     1
176
     1
 77
     6
176
     1
 78
     2
176
     1
 67
     7
176
     1
 79
     5
176
     1
170
     0
176
     1
171
     0
176
     1
290
     0
176
     1
 93
       13
176
     1
 44
0.0
176
     1
173
     0
176
     1
1001
ACAD
1000
AcRTDxfName
1000
VISUALSTYLE
1000
AcRTDxfName
1000
VISUALSTYLE
1000
AcRTDxfName
1000
VISUALSTYLE
1000
AcRTDxfName
1000
VISUALSTYLE
1000
AcRTDxfName
1000
VISUALSTYLE
  0
VISUALSTYLE
  5
15B26
102
{ACAD_REACTORS
330
15B23
102
}
330
15B23
100
AcDbVisualStyle
  2
Gouraud
 70
     2
177
     2
291
     1
 71
     2
176
     1
 72
     2
176
     1
 73
     1
176
     1
 90
        2
176
     1
 40
0.6
176
     1
 41
30.0
176
     1
 63
     7
176
     1
 74
     0
176
     1
 91
        4
176
     1
 64
     7
176
     1
 65
   257
176
     1
 75
     1
176
     1
175
     1
176
     1
 42
1.0
176
     1
 92
        0
176
     1
 66
     7
176
     1
 43
1.0
176
     1
 76
     1
176
     1
 77
     6
176
     1
 78
     2
176
     1
 67
     7
176
     1
 79
     5
176
     1
170
     0
176
     1
171
     0
176
     1
290
     0
176
     1
 93
       13
176
     1
 44
0.0
176
     1
173
     0
176
     1
1001
ACAD
1000
AcRTDxfName
1000
VISUALSTYLE
1000
AcRTDxfName
1000
VISUALSTYLE
1000
AcRTDxfName
1000
VISUALSTYLE
1000
AcRTDxfName
1000
VISUALSTYLE
1000
AcRTDxfName
1000
VISUALSTYLE
  0
VISUALSTYLE
  5
15B27
102
{ACAD_REACTORS
330
15B23
102
}
330
15B23
100
AcDbVisualStyle
  2
GouraudWithEdges
 70
     3
177
     2
291
     1
 71
     2
176
     1
 72
     2
176
     1
 73
     1
176
     1
 90
        2
176
     1
 40
0.6
176
     1
 41
30.0
176
     1
 63
     7
176
     1
 74
     1
176
     1
 91
        4
176
     1
 64
     7
176
     1
 65
   257
176
     1
 75
     1
176
     1
175
     1
176
     1
 42
1.0
176
     1
 92
        0
176
     1
 66
   257
176
     1
 43
1.0
176
     1
 76
     1
176
     1
 77
     6
176
     1
 78
     2
176
     1
 67
     7
176
     1
 79
     5
176
     1
170
     0
176
     1
171
     0
176
     1
290
     0
176
     1
 93
       13
176
     1
 44
0.0
176
     1
173
     0
176
     1
1001
ACAD
1000
AcRTDxfName
1000
VISUALSTYLE
1000
AcRTDxfName
1000
VISUALSTYLE
1000
AcRTDxfName
1000
VISUALSTYLE
1000
AcRTDxfName
1000
VISUALSTYLE
1000
AcRTDxfName
1000
VISUALSTYLE
  0
VISUALSTYLE
  5
16F75
102
{ACAD_REACTORS
330
15B23
102
}
330
15B23
100
AcDbVisualStyle
  2
JitterOff
 70
    20
177
     2
291
     1
 71
     2
176
     0
 72
     2
176
     0
 73
     0
176
     0
 90
        0
176
     0
 40
0.6
176
     0
 41
30.0
176
     0
 63
     7
421
 16777215
176
     0
 74
     1
176
     0
 91
        4
176
     0
 64
     7
176
     0
 65
   257
176
     0
 75
     1
176
     0
175
     1
176
     0
 42
1.0
176
     0
 92
       10
176
     2
 66
     7
176
     0
 43
1.0
176
     0
 76
     1
176
     0
 77
     6
176
     0
 78
     2
176
     0
 67
     7
176
     0
 79
     5
176
     0
170
     0
176
     0
171
     0
176
     0
290
     0
176
     0
 93
        1
176
     0
 44
0.0
176
     0
173
     0
176
     0
  0
VISUALSTYLE
  5
15B31
102
{ACAD_REACTORS
330
15B23
102
}
330
15B23
100
AcDbVisualStyle
  2
Linepattern
 70
    14
177
     2
291
     1
 71
     2
176
     1
 72
     2
176
     1
 73
     0
176
     1
 90
        0
176
     1
 40
0.6
176
     1
 41
30.0
176
     1
 63
     7
176
     1
 74
     1
176
     1
 91
        4
176
     1
 64
     7
176
     1
 65
   257
176
     1
 75
     7
176
     1
175
     7
176
     1
 42
1.0
176
     1
 92
        8
176
     1
 66
     7
176
     1
 43
1.0
176
     1
 76
     1
176
     1
 77
     6
176
     1
 78
     2
176
     1
 67
     7
176
     1
 79
     5
176
     1
170
     0
176
     1
171
     0
176
     1
290
     0
176
     1
 93
        1
176
     1
 44
0.0
176
     1
173
     0
176
     1
1001
ACAD
1000
AcRTDxfName
1000
VISUALSTYLE
1000
AcRTDxfName
1000
VISUALSTYLE
1000
AcRTDxfName
1000
VISUALSTYLE
1000
AcRTDxfName
1000
VISUALSTYLE
1000
AcRTDxfName
1000
VISUALSTYLE
  0
VISUALSTYLE
  5
16F76
102
{ACAD_REACTORS
330
15B23
102
}
330
15B23
100
AcDbVisualStyle
  2
OverhangOff
 70
    21
177
     2
291
     1
 71
     2
176
     0
 72
     2
176
     0
 73
     0
176
     0
 90
        0
176
     0
 40
0.6
176
     0
 41
30.0
176
     0
 63
     7
421
 16777215
176
     0
 74
     1
176
     0
 91
        4
176
     0
 64
     7
176
     0
 65
   257
176
     0
 75
     1
176
     0
175
     1
176
     0
 42
1.0
176
     0
 92
        9
176
     2
 66
     7
176
     0
 43
1.0
176
     0
 76
     1
176
     0
 77
     6
176
     0
 78
     2
176
     0
 67
     7
176
     0
 79
     5
176
     0
170
     0
176
     0
171
     0
176
     0
290
     0
176
     0
 93
        1
176
     0
 44
0.0
176
     0
173
     0
176
     0
  0
VISUALSTYLE
  5
15B2D
102
{ACAD_REACTORS
330
15B23
102
}
330
15B23
100
AcDbVisualStyle
  2
Realistic
 70
     8
177
     2
291
     0
 71
     2
176
     1
 72
     2
176
     1
 73
     0
176
     1
 90
        0
176
     1
 40
0.6
176
     1
 41
30.0
176
     1
 63
     7
176
     1
 74
     1
176
     1
 91
        0
176
     1
 64
     7
176
     1
 65
   257
176
     1
 75
     1
176
     1
175
     1
176
     1
 42
1.0
176
     1
 92
        8
176
     1
 66
     8
176
     1
 43
1.0
176
     1
 76
     1
176
     1
 77
     6
176
     1
 78
     2
176
     1
 67
     7
176
     1
 79
     5
176
     1
170
     0
176
     1
171
     0
176
     1
290
     0
176
     1
 93
       13
176
     1
 44
0.0
176
     1
173
     0
176
     1
1001
ACAD
1000
AcRTDxfName
1000
VISUALSTYLE
1000
AcRTDxfName
1000
VISUALSTYLE
1000
AcRTDxfName
1000
VISUALSTYLE
1000
AcRTDxfName
1000
VISUALSTYLE
1000
AcRTDxfName
1000
VISUALSTYLE
  0
VISUALSTYLE
  5
15B30
102
{ACAD_REACTORS
330
15B23
102
}
330
15B23
100
AcDbVisualStyle
  2
Thicken
 70
    13
177
     2
291
     1
 71
     2
176
     1
 72
     2
176
     1
 73
     0
176
     1
 90
        0
176
     1
 40
0.6
176
     1
 41
30.0
176
     1
 63
     7
176
     1
 74
     1
176
     1
 91
        4
176
     1
 64
     7
176
     1
 65
   257
176
     1
 75
     1
176
     1
175
     1
176
     1
 42
1.0
176
     1
 92
       12
176
     1
 66
     7
176
     1
 43
1.0
176
     1
 76
     1
176
     1
 77
     6
176
     1
 78
     2
176
     1
 67
     7
176
     1
 79
     5
176
     1
170
     0
176
     1
171
     0
176
     1
290
     0
176
     1
 93
        1
176
     1
 44
0.0
176
     1
173
     0
176
     1
1001
ACAD
1000
AcRTDxfName
1000
VISUALSTYLE
1000
AcRTDxfName
1000
VISUALSTYLE
1000
AcRTDxfName
1000
VISUALSTYLE
1000
AcRTDxfName
1000
VISUALSTYLE
1000
AcRTDxfName
1000
VISUALSTYLE
  0
DICTIONARYVAR
  5
17880
102
{ACAD_REACTORS
330
13B02
102
}
330
13B02
100
DictionaryVariables
280
     0
  1
1:1
  0
DICTIONARYVAR
  5
1787E
102
{ACAD_REACTORS
330
13B02
102
}
330
13B02
100
DictionaryVariables
280
     0
  1
STANDARD
  0
DICTIONARYVAR
  5
15C50
102
{ACAD_REACTORS
330
13B02
102
}
330
13B02
100
DictionaryVariables
280
     0
  1
STANDARD
  0
DICTIONARYVAR
  5
13B03
102
{ACAD_REACTORS
330
13B02
102
}
330
13B02
100
DictionaryVariables
280
     0
  1
1
  0
DICTIONARYVAR
  5
15C52
102
{ACAD_REACTORS
330
13B02
102
}
330
13B02
100
DictionaryVariables
280
     0
  1
0
  0
DICTIONARYVAR
  5
17882
102
{ACAD_REACTORS
330
13B02
102
}
330
13B02
100
DictionaryVariables
280
     0
  1
1
  0
DICTIONARYVAR
  5
17883
102
{ACAD_REACTORS
330
13B02
102
}
330
13B02
100
DictionaryVariables
280
     0
  1
15
  0
DICTIONARYVAR
  5
17881
102
{ACAD_REACTORS
330
13B02
102
}
330
13B02
100
DictionaryVariables
280
     0
  1
0
  0
DICTIONARYVAR
  5
1787F
102
{ACAD_REACTORS
330
13B02
102
}
330
13B02
100
DictionaryVariables
280
     0
  1
0
  0
DICTIONARYVAR
  5
13B04
102
{ACAD_REACTORS
330
13B02
102
}
330
13B02
100
DictionaryVariables
280
     0
  1

  0
DICTIONARYVAR
  5
15C51
102
{ACAD_REACTORS
330
13B02
102
}
330
13B02
100
DictionaryVariables
280
     0
  1
127
  0
DICTIONARY
  5
17884
330
15B35
100
AcDbDictionary
280
     1
281
     1
  3
ACAD_ROUNDTRIP_2008_TABLESTYLE_CELLSTYLEMAP
360
17885
  0
CELLSTYLEMAP
  5
17885
102
{ACAD_REACTORS
330
17884
102
}
330
17884
100
AcDbCellStyleMap
 90
        3
300
CELLSTYLE
  1
TABLEFORMAT_BEGIN
 90
        5
170
     1
 91
        0
 92
    32768
 62
   257
 93
        1
300
CONTENTFORMAT
  1
CONTENTFORMAT_BEGIN
 90
        0
 91
        0
 92
      512
 93
        0
300

 40
0.0
140
1.0
 94
        5
 62
     0
340
125A2
144
0.25
309
CONTENTFORMAT_END
171
     0
 94
        6
 95
        1
302
GRIDFORMAT
  1
GRIDFORMAT_BEGIN
 90
        0
 91
        1
 62
     0
 92
       -2
340
0
 93
        0
 40
0.045
309
GRIDFORMAT_END
 95
        2
302
GRIDFORMAT
  1
GRIDFORMAT_BEGIN
 90
        0
 91
        1
 62
     0
 92
       -2
340
0
 93
        0
 40
0.045
309
GRIDFORMAT_END
 95
        4
302
GRIDFORMAT
  1
GRIDFORMAT_BEGIN
 90
        0
 91
        1
 62
     0
 92
       -2
340
0
 93
        0
 40
0.045
309
GRIDFORMAT_END
 95
        8
302
GRIDFORMAT
  1
GRIDFORMAT_BEGIN
 90
        0
 91
        1
 62
     0
 92
       -2
340
0
 93
        0
 40
0.045
309
GRIDFORMAT_END
 95
       16
302
GRIDFORMAT
  1
GRIDFORMAT_BEGIN
 90
        0
 91
        1
 62
     0
 92
       -2
340
0
 93
        0
 40
0.045
309
GRIDFORMAT_END
 95
       32
302
GRIDFORMAT
  1
GRIDFORMAT_BEGIN
 90
        0
 91
        1
 62
     0
 92
       -2
340
0
 93
        0
 40
0.045
309
GRIDFORMAT_END
309
TABLEFORMAT_END
  1
CELLSTYLE_BEGIN
 90
        1
 91
        1
300
_TITLE
309
CELLSTYLE_END
300
CELLSTYLE
  1
TABLEFORMAT_BEGIN
 90
        5
170
     1
 91
        0
 92
        0
 62
   257
 93
        1
300
CONTENTFORMAT
  1
CONTENTFORMAT_BEGIN
 90
        0
 91
        0
 92
      512
 93
        0
300

 40
0.0
140
1.0
 94
        5
 62
     0
340
125A2
144
0.18
309
CONTENTFORMAT_END
171
     0
 94
        6
 95
        1
302
GRIDFORMAT
  1
GRIDFORMAT_BEGIN
 90
        0
 91
        1
 62
     0
 92
       -2
340
0
 93
        0
 40
0.045
309
GRIDFORMAT_END
 95
        2
302
GRIDFORMAT
  1
GRIDFORMAT_BEGIN
 90
        0
 91
        1
 62
     0
 92
       -2
340
0
 93
        0
 40
0.045
309
GRIDFORMAT_END
 95
        4
302
GRIDFORMAT
  1
GRIDFORMAT_BEGIN
 90
        0
 91
        1
 62
     0
 92
       -2
340
0
 93
        0
 40
0.045
309
GRIDFORMAT_END
 95
        8
302
GRIDFORMAT
  1
GRIDFORMAT_BEGIN
 90
        0
 91
        1
 62
     0
 92
       -2
340
0
 93
        0
 40
0.045
309
GRIDFORMAT_END
 95
       16
302
GRIDFORMAT
  1
GRIDFORMAT_BEGIN
 90
        0
 91
        1
 62
     0
 92
       -2
340
0
 93
        0
 40
0.045
309
GRIDFORMAT_END
 95
       32
302
GRIDFORMAT
  1
GRIDFORMAT_BEGIN
 90
        0
 91
        1
 62
     0
 92
       -2
340
0
 93
        0
 40
0.045
309
GRIDFORMAT_END
309
TABLEFORMAT_END
  1
CELLSTYLE_BEGIN
 90
        2
 91
        1
300
_HEADER
309
CELLSTYLE_END
300
CELLSTYLE
  1
TABLEFORMAT_BEGIN
 90
        5
170
     1
 91
        0
 92
        0
 62
   257
 93
        1
300
CONTENTFORMAT
  1
CONTENTFORMAT_BEGIN
 90
        0
 91
        0
 92
      512
 93
        0
300

 40
0.0
140
1.0
 94
        2
 62
     0
340
125A2
144
0.18
309
CONTENTFORMAT_END
171
     0
 94
        6
 95
        1
302
GRIDFORMAT
  1
GRIDFORMAT_BEGIN
 90
        0
 91
        1
 62
     0
 92
       -2
340
0
 93
        0
 40
0.045
309
GRIDFORMAT_END
 95
        2
302
GRIDFORMAT
  1
GRIDFORMAT_BEGIN
 90
        0
 91
        1
 62
     0
 92
       -2
340
0
 93
        0
 40
0.045
309
GRIDFORMAT_END
 95
        4
302
GRIDFORMAT
  1
GRIDFORMAT_BEGIN
 90
        0
 91
        1
 62
     0
 92
       -2
340
0
 93
        0
 40
0.045
309
GRIDFORMAT_END
 95
        8
302
GRIDFORMAT
  1
GRIDFORMAT_BEGIN
 90
        0
 91
        1
 62
     0
 92
       -2
340
0
 93
        0
 40
0.045
309
GRIDFORMAT_END
 95
       16
302
GRIDFORMAT
  1
GRIDFORMAT_BEGIN
 90
        0
 91
        1
 62
     0
 92
       -2
340
0
 93
        0
 40
0.045
309
GRIDFORMAT_END
 95
       32
302
GRIDFORMAT
  1
GRIDFORMAT_BEGIN
 90
        0
 91
        1
 62
     0
 92
       -2
340
0
 93
        0
 40
0.045
309
GRIDFORMAT_END
309
TABLEFORMAT_END
  1
CELLSTYLE_BEGIN
 90
        3
 91
        2
300
_DATA
309
CELLSTYLE_END
  0
ENDSEC
  0
EOF
