  0
SECTION
  2
HEADER
  9
$ACADVER
  1
AC1015
  9
$ACADMAINTVER
 70
    13
  9
$DWGCODEPAGE
  3
ANSI_932
  9
$INSBASE
 10
267.0
 20
194.8999999999998
 30
0.0
  9
$EXTMIN
 10
433.9966216520333
 20
163.6908237492789
 30
-0.000000000000013
  9
$EXTMAX
 10
16382.6660542547
 20
11242.27663824599
 30
0.0000000000000023
  9
$LIMMIN
 10
0.0
 20
0.0
  9
$LIMMAX
 10
16800.0
 20
11880.0
  9
$ORTHOMODE
 70
     0
  9
$REGENMODE
 70
     1
  9
$FILLMODE
 70
     1
  9
$QTEXTMODE
 70
     0
  9
$MIRRTEXT
 70
     0
  9
$LTSCALE
 40
40.0
  9
$ATTMODE
 70
     1
  9
$TEXTSIZE
 40
0.2
  9
$TRACEWID
 40
0.05
  9
$TEXTSTYLE
  7
00
  9
$CLAYER
  8
HIKIDASHI
  9
$CELTYPE
  6
ByLayer
  9
$CECOLOR
 62
   256
  9
$CELTSCALE
 40
1.0
  9
$DISPSILH
 70
     0
  9
$DIMSCALE
 40
30.0
  9
$DIMASZ
 40
0.5
  9
$DIMEXO
 40
1.0
  9
$DIMDLI
 40
7.0
  9
$DIMRND
 40
0.0
  9
$DIMDLE
 40
3.0
  9
$DIMEXE
 40
1.5
  9
$DIMTP
 40
0.0
  9
$DIMTM
 40
0.0
  9
$DIMTXT
 40
3.0
  9
$DIMCEN
 40
0.0
  9
$DIMTSZ
 40
0.0
  9
$DIMTOL
 70
     0
  9
$DIMLIM
 70
     0
  9
$DIMTIH
 70
     0
  9
$DIMTOH
 70
     0
  9
$DIMSE1
 70
     0
  9
$DIMSE2
 70
     0
  9
$DIMTAD
 70
     1
  9
$DIMZIN
 70
     8
  9
$DIMBLK
  1
DOT
  9
$DIMASO
 70
     1
  9
$DIMSHO
 70
     0
  9
$DIMPOST
  1

  9
$DIMAPOST
  1

  9
$DIMALT
 70
     0
  9
$DIMALTD
 70
     2
  9
$DIMALTF
 40
25.4
  9
$DIMLFAC
 40
1.0
  9
$DIMTOFL
 70
     1
  9
$DIMTVP
 40
0.0
  9
$DIMTIX
 70
     0
  9
$DIMSOXD
 70
     0
  9
$DIMSAH
 70
     1
  9
$DIMBLK1
  1
DOT
  9
$DIMBLK2
  1
DOT
  9
$DIMSTYLE
  2
SUNPOU_図面名
  9
$DIMCLRD
 70
   256
  9
$DIMCLRE
 70
   256
  9
$DIMCLRT
 70
   256
  9
$DIMTFAC
 40
1.0
  9
$DIMGAP
 40
1.5
  9
$DIMJUST
 70
     0
  9
$DIMSD1
 70
     0
  9
$DIMSD2
 70
     0
  9
$DIMTOLJ
 70
     1
  9
$DIMTZIN
 70
     0
  9
$DIMALTZ
 70
     0
  9
$DIMALTTZ
 70
     0
  9
$DIMUPT
 70
     0
  9
$DIMDEC
 70
     2
  9
$DIMTDEC
 70
     2
  9
$DIMALTU
 70
     2
  9
$DIMALTTD
 70
     2
  9
$DIMTXSTY
  7
STANDARD
  9
$DIMAUNIT
 70
     0
  9
$DIMADEC
 70
     0
  9
$DIMALTRND
 40
0.0
  9
$DIMAZIN
 70
     0
  9
$DIMDSEP
 70
    46
  9
$DIMATFIT
 70
     3
  9
$DIMFRAC
 70
     0
  9
$DIMLDRBLK
  1

  9
$DIMLUNIT
 70
     2
  9
$DIMLWD
 70
    -2
  9
$DIMLWE
 70
    -2
  9
$DIMTMOVE
 70
     2
  9
$LUNITS
 70
     2
  9
$LUPREC
 70
     2
  9
$SKETCHINC
 40
0.1
  9
$FILLETRAD
 40
0.0
  9
$AUNITS
 70
     0
  9
$AUPREC
 70
     0
  9
$MENU
  1
A:\TIGER\MENU\TIGER
  9
$ELEVATION
 40
0.0
  9
$PELEVATION
 40
0.0
  9
$THICKNESS
 40
0.0
  9
$LIMCHECK
 70
     0
  9
$CHAMFERA
 40
0.0
  9
$CHAMFERB
 40
0.0
  9
$CHAMFERC
 40
1.0
  9
$CHAMFERD
 40
0.0
  9
$SKPOLY
 70
     0
  9
$TDCREATE
 40
2450266.571064815
  9
$TDUCREATE
 40
2450266.196064815
  9
$TDUPDATE
 40
2456331.634077141
  9
$TDUUPDATE
 40
2456331.259077141
  9
$TDINDWG
 40
0.1632613542
  9
$TDUSRTIMER
 40
0.1632611806
  9
$USRTIMER
 70
     1
  9
$ANGBASE
 50
0.0
  9
$ANGDIR
 70
     0
  9
$PDMODE
 70
     0
  9
$PDSIZE
 40
0.0
  9
$PLINEWID
 40
0.0
  9
$SPLFRAME
 70
     0
  9
$SPLINETYPE
 70
     6
  9
$SPLINESEGS
 70
     8
  9
$HANDSEED
  5
17E01
  9
$SURFTAB1
 70
     6
  9
$SURFTAB2
 70
     6
  9
$SURFTYPE
 70
     6
  9
$SURFU
 70
     6
  9
$SURFV
 70
     6
  9
$UCSBASE
  2

  9
$UCSNAME
  2

  9
$UCSORG
 10
0.0
 20
0.0
 30
0.0
  9
$UCSXDIR
 10
1.0
 20
0.0
 30
0.0
  9
$UCSYDIR
 10
0.0
 20
1.0
 30
0.0
  9
$UCSORTHOREF
  2

  9
$UCSORTHOVIEW
 70
     0
  9
$UCSORGTOP
 10
0.0
 20
0.0
 30
0.0
  9
$UCSORGBOTTOM
 10
0.0
 20
0.0
 30
0.0
  9
$UCSORGLEFT
 10
0.0
 20
0.0
 30
0.0
  9
$UCSORGRIGHT
 10
0.0
 20
0.0
 30
0.0
  9
$UCSORGFRONT
 10
0.0
 20
0.0
 30
0.0
  9
$UCSORGBACK
 10
0.0
 20
0.0
 30
0.0
  9
$PUCSBASE
  2

  9
$PUCSNAME
  2

  9
$PUCSORG
 10
0.0
 20
0.0
 30
0.0
  9
$PUCSXDIR
 10
1.0
 20
0.0
 30
0.0
  9
$PUCSYDIR
 10
0.0
 20
1.0
 30
0.0
  9
$PUCSORTHOREF
  2

  9
$PUCSORTHOVIEW
 70
     0
  9
$PUCSORGTOP
 10
0.0
 20
0.0
 30
0.0
  9
$PUCSORGBOTTOM
 10
0.0
 20
0.0
 30
0.0
  9
$PUCSORGLEFT
 10
0.0
 20
0.0
 30
0.0
  9
$PUCSORGRIGHT
 10
0.0
 20
0.0
 30
0.0
  9
$PUCSORGFRONT
 10
0.0
 20
0.0
 30
0.0
  9
$PUCSORGBACK
 10
0.0
 20
0.0
 30
0.0
  9
$USERI1
 70
     3
  9
$USERI2
 70
     0
  9
$USERI3
 70
     0
  9
$USERI4
 70
     0
  9
$USERI5
 70
  1103
  9
$USERR1
 40
0.0
  9
$USERR2
 40
1.0
  9
$USERR3
 40
0.0
  9
$USERR4
 40
0.0
  9
$USERR5
 40
0.0
  9
$WORLDVIEW
 70
     1
  9
$SHADEDGE
 70
     3
  9
$SHADEDIF
 70
    70
  9
$TILEMODE
 70
     1
  9
$MAXACTVP
 70
    16
  9
$PINSBASE
 10
0.0
 20
0.0
 30
0.0
  9
$PLIMCHECK
 70
     0
  9
$PEXTMIN
 10
1.000000000000000E+20
 20
1.000000000000000E+20
 30
1.000000000000000E+20
  9
$PEXTMAX
 10
-1.000000000000000E+20
 20
-1.000000000000000E+20
 30
-1.000000000000000E+20
  9
$PLIMMIN
 10
0.0
 20
0.0
  9
$PLIMMAX
 10
12.0
 20
9.0
  9
$UNITMODE
 70
     0
  9
$VISRETAIN
 70
     0
  9
$PLINEGEN
 70
     1
  9
$PSLTSCALE
 70
     0
  9
$TREEDEPTH
 70
  3020
  9
$CMLSTYLE
  2
Standard
  9
$CMLJUST
 70
     0
  9
$CMLSCALE
 40
1.0
  9
$PROXYGRAPHICS
 70
     1
  9
$MEASUREMENT
 70
     0
  9
$CELWEIGHT
370
    -1
  9
$ENDCAPS
280
     0
  9
$JOINSTYLE
280
     0
  9
$LWDISPLAY
290
     0
  9
$INSUNITS
 70
     0
  9
$HYPERLINKBASE
  1

  9
$STYLESHEET
  1

  9
$XEDIT
290
     1
  9
$CEPSNTYPE
380
     0
  9
$PSTYLEMODE
290
     1
  9
$FINGERPRINTGUID
  2
{2F61FA84-D183-4512-807C-3370C7F0D9E8}
  9
$VERSIONGUID
  2
{E0BFA4CC-FDAE-4181-9064-467E93EEAAE2}
  9
$EXTNAMES
290
     1
  9
$PSVPSCALE
 40
0.0
  9
$OLESTARTUP
290
     0
  0
ENDSEC
  0
SECTION
  2
CLASSES
  0
CLASS
  1
ACDBDICTIONARYWDFLT
  2
AcDbDictionaryWithDefault
  3
AutoCAD 2000
 90
        0
280
     0
281
     0
  0
CLASS
  1
ACDBPLACEHOLDER
  2
AcDbPlaceHolder
  3
AutoCAD 2000
 90
        0
280
     0
281
     0
  0
CLASS
  1
LAYOUT
  2
AcDbLayout
  3
AutoCAD 2000
 90
        0
280
     0
281
     0
  0
CLASS
  1
DICTIONARYVAR
  2
AcDbDictionaryVar
  3
AutoCAD 2000
 90
        0
280
     0
281
     0
  0
ENDSEC
  0
SECTION
  2
TABLES
  0
TABLE
  2
VPORT
  5
17D7A
330
0
100
AcDbSymbolTable
 70
     2
  0
VPORT
  5
17E00
330
17D7A
100
AcDbSymbolTableRecord
100
AcDbViewportTableRecord
  2
*Active
 70
     0
 10
0.0
 20
0.0
 11
1.0
 21
1.0
 12
8408.331337953368
 22
5702.983730997637
 13
0.0
 23
0.0
 14
1.0
 24
1.0
 15
0.0
 25
0.0
 16
0.0
 26
0.0
 36
1.0
 17
0.0
 27
0.0
 37
0.0
 40
12985.73988638911
 41
1.236040609137055
 42
50.0
 43
0.0
 44
0.0
 50
0.0
 51
0.0
 71
     0
 72
 10000
 73
     1
 74
     0
 75
     0
 76
     0
 77
     0
 78
     0
281
     0
 65
     0
110
0.0
120
0.0
130
0.0
111
1.0
121
0.0
131
0.0
112
0.0
122
1.0
132
0.0
 79
     0
146
0.0
  0
ENDTAB
  0
TABLE
  2
LTYPE
  5
17D77
330
0
100
AcDbSymbolTable
 70
     5
  0
LTYPE
  5
17D85
330
17D77
100
AcDbSymbolTableRecord
100
AcDbLinetypeTableRecord
  2
ByBlock
 70
     0
  3

 72
    65
 73
     0
 40
0.0
  0
LTYPE
  5
17D86
330
17D77
100
AcDbSymbolTableRecord
100
AcDbLinetypeTableRecord
  2
ByLayer
 70
     0
  3

 72
    65
 73
     0
 40
0.0
  0
LTYPE
  5
17D87
330
17D77
100
AcDbSymbolTableRecord
100
AcDbLinetypeTableRecord
  2
CONTINUOUS
 70
     0
  3
実線
 72
    65
 73
     0
 40
0.0
  0
LTYPE
  5
17D93
330
17D77
100
AcDbSymbolTableRecord
100
AcDbLinetypeTableRecord
  2
1PL-LL
 70
     0
  3

 72
    65
 73
     4
 40
106.0
 49
100.0
 74
     0
 49
-2.0
 74
     0
 49
2.0
 74
     0
 49
-2.0
 74
     0
  0
LTYPE
  5
17D94
330
17D77
100
AcDbSymbolTableRecord
100
AcDbLinetypeTableRecord
  2
1PL-M
 70
     0
  3

 72
    65
 73
     4
 40
15.0
 49
12.0
 74
     0
 49
-1.0
 74
     0
 49
1.0
 74
     0
 49
-1.0
 74
     0
  0
LTYPE
  5
17D95
330
17D77
100
AcDbSymbolTableRecord
100
AcDbLinetypeTableRecord
  2
2PL-L
 70
     0
  3

 72
    65
 73
     6
 40
60.0
 49
50.0
 74
     0
 49
-2.0
 74
     0
 49
2.0
 74
     0
 49
-2.0
 74
     0
 49
2.0
 74
     0
 49
-2.0
 74
     0
  0
LTYPE
  5
17D96
330
17D77
100
AcDbSymbolTableRecord
100
AcDbLinetypeTableRecord
  2
1PL-12
 70
     0
  3

 72
    65
 73
     4
 40
15.0
 49
12.0
 74
     0
 49
-1.0
 74
     0
 49
1.0
 74
     0
 49
-1.0
 74
     0
  0
ENDTAB
  0
TABLE
  2
LAYER
  5
17D74
330
0
100
AcDbSymbolTable
 70
    19
  0
LAYER
  5
17D82
330
17D74
100
AcDbSymbolTableRecord
100
AcDbLayerTableRecord
  2
0
 70
     0
 62
     7
  6
CONTINUOUS
370
    -3
390
17D81
  0
LAYER
  5
17D98
330
17D74
100
AcDbSymbolTableRecord
100
AcDbLayerTableRecord
  2
U1
 70
     0
 62
     3
  6
CONTINUOUS
370
    -3
390
17D81
  0
LAYER
  5
17D99
330
17D74
100
AcDbSymbolTableRecord
100
AcDbLayerTableRecord
  2
U3
 70
     0
 62
     6
  6
CONTINUOUS
370
    -3
390
17D81
  0
LAYER
  5
17D9A
330
17D74
100
AcDbSymbolTableRecord
100
AcDbLayerTableRecord
  2
SUNPOU
 70
     0
 62
     4
  6
CONTINUOUS
370
    -3
390
17D81
  0
LAYER
  5
17D9B
330
17D74
100
AcDbSymbolTableRecord
100
AcDbLayerTableRecord
  2
HIKIDASHI
 70
     0
 62
     6
  6
CONTINUOUS
370
    -3
390
17D81
  0
LAYER
  5
17D9C
330
17D74
100
AcDbSymbolTableRecord
100
AcDbLayerTableRecord
  2
1PL-M1
 70
     0
 62
     6
  6
1PL-M
370
    -3
390
17D81
  0
LAYER
  5
17D9D
330
17D74
100
AcDbSymbolTableRecord
100
AcDbLayerTableRecord
  2
NAME
 70
     0
 62
    20
  6
CONTINUOUS
370
    -3
390
17D81
  0
LAYER
  5
17D9E
330
17D74
100
AcDbSymbolTableRecord
100
AcDbLayerTableRecord
  2
FILENAME
 70
     0
 62
     7
  6
CONTINUOUS
370
    -3
390
17D81
  0
LAYER
  5
17D9F
330
17D74
100
AcDbSymbolTableRecord
100
AcDbLayerTableRecord
  2
CENTER
 70
     0
 62
     6
  6
1PL-LL
370
    -3
390
17D81
  0
LAYER
  5
17DA0
330
17D74
100
AcDbSymbolTableRecord
100
AcDbLayerTableRecord
  2
KISO
 70
     0
 62
     2
  6
CONTINUOUS
370
    -3
390
17D81
  0
LAYER
  5
17DA1
330
17D74
100
AcDbSymbolTableRecord
100
AcDbLayerTableRecord
  2
YANE
 70
     0
 62
     1
  6
1PL-12
370
    -3
390
17D81
  0
LAYER
  5
17DA2
330
17D74
100
AcDbSymbolTableRecord
100
AcDbLayerTableRecord
  2
HATCH
 70
     0
 62
     1
  6
CONTINUOUS
370
    -3
390
17D81
  0
LAYER
  5
17DA3
330
17D74
100
AcDbSymbolTableRecord
100
AcDbLayerTableRecord
  2
HASHIRA
 70
     0
 62
     3
  6
CONTINUOUS
370
    -3
390
17D81
  0
LAYER
  5
17DA4
330
17D74
100
AcDbSymbolTableRecord
100
AcDbLayerTableRecord
  2
TEKKIN
 70
     0
 62
     2
  6
CONTINUOUS
370
    -3
390
17D81
  0
LAYER
  5
17DA5
330
17D74
100
AcDbSymbolTableRecord
100
AcDbLayerTableRecord
  2
DOMAKON
 70
     0
 62
     2
  6
CONTINUOUS
370
    -3
390
17D81
  0
LAYER
  5
17DA6
330
17D74
100
AcDbSymbolTableRecord
100
AcDbLayerTableRecord
  2
YODOROGO
 70
     0
 62
   130
  6
CONTINUOUS
370
    -3
390
17D81
  0
LAYER
  5
17DA7
330
17D74
100
AcDbSymbolTableRecord
100
AcDbLayerTableRecord
  2
WAKUSEN-01
 70
     0
 62
    50
  6
CONTINUOUS
370
    -3
390
17D81
  0
LAYER
  5
17DA8
330
17D74
100
AcDbSymbolTableRecord
100
AcDbLayerTableRecord
  2
WAKUSEN-02
 70
     0
 62
   130
  6
CONTINUOUS
370
    -3
390
17D81
  0
LAYER
  5
17DA9
330
17D74
100
AcDbSymbolTableRecord
100
AcDbLayerTableRecord
  2
WAKUMOJI-01
 70
     0
 62
   130
  6
CONTINUOUS
370
    -3
390
17D81
  0
ENDTAB
  0
TABLE
  2
STYLE
  5
17D75
330
0
100
AcDbSymbolTable
 70
     5
  0
STYLE
  5
17D83
330
17D75
100
AcDbSymbolTableRecord
100
AcDbTextStyleTableRecord
  2
STANDARD
 70
     0
 40
3.0
 41
1.0
 50
0.0
 71
     0
 42
0.2
  3
ROMANS
  4
EXTFONT
  0
STYLE
  5
17DAB
330
17D75
100
AcDbSymbolTableRecord
100
AcDbTextStyleTableRecord
  2
01
 70
     0
 40
3.0
 41
1.0
 50
0.0
 71
     0
 42
0.2
  3
ROMANS
  4
BIGFONT
  0
STYLE
  5
17DAC
330
17D75
100
AcDbSymbolTableRecord
100
AcDbTextStyleTableRecord
  2
00
 70
     0
 40
0.0
 41
0.6666666666666666
 50
0.0
 71
     0
 42
0.2
  3
ROMANS
  4
BIGFONT
  0
STYLE
  5
17DAD
330
17D75
100
AcDbSymbolTableRecord
100
AcDbTextStyleTableRecord
  2
WAKUMOJI
 70
     0
 40
3.0
 41
1.0
 50
0.0
 71
     0
 42
3.0
  3
SIMPLEX
  4
BIGFONT
  0
STYLE
  5
17DAE
330
17D75
100
AcDbSymbolTableRecord
100
AcDbTextStyleTableRecord
  2
FILENAME
 70
     0
 40
75.0
 41
1.0
 50
0.0
 71
     0
 42
75.0
  3
romans
  4
bigfont
  0
ENDTAB
  0
TABLE
  2
VIEW
  5
17D78
330
0
100
AcDbSymbolTable
 70
     0
  0
ENDTAB
  0
TABLE
  2
UCS
  5
17D79
330
0
100
AcDbSymbolTable
 70
     0
  0
ENDTAB
  0
TABLE
  2
APPID
  5
17D7B
330
0
100
AcDbSymbolTable
 70
     5
  0
APPID
  5
17D84
330
17D7B
100
AcDbSymbolTableRecord
100
AcDbRegAppTableRecord
  2
ACAD
 70
     0
  0
APPID
  5
17DB0
330
17D7B
100
AcDbSymbolTableRecord
100
AcDbRegAppTableRecord
  2
AUTOCAD_POSTSCRIPT_FIGURE
 70
     0
  0
APPID
  5
17DB1
330
17D7B
100
AcDbSymbolTableRecord
100
AcDbRegAppTableRecord
  2
ACAD_PSEXT
 70
     0
  0
APPID
  5
17DB2
330
17D7B
100
AcDbSymbolTableRecord
100
AcDbRegAppTableRecord
  2
ACAD_EXEMPT_FROM_CAD_STANDARDS
 70
     0
  0
APPID
  5
17DB3
330
17D7B
100
AcDbSymbolTableRecord
100
AcDbRegAppTableRecord
  2
ACAD_MLEADERVER
 70
     0
  0
ENDTAB
  0
TABLE
  2
DIMSTYLE
  5
17D7C
330
0
100
AcDbSymbolTable
 70
     1
100
AcDbDimStyleTable
 71
     0
  0
DIMSTYLE
105
D00
330
17D7C
100
AcDbSymbolTableRecord
100
AcDbDimStyleTableRecord
  2
SUNPOU_図面名
 70
     0
 40
30.0
 41
0.5
 42
1.0
 43
7.0
 44
1.5
 46
3.0
 73
     0
 74
     0
 77
     1
 78
     8
140
3.0
141
0.0
147
1.5
172
     1
173
     1
176
   256
177
   256
178
   256
340
17DAC
341
17DB7
342
17DB7
343
17DB7
344
17DB7
  0
ENDTAB
  0
TABLE
  2
BLOCK_RECORD
  5
17D73
330
0
100
AcDbSymbolTable
 70
     2
  0
BLOCK_RECORD
  5
17D8E
330
17D73
100
AcDbSymbolTableRecord
100
AcDbBlockTableRecord
  2
*Model_Space
340
17D8F
  0
BLOCK_RECORD
  5
17D8C
330
17D73
100
AcDbSymbolTableRecord
100
AcDbBlockTableRecord
  2
*Paper_Space
340
17D8D
  0
BLOCK_RECORD
  5
17DB7
330
17D73
100
AcDbSymbolTableRecord
100
AcDbBlockTableRecord
  2
DOT
340
0
  0
ENDTAB
  0
ENDSEC
  0
SECTION
  2
BLOCKS
  0
BLOCK
  5
17DB4
330
17D8E
100
AcDbEntity
  8
0
100
AcDbBlockBegin
  2
*Model_Space
 70
     0
 10
0.0
 20
0.0
 30
0.0
  3
*Model_Space
  1

  0
ENDBLK
  5
125F7
330
17D8E
100
AcDbEntity
  8
0
100
AcDbBlockEnd
  0
BLOCK
  5
17DB5
330
17D8C
100
AcDbEntity
 67
     1
  8
0
100
AcDbBlockBegin
  2
*Paper_Space
 70
     0
 10
0.0
 20
0.0
 30
0.0
  3
*Paper_Space
  1

  0
ENDBLK
  5
125F5
330
17D8C
100
AcDbEntity
 67
     1
  8
0
100
AcDbBlockEnd
  0
BLOCK
  5
17DB6
330
17DB7
100
AcDbEntity
  8
0
100
AcDbBlockBegin
  2
DOT
 70
     0
 10
0.0
 20
0.0
 30
0.0
  3
DOT
  1

  0
LWPOLYLINE
  5
12987
330
17DB7
100
AcDbEntity
  8
0
  6
ByBlock
 62
     0
100
AcDbPolyline
 90
        2
 70
     1
 43
0.75
 10
-0.375
 20
0.0
 42
1.0
 10
0.375
 20
0.0
 42
1.0
  0
LINE
  5
12988
330
17DB7
100
AcDbEntity
  8
0
  6
ByBlock
 62
     0
100
AcDbLine
 10
-0.75
 20
0.0
 30
0.0
 11
-1.5
 21
0.0
 31
0.0
  0
ENDBLK
  5
12989
330
17DB7
100
AcDbEntity
  8
0
100
AcDbBlockEnd
  0
ENDSEC
  0
SECTION
  2
ENTITIES
  0
TEXT
  5
12ADD
330
17D8E
100
AcDbEntity
  8
NAME
100
AcDbText
 10
11516.07508082364
 20
875.0
 30
0.0
 40
120.0
  1
（埋め込み方式）
  7
01
 72
     4
 11
12072.07508082364
 21
935.0
 31
0.0
100
AcDbText
  0
TEXT
  5
12AE0
330
17D8E
100
AcDbEntity
  8
FILENAME
100
AcDbText
 10
13809.61904761904
 20
174.0
 30
0.0
 40
100.0
  1
＜YOKCU-245-U1_3_JIS_GL.DXF＞
  7
FILENAME
 72
     2
 11
16382.0
 21
174.0
 31
0.0
100
AcDbText
  0
TEXT
  5
1546C
330
17D8E
100
AcDbEntity
  8
HIKIDASHI
100
AcDbText
 10
9007.426279443023
 20
5992.059624263298
 30
0.0
 40
80.0
  1
)
 41
0.6700000000000001
  7
00
100
AcDbText
  0
TEXT
  5
1546D
330
17D8E
100
AcDbEntity
  8
HIKIDASHI
100
AcDbText
 10
8806.567530753644
 20
6007.621102011493
 30
0.0
 40
80.0
  1
1
 41
0.6700000000000001
  7
00
100
AcDbText
  0
TEXT
  5
1546E
330
17D8E
100
AcDbEntity
  8
HIKIDASHI
100
AcDbText
 10
8839.704668617953
 20
5992.059624263298
 30
0.0
 40
80.0
  1
/
 41
0.6700000000000001
  7
00
100
AcDbText
  0
TEXT
  5
1546F
330
17D8E
100
AcDbEntity
  8
HIKIDASHI
100
AcDbText
 10
8885.999823380597
 20
5965.891793063018
 30
0.0
 40
80.0
  1
40
 41
0.6700000000000001
  7
00
100
AcDbText
  0
TEXT
  5
15470
330
17D8E
100
AcDbEntity
  8
HIKIDASHI
100
AcDbText
 10
8625.85961481597
 20
5992.059624263298
 30
0.0
 40
80.0
  1
(S=
 41
0.6700000000000001
  7
00
100
AcDbText
  0
TEXT
  5
15471
330
17D8E
100
AcDbEntity
  8
HIKIDASHI
100
AcDbText
 10
7783.859614815971
 20
5968.243182432328
 30
0.0
 40
120.0
  1
基 礎 伏 図
  7
01
 72
     2
 11
8535.85961481597
 21
5968.243182432328
 31
0.0
100
AcDbText
  0
TEXT
  5
159C6
330
17D8E
100
AcDbEntity
  8
NAME
100
AcDbText
 10
12854.79999999999
 20
541.0000000000001
 30
0.0
 40
160.0
  1
<3／3>
 41
0.6
  7
01
 72
     2
 11
13354.0
 21
541.0000000000001
 31
0.0
100
AcDbText
  0
TEXT
  5
159C7
330
17D8E
100
AcDbEntity
  8
NAME
100
AcDbText
 10
10778.70931397095
 20
541.0
 30
0.0
 40
160.0
  1
YOKCU-245
 41
0.7
  7
01
 72
     2
 11
11776.04264730429
 21
541.0
 31
0.0
100
AcDbText
  0
TEXT
  5
159C8
330
17D8E
100
AcDbEntity
  8
NAME
100
AcDbText
 10
11816.04264730429
 20
541.0
 30
0.0
 40
160.0
  1
型（豪雪地用）
 41
0.8
  7
01
100
AcDbText
  0
LINE
  5
16DB1
330
17D8E
100
AcDbEntity
  8
CENTER
  6
1PL-M
100
AcDbLine
 10
6644.127507899641
 20
8708.243182432326
 30
0.0
 11
8784.12750789964
 21
8708.243182432326
 31
0.0
  0
LINE
  5
16DB2
330
17D8E
100
AcDbEntity
  8
CENTER
  6
1PL-M
100
AcDbLine
 10
8934.12750789964
 20
8708.243182432326
 30
0.0
 11
10194.12750789964
 21
8708.243182432326
 31
0.0
  0
LINE
  5
16DB9
330
17D8E
100
AcDbEntity
  8
CENTER
  6
1PL-M
100
AcDbLine
 10
7189.127507899641
 20
6298.243182432327
 30
0.0
 11
7189.127507899641
 21
9308.243182432327
 31
0.0
  0
LINE
  5
16DBA
330
17D8E
100
AcDbEntity
  8
CENTER
  6
1PL-M
100
AcDbLine
 10
6766.977929614672
 20
6898.243182432327
 30
0.0
 11
10194.12750789964
 21
6898.243182432327
 31
0.0
  0
LINE
  5
16DBB
330
17D8E
100
AcDbEntity
  8
CENTER
  6
1PL-M
100
AcDbLine
 10
9649.127507899642
 20
6298.243182432327
 30
0.0
 11
9649.127507899642
 21
8023.243182432326
 31
0.0
  0
LINE
  5
16DBC
330
17D8E
100
AcDbEntity
  8
CENTER
  6
1PL-M
100
AcDbLine
 10
9649.127507899642
 20
8173.243182432328
 30
0.0
 11
9649.127507899642
 21
9308.243182432327
 31
0.0
  0
LINE
  5
16DC5
330
17D8E
100
AcDbEntity
  8
SUNPOU
100
AcDbLine
 10
6579.127507899636
 20
7108.243182432326
 30
0.0
 11
6579.127507899636
 21
6898.243182432327
 31
0.0
  0
LINE
  5
16DC6
330
17D8E
100
AcDbEntity
  8
SUNPOU
100
AcDbLine
 10
6579.127507899642
 20
6898.243182432327
 30
0.0
 11
6729.127507899639
 21
6898.243182432327
 31
0.0
  0
TEXT
  5
16DC8
330
17D8E
100
AcDbEntity
  8
SUNPOU
100
AcDbText
 10
6553.284650756779
 20
7243.243182432326
 30
0.0
 40
90.0
  1
A
 41
0.6700000000000001
  7
00
 72
     4
 11
6579.127507899636
 21
7288.243182432326
 31
0.0
100
AcDbText
  0
LINE
  5
16DC9
330
17D8E
100
AcDbEntity
  8
SUNPOU
100
AcDbLine
 10
7799.12750789964
 20
7108.243182432326
 30
0.0
 11
7799.12750789964
 21
6898.243182432327
 31
0.0
  0
LINE
  5
16DCA
330
17D8E
100
AcDbEntity
  8
SUNPOU
100
AcDbLine
 10
7799.12750789964
 20
6898.243182432327
 30
0.0
 11
7649.127507899641
 21
6898.243182432327
 31
0.0
  0
TEXT
  5
16DCC
330
17D8E
100
AcDbEntity
  8
SUNPOU
100
AcDbText
 10
7763.234650756785
 20
7234.671753860897
 30
0.0
 40
90.0
  1
A'
 41
0.6700000000000001
  7
00
 72
     4
 11
7799.12750789964
 21
7288.243182432326
 31
0.0
100
AcDbText
  0
TEXT
  5
16DD0
330
17D8E
100
AcDbEntity
  8
HIKIDASHI
100
AcDbText
 10
7812.824073304895
 20
9003.243182432326
 30
0.0
 40
90.0
  1
（屋根後面位置）
  7
01
100
AcDbText
  0
TEXT
  5
16DD1
330
17D8E
100
AcDbEntity
  8
HIKIDASHI
100
AcDbText
 10
7728.715471388873
 20
8773.243182432327
 30
0.0
 40
90.0
  1
（土間コン後面位置）
  7
01
100
AcDbText
  0
TEXT
  5
16DD2
330
17D8E
100
AcDbEntity
  8
HIKIDASHI
100
AcDbText
 10
7835.736109815659
 20
6263.243182432327
 30
0.0
 40
90.0
  1
（鼻隠し外面）
  7
01
100
AcDbText
  0
TEXT
  5
16DD3
330
17D8E
100
AcDbEntity
  8
HIKIDASHI
100
AcDbText
 10
7751.627507899641
 20
6543.243182432327
 30
0.0
 40
90.0
  1
（土間コン前面位置）
  7
01
100
AcDbText
  0
TEXT
  5
171CE
330
17D8E
100
AcDbEntity
  8
NAME
100
AcDbText
 10
12159.06898735705
 20
1063.242132579307
 30
0.0
 40
120.0
  1
Y O K C U
 41
0.6666666666666666
  7
00
100
AcDbText
  0
TEXT
  5
171CF
330
17D8E
100
AcDbEntity
  8
NAME
100
AcDbText
 10
11083.47628552035
 20
1063.242132579307
 30
0.0
 40
120.0
  1
ヨド自転車置場　　　    型
  7
01
100
AcDbText
  0
LINE
  5
1728F
330
17D8E
100
AcDbEntity
  8
HIKIDASHI
100
AcDbLine
 10
4186.816957180232
 20
4083.204154334509
 30
0.0
 11
3405.031576763642
 21
4083.204154334509
 31
0.0
  0
LINE
  5
17292
330
17D8E
100
AcDbEntity
  8
1PL-M1
100
AcDbLine
 10
4889.856483595693
 20
2873.96373352073
 30
0.0
 11
4889.856483595691
 21
4601.963733520728
 31
0.0
  0
LINE
  5
17293
330
17D8E
100
AcDbEntity
  8
HASHIRA
100
AcDbLine
 10
4837.856483595691
 20
3145.963733520729
 30
0.0
 11
4837.856483595691
 21
4233.963733520726
 31
0.0
  0
LINE
  5
17294
330
17D8E
100
AcDbEntity
  8
HASHIRA
100
AcDbLine
 10
4941.856483595691
 20
3145.963733520729
 30
0.0
 11
4941.856483595691
 21
4233.963733520726
 31
0.0
  0
LINE
  5
17295
330
17D8E
100
AcDbEntity
  8
HATCH
100
AcDbLine
 10
6088.042305995692
 20
3563.21910792073
 30
0.0
 11
6107.242305995693
 21
3529.963733520729
 31
0.0
  0
LINE
  5
17296
330
17D8E
100
AcDbEntity
  8
HATCH
100
AcDbLine
 10
6232.042305995692
 20
3563.21910792073
 30
0.0
 11
6251.242305995694
 21
3529.963733520729
 31
0.0
  0
LINE
  5
17297
330
17D8E
100
AcDbEntity
  8
HATCH
100
AcDbLine
 10
6229.867931595691
 20
3625.963733520729
 30
0.0
 11
6249.067931595693
 21
3592.708357520729
 31
0.0
  0
LINE
  5
17298
330
17D8E
100
AcDbEntity
  8
HATCH
100
AcDbLine
 10
6212.842305995692
 20
3529.963733520729
 30
0.0
 11
6268.267931595691
 21
3625.963733520729
 31
0.0
  0
LINE
  5
17299
330
17D8E
100
AcDbEntity
  8
HATCH
100
AcDbLine
 10
6336.250096395694
 20
3753.963733520729
 30
0.0
 11
6208.250096395694
 21
3625.963733520729
 31
0.0
  0
LINE
  5
1729A
330
17D8E
100
AcDbEntity
  8
HATCH
100
AcDbLine
 10
6241.21494439569
 20
3753.963733520729
 30
0.0
 11
6113.21494439569
 21
3625.963733520729
 31
0.0
  0
LINE
  5
1729B
330
17D8E
100
AcDbEntity
  8
HATCH
100
AcDbLine
 10
6288.732520395693
 20
3753.963733520729
 30
0.0
 11
6160.732520395693
 21
3625.963733520729
 31
0.0
  0
LINE
  5
1729C
330
17D8E
100
AcDbEntity
  8
HATCH
100
AcDbLine
 10
5960.042305995692
 20
3563.21910792073
 30
0.0
 11
5979.242305995693
 21
3529.963733520729
 31
0.0
  0
LINE
  5
1729D
330
17D8E
100
AcDbEntity
  8
HATCH
100
AcDbLine
 10
5957.867931595689
 20
3625.963733520729
 30
0.0
 11
5977.067931595691
 21
3592.708357520729
 31
0.0
  0
LINE
  5
1729E
330
17D8E
100
AcDbEntity
  8
HATCH
100
AcDbLine
 10
5940.842305995693
 20
3529.963733520729
 30
0.0
 11
5996.267931595689
 21
3625.963733520729
 31
0.0
  0
LINE
  5
1729F
330
17D8E
100
AcDbEntity
  8
HATCH
100
AcDbLine
 10
5717.016790795693
 20
3625.963733520729
 30
0.0
 11
5701.016790795693
 21
3625.963733520729
 31
0.0
  0
LINE
  5
172A0
330
17D8E
100
AcDbEntity
  8
HATCH
100
AcDbLine
 10
5816.042305995694
 20
3563.21910792073
 30
0.0
 11
5835.242305995691
 21
3529.963733520729
 31
0.0
  0
LINE
  5
172A1
330
17D8E
100
AcDbEntity
  8
HATCH
100
AcDbLine
 10
5796.842305995693
 20
3529.963733520729
 30
0.0
 11
5852.267931595689
 21
3625.963733520729
 31
0.0
  0
LINE
  5
172A2
330
17D8E
100
AcDbEntity
  8
HATCH
100
AcDbLine
 10
5813.867931595691
 20
3625.963733520729
 30
0.0
 11
5833.067931595691
 21
3592.708357520729
 31
0.0
  0
LINE
  5
172A3
330
17D8E
100
AcDbEntity
  8
HATCH
100
AcDbLine
 10
5856.250096395695
 20
3753.963733520729
 30
0.0
 11
5728.250096395695
 21
3625.963733520729
 31
0.0
  0
LINE
  5
172A4
330
17D8E
100
AcDbEntity
  8
HATCH
100
AcDbLine
 10
5672.042305995695
 20
3563.21910792073
 30
0.0
 11
5691.242305995693
 21
3529.963733520729
 31
0.0
  0
LINE
  5
172A5
330
17D8E
100
AcDbEntity
  8
HATCH
100
AcDbLine
 10
5669.867931595691
 20
3625.963733520729
 30
0.0
 11
5689.067931595691
 21
3592.708357520729
 31
0.0
  0
LINE
  5
172A6
330
17D8E
100
AcDbEntity
  8
HATCH
100
AcDbLine
 10
5529.856483595692
 20
3566.36135696226
 30
0.0
 11
5564.26793159569
 21
3625.963733520729
 31
0.0
  0
LINE
  5
172A7
330
17D8E
100
AcDbEntity
  8
HATCH
100
AcDbLine
 10
5529.856483595692
 20
3619.055358705336
 30
0.0
 11
5545.067931595691
 21
3592.708357520729
 31
0.0
  0
LINE
  5
172A8
330
17D8E
100
AcDbEntity
  8
HATCH
100
AcDbLine
 10
5529.856483595692
 20
3560.076860248017
 30
0.0
 11
5547.242305995694
 21
3529.963733520729
 31
0.0
  0
LINE
  5
172A9
330
17D8E
100
AcDbEntity
  8
HATCH
100
AcDbLine
 10
5573.016790795693
 20
3625.963733520729
 30
0.0
 11
5557.016790795692
 21
3625.963733520729
 31
0.0
  0
LINE
  5
172AA
330
17D8E
100
AcDbEntity
  8
HATCH
100
AcDbLine
 10
5808.73252039569
 20
3753.963733520729
 30
0.0
 11
5680.732520395693
 21
3625.963733520729
 31
0.0
  0
LINE
  5
172AB
330
17D8E
100
AcDbEntity
  8
HATCH
100
AcDbLine
 10
5761.214944395693
 20
3753.963733520729
 30
0.0
 11
5633.214944395693
 21
3625.963733520729
 31
0.0
  0
LINE
  5
172AC
330
17D8E
100
AcDbEntity
  8
HATCH
100
AcDbLine
 10
5652.842305995695
 20
3529.963733520729
 30
0.0
 11
5708.267931595689
 21
3625.963733520729
 31
0.0
  0
LINE
  5
172AD
330
17D8E
100
AcDbEntity
  8
HATCH
100
AcDbLine
 10
6085.867931595689
 20
3625.963733520729
 30
0.0
 11
6105.067931595691
 21
3592.708357520729
 31
0.0
  0
LINE
  5
172AE
330
17D8E
100
AcDbEntity
  8
HATCH
100
AcDbLine
 10
6068.842305995693
 20
3529.963733520729
 30
0.0
 11
6124.267931595689
 21
3625.963733520729
 31
0.0
  0
LINE
  5
172AF
330
17D8E
100
AcDbEntity
  8
KISO
100
AcDbLine
 10
5529.856483595692
 20
3529.963733520729
 30
0.0
 11
6367.249978138846
 21
3529.96373352073
 31
0.0
  0
LINE
  5
172B0
330
17D8E
100
AcDbEntity
  8
KISO
100
AcDbLine
 10
6367.249978138846
 20
3625.963733520729
 30
0.0
 11
5529.856483595692
 21
3625.963733520729
 31
0.0
  0
LINE
  5
172B1
330
17D8E
100
AcDbEntity
  8
KISO
100
AcDbLine
 10
5529.856483595692
 20
3753.963733520729
 30
0.0
 11
5529.856483595692
 21
3145.963733520729
 31
0.0
  0
LINE
  5
172B2
330
17D8E
100
AcDbEntity
  8
U3
100
AcDbLine
 10
4138.665683595692
 20
3673.963733520729
 30
0.0
 11
4249.856483595691
 21
3562.772931920729
 31
0.0
  0
LINE
  5
172B3
330
17D8E
100
AcDbEntity
  8
U3
100
AcDbLine
 10
4087.753993995693
 20
3623.052043920729
 30
0.0
 11
4204.842305995692
 21
3505.963733520729
 31
0.0
  0
LINE
  5
172B4
330
17D8E
100
AcDbEntity
  8
U3
100
AcDbLine
 10
3919.753993995694
 20
3556.875421520731
 30
0.0
 11
4036.842305995692
 21
3673.963733520729
 31
0.0
  0
LINE
  5
172B5
330
17D8E
100
AcDbEntity
  8
U3
100
AcDbLine
 10
4036.842305995692
 20
3572.140355920728
 30
0.0
 11
4103.01892999569
 21
3505.963733520729
 31
0.0
  0
LINE
  5
172B6
330
17D8E
100
AcDbEntity
  8
U3
100
AcDbLine
 10
3970.665683595692
 20
3505.963733520729
 30
0.0
 11
4138.665683595692
 21
3673.963733520729
 31
0.0
  0
LINE
  5
172B7
330
17D8E
100
AcDbEntity
  8
KISO
100
AcDbLine
 10
4837.856483595691
 20
3753.963733520729
 30
0.0
 11
4249.856483595691
 21
3753.963733520729
 31
0.0
  0
LINE
  5
172B8
330
17D8E
100
AcDbEntity
  8
HATCH
100
AcDbLine
 10
4799.916475201962
 20
3753.963733520729
 30
0.0
 11
4249.856483595691
 21
3203.903741914457
 31
0.0
  0
LINE
  5
172B9
330
17D8E
100
AcDbEntity
  8
HATCH
100
AcDbLine
 10
4752.398899201963
 20
3753.963733520729
 30
0.0
 11
4249.856483595691
 21
3251.421317914457
 31
0.0
  0
LINE
  5
172BA
330
17D8E
100
AcDbEntity
  8
HATCH
100
AcDbLine
 10
4704.881324801961
 20
3753.963733520729
 30
0.0
 11
4249.856483595691
 21
3298.938892314453
 31
0.0
  0
LINE
  5
172BB
330
17D8E
100
AcDbEntity
  8
U3
100
AcDbLine
 10
3700.842305995694
 20
3572.140355920728
 30
0.0
 11
3767.018929995692
 21
3505.963733520729
 31
0.0
  0
LINE
  5
172BC
330
17D8E
100
AcDbEntity
  8
U3
100
AcDbLine
 10
3751.753993995694
 20
3623.052043920729
 30
0.0
 11
3868.842305995693
 21
3505.963733520729
 31
0.0
  0
LINE
  5
172BD
330
17D8E
100
AcDbEntity
  8
U3
100
AcDbLine
 10
3532.842305995694
 20
3607.787109520728
 30
0.0
 11
3599.018929995692
 21
3673.963733520729
 31
0.0
  0
LINE
  5
172BE
330
17D8E
100
AcDbEntity
  8
U3
100
AcDbLine
 10
3634.665683595692
 20
3505.963733520729
 30
0.0
 11
3802.665683595693
 21
3673.963733520729
 31
0.0
  0
LINE
  5
172BF
330
17D8E
100
AcDbEntity
  8
U3
100
AcDbLine
 10
3583.753993995694
 20
3556.875421520731
 30
0.0
 11
3700.842305995694
 21
3673.963733520729
 31
0.0
  0
LINE
  5
172C0
330
17D8E
100
AcDbEntity
  8
U3
100
AcDbLine
 10
3466.665683595692
 20
3673.963733520729
 30
0.0
 11
3634.665683595692
 21
3505.963733520729
 31
0.0
  0
LINE
  5
172C1
330
17D8E
100
AcDbEntity
  8
U3
100
AcDbLine
 10
3868.842305995693
 20
3607.787109520728
 30
0.0
 11
3935.018929995692
 21
3673.963733520729
 31
0.0
  0
LINE
  5
172C2
330
17D8E
100
AcDbEntity
  8
U3
100
AcDbLine
 10
3802.665683595693
 20
3673.963733520729
 30
0.0
 11
3970.665683595692
 21
3505.963733520729
 31
0.0
  0
LINE
  5
172C3
330
17D8E
100
AcDbEntity
  8
U3
100
AcDbLine
 10
4249.856483595691
 20
3673.963733520729
 30
0.0
 11
3466.665683595692
 21
3673.963733520729
 31
0.0
  0
LINE
  5
172C4
330
17D8E
100
AcDbEntity
  8
HATCH
100
AcDbLine
 10
4837.856483595691
 20
3404.311689551324
 30
0.0
 11
4683.508527565098
 21
3249.963733520729
 31
0.0
  0
LINE
  5
172C5
330
17D8E
100
AcDbEntity
  8
KISO
100
AcDbLine
 10
4249.856483595691
 20
3753.963733520729
 30
0.0
 11
4249.856483595691
 21
3145.963733520729
 31
0.0
  0
LINE
  5
172C6
330
17D8E
100
AcDbEntity
  8
HATCH
100
AcDbLine
 10
4837.856483595691
 20
3499.346839951326
 30
0.0
 11
4484.473377165095
 21
3145.96373352073
 31
0.0
  0
LINE
  5
172C7
330
17D8E
100
AcDbEntity
  8
HATCH
100
AcDbLine
 10
4837.856483595691
 20
3451.829265551324
 30
0.0
 11
4635.990951565096
 21
3249.963733520729
 31
0.0
  0
LINE
  5
172C8
330
17D8E
100
AcDbEntity
  8
HATCH
100
AcDbLine
 10
5187.508527565098
 20
3753.963733520729
 30
0.0
 11
4941.856483595691
 21
3508.311689551324
 31
0.0
  0
LINE
  5
172C9
330
17D8E
100
AcDbEntity
  8
HATCH
100
AcDbLine
 10
5139.990951565096
 20
3753.963733520729
 30
0.0
 11
4941.856483595691
 21
3555.829265551323
 31
0.0
  0
LINE
  5
172CA
330
17D8E
100
AcDbEntity
  8
HATCH
100
AcDbLine
 10
5092.473377165095
 20
3753.963733520729
 30
0.0
 11
4941.856483595691
 21
3603.346839951324
 31
0.0
  0
LINE
  5
172CB
330
17D8E
100
AcDbEntity
  8
KISO
100
AcDbLine
 10
6367.249978138845
 20
3753.963733520729
 30
0.0
 11
4941.856483595691
 21
3753.963733520729
 31
0.0
  0
LINE
  5
172CC
330
17D8E
100
AcDbEntity
  8
HATCH
100
AcDbLine
 10
4364.80684683883
 20
3753.963733520729
 30
0.0
 11
4249.856483595693
 21
3639.013370277589
 31
0.0
  0
LINE
  5
172CD
330
17D8E
100
AcDbEntity
  8
HATCH
100
AcDbLine
 10
4412.324422838832
 20
3753.963733520729
 30
0.0
 11
4249.856483595691
 21
3591.49579427759
 31
0.0
  0
LINE
  5
172CE
330
17D8E
100
AcDbEntity
  8
HATCH
100
AcDbLine
 10
4317.289272438831
 20
3753.963733520729
 30
0.0
 11
4249.856483595691
 21
3686.530944677587
 31
0.0
  0
LINE
  5
172CF
330
17D8E
100
AcDbEntity
  8
HATCH
100
AcDbLine
 10
5529.856483595692
 20
3708.719637188189
 30
0.0
 11
5071.100579928232
 21
3249.963733520729
 31
0.0
  0
LINE
  5
172D0
330
17D8E
100
AcDbEntity
  8
HATCH
100
AcDbLine
 10
5527.583003928228
 20
3753.963733520729
 30
0.0
 11
5023.583003928232
 21
3249.963733520728
 31
0.0
  0
LINE
  5
172D1
330
17D8E
100
AcDbEntity
  8
HATCH
100
AcDbLine
 10
5480.065429528228
 20
3753.963733520729
 30
0.0
 11
4941.856483595691
 21
3215.754787588188
 31
0.0
  0
LINE
  5
172D2
330
17D8E
100
AcDbEntity
  8
HATCH
100
AcDbLine
 10
5529.856483595692
 20
3416.162735225057
 30
0.0
 11
5259.657481891365
 21
3145.963733520729
 31
0.0
  0
LINE
  5
172D3
330
17D8E
100
AcDbEntity
  8
HATCH
100
AcDbLine
 10
5529.856483595692
 20
3368.645160825057
 30
0.0
 11
5307.175056291369
 21
3145.963733520729
 31
0.0
  0
LINE
  5
172D4
330
17D8E
100
AcDbEntity
  8
HATCH
100
AcDbLine
 10
5529.856483595693
 20
3321.127584825055
 30
0.0
 11
5354.692632291366
 21
3145.963733520729
 31
0.0
  0
LINE
  5
172D5
330
17D8E
100
AcDbEntity
  8
HATCH
100
AcDbLine
 10
4619.990951565096
 20
3233.96373352073
 30
0.0
 11
4531.990951565096
 21
3145.963733520729
 31
0.0
  0
LINE
  5
172D6
330
17D8E
100
AcDbEntity
  8
HATCH
100
AcDbLine
 10
4667.508527565098
 20
3233.96373352073
 30
0.0
 11
4579.508527565098
 21
3145.963733520729
 31
0.0
  0
LINE
  5
172D7
330
17D8E
100
AcDbEntity
  8
HATCH
100
AcDbLine
 10
4960.065429528231
 20
3233.96373352073
 30
0.0
 11
4941.856483595691
 21
3215.754787588188
 31
0.0
  0
LINE
  5
172D8
330
17D8E
100
AcDbEntity
  8
HATCH
100
AcDbLine
 10
5007.583003928234
 20
3233.96373352073
 30
0.0
 11
4941.856483595691
 21
3168.237213188188
 31
0.0
  0
LINE
  5
172D9
330
17D8E
100
AcDbEntity
  8
HATCH
100
AcDbLine
 10
5055.100579928232
 20
3233.96373352073
 30
0.0
 11
4967.100579928231
 21
3145.963733520729
 31
0.0
  0
TEXT
  5
172DC
330
17D8E
100
AcDbEntity
  8
HIKIDASHI
100
AcDbText
 10
4966.060086474469
 20
2119.914714678058
 30
0.0
 40
90.0
  1
断 面
  7
01
100
AcDbText
  0
LINE
  5
172DD
330
17D8E
100
AcDbEntity
  8
HIKIDASHI
100
AcDbLine
 10
4542.042806977907
 20
2074.914714678058
 30
0.0
 11
5237.670160213478
 21
2074.914714678058
 31
0.0
  0
LINE
  5
172DE
330
17D8E
100
AcDbEntity
  8
HIKIDASHI
100
AcDbLine
 10
4542.042806977907
 20
2044.914714678057
 30
0.0
 11
5237.670160213478
 21
2044.914714678057
 31
0.0
  0
TEXT
  5
172DF
330
17D8E
100
AcDbEntity
  8
HIKIDASHI
100
AcDbText
 10
4572.042806977907
 20
2119.914714678058
 30
0.0
 40
90.0
  1
A  ~  A'
 41
0.6700000000000001
  7
00
100
AcDbText
  0
LINE
  5
172E3
330
17D8E
100
AcDbEntity
  8
SUNPOU
100
AcDbLine
 10
4889.856483595693
 20
4556.963733520728
 30
0.0
 11
6315.086990845943
 21
4556.963733520728
 31
0.0
  0
TEXT
  5
172E4
330
17D8E
100
AcDbEntity
  8
SUNPOU
100
AcDbText
 10
5675.684182736158
 20
4601.963733520728
 30
0.0
 40
90.0
  1
2460
 41
0.6666666666666666
  7
00
 72
     4
 11
5789.969897021872
 21
4646.963733520728
 31
0.0
100
AcDbText
  0
LINE
  5
172E8
330
17D8E
100
AcDbEntity
  8
HIKIDASHI
100
AcDbLine
 10
3864.689878611732
 20
2573.963733520729
 30
0.0
 11
3495.92350178411
 21
2573.963733520729
 31
0.0
  0
TEXT
  5
172E9
330
17D8E
100
AcDbEntity
  8
HIKIDASHI
100
AcDbText
 10
3522.991109376021
 20
2618.963733520729
 30
0.0
 40
90.0
  1
砕　石
  7
01
 72
     2
 11
3822.991109376021
 21
2663.963733520729
 31
0.0
100
AcDbText
 73
     2
  0
TEXT
  5
172EB
330
17D8E
100
AcDbEntity
  8
SUNPOU
100
AcDbText
 10
6214.517344503915
 20
2588.570487822471
 30
0.0
 40
90.0
  1
5-D13×5-D13
 41
0.6700000000000001
  7
01
 72
     4
 11
6557.940201646772
 21
2633.570487822471
 31
0.0
100
AcDbText
  0
TEXT
  5
172EC
330
17D8E
100
AcDbEntity
  8
SUNPOU
100
AcDbText
 10
5727.69726306127
 20
2588.570487822471
 30
0.0
 40
90.0
  1
ベース筋
  7
01
 72
     4
 11
5931.69726306127
 21
2633.570487822471
 31
0.0
100
AcDbText
  0
LINE
  5
172ED
330
17D8E
100
AcDbEntity
  8
HIKIDASHI
100
AcDbLine
 10
6997.547440734263
 20
4083.963733520728
 30
0.0
 11
6196.483271007121
 21
4083.963733520728
 31
0.0
  0
TEXT
  5
172EE
330
17D8E
100
AcDbEntity
  8
HIKIDASHI
100
AcDbText
 10
6240.317140088584
 20
4128.963733520728
 30
0.0
 40
90.0
  1
敷砂利又は砕石
  7
01
 72
     2
 11
6972.317140088584
 21
4173.963733520728
 31
0.0
100
AcDbText
 73
     2
  0
TEXT
  5
172EF
330
17D8E
100
AcDbEntity
  8
HIKIDASHI
100
AcDbText
 10
6024.221954446723
 20
4338.963733520728
 30
0.0
 40
90.0
  1
土　間
  7
01
 72
     2
 11
6318.221954446722
 21
4383.963733520728
 31
0.0
100
AcDbText
 73
     2
  0
LINE
  5
172F0
330
17D8E
100
AcDbEntity
  8
HIKIDASHI
100
AcDbLine
 10
6359.920723682438
 20
4293.963733520728
 30
0.0
 11
5991.154346854814
 21
4293.963733520728
 31
0.0
  0
TEXT
  5
172F1
330
17D8E
100
AcDbEntity
  8
SUNPOU
100
AcDbText
 10
6200.509196873749
 20
3888.963733520728
 30
0.0
 40
90.0
  1
F.L
 41
0.6666666666666666
  7
00
 72
     4
 11
6269.080625445177
 21
3933.963733520729
 31
0.0
100
AcDbText
  0
LINE
  5
172F2
330
17D8E
100
AcDbEntity
  8
SUNPOU
100
AcDbLine
 10
6269.080625445177
 20
3753.963733520729
 30
0.0
 11
6321.042149672243
 21
3843.963733520729
 31
0.0
  0
LINE
  5
172F3
330
17D8E
100
AcDbEntity
  8
SUNPOU
100
AcDbLine
 10
6217.119101218109
 20
3843.963733520729
 30
0.0
 11
6269.080625445177
 21
3753.963733520729
 31
0.0
  0
LINE
  5
172F4
330
17D8E
100
AcDbEntity
  8
SUNPOU
100
AcDbLine
 10
6321.042149672243
 20
3843.963733520729
 30
0.0
 11
6217.119101218109
 21
3843.963733520729
 31
0.0
  0
TEXT
  5
172F8
330
17D8E
100
AcDbEntity
  8
HIKIDASHI
100
AcDbText
 10
3941.197894611569
 20
4128.754747320638
 30
0.0
 40
89.55223880597015
  1
350
 41
0.6700000000000001
  7
00
100
AcDbText
  0
TEXT
  5
172F9
330
17D8E
100
AcDbEntity
  8
HIKIDASHI
100
AcDbText
 10
3647.115610627791
 20
4128.963733520728
 30
0.0
 40
89.55223880597015
  1
10
 41
0.6700000000000001
  7
00
100
AcDbText
  0
TEXT
  5
172FA
330
17D8E
100
AcDbEntity
  8
HIKIDASHI
100
AcDbText
 10
3775.492365645627
 20
4155.393343159622
 30
0.0
 40
90.0
  1
%%c
 41
0.6700000000000001
  7
00
100
AcDbText
  0
TEXT
  5
172FB
330
17D8E
100
AcDbEntity
  8
HIKIDASHI
100
AcDbText
 10
3415.608897026134
 20
4128.963733520728
 30
0.0
 40
90.0
  1
鉄筋
  7
01
100
AcDbText
  0
TEXT
  5
172FC
330
17D8E
100
AcDbEntity
  8
HIKIDASHI
100
AcDbText
 10
3860.062515458436
 20
4140.157763371475
 30
0.0
 40
89.55223880597015
  1
x
 41
0.6700000000000001
  7
00
100
AcDbText
  0
LINE
  5
172FE
330
17D8E
100
AcDbEntity
  8
KISO
100
AcDbLine
 10
4089.856483595691
 20
2985.963733520728
 30
0.0
 11
5689.856483595686
 21
2985.963733520732
 31
0.0
  0
LINE
  5
17301
330
17D8E
100
AcDbEntity
  8
KISO
100
AcDbLine
 10
4089.856483595691
 20
2985.963733520728
 30
0.0
 11
4089.856483595691
 21
3145.963733520729
 31
0.0
  0
LINE
  5
17305
330
17D8E
100
AcDbEntity
  8
KISO
100
AcDbLine
 10
5689.856483595686
 20
2985.963733520732
 30
0.0
 11
5689.856483595686
 21
3145.963733520728
 31
0.0
  0
LINE
  5
17306
330
17D8E
100
AcDbEntity
  8
KISO
100
AcDbLine
 10
4089.856483595691
 20
3145.963733520729
 30
0.0
 11
5689.856483595686
 21
3145.963733520728
 31
0.0
  0
TEXT
  5
17705
330
17D8E
100
AcDbEntity
  8
WAKUMOJI-01
100
AcDbText
 10
10328.25274254596
 20
659.5644874899107
 30
0.0
 40
120.0
  1
機種名
  7
WAKUMOJI
100
AcDbText
  0
TEXT
  5
17706
330
17D8E
100
AcDbEntity
  8
WAKUMOJI-01
100
AcDbText
 10
10335.13012998137
 20
1062.951504669661
 30
0.0
 40
120.0
  1
名　称
  7
WAKUMOJI
100
AcDbText
  0
LINE
  5
17707
330
17D8E
100
AcDbEntity
  8
WAKUSEN-02
100
AcDbLine
 10
13434.0
 20
413.9999999999963
 30
0.0
 11
13434.0
 21
1242.0
 31
0.0
  0
LINE
  5
17708
330
17D8E
100
AcDbEntity
  8
WAKUSEN-01
100
AcDbLine
 10
10280.0
 20
413.9999999999986
 30
0.0
 11
10280.0
 21
1242.0
 31
0.0
  0
LINE
  5
17709
330
17D8E
100
AcDbEntity
  8
WAKUSEN-01
100
AcDbLine
 10
10280.0
 20
1242.0
 30
0.0
 11
16382.0
 21
1242.0
 31
0.0
  0
LINE
  5
1770A
330
17D8E
100
AcDbEntity
  8
WAKUSEN-02
100
AcDbLine
 10
10280.0
 20
827.9999999999997
 30
0.0
 11
13434.0
 21
827.9999999999997
 31
0.0
  0
LINE
  5
1770B
330
17D8E
100
AcDbEntity
  8
WAKUSEN-01
100
AcDbLine
 10
434.0000000000008
 20
11242.0
 30
0.0
 11
16382.0
 21
11242.0
 31
0.0
  0
LINE
  5
1770C
330
17D8E
100
AcDbEntity
  8
WAKUSEN-01
100
AcDbLine
 10
16382.0
 20
413.9999999999997
 30
0.0
 11
16382.0
 21
11242.0
 31
0.0
  0
LINE
  5
1770D
330
17D8E
100
AcDbEntity
  8
WAKUSEN-01
100
AcDbLine
 10
434.0000000000008
 20
413.9999999999997
 30
0.0
 11
434.0000000000008
 21
11242.0
 31
0.0
  0
LINE
  5
1770E
330
17D8E
100
AcDbEntity
  8
WAKUSEN-01
100
AcDbLine
 10
434.0000000000008
 20
413.9999999999997
 30
0.0
 11
16382.0
 21
413.9999999999997
 31
0.0
  0
LWPOLYLINE
  5
1770F
330
17D8E
100
AcDbEntity
  8
YODOROGO
100
AcDbPolyline
 90
        4
 70
     1
 43
0.0
 10
15190.80217064596
 20
786.8747482146446
 10
15190.80217064596
 20
800.8747482146432
 10
15216.80217064596
 20
800.8747482146432
 10
15216.80217064596
 20
786.8747482146446
  0
LWPOLYLINE
  5
17710
330
17D8E
100
AcDbEntity
  8
YODOROGO
100
AcDbPolyline
 90
       48
 70
     1
 43
0.0
 10
13888.80217064596
 20
921.8883739758362
 10
13888.80217064596
 20
929.8883739758355
 10
13900.80217064596
 20
957.3932903968524
 10
13900.80217064596
 20
969.8747482146441
 10
13888.80217064596
 20
969.8747482146441
 10
13888.80217064596
 20
977.8747482146435
 10
13900.80217064596
 20
977.8747482146435
 10
13900.80217064596
 20
989.8747482146443
 10
13908.80217064596
 20
989.8747482146443
 10
13908.80217064596
 20
977.8747482146435
 10
13924.80217064594
 20
977.8747482146435
 10
13924.80217064594
 20
989.8747482146443
 10
13932.80217064595
 20
989.8747482146443
 10
13932.80217064595
 20
977.8747482146435
 10
13944.80217064596
 20
977.8747482146435
 10
13944.80217064596
 20
989.8747482146443
 10
13952.80217064596
 20
989.8747482146443
 10
13952.80217064596
 20
977.8747482146435
 10
13968.80217064596
 20
977.8747482146435
 10
13968.80217064596
 20
969.8747482146441
 10
13952.80217064596
 20
969.8747482146441
 10
13952.80217064596
 20
950.2841744681497
 10
13968.80217064596
 20
950.2841744681497
 10
13968.80217064596
 20
942.2841744681491
 10
13952.80217064596
 20
942.2841744681502
 10
13952.80217064596
 20
940.7045060794045
 10
13968.80217064596
 20
906.4874905807087
 10
13968.80217064596
 20
898.487490580708
 10
13952.80217064596
 20
924.7045060794032
 10
13952.80217064596
 20
873.8747482146436
 10
13944.80217064596
 20
873.8747482146436
 10
13944.80217064596
 20
923.8095889822183
 10
13924.80217064594
 20
898.487490580708
 10
13924.80217064594
 20
906.4874905807087
 10
13944.80217064596
 20
939.8095889822197
 10
13944.80217064596
 20
942.2841744681491
 10
13928.80217064595
 20
942.2841744681491
 10
13928.80217064595
 20
950.2841744681497
 10
13944.80217064596
 20
950.2841744681497
 10
13944.80217064596
 20
969.8747482146441
 10
13908.80217064596
 20
969.8747482146441
 10
13908.80217064596
 20
958.8856660426326
 10
13920.80217064596
 20
941.8273791420681
 10
13920.80217064596
 20
933.8273791420684
 10
13908.80217064596
 20
946.8856660426334
 10
13908.80217064596
 20
873.8747482146436
 10
13900.80217064596
 20
873.8747482146436
 10
13900.80217064596
 20
945.3932903968532
1001
AUTOCAD_POSTSCRIPT_FIGURE
1002
{
1000
PSFILL
1000
Grayscale
1000
Grayscale
1070
   100
1002
}
  0
LWPOLYLINE
  5
17711
330
17D8E
100
AcDbEntity
  8
YODOROGO
100
AcDbPolyline
 90
       15
 70
     1
 43
0.0
 10
14064.80217064595
 20
873.8747482146436
 10
14068.80217064596
 20
873.8747482146436
 10
14049.4514934367
 20
969.8747482146441
 10
14068.80217064596
 20
969.8747482146441
 10
14068.80217064596
 20
977.8747482146435
 10
14068.80217064596
 20
989.8747482146443
 10
14060.80217064596
 20
989.8747482146443
 10
14060.80217064596
 20
977.8747482146435
 10
14047.90343925997
 20
977.8747482146435
 10
14045.58135799486
 20
989.8747482146443
 10
14035.58135799485
 20
989.8747482146443
 10
14038.30343925995
 20
977.8747482146435
 10
13988.80217064596
 20
977.8747482146435
 10
13988.80217064596
 20
969.8747482146441
 10
14040.11816010337
 20
969.8747482146441
1001
AUTOCAD_POSTSCRIPT_FIGURE
1002
{
1000
PSFILL
1000
Grayscale
1000
Grayscale
1070
   100
1002
}
  0
LWPOLYLINE
  5
17712
330
17D8E
100
AcDbEntity
  8
YODOROGO
100
AcDbPolyline
 90
        4
 70
     1
 43
0.0
 10
13904.80217064596
 20
816.3859520216298
 10
13952.80217064596
 20
816.3859520216298
 10
13952.80217064596
 20
804.3859520216292
 10
13904.80217064596
 20
804.3859520216292
  0
LWPOLYLINE
  5
17713
330
17D8E
100
AcDbEntity
  8
YODOROGO
100
AcDbPolyline
 90
        6
 70
     1
 43
0.0
 10
13888.80217064596
 20
821.986207022285
 10
13928.80217064596
 20
853.8747482146439
 10
13968.80217064596
 20
821.986207022285
 10
13968.80217064596
 20
809.9862070222856
 10
13928.80217064596
 20
841.8747482146445
 10
13888.80217064596
 20
809.9862070222856
  0
LWPOLYLINE
  5
17714
330
17D8E
100
AcDbEntity
  8
YODOROGO
100
AcDbPolyline
 90
       12
 70
     1
 43
0.0
 10
13892.80217064596
 20
737.8747482146437
 10
13964.80217064596
 20
737.8747482146437
 10
13950.53250239547
 20
768.1169053488464
 10
13942.53250239547
 20
768.1169053488464
 10
13951.02739540432
 20
747.8747482146435
 10
13907.77335914239
 20
747.8747482146435
 10
13922.25479445787
 20
784.2514286852374
 10
13968.80217064596
 20
784.2514286852374
 10
13968.80217064596
 20
794.2514286852374
 10
13888.80217064596
 20
794.2514286852374
 10
13888.80217064596
 20
784.2514286852374
 10
13912.25479445787
 20
784.2514286852374
1001
AUTOCAD_POSTSCRIPT_FIGURE
1002
{
1000
PSFILL
1000
Grayscale
1000
Grayscale
1070
   100
1002
}
  0
LWPOLYLINE
  5
17715
330
17D8E
100
AcDbEntity
  8
YODOROGO
100
AcDbPolyline
 90
       19
 70
     1
 43
0.0
 10
14000.80217064594
 20
841.8747482146434
 10
13988.80217064596
 20
841.8747482146434
 10
13988.80217064596
 20
833.8747482146427
 10
14012.91438714567
 20
833.8747482146427
 10
13988.80217064596
 20
778.3840395167149
 10
13988.80217064596
 20
766.3840395167142
 10
14000.80217064596
 20
790.0026748448738
 10
14000.80217064596
 20
737.8747482146437
 10
14008.80217064596
 20
737.8747482146437
 10
14008.80217064596
 20
792.6185318747652
 10
14020.80217064596
 20
781.5602449741995
 10
14020.80217064596
 20
791.5602449742006
 10
14010.04445186844
 20
805.3252825309574
 10
14020.45660200845
 20
829.874748214644
 10
14020.45660200845
 20
841.8747482146434
 10
14008.80217064596
 20
841.8747482146434
 10
14008.80217064596
 20
853.8747482146439
 10
14000.80217064596
 20
853.8747482146439
 10
14000.80217064596
 20
853.8747482146439
  0
LWPOLYLINE
  5
17716
330
17D8E
100
AcDbEntity
  8
YODOROGO
100
AcDbPolyline
 90
       16
 70
     1
 43
0.0
 10
14041.06776011546
 20
827.751818637328
 10
14041.06776011546
 20
853.8747482146439
 10
14049.06776011545
 20
853.8747482146439
 10
14049.06776011545
 20
827.751818637328
 10
14068.80217064596
 20
827.751818637328
 10
14068.80217064596
 20
815.7518186373286
 10
14049.06776011545
 20
815.7518186373286
 10
14049.06776011545
 20
749.8747482146441
 10
14068.80217064596
 20
749.8747482146441
 10
14068.80217064596
 20
737.8747482146437
 10
14025.06776011545
 20
737.8747482146437
 10
14025.06776011545
 20
749.8747482146441
 10
14041.06776011546
 20
749.8747482146441
 10
14041.06776011546
 20
815.7518186373286
 10
14025.06776011545
 20
815.7518186373286
 10
14025.06776011545
 20
827.751818637328
1001
AUTOCAD_POSTSCRIPT_FIGURE
1002
{
1000
PSFILL
1000
Grayscale
1000
Grayscale
1070
   100
1002
}
  0
LWPOLYLINE
  5
17717
330
17D8E
100
AcDbEntity
  8
YODOROGO
100
AcDbPolyline
 90
       12
 70
     1
 43
0.0
 10
13988.80217064596
 20
873.8747482146436
 10
13988.80217064596
 20
885.8747482146432
 10
14010.91839030643
 20
892.3366697971587
 10
14010.91839030643
 20
936.2841744681499
 10
13988.80217064596
 20
936.2841744681499
 10
13988.80217064596
 20
946.2841744681487
 10
14039.03460996689
 20
946.2841744681487
 10
14039.03460996689
 20
936.2841744681499
 10
14016.91839030643
 20
936.2841744681499
 10
14016.91839030643
 20
893.4084665668834
 10
14039.03460996689
 20
899.3344897645366
 10
14039.03460996688
 20
887.8703881493972
  0
LWPOLYLINE
  5
17718
330
17D8E
100
AcDbEntity
  8
YODOROGO
100
AcDbPolyline
 90
        4
 70
     1
 43
0.0
 10
15192.80217064595
 20
788.8747482146436
 10
15192.80217064595
 20
798.8747482146439
 10
15214.80217064596
 20
798.8747482146439
 10
15214.80217064596
 20
788.8747482146436
  0
LWPOLYLINE
  5
17719
330
17D8E
100
AcDbEntity
  8
YODOROGO
100
AcDbPolyline
 90
        4
 70
     1
 43
0.0
 10
15194.80217064596
 20
790.8747482146432
 10
15194.80217064596
 20
796.8747482146445
 10
15212.80217064596
 20
796.8747482146445
 10
15212.80217064596
 20
790.8747482146432
  0
LWPOLYLINE
  5
1771A
330
17D8E
100
AcDbEntity
  8
YODOROGO
100
AcDbPolyline
 90
        4
 70
     1
 43
0.0
 10
15196.80217064596
 20
792.8747482146435
 10
15196.80217064596
 20
794.8747482146441
 10
15210.80217064596
 20
794.8747482146441
 10
15210.80217064596
 20
792.8747482146435
  0
LWPOLYLINE
  5
1771B
330
17D8E
100
AcDbEntity
  8
YODOROGO
100
AcDbPolyline
 90
       21
 70
     1
 43
0.0
 10
14216.80217064595
 20
873.8747482146449
 10
14292.80217064595
 20
873.8747482146449
 10
14292.80217064596
 20
773.8747482146439
 42
-0.4142135623730966
 10
14280.80217064596
 20
761.8747482146434
 10
14268.80217064595
 20
761.8747482146434
 42
-0.4142135623730951
 10
14248.80217064595
 20
781.8747482146434
 10
14248.80217064595
 20
853.8747482146439
 10
14216.80217064595
 20
853.8747482146439
 10
14216.80217064595
 20
753.8747482146439
 42
0.4142135623730951
 10
14256.80217064595
 20
713.8747482146436
 10
14396.80217064594
 20
713.8747482146436
 10
14396.80217064594
 20
761.8747482146434
 10
14328.80217064595
 20
761.8747482146434
 10
14328.80217064595
 20
801.8747482146446
 10
14396.80217064594
 20
801.8747482146446
 10
14396.80217064594
 20
833.8747482146439
 10
14328.80217064595
 20
833.8747482146439
 10
14328.80217064595
 20
873.8747482146449
 10
14396.80217064594
 20
873.8747482146449
 10
14396.80217064594
 20
909.8747482146439
 10
14216.80217064595
 20
909.8747482146439
  0
LWPOLYLINE
  5
1771C
330
17D8E
100
AcDbEntity
  8
YODOROGO
100
AcDbPolyline
 90
        6
 70
     1
 43
0.0
 10
14172.80217064596
 20
833.8747482146439
 10
14172.80217064596
 20
805.8747482146443
 42
-0.3033556581880987
 10
14128.80217064596
 20
761.8747482146434
 10
14128.80217064596
 20
713.8747482146436
 42
0.3797497938303935
 10
14200.80217064595
 20
805.8747482146443
 10
14200.80217064595
 20
833.8747482146439
  0
LWPOLYLINE
  5
1771D
330
17D8E
100
AcDbEntity
  8
YODOROGO
100
AcDbPolyline
 90
        4
 70
     1
 43
0.0
 10
14200.80217064595
 20
912.4388128201532
 10
14200.80217064595
 20
876.4388128201531
 10
14128.80217064596
 20
897.8747482146435
 10
14128.80217064596
 20
933.8747482146439
1001
AUTOCAD_POSTSCRIPT_FIGURE
1002
{
1000
PSFILL
1000
Grayscale
1000
Grayscale
1070
   100
1002
}
  0
LWPOLYLINE
  5
1771E
330
17D8E
100
AcDbEntity
  8
YODOROGO
100
AcDbPolyline
 90
        4
 70
     1
 43
0.0
 10
14128.80217064596
 20
1013.874748214644
 10
14128.80217064596
 20
979.874748214644
 10
14200.80217064595
 20
958.4388128201537
 10
14200.80217064595
 20
992.4388128201531
1001
AUTOCAD_POSTSCRIPT_FIGURE
1002
{
1000
PSFILL
1000
Grayscale
1000
Grayscale
1070
   100
1002
}
  0
LWPOLYLINE
  5
1771F
330
17D8E
100
AcDbEntity
  8
YODOROGO
100
AcDbPolyline
 90
       13
 70
     1
 43
0.0
 10
14216.80217064595
 20
933.8747482146439
 10
14216.80217064595
 20
993.8747482146439
 10
14292.80217064595
 20
993.8747482146439
 10
14292.80217064595
 20
1013.874748214644
 10
14328.80217064596
 20
1013.874748214644
 10
14328.80217064596
 20
993.8747482146439
 10
14376.80217064595
 20
993.8747482146439
 42
-0.4142135623730951
 10
14396.80217064594
 20
973.8747482146436
 10
14396.80217064594
 20
933.8747482146439
 10
14364.80217064596
 20
933.8747482146439
 10
14364.80217064596
 20
961.8747482146432
 10
14248.80217064595
 20
961.8747482146432
 10
14248.80217064595
 20
933.8747482146439
  0
LWPOLYLINE
  5
17720
330
17D8E
100
AcDbEntity
  8
YODOROGO
100
AcDbPolyline
 90
        6
 70
     1
 43
0.0
 10
14456.80217064596
 20
713.8747482146436
 42
0.3838247686077346
 10
14536.80217064596
 20
789.8747482146441
 10
14536.80217064596
 20
1013.874748214644
 10
14500.80217064595
 20
1013.874748214644
 10
14500.80217064595
 20
809.8747482146441
 42
-0.3983235246806523
 10
14456.80217064596
 20
761.8747482146434
  0
LWPOLYLINE
  5
17721
330
17D8E
100
AcDbEntity
  8
YODOROGO
100
AcDbPolyline
 90
        4
 70
     1
 43
0.0
 10
14630.80217064596
 20
1003.874748214644
 10
14598.80217064596
 20
1003.874748214644
 10
14598.80217064596
 20
745.8747482146431
 10
14630.80217064596
 20
745.8747482146431
  0
LWPOLYLINE
  5
17722
330
17D8E
100
AcDbEntity
  8
YODOROGO
100
AcDbPolyline
 90
        4
 70
     1
 43
0.0
 10
14728.80217064596
 20
713.8747482146436
 10
14728.80217064596
 20
1013.874748214644
 10
14692.80217064595
 20
1013.874748214644
 10
14692.80217064595
 20
713.8747482146436
  0
LWPOLYLINE
  5
17723
330
17D8E
100
AcDbEntity
  8
YODOROGO
100
AcDbPolyline
 90
       34
 70
     1
 43
0.0
 10
14836.80217064596
 20
885.8747482146442
 10
14882.80217064596
 20
885.8747482146442
 10
14882.80217064596
 20
853.8747482146439
 10
14914.80217064596
 20
853.8747482146439
 10
14914.80217064596
 20
885.8747482146442
 10
14960.80217064594
 20
885.8747482146442
 10
14960.80217064594
 20
853.8747482146439
 10
14988.80217064596
 20
853.8747482146439
 10
14988.80217064596
 20
909.8747482146439
 10
14914.80217064596
 20
909.8747482146439
 10
14914.80217064596
 20
929.874748214644
 10
14988.80217064596
 20
929.874748214644
 10
14988.80217064596
 20
953.874748214644
 10
14914.80217064596
 20
953.874748214644
 10
14914.80217064596
 20
973.8747482146436
 10
14988.80217064596
 20
973.8747482146436
 10
14988.80217064596
 20
997.8747482146435
 10
14914.80217064596
 20
997.8747482146435
 10
14914.80217064596
 20
1013.874748214644
 10
14882.80217064596
 20
1013.874748214644
 10
14882.80217064596
 20
997.8747482146435
 10
14832.80217064596
 20
997.8747482146435
 10
14832.80217064596
 20
1013.874748214644
 10
14808.80217064596
 20
1013.874748214644
 10
14808.80217064596
 20
973.8747482146436
 10
14882.80217064596
 20
973.8747482146436
 10
14882.80217064596
 20
953.874748214644
 10
14808.80217064596
 20
953.874748214644
 10
14808.80217064596
 20
929.874748214644
 10
14882.80217064596
 20
929.874748214644
 10
14882.80217064596
 20
909.8747482146439
 10
14808.80217064596
 20
909.8747482146439
 10
14808.80217064596
 20
853.8747482146439
 10
14836.80217064596
 20
853.8747482146439
1001
AUTOCAD_POSTSCRIPT_FIGURE
1002
{
1000
PSFILL
1000
Grayscale
1000
Grayscale
1070
    25
1002
}
  0
LWPOLYLINE
  5
17724
330
17D8E
100
AcDbEntity
  8
YODOROGO
100
AcDbPolyline
 90
        4
 70
     1
 43
0.0
 10
15010.80217064596
 20
1013.874748214644
 10
15010.80217064596
 20
913.8747482146436
 10
15040.80217064596
 20
913.8747482146436
 10
15040.80217064596
 20
1013.874748214644
  0
LWPOLYLINE
  5
17725
330
17D8E
100
AcDbEntity
  8
YODOROGO
100
AcDbPolyline
 90
       22
 70
     1
 43
0.0
 10
14968.80217064596
 20
740.6696674577553
 10
14968.80217064596
 20
797.2655452655707
 42
0.224065327635455
 10
15108.80217064596
 20
713.8747482146428
 10
15108.80217064596
 20
773.8747482146439
 42
-0.0313072161228184
 10
15088.80217064596
 20
775.9088612367134
 10
15094.80217064596
 20
801.8747482146446
 10
15052.80217064596
 20
801.8747482146446
 10
15048.80217064598
 20
788.0364079349501
 42
-0.0744977417275713
 10
15008.80217064596
 20
813.8747482146436
 10
15108.80217064596
 20
813.8747482146436
 10
15108.80217064596
 20
833.8747482146439
 10
14974.80217064595
 20
833.8747482146439
 10
14974.80217064595
 20
853.8747482146439
 10
14942.80217064596
 20
853.8747482146439
 10
14942.80217064596
 20
833.8747482146439
 10
14808.80217064596
 20
833.8747482146439
 10
14808.80217064596
 20
813.8747482146436
 10
14856.47231434973
 20
813.8747482146436
 10
14808.80217064596
 20
773.8747482146439
 10
14808.80217064596
 20
713.8747482146436
 10
14868.80217064596
 20
764.2207260852821
 10
14868.80217064596
 20
713.8747482146436
  0
LWPOLYLINE
  5
17726
330
17D8E
100
AcDbEntity
  8
YODOROGO
100
AcDbPolyline
 90
        5
 70
     1
 43
0.0
 10
14888.80217064596
 20
813.8747482146436
 10
14888.80217064596
 20
781.0027187088283
 10
14885.70493649264
 20
778.403830673117
 10
14966.89206625426
 20
800.1578565285436
 42
-0.0208592374953635
 10
14958.80217064596
 20
813.8747482146436
  0
LWPOLYLINE
  5
17727
330
17D8E
100
AcDbEntity
  8
YODOROGO
100
AcDbPolyline
 90
       22
 70
     1
 43
0.0
 10
14968.80217064596
 20
740.6696674577553
 10
14968.80217064596
 20
797.2655452655707
 42
0.224065327635455
 10
15108.80217064596
 20
713.8747482146428
 10
15108.80217064596
 20
773.8747482146439
 42
-0.0313072161228184
 10
15088.80217064596
 20
775.9088612367134
 10
15094.80217064596
 20
801.8747482146446
 10
15052.80217064596
 20
801.8747482146446
 10
15048.80217064598
 20
788.0364079349501
 42
-0.0744977417275713
 10
15008.80217064596
 20
813.8747482146436
 10
15108.80217064596
 20
813.8747482146436
 10
15108.80217064596
 20
833.8747482146439
 10
14974.80217064595
 20
833.8747482146439
 10
14974.80217064595
 20
853.8747482146439
 10
14942.80217064596
 20
853.8747482146439
 10
14942.80217064596
 20
833.8747482146439
 10
14808.80217064596
 20
833.8747482146439
 10
14808.80217064596
 20
813.8747482146436
 10
14856.47231434973
 20
813.8747482146436
 10
14808.80217064596
 20
773.8747482146439
 10
14808.80217064596
 20
713.8747482146436
 10
14868.80217064596
 20
764.2207260852821
 10
14868.80217064596
 20
713.8747482146436
  0
LWPOLYLINE
  5
17728
330
17D8E
100
AcDbEntity
  8
YODOROGO
100
AcDbPolyline
 90
        8
 70
     1
 43
0.0
 10
15108.80217064596
 20
1013.874748214644
 10
15108.80217064596
 20
893.8747482146439
 42
-0.4142135623730951
 10
15068.80217064596
 20
853.8747482146439
 10
15010.80217064596
 20
853.8747482146439
 10
15010.80217064596
 20
885.8747482146442
 10
15060.80217064596
 20
885.8747482146442
 42
0.4142135623730951
 10
15080.80217064596
 20
905.8747482146443
 10
15080.80217064596
 20
1013.874748214644
  0
LWPOLYLINE
  5
17729
330
17D8E
100
AcDbEntity
  8
YODOROGO
100
AcDbPolyline
 90
       12
 70
     1
 43
0.0
 10
15449.80217064596
 20
909.8747482146439
 10
15449.80217064596
 20
877.8747482146437
 10
15361.80217064596
 20
877.8747482146437
 10
15361.80217064596
 20
909.8747482146439
 10
15374.80217064596
 20
909.8747482146439
 10
15361.80217064596
 20
969.8747482146441
 10
15385.80217064596
 20
969.8747482146441
 10
15398.80217064596
 20
909.8747482146439
 10
15412.80217064596
 20
909.8747482146439
 10
15425.80217064596
 20
969.8747482146441
 10
15449.80217064596
 20
969.8747482146441
 10
15436.80217064595
 20
909.8747482146439
  0
LWPOLYLINE
  5
1772A
330
17D8E
100
AcDbEntity
  8
YODOROGO
100
AcDbPolyline
 90
       12
 70
     1
 43
0.0
 10
15415.80217064596
 20
877.8747482146437
 10
15415.80217064596
 20
781.8747482146434
 10
15429.80217064596
 20
781.8747482146434
 10
15429.80217064596
 20
845.8747482146444
 10
15449.80217064596
 20
845.8747482146444
 10
15449.80217064596
 20
745.8747482146443
 10
15361.80217064596
 20
745.8747482146443
 10
15361.80217064596
 20
845.8747482146444
 10
15381.80217064596
 20
845.8747482146444
 10
15381.80217064596
 20
781.8747482146434
 10
15395.80217064596
 20
781.8747482146434
 10
15395.80217064596
 20
877.8747482146437
  0
LWPOLYLINE
  5
1772B
330
17D8E
100
AcDbEntity
  8
YODOROGO
100
AcDbPolyline
 90
       11
 70
     1
 43
0.0
 10
15462.80217064596
 20
773.8747482146439
 10
15462.80217064596
 20
981.8747482146434
 10
15348.80217064596
 20
981.8747482146434
 10
15348.80217064596
 20
713.8747482146436
 10
15322.80217064596
 20
713.8747482146436
 10
15322.80217064596
 20
1013.874748214644
 10
15486.80217064596
 20
1013.874748214644
 10
15486.80217064596
 20
733.8747482146437
 42
-0.4142135623730951
 10
15466.80217064596
 20
713.8747482146436
 10
15449.80217064596
 20
713.8747482146436
 10
15449.80217064596
 20
773.8747482146439
  0
LWPOLYLINE
  5
1772C
330
17D8E
100
AcDbEntity
  8
YODOROGO
100
AcDbPolyline
 90
       20
 70
     1
 43
0.0
 10
15794.80217064596
 20
905.8747482146443
 10
15794.80217064596
 20
713.8747482146436
 10
15826.80217064596
 20
713.8747482146436
 10
15826.80217064595
 20
905.8747482146443
 10
15850.80217064596
 20
905.8747482146443
 10
15850.80217064596
 20
937.8747482146435
 10
15766.80217064595
 20
937.8747482146435
 10
15766.80217064595
 20
957.8747482146436
 10
15830.80217064596
 20
957.8747482146436
 42
0.4142135623730951
 10
15850.80217064596
 20
977.8747482146435
 10
15850.80217064596
 20
1013.874748214644
 10
15818.80217064596
 20
1013.874748214644
 10
15818.80217064596
 20
1001.874748214643
 42
-0.4142135623730951
 10
15810.80217064596
 20
993.8747482146439
 10
15730.80217064594
 20
993.8747482146439
 10
15730.80217064594
 20
817.8747482146436
 42
-0.413746113159742
 10
15674.80217064596
 20
763.8747482146436
 10
15674.80217064596
 20
713.8747482146436
 42
0.401682673696678
 10
15766.80217064596
 20
797.8747482146435
 10
15766.80217064595
 20
905.8747482146443
  0
LWPOLYLINE
  5
1772D
330
17D8E
100
AcDbEntity
  8
YODOROGO
100
AcDbPolyline
 90
        8
 70
     1
 43
0.0
 10
15618.80217064596
 20
797.8747482146435
 10
15618.80217064596
 20
853.8747482146439
 10
15706.80217064596
 20
853.8747482146439
 10
15706.80217064596
 20
953.874748214644
 10
15582.80217064596
 20
953.874748214644
 10
15582.80217064596
 20
817.8747482146436
 42
-0.2860301183093825
 10
15546.80217064596
 20
761.8747482146434
 10
15546.80217064596
 20
713.8747482146436
 42
0.3479671003727703
  0
LWPOLYLINE
  5
1772E
330
17D8E
100
AcDbEntity
  8
YODOROGO
100
AcDbPolyline
 90
        4
 70
     1
 43
0.0
 10
15674.80217064596
 20
889.8747482146443
 10
15674.80217064596
 20
917.8747482146436
 10
15618.80217064596
 20
917.8747482146436
 10
15618.80217064596
 20
889.8747482146443
  0
LWPOLYLINE
  5
1772F
330
17D8E
100
AcDbEntity
  8
YODOROGO
100
AcDbPolyline
 90
        4
 70
     1
 43
0.0
 10
15582.80217064596
 20
1013.874748214644
 10
15582.80217064596
 20
981.8747482146434
 10
15706.80217064596
 20
981.8747482146434
 10
15706.80217064596
 20
1013.874748214644
  0
LWPOLYLINE
  5
17730
330
17D8E
100
AcDbEntity
  8
YODOROGO
100
AcDbPolyline
 90
        6
 70
     1
 43
0.0
 10
15248.80217064596
 20
969.8747482146441
 10
15190.80217064596
 20
909.8747482146439
 10
15190.80217064596
 20
953.874748214644
 10
15248.80217064596
 20
1013.874748214644
 10
15308.80217064596
 20
973.8747482146436
 10
15308.80217064596
 20
929.874748214644
  0
LWPOLYLINE
  5
17731
330
17D8E
100
AcDbEntity
  8
YODOROGO
100
AcDbPolyline
 90
       24
 70
     1
 43
0.0
 10
15232.80217064596
 20
867.8747482146436
 10
15190.80217064596
 20
867.8747482146436
 10
15190.80217064596
 20
897.8747482146435
 10
15308.80217064596
 20
897.8747482146435
 10
15308.80217064596
 20
867.8747482146436
 10
15264.80217064596
 20
867.8747482146436
 10
15264.80217064596
 20
839.8747482146443
 10
15308.80217064596
 20
839.8747482146443
 10
15308.80217064596
 20
813.8747482146436
 10
15264.80217064596
 20
813.8747482146436
 10
15264.80217064596
 20
773.8747482146439
 10
15272.80217064594
 20
773.8747482146439
 42
0.4142135623730582
 10
15284.80217064594
 20
785.8747482146432
 10
15284.80217064596
 20
799.8747482146441
 10
15308.80217064596
 20
799.8747482146441
 10
15308.80217064596
 20
753.8747482146439
 42
-0.4142135623730951
 10
15268.80217064596
 20
713.8747482146436
 10
15190.80217064596
 20
713.8747482146436
 10
15190.80217064596
 20
773.8747482146439
 10
15232.80217064596
 20
773.8747482146439
 10
15232.80217064596
 20
813.8747482146436
 10
15190.80217064596
 20
813.8747482146436
 10
15190.80217064596
 20
839.8747482146443
 10
15232.80217064596
 20
839.8747482146443
  0
LINE
  5
1798E
330
17D8E
100
AcDbEntity
  8
SUNPOU
100
AcDbLine
 10
4889.856483595693
 20
4586.963733520728
 30
0.0
 11
4889.856483595693
 21
4601.963733520728
 31
0.0
  0
LINE
  5
1798F
330
17D8E
100
AcDbEntity
  8
SUNPOU
100
AcDbLine
 10
4249.856483595691
 20
3783.963733520729
 30
0.0
 11
4249.856483595691
 21
4601.963733520728
 31
0.0
  0
LINE
  5
17990
330
17D8E
100
AcDbEntity
  8
SUNPOU
100
AcDbLine
 10
4874.856483595692
 20
4556.963733520728
 30
0.0
 11
4264.856483595691
 21
4556.963733520728
 31
0.0
  0
LINE
  5
17994
330
17D8E
100
AcDbEntity
  8
SUNPOU
100
AcDbLine
 10
6435.086990845943
 20
4556.963733520728
 30
0.0
 11
6375.086990845929
 21
4556.963733520728
 31
0.0
  0
LINE
  5
17995
330
17D8E
100
AcDbEntity
  8
SUNPOU
100
AcDbLine
 10
6435.086990845936
 20
4556.963733520728
 30
0.0
 11
6375.086990845936
 21
4573.040685066597
 31
0.0
  0
LINE
  5
17996
330
17D8E
100
AcDbEntity
  8
SUNPOU
100
AcDbLine
 10
6435.086990845943
 20
4556.963733520728
 30
0.0
 11
6375.086990845929
 21
4540.886781974857
 31
0.0
  0
LINE
  5
17997
330
17D8E
100
AcDbEntity
  8
SUNPOU
100
AcDbLine
 10
6375.086990845943
 20
4556.963733520728
 30
0.0
 11
6315.086990845929
 21
4556.963733520728
 31
0.0
  0
LINE
  5
17998
330
17D8E
100
AcDbEntity
  8
SUNPOU
100
AcDbLine
 10
6375.086990845936
 20
4556.963733520728
 30
0.0
 11
6315.086990845935
 21
4573.040685066597
 31
0.0
  0
LINE
  5
17999
330
17D8E
100
AcDbEntity
  8
SUNPOU
100
AcDbLine
 10
6375.086990845943
 20
4556.963733520728
 30
0.0
 11
6315.086990845929
 21
4540.886781974857
 31
0.0
  0
LINE
  5
1799A
330
17D8E
100
AcDbEntity
  8
SUNPOU
100
AcDbLine
 10
6397.249978138844
 20
3753.963733520729
 30
0.0
 11
6863.18758900464
 21
3753.963733520729
 31
0.0
  0
LINE
  5
1799B
330
17D8E
100
AcDbEntity
  8
SUNPOU
100
AcDbLine
 10
5719.856483595691
 20
3145.963733520729
 30
0.0
 11
6863.18758900464
 21
3145.963733520729
 31
0.0
  0
LINE
  5
1799C
330
17D8E
100
AcDbEntity
  8
SUNPOU
100
AcDbLine
 10
6818.18758900464
 20
3738.963733520729
 30
0.0
 11
6818.18758900464
 21
3160.963733520729
 31
0.0
  0
LINE
  5
179A0
330
17D8E
100
AcDbEntity
  8
SUNPOU
100
AcDbLine
 10
5719.856483595692
 20
3145.963733520728
 30
0.0
 11
6863.18758900464
 21
3145.963733520728
 31
0.0
  0
LINE
  5
179A1
330
17D8E
100
AcDbEntity
  8
SUNPOU
100
AcDbLine
 10
5719.856483595692
 20
2985.963733520732
 30
0.0
 11
6863.18758900464
 21
2985.963733520732
 31
0.0
  0
LINE
  5
179A2
330
17D8E
100
AcDbEntity
  8
SUNPOU
100
AcDbLine
 10
6818.18758900464
 20
3130.963733520728
 30
0.0
 11
6818.18758900464
 21
3000.963733520731
 31
0.0
  0
LINE
  5
179A6
330
17D8E
100
AcDbEntity
  8
SUNPOU
100
AcDbLine
 10
6397.249978138844
 20
3753.963733520729
 30
0.0
 11
7069.437589004642
 21
3753.963733520729
 31
0.0
  0
LINE
  5
179A7
330
17D8E
100
AcDbEntity
  8
SUNPOU
100
AcDbLine
 10
5719.856483595692
 20
2985.963733520732
 30
0.0
 11
7069.437589004642
 21
2985.963733520732
 31
0.0
  0
LINE
  5
179A8
330
17D8E
100
AcDbEntity
  8
SUNPOU
100
AcDbLine
 10
7024.43758900464
 20
3738.963733520729
 30
0.0
 11
7024.43758900464
 21
3000.963733520731
 31
0.0
  0
LINE
  5
179AC
330
17D8E
100
AcDbEntity
  8
SUNPOU
100
AcDbLine
 10
4249.856483595691
 20
3115.963733520729
 30
0.0
 11
4249.856483595691
 21
2560.963733520728
 31
0.0
  0
LINE
  5
179AD
330
17D8E
100
AcDbEntity
  8
SUNPOU
100
AcDbLine
 10
5529.856483595692
 20
3115.963733520729
 30
0.0
 11
5529.856483595692
 21
2560.963733520728
 31
0.0
  0
LINE
  5
179AE
330
17D8E
100
AcDbEntity
  8
SUNPOU
100
AcDbLine
 10
4264.856483595691
 20
2605.963733520728
 30
0.0
 11
5514.856483595691
 21
2605.963733520728
 31
0.0
  0
LINE
  5
179B2
330
17D8E
100
AcDbEntity
  8
SUNPOU
100
AcDbLine
 10
4089.856483595691
 20
2955.963733520729
 30
0.0
 11
4089.856483595691
 21
2350.963733520728
 31
0.0
  0
LINE
  5
179B3
330
17D8E
100
AcDbEntity
  8
SUNPOU
100
AcDbLine
 10
5689.856483595693
 20
2955.963733520731
 30
0.0
 11
5689.856483595693
 21
2350.963733520728
 31
0.0
  0
LINE
  5
179B4
330
17D8E
100
AcDbEntity
  8
SUNPOU
100
AcDbLine
 10
4104.856483595692
 20
2395.963733520728
 30
0.0
 11
5674.856483595693
 21
2395.963733520728
 31
0.0
  0
LINE
  5
179B8
330
17D8E
100
AcDbEntity
  8
SUNPOU
100
AcDbLine
 10
10079.12750789964
 20
9108.243182432328
 30
0.0
 11
10914.12750789964
 21
9108.243182432328
 31
0.0
  0
LINE
  5
179B9
330
17D8E
100
AcDbEntity
  8
SUNPOU
100
AcDbLine
 10
10079.12750789964
 20
6498.243182432327
 30
0.0
 11
10914.12750789964
 21
6498.243182432325
 31
0.0
  0
LINE
  5
179BA
330
17D8E
100
AcDbEntity
  8
SUNPOU
100
AcDbLine
 10
10869.12750789964
 20
9093.243182432329
 30
0.0
 11
10869.12750789964
 21
6513.243182432326
 31
0.0
  0
LINE
  5
179BE
330
17D8E
100
AcDbEntity
  8
SUNPOU
100
AcDbLine
 10
10224.12750789964
 20
8708.243182432326
 30
0.0
 11
10704.12750789964
 21
8708.243182432326
 31
0.0
  0
LINE
  5
179BF
330
17D8E
100
AcDbEntity
  8
SUNPOU
100
AcDbLine
 10
10079.12750789964
 20
9108.243182432328
 30
0.0
 11
10704.12750789964
 21
9108.243182432328
 31
0.0
  0
LINE
  5
179C0
330
17D8E
100
AcDbEntity
  8
SUNPOU
100
AcDbLine
 10
10659.12750789964
 20
8723.243182432327
 30
0.0
 11
10659.12750789964
 21
9093.243182432329
 31
0.0
  0
LINE
  5
179C4
330
17D8E
100
AcDbEntity
  8
SUNPOU
100
AcDbLine
 10
10224.12750789964
 20
6898.243182432327
 30
0.0
 11
10704.12750789964
 21
6898.243182432326
 31
0.0
  0
LINE
  5
179C5
330
17D8E
100
AcDbEntity
  8
SUNPOU
100
AcDbLine
 10
10224.12750789964
 20
8708.243182432326
 30
0.0
 11
10704.12750789964
 21
8708.243182432326
 31
0.0
  0
LINE
  5
179C6
330
17D8E
100
AcDbEntity
  8
SUNPOU
100
AcDbLine
 10
10659.12750789964
 20
6913.243182432326
 30
0.0
 11
10659.12750789964
 21
8693.243182432327
 31
0.0
  0
LINE
  5
179CA
330
17D8E
100
AcDbEntity
  8
SUNPOU
100
AcDbLine
 10
10079.12750789964
 20
6498.243182432327
 30
0.0
 11
10704.12750789964
 21
6498.243182432325
 31
0.0
  0
LINE
  5
179CB
330
17D8E
100
AcDbEntity
  8
SUNPOU
100
AcDbLine
 10
10224.12750789964
 20
6898.243182432327
 30
0.0
 11
10704.12750789964
 21
6898.243182432326
 31
0.0
  0
LINE
  5
179CC
330
17D8E
100
AcDbEntity
  8
SUNPOU
100
AcDbLine
 10
10659.12750789964
 20
6513.243182432326
 30
0.0
 11
10659.12750789964
 21
6883.243182432327
 31
0.0
  0
LINE
  5
179D0
330
17D8E
100
AcDbEntity
  8
SUNPOU
100
AcDbLine
 10
10075.12750789964
 20
8908.243182432327
 30
0.0
 11
10494.12750789963
 21
8908.243182432327
 31
0.0
  0
LINE
  5
179D1
330
17D8E
100
AcDbEntity
  8
SUNPOU
100
AcDbLine
 10
10079.12750789964
 20
9108.243182432328
 30
0.0
 11
10494.12750789963
 21
9108.243182432328
 31
0.0
  0
LINE
  5
179D2
330
17D8E
100
AcDbEntity
  8
SUNPOU
100
AcDbLine
 10
10449.12750789964
 20
8923.243182432328
 30
0.0
 11
10449.12750789964
 21
9093.243182432329
 31
0.0
  0
LINE
  5
179D3
330
17D8E
100
AcDbEntity
  8
SUNPOU
100
AcDbLine
 10
10449.12750789964
 20
9108.243182432328
 30
0.0
 11
10449.12750789964
 21
9367.528896718042
 31
0.0
  0
LINE
  5
179D7
330
17D8E
100
AcDbEntity
  8
SUNPOU
100
AcDbLine
 10
10224.12750789964
 20
8708.243182432326
 30
0.0
 11
10494.12750789963
 21
8708.243182432326
 31
0.0
  0
LINE
  5
179D8
330
17D8E
100
AcDbEntity
  8
SUNPOU
100
AcDbLine
 10
10079.12750789964
 20
8908.243182432327
 30
0.0
 11
10494.12750789963
 21
8908.243182432327
 31
0.0
  0
LINE
  5
179D9
330
17D8E
100
AcDbEntity
  8
SUNPOU
100
AcDbLine
 10
10449.12750789964
 20
8893.243182432327
 30
0.0
 11
10449.12750789964
 21
8723.243182432327
 31
0.0
  0
LINE
  5
179DA
330
17D8E
100
AcDbEntity
  8
SUNPOU
100
AcDbLine
 10
10449.12750789964
 20
8708.243182432326
 30
0.0
 11
10449.12750789964
 21
8448.957468146611
 31
0.0
  0
LINE
  5
179DE
330
17D8E
100
AcDbEntity
  8
SUNPOU
100
AcDbLine
 10
7814.127507899641
 20
7108.243182432326
 30
0.0
 11
7799.12750789964
 21
7198.243182432327
 31
0.0
  0
LINE
  5
179DF
330
17D8E
100
AcDbEntity
  8
SUNPOU
100
AcDbLine
 10
7799.12750789964
 20
7198.243182432327
 30
0.0
 11
7784.127507899642
 21
7108.243182432326
 31
0.0
  0
SOLID
  5
179E0
330
17D8E
100
AcDbEntity
  8
SUNPOU
100
AcDbTrace
 10
7814.127507899641
 20
7108.243182432326
 30
0.0
 11
7784.127507899642
 21
7108.243182432326
 31
0.0
 12
7799.12750789964
 22
7198.243182432327
 32
0.0
 13
7799.12750789964
 23
7198.243182432327
 33
0.0
  0
LINE
  5
179E1
330
17D8E
100
AcDbEntity
  8
SUNPOU
100
AcDbLine
 10
7784.127507899642
 20
7108.243182432326
 30
0.0
 11
7814.127507899641
 21
7108.243182432326
 31
0.0
  0
LINE
  5
179E2
330
17D8E
100
AcDbEntity
  8
SUNPOU
100
AcDbLine
 10
6564.127507899637
 20
7108.243182432326
 30
0.0
 11
6579.127507899636
 21
7198.243182432327
 31
0.0
  0
LINE
  5
179E3
330
17D8E
100
AcDbEntity
  8
SUNPOU
100
AcDbLine
 10
6579.127507899636
 20
7198.243182432327
 30
0.0
 11
6594.127507899639
 21
7108.243182432326
 31
0.0
  0
SOLID
  5
179E4
330
17D8E
100
AcDbEntity
  8
SUNPOU
100
AcDbTrace
 10
6564.127507899637
 20
7108.243182432326
 30
0.0
 11
6594.127507899639
 21
7108.243182432326
 31
0.0
 12
6579.127507899636
 22
7198.243182432327
 32
0.0
 13
6579.127507899636
 23
7198.243182432327
 33
0.0
  0
LINE
  5
179E5
330
17D8E
100
AcDbEntity
  8
SUNPOU
100
AcDbLine
 10
6594.127507899639
 20
7108.243182432326
 30
0.0
 11
6564.127507899637
 21
7108.243182432326
 31
0.0
  0
LINE
  5
179E6
330
17D8E
100
AcDbEntity
  8
SUNPOU
100
AcDbLine
 10
6789.12750789964
 20
9138.243182432329
 30
0.0
 11
6789.12750789964
 21
9663.243182432324
 31
0.0
  0
LINE
  5
179E7
330
17D8E
100
AcDbEntity
  8
SUNPOU
100
AcDbLine
 10
10049.12750789964
 20
9138.243182432329
 30
0.0
 11
10049.12750789964
 21
9663.243182432324
 31
0.0
  0
LINE
  5
179E8
330
17D8E
100
AcDbEntity
  8
SUNPOU
100
AcDbLine
 10
6804.127507899639
 20
9618.243182432324
 30
0.0
 11
10034.12750789964
 21
9618.243182432324
 31
0.0
  0
LINE
  5
179EC
330
17D8E
100
AcDbEntity
  8
SUNPOU
100
AcDbLine
 10
9649.127507899642
 20
9338.243182432329
 30
0.0
 11
9649.127507899642
 21
9453.243182432325
 31
0.0
  0
LINE
  5
179ED
330
17D8E
100
AcDbEntity
  8
SUNPOU
100
AcDbLine
 10
7189.127507899641
 20
9338.243182432329
 30
0.0
 11
7189.127507899641
 21
9453.243182432325
 31
0.0
  0
LINE
  5
179EE
330
17D8E
100
AcDbEntity
  8
SUNPOU
100
AcDbLine
 10
9634.127507899641
 20
9408.243182432325
 30
0.0
 11
7204.127507899642
 21
9408.243182432325
 31
0.0
  0
LINE
  5
179F2
330
17D8E
100
AcDbEntity
  8
SUNPOU
100
AcDbLine
 10
7189.127507899641
 20
9338.243182432329
 30
0.0
 11
7189.127507899641
 21
9453.243182432325
 31
0.0
  0
LINE
  5
179F3
330
17D8E
100
AcDbEntity
  8
SUNPOU
100
AcDbLine
 10
6789.12750789964
 20
9138.243182432329
 30
0.0
 11
6789.12750789964
 21
9453.243182432325
 31
0.0
  0
LINE
  5
179F4
330
17D8E
100
AcDbEntity
  8
SUNPOU
100
AcDbLine
 10
7174.12750789964
 20
9408.243182432325
 30
0.0
 11
6804.127507899639
 21
9408.243182432325
 31
0.0
  0
LINE
  5
179F8
330
17D8E
100
AcDbEntity
  8
SUNPOU
100
AcDbLine
 10
9649.127507899642
 20
9338.243182432329
 30
0.0
 11
9649.127507899642
 21
9453.243182432325
 31
0.0
  0
LINE
  5
179F9
330
17D8E
100
AcDbEntity
  8
SUNPOU
100
AcDbLine
 10
10049.12750789964
 20
9138.243182432329
 30
0.0
 11
10049.12750789964
 21
9453.243182432325
 31
0.0
  0
LINE
  5
179FA
330
17D8E
100
AcDbEntity
  8
SUNPOU
100
AcDbLine
 10
9664.127507899641
 20
9408.243182432325
 30
0.0
 11
10034.12750789964
 21
9408.243182432325
 31
0.0
  0
LINE
  5
179FE
330
17D8E
100
AcDbEntity
  8
SUNPOU
100
AcDbLine
 10
9219.12750789964
 20
9108.243182432328
 30
0.0
 11
8904.127507899641
 21
9108.243182432328
 31
0.0
  0
LINE
  5
179FF
330
17D8E
100
AcDbEntity
  8
SUNPOU
100
AcDbLine
 10
9219.12750789964
 20
8308.243182432326
 30
0.0
 11
8904.127507899641
 21
8308.243182432326
 31
0.0
  0
LINE
  5
17A00
330
17D8E
100
AcDbEntity
  8
SUNPOU
100
AcDbLine
 10
8949.127507899641
 20
9093.243182432329
 30
0.0
 11
8949.127507899641
 21
8323.243182432326
 31
0.0
  0
LINE
  5
17A04
330
17D8E
100
AcDbEntity
  8
SUNPOU
100
AcDbLine
 10
9249.127507899641
 20
8278.243182432326
 30
0.0
 11
9249.127507899641
 21
7963.243182432326
 31
0.0
  0
LINE
  5
17A05
330
17D8E
100
AcDbEntity
  8
SUNPOU
100
AcDbLine
 10
10049.12750789964
 20
8278.243182432326
 30
0.0
 11
10049.12750789964
 21
7963.243182432326
 31
0.0
  0
LINE
  5
17A06
330
17D8E
100
AcDbEntity
  8
SUNPOU
100
AcDbLine
 10
9264.12750789964
 20
8008.243182432327
 30
0.0
 11
10034.12750789964
 21
8008.243182432327
 31
0.0
  0
TEXT
  5
17A0A
330
17D8E
100
AcDbEntity
  8
SUNPOU
100
AcDbText
 10
4484.142197881406
 20
4601.963733520728
 30
0.0
 40
90.0
  1
400
 41
0.6666666666666666
  7
00
100
AcDbText
  0
LINE
  5
17A0C
330
17D8E
100
AcDbEntity
  8
SUNPOU
100
AcDbLine
 10
4261.106483595692
 20
4556.963733520728
 30
0.0
 11
4272.356483595691
 21
4556.963733520728
 31
0.0
  0
LINE
  5
17A0E
330
17D8E
100
AcDbEntity
  8
SUNPOU
100
AcDbLine
 10
4878.606483595692
 20
4556.963733520728
 30
0.0
 11
4867.356483595692
 21
4556.963733520728
 31
0.0
  0
TEXT
  5
17A0F
330
17D8E
100
AcDbEntity
  8
SUNPOU
100
AcDbText
 10
6773.187589004638
 20
3364.249447806444
 30
0.0
 40
90.0
  1
380
 50
90.0
 41
0.6666666666666666
  7
00
100
AcDbText
  0
LINE
  5
17A11
330
17D8E
100
AcDbEntity
  8
SUNPOU
100
AcDbLine
 10
6818.18758900464
 20
3157.213733520729
 30
0.0
 11
6818.18758900464
 21
3168.463733520729
 31
0.0
  0
LINE
  5
17A13
330
17D8E
100
AcDbEntity
  8
SUNPOU
100
AcDbLine
 10
6818.18758900464
 20
3742.713733520729
 30
0.0
 11
6818.18758900464
 21
3731.463733520728
 31
0.0
  0
LINE
  5
17A15
330
17D8E
100
AcDbEntity
  8
SUNPOU
100
AcDbLine
 10
6818.18758900464
 20
2997.213733520732
 30
0.0
 11
6818.18758900464
 21
3008.463733520732
 31
0.0
  0
LINE
  5
17A17
330
17D8E
100
AcDbEntity
  8
SUNPOU
100
AcDbLine
 10
6818.18758900464
 20
3134.713733520728
 30
0.0
 11
6818.18758900464
 21
3123.463733520728
 31
0.0
  0
TEXT
  5
17A18
330
17D8E
100
AcDbEntity
  8
SUNPOU
100
AcDbText
 10
6775.015821249391
 20
2760.243102996788
 30
0.0
 40
90.0
  1
100
 50
90.0
 41
0.6666666666666666
  7
00
100
AcDbText
  0
TEXT
  5
17A19
330
17D8E
100
AcDbEntity
  8
SUNPOU
100
AcDbText
 10
6979.437589004638
 20
3284.249447806444
 30
0.0
 40
90.0
  1
480
 50
90.0
 41
0.6666666666666666
  7
00
100
AcDbText
  0
LINE
  5
17A1B
330
17D8E
100
AcDbEntity
  8
SUNPOU
100
AcDbLine
 10
7024.43758900464
 20
2997.213733520732
 30
0.0
 11
7024.43758900464
 21
3008.463733520732
 31
0.0
  0
LINE
  5
17A1D
330
17D8E
100
AcDbEntity
  8
SUNPOU
100
AcDbLine
 10
7024.43758900464
 20
3742.713733520729
 30
0.0
 11
7024.43758900464
 21
3731.463733520728
 31
0.0
  0
TEXT
  5
17A1E
330
17D8E
100
AcDbEntity
  8
SUNPOU
100
AcDbText
 10
4804.142197881406
 20
2650.963733520728
 30
0.0
 40
90.0
  1
800
 41
0.6666666666666666
  7
00
100
AcDbText
  0
LINE
  5
17A20
330
17D8E
100
AcDbEntity
  8
SUNPOU
100
AcDbLine
 10
5518.606483595691
 20
2605.963733520728
 30
0.0
 11
5507.356483595692
 21
2605.963733520728
 31
0.0
  0
LINE
  5
17A22
330
17D8E
100
AcDbEntity
  8
SUNPOU
100
AcDbLine
 10
4261.106483595692
 20
2605.963733520728
 30
0.0
 11
4272.356483595691
 21
2605.963733520728
 31
0.0
  0
TEXT
  5
17A23
330
17D8E
100
AcDbEntity
  8
SUNPOU
100
AcDbText
 10
4771.285055024263
 20
2440.963733520729
 30
0.0
 40
90.0
  1
1000
 41
0.6666666666666666
  7
00
100
AcDbText
  0
LINE
  5
17A25
330
17D8E
100
AcDbEntity
  8
SUNPOU
100
AcDbLine
 10
5678.606483595692
 20
2395.963733520728
 30
0.0
 11
5667.356483595693
 21
2395.963733520728
 31
0.0
  0
LINE
  5
17A27
330
17D8E
100
AcDbEntity
  8
SUNPOU
100
AcDbLine
 10
4101.106483595692
 20
2395.963733520728
 30
0.0
 11
4112.356483595691
 21
2395.963733520728
 31
0.0
  0
TEXT
  5
17A28
330
17D8E
100
AcDbEntity
  8
SUNPOU
100
AcDbText
 10
10824.12750789964
 20
7688.957468146615
 30
0.0
 40
90.0
  1
2610
 50
90.0
 41
0.6666666666666666
  7
00
100
AcDbText
  0
LINE
  5
17A2A
330
17D8E
100
AcDbEntity
  8
SUNPOU
100
AcDbLine
 10
10869.12750789964
 20
6509.493182432326
 30
0.0
 11
10869.12750789964
 21
6520.743182432326
 31
0.0
  0
LINE
  5
17A2C
330
17D8E
100
AcDbEntity
  8
SUNPOU
100
AcDbLine
 10
10869.12750789964
 20
9096.993182432328
 30
0.0
 11
10869.12750789964
 21
9085.743182432329
 31
0.0
  0
TEXT
  5
17A2D
330
17D8E
100
AcDbEntity
  8
SUNPOU
100
AcDbText
 10
10614.12750789963
 20
8822.528896718042
 30
0.0
 40
90.0
  1
400
 50
90.0
 41
0.6666666666666666
  7
00
100
AcDbText
  0
LINE
  5
17A2F
330
17D8E
100
AcDbEntity
  8
SUNPOU
100
AcDbLine
 10
10659.12750789964
 20
9096.993182432328
 30
0.0
 11
10659.12750789964
 21
9085.743182432329
 31
0.0
  0
LINE
  5
17A31
330
17D8E
100
AcDbEntity
  8
SUNPOU
100
AcDbLine
 10
10659.12750789964
 20
8719.493182432326
 30
0.0
 11
10659.12750789964
 21
8730.743182432327
 31
0.0
  0
TEXT
  5
17A32
330
17D8E
100
AcDbEntity
  8
SUNPOU
100
AcDbText
 10
10614.12750789963
 20
7684.6717538609
 30
0.0
 40
90.0
  1
1810
 50
90.0
 41
0.6666666666666666
  7
00
100
AcDbText
  0
LINE
  5
17A34
330
17D8E
100
AcDbEntity
  8
SUNPOU
100
AcDbLine
 10
10659.12750789964
 20
8696.993182432327
 30
0.0
 11
10659.12750789964
 21
8685.743182432327
 31
0.0
  0
LINE
  5
17A36
330
17D8E
100
AcDbEntity
  8
SUNPOU
100
AcDbLine
 10
10659.12750789964
 20
6909.493182432325
 30
0.0
 11
10659.12750789964
 21
6920.743182432326
 31
0.0
  0
TEXT
  5
17A37
330
17D8E
100
AcDbEntity
  8
SUNPOU
100
AcDbText
 10
10614.12750789963
 20
6612.528896718044
 30
0.0
 40
90.0
  1
400
 50
90.0
 41
0.6666666666666666
  7
00
100
AcDbText
  0
LINE
  5
17A39
330
17D8E
100
AcDbEntity
  8
SUNPOU
100
AcDbLine
 10
10659.12750789964
 20
6886.993182432326
 30
0.0
 11
10659.12750789964
 21
6875.743182432326
 31
0.0
  0
LINE
  5
17A3B
330
17D8E
100
AcDbEntity
  8
SUNPOU
100
AcDbLine
 10
10659.12750789964
 20
6509.493182432326
 30
0.0
 11
10659.12750789964
 21
6520.743182432326
 31
0.0
  0
TEXT
  5
17A3C
330
17D8E
100
AcDbEntity
  8
SUNPOU
100
AcDbText
 10
10404.12750789964
 20
9159.671753860903
 30
0.0
 40
90.0
  1
200
 50
90.0
 41
0.6666666666666666
  7
00
100
AcDbText
  0
LINE
  5
17A3E
330
17D8E
100
AcDbEntity
  8
SUNPOU
100
AcDbLine
 10
10449.12750789964
 20
9096.993182432328
 30
0.0
 11
10449.12750789964
 21
9085.743182432329
 31
0.0
  0
LINE
  5
17A40
330
17D8E
100
AcDbEntity
  8
SUNPOU
100
AcDbLine
 10
10449.12750789964
 20
8919.493182432326
 30
0.0
 11
10449.12750789964
 21
8930.743182432328
 31
0.0
  0
TEXT
  5
17A41
330
17D8E
100
AcDbEntity
  8
SUNPOU
100
AcDbText
 10
10404.12750789964
 20
8485.386039575184
 30
0.0
 40
90.0
  1
200
 50
90.0
 41
0.6666666666666666
  7
00
100
AcDbText
  0
LINE
  5
17A43
330
17D8E
100
AcDbEntity
  8
SUNPOU
100
AcDbLine
 10
10449.12750789964
 20
8719.493182432326
 30
0.0
 11
10449.12750789964
 21
8730.743182432327
 31
0.0
  0
LINE
  5
17A45
330
17D8E
100
AcDbEntity
  8
SUNPOU
100
AcDbLine
 10
10449.12750789964
 20
8896.993182432327
 30
0.0
 11
10449.12750789964
 21
8885.743182432326
 31
0.0
  0
TEXT
  5
17A46
330
17D8E
100
AcDbEntity
  8
SUNPOU
100
AcDbText
 10
8304.841793613924
 20
9663.243182432324
 30
0.0
 40
90.0
  1
3260
 41
0.6666666666666666
  7
00
100
AcDbText
  0
LINE
  5
17A48
330
17D8E
100
AcDbEntity
  8
SUNPOU
100
AcDbLine
 10
10037.87750789964
 20
9618.243182432324
 30
0.0
 11
10026.62750789964
 21
9618.243182432324
 31
0.0
  0
LINE
  5
17A4A
330
17D8E
100
AcDbEntity
  8
SUNPOU
100
AcDbLine
 10
6800.377507899641
 20
9618.243182432324
 30
0.0
 11
6811.627507899641
 21
9618.243182432324
 31
0.0
  0
TEXT
  5
17A4B
330
17D8E
100
AcDbEntity
  8
SUNPOU
100
AcDbText
 10
8304.841793613924
 20
9453.243182432325
 30
0.0
 40
90.0
  1
2460
 41
0.6666666666666666
  7
00
100
AcDbText
  0
LINE
  5
17A4D
330
17D8E
100
AcDbEntity
  8
SUNPOU
100
AcDbLine
 10
7200.377507899641
 20
9408.243182432325
 30
0.0
 11
7211.627507899641
 21
9408.243182432325
 31
0.0
  0
LINE
  5
17A4F
330
17D8E
100
AcDbEntity
  8
SUNPOU
100
AcDbLine
 10
9637.877507899641
 20
9408.243182432325
 30
0.0
 11
9626.627507899641
 21
9408.243182432325
 31
0.0
  0
TEXT
  5
17A50
330
17D8E
100
AcDbEntity
  8
SUNPOU
100
AcDbText
 10
6903.413222185355
 20
9453.243182432325
 30
0.0
 40
90.0
  1
400
 41
0.6666666666666666
  7
00
100
AcDbText
  0
LINE
  5
17A52
330
17D8E
100
AcDbEntity
  8
SUNPOU
100
AcDbLine
 10
6800.377507899641
 20
9408.243182432325
 30
0.0
 11
6811.627507899641
 21
9408.243182432325
 31
0.0
  0
LINE
  5
17A54
330
17D8E
100
AcDbEntity
  8
SUNPOU
100
AcDbLine
 10
7177.877507899641
 20
9408.243182432325
 30
0.0
 11
7166.627507899642
 21
9408.243182432325
 31
0.0
  0
TEXT
  5
17A55
330
17D8E
100
AcDbEntity
  8
SUNPOU
100
AcDbText
 10
9763.413222185356
 20
9453.243182432325
 30
0.0
 40
90.0
  1
400
 41
0.6666666666666666
  7
00
100
AcDbText
  0
LINE
  5
17A57
330
17D8E
100
AcDbEntity
  8
SUNPOU
100
AcDbLine
 10
10037.87750789964
 20
9408.243182432325
 30
0.0
 11
10026.62750789964
 21
9408.243182432325
 31
0.0
  0
LINE
  5
17A59
330
17D8E
100
AcDbEntity
  8
SUNPOU
100
AcDbLine
 10
9660.377507899641
 20
9408.243182432325
 30
0.0
 11
9671.627507899641
 21
9408.243182432325
 31
0.0
  0
TEXT
  5
17A5A
330
17D8E
100
AcDbEntity
  8
SUNPOU
100
AcDbText
 10
8904.127507899639
 20
8622.528896718042
 30
0.0
 40
90.0
  1
800
 50
90.0
 41
0.6666666666666666
  7
00
100
AcDbText
  0
LINE
  5
17A5C
330
17D8E
100
AcDbEntity
  8
SUNPOU
100
AcDbLine
 10
8949.127507899641
 20
8319.493182432326
 30
0.0
 11
8949.127507899641
 21
8330.743182432327
 31
0.0
  0
LINE
  5
17A5E
330
17D8E
100
AcDbEntity
  8
SUNPOU
100
AcDbLine
 10
8949.127507899641
 20
9096.993182432328
 30
0.0
 11
8949.127507899641
 21
9085.743182432329
 31
0.0
  0
TEXT
  5
17A5F
330
17D8E
100
AcDbEntity
  8
SUNPOU
100
AcDbText
 10
9563.413222185355
 20
8053.243182432327
 30
0.0
 40
90.0
  1
800
 41
0.6666666666666666
  7
00
100
AcDbText
  0
LINE
  5
17A61
330
17D8E
100
AcDbEntity
  8
SUNPOU
100
AcDbLine
 10
10037.87750789964
 20
8008.243182432327
 30
0.0
 11
10026.62750789964
 21
8008.243182432327
 31
0.0
  0
LINE
  5
17A63
330
17D8E
100
AcDbEntity
  8
SUNPOU
100
AcDbLine
 10
9260.37750789964
 20
8008.243182432327
 30
0.0
 11
9271.627507899641
 21
8008.243182432327
 31
0.0
  0
ARC
  5
17A64
330
17D8E
100
AcDbEntity
  8
SUNPOU
100
AcDbCircle
 10
4249.856483595691
 20
4556.963733520728
 30
0.0
 40
5.625
100
AcDbArc
 50
0.0
 51
180.0
  0
ARC
  5
17A65
330
17D8E
100
AcDbEntity
  8
SUNPOU
100
AcDbCircle
 10
4249.856483595691
 20
4556.963733520728
 30
0.0
 40
5.625
100
AcDbArc
 50
180.0
 51
0.0
  0
ARC
  5
17A66
330
17D8E
100
AcDbEntity
  8
SUNPOU
100
AcDbCircle
 10
4889.856483595693
 20
4556.963733520728
 30
0.0
 40
5.625
100
AcDbArc
 50
180.0
 51
0.0
  0
ARC
  5
17A67
330
17D8E
100
AcDbEntity
  8
SUNPOU
100
AcDbCircle
 10
4889.856483595693
 20
4556.963733520728
 30
0.0
 40
5.625
100
AcDbArc
 50
0.0
 51
180.0
  0
ARC
  5
17A68
330
17D8E
100
AcDbEntity
  8
SUNPOU
100
AcDbCircle
 10
6818.18758900464
 20
3145.963733520729
 30
0.0
 40
5.625
100
AcDbArc
 50
90.0
 51
270.0
  0
ARC
  5
17A69
330
17D8E
100
AcDbEntity
  8
SUNPOU
100
AcDbCircle
 10
6818.18758900464
 20
3145.963733520729
 30
0.0
 40
5.625
100
AcDbArc
 50
270.0
 51
90.0
  0
ARC
  5
17A6A
330
17D8E
100
AcDbEntity
  8
SUNPOU
100
AcDbCircle
 10
6818.18758900464
 20
3753.963733520729
 30
0.0
 40
5.625
100
AcDbArc
 50
270.0
 51
90.0
  0
ARC
  5
17A6B
330
17D8E
100
AcDbEntity
  8
SUNPOU
100
AcDbCircle
 10
6818.18758900464
 20
3753.963733520729
 30
0.0
 40
5.625
100
AcDbArc
 50
90.0
 51
270.0
  0
ARC
  5
17A6C
330
17D8E
100
AcDbEntity
  8
SUNPOU
100
AcDbCircle
 10
6818.18758900464
 20
2985.963733520732
 30
0.0
 40
5.625
100
AcDbArc
 50
90.0
 51
270.0
  0
ARC
  5
17A6D
330
17D8E
100
AcDbEntity
  8
SUNPOU
100
AcDbCircle
 10
6818.18758900464
 20
2985.963733520732
 30
0.0
 40
5.625
100
AcDbArc
 50
270.0
 51
90.0
  0
ARC
  5
17A6E
330
17D8E
100
AcDbEntity
  8
SUNPOU
100
AcDbCircle
 10
6818.18758900464
 20
3145.963733520728
 30
0.0
 40
5.625
100
AcDbArc
 50
270.0
 51
90.0
  0
ARC
  5
17A6F
330
17D8E
100
AcDbEntity
  8
SUNPOU
100
AcDbCircle
 10
6818.18758900464
 20
3145.963733520728
 30
0.0
 40
5.625
100
AcDbArc
 50
90.0
 51
270.0
  0
ARC
  5
17A70
330
17D8E
100
AcDbEntity
  8
SUNPOU
100
AcDbCircle
 10
7024.43758900464
 20
2985.963733520732
 30
0.0
 40
5.625
100
AcDbArc
 50
90.0
 51
270.0
  0
ARC
  5
17A71
330
17D8E
100
AcDbEntity
  8
SUNPOU
100
AcDbCircle
 10
7024.43758900464
 20
2985.963733520732
 30
0.0
 40
5.625
100
AcDbArc
 50
270.0
 51
90.0
  0
ARC
  5
17A72
330
17D8E
100
AcDbEntity
  8
SUNPOU
100
AcDbCircle
 10
7024.43758900464
 20
3753.963733520729
 30
0.0
 40
5.625
100
AcDbArc
 50
270.0
 51
90.0
  0
ARC
  5
17A73
330
17D8E
100
AcDbEntity
  8
SUNPOU
100
AcDbCircle
 10
7024.43758900464
 20
3753.963733520729
 30
0.0
 40
5.625
100
AcDbArc
 50
90.0
 51
270.0
  0
ARC
  5
17A74
330
17D8E
100
AcDbEntity
  8
SUNPOU
100
AcDbCircle
 10
5529.856483595692
 20
2605.963733520728
 30
0.0
 40
5.625
100
AcDbArc
 50
180.0
 51
0.0
  0
ARC
  5
17A75
330
17D8E
100
AcDbEntity
  8
SUNPOU
100
AcDbCircle
 10
5529.856483595692
 20
2605.963733520728
 30
0.0
 40
5.625
100
AcDbArc
 50
0.0
 51
180.0
  0
ARC
  5
17A76
330
17D8E
100
AcDbEntity
  8
SUNPOU
100
AcDbCircle
 10
4249.856483595691
 20
2605.963733520728
 30
0.0
 40
5.625
100
AcDbArc
 50
0.0
 51
180.0
  0
ARC
  5
17A77
330
17D8E
100
AcDbEntity
  8
SUNPOU
100
AcDbCircle
 10
4249.856483595691
 20
2605.963733520728
 30
0.0
 40
5.625
100
AcDbArc
 50
180.0
 51
0.0
  0
ARC
  5
17A78
330
17D8E
100
AcDbEntity
  8
SUNPOU
100
AcDbCircle
 10
5689.856483595693
 20
2395.963733520728
 30
0.0
 40
5.625
100
AcDbArc
 50
180.0
 51
0.0
  0
ARC
  5
17A79
330
17D8E
100
AcDbEntity
  8
SUNPOU
100
AcDbCircle
 10
5689.856483595693
 20
2395.963733520728
 30
0.0
 40
5.625
100
AcDbArc
 50
0.0
 51
180.0
  0
ARC
  5
17A7A
330
17D8E
100
AcDbEntity
  8
SUNPOU
100
AcDbCircle
 10
4089.856483595691
 20
2395.963733520728
 30
0.0
 40
5.625
100
AcDbArc
 50
0.0
 51
180.0
  0
ARC
  5
17A7B
330
17D8E
100
AcDbEntity
  8
SUNPOU
100
AcDbCircle
 10
4089.856483595691
 20
2395.963733520728
 30
0.0
 40
5.625
100
AcDbArc
 50
180.0
 51
0.0
  0
ARC
  5
17A7C
330
17D8E
100
AcDbEntity
  8
SUNPOU
100
AcDbCircle
 10
10869.12750789964
 20
6498.243182432325
 30
0.0
 40
5.625
100
AcDbArc
 50
90.0
 51
270.0
  0
ARC
  5
17A7D
330
17D8E
100
AcDbEntity
  8
SUNPOU
100
AcDbCircle
 10
10869.12750789964
 20
6498.243182432325
 30
0.0
 40
5.625
100
AcDbArc
 50
270.0
 51
90.0
  0
ARC
  5
17A7E
330
17D8E
100
AcDbEntity
  8
SUNPOU
100
AcDbCircle
 10
10869.12750789964
 20
9108.243182432328
 30
0.0
 40
5.625
100
AcDbArc
 50
270.0
 51
90.0
  0
ARC
  5
17A7F
330
17D8E
100
AcDbEntity
  8
SUNPOU
100
AcDbCircle
 10
10869.12750789964
 20
9108.243182432328
 30
0.0
 40
5.625
100
AcDbArc
 50
90.0
 51
270.0
  0
ARC
  5
17A80
330
17D8E
100
AcDbEntity
  8
SUNPOU
100
AcDbCircle
 10
10659.12750789964
 20
9108.243182432328
 30
0.0
 40
5.625
100
AcDbArc
 50
270.0
 51
90.0
  0
ARC
  5
17A81
330
17D8E
100
AcDbEntity
  8
SUNPOU
100
AcDbCircle
 10
10659.12750789964
 20
9108.243182432328
 30
0.0
 40
5.625
100
AcDbArc
 50
90.0
 51
270.0
  0
ARC
  5
17A82
330
17D8E
100
AcDbEntity
  8
SUNPOU
100
AcDbCircle
 10
10659.12750789964
 20
8708.243182432326
 30
0.0
 40
5.625
100
AcDbArc
 50
90.0
 51
270.0
  0
ARC
  5
17A83
330
17D8E
100
AcDbEntity
  8
SUNPOU
100
AcDbCircle
 10
10659.12750789964
 20
8708.243182432326
 30
0.0
 40
5.625
100
AcDbArc
 50
270.0
 51
90.0
  0
ARC
  5
17A84
330
17D8E
100
AcDbEntity
  8
SUNPOU
100
AcDbCircle
 10
10659.12750789964
 20
8708.243182432326
 30
0.0
 40
5.625
100
AcDbArc
 50
270.0
 51
90.0
  0
ARC
  5
17A85
330
17D8E
100
AcDbEntity
  8
SUNPOU
100
AcDbCircle
 10
10659.12750789964
 20
8708.243182432326
 30
0.0
 40
5.625
100
AcDbArc
 50
90.0
 51
270.0
  0
ARC
  5
17A86
330
17D8E
100
AcDbEntity
  8
SUNPOU
100
AcDbCircle
 10
10659.12750789964
 20
6898.243182432326
 30
0.0
 40
5.625
100
AcDbArc
 50
90.0
 51
270.0
  0
ARC
  5
17A87
330
17D8E
100
AcDbEntity
  8
SUNPOU
100
AcDbCircle
 10
10659.12750789964
 20
6898.243182432326
 30
0.0
 40
5.625
100
AcDbArc
 50
270.0
 51
90.0
  0
ARC
  5
17A88
330
17D8E
100
AcDbEntity
  8
SUNPOU
100
AcDbCircle
 10
10659.12750789964
 20
6898.243182432326
 30
0.0
 40
5.625
100
AcDbArc
 50
270.0
 51
90.0
  0
ARC
  5
17A89
330
17D8E
100
AcDbEntity
  8
SUNPOU
100
AcDbCircle
 10
10659.12750789964
 20
6898.243182432326
 30
0.0
 40
5.625
100
AcDbArc
 50
90.0
 51
270.0
  0
ARC
  5
17A8A
330
17D8E
100
AcDbEntity
  8
SUNPOU
100
AcDbCircle
 10
10659.12750789964
 20
6498.243182432325
 30
0.0
 40
5.625
100
AcDbArc
 50
90.0
 51
270.0
  0
ARC
  5
17A8B
330
17D8E
100
AcDbEntity
  8
SUNPOU
100
AcDbCircle
 10
10659.12750789964
 20
6498.243182432325
 30
0.0
 40
5.625
100
AcDbArc
 50
270.0
 51
90.0
  0
ARC
  5
17A8C
330
17D8E
100
AcDbEntity
  8
SUNPOU
100
AcDbCircle
 10
10449.12750789964
 20
9108.243182432328
 30
0.0
 40
5.625
100
AcDbArc
 50
270.0
 51
90.0
  0
ARC
  5
17A8D
330
17D8E
100
AcDbEntity
  8
SUNPOU
100
AcDbCircle
 10
10449.12750789964
 20
9108.243182432328
 30
0.0
 40
5.625
100
AcDbArc
 50
90.0
 51
270.0
  0
ARC
  5
17A8E
330
17D8E
100
AcDbEntity
  8
SUNPOU
100
AcDbCircle
 10
10449.12750789964
 20
8908.243182432327
 30
0.0
 40
5.625
100
AcDbArc
 50
90.0
 51
270.0
  0
ARC
  5
17A8F
330
17D8E
100
AcDbEntity
  8
SUNPOU
100
AcDbCircle
 10
10449.12750789964
 20
8908.243182432327
 30
0.0
 40
5.625
100
AcDbArc
 50
270.0
 51
90.0
  0
ARC
  5
17A90
330
17D8E
100
AcDbEntity
  8
SUNPOU
100
AcDbCircle
 10
10449.12750789964
 20
8708.243182432326
 30
0.0
 40
5.625
100
AcDbArc
 50
90.0
 51
270.0
  0
ARC
  5
17A91
330
17D8E
100
AcDbEntity
  8
SUNPOU
100
AcDbCircle
 10
10449.12750789964
 20
8708.243182432326
 30
0.0
 40
5.625
100
AcDbArc
 50
270.0
 51
90.0
  0
ARC
  5
17A92
330
17D8E
100
AcDbEntity
  8
SUNPOU
100
AcDbCircle
 10
10449.12750789964
 20
8908.243182432327
 30
0.0
 40
5.625
100
AcDbArc
 50
270.0
 51
90.0
  0
ARC
  5
17A93
330
17D8E
100
AcDbEntity
  8
SUNPOU
100
AcDbCircle
 10
10449.12750789964
 20
8908.243182432327
 30
0.0
 40
5.625
100
AcDbArc
 50
90.0
 51
270.0
  0
ARC
  5
17A94
330
17D8E
100
AcDbEntity
  8
SUNPOU
100
AcDbCircle
 10
10049.12750789964
 20
9618.243182432324
 30
0.0
 40
5.625
100
AcDbArc
 50
180.0
 51
0.0
  0
ARC
  5
17A95
330
17D8E
100
AcDbEntity
  8
SUNPOU
100
AcDbCircle
 10
10049.12750789964
 20
9618.243182432324
 30
0.0
 40
5.625
100
AcDbArc
 50
0.0
 51
180.0
  0
ARC
  5
17A96
330
17D8E
100
AcDbEntity
  8
SUNPOU
100
AcDbCircle
 10
6789.12750789964
 20
9618.243182432324
 30
0.0
 40
5.625
100
AcDbArc
 50
0.0
 51
180.0
  0
ARC
  5
17A97
330
17D8E
100
AcDbEntity
  8
SUNPOU
100
AcDbCircle
 10
6789.12750789964
 20
9618.243182432324
 30
0.0
 40
5.625
100
AcDbArc
 50
180.0
 51
0.0
  0
ARC
  5
17A98
330
17D8E
100
AcDbEntity
  8
SUNPOU
100
AcDbCircle
 10
7189.127507899641
 20
9408.243182432325
 30
0.0
 40
5.625
100
AcDbArc
 50
0.0
 51
180.0
  0
ARC
  5
17A99
330
17D8E
100
AcDbEntity
  8
SUNPOU
100
AcDbCircle
 10
7189.127507899641
 20
9408.243182432325
 30
0.0
 40
5.625
100
AcDbArc
 50
180.0
 51
0.0
  0
ARC
  5
17A9A
330
17D8E
100
AcDbEntity
  8
SUNPOU
100
AcDbCircle
 10
9649.127507899642
 20
9408.243182432325
 30
0.0
 40
5.625
100
AcDbArc
 50
180.0
 51
0.0
  0
ARC
  5
17A9B
330
17D8E
100
AcDbEntity
  8
SUNPOU
100
AcDbCircle
 10
9649.127507899642
 20
9408.243182432325
 30
0.0
 40
5.625
100
AcDbArc
 50
0.0
 51
180.0
  0
ARC
  5
17A9C
330
17D8E
100
AcDbEntity
  8
SUNPOU
100
AcDbCircle
 10
6789.12750789964
 20
9408.243182432325
 30
0.0
 40
5.625
100
AcDbArc
 50
0.0
 51
180.0
  0
ARC
  5
17A9D
330
17D8E
100
AcDbEntity
  8
SUNPOU
100
AcDbCircle
 10
6789.12750789964
 20
9408.243182432325
 30
0.0
 40
5.625
100
AcDbArc
 50
180.0
 51
0.0
  0
ARC
  5
17A9E
330
17D8E
100
AcDbEntity
  8
SUNPOU
100
AcDbCircle
 10
7189.127507899641
 20
9408.243182432325
 30
0.0
 40
5.625
100
AcDbArc
 50
180.0
 51
0.0
  0
ARC
  5
17A9F
330
17D8E
100
AcDbEntity
  8
SUNPOU
100
AcDbCircle
 10
7189.127507899641
 20
9408.243182432325
 30
0.0
 40
5.625
100
AcDbArc
 50
0.0
 51
180.0
  0
ARC
  5
17AA0
330
17D8E
100
AcDbEntity
  8
SUNPOU
100
AcDbCircle
 10
10049.12750789964
 20
9408.243182432325
 30
0.0
 40
5.625
100
AcDbArc
 50
180.0
 51
0.0
  0
ARC
  5
17AA1
330
17D8E
100
AcDbEntity
  8
SUNPOU
100
AcDbCircle
 10
10049.12750789964
 20
9408.243182432325
 30
0.0
 40
5.625
100
AcDbArc
 50
0.0
 51
180.0
  0
ARC
  5
17AA2
330
17D8E
100
AcDbEntity
  8
SUNPOU
100
AcDbCircle
 10
9649.127507899642
 20
9408.243182432325
 30
0.0
 40
5.625
100
AcDbArc
 50
0.0
 51
180.0
  0
ARC
  5
17AA3
330
17D8E
100
AcDbEntity
  8
SUNPOU
100
AcDbCircle
 10
9649.127507899642
 20
9408.243182432325
 30
0.0
 40
5.625
100
AcDbArc
 50
180.0
 51
0.0
  0
ARC
  5
17AA4
330
17D8E
100
AcDbEntity
  8
SUNPOU
100
AcDbCircle
 10
8949.127507899641
 20
8308.243182432326
 30
0.0
 40
5.625
100
AcDbArc
 50
90.0
 51
270.0
  0
ARC
  5
17AA5
330
17D8E
100
AcDbEntity
  8
SUNPOU
100
AcDbCircle
 10
8949.127507899641
 20
8308.243182432326
 30
0.0
 40
5.625
100
AcDbArc
 50
270.0
 51
90.0
  0
ARC
  5
17AA6
330
17D8E
100
AcDbEntity
  8
SUNPOU
100
AcDbCircle
 10
8949.127507899641
 20
9108.243182432328
 30
0.0
 40
5.625
100
AcDbArc
 50
270.0
 51
90.0
  0
ARC
  5
17AA7
330
17D8E
100
AcDbEntity
  8
SUNPOU
100
AcDbCircle
 10
8949.127507899641
 20
9108.243182432328
 30
0.0
 40
5.625
100
AcDbArc
 50
90.0
 51
270.0
  0
ARC
  5
17AA8
330
17D8E
100
AcDbEntity
  8
SUNPOU
100
AcDbCircle
 10
10049.12750789964
 20
8008.243182432327
 30
0.0
 40
5.625
100
AcDbArc
 50
180.0
 51
0.0
  0
ARC
  5
17AA9
330
17D8E
100
AcDbEntity
  8
SUNPOU
100
AcDbCircle
 10
10049.12750789964
 20
8008.243182432327
 30
0.0
 40
5.625
100
AcDbArc
 50
0.0
 51
180.0
  0
ARC
  5
17AAA
330
17D8E
100
AcDbEntity
  8
SUNPOU
100
AcDbCircle
 10
9249.127507899641
 20
8008.243182432327
 30
0.0
 40
5.625
100
AcDbArc
 50
0.0
 51
180.0
  0
ARC
  5
17AAB
330
17D8E
100
AcDbEntity
  8
SUNPOU
100
AcDbCircle
 10
9249.127507899641
 20
8008.243182432327
 30
0.0
 40
5.625
100
AcDbArc
 50
180.0
 51
0.0
  0
ARC
  5
17AAF
330
17D8E
100
AcDbEntity
  8
HIKIDASHI
100
AcDbCircle
 10
4217.388914848876
 20
4214.34846204352
 30
0.0
 40
74.66417910446155
100
AcDbArc
 50
164.8596129851117
 51
237.5045002941574
  0
ARC
  5
17AB0
330
17D8E
100
AcDbEntity
  8
HIKIDASHI
100
AcDbCircle
 10
4153.965120802623
 20
4231.50948552799
 30
0.0
 40
8.959701492535391
100
AcDbArc
 50
15.14038701506339
 51
164.8596129849366
  0
LINE
  5
17AB7
330
17D8E
100
AcDbEntity
  8
HIKIDASHI
100
AcDbLine
 10
4627.888538436751
 20
3319.245765823483
 30
0.0
 11
4186.816957180232
 21
4083.204154334509
 31
0.0
1001
ACAD
1000
DSTYLE
1002
{
1070
   147
1040
1.0
1070
    77
1070
     0
1002
}
  0
LINE
  5
17AB8
330
17D8E
100
AcDbEntity
  8
HIKIDASHI
100
AcDbLine
 10
4616.341533052959
 20
3312.579099156816
 30
0.0
 11
4667.888538436751
 21
3249.963733520729
 31
0.0
  0
LINE
  5
17AB9
330
17D8E
100
AcDbEntity
  8
HIKIDASHI
100
AcDbLine
 10
4667.888538436751
 20
3249.963733520729
 30
0.0
 11
4639.435543820545
 21
3325.912432490151
 31
0.0
  0
SOLID
  5
17ABA
330
17D8E
100
AcDbEntity
  8
HIKIDASHI
100
AcDbTrace
 10
4616.341533052959
 20
3312.579099156816
 30
0.0
 11
4639.435543820545
 21
3325.912432490151
 31
0.0
 12
4667.888538436751
 22
3249.963733520729
 32
0.0
 13
4667.888538436751
 23
3249.963733520729
 33
0.0
  0
LINE
  5
17ABB
330
17D8E
100
AcDbEntity
  8
HIKIDASHI
100
AcDbLine
 10
4639.435543820545
 20
3325.912432490151
 30
0.0
 11
4616.341533052959
 21
3312.579099156816
 31
0.0
  0
ARC
  5
17ABC
330
17D8E
100
AcDbEntity
  8
HIKIDASHI
100
AcDbCircle
 10
4091.720853292108
 20
4215.528589403109
 30
0.0
 40
74.66417910446081
100
AcDbArc
 50
301.7712278330701
 51
15.1403870149094
  0
LINE
  5
17ABD
330
17D8E
100
AcDbEntity
  8
HIKIDASHI
100
AcDbLine
 10
5936.424512455826
 20
3642.477924325876
 30
0.0
 11
6196.483271007117
 21
4083.963733520728
 31
0.0
1001
ACAD
1000
DSTYLE
1002
{
1070
   147
1040
1.0
1070
    77
1070
     0
1070
   173
1070
     0
1070
   341
1005
125B0
1002
}
  0
ARC
  5
17ABE
330
17D8E
100
AcDbEntity
  8
HIKIDASHI
  6
ByBlock
100
AcDbCircle
 10
5906.320199686221
 20
3551.966211169526
 30
0.0
 40
24.0
100
AcDbArc
 50
3.056949146300892
 51
115.9423296224592
  0
ARC
  5
17ABF
330
17D8E
100
AcDbEntity
  8
HIKIDASHI
  6
ByBlock
100
AcDbCircle
 10
5885.321819467964
 20
3595.129482920051
 30
0.0
 40
24.0
100
AcDbArc
 50
183.0569491463009
 51
295.9423296224593
  0
LINE
  5
17AC0
330
17D8E
100
AcDbEntity
  8
HIKIDASHI
  6
ByBlock
100
AcDbLine
 10
5895.821009577092
 20
3573.547847044789
 30
0.0
 11
5936.424512455836
 21
3642.477924325891
 31
0.0
  0
LINE
  5
17AC1
330
17D8E
100
AcDbEntity
  8
HIKIDASHI
100
AcDbLine
 10
5719.385201492448
 20
3823.245765823486
 30
0.0
 11
5991.154346854814
 21
4293.963733520728
 31
0.0
1001
ACAD
1000
DSTYLE
1002
{
1070
   147
1040
1.0
1070
    77
1070
     0
1002
}
  0
LINE
  5
17AC2
330
17D8E
100
AcDbEntity
  8
HIKIDASHI
100
AcDbLine
 10
5707.838196108657
 20
3829.912432490152
 30
0.0
 11
5679.385201492451
 21
3753.963733520729
 31
0.0
  0
LINE
  5
17AC3
330
17D8E
100
AcDbEntity
  8
HIKIDASHI
100
AcDbLine
 10
5679.385201492451
 20
3753.963733520729
 30
0.0
 11
5730.932206876241
 21
3816.57909915682
 31
0.0
  0
SOLID
  5
17AC4
330
17D8E
100
AcDbEntity
  8
HIKIDASHI
100
AcDbTrace
 10
5707.838196108657
 20
3829.912432490152
 30
0.0
 11
5730.932206876241
 21
3816.57909915682
 31
0.0
 12
5679.385201492451
 22
3753.963733520729
 32
0.0
 13
5679.385201492451
 23
3753.963733520729
 33
0.0
  0
LINE
  5
17AC5
330
17D8E
100
AcDbEntity
  8
HIKIDASHI
100
AcDbLine
 10
5730.932206876241
 20
3816.57909915682
 30
0.0
 11
5707.838196108657
 21
3829.912432490152
 31
0.0
  0
LINE
  5
17AC6
330
17D8E
100
AcDbEntity
  8
HIKIDASHI
100
AcDbLine
 10
4058.272423574408
 20
3024.462392359007
 30
0.0
 11
3864.689878611732
 21
2573.963733520729
 31
0.0
  0
LINE
  5
17AC7
330
17D8E
100
AcDbEntity
  8
HIKIDASHI
100
AcDbLine
 10
4070.522647101362
 20
3019.198382355458
 30
0.0
 11
4089.856483595691
 21
3097.963733520729
 31
0.0
  0
LINE
  5
17AC8
330
17D8E
100
AcDbEntity
  8
HIKIDASHI
100
AcDbLine
 10
4089.856483595691
 20
3097.963733520729
 30
0.0
 11
4046.022200047453
 21
3029.726402362554
 31
0.0
  0
SOLID
  5
17AC9
330
17D8E
100
AcDbEntity
  8
HIKIDASHI
100
AcDbTrace
 10
4070.522647101362
 20
3019.198382355458
 30
0.0
 11
4046.022200047453
 21
3029.726402362554
 31
0.0
 12
4089.856483595691
 22
3097.963733520729
 32
0.0
 13
4089.856483595691
 23
3097.963733520729
 33
0.0
  0
LINE
  5
17ACA
330
17D8E
100
AcDbEntity
  8
HIKIDASHI
100
AcDbLine
 10
4046.022200047453
 20
3029.726402362554
 30
0.0
 11
4070.522647101362
 21
3019.198382355458
 31
0.0
  0
LINE
  5
17ACB
330
17D8E
100
AcDbEntity
  8
HATCH
100
AcDbLine
 10
5353.544817397462
 20
2985.963733520728
 30
0.0
 11
5445.920860467789
 21
3145.963733520705
 31
0.0
  0
LINE
  5
17ACC
330
17D8E
100
AcDbEntity
  8
HATCH
100
AcDbLine
 10
5381.920860467798
 20
3145.963733520704
 30
0.0
 11
5413.920860467793
 21
3090.538107678512
 31
0.0
  0
LINE
  5
17ACD
330
17D8E
100
AcDbEntity
  8
HATCH
100
AcDbLine
 10
5385.544817397457
 20
3041.389359362927
 30
0.0
 11
5417.544817397452
 21
2985.963733520728
 31
0.0
  0
LINE
  5
17ACE
330
17D8E
100
AcDbEntity
  8
HATCH
100
AcDbLine
 10
5153.544817397462
 20
2985.963733520728
 30
0.0
 11
5245.920860467789
 21
3145.963733520705
 31
0.0
  0
LINE
  5
17ACF
330
17D8E
100
AcDbEntity
  8
HATCH
100
AcDbLine
 10
5181.920860467798
 20
3145.963733520704
 30
0.0
 11
5213.920860467793
 21
3090.538107678512
 31
0.0
  0
LINE
  5
17AD0
330
17D8E
100
AcDbEntity
  8
HATCH
100
AcDbLine
 10
5185.544817397457
 20
3041.389359362927
 30
0.0
 11
5217.544817397453
 21
2985.963733520728
 31
0.0
  0
LINE
  5
17AD1
330
17D8E
100
AcDbEntity
  8
HATCH
100
AcDbLine
 10
4953.544817397462
 20
2985.963733520728
 30
0.0
 11
5045.920860467789
 21
3145.963733520705
 31
0.0
  0
LINE
  5
17AD2
330
17D8E
100
AcDbEntity
  8
HATCH
100
AcDbLine
 10
4981.920860467798
 20
3145.963733520704
 30
0.0
 11
5013.920860467793
 21
3090.538107678512
 31
0.0
  0
LINE
  5
17AD3
330
17D8E
100
AcDbEntity
  8
HATCH
100
AcDbLine
 10
4985.544817397457
 20
3041.389359362927
 30
0.0
 11
5017.544817397452
 21
2985.963733520728
 31
0.0
  0
LINE
  5
17AD4
330
17D8E
100
AcDbEntity
  8
HATCH
100
AcDbLine
 10
4553.544817397462
 20
2985.963733520728
 30
0.0
 11
4645.920860467787
 21
3145.963733520705
 31
0.0
  0
LINE
  5
17AD5
330
17D8E
100
AcDbEntity
  8
HATCH
100
AcDbLine
 10
4581.920860467798
 20
3145.963733520704
 30
0.0
 11
4613.920860467793
 21
3090.538107678512
 31
0.0
  0
LINE
  5
17AD6
330
17D8E
100
AcDbEntity
  8
HATCH
100
AcDbLine
 10
4585.544817397457
 20
3041.389359362927
 30
0.0
 11
4617.544817397452
 21
2985.963733520728
 31
0.0
  0
LINE
  5
17AD7
330
17D8E
100
AcDbEntity
  8
HATCH
100
AcDbLine
 10
4353.544817397462
 20
2985.963733520728
 30
0.0
 11
4445.920860467789
 21
3145.963733520705
 31
0.0
  0
LINE
  5
17AD8
330
17D8E
100
AcDbEntity
  8
HATCH
100
AcDbLine
 10
4381.920860467798
 20
3145.963733520704
 30
0.0
 11
4413.920860467793
 21
3090.538107678512
 31
0.0
  0
LINE
  5
17AD9
330
17D8E
100
AcDbEntity
  8
HATCH
100
AcDbLine
 10
4385.544817397457
 20
3041.389359362927
 30
0.0
 11
4417.544817397452
 21
2985.963733520728
 31
0.0
  0
LINE
  5
17ADA
330
17D8E
100
AcDbEntity
  8
HATCH
100
AcDbLine
 10
4753.544817397462
 20
2985.963733520728
 30
0.0
 11
4845.920860467789
 21
3145.963733520705
 31
0.0
  0
LINE
  5
17ADB
330
17D8E
100
AcDbEntity
  8
HATCH
100
AcDbLine
 10
4781.920860467798
 20
3145.963733520704
 30
0.0
 11
4813.920860467793
 21
3090.538107678512
 31
0.0
  0
LINE
  5
17ADC
330
17D8E
100
AcDbEntity
  8
HATCH
100
AcDbLine
 10
4785.544817397457
 20
3041.389359362927
 30
0.0
 11
4817.544817397452
 21
2985.963733520728
 31
0.0
  0
LINE
  5
17ADD
330
17D8E
100
AcDbEntity
  8
TEKKIN
100
AcDbLine
 10
4837.856483595691
 20
3249.963733520729
 30
0.0
 11
4609.856483595691
 21
3249.963733520729
 31
0.0
  0
LINE
  5
17ADE
330
17D8E
100
AcDbEntity
  8
TEKKIN
100
AcDbLine
 10
4609.856483595691
 20
3249.963733520729
 30
0.0
 11
4609.856483595691
 21
3233.96373352073
 31
0.0
  0
LINE
  5
17ADF
330
17D8E
100
AcDbEntity
  8
TEKKIN
100
AcDbLine
 10
4609.856483595691
 20
3233.96373352073
 30
0.0
 11
4837.856483595691
 21
3233.96373352073
 31
0.0
  0
LINE
  5
17AE0
330
17D8E
100
AcDbEntity
  8
TEKKIN
100
AcDbLine
 10
4941.856483595691
 20
3233.96373352073
 30
0.0
 11
5169.856483595691
 21
3233.96373352073
 31
0.0
  0
LINE
  5
17AE1
330
17D8E
100
AcDbEntity
  8
TEKKIN
100
AcDbLine
 10
5169.856483595691
 20
3233.96373352073
 30
0.0
 11
5169.856483595691
 21
3249.963733520729
 31
0.0
  0
LINE
  5
17AE2
330
17D8E
100
AcDbEntity
  8
TEKKIN
100
AcDbLine
 10
5169.856483595691
 20
3249.963733520729
 30
0.0
 11
4941.856483595691
 21
3249.963733520729
 31
0.0
  0
LINE
  5
17AE3
330
17D8E
100
AcDbEntity
  8
HATCH
100
AcDbLine
 10
5553.544817397463
 20
2985.96373352073
 30
0.0
 11
5645.920860467789
 21
3145.963733520706
 31
0.0
  0
LINE
  5
17AE4
330
17D8E
100
AcDbEntity
  8
HATCH
100
AcDbLine
 10
5581.920860467799
 20
3145.963733520704
 30
0.0
 11
5613.920860467795
 21
3090.538107678512
 31
0.0
  0
LINE
  5
17AE5
330
17D8E
100
AcDbEntity
  8
HATCH
100
AcDbLine
 10
5585.544817397458
 20
3041.389359362927
 30
0.0
 11
5617.544817397453
 21
2985.96373352073
 31
0.0
  0
LINE
  5
17AE6
330
17D8E
100
AcDbEntity
  8
HATCH
100
AcDbLine
 10
4153.544817397462
 20
2985.963733520728
 30
0.0
 11
4245.92086046779
 21
3145.963733520704
 31
0.0
  0
LINE
  5
17AE7
330
17D8E
100
AcDbEntity
  8
HATCH
100
AcDbLine
 10
4181.920860467799
 20
3145.963733520703
 30
0.0
 11
4213.920860467793
 21
3090.538107678511
 31
0.0
  0
LINE
  5
17AE8
330
17D8E
100
AcDbEntity
  8
HATCH
100
AcDbLine
 10
4185.544817397459
 20
3041.389359362926
 30
0.0
 11
4217.544817397453
 21
2985.963733520728
 31
0.0
  0
LINE
  5
17AE9
330
17D8E
100
AcDbEntity
  8
DOMAKON
100
AcDbLine
 10
10049.12750789964
 20
6498.243182432327
 30
0.0
 11
6789.12750789964
 21
6498.243182432327
 31
0.0
  0
LINE
  5
17AEA
330
17D8E
100
AcDbEntity
  8
DOMAKON
100
AcDbLine
 10
6789.12750789964
 20
6498.243182432327
 30
0.0
 11
6789.12750789964
 21
8908.243182432327
 31
0.0
  0
LINE
  5
17AEB
330
17D8E
100
AcDbEntity
  8
DOMAKON
100
AcDbLine
 10
6789.12750789964
 20
8908.243182432327
 30
0.0
 11
10049.12750789964
 21
8908.243182432327
 31
0.0
  0
LINE
  5
17AEC
330
17D8E
100
AcDbEntity
  8
DOMAKON
100
AcDbLine
 10
10049.12750789964
 20
8908.243182432327
 30
0.0
 11
10049.12750789964
 21
6498.243182432327
 31
0.0
  0
LINE
  5
17AED
330
17D8E
100
AcDbEntity
  8
YANE
  6
2PL-L
 62
     6
100
AcDbLine
 10
10045.12750789964
 20
6398.243182432327
 30
0.0
 11
6793.127507899639
 21
6398.243182432327
 31
0.0
  0
LINE
  5
17AEE
330
17D8E
100
AcDbEntity
  8
YANE
  6
2PL-L
 62
     6
100
AcDbLine
 10
6793.127507899639
 20
6398.243182432327
 30
0.0
 11
6793.127507899639
 21
8958.243182432326
 31
0.0
  0
LINE
  5
17AEF
330
17D8E
100
AcDbEntity
  8
YANE
  6
2PL-L
 62
     6
100
AcDbLine
 10
6793.127507899639
 20
8958.243182432326
 30
0.0
 11
10045.12750789964
 21
8958.243182432326
 31
0.0
  0
LINE
  5
17AF0
330
17D8E
100
AcDbEntity
  8
YANE
  6
2PL-L
 62
     6
100
AcDbLine
 10
10045.12750789964
 20
8958.243182432326
 30
0.0
 11
10045.12750789964
 21
6398.243182432327
 31
0.0
  0
LINE
  5
17AF1
330
17D8E
100
AcDbEntity
  8
KISO
100
AcDbLine
 10
7589.127507899641
 20
6498.243182432327
 30
0.0
 11
6789.12750789964
 21
6498.243182432327
 31
0.0
  0
LINE
  5
17AF2
330
17D8E
100
AcDbEntity
  8
KISO
100
AcDbLine
 10
6789.12750789964
 20
6498.243182432327
 30
0.0
 11
6789.12750789964
 21
7298.243182432327
 31
0.0
  0
LINE
  5
17AF3
330
17D8E
100
AcDbEntity
  8
KISO
100
AcDbLine
 10
6789.12750789964
 20
7298.243182432327
 30
0.0
 11
7589.127507899641
 21
7298.243182432327
 31
0.0
  0
LINE
  5
17AF4
330
17D8E
100
AcDbEntity
  8
KISO
100
AcDbLine
 10
7589.127507899641
 20
7298.243182432327
 30
0.0
 11
7589.127507899641
 21
6498.243182432327
 31
0.0
  0
LINE
  5
17AF5
330
17D8E
100
AcDbEntity
  8
KISO
100
AcDbLine
 10
7589.127507899641
 20
8308.243182432326
 30
0.0
 11
6789.12750789964
 21
8308.243182432326
 31
0.0
  0
LINE
  5
17AF6
330
17D8E
100
AcDbEntity
  8
KISO
100
AcDbLine
 10
6789.12750789964
 20
8308.243182432326
 30
0.0
 11
6789.12750789964
 21
9108.243182432328
 31
0.0
  0
LINE
  5
17AF7
330
17D8E
100
AcDbEntity
  8
KISO
100
AcDbLine
 10
6789.12750789964
 20
9108.243182432328
 30
0.0
 11
7589.127507899641
 21
9108.243182432328
 31
0.0
  0
LINE
  5
17AF8
330
17D8E
100
AcDbEntity
  8
KISO
100
AcDbLine
 10
7589.127507899641
 20
9108.243182432328
 30
0.0
 11
7589.127507899641
 21
8308.243182432326
 31
0.0
  0
LINE
  5
17AF9
330
17D8E
100
AcDbEntity
  8
KISO
100
AcDbLine
 10
10049.12750789964
 20
6498.243182432327
 30
0.0
 11
9249.127507899641
 21
6498.243182432327
 31
0.0
  0
LINE
  5
17AFA
330
17D8E
100
AcDbEntity
  8
KISO
100
AcDbLine
 10
9249.127507899641
 20
6498.243182432327
 30
0.0
 11
9249.127507899641
 21
7298.243182432327
 31
0.0
  0
LINE
  5
17AFB
330
17D8E
100
AcDbEntity
  8
KISO
100
AcDbLine
 10
9249.127507899641
 20
7298.243182432327
 30
0.0
 11
10049.12750789964
 21
7298.243182432327
 31
0.0
  0
LINE
  5
17AFC
330
17D8E
100
AcDbEntity
  8
KISO
100
AcDbLine
 10
10049.12750789964
 20
7298.243182432327
 30
0.0
 11
10049.12750789964
 21
6498.243182432327
 31
0.0
  0
LINE
  5
17AFD
330
17D8E
100
AcDbEntity
  8
KISO
100
AcDbLine
 10
10049.12750789964
 20
8308.243182432326
 30
0.0
 11
9249.127507899641
 21
8308.243182432326
 31
0.0
  0
LINE
  5
17AFE
330
17D8E
100
AcDbEntity
  8
KISO
100
AcDbLine
 10
9249.127507899641
 20
8308.243182432326
 30
0.0
 11
9249.127507899641
 21
9108.243182432328
 31
0.0
  0
LINE
  5
17AFF
330
17D8E
100
AcDbEntity
  8
KISO
100
AcDbLine
 10
9249.127507899641
 20
9108.243182432328
 30
0.0
 11
10049.12750789964
 21
9108.243182432328
 31
0.0
  0
LINE
  5
17B00
330
17D8E
100
AcDbEntity
  8
KISO
100
AcDbLine
 10
10049.12750789964
 20
9108.243182432328
 30
0.0
 11
10049.12750789964
 21
8308.243182432326
 31
0.0
  0
LINE
  5
17B01
330
17D8E
100
AcDbEntity
  8
U1
100
AcDbLine
 10
9655.32750789964
 20
8678.043182432327
 30
0.0
 11
9622.927507899643
 21
8678.043182432327
 31
0.0
  0
LINE
  5
17B02
330
17D8E
100
AcDbEntity
  8
U1
100
AcDbLine
 10
9622.927507899644
 20
8738.443182432327
 30
0.0
 11
9675.327507899639
 21
8738.443182432327
 31
0.0
  0
ARC
  5
17B04
330
17D8E
100
AcDbEntity
  8
U1
100
AcDbCircle
 10
9622.927507899644
 20
8734.443182432327
 30
0.0
 40
4.0
100
AcDbArc
 50
90.0
 51
180.0
  0
ARC
  5
17B05
330
17D8E
100
AcDbEntity
  8
U1
100
AcDbCircle
 10
9622.927507899643
 20
8682.043182432328
 30
0.0
 40
4.0
100
AcDbArc
 50
180.0
 51
270.0
  0
LINE
  5
17B06
330
17D8E
100
AcDbEntity
  8
U1
100
AcDbLine
 10
9618.927507899641
 20
8682.043182432328
 30
0.0
 11
9618.927507899641
 21
8734.443182432327
 31
0.0
  0
ARC
  5
17B07
330
17D8E
100
AcDbEntity
  8
U1
100
AcDbCircle
 10
9675.327507899639
 20
8734.443182432327
 30
0.0
 40
4.0
100
AcDbArc
 50
0.0
 51
90.0
  0
ARC
  5
17B08
330
17D8E
100
AcDbEntity
  8
U1
100
AcDbCircle
 10
9655.32750789964
 20
8682.043182432328
 30
0.0
 40
4.0
100
AcDbArc
 50
270.0
 51
0.0
  0
ARC
  5
17B09
330
17D8E
100
AcDbEntity
  8
U1
100
AcDbCircle
 10
9662.777507899642
 20
8691.293182432328
 30
0.0
 40
1.149999999999977
100
AcDbArc
 50
0.0
 51
180.0
  0
LINE
  5
17B0A
330
17D8E
100
AcDbEntity
  8
U1
100
AcDbLine
 10
9666.227507899641
 20
8683.743182432328
 30
0.0
 11
9666.227507899641
 21
8691.293182432326
 31
0.0
  0
LINE
  5
17B0B
330
17D8E
100
AcDbEntity
  8
U1
100
AcDbLine
 10
9663.927507899643
 20
8683.743182432328
 30
0.0
 11
9666.227507899641
 21
8683.743182432328
 31
0.0
  0
LINE
  5
17B0C
330
17D8E
100
AcDbEntity
  8
U1
100
AcDbLine
 10
9661.627507899641
 20
8690.743182432326
 30
0.0
 11
9663.927507899643
 21
8690.743182432326
 31
0.0
  0
ARC
  5
17B0D
330
17D8E
100
AcDbEntity
  8
U1
100
AcDbCircle
 10
9662.777507899642
 20
8691.293182432328
 30
0.0
 40
3.450000000000044
100
AcDbArc
 50
0.0
 51
180.0
  0
LINE
  5
17B0E
330
17D8E
100
AcDbEntity
  8
U1
100
AcDbLine
 10
9661.627507899641
 20
8691.293182432328
 30
0.0
 11
9661.627507899641
 21
8682.043182432328
 31
0.0
  0
LINE
  5
17B0F
330
17D8E
100
AcDbEntity
  8
U1
100
AcDbLine
 10
9663.927507899643
 20
8682.043182432328
 30
0.0
 11
9663.927507899643
 21
8691.293182432326
 31
0.0
  0
LINE
  5
17B10
330
17D8E
100
AcDbEntity
  8
U1
100
AcDbLine
 10
9659.327507899639
 20
8691.293182432328
 30
0.0
 11
9659.327507899639
 21
8682.043182432328
 31
0.0
  0
ARC
  5
17B11
330
17D8E
100
AcDbEntity
  8
U1
100
AcDbCircle
 10
9675.327507899641
 20
8682.043182432328
 30
0.0
 40
4.0
100
AcDbArc
 50
270.0
 51
0.0
  0
LINE
  5
17B12
330
17D8E
100
AcDbEntity
  8
U1
100
AcDbLine
 10
9675.327507899641
 20
8678.043182432324
 30
0.0
 11
9667.927507899641
 21
8678.043182432324
 31
0.0
  0
ARC
  5
17B13
330
17D8E
100
AcDbEntity
  8
U1
100
AcDbCircle
 10
9667.927507899641
 20
8682.043182432328
 30
0.0
 40
4.0
100
AcDbArc
 50
180.0
 51
270.0
  0
LINE
  5
17B14
330
17D8E
100
AcDbEntity
  8
U1
100
AcDbLine
 10
9679.327507899643
 20
8734.443182432327
 30
0.0
 11
9679.327507899641
 21
8682.043182432328
 31
0.0
  0
LINE
  5
17B15
330
17D8E
100
AcDbEntity
  8
U1
100
AcDbLine
 10
7182.92750789964
 20
8678.043182432327
 30
0.0
 11
7215.327507899641
 21
8678.043182432324
 31
0.0
  0
LINE
  5
17B16
330
17D8E
100
AcDbEntity
  8
U1
100
AcDbLine
 10
7215.327507899641
 20
8738.443182432327
 30
0.0
 11
7162.927507899642
 21
8738.443182432327
 31
0.0
  0
ARC
  5
17B18
330
17D8E
100
AcDbEntity
  8
U1
100
AcDbCircle
 10
7215.327507899641
 20
8734.443182432327
 30
0.0
 40
4.0
100
AcDbArc
 50
0.0
 51
90.0
  0
ARC
  5
17B19
330
17D8E
100
AcDbEntity
  8
U1
100
AcDbCircle
 10
7215.327507899641
 20
8682.043182432328
 30
0.0
 40
4.0
100
AcDbArc
 50
270.0
 51
0.0
  0
LINE
  5
17B1A
330
17D8E
100
AcDbEntity
  8
U1
100
AcDbLine
 10
7219.327507899641
 20
8682.043182432328
 30
0.0
 11
7219.327507899641
 21
8734.443182432327
 31
0.0
  0
ARC
  5
17B1B
330
17D8E
100
AcDbEntity
  8
U1
100
AcDbCircle
 10
7162.927507899642
 20
8734.443182432327
 30
0.0
 40
4.0
100
AcDbArc
 50
90.0
 51
180.0
  0
ARC
  5
17B1C
330
17D8E
100
AcDbEntity
  8
U1
100
AcDbCircle
 10
7182.92750789964
 20
8682.043182432328
 30
0.0
 40
4.0
100
AcDbArc
 50
180.0
 51
270.0
  0
ARC
  5
17B1D
330
17D8E
100
AcDbEntity
  8
U1
100
AcDbCircle
 10
7175.477507899642
 20
8691.293182432328
 30
0.0
 40
1.149999999999977
100
AcDbArc
 50
0.0
 51
180.0
  0
LINE
  5
17B1E
330
17D8E
100
AcDbEntity
  8
U1
100
AcDbLine
 10
7172.027507899641
 20
8683.743182432328
 30
0.0
 11
7172.027507899641
 21
8691.293182432328
 31
0.0
  0
LINE
  5
17B1F
330
17D8E
100
AcDbEntity
  8
U1
100
AcDbLine
 10
7174.327507899642
 20
8683.743182432328
 30
0.0
 11
7172.027507899641
 21
8683.743182432328
 31
0.0
  0
LINE
  5
17B20
330
17D8E
100
AcDbEntity
  8
U1
100
AcDbLine
 10
7176.627507899642
 20
8690.743182432326
 30
0.0
 11
7174.327507899642
 21
8690.743182432326
 31
0.0
  0
ARC
  5
17B21
330
17D8E
100
AcDbEntity
  8
U1
100
AcDbCircle
 10
7175.477507899642
 20
8691.293182432328
 30
0.0
 40
3.450000000000044
100
AcDbArc
 50
0.0
 51
180.0
  0
LINE
  5
17B22
330
17D8E
100
AcDbEntity
  8
U1
100
AcDbLine
 10
7176.627507899642
 20
8691.293182432328
 30
0.0
 11
7176.627507899642
 21
8682.043182432328
 31
0.0
  0
LINE
  5
17B23
330
17D8E
100
AcDbEntity
  8
U1
100
AcDbLine
 10
7174.327507899642
 20
8682.043182432328
 30
0.0
 11
7174.327507899642
 21
8691.293182432328
 31
0.0
  0
LINE
  5
17B24
330
17D8E
100
AcDbEntity
  8
U1
100
AcDbLine
 10
7178.927507899641
 20
8691.293182432328
 30
0.0
 11
7178.927507899641
 21
8682.043182432328
 31
0.0
  0
ARC
  5
17B25
330
17D8E
100
AcDbEntity
  8
U1
100
AcDbCircle
 10
7162.927507899643
 20
8682.043182432328
 30
0.0
 40
4.0
100
AcDbArc
 50
180.0
 51
270.0
  0
LINE
  5
17B26
330
17D8E
100
AcDbEntity
  8
U1
100
AcDbLine
 10
7162.927507899643
 20
8678.043182432327
 30
0.0
 11
7170.327507899641
 21
8678.043182432327
 31
0.0
  0
ARC
  5
17B27
330
17D8E
100
AcDbEntity
  8
U1
100
AcDbCircle
 10
7170.327507899641
 20
8682.043182432328
 30
0.0
 40
4.0
100
AcDbArc
 50
270.0
 51
0.0
  0
LINE
  5
17B28
330
17D8E
100
AcDbEntity
  8
U1
100
AcDbLine
 10
7158.927507899639
 20
8734.443182432327
 30
0.0
 11
7158.92750789964
 21
8682.043182432328
 31
0.0
  0
LINE
  5
17B29
330
17D8E
100
AcDbEntity
  8
U1
100
AcDbLine
 10
7182.92750789964
 20
6928.443182432326
 30
0.0
 11
7215.327507899641
 21
6928.443182432326
 31
0.0
  0
LINE
  5
17B2A
330
17D8E
100
AcDbEntity
  8
U1
100
AcDbLine
 10
7215.327507899641
 20
6868.043182432327
 30
0.0
 11
7162.927507899642
 21
6868.043182432327
 31
0.0
  0
ARC
  5
17B2C
330
17D8E
100
AcDbEntity
  8
U1
100
AcDbCircle
 10
7215.327507899641
 20
6872.043182432325
 30
0.0
 40
4.0
100
AcDbArc
 50
270.0
 51
0.0
  0
ARC
  5
17B2D
330
17D8E
100
AcDbEntity
  8
U1
100
AcDbCircle
 10
7215.327507899641
 20
6924.443182432327
 30
0.0
 40
4.0
100
AcDbArc
 50
0.0
 51
90.0
  0
LINE
  5
17B2E
330
17D8E
100
AcDbEntity
  8
U1
100
AcDbLine
 10
7219.327507899641
 20
6924.443182432327
 30
0.0
 11
7219.327507899641
 21
6872.043182432325
 31
0.0
  0
ARC
  5
17B2F
330
17D8E
100
AcDbEntity
  8
U1
100
AcDbCircle
 10
7162.927507899642
 20
6872.043182432325
 30
0.0
 40
4.0
100
AcDbArc
 50
180.0
 51
270.0
  0
ARC
  5
17B30
330
17D8E
100
AcDbEntity
  8
U1
100
AcDbCircle
 10
7182.92750789964
 20
6924.443182432327
 30
0.0
 40
4.0
100
AcDbArc
 50
90.0
 51
180.0
  0
ARC
  5
17B31
330
17D8E
100
AcDbEntity
  8
U1
100
AcDbCircle
 10
7175.477507899642
 20
6915.193182432327
 30
0.0
 40
1.149999999999977
100
AcDbArc
 50
180.0
 51
0.0
  0
LINE
  5
17B32
330
17D8E
100
AcDbEntity
  8
U1
100
AcDbLine
 10
7172.027507899641
 20
6922.743182432326
 30
0.0
 11
7172.027507899641
 21
6915.193182432327
 31
0.0
  0
LINE
  5
17B33
330
17D8E
100
AcDbEntity
  8
U1
100
AcDbLine
 10
7174.327507899642
 20
6922.743182432326
 30
0.0
 11
7172.027507899641
 21
6922.743182432326
 31
0.0
  0
LINE
  5
17B34
330
17D8E
100
AcDbEntity
  8
U1
100
AcDbLine
 10
7176.627507899642
 20
6915.743182432326
 30
0.0
 11
7174.327507899642
 21
6915.743182432326
 31
0.0
  0
ARC
  5
17B35
330
17D8E
100
AcDbEntity
  8
U1
100
AcDbCircle
 10
7175.477507899642
 20
6915.193182432327
 30
0.0
 40
3.450000000000044
100
AcDbArc
 50
180.0
 51
0.0
  0
LINE
  5
17B36
330
17D8E
100
AcDbEntity
  8
U1
100
AcDbLine
 10
7176.627507899642
 20
6915.193182432327
 30
0.0
 11
7176.627507899642
 21
6924.443182432326
 31
0.0
  0
LINE
  5
17B37
330
17D8E
100
AcDbEntity
  8
U1
100
AcDbLine
 10
7174.327507899642
 20
6924.443182432327
 30
0.0
 11
7174.327507899642
 21
6915.193182432327
 31
0.0
  0
LINE
  5
17B38
330
17D8E
100
AcDbEntity
  8
U1
100
AcDbLine
 10
7178.927507899641
 20
6915.193182432327
 30
0.0
 11
7178.927507899641
 21
6924.443182432327
 31
0.0
  0
ARC
  5
17B39
330
17D8E
100
AcDbEntity
  8
U1
100
AcDbCircle
 10
7162.927507899643
 20
6924.443182432327
 30
0.0
 40
4.0
100
AcDbArc
 50
90.0
 51
180.0
  0
LINE
  5
17B3A
330
17D8E
100
AcDbEntity
  8
U1
100
AcDbLine
 10
7162.927507899643
 20
6928.443182432326
 30
0.0
 11
7170.327507899641
 21
6928.443182432326
 31
0.0
  0
ARC
  5
17B3B
330
17D8E
100
AcDbEntity
  8
U1
100
AcDbCircle
 10
7170.327507899641
 20
6924.443182432327
 30
0.0
 40
4.0
100
AcDbArc
 50
0.0
 51
90.0
  0
LINE
  5
17B3C
330
17D8E
100
AcDbEntity
  8
U1
100
AcDbLine
 10
7158.927507899639
 20
6872.043182432325
 30
0.0
 11
7158.92750789964
 21
6924.443182432327
 31
0.0
  0
LINE
  5
17B3D
330
17D8E
100
AcDbEntity
  8
U1
100
AcDbLine
 10
9655.32750789964
 20
6928.443182432326
 30
0.0
 11
9622.927507899643
 21
6928.443182432326
 31
0.0
  0
LINE
  5
17B3E
330
17D8E
100
AcDbEntity
  8
U1
100
AcDbLine
 10
9622.927507899643
 20
6868.043182432327
 30
0.0
 11
9675.327507899639
 21
6868.043182432327
 31
0.0
  0
ARC
  5
17B40
330
17D8E
100
AcDbEntity
  8
U1
100
AcDbCircle
 10
9622.927507899643
 20
6872.043182432325
 30
0.0
 40
4.0
100
AcDbArc
 50
180.0
 51
270.0
  0
ARC
  5
17B41
330
17D8E
100
AcDbEntity
  8
U1
100
AcDbCircle
 10
9622.927507899643
 20
6924.443182432327
 30
0.0
 40
4.0
100
AcDbArc
 50
90.0
 51
180.0
  0
LINE
  5
17B42
330
17D8E
100
AcDbEntity
  8
U1
100
AcDbLine
 10
9618.927507899641
 20
6924.443182432327
 30
0.0
 11
9618.927507899641
 21
6872.043182432325
 31
0.0
  0
ARC
  5
17B43
330
17D8E
100
AcDbEntity
  8
U1
100
AcDbCircle
 10
9675.327507899639
 20
6872.043182432325
 30
0.0
 40
4.0
100
AcDbArc
 50
270.0
 51
0.0
  0
ARC
  5
17B44
330
17D8E
100
AcDbEntity
  8
U1
100
AcDbCircle
 10
9655.32750789964
 20
6924.443182432327
 30
0.0
 40
4.0
100
AcDbArc
 50
0.0
 51
90.0
  0
ARC
  5
17B45
330
17D8E
100
AcDbEntity
  8
U1
100
AcDbCircle
 10
9662.777507899642
 20
6915.193182432327
 30
0.0
 40
1.149999999999977
100
AcDbArc
 50
180.0
 51
0.0
  0
LINE
  5
17B46
330
17D8E
100
AcDbEntity
  8
U1
100
AcDbLine
 10
9666.227507899641
 20
6922.743182432326
 30
0.0
 11
9666.227507899641
 21
6915.193182432327
 31
0.0
  0
LINE
  5
17B47
330
17D8E
100
AcDbEntity
  8
U1
100
AcDbLine
 10
9663.927507899643
 20
6922.743182432326
 30
0.0
 11
9666.227507899641
 21
6922.743182432326
 31
0.0
  0
LINE
  5
17B48
330
17D8E
100
AcDbEntity
  8
U1
100
AcDbLine
 10
9661.627507899641
 20
6915.743182432326
 30
0.0
 11
9663.927507899643
 21
6915.743182432326
 31
0.0
  0
ARC
  5
17B49
330
17D8E
100
AcDbEntity
  8
U1
100
AcDbCircle
 10
9662.777507899642
 20
6915.193182432327
 30
0.0
 40
3.450000000000044
100
AcDbArc
 50
180.0
 51
0.0
  0
LINE
  5
17B4A
330
17D8E
100
AcDbEntity
  8
U1
100
AcDbLine
 10
9661.627507899641
 20
6915.193182432327
 30
0.0
 11
9661.627507899641
 21
6924.443182432326
 31
0.0
  0
LINE
  5
17B4B
330
17D8E
100
AcDbEntity
  8
U1
100
AcDbLine
 10
9663.927507899643
 20
6924.443182432327
 30
0.0
 11
9663.927507899643
 21
6915.193182432327
 31
0.0
  0
LINE
  5
17B4C
330
17D8E
100
AcDbEntity
  8
U1
100
AcDbLine
 10
9659.327507899639
 20
6915.193182432327
 30
0.0
 11
9659.327507899639
 21
6924.443182432327
 31
0.0
  0
ARC
  5
17B4D
330
17D8E
100
AcDbEntity
  8
U1
100
AcDbCircle
 10
9675.327507899639
 20
6924.443182432327
 30
0.0
 40
4.0
100
AcDbArc
 50
0.0
 51
90.0
  0
LINE
  5
17B4E
330
17D8E
100
AcDbEntity
  8
U1
100
AcDbLine
 10
9675.327507899639
 20
6928.443182432326
 30
0.0
 11
9667.927507899641
 21
6928.443182432326
 31
0.0
  0
ARC
  5
17B4F
330
17D8E
100
AcDbEntity
  8
U1
100
AcDbCircle
 10
9667.927507899641
 20
6924.443182432327
 30
0.0
 40
4.0
100
AcDbArc
 50
90.0
 51
180.0
  0
LINE
  5
17B50
330
17D8E
100
AcDbEntity
  8
U1
100
AcDbLine
 10
9679.327507899643
 20
6872.043182432325
 30
0.0
 11
9679.327507899643
 21
6924.443182432327
 31
0.0
  0
ARC
  5
17B51
330
17D8E
100
AcDbEntity
  8
U1
100
AcDbCircle
 10
9675.327507899641
 20
8682.043182432328
 30
0.0
 40
6.30000000000109
100
AcDbArc
 50
270.0
 51
0.0
  0
LINE
  5
17B52
330
17D8E
100
AcDbEntity
  8
U1
100
AcDbLine
 10
9675.327507899641
 20
8675.743182432325
 30
0.0
 11
9667.927507899641
 21
8675.743182432325
 31
0.0
  0
ARC
  5
17B53
330
17D8E
100
AcDbEntity
  8
U1
100
AcDbCircle
 10
9667.927507899641
 20
8682.043182432328
 30
0.0
 40
6.299999999999272
100
AcDbArc
 50
179.9999999999833
 51
270.0
  0
ARC
  5
17B54
330
17D8E
100
AcDbEntity
  8
U1
100
AcDbCircle
 10
9655.327507899638
 20
8682.043182432328
 30
0.0
 40
6.300000000002909
100
AcDbArc
 50
270.0000000000165
 51
0.0
  0
LINE
  5
17B55
330
17D8E
100
AcDbEntity
  8
U1
100
AcDbLine
 10
9655.327507899642
 20
8675.743182432325
 30
0.0
 11
9622.927507899643
 21
8675.743182432325
 31
0.0
  0
ARC
  5
17B56
330
17D8E
100
AcDbEntity
  8
U1
100
AcDbCircle
 10
9622.927507899643
 20
8682.043182432328
 30
0.0
 40
6.299999999999272
100
AcDbArc
 50
179.9999999999833
 51
270.0
  0
LINE
  5
17B57
330
17D8E
100
AcDbEntity
  8
U1
100
AcDbLine
 10
9616.627507899641
 20
8682.043182432328
 30
0.0
 11
9616.627507899641
 21
8734.443182432327
 31
0.0
  0
ARC
  5
17B58
330
17D8E
100
AcDbEntity
  8
U1
100
AcDbCircle
 10
9622.927507899644
 20
8734.443182432327
 30
0.0
 40
6.30000000000109
100
AcDbArc
 50
90.0
 51
180.0
  0
LINE
  5
17B59
330
17D8E
100
AcDbEntity
  8
U1
100
AcDbLine
 10
9622.927507899644
 20
8740.743182432327
 30
0.0
 11
9675.327507899639
 21
8740.743182432327
 31
0.0
  0
ARC
  5
17B5A
330
17D8E
100
AcDbEntity
  8
U1
100
AcDbCircle
 10
9675.327507899639
 20
8734.443182432327
 30
0.0
 40
6.299999999999272
100
AcDbArc
 50
0.0
 51
90.0
  0
LINE
  5
17B5B
330
17D8E
100
AcDbEntity
  8
U1
100
AcDbLine
 10
9681.627507899641
 20
8734.443182432327
 30
0.0
 11
9681.627507899641
 21
8682.043182432328
 31
0.0
  0
ARC
  5
17B5C
330
17D8E
100
AcDbEntity
  8
U1
100
AcDbCircle
 10
7162.927507899643
 20
8682.043182432328
 30
0.0
 40
6.300000000000181
100
AcDbArc
 50
179.9999999999833
 51
270.0
  0
LINE
  5
17B5D
330
17D8E
100
AcDbEntity
  8
U1
100
AcDbLine
 10
7162.927507899643
 20
8675.743182432325
 30
0.0
 11
7170.327507899641
 21
8675.743182432325
 31
0.0
  0
ARC
  5
17B5E
330
17D8E
100
AcDbEntity
  8
U1
100
AcDbCircle
 10
7170.327507899641
 20
8682.043182432328
 30
0.0
 40
6.299999999999272
100
AcDbArc
 50
270.0
 51
0.0000000000165429
  0
ARC
  5
17B5F
330
17D8E
100
AcDbEntity
  8
U1
100
AcDbCircle
 10
7182.92750789964
 20
8682.043182432328
 30
0.0
 40
6.300000000000181
100
AcDbArc
 50
179.9999999999833
 51
270.0
  0
LINE
  5
17B60
330
17D8E
100
AcDbEntity
  8
U1
100
AcDbLine
 10
7182.92750789964
 20
8675.743182432325
 30
0.0
 11
7215.327507899641
 21
8675.743182432325
 31
0.0
  0
ARC
  5
17B61
330
17D8E
100
AcDbEntity
  8
U1
100
AcDbCircle
 10
7215.327507899641
 20
8682.043182432328
 30
0.0
 40
6.299999999999272
100
AcDbArc
 50
269.9999999999918
 51
0.0
  0
LINE
  5
17B62
330
17D8E
100
AcDbEntity
  8
U1
100
AcDbLine
 10
7221.627507899642
 20
8682.043182432328
 30
0.0
 11
7221.627507899642
 21
8734.443182432327
 31
0.0
  0
ARC
  5
17B63
330
17D8E
100
AcDbEntity
  8
U1
100
AcDbCircle
 10
7215.327507899641
 20
8734.443182432327
 30
0.0
 40
6.299999999999272
100
AcDbArc
 50
0.0
 51
90.00000000000826
  0
LINE
  5
17B64
330
17D8E
100
AcDbEntity
  8
U1
100
AcDbLine
 10
7215.327507899641
 20
8740.743182432327
 30
0.0
 11
7162.927507899643
 21
8740.743182432327
 31
0.0
  0
ARC
  5
17B65
330
17D8E
100
AcDbEntity
  8
U1
100
AcDbCircle
 10
7162.927507899642
 20
8734.443182432327
 30
0.0
 40
6.299999999999272
100
AcDbArc
 50
89.99999999999173
 51
180.0
  0
LINE
  5
17B66
330
17D8E
100
AcDbEntity
  8
U1
100
AcDbLine
 10
7156.627507899641
 20
8734.443182432327
 30
0.0
 11
7156.627507899641
 21
8682.043182432328
 31
0.0
  0
ARC
  5
17B67
330
17D8E
100
AcDbEntity
  8
U1
100
AcDbCircle
 10
7162.927507899642
 20
6924.443182432327
 30
0.0
 40
6.299999999999272
100
AcDbArc
 50
89.99999999999173
 51
180.0000000000082
  0
LINE
  5
17B68
330
17D8E
100
AcDbEntity
  8
U1
100
AcDbLine
 10
7162.927507899643
 20
6930.743182432327
 30
0.0
 11
7170.327507899641
 21
6930.743182432327
 31
0.0
  0
ARC
  5
17B69
330
17D8E
100
AcDbEntity
  8
U1
100
AcDbCircle
 10
7170.327507899641
 20
6924.443182432327
 30
0.0
 40
6.299999999999272
100
AcDbArc
 50
359.9999999999917
 51
90.00000000000826
  0
ARC
  5
17B6A
330
17D8E
100
AcDbEntity
  8
U1
100
AcDbCircle
 10
7182.92750789964
 20
6924.443182432327
 30
0.0
 40
6.300000000000181
100
AcDbArc
 50
90.0
 51
180.0
  0
LINE
  5
17B6B
330
17D8E
100
AcDbEntity
  8
U1
100
AcDbLine
 10
7182.92750789964
 20
6930.743182432327
 30
0.0
 11
7215.327507899641
 21
6930.743182432327
 31
0.0
  0
ARC
  5
17B6C
330
17D8E
100
AcDbEntity
  8
U1
100
AcDbCircle
 10
7215.327507899641
 20
6924.443182432327
 30
0.0
 40
6.299999999999272
100
AcDbArc
 50
359.9999999999917
 51
90.00000000000826
  0
LINE
  5
17B6D
330
17D8E
100
AcDbEntity
  8
U1
100
AcDbLine
 10
7221.627507899642
 20
6924.443182432327
 30
0.0
 11
7221.627507899642
 21
6872.043182432325
 31
0.0
  0
ARC
  5
17B6E
330
17D8E
100
AcDbEntity
  8
U1
100
AcDbCircle
 10
7215.327507899641
 20
6872.043182432325
 30
0.0
 40
6.299999999999272
100
AcDbArc
 50
269.9999999999918
 51
0.0
  0
LINE
  5
17B6F
330
17D8E
100
AcDbEntity
  8
U1
100
AcDbLine
 10
7215.327507899641
 20
6865.743182432327
 30
0.0
 11
7162.927507899643
 21
6865.743182432327
 31
0.0
  0
ARC
  5
17B70
330
17D8E
100
AcDbEntity
  8
U1
100
AcDbCircle
 10
7162.927507899642
 20
6872.043182432325
 30
0.0
 40
6.299999999999272
100
AcDbArc
 50
180.0
 51
270.0000000000081
  0
LINE
  5
17B71
330
17D8E
100
AcDbEntity
  8
U1
100
AcDbLine
 10
7156.627507899641
 20
6872.043182432325
 30
0.0
 11
7156.627507899641
 21
6924.443182432327
 31
0.0
  0
ARC
  5
17B72
330
17D8E
100
AcDbEntity
  8
U1
100
AcDbCircle
 10
9675.327507899639
 20
6924.443182432327
 30
0.0
 40
6.299999999999272
100
AcDbArc
 50
359.9999999999917
 51
90.0
  0
LINE
  5
17B73
330
17D8E
100
AcDbEntity
  8
U1
100
AcDbLine
 10
9675.327507899639
 20
6930.743182432327
 30
0.0
 11
9667.927507899641
 21
6930.743182432327
 31
0.0
  0
ARC
  5
17B74
330
17D8E
100
AcDbEntity
  8
U1
100
AcDbCircle
 10
9667.927507899641
 20
6924.443182432327
 30
0.0
 40
6.299999999999272
100
AcDbArc
 50
90.0
 51
180.0000000000082
  0
ARC
  5
17B75
330
17D8E
100
AcDbEntity
  8
U1
100
AcDbCircle
 10
9655.32750789964
 20
6924.443182432327
 30
0.0
 40
6.299999999999272
100
AcDbArc
 50
359.9999999999917
 51
90.0
  0
LINE
  5
17B76
330
17D8E
100
AcDbEntity
  8
U1
100
AcDbLine
 10
9655.32750789964
 20
6930.743182432327
 30
0.0
 11
9622.927507899643
 21
6930.743182432327
 31
0.0
  0
ARC
  5
17B77
330
17D8E
100
AcDbEntity
  8
U1
100
AcDbCircle
 10
9622.927507899643
 20
6924.443182432327
 30
0.0
 40
6.299999999999272
100
AcDbArc
 50
90.0
 51
180.0000000000082
  0
LINE
  5
17B78
330
17D8E
100
AcDbEntity
  8
U1
100
AcDbLine
 10
9616.627507899641
 20
6924.443182432327
 30
0.0
 11
9616.627507899641
 21
6872.043182432325
 31
0.0
  0
ARC
  5
17B79
330
17D8E
100
AcDbEntity
  8
U1
100
AcDbCircle
 10
9622.927507899643
 20
6872.043182432325
 30
0.0
 40
6.299999999999272
100
AcDbArc
 50
180.0
 51
270.0
  0
LINE
  5
17B7A
330
17D8E
100
AcDbEntity
  8
U1
100
AcDbLine
 10
9622.927507899643
 20
6865.743182432327
 30
0.0
 11
9675.327507899639
 21
6865.743182432327
 31
0.0
  0
ARC
  5
17B7B
330
17D8E
100
AcDbEntity
  8
U1
100
AcDbCircle
 10
9675.327507899639
 20
6872.043182432325
 30
0.0
 40
6.299999999999272
100
AcDbArc
 50
270.0
 51
0.0
  0
LINE
  5
17B7C
330
17D8E
100
AcDbEntity
  8
U1
100
AcDbLine
 10
9681.627507899641
 20
6872.043182432325
 30
0.0
 11
9681.627507899641
 21
6924.443182432327
 31
0.0
  0
TEXT
  5
17DE1
330
17D8E
100
AcDbEntity
  8
SUNPOU
100
AcDbText
 10
8238.089618638275
 20
2559.414227710302
 30
0.0
 40
90.0
  1
その他現地の実情にあわせて設計して下さい。
  7
01
100
AcDbText
  0
TEXT
  5
17DE2
330
17D8E
100
AcDbEntity
  8
SUNPOU
100
AcDbText
 10
8238.089618638275
 20
2867.98565628173
 30
0.0
 40
90.0
  1
寒冷地の場合、凍結深度等を考慮し、実情に
  7
01
100
AcDbText
  0
TEXT
  5
17DE3
330
17D8E
100
AcDbEntity
  8
SUNPOU
100
AcDbText
 10
7929.103395746388
 20
3211.524169951967
 30
0.0
 40
89.9993750043402
  1
地耐力   　　　 以上,コンクリート設計基準強度　　　　　以上
  7
01
100
AcDbText
  0
TEXT
  5
17DE4
330
17D8E
100
AcDbEntity
  8
SUNPOU
100
AcDbText
 10
8031.883873548881
 20
2559.414227710302
 30
0.0
 40
90.0
  1
2
 41
0.6700000000000001
  7
01
100
AcDbText
  0
TEXT
  5
17DE5
330
17D8E
100
AcDbEntity
  8
SUNPOU
100
AcDbText
 10
7921.249953336143
 20
2559.414227710302
 30
0.0
 40
90.0
  1
注　）
  7
01
100
AcDbText
  0
TEXT
  5
17DE6
330
17D8E
100
AcDbEntity
  8
SUNPOU
100
AcDbText
 10
8412.866824411549
 20
3057.238455666251
 30
0.0
 40
89.9993750043402
  1
34 m/s
 41
0.6700000000000001
  7
01
100
AcDbText
  0
TEXT
  5
17DE7
330
17D8E
100
AcDbEntity
  8
SUNPOU
100
AcDbText
 10
8238.089618638275
 20
2713.699941996011
 30
0.0
 40
90.0
  1
あわせて設計して下さい。
  7
01
100
AcDbText
  0
TEXT
  5
17DE8
330
17D8E
100
AcDbEntity
  8
SUNPOU
100
AcDbText
 10
7929.103395746388
 20
3057.238455666251
 30
0.0
 40
89.9993750043402
  1
基準風速   　　 , 地表面粗度区分
  7
01
100
AcDbText
  0
TEXT
  5
17DE9
330
17D8E
100
AcDbEntity
  8
SUNPOU
100
AcDbText
 10
7798.539767030155
 20
3400.778172397922
 30
0.0
 40
90.0
  1
<下記条件での参考図>
  7
01
 72
     4
 11
8387.396909887298
 21
3445.778172397922
 31
0.0
100
AcDbText
  0
TEXT
  5
17DEA
330
17D8E
100
AcDbEntity
  8
SUNPOU
100
AcDbText
 10
7923.896909887298
 20
3558.278172397921
 30
0.0
 40
120.0
  1
基礎断面図
  7
01
 72
     4
 11
8263.896909887298
 21
3618.27817239792
 31
0.0
100
AcDbText
  0
TEXT
  5
17DEB
330
17D8E
100
AcDbEntity
  8
SUNPOU
100
AcDbText
 10
8303.36180317146
 20
3211.524169951967
 30
0.0
 40
89.9993750043402
  1
50  N/m
 41
0.6700000000000001
  7
01
100
AcDbText
  0
TEXT
  5
17DEC
330
17D8E
100
AcDbEntity
  8
SUNPOU
100
AcDbText
 10
7921.249953336143
 20
2867.98565628173
 30
0.0
 40
90.0
  1
注　）
  7
01
100
AcDbText
  0
ARC
  5
17DED
330
17D8E
100
AcDbEntity
  8
SUNPOU
100
AcDbCircle
 10
8082.061669653588
 20
3175.311593393798
 30
0.0
 40
225.0
100
AcDbArc
 50
148.3472725282761
 51
211.6527274717238
  0
TEXT
  5
17DEE
330
17D8E
100
AcDbEntity
  8
SUNPOU
100
AcDbText
 10
8031.883873548881
 20
2867.98565628173
 30
0.0
 40
90.0
  1
1
 41
0.6700000000000001
  7
01
100
AcDbText
  0
TEXT
  5
17DEF
330
17D8E
100
AcDbEntity
  8
SUNPOU
100
AcDbText
 10
8439.198255957409
 20
3211.524169951967
 30
0.0
 40
71.99950000347218
  1
K
 41
0.6700000000000001
  7
01
100
AcDbText
  0
TEXT
  5
17DF0
330
17D8E
100
AcDbEntity
  8
SUNPOU
100
AcDbText
 10
8706.83841268581
 20
3261.712596309451
 30
0.0
 40
46.28539285937498
  1
2
 41
0.6700000000000001
  7
00
100
AcDbText
  0
LINE
  5
17DF1
330
17D8E
100
AcDbEntity
  8
SUNPOU
100
AcDbLine
 10
9720.91895731299
 20
3057.238455666251
 30
0.0
 11
9777.168957312991
 21
3057.238455666251
 31
0.0
  0
LINE
  5
17DF2
330
17D8E
100
AcDbEntity
  8
SUNPOU
100
AcDbLine
 10
9720.91895731299
 20
3140.730819365034
 30
0.0
 11
9777.168957312991
 21
3140.730819365034
 31
0.0
  0
LINE
  5
17DF3
330
17D8E
100
AcDbEntity
  8
SUNPOU
100
AcDbLine
 10
9749.043957312991
 20
3057.238455666251
 30
0.0
 11
9749.043957312991
 21
3140.730819365034
 31
0.0
  0
LINE
  5
17DF4
330
17D8E
100
AcDbEntity
  8
SUNPOU
100
AcDbLine
 10
9732.168957312991
 20
3057.238455666251
 30
0.0
 11
9732.168957312991
 21
3140.730819365034
 31
0.0
  0
LINE
  5
17DF5
330
17D8E
100
AcDbEntity
  8
SUNPOU
100
AcDbLine
 10
9765.918957312992
 20
3057.238455666251
 30
0.0
 11
9765.918957312992
 21
3140.730819365034
 31
0.0
  0
TEXT
  5
17DF6
330
17D8E
100
AcDbEntity
  8
SUNPOU
100
AcDbText
 10
8640.747247250269
 20
3570.585864705616
 30
0.0
 40
92.30769230769228
  1
（ S = 　　  ）
 41
0.6700000000000001
  7
00
 11
8640.747247250269
 21
3558.278172397924
 31
0.0
100
AcDbText
 73
     1
  0
TEXT
  5
17DF7
330
17D8E
100
AcDbEntity
  8
SUNPOU
100
AcDbText
 10
9072.80551937309
 20
3549.662787782537
 30
0.0
 40
73.84615384615384
  1
25
 41
0.6700000000000001
  7
00
 11
9072.80551937309
 21
3539.816633936383
 31
0.0
100
AcDbText
 73
     1
  0
TEXT
  5
17DF8
330
17D8E
100
AcDbEntity
  8
SUNPOU
100
AcDbText
 10
8960.449949103338
 20
3586.585864705616
 30
0.0
 40
73.84615384615384
  1
1
 41
0.6700000000000001
  7
00
 11
8960.449949103338
 21
3576.739710859462
 31
0.0
100
AcDbText
 73
     1
  0
TEXT
  5
17DF9
330
17D8E
100
AcDbEntity
  8
SUNPOU
100
AcDbText
 10
9008.856076418707
 20
3568.124326244078
 30
0.0
 40
73.84615384615384
  1
/
 41
0.6700000000000001
  7
00
 11
9008.856076418707
 21
3558.278172397924
 31
0.0
100
AcDbText
 73
     1
  0
TEXT
  5
17DFA
330
17D8E
100
AcDbEntity
  8
SUNPOU
100
AcDbText
 10
10483.95032681904
 20
3211.524169951967
 30
0.0
 40
89.9993750043402
  1
N/mm
 41
0.6700000000000001
  7
01
100
AcDbText
  0
TEXT
  5
17DFB
330
17D8E
100
AcDbEntity
  8
SUNPOU
100
AcDbText
 10
10348.11387403309
 20
3211.524169951967
 30
0.0
 40
89.9993750043402
  1
18
 41
0.6700000000000001
  7
01
100
AcDbText
  0
TEXT
  5
17DFC
330
17D8E
100
AcDbEntity
  8
SUNPOU
100
AcDbText
 10
10788.41480885044
 20
3261.712596309451
 30
0.0
 40
46.28539285937498
  1
2
 41
0.6700000000000001
  7
00
100
AcDbText
  0
ARC
  5
17DFD
330
17D8E
100
AcDbEntity
  8
SUNPOU
100
AcDbCircle
 10
10937.29207338406
 20
3197.795874179588
 30
0.0
 40
225.0
100
AcDbArc
 50
328.3472725282761
 51
31.65272747172387
  0
ENDSEC
  0
SECTION
  2
OBJECTS
  0
DICTIONARY
  5
17D7E
330
0
100
AcDbDictionary
281
     1
  3
ACAD_GROUP
350
17D7F
  3
ACAD_LAYOUT
350
17D8B
  3
ACAD_MLEADERSTYLE
350
17DB9
  3
ACAD_MLINESTYLE
350
17D88
  3
ACAD_PLOTSETTINGS
350
17D8A
  3
ACAD_PLOTSTYLENAME
350
17D80
  3
ACAD_TABLESTYLE
350
17DB8
  3
AcDbVariableDictionary
350
17DFE
  0
DICTIONARY
  5
17D7F
102
{ACAD_REACTORS
330
17D7E
102
}
330
17D7E
100
AcDbDictionary
281
     1
  0
DICTIONARY
  5
17D8B
102
{ACAD_REACTORS
330
17D7E
102
}
330
17D7E
100
AcDbDictionary
281
     1
  3
Layout1
350
17D8D
  3
Model
350
17D8F
  0
DICTIONARY
  5
17DB9
102
{ACAD_REACTORS
330
17D7E
102
}
330
17D7E
100
AcDbDictionary
281
     1
  0
DICTIONARY
  5
17D88
102
{ACAD_REACTORS
330
17D7E
102
}
330
17D7E
100
AcDbDictionary
281
     1
  3
Standard
350
17D89
  0
DICTIONARY
  5
17D8A
102
{ACAD_REACTORS
330
17D7E
102
}
330
17D7E
100
AcDbDictionary
281
     1
  0
ACDBDICTIONARYWDFLT
  5
17D80
102
{ACAD_REACTORS
330
17D7E
102
}
330
17D7E
100
AcDbDictionary
281
     1
  3
Normal
350
17D81
100
AcDbDictionaryWithDefault
340
17D81
  0
DICTIONARY
  5
17DB8
102
{ACAD_REACTORS
330
17D7E
102
}
330
17D7E
100
AcDbDictionary
281
     1
  0
DICTIONARY
  5
17DFE
102
{ACAD_REACTORS
330
17D7E
102
}
330
17D7E
100
AcDbDictionary
281
     1
  3
DIMASSOC
350
17DFF
  0
LAYOUT
  5
17D8D
102
{ACAD_REACTORS
330
17D8B
102
}
330
17D8B
100
AcDbPlotSettings
  1

  2
none_device
  4

  6

 40
0.0
 41
0.0
 42
0.0
 43
0.0
 44
0.0
 45
0.0
 46
0.0
 47
0.0
 48
0.0
 49
0.0
140
0.0
141
0.0
142
1.0
143
1.0
 70
   688
 72
     0
 73
     0
 74
     5
  7

 75
    16
147
1.0
148
0.0
149
0.0
100
AcDbLayout
  1
Layout1
 70
     0
 71
     1
 10
0.0
 20
0.0
 11
12.0
 21
9.0
 12
0.0
 22
0.0
 32
0.0
 14
1.000000000000000E+20
 24
1.000000000000000E+20
 34
1.000000000000000E+20
 15
-1.000000000000000E+20
 25
-1.000000000000000E+20
 35
-1.000000000000000E+20
146
0.0
 13
0.0
 23
0.0
 33
0.0
 16
1.0
 26
0.0
 36
0.0
 17
0.0
 27
1.0
 37
0.0
 76
     0
330
17D8C
  0
LAYOUT
  5
17D8F
102
{ACAD_REACTORS
330
17D8B
102
}
330
17D8B
100
AcDbPlotSettings
  1

  2
none_device
  4

  6

 40
0.0
 41
0.0
 42
0.0
 43
0.0
 44
0.0
 45
0.0
 46
0.0
 47
0.0
 48
0.0
 49
0.0
140
0.0
141
0.0
142
1.0
143
1.0
 70
  1712
 72
     0
 73
     0
 74
     0
  7

 75
     0
147
1.0
148
0.0
149
0.0
100
AcDbLayout
  1
Model
 70
     1
 71
     0
 10
0.0
 20
0.0
 11
12.0
 21
9.0
 12
267.0
 22
194.8999999999998
 32
0.0
 14
433.9966216520332
 24
163.6908237492789
 34
-0.0000000000000053
 15
16382.66605425469
 25
11242.27663824599
 35
0.0000000000000099
146
0.0
 13
0.0
 23
0.0
 33
0.0
 16
1.0
 26
0.0
 36
0.0
 17
0.0
 27
1.0
 37
0.0
 76
     0
330
17D8E
331
17D91
  0
MLINESTYLE
  5
17D89
102
{ACAD_REACTORS
330
17D88
102
}
330
17D88
100
AcDbMlineStyle
  2
STANDARD
 70
     0
  3

 62
   256
 51
90.0
 52
90.0
 71
     2
 49
0.5
 62
   256
  6
BYLAYER
 49
-0.5
 62
   256
  6
BYLAYER
  0
ACDBPLACEHOLDER
  5
17D81
102
{ACAD_REACTORS
330
17D80
102
}
330
17D80
  0
DICTIONARYVAR
  5
17DFF
102
{ACAD_REACTORS
330
17DFE
102
}
330
17DFE
100
DictionaryVariables
280
     0
  1
1
  0
ENDSEC
  0
EOF
