  0
SECTION
  2
HEADER
  9
$ACADVER
  1
AC1015
  9
$ACADMAINTVER
 70
    13
  9
$DWGCODEPAGE
  3
ANSI_932
  9
$INSBASE
 10
267.0
 20
194.8999999999998
 30
0.0
  9
$EXTMIN
 10
433.9966216520333
 20
163.6908237492789
 30
-0.000000000000013
  9
$EXTMAX
 10
16382.6660542547
 20
11242.27663824599
 30
0.0000000000000023
  9
$LIMMIN
 10
0.0
 20
0.0
  9
$LIMMAX
 10
16800.0
 20
11880.0
  9
$ORTHOMODE
 70
     0
  9
$REGENMODE
 70
     1
  9
$FILLMODE
 70
     1
  9
$QTEXTMODE
 70
     0
  9
$MIRRTEXT
 70
     0
  9
$LTSCALE
 40
40.0
  9
$ATTMODE
 70
     1
  9
$TEXTSIZE
 40
0.2
  9
$TRACEWID
 40
0.05
  9
$TEXTSTYLE
  7
00
  9
$CLAYER
  8
SUNPOU
  9
$CELTYPE
  6
ByLayer
  9
$CECOLOR
 62
   256
  9
$CELTSCALE
 40
1.0
  9
$DISPSILH
 70
     0
  9
$DIMSCALE
 40
40.0
  9
$DIMASZ
 40
0.5
  9
$DIMEXO
 40
1.0
  9
$DIMDLI
 40
7.0
  9
$DIMRND
 40
0.0
  9
$DIMDLE
 40
3.0
  9
$DIMEXE
 40
1.5
  9
$DIMTP
 40
0.0
  9
$DIMTM
 40
0.0
  9
$DIMTXT
 40
3.0
  9
$DIMCEN
 40
0.0
  9
$DIMTSZ
 40
0.0
  9
$DIMTOL
 70
     0
  9
$DIMLIM
 70
     0
  9
$DIMTIH
 70
     0
  9
$DIMTOH
 70
     0
  9
$DIMSE1
 70
     0
  9
$DIMSE2
 70
     0
  9
$DIMTAD
 70
     1
  9
$DIMZIN
 70
     8
  9
$DIMBLK
  1
DOT
  9
$DIMASO
 70
     1
  9
$DIMSHO
 70
     0
  9
$DIMPOST
  1

  9
$DIMAPOST
  1

  9
$DIMALT
 70
     0
  9
$DIMALTD
 70
     2
  9
$DIMALTF
 40
25.4
  9
$DIMLFAC
 40
1.0
  9
$DIMTOFL
 70
     1
  9
$DIMTVP
 40
0.0
  9
$DIMTIX
 70
     0
  9
$DIMSOXD
 70
     0
  9
$DIMSAH
 70
     1
  9
$DIMBLK1
  1
DOT
  9
$DIMBLK2
  1
DOT
  9
$DIMSTYLE
  2
SUNPOU_図面名
  9
$DIMCLRD
 70
   256
  9
$DIMCLRE
 70
   256
  9
$DIMCLRT
 70
   256
  9
$DIMTFAC
 40
1.0
  9
$DIMGAP
 40
1.5
  9
$DIMJUST
 70
     0
  9
$DIMSD1
 70
     0
  9
$DIMSD2
 70
     0
  9
$DIMTOLJ
 70
     1
  9
$DIMTZIN
 70
     0
  9
$DIMALTZ
 70
     0
  9
$DIMALTTZ
 70
     0
  9
$DIMUPT
 70
     0
  9
$DIMDEC
 70
     4
  9
$DIMTDEC
 70
     4
  9
$DIMALTU
 70
     2
  9
$DIMALTTD
 70
     2
  9
$DIMTXSTY
  7
STANDARD
  9
$DIMAUNIT
 70
     0
  9
$DIMADEC
 70
     0
  9
$DIMALTRND
 40
0.0
  9
$DIMAZIN
 70
     0
  9
$DIMDSEP
 70
    46
  9
$DIMATFIT
 70
     3
  9
$DIMFRAC
 70
     0
  9
$DIMLDRBLK
  1
DOT
  9
$DIMLUNIT
 70
     2
  9
$DIMLWD
 70
    -2
  9
$DIMLWE
 70
    -2
  9
$DIMTMOVE
 70
     0
  9
$LUNITS
 70
     2
  9
$LUPREC
 70
     2
  9
$SKETCHINC
 40
0.1
  9
$FILLETRAD
 40
0.0
  9
$AUNITS
 70
     0
  9
$AUPREC
 70
     0
  9
$MENU
  1
A:\TIGER\MENU\TIGER
  9
$ELEVATION
 40
0.0
  9
$PELEVATION
 40
0.0
  9
$THICKNESS
 40
0.0
  9
$LIMCHECK
 70
     0
  9
$CHAMFERA
 40
0.0
  9
$CHAMFERB
 40
0.0
  9
$CHAMFERC
 40
0.0
  9
$CHAMFERD
 40
0.0
  9
$SKPOLY
 70
     0
  9
$TDCREATE
 40
2450266.571064815
  9
$TDUCREATE
 40
2450266.196064815
  9
$TDUPDATE
 40
2456332.405533310
  9
$TDUUPDATE
 40
2456332.030533310
  9
$TDINDWG
 40
0.1732403819
  9
$TDUSRTIMER
 40
0.1732402083
  9
$USRTIMER
 70
     1
  9
$ANGBASE
 50
0.0
  9
$ANGDIR
 70
     0
  9
$PDMODE
 70
     0
  9
$PDSIZE
 40
0.0
  9
$PLINEWID
 40
0.0
  9
$SPLFRAME
 70
     0
  9
$SPLINETYPE
 70
     6
  9
$SPLINESEGS
 70
     8
  9
$HANDSEED
  5
192A9
  9
$SURFTAB1
 70
     6
  9
$SURFTAB2
 70
     6
  9
$SURFTYPE
 70
     6
  9
$SURFU
 70
     6
  9
$SURFV
 70
     6
  9
$UCSBASE
  2

  9
$UCSNAME
  2

  9
$UCSORG
 10
0.0
 20
0.0
 30
0.0
  9
$UCSXDIR
 10
1.0
 20
0.0
 30
0.0
  9
$UCSYDIR
 10
0.0
 20
1.0
 30
0.0
  9
$UCSORTHOREF
  2

  9
$UCSORTHOVIEW
 70
     0
  9
$UCSORGTOP
 10
0.0
 20
0.0
 30
0.0
  9
$UCSORGBOTTOM
 10
0.0
 20
0.0
 30
0.0
  9
$UCSORGLEFT
 10
0.0
 20
0.0
 30
0.0
  9
$UCSORGRIGHT
 10
0.0
 20
0.0
 30
0.0
  9
$UCSORGFRONT
 10
0.0
 20
0.0
 30
0.0
  9
$UCSORGBACK
 10
0.0
 20
0.0
 30
0.0
  9
$PUCSBASE
  2

  9
$PUCSNAME
  2

  9
$PUCSORG
 10
0.0
 20
0.0
 30
0.0
  9
$PUCSXDIR
 10
1.0
 20
0.0
 30
0.0
  9
$PUCSYDIR
 10
0.0
 20
1.0
 30
0.0
  9
$PUCSORTHOREF
  2

  9
$PUCSORTHOVIEW
 70
     0
  9
$PUCSORGTOP
 10
0.0
 20
0.0
 30
0.0
  9
$PUCSORGBOTTOM
 10
0.0
 20
0.0
 30
0.0
  9
$PUCSORGLEFT
 10
0.0
 20
0.0
 30
0.0
  9
$PUCSORGRIGHT
 10
0.0
 20
0.0
 30
0.0
  9
$PUCSORGFRONT
 10
0.0
 20
0.0
 30
0.0
  9
$PUCSORGBACK
 10
0.0
 20
0.0
 30
0.0
  9
$USERI1
 70
     3
  9
$USERI2
 70
     0
  9
$USERI3
 70
     0
  9
$USERI4
 70
     0
  9
$USERI5
 70
  1103
  9
$USERR1
 40
0.0
  9
$USERR2
 40
1.0
  9
$USERR3
 40
0.0
  9
$USERR4
 40
0.0
  9
$USERR5
 40
0.0
  9
$WORLDVIEW
 70
     1
  9
$SHADEDGE
 70
     3
  9
$SHADEDIF
 70
    70
  9
$TILEMODE
 70
     1
  9
$MAXACTVP
 70
    16
  9
$PINSBASE
 10
0.0
 20
0.0
 30
0.0
  9
$PLIMCHECK
 70
     0
  9
$PEXTMIN
 10
1.000000000000000E+20
 20
1.000000000000000E+20
 30
1.000000000000000E+20
  9
$PEXTMAX
 10
-1.000000000000000E+20
 20
-1.000000000000000E+20
 30
-1.000000000000000E+20
  9
$PLIMMIN
 10
0.0
 20
0.0
  9
$PLIMMAX
 10
12.0
 20
9.0
  9
$UNITMODE
 70
     0
  9
$VISRETAIN
 70
     0
  9
$PLINEGEN
 70
     1
  9
$PSLTSCALE
 70
     0
  9
$TREEDEPTH
 70
  3020
  9
$CMLSTYLE
  2
Standard
  9
$CMLJUST
 70
     0
  9
$CMLSCALE
 40
1.0
  9
$PROXYGRAPHICS
 70
     1
  9
$MEASUREMENT
 70
     0
  9
$CELWEIGHT
370
    -1
  9
$ENDCAPS
280
     0
  9
$JOINSTYLE
280
     0
  9
$LWDISPLAY
290
     0
  9
$INSUNITS
 70
     0
  9
$HYPERLINKBASE
  1

  9
$STYLESHEET
  1

  9
$XEDIT
290
     1
  9
$CEPSNTYPE
380
     0
  9
$PSTYLEMODE
290
     1
  9
$FINGERPRINTGUID
  2
{794EF652-4146-4529-ACB5-537E9C0CCD6D}
  9
$VERSIONGUID
  2
{04B13C35-7D1B-42F7-8680-696E9F5E3356}
  9
$EXTNAMES
290
     1
  9
$PSVPSCALE
 40
0.0
  9
$OLESTARTUP
290
     0
  0
ENDSEC
  0
SECTION
  2
CLASSES
  0
CLASS
  1
ACDBDICTIONARYWDFLT
  2
AcDbDictionaryWithDefault
  3
AutoCAD 2000
 90
        0
280
     0
281
     0
  0
CLASS
  1
ACDBPLACEHOLDER
  2
AcDbPlaceHolder
  3
AutoCAD 2000
 90
        0
280
     0
281
     0
  0
CLASS
  1
LAYOUT
  2
AcDbLayout
  3
AutoCAD 2000
 90
        0
280
     0
281
     0
  0
CLASS
  1
DICTIONARYVAR
  2
AcDbDictionaryVar
  3
AutoCAD 2000
 90
        0
280
     0
281
     0
  0
ENDSEC
  0
SECTION
  2
TABLES
  0
TABLE
  2
VPORT
  5
18AD7
330
0
100
AcDbSymbolTable
 70
     2
  0
VPORT
  5
192A8
330
18AD7
100
AcDbSymbolTableRecord
100
AcDbViewportTableRecord
  2
*Active
 70
     0
 10
0.0
 20
0.0
 11
1.0
 21
1.0
 12
8408.331337953367
 22
5702.983730997637
 13
0.0
 23
0.0
 14
1.0
 24
1.0
 15
0.0
 25
0.0
 16
0.0
 26
0.0
 36
1.0
 17
0.0
 27
0.0
 37
0.0
 40
11164.17719300493
 41
1.527918781725888
 42
50.0
 43
0.0
 44
0.0
 50
0.0
 51
0.0
 71
     0
 72
 10000
 73
     1
 74
     0
 75
     0
 76
     0
 77
     0
 78
     0
281
     0
 65
     1
110
0.0
120
0.0
130
0.0
111
1.0
121
0.0
131
0.0
112
0.0
122
1.0
132
0.0
 79
     0
146
0.0
  0
ENDTAB
  0
TABLE
  2
LTYPE
  5
18AD4
330
0
100
AcDbSymbolTable
 70
     7
  0
LTYPE
  5
18AE2
330
18AD4
100
AcDbSymbolTableRecord
100
AcDbLinetypeTableRecord
  2
ByBlock
 70
     0
  3

 72
    65
 73
     0
 40
0.0
  0
LTYPE
  5
18AE3
330
18AD4
100
AcDbSymbolTableRecord
100
AcDbLinetypeTableRecord
  2
ByLayer
 70
     0
  3

 72
    65
 73
     0
 40
0.0
  0
LTYPE
  5
18AE4
330
18AD4
100
AcDbSymbolTableRecord
100
AcDbLinetypeTableRecord
  2
CONTINUOUS
 70
     0
  3
実線
 72
    65
 73
     0
 40
0.0
  0
LTYPE
  5
18AF4
330
18AD4
100
AcDbSymbolTableRecord
100
AcDbLinetypeTableRecord
  2
TENSEN-
 70
     0
  3

 72
    65
 73
     2
 40
0.6000000000000001
 49
0.2
 74
     0
 49
-0.4
 74
     0
  0
LTYPE
  5
18AF5
330
18AD4
100
AcDbSymbolTableRecord
100
AcDbLinetypeTableRecord
  2
1PL-LL
 70
     0
  3

 72
    65
 73
     4
 40
106.0
 49
100.0
 74
     0
 49
-2.0
 74
     0
 49
2.0
 74
     0
 49
-2.0
 74
     0
  0
LTYPE
  5
18AF6
330
18AD4
100
AcDbSymbolTableRecord
100
AcDbLinetypeTableRecord
  2
1PL-M
 70
     0
  3

 72
    65
 73
     4
 40
15.0
 49
12.0
 74
     0
 49
-1.0
 74
     0
 49
1.0
 74
     0
 49
-1.0
 74
     0
  0
LTYPE
  5
18AF7
330
18AD4
100
AcDbSymbolTableRecord
100
AcDbLinetypeTableRecord
  2
1PL-S
 70
     0
  3

 72
    65
 73
     4
 40
4.0
 49
2.5
 74
     0
 49
-0.5
 74
     0
 49
0.5
 74
     0
 49
-0.5
 74
     0
  0
LTYPE
  5
18AF8
330
18AD4
100
AcDbSymbolTableRecord
100
AcDbLinetypeTableRecord
  2
2PL-L
 70
     0
  3

 72
    65
 73
     6
 40
60.0
 49
50.0
 74
     0
 49
-2.0
 74
     0
 49
2.0
 74
     0
 49
-2.0
 74
     0
 49
2.0
 74
     0
 49
-2.0
 74
     0
  0
LTYPE
  5
18AF9
330
18AD4
100
AcDbSymbolTableRecord
100
AcDbLinetypeTableRecord
  2
1PL-12
 70
     0
  3

 72
    65
 73
     4
 40
15.0
 49
12.0
 74
     0
 49
-1.0
 74
     0
 49
1.0
 74
     0
 49
-1.0
 74
     0
  0
ENDTAB
  0
TABLE
  2
LAYER
  5
18AD1
330
0
100
AcDbSymbolTable
 70
    21
  0
LAYER
  5
18ADF
330
18AD1
100
AcDbSymbolTableRecord
100
AcDbLayerTableRecord
  2
0
 70
     0
 62
     7
  6
CONTINUOUS
370
    -3
390
18ADE
  0
LAYER
  5
18AF1
330
18AD1
100
AcDbSymbolTableRecord
100
AcDbLayerTableRecord
  2
SUNPOU
 70
     0
 62
     4
  6
CONTINUOUS
370
    -3
390
18ADE
  0
LAYER
  5
18AFA
330
18AD1
100
AcDbSymbolTableRecord
100
AcDbLayerTableRecord
  2
U1
 70
     0
 62
     3
  6
CONTINUOUS
370
    -3
390
18ADE
  0
LAYER
  5
18AFB
330
18AD1
100
AcDbSymbolTableRecord
100
AcDbLayerTableRecord
  2
U3
 70
     0
 62
     6
  6
CONTINUOUS
370
    -3
390
18ADE
  0
LAYER
  5
18AFC
330
18AD1
100
AcDbSymbolTableRecord
100
AcDbLayerTableRecord
  2
HIKIDASHI
 70
     0
 62
     6
  6
CONTINUOUS
370
    -3
390
18ADE
  0
LAYER
  5
18AFD
330
18AD1
100
AcDbSymbolTableRecord
100
AcDbLayerTableRecord
  2
TENSEN-1
 70
     0
 62
     6
  6
TENSEN-
370
    -3
390
18ADE
  0
LAYER
  5
18AFE
330
18AD1
100
AcDbSymbolTableRecord
100
AcDbLayerTableRecord
  2
1PL-S1
 70
     0
 62
     6
  6
1PL-S
370
    -3
390
18ADE
  0
LAYER
  5
18AFF
330
18AD1
100
AcDbSymbolTableRecord
100
AcDbLayerTableRecord
  2
1PL-M1
 70
     0
 62
     6
  6
1PL-M
370
    -3
390
18ADE
  0
LAYER
  5
18B00
330
18AD1
100
AcDbSymbolTableRecord
100
AcDbLayerTableRecord
  2
NAME
 70
     0
 62
    20
  6
CONTINUOUS
370
    -3
390
18ADE
  0
LAYER
  5
18B01
330
18AD1
100
AcDbSymbolTableRecord
100
AcDbLayerTableRecord
  2
FILENAME
 70
     0
 62
     7
  6
CONTINUOUS
370
    -3
390
18ADE
  0
LAYER
  5
18B02
330
18AD1
100
AcDbSymbolTableRecord
100
AcDbLayerTableRecord
  2
CENTER
 70
     0
 62
     6
  6
1PL-LL
370
    -3
390
18ADE
  0
LAYER
  5
18B03
330
18AD1
100
AcDbSymbolTableRecord
100
AcDbLayerTableRecord
  2
KISO
 70
     0
 62
     2
  6
CONTINUOUS
370
    -3
390
18ADE
  0
LAYER
  5
18B04
330
18AD1
100
AcDbSymbolTableRecord
100
AcDbLayerTableRecord
  2
BOLT
 70
     0
 62
     4
  6
CONTINUOUS
370
    -3
390
18ADE
  0
LAYER
  5
18B05
330
18AD1
100
AcDbSymbolTableRecord
100
AcDbLayerTableRecord
  2
YANE
 70
     0
 62
     1
  6
1PL-12
370
    -3
390
18ADE
  0
LAYER
  5
18B06
330
18AD1
100
AcDbSymbolTableRecord
100
AcDbLayerTableRecord
  2
HATCH
 70
     0
 62
     1
  6
CONTINUOUS
370
    -3
390
18ADE
  0
LAYER
  5
18B07
330
18AD1
100
AcDbSymbolTableRecord
100
AcDbLayerTableRecord
  2
HASHIRA
 70
     0
 62
     3
  6
CONTINUOUS
370
    -3
390
18ADE
  0
LAYER
  5
18B08
330
18AD1
100
AcDbSymbolTableRecord
100
AcDbLayerTableRecord
  2
DOMAKON
 70
     0
 62
     2
  6
CONTINUOUS
370
    -3
390
18ADE
  0
LAYER
  5
18B09
330
18AD1
100
AcDbSymbolTableRecord
100
AcDbLayerTableRecord
  2
YODOROGO
 70
     0
 62
   130
  6
CONTINUOUS
370
    -3
390
18ADE
  0
LAYER
  5
18B0A
330
18AD1
100
AcDbSymbolTableRecord
100
AcDbLayerTableRecord
  2
WAKUSEN-01
 70
     0
 62
    50
  6
CONTINUOUS
370
    -3
390
18ADE
  0
LAYER
  5
18B0B
330
18AD1
100
AcDbSymbolTableRecord
100
AcDbLayerTableRecord
  2
WAKUSEN-02
 70
     0
 62
   130
  6
CONTINUOUS
370
    -3
390
18ADE
  0
LAYER
  5
18B0C
330
18AD1
100
AcDbSymbolTableRecord
100
AcDbLayerTableRecord
  2
WAKUMOJI-01
 70
     0
 62
   130
  6
CONTINUOUS
370
    -3
390
18ADE
  0
ENDTAB
  0
TABLE
  2
STYLE
  5
18AD2
330
0
100
AcDbSymbolTable
 70
     5
  0
STYLE
  5
18AE0
330
18AD2
100
AcDbSymbolTableRecord
100
AcDbTextStyleTableRecord
  2
STANDARD
 70
     0
 40
3.0
 41
1.0
 50
0.0
 71
     0
 42
0.2
  3
ROMANS
  4
EXTFONT
  0
STYLE
  5
18AF2
330
18AD2
100
AcDbSymbolTableRecord
100
AcDbTextStyleTableRecord
  2
00
 70
     0
 40
0.0
 41
0.6666666666666666
 50
0.0
 71
     0
 42
0.2
  3
ROMANS
  4
BIGFONT
  0
STYLE
  5
18B0D
330
18AD2
100
AcDbSymbolTableRecord
100
AcDbTextStyleTableRecord
  2
01
 70
     0
 40
3.0
 41
1.0
 50
0.0
 71
     0
 42
0.2
  3
ROMANS
  4
BIGFONT
  0
STYLE
  5
18B0E
330
18AD2
100
AcDbSymbolTableRecord
100
AcDbTextStyleTableRecord
  2
WAKUMOJI
 70
     0
 40
3.0
 41
1.0
 50
0.0
 71
     0
 42
3.0
  3
SIMPLEX
  4
BIGFONT
  0
STYLE
  5
18B0F
330
18AD2
100
AcDbSymbolTableRecord
100
AcDbTextStyleTableRecord
  2
FILENAME
 70
     0
 40
100.0
 41
1.0
 50
0.0
 71
     0
 42
100.0
  3
romans
  4
bigfont
  0
ENDTAB
  0
TABLE
  2
VIEW
  5
18AD5
330
0
100
AcDbSymbolTable
 70
     0
  0
ENDTAB
  0
TABLE
  2
UCS
  5
18AD6
330
0
100
AcDbSymbolTable
 70
     0
  0
ENDTAB
  0
TABLE
  2
APPID
  5
18AD8
330
0
100
AcDbSymbolTable
 70
     4
  0
APPID
  5
18AE1
330
18AD8
100
AcDbSymbolTableRecord
100
AcDbRegAppTableRecord
  2
ACAD
 70
     0
  0
APPID
  5
18B10
330
18AD8
100
AcDbSymbolTableRecord
100
AcDbRegAppTableRecord
  2
AUTOCAD_POSTSCRIPT_FIGURE
 70
     0
  0
APPID
  5
18B11
330
18AD8
100
AcDbSymbolTableRecord
100
AcDbRegAppTableRecord
  2
ACAD_PSEXT
 70
     0
  0
APPID
  5
18B12
330
18AD8
100
AcDbSymbolTableRecord
100
AcDbRegAppTableRecord
  2
ACAD_MLEADERVER
 70
     0
  0
ENDTAB
  0
TABLE
  2
DIMSTYLE
  5
18AD9
330
0
100
AcDbSymbolTable
 70
     1
100
AcDbDimStyleTable
 71
     0
  0
DIMSTYLE
105
18B13
330
18AD9
100
AcDbSymbolTableRecord
100
AcDbDimStyleTableRecord
  2
SUNPOU_図面名
 70
     0
 40
30.0
 41
0.5
 42
1.0
 43
7.0
 44
1.5
 46
3.0
 73
     0
 74
     0
 77
     1
 78
     8
140
3.0
141
0.0
147
1.5
172
     1
173
     1
176
   256
177
   256
178
   256
271
     2
272
     2
279
     2
284
     8
285
     8
286
     8
340
18AF2
  0
ENDTAB
  0
TABLE
  2
BLOCK_RECORD
  5
18AD0
330
0
100
AcDbSymbolTable
 70
    46
  0
BLOCK_RECORD
  5
18AED
330
18AD0
100
AcDbSymbolTableRecord
100
AcDbBlockTableRecord
  2
*Model_Space
340
18AF0
  0
BLOCK_RECORD
  5
18AE9
330
18AD0
100
AcDbSymbolTableRecord
100
AcDbBlockTableRecord
  2
*Paper_Space
340
18AEC
  0
BLOCK_RECORD
  5
18B18
330
18AD0
100
AcDbSymbolTableRecord
100
AcDbBlockTableRecord
  2
$MODEL_SPACE
340
0
  0
BLOCK_RECORD
  5
18B1B
330
18AD0
100
AcDbSymbolTableRecord
100
AcDbBlockTableRecord
  2
$PAPER_SPACE
340
0
  0
BLOCK_RECORD
  5
18B1E
330
18AD0
100
AcDbSymbolTableRecord
100
AcDbBlockTableRecord
  2
DOT
340
0
  0
BLOCK_RECORD
  5
18B26
330
18AD0
100
AcDbSymbolTableRecord
100
AcDbBlockTableRecord
  2
*U3
340
0
  0
BLOCK_RECORD
  5
18B2A
330
18AD0
100
AcDbSymbolTableRecord
100
AcDbBlockTableRecord
  2
*U4
340
0
  0
BLOCK_RECORD
  5
18B2E
330
18AD0
100
AcDbSymbolTableRecord
100
AcDbBlockTableRecord
  2
*U5
340
0
  0
BLOCK_RECORD
  5
18B32
330
18AD0
100
AcDbSymbolTableRecord
100
AcDbBlockTableRecord
  2
*U6
340
0
  0
BLOCK_RECORD
  5
18B36
330
18AD0
100
AcDbSymbolTableRecord
100
AcDbBlockTableRecord
  2
*U7
340
0
  0
BLOCK_RECORD
  5
18B3A
330
18AD0
100
AcDbSymbolTableRecord
100
AcDbBlockTableRecord
  2
*U8
340
0
  0
BLOCK_RECORD
  5
18B3E
330
18AD0
100
AcDbSymbolTableRecord
100
AcDbBlockTableRecord
  2
*U9
340
0
  0
BLOCK_RECORD
  5
18B42
330
18AD0
100
AcDbSymbolTableRecord
100
AcDbBlockTableRecord
  2
*U10
340
0
  0
BLOCK_RECORD
  5
18B46
330
18AD0
100
AcDbSymbolTableRecord
100
AcDbBlockTableRecord
  2
*U11
340
0
  0
BLOCK_RECORD
  5
18B4A
330
18AD0
100
AcDbSymbolTableRecord
100
AcDbBlockTableRecord
  2
*U12
340
0
  0
BLOCK_RECORD
  5
18B4E
330
18AD0
100
AcDbSymbolTableRecord
100
AcDbBlockTableRecord
  2
*U13
340
0
  0
BLOCK_RECORD
  5
18B52
330
18AD0
100
AcDbSymbolTableRecord
100
AcDbBlockTableRecord
  2
*U14
340
0
  0
BLOCK_RECORD
  5
18B56
330
18AD0
100
AcDbSymbolTableRecord
100
AcDbBlockTableRecord
  2
*U15
340
0
  0
BLOCK_RECORD
  5
18B5A
330
18AD0
100
AcDbSymbolTableRecord
100
AcDbBlockTableRecord
  2
*U16
340
0
  0
BLOCK_RECORD
  5
18B5E
330
18AD0
100
AcDbSymbolTableRecord
100
AcDbBlockTableRecord
  2
*U17
340
0
  0
BLOCK_RECORD
  5
18B62
330
18AD0
100
AcDbSymbolTableRecord
100
AcDbBlockTableRecord
  2
*U18
340
0
  0
BLOCK_RECORD
  5
18B66
330
18AD0
100
AcDbSymbolTableRecord
100
AcDbBlockTableRecord
  2
*U19
340
0
  0
BLOCK_RECORD
  5
18B6A
330
18AD0
100
AcDbSymbolTableRecord
100
AcDbBlockTableRecord
  2
*U20
340
0
  0
BLOCK_RECORD
  5
18B6E
330
18AD0
100
AcDbSymbolTableRecord
100
AcDbBlockTableRecord
  2
*U21
340
0
  0
BLOCK_RECORD
  5
18B72
330
18AD0
100
AcDbSymbolTableRecord
100
AcDbBlockTableRecord
  2
*U22
340
0
  0
BLOCK_RECORD
  5
18B76
330
18AD0
100
AcDbSymbolTableRecord
100
AcDbBlockTableRecord
  2
*U23
340
0
  0
BLOCK_RECORD
  5
18B7A
330
18AD0
100
AcDbSymbolTableRecord
100
AcDbBlockTableRecord
  2
*U24
340
0
  0
BLOCK_RECORD
  5
18B7E
330
18AD0
100
AcDbSymbolTableRecord
100
AcDbBlockTableRecord
  2
*U25
340
0
  0
BLOCK_RECORD
  5
18B82
330
18AD0
100
AcDbSymbolTableRecord
100
AcDbBlockTableRecord
  2
*U26
340
0
  0
BLOCK_RECORD
  5
18B86
330
18AD0
100
AcDbSymbolTableRecord
100
AcDbBlockTableRecord
  2
*U27
340
0
  0
BLOCK_RECORD
  5
18B8A
330
18AD0
100
AcDbSymbolTableRecord
100
AcDbBlockTableRecord
  2
*U28
340
0
  0
BLOCK_RECORD
  5
18B8E
330
18AD0
100
AcDbSymbolTableRecord
100
AcDbBlockTableRecord
  2
*U29
340
0
  0
BLOCK_RECORD
  5
18B92
330
18AD0
100
AcDbSymbolTableRecord
100
AcDbBlockTableRecord
  2
*U30
340
0
  0
BLOCK_RECORD
  5
18B96
330
18AD0
100
AcDbSymbolTableRecord
100
AcDbBlockTableRecord
  2
*U31
340
0
  0
BLOCK_RECORD
  5
18B9A
330
18AD0
100
AcDbSymbolTableRecord
100
AcDbBlockTableRecord
  2
*U32
340
0
  0
BLOCK_RECORD
  5
18B9E
330
18AD0
100
AcDbSymbolTableRecord
100
AcDbBlockTableRecord
  2
*U33
340
0
  0
BLOCK_RECORD
  5
18BA2
330
18AD0
100
AcDbSymbolTableRecord
100
AcDbBlockTableRecord
  2
*U34
340
0
  0
BLOCK_RECORD
  5
18BA6
330
18AD0
100
AcDbSymbolTableRecord
100
AcDbBlockTableRecord
  2
*U35
340
0
  0
BLOCK_RECORD
  5
18BAA
330
18AD0
100
AcDbSymbolTableRecord
100
AcDbBlockTableRecord
  2
*U36
340
0
  0
BLOCK_RECORD
  5
18BAE
330
18AD0
100
AcDbSymbolTableRecord
100
AcDbBlockTableRecord
  2
*U37
340
0
  0
BLOCK_RECORD
  5
18BB2
330
18AD0
100
AcDbSymbolTableRecord
100
AcDbBlockTableRecord
  2
*U38
340
0
  0
BLOCK_RECORD
  5
18BB6
330
18AD0
100
AcDbSymbolTableRecord
100
AcDbBlockTableRecord
  2
*U39
340
0
  0
BLOCK_RECORD
  5
18BBA
330
18AD0
100
AcDbSymbolTableRecord
100
AcDbBlockTableRecord
  2
*U40
340
0
  0
BLOCK_RECORD
  5
18BBE
330
18AD0
100
AcDbSymbolTableRecord
100
AcDbBlockTableRecord
  2
*U41
340
0
  0
BLOCK_RECORD
  5
18BC2
330
18AD0
100
AcDbSymbolTableRecord
100
AcDbBlockTableRecord
  2
*U42
340
0
  0
BLOCK_RECORD
  5
18BC6
330
18AD0
100
AcDbSymbolTableRecord
100
AcDbBlockTableRecord
  2
*U43
340
0
  0
BLOCK_RECORD
  5
18BCA
330
18AD0
100
AcDbSymbolTableRecord
100
AcDbBlockTableRecord
  2
*U44
340
0
  0
ENDTAB
  0
ENDSEC
  0
SECTION
  2
BLOCKS
  0
BLOCK
  5
18AEE
330
18AED
100
AcDbEntity
  8
0
100
AcDbBlockBegin
  2
*Model_Space
 70
     0
 10
0.0
 20
0.0
 30
0.0
  3
*Model_Space
  1

  0
ENDBLK
  5
18AEF
330
18AED
100
AcDbEntity
  8
0
100
AcDbBlockEnd
  0
BLOCK
  5
18AEA
330
18AE9
100
AcDbEntity
 67
     1
  8
0
100
AcDbBlockBegin
  2
*Paper_Space
 70
     0
 10
0.0
 20
0.0
 30
0.0
  3
*Paper_Space
  1

  0
ENDBLK
  5
18AEB
330
18AE9
100
AcDbEntity
 67
     1
  8
0
100
AcDbBlockEnd
  0
BLOCK
  5
18B19
330
18B18
100
AcDbEntity
  8
0
100
AcDbBlockBegin
  2
$MODEL_SPACE
 70
     0
 10
0.0
 20
0.0
 30
0.0
  3
$MODEL_SPACE
  1

  0
ENDBLK
  5
18B1A
330
18B18
100
AcDbEntity
  8
0
100
AcDbBlockEnd
  0
BLOCK
  5
18B1C
330
18B1B
100
AcDbEntity
  8
0
100
AcDbBlockBegin
  2
$PAPER_SPACE
 70
     0
 10
0.0
 20
0.0
 30
0.0
  3
$PAPER_SPACE
  1

  0
ENDBLK
  5
18B1D
330
18B1B
100
AcDbEntity
  8
0
100
AcDbBlockEnd
  0
BLOCK
  5
18B1F
330
18B1E
100
AcDbEntity
  8
0
100
AcDbBlockBegin
  2
DOT
 70
     0
 10
0.0
 20
0.0
 30
0.0
  3
DOT
  1

  0
LWPOLYLINE
  5
18B20
330
18B1E
100
AcDbEntity
  8
0
  6
ByBlock
 62
     0
100
AcDbPolyline
 90
        2
 70
     1
 43
0.75
 10
-0.375
 20
0.0
 42
1.0
 10
0.375
 20
0.0
 42
1.0
  0
LINE
  5
18B24
330
18B1E
100
AcDbEntity
  8
0
  6
ByBlock
 62
     0
100
AcDbLine
 10
-0.75
 20
0.0
 30
0.0
 11
-1.5
 21
0.0
 31
0.0
  0
ENDBLK
  5
18B25
330
18B1E
100
AcDbEntity
  8
0
100
AcDbBlockEnd
  0
BLOCK
  5
18B27
330
18B26
100
AcDbEntity
  8
0
100
AcDbBlockBegin
  2
*U3
 70
     1
 10
0.0
 20
0.0
 30
0.0
  3
*U3
  1

  0
TEXT
  5
18B28
330
18B26
100
AcDbEntity
  8
SUNPOU
100
AcDbText
 10
9033.413222185352
 20
7643.243182432326
 30
0.0
 40
90.0
  1
800
 41
0.6666666666666666
  7
00
100
AcDbText
  0
ENDBLK
  5
18B29
330
18B26
100
AcDbEntity
  8
0
100
AcDbBlockEnd
  0
BLOCK
  5
18B2B
330
18B2A
100
AcDbEntity
  8
0
100
AcDbBlockBegin
  2
*U4
 70
     1
 10
0.0
 20
0.0
 30
0.0
  3
*U4
  1

  0
TEXT
  5
18B2C
330
18B2A
100
AcDbEntity
  8
SUNPOU
100
AcDbText
 10
4973.413222185353
 20
9453.243182432325
 30
0.0
 40
90.0
  1
400
 41
0.6666666666666666
  7
00
100
AcDbText
  0
ENDBLK
  5
18B2D
330
18B2A
100
AcDbEntity
  8
0
100
AcDbBlockEnd
  0
BLOCK
  5
18B2F
330
18B2E
100
AcDbEntity
  8
0
100
AcDbBlockBegin
  2
*U5
 70
     1
 10
0.0
 20
0.0
 30
0.0
  3
*U5
  1

  0
TEXT
  5
18B30
330
18B2E
100
AcDbEntity
  8
SUNPOU
100
AcDbText
 10
6974.127507899638
 20
8622.528896718042
 30
0.0
 40
90.0
  1
800
 50
90.0
 41
0.6666666666666666
  7
00
100
AcDbText
  0
ENDBLK
  5
18B31
330
18B2E
100
AcDbEntity
  8
0
100
AcDbBlockEnd
  0
BLOCK
  5
18B33
330
18B32
100
AcDbEntity
  8
0
100
AcDbBlockBegin
  2
*U6
 70
     1
 10
0.0
 20
0.0
 30
0.0
  3
*U6
  1

  0
TEXT
  5
18B34
330
18B32
100
AcDbEntity
  8
SUNPOU
100
AcDbText
 10
7633.413222185355
 20
8053.243182432325
 30
0.0
 40
90.0
  1
800
 41
0.6666666666666666
  7
00
100
AcDbText
  0
ENDBLK
  5
18B35
330
18B32
100
AcDbEntity
  8
0
100
AcDbBlockEnd
  0
BLOCK
  5
18B37
330
18B36
100
AcDbEntity
  8
0
100
AcDbBlockBegin
  2
*U7
 70
     1
 10
0.0
 20
0.0
 30
0.0
  3
*U7
  1

  0
TEXT
  5
18B38
330
18B36
100
AcDbEntity
  8
SUNPOU
100
AcDbText
 10
6374.841793613924
 20
9453.243182432325
 30
0.0
 40
90.0
  1
2460
 41
0.6666666666666666
  7
00
100
AcDbText
  0
ENDBLK
  5
18B39
330
18B36
100
AcDbEntity
  8
0
100
AcDbBlockEnd
  0
BLOCK
  5
18B3B
330
18B3A
100
AcDbEntity
  8
0
100
AcDbBlockBegin
  2
*U8
 70
     1
 10
0.0
 20
0.0
 30
0.0
  3
*U8
  1

  0
TEXT
  5
18B3C
330
18B3A
100
AcDbEntity
  8
SUNPOU
100
AcDbText
 10
10234.84179361392
 20
9453.243182432325
 30
0.0
 40
90.0
  1
2460
 41
0.6666666666666666
  7
00
100
AcDbText
  0
ENDBLK
  5
18B3D
330
18B3A
100
AcDbEntity
  8
0
100
AcDbBlockEnd
  0
BLOCK
  5
18B3F
330
18B3E
100
AcDbEntity
  8
0
100
AcDbBlockBegin
  2
*U9
 70
     1
 10
0.0
 20
0.0
 30
0.0
  3
*U9
  1

  0
TEXT
  5
18B40
330
18B3E
100
AcDbEntity
  8
SUNPOU
100
AcDbText
 10
11693.41322218535
 20
9453.243182432325
 30
0.0
 40
90.0
  1
400
 41
0.6666666666666666
  7
00
100
AcDbText
  0
ENDBLK
  5
18B41
330
18B3E
100
AcDbEntity
  8
0
100
AcDbBlockEnd
  0
BLOCK
  5
18B43
330
18B42
100
AcDbEntity
  8
0
100
AcDbBlockBegin
  2
*U10
 70
     1
 10
0.0
 20
0.0
 30
0.0
  3
*U10
  1

  0
TEXT
  5
18B44
330
18B42
100
AcDbEntity
  8
SUNPOU
100
AcDbText
 10
12334.12750789963
 20
9159.6717538609
 30
0.0
 40
90.0
  1
200
 50
90.0
 41
0.6666666666666666
  7
00
100
AcDbText
  0
ENDBLK
  5
18B45
330
18B42
100
AcDbEntity
  8
0
100
AcDbBlockEnd
  0
BLOCK
  5
18B47
330
18B46
100
AcDbEntity
  8
0
100
AcDbBlockBegin
  2
*U11
 70
     1
 10
0.0
 20
0.0
 30
0.0
  3
*U11
  1

  0
TEXT
  5
18B48
330
18B46
100
AcDbEntity
  8
SUNPOU
100
AcDbText
 10
12334.12750789963
 20
8485.386039575185
 30
0.0
 40
90.0
  1
200
 50
90.0
 41
0.6666666666666666
  7
00
100
AcDbText
  0
ENDBLK
  5
18B49
330
18B46
100
AcDbEntity
  8
0
100
AcDbBlockEnd
  0
BLOCK
  5
18B4B
330
18B4A
100
AcDbEntity
  8
0
100
AcDbBlockBegin
  2
*U12
 70
     1
 10
0.0
 20
0.0
 30
0.0
  3
*U12
  1

  0
TEXT
  5
18B4C
330
18B4A
100
AcDbEntity
  8
SUNPOU
100
AcDbText
 10
9774.127507899642
 20
6812.528896718042
 30
0.0
 40
90.0
  1
800
 50
90.0
 41
0.6666666666666666
  7
00
100
AcDbText
  0
ENDBLK
  5
18B4D
330
18B4A
100
AcDbEntity
  8
0
100
AcDbBlockEnd
  0
BLOCK
  5
18B4F
330
18B4E
100
AcDbEntity
  8
0
100
AcDbBlockBegin
  2
*U13
 70
     1
 10
0.0
 20
0.0
 30
0.0
  3
*U13
  1

  0
TEXT
  5
18B50
330
18B4E
100
AcDbEntity
  8
SUNPOU
100
AcDbText
 10
4394.082765553178
 20
4175.485411556191
 30
0.0
 40
90.0
  1
400
 41
0.6666666666666666
  7
00
100
AcDbText
  0
ENDBLK
  5
18B51
330
18B4E
100
AcDbEntity
  8
0
100
AcDbBlockEnd
  0
BLOCK
  5
18B53
330
18B52
100
AcDbEntity
  8
0
100
AcDbBlockBegin
  2
*U14
 70
     1
 10
0.0
 20
0.0
 30
0.0
  3
*U14
  1

  0
TEXT
  5
18B54
330
18B52
100
AcDbEntity
  8
SUNPOU
100
AcDbText
 10
3415.443655266705
 20
3523.113410848177
 30
0.0
 40
90.0
  1
50
 50
90.0
 41
0.6666666666666666
  7
00
100
AcDbText
  0
ENDBLK
  5
18B55
330
18B52
100
AcDbEntity
  8
0
100
AcDbBlockEnd
  0
BLOCK
  5
18B57
330
18B56
100
AcDbEntity
  8
0
100
AcDbBlockBegin
  2
*U15
 70
     1
 10
0.0
 20
0.0
 30
0.0
  3
*U15
  1

  0
TEXT
  5
18B58
330
18B56
100
AcDbEntity
  8
SUNPOU
100
AcDbText
 10
8334.408966076827
 20
4175.485411556194
 30
0.0
 40
90.0
  1
200
 41
0.6666666666666666
  7
00
100
AcDbText
  0
ENDBLK
  5
18B59
330
18B56
100
AcDbEntity
  8
0
100
AcDbBlockEnd
  0
BLOCK
  5
18B5B
330
18B5A
100
AcDbEntity
  8
0
100
AcDbBlockBegin
  2
*U16
 70
     1
 10
0.0
 20
0.0
 30
0.0
  3
*U16
  1

  0
TEXT
  5
18B5C
330
18B5A
100
AcDbEntity
  8
SUNPOU
100
AcDbText
 10
7195.769855790351
 20
3523.113410848177
 30
0.0
 40
90.0
  1
50
 50
90.0
 41
0.6666666666666666
  7
00
100
AcDbText
  0
ENDBLK
  5
18B5D
330
18B5A
100
AcDbEntity
  8
0
100
AcDbBlockEnd
  0
BLOCK
  5
18B5F
330
18B5E
100
AcDbEntity
  8
0
100
AcDbBlockBegin
  2
*U17
 70
     1
 10
0.0
 20
0.0
 30
0.0
  3
*U17
  1

  0
TEXT
  5
18B60
330
18B5E
100
AcDbEntity
  8
SUNPOU
100
AcDbText
 10
11000.62408834778
 20
3439.170862655061
 30
0.0
 40
90.0
  1
20
 41
0.6666666666666666
  7
00
100
AcDbText
  0
ENDBLK
  5
18B61
330
18B5E
100
AcDbEntity
  8
0
100
AcDbBlockEnd
  0
BLOCK
  5
18B63
330
18B62
100
AcDbEntity
  8
0
100
AcDbBlockBegin
  2
*U18
 70
     1
 10
0.0
 20
0.0
 30
0.0
  3
*U18
  1

  0
TEXT
  5
18B64
330
18B62
100
AcDbEntity
  8
SUNPOU
100
AcDbText
 10
11967.76694549065
 20
3439.170862655061
 30
0.0
 40
90.0
  1
20
 41
0.6666666666666666
  7
00
100
AcDbText
  0
ENDBLK
  5
18B65
330
18B62
100
AcDbEntity
  8
0
100
AcDbBlockEnd
  0
BLOCK
  5
18B67
330
18B66
100
AcDbEntity
  8
0
100
AcDbBlockBegin
  2
*U19
 70
     1
 10
0.0
 20
0.0
 30
0.0
  3
*U19
  1

  0
TEXT
  5
18B68
330
18B66
100
AcDbEntity
  8
SUNPOU
100
AcDbText
 10
11451.33837406208
 20
3439.170862655062
 30
0.0
 40
90.0
  1
140
 41
0.6666666666666666
  7
00
100
AcDbText
  0
ENDBLK
  5
18B69
330
18B66
100
AcDbEntity
  8
0
100
AcDbBlockEnd
  0
BLOCK
  5
18B6B
330
18B6A
100
AcDbEntity
  8
0
100
AcDbBlockBegin
  2
*U20
 70
     1
 10
0.0
 20
0.0
 30
0.0
  3
*U20
  1

  0
TEXT
  5
18B6C
330
18B6A
100
AcDbEntity
  8
SUNPOU
100
AcDbText
 10
11451.33837406208
 20
3229.170862655062
 30
0.0
 40
90.0
  1
180
 41
0.6666666666666666
  7
00
100
AcDbText
  0
ENDBLK
  5
18B6D
330
18B6A
100
AcDbEntity
  8
0
100
AcDbBlockEnd
  0
BLOCK
  5
18B6F
330
18B6E
100
AcDbEntity
  8
0
100
AcDbBlockBegin
  2
*U21
 70
     1
 10
0.0
 20
0.0
 30
0.0
  3
*U21
  1

  0
TEXT
  5
18B70
330
18B6E
100
AcDbEntity
  8
SUNPOU
100
AcDbText
 10
10873.33837406209
 20
2743.001486910295
 30
0.0
 40
90.0
  1
50
 50
90.0
 41
0.6666666666666666
  7
00
100
AcDbText
  0
ENDBLK
  5
18B71
330
18B6E
100
AcDbEntity
  8
0
100
AcDbBlockEnd
  0
BLOCK
  5
18B73
330
18B72
100
AcDbEntity
  8
0
100
AcDbBlockBegin
  2
*U22
 70
     1
 10
0.0
 20
0.0
 30
0.0
  3
*U22
  1

  0
TEXT
  5
18B74
330
18B72
100
AcDbEntity
  8
SUNPOU
100
AcDbText
 10
11967.76694549065
 20
2290.804976716086
 30
0.0
 40
90.0
  1
20
 41
0.6666666666666666
  7
00
100
AcDbText
  0
ENDBLK
  5
18B75
330
18B72
100
AcDbEntity
  8
0
100
AcDbBlockEnd
  0
BLOCK
  5
18B77
330
18B76
100
AcDbEntity
  8
0
100
AcDbBlockBegin
  2
*U23
 70
     1
 10
0.0
 20
0.0
 30
0.0
  3
*U23
  1

  0
TEXT
  5
18B78
330
18B76
100
AcDbEntity
  8
SUNPOU
100
AcDbText
 10
11451.33837406209
 20
2290.804976716086
 30
0.0
 40
90.0
  1
140
 41
0.6666666666666666
  7
00
100
AcDbText
  0
ENDBLK
  5
18B79
330
18B76
100
AcDbEntity
  8
0
100
AcDbBlockEnd
  0
BLOCK
  5
18B7B
330
18B7A
100
AcDbEntity
  8
0
100
AcDbBlockBegin
  2
*U24
 70
     1
 10
0.0
 20
0.0
 30
0.0
  3
*U24
  1

  0
TEXT
  5
18B7C
330
18B7A
100
AcDbEntity
  8
SUNPOU
100
AcDbText
 10
11000.6240883478
 20
2290.804976716086
 30
0.0
 40
90.0
  1
20
 41
0.6666666666666666
  7
00
100
AcDbText
  0
ENDBLK
  5
18B7D
330
18B7A
100
AcDbEntity
  8
0
100
AcDbBlockEnd
  0
BLOCK
  5
18B7F
330
18B7E
100
AcDbEntity
  8
0
100
AcDbBlockBegin
  2
*U25
 70
     1
 10
0.0
 20
0.0
 30
0.0
  3
*U25
  1

  0
TEXT
  5
18B80
330
18B7E
100
AcDbEntity
  8
SUNPOU
100
AcDbText
 10
11451.33837406208
 20
2080.804976716085
 30
0.0
 40
90.0
  1
180
 41
0.6666666666666666
  7
00
100
AcDbText
  0
ENDBLK
  5
18B81
330
18B7E
100
AcDbEntity
  8
0
100
AcDbBlockEnd
  0
BLOCK
  5
18B83
330
18B82
100
AcDbEntity
  8
0
100
AcDbBlockBegin
  2
*U26
 70
     1
 10
0.0
 20
0.0
 30
0.0
  3
*U26
  1

  0
TEXT
  5
18B84
330
18B82
100
AcDbEntity
  8
SUNPOU
100
AcDbText
 10
10873.33837406209
 20
2543.001486910295
 30
0.0
 40
90.0
  1
50
 50
90.0
 41
0.6666666666666666
  7
00
100
AcDbText
  0
ENDBLK
  5
18B85
330
18B82
100
AcDbEntity
  8
0
100
AcDbBlockEnd
  0
BLOCK
  5
18B87
330
18B86
100
AcDbEntity
  8
0
100
AcDbBlockBegin
  2
*U27
 70
     1
 10
0.0
 20
0.0
 30
0.0
  3
*U27
  1

  0
TEXT
  5
18B88
330
18B86
100
AcDbEntity
  8
SUNPOU
100
AcDbText
 10
10663.33837406209
 20
2610.144344053151
 30
0.0
 40
90.0
  1
100
 50
90.0
 41
0.6666666666666666
  7
00
100
AcDbText
  0
ENDBLK
  5
18B89
330
18B86
100
AcDbEntity
  8
0
100
AcDbBlockEnd
  0
BLOCK
  5
18B8B
330
18B8A
100
AcDbEntity
  8
0
100
AcDbBlockBegin
  2
*U28
 70
     1
 10
0.0
 20
0.0
 30
0.0
  3
*U28
  1

  0
TEXT
  5
18B8C
330
18B8A
100
AcDbEntity
  8
SUNPOU
100
AcDbText
 10
3835.443655266704
 20
2860.570553705313
 30
0.0
 40
90.0
  1
300
 50
90.0
 41
0.6666666666666666
  7
00
100
AcDbText
  0
ENDBLK
  5
18B8D
330
18B8A
100
AcDbEntity
  8
0
100
AcDbBlockEnd
  0
BLOCK
  5
18B8F
330
18B8E
100
AcDbEntity
  8
0
100
AcDbBlockBegin
  2
*U29
 70
     1
 10
0.0
 20
0.0
 30
0.0
  3
*U29
  1

  0
TEXT
  5
18B90
330
18B8E
100
AcDbEntity
  8
SUNPOU
100
AcDbText
 10
3835.443655266704
 20
3193.141982276742
 30
0.0
 40
90.0
  1
80
 50
90.0
 41
0.6666666666666666
  7
00
100
AcDbText
  0
ENDBLK
  5
18B91
330
18B8E
100
AcDbEntity
  8
0
100
AcDbBlockEnd
  0
BLOCK
  5
18B93
330
18B92
100
AcDbEntity
  8
0
100
AcDbBlockBegin
  2
*U30
 70
     1
 10
0.0
 20
0.0
 30
0.0
  3
*U30
  1

  0
TEXT
  5
18B94
330
18B92
100
AcDbEntity
  8
SUNPOU
100
AcDbText
 10
4714.082765553178
 20
2193.684839419601
 30
0.0
 40
90.0
  1
800
 41
0.6666666666666666
  7
00
100
AcDbText
  0
ENDBLK
  5
18B95
330
18B92
100
AcDbEntity
  8
0
100
AcDbBlockEnd
  0
BLOCK
  5
18B97
330
18B96
100
AcDbEntity
  8
0
100
AcDbBlockBegin
  2
*U31
 70
     1
 10
0.0
 20
0.0
 30
0.0
  3
*U31
  1

  0
TEXT
  5
18B98
330
18B96
100
AcDbEntity
  8
SUNPOU
100
AcDbText
 10
7615.76985579035
 20
2860.570553705318
 30
0.0
 40
90.0
  1
300
 50
90.0
 41
0.6666666666666666
  7
00
100
AcDbText
  0
ENDBLK
  5
18B99
330
18B96
100
AcDbEntity
  8
0
100
AcDbBlockEnd
  0
BLOCK
  5
18B9B
330
18B9A
100
AcDbEntity
  8
0
100
AcDbBlockBegin
  2
*U32
 70
     1
 10
0.0
 20
0.0
 30
0.0
  3
*U32
  1

  0
TEXT
  5
18B9C
330
18B9A
100
AcDbEntity
  8
SUNPOU
100
AcDbText
 10
7615.76985579035
 20
3193.141982276746
 30
0.0
 40
90.0
  1
80
 50
90.0
 41
0.6666666666666666
  7
00
100
AcDbText
  0
ENDBLK
  5
18B9D
330
18B9A
100
AcDbEntity
  8
0
100
AcDbBlockEnd
  0
BLOCK
  5
18B9F
330
18B9E
100
AcDbEntity
  8
0
100
AcDbBlockBegin
  2
*U33
 70
     1
 10
0.0
 20
0.0
 30
0.0
  3
*U33
  1

  0
TEXT
  5
18BA0
330
18B9E
100
AcDbEntity
  8
SUNPOU
100
AcDbText
 10
8494.408966076823
 20
2193.684839419605
 30
0.0
 40
90.0
  1
800
 41
0.6666666666666666
  7
00
100
AcDbText
  0
ENDBLK
  5
18BA1
330
18B9E
100
AcDbEntity
  8
0
100
AcDbBlockEnd
  0
BLOCK
  5
18BA3
330
18BA2
100
AcDbEntity
  8
0
100
AcDbBlockBegin
  2
*U34
 70
     1
 10
0.0
 20
0.0
 30
0.0
  3
*U34
  1

  0
TEXT
  5
18BA4
330
18BA2
100
AcDbEntity
  8
SUNPOU
100
AcDbText
 10
12268.40680314954
 20
3933.765608013134
 30
0.0
 40
90.0
  1
40
 50
90.0
 41
0.6666666666666666
  7
00
100
AcDbText
  0
ENDBLK
  5
18BA5
330
18BA2
100
AcDbEntity
  8
0
100
AcDbBlockEnd
  0
BLOCK
  5
18BA7
330
18BA6
100
AcDbEntity
  8
0
100
AcDbBlockBegin
  2
*U35
 70
     1
 10
0.0
 20
0.0
 30
0.0
  3
*U35
  1

  0
TEXT
  5
18BA8
330
18BA6
100
AcDbEntity
  8
SUNPOU
100
AcDbText
 10
12268.40680314954
 20
3437.622750870279
 30
0.0
 40
90.0
  1
26
 50
90.0
 41
0.6666666666666666
  7
00
100
AcDbText
  0
ENDBLK
  5
18BA9
330
18BA6
100
AcDbEntity
  8
0
100
AcDbBlockEnd
  0
BLOCK
  5
18BAB
330
18BAA
100
AcDbEntity
  8
0
100
AcDbBlockBegin
  2
*U36
 70
     1
 10
0.0
 20
0.0
 30
0.0
  3
*U36
  1

  0
TEXT
  5
18BAC
330
18BAA
100
AcDbEntity
  8
SUNPOU
100
AcDbText
 10
4681.225622696032
 20
1983.6848394196
 30
0.0
 40
90.0
  1
1000
 41
0.6666666666666666
  7
00
100
AcDbText
  0
ENDBLK
  5
18BAD
330
18BAA
100
AcDbEntity
  8
0
100
AcDbBlockEnd
  0
BLOCK
  5
18BAF
330
18BAE
100
AcDbEntity
  8
0
100
AcDbBlockBegin
  2
*U37
 70
     1
 10
0.0
 20
0.0
 30
0.0
  3
*U37
  1

  0
TEXT
  5
18BB0
330
18BAE
100
AcDbEntity
  8
SUNPOU
100
AcDbText
 10
8461.551823219677
 20
1983.684839419604
 30
0.0
 40
90.0
  1
1000
 41
0.6666666666666666
  7
00
100
AcDbText
  0
ENDBLK
  5
18BB1
330
18BAE
100
AcDbEntity
  8
0
100
AcDbBlockEnd
  0
BLOCK
  5
18BB3
330
18BB2
100
AcDbEntity
  8
0
100
AcDbBlockBegin
  2
*U38
 70
     1
 10
0.0
 20
0.0
 30
0.0
  3
*U38
  1

  0
TEXT
  5
18BB4
330
18BB2
100
AcDbEntity
  8
SUNPOU
100
AcDbText
 10
3835.443655266704
 20
3508.113410848177
 30
0.0
 40
90.0
  1
80
 50
90.0
 41
0.6666666666666666
  7
00
100
AcDbText
  0
ENDBLK
  5
18BB5
330
18BB2
100
AcDbEntity
  8
0
100
AcDbBlockEnd
  0
BLOCK
  5
18BB7
330
18BB6
100
AcDbEntity
  8
0
100
AcDbBlockBegin
  2
*U39
 70
     1
 10
0.0
 20
0.0
 30
0.0
  3
*U39
  1

  0
TEXT
  5
18BB8
330
18BB6
100
AcDbEntity
  8
SUNPOU
100
AcDbText
 10
7615.76985579035
 20
3508.113410848177
 30
0.0
 40
90.0
  1
80
 50
90.0
 41
0.6666666666666666
  7
00
100
AcDbText
  0
ENDBLK
  5
18BB9
330
18BB6
100
AcDbEntity
  8
0
100
AcDbBlockEnd
  0
BLOCK
  5
18BBB
330
18BBA
100
AcDbEntity
  8
0
100
AcDbBlockBegin
  2
*U40
 70
     1
 10
0.0
 20
0.0
 30
0.0
  3
*U40
  1

  0
TEXT
  5
18BBC
330
18BBA
100
AcDbEntity
  8
SUNPOU
100
AcDbText
 10
7955.413222185355
 20
9663.243182432324
 30
0.0
 40
90.0
  1
L = 2460 x N + 800
 41
0.6666666666666666
  7
00
100
AcDbText
  0
ENDBLK
  5
18BBD
330
18BBA
100
AcDbEntity
  8
0
100
AcDbBlockEnd
  0
BLOCK
  5
18BBF
330
18BBE
100
AcDbEntity
  8
0
100
AcDbBlockBegin
  2
*U41
 70
     1
 10
0.0
 20
0.0
 30
0.0
  3
*U41
  1

  0
TEXT
  5
18BC0
330
18BBE
100
AcDbEntity
  8
SUNPOU
100
AcDbText
 10
7615.76985579035
 20
2323.427696562461
 30
0.0
 40
90.0
  1
100
 50
90.0
 41
0.6666666666666666
  7
00
100
AcDbText
  0
ENDBLK
  5
18BC1
330
18BBE
100
AcDbEntity
  8
0
100
AcDbBlockEnd
  0
BLOCK
  5
18BC3
330
18BC2
100
AcDbEntity
  8
0
100
AcDbBlockBegin
  2
*U42
 70
     1
 10
0.0
 20
0.0
 30
0.0
  3
*U42
  1

  0
TEXT
  5
18BC4
330
18BC2
100
AcDbEntity
  8
SUNPOU
100
AcDbText
 10
7396.802983832269
 20
2915.770553705319
 30
0.0
 40
90.0
  1
560
 50
90.0
 41
0.6666666666666666
  7
00
100
AcDbText
  0
ENDBLK
  5
18BC5
330
18BC2
100
AcDbEntity
  8
0
100
AcDbBlockEnd
  0
BLOCK
  5
18BC7
330
18BC6
100
AcDbEntity
  8
0
100
AcDbBlockBegin
  2
*U43
 70
     1
 10
0.0
 20
0.0
 30
0.0
  3
*U43
  1

  0
TEXT
  5
18BC8
330
18BC6
100
AcDbEntity
  8
SUNPOU
100
AcDbText
 10
3835.443655266704
 20
2323.427696562459
 30
0.0
 40
90.0
  1
100
 50
90.0
 41
0.6666666666666666
  7
00
100
AcDbText
  0
ENDBLK
  5
18BC9
330
18BC6
100
AcDbEntity
  8
0
100
AcDbBlockEnd
  0
BLOCK
  5
18BCB
330
18BCA
100
AcDbEntity
  8
0
100
AcDbBlockBegin
  2
*U44
 70
     1
 10
0.0
 20
0.0
 30
0.0
  3
*U44
  1

  0
TEXT
  5
18BCC
330
18BCA
100
AcDbEntity
  8
SUNPOU
100
AcDbText
 10
3616.747780992795
 20
2915.770553705319
 30
0.0
 40
90.0
  1
560
 50
90.0
 41
0.6666666666666666
  7
00
100
AcDbText
  0
ENDBLK
  5
18BCD
330
18BCA
100
AcDbEntity
  8
0
100
AcDbBlockEnd
  0
ENDSEC
  0
SECTION
  2
ENTITIES
  0
TEXT
  5
18BCE
330
18AED
100
AcDbEntity
  8
NAME
100
AcDbText
 10
11228.07508082364
 20
875.0
 30
0.0
 40
120.0
  1
（アンカープレート方式）
  7
01
 72
     4
 11
12072.07508082364
 21
935.0
 31
0.0
100
AcDbText
  0
TEXT
  5
18BCF
330
18AED
100
AcDbEntity
  8
NAME
100
AcDbText
 10
12854.79999999999
 20
541.0000000000001
 30
0.0
 40
160.0
  1
<3／3>
 41
0.6
  7
01
 72
     2
 11
13354.0
 21
541.0000000000001
 31
0.0
100
AcDbText
  0
TEXT
  5
18BD0
330
18AED
100
AcDbEntity
  8
NAME
100
AcDbText
 10
10778.70931397095
 20
541.0
 30
0.0
 40
160.0
  1
YOKCU-245
 41
0.7
  7
01
 72
     2
 11
11776.04264730429
 21
541.0
 31
0.0
100
AcDbText
  0
TEXT
  5
18BD1
330
18AED
100
AcDbEntity
  8
NAME
100
AcDbText
 10
11816.04264730429
 20
541.0
 30
0.0
 40
160.0
  1
型（豪雪地用）
 41
0.8
  7
01
100
AcDbText
  0
LINE
  5
18BD2
330
18AED
100
AcDbEntity
  8
CENTER
  6
1PL-M
100
AcDbLine
 10
8479.12750789964
 20
6898.243182432327
 30
0.0
 11
9669.127507899641
 21
6898.243182432327
 31
0.0
  0
LINE
  5
18BD3
330
18AED
100
AcDbEntity
  8
CENTER
  6
1PL-M
100
AcDbLine
 10
8479.12750789964
 20
8708.243182432324
 30
0.0
 11
12124.12750789964
 21
8708.243182432324
 31
0.0
  0
LINE
  5
18BD4
330
18AED
100
AcDbEntity
  8
SUNPOU
100
AcDbLine
 10
9104.127507899637
 20
9408.243182432325
 30
0.0
 11
7734.127507899637
 21
9408.243182432325
 31
0.0
  0
TEXT
  5
18BD5
330
18AED
100
AcDbEntity
  8
HIKIDASHI
100
AcDbText
 10
5969.1640312455
 20
6255.132060441853
 30
0.0
 40
90.0
  1
（鼻隠し外面）
  7
01
100
AcDbText
  0
LINE
  5
18BD6
330
18AED
100
AcDbEntity
  8
CENTER
  6
1PL-M
100
AcDbLine
 10
4714.127507899639
 20
6898.243182432327
 30
0.0
 11
8359.127507899641
 21
6898.243182432327
 31
0.0
  0
LINE
  5
18BD7
330
18AED
100
AcDbEntity
  8
CENTER
  6
1PL-M
100
AcDbLine
 10
4714.127507899639
 20
8708.243182432324
 30
0.0
 11
6869.12750789964
 21
8708.243182432328
 31
0.0
  0
LINE
  5
18BD8
330
18AED
100
AcDbEntity
  8
SUNPOU
100
AcDbLine
 10
4649.127507899637
 20
7108.243182432326
 30
0.0
 11
4649.127507899637
 21
6898.243182432327
 31
0.0
  0
LINE
  5
18BD9
330
18AED
100
AcDbEntity
  8
SUNPOU
100
AcDbLine
 10
4649.127507899637
 20
6898.243182432327
 30
0.0
 11
4799.12750789964
 21
6898.243182432327
 31
0.0
  0
TEXT
  5
18BDA
330
18AED
100
AcDbEntity
  8
SUNPOU
100
AcDbText
 10
4623.284650756779
 20
7243.243182432326
 30
0.0
 40
90.0
  1
A
 41
0.6700000000000001
  7
00
 72
     4
 11
4649.127507899637
 21
7288.243182432326
 31
0.0
100
AcDbText
  0
TEXT
  5
18BDB
330
18AED
100
AcDbEntity
  8
HIKIDASHI
100
AcDbText
 10
5895.315263925879
 20
9016.792454813669
 30
0.0
 40
90.0
  1
（屋根後面位置）
  7
01
100
AcDbText
  0
LINE
  5
18BDC
330
18AED
100
AcDbEntity
  8
SUNPOU
100
AcDbLine
 10
8359.127507899641
 20
9198.243182432326
 30
0.0
 11
8359.127507899641
 21
6378.243182432327
 31
0.0
  0
LINE
  5
18BDD
330
18AED
100
AcDbEntity
  8
CENTER
  6
1PL-M
100
AcDbLine
 10
5259.12750789964
 20
6298.243182432327
 30
0.0
 11
5259.12750789964
 21
9308.243182432326
 31
0.0
  0
LINE
  5
18BDE
330
18AED
100
AcDbEntity
  8
CENTER
  6
1PL-M
100
AcDbLine
 10
7719.127507899639
 20
8158.243182432327
 30
0.0
 11
7719.127507899639
 21
9308.243182432326
 31
0.0
  0
LINE
  5
18BDF
330
18AED
100
AcDbEntity
  8
SUNPOU
100
AcDbLine
 10
8479.12750789964
 20
9198.243182432326
 30
0.0
 11
8479.12750789964
 21
6378.243182432327
 31
0.0
  0
LINE
  5
18BE0
330
18AED
100
AcDbEntity
  8
SUNPOU
100
AcDbLine
 10
5869.127507899639
 20
7108.243182432326
 30
0.0
 11
5869.127507899639
 21
6898.243182432327
 31
0.0
  0
LINE
  5
18BE1
330
18AED
100
AcDbEntity
  8
SUNPOU
100
AcDbLine
 10
5869.127507899639
 20
6898.243182432327
 30
0.0
 11
5719.127507899639
 21
6898.243182432327
 31
0.0
  0
TEXT
  5
18BE2
330
18AED
100
AcDbEntity
  8
SUNPOU
100
AcDbText
 10
5833.234650756782
 20
7234.671753860897
 30
0.0
 40
90.0
  1
A'
 41
0.6700000000000001
  7
00
 72
     4
 11
5869.127507899639
 21
7288.243182432326
 31
0.0
100
AcDbText
  0
TEXT
  5
18BE3
330
18AED
100
AcDbEntity
  8
HIKIDASHI
100
AcDbText
 10
5885.055429329483
 20
6556.564027675789
 30
0.0
 40
90.0
  1
（土間コン前面位置）
  7
01
100
AcDbText
  0
TEXT
  5
18BE4
330
18AED
100
AcDbEntity
  8
HIKIDASHI
100
AcDbText
 10
5811.206662009859
 20
8753.243182432333
 30
0.0
 40
90.0
  1
（土間コン後面位置）
  7
01
100
AcDbText
  0
LINE
  5
18BE5
330
18AED
100
AcDbEntity
  8
SUNPOU
100
AcDbLine
 10
5469.127507899639
 20
8158.243182432324
 30
0.0
 11
5259.12750789964
 21
8158.243182432324
 31
0.0
  0
LINE
  5
18BE6
330
18AED
100
AcDbEntity
  8
SUNPOU
100
AcDbLine
 10
5259.12750789964
 20
8158.243182432327
 30
0.0
 11
5259.12750789964
 21
8308.243182432326
 31
0.0
  0
TEXT
  5
18BE7
330
18AED
100
AcDbEntity
  8
SUNPOU
100
AcDbText
 10
5611.003543448688
 20
8113.243182432325
 30
0.0
 40
90.0
  1
B
 41
0.6700000000000001
  7
00
 72
     4
 11
5642.589257734403
 21
8158.243182432327
 31
0.0
100
AcDbText
  0
LINE
  5
18BE8
330
18AED
100
AcDbEntity
  8
CENTER
  6
1PL-M
100
AcDbLine
 10
7719.127507899639
 20
6298.243182432327
 30
0.0
 11
7719.127507899639
 21
7963.243182432326
 31
0.0
  0
LINE
  5
18BE9
330
18AED
100
AcDbEntity
  8
CENTER
  6
1PL-M
100
AcDbLine
 10
7067.877507899639
 20
8708.243182432324
 30
0.0
 11
8359.127507899641
 21
8708.243182432324
 31
0.0
  0
LINE
  5
18BEA
330
18AED
100
AcDbEntity
  8
SUNPOU
100
AcDbLine
 10
5469.127507899639
 20
9258.243182432329
 30
0.0
 11
5259.12750789964
 21
9258.243182432329
 31
0.0
  0
LINE
  5
18BEB
330
18AED
100
AcDbEntity
  8
SUNPOU
100
AcDbLine
 10
5259.12750789964
 20
9258.243182432325
 30
0.0
 11
5259.12750789964
 21
9108.243182432325
 31
0.0
  0
TEXT
  5
18BEC
330
18AED
100
AcDbEntity
  8
SUNPOU
100
AcDbText
 10
5598.082114877261
 20
9204.671753860896
 30
0.0
 40
90.0
  1
B'
 41
0.6700000000000001
  7
00
 72
     4
 11
5642.589257734403
 21
9258.243182432325
 31
0.0
100
AcDbText
  0
LINE
  5
18BED
330
18AED
100
AcDbEntity
  8
SUNPOU
100
AcDbLine
 10
7719.127507899639
 20
9338.243182432325
 30
0.0
 11
7719.127507899639
 21
9453.243182432325
 31
0.0
  0
TEXT
  5
18BEE
330
18AED
100
AcDbEntity
  8
SUNPOU
100
AcDbText
 10
11298.67847370104
 20
6085.177183942747
 30
0.0
 40
90.0
  1

 41
0.6666666666666666
  7
00
 72
     4
 11
11298.67847370104
 21
6085.177183942747
 31
0.0
100
AcDbText
  0
TEXT
  5
18BEF
330
18AED
100
AcDbEntity
  8
SUNPOU
100
AcDbText
 10
10976.25954751382
 20
5905.177183942746
 30
0.0
 40
90.0
  1
（  ：スパン数）
  7
01
 11
10976.25954751382
 21
5950.177183942745
 31
0.0
100
AcDbText
 73
     2
  0
TEXT
  5
18BF0
330
18AED
100
AcDbEntity
  8
SUNPOU
100
AcDbText
 10
11106.72075856533
 20
5905.177183942746
 30
0.0
 40
90.0
  1
N
 41
0.6666666666666666
  7
00
 72
     4
 11
11138.1493299939
 21
5950.177183942745
 31
0.0
100
AcDbText
  0
LINE
  5
18BF1
330
18AED
100
AcDbEntity
  8
CENTER
  6
1PL-M
100
AcDbLine
 10
11579.12750789964
 20
6298.243182432327
 30
0.0
 11
11579.12750789964
 21
9308.243182432326
 31
0.0
  0
LINE
  5
18BF2
330
18AED
100
AcDbEntity
  8
CENTER
  6
1PL-M
100
AcDbLine
 10
9119.127507899637
 20
7748.243182432325
 30
0.0
 11
9119.127507899637
 21
9308.243182432326
 31
0.0
  0
LINE
  5
18BF3
330
18AED
100
AcDbEntity
  8
CENTER
  6
1PL-M
100
AcDbLine
 10
9864.127507899638
 20
6898.243182432327
 30
0.0
 11
12124.12750789964
 21
6898.243182432327
 31
0.0
  0
LINE
  5
18BF4
330
18AED
100
AcDbEntity
  8
CENTER
  6
1PL-M
100
AcDbLine
 10
9119.127507899637
 20
6298.243182432327
 30
0.0
 11
9119.127507899637
 21
7553.243182432325
 31
0.0
  0
CIRCLE
  5
18BF5
330
18AED
100
AcDbEntity
  8
HASHIRA
100
AcDbCircle
 10
11579.12750789964
 20
8638.243182432324
 30
0.0
 40
9.0
  0
CIRCLE
  5
18BF6
330
18AED
100
AcDbEntity
  8
HASHIRA
100
AcDbCircle
 10
11579.12750789964
 20
8778.243182432325
 30
0.0
 40
9.0
  0
LINE
  5
18BF7
330
18AED
100
AcDbEntity
  8
SUNPOU
100
AcDbLine
 10
9119.127507899637
 20
9338.243182432325
 30
0.0
 11
9119.127507899637
 21
9453.243182432325
 31
0.0
  0
LINE
  5
18BF8
330
18AED
100
AcDbEntity
  8
SUNPOU
100
AcDbLine
 10
12154.12750789964
 20
6898.243182432327
 30
0.0
 11
12634.12750789964
 21
6898.243182432327
 31
0.0
  0
LINE
  5
18BF9
330
18AED
100
AcDbEntity
  8
SUNPOU
100
AcDbLine
 10
12154.12750789964
 20
8708.243182432324
 30
0.0
 11
12634.12750789964
 21
8708.243182432324
 31
0.0
  0
TEXT
  5
18BFA
330
18AED
100
AcDbEntity
  8
SUNPOU
100
AcDbText
 10
12544.12750789964
 20
8822.528896718038
 30
0.0
 40
90.0
  1
400
 50
90.0
 41
0.6666666666666666
  7
00
 72
     1
 11
12499.12750789964
 21
8908.243182432325
 31
0.0
100
AcDbText
 73
     2
  0
TEXT
  5
18BFB
330
18AED
100
AcDbEntity
  8
SUNPOU
100
AcDbText
 10
12544.12750789964
 20
7684.671753860897
 30
0.0
 40
90.0
  1
1810
 50
90.0
 41
0.6666666666666666
  7
00
 72
     4
 11
12499.12750789964
 21
7803.243182432325
 31
0.0
100
AcDbText
  0
TEXT
  5
18BFC
330
18AED
100
AcDbEntity
  8
SUNPOU
100
AcDbText
 10
12544.12750789964
 20
6612.528896718041
 30
0.0
 40
90.0
  1
400
 50
90.0
 41
0.6666666666666666
  7
00
 72
     4
 11
12499.12750789964
 21
6698.243182432327
 31
0.0
100
AcDbText
  0
LINE
  5
18BFD
330
18AED
100
AcDbEntity
  8
SUNPOU
100
AcDbLine
 10
12009.12750789964
 20
6498.243182432327
 30
0.0
 11
12844.12750789964
 21
6498.243182432327
 31
0.0
  0
LINE
  5
18BFE
330
18AED
100
AcDbEntity
  8
SUNPOU
100
AcDbLine
 10
12009.12750789964
 20
9108.243182432325
 30
0.0
 11
12844.12750789964
 21
9108.243182432325
 31
0.0
  0
LINE
  5
18BFF
330
18AED
100
AcDbEntity
  8
SUNPOU
100
AcDbLine
 10
12589.12750789964
 20
9093.243182432329
 30
0.0
 11
12589.12750789964
 21
8723.243182432325
 31
0.0
  0
LINE
  5
18C00
330
18AED
100
AcDbEntity
  8
SUNPOU
100
AcDbLine
 10
12799.12750789964
 20
9093.243182432329
 30
0.0
 11
12799.12750789964
 21
6513.243182432326
 31
0.0
  0
LINE
  5
18C01
330
18AED
100
AcDbEntity
  8
SUNPOU
100
AcDbLine
 10
12589.12750789964
 20
8693.243182432324
 30
0.0
 11
12589.12750789964
 21
6913.243182432326
 31
0.0
  0
LINE
  5
18C02
330
18AED
100
AcDbEntity
  8
SUNPOU
100
AcDbLine
 10
12589.12750789964
 20
6883.243182432327
 30
0.0
 11
12589.12750789964
 21
6513.243182432326
 31
0.0
  0
LINE
  5
18C03
330
18AED
100
AcDbEntity
  8
SUNPOU
100
AcDbLine
 10
12559.12750789964
 20
6498.243182432327
 30
0.0
 11
12544.12750789964
 21
6498.243182432327
 31
0.0
  0
TEXT
  5
18C04
330
18AED
100
AcDbEntity
  8
SUNPOU
100
AcDbText
 10
12754.12750789964
 20
7688.957468146611
 30
0.0
 40
90.0
  1
2610
 50
90.0
 41
0.6666666666666666
  7
00
 72
     4
 11
12709.12750789964
 21
7803.243182432325
 31
0.0
100
AcDbText
  0
LINE
  5
18C05
330
18AED
100
AcDbEntity
  8
SUNPOU
100
AcDbLine
 10
12559.12750789964
 20
9108.243182432325
 30
0.0
 11
12544.12750789964
 21
9108.243182432325
 31
0.0
  0
CIRCLE
  5
18C06
330
18AED
100
AcDbEntity
  8
HASHIRA
100
AcDbCircle
 10
11579.12750789964
 20
6968.243182432328
 30
0.0
 40
9.0
  0
CIRCLE
  5
18C07
330
18AED
100
AcDbEntity
  8
HASHIRA
100
AcDbCircle
 10
11579.12750789964
 20
6828.243182432327
 30
0.0
 40
9.0
  0
CIRCLE
  5
18C08
330
18AED
100
AcDbEntity
  8
HASHIRA
100
AcDbCircle
 10
9119.127507899637
 20
8778.243182432325
 30
0.0
 40
9.0
  0
CIRCLE
  5
18C09
330
18AED
100
AcDbEntity
  8
HASHIRA
100
AcDbCircle
 10
9119.127507899637
 20
8638.243182432324
 30
0.0
 40
9.0
  0
CIRCLE
  5
18C0A
330
18AED
100
AcDbEntity
  8
HASHIRA
100
AcDbCircle
 10
9119.127507899637
 20
6968.243182432328
 30
0.0
 40
9.0
  0
CIRCLE
  5
18C0B
330
18AED
100
AcDbEntity
  8
HASHIRA
100
AcDbCircle
 10
9119.127507899637
 20
6828.243182432327
 30
0.0
 40
9.0
  0
CIRCLE
  5
18C0C
330
18AED
100
AcDbEntity
  8
HASHIRA
100
AcDbCircle
 10
7719.127507899639
 20
8778.243182432325
 30
0.0
 40
9.0
  0
CIRCLE
  5
18C0D
330
18AED
100
AcDbEntity
  8
HASHIRA
100
AcDbCircle
 10
7719.127507899639
 20
8638.243182432324
 30
0.0
 40
9.0
  0
CIRCLE
  5
18C0E
330
18AED
100
AcDbEntity
  8
HASHIRA
100
AcDbCircle
 10
7719.127507899639
 20
6968.243182432328
 30
0.0
 40
9.0
  0
CIRCLE
  5
18C0F
330
18AED
100
AcDbEntity
  8
HASHIRA
100
AcDbCircle
 10
7719.127507899639
 20
6828.243182432327
 30
0.0
 40
9.0
  0
CIRCLE
  5
18C10
330
18AED
100
AcDbEntity
  8
HASHIRA
100
AcDbCircle
 10
5259.12750789964
 20
8778.243182432325
 30
0.0
 40
9.0
  0
CIRCLE
  5
18C11
330
18AED
100
AcDbEntity
  8
HASHIRA
100
AcDbCircle
 10
5259.12750789964
 20
8638.243182432324
 30
0.0
 40
9.0
  0
CIRCLE
  5
18C12
330
18AED
100
AcDbEntity
  8
HASHIRA
100
AcDbCircle
 10
5259.12750789964
 20
6968.243182432328
 30
0.0
 40
9.0
  0
CIRCLE
  5
18C13
330
18AED
100
AcDbEntity
  8
HASHIRA
100
AcDbCircle
 10
5259.12750789964
 20
6828.243182432327
 30
0.0
 40
9.0
  0
LINE
  5
18C31
330
18AED
100
AcDbEntity
  8
1PL-M1
100
AcDbLine
 10
4799.797051267463
 20
2428.172125878786
 30
0.0
 11
4799.797051267463
 21
4175.485411556191
 31
0.0
  0
LINE
  5
18C32
330
18AED
100
AcDbEntity
  8
KISO
100
AcDbLine
 10
6082.193774006775
 20
3456.684839419605
 30
0.0
 11
4851.797051267459
 21
3456.684839419605
 31
0.0
  0
LINE
  5
18C33
330
18AED
100
AcDbEntity
  8
KISO
100
AcDbLine
 10
6082.193774006775
 20
3314.284839419603
 30
0.0
 11
4851.797051267459
 21
3314.284839419602
 31
0.0
  0
LINE
  5
18C34
330
18AED
100
AcDbEntity
  8
HATCH
100
AcDbLine
 10
5031.155511458886
 20
3456.684839419605
 30
0.0
 11
4888.755511458894
 21
3314.284839419605
 31
0.0
  0
LINE
  5
18C35
330
18AED
100
AcDbEntity
  8
U3
100
AcDbLine
 10
3353.961658022964
 20
3376.684839419603
 30
0.0
 11
3521.961658022965
 21
3208.684839419607
 31
0.0
  0
LINE
  5
18C36
330
18AED
100
AcDbEntity
  8
U3
100
AcDbLine
 10
3303.049969777532
 20
3325.773151174173
 30
0.0
 11
3420.1382815321
 21
3208.684839419603
 31
0.0
  0
LINE
  5
18C37
330
18AED
100
AcDbEntity
  8
U3
100
AcDbLine
 10
3589.820095533321
 20
3376.684839419604
 30
0.0
 11
3017.961658022965
 21
3376.684839419604
 31
0.0
  0
LINE
  5
18C38
330
18AED
100
AcDbEntity
  8
U3
100
AcDbLine
 10
3084.1382815321
 20
3310.508215910466
 30
0.0
 11
3150.314905041233
 21
3376.684839419601
 31
0.0
  0
LINE
  5
18C39
330
18AED
100
AcDbEntity
  8
U3
100
AcDbLine
 10
3017.961658022965
 20
3376.684839419601
 30
0.0
 11
3185.961658022964
 21
3208.684839419606
 31
0.0
  0
LINE
  5
18C3A
330
18AED
100
AcDbEntity
  8
U3
100
AcDbLine
 10
3135.049969777532
 20
3259.596527665037
 30
0.0
 11
3252.1382815321
 21
3376.684839419601
 31
0.0
  0
LINE
  5
18C3B
330
18AED
100
AcDbEntity
  8
U3
100
AcDbLine
 10
3185.961658022964
 20
3208.684839419606
 30
0.0
 11
3353.961658022964
 21
3376.684839419603
 31
0.0
  0
LINE
  5
18C3C
330
18AED
100
AcDbEntity
  8
U3
100
AcDbLine
 10
3252.1382815321
 20
3274.86146292874
 30
0.0
 11
3318.314905041237
 21
3208.684839419603
 31
0.0
  0
LINE
  5
18C3D
330
18AED
100
AcDbEntity
  8
U3
100
AcDbLine
 10
3521.961658022965
 20
3208.684839419607
 30
0.0
 11
3589.820095533321
 21
3276.543276929964
 31
0.0
  0
LINE
  5
18C3E
330
18AED
100
AcDbEntity
  8
U3
100
AcDbLine
 10
3420.1382815321
 20
3310.508215910469
 30
0.0
 11
3486.314905041234
 21
3376.684839419603
 31
0.0
  0
LINE
  5
18C3F
330
18AED
100
AcDbEntity
  8
U3
100
AcDbLine
 10
3471.049969777533
 20
3259.596527665038
 30
0.0
 11
3588.138281532103
 21
3376.684839419603
 31
0.0
  0
LINE
  5
18C40
330
18AED
100
AcDbEntity
  8
HASHIRA
100
AcDbLine
 10
4851.797051267459
 20
3328.6848394196
 30
0.0
 11
4851.797051267459
 21
3718.91804462035
 31
0.0
  0
LINE
  5
18C41
330
18AED
100
AcDbEntity
  8
HASHIRA
100
AcDbLine
 10
4747.797051267458
 20
3718.91804462035
 30
0.0
 11
4747.797051267458
 21
3328.6848394196
 31
0.0
  0
LINE
  5
18C42
330
18AED
100
AcDbEntity
  8
KISO
100
AcDbLine
 10
4747.797051267458
 20
3314.284839419602
 30
0.0
 11
4159.797051267463
 21
3314.284839419602
 31
0.0
  0
LINE
  5
18C43
330
18AED
100
AcDbEntity
  8
U3
100
AcDbLine
 10
4159.797051267463
 20
3376.684839419604
 30
0.0
 11
3909.820095533321
 21
3376.684839419603
 31
0.0
  0
LINE
  5
18C44
330
18AED
100
AcDbEntity
  8
U3
100
AcDbLine
 10
4098.782873409589
 20
3310.508215910469
 30
0.0
 11
4159.797051267463
 21
3371.522393768344
 31
0.0
  0
LINE
  5
18C45
330
18AED
100
AcDbEntity
  8
U3
100
AcDbLine
 10
4032.606249900456
 20
3376.684839419603
 30
0.0
 11
4159.797051267463
 21
3249.494038052592
 31
0.0
  0
LINE
  5
18C46
330
18AED
100
AcDbEntity
  8
U3
100
AcDbLine
 10
3975.765342899848
 20
3331.702369929347
 30
0.0
 11
4098.782873409595
 21
3208.684839419603
 31
0.0
  0
LINE
  5
18C47
330
18AED
100
AcDbEntity
  8
KISO
100
AcDbLine
 10
4747.797051267458
 20
3456.684839419605
 30
0.0
 11
4159.797051267463
 21
3456.684839419605
 31
0.0
  0
LINE
  5
18C48
330
18AED
100
AcDbEntity
  8
KISO
100
AcDbLine
 10
4159.797051267463
 20
3456.684839419608
 30
0.0
 11
4159.797051267463
 21
3314.284839419602
 31
0.0
  0
LINE
  5
18C49
330
18AED
100
AcDbEntity
  8
HATCH
100
AcDbLine
 10
4816.914626963201
 20
3314.284839419602
 30
0.0
 11
4810.197051267465
 21
3307.567263723864
 31
0.0
  0
LINE
  5
18C4A
330
18AED
100
AcDbEntity
  8
KISO
100
AcDbLine
 10
5439.797051267471
 20
3186.284839419601
 30
0.0
 11
6082.193774006775
 21
3186.284839419602
 31
0.0
  0
LINE
  5
18C4B
330
18AED
100
AcDbEntity
  8
HATCH
100
AcDbLine
 10
6038.673087154623
 20
3456.684839419603
 30
0.0
 11
5896.273087154634
 21
3314.284839419605
 31
0.0
  0
LINE
  5
18C4C
330
18AED
100
AcDbEntity
  8
HATCH
100
AcDbLine
 10
6086.190662850363
 20
3456.684839419603
 30
0.0
 11
5943.790662850366
 21
3314.284839419605
 31
0.0
  0
LINE
  5
18C4D
330
18AED
100
AcDbEntity
  8
HATCH
100
AcDbLine
 10
5511.155511458887
 20
3456.684839419605
 30
0.0
 11
5368.755511458889
 21
3314.284839419605
 31
0.0
  0
LINE
  5
18C4E
330
18AED
100
AcDbEntity
  8
HATCH
100
AcDbLine
 10
5558.673087154621
 20
3456.684839419603
 30
0.0
 11
5416.273087154634
 21
3314.284839419605
 31
0.0
  0
LINE
  5
18C4F
330
18AED
100
AcDbEntity
  8
HATCH
100
AcDbLine
 10
5126.190662850362
 20
3456.684839419603
 30
0.0
 11
4983.790662850366
 21
3314.284839419605
 31
0.0
  0
LINE
  5
18C50
330
18AED
100
AcDbEntity
  8
HATCH
100
AcDbLine
 10
5078.673087154623
 20
3456.684839419603
 30
0.0
 11
4936.273087154634
 21
3314.284839419605
 31
0.0
  0
LINE
  5
18C51
330
18AED
100
AcDbEntity
  8
HATCH
100
AcDbLine
 10
5606.190662850362
 20
3456.684839419603
 30
0.0
 11
5463.790662850366
 21
3314.284839419605
 31
0.0
  0
LINE
  5
18C52
330
18AED
100
AcDbEntity
  8
HATCH
100
AcDbLine
 10
5991.155511458885
 20
3456.684839419605
 30
0.0
 11
5848.75551145889
 21
3314.284839419605
 31
0.0
  0
LINE
  5
18C53
330
18AED
100
AcDbEntity
  8
KISO
100
AcDbLine
 10
4159.797051267463
 20
3314.2848394196
 30
0.0
 11
4159.797051267463
 21
2706.284839419602
 31
0.0
  0
LINE
  5
18C54
330
18AED
100
AcDbEntity
  8
KISO
100
AcDbLine
 10
5439.797051267464
 20
3314.2848394196
 30
0.0
 11
5439.797051267464
 21
2706.284839419602
 31
0.0
  0
LINE
  5
18C55
330
18AED
100
AcDbEntity
  8
HATCH
100
AcDbLine
 10
5439.797051267464
 20
3073.167263723862
 30
0.0
 11
5072.914626963208
 21
2706.284839419602
 31
0.0
  0
LINE
  5
18C56
330
18AED
100
AcDbEntity
  8
HATCH
100
AcDbLine
 10
5296.432202658937
 20
3314.284839419602
 30
0.0
 11
4688.432202658947
 21
2706.284839419602
 31
0.0
  0
LINE
  5
18C57
330
18AED
100
AcDbEntity
  8
HATCH
100
AcDbLine
 10
5248.914626963204
 20
3314.284839419602
 30
0.0
 11
4810.197051267465
 21
2875.567263723857
 31
0.0
  0
LINE
  5
18C58
330
18AED
100
AcDbEntity
  8
HATCH
100
AcDbLine
 10
5201.397051267465
 20
3314.284839419602
 30
0.0
 11
4810.197051267465
 21
2923.084839419596
 31
0.0
  0
LINE
  5
18C59
330
18AED
100
AcDbEntity
  8
HATCH
100
AcDbLine
 10
5439.797051267464
 20
3025.649688028125
 30
0.0
 11
5120.432202658947
 21
2706.284839419602
 31
0.0
  0
LINE
  5
18C5A
330
18AED
100
AcDbEntity
  8
HATCH
100
AcDbLine
 10
5439.797051267464
 20
2978.132112332392
 30
0.0
 11
5167.949778354681
 21
2706.284839419602
 31
0.0
  0
LINE
  5
18C5B
330
18AED
100
AcDbEntity
  8
HATCH
100
AcDbLine
 10
4769.397051267475
 20
3314.284839419602
 30
0.0
 11
4161.397051267475
 21
2706.284839419602
 31
0.0
  0
LINE
  5
18C5C
330
18AED
100
AcDbEntity
  8
HATCH
100
AcDbLine
 10
4721.879475571731
 20
3314.284839419602
 30
0.0
 11
4159.797051267463
 21
2752.202415115331
 31
0.0
  0
LINE
  5
18C5D
330
18AED
100
AcDbEntity
  8
HATCH
100
AcDbLine
 10
4789.397051267463
 20
3286.767263723862
 30
0.0
 11
4208.914626963208
 21
2706.284839419602
 31
0.0
  0
LINE
  5
18C5E
330
18AED
100
AcDbEntity
  8
HATCH
100
AcDbLine
 10
4337.397051267472
 20
3314.284839419602
 30
0.0
 11
4159.797051267463
 21
3136.684839419597
 31
0.0
  0
LINE
  5
18C5F
330
18AED
100
AcDbEntity
  8
HATCH
100
AcDbLine
 10
4242.361899876001
 20
3314.284839419602
 30
0.0
 11
4159.797051267463
 21
3231.719990811068
 31
0.0
  0
LINE
  5
18C60
330
18AED
100
AcDbEntity
  8
HATCH
100
AcDbLine
 10
4289.879475571739
 20
3314.284839419602
 30
0.0
 11
4159.797051267463
 21
3184.202415115327
 31
0.0
  0
LINE
  5
18C61
330
18AED
100
AcDbEntity
  8
HATCH
100
AcDbLine
 10
4789.397051267463
 20
2902.284839419595
 30
0.0
 11
4751.797051267482
 21
2864.684839419608
 31
0.0
  0
LINE
  5
18C62
330
18AED
100
AcDbEntity
  8
HATCH
100
AcDbLine
 10
4735.797051267462
 20
2848.684839419589
 30
0.0
 11
4593.397051267474
 21
2706.284839419602
 31
0.0
  0
LINE
  5
18C63
330
18AED
100
AcDbEntity
  8
HATCH
100
AcDbLine
 10
5439.797051267464
 20
3280.436002075317
 30
0.0
 11
5459.339686619942
 21
3314.284839419602
 31
0.0
  0
LINE
  5
18C64
330
18AED
100
AcDbEntity
  8
U3
100
AcDbLine
 10
3924.853654654415
 20
3280.790681683919
 30
0.0
 11
3996.959496918732
 21
3208.684839419603
 31
0.0
  0
LINE
  5
18C65
330
18AED
100
AcDbEntity
  8
U3
100
AcDbLine
 10
3909.820095533321
 20
3265.757122562824
 30
0.0
 11
4020.747812390101
 21
3376.684839419601
 31
0.0
  0
LINE
  5
18C66
330
18AED
100
AcDbEntity
  8
HATCH
100
AcDbLine
 10
4778.514626963221
 20
2843.884839419607
 30
0.0
 11
4640.914626963214
 21
2706.284839419602
 31
0.0
  0
LINE
  5
18C67
330
18AED
100
AcDbEntity
  8
HATCH
100
AcDbLine
 10
4646.190662850361
 20
3456.684839419603
 30
0.0
 11
4503.790662850366
 21
3314.284839419605
 31
0.0
  0
LINE
  5
18C68
330
18AED
100
AcDbEntity
  8
HATCH
100
AcDbLine
 10
4598.673087154621
 20
3456.684839419603
 30
0.0
 11
4456.273087154634
 21
3314.284839419605
 31
0.0
  0
LINE
  5
18C69
330
18AED
100
AcDbEntity
  8
HATCH
100
AcDbLine
 10
4551.155511458886
 20
3456.684839419605
 30
0.0
 11
4408.755511458894
 21
3314.284839419605
 31
0.0
  0
LINE
  5
18C6A
330
18AED
100
AcDbEntity
  8
SUNPOU
100
AcDbLine
 10
4799.797051267463
 20
4130.485411556192
 30
0.0
 11
6225.027558517715
 21
4130.485411556192
 31
0.0
  0
TEXT
  5
18C6B
330
18AED
100
AcDbEntity
  8
SUNPOU
100
AcDbText
 10
5585.624750407928
 20
4175.485411556191
 30
0.0
 40
90.0
  1
2460
 41
0.6666666666666666
  7
00
 72
     4
 11
5699.910464693643
 21
4220.485411556191
 31
0.0
100
AcDbText
  0
LINE
  5
18C6C
330
18AED
100
AcDbEntity
  8
KISO
100
AcDbLine
 10
5599.797051267461
 20
2706.284839419602
 30
0.0
 11
5599.797051267461
 21
2546.284839419602
 31
0.0
  0
LINE
  5
18C6D
330
18AED
100
AcDbEntity
  8
HATCH
100
AcDbLine
 10
4827.726846493639
 20
2546.284839419602
 30
0.0
 11
4920.102889160304
 21
2706.284839419602
 31
0.0
  0
LINE
  5
18C6E
330
18AED
100
AcDbEntity
  8
HATCH
100
AcDbLine
 10
4866.769555826969
 20
2706.284839419602
 30
0.0
 11
4893.436222493637
 21
2660.096816752937
 31
0.0
  0
LINE
  5
18C6F
330
18AED
100
AcDbEntity
  8
HATCH
100
AcDbLine
 10
4854.393513160305
 20
2592.472860752933
 30
0.0
 11
4881.06017982697
 21
2546.284839419602
 31
0.0
  0
LINE
  5
18C70
330
18AED
100
AcDbEntity
  8
HATCH
100
AcDbLine
 10
4654.393513160305
 20
2592.472860752933
 30
0.0
 11
4681.06017982697
 21
2546.284839419602
 31
0.0
  0
LINE
  5
18C71
330
18AED
100
AcDbEntity
  8
HATCH
100
AcDbLine
 10
4666.769555826969
 20
2706.284839419602
 30
0.0
 11
4693.436222493637
 21
2660.096816752937
 31
0.0
  0
LINE
  5
18C72
330
18AED
100
AcDbEntity
  8
HATCH
100
AcDbLine
 10
4454.393513160304
 20
2592.472860752933
 30
0.0
 11
4481.06017982697
 21
2546.284839419602
 31
0.0
  0
LINE
  5
18C73
330
18AED
100
AcDbEntity
  8
HATCH
100
AcDbLine
 10
4427.726846493636
 20
2546.284839419602
 30
0.0
 11
4520.102889160303
 21
2706.284839419602
 31
0.0
  0
LINE
  5
18C74
330
18AED
100
AcDbEntity
  8
HATCH
100
AcDbLine
 10
4466.76955582697
 20
2706.284839419602
 30
0.0
 11
4493.436222493635
 21
2660.096816752937
 31
0.0
  0
LINE
  5
18C75
330
18AED
100
AcDbEntity
  8
KISO
100
AcDbLine
 10
3999.797051267461
 20
2706.284839419602
 30
0.0
 11
3999.797051267462
 21
2546.284839419602
 31
0.0
  0
LINE
  5
18C76
330
18AED
100
AcDbEntity
  8
HATCH
100
AcDbLine
 10
4254.393513160304
 20
2592.472860752933
 30
0.0
 11
4281.060179826972
 21
2546.284839419602
 31
0.0
  0
LINE
  5
18C77
330
18AED
100
AcDbEntity
  8
HATCH
100
AcDbLine
 10
4266.76955582697
 20
2706.284839419602
 30
0.0
 11
4293.436222493635
 21
2660.096816752937
 31
0.0
  0
LINE
  5
18C78
330
18AED
100
AcDbEntity
  8
HATCH
100
AcDbLine
 10
4227.726846493637
 20
2546.284839419602
 30
0.0
 11
4320.102889160303
 21
2706.284839419602
 31
0.0
  0
LINE
  5
18C79
330
18AED
100
AcDbEntity
  8
HATCH
100
AcDbLine
 10
4627.726846493636
 20
2546.284839419602
 30
0.0
 11
4720.102889160303
 21
2706.284839419602
 31
0.0
  0
LINE
  5
18C7A
330
18AED
100
AcDbEntity
  8
KISO
100
AcDbLine
 10
5599.797051267461
 20
2706.284839419602
 30
0.0
 11
3999.797051267461
 21
2706.284839419602
 31
0.0
  0
LINE
  5
18C7B
330
18AED
100
AcDbEntity
  8
KISO
100
AcDbLine
 10
3999.797051267462
 20
2546.284839419602
 30
0.0
 11
5599.797051267461
 21
2546.284839419602
 31
0.0
  0
LINE
  5
18C7C
330
18AED
100
AcDbEntity
  8
HATCH
100
AcDbLine
 10
5066.76955582697
 20
2706.284839419602
 30
0.0
 11
5093.436222493636
 21
2660.096816752937
 31
0.0
  0
LINE
  5
18C7D
330
18AED
100
AcDbEntity
  8
HATCH
100
AcDbLine
 10
5027.726846493639
 20
2546.284839419602
 30
0.0
 11
5120.102889160303
 21
2706.284839419602
 31
0.0
  0
LINE
  5
18C7E
330
18AED
100
AcDbEntity
  8
HATCH
100
AcDbLine
 10
5054.393513160305
 20
2592.472860752933
 30
0.0
 11
5081.06017982697
 21
2546.284839419602
 31
0.0
  0
LINE
  5
18C7F
330
18AED
100
AcDbEntity
  8
HATCH
100
AcDbLine
 10
5227.726846493639
 20
2546.284839419602
 30
0.0
 11
5320.102889160303
 21
2706.284839419602
 31
0.0
  0
LINE
  5
18C80
330
18AED
100
AcDbEntity
  8
HATCH
100
AcDbLine
 10
5266.769555826971
 20
2706.284839419602
 30
0.0
 11
5293.436222493635
 21
2660.096816752937
 31
0.0
  0
LINE
  5
18C81
330
18AED
100
AcDbEntity
  8
HATCH
100
AcDbLine
 10
5254.393513160305
 20
2592.472860752933
 30
0.0
 11
5281.060179826972
 21
2546.284839419602
 31
0.0
  0
LINE
  5
18C82
330
18AED
100
AcDbEntity
  8
HATCH
100
AcDbLine
 10
4066.76955582697
 20
2706.284839419602
 30
0.0
 11
4093.436222493635
 21
2660.096816752937
 31
0.0
  0
LINE
  5
18C83
330
18AED
100
AcDbEntity
  8
HATCH
100
AcDbLine
 10
4027.726846493638
 20
2546.284839419602
 30
0.0
 11
4120.102889160301
 21
2706.284839419602
 31
0.0
  0
LINE
  5
18C84
330
18AED
100
AcDbEntity
  8
HATCH
100
AcDbLine
 10
4054.393513160305
 20
2592.472860752933
 30
0.0
 11
4081.060179826971
 21
2546.284839419602
 31
0.0
  0
TEXT
  5
18C85
330
18AED
100
AcDbEntity
  8
SUNPOU
100
AcDbText
 10
3070.061516132469
 20
3511.684839419604
 30
0.0
 40
90.0
  1
G.L
 41
0.6700000000000001
  7
01
 72
     4
 11
3141.847230418183
 21
3556.684839419605
 31
0.0
100
AcDbText
  0
LINE
  5
18C86
330
18AED
100
AcDbEntity
  8
SUNPOU
100
AcDbLine
 10
3193.80875464525
 20
3466.684839419605
 30
0.0
 11
3089.885706191117
 21
3466.684839419605
 31
0.0
  0
LINE
  5
18C87
330
18AED
100
AcDbEntity
  8
SUNPOU
100
AcDbLine
 10
3089.885706191117
 20
3466.684839419605
 30
0.0
 11
3141.847230418183
 21
3376.684839419604
 31
0.0
  0
LINE
  5
18C88
330
18AED
100
AcDbEntity
  8
SUNPOU
100
AcDbLine
 10
3141.847230418183
 20
3376.684839419604
 30
0.0
 11
3193.80875464525
 21
3466.684839419605
 31
0.0
  0
TEXT
  5
18C89
330
18AED
100
AcDbEntity
  8
HIKIDASHI
100
AcDbText
 10
4876.000654146238
 20
1664.635820576935
 30
0.0
 40
90.0
  1
断 面
  7
01
100
AcDbText
  0
LINE
  5
18C8A
330
18AED
100
AcDbEntity
  8
HIKIDASHI
100
AcDbLine
 10
4451.983374649677
 20
1619.635820576936
 30
0.0
 11
5147.610727885247
 21
1619.635820576936
 31
0.0
  0
LINE
  5
18C8B
330
18AED
100
AcDbEntity
  8
HIKIDASHI
100
AcDbLine
 10
4451.983374649677
 20
1589.635820576935
 30
0.0
 11
5147.610727885247
 21
1589.635820576935
 31
0.0
  0
TEXT
  5
18C8C
330
18AED
100
AcDbEntity
  8
HIKIDASHI
100
AcDbText
 10
4481.983374649677
 20
1664.635820576935
 30
0.0
 40
90.0
  1
A  ~  A'
 41
0.6700000000000001
  7
00
100
AcDbText
  0
TEXT
  5
18C8D
330
18AED
100
AcDbEntity
  8
HIKIDASHI
100
AcDbText
 10
5718.705531692625
 20
2949.11470702088
 30
0.0
 40
90.0
  1
敷砂利又は砕石
  7
01
 72
     2
 11
6450.705531692626
 21
2994.11470702088
 31
0.0
100
AcDbText
 73
     2
  0
LINE
  5
18C8E
330
18AED
100
AcDbEntity
  8
HIKIDASHI
100
AcDbLine
 10
6475.935832338305
 20
2904.11470702088
 30
0.0
 11
5674.871662611158
 21
2904.11470702088
 31
0.0
  0
TEXT
  5
18C8F
330
18AED
100
AcDbEntity
  8
HIKIDASHI
100
AcDbText
 10
5843.40570439457
 20
2393.304238552882
 30
0.0
 40
90.0
  1
砕　石
  7
01
 72
     2
 11
6143.40570439457
 21
2438.304238552882
 31
0.0
100
AcDbText
 73
     2
  0
LINE
  5
18C90
330
18AED
100
AcDbEntity
  8
HIKIDASHI
100
AcDbLine
 10
6185.104473630285
 20
2348.304238552882
 30
0.0
 11
5816.338096802661
 21
2348.304238552882
 31
0.0
  0
CIRCLE
  5
18C91
330
18AED
100
AcDbEntity
  8
BOLT
100
AcDbCircle
 10
8580.123251791111
 20
3419.884839419607
 30
0.0
 40
13.2
  0
CIRCLE
  5
18C92
330
18AED
100
AcDbEntity
  8
BOLT
100
AcDbCircle
 10
8580.123251791111
 20
3419.884839419607
 30
0.0
 40
16.8
  0
CIRCLE
  5
18C93
330
18AED
100
AcDbEntity
  8
BOLT
100
AcDbCircle
 10
8580.123251791111
 20
3355.884839419607
 30
0.0
 40
16.8
  0
CIRCLE
  5
18C94
330
18AED
100
AcDbEntity
  8
BOLT
100
AcDbCircle
 10
8580.123251791111
 20
3355.884839419607
 30
0.0
 40
13.2
  0
LINE
  5
18C95
330
18AED
100
AcDbEntity
  8
KISO
100
AcDbLine
 10
9862.519974530416
 20
3456.684839419605
 30
0.0
 11
8632.123251791107
 21
3456.684839419605
 31
0.0
  0
LINE
  5
18C96
330
18AED
100
AcDbEntity
  8
KISO
100
AcDbLine
 10
9220.123251791108
 20
3186.284839419601
 30
0.0
 11
9862.519974530416
 21
3186.284839419602
 31
0.0
  0
LINE
  5
18C97
330
18AED
100
AcDbEntity
  8
KISO
100
AcDbLine
 10
8528.123251791111
 20
3314.284839419602
 30
0.0
 11
7940.12325179111
 21
3314.284839419602
 31
0.0
  0
LINE
  5
18C98
330
18AED
100
AcDbEntity
  8
KISO
100
AcDbLine
 10
8528.123251791111
 20
3456.684839419605
 30
0.0
 11
8260.12325179111
 21
3456.684839419605
 31
0.0
  0
LINE
  5
18C99
330
18AED
100
AcDbEntity
  8
KISO
100
AcDbLine
 10
8260.12325179111
 20
3456.684839419607
 30
0.0
 11
8260.12325179111
 21
3314.284839419602
 31
0.0
  0
LINE
  5
18C9A
330
18AED
100
AcDbEntity
  8
KISO
100
AcDbLine
 10
7940.12325179111
 20
3314.284839419602
 30
0.0
 11
7940.12325179111
 21
3186.284839419602
 31
0.0
  0
LINE
  5
18C9B
330
18AED
100
AcDbEntity
  8
HASHIRA
100
AcDbLine
 10
8632.123251791107
 20
3328.684839419607
 30
0.0
 11
8632.123251791101
 21
3583.485411556191
 31
0.0
  0
LINE
  5
18C9C
330
18AED
100
AcDbEntity
  8
HASHIRA
100
AcDbLine
 10
8528.123251791111
 20
3583.485411556191
 30
0.0
 11
8528.123251791111
 21
3328.684839419607
 31
0.0
  0
LINE
  5
18C9D
330
18AED
100
AcDbEntity
  8
HATCH
100
AcDbLine
 10
8331.481711982535
 20
3456.684839419605
 30
0.0
 11
8260.12325179111
 21
3385.326379228178
 31
0.0
  0
LINE
  5
18C9E
330
18AED
100
AcDbEntity
  8
HATCH
100
AcDbLine
 10
8426.516863374008
 20
3456.684839419605
 30
0.0
 11
8284.116863374006
 21
3314.284839419602
 31
0.0
  0
LINE
  5
18C9F
330
18AED
100
AcDbEntity
  8
HATCH
100
AcDbLine
 10
8378.999287678274
 20
3456.684839419605
 30
0.0
 11
8260.12325179111
 21
3337.808803532439
 31
0.0
  0
LINE
  5
18CA0
330
18AED
100
AcDbEntity
  8
1PL-S1
100
AcDbLine
 10
8468.12325179111
 20
3304.684839419606
 30
0.0
 11
8468.12325179111
 21
3333.484839419608
 31
0.0
  0
LINE
  5
18CA1
330
18AED
100
AcDbEntity
  8
HATCH
100
AcDbLine
 10
8811.481711982535
 20
3456.684839419605
 30
0.0
 11
8669.08171198253
 21
3314.284839419603
 31
0.0
  0
LINE
  5
18CA2
330
18AED
100
AcDbEntity
  8
HATCH
100
AcDbLine
 10
8858.999287678274
 20
3456.684839419605
 30
0.0
 11
8716.599287678276
 21
3314.284839419602
 31
0.0
  0
LINE
  5
18CA3
330
18AED
100
AcDbEntity
  8
1PL-S1
100
AcDbLine
 10
8692.123251791111
 20
3304.684839419603
 30
0.0
 11
8692.123251791111
 21
3333.484839419603
 31
0.0
  0
LINE
  5
18CA4
330
18AED
100
AcDbEntity
  8
HATCH
100
AcDbLine
 10
8906.516863374006
 20
3456.684839419605
 30
0.0
 11
8764.116863374004
 21
3314.284839419602
 31
0.0
  0
LINE
  5
18CA5
330
18AED
100
AcDbEntity
  8
HATCH
100
AcDbLine
 10
9291.481711982534
 20
3456.684839419605
 30
0.0
 11
9149.081711982535
 21
3314.284839419602
 31
0.0
  0
LINE
  5
18CA6
330
18AED
100
AcDbEntity
  8
HATCH
100
AcDbLine
 10
9338.999287678275
 20
3456.684839419605
 30
0.0
 11
9196.599287678276
 21
3314.284839419602
 31
0.0
  0
LINE
  5
18CA7
330
18AED
100
AcDbEntity
  8
HATCH
100
AcDbLine
 10
9386.516863374007
 20
3456.684839419605
 30
0.0
 11
9244.116863374003
 21
3314.284839419602
 31
0.0
  0
LINE
  5
18CA8
330
18AED
100
AcDbEntity
  8
HATCH
100
AcDbLine
 10
9866.516863374007
 20
3456.684839419605
 30
0.0
 11
9724.116863374
 21
3314.284839419602
 31
0.0
  0
LINE
  5
18CA9
330
18AED
100
AcDbEntity
  8
HATCH
100
AcDbLine
 10
9818.999287678275
 20
3456.684839419605
 30
0.0
 11
9676.599287678278
 21
3314.284839419602
 31
0.0
  0
LINE
  5
18CAA
330
18AED
100
AcDbEntity
  8
HATCH
100
AcDbLine
 10
9771.481711982536
 20
3456.684839419605
 30
0.0
 11
9629.081711982532
 21
3314.284839419602
 31
0.0
  0
LINE
  5
18CAB
330
18AED
100
AcDbEntity
  8
KISO
100
AcDbLine
 10
9862.519974530421
 20
3314.284839419602
 30
0.0
 11
7940.12325179111
 21
3314.284839419602
 31
0.0
  0
LINE
  5
18CAC
330
18AED
100
AcDbEntity
  8
HATCH
100
AcDbLine
 10
9220.123251791108
 20
3280.436002076059
 30
0.0
 11
9239.665887143591
 21
3314.284839420345
 31
0.0
  0
LINE
  5
18CAD
330
18AED
100
AcDbEntity
  8
HATCH
100
AcDbLine
 10
9220.123251791108
 20
3073.167263723867
 30
0.0
 11
8853.240827486855
 21
2706.284839419607
 31
0.0
  0
LINE
  5
18CAE
330
18AED
100
AcDbEntity
  8
HATCH
100
AcDbLine
 10
9220.123251791108
 20
3025.64968802813
 30
0.0
 11
8900.758403182591
 21
2706.284839419607
 31
0.0
  0
LINE
  5
18CAF
330
18AED
100
AcDbEntity
  8
HATCH
100
AcDbLine
 10
9220.123251791108
 20
2978.132112332395
 30
0.0
 11
8948.275978878326
 21
2706.284839419607
 31
0.0
  0
LINE
  5
18CB0
330
18AED
100
AcDbEntity
  8
HATCH
100
AcDbLine
 10
9029.240827486844
 20
3314.284839419602
 30
0.0
 11
8702.523251791111
 21
2987.567263723864
 31
0.0
  0
LINE
  5
18CB1
330
18AED
100
AcDbEntity
  8
HATCH
100
AcDbLine
 10
9076.758403182576
 20
3314.284839419603
 30
0.0
 11
8702.523251791111
 21
2940.049688028133
 31
0.0
  0
LINE
  5
18CB2
330
18AED
100
AcDbEntity
  8
HATCH
100
AcDbLine
 10
8981.723251791107
 20
3314.284839419602
 30
0.0
 11
8702.523251791111
 21
3035.084839419601
 31
0.0
  0
LINE
  5
18CB3
330
18AED
100
AcDbEntity
  8
KISO
100
AcDbLine
 10
9220.123251791108
 20
3314.284839419605
 30
0.0
 11
9220.123251791108
 21
2706.284839419607
 31
0.0
  0
LINE
  5
18CB4
330
18AED
100
AcDbEntity
  8
KISO
100
AcDbLine
 10
7940.12325179111
 20
3314.284839419605
 30
0.0
 11
7940.12325179111
 21
2706.284839419607
 31
0.0
  0
LINE
  5
18CB5
330
18AED
100
AcDbEntity
  8
HATCH
100
AcDbLine
 10
8117.72325179111
 20
3314.284839419602
 30
0.0
 11
7940.12325179111
 21
3136.684839419602
 31
0.0
  0
LINE
  5
18CB6
330
18AED
100
AcDbEntity
  8
HATCH
100
AcDbLine
 10
8070.205676095381
 20
3314.284839419603
 30
0.0
 11
7940.12325179111
 21
3184.202415115334
 31
0.0
  0
LINE
  5
18CB7
330
18AED
100
AcDbEntity
  8
HATCH
100
AcDbLine
 10
8681.72325179111
 20
3014.284839419602
 30
0.0
 11
8373.723251791124
 21
2706.284839419607
 31
0.0
  0
LINE
  5
18CB8
330
18AED
100
AcDbEntity
  8
HATCH
100
AcDbLine
 10
8681.72325179111
 20
2966.767263723863
 30
0.0
 11
8421.24082748686
 21
2706.284839419607
 31
0.0
  0
LINE
  5
18CB9
330
18AED
100
AcDbEntity
  8
HATCH
100
AcDbLine
 10
8681.72325179111
 20
2919.249688028131
 30
0.0
 11
8468.75840318259
 21
2706.284839419607
 31
0.0
  0
LINE
  5
18CBA
330
18AED
100
AcDbEntity
  8
HATCH
100
AcDbLine
 10
8502.205676095377
 20
3314.284839419602
 30
0.0
 11
8478.523251791115
 21
3290.602415115337
 31
0.0
  0
LINE
  5
18CBB
330
18AED
100
AcDbEntity
  8
HATCH
100
AcDbLine
 10
8549.723251791114
 20
3314.284839419602
 30
0.0
 11
8478.523251791115
 21
3243.084839419598
 31
0.0
  0
LINE
  5
18CBC
330
18AED
100
AcDbEntity
  8
HATCH
100
AcDbLine
 10
8597.240827486848
 20
3314.284839419602
 30
0.0
 11
8478.523251791115
 21
3195.567263723865
 31
0.0
  0
LINE
  5
18CBD
330
18AED
100
AcDbEntity
  8
HATCH
100
AcDbLine
 10
8022.688100399646
 20
3314.284839419602
 30
0.0
 11
7940.12325179111
 21
3231.719990811074
 31
0.0
  0
LINE
  5
18CBE
330
18AED
100
AcDbEntity
  8
U3
100
AcDbLine
 10
8015.109073933235
 20
3328.684839419603
 30
0.0
 11
8063.109073933231
 21
3376.684839419604
 31
0.0
  0
LINE
  5
18CBF
330
18AED
100
AcDbEntity
  8
U3
100
AcDbLine
 10
8116.932450424092
 20
3328.684839419603
 30
0.0
 11
8164.9324504241
 21
3376.684839419605
 31
0.0
  0
LINE
  5
18CC0
330
18AED
100
AcDbEntity
  8
U3
100
AcDbLine
 10
8164.932450424096
 20
3376.684839419604
 30
0.0
 11
8212.9324504241
 21
3328.684839419603
 31
0.0
  0
LINE
  5
18CC1
330
18AED
100
AcDbEntity
  8
1PL-M1
100
AcDbLine
 10
8580.123251791111
 20
2428.17212587879
 30
0.0
 11
8580.123251791111
 21
4175.485411556194
 31
0.0
  0
LINE
  5
18CC2
330
18AED
100
AcDbEntity
  8
KISO
100
AcDbLine
 10
9380.123251791109
 20
2706.284839419607
 30
0.0
 11
9380.123251791109
 21
2546.284839419602
 31
0.0
  0
LINE
  5
18CC3
330
18AED
100
AcDbEntity
  8
HATCH
100
AcDbLine
 10
8608.053047017286
 20
2546.284839419607
 30
0.0
 11
8700.42908968395
 21
2706.284839419607
 31
0.0
  0
LINE
  5
18CC4
330
18AED
100
AcDbEntity
  8
HATCH
100
AcDbLine
 10
8647.095756350616
 20
2706.284839419607
 30
0.0
 11
8673.762423017283
 21
2660.096816752943
 31
0.0
  0
LINE
  5
18CC5
330
18AED
100
AcDbEntity
  8
HATCH
100
AcDbLine
 10
8634.719713683949
 20
2592.472860752937
 30
0.0
 11
8661.386380350618
 21
2546.284839419607
 31
0.0
  0
LINE
  5
18CC6
330
18AED
100
AcDbEntity
  8
HATCH
100
AcDbLine
 10
8434.71971368395
 20
2592.472860752937
 30
0.0
 11
8461.386380350617
 21
2546.284839419607
 31
0.0
  0
LINE
  5
18CC7
330
18AED
100
AcDbEntity
  8
HATCH
100
AcDbLine
 10
8447.095756350616
 20
2706.284839419607
 30
0.0
 11
8473.762423017282
 21
2660.096816752943
 31
0.0
  0
LINE
  5
18CC8
330
18AED
100
AcDbEntity
  8
HATCH
100
AcDbLine
 10
8234.719713683949
 20
2592.472860752937
 30
0.0
 11
8261.386380350618
 21
2546.284839419607
 31
0.0
  0
LINE
  5
18CC9
330
18AED
100
AcDbEntity
  8
HATCH
100
AcDbLine
 10
8208.053047017285
 20
2546.284839419607
 30
0.0
 11
8300.42908968395
 21
2706.284839419607
 31
0.0
  0
LINE
  5
18CCA
330
18AED
100
AcDbEntity
  8
HATCH
100
AcDbLine
 10
8247.095756350615
 20
2706.284839419607
 30
0.0
 11
8273.762423017283
 21
2660.096816752943
 31
0.0
  0
LINE
  5
18CCB
330
18AED
100
AcDbEntity
  8
KISO
100
AcDbLine
 10
7780.123251791109
 20
2706.284839419607
 30
0.0
 11
7780.123251791109
 21
2546.284839419602
 31
0.0
  0
LINE
  5
18CCC
330
18AED
100
AcDbEntity
  8
HATCH
100
AcDbLine
 10
8034.719713683951
 20
2592.472860752937
 30
0.0
 11
8061.386380350617
 21
2546.284839419607
 31
0.0
  0
LINE
  5
18CCD
330
18AED
100
AcDbEntity
  8
HATCH
100
AcDbLine
 10
8047.095756350616
 20
2706.284839419607
 30
0.0
 11
8073.762423017283
 21
2660.096816752943
 31
0.0
  0
LINE
  5
18CCE
330
18AED
100
AcDbEntity
  8
HATCH
100
AcDbLine
 10
8008.053047017282
 20
2546.284839419607
 30
0.0
 11
8100.429089683949
 21
2706.284839419607
 31
0.0
  0
LINE
  5
18CCF
330
18AED
100
AcDbEntity
  8
HATCH
100
AcDbLine
 10
8408.053047017286
 20
2546.284839419607
 30
0.0
 11
8500.429089683951
 21
2706.284839419607
 31
0.0
  0
LINE
  5
18CD0
330
18AED
100
AcDbEntity
  8
KISO
100
AcDbLine
 10
7780.123251791109
 20
2546.284839419602
 30
0.0
 11
9380.123251791109
 21
2546.284839419602
 31
0.0
  0
LINE
  5
18CD1
330
18AED
100
AcDbEntity
  8
HATCH
100
AcDbLine
 10
8847.095756350617
 20
2706.284839419607
 30
0.0
 11
8873.762423017282
 21
2660.096816752943
 31
0.0
  0
LINE
  5
18CD2
330
18AED
100
AcDbEntity
  8
HATCH
100
AcDbLine
 10
8808.053047017287
 20
2546.284839419607
 30
0.0
 11
8900.429089683951
 21
2706.284839419607
 31
0.0
  0
LINE
  5
18CD3
330
18AED
100
AcDbEntity
  8
HATCH
100
AcDbLine
 10
8834.71971368395
 20
2592.472860752937
 30
0.0
 11
8861.386380350618
 21
2546.284839419607
 31
0.0
  0
LINE
  5
18CD4
330
18AED
100
AcDbEntity
  8
HATCH
100
AcDbLine
 10
9008.053047017282
 20
2546.284839419607
 30
0.0
 11
9100.429089683951
 21
2706.284839419607
 31
0.0
  0
LINE
  5
18CD5
330
18AED
100
AcDbEntity
  8
HATCH
100
AcDbLine
 10
9047.095756350616
 20
2706.284839419607
 30
0.0
 11
9073.762423017283
 21
2660.096816752943
 31
0.0
  0
LINE
  5
18CD6
330
18AED
100
AcDbEntity
  8
HATCH
100
AcDbLine
 10
9034.719713683951
 20
2592.472860752937
 30
0.0
 11
9061.386380350617
 21
2546.284839419607
 31
0.0
  0
LINE
  5
18CD7
330
18AED
100
AcDbEntity
  8
HATCH
100
AcDbLine
 10
7847.095756350616
 20
2706.284839419607
 30
0.0
 11
7873.762423017281
 21
2660.096816752943
 31
0.0
  0
LINE
  5
18CD8
330
18AED
100
AcDbEntity
  8
HATCH
100
AcDbLine
 10
7808.053047017286
 20
2546.284839419607
 30
0.0
 11
7900.429089683949
 21
2706.284839419607
 31
0.0
  0
LINE
  5
18CD9
330
18AED
100
AcDbEntity
  8
HATCH
100
AcDbLine
 10
7834.719713683951
 20
2592.472860752937
 30
0.0
 11
7861.386380350618
 21
2546.284839419607
 31
0.0
  0
LINE
  5
18CDA
330
18AED
100
AcDbEntity
  8
SUNPOU
100
AcDbLine
 10
8580.123251791111
 20
4130.485411556196
 30
0.0
 11
10005.35375904135
 21
4130.485411556196
 31
0.0
  0
TEXT
  5
18CDB
330
18AED
100
AcDbEntity
  8
SUNPOU
100
AcDbText
 10
9361.665236645858
 20
4175.485411556197
 30
0.0
 40
90.0
  1
1810
 41
0.6666666666666666
  7
00
 72
     4
 11
9480.236665217288
 21
4220.485411556196
 31
0.0
100
AcDbText
  0
TEXT
  5
18CDC
330
18AED
100
AcDbEntity
  8
SUNPOU
100
AcDbText
 10
6850.387716656114
 20
3511.684839419609
 30
0.0
 40
90.0
  1
G.L
 41
0.6700000000000001
  7
01
 72
     4
 11
6922.173430941829
 21
3556.684839419608
 31
0.0
100
AcDbText
  0
LINE
  5
18CDD
330
18AED
100
AcDbEntity
  8
SUNPOU
100
AcDbLine
 10
6974.134955168897
 20
3466.684839419608
 30
0.0
 11
6870.211906714764
 21
3466.684839419608
 31
0.0
  0
LINE
  5
18CDE
330
18AED
100
AcDbEntity
  8
SUNPOU
100
AcDbLine
 10
6870.211906714764
 20
3466.684839419608
 30
0.0
 11
6922.173430941829
 21
3376.684839419608
 31
0.0
  0
LINE
  5
18CDF
330
18AED
100
AcDbEntity
  8
SUNPOU
100
AcDbLine
 10
6922.173430941829
 20
3376.684839419608
 30
0.0
 11
6974.134955168897
 21
3466.684839419608
 31
0.0
  0
LINE
  5
18CE0
330
18AED
100
AcDbEntity
  8
U3
100
AcDbLine
 10
7134.287858546611
 20
3376.684839419603
 30
0.0
 11
7302.287858546612
 21
3208.684839419607
 31
0.0
  0
LINE
  5
18CE1
330
18AED
100
AcDbEntity
  8
U3
100
AcDbLine
 10
7083.376170301177
 20
3325.773151174173
 30
0.0
 11
7200.464482055746
 21
3208.684839419603
 31
0.0
  0
LINE
  5
18CE2
330
18AED
100
AcDbEntity
  8
U3
100
AcDbLine
 10
7370.146296056971
 20
3376.684839419604
 30
0.0
 11
6798.287858546611
 21
3376.684839419604
 31
0.0
  0
LINE
  5
18CE3
330
18AED
100
AcDbEntity
  8
U3
100
AcDbLine
 10
6864.464482055746
 20
3310.508215910466
 30
0.0
 11
6930.64110556488
 21
3376.684839419601
 31
0.0
  0
LINE
  5
18CE4
330
18AED
100
AcDbEntity
  8
U3
100
AcDbLine
 10
6798.287858546611
 20
3376.684839419601
 30
0.0
 11
6966.287858546611
 21
3208.684839419606
 31
0.0
  0
LINE
  5
18CE5
330
18AED
100
AcDbEntity
  8
U3
100
AcDbLine
 10
6915.376170301178
 20
3259.596527665037
 30
0.0
 11
7032.464482055747
 21
3376.684839419601
 31
0.0
  0
LINE
  5
18CE6
330
18AED
100
AcDbEntity
  8
U3
100
AcDbLine
 10
6966.287858546611
 20
3208.684839419606
 30
0.0
 11
7134.287858546611
 21
3376.684839419603
 31
0.0
  0
LINE
  5
18CE7
330
18AED
100
AcDbEntity
  8
U3
100
AcDbLine
 10
7032.464482055747
 20
3274.86146292874
 30
0.0
 11
7098.641105564884
 21
3208.684839419603
 31
0.0
  0
LINE
  5
18CE8
330
18AED
100
AcDbEntity
  8
U3
100
AcDbLine
 10
7302.287858546612
 20
3208.684839419607
 30
0.0
 11
7370.146296056971
 21
3276.543276929964
 31
0.0
  0
LINE
  5
18CE9
330
18AED
100
AcDbEntity
  8
U3
100
AcDbLine
 10
7200.464482055746
 20
3310.508215910469
 30
0.0
 11
7266.641105564882
 21
3376.684839419603
 31
0.0
  0
LINE
  5
18CEA
330
18AED
100
AcDbEntity
  8
U3
100
AcDbLine
 10
7251.376170301178
 20
3259.596527665038
 30
0.0
 11
7368.464482055746
 21
3376.684839419603
 31
0.0
  0
LINE
  5
18CEB
330
18AED
100
AcDbEntity
  8
U3
100
AcDbLine
 10
8260.12325179111
 20
3376.684839419604
 30
0.0
 11
7690.146296056967
 21
3376.684839419603
 31
0.0
  0
LINE
  5
18CEC
330
18AED
100
AcDbEntity
  8
U3
100
AcDbLine
 10
7879.109073933235
 20
3310.508215910469
 30
0.0
 11
7940.12325179111
 21
3371.522393768344
 31
0.0
  0
LINE
  5
18CED
330
18AED
100
AcDbEntity
  8
U3
100
AcDbLine
 10
7812.932450424101
 20
3376.684839419603
 30
0.0
 11
7940.12325179111
 21
3249.494038052592
 31
0.0
  0
LINE
  5
18CEE
330
18AED
100
AcDbEntity
  8
U3
100
AcDbLine
 10
7756.091543423494
 20
3331.702369929347
 30
0.0
 11
7879.109073933242
 21
3208.684839419603
 31
0.0
  0
LINE
  5
18CEF
330
18AED
100
AcDbEntity
  8
U3
100
AcDbLine
 10
7705.179855178061
 20
3280.790681683919
 30
0.0
 11
7777.285697442379
 21
3208.684839419603
 31
0.0
  0
LINE
  5
18CF0
330
18AED
100
AcDbEntity
  8
U3
100
AcDbLine
 10
7690.146296056967
 20
3265.757122562824
 30
0.0
 11
7801.074012913748
 21
3376.684839419601
 31
0.0
  0
LINE
  5
18CF1
330
18AED
100
AcDbEntity
  8
HIKIDASHI
100
AcDbLine
 10
9726.620021984601
 20
3920.485411556196
 30
0.0
 11
9357.853645156977
 21
3920.485411556196
 31
0.0
  0
TEXT
  5
18CF2
330
18AED
100
AcDbEntity
  8
HIKIDASHI
100
AcDbText
 10
9390.92125274889
 20
3965.485411556194
 30
0.0
 40
90.0
  1
土　間
  7
01
 72
     2
 11
9684.921252748893
 21
4010.485411556194
 31
0.0
100
AcDbText
 73
     2
  0
TEXT
  5
18CF3
330
18AED
100
AcDbEntity
  8
SUNPOU
100
AcDbText
 10
9478.587586282396
 20
3591.684839419605
 30
0.0
 40
90.0
  1
F.L
 41
0.6666666666666666
  7
00
 72
     4
 11
9547.159014853825
 21
3636.684839419604
 31
0.0
100
AcDbText
  0
LINE
  5
18CF4
330
18AED
100
AcDbEntity
  8
SUNPOU
100
AcDbLine
 10
9547.159014853825
 20
3456.684839419605
 30
0.0
 11
9599.120539080891
 21
3546.684839419604
 31
0.0
  0
LINE
  5
18CF5
330
18AED
100
AcDbEntity
  8
SUNPOU
100
AcDbLine
 10
9495.197490626756
 20
3546.684839419604
 30
0.0
 11
9547.159014853825
 21
3456.684839419605
 31
0.0
  0
LINE
  5
18CF6
330
18AED
100
AcDbEntity
  8
SUNPOU
100
AcDbLine
 10
9599.120539080891
 20
3546.684839419604
 30
0.0
 11
9495.197490626756
 21
3546.684839419604
 31
0.0
  0
TEXT
  5
18CF7
330
18AED
100
AcDbEntity
  8
HIKIDASHI
100
AcDbText
 10
7011.426786787378
 20
1814.878869270352
 30
0.0
 40
89.55223880597014
  1
x
 41
0.6700000000000001
  7
00
100
AcDbText
  0
TEXT
  5
18CF8
330
18AED
100
AcDbEntity
  8
HIKIDASHI
100
AcDbText
 10
6939.591849597005
 20
1803.088394027939
 30
0.0
 40
67.16417910447761
  1
2
 41
0.6700000000000001
  7
00
100
AcDbText
  0
TEXT
  5
18CF9
330
18AED
100
AcDbEntity
  8
HIKIDASHI
100
AcDbText
 10
6851.699813038081
 20
1830.1144490585
 30
0.0
 40
67.16417910447761
  1
1
 41
0.6700000000000001
  7
00
100
AcDbText
  0
TEXT
  5
18CFA
330
18AED
100
AcDbEntity
  8
HIKIDASHI
100
AcDbText
 10
6777.099002354859
 20
1803.684839419606
 30
0.0
 40
89.55223880597014
  1
W ／
 41
0.6700000000000001
  7
00
100
AcDbText
  0
TEXT
  5
18CFB
330
18AED
100
AcDbEntity
  8
HIKIDASHI
100
AcDbText
 10
7092.562165940511
 20
1803.475853219515
 30
0.0
 40
89.55223880597014
  1
300
 41
0.6700000000000001
  7
00
100
AcDbText
  0
TEXT
  5
18CFC
330
18AED
100
AcDbEntity
  8
HIKIDASHI
100
AcDbText
 10
6777.099002354859
 20
1983.684839419604
 30
0.0
 40
90.0
  1
アンカーボルト
  7
01
100
AcDbText
  0
LINE
  5
18CFD
330
18AED
100
AcDbEntity
  8
HIKIDASHI
100
AcDbLine
 10
6748.019393493152
 20
1938.684839419604
 30
0.0
 11
7568.025406890003
 21
1938.684839419604
 31
0.0
  0
TEXT
  5
18CFE
330
18AED
100
AcDbEntity
  8
HIKIDASHI
100
AcDbText
 10
8262.30957517332
 20
1664.635820576939
 30
0.0
 40
90.0
  1
B  ~  B'
 41
0.6700000000000001
  7
00
100
AcDbText
  0
LINE
  5
18CFF
330
18AED
100
AcDbEntity
  8
HIKIDASHI
100
AcDbLine
 10
8232.309575173323
 20
1589.635820576939
 30
0.0
 11
8927.93692840889
 21
1589.635820576939
 31
0.0
  0
LINE
  5
18D00
330
18AED
100
AcDbEntity
  8
HIKIDASHI
100
AcDbLine
 10
8232.309575173323
 20
1619.635820576939
 30
0.0
 11
8927.93692840889
 21
1619.635820576939
 31
0.0
  0
TEXT
  5
18D01
330
18AED
100
AcDbEntity
  8
HIKIDASHI
100
AcDbText
 10
8656.326854669883
 20
1664.635820576939
 30
0.0
 40
90.0
  1
断 面
  7
01
100
AcDbText
  0
LINE
  5
18D02
330
18AED
100
AcDbEntity
  8
1PL-S1
100
AcDbLine
 10
11185.33837406209
 20
2700.144344053149
 30
0.0
 11
11897.33837406208
 21
2700.144344053149
 31
0.0
  0
LINE
  5
18D03
330
18AED
100
AcDbEntity
  8
U1
100
AcDbLine
 10
11411.33837406209
 20
3642.337036584561
 30
0.0
 11
11411.33837406209
 21
4026.401575763828
 31
0.0
  0
LINE
  5
18D04
330
18AED
100
AcDbEntity
  8
U1
100
AcDbLine
 10
11671.33837406211
 20
3642.337036584561
 30
0.0
 11
11671.33837406211
 21
4026.401575763828
 31
0.0
  0
LINE
  5
18D05
330
18AED
100
AcDbEntity
  8
1PL-S1
100
AcDbLine
 10
11541.33837406209
 20
3578.337036584561
 30
0.0
 11
11541.33837406209
 21
4066.401575763828
 31
0.0
  0
CIRCLE
  5
18D06
330
18AED
100
AcDbEntity
  8
U1
100
AcDbCircle
 10
11541.33837406209
 20
3882.337036584561
 30
0.0
 40
24.0
  0
LINE
  5
18D07
330
18AED
100
AcDbEntity
  8
1PL-S1
100
AcDbLine
 10
11261.33837406209
 20
2624.144344053149
 30
0.0
 11
11261.33837406209
 21
2816.144344053149
 31
0.0
  0
LINE
  5
18D08
330
18AED
100
AcDbEntity
  8
1PL-S1
100
AcDbLine
 10
11821.33837406209
 20
2624.144344053149
 30
0.0
 11
11821.33837406209
 21
2816.144344053149
 31
0.0
  0
LINE
  5
18D09
330
18AED
100
AcDbEntity
  8
1PL-S1
100
AcDbLine
 10
11541.33837406209
 20
2460.144344053149
 30
0.0
 11
11541.33837406209
 21
2940.144344053149
 31
0.0
  0
CIRCLE
  5
18D0A
330
18AED
100
AcDbEntity
  8
U1
100
AcDbCircle
 10
11261.33837406209
 20
2700.144344053149
 30
0.0
 40
36.0
  0
LINE
  5
18D0B
330
18AED
100
AcDbEntity
  8
U1
100
AcDbLine
 10
11671.33837406211
 20
2700.144344053149
 30
0.0
 11
11592.31129530376
 21
2700.144344053149
 31
0.0
  0
CIRCLE
  5
18D0C
330
18AED
100
AcDbEntity
  8
U1
100
AcDbCircle
 10
11821.33837406209
 20
2700.144344053149
 30
0.0
 40
36.0
  0
LINE
  5
18D0D
330
18AED
100
AcDbEntity
  8
1PL-S1
100
AcDbLine
 10
11477.33837406209
 20
3722.337036584561
 30
0.0
 11
11605.33837406209
 21
3722.337036584561
 31
0.0
  0
LINE
  5
18D0E
330
18AED
100
AcDbEntity
  8
1PL-S1
100
AcDbLine
 10
11261.33837406209
 20
3578.337036584562
 30
0.0
 11
11261.33837406207
 21
3682.337036584562
 31
0.0
  0
LINE
  5
18D0F
330
18AED
100
AcDbEntity
  8
1PL-S1
100
AcDbLine
 10
11821.33837406209
 20
3578.337036584562
 30
0.0
 11
11821.33837406209
 21
3682.337036584562
 31
0.0
  0
CIRCLE
  5
18D10
330
18AED
100
AcDbEntity
  8
U1
100
AcDbCircle
 10
11541.33837406209
 20
3722.337036584561
 30
0.0
 40
24.0
  0
LINE
  5
18D11
330
18AED
100
AcDbEntity
  8
1PL-S1
100
AcDbLine
 10
11477.33837406209
 20
3882.337036584561
 30
0.0
 11
11605.33837406209
 21
3882.337036584561
 31
0.0
  0
TEXT
  5
18D12
330
18AED
100
AcDbEntity
  8
SUNPOU
100
AcDbText
 10
10750.05141017947
 20
1674.586261835072
 30
0.0
 40
120.0
  1
柱脚金具詳細図
  7
01
 72
     4
 11
11234.05141017947
 21
1734.586261835072
 31
0.0
100
AcDbText
  0
TEXT
  5
18D13
330
18AED
100
AcDbEntity
  8
SUNPOU
100
AcDbText
 10
12146.16023934792
 20
1672.124723373534
 30
0.0
 40
73.84615384615384
  1
/
 41
0.6700000000000001
  7
00
 11
12146.16023934792
 21
1662.27856952738
 31
0.0
100
AcDbText
 73
     1
  0
TEXT
  5
18D14
330
18AED
100
AcDbEntity
  8
SUNPOU
100
AcDbText
 10
12210.1096823023
 20
1653.663184911995
 30
0.0
 40
73.84615384615384
  1
10
 41
0.6700000000000001
  7
00
 11
12210.1096823023
 21
1643.817031065841
 31
0.0
100
AcDbText
 73
     1
  0
TEXT
  5
18D15
330
18AED
100
AcDbEntity
  8
SUNPOU
100
AcDbText
 10
12097.75411203255
 20
1690.586261835072
 30
0.0
 40
73.84615384615384
  1
1
 41
0.6700000000000001
  7
00
 11
12097.75411203255
 21
1680.740107988918
 31
0.0
100
AcDbText
 73
     1
  0
TEXT
  5
18D16
330
18AED
100
AcDbEntity
  8
SUNPOU
100
AcDbText
 10
11778.05141017947
 20
1674.586261835072
 30
0.0
 40
92.30769230769228
  1
（ S = 　　  ）
 41
0.6700000000000001
  7
00
 11
11778.05141017947
 21
1662.27856952738
 31
0.0
100
AcDbText
 73
     1
  0
LINE
  5
18D17
330
18AED
100
AcDbEntity
  8
HIKIDASHI
100
AcDbLine
 10
12073.23363223807
 20
3067.661600164834
 30
0.0
 11
12657.27442780204
 21
3067.661600164834
 31
0.0
  0
TEXT
  5
18D18
330
18AED
100
AcDbEntity
  8
HIKIDASHI
100
AcDbText
 10
12092.52363003481
 20
3112.661600164834
 30
0.0
 40
90.0
  1
プレ－ト
  7
01
 72
     2
 11
12482.5236300348
 21
3112.661600164834
 31
0.0
100
AcDbText
  0
TEXT
  5
18D19
330
18AED
100
AcDbEntity
  8
HIKIDASHI
100
AcDbText
 10
12523.83595357436
 20
3112.661600164834
 30
0.0
 40
90.0
  1
9
 41
0.6666666666666666
  7
00
 72
     2
 11
12569.55023928865
 21
3112.661600164834
 31
0.0
100
AcDbText
  0
TEXT
  5
18D1A
330
18AED
100
AcDbEntity
  8
HIKIDASHI
100
AcDbText
 10
12606.97646118922
 20
3126.647348600799
 30
0.0
 40
89.99999909999997
  1
t
 41
0.6700000000000001
  7
00
100
AcDbText
  0
TEXT
  5
18D1B
330
18AED
100
AcDbEntity
  8
SUNPOU
100
AcDbText
 10
5757.491760556316
 20
2578.884705856377
 30
0.0
 40
90.0
  1
5-D13×5-D13
 41
0.6700000000000001
  7
01
 72
     4
 11
6100.914617699173
 21
2623.884705856377
 31
0.0
100
AcDbText
  0
TEXT
  5
18D1C
330
18AED
100
AcDbEntity
  8
SUNPOU
100
AcDbText
 10
5892.60747484203
 20
2713.884705856377
 30
0.0
 40
90.0
  1
ベース筋
  7
01
 72
     4
 11
6096.60747484203
 21
2758.884705856377
 31
0.0
100
AcDbText
  0
TEXT
  5
18D1D
330
18AED
100
AcDbEntity
  8
SUNPOU
100
AcDbText
 10
9537.817961079962
 20
2578.884705856383
 30
0.0
 40
90.0
  1
5-D13×5-D13
 41
0.6700000000000001
  7
01
 72
     4
 11
9881.240818222821
 21
2623.884705856383
 31
0.0
100
AcDbText
  0
TEXT
  5
18D1E
330
18AED
100
AcDbEntity
  8
SUNPOU
100
AcDbText
 10
9672.933675365676
 20
2713.884705856383
 30
0.0
 40
90.0
  1
ベース筋
  7
01
 72
     4
 11
9876.933675365677
 21
2758.884705856383
 31
0.0
100
AcDbText
  0
LINE
  5
18D1F
330
18AED
100
AcDbEntity
  8
HATCH
100
AcDbLine
 10
8457.723251791113
 20
3174.767263723865
 30
0.0
 11
7989.24082748685
 21
2706.284839419607
 31
0.0
  0
LINE
  5
18D20
330
18AED
100
AcDbEntity
  8
HATCH
100
AcDbLine
 10
8457.723251791113
 20
3222.284839419597
 30
0.0
 11
7941.723251791126
 21
2706.284839419607
 31
0.0
  0
LINE
  5
18D21
330
18AED
100
AcDbEntity
  8
HATCH
100
AcDbLine
 10
8457.723251791113
 20
3269.802415115337
 30
0.0
 11
7940.12325179111
 21
2752.202415115337
 31
0.0
  0
TEXT
  5
18D22
330
18AED
100
AcDbEntity
  8
HIKIDASHI
100
AcDbText
 10
9007.426279443023
 20
5982.059624263296
 30
0.0
 40
80.0
  1
)
 41
0.6700000000000001
  7
00
100
AcDbText
  0
TEXT
  5
18D23
330
18AED
100
AcDbEntity
  8
HIKIDASHI
100
AcDbText
 10
8806.567530753644
 20
5997.621102011493
 30
0.0
 40
80.0
  1
1
 41
0.6700000000000001
  7
00
100
AcDbText
  0
TEXT
  5
18D24
330
18AED
100
AcDbEntity
  8
HIKIDASHI
100
AcDbText
 10
8839.704668617951
 20
5982.059624263296
 30
0.0
 40
80.0
  1
/
 41
0.6700000000000001
  7
00
100
AcDbText
  0
TEXT
  5
18D25
330
18AED
100
AcDbEntity
  8
HIKIDASHI
100
AcDbText
 10
8885.999823380595
 20
5955.891793063018
 30
0.0
 40
80.0
  1
40
 41
0.6700000000000001
  7
00
100
AcDbText
  0
TEXT
  5
18D26
330
18AED
100
AcDbEntity
  8
HIKIDASHI
100
AcDbText
 10
8625.85961481597
 20
5982.059624263296
 30
0.0
 40
80.0
  1
(S=
 41
0.6700000000000001
  7
00
100
AcDbText
  0
TEXT
  5
18D27
330
18AED
100
AcDbEntity
  8
HIKIDASHI
100
AcDbText
 10
7783.859614815971
 20
5958.24318243233
 30
0.0
 40
120.0
  1
基 礎 伏 図
  7
01
 72
     2
 11
8535.85961481597
 21
5958.24318243233
 31
0.0
100
AcDbText
  0
LINE
  5
18D28
330
18AED
100
AcDbEntity
  8
KISO
100
AcDbLine
 10
7780.123251791109
 20
2706.284839419607
 30
0.0
 11
9380.123251791109
 21
2706.284839419607
 31
0.0
  0
LINE
  5
18D29
330
18AED
100
AcDbEntity
  8
HATCH
100
AcDbLine
 10
5427.726846493639
 20
2546.284839419602
 30
0.0
 11
5520.102889160304
 21
2706.284839419602
 31
0.0
  0
LINE
  5
18D2A
330
18AED
100
AcDbEntity
  8
HATCH
100
AcDbLine
 10
5466.769555826971
 20
2706.284839419602
 30
0.0
 11
5493.436222493635
 21
2660.096816752937
 31
0.0
  0
LINE
  5
18D2B
330
18AED
100
AcDbEntity
  8
HATCH
100
AcDbLine
 10
5454.393513160304
 20
2592.472860752933
 30
0.0
 11
5481.060179826972
 21
2546.284839419602
 31
0.0
  0
LINE
  5
18D2C
330
18AED
100
AcDbEntity
  8
HATCH
100
AcDbLine
 10
9208.053047017283
 20
2546.284839419607
 30
0.0
 11
9300.42908968395
 21
2706.284839419607
 31
0.0
  0
LINE
  5
18D2D
330
18AED
100
AcDbEntity
  8
HATCH
100
AcDbLine
 10
9247.095756350615
 20
2706.284839419607
 30
0.0
 11
9273.762423017283
 21
2660.096816752943
 31
0.0
  0
LINE
  5
18D2E
330
18AED
100
AcDbEntity
  8
HATCH
100
AcDbLine
 10
9234.719713683951
 20
2592.472860752937
 30
0.0
 11
9261.386380350616
 21
2546.284839419607
 31
0.0
  0
TEXT
  5
18D2F
330
18AED
100
AcDbEntity
  8
NAME
100
AcDbText
 10
12159.06898735705
 20
1063.242132579307
 30
0.0
 40
120.0
  1
Y O K C U
 41
0.6666666666666666
  7
00
100
AcDbText
  0
TEXT
  5
18D30
330
18AED
100
AcDbEntity
  8
NAME
100
AcDbText
 10
11083.47628552035
 20
1063.242132579307
 30
0.0
 40
120.0
  1
ヨド自転車置場　　　    型
  7
01
100
AcDbText
  0
TEXT
  5
18D31
330
18AED
100
AcDbEntity
  8
HIKIDASHI
100
AcDbText
 10
12286.64239875644
 20
2290.804976716086
 30
0.0
 40
90.0
  1
2
 41
0.6666666666666666
  7
00
100
AcDbText
  0
TEXT
  5
18D32
330
18AED
100
AcDbEntity
  8
HIKIDASHI
100
AcDbText
 10
12365.21382732787
 20
2305.804976716085
 30
0.0
 40
90.0
  1
ｹ
  7
01
100
AcDbText
  0
TEXT
  5
18D33
330
18AED
100
AcDbEntity
  8
HIKIDASHI
100
AcDbText
 10
12446.21382732787
 20
2290.804976716086
 30
0.0
 40
90.0
  1
-
 41
0.6666666666666666
  7
00
100
AcDbText
  0
TEXT
  5
18D34
330
18AED
100
AcDbEntity
  8
HIKIDASHI
100
AcDbText
 10
12554.07097018501
 20
2290.804976716086
 30
0.0
 40
90.0
  1
18
 41
0.6666666666666666
  7
00
100
AcDbText
  0
TEXT
  5
18D35
330
18AED
100
AcDbEntity
  8
HIKIDASHI
100
AcDbText
 10
12689.78525589929
 20
2305.804976716085
 30
0.0
 40
90.0
  1
%%c
 41
0.6666666666666666
  7
00
100
AcDbText
  0
TEXT
  5
18D36
330
18AED
100
AcDbEntity
  8
HIKIDASHI
100
AcDbText
 10
12765.49954161357
 20
2290.804976716086
 30
0.0
 40
90.0
  1
孔
  7
01
100
AcDbText
  0
LINE
  5
18D37
330
18AED
100
AcDbEntity
  8
HIKIDASHI
100
AcDbLine
 10
12256.64239875644
 20
2245.804976716085
 30
0.0
 11
12879.49954161357
 21
2245.804976716085
 31
0.0
  0
LINE
  5
18D38
330
18AED
100
AcDbEntity
  8
HIKIDASHI
100
AcDbLine
 10
5702.626424666976
 20
3920.485411556192
 30
0.0
 11
5333.860047839355
 21
3920.485411556192
 31
0.0
  0
TEXT
  5
18D39
330
18AED
100
AcDbEntity
  8
HIKIDASHI
100
AcDbText
 10
5366.927655431265
 20
3965.485411556191
 30
0.0
 40
90.0
  1
土　間
  7
01
 72
     2
 11
5660.927655431265
 21
4010.48541155619
 31
0.0
100
AcDbText
 73
     2
  0
TEXT
  5
18D3A
330
18AED
100
AcDbEntity
  8
FILENAME
100
AcDbText
 10
13863.90476190476
 20
174.0
 30
0.0
 40
100.0
  1
＜YOKCU-245-A_3_JIS_GL.DXF ＞
  7
FILENAME
 72
     2
 11
16382.0
 21
174.0
 31
0.0
100
AcDbText
  0
LINE
  5
18D3B
330
18AED
100
AcDbEntity
  8
WAKUSEN-01
100
AcDbLine
 10
434.0000000000008
 20
413.9999999999997
 30
0.0
 11
16382.0
 21
413.9999999999997
 31
0.0
  0
LINE
  5
18D3C
330
18AED
100
AcDbEntity
  8
WAKUSEN-01
100
AcDbLine
 10
434.0000000000008
 20
11242.0
 30
0.0
 11
16382.0
 21
11242.0
 31
0.0
  0
LINE
  5
18D3D
330
18AED
100
AcDbEntity
  8
WAKUSEN-01
100
AcDbLine
 10
434.0000000000008
 20
413.9999999999997
 30
0.0
 11
434.0000000000008
 21
11242.0
 31
0.0
  0
LINE
  5
18D3E
330
18AED
100
AcDbEntity
  8
WAKUSEN-01
100
AcDbLine
 10
16382.0
 20
413.9999999999997
 30
0.0
 11
16382.0
 21
11242.0
 31
0.0
  0
LINE
  5
18D3F
330
18AED
100
AcDbEntity
  8
WAKUSEN-01
100
AcDbLine
 10
10280.0
 20
1242.0
 30
0.0
 11
16382.0
 21
1242.0
 31
0.0
  0
LINE
  5
18D40
330
18AED
100
AcDbEntity
  8
WAKUSEN-02
100
AcDbLine
 10
10280.0
 20
827.9999999999997
 30
0.0
 11
13434.0
 21
827.9999999999997
 31
0.0
  0
TEXT
  5
18D41
330
18AED
100
AcDbEntity
  8
WAKUMOJI-01
100
AcDbText
 10
10335.13012998137
 20
1062.951504669661
 30
0.0
 40
120.0
  1
名　称
  7
WAKUMOJI
100
AcDbText
  0
TEXT
  5
18D42
330
18AED
100
AcDbEntity
  8
WAKUMOJI-01
100
AcDbText
 10
10328.25274254596
 20
659.5644874899107
 30
0.0
 40
120.0
  1
機種名
  7
WAKUMOJI
100
AcDbText
  0
LINE
  5
18D43
330
18AED
100
AcDbEntity
  8
WAKUSEN-01
100
AcDbLine
 10
10280.0
 20
413.9999999999985
 30
0.0
 11
10280.0
 21
1242.0
 31
0.0
  0
LINE
  5
18D44
330
18AED
100
AcDbEntity
  8
WAKUSEN-02
100
AcDbLine
 10
13434.0
 20
413.9999999999963
 30
0.0
 11
13434.0
 21
1242.0
 31
0.0
  0
LINE
  5
18D45
330
18AED
100
AcDbEntity
  8
YODOROGO
100
AcDbLine
 10
14988.80217064596
 20
997.8747482146435
 30
0.0
 11
14914.80217064596
 21
997.8747482146435
 31
0.0
1001
AUTOCAD_POSTSCRIPT_FIGURE
1002
{
1000
PSFILL
1000
Grayscale
1000
Grayscale
1070
    25
1002
}
  0
LINE
  5
18D46
330
18AED
100
AcDbEntity
  8
YODOROGO
100
AcDbLine
 10
14914.80217064596
 20
973.8747482146434
 30
0.0
 11
14988.80217064596
 21
973.8747482146434
 31
0.0
1001
AUTOCAD_POSTSCRIPT_FIGURE
1002
{
1000
PSFILL
1000
Grayscale
1000
Grayscale
1070
    25
1002
}
  0
LINE
  5
18D47
330
18AED
100
AcDbEntity
  8
YODOROGO
100
AcDbLine
 10
14988.80217064596
 20
953.874748214644
 30
0.0
 11
14914.80217064596
 21
953.874748214644
 31
0.0
1001
AUTOCAD_POSTSCRIPT_FIGURE
1002
{
1000
PSFILL
1000
Grayscale
1000
Grayscale
1070
    25
1002
}
  0
LINE
  5
18D48
330
18AED
100
AcDbEntity
  8
YODOROGO
100
AcDbLine
 10
14914.80217064596
 20
929.874748214644
 30
0.0
 11
14988.80217064596
 21
929.874748214644
 31
0.0
1001
AUTOCAD_POSTSCRIPT_FIGURE
1002
{
1000
PSFILL
1000
Grayscale
1000
Grayscale
1070
    25
1002
}
  0
LINE
  5
18D49
330
18AED
100
AcDbEntity
  8
YODOROGO
100
AcDbLine
 10
14988.80217064596
 20
909.8747482146439
 30
0.0
 11
14914.80217064596
 21
909.8747482146439
 31
0.0
1001
AUTOCAD_POSTSCRIPT_FIGURE
1002
{
1000
PSFILL
1000
Grayscale
1000
Grayscale
1070
    25
1002
}
  0
LINE
  5
18D4A
330
18AED
100
AcDbEntity
  8
YODOROGO
100
AcDbLine
 10
14960.80217064594
 20
853.874748214644
 30
0.0
 11
14988.80217064596
 21
853.874748214644
 31
0.0
1001
AUTOCAD_POSTSCRIPT_FIGURE
1002
{
1000
PSFILL
1000
Grayscale
1000
Grayscale
1070
    25
1002
}
  0
LINE
  5
18D4B
330
18AED
100
AcDbEntity
  8
YODOROGO
100
AcDbLine
 10
14868.80217064596
 20
713.8747482146436
 30
0.0
 11
14968.80217064596
 21
740.6696674577553
 31
0.0
  0
LINE
  5
18D4C
330
18AED
100
AcDbEntity
  8
YODOROGO
100
AcDbLine
 10
14974.80217064595
 20
853.874748214644
 30
0.0
 11
14942.80217064596
 21
853.874748214644
 31
0.0
  0
ARC
  5
18D4D
330
18AED
100
AcDbEntity
  8
YODOROGO
100
AcDbCircle
 10
15127.17387491394
 20
903.9323046166312
 30
0.0
 40
190.9434321028236
100
AcDbArc
 50
213.9611167766784
 51
264.4787207431779
  0
ARC
  5
18D4E
330
18AED
100
AcDbEntity
  8
YODOROGO
100
AcDbCircle
 10
15127.17387491396
 20
903.9323046166513
 30
0.0
 40
190.9434321028408
100
AcDbArc
 50
208.141144204866
 51
212.9210361185994
  0
LINE
  5
18D4F
330
18AED
100
AcDbEntity
  8
YODOROGO
100
AcDbLine
 10
14885.70493649264
 20
778.403830673117
 30
0.0
 11
14966.89206625426
 21
800.1578565285436
 31
0.0
  0
LINE
  5
18D50
330
18AED
100
AcDbEntity
  8
YODOROGO
100
AcDbLine
 10
14868.80217064596
 20
713.8747482146436
 30
0.0
 11
14968.80217064596
 21
740.6696674577553
 31
0.0
  0
LINE
  5
18D51
330
18AED
100
AcDbEntity
  8
YODOROGO
100
AcDbLine
 10
14974.80217064595
 20
853.874748214644
 30
0.0
 11
14942.80217064596
 21
853.874748214644
 31
0.0
  0
ARC
  5
18D52
330
18AED
100
AcDbEntity
  8
YODOROGO
100
AcDbCircle
 10
15127.17387491394
 20
903.9323046166312
 30
0.0
 40
190.9434321028236
100
AcDbArc
 50
213.9611167766784
 51
264.4787207431779
  0
LINE
  5
18D53
330
18AED
100
AcDbEntity
  8
YODOROGO
100
AcDbLine
 10
14396.80217064594
 20
909.8747482146439
 30
0.0
 11
14216.80217064594
 21
909.8747482146439
 31
0.0
  0
LINE
  5
18D54
330
18AED
100
AcDbEntity
  8
YODOROGO
100
AcDbLine
 10
14256.80217064594
 20
713.8747482146436
 30
0.0
 11
14396.80217064594
 21
713.8747482146436
 31
0.0
  0
LINE
  5
18D55
330
18AED
100
AcDbEntity
  8
YODOROGO
100
AcDbLine
 10
14364.80217064596
 20
961.8747482146432
 30
0.0
 11
14248.80217064594
 21
961.8747482146432
 31
0.0
  0
LINE
  5
18D56
330
18AED
100
AcDbEntity
  8
YODOROGO
100
AcDbLine
 10
14292.80217064596
 20
1013.874748214644
 30
0.0
 11
14328.80217064596
 21
1013.874748214644
 31
0.0
  0
LINE
  5
18D57
330
18AED
100
AcDbEntity
  8
YODOROGO
100
AcDbLine
 10
14216.80217064594
 20
853.874748214644
 30
0.0
 11
14216.80217064594
 21
753.8747482146439
 31
0.0
  0
LINE
  5
18D58
330
18AED
100
AcDbEntity
  8
YODOROGO
100
AcDbLine
 10
14248.80217064594
 20
781.8747482146434
 30
0.0
 11
14248.80217064594
 21
853.874748214644
 31
0.0
  0
LINE
  5
18D59
330
18AED
100
AcDbEntity
  8
YODOROGO
100
AcDbLine
 10
14292.80217064596
 20
873.8747482146449
 30
0.0
 11
14292.80217064596
 21
773.874748214644
 31
0.0
  0
LINE
  5
18D5A
330
18AED
100
AcDbEntity
  8
YODOROGO
100
AcDbLine
 10
13928.80217064596
 20
841.8747482146445
 30
0.0
 11
13888.80217064596
 21
809.9862070222856
 31
0.0
  0
LINE
  5
18D5B
330
18AED
100
AcDbEntity
  8
YODOROGO
100
AcDbLine
 10
13968.80217064596
 20
809.9862070222856
 30
0.0
 11
13928.80217064596
 21
841.8747482146445
 31
0.0
  0
LINE
  5
18D5C
330
18AED
100
AcDbEntity
  8
YODOROGO
100
AcDbLine
 10
13928.80217064596
 20
853.874748214644
 30
0.0
 11
13968.80217064596
 21
821.986207022285
 31
0.0
  0
LINE
  5
18D5D
330
18AED
100
AcDbEntity
  8
YODOROGO
100
AcDbLine
 10
13888.80217064596
 20
821.986207022285
 30
0.0
 11
13928.80217064596
 21
853.874748214644
 31
0.0
  0
LINE
  5
18D5E
330
18AED
100
AcDbEntity
  8
YODOROGO
100
AcDbLine
 10
14020.45660200844
 20
829.874748214644
 30
0.0
 11
14020.45660200844
 21
841.8747482146434
 31
0.0
  0
LINE
  5
18D5F
330
18AED
100
AcDbEntity
  8
YODOROGO
100
AcDbLine
 10
13988.80217064596
 20
841.8747482146434
 30
0.0
 11
13988.80217064596
 21
833.8747482146427
 31
0.0
  0
LINE
  5
18D60
330
18AED
100
AcDbEntity
  8
YODOROGO
100
AcDbLine
 10
14049.06776011545
 20
853.874748214644
 30
0.0
 11
14049.06776011545
 21
827.751818637328
 31
0.0
1001
AUTOCAD_POSTSCRIPT_FIGURE
1002
{
1000
PSFILL
1000
Grayscale
1000
Grayscale
1070
   100
1002
}
  0
LINE
  5
18D61
330
18AED
100
AcDbEntity
  8
YODOROGO
100
AcDbLine
 10
14041.06776011546
 20
827.751818637328
 30
0.0
 11
14041.06776011546
 21
853.874748214644
 31
0.0
1001
AUTOCAD_POSTSCRIPT_FIGURE
1002
{
1000
PSFILL
1000
Grayscale
1000
Grayscale
1070
   100
1002
}
  0
LINE
  5
18D62
330
18AED
100
AcDbEntity
  8
YODOROGO
100
AcDbLine
 10
13904.80217064596
 20
804.3859520216292
 30
0.0
 11
13904.80217064596
 21
816.3859520216298
 31
0.0
  0
LINE
  5
18D63
330
18AED
100
AcDbEntity
  8
YODOROGO
100
AcDbLine
 10
13952.80217064596
 20
804.3859520216292
 30
0.0
 11
13904.80217064596
 21
804.3859520216292
 31
0.0
  0
LINE
  5
18D64
330
18AED
100
AcDbEntity
  8
YODOROGO
100
AcDbLine
 10
13952.80217064596
 20
816.3859520216298
 30
0.0
 11
13952.80217064596
 21
804.3859520216292
 31
0.0
  0
LINE
  5
18D65
330
18AED
100
AcDbEntity
  8
YODOROGO
100
AcDbLine
 10
13904.80217064596
 20
816.3859520216298
 30
0.0
 11
13952.80217064596
 21
816.3859520216298
 31
0.0
  0
LINE
  5
18D66
330
18AED
100
AcDbEntity
  8
YODOROGO
100
AcDbLine
 10
13912.25479445787
 20
784.2514286852374
 30
0.0
 11
13892.80217064596
 21
737.8747482146435
 31
0.0
1001
AUTOCAD_POSTSCRIPT_FIGURE
1002
{
1000
PSFILL
1000
Grayscale
1000
Grayscale
1070
   100
1002
}
  0
LINE
  5
18D67
330
18AED
100
AcDbEntity
  8
YODOROGO
100
AcDbLine
 10
13888.80217064596
 20
784.2514286852374
 30
0.0
 11
13912.25479445787
 21
784.2514286852374
 31
0.0
1001
AUTOCAD_POSTSCRIPT_FIGURE
1002
{
1000
PSFILL
1000
Grayscale
1000
Grayscale
1070
   100
1002
}
  0
LINE
  5
18D68
330
18AED
100
AcDbEntity
  8
YODOROGO
100
AcDbLine
 10
13888.80217064596
 20
794.2514286852374
 30
0.0
 11
13888.80217064596
 21
784.2514286852374
 31
0.0
1001
AUTOCAD_POSTSCRIPT_FIGURE
1002
{
1000
PSFILL
1000
Grayscale
1000
Grayscale
1070
   100
1002
}
  0
LINE
  5
18D69
330
18AED
100
AcDbEntity
  8
YODOROGO
100
AcDbLine
 10
13968.80217064596
 20
794.2514286852374
 30
0.0
 11
13888.80217064596
 21
794.2514286852374
 31
0.0
1001
AUTOCAD_POSTSCRIPT_FIGURE
1002
{
1000
PSFILL
1000
Grayscale
1000
Grayscale
1070
   100
1002
}
  0
LINE
  5
18D6A
330
18AED
100
AcDbEntity
  8
YODOROGO
100
AcDbLine
 10
13968.80217064596
 20
784.2514286852374
 30
0.0
 11
13968.80217064596
 21
794.2514286852374
 31
0.0
1001
AUTOCAD_POSTSCRIPT_FIGURE
1002
{
1000
PSFILL
1000
Grayscale
1000
Grayscale
1070
   100
1002
}
  0
LINE
  5
18D6B
330
18AED
100
AcDbEntity
  8
YODOROGO
100
AcDbLine
 10
13922.25479445786
 20
784.2514286852374
 30
0.0
 11
13968.80217064596
 21
784.2514286852374
 31
0.0
1001
AUTOCAD_POSTSCRIPT_FIGURE
1002
{
1000
PSFILL
1000
Grayscale
1000
Grayscale
1070
   100
1002
}
  0
LINE
  5
18D6C
330
18AED
100
AcDbEntity
  8
YODOROGO
100
AcDbLine
 10
13907.77335914238
 20
747.8747482146435
 30
0.0
 11
13922.25479445786
 21
784.2514286852374
 31
0.0
1001
AUTOCAD_POSTSCRIPT_FIGURE
1002
{
1000
PSFILL
1000
Grayscale
1000
Grayscale
1070
   100
1002
}
  0
LINE
  5
18D6D
330
18AED
100
AcDbEntity
  8
YODOROGO
100
AcDbLine
 10
13951.02739540432
 20
747.8747482146435
 30
0.0
 11
13907.77335914238
 21
747.8747482146435
 31
0.0
1001
AUTOCAD_POSTSCRIPT_FIGURE
1002
{
1000
PSFILL
1000
Grayscale
1000
Grayscale
1070
   100
1002
}
  0
LINE
  5
18D6E
330
18AED
100
AcDbEntity
  8
YODOROGO
100
AcDbLine
 10
13942.53250239547
 20
768.1169053488464
 30
0.0
 11
13951.02739540432
 21
747.8747482146435
 31
0.0
1001
AUTOCAD_POSTSCRIPT_FIGURE
1002
{
1000
PSFILL
1000
Grayscale
1000
Grayscale
1070
   100
1002
}
  0
LINE
  5
18D6F
330
18AED
100
AcDbEntity
  8
YODOROGO
100
AcDbLine
 10
13950.53250239547
 20
768.1169053488464
 30
0.0
 11
13942.53250239547
 21
768.1169053488464
 31
0.0
1001
AUTOCAD_POSTSCRIPT_FIGURE
1002
{
1000
PSFILL
1000
Grayscale
1000
Grayscale
1070
   100
1002
}
  0
LINE
  5
18D70
330
18AED
100
AcDbEntity
  8
YODOROGO
100
AcDbLine
 10
13964.80217064596
 20
737.8747482146435
 30
0.0
 11
13950.53250239547
 21
768.1169053488464
 31
0.0
1001
AUTOCAD_POSTSCRIPT_FIGURE
1002
{
1000
PSFILL
1000
Grayscale
1000
Grayscale
1070
   100
1002
}
  0
LINE
  5
18D71
330
18AED
100
AcDbEntity
  8
YODOROGO
100
AcDbLine
 10
13892.80217064596
 20
737.8747482146435
 30
0.0
 11
13964.80217064596
 21
737.8747482146435
 31
0.0
1001
AUTOCAD_POSTSCRIPT_FIGURE
1002
{
1000
PSFILL
1000
Grayscale
1000
Grayscale
1070
   100
1002
}
  0
LINE
  5
18D72
330
18AED
100
AcDbEntity
  8
YODOROGO
100
AcDbLine
 10
13888.80217064596
 20
809.9862070222856
 30
0.0
 11
13888.80217064596
 21
821.986207022285
 31
0.0
  0
LINE
  5
18D73
330
18AED
100
AcDbEntity
  8
YODOROGO
100
AcDbLine
 10
13968.80217064596
 20
821.986207022285
 30
0.0
 11
13968.80217064596
 21
809.9862070222856
 31
0.0
  0
ARC
  5
18D74
330
18AED
100
AcDbEntity
  8
YODOROGO
100
AcDbCircle
 10
14112.97022107348
 20
800.438882662663
 30
0.0
 40
87.99999999999995
100
AcDbArc
 50
280.3644312771313
 51
3.541483659218056
  0
ARC
  5
18D75
330
18AED
100
AcDbEntity
  8
YODOROGO
100
AcDbCircle
 10
14117.87801537965
 20
816.798903480952
 30
0.0
 40
55.99999999999914
100
AcDbArc
 50
281.2490582504155
 51
348.7509417495832
  0
LINE
  5
18D76
330
18AED
100
AcDbEntity
  8
YODOROGO
100
AcDbLine
 10
14128.80217064596
 20
761.8747482146434
 30
0.0
 11
14128.80217064596
 21
713.8747482146436
 31
0.0
  0
LINE
  5
18D77
330
18AED
100
AcDbEntity
  8
YODOROGO
100
AcDbLine
 10
14010.04445186845
 20
805.3252825309574
 30
0.0
 11
14020.45660200844
 21
829.874748214644
 31
0.0
  0
LINE
  5
18D78
330
18AED
100
AcDbEntity
  8
YODOROGO
100
AcDbLine
 10
14020.80217064596
 20
791.5602449742006
 30
0.0
 11
14010.04445186845
 21
805.3252825309574
 31
0.0
  0
LINE
  5
18D79
330
18AED
100
AcDbEntity
  8
YODOROGO
100
AcDbLine
 10
14020.80217064596
 20
781.5602449741994
 30
0.0
 11
14020.80217064596
 21
791.5602449742006
 31
0.0
  0
LINE
  5
18D7A
330
18AED
100
AcDbEntity
  8
YODOROGO
100
AcDbLine
 10
14008.80217064596
 20
792.6185318747651
 30
0.0
 11
14020.80217064596
 21
781.5602449741994
 31
0.0
  0
LINE
  5
18D7B
330
18AED
100
AcDbEntity
  8
YODOROGO
100
AcDbLine
 10
14008.80217064596
 20
737.8747482146435
 30
0.0
 11
14008.80217064596
 21
792.6185318747651
 31
0.0
  0
LINE
  5
18D7C
330
18AED
100
AcDbEntity
  8
YODOROGO
100
AcDbLine
 10
14000.80217064596
 20
737.8747482146435
 30
0.0
 11
14008.80217064596
 21
737.8747482146435
 31
0.0
  0
LINE
  5
18D7D
330
18AED
100
AcDbEntity
  8
YODOROGO
100
AcDbLine
 10
14000.80217064596
 20
790.0026748448738
 30
0.0
 11
14000.80217064596
 21
737.8747482146435
 31
0.0
  0
LINE
  5
18D7E
330
18AED
100
AcDbEntity
  8
YODOROGO
100
AcDbLine
 10
13988.80217064596
 20
766.3840395167142
 30
0.0
 11
14000.80217064596
 21
790.0026748448738
 31
0.0
  0
LINE
  5
18D7F
330
18AED
100
AcDbEntity
  8
YODOROGO
100
AcDbLine
 10
13988.80217064596
 20
778.3840395167149
 30
0.0
 11
13988.80217064596
 21
766.3840395167142
 31
0.0
  0
LINE
  5
18D80
330
18AED
100
AcDbEntity
  8
YODOROGO
100
AcDbLine
 10
14012.91438714567
 20
833.8747482146427
 30
0.0
 11
13988.80217064596
 21
778.3840395167149
 31
0.0
  0
LINE
  5
18D81
330
18AED
100
AcDbEntity
  8
YODOROGO
100
AcDbLine
 10
13988.80217064596
 20
833.8747482146427
 30
0.0
 11
14012.91438714567
 21
833.8747482146427
 31
0.0
  0
LINE
  5
18D82
330
18AED
100
AcDbEntity
  8
YODOROGO
100
AcDbLine
 10
14025.06776011545
 20
827.751818637328
 30
0.0
 11
14041.06776011546
 21
827.751818637328
 31
0.0
1001
AUTOCAD_POSTSCRIPT_FIGURE
1002
{
1000
PSFILL
1000
Grayscale
1000
Grayscale
1070
   100
1002
}
  0
LINE
  5
18D83
330
18AED
100
AcDbEntity
  8
YODOROGO
100
AcDbLine
 10
14025.06776011545
 20
815.7518186373286
 30
0.0
 11
14025.06776011545
 21
827.751818637328
 31
0.0
1001
AUTOCAD_POSTSCRIPT_FIGURE
1002
{
1000
PSFILL
1000
Grayscale
1000
Grayscale
1070
   100
1002
}
  0
LINE
  5
18D84
330
18AED
100
AcDbEntity
  8
YODOROGO
100
AcDbLine
 10
14041.06776011546
 20
815.7518186373286
 30
0.0
 11
14025.06776011545
 21
815.7518186373286
 31
0.0
1001
AUTOCAD_POSTSCRIPT_FIGURE
1002
{
1000
PSFILL
1000
Grayscale
1000
Grayscale
1070
   100
1002
}
  0
LINE
  5
18D85
330
18AED
100
AcDbEntity
  8
YODOROGO
100
AcDbLine
 10
14041.06776011546
 20
749.8747482146441
 30
0.0
 11
14041.06776011546
 21
815.7518186373286
 31
0.0
1001
AUTOCAD_POSTSCRIPT_FIGURE
1002
{
1000
PSFILL
1000
Grayscale
1000
Grayscale
1070
   100
1002
}
  0
LINE
  5
18D86
330
18AED
100
AcDbEntity
  8
YODOROGO
100
AcDbLine
 10
14025.06776011545
 20
749.8747482146441
 30
0.0
 11
14041.06776011546
 21
749.8747482146441
 31
0.0
1001
AUTOCAD_POSTSCRIPT_FIGURE
1002
{
1000
PSFILL
1000
Grayscale
1000
Grayscale
1070
   100
1002
}
  0
LINE
  5
18D87
330
18AED
100
AcDbEntity
  8
YODOROGO
100
AcDbLine
 10
14025.06776011545
 20
737.8747482146435
 30
0.0
 11
14025.06776011545
 21
749.8747482146441
 31
0.0
1001
AUTOCAD_POSTSCRIPT_FIGURE
1002
{
1000
PSFILL
1000
Grayscale
1000
Grayscale
1070
   100
1002
}
  0
LINE
  5
18D88
330
18AED
100
AcDbEntity
  8
YODOROGO
100
AcDbLine
 10
14068.80217064596
 20
737.8747482146435
 30
0.0
 11
14025.06776011545
 21
737.8747482146435
 31
0.0
1001
AUTOCAD_POSTSCRIPT_FIGURE
1002
{
1000
PSFILL
1000
Grayscale
1000
Grayscale
1070
   100
1002
}
  0
LINE
  5
18D89
330
18AED
100
AcDbEntity
  8
YODOROGO
100
AcDbLine
 10
14068.80217064596
 20
749.8747482146441
 30
0.0
 11
14068.80217064596
 21
737.8747482146435
 31
0.0
1001
AUTOCAD_POSTSCRIPT_FIGURE
1002
{
1000
PSFILL
1000
Grayscale
1000
Grayscale
1070
   100
1002
}
  0
LINE
  5
18D8A
330
18AED
100
AcDbEntity
  8
YODOROGO
100
AcDbLine
 10
14049.06776011545
 20
749.8747482146441
 30
0.0
 11
14068.80217064596
 21
749.8747482146441
 31
0.0
1001
AUTOCAD_POSTSCRIPT_FIGURE
1002
{
1000
PSFILL
1000
Grayscale
1000
Grayscale
1070
   100
1002
}
  0
LINE
  5
18D8B
330
18AED
100
AcDbEntity
  8
YODOROGO
100
AcDbLine
 10
14049.06776011545
 20
815.7518186373286
 30
0.0
 11
14049.06776011545
 21
749.8747482146441
 31
0.0
1001
AUTOCAD_POSTSCRIPT_FIGURE
1002
{
1000
PSFILL
1000
Grayscale
1000
Grayscale
1070
   100
1002
}
  0
LINE
  5
18D8C
330
18AED
100
AcDbEntity
  8
YODOROGO
100
AcDbLine
 10
14068.80217064596
 20
815.7518186373286
 30
0.0
 11
14049.06776011545
 21
815.7518186373286
 31
0.0
1001
AUTOCAD_POSTSCRIPT_FIGURE
1002
{
1000
PSFILL
1000
Grayscale
1000
Grayscale
1070
   100
1002
}
  0
LINE
  5
18D8D
330
18AED
100
AcDbEntity
  8
YODOROGO
100
AcDbLine
 10
14068.80217064596
 20
827.751818637328
 30
0.0
 11
14068.80217064596
 21
815.7518186373286
 31
0.0
1001
AUTOCAD_POSTSCRIPT_FIGURE
1002
{
1000
PSFILL
1000
Grayscale
1000
Grayscale
1070
   100
1002
}
  0
LINE
  5
18D8E
330
18AED
100
AcDbEntity
  8
YODOROGO
100
AcDbLine
 10
14049.06776011545
 20
827.751818637328
 30
0.0
 11
14068.80217064596
 21
827.751818637328
 31
0.0
1001
AUTOCAD_POSTSCRIPT_FIGURE
1002
{
1000
PSFILL
1000
Grayscale
1000
Grayscale
1070
   100
1002
}
  0
LINE
  5
18D8F
330
18AED
100
AcDbEntity
  8
YODOROGO
100
AcDbLine
 10
14200.80217064594
 20
833.8747482146439
 30
0.0
 11
14172.80217064596
 21
833.8747482146439
 31
0.0
  0
LINE
  5
18D90
330
18AED
100
AcDbEntity
  8
YODOROGO
100
AcDbLine
 10
14200.80217064594
 20
805.8747482146443
 30
0.0
 11
14200.80217064594
 21
833.8747482146439
 31
0.0
  0
LINE
  5
18D91
330
18AED
100
AcDbEntity
  8
YODOROGO
100
AcDbLine
 10
14172.80217064596
 20
833.8747482146439
 30
0.0
 11
14172.80217064596
 21
805.8747482146443
 31
0.0
  0
ARC
  5
18D92
330
18AED
100
AcDbEntity
  8
YODOROGO
100
AcDbCircle
 10
14256.80217064594
 20
753.8747482146439
 30
0.0
 40
40.0
100
AcDbArc
 50
180.0
 51
270.0
  0
ARC
  5
18D93
330
18AED
100
AcDbEntity
  8
YODOROGO
100
AcDbCircle
 10
14268.80217064594
 20
781.8747482146434
 30
0.0
 40
20.0
100
AcDbArc
 50
180.0
 51
270.0
  0
LINE
  5
18D94
330
18AED
100
AcDbEntity
  8
YODOROGO
100
AcDbLine
 10
14280.80217064596
 20
761.8747482146434
 30
0.0
 11
14268.80217064594
 21
761.8747482146434
 31
0.0
  0
ARC
  5
18D95
330
18AED
100
AcDbEntity
  8
YODOROGO
100
AcDbCircle
 10
14280.80217064596
 20
773.8747482146427
 30
0.0
 40
11.99999999999818
100
AcDbArc
 50
270.0
 51
0.0000000000054281
  0
LINE
  5
18D96
330
18AED
100
AcDbEntity
  8
YODOROGO
100
AcDbLine
 10
13900.80217064596
 20
945.3932903968532
 30
0.0
 11
13888.80217064596
 21
921.8883739758362
 31
0.0
1001
AUTOCAD_POSTSCRIPT_FIGURE
1002
{
1000
PSFILL
1000
Grayscale
1000
Grayscale
1070
   100
1002
}
  0
LINE
  5
18D97
330
18AED
100
AcDbEntity
  8
YODOROGO
100
AcDbLine
 10
13900.80217064596
 20
873.8747482146434
 30
0.0
 11
13900.80217064596
 21
945.3932903968532
 31
0.0
1001
AUTOCAD_POSTSCRIPT_FIGURE
1002
{
1000
PSFILL
1000
Grayscale
1000
Grayscale
1070
   100
1002
}
  0
LINE
  5
18D98
330
18AED
100
AcDbEntity
  8
YODOROGO
100
AcDbLine
 10
13908.80217064596
 20
873.8747482146434
 30
0.0
 11
13900.80217064596
 21
873.8747482146434
 31
0.0
1001
AUTOCAD_POSTSCRIPT_FIGURE
1002
{
1000
PSFILL
1000
Grayscale
1000
Grayscale
1070
   100
1002
}
  0
LINE
  5
18D99
330
18AED
100
AcDbEntity
  8
YODOROGO
100
AcDbLine
 10
13908.80217064596
 20
946.8856660426332
 30
0.0
 11
13908.80217064596
 21
873.8747482146434
 31
0.0
1001
AUTOCAD_POSTSCRIPT_FIGURE
1002
{
1000
PSFILL
1000
Grayscale
1000
Grayscale
1070
   100
1002
}
  0
LINE
  5
18D9A
330
18AED
100
AcDbEntity
  8
YODOROGO
100
AcDbLine
 10
13920.80217064596
 20
933.8273791420684
 30
0.0
 11
13908.80217064596
 21
946.8856660426332
 31
0.0
1001
AUTOCAD_POSTSCRIPT_FIGURE
1002
{
1000
PSFILL
1000
Grayscale
1000
Grayscale
1070
   100
1002
}
  0
LINE
  5
18D9B
330
18AED
100
AcDbEntity
  8
YODOROGO
100
AcDbLine
 10
13920.80217064596
 20
941.8273791420681
 30
0.0
 11
13920.80217064596
 21
933.8273791420684
 31
0.0
1001
AUTOCAD_POSTSCRIPT_FIGURE
1002
{
1000
PSFILL
1000
Grayscale
1000
Grayscale
1070
   100
1002
}
  0
LINE
  5
18D9C
330
18AED
100
AcDbEntity
  8
YODOROGO
100
AcDbLine
 10
13908.80217064596
 20
958.8856660426325
 30
0.0
 11
13920.80217064596
 21
941.8273791420681
 31
0.0
1001
AUTOCAD_POSTSCRIPT_FIGURE
1002
{
1000
PSFILL
1000
Grayscale
1000
Grayscale
1070
   100
1002
}
  0
LINE
  5
18D9D
330
18AED
100
AcDbEntity
  8
YODOROGO
100
AcDbLine
 10
13908.80217064596
 20
969.8747482146441
 30
0.0
 11
13908.80217064596
 21
958.8856660426325
 31
0.0
1001
AUTOCAD_POSTSCRIPT_FIGURE
1002
{
1000
PSFILL
1000
Grayscale
1000
Grayscale
1070
   100
1002
}
  0
LINE
  5
18D9E
330
18AED
100
AcDbEntity
  8
YODOROGO
100
AcDbLine
 10
13944.80217064596
 20
969.8747482146441
 30
0.0
 11
13908.80217064596
 21
969.8747482146441
 31
0.0
1001
AUTOCAD_POSTSCRIPT_FIGURE
1002
{
1000
PSFILL
1000
Grayscale
1000
Grayscale
1070
   100
1002
}
  0
LINE
  5
18D9F
330
18AED
100
AcDbEntity
  8
YODOROGO
100
AcDbLine
 10
13944.80217064596
 20
950.2841744681497
 30
0.0
 11
13944.80217064596
 21
969.8747482146441
 31
0.0
1001
AUTOCAD_POSTSCRIPT_FIGURE
1002
{
1000
PSFILL
1000
Grayscale
1000
Grayscale
1070
   100
1002
}
  0
LINE
  5
18DA0
330
18AED
100
AcDbEntity
  8
YODOROGO
100
AcDbLine
 10
13928.80217064596
 20
950.2841744681497
 30
0.0
 11
13944.80217064596
 21
950.2841744681497
 31
0.0
1001
AUTOCAD_POSTSCRIPT_FIGURE
1002
{
1000
PSFILL
1000
Grayscale
1000
Grayscale
1070
   100
1002
}
  0
LINE
  5
18DA1
330
18AED
100
AcDbEntity
  8
YODOROGO
100
AcDbLine
 10
13928.80217064596
 20
942.2841744681491
 30
0.0
 11
13928.80217064596
 21
950.2841744681497
 31
0.0
1001
AUTOCAD_POSTSCRIPT_FIGURE
1002
{
1000
PSFILL
1000
Grayscale
1000
Grayscale
1070
   100
1002
}
  0
LINE
  5
18DA2
330
18AED
100
AcDbEntity
  8
YODOROGO
100
AcDbLine
 10
13944.80217064596
 20
942.2841744681491
 30
0.0
 11
13928.80217064596
 21
942.2841744681491
 31
0.0
1001
AUTOCAD_POSTSCRIPT_FIGURE
1002
{
1000
PSFILL
1000
Grayscale
1000
Grayscale
1070
   100
1002
}
  0
LINE
  5
18DA3
330
18AED
100
AcDbEntity
  8
YODOROGO
100
AcDbLine
 10
13944.80217064596
 20
939.8095889822196
 30
0.0
 11
13944.80217064596
 21
942.2841744681491
 31
0.0
1001
AUTOCAD_POSTSCRIPT_FIGURE
1002
{
1000
PSFILL
1000
Grayscale
1000
Grayscale
1070
   100
1002
}
  0
LINE
  5
18DA4
330
18AED
100
AcDbEntity
  8
YODOROGO
100
AcDbLine
 10
13924.80217064596
 20
906.4874905807087
 30
0.0
 11
13944.80217064596
 21
939.8095889822196
 31
0.0
1001
AUTOCAD_POSTSCRIPT_FIGURE
1002
{
1000
PSFILL
1000
Grayscale
1000
Grayscale
1070
   100
1002
}
  0
LINE
  5
18DA5
330
18AED
100
AcDbEntity
  8
YODOROGO
100
AcDbLine
 10
13924.80217064596
 20
898.487490580708
 30
0.0
 11
13924.80217064596
 21
906.4874905807087
 31
0.0
1001
AUTOCAD_POSTSCRIPT_FIGURE
1002
{
1000
PSFILL
1000
Grayscale
1000
Grayscale
1070
   100
1002
}
  0
LINE
  5
18DA6
330
18AED
100
AcDbEntity
  8
YODOROGO
100
AcDbLine
 10
13944.80217064596
 20
923.8095889822183
 30
0.0
 11
13924.80217064596
 21
898.487490580708
 31
0.0
1001
AUTOCAD_POSTSCRIPT_FIGURE
1002
{
1000
PSFILL
1000
Grayscale
1000
Grayscale
1070
   100
1002
}
  0
LINE
  5
18DA7
330
18AED
100
AcDbEntity
  8
YODOROGO
100
AcDbLine
 10
13944.80217064596
 20
873.8747482146434
 30
0.0
 11
13944.80217064596
 21
923.8095889822183
 31
0.0
1001
AUTOCAD_POSTSCRIPT_FIGURE
1002
{
1000
PSFILL
1000
Grayscale
1000
Grayscale
1070
   100
1002
}
  0
LINE
  5
18DA8
330
18AED
100
AcDbEntity
  8
YODOROGO
100
AcDbLine
 10
13952.80217064596
 20
873.8747482146434
 30
0.0
 11
13944.80217064596
 21
873.8747482146434
 31
0.0
1001
AUTOCAD_POSTSCRIPT_FIGURE
1002
{
1000
PSFILL
1000
Grayscale
1000
Grayscale
1070
   100
1002
}
  0
LINE
  5
18DA9
330
18AED
100
AcDbEntity
  8
YODOROGO
100
AcDbLine
 10
13952.80217064596
 20
924.7045060794032
 30
0.0
 11
13952.80217064596
 21
873.8747482146434
 31
0.0
1001
AUTOCAD_POSTSCRIPT_FIGURE
1002
{
1000
PSFILL
1000
Grayscale
1000
Grayscale
1070
   100
1002
}
  0
LINE
  5
18DAA
330
18AED
100
AcDbEntity
  8
YODOROGO
100
AcDbLine
 10
13968.80217064596
 20
898.487490580708
 30
0.0
 11
13952.80217064596
 21
924.7045060794032
 31
0.0
1001
AUTOCAD_POSTSCRIPT_FIGURE
1002
{
1000
PSFILL
1000
Grayscale
1000
Grayscale
1070
   100
1002
}
  0
LINE
  5
18DAB
330
18AED
100
AcDbEntity
  8
YODOROGO
100
AcDbLine
 10
13968.80217064596
 20
906.4874905807087
 30
0.0
 11
13968.80217064596
 21
898.487490580708
 31
0.0
1001
AUTOCAD_POSTSCRIPT_FIGURE
1002
{
1000
PSFILL
1000
Grayscale
1000
Grayscale
1070
   100
1002
}
  0
LINE
  5
18DAC
330
18AED
100
AcDbEntity
  8
YODOROGO
100
AcDbLine
 10
13952.80217064596
 20
940.7045060794041
 30
0.0
 11
13968.80217064596
 21
906.4874905807087
 31
0.0
1001
AUTOCAD_POSTSCRIPT_FIGURE
1002
{
1000
PSFILL
1000
Grayscale
1000
Grayscale
1070
   100
1002
}
  0
LINE
  5
18DAD
330
18AED
100
AcDbEntity
  8
YODOROGO
100
AcDbLine
 10
13952.80217064596
 20
942.2841744681502
 30
0.0
 11
13952.80217064596
 21
940.7045060794041
 31
0.0
1001
AUTOCAD_POSTSCRIPT_FIGURE
1002
{
1000
PSFILL
1000
Grayscale
1000
Grayscale
1070
   100
1002
}
  0
LINE
  5
18DAE
330
18AED
100
AcDbEntity
  8
YODOROGO
100
AcDbLine
 10
13968.80217064596
 20
942.2841744681491
 30
0.0
 11
13952.80217064596
 21
942.2841744681502
 31
0.0
1001
AUTOCAD_POSTSCRIPT_FIGURE
1002
{
1000
PSFILL
1000
Grayscale
1000
Grayscale
1070
   100
1002
}
  0
LINE
  5
18DAF
330
18AED
100
AcDbEntity
  8
YODOROGO
100
AcDbLine
 10
13968.80217064596
 20
950.2841744681497
 30
0.0
 11
13968.80217064596
 21
942.2841744681491
 31
0.0
1001
AUTOCAD_POSTSCRIPT_FIGURE
1002
{
1000
PSFILL
1000
Grayscale
1000
Grayscale
1070
   100
1002
}
  0
LINE
  5
18DB0
330
18AED
100
AcDbEntity
  8
YODOROGO
100
AcDbLine
 10
13952.80217064596
 20
950.2841744681497
 30
0.0
 11
13968.80217064596
 21
950.2841744681497
 31
0.0
1001
AUTOCAD_POSTSCRIPT_FIGURE
1002
{
1000
PSFILL
1000
Grayscale
1000
Grayscale
1070
   100
1002
}
  0
LINE
  5
18DB1
330
18AED
100
AcDbEntity
  8
YODOROGO
100
AcDbLine
 10
13952.80217064596
 20
969.8747482146441
 30
0.0
 11
13952.80217064596
 21
950.2841744681497
 31
0.0
1001
AUTOCAD_POSTSCRIPT_FIGURE
1002
{
1000
PSFILL
1000
Grayscale
1000
Grayscale
1070
   100
1002
}
  0
LINE
  5
18DB2
330
18AED
100
AcDbEntity
  8
YODOROGO
100
AcDbLine
 10
13968.80217064596
 20
969.8747482146441
 30
0.0
 11
13952.80217064596
 21
969.8747482146441
 31
0.0
1001
AUTOCAD_POSTSCRIPT_FIGURE
1002
{
1000
PSFILL
1000
Grayscale
1000
Grayscale
1070
   100
1002
}
  0
LINE
  5
18DB3
330
18AED
100
AcDbEntity
  8
YODOROGO
100
AcDbLine
 10
13968.80217064596
 20
977.8747482146435
 30
0.0
 11
13968.80217064596
 21
969.8747482146441
 31
0.0
1001
AUTOCAD_POSTSCRIPT_FIGURE
1002
{
1000
PSFILL
1000
Grayscale
1000
Grayscale
1070
   100
1002
}
  0
LINE
  5
18DB4
330
18AED
100
AcDbEntity
  8
YODOROGO
100
AcDbLine
 10
13952.80217064596
 20
977.8747482146435
 30
0.0
 11
13968.80217064596
 21
977.8747482146435
 31
0.0
1001
AUTOCAD_POSTSCRIPT_FIGURE
1002
{
1000
PSFILL
1000
Grayscale
1000
Grayscale
1070
   100
1002
}
  0
LINE
  5
18DB5
330
18AED
100
AcDbEntity
  8
YODOROGO
100
AcDbLine
 10
13952.80217064596
 20
989.8747482146442
 30
0.0
 11
13952.80217064596
 21
977.8747482146435
 31
0.0
1001
AUTOCAD_POSTSCRIPT_FIGURE
1002
{
1000
PSFILL
1000
Grayscale
1000
Grayscale
1070
   100
1002
}
  0
LINE
  5
18DB6
330
18AED
100
AcDbEntity
  8
YODOROGO
100
AcDbLine
 10
13944.80217064596
 20
989.8747482146442
 30
0.0
 11
13952.80217064596
 21
989.8747482146442
 31
0.0
1001
AUTOCAD_POSTSCRIPT_FIGURE
1002
{
1000
PSFILL
1000
Grayscale
1000
Grayscale
1070
   100
1002
}
  0
LINE
  5
18DB7
330
18AED
100
AcDbEntity
  8
YODOROGO
100
AcDbLine
 10
13944.80217064596
 20
977.8747482146435
 30
0.0
 11
13944.80217064596
 21
989.8747482146442
 31
0.0
1001
AUTOCAD_POSTSCRIPT_FIGURE
1002
{
1000
PSFILL
1000
Grayscale
1000
Grayscale
1070
   100
1002
}
  0
LINE
  5
18DB8
330
18AED
100
AcDbEntity
  8
YODOROGO
100
AcDbLine
 10
13932.80217064596
 20
977.8747482146435
 30
0.0
 11
13944.80217064596
 21
977.8747482146435
 31
0.0
1001
AUTOCAD_POSTSCRIPT_FIGURE
1002
{
1000
PSFILL
1000
Grayscale
1000
Grayscale
1070
   100
1002
}
  0
LINE
  5
18DB9
330
18AED
100
AcDbEntity
  8
YODOROGO
100
AcDbLine
 10
13932.80217064596
 20
989.8747482146442
 30
0.0
 11
13932.80217064596
 21
977.8747482146435
 31
0.0
1001
AUTOCAD_POSTSCRIPT_FIGURE
1002
{
1000
PSFILL
1000
Grayscale
1000
Grayscale
1070
   100
1002
}
  0
LINE
  5
18DBA
330
18AED
100
AcDbEntity
  8
YODOROGO
100
AcDbLine
 10
13924.80217064596
 20
989.8747482146442
 30
0.0
 11
13932.80217064596
 21
989.8747482146442
 31
0.0
1001
AUTOCAD_POSTSCRIPT_FIGURE
1002
{
1000
PSFILL
1000
Grayscale
1000
Grayscale
1070
   100
1002
}
  0
LINE
  5
18DBB
330
18AED
100
AcDbEntity
  8
YODOROGO
100
AcDbLine
 10
13924.80217064596
 20
977.8747482146435
 30
0.0
 11
13924.80217064596
 21
989.8747482146442
 31
0.0
1001
AUTOCAD_POSTSCRIPT_FIGURE
1002
{
1000
PSFILL
1000
Grayscale
1000
Grayscale
1070
   100
1002
}
  0
LINE
  5
18DBC
330
18AED
100
AcDbEntity
  8
YODOROGO
100
AcDbLine
 10
13908.80217064596
 20
977.8747482146435
 30
0.0
 11
13924.80217064596
 21
977.8747482146435
 31
0.0
1001
AUTOCAD_POSTSCRIPT_FIGURE
1002
{
1000
PSFILL
1000
Grayscale
1000
Grayscale
1070
   100
1002
}
  0
LINE
  5
18DBD
330
18AED
100
AcDbEntity
  8
YODOROGO
100
AcDbLine
 10
13908.80217064596
 20
989.8747482146442
 30
0.0
 11
13908.80217064596
 21
977.8747482146435
 31
0.0
1001
AUTOCAD_POSTSCRIPT_FIGURE
1002
{
1000
PSFILL
1000
Grayscale
1000
Grayscale
1070
   100
1002
}
  0
LINE
  5
18DBE
330
18AED
100
AcDbEntity
  8
YODOROGO
100
AcDbLine
 10
13900.80217064596
 20
989.8747482146442
 30
0.0
 11
13908.80217064596
 21
989.8747482146442
 31
0.0
1001
AUTOCAD_POSTSCRIPT_FIGURE
1002
{
1000
PSFILL
1000
Grayscale
1000
Grayscale
1070
   100
1002
}
  0
LINE
  5
18DBF
330
18AED
100
AcDbEntity
  8
YODOROGO
100
AcDbLine
 10
13900.80217064596
 20
977.8747482146435
 30
0.0
 11
13900.80217064596
 21
989.8747482146442
 31
0.0
1001
AUTOCAD_POSTSCRIPT_FIGURE
1002
{
1000
PSFILL
1000
Grayscale
1000
Grayscale
1070
   100
1002
}
  0
LINE
  5
18DC0
330
18AED
100
AcDbEntity
  8
YODOROGO
100
AcDbLine
 10
13888.80217064596
 20
977.8747482146435
 30
0.0
 11
13900.80217064596
 21
977.8747482146435
 31
0.0
1001
AUTOCAD_POSTSCRIPT_FIGURE
1002
{
1000
PSFILL
1000
Grayscale
1000
Grayscale
1070
   100
1002
}
  0
LINE
  5
18DC1
330
18AED
100
AcDbEntity
  8
YODOROGO
100
AcDbLine
 10
13888.80217064596
 20
969.8747482146441
 30
0.0
 11
13888.80217064596
 21
977.8747482146435
 31
0.0
1001
AUTOCAD_POSTSCRIPT_FIGURE
1002
{
1000
PSFILL
1000
Grayscale
1000
Grayscale
1070
   100
1002
}
  0
LINE
  5
18DC2
330
18AED
100
AcDbEntity
  8
YODOROGO
100
AcDbLine
 10
13900.80217064596
 20
969.8747482146441
 30
0.0
 11
13888.80217064596
 21
969.8747482146441
 31
0.0
1001
AUTOCAD_POSTSCRIPT_FIGURE
1002
{
1000
PSFILL
1000
Grayscale
1000
Grayscale
1070
   100
1002
}
  0
LINE
  5
18DC3
330
18AED
100
AcDbEntity
  8
YODOROGO
100
AcDbLine
 10
13900.80217064596
 20
957.3932903968525
 30
0.0
 11
13900.80217064596
 21
969.8747482146441
 31
0.0
1001
AUTOCAD_POSTSCRIPT_FIGURE
1002
{
1000
PSFILL
1000
Grayscale
1000
Grayscale
1070
   100
1002
}
  0
LINE
  5
18DC4
330
18AED
100
AcDbEntity
  8
YODOROGO
100
AcDbLine
 10
13888.80217064596
 20
929.8883739758355
 30
0.0
 11
13900.80217064596
 21
957.3932903968525
 31
0.0
1001
AUTOCAD_POSTSCRIPT_FIGURE
1002
{
1000
PSFILL
1000
Grayscale
1000
Grayscale
1070
   100
1002
}
  0
LINE
  5
18DC5
330
18AED
100
AcDbEntity
  8
YODOROGO
100
AcDbLine
 10
13888.80217064596
 20
921.8883739758362
 30
0.0
 11
13888.80217064596
 21
929.8883739758355
 31
0.0
1001
AUTOCAD_POSTSCRIPT_FIGURE
1002
{
1000
PSFILL
1000
Grayscale
1000
Grayscale
1070
   100
1002
}
  0
LINE
  5
18DC6
330
18AED
100
AcDbEntity
  8
YODOROGO
100
AcDbLine
 10
14128.80217064596
 20
933.8747482146439
 30
0.0
 11
14200.80217064594
 21
912.4388128201532
 31
0.0
1001
AUTOCAD_POSTSCRIPT_FIGURE
1002
{
1000
PSFILL
1000
Grayscale
1000
Grayscale
1070
   100
1002
}
  0
LINE
  5
18DC7
330
18AED
100
AcDbEntity
  8
YODOROGO
100
AcDbLine
 10
14200.80217064594
 20
876.4388128201531
 30
0.0
 11
14128.80217064596
 21
897.8747482146435
 31
0.0
1001
AUTOCAD_POSTSCRIPT_FIGURE
1002
{
1000
PSFILL
1000
Grayscale
1000
Grayscale
1070
   100
1002
}
  0
LINE
  5
18DC8
330
18AED
100
AcDbEntity
  8
YODOROGO
100
AcDbLine
 10
14200.80217064594
 20
992.4388128201531
 30
0.0
 11
14128.80217064596
 21
1013.874748214644
 31
0.0
1001
AUTOCAD_POSTSCRIPT_FIGURE
1002
{
1000
PSFILL
1000
Grayscale
1000
Grayscale
1070
   100
1002
}
  0
LINE
  5
18DC9
330
18AED
100
AcDbEntity
  8
YODOROGO
100
AcDbLine
 10
14128.80217064596
 20
979.874748214644
 30
0.0
 11
14200.80217064594
 21
958.4388128201537
 31
0.0
1001
AUTOCAD_POSTSCRIPT_FIGURE
1002
{
1000
PSFILL
1000
Grayscale
1000
Grayscale
1070
   100
1002
}
  0
LINE
  5
18DCA
330
18AED
100
AcDbEntity
  8
YODOROGO
100
AcDbLine
 10
14128.80217064596
 20
897.8747482146435
 30
0.0
 11
14128.80217064596
 21
933.8747482146439
 31
0.0
1001
AUTOCAD_POSTSCRIPT_FIGURE
1002
{
1000
PSFILL
1000
Grayscale
1000
Grayscale
1070
   100
1002
}
  0
LINE
  5
18DCB
330
18AED
100
AcDbEntity
  8
YODOROGO
100
AcDbLine
 10
14128.80217064596
 20
1013.874748214644
 30
0.0
 11
14128.80217064596
 21
979.874748214644
 31
0.0
1001
AUTOCAD_POSTSCRIPT_FIGURE
1002
{
1000
PSFILL
1000
Grayscale
1000
Grayscale
1070
   100
1002
}
  0
LINE
  5
18DCC
330
18AED
100
AcDbEntity
  8
YODOROGO
100
AcDbLine
 10
14040.11816010337
 20
969.8747482146441
 30
0.0
 11
14064.80217064595
 21
873.8747482146434
 31
0.0
1001
AUTOCAD_POSTSCRIPT_FIGURE
1002
{
1000
PSFILL
1000
Grayscale
1000
Grayscale
1070
   100
1002
}
  0
LINE
  5
18DCD
330
18AED
100
AcDbEntity
  8
YODOROGO
100
AcDbLine
 10
13988.80217064596
 20
969.8747482146441
 30
0.0
 11
14040.11816010337
 21
969.8747482146441
 31
0.0
1001
AUTOCAD_POSTSCRIPT_FIGURE
1002
{
1000
PSFILL
1000
Grayscale
1000
Grayscale
1070
   100
1002
}
  0
LINE
  5
18DCE
330
18AED
100
AcDbEntity
  8
YODOROGO
100
AcDbLine
 10
13988.80217064596
 20
977.8747482146435
 30
0.0
 11
13988.80217064596
 21
969.8747482146441
 31
0.0
1001
AUTOCAD_POSTSCRIPT_FIGURE
1002
{
1000
PSFILL
1000
Grayscale
1000
Grayscale
1070
   100
1002
}
  0
LINE
  5
18DCF
330
18AED
100
AcDbEntity
  8
YODOROGO
100
AcDbLine
 10
14038.30343925995
 20
977.8747482146435
 30
0.0
 11
13988.80217064596
 21
977.8747482146435
 31
0.0
1001
AUTOCAD_POSTSCRIPT_FIGURE
1002
{
1000
PSFILL
1000
Grayscale
1000
Grayscale
1070
   100
1002
}
  0
LINE
  5
18DD0
330
18AED
100
AcDbEntity
  8
YODOROGO
100
AcDbLine
 10
14035.58135799485
 20
989.8747482146442
 30
0.0
 11
14038.30343925995
 21
977.8747482146435
 31
0.0
1001
AUTOCAD_POSTSCRIPT_FIGURE
1002
{
1000
PSFILL
1000
Grayscale
1000
Grayscale
1070
   100
1002
}
  0
LINE
  5
18DD1
330
18AED
100
AcDbEntity
  8
YODOROGO
100
AcDbLine
 10
14045.58135799485
 20
989.8747482146442
 30
0.0
 11
14035.58135799485
 21
989.8747482146442
 31
0.0
1001
AUTOCAD_POSTSCRIPT_FIGURE
1002
{
1000
PSFILL
1000
Grayscale
1000
Grayscale
1070
   100
1002
}
  0
LINE
  5
18DD2
330
18AED
100
AcDbEntity
  8
YODOROGO
100
AcDbLine
 10
14047.90343925997
 20
977.8747482146435
 30
0.0
 11
14045.58135799485
 21
989.8747482146442
 31
0.0
1001
AUTOCAD_POSTSCRIPT_FIGURE
1002
{
1000
PSFILL
1000
Grayscale
1000
Grayscale
1070
   100
1002
}
  0
LINE
  5
18DD3
330
18AED
100
AcDbEntity
  8
YODOROGO
100
AcDbLine
 10
14060.80217064596
 20
977.8747482146435
 30
0.0
 11
14047.90343925997
 21
977.8747482146435
 31
0.0
1001
AUTOCAD_POSTSCRIPT_FIGURE
1002
{
1000
PSFILL
1000
Grayscale
1000
Grayscale
1070
   100
1002
}
  0
LINE
  5
18DD4
330
18AED
100
AcDbEntity
  8
YODOROGO
100
AcDbLine
 10
14060.80217064596
 20
989.8747482146442
 30
0.0
 11
14060.80217064596
 21
977.8747482146435
 31
0.0
1001
AUTOCAD_POSTSCRIPT_FIGURE
1002
{
1000
PSFILL
1000
Grayscale
1000
Grayscale
1070
   100
1002
}
  0
LINE
  5
18DD5
330
18AED
100
AcDbEntity
  8
YODOROGO
100
AcDbLine
 10
14068.80217064596
 20
989.8747482146442
 30
0.0
 11
14060.80217064596
 21
989.8747482146442
 31
0.0
1001
AUTOCAD_POSTSCRIPT_FIGURE
1002
{
1000
PSFILL
1000
Grayscale
1000
Grayscale
1070
   100
1002
}
  0
LINE
  5
18DD6
330
18AED
100
AcDbEntity
  8
YODOROGO
100
AcDbLine
 10
14068.80217064596
 20
977.8747482146435
 30
0.0
 11
14068.80217064596
 21
989.8747482146442
 31
0.0
1001
AUTOCAD_POSTSCRIPT_FIGURE
1002
{
1000
PSFILL
1000
Grayscale
1000
Grayscale
1070
   100
1002
}
  0
LINE
  5
18DD7
330
18AED
100
AcDbEntity
  8
YODOROGO
100
AcDbLine
 10
14068.80217064596
 20
969.8747482146441
 30
0.0
 11
14068.80217064596
 21
977.8747482146435
 31
0.0
1001
AUTOCAD_POSTSCRIPT_FIGURE
1002
{
1000
PSFILL
1000
Grayscale
1000
Grayscale
1070
   100
1002
}
  0
LINE
  5
18DD8
330
18AED
100
AcDbEntity
  8
YODOROGO
100
AcDbLine
 10
14049.45149343671
 20
969.8747482146441
 30
0.0
 11
14068.80217064596
 21
969.8747482146441
 31
0.0
1001
AUTOCAD_POSTSCRIPT_FIGURE
1002
{
1000
PSFILL
1000
Grayscale
1000
Grayscale
1070
   100
1002
}
  0
LINE
  5
18DD9
330
18AED
100
AcDbEntity
  8
YODOROGO
100
AcDbLine
 10
14068.80217064596
 20
873.8747482146434
 30
0.0
 11
14049.45149343671
 21
969.8747482146441
 31
0.0
1001
AUTOCAD_POSTSCRIPT_FIGURE
1002
{
1000
PSFILL
1000
Grayscale
1000
Grayscale
1070
   100
1002
}
  0
LINE
  5
18DDA
330
18AED
100
AcDbEntity
  8
YODOROGO
100
AcDbLine
 10
14064.80217064595
 20
873.8747482146434
 30
0.0
 11
14068.80217064596
 21
873.8747482146434
 31
0.0
1001
AUTOCAD_POSTSCRIPT_FIGURE
1002
{
1000
PSFILL
1000
Grayscale
1000
Grayscale
1070
   100
1002
}
  0
LINE
  5
18DDB
330
18AED
100
AcDbEntity
  8
YODOROGO
100
AcDbLine
 10
14039.03460996689
 20
887.8703881493972
 30
0.0
 11
13988.80217064596
 21
873.8747482146434
 31
0.0
  0
LINE
  5
18DDC
330
18AED
100
AcDbEntity
  8
YODOROGO
100
AcDbLine
 10
14039.03460996689
 20
899.3344897645364
 30
0.0
 11
14039.03460996689
 21
887.8703881493972
 31
0.0
  0
LINE
  5
18DDD
330
18AED
100
AcDbEntity
  8
YODOROGO
100
AcDbLine
 10
14016.91839030643
 20
893.4084665668834
 30
0.0
 11
14039.03460996689
 21
899.3344897645364
 31
0.0
  0
LINE
  5
18DDE
330
18AED
100
AcDbEntity
  8
YODOROGO
100
AcDbLine
 10
14016.91839030643
 20
936.2841744681499
 30
0.0
 11
14016.91839030643
 21
893.4084665668834
 31
0.0
  0
LINE
  5
18DDF
330
18AED
100
AcDbEntity
  8
YODOROGO
100
AcDbLine
 10
14039.03460996689
 20
936.2841744681499
 30
0.0
 11
14016.91839030643
 21
936.2841744681499
 31
0.0
  0
LINE
  5
18DE0
330
18AED
100
AcDbEntity
  8
YODOROGO
100
AcDbLine
 10
14039.03460996689
 20
946.2841744681487
 30
0.0
 11
14039.03460996689
 21
936.2841744681499
 31
0.0
  0
LINE
  5
18DE1
330
18AED
100
AcDbEntity
  8
YODOROGO
100
AcDbLine
 10
13988.80217064596
 20
946.2841744681487
 30
0.0
 11
14039.03460996689
 21
946.2841744681487
 31
0.0
  0
LINE
  5
18DE2
330
18AED
100
AcDbEntity
  8
YODOROGO
100
AcDbLine
 10
13988.80217064596
 20
936.2841744681499
 30
0.0
 11
13988.80217064596
 21
946.2841744681487
 31
0.0
  0
LINE
  5
18DE3
330
18AED
100
AcDbEntity
  8
YODOROGO
100
AcDbLine
 10
14010.91839030643
 20
936.2841744681499
 30
0.0
 11
13988.80217064596
 21
936.2841744681499
 31
0.0
  0
LINE
  5
18DE4
330
18AED
100
AcDbEntity
  8
YODOROGO
100
AcDbLine
 10
14010.91839030643
 20
892.3366697971587
 30
0.0
 11
14010.91839030643
 21
936.2841744681499
 31
0.0
  0
LINE
  5
18DE5
330
18AED
100
AcDbEntity
  8
YODOROGO
100
AcDbLine
 10
13988.80217064596
 20
885.8747482146432
 30
0.0
 11
14010.91839030643
 21
892.3366697971587
 31
0.0
  0
LINE
  5
18DE6
330
18AED
100
AcDbEntity
  8
YODOROGO
100
AcDbLine
 10
13988.80217064596
 20
873.8747482146434
 30
0.0
 11
13988.80217064596
 21
885.8747482146432
 31
0.0
  0
LINE
  5
18DE7
330
18AED
100
AcDbEntity
  8
YODOROGO
100
AcDbLine
 10
14000.80217064596
 20
853.874748214644
 30
0.0
 11
14000.80217064596
 21
841.8747482146434
 31
0.0
  0
LINE
  5
18DE8
330
18AED
100
AcDbEntity
  8
YODOROGO
100
AcDbLine
 10
14000.80217064596
 20
853.874748214644
 30
0.0
 11
14000.80217064596
 21
853.874748214644
 31
0.0
  0
LINE
  5
18DE9
330
18AED
100
AcDbEntity
  8
YODOROGO
100
AcDbLine
 10
14008.80217064596
 20
853.874748214644
 30
0.0
 11
14000.80217064596
 21
853.874748214644
 31
0.0
  0
LINE
  5
18DEA
330
18AED
100
AcDbEntity
  8
YODOROGO
100
AcDbLine
 10
14008.80217064596
 20
841.8747482146434
 30
0.0
 11
14008.80217064596
 21
853.874748214644
 31
0.0
  0
LINE
  5
18DEB
330
18AED
100
AcDbEntity
  8
YODOROGO
100
AcDbLine
 10
14020.45660200844
 20
841.8747482146434
 30
0.0
 11
14008.80217064596
 21
841.8747482146434
 31
0.0
  0
LINE
  5
18DEC
330
18AED
100
AcDbEntity
  8
YODOROGO
100
AcDbLine
 10
14000.80217064596
 20
841.8747482146434
 30
0.0
 11
13988.80217064596
 21
841.8747482146434
 31
0.0
  0
LINE
  5
18DED
330
18AED
100
AcDbEntity
  8
YODOROGO
100
AcDbLine
 10
14041.06776011546
 20
853.874748214644
 30
0.0
 11
14049.06776011545
 21
853.874748214644
 31
0.0
1001
AUTOCAD_POSTSCRIPT_FIGURE
1002
{
1000
PSFILL
1000
Grayscale
1000
Grayscale
1070
   100
1002
}
  0
LINE
  5
18DEE
330
18AED
100
AcDbEntity
  8
YODOROGO
100
AcDbLine
 10
14200.80217064594
 20
912.4388128201532
 30
0.0
 11
14200.80217064594
 21
876.4388128201531
 31
0.0
1001
AUTOCAD_POSTSCRIPT_FIGURE
1002
{
1000
PSFILL
1000
Grayscale
1000
Grayscale
1070
   100
1002
}
  0
LINE
  5
18DEF
330
18AED
100
AcDbEntity
  8
YODOROGO
100
AcDbLine
 10
14200.80217064594
 20
958.4388128201537
 30
0.0
 11
14200.80217064594
 21
992.4388128201531
 31
0.0
1001
AUTOCAD_POSTSCRIPT_FIGURE
1002
{
1000
PSFILL
1000
Grayscale
1000
Grayscale
1070
   100
1002
}
  0
LINE
  5
18DF0
330
18AED
100
AcDbEntity
  8
YODOROGO
100
AcDbLine
 10
14216.80217064594
 20
909.8747482146439
 30
0.0
 11
14216.80217064594
 21
873.8747482146449
 31
0.0
  0
LINE
  5
18DF1
330
18AED
100
AcDbEntity
  8
YODOROGO
100
AcDbLine
 10
14248.80217064594
 20
853.874748214644
 30
0.0
 11
14216.80217064594
 21
853.874748214644
 31
0.0
  0
LINE
  5
18DF2
330
18AED
100
AcDbEntity
  8
YODOROGO
100
AcDbLine
 10
14216.80217064594
 20
873.8747482146449
 30
0.0
 11
14292.80217064596
 21
873.8747482146449
 31
0.0
  0
LINE
  5
18DF3
330
18AED
100
AcDbEntity
  8
YODOROGO
100
AcDbLine
 10
14248.80217064594
 20
933.8747482146439
 30
0.0
 11
14216.80217064594
 21
933.8747482146439
 31
0.0
  0
LINE
  5
18DF4
330
18AED
100
AcDbEntity
  8
YODOROGO
100
AcDbLine
 10
14248.80217064594
 20
961.8747482146432
 30
0.0
 11
14248.80217064594
 21
933.8747482146439
 31
0.0
  0
LINE
  5
18DF5
330
18AED
100
AcDbEntity
  8
YODOROGO
100
AcDbLine
 10
14292.80217064596
 20
993.8747482146439
 30
0.0
 11
14292.80217064596
 21
1013.874748214644
 31
0.0
  0
LINE
  5
18DF6
330
18AED
100
AcDbEntity
  8
YODOROGO
100
AcDbLine
 10
14216.80217064594
 20
993.8747482146439
 30
0.0
 11
14292.80217064596
 21
993.8747482146439
 31
0.0
  0
LINE
  5
18DF7
330
18AED
100
AcDbEntity
  8
YODOROGO
100
AcDbLine
 10
14216.80217064594
 20
933.8747482146439
 30
0.0
 11
14216.80217064594
 21
993.8747482146439
 31
0.0
  0
LINE
  5
18DF8
330
18AED
100
AcDbEntity
  8
YODOROGO
100
AcDbLine
 10
14500.80217064594
 20
1013.874748214644
 30
0.0
 11
14500.80217064594
 21
809.8747482146441
 31
0.0
  0
LINE
  5
18DF9
330
18AED
100
AcDbEntity
  8
YODOROGO
100
AcDbLine
 10
14536.80217064596
 20
789.8747482146441
 30
0.0
 11
14536.80217064596
 21
1013.874748214644
 31
0.0
  0
LINE
  5
18DFA
330
18AED
100
AcDbEntity
  8
YODOROGO
100
AcDbLine
 10
14630.80217064596
 20
745.8747482146431
 30
0.0
 11
14630.80217064596
 21
1003.874748214644
 31
0.0
  0
LINE
  5
18DFB
330
18AED
100
AcDbEntity
  8
YODOROGO
100
AcDbLine
 10
14598.80217064596
 20
1003.874748214644
 30
0.0
 11
14598.80217064596
 21
745.8747482146431
 31
0.0
  0
LINE
  5
18DFC
330
18AED
100
AcDbEntity
  8
YODOROGO
100
AcDbLine
 10
14692.80217064596
 20
1013.874748214644
 30
0.0
 11
14692.80217064596
 21
713.8747482146436
 31
0.0
  0
LINE
  5
18DFD
330
18AED
100
AcDbEntity
  8
YODOROGO
100
AcDbLine
 10
14728.80217064596
 20
713.8747482146436
 30
0.0
 11
14728.80217064596
 21
1013.874748214644
 31
0.0
  0
LINE
  5
18DFE
330
18AED
100
AcDbEntity
  8
YODOROGO
100
AcDbLine
 10
14328.80217064594
 20
833.8747482146439
 30
0.0
 11
14328.80217064594
 21
873.8747482146449
 31
0.0
  0
LINE
  5
18DFF
330
18AED
100
AcDbEntity
  8
YODOROGO
100
AcDbLine
 10
14942.80217064596
 20
853.874748214644
 30
0.0
 11
14942.80217064596
 21
833.8747482146439
 31
0.0
  0
LINE
  5
18E00
330
18AED
100
AcDbEntity
  8
YODOROGO
100
AcDbLine
 10
14942.80217064596
 20
853.874748214644
 30
0.0
 11
14942.80217064596
 21
833.8747482146439
 31
0.0
  0
ARC
  5
18E01
330
18AED
100
AcDbEntity
  8
YODOROGO
100
AcDbCircle
 10
14453.45578809342
 20
809.1089322211363
 30
0.0
 40
47.35257558937082
100
AcDbArc
 50
274.052441629071
 51
0.9266642149310712
  0
ARC
  5
18E02
330
18AED
100
AcDbEntity
  8
YODOROGO
100
AcDbCircle
 10
14454.5930853599
 20
796.30536430522
 30
0.0
 40
82.46021178042756
100
AcDbArc
 50
271.5351210653777
 51
355.5272775058505
  0
LINE
  5
18E03
330
18AED
100
AcDbEntity
  8
YODOROGO
100
AcDbLine
 10
14456.80217064596
 20
761.8747482146434
 30
0.0
 11
14456.80217064596
 21
713.8747482146436
 31
0.0
  0
LINE
  5
18E04
330
18AED
100
AcDbEntity
  8
YODOROGO
100
AcDbLine
 10
14396.80217064594
 20
833.8747482146439
 30
0.0
 11
14328.80217064594
 21
833.8747482146439
 31
0.0
  0
LINE
  5
18E05
330
18AED
100
AcDbEntity
  8
YODOROGO
100
AcDbLine
 10
14396.80217064594
 20
801.8747482146444
 30
0.0
 11
14396.80217064594
 21
833.8747482146439
 31
0.0
  0
LINE
  5
18E06
330
18AED
100
AcDbEntity
  8
YODOROGO
100
AcDbLine
 10
14328.80217064594
 20
801.8747482146444
 30
0.0
 11
14396.80217064594
 21
801.8747482146444
 31
0.0
  0
LINE
  5
18E07
330
18AED
100
AcDbEntity
  8
YODOROGO
100
AcDbLine
 10
14328.80217064594
 20
761.8747482146434
 30
0.0
 11
14328.80217064594
 21
801.8747482146444
 31
0.0
  0
LINE
  5
18E08
330
18AED
100
AcDbEntity
  8
YODOROGO
100
AcDbLine
 10
14396.80217064594
 20
761.8747482146434
 30
0.0
 11
14328.80217064594
 21
761.8747482146434
 31
0.0
  0
LINE
  5
18E09
330
18AED
100
AcDbEntity
  8
YODOROGO
100
AcDbLine
 10
14396.80217064594
 20
713.8747482146436
 30
0.0
 11
14396.80217064594
 21
761.8747482146434
 31
0.0
  0
LINE
  5
18E0A
330
18AED
100
AcDbEntity
  8
YODOROGO
100
AcDbLine
 10
14598.80217064596
 20
745.8747482146431
 30
0.0
 11
14630.80217064596
 21
745.8747482146431
 31
0.0
  0
LINE
  5
18E0B
330
18AED
100
AcDbEntity
  8
YODOROGO
100
AcDbLine
 10
14692.80217064596
 20
713.8747482146436
 30
0.0
 11
14728.80217064596
 21
713.8747482146436
 31
0.0
  0
LINE
  5
18E0C
330
18AED
100
AcDbEntity
  8
YODOROGO
100
AcDbLine
 10
14868.80217064596
 20
764.2207260852818
 30
0.0
 11
14868.80217064596
 21
713.8747482146436
 31
0.0
  0
LINE
  5
18E0D
330
18AED
100
AcDbEntity
  8
YODOROGO
100
AcDbLine
 10
14808.80217064596
 20
713.8747482146436
 30
0.0
 11
14868.80217064596
 21
764.2207260852818
 31
0.0
  0
LINE
  5
18E0E
330
18AED
100
AcDbEntity
  8
YODOROGO
100
AcDbLine
 10
14808.80217064596
 20
773.874748214644
 30
0.0
 11
14808.80217064596
 21
713.8747482146436
 31
0.0
  0
LINE
  5
18E0F
330
18AED
100
AcDbEntity
  8
YODOROGO
100
AcDbLine
 10
14856.47231434973
 20
813.8747482146435
 30
0.0
 11
14808.80217064596
 21
773.874748214644
 31
0.0
  0
LINE
  5
18E10
330
18AED
100
AcDbEntity
  8
YODOROGO
100
AcDbLine
 10
14808.80217064596
 20
813.8747482146435
 30
0.0
 11
14856.47231434973
 21
813.8747482146435
 31
0.0
  0
LINE
  5
18E11
330
18AED
100
AcDbEntity
  8
YODOROGO
100
AcDbLine
 10
14808.80217064596
 20
833.8747482146439
 30
0.0
 11
14808.80217064596
 21
813.8747482146435
 31
0.0
  0
LINE
  5
18E12
330
18AED
100
AcDbEntity
  8
YODOROGO
100
AcDbLine
 10
14942.80217064596
 20
833.8747482146439
 30
0.0
 11
14808.80217064596
 21
833.8747482146439
 31
0.0
  0
LINE
  5
18E13
330
18AED
100
AcDbEntity
  8
YODOROGO
100
AcDbLine
 10
14958.80217064596
 20
813.8747482146435
 30
0.0
 11
14888.80217064596
 21
813.8747482146435
 31
0.0
  0
LINE
  5
18E14
330
18AED
100
AcDbEntity
  8
YODOROGO
100
AcDbLine
 10
14888.80217064596
 20
781.0027187088283
 30
0.0
 11
14885.70493649264
 21
778.403830673117
 31
0.0
  0
LINE
  5
18E15
330
18AED
100
AcDbEntity
  8
YODOROGO
100
AcDbLine
 10
14888.80217064596
 20
813.8747482146435
 30
0.0
 11
14888.80217064596
 21
781.0027187088283
 31
0.0
  0
LINE
  5
18E16
330
18AED
100
AcDbEntity
  8
YODOROGO
100
AcDbLine
 10
14868.80217064596
 20
764.2207260852818
 30
0.0
 11
14868.80217064596
 21
713.8747482146436
 31
0.0
  0
LINE
  5
18E17
330
18AED
100
AcDbEntity
  8
YODOROGO
100
AcDbLine
 10
14808.80217064596
 20
713.8747482146436
 30
0.0
 11
14868.80217064596
 21
764.2207260852818
 31
0.0
  0
LINE
  5
18E18
330
18AED
100
AcDbEntity
  8
YODOROGO
100
AcDbLine
 10
14808.80217064596
 20
773.874748214644
 30
0.0
 11
14808.80217064596
 21
713.8747482146436
 31
0.0
  0
LINE
  5
18E19
330
18AED
100
AcDbEntity
  8
YODOROGO
100
AcDbLine
 10
14856.47231434973
 20
813.8747482146435
 30
0.0
 11
14808.80217064596
 21
773.874748214644
 31
0.0
  0
LINE
  5
18E1A
330
18AED
100
AcDbEntity
  8
YODOROGO
100
AcDbLine
 10
14808.80217064596
 20
813.8747482146435
 30
0.0
 11
14856.47231434973
 21
813.8747482146435
 31
0.0
  0
LINE
  5
18E1B
330
18AED
100
AcDbEntity
  8
YODOROGO
100
AcDbLine
 10
14808.80217064596
 20
833.8747482146439
 30
0.0
 11
14808.80217064596
 21
813.8747482146435
 31
0.0
  0
LINE
  5
18E1C
330
18AED
100
AcDbEntity
  8
YODOROGO
100
AcDbLine
 10
14942.80217064596
 20
833.8747482146439
 30
0.0
 11
14808.80217064596
 21
833.8747482146439
 31
0.0
  0
LINE
  5
18E1D
330
18AED
100
AcDbEntity
  8
YODOROGO
100
AcDbLine
 10
14396.80217064594
 20
873.8747482146449
 30
0.0
 11
14396.80217064594
 21
909.8747482146439
 31
0.0
  0
LINE
  5
18E1E
330
18AED
100
AcDbEntity
  8
YODOROGO
100
AcDbLine
 10
14328.80217064594
 20
873.8747482146449
 30
0.0
 11
14396.80217064594
 21
873.8747482146449
 31
0.0
  0
LINE
  5
18E1F
330
18AED
100
AcDbEntity
  8
YODOROGO
100
AcDbLine
 10
14364.80217064596
 20
933.8747482146439
 30
0.0
 11
14364.80217064596
 21
961.8747482146432
 31
0.0
  0
LINE
  5
18E20
330
18AED
100
AcDbEntity
  8
YODOROGO
100
AcDbLine
 10
14396.80217064594
 20
933.8747482146439
 30
0.0
 11
14364.80217064596
 21
933.8747482146439
 31
0.0
  0
LINE
  5
18E21
330
18AED
100
AcDbEntity
  8
YODOROGO
100
AcDbLine
 10
14396.80217064594
 20
973.8747482146434
 30
0.0
 11
14396.80217064594
 21
933.8747482146439
 31
0.0
  0
ARC
  5
18E22
330
18AED
100
AcDbEntity
  8
YODOROGO
100
AcDbCircle
 10
14376.80217064594
 20
973.8747482146434
 30
0.0
 40
20.0
100
AcDbArc
 50
0.0
 51
90.0
  0
LINE
  5
18E23
330
18AED
100
AcDbEntity
  8
YODOROGO
100
AcDbLine
 10
14328.80217064596
 20
993.8747482146439
 30
0.0
 11
14376.80217064594
 21
993.8747482146439
 31
0.0
  0
LINE
  5
18E24
330
18AED
100
AcDbEntity
  8
YODOROGO
100
AcDbLine
 10
14328.80217064596
 20
1013.874748214644
 30
0.0
 11
14328.80217064596
 21
993.8747482146439
 31
0.0
  0
LINE
  5
18E25
330
18AED
100
AcDbEntity
  8
YODOROGO
100
AcDbLine
 10
14536.80217064596
 20
1013.874748214644
 30
0.0
 11
14500.80217064594
 21
1013.874748214644
 31
0.0
  0
LINE
  5
18E26
330
18AED
100
AcDbEntity
  8
YODOROGO
100
AcDbLine
 10
14630.80217064596
 20
1003.874748214644
 30
0.0
 11
14598.80217064596
 21
1003.874748214644
 31
0.0
  0
LINE
  5
18E27
330
18AED
100
AcDbEntity
  8
YODOROGO
100
AcDbLine
 10
14728.80217064596
 20
1013.874748214644
 30
0.0
 11
14692.80217064596
 21
1013.874748214644
 31
0.0
  0
LINE
  5
18E28
330
18AED
100
AcDbEntity
  8
YODOROGO
100
AcDbLine
 10
14836.80217064596
 20
853.874748214644
 30
0.0
 11
14836.80217064596
 21
885.8747482146441
 31
0.0
1001
AUTOCAD_POSTSCRIPT_FIGURE
1002
{
1000
PSFILL
1000
Grayscale
1000
Grayscale
1070
    25
1002
}
  0
LINE
  5
18E29
330
18AED
100
AcDbEntity
  8
YODOROGO
100
AcDbLine
 10
14808.80217064596
 20
853.874748214644
 30
0.0
 11
14836.80217064596
 21
853.874748214644
 31
0.0
1001
AUTOCAD_POSTSCRIPT_FIGURE
1002
{
1000
PSFILL
1000
Grayscale
1000
Grayscale
1070
    25
1002
}
  0
LINE
  5
18E2A
330
18AED
100
AcDbEntity
  8
YODOROGO
100
AcDbLine
 10
14808.80217064596
 20
909.8747482146439
 30
0.0
 11
14808.80217064596
 21
853.874748214644
 31
0.0
1001
AUTOCAD_POSTSCRIPT_FIGURE
1002
{
1000
PSFILL
1000
Grayscale
1000
Grayscale
1070
    25
1002
}
  0
LINE
  5
18E2B
330
18AED
100
AcDbEntity
  8
YODOROGO
100
AcDbLine
 10
14882.80217064596
 20
909.8747482146439
 30
0.0
 11
14808.80217064596
 21
909.8747482146439
 31
0.0
1001
AUTOCAD_POSTSCRIPT_FIGURE
1002
{
1000
PSFILL
1000
Grayscale
1000
Grayscale
1070
    25
1002
}
  0
LINE
  5
18E2C
330
18AED
100
AcDbEntity
  8
YODOROGO
100
AcDbLine
 10
14882.80217064596
 20
929.874748214644
 30
0.0
 11
14882.80217064596
 21
909.8747482146439
 31
0.0
1001
AUTOCAD_POSTSCRIPT_FIGURE
1002
{
1000
PSFILL
1000
Grayscale
1000
Grayscale
1070
    25
1002
}
  0
LINE
  5
18E2D
330
18AED
100
AcDbEntity
  8
YODOROGO
100
AcDbLine
 10
14808.80217064596
 20
929.874748214644
 30
0.0
 11
14882.80217064596
 21
929.874748214644
 31
0.0
1001
AUTOCAD_POSTSCRIPT_FIGURE
1002
{
1000
PSFILL
1000
Grayscale
1000
Grayscale
1070
    25
1002
}
  0
LINE
  5
18E2E
330
18AED
100
AcDbEntity
  8
YODOROGO
100
AcDbLine
 10
14808.80217064596
 20
953.874748214644
 30
0.0
 11
14808.80217064596
 21
929.874748214644
 31
0.0
1001
AUTOCAD_POSTSCRIPT_FIGURE
1002
{
1000
PSFILL
1000
Grayscale
1000
Grayscale
1070
    25
1002
}
  0
LINE
  5
18E2F
330
18AED
100
AcDbEntity
  8
YODOROGO
100
AcDbLine
 10
14882.80217064596
 20
953.874748214644
 30
0.0
 11
14808.80217064596
 21
953.874748214644
 31
0.0
1001
AUTOCAD_POSTSCRIPT_FIGURE
1002
{
1000
PSFILL
1000
Grayscale
1000
Grayscale
1070
    25
1002
}
  0
LINE
  5
18E30
330
18AED
100
AcDbEntity
  8
YODOROGO
100
AcDbLine
 10
14882.80217064596
 20
973.8747482146434
 30
0.0
 11
14882.80217064596
 21
953.874748214644
 31
0.0
1001
AUTOCAD_POSTSCRIPT_FIGURE
1002
{
1000
PSFILL
1000
Grayscale
1000
Grayscale
1070
    25
1002
}
  0
LINE
  5
18E31
330
18AED
100
AcDbEntity
  8
YODOROGO
100
AcDbLine
 10
14808.80217064596
 20
973.8747482146434
 30
0.0
 11
14882.80217064596
 21
973.8747482146434
 31
0.0
1001
AUTOCAD_POSTSCRIPT_FIGURE
1002
{
1000
PSFILL
1000
Grayscale
1000
Grayscale
1070
    25
1002
}
  0
LINE
  5
18E32
330
18AED
100
AcDbEntity
  8
YODOROGO
100
AcDbLine
 10
14808.80217064596
 20
1013.874748214644
 30
0.0
 11
14808.80217064596
 21
973.8747482146434
 31
0.0
1001
AUTOCAD_POSTSCRIPT_FIGURE
1002
{
1000
PSFILL
1000
Grayscale
1000
Grayscale
1070
    25
1002
}
  0
LINE
  5
18E33
330
18AED
100
AcDbEntity
  8
YODOROGO
100
AcDbLine
 10
14832.80217064596
 20
1013.874748214644
 30
0.0
 11
14808.80217064596
 21
1013.874748214644
 31
0.0
1001
AUTOCAD_POSTSCRIPT_FIGURE
1002
{
1000
PSFILL
1000
Grayscale
1000
Grayscale
1070
    25
1002
}
  0
LINE
  5
18E34
330
18AED
100
AcDbEntity
  8
YODOROGO
100
AcDbLine
 10
14832.80217064596
 20
997.8747482146435
 30
0.0
 11
14832.80217064596
 21
1013.874748214644
 31
0.0
1001
AUTOCAD_POSTSCRIPT_FIGURE
1002
{
1000
PSFILL
1000
Grayscale
1000
Grayscale
1070
    25
1002
}
  0
LINE
  5
18E35
330
18AED
100
AcDbEntity
  8
YODOROGO
100
AcDbLine
 10
14882.80217064596
 20
997.8747482146435
 30
0.0
 11
14832.80217064596
 21
997.8747482146435
 31
0.0
1001
AUTOCAD_POSTSCRIPT_FIGURE
1002
{
1000
PSFILL
1000
Grayscale
1000
Grayscale
1070
    25
1002
}
  0
LINE
  5
18E36
330
18AED
100
AcDbEntity
  8
YODOROGO
100
AcDbLine
 10
14882.80217064596
 20
1013.874748214644
 30
0.0
 11
14882.80217064596
 21
997.8747482146435
 31
0.0
1001
AUTOCAD_POSTSCRIPT_FIGURE
1002
{
1000
PSFILL
1000
Grayscale
1000
Grayscale
1070
    25
1002
}
  0
LINE
  5
18E37
330
18AED
100
AcDbEntity
  8
YODOROGO
100
AcDbLine
 10
14914.80217064596
 20
1013.874748214644
 30
0.0
 11
14882.80217064596
 21
1013.874748214644
 31
0.0
1001
AUTOCAD_POSTSCRIPT_FIGURE
1002
{
1000
PSFILL
1000
Grayscale
1000
Grayscale
1070
    25
1002
}
  0
LINE
  5
18E38
330
18AED
100
AcDbEntity
  8
YODOROGO
100
AcDbLine
 10
14914.80217064596
 20
997.8747482146435
 30
0.0
 11
14914.80217064596
 21
1013.874748214644
 31
0.0
1001
AUTOCAD_POSTSCRIPT_FIGURE
1002
{
1000
PSFILL
1000
Grayscale
1000
Grayscale
1070
    25
1002
}
  0
LINE
  5
18E39
330
18AED
100
AcDbEntity
  8
YODOROGO
100
AcDbLine
 10
14914.80217064596
 20
953.874748214644
 30
0.0
 11
14914.80217064596
 21
973.8747482146434
 31
0.0
1001
AUTOCAD_POSTSCRIPT_FIGURE
1002
{
1000
PSFILL
1000
Grayscale
1000
Grayscale
1070
    25
1002
}
  0
LINE
  5
18E3A
330
18AED
100
AcDbEntity
  8
YODOROGO
100
AcDbLine
 10
14914.80217064596
 20
909.8747482146439
 30
0.0
 11
14914.80217064596
 21
929.874748214644
 31
0.0
1001
AUTOCAD_POSTSCRIPT_FIGURE
1002
{
1000
PSFILL
1000
Grayscale
1000
Grayscale
1070
    25
1002
}
  0
LINE
  5
18E3B
330
18AED
100
AcDbEntity
  8
YODOROGO
100
AcDbLine
 10
14960.80217064594
 20
885.8747482146441
 30
0.0
 11
14960.80217064594
 21
853.874748214644
 31
0.0
1001
AUTOCAD_POSTSCRIPT_FIGURE
1002
{
1000
PSFILL
1000
Grayscale
1000
Grayscale
1070
    25
1002
}
  0
LINE
  5
18E3C
330
18AED
100
AcDbEntity
  8
YODOROGO
100
AcDbLine
 10
14914.80217064596
 20
885.8747482146441
 30
0.0
 11
14960.80217064594
 21
885.8747482146441
 31
0.0
1001
AUTOCAD_POSTSCRIPT_FIGURE
1002
{
1000
PSFILL
1000
Grayscale
1000
Grayscale
1070
    25
1002
}
  0
LINE
  5
18E3D
330
18AED
100
AcDbEntity
  8
YODOROGO
100
AcDbLine
 10
14914.80217064596
 20
853.874748214644
 30
0.0
 11
14914.80217064596
 21
885.8747482146441
 31
0.0
1001
AUTOCAD_POSTSCRIPT_FIGURE
1002
{
1000
PSFILL
1000
Grayscale
1000
Grayscale
1070
    25
1002
}
  0
LINE
  5
18E3E
330
18AED
100
AcDbEntity
  8
YODOROGO
100
AcDbLine
 10
14882.80217064596
 20
853.874748214644
 30
0.0
 11
14914.80217064596
 21
853.874748214644
 31
0.0
1001
AUTOCAD_POSTSCRIPT_FIGURE
1002
{
1000
PSFILL
1000
Grayscale
1000
Grayscale
1070
    25
1002
}
  0
LINE
  5
18E3F
330
18AED
100
AcDbEntity
  8
YODOROGO
100
AcDbLine
 10
14882.80217064596
 20
885.8747482146441
 30
0.0
 11
14882.80217064596
 21
853.874748214644
 31
0.0
1001
AUTOCAD_POSTSCRIPT_FIGURE
1002
{
1000
PSFILL
1000
Grayscale
1000
Grayscale
1070
    25
1002
}
  0
LINE
  5
18E40
330
18AED
100
AcDbEntity
  8
YODOROGO
100
AcDbLine
 10
14836.80217064596
 20
885.8747482146441
 30
0.0
 11
14882.80217064596
 21
885.8747482146441
 31
0.0
1001
AUTOCAD_POSTSCRIPT_FIGURE
1002
{
1000
PSFILL
1000
Grayscale
1000
Grayscale
1070
    25
1002
}
  0
ARC
  5
18E41
330
18AED
100
AcDbEntity
  8
YODOROGO
100
AcDbCircle
 10
15529.75894667896
 20
801.3403687577881
 30
0.0
 40
89.11064055536078
100
AcDbArc
 50
281.0262749542535
 51
357.771135755738
  0
LINE
  5
18E42
330
18AED
100
AcDbEntity
  8
YODOROGO
100
AcDbLine
 10
15706.80217064596
 20
953.874748214644
 30
0.0
 11
15582.80217064596
 21
953.874748214644
 31
0.0
  0
LINE
  5
18E43
330
18AED
100
AcDbEntity
  8
YODOROGO
100
AcDbLine
 10
15706.80217064596
 20
1013.874748214644
 30
0.0
 11
15582.80217064596
 21
1013.874748214644
 31
0.0
  0
LINE
  5
18E44
330
18AED
100
AcDbEntity
  8
YODOROGO
100
AcDbLine
 10
15582.80217064596
 20
981.8747482146434
 30
0.0
 11
15706.80217064596
 21
981.8747482146434
 31
0.0
  0
LINE
  5
18E45
330
18AED
100
AcDbEntity
  8
YODOROGO
100
AcDbLine
 10
15395.80217064596
 20
781.8747482146434
 30
0.0
 11
15395.80217064596
 21
877.8747482146435
 31
0.0
  0
LINE
  5
18E46
330
18AED
100
AcDbEntity
  8
YODOROGO
100
AcDbLine
 10
15381.80217064596
 20
845.8747482146444
 30
0.0
 11
15381.80217064596
 21
781.8747482146434
 31
0.0
  0
LINE
  5
18E47
330
18AED
100
AcDbEntity
  8
YODOROGO
100
AcDbLine
 10
15361.80217064596
 20
745.8747482146443
 30
0.0
 11
15361.80217064596
 21
845.8747482146444
 31
0.0
  0
LINE
  5
18E48
330
18AED
100
AcDbEntity
  8
YODOROGO
100
AcDbLine
 10
15449.80217064596
 20
845.8747482146444
 30
0.0
 11
15449.80217064596
 21
745.8747482146443
 31
0.0
  0
LINE
  5
18E49
330
18AED
100
AcDbEntity
  8
YODOROGO
100
AcDbLine
 10
15429.80217064596
 20
781.8747482146434
 30
0.0
 11
15429.80217064596
 21
845.8747482146444
 31
0.0
  0
LINE
  5
18E4A
330
18AED
100
AcDbEntity
  8
YODOROGO
100
AcDbLine
 10
15415.80217064596
 20
877.8747482146435
 30
0.0
 11
15415.80217064596
 21
781.8747482146434
 31
0.0
  0
LINE
  5
18E4B
330
18AED
100
AcDbEntity
  8
YODOROGO
100
AcDbLine
 10
15486.80217064596
 20
1013.874748214644
 30
0.0
 11
15486.80217064596
 21
733.8747482146435
 31
0.0
  0
LINE
  5
18E4C
330
18AED
100
AcDbEntity
  8
YODOROGO
100
AcDbLine
 10
15322.80217064596
 20
713.8747482146436
 30
0.0
 11
15322.80217064596
 21
1013.874748214644
 31
0.0
  0
LINE
  5
18E4D
330
18AED
100
AcDbEntity
  8
YODOROGO
100
AcDbLine
 10
15348.80217064596
 20
981.8747482146434
 30
0.0
 11
15348.80217064596
 21
713.8747482146436
 31
0.0
  0
LINE
  5
18E4E
330
18AED
100
AcDbEntity
  8
YODOROGO
100
AcDbLine
 10
15462.80217064596
 20
773.874748214644
 30
0.0
 11
15462.80217064596
 21
981.8747482146434
 31
0.0
  0
LINE
  5
18E4F
330
18AED
100
AcDbEntity
  8
YODOROGO
100
AcDbLine
 10
15190.80217064596
 20
813.8747482146435
 30
0.0
 11
15190.80217064596
 21
839.8747482146442
 31
0.0
  0
LINE
  5
18E50
330
18AED
100
AcDbEntity
  8
YODOROGO
100
AcDbLine
 10
15308.80217064596
 20
839.8747482146442
 30
0.0
 11
15308.80217064596
 21
813.8747482146435
 31
0.0
  0
LINE
  5
18E51
330
18AED
100
AcDbEntity
  8
YODOROGO
100
AcDbLine
 10
15582.80217064596
 20
953.874748214644
 30
0.0
 11
15582.80217064596
 21
817.8747482146436
 31
0.0
  0
LINE
  5
18E52
330
18AED
100
AcDbEntity
  8
YODOROGO
100
AcDbLine
 10
14974.80217064595
 20
833.8747482146439
 30
0.0
 11
14974.80217064595
 21
853.874748214644
 31
0.0
  0
LINE
  5
18E53
330
18AED
100
AcDbEntity
  8
YODOROGO
100
AcDbLine
 10
14974.80217064595
 20
833.8747482146439
 30
0.0
 11
14974.80217064595
 21
853.874748214644
 31
0.0
  0
ARC
  5
18E54
330
18AED
100
AcDbEntity
  8
YODOROGO
100
AcDbCircle
 10
15268.80217064596
 20
753.8747482146439
 30
0.0
 40
40.0
100
AcDbArc
 50
270.0
 51
0.0
  0
LINE
  5
18E55
330
18AED
100
AcDbEntity
  8
YODOROGO
100
AcDbLine
 10
15284.80217064596
 20
799.8747482146441
 30
0.0
 11
15308.80217064596
 21
799.8747482146441
 31
0.0
  0
LINE
  5
18E56
330
18AED
100
AcDbEntity
  8
YODOROGO
100
AcDbLine
 10
15308.80217064596
 20
813.8747482146435
 30
0.0
 11
15264.80217064596
 21
813.8747482146435
 31
0.0
  0
LINE
  5
18E57
330
18AED
100
AcDbEntity
  8
YODOROGO
100
AcDbLine
 10
15108.80217064596
 20
833.8747482146439
 30
0.0
 11
14974.80217064595
 21
833.8747482146439
 31
0.0
  0
LINE
  5
18E58
330
18AED
100
AcDbEntity
  8
YODOROGO
100
AcDbLine
 10
15108.80217064596
 20
813.8747482146435
 30
0.0
 11
15108.80217064596
 21
833.8747482146439
 31
0.0
  0
LINE
  5
18E59
330
18AED
100
AcDbEntity
  8
YODOROGO
100
AcDbLine
 10
15008.80217064596
 20
813.8747482146435
 30
0.0
 11
15108.80217064596
 21
813.8747482146435
 31
0.0
  0
ARC
  5
18E5A
330
18AED
100
AcDbEntity
  8
YODOROGO
100
AcDbCircle
 10
15115.02941435068
 20
934.4428574764513
 30
0.0
 40
160.6888181426141
100
AcDbArc
 50
228.6181454618993
 51
245.660289248906
  0
LINE
  5
18E5B
330
18AED
100
AcDbEntity
  8
YODOROGO
100
AcDbLine
 10
15052.80217064596
 20
801.8747482146444
 30
0.0
 11
15048.80217064598
 21
788.0364079349501
 31
0.0
  0
LINE
  5
18E5C
330
18AED
100
AcDbEntity
  8
YODOROGO
100
AcDbLine
 10
15094.80217064596
 20
801.8747482146444
 30
0.0
 11
15052.80217064596
 21
801.8747482146444
 31
0.0
  0
LINE
  5
18E5D
330
18AED
100
AcDbEntity
  8
YODOROGO
100
AcDbLine
 10
15088.80217064596
 20
775.9088612367134
 30
0.0
 11
15094.80217064596
 21
801.8747482146444
 31
0.0
  0
ARC
  5
18E5E
330
18AED
100
AcDbEntity
  8
YODOROGO
100
AcDbCircle
 10
15115.02941435023
 20
934.4428574765014
 30
0.0
 40
160.6888181426453
100
AcDbArc
 50
260.6062929796992
 51
267.7790355655586
  0
LINE
  5
18E5F
330
18AED
100
AcDbEntity
  8
YODOROGO
100
AcDbLine
 10
15108.80217064596
 20
713.8747482146428
 30
0.0
 11
15108.80217064596
 21
773.874748214644
 31
0.0
  0
LINE
  5
18E60
330
18AED
100
AcDbEntity
  8
YODOROGO
100
AcDbLine
 10
14968.80217064596
 20
740.6696674577553
 30
0.0
 11
14968.80217064596
 21
797.2655452655705
 31
0.0
  0
LINE
  5
18E61
330
18AED
100
AcDbEntity
  8
YODOROGO
100
AcDbLine
 10
15108.80217064596
 20
833.8747482146439
 30
0.0
 11
14974.80217064595
 21
833.8747482146439
 31
0.0
  0
LINE
  5
18E62
330
18AED
100
AcDbEntity
  8
YODOROGO
100
AcDbLine
 10
15108.80217064596
 20
813.8747482146435
 30
0.0
 11
15108.80217064596
 21
833.8747482146439
 31
0.0
  0
LINE
  5
18E63
330
18AED
100
AcDbEntity
  8
YODOROGO
100
AcDbLine
 10
15008.80217064596
 20
813.8747482146435
 30
0.0
 11
15108.80217064596
 21
813.8747482146435
 31
0.0
  0
ARC
  5
18E64
330
18AED
100
AcDbEntity
  8
YODOROGO
100
AcDbCircle
 10
15115.02941435068
 20
934.4428574764513
 30
0.0
 40
160.6888181426141
100
AcDbArc
 50
228.6181454618993
 51
245.660289248906
  0
LINE
  5
18E65
330
18AED
100
AcDbEntity
  8
YODOROGO
100
AcDbLine
 10
15052.80217064596
 20
801.8747482146444
 30
0.0
 11
15048.80217064598
 21
788.0364079349501
 31
0.0
  0
LINE
  5
18E66
330
18AED
100
AcDbEntity
  8
YODOROGO
100
AcDbLine
 10
15094.80217064596
 20
801.8747482146444
 30
0.0
 11
15052.80217064596
 21
801.8747482146444
 31
0.0
  0
LINE
  5
18E67
330
18AED
100
AcDbEntity
  8
YODOROGO
100
AcDbLine
 10
15088.80217064596
 20
775.9088612367134
 30
0.0
 11
15094.80217064596
 21
801.8747482146444
 31
0.0
  0
ARC
  5
18E68
330
18AED
100
AcDbEntity
  8
YODOROGO
100
AcDbCircle
 10
15115.02941435023
 20
934.4428574765014
 30
0.0
 40
160.6888181426453
100
AcDbArc
 50
260.6062929796992
 51
267.7790355655586
  0
LINE
  5
18E69
330
18AED
100
AcDbEntity
  8
YODOROGO
100
AcDbLine
 10
15108.80217064596
 20
713.8747482146428
 30
0.0
 11
15108.80217064596
 21
773.874748214644
 31
0.0
  0
LINE
  5
18E6A
330
18AED
100
AcDbEntity
  8
YODOROGO
100
AcDbLine
 10
14968.80217064596
 20
740.6696674577553
 30
0.0
 11
14968.80217064596
 21
797.2655452655705
 31
0.0
  0
LINE
  5
18E6B
330
18AED
100
AcDbEntity
  8
YODOROGO
100
AcDbLine
 10
15216.80217064596
 20
786.8747482146444
 30
0.0
 11
15190.80217064596
 21
786.8747482146444
 31
0.0
  0
LINE
  5
18E6C
330
18AED
100
AcDbEntity
  8
YODOROGO
100
AcDbLine
 10
15216.80217064596
 20
800.8747482146432
 30
0.0
 11
15216.80217064596
 21
786.8747482146444
 31
0.0
  0
LINE
  5
18E6D
330
18AED
100
AcDbEntity
  8
YODOROGO
100
AcDbLine
 10
15190.80217064596
 20
800.8747482146432
 30
0.0
 11
15216.80217064596
 21
800.8747482146432
 31
0.0
  0
LINE
  5
18E6E
330
18AED
100
AcDbEntity
  8
YODOROGO
100
AcDbLine
 10
15190.80217064596
 20
786.8747482146444
 30
0.0
 11
15190.80217064596
 21
800.8747482146432
 31
0.0
  0
LINE
  5
18E6F
330
18AED
100
AcDbEntity
  8
YODOROGO
100
AcDbLine
 10
15214.80217064596
 20
788.8747482146436
 30
0.0
 11
15192.80217064595
 21
788.8747482146436
 31
0.0
  0
LINE
  5
18E70
330
18AED
100
AcDbEntity
  8
YODOROGO
100
AcDbLine
 10
15214.80217064596
 20
798.874748214644
 30
0.0
 11
15214.80217064596
 21
788.8747482146436
 31
0.0
  0
LINE
  5
18E71
330
18AED
100
AcDbEntity
  8
YODOROGO
100
AcDbLine
 10
15192.80217064595
 20
798.874748214644
 30
0.0
 11
15214.80217064596
 21
798.874748214644
 31
0.0
  0
LINE
  5
18E72
330
18AED
100
AcDbEntity
  8
YODOROGO
100
AcDbLine
 10
15192.80217064595
 20
788.8747482146436
 30
0.0
 11
15192.80217064595
 21
798.874748214644
 31
0.0
  0
LINE
  5
18E73
330
18AED
100
AcDbEntity
  8
YODOROGO
100
AcDbLine
 10
15212.80217064596
 20
790.8747482146432
 30
0.0
 11
15194.80217064596
 21
790.8747482146432
 31
0.0
  0
LINE
  5
18E74
330
18AED
100
AcDbEntity
  8
YODOROGO
100
AcDbLine
 10
15212.80217064596
 20
796.8747482146445
 30
0.0
 11
15212.80217064596
 21
790.8747482146432
 31
0.0
  0
LINE
  5
18E75
330
18AED
100
AcDbEntity
  8
YODOROGO
100
AcDbLine
 10
15194.80217064596
 20
796.8747482146445
 30
0.0
 11
15212.80217064596
 21
796.8747482146445
 31
0.0
  0
LINE
  5
18E76
330
18AED
100
AcDbEntity
  8
YODOROGO
100
AcDbLine
 10
15194.80217064596
 20
790.8747482146432
 30
0.0
 11
15194.80217064596
 21
796.8747482146445
 31
0.0
  0
LINE
  5
18E77
330
18AED
100
AcDbEntity
  8
YODOROGO
100
AcDbLine
 10
15210.80217064596
 20
792.8747482146435
 30
0.0
 11
15196.80217064596
 21
792.8747482146435
 31
0.0
  0
LINE
  5
18E78
330
18AED
100
AcDbEntity
  8
YODOROGO
100
AcDbLine
 10
15210.80217064596
 20
794.8747482146441
 30
0.0
 11
15210.80217064596
 21
792.8747482146435
 31
0.0
  0
LINE
  5
18E79
330
18AED
100
AcDbEntity
  8
YODOROGO
100
AcDbLine
 10
15196.80217064596
 20
794.8747482146441
 30
0.0
 11
15210.80217064596
 21
794.8747482146441
 31
0.0
  0
LINE
  5
18E7A
330
18AED
100
AcDbEntity
  8
YODOROGO
100
AcDbLine
 10
15196.80217064596
 20
792.8747482146435
 30
0.0
 11
15196.80217064596
 21
794.8747482146441
 31
0.0
  0
LINE
  5
18E7B
330
18AED
100
AcDbEntity
  8
YODOROGO
100
AcDbLine
 10
15232.80217064596
 20
813.8747482146435
 30
0.0
 11
15190.80217064596
 21
813.8747482146435
 31
0.0
  0
LINE
  5
18E7C
330
18AED
100
AcDbEntity
  8
YODOROGO
100
AcDbLine
 10
15232.80217064596
 20
773.874748214644
 30
0.0
 11
15232.80217064596
 21
813.8747482146435
 31
0.0
  0
LINE
  5
18E7D
330
18AED
100
AcDbEntity
  8
YODOROGO
100
AcDbLine
 10
15190.80217064596
 20
773.874748214644
 30
0.0
 11
15232.80217064596
 21
773.874748214644
 31
0.0
  0
LINE
  5
18E7E
330
18AED
100
AcDbEntity
  8
YODOROGO
100
AcDbLine
 10
15190.80217064596
 20
713.8747482146436
 30
0.0
 11
15190.80217064596
 21
773.874748214644
 31
0.0
  0
LINE
  5
18E7F
330
18AED
100
AcDbEntity
  8
YODOROGO
100
AcDbLine
 10
15268.80217064596
 20
713.8747482146436
 30
0.0
 11
15190.80217064596
 21
713.8747482146436
 31
0.0
  0
LINE
  5
18E80
330
18AED
100
AcDbEntity
  8
YODOROGO
100
AcDbLine
 10
15284.80217064596
 20
785.8747482146432
 30
0.0
 11
15284.80217064596
 21
799.8747482146441
 31
0.0
  0
ARC
  5
18E81
330
18AED
100
AcDbEntity
  8
YODOROGO
100
AcDbCircle
 10
15272.80217064594
 20
785.8747482146457
 30
0.0
 40
12.00000000000187
100
AcDbArc
 50
270.0
 51
359.9999999999877
  0
LINE
  5
18E82
330
18AED
100
AcDbEntity
  8
YODOROGO
100
AcDbLine
 10
15264.80217064596
 20
773.874748214644
 30
0.0
 11
15272.80217064594
 21
773.874748214644
 31
0.0
  0
LINE
  5
18E83
330
18AED
100
AcDbEntity
  8
YODOROGO
100
AcDbLine
 10
15264.80217064596
 20
813.8747482146435
 30
0.0
 11
15264.80217064596
 21
773.874748214644
 31
0.0
  0
LINE
  5
18E84
330
18AED
100
AcDbEntity
  8
YODOROGO
100
AcDbLine
 10
15449.80217064596
 20
773.874748214644
 30
0.0
 11
15462.80217064596
 21
773.874748214644
 31
0.0
  0
LINE
  5
18E85
330
18AED
100
AcDbEntity
  8
YODOROGO
100
AcDbLine
 10
15466.80217064596
 20
713.8747482146436
 30
0.0
 11
15449.80217064596
 21
713.8747482146436
 31
0.0
  0
LINE
  5
18E86
330
18AED
100
AcDbEntity
  8
YODOROGO
100
AcDbLine
 10
15381.80217064596
 20
781.8747482146434
 30
0.0
 11
15395.80217064596
 21
781.8747482146434
 31
0.0
  0
LINE
  5
18E87
330
18AED
100
AcDbEntity
  8
YODOROGO
100
AcDbLine
 10
15449.80217064596
 20
745.8747482146443
 30
0.0
 11
15361.80217064596
 21
745.8747482146443
 31
0.0
  0
LINE
  5
18E88
330
18AED
100
AcDbEntity
  8
YODOROGO
100
AcDbLine
 10
15415.80217064596
 20
781.8747482146434
 30
0.0
 11
15429.80217064596
 21
781.8747482146434
 31
0.0
  0
LINE
  5
18E89
330
18AED
100
AcDbEntity
  8
YODOROGO
100
AcDbLine
 10
15449.80217064596
 20
713.8747482146436
 30
0.0
 11
15449.80217064596
 21
773.874748214644
 31
0.0
  0
LINE
  5
18E8A
330
18AED
100
AcDbEntity
  8
YODOROGO
100
AcDbLine
 10
15348.80217064596
 20
713.8747482146436
 30
0.0
 11
15322.80217064596
 21
713.8747482146436
 31
0.0
  0
LINE
  5
18E8B
330
18AED
100
AcDbEntity
  8
YODOROGO
100
AcDbLine
 10
15308.80217064596
 20
799.8747482146441
 30
0.0
 11
15308.80217064596
 21
753.8747482146439
 31
0.0
  0
ARC
  5
18E8C
330
18AED
100
AcDbEntity
  8
YODOROGO
100
AcDbCircle
 10
15466.80217064596
 20
733.8747482146435
 30
0.0
 40
20.0
100
AcDbArc
 50
270.0
 51
0.0
  0
LINE
  5
18E8D
330
18AED
100
AcDbEntity
  8
YODOROGO
100
AcDbLine
 10
15546.80217064596
 20
761.8747482146434
 30
0.0
 11
15546.80217064596
 21
713.8747482146436
 31
0.0
  0
ARC
  5
18E8E
330
18AED
100
AcDbEntity
  8
YODOROGO
100
AcDbCircle
 10
15519.86069778339
 20
818.7656950548664
 30
0.0
 40
62.94777829583771
100
AcDbArc
 50
295.3405244216011
 51
359.1890230341867
  0
LINE
  5
18E8F
330
18AED
100
AcDbEntity
  8
YODOROGO
100
AcDbLine
 10
15308.80217064596
 20
929.874748214644
 30
0.0
 11
15248.80217064596
 21
969.8747482146441
 31
0.0
  0
LINE
  5
18E90
330
18AED
100
AcDbEntity
  8
YODOROGO
100
AcDbLine
 10
15248.80217064596
 20
1013.874748214644
 30
0.0
 11
15308.80217064596
 21
973.8747482146434
 31
0.0
  0
LINE
  5
18E91
330
18AED
100
AcDbEntity
  8
YODOROGO
100
AcDbLine
 10
15264.80217064596
 20
839.8747482146442
 30
0.0
 11
15308.80217064596
 21
839.8747482146442
 31
0.0
  0
LINE
  5
18E92
330
18AED
100
AcDbEntity
  8
YODOROGO
100
AcDbLine
 10
15308.80217064596
 20
867.8747482146436
 30
0.0
 11
15264.80217064596
 21
867.8747482146436
 31
0.0
  0
LINE
  5
18E93
330
18AED
100
AcDbEntity
  8
YODOROGO
100
AcDbLine
 10
15190.80217064596
 20
897.8747482146435
 30
0.0
 11
15308.80217064596
 21
897.8747482146435
 31
0.0
  0
LINE
  5
18E94
330
18AED
100
AcDbEntity
  8
YODOROGO
100
AcDbLine
 10
15040.80217064596
 20
1013.874748214644
 30
0.0
 11
15010.80217064596
 21
1013.874748214644
 31
0.0
  0
LINE
  5
18E95
330
18AED
100
AcDbEntity
  8
YODOROGO
100
AcDbLine
 10
15040.80217064596
 20
913.8747482146435
 30
0.0
 11
15040.80217064596
 21
1013.874748214644
 31
0.0
  0
LINE
  5
18E96
330
18AED
100
AcDbEntity
  8
YODOROGO
100
AcDbLine
 10
15010.80217064596
 20
913.8747482146435
 30
0.0
 11
15040.80217064596
 21
913.8747482146435
 31
0.0
  0
LINE
  5
18E97
330
18AED
100
AcDbEntity
  8
YODOROGO
100
AcDbLine
 10
15010.80217064596
 20
1013.874748214644
 30
0.0
 11
15010.80217064596
 21
913.8747482146435
 31
0.0
  0
LINE
  5
18E98
330
18AED
100
AcDbEntity
  8
YODOROGO
100
AcDbLine
 10
15080.80217064596
 20
1013.874748214644
 30
0.0
 11
15108.80217064596
 21
1013.874748214644
 31
0.0
  0
LINE
  5
18E99
330
18AED
100
AcDbEntity
  8
YODOROGO
100
AcDbLine
 10
15080.80217064596
 20
905.8747482146443
 30
0.0
 11
15080.80217064596
 21
1013.874748214644
 31
0.0
  0
ARC
  5
18E9A
330
18AED
100
AcDbEntity
  8
YODOROGO
100
AcDbCircle
 10
15060.80217064596
 20
905.8747482146443
 30
0.0
 40
20.0
100
AcDbArc
 50
270.0
 51
0.0
  0
LINE
  5
18E9B
330
18AED
100
AcDbEntity
  8
YODOROGO
100
AcDbLine
 10
15010.80217064596
 20
885.8747482146441
 30
0.0
 11
15060.80217064596
 21
885.8747482146441
 31
0.0
  0
LINE
  5
18E9C
330
18AED
100
AcDbEntity
  8
YODOROGO
100
AcDbLine
 10
15010.80217064596
 20
853.874748214644
 30
0.0
 11
15010.80217064596
 21
885.8747482146441
 31
0.0
  0
LINE
  5
18E9D
330
18AED
100
AcDbEntity
  8
YODOROGO
100
AcDbLine
 10
15068.80217064596
 20
853.874748214644
 30
0.0
 11
15010.80217064596
 21
853.874748214644
 31
0.0
  0
ARC
  5
18E9E
330
18AED
100
AcDbEntity
  8
YODOROGO
100
AcDbCircle
 10
15068.80217064596
 20
893.8747482146439
 30
0.0
 40
40.0
100
AcDbArc
 50
270.0
 51
0.0
  0
LINE
  5
18E9F
330
18AED
100
AcDbEntity
  8
YODOROGO
100
AcDbLine
 10
15108.80217064596
 20
1013.874748214644
 30
0.0
 11
15108.80217064596
 21
893.8747482146439
 31
0.0
  0
LINE
  5
18EA0
330
18AED
100
AcDbEntity
  8
YODOROGO
100
AcDbLine
 10
14988.80217064596
 20
973.8747482146434
 30
0.0
 11
14988.80217064596
 21
997.8747482146435
 31
0.0
1001
AUTOCAD_POSTSCRIPT_FIGURE
1002
{
1000
PSFILL
1000
Grayscale
1000
Grayscale
1070
    25
1002
}
  0
LINE
  5
18EA1
330
18AED
100
AcDbEntity
  8
YODOROGO
100
AcDbLine
 10
14988.80217064596
 20
929.874748214644
 30
0.0
 11
14988.80217064596
 21
953.874748214644
 31
0.0
1001
AUTOCAD_POSTSCRIPT_FIGURE
1002
{
1000
PSFILL
1000
Grayscale
1000
Grayscale
1070
    25
1002
}
  0
LINE
  5
18EA2
330
18AED
100
AcDbEntity
  8
YODOROGO
100
AcDbLine
 10
14988.80217064596
 20
853.874748214644
 30
0.0
 11
14988.80217064596
 21
909.8747482146439
 31
0.0
1001
AUTOCAD_POSTSCRIPT_FIGURE
1002
{
1000
PSFILL
1000
Grayscale
1000
Grayscale
1070
    25
1002
}
  0
LINE
  5
18EA3
330
18AED
100
AcDbEntity
  8
YODOROGO
100
AcDbLine
 10
15190.80217064596
 20
953.874748214644
 30
0.0
 11
15248.80217064596
 21
1013.874748214644
 31
0.0
  0
LINE
  5
18EA4
330
18AED
100
AcDbEntity
  8
YODOROGO
100
AcDbLine
 10
15190.80217064596
 20
909.8747482146439
 30
0.0
 11
15190.80217064596
 21
953.874748214644
 31
0.0
  0
LINE
  5
18EA5
330
18AED
100
AcDbEntity
  8
YODOROGO
100
AcDbLine
 10
15248.80217064596
 20
969.8747482146441
 30
0.0
 11
15190.80217064596
 21
909.8747482146439
 31
0.0
  0
LINE
  5
18EA6
330
18AED
100
AcDbEntity
  8
YODOROGO
100
AcDbLine
 10
15232.80217064596
 20
839.8747482146442
 30
0.0
 11
15232.80217064596
 21
867.8747482146436
 31
0.0
  0
LINE
  5
18EA7
330
18AED
100
AcDbEntity
  8
YODOROGO
100
AcDbLine
 10
15190.80217064596
 20
839.8747482146442
 30
0.0
 11
15232.80217064596
 21
839.8747482146442
 31
0.0
  0
LINE
  5
18EA8
330
18AED
100
AcDbEntity
  8
YODOROGO
100
AcDbLine
 10
15264.80217064596
 20
867.8747482146436
 30
0.0
 11
15264.80217064596
 21
839.8747482146442
 31
0.0
  0
LINE
  5
18EA9
330
18AED
100
AcDbEntity
  8
YODOROGO
100
AcDbLine
 10
15190.80217064596
 20
867.8747482146436
 30
0.0
 11
15190.80217064596
 21
897.8747482146435
 31
0.0
  0
LINE
  5
18EAA
330
18AED
100
AcDbEntity
  8
YODOROGO
100
AcDbLine
 10
15232.80217064596
 20
867.8747482146436
 30
0.0
 11
15190.80217064596
 21
867.8747482146436
 31
0.0
  0
LINE
  5
18EAB
330
18AED
100
AcDbEntity
  8
YODOROGO
100
AcDbLine
 10
15322.80217064596
 20
1013.874748214644
 30
0.0
 11
15486.80217064596
 21
1013.874748214644
 31
0.0
  0
LINE
  5
18EAC
330
18AED
100
AcDbEntity
  8
YODOROGO
100
AcDbLine
 10
15462.80217064596
 20
981.8747482146434
 30
0.0
 11
15348.80217064596
 21
981.8747482146434
 31
0.0
  0
LINE
  5
18EAD
330
18AED
100
AcDbEntity
  8
YODOROGO
100
AcDbLine
 10
15436.80217064595
 20
909.8747482146439
 30
0.0
 11
15449.80217064596
 21
909.8747482146439
 31
0.0
  0
LINE
  5
18EAE
330
18AED
100
AcDbEntity
  8
YODOROGO
100
AcDbLine
 10
15449.80217064596
 20
969.8747482146441
 30
0.0
 11
15436.80217064595
 21
909.8747482146439
 31
0.0
  0
LINE
  5
18EAF
330
18AED
100
AcDbEntity
  8
YODOROGO
100
AcDbLine
 10
15425.80217064596
 20
969.8747482146441
 30
0.0
 11
15449.80217064596
 21
969.8747482146441
 31
0.0
  0
LINE
  5
18EB0
330
18AED
100
AcDbEntity
  8
YODOROGO
100
AcDbLine
 10
15412.80217064596
 20
909.8747482146439
 30
0.0
 11
15425.80217064596
 21
969.8747482146441
 31
0.0
  0
LINE
  5
18EB1
330
18AED
100
AcDbEntity
  8
YODOROGO
100
AcDbLine
 10
15398.80217064596
 20
909.8747482146439
 30
0.0
 11
15412.80217064596
 21
909.8747482146439
 31
0.0
  0
LINE
  5
18EB2
330
18AED
100
AcDbEntity
  8
YODOROGO
100
AcDbLine
 10
15385.80217064596
 20
969.8747482146441
 30
0.0
 11
15398.80217064596
 21
909.8747482146439
 31
0.0
  0
LINE
  5
18EB3
330
18AED
100
AcDbEntity
  8
YODOROGO
100
AcDbLine
 10
15361.80217064596
 20
969.8747482146441
 30
0.0
 11
15385.80217064596
 21
969.8747482146441
 31
0.0
  0
LINE
  5
18EB4
330
18AED
100
AcDbEntity
  8
YODOROGO
100
AcDbLine
 10
15374.80217064596
 20
909.8747482146439
 30
0.0
 11
15361.80217064596
 21
969.8747482146441
 31
0.0
  0
LINE
  5
18EB5
330
18AED
100
AcDbEntity
  8
YODOROGO
100
AcDbLine
 10
15361.80217064596
 20
909.8747482146439
 30
0.0
 11
15374.80217064596
 21
909.8747482146439
 31
0.0
  0
LINE
  5
18EB6
330
18AED
100
AcDbEntity
  8
YODOROGO
100
AcDbLine
 10
15361.80217064596
 20
877.8747482146435
 30
0.0
 11
15361.80217064596
 21
909.8747482146439
 31
0.0
  0
LINE
  5
18EB7
330
18AED
100
AcDbEntity
  8
YODOROGO
100
AcDbLine
 10
15449.80217064596
 20
877.8747482146435
 30
0.0
 11
15361.80217064596
 21
877.8747482146435
 31
0.0
  0
LINE
  5
18EB8
330
18AED
100
AcDbEntity
  8
YODOROGO
100
AcDbLine
 10
15449.80217064596
 20
909.8747482146439
 30
0.0
 11
15449.80217064596
 21
877.8747482146435
 31
0.0
  0
LINE
  5
18EB9
330
18AED
100
AcDbEntity
  8
YODOROGO
100
AcDbLine
 10
15308.80217064596
 20
973.8747482146434
 30
0.0
 11
15308.80217064596
 21
929.874748214644
 31
0.0
  0
LINE
  5
18EBA
330
18AED
100
AcDbEntity
  8
YODOROGO
100
AcDbLine
 10
15395.80217064596
 20
877.8747482146435
 30
0.0
 11
15415.80217064596
 21
877.8747482146435
 31
0.0
  0
LINE
  5
18EBB
330
18AED
100
AcDbEntity
  8
YODOROGO
100
AcDbLine
 10
15361.80217064596
 20
845.8747482146444
 30
0.0
 11
15381.80217064596
 21
845.8747482146444
 31
0.0
  0
LINE
  5
18EBC
330
18AED
100
AcDbEntity
  8
YODOROGO
100
AcDbLine
 10
15429.80217064596
 20
845.8747482146444
 30
0.0
 11
15449.80217064596
 21
845.8747482146444
 31
0.0
  0
LINE
  5
18EBD
330
18AED
100
AcDbEntity
  8
YODOROGO
100
AcDbLine
 10
15308.80217064596
 20
897.8747482146435
 30
0.0
 11
15308.80217064596
 21
867.8747482146436
 31
0.0
  0
LINE
  5
18EBE
330
18AED
100
AcDbEntity
  8
YODOROGO
100
AcDbLine
 10
15582.80217064596
 20
1013.874748214644
 30
0.0
 11
15582.80217064596
 21
981.8747482146434
 31
0.0
  0
LINE
  5
18EBF
330
18AED
100
AcDbEntity
  8
YODOROGO
100
AcDbLine
 10
15766.80217064596
 20
797.8747482146435
 30
0.0
 11
15766.80217064594
 21
905.8747482146443
 31
0.0
  0
LINE
  5
18EC0
330
18AED
100
AcDbEntity
  8
YODOROGO
100
AcDbLine
 10
15730.80217064594
 20
993.8747482146439
 30
0.0
 11
15730.80217064594
 21
817.8747482146436
 31
0.0
  0
LINE
  5
18EC1
330
18AED
100
AcDbEntity
  8
YODOROGO
100
AcDbLine
 10
15826.80217064596
 20
713.8747482146436
 30
0.0
 11
15826.80217064594
 21
905.8747482146443
 31
0.0
  0
LINE
  5
18EC2
330
18AED
100
AcDbEntity
  8
YODOROGO
100
AcDbLine
 10
15794.80217064596
 20
905.8747482146443
 30
0.0
 11
15794.80217064596
 21
713.8747482146436
 31
0.0
  0
LINE
  5
18EC3
330
18AED
100
AcDbEntity
  8
YODOROGO
100
AcDbLine
 10
15618.80217064596
 20
797.8747482146435
 30
0.0
 11
15618.80217064596
 21
853.874748214644
 31
0.0
  0
ARC
  5
18EC4
330
18AED
100
AcDbEntity
  8
YODOROGO
100
AcDbCircle
 10
15676.95743255803
 20
803.8951756442788
 30
0.0
 40
90.04622428799429
100
AcDbArc
 50
268.6284910216979
 51
356.1663845733032
  0
LINE
  5
18EC5
330
18AED
100
AcDbEntity
  8
YODOROGO
100
AcDbLine
 10
15674.80217064596
 20
763.8747482146435
 30
0.0
 11
15674.80217064596
 21
713.8747482146436
 31
0.0
  0
ARC
  5
18EC6
330
18AED
100
AcDbEntity
  8
YODOROGO
100
AcDbCircle
 10
15675.75903786228
 20
818.9194785088275
 30
0.0
 40
55.05304649180608
100
AcDbArc
 50
269.0041020930593
 51
358.9126445549248
  0
LINE
  5
18EC7
330
18AED
100
AcDbEntity
  8
YODOROGO
100
AcDbLine
 10
15794.80217064596
 20
713.8747482146436
 30
0.0
 11
15826.80217064596
 21
713.8747482146436
 31
0.0
  0
LINE
  5
18EC8
330
18AED
100
AcDbEntity
  8
YODOROGO
100
AcDbLine
 10
15766.80217064594
 20
905.8747482146443
 30
0.0
 11
15794.80217064596
 21
905.8747482146443
 31
0.0
  0
LINE
  5
18EC9
330
18AED
100
AcDbEntity
  8
YODOROGO
100
AcDbLine
 10
15810.80217064596
 20
993.8747482146439
 30
0.0
 11
15730.80217064594
 21
993.8747482146439
 31
0.0
  0
LINE
  5
18ECA
330
18AED
100
AcDbEntity
  8
YODOROGO
100
AcDbLine
 10
15766.80217064594
 20
957.8747482146436
 30
0.0
 11
15830.80217064596
 21
957.8747482146436
 31
0.0
  0
LINE
  5
18ECB
330
18AED
100
AcDbEntity
  8
YODOROGO
100
AcDbLine
 10
15850.80217064596
 20
937.8747482146435
 30
0.0
 11
15766.80217064594
 21
937.8747482146435
 31
0.0
  0
LINE
  5
18ECC
330
18AED
100
AcDbEntity
  8
YODOROGO
100
AcDbLine
 10
15618.80217064596
 20
889.8747482146442
 30
0.0
 11
15674.80217064596
 21
889.8747482146442
 31
0.0
  0
LINE
  5
18ECD
330
18AED
100
AcDbEntity
  8
YODOROGO
100
AcDbLine
 10
15618.80217064596
 20
917.8747482146436
 30
0.0
 11
15618.80217064596
 21
889.8747482146442
 31
0.0
  0
LINE
  5
18ECE
330
18AED
100
AcDbEntity
  8
YODOROGO
100
AcDbLine
 10
15674.80217064596
 20
917.8747482146436
 30
0.0
 11
15618.80217064596
 21
917.8747482146436
 31
0.0
  0
LINE
  5
18ECF
330
18AED
100
AcDbEntity
  8
YODOROGO
100
AcDbLine
 10
15674.80217064596
 20
889.8747482146442
 30
0.0
 11
15674.80217064596
 21
917.8747482146436
 31
0.0
  0
LINE
  5
18ED0
330
18AED
100
AcDbEntity
  8
YODOROGO
100
AcDbLine
 10
15766.80217064594
 20
937.8747482146435
 30
0.0
 11
15766.80217064594
 21
957.8747482146436
 31
0.0
  0
LINE
  5
18ED1
330
18AED
100
AcDbEntity
  8
YODOROGO
100
AcDbLine
 10
15706.80217064596
 20
853.874748214644
 30
0.0
 11
15706.80217064596
 21
953.874748214644
 31
0.0
  0
LINE
  5
18ED2
330
18AED
100
AcDbEntity
  8
YODOROGO
100
AcDbLine
 10
15618.80217064596
 20
853.874748214644
 30
0.0
 11
15706.80217064596
 21
853.874748214644
 31
0.0
  0
LINE
  5
18ED3
330
18AED
100
AcDbEntity
  8
YODOROGO
100
AcDbLine
 10
15706.80217064596
 20
981.8747482146434
 30
0.0
 11
15706.80217064596
 21
1013.874748214644
 31
0.0
  0
ARC
  5
18ED4
330
18AED
100
AcDbEntity
  8
YODOROGO
100
AcDbCircle
 10
15810.80217064596
 20
1001.874748214642
 30
0.0
 40
7.99999999999727
100
AcDbArc
 50
270.0
 51
0.0000000000081422
  0
LINE
  5
18ED5
330
18AED
100
AcDbEntity
  8
YODOROGO
100
AcDbLine
 10
15818.80217064596
 20
1013.874748214644
 30
0.0
 11
15818.80217064596
 21
1001.874748214643
 31
0.0
  0
LINE
  5
18ED6
330
18AED
100
AcDbEntity
  8
YODOROGO
100
AcDbLine
 10
15850.80217064596
 20
1013.874748214644
 30
0.0
 11
15818.80217064596
 21
1013.874748214644
 31
0.0
  0
LINE
  5
18ED7
330
18AED
100
AcDbEntity
  8
YODOROGO
100
AcDbLine
 10
15850.80217064596
 20
977.8747482146435
 30
0.0
 11
15850.80217064596
 21
1013.874748214644
 31
0.0
  0
ARC
  5
18ED8
330
18AED
100
AcDbEntity
  8
YODOROGO
100
AcDbCircle
 10
15830.80217064596
 20
977.8747482146435
 30
0.0
 40
20.0
100
AcDbArc
 50
270.0
 51
0.0
  0
LINE
  5
18ED9
330
18AED
100
AcDbEntity
  8
YODOROGO
100
AcDbLine
 10
15850.80217064596
 20
905.8747482146443
 30
0.0
 11
15850.80217064596
 21
937.8747482146435
 31
0.0
  0
LINE
  5
18EDA
330
18AED
100
AcDbEntity
  8
YODOROGO
100
AcDbLine
 10
15826.80217064594
 20
905.8747482146443
 30
0.0
 11
15850.80217064596
 21
905.8747482146443
 31
0.0
  0
LINE
  5
18EDB
330
18AED
100
AcDbEntity
  8
SUNPOU
100
AcDbLine
 10
3969.797051267461
 20
2706.284839419602
 30
0.0
 11
3835.443655266704
 21
2706.284839419602
 31
0.0
  0
LINE
  5
18EDC
330
18AED
100
AcDbEntity
  8
SUNPOU
100
AcDbLine
 10
3969.797051267461
 20
2546.284839419602
 30
0.0
 11
3835.443655266704
 21
2546.284839419602
 31
0.0
  0
LINE
  5
18EDD
330
18AED
100
AcDbEntity
  8
SUNPOU
100
AcDbLine
 10
3880.443655266704
 20
2691.284839419602
 30
0.0
 11
3880.443655266704
 21
2561.284839419602
 31
0.0
  0
LINE
  5
18EDE
330
18AED
100
AcDbEntity
  8
SUNPOU
100
AcDbLine
 10
3880.443655266704
 20
2546.284839419602
 30
0.0
 11
3880.443655266704
 21
2295.570553705315
 31
0.0
  0
LINE
  5
18EDF
330
18AED
100
AcDbEntity
  8
SUNPOU
100
AcDbLine
 10
4129.797051267463
 20
3456.684839419605
 30
0.0
 11
3616.747780992795
 21
3456.684839419605
 31
0.0
  0
LINE
  5
18EE0
330
18AED
100
AcDbEntity
  8
SUNPOU
100
AcDbLine
 10
3969.797051267461
 20
2546.284839419602
 30
0.0
 11
3616.747780992795
 21
2546.284839419602
 31
0.0
  0
LINE
  5
18EE1
330
18AED
100
AcDbEntity
  8
SUNPOU
100
AcDbLine
 10
3661.747780992796
 20
3441.684839419605
 30
0.0
 11
3661.747780992794
 21
2561.284839419602
 31
0.0
  0
LINE
  5
18EE2
330
18AED
100
AcDbEntity
  8
SUNPOU
100
AcDbLine
 10
7750.123251791109
 20
2706.284839419607
 30
0.0
 11
7615.76985579035
 21
2706.284839419607
 31
0.0
  0
LINE
  5
18EE3
330
18AED
100
AcDbEntity
  8
SUNPOU
100
AcDbLine
 10
7750.123251791109
 20
2546.284839419602
 30
0.0
 11
7615.76985579035
 21
2546.284839419602
 31
0.0
  0
LINE
  5
18EE4
330
18AED
100
AcDbEntity
  8
SUNPOU
100
AcDbLine
 10
7660.769855790352
 20
2691.284839419607
 30
0.0
 11
7660.769855790352
 21
2561.284839419602
 31
0.0
  0
LINE
  5
18EE5
330
18AED
100
AcDbEntity
  8
SUNPOU
100
AcDbLine
 10
7660.769855790352
 20
2546.284839419602
 30
0.0
 11
7660.769855790352
 21
2295.570553705315
 31
0.0
  0
LINE
  5
18EE6
330
18AED
100
AcDbEntity
  8
SUNPOU
100
AcDbLine
 10
8230.123251791111
 20
3456.684839419605
 30
0.0
 11
7396.802983832269
 21
3456.684839419605
 31
0.0
  0
LINE
  5
18EE7
330
18AED
100
AcDbEntity
  8
SUNPOU
100
AcDbLine
 10
7750.123251791109
 20
2546.284839419602
 30
0.0
 11
7396.802983832269
 21
2546.284839419602
 31
0.0
  0
LINE
  5
18EE8
330
18AED
100
AcDbEntity
  8
SUNPOU
100
AcDbLine
 10
7441.802983832269
 20
3441.684839419604
 30
0.0
 11
7441.802983832269
 21
2561.284839419602
 31
0.0
  0
LINE
  5
18EE9
330
18AED
100
AcDbEntity
  8
SUNPOU
100
AcDbLine
 10
11635.33837406208
 20
3722.337036584561
 30
0.0
 11
12358.40680314955
 21
3722.337036584561
 31
0.0
  0
LINE
  5
18EEA
330
18AED
100
AcDbEntity
  8
SUNPOU
100
AcDbLine
 10
11635.33837406208
 20
3882.337036584561
 30
0.0
 11
12358.40680314955
 21
3882.337036584561
 31
0.0
  0
LINE
  5
18EEB
330
18AED
100
AcDbEntity
  8
SUNPOU
100
AcDbLine
 10
12313.40680314955
 20
3737.33703658456
 30
0.0
 11
12313.40680314955
 21
3867.337036584561
 31
0.0
  0
LINE
  5
18EEC
330
18AED
100
AcDbEntity
  8
SUNPOU
100
AcDbLine
 10
12313.40680314955
 20
3882.337036584561
 30
0.0
 11
12313.40680314955
 21
4084.479893727417
 31
0.0
  0
LINE
  5
18EED
330
18AED
100
AcDbEntity
  8
SUNPOU
100
AcDbLine
 10
11635.33837406208
 20
3722.337036584561
 30
0.0
 11
12358.40680314955
 21
3722.337036584561
 31
0.0
  0
LINE
  5
18EEE
330
18AED
100
AcDbEntity
  8
SUNPOU
100
AcDbLine
 10
11931.33837406209
 20
3618.337036584563
 30
0.0
 11
12358.40680314955
 21
3618.337036584563
 31
0.0
  0
LINE
  5
18EEF
330
18AED
100
AcDbEntity
  8
SUNPOU
100
AcDbLine
 10
12313.40680314955
 20
3737.33703658456
 30
0.0
 11
12313.40680314955
 21
3752.33703658456
 31
0.0
  0
LINE
  5
18EF0
330
18AED
100
AcDbEntity
  8
SUNPOU
100
AcDbLine
 10
12313.40680314955
 20
3603.337036584562
 30
0.0
 11
12313.40680314955
 21
3401.194179441707
 31
0.0
  0
LINE
  5
18EF1
330
18AED
100
AcDbEntity
  8
SUNPOU
100
AcDbLine
 10
12313.40680314955
 20
3722.337036584561
 30
0.0
 11
12313.40680314955
 21
3618.337036584563
 31
0.0
  0
LINE
  5
18EF2
330
18AED
100
AcDbEntity
  8
SUNPOU
100
AcDbLine
 10
11821.33837406209
 20
2430.144344053149
 30
0.0
 11
11821.33837406209
 21
2200.804976716085
 31
0.0
  0
LINE
  5
18EF3
330
18AED
100
AcDbEntity
  8
SUNPOU
100
AcDbLine
 10
11901.33837406209
 20
2470.144344053149
 30
0.0
 11
11901.33837406209
 21
2200.804976716085
 31
0.0
  0
LINE
  5
18EF4
330
18AED
100
AcDbEntity
  8
SUNPOU
100
AcDbLine
 10
11806.33837406209
 20
2245.804976716085
 30
0.0
 11
11791.33837406209
 21
2245.804976716085
 31
0.0
  0
LINE
  5
18EF5
330
18AED
100
AcDbEntity
  8
SUNPOU
100
AcDbLine
 10
11916.33837406208
 20
2245.804976716085
 30
0.0
 11
12118.48123120495
 21
2245.804976716085
 31
0.0
  0
LINE
  5
18EF6
330
18AED
100
AcDbEntity
  8
SUNPOU
100
AcDbLine
 10
11821.33837406209
 20
2245.804976716085
 30
0.0
 11
11901.33837406209
 21
2245.804976716085
 31
0.0
  0
LINE
  5
18EF7
330
18AED
100
AcDbEntity
  8
SUNPOU
100
AcDbLine
 10
11261.33837406209
 20
2430.144344053149
 30
0.0
 11
11261.33837406209
 21
2200.804976716085
 31
0.0
  0
LINE
  5
18EF8
330
18AED
100
AcDbEntity
  8
SUNPOU
100
AcDbLine
 10
11821.33837406209
 20
2430.144344053149
 30
0.0
 11
11821.33837406209
 21
2200.804976716085
 31
0.0
  0
LINE
  5
18EF9
330
18AED
100
AcDbEntity
  8
SUNPOU
100
AcDbLine
 10
11276.3383740621
 20
2245.804976716085
 30
0.0
 11
11806.33837406209
 21
2245.804976716085
 31
0.0
  0
LINE
  5
18EFA
330
18AED
100
AcDbEntity
  8
SUNPOU
100
AcDbLine
 10
11261.33837406209
 20
2430.144344053149
 30
0.0
 11
11261.33837406209
 21
2200.804976716085
 31
0.0
  0
LINE
  5
18EFB
330
18AED
100
AcDbEntity
  8
SUNPOU
100
AcDbLine
 10
11181.33837406209
 20
2470.144344053149
 30
0.0
 11
11181.33837406209
 21
2200.804976716085
 31
0.0
  0
LINE
  5
18EFC
330
18AED
100
AcDbEntity
  8
SUNPOU
100
AcDbLine
 10
11276.3383740621
 20
2245.804976716085
 30
0.0
 11
11291.3383740621
 21
2245.804976716085
 31
0.0
  0
LINE
  5
18EFD
330
18AED
100
AcDbEntity
  8
SUNPOU
100
AcDbLine
 10
11166.33837406209
 20
2245.804976716085
 30
0.0
 11
10964.19551691923
 21
2245.804976716085
 31
0.0
  0
LINE
  5
18EFE
330
18AED
100
AcDbEntity
  8
SUNPOU
100
AcDbLine
 10
11261.33837406209
 20
2245.804976716085
 30
0.0
 11
11181.33837406209
 21
2245.804976716085
 31
0.0
  0
LINE
  5
18EFF
330
18AED
100
AcDbEntity
  8
SUNPOU
100
AcDbLine
 10
11181.33837406209
 20
2470.144344053149
 30
0.0
 11
11181.33837406209
 21
1990.804976716086
 31
0.0
  0
LINE
  5
18F00
330
18AED
100
AcDbEntity
  8
SUNPOU
100
AcDbLine
 10
11901.33837406209
 20
2470.144344053149
 30
0.0
 11
11901.33837406209
 21
1990.804976716086
 31
0.0
  0
LINE
  5
18F01
330
18AED
100
AcDbEntity
  8
SUNPOU
100
AcDbLine
 10
11196.33837406209
 20
2035.804976716086
 30
0.0
 11
11886.33837406209
 21
2035.804976716086
 31
0.0
  0
LINE
  5
18F02
330
18AED
100
AcDbEntity
  8
SUNPOU
100
AcDbLine
 10
11155.33837406209
 20
2700.144344053149
 30
0.0
 11
10873.33837406209
 21
2700.144344053149
 31
0.0
  0
LINE
  5
18F03
330
18AED
100
AcDbEntity
  8
SUNPOU
100
AcDbLine
 10
11151.33837406208
 20
2500.144344053149
 30
0.0
 11
10873.33837406209
 21
2500.144344053149
 31
0.0
  0
LINE
  5
18F04
330
18AED
100
AcDbEntity
  8
SUNPOU
100
AcDbLine
 10
10918.33837406209
 20
2685.144344053149
 30
0.0
 11
10918.33837406209
 21
2515.144344053149
 31
0.0
  0
LINE
  5
18F05
330
18AED
100
AcDbEntity
  8
SUNPOU
100
AcDbLine
 10
11155.33837406209
 20
2700.144344053149
 30
0.0
 11
10873.33837406209
 21
2700.144344053149
 31
0.0
  0
LINE
  5
18F06
330
18AED
100
AcDbEntity
  8
SUNPOU
100
AcDbLine
 10
11151.33837406208
 20
2900.144344053149
 30
0.0
 11
10873.33837406209
 21
2900.144344053149
 31
0.0
  0
LINE
  5
18F07
330
18AED
100
AcDbEntity
  8
SUNPOU
100
AcDbLine
 10
10918.33837406209
 20
2715.144344053149
 30
0.0
 11
10918.33837406209
 21
2885.144344053149
 31
0.0
  0
LINE
  5
18F08
330
18AED
100
AcDbEntity
  8
SUNPOU
100
AcDbLine
 10
11151.33837406208
 20
2500.144344053149
 30
0.0
 11
10663.33837406209
 21
2500.144344053149
 31
0.0
  0
LINE
  5
18F09
330
18AED
100
AcDbEntity
  8
SUNPOU
100
AcDbLine
 10
11151.33837406208
 20
2900.144344053149
 30
0.0
 11
10663.33837406209
 21
2900.144344053149
 31
0.0
  0
LINE
  5
18F0A
330
18AED
100
AcDbEntity
  8
SUNPOU
100
AcDbLine
 10
10708.33837406208
 20
2515.144344053149
 30
0.0
 11
10708.33837406208
 21
2885.144344053149
 31
0.0
  0
LINE
  5
18F0B
330
18AED
100
AcDbEntity
  8
SUNPOU
100
AcDbLine
 10
11821.33837406209
 20
3548.337036584563
 30
0.0
 11
11821.33837406209
 21
3349.170862655059
 31
0.0
  0
LINE
  5
18F0C
330
18AED
100
AcDbEntity
  8
SUNPOU
100
AcDbLine
 10
11901.33837406209
 20
3588.337036584562
 30
0.0
 11
11901.33837406209
 21
3349.170862655059
 31
0.0
  0
LINE
  5
18F0D
330
18AED
100
AcDbEntity
  8
SUNPOU
100
AcDbLine
 10
11806.33837406209
 20
3394.17086265506
 30
0.0
 11
11791.33837406209
 21
3394.17086265506
 31
0.0
  0
LINE
  5
18F0E
330
18AED
100
AcDbEntity
  8
SUNPOU
100
AcDbLine
 10
11916.33837406208
 20
3394.17086265506
 30
0.0
 11
12118.48123120495
 21
3394.17086265506
 31
0.0
  0
LINE
  5
18F0F
330
18AED
100
AcDbEntity
  8
SUNPOU
100
AcDbLine
 10
11821.33837406209
 20
3394.17086265506
 30
0.0
 11
11901.33837406209
 21
3394.17086265506
 31
0.0
  0
LINE
  5
18F10
330
18AED
100
AcDbEntity
  8
SUNPOU
100
AcDbLine
 10
11261.33837406209
 20
3548.337036584563
 30
0.0
 11
11261.33837406209
 21
3349.170862655062
 31
0.0
  0
LINE
  5
18F11
330
18AED
100
AcDbEntity
  8
SUNPOU
100
AcDbLine
 10
11821.33837406209
 20
3548.337036584563
 30
0.0
 11
11821.33837406209
 21
3349.170862655062
 31
0.0
  0
LINE
  5
18F12
330
18AED
100
AcDbEntity
  8
SUNPOU
100
AcDbLine
 10
11276.3383740621
 20
3394.170862655061
 30
0.0
 11
11806.33837406209
 21
3394.170862655061
 31
0.0
  0
LINE
  5
18F13
330
18AED
100
AcDbEntity
  8
SUNPOU
100
AcDbLine
 10
11261.33837406209
 20
3548.337036584563
 30
0.0
 11
11261.33837406209
 21
3349.170862655059
 31
0.0
  0
LINE
  5
18F14
330
18AED
100
AcDbEntity
  8
SUNPOU
100
AcDbLine
 10
11181.33837406207
 20
3588.337036584562
 30
0.0
 11
11181.33837406207
 21
3349.170862655059
 31
0.0
  0
LINE
  5
18F15
330
18AED
100
AcDbEntity
  8
SUNPOU
100
AcDbLine
 10
11276.3383740621
 20
3394.17086265506
 30
0.0
 11
11291.3383740621
 21
3394.17086265506
 31
0.0
  0
LINE
  5
18F16
330
18AED
100
AcDbEntity
  8
SUNPOU
100
AcDbLine
 10
11166.33837406207
 20
3394.17086265506
 30
0.0
 11
10964.19551691922
 21
3394.17086265506
 31
0.0
  0
LINE
  5
18F17
330
18AED
100
AcDbEntity
  8
SUNPOU
100
AcDbLine
 10
11261.33837406209
 20
3394.17086265506
 30
0.0
 11
11181.33837406207
 21
3394.17086265506
 31
0.0
  0
LINE
  5
18F18
330
18AED
100
AcDbEntity
  8
SUNPOU
100
AcDbLine
 10
11181.33837406207
 20
3588.337036584562
 30
0.0
 11
11181.33837406207
 21
3139.170862655062
 31
0.0
  0
LINE
  5
18F19
330
18AED
100
AcDbEntity
  8
SUNPOU
100
AcDbLine
 10
11901.33837406209
 20
3588.337036584562
 30
0.0
 11
11901.33837406209
 21
3139.170862655062
 31
0.0
  0
LINE
  5
18F1A
330
18AED
100
AcDbEntity
  8
SUNPOU
100
AcDbLine
 10
11196.33837406208
 20
3184.170862655062
 30
0.0
 11
11886.33837406209
 21
3184.170862655062
 31
0.0
  0
LINE
  5
18F1B
330
18AED
100
AcDbEntity
  8
SUNPOU
100
AcDbLine
 10
7940.12325179111
 20
2676.284839419607
 30
0.0
 11
7940.12325179111
 21
2103.684839419604
 31
0.0
  0
LINE
  5
18F1C
330
18AED
100
AcDbEntity
  8
SUNPOU
100
AcDbLine
 10
9220.123251791108
 20
2676.284839419607
 30
0.0
 11
9220.123251791108
 21
2103.684839419604
 31
0.0
  0
LINE
  5
18F1D
330
18AED
100
AcDbEntity
  8
SUNPOU
100
AcDbLine
 10
7955.123251791109
 20
2148.684839419604
 30
0.0
 11
9205.123251791109
 21
2148.684839419604
 31
0.0
  0
LINE
  5
18F1E
330
18AED
100
AcDbEntity
  8
SUNPOU
100
AcDbLine
 10
7780.123251791109
 20
2516.284839419602
 30
0.0
 11
7780.123251791109
 21
1893.684839419604
 31
0.0
  0
LINE
  5
18F1F
330
18AED
100
AcDbEntity
  8
SUNPOU
100
AcDbLine
 10
9380.123251791109
 20
2516.284839419602
 30
0.0
 11
9380.123251791109
 21
1893.684839419604
 31
0.0
  0
LINE
  5
18F20
330
18AED
100
AcDbEntity
  8
SUNPOU
100
AcDbLine
 10
7795.123251791108
 20
1938.684839419604
 30
0.0
 11
9365.123251791109
 21
1938.684839419604
 31
0.0
  0
LINE
  5
18F21
330
18AED
100
AcDbEntity
  8
SUNPOU
100
AcDbLine
 10
7270.769855790351
 20
3376.684839419608
 30
0.0
 11
7285.769855790352
 21
3376.684839419608
 31
0.0
  0
LINE
  5
18F22
330
18AED
100
AcDbEntity
  8
SUNPOU
100
AcDbLine
 10
8230.123251791111
 20
3456.684839419605
 30
0.0
 11
7195.769855790351
 21
3456.684839419605
 31
0.0
  0
LINE
  5
18F23
330
18AED
100
AcDbEntity
  8
SUNPOU
100
AcDbLine
 10
7240.76985579035
 20
3361.684839419608
 30
0.0
 11
7240.76985579035
 21
3346.684839419608
 31
0.0
  0
LINE
  5
18F24
330
18AED
100
AcDbEntity
  8
SUNPOU
100
AcDbLine
 10
7240.76985579035
 20
3471.684839419604
 30
0.0
 11
7240.76985579035
 21
3673.827696562461
 31
0.0
  0
LINE
  5
18F25
330
18AED
100
AcDbEntity
  8
SUNPOU
100
AcDbLine
 10
7240.76985579035
 20
3376.684839419608
 30
0.0
 11
7240.76985579035
 21
3456.684839419605
 31
0.0
  0
LINE
  5
18F26
330
18AED
100
AcDbEntity
  8
SUNPOU
100
AcDbLine
 10
7910.12325179111
 20
3314.284839419605
 30
0.0
 11
7615.769855790354
 21
3314.284839419605
 31
0.0
  0
LINE
  5
18F27
330
18AED
100
AcDbEntity
  8
SUNPOU
100
AcDbLine
 10
7910.12325179111
 20
3186.284839419601
 30
0.0
 11
7615.769855790354
 21
3186.284839419601
 31
0.0
  0
LINE
  5
18F28
330
18AED
100
AcDbEntity
  8
SUNPOU
100
AcDbLine
 10
7660.769855790352
 20
3299.284839419605
 30
0.0
 11
7660.769855790352
 21
3201.2848394196
 31
0.0
  0
LINE
  5
18F29
330
18AED
100
AcDbEntity
  8
SUNPOU
100
AcDbLine
 10
7910.12325179111
 20
3314.284839419602
 30
0.0
 11
7615.76985579035
 21
3314.284839419602
 31
0.0
  0
LINE
  5
18F2A
330
18AED
100
AcDbEntity
  8
SUNPOU
100
AcDbLine
 10
8230.123251791111
 20
3456.684839419605
 30
0.0
 11
7615.76985579035
 21
3456.684839419605
 31
0.0
  0
LINE
  5
18F2B
330
18AED
100
AcDbEntity
  8
SUNPOU
100
AcDbLine
 10
7660.769855790352
 20
3329.284839419602
 30
0.0
 11
7660.769855790352
 21
3441.684839419604
 31
0.0
  0
LINE
  5
18F2C
330
18AED
100
AcDbEntity
  8
SUNPOU
100
AcDbLine
 10
7660.769855790352
 20
3456.684839419605
 30
0.0
 11
7660.769855790352
 21
3658.827696562461
 31
0.0
  0
LINE
  5
18F2D
330
18AED
100
AcDbEntity
  8
SUNPOU
100
AcDbLine
 10
7750.123251791109
 20
2706.284839419607
 30
0.0
 11
7615.76985579035
 21
2706.284839419607
 31
0.0
  0
LINE
  5
18F2E
330
18AED
100
AcDbEntity
  8
SUNPOU
100
AcDbLine
 10
7910.12325179111
 20
3186.284839419601
 30
0.0
 11
7615.76985579035
 21
3186.284839419601
 31
0.0
  0
LINE
  5
18F2F
330
18AED
100
AcDbEntity
  8
SUNPOU
100
AcDbLine
 10
7660.769855790352
 20
2721.284839419607
 30
0.0
 11
7660.769855790352
 21
3171.2848394196
 31
0.0
  0
LINE
  5
18F30
330
18AED
100
AcDbEntity
  8
SUNPOU
100
AcDbLine
 10
10125.35375904136
 20
4130.485411556196
 30
0.0
 11
10065.35375904133
 21
4130.485411556196
 31
0.0
  0
LINE
  5
18F31
330
18AED
100
AcDbEntity
  8
SUNPOU
100
AcDbLine
 10
10125.35375904135
 20
4130.485411556196
 30
0.0
 11
10065.35375904135
 21
4146.562363102066
 31
0.0
  0
LINE
  5
18F32
330
18AED
100
AcDbEntity
  8
SUNPOU
100
AcDbLine
 10
10125.35375904136
 20
4130.485411556196
 30
0.0
 11
10065.35375904133
 21
4114.408460010326
 31
0.0
  0
LINE
  5
18F33
330
18AED
100
AcDbEntity
  8
SUNPOU
100
AcDbLine
 10
10065.35375904135
 20
4130.485411556196
 30
0.0
 11
10005.35375904133
 21
4130.485411556196
 31
0.0
  0
LINE
  5
18F34
330
18AED
100
AcDbEntity
  8
SUNPOU
100
AcDbLine
 10
10065.35375904135
 20
4130.485411556196
 30
0.0
 11
10005.35375904135
 21
4146.562363102066
 31
0.0
  0
LINE
  5
18F35
330
18AED
100
AcDbEntity
  8
SUNPOU
100
AcDbLine
 10
10065.35375904135
 20
4130.485411556196
 30
0.0
 11
10005.35375904133
 21
4114.408460010326
 31
0.0
  0
LINE
  5
18F36
330
18AED
100
AcDbEntity
  8
SUNPOU
100
AcDbLine
 10
8580.123251791111
 20
4160.485411556194
 30
0.0
 11
8580.123251791111
 21
4175.485411556194
 31
0.0
  0
LINE
  5
18F37
330
18AED
100
AcDbEntity
  8
SUNPOU
100
AcDbLine
 10
8260.12325179111
 20
3486.684839419604
 30
0.0
 11
8260.12325179111
 21
4175.485411556194
 31
0.0
  0
LINE
  5
18F38
330
18AED
100
AcDbEntity
  8
SUNPOU
100
AcDbLine
 10
8565.123251791112
 20
4130.485411556196
 30
0.0
 11
8275.123251791111
 21
4130.485411556196
 31
0.0
  0
LINE
  5
18F39
330
18AED
100
AcDbEntity
  8
SUNPOU
100
AcDbLine
 10
4159.797051267463
 20
2676.284839419603
 30
0.0
 11
4159.797051267463
 21
2103.684839419599
 31
0.0
  0
LINE
  5
18F3A
330
18AED
100
AcDbEntity
  8
SUNPOU
100
AcDbLine
 10
5439.797051267464
 20
2676.284839419603
 30
0.0
 11
5439.797051267464
 21
2103.684839419599
 31
0.0
  0
LINE
  5
18F3B
330
18AED
100
AcDbEntity
  8
SUNPOU
100
AcDbLine
 10
4174.797051267463
 20
2148.684839419601
 30
0.0
 11
5424.797051267464
 21
2148.684839419601
 31
0.0
  0
LINE
  5
18F3C
330
18AED
100
AcDbEntity
  8
SUNPOU
100
AcDbLine
 10
3999.797051267462
 20
2516.284839419602
 30
0.0
 11
3999.797051267462
 21
1893.6848394196
 31
0.0
  0
LINE
  5
18F3D
330
18AED
100
AcDbEntity
  8
SUNPOU
100
AcDbLine
 10
5599.797051267461
 20
2516.284839419602
 30
0.0
 11
5599.797051267461
 21
1893.6848394196
 31
0.0
  0
LINE
  5
18F3E
330
18AED
100
AcDbEntity
  8
SUNPOU
100
AcDbLine
 10
4014.797051267462
 20
1938.6848394196
 30
0.0
 11
5584.797051267462
 21
1938.6848394196
 31
0.0
  0
LINE
  5
18F3F
330
18AED
100
AcDbEntity
  8
SUNPOU
100
AcDbLine
 10
3490.443655266703
 20
3376.684839419604
 30
0.0
 11
3505.443655266704
 21
3376.684839419604
 31
0.0
  0
LINE
  5
18F40
330
18AED
100
AcDbEntity
  8
SUNPOU
100
AcDbLine
 10
4129.797051267463
 20
3456.684839419605
 30
0.0
 11
3415.443655266705
 21
3456.684839419605
 31
0.0
  0
LINE
  5
18F41
330
18AED
100
AcDbEntity
  8
SUNPOU
100
AcDbLine
 10
3460.443655266704
 20
3361.684839419604
 30
0.0
 11
3460.443655266704
 21
3346.684839419604
 31
0.0
  0
LINE
  5
18F42
330
18AED
100
AcDbEntity
  8
SUNPOU
100
AcDbLine
 10
3460.443655266704
 20
3471.684839419605
 30
0.0
 11
3460.443655266704
 21
3673.827696562461
 31
0.0
  0
LINE
  5
18F43
330
18AED
100
AcDbEntity
  8
SUNPOU
100
AcDbLine
 10
3460.443655266704
 20
3376.684839419604
 30
0.0
 11
3460.443655266704
 21
3456.684839419605
 31
0.0
  0
LINE
  5
18F44
330
18AED
100
AcDbEntity
  8
SUNPOU
100
AcDbLine
 10
4129.797051267463
 20
3314.2848394196
 30
0.0
 11
3835.443655266705
 21
3314.2848394196
 31
0.0
  0
LINE
  5
18F45
330
18AED
100
AcDbEntity
  8
SUNPOU
100
AcDbLine
 10
4129.797051267463
 20
3186.284839419595
 30
0.0
 11
3835.443655266705
 21
3186.284839419595
 31
0.0
  0
LINE
  5
18F46
330
18AED
100
AcDbEntity
  8
SUNPOU
100
AcDbLine
 10
3880.443655266705
 20
3299.284839419601
 30
0.0
 11
3880.443655266705
 21
3201.284839419595
 31
0.0
  0
LINE
  5
18F47
330
18AED
100
AcDbEntity
  8
SUNPOU
100
AcDbLine
 10
4129.797051267463
 20
3314.284839419602
 30
0.0
 11
3835.443655266704
 21
3314.284839419602
 31
0.0
  0
LINE
  5
18F48
330
18AED
100
AcDbEntity
  8
SUNPOU
100
AcDbLine
 10
4129.797051267463
 20
3456.684839419605
 30
0.0
 11
3835.443655266704
 21
3456.684839419605
 31
0.0
  0
LINE
  5
18F49
330
18AED
100
AcDbEntity
  8
SUNPOU
100
AcDbLine
 10
3880.443655266704
 20
3329.284839419602
 30
0.0
 11
3880.443655266704
 21
3441.684839419605
 31
0.0
  0
LINE
  5
18F4A
330
18AED
100
AcDbEntity
  8
SUNPOU
100
AcDbLine
 10
3880.443655266704
 20
3456.684839419605
 30
0.0
 11
3880.443655266704
 21
3658.827696562461
 31
0.0
  0
LINE
  5
18F4B
330
18AED
100
AcDbEntity
  8
SUNPOU
100
AcDbLine
 10
3969.797051267461
 20
2706.284839419602
 30
0.0
 11
3835.443655266704
 21
2706.284839419602
 31
0.0
  0
LINE
  5
18F4C
330
18AED
100
AcDbEntity
  8
SUNPOU
100
AcDbLine
 10
4129.797051267463
 20
3186.284839419595
 30
0.0
 11
3835.443655266704
 21
3186.284839419595
 31
0.0
  0
LINE
  5
18F4D
330
18AED
100
AcDbEntity
  8
SUNPOU
100
AcDbLine
 10
3880.443655266704
 20
2721.284839419602
 30
0.0
 11
3880.443655266704
 21
3171.284839419596
 31
0.0
  0
LINE
  5
18F4E
330
18AED
100
AcDbEntity
  8
SUNPOU
100
AcDbLine
 10
6345.027558517712
 20
4130.485411556192
 30
0.0
 11
6285.0275585177
 21
4130.485411556192
 31
0.0
  0
LINE
  5
18F4F
330
18AED
100
AcDbEntity
  8
SUNPOU
100
AcDbLine
 10
6345.027558517706
 20
4130.485411556192
 30
0.0
 11
6285.027558517706
 21
4146.562363102062
 31
0.0
  0
LINE
  5
18F50
330
18AED
100
AcDbEntity
  8
SUNPOU
100
AcDbLine
 10
6345.027558517712
 20
4130.485411556192
 30
0.0
 11
6285.0275585177
 21
4114.408460010323
 31
0.0
  0
LINE
  5
18F51
330
18AED
100
AcDbEntity
  8
SUNPOU
100
AcDbLine
 10
6285.027558517714
 20
4130.485411556192
 30
0.0
 11
6225.027558517701
 21
4130.485411556192
 31
0.0
  0
LINE
  5
18F52
330
18AED
100
AcDbEntity
  8
SUNPOU
100
AcDbLine
 10
6285.027558517706
 20
4130.485411556192
 30
0.0
 11
6225.027558517706
 21
4146.562363102062
 31
0.0
  0
LINE
  5
18F53
330
18AED
100
AcDbEntity
  8
SUNPOU
100
AcDbLine
 10
6285.027558517714
 20
4130.485411556192
 30
0.0
 11
6225.027558517701
 21
4114.408460010323
 31
0.0
  0
LINE
  5
18F54
330
18AED
100
AcDbEntity
  8
SUNPOU
100
AcDbLine
 10
4799.797051267463
 20
4160.485411556192
 30
0.0
 11
4799.797051267463
 21
4175.485411556191
 31
0.0
  0
LINE
  5
18F55
330
18AED
100
AcDbEntity
  8
SUNPOU
100
AcDbLine
 10
4159.797051267463
 20
3486.684839419604
 30
0.0
 11
4159.797051267463
 21
4175.485411556191
 31
0.0
  0
LINE
  5
18F56
330
18AED
100
AcDbEntity
  8
SUNPOU
100
AcDbLine
 10
4784.797051267463
 20
4130.485411556192
 30
0.0
 11
4174.797051267463
 21
4130.485411556192
 31
0.0
  0
LINE
  5
18F57
330
18AED
100
AcDbEntity
  8
SUNPOU
100
AcDbLine
 10
12005.12750789964
 20
8908.243182432325
 30
0.0
 11
12424.12750789964
 21
8908.243182432324
 31
0.0
  0
LINE
  5
18F58
330
18AED
100
AcDbEntity
  8
SUNPOU
100
AcDbLine
 10
12154.12750789964
 20
8708.243182432324
 30
0.0
 11
12424.12750789964
 21
8708.243182432324
 31
0.0
  0
LINE
  5
18F59
330
18AED
100
AcDbEntity
  8
SUNPOU
100
AcDbLine
 10
12379.12750789964
 20
8893.243182432323
 30
0.0
 11
12379.12750789964
 21
8723.243182432323
 31
0.0
  0
LINE
  5
18F5A
330
18AED
100
AcDbEntity
  8
SUNPOU
100
AcDbLine
 10
12379.12750789964
 20
8708.243182432324
 30
0.0
 11
12379.12750789964
 21
8448.957468146611
 31
0.0
  0
LINE
  5
18F5B
330
18AED
100
AcDbEntity
  8
SUNPOU
100
AcDbLine
 10
12799.12750789964
 20
9096.993182432326
 30
0.0
 11
12799.12750789964
 21
9085.743182432326
 31
0.0
  0
LINE
  5
18F5C
330
18AED
100
AcDbEntity
  8
SUNPOU
100
AcDbLine
 10
12589.12750789964
 20
9096.993182432326
 30
0.0
 11
12589.12750789964
 21
9085.743182432326
 31
0.0
  0
LINE
  5
18F5D
330
18AED
100
AcDbEntity
  8
SUNPOU
100
AcDbLine
 10
12589.12750789964
 20
8696.993182432326
 30
0.0
 11
12589.12750789964
 21
8685.743182432325
 31
0.0
  0
LINE
  5
18F5E
330
18AED
100
AcDbEntity
  8
SUNPOU
100
AcDbLine
 10
12589.12750789964
 20
8719.493182432325
 30
0.0
 11
12589.12750789964
 21
8730.743182432325
 31
0.0
  0
LINE
  5
18F5F
330
18AED
100
AcDbEntity
  8
SUNPOU
100
AcDbLine
 10
12589.12750789964
 20
6909.493182432327
 30
0.0
 11
12589.12750789964
 21
6920.743182432326
 31
0.0
  0
LINE
  5
18F60
330
18AED
100
AcDbEntity
  8
SUNPOU
100
AcDbLine
 10
12589.12750789964
 20
6886.993182432327
 30
0.0
 11
12589.12750789964
 21
6875.743182432326
 31
0.0
  0
LINE
  5
18F61
330
18AED
100
AcDbEntity
  8
SUNPOU
100
AcDbLine
 10
12799.12750789964
 20
6509.493182432326
 30
0.0
 11
12799.12750789964
 21
6520.743182432326
 31
0.0
  0
LINE
  5
18F62
330
18AED
100
AcDbEntity
  8
SUNPOU
100
AcDbLine
 10
12589.12750789964
 20
6509.493182432326
 30
0.0
 11
12589.12750789964
 21
6520.743182432326
 31
0.0
  0
LINE
  5
18F63
330
18AED
100
AcDbEntity
  8
SUNPOU
100
AcDbLine
 10
12005.12750789964
 20
8908.243182432325
 30
0.0
 11
12424.12750789964
 21
8908.243182432324
 31
0.0
  0
LINE
  5
18F64
330
18AED
100
AcDbEntity
  8
SUNPOU
100
AcDbLine
 10
12009.12750789964
 20
9108.243182432325
 30
0.0
 11
12424.12750789964
 21
9108.243182432325
 31
0.0
  0
LINE
  5
18F65
330
18AED
100
AcDbEntity
  8
SUNPOU
100
AcDbLine
 10
12379.12750789964
 20
8923.243182432326
 30
0.0
 11
12379.12750789964
 21
9093.243182432324
 31
0.0
  0
LINE
  5
18F66
330
18AED
100
AcDbEntity
  8
SUNPOU
100
AcDbLine
 10
12379.12750789964
 20
9108.243182432325
 30
0.0
 11
12379.12750789964
 21
9367.52889671804
 31
0.0
  0
LINE
  5
18F67
330
18AED
100
AcDbEntity
  8
SUNPOU
100
AcDbLine
 10
11579.12750789964
 20
9338.243182432325
 30
0.0
 11
11579.12750789964
 21
9453.243182432325
 31
0.0
  0
LINE
  5
18F68
330
18AED
100
AcDbEntity
  8
SUNPOU
100
AcDbLine
 10
11979.12750789964
 20
9138.243182432324
 30
0.0
 11
11979.12750789964
 21
9453.243182432325
 31
0.0
  0
LINE
  5
18F69
330
18AED
100
AcDbEntity
  8
SUNPOU
100
AcDbLine
 10
11594.12750789964
 20
9408.243182432325
 30
0.0
 11
11964.12750789964
 21
9408.243182432325
 31
0.0
  0
LINE
  5
18F6A
330
18AED
100
AcDbEntity
  8
SUNPOU
100
AcDbLine
 10
9107.877507899637
 20
9408.243182432325
 30
0.0
 11
9096.627507899638
 21
9408.243182432325
 31
0.0
  0
LINE
  5
18F6B
330
18AED
100
AcDbEntity
  8
SUNPOU
100
AcDbLine
 10
11579.12750789964
 20
9338.243182432325
 30
0.0
 11
11579.12750789964
 21
9453.243182432325
 31
0.0
  0
LINE
  5
18F6C
330
18AED
100
AcDbEntity
  8
SUNPOU
100
AcDbLine
 10
9119.127507899637
 20
9338.243182432325
 30
0.0
 11
9119.127507899637
 21
9453.243182432325
 31
0.0
  0
LINE
  5
18F6D
330
18AED
100
AcDbEntity
  8
SUNPOU
100
AcDbLine
 10
11564.12750789964
 20
9408.243182432325
 30
0.0
 11
9134.12750789964
 21
9408.243182432325
 31
0.0
  0
LINE
  5
18F6E
330
18AED
100
AcDbEntity
  8
SUNPOU
100
AcDbLine
 10
9549.127507899637
 20
7298.243182432326
 30
0.0
 11
9864.12750789964
 21
7298.243182432326
 31
0.0
  0
LINE
  5
18F6F
330
18AED
100
AcDbEntity
  8
SUNPOU
100
AcDbLine
 10
9549.127507899637
 20
6498.243182432327
 30
0.0
 11
9864.12750789964
 21
6498.243182432327
 31
0.0
  0
LINE
  5
18F70
330
18AED
100
AcDbEntity
  8
SUNPOU
100
AcDbLine
 10
9819.127507899644
 20
7283.243182432326
 30
0.0
 11
9819.127507899644
 21
6513.243182432326
 31
0.0
  0
TEXT
  5
18F71
330
18AED
100
AcDbEntity
  8
SUNPOU
100
AcDbText
 10
8011.413222185353
 20
9453.243182432325
 30
0.0
 40
90.0
  1
2460 × （ N - 2 ）
 41
0.6666666666666666
  7
00
100
AcDbText
  0
LINE
  5
18F72
330
18AED
100
AcDbEntity
  8
SUNPOU
100
AcDbLine
 10
7730.377507899638
 20
9408.243182432325
 30
0.0
 11
7741.627507899638
 21
9408.243182432325
 31
0.0
  0
LINE
  5
18F73
330
18AED
100
AcDbEntity
  8
SUNPOU
100
AcDbLine
 10
5469.127507899639
 20
9273.243182432329
 30
0.0
 11
5559.127507899638
 21
9258.243182432329
 31
0.0
  0
LINE
  5
18F74
330
18AED
100
AcDbEntity
  8
SUNPOU
100
AcDbLine
 10
5559.127507899638
 20
9258.243182432329
 30
0.0
 11
5469.127507899639
 21
9243.243182432328
 31
0.0
  0
SOLID
  5
18F75
330
18AED
100
AcDbEntity
  8
SUNPOU
100
AcDbTrace
 10
5469.127507899639
 20
9273.243182432329
 30
0.0
 11
5469.127507899639
 21
9243.243182432328
 31
0.0
 12
5559.127507899638
 22
9258.243182432329
 32
0.0
 13
5559.127507899638
 23
9258.243182432329
 33
0.0
  0
LINE
  5
18F76
330
18AED
100
AcDbEntity
  8
SUNPOU
100
AcDbLine
 10
5469.127507899639
 20
9243.243182432328
 30
0.0
 11
5469.127507899639
 21
9273.243182432329
 31
0.0
  0
LINE
  5
18F77
330
18AED
100
AcDbEntity
  8
SUNPOU
100
AcDbLine
 10
7719.127507899639
 20
9338.243182432325
 30
0.0
 11
7719.127507899639
 21
9453.243182432325
 31
0.0
  0
LINE
  5
18F78
330
18AED
100
AcDbEntity
  8
SUNPOU
100
AcDbLine
 10
5259.12750789964
 20
9338.243182432325
 30
0.0
 11
5259.12750789964
 21
9453.243182432325
 31
0.0
  0
LINE
  5
18F79
330
18AED
100
AcDbEntity
  8
SUNPOU
100
AcDbLine
 10
7704.127507899638
 20
9408.243182432325
 30
0.0
 11
5274.127507899638
 21
9408.243182432325
 31
0.0
  0
LINE
  5
18F7A
330
18AED
100
AcDbEntity
  8
SUNPOU
100
AcDbLine
 10
7319.127507899638
 20
8278.243182432325
 30
0.0
 11
7319.127507899638
 21
7963.243182432326
 31
0.0
  0
LINE
  5
18F7B
330
18AED
100
AcDbEntity
  8
SUNPOU
100
AcDbLine
 10
8119.127507899639
 20
8278.243182432325
 30
0.0
 11
8119.127507899639
 21
7963.243182432326
 31
0.0
  0
LINE
  5
18F7C
330
18AED
100
AcDbEntity
  8
SUNPOU
100
AcDbLine
 10
7334.127507899637
 20
8008.243182432327
 30
0.0
 11
8104.127507899638
 21
8008.243182432327
 31
0.0
  0
LINE
  5
18F7D
330
18AED
100
AcDbEntity
  8
SUNPOU
100
AcDbLine
 10
5469.127507899639
 20
8143.243182432323
 30
0.0
 11
5559.127507899638
 21
8158.243182432324
 31
0.0
  0
LINE
  5
18F7E
330
18AED
100
AcDbEntity
  8
SUNPOU
100
AcDbLine
 10
5559.127507899638
 20
8158.243182432324
 30
0.0
 11
5469.127507899639
 21
8173.243182432326
 31
0.0
  0
SOLID
  5
18F7F
330
18AED
100
AcDbEntity
  8
SUNPOU
100
AcDbTrace
 10
5469.127507899639
 20
8143.243182432323
 30
0.0
 11
5469.127507899639
 21
8173.243182432326
 31
0.0
 12
5559.127507899638
 22
8158.243182432324
 32
0.0
 13
5559.127507899638
 23
8158.243182432324
 33
0.0
  0
LINE
  5
18F80
330
18AED
100
AcDbEntity
  8
SUNPOU
100
AcDbLine
 10
5469.127507899639
 20
8173.243182432326
 30
0.0
 11
5469.127507899639
 21
8143.243182432323
 31
0.0
  0
LINE
  5
18F81
330
18AED
100
AcDbEntity
  8
SUNPOU
100
AcDbLine
 10
5884.127507899639
 20
7108.243182432326
 30
0.0
 11
5869.127507899639
 21
7198.243182432327
 31
0.0
  0
LINE
  5
18F82
330
18AED
100
AcDbEntity
  8
SUNPOU
100
AcDbLine
 10
5869.127507899639
 20
7198.243182432327
 30
0.0
 11
5854.127507899637
 21
7108.243182432326
 31
0.0
  0
SOLID
  5
18F83
330
18AED
100
AcDbEntity
  8
SUNPOU
100
AcDbTrace
 10
5884.127507899639
 20
7108.243182432326
 30
0.0
 11
5854.127507899637
 21
7108.243182432326
 31
0.0
 12
5869.127507899639
 22
7198.243182432327
 32
0.0
 13
5869.127507899639
 23
7198.243182432327
 33
0.0
  0
LINE
  5
18F84
330
18AED
100
AcDbEntity
  8
SUNPOU
100
AcDbLine
 10
5854.127507899637
 20
7108.243182432326
 30
0.0
 11
5884.127507899639
 21
7108.243182432326
 31
0.0
  0
LINE
  5
18F85
330
18AED
100
AcDbEntity
  8
SUNPOU
100
AcDbLine
 10
7289.127507899637
 20
9108.243182432325
 30
0.0
 11
6974.127507899639
 21
9108.243182432325
 31
0.0
  0
LINE
  5
18F86
330
18AED
100
AcDbEntity
  8
SUNPOU
100
AcDbLine
 10
7289.127507899637
 20
8308.243182432326
 30
0.0
 11
6974.127507899639
 21
8308.243182432326
 31
0.0
  0
LINE
  5
18F87
330
18AED
100
AcDbEntity
  8
SUNPOU
100
AcDbLine
 10
7019.127507899638
 20
9093.243182432329
 30
0.0
 11
7019.127507899638
 21
8323.243182432326
 31
0.0
  0
LINE
  5
18F88
330
18AED
100
AcDbEntity
  8
SUNPOU
100
AcDbLine
 10
4634.127507899637
 20
7108.243182432326
 30
0.0
 11
4649.127507899637
 21
7198.243182432327
 31
0.0
  0
LINE
  5
18F89
330
18AED
100
AcDbEntity
  8
SUNPOU
100
AcDbLine
 10
4649.127507899637
 20
7198.243182432327
 30
0.0
 11
4664.127507899637
 21
7108.243182432326
 31
0.0
  0
SOLID
  5
18F8A
330
18AED
100
AcDbEntity
  8
SUNPOU
100
AcDbTrace
 10
4634.127507899637
 20
7108.243182432326
 30
0.0
 11
4664.127507899637
 21
7108.243182432326
 31
0.0
 12
4649.127507899637
 22
7198.243182432327
 32
0.0
 13
4649.127507899637
 23
7198.243182432327
 33
0.0
  0
LINE
  5
18F8B
330
18AED
100
AcDbEntity
  8
SUNPOU
100
AcDbLine
 10
4664.127507899637
 20
7108.243182432326
 30
0.0
 11
4634.127507899637
 21
7108.243182432326
 31
0.0
  0
LINE
  5
18F8C
330
18AED
100
AcDbEntity
  8
SUNPOU
100
AcDbLine
 10
5259.12750789964
 20
9338.243182432325
 30
0.0
 11
5259.12750789964
 21
9453.243182432325
 31
0.0
  0
LINE
  5
18F8D
330
18AED
100
AcDbEntity
  8
SUNPOU
100
AcDbLine
 10
4859.127507899639
 20
9138.243182432324
 30
0.0
 11
4859.127507899639
 21
9453.243182432325
 31
0.0
  0
LINE
  5
18F8E
330
18AED
100
AcDbEntity
  8
SUNPOU
100
AcDbLine
 10
5244.12750789964
 20
9408.243182432325
 30
0.0
 11
4874.12750789964
 21
9408.243182432325
 31
0.0
  0
LINE
  5
18F8F
330
18AED
100
AcDbEntity
  8
SUNPOU
100
AcDbLine
 10
4859.127507899639
 20
9138.243182432324
 30
0.0
 11
4859.127507899639
 21
9663.243182432324
 31
0.0
  0
LINE
  5
18F90
330
18AED
100
AcDbEntity
  8
SUNPOU
100
AcDbLine
 10
11979.12750789964
 20
9138.243182432324
 30
0.0
 11
11979.12750789964
 21
9663.243182432324
 31
0.0
  0
LINE
  5
18F91
330
18AED
100
AcDbEntity
  8
SUNPOU
100
AcDbLine
 10
4874.12750789964
 20
9618.243182432324
 30
0.0
 11
11964.12750789964
 21
9618.243182432324
 31
0.0
  0
LINE
  5
18F92
330
18AED
100
AcDbEntity
  8
SUNPOU
100
AcDbLine
 10
8719.127507899637
 20
7328.243182432325
 30
0.0
 11
8719.127507899637
 21
7643.243182432326
 31
0.0
  0
LINE
  5
18F93
330
18AED
100
AcDbEntity
  8
SUNPOU
100
AcDbLine
 10
9519.127507899638
 20
7328.243182432325
 30
0.0
 11
9519.127507899638
 21
7643.243182432326
 31
0.0
  0
LINE
  5
18F94
330
18AED
100
AcDbEntity
  8
SUNPOU
100
AcDbLine
 10
8734.127507899637
 20
7598.243182432326
 30
0.0
 11
9504.127507899637
 21
7598.243182432326
 31
0.0
  0
TEXT
  5
18F95
330
18AED
100
AcDbEntity
  8
SUNPOU
100
AcDbText
 10
3835.443655266704
 20
2323.427696562459
 30
0.0
 40
90.0
  1
100
 50
90.0
 41
0.6666666666666666
  7
00
100
AcDbText
  0
LINE
  5
18F96
330
18AED
100
AcDbEntity
  8
SUNPOU
100
AcDbLine
 10
3880.443655266704
 20
2557.534839419602
 30
0.0
 11
3880.443655266704
 21
2568.784839419602
 31
0.0
  0
LINE
  5
18F97
330
18AED
100
AcDbEntity
  8
SUNPOU
100
AcDbLine
 10
3880.443655266704
 20
2695.034839419602
 30
0.0
 11
3880.443655266704
 21
2683.784839419602
 31
0.0
  0
TEXT
  5
18F98
330
18AED
100
AcDbEntity
  8
SUNPOU
100
AcDbText
 10
3616.747780992795
 20
2915.770553705319
 30
0.0
 40
90.0
  1
560
 50
90.0
 41
0.6666666666666666
  7
00
100
AcDbText
  0
LINE
  5
18F99
330
18AED
100
AcDbEntity
  8
SUNPOU
100
AcDbLine
 10
3661.747780992794
 20
2557.534839419602
 30
0.0
 11
3661.747780992794
 21
2568.784839419602
 31
0.0
  0
LINE
  5
18F9A
330
18AED
100
AcDbEntity
  8
SUNPOU
100
AcDbLine
 10
3661.747780992796
 20
3445.434839419605
 30
0.0
 11
3661.747780992796
 21
3434.184839419605
 31
0.0
  0
TEXT
  5
18F9B
330
18AED
100
AcDbEntity
  8
SUNPOU
100
AcDbText
 10
7615.76985579035
 20
2323.427696562461
 30
0.0
 40
90.0
  1
100
 50
90.0
 41
0.6666666666666666
  7
00
100
AcDbText
  0
LINE
  5
18F9C
330
18AED
100
AcDbEntity
  8
SUNPOU
100
AcDbLine
 10
7660.769855790352
 20
2557.534839419602
 30
0.0
 11
7660.769855790352
 21
2568.784839419602
 31
0.0
  0
LINE
  5
18F9D
330
18AED
100
AcDbEntity
  8
SUNPOU
100
AcDbLine
 10
7660.769855790352
 20
2695.034839419607
 30
0.0
 11
7660.769855790352
 21
2683.784839419607
 31
0.0
  0
TEXT
  5
18F9E
330
18AED
100
AcDbEntity
  8
SUNPOU
100
AcDbText
 10
7396.802983832269
 20
2915.770553705319
 30
0.0
 40
90.0
  1
560
 50
90.0
 41
0.6666666666666666
  7
00
100
AcDbText
  0
LINE
  5
18F9F
330
18AED
100
AcDbEntity
  8
SUNPOU
100
AcDbLine
 10
7441.802983832269
 20
2557.534839419602
 30
0.0
 11
7441.802983832269
 21
2568.784839419602
 31
0.0
  0
LINE
  5
18FA0
330
18AED
100
AcDbEntity
  8
SUNPOU
100
AcDbLine
 10
7441.802983832269
 20
3445.434839419604
 30
0.0
 11
7441.802983832269
 21
3434.184839419604
 31
0.0
  0
TEXT
  5
18FA1
330
18AED
100
AcDbEntity
  8
SUNPOU
100
AcDbText
 10
12268.40680314954
 20
3933.765608013134
 30
0.0
 40
90.0
  1
40
 50
90.0
 41
0.6666666666666666
  7
00
100
AcDbText
  0
LINE
  5
18FA2
330
18AED
100
AcDbEntity
  8
SUNPOU
100
AcDbLine
 10
12313.40680314955
 20
3871.08703658456
 30
0.0
 11
12313.40680314955
 21
3859.83703658456
 31
0.0
  0
LINE
  5
18FA3
330
18AED
100
AcDbEntity
  8
SUNPOU
100
AcDbLine
 10
12313.40680314955
 20
3733.58703658456
 30
0.0
 11
12313.40680314955
 21
3744.837036584561
 31
0.0
  0
TEXT
  5
18FA4
330
18AED
100
AcDbEntity
  8
SUNPOU
100
AcDbText
 10
12268.40680314954
 20
3437.622750870279
 30
0.0
 40
90.0
  1
26
 50
90.0
 41
0.6666666666666666
  7
00
100
AcDbText
  0
LINE
  5
18FA5
330
18AED
100
AcDbEntity
  8
SUNPOU
100
AcDbLine
 10
12313.40680314955
 20
3607.087036584561
 30
0.0
 11
12313.40680314955
 21
3595.837036584562
 31
0.0
  0
LINE
  5
18FA6
330
18AED
100
AcDbEntity
  8
SUNPOU
100
AcDbLine
 10
12313.40680314955
 20
3733.58703658456
 30
0.0
 11
12313.40680314955
 21
3744.837036584561
 31
0.0
  0
TEXT
  5
18FA7
330
18AED
100
AcDbEntity
  8
SUNPOU
100
AcDbText
 10
11967.76694549065
 20
2290.804976716086
 30
0.0
 40
90.0
  1
20
 41
0.6666666666666666
  7
00
100
AcDbText
  0
LINE
  5
18FA8
330
18AED
100
AcDbEntity
  8
SUNPOU
100
AcDbLine
 10
11912.58837406208
 20
2245.804976716085
 30
0.0
 11
11923.83837406209
 21
2245.804976716085
 31
0.0
  0
LINE
  5
18FA9
330
18AED
100
AcDbEntity
  8
SUNPOU
100
AcDbLine
 10
11810.08837406209
 20
2245.804976716085
 30
0.0
 11
11798.83837406209
 21
2245.804976716085
 31
0.0
  0
TEXT
  5
18FAA
330
18AED
100
AcDbEntity
  8
SUNPOU
100
AcDbText
 10
11451.33837406209
 20
2290.804976716086
 30
0.0
 40
90.0
  1
140
 41
0.6666666666666666
  7
00
100
AcDbText
  0
LINE
  5
18FAB
330
18AED
100
AcDbEntity
  8
SUNPOU
100
AcDbLine
 10
11810.08837406209
 20
2245.804976716085
 30
0.0
 11
11798.83837406209
 21
2245.804976716085
 31
0.0
  0
LINE
  5
18FAC
330
18AED
100
AcDbEntity
  8
SUNPOU
100
AcDbLine
 10
11272.5883740621
 20
2245.804976716085
 30
0.0
 11
11283.8383740621
 21
2245.804976716085
 31
0.0
  0
TEXT
  5
18FAD
330
18AED
100
AcDbEntity
  8
SUNPOU
100
AcDbText
 10
11000.6240883478
 20
2290.804976716086
 30
0.0
 40
90.0
  1
20
 41
0.6666666666666666
  7
00
100
AcDbText
  0
LINE
  5
18FAE
330
18AED
100
AcDbEntity
  8
SUNPOU
100
AcDbLine
 10
11170.08837406209
 20
2245.804976716085
 30
0.0
 11
11158.83837406209
 21
2245.804976716085
 31
0.0
  0
LINE
  5
18FAF
330
18AED
100
AcDbEntity
  8
SUNPOU
100
AcDbLine
 10
11272.5883740621
 20
2245.804976716085
 30
0.0
 11
11283.8383740621
 21
2245.804976716085
 31
0.0
  0
TEXT
  5
18FB0
330
18AED
100
AcDbEntity
  8
SUNPOU
100
AcDbText
 10
11451.33837406208
 20
2080.804976716085
 30
0.0
 40
90.0
  1
180
 41
0.6666666666666666
  7
00
100
AcDbText
  0
LINE
  5
18FB1
330
18AED
100
AcDbEntity
  8
SUNPOU
100
AcDbLine
 10
11890.08837406209
 20
2035.804976716086
 30
0.0
 11
11878.83837406209
 21
2035.804976716086
 31
0.0
  0
LINE
  5
18FB2
330
18AED
100
AcDbEntity
  8
SUNPOU
100
AcDbLine
 10
11192.58837406209
 20
2035.804976716086
 30
0.0
 11
11203.83837406209
 21
2035.804976716086
 31
0.0
  0
TEXT
  5
18FB3
330
18AED
100
AcDbEntity
  8
SUNPOU
100
AcDbText
 10
10873.33837406209
 20
2543.001486910295
 30
0.0
 40
90.0
  1
50
 50
90.0
 41
0.6666666666666666
  7
00
100
AcDbText
  0
LINE
  5
18FB4
330
18AED
100
AcDbEntity
  8
SUNPOU
100
AcDbLine
 10
10918.33837406209
 20
2511.394344053149
 30
0.0
 11
10918.33837406209
 21
2522.644344053149
 31
0.0
  0
LINE
  5
18FB5
330
18AED
100
AcDbEntity
  8
SUNPOU
100
AcDbLine
 10
10918.33837406209
 20
2688.894344053149
 30
0.0
 11
10918.33837406209
 21
2677.644344053149
 31
0.0
  0
TEXT
  5
18FB6
330
18AED
100
AcDbEntity
  8
SUNPOU
100
AcDbText
 10
10873.33837406209
 20
2743.001486910295
 30
0.0
 40
90.0
  1
50
 50
90.0
 41
0.6666666666666666
  7
00
100
AcDbText
  0
LINE
  5
18FB7
330
18AED
100
AcDbEntity
  8
SUNPOU
100
AcDbLine
 10
10918.33837406209
 20
2888.894344053149
 30
0.0
 11
10918.33837406209
 21
2877.644344053149
 31
0.0
  0
LINE
  5
18FB8
330
18AED
100
AcDbEntity
  8
SUNPOU
100
AcDbLine
 10
10918.33837406209
 20
2711.394344053149
 30
0.0
 11
10918.33837406209
 21
2722.644344053149
 31
0.0
  0
TEXT
  5
18FB9
330
18AED
100
AcDbEntity
  8
SUNPOU
100
AcDbText
 10
10663.33837406209
 20
2610.144344053151
 30
0.0
 40
90.0
  1
100
 50
90.0
 41
0.6666666666666666
  7
00
100
AcDbText
  0
LINE
  5
18FBA
330
18AED
100
AcDbEntity
  8
SUNPOU
100
AcDbLine
 10
10708.33837406208
 20
2888.894344053149
 30
0.0
 11
10708.33837406208
 21
2877.644344053149
 31
0.0
  0
LINE
  5
18FBB
330
18AED
100
AcDbEntity
  8
SUNPOU
100
AcDbLine
 10
10708.33837406208
 20
2511.394344053149
 30
0.0
 11
10708.33837406208
 21
2522.644344053149
 31
0.0
  0
TEXT
  5
18FBC
330
18AED
100
AcDbEntity
  8
SUNPOU
100
AcDbText
 10
11967.76694549065
 20
3439.170862655061
 30
0.0
 40
90.0
  1
20
 41
0.6666666666666666
  7
00
100
AcDbText
  0
LINE
  5
18FBD
330
18AED
100
AcDbEntity
  8
SUNPOU
100
AcDbLine
 10
11912.58837406208
 20
3394.17086265506
 30
0.0
 11
11923.83837406209
 21
3394.17086265506
 31
0.0
  0
LINE
  5
18FBE
330
18AED
100
AcDbEntity
  8
SUNPOU
100
AcDbLine
 10
11810.08837406209
 20
3394.17086265506
 30
0.0
 11
11798.83837406209
 21
3394.17086265506
 31
0.0
  0
TEXT
  5
18FBF
330
18AED
100
AcDbEntity
  8
SUNPOU
100
AcDbText
 10
11451.33837406208
 20
3439.170862655062
 30
0.0
 40
90.0
  1
140
 41
0.6666666666666666
  7
00
100
AcDbText
  0
LINE
  5
18FC0
330
18AED
100
AcDbEntity
  8
SUNPOU
100
AcDbLine
 10
11810.08837406209
 20
3394.170862655061
 30
0.0
 11
11798.83837406209
 21
3394.170862655061
 31
0.0
  0
LINE
  5
18FC1
330
18AED
100
AcDbEntity
  8
SUNPOU
100
AcDbLine
 10
11272.5883740621
 20
3394.170862655061
 30
0.0
 11
11283.8383740621
 21
3394.170862655061
 31
0.0
  0
TEXT
  5
18FC2
330
18AED
100
AcDbEntity
  8
SUNPOU
100
AcDbText
 10
11000.62408834778
 20
3439.170862655061
 30
0.0
 40
90.0
  1
20
 41
0.6666666666666666
  7
00
100
AcDbText
  0
LINE
  5
18FC3
330
18AED
100
AcDbEntity
  8
SUNPOU
100
AcDbLine
 10
11170.08837406207
 20
3394.17086265506
 30
0.0
 11
11158.83837406207
 21
3394.17086265506
 31
0.0
  0
LINE
  5
18FC4
330
18AED
100
AcDbEntity
  8
SUNPOU
100
AcDbLine
 10
11272.5883740621
 20
3394.17086265506
 30
0.0
 11
11283.8383740621
 21
3394.17086265506
 31
0.0
  0
TEXT
  5
18FC5
330
18AED
100
AcDbEntity
  8
SUNPOU
100
AcDbText
 10
11451.33837406208
 20
3229.170862655062
 30
0.0
 40
90.0
  1
180
 41
0.6666666666666666
  7
00
100
AcDbText
  0
LINE
  5
18FC6
330
18AED
100
AcDbEntity
  8
SUNPOU
100
AcDbLine
 10
11890.08837406209
 20
3184.170862655062
 30
0.0
 11
11878.83837406209
 21
3184.170862655062
 31
0.0
  0
LINE
  5
18FC7
330
18AED
100
AcDbEntity
  8
SUNPOU
100
AcDbLine
 10
11192.58837406208
 20
3184.170862655062
 30
0.0
 11
11203.83837406208
 21
3184.170862655062
 31
0.0
  0
TEXT
  5
18FC8
330
18AED
100
AcDbEntity
  8
SUNPOU
100
AcDbText
 10
8494.408966076823
 20
2193.684839419605
 30
0.0
 40
90.0
  1
800
 41
0.6666666666666666
  7
00
100
AcDbText
  0
LINE
  5
18FC9
330
18AED
100
AcDbEntity
  8
SUNPOU
100
AcDbLine
 10
9208.873251791109
 20
2148.684839419604
 30
0.0
 11
9197.623251791108
 21
2148.684839419604
 31
0.0
  0
LINE
  5
18FCA
330
18AED
100
AcDbEntity
  8
SUNPOU
100
AcDbLine
 10
7951.373251791109
 20
2148.684839419604
 30
0.0
 11
7962.623251791109
 21
2148.684839419604
 31
0.0
  0
TEXT
  5
18FCB
330
18AED
100
AcDbEntity
  8
SUNPOU
100
AcDbText
 10
8461.551823219677
 20
1983.684839419604
 30
0.0
 40
90.0
  1
1000
 41
0.6666666666666666
  7
00
100
AcDbText
  0
LINE
  5
18FCC
330
18AED
100
AcDbEntity
  8
SUNPOU
100
AcDbLine
 10
9368.873251791109
 20
1938.684839419604
 30
0.0
 11
9357.623251791109
 21
1938.684839419604
 31
0.0
  0
LINE
  5
18FCD
330
18AED
100
AcDbEntity
  8
SUNPOU
100
AcDbLine
 10
7791.373251791107
 20
1938.684839419604
 30
0.0
 11
7802.623251791108
 21
1938.684839419604
 31
0.0
  0
TEXT
  5
18FCE
330
18AED
100
AcDbEntity
  8
SUNPOU
100
AcDbText
 10
7195.769855790351
 20
3523.113410848177
 30
0.0
 40
90.0
  1
50
 50
90.0
 41
0.6666666666666666
  7
00
100
AcDbText
  0
LINE
  5
18FCF
330
18AED
100
AcDbEntity
  8
SUNPOU
100
AcDbLine
 10
7240.76985579035
 20
3467.934839419604
 30
0.0
 11
7240.76985579035
 21
3479.184839419604
 31
0.0
  0
LINE
  5
18FD0
330
18AED
100
AcDbEntity
  8
SUNPOU
100
AcDbLine
 10
7240.76985579035
 20
3365.434839419608
 30
0.0
 11
7240.76985579035
 21
3354.184839419608
 31
0.0
  0
TEXT
  5
18FD1
330
18AED
100
AcDbEntity
  8
SUNPOU
100
AcDbText
 10
7615.76985579035
 20
3193.141982276746
 30
0.0
 40
90.0
  1
80
 50
90.0
 41
0.6666666666666666
  7
00
100
AcDbText
  0
LINE
  5
18FD2
330
18AED
100
AcDbEntity
  8
SUNPOU
100
AcDbLine
 10
7660.769855790352
 20
3197.534839419601
 30
0.0
 11
7660.769855790352
 21
3208.7848394196
 31
0.0
  0
LINE
  5
18FD3
330
18AED
100
AcDbEntity
  8
SUNPOU
100
AcDbLine
 10
7660.769855790352
 20
3303.034839419605
 30
0.0
 11
7660.769855790352
 21
3291.784839419605
 31
0.0
  0
TEXT
  5
18FD4
330
18AED
100
AcDbEntity
  8
SUNPOU
100
AcDbText
 10
7615.76985579035
 20
3508.113410848177
 30
0.0
 40
90.0
  1
80
 50
90.0
 41
0.6666666666666666
  7
00
100
AcDbText
  0
LINE
  5
18FD5
330
18AED
100
AcDbEntity
  8
SUNPOU
100
AcDbLine
 10
7660.769855790352
 20
3445.434839419604
 30
0.0
 11
7660.769855790352
 21
3434.184839419604
 31
0.0
  0
LINE
  5
18FD6
330
18AED
100
AcDbEntity
  8
SUNPOU
100
AcDbLine
 10
7660.769855790352
 20
3325.534839419602
 30
0.0
 11
7660.769855790352
 21
3336.784839419602
 31
0.0
  0
TEXT
  5
18FD7
330
18AED
100
AcDbEntity
  8
SUNPOU
100
AcDbText
 10
7615.76985579035
 20
2860.570553705318
 30
0.0
 40
90.0
  1
300
 50
90.0
 41
0.6666666666666666
  7
00
100
AcDbText
  0
LINE
  5
18FD8
330
18AED
100
AcDbEntity
  8
SUNPOU
100
AcDbLine
 10
7660.769855790352
 20
3175.034839419601
 30
0.0
 11
7660.769855790352
 21
3163.7848394196
 31
0.0
  0
LINE
  5
18FD9
330
18AED
100
AcDbEntity
  8
SUNPOU
100
AcDbLine
 10
7660.769855790352
 20
2717.534839419607
 30
0.0
 11
7660.769855790352
 21
2728.784839419607
 31
0.0
  0
TEXT
  5
18FDA
330
18AED
100
AcDbEntity
  8
SUNPOU
100
AcDbText
 10
8334.408966076827
 20
4175.485411556194
 30
0.0
 40
90.0
  1
200
 41
0.6666666666666666
  7
00
100
AcDbText
  0
LINE
  5
18FDB
330
18AED
100
AcDbEntity
  8
SUNPOU
100
AcDbLine
 10
8271.373251791111
 20
4130.485411556196
 30
0.0
 11
8282.623251791111
 21
4130.485411556196
 31
0.0
  0
LINE
  5
18FDC
330
18AED
100
AcDbEntity
  8
SUNPOU
100
AcDbLine
 10
8568.87325179111
 20
4130.485411556196
 30
0.0
 11
8557.623251791111
 21
4130.485411556196
 31
0.0
  0
TEXT
  5
18FDD
330
18AED
100
AcDbEntity
  8
SUNPOU
100
AcDbText
 10
4714.082765553178
 20
2193.684839419601
 30
0.0
 40
90.0
  1
800
 41
0.6666666666666666
  7
00
100
AcDbText
  0
LINE
  5
18FDE
330
18AED
100
AcDbEntity
  8
SUNPOU
100
AcDbLine
 10
5428.547051267464
 20
2148.684839419601
 30
0.0
 11
5417.297051267464
 21
2148.684839419601
 31
0.0
  0
LINE
  5
18FDF
330
18AED
100
AcDbEntity
  8
SUNPOU
100
AcDbLine
 10
4171.047051267463
 20
2148.684839419601
 30
0.0
 11
4182.297051267464
 21
2148.684839419601
 31
0.0
  0
TEXT
  5
18FE0
330
18AED
100
AcDbEntity
  8
SUNPOU
100
AcDbText
 10
4681.225622696032
 20
1983.6848394196
 30
0.0
 40
90.0
  1
1000
 41
0.6666666666666666
  7
00
100
AcDbText
  0
LINE
  5
18FE1
330
18AED
100
AcDbEntity
  8
SUNPOU
100
AcDbLine
 10
5588.547051267462
 20
1938.6848394196
 30
0.0
 11
5577.297051267462
 21
1938.6848394196
 31
0.0
  0
LINE
  5
18FE2
330
18AED
100
AcDbEntity
  8
SUNPOU
100
AcDbLine
 10
4011.047051267461
 20
1938.6848394196
 30
0.0
 11
4022.297051267463
 21
1938.6848394196
 31
0.0
  0
TEXT
  5
18FE3
330
18AED
100
AcDbEntity
  8
SUNPOU
100
AcDbText
 10
3415.443655266705
 20
3523.113410848177
 30
0.0
 40
90.0
  1
50
 50
90.0
 41
0.6666666666666666
  7
00
100
AcDbText
  0
LINE
  5
18FE4
330
18AED
100
AcDbEntity
  8
SUNPOU
100
AcDbLine
 10
3460.443655266704
 20
3467.934839419605
 30
0.0
 11
3460.443655266704
 21
3479.184839419605
 31
0.0
  0
LINE
  5
18FE5
330
18AED
100
AcDbEntity
  8
SUNPOU
100
AcDbLine
 10
3460.443655266704
 20
3365.434839419604
 30
0.0
 11
3460.443655266704
 21
3354.184839419604
 31
0.0
  0
TEXT
  5
18FE6
330
18AED
100
AcDbEntity
  8
SUNPOU
100
AcDbText
 10
3835.443655266704
 20
3193.141982276742
 30
0.0
 40
90.0
  1
80
 50
90.0
 41
0.6666666666666666
  7
00
100
AcDbText
  0
LINE
  5
18FE7
330
18AED
100
AcDbEntity
  8
SUNPOU
100
AcDbLine
 10
3880.443655266705
 20
3197.534839419596
 30
0.0
 11
3880.443655266705
 21
3208.784839419596
 31
0.0
  0
LINE
  5
18FE8
330
18AED
100
AcDbEntity
  8
SUNPOU
100
AcDbLine
 10
3880.443655266705
 20
3303.034839419601
 30
0.0
 11
3880.443655266705
 21
3291.7848394196
 31
0.0
  0
TEXT
  5
18FE9
330
18AED
100
AcDbEntity
  8
SUNPOU
100
AcDbText
 10
3835.443655266704
 20
3508.113410848177
 30
0.0
 40
90.0
  1
80
 50
90.0
 41
0.6666666666666666
  7
00
100
AcDbText
  0
LINE
  5
18FEA
330
18AED
100
AcDbEntity
  8
SUNPOU
100
AcDbLine
 10
3880.443655266704
 20
3445.434839419605
 30
0.0
 11
3880.443655266704
 21
3434.184839419605
 31
0.0
  0
LINE
  5
18FEB
330
18AED
100
AcDbEntity
  8
SUNPOU
100
AcDbLine
 10
3880.443655266704
 20
3325.534839419602
 30
0.0
 11
3880.443655266704
 21
3336.784839419602
 31
0.0
  0
TEXT
  5
18FEC
330
18AED
100
AcDbEntity
  8
SUNPOU
100
AcDbText
 10
3835.443655266704
 20
2860.570553705313
 30
0.0
 40
90.0
  1
300
 50
90.0
 41
0.6666666666666666
  7
00
100
AcDbText
  0
LINE
  5
18FED
330
18AED
100
AcDbEntity
  8
SUNPOU
100
AcDbLine
 10
3880.443655266704
 20
3175.034839419595
 30
0.0
 11
3880.443655266704
 21
3163.784839419596
 31
0.0
  0
LINE
  5
18FEE
330
18AED
100
AcDbEntity
  8
SUNPOU
100
AcDbLine
 10
3880.443655266704
 20
2717.534839419602
 30
0.0
 11
3880.443655266704
 21
2728.784839419602
 31
0.0
  0
TEXT
  5
18FEF
330
18AED
100
AcDbEntity
  8
SUNPOU
100
AcDbText
 10
4394.082765553178
 20
4175.485411556191
 30
0.0
 40
90.0
  1
400
 41
0.6666666666666666
  7
00
100
AcDbText
  0
LINE
  5
18FF0
330
18AED
100
AcDbEntity
  8
SUNPOU
100
AcDbLine
 10
4171.047051267463
 20
4130.485411556192
 30
0.0
 11
4182.297051267464
 21
4130.485411556192
 31
0.0
  0
LINE
  5
18FF1
330
18AED
100
AcDbEntity
  8
SUNPOU
100
AcDbLine
 10
4788.547051267463
 20
4130.485411556192
 30
0.0
 11
4777.297051267463
 21
4130.485411556192
 31
0.0
  0
TEXT
  5
18FF2
330
18AED
100
AcDbEntity
  8
SUNPOU
100
AcDbText
 10
12334.12750789963
 20
8485.386039575185
 30
0.0
 40
90.0
  1
200
 50
90.0
 41
0.6666666666666666
  7
00
100
AcDbText
  0
LINE
  5
18FF3
330
18AED
100
AcDbEntity
  8
SUNPOU
100
AcDbLine
 10
12379.12750789964
 20
8719.493182432323
 30
0.0
 11
12379.12750789964
 21
8730.743182432323
 31
0.0
  0
LINE
  5
18FF4
330
18AED
100
AcDbEntity
  8
SUNPOU
100
AcDbLine
 10
12379.12750789964
 20
8896.993182432323
 30
0.0
 11
12379.12750789964
 21
8885.743182432326
 31
0.0
  0
ARC
  5
18FF5
330
18AED
100
AcDbEntity
  8
SUNPOU
100
AcDbCircle
 10
12799.12750789964
 20
9108.243182432325
 30
0.0
 40
5.625
100
AcDbArc
 50
270.0
 51
90.0
  0
ARC
  5
18FF6
330
18AED
100
AcDbEntity
  8
SUNPOU
100
AcDbCircle
 10
12799.12750789964
 20
9108.243182432325
 30
0.0
 40
5.625
100
AcDbArc
 50
90.0
 51
270.0
  0
ARC
  5
18FF7
330
18AED
100
AcDbEntity
  8
SUNPOU
100
AcDbCircle
 10
12589.12750789964
 20
9108.243182432325
 30
0.0
 40
5.625
100
AcDbArc
 50
270.0
 51
90.0
  0
ARC
  5
18FF8
330
18AED
100
AcDbEntity
  8
SUNPOU
100
AcDbCircle
 10
12589.12750789964
 20
9108.243182432325
 30
0.0
 40
5.625
100
AcDbArc
 50
90.0
 51
270.0
  0
ARC
  5
18FF9
330
18AED
100
AcDbEntity
  8
SUNPOU
100
AcDbCircle
 10
12589.12750789964
 20
8708.243182432324
 30
0.0
 40
5.625
100
AcDbArc
 50
270.0
 51
90.0
  0
ARC
  5
18FFA
330
18AED
100
AcDbEntity
  8
SUNPOU
100
AcDbCircle
 10
12589.12750789964
 20
8708.243182432324
 30
0.0
 40
5.625
100
AcDbArc
 50
90.0
 51
270.0
  0
ARC
  5
18FFB
330
18AED
100
AcDbEntity
  8
SUNPOU
100
AcDbCircle
 10
12589.12750789964
 20
8708.243182432324
 30
0.0
 40
5.625
100
AcDbArc
 50
90.0
 51
270.0
  0
ARC
  5
18FFC
330
18AED
100
AcDbEntity
  8
SUNPOU
100
AcDbCircle
 10
12589.12750789964
 20
8708.243182432324
 30
0.0
 40
5.625
100
AcDbArc
 50
270.0
 51
90.0
  0
ARC
  5
18FFD
330
18AED
100
AcDbEntity
  8
SUNPOU
100
AcDbCircle
 10
12589.12750789964
 20
6898.243182432327
 30
0.0
 40
5.625
100
AcDbArc
 50
90.0
 51
270.0
  0
ARC
  5
18FFE
330
18AED
100
AcDbEntity
  8
SUNPOU
100
AcDbCircle
 10
12589.12750789964
 20
6898.243182432327
 30
0.0
 40
5.625
100
AcDbArc
 50
270.0
 51
90.0
  0
ARC
  5
18FFF
330
18AED
100
AcDbEntity
  8
SUNPOU
100
AcDbCircle
 10
12589.12750789964
 20
6898.243182432327
 30
0.0
 40
5.625
100
AcDbArc
 50
270.0
 51
90.0
  0
ARC
  5
19000
330
18AED
100
AcDbEntity
  8
SUNPOU
100
AcDbCircle
 10
12589.12750789964
 20
6898.243182432327
 30
0.0
 40
5.625
100
AcDbArc
 50
90.0
 51
270.0
  0
ARC
  5
19001
330
18AED
100
AcDbEntity
  8
SUNPOU
100
AcDbCircle
 10
12799.12750789964
 20
6498.243182432327
 30
0.0
 40
5.625
100
AcDbArc
 50
90.0
 51
270.0
  0
ARC
  5
19002
330
18AED
100
AcDbEntity
  8
SUNPOU
100
AcDbCircle
 10
12799.12750789964
 20
6498.243182432327
 30
0.0
 40
5.625
100
AcDbArc
 50
270.0
 51
90.0
  0
ARC
  5
19003
330
18AED
100
AcDbEntity
  8
SUNPOU
100
AcDbCircle
 10
12589.12750789964
 20
6498.243182432327
 30
0.0
 40
5.625
100
AcDbArc
 50
90.0
 51
270.0
  0
ARC
  5
19004
330
18AED
100
AcDbEntity
  8
SUNPOU
100
AcDbCircle
 10
12589.12750789964
 20
6498.243182432327
 30
0.0
 40
5.625
100
AcDbArc
 50
270.0
 51
90.0
  0
TEXT
  5
19005
330
18AED
100
AcDbEntity
  8
SUNPOU
100
AcDbText
 10
12334.12750789963
 20
9159.6717538609
 30
0.0
 40
90.0
  1
200
 50
90.0
 41
0.6666666666666666
  7
00
100
AcDbText
  0
LINE
  5
19006
330
18AED
100
AcDbEntity
  8
SUNPOU
100
AcDbLine
 10
12379.12750789964
 20
9096.993182432326
 30
0.0
 11
12379.12750789964
 21
9085.743182432326
 31
0.0
  0
LINE
  5
19007
330
18AED
100
AcDbEntity
  8
SUNPOU
100
AcDbLine
 10
12379.12750789964
 20
8919.493182432324
 30
0.0
 11
12379.12750789964
 21
8930.743182432323
 31
0.0
  0
TEXT
  5
19008
330
18AED
100
AcDbEntity
  8
SUNPOU
100
AcDbText
 10
11693.41322218535
 20
9453.243182432325
 30
0.0
 40
90.0
  1
400
 41
0.6666666666666666
  7
00
100
AcDbText
  0
LINE
  5
19009
330
18AED
100
AcDbEntity
  8
SUNPOU
100
AcDbLine
 10
11967.87750789964
 20
9408.243182432325
 30
0.0
 11
11956.62750789964
 21
9408.243182432325
 31
0.0
  0
LINE
  5
1900A
330
18AED
100
AcDbEntity
  8
SUNPOU
100
AcDbLine
 10
11590.37750789964
 20
9408.243182432325
 30
0.0
 11
11601.62750789964
 21
9408.243182432325
 31
0.0
  0
ARC
  5
1900B
330
18AED
100
AcDbEntity
  8
SUNPOU
100
AcDbCircle
 10
9119.127507899637
 20
9408.243182432325
 30
0.0
 40
5.625
100
AcDbArc
 50
180.0
 51
0.0
  0
ARC
  5
1900C
330
18AED
100
AcDbEntity
  8
SUNPOU
100
AcDbCircle
 10
9119.127507899637
 20
9408.243182432325
 30
0.0
 40
5.625
100
AcDbArc
 50
0.0
 51
180.0
  0
TEXT
  5
1900D
330
18AED
100
AcDbEntity
  8
SUNPOU
100
AcDbText
 10
10234.84179361392
 20
9453.243182432325
 30
0.0
 40
90.0
  1
2460
 41
0.6666666666666666
  7
00
100
AcDbText
  0
LINE
  5
1900E
330
18AED
100
AcDbEntity
  8
SUNPOU
100
AcDbLine
 10
9130.377507899636
 20
9408.243182432325
 30
0.0
 11
9141.62750789964
 21
9408.243182432325
 31
0.0
  0
LINE
  5
1900F
330
18AED
100
AcDbEntity
  8
SUNPOU
100
AcDbLine
 10
11567.87750789964
 20
9408.243182432325
 30
0.0
 11
11556.62750789964
 21
9408.243182432325
 31
0.0
  0
TEXT
  5
19010
330
18AED
100
AcDbEntity
  8
SUNPOU
100
AcDbText
 10
9774.127507899642
 20
6812.528896718042
 30
0.0
 40
90.0
  1
800
 50
90.0
 41
0.6666666666666666
  7
00
100
AcDbText
  0
LINE
  5
19011
330
18AED
100
AcDbEntity
  8
SUNPOU
100
AcDbLine
 10
9819.127507899644
 20
6509.493182432326
 30
0.0
 11
9819.127507899644
 21
6520.743182432326
 31
0.0
  0
LINE
  5
19012
330
18AED
100
AcDbEntity
  8
SUNPOU
100
AcDbLine
 10
9819.127507899644
 20
7286.993182432325
 30
0.0
 11
9819.127507899644
 21
7275.743182432326
 31
0.0
  0
ARC
  5
19013
330
18AED
100
AcDbEntity
  8
SUNPOU
100
AcDbCircle
 10
7719.127507899639
 20
9408.243182432325
 30
0.0
 40
5.625
100
AcDbArc
 50
0.0
 51
180.0
  0
ARC
  5
19014
330
18AED
100
AcDbEntity
  8
SUNPOU
100
AcDbCircle
 10
7719.127507899639
 20
9408.243182432325
 30
0.0
 40
5.625
100
AcDbArc
 50
180.0
 51
0.0
  0
TEXT
  5
19015
330
18AED
100
AcDbEntity
  8
SUNPOU
100
AcDbText
 10
6374.841793613924
 20
9453.243182432325
 30
0.0
 40
90.0
  1
2460
 41
0.6666666666666666
  7
00
100
AcDbText
  0
LINE
  5
19016
330
18AED
100
AcDbEntity
  8
SUNPOU
100
AcDbLine
 10
5270.377507899638
 20
9408.243182432325
 30
0.0
 11
5281.627507899639
 21
9408.243182432325
 31
0.0
  0
LINE
  5
19017
330
18AED
100
AcDbEntity
  8
SUNPOU
100
AcDbLine
 10
7707.877507899637
 20
9408.243182432325
 30
0.0
 11
7696.627507899638
 21
9408.243182432325
 31
0.0
  0
TEXT
  5
19018
330
18AED
100
AcDbEntity
  8
SUNPOU
100
AcDbText
 10
7633.413222185355
 20
8053.243182432325
 30
0.0
 40
90.0
  1
800
 41
0.6666666666666666
  7
00
100
AcDbText
  0
LINE
  5
19019
330
18AED
100
AcDbEntity
  8
SUNPOU
100
AcDbLine
 10
8107.877507899637
 20
8008.243182432327
 30
0.0
 11
8096.627507899638
 21
8008.243182432327
 31
0.0
  0
LINE
  5
1901A
330
18AED
100
AcDbEntity
  8
SUNPOU
100
AcDbLine
 10
7330.377507899638
 20
8008.243182432327
 30
0.0
 11
7341.627507899637
 21
8008.243182432327
 31
0.0
  0
TEXT
  5
1901B
330
18AED
100
AcDbEntity
  8
SUNPOU
100
AcDbText
 10
6974.127507899638
 20
8622.528896718042
 30
0.0
 40
90.0
  1
800
 50
90.0
 41
0.6666666666666666
  7
00
100
AcDbText
  0
LINE
  5
1901C
330
18AED
100
AcDbEntity
  8
SUNPOU
100
AcDbLine
 10
7019.127507899638
 20
8319.493182432324
 30
0.0
 11
7019.127507899638
 21
8330.743182432325
 31
0.0
  0
LINE
  5
1901D
330
18AED
100
AcDbEntity
  8
SUNPOU
100
AcDbLine
 10
7019.127507899638
 20
9096.993182432326
 30
0.0
 11
7019.127507899638
 21
9085.743182432326
 31
0.0
  0
TEXT
  5
1901E
330
18AED
100
AcDbEntity
  8
SUNPOU
100
AcDbText
 10
4973.413222185353
 20
9453.243182432325
 30
0.0
 40
90.0
  1
400
 41
0.6666666666666666
  7
00
100
AcDbText
  0
LINE
  5
1901F
330
18AED
100
AcDbEntity
  8
SUNPOU
100
AcDbLine
 10
4870.37750789964
 20
9408.243182432325
 30
0.0
 11
4881.62750789964
 21
9408.243182432325
 31
0.0
  0
LINE
  5
19020
330
18AED
100
AcDbEntity
  8
SUNPOU
100
AcDbLine
 10
5247.877507899637
 20
9408.243182432325
 30
0.0
 11
5236.62750789964
 21
9408.243182432325
 31
0.0
  0
TEXT
  5
19021
330
18AED
100
AcDbEntity
  8
SUNPOU
100
AcDbText
 10
7955.413222185355
 20
9663.243182432324
 30
0.0
 40
90.0
  1
L = 2460 x N + 800
 41
0.6666666666666666
  7
00
100
AcDbText
  0
LINE
  5
19022
330
18AED
100
AcDbEntity
  8
SUNPOU
100
AcDbLine
 10
11967.87750789964
 20
9618.243182432324
 30
0.0
 11
11956.62750789964
 21
9618.243182432324
 31
0.0
  0
LINE
  5
19023
330
18AED
100
AcDbEntity
  8
SUNPOU
100
AcDbLine
 10
4870.37750789964
 20
9618.243182432324
 30
0.0
 11
4881.62750789964
 21
9618.243182432324
 31
0.0
  0
TEXT
  5
19024
330
18AED
100
AcDbEntity
  8
SUNPOU
100
AcDbText
 10
9033.413222185352
 20
7643.243182432326
 30
0.0
 40
90.0
  1
800
 41
0.6666666666666666
  7
00
100
AcDbText
  0
LINE
  5
19025
330
18AED
100
AcDbEntity
  8
SUNPOU
100
AcDbLine
 10
9507.877507899637
 20
7598.243182432326
 30
0.0
 11
9496.627507899637
 21
7598.243182432326
 31
0.0
  0
LINE
  5
19026
330
18AED
100
AcDbEntity
  8
SUNPOU
100
AcDbLine
 10
8730.377507899637
 20
7598.243182432326
 30
0.0
 11
8741.627507899636
 21
7598.243182432326
 31
0.0
  0
ARC
  5
19027
330
18AED
100
AcDbEntity
  8
SUNPOU
100
AcDbCircle
 10
3880.443655266704
 20
2546.284839419602
 30
0.0
 40
5.625
100
AcDbArc
 50
90.0
 51
270.0
  0
ARC
  5
19028
330
18AED
100
AcDbEntity
  8
SUNPOU
100
AcDbCircle
 10
3880.443655266704
 20
2546.284839419602
 30
0.0
 40
5.625
100
AcDbArc
 50
270.0
 51
90.0
  0
ARC
  5
19029
330
18AED
100
AcDbEntity
  8
SUNPOU
100
AcDbCircle
 10
3880.443655266704
 20
2706.284839419602
 30
0.0
 40
5.625
100
AcDbArc
 50
270.0
 51
90.0
  0
ARC
  5
1902A
330
18AED
100
AcDbEntity
  8
SUNPOU
100
AcDbCircle
 10
3880.443655266704
 20
2706.284839419602
 30
0.0
 40
5.625
100
AcDbArc
 50
90.0
 51
270.0
  0
ARC
  5
1902B
330
18AED
100
AcDbEntity
  8
SUNPOU
100
AcDbCircle
 10
3661.747780992794
 20
2546.284839419602
 30
0.0
 40
5.625
100
AcDbArc
 50
90.0
 51
270.0
  0
ARC
  5
1902C
330
18AED
100
AcDbEntity
  8
SUNPOU
100
AcDbCircle
 10
3661.747780992794
 20
2546.284839419602
 30
0.0
 40
5.625
100
AcDbArc
 50
270.0
 51
90.0
  0
ARC
  5
1902D
330
18AED
100
AcDbEntity
  8
SUNPOU
100
AcDbCircle
 10
3661.747780992796
 20
3456.684839419605
 30
0.0
 40
5.625
100
AcDbArc
 50
270.0
 51
90.0
  0
ARC
  5
1902E
330
18AED
100
AcDbEntity
  8
SUNPOU
100
AcDbCircle
 10
3661.747780992796
 20
3456.684839419605
 30
0.0
 40
5.625
100
AcDbArc
 50
90.0
 51
270.0
  0
ARC
  5
1902F
330
18AED
100
AcDbEntity
  8
SUNPOU
100
AcDbCircle
 10
7660.769855790352
 20
2546.284839419602
 30
0.0
 40
5.625
100
AcDbArc
 50
90.0
 51
270.0
  0
ARC
  5
19030
330
18AED
100
AcDbEntity
  8
SUNPOU
100
AcDbCircle
 10
7660.769855790352
 20
2546.284839419602
 30
0.0
 40
5.625
100
AcDbArc
 50
270.0
 51
90.0
  0
ARC
  5
19031
330
18AED
100
AcDbEntity
  8
SUNPOU
100
AcDbCircle
 10
7660.769855790352
 20
2706.284839419607
 30
0.0
 40
5.625
100
AcDbArc
 50
270.0
 51
90.0
  0
ARC
  5
19032
330
18AED
100
AcDbEntity
  8
SUNPOU
100
AcDbCircle
 10
7660.769855790352
 20
2706.284839419607
 30
0.0
 40
5.625
100
AcDbArc
 50
90.0
 51
270.0
  0
ARC
  5
19033
330
18AED
100
AcDbEntity
  8
SUNPOU
100
AcDbCircle
 10
7441.802983832269
 20
2546.284839419602
 30
0.0
 40
5.625
100
AcDbArc
 50
90.0
 51
270.0
  0
ARC
  5
19034
330
18AED
100
AcDbEntity
  8
SUNPOU
100
AcDbCircle
 10
7441.802983832269
 20
2546.284839419602
 30
0.0
 40
5.625
100
AcDbArc
 50
270.0
 51
90.0
  0
ARC
  5
19035
330
18AED
100
AcDbEntity
  8
SUNPOU
100
AcDbCircle
 10
7441.802983832269
 20
3456.684839419605
 30
0.0
 40
5.625
100
AcDbArc
 50
270.0
 51
90.0
  0
ARC
  5
19036
330
18AED
100
AcDbEntity
  8
SUNPOU
100
AcDbCircle
 10
7441.802983832269
 20
3456.684839419605
 30
0.0
 40
5.625
100
AcDbArc
 50
90.0
 51
270.0
  0
ARC
  5
19037
330
18AED
100
AcDbEntity
  8
SUNPOU
100
AcDbCircle
 10
12313.40680314955
 20
3882.337036584561
 30
0.0
 40
5.625
100
AcDbArc
 50
270.0
 51
90.0
  0
ARC
  5
19038
330
18AED
100
AcDbEntity
  8
SUNPOU
100
AcDbCircle
 10
12313.40680314955
 20
3882.337036584561
 30
0.0
 40
5.625
100
AcDbArc
 50
90.0
 51
270.0
  0
ARC
  5
19039
330
18AED
100
AcDbEntity
  8
SUNPOU
100
AcDbCircle
 10
12313.40680314955
 20
3722.337036584561
 30
0.0
 40
5.625
100
AcDbArc
 50
90.0
 51
270.0
  0
ARC
  5
1903A
330
18AED
100
AcDbEntity
  8
SUNPOU
100
AcDbCircle
 10
12313.40680314955
 20
3722.337036584561
 30
0.0
 40
5.625
100
AcDbArc
 50
270.0
 51
90.0
  0
ARC
  5
1903B
330
18AED
100
AcDbEntity
  8
SUNPOU
100
AcDbCircle
 10
12313.40680314955
 20
3618.337036584563
 30
0.0
 40
5.625
100
AcDbArc
 50
270.0
 51
90.0
  0
ARC
  5
1903C
330
18AED
100
AcDbEntity
  8
SUNPOU
100
AcDbCircle
 10
12313.40680314955
 20
3618.337036584563
 30
0.0
 40
5.625
100
AcDbArc
 50
90.0
 51
270.0
  0
ARC
  5
1903D
330
18AED
100
AcDbEntity
  8
SUNPOU
100
AcDbCircle
 10
12313.40680314955
 20
3722.337036584561
 30
0.0
 40
5.625
100
AcDbArc
 50
90.0
 51
270.0
  0
ARC
  5
1903E
330
18AED
100
AcDbEntity
  8
SUNPOU
100
AcDbCircle
 10
12313.40680314955
 20
3722.337036584561
 30
0.0
 40
5.625
100
AcDbArc
 50
270.0
 51
90.0
  0
ARC
  5
1903F
330
18AED
100
AcDbEntity
  8
SUNPOU
100
AcDbCircle
 10
11901.33837406209
 20
2245.804976716085
 30
0.0
 40
5.625
100
AcDbArc
 50
0.0
 51
180.0
  0
ARC
  5
19040
330
18AED
100
AcDbEntity
  8
SUNPOU
100
AcDbCircle
 10
11901.33837406209
 20
2245.804976716085
 30
0.0
 40
5.625
100
AcDbArc
 50
180.0
 51
0.0
  0
ARC
  5
19041
330
18AED
100
AcDbEntity
  8
SUNPOU
100
AcDbCircle
 10
11821.33837406209
 20
2245.804976716085
 30
0.0
 40
5.625
100
AcDbArc
 50
180.0
 51
0.0
  0
ARC
  5
19042
330
18AED
100
AcDbEntity
  8
SUNPOU
100
AcDbCircle
 10
11821.33837406209
 20
2245.804976716085
 30
0.0
 40
5.625
100
AcDbArc
 50
0.0
 51
180.0
  0
ARC
  5
19043
330
18AED
100
AcDbEntity
  8
SUNPOU
100
AcDbCircle
 10
11821.33837406209
 20
2245.804976716085
 30
0.0
 40
5.625
100
AcDbArc
 50
180.0
 51
0.0
  0
ARC
  5
19044
330
18AED
100
AcDbEntity
  8
SUNPOU
100
AcDbCircle
 10
11821.33837406209
 20
2245.804976716085
 30
0.0
 40
5.625
100
AcDbArc
 50
0.0
 51
180.0
  0
ARC
  5
19045
330
18AED
100
AcDbEntity
  8
SUNPOU
100
AcDbCircle
 10
11261.33837406209
 20
2245.804976716085
 30
0.0
 40
5.625
100
AcDbArc
 50
0.0
 51
180.0
  0
ARC
  5
19046
330
18AED
100
AcDbEntity
  8
SUNPOU
100
AcDbCircle
 10
11261.33837406209
 20
2245.804976716085
 30
0.0
 40
5.625
100
AcDbArc
 50
180.0
 51
0.0
  0
ARC
  5
19047
330
18AED
100
AcDbEntity
  8
SUNPOU
100
AcDbCircle
 10
11181.33837406209
 20
2245.804976716085
 30
0.0
 40
5.625
100
AcDbArc
 50
180.0
 51
0.0
  0
ARC
  5
19048
330
18AED
100
AcDbEntity
  8
SUNPOU
100
AcDbCircle
 10
11181.33837406209
 20
2245.804976716085
 30
0.0
 40
5.625
100
AcDbArc
 50
0.0
 51
180.0
  0
ARC
  5
19049
330
18AED
100
AcDbEntity
  8
SUNPOU
100
AcDbCircle
 10
11261.33837406209
 20
2245.804976716085
 30
0.0
 40
5.625
100
AcDbArc
 50
0.0
 51
180.0
  0
ARC
  5
1904A
330
18AED
100
AcDbEntity
  8
SUNPOU
100
AcDbCircle
 10
11261.33837406209
 20
2245.804976716085
 30
0.0
 40
5.625
100
AcDbArc
 50
180.0
 51
0.0
  0
ARC
  5
1904B
330
18AED
100
AcDbEntity
  8
SUNPOU
100
AcDbCircle
 10
11901.33837406209
 20
2035.804976716086
 30
0.0
 40
5.625
100
AcDbArc
 50
180.0
 51
0.0
  0
ARC
  5
1904C
330
18AED
100
AcDbEntity
  8
SUNPOU
100
AcDbCircle
 10
11901.33837406209
 20
2035.804976716086
 30
0.0
 40
5.625
100
AcDbArc
 50
0.0
 51
180.0
  0
ARC
  5
1904D
330
18AED
100
AcDbEntity
  8
SUNPOU
100
AcDbCircle
 10
11181.33837406209
 20
2035.804976716086
 30
0.0
 40
5.625
100
AcDbArc
 50
0.0
 51
180.0
  0
ARC
  5
1904E
330
18AED
100
AcDbEntity
  8
SUNPOU
100
AcDbCircle
 10
11181.33837406209
 20
2035.804976716086
 30
0.0
 40
5.625
100
AcDbArc
 50
180.0
 51
0.0
  0
ARC
  5
1904F
330
18AED
100
AcDbEntity
  8
SUNPOU
100
AcDbCircle
 10
10918.33837406209
 20
2500.144344053149
 30
0.0
 40
5.625
100
AcDbArc
 50
90.0
 51
270.0
  0
ARC
  5
19050
330
18AED
100
AcDbEntity
  8
SUNPOU
100
AcDbCircle
 10
10918.33837406209
 20
2500.144344053149
 30
0.0
 40
5.625
100
AcDbArc
 50
270.0
 51
90.0
  0
ARC
  5
19051
330
18AED
100
AcDbEntity
  8
SUNPOU
100
AcDbCircle
 10
10918.33837406209
 20
2700.144344053149
 30
0.0
 40
5.625
100
AcDbArc
 50
270.0
 51
90.0
  0
ARC
  5
19052
330
18AED
100
AcDbEntity
  8
SUNPOU
100
AcDbCircle
 10
10918.33837406209
 20
2700.144344053149
 30
0.0
 40
5.625
100
AcDbArc
 50
90.0
 51
270.0
  0
ARC
  5
19053
330
18AED
100
AcDbEntity
  8
SUNPOU
100
AcDbCircle
 10
10918.33837406209
 20
2900.144344053149
 30
0.0
 40
5.625
100
AcDbArc
 50
270.0
 51
90.0
  0
ARC
  5
19054
330
18AED
100
AcDbEntity
  8
SUNPOU
100
AcDbCircle
 10
10918.33837406209
 20
2900.144344053149
 30
0.0
 40
5.625
100
AcDbArc
 50
90.0
 51
270.0
  0
ARC
  5
19055
330
18AED
100
AcDbEntity
  8
SUNPOU
100
AcDbCircle
 10
10918.33837406209
 20
2700.144344053149
 30
0.0
 40
5.625
100
AcDbArc
 50
90.0
 51
270.0
  0
ARC
  5
19056
330
18AED
100
AcDbEntity
  8
SUNPOU
100
AcDbCircle
 10
10918.33837406209
 20
2700.144344053149
 30
0.0
 40
5.625
100
AcDbArc
 50
270.0
 51
90.0
  0
ARC
  5
19057
330
18AED
100
AcDbEntity
  8
SUNPOU
100
AcDbCircle
 10
10708.33837406208
 20
2900.144344053149
 30
0.0
 40
5.625
100
AcDbArc
 50
270.0
 51
90.0
  0
ARC
  5
19058
330
18AED
100
AcDbEntity
  8
SUNPOU
100
AcDbCircle
 10
10708.33837406208
 20
2900.144344053149
 30
0.0
 40
5.625
100
AcDbArc
 50
90.0
 51
270.0
  0
ARC
  5
19059
330
18AED
100
AcDbEntity
  8
SUNPOU
100
AcDbCircle
 10
10708.33837406208
 20
2500.144344053149
 30
0.0
 40
5.625
100
AcDbArc
 50
90.0
 51
270.0
  0
ARC
  5
1905A
330
18AED
100
AcDbEntity
  8
SUNPOU
100
AcDbCircle
 10
10708.33837406208
 20
2500.144344053149
 30
0.0
 40
5.625
100
AcDbArc
 50
270.0
 51
90.0
  0
ARC
  5
1905B
330
18AED
100
AcDbEntity
  8
SUNPOU
100
AcDbCircle
 10
11901.33837406209
 20
3394.17086265506
 30
0.0
 40
5.625
100
AcDbArc
 50
0.0
 51
180.0
  0
ARC
  5
1905C
330
18AED
100
AcDbEntity
  8
SUNPOU
100
AcDbCircle
 10
11901.33837406209
 20
3394.17086265506
 30
0.0
 40
5.625
100
AcDbArc
 50
180.0
 51
0.0
  0
ARC
  5
1905D
330
18AED
100
AcDbEntity
  8
SUNPOU
100
AcDbCircle
 10
11821.33837406209
 20
3394.17086265506
 30
0.0
 40
5.625
100
AcDbArc
 50
180.0
 51
0.0
  0
ARC
  5
1905E
330
18AED
100
AcDbEntity
  8
SUNPOU
100
AcDbCircle
 10
11821.33837406209
 20
3394.17086265506
 30
0.0
 40
5.625
100
AcDbArc
 50
0.0
 51
180.0
  0
ARC
  5
1905F
330
18AED
100
AcDbEntity
  8
SUNPOU
100
AcDbCircle
 10
11821.33837406209
 20
3394.170862655061
 30
0.0
 40
5.625
100
AcDbArc
 50
180.0
 51
0.0
  0
ARC
  5
19060
330
18AED
100
AcDbEntity
  8
SUNPOU
100
AcDbCircle
 10
11821.33837406209
 20
3394.170862655061
 30
0.0
 40
5.625
100
AcDbArc
 50
0.0
 51
180.0
  0
ARC
  5
19061
330
18AED
100
AcDbEntity
  8
SUNPOU
100
AcDbCircle
 10
11261.33837406209
 20
3394.170862655061
 30
0.0
 40
5.625
100
AcDbArc
 50
0.0
 51
180.0
  0
ARC
  5
19062
330
18AED
100
AcDbEntity
  8
SUNPOU
100
AcDbCircle
 10
11261.33837406209
 20
3394.170862655061
 30
0.0
 40
5.625
100
AcDbArc
 50
180.0
 51
0.0
  0
ARC
  5
19063
330
18AED
100
AcDbEntity
  8
SUNPOU
100
AcDbCircle
 10
11181.33837406207
 20
3394.17086265506
 30
0.0
 40
5.625
100
AcDbArc
 50
180.0
 51
0.0
  0
ARC
  5
19064
330
18AED
100
AcDbEntity
  8
SUNPOU
100
AcDbCircle
 10
11181.33837406207
 20
3394.17086265506
 30
0.0
 40
5.625
100
AcDbArc
 50
0.0
 51
180.0
  0
ARC
  5
19065
330
18AED
100
AcDbEntity
  8
SUNPOU
100
AcDbCircle
 10
11261.33837406209
 20
3394.17086265506
 30
0.0
 40
5.625
100
AcDbArc
 50
0.0
 51
180.0
  0
ARC
  5
19066
330
18AED
100
AcDbEntity
  8
SUNPOU
100
AcDbCircle
 10
11261.33837406209
 20
3394.17086265506
 30
0.0
 40
5.625
100
AcDbArc
 50
180.0
 51
0.0
  0
ARC
  5
19067
330
18AED
100
AcDbEntity
  8
SUNPOU
100
AcDbCircle
 10
11901.33837406209
 20
3184.170862655062
 30
0.0
 40
5.625
100
AcDbArc
 50
180.0
 51
0.0
  0
ARC
  5
19068
330
18AED
100
AcDbEntity
  8
SUNPOU
100
AcDbCircle
 10
11901.33837406209
 20
3184.170862655062
 30
0.0
 40
5.625
100
AcDbArc
 50
0.0
 51
180.0
  0
ARC
  5
19069
330
18AED
100
AcDbEntity
  8
SUNPOU
100
AcDbCircle
 10
11181.33837406207
 20
3184.170862655062
 30
0.0
 40
5.625
100
AcDbArc
 50
0.0
 51
180.0
  0
ARC
  5
1906A
330
18AED
100
AcDbEntity
  8
SUNPOU
100
AcDbCircle
 10
11181.33837406207
 20
3184.170862655062
 30
0.0
 40
5.625
100
AcDbArc
 50
180.0
 51
0.0
  0
ARC
  5
1906B
330
18AED
100
AcDbEntity
  8
SUNPOU
100
AcDbCircle
 10
9220.123251791108
 20
2148.684839419604
 30
0.0
 40
5.625
100
AcDbArc
 50
180.0
 51
0.0
  0
ARC
  5
1906C
330
18AED
100
AcDbEntity
  8
SUNPOU
100
AcDbCircle
 10
9220.123251791108
 20
2148.684839419604
 30
0.0
 40
5.625
100
AcDbArc
 50
0.0
 51
180.0
  0
ARC
  5
1906D
330
18AED
100
AcDbEntity
  8
SUNPOU
100
AcDbCircle
 10
7940.12325179111
 20
2148.684839419604
 30
0.0
 40
5.625
100
AcDbArc
 50
0.0
 51
180.0
  0
ARC
  5
1906E
330
18AED
100
AcDbEntity
  8
SUNPOU
100
AcDbCircle
 10
7940.12325179111
 20
2148.684839419604
 30
0.0
 40
5.625
100
AcDbArc
 50
180.0
 51
0.0
  0
ARC
  5
1906F
330
18AED
100
AcDbEntity
  8
SUNPOU
100
AcDbCircle
 10
9380.123251791109
 20
1938.684839419604
 30
0.0
 40
5.625
100
AcDbArc
 50
180.0
 51
0.0
  0
ARC
  5
19070
330
18AED
100
AcDbEntity
  8
SUNPOU
100
AcDbCircle
 10
9380.123251791109
 20
1938.684839419604
 30
0.0
 40
5.625
100
AcDbArc
 50
0.0
 51
180.0
  0
ARC
  5
19071
330
18AED
100
AcDbEntity
  8
SUNPOU
100
AcDbCircle
 10
7780.123251791109
 20
1938.684839419604
 30
0.0
 40
5.625
100
AcDbArc
 50
0.0
 51
180.0
  0
ARC
  5
19072
330
18AED
100
AcDbEntity
  8
SUNPOU
100
AcDbCircle
 10
7780.123251791109
 20
1938.684839419604
 30
0.0
 40
5.625
100
AcDbArc
 50
180.0
 51
0.0
  0
ARC
  5
19073
330
18AED
100
AcDbEntity
  8
SUNPOU
100
AcDbCircle
 10
7240.76985579035
 20
3456.684839419605
 30
0.0
 40
5.625
100
AcDbArc
 50
90.0
 51
270.0
  0
ARC
  5
19074
330
18AED
100
AcDbEntity
  8
SUNPOU
100
AcDbCircle
 10
7240.76985579035
 20
3456.684839419605
 30
0.0
 40
5.625
100
AcDbArc
 50
270.0
 51
90.0
  0
ARC
  5
19075
330
18AED
100
AcDbEntity
  8
SUNPOU
100
AcDbCircle
 10
7240.76985579035
 20
3376.684839419608
 30
0.0
 40
5.625
100
AcDbArc
 50
270.0
 51
90.0
  0
ARC
  5
19076
330
18AED
100
AcDbEntity
  8
SUNPOU
100
AcDbCircle
 10
7240.76985579035
 20
3376.684839419608
 30
0.0
 40
5.625
100
AcDbArc
 50
90.0
 51
270.0
  0
ARC
  5
19077
330
18AED
100
AcDbEntity
  8
SUNPOU
100
AcDbCircle
 10
7660.769855790352
 20
3186.284839419601
 30
0.0
 40
5.625
100
AcDbArc
 50
90.0
 51
270.0
  0
ARC
  5
19078
330
18AED
100
AcDbEntity
  8
SUNPOU
100
AcDbCircle
 10
7660.769855790352
 20
3186.284839419601
 30
0.0
 40
5.625
100
AcDbArc
 50
270.0
 51
90.0
  0
ARC
  5
19079
330
18AED
100
AcDbEntity
  8
SUNPOU
100
AcDbCircle
 10
7660.769855790352
 20
3314.284839419605
 30
0.0
 40
5.625
100
AcDbArc
 50
270.0
 51
90.0
  0
ARC
  5
1907A
330
18AED
100
AcDbEntity
  8
SUNPOU
100
AcDbCircle
 10
7660.769855790352
 20
3314.284839419605
 30
0.0
 40
5.625
100
AcDbArc
 50
90.0
 51
270.0
  0
ARC
  5
1907B
330
18AED
100
AcDbEntity
  8
SUNPOU
100
AcDbCircle
 10
7660.769855790352
 20
3456.684839419605
 30
0.0
 40
5.625
100
AcDbArc
 50
270.0
 51
90.0
  0
ARC
  5
1907C
330
18AED
100
AcDbEntity
  8
SUNPOU
100
AcDbCircle
 10
7660.769855790352
 20
3456.684839419605
 30
0.0
 40
5.625
100
AcDbArc
 50
90.0
 51
270.0
  0
ARC
  5
1907D
330
18AED
100
AcDbEntity
  8
SUNPOU
100
AcDbCircle
 10
7660.769855790352
 20
3314.284839419602
 30
0.0
 40
5.625
100
AcDbArc
 50
90.0
 51
270.0
  0
ARC
  5
1907E
330
18AED
100
AcDbEntity
  8
SUNPOU
100
AcDbCircle
 10
7660.769855790352
 20
3314.284839419602
 30
0.0
 40
5.625
100
AcDbArc
 50
270.0
 51
90.0
  0
ARC
  5
1907F
330
18AED
100
AcDbEntity
  8
SUNPOU
100
AcDbCircle
 10
7660.769855790352
 20
3186.284839419601
 30
0.0
 40
5.625
100
AcDbArc
 50
270.0
 51
90.0
  0
ARC
  5
19080
330
18AED
100
AcDbEntity
  8
SUNPOU
100
AcDbCircle
 10
7660.769855790352
 20
3186.284839419601
 30
0.0
 40
5.625
100
AcDbArc
 50
90.0
 51
270.0
  0
ARC
  5
19081
330
18AED
100
AcDbEntity
  8
SUNPOU
100
AcDbCircle
 10
7660.769855790352
 20
2706.284839419607
 30
0.0
 40
5.625
100
AcDbArc
 50
90.0
 51
270.0
  0
ARC
  5
19082
330
18AED
100
AcDbEntity
  8
SUNPOU
100
AcDbCircle
 10
7660.769855790352
 20
2706.284839419607
 30
0.0
 40
5.625
100
AcDbArc
 50
270.0
 51
90.0
  0
ARC
  5
19083
330
18AED
100
AcDbEntity
  8
SUNPOU
100
AcDbCircle
 10
8260.12325179111
 20
4130.485411556196
 30
0.0
 40
5.625
100
AcDbArc
 50
0.0
 51
180.0
  0
ARC
  5
19084
330
18AED
100
AcDbEntity
  8
SUNPOU
100
AcDbCircle
 10
8260.12325179111
 20
4130.485411556196
 30
0.0
 40
5.625
100
AcDbArc
 50
180.0
 51
0.0
  0
ARC
  5
19085
330
18AED
100
AcDbEntity
  8
SUNPOU
100
AcDbCircle
 10
8580.123251791111
 20
4130.485411556196
 30
0.0
 40
5.625
100
AcDbArc
 50
180.0
 51
0.0
  0
ARC
  5
19086
330
18AED
100
AcDbEntity
  8
SUNPOU
100
AcDbCircle
 10
8580.123251791111
 20
4130.485411556196
 30
0.0
 40
5.625
100
AcDbArc
 50
0.0
 51
180.0
  0
ARC
  5
19087
330
18AED
100
AcDbEntity
  8
SUNPOU
100
AcDbCircle
 10
5439.797051267464
 20
2148.684839419601
 30
0.0
 40
5.625
100
AcDbArc
 50
180.0
 51
0.0
  0
ARC
  5
19088
330
18AED
100
AcDbEntity
  8
SUNPOU
100
AcDbCircle
 10
5439.797051267464
 20
2148.684839419601
 30
0.0
 40
5.625
100
AcDbArc
 50
0.0
 51
180.0
  0
ARC
  5
19089
330
18AED
100
AcDbEntity
  8
SUNPOU
100
AcDbCircle
 10
4159.797051267463
 20
2148.684839419601
 30
0.0
 40
5.625
100
AcDbArc
 50
0.0
 51
180.0
  0
ARC
  5
1908A
330
18AED
100
AcDbEntity
  8
SUNPOU
100
AcDbCircle
 10
4159.797051267463
 20
2148.684839419601
 30
0.0
 40
5.625
100
AcDbArc
 50
180.0
 51
0.0
  0
ARC
  5
1908B
330
18AED
100
AcDbEntity
  8
SUNPOU
100
AcDbCircle
 10
5599.797051267461
 20
1938.6848394196
 30
0.0
 40
5.625
100
AcDbArc
 50
180.0
 51
0.0
  0
ARC
  5
1908C
330
18AED
100
AcDbEntity
  8
SUNPOU
100
AcDbCircle
 10
5599.797051267461
 20
1938.6848394196
 30
0.0
 40
5.625
100
AcDbArc
 50
0.0
 51
180.0
  0
ARC
  5
1908D
330
18AED
100
AcDbEntity
  8
SUNPOU
100
AcDbCircle
 10
3999.797051267462
 20
1938.6848394196
 30
0.0
 40
5.625
100
AcDbArc
 50
0.0
 51
180.0
  0
ARC
  5
1908E
330
18AED
100
AcDbEntity
  8
SUNPOU
100
AcDbCircle
 10
3999.797051267462
 20
1938.6848394196
 30
0.0
 40
5.625
100
AcDbArc
 50
180.0
 51
0.0
  0
ARC
  5
1908F
330
18AED
100
AcDbEntity
  8
SUNPOU
100
AcDbCircle
 10
3460.443655266704
 20
3456.684839419605
 30
0.0
 40
5.625
100
AcDbArc
 50
90.0
 51
270.0
  0
ARC
  5
19090
330
18AED
100
AcDbEntity
  8
SUNPOU
100
AcDbCircle
 10
3460.443655266704
 20
3456.684839419605
 30
0.0
 40
5.625
100
AcDbArc
 50
270.0
 51
90.0
  0
ARC
  5
19091
330
18AED
100
AcDbEntity
  8
SUNPOU
100
AcDbCircle
 10
3460.443655266704
 20
3376.684839419604
 30
0.0
 40
5.625
100
AcDbArc
 50
270.0
 51
90.0
  0
ARC
  5
19092
330
18AED
100
AcDbEntity
  8
SUNPOU
100
AcDbCircle
 10
3460.443655266704
 20
3376.684839419604
 30
0.0
 40
5.625
100
AcDbArc
 50
90.0
 51
270.0
  0
ARC
  5
19093
330
18AED
100
AcDbEntity
  8
SUNPOU
100
AcDbCircle
 10
3880.443655266705
 20
3186.284839419595
 30
0.0
 40
5.625
100
AcDbArc
 50
90.0
 51
270.0
  0
ARC
  5
19094
330
18AED
100
AcDbEntity
  8
SUNPOU
100
AcDbCircle
 10
3880.443655266705
 20
3186.284839419595
 30
0.0
 40
5.625
100
AcDbArc
 50
270.0
 51
90.0
  0
ARC
  5
19095
330
18AED
100
AcDbEntity
  8
SUNPOU
100
AcDbCircle
 10
3880.443655266705
 20
3314.2848394196
 30
0.0
 40
5.625
100
AcDbArc
 50
270.0
 51
90.0
  0
ARC
  5
19096
330
18AED
100
AcDbEntity
  8
SUNPOU
100
AcDbCircle
 10
3880.443655266705
 20
3314.2848394196
 30
0.0
 40
5.625
100
AcDbArc
 50
90.0
 51
270.0
  0
ARC
  5
19097
330
18AED
100
AcDbEntity
  8
SUNPOU
100
AcDbCircle
 10
3880.443655266704
 20
3456.684839419605
 30
0.0
 40
5.625
100
AcDbArc
 50
270.0
 51
90.0
  0
ARC
  5
19098
330
18AED
100
AcDbEntity
  8
SUNPOU
100
AcDbCircle
 10
3880.443655266704
 20
3456.684839419605
 30
0.0
 40
5.625
100
AcDbArc
 50
90.0
 51
270.0
  0
ARC
  5
19099
330
18AED
100
AcDbEntity
  8
SUNPOU
100
AcDbCircle
 10
3880.443655266704
 20
3314.284839419602
 30
0.0
 40
5.625
100
AcDbArc
 50
90.0
 51
270.0
  0
ARC
  5
1909A
330
18AED
100
AcDbEntity
  8
SUNPOU
100
AcDbCircle
 10
3880.443655266704
 20
3314.284839419602
 30
0.0
 40
5.625
100
AcDbArc
 50
270.0
 51
90.0
  0
ARC
  5
1909B
330
18AED
100
AcDbEntity
  8
SUNPOU
100
AcDbCircle
 10
3880.443655266704
 20
3186.284839419595
 30
0.0
 40
5.625
100
AcDbArc
 50
270.0
 51
90.0
  0
ARC
  5
1909C
330
18AED
100
AcDbEntity
  8
SUNPOU
100
AcDbCircle
 10
3880.443655266704
 20
3186.284839419595
 30
0.0
 40
5.625
100
AcDbArc
 50
90.0
 51
270.0
  0
ARC
  5
1909D
330
18AED
100
AcDbEntity
  8
SUNPOU
100
AcDbCircle
 10
3880.443655266704
 20
2706.284839419602
 30
0.0
 40
5.625
100
AcDbArc
 50
90.0
 51
270.0
  0
ARC
  5
1909E
330
18AED
100
AcDbEntity
  8
SUNPOU
100
AcDbCircle
 10
3880.443655266704
 20
2706.284839419602
 30
0.0
 40
5.625
100
AcDbArc
 50
270.0
 51
90.0
  0
ARC
  5
1909F
330
18AED
100
AcDbEntity
  8
SUNPOU
100
AcDbCircle
 10
4159.797051267463
 20
4130.485411556192
 30
0.0
 40
5.625
100
AcDbArc
 50
0.0
 51
180.0
  0
ARC
  5
190A0
330
18AED
100
AcDbEntity
  8
SUNPOU
100
AcDbCircle
 10
4159.797051267463
 20
4130.485411556192
 30
0.0
 40
5.625
100
AcDbArc
 50
180.0
 51
0.0
  0
ARC
  5
190A1
330
18AED
100
AcDbEntity
  8
SUNPOU
100
AcDbCircle
 10
4799.797051267463
 20
4130.485411556192
 30
0.0
 40
5.625
100
AcDbArc
 50
180.0
 51
0.0
  0
ARC
  5
190A2
330
18AED
100
AcDbEntity
  8
SUNPOU
100
AcDbCircle
 10
4799.797051267463
 20
4130.485411556192
 30
0.0
 40
5.625
100
AcDbArc
 50
0.0
 51
180.0
  0
ARC
  5
190A3
330
18AED
100
AcDbEntity
  8
SUNPOU
100
AcDbCircle
 10
12379.12750789964
 20
8708.243182432324
 30
0.0
 40
5.625
100
AcDbArc
 50
90.0
 51
270.0
  0
ARC
  5
190A4
330
18AED
100
AcDbEntity
  8
SUNPOU
100
AcDbCircle
 10
12379.12750789964
 20
8708.243182432324
 30
0.0
 40
5.625
100
AcDbArc
 50
270.0
 51
90.0
  0
ARC
  5
190A5
330
18AED
100
AcDbEntity
  8
SUNPOU
100
AcDbCircle
 10
12379.12750789964
 20
8908.243182432324
 30
0.0
 40
5.625
100
AcDbArc
 50
270.0
 51
90.0
  0
ARC
  5
190A6
330
18AED
100
AcDbEntity
  8
SUNPOU
100
AcDbCircle
 10
12379.12750789964
 20
8908.243182432324
 30
0.0
 40
5.625
100
AcDbArc
 50
90.0
 51
270.0
  0
ARC
  5
190A7
330
18AED
100
AcDbEntity
  8
SUNPOU
100
AcDbCircle
 10
12379.12750789964
 20
9108.243182432325
 30
0.0
 40
5.625
100
AcDbArc
 50
270.0
 51
90.0
  0
ARC
  5
190A8
330
18AED
100
AcDbEntity
  8
SUNPOU
100
AcDbCircle
 10
12379.12750789964
 20
9108.243182432325
 30
0.0
 40
5.625
100
AcDbArc
 50
90.0
 51
270.0
  0
ARC
  5
190A9
330
18AED
100
AcDbEntity
  8
SUNPOU
100
AcDbCircle
 10
12379.12750789964
 20
8908.243182432324
 30
0.0
 40
5.625
100
AcDbArc
 50
90.0
 51
270.0
  0
ARC
  5
190AA
330
18AED
100
AcDbEntity
  8
SUNPOU
100
AcDbCircle
 10
12379.12750789964
 20
8908.243182432324
 30
0.0
 40
5.625
100
AcDbArc
 50
270.0
 51
90.0
  0
ARC
  5
190AB
330
18AED
100
AcDbEntity
  8
SUNPOU
100
AcDbCircle
 10
11979.12750789964
 20
9408.243182432325
 30
0.0
 40
5.625
100
AcDbArc
 50
180.0
 51
0.0
  0
ARC
  5
190AC
330
18AED
100
AcDbEntity
  8
SUNPOU
100
AcDbCircle
 10
11979.12750789964
 20
9408.243182432325
 30
0.0
 40
5.625
100
AcDbArc
 50
0.0
 51
180.0
  0
ARC
  5
190AD
330
18AED
100
AcDbEntity
  8
SUNPOU
100
AcDbCircle
 10
11579.12750789964
 20
9408.243182432325
 30
0.0
 40
5.625
100
AcDbArc
 50
0.0
 51
180.0
  0
ARC
  5
190AE
330
18AED
100
AcDbEntity
  8
SUNPOU
100
AcDbCircle
 10
11579.12750789964
 20
9408.243182432325
 30
0.0
 40
5.625
100
AcDbArc
 50
180.0
 51
0.0
  0
ARC
  5
190AF
330
18AED
100
AcDbEntity
  8
SUNPOU
100
AcDbCircle
 10
9119.127507899637
 20
9408.243182432325
 30
0.0
 40
5.625
100
AcDbArc
 50
0.0
 51
180.0
  0
ARC
  5
190B0
330
18AED
100
AcDbEntity
  8
SUNPOU
100
AcDbCircle
 10
9119.127507899637
 20
9408.243182432325
 30
0.0
 40
5.625
100
AcDbArc
 50
180.0
 51
0.0
  0
ARC
  5
190B1
330
18AED
100
AcDbEntity
  8
SUNPOU
100
AcDbCircle
 10
11579.12750789964
 20
9408.243182432325
 30
0.0
 40
5.625
100
AcDbArc
 50
180.0
 51
0.0
  0
ARC
  5
190B2
330
18AED
100
AcDbEntity
  8
SUNPOU
100
AcDbCircle
 10
11579.12750789964
 20
9408.243182432325
 30
0.0
 40
5.625
100
AcDbArc
 50
0.0
 51
180.0
  0
ARC
  5
190B3
330
18AED
100
AcDbEntity
  8
SUNPOU
100
AcDbCircle
 10
9819.127507899644
 20
6498.243182432327
 30
0.0
 40
5.625
100
AcDbArc
 50
90.0
 51
270.0
  0
ARC
  5
190B4
330
18AED
100
AcDbEntity
  8
SUNPOU
100
AcDbCircle
 10
9819.127507899644
 20
6498.243182432327
 30
0.0
 40
5.625
100
AcDbArc
 50
270.0
 51
90.0
  0
ARC
  5
190B5
330
18AED
100
AcDbEntity
  8
SUNPOU
100
AcDbCircle
 10
9819.127507899644
 20
7298.243182432326
 30
0.0
 40
5.625
100
AcDbArc
 50
270.0
 51
90.0
  0
ARC
  5
190B6
330
18AED
100
AcDbEntity
  8
SUNPOU
100
AcDbCircle
 10
9819.127507899644
 20
7298.243182432326
 30
0.0
 40
5.625
100
AcDbArc
 50
90.0
 51
270.0
  0
ARC
  5
190B7
330
18AED
100
AcDbEntity
  8
SUNPOU
100
AcDbCircle
 10
5259.12750789964
 20
9408.243182432325
 30
0.0
 40
5.625
100
AcDbArc
 50
0.0
 51
180.0
  0
ARC
  5
190B8
330
18AED
100
AcDbEntity
  8
SUNPOU
100
AcDbCircle
 10
5259.12750789964
 20
9408.243182432325
 30
0.0
 40
5.625
100
AcDbArc
 50
180.0
 51
0.0
  0
ARC
  5
190B9
330
18AED
100
AcDbEntity
  8
SUNPOU
100
AcDbCircle
 10
7719.127507899639
 20
9408.243182432325
 30
0.0
 40
5.625
100
AcDbArc
 50
180.0
 51
0.0
  0
ARC
  5
190BA
330
18AED
100
AcDbEntity
  8
SUNPOU
100
AcDbCircle
 10
7719.127507899639
 20
9408.243182432325
 30
0.0
 40
5.625
100
AcDbArc
 50
0.0
 51
180.0
  0
ARC
  5
190BB
330
18AED
100
AcDbEntity
  8
SUNPOU
100
AcDbCircle
 10
8119.127507899639
 20
8008.243182432327
 30
0.0
 40
5.625
100
AcDbArc
 50
180.0
 51
0.0
  0
ARC
  5
190BC
330
18AED
100
AcDbEntity
  8
SUNPOU
100
AcDbCircle
 10
8119.127507899639
 20
8008.243182432327
 30
0.0
 40
5.625
100
AcDbArc
 50
0.0
 51
180.0
  0
ARC
  5
190BD
330
18AED
100
AcDbEntity
  8
SUNPOU
100
AcDbCircle
 10
7319.127507899638
 20
8008.243182432327
 30
0.0
 40
5.625
100
AcDbArc
 50
0.0
 51
180.0
  0
ARC
  5
190BE
330
18AED
100
AcDbEntity
  8
SUNPOU
100
AcDbCircle
 10
7319.127507899638
 20
8008.243182432327
 30
0.0
 40
5.625
100
AcDbArc
 50
180.0
 51
0.0
  0
ARC
  5
190BF
330
18AED
100
AcDbEntity
  8
SUNPOU
100
AcDbCircle
 10
7019.127507899638
 20
8308.243182432326
 30
0.0
 40
5.625
100
AcDbArc
 50
90.0
 51
270.0
  0
ARC
  5
190C0
330
18AED
100
AcDbEntity
  8
SUNPOU
100
AcDbCircle
 10
7019.127507899638
 20
8308.243182432326
 30
0.0
 40
5.625
100
AcDbArc
 50
270.0
 51
90.0
  0
ARC
  5
190C1
330
18AED
100
AcDbEntity
  8
SUNPOU
100
AcDbCircle
 10
7019.127507899638
 20
9108.243182432325
 30
0.0
 40
5.625
100
AcDbArc
 50
270.0
 51
90.0
  0
ARC
  5
190C2
330
18AED
100
AcDbEntity
  8
SUNPOU
100
AcDbCircle
 10
7019.127507899638
 20
9108.243182432325
 30
0.0
 40
5.625
100
AcDbArc
 50
90.0
 51
270.0
  0
ARC
  5
190C3
330
18AED
100
AcDbEntity
  8
SUNPOU
100
AcDbCircle
 10
4859.127507899639
 20
9408.243182432325
 30
0.0
 40
5.625
100
AcDbArc
 50
0.0
 51
180.0
  0
ARC
  5
190C4
330
18AED
100
AcDbEntity
  8
SUNPOU
100
AcDbCircle
 10
4859.127507899639
 20
9408.243182432325
 30
0.0
 40
5.625
100
AcDbArc
 50
180.0
 51
0.0
  0
ARC
  5
190C5
330
18AED
100
AcDbEntity
  8
SUNPOU
100
AcDbCircle
 10
5259.12750789964
 20
9408.243182432325
 30
0.0
 40
5.625
100
AcDbArc
 50
180.0
 51
0.0
  0
ARC
  5
190C6
330
18AED
100
AcDbEntity
  8
SUNPOU
100
AcDbCircle
 10
5259.12750789964
 20
9408.243182432325
 30
0.0
 40
5.625
100
AcDbArc
 50
0.0
 51
180.0
  0
ARC
  5
190C7
330
18AED
100
AcDbEntity
  8
SUNPOU
100
AcDbCircle
 10
11979.12750789964
 20
9618.243182432324
 30
0.0
 40
5.625
100
AcDbArc
 50
180.0
 51
0.0
  0
ARC
  5
190C8
330
18AED
100
AcDbEntity
  8
SUNPOU
100
AcDbCircle
 10
11979.12750789964
 20
9618.243182432324
 30
0.0
 40
5.625
100
AcDbArc
 50
0.0
 51
180.0
  0
ARC
  5
190C9
330
18AED
100
AcDbEntity
  8
SUNPOU
100
AcDbCircle
 10
4859.127507899639
 20
9618.243182432324
 30
0.0
 40
5.625
100
AcDbArc
 50
0.0
 51
180.0
  0
ARC
  5
190CA
330
18AED
100
AcDbEntity
  8
SUNPOU
100
AcDbCircle
 10
4859.127507899639
 20
9618.243182432324
 30
0.0
 40
5.625
100
AcDbArc
 50
180.0
 51
0.0
  0
ARC
  5
190CB
330
18AED
100
AcDbEntity
  8
SUNPOU
100
AcDbCircle
 10
9519.127507899638
 20
7598.243182432326
 30
0.0
 40
5.625
100
AcDbArc
 50
180.0
 51
0.0
  0
ARC
  5
190CC
330
18AED
100
AcDbEntity
  8
SUNPOU
100
AcDbCircle
 10
9519.127507899638
 20
7598.243182432326
 30
0.0
 40
5.625
100
AcDbArc
 50
0.0
 51
180.0
  0
ARC
  5
190CD
330
18AED
100
AcDbEntity
  8
SUNPOU
100
AcDbCircle
 10
8719.127507899637
 20
7598.243182432326
 30
0.0
 40
5.625
100
AcDbArc
 50
0.0
 51
180.0
  0
ARC
  5
190CE
330
18AED
100
AcDbEntity
  8
SUNPOU
100
AcDbCircle
 10
8719.127507899637
 20
7598.243182432326
 30
0.0
 40
5.625
100
AcDbArc
 50
180.0
 51
0.0
  0
ARC
  5
190CF
330
18AED
100
AcDbEntity
  8
HIKIDASHI
100
AcDbCircle
 10
7368.753186178046
 20
1889.069567942468
 30
0.0
 40
74.66417910452284
100
AcDbArc
 50
164.8596129850915
 51
237.504500294165
  0
ARC
  5
190D0
330
18AED
100
AcDbEntity
  8
HIKIDASHI
100
AcDbCircle
 10
7305.32939213174
 20
1906.230591426951
 30
0.0
 40
8.959701492542745
100
AcDbArc
 50
15.14038701503429
 51
164.8596129849655
  0
LINE
  5
190D1
330
18AED
100
AcDbEntity
  8
HIKIDASHI
100
AcDbLine
 10
11902.55298930124
 20
2617.355869013334
 30
0.0
 11
12256.64239875644
 21
2245.804976716085
 31
0.0
1001
ACAD
1000
DSTYLE
1002
{
1070
   147
1040
1.0
1070
    77
1070
     0
1002
}
  0
LINE
  5
190D2
330
18AED
100
AcDbEntity
  8
HIKIDASHI
100
AcDbLine
 10
11912.20515889549
 20
2626.554423242219
 30
0.0
 11
11847.36166392793
 21
2675.268886578793
 31
0.0
  0
LINE
  5
190D3
330
18AED
100
AcDbEntity
  8
HIKIDASHI
100
AcDbLine
 10
11847.36166392793
 20
2675.268886578793
 30
0.0
 11
11892.90081970699
 21
2608.157314784449
 31
0.0
  0
SOLID
  5
190D4
330
18AED
100
AcDbEntity
  8
HIKIDASHI
100
AcDbTrace
 10
11912.20515889549
 20
2626.554423242219
 30
0.0
 11
11892.90081970699
 21
2608.157314784449
 31
0.0
 12
11847.36166392793
 22
2675.268886578793
 32
0.0
 13
11847.36166392793
 23
2675.268886578793
 33
0.0
  0
LINE
  5
190D5
330
18AED
100
AcDbEntity
  8
HIKIDASHI
100
AcDbLine
 10
11892.90081970699
 20
2608.157314784449
 30
0.0
 11
11912.20515889549
 21
2626.554423242219
 31
0.0
  0
LINE
  5
190D6
330
18AED
100
AcDbEntity
  8
HIKIDASHI
100
AcDbLine
 10
11958.6318148711
 20
2955.978577640303
 30
0.0
 11
12073.23363223807
 21
3067.661600164834
 31
0.0
1001
ACAD
1000
DSTYLE
1002
{
1070
   147
1040
1.0
1070
    77
1070
     0
1002
}
  0
LINE
  5
190D7
330
18AED
100
AcDbEntity
  8
HIKIDASHI
100
AcDbLine
 10
11949.32610927323
 20
2965.527484441805
 30
0.0
 11
11901.33837406209
 21
2900.144344053149
 31
0.0
  0
LINE
  5
190D8
330
18AED
100
AcDbEntity
  8
HIKIDASHI
100
AcDbLine
 10
11901.33837406209
 20
2900.144344053149
 30
0.0
 11
11967.93752046894
 21
2946.429670838803
 31
0.0
  0
SOLID
  5
190D9
330
18AED
100
AcDbEntity
  8
HIKIDASHI
100
AcDbTrace
 10
11949.32610927323
 20
2965.527484441805
 30
0.0
 11
11967.93752046894
 21
2946.429670838803
 31
0.0
 12
11901.33837406209
 22
2900.144344053149
 32
0.0
 13
11901.33837406209
 23
2900.144344053149
 33
0.0
  0
LINE
  5
190DA
330
18AED
100
AcDbEntity
  8
HIKIDASHI
100
AcDbLine
 10
11967.93752046894
 20
2946.429670838803
 30
0.0
 11
11949.32610927323
 21
2965.527484441805
 31
0.0
  0
LINE
  5
190DB
330
18AED
100
AcDbEntity
  8
HIKIDASHI
100
AcDbLine
 10
8349.842316441685
 20
2785.117671225183
 30
0.0
 11
7568.025406890003
 21
1938.684839419604
 31
0.0
1001
ACAD
1000
DSTYLE
1002
{
1070
   147
1040
1.0
1070
    77
1070
     0
1002
}
  0
LINE
  5
190DC
330
18AED
100
AcDbEntity
  8
HIKIDASHI
100
AcDbLine
 10
8359.636844474094
 20
2776.070848666946
 30
0.0
 11
8404.12325179111
 21
2843.884839419607
 31
0.0
  0
LINE
  5
190DD
330
18AED
100
AcDbEntity
  8
HIKIDASHI
100
AcDbLine
 10
8404.12325179111
 20
2843.884839419607
 30
0.0
 11
8340.047788409282
 21
2794.164493783421
 31
0.0
  0
SOLID
  5
190DE
330
18AED
100
AcDbEntity
  8
HIKIDASHI
100
AcDbTrace
 10
8359.636844474094
 20
2776.070848666946
 30
0.0
 11
8340.047788409282
 21
2794.164493783421
 31
0.0
 12
8404.12325179111
 22
2843.884839419607
 32
0.0
 13
8404.12325179111
 23
2843.884839419607
 33
0.0
  0
LINE
  5
190DF
330
18AED
100
AcDbEntity
  8
HIKIDASHI
100
AcDbLine
 10
8340.047788409282
 20
2794.164493783421
 30
0.0
 11
8359.636844474094
 21
2776.070848666946
 31
0.0
  0
ARC
  5
190E0
330
18AED
100
AcDbEntity
  8
HIKIDASHI
100
AcDbCircle
 10
7243.085124621173
 20
1890.249695302057
 30
0.0
 40
74.66417910452232
100
AcDbArc
 50
301.7712278330705
 51
15.14038701490951
  0
LINE
  5
190E1
330
18AED
100
AcDbEntity
  8
HIKIDASHI
100
AcDbLine
 10
5106.084662666018
 20
3525.966871722361
 30
0.0
 11
5333.860047839355
 21
3920.485411556192
 31
0.0
1001
ACAD
1000
DSTYLE
1002
{
1070
   147
1040
1.0
1070
    77
1070
     0
1002
}
  0
LINE
  5
190E2
330
18AED
100
AcDbEntity
  8
HIKIDASHI
100
AcDbLine
 10
5094.537657282226
 20
3532.633538389028
 30
0.0
 11
5066.084662666021
 21
3456.684839419605
 31
0.0
  0
LINE
  5
190E3
330
18AED
100
AcDbEntity
  8
HIKIDASHI
100
AcDbLine
 10
5066.084662666021
 20
3456.684839419605
 30
0.0
 11
5117.631668049813
 21
3519.300205055695
 31
0.0
  0
SOLID
  5
190E4
330
18AED
100
AcDbEntity
  8
HIKIDASHI
100
AcDbTrace
 10
5094.537657282226
 20
3532.633538389028
 30
0.0
 11
5117.631668049813
 21
3519.300205055695
 31
0.0
 12
5066.084662666021
 22
3456.684839419605
 32
0.0
 13
5066.084662666021
 23
3456.684839419605
 33
0.0
  0
LINE
  5
190E5
330
18AED
100
AcDbEntity
  8
HIKIDASHI
100
AcDbLine
 10
5117.631668049813
 20
3519.300205055695
 30
0.0
 11
5094.537657282226
 21
3532.633538389028
 31
0.0
  0
LINE
  5
190E6
330
18AED
100
AcDbEntity
  8
HIKIDASHI
100
AcDbLine
 10
5649.136067929489
 20
2561.711341542924
 30
0.0
 11
5816.338096802661
 21
2348.304238552882
 31
0.0
1001
ACAD
1000
DSTYLE
1002
{
1070
   147
1040
1.0
1070
    77
1070
     0
1002
}
  0
LINE
  5
190E7
330
18AED
100
AcDbEntity
  8
HIKIDASHI
100
AcDbLine
 10
5659.631650908938
 20
2569.934510986595
 30
0.0
 11
5599.797051267461
 21
2624.684839419602
 31
0.0
  0
LINE
  5
190E8
330
18AED
100
AcDbEntity
  8
HIKIDASHI
100
AcDbLine
 10
5599.797051267461
 20
2624.684839419602
 30
0.0
 11
5638.640484950045
 21
2553.488172099252
 31
0.0
  0
SOLID
  5
190E9
330
18AED
100
AcDbEntity
  8
HIKIDASHI
100
AcDbTrace
 10
5659.631650908938
 20
2569.934510986595
 30
0.0
 11
5638.640484950045
 21
2553.488172099252
 31
0.0
 12
5599.797051267461
 22
2624.684839419602
 32
0.0
 13
5599.797051267461
 23
2624.684839419602
 33
0.0
  0
LINE
  5
190EA
330
18AED
100
AcDbEntity
  8
HIKIDASHI
100
AcDbLine
 10
5638.640484950045
 20
2553.488172099252
 30
0.0
 11
5659.631650908938
 21
2569.934510986595
 31
0.0
  0
LINE
  5
190EB
330
18AED
100
AcDbEntity
  8
HIKIDASHI
100
AcDbLine
 10
5517.958310807199
 20
3204.439659000036
 30
0.0
 11
5674.871662611158
 21
2904.11470702088
 31
0.0
1001
ACAD
1000
DSTYLE
1002
{
1070
    41
1040
2.0
1070
   173
1070
     0
1070
   341
1005
125B0
1002
}
  0
ARC
  5
190EC
330
18AED
100
AcDbEntity
  8
HIKIDASHI
100
AcDbCircle
 10
5472.271108781362
 20
3259.491130329859
 30
0.0
 40
18.0
100
AcDbArc
 50
241.1434129563095
 51
354.0287934324676
  0
ARC
  5
190ED
330
18AED
100
AcDbEntity
  8
HIKIDASHI
100
AcDbCircle
 10
5508.075783564776
 20
3255.746098466976
 30
0.0
 40
18.0
100
AcDbArc
 50
61.1434129563095
 51
174.0287934324675
  0
LINE
  5
190EE
330
18AED
100
AcDbEntity
  8
HIKIDASHI
100
AcDbLine
 10
5490.173446173068
 20
3257.618614398416
 30
0.0
 11
5517.958310807205
 21
3204.439659000024
 31
0.0
  0
LINE
  5
190EF
330
18AED
100
AcDbEntity
  8
HATCH
100
AcDbLine
 10
9597.765052686932
 20
3186.284839420224
 30
0.0
 11
9671.665887143205
 21
3314.284839420217
 31
0.0
  0
LINE
  5
190F0
330
18AED
100
AcDbEntity
  8
HATCH
100
AcDbLine
 10
9633.265887143204
 20
3314.284839420216
 30
0.0
 11
9652.465887143202
 21
3281.029463914897
 31
0.0
  0
LINE
  5
190F1
330
18AED
100
AcDbEntity
  8
HATCH
100
AcDbLine
 10
9309.765052686932
 20
3186.284839420224
 30
0.0
 11
9383.6658871432
 21
3314.284839420217
 31
0.0
  0
LINE
  5
190F2
330
18AED
100
AcDbEntity
  8
HATCH
100
AcDbLine
 10
9345.265887143204
 20
3314.284839420216
 30
0.0
 11
9364.465887143202
 21
3281.029463914897
 31
0.0
  0
LINE
  5
190F3
330
18AED
100
AcDbEntity
  8
HATCH
100
AcDbLine
 10
9453.765052686932
 20
3186.284839420224
 30
0.0
 11
9527.665887143198
 21
3314.284839420217
 31
0.0
  0
LINE
  5
190F4
330
18AED
100
AcDbEntity
  8
HATCH
100
AcDbLine
 10
9489.265887143199
 20
3314.284839420216
 30
0.0
 11
9508.465887143202
 21
3281.029463914897
 31
0.0
  0
LINE
  5
190F5
330
18AED
100
AcDbEntity
  8
HATCH
100
AcDbLine
 10
9741.765052686934
 20
3186.284839420224
 30
0.0
 11
9815.665887143204
 21
3314.284839420217
 31
0.0
  0
LINE
  5
190F6
330
18AED
100
AcDbEntity
  8
HATCH
100
AcDbLine
 10
9777.265887143206
 20
3314.284839420216
 30
0.0
 11
9796.465887143202
 21
3281.029463914897
 31
0.0
  0
LINE
  5
190F7
330
18AED
100
AcDbEntity
  8
HATCH
100
AcDbLine
 10
9597.765052688851
 20
3186.284839420842
 30
0.0
 11
9671.66588714514
 21
3314.284839420871
 31
0.0
  0
LINE
  5
190F8
330
18AED
100
AcDbEntity
  8
HATCH
100
AcDbLine
 10
9633.265887145132
 20
3314.284839420869
 30
0.0
 11
9652.465887145137
 21
3281.029463915543
 31
0.0
  0
LINE
  5
190F9
330
18AED
100
AcDbEntity
  8
HATCH
100
AcDbLine
 10
9741.765052688851
 20
3186.284839420842
 30
0.0
 11
9815.66588714514
 21
3314.284839420871
 31
0.0
  0
LINE
  5
190FA
330
18AED
100
AcDbEntity
  8
HATCH
100
AcDbLine
 10
9777.265887145132
 20
3314.284839420869
 30
0.0
 11
9796.465887145137
 21
3281.029463915543
 31
0.0
  0
LINE
  5
190FB
330
18AED
100
AcDbEntity
  8
HATCH
100
AcDbLine
 10
9453.765052688849
 20
3186.284839420842
 30
0.0
 11
9527.66588714514
 21
3314.284839420871
 31
0.0
  0
LINE
  5
190FC
330
18AED
100
AcDbEntity
  8
HATCH
100
AcDbLine
 10
9489.265887145132
 20
3314.284839420869
 30
0.0
 11
9508.465887145135
 21
3281.029463915543
 31
0.0
  0
LINE
  5
190FD
330
18AED
100
AcDbEntity
  8
HATCH
100
AcDbLine
 10
9309.765052688851
 20
3186.284839420842
 30
0.0
 11
9383.66588714514
 21
3314.284839420871
 31
0.0
  0
LINE
  5
190FE
330
18AED
100
AcDbEntity
  8
HATCH
100
AcDbLine
 10
9345.265887145131
 20
3314.284839420869
 30
0.0
 11
9364.465887145135
 21
3281.029463915543
 31
0.0
  0
LINE
  5
190FF
330
18AED
100
AcDbEntity
  8
HATCH
100
AcDbLine
 10
5817.438852163286
 20
3186.284839419477
 30
0.0
 11
5891.339686619555
 21
3314.28483941947
 31
0.0
  0
LINE
  5
19100
330
18AED
100
AcDbEntity
  8
HATCH
100
AcDbLine
 10
5852.939686619555
 20
3314.284839419468
 30
0.0
 11
5872.139686619554
 21
3281.029463914151
 31
0.0
  0
LINE
  5
19101
330
18AED
100
AcDbEntity
  8
HATCH
100
AcDbLine
 10
5529.438852163288
 20
3186.284839419477
 30
0.0
 11
5603.339686619555
 21
3314.28483941947
 31
0.0
  0
LINE
  5
19102
330
18AED
100
AcDbEntity
  8
HATCH
100
AcDbLine
 10
5564.939686619556
 20
3314.284839419468
 30
0.0
 11
5584.139686619558
 21
3281.029463914151
 31
0.0
  0
LINE
  5
19103
330
18AED
100
AcDbEntity
  8
HATCH
100
AcDbLine
 10
5673.438852163286
 20
3186.284839419477
 30
0.0
 11
5747.339686619554
 21
3314.28483941947
 31
0.0
  0
LINE
  5
19104
330
18AED
100
AcDbEntity
  8
HATCH
100
AcDbLine
 10
5708.939686619555
 20
3314.284839419468
 30
0.0
 11
5728.139686619557
 21
3281.029463914151
 31
0.0
  0
LINE
  5
19105
330
18AED
100
AcDbEntity
  8
HATCH
100
AcDbLine
 10
5961.438852163286
 20
3186.284839419477
 30
0.0
 11
6035.339686619554
 21
3314.28483941947
 31
0.0
  0
LINE
  5
19106
330
18AED
100
AcDbEntity
  8
HATCH
100
AcDbLine
 10
5996.939686619557
 20
3314.284839419468
 30
0.0
 11
6016.139686619557
 21
3281.029463914151
 31
0.0
  0
LINE
  5
19107
330
18AED
100
AcDbEntity
  8
U1
100
AcDbLine
 10
11411.33837406209
 20
2570.144344053149
 30
0.0
 11
11671.33837406211
 21
2570.144344053149
 31
0.0
  0
LINE
  5
19108
330
18AED
100
AcDbEntity
  8
U1
100
AcDbLine
 10
11671.33837406211
 20
2570.144344053149
 30
0.0
 11
11671.33837406211
 21
2830.144344053149
 31
0.0
  0
LINE
  5
19109
330
18AED
100
AcDbEntity
  8
U1
100
AcDbLine
 10
11671.33837406211
 20
2830.144344053149
 30
0.0
 11
11411.33837406209
 21
2830.144344053149
 31
0.0
  0
LINE
  5
1910A
330
18AED
100
AcDbEntity
  8
U1
100
AcDbLine
 10
11411.33837406209
 20
2830.144344053149
 30
0.0
 11
11411.33837406209
 21
2570.144344053149
 31
0.0
  0
LINE
  5
1910B
330
18AED
100
AcDbEntity
  8
U1
100
AcDbLine
 10
11181.33837406209
 20
2500.144344053149
 30
0.0
 11
11901.33837406209
 21
2500.144344053149
 31
0.0
  0
LINE
  5
1910C
330
18AED
100
AcDbEntity
  8
U1
100
AcDbLine
 10
11901.33837406209
 20
2500.144344053149
 30
0.0
 11
11901.33837406209
 21
2900.144344053149
 31
0.0
  0
LINE
  5
1910D
330
18AED
100
AcDbEntity
  8
U1
100
AcDbLine
 10
11901.33837406209
 20
2900.144344053149
 30
0.0
 11
11181.33837406209
 21
2900.144344053149
 31
0.0
  0
LINE
  5
1910E
330
18AED
100
AcDbEntity
  8
U1
100
AcDbLine
 10
11181.33837406209
 20
2900.144344053149
 30
0.0
 11
11181.33837406209
 21
2500.144344053149
 31
0.0
  0
LINE
  5
1910F
330
18AED
100
AcDbEntity
  8
U1
100
AcDbLine
 10
11181.33837406207
 20
3618.337036584563
 30
0.0
 11
11901.33837406209
 21
3618.337036584563
 31
0.0
  0
LINE
  5
19110
330
18AED
100
AcDbEntity
  8
U1
100
AcDbLine
 10
11901.33837406209
 20
3618.337036584563
 30
0.0
 11
11901.33837406209
 21
3642.337036584562
 31
0.0
  0
LINE
  5
19111
330
18AED
100
AcDbEntity
  8
U1
100
AcDbLine
 10
11901.33837406209
 20
3642.337036584562
 30
0.0
 11
11181.33837406207
 21
3642.337036584562
 31
0.0
  0
LINE
  5
19112
330
18AED
100
AcDbEntity
  8
U1
100
AcDbLine
 10
11181.33837406207
 20
3642.337036584562
 30
0.0
 11
11181.33837406207
 21
3618.337036584563
 31
0.0
  0
LINE
  5
19113
330
18AED
100
AcDbEntity
  8
HATCH
100
AcDbLine
 10
9636.165052686925
 20
3186.284839420224
 30
0.0
 11
9616.965052686927
 21
3219.540214925541
 31
0.0
  0
LINE
  5
19114
330
18AED
100
AcDbEntity
  8
HATCH
100
AcDbLine
 10
9348.16505268693
 20
3186.284839420224
 30
0.0
 11
9328.965052686926
 21
3219.540214925541
 31
0.0
  0
LINE
  5
19115
330
18AED
100
AcDbEntity
  8
HATCH
100
AcDbLine
 10
9492.165052686925
 20
3186.284839420224
 30
0.0
 11
9472.965052686927
 21
3219.540214925541
 31
0.0
  0
LINE
  5
19116
330
18AED
100
AcDbEntity
  8
HATCH
100
AcDbLine
 10
9780.165052686927
 20
3186.284839420224
 30
0.0
 11
9760.965052686927
 21
3219.540214925541
 31
0.0
  0
LINE
  5
19117
330
18AED
100
AcDbEntity
  8
HATCH
100
AcDbLine
 10
9636.165052688857
 20
3186.284839420842
 30
0.0
 11
9616.965052688854
 21
3219.540214926169
 31
0.0
  0
LINE
  5
19118
330
18AED
100
AcDbEntity
  8
HATCH
100
AcDbLine
 10
9780.165052688857
 20
3186.284839420842
 30
0.0
 11
9760.965052688852
 21
3219.540214926169
 31
0.0
  0
LINE
  5
19119
330
18AED
100
AcDbEntity
  8
HATCH
100
AcDbLine
 10
9492.165052688857
 20
3186.284839420842
 30
0.0
 11
9472.965052688854
 21
3219.540214926169
 31
0.0
  0
LINE
  5
1911A
330
18AED
100
AcDbEntity
  8
HATCH
100
AcDbLine
 10
9348.165052688857
 20
3186.284839420842
 30
0.0
 11
9328.965052688852
 21
3219.540214926169
 31
0.0
  0
LINE
  5
1911B
330
18AED
100
AcDbEntity
  8
TENSEN-1
100
AcDbLine
 10
8756.123251791111
 20
2864.684839419603
 30
0.0
 11
8702.523251791111
 21
2864.684839419603
 31
0.0
  0
LINE
  5
1911C
330
18AED
100
AcDbEntity
  8
TENSEN-1
100
AcDbLine
 10
8702.523251791111
 20
2864.684839419603
 30
0.0
 11
8702.523251791111
 21
3355.884839419604
 31
0.0
  0
LINE
  5
1911D
330
18AED
100
AcDbEntity
  8
TENSEN-1
100
AcDbLine
 10
8702.523251791111
 20
3355.884839419604
 30
0.0
 11
8681.723251791112
 21
3355.884839419604
 31
0.0
  0
LINE
  5
1911E
330
18AED
100
AcDbEntity
  8
TENSEN-1
100
AcDbLine
 10
8681.723251791112
 20
3355.884839419604
 30
0.0
 11
8681.72325179111
 21
2843.884839419604
 31
0.0
  0
LINE
  5
1911F
330
18AED
100
AcDbEntity
  8
TENSEN-1
100
AcDbLine
 10
8681.72325179111
 20
2843.884839419604
 30
0.0
 11
8756.123251791111
 21
2843.884839419604
 31
0.0
  0
LINE
  5
19120
330
18AED
100
AcDbEntity
  8
TENSEN-1
100
AcDbLine
 10
8756.123251791111
 20
2843.884839419604
 30
0.0
 11
8756.123251791111
 21
2864.684839419603
 31
0.0
  0
LINE
  5
19121
330
18AED
100
AcDbEntity
  8
TENSEN-1
100
AcDbLine
 10
8404.12325179111
 20
2864.684839419606
 30
0.0
 11
8457.723251791113
 21
2864.684839419606
 31
0.0
  0
LINE
  5
19122
330
18AED
100
AcDbEntity
  8
TENSEN-1
100
AcDbLine
 10
8457.723251791113
 20
2864.684839419606
 30
0.0
 11
8457.723251791113
 21
3355.884839419607
 31
0.0
  0
LINE
  5
19123
330
18AED
100
AcDbEntity
  8
TENSEN-1
100
AcDbLine
 10
8457.723251791113
 20
3355.884839419607
 30
0.0
 11
8478.523251791115
 21
3355.884839419607
 31
0.0
  0
LINE
  5
19124
330
18AED
100
AcDbEntity
  8
TENSEN-1
100
AcDbLine
 10
8478.523251791115
 20
3355.884839419607
 30
0.0
 11
8478.523251791115
 21
2843.884839419607
 31
0.0
  0
LINE
  5
19125
330
18AED
100
AcDbEntity
  8
TENSEN-1
100
AcDbLine
 10
8478.523251791115
 20
2843.884839419607
 30
0.0
 11
8404.12325179111
 21
2843.884839419607
 31
0.0
  0
LINE
  5
19126
330
18AED
100
AcDbEntity
  8
TENSEN-1
100
AcDbLine
 10
8404.12325179111
 20
2843.884839419607
 30
0.0
 11
8404.12325179111
 21
2864.684839419606
 31
0.0
  0
LINE
  5
19127
330
18AED
100
AcDbEntity
  8
HASHIRA
100
AcDbLine
 10
8436.12325179111
 20
3314.284839419602
 30
0.0
 11
8724.123251791111
 21
3314.284839419606
 31
0.0
  0
LINE
  5
19128
330
18AED
100
AcDbEntity
  8
HASHIRA
100
AcDbLine
 10
8724.123251791111
 20
3314.284839419606
 30
0.0
 11
8724.123251791111
 21
3328.684839419607
 31
0.0
  0
LINE
  5
19129
330
18AED
100
AcDbEntity
  8
HASHIRA
100
AcDbLine
 10
8724.123251791111
 20
3328.684839419607
 30
0.0
 11
8436.12325179111
 21
3328.684839419603
 31
0.0
  0
LINE
  5
1912A
330
18AED
100
AcDbEntity
  8
HASHIRA
100
AcDbLine
 10
8436.12325179111
 20
3328.684839419603
 30
0.0
 11
8436.12325179111
 21
3314.284839419602
 31
0.0
  0
LINE
  5
1912B
330
18AED
100
AcDbEntity
  8
BOLT
100
AcDbLine
 10
8593.723251791109
 20
3355.884839419607
 30
0.0
 11
8593.723251791109
 21
3363.736803080583
 31
0.0
  0
LINE
  5
1912C
330
18AED
100
AcDbEntity
  8
BOLT
100
AcDbLine
 10
8593.723251791109
 20
3363.736803080583
 30
0.0
 11
8580.123251791111
 21
3371.588766741565
 31
0.0
  0
LINE
  5
1912D
330
18AED
100
AcDbEntity
  8
BOLT
100
AcDbLine
 10
8580.123251791111
 20
3371.588766741565
 30
0.0
 11
8566.523251791107
 21
3363.736803080583
 31
0.0
  0
LINE
  5
1912E
330
18AED
100
AcDbEntity
  8
BOLT
100
AcDbLine
 10
8566.523251791107
 20
3363.736803080583
 30
0.0
 11
8566.523251791107
 21
3355.884839419607
 31
0.0
  0
LINE
  5
1912F
330
18AED
100
AcDbEntity
  8
BOLT
100
AcDbLine
 10
8566.523251791107
 20
3355.884839419607
 30
0.0
 11
8566.523251791107
 21
3348.032875758626
 31
0.0
  0
LINE
  5
19130
330
18AED
100
AcDbEntity
  8
BOLT
100
AcDbLine
 10
8566.523251791107
 20
3348.032875758626
 30
0.0
 11
8580.123251791111
 21
3340.180912097647
 31
0.0
  0
LINE
  5
19131
330
18AED
100
AcDbEntity
  8
BOLT
100
AcDbLine
 10
8580.123251791111
 20
3340.180912097647
 30
0.0
 11
8593.723251791109
 21
3348.032875758626
 31
0.0
  0
LINE
  5
19132
330
18AED
100
AcDbEntity
  8
BOLT
100
AcDbLine
 10
8593.723251791109
 20
3348.032875758626
 30
0.0
 11
8593.723251791109
 21
3355.884839419607
 31
0.0
  0
LINE
  5
19133
330
18AED
100
AcDbEntity
  8
BOLT
100
AcDbLine
 10
8593.723251791109
 20
3419.884839419607
 30
0.0
 11
8593.723251791109
 21
3427.736803080583
 31
0.0
  0
LINE
  5
19134
330
18AED
100
AcDbEntity
  8
BOLT
100
AcDbLine
 10
8593.723251791109
 20
3427.736803080583
 30
0.0
 11
8580.123251791111
 21
3435.588766741565
 31
0.0
  0
LINE
  5
19135
330
18AED
100
AcDbEntity
  8
BOLT
100
AcDbLine
 10
8580.123251791111
 20
3435.588766741565
 30
0.0
 11
8566.523251791107
 21
3427.736803080583
 31
0.0
  0
LINE
  5
19136
330
18AED
100
AcDbEntity
  8
BOLT
100
AcDbLine
 10
8566.523251791107
 20
3427.736803080583
 30
0.0
 11
8566.523251791107
 21
3419.884839419607
 31
0.0
  0
LINE
  5
19137
330
18AED
100
AcDbEntity
  8
BOLT
100
AcDbLine
 10
8566.523251791107
 20
3419.884839419607
 30
0.0
 11
8566.523251791107
 21
3412.032875758626
 31
0.0
  0
LINE
  5
19138
330
18AED
100
AcDbEntity
  8
BOLT
100
AcDbLine
 10
8566.523251791107
 20
3412.032875758626
 30
0.0
 11
8580.123251791111
 21
3404.180912097647
 31
0.0
  0
LINE
  5
19139
330
18AED
100
AcDbEntity
  8
BOLT
100
AcDbLine
 10
8580.123251791111
 20
3404.180912097647
 30
0.0
 11
8593.723251791109
 21
3412.032875758626
 31
0.0
  0
LINE
  5
1913A
330
18AED
100
AcDbEntity
  8
BOLT
100
AcDbLine
 10
8593.723251791109
 20
3412.032875758626
 30
0.0
 11
8593.723251791109
 21
3419.884839419607
 31
0.0
  0
LINE
  5
1913B
330
18AED
100
AcDbEntity
  8
HATCH
100
AcDbLine
 10
5855.83885216328
 20
3186.284839419478
 30
0.0
 11
5836.638852163281
 21
3219.540214924796
 31
0.0
  0
LINE
  5
1913C
330
18AED
100
AcDbEntity
  8
HATCH
100
AcDbLine
 10
5567.83885216328
 20
3186.284839419478
 30
0.0
 11
5548.638852163282
 21
3219.540214924796
 31
0.0
  0
LINE
  5
1913D
330
18AED
100
AcDbEntity
  8
HATCH
100
AcDbLine
 10
5711.838852163278
 20
3186.284839419478
 30
0.0
 11
5692.63885216328
 21
3219.540214924796
 31
0.0
  0
LINE
  5
1913E
330
18AED
100
AcDbEntity
  8
HATCH
100
AcDbLine
 10
5999.838852163279
 20
3186.284839419478
 30
0.0
 11
5980.638852163282
 21
3219.540214924796
 31
0.0
  0
LINE
  5
1913F
330
18AED
100
AcDbEntity
  8
HASHIRA
100
AcDbLine
 10
4719.797051267462
 20
3314.284839419608
 30
0.0
 11
4879.797051267463
 21
3314.284839419608
 31
0.0
  0
LINE
  5
19140
330
18AED
100
AcDbEntity
  8
HASHIRA
100
AcDbLine
 10
4879.797051267463
 20
3314.284839419608
 30
0.0
 11
4879.797051267463
 21
3328.6848394196
 31
0.0
  0
LINE
  5
19141
330
18AED
100
AcDbEntity
  8
HASHIRA
100
AcDbLine
 10
4879.797051267463
 20
3328.6848394196
 30
0.0
 11
4719.797051267462
 21
3328.6848394196
 31
0.0
  0
LINE
  5
19142
330
18AED
100
AcDbEntity
  8
HASHIRA
100
AcDbLine
 10
4719.797051267462
 20
3328.6848394196
 30
0.0
 11
4719.797051267462
 21
3314.284839419608
 31
0.0
  0
LINE
  5
19143
330
18AED
100
AcDbEntity
  8
TENSEN-1
100
AcDbLine
 10
4735.797051267462
 20
2864.684839419608
 30
0.0
 11
4789.397051267463
 21
2864.684839419608
 31
0.0
  0
LINE
  5
19144
330
18AED
100
AcDbEntity
  8
TENSEN-1
100
AcDbLine
 10
4789.397051267463
 20
2864.684839419608
 30
0.0
 11
4789.397051267463
 21
3355.884839419607
 31
0.0
  0
LINE
  5
19145
330
18AED
100
AcDbEntity
  8
TENSEN-1
100
AcDbLine
 10
4789.397051267463
 20
3355.884839419607
 30
0.0
 11
4810.197051267465
 21
3355.884839419607
 31
0.0
  0
LINE
  5
19146
330
18AED
100
AcDbEntity
  8
TENSEN-1
100
AcDbLine
 10
4810.197051267465
 20
3355.884839419607
 30
0.0
 11
4810.197051267465
 21
2843.884839419607
 31
0.0
  0
LINE
  5
19147
330
18AED
100
AcDbEntity
  8
TENSEN-1
100
AcDbLine
 10
4810.197051267465
 20
2843.884839419607
 30
0.0
 11
4735.797051267462
 21
2843.884839419607
 31
0.0
  0
LINE
  5
19148
330
18AED
100
AcDbEntity
  8
TENSEN-1
100
AcDbLine
 10
4735.797051267462
 20
2843.884839419607
 30
0.0
 11
4735.797051267462
 21
2864.684839419608
 31
0.0
  0
LINE
  5
19149
330
18AED
100
AcDbEntity
  8
U1
100
AcDbLine
 10
11585.32750789964
 20
8738.443182432325
 30
0.0
 11
11552.92750789964
 21
8738.443182432325
 31
0.0
  0
LINE
  5
1914A
330
18AED
100
AcDbEntity
  8
U1
100
AcDbLine
 10
11552.92750789964
 20
8678.043182432324
 30
0.0
 11
11605.32750789964
 21
8678.043182432324
 31
0.0
  0
ARC
  5
1914B
330
18AED
100
AcDbEntity
  8
U1
100
AcDbCircle
 10
11552.92750789964
 20
8682.043182432327
 30
0.0
 40
4.0
100
AcDbArc
 50
180.0
 51
270.0
  0
ARC
  5
1914C
330
18AED
100
AcDbEntity
  8
U1
100
AcDbCircle
 10
11552.92750789964
 20
8734.443182432325
 30
0.0
 40
4.0
100
AcDbArc
 50
90.0
 51
180.0
  0
LINE
  5
1914D
330
18AED
100
AcDbEntity
  8
U1
100
AcDbLine
 10
11548.92750789964
 20
8734.443182432325
 30
0.0
 11
11548.92750789964
 21
8682.043182432327
 31
0.0
  0
ARC
  5
1914E
330
18AED
100
AcDbEntity
  8
U1
100
AcDbCircle
 10
11605.32750789964
 20
8682.043182432327
 30
0.0
 40
4.0
100
AcDbArc
 50
270.0
 51
0.0
  0
ARC
  5
1914F
330
18AED
100
AcDbEntity
  8
U1
100
AcDbCircle
 10
11585.32750789964
 20
8734.443182432325
 30
0.0
 40
4.0
100
AcDbArc
 50
0.0
 51
90.0
  0
ARC
  5
19150
330
18AED
100
AcDbEntity
  8
U1
100
AcDbCircle
 10
11592.77750789964
 20
8725.193182432326
 30
0.0
 40
1.149999999999977
100
AcDbArc
 50
180.0
 51
0.0
  0
LINE
  5
19151
330
18AED
100
AcDbEntity
  8
U1
100
AcDbLine
 10
11596.22750789964
 20
8732.743182432328
 30
0.0
 11
11596.22750789964
 21
8725.193182432326
 31
0.0
  0
LINE
  5
19152
330
18AED
100
AcDbEntity
  8
U1
100
AcDbLine
 10
11593.92750789964
 20
8732.743182432328
 30
0.0
 11
11596.22750789964
 21
8732.743182432328
 31
0.0
  0
LINE
  5
19153
330
18AED
100
AcDbEntity
  8
U1
100
AcDbLine
 10
11591.62750789964
 20
8725.743182432324
 30
0.0
 11
11593.92750789964
 21
8725.743182432324
 31
0.0
  0
ARC
  5
19154
330
18AED
100
AcDbEntity
  8
U1
100
AcDbCircle
 10
11592.77750789964
 20
8725.193182432326
 30
0.0
 40
3.450000000000044
100
AcDbArc
 50
180.0
 51
0.0
  0
LINE
  5
19155
330
18AED
100
AcDbEntity
  8
U1
100
AcDbLine
 10
11591.62750789964
 20
8725.193182432326
 30
0.0
 11
11591.62750789964
 21
8734.443182432325
 31
0.0
  0
LINE
  5
19156
330
18AED
100
AcDbEntity
  8
U1
100
AcDbLine
 10
11593.92750789964
 20
8734.443182432325
 30
0.0
 11
11593.92750789964
 21
8725.193182432326
 31
0.0
  0
LINE
  5
19157
330
18AED
100
AcDbEntity
  8
U1
100
AcDbLine
 10
11589.32750789964
 20
8725.193182432326
 30
0.0
 11
11589.32750789964
 21
8734.443182432325
 31
0.0
  0
ARC
  5
19158
330
18AED
100
AcDbEntity
  8
U1
100
AcDbCircle
 10
11605.32750789964
 20
8734.443182432325
 30
0.0
 40
4.0
100
AcDbArc
 50
0.0
 51
90.0
  0
LINE
  5
19159
330
18AED
100
AcDbEntity
  8
U1
100
AcDbLine
 10
11605.32750789964
 20
8738.443182432325
 30
0.0
 11
11597.92750789964
 21
8738.443182432325
 31
0.0
  0
ARC
  5
1915A
330
18AED
100
AcDbEntity
  8
U1
100
AcDbCircle
 10
11597.92750789964
 20
8734.443182432325
 30
0.0
 40
4.0
100
AcDbArc
 50
90.0
 51
180.0
  0
LINE
  5
1915B
330
18AED
100
AcDbEntity
  8
U1
100
AcDbLine
 10
11609.32750789964
 20
8682.043182432327
 30
0.0
 11
11609.32750789964
 21
8734.443182432325
 31
0.0
  0
LINE
  5
1915C
330
18AED
100
AcDbEntity
  8
U1
100
AcDbLine
 10
11585.32750789964
 20
6928.443182432326
 30
0.0
 11
11552.92750789964
 21
6928.443182432326
 31
0.0
  0
LINE
  5
1915D
330
18AED
100
AcDbEntity
  8
U1
100
AcDbLine
 10
11552.92750789964
 20
6868.043182432327
 30
0.0
 11
11605.32750789964
 21
6868.043182432327
 31
0.0
  0
ARC
  5
1915E
330
18AED
100
AcDbEntity
  8
U1
100
AcDbCircle
 10
11552.92750789964
 20
6872.043182432325
 30
0.0
 40
4.0
100
AcDbArc
 50
180.0
 51
270.0
  0
ARC
  5
1915F
330
18AED
100
AcDbEntity
  8
U1
100
AcDbCircle
 10
11552.92750789964
 20
6924.443182432328
 30
0.0
 40
4.0
100
AcDbArc
 50
90.0
 51
180.0
  0
LINE
  5
19160
330
18AED
100
AcDbEntity
  8
U1
100
AcDbLine
 10
11548.92750789964
 20
6924.443182432328
 30
0.0
 11
11548.92750789964
 21
6872.043182432325
 31
0.0
  0
ARC
  5
19161
330
18AED
100
AcDbEntity
  8
U1
100
AcDbCircle
 10
11605.32750789964
 20
6872.043182432325
 30
0.0
 40
4.0
100
AcDbArc
 50
270.0
 51
0.0
  0
ARC
  5
19162
330
18AED
100
AcDbEntity
  8
U1
100
AcDbCircle
 10
11585.32750789964
 20
6924.443182432328
 30
0.0
 40
4.0
100
AcDbArc
 50
0.0
 51
90.0
  0
ARC
  5
19163
330
18AED
100
AcDbEntity
  8
U1
100
AcDbCircle
 10
11592.77750789964
 20
6915.193182432329
 30
0.0
 40
1.149999999999977
100
AcDbArc
 50
180.0
 51
0.0
  0
LINE
  5
19164
330
18AED
100
AcDbEntity
  8
U1
100
AcDbLine
 10
11596.22750789964
 20
6922.743182432326
 30
0.0
 11
11596.22750789964
 21
6915.193182432329
 31
0.0
  0
LINE
  5
19165
330
18AED
100
AcDbEntity
  8
U1
100
AcDbLine
 10
11593.92750789964
 20
6922.743182432326
 30
0.0
 11
11596.22750789964
 21
6922.743182432326
 31
0.0
  0
LINE
  5
19166
330
18AED
100
AcDbEntity
  8
U1
100
AcDbLine
 10
11591.62750789964
 20
6915.743182432326
 30
0.0
 11
11593.92750789964
 21
6915.743182432326
 31
0.0
  0
ARC
  5
19167
330
18AED
100
AcDbEntity
  8
U1
100
AcDbCircle
 10
11592.77750789964
 20
6915.193182432329
 30
0.0
 40
3.450000000000044
100
AcDbArc
 50
180.0
 51
0.0
  0
LINE
  5
19168
330
18AED
100
AcDbEntity
  8
U1
100
AcDbLine
 10
11591.62750789964
 20
6915.193182432329
 30
0.0
 11
11591.62750789964
 21
6924.443182432326
 31
0.0
  0
LINE
  5
19169
330
18AED
100
AcDbEntity
  8
U1
100
AcDbLine
 10
11593.92750789964
 20
6924.443182432328
 30
0.0
 11
11593.92750789964
 21
6915.193182432329
 31
0.0
  0
LINE
  5
1916A
330
18AED
100
AcDbEntity
  8
U1
100
AcDbLine
 10
11589.32750789964
 20
6915.193182432329
 30
0.0
 11
11589.32750789964
 21
6924.443182432328
 31
0.0
  0
ARC
  5
1916B
330
18AED
100
AcDbEntity
  8
U1
100
AcDbCircle
 10
11605.32750789964
 20
6924.443182432328
 30
0.0
 40
4.0
100
AcDbArc
 50
0.0
 51
90.0
  0
LINE
  5
1916C
330
18AED
100
AcDbEntity
  8
U1
100
AcDbLine
 10
11605.32750789964
 20
6928.443182432326
 30
0.0
 11
11597.92750789964
 21
6928.443182432326
 31
0.0
  0
ARC
  5
1916D
330
18AED
100
AcDbEntity
  8
U1
100
AcDbCircle
 10
11597.92750789964
 20
6924.443182432328
 30
0.0
 40
4.0
100
AcDbArc
 50
90.0
 51
180.0
  0
LINE
  5
1916E
330
18AED
100
AcDbEntity
  8
U1
100
AcDbLine
 10
11609.32750789964
 20
6872.043182432325
 30
0.0
 11
11609.32750789964
 21
6924.443182432328
 31
0.0
  0
LINE
  5
1916F
330
18AED
100
AcDbEntity
  8
KISO
100
AcDbLine
 10
11979.12750789964
 20
6498.243182432327
 30
0.0
 11
11179.12750789963
 21
6498.243182432327
 31
0.0
  0
LINE
  5
19170
330
18AED
100
AcDbEntity
  8
KISO
100
AcDbLine
 10
11179.12750789963
 20
6498.243182432327
 30
0.0
 11
11179.12750789963
 21
7298.243182432326
 31
0.0
  0
LINE
  5
19171
330
18AED
100
AcDbEntity
  8
KISO
100
AcDbLine
 10
11179.12750789963
 20
7298.243182432326
 30
0.0
 11
11979.12750789964
 21
7298.243182432326
 31
0.0
  0
LINE
  5
19172
330
18AED
100
AcDbEntity
  8
KISO
100
AcDbLine
 10
11979.12750789964
 20
7298.243182432326
 30
0.0
 11
11979.12750789964
 21
6498.243182432327
 31
0.0
  0
LINE
  5
19173
330
18AED
100
AcDbEntity
  8
U1
100
AcDbLine
 10
9125.327507899639
 20
8738.443182432325
 30
0.0
 11
9092.927507899636
 21
8738.443182432325
 31
0.0
  0
LINE
  5
19174
330
18AED
100
AcDbEntity
  8
U1
100
AcDbLine
 10
9092.927507899636
 20
8678.043182432324
 30
0.0
 11
9145.327507899635
 21
8678.043182432324
 31
0.0
  0
ARC
  5
19175
330
18AED
100
AcDbEntity
  8
U1
100
AcDbCircle
 10
9092.927507899636
 20
8682.043182432327
 30
0.0
 40
4.0
100
AcDbArc
 50
180.0
 51
270.0
  0
ARC
  5
19176
330
18AED
100
AcDbEntity
  8
U1
100
AcDbCircle
 10
9092.927507899636
 20
8734.443182432325
 30
0.0
 40
4.0
100
AcDbArc
 50
90.0
 51
180.0
  0
LINE
  5
19177
330
18AED
100
AcDbEntity
  8
U1
100
AcDbLine
 10
9088.927507899636
 20
8734.443182432325
 30
0.0
 11
9088.927507899636
 21
8682.043182432327
 31
0.0
  0
ARC
  5
19178
330
18AED
100
AcDbEntity
  8
U1
100
AcDbCircle
 10
9145.327507899635
 20
8682.043182432327
 30
0.0
 40
4.0
100
AcDbArc
 50
270.0
 51
0.0
  0
ARC
  5
19179
330
18AED
100
AcDbEntity
  8
U1
100
AcDbCircle
 10
9125.327507899639
 20
8734.443182432325
 30
0.0
 40
4.0
100
AcDbArc
 50
0.0
 51
90.0
  0
ARC
  5
1917A
330
18AED
100
AcDbEntity
  8
U1
100
AcDbCircle
 10
9132.777507899637
 20
8725.193182432326
 30
0.0
 40
1.149999999999977
100
AcDbArc
 50
180.0
 51
0.0
  0
LINE
  5
1917B
330
18AED
100
AcDbEntity
  8
U1
100
AcDbLine
 10
9136.227507899636
 20
8732.743182432328
 30
0.0
 11
9136.227507899636
 21
8725.193182432326
 31
0.0
  0
LINE
  5
1917C
330
18AED
100
AcDbEntity
  8
U1
100
AcDbLine
 10
9133.927507899636
 20
8732.743182432328
 30
0.0
 11
9136.227507899636
 21
8732.743182432328
 31
0.0
  0
LINE
  5
1917D
330
18AED
100
AcDbEntity
  8
U1
100
AcDbLine
 10
9131.627507899636
 20
8725.743182432324
 30
0.0
 11
9133.927507899636
 21
8725.743182432324
 31
0.0
  0
ARC
  5
1917E
330
18AED
100
AcDbEntity
  8
U1
100
AcDbCircle
 10
9132.777507899637
 20
8725.193182432326
 30
0.0
 40
3.450000000000044
100
AcDbArc
 50
180.0
 51
0.0
  0
LINE
  5
1917F
330
18AED
100
AcDbEntity
  8
U1
100
AcDbLine
 10
9131.627507899636
 20
8725.193182432326
 30
0.0
 11
9131.627507899636
 21
8734.443182432325
 31
0.0
  0
LINE
  5
19180
330
18AED
100
AcDbEntity
  8
U1
100
AcDbLine
 10
9133.927507899636
 20
8734.443182432325
 30
0.0
 11
9133.927507899636
 21
8725.193182432326
 31
0.0
  0
LINE
  5
19181
330
18AED
100
AcDbEntity
  8
U1
100
AcDbLine
 10
9129.327507899636
 20
8725.193182432326
 30
0.0
 11
9129.327507899636
 21
8734.443182432325
 31
0.0
  0
ARC
  5
19182
330
18AED
100
AcDbEntity
  8
U1
100
AcDbCircle
 10
9145.327507899635
 20
8734.443182432325
 30
0.0
 40
4.0
100
AcDbArc
 50
0.0
 51
90.0
  0
LINE
  5
19183
330
18AED
100
AcDbEntity
  8
U1
100
AcDbLine
 10
9145.327507899635
 20
8738.443182432325
 30
0.0
 11
9137.927507899636
 21
8738.443182432325
 31
0.0
  0
ARC
  5
19184
330
18AED
100
AcDbEntity
  8
U1
100
AcDbCircle
 10
9137.927507899636
 20
8734.443182432325
 30
0.0
 40
4.0
100
AcDbArc
 50
90.0
 51
180.0
  0
LINE
  5
19185
330
18AED
100
AcDbEntity
  8
U1
100
AcDbLine
 10
9149.327507899636
 20
8682.043182432327
 30
0.0
 11
9149.327507899636
 21
8734.443182432325
 31
0.0
  0
LINE
  5
19186
330
18AED
100
AcDbEntity
  8
U1
100
AcDbLine
 10
9125.327507899639
 20
6928.443182432326
 30
0.0
 11
9092.927507899636
 21
6928.443182432326
 31
0.0
  0
LINE
  5
19187
330
18AED
100
AcDbEntity
  8
U1
100
AcDbLine
 10
9092.927507899636
 20
6868.043182432327
 30
0.0
 11
9145.327507899635
 21
6868.043182432327
 31
0.0
  0
ARC
  5
19188
330
18AED
100
AcDbEntity
  8
U1
100
AcDbCircle
 10
9092.927507899636
 20
6872.043182432325
 30
0.0
 40
4.0
100
AcDbArc
 50
180.0
 51
270.0
  0
ARC
  5
19189
330
18AED
100
AcDbEntity
  8
U1
100
AcDbCircle
 10
9092.927507899636
 20
6924.443182432328
 30
0.0
 40
4.0
100
AcDbArc
 50
90.0
 51
180.0
  0
LINE
  5
1918A
330
18AED
100
AcDbEntity
  8
U1
100
AcDbLine
 10
9088.927507899636
 20
6924.443182432328
 30
0.0
 11
9088.927507899636
 21
6872.043182432325
 31
0.0
  0
ARC
  5
1918B
330
18AED
100
AcDbEntity
  8
U1
100
AcDbCircle
 10
9145.327507899635
 20
6872.043182432325
 30
0.0
 40
4.0
100
AcDbArc
 50
270.0
 51
0.0
  0
ARC
  5
1918C
330
18AED
100
AcDbEntity
  8
U1
100
AcDbCircle
 10
9125.327507899639
 20
6924.443182432328
 30
0.0
 40
4.0
100
AcDbArc
 50
0.0
 51
90.0
  0
ARC
  5
1918D
330
18AED
100
AcDbEntity
  8
U1
100
AcDbCircle
 10
9132.777507899637
 20
6915.193182432329
 30
0.0
 40
1.149999999999977
100
AcDbArc
 50
180.0
 51
0.0
  0
LINE
  5
1918E
330
18AED
100
AcDbEntity
  8
U1
100
AcDbLine
 10
9136.227507899636
 20
6922.743182432326
 30
0.0
 11
9136.227507899636
 21
6915.193182432329
 31
0.0
  0
LINE
  5
1918F
330
18AED
100
AcDbEntity
  8
U1
100
AcDbLine
 10
9133.927507899636
 20
6922.743182432326
 30
0.0
 11
9136.227507899636
 21
6922.743182432326
 31
0.0
  0
LINE
  5
19190
330
18AED
100
AcDbEntity
  8
U1
100
AcDbLine
 10
9131.627507899636
 20
6915.743182432326
 30
0.0
 11
9133.927507899636
 21
6915.743182432326
 31
0.0
  0
ARC
  5
19191
330
18AED
100
AcDbEntity
  8
U1
100
AcDbCircle
 10
9132.777507899637
 20
6915.193182432329
 30
0.0
 40
3.450000000000044
100
AcDbArc
 50
180.0
 51
0.0
  0
LINE
  5
19192
330
18AED
100
AcDbEntity
  8
U1
100
AcDbLine
 10
9131.627507899636
 20
6915.193182432329
 30
0.0
 11
9131.627507899636
 21
6924.443182432326
 31
0.0
  0
LINE
  5
19193
330
18AED
100
AcDbEntity
  8
U1
100
AcDbLine
 10
9133.927507899636
 20
6924.443182432328
 30
0.0
 11
9133.927507899636
 21
6915.193182432329
 31
0.0
  0
LINE
  5
19194
330
18AED
100
AcDbEntity
  8
U1
100
AcDbLine
 10
9129.327507899636
 20
6915.193182432329
 30
0.0
 11
9129.327507899636
 21
6924.443182432328
 31
0.0
  0
ARC
  5
19195
330
18AED
100
AcDbEntity
  8
U1
100
AcDbCircle
 10
9145.327507899635
 20
6924.443182432328
 30
0.0
 40
4.0
100
AcDbArc
 50
0.0
 51
90.0
  0
LINE
  5
19196
330
18AED
100
AcDbEntity
  8
U1
100
AcDbLine
 10
9145.327507899635
 20
6928.443182432326
 30
0.0
 11
9137.927507899636
 21
6928.443182432326
 31
0.0
  0
ARC
  5
19197
330
18AED
100
AcDbEntity
  8
U1
100
AcDbCircle
 10
9137.927507899636
 20
6924.443182432328
 30
0.0
 40
4.0
100
AcDbArc
 50
90.0
 51
180.0
  0
LINE
  5
19198
330
18AED
100
AcDbEntity
  8
U1
100
AcDbLine
 10
9149.327507899636
 20
6872.043182432325
 30
0.0
 11
9149.327507899636
 21
6924.443182432328
 31
0.0
  0
LINE
  5
19199
330
18AED
100
AcDbEntity
  8
KISO
100
AcDbLine
 10
11979.12750789964
 20
8308.243182432326
 30
0.0
 11
11179.12750789963
 21
8308.243182432326
 31
0.0
  0
LINE
  5
1919A
330
18AED
100
AcDbEntity
  8
KISO
100
AcDbLine
 10
11179.12750789963
 20
8308.243182432326
 30
0.0
 11
11179.12750789963
 21
9108.243182432325
 31
0.0
  0
LINE
  5
1919B
330
18AED
100
AcDbEntity
  8
KISO
100
AcDbLine
 10
11179.12750789963
 20
9108.243182432325
 30
0.0
 11
11979.12750789964
 21
9108.243182432325
 31
0.0
  0
LINE
  5
1919C
330
18AED
100
AcDbEntity
  8
KISO
100
AcDbLine
 10
11979.12750789964
 20
9108.243182432325
 30
0.0
 11
11979.12750789964
 21
8308.243182432326
 31
0.0
  0
LINE
  5
1919D
330
18AED
100
AcDbEntity
  8
U1
100
AcDbLine
 10
7725.327507899638
 20
8738.443182432325
 30
0.0
 11
7692.927507899637
 21
8738.443182432325
 31
0.0
  0
LINE
  5
1919E
330
18AED
100
AcDbEntity
  8
U1
100
AcDbLine
 10
7692.927507899637
 20
8678.043182432324
 30
0.0
 11
7745.32750789964
 21
8678.043182432324
 31
0.0
  0
ARC
  5
1919F
330
18AED
100
AcDbEntity
  8
U1
100
AcDbCircle
 10
7692.927507899637
 20
8682.043182432327
 30
0.0
 40
4.0
100
AcDbArc
 50
180.0
 51
270.0
  0
ARC
  5
191A0
330
18AED
100
AcDbEntity
  8
U1
100
AcDbCircle
 10
7692.927507899637
 20
8734.443182432325
 30
0.0
 40
4.0
100
AcDbArc
 50
90.0
 51
180.0
  0
LINE
  5
191A1
330
18AED
100
AcDbEntity
  8
U1
100
AcDbLine
 10
7688.927507899638
 20
8734.443182432325
 30
0.0
 11
7688.927507899638
 21
8682.043182432327
 31
0.0
  0
ARC
  5
191A2
330
18AED
100
AcDbEntity
  8
U1
100
AcDbCircle
 10
7745.32750789964
 20
8682.043182432327
 30
0.0
 40
4.0
100
AcDbArc
 50
270.0
 51
0.0
  0
ARC
  5
191A3
330
18AED
100
AcDbEntity
  8
U1
100
AcDbCircle
 10
7725.327507899638
 20
8734.443182432325
 30
0.0
 40
4.0
100
AcDbArc
 50
0.0
 51
90.0
  0
ARC
  5
191A4
330
18AED
100
AcDbEntity
  8
U1
100
AcDbCircle
 10
7732.77750789964
 20
8725.193182432326
 30
0.0
 40
1.149999999999977
100
AcDbArc
 50
180.0
 51
0.0
  0
LINE
  5
191A5
330
18AED
100
AcDbEntity
  8
U1
100
AcDbLine
 10
7736.227507899639
 20
8732.743182432328
 30
0.0
 11
7736.227507899639
 21
8725.193182432326
 31
0.0
  0
LINE
  5
191A6
330
18AED
100
AcDbEntity
  8
U1
100
AcDbLine
 10
7733.927507899636
 20
8732.743182432328
 30
0.0
 11
7736.227507899639
 21
8732.743182432328
 31
0.0
  0
LINE
  5
191A7
330
18AED
100
AcDbEntity
  8
U1
100
AcDbLine
 10
7731.627507899638
 20
8725.743182432324
 30
0.0
 11
7733.927507899636
 21
8725.743182432324
 31
0.0
  0
ARC
  5
191A8
330
18AED
100
AcDbEntity
  8
U1
100
AcDbCircle
 10
7732.77750789964
 20
8725.193182432326
 30
0.0
 40
3.450000000000044
100
AcDbArc
 50
180.0
 51
0.0
  0
LINE
  5
191A9
330
18AED
100
AcDbEntity
  8
U1
100
AcDbLine
 10
7731.627507899638
 20
8725.193182432326
 30
0.0
 11
7731.627507899638
 21
8734.443182432325
 31
0.0
  0
LINE
  5
191AA
330
18AED
100
AcDbEntity
  8
U1
100
AcDbLine
 10
7733.927507899636
 20
8734.443182432325
 30
0.0
 11
7733.927507899636
 21
8725.193182432326
 31
0.0
  0
LINE
  5
191AB
330
18AED
100
AcDbEntity
  8
U1
100
AcDbLine
 10
7729.32750789964
 20
8725.193182432326
 30
0.0
 11
7729.32750789964
 21
8734.443182432325
 31
0.0
  0
ARC
  5
191AC
330
18AED
100
AcDbEntity
  8
U1
100
AcDbCircle
 10
7745.327507899638
 20
8734.443182432325
 30
0.0
 40
4.0
100
AcDbArc
 50
0.0
 51
90.0
  0
LINE
  5
191AD
330
18AED
100
AcDbEntity
  8
U1
100
AcDbLine
 10
7745.327507899638
 20
8738.443182432325
 30
0.0
 11
7737.927507899637
 21
8738.443182432325
 31
0.0
  0
ARC
  5
191AE
330
18AED
100
AcDbEntity
  8
U1
100
AcDbCircle
 10
7737.927507899637
 20
8734.443182432325
 30
0.0
 40
4.0
100
AcDbArc
 50
90.0
 51
180.0
  0
LINE
  5
191AF
330
18AED
100
AcDbEntity
  8
U1
100
AcDbLine
 10
7749.327507899637
 20
8682.043182432327
 30
0.0
 11
7749.327507899637
 21
8734.443182432325
 31
0.0
  0
LINE
  5
191B0
330
18AED
100
AcDbEntity
  8
U1
100
AcDbLine
 10
7725.327507899638
 20
6928.443182432326
 30
0.0
 11
7692.927507899637
 21
6928.443182432326
 31
0.0
  0
LINE
  5
191B1
330
18AED
100
AcDbEntity
  8
U1
100
AcDbLine
 10
7692.927507899637
 20
6868.043182432327
 30
0.0
 11
7745.32750789964
 21
6868.043182432327
 31
0.0
  0
ARC
  5
191B2
330
18AED
100
AcDbEntity
  8
U1
100
AcDbCircle
 10
7692.927507899637
 20
6872.043182432325
 30
0.0
 40
4.0
100
AcDbArc
 50
180.0
 51
270.0
  0
ARC
  5
191B3
330
18AED
100
AcDbEntity
  8
U1
100
AcDbCircle
 10
7692.927507899637
 20
6924.443182432328
 30
0.0
 40
4.0
100
AcDbArc
 50
90.0
 51
180.0
  0
LINE
  5
191B4
330
18AED
100
AcDbEntity
  8
U1
100
AcDbLine
 10
7688.927507899638
 20
6924.443182432328
 30
0.0
 11
7688.927507899638
 21
6872.043182432325
 31
0.0
  0
ARC
  5
191B5
330
18AED
100
AcDbEntity
  8
U1
100
AcDbCircle
 10
7745.32750789964
 20
6872.043182432325
 30
0.0
 40
4.0
100
AcDbArc
 50
270.0
 51
0.0
  0
ARC
  5
191B6
330
18AED
100
AcDbEntity
  8
U1
100
AcDbCircle
 10
7725.327507899638
 20
6924.443182432328
 30
0.0
 40
4.0
100
AcDbArc
 50
0.0
 51
90.0
  0
ARC
  5
191B7
330
18AED
100
AcDbEntity
  8
U1
100
AcDbCircle
 10
7732.77750789964
 20
6915.193182432329
 30
0.0
 40
1.149999999999977
100
AcDbArc
 50
180.0
 51
0.0
  0
LINE
  5
191B8
330
18AED
100
AcDbEntity
  8
U1
100
AcDbLine
 10
7736.227507899639
 20
6922.743182432326
 30
0.0
 11
7736.227507899639
 21
6915.193182432329
 31
0.0
  0
LINE
  5
191B9
330
18AED
100
AcDbEntity
  8
U1
100
AcDbLine
 10
7733.927507899636
 20
6922.743182432326
 30
0.0
 11
7736.227507899639
 21
6922.743182432326
 31
0.0
  0
LINE
  5
191BA
330
18AED
100
AcDbEntity
  8
U1
100
AcDbLine
 10
7731.627507899638
 20
6915.743182432326
 30
0.0
 11
7733.927507899636
 21
6915.743182432326
 31
0.0
  0
ARC
  5
191BB
330
18AED
100
AcDbEntity
  8
U1
100
AcDbCircle
 10
7732.77750789964
 20
6915.193182432329
 30
0.0
 40
3.450000000000044
100
AcDbArc
 50
180.0
 51
0.0
  0
LINE
  5
191BC
330
18AED
100
AcDbEntity
  8
U1
100
AcDbLine
 10
7731.627507899638
 20
6915.193182432329
 30
0.0
 11
7731.627507899638
 21
6924.443182432326
 31
0.0
  0
LINE
  5
191BD
330
18AED
100
AcDbEntity
  8
U1
100
AcDbLine
 10
7733.927507899636
 20
6924.443182432328
 30
0.0
 11
7733.927507899636
 21
6915.193182432329
 31
0.0
  0
LINE
  5
191BE
330
18AED
100
AcDbEntity
  8
U1
100
AcDbLine
 10
7729.32750789964
 20
6915.193182432329
 30
0.0
 11
7729.32750789964
 21
6924.443182432328
 31
0.0
  0
ARC
  5
191BF
330
18AED
100
AcDbEntity
  8
U1
100
AcDbCircle
 10
7745.327507899638
 20
6924.443182432328
 30
0.0
 40
4.0
100
AcDbArc
 50
0.0
 51
90.0
  0
LINE
  5
191C0
330
18AED
100
AcDbEntity
  8
U1
100
AcDbLine
 10
7745.327507899638
 20
6928.443182432326
 30
0.0
 11
7737.927507899637
 21
6928.443182432326
 31
0.0
  0
ARC
  5
191C1
330
18AED
100
AcDbEntity
  8
U1
100
AcDbCircle
 10
7737.927507899637
 20
6924.443182432328
 30
0.0
 40
4.0
100
AcDbArc
 50
90.0
 51
180.0
  0
LINE
  5
191C2
330
18AED
100
AcDbEntity
  8
U1
100
AcDbLine
 10
7749.327507899637
 20
6872.043182432325
 30
0.0
 11
7749.327507899637
 21
6924.443182432328
 31
0.0
  0
LINE
  5
191C3
330
18AED
100
AcDbEntity
  8
KISO
100
AcDbLine
 10
8119.127507899639
 20
6498.243182432327
 30
0.0
 11
7319.127507899638
 21
6498.243182432327
 31
0.0
  0
LINE
  5
191C4
330
18AED
100
AcDbEntity
  8
KISO
100
AcDbLine
 10
7319.127507899638
 20
6498.243182432327
 30
0.0
 11
7319.127507899638
 21
7298.243182432326
 31
0.0
  0
LINE
  5
191C5
330
18AED
100
AcDbEntity
  8
KISO
100
AcDbLine
 10
7319.127507899638
 20
7298.243182432326
 30
0.0
 11
8119.127507899639
 21
7298.243182432326
 31
0.0
  0
LINE
  5
191C6
330
18AED
100
AcDbEntity
  8
KISO
100
AcDbLine
 10
8119.127507899639
 20
7298.243182432326
 30
0.0
 11
8119.127507899639
 21
6498.243182432327
 31
0.0
  0
LINE
  5
191C7
330
18AED
100
AcDbEntity
  8
U1
100
AcDbLine
 10
5265.32750789964
 20
8738.443182432325
 30
0.0
 11
5232.927507899638
 21
8738.443182432325
 31
0.0
  0
LINE
  5
191C8
330
18AED
100
AcDbEntity
  8
U1
100
AcDbLine
 10
5232.927507899638
 20
8678.043182432324
 30
0.0
 11
5285.327507899641
 21
8678.043182432324
 31
0.0
  0
ARC
  5
191C9
330
18AED
100
AcDbEntity
  8
U1
100
AcDbCircle
 10
5232.927507899638
 20
8682.043182432327
 30
0.0
 40
4.0
100
AcDbArc
 50
180.0
 51
270.0
  0
ARC
  5
191CA
330
18AED
100
AcDbEntity
  8
U1
100
AcDbCircle
 10
5232.927507899638
 20
8734.443182432325
 30
0.0
 40
4.0
100
AcDbArc
 50
90.0
 51
180.0
  0
LINE
  5
191CB
330
18AED
100
AcDbEntity
  8
U1
100
AcDbLine
 10
5228.927507899639
 20
8734.443182432325
 30
0.0
 11
5228.927507899639
 21
8682.043182432327
 31
0.0
  0
ARC
  5
191CC
330
18AED
100
AcDbEntity
  8
U1
100
AcDbCircle
 10
5285.327507899641
 20
8682.043182432327
 30
0.0
 40
4.0
100
AcDbArc
 50
270.0
 51
0.0
  0
ARC
  5
191CD
330
18AED
100
AcDbEntity
  8
U1
100
AcDbCircle
 10
5265.32750789964
 20
8734.443182432325
 30
0.0
 40
4.0
100
AcDbArc
 50
0.0
 51
90.0
  0
ARC
  5
191CE
330
18AED
100
AcDbEntity
  8
U1
100
AcDbCircle
 10
5272.77750789964
 20
8725.193182432326
 30
0.0
 40
1.149999999999977
100
AcDbArc
 50
180.0
 51
0.0
  0
LINE
  5
191CF
330
18AED
100
AcDbEntity
  8
U1
100
AcDbLine
 10
5276.227507899639
 20
8732.743182432328
 30
0.0
 11
5276.227507899639
 21
8725.193182432326
 31
0.0
  0
LINE
  5
191D0
330
18AED
100
AcDbEntity
  8
U1
100
AcDbLine
 10
5273.927507899639
 20
8732.743182432328
 30
0.0
 11
5276.227507899639
 21
8732.743182432328
 31
0.0
  0
LINE
  5
191D1
330
18AED
100
AcDbEntity
  8
U1
100
AcDbLine
 10
5271.62750789964
 20
8725.743182432324
 30
0.0
 11
5273.927507899639
 21
8725.743182432324
 31
0.0
  0
ARC
  5
191D2
330
18AED
100
AcDbEntity
  8
U1
100
AcDbCircle
 10
5272.77750789964
 20
8725.193182432326
 30
0.0
 40
3.450000000000044
100
AcDbArc
 50
180.0
 51
0.0
  0
LINE
  5
191D3
330
18AED
100
AcDbEntity
  8
U1
100
AcDbLine
 10
5271.62750789964
 20
8725.193182432326
 30
0.0
 11
5271.62750789964
 21
8734.443182432325
 31
0.0
  0
LINE
  5
191D4
330
18AED
100
AcDbEntity
  8
U1
100
AcDbLine
 10
5273.927507899639
 20
8734.443182432325
 30
0.0
 11
5273.927507899639
 21
8725.193182432326
 31
0.0
  0
LINE
  5
191D5
330
18AED
100
AcDbEntity
  8
U1
100
AcDbLine
 10
5269.327507899641
 20
8725.193182432326
 30
0.0
 11
5269.327507899641
 21
8734.443182432325
 31
0.0
  0
ARC
  5
191D6
330
18AED
100
AcDbEntity
  8
U1
100
AcDbCircle
 10
5285.327507899638
 20
8734.443182432325
 30
0.0
 40
4.0
100
AcDbArc
 50
0.0
 51
90.0
  0
LINE
  5
191D7
330
18AED
100
AcDbEntity
  8
U1
100
AcDbLine
 10
5285.327507899638
 20
8738.443182432325
 30
0.0
 11
5277.927507899639
 21
8738.443182432325
 31
0.0
  0
ARC
  5
191D8
330
18AED
100
AcDbEntity
  8
U1
100
AcDbCircle
 10
5277.927507899639
 20
8734.443182432325
 30
0.0
 40
4.0
100
AcDbArc
 50
90.0
 51
180.0
  0
LINE
  5
191D9
330
18AED
100
AcDbEntity
  8
U1
100
AcDbLine
 10
5289.32750789964
 20
8682.043182432327
 30
0.0
 11
5289.327507899638
 21
8734.443182432325
 31
0.0
  0
LINE
  5
191DA
330
18AED
100
AcDbEntity
  8
U1
100
AcDbLine
 10
5265.32750789964
 20
6928.443182432326
 30
0.0
 11
5232.927507899638
 21
6928.443182432326
 31
0.0
  0
LINE
  5
191DB
330
18AED
100
AcDbEntity
  8
U1
100
AcDbLine
 10
5232.927507899638
 20
6868.043182432327
 30
0.0
 11
5285.327507899641
 21
6868.043182432327
 31
0.0
  0
ARC
  5
191DC
330
18AED
100
AcDbEntity
  8
U1
100
AcDbCircle
 10
5232.927507899638
 20
6872.043182432325
 30
0.0
 40
4.0
100
AcDbArc
 50
180.0
 51
270.0
  0
ARC
  5
191DD
330
18AED
100
AcDbEntity
  8
U1
100
AcDbCircle
 10
5232.927507899638
 20
6924.443182432328
 30
0.0
 40
4.0
100
AcDbArc
 50
90.0
 51
180.0
  0
LINE
  5
191DE
330
18AED
100
AcDbEntity
  8
U1
100
AcDbLine
 10
5228.927507899639
 20
6924.443182432328
 30
0.0
 11
5228.927507899639
 21
6872.043182432325
 31
0.0
  0
ARC
  5
191DF
330
18AED
100
AcDbEntity
  8
U1
100
AcDbCircle
 10
5285.327507899641
 20
6872.043182432325
 30
0.0
 40
4.0
100
AcDbArc
 50
270.0
 51
0.0
  0
ARC
  5
191E0
330
18AED
100
AcDbEntity
  8
U1
100
AcDbCircle
 10
5265.32750789964
 20
6924.443182432328
 30
0.0
 40
4.0
100
AcDbArc
 50
0.0
 51
90.0
  0
ARC
  5
191E1
330
18AED
100
AcDbEntity
  8
U1
100
AcDbCircle
 10
5272.77750789964
 20
6915.193182432329
 30
0.0
 40
1.149999999999977
100
AcDbArc
 50
180.0
 51
0.0
  0
LINE
  5
191E2
330
18AED
100
AcDbEntity
  8
U1
100
AcDbLine
 10
5276.227507899639
 20
6922.743182432326
 30
0.0
 11
5276.227507899639
 21
6915.193182432329
 31
0.0
  0
LINE
  5
191E3
330
18AED
100
AcDbEntity
  8
U1
100
AcDbLine
 10
5273.927507899639
 20
6922.743182432326
 30
0.0
 11
5276.227507899639
 21
6922.743182432326
 31
0.0
  0
LINE
  5
191E4
330
18AED
100
AcDbEntity
  8
U1
100
AcDbLine
 10
5271.62750789964
 20
6915.743182432326
 30
0.0
 11
5273.927507899639
 21
6915.743182432326
 31
0.0
  0
ARC
  5
191E5
330
18AED
100
AcDbEntity
  8
U1
100
AcDbCircle
 10
5272.77750789964
 20
6915.193182432329
 30
0.0
 40
3.450000000000044
100
AcDbArc
 50
180.0
 51
0.0
  0
LINE
  5
191E6
330
18AED
100
AcDbEntity
  8
U1
100
AcDbLine
 10
5271.62750789964
 20
6915.193182432329
 30
0.0
 11
5271.62750789964
 21
6924.443182432326
 31
0.0
  0
LINE
  5
191E7
330
18AED
100
AcDbEntity
  8
U1
100
AcDbLine
 10
5273.927507899639
 20
6924.443182432328
 30
0.0
 11
5273.927507899639
 21
6915.193182432329
 31
0.0
  0
LINE
  5
191E8
330
18AED
100
AcDbEntity
  8
U1
100
AcDbLine
 10
5269.327507899641
 20
6915.193182432329
 30
0.0
 11
5269.327507899641
 21
6924.443182432328
 31
0.0
  0
ARC
  5
191E9
330
18AED
100
AcDbEntity
  8
U1
100
AcDbCircle
 10
5285.327507899638
 20
6924.443182432328
 30
0.0
 40
4.0
100
AcDbArc
 50
0.0
 51
90.0
  0
LINE
  5
191EA
330
18AED
100
AcDbEntity
  8
U1
100
AcDbLine
 10
5285.327507899638
 20
6928.443182432326
 30
0.0
 11
5277.927507899639
 21
6928.443182432326
 31
0.0
  0
ARC
  5
191EB
330
18AED
100
AcDbEntity
  8
U1
100
AcDbCircle
 10
5277.927507899639
 20
6924.443182432328
 30
0.0
 40
4.0
100
AcDbArc
 50
90.0
 51
180.0
  0
LINE
  5
191EC
330
18AED
100
AcDbEntity
  8
U1
100
AcDbLine
 10
5289.32750789964
 20
6872.043182432325
 30
0.0
 11
5289.327507899638
 21
6924.443182432328
 31
0.0
  0
LINE
  5
191ED
330
18AED
100
AcDbEntity
  8
KISO
100
AcDbLine
 10
8119.127507899639
 20
8308.243182432326
 30
0.0
 11
7319.127507899638
 21
8308.243182432326
 31
0.0
  0
LINE
  5
191EE
330
18AED
100
AcDbEntity
  8
KISO
100
AcDbLine
 10
7319.127507899638
 20
8308.243182432326
 30
0.0
 11
7319.127507899638
 21
9108.243182432325
 31
0.0
  0
LINE
  5
191EF
330
18AED
100
AcDbEntity
  8
KISO
100
AcDbLine
 10
7319.127507899638
 20
9108.243182432325
 30
0.0
 11
8119.127507899639
 21
9108.243182432325
 31
0.0
  0
LINE
  5
191F0
330
18AED
100
AcDbEntity
  8
KISO
100
AcDbLine
 10
8119.127507899639
 20
9108.243182432325
 30
0.0
 11
8119.127507899639
 21
8308.243182432326
 31
0.0
  0
LINE
  5
191F1
330
18AED
100
AcDbEntity
  8
DOMAKON
100
AcDbLine
 10
8359.127507899641
 20
8908.243182432325
 30
0.0
 11
4859.127507899639
 21
8908.243182432325
 31
0.0
  0
LINE
  5
191F2
330
18AED
100
AcDbEntity
  8
DOMAKON
100
AcDbLine
 10
4859.127507899639
 20
8908.243182432325
 30
0.0
 11
4859.127507899639
 21
6498.243182432327
 31
0.0
  0
LINE
  5
191F3
330
18AED
100
AcDbEntity
  8
DOMAKON
100
AcDbLine
 10
4859.127507899639
 20
6498.243182432327
 30
0.0
 11
8359.127507899641
 21
6498.243182432327
 31
0.0
  0
LINE
  5
191F4
330
18AED
100
AcDbEntity
  8
KISO
100
AcDbLine
 10
5659.127507899639
 20
6498.243182432327
 30
0.0
 11
4859.127507899639
 21
6498.243182432327
 31
0.0
  0
LINE
  5
191F5
330
18AED
100
AcDbEntity
  8
KISO
100
AcDbLine
 10
4859.127507899639
 20
6498.243182432327
 30
0.0
 11
4859.127507899639
 21
7298.243182432326
 31
0.0
  0
LINE
  5
191F6
330
18AED
100
AcDbEntity
  8
KISO
100
AcDbLine
 10
4859.127507899639
 20
7298.243182432326
 30
0.0
 11
5659.127507899639
 21
7298.243182432326
 31
0.0
  0
LINE
  5
191F7
330
18AED
100
AcDbEntity
  8
KISO
100
AcDbLine
 10
5659.127507899639
 20
7298.243182432326
 30
0.0
 11
5659.127507899639
 21
6498.243182432327
 31
0.0
  0
LINE
  5
191F8
330
18AED
100
AcDbEntity
  8
KISO
100
AcDbLine
 10
5659.127507899639
 20
8308.243182432326
 30
0.0
 11
4859.127507899639
 21
8308.243182432326
 31
0.0
  0
LINE
  5
191F9
330
18AED
100
AcDbEntity
  8
KISO
100
AcDbLine
 10
4859.127507899639
 20
8308.243182432326
 30
0.0
 11
4859.127507899639
 21
9108.243182432325
 31
0.0
  0
LINE
  5
191FA
330
18AED
100
AcDbEntity
  8
KISO
100
AcDbLine
 10
4859.127507899639
 20
9108.243182432325
 30
0.0
 11
5659.127507899639
 21
9108.243182432325
 31
0.0
  0
LINE
  5
191FB
330
18AED
100
AcDbEntity
  8
KISO
100
AcDbLine
 10
5659.127507899639
 20
9108.243182432325
 30
0.0
 11
5659.127507899639
 21
8308.243182432326
 31
0.0
  0
LINE
  5
191FC
330
18AED
100
AcDbEntity
  8
YANE
  6
2PL-L
 62
     6
100
AcDbLine
 10
11975.12750789964
 20
6398.243182432327
 30
0.0
 11
4863.12750789964
 21
6398.243182432327
 31
0.0
  0
LINE
  5
191FD
330
18AED
100
AcDbEntity
  8
YANE
  6
2PL-L
 62
     6
100
AcDbLine
 10
4863.12750789964
 20
6398.243182432327
 30
0.0
 11
4863.12750789964
 21
8958.243182432324
 31
0.0
  0
LINE
  5
191FE
330
18AED
100
AcDbEntity
  8
YANE
  6
2PL-L
 62
     6
100
AcDbLine
 10
4863.12750789964
 20
8958.243182432324
 30
0.0
 11
11975.12750789964
 21
8958.243182432324
 31
0.0
  0
LINE
  5
191FF
330
18AED
100
AcDbEntity
  8
YANE
  6
2PL-L
 62
     6
100
AcDbLine
 10
11975.12750789964
 20
8958.243182432324
 30
0.0
 11
11975.12750789964
 21
6398.243182432327
 31
0.0
  0
LINE
  5
19200
330
18AED
100
AcDbEntity
  8
DOMAKON
100
AcDbLine
 10
8479.12750789964
 20
6498.243182432327
 30
0.0
 11
11979.12750789964
 21
6498.243182432327
 31
0.0
  0
LINE
  5
19201
330
18AED
100
AcDbEntity
  8
DOMAKON
100
AcDbLine
 10
11979.12750789964
 20
6498.243182432327
 30
0.0
 11
11979.12750789964
 21
8908.243182432325
 31
0.0
  0
LINE
  5
19202
330
18AED
100
AcDbEntity
  8
DOMAKON
100
AcDbLine
 10
11979.12750789964
 20
8908.243182432325
 30
0.0
 11
8479.12750789964
 21
8908.243182432325
 31
0.0
  0
LINE
  5
19203
330
18AED
100
AcDbEntity
  8
KISO
100
AcDbLine
 10
9519.127507899638
 20
6498.243182432327
 30
0.0
 11
8719.127507899637
 21
6498.243182432327
 31
0.0
  0
LINE
  5
19204
330
18AED
100
AcDbEntity
  8
KISO
100
AcDbLine
 10
8719.127507899637
 20
6498.243182432327
 30
0.0
 11
8719.127507899637
 21
7298.243182432326
 31
0.0
  0
LINE
  5
19205
330
18AED
100
AcDbEntity
  8
KISO
100
AcDbLine
 10
8719.127507899637
 20
7298.243182432326
 30
0.0
 11
9519.127507899638
 21
7298.243182432326
 31
0.0
  0
LINE
  5
19206
330
18AED
100
AcDbEntity
  8
KISO
100
AcDbLine
 10
9519.127507899638
 20
7298.243182432326
 30
0.0
 11
9519.127507899638
 21
6498.243182432327
 31
0.0
  0
LINE
  5
19207
330
18AED
100
AcDbEntity
  8
KISO
100
AcDbLine
 10
9519.127507899638
 20
8308.243182432326
 30
0.0
 11
8719.127507899637
 21
8308.243182432326
 31
0.0
  0
LINE
  5
19208
330
18AED
100
AcDbEntity
  8
KISO
100
AcDbLine
 10
8719.127507899637
 20
8308.243182432326
 30
0.0
 11
8719.127507899637
 21
9108.243182432325
 31
0.0
  0
LINE
  5
19209
330
18AED
100
AcDbEntity
  8
KISO
100
AcDbLine
 10
8719.127507899637
 20
9108.243182432325
 30
0.0
 11
9519.127507899638
 21
9108.243182432325
 31
0.0
  0
LINE
  5
1920A
330
18AED
100
AcDbEntity
  8
KISO
100
AcDbLine
 10
9519.127507899638
 20
9108.243182432325
 30
0.0
 11
9519.127507899638
 21
8308.243182432326
 31
0.0
  0
LINE
  5
1920B
330
18AED
100
AcDbEntity
  8
U3
100
AcDbLine
 10
9130.078259983639
 20
3525.966871722361
 30
0.0
 11
9357.853645156977
 21
3920.485411556196
 31
0.0
1001
ACAD
1000
DSTYLE
1002
{
1070
   147
1040
1.0
1070
    77
1070
     0
1002
}
  0
LINE
  5
1920C
330
18AED
100
AcDbEntity
  8
0
100
AcDbLine
 10
9118.531254599844
 20
3532.633538389028
 30
0.0
 11
9090.07825998364
 21
3456.684839419605
 31
0.0
  0
LINE
  5
1920D
330
18AED
100
AcDbEntity
  8
0
100
AcDbLine
 10
9090.07825998364
 20
3456.684839419605
 30
0.0
 11
9141.625265367435
 21
3519.300205055695
 31
0.0
  0
SOLID
  5
1920E
330
18AED
100
AcDbEntity
  8
0
100
AcDbTrace
 10
9118.531254599844
 20
3532.633538389028
 30
0.0
 11
9141.625265367435
 21
3519.300205055695
 31
0.0
 12
9090.07825998364
 22
3456.684839419605
 32
0.0
 13
9090.07825998364
 23
3456.684839419605
 33
0.0
  0
LINE
  5
1920F
330
18AED
100
AcDbEntity
  8
0
100
AcDbLine
 10
9141.625265367435
 20
3519.300205055695
 30
0.0
 11
9118.531254599844
 21
3532.633538389028
 31
0.0
  0
ARC
  5
19210
330
18AED
100
AcDbEntity
  8
U1
100
AcDbCircle
 10
11605.32750789964
 20
8734.443182432325
 30
0.0
 40
6.299999999999272
100
AcDbArc
 50
359.9999999999833
 51
90.00000000001655
  0
LINE
  5
19211
330
18AED
100
AcDbEntity
  8
U1
100
AcDbLine
 10
11605.32750789964
 20
8740.743182432325
 30
0.0
 11
11597.92750789964
 21
8740.743182432325
 31
0.0
  0
ARC
  5
19212
330
18AED
100
AcDbEntity
  8
U1
100
AcDbCircle
 10
11597.92750789964
 20
8734.443182432325
 30
0.0
 40
6.299999999999272
100
AcDbArc
 50
89.99999999998346
 51
180.0000000000165
  0
ARC
  5
19213
330
18AED
100
AcDbEntity
  8
U1
100
AcDbCircle
 10
11585.32750789964
 20
8734.443182432325
 30
0.0
 40
6.300000000001091
100
AcDbArc
 50
0.0
 51
90.0
  0
LINE
  5
19214
330
18AED
100
AcDbEntity
  8
U1
100
AcDbLine
 10
11585.32750789964
 20
8740.743182432325
 30
0.0
 11
11552.92750789964
 21
8740.743182432325
 31
0.0
  0
ARC
  5
19215
330
18AED
100
AcDbEntity
  8
U1
100
AcDbCircle
 10
11552.92750789963
 20
8734.443182432325
 30
0.0
 40
6.299999999999272
100
AcDbArc
 50
89.99999999998346
 51
180.0000000000165
  0
LINE
  5
19216
330
18AED
100
AcDbEntity
  8
U1
100
AcDbLine
 10
11546.62750789964
 20
8734.443182432325
 30
0.0
 11
11546.62750789964
 21
8682.043182432327
 31
0.0
  0
ARC
  5
19217
330
18AED
100
AcDbEntity
  8
U1
100
AcDbCircle
 10
11552.92750789963
 20
8682.043182432327
 30
0.0
 40
6.299999999999272
100
AcDbArc
 50
180.0
 51
270.0000000000164
  0
LINE
  5
19218
330
18AED
100
AcDbEntity
  8
U1
100
AcDbLine
 10
11552.92750789964
 20
8675.743182432324
 30
0.0
 11
11605.32750789964
 21
8675.743182432324
 31
0.0
  0
ARC
  5
19219
330
18AED
100
AcDbEntity
  8
U1
100
AcDbCircle
 10
11605.32750789964
 20
8682.043182432327
 30
0.0
 40
6.299999999999272
100
AcDbArc
 50
269.9999999999834
 51
0.0
  0
LINE
  5
1921A
330
18AED
100
AcDbEntity
  8
U1
100
AcDbLine
 10
11611.62750789964
 20
8682.043182432327
 30
0.0
 11
11611.62750789964
 21
8734.443182432325
 31
0.0
  0
ARC
  5
1921B
330
18AED
100
AcDbEntity
  8
U1
100
AcDbCircle
 10
11605.32750789964
 20
6924.443182432328
 30
0.0
 40
6.299999999999272
100
AcDbArc
 50
0.0
 51
90.00000000001655
  0
LINE
  5
1921C
330
18AED
100
AcDbEntity
  8
U1
100
AcDbLine
 10
11605.32750789964
 20
6930.743182432327
 30
0.0
 11
11597.92750789964
 21
6930.743182432327
 31
0.0
  0
ARC
  5
1921D
330
18AED
100
AcDbEntity
  8
U1
100
AcDbCircle
 10
11597.92750789964
 20
6924.443182432328
 30
0.0
 40
6.300000000000181
100
AcDbArc
 50
89.99999999998346
 51
180.0
  0
ARC
  5
1921E
330
18AED
100
AcDbEntity
  8
U1
100
AcDbCircle
 10
11585.32750789964
 20
6924.443182432328
 30
0.0
 40
6.299999999999272
100
AcDbArc
 50
0.0
 51
90.00000000001655
  0
LINE
  5
1921F
330
18AED
100
AcDbEntity
  8
U1
100
AcDbLine
 10
11585.32750789964
 20
6930.743182432327
 30
0.0
 11
11552.92750789964
 21
6930.743182432327
 31
0.0
  0
ARC
  5
19220
330
18AED
100
AcDbEntity
  8
U1
100
AcDbCircle
 10
11552.92750789963
 20
6924.443182432328
 30
0.0
 40
6.300000000000181
100
AcDbArc
 50
89.99999999998346
 51
180.0
  0
LINE
  5
19221
330
18AED
100
AcDbEntity
  8
U1
100
AcDbLine
 10
11546.62750789964
 20
6924.443182432328
 30
0.0
 11
11546.62750789964
 21
6872.043182432325
 31
0.0
  0
ARC
  5
19222
330
18AED
100
AcDbEntity
  8
U1
100
AcDbCircle
 10
11552.92750789963
 20
6872.043182432327
 30
0.0
 40
6.299999999999272
100
AcDbArc
 50
180.0000000000082
 51
270.0000000000164
  0
LINE
  5
19223
330
18AED
100
AcDbEntity
  8
U1
100
AcDbLine
 10
11552.92750789964
 20
6865.743182432327
 30
0.0
 11
11605.32750789964
 21
6865.743182432327
 31
0.0
  0
ARC
  5
19224
330
18AED
100
AcDbEntity
  8
U1
100
AcDbCircle
 10
11605.32750789964
 20
6872.043182432327
 30
0.0
 40
6.300000000000181
100
AcDbArc
 50
269.9999999999834
 51
359.9999999999917
  0
LINE
  5
19225
330
18AED
100
AcDbEntity
  8
U1
100
AcDbLine
 10
11611.62750789964
 20
6872.043182432325
 30
0.0
 11
11611.62750789964
 21
6924.443182432328
 31
0.0
  0
ARC
  5
19226
330
18AED
100
AcDbEntity
  8
U1
100
AcDbCircle
 10
9145.327507899635
 20
8734.443182432325
 30
0.0
 40
6.299999999999272
100
AcDbArc
 50
359.9999999999833
 51
90.0
  0
LINE
  5
19227
330
18AED
100
AcDbEntity
  8
U1
100
AcDbLine
 10
9145.327507899635
 20
8740.743182432325
 30
0.0
 11
9137.927507899636
 21
8740.743182432325
 31
0.0
  0
ARC
  5
19228
330
18AED
100
AcDbEntity
  8
U1
100
AcDbCircle
 10
9137.927507899636
 20
8734.443182432325
 30
0.0
 40
6.299999999999272
100
AcDbArc
 50
90.0
 51
180.0000000000165
  0
ARC
  5
19229
330
18AED
100
AcDbEntity
  8
U1
100
AcDbCircle
 10
9125.327507899635
 20
8734.443182432325
 30
0.0
 40
6.300000000001091
100
AcDbArc
 50
359.9999999999833
 51
89.99999999998346
  0
LINE
  5
1922A
330
18AED
100
AcDbEntity
  8
U1
100
AcDbLine
 10
9125.327507899639
 20
8740.743182432325
 30
0.0
 11
9092.927507899636
 21
8740.743182432325
 31
0.0
  0
ARC
  5
1922B
330
18AED
100
AcDbEntity
  8
U1
100
AcDbCircle
 10
9092.927507899636
 20
8734.443182432325
 30
0.0
 40
6.299999999999272
100
AcDbArc
 50
90.0
 51
180.0000000000165
  0
LINE
  5
1922C
330
18AED
100
AcDbEntity
  8
U1
100
AcDbLine
 10
9086.627507899637
 20
8734.443182432325
 30
0.0
 11
9086.627507899637
 21
8682.043182432327
 31
0.0
  0
ARC
  5
1922D
330
18AED
100
AcDbEntity
  8
U1
100
AcDbCircle
 10
9092.927507899636
 20
8682.043182432327
 30
0.0
 40
6.299999999999272
100
AcDbArc
 50
180.0
 51
270.0
  0
LINE
  5
1922E
330
18AED
100
AcDbEntity
  8
U1
100
AcDbLine
 10
9092.927507899636
 20
8675.743182432324
 30
0.0
 11
9145.327507899635
 21
8675.743182432324
 31
0.0
  0
ARC
  5
1922F
330
18AED
100
AcDbEntity
  8
U1
100
AcDbCircle
 10
9145.327507899635
 20
8682.043182432327
 30
0.0
 40
6.299999999999272
100
AcDbArc
 50
270.0
 51
0.0
  0
LINE
  5
19230
330
18AED
100
AcDbEntity
  8
U1
100
AcDbLine
 10
9151.627507899638
 20
8682.043182432327
 30
0.0
 11
9151.627507899638
 21
8734.443182432325
 31
0.0
  0
ARC
  5
19231
330
18AED
100
AcDbEntity
  8
U1
100
AcDbCircle
 10
9145.327507899635
 20
6924.443182432328
 30
0.0
 40
6.299999999999272
100
AcDbArc
 50
359.9999999999917
 51
90.0
  0
LINE
  5
19232
330
18AED
100
AcDbEntity
  8
U1
100
AcDbLine
 10
9145.327507899635
 20
6930.743182432327
 30
0.0
 11
9137.927507899636
 21
6930.743182432327
 31
0.0
  0
ARC
  5
19233
330
18AED
100
AcDbEntity
  8
U1
100
AcDbCircle
 10
9137.927507899636
 20
6924.443182432328
 30
0.0
 40
6.299999999999272
100
AcDbArc
 50
90.0
 51
180.0000000000082
  0
ARC
  5
19234
330
18AED
100
AcDbEntity
  8
U1
100
AcDbCircle
 10
9125.327507899639
 20
6924.443182432328
 30
0.0
 40
6.299999999999272
100
AcDbArc
 50
359.9999999999917
 51
90.0
  0
LINE
  5
19235
330
18AED
100
AcDbEntity
  8
U1
100
AcDbLine
 10
9125.327507899639
 20
6930.743182432327
 30
0.0
 11
9092.927507899636
 21
6930.743182432327
 31
0.0
  0
ARC
  5
19236
330
18AED
100
AcDbEntity
  8
U1
100
AcDbCircle
 10
9092.927507899636
 20
6924.443182432328
 30
0.0
 40
6.299999999999272
100
AcDbArc
 50
90.0
 51
180.0000000000082
  0
LINE
  5
19237
330
18AED
100
AcDbEntity
  8
U1
100
AcDbLine
 10
9086.627507899637
 20
6924.443182432328
 30
0.0
 11
9086.627507899637
 21
6872.043182432325
 31
0.0
  0
ARC
  5
19238
330
18AED
100
AcDbEntity
  8
U1
100
AcDbCircle
 10
9092.927507899636
 20
6872.043182432325
 30
0.0
 40
6.299999999999272
100
AcDbArc
 50
180.0
 51
270.0
  0
LINE
  5
19239
330
18AED
100
AcDbEntity
  8
U1
100
AcDbLine
 10
9092.927507899636
 20
6865.743182432327
 30
0.0
 11
9145.327507899635
 21
6865.743182432327
 31
0.0
  0
ARC
  5
1923A
330
18AED
100
AcDbEntity
  8
U1
100
AcDbCircle
 10
9145.327507899635
 20
6872.043182432325
 30
0.0
 40
6.299999999999272
100
AcDbArc
 50
270.0
 51
0.0
  0
LINE
  5
1923B
330
18AED
100
AcDbEntity
  8
U1
100
AcDbLine
 10
9151.627507899638
 20
6872.043182432325
 30
0.0
 11
9151.627507899638
 21
6924.443182432328
 31
0.0
  0
ARC
  5
1923C
330
18AED
100
AcDbEntity
  8
U1
100
AcDbCircle
 10
7745.327507899638
 20
8734.443182432325
 30
0.0
 40
6.300000000000181
100
AcDbArc
 50
359.9999999999833
 51
90.0
  0
LINE
  5
1923D
330
18AED
100
AcDbEntity
  8
U1
100
AcDbLine
 10
7745.327507899638
 20
8740.743182432325
 30
0.0
 11
7737.927507899637
 21
8740.743182432325
 31
0.0
  0
ARC
  5
1923E
330
18AED
100
AcDbEntity
  8
U1
100
AcDbCircle
 10
7737.927507899637
 20
8734.443182432325
 30
0.0
 40
6.299999999999272
100
AcDbArc
 50
90.0
 51
180.0000000000165
  0
ARC
  5
1923F
330
18AED
100
AcDbEntity
  8
U1
100
AcDbCircle
 10
7725.327507899638
 20
8734.443182432325
 30
0.0
 40
6.300000000000181
100
AcDbArc
 50
359.9999999999833
 51
90.0
  0
LINE
  5
19240
330
18AED
100
AcDbEntity
  8
U1
100
AcDbLine
 10
7725.327507899638
 20
8740.743182432325
 30
0.0
 11
7692.927507899637
 21
8740.743182432325
 31
0.0
  0
ARC
  5
19241
330
18AED
100
AcDbEntity
  8
U1
100
AcDbCircle
 10
7692.927507899637
 20
8734.443182432325
 30
0.0
 40
6.299999999999272
100
AcDbArc
 50
90.0
 51
180.0000000000165
  0
LINE
  5
19242
330
18AED
100
AcDbEntity
  8
U1
100
AcDbLine
 10
7686.627507899638
 20
8734.443182432325
 30
0.0
 11
7686.627507899638
 21
8682.043182432327
 31
0.0
  0
ARC
  5
19243
330
18AED
100
AcDbEntity
  8
U1
100
AcDbCircle
 10
7692.927507899637
 20
8682.043182432327
 30
0.0
 40
6.299999999999272
100
AcDbArc
 50
180.0
 51
270.0000000000081
  0
LINE
  5
19244
330
18AED
100
AcDbEntity
  8
U1
100
AcDbLine
 10
7692.927507899637
 20
8675.743182432324
 30
0.0
 11
7745.327507899638
 21
8675.743182432324
 31
0.0
  0
ARC
  5
19245
330
18AED
100
AcDbEntity
  8
U1
100
AcDbCircle
 10
7745.32750789964
 20
8682.043182432327
 30
0.0
 40
6.299999999999272
100
AcDbArc
 50
269.9999999999918
 51
0.0
  0
LINE
  5
19246
330
18AED
100
AcDbEntity
  8
U1
100
AcDbLine
 10
7751.627507899637
 20
8682.043182432327
 30
0.0
 11
7751.627507899637
 21
8734.443182432325
 31
0.0
  0
ARC
  5
19247
330
18AED
100
AcDbEntity
  8
U1
100
AcDbCircle
 10
7745.32750789964
 20
6924.443182432328
 30
0.0
 40
6.299999999999272
100
AcDbArc
 50
359.9999999999917
 51
90.00000000000826
  0
LINE
  5
19248
330
18AED
100
AcDbEntity
  8
U1
100
AcDbLine
 10
7745.327507899638
 20
6930.743182432327
 30
0.0
 11
7737.927507899637
 21
6930.743182432327
 31
0.0
  0
ARC
  5
19249
330
18AED
100
AcDbEntity
  8
U1
100
AcDbCircle
 10
7737.927507899637
 20
6924.443182432328
 30
0.0
 40
6.299999999999272
100
AcDbArc
 50
89.99999999999173
 51
180.0000000000082
  0
ARC
  5
1924A
330
18AED
100
AcDbEntity
  8
U1
100
AcDbCircle
 10
7725.327507899638
 20
6924.443182432328
 30
0.0
 40
6.300000000000181
100
AcDbArc
 50
0.0
 51
90.0
  0
LINE
  5
1924B
330
18AED
100
AcDbEntity
  8
U1
100
AcDbLine
 10
7725.327507899638
 20
6930.743182432327
 30
0.0
 11
7692.927507899637
 21
6930.743182432327
 31
0.0
  0
ARC
  5
1924C
330
18AED
100
AcDbEntity
  8
U1
100
AcDbCircle
 10
7692.927507899637
 20
6924.443182432328
 30
0.0
 40
6.299999999999272
100
AcDbArc
 50
89.99999999999173
 51
180.0000000000082
  0
LINE
  5
1924D
330
18AED
100
AcDbEntity
  8
U1
100
AcDbLine
 10
7686.627507899638
 20
6924.443182432328
 30
0.0
 11
7686.627507899638
 21
6872.043182432325
 31
0.0
  0
ARC
  5
1924E
330
18AED
100
AcDbEntity
  8
U1
100
AcDbCircle
 10
7692.927507899637
 20
6872.043182432325
 30
0.0
 40
6.299999999999272
100
AcDbArc
 50
180.0
 51
270.0000000000081
  0
LINE
  5
1924F
330
18AED
100
AcDbEntity
  8
U1
100
AcDbLine
 10
7692.927507899637
 20
6865.743182432327
 30
0.0
 11
7745.327507899638
 21
6865.743182432327
 31
0.0
  0
ARC
  5
19250
330
18AED
100
AcDbEntity
  8
U1
100
AcDbCircle
 10
7745.32750789964
 20
6872.043182432325
 30
0.0
 40
6.299999999999272
100
AcDbArc
 50
269.9999999999918
 51
0.0
  0
LINE
  5
19251
330
18AED
100
AcDbEntity
  8
U1
100
AcDbLine
 10
7751.627507899637
 20
6872.043182432325
 30
0.0
 11
7751.627507899637
 21
6924.443182432328
 31
0.0
  0
ARC
  5
19252
330
18AED
100
AcDbEntity
  8
U1
100
AcDbCircle
 10
5285.327507899638
 20
8734.443182432325
 30
0.0
 40
6.300000000000181
100
AcDbArc
 50
359.9999999999833
 51
90.0
  0
LINE
  5
19253
330
18AED
100
AcDbEntity
  8
U1
100
AcDbLine
 10
5285.327507899638
 20
8740.743182432325
 30
0.0
 11
5277.927507899639
 21
8740.743182432325
 31
0.0
  0
ARC
  5
19254
330
18AED
100
AcDbEntity
  8
U1
100
AcDbCircle
 10
5277.927507899639
 20
8734.443182432325
 30
0.0
 40
6.299999999999272
100
AcDbArc
 50
90.0
 51
180.0000000000165
  0
ARC
  5
19255
330
18AED
100
AcDbEntity
  8
U1
100
AcDbCircle
 10
5265.327507899638
 20
8734.443182432325
 30
0.0
 40
6.300000000000181
100
AcDbArc
 50
359.9999999999833
 51
90.0
  0
LINE
  5
19256
330
18AED
100
AcDbEntity
  8
U1
100
AcDbLine
 10
5265.327507899638
 20
8740.743182432325
 30
0.0
 11
5232.927507899638
 21
8740.743182432325
 31
0.0
  0
ARC
  5
19257
330
18AED
100
AcDbEntity
  8
U1
100
AcDbCircle
 10
5232.927507899638
 20
8734.443182432325
 30
0.0
 40
6.299999999999272
100
AcDbArc
 50
90.0
 51
180.0000000000165
  0
LINE
  5
19258
330
18AED
100
AcDbEntity
  8
U1
100
AcDbLine
 10
5226.627507899639
 20
8734.443182432325
 30
0.0
 11
5226.627507899639
 21
8682.043182432327
 31
0.0
  0
ARC
  5
19259
330
18AED
100
AcDbEntity
  8
U1
100
AcDbCircle
 10
5232.927507899638
 20
8682.043182432327
 30
0.0
 40
6.299999999999272
100
AcDbArc
 50
180.0
 51
270.0000000000081
  0
LINE
  5
1925A
330
18AED
100
AcDbEntity
  8
U1
100
AcDbLine
 10
5232.927507899638
 20
8675.743182432324
 30
0.0
 11
5285.327507899638
 21
8675.743182432324
 31
0.0
  0
ARC
  5
1925B
330
18AED
100
AcDbEntity
  8
U1
100
AcDbCircle
 10
5285.327507899641
 20
8682.043182432327
 30
0.0
 40
6.299999999999272
100
AcDbArc
 50
269.9999999999918
 51
0.0
  0
LINE
  5
1925C
330
18AED
100
AcDbEntity
  8
U1
100
AcDbLine
 10
5291.627507899637
 20
8682.043182432327
 30
0.0
 11
5291.627507899637
 21
8734.443182432325
 31
0.0
  0
ARC
  5
1925D
330
18AED
100
AcDbEntity
  8
U1
100
AcDbCircle
 10
5285.327507899641
 20
6924.443182432328
 30
0.0
 40
6.299999999999272
100
AcDbArc
 50
359.9999999999917
 51
90.00000000000826
  0
LINE
  5
1925E
330
18AED
100
AcDbEntity
  8
U1
100
AcDbLine
 10
5285.327507899638
 20
6930.743182432327
 30
0.0
 11
5277.927507899639
 21
6930.743182432327
 31
0.0
  0
ARC
  5
1925F
330
18AED
100
AcDbEntity
  8
U1
100
AcDbCircle
 10
5277.927507899637
 20
6924.443182432328
 30
0.0
 40
6.299999999999272
100
AcDbArc
 50
89.99999999999173
 51
180.0000000000082
  0
ARC
  5
19260
330
18AED
100
AcDbEntity
  8
U1
100
AcDbCircle
 10
5265.327507899638
 20
6924.443182432328
 30
0.0
 40
6.300000000000181
100
AcDbArc
 50
0.0
 51
90.0
  0
LINE
  5
19261
330
18AED
100
AcDbEntity
  8
U1
100
AcDbLine
 10
5265.327507899638
 20
6930.743182432327
 30
0.0
 11
5232.927507899638
 21
6930.743182432327
 31
0.0
  0
ARC
  5
19262
330
18AED
100
AcDbEntity
  8
U1
100
AcDbCircle
 10
5232.927507899638
 20
6924.443182432328
 30
0.0
 40
6.299999999999272
100
AcDbArc
 50
89.99999999999173
 51
180.0000000000082
  0
LINE
  5
19263
330
18AED
100
AcDbEntity
  8
U1
100
AcDbLine
 10
5226.627507899639
 20
6924.443182432328
 30
0.0
 11
5226.627507899639
 21
6872.043182432325
 31
0.0
  0
ARC
  5
19264
330
18AED
100
AcDbEntity
  8
U1
100
AcDbCircle
 10
5232.927507899638
 20
6872.043182432325
 30
0.0
 40
6.299999999999272
100
AcDbArc
 50
180.0
 51
270.0000000000081
  0
LINE
  5
19265
330
18AED
100
AcDbEntity
  8
U1
100
AcDbLine
 10
5232.927507899638
 20
6865.743182432327
 30
0.0
 11
5285.327507899638
 21
6865.743182432327
 31
0.0
  0
ARC
  5
19266
330
18AED
100
AcDbEntity
  8
U1
100
AcDbCircle
 10
5285.327507899641
 20
6872.043182432325
 30
0.0
 40
6.299999999999272
100
AcDbArc
 50
269.9999999999918
 51
0.0
  0
LINE
  5
19267
330
18AED
100
AcDbEntity
  8
U1
100
AcDbLine
 10
5291.627507899637
 20
6872.043182432325
 30
0.0
 11
5291.627507899637
 21
6924.443182432328
 31
0.0
  0
TEXT
  5
19289
330
18AED
100
AcDbEntity
  8
SUNPOU
100
AcDbText
 10
2050.429142060128
 20
5803.717442063287
 30
0.0
 40
73.84615384615384
  1
1
 41
0.6700000000000001
  7
00
 11
2050.429142060128
 21
5793.871288217133
 31
0.0
100
AcDbText
 73
     1
  0
TEXT
  5
1928A
330
18AED
100
AcDbEntity
  8
SUNPOU
100
AcDbText
 10
1730.726440207043
 20
5787.717442063286
 30
0.0
 40
92.30769230769228
  1
（ S = 　　  ）
 41
0.6700000000000001
  7
00
 11
1730.726440207043
 21
5775.409749755594
 31
0.0
100
AcDbText
 73
     1
  0
TEXT
  5
1928B
330
18AED
100
AcDbEntity
  8
SUNPOU
100
AcDbText
 10
1013.876102844073
 20
5775.409749755596
 30
0.0
 40
120.0
  1
基礎断面図
  7
01
 72
     4
 11
1353.876102844073
 21
5835.409749755596
 31
0.0
100
AcDbText
  0
TEXT
  5
1928C
330
18AED
100
AcDbEntity
  8
SUNPOU
100
AcDbText
 10
2162.784712329868
 20
5766.794365140209
 30
0.0
 40
73.84615384615384
  1
25
 41
0.6700000000000001
  7
00
 11
2162.784712329868
 21
5756.948211294055
 31
0.0
100
AcDbText
 73
     1
  0
TEXT
  5
1928D
330
18AED
100
AcDbEntity
  8
SUNPOU
100
AcDbText
 10
2098.8352693755
 20
5785.255903601748
 30
0.0
 40
73.84615384615384
  1
/
 41
0.6700000000000001
  7
00
 11
2098.8352693755
 21
5775.409749755594
 31
0.0
100
AcDbText
 73
     1
  0
TEXT
  5
1928E
330
18AED
100
AcDbEntity
  8
SUNPOU
100
AcDbText
 10
1394.038333792556
 20
5049.370033023926
 30
0.0
 40
90.0
  1
寒冷地の場合、凍結深度等を考慮し、実情に
  7
01
100
AcDbText
  0
TEXT
  5
1928F
330
18AED
100
AcDbEntity
  8
SUNPOU
100
AcDbText
 10
1394.038333792556
 20
4740.798604452494
 30
0.0
 40
90.0
  1
その他現地の実情にあわせて設計して下さい。
  7
01
100
AcDbText
  0
TEXT
  5
19290
330
18AED
100
AcDbEntity
  8
SUNPOU
100
AcDbText
 10
1019.082588703162
 20
5428.655747309637
 30
0.0
 40
89.9993750043402
  1
地耐力   　　　 以上,コンクリート設計基準強度　　　　　以上
  7
01
100
AcDbText
  0
TEXT
  5
19291
330
18AED
100
AcDbEntity
  8
SUNPOU
100
AcDbText
 10
888.5189599869306
 20
5617.909749755594
 30
0.0
 40
90.0
  1
<下記条件での参考図>
  7
01
 72
     4
 11
1477.376102844073
 21
5662.909749755594
 31
0.0
100
AcDbText
  0
TEXT
  5
19292
330
18AED
100
AcDbEntity
  8
SUNPOU
100
AcDbText
 10
1394.038333792556
 20
4895.084318738208
 30
0.0
 40
90.0
  1
あわせて設計して下さい。
  7
01
100
AcDbText
  0
TEXT
  5
19293
330
18AED
100
AcDbEntity
  8
SUNPOU
100
AcDbText
 10
1019.082588703162
 20
5274.370033023926
 30
0.0
 40
89.9993750043402
  1
基準風速   　　 , 地表面粗度区分
  7
01
100
AcDbText
  0
TEXT
  5
19294
330
18AED
100
AcDbEntity
  8
SUNPOU
100
AcDbText
 10
1077.198668490419
 20
4740.798604452494
 30
0.0
 40
90.0
  1
注　）
  7
01
100
AcDbText
  0
TEXT
  5
19295
330
18AED
100
AcDbEntity
  8
SUNPOU
100
AcDbText
 10
1187.83258870316
 20
4740.798604452494
 30
0.0
 40
90.0
  1
2
 41
0.6700000000000001
  7
01
100
AcDbText
  0
TEXT
  5
19296
330
18AED
100
AcDbEntity
  8
SUNPOU
100
AcDbText
 10
1077.198668490419
 20
5049.370033023926
 30
0.0
 40
90.0
  1
注　）
  7
01
100
AcDbText
  0
TEXT
  5
19297
330
18AED
100
AcDbEntity
  8
SUNPOU
100
AcDbText
 10
1187.83258870316
 20
5049.370033023926
 30
0.0
 40
90.0
  1
1
 41
0.6700000000000001
  7
01
100
AcDbText
  0
ARC
  5
19298
330
18AED
100
AcDbEntity
  8
SUNPOU
100
AcDbCircle
 10
1172.040862610366
 20
5392.443170751469
 30
0.0
 40
225.0
100
AcDbArc
 50
148.3472725282829
 51
211.652727471717
  0
TEXT
  5
19299
330
18AED
100
AcDbEntity
  8
SUNPOU
100
AcDbText
 10
1502.846017368329
 20
5274.370033023926
 30
0.0
 40
89.9993750043402
  1
34 m/s
 41
0.6700000000000001
  7
01
100
AcDbText
  0
TEXT
  5
1929A
330
18AED
100
AcDbEntity
  8
SUNPOU
100
AcDbText
 10
1393.340996128244
 20
5428.655747309637
 30
0.0
 40
89.9993750043402
  1
50  N/m
 41
0.6700000000000001
  7
01
100
AcDbText
  0
TEXT
  5
1929B
330
18AED
100
AcDbEntity
  8
SUNPOU
100
AcDbText
 10
1529.177448914198
 20
5428.655747309637
 30
0.0
 40
71.99950000347218
  1
K
 41
0.6700000000000001
  7
01
100
AcDbText
  0
TEXT
  5
1929C
330
18AED
100
AcDbEntity
  8
SUNPOU
100
AcDbText
 10
1796.81760564258
 20
5478.844173667124
 30
0.0
 40
46.28539285937498
  1
2
 41
0.6700000000000001
  7
00
100
AcDbText
  0
LINE
  5
1929D
330
18AED
100
AcDbEntity
  8
SUNPOU
100
AcDbLine
 10
2810.898150269769
 20
5357.862396722704
 30
0.0
 11
2867.14815026977
 21
5357.862396722704
 31
0.0
  0
LINE
  5
1929E
330
18AED
100
AcDbEntity
  8
SUNPOU
100
AcDbLine
 10
2810.898150269769
 20
5274.370033023922
 30
0.0
 11
2867.14815026977
 21
5274.370033023922
 31
0.0
  0
LINE
  5
1929F
330
18AED
100
AcDbEntity
  8
SUNPOU
100
AcDbLine
 10
2822.14815026977
 20
5274.370033023926
 30
0.0
 11
2822.14815026977
 21
5357.862396722704
 31
0.0
  0
LINE
  5
192A0
330
18AED
100
AcDbEntity
  8
SUNPOU
100
AcDbLine
 10
2839.02315026977
 20
5274.370033023926
 30
0.0
 11
2839.02315026977
 21
5357.862396722704
 31
0.0
  0
LINE
  5
192A1
330
18AED
100
AcDbEntity
  8
SUNPOU
100
AcDbLine
 10
2855.898150269769
 20
5274.370033023926
 30
0.0
 11
2855.898150269769
 21
5357.862396722704
 31
0.0
  0
TEXT
  5
192A2
330
18AED
100
AcDbEntity
  8
SUNPOU
100
AcDbText
 10
3599.266266379808
 20
5428.655747309637
 30
0.0
 40
89.9993750043402
  1
N/mm
 41
0.6700000000000001
  7
01
100
AcDbText
  0
TEXT
  5
192A3
330
18AED
100
AcDbEntity
  8
SUNPOU
100
AcDbText
 10
3463.429813593858
 20
5428.655747309637
 30
0.0
 40
89.9993750043402
  1
18
 41
0.6700000000000001
  7
01
100
AcDbText
  0
ARC
  5
192A4
330
18AED
100
AcDbEntity
  8
SUNPOU
100
AcDbCircle
 10
4073.481145861928
 20
5392.443170751469
 30
0.0
 40
225.0
100
AcDbArc
 50
328.3472725282829
 51
31.65272747171703
  0
TEXT
  5
192A5
330
18AED
100
AcDbEntity
  8
SUNPOU
100
AcDbText
 10
3903.730748411214
 20
5478.844173667124
 30
0.0
 40
46.28539285937498
  1
2
 41
0.6700000000000001
  7
00
100
AcDbText
  0
ENDSEC
  0
SECTION
  2
OBJECTS
  0
DICTIONARY
  5
18ADB
330
0
100
AcDbDictionary
281
     1
  3
ACAD_GROUP
350
18ADC
  3
ACAD_LAYOUT
350
18AE8
  3
ACAD_MLINESTYLE
350
18AE5
  3
ACAD_PLOTSETTINGS
350
18AE7
  3
ACAD_PLOTSTYLENAME
350
18ADD
  3
AcDbVariableDictionary
350
192A6
  0
DICTIONARY
  5
18ADC
102
{ACAD_REACTORS
330
18ADB
102
}
330
18ADB
100
AcDbDictionary
281
     1
  0
DICTIONARY
  5
18AE8
102
{ACAD_REACTORS
330
18ADB
102
}
330
18ADB
100
AcDbDictionary
281
     1
  3
Model
350
18AF0
  3
ﾚｲｱｳﾄ1
350
18AEC
  0
DICTIONARY
  5
18AE5
102
{ACAD_REACTORS
330
18ADB
102
}
330
18ADB
100
AcDbDictionary
281
     1
  3
Standard
350
18AE6
  0
DICTIONARY
  5
18AE7
102
{ACAD_REACTORS
330
18ADB
102
}
330
18ADB
100
AcDbDictionary
281
     1
  0
ACDBDICTIONARYWDFLT
  5
18ADD
102
{ACAD_REACTORS
330
18ADB
102
}
330
18ADB
100
AcDbDictionary
281
     1
  3
Normal
350
18ADE
100
AcDbDictionaryWithDefault
340
18ADE
  0
DICTIONARY
  5
192A6
102
{ACAD_REACTORS
330
18ADB
102
}
330
18ADB
100
AcDbDictionary
281
     1
  3
DIMASSOC
350
192A7
  0
LAYOUT
  5
18AF0
102
{ACAD_REACTORS
330
18AE8
102
}
330
18AE8
100
AcDbPlotSettings
  1

  2
Muratec V-1200 Is@Web Printer
  4

  6

 40
0.0
 41
0.0
 42
0.0
 43
0.0
 44
0.0
 45
0.0
 46
0.0
 47
0.0
 48
0.0
 49
0.0
140
0.0
141
0.0
142
1.0
143
1.0
 70
  1712
 72
     0
 73
     0
 74
     0
  7

 75
     0
147
1.0
148
0.0
149
0.0
100
AcDbLayout
  1
Model
 70
     1
 71
     0
 10
0.0
 20
0.0
 11
12.0
 21
9.0
 12
0.0
 22
0.0
 32
0.0
 14
0.0
 24
0.0
 34
0.0
 15
0.0
 25
0.0
 35
0.0
146
0.0
 13
0.0
 23
0.0
 33
0.0
 16
1.0
 26
0.0
 36
0.0
 17
0.0
 27
1.0
 37
0.0
 76
     0
330
18AED
  0
LAYOUT
  5
18AEC
102
{ACAD_REACTORS
330
18AE8
102
}
330
18AE8
100
AcDbPlotSettings
  1

  2
Muratec V-1200 Is@Web Printer
  4

  6

 40
0.0
 41
0.0
 42
0.0
 43
0.0
 44
0.0
 45
0.0
 46
0.0
 47
0.0
 48
0.0
 49
0.0
140
0.0
141
0.0
142
1.0
143
1.0
 70
   688
 72
     0
 73
     0
 74
     5
  7

 75
    16
147
1.0
148
0.0
149
0.0
100
AcDbLayout
  1
ﾚｲｱｳﾄ1
 70
     0
 71
     1
 10
0.0
 20
0.0
 11
12.0
 21
9.0
 12
0.0
 22
0.0
 32
0.0
 14
1.000000000000000E+20
 24
1.000000000000000E+20
 34
1.000000000000000E+20
 15
-1.000000000000000E+20
 25
-1.000000000000000E+20
 35
-1.000000000000000E+20
146
0.0
 13
0.0
 23
0.0
 33
0.0
 16
1.0
 26
0.0
 36
0.0
 17
0.0
 27
1.0
 37
0.0
 76
     0
330
18AE9
  0
MLINESTYLE
  5
18AE6
102
{ACAD_REACTORS
330
18AE5
102
}
330
18AE5
100
AcDbMlineStyle
  2
STANDARD
 70
     0
  3

 62
   256
 51
90.0
 52
90.0
 71
     2
 49
0.5
 62
   256
  6
BYLAYER
 49
-0.5
 62
   256
  6
BYLAYER
  0
ACDBPLACEHOLDER
  5
18ADE
102
{ACAD_REACTORS
330
18ADD
102
}
330
18ADD
  0
DICTIONARYVAR
  5
192A7
102
{ACAD_REACTORS
330
192A6
102
}
330
192A6
100
DictionaryVariables
280
     0
  1
1
  0
ENDSEC
  0
EOF
