  0
SECTION
  2
HEADER
  9
$ACADVER
  1
AC1009
  9
$INSBASE
 10
267.00000000000011
 20
194.89999999999981
 30
0.0
  9
$EXTMIN
 10
433.9966216520333
 20
163.69082374927891
 30
-0.0015258207003583
  9
$EXTMAX
 10
16382.6660542547
 20
11242.27663824599
 30
0.0000000349246037
  9
$LIMMIN
 10
0.0
 20
0.0
  9
$LIMMAX
 10
16800.0
 20
11880.0
  9
$ORTHOMODE
 70
     0
  9
$REGENMODE
 70
     1
  9
$FILLMODE
 70
     1
  9
$QTEXTMODE
 70
     0
  9
$MIRRTEXT
 70
     0
  9
$DRAGMODE
 70
     2
  9
$LTSCALE
 40
40.0
  9
$OSMODE
 70
  3071
  9
$ATTMODE
 70
     1
  9
$TEXTSIZE
 40
0.2
  9
$TRACEWID
 40
0.05
  9
$TEXTSTYLE
  7
00
  9
$CLAYER
  8
SUNPOU
  9
$CELTYPE
  6
BYLAYER
  9
$CECOLOR
 62
   256
  9
$DIMSCALE
 40
30.0
  9
$DIMASZ
 40
0.5
  9
$DIMEXO
 40
1.0
  9
$DIMDLI
 40
7.0
  9
$DIMRND
 40
0.0
  9
$DIMDLE
 40
3.0
  9
$DIMEXE
 40
1.5
  9
$DIMTP
 40
0.0
  9
$DIMTM
 40
0.0
  9
$DIMTXT
 40
3.0
  9
$DIMCEN
 40
0.0
  9
$DIMTSZ
 40
0.0
  9
$DIMTOL
 70
     0
  9
$DIMLIM
 70
     0
  9
$DIMTIH
 70
     0
  9
$DIMTOH
 70
     0
  9
$DIMSE1
 70
     0
  9
$DIMSE2
 70
     0
  9
$DIMTAD
 70
     1
  9
$DIMZIN
 70
     8
  9
$DIMBLK
  1
DOT
  9
$DIMASO
 70
     1
  9
$DIMSHO
 70
     0
  9
$DIMPOST
  1

  9
$DIMAPOST
  1

  9
$DIMALT
 70
     0
  9
$DIMALTD
 70
     2
  9
$DIMALTF
 40
25.399999999999999
  9
$DIMLFAC
 40
1.0
  9
$DIMTOFL
 70
     1
  9
$DIMTVP
 40
0.0
  9
$DIMTIX
 70
     0
  9
$DIMSOXD
 70
     0
  9
$DIMSAH
 70
     1
  9
$DIMBLK1
  1
DOT
  9
$DIMBLK2
  1
DOT
  9
$DIMSTYLE
  2
SUNPOU_図面名
  9
$DIMCLRD
 70
   256
  9
$DIMCLRE
 70
   256
  9
$DIMCLRT
 70
   256
  9
$DIMTFAC
 40
1.0
  9
$DIMGAP
 40
1.5
  9
$LUNITS
 70
     2
  9
$LUPREC
 70
     2
  9
$SKETCHINC
 40
0.1
  9
$FILLETRAD
 40
0.0
  9
$AUNITS
 70
     0
  9
$AUPREC
 70
     0
  9
$MENU
  1
A:\TIGER\MENU\TIGER
  9
$ELEVATION
 40
0.0
  9
$PELEVATION
 40
0.0
  9
$THICKNESS
 40
0.0
  9
$LIMCHECK
 70
     0
  9
$BLIPMODE
 70
     1
  9
$CHAMFERA
 40
0.0
  9
$CHAMFERB
 40
0.0
  9
$SKPOLY
 70
     0
  9
$TDCREATE
 40
2450266.5710648149
  9
$TDUPDATE
 40
2456399.4380011111
  9
$TDINDWG
 40
0.1454186574
  9
$TDUSRTIMER
 40
0.1454184722
  9
$USRTIMER
 70
     1
  9
$ANGBASE
 50
0.0
  9
$ANGDIR
 70
     0
  9
$PDMODE
 70
     0
  9
$PDSIZE
 40
0.0
  9
$PLINEWID
 40
0.0
  9
$COORDS
 70
     1
  9
$SPLFRAME
 70
     0
  9
$SPLINETYPE
 70
     6
  9
$SPLINESEGS
 70
     8
  9
$ATTDIA
 70
     0
  9
$ATTREQ
 70
     1
  9
$HANDLING
 70
     1
  9
$HANDSEED
  5
1762A
  9
$SURFTAB1
 70
     6
  9
$SURFTAB2
 70
     6
  9
$SURFTYPE
 70
     6
  9
$SURFU
 70
     6
  9
$SURFV
 70
     6
  9
$UCSNAME
  2

  9
$UCSORG
 10
0.0
 20
0.0
 30
0.0
  9
$UCSXDIR
 10
1.0
 20
0.0
 30
0.0
  9
$UCSYDIR
 10
0.0
 20
1.0
 30
0.0
  9
$PUCSNAME
  2

  9
$PUCSORG
 10
0.0
 20
0.0
 30
0.0
  9
$PUCSXDIR
 10
1.0
 20
0.0
 30
0.0
  9
$PUCSYDIR
 10
0.0
 20
1.0
 30
0.0
  9
$USERI1
 70
     3
  9
$USERI2
 70
     0
  9
$USERI3
 70
     0
  9
$USERI4
 70
     0
  9
$USERI5
 70
  1103
  9
$USERR1
 40
0.0
  9
$USERR2
 40
1.0
  9
$USERR3
 40
0.0
  9
$USERR4
 40
0.0
  9
$USERR5
 40
0.0
  9
$WORLDVIEW
 70
     1
  9
$SHADEDGE
 70
     3
  9
$SHADEDIF
 70
    70
  9
$TILEMODE
 70
     1
  9
$MAXACTVP
 70
    16
  9
$PLIMCHECK
 70
     0
  9
$PEXTMIN
 10
1.0000000000000000E+020
 20
1.0000000000000000E+020
 30
1.0000000000000000E+020
  9
$PEXTMAX
 10
-1.0000000000000000E+020
 20
-1.0000000000000000E+020
 30
-1.0000000000000000E+020
  9
$PLIMMIN
 10
0.0
 20
0.0
  9
$PLIMMAX
 10
12.0
 20
9.0
  9
$UNITMODE
 70
     0
  9
$VISRETAIN
 70
     0
  9
$PLINEGEN
 70
     1
  9
$PSLTSCALE
 70
     0
  0
ENDSEC
  0
SECTION
  2
TABLES
  0
TABLE
  2
VPORT
 70
     1
  0
VPORT
  2
*ACTIVE
 70
     0
 10
0.0
 20
0.0
 11
1.0
 21
1.0
 12
8400.0
 22
5940.0
 13
0.0
 23
0.0
 14
1.0
 24
1.0
 15
0.0
 25
0.0
 16
0.0
 26
0.0
 36
1.0
 17
0.0
 27
0.0
 37
0.0
 40
11982.120343839541
 41
1.6944045911047341
 42
50.0
 43
0.0
 44
0.0
 50
0.0
 51
0.0
 71
     0
 72
 10000
 73
     1
 74
     0
 75
     0
 76
     0
 77
     0
 78
     0
  0
ENDTAB
  0
TABLE
  2
LTYPE
 70
     6
  0
LTYPE
  2
CONTINUOUS
 70
     0
  3
実線
 72
    65
 73
     0
 40
0.0
  0
LTYPE
  2
1PL-LL
 70
     0
  3

 72
    65
 73
     4
 40
106.0
 49
100.0
 49
-2.0
 49
2.0
 49
-2.0
  0
LTYPE
  2
1PL-M
 70
     0
  3

 72
    65
 73
     4
 40
15.0
 49
12.0
 49
-1.0
 49
1.0
 49
-1.0
  0
LTYPE
  2
2PL-L
 70
     0
  3

 72
    65
 73
     6
 40
60.0
 49
50.0
 49
-2.0
 49
2.0
 49
-2.0
 49
2.0
 49
-2.0
  0
LTYPE
  2
1PL-12
 70
     0
  3

 72
    65
 73
     4
 40
15.0
 49
12.0
 49
-1.0
 49
1.0
 49
-1.0
  0
LTYPE
  2
PHANTOM2
 70
     0
  3
Phantom (.5x) ___ _ _ ___ _ _ ___ _ _ ___ _ _
 72
    65
 73
     6
 40
1.25
 49
0.625
 49
-0.125
 49
0.125
 49
-0.125
 49
0.125
 49
-0.125
  0
ENDTAB
  0
TABLE
  2
LAYER
 70
    22
  0
LAYER
  2
0
 70
     0
 62
     7
  6
CONTINUOUS
  0
LAYER
  2
U1
 70
     0
 62
     3
  6
CONTINUOUS
  0
LAYER
  2
U3
 70
     0
 62
     6
  6
CONTINUOUS
  0
LAYER
  2
SUNPOU
 70
     0
 62
     4
  6
CONTINUOUS
  0
LAYER
  2
HIKIDASHI
 70
     0
 62
     6
  6
CONTINUOUS
  0
LAYER
  2
1PL-M1
 70
     0
 62
     6
  6
1PL-M
  0
LAYER
  2
NAME
 70
     0
 62
    20
  6
CONTINUOUS
  0
LAYER
  2
FILENAME
 70
     0
 62
     7
  6
CONTINUOUS
  0
LAYER
  2
CENTER
 70
     0
 62
     6
  6
1PL-LL
  0
LAYER
  2
KISO
 70
     0
 62
     2
  6
CONTINUOUS
  0
LAYER
  2
YANE
 70
     0
 62
     1
  6
1PL-12
  0
LAYER
  2
HATCH
 70
     0
 62
     1
  6
CONTINUOUS
  0
LAYER
  2
HASHIRA
 70
     0
 62
     3
  6
CONTINUOUS
  0
LAYER
  2
TEKKIN
 70
     0
 62
     2
  6
CONTINUOUS
  0
LAYER
  2
DOMAKON
 70
     0
 62
     2
  6
CONTINUOUS
  0
LAYER
  2
YODOROGO
 70
     0
 62
   130
  6
CONTINUOUS
  0
LAYER
  2
WAKUSEN-01
 70
     0
 62
    50
  6
CONTINUOUS
  0
LAYER
  2
WAKUSEN-02
 70
     0
 62
   130
  6
CONTINUOUS
  0
LAYER
  2
WAKUMOJI-01
 70
     0
 62
   130
  6
CONTINUOUS
  0
ENDTAB
  0
TABLE
  2
STYLE
 70
     5
  0
STYLE
  2
STANDARD
 70
     0
 40
3.0
 41
1.0
 50
0.0
 71
     0
 42
0.2
  3
ROMANS
  4
EXTFONT
  0
STYLE
  2
01
 70
     0
 40
3.0
 41
1.0
 50
0.0
 71
     0
 42
0.2
  3
ROMANS
  4
BIGFONT
  0
STYLE
  2
00
 70
     0
 40
0.0
 41
0.6666666666666666
 50
0.0
 71
     0
 42
0.2
  3
ROMANS
  4
BIGFONT
  0
STYLE
  2
WAKUMOJI
 70
     0
 40
3.0
 41
1.0
 50
0.0
 71
     0
 42
3.0
  3
SIMPLEX
  4
BIGFONT
  0
STYLE
  2
FILENAME
 70
     0
 40
100.0
 41
1.0
 50
0.0
 71
     0
 42
100.0
  3
romans
  4
bigfont
  0
ENDTAB
  0
TABLE
  2
VIEW
 70
     0
  0
ENDTAB
  0
TABLE
  2
UCS
 70
     0
  0
ENDTAB
  0
TABLE
  2
APPID
 70
     5
  0
APPID
  2
ACAD
 70
     0
  0
APPID
  2
AUTOCAD_POSTSCRIPT_FIGURE
 70
     0
  0
APPID
  2
ACAD_PSEXT
 70
     0
  0
APPID
  2
ACAD_MLEADERVER
 70
     0
  0
APPID
  2
ACAD_NAV_VCDISPLAY
 70
     0
  0
ENDTAB
  0
TABLE
  2
DIMSTYLE
 70
     2
  0
DIMSTYLE
  2
SUNPOU_図面名
 70
     0
  3

  4

  5
DOT
  6
DOT
  7
DOT
 40
30.0
 41
0.5
 42
1.0
 43
7.0
 44
1.5
 45
0.0
 46
3.0
 47
0.0
 48
0.0
140
3.0
141
0.0
142
0.0
143
25.399999999999999
144
1.0
145
0.0
146
1.0
147
1.5
 71
     0
 72
     0
 73
     0
 74
     0
 75
     0
 76
     0
 77
     1
 78
     8
170
     0
171
     2
172
     1
173
     1
174
     0
175
     0
176
   256
177
   256
178
   256
  0
ENDTAB
  0
ENDSEC
  0
SECTION
  2
BLOCKS
  0
BLOCK
  8
0
  2
$MODEL_SPACE
 70
     0
 10
0.0
 20
0.0
 30
0.0
  3
$MODEL_SPACE
  1

  0
ENDBLK
  5
125F7
  8
0
  0
BLOCK
 67
     1
  8
0
  2
$PAPER_SPACE
 70
     0
 10
0.0
 20
0.0
 30
0.0
  3
$PAPER_SPACE
  1

  0
ENDBLK
  5
125F5
 67
     1
  8
0
  0
BLOCK
  8
0
  2
DOT
 70
     0
 10
0.0
 20
0.0
 30
0.0
  3
DOT
  1

  0
POLYLINE
  5
12987
  8
0
  6
BYBLOCK
 62
     0
 66
     1
 10
0.0
 20
0.0
 30
0.0
 70
     1
 40
0.75
 41
0.75
  0
VERTEX
  5
175EC
  8
0
  6
BYBLOCK
 62
     0
 10
-0.375
 20
0.0
 30
0.0
 42
1.0
  0
VERTEX
  5
175ED
  8
0
  6
BYBLOCK
 62
     0
 10
0.375
 20
0.0
 30
0.0
 42
1.0
  0
SEQEND
  5
175EE
  8
0
  6
BYBLOCK
 62
     0
  0
LINE
  5
12988
  8
0
  6
BYBLOCK
 62
     0
 10
-0.75
 20
0.0
 30
0.0
 11
-1.5
 21
0.0
 31
0.0
  0
ENDBLK
  5
12989
  8
0
  0
ENDSEC
  0
SECTION
  2
ENTITIES
  0
TEXT
  5
12ADD
  8
NAME
 10
11516.075080823641
 20
875.0
 30
0.0
 40
120.0
  1
（埋め込み方式）
  7
01
 72
     4
 11
12072.075080823641
 21
935.0
 31
0.0
  0
TEXT
  5
1546C
  8
HIKIDASHI
 10
9007.4262794430233
 20
5992.0596242632982
 30
0.0
 40
80.0
  1
)
 41
0.6700000000000002
  7
00
  0
TEXT
  5
1546D
  8
HIKIDASHI
 10
8806.567530753644
 20
6007.6211020114933
 30
0.0
 40
80.0
  1
1
 41
0.6700000000000002
  7
00
  0
TEXT
  5
1546E
  8
HIKIDASHI
 10
8839.7046686179528
 20
5992.0596242632982
 30
0.0
 40
80.0
  1
/
 41
0.6700000000000002
  7
00
  0
TEXT
  5
1546F
  8
HIKIDASHI
 10
8885.9998233805964
 20
5965.8917930630178
 30
0.0
 40
80.0
  1
40
 41
0.6700000000000002
  7
00
  0
TEXT
  5
15470
  8
HIKIDASHI
 10
8625.8596148159704
 20
5992.0596242632982
 30
0.0
 40
80.0
  1
(S=
 41
0.6700000000000002
  7
00
  0
TEXT
  5
15471
  8
HIKIDASHI
 10
7783.8596148159713
 20
5968.2431824323276
 30
0.0
 40
120.0
  1
基 礎 伏 図
  7
01
 72
     2
 11
8535.8596148159704
 21
5968.2431824323276
 31
0.0
  0
TEXT
  5
159C6
  8
NAME
 10
12854.799999999999
 20
541.00000000000011
 30
0.0
 40
160.0
  1
<3／3>
 41
0.6
  7
01
 72
     2
 11
13354.0
 21
541.00000000000011
 31
0.0
  0
TEXT
  5
159C7
  8
NAME
 10
10789.37598063762
 20
541.0
 30
0.0
 40
160.0
  1
YOKCS-280
 41
0.7
  7
01
 72
     2
 11
11776.04264730429
 21
541.0
 31
0.0
  0
TEXT
  5
159C8
  8
NAME
 10
11816.04264730429
 20
541.0
 30
0.0
 40
160.0
  1
型（積雪地用）
 41
0.8
  7
01
  0
TEXT
  5
162A2
  8
SUNPOU
 10
7599.6229455070124
 20
2205.5617518022559
 30
0.0
 40
90.0
  1
2
 41
0.6700000000000002
  7
01
  0
TEXT
  5
162A3
  8
SUNPOU
 10
7488.9890252942687
 20
2205.5617518022559
 30
0.0
 40
90.0
  1
注　）
  7
01
  0
TEXT
  5
162A4
  8
SUNPOU
 10
7488.9890252942687
 20
2514.1331803736839
 30
0.0
 40
90.0
  1
注　）
  7
01
  0
TEXT
  5
162A5
  8
SUNPOU
 10
7599.6229455070124
 20
2514.1331803736839
 30
0.0
 40
90.0
  1
1
 41
0.6700000000000002
  7
01
  0
TEXT
  5
162A6
  8
SUNPOU
 10
7805.8286905964051
 20
2359.8474660879679
 30
0.0
 40
90.0
  1
あわせて設計して下さい。
  7
01
  0
TEXT
  5
162A7
  8
SUNPOU
 10
7805.8286905964051
 20
2205.5617518022559
 30
0.0
 40
90.0
  1
その他現地の実情にあわせて設計して下さい。
  7
01
  0
TEXT
  5
162A8
  8
SUNPOU
 10
7805.8286905964051
 20
2514.1331803736839
 30
0.0
 40
90.0
  1
寒冷地の場合、凍結深度等を考慮し、実情に
  7
01
  0
TEXT
  5
162A9
  8
SUNPOU
 10
7300.30931679078
 20
3082.6728971053531
 30
0.0
 40
90.0
  1
<下記条件での参考図>
  7
01
 72
     4
 11
7889.1664596479231
 21
3127.6728971053531
 31
0.0
  0
TEXT
  5
162AA
  8
SUNPOU
 10
8510.6256261793515
 20
3250.0190509515069
 30
0.0
 40
73.84615384615384
  1
/
 41
0.6700000000000002
  7
00
 11
8510.6256261793515
 21
3240.1728971053531
 31
0.0
 73
     1
  0
TEXT
  5
162AB
  8
SUNPOU
 10
8574.5750691337198
 20
3231.5575124899678
 30
0.0
 40
73.84615384615384
  1
25
 41
0.6700000000000002
  7
00
 11
8574.5750691337198
 21
3221.711358643814
 31
0.0
 73
     1
  0
TEXT
  5
162AC
  8
SUNPOU
 10
8462.2194988639785
 20
3268.4805894130468
 30
0.0
 40
73.84615384615384
  1
1
 41
0.6700000000000002
  7
00
 11
8462.2194988639785
 21
3258.6344355668921
 31
0.0
 73
     1
  0
TEXT
  5
162AD
  8
SUNPOU
 10
8142.516797010896
 20
3252.480589413045
 30
0.0
 40
92.307692307692278
  1
（ S = 　　  ）
 41
0.6700000000000002
  7
00
 11
8142.516797010896
 21
3240.1728971053531
 31
0.0
 73
     1
  0
TEXT
  5
162AE
  8
SUNPOU
 10
7425.6664596479241
 20
3240.1728971053521
 30
0.0
 40
120.0
  1
基礎断面図
  7
01
 72
     4
 11
7765.6664596479231
 21
3300.1728971053521
 31
0.0
  0
LINE
  5
16883
  8
CENTER
  6
1PL-M
 10
6474.1275078996414
 20
8708.2431824323248
 30
0.0
 11
8954.1275078996405
 21
8708.2431824323285
 31
0.0
  0
LINE
  5
16884
  8
CENTER
  6
1PL-M
 10
9104.1275078996405
 20
8708.2431824323285
 30
0.0
 11
10364.12750789964
 21
8708.2431824323248
 31
0.0
  0
TEXT
  5
16885
  8
HIKIDASHI
 10
7820.0554293294836
 20
6566.5640276757904
 30
0.0
 40
90.0
  1
（土間コン前面位置）
  7
01
  0
LINE
  5
16889
  8
SUNPOU
 10
6409.1275078996387
 20
7118.2431824323266
 30
0.0
 11
6409.1275078996387
 21
6908.2431824323257
 31
0.0
  0
LINE
  5
1688A
  8
SUNPOU
 10
6409.1275078996396
 20
6908.2431824323257
 30
0.0
 11
6559.1275078996396
 21
6908.2431824323257
 31
0.0
  0
TEXT
  5
1688B
  8
SUNPOU
 10
6383.284650756782
 20
7253.2431824323266
 30
0.0
 40
90.0
  1
A
 41
0.6700000000000002
  7
00
 72
     4
 11
6409.1275078996387
 21
7298.2431824323266
 31
0.0
  0
LINE
  5
1688D
  8
CENTER
  6
1PL-M
 10
7019.1275078996414
 20
6308.2431824323266
 30
0.0
 11
7019.1275078996414
 21
9308.2431824323266
 31
0.0
  0
LINE
  5
1688E
  8
SUNPOU
 10
7629.1275078996423
 20
7118.2431824323266
 30
0.0
 11
7629.1275078996423
 21
6908.2431824323257
 31
0.0
  0
LINE
  5
1688F
  8
SUNPOU
 10
7629.1275078996423
 20
6908.2431824323257
 30
0.0
 11
7479.1275078996423
 21
6908.2431824323257
 31
0.0
  0
TEXT
  5
16890
  8
SUNPOU
 10
7593.2346507567863
 20
7244.6717538608982
 30
0.0
 40
90.0
  1
A'
 41
0.6700000000000002
  7
00
 72
     4
 11
7629.1275078996423
 21
7298.2431824323266
 31
0.0
  0
TEXT
  5
16892
  8
HIKIDASHI
 10
7904.1640312455002
 20
6265.1320604418506
 30
0.0
 40
90.0
  1
（鼻隠し外面）
  7
01
  0
TEXT
  5
16893
  8
HIKIDASHI
 10
7830.3152639258806
 20
9016.7924548136689
 30
0.0
 40
90.0
  1
（屋根後面位置）
  7
01
  0
TEXT
  5
16895
  8
HIKIDASHI
 10
7746.2066620098649
 20
8753.2431824323321
 30
0.0
 40
90.0
  1
（土間コン後面位置）
  7
01
  0
LINE
  5
16897
  8
CENTER
  6
1PL-M
 10
9819.1275078996441
 20
6308.2431824323266
 30
0.0
 11
9819.1275078996441
 21
8023.2431824323257
 31
0.0
  0
LINE
  5
16898
  8
CENTER
  6
1PL-M
 10
9819.1275078996441
 20
8173.2431824323276
 30
0.0
 11
9819.1275078996441
 21
9308.2431824323266
 31
0.0
  0
LINE
  5
16899
  8
CENTER
  6
1PL-M
 10
6474.1275078996414
 20
6908.2431824323257
 30
0.0
 11
10364.12750789964
 21
6908.2431824323257
 31
0.0
  0
LINE
  5
168A8
  8
SUNPOU
 10
10394.12750789964
 20
6908.2431824323257
 30
0.0
 11
10874.12750789964
 21
6908.2431824323257
 31
0.0
  0
LINE
  5
168A9
  8
SUNPOU
 10
10394.12750789964
 20
8708.2431824323248
 30
0.0
 11
10874.12750789964
 21
8708.2431824323248
 31
0.0
  0
TEXT
  5
168AA
  8
SUNPOU
 10
10784.12750789964
 20
8822.5288967180404
 30
0.0
 40
90.0
  1
400
 50
90.0
 41
0.6666666666666666
  7
00
 72
     1
 11
10739.12750789964
 21
8908.2431824323266
 31
0.0
 73
     2
  0
TEXT
  5
168AB
  8
SUNPOU
 10
10784.12750789964
 20
7689.6717538608982
 30
0.0
 40
90.0
  1
1800
 50
90.0
 41
0.6666666666666666
  7
00
 72
     4
 11
10739.12750789964
 21
7808.2431824323266
 31
0.0
  0
TEXT
  5
168AC
  8
SUNPOU
 10
10784.12750789964
 20
6622.5288967180413
 30
0.0
 40
90.0
  1
400
 50
90.0
 41
0.6666666666666666
  7
00
 72
     4
 11
10739.12750789964
 21
6708.2431824323257
 31
0.0
  0
LINE
  5
168AD
  8
SUNPOU
 10
10249.12750789964
 20
6508.2431824323266
 30
0.0
 11
11084.12750789964
 21
6508.2431824323266
 31
0.0
  0
LINE
  5
168AE
  8
SUNPOU
 10
10249.12750789964
 20
9108.2431824323248
 30
0.0
 11
11084.12750789964
 21
9108.2431824323248
 31
0.0
  0
LINE
  5
168B1
  8
SUNPOU
 10
10829.12750789964
 20
9093.2431824323285
 30
0.0
 11
10829.12750789964
 21
8723.2431824323266
 31
0.0
  0
LINE
  5
168B2
  8
SUNPOU
 10
11039.12750789964
 20
9093.2431824323285
 30
0.0
 11
11039.12750789964
 21
6523.2431824323266
 31
0.0
  0
LINE
  5
168B3
  8
SUNPOU
 10
10829.12750789964
 20
8693.2431824323266
 30
0.0
 11
10829.12750789964
 21
6923.2431824323266
 31
0.0
  0
LINE
  5
168B4
  8
SUNPOU
 10
10829.12750789964
 20
6893.2431824323266
 30
0.0
 11
10829.12750789964
 21
6523.2431824323266
 31
0.0
  0
LINE
  5
168B6
  8
SUNPOU
 10
10799.12750789964
 20
6508.2431824323266
 30
0.0
 11
10784.12750789964
 21
6508.2431824323266
 31
0.0
  0
TEXT
  5
168BA
  8
SUNPOU
 10
10994.12750789964
 20
7693.9574681466129
 30
0.0
 40
90.0
  1
2600
 50
90.0
 41
0.6666666666666666
  7
00
 72
     4
 11
10949.12750789964
 21
7808.2431824323266
 31
0.0
  0
LINE
  5
168BE
  8
SUNPOU
 10
10799.12750789964
 20
9108.2431824323248
 30
0.0
 11
10784.12750789964
 21
9108.2431824323248
 31
0.0
  0
TEXT
  5
16D68
  8
NAME
 10
11227.735871346251
 20
1055.0
 30
0.0
 40
120.0
  1
ヨド自転車置場　　　    型
  7
01
  0
TEXT
  5
16D69
  8
NAME
 10
12303.328573182949
 20
1055.0
 30
0.0
 40
120.0
  1
Y O K C S
 41
0.6666666666666666
  7
00
  0
LINE
  5
16E1D
  8
HIKIDASHI
 10
4186.8169571802318
 20
4083.204154334509
 30
0.0
 11
3405.0315767636421
 21
4083.204154334509
 31
0.0
  0
LINE
  5
16E20
  8
1PL-M1
 10
4889.8564835956931
 20
2873.9637335207299
 30
0.0
 11
4889.8564835956913
 21
4601.9637335207281
 31
0.0
  0
LINE
  5
16E21
  8
HASHIRA
 10
4837.8564835956913
 20
3145.963733520729
 30
0.0
 11
4837.8564835956913
 21
4233.9637335207262
 31
0.0
  0
LINE
  5
16E22
  8
HASHIRA
 10
4941.8564835956913
 20
3145.963733520729
 30
0.0
 11
4941.8564835956913
 21
4233.9637335207262
 31
0.0
  0
LINE
  5
16E23
  8
HATCH
 10
6088.042305995692
 20
3563.21910792073
 30
0.0
 11
6107.2423059956927
 21
3529.963733520729
 31
0.0
  0
LINE
  5
16E24
  8
HATCH
 10
6232.042305995692
 20
3563.21910792073
 30
0.0
 11
6251.2423059956936
 21
3529.963733520729
 31
0.0
  0
LINE
  5
16E25
  8
HATCH
 10
6229.8679315956906
 20
3625.963733520729
 30
0.0
 11
6249.0679315956932
 21
3592.7083575207289
 31
0.0
  0
LINE
  5
16E26
  8
HATCH
 10
6212.8423059956922
 20
3529.963733520729
 30
0.0
 11
6268.2679315956912
 21
3625.963733520729
 31
0.0
  0
LINE
  5
16E27
  8
HATCH
 10
6336.2500963956936
 20
3753.963733520729
 30
0.0
 11
6208.2500963956936
 21
3625.963733520729
 31
0.0
  0
LINE
  5
16E28
  8
HATCH
 10
6241.2149443956887
 20
3753.963733520729
 30
0.0
 11
6113.2149443956887
 21
3625.963733520729
 31
0.0
  0
LINE
  5
16E29
  8
HATCH
 10
6288.7325203956943
 20
3753.963733520729
 30
0.0
 11
6160.7325203956934
 21
3625.963733520729
 31
0.0
  0
LINE
  5
16E2A
  8
HATCH
 10
5960.042305995692
 20
3563.21910792073
 30
0.0
 11
5979.2423059956927
 21
3529.963733520729
 31
0.0
  0
LINE
  5
16E2B
  8
HATCH
 10
5957.8679315956888
 20
3625.963733520729
 30
0.0
 11
5977.0679315956913
 21
3592.7083575207289
 31
0.0
  0
LINE
  5
16E2C
  8
HATCH
 10
5940.8423059956931
 20
3529.963733520729
 30
0.0
 11
5996.2679315956893
 21
3625.963733520729
 31
0.0
  0
LINE
  5
16E2D
  8
HATCH
 10
5717.0167907956929
 20
3625.963733520729
 30
0.0
 11
5701.0167907956929
 21
3625.963733520729
 31
0.0
  0
LINE
  5
16E2E
  8
HATCH
 10
5816.0423059956938
 20
3563.21910792073
 30
0.0
 11
5835.2423059956909
 21
3529.963733520729
 31
0.0
  0
LINE
  5
16E2F
  8
HATCH
 10
5796.8423059956931
 20
3529.963733520729
 30
0.0
 11
5852.2679315956884
 21
3625.963733520729
 31
0.0
  0
LINE
  5
16E30
  8
HATCH
 10
5813.8679315956906
 20
3625.963733520729
 30
0.0
 11
5833.0679315956913
 21
3592.7083575207289
 31
0.0
  0
LINE
  5
16E31
  8
HATCH
 10
5856.2500963956954
 20
3753.963733520729
 30
0.0
 11
5728.2500963956954
 21
3625.963733520729
 31
0.0
  0
LINE
  5
16E32
  8
HATCH
 10
5672.0423059956947
 20
3563.21910792073
 30
0.0
 11
5691.2423059956927
 21
3529.963733520729
 31
0.0
  0
LINE
  5
16E33
  8
HATCH
 10
5669.8679315956906
 20
3625.963733520729
 30
0.0
 11
5689.0679315956913
 21
3592.7083575207289
 31
0.0
  0
LINE
  5
16E34
  8
HATCH
 10
5529.8564835956922
 20
3566.3613569622612
 30
0.0
 11
5564.2679315956902
 21
3625.963733520729
 31
0.0
  0
LINE
  5
16E35
  8
HATCH
 10
5529.8564835956922
 20
3619.0553587053369
 30
0.0
 11
5545.0679315956913
 21
3592.7083575207289
 31
0.0
  0
LINE
  5
16E36
  8
HATCH
 10
5529.8564835956922
 20
3560.0768602480171
 30
0.0
 11
5547.2423059956946
 21
3529.963733520729
 31
0.0
  0
LINE
  5
16E37
  8
HATCH
 10
5573.0167907956929
 20
3625.963733520729
 30
0.0
 11
5557.016790795692
 21
3625.963733520729
 31
0.0
  0
LINE
  5
16E38
  8
HATCH
 10
5808.7325203956898
 20
3753.963733520729
 30
0.0
 11
5680.7325203956934
 21
3625.963733520729
 31
0.0
  0
LINE
  5
16E39
  8
HATCH
 10
5761.2149443956932
 20
3753.963733520729
 30
0.0
 11
5633.2149443956932
 21
3625.963733520729
 31
0.0
  0
LINE
  5
16E3A
  8
HATCH
 10
5652.8423059956949
 20
3529.963733520729
 30
0.0
 11
5708.2679315956884
 21
3625.963733520729
 31
0.0
  0
LINE
  5
16E3B
  8
HATCH
 10
6085.8679315956888
 20
3625.963733520729
 30
0.0
 11
6105.0679315956913
 21
3592.7083575207289
 31
0.0
  0
LINE
  5
16E3C
  8
HATCH
 10
6068.8423059956931
 20
3529.963733520729
 30
0.0
 11
6124.2679315956893
 21
3625.963733520729
 31
0.0
  0
LINE
  5
16E3D
  8
KISO
 10
5529.8564835956922
 20
3529.963733520729
 30
0.0
 11
6367.249978138846
 21
3529.9637335207299
 31
0.0
  0
LINE
  5
16E3E
  8
KISO
 10
6367.249978138846
 20
3625.963733520729
 30
0.0
 11
5529.8564835956922
 21
3625.963733520729
 31
0.0
  0
LINE
  5
16E3F
  8
KISO
 10
5529.8564835956922
 20
3753.963733520729
 30
0.0
 11
5529.8564835956922
 21
3145.963733520729
 31
0.0
  0
LINE
  5
16E40
  8
U3
 10
4138.6656835956919
 20
3673.963733520729
 30
0.0
 11
4249.8564835956913
 21
3562.7729319207292
 31
0.0
  0
LINE
  5
16E41
  8
U3
 10
4087.7539939956928
 20
3623.0520439207298
 30
0.0
 11
4204.8423059956922
 21
3505.963733520729
 31
0.0
  0
LINE
  5
16E42
  8
U3
 10
3919.7539939956941
 20
3556.8754215207309
 30
0.0
 11
4036.8423059956922
 21
3673.963733520729
 31
0.0
  0
LINE
  5
16E43
  8
U3
 10
4036.8423059956922
 20
3572.1403559207279
 30
0.0
 11
4103.0189299956901
 21
3505.963733520729
 31
0.0
  0
LINE
  5
16E44
  8
U3
 10
3970.6656835956928
 20
3505.963733520729
 30
0.0
 11
4138.6656835956919
 21
3673.963733520729
 31
0.0
  0
LINE
  5
16E45
  8
KISO
 10
4837.8564835956913
 20
3753.963733520729
 30
0.0
 11
4249.8564835956913
 21
3753.963733520729
 31
0.0
  0
LINE
  5
16E46
  8
HATCH
 10
4799.9164752019624
 20
3753.963733520729
 30
0.0
 11
4249.8564835956913
 21
3203.9037419144579
 31
0.0
  0
LINE
  5
16E47
  8
HATCH
 10
4752.3988992019631
 20
3753.963733520729
 30
0.0
 11
4249.8564835956913
 21
3251.4213179144572
 31
0.0
  0
LINE
  5
16E48
  8
HATCH
 10
4704.8813248019605
 20
3753.963733520729
 30
0.0
 11
4249.8564835956913
 21
3298.9388923144529
 31
0.0
  0
LINE
  5
16E49
  8
U3
 10
3700.842305995694
 20
3572.1403559207279
 30
0.0
 11
3767.0189299956928
 21
3505.963733520729
 31
0.0
  0
LINE
  5
16E4A
  8
U3
 10
3751.7539939956941
 20
3623.0520439207298
 30
0.0
 11
3868.842305995694
 21
3505.963733520729
 31
0.0
  0
LINE
  5
16E4B
  8
U3
 10
3532.842305995694
 20
3607.7871095207288
 30
0.0
 11
3599.0189299956919
 21
3673.963733520729
 31
0.0
  0
LINE
  5
16E4C
  8
U3
 10
3634.6656835956928
 20
3505.963733520729
 30
0.0
 11
3802.6656835956928
 21
3673.963733520729
 31
0.0
  0
LINE
  5
16E4D
  8
U3
 10
3583.7539939956941
 20
3556.8754215207309
 30
0.0
 11
3700.842305995694
 21
3673.963733520729
 31
0.0
  0
LINE
  5
16E4E
  8
U3
 10
3466.6656835956919
 20
3673.963733520729
 30
0.0
 11
3634.6656835956928
 21
3505.963733520729
 31
0.0
  0
LINE
  5
16E4F
  8
U3
 10
3868.842305995694
 20
3607.7871095207288
 30
0.0
 11
3935.0189299956919
 21
3673.963733520729
 31
0.0
  0
LINE
  5
16E50
  8
U3
 10
3802.6656835956928
 20
3673.963733520729
 30
0.0
 11
3970.6656835956928
 21
3505.963733520729
 31
0.0
  0
LINE
  5
16E51
  8
U3
 10
4249.8564835956913
 20
3673.963733520729
 30
0.0
 11
3466.6656835956919
 21
3673.963733520729
 31
0.0
  0
LINE
  5
16E52
  8
HATCH
 10
4837.8564835956913
 20
3404.311689551324
 30
0.0
 11
4683.5085275650981
 21
3249.963733520729
 31
0.0
  0
LINE
  5
16E53
  8
KISO
 10
4249.8564835956913
 20
3753.963733520729
 30
0.0
 11
4249.8564835956913
 21
3145.963733520729
 31
0.0
  0
LINE
  5
16E54
  8
HATCH
 10
4837.8564835956913
 20
3499.3468399513258
 30
0.0
 11
4484.4733771650954
 21
3145.9637335207299
 31
0.0
  0
LINE
  5
16E55
  8
HATCH
 10
4837.8564835956913
 20
3451.8292655513251
 30
0.0
 11
4635.9909515650961
 21
3249.963733520729
 31
0.0
  0
LINE
  5
16E56
  8
HATCH
 10
5187.5085275650981
 20
3753.963733520729
 30
0.0
 11
4941.8564835956913
 21
3508.311689551324
 31
0.0
  0
LINE
  5
16E57
  8
HATCH
 10
5139.9909515650961
 20
3753.963733520729
 30
0.0
 11
4941.8564835956913
 21
3555.8292655513242
 31
0.0
  0
LINE
  5
16E58
  8
HATCH
 10
5092.4733771650954
 20
3753.963733520729
 30
0.0
 11
4941.8564835956913
 21
3603.3468399513249
 31
0.0
  0
LINE
  5
16E59
  8
KISO
 10
6367.2499781388451
 20
3753.963733520729
 30
0.0
 11
4941.8564835956913
 21
3753.963733520729
 31
0.0
  0
LINE
  5
16E5A
  8
HATCH
 10
4364.8068468388301
 20
3753.963733520729
 30
0.0
 11
4249.8564835956931
 21
3639.0133702775888
 31
0.0
  0
LINE
  5
16E5B
  8
HATCH
 10
4412.3244228388321
 20
3753.963733520729
 30
0.0
 11
4249.8564835956913
 21
3591.49579427759
 31
0.0
  0
LINE
  5
16E5C
  8
HATCH
 10
4317.2892724388312
 20
3753.963733520729
 30
0.0
 11
4249.8564835956913
 21
3686.5309446775882
 31
0.0
  0
LINE
  5
16E5D
  8
HATCH
 10
5529.8564835956922
 20
3708.7196371881901
 30
0.0
 11
5071.100579928232
 21
3249.963733520729
 31
0.0
  0
LINE
  5
16E5E
  8
HATCH
 10
5527.5830039282282
 20
3753.963733520729
 30
0.0
 11
5023.5830039282318
 21
3249.9637335207281
 31
0.0
  0
LINE
  5
16E5F
  8
HATCH
 10
5480.0654295282284
 20
3753.963733520729
 30
0.0
 11
4941.8564835956913
 21
3215.7547875881878
 31
0.0
  0
LINE
  5
16E60
  8
HATCH
 10
5529.8564835956922
 20
3416.1627352250571
 30
0.0
 11
5259.657481891365
 21
3145.963733520729
 31
0.0
  0
LINE
  5
16E61
  8
HATCH
 10
5529.8564835956922
 20
3368.6451608250568
 30
0.0
 11
5307.1750562913694
 21
3145.963733520729
 31
0.0
  0
LINE
  5
16E62
  8
HATCH
 10
5529.8564835956931
 20
3321.1275848250548
 30
0.0
 11
5354.692632291366
 21
3145.963733520729
 31
0.0
  0
LINE
  5
16E63
  8
HATCH
 10
4619.9909515650961
 20
3233.9637335207299
 30
0.0
 11
4531.9909515650961
 21
3145.963733520729
 31
0.0
  0
LINE
  5
16E64
  8
HATCH
 10
4667.5085275650981
 20
3233.9637335207299
 30
0.0
 11
4579.5085275650981
 21
3145.963733520729
 31
0.0
  0
LINE
  5
16E65
  8
HATCH
 10
4960.0654295282311
 20
3233.9637335207299
 30
0.0
 11
4941.8564835956913
 21
3215.7547875881878
 31
0.0
  0
LINE
  5
16E66
  8
HATCH
 10
5007.5830039282337
 20
3233.9637335207299
 30
0.0
 11
4941.8564835956913
 21
3168.237213188188
 31
0.0
  0
LINE
  5
16E67
  8
HATCH
 10
5055.100579928232
 20
3233.9637335207299
 30
0.0
 11
4967.1005799282311
 21
3145.963733520729
 31
0.0
  0
TEXT
  5
16E6A
  8
HIKIDASHI
 10
4966.0600864744692
 20
2119.9147146780579
 30
0.0
 40
90.0
  1
断 面
  7
01
  0
LINE
  5
16E6B
  8
HIKIDASHI
 10
4542.0428069779073
 20
2074.9147146780579
 30
0.0
 11
5237.6701602134781
 21
2074.9147146780579
 31
0.0
  0
LINE
  5
16E6C
  8
HIKIDASHI
 10
4542.0428069779073
 20
2044.914714678057
 30
0.0
 11
5237.6701602134781
 21
2044.914714678057
 31
0.0
  0
TEXT
  5
16E6D
  8
HIKIDASHI
 10
4572.0428069779073
 20
2119.9147146780579
 30
0.0
 40
90.0
  1
A  ~  A'
 41
0.6700000000000002
  7
00
  0
LINE
  5
16E71
  8
SUNPOU
 10
4889.8564835956931
 20
4556.9637335207281
 30
0.0
 11
6315.0869908459426
 21
4556.9637335207281
 31
0.0
  0
TEXT
  5
16E72
  8
SUNPOU
 10
5675.6841827361577
 20
4601.9637335207281
 30
0.0
 40
90.0
  1
2450
 41
0.6666666666666666
  7
00
 72
     4
 11
5789.9698970218724
 21
4646.9637335207281
 31
0.0
  0
LINE
  5
16E76
  8
HIKIDASHI
 10
3864.6898786117331
 20
2573.963733520729
 30
0.0
 11
3495.9235017841111
 21
2573.963733520729
 31
0.0
  0
TEXT
  5
16E77
  8
HIKIDASHI
 10
3522.991109376022
 20
2618.963733520729
 30
0.0
 40
90.0
  1
砕　石
  7
01
 72
     2
 11
3822.991109376022
 21
2663.963733520729
 31
0.0
 73
     2
  0
TEXT
  5
16E79
  8
SUNPOU
 10
6214.5173445039154
 20
2588.570487822471
 30
0.0
 40
90.0
  1
5-D13\U+00D75-D13
 41
0.6700000000000002
  7
01
 72
     4
 11
6557.940201646772
 21
2633.570487822471
 31
0.0
  0
TEXT
  5
16E7A
  8
SUNPOU
 10
5727.6972630612709
 20
2588.570487822471
 30
0.0
 40
90.0
  1
ベース筋
  7
01
 72
     4
 11
5931.6972630612709
 21
2633.570487822471
 31
0.0
  0
LINE
  5
16E7B
  8
HIKIDASHI
 10
6997.5474407342626
 20
4083.9637335207281
 30
0.0
 11
6196.4832710071214
 21
4083.9637335207281
 31
0.0
  0
TEXT
  5
16E7C
  8
HIKIDASHI
 10
6240.317140088584
 20
4128.9637335207281
 30
0.0
 40
90.0
  1
敷砂利又は砕石
  7
01
 72
     2
 11
6972.317140088584
 21
4173.9637335207281
 31
0.0
 73
     2
  0
TEXT
  5
16E7D
  8
HIKIDASHI
 10
6024.2219544467234
 20
4338.9637335207281
 30
0.0
 40
90.0
  1
土　間
  7
01
 72
     2
 11
6318.2219544467216
 21
4383.9637335207281
 31
0.0
 73
     2
  0
LINE
  5
16E7E
  8
HIKIDASHI
 10
6359.9207236824377
 20
4293.9637335207281
 30
0.0
 11
5991.1543468548143
 21
4293.9637335207281
 31
0.0
  0
TEXT
  5
16E7F
  8
SUNPOU
 10
6200.5091968737488
 20
3888.963733520729
 30
0.0
 40
90.0
  1
F.L
 41
0.6666666666666666
  7
00
 72
     4
 11
6269.0806254451772
 21
3933.963733520729
 31
0.0
  0
LINE
  5
16E80
  8
SUNPOU
 10
6269.0806254451772
 20
3753.963733520729
 30
0.0
 11
6321.0421496722429
 21
3843.963733520729
 31
0.0
  0
LINE
  5
16E81
  8
SUNPOU
 10
6217.1191012181089
 20
3843.963733520729
 30
0.0
 11
6269.0806254451772
 21
3753.963733520729
 31
0.0
  0
LINE
  5
16E82
  8
SUNPOU
 10
6321.0421496722429
 20
3843.963733520729
 30
0.0
 11
6217.1191012181089
 21
3843.963733520729
 31
0.0
  0
TEXT
  5
16E86
  8
HIKIDASHI
 10
3941.1978946115692
 20
4128.7547473206378
 30
0.0
 40
89.552238805970148
  1
350
 41
0.6700000000000002
  7
00
  0
TEXT
  5
16E87
  8
HIKIDASHI
 10
3647.1156106277922
 20
4128.9637335207281
 30
0.0
 40
89.552238805970148
  1
10
 41
0.6700000000000002
  7
00
  0
TEXT
  5
16E88
  8
HIKIDASHI
 10
3775.4923656456272
 20
4155.3933431596224
 30
0.0
 40
90.0
  1
%%c
 41
0.6700000000000002
  7
00
  0
TEXT
  5
16E89
  8
HIKIDASHI
 10
3415.6088970261339
 20
4128.9637335207281
 30
0.0
 40
90.0
  1
鉄筋
  7
01
  0
TEXT
  5
16E8A
  8
HIKIDASHI
 10
3860.0625154584359
 20
4140.1577633714751
 30
0.0
 40
89.552238805970148
  1
x
 41
0.6700000000000002
  7
00
  0
LINE
  5
16E8C
  8
KISO
 10
4089.8564835956909
 20
2985.963733520729
 30
0.0
 11
5689.8564835956859
 21
2985.9637335207321
 31
0.0
  0
LINE
  5
16E8F
  8
KISO
 10
4089.8564835956909
 20
2985.963733520729
 30
0.0
 11
4089.8564835956909
 21
3145.963733520729
 31
0.0
  0
LINE
  5
16E93
  8
KISO
 10
5689.8564835956859
 20
2985.9637335207321
 30
0.0
 11
5689.8564835956859
 21
3145.9637335207281
 31
0.0
  0
LINE
  5
16E94
  8
KISO
 10
4089.8564835956909
 20
3145.963733520729
 30
0.0
 11
5689.8564835956859
 21
3145.9637335207281
 31
0.0
  0
LINE
  5
16FE7
  8
WAKUSEN-01
 10
434.0000000000008
 20
11242.0
 30
0.0
 11
16382.0
 21
11242.0
 31
0.0
  0
LINE
  5
16FE8
  8
WAKUSEN-01
 10
434.0000000000008
 20
413.99999999999972
 30
0.0
 11
434.0000000000008
 21
11242.0
 31
0.0
  0
LINE
  5
16FEA
  8
WAKUSEN-01
 10
10280.0
 20
1242.0
 30
0.0
 11
16382.0
 21
1242.0
 31
0.0
  0
LINE
  5
16FEB
  8
WAKUSEN-02
 10
10280.0
 20
827.99999999999966
 30
0.0
 11
13434.0
 21
827.99999999999966
 31
0.0
  0
TEXT
  5
16FEC
  8
WAKUMOJI-01
 10
10335.13012998138
 20
1062.9515046696611
 30
0.0
 40
120.0
  1
名　称
  7
WAKUMOJI
  0
TEXT
  5
16FED
  8
WAKUMOJI-01
 10
10328.252742545959
 20
659.56448748991068
 30
0.0
 40
120.0
  1
機種名
  7
WAKUMOJI
  0
LINE
  5
16FF0
  8
YODOROGO
 10
14988.80217064596
 20
997.87474821464355
 30
0.0
 11
14914.80217064596
 21
997.87474821464355
 31
0.0
1001
AUTOCAD_POSTSCRIPT_FIGURE
1002
{
1000
PSFILL
1000
Grayscale
1000
Grayscale
1070
    25
1002
}
  0
LINE
  5
16FF1
  8
YODOROGO
 10
14914.80217064596
 20
973.87474821464343
 30
0.0
 11
14988.80217064596
 21
973.87474821464343
 31
0.0
1001
AUTOCAD_POSTSCRIPT_FIGURE
1002
{
1000
PSFILL
1000
Grayscale
1000
Grayscale
1070
    25
1002
}
  0
LINE
  5
16FF2
  8
YODOROGO
 10
14988.80217064596
 20
953.874748214644
 30
0.0
 11
14914.80217064596
 21
953.874748214644
 31
0.0
1001
AUTOCAD_POSTSCRIPT_FIGURE
1002
{
1000
PSFILL
1000
Grayscale
1000
Grayscale
1070
    25
1002
}
  0
LINE
  5
16FF3
  8
YODOROGO
 10
14914.80217064596
 20
929.874748214644
 30
0.0
 11
14988.80217064596
 21
929.874748214644
 31
0.0
1001
AUTOCAD_POSTSCRIPT_FIGURE
1002
{
1000
PSFILL
1000
Grayscale
1000
Grayscale
1070
    25
1002
}
  0
LINE
  5
16FF4
  8
YODOROGO
 10
14988.80217064596
 20
909.87474821464389
 30
0.0
 11
14914.80217064596
 21
909.87474821464389
 31
0.0
1001
AUTOCAD_POSTSCRIPT_FIGURE
1002
{
1000
PSFILL
1000
Grayscale
1000
Grayscale
1070
    25
1002
}
  0
LINE
  5
16FF5
  8
YODOROGO
 10
14960.802170645949
 20
853.87474821464389
 30
0.0
 11
14988.80217064596
 21
853.87474821464389
 31
0.0
1001
AUTOCAD_POSTSCRIPT_FIGURE
1002
{
1000
PSFILL
1000
Grayscale
1000
Grayscale
1070
    25
1002
}
  0
LINE
  5
16FF6
  8
YODOROGO
 10
14868.80217064596
 20
713.87474821464355
 30
0.0
 11
14968.80217064596
 21
740.66966745775528
 31
0.0
  0
LINE
  5
16FF7
  8
YODOROGO
 10
14974.80217064596
 20
853.87474821464389
 30
0.0
 11
14942.80217064596
 21
853.87474821464389
 31
0.0
  0
ARC
  5
16FF8
  8
YODOROGO
 10
15127.173874913949
 20
903.9323046166312
 30
0.0
 40
190.94343210282361
 50
213.96111677667849
 51
264.47872074317792
  0
ARC
  5
16FF9
  8
YODOROGO
 10
15127.17387491396
 20
903.93230461665132
 30
0.0
 40
190.9434321028408
 50
208.14114420486601
 51
212.92103611859949
  0
LINE
  5
16FFA
  8
YODOROGO
 10
14885.70493649265
 20
778.403830673117
 30
0.0
 11
14966.89206625427
 21
800.15785652854356
 31
0.0
  0
LINE
  5
16FFB
  8
YODOROGO
 10
14868.80217064596
 20
713.87474821464355
 30
0.0
 11
14968.80217064596
 21
740.66966745775528
 31
0.0
  0
LINE
  5
16FFC
  8
YODOROGO
 10
14974.80217064596
 20
853.87474821464389
 30
0.0
 11
14942.80217064596
 21
853.87474821464389
 31
0.0
  0
ARC
  5
16FFD
  8
YODOROGO
 10
15127.173874913949
 20
903.9323046166312
 30
0.0
 40
190.94343210282361
 50
213.96111677667849
 51
264.47872074317792
  0
LINE
  5
16FFE
  8
YODOROGO
 10
14396.802170645949
 20
909.87474821464389
 30
0.0
 11
14216.802170645949
 21
909.87474821464389
 31
0.0
  0
LINE
  5
16FFF
  8
YODOROGO
 10
14256.802170645949
 20
713.87474821464355
 30
0.0
 11
14396.802170645949
 21
713.87474821464355
 31
0.0
  0
LINE
  5
17000
  8
YODOROGO
 10
14364.80217064596
 20
961.8747482146432
 30
0.0
 11
14248.802170645949
 21
961.8747482146432
 31
0.0
  0
LINE
  5
17001
  8
YODOROGO
 10
14292.80217064596
 20
1013.874748214644
 30
0.0
 11
14328.80217064596
 21
1013.874748214644
 31
0.0
  0
LINE
  5
17002
  8
YODOROGO
 10
14216.802170645949
 20
853.87474821464389
 30
0.0
 11
14216.802170645949
 21
753.87474821464389
 31
0.0
  0
LINE
  5
17003
  8
YODOROGO
 10
14248.802170645949
 20
781.87474821464343
 30
0.0
 11
14248.802170645949
 21
853.87474821464389
 31
0.0
  0
LINE
  5
17004
  8
YODOROGO
 10
14292.80217064596
 20
873.87474821464491
 30
0.0
 11
14292.80217064596
 21
773.87474821464389
 31
0.0
  0
LINE
  5
17005
  8
YODOROGO
 10
13928.80217064596
 20
841.87474821464446
 30
0.0
 11
13888.80217064596
 21
809.98620702228561
 31
0.0
  0
LINE
  5
17006
  8
YODOROGO
 10
13968.80217064596
 20
809.98620702228561
 30
0.0
 11
13928.80217064596
 21
841.87474821464446
 31
0.0
  0
LINE
  5
17007
  8
YODOROGO
 10
13928.80217064596
 20
853.87474821464389
 30
0.0
 11
13968.80217064596
 21
821.98620702228504
 31
0.0
  0
LINE
  5
17008
  8
YODOROGO
 10
13888.80217064596
 20
821.98620702228504
 30
0.0
 11
13928.80217064596
 21
853.87474821464389
 31
0.0
  0
LINE
  5
17009
  8
YODOROGO
 10
14020.456602008449
 20
829.874748214644
 30
0.0
 11
14020.456602008449
 21
841.87474821464343
 31
0.0
  0
LINE
  5
1700A
  8
YODOROGO
 10
13988.80217064596
 20
841.87474821464343
 30
0.0
 11
13988.80217064596
 21
833.87474821464275
 31
0.0
  0
LINE
  5
1700B
  8
YODOROGO
 10
14049.06776011546
 20
853.87474821464389
 30
0.0
 11
14049.06776011546
 21
827.75181863732803
 31
0.0
1001
AUTOCAD_POSTSCRIPT_FIGURE
1002
{
1000
PSFILL
1000
Grayscale
1000
Grayscale
1070
   100
1002
}
  0
LINE
  5
1700C
  8
YODOROGO
 10
14041.06776011546
 20
827.75181863732803
 30
0.0
 11
14041.06776011546
 21
853.87474821464389
 31
0.0
1001
AUTOCAD_POSTSCRIPT_FIGURE
1002
{
1000
PSFILL
1000
Grayscale
1000
Grayscale
1070
   100
1002
}
  0
LINE
  5
1700D
  8
YODOROGO
 10
13904.80217064596
 20
804.38595202162924
 30
0.0
 11
13904.80217064596
 21
816.38595202162981
 31
0.0
  0
LINE
  5
1700E
  8
YODOROGO
 10
13952.80217064596
 20
804.38595202162924
 30
0.0
 11
13904.80217064596
 21
804.38595202162924
 31
0.0
  0
LINE
  5
1700F
  8
YODOROGO
 10
13952.80217064596
 20
816.38595202162981
 30
0.0
 11
13952.80217064596
 21
804.38595202162924
 31
0.0
  0
LINE
  5
17010
  8
YODOROGO
 10
13904.80217064596
 20
816.38595202162981
 30
0.0
 11
13952.80217064596
 21
816.38595202162981
 31
0.0
  0
LINE
  5
17011
  8
YODOROGO
 10
13912.254794457869
 20
784.25142868523744
 30
0.0
 11
13892.80217064596
 21
737.87474821464366
 31
0.0
1001
AUTOCAD_POSTSCRIPT_FIGURE
1002
{
1000
PSFILL
1000
Grayscale
1000
Grayscale
1070
   100
1002
}
  0
LINE
  5
17012
  8
YODOROGO
 10
13888.80217064596
 20
784.25142868523744
 30
0.0
 11
13912.254794457869
 21
784.25142868523744
 31
0.0
1001
AUTOCAD_POSTSCRIPT_FIGURE
1002
{
1000
PSFILL
1000
Grayscale
1000
Grayscale
1070
   100
1002
}
  0
LINE
  5
17013
  8
YODOROGO
 10
13888.80217064596
 20
794.25142868523744
 30
0.0
 11
13888.80217064596
 21
784.25142868523744
 31
0.0
1001
AUTOCAD_POSTSCRIPT_FIGURE
1002
{
1000
PSFILL
1000
Grayscale
1000
Grayscale
1070
   100
1002
}
  0
LINE
  5
17014
  8
YODOROGO
 10
13968.80217064596
 20
794.25142868523744
 30
0.0
 11
13888.80217064596
 21
794.25142868523744
 31
0.0
1001
AUTOCAD_POSTSCRIPT_FIGURE
1002
{
1000
PSFILL
1000
Grayscale
1000
Grayscale
1070
   100
1002
}
  0
LINE
  5
17015
  8
YODOROGO
 10
13968.80217064596
 20
784.25142868523744
 30
0.0
 11
13968.80217064596
 21
794.25142868523744
 31
0.0
1001
AUTOCAD_POSTSCRIPT_FIGURE
1002
{
1000
PSFILL
1000
Grayscale
1000
Grayscale
1070
   100
1002
}
  0
LINE
  5
17016
  8
YODOROGO
 10
13922.254794457869
 20
784.25142868523744
 30
0.0
 11
13968.80217064596
 21
784.25142868523744
 31
0.0
1001
AUTOCAD_POSTSCRIPT_FIGURE
1002
{
1000
PSFILL
1000
Grayscale
1000
Grayscale
1070
   100
1002
}
  0
LINE
  5
17017
  8
YODOROGO
 10
13907.773359142389
 20
747.87474821464355
 30
0.0
 11
13922.254794457869
 21
784.25142868523744
 31
0.0
1001
AUTOCAD_POSTSCRIPT_FIGURE
1002
{
1000
PSFILL
1000
Grayscale
1000
Grayscale
1070
   100
1002
}
  0
LINE
  5
17018
  8
YODOROGO
 10
13951.02739540432
 20
747.87474821464355
 30
0.0
 11
13907.773359142389
 21
747.87474821464355
 31
0.0
1001
AUTOCAD_POSTSCRIPT_FIGURE
1002
{
1000
PSFILL
1000
Grayscale
1000
Grayscale
1070
   100
1002
}
  0
LINE
  5
17019
  8
YODOROGO
 10
13942.53250239547
 20
768.11690534884644
 30
0.0
 11
13951.02739540432
 21
747.87474821464355
 31
0.0
1001
AUTOCAD_POSTSCRIPT_FIGURE
1002
{
1000
PSFILL
1000
Grayscale
1000
Grayscale
1070
   100
1002
}
  0
LINE
  5
1701A
  8
YODOROGO
 10
13950.53250239547
 20
768.11690534884644
 30
0.0
 11
13942.53250239547
 21
768.11690534884644
 31
0.0
1001
AUTOCAD_POSTSCRIPT_FIGURE
1002
{
1000
PSFILL
1000
Grayscale
1000
Grayscale
1070
   100
1002
}
  0
LINE
  5
1701B
  8
YODOROGO
 10
13964.80217064596
 20
737.87474821464366
 30
0.0
 11
13950.53250239547
 21
768.11690534884644
 31
0.0
1001
AUTOCAD_POSTSCRIPT_FIGURE
1002
{
1000
PSFILL
1000
Grayscale
1000
Grayscale
1070
   100
1002
}
  0
LINE
  5
1701C
  8
YODOROGO
 10
13892.80217064596
 20
737.87474821464366
 30
0.0
 11
13964.80217064596
 21
737.87474821464366
 31
0.0
1001
AUTOCAD_POSTSCRIPT_FIGURE
1002
{
1000
PSFILL
1000
Grayscale
1000
Grayscale
1070
   100
1002
}
  0
LINE
  5
1701D
  8
YODOROGO
 10
13888.80217064596
 20
809.98620702228561
 30
0.0
 11
13888.80217064596
 21
821.98620702228504
 31
0.0
  0
LINE
  5
1701E
  8
YODOROGO
 10
13968.80217064596
 20
821.98620702228504
 30
0.0
 11
13968.80217064596
 21
809.98620702228561
 31
0.0
  0
ARC
  5
1701F
  8
YODOROGO
 10
14112.970221073479
 20
800.43888266266299
 30
0.0
 40
87.999999999999943
 50
280.3644312771313
 51
3.5414836592180561
  0
ARC
  5
17020
  8
YODOROGO
 10
14117.878015379651
 20
816.79890348095216
 30
0.0
 40
55.999999999999162
 50
281.2490582504156
 51
348.75094174958332
  0
LINE
  5
17021
  8
YODOROGO
 10
14128.80217064596
 20
761.87474821464343
 30
0.0
 11
14128.80217064596
 21
713.87474821464355
 31
0.0
  0
LINE
  5
17022
  8
YODOROGO
 10
14010.044451868451
 20
805.32528253095745
 30
0.0
 11
14020.456602008449
 21
829.874748214644
 31
0.0
  0
LINE
  5
17023
  8
YODOROGO
 10
14020.80217064596
 20
791.5602449742006
 30
0.0
 11
14010.044451868451
 21
805.32528253095745
 31
0.0
  0
LINE
  5
17024
  8
YODOROGO
 10
14020.80217064596
 20
781.56024497419946
 30
0.0
 11
14020.80217064596
 21
791.5602449742006
 31
0.0
  0
LINE
  5
17025
  8
YODOROGO
 10
14008.80217064596
 20
792.61853187476515
 30
0.0
 11
14020.80217064596
 21
781.56024497419946
 31
0.0
  0
LINE
  5
17026
  8
YODOROGO
 10
14008.80217064596
 20
737.87474821464366
 30
0.0
 11
14008.80217064596
 21
792.61853187476515
 31
0.0
  0
LINE
  5
17027
  8
YODOROGO
 10
14000.80217064596
 20
737.87474821464366
 30
0.0
 11
14008.80217064596
 21
737.87474821464366
 31
0.0
  0
LINE
  5
17028
  8
YODOROGO
 10
14000.80217064596
 20
790.00267484487381
 30
0.0
 11
14000.80217064596
 21
737.87474821464366
 31
0.0
  0
LINE
  5
17029
  8
YODOROGO
 10
13988.80217064596
 20
766.38403951671421
 30
0.0
 11
14000.80217064596
 21
790.00267484487381
 31
0.0
  0
LINE
  5
1702A
  8
YODOROGO
 10
13988.80217064596
 20
778.38403951671489
 30
0.0
 11
13988.80217064596
 21
766.38403951671421
 31
0.0
  0
LINE
  5
1702B
  8
YODOROGO
 10
14012.91438714568
 20
833.87474821464275
 30
0.0
 11
13988.80217064596
 21
778.38403951671489
 31
0.0
  0
LINE
  5
1702C
  8
YODOROGO
 10
13988.80217064596
 20
833.87474821464275
 30
0.0
 11
14012.91438714568
 21
833.87474821464275
 31
0.0
  0
LINE
  5
1702D
  8
YODOROGO
 10
14025.067760115449
 20
827.75181863732803
 30
0.0
 11
14041.06776011546
 21
827.75181863732803
 31
0.0
1001
AUTOCAD_POSTSCRIPT_FIGURE
1002
{
1000
PSFILL
1000
Grayscale
1000
Grayscale
1070
   100
1002
}
  0
LINE
  5
1702E
  8
YODOROGO
 10
14025.067760115449
 20
815.7518186373286
 30
0.0
 11
14025.067760115449
 21
827.75181863732803
 31
0.0
1001
AUTOCAD_POSTSCRIPT_FIGURE
1002
{
1000
PSFILL
1000
Grayscale
1000
Grayscale
1070
   100
1002
}
  0
LINE
  5
1702F
  8
YODOROGO
 10
14041.06776011546
 20
815.7518186373286
 30
0.0
 11
14025.067760115449
 21
815.7518186373286
 31
0.0
1001
AUTOCAD_POSTSCRIPT_FIGURE
1002
{
1000
PSFILL
1000
Grayscale
1000
Grayscale
1070
   100
1002
}
  0
LINE
  5
17030
  8
YODOROGO
 10
14041.06776011546
 20
749.87474821464411
 30
0.0
 11
14041.06776011546
 21
815.7518186373286
 31
0.0
1001
AUTOCAD_POSTSCRIPT_FIGURE
1002
{
1000
PSFILL
1000
Grayscale
1000
Grayscale
1070
   100
1002
}
  0
LINE
  5
17031
  8
YODOROGO
 10
14025.06776011546
 20
749.87474821464411
 30
0.0
 11
14041.06776011546
 21
749.87474821464411
 31
0.0
1001
AUTOCAD_POSTSCRIPT_FIGURE
1002
{
1000
PSFILL
1000
Grayscale
1000
Grayscale
1070
   100
1002
}
  0
LINE
  5
17032
  8
YODOROGO
 10
14025.06776011546
 20
737.87474821464366
 30
0.0
 11
14025.06776011546
 21
749.87474821464411
 31
0.0
1001
AUTOCAD_POSTSCRIPT_FIGURE
1002
{
1000
PSFILL
1000
Grayscale
1000
Grayscale
1070
   100
1002
}
  0
LINE
  5
17033
  8
YODOROGO
 10
14068.80217064596
 20
737.87474821464366
 30
0.0
 11
14025.06776011546
 21
737.87474821464366
 31
0.0
1001
AUTOCAD_POSTSCRIPT_FIGURE
1002
{
1000
PSFILL
1000
Grayscale
1000
Grayscale
1070
   100
1002
}
  0
LINE
  5
17034
  8
YODOROGO
 10
14068.80217064596
 20
749.87474821464411
 30
0.0
 11
14068.80217064596
 21
737.87474821464366
 31
0.0
1001
AUTOCAD_POSTSCRIPT_FIGURE
1002
{
1000
PSFILL
1000
Grayscale
1000
Grayscale
1070
   100
1002
}
  0
LINE
  5
17035
  8
YODOROGO
 10
14049.06776011546
 20
749.87474821464411
 30
0.0
 11
14068.80217064596
 21
749.87474821464411
 31
0.0
1001
AUTOCAD_POSTSCRIPT_FIGURE
1002
{
1000
PSFILL
1000
Grayscale
1000
Grayscale
1070
   100
1002
}
  0
LINE
  5
17036
  8
YODOROGO
 10
14049.06776011546
 20
815.7518186373286
 30
0.0
 11
14049.06776011546
 21
749.87474821464411
 31
0.0
1001
AUTOCAD_POSTSCRIPT_FIGURE
1002
{
1000
PSFILL
1000
Grayscale
1000
Grayscale
1070
   100
1002
}
  0
LINE
  5
17037
  8
YODOROGO
 10
14068.80217064596
 20
815.7518186373286
 30
0.0
 11
14049.06776011546
 21
815.7518186373286
 31
0.0
1001
AUTOCAD_POSTSCRIPT_FIGURE
1002
{
1000
PSFILL
1000
Grayscale
1000
Grayscale
1070
   100
1002
}
  0
LINE
  5
17038
  8
YODOROGO
 10
14068.80217064596
 20
827.75181863732803
 30
0.0
 11
14068.80217064596
 21
815.7518186373286
 31
0.0
1001
AUTOCAD_POSTSCRIPT_FIGURE
1002
{
1000
PSFILL
1000
Grayscale
1000
Grayscale
1070
   100
1002
}
  0
LINE
  5
17039
  8
YODOROGO
 10
14049.06776011546
 20
827.75181863732803
 30
0.0
 11
14068.80217064596
 21
827.75181863732803
 31
0.0
1001
AUTOCAD_POSTSCRIPT_FIGURE
1002
{
1000
PSFILL
1000
Grayscale
1000
Grayscale
1070
   100
1002
}
  0
LINE
  5
1703A
  8
YODOROGO
 10
14200.802170645949
 20
833.87474821464389
 30
0.0
 11
14172.80217064596
 21
833.87474821464389
 31
0.0
  0
LINE
  5
1703B
  8
YODOROGO
 10
14200.802170645949
 20
805.87474821464434
 30
0.0
 11
14200.802170645949
 21
833.87474821464389
 31
0.0
  0
LINE
  5
1703C
  8
YODOROGO
 10
14172.80217064596
 20
833.87474821464389
 30
0.0
 11
14172.80217064596
 21
805.87474821464434
 31
0.0
  0
ARC
  5
1703D
  8
YODOROGO
 10
14256.802170645949
 20
753.87474821464389
 30
0.0
 40
40.0
 50
180.0
 51
270.0
  0
ARC
  5
1703E
  8
YODOROGO
 10
14268.802170645949
 20
781.87474821464343
 30
0.0
 40
20.0
 50
180.0
 51
270.0
  0
LINE
  5
1703F
  8
YODOROGO
 10
14280.80217064596
 20
761.87474821464343
 30
0.0
 11
14268.802170645949
 21
761.87474821464343
 31
0.0
  0
ARC
  5
17040
  8
YODOROGO
 10
14280.80217064596
 20
773.87474821464275
 30
0.0
 40
11.999999999998179
 50
270.0
 51
0.0000000000054281
  0
LINE
  5
17041
  8
YODOROGO
 10
13900.80217064596
 20
945.39329039685322
 30
0.0
 11
13888.80217064596
 21
921.8883739758362
 31
0.0
1001
AUTOCAD_POSTSCRIPT_FIGURE
1002
{
1000
PSFILL
1000
Grayscale
1000
Grayscale
1070
   100
1002
}
  0
LINE
  5
17042
  8
YODOROGO
 10
13900.80217064596
 20
873.87474821464343
 30
0.0
 11
13900.80217064596
 21
945.39329039685322
 31
0.0
1001
AUTOCAD_POSTSCRIPT_FIGURE
1002
{
1000
PSFILL
1000
Grayscale
1000
Grayscale
1070
   100
1002
}
  0
LINE
  5
17043
  8
YODOROGO
 10
13908.80217064596
 20
873.87474821464343
 30
0.0
 11
13900.80217064596
 21
873.87474821464343
 31
0.0
1001
AUTOCAD_POSTSCRIPT_FIGURE
1002
{
1000
PSFILL
1000
Grayscale
1000
Grayscale
1070
   100
1002
}
  0
LINE
  5
17044
  8
YODOROGO
 10
13908.80217064596
 20
946.88566604263337
 30
0.0
 11
13908.80217064596
 21
873.87474821464343
 31
0.0
1001
AUTOCAD_POSTSCRIPT_FIGURE
1002
{
1000
PSFILL
1000
Grayscale
1000
Grayscale
1070
   100
1002
}
  0
LINE
  5
17045
  8
YODOROGO
 10
13920.80217064596
 20
933.82737914206837
 30
0.0
 11
13908.80217064596
 21
946.88566604263337
 31
0.0
1001
AUTOCAD_POSTSCRIPT_FIGURE
1002
{
1000
PSFILL
1000
Grayscale
1000
Grayscale
1070
   100
1002
}
  0
LINE
  5
17046
  8
YODOROGO
 10
13920.80217064596
 20
941.82737914206814
 30
0.0
 11
13920.80217064596
 21
933.82737914206837
 31
0.0
1001
AUTOCAD_POSTSCRIPT_FIGURE
1002
{
1000
PSFILL
1000
Grayscale
1000
Grayscale
1070
   100
1002
}
  0
LINE
  5
17047
  8
YODOROGO
 10
13908.80217064596
 20
958.88566604263258
 30
0.0
 11
13920.80217064596
 21
941.82737914206814
 31
0.0
1001
AUTOCAD_POSTSCRIPT_FIGURE
1002
{
1000
PSFILL
1000
Grayscale
1000
Grayscale
1070
   100
1002
}
  0
LINE
  5
17048
  8
YODOROGO
 10
13908.80217064596
 20
969.87474821464411
 30
0.0
 11
13908.80217064596
 21
958.88566604263258
 31
0.0
1001
AUTOCAD_POSTSCRIPT_FIGURE
1002
{
1000
PSFILL
1000
Grayscale
1000
Grayscale
1070
   100
1002
}
  0
LINE
  5
17049
  8
YODOROGO
 10
13944.80217064596
 20
969.87474821464411
 30
0.0
 11
13908.80217064596
 21
969.87474821464411
 31
0.0
1001
AUTOCAD_POSTSCRIPT_FIGURE
1002
{
1000
PSFILL
1000
Grayscale
1000
Grayscale
1070
   100
1002
}
  0
LINE
  5
1704A
  8
YODOROGO
 10
13944.80217064596
 20
950.28417446814944
 30
0.0
 11
13944.80217064596
 21
969.87474821464411
 31
0.0
1001
AUTOCAD_POSTSCRIPT_FIGURE
1002
{
1000
PSFILL
1000
Grayscale
1000
Grayscale
1070
   100
1002
}
  0
LINE
  5
1704B
  8
YODOROGO
 10
13928.80217064596
 20
950.28417446814944
 30
0.0
 11
13944.80217064596
 21
950.28417446814944
 31
0.0
1001
AUTOCAD_POSTSCRIPT_FIGURE
1002
{
1000
PSFILL
1000
Grayscale
1000
Grayscale
1070
   100
1002
}
  0
LINE
  5
1704C
  8
YODOROGO
 10
13928.80217064596
 20
942.2841744681491
 30
0.0
 11
13928.80217064596
 21
950.28417446814944
 31
0.0
1001
AUTOCAD_POSTSCRIPT_FIGURE
1002
{
1000
PSFILL
1000
Grayscale
1000
Grayscale
1070
   100
1002
}
  0
LINE
  5
1704D
  8
YODOROGO
 10
13944.80217064596
 20
942.2841744681491
 30
0.0
 11
13928.80217064596
 21
942.2841744681491
 31
0.0
1001
AUTOCAD_POSTSCRIPT_FIGURE
1002
{
1000
PSFILL
1000
Grayscale
1000
Grayscale
1070
   100
1002
}
  0
LINE
  5
1704E
  8
YODOROGO
 10
13944.80217064596
 20
939.80958898221968
 30
0.0
 11
13944.80217064596
 21
942.2841744681491
 31
0.0
1001
AUTOCAD_POSTSCRIPT_FIGURE
1002
{
1000
PSFILL
1000
Grayscale
1000
Grayscale
1070
   100
1002
}
  0
LINE
  5
1704F
  8
YODOROGO
 10
13924.80217064596
 20
906.48749058070871
 30
0.0
 11
13944.80217064596
 21
939.80958898221968
 31
0.0
1001
AUTOCAD_POSTSCRIPT_FIGURE
1002
{
1000
PSFILL
1000
Grayscale
1000
Grayscale
1070
   100
1002
}
  0
LINE
  5
17050
  8
YODOROGO
 10
13924.80217064596
 20
898.48749058070803
 30
0.0
 11
13924.80217064596
 21
906.48749058070871
 31
0.0
1001
AUTOCAD_POSTSCRIPT_FIGURE
1002
{
1000
PSFILL
1000
Grayscale
1000
Grayscale
1070
   100
1002
}
  0
LINE
  5
17051
  8
YODOROGO
 10
13944.80217064596
 20
923.80958898221832
 30
0.0
 11
13924.80217064596
 21
898.48749058070803
 31
0.0
1001
AUTOCAD_POSTSCRIPT_FIGURE
1002
{
1000
PSFILL
1000
Grayscale
1000
Grayscale
1070
   100
1002
}
  0
LINE
  5
17052
  8
YODOROGO
 10
13944.80217064596
 20
873.87474821464343
 30
0.0
 11
13944.80217064596
 21
923.80958898221832
 31
0.0
1001
AUTOCAD_POSTSCRIPT_FIGURE
1002
{
1000
PSFILL
1000
Grayscale
1000
Grayscale
1070
   100
1002
}
  0
LINE
  5
17053
  8
YODOROGO
 10
13952.80217064596
 20
873.87474821464343
 30
0.0
 11
13944.80217064596
 21
873.87474821464343
 31
0.0
1001
AUTOCAD_POSTSCRIPT_FIGURE
1002
{
1000
PSFILL
1000
Grayscale
1000
Grayscale
1070
   100
1002
}
  0
LINE
  5
17054
  8
YODOROGO
 10
13952.80217064596
 20
924.70450607940325
 30
0.0
 11
13952.80217064596
 21
873.87474821464343
 31
0.0
1001
AUTOCAD_POSTSCRIPT_FIGURE
1002
{
1000
PSFILL
1000
Grayscale
1000
Grayscale
1070
   100
1002
}
  0
LINE
  5
17055
  8
YODOROGO
 10
13968.80217064596
 20
898.48749058070803
 30
0.0
 11
13952.80217064596
 21
924.70450607940325
 31
0.0
1001
AUTOCAD_POSTSCRIPT_FIGURE
1002
{
1000
PSFILL
1000
Grayscale
1000
Grayscale
1070
   100
1002
}
  0
LINE
  5
17056
  8
YODOROGO
 10
13968.80217064596
 20
906.48749058070871
 30
0.0
 11
13968.80217064596
 21
898.48749058070803
 31
0.0
1001
AUTOCAD_POSTSCRIPT_FIGURE
1002
{
1000
PSFILL
1000
Grayscale
1000
Grayscale
1070
   100
1002
}
  0
LINE
  5
17057
  8
YODOROGO
 10
13952.80217064596
 20
940.7045060794045
 30
0.0
 11
13968.80217064596
 21
906.48749058070871
 31
0.0
1001
AUTOCAD_POSTSCRIPT_FIGURE
1002
{
1000
PSFILL
1000
Grayscale
1000
Grayscale
1070
   100
1002
}
  0
LINE
  5
17058
  8
YODOROGO
 10
13952.80217064596
 20
942.28417446815024
 30
0.0
 11
13952.80217064596
 21
940.7045060794045
 31
0.0
1001
AUTOCAD_POSTSCRIPT_FIGURE
1002
{
1000
PSFILL
1000
Grayscale
1000
Grayscale
1070
   100
1002
}
  0
LINE
  5
17059
  8
YODOROGO
 10
13968.80217064596
 20
942.2841744681491
 30
0.0
 11
13952.80217064596
 21
942.28417446815024
 31
0.0
1001
AUTOCAD_POSTSCRIPT_FIGURE
1002
{
1000
PSFILL
1000
Grayscale
1000
Grayscale
1070
   100
1002
}
  0
LINE
  5
1705A
  8
YODOROGO
 10
13968.80217064596
 20
950.28417446814944
 30
0.0
 11
13968.80217064596
 21
942.2841744681491
 31
0.0
1001
AUTOCAD_POSTSCRIPT_FIGURE
1002
{
1000
PSFILL
1000
Grayscale
1000
Grayscale
1070
   100
1002
}
  0
LINE
  5
1705B
  8
YODOROGO
 10
13952.80217064596
 20
950.28417446814944
 30
0.0
 11
13968.80217064596
 21
950.28417446814944
 31
0.0
1001
AUTOCAD_POSTSCRIPT_FIGURE
1002
{
1000
PSFILL
1000
Grayscale
1000
Grayscale
1070
   100
1002
}
  0
LINE
  5
1705C
  8
YODOROGO
 10
13952.80217064596
 20
969.87474821464411
 30
0.0
 11
13952.80217064596
 21
950.28417446814944
 31
0.0
1001
AUTOCAD_POSTSCRIPT_FIGURE
1002
{
1000
PSFILL
1000
Grayscale
1000
Grayscale
1070
   100
1002
}
  0
LINE
  5
1705D
  8
YODOROGO
 10
13968.80217064596
 20
969.87474821464411
 30
0.0
 11
13952.80217064596
 21
969.87474821464411
 31
0.0
1001
AUTOCAD_POSTSCRIPT_FIGURE
1002
{
1000
PSFILL
1000
Grayscale
1000
Grayscale
1070
   100
1002
}
  0
LINE
  5
1705E
  8
YODOROGO
 10
13968.80217064596
 20
977.87474821464355
 30
0.0
 11
13968.80217064596
 21
969.87474821464411
 31
0.0
1001
AUTOCAD_POSTSCRIPT_FIGURE
1002
{
1000
PSFILL
1000
Grayscale
1000
Grayscale
1070
   100
1002
}
  0
LINE
  5
1705F
  8
YODOROGO
 10
13952.80217064596
 20
977.87474821464355
 30
0.0
 11
13968.80217064596
 21
977.87474821464355
 31
0.0
1001
AUTOCAD_POSTSCRIPT_FIGURE
1002
{
1000
PSFILL
1000
Grayscale
1000
Grayscale
1070
   100
1002
}
  0
LINE
  5
17060
  8
YODOROGO
 10
13952.80217064596
 20
989.87474821464434
 30
0.0
 11
13952.80217064596
 21
977.87474821464355
 31
0.0
1001
AUTOCAD_POSTSCRIPT_FIGURE
1002
{
1000
PSFILL
1000
Grayscale
1000
Grayscale
1070
   100
1002
}
  0
LINE
  5
17061
  8
YODOROGO
 10
13944.80217064596
 20
989.87474821464434
 30
0.0
 11
13952.80217064596
 21
989.87474821464434
 31
0.0
1001
AUTOCAD_POSTSCRIPT_FIGURE
1002
{
1000
PSFILL
1000
Grayscale
1000
Grayscale
1070
   100
1002
}
  0
LINE
  5
17062
  8
YODOROGO
 10
13944.80217064596
 20
977.87474821464355
 30
0.0
 11
13944.80217064596
 21
989.87474821464434
 31
0.0
1001
AUTOCAD_POSTSCRIPT_FIGURE
1002
{
1000
PSFILL
1000
Grayscale
1000
Grayscale
1070
   100
1002
}
  0
LINE
  5
17063
  8
YODOROGO
 10
13932.80217064596
 20
977.87474821464355
 30
0.0
 11
13944.80217064596
 21
977.87474821464355
 31
0.0
1001
AUTOCAD_POSTSCRIPT_FIGURE
1002
{
1000
PSFILL
1000
Grayscale
1000
Grayscale
1070
   100
1002
}
  0
LINE
  5
17064
  8
YODOROGO
 10
13932.80217064596
 20
989.87474821464434
 30
0.0
 11
13932.80217064596
 21
977.87474821464355
 31
0.0
1001
AUTOCAD_POSTSCRIPT_FIGURE
1002
{
1000
PSFILL
1000
Grayscale
1000
Grayscale
1070
   100
1002
}
  0
LINE
  5
17065
  8
YODOROGO
 10
13924.80217064596
 20
989.87474821464434
 30
0.0
 11
13932.80217064596
 21
989.87474821464434
 31
0.0
1001
AUTOCAD_POSTSCRIPT_FIGURE
1002
{
1000
PSFILL
1000
Grayscale
1000
Grayscale
1070
   100
1002
}
  0
LINE
  5
17066
  8
YODOROGO
 10
13924.80217064596
 20
977.87474821464355
 30
0.0
 11
13924.80217064596
 21
989.87474821464434
 31
0.0
1001
AUTOCAD_POSTSCRIPT_FIGURE
1002
{
1000
PSFILL
1000
Grayscale
1000
Grayscale
1070
   100
1002
}
  0
LINE
  5
17067
  8
YODOROGO
 10
13908.80217064596
 20
977.87474821464355
 30
0.0
 11
13924.80217064596
 21
977.87474821464355
 31
0.0
1001
AUTOCAD_POSTSCRIPT_FIGURE
1002
{
1000
PSFILL
1000
Grayscale
1000
Grayscale
1070
   100
1002
}
  0
LINE
  5
17068
  8
YODOROGO
 10
13908.80217064596
 20
989.87474821464434
 30
0.0
 11
13908.80217064596
 21
977.87474821464355
 31
0.0
1001
AUTOCAD_POSTSCRIPT_FIGURE
1002
{
1000
PSFILL
1000
Grayscale
1000
Grayscale
1070
   100
1002
}
  0
LINE
  5
17069
  8
YODOROGO
 10
13900.80217064596
 20
989.87474821464434
 30
0.0
 11
13908.80217064596
 21
989.87474821464434
 31
0.0
1001
AUTOCAD_POSTSCRIPT_FIGURE
1002
{
1000
PSFILL
1000
Grayscale
1000
Grayscale
1070
   100
1002
}
  0
LINE
  5
1706A
  8
YODOROGO
 10
13900.80217064596
 20
977.87474821464355
 30
0.0
 11
13900.80217064596
 21
989.87474821464434
 31
0.0
1001
AUTOCAD_POSTSCRIPT_FIGURE
1002
{
1000
PSFILL
1000
Grayscale
1000
Grayscale
1070
   100
1002
}
  0
LINE
  5
1706B
  8
YODOROGO
 10
13888.80217064596
 20
977.87474821464355
 30
0.0
 11
13900.80217064596
 21
977.87474821464355
 31
0.0
1001
AUTOCAD_POSTSCRIPT_FIGURE
1002
{
1000
PSFILL
1000
Grayscale
1000
Grayscale
1070
   100
1002
}
  0
LINE
  5
1706C
  8
YODOROGO
 10
13888.80217064596
 20
969.87474821464411
 30
0.0
 11
13888.80217064596
 21
977.87474821464355
 31
0.0
1001
AUTOCAD_POSTSCRIPT_FIGURE
1002
{
1000
PSFILL
1000
Grayscale
1000
Grayscale
1070
   100
1002
}
  0
LINE
  5
1706D
  8
YODOROGO
 10
13900.80217064596
 20
969.87474821464411
 30
0.0
 11
13888.80217064596
 21
969.87474821464411
 31
0.0
1001
AUTOCAD_POSTSCRIPT_FIGURE
1002
{
1000
PSFILL
1000
Grayscale
1000
Grayscale
1070
   100
1002
}
  0
LINE
  5
1706E
  8
YODOROGO
 10
13900.80217064596
 20
957.39329039685242
 30
0.0
 11
13900.80217064596
 21
969.87474821464411
 31
0.0
1001
AUTOCAD_POSTSCRIPT_FIGURE
1002
{
1000
PSFILL
1000
Grayscale
1000
Grayscale
1070
   100
1002
}
  0
LINE
  5
1706F
  8
YODOROGO
 10
13888.80217064596
 20
929.88837397583552
 30
0.0
 11
13900.80217064596
 21
957.39329039685242
 31
0.0
1001
AUTOCAD_POSTSCRIPT_FIGURE
1002
{
1000
PSFILL
1000
Grayscale
1000
Grayscale
1070
   100
1002
}
  0
LINE
  5
17070
  8
YODOROGO
 10
13888.80217064596
 20
921.8883739758362
 30
0.0
 11
13888.80217064596
 21
929.88837397583552
 31
0.0
1001
AUTOCAD_POSTSCRIPT_FIGURE
1002
{
1000
PSFILL
1000
Grayscale
1000
Grayscale
1070
   100
1002
}
  0
LINE
  5
17071
  8
YODOROGO
 10
14128.80217064596
 20
933.87474821464389
 30
0.0
 11
14200.802170645949
 21
912.4388128201532
 31
0.0
1001
AUTOCAD_POSTSCRIPT_FIGURE
1002
{
1000
PSFILL
1000
Grayscale
1000
Grayscale
1070
   100
1002
}
  0
LINE
  5
17072
  8
YODOROGO
 10
14200.802170645949
 20
876.43881282015309
 30
0.0
 11
14128.80217064596
 21
897.87474821464355
 31
0.0
1001
AUTOCAD_POSTSCRIPT_FIGURE
1002
{
1000
PSFILL
1000
Grayscale
1000
Grayscale
1070
   100
1002
}
  0
LINE
  5
17073
  8
YODOROGO
 10
14200.802170645949
 20
992.43881282015309
 30
0.0
 11
14128.80217064596
 21
1013.874748214644
 31
0.0
1001
AUTOCAD_POSTSCRIPT_FIGURE
1002
{
1000
PSFILL
1000
Grayscale
1000
Grayscale
1070
   100
1002
}
  0
LINE
  5
17074
  8
YODOROGO
 10
14128.80217064596
 20
979.874748214644
 30
0.0
 11
14200.802170645949
 21
958.43881282015366
 31
0.0
1001
AUTOCAD_POSTSCRIPT_FIGURE
1002
{
1000
PSFILL
1000
Grayscale
1000
Grayscale
1070
   100
1002
}
  0
LINE
  5
17075
  8
YODOROGO
 10
14128.80217064596
 20
897.87474821464355
 30
0.0
 11
14128.80217064596
 21
933.87474821464389
 31
0.0
1001
AUTOCAD_POSTSCRIPT_FIGURE
1002
{
1000
PSFILL
1000
Grayscale
1000
Grayscale
1070
   100
1002
}
  0
LINE
  5
17076
  8
YODOROGO
 10
14128.80217064596
 20
1013.874748214644
 30
0.0
 11
14128.80217064596
 21
979.874748214644
 31
0.0
1001
AUTOCAD_POSTSCRIPT_FIGURE
1002
{
1000
PSFILL
1000
Grayscale
1000
Grayscale
1070
   100
1002
}
  0
LINE
  5
17077
  8
YODOROGO
 10
14040.11816010337
 20
969.87474821464411
 30
0.0
 11
14064.80217064596
 21
873.87474821464343
 31
0.0
1001
AUTOCAD_POSTSCRIPT_FIGURE
1002
{
1000
PSFILL
1000
Grayscale
1000
Grayscale
1070
   100
1002
}
  0
LINE
  5
17078
  8
YODOROGO
 10
13988.80217064596
 20
969.87474821464411
 30
0.0
 11
14040.11816010337
 21
969.87474821464411
 31
0.0
1001
AUTOCAD_POSTSCRIPT_FIGURE
1002
{
1000
PSFILL
1000
Grayscale
1000
Grayscale
1070
   100
1002
}
  0
LINE
  5
17079
  8
YODOROGO
 10
13988.80217064596
 20
977.87474821464355
 30
0.0
 11
13988.80217064596
 21
969.87474821464411
 31
0.0
1001
AUTOCAD_POSTSCRIPT_FIGURE
1002
{
1000
PSFILL
1000
Grayscale
1000
Grayscale
1070
   100
1002
}
  0
LINE
  5
1707A
  8
YODOROGO
 10
14038.30343925996
 20
977.87474821464355
 30
0.0
 11
13988.80217064596
 21
977.87474821464355
 31
0.0
1001
AUTOCAD_POSTSCRIPT_FIGURE
1002
{
1000
PSFILL
1000
Grayscale
1000
Grayscale
1070
   100
1002
}
  0
LINE
  5
1707B
  8
YODOROGO
 10
14035.58135799485
 20
989.87474821464434
 30
0.0
 11
14038.30343925996
 21
977.87474821464355
 31
0.0
1001
AUTOCAD_POSTSCRIPT_FIGURE
1002
{
1000
PSFILL
1000
Grayscale
1000
Grayscale
1070
   100
1002
}
  0
LINE
  5
1707C
  8
YODOROGO
 10
14045.58135799485
 20
989.87474821464434
 30
0.0
 11
14035.58135799485
 21
989.87474821464434
 31
0.0
1001
AUTOCAD_POSTSCRIPT_FIGURE
1002
{
1000
PSFILL
1000
Grayscale
1000
Grayscale
1070
   100
1002
}
  0
LINE
  5
1707D
  8
YODOROGO
 10
14047.90343925997
 20
977.87474821464355
 30
0.0
 11
14045.58135799485
 21
989.87474821464434
 31
0.0
1001
AUTOCAD_POSTSCRIPT_FIGURE
1002
{
1000
PSFILL
1000
Grayscale
1000
Grayscale
1070
   100
1002
}
  0
LINE
  5
1707E
  8
YODOROGO
 10
14060.80217064596
 20
977.87474821464355
 30
0.0
 11
14047.90343925997
 21
977.87474821464355
 31
0.0
1001
AUTOCAD_POSTSCRIPT_FIGURE
1002
{
1000
PSFILL
1000
Grayscale
1000
Grayscale
1070
   100
1002
}
  0
LINE
  5
1707F
  8
YODOROGO
 10
14060.80217064596
 20
989.87474821464434
 30
0.0
 11
14060.80217064596
 21
977.87474821464355
 31
0.0
1001
AUTOCAD_POSTSCRIPT_FIGURE
1002
{
1000
PSFILL
1000
Grayscale
1000
Grayscale
1070
   100
1002
}
  0
LINE
  5
17080
  8
YODOROGO
 10
14068.80217064596
 20
989.87474821464434
 30
0.0
 11
14060.80217064596
 21
989.87474821464434
 31
0.0
1001
AUTOCAD_POSTSCRIPT_FIGURE
1002
{
1000
PSFILL
1000
Grayscale
1000
Grayscale
1070
   100
1002
}
  0
LINE
  5
17081
  8
YODOROGO
 10
14068.80217064596
 20
977.87474821464355
 30
0.0
 11
14068.80217064596
 21
989.87474821464434
 31
0.0
1001
AUTOCAD_POSTSCRIPT_FIGURE
1002
{
1000
PSFILL
1000
Grayscale
1000
Grayscale
1070
   100
1002
}
  0
LINE
  5
17082
  8
YODOROGO
 10
14068.80217064596
 20
969.87474821464411
 30
0.0
 11
14068.80217064596
 21
977.87474821464355
 31
0.0
1001
AUTOCAD_POSTSCRIPT_FIGURE
1002
{
1000
PSFILL
1000
Grayscale
1000
Grayscale
1070
   100
1002
}
  0
LINE
  5
17083
  8
YODOROGO
 10
14049.451493436711
 20
969.87474821464411
 30
0.0
 11
14068.80217064596
 21
969.87474821464411
 31
0.0
1001
AUTOCAD_POSTSCRIPT_FIGURE
1002
{
1000
PSFILL
1000
Grayscale
1000
Grayscale
1070
   100
1002
}
  0
LINE
  5
17084
  8
YODOROGO
 10
14068.80217064596
 20
873.87474821464343
 30
0.0
 11
14049.451493436711
 21
969.87474821464411
 31
0.0
1001
AUTOCAD_POSTSCRIPT_FIGURE
1002
{
1000
PSFILL
1000
Grayscale
1000
Grayscale
1070
   100
1002
}
  0
LINE
  5
17085
  8
YODOROGO
 10
14064.80217064596
 20
873.87474821464343
 30
0.0
 11
14068.80217064596
 21
873.87474821464343
 31
0.0
1001
AUTOCAD_POSTSCRIPT_FIGURE
1002
{
1000
PSFILL
1000
Grayscale
1000
Grayscale
1070
   100
1002
}
  0
LINE
  5
17086
  8
YODOROGO
 10
14039.0346099669
 20
887.87038814939717
 30
0.0
 11
13988.80217064596
 21
873.87474821464343
 31
0.0
  0
LINE
  5
17087
  8
YODOROGO
 10
14039.0346099669
 20
899.33448976453656
 30
0.0
 11
14039.0346099669
 21
887.87038814939717
 31
0.0
  0
LINE
  5
17088
  8
YODOROGO
 10
14016.91839030643
 20
893.40846656688336
 30
0.0
 11
14039.0346099669
 21
899.33448976453656
 31
0.0
  0
LINE
  5
17089
  8
YODOROGO
 10
14016.91839030643
 20
936.2841744681499
 30
0.0
 11
14016.91839030643
 21
893.40846656688336
 31
0.0
  0
LINE
  5
1708A
  8
YODOROGO
 10
14039.0346099669
 20
936.2841744681499
 30
0.0
 11
14016.91839030643
 21
936.2841744681499
 31
0.0
  0
LINE
  5
1708B
  8
YODOROGO
 10
14039.0346099669
 20
946.28417446814865
 30
0.0
 11
14039.0346099669
 21
936.2841744681499
 31
0.0
  0
LINE
  5
1708C
  8
YODOROGO
 10
13988.80217064596
 20
946.28417446814865
 30
0.0
 11
14039.0346099669
 21
946.28417446814865
 31
0.0
  0
LINE
  5
1708D
  8
YODOROGO
 10
13988.80217064596
 20
936.2841744681499
 30
0.0
 11
13988.80217064596
 21
946.28417446814865
 31
0.0
  0
LINE
  5
1708E
  8
YODOROGO
 10
14010.91839030643
 20
936.2841744681499
 30
0.0
 11
13988.80217064596
 21
936.2841744681499
 31
0.0
  0
LINE
  5
1708F
  8
YODOROGO
 10
14010.91839030643
 20
892.33666979715872
 30
0.0
 11
14010.91839030643
 21
936.2841744681499
 31
0.0
  0
LINE
  5
17090
  8
YODOROGO
 10
13988.80217064596
 20
885.8747482146432
 30
0.0
 11
14010.91839030643
 21
892.33666979715872
 31
0.0
  0
LINE
  5
17091
  8
YODOROGO
 10
13988.80217064596
 20
873.87474821464343
 30
0.0
 11
13988.80217064596
 21
885.8747482146432
 31
0.0
  0
LINE
  5
17092
  8
YODOROGO
 10
14000.80217064596
 20
853.87474821464389
 30
0.0
 11
14000.80217064596
 21
841.87474821464343
 31
0.0
  0
LINE
  5
17094
  8
YODOROGO
 10
14008.80217064596
 20
853.87474821464389
 30
0.0
 11
14000.80217064596
 21
853.87474821464389
 31
0.0
  0
LINE
  5
17095
  8
YODOROGO
 10
14008.80217064596
 20
841.87474821464343
 30
0.0
 11
14008.80217064596
 21
853.87474821464389
 31
0.0
  0
LINE
  5
17096
  8
YODOROGO
 10
14020.456602008449
 20
841.87474821464343
 30
0.0
 11
14008.80217064596
 21
841.87474821464343
 31
0.0
  0
LINE
  5
17097
  8
YODOROGO
 10
14000.80217064596
 20
841.87474821464343
 30
0.0
 11
13988.80217064596
 21
841.87474821464343
 31
0.0
  0
LINE
  5
17098
  8
YODOROGO
 10
14041.06776011546
 20
853.87474821464389
 30
0.0
 11
14049.06776011546
 21
853.87474821464389
 31
0.0
1001
AUTOCAD_POSTSCRIPT_FIGURE
1002
{
1000
PSFILL
1000
Grayscale
1000
Grayscale
1070
   100
1002
}
  0
LINE
  5
17099
  8
YODOROGO
 10
14200.802170645949
 20
912.4388128201532
 30
0.0
 11
14200.802170645949
 21
876.43881282015309
 31
0.0
1001
AUTOCAD_POSTSCRIPT_FIGURE
1002
{
1000
PSFILL
1000
Grayscale
1000
Grayscale
1070
   100
1002
}
  0
LINE
  5
1709A
  8
YODOROGO
 10
14200.802170645949
 20
958.43881282015366
 30
0.0
 11
14200.802170645949
 21
992.43881282015309
 31
0.0
1001
AUTOCAD_POSTSCRIPT_FIGURE
1002
{
1000
PSFILL
1000
Grayscale
1000
Grayscale
1070
   100
1002
}
  0
LINE
  5
1709B
  8
YODOROGO
 10
14216.802170645949
 20
909.87474821464389
 30
0.0
 11
14216.802170645949
 21
873.87474821464491
 31
0.0
  0
LINE
  5
1709C
  8
YODOROGO
 10
14248.802170645949
 20
853.87474821464389
 30
0.0
 11
14216.802170645949
 21
853.87474821464389
 31
0.0
  0
LINE
  5
1709D
  8
YODOROGO
 10
14216.802170645949
 20
873.87474821464491
 30
0.0
 11
14292.80217064596
 21
873.87474821464491
 31
0.0
  0
LINE
  5
1709E
  8
YODOROGO
 10
14248.802170645949
 20
933.87474821464389
 30
0.0
 11
14216.802170645949
 21
933.87474821464389
 31
0.0
  0
LINE
  5
1709F
  8
YODOROGO
 10
14248.802170645949
 20
961.8747482146432
 30
0.0
 11
14248.802170645949
 21
933.87474821464389
 31
0.0
  0
LINE
  5
170A0
  8
YODOROGO
 10
14292.80217064596
 20
993.87474821464389
 30
0.0
 11
14292.80217064596
 21
1013.874748214644
 31
0.0
  0
LINE
  5
170A1
  8
YODOROGO
 10
14216.802170645949
 20
993.87474821464389
 30
0.0
 11
14292.80217064596
 21
993.87474821464389
 31
0.0
  0
LINE
  5
170A2
  8
YODOROGO
 10
14216.802170645949
 20
933.87474821464389
 30
0.0
 11
14216.802170645949
 21
993.87474821464389
 31
0.0
  0
LINE
  5
170A3
  8
YODOROGO
 10
14500.802170645949
 20
1013.874748214644
 30
0.0
 11
14500.802170645949
 21
809.87474821464411
 31
0.0
  0
LINE
  5
170A4
  8
YODOROGO
 10
14536.80217064596
 20
789.87474821464411
 30
0.0
 11
14536.80217064596
 21
1013.874748214644
 31
0.0
  0
LINE
  5
170A5
  8
YODOROGO
 10
14630.80217064596
 20
745.87474821464309
 30
0.0
 11
14630.80217064596
 21
1003.874748214644
 31
0.0
  0
LINE
  5
170A6
  8
YODOROGO
 10
14598.80217064596
 20
1003.874748214644
 30
0.0
 11
14598.80217064596
 21
745.87474821464309
 31
0.0
  0
LINE
  5
170A7
  8
YODOROGO
 10
14692.80217064596
 20
1013.874748214644
 30
0.0
 11
14692.80217064596
 21
713.87474821464355
 31
0.0
  0
LINE
  5
170A8
  8
YODOROGO
 10
14728.80217064596
 20
713.87474821464355
 30
0.0
 11
14728.80217064596
 21
1013.874748214644
 31
0.0
  0
LINE
  5
170A9
  8
YODOROGO
 10
14328.802170645949
 20
833.87474821464389
 30
0.0
 11
14328.802170645949
 21
873.87474821464491
 31
0.0
  0
LINE
  5
170AA
  8
YODOROGO
 10
14942.80217064596
 20
853.87474821464389
 30
0.0
 11
14942.80217064596
 21
833.87474821464389
 31
0.0
  0
LINE
  5
170AB
  8
YODOROGO
 10
14942.80217064596
 20
853.87474821464389
 30
0.0
 11
14942.80217064596
 21
833.87474821464389
 31
0.0
  0
ARC
  5
170AC
  8
YODOROGO
 10
14453.455788093421
 20
809.10893222113646
 30
0.0
 40
47.352575589370829
 50
274.0524416290711
 51
0.9266642149310712
  0
ARC
  5
170AD
  8
YODOROGO
 10
14454.593085359909
 20
796.30536430522
 30
0.0
 40
82.460211780427557
 50
271.53512106537778
 51
355.52727750585058
  0
LINE
  5
170AE
  8
YODOROGO
 10
14456.80217064596
 20
761.87474821464343
 30
0.0
 11
14456.80217064596
 21
713.87474821464355
 31
0.0
  0
LINE
  5
170AF
  8
YODOROGO
 10
14396.802170645949
 20
833.87474821464389
 30
0.0
 11
14328.802170645949
 21
833.87474821464389
 31
0.0
  0
LINE
  5
170B0
  8
YODOROGO
 10
14396.802170645949
 20
801.87474821464457
 30
0.0
 11
14396.802170645949
 21
833.87474821464389
 31
0.0
  0
LINE
  5
170B1
  8
YODOROGO
 10
14328.802170645949
 20
801.87474821464457
 30
0.0
 11
14396.802170645949
 21
801.87474821464457
 31
0.0
  0
LINE
  5
170B2
  8
YODOROGO
 10
14328.802170645949
 20
761.87474821464343
 30
0.0
 11
14328.802170645949
 21
801.87474821464457
 31
0.0
  0
LINE
  5
170B3
  8
YODOROGO
 10
14396.802170645949
 20
761.87474821464343
 30
0.0
 11
14328.802170645949
 21
761.87474821464343
 31
0.0
  0
LINE
  5
170B4
  8
YODOROGO
 10
14396.802170645949
 20
713.87474821464355
 30
0.0
 11
14396.802170645949
 21
761.87474821464343
 31
0.0
  0
LINE
  5
170B5
  8
YODOROGO
 10
14598.80217064596
 20
745.87474821464309
 30
0.0
 11
14630.80217064596
 21
745.87474821464309
 31
0.0
  0
LINE
  5
170B6
  8
YODOROGO
 10
14692.80217064596
 20
713.87474821464355
 30
0.0
 11
14728.80217064596
 21
713.87474821464355
 31
0.0
  0
LINE
  5
170B7
  8
YODOROGO
 10
14868.80217064596
 20
764.22072608528208
 30
0.0
 11
14868.80217064596
 21
713.87474821464355
 31
0.0
  0
LINE
  5
170B8
  8
YODOROGO
 10
14808.80217064596
 20
713.87474821464355
 30
0.0
 11
14868.80217064596
 21
764.22072608528208
 31
0.0
  0
LINE
  5
170B9
  8
YODOROGO
 10
14808.80217064596
 20
773.87474821464389
 30
0.0
 11
14808.80217064596
 21
713.87474821464355
 31
0.0
  0
LINE
  5
170BA
  8
YODOROGO
 10
14856.47231434973
 20
813.87474821464355
 30
0.0
 11
14808.80217064596
 21
773.87474821464389
 31
0.0
  0
LINE
  5
170BB
  8
YODOROGO
 10
14808.80217064596
 20
813.87474821464355
 30
0.0
 11
14856.47231434973
 21
813.87474821464355
 31
0.0
  0
LINE
  5
170BC
  8
YODOROGO
 10
14808.80217064596
 20
833.87474821464389
 30
0.0
 11
14808.80217064596
 21
813.87474821464355
 31
0.0
  0
LINE
  5
170BD
  8
YODOROGO
 10
14942.80217064596
 20
833.87474821464389
 30
0.0
 11
14808.80217064596
 21
833.87474821464389
 31
0.0
  0
LINE
  5
170BE
  8
YODOROGO
 10
14958.80217064596
 20
813.87474821464355
 30
0.0
 11
14888.80217064596
 21
813.87474821464355
 31
0.0
  0
LINE
  5
170BF
  8
YODOROGO
 10
14888.80217064596
 20
781.0027187088283
 30
0.0
 11
14885.70493649265
 21
778.403830673117
 31
0.0
  0
LINE
  5
170C0
  8
YODOROGO
 10
14888.80217064596
 20
813.87474821464355
 30
0.0
 11
14888.80217064596
 21
781.0027187088283
 31
0.0
  0
LINE
  5
170C1
  8
YODOROGO
 10
14868.80217064596
 20
764.22072608528208
 30
0.0
 11
14868.80217064596
 21
713.87474821464355
 31
0.0
  0
LINE
  5
170C2
  8
YODOROGO
 10
14808.80217064596
 20
713.87474821464355
 30
0.0
 11
14868.80217064596
 21
764.22072608528208
 31
0.0
  0
LINE
  5
170C3
  8
YODOROGO
 10
14808.80217064596
 20
773.87474821464389
 30
0.0
 11
14808.80217064596
 21
713.87474821464355
 31
0.0
  0
LINE
  5
170C4
  8
YODOROGO
 10
14856.47231434973
 20
813.87474821464355
 30
0.0
 11
14808.80217064596
 21
773.87474821464389
 31
0.0
  0
LINE
  5
170C5
  8
YODOROGO
 10
14808.80217064596
 20
813.87474821464355
 30
0.0
 11
14856.47231434973
 21
813.87474821464355
 31
0.0
  0
LINE
  5
170C6
  8
YODOROGO
 10
14808.80217064596
 20
833.87474821464389
 30
0.0
 11
14808.80217064596
 21
813.87474821464355
 31
0.0
  0
LINE
  5
170C7
  8
YODOROGO
 10
14942.80217064596
 20
833.87474821464389
 30
0.0
 11
14808.80217064596
 21
833.87474821464389
 31
0.0
  0
LINE
  5
170C8
  8
YODOROGO
 10
14396.802170645949
 20
873.87474821464491
 30
0.0
 11
14396.802170645949
 21
909.87474821464389
 31
0.0
  0
LINE
  5
170C9
  8
YODOROGO
 10
14328.802170645949
 20
873.87474821464491
 30
0.0
 11
14396.802170645949
 21
873.87474821464491
 31
0.0
  0
LINE
  5
170CA
  8
YODOROGO
 10
14364.80217064596
 20
933.87474821464389
 30
0.0
 11
14364.80217064596
 21
961.8747482146432
 31
0.0
  0
LINE
  5
170CB
  8
YODOROGO
 10
14396.802170645949
 20
933.87474821464389
 30
0.0
 11
14364.80217064596
 21
933.87474821464389
 31
0.0
  0
LINE
  5
170CC
  8
YODOROGO
 10
14396.802170645949
 20
973.87474821464343
 30
0.0
 11
14396.802170645949
 21
933.87474821464389
 31
0.0
  0
ARC
  5
170CD
  8
YODOROGO
 10
14376.802170645949
 20
973.87474821464343
 30
0.0
 40
20.0
 50
0.0
 51
90.0
  0
LINE
  5
170CE
  8
YODOROGO
 10
14328.80217064596
 20
993.87474821464389
 30
0.0
 11
14376.802170645949
 21
993.87474821464389
 31
0.0
  0
LINE
  5
170CF
  8
YODOROGO
 10
14328.80217064596
 20
1013.874748214644
 30
0.0
 11
14328.80217064596
 21
993.87474821464389
 31
0.0
  0
LINE
  5
170D0
  8
YODOROGO
 10
14536.80217064596
 20
1013.874748214644
 30
0.0
 11
14500.802170645949
 21
1013.874748214644
 31
0.0
  0
LINE
  5
170D1
  8
YODOROGO
 10
14630.80217064596
 20
1003.874748214644
 30
0.0
 11
14598.80217064596
 21
1003.874748214644
 31
0.0
  0
LINE
  5
170D2
  8
YODOROGO
 10
14728.80217064596
 20
1013.874748214644
 30
0.0
 11
14692.80217064596
 21
1013.874748214644
 31
0.0
  0
LINE
  5
170D3
  8
YODOROGO
 10
14836.80217064596
 20
853.87474821464389
 30
0.0
 11
14836.80217064596
 21
885.87474821464423
 31
0.0
1001
AUTOCAD_POSTSCRIPT_FIGURE
1002
{
1000
PSFILL
1000
Grayscale
1000
Grayscale
1070
    25
1002
}
  0
LINE
  5
170D4
  8
YODOROGO
 10
14808.80217064596
 20
853.87474821464389
 30
0.0
 11
14836.80217064596
 21
853.87474821464389
 31
0.0
1001
AUTOCAD_POSTSCRIPT_FIGURE
1002
{
1000
PSFILL
1000
Grayscale
1000
Grayscale
1070
    25
1002
}
  0
LINE
  5
170D5
  8
YODOROGO
 10
14808.80217064596
 20
909.87474821464389
 30
0.0
 11
14808.80217064596
 21
853.87474821464389
 31
0.0
1001
AUTOCAD_POSTSCRIPT_FIGURE
1002
{
1000
PSFILL
1000
Grayscale
1000
Grayscale
1070
    25
1002
}
  0
LINE
  5
170D6
  8
YODOROGO
 10
14882.80217064596
 20
909.87474821464389
 30
0.0
 11
14808.80217064596
 21
909.87474821464389
 31
0.0
1001
AUTOCAD_POSTSCRIPT_FIGURE
1002
{
1000
PSFILL
1000
Grayscale
1000
Grayscale
1070
    25
1002
}
  0
LINE
  5
170D7
  8
YODOROGO
 10
14882.80217064596
 20
929.874748214644
 30
0.0
 11
14882.80217064596
 21
909.87474821464389
 31
0.0
1001
AUTOCAD_POSTSCRIPT_FIGURE
1002
{
1000
PSFILL
1000
Grayscale
1000
Grayscale
1070
    25
1002
}
  0
LINE
  5
170D8
  8
YODOROGO
 10
14808.80217064596
 20
929.874748214644
 30
0.0
 11
14882.80217064596
 21
929.874748214644
 31
0.0
1001
AUTOCAD_POSTSCRIPT_FIGURE
1002
{
1000
PSFILL
1000
Grayscale
1000
Grayscale
1070
    25
1002
}
  0
LINE
  5
170D9
  8
YODOROGO
 10
14808.80217064596
 20
953.874748214644
 30
0.0
 11
14808.80217064596
 21
929.874748214644
 31
0.0
1001
AUTOCAD_POSTSCRIPT_FIGURE
1002
{
1000
PSFILL
1000
Grayscale
1000
Grayscale
1070
    25
1002
}
  0
LINE
  5
170DA
  8
YODOROGO
 10
14882.80217064596
 20
953.874748214644
 30
0.0
 11
14808.80217064596
 21
953.874748214644
 31
0.0
1001
AUTOCAD_POSTSCRIPT_FIGURE
1002
{
1000
PSFILL
1000
Grayscale
1000
Grayscale
1070
    25
1002
}
  0
LINE
  5
170DB
  8
YODOROGO
 10
14882.80217064596
 20
973.87474821464343
 30
0.0
 11
14882.80217064596
 21
953.874748214644
 31
0.0
1001
AUTOCAD_POSTSCRIPT_FIGURE
1002
{
1000
PSFILL
1000
Grayscale
1000
Grayscale
1070
    25
1002
}
  0
LINE
  5
170DC
  8
YODOROGO
 10
14808.80217064596
 20
973.87474821464343
 30
0.0
 11
14882.80217064596
 21
973.87474821464343
 31
0.0
1001
AUTOCAD_POSTSCRIPT_FIGURE
1002
{
1000
PSFILL
1000
Grayscale
1000
Grayscale
1070
    25
1002
}
  0
LINE
  5
170DD
  8
YODOROGO
 10
14808.80217064596
 20
1013.874748214644
 30
0.0
 11
14808.80217064596
 21
973.87474821464343
 31
0.0
1001
AUTOCAD_POSTSCRIPT_FIGURE
1002
{
1000
PSFILL
1000
Grayscale
1000
Grayscale
1070
    25
1002
}
  0
LINE
  5
170DE
  8
YODOROGO
 10
14832.80217064596
 20
1013.874748214644
 30
0.0
 11
14808.80217064596
 21
1013.874748214644
 31
0.0
1001
AUTOCAD_POSTSCRIPT_FIGURE
1002
{
1000
PSFILL
1000
Grayscale
1000
Grayscale
1070
    25
1002
}
  0
LINE
  5
170DF
  8
YODOROGO
 10
14832.80217064596
 20
997.87474821464355
 30
0.0
 11
14832.80217064596
 21
1013.874748214644
 31
0.0
1001
AUTOCAD_POSTSCRIPT_FIGURE
1002
{
1000
PSFILL
1000
Grayscale
1000
Grayscale
1070
    25
1002
}
  0
LINE
  5
170E0
  8
YODOROGO
 10
14882.80217064596
 20
997.87474821464355
 30
0.0
 11
14832.80217064596
 21
997.87474821464355
 31
0.0
1001
AUTOCAD_POSTSCRIPT_FIGURE
1002
{
1000
PSFILL
1000
Grayscale
1000
Grayscale
1070
    25
1002
}
  0
LINE
  5
170E1
  8
YODOROGO
 10
14882.80217064596
 20
1013.874748214644
 30
0.0
 11
14882.80217064596
 21
997.87474821464355
 31
0.0
1001
AUTOCAD_POSTSCRIPT_FIGURE
1002
{
1000
PSFILL
1000
Grayscale
1000
Grayscale
1070
    25
1002
}
  0
LINE
  5
170E2
  8
YODOROGO
 10
14914.80217064596
 20
1013.874748214644
 30
0.0
 11
14882.80217064596
 21
1013.874748214644
 31
0.0
1001
AUTOCAD_POSTSCRIPT_FIGURE
1002
{
1000
PSFILL
1000
Grayscale
1000
Grayscale
1070
    25
1002
}
  0
LINE
  5
170E3
  8
YODOROGO
 10
14914.80217064596
 20
997.87474821464355
 30
0.0
 11
14914.80217064596
 21
1013.874748214644
 31
0.0
1001
AUTOCAD_POSTSCRIPT_FIGURE
1002
{
1000
PSFILL
1000
Grayscale
1000
Grayscale
1070
    25
1002
}
  0
LINE
  5
170E4
  8
YODOROGO
 10
14914.80217064596
 20
953.874748214644
 30
0.0
 11
14914.80217064596
 21
973.87474821464343
 31
0.0
1001
AUTOCAD_POSTSCRIPT_FIGURE
1002
{
1000
PSFILL
1000
Grayscale
1000
Grayscale
1070
    25
1002
}
  0
LINE
  5
170E5
  8
YODOROGO
 10
14914.80217064596
 20
909.87474821464389
 30
0.0
 11
14914.80217064596
 21
929.874748214644
 31
0.0
1001
AUTOCAD_POSTSCRIPT_FIGURE
1002
{
1000
PSFILL
1000
Grayscale
1000
Grayscale
1070
    25
1002
}
  0
LINE
  5
170E6
  8
YODOROGO
 10
14960.802170645949
 20
885.87474821464423
 30
0.0
 11
14960.802170645949
 21
853.87474821464389
 31
0.0
1001
AUTOCAD_POSTSCRIPT_FIGURE
1002
{
1000
PSFILL
1000
Grayscale
1000
Grayscale
1070
    25
1002
}
  0
LINE
  5
170E7
  8
YODOROGO
 10
14914.80217064596
 20
885.87474821464423
 30
0.0
 11
14960.802170645949
 21
885.87474821464423
 31
0.0
1001
AUTOCAD_POSTSCRIPT_FIGURE
1002
{
1000
PSFILL
1000
Grayscale
1000
Grayscale
1070
    25
1002
}
  0
LINE
  5
170E8
  8
YODOROGO
 10
14914.80217064596
 20
853.87474821464389
 30
0.0
 11
14914.80217064596
 21
885.87474821464423
 31
0.0
1001
AUTOCAD_POSTSCRIPT_FIGURE
1002
{
1000
PSFILL
1000
Grayscale
1000
Grayscale
1070
    25
1002
}
  0
LINE
  5
170E9
  8
YODOROGO
 10
14882.80217064596
 20
853.87474821464389
 30
0.0
 11
14914.80217064596
 21
853.87474821464389
 31
0.0
1001
AUTOCAD_POSTSCRIPT_FIGURE
1002
{
1000
PSFILL
1000
Grayscale
1000
Grayscale
1070
    25
1002
}
  0
LINE
  5
170EA
  8
YODOROGO
 10
14882.80217064596
 20
885.87474821464423
 30
0.0
 11
14882.80217064596
 21
853.87474821464389
 31
0.0
1001
AUTOCAD_POSTSCRIPT_FIGURE
1002
{
1000
PSFILL
1000
Grayscale
1000
Grayscale
1070
    25
1002
}
  0
LINE
  5
170EB
  8
YODOROGO
 10
14836.80217064596
 20
885.87474821464423
 30
0.0
 11
14882.80217064596
 21
885.87474821464423
 31
0.0
1001
AUTOCAD_POSTSCRIPT_FIGURE
1002
{
1000
PSFILL
1000
Grayscale
1000
Grayscale
1070
    25
1002
}
  0
ARC
  5
170EC
  8
YODOROGO
 10
15529.75894667896
 20
801.34036875778816
 30
0.0
 40
89.110640555360774
 50
281.02627495425349
 51
357.77113575573799
  0
LINE
  5
170ED
  8
YODOROGO
 10
15706.80217064596
 20
953.874748214644
 30
0.0
 11
15582.80217064596
 21
953.874748214644
 31
0.0
  0
LINE
  5
170EE
  8
YODOROGO
 10
15706.80217064596
 20
1013.874748214644
 30
0.0
 11
15582.80217064596
 21
1013.874748214644
 31
0.0
  0
LINE
  5
170EF
  8
YODOROGO
 10
15582.80217064596
 20
981.87474821464343
 30
0.0
 11
15706.80217064596
 21
981.87474821464343
 31
0.0
  0
LINE
  5
170F0
  8
YODOROGO
 10
15395.80217064596
 20
781.87474821464343
 30
0.0
 11
15395.80217064596
 21
877.87474821464366
 31
0.0
  0
LINE
  5
170F1
  8
YODOROGO
 10
15381.80217064596
 20
845.87474821464446
 30
0.0
 11
15381.80217064596
 21
781.87474821464343
 31
0.0
  0
LINE
  5
170F2
  8
YODOROGO
 10
15361.80217064596
 20
745.87474821464434
 30
0.0
 11
15361.80217064596
 21
845.87474821464446
 31
0.0
  0
LINE
  5
170F3
  8
YODOROGO
 10
15449.80217064596
 20
845.87474821464446
 30
0.0
 11
15449.80217064596
 21
745.87474821464434
 31
0.0
  0
LINE
  5
170F4
  8
YODOROGO
 10
15429.80217064596
 20
781.87474821464343
 30
0.0
 11
15429.80217064596
 21
845.87474821464446
 31
0.0
  0
LINE
  5
170F5
  8
YODOROGO
 10
15415.80217064596
 20
877.87474821464366
 30
0.0
 11
15415.80217064596
 21
781.87474821464343
 31
0.0
  0
LINE
  5
170F6
  8
YODOROGO
 10
15486.80217064596
 20
1013.874748214644
 30
0.0
 11
15486.80217064596
 21
733.87474821464366
 31
0.0
  0
LINE
  5
170F7
  8
YODOROGO
 10
15322.80217064596
 20
713.87474821464355
 30
0.0
 11
15322.80217064596
 21
1013.874748214644
 31
0.0
  0
LINE
  5
170F8
  8
YODOROGO
 10
15348.80217064596
 20
981.87474821464343
 30
0.0
 11
15348.80217064596
 21
713.87474821464355
 31
0.0
  0
LINE
  5
170F9
  8
YODOROGO
 10
15462.80217064596
 20
773.87474821464389
 30
0.0
 11
15462.80217064596
 21
981.87474821464343
 31
0.0
  0
LINE
  5
170FA
  8
YODOROGO
 10
15190.80217064596
 20
813.87474821464355
 30
0.0
 11
15190.80217064596
 21
839.87474821464434
 31
0.0
  0
LINE
  5
170FB
  8
YODOROGO
 10
15308.80217064596
 20
839.87474821464434
 30
0.0
 11
15308.80217064596
 21
813.87474821464355
 31
0.0
  0
LINE
  5
170FC
  8
YODOROGO
 10
15582.80217064596
 20
953.874748214644
 30
0.0
 11
15582.80217064596
 21
817.87474821464355
 31
0.0
  0
LINE
  5
170FD
  8
YODOROGO
 10
14974.80217064596
 20
833.87474821464389
 30
0.0
 11
14974.80217064596
 21
853.87474821464389
 31
0.0
  0
LINE
  5
170FE
  8
YODOROGO
 10
14974.80217064596
 20
833.87474821464389
 30
0.0
 11
14974.80217064596
 21
853.87474821464389
 31
0.0
  0
ARC
  5
170FF
  8
YODOROGO
 10
15268.80217064596
 20
753.87474821464389
 30
0.0
 40
40.0
 50
270.0
 51
0.0
  0
LINE
  5
17100
  8
YODOROGO
 10
15284.80217064596
 20
799.87474821464411
 30
0.0
 11
15308.80217064596
 21
799.87474821464411
 31
0.0
  0
LINE
  5
17101
  8
YODOROGO
 10
15308.80217064596
 20
813.87474821464355
 30
0.0
 11
15264.80217064596
 21
813.87474821464355
 31
0.0
  0
LINE
  5
17102
  8
YODOROGO
 10
15108.80217064596
 20
833.87474821464389
 30
0.0
 11
14974.80217064596
 21
833.87474821464389
 31
0.0
  0
LINE
  5
17103
  8
YODOROGO
 10
15108.80217064596
 20
813.87474821464355
 30
0.0
 11
15108.80217064596
 21
833.87474821464389
 31
0.0
  0
LINE
  5
17104
  8
YODOROGO
 10
15008.80217064596
 20
813.87474821464355
 30
0.0
 11
15108.80217064596
 21
813.87474821464355
 31
0.0
  0
ARC
  5
17105
  8
YODOROGO
 10
15115.02941435068
 20
934.44285747645131
 30
0.0
 40
160.68881814261411
 50
228.6181454618993
 51
245.660289248906
  0
LINE
  5
17106
  8
YODOROGO
 10
15052.80217064596
 20
801.87474821464457
 30
0.0
 11
15048.80217064598
 21
788.03640793495015
 31
0.0
  0
LINE
  5
17107
  8
YODOROGO
 10
15094.80217064596
 20
801.87474821464457
 30
0.0
 11
15052.80217064596
 21
801.87474821464457
 31
0.0
  0
LINE
  5
17108
  8
YODOROGO
 10
15088.80217064596
 20
775.90886123671339
 30
0.0
 11
15094.80217064596
 21
801.87474821464457
 31
0.0
  0
ARC
  5
17109
  8
YODOROGO
 10
15115.029414350231
 20
934.44285747650133
 30
0.0
 40
160.6888181426454
 50
260.60629297969928
 51
267.77903556555862
  0
LINE
  5
1710A
  8
YODOROGO
 10
15108.80217064596
 20
713.87474821464275
 30
0.0
 11
15108.80217064596
 21
773.87474821464389
 31
0.0
  0
LINE
  5
1710B
  8
YODOROGO
 10
14968.80217064596
 20
740.66966745775528
 30
0.0
 11
14968.80217064596
 21
797.26554526557072
 31
0.0
  0
LINE
  5
1710C
  8
YODOROGO
 10
15108.80217064596
 20
833.87474821464389
 30
0.0
 11
14974.80217064596
 21
833.87474821464389
 31
0.0
  0
LINE
  5
1710D
  8
YODOROGO
 10
15108.80217064596
 20
813.87474821464355
 30
0.0
 11
15108.80217064596
 21
833.87474821464389
 31
0.0
  0
LINE
  5
1710E
  8
YODOROGO
 10
15008.80217064596
 20
813.87474821464355
 30
0.0
 11
15108.80217064596
 21
813.87474821464355
 31
0.0
  0
ARC
  5
1710F
  8
YODOROGO
 10
15115.02941435068
 20
934.44285747645131
 30
0.0
 40
160.68881814261411
 50
228.6181454618993
 51
245.660289248906
  0
LINE
  5
17110
  8
YODOROGO
 10
15052.80217064596
 20
801.87474821464457
 30
0.0
 11
15048.80217064598
 21
788.03640793495015
 31
0.0
  0
LINE
  5
17111
  8
YODOROGO
 10
15094.80217064596
 20
801.87474821464457
 30
0.0
 11
15052.80217064596
 21
801.87474821464457
 31
0.0
  0
LINE
  5
17112
  8
YODOROGO
 10
15088.80217064596
 20
775.90886123671339
 30
0.0
 11
15094.80217064596
 21
801.87474821464457
 31
0.0
  0
ARC
  5
17113
  8
YODOROGO
 10
15115.029414350231
 20
934.44285747650133
 30
0.0
 40
160.6888181426454
 50
260.60629297969928
 51
267.77903556555862
  0
LINE
  5
17114
  8
YODOROGO
 10
15108.80217064596
 20
713.87474821464275
 30
0.0
 11
15108.80217064596
 21
773.87474821464389
 31
0.0
  0
LINE
  5
17115
  8
YODOROGO
 10
14968.80217064596
 20
740.66966745775528
 30
0.0
 11
14968.80217064596
 21
797.26554526557072
 31
0.0
  0
LINE
  5
17116
  8
YODOROGO
 10
15216.80217064596
 20
786.87474821464457
 30
0.0
 11
15190.80217064596
 21
786.87474821464457
 31
0.0
  0
LINE
  5
17117
  8
YODOROGO
 10
15216.80217064596
 20
800.8747482146432
 30
0.0
 11
15216.80217064596
 21
786.87474821464457
 31
0.0
  0
LINE
  5
17118
  8
YODOROGO
 10
15190.80217064596
 20
800.8747482146432
 30
0.0
 11
15216.80217064596
 21
800.8747482146432
 31
0.0
  0
LINE
  5
17119
  8
YODOROGO
 10
15190.80217064596
 20
786.87474821464457
 30
0.0
 11
15190.80217064596
 21
800.8747482146432
 31
0.0
  0
LINE
  5
1711A
  8
YODOROGO
 10
15214.80217064596
 20
788.87474821464355
 30
0.0
 11
15192.80217064596
 21
788.87474821464355
 31
0.0
  0
LINE
  5
1711B
  8
YODOROGO
 10
15214.80217064596
 20
798.87474821464389
 30
0.0
 11
15214.80217064596
 21
788.87474821464355
 31
0.0
  0
LINE
  5
1711C
  8
YODOROGO
 10
15192.80217064596
 20
798.87474821464389
 30
0.0
 11
15214.80217064596
 21
798.87474821464389
 31
0.0
  0
LINE
  5
1711D
  8
YODOROGO
 10
15192.80217064596
 20
788.87474821464355
 30
0.0
 11
15192.80217064596
 21
798.87474821464389
 31
0.0
  0
LINE
  5
1711E
  8
YODOROGO
 10
15212.80217064596
 20
790.8747482146432
 30
0.0
 11
15194.80217064596
 21
790.8747482146432
 31
0.0
  0
LINE
  5
1711F
  8
YODOROGO
 10
15212.80217064596
 20
796.87474821464446
 30
0.0
 11
15212.80217064596
 21
790.8747482146432
 31
0.0
  0
LINE
  5
17120
  8
YODOROGO
 10
15194.80217064596
 20
796.87474821464446
 30
0.0
 11
15212.80217064596
 21
796.87474821464446
 31
0.0
  0
LINE
  5
17121
  8
YODOROGO
 10
15194.80217064596
 20
790.8747482146432
 30
0.0
 11
15194.80217064596
 21
796.87474821464446
 31
0.0
  0
LINE
  5
17122
  8
YODOROGO
 10
15210.80217064596
 20
792.87474821464355
 30
0.0
 11
15196.80217064596
 21
792.87474821464355
 31
0.0
  0
LINE
  5
17123
  8
YODOROGO
 10
15210.80217064596
 20
794.87474821464411
 30
0.0
 11
15210.80217064596
 21
792.87474821464355
 31
0.0
  0
LINE
  5
17124
  8
YODOROGO
 10
15196.80217064596
 20
794.87474821464411
 30
0.0
 11
15210.80217064596
 21
794.87474821464411
 31
0.0
  0
LINE
  5
17125
  8
YODOROGO
 10
15196.80217064596
 20
792.87474821464355
 30
0.0
 11
15196.80217064596
 21
794.87474821464411
 31
0.0
  0
LINE
  5
17126
  8
YODOROGO
 10
15232.80217064596
 20
813.87474821464355
 30
0.0
 11
15190.80217064596
 21
813.87474821464355
 31
0.0
  0
LINE
  5
17127
  8
YODOROGO
 10
15232.80217064596
 20
773.87474821464389
 30
0.0
 11
15232.80217064596
 21
813.87474821464355
 31
0.0
  0
LINE
  5
17128
  8
YODOROGO
 10
15190.80217064596
 20
773.87474821464389
 30
0.0
 11
15232.80217064596
 21
773.87474821464389
 31
0.0
  0
LINE
  5
17129
  8
YODOROGO
 10
15190.80217064596
 20
713.87474821464355
 30
0.0
 11
15190.80217064596
 21
773.87474821464389
 31
0.0
  0
LINE
  5
1712A
  8
YODOROGO
 10
15268.80217064596
 20
713.87474821464355
 30
0.0
 11
15190.80217064596
 21
713.87474821464355
 31
0.0
  0
LINE
  5
1712B
  8
YODOROGO
 10
15284.80217064596
 20
785.8747482146432
 30
0.0
 11
15284.80217064596
 21
799.87474821464411
 31
0.0
  0
ARC
  5
1712C
  8
YODOROGO
 10
15272.802170645949
 20
785.87474821464571
 30
0.0
 40
12.000000000001871
 50
270.0
 51
359.99999999998778
  0
LINE
  5
1712D
  8
YODOROGO
 10
15264.80217064596
 20
773.87474821464389
 30
0.0
 11
15272.802170645949
 21
773.87474821464389
 31
0.0
  0
LINE
  5
1712E
  8
YODOROGO
 10
15264.80217064596
 20
813.87474821464355
 30
0.0
 11
15264.80217064596
 21
773.87474821464389
 31
0.0
  0
LINE
  5
1712F
  8
YODOROGO
 10
15449.802170645969
 20
773.87474821464389
 30
0.0
 11
15462.80217064596
 21
773.87474821464389
 31
0.0
  0
LINE
  5
17130
  8
YODOROGO
 10
15466.80217064596
 20
713.87474821464355
 30
0.0
 11
15449.80217064596
 21
713.87474821464355
 31
0.0
  0
LINE
  5
17131
  8
YODOROGO
 10
15381.80217064596
 20
781.87474821464343
 30
0.0
 11
15395.80217064596
 21
781.87474821464343
 31
0.0
  0
LINE
  5
17132
  8
YODOROGO
 10
15449.80217064596
 20
745.87474821464434
 30
0.0
 11
15361.80217064596
 21
745.87474821464434
 31
0.0
  0
LINE
  5
17133
  8
YODOROGO
 10
15415.80217064596
 20
781.87474821464343
 30
0.0
 11
15429.80217064596
 21
781.87474821464343
 31
0.0
  0
LINE
  5
17134
  8
YODOROGO
 10
15449.80217064596
 20
713.87474821464355
 30
0.0
 11
15449.802170645969
 21
773.87474821464389
 31
0.0
  0
LINE
  5
17135
  8
YODOROGO
 10
15348.80217064596
 20
713.87474821464355
 30
0.0
 11
15322.80217064596
 21
713.87474821464355
 31
0.0
  0
LINE
  5
17136
  8
YODOROGO
 10
15308.80217064596
 20
799.87474821464411
 30
0.0
 11
15308.80217064596
 21
753.87474821464389
 31
0.0
  0
ARC
  5
17137
  8
YODOROGO
 10
15466.80217064596
 20
733.87474821464366
 30
0.0
 40
20.0
 50
270.0
 51
0.0
  0
LINE
  5
17138
  8
YODOROGO
 10
15546.80217064596
 20
761.87474821464343
 30
0.0
 11
15546.80217064596
 21
713.87474821464355
 31
0.0
  0
ARC
  5
17139
  8
YODOROGO
 10
15519.86069778339
 20
818.76569505486668
 30
0.0
 40
62.947778295837708
 50
295.34052442160112
 51
359.18902303418679
  0
LINE
  5
1713A
  8
YODOROGO
 10
15308.80217064596
 20
929.874748214644
 30
0.0
 11
15248.80217064596
 21
969.87474821464411
 31
0.0
  0
LINE
  5
1713B
  8
YODOROGO
 10
15248.80217064596
 20
1013.874748214644
 30
0.0
 11
15308.80217064596
 21
973.87474821464343
 31
0.0
  0
LINE
  5
1713C
  8
YODOROGO
 10
15264.80217064596
 20
839.87474821464434
 30
0.0
 11
15308.80217064596
 21
839.87474821464434
 31
0.0
  0
LINE
  5
1713D
  8
YODOROGO
 10
15308.80217064596
 20
867.87474821464355
 30
0.0
 11
15264.80217064596
 21
867.87474821464355
 31
0.0
  0
LINE
  5
1713E
  8
YODOROGO
 10
15190.80217064596
 20
897.87474821464355
 30
0.0
 11
15308.80217064596
 21
897.87474821464355
 31
0.0
  0
LINE
  5
1713F
  8
YODOROGO
 10
15040.80217064596
 20
1013.874748214644
 30
0.0
 11
15010.80217064596
 21
1013.874748214644
 31
0.0
  0
LINE
  5
17140
  8
YODOROGO
 10
15040.80217064596
 20
913.87474821464355
 30
0.0
 11
15040.80217064596
 21
1013.874748214644
 31
0.0
  0
LINE
  5
17141
  8
YODOROGO
 10
15010.80217064596
 20
913.87474821464355
 30
0.0
 11
15040.80217064596
 21
913.87474821464355
 31
0.0
  0
LINE
  5
17142
  8
YODOROGO
 10
15010.80217064596
 20
1013.874748214644
 30
0.0
 11
15010.80217064596
 21
913.87474821464355
 31
0.0
  0
LINE
  5
17143
  8
YODOROGO
 10
15080.80217064596
 20
1013.874748214644
 30
0.0
 11
15108.80217064596
 21
1013.874748214644
 31
0.0
  0
LINE
  5
17144
  8
YODOROGO
 10
15080.80217064596
 20
905.87474821464434
 30
0.0
 11
15080.80217064596
 21
1013.874748214644
 31
0.0
  0
ARC
  5
17145
  8
YODOROGO
 10
15060.80217064596
 20
905.87474821464434
 30
0.0
 40
20.0
 50
270.0
 51
0.0
  0
LINE
  5
17146
  8
YODOROGO
 10
15010.80217064596
 20
885.87474821464423
 30
0.0
 11
15060.80217064596
 21
885.87474821464423
 31
0.0
  0
LINE
  5
17147
  8
YODOROGO
 10
15010.80217064596
 20
853.87474821464389
 30
0.0
 11
15010.80217064596
 21
885.87474821464423
 31
0.0
  0
LINE
  5
17148
  8
YODOROGO
 10
15068.80217064596
 20
853.87474821464389
 30
0.0
 11
15010.80217064596
 21
853.87474821464389
 31
0.0
  0
ARC
  5
17149
  8
YODOROGO
 10
15068.80217064596
 20
893.87474821464389
 30
0.0
 40
40.0
 50
270.0
 51
0.0
  0
LINE
  5
1714A
  8
YODOROGO
 10
15108.80217064596
 20
1013.874748214644
 30
0.0
 11
15108.80217064596
 21
893.87474821464389
 31
0.0
  0
LINE
  5
1714B
  8
YODOROGO
 10
14988.80217064596
 20
973.87474821464343
 30
0.0
 11
14988.80217064596
 21
997.87474821464355
 31
0.0
1001
AUTOCAD_POSTSCRIPT_FIGURE
1002
{
1000
PSFILL
1000
Grayscale
1000
Grayscale
1070
    25
1002
}
  0
LINE
  5
1714C
  8
YODOROGO
 10
14988.80217064596
 20
929.874748214644
 30
0.0
 11
14988.80217064596
 21
953.874748214644
 31
0.0
1001
AUTOCAD_POSTSCRIPT_FIGURE
1002
{
1000
PSFILL
1000
Grayscale
1000
Grayscale
1070
    25
1002
}
  0
LINE
  5
1714D
  8
YODOROGO
 10
14988.80217064596
 20
853.87474821464389
 30
0.0
 11
14988.80217064596
 21
909.87474821464389
 31
0.0
1001
AUTOCAD_POSTSCRIPT_FIGURE
1002
{
1000
PSFILL
1000
Grayscale
1000
Grayscale
1070
    25
1002
}
  0
LINE
  5
1714E
  8
YODOROGO
 10
15190.80217064596
 20
953.874748214644
 30
0.0
 11
15248.80217064596
 21
1013.874748214644
 31
0.0
  0
LINE
  5
1714F
  8
YODOROGO
 10
15190.80217064596
 20
909.87474821464389
 30
0.0
 11
15190.80217064596
 21
953.874748214644
 31
0.0
  0
LINE
  5
17150
  8
YODOROGO
 10
15248.80217064596
 20
969.87474821464411
 30
0.0
 11
15190.80217064596
 21
909.87474821464389
 31
0.0
  0
LINE
  5
17151
  8
YODOROGO
 10
15232.80217064596
 20
839.87474821464434
 30
0.0
 11
15232.80217064596
 21
867.87474821464355
 31
0.0
  0
LINE
  5
17152
  8
YODOROGO
 10
15190.80217064596
 20
839.87474821464434
 30
0.0
 11
15232.80217064596
 21
839.87474821464434
 31
0.0
  0
LINE
  5
17153
  8
YODOROGO
 10
15264.80217064596
 20
867.87474821464355
 30
0.0
 11
15264.80217064596
 21
839.87474821464434
 31
0.0
  0
LINE
  5
17154
  8
YODOROGO
 10
15190.80217064596
 20
867.87474821464355
 30
0.0
 11
15190.80217064596
 21
897.87474821464355
 31
0.0
  0
LINE
  5
17155
  8
YODOROGO
 10
15232.80217064596
 20
867.87474821464355
 30
0.0
 11
15190.80217064596
 21
867.87474821464355
 31
0.0
  0
LINE
  5
17156
  8
YODOROGO
 10
15322.80217064596
 20
1013.874748214644
 30
0.0
 11
15486.80217064596
 21
1013.874748214644
 31
0.0
  0
LINE
  5
17157
  8
YODOROGO
 10
15462.80217064596
 20
981.87474821464343
 30
0.0
 11
15348.80217064596
 21
981.87474821464343
 31
0.0
  0
LINE
  5
17158
  8
YODOROGO
 10
15436.80217064596
 20
909.87474821464389
 30
0.0
 11
15449.80217064596
 21
909.87474821464389
 31
0.0
  0
LINE
  5
17159
  8
YODOROGO
 10
15449.80217064596
 20
969.87474821464411
 30
0.0
 11
15436.80217064596
 21
909.87474821464389
 31
0.0
  0
LINE
  5
1715A
  8
YODOROGO
 10
15425.80217064596
 20
969.87474821464411
 30
0.0
 11
15449.80217064596
 21
969.87474821464411
 31
0.0
  0
LINE
  5
1715B
  8
YODOROGO
 10
15412.80217064596
 20
909.87474821464389
 30
0.0
 11
15425.80217064596
 21
969.87474821464411
 31
0.0
  0
LINE
  5
1715C
  8
YODOROGO
 10
15398.80217064596
 20
909.87474821464389
 30
0.0
 11
15412.80217064596
 21
909.87474821464389
 31
0.0
  0
LINE
  5
1715D
  8
YODOROGO
 10
15385.80217064596
 20
969.87474821464411
 30
0.0
 11
15398.80217064596
 21
909.87474821464389
 31
0.0
  0
LINE
  5
1715E
  8
YODOROGO
 10
15361.80217064596
 20
969.87474821464411
 30
0.0
 11
15385.80217064596
 21
969.87474821464411
 31
0.0
  0
LINE
  5
1715F
  8
YODOROGO
 10
15374.80217064596
 20
909.87474821464389
 30
0.0
 11
15361.80217064596
 21
969.87474821464411
 31
0.0
  0
LINE
  5
17160
  8
YODOROGO
 10
15361.80217064596
 20
909.87474821464389
 30
0.0
 11
15374.80217064596
 21
909.87474821464389
 31
0.0
  0
LINE
  5
17161
  8
YODOROGO
 10
15361.80217064596
 20
877.87474821464366
 30
0.0
 11
15361.80217064596
 21
909.87474821464389
 31
0.0
  0
LINE
  5
17162
  8
YODOROGO
 10
15449.80217064596
 20
877.87474821464366
 30
0.0
 11
15361.80217064596
 21
877.87474821464366
 31
0.0
  0
LINE
  5
17163
  8
YODOROGO
 10
15449.80217064596
 20
909.87474821464389
 30
0.0
 11
15449.80217064596
 21
877.87474821464366
 31
0.0
  0
LINE
  5
17164
  8
YODOROGO
 10
15308.80217064596
 20
973.87474821464343
 30
0.0
 11
15308.80217064596
 21
929.874748214644
 31
0.0
  0
LINE
  5
17165
  8
YODOROGO
 10
15395.80217064596
 20
877.87474821464366
 30
0.0
 11
15415.80217064596
 21
877.87474821464366
 31
0.0
  0
LINE
  5
17166
  8
YODOROGO
 10
15361.80217064596
 20
845.87474821464446
 30
0.0
 11
15381.80217064596
 21
845.87474821464446
 31
0.0
  0
LINE
  5
17167
  8
YODOROGO
 10
15429.80217064596
 20
845.87474821464446
 30
0.0
 11
15449.80217064596
 21
845.87474821464446
 31
0.0
  0
LINE
  5
17168
  8
YODOROGO
 10
15308.80217064596
 20
897.87474821464355
 30
0.0
 11
15308.80217064596
 21
867.87474821464355
 31
0.0
  0
LINE
  5
17169
  8
YODOROGO
 10
15582.80217064596
 20
1013.874748214644
 30
0.0
 11
15582.80217064596
 21
981.87474821464343
 31
0.0
  0
LINE
  5
1716A
  8
YODOROGO
 10
15766.80217064596
 20
797.87474821464355
 30
0.0
 11
15766.802170645949
 21
905.87474821464434
 31
0.0
  0
LINE
  5
1716B
  8
YODOROGO
 10
15730.802170645949
 20
993.87474821464389
 30
0.0
 11
15730.802170645949
 21
817.87474821464355
 31
0.0
  0
LINE
  5
1716C
  8
YODOROGO
 10
15826.80217064596
 20
713.87474821464355
 30
0.0
 11
15826.802170645949
 21
905.87474821464434
 31
0.0
  0
LINE
  5
1716D
  8
YODOROGO
 10
15794.80217064596
 20
905.87474821464434
 30
0.0
 11
15794.80217064596
 21
713.87474821464355
 31
0.0
  0
LINE
  5
1716E
  8
YODOROGO
 10
15618.80217064596
 20
797.87474821464355
 30
0.0
 11
15618.80217064596
 21
853.87474821464389
 31
0.0
  0
ARC
  5
1716F
  8
YODOROGO
 10
15676.957432558031
 20
803.89517564427877
 30
0.0
 40
90.046224287994292
 50
268.62849102169793
 51
356.16638457330322
  0
LINE
  5
17170
  8
YODOROGO
 10
15674.80217064596
 20
763.87474821464355
 30
0.0
 11
15674.80217064596
 21
713.87474821464355
 31
0.0
  0
ARC
  5
17171
  8
YODOROGO
 10
15675.759037862281
 20
818.91947850882752
 30
0.0
 40
55.053046491806079
 50
269.00410209305937
 51
358.91264455492478
  0
LINE
  5
17172
  8
YODOROGO
 10
15794.80217064596
 20
713.87474821464355
 30
0.0
 11
15826.80217064596
 21
713.87474821464355
 31
0.0
  0
LINE
  5
17173
  8
YODOROGO
 10
15766.802170645949
 20
905.87474821464434
 30
0.0
 11
15794.80217064596
 21
905.87474821464434
 31
0.0
  0
LINE
  5
17174
  8
YODOROGO
 10
15810.80217064596
 20
993.87474821464389
 30
0.0
 11
15730.802170645949
 21
993.87474821464389
 31
0.0
  0
LINE
  5
17175
  8
YODOROGO
 10
15766.802170645949
 20
957.87474821464355
 30
0.0
 11
15830.80217064596
 21
957.87474821464355
 31
0.0
  0
LINE
  5
17176
  8
YODOROGO
 10
15850.80217064596
 20
937.87474821464355
 30
0.0
 11
15766.802170645949
 21
937.87474821464355
 31
0.0
  0
LINE
  5
17177
  8
YODOROGO
 10
15618.80217064596
 20
889.87474821464434
 30
0.0
 11
15674.80217064596
 21
889.87474821464434
 31
0.0
  0
LINE
  5
17178
  8
YODOROGO
 10
15618.80217064596
 20
917.87474821464355
 30
0.0
 11
15618.80217064596
 21
889.87474821464434
 31
0.0
  0
LINE
  5
17179
  8
YODOROGO
 10
15674.80217064596
 20
917.87474821464355
 30
0.0
 11
15618.80217064596
 21
917.87474821464355
 31
0.0
  0
LINE
  5
1717A
  8
YODOROGO
 10
15674.80217064596
 20
889.87474821464434
 30
0.0
 11
15674.80217064596
 21
917.87474821464355
 31
0.0
  0
LINE
  5
1717B
  8
YODOROGO
 10
15766.802170645949
 20
937.87474821464355
 30
0.0
 11
15766.802170645949
 21
957.87474821464355
 31
0.0
  0
LINE
  5
1717C
  8
YODOROGO
 10
15706.80217064596
 20
853.87474821464389
 30
0.0
 11
15706.80217064596
 21
953.874748214644
 31
0.0
  0
LINE
  5
1717D
  8
YODOROGO
 10
15618.80217064596
 20
853.87474821464389
 30
0.0
 11
15706.80217064596
 21
853.87474821464389
 31
0.0
  0
LINE
  5
1717E
  8
YODOROGO
 10
15706.80217064596
 20
981.87474821464343
 30
0.0
 11
15706.80217064596
 21
1013.874748214644
 31
0.0
  0
ARC
  5
1717F
  8
YODOROGO
 10
15810.80217064596
 20
1001.874748214642
 30
0.0
 40
7.9999999999972706
 50
270.0
 51
0.0000000000081422
  0
LINE
  5
17180
  8
YODOROGO
 10
15818.80217064596
 20
1013.874748214644
 30
0.0
 11
15818.80217064596
 21
1001.874748214643
 31
0.0
  0
LINE
  5
17181
  8
YODOROGO
 10
15850.80217064596
 20
1013.874748214644
 30
0.0
 11
15818.80217064596
 21
1013.874748214644
 31
0.0
  0
LINE
  5
17182
  8
YODOROGO
 10
15850.80217064596
 20
977.87474821464355
 30
0.0
 11
15850.80217064596
 21
1013.874748214644
 31
0.0
  0
ARC
  5
17183
  8
YODOROGO
 10
15830.80217064596
 20
977.87474821464355
 30
0.0
 40
20.0
 50
270.0
 51
0.0
  0
LINE
  5
17184
  8
YODOROGO
 10
15850.80217064596
 20
905.87474821464434
 30
0.0
 11
15850.80217064596
 21
937.87474821464355
 31
0.0
  0
LINE
  5
17185
  8
YODOROGO
 10
15826.802170645949
 20
905.87474821464434
 30
0.0
 11
15850.80217064596
 21
905.87474821464434
 31
0.0
  0
LINE
  5
17186
  8
SUNPOU
 10
4889.8564835956931
 20
4586.9637335207281
 30
0.0
 11
4889.8564835956931
 21
4601.9637335207281
 31
0.0
  0
LINE
  5
17187
  8
SUNPOU
 10
4249.8564835956913
 20
3783.963733520729
 30
0.0
 11
4249.8564835956913
 21
4601.9637335207281
 31
0.0
  0
LINE
  5
17188
  8
SUNPOU
 10
4874.8564835956922
 20
4556.9637335207281
 30
0.0
 11
4264.8564835956913
 21
4556.9637335207281
 31
0.0
  0
LINE
  5
1718D
  8
SUNPOU
 10
6435.0869908459426
 20
4556.9637335207281
 30
0.0
 11
6375.086990845929
 21
4556.9637335207281
 31
0.0
  0
LINE
  5
1718E
  8
SUNPOU
 10
6435.0869908459363
 20
4556.9637335207281
 30
0.0
 11
6375.0869908459363
 21
4573.0406850665968
 31
0.0
  0
LINE
  5
1718F
  8
SUNPOU
 10
6435.0869908459426
 20
4556.9637335207281
 30
0.0
 11
6375.086990845929
 21
4540.8867819748566
 31
0.0
  0
LINE
  5
17190
  8
SUNPOU
 10
6375.0869908459426
 20
4556.9637335207281
 30
0.0
 11
6315.086990845929
 21
4556.9637335207281
 31
0.0
  0
LINE
  5
17191
  8
SUNPOU
 10
6375.0869908459363
 20
4556.9637335207281
 30
0.0
 11
6315.0869908459354
 21
4573.0406850665968
 31
0.0
  0
LINE
  5
17192
  8
SUNPOU
 10
6375.0869908459426
 20
4556.9637335207281
 30
0.0
 11
6315.086990845929
 21
4540.8867819748566
 31
0.0
  0
LINE
  5
17193
  8
SUNPOU
 10
6397.2499781388442
 20
3753.963733520729
 30
0.0
 11
6863.1875890046404
 21
3753.963733520729
 31
0.0
  0
LINE
  5
17194
  8
SUNPOU
 10
5719.8564835956913
 20
3145.963733520729
 30
0.0
 11
6863.1875890046404
 21
3145.963733520729
 31
0.0
  0
LINE
  5
17195
  8
SUNPOU
 10
6818.1875890046404
 20
3738.963733520729
 30
0.0
 11
6818.1875890046404
 21
3160.963733520729
 31
0.0
  0
LINE
  5
17199
  8
SUNPOU
 10
5719.8564835956922
 20
3145.9637335207281
 30
0.0
 11
6863.1875890046404
 21
3145.9637335207281
 31
0.0
  0
LINE
  5
1719A
  8
SUNPOU
 10
5719.8564835956922
 20
2985.9637335207321
 30
0.0
 11
6863.1875890046404
 21
2985.9637335207321
 31
0.0
  0
LINE
  5
1719B
  8
SUNPOU
 10
6818.1875890046404
 20
3130.9637335207281
 30
0.0
 11
6818.1875890046404
 21
3000.9637335207321
 31
0.0
  0
LINE
  5
1719F
  8
SUNPOU
 10
6397.2499781388442
 20
3753.963733520729
 30
0.0
 11
7069.437589004644
 21
3753.963733520729
 31
0.0
  0
LINE
  5
171A0
  8
SUNPOU
 10
5719.8564835956922
 20
2985.9637335207321
 30
0.0
 11
7069.437589004644
 21
2985.9637335207321
 31
0.0
  0
LINE
  5
171A1
  8
SUNPOU
 10
7024.4375890046404
 20
3738.963733520729
 30
0.0
 11
7024.4375890046404
 21
3000.9637335207321
 31
0.0
  0
LINE
  5
171A5
  8
SUNPOU
 10
4249.8564835956913
 20
3115.963733520729
 30
0.0
 11
4249.8564835956913
 21
2560.9637335207281
 31
0.0
  0
LINE
  5
171A6
  8
SUNPOU
 10
5529.8564835956922
 20
3115.963733520729
 30
0.0
 11
5529.8564835956922
 21
2560.9637335207281
 31
0.0
  0
LINE
  5
171A7
  8
SUNPOU
 10
4264.8564835956913
 20
2605.9637335207281
 30
0.0
 11
5514.8564835956913
 21
2605.9637335207281
 31
0.0
  0
LINE
  5
171AB
  8
SUNPOU
 10
4089.8564835956909
 20
2955.963733520729
 30
0.0
 11
4089.8564835956909
 21
2350.9637335207281
 31
0.0
  0
LINE
  5
171AC
  8
SUNPOU
 10
5689.8564835956931
 20
2955.9637335207321
 30
0.0
 11
5689.8564835956931
 21
2350.9637335207281
 31
0.0
  0
LINE
  5
171AD
  8
SUNPOU
 10
4104.8564835956922
 20
2395.9637335207281
 30
0.0
 11
5674.8564835956931
 21
2395.9637335207281
 31
0.0
  0
LINE
  5
171B1
  8
SUNPOU
 10
10249.12750789964
 20
8908.2431824323266
 30
0.0
 11
10664.12750789964
 21
8908.2431824323266
 31
0.0
  0
LINE
  5
171B2
  8
SUNPOU
 10
10394.12750789964
 20
8708.2431824323248
 30
0.0
 11
10664.12750789964
 21
8708.2431824323248
 31
0.0
  0
LINE
  5
171B3
  8
SUNPOU
 10
10619.12750789964
 20
8893.2431824323266
 30
0.0
 11
10619.12750789964
 21
8723.2431824323266
 31
0.0
  0
LINE
  5
171B4
  8
SUNPOU
 10
10619.12750789964
 20
8708.2431824323248
 30
0.0
 11
10619.12750789964
 21
8448.9574681466129
 31
0.0
  0
LINE
  5
171B8
  8
SUNPOU
 10
10249.12750789964
 20
8908.2431824323266
 30
0.0
 11
10664.12750789964
 21
8908.2431824323266
 31
0.0
  0
LINE
  5
171B9
  8
SUNPOU
 10
10249.12750789964
 20
9108.2431824323248
 30
0.0
 11
10664.12750789964
 21
9108.2431824323248
 31
0.0
  0
LINE
  5
171BA
  8
SUNPOU
 10
10619.12750789964
 20
8923.2431824323285
 30
0.0
 11
10619.12750789964
 21
9093.2431824323285
 31
0.0
  0
LINE
  5
171BB
  8
SUNPOU
 10
10619.12750789964
 20
9108.2431824323248
 30
0.0
 11
10619.12750789964
 21
9367.5288967180404
 31
0.0
  0
LINE
  5
171BF
  8
SUNPOU
 10
9419.1275078996405
 20
8278.2431824323248
 30
0.0
 11
9419.1275078996405
 21
7963.2431824323257
 31
0.0
  0
LINE
  5
171C0
  8
SUNPOU
 10
10219.12750789964
 20
8278.2431824323248
 30
0.0
 11
10219.12750789964
 21
7963.2431824323257
 31
0.0
  0
LINE
  5
171C1
  8
SUNPOU
 10
9434.1275078996405
 20
8008.2431824323266
 30
0.0
 11
10204.12750789964
 21
8008.2431824323266
 31
0.0
  0
LINE
  5
171C5
  8
SUNPOU
 10
9389.1275078996405
 20
9108.2431824323248
 30
0.0
 11
9074.1275078996405
 21
9108.2431824323248
 31
0.0
  0
LINE
  5
171C6
  8
SUNPOU
 10
9389.1275078996405
 20
8308.2431824323266
 30
0.0
 11
9074.1275078996405
 21
8308.2431824323266
 31
0.0
  0
LINE
  5
171C7
  8
SUNPOU
 10
9119.1275078996405
 20
9093.2431824323285
 30
0.0
 11
9119.1275078996405
 21
8323.2431824323266
 31
0.0
  0
LINE
  5
171CC
  8
SUNPOU
 10
11039.12750789964
 20
9096.9931824323266
 30
0.0
 11
11039.12750789964
 21
9085.7431824323285
 31
0.0
  0
LINE
  5
171CE
  8
SUNPOU
 10
10829.12750789964
 20
9096.9931824323266
 30
0.0
 11
10829.12750789964
 21
9085.7431824323285
 31
0.0
  0
LINE
  5
171D0
  8
SUNPOU
 10
10829.12750789964
 20
8696.9931824323266
 30
0.0
 11
10829.12750789964
 21
8685.7431824323266
 31
0.0
  0
LINE
  5
171D2
  8
SUNPOU
 10
10829.12750789964
 20
8719.4931824323248
 30
0.0
 11
10829.12750789964
 21
8730.7431824323266
 31
0.0
  0
LINE
  5
171D4
  8
SUNPOU
 10
10829.12750789964
 20
6919.4931824323257
 30
0.0
 11
10829.12750789964
 21
6930.7431824323266
 31
0.0
  0
LINE
  5
171D6
  8
SUNPOU
 10
10829.12750789964
 20
6896.9931824323266
 30
0.0
 11
10829.12750789964
 21
6885.7431824323266
 31
0.0
  0
LINE
  5
171D8
  8
SUNPOU
 10
11039.12750789964
 20
6519.4931824323257
 30
0.0
 11
11039.12750789964
 21
6530.7431824323276
 31
0.0
  0
LINE
  5
171DA
  8
SUNPOU
 10
10829.12750789964
 20
6519.4931824323257
 30
0.0
 11
10829.12750789964
 21
6530.7431824323276
 31
0.0
  0
LINE
  5
171DB
  8
SUNPOU
 10
9819.1275078996441
 20
9338.2431824323285
 30
0.0
 11
9819.1275078996441
 21
9453.2431824323248
 31
0.0
  0
LINE
  5
171DC
  8
SUNPOU
 10
10219.12750789964
 20
9138.2431824323248
 30
0.0
 11
10219.12750789964
 21
9453.2431824323248
 31
0.0
  0
LINE
  5
171DD
  8
SUNPOU
 10
9834.1275078996405
 20
9408.2431824323248
 30
0.0
 11
10204.12750789964
 21
9408.2431824323248
 31
0.0
  0
LINE
  5
171E1
  8
SUNPOU
 10
9819.1275078996441
 20
9338.2431824323285
 30
0.0
 11
9819.1275078996441
 21
9453.2431824323248
 31
0.0
  0
LINE
  5
171E2
  8
SUNPOU
 10
7019.1275078996414
 20
9338.2431824323285
 30
0.0
 11
7019.1275078996414
 21
9453.2431824323248
 31
0.0
  0
LINE
  5
171E3
  8
SUNPOU
 10
9804.1275078996405
 20
9408.2431824323248
 30
0.0
 11
7034.1275078996396
 21
9408.2431824323248
 31
0.0
  0
LINE
  5
171E7
  8
SUNPOU
 10
7644.1275078996414
 20
7118.2431824323266
 30
0.0
 11
7629.1275078996423
 21
7208.2431824323257
 31
0.0
  0
LINE
  5
171E8
  8
SUNPOU
 10
7629.1275078996423
 20
7208.2431824323257
 30
0.0
 11
7614.1275078996432
 21
7118.2431824323266
 31
0.0
  0
SOLID
  5
171E9
  8
SUNPOU
 10
7644.1275078996414
 20
7118.2431824323266
 30
0.0
 11
7614.1275078996432
 21
7118.2431824323266
 31
0.0
 12
7629.1275078996423
 22
7208.2431824323257
 32
0.0
 13
7629.1275078996423
 23
7208.2431824323257
 33
0.0
  0
LINE
  5
171EA
  8
SUNPOU
 10
7614.1275078996432
 20
7118.2431824323266
 30
0.0
 11
7644.1275078996414
 21
7118.2431824323266
 31
0.0
  0
LINE
  5
171EB
  8
SUNPOU
 10
6394.1275078996387
 20
7118.2431824323266
 30
0.0
 11
6409.1275078996387
 21
7208.2431824323257
 31
0.0
  0
LINE
  5
171EC
  8
SUNPOU
 10
6409.1275078996387
 20
7208.2431824323257
 30
0.0
 11
6424.1275078996377
 21
7118.2431824323266
 31
0.0
  0
SOLID
  5
171ED
  8
SUNPOU
 10
6394.1275078996387
 20
7118.2431824323266
 30
0.0
 11
6424.1275078996377
 21
7118.2431824323266
 31
0.0
 12
6409.1275078996387
 22
7208.2431824323257
 32
0.0
 13
6409.1275078996387
 23
7208.2431824323257
 33
0.0
  0
LINE
  5
171EE
  8
SUNPOU
 10
6424.1275078996377
 20
7118.2431824323266
 30
0.0
 11
6394.1275078996387
 21
7118.2431824323266
 31
0.0
  0
LINE
  5
171EF
  8
SUNPOU
 10
7019.1275078996414
 20
9338.2431824323285
 30
0.0
 11
7019.1275078996414
 21
9453.2431824323248
 31
0.0
  0
LINE
  5
171F0
  8
SUNPOU
 10
6619.1275078996414
 20
9138.2431824323248
 30
0.0
 11
6619.1275078996414
 21
9453.2431824323248
 31
0.0
  0
LINE
  5
171F1
  8
SUNPOU
 10
7004.1275078996423
 20
9408.2431824323248
 30
0.0
 11
6634.1275078996396
 21
9408.2431824323248
 31
0.0
  0
LINE
  5
171F5
  8
SUNPOU
 10
6619.1275078996414
 20
9138.2431824323248
 30
0.0
 11
6619.1275078996414
 21
9663.2431824323248
 31
0.0
  0
LINE
  5
171F6
  8
SUNPOU
 10
10219.12750789964
 20
9138.2431824323248
 30
0.0
 11
10219.12750789964
 21
9663.2431824323248
 31
0.0
  0
LINE
  5
171F7
  8
SUNPOU
 10
6634.1275078996396
 20
9618.2431824323248
 30
0.0
 11
10204.12750789964
 21
9618.2431824323248
 31
0.0
  0
TEXT
  5
171FB
  8
SUNPOU
 10
4484.142197881406
 20
4601.9637335207281
 30
0.0
 40
90.0
  1
400
 41
0.6666666666666666
  7
00
  0
LINE
  5
171FD
  8
SUNPOU
 10
4261.1064835956922
 20
4556.9637335207281
 30
0.0
 11
4272.3564835956913
 21
4556.9637335207281
 31
0.0
  0
LINE
  5
171FF
  8
SUNPOU
 10
4878.6064835956922
 20
4556.9637335207281
 30
0.0
 11
4867.3564835956922
 21
4556.9637335207281
 31
0.0
  0
TEXT
  5
17200
  8
SUNPOU
 10
6773.1875890046376
 20
3364.2494478064441
 30
0.0
 40
90.0
  1
380
 50
90.0
 41
0.6666666666666666
  7
00
  0
LINE
  5
17202
  8
SUNPOU
 10
6818.1875890046404
 20
3157.213733520729
 30
0.0
 11
6818.1875890046404
 21
3168.463733520729
 31
0.0
  0
LINE
  5
17204
  8
SUNPOU
 10
6818.1875890046404
 20
3742.713733520729
 30
0.0
 11
6818.1875890046404
 21
3731.463733520729
 31
0.0
  0
LINE
  5
17206
  8
SUNPOU
 10
6818.1875890046404
 20
2997.2137335207321
 30
0.0
 11
6818.1875890046404
 21
3008.4637335207321
 31
0.0
  0
LINE
  5
17208
  8
SUNPOU
 10
6818.1875890046404
 20
3134.7137335207281
 30
0.0
 11
6818.1875890046404
 21
3123.4637335207281
 31
0.0
  0
TEXT
  5
17209
  8
SUNPOU
 10
6775.0158212493907
 20
2760.2431029967888
 30
0.0
 40
90.0
  1
100
 50
90.0
 41
0.6666666666666666
  7
00
  0
TEXT
  5
1720A
  8
SUNPOU
 10
6979.4375890046376
 20
3284.249447806445
 30
0.0
 40
90.0
  1
480
 50
90.0
 41
0.6666666666666666
  7
00
  0
LINE
  5
1720C
  8
SUNPOU
 10
7024.4375890046404
 20
2997.2137335207321
 30
0.0
 11
7024.4375890046404
 21
3008.4637335207321
 31
0.0
  0
LINE
  5
1720E
  8
SUNPOU
 10
7024.4375890046404
 20
3742.713733520729
 30
0.0
 11
7024.4375890046404
 21
3731.463733520729
 31
0.0
  0
TEXT
  5
1720F
  8
SUNPOU
 10
4804.142197881406
 20
2650.9637335207281
 30
0.0
 40
90.0
  1
800
 41
0.6666666666666666
  7
00
  0
LINE
  5
17211
  8
SUNPOU
 10
5518.6064835956913
 20
2605.9637335207281
 30
0.0
 11
5507.3564835956922
 21
2605.9637335207281
 31
0.0
  0
LINE
  5
17213
  8
SUNPOU
 10
4261.1064835956922
 20
2605.9637335207281
 30
0.0
 11
4272.3564835956913
 21
2605.9637335207281
 31
0.0
  0
TEXT
  5
17214
  8
SUNPOU
 10
4771.2850550242629
 20
2440.963733520729
 30
0.0
 40
90.0
  1
1000
 41
0.6666666666666666
  7
00
  0
LINE
  5
17216
  8
SUNPOU
 10
5678.6064835956922
 20
2395.9637335207281
 30
0.0
 11
5667.3564835956931
 21
2395.9637335207281
 31
0.0
  0
LINE
  5
17218
  8
SUNPOU
 10
4101.1064835956922
 20
2395.9637335207281
 30
0.0
 11
4112.3564835956913
 21
2395.9637335207281
 31
0.0
  0
TEXT
  5
17219
  8
SUNPOU
 10
10574.12750789964
 20
8485.3860395751854
 30
0.0
 40
90.0
  1
200
 50
90.0
 41
0.6666666666666666
  7
00
  0
LINE
  5
1721B
  8
SUNPOU
 10
10619.12750789964
 20
8719.4931824323248
 30
0.0
 11
10619.12750789964
 21
8730.7431824323266
 31
0.0
  0
LINE
  5
1721D
  8
SUNPOU
 10
10619.12750789964
 20
8896.9931824323266
 30
0.0
 11
10619.12750789964
 21
8885.7431824323266
 31
0.0
  0
TEXT
  5
1721E
  8
SUNPOU
 10
10574.12750789964
 20
9159.6717538608991
 30
0.0
 40
90.0
  1
200
 50
90.0
 41
0.6666666666666666
  7
00
  0
LINE
  5
17220
  8
SUNPOU
 10
10619.12750789964
 20
9096.9931824323266
 30
0.0
 11
10619.12750789964
 21
9085.7431824323285
 31
0.0
  0
LINE
  5
17222
  8
SUNPOU
 10
10619.12750789964
 20
8919.4931824323248
 30
0.0
 11
10619.12750789964
 21
8930.7431824323285
 31
0.0
  0
TEXT
  5
17223
  8
SUNPOU
 10
9733.4132221853561
 20
8053.2431824323266
 30
0.0
 40
90.0
  1
800
 41
0.6666666666666666
  7
00
  0
LINE
  5
17225
  8
SUNPOU
 10
10207.87750789964
 20
8008.2431824323266
 30
0.0
 11
10196.62750789964
 21
8008.2431824323266
 31
0.0
  0
LINE
  5
17227
  8
SUNPOU
 10
9430.3775078996405
 20
8008.2431824323266
 30
0.0
 11
9441.6275078996405
 21
8008.2431824323266
 31
0.0
  0
TEXT
  5
17228
  8
SUNPOU
 10
9074.1275078996405
 20
8622.5288967180422
 30
0.0
 40
90.0
  1
800
 50
90.0
 41
0.6666666666666666
  7
00
  0
LINE
  5
1722A
  8
SUNPOU
 10
9119.1275078996405
 20
8319.4931824323248
 30
0.0
 11
9119.1275078996405
 21
8330.7431824323266
 31
0.0
  0
LINE
  5
1722C
  8
SUNPOU
 10
9119.1275078996405
 20
9096.9931824323266
 30
0.0
 11
9119.1275078996405
 21
9085.7431824323285
 31
0.0
  0
ARC
  5
1722D
  8
SUNPOU
 10
11039.12750789964
 20
9108.2431824323248
 30
0.0
 40
5.625
 50
270.0
 51
90.0
  0
ARC
  5
1722E
  8
SUNPOU
 10
11039.12750789964
 20
9108.2431824323248
 30
0.0
 40
5.625
 50
90.0
 51
270.0
  0
ARC
  5
1722F
  8
SUNPOU
 10
10829.12750789964
 20
9108.2431824323248
 30
0.0
 40
5.625
 50
270.0
 51
90.0
  0
ARC
  5
17230
  8
SUNPOU
 10
10829.12750789964
 20
9108.2431824323248
 30
0.0
 40
5.625
 50
90.0
 51
270.0
  0
ARC
  5
17231
  8
SUNPOU
 10
10829.12750789964
 20
8708.2431824323248
 30
0.0
 40
5.625
 50
270.0
 51
90.0
  0
ARC
  5
17232
  8
SUNPOU
 10
10829.12750789964
 20
8708.2431824323248
 30
0.0
 40
5.625
 50
90.0
 51
270.0
  0
ARC
  5
17233
  8
SUNPOU
 10
10829.12750789964
 20
8708.2431824323248
 30
0.0
 40
5.625
 50
90.0
 51
270.0
  0
ARC
  5
17234
  8
SUNPOU
 10
10829.12750789964
 20
8708.2431824323248
 30
0.0
 40
5.625
 50
270.0
 51
90.0
  0
ARC
  5
17235
  8
SUNPOU
 10
10829.12750789964
 20
6908.2431824323257
 30
0.0
 40
5.625
 50
90.0
 51
270.0
  0
ARC
  5
17236
  8
SUNPOU
 10
10829.12750789964
 20
6908.2431824323257
 30
0.0
 40
5.625
 50
270.0
 51
90.0
  0
ARC
  5
17237
  8
SUNPOU
 10
10829.12750789964
 20
6908.2431824323257
 30
0.0
 40
5.625
 50
270.0
 51
90.0
  0
ARC
  5
17238
  8
SUNPOU
 10
10829.12750789964
 20
6908.2431824323257
 30
0.0
 40
5.625
 50
90.0
 51
270.0
  0
ARC
  5
17239
  8
SUNPOU
 10
11039.12750789964
 20
6508.2431824323266
 30
0.0
 40
5.625
 50
90.0
 51
270.0
  0
ARC
  5
1723A
  8
SUNPOU
 10
11039.12750789964
 20
6508.2431824323266
 30
0.0
 40
5.625
 50
270.0
 51
90.0
  0
ARC
  5
1723B
  8
SUNPOU
 10
10829.12750789964
 20
6508.2431824323266
 30
0.0
 40
5.625
 50
90.0
 51
270.0
  0
ARC
  5
1723C
  8
SUNPOU
 10
10829.12750789964
 20
6508.2431824323266
 30
0.0
 40
5.625
 50
270.0
 51
90.0
  0
TEXT
  5
1723D
  8
SUNPOU
 10
9933.4132221853579
 20
9453.2431824323248
 30
0.0
 40
90.0
  1
400
 41
0.6666666666666666
  7
00
  0
LINE
  5
1723F
  8
SUNPOU
 10
10207.87750789964
 20
9408.2431824323248
 30
0.0
 11
10196.62750789964
 21
9408.2431824323248
 31
0.0
  0
LINE
  5
17241
  8
SUNPOU
 10
9830.3775078996405
 20
9408.2431824323248
 30
0.0
 11
9841.6275078996405
 21
9408.2431824323248
 31
0.0
  0
TEXT
  5
17242
  8
SUNPOU
 10
8304.8417936139249
 20
9453.2431824323248
 30
0.0
 40
90.0
  1
2800
 41
0.6666666666666666
  7
00
  0
LINE
  5
17244
  8
SUNPOU
 10
7030.3775078996414
 20
9408.2431824323248
 30
0.0
 11
7041.6275078996423
 21
9408.2431824323248
 31
0.0
  0
LINE
  5
17246
  8
SUNPOU
 10
9807.8775078996405
 20
9408.2431824323248
 30
0.0
 11
9796.6275078996405
 21
9408.2431824323248
 31
0.0
  0
TEXT
  5
17247
  8
SUNPOU
 10
6733.4132221853552
 20
9453.2431824323248
 30
0.0
 40
90.0
  1
400
 41
0.6666666666666666
  7
00
  0
LINE
  5
17249
  8
SUNPOU
 10
6630.3775078996414
 20
9408.2431824323248
 30
0.0
 11
6641.6275078996423
 21
9408.2431824323248
 31
0.0
  0
LINE
  5
1724B
  8
SUNPOU
 10
7007.8775078996396
 20
9408.2431824323248
 30
0.0
 11
6996.6275078996396
 21
9408.2431824323248
 31
0.0
  0
TEXT
  5
1724C
  8
SUNPOU
 10
8304.8417936139249
 20
9663.2431824323248
 30
0.0
 40
90.0
  1
3600
 41
0.6666666666666666
  7
00
  0
LINE
  5
1724E
  8
SUNPOU
 10
10207.87750789964
 20
9618.2431824323248
 30
0.0
 11
10196.62750789964
 21
9618.2431824323248
 31
0.0
  0
LINE
  5
17250
  8
SUNPOU
 10
6630.3775078996414
 20
9618.2431824323248
 30
0.0
 11
6641.6275078996423
 21
9618.2431824323248
 31
0.0
  0
ARC
  5
17251
  8
SUNPOU
 10
4249.8564835956913
 20
4556.9637335207281
 30
0.0
 40
5.625
 50
0.0
 51
180.0
  0
ARC
  5
17252
  8
SUNPOU
 10
4249.8564835956913
 20
4556.9637335207281
 30
0.0
 40
5.625
 50
180.0
 51
0.0
  0
ARC
  5
17253
  8
SUNPOU
 10
4889.8564835956931
 20
4556.9637335207281
 30
0.0
 40
5.625
 50
180.0
 51
0.0
  0
ARC
  5
17254
  8
SUNPOU
 10
4889.8564835956931
 20
4556.9637335207281
 30
0.0
 40
5.625
 50
0.0
 51
180.0
  0
ARC
  5
17255
  8
SUNPOU
 10
6818.1875890046404
 20
3145.963733520729
 30
0.0
 40
5.625
 50
90.0
 51
270.0
  0
ARC
  5
17256
  8
SUNPOU
 10
6818.1875890046404
 20
3145.963733520729
 30
0.0
 40
5.625
 50
270.0
 51
90.0
  0
ARC
  5
17257
  8
SUNPOU
 10
6818.1875890046404
 20
3753.963733520729
 30
0.0
 40
5.625
 50
270.0
 51
90.0
  0
ARC
  5
17258
  8
SUNPOU
 10
6818.1875890046404
 20
3753.963733520729
 30
0.0
 40
5.625
 50
90.0
 51
270.0
  0
ARC
  5
17259
  8
SUNPOU
 10
6818.1875890046404
 20
2985.9637335207321
 30
0.0
 40
5.625
 50
90.0
 51
270.0
  0
ARC
  5
1725A
  8
SUNPOU
 10
6818.1875890046404
 20
2985.9637335207321
 30
0.0
 40
5.625
 50
270.0
 51
90.0
  0
ARC
  5
1725B
  8
SUNPOU
 10
6818.1875890046404
 20
3145.9637335207281
 30
0.0
 40
5.625
 50
270.0
 51
90.0
  0
ARC
  5
1725C
  8
SUNPOU
 10
6818.1875890046404
 20
3145.9637335207281
 30
0.0
 40
5.625
 50
90.0
 51
270.0
  0
ARC
  5
1725D
  8
SUNPOU
 10
7024.4375890046404
 20
2985.9637335207321
 30
0.0
 40
5.625
 50
90.0
 51
270.0
  0
ARC
  5
1725E
  8
SUNPOU
 10
7024.4375890046404
 20
2985.9637335207321
 30
0.0
 40
5.625
 50
270.0
 51
90.0
  0
ARC
  5
1725F
  8
SUNPOU
 10
7024.4375890046404
 20
3753.963733520729
 30
0.0
 40
5.625
 50
270.0
 51
90.0
  0
ARC
  5
17260
  8
SUNPOU
 10
7024.4375890046404
 20
3753.963733520729
 30
0.0
 40
5.625
 50
90.0
 51
270.0
  0
ARC
  5
17261
  8
SUNPOU
 10
5529.8564835956922
 20
2605.9637335207281
 30
0.0
 40
5.625
 50
180.0
 51
0.0
  0
ARC
  5
17262
  8
SUNPOU
 10
5529.8564835956922
 20
2605.9637335207281
 30
0.0
 40
5.625
 50
0.0
 51
180.0
  0
ARC
  5
17263
  8
SUNPOU
 10
4249.8564835956913
 20
2605.9637335207281
 30
0.0
 40
5.625
 50
0.0
 51
180.0
  0
ARC
  5
17264
  8
SUNPOU
 10
4249.8564835956913
 20
2605.9637335207281
 30
0.0
 40
5.625
 50
180.0
 51
0.0
  0
ARC
  5
17265
  8
SUNPOU
 10
5689.8564835956931
 20
2395.9637335207281
 30
0.0
 40
5.625
 50
180.0
 51
0.0
  0
ARC
  5
17266
  8
SUNPOU
 10
5689.8564835956931
 20
2395.9637335207281
 30
0.0
 40
5.625
 50
0.0
 51
180.0
  0
ARC
  5
17267
  8
SUNPOU
 10
4089.8564835956909
 20
2395.9637335207281
 30
0.0
 40
5.625
 50
0.0
 51
180.0
  0
ARC
  5
17268
  8
SUNPOU
 10
4089.8564835956909
 20
2395.9637335207281
 30
0.0
 40
5.625
 50
180.0
 51
0.0
  0
ARC
  5
17269
  8
SUNPOU
 10
10619.12750789964
 20
8708.2431824323248
 30
0.0
 40
5.625
 50
90.0
 51
270.0
  0
ARC
  5
1726A
  8
SUNPOU
 10
10619.12750789964
 20
8708.2431824323248
 30
0.0
 40
5.625
 50
270.0
 51
90.0
  0
ARC
  5
1726B
  8
SUNPOU
 10
10619.12750789964
 20
8908.2431824323266
 30
0.0
 40
5.625
 50
270.0
 51
90.0
  0
ARC
  5
1726C
  8
SUNPOU
 10
10619.12750789964
 20
8908.2431824323266
 30
0.0
 40
5.625
 50
90.0
 51
270.0
  0
ARC
  5
1726D
  8
SUNPOU
 10
10619.12750789964
 20
9108.2431824323248
 30
0.0
 40
5.625
 50
270.0
 51
90.0
  0
ARC
  5
1726E
  8
SUNPOU
 10
10619.12750789964
 20
9108.2431824323248
 30
0.0
 40
5.625
 50
90.0
 51
270.0
  0
ARC
  5
1726F
  8
SUNPOU
 10
10619.12750789964
 20
8908.2431824323266
 30
0.0
 40
5.625
 50
90.0
 51
270.0
  0
ARC
  5
17270
  8
SUNPOU
 10
10619.12750789964
 20
8908.2431824323266
 30
0.0
 40
5.625
 50
270.0
 51
90.0
  0
ARC
  5
17271
  8
SUNPOU
 10
10219.12750789964
 20
8008.2431824323266
 30
0.0
 40
5.625
 50
180.0
 51
0.0
  0
ARC
  5
17272
  8
SUNPOU
 10
10219.12750789964
 20
8008.2431824323266
 30
0.0
 40
5.625
 50
0.0
 51
180.0
  0
ARC
  5
17273
  8
SUNPOU
 10
9419.1275078996405
 20
8008.2431824323266
 30
0.0
 40
5.625
 50
0.0
 51
180.0
  0
ARC
  5
17274
  8
SUNPOU
 10
9419.1275078996405
 20
8008.2431824323266
 30
0.0
 40
5.625
 50
180.0
 51
0.0
  0
ARC
  5
17275
  8
SUNPOU
 10
9119.1275078996405
 20
8308.2431824323266
 30
0.0
 40
5.625
 50
90.0
 51
270.0
  0
ARC
  5
17276
  8
SUNPOU
 10
9119.1275078996405
 20
8308.2431824323266
 30
0.0
 40
5.625
 50
270.0
 51
90.0
  0
ARC
  5
17277
  8
SUNPOU
 10
9119.1275078996405
 20
9108.2431824323248
 30
0.0
 40
5.625
 50
270.0
 51
90.0
  0
ARC
  5
17278
  8
SUNPOU
 10
9119.1275078996405
 20
9108.2431824323248
 30
0.0
 40
5.625
 50
90.0
 51
270.0
  0
ARC
  5
17279
  8
SUNPOU
 10
10219.12750789964
 20
9408.2431824323248
 30
0.0
 40
5.625
 50
180.0
 51
0.0
  0
ARC
  5
1727A
  8
SUNPOU
 10
10219.12750789964
 20
9408.2431824323248
 30
0.0
 40
5.625
 50
0.0
 51
180.0
  0
ARC
  5
1727B
  8
SUNPOU
 10
9819.1275078996441
 20
9408.2431824323248
 30
0.0
 40
5.625
 50
0.0
 51
180.0
  0
ARC
  5
1727C
  8
SUNPOU
 10
9819.1275078996441
 20
9408.2431824323248
 30
0.0
 40
5.625
 50
180.0
 51
0.0
  0
ARC
  5
1727D
  8
SUNPOU
 10
7019.1275078996414
 20
9408.2431824323248
 30
0.0
 40
5.625
 50
0.0
 51
180.0
  0
ARC
  5
1727E
  8
SUNPOU
 10
7019.1275078996414
 20
9408.2431824323248
 30
0.0
 40
5.625
 50
180.0
 51
0.0
  0
ARC
  5
1727F
  8
SUNPOU
 10
9819.1275078996441
 20
9408.2431824323248
 30
0.0
 40
5.625
 50
180.0
 51
0.0
  0
ARC
  5
17280
  8
SUNPOU
 10
9819.1275078996441
 20
9408.2431824323248
 30
0.0
 40
5.625
 50
0.0
 51
180.0
  0
ARC
  5
17281
  8
SUNPOU
 10
6619.1275078996414
 20
9408.2431824323248
 30
0.0
 40
5.625
 50
0.0
 51
180.0
  0
ARC
  5
17282
  8
SUNPOU
 10
6619.1275078996414
 20
9408.2431824323248
 30
0.0
 40
5.625
 50
180.0
 51
0.0
  0
ARC
  5
17283
  8
SUNPOU
 10
7019.1275078996414
 20
9408.2431824323248
 30
0.0
 40
5.625
 50
180.0
 51
0.0
  0
ARC
  5
17284
  8
SUNPOU
 10
7019.1275078996414
 20
9408.2431824323248
 30
0.0
 40
5.625
 50
0.0
 51
180.0
  0
ARC
  5
17285
  8
SUNPOU
 10
10219.12750789964
 20
9618.2431824323248
 30
0.0
 40
5.625
 50
180.0
 51
0.0
  0
ARC
  5
17286
  8
SUNPOU
 10
10219.12750789964
 20
9618.2431824323248
 30
0.0
 40
5.625
 50
0.0
 51
180.0
  0
ARC
  5
17287
  8
SUNPOU
 10
6619.1275078996414
 20
9618.2431824323248
 30
0.0
 40
5.625
 50
0.0
 51
180.0
  0
ARC
  5
17288
  8
SUNPOU
 10
6619.1275078996414
 20
9618.2431824323248
 30
0.0
 40
5.625
 50
180.0
 51
0.0
  0
ARC
  5
1728C
  8
HIKIDASHI
 10
4217.3889148488761
 20
4214.3484620435202
 30
0.0
 40
74.664179104461553
 50
164.8596129851118
 51
237.5045002941574
  0
ARC
  5
1728D
  8
HIKIDASHI
 10
4153.9651208026226
 20
4231.5094855279904
 30
0.0
 40
8.9597014925353893
 50
15.140387015063389
 51
164.8596129849366
  0
LINE
  5
17294
  8
HIKIDASHI
 10
4627.8885384367513
 20
3319.2457658234839
 30
0.0
 11
4186.8169571802318
 21
4083.204154334509
 31
0.0
1001
ACAD
1000
DSTYLE
1002
{
1070
   147
1040
1.0
1070
    77
1070
     0
1002
}
  0
LINE
  5
17295
  8
HIKIDASHI
 10
4616.3415330529588
 20
3312.5790991568169
 30
0.0
 11
4667.8885384367513
 21
3249.963733520729
 31
0.0
  0
LINE
  5
17296
  8
HIKIDASHI
 10
4667.8885384367513
 20
3249.963733520729
 30
0.0
 11
4639.4355438205448
 21
3325.9124324901509
 31
0.0
  0
SOLID
  5
17297
  8
HIKIDASHI
 10
4616.3415330529588
 20
3312.5790991568169
 30
0.0
 11
4639.4355438205448
 21
3325.9124324901509
 31
0.0
 12
4667.8885384367513
 22
3249.963733520729
 32
0.0
 13
4667.8885384367513
 23
3249.963733520729
 33
0.0
  0
LINE
  5
17298
  8
HIKIDASHI
 10
4639.4355438205448
 20
3325.9124324901509
 30
0.0
 11
4616.3415330529588
 21
3312.5790991568169
 31
0.0
  0
ARC
  5
17299
  8
HIKIDASHI
 10
4091.7208532921081
 20
4215.5285894031094
 30
0.0
 40
74.664179104460814
 50
301.7712278330701
 51
15.1403870149094
  0
LINE
  5
1729A
  8
HIKIDASHI
 10
5936.4245124558256
 20
3642.4779243258758
 30
0.0
 11
6196.4832710071169
 21
4083.9637335207281
 31
0.0
1001
ACAD
1000
DSTYLE
1002
{
1070
   147
1040
1.0
1070
    77
1070
     0
1070
   173
1070
     0
1070
   341
1005
125B0
1002
}
  0
ARC
  5
1729B
  8
HIKIDASHI
 10
5906.3201996862208
 20
3551.966211169527
 30
0.0
 40
24.0
 50
3.0569491463008922
 51
115.9423296224593
  0
ARC
  5
1729C
  8
HIKIDASHI
 10
5885.3218194679639
 20
3595.129482920051
 30
0.0
 40
24.0
 50
183.05694914630089
 51
295.9423296224594
  0
LINE
  5
1729D
  8
HIKIDASHI
 10
5895.8210095770919
 20
3573.5478470447888
 30
0.0
 11
5936.4245124558356
 21
3642.4779243258909
 31
0.0
  0
LINE
  5
1729E
  8
HIKIDASHI
 10
5719.3852014924478
 20
3823.2457658234862
 30
0.0
 11
5991.1543468548143
 21
4293.9637335207281
 31
0.0
1001
ACAD
1000
DSTYLE
1002
{
1070
   147
1040
1.0
1070
    77
1070
     0
1002
}
  0
LINE
  5
1729F
  8
HIKIDASHI
 10
5707.838196108657
 20
3829.9124324901518
 30
0.0
 11
5679.3852014924514
 21
3753.963733520729
 31
0.0
  0
LINE
  5
172A0
  8
HIKIDASHI
 10
5679.3852014924514
 20
3753.963733520729
 30
0.0
 11
5730.9322068762413
 21
3816.5790991568201
 31
0.0
  0
SOLID
  5
172A1
  8
HIKIDASHI
 10
5707.838196108657
 20
3829.9124324901518
 30
0.0
 11
5730.9322068762413
 21
3816.5790991568201
 31
0.0
 12
5679.3852014924514
 22
3753.963733520729
 32
0.0
 13
5679.3852014924514
 23
3753.963733520729
 33
0.0
  0
LINE
  5
172A2
  8
HIKIDASHI
 10
5730.9322068762413
 20
3816.5790991568201
 30
0.0
 11
5707.838196108657
 21
3829.9124324901518
 31
0.0
  0
LINE
  5
172A3
  8
HIKIDASHI
 10
4058.2724235744081
 20
3024.462392359007
 30
0.0
 11
3864.6898786117331
 21
2573.963733520729
 31
0.0
  0
LINE
  5
172A4
  8
HIKIDASHI
 10
4070.5226471013621
 20
3019.1983823554592
 30
0.0
 11
4089.8564835956909
 21
3097.963733520729
 31
0.0
  0
LINE
  5
172A5
  8
HIKIDASHI
 10
4089.8564835956909
 20
3097.963733520729
 30
0.0
 11
4046.0222000474532
 21
3029.7264023625539
 31
0.0
  0
SOLID
  5
172A6
  8
HIKIDASHI
 10
4070.5226471013621
 20
3019.1983823554592
 30
0.0
 11
4046.0222000474532
 21
3029.7264023625539
 31
0.0
 12
4089.8564835956909
 22
3097.963733520729
 32
0.0
 13
4089.8564835956909
 23
3097.963733520729
 33
0.0
  0
LINE
  5
172A7
  8
HIKIDASHI
 10
4046.0222000474532
 20
3029.7264023625539
 30
0.0
 11
4070.5226471013621
 21
3019.1983823554592
 31
0.0
  0
LINE
  5
172A8
  8
HATCH
 10
5353.5448173974619
 20
2985.963733520729
 30
0.0
 11
5445.9208604677888
 21
3145.9637335207049
 31
0.0
  0
LINE
  5
172A9
  8
HATCH
 10
5381.9208604677979
 20
3145.963733520704
 30
0.0
 11
5413.9208604677933
 21
3090.538107678512
 31
0.0
  0
LINE
  5
172AA
  8
HATCH
 10
5385.5448173974573
 20
3041.3893593629268
 30
0.0
 11
5417.5448173974519
 21
2985.963733520729
 31
0.0
  0
LINE
  5
172AB
  8
HATCH
 10
5153.5448173974619
 20
2985.963733520729
 30
0.0
 11
5245.9208604677888
 21
3145.9637335207049
 31
0.0
  0
LINE
  5
172AC
  8
HATCH
 10
5181.9208604677979
 20
3145.963733520704
 30
0.0
 11
5213.9208604677933
 21
3090.538107678512
 31
0.0
  0
LINE
  5
172AD
  8
HATCH
 10
5185.5448173974573
 20
3041.3893593629268
 30
0.0
 11
5217.5448173974528
 21
2985.963733520729
 31
0.0
  0
LINE
  5
172AE
  8
HATCH
 10
4953.5448173974619
 20
2985.963733520729
 30
0.0
 11
5045.9208604677888
 21
3145.9637335207049
 31
0.0
  0
LINE
  5
172AF
  8
HATCH
 10
4981.9208604677979
 20
3145.963733520704
 30
0.0
 11
5013.9208604677933
 21
3090.538107678512
 31
0.0
  0
LINE
  5
172B0
  8
HATCH
 10
4985.5448173974573
 20
3041.3893593629268
 30
0.0
 11
5017.5448173974519
 21
2985.963733520729
 31
0.0
  0
LINE
  5
172B1
  8
HATCH
 10
4553.5448173974619
 20
2985.963733520729
 30
0.0
 11
4645.920860467787
 21
3145.9637335207049
 31
0.0
  0
LINE
  5
172B2
  8
HATCH
 10
4581.9208604677979
 20
3145.963733520704
 30
0.0
 11
4613.9208604677933
 21
3090.538107678512
 31
0.0
  0
LINE
  5
172B3
  8
HATCH
 10
4585.5448173974573
 20
3041.3893593629268
 30
0.0
 11
4617.5448173974519
 21
2985.963733520729
 31
0.0
  0
LINE
  5
172B4
  8
HATCH
 10
4353.5448173974619
 20
2985.963733520729
 30
0.0
 11
4445.9208604677888
 21
3145.9637335207049
 31
0.0
  0
LINE
  5
172B5
  8
HATCH
 10
4381.9208604677979
 20
3145.963733520704
 30
0.0
 11
4413.9208604677933
 21
3090.538107678512
 31
0.0
  0
LINE
  5
172B6
  8
HATCH
 10
4385.5448173974573
 20
3041.3893593629268
 30
0.0
 11
4417.5448173974519
 21
2985.963733520729
 31
0.0
  0
LINE
  5
172B7
  8
HATCH
 10
4753.5448173974619
 20
2985.963733520729
 30
0.0
 11
4845.9208604677888
 21
3145.9637335207049
 31
0.0
  0
LINE
  5
172B8
  8
HATCH
 10
4781.9208604677979
 20
3145.963733520704
 30
0.0
 11
4813.9208604677933
 21
3090.538107678512
 31
0.0
  0
LINE
  5
172B9
  8
HATCH
 10
4785.5448173974573
 20
3041.3893593629268
 30
0.0
 11
4817.5448173974519
 21
2985.963733520729
 31
0.0
  0
LINE
  5
172BA
  8
HATCH
 10
5553.5448173974628
 20
2985.9637335207299
 30
0.0
 11
5645.9208604677888
 21
3145.9637335207058
 31
0.0
  0
LINE
  5
172BB
  8
HATCH
 10
5581.9208604677988
 20
3145.963733520704
 30
0.0
 11
5613.9208604677951
 21
3090.538107678512
 31
0.0
  0
LINE
  5
172BC
  8
HATCH
 10
5585.5448173974582
 20
3041.3893593629268
 30
0.0
 11
5617.5448173974528
 21
2985.9637335207299
 31
0.0
  0
LINE
  5
172BD
  8
HATCH
 10
4153.5448173974619
 20
2985.9637335207281
 30
0.0
 11
4245.9208604677897
 21
3145.963733520704
 31
0.0
  0
LINE
  5
172BE
  8
HATCH
 10
4181.9208604677988
 20
3145.963733520703
 30
0.0
 11
4213.9208604677933
 21
3090.5381076785111
 31
0.0
  0
LINE
  5
172BF
  8
HATCH
 10
4185.5448173974592
 20
3041.3893593629259
 30
0.0
 11
4217.5448173974528
 21
2985.9637335207281
 31
0.0
  0
LINE
  5
172C0
  8
TEKKIN
 10
4837.8564835956913
 20
3249.963733520729
 30
0.0
 11
4609.8564835956913
 21
3249.963733520729
 31
0.0
  0
LINE
  5
172C1
  8
TEKKIN
 10
4609.8564835956913
 20
3249.963733520729
 30
0.0
 11
4609.8564835956913
 21
3233.9637335207299
 31
0.0
  0
LINE
  5
172C2
  8
TEKKIN
 10
4609.8564835956913
 20
3233.9637335207299
 30
0.0
 11
4837.8564835956913
 21
3233.9637335207299
 31
0.0
  0
LINE
  5
172C3
  8
TEKKIN
 10
4941.8564835956913
 20
3233.9637335207299
 30
0.0
 11
5169.8564835956913
 21
3233.9637335207299
 31
0.0
  0
LINE
  5
172C4
  8
TEKKIN
 10
5169.8564835956913
 20
3233.9637335207299
 30
0.0
 11
5169.8564835956913
 21
3249.963733520729
 31
0.0
  0
LINE
  5
172C5
  8
TEKKIN
 10
5169.8564835956913
 20
3249.963733520729
 30
0.0
 11
4941.8564835956913
 21
3249.963733520729
 31
0.0
  0
LINE
  5
172C6
  8
DOMAKON
 10
6619.1275078996414
 20
8908.2431824323266
 30
0.0
 11
10219.12750789964
 21
8908.2431824323266
 31
0.0
  0
LINE
  5
172C7
  8
DOMAKON
 10
10219.12750789964
 20
8908.2431824323266
 30
0.0
 11
10219.12750789964
 21
6508.2431824323266
 31
0.0
  0
LINE
  5
172C8
  8
DOMAKON
 10
10219.12750789964
 20
6508.2431824323266
 30
0.0
 11
6619.1275078996414
 21
6508.2431824323266
 31
0.0
  0
LINE
  5
172C9
  8
DOMAKON
 10
6619.1275078996414
 20
6508.2431824323266
 30
0.0
 11
6619.1275078996414
 21
8908.2431824323266
 31
0.0
  0
LINE
  5
172CA
  8
U1
 10
7025.3275078996412
 20
6938.4431824323274
 30
0.0
 11
6992.9275078996407
 21
6938.4431824323274
 31
0.0
  0
LINE
  5
172CB
  8
U1
 10
6992.9275078996407
 20
6878.0431824323259
 30
0.0
 11
7045.3275078996412
 21
6878.0431824323259
 31
0.0
  0
ARC
  5
172CD
  8
U1
 10
6992.9275078996407
 20
6882.043182432325
 30
0.0
 40
4.0
 50
180.0
 51
270.0
  0
ARC
  5
172CE
  8
U1
 10
6992.9275078996407
 20
6934.4431824323246
 30
0.0
 40
4.0
 50
90.0
 51
180.0
  0
LINE
  5
172CF
  8
U1
 10
6988.9275078996397
 20
6934.4431824323246
 30
0.0
 11
6988.9275078996397
 21
6882.043182432325
 31
0.0
  0
ARC
  5
172D0
  8
U1
 10
7045.3275078996412
 20
6882.043182432325
 30
0.0
 40
4.0
 50
270.0
 51
0.0
  0
ARC
  5
172D1
  8
U1
 10
7025.3275078996412
 20
6934.4431824323246
 30
0.0
 40
4.0
 50
0.0
 51
90.0
  0
ARC
  5
172D2
  8
U1
 10
7032.777507899641
 20
6925.1931824323274
 30
0.0
 40
1.149999999999977
 50
180.0
 51
0.0
  0
LINE
  5
172D3
  8
U1
 10
7036.2275078996399
 20
6932.7431824323266
 30
0.0
 11
7036.2275078996399
 21
6925.1931824323274
 31
0.0
  0
LINE
  5
172D4
  8
U1
 10
7033.9275078996388
 20
6932.7431824323266
 30
0.0
 11
7036.2275078996399
 21
6932.7431824323266
 31
0.0
  0
LINE
  5
172D5
  8
U1
 10
7031.6275078996414
 20
6925.7431824323257
 30
0.0
 11
7033.9275078996388
 21
6925.7431824323257
 31
0.0
  0
ARC
  5
172D6
  8
U1
 10
7032.777507899641
 20
6925.1931824323274
 30
0.0
 40
3.4500000000000441
 50
180.0
 51
0.0
  0
LINE
  5
172D7
  8
U1
 10
7031.6275078996414
 20
6925.1931824323274
 30
0.0
 11
7031.6275078996414
 21
6934.4431824323246
 31
0.0
  0
LINE
  5
172D8
  8
U1
 10
7033.9275078996388
 20
6934.4431824323246
 30
0.0
 11
7033.9275078996388
 21
6925.1931824323274
 31
0.0
  0
LINE
  5
172D9
  8
U1
 10
7029.3275078996412
 20
6925.1931824323274
 30
0.0
 11
7029.3275078996412
 21
6934.4431824323246
 31
0.0
  0
ARC
  5
172DA
  8
U1
 10
7045.3275078996412
 20
6934.4431824323246
 30
0.0
 40
4.0
 50
0.0
 51
90.0
  0
LINE
  5
172DB
  8
U1
 10
7045.3275078996412
 20
6938.4431824323274
 30
0.0
 11
7037.9275078996434
 21
6938.4431824323274
 31
0.0
  0
ARC
  5
172DC
  8
U1
 10
7037.9275078996434
 20
6934.4431824323246
 30
0.0
 40
4.0
 50
90.0
 51
180.0
  0
LINE
  5
172DD
  8
U1
 10
7049.3275078996421
 20
6882.043182432325
 30
0.0
 11
7049.3275078996421
 21
6934.4431824323246
 31
0.0
  0
LINE
  5
172DE
  8
U1
 10
7025.3275078996412
 20
8738.4431824323256
 30
0.0
 11
6992.9275078996407
 21
8738.4431824323256
 31
0.0
  0
LINE
  5
172DF
  8
U1
 10
6992.9275078996407
 20
8678.0431824323241
 30
0.0
 11
7045.3275078996412
 21
8678.0431824323241
 31
0.0
  0
ARC
  5
172E1
  8
U1
 10
6992.9275078996407
 20
8682.0431824323277
 30
0.0
 40
4.0
 50
180.0
 51
270.0
  0
ARC
  5
172E2
  8
U1
 10
6992.9275078996407
 20
8734.4431824323256
 30
0.0
 40
4.0
 50
90.0
 51
180.0
  0
LINE
  5
172E3
  8
U1
 10
6988.9275078996397
 20
8734.4431824323256
 30
0.0
 11
6988.9275078996397
 21
8682.0431824323277
 31
0.0
  0
ARC
  5
172E4
  8
U1
 10
7045.3275078996412
 20
8682.0431824323277
 30
0.0
 40
4.0
 50
270.0
 51
0.0
  0
ARC
  5
172E5
  8
U1
 10
7025.3275078996412
 20
8734.4431824323256
 30
0.0
 40
4.0
 50
0.0
 51
90.0
  0
ARC
  5
172E6
  8
U1
 10
7032.777507899641
 20
8725.1931824323256
 30
0.0
 40
1.149999999999977
 50
180.0
 51
0.0
  0
LINE
  5
172E7
  8
U1
 10
7036.2275078996399
 20
8732.7431824323285
 30
0.0
 11
7036.2275078996399
 21
8725.1931824323256
 31
0.0
  0
LINE
  5
172E8
  8
U1
 10
7033.9275078996388
 20
8732.7431824323285
 30
0.0
 11
7036.2275078996399
 21
8732.7431824323285
 31
0.0
  0
LINE
  5
172E9
  8
U1
 10
7031.6275078996414
 20
8725.7431824323248
 30
0.0
 11
7033.9275078996388
 21
8725.7431824323248
 31
0.0
  0
ARC
  5
172EA
  8
U1
 10
7032.777507899641
 20
8725.1931824323256
 30
0.0
 40
3.4500000000000441
 50
180.0
 51
0.0
  0
LINE
  5
172EB
  8
U1
 10
7031.6275078996414
 20
8725.1931824323256
 30
0.0
 11
7031.6275078996414
 21
8734.4431824323256
 31
0.0
  0
LINE
  5
172EC
  8
U1
 10
7033.9275078996388
 20
8734.4431824323256
 30
0.0
 11
7033.9275078996388
 21
8725.1931824323256
 31
0.0
  0
LINE
  5
172ED
  8
U1
 10
7029.3275078996412
 20
8725.1931824323256
 30
0.0
 11
7029.3275078996412
 21
8734.4431824323256
 31
0.0
  0
ARC
  5
172EE
  8
U1
 10
7045.3275078996412
 20
8734.4431824323256
 30
0.0
 40
4.0
 50
0.0
 51
90.0
  0
LINE
  5
172EF
  8
U1
 10
7045.3275078996412
 20
8738.4431824323256
 30
0.0
 11
7037.9275078996434
 21
8738.4431824323256
 31
0.0
  0
ARC
  5
172F0
  8
U1
 10
7037.9275078996434
 20
8734.4431824323256
 30
0.0
 40
4.0
 50
90.0
 51
180.0
  0
LINE
  5
172F1
  8
U1
 10
7049.3275078996421
 20
8682.0431824323277
 30
0.0
 11
7049.3275078996421
 21
8734.4431824323256
 31
0.0
  0
LINE
  5
172F2
  8
U1
 10
9825.327507899643
 20
8738.4431824323256
 30
0.0
 11
9792.9275078996416
 21
8738.4431824323256
 31
0.0
  0
LINE
  5
172F3
  8
U1
 10
9792.9275078996416
 20
8678.0431824323241
 30
0.0
 11
9845.3275078996394
 21
8678.0431824323241
 31
0.0
  0
ARC
  5
172F5
  8
U1
 10
9792.9275078996416
 20
8682.0431824323277
 30
0.0
 40
4.0
 50
180.0
 51
270.0
  0
ARC
  5
172F6
  8
U1
 10
9792.9275078996416
 20
8734.4431824323256
 30
0.0
 40
4.0
 50
90.0
 51
180.0
  0
LINE
  5
172F7
  8
U1
 10
9788.9275078996416
 20
8734.4431824323256
 30
0.0
 11
9788.9275078996416
 21
8682.0431824323277
 31
0.0
  0
ARC
  5
172F8
  8
U1
 10
9845.3275078996394
 20
8682.0431824323277
 30
0.0
 40
4.0
 50
270.0
 51
0.0
  0
ARC
  5
172F9
  8
U1
 10
9825.327507899643
 20
8734.4431824323256
 30
0.0
 40
4.0
 50
0.0
 51
90.0
  0
ARC
  5
172FA
  8
U1
 10
9832.7775078996419
 20
8725.1931824323256
 30
0.0
 40
1.149999999999977
 50
180.0
 51
0.0
  0
LINE
  5
172FB
  8
U1
 10
9836.227507899639
 20
8732.7431824323285
 30
0.0
 11
9836.227507899639
 21
8725.1931824323256
 31
0.0
  0
LINE
  5
172FC
  8
U1
 10
9833.9275078996397
 20
8732.7431824323285
 30
0.0
 11
9836.227507899639
 21
8732.7431824323285
 31
0.0
  0
LINE
  5
172FD
  8
U1
 10
9831.6275078996405
 20
8725.7431824323248
 30
0.0
 11
9833.9275078996397
 21
8725.7431824323248
 31
0.0
  0
ARC
  5
172FE
  8
U1
 10
9832.7775078996419
 20
8725.1931824323256
 30
0.0
 40
3.4500000000000441
 50
180.0
 51
0.0
  0
LINE
  5
172FF
  8
U1
 10
9831.6275078996405
 20
8725.1931824323256
 30
0.0
 11
9831.6275078996405
 21
8734.4431824323256
 31
0.0
  0
LINE
  5
17300
  8
U1
 10
9833.9275078996397
 20
8734.4431824323256
 30
0.0
 11
9833.9275078996397
 21
8725.1931824323256
 31
0.0
  0
LINE
  5
17301
  8
U1
 10
9829.3275078996412
 20
8725.1931824323256
 30
0.0
 11
9829.3275078996412
 21
8734.4431824323256
 31
0.0
  0
ARC
  5
17302
  8
U1
 10
9845.3275078996394
 20
8734.4431824323256
 30
0.0
 40
4.0
 50
0.0
 51
90.0
  0
LINE
  5
17303
  8
U1
 10
9845.3275078996394
 20
8738.4431824323256
 30
0.0
 11
9837.9275078996416
 21
8738.4431824323256
 31
0.0
  0
ARC
  5
17304
  8
U1
 10
9837.9275078996416
 20
8734.4431824323256
 30
0.0
 40
4.0
 50
90.0
 51
180.0
  0
LINE
  5
17305
  8
U1
 10
9849.3275078996448
 20
8682.0431824323277
 30
0.0
 11
9849.3275078996448
 21
8734.4431824323256
 31
0.0
  0
LINE
  5
17306
  8
U1
 10
9825.327507899643
 20
6938.4431824323274
 30
0.0
 11
9792.9275078996416
 21
6938.4431824323274
 31
0.0
  0
LINE
  5
17307
  8
U1
 10
9792.9275078996416
 20
6878.0431824323259
 30
0.0
 11
9845.3275078996394
 21
6878.0431824323259
 31
0.0
  0
ARC
  5
17309
  8
U1
 10
9792.9275078996416
 20
6882.043182432325
 30
0.0
 40
4.0
 50
180.0
 51
270.0
  0
ARC
  5
1730A
  8
U1
 10
9792.9275078996416
 20
6934.4431824323246
 30
0.0
 40
4.0
 50
90.0
 51
180.0
  0
LINE
  5
1730B
  8
U1
 10
9788.9275078996416
 20
6934.4431824323246
 30
0.0
 11
9788.9275078996416
 21
6882.043182432325
 31
0.0
  0
ARC
  5
1730C
  8
U1
 10
9845.3275078996394
 20
6882.043182432325
 30
0.0
 40
4.0
 50
270.0
 51
0.0
  0
ARC
  5
1730D
  8
U1
 10
9825.327507899643
 20
6934.4431824323246
 30
0.0
 40
4.0
 50
0.0
 51
90.0
  0
ARC
  5
1730E
  8
U1
 10
9832.7775078996419
 20
6925.1931824323274
 30
0.0
 40
1.149999999999977
 50
180.0
 51
0.0
  0
LINE
  5
1730F
  8
U1
 10
9836.227507899639
 20
6932.7431824323266
 30
0.0
 11
9836.227507899639
 21
6925.1931824323274
 31
0.0
  0
LINE
  5
17310
  8
U1
 10
9833.9275078996397
 20
6932.7431824323266
 30
0.0
 11
9836.227507899639
 21
6932.7431824323266
 31
0.0
  0
LINE
  5
17311
  8
U1
 10
9831.6275078996405
 20
6925.7431824323257
 30
0.0
 11
9833.9275078996397
 21
6925.7431824323257
 31
0.0
  0
ARC
  5
17312
  8
U1
 10
9832.7775078996419
 20
6925.1931824323274
 30
0.0
 40
3.4500000000000441
 50
180.0
 51
0.0
  0
LINE
  5
17313
  8
U1
 10
9831.6275078996405
 20
6925.1931824323274
 30
0.0
 11
9831.6275078996405
 21
6934.4431824323246
 31
0.0
  0
LINE
  5
17314
  8
U1
 10
9833.9275078996397
 20
6934.4431824323246
 30
0.0
 11
9833.9275078996397
 21
6925.1931824323274
 31
0.0
  0
LINE
  5
17315
  8
U1
 10
9829.3275078996412
 20
6925.1931824323274
 30
0.0
 11
9829.3275078996412
 21
6934.4431824323246
 31
0.0
  0
ARC
  5
17316
  8
U1
 10
9845.3275078996394
 20
6934.4431824323246
 30
0.0
 40
4.0
 50
0.0
 51
90.0
  0
LINE
  5
17317
  8
U1
 10
9845.3275078996394
 20
6938.4431824323274
 30
0.0
 11
9837.9275078996416
 21
6938.4431824323274
 31
0.0
  0
ARC
  5
17318
  8
U1
 10
9837.9275078996416
 20
6934.4431824323246
 30
0.0
 40
4.0
 50
90.0
 51
180.0
  0
LINE
  5
17319
  8
U1
 10
9849.3275078996448
 20
6882.043182432325
 30
0.0
 11
9849.3275078996448
 21
6934.4431824323246
 31
0.0
  0
LINE
  5
1731A
  8
KISO
 10
10219.12750789964
 20
6508.2431824323266
 30
0.0
 11
9419.1275078996405
 21
6508.2431824323266
 31
0.0
  0
LINE
  5
1731B
  8
KISO
 10
9419.1275078996405
 20
6508.2431824323266
 30
0.0
 11
9419.1275078996405
 21
7308.2431824323266
 31
0.0
  0
LINE
  5
1731C
  8
KISO
 10
9419.1275078996405
 20
7308.2431824323266
 30
0.0
 11
10219.12750789964
 21
7308.2431824323266
 31
0.0
  0
LINE
  5
1731D
  8
KISO
 10
10219.12750789964
 20
7308.2431824323266
 30
0.0
 11
10219.12750789964
 21
6508.2431824323266
 31
0.0
  0
LINE
  5
1731E
  8
KISO
 10
10219.12750789964
 20
8308.2431824323266
 30
0.0
 11
9419.1275078996405
 21
8308.2431824323266
 31
0.0
  0
LINE
  5
1731F
  8
KISO
 10
9419.1275078996405
 20
8308.2431824323266
 30
0.0
 11
9419.1275078996405
 21
9108.2431824323248
 31
0.0
  0
LINE
  5
17320
  8
KISO
 10
9419.1275078996405
 20
9108.2431824323248
 30
0.0
 11
10219.12750789964
 21
9108.2431824323248
 31
0.0
  0
LINE
  5
17321
  8
KISO
 10
10219.12750789964
 20
9108.2431824323248
 30
0.0
 11
10219.12750789964
 21
8308.2431824323266
 31
0.0
  0
LINE
  5
17322
  8
KISO
 10
7419.1275078996414
 20
8308.2431824323266
 30
0.0
 11
6619.1275078996414
 21
8308.2431824323266
 31
0.0
  0
LINE
  5
17323
  8
KISO
 10
6619.1275078996414
 20
8308.2431824323266
 30
0.0
 11
6619.1275078996414
 21
9108.2431824323248
 31
0.0
  0
LINE
  5
17324
  8
KISO
 10
6619.1275078996414
 20
9108.2431824323248
 30
0.0
 11
7419.1275078996414
 21
9108.2431824323248
 31
0.0
  0
LINE
  5
17325
  8
KISO
 10
7419.1275078996414
 20
9108.2431824323248
 30
0.0
 11
7419.1275078996414
 21
8308.2431824323266
 31
0.0
  0
LINE
  5
17326
  8
KISO
 10
7419.1275078996414
 20
6508.2431824323266
 30
0.0
 11
6619.1275078996414
 21
6508.2431824323266
 31
0.0
  0
LINE
  5
17327
  8
KISO
 10
6619.1275078996414
 20
6508.2431824323266
 30
0.0
 11
6619.1275078996414
 21
7308.2431824323266
 31
0.0
  0
LINE
  5
17328
  8
KISO
 10
6619.1275078996414
 20
7308.2431824323266
 30
0.0
 11
7419.1275078996414
 21
7308.2431824323266
 31
0.0
  0
LINE
  5
17329
  8
KISO
 10
7419.1275078996414
 20
7308.2431824323266
 30
0.0
 11
7419.1275078996414
 21
6508.2431824323266
 31
0.0
  0
LINE
  5
1732A
  8
YANE
  6
2PL-L
 62
     6
 10
10215.12750789964
 20
6408.2431824323257
 30
0.0
 11
6623.1275078996377
 21
6408.2431824323257
 31
0.0
  0
LINE
  5
1732B
  8
YANE
  6
2PL-L
 62
     6
 10
6623.1275078996377
 20
6408.2431824323257
 30
0.0
 11
6623.1275078996377
 21
8958.2431824323248
 31
0.0
  0
LINE
  5
1732C
  8
YANE
  6
2PL-L
 62
     6
 10
6623.1275078996377
 20
8958.2431824323248
 30
0.0
 11
10215.12750789964
 21
8958.2431824323248
 31
0.0
  0
LINE
  5
1732D
  8
YANE
  6
2PL-L
 62
     6
 10
10215.12750789964
 20
8958.2431824323248
 30
0.0
 11
10215.12750789964
 21
6408.2431824323257
 31
0.0
  0
ARC
  5
1732E
  8
U1
 10
7045.3275078996412
 20
6934.4431824323283
 30
0.0
 40
6.2999999999992724
 50
359.9999999999917
 51
90.000000000008257
  0
LINE
  5
1732F
  8
U1
 10
7045.3275078996412
 20
6940.7431824323266
 30
0.0
 11
7037.9275078996434
 21
6940.7431824323266
 31
0.0
  0
ARC
  5
17330
  8
U1
 10
7037.9275078996434
 20
6934.4431824323283
 30
0.0
 40
6.2999999999992724
 50
89.999999999991729
 51
180.00000000000821
  0
ARC
  5
17331
  8
U1
 10
7025.3275078996412
 20
6934.4431824323246
 30
0.0
 40
6.300000000000181
 50
0.0
 51
90.0
  0
LINE
  5
17332
  8
U1
 10
7025.3275078996412
 20
6940.7431824323266
 30
0.0
 11
6992.9275078996407
 21
6940.7431824323266
 31
0.0
  0
ARC
  5
17333
  8
U1
 10
6992.9275078996397
 20
6934.4431824323283
 30
0.0
 40
6.2999999999992724
 50
89.999999999991729
 51
180.00000000000821
  0
LINE
  5
17334
  8
U1
 10
6986.6275078996396
 20
6934.4431824323246
 30
0.0
 11
6986.6275078996396
 21
6882.043182432325
 31
0.0
  0
ARC
  5
17335
  8
U1
 10
6992.9275078996397
 20
6882.043182432325
 30
0.0
 40
6.2999999999992724
 50
180.0
 51
270.00000000000819
  0
LINE
  5
17336
  8
U1
 10
6992.9275078996407
 20
6875.7431824323257
 30
0.0
 11
7045.3275078996412
 21
6875.7431824323257
 31
0.0
  0
ARC
  5
17337
  8
U1
 10
7045.3275078996412
 20
6882.043182432325
 30
0.0
 40
6.2999999999992724
 50
269.99999999999181
 51
0.0
  0
LINE
  5
17338
  8
U1
 10
7051.6275078996432
 20
6882.043182432325
 30
0.0
 11
7051.6275078996432
 21
6934.4431824323246
 31
0.0
  0
ARC
  5
17339
  8
U1
 10
7045.3275078996412
 20
8734.4431824323274
 30
0.0
 40
6.300000000000181
 50
359.99999999998329
 51
90.0
  0
LINE
  5
1733A
  8
U1
 10
7045.3275078996412
 20
8740.7431824323266
 30
0.0
 11
7037.9275078996434
 21
8740.7431824323266
 31
0.0
  0
ARC
  5
1733B
  8
U1
 10
7037.9275078996434
 20
8734.4431824323274
 30
0.0
 40
6.2999999999992724
 50
90.0
 51
180.00000000001651
  0
ARC
  5
1733C
  8
U1
 10
7025.3275078996412
 20
8734.4431824323274
 30
0.0
 40
6.300000000000181
 50
359.99999999998329
 51
90.0
  0
LINE
  5
1733D
  8
U1
 10
7025.3275078996412
 20
8740.7431824323266
 30
0.0
 11
6992.9275078996407
 21
8740.7431824323266
 31
0.0
  0
ARC
  5
1733E
  8
U1
 10
6992.9275078996407
 20
8734.4431824323274
 30
0.0
 40
6.2999999999992724
 50
90.0
 51
180.00000000001651
  0
LINE
  5
1733F
  8
U1
 10
6986.6275078996396
 20
8734.4431824323256
 30
0.0
 11
6986.6275078996396
 21
8682.0431824323277
 31
0.0
  0
ARC
  5
17340
  8
U1
 10
6992.9275078996397
 20
8682.0431824323277
 30
0.0
 40
6.2999999999992724
 50
180.0
 51
270.00000000000819
  0
LINE
  5
17341
  8
U1
 10
6992.9275078996407
 20
8675.7431824323248
 30
0.0
 11
7045.3275078996412
 21
8675.7431824323248
 31
0.0
  0
ARC
  5
17342
  8
U1
 10
7045.3275078996412
 20
8682.0431824323277
 30
0.0
 40
6.2999999999992724
 50
269.99999999999181
 51
0.0
  0
LINE
  5
17343
  8
U1
 10
7051.6275078996432
 20
8682.0431824323277
 30
0.0
 11
7051.6275078996432
 21
8734.4431824323256
 31
0.0
  0
ARC
  5
17344
  8
U1
 10
9845.3275078996394
 20
8734.4431824323274
 30
0.0
 40
6.2999999999992724
 50
359.99999999998329
 51
90.0
  0
LINE
  5
17345
  8
U1
 10
9845.3275078996394
 20
8740.7431824323266
 30
0.0
 11
9837.9275078996416
 21
8740.7431824323266
 31
0.0
  0
ARC
  5
17346
  8
U1
 10
9837.9275078996416
 20
8734.4431824323274
 30
0.0
 40
6.2999999999992724
 50
90.0
 51
180.00000000001651
  0
ARC
  5
17347
  8
U1
 10
9825.327507899643
 20
8734.4431824323274
 30
0.0
 40
6.3000000000010878
 50
359.99999999998329
 51
89.999999999983444
  0
LINE
  5
17348
  8
U1
 10
9825.327507899643
 20
8740.7431824323266
 30
0.0
 11
9792.9275078996416
 21
8740.7431824323266
 31
0.0
  0
ARC
  5
17349
  8
U1
 10
9792.9275078996416
 20
8734.4431824323274
 30
0.0
 40
6.2999999999992724
 50
90.0
 51
180.00000000001651
  0
LINE
  5
1734A
  8
U1
 10
9786.6275078996405
 20
8734.4431824323256
 30
0.0
 11
9786.6275078996405
 21
8682.0431824323277
 31
0.0
  0
ARC
  5
1734B
  8
U1
 10
9792.9275078996416
 20
8682.0431824323277
 30
0.0
 40
6.2999999999992724
 50
180.0
 51
270.0
  0
LINE
  5
1734C
  8
U1
 10
9792.9275078996416
 20
8675.7431824323248
 30
0.0
 11
9845.3275078996394
 21
8675.7431824323248
 31
0.0
  0
ARC
  5
1734D
  8
U1
 10
9845.3275078996394
 20
8682.0431824323277
 30
0.0
 40
6.2999999999992724
 50
270.0
 51
0.0
  0
LINE
  5
1734E
  8
U1
 10
9851.6275078996405
 20
8682.0431824323277
 30
0.0
 11
9851.6275078996405
 21
8734.4431824323256
 31
0.0
  0
ARC
  5
1734F
  8
U1
 10
9845.3275078996394
 20
6934.4431824323283
 30
0.0
 40
6.2999999999992724
 50
359.9999999999917
 51
90.0
  0
LINE
  5
17350
  8
U1
 10
9845.3275078996394
 20
6940.7431824323266
 30
0.0
 11
9837.9275078996416
 21
6940.7431824323266
 31
0.0
  0
ARC
  5
17351
  8
U1
 10
9837.9275078996416
 20
6934.4431824323283
 30
0.0
 40
6.2999999999992724
 50
90.0
 51
180.00000000000821
  0
ARC
  5
17352
  8
U1
 10
9825.327507899643
 20
6934.4431824323283
 30
0.0
 40
6.2999999999992724
 50
359.9999999999917
 51
90.0
  0
LINE
  5
17353
  8
U1
 10
9825.327507899643
 20
6940.7431824323266
 30
0.0
 11
9792.9275078996416
 21
6940.7431824323266
 31
0.0
  0
ARC
  5
17354
  8
U1
 10
9792.9275078996416
 20
6934.4431824323283
 30
0.0
 40
6.2999999999992724
 50
90.0
 51
180.00000000000821
  0
LINE
  5
17355
  8
U1
 10
9786.6275078996405
 20
6934.4431824323246
 30
0.0
 11
9786.6275078996405
 21
6882.043182432325
 31
0.0
  0
ARC
  5
17356
  8
U1
 10
9792.9275078996416
 20
6882.043182432325
 30
0.0
 40
6.2999999999992724
 50
180.0
 51
270.0
  0
LINE
  5
17357
  8
U1
 10
9792.9275078996416
 20
6875.7431824323257
 30
0.0
 11
9845.3275078996394
 21
6875.7431824323257
 31
0.0
  0
ARC
  5
17358
  8
U1
 10
9845.3275078996394
 20
6882.043182432325
 30
0.0
 40
6.2999999999992724
 50
270.0
 51
0.0
  0
LINE
  5
17359
  8
U1
 10
9851.6275078996405
 20
6882.043182432325
 30
0.0
 11
9851.6275078996405
 21
6934.4431824323246
 31
0.0
  0
TEXT
  5
173F6
  8
SUNPOU
 10
7430.8729455070106
 20
2893.4188946593972
 30
0.0
 40
89.999375004340195
  1
地耐力   　　　 以上,コンクリート設計基準強度　　　　　以上
  7
01
  0
TEXT
  5
173F8
  8
SUNPOU
 10
7914.6363741721789
 20
2739.1331803736839
 30
0.0
 40
89.999375004340195
  1
34 m/s
 41
0.6700000000000002
  7
01
  0
TEXT
  5
173FB
  8
SUNPOU
 10
7430.8729455070106
 20
2739.1331803736839
 30
0.0
 40
89.999375004340195
  1
基準風速   　　 , 地表面粗度区分
  7
01
  0
TEXT
  5
173FC
  8
SUNPOU
 10
7805.1313529320933
 20
2893.4188946593972
 30
0.0
 40
89.999375004340195
  1
50  N/m
 41
0.6700000000000002
  7
01
  0
ARC
  5
17402
  8
SUNPOU
 10
7583.8312194142127
 20
2857.2063181012272
 30
0.0
 40
225.0
 50
148.34727252827611
 51
211.65272747172389
  0
TEXT
  5
17403
  8
SUNPOU
 10
7940.9678057180472
 20
2893.4188946593972
 30
0.0
 40
71.999500003472178
  1
K
 41
0.6700000000000002
  7
01
  0
TEXT
  5
17404
  8
SUNPOU
 10
8208.6079624464273
 20
2943.6073210168838
 30
0.0
 40
46.28539285937498
  1
2
 41
0.6700000000000002
  7
00
  0
LINE
  5
17408
  8
SUNPOU
 10
9222.6885070736189
 20
2822.6255440724631
 30
0.0
 11
9278.9385070736171
 21
2822.6255440724631
 31
0.0
  0
LINE
  5
17409
  8
SUNPOU
 10
9222.6885070736189
 20
2739.1331803736789
 30
0.0
 11
9278.9385070736171
 21
2739.1331803736789
 31
0.0
  0
LINE
  5
1740A
  8
SUNPOU
 10
9233.9385070736225
 20
2739.1331803736839
 30
0.0
 11
9233.9385070736225
 21
2822.6255440724631
 31
0.0
  0
LINE
  5
1740B
  8
SUNPOU
 10
9250.8135070736207
 20
2739.1331803736839
 30
0.0
 11
9250.8135070736207
 21
2822.6255440724631
 31
0.0
  0
LINE
  5
1740C
  8
SUNPOU
 10
9267.6885070736189
 20
2739.1331803736839
 30
0.0
 11
9267.6885070736189
 21
2822.6255440724631
 31
0.0
  0
TEXT
  5
1740D
  8
SUNPOU
 10
10011.056623183649
 20
2893.4188946593972
 30
0.0
 40
89.999375004340195
  1
N/mm
 41
0.6700000000000002
  7
01
  0
TEXT
  5
1740E
  8
SUNPOU
 10
9875.220170397708
 20
2893.4188946593972
 30
0.0
 40
89.999375004340195
  1
18
 41
0.6700000000000002
  7
01
  0
TEXT
  5
1740F
  8
SUNPOU
 10
10315.521105215061
 20
2943.6073210168838
 30
0.0
 40
46.28539285937498
  1
2
 41
0.6700000000000002
  7
00
  0
ARC
  5
17410
  8
SUNPOU
 10
10485.27150266577
 20
2857.2063181012272
 30
0.0
 40
225.0
 50
328.34727252827611
 51
31.652727471723871
  0
TEXT
  5
17412
  8
FILENAME
 10
13759.14285714285
 20
174.0
 30
0.0
 40
100.0
  1
＜YOKCS-280-U1_3_JIS_GL.DXF ＞
  7
FILENAME
 72
     2
 11
16382.0
 21
174.0
 31
0.0
  0
LINE
  5
17416
  8
WAKUSEN-01
 10
434.00000000000091
 20
413.99999999999972
 30
0.0
 11
16382.0
 21
413.99999999999972
 31
0.0
  0
LINE
  5
17417
  8
WAKUSEN-01
 10
434.00000000000091
 20
11242.0
 30
0.0
 11
16382.0
 21
11242.0
 31
0.0
  0
LINE
  5
17418
  8
WAKUSEN-01
 10
434.00000000000091
 20
413.99999999999972
 30
0.0
 11
434.00000000000091
 21
11242.0
 31
0.0
  0
LINE
  5
17419
  8
WAKUSEN-01
 10
16382.0
 20
413.99999999999972
 30
0.0
 11
16382.0
 21
11242.0
 31
0.0
  0
LINE
  5
1741A
  8
WAKUSEN-01
 10
10280.0
 20
1242.0
 30
0.0
 11
16382.0
 21
1242.0
 31
0.0
  0
LINE
  5
1741B
  8
WAKUSEN-02
 10
10280.0
 20
827.99999999999966
 30
0.0
 11
13434.0
 21
827.99999999999966
 31
0.0
  0
TEXT
  5
1741C
  8
WAKUMOJI-01
 10
10335.13012998138
 20
1062.9515046696611
 30
0.0
 40
120.0
  1
名　称
  7
WAKUMOJI
  0
TEXT
  5
1741D
  8
WAKUMOJI-01
 10
10328.252742545959
 20
659.56448748991068
 30
0.0
 40
120.0
  1
機種名
  7
WAKUMOJI
  0
LINE
  5
1741E
  8
WAKUSEN-01
 10
10280.0
 20
413.99999999999858
 30
0.0
 11
10280.0
 21
1242.0
 31
0.0
  0
LINE
  5
1741F
  8
WAKUSEN-02
 10
13434.0
 20
413.99999999999631
 30
0.0
 11
13434.0
 21
1242.0
 31
0.0
  0
LINE
  5
17420
  8
YODOROGO
 10
14988.80217064596
 20
997.87474821464355
 30
0.0
 11
14914.80217064596
 21
997.87474821464355
 31
0.0
1001
AUTOCAD_POSTSCRIPT_FIGURE
1002
{
1000
PSFILL
1000
Grayscale
1000
Grayscale
1070
    25
1002
}
  0
LINE
  5
17421
  8
YODOROGO
 10
14914.80217064596
 20
973.87474821464377
 30
0.0
 11
14988.80217064596
 21
973.87474821464377
 31
0.0
1001
AUTOCAD_POSTSCRIPT_FIGURE
1002
{
1000
PSFILL
1000
Grayscale
1000
Grayscale
1070
    25
1002
}
  0
LINE
  5
17422
  8
YODOROGO
 10
14988.80217064596
 20
953.87474821464389
 30
0.0
 11
14914.80217064596
 21
953.87474821464389
 31
0.0
1001
AUTOCAD_POSTSCRIPT_FIGURE
1002
{
1000
PSFILL
1000
Grayscale
1000
Grayscale
1070
    25
1002
}
  0
LINE
  5
17423
  8
YODOROGO
 10
14914.80217064596
 20
929.874748214644
 30
0.0
 11
14988.80217064596
 21
929.874748214644
 31
0.0
1001
AUTOCAD_POSTSCRIPT_FIGURE
1002
{
1000
PSFILL
1000
Grayscale
1000
Grayscale
1070
    25
1002
}
  0
LINE
  5
17424
  8
YODOROGO
 10
14988.80217064596
 20
909.87474821464411
 30
0.0
 11
14914.80217064596
 21
909.87474821464411
 31
0.0
1001
AUTOCAD_POSTSCRIPT_FIGURE
1002
{
1000
PSFILL
1000
Grayscale
1000
Grayscale
1070
    25
1002
}
  0
LINE
  5
17425
  8
YODOROGO
 10
14960.802170645949
 20
853.87474821464389
 30
0.0
 11
14988.80217064596
 21
853.87474821464389
 31
0.0
1001
AUTOCAD_POSTSCRIPT_FIGURE
1002
{
1000
PSFILL
1000
Grayscale
1000
Grayscale
1070
    25
1002
}
  0
LINE
  5
17426
  8
YODOROGO
 10
14868.80217064596
 20
713.87474821464377
 30
0.0
 11
14968.80217064596
 21
740.66966745775528
 31
0.0
  0
LINE
  5
17427
  8
YODOROGO
 10
14974.80217064596
 20
853.87474821464389
 30
0.0
 11
14942.80217064596
 21
853.87474821464389
 31
0.0
  0
ARC
  5
17428
  8
YODOROGO
 10
15127.173874913949
 20
903.9323046166312
 30
0.0
 40
190.94343210282361
 50
213.96111677667849
 51
264.47872074317792
  0
ARC
  5
17429
  8
YODOROGO
 10
15127.17387491396
 20
903.93230461665109
 30
0.0
 40
190.9434321028408
 50
208.14114420486601
 51
212.92103611859949
  0
LINE
  5
1742A
  8
YODOROGO
 10
14885.70493649265
 20
778.403830673117
 30
0.0
 11
14966.89206625427
 21
800.15785652854356
 31
0.0
  0
LINE
  5
1742B
  8
YODOROGO
 10
14868.80217064596
 20
713.87474821464377
 30
0.0
 11
14968.80217064596
 21
740.66966745775528
 31
0.0
  0
LINE
  5
1742C
  8
YODOROGO
 10
14974.80217064596
 20
853.87474821464389
 30
0.0
 11
14942.80217064596
 21
853.87474821464389
 31
0.0
  0
ARC
  5
1742D
  8
YODOROGO
 10
15127.173874913949
 20
903.9323046166312
 30
0.0
 40
190.94343210282361
 50
213.96111677667849
 51
264.47872074317792
  0
LINE
  5
1742E
  8
YODOROGO
 10
14396.802170645949
 20
909.87474821464411
 30
0.0
 11
14216.802170645949
 21
909.87474821464411
 31
0.0
  0
LINE
  5
1742F
  8
YODOROGO
 10
14256.802170645949
 20
713.87474821464377
 30
0.0
 11
14396.802170645949
 21
713.87474821464377
 31
0.0
  0
LINE
  5
17430
  8
YODOROGO
 10
14364.80217064596
 20
961.87474821464332
 30
0.0
 11
14248.802170645949
 21
961.87474821464332
 31
0.0
  0
LINE
  5
17431
  8
YODOROGO
 10
14292.80217064596
 20
1013.874748214644
 30
0.0
 11
14328.80217064596
 21
1013.874748214644
 31
0.0
  0
LINE
  5
17432
  8
YODOROGO
 10
14216.802170645949
 20
853.87474821464389
 30
0.0
 11
14216.802170645949
 21
753.87474821464389
 31
0.0
  0
LINE
  5
17433
  8
YODOROGO
 10
14248.802170645949
 20
781.87474821464343
 30
0.0
 11
14248.802170645949
 21
853.87474821464389
 31
0.0
  0
LINE
  5
17434
  8
YODOROGO
 10
14292.80217064596
 20
873.87474821464502
 30
0.0
 11
14292.80217064596
 21
773.87474821464389
 31
0.0
  0
LINE
  5
17435
  8
YODOROGO
 10
13928.80217064596
 20
841.87474821464446
 30
0.0
 11
13888.80217064596
 21
809.98620702228561
 31
0.0
  0
LINE
  5
17436
  8
YODOROGO
 10
13968.80217064596
 20
809.98620702228561
 30
0.0
 11
13928.80217064596
 21
841.87474821464446
 31
0.0
  0
LINE
  5
17437
  8
YODOROGO
 10
13928.80217064596
 20
853.87474821464389
 30
0.0
 11
13968.80217064596
 21
821.98620702228504
 31
0.0
  0
LINE
  5
17438
  8
YODOROGO
 10
13888.80217064596
 20
821.98620702228504
 30
0.0
 11
13928.80217064596
 21
853.87474821464389
 31
0.0
  0
LINE
  5
17439
  8
YODOROGO
 10
14020.456602008449
 20
829.874748214644
 30
0.0
 11
14020.456602008449
 21
841.87474821464343
 31
0.0
  0
LINE
  5
1743A
  8
YODOROGO
 10
13988.80217064596
 20
841.87474821464343
 30
0.0
 11
13988.80217064596
 21
833.87474821464275
 31
0.0
  0
LINE
  5
1743B
  8
YODOROGO
 10
14049.06776011546
 20
853.87474821464389
 30
0.0
 11
14049.06776011546
 21
827.75181863732803
 31
0.0
1001
AUTOCAD_POSTSCRIPT_FIGURE
1002
{
1000
PSFILL
1000
Grayscale
1000
Grayscale
1070
   100
1002
}
  0
LINE
  5
1743C
  8
YODOROGO
 10
14041.06776011546
 20
827.75181863732803
 30
0.0
 11
14041.06776011546
 21
853.87474821464389
 31
0.0
1001
AUTOCAD_POSTSCRIPT_FIGURE
1002
{
1000
PSFILL
1000
Grayscale
1000
Grayscale
1070
   100
1002
}
  0
LINE
  5
1743D
  8
YODOROGO
 10
13904.80217064596
 20
804.38595202162924
 30
0.0
 11
13904.80217064596
 21
816.38595202162969
 31
0.0
  0
LINE
  5
1743E
  8
YODOROGO
 10
13952.80217064596
 20
804.38595202162924
 30
0.0
 11
13904.80217064596
 21
804.38595202162924
 31
0.0
  0
LINE
  5
1743F
  8
YODOROGO
 10
13952.80217064596
 20
816.38595202162969
 30
0.0
 11
13952.80217064596
 21
804.38595202162924
 31
0.0
  0
LINE
  5
17440
  8
YODOROGO
 10
13904.80217064596
 20
816.38595202162969
 30
0.0
 11
13952.80217064596
 21
816.38595202162969
 31
0.0
  0
LINE
  5
17441
  8
YODOROGO
 10
13912.254794457869
 20
784.25142868523744
 30
0.0
 11
13892.80217064596
 21
737.87474821464366
 31
0.0
1001
AUTOCAD_POSTSCRIPT_FIGURE
1002
{
1000
PSFILL
1000
Grayscale
1000
Grayscale
1070
   100
1002
}
  0
LINE
  5
17442
  8
YODOROGO
 10
13888.80217064596
 20
784.25142868523744
 30
0.0
 11
13912.254794457869
 21
784.25142868523744
 31
0.0
1001
AUTOCAD_POSTSCRIPT_FIGURE
1002
{
1000
PSFILL
1000
Grayscale
1000
Grayscale
1070
   100
1002
}
  0
LINE
  5
17443
  8
YODOROGO
 10
13888.80217064596
 20
794.25142868523744
 30
0.0
 11
13888.80217064596
 21
784.25142868523744
 31
0.0
1001
AUTOCAD_POSTSCRIPT_FIGURE
1002
{
1000
PSFILL
1000
Grayscale
1000
Grayscale
1070
   100
1002
}
  0
LINE
  5
17444
  8
YODOROGO
 10
13968.80217064596
 20
794.25142868523744
 30
0.0
 11
13888.80217064596
 21
794.25142868523744
 31
0.0
1001
AUTOCAD_POSTSCRIPT_FIGURE
1002
{
1000
PSFILL
1000
Grayscale
1000
Grayscale
1070
   100
1002
}
  0
LINE
  5
17445
  8
YODOROGO
 10
13968.80217064596
 20
784.25142868523744
 30
0.0
 11
13968.80217064596
 21
794.25142868523744
 31
0.0
1001
AUTOCAD_POSTSCRIPT_FIGURE
1002
{
1000
PSFILL
1000
Grayscale
1000
Grayscale
1070
   100
1002
}
  0
LINE
  5
17446
  8
YODOROGO
 10
13922.254794457869
 20
784.25142868523744
 30
0.0
 11
13968.80217064596
 21
784.25142868523744
 31
0.0
1001
AUTOCAD_POSTSCRIPT_FIGURE
1002
{
1000
PSFILL
1000
Grayscale
1000
Grayscale
1070
   100
1002
}
  0
LINE
  5
17447
  8
YODOROGO
 10
13907.773359142389
 20
747.87474821464355
 30
0.0
 11
13922.254794457869
 21
784.25142868523744
 31
0.0
1001
AUTOCAD_POSTSCRIPT_FIGURE
1002
{
1000
PSFILL
1000
Grayscale
1000
Grayscale
1070
   100
1002
}
  0
LINE
  5
17448
  8
YODOROGO
 10
13951.02739540432
 20
747.87474821464355
 30
0.0
 11
13907.773359142389
 21
747.87474821464355
 31
0.0
1001
AUTOCAD_POSTSCRIPT_FIGURE
1002
{
1000
PSFILL
1000
Grayscale
1000
Grayscale
1070
   100
1002
}
  0
LINE
  5
17449
  8
YODOROGO
 10
13942.53250239547
 20
768.11690534884644
 30
0.0
 11
13951.02739540432
 21
747.87474821464355
 31
0.0
1001
AUTOCAD_POSTSCRIPT_FIGURE
1002
{
1000
PSFILL
1000
Grayscale
1000
Grayscale
1070
   100
1002
}
  0
LINE
  5
1744A
  8
YODOROGO
 10
13950.53250239547
 20
768.11690534884644
 30
0.0
 11
13942.53250239547
 21
768.11690534884644
 31
0.0
1001
AUTOCAD_POSTSCRIPT_FIGURE
1002
{
1000
PSFILL
1000
Grayscale
1000
Grayscale
1070
   100
1002
}
  0
LINE
  5
1744B
  8
YODOROGO
 10
13964.80217064596
 20
737.87474821464366
 30
0.0
 11
13950.53250239547
 21
768.11690534884644
 31
0.0
1001
AUTOCAD_POSTSCRIPT_FIGURE
1002
{
1000
PSFILL
1000
Grayscale
1000
Grayscale
1070
   100
1002
}
  0
LINE
  5
1744C
  8
YODOROGO
 10
13892.80217064596
 20
737.87474821464366
 30
0.0
 11
13964.80217064596
 21
737.87474821464366
 31
0.0
1001
AUTOCAD_POSTSCRIPT_FIGURE
1002
{
1000
PSFILL
1000
Grayscale
1000
Grayscale
1070
   100
1002
}
  0
LINE
  5
1744D
  8
YODOROGO
 10
13888.80217064596
 20
809.98620702228561
 30
0.0
 11
13888.80217064596
 21
821.98620702228504
 31
0.0
  0
LINE
  5
1744E
  8
YODOROGO
 10
13968.80217064596
 20
821.98620702228504
 30
0.0
 11
13968.80217064596
 21
809.98620702228561
 31
0.0
  0
ARC
  5
1744F
  8
YODOROGO
 10
14112.970221073479
 20
800.43888266266299
 30
0.0
 40
87.999999999999943
 50
280.3644312771313
 51
3.5414836592180561
  0
ARC
  5
17450
  8
YODOROGO
 10
14117.878015379651
 20
816.79890348095216
 30
0.0
 40
55.999999999999147
 50
281.2490582504156
 51
348.75094174958332
  0
LINE
  5
17451
  8
YODOROGO
 10
14128.80217064596
 20
761.87474821464343
 30
0.0
 11
14128.80217064596
 21
713.87474821464377
 31
0.0
  0
LINE
  5
17452
  8
YODOROGO
 10
14010.044451868451
 20
805.32528253095745
 30
0.0
 11
14020.456602008449
 21
829.874748214644
 31
0.0
  0
LINE
  5
17453
  8
YODOROGO
 10
14020.80217064596
 20
791.5602449742006
 30
0.0
 11
14010.044451868451
 21
805.32528253095745
 31
0.0
  0
LINE
  5
17454
  8
YODOROGO
 10
14020.80217064596
 20
781.56024497419946
 30
0.0
 11
14020.80217064596
 21
791.5602449742006
 31
0.0
  0
LINE
  5
17455
  8
YODOROGO
 10
14008.80217064596
 20
792.61853187476515
 30
0.0
 11
14020.80217064596
 21
781.56024497419946
 31
0.0
  0
LINE
  5
17456
  8
YODOROGO
 10
14008.80217064596
 20
737.87474821464366
 30
0.0
 11
14008.80217064596
 21
792.61853187476515
 31
0.0
  0
LINE
  5
17457
  8
YODOROGO
 10
14000.80217064596
 20
737.87474821464366
 30
0.0
 11
14008.80217064596
 21
737.87474821464366
 31
0.0
  0
LINE
  5
17458
  8
YODOROGO
 10
14000.80217064596
 20
790.00267484487404
 30
0.0
 11
14000.80217064596
 21
737.87474821464366
 31
0.0
  0
LINE
  5
17459
  8
YODOROGO
 10
13988.80217064596
 20
766.38403951671444
 30
0.0
 11
14000.80217064596
 21
790.00267484487404
 31
0.0
  0
LINE
  5
1745A
  8
YODOROGO
 10
13988.80217064596
 20
778.38403951671489
 30
0.0
 11
13988.80217064596
 21
766.38403951671444
 31
0.0
  0
LINE
  5
1745B
  8
YODOROGO
 10
14012.91438714568
 20
833.87474821464275
 30
0.0
 11
13988.80217064596
 21
778.38403951671489
 31
0.0
  0
LINE
  5
1745C
  8
YODOROGO
 10
13988.80217064596
 20
833.87474821464275
 30
0.0
 11
14012.91438714568
 21
833.87474821464275
 31
0.0
  0
LINE
  5
1745D
  8
YODOROGO
 10
14025.067760115449
 20
827.75181863732803
 30
0.0
 11
14041.06776011546
 21
827.75181863732803
 31
0.0
1001
AUTOCAD_POSTSCRIPT_FIGURE
1002
{
1000
PSFILL
1000
Grayscale
1000
Grayscale
1070
   100
1002
}
  0
LINE
  5
1745E
  8
YODOROGO
 10
14025.067760115449
 20
815.7518186373286
 30
0.0
 11
14025.067760115449
 21
827.75181863732803
 31
0.0
1001
AUTOCAD_POSTSCRIPT_FIGURE
1002
{
1000
PSFILL
1000
Grayscale
1000
Grayscale
1070
   100
1002
}
  0
LINE
  5
1745F
  8
YODOROGO
 10
14041.06776011546
 20
815.7518186373286
 30
0.0
 11
14025.067760115449
 21
815.7518186373286
 31
0.0
1001
AUTOCAD_POSTSCRIPT_FIGURE
1002
{
1000
PSFILL
1000
Grayscale
1000
Grayscale
1070
   100
1002
}
  0
LINE
  5
17460
  8
YODOROGO
 10
14041.06776011546
 20
749.87474821464411
 30
0.0
 11
14041.06776011546
 21
815.7518186373286
 31
0.0
1001
AUTOCAD_POSTSCRIPT_FIGURE
1002
{
1000
PSFILL
1000
Grayscale
1000
Grayscale
1070
   100
1002
}
  0
LINE
  5
17461
  8
YODOROGO
 10
14025.06776011546
 20
749.87474821464411
 30
0.0
 11
14041.06776011546
 21
749.87474821464411
 31
0.0
1001
AUTOCAD_POSTSCRIPT_FIGURE
1002
{
1000
PSFILL
1000
Grayscale
1000
Grayscale
1070
   100
1002
}
  0
LINE
  5
17462
  8
YODOROGO
 10
14025.06776011546
 20
737.87474821464366
 30
0.0
 11
14025.06776011546
 21
749.87474821464411
 31
0.0
1001
AUTOCAD_POSTSCRIPT_FIGURE
1002
{
1000
PSFILL
1000
Grayscale
1000
Grayscale
1070
   100
1002
}
  0
LINE
  5
17463
  8
YODOROGO
 10
14068.80217064596
 20
737.87474821464366
 30
0.0
 11
14025.06776011546
 21
737.87474821464366
 31
0.0
1001
AUTOCAD_POSTSCRIPT_FIGURE
1002
{
1000
PSFILL
1000
Grayscale
1000
Grayscale
1070
   100
1002
}
  0
LINE
  5
17464
  8
YODOROGO
 10
14068.80217064596
 20
749.87474821464411
 30
0.0
 11
14068.80217064596
 21
737.87474821464366
 31
0.0
1001
AUTOCAD_POSTSCRIPT_FIGURE
1002
{
1000
PSFILL
1000
Grayscale
1000
Grayscale
1070
   100
1002
}
  0
LINE
  5
17465
  8
YODOROGO
 10
14049.06776011546
 20
749.87474821464411
 30
0.0
 11
14068.80217064596
 21
749.87474821464411
 31
0.0
1001
AUTOCAD_POSTSCRIPT_FIGURE
1002
{
1000
PSFILL
1000
Grayscale
1000
Grayscale
1070
   100
1002
}
  0
LINE
  5
17466
  8
YODOROGO
 10
14049.06776011546
 20
815.7518186373286
 30
0.0
 11
14049.06776011546
 21
749.87474821464411
 31
0.0
1001
AUTOCAD_POSTSCRIPT_FIGURE
1002
{
1000
PSFILL
1000
Grayscale
1000
Grayscale
1070
   100
1002
}
  0
LINE
  5
17467
  8
YODOROGO
 10
14068.80217064596
 20
815.7518186373286
 30
0.0
 11
14049.06776011546
 21
815.7518186373286
 31
0.0
1001
AUTOCAD_POSTSCRIPT_FIGURE
1002
{
1000
PSFILL
1000
Grayscale
1000
Grayscale
1070
   100
1002
}
  0
LINE
  5
17468
  8
YODOROGO
 10
14068.80217064596
 20
827.75181863732803
 30
0.0
 11
14068.80217064596
 21
815.7518186373286
 31
0.0
1001
AUTOCAD_POSTSCRIPT_FIGURE
1002
{
1000
PSFILL
1000
Grayscale
1000
Grayscale
1070
   100
1002
}
  0
LINE
  5
17469
  8
YODOROGO
 10
14049.06776011546
 20
827.75181863732803
 30
0.0
 11
14068.80217064596
 21
827.75181863732803
 31
0.0
1001
AUTOCAD_POSTSCRIPT_FIGURE
1002
{
1000
PSFILL
1000
Grayscale
1000
Grayscale
1070
   100
1002
}
  0
LINE
  5
1746A
  8
YODOROGO
 10
14200.802170645949
 20
833.87474821464389
 30
0.0
 11
14172.80217064596
 21
833.87474821464389
 31
0.0
  0
LINE
  5
1746B
  8
YODOROGO
 10
14200.802170645949
 20
805.87474821464434
 30
0.0
 11
14200.802170645949
 21
833.87474821464389
 31
0.0
  0
LINE
  5
1746C
  8
YODOROGO
 10
14172.80217064596
 20
833.87474821464389
 30
0.0
 11
14172.80217064596
 21
805.87474821464434
 31
0.0
  0
ARC
  5
1746D
  8
YODOROGO
 10
14256.802170645949
 20
753.87474821464389
 30
0.0
 40
40.0
 50
180.0
 51
270.0
  0
ARC
  5
1746E
  8
YODOROGO
 10
14268.802170645949
 20
781.87474821464343
 30
0.0
 40
20.0
 50
180.0
 51
270.0
  0
LINE
  5
1746F
  8
YODOROGO
 10
14280.80217064596
 20
761.87474821464343
 30
0.0
 11
14268.802170645949
 21
761.87474821464343
 31
0.0
  0
ARC
  5
17470
  8
YODOROGO
 10
14280.80217064596
 20
773.87474821464275
 30
0.0
 40
11.999999999998179
 50
270.0
 51
0.0000000000054281
  0
LINE
  5
17471
  8
YODOROGO
 10
13900.80217064596
 20
945.39329039685322
 30
0.0
 11
13888.80217064596
 21
921.8883739758362
 31
0.0
1001
AUTOCAD_POSTSCRIPT_FIGURE
1002
{
1000
PSFILL
1000
Grayscale
1000
Grayscale
1070
   100
1002
}
  0
LINE
  5
17472
  8
YODOROGO
 10
13900.80217064596
 20
873.87474821464377
 30
0.0
 11
13900.80217064596
 21
945.39329039685322
 31
0.0
1001
AUTOCAD_POSTSCRIPT_FIGURE
1002
{
1000
PSFILL
1000
Grayscale
1000
Grayscale
1070
   100
1002
}
  0
LINE
  5
17473
  8
YODOROGO
 10
13908.80217064596
 20
873.87474821464377
 30
0.0
 11
13900.80217064596
 21
873.87474821464377
 31
0.0
1001
AUTOCAD_POSTSCRIPT_FIGURE
1002
{
1000
PSFILL
1000
Grayscale
1000
Grayscale
1070
   100
1002
}
  0
LINE
  5
17474
  8
YODOROGO
 10
13908.80217064596
 20
946.88566604263337
 30
0.0
 11
13908.80217064596
 21
873.87474821464377
 31
0.0
1001
AUTOCAD_POSTSCRIPT_FIGURE
1002
{
1000
PSFILL
1000
Grayscale
1000
Grayscale
1070
   100
1002
}
  0
LINE
  5
17475
  8
YODOROGO
 10
13920.80217064596
 20
933.82737914206837
 30
0.0
 11
13908.80217064596
 21
946.88566604263337
 31
0.0
1001
AUTOCAD_POSTSCRIPT_FIGURE
1002
{
1000
PSFILL
1000
Grayscale
1000
Grayscale
1070
   100
1002
}
  0
LINE
  5
17476
  8
YODOROGO
 10
13920.80217064596
 20
941.82737914206791
 30
0.0
 11
13920.80217064596
 21
933.82737914206837
 31
0.0
1001
AUTOCAD_POSTSCRIPT_FIGURE
1002
{
1000
PSFILL
1000
Grayscale
1000
Grayscale
1070
   100
1002
}
  0
LINE
  5
17477
  8
YODOROGO
 10
13908.80217064596
 20
958.88566604263258
 30
0.0
 11
13920.80217064596
 21
941.82737914206791
 31
0.0
1001
AUTOCAD_POSTSCRIPT_FIGURE
1002
{
1000
PSFILL
1000
Grayscale
1000
Grayscale
1070
   100
1002
}
  0
LINE
  5
17478
  8
YODOROGO
 10
13908.80217064596
 20
969.87474821464411
 30
0.0
 11
13908.80217064596
 21
958.88566604263258
 31
0.0
1001
AUTOCAD_POSTSCRIPT_FIGURE
1002
{
1000
PSFILL
1000
Grayscale
1000
Grayscale
1070
   100
1002
}
  0
LINE
  5
17479
  8
YODOROGO
 10
13944.80217064596
 20
969.87474821464411
 30
0.0
 11
13908.80217064596
 21
969.87474821464411
 31
0.0
1001
AUTOCAD_POSTSCRIPT_FIGURE
1002
{
1000
PSFILL
1000
Grayscale
1000
Grayscale
1070
   100
1002
}
  0
LINE
  5
1747A
  8
YODOROGO
 10
13944.80217064596
 20
950.28417446814979
 30
0.0
 11
13944.80217064596
 21
969.87474821464411
 31
0.0
1001
AUTOCAD_POSTSCRIPT_FIGURE
1002
{
1000
PSFILL
1000
Grayscale
1000
Grayscale
1070
   100
1002
}
  0
LINE
  5
1747B
  8
YODOROGO
 10
13928.80217064596
 20
950.28417446814979
 30
0.0
 11
13944.80217064596
 21
950.28417446814979
 31
0.0
1001
AUTOCAD_POSTSCRIPT_FIGURE
1002
{
1000
PSFILL
1000
Grayscale
1000
Grayscale
1070
   100
1002
}
  0
LINE
  5
1747C
  8
YODOROGO
 10
13928.80217064596
 20
942.2841744681491
 30
0.0
 11
13928.80217064596
 21
950.28417446814979
 31
0.0
1001
AUTOCAD_POSTSCRIPT_FIGURE
1002
{
1000
PSFILL
1000
Grayscale
1000
Grayscale
1070
   100
1002
}
  0
LINE
  5
1747D
  8
YODOROGO
 10
13944.80217064596
 20
942.2841744681491
 30
0.0
 11
13928.80217064596
 21
942.2841744681491
 31
0.0
1001
AUTOCAD_POSTSCRIPT_FIGURE
1002
{
1000
PSFILL
1000
Grayscale
1000
Grayscale
1070
   100
1002
}
  0
LINE
  5
1747E
  8
YODOROGO
 10
13944.80217064596
 20
939.80958898221968
 30
0.0
 11
13944.80217064596
 21
942.2841744681491
 31
0.0
1001
AUTOCAD_POSTSCRIPT_FIGURE
1002
{
1000
PSFILL
1000
Grayscale
1000
Grayscale
1070
   100
1002
}
  0
LINE
  5
1747F
  8
YODOROGO
 10
13924.80217064596
 20
906.48749058070871
 30
0.0
 11
13944.80217064596
 21
939.80958898221968
 31
0.0
1001
AUTOCAD_POSTSCRIPT_FIGURE
1002
{
1000
PSFILL
1000
Grayscale
1000
Grayscale
1070
   100
1002
}
  0
LINE
  5
17480
  8
YODOROGO
 10
13924.80217064596
 20
898.48749058070803
 30
0.0
 11
13924.80217064596
 21
906.48749058070871
 31
0.0
1001
AUTOCAD_POSTSCRIPT_FIGURE
1002
{
1000
PSFILL
1000
Grayscale
1000
Grayscale
1070
   100
1002
}
  0
LINE
  5
17481
  8
YODOROGO
 10
13944.80217064596
 20
923.80958898221854
 30
0.0
 11
13924.80217064596
 21
898.48749058070803
 31
0.0
1001
AUTOCAD_POSTSCRIPT_FIGURE
1002
{
1000
PSFILL
1000
Grayscale
1000
Grayscale
1070
   100
1002
}
  0
LINE
  5
17482
  8
YODOROGO
 10
13944.80217064596
 20
873.87474821464377
 30
0.0
 11
13944.80217064596
 21
923.80958898221854
 31
0.0
1001
AUTOCAD_POSTSCRIPT_FIGURE
1002
{
1000
PSFILL
1000
Grayscale
1000
Grayscale
1070
   100
1002
}
  0
LINE
  5
17483
  8
YODOROGO
 10
13952.80217064596
 20
873.87474821464377
 30
0.0
 11
13944.80217064596
 21
873.87474821464377
 31
0.0
1001
AUTOCAD_POSTSCRIPT_FIGURE
1002
{
1000
PSFILL
1000
Grayscale
1000
Grayscale
1070
   100
1002
}
  0
LINE
  5
17484
  8
YODOROGO
 10
13952.80217064596
 20
924.70450607940313
 30
0.0
 11
13952.80217064596
 21
873.87474821464377
 31
0.0
1001
AUTOCAD_POSTSCRIPT_FIGURE
1002
{
1000
PSFILL
1000
Grayscale
1000
Grayscale
1070
   100
1002
}
  0
LINE
  5
17485
  8
YODOROGO
 10
13968.80217064596
 20
898.48749058070803
 30
0.0
 11
13952.80217064596
 21
924.70450607940313
 31
0.0
1001
AUTOCAD_POSTSCRIPT_FIGURE
1002
{
1000
PSFILL
1000
Grayscale
1000
Grayscale
1070
   100
1002
}
  0
LINE
  5
17486
  8
YODOROGO
 10
13968.80217064596
 20
906.48749058070871
 30
0.0
 11
13968.80217064596
 21
898.48749058070803
 31
0.0
1001
AUTOCAD_POSTSCRIPT_FIGURE
1002
{
1000
PSFILL
1000
Grayscale
1000
Grayscale
1070
   100
1002
}
  0
LINE
  5
17487
  8
YODOROGO
 10
13952.80217064596
 20
940.70450607940427
 30
0.0
 11
13968.80217064596
 21
906.48749058070871
 31
0.0
1001
AUTOCAD_POSTSCRIPT_FIGURE
1002
{
1000
PSFILL
1000
Grayscale
1000
Grayscale
1070
   100
1002
}
  0
LINE
  5
17488
  8
YODOROGO
 10
13952.80217064596
 20
942.28417446815024
 30
0.0
 11
13952.80217064596
 21
940.70450607940427
 31
0.0
1001
AUTOCAD_POSTSCRIPT_FIGURE
1002
{
1000
PSFILL
1000
Grayscale
1000
Grayscale
1070
   100
1002
}
  0
LINE
  5
17489
  8
YODOROGO
 10
13968.80217064596
 20
942.2841744681491
 30
0.0
 11
13952.80217064596
 21
942.28417446815024
 31
0.0
1001
AUTOCAD_POSTSCRIPT_FIGURE
1002
{
1000
PSFILL
1000
Grayscale
1000
Grayscale
1070
   100
1002
}
  0
LINE
  5
1748A
  8
YODOROGO
 10
13968.80217064596
 20
950.28417446814979
 30
0.0
 11
13968.80217064596
 21
942.2841744681491
 31
0.0
1001
AUTOCAD_POSTSCRIPT_FIGURE
1002
{
1000
PSFILL
1000
Grayscale
1000
Grayscale
1070
   100
1002
}
  0
LINE
  5
1748B
  8
YODOROGO
 10
13952.80217064596
 20
950.28417446814979
 30
0.0
 11
13968.80217064596
 21
950.28417446814979
 31
0.0
1001
AUTOCAD_POSTSCRIPT_FIGURE
1002
{
1000
PSFILL
1000
Grayscale
1000
Grayscale
1070
   100
1002
}
  0
LINE
  5
1748C
  8
YODOROGO
 10
13952.80217064596
 20
969.87474821464411
 30
0.0
 11
13952.80217064596
 21
950.28417446814979
 31
0.0
1001
AUTOCAD_POSTSCRIPT_FIGURE
1002
{
1000
PSFILL
1000
Grayscale
1000
Grayscale
1070
   100
1002
}
  0
LINE
  5
1748D
  8
YODOROGO
 10
13968.80217064596
 20
969.87474821464411
 30
0.0
 11
13952.80217064596
 21
969.87474821464411
 31
0.0
1001
AUTOCAD_POSTSCRIPT_FIGURE
1002
{
1000
PSFILL
1000
Grayscale
1000
Grayscale
1070
   100
1002
}
  0
LINE
  5
1748E
  8
YODOROGO
 10
13968.80217064596
 20
977.87474821464366
 30
0.0
 11
13968.80217064596
 21
969.87474821464411
 31
0.0
1001
AUTOCAD_POSTSCRIPT_FIGURE
1002
{
1000
PSFILL
1000
Grayscale
1000
Grayscale
1070
   100
1002
}
  0
LINE
  5
1748F
  8
YODOROGO
 10
13952.80217064596
 20
977.87474821464366
 30
0.0
 11
13968.80217064596
 21
977.87474821464366
 31
0.0
1001
AUTOCAD_POSTSCRIPT_FIGURE
1002
{
1000
PSFILL
1000
Grayscale
1000
Grayscale
1070
   100
1002
}
  0
LINE
  5
17490
  8
YODOROGO
 10
13952.80217064596
 20
989.87474821464423
 30
0.0
 11
13952.80217064596
 21
977.87474821464366
 31
0.0
1001
AUTOCAD_POSTSCRIPT_FIGURE
1002
{
1000
PSFILL
1000
Grayscale
1000
Grayscale
1070
   100
1002
}
  0
LINE
  5
17491
  8
YODOROGO
 10
13944.80217064596
 20
989.87474821464423
 30
0.0
 11
13952.80217064596
 21
989.87474821464423
 31
0.0
1001
AUTOCAD_POSTSCRIPT_FIGURE
1002
{
1000
PSFILL
1000
Grayscale
1000
Grayscale
1070
   100
1002
}
  0
LINE
  5
17492
  8
YODOROGO
 10
13944.80217064596
 20
977.87474821464366
 30
0.0
 11
13944.80217064596
 21
989.87474821464423
 31
0.0
1001
AUTOCAD_POSTSCRIPT_FIGURE
1002
{
1000
PSFILL
1000
Grayscale
1000
Grayscale
1070
   100
1002
}
  0
LINE
  5
17493
  8
YODOROGO
 10
13932.80217064596
 20
977.87474821464366
 30
0.0
 11
13944.80217064596
 21
977.87474821464366
 31
0.0
1001
AUTOCAD_POSTSCRIPT_FIGURE
1002
{
1000
PSFILL
1000
Grayscale
1000
Grayscale
1070
   100
1002
}
  0
LINE
  5
17494
  8
YODOROGO
 10
13932.80217064596
 20
989.87474821464423
 30
0.0
 11
13932.80217064596
 21
977.87474821464366
 31
0.0
1001
AUTOCAD_POSTSCRIPT_FIGURE
1002
{
1000
PSFILL
1000
Grayscale
1000
Grayscale
1070
   100
1002
}
  0
LINE
  5
17495
  8
YODOROGO
 10
13924.80217064596
 20
989.87474821464423
 30
0.0
 11
13932.80217064596
 21
989.87474821464423
 31
0.0
1001
AUTOCAD_POSTSCRIPT_FIGURE
1002
{
1000
PSFILL
1000
Grayscale
1000
Grayscale
1070
   100
1002
}
  0
LINE
  5
17496
  8
YODOROGO
 10
13924.80217064596
 20
977.87474821464366
 30
0.0
 11
13924.80217064596
 21
989.87474821464423
 31
0.0
1001
AUTOCAD_POSTSCRIPT_FIGURE
1002
{
1000
PSFILL
1000
Grayscale
1000
Grayscale
1070
   100
1002
}
  0
LINE
  5
17497
  8
YODOROGO
 10
13908.80217064596
 20
977.87474821464366
 30
0.0
 11
13924.80217064596
 21
977.87474821464366
 31
0.0
1001
AUTOCAD_POSTSCRIPT_FIGURE
1002
{
1000
PSFILL
1000
Grayscale
1000
Grayscale
1070
   100
1002
}
  0
LINE
  5
17498
  8
YODOROGO
 10
13908.80217064596
 20
989.87474821464423
 30
0.0
 11
13908.80217064596
 21
977.87474821464366
 31
0.0
1001
AUTOCAD_POSTSCRIPT_FIGURE
1002
{
1000
PSFILL
1000
Grayscale
1000
Grayscale
1070
   100
1002
}
  0
LINE
  5
17499
  8
YODOROGO
 10
13900.80217064596
 20
989.87474821464423
 30
0.0
 11
13908.80217064596
 21
989.87474821464423
 31
0.0
1001
AUTOCAD_POSTSCRIPT_FIGURE
1002
{
1000
PSFILL
1000
Grayscale
1000
Grayscale
1070
   100
1002
}
  0
LINE
  5
1749A
  8
YODOROGO
 10
13900.80217064596
 20
977.87474821464366
 30
0.0
 11
13900.80217064596
 21
989.87474821464423
 31
0.0
1001
AUTOCAD_POSTSCRIPT_FIGURE
1002
{
1000
PSFILL
1000
Grayscale
1000
Grayscale
1070
   100
1002
}
  0
LINE
  5
1749B
  8
YODOROGO
 10
13888.80217064596
 20
977.87474821464366
 30
0.0
 11
13900.80217064596
 21
977.87474821464366
 31
0.0
1001
AUTOCAD_POSTSCRIPT_FIGURE
1002
{
1000
PSFILL
1000
Grayscale
1000
Grayscale
1070
   100
1002
}
  0
LINE
  5
1749C
  8
YODOROGO
 10
13888.80217064596
 20
969.87474821464411
 30
0.0
 11
13888.80217064596
 21
977.87474821464366
 31
0.0
1001
AUTOCAD_POSTSCRIPT_FIGURE
1002
{
1000
PSFILL
1000
Grayscale
1000
Grayscale
1070
   100
1002
}
  0
LINE
  5
1749D
  8
YODOROGO
 10
13900.80217064596
 20
969.87474821464411
 30
0.0
 11
13888.80217064596
 21
969.87474821464411
 31
0.0
1001
AUTOCAD_POSTSCRIPT_FIGURE
1002
{
1000
PSFILL
1000
Grayscale
1000
Grayscale
1070
   100
1002
}
  0
LINE
  5
1749E
  8
YODOROGO
 10
13900.80217064596
 20
957.39329039685254
 30
0.0
 11
13900.80217064596
 21
969.87474821464411
 31
0.0
1001
AUTOCAD_POSTSCRIPT_FIGURE
1002
{
1000
PSFILL
1000
Grayscale
1000
Grayscale
1070
   100
1002
}
  0
LINE
  5
1749F
  8
YODOROGO
 10
13888.80217064596
 20
929.88837397583575
 30
0.0
 11
13900.80217064596
 21
957.39329039685254
 31
0.0
1001
AUTOCAD_POSTSCRIPT_FIGURE
1002
{
1000
PSFILL
1000
Grayscale
1000
Grayscale
1070
   100
1002
}
  0
LINE
  5
174A0
  8
YODOROGO
 10
13888.80217064596
 20
921.8883739758362
 30
0.0
 11
13888.80217064596
 21
929.88837397583575
 31
0.0
1001
AUTOCAD_POSTSCRIPT_FIGURE
1002
{
1000
PSFILL
1000
Grayscale
1000
Grayscale
1070
   100
1002
}
  0
LINE
  5
174A1
  8
YODOROGO
 10
14128.80217064596
 20
933.87474821464389
 30
0.0
 11
14200.802170645949
 21
912.4388128201532
 31
0.0
1001
AUTOCAD_POSTSCRIPT_FIGURE
1002
{
1000
PSFILL
1000
Grayscale
1000
Grayscale
1070
   100
1002
}
  0
LINE
  5
174A2
  8
YODOROGO
 10
14200.802170645949
 20
876.43881282015309
 30
0.0
 11
14128.80217064596
 21
897.87474821464355
 31
0.0
1001
AUTOCAD_POSTSCRIPT_FIGURE
1002
{
1000
PSFILL
1000
Grayscale
1000
Grayscale
1070
   100
1002
}
  0
LINE
  5
174A3
  8
YODOROGO
 10
14200.802170645949
 20
992.43881282015332
 30
0.0
 11
14128.80217064596
 21
1013.874748214644
 31
0.0
1001
AUTOCAD_POSTSCRIPT_FIGURE
1002
{
1000
PSFILL
1000
Grayscale
1000
Grayscale
1070
   100
1002
}
  0
LINE
  5
174A4
  8
YODOROGO
 10
14128.80217064596
 20
979.874748214644
 30
0.0
 11
14200.802170645949
 21
958.43881282015354
 31
0.0
1001
AUTOCAD_POSTSCRIPT_FIGURE
1002
{
1000
PSFILL
1000
Grayscale
1000
Grayscale
1070
   100
1002
}
  0
LINE
  5
174A5
  8
YODOROGO
 10
14128.80217064596
 20
897.87474821464355
 30
0.0
 11
14128.80217064596
 21
933.87474821464389
 31
0.0
1001
AUTOCAD_POSTSCRIPT_FIGURE
1002
{
1000
PSFILL
1000
Grayscale
1000
Grayscale
1070
   100
1002
}
  0
LINE
  5
174A6
  8
YODOROGO
 10
14128.80217064596
 20
1013.874748214644
 30
0.0
 11
14128.80217064596
 21
979.874748214644
 31
0.0
1001
AUTOCAD_POSTSCRIPT_FIGURE
1002
{
1000
PSFILL
1000
Grayscale
1000
Grayscale
1070
   100
1002
}
  0
LINE
  5
174A7
  8
YODOROGO
 10
14040.11816010337
 20
969.87474821464411
 30
0.0
 11
14064.80217064596
 21
873.87474821464377
 31
0.0
1001
AUTOCAD_POSTSCRIPT_FIGURE
1002
{
1000
PSFILL
1000
Grayscale
1000
Grayscale
1070
   100
1002
}
  0
LINE
  5
174A8
  8
YODOROGO
 10
13988.80217064596
 20
969.87474821464411
 30
0.0
 11
14040.11816010337
 21
969.87474821464411
 31
0.0
1001
AUTOCAD_POSTSCRIPT_FIGURE
1002
{
1000
PSFILL
1000
Grayscale
1000
Grayscale
1070
   100
1002
}
  0
LINE
  5
174A9
  8
YODOROGO
 10
13988.80217064596
 20
977.87474821464366
 30
0.0
 11
13988.80217064596
 21
969.87474821464411
 31
0.0
1001
AUTOCAD_POSTSCRIPT_FIGURE
1002
{
1000
PSFILL
1000
Grayscale
1000
Grayscale
1070
   100
1002
}
  0
LINE
  5
174AA
  8
YODOROGO
 10
14038.30343925996
 20
977.87474821464366
 30
0.0
 11
13988.80217064596
 21
977.87474821464366
 31
0.0
1001
AUTOCAD_POSTSCRIPT_FIGURE
1002
{
1000
PSFILL
1000
Grayscale
1000
Grayscale
1070
   100
1002
}
  0
LINE
  5
174AB
  8
YODOROGO
 10
14035.58135799485
 20
989.87474821464423
 30
0.0
 11
14038.30343925996
 21
977.87474821464366
 31
0.0
1001
AUTOCAD_POSTSCRIPT_FIGURE
1002
{
1000
PSFILL
1000
Grayscale
1000
Grayscale
1070
   100
1002
}
  0
LINE
  5
174AC
  8
YODOROGO
 10
14045.58135799485
 20
989.87474821464423
 30
0.0
 11
14035.58135799485
 21
989.87474821464423
 31
0.0
1001
AUTOCAD_POSTSCRIPT_FIGURE
1002
{
1000
PSFILL
1000
Grayscale
1000
Grayscale
1070
   100
1002
}
  0
LINE
  5
174AD
  8
YODOROGO
 10
14047.90343925997
 20
977.87474821464366
 30
0.0
 11
14045.58135799485
 21
989.87474821464423
 31
0.0
1001
AUTOCAD_POSTSCRIPT_FIGURE
1002
{
1000
PSFILL
1000
Grayscale
1000
Grayscale
1070
   100
1002
}
  0
LINE
  5
174AE
  8
YODOROGO
 10
14060.80217064596
 20
977.87474821464366
 30
0.0
 11
14047.90343925997
 21
977.87474821464366
 31
0.0
1001
AUTOCAD_POSTSCRIPT_FIGURE
1002
{
1000
PSFILL
1000
Grayscale
1000
Grayscale
1070
   100
1002
}
  0
LINE
  5
174AF
  8
YODOROGO
 10
14060.80217064596
 20
989.87474821464423
 30
0.0
 11
14060.80217064596
 21
977.87474821464366
 31
0.0
1001
AUTOCAD_POSTSCRIPT_FIGURE
1002
{
1000
PSFILL
1000
Grayscale
1000
Grayscale
1070
   100
1002
}
  0
LINE
  5
174B0
  8
YODOROGO
 10
14068.80217064596
 20
989.87474821464423
 30
0.0
 11
14060.80217064596
 21
989.87474821464423
 31
0.0
1001
AUTOCAD_POSTSCRIPT_FIGURE
1002
{
1000
PSFILL
1000
Grayscale
1000
Grayscale
1070
   100
1002
}
  0
LINE
  5
174B1
  8
YODOROGO
 10
14068.80217064596
 20
977.87474821464366
 30
0.0
 11
14068.80217064596
 21
989.87474821464423
 31
0.0
1001
AUTOCAD_POSTSCRIPT_FIGURE
1002
{
1000
PSFILL
1000
Grayscale
1000
Grayscale
1070
   100
1002
}
  0
LINE
  5
174B2
  8
YODOROGO
 10
14068.80217064596
 20
969.87474821464411
 30
0.0
 11
14068.80217064596
 21
977.87474821464366
 31
0.0
1001
AUTOCAD_POSTSCRIPT_FIGURE
1002
{
1000
PSFILL
1000
Grayscale
1000
Grayscale
1070
   100
1002
}
  0
LINE
  5
174B3
  8
YODOROGO
 10
14049.451493436711
 20
969.87474821464411
 30
0.0
 11
14068.80217064596
 21
969.87474821464411
 31
0.0
1001
AUTOCAD_POSTSCRIPT_FIGURE
1002
{
1000
PSFILL
1000
Grayscale
1000
Grayscale
1070
   100
1002
}
  0
LINE
  5
174B4
  8
YODOROGO
 10
14068.80217064596
 20
873.87474821464377
 30
0.0
 11
14049.451493436711
 21
969.87474821464411
 31
0.0
1001
AUTOCAD_POSTSCRIPT_FIGURE
1002
{
1000
PSFILL
1000
Grayscale
1000
Grayscale
1070
   100
1002
}
  0
LINE
  5
174B5
  8
YODOROGO
 10
14064.80217064596
 20
873.87474821464377
 30
0.0
 11
14068.80217064596
 21
873.87474821464377
 31
0.0
1001
AUTOCAD_POSTSCRIPT_FIGURE
1002
{
1000
PSFILL
1000
Grayscale
1000
Grayscale
1070
   100
1002
}
  0
LINE
  5
174B6
  8
YODOROGO
 10
14039.0346099669
 20
887.87038814939717
 30
0.0
 11
13988.80217064596
 21
873.87474821464377
 31
0.0
  0
LINE
  5
174B7
  8
YODOROGO
 10
14039.0346099669
 20
899.33448976453656
 30
0.0
 11
14039.0346099669
 21
887.87038814939717
 31
0.0
  0
LINE
  5
174B8
  8
YODOROGO
 10
14016.91839030643
 20
893.40846656688336
 30
0.0
 11
14039.0346099669
 21
899.33448976453656
 31
0.0
  0
LINE
  5
174B9
  8
YODOROGO
 10
14016.91839030643
 20
936.2841744681499
 30
0.0
 11
14016.91839030643
 21
893.40846656688336
 31
0.0
  0
LINE
  5
174BA
  8
YODOROGO
 10
14039.0346099669
 20
936.2841744681499
 30
0.0
 11
14016.91839030643
 21
936.2841744681499
 31
0.0
  0
LINE
  5
174BB
  8
YODOROGO
 10
14039.0346099669
 20
946.28417446814876
 30
0.0
 11
14039.0346099669
 21
936.2841744681499
 31
0.0
  0
LINE
  5
174BC
  8
YODOROGO
 10
13988.80217064596
 20
946.28417446814876
 30
0.0
 11
14039.0346099669
 21
946.28417446814876
 31
0.0
  0
LINE
  5
174BD
  8
YODOROGO
 10
13988.80217064596
 20
936.2841744681499
 30
0.0
 11
13988.80217064596
 21
946.28417446814876
 31
0.0
  0
LINE
  5
174BE
  8
YODOROGO
 10
14010.91839030643
 20
936.2841744681499
 30
0.0
 11
13988.80217064596
 21
936.2841744681499
 31
0.0
  0
LINE
  5
174BF
  8
YODOROGO
 10
14010.91839030643
 20
892.33666979715872
 30
0.0
 11
14010.91839030643
 21
936.2841744681499
 31
0.0
  0
LINE
  5
174C0
  8
YODOROGO
 10
13988.80217064596
 20
885.8747482146432
 30
0.0
 11
14010.91839030643
 21
892.33666979715872
 31
0.0
  0
LINE
  5
174C1
  8
YODOROGO
 10
13988.80217064596
 20
873.87474821464377
 30
0.0
 11
13988.80217064596
 21
885.8747482146432
 31
0.0
  0
LINE
  5
174C2
  8
YODOROGO
 10
14000.80217064596
 20
853.87474821464389
 30
0.0
 11
14000.80217064596
 21
841.87474821464343
 31
0.0
  0
LINE
  5
174C4
  8
YODOROGO
 10
14008.80217064596
 20
853.87474821464389
 30
0.0
 11
14000.80217064596
 21
853.87474821464389
 31
0.0
  0
LINE
  5
174C5
  8
YODOROGO
 10
14008.80217064596
 20
841.87474821464343
 30
0.0
 11
14008.80217064596
 21
853.87474821464389
 31
0.0
  0
LINE
  5
174C6
  8
YODOROGO
 10
14020.456602008449
 20
841.87474821464343
 30
0.0
 11
14008.80217064596
 21
841.87474821464343
 31
0.0
  0
LINE
  5
174C7
  8
YODOROGO
 10
14000.80217064596
 20
841.87474821464343
 30
0.0
 11
13988.80217064596
 21
841.87474821464343
 31
0.0
  0
LINE
  5
174C8
  8
YODOROGO
 10
14041.06776011546
 20
853.87474821464389
 30
0.0
 11
14049.06776011546
 21
853.87474821464389
 31
0.0
1001
AUTOCAD_POSTSCRIPT_FIGURE
1002
{
1000
PSFILL
1000
Grayscale
1000
Grayscale
1070
   100
1002
}
  0
LINE
  5
174C9
  8
YODOROGO
 10
14200.802170645949
 20
912.4388128201532
 30
0.0
 11
14200.802170645949
 21
876.43881282015309
 31
0.0
1001
AUTOCAD_POSTSCRIPT_FIGURE
1002
{
1000
PSFILL
1000
Grayscale
1000
Grayscale
1070
   100
1002
}
  0
LINE
  5
174CA
  8
YODOROGO
 10
14200.802170645949
 20
958.43881282015354
 30
0.0
 11
14200.802170645949
 21
992.43881282015332
 31
0.0
1001
AUTOCAD_POSTSCRIPT_FIGURE
1002
{
1000
PSFILL
1000
Grayscale
1000
Grayscale
1070
   100
1002
}
  0
LINE
  5
174CB
  8
YODOROGO
 10
14216.802170645949
 20
909.87474821464411
 30
0.0
 11
14216.802170645949
 21
873.87474821464502
 31
0.0
  0
LINE
  5
174CC
  8
YODOROGO
 10
14248.802170645949
 20
853.87474821464389
 30
0.0
 11
14216.802170645949
 21
853.87474821464389
 31
0.0
  0
LINE
  5
174CD
  8
YODOROGO
 10
14216.802170645949
 20
873.87474821464502
 30
0.0
 11
14292.80217064596
 21
873.87474821464502
 31
0.0
  0
LINE
  5
174CE
  8
YODOROGO
 10
14248.802170645949
 20
933.87474821464389
 30
0.0
 11
14216.802170645949
 21
933.87474821464389
 31
0.0
  0
LINE
  5
174CF
  8
YODOROGO
 10
14248.802170645949
 20
961.87474821464332
 30
0.0
 11
14248.802170645949
 21
933.87474821464389
 31
0.0
  0
LINE
  5
174D0
  8
YODOROGO
 10
14292.80217064596
 20
993.87474821464389
 30
0.0
 11
14292.80217064596
 21
1013.874748214644
 31
0.0
  0
LINE
  5
174D1
  8
YODOROGO
 10
14216.802170645949
 20
993.87474821464389
 30
0.0
 11
14292.80217064596
 21
993.87474821464389
 31
0.0
  0
LINE
  5
174D2
  8
YODOROGO
 10
14216.802170645949
 20
933.87474821464389
 30
0.0
 11
14216.802170645949
 21
993.87474821464389
 31
0.0
  0
LINE
  5
174D3
  8
YODOROGO
 10
14500.802170645949
 20
1013.874748214644
 30
0.0
 11
14500.802170645949
 21
809.87474821464411
 31
0.0
  0
LINE
  5
174D4
  8
YODOROGO
 10
14536.80217064596
 20
789.87474821464411
 30
0.0
 11
14536.80217064596
 21
1013.874748214644
 31
0.0
  0
LINE
  5
174D5
  8
YODOROGO
 10
14630.80217064596
 20
745.87474821464309
 30
0.0
 11
14630.80217064596
 21
1003.874748214644
 31
0.0
  0
LINE
  5
174D6
  8
YODOROGO
 10
14598.80217064596
 20
1003.874748214644
 30
0.0
 11
14598.80217064596
 21
745.87474821464309
 31
0.0
  0
LINE
  5
174D7
  8
YODOROGO
 10
14692.80217064596
 20
1013.874748214644
 30
0.0
 11
14692.80217064596
 21
713.87474821464377
 31
0.0
  0
LINE
  5
174D8
  8
YODOROGO
 10
14728.80217064596
 20
713.87474821464377
 30
0.0
 11
14728.80217064596
 21
1013.874748214644
 31
0.0
  0
LINE
  5
174D9
  8
YODOROGO
 10
14328.802170645949
 20
833.87474821464389
 30
0.0
 11
14328.802170645949
 21
873.87474821464502
 31
0.0
  0
LINE
  5
174DA
  8
YODOROGO
 10
14942.80217064596
 20
853.87474821464389
 30
0.0
 11
14942.80217064596
 21
833.87474821464389
 31
0.0
  0
LINE
  5
174DB
  8
YODOROGO
 10
14942.80217064596
 20
853.87474821464389
 30
0.0
 11
14942.80217064596
 21
833.87474821464389
 31
0.0
  0
ARC
  5
174DC
  8
YODOROGO
 10
14453.455788093421
 20
809.10893222113646
 30
0.0
 40
47.352575589370829
 50
274.0524416290711
 51
0.9266642149310712
  0
ARC
  5
174DD
  8
YODOROGO
 10
14454.593085359909
 20
796.30536430522
 30
0.0
 40
82.460211780427557
 50
271.53512106537778
 51
355.52727750585058
  0
LINE
  5
174DE
  8
YODOROGO
 10
14456.80217064596
 20
761.87474821464343
 30
0.0
 11
14456.80217064596
 21
713.87474821464377
 31
0.0
  0
LINE
  5
174DF
  8
YODOROGO
 10
14396.802170645949
 20
833.87474821464389
 30
0.0
 11
14328.802170645949
 21
833.87474821464389
 31
0.0
  0
LINE
  5
174E0
  8
YODOROGO
 10
14396.802170645949
 20
801.87474821464457
 30
0.0
 11
14396.802170645949
 21
833.87474821464389
 31
0.0
  0
LINE
  5
174E1
  8
YODOROGO
 10
14328.802170645949
 20
801.87474821464457
 30
0.0
 11
14396.802170645949
 21
801.87474821464457
 31
0.0
  0
LINE
  5
174E2
  8
YODOROGO
 10
14328.802170645949
 20
761.87474821464343
 30
0.0
 11
14328.802170645949
 21
801.87474821464457
 31
0.0
  0
LINE
  5
174E3
  8
YODOROGO
 10
14396.802170645949
 20
761.87474821464343
 30
0.0
 11
14328.802170645949
 21
761.87474821464343
 31
0.0
  0
LINE
  5
174E4
  8
YODOROGO
 10
14396.802170645949
 20
713.87474821464377
 30
0.0
 11
14396.802170645949
 21
761.87474821464343
 31
0.0
  0
LINE
  5
174E5
  8
YODOROGO
 10
14598.80217064596
 20
745.87474821464309
 30
0.0
 11
14630.80217064596
 21
745.87474821464309
 31
0.0
  0
LINE
  5
174E6
  8
YODOROGO
 10
14692.80217064596
 20
713.87474821464377
 30
0.0
 11
14728.80217064596
 21
713.87474821464377
 31
0.0
  0
LINE
  5
174E7
  8
YODOROGO
 10
14868.80217064596
 20
764.22072608528208
 30
0.0
 11
14868.80217064596
 21
713.87474821464377
 31
0.0
  0
LINE
  5
174E8
  8
YODOROGO
 10
14808.80217064596
 20
713.87474821464377
 30
0.0
 11
14868.80217064596
 21
764.22072608528208
 31
0.0
  0
LINE
  5
174E9
  8
YODOROGO
 10
14808.80217064596
 20
773.87474821464389
 30
0.0
 11
14808.80217064596
 21
713.87474821464377
 31
0.0
  0
LINE
  5
174EA
  8
YODOROGO
 10
14856.47231434973
 20
813.87474821464377
 30
0.0
 11
14808.80217064596
 21
773.87474821464389
 31
0.0
  0
LINE
  5
174EB
  8
YODOROGO
 10
14808.80217064596
 20
813.87474821464377
 30
0.0
 11
14856.47231434973
 21
813.87474821464377
 31
0.0
  0
LINE
  5
174EC
  8
YODOROGO
 10
14808.80217064596
 20
833.87474821464389
 30
0.0
 11
14808.80217064596
 21
813.87474821464377
 31
0.0
  0
LINE
  5
174ED
  8
YODOROGO
 10
14942.80217064596
 20
833.87474821464389
 30
0.0
 11
14808.80217064596
 21
833.87474821464389
 31
0.0
  0
LINE
  5
174EE
  8
YODOROGO
 10
14958.80217064596
 20
813.87474821464377
 30
0.0
 11
14888.80217064596
 21
813.87474821464377
 31
0.0
  0
LINE
  5
174EF
  8
YODOROGO
 10
14888.80217064596
 20
781.0027187088283
 30
0.0
 11
14885.70493649265
 21
778.403830673117
 31
0.0
  0
LINE
  5
174F0
  8
YODOROGO
 10
14888.80217064596
 20
813.87474821464377
 30
0.0
 11
14888.80217064596
 21
781.0027187088283
 31
0.0
  0
LINE
  5
174F1
  8
YODOROGO
 10
14868.80217064596
 20
764.22072608528208
 30
0.0
 11
14868.80217064596
 21
713.87474821464377
 31
0.0
  0
LINE
  5
174F2
  8
YODOROGO
 10
14808.80217064596
 20
713.87474821464377
 30
0.0
 11
14868.80217064596
 21
764.22072608528208
 31
0.0
  0
LINE
  5
174F3
  8
YODOROGO
 10
14808.80217064596
 20
773.87474821464389
 30
0.0
 11
14808.80217064596
 21
713.87474821464377
 31
0.0
  0
LINE
  5
174F4
  8
YODOROGO
 10
14856.47231434973
 20
813.87474821464377
 30
0.0
 11
14808.80217064596
 21
773.87474821464389
 31
0.0
  0
LINE
  5
174F5
  8
YODOROGO
 10
14808.80217064596
 20
813.87474821464377
 30
0.0
 11
14856.47231434973
 21
813.87474821464377
 31
0.0
  0
LINE
  5
174F6
  8
YODOROGO
 10
14808.80217064596
 20
833.87474821464389
 30
0.0
 11
14808.80217064596
 21
813.87474821464377
 31
0.0
  0
LINE
  5
174F7
  8
YODOROGO
 10
14942.80217064596
 20
833.87474821464389
 30
0.0
 11
14808.80217064596
 21
833.87474821464389
 31
0.0
  0
LINE
  5
174F8
  8
YODOROGO
 10
14396.802170645949
 20
873.87474821464502
 30
0.0
 11
14396.802170645949
 21
909.87474821464411
 31
0.0
  0
LINE
  5
174F9
  8
YODOROGO
 10
14328.802170645949
 20
873.87474821464502
 30
0.0
 11
14396.802170645949
 21
873.87474821464502
 31
0.0
  0
LINE
  5
174FA
  8
YODOROGO
 10
14364.80217064596
 20
933.87474821464389
 30
0.0
 11
14364.80217064596
 21
961.87474821464332
 31
0.0
  0
LINE
  5
174FB
  8
YODOROGO
 10
14396.802170645949
 20
933.87474821464389
 30
0.0
 11
14364.80217064596
 21
933.87474821464389
 31
0.0
  0
LINE
  5
174FC
  8
YODOROGO
 10
14396.802170645949
 20
973.87474821464377
 30
0.0
 11
14396.802170645949
 21
933.87474821464389
 31
0.0
  0
ARC
  5
174FD
  8
YODOROGO
 10
14376.802170645949
 20
973.87474821464377
 30
0.0
 40
20.0
 50
0.0
 51
90.0
  0
LINE
  5
174FE
  8
YODOROGO
 10
14328.80217064596
 20
993.87474821464389
 30
0.0
 11
14376.802170645949
 21
993.87474821464389
 31
0.0
  0
LINE
  5
174FF
  8
YODOROGO
 10
14328.80217064596
 20
1013.874748214644
 30
0.0
 11
14328.80217064596
 21
993.87474821464389
 31
0.0
  0
LINE
  5
17500
  8
YODOROGO
 10
14536.80217064596
 20
1013.874748214644
 30
0.0
 11
14500.802170645949
 21
1013.874748214644
 31
0.0
  0
LINE
  5
17501
  8
YODOROGO
 10
14630.80217064596
 20
1003.874748214644
 30
0.0
 11
14598.80217064596
 21
1003.874748214644
 31
0.0
  0
LINE
  5
17502
  8
YODOROGO
 10
14728.80217064596
 20
1013.874748214644
 30
0.0
 11
14692.80217064596
 21
1013.874748214644
 31
0.0
  0
LINE
  5
17503
  8
YODOROGO
 10
14836.80217064596
 20
853.87474821464389
 30
0.0
 11
14836.80217064596
 21
885.87474821464423
 31
0.0
1001
AUTOCAD_POSTSCRIPT_FIGURE
1002
{
1000
PSFILL
1000
Grayscale
1000
Grayscale
1070
    25
1002
}
  0
LINE
  5
17504
  8
YODOROGO
 10
14808.80217064596
 20
853.87474821464389
 30
0.0
 11
14836.80217064596
 21
853.87474821464389
 31
0.0
1001
AUTOCAD_POSTSCRIPT_FIGURE
1002
{
1000
PSFILL
1000
Grayscale
1000
Grayscale
1070
    25
1002
}
  0
LINE
  5
17505
  8
YODOROGO
 10
14808.80217064596
 20
909.87474821464411
 30
0.0
 11
14808.80217064596
 21
853.87474821464389
 31
0.0
1001
AUTOCAD_POSTSCRIPT_FIGURE
1002
{
1000
PSFILL
1000
Grayscale
1000
Grayscale
1070
    25
1002
}
  0
LINE
  5
17506
  8
YODOROGO
 10
14882.80217064596
 20
909.87474821464411
 30
0.0
 11
14808.80217064596
 21
909.87474821464411
 31
0.0
1001
AUTOCAD_POSTSCRIPT_FIGURE
1002
{
1000
PSFILL
1000
Grayscale
1000
Grayscale
1070
    25
1002
}
  0
LINE
  5
17507
  8
YODOROGO
 10
14882.80217064596
 20
929.874748214644
 30
0.0
 11
14882.80217064596
 21
909.87474821464411
 31
0.0
1001
AUTOCAD_POSTSCRIPT_FIGURE
1002
{
1000
PSFILL
1000
Grayscale
1000
Grayscale
1070
    25
1002
}
  0
LINE
  5
17508
  8
YODOROGO
 10
14808.80217064596
 20
929.874748214644
 30
0.0
 11
14882.80217064596
 21
929.874748214644
 31
0.0
1001
AUTOCAD_POSTSCRIPT_FIGURE
1002
{
1000
PSFILL
1000
Grayscale
1000
Grayscale
1070
    25
1002
}
  0
LINE
  5
17509
  8
YODOROGO
 10
14808.80217064596
 20
953.87474821464389
 30
0.0
 11
14808.80217064596
 21
929.874748214644
 31
0.0
1001
AUTOCAD_POSTSCRIPT_FIGURE
1002
{
1000
PSFILL
1000
Grayscale
1000
Grayscale
1070
    25
1002
}
  0
LINE
  5
1750A
  8
YODOROGO
 10
14882.80217064596
 20
953.87474821464389
 30
0.0
 11
14808.80217064596
 21
953.87474821464389
 31
0.0
1001
AUTOCAD_POSTSCRIPT_FIGURE
1002
{
1000
PSFILL
1000
Grayscale
1000
Grayscale
1070
    25
1002
}
  0
LINE
  5
1750B
  8
YODOROGO
 10
14882.80217064596
 20
973.87474821464377
 30
0.0
 11
14882.80217064596
 21
953.87474821464389
 31
0.0
1001
AUTOCAD_POSTSCRIPT_FIGURE
1002
{
1000
PSFILL
1000
Grayscale
1000
Grayscale
1070
    25
1002
}
  0
LINE
  5
1750C
  8
YODOROGO
 10
14808.80217064596
 20
973.87474821464377
 30
0.0
 11
14882.80217064596
 21
973.87474821464377
 31
0.0
1001
AUTOCAD_POSTSCRIPT_FIGURE
1002
{
1000
PSFILL
1000
Grayscale
1000
Grayscale
1070
    25
1002
}
  0
LINE
  5
1750D
  8
YODOROGO
 10
14808.80217064596
 20
1013.874748214644
 30
0.0
 11
14808.80217064596
 21
973.87474821464377
 31
0.0
1001
AUTOCAD_POSTSCRIPT_FIGURE
1002
{
1000
PSFILL
1000
Grayscale
1000
Grayscale
1070
    25
1002
}
  0
LINE
  5
1750E
  8
YODOROGO
 10
14832.80217064596
 20
1013.874748214644
 30
0.0
 11
14808.80217064596
 21
1013.874748214644
 31
0.0
1001
AUTOCAD_POSTSCRIPT_FIGURE
1002
{
1000
PSFILL
1000
Grayscale
1000
Grayscale
1070
    25
1002
}
  0
LINE
  5
1750F
  8
YODOROGO
 10
14832.80217064596
 20
997.87474821464355
 30
0.0
 11
14832.80217064596
 21
1013.874748214644
 31
0.0
1001
AUTOCAD_POSTSCRIPT_FIGURE
1002
{
1000
PSFILL
1000
Grayscale
1000
Grayscale
1070
    25
1002
}
  0
LINE
  5
17510
  8
YODOROGO
 10
14882.80217064596
 20
997.87474821464355
 30
0.0
 11
14832.80217064596
 21
997.87474821464355
 31
0.0
1001
AUTOCAD_POSTSCRIPT_FIGURE
1002
{
1000
PSFILL
1000
Grayscale
1000
Grayscale
1070
    25
1002
}
  0
LINE
  5
17511
  8
YODOROGO
 10
14882.80217064596
 20
1013.874748214644
 30
0.0
 11
14882.80217064596
 21
997.87474821464355
 31
0.0
1001
AUTOCAD_POSTSCRIPT_FIGURE
1002
{
1000
PSFILL
1000
Grayscale
1000
Grayscale
1070
    25
1002
}
  0
LINE
  5
17512
  8
YODOROGO
 10
14914.80217064596
 20
1013.874748214644
 30
0.0
 11
14882.80217064596
 21
1013.874748214644
 31
0.0
1001
AUTOCAD_POSTSCRIPT_FIGURE
1002
{
1000
PSFILL
1000
Grayscale
1000
Grayscale
1070
    25
1002
}
  0
LINE
  5
17513
  8
YODOROGO
 10
14914.80217064596
 20
997.87474821464355
 30
0.0
 11
14914.80217064596
 21
1013.874748214644
 31
0.0
1001
AUTOCAD_POSTSCRIPT_FIGURE
1002
{
1000
PSFILL
1000
Grayscale
1000
Grayscale
1070
    25
1002
}
  0
LINE
  5
17514
  8
YODOROGO
 10
14914.80217064596
 20
953.87474821464389
 30
0.0
 11
14914.80217064596
 21
973.87474821464377
 31
0.0
1001
AUTOCAD_POSTSCRIPT_FIGURE
1002
{
1000
PSFILL
1000
Grayscale
1000
Grayscale
1070
    25
1002
}
  0
LINE
  5
17515
  8
YODOROGO
 10
14914.80217064596
 20
909.87474821464411
 30
0.0
 11
14914.80217064596
 21
929.874748214644
 31
0.0
1001
AUTOCAD_POSTSCRIPT_FIGURE
1002
{
1000
PSFILL
1000
Grayscale
1000
Grayscale
1070
    25
1002
}
  0
LINE
  5
17516
  8
YODOROGO
 10
14960.802170645949
 20
885.87474821464423
 30
0.0
 11
14960.802170645949
 21
853.87474821464389
 31
0.0
1001
AUTOCAD_POSTSCRIPT_FIGURE
1002
{
1000
PSFILL
1000
Grayscale
1000
Grayscale
1070
    25
1002
}
  0
LINE
  5
17517
  8
YODOROGO
 10
14914.80217064596
 20
885.87474821464423
 30
0.0
 11
14960.802170645949
 21
885.87474821464423
 31
0.0
1001
AUTOCAD_POSTSCRIPT_FIGURE
1002
{
1000
PSFILL
1000
Grayscale
1000
Grayscale
1070
    25
1002
}
  0
LINE
  5
17518
  8
YODOROGO
 10
14914.80217064596
 20
853.87474821464389
 30
0.0
 11
14914.80217064596
 21
885.87474821464423
 31
0.0
1001
AUTOCAD_POSTSCRIPT_FIGURE
1002
{
1000
PSFILL
1000
Grayscale
1000
Grayscale
1070
    25
1002
}
  0
LINE
  5
17519
  8
YODOROGO
 10
14882.80217064596
 20
853.87474821464389
 30
0.0
 11
14914.80217064596
 21
853.87474821464389
 31
0.0
1001
AUTOCAD_POSTSCRIPT_FIGURE
1002
{
1000
PSFILL
1000
Grayscale
1000
Grayscale
1070
    25
1002
}
  0
LINE
  5
1751A
  8
YODOROGO
 10
14882.80217064596
 20
885.87474821464423
 30
0.0
 11
14882.80217064596
 21
853.87474821464389
 31
0.0
1001
AUTOCAD_POSTSCRIPT_FIGURE
1002
{
1000
PSFILL
1000
Grayscale
1000
Grayscale
1070
    25
1002
}
  0
LINE
  5
1751B
  8
YODOROGO
 10
14836.80217064596
 20
885.87474821464423
 30
0.0
 11
14882.80217064596
 21
885.87474821464423
 31
0.0
1001
AUTOCAD_POSTSCRIPT_FIGURE
1002
{
1000
PSFILL
1000
Grayscale
1000
Grayscale
1070
    25
1002
}
  0
ARC
  5
1751C
  8
YODOROGO
 10
15529.75894667896
 20
801.34036875778816
 30
0.0
 40
89.11064055536076
 50
281.02627495425361
 51
357.77113575573799
  0
LINE
  5
1751D
  8
YODOROGO
 10
15706.80217064596
 20
953.87474821464389
 30
0.0
 11
15582.80217064596
 21
953.87474821464389
 31
0.0
  0
LINE
  5
1751E
  8
YODOROGO
 10
15706.80217064596
 20
1013.874748214644
 30
0.0
 11
15582.80217064596
 21
1013.874748214644
 31
0.0
  0
LINE
  5
1751F
  8
YODOROGO
 10
15582.80217064596
 20
981.87474821464343
 30
0.0
 11
15706.80217064596
 21
981.87474821464343
 31
0.0
  0
LINE
  5
17520
  8
YODOROGO
 10
15395.80217064596
 20
781.87474821464343
 30
0.0
 11
15395.80217064596
 21
877.87474821464366
 31
0.0
  0
LINE
  5
17521
  8
YODOROGO
 10
15381.80217064596
 20
845.87474821464446
 30
0.0
 11
15381.80217064596
 21
781.87474821464343
 31
0.0
  0
LINE
  5
17522
  8
YODOROGO
 10
15361.80217064596
 20
745.87474821464434
 30
0.0
 11
15361.80217064596
 21
845.87474821464446
 31
0.0
  0
LINE
  5
17523
  8
YODOROGO
 10
15449.80217064596
 20
845.87474821464446
 30
0.0
 11
15449.80217064596
 21
745.87474821464434
 31
0.0
  0
LINE
  5
17524
  8
YODOROGO
 10
15429.80217064596
 20
781.87474821464343
 30
0.0
 11
15429.80217064596
 21
845.87474821464446
 31
0.0
  0
LINE
  5
17525
  8
YODOROGO
 10
15415.80217064596
 20
877.87474821464366
 30
0.0
 11
15415.80217064596
 21
781.87474821464343
 31
0.0
  0
LINE
  5
17526
  8
YODOROGO
 10
15486.80217064596
 20
1013.874748214644
 30
0.0
 11
15486.80217064596
 21
733.87474821464377
 31
0.0
  0
LINE
  5
17527
  8
YODOROGO
 10
15322.80217064596
 20
713.87474821464377
 30
0.0
 11
15322.80217064596
 21
1013.874748214644
 31
0.0
  0
LINE
  5
17528
  8
YODOROGO
 10
15348.80217064596
 20
981.87474821464343
 30
0.0
 11
15348.80217064596
 21
713.87474821464377
 31
0.0
  0
LINE
  5
17529
  8
YODOROGO
 10
15462.80217064596
 20
773.87474821464389
 30
0.0
 11
15462.80217064596
 21
981.87474821464343
 31
0.0
  0
LINE
  5
1752A
  8
YODOROGO
 10
15190.80217064596
 20
813.87474821464377
 30
0.0
 11
15190.80217064596
 21
839.87474821464423
 31
0.0
  0
LINE
  5
1752B
  8
YODOROGO
 10
15308.80217064596
 20
839.87474821464423
 30
0.0
 11
15308.80217064596
 21
813.87474821464377
 31
0.0
  0
LINE
  5
1752C
  8
YODOROGO
 10
15582.80217064596
 20
953.87474821464389
 30
0.0
 11
15582.80217064596
 21
817.87474821464355
 31
0.0
  0
LINE
  5
1752D
  8
YODOROGO
 10
14974.80217064596
 20
833.87474821464389
 30
0.0
 11
14974.80217064596
 21
853.87474821464389
 31
0.0
  0
LINE
  5
1752E
  8
YODOROGO
 10
14974.80217064596
 20
833.87474821464389
 30
0.0
 11
14974.80217064596
 21
853.87474821464389
 31
0.0
  0
ARC
  5
1752F
  8
YODOROGO
 10
15268.80217064596
 20
753.87474821464389
 30
0.0
 40
40.0
 50
270.0
 51
0.0
  0
LINE
  5
17530
  8
YODOROGO
 10
15284.80217064596
 20
799.87474821464411
 30
0.0
 11
15308.80217064596
 21
799.87474821464411
 31
0.0
  0
LINE
  5
17531
  8
YODOROGO
 10
15308.80217064596
 20
813.87474821464377
 30
0.0
 11
15264.80217064596
 21
813.87474821464377
 31
0.0
  0
LINE
  5
17532
  8
YODOROGO
 10
15108.80217064596
 20
833.87474821464389
 30
0.0
 11
14974.80217064596
 21
833.87474821464389
 31
0.0
  0
LINE
  5
17533
  8
YODOROGO
 10
15108.80217064596
 20
813.87474821464377
 30
0.0
 11
15108.80217064596
 21
833.87474821464389
 31
0.0
  0
LINE
  5
17534
  8
YODOROGO
 10
15008.80217064596
 20
813.87474821464377
 30
0.0
 11
15108.80217064596
 21
813.87474821464377
 31
0.0
  0
ARC
  5
17535
  8
YODOROGO
 10
15115.02941435068
 20
934.44285747645131
 30
0.0
 40
160.68881814261411
 50
228.6181454618993
 51
245.660289248906
  0
LINE
  5
17536
  8
YODOROGO
 10
15052.80217064596
 20
801.87474821464457
 30
0.0
 11
15048.80217064598
 21
788.03640793495015
 31
0.0
  0
LINE
  5
17537
  8
YODOROGO
 10
15094.80217064596
 20
801.87474821464457
 30
0.0
 11
15052.80217064596
 21
801.87474821464457
 31
0.0
  0
LINE
  5
17538
  8
YODOROGO
 10
15088.80217064596
 20
775.90886123671362
 30
0.0
 11
15094.80217064596
 21
801.87474821464457
 31
0.0
  0
ARC
  5
17539
  8
YODOROGO
 10
15115.029414350231
 20
934.44285747650144
 30
0.0
 40
160.6888181426454
 50
260.60629297969928
 51
267.77903556555862
  0
LINE
  5
1753A
  8
YODOROGO
 10
15108.80217064596
 20
713.87474821464275
 30
0.0
 11
15108.80217064596
 21
773.87474821464389
 31
0.0
  0
LINE
  5
1753B
  8
YODOROGO
 10
14968.80217064596
 20
740.66966745775528
 30
0.0
 11
14968.80217064596
 21
797.26554526557061
 31
0.0
  0
LINE
  5
1753C
  8
YODOROGO
 10
15108.80217064596
 20
833.87474821464389
 30
0.0
 11
14974.80217064596
 21
833.87474821464389
 31
0.0
  0
LINE
  5
1753D
  8
YODOROGO
 10
15108.80217064596
 20
813.87474821464377
 30
0.0
 11
15108.80217064596
 21
833.87474821464389
 31
0.0
  0
LINE
  5
1753E
  8
YODOROGO
 10
15008.80217064596
 20
813.87474821464377
 30
0.0
 11
15108.80217064596
 21
813.87474821464377
 31
0.0
  0
ARC
  5
1753F
  8
YODOROGO
 10
15115.02941435068
 20
934.44285747645131
 30
0.0
 40
160.68881814261411
 50
228.6181454618993
 51
245.660289248906
  0
LINE
  5
17540
  8
YODOROGO
 10
15052.80217064596
 20
801.87474821464457
 30
0.0
 11
15048.80217064598
 21
788.03640793495015
 31
0.0
  0
LINE
  5
17541
  8
YODOROGO
 10
15094.80217064596
 20
801.87474821464457
 30
0.0
 11
15052.80217064596
 21
801.87474821464457
 31
0.0
  0
LINE
  5
17542
  8
YODOROGO
 10
15088.80217064596
 20
775.90886123671362
 30
0.0
 11
15094.80217064596
 21
801.87474821464457
 31
0.0
  0
ARC
  5
17543
  8
YODOROGO
 10
15115.029414350231
 20
934.44285747650144
 30
0.0
 40
160.6888181426454
 50
260.60629297969928
 51
267.77903556555862
  0
LINE
  5
17544
  8
YODOROGO
 10
15108.80217064596
 20
713.87474821464275
 30
0.0
 11
15108.80217064596
 21
773.87474821464389
 31
0.0
  0
LINE
  5
17545
  8
YODOROGO
 10
14968.80217064596
 20
740.66966745775528
 30
0.0
 11
14968.80217064596
 21
797.26554526557061
 31
0.0
  0
LINE
  5
17546
  8
YODOROGO
 10
15216.80217064596
 20
786.87474821464457
 30
0.0
 11
15190.80217064596
 21
786.87474821464457
 31
0.0
  0
LINE
  5
17547
  8
YODOROGO
 10
15216.80217064596
 20
800.8747482146432
 30
0.0
 11
15216.80217064596
 21
786.87474821464457
 31
0.0
  0
LINE
  5
17548
  8
YODOROGO
 10
15190.80217064596
 20
800.8747482146432
 30
0.0
 11
15216.80217064596
 21
800.8747482146432
 31
0.0
  0
LINE
  5
17549
  8
YODOROGO
 10
15190.80217064596
 20
786.87474821464457
 30
0.0
 11
15190.80217064596
 21
800.8747482146432
 31
0.0
  0
LINE
  5
1754A
  8
YODOROGO
 10
15214.80217064596
 20
788.87474821464377
 30
0.0
 11
15192.80217064596
 21
788.87474821464377
 31
0.0
  0
LINE
  5
1754B
  8
YODOROGO
 10
15214.80217064596
 20
798.87474821464389
 30
0.0
 11
15214.80217064596
 21
788.87474821464377
 31
0.0
  0
LINE
  5
1754C
  8
YODOROGO
 10
15192.80217064596
 20
798.87474821464389
 30
0.0
 11
15214.80217064596
 21
798.87474821464389
 31
0.0
  0
LINE
  5
1754D
  8
YODOROGO
 10
15192.80217064596
 20
788.87474821464377
 30
0.0
 11
15192.80217064596
 21
798.87474821464389
 31
0.0
  0
LINE
  5
1754E
  8
YODOROGO
 10
15212.80217064596
 20
790.8747482146432
 30
0.0
 11
15194.80217064596
 21
790.8747482146432
 31
0.0
  0
LINE
  5
1754F
  8
YODOROGO
 10
15212.80217064596
 20
796.87474821464446
 30
0.0
 11
15212.80217064596
 21
790.8747482146432
 31
0.0
  0
LINE
  5
17550
  8
YODOROGO
 10
15194.80217064596
 20
796.87474821464446
 30
0.0
 11
15212.80217064596
 21
796.87474821464446
 31
0.0
  0
LINE
  5
17551
  8
YODOROGO
 10
15194.80217064596
 20
790.8747482146432
 30
0.0
 11
15194.80217064596
 21
796.87474821464446
 31
0.0
  0
LINE
  5
17552
  8
YODOROGO
 10
15210.80217064596
 20
792.87474821464355
 30
0.0
 11
15196.80217064596
 21
792.87474821464355
 31
0.0
  0
LINE
  5
17553
  8
YODOROGO
 10
15210.80217064596
 20
794.87474821464411
 30
0.0
 11
15210.80217064596
 21
792.87474821464355
 31
0.0
  0
LINE
  5
17554
  8
YODOROGO
 10
15196.80217064596
 20
794.87474821464411
 30
0.0
 11
15210.80217064596
 21
794.87474821464411
 31
0.0
  0
LINE
  5
17555
  8
YODOROGO
 10
15196.80217064596
 20
792.87474821464355
 30
0.0
 11
15196.80217064596
 21
794.87474821464411
 31
0.0
  0
LINE
  5
17556
  8
YODOROGO
 10
15232.80217064596
 20
813.87474821464377
 30
0.0
 11
15190.80217064596
 21
813.87474821464377
 31
0.0
  0
LINE
  5
17557
  8
YODOROGO
 10
15232.80217064596
 20
773.87474821464389
 30
0.0
 11
15232.80217064596
 21
813.87474821464377
 31
0.0
  0
LINE
  5
17558
  8
YODOROGO
 10
15190.80217064596
 20
773.87474821464389
 30
0.0
 11
15232.80217064596
 21
773.87474821464389
 31
0.0
  0
LINE
  5
17559
  8
YODOROGO
 10
15190.80217064596
 20
713.87474821464377
 30
0.0
 11
15190.80217064596
 21
773.87474821464389
 31
0.0
  0
LINE
  5
1755A
  8
YODOROGO
 10
15268.80217064596
 20
713.87474821464377
 30
0.0
 11
15190.80217064596
 21
713.87474821464377
 31
0.0
  0
LINE
  5
1755B
  8
YODOROGO
 10
15284.80217064596
 20
785.8747482146432
 30
0.0
 11
15284.80217064596
 21
799.87474821464411
 31
0.0
  0
ARC
  5
1755C
  8
YODOROGO
 10
15272.802170645949
 20
785.87474821464582
 30
0.0
 40
12.000000000001871
 50
270.0
 51
359.99999999998778
  0
LINE
  5
1755D
  8
YODOROGO
 10
15264.80217064596
 20
773.87474821464389
 30
0.0
 11
15272.802170645949
 21
773.87474821464389
 31
0.0
  0
LINE
  5
1755E
  8
YODOROGO
 10
15264.80217064596
 20
813.87474821464377
 30
0.0
 11
15264.80217064596
 21
773.87474821464389
 31
0.0
  0
LINE
  5
1755F
  8
YODOROGO
 10
15449.802170645969
 20
773.87474821464389
 30
0.0
 11
15462.80217064596
 21
773.87474821464389
 31
0.0
  0
LINE
  5
17560
  8
YODOROGO
 10
15466.80217064596
 20
713.87474821464377
 30
0.0
 11
15449.80217064596
 21
713.87474821464377
 31
0.0
  0
LINE
  5
17561
  8
YODOROGO
 10
15381.80217064596
 20
781.87474821464343
 30
0.0
 11
15395.80217064596
 21
781.87474821464343
 31
0.0
  0
LINE
  5
17562
  8
YODOROGO
 10
15449.80217064596
 20
745.87474821464434
 30
0.0
 11
15361.80217064596
 21
745.87474821464434
 31
0.0
  0
LINE
  5
17563
  8
YODOROGO
 10
15415.80217064596
 20
781.87474821464343
 30
0.0
 11
15429.80217064596
 21
781.87474821464343
 31
0.0
  0
LINE
  5
17564
  8
YODOROGO
 10
15449.80217064596
 20
713.87474821464377
 30
0.0
 11
15449.802170645969
 21
773.87474821464389
 31
0.0
  0
LINE
  5
17565
  8
YODOROGO
 10
15348.80217064596
 20
713.87474821464377
 30
0.0
 11
15322.80217064596
 21
713.87474821464377
 31
0.0
  0
LINE
  5
17566
  8
YODOROGO
 10
15308.80217064596
 20
799.87474821464411
 30
0.0
 11
15308.80217064596
 21
753.87474821464389
 31
0.0
  0
ARC
  5
17567
  8
YODOROGO
 10
15466.80217064596
 20
733.87474821464377
 30
0.0
 40
20.0
 50
270.0
 51
0.0
  0
LINE
  5
17568
  8
YODOROGO
 10
15546.80217064596
 20
761.87474821464343
 30
0.0
 11
15546.80217064596
 21
713.87474821464377
 31
0.0
  0
ARC
  5
17569
  8
YODOROGO
 10
15519.86069778339
 20
818.76569505486657
 30
0.0
 40
62.947778295837708
 50
295.34052442160112
 51
359.18902303418668
  0
LINE
  5
1756A
  8
YODOROGO
 10
15308.80217064596
 20
929.874748214644
 30
0.0
 11
15248.80217064596
 21
969.87474821464411
 31
0.0
  0
LINE
  5
1756B
  8
YODOROGO
 10
15248.80217064596
 20
1013.874748214644
 30
0.0
 11
15308.80217064596
 21
973.87474821464377
 31
0.0
  0
LINE
  5
1756C
  8
YODOROGO
 10
15264.80217064596
 20
839.87474821464423
 30
0.0
 11
15308.80217064596
 21
839.87474821464423
 31
0.0
  0
LINE
  5
1756D
  8
YODOROGO
 10
15308.80217064596
 20
867.87474821464355
 30
0.0
 11
15264.80217064596
 21
867.87474821464355
 31
0.0
  0
LINE
  5
1756E
  8
YODOROGO
 10
15190.80217064596
 20
897.87474821464355
 30
0.0
 11
15308.80217064596
 21
897.87474821464355
 31
0.0
  0
LINE
  5
1756F
  8
YODOROGO
 10
15040.80217064596
 20
1013.874748214644
 30
0.0
 11
15010.80217064596
 21
1013.874748214644
 31
0.0
  0
LINE
  5
17570
  8
YODOROGO
 10
15040.80217064596
 20
913.87474821464377
 30
0.0
 11
15040.80217064596
 21
1013.874748214644
 31
0.0
  0
LINE
  5
17571
  8
YODOROGO
 10
15010.80217064596
 20
913.87474821464377
 30
0.0
 11
15040.80217064596
 21
913.87474821464377
 31
0.0
  0
LINE
  5
17572
  8
YODOROGO
 10
15010.80217064596
 20
1013.874748214644
 30
0.0
 11
15010.80217064596
 21
913.87474821464377
 31
0.0
  0
LINE
  5
17573
  8
YODOROGO
 10
15080.80217064596
 20
1013.874748214644
 30
0.0
 11
15108.80217064596
 21
1013.874748214644
 31
0.0
  0
LINE
  5
17574
  8
YODOROGO
 10
15080.80217064596
 20
905.87474821464434
 30
0.0
 11
15080.80217064596
 21
1013.874748214644
 31
0.0
  0
ARC
  5
17575
  8
YODOROGO
 10
15060.80217064596
 20
905.87474821464434
 30
0.0
 40
20.0
 50
270.0
 51
0.0
  0
LINE
  5
17576
  8
YODOROGO
 10
15010.80217064596
 20
885.87474821464423
 30
0.0
 11
15060.80217064596
 21
885.87474821464423
 31
0.0
  0
LINE
  5
17577
  8
YODOROGO
 10
15010.80217064596
 20
853.87474821464389
 30
0.0
 11
15010.80217064596
 21
885.87474821464423
 31
0.0
  0
LINE
  5
17578
  8
YODOROGO
 10
15068.80217064596
 20
853.87474821464389
 30
0.0
 11
15010.80217064596
 21
853.87474821464389
 31
0.0
  0
ARC
  5
17579
  8
YODOROGO
 10
15068.80217064596
 20
893.87474821464389
 30
0.0
 40
40.0
 50
270.0
 51
0.0
  0
LINE
  5
1757A
  8
YODOROGO
 10
15108.80217064596
 20
1013.874748214644
 30
0.0
 11
15108.80217064596
 21
893.87474821464389
 31
0.0
  0
LINE
  5
1757B
  8
YODOROGO
 10
14988.80217064596
 20
973.87474821464377
 30
0.0
 11
14988.80217064596
 21
997.87474821464355
 31
0.0
1001
AUTOCAD_POSTSCRIPT_FIGURE
1002
{
1000
PSFILL
1000
Grayscale
1000
Grayscale
1070
    25
1002
}
  0
LINE
  5
1757C
  8
YODOROGO
 10
14988.80217064596
 20
929.874748214644
 30
0.0
 11
14988.80217064596
 21
953.87474821464389
 31
0.0
1001
AUTOCAD_POSTSCRIPT_FIGURE
1002
{
1000
PSFILL
1000
Grayscale
1000
Grayscale
1070
    25
1002
}
  0
LINE
  5
1757D
  8
YODOROGO
 10
14988.80217064596
 20
853.87474821464389
 30
0.0
 11
14988.80217064596
 21
909.87474821464411
 31
0.0
1001
AUTOCAD_POSTSCRIPT_FIGURE
1002
{
1000
PSFILL
1000
Grayscale
1000
Grayscale
1070
    25
1002
}
  0
LINE
  5
1757E
  8
YODOROGO
 10
15190.80217064596
 20
953.87474821464389
 30
0.0
 11
15248.80217064596
 21
1013.874748214644
 31
0.0
  0
LINE
  5
1757F
  8
YODOROGO
 10
15190.80217064596
 20
909.87474821464411
 30
0.0
 11
15190.80217064596
 21
953.87474821464389
 31
0.0
  0
LINE
  5
17580
  8
YODOROGO
 10
15248.80217064596
 20
969.87474821464411
 30
0.0
 11
15190.80217064596
 21
909.87474821464411
 31
0.0
  0
LINE
  5
17581
  8
YODOROGO
 10
15232.80217064596
 20
839.87474821464423
 30
0.0
 11
15232.80217064596
 21
867.87474821464355
 31
0.0
  0
LINE
  5
17582
  8
YODOROGO
 10
15190.80217064596
 20
839.87474821464423
 30
0.0
 11
15232.80217064596
 21
839.87474821464423
 31
0.0
  0
LINE
  5
17583
  8
YODOROGO
 10
15264.80217064596
 20
867.87474821464355
 30
0.0
 11
15264.80217064596
 21
839.87474821464423
 31
0.0
  0
LINE
  5
17584
  8
YODOROGO
 10
15190.80217064596
 20
867.87474821464355
 30
0.0
 11
15190.80217064596
 21
897.87474821464355
 31
0.0
  0
LINE
  5
17585
  8
YODOROGO
 10
15232.80217064596
 20
867.87474821464355
 30
0.0
 11
15190.80217064596
 21
867.87474821464355
 31
0.0
  0
LINE
  5
17586
  8
YODOROGO
 10
15322.80217064596
 20
1013.874748214644
 30
0.0
 11
15486.80217064596
 21
1013.874748214644
 31
0.0
  0
LINE
  5
17587
  8
YODOROGO
 10
15462.80217064596
 20
981.87474821464343
 30
0.0
 11
15348.80217064596
 21
981.87474821464343
 31
0.0
  0
LINE
  5
17588
  8
YODOROGO
 10
15436.80217064596
 20
909.87474821464411
 30
0.0
 11
15449.80217064596
 21
909.87474821464411
 31
0.0
  0
LINE
  5
17589
  8
YODOROGO
 10
15449.80217064596
 20
969.87474821464411
 30
0.0
 11
15436.80217064596
 21
909.87474821464411
 31
0.0
  0
LINE
  5
1758A
  8
YODOROGO
 10
15425.80217064596
 20
969.87474821464411
 30
0.0
 11
15449.80217064596
 21
969.87474821464411
 31
0.0
  0
LINE
  5
1758B
  8
YODOROGO
 10
15412.80217064596
 20
909.87474821464411
 30
0.0
 11
15425.80217064596
 21
969.87474821464411
 31
0.0
  0
LINE
  5
1758C
  8
YODOROGO
 10
15398.80217064596
 20
909.87474821464411
 30
0.0
 11
15412.80217064596
 21
909.87474821464411
 31
0.0
  0
LINE
  5
1758D
  8
YODOROGO
 10
15385.80217064596
 20
969.87474821464411
 30
0.0
 11
15398.80217064596
 21
909.87474821464411
 31
0.0
  0
LINE
  5
1758E
  8
YODOROGO
 10
15361.80217064596
 20
969.87474821464411
 30
0.0
 11
15385.80217064596
 21
969.87474821464411
 31
0.0
  0
LINE
  5
1758F
  8
YODOROGO
 10
15374.80217064596
 20
909.87474821464411
 30
0.0
 11
15361.80217064596
 21
969.87474821464411
 31
0.0
  0
LINE
  5
17590
  8
YODOROGO
 10
15361.80217064596
 20
909.87474821464411
 30
0.0
 11
15374.80217064596
 21
909.87474821464411
 31
0.0
  0
LINE
  5
17591
  8
YODOROGO
 10
15361.80217064596
 20
877.87474821464366
 30
0.0
 11
15361.80217064596
 21
909.87474821464411
 31
0.0
  0
LINE
  5
17592
  8
YODOROGO
 10
15449.80217064596
 20
877.87474821464366
 30
0.0
 11
15361.80217064596
 21
877.87474821464366
 31
0.0
  0
LINE
  5
17593
  8
YODOROGO
 10
15449.80217064596
 20
909.87474821464411
 30
0.0
 11
15449.80217064596
 21
877.87474821464366
 31
0.0
  0
LINE
  5
17594
  8
YODOROGO
 10
15308.80217064596
 20
973.87474821464377
 30
0.0
 11
15308.80217064596
 21
929.874748214644
 31
0.0
  0
LINE
  5
17595
  8
YODOROGO
 10
15395.80217064596
 20
877.87474821464366
 30
0.0
 11
15415.80217064596
 21
877.87474821464366
 31
0.0
  0
LINE
  5
17596
  8
YODOROGO
 10
15361.80217064596
 20
845.87474821464446
 30
0.0
 11
15381.80217064596
 21
845.87474821464446
 31
0.0
  0
LINE
  5
17597
  8
YODOROGO
 10
15429.80217064596
 20
845.87474821464446
 30
0.0
 11
15449.80217064596
 21
845.87474821464446
 31
0.0
  0
LINE
  5
17598
  8
YODOROGO
 10
15308.80217064596
 20
897.87474821464355
 30
0.0
 11
15308.80217064596
 21
867.87474821464355
 31
0.0
  0
LINE
  5
17599
  8
YODOROGO
 10
15582.80217064596
 20
1013.874748214644
 30
0.0
 11
15582.80217064596
 21
981.87474821464343
 31
0.0
  0
LINE
  5
1759A
  8
YODOROGO
 10
15766.80217064596
 20
797.87474821464355
 30
0.0
 11
15766.802170645949
 21
905.87474821464434
 31
0.0
  0
LINE
  5
1759B
  8
YODOROGO
 10
15730.802170645949
 20
993.87474821464389
 30
0.0
 11
15730.802170645949
 21
817.87474821464355
 31
0.0
  0
LINE
  5
1759C
  8
YODOROGO
 10
15826.80217064596
 20
713.87474821464377
 30
0.0
 11
15826.802170645949
 21
905.87474821464434
 31
0.0
  0
LINE
  5
1759D
  8
YODOROGO
 10
15794.80217064596
 20
905.87474821464434
 30
0.0
 11
15794.80217064596
 21
713.87474821464377
 31
0.0
  0
LINE
  5
1759E
  8
YODOROGO
 10
15618.80217064596
 20
797.87474821464355
 30
0.0
 11
15618.80217064596
 21
853.87474821464389
 31
0.0
  0
ARC
  5
1759F
  8
YODOROGO
 10
15676.957432558031
 20
803.89517564427877
 30
0.0
 40
90.046224287994292
 50
268.62849102169793
 51
356.16638457330322
  0
LINE
  5
175A0
  8
YODOROGO
 10
15674.80217064596
 20
763.87474821464377
 30
0.0
 11
15674.80217064596
 21
713.87474821464377
 31
0.0
  0
ARC
  5
175A1
  8
YODOROGO
 10
15675.759037862281
 20
818.91947850882752
 30
0.0
 40
55.053046491806079
 50
269.00410209305937
 51
358.91264455492478
  0
LINE
  5
175A2
  8
YODOROGO
 10
15794.80217064596
 20
713.87474821464377
 30
0.0
 11
15826.80217064596
 21
713.87474821464377
 31
0.0
  0
LINE
  5
175A3
  8
YODOROGO
 10
15766.802170645949
 20
905.87474821464434
 30
0.0
 11
15794.80217064596
 21
905.87474821464434
 31
0.0
  0
LINE
  5
175A4
  8
YODOROGO
 10
15810.80217064596
 20
993.87474821464389
 30
0.0
 11
15730.802170645949
 21
993.87474821464389
 31
0.0
  0
LINE
  5
175A5
  8
YODOROGO
 10
15766.802170645949
 20
957.87474821464355
 30
0.0
 11
15830.80217064596
 21
957.87474821464355
 31
0.0
  0
LINE
  5
175A6
  8
YODOROGO
 10
15850.80217064596
 20
937.87474821464366
 30
0.0
 11
15766.802170645949
 21
937.87474821464366
 31
0.0
  0
LINE
  5
175A7
  8
YODOROGO
 10
15618.80217064596
 20
889.87474821464423
 30
0.0
 11
15674.80217064596
 21
889.87474821464423
 31
0.0
  0
LINE
  5
175A8
  8
YODOROGO
 10
15618.80217064596
 20
917.87474821464355
 30
0.0
 11
15618.80217064596
 21
889.87474821464423
 31
0.0
  0
LINE
  5
175A9
  8
YODOROGO
 10
15674.80217064596
 20
917.87474821464355
 30
0.0
 11
15618.80217064596
 21
917.87474821464355
 31
0.0
  0
LINE
  5
175AA
  8
YODOROGO
 10
15674.80217064596
 20
889.87474821464423
 30
0.0
 11
15674.80217064596
 21
917.87474821464355
 31
0.0
  0
LINE
  5
175AB
  8
YODOROGO
 10
15766.802170645949
 20
937.87474821464366
 30
0.0
 11
15766.802170645949
 21
957.87474821464355
 31
0.0
  0
LINE
  5
175AC
  8
YODOROGO
 10
15706.80217064596
 20
853.87474821464389
 30
0.0
 11
15706.80217064596
 21
953.87474821464389
 31
0.0
  0
LINE
  5
175AD
  8
YODOROGO
 10
15618.80217064596
 20
853.87474821464389
 30
0.0
 11
15706.80217064596
 21
853.87474821464389
 31
0.0
  0
LINE
  5
175AE
  8
YODOROGO
 10
15706.80217064596
 20
981.87474821464343
 30
0.0
 11
15706.80217064596
 21
1013.874748214644
 31
0.0
  0
ARC
  5
175AF
  8
YODOROGO
 10
15810.80217064596
 20
1001.874748214642
 30
0.0
 40
7.9999999999972706
 50
270.0
 51
0.0000000000081422
  0
LINE
  5
175B0
  8
YODOROGO
 10
15818.80217064596
 20
1013.874748214644
 30
0.0
 11
15818.80217064596
 21
1001.874748214643
 31
0.0
  0
LINE
  5
175B1
  8
YODOROGO
 10
15850.80217064596
 20
1013.874748214644
 30
0.0
 11
15818.80217064596
 21
1013.874748214644
 31
0.0
  0
LINE
  5
175B2
  8
YODOROGO
 10
15850.80217064596
 20
977.87474821464366
 30
0.0
 11
15850.80217064596
 21
1013.874748214644
 31
0.0
  0
ARC
  5
175B3
  8
YODOROGO
 10
15830.80217064596
 20
977.87474821464366
 30
0.0
 40
20.0
 50
270.0
 51
0.0
  0
LINE
  5
175B4
  8
YODOROGO
 10
15850.80217064596
 20
905.87474821464434
 30
0.0
 11
15850.80217064596
 21
937.87474821464366
 31
0.0
  0
LINE
  5
175B5
  8
YODOROGO
 10
15826.802170645949
 20
905.87474821464434
 30
0.0
 11
15850.80217064596
 21
905.87474821464434
 31
0.0
  0
ENDSEC
  0
EOF
