  0
SECTION
  2
HEADER
  9
$ACADVER
  1
AC1015
  9
$ACADMAINTVER
 70
    13
  9
$DWGCODEPAGE
  3
ANSI_932
  9
$INSBASE
 10
267.0
 20
194.8999999999998
 30
0.0
  9
$EXTMIN
 10
433.9966216520333
 20
163.6908237492789
 30
-0.000000000000013
  9
$EXTMAX
 10
16382.6660542547
 20
11242.27663824599
 30
0.0000000000000023
  9
$LIMMIN
 10
0.0
 20
0.0
  9
$LIMMAX
 10
16800.0
 20
11880.0
  9
$ORTHOMODE
 70
     0
  9
$REGENMODE
 70
     1
  9
$FILLMODE
 70
     1
  9
$QTEXTMODE
 70
     0
  9
$MIRRTEXT
 70
     0
  9
$LTSCALE
 40
40.0
  9
$ATTMODE
 70
     1
  9
$TEXTSIZE
 40
0.2
  9
$TRACEWID
 40
0.05
  9
$TEXTSTYLE
  7
00
  9
$CLAYER
  8
SUNPOU
  9
$CELTYPE
  6
BYLAYER
  9
$CECOLOR
 62
   256
  9
$CELTSCALE
 40
1.0
  9
$DISPSILH
 70
     0
  9
$DIMSCALE
 40
30.0
  9
$DIMASZ
 40
0.5
  9
$DIMEXO
 40
1.0
  9
$DIMDLI
 40
7.0
  9
$DIMRND
 40
0.0
  9
$DIMDLE
 40
3.0
  9
$DIMEXE
 40
1.5
  9
$DIMTP
 40
0.0
  9
$DIMTM
 40
0.0
  9
$DIMTXT
 40
3.0
  9
$DIMCEN
 40
0.0
  9
$DIMTSZ
 40
0.0
  9
$DIMTOL
 70
     0
  9
$DIMLIM
 70
     0
  9
$DIMTIH
 70
     0
  9
$DIMTOH
 70
     0
  9
$DIMSE1
 70
     0
  9
$DIMSE2
 70
     0
  9
$DIMTAD
 70
     1
  9
$DIMZIN
 70
     8
  9
$DIMBLK
  1

  9
$DIMASO
 70
     1
  9
$DIMSHO
 70
     0
  9
$DIMPOST
  1

  9
$DIMAPOST
  1

  9
$DIMALT
 70
     0
  9
$DIMALTD
 70
     2
  9
$DIMALTF
 40
25.4
  9
$DIMLFAC
 40
1.0
  9
$DIMTOFL
 70
     1
  9
$DIMTVP
 40
0.0
  9
$DIMTIX
 70
     0
  9
$DIMSOXD
 70
     0
  9
$DIMSAH
 70
     1
  9
$DIMBLK1
  1
DOT
  9
$DIMBLK2
  1
DOT
  9
$DIMSTYLE
  2
SUNPOU_図面名
  9
$DIMCLRD
 70
   256
  9
$DIMCLRE
 70
   256
  9
$DIMCLRT
 70
   256
  9
$DIMTFAC
 40
1.0
  9
$DIMGAP
 40
1.5
  9
$DIMJUST
 70
     0
  9
$DIMSD1
 70
     0
  9
$DIMSD2
 70
     0
  9
$DIMTOLJ
 70
     1
  9
$DIMTZIN
 70
     0
  9
$DIMALTZ
 70
     0
  9
$DIMALTTZ
 70
     0
  9
$DIMUPT
 70
     0
  9
$DIMDEC
 70
     2
  9
$DIMTDEC
 70
     2
  9
$DIMALTU
 70
     2
  9
$DIMALTTD
 70
     2
  9
$DIMTXSTY
  7
00
  9
$DIMAUNIT
 70
     0
  9
$DIMADEC
 70
     0
  9
$DIMALTRND
 40
0.0
  9
$DIMAZIN
 70
     0
  9
$DIMDSEP
 70
    46
  9
$DIMATFIT
 70
     3
  9
$DIMFRAC
 70
     0
  9
$DIMLDRBLK
  1
DOT
  9
$DIMLUNIT
 70
     2
  9
$DIMLWD
 70
    -2
  9
$DIMLWE
 70
    -2
  9
$DIMTMOVE
 70
     0
  9
$LUNITS
 70
     2
  9
$LUPREC
 70
     2
  9
$SKETCHINC
 40
0.1
  9
$FILLETRAD
 40
0.0
  9
$AUNITS
 70
     0
  9
$AUPREC
 70
     0
  9
$MENU
  1
A:\TIGER\MENU\TIGER
  9
$ELEVATION
 40
0.0
  9
$PELEVATION
 40
0.0
  9
$THICKNESS
 40
0.0
  9
$LIMCHECK
 70
     0
  9
$CHAMFERA
 40
0.0
  9
$CHAMFERB
 40
0.0
  9
$CHAMFERC
 40
0.0
  9
$CHAMFERD
 40
0.0
  9
$SKPOLY
 70
     0
  9
$TDCREATE
 40
2450266.571064815
  9
$TDUCREATE
 40
2450266.196064815
  9
$TDUPDATE
 40
2456332.435685219
  9
$TDUUPDATE
 40
2456332.060685219
  9
$TDINDWG
 40
0.1766440509
  9
$TDUSRTIMER
 40
0.1766438657
  9
$USRTIMER
 70
     1
  9
$ANGBASE
 50
0.0
  9
$ANGDIR
 70
     0
  9
$PDMODE
 70
     0
  9
$PDSIZE
 40
0.0
  9
$PLINEWID
 40
0.0
  9
$SPLFRAME
 70
     0
  9
$SPLINETYPE
 70
     6
  9
$SPLINESEGS
 70
     8
  9
$HANDSEED
  5
19248
  9
$SURFTAB1
 70
     6
  9
$SURFTAB2
 70
     6
  9
$SURFTYPE
 70
     6
  9
$SURFU
 70
     6
  9
$SURFV
 70
     6
  9
$UCSBASE
  2

  9
$UCSNAME
  2

  9
$UCSORG
 10
0.0
 20
0.0
 30
0.0
  9
$UCSXDIR
 10
1.0
 20
0.0
 30
0.0
  9
$UCSYDIR
 10
0.0
 20
1.0
 30
0.0
  9
$UCSORTHOREF
  2

  9
$UCSORTHOVIEW
 70
     0
  9
$UCSORGTOP
 10
0.0
 20
0.0
 30
0.0
  9
$UCSORGBOTTOM
 10
0.0
 20
0.0
 30
0.0
  9
$UCSORGLEFT
 10
0.0
 20
0.0
 30
0.0
  9
$UCSORGRIGHT
 10
0.0
 20
0.0
 30
0.0
  9
$UCSORGFRONT
 10
0.0
 20
0.0
 30
0.0
  9
$UCSORGBACK
 10
0.0
 20
0.0
 30
0.0
  9
$PUCSBASE
  2

  9
$PUCSNAME
  2

  9
$PUCSORG
 10
0.0
 20
0.0
 30
0.0
  9
$PUCSXDIR
 10
1.0
 20
0.0
 30
0.0
  9
$PUCSYDIR
 10
0.0
 20
1.0
 30
0.0
  9
$PUCSORTHOREF
  2

  9
$PUCSORTHOVIEW
 70
     0
  9
$PUCSORGTOP
 10
0.0
 20
0.0
 30
0.0
  9
$PUCSORGBOTTOM
 10
0.0
 20
0.0
 30
0.0
  9
$PUCSORGLEFT
 10
0.0
 20
0.0
 30
0.0
  9
$PUCSORGRIGHT
 10
0.0
 20
0.0
 30
0.0
  9
$PUCSORGFRONT
 10
0.0
 20
0.0
 30
0.0
  9
$PUCSORGBACK
 10
0.0
 20
0.0
 30
0.0
  9
$USERI1
 70
     3
  9
$USERI2
 70
     0
  9
$USERI3
 70
     0
  9
$USERI4
 70
     0
  9
$USERI5
 70
  1103
  9
$USERR1
 40
0.0
  9
$USERR2
 40
1.0
  9
$USERR3
 40
0.0
  9
$USERR4
 40
0.0
  9
$USERR5
 40
0.0
  9
$WORLDVIEW
 70
     1
  9
$SHADEDGE
 70
     3
  9
$SHADEDIF
 70
    70
  9
$TILEMODE
 70
     1
  9
$MAXACTVP
 70
    16
  9
$PINSBASE
 10
267.0
 20
194.8999999999998
 30
0.0
  9
$PLIMCHECK
 70
     0
  9
$PEXTMIN
 10
1.000000000000000E+20
 20
1.000000000000000E+20
 30
1.000000000000000E+20
  9
$PEXTMAX
 10
-1.000000000000000E+20
 20
-1.000000000000000E+20
 30
-1.000000000000000E+20
  9
$PLIMMIN
 10
0.0
 20
0.0
  9
$PLIMMAX
 10
12.0
 20
9.0
  9
$UNITMODE
 70
     0
  9
$VISRETAIN
 70
     0
  9
$PLINEGEN
 70
     1
  9
$PSLTSCALE
 70
     0
  9
$TREEDEPTH
 70
  3020
  9
$CMLSTYLE
  2
STANDARD
  9
$CMLJUST
 70
     0
  9
$CMLSCALE
 40
1.0
  9
$PROXYGRAPHICS
 70
     1
  9
$MEASUREMENT
 70
     0
  9
$CELWEIGHT
370
    -1
  9
$ENDCAPS
280
     0
  9
$JOINSTYLE
280
     0
  9
$LWDISPLAY
290
     0
  9
$INSUNITS
 70
     0
  9
$HYPERLINKBASE
  1

  9
$STYLESHEET
  1
SINSEI-A3.CTB
  9
$XEDIT
290
     1
  9
$CEPSNTYPE
380
     0
  9
$PSTYLEMODE
290
     1
  9
$FINGERPRINTGUID
  2
{E6DDE4A3-3185-11D4-AFBC-0040266D0056}
  9
$VERSIONGUID
  2
{E791A748-B3E6-4283-B893-87FE9165CE87}
  9
$EXTNAMES
290
     1
  9
$PSVPSCALE
 40
0.0
  9
$OLESTARTUP
290
     0
  0
ENDSEC
  0
SECTION
  2
CLASSES
  0
CLASS
  1
LWPOLYLINE
  2
AcDbPolyline
  3
AutoCAD 2000
 90
    32768
280
     0
281
     1
  0
CLASS
  1
ACDBDICTIONARYWDFLT
  2
AcDbDictionaryWithDefault
  3
AutoCAD 2000
 90
        0
280
     0
281
     0
  0
CLASS
  1
ACDBPLACEHOLDER
  2
AcDbPlaceHolder
  3
AutoCAD 2000
 90
        0
280
     0
281
     0
  0
CLASS
  1
LAYOUT
  2
AcDbLayout
  3
AutoCAD 2000
 90
        0
280
     0
281
     0
  0
CLASS
  1
LONG_TRANSACTION
  2
AcDbLongTransaction
  3
AutoCAD 2000
 90
    32768
280
     0
281
     0
  0
CLASS
  1
LWPOLYLINE
  2
AcDbPolyline
  3
AutoCAD 2000
 90
    32768
280
     0
281
     1
  0
CLASS
  1
HATCH
  2
AcDbHatch
  3
AutoCAD 2000
 90
    32768
280
     0
281
     1
  0
CLASS
  1
XRECORD
  2
AcDbXrecord
  3
AutoCAD 2000
 90
    32768
280
     0
281
     0
  0
CLASS
  1
LONG_TRANSACTION
  2
AcDbLongTransaction
  3
AutoCAD 2000
 90
    32768
280
     0
281
     0
  0
CLASS
  1
LWPOLYLINE
  2
AcDbPolyline
  3
AutoCAD 2000
 90
    32768
280
     0
281
     1
  0
CLASS
  1
HATCH
  2
AcDbHatch
  3
AutoCAD 2000
 90
    32768
280
     0
281
     1
  0
CLASS
  1
XRECORD
  2
AcDbXrecord
  3
AutoCAD 2000
 90
    32768
280
     0
281
     0
  0
CLASS
  1
LONG_TRANSACTION
  2
AcDbLongTransaction
  3
AutoCAD 2000
 90
    32768
280
     0
281
     0
  0
CLASS
  1
LWPOLYLINE
  2
AcDbPolyline
  3
AutoCAD 2000
 90
    32768
280
     0
281
     1
  0
CLASS
  1
HATCH
  2
AcDbHatch
  3
AutoCAD 2000
 90
    32768
280
     0
281
     1
  0
CLASS
  1
XRECORD
  2
AcDbXrecord
  3
AutoCAD 2000
 90
    32768
280
     0
281
     0
  0
CLASS
  1
DICTIONARYVAR
  2
AcDbDictionaryVar
  3
AutoCAD 2000
 90
        0
280
     0
281
     0
  0
CLASS
  1
MATERIAL
  2
AcDbMaterial
  3
ObjectDBX Classes
 90
     1153
280
     0
281
     0
  0
CLASS
  1
VISUALSTYLE
  2
AcDbVisualStyle
  3
ObjectDBX Classes
 90
     4095
280
     0
281
     0
  0
CLASS
  1
TABLESTYLE
  2
AcDbTableStyle
  3
ObjectDBX Classes
 90
     4095
280
     0
281
     0
  0
CLASS
  1
SCALE
  2
AcDbScale
  3
ObjectDBX Classes
 90
     1153
280
     0
281
     0
  0
CLASS
  1
MLEADERSTYLE
  2
AcDbMLeaderStyle
  3
ACDB_MLEADERSTYLE_CLASS
 90
     4095
280
     0
281
     0
  0
CLASS
  1
CELLSTYLEMAP
  2
AcDbCellStyleMap
  3
ObjectDBX Classes
 90
     1152
280
     0
281
     0
  0
CLASS
  1
SORTENTSTABLE
  2
AcDbSortentsTable
  3
AutoCAD 2000
 90
        0
280
     0
281
     0
  0
ENDSEC
  0
SECTION
  2
TABLES
  0
TABLE
  2
VPORT
  5
1259A
102
{ACAD_XDICTIONARY
360
15B8E
102
}
330
0
100
AcDbSymbolTable
 70
     2
  0
VPORT
  5
19247
330
1259A
100
AcDbSymbolTableRecord
100
AcDbViewportTableRecord
  2
*Active
 70
     0
 10
0.0
 20
0.0
 11
1.0
 21
1.0
 12
8408.331337953367
 22
5702.983730997637
 13
0.0
 23
0.0
 14
1.0
 24
1.0
 15
0.0
 25
0.0
 16
0.0
 26
0.0
 36
1.0
 17
0.0
 27
0.0
 37
0.0
 40
11163.50538397298
 41
1.527918781725888
 42
50.0
 43
0.0
 44
0.0
 50
0.0
 51
0.0
 71
     0
 72
 10000
 73
     1
 74
     0
 75
     0
 76
     0
 77
     0
 78
     0
281
     0
 65
     1
110
0.0
120
0.0
130
0.0
111
1.0
121
0.0
131
0.0
112
0.0
122
1.0
132
0.0
 79
     0
146
0.0
  0
ENDTAB
  0
TABLE
  2
LTYPE
  5
12597
330
0
100
AcDbSymbolTable
 70
     7
  0
LTYPE
  5
125A4
330
12597
100
AcDbSymbolTableRecord
100
AcDbLinetypeTableRecord
  2
BYBLOCK
 70
     0
  3

 72
    65
 73
     0
 40
0.0
  0
LTYPE
  5
125A5
330
12597
100
AcDbSymbolTableRecord
100
AcDbLinetypeTableRecord
  2
BYLAYER
 70
     0
  3

 72
    65
 73
     0
 40
0.0
  0
LTYPE
  5
125A6
330
12597
100
AcDbSymbolTableRecord
100
AcDbLinetypeTableRecord
  2
CONTINUOUS
 70
     0
  3
実線
 72
    65
 73
     0
 40
0.0
  0
LTYPE
  5
125B8
330
12597
100
AcDbSymbolTableRecord
100
AcDbLinetypeTableRecord
  2
TENSEN-
 70
     0
  3

 72
    65
 73
     2
 40
0.6000000000000001
 49
0.2
 74
     0
 49
-0.4
 74
     0
  0
LTYPE
  5
125B9
330
12597
100
AcDbSymbolTableRecord
100
AcDbLinetypeTableRecord
  2
1PL-LL
 70
     0
  3

 72
    65
 73
     4
 40
106.0
 49
100.0
 74
     0
 49
-2.0
 74
     0
 49
2.0
 74
     0
 49
-2.0
 74
     0
  0
LTYPE
  5
125BC
330
12597
100
AcDbSymbolTableRecord
100
AcDbLinetypeTableRecord
  2
1PL-M
 70
     0
  3

 72
    65
 73
     4
 40
15.0
 49
12.0
 74
     0
 49
-1.0
 74
     0
 49
1.0
 74
     0
 49
-1.0
 74
     0
  0
LTYPE
  5
125BE
330
12597
100
AcDbSymbolTableRecord
100
AcDbLinetypeTableRecord
  2
1PL-S
 70
     0
  3

 72
    65
 73
     4
 40
4.0
 49
2.5
 74
     0
 49
-0.5
 74
     0
 49
0.5
 74
     0
 49
-0.5
 74
     0
  0
LTYPE
  5
125C0
330
12597
100
AcDbSymbolTableRecord
100
AcDbLinetypeTableRecord
  2
2PL-L
 70
     0
  3

 72
    65
 73
     6
 40
60.0
 49
50.0
 74
     0
 49
-2.0
 74
     0
 49
2.0
 74
     0
 49
-2.0
 74
     0
 49
2.0
 74
     0
 49
-2.0
 74
     0
  0
LTYPE
  5
12C5B
330
12597
100
AcDbSymbolTableRecord
100
AcDbLinetypeTableRecord
  2
1PL-12
 70
     0
  3

 72
    65
 73
     4
 40
15.0
 49
12.0
 74
     0
 49
-1.0
 74
     0
 49
1.0
 74
     0
 49
-1.0
 74
     0
  0
ENDTAB
  0
TABLE
  2
LAYER
  5
12594
330
0
100
AcDbSymbolTable
 70
    21
  0
LAYER
  5
125A1
330
12594
100
AcDbSymbolTableRecord
100
AcDbLayerTableRecord
  2
0
 70
     0
 62
     7
  6
CONTINUOUS
370
    -3
390
1297A
  0
LAYER
  5
125C8
330
12594
100
AcDbSymbolTableRecord
100
AcDbLayerTableRecord
  2
U1
 70
     0
 62
     3
  6
CONTINUOUS
370
    -3
390
1297A
  0
LAYER
  5
125CA
330
12594
100
AcDbSymbolTableRecord
100
AcDbLayerTableRecord
  2
U3
 70
     0
 62
     6
  6
CONTINUOUS
370
    -3
390
1297A
  0
LAYER
  5
125D1
330
12594
100
AcDbSymbolTableRecord
100
AcDbLayerTableRecord
  2
SUNPOU
 70
     0
 62
     4
  6
CONTINUOUS
370
    -3
390
1297A
  0
LAYER
  5
125D2
330
12594
100
AcDbSymbolTableRecord
100
AcDbLayerTableRecord
  2
HIKIDASHI
 70
     0
 62
     6
  6
CONTINUOUS
370
    -3
390
1297A
  0
LAYER
  5
125D6
330
12594
100
AcDbSymbolTableRecord
100
AcDbLayerTableRecord
  2
TENSEN-1
 70
     0
 62
     6
  6
TENSEN-
370
    -3
390
1297A
  0
LAYER
  5
125E2
330
12594
100
AcDbSymbolTableRecord
100
AcDbLayerTableRecord
  2
1PL-S1
 70
     0
 62
     6
  6
1PL-S
370
    -3
390
1297A
  0
LAYER
  5
125E5
330
12594
100
AcDbSymbolTableRecord
100
AcDbLayerTableRecord
  2
1PL-M1
 70
     0
 62
     6
  6
1PL-M
370
    -3
390
1297A
  0
LAYER
  5
12ACD
330
12594
100
AcDbSymbolTableRecord
100
AcDbLayerTableRecord
  2
NAME
 70
     0
 62
    20
  6
CONTINUOUS
370
    -3
390
1297A
  0
LAYER
  5
12ACE
330
12594
100
AcDbSymbolTableRecord
100
AcDbLayerTableRecord
  2
FILENAME
 70
     0
 62
     7
  6
CONTINUOUS
370
    -3
390
1297A
  0
LAYER
  5
12C5C
330
12594
100
AcDbSymbolTableRecord
100
AcDbLayerTableRecord
  2
CENTER
 70
     0
 62
     6
  6
1PL-LL
370
    -3
390
1297A
  0
LAYER
  5
12C5D
330
12594
100
AcDbSymbolTableRecord
100
AcDbLayerTableRecord
  2
KISO
 70
     0
 62
     2
  6
CONTINUOUS
370
    -3
390
1297A
  0
LAYER
  5
12C68
330
12594
100
AcDbSymbolTableRecord
100
AcDbLayerTableRecord
  2
BOLT
 70
     0
 62
     4
  6
CONTINUOUS
370
    -3
390
1297A
  0
LAYER
  5
12C70
330
12594
100
AcDbSymbolTableRecord
100
AcDbLayerTableRecord
  2
YANE
 70
     0
 62
     1
  6
1PL-12
370
    -3
390
1297A
  0
LAYER
  5
15354
330
12594
100
AcDbSymbolTableRecord
100
AcDbLayerTableRecord
  2
HATCH
 70
     0
 62
     1
  6
CONTINUOUS
370
    -3
390
1297A
  0
LAYER
  5
15355
330
12594
100
AcDbSymbolTableRecord
100
AcDbLayerTableRecord
  2
HASHIRA
 70
     0
 62
     3
  6
CONTINUOUS
370
    -3
390
1297A
  0
LAYER
  5
15357
330
12594
100
AcDbSymbolTableRecord
100
AcDbLayerTableRecord
  2
DOMAKON
 70
     0
 62
     2
  6
CONTINUOUS
370
    -3
390
1297A
  0
LAYER
  5
18D4E
330
12594
100
AcDbSymbolTableRecord
100
AcDbLayerTableRecord
  2
YODOROGO
 70
     0
 62
   130
  6
CONTINUOUS
370
    -3
390
1297A
  0
LAYER
  5
18D51
330
12594
100
AcDbSymbolTableRecord
100
AcDbLayerTableRecord
  2
WAKUSEN-01
 70
     0
 62
    50
  6
CONTINUOUS
370
    -3
390
1297A
  0
LAYER
  5
18D52
330
12594
100
AcDbSymbolTableRecord
100
AcDbLayerTableRecord
  2
WAKUSEN-02
 70
     0
 62
   130
  6
CONTINUOUS
370
    -3
390
1297A
  0
LAYER
  5
18D53
330
12594
100
AcDbSymbolTableRecord
100
AcDbLayerTableRecord
  2
WAKUMOJI-01
 70
     0
 62
   130
  6
CONTINUOUS
370
    -3
390
1297A
  0
ENDTAB
  0
TABLE
  2
STYLE
  5
12595
330
0
100
AcDbSymbolTable
 70
     5
  0
STYLE
  5
125A2
330
12595
100
AcDbSymbolTableRecord
100
AcDbTextStyleTableRecord
  2
STANDARD
 70
     0
 40
3.0
 41
1.0
 50
0.0
 71
     0
 42
0.2
  3
ROMANS
  4
EXTFONT
  0
STYLE
  5
125B1
330
12595
100
AcDbSymbolTableRecord
100
AcDbTextStyleTableRecord
  2
01
 70
     0
 40
3.0
 41
1.0
 50
0.0
 71
     0
 42
0.2
  3
ROMANS
  4
BIGFONT
  0
STYLE
  5
125B3
330
12595
100
AcDbSymbolTableRecord
100
AcDbTextStyleTableRecord
  2
00
 70
     0
 40
0.0
 41
0.6666666666666666
 50
0.0
 71
     0
 42
0.2
  3
ROMANS
  4
BIGFONT
  0
STYLE
  5
126E5
330
12595
100
AcDbSymbolTableRecord
100
AcDbTextStyleTableRecord
  2
WAKUMOJI
 70
     0
 40
3.0
 41
1.0
 50
0.0
 71
     0
 42
3.0
  3
SIMPLEX
  4
BIGFONT
  0
STYLE
  5
12ACF
330
12595
100
AcDbSymbolTableRecord
100
AcDbTextStyleTableRecord
  2
FILENAME
 70
     0
 40
100.0
 41
1.0
 50
0.0
 71
     0
 42
100.0
  3
romans
  4
bigfont
  0
ENDTAB
  0
TABLE
  2
VIEW
  5
12598
330
0
100
AcDbSymbolTable
 70
     0
  0
ENDTAB
  0
TABLE
  2
UCS
  5
12599
330
0
100
AcDbSymbolTable
 70
     0
  0
ENDTAB
  0
TABLE
  2
APPID
  5
1259B
330
0
100
AcDbSymbolTable
 70
     5
  0
APPID
  5
125A3
330
1259B
100
AcDbSymbolTableRecord
100
AcDbRegAppTableRecord
  2
ACAD
 70
     0
  0
APPID
  5
1263C
330
1259B
100
AcDbSymbolTableRecord
100
AcDbRegAppTableRecord
  2
AUTOCAD_POSTSCRIPT_FIGURE
 70
     0
  0
APPID
  5
170A6
330
1259B
100
AcDbSymbolTableRecord
100
AcDbRegAppTableRecord
  2
ACAD_EXEMPT_FROM_CAD_STANDARDS
 70
     0
  0
APPID
  5
18665
330
1259B
100
AcDbSymbolTableRecord
100
AcDbRegAppTableRecord
  2
ACAD_PSEXT
 70
     0
  0
APPID
  5
18D3D
330
1259B
100
AcDbSymbolTableRecord
100
AcDbRegAppTableRecord
  2
ACAD_MLEADERVER
 70
     0
  0
ENDTAB
  0
TABLE
  2
DIMSTYLE
  5
1259C
330
0
100
AcDbSymbolTable
 70
     3
100
AcDbDimStyleTable
 71
     2
340
12C72
340
12947
  0
DIMSTYLE
105
12947
330
1259C
100
AcDbSymbolTableRecord
100
AcDbDimStyleTableRecord
  2
SUNPOU_申請図
 70
     0
 40
40.0
 41
0.5
 42
1.0
 43
7.0
 44
1.0
 46
3.0
 73
     0
 74
     0
 77
     1
 78
     8
140
2.0
141
0.0
147
1.0
172
     1
173
     1
176
   256
177
   256
178
   256
271
     2
272
     2
340
125B3
341
125AE
342
125AE
343
125AE
344
125AE
  0
DIMSTYLE
105
1294D
330
1259C
100
AcDbSymbolTableRecord
100
AcDbDimStyleTableRecord
  2
SUNPOU_申請図$7
 70
     0
 40
40.0
 41
2.0
 42
1.0
 43
7.0
 44
1.5
 46
3.0
 73
     0
 74
     0
 77
     1
 78
     8
140
2.0
141
0.0
147
1.0
172
     1
173
     1
176
   256
177
   256
178
   256
271
     2
272
     2
340
125B3
341
127F0
342
125AE
343
127F0
344
127F0
  0
DIMSTYLE
105
12C72
330
1259C
100
AcDbSymbolTableRecord
100
AcDbDimStyleTableRecord
  2
SUNPOU_図面名
 70
     0
 40
30.0
 41
0.5
 42
1.0
 43
7.0
 44
1.5
 46
3.0
 73
     0
 74
     0
 77
     1
 78
     8
140
3.0
141
0.0
147
1.5
172
     1
173
     1
176
   256
177
   256
178
   256
271
     2
272
     2
340
125B3
341
125AE
343
125AE
344
125AE
  0
ENDTAB
  0
TABLE
  2
BLOCK_RECORD
  5
12593
330
0
100
AcDbSymbolTable
 70
     4
  0
BLOCK_RECORD
  5
125AA
102
{ACAD_XDICTIONARY
360
129B1
102
}
330
12593
100
AcDbSymbolTableRecord
100
AcDbBlockTableRecord
  2
*MODEL_SPACE
340
1297D
  0
BLOCK_RECORD
  5
125A7
102
{ACAD_XDICTIONARY
360
129AF
102
}
330
12593
100
AcDbSymbolTableRecord
100
AcDbBlockTableRecord
  2
*PAPER_SPACE
340
1297E
  0
BLOCK_RECORD
  5
125AE
330
12593
100
AcDbSymbolTableRecord
100
AcDbBlockTableRecord
  2
DOT
340
0
102
{BLKREFS
331
17B6C
331
17B6D
331
17B7E
331
17B7F
331
17B87
331
17B88
331
17B99
331
17B9A
331
18188
331
18189
331
18191
331
18192
331
181A4
331
181A5
331
181AE
331
181AF
331
181B7
331
181B8
331
181C0
331
181C1
331
181C9
331
181CA
331
18A9A
331
18A9B
331
18AB6
331
18AB7
331
18AC0
331
18AC1
331
18AC9
331
18ACA
331
18AD4
331
18AD5
331
18ADD
331
18ADE
331
18AE6
331
18AE7
331
18AEF
331
18AF0
331
18B0B
331
18B0C
331
18B15
331
18B16
331
18B1E
331
18B1F
331
18B29
331
18B2A
331
18B32
331
18B33
331
18B3B
331
18B3C
331
18B44
331
18B45
331
18B4F
331
18B50
331
18B58
331
18B59
331
18B63
331
18B64
331
18B6C
331
18B6D
331
18B76
331
18B77
331
18B80
331
18B81
331
18B89
331
18B8A
331
18B94
331
18B95
331
18B9D
331
18B9E
331
18BA8
331
18BA9
331
18C88
331
18C89
331
18C91
331
18C92
331
18C9B
331
18C9C
331
18CA4
331
18CA5
102
}
  0
BLOCK_RECORD
  5
127F0
330
12593
100
AcDbSymbolTableRecord
100
AcDbBlockTableRecord
  2
ARW_DELTA
340
0
102
{BLKREFS
331
12820
102
}
  0
BLOCK_RECORD
  5
15271
330
12593
100
AcDbSymbolTableRecord
100
AcDbBlockTableRecord
  2
HASIRA
340
0
102
{BLKREFS
331
16BE1
331
16BE4
331
16BE7
331
16BEA
331
16BED
331
16BF2
331
16BF3
331
16BF6
102
}
  0
ENDTAB
  0
ENDSEC
  0
SECTION
  2
BLOCKS
  0
BLOCK
  5
125F6
330
125AA
100
AcDbEntity
  8
0
100
AcDbBlockBegin
  2
*MODEL_SPACE
 70
     0
 10
0.0
 20
0.0
 30
0.0
  3
*MODEL_SPACE
  1

  0
ENDBLK
  5
125F7
330
125AA
100
AcDbEntity
  8
0
100
AcDbBlockEnd
  0
BLOCK
  5
125F4
330
125A7
100
AcDbEntity
 67
     1
  8
0
100
AcDbBlockBegin
  2
*PAPER_SPACE
 70
     0
 10
0.0
 20
0.0
 30
0.0
  3
*PAPER_SPACE
  1

  0
ENDBLK
  5
125F5
330
125A7
100
AcDbEntity
 67
     1
  8
0
100
AcDbBlockEnd
  0
BLOCK
  5
12986
330
125AE
100
AcDbEntity
  8
0
100
AcDbBlockBegin
  2
DOT
 70
     0
 10
0.0
 20
0.0
 30
0.0
  3
DOT
  1

  0
LWPOLYLINE
  5
12987
330
125AE
100
AcDbEntity
  8
0
  6
ByBlock
 62
     0
100
AcDbPolyline
 90
        2
 70
     1
 43
0.75
 10
-0.375
 20
0.0
 42
1.0
 10
0.375
 20
0.0
 42
1.0
  0
LINE
  5
12988
330
125AE
100
AcDbEntity
  8
0
  6
ByBlock
 62
     0
100
AcDbLine
 10
-0.75
 20
0.0
 30
0.0
 11
-1.5
 21
0.0
 31
0.0
  0
ENDBLK
  5
12989
330
125AE
100
AcDbEntity
  8
0
100
AcDbBlockEnd
  0
BLOCK
  5
127F5
330
127F0
100
AcDbEntity
  8
0
100
AcDbBlockBegin
  2
ARW_DELTA
 70
     0
 10
0.0
 20
0.0
 30
0.0
  3
ARW_DELTA
  1

  0
LINE
  5
127F1
330
127F0
100
AcDbEntity
  8
0
100
AcDbLine
 10
-1.0
 20
-0.1666666666666714
 30
0.0
 11
0.0
 21
0.0
 31
0.0
  0
LINE
  5
127F2
330
127F0
100
AcDbEntity
  8
0
100
AcDbLine
 10
0.0
 20
0.0
 30
0.0
 11
-1.0
 21
0.1666666666666714
 31
0.0
  0
SOLID
  5
127F3
330
127F0
100
AcDbEntity
  8
0
100
AcDbTrace
 10
-1.0
 20
-0.1666666666666714
 30
0.0
 11
-1.0
 21
0.1666666666666714
 31
0.0
 12
0.0
 22
0.0
 32
0.0
 13
0.0
 23
0.0
 33
0.0
  0
LINE
  5
127F4
330
127F0
100
AcDbEntity
  8
0
100
AcDbLine
 10
-1.0
 20
0.1666666666666714
 30
0.0
 11
-1.0
 21
-0.1666666666666714
 31
0.0
  0
ENDBLK
  5
127F6
330
127F0
100
AcDbEntity
  8
0
100
AcDbBlockEnd
  0
BLOCK
  5
15272
330
15271
100
AcDbEntity
  8
0
100
AcDbBlockBegin
  2
HASIRA
 70
     0
 10
0.0
 20
0.0
 30
0.0
  3
HASIRA
  1

  0
LINE
  5
15273
330
15271
100
AcDbEntity
  8
U1
100
AcDbLine
 10
6.200000000000727
 20
30.19999999999981
 30
0.0
 11
-26.19999999999981
 21
30.19999999999981
 31
0.0
  0
LINE
  5
15274
330
15271
100
AcDbEntity
  8
U1
100
AcDbLine
 10
-26.19999999999981
 20
-30.20000000000073
 30
0.0
 11
26.20000000000073
 21
-30.20000000000073
 31
0.0
  0
LWPOLYLINE
  5
15275
330
15271
100
AcDbEntity
  8
U1
100
AcDbPolyline
 90
       11
 70
     1
 43
0.0
 10
32.5
 20
26.19999999999981
 42
0.4142135623731022
 10
26.19999999999981
 20
32.5
 10
18.80000000000017
 20
32.5
 42
0.4142135623731046
 10
12.5
 20
26.19999999999981
 42
0.4142135623730825
 10
6.199999999999817
 20
32.5
 10
-26.19999999999981
 20
32.5
 42
0.4142135623730966
 10
-32.5
 20
26.19999999999981
 10
-32.5
 20
-26.20000000000073
 42
0.4142135623730957
 10
-26.19999999999981
 20
-32.5
 10
26.19999999999981
 20
-32.5
 42
0.4142135623730951
 10
32.5
 20
-26.20000000000073
  0
ARC
  5
15276
330
15271
100
AcDbEntity
  8
U1
100
AcDbCircle
 10
-26.19999999999981
 20
-26.20000000000073
 30
0.0
 40
4.0
100
AcDbArc
 50
179.9999999999996
 51
270.0
  0
ARC
  5
15277
330
15271
100
AcDbEntity
  8
U1
100
AcDbCircle
 10
-26.19999999999981
 20
26.19999999999981
 30
0.0
 40
4.0
100
AcDbArc
 50
90.00000000000021
 51
179.9999999999996
  0
LINE
  5
15278
330
15271
100
AcDbEntity
  8
U1
100
AcDbLine
 10
-30.19999999999981
 20
26.19999999999981
 30
0.0
 11
-30.19999999999981
 21
-26.20000000000073
 31
0.0
  0
ARC
  5
15279
330
15271
100
AcDbEntity
  8
U1
100
AcDbCircle
 10
26.20000000000073
 20
-26.20000000000073
 30
0.0
 40
4.0
100
AcDbArc
 50
270.0
 51
0.0000000000002544
  0
ARC
  5
1527A
330
15271
100
AcDbEntity
  8
U1
100
AcDbCircle
 10
6.200000000000727
 20
26.19999999999981
 30
0.0
 40
4.0
100
AcDbArc
 50
0.0
 51
90.00000000000019
  0
ARC
  5
1527B
330
15271
100
AcDbEntity
  8
U1
100
AcDbCircle
 10
13.65000000000053
 20
16.94999999999982
 30
0.0
 40
1.149999999999977
100
AcDbArc
 50
180.0
 51
0.0
  0
LINE
  5
1527C
330
15271
100
AcDbEntity
  8
U1
100
AcDbLine
 10
17.10000000000036
 20
24.5
 30
0.0
 11
17.10000000000036
 21
16.94999999999982
 31
0.0
  0
LINE
  5
1527D
330
15271
100
AcDbEntity
  8
U1
100
AcDbLine
 10
14.80000000000018
 20
24.5
 30
0.0
 11
17.10000000000036
 21
24.5
 31
0.0
  0
LINE
  5
1527E
330
15271
100
AcDbEntity
  8
U1
100
AcDbLine
 10
12.50000000000091
 20
17.5
 30
0.0
 11
14.80000000000018
 21
17.5
 31
0.0
  0
ARC
  5
1527F
330
15271
100
AcDbEntity
  8
U1
100
AcDbCircle
 10
13.65000000000053
 20
16.94999999999982
 30
0.0
 40
3.450000000000044
100
AcDbArc
 50
180.0000000000009
 51
359.999999999999
  0
LINE
  5
15280
330
15271
100
AcDbEntity
  8
U1
100
AcDbLine
 10
12.50000000000091
 20
16.94999999999982
 30
0.0
 11
12.5
 21
26.1999999999989
 31
0.0
  0
LINE
  5
15281
330
15271
100
AcDbEntity
  8
U1
100
AcDbLine
 10
14.80000000000018
 20
26.19999999999981
 30
0.0
 11
14.80000000000018
 21
16.94999999999982
 31
0.0
  0
LINE
  5
15282
330
15271
100
AcDbEntity
  8
U1
100
AcDbLine
 10
10.20000000000073
 20
16.94999999999982
 30
0.0
 11
10.20000000000073
 21
26.19999999999981
 31
0.0
  0
ARC
  5
15283
330
15271
100
AcDbEntity
  8
U1
100
AcDbCircle
 10
26.19999999999981
 20
26.19999999999981
 30
0.0
 40
4.0
100
AcDbArc
 50
0.0000000000002544
 51
90.0
  0
LINE
  5
15284
330
15271
100
AcDbEntity
  8
U1
100
AcDbLine
 10
26.19999999999981
 20
30.19999999999981
 30
0.0
 11
18.80000000000017
 21
30.19999999999981
 31
0.0
  0
ARC
  5
15285
330
15271
100
AcDbEntity
  8
U1
100
AcDbCircle
 10
18.80000000000017
 20
26.19999999999981
 30
0.0
 40
4.0
100
AcDbArc
 50
89.99999999999969
 51
180.0
  0
LINE
  5
15286
330
15271
100
AcDbEntity
  8
U1
100
AcDbLine
 10
30.20000000000073
 20
-26.20000000000073
 30
0.0
 11
30.19999999999981
 21
26.19999999999981
 31
0.0
  0
ENDBLK
  5
15287
330
15271
100
AcDbEntity
  8
0
100
AcDbBlockEnd
  0
ENDSEC
  0
SECTION
  2
ENTITIES
  0
TEXT
  5
12ADD
330
125AA
100
AcDbEntity
  8
NAME
100
AcDbText
 10
11228.07508082364
 20
875.0
 30
0.0
 40
120.0
  1
（アンカープレート方式）
  7
01
 72
     4
 11
12072.07508082364
 21
935.0
 31
0.0
100
AcDbText
  0
TEXT
  5
159C6
330
125AA
100
AcDbEntity
  8
NAME
100
AcDbText
 10
12854.79999999999
 20
541.0000000000001
 30
0.0
 40
160.0
  1
<3／3>
 41
0.6
  7
01
 72
     2
 11
13354.0
 21
541.0000000000001
 31
0.0
100
AcDbText
  0
TEXT
  5
159C7
330
125AA
100
AcDbEntity
  8
NAME
100
AcDbText
 10
10789.37598063762
 20
541.0
 30
0.0
 40
160.0
  1
YOKCS-280
 41
0.7
  7
01
 72
     2
 11
11776.04264730429
 21
541.0
 31
0.0
100
AcDbText
  0
TEXT
  5
159C8
330
125AA
100
AcDbEntity
  8
NAME
100
AcDbText
 10
11816.04264730429
 20
541.0
 30
0.0
 40
160.0
  1
型（積雪地用）
 41
0.8
  7
01
100
AcDbText
  0
LWPOLYLINE
  5
16AF1
330
125AA
100
AcDbEntity
  8
YANE
  6
2PL-L
 62
     6
100
AcDbPolyline
 90
        4
 70
     1
 43
0.0
 10
11822.36032602547
 20
6989.512702941778
 10
4030.360326025479
 20
6989.512702941778
 10
4030.360326025479
 20
9539.512702941776
 10
11822.36032602547
 20
9539.512702941776
  0
LWPOLYLINE
  5
16AF2
330
125AA
100
AcDbEntity
  8
DOMAKON
100
AcDbPolyline
 90
        4
 70
     0
 43
0.0
 10
7986.360326025482
 20
7089.512702941778
 10
11826.36032602548
 20
7089.512702941778
 10
11826.36032602548
 20
9489.512702941778
 10
7986.360326025482
 20
9489.512702941778
  0
LWPOLYLINE
  5
16AF3
330
125AA
100
AcDbEntity
  8
KISO
100
AcDbPolyline
 90
        4
 70
   129
 43
0.0
 10
9026.360326025478
 20
7089.512702941778
 10
8226.360326025478
 20
7089.512702941778
 10
8226.360326025478
 20
7889.512702941778
 10
9026.360326025478
 20
7889.512702941778
  0
LWPOLYLINE
  5
16AF4
330
125AA
100
AcDbEntity
  8
KISO
100
AcDbPolyline
 90
        4
 70
   129
 43
0.0
 10
9026.360326025478
 20
8889.512702941777
 10
8226.360326025478
 20
8889.512702941777
 10
8226.360326025478
 20
9689.512702941778
 10
9026.360326025478
 20
9689.512702941778
  0
LINE
  5
16AF5
330
125AA
100
AcDbEntity
  8
SUNPOU
100
AcDbLine
 10
8611.360326025479
 20
9989.512702941778
 30
0.0
 11
7241.360326025478
 21
9989.512702941778
 31
0.0
  0
LINE
  5
16AF9
330
125AA
100
AcDbEntity
  8
CENTER
  6
1PL-M
100
AcDbLine
 10
7986.360326025482
 20
9289.512702941776
 30
0.0
 11
11971.36032602547
 21
9289.512702941776
 31
0.0
  0
LINE
  5
16AFA
330
125AA
100
AcDbEntity
  8
CENTER
  6
1PL-M
100
AcDbLine
 10
7986.360326025482
 20
7489.512702941778
 30
0.0
 11
9176.360326025482
 21
7489.512702941778
 31
0.0
  0
TEXT
  5
16AFB
330
125AA
100
AcDbEntity
  8
HIKIDASHI
100
AcDbText
 10
5227.288247455323
 20
7147.833548185239
 30
0.0
 40
90.0
  1
（土間コン前面位置）
  7
01
100
AcDbText
  0
LWPOLYLINE
  5
16AFC
330
125AA
100
AcDbEntity
  8
DOMAKON
100
AcDbPolyline
 90
        4
 70
     0
 43
0.0
 10
7866.360326025482
 20
9489.512702941778
 10
4026.360326025478
 20
9489.512702941778
 10
4026.360326025478
 20
7089.512702941778
 10
7866.360326025482
 20
7089.512702941778
  0
LWPOLYLINE
  5
16AFD
330
125AA
100
AcDbEntity
  8
KISO
100
AcDbPolyline
 90
        4
 70
   129
 43
0.0
 10
4826.360326025479
 20
7089.512702941778
 10
4026.360326025478
 20
7089.512702941778
 10
4026.360326025478
 20
7889.512702941778
 10
4826.360326025479
 20
7889.512702941778
  0
LWPOLYLINE
  5
16AFE
330
125AA
100
AcDbEntity
  8
KISO
100
AcDbPolyline
 90
        4
 70
   129
 43
0.0
 10
4826.360326025479
 20
8889.512702941777
 10
4026.360326025478
 20
8889.512702941777
 10
4026.360326025478
 20
9689.512702941778
 10
4826.360326025479
 20
9689.512702941778
  0
LINE
  5
16B00
330
125AA
100
AcDbEntity
  8
CENTER
  6
1PL-M
100
AcDbLine
 10
3881.360326025479
 20
9289.512702941776
 30
0.0
 11
6376.360326025483
 21
9289.512702941776
 31
0.0
  0
LINE
  5
16B01
330
125AA
100
AcDbEntity
  8
CENTER
  6
1PL-M
100
AcDbLine
 10
3881.360326025479
 20
7489.512702941778
 30
0.0
 11
7866.360326025482
 21
7489.512702941778
 31
0.0
  0
LINE
  5
16B02
330
125AA
100
AcDbEntity
  8
SUNPOU
100
AcDbLine
 10
3816.360326025479
 20
7699.512702941778
 30
0.0
 11
3816.360326025479
 21
7489.512702941778
 31
0.0
  0
LINE
  5
16B03
330
125AA
100
AcDbEntity
  8
SUNPOU
100
AcDbLine
 10
3816.360326025479
 20
7489.512702941778
 30
0.0
 11
3966.360326025478
 21
7489.512702941778
 31
0.0
  0
TEXT
  5
16B04
330
125AA
100
AcDbEntity
  8
SUNPOU
100
AcDbText
 10
3790.517468882622
 20
7834.512702941778
 30
0.0
 40
90.0
  1
A
 41
0.6700000000000001
  7
00
 72
     4
 11
3816.360326025479
 21
7879.512702941778
 31
0.0
100
AcDbText
  0
LWPOLYLINE
  5
16B06
330
125AA
100
AcDbEntity
  8
KISO
100
AcDbPolyline
 90
        4
 70
   129
 43
0.0
 10
7626.360326025478
 20
8889.512702941777
 10
6826.360326025478
 20
8889.512702941777
 10
6826.360326025478
 20
9689.512702941778
 10
7626.360326025478
 20
9689.512702941778
  0
LINE
  5
16B07
330
125AA
100
AcDbEntity
  8
SUNPOU
100
AcDbLine
 10
7986.360326025482
 20
9779.512702941779
 30
0.0
 11
7986.360326025482
 21
6969.512702941777
 31
0.0
  0
LINE
  5
16B08
330
125AA
100
AcDbEntity
  8
CENTER
  6
1PL-M
100
AcDbLine
 10
7226.360326025478
 20
8739.512702941778
 30
0.0
 11
7226.360326025478
 21
9889.512702941781
 31
0.0
  0
LINE
  5
16B09
330
125AA
100
AcDbEntity
  8
CENTER
  6
1PL-M
100
AcDbLine
 10
4426.36032602548
 20
6889.512702941778
 30
0.0
 11
4426.36032602548
 21
9889.512702941781
 31
0.0
  0
LINE
  5
16B0A
330
125AA
100
AcDbEntity
  8
SUNPOU
100
AcDbLine
 10
7866.360326025482
 20
9779.512702941779
 30
0.0
 11
7866.360326025482
 21
6969.512702941777
 31
0.0
  0
LINE
  5
16B0C
330
125AA
100
AcDbEntity
  8
SUNPOU
100
AcDbLine
 10
5036.360326025477
 20
7699.512702941778
 30
0.0
 11
5036.360326025477
 21
7489.512702941778
 31
0.0
  0
LINE
  5
16B0D
330
125AA
100
AcDbEntity
  8
SUNPOU
100
AcDbLine
 10
5036.360326025477
 20
7489.512702941778
 30
0.0
 11
4886.360326025478
 21
7489.512702941778
 31
0.0
  0
TEXT
  5
16B0E
330
125AA
100
AcDbEntity
  8
SUNPOU
100
AcDbText
 10
5000.467468882621
 20
7825.941274370349
 30
0.0
 40
90.0
  1
A'
 41
0.6700000000000001
  7
00
 72
     4
 11
5036.360326025477
 21
7879.512702941778
 31
0.0
100
AcDbText
  0
TEXT
  5
16B10
330
125AA
100
AcDbEntity
  8
HIKIDASHI
100
AcDbText
 10
5311.39684937134
 20
6846.401580951305
 30
0.0
 40
90.0
  1
（鼻隠し外面）
  7
01
100
AcDbText
  0
TEXT
  5
16B11
330
125AA
100
AcDbEntity
  8
HIKIDASHI
100
AcDbText
 10
5237.548082051719
 20
9598.061975323124
 30
0.0
 40
90.0
  1
（屋根後面位置）
  7
01
100
AcDbText
  0
LINE
  5
16B12
330
125AA
100
AcDbEntity
  8
CENTER
  6
1PL-M
100
AcDbLine
 10
7226.360326025478
 20
6889.512702941778
 30
0.0
 11
7226.360326025478
 21
8544.512702941778
 31
0.0
  0
LWPOLYLINE
  5
16B13
330
125AA
100
AcDbEntity
  8
KISO
100
AcDbPolyline
 90
        4
 70
   129
 43
0.0
 10
7626.360326025478
 20
7089.512702941778
 10
6826.360326025478
 20
7089.512702941778
 10
6826.360326025478
 20
7889.512702941778
 10
7626.360326025478
 20
7889.512702941778
  0
LINE
  5
16B14
330
125AA
100
AcDbEntity
  8
CENTER
  6
1PL-M
100
AcDbLine
 10
6575.110326025478
 20
9289.512702941776
 30
0.0
 11
7866.360326025482
 21
9289.512702941776
 31
0.0
  0
TEXT
  5
16B17
330
125AA
100
AcDbEntity
  8
HIKIDASHI
100
AcDbText
 10
5153.439480135701
 20
9334.512702941784
 30
0.0
 40
90.0
  1
（土間コン後面位置）
  7
01
100
AcDbText
  0
LINE
  5
16B19
330
125AA
100
AcDbEntity
  8
SUNPOU
100
AcDbLine
 10
7226.360326025478
 20
9919.51270294178
 30
0.0
 11
7226.360326025478
 21
10034.51270294178
 31
0.0
  0
LWPOLYLINE
  5
16B1F
330
125AA
100
AcDbEntity
  8
KISO
100
AcDbPolyline
 90
        4
 70
   129
 43
0.0
 10
11826.36032602548
 20
8889.512702941777
 10
11026.36032602547
 20
8889.512702941777
 10
11026.36032602547
 20
9689.512702941778
 10
11826.36032602548
 20
9689.512702941778
  0
LINE
  5
16B20
330
125AA
100
AcDbEntity
  8
CENTER
  6
1PL-M
100
AcDbLine
 10
8626.360326025478
 20
8339.512702941778
 30
0.0
 11
8626.360326025478
 21
9889.512702941781
 31
0.0
  0
LINE
  5
16B21
330
125AA
100
AcDbEntity
  8
CENTER
  6
1PL-M
100
AcDbLine
 10
11426.36032602547
 20
6889.512702941778
 30
0.0
 11
11426.36032602547
 21
9889.512702941781
 31
0.0
  0
LINE
  5
16B22
330
125AA
100
AcDbEntity
  8
CENTER
  6
1PL-M
100
AcDbLine
 10
9371.360326025479
 20
7489.512702941778
 30
0.0
 11
11971.36032602547
 21
7489.512702941778
 31
0.0
  0
LINE
  5
16B24
330
125AA
100
AcDbEntity
  8
CENTER
  6
1PL-M
100
AcDbLine
 10
8626.360326025478
 20
6889.512702941778
 30
0.0
 11
8626.360326025478
 21
8144.512702941778
 31
0.0
  0
LWPOLYLINE
  5
16B25
330
125AA
100
AcDbEntity
  8
KISO
100
AcDbPolyline
 90
        4
 70
   129
 43
0.0
 10
11826.36032602548
 20
7089.512702941778
 10
11026.36032602547
 20
7089.512702941778
 10
11026.36032602547
 20
7889.512702941778
 10
11826.36032602548
 20
7889.512702941778
  0
LINE
  5
16B28
330
125AA
100
AcDbEntity
  8
SUNPOU
100
AcDbLine
 10
8626.360326025478
 20
9919.51270294178
 30
0.0
 11
8626.360326025478
 21
10034.51270294178
 31
0.0
  0
TEXT
  5
16BDA
330
125AA
100
AcDbEntity
  8
SUNPOU
100
AcDbText
 10
10682.1970061126
 20
6631.446704452199
 30
0.0
 40
90.0
  1
L = 2800 x N + 800
 41
0.6666666666666666
  7
00
 72
     4
 11
11145.91129182688
 21
6676.4467044522
 31
0.0
100
AcDbText
  0
TEXT
  5
16BDB
330
125AA
100
AcDbEntity
  8
SUNPOU
100
AcDbText
 10
10823.49236563967
 20
6496.446704452196
 30
0.0
 40
90.0
  1
（  ：スパン数）
  7
01
 11
10823.49236563967
 21
6541.446704452197
 31
0.0
100
AcDbText
 73
     2
  0
TEXT
  5
16BDC
330
125AA
100
AcDbEntity
  8
SUNPOU
100
AcDbText
 10
10953.95357669118
 20
6496.446704452196
 30
0.0
 40
90.0
  1
N
 41
0.6666666666666666
  7
00
 72
     4
 11
10985.38214811975
 21
6541.446704452197
 31
0.0
100
AcDbText
  0
LINE
  5
16BDD
330
125AA
100
AcDbEntity
  8
SUNPOU
100
AcDbLine
 10
4636.360326025477
 20
8739.512702941778
 30
0.0
 11
4426.36032602548
 21
8739.512702941778
 31
0.0
  0
LINE
  5
16BDE
330
125AA
100
AcDbEntity
  8
SUNPOU
100
AcDbLine
 10
4426.36032602548
 20
8739.512702941778
 30
0.0
 11
4426.36032602548
 21
8889.512702941777
 31
0.0
  0
TEXT
  5
16BDF
330
125AA
100
AcDbEntity
  8
SUNPOU
100
AcDbText
 10
4778.236361574529
 20
8694.512702941777
 30
0.0
 40
90.0
  1
B
 41
0.6700000000000001
  7
00
 72
     4
 11
4809.822075860243
 21
8739.512702941778
 31
0.0
100
AcDbText
  0
INSERT
  5
16BE1
330
125AA
100
AcDbEntity
  8
HASHIRA
100
AcDbBlockReference
  2
HASIRA
 10
11426.36032602547
 20
7489.512702941778
 30
0.0
  0
CIRCLE
  5
16BE2
330
125AA
100
AcDbEntity
  8
HASHIRA
100
AcDbCircle
 10
11426.36032602547
 20
7429.512702941778
 30
0.0
 40
9.0
  0
CIRCLE
  5
16BE3
330
125AA
100
AcDbEntity
  8
HASHIRA
100
AcDbCircle
 10
11426.36032602547
 20
7549.512702941779
 30
0.0
 40
9.0
  0
INSERT
  5
16BE4
330
125AA
100
AcDbEntity
  8
HASHIRA
100
AcDbBlockReference
  2
HASIRA
 10
11426.36032602547
 20
9289.512702941776
 30
0.0
  0
CIRCLE
  5
16BE5
330
125AA
100
AcDbEntity
  8
HASHIRA
100
AcDbCircle
 10
11426.36032602547
 20
9229.51270294178
 30
0.0
 40
9.0
  0
CIRCLE
  5
16BE6
330
125AA
100
AcDbEntity
  8
HASHIRA
100
AcDbCircle
 10
11426.36032602547
 20
9349.512702941778
 30
0.0
 40
9.0
  0
INSERT
  5
16BE7
330
125AA
100
AcDbEntity
  8
HASHIRA
100
AcDbBlockReference
  2
HASIRA
 10
8626.360326025478
 20
7489.512702941778
 30
0.0
  0
CIRCLE
  5
16BE8
330
125AA
100
AcDbEntity
  8
HASHIRA
100
AcDbCircle
 10
8626.360326025478
 20
7549.512702941779
 30
0.0
 40
9.0
  0
CIRCLE
  5
16BE9
330
125AA
100
AcDbEntity
  8
HASHIRA
100
AcDbCircle
 10
8626.360326025478
 20
7429.512702941778
 30
0.0
 40
9.0
  0
INSERT
  5
16BEA
330
125AA
100
AcDbEntity
  8
HASHIRA
100
AcDbBlockReference
  2
HASIRA
 10
8626.360326025478
 20
9289.512702941776
 30
0.0
  0
CIRCLE
  5
16BEB
330
125AA
100
AcDbEntity
  8
HASHIRA
100
AcDbCircle
 10
8626.360326025478
 20
9229.51270294178
 30
0.0
 40
9.0
  0
CIRCLE
  5
16BEC
330
125AA
100
AcDbEntity
  8
HASHIRA
100
AcDbCircle
 10
8626.360326025478
 20
9349.512702941778
 30
0.0
 40
9.0
  0
INSERT
  5
16BED
330
125AA
100
AcDbEntity
  8
HASHIRA
100
AcDbBlockReference
  2
HASIRA
 10
7226.360326025478
 20
9289.512702941776
 30
0.0
  0
CIRCLE
  5
16BEE
330
125AA
100
AcDbEntity
  8
HASHIRA
100
AcDbCircle
 10
7226.360326025478
 20
9229.51270294178
 30
0.0
 40
9.0
  0
CIRCLE
  5
16BEF
330
125AA
100
AcDbEntity
  8
HASHIRA
100
AcDbCircle
 10
7226.360326025478
 20
9349.512702941778
 30
0.0
 40
9.0
  0
CIRCLE
  5
16BF0
330
125AA
100
AcDbEntity
  8
HASHIRA
100
AcDbCircle
 10
7226.360326025478
 20
7429.512702941778
 30
0.0
 40
9.0
  0
CIRCLE
  5
16BF1
330
125AA
100
AcDbEntity
  8
HASHIRA
100
AcDbCircle
 10
7226.360326025478
 20
7549.512702941779
 30
0.0
 40
9.0
  0
INSERT
  5
16BF2
330
125AA
100
AcDbEntity
  8
HASHIRA
100
AcDbBlockReference
  2
HASIRA
 10
7226.360326025478
 20
7489.512702941778
 30
0.0
  0
INSERT
  5
16BF3
330
125AA
100
AcDbEntity
  8
HASHIRA
100
AcDbBlockReference
  2
HASIRA
 10
4426.36032602548
 20
9289.512702941776
 30
0.0
  0
CIRCLE
  5
16BF4
330
125AA
100
AcDbEntity
  8
HASHIRA
100
AcDbCircle
 10
4426.36032602548
 20
9229.51270294178
 30
0.0
 40
9.0
  0
CIRCLE
  5
16BF5
330
125AA
100
AcDbEntity
  8
HASHIRA
100
AcDbCircle
 10
4426.36032602548
 20
9349.512702941778
 30
0.0
 40
9.0
  0
INSERT
  5
16BF6
330
125AA
100
AcDbEntity
  8
HASHIRA
100
AcDbBlockReference
  2
HASIRA
 10
4426.36032602548
 20
7489.512702941778
 30
0.0
  0
CIRCLE
  5
16BF7
330
125AA
100
AcDbEntity
  8
HASHIRA
100
AcDbCircle
 10
4426.36032602548
 20
7549.512702941779
 30
0.0
 40
9.0
  0
CIRCLE
  5
16BF8
330
125AA
100
AcDbEntity
  8
HASHIRA
100
AcDbCircle
 10
4426.36032602548
 20
7429.512702941778
 30
0.0
 40
9.0
  0
LINE
  5
16C29
330
125AA
100
AcDbEntity
  8
SUNPOU
100
AcDbLine
 10
4636.360326025477
 20
9839.512702941782
 30
0.0
 11
4426.36032602548
 21
9839.512702941782
 31
0.0
  0
LINE
  5
16C2A
330
125AA
100
AcDbEntity
  8
SUNPOU
100
AcDbLine
 10
4426.36032602548
 20
9839.512702941778
 30
0.0
 11
4426.36032602548
 21
9689.512702941778
 31
0.0
  0
TEXT
  5
16C2B
330
125AA
100
AcDbEntity
  8
SUNPOU
100
AcDbText
 10
4765.314933003099
 20
9785.941274370349
 30
0.0
 40
90.0
  1
B'
 41
0.6700000000000001
  7
00
 72
     4
 11
4809.822075860243
 21
9839.512702941778
 31
0.0
100
AcDbText
  0
LINE
  5
16C2D
330
125AA
100
AcDbEntity
  8
SUNPOU
100
AcDbLine
 10
12001.36032602547
 20
7489.512702941778
 30
0.0
 11
12481.36032602547
 21
7489.512702941778
 31
0.0
  0
LINE
  5
16C2E
330
125AA
100
AcDbEntity
  8
SUNPOU
100
AcDbLine
 10
12001.36032602547
 20
9289.512702941776
 30
0.0
 11
12481.36032602547
 21
9289.512702941776
 31
0.0
  0
TEXT
  5
16C2F
330
125AA
100
AcDbEntity
  8
SUNPOU
100
AcDbText
 10
12391.36032602548
 20
9403.798417227491
 30
0.0
 40
90.0
  1
400
 50
90.0
 41
0.6666666666666666
  7
00
 72
     1
 11
12346.36032602547
 21
9489.512702941778
 31
0.0
100
AcDbText
 73
     2
  0
TEXT
  5
16C30
330
125AA
100
AcDbEntity
  8
SUNPOU
100
AcDbText
 10
12391.36032602548
 20
8270.941274370349
 30
0.0
 40
90.0
  1
1800
 50
90.0
 41
0.6666666666666666
  7
00
 72
     4
 11
12346.36032602547
 21
8389.512702941777
 31
0.0
100
AcDbText
  0
TEXT
  5
16C31
330
125AA
100
AcDbEntity
  8
SUNPOU
100
AcDbText
 10
12391.36032602548
 20
7203.798417227492
 30
0.0
 40
90.0
  1
400
 50
90.0
 41
0.6666666666666666
  7
00
 72
     4
 11
12346.36032602547
 21
7289.512702941777
 31
0.0
100
AcDbText
  0
LINE
  5
16C32
330
125AA
100
AcDbEntity
  8
SUNPOU
100
AcDbLine
 10
11856.36032602547
 20
7089.512702941778
 30
0.0
 11
12691.36032602547
 21
7089.512702941778
 31
0.0
  0
LINE
  5
16C33
330
125AA
100
AcDbEntity
  8
SUNPOU
100
AcDbLine
 10
11856.36032602547
 20
9689.512702941778
 30
0.0
 11
12691.36032602547
 21
9689.512702941778
 31
0.0
  0
LINE
  5
16C36
330
125AA
100
AcDbEntity
  8
SUNPOU
100
AcDbLine
 10
12436.36032602547
 20
9674.512702941781
 30
0.0
 11
12436.36032602547
 21
9304.512702941778
 31
0.0
  0
LINE
  5
16C37
330
125AA
100
AcDbEntity
  8
SUNPOU
100
AcDbLine
 10
12646.36032602547
 20
9674.512702941781
 30
0.0
 11
12646.36032602547
 21
7104.512702941779
 31
0.0
  0
LINE
  5
16C38
330
125AA
100
AcDbEntity
  8
SUNPOU
100
AcDbLine
 10
12436.36032602547
 20
9274.51270294178
 30
0.0
 11
12436.36032602547
 21
7504.512702941778
 31
0.0
  0
LINE
  5
16C39
330
125AA
100
AcDbEntity
  8
SUNPOU
100
AcDbLine
 10
12436.36032602547
 20
7474.512702941779
 30
0.0
 11
12436.36032602547
 21
7104.512702941779
 31
0.0
  0
LINE
  5
16C3B
330
125AA
100
AcDbEntity
  8
SUNPOU
100
AcDbLine
 10
12406.36032602547
 20
7089.512702941778
 30
0.0
 11
12391.36032602548
 21
7089.512702941778
 31
0.0
  0
TEXT
  5
16C3F
330
125AA
100
AcDbEntity
  8
SUNPOU
100
AcDbText
 10
12601.36032602547
 20
8275.226988656063
 30
0.0
 40
90.0
  1
2600
 50
90.0
 41
0.6666666666666666
  7
00
 72
     4
 11
12556.36032602547
 21
8389.512702941777
 31
0.0
100
AcDbText
  0
LINE
  5
16C43
330
125AA
100
AcDbEntity
  8
SUNPOU
100
AcDbLine
 10
12406.36032602547
 20
9689.512702941778
 30
0.0
 11
12391.36032602548
 21
9689.512702941778
 31
0.0
  0
TEXT
  5
16D8F
330
125AA
100
AcDbEntity
  8
HIKIDASHI
100
AcDbText
 10
8514.659097568866
 20
6573.329144772748
 30
0.0
 40
80.0
  1
)
 41
0.6700000000000001
  7
00
100
AcDbText
  0
TEXT
  5
16D90
330
125AA
100
AcDbEntity
  8
HIKIDASHI
100
AcDbText
 10
8313.800348879487
 20
6588.890622520946
 30
0.0
 40
80.0
  1
1
 41
0.6700000000000001
  7
00
100
AcDbText
  0
TEXT
  5
16D91
330
125AA
100
AcDbEntity
  8
HIKIDASHI
100
AcDbText
 10
8346.937486743795
 20
6573.329144772748
 30
0.0
 40
80.0
  1
/
 41
0.6700000000000001
  7
00
100
AcDbText
  0
TEXT
  5
16D92
330
125AA
100
AcDbEntity
  8
HIKIDASHI
100
AcDbText
 10
8393.232641506438
 20
6547.161313572471
 30
0.0
 40
80.0
  1
40
 41
0.6700000000000001
  7
00
100
AcDbText
  0
TEXT
  5
16D93
330
125AA
100
AcDbEntity
  8
HIKIDASHI
100
AcDbText
 10
8133.092432941813
 20
6573.329144772748
 30
0.0
 40
80.0
  1
(S=
 41
0.6700000000000001
  7
00
100
AcDbText
  0
TEXT
  5
16D94
330
125AA
100
AcDbEntity
  8
HIKIDASHI
100
AcDbText
 10
7291.092432941811
 20
6549.51270294178
 30
0.0
 40
120.0
  1
基 礎 伏 図
  7
01
 72
     2
 11
8043.092432941811
 21
6549.51270294178
 31
0.0
100
AcDbText
  0
LINE
  5
187E7
330
125AA
100
AcDbEntity
  8
1PL-M1
100
AcDbLine
 10
4799.797051267463
 20
2540.172125878787
 30
0.0
 11
4799.797051267463
 21
4175.485411556191
 31
0.0
  0
LINE
  5
187E8
330
125AA
100
AcDbEntity
  8
KISO
100
AcDbLine
 10
6082.193774006775
 20
3456.684839419605
 30
0.0
 11
4851.797051267457
 21
3456.684839419605
 31
0.0
  0
LINE
  5
187E9
330
125AA
100
AcDbEntity
  8
KISO
100
AcDbLine
 10
6082.193774006775
 20
3328.684839419604
 30
0.0
 11
4851.797051267457
 21
3328.6848394196
 31
0.0
  0
LINE
  5
187EA
330
125AA
100
AcDbEntity
  8
HATCH
100
AcDbLine
 10
5031.155511458886
 20
3456.684839419605
 30
0.0
 11
4903.155511458891
 21
3328.6848394196
 31
0.0
  0
LINE
  5
187EB
330
125AA
100
AcDbEntity
  8
U3
100
AcDbLine
 10
3353.961658022964
 20
3376.684839419603
 30
0.0
 11
3521.961658022965
 21
3208.684839419607
 31
0.0
  0
LINE
  5
187EC
330
125AA
100
AcDbEntity
  8
U3
100
AcDbLine
 10
3303.049969777532
 20
3325.773151174173
 30
0.0
 11
3420.1382815321
 21
3208.684839419603
 31
0.0
  0
LINE
  5
187ED
330
125AA
100
AcDbEntity
  8
U3
100
AcDbLine
 10
3589.820095533322
 20
3376.684839419604
 30
0.0
 11
3017.961658022965
 21
3376.684839419604
 31
0.0
  0
LINE
  5
187EE
330
125AA
100
AcDbEntity
  8
U3
100
AcDbLine
 10
3084.1382815321
 20
3310.508215910466
 30
0.0
 11
3150.314905041234
 21
3376.684839419601
 31
0.0
  0
LINE
  5
187EF
330
125AA
100
AcDbEntity
  8
U3
100
AcDbLine
 10
3017.961658022965
 20
3376.684839419601
 30
0.0
 11
3185.961658022964
 21
3208.684839419606
 31
0.0
  0
LINE
  5
187F0
330
125AA
100
AcDbEntity
  8
U3
100
AcDbLine
 10
3135.049969777532
 20
3259.596527665037
 30
0.0
 11
3252.1382815321
 21
3376.684839419601
 31
0.0
  0
LINE
  5
187F1
330
125AA
100
AcDbEntity
  8
U3
100
AcDbLine
 10
3185.961658022964
 20
3208.684839419606
 30
0.0
 11
3353.961658022964
 21
3376.684839419603
 31
0.0
  0
LINE
  5
187F2
330
125AA
100
AcDbEntity
  8
U3
100
AcDbLine
 10
3252.1382815321
 20
3274.861462928739
 30
0.0
 11
3318.314905041237
 21
3208.684839419603
 31
0.0
  0
LINE
  5
187F3
330
125AA
100
AcDbEntity
  8
U3
100
AcDbLine
 10
3521.961658022965
 20
3208.684839419607
 30
0.0
 11
3589.820095533322
 21
3276.543276929964
 31
0.0
  0
LINE
  5
187F4
330
125AA
100
AcDbEntity
  8
U3
100
AcDbLine
 10
3420.1382815321
 20
3310.508215910469
 30
0.0
 11
3486.314905041234
 21
3376.684839419603
 31
0.0
  0
LINE
  5
187F5
330
125AA
100
AcDbEntity
  8
U3
100
AcDbLine
 10
3471.049969777533
 20
3259.596527665038
 30
0.0
 11
3588.138281532103
 21
3376.684839419603
 31
0.0
  0
LINE
  5
187F6
330
125AA
100
AcDbEntity
  8
HASHIRA
100
AcDbLine
 10
4851.797051267457
 20
3338.284839419607
 30
0.0
 11
4851.797051267457
 21
3718.91804462035
 31
0.0
  0
LINE
  5
187F7
330
125AA
100
AcDbEntity
  8
HASHIRA
100
AcDbLine
 10
4747.797051267457
 20
3718.91804462035
 30
0.0
 11
4747.797051267457
 21
3338.284839419607
 31
0.0
  0
LINE
  5
187F8
330
125AA
100
AcDbEntity
  8
KISO
100
AcDbLine
 10
4747.797051267457
 20
3328.6848394196
 30
0.0
 11
4159.797051267463
 21
3328.684839419602
 31
0.0
  0
LINE
  5
187F9
330
125AA
100
AcDbEntity
  8
U3
100
AcDbLine
 10
4159.797051267463
 20
3376.684839419604
 30
0.0
 11
3909.820095533321
 21
3376.684839419603
 31
0.0
  0
LINE
  5
187FA
330
125AA
100
AcDbEntity
  8
U3
100
AcDbLine
 10
4098.782873409589
 20
3310.508215910469
 30
0.0
 11
4159.797051267463
 21
3371.522393768344
 31
0.0
  0
LINE
  5
187FB
330
125AA
100
AcDbEntity
  8
U3
100
AcDbLine
 10
4032.606249900456
 20
3376.684839419603
 30
0.0
 11
4159.797051267463
 21
3249.494038052592
 31
0.0
  0
LINE
  5
187FC
330
125AA
100
AcDbEntity
  8
U3
100
AcDbLine
 10
3975.765342899848
 20
3331.702369929347
 30
0.0
 11
4098.782873409595
 21
3208.684839419603
 31
0.0
  0
LWPOLYLINE
  5
187FD
330
125AA
100
AcDbEntity
  8
TENSEN-1
100
AcDbPolyline
 90
        6
 70
     1
 43
0.0
 10
4735.797051267462
 20
2879.084839419608
 10
4789.397051267463
 20
2879.084839419608
 10
4789.397051267463
 20
3370.284839419607
 10
4810.197051267465
 20
3370.284839419607
 10
4810.197051267465
 20
2858.284839419607
 10
4735.797051267462
 20
2858.284839419607
  0
LINE
  5
187FE
330
125AA
100
AcDbEntity
  8
KISO
100
AcDbLine
 10
4747.797051267457
 20
3456.684839419605
 30
0.0
 11
4159.797051267463
 21
3456.684839419605
 31
0.0
  0
LINE
  5
187FF
330
125AA
100
AcDbEntity
  8
KISO
100
AcDbLine
 10
4159.797051267463
 20
3456.684839419608
 30
0.0
 11
4159.797051267463
 21
3328.684839419602
 31
0.0
  0
LWPOLYLINE
  5
18800
330
125AA
100
AcDbEntity
  8
HASHIRA
100
AcDbPolyline
 90
        4
 70
     1
 43
0.0
 10
4735.797051267462
 20
3328.684839419608
 10
4863.797051267464
 20
3328.684839419608
 10
4863.797051267464
 20
3338.284839419607
 10
4735.797051267462
 20
3338.284839419607
  0
LINE
  5
18801
330
125AA
100
AcDbEntity
  8
HATCH
100
AcDbLine
 10
4831.314626963207
 20
3328.684839419608
 30
0.0
 11
4810.197051267465
 21
3307.567263723864
 31
0.0
  0
LINE
  5
18802
330
125AA
100
AcDbEntity
  8
KISO
100
AcDbLine
 10
5439.797051267471
 20
3200.684839419601
 30
0.0
 11
6082.193774006775
 21
3200.684839419602
 31
0.0
  0
LINE
  5
18803
330
125AA
100
AcDbEntity
  8
HATCH
100
AcDbLine
 10
6038.673087154623
 20
3456.684839419603
 30
0.0
 11
5910.67308715463
 21
3328.6848394196
 31
0.0
  0
LINE
  5
18804
330
125AA
100
AcDbEntity
  8
HATCH
100
AcDbLine
 10
6086.190662850363
 20
3456.684839419603
 30
0.0
 11
5958.190662850363
 21
3328.6848394196
 31
0.0
  0
LINE
  5
18806
330
125AA
100
AcDbEntity
  8
HATCH
100
AcDbLine
 10
5511.155511458887
 20
3456.684839419605
 30
0.0
 11
5383.155511458887
 21
3328.6848394196
 31
0.0
  0
LINE
  5
18807
330
125AA
100
AcDbEntity
  8
HATCH
100
AcDbLine
 10
5558.673087154621
 20
3456.684839419603
 30
0.0
 11
5430.67308715463
 21
3328.6848394196
 31
0.0
  0
LINE
  5
18808
330
125AA
100
AcDbEntity
  8
HATCH
100
AcDbLine
 10
5126.190662850362
 20
3456.684839419603
 30
0.0
 11
4998.190662850362
 21
3328.6848394196
 31
0.0
  0
LINE
  5
18809
330
125AA
100
AcDbEntity
  8
HATCH
100
AcDbLine
 10
5078.673087154623
 20
3456.684839419603
 30
0.0
 11
4950.67308715463
 21
3328.6848394196
 31
0.0
  0
LINE
  5
1880B
330
125AA
100
AcDbEntity
  8
HATCH
100
AcDbLine
 10
5606.190662850362
 20
3456.684839419603
 30
0.0
 11
5478.190662850362
 21
3328.6848394196
 31
0.0
  0
LINE
  5
1880D
330
125AA
100
AcDbEntity
  8
HATCH
100
AcDbLine
 10
5991.155511458885
 20
3456.684839419605
 30
0.0
 11
5863.155511458885
 21
3328.6848394196
 31
0.0
  0
LINE
  5
1880F
330
125AA
100
AcDbEntity
  8
KISO
100
AcDbLine
 10
4159.797051267463
 20
3328.6848394196
 30
0.0
 11
4159.797051267463
 21
2720.684839419603
 31
0.0
  0
LINE
  5
18810
330
125AA
100
AcDbEntity
  8
KISO
100
AcDbLine
 10
5439.797051267464
 20
3328.6848394196
 30
0.0
 11
5439.797051267464
 21
2720.684839419603
 31
0.0
  0
LINE
  5
18811
330
125AA
100
AcDbEntity
  8
HATCH
100
AcDbLine
 10
5439.797051267464
 20
3073.167263723862
 30
0.0
 11
5087.314626963207
 21
2720.684839419603
 31
0.0
  0
LINE
  5
18812
330
125AA
100
AcDbEntity
  8
HATCH
100
AcDbLine
 10
5310.832202658936
 20
3328.6848394196
 30
0.0
 11
4702.832202658947
 21
2720.684839419603
 31
0.0
  0
LINE
  5
18813
330
125AA
100
AcDbEntity
  8
HATCH
100
AcDbLine
 10
5263.314626963204
 20
3328.6848394196
 30
0.0
 11
4810.197051267465
 21
2875.567263723857
 31
0.0
  0
LINE
  5
18814
330
125AA
100
AcDbEntity
  8
HATCH
100
AcDbLine
 10
5215.797051267464
 20
3328.6848394196
 30
0.0
 11
4810.197051267465
 21
2923.084839419596
 31
0.0
  0
LINE
  5
18815
330
125AA
100
AcDbEntity
  8
HATCH
100
AcDbLine
 10
5439.797051267464
 20
3025.649688028125
 30
0.0
 11
5134.832202658947
 21
2720.684839419603
 31
0.0
  0
LINE
  5
18816
330
125AA
100
AcDbEntity
  8
HATCH
100
AcDbLine
 10
5439.797051267464
 20
2978.132112332392
 30
0.0
 11
5182.349778354679
 21
2720.684839419603
 31
0.0
  0
LINE
  5
18817
330
125AA
100
AcDbEntity
  8
HATCH
100
AcDbLine
 10
4783.797051267482
 20
3328.684839419608
 30
0.0
 11
4175.797051267474
 21
2720.684839419603
 31
0.0
  0
LINE
  5
18818
330
125AA
100
AcDbEntity
  8
HATCH
100
AcDbLine
 10
4736.279475571731
 20
3328.6848394196
 30
0.0
 11
4159.797051267463
 21
2752.202415115331
 31
0.0
  0
LINE
  5
18819
330
125AA
100
AcDbEntity
  8
HATCH
100
AcDbLine
 10
4789.397051267463
 20
3286.767263723862
 30
0.0
 11
4223.314626963207
 21
2720.684839419603
 31
0.0
  0
LINE
  5
1881A
330
125AA
100
AcDbEntity
  8
HATCH
100
AcDbLine
 10
4351.79705126747
 20
3328.6848394196
 30
0.0
 11
4159.797051267463
 21
3136.684839419597
 31
0.0
  0
LINE
  5
1881B
330
125AA
100
AcDbEntity
  8
HATCH
100
AcDbLine
 10
4256.761899875999
 20
3328.6848394196
 30
0.0
 11
4159.797051267463
 21
3231.719990811068
 31
0.0
  0
LINE
  5
1881C
330
125AA
100
AcDbEntity
  8
HATCH
100
AcDbLine
 10
4304.279475571738
 20
3328.6848394196
 30
0.0
 11
4159.797051267463
 21
3184.202415115327
 31
0.0
  0
LINE
  5
1881D
330
125AA
100
AcDbEntity
  8
HATCH
100
AcDbLine
 10
4789.397051267463
 20
2902.284839419595
 30
0.0
 11
4766.19705126748
 21
2879.084839419608
 31
0.0
  0
LINE
  5
1881E
330
125AA
100
AcDbEntity
  8
HATCH
100
AcDbLine
 10
4745.397051267479
 20
2858.284839419607
 30
0.0
 11
4607.797051267474
 21
2720.684839419603
 31
0.0
  0
LINE
  5
1881F
330
125AA
100
AcDbEntity
  8
HATCH
100
AcDbLine
 10
5439.797051267464
 20
3294.836002075316
 30
0.0
 11
5459.339686619942
 21
3328.684839419602
 31
0.0
  0
LINE
  5
18820
330
125AA
100
AcDbEntity
  8
U3
100
AcDbLine
 10
3924.853654654415
 20
3280.790681683919
 30
0.0
 11
3996.959496918732
 21
3208.684839419603
 31
0.0
  0
LINE
  5
18821
330
125AA
100
AcDbEntity
  8
U3
100
AcDbLine
 10
3909.820095533321
 20
3265.757122562824
 30
0.0
 11
4020.747812390101
 21
3376.684839419601
 31
0.0
  0
LINE
  5
18822
330
125AA
100
AcDbEntity
  8
HATCH
100
AcDbLine
 10
4792.91462696322
 20
2858.284839419607
 30
0.0
 11
4655.314626963214
 21
2720.684839419603
 31
0.0
  0
LINE
  5
18823
330
125AA
100
AcDbEntity
  8
HATCH
100
AcDbLine
 10
4646.190662850361
 20
3456.684839419603
 30
0.0
 11
4518.19066285036
 21
3328.6848394196
 31
0.0
  0
LINE
  5
18824
330
125AA
100
AcDbEntity
  8
HATCH
100
AcDbLine
 10
4598.673087154621
 20
3456.684839419603
 30
0.0
 11
4470.673087154628
 21
3328.6848394196
 31
0.0
  0
LINE
  5
18825
330
125AA
100
AcDbEntity
  8
HATCH
100
AcDbLine
 10
4551.155511458886
 20
3456.684839419605
 30
0.0
 11
4423.155511458889
 21
3328.6848394196
 31
0.0
  0
LINE
  5
18826
330
125AA
100
AcDbEntity
  8
SUNPOU
100
AcDbLine
 10
4799.797051267463
 20
4130.485411556192
 30
0.0
 11
6225.027558517715
 21
4130.485411556192
 31
0.0
  0
TEXT
  5
18828
330
125AA
100
AcDbEntity
  8
SUNPOU
100
AcDbText
 10
5585.624750407928
 20
4175.485411556191
 30
0.0
 40
90.0
  1
2800
 41
0.6666666666666666
  7
00
 72
     4
 11
5699.910464693643
 21
4220.485411556191
 31
0.0
100
AcDbText
  0
LINE
  5
1882B
330
125AA
100
AcDbEntity
  8
KISO
100
AcDbLine
 10
5599.797051267461
 20
2720.684839419603
 30
0.0
 11
5599.797051267461
 21
2560.684839419602
 31
0.0
  0
LINE
  5
1882C
330
125AA
100
AcDbEntity
  8
HATCH
100
AcDbLine
 10
4827.726846493639
 20
2560.684839419602
 30
0.0
 11
4920.102889160304
 21
2720.684839419603
 31
0.0
  0
LINE
  5
1882D
330
125AA
100
AcDbEntity
  8
HATCH
100
AcDbLine
 10
4866.769555826969
 20
2720.684839419603
 30
0.0
 11
4893.436222493637
 21
2674.496816752938
 31
0.0
  0
LINE
  5
1882E
330
125AA
100
AcDbEntity
  8
HATCH
100
AcDbLine
 10
4854.393513160305
 20
2606.872860752932
 30
0.0
 11
4881.06017982697
 21
2560.684839419602
 31
0.0
  0
LINE
  5
1882F
330
125AA
100
AcDbEntity
  8
HATCH
100
AcDbLine
 10
4654.393513160305
 20
2606.872860752932
 30
0.0
 11
4681.06017982697
 21
2560.684839419602
 31
0.0
  0
LINE
  5
18830
330
125AA
100
AcDbEntity
  8
HATCH
100
AcDbLine
 10
4666.769555826969
 20
2720.684839419603
 30
0.0
 11
4693.436222493637
 21
2674.496816752938
 31
0.0
  0
LINE
  5
18831
330
125AA
100
AcDbEntity
  8
HATCH
100
AcDbLine
 10
4454.393513160304
 20
2606.872860752932
 30
0.0
 11
4481.060179826971
 21
2560.684839419602
 31
0.0
  0
LINE
  5
18832
330
125AA
100
AcDbEntity
  8
HATCH
100
AcDbLine
 10
4427.726846493636
 20
2560.684839419602
 30
0.0
 11
4520.102889160303
 21
2720.684839419603
 31
0.0
  0
LINE
  5
18833
330
125AA
100
AcDbEntity
  8
HATCH
100
AcDbLine
 10
4466.76955582697
 20
2720.684839419603
 30
0.0
 11
4493.436222493635
 21
2674.496816752938
 31
0.0
  0
LINE
  5
18834
330
125AA
100
AcDbEntity
  8
KISO
100
AcDbLine
 10
3999.797051267462
 20
2720.684839419603
 30
0.0
 11
3999.797051267462
 21
2560.684839419602
 31
0.0
  0
LINE
  5
18835
330
125AA
100
AcDbEntity
  8
HATCH
100
AcDbLine
 10
4254.393513160304
 20
2606.872860752932
 30
0.0
 11
4281.060179826972
 21
2560.684839419602
 31
0.0
  0
LINE
  5
18836
330
125AA
100
AcDbEntity
  8
HATCH
100
AcDbLine
 10
4266.769555826971
 20
2720.684839419603
 30
0.0
 11
4293.436222493635
 21
2674.496816752938
 31
0.0
  0
LINE
  5
18837
330
125AA
100
AcDbEntity
  8
HATCH
100
AcDbLine
 10
4227.726846493637
 20
2560.684839419602
 30
0.0
 11
4320.102889160303
 21
2720.684839419603
 31
0.0
  0
LINE
  5
18838
330
125AA
100
AcDbEntity
  8
HATCH
100
AcDbLine
 10
4627.726846493636
 20
2560.684839419602
 30
0.0
 11
4720.102889160303
 21
2720.684839419603
 31
0.0
  0
LINE
  5
18839
330
125AA
100
AcDbEntity
  8
KISO
100
AcDbLine
 10
5599.797051267461
 20
2720.684839419603
 30
0.0
 11
3999.797051267462
 21
2720.684839419603
 31
0.0
  0
LINE
  5
1883A
330
125AA
100
AcDbEntity
  8
KISO
100
AcDbLine
 10
3999.797051267462
 20
2560.684839419602
 30
0.0
 11
5599.797051267461
 21
2560.684839419602
 31
0.0
  0
LINE
  5
1883B
330
125AA
100
AcDbEntity
  8
HATCH
100
AcDbLine
 10
5066.76955582697
 20
2720.684839419603
 30
0.0
 11
5093.436222493636
 21
2674.496816752938
 31
0.0
  0
LINE
  5
1883C
330
125AA
100
AcDbEntity
  8
HATCH
100
AcDbLine
 10
5027.726846493639
 20
2560.684839419602
 30
0.0
 11
5120.102889160303
 21
2720.684839419603
 31
0.0
  0
LINE
  5
1883D
330
125AA
100
AcDbEntity
  8
HATCH
100
AcDbLine
 10
5054.393513160305
 20
2606.872860752932
 30
0.0
 11
5081.060179826971
 21
2560.684839419602
 31
0.0
  0
LINE
  5
1883E
330
125AA
100
AcDbEntity
  8
HATCH
100
AcDbLine
 10
5227.726846493639
 20
2560.684839419602
 30
0.0
 11
5320.102889160303
 21
2720.684839419603
 31
0.0
  0
LINE
  5
1883F
330
125AA
100
AcDbEntity
  8
HATCH
100
AcDbLine
 10
5266.769555826971
 20
2720.684839419603
 30
0.0
 11
5293.436222493635
 21
2674.496816752938
 31
0.0
  0
LINE
  5
18840
330
125AA
100
AcDbEntity
  8
HATCH
100
AcDbLine
 10
5254.393513160305
 20
2606.872860752932
 30
0.0
 11
5281.060179826972
 21
2560.684839419602
 31
0.0
  0
LINE
  5
18841
330
125AA
100
AcDbEntity
  8
HATCH
100
AcDbLine
 10
4066.76955582697
 20
2720.684839419603
 30
0.0
 11
4093.436222493635
 21
2674.496816752938
 31
0.0
  0
LINE
  5
18842
330
125AA
100
AcDbEntity
  8
HATCH
100
AcDbLine
 10
4027.726846493638
 20
2560.684839419602
 30
0.0
 11
4120.102889160301
 21
2720.684839419603
 31
0.0
  0
LINE
  5
18843
330
125AA
100
AcDbEntity
  8
HATCH
100
AcDbLine
 10
4054.393513160305
 20
2606.872860752932
 30
0.0
 11
4081.060179826971
 21
2560.684839419602
 31
0.0
  0
LINE
  5
18844
330
125AA
100
AcDbEntity
  8
KISO
100
AcDbLine
 10
3999.797051267462
 20
2720.684839419603
 30
0.0
 11
3999.797051267462
 21
2720.684839419603
 31
0.0
  0
TEXT
  5
1884B
330
125AA
100
AcDbEntity
  8
SUNPOU
100
AcDbText
 10
3070.061516132469
 20
3511.684839419604
 30
0.0
 40
90.0
  1
G.L
 41
0.6700000000000001
  7
01
 72
     4
 11
3141.847230418183
 21
3556.684839419605
 31
0.0
100
AcDbText
  0
LINE
  5
1884C
330
125AA
100
AcDbEntity
  8
SUNPOU
100
AcDbLine
 10
3193.80875464525
 20
3466.684839419605
 30
0.0
 11
3089.885706191117
 21
3466.684839419605
 31
0.0
  0
LINE
  5
1884D
330
125AA
100
AcDbEntity
  8
SUNPOU
100
AcDbLine
 10
3089.885706191117
 20
3466.684839419605
 30
0.0
 11
3141.847230418183
 21
3376.684839419604
 31
0.0
  0
LINE
  5
1884E
330
125AA
100
AcDbEntity
  8
SUNPOU
100
AcDbLine
 10
3141.847230418183
 20
3376.684839419604
 30
0.0
 11
3193.80875464525
 21
3466.684839419605
 31
0.0
  0
TEXT
  5
1884F
330
125AA
100
AcDbEntity
  8
HIKIDASHI
100
AcDbText
 10
4876.000654146238
 20
1664.635820576935
 30
0.0
 40
90.0
  1
断 面
  7
01
100
AcDbText
  0
LINE
  5
18850
330
125AA
100
AcDbEntity
  8
HIKIDASHI
100
AcDbLine
 10
4451.983374649677
 20
1619.635820576936
 30
0.0
 11
5147.610727885247
 21
1619.635820576936
 31
0.0
  0
LINE
  5
18851
330
125AA
100
AcDbEntity
  8
HIKIDASHI
100
AcDbLine
 10
4451.983374649677
 20
1589.635820576935
 30
0.0
 11
5147.610727885247
 21
1589.635820576935
 31
0.0
  0
TEXT
  5
18852
330
125AA
100
AcDbEntity
  8
HIKIDASHI
100
AcDbText
 10
4481.983374649677
 20
1664.635820576935
 30
0.0
 40
90.0
  1
A  ~  A'
 41
0.6700000000000001
  7
00
100
AcDbText
  0
TEXT
  5
18855
330
125AA
100
AcDbEntity
  8
HIKIDASHI
100
AcDbText
 10
5718.705531692625
 20
2949.11470702088
 30
0.0
 40
90.0
  1
敷砂利又は砕石
  7
01
 72
     2
 11
6450.705531692626
 21
2994.11470702088
 31
0.0
100
AcDbText
 73
     2
  0
LINE
  5
18856
330
125AA
100
AcDbEntity
  8
HIKIDASHI
100
AcDbLine
 10
6475.935832338305
 20
2904.11470702088
 30
0.0
 11
5674.871662611158
 21
2904.11470702088
 31
0.0
  0
TEXT
  5
18857
330
125AA
100
AcDbEntity
  8
HIKIDASHI
100
AcDbText
 10
5843.40570439457
 20
2313.304238552882
 30
0.0
 40
90.0
  1
砕　石
  7
01
 72
     2
 11
6143.40570439457
 21
2358.304238552882
 31
0.0
100
AcDbText
 73
     2
  0
LINE
  5
18858
330
125AA
100
AcDbEntity
  8
HIKIDASHI
100
AcDbLine
 10
6185.104473630285
 20
2268.304238552882
 30
0.0
 11
5816.33809680266
 21
2268.304238552882
 31
0.0
  0
LWPOLYLINE
  5
1885E
330
125AA
100
AcDbEntity
  8
BOLT
100
AcDbPolyline
 90
        8
 70
   129
 43
0.0
 10
8593.723251791109
 20
3434.284839419607
 10
8593.723251791109
 20
3442.136803080584
 10
8580.123251791111
 20
3449.988766741566
 10
8566.523251791108
 20
3442.136803080584
 10
8566.523251791108
 20
3434.284839419607
 10
8566.523251791108
 20
3426.432875758627
 10
8580.123251791111
 20
3418.580912097648
 10
8593.723251791109
 20
3426.432875758627
  0
CIRCLE
  5
1885F
330
125AA
100
AcDbEntity
  8
BOLT
100
AcDbCircle
 10
8580.123251791111
 20
3434.284839419607
 30
0.0
 40
13.2
  0
CIRCLE
  5
18860
330
125AA
100
AcDbEntity
  8
BOLT
100
AcDbCircle
 10
8580.123251791111
 20
3434.284839419607
 30
0.0
 40
16.8
  0
CIRCLE
  5
18861
330
125AA
100
AcDbEntity
  8
BOLT
100
AcDbCircle
 10
8580.123251791111
 20
3370.284839419607
 30
0.0
 40
16.8
  0
CIRCLE
  5
18862
330
125AA
100
AcDbEntity
  8
BOLT
100
AcDbCircle
 10
8580.123251791111
 20
3370.284839419607
 30
0.0
 40
13.2
  0
LWPOLYLINE
  5
18863
330
125AA
100
AcDbEntity
  8
BOLT
100
AcDbPolyline
 90
        8
 70
   129
 43
0.0
 10
8593.723251791109
 20
3370.284839419607
 10
8593.723251791109
 20
3378.136803080584
 10
8580.123251791111
 20
3385.988766741566
 10
8566.523251791108
 20
3378.136803080584
 10
8566.523251791108
 20
3370.284839419607
 10
8566.523251791108
 20
3362.432875758627
 10
8580.123251791111
 20
3354.580912097647
 10
8593.723251791109
 20
3362.432875758627
  0
LINE
  5
18864
330
125AA
100
AcDbEntity
  8
KISO
100
AcDbLine
 10
9862.519974530416
 20
3456.684839419605
 30
0.0
 11
8632.123251791108
 21
3456.684839419605
 31
0.0
  0
LINE
  5
18865
330
125AA
100
AcDbEntity
  8
KISO
100
AcDbLine
 10
9862.519974530416
 20
3328.684839419602
 30
0.0
 11
8632.123251791108
 21
3328.684839419602
 31
0.0
  0
LINE
  5
18866
330
125AA
100
AcDbEntity
  8
KISO
100
AcDbLine
 10
9220.123251791108
 20
3200.684839419601
 30
0.0
 11
9862.519974530416
 21
3200.684839419602
 31
0.0
  0
LINE
  5
18867
330
125AA
100
AcDbEntity
  8
KISO
100
AcDbLine
 10
8528.123251791111
 20
3328.684839419602
 30
0.0
 11
7940.123251791111
 21
3328.684839419602
 31
0.0
  0
LINE
  5
18868
330
125AA
100
AcDbEntity
  8
KISO
100
AcDbLine
 10
8528.123251791111
 20
3456.684839419605
 30
0.0
 11
8260.12325179111
 21
3456.684839419605
 31
0.0
  0
LINE
  5
18869
330
125AA
100
AcDbEntity
  8
KISO
100
AcDbLine
 10
8260.12325179111
 20
3456.684839419607
 30
0.0
 11
8260.12325179111
 21
3328.6848394196
 31
0.0
  0
LINE
  5
1886A
330
125AA
100
AcDbEntity
  8
KISO
100
AcDbLine
 10
7940.123251791111
 20
3328.684839419602
 30
0.0
 11
7940.123251791111
 21
3200.684839419602
 31
0.0
  0
LINE
  5
1886B
330
125AA
100
AcDbEntity
  8
HASHIRA
100
AcDbLine
 10
8632.123251791108
 20
3338.284839419607
 30
0.0
 11
8632.123251791101
 21
3583.485411556191
 31
0.0
  0
LINE
  5
1886C
330
125AA
100
AcDbEntity
  8
HASHIRA
100
AcDbLine
 10
8528.123251791111
 20
3583.485411556191
 30
0.0
 11
8528.123251791111
 21
3338.284839419607
 31
0.0
  0
LWPOLYLINE
  5
1886D
330
125AA
100
AcDbEntity
  8
HASHIRA
100
AcDbPolyline
 90
        4
 70
     1
 43
0.0
 10
8452.12325179111
 20
3328.684839419607
 10
8708.123251791109
 20
3328.684839419607
 10
8708.123251791109
 20
3338.284839419607
 10
8452.12325179111
 20
3338.284839419607
  0
LWPOLYLINE
  5
1886E
330
125AA
100
AcDbEntity
  8
TENSEN-1
100
AcDbPolyline
 90
        6
 70
     1
 43
0.0
 10
8420.12325179111
 20
2879.084839419605
 10
8473.723251791112
 20
2879.084839419605
 10
8473.723251791112
 20
3370.284839419607
 10
8494.523251791113
 20
3370.284839419607
 10
8494.523251791113
 20
2858.284839419607
 10
8420.12325179111
 20
2858.284839419607
  0
LINE
  5
1886F
330
125AA
100
AcDbEntity
  8
HATCH
100
AcDbLine
 10
8331.481711982537
 20
3456.684839419605
 30
0.0
 11
8260.12325179111
 21
3385.326379228178
 31
0.0
  0
LINE
  5
18870
330
125AA
100
AcDbEntity
  8
HATCH
100
AcDbLine
 10
8426.516863374009
 20
3456.684839419605
 30
0.0
 11
8298.516863374002
 21
3328.684839419602
 31
0.0
  0
LINE
  5
18871
330
125AA
100
AcDbEntity
  8
HATCH
100
AcDbLine
 10
8378.999287678276
 20
3456.684839419605
 30
0.0
 11
8260.12325179111
 21
3337.808803532439
 31
0.0
  0
LINE
  5
18872
330
125AA
100
AcDbEntity
  8
1PL-S1
100
AcDbLine
 10
8484.12325179111
 20
3319.084839419606
 30
0.0
 11
8484.12325179111
 21
3347.884839419609
 31
0.0
  0
LWPOLYLINE
  5
18873
330
125AA
100
AcDbEntity
  8
TENSEN-1
100
AcDbPolyline
 90
        6
 70
     1
 43
0.0
 10
8740.123251791109
 20
2879.084839419605
 10
8686.523251791108
 20
2879.084839419605
 10
8686.523251791108
 20
3370.284839419607
 10
8665.723251791112
 20
3370.284839419607
 10
8665.723251791105
 20
2858.284839419607
 10
8740.123251791109
 20
2858.284839419607
  0
LINE
  5
18874
330
125AA
100
AcDbEntity
  8
HATCH
100
AcDbLine
 10
8811.481711982535
 20
3456.684839419605
 30
0.0
 11
8693.081711982538
 21
3338.284839419607
 31
0.0
  0
LINE
  5
18875
330
125AA
100
AcDbEntity
  8
HATCH
100
AcDbLine
 10
8858.999287678274
 20
3456.684839419605
 30
0.0
 11
8730.999287678274
 21
3328.684839419602
 31
0.0
  0
LINE
  5
18876
330
125AA
100
AcDbEntity
  8
1PL-S1
100
AcDbLine
 10
8676.123251791109
 20
3319.084839419606
 30
0.0
 11
8676.123251791109
 21
3347.884839419605
 31
0.0
  0
LINE
  5
18877
330
125AA
100
AcDbEntity
  8
HATCH
100
AcDbLine
 10
8906.516863374006
 20
3456.684839419605
 30
0.0
 11
8778.516863374003
 21
3328.684839419602
 31
0.0
  0
LINE
  5
18878
330
125AA
100
AcDbEntity
  8
HATCH
100
AcDbLine
 10
9291.481711982534
 20
3456.684839419605
 30
0.0
 11
9163.481711982534
 21
3328.684839419602
 31
0.0
  0
LINE
  5
18879
330
125AA
100
AcDbEntity
  8
HATCH
100
AcDbLine
 10
9338.999287678277
 20
3456.684839419605
 30
0.0
 11
9210.999287678276
 21
3328.684839419602
 31
0.0
  0
LINE
  5
1887A
330
125AA
100
AcDbEntity
  8
HATCH
100
AcDbLine
 10
9386.516863374007
 20
3456.684839419605
 30
0.0
 11
9258.516863374003
 21
3328.684839419602
 31
0.0
  0
LINE
  5
1887E
330
125AA
100
AcDbEntity
  8
HATCH
100
AcDbLine
 10
9866.516863374007
 20
3456.684839419605
 30
0.0
 11
9738.516863374004
 21
3328.684839419602
 31
0.0
  0
LINE
  5
1887F
330
125AA
100
AcDbEntity
  8
HATCH
100
AcDbLine
 10
9818.999287678277
 20
3456.684839419605
 30
0.0
 11
9690.999287678277
 21
3328.684839419602
 31
0.0
  0
LINE
  5
18880
330
125AA
100
AcDbEntity
  8
HATCH
100
AcDbLine
 10
9771.481711982536
 20
3456.684839419605
 30
0.0
 11
9643.481711982536
 21
3328.684839419602
 31
0.0
  0
LINE
  5
18882
330
125AA
100
AcDbEntity
  8
KISO
100
AcDbLine
 10
8528.123251791111
 20
3328.684839419602
 30
0.0
 11
7940.123251791111
 21
3328.684839419602
 31
0.0
  0
LINE
  5
18883
330
125AA
100
AcDbEntity
  8
HATCH
100
AcDbLine
 10
9220.123251791108
 20
3294.836002075316
 30
0.0
 11
9239.665887143592
 21
3328.684839419602
 31
0.0
  0
LINE
  5
18884
330
125AA
100
AcDbEntity
  8
HATCH
100
AcDbLine
 10
9220.123251791108
 20
3073.167263723867
 30
0.0
 11
8867.640827486855
 21
2720.684839419607
 31
0.0
  0
LINE
  5
18885
330
125AA
100
AcDbEntity
  8
HATCH
100
AcDbLine
 10
9220.123251791108
 20
3025.64968802813
 30
0.0
 11
8915.158403182585
 21
2720.684839419607
 31
0.0
  0
LINE
  5
18886
330
125AA
100
AcDbEntity
  8
HATCH
100
AcDbLine
 10
9220.123251791108
 20
2978.132112332395
 30
0.0
 11
8962.675978878326
 21
2720.684839419607
 31
0.0
  0
LINE
  5
18887
330
125AA
100
AcDbEntity
  8
HATCH
100
AcDbLine
 10
9043.640827486848
 20
3328.684839419604
 30
0.0
 11
8686.523251791108
 21
2971.567263723861
 31
0.0
  0
LINE
  5
18888
330
125AA
100
AcDbEntity
  8
HATCH
100
AcDbLine
 10
9091.158403182575
 20
3328.684839419604
 30
0.0
 11
8686.523251791108
 21
2924.049688028131
 31
0.0
  0
LINE
  5
18889
330
125AA
100
AcDbEntity
  8
HATCH
100
AcDbLine
 10
8996.123251791109
 20
3328.684839419604
 30
0.0
 11
8686.523251791108
 21
3019.084839419599
 31
0.0
  0
LINE
  5
1888A
330
125AA
100
AcDbEntity
  8
KISO
100
AcDbLine
 10
9220.123251791108
 20
3328.684839419604
 30
0.0
 11
9220.123251791108
 21
2720.684839419607
 31
0.0
  0
LINE
  5
1888B
330
125AA
100
AcDbEntity
  8
HATCH
100
AcDbLine
 10
8516.605676095382
 20
3328.684839419607
 30
0.0
 11
8494.523251791113
 21
3306.602415115338
 31
0.0
  0
LINE
  5
1888C
330
125AA
100
AcDbEntity
  8
HATCH
100
AcDbLine
 10
8569.723251791113
 20
3286.767263723867
 30
0.0
 11
8494.523251791113
 21
3211.567263723866
 31
0.0
  0
LINE
  5
1888D
330
125AA
100
AcDbEntity
  8
HATCH
100
AcDbLine
 10
8564.123251791125
 20
3328.684839419612
 30
0.0
 11
8494.523251791113
 21
3259.084839419598
 31
0.0
  0
LINE
  5
1888E
330
125AA
100
AcDbEntity
  8
KISO
100
AcDbLine
 10
7940.123251791111
 20
3328.684839419604
 30
0.0
 11
7940.123251791111
 21
2720.684839419607
 31
0.0
  0
LINE
  5
1888F
330
125AA
100
AcDbEntity
  8
HATCH
100
AcDbLine
 10
8132.123251791115
 20
3328.684839419604
 30
0.0
 11
7940.123251791111
 21
3136.684839419602
 31
0.0
  0
LINE
  5
18890
330
125AA
100
AcDbEntity
  8
HATCH
100
AcDbLine
 10
8084.605676095383
 20
3328.684839419604
 30
0.0
 11
7940.123251791111
 21
3184.202415115334
 31
0.0
  0
LINE
  5
18891
330
125AA
100
AcDbEntity
  8
HATCH
100
AcDbLine
 10
8665.723251791105
 20
2998.284839419597
 30
0.0
 11
8388.123251791125
 21
2720.684839419607
 31
0.0
  0
LINE
  5
18892
330
125AA
100
AcDbEntity
  8
HATCH
100
AcDbLine
 10
8665.723251791105
 20
2950.767263723859
 30
0.0
 11
8435.640827486862
 21
2720.684839419607
 31
0.0
  0
LINE
  5
18893
330
125AA
100
AcDbEntity
  8
HATCH
100
AcDbLine
 10
8665.723251791105
 20
2903.249688028129
 30
0.0
 11
8483.15840318259
 21
2720.684839419607
 31
0.0
  0
LINE
  5
18894
330
125AA
100
AcDbEntity
  8
HATCH
100
AcDbLine
 10
8473.723251791112
 20
3285.802415115337
 30
0.0
 11
7940.123251791111
 21
2752.202415115336
 31
0.0
  0
LINE
  5
18895
330
125AA
100
AcDbEntity
  8
HATCH
100
AcDbLine
 10
8473.723251791112
 20
3238.284839419597
 30
0.0
 11
7956.123251791126
 21
2720.684839419607
 31
0.0
  0
LINE
  5
18896
330
125AA
100
AcDbEntity
  8
HATCH
100
AcDbLine
 10
8473.723251791112
 20
3190.767263723866
 30
0.0
 11
8003.640827486853
 21
2720.684839419607
 31
0.0
  0
LINE
  5
18897
330
125AA
100
AcDbEntity
  8
HATCH
100
AcDbLine
 10
8037.088100399646
 20
3328.684839419604
 30
0.0
 11
7940.123251791111
 21
3231.719990811074
 31
0.0
  0
LINE
  5
18898
330
125AA
100
AcDbEntity
  8
U3
100
AcDbLine
 10
8015.109073933235
 20
3328.684839419602
 30
0.0
 11
8063.109073933231
 21
3376.684839419604
 31
0.0
  0
LINE
  5
18899
330
125AA
100
AcDbEntity
  8
U3
100
AcDbLine
 10
8116.932450424092
 20
3328.684839419602
 30
0.0
 11
8164.932450424101
 21
3376.684839419605
 31
0.0
  0
LINE
  5
1889A
330
125AA
100
AcDbEntity
  8
U3
100
AcDbLine
 10
8164.932450424096
 20
3376.684839419604
 30
0.0
 11
8212.9324504241
 21
3328.684839419602
 31
0.0
  0
LINE
  5
1889B
330
125AA
100
AcDbEntity
  8
1PL-M1
100
AcDbLine
 10
8580.123251791111
 20
2540.172125878787
 30
0.0
 11
8580.123251791111
 21
4175.485411556194
 31
0.0
  0
LINE
  5
1889C
330
125AA
100
AcDbEntity
  8
KISO
100
AcDbLine
 10
9380.123251791109
 20
2720.684839419607
 30
0.0
 11
9380.123251791109
 21
2560.684839419602
 31
0.0
  0
LINE
  5
1889D
330
125AA
100
AcDbEntity
  8
KISO
100
AcDbLine
 10
7780.123251791109
 20
2720.684839419607
 30
0.0
 11
7780.123251791109
 21
2560.684839419602
 31
0.0
  0
LINE
  5
1889E
330
125AA
100
AcDbEntity
  8
KISO
100
AcDbLine
 10
7780.123251791109
 20
2560.684839419602
 30
0.0
 11
9380.123251791109
 21
2560.684839419602
 31
0.0
  0
LWPOLYLINE
  5
1889F
330
125AA
100
AcDbEntity
  8
KISO
100
AcDbPolyline
 90
        3
 70
     0
 43
0.0
 10
9380.123251791109
 20
2720.684839419607
 10
9380.123251791109
 20
2720.684839419607
 10
7780.123251791109
 20
2720.684839419607
  0
LINE
  5
188A4
330
125AA
100
AcDbEntity
  8
SUNPOU
100
AcDbLine
 10
8580.123251791111
 20
4130.485411556196
 30
0.0
 11
10005.35375904135
 21
4130.485411556196
 31
0.0
  0
TEXT
  5
188A6
330
125AA
100
AcDbEntity
  8
SUNPOU
100
AcDbText
 10
9361.665236645858
 20
4175.485411556197
 30
0.0
 40
90.0
  1
1800
 41
0.6666666666666666
  7
00
 72
     4
 11
9480.236665217288
 21
4220.485411556196
 31
0.0
100
AcDbText
  0
TEXT
  5
188AF
330
125AA
100
AcDbEntity
  8
SUNPOU
100
AcDbText
 10
6850.387716656114
 20
3511.684839419609
 30
0.0
 40
90.0
  1
G.L
 41
0.6700000000000001
  7
01
 72
     4
 11
6922.173430941829
 21
3556.684839419608
 31
0.0
100
AcDbText
  0
LINE
  5
188B0
330
125AA
100
AcDbEntity
  8
SUNPOU
100
AcDbLine
 10
6974.134955168897
 20
3466.684839419608
 30
0.0
 11
6870.211906714764
 21
3466.684839419608
 31
0.0
  0
LINE
  5
188B1
330
125AA
100
AcDbEntity
  8
SUNPOU
100
AcDbLine
 10
6870.211906714764
 20
3466.684839419608
 30
0.0
 11
6922.173430941829
 21
3376.684839419608
 31
0.0
  0
LINE
  5
188B2
330
125AA
100
AcDbEntity
  8
SUNPOU
100
AcDbLine
 10
6922.173430941829
 20
3376.684839419608
 30
0.0
 11
6974.134955168897
 21
3466.684839419608
 31
0.0
  0
LINE
  5
188B5
330
125AA
100
AcDbEntity
  8
U3
100
AcDbLine
 10
7134.287858546611
 20
3376.684839419603
 30
0.0
 11
7302.287858546613
 21
3208.684839419607
 31
0.0
  0
LINE
  5
188B6
330
125AA
100
AcDbEntity
  8
U3
100
AcDbLine
 10
7083.376170301177
 20
3325.773151174173
 30
0.0
 11
7200.464482055746
 21
3208.684839419603
 31
0.0
  0
LINE
  5
188B7
330
125AA
100
AcDbEntity
  8
U3
100
AcDbLine
 10
7370.146296056969
 20
3376.684839419604
 30
0.0
 11
6798.287858546611
 21
3376.684839419604
 31
0.0
  0
LINE
  5
188B8
330
125AA
100
AcDbEntity
  8
U3
100
AcDbLine
 10
6864.464482055746
 20
3310.508215910466
 30
0.0
 11
6930.64110556488
 21
3376.684839419601
 31
0.0
  0
LINE
  5
188B9
330
125AA
100
AcDbEntity
  8
U3
100
AcDbLine
 10
6798.287858546611
 20
3376.684839419601
 30
0.0
 11
6966.287858546611
 21
3208.684839419606
 31
0.0
  0
LINE
  5
188BA
330
125AA
100
AcDbEntity
  8
U3
100
AcDbLine
 10
6915.376170301179
 20
3259.596527665037
 30
0.0
 11
7032.464482055747
 21
3376.684839419601
 31
0.0
  0
LINE
  5
188BB
330
125AA
100
AcDbEntity
  8
U3
100
AcDbLine
 10
6966.287858546611
 20
3208.684839419606
 30
0.0
 11
7134.287858546611
 21
3376.684839419603
 31
0.0
  0
LINE
  5
188BC
330
125AA
100
AcDbEntity
  8
U3
100
AcDbLine
 10
7032.464482055747
 20
3274.861462928739
 30
0.0
 11
7098.641105564884
 21
3208.684839419603
 31
0.0
  0
LINE
  5
188BD
330
125AA
100
AcDbEntity
  8
U3
100
AcDbLine
 10
7302.287858546613
 20
3208.684839419607
 30
0.0
 11
7370.146296056969
 21
3276.543276929964
 31
0.0
  0
LINE
  5
188BE
330
125AA
100
AcDbEntity
  8
U3
100
AcDbLine
 10
7200.464482055746
 20
3310.508215910469
 30
0.0
 11
7266.641105564882
 21
3376.684839419603
 31
0.0
  0
LINE
  5
188BF
330
125AA
100
AcDbEntity
  8
U3
100
AcDbLine
 10
7251.376170301179
 20
3259.596527665038
 30
0.0
 11
7368.464482055749
 21
3376.684839419603
 31
0.0
  0
LINE
  5
188C0
330
125AA
100
AcDbEntity
  8
U3
100
AcDbLine
 10
8260.12325179111
 20
3376.684839419604
 30
0.0
 11
7690.146296056967
 21
3376.684839419603
 31
0.0
  0
LINE
  5
188C1
330
125AA
100
AcDbEntity
  8
U3
100
AcDbLine
 10
7879.109073933235
 20
3310.508215910469
 30
0.0
 11
7940.123251791111
 21
3371.522393768344
 31
0.0
  0
LINE
  5
188C2
330
125AA
100
AcDbEntity
  8
U3
100
AcDbLine
 10
7812.932450424103
 20
3376.684839419603
 30
0.0
 11
7940.123251791111
 21
3249.494038052592
 31
0.0
  0
LINE
  5
188C3
330
125AA
100
AcDbEntity
  8
U3
100
AcDbLine
 10
7756.091543423494
 20
3331.702369929347
 30
0.0
 11
7879.109073933242
 21
3208.684839419603
 31
0.0
  0
LINE
  5
188C4
330
125AA
100
AcDbEntity
  8
U3
100
AcDbLine
 10
7705.179855178061
 20
3280.790681683919
 30
0.0
 11
7777.285697442379
 21
3208.684839419603
 31
0.0
  0
LINE
  5
188C5
330
125AA
100
AcDbEntity
  8
U3
100
AcDbLine
 10
7690.146296056967
 20
3265.757122562824
 30
0.0
 11
7801.074012913748
 21
3376.684839419601
 31
0.0
  0
LINE
  5
188C6
330
125AA
100
AcDbEntity
  8
HIKIDASHI
100
AcDbLine
 10
9726.620021984601
 20
3920.485411556196
 30
0.0
 11
9357.853645156977
 21
3920.485411556196
 31
0.0
  0
TEXT
  5
188C7
330
125AA
100
AcDbEntity
  8
HIKIDASHI
100
AcDbText
 10
9390.921252748887
 20
3965.485411556195
 30
0.0
 40
90.0
  1
土　間
  7
01
 72
     2
 11
9684.921252748887
 21
4010.485411556195
 31
0.0
100
AcDbText
 73
     2
  0
LEADER
  5
188C8
330
125AA
100
AcDbEntity
  8
U3
100
AcDbLeader
  3
SUNPOU_申請図$7
 76
     2
 10
9090.07825998364
 20
3456.684839419605
 30
0.0
 10
9357.853645156977
 20
3920.485411556196
 30
0.0
1001
ACAD
1000
DSTYLE
1002
{
1070
   147
1040
1.0
1070
    77
1070
     0
1002
}
  0
TEXT
  5
188C9
330
125AA
100
AcDbEntity
  8
SUNPOU
100
AcDbText
 10
9478.587586282396
 20
3591.684839419605
 30
0.0
 40
90.0
  1
F.L
 41
0.6666666666666666
  7
00
 72
     4
 11
9547.159014853825
 21
3636.684839419604
 31
0.0
100
AcDbText
  0
LINE
  5
188CA
330
125AA
100
AcDbEntity
  8
SUNPOU
100
AcDbLine
 10
9547.159014853825
 20
3456.684839419605
 30
0.0
 11
9599.120539080891
 21
3546.684839419604
 31
0.0
  0
LINE
  5
188CB
330
125AA
100
AcDbEntity
  8
SUNPOU
100
AcDbLine
 10
9495.197490626756
 20
3546.684839419604
 30
0.0
 11
9547.159014853825
 21
3456.684839419605
 31
0.0
  0
LINE
  5
188CC
330
125AA
100
AcDbEntity
  8
SUNPOU
100
AcDbLine
 10
9599.120539080891
 20
3546.684839419604
 30
0.0
 11
9495.197490626756
 21
3546.684839419604
 31
0.0
  0
TEXT
  5
188CE
330
125AA
100
AcDbEntity
  8
HIKIDASHI
100
AcDbText
 10
7011.426786787379
 20
1814.878869270352
 30
0.0
 40
89.55223880597015
  1
x
 41
0.6700000000000001
  7
00
100
AcDbText
  0
TEXT
  5
188CF
330
125AA
100
AcDbEntity
  8
HIKIDASHI
100
AcDbText
 10
6939.591849597005
 20
1803.088394027939
 30
0.0
 40
67.16417910447761
  1
2
 41
0.6700000000000001
  7
00
100
AcDbText
  0
TEXT
  5
188D0
330
125AA
100
AcDbEntity
  8
HIKIDASHI
100
AcDbText
 10
6851.699813038081
 20
1830.1144490585
 30
0.0
 40
67.16417910447761
  1
1
 41
0.6700000000000001
  7
00
100
AcDbText
  0
TEXT
  5
188D1
330
125AA
100
AcDbEntity
  8
HIKIDASHI
100
AcDbText
 10
6777.099002354859
 20
1803.684839419606
 30
0.0
 40
89.55223880597015
  1
W ／
 41
0.6700000000000001
  7
00
100
AcDbText
  0
TEXT
  5
188D2
330
125AA
100
AcDbEntity
  8
HIKIDASHI
100
AcDbText
 10
7092.562165940511
 20
1803.475853219515
 30
0.0
 40
89.55223880597015
  1
300
 41
0.6700000000000001
  7
00
100
AcDbText
  0
TEXT
  5
188D3
330
125AA
100
AcDbEntity
  8
HIKIDASHI
100
AcDbText
 10
6777.099002354859
 20
1983.684839419605
 30
0.0
 40
90.0
  1
アンカーボルト
  7
01
100
AcDbText
  0
LINE
  5
188D4
330
125AA
100
AcDbEntity
  8
HIKIDASHI
100
AcDbLine
 10
6748.019393493152
 20
1938.684839419605
 30
0.0
 11
7568.025406890003
 21
1938.684839419605
 31
0.0
  0
TEXT
  5
188D6
330
125AA
100
AcDbEntity
  8
HIKIDASHI
100
AcDbText
 10
8262.30957517332
 20
1664.635820576939
 30
0.0
 40
90.0
  1
B  ~  B'
 41
0.6700000000000001
  7
00
100
AcDbText
  0
LINE
  5
188D7
330
125AA
100
AcDbEntity
  8
HIKIDASHI
100
AcDbLine
 10
8232.309575173323
 20
1589.635820576939
 30
0.0
 11
8927.93692840889
 21
1589.635820576939
 31
0.0
  0
LINE
  5
188D8
330
125AA
100
AcDbEntity
  8
HIKIDASHI
100
AcDbLine
 10
8232.309575173323
 20
1619.635820576939
 30
0.0
 11
8927.93692840889
 21
1619.635820576939
 31
0.0
  0
TEXT
  5
188D9
330
125AA
100
AcDbEntity
  8
HIKIDASHI
100
AcDbText
 10
8656.326854669883
 20
1664.635820576939
 30
0.0
 40
90.0
  1
断 面
  7
01
100
AcDbText
  0
LWPOLYLINE
  5
188DA
330
125AA
100
AcDbEntity
  8
U1
100
AcDbPolyline
 90
        4
 70
     1
 43
0.0
 10
11221.33837406209
 20
3618.337036584561
 10
11861.33837406209
 20
3618.337036584561
 10
11861.33837406209
 20
3642.337036584561
 10
11221.33837406209
 20
3642.337036584561
  0
LWPOLYLINE
  5
188DB
330
125AA
100
AcDbEntity
  8
U1
100
AcDbPolyline
 90
        4
 70
     1
 43
0.0
 10
11221.33837406209
 20
2540.14434405315
 10
11861.33837406209
 20
2540.14434405315
 10
11861.33837406209
 20
2860.14434405315
 10
11221.33837406209
 20
2860.14434405315
  0
LINE
  5
188DC
330
125AA
100
AcDbEntity
  8
1PL-S1
100
AcDbLine
 10
11225.33837406209
 20
2700.144344053149
 30
0.0
 11
11857.33837406209
 21
2700.144344053149
 31
0.0
  0
LINE
  5
188DD
330
125AA
100
AcDbEntity
  8
U1
100
AcDbLine
 10
11391.3383740621
 20
3642.337036584561
 30
0.0
 11
11391.3383740621
 21
4026.401575763828
 31
0.0
  0
LINE
  5
188DE
330
125AA
100
AcDbEntity
  8
U1
100
AcDbLine
 10
11691.33837406209
 20
3642.337036584561
 30
0.0
 11
11691.33837406209
 21
4026.401575763828
 31
0.0
  0
LINE
  5
188DF
330
125AA
100
AcDbEntity
  8
1PL-S1
100
AcDbLine
 10
11541.33837406209
 20
3578.337036584561
 30
0.0
 11
11541.33837406209
 21
4066.401575763828
 31
0.0
  0
CIRCLE
  5
188E0
330
125AA
100
AcDbEntity
  8
U1
100
AcDbCircle
 10
11541.33837406209
 20
3882.337036584561
 30
0.0
 40
24.0
  0
LWPOLYLINE
  5
188E1
330
125AA
100
AcDbEntity
  8
U1
100
AcDbPolyline
 90
        4
 70
     1
 43
0.0
 10
11391.33837406208
 20
2550.144344053149
 10
11691.33837406209
 20
2550.144344053149
 10
11691.33837406209
 20
2850.144344053148
 10
11391.33837406208
 20
2850.144344053148
  0
LINE
  5
188E2
330
125AA
100
AcDbEntity
  8
1PL-S1
100
AcDbLine
 10
11301.33837406209
 20
2624.14434405315
 30
0.0
 11
11301.33837406209
 21
2776.144344053149
 31
0.0
  0
LINE
  5
188E3
330
125AA
100
AcDbEntity
  8
1PL-S1
100
AcDbLine
 10
11781.33837406209
 20
2624.14434405315
 30
0.0
 11
11781.33837406209
 21
2776.144344053149
 31
0.0
  0
LINE
  5
188E4
330
125AA
100
AcDbEntity
  8
1PL-S1
100
AcDbLine
 10
11541.33837406209
 20
2500.144344053149
 30
0.0
 11
11541.33837406209
 21
2900.144344053149
 31
0.0
  0
CIRCLE
  5
188E5
330
125AA
100
AcDbEntity
  8
U1
100
AcDbCircle
 10
11301.33837406209
 20
2700.144344053149
 30
0.0
 40
36.0
  0
LINE
  5
188E6
330
125AA
100
AcDbEntity
  8
U1
100
AcDbLine
 10
11691.33837406209
 20
2700.144344053149
 30
0.0
 11
11612.31129530375
 21
2700.144344053149
 31
0.0
  0
CIRCLE
  5
188E7
330
125AA
100
AcDbEntity
  8
U1
100
AcDbCircle
 10
11781.33837406209
 20
2700.144344053149
 30
0.0
 40
36.0
  0
LINE
  5
188E8
330
125AA
100
AcDbEntity
  8
1PL-S1
100
AcDbLine
 10
11477.33837406209
 20
3722.337036584561
 30
0.0
 11
11605.33837406209
 21
3722.337036584561
 31
0.0
  0
LINE
  5
188E9
330
125AA
100
AcDbEntity
  8
1PL-S1
100
AcDbLine
 10
11301.33837406211
 20
3578.337036584561
 30
0.0
 11
11301.33837406209
 21
3682.337036584561
 31
0.0
  0
LINE
  5
188EA
330
125AA
100
AcDbEntity
  8
1PL-S1
100
AcDbLine
 10
11781.33837406209
 20
3578.337036584561
 30
0.0
 11
11781.33837406209
 21
3682.337036584561
 31
0.0
  0
CIRCLE
  5
188EB
330
125AA
100
AcDbEntity
  8
U1
100
AcDbCircle
 10
11541.33837406209
 20
3722.337036584561
 30
0.0
 40
24.0
  0
LINE
  5
188EC
330
125AA
100
AcDbEntity
  8
1PL-S1
100
AcDbLine
 10
11477.33837406209
 20
3882.337036584561
 30
0.0
 11
11605.33837406209
 21
3882.337036584561
 31
0.0
  0
TEXT
  5
188F8
330
125AA
100
AcDbEntity
  8
SUNPOU
100
AcDbText
 10
10750.05141017947
 20
1674.586261835072
 30
0.0
 40
120.0
  1
柱脚金具詳細図
  7
01
 72
     4
 11
11234.05141017947
 21
1734.586261835072
 31
0.0
100
AcDbText
  0
TEXT
  5
188F9
330
125AA
100
AcDbEntity
  8
SUNPOU
100
AcDbText
 10
12146.16023934792
 20
1672.124723373534
 30
0.0
 40
73.84615384615384
  1
/
 41
0.6700000000000001
  7
00
 11
12146.16023934792
 21
1662.27856952738
 31
0.0
100
AcDbText
 73
     1
  0
TEXT
  5
188FA
330
125AA
100
AcDbEntity
  8
SUNPOU
100
AcDbText
 10
12210.1096823023
 20
1653.663184911994
 30
0.0
 40
73.84615384615384
  1
10
 41
0.6700000000000001
  7
00
 11
12210.1096823023
 21
1643.817031065841
 31
0.0
100
AcDbText
 73
     1
  0
TEXT
  5
188FB
330
125AA
100
AcDbEntity
  8
SUNPOU
100
AcDbText
 10
12097.75411203255
 20
1690.586261835072
 30
0.0
 40
73.84615384615384
  1
1
 41
0.6700000000000001
  7
00
 11
12097.75411203255
 21
1680.740107988918
 31
0.0
100
AcDbText
 73
     1
  0
TEXT
  5
188FC
330
125AA
100
AcDbEntity
  8
SUNPOU
100
AcDbText
 10
11778.05141017947
 20
1674.586261835072
 30
0.0
 40
92.30769230769228
  1
（ S = 　　  ）
 41
0.6700000000000001
  7
00
 11
11778.05141017947
 21
1662.27856952738
 31
0.0
100
AcDbText
 73
     1
  0
LINE
  5
188FD
330
125AA
100
AcDbEntity
  8
HIKIDASHI
100
AcDbLine
 10
12256.64239875644
 20
2245.804976716085
 30
0.0
 11
12840.68319432041
 21
2245.804976716085
 31
0.0
  0
TEXT
  5
188FE
330
125AA
100
AcDbEntity
  8
HIKIDASHI
100
AcDbText
 10
12288.10785773423
 20
2290.804976716086
 30
0.0
 40
90.0
  1
2
 41
0.6666666666666666
  7
00
 72
     2
 11
12336.67928630566
 21
2290.804976716086
 31
0.0
100
AcDbText
  0
TEXT
  5
188FF
330
125AA
100
AcDbEntity
  8
HIKIDASHI
100
AcDbText
 10
12504.27139056829
 20
2290.804976716086
 30
0.0
 40
90.0
  1
18
 41
0.6666666666666666
  7
00
 72
     2
 11
12609.98567628258
 21
2290.804976716086
 31
0.0
100
AcDbText
  0
TEXT
  5
18900
330
125AA
100
AcDbEntity
  8
HIKIDASHI
100
AcDbText
 10
12439.02627454892
 20
2291.08896132193
 30
0.0
 40
89.99999909999997
  1
-
 41
0.6700000000000001
  7
00
100
AcDbText
  0
TEXT
  5
18901
330
125AA
100
AcDbEntity
  8
HIKIDASHI
100
AcDbText
 10
12364.48805587138
 20
2310.804976716088
 30
0.0
 40
89.99999909999997
  1
・
  7
01
100
AcDbText
  0
TEXT
  5
18902
330
125AA
100
AcDbEntity
  8
HIKIDASHI
100
AcDbText
 10
12655.41042037727
 20
2304.79072515205
 30
0.0
 40
89.99999909999997
  1
%%c 
 41
0.6700000000000001
  7
00
100
AcDbText
  0
TEXT
  5
18903
330
125AA
100
AcDbEntity
  8
HIKIDASHI
100
AcDbText
 10
12733.90408052569
 20
2290.804976716086
 30
0.0
 40
90.0
  1
孔
  7
01
 72
     2
 11
12817.90408052569
 21
2290.804976716086
 31
0.0
100
AcDbText
  0
LINE
  5
18904
330
125AA
100
AcDbEntity
  8
HIKIDASHI
100
AcDbLine
 10
12073.23363223807
 20
3067.661600164834
 30
0.0
 11
12657.27442780204
 21
3067.661600164834
 31
0.0
  0
TEXT
  5
18905
330
125AA
100
AcDbEntity
  8
HIKIDASHI
100
AcDbText
 10
12092.52363003481
 20
3112.661600164834
 30
0.0
 40
90.0
  1
プレ－ト
  7
01
 72
     2
 11
12482.5236300348
 21
3112.661600164834
 31
0.0
100
AcDbText
  0
TEXT
  5
18906
330
125AA
100
AcDbEntity
  8
HIKIDASHI
100
AcDbText
 10
12520.97881071722
 20
3112.661600164834
 30
0.0
 40
90.0
  1
6
 41
0.6666666666666666
  7
00
 72
     2
 11
12569.55023928865
 21
3112.661600164834
 31
0.0
100
AcDbText
  0
TEXT
  5
18907
330
125AA
100
AcDbEntity
  8
HIKIDASHI
100
AcDbText
 10
12606.97646118922
 20
3126.647348600799
 30
0.0
 40
89.99999909999997
  1
t
 41
0.6700000000000001
  7
00
100
AcDbText
  0
TEXT
  5
1890A
330
125AA
100
AcDbEntity
  8
SUNPOU
100
AcDbText
 10
5757.491760556316
 20
2578.884705856378
 30
0.0
 40
90.0
  1
5-D13×5-D13
 41
0.6700000000000001
  7
01
 72
     4
 11
6100.914617699173
 21
2623.884705856378
 31
0.0
100
AcDbText
  0
TEXT
  5
1890B
330
125AA
100
AcDbEntity
  8
SUNPOU
100
AcDbText
 10
5892.60747484203
 20
2713.884705856378
 30
0.0
 40
90.0
  1
ベース筋
  7
01
 72
     4
 11
6096.60747484203
 21
2758.884705856378
 31
0.0
100
AcDbText
  0
TEXT
  5
1890C
330
125AA
100
AcDbEntity
  8
SUNPOU
100
AcDbText
 10
9537.817961079962
 20
2578.884705856383
 30
0.0
 40
90.0
  1
5-D13×5-D13
 41
0.6700000000000001
  7
01
 72
     4
 11
9881.240818222821
 21
2623.884705856383
 31
0.0
100
AcDbText
  0
TEXT
  5
1890D
330
125AA
100
AcDbEntity
  8
SUNPOU
100
AcDbText
 10
9672.933675365676
 20
2713.884705856383
 30
0.0
 40
90.0
  1
ベース筋
  7
01
 72
     4
 11
9876.933675365677
 21
2758.884705856383
 31
0.0
100
AcDbText
  0
LINE
  5
1890E
330
125AA
100
AcDbEntity
  8
HATCH
100
AcDbLine
 10
5427.726846493639
 20
2560.684839419602
 30
0.0
 11
5520.102889160304
 21
2720.684839419603
 31
0.0
  0
LINE
  5
1890F
330
125AA
100
AcDbEntity
  8
HATCH
100
AcDbLine
 10
5466.769555826971
 20
2720.684839419603
 30
0.0
 11
5493.436222493635
 21
2674.496816752938
 31
0.0
  0
LINE
  5
18910
330
125AA
100
AcDbEntity
  8
HATCH
100
AcDbLine
 10
5454.393513160304
 20
2606.872860752932
 30
0.0
 11
5481.060179826972
 21
2560.684839419602
 31
0.0
  0
LINE
  5
18911
330
125AA
100
AcDbEntity
  8
HATCH
100
AcDbLine
 10
8608.053047017287
 20
2560.684839419606
 30
0.0
 11
8700.429089683948
 21
2720.684839419607
 31
0.0
  0
LINE
  5
18912
330
125AA
100
AcDbEntity
  8
HATCH
100
AcDbLine
 10
8647.095756350616
 20
2720.684839419607
 30
0.0
 11
8673.762423017285
 21
2674.496816752943
 31
0.0
  0
LINE
  5
18913
330
125AA
100
AcDbEntity
  8
HATCH
100
AcDbLine
 10
8634.719713683949
 20
2606.872860752937
 30
0.0
 11
8661.386380350618
 21
2560.684839419606
 31
0.0
  0
LINE
  5
18914
330
125AA
100
AcDbEntity
  8
HATCH
100
AcDbLine
 10
8434.719713683952
 20
2606.872860752937
 30
0.0
 11
8461.386380350615
 21
2560.684839419606
 31
0.0
  0
LINE
  5
18915
330
125AA
100
AcDbEntity
  8
HATCH
100
AcDbLine
 10
8447.095756350616
 20
2720.684839419607
 30
0.0
 11
8473.762423017284
 21
2674.496816752943
 31
0.0
  0
LINE
  5
18916
330
125AA
100
AcDbEntity
  8
HATCH
100
AcDbLine
 10
8234.719713683951
 20
2606.872860752937
 30
0.0
 11
8261.386380350618
 21
2560.684839419606
 31
0.0
  0
LINE
  5
18917
330
125AA
100
AcDbEntity
  8
HATCH
100
AcDbLine
 10
8208.053047017285
 20
2560.684839419606
 30
0.0
 11
8300.42908968395
 21
2720.684839419607
 31
0.0
  0
LINE
  5
18918
330
125AA
100
AcDbEntity
  8
HATCH
100
AcDbLine
 10
8247.095756350615
 20
2720.684839419607
 30
0.0
 11
8273.762423017284
 21
2674.496816752943
 31
0.0
  0
LINE
  5
18919
330
125AA
100
AcDbEntity
  8
HATCH
100
AcDbLine
 10
8034.719713683951
 20
2606.872860752937
 30
0.0
 11
8061.386380350619
 21
2560.684839419606
 31
0.0
  0
LINE
  5
1891A
330
125AA
100
AcDbEntity
  8
HATCH
100
AcDbLine
 10
8047.095756350616
 20
2720.684839419607
 30
0.0
 11
8073.762423017283
 21
2674.496816752943
 31
0.0
  0
LINE
  5
1891B
330
125AA
100
AcDbEntity
  8
HATCH
100
AcDbLine
 10
8008.053047017284
 20
2560.684839419606
 30
0.0
 11
8100.429089683949
 21
2720.684839419607
 31
0.0
  0
LINE
  5
1891C
330
125AA
100
AcDbEntity
  8
HATCH
100
AcDbLine
 10
8408.053047017288
 20
2560.684839419606
 30
0.0
 11
8500.429089683949
 21
2720.684839419607
 31
0.0
  0
LINE
  5
1891D
330
125AA
100
AcDbEntity
  8
HATCH
100
AcDbLine
 10
8847.095756350617
 20
2720.684839419607
 30
0.0
 11
8873.762423017284
 21
2674.496816752943
 31
0.0
  0
LINE
  5
1891E
330
125AA
100
AcDbEntity
  8
HATCH
100
AcDbLine
 10
8808.053047017287
 20
2560.684839419606
 30
0.0
 11
8900.429089683949
 21
2720.684839419607
 31
0.0
  0
LINE
  5
1891F
330
125AA
100
AcDbEntity
  8
HATCH
100
AcDbLine
 10
8834.71971368395
 20
2606.872860752937
 30
0.0
 11
8861.386380350618
 21
2560.684839419606
 31
0.0
  0
LINE
  5
18920
330
125AA
100
AcDbEntity
  8
HATCH
100
AcDbLine
 10
9008.053047017288
 20
2560.684839419606
 30
0.0
 11
9100.429089683949
 21
2720.684839419607
 31
0.0
  0
LINE
  5
18921
330
125AA
100
AcDbEntity
  8
HATCH
100
AcDbLine
 10
9047.095756350616
 20
2720.684839419607
 30
0.0
 11
9073.762423017283
 21
2674.496816752943
 31
0.0
  0
LINE
  5
18922
330
125AA
100
AcDbEntity
  8
HATCH
100
AcDbLine
 10
9034.71971368395
 20
2606.872860752937
 30
0.0
 11
9061.386380350617
 21
2560.684839419606
 31
0.0
  0
LINE
  5
18923
330
125AA
100
AcDbEntity
  8
HATCH
100
AcDbLine
 10
7847.095756350616
 20
2720.684839419607
 30
0.0
 11
7873.762423017284
 21
2674.496816752943
 31
0.0
  0
LINE
  5
18924
330
125AA
100
AcDbEntity
  8
HATCH
100
AcDbLine
 10
7808.053047017286
 20
2560.684839419606
 30
0.0
 11
7900.429089683949
 21
2720.684839419607
 31
0.0
  0
LINE
  5
18925
330
125AA
100
AcDbEntity
  8
HATCH
100
AcDbLine
 10
7834.719713683951
 20
2606.872860752937
 30
0.0
 11
7861.386380350619
 21
2560.684839419606
 31
0.0
  0
LINE
  5
18926
330
125AA
100
AcDbEntity
  8
HATCH
100
AcDbLine
 10
9208.053047017283
 20
2560.684839419606
 30
0.0
 11
9300.42908968395
 21
2720.684839419607
 31
0.0
  0
LINE
  5
18927
330
125AA
100
AcDbEntity
  8
HATCH
100
AcDbLine
 10
9247.095756350615
 20
2720.684839419607
 30
0.0
 11
9273.762423017284
 21
2674.496816752943
 31
0.0
  0
LINE
  5
18928
330
125AA
100
AcDbEntity
  8
HATCH
100
AcDbLine
 10
9234.719713683949
 20
2606.872860752937
 30
0.0
 11
9261.386380350618
 21
2560.684839419606
 31
0.0
  0
TEXT
  5
18CAA
330
125AA
100
AcDbEntity
  8
NAME
100
AcDbText
 10
11227.73587134625
 20
1055.0
 30
0.0
 40
120.0
  1
ヨド自転車置場　　　    型
  7
01
100
AcDbText
  0
TEXT
  5
18CAB
330
125AA
100
AcDbEntity
  8
NAME
100
AcDbText
 10
12303.32857318295
 20
1055.0
 30
0.0
 40
120.0
  1
Y O K C S
 41
0.6666666666666666
  7
00
100
AcDbText
  0
LINE
  5
18CFD
330
125AA
100
AcDbEntity
  8
HIKIDASHI
100
AcDbLine
 10
5702.626424666976
 20
3920.485411556192
 30
0.0
 11
5333.860047839355
 21
3920.485411556192
 31
0.0
  0
TEXT
  5
18CFE
330
125AA
100
AcDbEntity
  8
HIKIDASHI
100
AcDbText
 10
5366.927655431265
 20
3965.485411556191
 30
0.0
 40
90.0
  1
土　間
  7
01
 72
     2
 11
5660.927655431265
 21
4010.48541155619
 31
0.0
100
AcDbText
 73
     2
  0
TEXT
  5
18D4D
330
125AA
100
AcDbEntity
  8
FILENAME
100
AcDbText
 10
13873.42857142857
 20
174.0
 30
0.0
 40
100.0
  1
＜YOKCS-280-A_3_JIS_GL.DXF ＞
  7
FILENAME
 72
     2
 11
16382.0
 21
174.0
 31
0.0
100
AcDbText
  0
LINE
  5
18D54
330
125AA
100
AcDbEntity
  8
WAKUSEN-01
100
AcDbLine
 10
434.0000000000008
 20
413.9999999999997
 30
0.0
 11
16382.0
 21
413.9999999999997
 31
0.0
  0
LINE
  5
18D55
330
125AA
100
AcDbEntity
  8
WAKUSEN-01
100
AcDbLine
 10
434.0000000000008
 20
11242.0
 30
0.0
 11
16382.0
 21
11242.0
 31
0.0
  0
LINE
  5
18D56
330
125AA
100
AcDbEntity
  8
WAKUSEN-01
100
AcDbLine
 10
434.0000000000008
 20
413.9999999999997
 30
0.0
 11
434.0000000000008
 21
11242.0
 31
0.0
  0
LINE
  5
18D57
330
125AA
100
AcDbEntity
  8
WAKUSEN-01
100
AcDbLine
 10
16382.0
 20
413.9999999999997
 30
0.0
 11
16382.0
 21
11242.0
 31
0.0
  0
LINE
  5
18D58
330
125AA
100
AcDbEntity
  8
WAKUSEN-01
100
AcDbLine
 10
10280.0
 20
1242.0
 30
0.0
 11
16382.0
 21
1242.0
 31
0.0
  0
LINE
  5
18D59
330
125AA
100
AcDbEntity
  8
WAKUSEN-02
100
AcDbLine
 10
10280.0
 20
827.9999999999997
 30
0.0
 11
13434.0
 21
827.9999999999997
 31
0.0
  0
TEXT
  5
18D5A
330
125AA
100
AcDbEntity
  8
WAKUMOJI-01
100
AcDbText
 10
10335.13012998137
 20
1062.951504669661
 30
0.0
 40
120.0
  1
名　称
  7
WAKUMOJI
100
AcDbText
  0
TEXT
  5
18D5B
330
125AA
100
AcDbEntity
  8
WAKUMOJI-01
100
AcDbText
 10
10328.25274254596
 20
659.5644874899107
 30
0.0
 40
120.0
  1
機種名
  7
WAKUMOJI
100
AcDbText
  0
LINE
  5
18D5C
330
125AA
100
AcDbEntity
  8
WAKUSEN-01
100
AcDbLine
 10
10280.0
 20
413.9999999999986
 30
0.0
 11
10280.0
 21
1242.0
 31
0.0
  0
LINE
  5
18D5D
330
125AA
100
AcDbEntity
  8
WAKUSEN-02
100
AcDbLine
 10
13434.0
 20
413.9999999999963
 30
0.0
 11
13434.0
 21
1242.0
 31
0.0
  0
LINE
  5
18D5E
330
125AA
100
AcDbEntity
  8
YODOROGO
100
AcDbLine
 10
14988.80217064596
 20
997.8747482146435
 30
0.0
 11
14914.80217064596
 21
997.8747482146435
 31
0.0
1001
AUTOCAD_POSTSCRIPT_FIGURE
1002
{
1000
PSFILL
1000
Grayscale
1000
Grayscale
1070
    25
1002
}
  0
LINE
  5
18D5F
330
125AA
100
AcDbEntity
  8
YODOROGO
100
AcDbLine
 10
14914.80217064596
 20
973.8747482146436
 30
0.0
 11
14988.80217064596
 21
973.8747482146436
 31
0.0
1001
AUTOCAD_POSTSCRIPT_FIGURE
1002
{
1000
PSFILL
1000
Grayscale
1000
Grayscale
1070
    25
1002
}
  0
LINE
  5
18D60
330
125AA
100
AcDbEntity
  8
YODOROGO
100
AcDbLine
 10
14988.80217064596
 20
953.874748214644
 30
0.0
 11
14914.80217064596
 21
953.874748214644
 31
0.0
1001
AUTOCAD_POSTSCRIPT_FIGURE
1002
{
1000
PSFILL
1000
Grayscale
1000
Grayscale
1070
    25
1002
}
  0
LINE
  5
18D61
330
125AA
100
AcDbEntity
  8
YODOROGO
100
AcDbLine
 10
14914.80217064596
 20
929.874748214644
 30
0.0
 11
14988.80217064596
 21
929.874748214644
 31
0.0
1001
AUTOCAD_POSTSCRIPT_FIGURE
1002
{
1000
PSFILL
1000
Grayscale
1000
Grayscale
1070
    25
1002
}
  0
LINE
  5
18D62
330
125AA
100
AcDbEntity
  8
YODOROGO
100
AcDbLine
 10
14988.80217064596
 20
909.8747482146439
 30
0.0
 11
14914.80217064596
 21
909.8747482146439
 31
0.0
1001
AUTOCAD_POSTSCRIPT_FIGURE
1002
{
1000
PSFILL
1000
Grayscale
1000
Grayscale
1070
    25
1002
}
  0
LINE
  5
18D63
330
125AA
100
AcDbEntity
  8
YODOROGO
100
AcDbLine
 10
14960.80217064594
 20
853.8747482146439
 30
0.0
 11
14988.80217064596
 21
853.8747482146439
 31
0.0
1001
AUTOCAD_POSTSCRIPT_FIGURE
1002
{
1000
PSFILL
1000
Grayscale
1000
Grayscale
1070
    25
1002
}
  0
LINE
  5
18D64
330
125AA
100
AcDbEntity
  8
YODOROGO
100
AcDbLine
 10
14868.80217064596
 20
713.8747482146436
 30
0.0
 11
14968.80217064596
 21
740.6696674577553
 31
0.0
  0
LINE
  5
18D65
330
125AA
100
AcDbEntity
  8
YODOROGO
100
AcDbLine
 10
14974.80217064595
 20
853.8747482146439
 30
0.0
 11
14942.80217064596
 21
853.8747482146439
 31
0.0
  0
ARC
  5
18D66
330
125AA
100
AcDbEntity
  8
YODOROGO
100
AcDbCircle
 10
15127.17387491395
 20
903.9323046166312
 30
0.0
 40
190.9434321028236
100
AcDbArc
 50
213.9611167766784
 51
264.4787207431779
  0
ARC
  5
18D67
330
125AA
100
AcDbEntity
  8
YODOROGO
100
AcDbCircle
 10
15127.17387491396
 20
903.9323046166513
 30
0.0
 40
190.9434321028408
100
AcDbArc
 50
208.141144204866
 51
212.9210361185995
  0
LINE
  5
18D68
330
125AA
100
AcDbEntity
  8
YODOROGO
100
AcDbLine
 10
14885.70493649264
 20
778.403830673117
 30
0.0
 11
14966.89206625426
 21
800.1578565285436
 31
0.0
  0
LINE
  5
18D69
330
125AA
100
AcDbEntity
  8
YODOROGO
100
AcDbLine
 10
14868.80217064596
 20
713.8747482146436
 30
0.0
 11
14968.80217064596
 21
740.6696674577553
 31
0.0
  0
LINE
  5
18D6A
330
125AA
100
AcDbEntity
  8
YODOROGO
100
AcDbLine
 10
14974.80217064595
 20
853.8747482146439
 30
0.0
 11
14942.80217064596
 21
853.8747482146439
 31
0.0
  0
ARC
  5
18D6B
330
125AA
100
AcDbEntity
  8
YODOROGO
100
AcDbCircle
 10
15127.17387491395
 20
903.9323046166312
 30
0.0
 40
190.9434321028236
100
AcDbArc
 50
213.9611167766784
 51
264.4787207431779
  0
LINE
  5
18D6C
330
125AA
100
AcDbEntity
  8
YODOROGO
100
AcDbLine
 10
14396.80217064594
 20
909.8747482146439
 30
0.0
 11
14216.80217064595
 21
909.8747482146439
 31
0.0
  0
LINE
  5
18D6D
330
125AA
100
AcDbEntity
  8
YODOROGO
100
AcDbLine
 10
14256.80217064595
 20
713.8747482146436
 30
0.0
 11
14396.80217064594
 21
713.8747482146436
 31
0.0
  0
LINE
  5
18D6E
330
125AA
100
AcDbEntity
  8
YODOROGO
100
AcDbLine
 10
14364.80217064596
 20
961.8747482146432
 30
0.0
 11
14248.80217064595
 21
961.8747482146432
 31
0.0
  0
LINE
  5
18D6F
330
125AA
100
AcDbEntity
  8
YODOROGO
100
AcDbLine
 10
14292.80217064596
 20
1013.874748214644
 30
0.0
 11
14328.80217064596
 21
1013.874748214644
 31
0.0
  0
LINE
  5
18D70
330
125AA
100
AcDbEntity
  8
YODOROGO
100
AcDbLine
 10
14216.80217064595
 20
853.8747482146439
 30
0.0
 11
14216.80217064595
 21
753.8747482146439
 31
0.0
  0
LINE
  5
18D71
330
125AA
100
AcDbEntity
  8
YODOROGO
100
AcDbLine
 10
14248.80217064595
 20
781.8747482146434
 30
0.0
 11
14248.80217064595
 21
853.8747482146439
 31
0.0
  0
LINE
  5
18D72
330
125AA
100
AcDbEntity
  8
YODOROGO
100
AcDbLine
 10
14292.80217064596
 20
873.8747482146449
 30
0.0
 11
14292.80217064596
 21
773.8747482146439
 31
0.0
  0
LINE
  5
18D73
330
125AA
100
AcDbEntity
  8
YODOROGO
100
AcDbLine
 10
13928.80217064596
 20
841.8747482146445
 30
0.0
 11
13888.80217064596
 21
809.9862070222856
 31
0.0
  0
LINE
  5
18D74
330
125AA
100
AcDbEntity
  8
YODOROGO
100
AcDbLine
 10
13968.80217064596
 20
809.9862070222856
 30
0.0
 11
13928.80217064596
 21
841.8747482146445
 31
0.0
  0
LINE
  5
18D75
330
125AA
100
AcDbEntity
  8
YODOROGO
100
AcDbLine
 10
13928.80217064596
 20
853.8747482146439
 30
0.0
 11
13968.80217064596
 21
821.986207022285
 31
0.0
  0
LINE
  5
18D76
330
125AA
100
AcDbEntity
  8
YODOROGO
100
AcDbLine
 10
13888.80217064596
 20
821.986207022285
 30
0.0
 11
13928.80217064596
 21
853.8747482146439
 31
0.0
  0
LINE
  5
18D77
330
125AA
100
AcDbEntity
  8
YODOROGO
100
AcDbLine
 10
14020.45660200845
 20
829.874748214644
 30
0.0
 11
14020.45660200845
 21
841.8747482146434
 31
0.0
  0
LINE
  5
18D78
330
125AA
100
AcDbEntity
  8
YODOROGO
100
AcDbLine
 10
13988.80217064596
 20
841.8747482146434
 30
0.0
 11
13988.80217064596
 21
833.8747482146427
 31
0.0
  0
LINE
  5
18D79
330
125AA
100
AcDbEntity
  8
YODOROGO
100
AcDbLine
 10
14049.06776011545
 20
853.8747482146439
 30
0.0
 11
14049.06776011545
 21
827.751818637328
 31
0.0
1001
AUTOCAD_POSTSCRIPT_FIGURE
1002
{
1000
PSFILL
1000
Grayscale
1000
Grayscale
1070
   100
1002
}
  0
LINE
  5
18D7A
330
125AA
100
AcDbEntity
  8
YODOROGO
100
AcDbLine
 10
14041.06776011546
 20
827.751818637328
 30
0.0
 11
14041.06776011546
 21
853.8747482146439
 31
0.0
1001
AUTOCAD_POSTSCRIPT_FIGURE
1002
{
1000
PSFILL
1000
Grayscale
1000
Grayscale
1070
   100
1002
}
  0
LINE
  5
18D7B
330
125AA
100
AcDbEntity
  8
YODOROGO
100
AcDbLine
 10
13904.80217064596
 20
804.3859520216292
 30
0.0
 11
13904.80217064596
 21
816.3859520216298
 31
0.0
  0
LINE
  5
18D7C
330
125AA
100
AcDbEntity
  8
YODOROGO
100
AcDbLine
 10
13952.80217064596
 20
804.3859520216292
 30
0.0
 11
13904.80217064596
 21
804.3859520216292
 31
0.0
  0
LINE
  5
18D7D
330
125AA
100
AcDbEntity
  8
YODOROGO
100
AcDbLine
 10
13952.80217064596
 20
816.3859520216298
 30
0.0
 11
13952.80217064596
 21
804.3859520216292
 31
0.0
  0
LINE
  5
18D7E
330
125AA
100
AcDbEntity
  8
YODOROGO
100
AcDbLine
 10
13904.80217064596
 20
816.3859520216298
 30
0.0
 11
13952.80217064596
 21
816.3859520216298
 31
0.0
  0
LINE
  5
18D7F
330
125AA
100
AcDbEntity
  8
YODOROGO
100
AcDbLine
 10
13912.25479445787
 20
784.2514286852374
 30
0.0
 11
13892.80217064596
 21
737.8747482146437
 31
0.0
1001
AUTOCAD_POSTSCRIPT_FIGURE
1002
{
1000
PSFILL
1000
Grayscale
1000
Grayscale
1070
   100
1002
}
  0
LINE
  5
18D80
330
125AA
100
AcDbEntity
  8
YODOROGO
100
AcDbLine
 10
13888.80217064596
 20
784.2514286852374
 30
0.0
 11
13912.25479445787
 21
784.2514286852374
 31
0.0
1001
AUTOCAD_POSTSCRIPT_FIGURE
1002
{
1000
PSFILL
1000
Grayscale
1000
Grayscale
1070
   100
1002
}
  0
LINE
  5
18D81
330
125AA
100
AcDbEntity
  8
YODOROGO
100
AcDbLine
 10
13888.80217064596
 20
794.2514286852374
 30
0.0
 11
13888.80217064596
 21
784.2514286852374
 31
0.0
1001
AUTOCAD_POSTSCRIPT_FIGURE
1002
{
1000
PSFILL
1000
Grayscale
1000
Grayscale
1070
   100
1002
}
  0
LINE
  5
18D82
330
125AA
100
AcDbEntity
  8
YODOROGO
100
AcDbLine
 10
13968.80217064596
 20
794.2514286852374
 30
0.0
 11
13888.80217064596
 21
794.2514286852374
 31
0.0
1001
AUTOCAD_POSTSCRIPT_FIGURE
1002
{
1000
PSFILL
1000
Grayscale
1000
Grayscale
1070
   100
1002
}
  0
LINE
  5
18D83
330
125AA
100
AcDbEntity
  8
YODOROGO
100
AcDbLine
 10
13968.80217064596
 20
784.2514286852374
 30
0.0
 11
13968.80217064596
 21
794.2514286852374
 31
0.0
1001
AUTOCAD_POSTSCRIPT_FIGURE
1002
{
1000
PSFILL
1000
Grayscale
1000
Grayscale
1070
   100
1002
}
  0
LINE
  5
18D84
330
125AA
100
AcDbEntity
  8
YODOROGO
100
AcDbLine
 10
13922.25479445787
 20
784.2514286852374
 30
0.0
 11
13968.80217064596
 21
784.2514286852374
 31
0.0
1001
AUTOCAD_POSTSCRIPT_FIGURE
1002
{
1000
PSFILL
1000
Grayscale
1000
Grayscale
1070
   100
1002
}
  0
LINE
  5
18D85
330
125AA
100
AcDbEntity
  8
YODOROGO
100
AcDbLine
 10
13907.77335914239
 20
747.8747482146435
 30
0.0
 11
13922.25479445787
 21
784.2514286852374
 31
0.0
1001
AUTOCAD_POSTSCRIPT_FIGURE
1002
{
1000
PSFILL
1000
Grayscale
1000
Grayscale
1070
   100
1002
}
  0
LINE
  5
18D86
330
125AA
100
AcDbEntity
  8
YODOROGO
100
AcDbLine
 10
13951.02739540432
 20
747.8747482146435
 30
0.0
 11
13907.77335914239
 21
747.8747482146435
 31
0.0
1001
AUTOCAD_POSTSCRIPT_FIGURE
1002
{
1000
PSFILL
1000
Grayscale
1000
Grayscale
1070
   100
1002
}
  0
LINE
  5
18D87
330
125AA
100
AcDbEntity
  8
YODOROGO
100
AcDbLine
 10
13942.53250239547
 20
768.1169053488464
 30
0.0
 11
13951.02739540432
 21
747.8747482146435
 31
0.0
1001
AUTOCAD_POSTSCRIPT_FIGURE
1002
{
1000
PSFILL
1000
Grayscale
1000
Grayscale
1070
   100
1002
}
  0
LINE
  5
18D88
330
125AA
100
AcDbEntity
  8
YODOROGO
100
AcDbLine
 10
13950.53250239547
 20
768.1169053488464
 30
0.0
 11
13942.53250239547
 21
768.1169053488464
 31
0.0
1001
AUTOCAD_POSTSCRIPT_FIGURE
1002
{
1000
PSFILL
1000
Grayscale
1000
Grayscale
1070
   100
1002
}
  0
LINE
  5
18D89
330
125AA
100
AcDbEntity
  8
YODOROGO
100
AcDbLine
 10
13964.80217064596
 20
737.8747482146437
 30
0.0
 11
13950.53250239547
 21
768.1169053488464
 31
0.0
1001
AUTOCAD_POSTSCRIPT_FIGURE
1002
{
1000
PSFILL
1000
Grayscale
1000
Grayscale
1070
   100
1002
}
  0
LINE
  5
18D8A
330
125AA
100
AcDbEntity
  8
YODOROGO
100
AcDbLine
 10
13892.80217064596
 20
737.8747482146437
 30
0.0
 11
13964.80217064596
 21
737.8747482146437
 31
0.0
1001
AUTOCAD_POSTSCRIPT_FIGURE
1002
{
1000
PSFILL
1000
Grayscale
1000
Grayscale
1070
   100
1002
}
  0
LINE
  5
18D8B
330
125AA
100
AcDbEntity
  8
YODOROGO
100
AcDbLine
 10
13888.80217064596
 20
809.9862070222856
 30
0.0
 11
13888.80217064596
 21
821.986207022285
 31
0.0
  0
LINE
  5
18D8C
330
125AA
100
AcDbEntity
  8
YODOROGO
100
AcDbLine
 10
13968.80217064596
 20
821.986207022285
 30
0.0
 11
13968.80217064596
 21
809.9862070222856
 31
0.0
  0
ARC
  5
18D8D
330
125AA
100
AcDbEntity
  8
YODOROGO
100
AcDbCircle
 10
14112.97022107348
 20
800.438882662663
 30
0.0
 40
87.99999999999995
100
AcDbArc
 50
280.3644312771313
 51
3.541483659218056
  0
ARC
  5
18D8E
330
125AA
100
AcDbEntity
  8
YODOROGO
100
AcDbCircle
 10
14117.87801537965
 20
816.7989034809522
 30
0.0
 40
55.99999999999916
100
AcDbArc
 50
281.2490582504155
 51
348.7509417495832
  0
LINE
  5
18D8F
330
125AA
100
AcDbEntity
  8
YODOROGO
100
AcDbLine
 10
14128.80217064596
 20
761.8747482146434
 30
0.0
 11
14128.80217064596
 21
713.8747482146436
 31
0.0
  0
LINE
  5
18D90
330
125AA
100
AcDbEntity
  8
YODOROGO
100
AcDbLine
 10
14010.04445186844
 20
805.3252825309574
 30
0.0
 11
14020.45660200845
 21
829.874748214644
 31
0.0
  0
LINE
  5
18D91
330
125AA
100
AcDbEntity
  8
YODOROGO
100
AcDbLine
 10
14020.80217064596
 20
791.5602449742006
 30
0.0
 11
14010.04445186844
 21
805.3252825309574
 31
0.0
  0
LINE
  5
18D92
330
125AA
100
AcDbEntity
  8
YODOROGO
100
AcDbLine
 10
14020.80217064596
 20
781.5602449741995
 30
0.0
 11
14020.80217064596
 21
791.5602449742006
 31
0.0
  0
LINE
  5
18D93
330
125AA
100
AcDbEntity
  8
YODOROGO
100
AcDbLine
 10
14008.80217064596
 20
792.6185318747652
 30
0.0
 11
14020.80217064596
 21
781.5602449741995
 31
0.0
  0
LINE
  5
18D94
330
125AA
100
AcDbEntity
  8
YODOROGO
100
AcDbLine
 10
14008.80217064596
 20
737.8747482146437
 30
0.0
 11
14008.80217064596
 21
792.6185318747652
 31
0.0
  0
LINE
  5
18D95
330
125AA
100
AcDbEntity
  8
YODOROGO
100
AcDbLine
 10
14000.80217064596
 20
737.8747482146437
 30
0.0
 11
14008.80217064596
 21
737.8747482146437
 31
0.0
  0
LINE
  5
18D96
330
125AA
100
AcDbEntity
  8
YODOROGO
100
AcDbLine
 10
14000.80217064596
 20
790.0026748448738
 30
0.0
 11
14000.80217064596
 21
737.8747482146437
 31
0.0
  0
LINE
  5
18D97
330
125AA
100
AcDbEntity
  8
YODOROGO
100
AcDbLine
 10
13988.80217064596
 20
766.3840395167142
 30
0.0
 11
14000.80217064596
 21
790.0026748448738
 31
0.0
  0
LINE
  5
18D98
330
125AA
100
AcDbEntity
  8
YODOROGO
100
AcDbLine
 10
13988.80217064596
 20
778.3840395167149
 30
0.0
 11
13988.80217064596
 21
766.3840395167142
 31
0.0
  0
LINE
  5
18D99
330
125AA
100
AcDbEntity
  8
YODOROGO
100
AcDbLine
 10
14012.91438714567
 20
833.8747482146427
 30
0.0
 11
13988.80217064596
 21
778.3840395167149
 31
0.0
  0
LINE
  5
18D9A
330
125AA
100
AcDbEntity
  8
YODOROGO
100
AcDbLine
 10
13988.80217064596
 20
833.8747482146427
 30
0.0
 11
14012.91438714567
 21
833.8747482146427
 31
0.0
  0
LINE
  5
18D9B
330
125AA
100
AcDbEntity
  8
YODOROGO
100
AcDbLine
 10
14025.06776011545
 20
827.751818637328
 30
0.0
 11
14041.06776011546
 21
827.751818637328
 31
0.0
1001
AUTOCAD_POSTSCRIPT_FIGURE
1002
{
1000
PSFILL
1000
Grayscale
1000
Grayscale
1070
   100
1002
}
  0
LINE
  5
18D9C
330
125AA
100
AcDbEntity
  8
YODOROGO
100
AcDbLine
 10
14025.06776011545
 20
815.7518186373286
 30
0.0
 11
14025.06776011545
 21
827.751818637328
 31
0.0
1001
AUTOCAD_POSTSCRIPT_FIGURE
1002
{
1000
PSFILL
1000
Grayscale
1000
Grayscale
1070
   100
1002
}
  0
LINE
  5
18D9D
330
125AA
100
AcDbEntity
  8
YODOROGO
100
AcDbLine
 10
14041.06776011546
 20
815.7518186373286
 30
0.0
 11
14025.06776011545
 21
815.7518186373286
 31
0.0
1001
AUTOCAD_POSTSCRIPT_FIGURE
1002
{
1000
PSFILL
1000
Grayscale
1000
Grayscale
1070
   100
1002
}
  0
LINE
  5
18D9E
330
125AA
100
AcDbEntity
  8
YODOROGO
100
AcDbLine
 10
14041.06776011546
 20
749.8747482146441
 30
0.0
 11
14041.06776011546
 21
815.7518186373286
 31
0.0
1001
AUTOCAD_POSTSCRIPT_FIGURE
1002
{
1000
PSFILL
1000
Grayscale
1000
Grayscale
1070
   100
1002
}
  0
LINE
  5
18D9F
330
125AA
100
AcDbEntity
  8
YODOROGO
100
AcDbLine
 10
14025.06776011545
 20
749.8747482146441
 30
0.0
 11
14041.06776011546
 21
749.8747482146441
 31
0.0
1001
AUTOCAD_POSTSCRIPT_FIGURE
1002
{
1000
PSFILL
1000
Grayscale
1000
Grayscale
1070
   100
1002
}
  0
LINE
  5
18DA0
330
125AA
100
AcDbEntity
  8
YODOROGO
100
AcDbLine
 10
14025.06776011545
 20
737.8747482146437
 30
0.0
 11
14025.06776011545
 21
749.8747482146441
 31
0.0
1001
AUTOCAD_POSTSCRIPT_FIGURE
1002
{
1000
PSFILL
1000
Grayscale
1000
Grayscale
1070
   100
1002
}
  0
LINE
  5
18DA1
330
125AA
100
AcDbEntity
  8
YODOROGO
100
AcDbLine
 10
14068.80217064596
 20
737.8747482146437
 30
0.0
 11
14025.06776011545
 21
737.8747482146437
 31
0.0
1001
AUTOCAD_POSTSCRIPT_FIGURE
1002
{
1000
PSFILL
1000
Grayscale
1000
Grayscale
1070
   100
1002
}
  0
LINE
  5
18DA2
330
125AA
100
AcDbEntity
  8
YODOROGO
100
AcDbLine
 10
14068.80217064596
 20
749.8747482146441
 30
0.0
 11
14068.80217064596
 21
737.8747482146437
 31
0.0
1001
AUTOCAD_POSTSCRIPT_FIGURE
1002
{
1000
PSFILL
1000
Grayscale
1000
Grayscale
1070
   100
1002
}
  0
LINE
  5
18DA3
330
125AA
100
AcDbEntity
  8
YODOROGO
100
AcDbLine
 10
14049.06776011545
 20
749.8747482146441
 30
0.0
 11
14068.80217064596
 21
749.8747482146441
 31
0.0
1001
AUTOCAD_POSTSCRIPT_FIGURE
1002
{
1000
PSFILL
1000
Grayscale
1000
Grayscale
1070
   100
1002
}
  0
LINE
  5
18DA4
330
125AA
100
AcDbEntity
  8
YODOROGO
100
AcDbLine
 10
14049.06776011545
 20
815.7518186373286
 30
0.0
 11
14049.06776011545
 21
749.8747482146441
 31
0.0
1001
AUTOCAD_POSTSCRIPT_FIGURE
1002
{
1000
PSFILL
1000
Grayscale
1000
Grayscale
1070
   100
1002
}
  0
LINE
  5
18DA5
330
125AA
100
AcDbEntity
  8
YODOROGO
100
AcDbLine
 10
14068.80217064596
 20
815.7518186373286
 30
0.0
 11
14049.06776011545
 21
815.7518186373286
 31
0.0
1001
AUTOCAD_POSTSCRIPT_FIGURE
1002
{
1000
PSFILL
1000
Grayscale
1000
Grayscale
1070
   100
1002
}
  0
LINE
  5
18DA6
330
125AA
100
AcDbEntity
  8
YODOROGO
100
AcDbLine
 10
14068.80217064596
 20
827.751818637328
 30
0.0
 11
14068.80217064596
 21
815.7518186373286
 31
0.0
1001
AUTOCAD_POSTSCRIPT_FIGURE
1002
{
1000
PSFILL
1000
Grayscale
1000
Grayscale
1070
   100
1002
}
  0
LINE
  5
18DA7
330
125AA
100
AcDbEntity
  8
YODOROGO
100
AcDbLine
 10
14049.06776011545
 20
827.751818637328
 30
0.0
 11
14068.80217064596
 21
827.751818637328
 31
0.0
1001
AUTOCAD_POSTSCRIPT_FIGURE
1002
{
1000
PSFILL
1000
Grayscale
1000
Grayscale
1070
   100
1002
}
  0
LINE
  5
18DA8
330
125AA
100
AcDbEntity
  8
YODOROGO
100
AcDbLine
 10
14200.80217064595
 20
833.8747482146439
 30
0.0
 11
14172.80217064596
 21
833.8747482146439
 31
0.0
  0
LINE
  5
18DA9
330
125AA
100
AcDbEntity
  8
YODOROGO
100
AcDbLine
 10
14200.80217064595
 20
805.8747482146443
 30
0.0
 11
14200.80217064595
 21
833.8747482146439
 31
0.0
  0
LINE
  5
18DAA
330
125AA
100
AcDbEntity
  8
YODOROGO
100
AcDbLine
 10
14172.80217064596
 20
833.8747482146439
 30
0.0
 11
14172.80217064596
 21
805.8747482146443
 31
0.0
  0
ARC
  5
18DAB
330
125AA
100
AcDbEntity
  8
YODOROGO
100
AcDbCircle
 10
14256.80217064595
 20
753.8747482146439
 30
0.0
 40
40.0
100
AcDbArc
 50
180.0
 51
270.0
  0
ARC
  5
18DAC
330
125AA
100
AcDbEntity
  8
YODOROGO
100
AcDbCircle
 10
14268.80217064595
 20
781.8747482146434
 30
0.0
 40
20.0
100
AcDbArc
 50
180.0
 51
270.0
  0
LINE
  5
18DAD
330
125AA
100
AcDbEntity
  8
YODOROGO
100
AcDbLine
 10
14280.80217064596
 20
761.8747482146434
 30
0.0
 11
14268.80217064595
 21
761.8747482146434
 31
0.0
  0
ARC
  5
18DAE
330
125AA
100
AcDbEntity
  8
YODOROGO
100
AcDbCircle
 10
14280.80217064596
 20
773.8747482146427
 30
0.0
 40
11.99999999999818
100
AcDbArc
 50
270.0
 51
0.0000000000054281
  0
LINE
  5
18DAF
330
125AA
100
AcDbEntity
  8
YODOROGO
100
AcDbLine
 10
13900.80217064596
 20
945.3932903968532
 30
0.0
 11
13888.80217064596
 21
921.8883739758362
 31
0.0
1001
AUTOCAD_POSTSCRIPT_FIGURE
1002
{
1000
PSFILL
1000
Grayscale
1000
Grayscale
1070
   100
1002
}
  0
LINE
  5
18DB0
330
125AA
100
AcDbEntity
  8
YODOROGO
100
AcDbLine
 10
13900.80217064596
 20
873.8747482146436
 30
0.0
 11
13900.80217064596
 21
945.3932903968532
 31
0.0
1001
AUTOCAD_POSTSCRIPT_FIGURE
1002
{
1000
PSFILL
1000
Grayscale
1000
Grayscale
1070
   100
1002
}
  0
LINE
  5
18DB1
330
125AA
100
AcDbEntity
  8
YODOROGO
100
AcDbLine
 10
13908.80217064596
 20
873.8747482146436
 30
0.0
 11
13900.80217064596
 21
873.8747482146436
 31
0.0
1001
AUTOCAD_POSTSCRIPT_FIGURE
1002
{
1000
PSFILL
1000
Grayscale
1000
Grayscale
1070
   100
1002
}
  0
LINE
  5
18DB2
330
125AA
100
AcDbEntity
  8
YODOROGO
100
AcDbLine
 10
13908.80217064596
 20
946.8856660426334
 30
0.0
 11
13908.80217064596
 21
873.8747482146436
 31
0.0
1001
AUTOCAD_POSTSCRIPT_FIGURE
1002
{
1000
PSFILL
1000
Grayscale
1000
Grayscale
1070
   100
1002
}
  0
LINE
  5
18DB3
330
125AA
100
AcDbEntity
  8
YODOROGO
100
AcDbLine
 10
13920.80217064596
 20
933.8273791420684
 30
0.0
 11
13908.80217064596
 21
946.8856660426334
 31
0.0
1001
AUTOCAD_POSTSCRIPT_FIGURE
1002
{
1000
PSFILL
1000
Grayscale
1000
Grayscale
1070
   100
1002
}
  0
LINE
  5
18DB4
330
125AA
100
AcDbEntity
  8
YODOROGO
100
AcDbLine
 10
13920.80217064596
 20
941.8273791420681
 30
0.0
 11
13920.80217064596
 21
933.8273791420684
 31
0.0
1001
AUTOCAD_POSTSCRIPT_FIGURE
1002
{
1000
PSFILL
1000
Grayscale
1000
Grayscale
1070
   100
1002
}
  0
LINE
  5
18DB5
330
125AA
100
AcDbEntity
  8
YODOROGO
100
AcDbLine
 10
13908.80217064596
 20
958.8856660426326
 30
0.0
 11
13920.80217064596
 21
941.8273791420681
 31
0.0
1001
AUTOCAD_POSTSCRIPT_FIGURE
1002
{
1000
PSFILL
1000
Grayscale
1000
Grayscale
1070
   100
1002
}
  0
LINE
  5
18DB6
330
125AA
100
AcDbEntity
  8
YODOROGO
100
AcDbLine
 10
13908.80217064596
 20
969.8747482146441
 30
0.0
 11
13908.80217064596
 21
958.8856660426326
 31
0.0
1001
AUTOCAD_POSTSCRIPT_FIGURE
1002
{
1000
PSFILL
1000
Grayscale
1000
Grayscale
1070
   100
1002
}
  0
LINE
  5
18DB7
330
125AA
100
AcDbEntity
  8
YODOROGO
100
AcDbLine
 10
13944.80217064596
 20
969.8747482146441
 30
0.0
 11
13908.80217064596
 21
969.8747482146441
 31
0.0
1001
AUTOCAD_POSTSCRIPT_FIGURE
1002
{
1000
PSFILL
1000
Grayscale
1000
Grayscale
1070
   100
1002
}
  0
LINE
  5
18DB8
330
125AA
100
AcDbEntity
  8
YODOROGO
100
AcDbLine
 10
13944.80217064596
 20
950.2841744681497
 30
0.0
 11
13944.80217064596
 21
969.8747482146441
 31
0.0
1001
AUTOCAD_POSTSCRIPT_FIGURE
1002
{
1000
PSFILL
1000
Grayscale
1000
Grayscale
1070
   100
1002
}
  0
LINE
  5
18DB9
330
125AA
100
AcDbEntity
  8
YODOROGO
100
AcDbLine
 10
13928.80217064596
 20
950.2841744681497
 30
0.0
 11
13944.80217064596
 21
950.2841744681497
 31
0.0
1001
AUTOCAD_POSTSCRIPT_FIGURE
1002
{
1000
PSFILL
1000
Grayscale
1000
Grayscale
1070
   100
1002
}
  0
LINE
  5
18DBA
330
125AA
100
AcDbEntity
  8
YODOROGO
100
AcDbLine
 10
13928.80217064596
 20
942.2841744681491
 30
0.0
 11
13928.80217064596
 21
950.2841744681497
 31
0.0
1001
AUTOCAD_POSTSCRIPT_FIGURE
1002
{
1000
PSFILL
1000
Grayscale
1000
Grayscale
1070
   100
1002
}
  0
LINE
  5
18DBB
330
125AA
100
AcDbEntity
  8
YODOROGO
100
AcDbLine
 10
13944.80217064596
 20
942.2841744681491
 30
0.0
 11
13928.80217064596
 21
942.2841744681491
 31
0.0
1001
AUTOCAD_POSTSCRIPT_FIGURE
1002
{
1000
PSFILL
1000
Grayscale
1000
Grayscale
1070
   100
1002
}
  0
LINE
  5
18DBC
330
125AA
100
AcDbEntity
  8
YODOROGO
100
AcDbLine
 10
13944.80217064596
 20
939.8095889822197
 30
0.0
 11
13944.80217064596
 21
942.2841744681491
 31
0.0
1001
AUTOCAD_POSTSCRIPT_FIGURE
1002
{
1000
PSFILL
1000
Grayscale
1000
Grayscale
1070
   100
1002
}
  0
LINE
  5
18DBD
330
125AA
100
AcDbEntity
  8
YODOROGO
100
AcDbLine
 10
13924.80217064596
 20
906.4874905807087
 30
0.0
 11
13944.80217064596
 21
939.8095889822197
 31
0.0
1001
AUTOCAD_POSTSCRIPT_FIGURE
1002
{
1000
PSFILL
1000
Grayscale
1000
Grayscale
1070
   100
1002
}
  0
LINE
  5
18DBE
330
125AA
100
AcDbEntity
  8
YODOROGO
100
AcDbLine
 10
13924.80217064596
 20
898.487490580708
 30
0.0
 11
13924.80217064596
 21
906.4874905807087
 31
0.0
1001
AUTOCAD_POSTSCRIPT_FIGURE
1002
{
1000
PSFILL
1000
Grayscale
1000
Grayscale
1070
   100
1002
}
  0
LINE
  5
18DBF
330
125AA
100
AcDbEntity
  8
YODOROGO
100
AcDbLine
 10
13944.80217064596
 20
923.8095889822183
 30
0.0
 11
13924.80217064596
 21
898.487490580708
 31
0.0
1001
AUTOCAD_POSTSCRIPT_FIGURE
1002
{
1000
PSFILL
1000
Grayscale
1000
Grayscale
1070
   100
1002
}
  0
LINE
  5
18DC0
330
125AA
100
AcDbEntity
  8
YODOROGO
100
AcDbLine
 10
13944.80217064596
 20
873.8747482146436
 30
0.0
 11
13944.80217064596
 21
923.8095889822183
 31
0.0
1001
AUTOCAD_POSTSCRIPT_FIGURE
1002
{
1000
PSFILL
1000
Grayscale
1000
Grayscale
1070
   100
1002
}
  0
LINE
  5
18DC1
330
125AA
100
AcDbEntity
  8
YODOROGO
100
AcDbLine
 10
13952.80217064596
 20
873.8747482146436
 30
0.0
 11
13944.80217064596
 21
873.8747482146436
 31
0.0
1001
AUTOCAD_POSTSCRIPT_FIGURE
1002
{
1000
PSFILL
1000
Grayscale
1000
Grayscale
1070
   100
1002
}
  0
LINE
  5
18DC2
330
125AA
100
AcDbEntity
  8
YODOROGO
100
AcDbLine
 10
13952.80217064596
 20
924.7045060794032
 30
0.0
 11
13952.80217064596
 21
873.8747482146436
 31
0.0
1001
AUTOCAD_POSTSCRIPT_FIGURE
1002
{
1000
PSFILL
1000
Grayscale
1000
Grayscale
1070
   100
1002
}
  0
LINE
  5
18DC3
330
125AA
100
AcDbEntity
  8
YODOROGO
100
AcDbLine
 10
13968.80217064596
 20
898.487490580708
 30
0.0
 11
13952.80217064596
 21
924.7045060794032
 31
0.0
1001
AUTOCAD_POSTSCRIPT_FIGURE
1002
{
1000
PSFILL
1000
Grayscale
1000
Grayscale
1070
   100
1002
}
  0
LINE
  5
18DC4
330
125AA
100
AcDbEntity
  8
YODOROGO
100
AcDbLine
 10
13968.80217064596
 20
906.4874905807087
 30
0.0
 11
13968.80217064596
 21
898.487490580708
 31
0.0
1001
AUTOCAD_POSTSCRIPT_FIGURE
1002
{
1000
PSFILL
1000
Grayscale
1000
Grayscale
1070
   100
1002
}
  0
LINE
  5
18DC5
330
125AA
100
AcDbEntity
  8
YODOROGO
100
AcDbLine
 10
13952.80217064596
 20
940.7045060794045
 30
0.0
 11
13968.80217064596
 21
906.4874905807087
 31
0.0
1001
AUTOCAD_POSTSCRIPT_FIGURE
1002
{
1000
PSFILL
1000
Grayscale
1000
Grayscale
1070
   100
1002
}
  0
LINE
  5
18DC6
330
125AA
100
AcDbEntity
  8
YODOROGO
100
AcDbLine
 10
13952.80217064596
 20
942.2841744681502
 30
0.0
 11
13952.80217064596
 21
940.7045060794045
 31
0.0
1001
AUTOCAD_POSTSCRIPT_FIGURE
1002
{
1000
PSFILL
1000
Grayscale
1000
Grayscale
1070
   100
1002
}
  0
LINE
  5
18DC7
330
125AA
100
AcDbEntity
  8
YODOROGO
100
AcDbLine
 10
13968.80217064596
 20
942.2841744681491
 30
0.0
 11
13952.80217064596
 21
942.2841744681502
 31
0.0
1001
AUTOCAD_POSTSCRIPT_FIGURE
1002
{
1000
PSFILL
1000
Grayscale
1000
Grayscale
1070
   100
1002
}
  0
LINE
  5
18DC8
330
125AA
100
AcDbEntity
  8
YODOROGO
100
AcDbLine
 10
13968.80217064596
 20
950.2841744681497
 30
0.0
 11
13968.80217064596
 21
942.2841744681491
 31
0.0
1001
AUTOCAD_POSTSCRIPT_FIGURE
1002
{
1000
PSFILL
1000
Grayscale
1000
Grayscale
1070
   100
1002
}
  0
LINE
  5
18DC9
330
125AA
100
AcDbEntity
  8
YODOROGO
100
AcDbLine
 10
13952.80217064596
 20
950.2841744681497
 30
0.0
 11
13968.80217064596
 21
950.2841744681497
 31
0.0
1001
AUTOCAD_POSTSCRIPT_FIGURE
1002
{
1000
PSFILL
1000
Grayscale
1000
Grayscale
1070
   100
1002
}
  0
LINE
  5
18DCA
330
125AA
100
AcDbEntity
  8
YODOROGO
100
AcDbLine
 10
13952.80217064596
 20
969.8747482146441
 30
0.0
 11
13952.80217064596
 21
950.2841744681497
 31
0.0
1001
AUTOCAD_POSTSCRIPT_FIGURE
1002
{
1000
PSFILL
1000
Grayscale
1000
Grayscale
1070
   100
1002
}
  0
LINE
  5
18DCB
330
125AA
100
AcDbEntity
  8
YODOROGO
100
AcDbLine
 10
13968.80217064596
 20
969.8747482146441
 30
0.0
 11
13952.80217064596
 21
969.8747482146441
 31
0.0
1001
AUTOCAD_POSTSCRIPT_FIGURE
1002
{
1000
PSFILL
1000
Grayscale
1000
Grayscale
1070
   100
1002
}
  0
LINE
  5
18DCC
330
125AA
100
AcDbEntity
  8
YODOROGO
100
AcDbLine
 10
13968.80217064596
 20
977.8747482146435
 30
0.0
 11
13968.80217064596
 21
969.8747482146441
 31
0.0
1001
AUTOCAD_POSTSCRIPT_FIGURE
1002
{
1000
PSFILL
1000
Grayscale
1000
Grayscale
1070
   100
1002
}
  0
LINE
  5
18DCD
330
125AA
100
AcDbEntity
  8
YODOROGO
100
AcDbLine
 10
13952.80217064596
 20
977.8747482146435
 30
0.0
 11
13968.80217064596
 21
977.8747482146435
 31
0.0
1001
AUTOCAD_POSTSCRIPT_FIGURE
1002
{
1000
PSFILL
1000
Grayscale
1000
Grayscale
1070
   100
1002
}
  0
LINE
  5
18DCE
330
125AA
100
AcDbEntity
  8
YODOROGO
100
AcDbLine
 10
13952.80217064596
 20
989.8747482146443
 30
0.0
 11
13952.80217064596
 21
977.8747482146435
 31
0.0
1001
AUTOCAD_POSTSCRIPT_FIGURE
1002
{
1000
PSFILL
1000
Grayscale
1000
Grayscale
1070
   100
1002
}
  0
LINE
  5
18DCF
330
125AA
100
AcDbEntity
  8
YODOROGO
100
AcDbLine
 10
13944.80217064596
 20
989.8747482146443
 30
0.0
 11
13952.80217064596
 21
989.8747482146443
 31
0.0
1001
AUTOCAD_POSTSCRIPT_FIGURE
1002
{
1000
PSFILL
1000
Grayscale
1000
Grayscale
1070
   100
1002
}
  0
LINE
  5
18DD0
330
125AA
100
AcDbEntity
  8
YODOROGO
100
AcDbLine
 10
13944.80217064596
 20
977.8747482146435
 30
0.0
 11
13944.80217064596
 21
989.8747482146443
 31
0.0
1001
AUTOCAD_POSTSCRIPT_FIGURE
1002
{
1000
PSFILL
1000
Grayscale
1000
Grayscale
1070
   100
1002
}
  0
LINE
  5
18DD1
330
125AA
100
AcDbEntity
  8
YODOROGO
100
AcDbLine
 10
13932.80217064596
 20
977.8747482146435
 30
0.0
 11
13944.80217064596
 21
977.8747482146435
 31
0.0
1001
AUTOCAD_POSTSCRIPT_FIGURE
1002
{
1000
PSFILL
1000
Grayscale
1000
Grayscale
1070
   100
1002
}
  0
LINE
  5
18DD2
330
125AA
100
AcDbEntity
  8
YODOROGO
100
AcDbLine
 10
13932.80217064596
 20
989.8747482146443
 30
0.0
 11
13932.80217064596
 21
977.8747482146435
 31
0.0
1001
AUTOCAD_POSTSCRIPT_FIGURE
1002
{
1000
PSFILL
1000
Grayscale
1000
Grayscale
1070
   100
1002
}
  0
LINE
  5
18DD3
330
125AA
100
AcDbEntity
  8
YODOROGO
100
AcDbLine
 10
13924.80217064596
 20
989.8747482146443
 30
0.0
 11
13932.80217064596
 21
989.8747482146443
 31
0.0
1001
AUTOCAD_POSTSCRIPT_FIGURE
1002
{
1000
PSFILL
1000
Grayscale
1000
Grayscale
1070
   100
1002
}
  0
LINE
  5
18DD4
330
125AA
100
AcDbEntity
  8
YODOROGO
100
AcDbLine
 10
13924.80217064596
 20
977.8747482146435
 30
0.0
 11
13924.80217064596
 21
989.8747482146443
 31
0.0
1001
AUTOCAD_POSTSCRIPT_FIGURE
1002
{
1000
PSFILL
1000
Grayscale
1000
Grayscale
1070
   100
1002
}
  0
LINE
  5
18DD5
330
125AA
100
AcDbEntity
  8
YODOROGO
100
AcDbLine
 10
13908.80217064596
 20
977.8747482146435
 30
0.0
 11
13924.80217064596
 21
977.8747482146435
 31
0.0
1001
AUTOCAD_POSTSCRIPT_FIGURE
1002
{
1000
PSFILL
1000
Grayscale
1000
Grayscale
1070
   100
1002
}
  0
LINE
  5
18DD6
330
125AA
100
AcDbEntity
  8
YODOROGO
100
AcDbLine
 10
13908.80217064596
 20
989.8747482146443
 30
0.0
 11
13908.80217064596
 21
977.8747482146435
 31
0.0
1001
AUTOCAD_POSTSCRIPT_FIGURE
1002
{
1000
PSFILL
1000
Grayscale
1000
Grayscale
1070
   100
1002
}
  0
LINE
  5
18DD7
330
125AA
100
AcDbEntity
  8
YODOROGO
100
AcDbLine
 10
13900.80217064596
 20
989.8747482146443
 30
0.0
 11
13908.80217064596
 21
989.8747482146443
 31
0.0
1001
AUTOCAD_POSTSCRIPT_FIGURE
1002
{
1000
PSFILL
1000
Grayscale
1000
Grayscale
1070
   100
1002
}
  0
LINE
  5
18DD8
330
125AA
100
AcDbEntity
  8
YODOROGO
100
AcDbLine
 10
13900.80217064596
 20
977.8747482146435
 30
0.0
 11
13900.80217064596
 21
989.8747482146443
 31
0.0
1001
AUTOCAD_POSTSCRIPT_FIGURE
1002
{
1000
PSFILL
1000
Grayscale
1000
Grayscale
1070
   100
1002
}
  0
LINE
  5
18DD9
330
125AA
100
AcDbEntity
  8
YODOROGO
100
AcDbLine
 10
13888.80217064596
 20
977.8747482146435
 30
0.0
 11
13900.80217064596
 21
977.8747482146435
 31
0.0
1001
AUTOCAD_POSTSCRIPT_FIGURE
1002
{
1000
PSFILL
1000
Grayscale
1000
Grayscale
1070
   100
1002
}
  0
LINE
  5
18DDA
330
125AA
100
AcDbEntity
  8
YODOROGO
100
AcDbLine
 10
13888.80217064596
 20
969.8747482146441
 30
0.0
 11
13888.80217064596
 21
977.8747482146435
 31
0.0
1001
AUTOCAD_POSTSCRIPT_FIGURE
1002
{
1000
PSFILL
1000
Grayscale
1000
Grayscale
1070
   100
1002
}
  0
LINE
  5
18DDB
330
125AA
100
AcDbEntity
  8
YODOROGO
100
AcDbLine
 10
13900.80217064596
 20
969.8747482146441
 30
0.0
 11
13888.80217064596
 21
969.8747482146441
 31
0.0
1001
AUTOCAD_POSTSCRIPT_FIGURE
1002
{
1000
PSFILL
1000
Grayscale
1000
Grayscale
1070
   100
1002
}
  0
LINE
  5
18DDC
330
125AA
100
AcDbEntity
  8
YODOROGO
100
AcDbLine
 10
13900.80217064596
 20
957.3932903968524
 30
0.0
 11
13900.80217064596
 21
969.8747482146441
 31
0.0
1001
AUTOCAD_POSTSCRIPT_FIGURE
1002
{
1000
PSFILL
1000
Grayscale
1000
Grayscale
1070
   100
1002
}
  0
LINE
  5
18DDD
330
125AA
100
AcDbEntity
  8
YODOROGO
100
AcDbLine
 10
13888.80217064596
 20
929.8883739758355
 30
0.0
 11
13900.80217064596
 21
957.3932903968524
 31
0.0
1001
AUTOCAD_POSTSCRIPT_FIGURE
1002
{
1000
PSFILL
1000
Grayscale
1000
Grayscale
1070
   100
1002
}
  0
LINE
  5
18DDE
330
125AA
100
AcDbEntity
  8
YODOROGO
100
AcDbLine
 10
13888.80217064596
 20
921.8883739758362
 30
0.0
 11
13888.80217064596
 21
929.8883739758355
 31
0.0
1001
AUTOCAD_POSTSCRIPT_FIGURE
1002
{
1000
PSFILL
1000
Grayscale
1000
Grayscale
1070
   100
1002
}
  0
LINE
  5
18DDF
330
125AA
100
AcDbEntity
  8
YODOROGO
100
AcDbLine
 10
14128.80217064596
 20
933.8747482146439
 30
0.0
 11
14200.80217064595
 21
912.4388128201532
 31
0.0
1001
AUTOCAD_POSTSCRIPT_FIGURE
1002
{
1000
PSFILL
1000
Grayscale
1000
Grayscale
1070
   100
1002
}
  0
LINE
  5
18DE0
330
125AA
100
AcDbEntity
  8
YODOROGO
100
AcDbLine
 10
14200.80217064595
 20
876.4388128201531
 30
0.0
 11
14128.80217064596
 21
897.8747482146435
 31
0.0
1001
AUTOCAD_POSTSCRIPT_FIGURE
1002
{
1000
PSFILL
1000
Grayscale
1000
Grayscale
1070
   100
1002
}
  0
LINE
  5
18DE1
330
125AA
100
AcDbEntity
  8
YODOROGO
100
AcDbLine
 10
14200.80217064595
 20
992.4388128201531
 30
0.0
 11
14128.80217064596
 21
1013.874748214644
 31
0.0
1001
AUTOCAD_POSTSCRIPT_FIGURE
1002
{
1000
PSFILL
1000
Grayscale
1000
Grayscale
1070
   100
1002
}
  0
LINE
  5
18DE2
330
125AA
100
AcDbEntity
  8
YODOROGO
100
AcDbLine
 10
14128.80217064596
 20
979.874748214644
 30
0.0
 11
14200.80217064595
 21
958.4388128201537
 31
0.0
1001
AUTOCAD_POSTSCRIPT_FIGURE
1002
{
1000
PSFILL
1000
Grayscale
1000
Grayscale
1070
   100
1002
}
  0
LINE
  5
18DE3
330
125AA
100
AcDbEntity
  8
YODOROGO
100
AcDbLine
 10
14128.80217064596
 20
897.8747482146435
 30
0.0
 11
14128.80217064596
 21
933.8747482146439
 31
0.0
1001
AUTOCAD_POSTSCRIPT_FIGURE
1002
{
1000
PSFILL
1000
Grayscale
1000
Grayscale
1070
   100
1002
}
  0
LINE
  5
18DE4
330
125AA
100
AcDbEntity
  8
YODOROGO
100
AcDbLine
 10
14128.80217064596
 20
1013.874748214644
 30
0.0
 11
14128.80217064596
 21
979.874748214644
 31
0.0
1001
AUTOCAD_POSTSCRIPT_FIGURE
1002
{
1000
PSFILL
1000
Grayscale
1000
Grayscale
1070
   100
1002
}
  0
LINE
  5
18DE5
330
125AA
100
AcDbEntity
  8
YODOROGO
100
AcDbLine
 10
14040.11816010337
 20
969.8747482146441
 30
0.0
 11
14064.80217064595
 21
873.8747482146436
 31
0.0
1001
AUTOCAD_POSTSCRIPT_FIGURE
1002
{
1000
PSFILL
1000
Grayscale
1000
Grayscale
1070
   100
1002
}
  0
LINE
  5
18DE6
330
125AA
100
AcDbEntity
  8
YODOROGO
100
AcDbLine
 10
13988.80217064596
 20
969.8747482146441
 30
0.0
 11
14040.11816010337
 21
969.8747482146441
 31
0.0
1001
AUTOCAD_POSTSCRIPT_FIGURE
1002
{
1000
PSFILL
1000
Grayscale
1000
Grayscale
1070
   100
1002
}
  0
LINE
  5
18DE7
330
125AA
100
AcDbEntity
  8
YODOROGO
100
AcDbLine
 10
13988.80217064596
 20
977.8747482146435
 30
0.0
 11
13988.80217064596
 21
969.8747482146441
 31
0.0
1001
AUTOCAD_POSTSCRIPT_FIGURE
1002
{
1000
PSFILL
1000
Grayscale
1000
Grayscale
1070
   100
1002
}
  0
LINE
  5
18DE8
330
125AA
100
AcDbEntity
  8
YODOROGO
100
AcDbLine
 10
14038.30343925995
 20
977.8747482146435
 30
0.0
 11
13988.80217064596
 21
977.8747482146435
 31
0.0
1001
AUTOCAD_POSTSCRIPT_FIGURE
1002
{
1000
PSFILL
1000
Grayscale
1000
Grayscale
1070
   100
1002
}
  0
LINE
  5
18DE9
330
125AA
100
AcDbEntity
  8
YODOROGO
100
AcDbLine
 10
14035.58135799485
 20
989.8747482146443
 30
0.0
 11
14038.30343925995
 21
977.8747482146435
 31
0.0
1001
AUTOCAD_POSTSCRIPT_FIGURE
1002
{
1000
PSFILL
1000
Grayscale
1000
Grayscale
1070
   100
1002
}
  0
LINE
  5
18DEA
330
125AA
100
AcDbEntity
  8
YODOROGO
100
AcDbLine
 10
14045.58135799485
 20
989.8747482146443
 30
0.0
 11
14035.58135799485
 21
989.8747482146443
 31
0.0
1001
AUTOCAD_POSTSCRIPT_FIGURE
1002
{
1000
PSFILL
1000
Grayscale
1000
Grayscale
1070
   100
1002
}
  0
LINE
  5
18DEB
330
125AA
100
AcDbEntity
  8
YODOROGO
100
AcDbLine
 10
14047.90343925997
 20
977.8747482146435
 30
0.0
 11
14045.58135799485
 21
989.8747482146443
 31
0.0
1001
AUTOCAD_POSTSCRIPT_FIGURE
1002
{
1000
PSFILL
1000
Grayscale
1000
Grayscale
1070
   100
1002
}
  0
LINE
  5
18DEC
330
125AA
100
AcDbEntity
  8
YODOROGO
100
AcDbLine
 10
14060.80217064596
 20
977.8747482146435
 30
0.0
 11
14047.90343925997
 21
977.8747482146435
 31
0.0
1001
AUTOCAD_POSTSCRIPT_FIGURE
1002
{
1000
PSFILL
1000
Grayscale
1000
Grayscale
1070
   100
1002
}
  0
LINE
  5
18DED
330
125AA
100
AcDbEntity
  8
YODOROGO
100
AcDbLine
 10
14060.80217064596
 20
989.8747482146443
 30
0.0
 11
14060.80217064596
 21
977.8747482146435
 31
0.0
1001
AUTOCAD_POSTSCRIPT_FIGURE
1002
{
1000
PSFILL
1000
Grayscale
1000
Grayscale
1070
   100
1002
}
  0
LINE
  5
18DEE
330
125AA
100
AcDbEntity
  8
YODOROGO
100
AcDbLine
 10
14068.80217064596
 20
989.8747482146443
 30
0.0
 11
14060.80217064596
 21
989.8747482146443
 31
0.0
1001
AUTOCAD_POSTSCRIPT_FIGURE
1002
{
1000
PSFILL
1000
Grayscale
1000
Grayscale
1070
   100
1002
}
  0
LINE
  5
18DEF
330
125AA
100
AcDbEntity
  8
YODOROGO
100
AcDbLine
 10
14068.80217064596
 20
977.8747482146435
 30
0.0
 11
14068.80217064596
 21
989.8747482146443
 31
0.0
1001
AUTOCAD_POSTSCRIPT_FIGURE
1002
{
1000
PSFILL
1000
Grayscale
1000
Grayscale
1070
   100
1002
}
  0
LINE
  5
18DF0
330
125AA
100
AcDbEntity
  8
YODOROGO
100
AcDbLine
 10
14068.80217064596
 20
969.8747482146441
 30
0.0
 11
14068.80217064596
 21
977.8747482146435
 31
0.0
1001
AUTOCAD_POSTSCRIPT_FIGURE
1002
{
1000
PSFILL
1000
Grayscale
1000
Grayscale
1070
   100
1002
}
  0
LINE
  5
18DF1
330
125AA
100
AcDbEntity
  8
YODOROGO
100
AcDbLine
 10
14049.4514934367
 20
969.8747482146441
 30
0.0
 11
14068.80217064596
 21
969.8747482146441
 31
0.0
1001
AUTOCAD_POSTSCRIPT_FIGURE
1002
{
1000
PSFILL
1000
Grayscale
1000
Grayscale
1070
   100
1002
}
  0
LINE
  5
18DF2
330
125AA
100
AcDbEntity
  8
YODOROGO
100
AcDbLine
 10
14068.80217064596
 20
873.8747482146436
 30
0.0
 11
14049.4514934367
 21
969.8747482146441
 31
0.0
1001
AUTOCAD_POSTSCRIPT_FIGURE
1002
{
1000
PSFILL
1000
Grayscale
1000
Grayscale
1070
   100
1002
}
  0
LINE
  5
18DF3
330
125AA
100
AcDbEntity
  8
YODOROGO
100
AcDbLine
 10
14064.80217064595
 20
873.8747482146436
 30
0.0
 11
14068.80217064596
 21
873.8747482146436
 31
0.0
1001
AUTOCAD_POSTSCRIPT_FIGURE
1002
{
1000
PSFILL
1000
Grayscale
1000
Grayscale
1070
   100
1002
}
  0
LINE
  5
18DF4
330
125AA
100
AcDbEntity
  8
YODOROGO
100
AcDbLine
 10
14039.03460996689
 20
887.8703881493972
 30
0.0
 11
13988.80217064596
 21
873.8747482146436
 31
0.0
  0
LINE
  5
18DF5
330
125AA
100
AcDbEntity
  8
YODOROGO
100
AcDbLine
 10
14039.03460996689
 20
899.3344897645366
 30
0.0
 11
14039.03460996689
 21
887.8703881493972
 31
0.0
  0
LINE
  5
18DF6
330
125AA
100
AcDbEntity
  8
YODOROGO
100
AcDbLine
 10
14016.91839030643
 20
893.4084665668834
 30
0.0
 11
14039.03460996689
 21
899.3344897645366
 31
0.0
  0
LINE
  5
18DF7
330
125AA
100
AcDbEntity
  8
YODOROGO
100
AcDbLine
 10
14016.91839030643
 20
936.2841744681499
 30
0.0
 11
14016.91839030643
 21
893.4084665668834
 31
0.0
  0
LINE
  5
18DF8
330
125AA
100
AcDbEntity
  8
YODOROGO
100
AcDbLine
 10
14039.03460996689
 20
936.2841744681499
 30
0.0
 11
14016.91839030643
 21
936.2841744681499
 31
0.0
  0
LINE
  5
18DF9
330
125AA
100
AcDbEntity
  8
YODOROGO
100
AcDbLine
 10
14039.03460996689
 20
946.2841744681487
 30
0.0
 11
14039.03460996689
 21
936.2841744681499
 31
0.0
  0
LINE
  5
18DFA
330
125AA
100
AcDbEntity
  8
YODOROGO
100
AcDbLine
 10
13988.80217064596
 20
946.2841744681487
 30
0.0
 11
14039.03460996689
 21
946.2841744681487
 31
0.0
  0
LINE
  5
18DFB
330
125AA
100
AcDbEntity
  8
YODOROGO
100
AcDbLine
 10
13988.80217064596
 20
936.2841744681499
 30
0.0
 11
13988.80217064596
 21
946.2841744681487
 31
0.0
  0
LINE
  5
18DFC
330
125AA
100
AcDbEntity
  8
YODOROGO
100
AcDbLine
 10
14010.91839030643
 20
936.2841744681499
 30
0.0
 11
13988.80217064596
 21
936.2841744681499
 31
0.0
  0
LINE
  5
18DFD
330
125AA
100
AcDbEntity
  8
YODOROGO
100
AcDbLine
 10
14010.91839030643
 20
892.3366697971587
 30
0.0
 11
14010.91839030643
 21
936.2841744681499
 31
0.0
  0
LINE
  5
18DFE
330
125AA
100
AcDbEntity
  8
YODOROGO
100
AcDbLine
 10
13988.80217064596
 20
885.8747482146432
 30
0.0
 11
14010.91839030643
 21
892.3366697971587
 31
0.0
  0
LINE
  5
18DFF
330
125AA
100
AcDbEntity
  8
YODOROGO
100
AcDbLine
 10
13988.80217064596
 20
873.8747482146436
 30
0.0
 11
13988.80217064596
 21
885.8747482146432
 31
0.0
  0
LINE
  5
18E00
330
125AA
100
AcDbEntity
  8
YODOROGO
100
AcDbLine
 10
14000.80217064596
 20
853.8747482146439
 30
0.0
 11
14000.80217064596
 21
841.8747482146434
 31
0.0
  0
LINE
  5
18E01
330
125AA
100
AcDbEntity
  8
YODOROGO
100
AcDbLine
 10
14000.80217064596
 20
853.8747482146439
 30
0.0
 11
14000.80217064596
 21
853.8747482146439
 31
0.0
  0
LINE
  5
18E02
330
125AA
100
AcDbEntity
  8
YODOROGO
100
AcDbLine
 10
14008.80217064596
 20
853.8747482146439
 30
0.0
 11
14000.80217064596
 21
853.8747482146439
 31
0.0
  0
LINE
  5
18E03
330
125AA
100
AcDbEntity
  8
YODOROGO
100
AcDbLine
 10
14008.80217064596
 20
841.8747482146434
 30
0.0
 11
14008.80217064596
 21
853.8747482146439
 31
0.0
  0
LINE
  5
18E04
330
125AA
100
AcDbEntity
  8
YODOROGO
100
AcDbLine
 10
14020.45660200845
 20
841.8747482146434
 30
0.0
 11
14008.80217064596
 21
841.8747482146434
 31
0.0
  0
LINE
  5
18E05
330
125AA
100
AcDbEntity
  8
YODOROGO
100
AcDbLine
 10
14000.80217064596
 20
841.8747482146434
 30
0.0
 11
13988.80217064596
 21
841.8747482146434
 31
0.0
  0
LINE
  5
18E06
330
125AA
100
AcDbEntity
  8
YODOROGO
100
AcDbLine
 10
14041.06776011546
 20
853.8747482146439
 30
0.0
 11
14049.06776011545
 21
853.8747482146439
 31
0.0
1001
AUTOCAD_POSTSCRIPT_FIGURE
1002
{
1000
PSFILL
1000
Grayscale
1000
Grayscale
1070
   100
1002
}
  0
LINE
  5
18E07
330
125AA
100
AcDbEntity
  8
YODOROGO
100
AcDbLine
 10
14200.80217064595
 20
912.4388128201532
 30
0.0
 11
14200.80217064595
 21
876.4388128201531
 31
0.0
1001
AUTOCAD_POSTSCRIPT_FIGURE
1002
{
1000
PSFILL
1000
Grayscale
1000
Grayscale
1070
   100
1002
}
  0
LINE
  5
18E08
330
125AA
100
AcDbEntity
  8
YODOROGO
100
AcDbLine
 10
14200.80217064595
 20
958.4388128201537
 30
0.0
 11
14200.80217064595
 21
992.4388128201531
 31
0.0
1001
AUTOCAD_POSTSCRIPT_FIGURE
1002
{
1000
PSFILL
1000
Grayscale
1000
Grayscale
1070
   100
1002
}
  0
LINE
  5
18E09
330
125AA
100
AcDbEntity
  8
YODOROGO
100
AcDbLine
 10
14216.80217064595
 20
909.8747482146439
 30
0.0
 11
14216.80217064595
 21
873.8747482146449
 31
0.0
  0
LINE
  5
18E0A
330
125AA
100
AcDbEntity
  8
YODOROGO
100
AcDbLine
 10
14248.80217064595
 20
853.8747482146439
 30
0.0
 11
14216.80217064595
 21
853.8747482146439
 31
0.0
  0
LINE
  5
18E0B
330
125AA
100
AcDbEntity
  8
YODOROGO
100
AcDbLine
 10
14216.80217064595
 20
873.8747482146449
 30
0.0
 11
14292.80217064596
 21
873.8747482146449
 31
0.0
  0
LINE
  5
18E0C
330
125AA
100
AcDbEntity
  8
YODOROGO
100
AcDbLine
 10
14248.80217064595
 20
933.8747482146439
 30
0.0
 11
14216.80217064595
 21
933.8747482146439
 31
0.0
  0
LINE
  5
18E0D
330
125AA
100
AcDbEntity
  8
YODOROGO
100
AcDbLine
 10
14248.80217064595
 20
961.8747482146432
 30
0.0
 11
14248.80217064595
 21
933.8747482146439
 31
0.0
  0
LINE
  5
18E0E
330
125AA
100
AcDbEntity
  8
YODOROGO
100
AcDbLine
 10
14292.80217064596
 20
993.8747482146439
 30
0.0
 11
14292.80217064596
 21
1013.874748214644
 31
0.0
  0
LINE
  5
18E0F
330
125AA
100
AcDbEntity
  8
YODOROGO
100
AcDbLine
 10
14216.80217064595
 20
993.8747482146439
 30
0.0
 11
14292.80217064596
 21
993.8747482146439
 31
0.0
  0
LINE
  5
18E10
330
125AA
100
AcDbEntity
  8
YODOROGO
100
AcDbLine
 10
14216.80217064595
 20
933.8747482146439
 30
0.0
 11
14216.80217064595
 21
993.8747482146439
 31
0.0
  0
LINE
  5
18E11
330
125AA
100
AcDbEntity
  8
YODOROGO
100
AcDbLine
 10
14500.80217064595
 20
1013.874748214644
 30
0.0
 11
14500.80217064595
 21
809.8747482146441
 31
0.0
  0
LINE
  5
18E12
330
125AA
100
AcDbEntity
  8
YODOROGO
100
AcDbLine
 10
14536.80217064596
 20
789.8747482146441
 30
0.0
 11
14536.80217064596
 21
1013.874748214644
 31
0.0
  0
LINE
  5
18E13
330
125AA
100
AcDbEntity
  8
YODOROGO
100
AcDbLine
 10
14630.80217064596
 20
745.8747482146431
 30
0.0
 11
14630.80217064596
 21
1003.874748214644
 31
0.0
  0
LINE
  5
18E14
330
125AA
100
AcDbEntity
  8
YODOROGO
100
AcDbLine
 10
14598.80217064596
 20
1003.874748214644
 30
0.0
 11
14598.80217064596
 21
745.8747482146431
 31
0.0
  0
LINE
  5
18E15
330
125AA
100
AcDbEntity
  8
YODOROGO
100
AcDbLine
 10
14692.80217064596
 20
1013.874748214644
 30
0.0
 11
14692.80217064596
 21
713.8747482146436
 31
0.0
  0
LINE
  5
18E16
330
125AA
100
AcDbEntity
  8
YODOROGO
100
AcDbLine
 10
14728.80217064596
 20
713.8747482146436
 30
0.0
 11
14728.80217064596
 21
1013.874748214644
 31
0.0
  0
LINE
  5
18E17
330
125AA
100
AcDbEntity
  8
YODOROGO
100
AcDbLine
 10
14328.80217064595
 20
833.8747482146439
 30
0.0
 11
14328.80217064595
 21
873.8747482146449
 31
0.0
  0
LINE
  5
18E18
330
125AA
100
AcDbEntity
  8
YODOROGO
100
AcDbLine
 10
14942.80217064596
 20
853.8747482146439
 30
0.0
 11
14942.80217064596
 21
833.8747482146439
 31
0.0
  0
LINE
  5
18E19
330
125AA
100
AcDbEntity
  8
YODOROGO
100
AcDbLine
 10
14942.80217064596
 20
853.8747482146439
 30
0.0
 11
14942.80217064596
 21
833.8747482146439
 31
0.0
  0
ARC
  5
18E1A
330
125AA
100
AcDbEntity
  8
YODOROGO
100
AcDbCircle
 10
14453.45578809341
 20
809.1089322211365
 30
0.0
 40
47.35257558937083
100
AcDbArc
 50
274.052441629071
 51
0.9266642149310712
  0
ARC
  5
18E1B
330
125AA
100
AcDbEntity
  8
YODOROGO
100
AcDbCircle
 10
14454.59308535991
 20
796.30536430522
 30
0.0
 40
82.46021178042756
100
AcDbArc
 50
271.5351210653778
 51
355.5272775058505
  0
LINE
  5
18E1C
330
125AA
100
AcDbEntity
  8
YODOROGO
100
AcDbLine
 10
14456.80217064596
 20
761.8747482146434
 30
0.0
 11
14456.80217064596
 21
713.8747482146436
 31
0.0
  0
LINE
  5
18E1D
330
125AA
100
AcDbEntity
  8
YODOROGO
100
AcDbLine
 10
14396.80217064594
 20
833.8747482146439
 30
0.0
 11
14328.80217064595
 21
833.8747482146439
 31
0.0
  0
LINE
  5
18E1E
330
125AA
100
AcDbEntity
  8
YODOROGO
100
AcDbLine
 10
14396.80217064594
 20
801.8747482146446
 30
0.0
 11
14396.80217064594
 21
833.8747482146439
 31
0.0
  0
LINE
  5
18E1F
330
125AA
100
AcDbEntity
  8
YODOROGO
100
AcDbLine
 10
14328.80217064595
 20
801.8747482146446
 30
0.0
 11
14396.80217064594
 21
801.8747482146446
 31
0.0
  0
LINE
  5
18E20
330
125AA
100
AcDbEntity
  8
YODOROGO
100
AcDbLine
 10
14328.80217064595
 20
761.8747482146434
 30
0.0
 11
14328.80217064595
 21
801.8747482146446
 31
0.0
  0
LINE
  5
18E21
330
125AA
100
AcDbEntity
  8
YODOROGO
100
AcDbLine
 10
14396.80217064594
 20
761.8747482146434
 30
0.0
 11
14328.80217064595
 21
761.8747482146434
 31
0.0
  0
LINE
  5
18E22
330
125AA
100
AcDbEntity
  8
YODOROGO
100
AcDbLine
 10
14396.80217064594
 20
713.8747482146436
 30
0.0
 11
14396.80217064594
 21
761.8747482146434
 31
0.0
  0
LINE
  5
18E23
330
125AA
100
AcDbEntity
  8
YODOROGO
100
AcDbLine
 10
14598.80217064596
 20
745.8747482146431
 30
0.0
 11
14630.80217064596
 21
745.8747482146431
 31
0.0
  0
LINE
  5
18E24
330
125AA
100
AcDbEntity
  8
YODOROGO
100
AcDbLine
 10
14692.80217064596
 20
713.8747482146436
 30
0.0
 11
14728.80217064596
 21
713.8747482146436
 31
0.0
  0
LINE
  5
18E25
330
125AA
100
AcDbEntity
  8
YODOROGO
100
AcDbLine
 10
14868.80217064596
 20
764.2207260852821
 30
0.0
 11
14868.80217064596
 21
713.8747482146436
 31
0.0
  0
LINE
  5
18E26
330
125AA
100
AcDbEntity
  8
YODOROGO
100
AcDbLine
 10
14808.80217064596
 20
713.8747482146436
 30
0.0
 11
14868.80217064596
 21
764.2207260852821
 31
0.0
  0
LINE
  5
18E27
330
125AA
100
AcDbEntity
  8
YODOROGO
100
AcDbLine
 10
14808.80217064596
 20
773.8747482146439
 30
0.0
 11
14808.80217064596
 21
713.8747482146436
 31
0.0
  0
LINE
  5
18E28
330
125AA
100
AcDbEntity
  8
YODOROGO
100
AcDbLine
 10
14856.47231434973
 20
813.8747482146436
 30
0.0
 11
14808.80217064596
 21
773.8747482146439
 31
0.0
  0
LINE
  5
18E29
330
125AA
100
AcDbEntity
  8
YODOROGO
100
AcDbLine
 10
14808.80217064596
 20
813.8747482146436
 30
0.0
 11
14856.47231434973
 21
813.8747482146436
 31
0.0
  0
LINE
  5
18E2A
330
125AA
100
AcDbEntity
  8
YODOROGO
100
AcDbLine
 10
14808.80217064596
 20
833.8747482146439
 30
0.0
 11
14808.80217064596
 21
813.8747482146436
 31
0.0
  0
LINE
  5
18E2B
330
125AA
100
AcDbEntity
  8
YODOROGO
100
AcDbLine
 10
14942.80217064596
 20
833.8747482146439
 30
0.0
 11
14808.80217064596
 21
833.8747482146439
 31
0.0
  0
LINE
  5
18E2C
330
125AA
100
AcDbEntity
  8
YODOROGO
100
AcDbLine
 10
14958.80217064596
 20
813.8747482146436
 30
0.0
 11
14888.80217064596
 21
813.8747482146436
 31
0.0
  0
LINE
  5
18E2D
330
125AA
100
AcDbEntity
  8
YODOROGO
100
AcDbLine
 10
14888.80217064596
 20
781.0027187088283
 30
0.0
 11
14885.70493649264
 21
778.403830673117
 31
0.0
  0
LINE
  5
18E2E
330
125AA
100
AcDbEntity
  8
YODOROGO
100
AcDbLine
 10
14888.80217064596
 20
813.8747482146436
 30
0.0
 11
14888.80217064596
 21
781.0027187088283
 31
0.0
  0
LINE
  5
18E2F
330
125AA
100
AcDbEntity
  8
YODOROGO
100
AcDbLine
 10
14868.80217064596
 20
764.2207260852821
 30
0.0
 11
14868.80217064596
 21
713.8747482146436
 31
0.0
  0
LINE
  5
18E30
330
125AA
100
AcDbEntity
  8
YODOROGO
100
AcDbLine
 10
14808.80217064596
 20
713.8747482146436
 30
0.0
 11
14868.80217064596
 21
764.2207260852821
 31
0.0
  0
LINE
  5
18E31
330
125AA
100
AcDbEntity
  8
YODOROGO
100
AcDbLine
 10
14808.80217064596
 20
773.8747482146439
 30
0.0
 11
14808.80217064596
 21
713.8747482146436
 31
0.0
  0
LINE
  5
18E32
330
125AA
100
AcDbEntity
  8
YODOROGO
100
AcDbLine
 10
14856.47231434973
 20
813.8747482146436
 30
0.0
 11
14808.80217064596
 21
773.8747482146439
 31
0.0
  0
LINE
  5
18E33
330
125AA
100
AcDbEntity
  8
YODOROGO
100
AcDbLine
 10
14808.80217064596
 20
813.8747482146436
 30
0.0
 11
14856.47231434973
 21
813.8747482146436
 31
0.0
  0
LINE
  5
18E34
330
125AA
100
AcDbEntity
  8
YODOROGO
100
AcDbLine
 10
14808.80217064596
 20
833.8747482146439
 30
0.0
 11
14808.80217064596
 21
813.8747482146436
 31
0.0
  0
LINE
  5
18E35
330
125AA
100
AcDbEntity
  8
YODOROGO
100
AcDbLine
 10
14942.80217064596
 20
833.8747482146439
 30
0.0
 11
14808.80217064596
 21
833.8747482146439
 31
0.0
  0
LINE
  5
18E36
330
125AA
100
AcDbEntity
  8
YODOROGO
100
AcDbLine
 10
14396.80217064594
 20
873.8747482146449
 30
0.0
 11
14396.80217064594
 21
909.8747482146439
 31
0.0
  0
LINE
  5
18E37
330
125AA
100
AcDbEntity
  8
YODOROGO
100
AcDbLine
 10
14328.80217064595
 20
873.8747482146449
 30
0.0
 11
14396.80217064594
 21
873.8747482146449
 31
0.0
  0
LINE
  5
18E38
330
125AA
100
AcDbEntity
  8
YODOROGO
100
AcDbLine
 10
14364.80217064596
 20
933.8747482146439
 30
0.0
 11
14364.80217064596
 21
961.8747482146432
 31
0.0
  0
LINE
  5
18E39
330
125AA
100
AcDbEntity
  8
YODOROGO
100
AcDbLine
 10
14396.80217064594
 20
933.8747482146439
 30
0.0
 11
14364.80217064596
 21
933.8747482146439
 31
0.0
  0
LINE
  5
18E3A
330
125AA
100
AcDbEntity
  8
YODOROGO
100
AcDbLine
 10
14396.80217064594
 20
973.8747482146436
 30
0.0
 11
14396.80217064594
 21
933.8747482146439
 31
0.0
  0
ARC
  5
18E3B
330
125AA
100
AcDbEntity
  8
YODOROGO
100
AcDbCircle
 10
14376.80217064595
 20
973.8747482146436
 30
0.0
 40
20.0
100
AcDbArc
 50
0.0
 51
90.0
  0
LINE
  5
18E3C
330
125AA
100
AcDbEntity
  8
YODOROGO
100
AcDbLine
 10
14328.80217064596
 20
993.8747482146439
 30
0.0
 11
14376.80217064595
 21
993.8747482146439
 31
0.0
  0
LINE
  5
18E3D
330
125AA
100
AcDbEntity
  8
YODOROGO
100
AcDbLine
 10
14328.80217064596
 20
1013.874748214644
 30
0.0
 11
14328.80217064596
 21
993.8747482146439
 31
0.0
  0
LINE
  5
18E3E
330
125AA
100
AcDbEntity
  8
YODOROGO
100
AcDbLine
 10
14536.80217064596
 20
1013.874748214644
 30
0.0
 11
14500.80217064595
 21
1013.874748214644
 31
0.0
  0
LINE
  5
18E3F
330
125AA
100
AcDbEntity
  8
YODOROGO
100
AcDbLine
 10
14630.80217064596
 20
1003.874748214644
 30
0.0
 11
14598.80217064596
 21
1003.874748214644
 31
0.0
  0
LINE
  5
18E40
330
125AA
100
AcDbEntity
  8
YODOROGO
100
AcDbLine
 10
14728.80217064596
 20
1013.874748214644
 30
0.0
 11
14692.80217064596
 21
1013.874748214644
 31
0.0
  0
LINE
  5
18E41
330
125AA
100
AcDbEntity
  8
YODOROGO
100
AcDbLine
 10
14836.80217064596
 20
853.8747482146439
 30
0.0
 11
14836.80217064596
 21
885.8747482146442
 31
0.0
1001
AUTOCAD_POSTSCRIPT_FIGURE
1002
{
1000
PSFILL
1000
Grayscale
1000
Grayscale
1070
    25
1002
}
  0
LINE
  5
18E42
330
125AA
100
AcDbEntity
  8
YODOROGO
100
AcDbLine
 10
14808.80217064596
 20
853.8747482146439
 30
0.0
 11
14836.80217064596
 21
853.8747482146439
 31
0.0
1001
AUTOCAD_POSTSCRIPT_FIGURE
1002
{
1000
PSFILL
1000
Grayscale
1000
Grayscale
1070
    25
1002
}
  0
LINE
  5
18E43
330
125AA
100
AcDbEntity
  8
YODOROGO
100
AcDbLine
 10
14808.80217064596
 20
909.8747482146439
 30
0.0
 11
14808.80217064596
 21
853.8747482146439
 31
0.0
1001
AUTOCAD_POSTSCRIPT_FIGURE
1002
{
1000
PSFILL
1000
Grayscale
1000
Grayscale
1070
    25
1002
}
  0
LINE
  5
18E44
330
125AA
100
AcDbEntity
  8
YODOROGO
100
AcDbLine
 10
14882.80217064596
 20
909.8747482146439
 30
0.0
 11
14808.80217064596
 21
909.8747482146439
 31
0.0
1001
AUTOCAD_POSTSCRIPT_FIGURE
1002
{
1000
PSFILL
1000
Grayscale
1000
Grayscale
1070
    25
1002
}
  0
LINE
  5
18E45
330
125AA
100
AcDbEntity
  8
YODOROGO
100
AcDbLine
 10
14882.80217064596
 20
929.874748214644
 30
0.0
 11
14882.80217064596
 21
909.8747482146439
 31
0.0
1001
AUTOCAD_POSTSCRIPT_FIGURE
1002
{
1000
PSFILL
1000
Grayscale
1000
Grayscale
1070
    25
1002
}
  0
LINE
  5
18E46
330
125AA
100
AcDbEntity
  8
YODOROGO
100
AcDbLine
 10
14808.80217064596
 20
929.874748214644
 30
0.0
 11
14882.80217064596
 21
929.874748214644
 31
0.0
1001
AUTOCAD_POSTSCRIPT_FIGURE
1002
{
1000
PSFILL
1000
Grayscale
1000
Grayscale
1070
    25
1002
}
  0
LINE
  5
18E47
330
125AA
100
AcDbEntity
  8
YODOROGO
100
AcDbLine
 10
14808.80217064596
 20
953.874748214644
 30
0.0
 11
14808.80217064596
 21
929.874748214644
 31
0.0
1001
AUTOCAD_POSTSCRIPT_FIGURE
1002
{
1000
PSFILL
1000
Grayscale
1000
Grayscale
1070
    25
1002
}
  0
LINE
  5
18E48
330
125AA
100
AcDbEntity
  8
YODOROGO
100
AcDbLine
 10
14882.80217064596
 20
953.874748214644
 30
0.0
 11
14808.80217064596
 21
953.874748214644
 31
0.0
1001
AUTOCAD_POSTSCRIPT_FIGURE
1002
{
1000
PSFILL
1000
Grayscale
1000
Grayscale
1070
    25
1002
}
  0
LINE
  5
18E49
330
125AA
100
AcDbEntity
  8
YODOROGO
100
AcDbLine
 10
14882.80217064596
 20
973.8747482146436
 30
0.0
 11
14882.80217064596
 21
953.874748214644
 31
0.0
1001
AUTOCAD_POSTSCRIPT_FIGURE
1002
{
1000
PSFILL
1000
Grayscale
1000
Grayscale
1070
    25
1002
}
  0
LINE
  5
18E4A
330
125AA
100
AcDbEntity
  8
YODOROGO
100
AcDbLine
 10
14808.80217064596
 20
973.8747482146436
 30
0.0
 11
14882.80217064596
 21
973.8747482146436
 31
0.0
1001
AUTOCAD_POSTSCRIPT_FIGURE
1002
{
1000
PSFILL
1000
Grayscale
1000
Grayscale
1070
    25
1002
}
  0
LINE
  5
18E4B
330
125AA
100
AcDbEntity
  8
YODOROGO
100
AcDbLine
 10
14808.80217064596
 20
1013.874748214644
 30
0.0
 11
14808.80217064596
 21
973.8747482146436
 31
0.0
1001
AUTOCAD_POSTSCRIPT_FIGURE
1002
{
1000
PSFILL
1000
Grayscale
1000
Grayscale
1070
    25
1002
}
  0
LINE
  5
18E4C
330
125AA
100
AcDbEntity
  8
YODOROGO
100
AcDbLine
 10
14832.80217064596
 20
1013.874748214644
 30
0.0
 11
14808.80217064596
 21
1013.874748214644
 31
0.0
1001
AUTOCAD_POSTSCRIPT_FIGURE
1002
{
1000
PSFILL
1000
Grayscale
1000
Grayscale
1070
    25
1002
}
  0
LINE
  5
18E4D
330
125AA
100
AcDbEntity
  8
YODOROGO
100
AcDbLine
 10
14832.80217064596
 20
997.8747482146435
 30
0.0
 11
14832.80217064596
 21
1013.874748214644
 31
0.0
1001
AUTOCAD_POSTSCRIPT_FIGURE
1002
{
1000
PSFILL
1000
Grayscale
1000
Grayscale
1070
    25
1002
}
  0
LINE
  5
18E4E
330
125AA
100
AcDbEntity
  8
YODOROGO
100
AcDbLine
 10
14882.80217064596
 20
997.8747482146435
 30
0.0
 11
14832.80217064596
 21
997.8747482146435
 31
0.0
1001
AUTOCAD_POSTSCRIPT_FIGURE
1002
{
1000
PSFILL
1000
Grayscale
1000
Grayscale
1070
    25
1002
}
  0
LINE
  5
18E4F
330
125AA
100
AcDbEntity
  8
YODOROGO
100
AcDbLine
 10
14882.80217064596
 20
1013.874748214644
 30
0.0
 11
14882.80217064596
 21
997.8747482146435
 31
0.0
1001
AUTOCAD_POSTSCRIPT_FIGURE
1002
{
1000
PSFILL
1000
Grayscale
1000
Grayscale
1070
    25
1002
}
  0
LINE
  5
18E50
330
125AA
100
AcDbEntity
  8
YODOROGO
100
AcDbLine
 10
14914.80217064596
 20
1013.874748214644
 30
0.0
 11
14882.80217064596
 21
1013.874748214644
 31
0.0
1001
AUTOCAD_POSTSCRIPT_FIGURE
1002
{
1000
PSFILL
1000
Grayscale
1000
Grayscale
1070
    25
1002
}
  0
LINE
  5
18E51
330
125AA
100
AcDbEntity
  8
YODOROGO
100
AcDbLine
 10
14914.80217064596
 20
997.8747482146435
 30
0.0
 11
14914.80217064596
 21
1013.874748214644
 31
0.0
1001
AUTOCAD_POSTSCRIPT_FIGURE
1002
{
1000
PSFILL
1000
Grayscale
1000
Grayscale
1070
    25
1002
}
  0
LINE
  5
18E52
330
125AA
100
AcDbEntity
  8
YODOROGO
100
AcDbLine
 10
14914.80217064596
 20
953.874748214644
 30
0.0
 11
14914.80217064596
 21
973.8747482146436
 31
0.0
1001
AUTOCAD_POSTSCRIPT_FIGURE
1002
{
1000
PSFILL
1000
Grayscale
1000
Grayscale
1070
    25
1002
}
  0
LINE
  5
18E53
330
125AA
100
AcDbEntity
  8
YODOROGO
100
AcDbLine
 10
14914.80217064596
 20
909.8747482146439
 30
0.0
 11
14914.80217064596
 21
929.874748214644
 31
0.0
1001
AUTOCAD_POSTSCRIPT_FIGURE
1002
{
1000
PSFILL
1000
Grayscale
1000
Grayscale
1070
    25
1002
}
  0
LINE
  5
18E54
330
125AA
100
AcDbEntity
  8
YODOROGO
100
AcDbLine
 10
14960.80217064594
 20
885.8747482146442
 30
0.0
 11
14960.80217064594
 21
853.8747482146439
 31
0.0
1001
AUTOCAD_POSTSCRIPT_FIGURE
1002
{
1000
PSFILL
1000
Grayscale
1000
Grayscale
1070
    25
1002
}
  0
LINE
  5
18E55
330
125AA
100
AcDbEntity
  8
YODOROGO
100
AcDbLine
 10
14914.80217064596
 20
885.8747482146442
 30
0.0
 11
14960.80217064594
 21
885.8747482146442
 31
0.0
1001
AUTOCAD_POSTSCRIPT_FIGURE
1002
{
1000
PSFILL
1000
Grayscale
1000
Grayscale
1070
    25
1002
}
  0
LINE
  5
18E56
330
125AA
100
AcDbEntity
  8
YODOROGO
100
AcDbLine
 10
14914.80217064596
 20
853.8747482146439
 30
0.0
 11
14914.80217064596
 21
885.8747482146442
 31
0.0
1001
AUTOCAD_POSTSCRIPT_FIGURE
1002
{
1000
PSFILL
1000
Grayscale
1000
Grayscale
1070
    25
1002
}
  0
LINE
  5
18E57
330
125AA
100
AcDbEntity
  8
YODOROGO
100
AcDbLine
 10
14882.80217064596
 20
853.8747482146439
 30
0.0
 11
14914.80217064596
 21
853.8747482146439
 31
0.0
1001
AUTOCAD_POSTSCRIPT_FIGURE
1002
{
1000
PSFILL
1000
Grayscale
1000
Grayscale
1070
    25
1002
}
  0
LINE
  5
18E58
330
125AA
100
AcDbEntity
  8
YODOROGO
100
AcDbLine
 10
14882.80217064596
 20
885.8747482146442
 30
0.0
 11
14882.80217064596
 21
853.8747482146439
 31
0.0
1001
AUTOCAD_POSTSCRIPT_FIGURE
1002
{
1000
PSFILL
1000
Grayscale
1000
Grayscale
1070
    25
1002
}
  0
LINE
  5
18E59
330
125AA
100
AcDbEntity
  8
YODOROGO
100
AcDbLine
 10
14836.80217064596
 20
885.8747482146442
 30
0.0
 11
14882.80217064596
 21
885.8747482146442
 31
0.0
1001
AUTOCAD_POSTSCRIPT_FIGURE
1002
{
1000
PSFILL
1000
Grayscale
1000
Grayscale
1070
    25
1002
}
  0
ARC
  5
18E5A
330
125AA
100
AcDbEntity
  8
YODOROGO
100
AcDbCircle
 10
15529.75894667896
 20
801.3403687577881
 30
0.0
 40
89.11064055536078
100
AcDbArc
 50
281.0262749542535
 51
357.771135755738
  0
LINE
  5
18E5B
330
125AA
100
AcDbEntity
  8
YODOROGO
100
AcDbLine
 10
15706.80217064596
 20
953.874748214644
 30
0.0
 11
15582.80217064596
 21
953.874748214644
 31
0.0
  0
LINE
  5
18E5C
330
125AA
100
AcDbEntity
  8
YODOROGO
100
AcDbLine
 10
15706.80217064596
 20
1013.874748214644
 30
0.0
 11
15582.80217064596
 21
1013.874748214644
 31
0.0
  0
LINE
  5
18E5D
330
125AA
100
AcDbEntity
  8
YODOROGO
100
AcDbLine
 10
15582.80217064596
 20
981.8747482146434
 30
0.0
 11
15706.80217064596
 21
981.8747482146434
 31
0.0
  0
LINE
  5
18E5E
330
125AA
100
AcDbEntity
  8
YODOROGO
100
AcDbLine
 10
15395.80217064596
 20
781.8747482146434
 30
0.0
 11
15395.80217064596
 21
877.8747482146437
 31
0.0
  0
LINE
  5
18E5F
330
125AA
100
AcDbEntity
  8
YODOROGO
100
AcDbLine
 10
15381.80217064596
 20
845.8747482146444
 30
0.0
 11
15381.80217064596
 21
781.8747482146434
 31
0.0
  0
LINE
  5
18E60
330
125AA
100
AcDbEntity
  8
YODOROGO
100
AcDbLine
 10
15361.80217064596
 20
745.8747482146443
 30
0.0
 11
15361.80217064596
 21
845.8747482146444
 31
0.0
  0
LINE
  5
18E61
330
125AA
100
AcDbEntity
  8
YODOROGO
100
AcDbLine
 10
15449.80217064596
 20
845.8747482146444
 30
0.0
 11
15449.80217064596
 21
745.8747482146443
 31
0.0
  0
LINE
  5
18E62
330
125AA
100
AcDbEntity
  8
YODOROGO
100
AcDbLine
 10
15429.80217064596
 20
781.8747482146434
 30
0.0
 11
15429.80217064596
 21
845.8747482146444
 31
0.0
  0
LINE
  5
18E63
330
125AA
100
AcDbEntity
  8
YODOROGO
100
AcDbLine
 10
15415.80217064596
 20
877.8747482146437
 30
0.0
 11
15415.80217064596
 21
781.8747482146434
 31
0.0
  0
LINE
  5
18E64
330
125AA
100
AcDbEntity
  8
YODOROGO
100
AcDbLine
 10
15486.80217064596
 20
1013.874748214644
 30
0.0
 11
15486.80217064596
 21
733.8747482146437
 31
0.0
  0
LINE
  5
18E65
330
125AA
100
AcDbEntity
  8
YODOROGO
100
AcDbLine
 10
15322.80217064596
 20
713.8747482146436
 30
0.0
 11
15322.80217064596
 21
1013.874748214644
 31
0.0
  0
LINE
  5
18E66
330
125AA
100
AcDbEntity
  8
YODOROGO
100
AcDbLine
 10
15348.80217064596
 20
981.8747482146434
 30
0.0
 11
15348.80217064596
 21
713.8747482146436
 31
0.0
  0
LINE
  5
18E67
330
125AA
100
AcDbEntity
  8
YODOROGO
100
AcDbLine
 10
15462.80217064596
 20
773.8747482146439
 30
0.0
 11
15462.80217064596
 21
981.8747482146434
 31
0.0
  0
LINE
  5
18E68
330
125AA
100
AcDbEntity
  8
YODOROGO
100
AcDbLine
 10
15190.80217064596
 20
813.8747482146436
 30
0.0
 11
15190.80217064596
 21
839.8747482146443
 31
0.0
  0
LINE
  5
18E69
330
125AA
100
AcDbEntity
  8
YODOROGO
100
AcDbLine
 10
15308.80217064596
 20
839.8747482146443
 30
0.0
 11
15308.80217064596
 21
813.8747482146436
 31
0.0
  0
LINE
  5
18E6A
330
125AA
100
AcDbEntity
  8
YODOROGO
100
AcDbLine
 10
15582.80217064596
 20
953.874748214644
 30
0.0
 11
15582.80217064596
 21
817.8747482146436
 31
0.0
  0
LINE
  5
18E6B
330
125AA
100
AcDbEntity
  8
YODOROGO
100
AcDbLine
 10
14974.80217064595
 20
833.8747482146439
 30
0.0
 11
14974.80217064595
 21
853.8747482146439
 31
0.0
  0
LINE
  5
18E6C
330
125AA
100
AcDbEntity
  8
YODOROGO
100
AcDbLine
 10
14974.80217064595
 20
833.8747482146439
 30
0.0
 11
14974.80217064595
 21
853.8747482146439
 31
0.0
  0
ARC
  5
18E6D
330
125AA
100
AcDbEntity
  8
YODOROGO
100
AcDbCircle
 10
15268.80217064596
 20
753.8747482146439
 30
0.0
 40
40.0
100
AcDbArc
 50
270.0
 51
0.0
  0
LINE
  5
18E6E
330
125AA
100
AcDbEntity
  8
YODOROGO
100
AcDbLine
 10
15284.80217064596
 20
799.8747482146441
 30
0.0
 11
15308.80217064596
 21
799.8747482146441
 31
0.0
  0
LINE
  5
18E6F
330
125AA
100
AcDbEntity
  8
YODOROGO
100
AcDbLine
 10
15308.80217064596
 20
813.8747482146436
 30
0.0
 11
15264.80217064596
 21
813.8747482146436
 31
0.0
  0
LINE
  5
18E70
330
125AA
100
AcDbEntity
  8
YODOROGO
100
AcDbLine
 10
15108.80217064596
 20
833.8747482146439
 30
0.0
 11
14974.80217064595
 21
833.8747482146439
 31
0.0
  0
LINE
  5
18E71
330
125AA
100
AcDbEntity
  8
YODOROGO
100
AcDbLine
 10
15108.80217064596
 20
813.8747482146436
 30
0.0
 11
15108.80217064596
 21
833.8747482146439
 31
0.0
  0
LINE
  5
18E72
330
125AA
100
AcDbEntity
  8
YODOROGO
100
AcDbLine
 10
15008.80217064596
 20
813.8747482146436
 30
0.0
 11
15108.80217064596
 21
813.8747482146436
 31
0.0
  0
ARC
  5
18E73
330
125AA
100
AcDbEntity
  8
YODOROGO
100
AcDbCircle
 10
15115.02941435068
 20
934.4428574764513
 30
0.0
 40
160.6888181426141
100
AcDbArc
 50
228.6181454618993
 51
245.660289248906
  0
LINE
  5
18E74
330
125AA
100
AcDbEntity
  8
YODOROGO
100
AcDbLine
 10
15052.80217064596
 20
801.8747482146446
 30
0.0
 11
15048.80217064598
 21
788.0364079349501
 31
0.0
  0
LINE
  5
18E75
330
125AA
100
AcDbEntity
  8
YODOROGO
100
AcDbLine
 10
15094.80217064596
 20
801.8747482146446
 30
0.0
 11
15052.80217064596
 21
801.8747482146446
 31
0.0
  0
LINE
  5
18E76
330
125AA
100
AcDbEntity
  8
YODOROGO
100
AcDbLine
 10
15088.80217064596
 20
775.9088612367134
 30
0.0
 11
15094.80217064596
 21
801.8747482146446
 31
0.0
  0
ARC
  5
18E77
330
125AA
100
AcDbEntity
  8
YODOROGO
100
AcDbCircle
 10
15115.02941435023
 20
934.4428574765013
 30
0.0
 40
160.6888181426453
100
AcDbArc
 50
260.6062929796993
 51
267.7790355655585
  0
LINE
  5
18E78
330
125AA
100
AcDbEntity
  8
YODOROGO
100
AcDbLine
 10
15108.80217064596
 20
713.8747482146428
 30
0.0
 11
15108.80217064596
 21
773.8747482146439
 31
0.0
  0
LINE
  5
18E79
330
125AA
100
AcDbEntity
  8
YODOROGO
100
AcDbLine
 10
14968.80217064596
 20
740.6696674577553
 30
0.0
 11
14968.80217064596
 21
797.2655452655707
 31
0.0
  0
LINE
  5
18E7A
330
125AA
100
AcDbEntity
  8
YODOROGO
100
AcDbLine
 10
15108.80217064596
 20
833.8747482146439
 30
0.0
 11
14974.80217064595
 21
833.8747482146439
 31
0.0
  0
LINE
  5
18E7B
330
125AA
100
AcDbEntity
  8
YODOROGO
100
AcDbLine
 10
15108.80217064596
 20
813.8747482146436
 30
0.0
 11
15108.80217064596
 21
833.8747482146439
 31
0.0
  0
LINE
  5
18E7C
330
125AA
100
AcDbEntity
  8
YODOROGO
100
AcDbLine
 10
15008.80217064596
 20
813.8747482146436
 30
0.0
 11
15108.80217064596
 21
813.8747482146436
 31
0.0
  0
ARC
  5
18E7D
330
125AA
100
AcDbEntity
  8
YODOROGO
100
AcDbCircle
 10
15115.02941435068
 20
934.4428574764513
 30
0.0
 40
160.6888181426141
100
AcDbArc
 50
228.6181454618993
 51
245.660289248906
  0
LINE
  5
18E7E
330
125AA
100
AcDbEntity
  8
YODOROGO
100
AcDbLine
 10
15052.80217064596
 20
801.8747482146446
 30
0.0
 11
15048.80217064598
 21
788.0364079349501
 31
0.0
  0
LINE
  5
18E7F
330
125AA
100
AcDbEntity
  8
YODOROGO
100
AcDbLine
 10
15094.80217064596
 20
801.8747482146446
 30
0.0
 11
15052.80217064596
 21
801.8747482146446
 31
0.0
  0
LINE
  5
18E80
330
125AA
100
AcDbEntity
  8
YODOROGO
100
AcDbLine
 10
15088.80217064596
 20
775.9088612367134
 30
0.0
 11
15094.80217064596
 21
801.8747482146446
 31
0.0
  0
ARC
  5
18E81
330
125AA
100
AcDbEntity
  8
YODOROGO
100
AcDbCircle
 10
15115.02941435023
 20
934.4428574765013
 30
0.0
 40
160.6888181426453
100
AcDbArc
 50
260.6062929796993
 51
267.7790355655585
  0
LINE
  5
18E82
330
125AA
100
AcDbEntity
  8
YODOROGO
100
AcDbLine
 10
15108.80217064596
 20
713.8747482146428
 30
0.0
 11
15108.80217064596
 21
773.8747482146439
 31
0.0
  0
LINE
  5
18E83
330
125AA
100
AcDbEntity
  8
YODOROGO
100
AcDbLine
 10
14968.80217064596
 20
740.6696674577553
 30
0.0
 11
14968.80217064596
 21
797.2655452655707
 31
0.0
  0
LINE
  5
18E84
330
125AA
100
AcDbEntity
  8
YODOROGO
100
AcDbLine
 10
15216.80217064596
 20
786.8747482146446
 30
0.0
 11
15190.80217064596
 21
786.8747482146446
 31
0.0
  0
LINE
  5
18E85
330
125AA
100
AcDbEntity
  8
YODOROGO
100
AcDbLine
 10
15216.80217064596
 20
800.8747482146432
 30
0.0
 11
15216.80217064596
 21
786.8747482146446
 31
0.0
  0
LINE
  5
18E86
330
125AA
100
AcDbEntity
  8
YODOROGO
100
AcDbLine
 10
15190.80217064596
 20
800.8747482146432
 30
0.0
 11
15216.80217064596
 21
800.8747482146432
 31
0.0
  0
LINE
  5
18E87
330
125AA
100
AcDbEntity
  8
YODOROGO
100
AcDbLine
 10
15190.80217064596
 20
786.8747482146446
 30
0.0
 11
15190.80217064596
 21
800.8747482146432
 31
0.0
  0
LINE
  5
18E88
330
125AA
100
AcDbEntity
  8
YODOROGO
100
AcDbLine
 10
15214.80217064596
 20
788.8747482146436
 30
0.0
 11
15192.80217064595
 21
788.8747482146436
 31
0.0
  0
LINE
  5
18E89
330
125AA
100
AcDbEntity
  8
YODOROGO
100
AcDbLine
 10
15214.80217064596
 20
798.8747482146439
 30
0.0
 11
15214.80217064596
 21
788.8747482146436
 31
0.0
  0
LINE
  5
18E8A
330
125AA
100
AcDbEntity
  8
YODOROGO
100
AcDbLine
 10
15192.80217064595
 20
798.8747482146439
 30
0.0
 11
15214.80217064596
 21
798.8747482146439
 31
0.0
  0
LINE
  5
18E8B
330
125AA
100
AcDbEntity
  8
YODOROGO
100
AcDbLine
 10
15192.80217064595
 20
788.8747482146436
 30
0.0
 11
15192.80217064595
 21
798.8747482146439
 31
0.0
  0
LINE
  5
18E8C
330
125AA
100
AcDbEntity
  8
YODOROGO
100
AcDbLine
 10
15212.80217064596
 20
790.8747482146432
 30
0.0
 11
15194.80217064596
 21
790.8747482146432
 31
0.0
  0
LINE
  5
18E8D
330
125AA
100
AcDbEntity
  8
YODOROGO
100
AcDbLine
 10
15212.80217064596
 20
796.8747482146445
 30
0.0
 11
15212.80217064596
 21
790.8747482146432
 31
0.0
  0
LINE
  5
18E8E
330
125AA
100
AcDbEntity
  8
YODOROGO
100
AcDbLine
 10
15194.80217064596
 20
796.8747482146445
 30
0.0
 11
15212.80217064596
 21
796.8747482146445
 31
0.0
  0
LINE
  5
18E8F
330
125AA
100
AcDbEntity
  8
YODOROGO
100
AcDbLine
 10
15194.80217064596
 20
790.8747482146432
 30
0.0
 11
15194.80217064596
 21
796.8747482146445
 31
0.0
  0
LINE
  5
18E90
330
125AA
100
AcDbEntity
  8
YODOROGO
100
AcDbLine
 10
15210.80217064596
 20
792.8747482146435
 30
0.0
 11
15196.80217064596
 21
792.8747482146435
 31
0.0
  0
LINE
  5
18E91
330
125AA
100
AcDbEntity
  8
YODOROGO
100
AcDbLine
 10
15210.80217064596
 20
794.8747482146441
 30
0.0
 11
15210.80217064596
 21
792.8747482146435
 31
0.0
  0
LINE
  5
18E92
330
125AA
100
AcDbEntity
  8
YODOROGO
100
AcDbLine
 10
15196.80217064596
 20
794.8747482146441
 30
0.0
 11
15210.80217064596
 21
794.8747482146441
 31
0.0
  0
LINE
  5
18E93
330
125AA
100
AcDbEntity
  8
YODOROGO
100
AcDbLine
 10
15196.80217064596
 20
792.8747482146435
 30
0.0
 11
15196.80217064596
 21
794.8747482146441
 31
0.0
  0
LINE
  5
18E94
330
125AA
100
AcDbEntity
  8
YODOROGO
100
AcDbLine
 10
15232.80217064596
 20
813.8747482146436
 30
0.0
 11
15190.80217064596
 21
813.8747482146436
 31
0.0
  0
LINE
  5
18E95
330
125AA
100
AcDbEntity
  8
YODOROGO
100
AcDbLine
 10
15232.80217064596
 20
773.8747482146439
 30
0.0
 11
15232.80217064596
 21
813.8747482146436
 31
0.0
  0
LINE
  5
18E96
330
125AA
100
AcDbEntity
  8
YODOROGO
100
AcDbLine
 10
15190.80217064596
 20
773.8747482146439
 30
0.0
 11
15232.80217064596
 21
773.8747482146439
 31
0.0
  0
LINE
  5
18E97
330
125AA
100
AcDbEntity
  8
YODOROGO
100
AcDbLine
 10
15190.80217064596
 20
713.8747482146436
 30
0.0
 11
15190.80217064596
 21
773.8747482146439
 31
0.0
  0
LINE
  5
18E98
330
125AA
100
AcDbEntity
  8
YODOROGO
100
AcDbLine
 10
15268.80217064596
 20
713.8747482146436
 30
0.0
 11
15190.80217064596
 21
713.8747482146436
 31
0.0
  0
LINE
  5
18E99
330
125AA
100
AcDbEntity
  8
YODOROGO
100
AcDbLine
 10
15284.80217064596
 20
785.8747482146432
 30
0.0
 11
15284.80217064596
 21
799.8747482146441
 31
0.0
  0
ARC
  5
18E9A
330
125AA
100
AcDbEntity
  8
YODOROGO
100
AcDbCircle
 10
15272.80217064594
 20
785.8747482146457
 30
0.0
 40
12.00000000000186
100
AcDbArc
 50
270.0
 51
359.9999999999877
  0
LINE
  5
18E9B
330
125AA
100
AcDbEntity
  8
YODOROGO
100
AcDbLine
 10
15264.80217064596
 20
773.8747482146439
 30
0.0
 11
15272.80217064594
 21
773.8747482146439
 31
0.0
  0
LINE
  5
18E9C
330
125AA
100
AcDbEntity
  8
YODOROGO
100
AcDbLine
 10
15264.80217064596
 20
813.8747482146436
 30
0.0
 11
15264.80217064596
 21
773.8747482146439
 31
0.0
  0
LINE
  5
18E9D
330
125AA
100
AcDbEntity
  8
YODOROGO
100
AcDbLine
 10
15449.80217064597
 20
773.8747482146439
 30
0.0
 11
15462.80217064596
 21
773.8747482146439
 31
0.0
  0
LINE
  5
18E9E
330
125AA
100
AcDbEntity
  8
YODOROGO
100
AcDbLine
 10
15466.80217064596
 20
713.8747482146436
 30
0.0
 11
15449.80217064596
 21
713.8747482146436
 31
0.0
  0
LINE
  5
18E9F
330
125AA
100
AcDbEntity
  8
YODOROGO
100
AcDbLine
 10
15381.80217064596
 20
781.8747482146434
 30
0.0
 11
15395.80217064596
 21
781.8747482146434
 31
0.0
  0
LINE
  5
18EA0
330
125AA
100
AcDbEntity
  8
YODOROGO
100
AcDbLine
 10
15449.80217064596
 20
745.8747482146443
 30
0.0
 11
15361.80217064596
 21
745.8747482146443
 31
0.0
  0
LINE
  5
18EA1
330
125AA
100
AcDbEntity
  8
YODOROGO
100
AcDbLine
 10
15415.80217064596
 20
781.8747482146434
 30
0.0
 11
15429.80217064596
 21
781.8747482146434
 31
0.0
  0
LINE
  5
18EA2
330
125AA
100
AcDbEntity
  8
YODOROGO
100
AcDbLine
 10
15449.80217064596
 20
713.8747482146436
 30
0.0
 11
15449.80217064597
 21
773.8747482146439
 31
0.0
  0
LINE
  5
18EA3
330
125AA
100
AcDbEntity
  8
YODOROGO
100
AcDbLine
 10
15348.80217064596
 20
713.8747482146436
 30
0.0
 11
15322.80217064596
 21
713.8747482146436
 31
0.0
  0
LINE
  5
18EA4
330
125AA
100
AcDbEntity
  8
YODOROGO
100
AcDbLine
 10
15308.80217064596
 20
799.8747482146441
 30
0.0
 11
15308.80217064596
 21
753.8747482146439
 31
0.0
  0
ARC
  5
18EA5
330
125AA
100
AcDbEntity
  8
YODOROGO
100
AcDbCircle
 10
15466.80217064596
 20
733.8747482146437
 30
0.0
 40
20.0
100
AcDbArc
 50
270.0
 51
0.0
  0
LINE
  5
18EA6
330
125AA
100
AcDbEntity
  8
YODOROGO
100
AcDbLine
 10
15546.80217064596
 20
761.8747482146434
 30
0.0
 11
15546.80217064596
 21
713.8747482146436
 31
0.0
  0
ARC
  5
18EA7
330
125AA
100
AcDbEntity
  8
YODOROGO
100
AcDbCircle
 10
15519.86069778339
 20
818.7656950548667
 30
0.0
 40
62.94777829583771
100
AcDbArc
 50
295.3405244216011
 51
359.1890230341867
  0
LINE
  5
18EA8
330
125AA
100
AcDbEntity
  8
YODOROGO
100
AcDbLine
 10
15308.80217064596
 20
929.874748214644
 30
0.0
 11
15248.80217064596
 21
969.8747482146441
 31
0.0
  0
LINE
  5
18EA9
330
125AA
100
AcDbEntity
  8
YODOROGO
100
AcDbLine
 10
15248.80217064596
 20
1013.874748214644
 30
0.0
 11
15308.80217064596
 21
973.8747482146436
 31
0.0
  0
LINE
  5
18EAA
330
125AA
100
AcDbEntity
  8
YODOROGO
100
AcDbLine
 10
15264.80217064596
 20
839.8747482146443
 30
0.0
 11
15308.80217064596
 21
839.8747482146443
 31
0.0
  0
LINE
  5
18EAB
330
125AA
100
AcDbEntity
  8
YODOROGO
100
AcDbLine
 10
15308.80217064596
 20
867.8747482146436
 30
0.0
 11
15264.80217064596
 21
867.8747482146436
 31
0.0
  0
LINE
  5
18EAC
330
125AA
100
AcDbEntity
  8
YODOROGO
100
AcDbLine
 10
15190.80217064596
 20
897.8747482146435
 30
0.0
 11
15308.80217064596
 21
897.8747482146435
 31
0.0
  0
LINE
  5
18EAD
330
125AA
100
AcDbEntity
  8
YODOROGO
100
AcDbLine
 10
15040.80217064596
 20
1013.874748214644
 30
0.0
 11
15010.80217064596
 21
1013.874748214644
 31
0.0
  0
LINE
  5
18EAE
330
125AA
100
AcDbEntity
  8
YODOROGO
100
AcDbLine
 10
15040.80217064596
 20
913.8747482146436
 30
0.0
 11
15040.80217064596
 21
1013.874748214644
 31
0.0
  0
LINE
  5
18EAF
330
125AA
100
AcDbEntity
  8
YODOROGO
100
AcDbLine
 10
15010.80217064596
 20
913.8747482146436
 30
0.0
 11
15040.80217064596
 21
913.8747482146436
 31
0.0
  0
LINE
  5
18EB0
330
125AA
100
AcDbEntity
  8
YODOROGO
100
AcDbLine
 10
15010.80217064596
 20
1013.874748214644
 30
0.0
 11
15010.80217064596
 21
913.8747482146436
 31
0.0
  0
LINE
  5
18EB1
330
125AA
100
AcDbEntity
  8
YODOROGO
100
AcDbLine
 10
15080.80217064596
 20
1013.874748214644
 30
0.0
 11
15108.80217064596
 21
1013.874748214644
 31
0.0
  0
LINE
  5
18EB2
330
125AA
100
AcDbEntity
  8
YODOROGO
100
AcDbLine
 10
15080.80217064596
 20
905.8747482146443
 30
0.0
 11
15080.80217064596
 21
1013.874748214644
 31
0.0
  0
ARC
  5
18EB3
330
125AA
100
AcDbEntity
  8
YODOROGO
100
AcDbCircle
 10
15060.80217064596
 20
905.8747482146443
 30
0.0
 40
20.0
100
AcDbArc
 50
270.0
 51
0.0
  0
LINE
  5
18EB4
330
125AA
100
AcDbEntity
  8
YODOROGO
100
AcDbLine
 10
15010.80217064596
 20
885.8747482146442
 30
0.0
 11
15060.80217064596
 21
885.8747482146442
 31
0.0
  0
LINE
  5
18EB5
330
125AA
100
AcDbEntity
  8
YODOROGO
100
AcDbLine
 10
15010.80217064596
 20
853.8747482146439
 30
0.0
 11
15010.80217064596
 21
885.8747482146442
 31
0.0
  0
LINE
  5
18EB6
330
125AA
100
AcDbEntity
  8
YODOROGO
100
AcDbLine
 10
15068.80217064596
 20
853.8747482146439
 30
0.0
 11
15010.80217064596
 21
853.8747482146439
 31
0.0
  0
ARC
  5
18EB7
330
125AA
100
AcDbEntity
  8
YODOROGO
100
AcDbCircle
 10
15068.80217064596
 20
893.8747482146439
 30
0.0
 40
40.0
100
AcDbArc
 50
270.0
 51
0.0
  0
LINE
  5
18EB8
330
125AA
100
AcDbEntity
  8
YODOROGO
100
AcDbLine
 10
15108.80217064596
 20
1013.874748214644
 30
0.0
 11
15108.80217064596
 21
893.8747482146439
 31
0.0
  0
LINE
  5
18EB9
330
125AA
100
AcDbEntity
  8
YODOROGO
100
AcDbLine
 10
14988.80217064596
 20
973.8747482146436
 30
0.0
 11
14988.80217064596
 21
997.8747482146435
 31
0.0
1001
AUTOCAD_POSTSCRIPT_FIGURE
1002
{
1000
PSFILL
1000
Grayscale
1000
Grayscale
1070
    25
1002
}
  0
LINE
  5
18EBA
330
125AA
100
AcDbEntity
  8
YODOROGO
100
AcDbLine
 10
14988.80217064596
 20
929.874748214644
 30
0.0
 11
14988.80217064596
 21
953.874748214644
 31
0.0
1001
AUTOCAD_POSTSCRIPT_FIGURE
1002
{
1000
PSFILL
1000
Grayscale
1000
Grayscale
1070
    25
1002
}
  0
LINE
  5
18EBB
330
125AA
100
AcDbEntity
  8
YODOROGO
100
AcDbLine
 10
14988.80217064596
 20
853.8747482146439
 30
0.0
 11
14988.80217064596
 21
909.8747482146439
 31
0.0
1001
AUTOCAD_POSTSCRIPT_FIGURE
1002
{
1000
PSFILL
1000
Grayscale
1000
Grayscale
1070
    25
1002
}
  0
LINE
  5
18EBC
330
125AA
100
AcDbEntity
  8
YODOROGO
100
AcDbLine
 10
15190.80217064596
 20
953.874748214644
 30
0.0
 11
15248.80217064596
 21
1013.874748214644
 31
0.0
  0
LINE
  5
18EBD
330
125AA
100
AcDbEntity
  8
YODOROGO
100
AcDbLine
 10
15190.80217064596
 20
909.8747482146439
 30
0.0
 11
15190.80217064596
 21
953.874748214644
 31
0.0
  0
LINE
  5
18EBE
330
125AA
100
AcDbEntity
  8
YODOROGO
100
AcDbLine
 10
15248.80217064596
 20
969.8747482146441
 30
0.0
 11
15190.80217064596
 21
909.8747482146439
 31
0.0
  0
LINE
  5
18EBF
330
125AA
100
AcDbEntity
  8
YODOROGO
100
AcDbLine
 10
15232.80217064596
 20
839.8747482146443
 30
0.0
 11
15232.80217064596
 21
867.8747482146436
 31
0.0
  0
LINE
  5
18EC0
330
125AA
100
AcDbEntity
  8
YODOROGO
100
AcDbLine
 10
15190.80217064596
 20
839.8747482146443
 30
0.0
 11
15232.80217064596
 21
839.8747482146443
 31
0.0
  0
LINE
  5
18EC1
330
125AA
100
AcDbEntity
  8
YODOROGO
100
AcDbLine
 10
15264.80217064596
 20
867.8747482146436
 30
0.0
 11
15264.80217064596
 21
839.8747482146443
 31
0.0
  0
LINE
  5
18EC2
330
125AA
100
AcDbEntity
  8
YODOROGO
100
AcDbLine
 10
15190.80217064596
 20
867.8747482146436
 30
0.0
 11
15190.80217064596
 21
897.8747482146435
 31
0.0
  0
LINE
  5
18EC3
330
125AA
100
AcDbEntity
  8
YODOROGO
100
AcDbLine
 10
15232.80217064596
 20
867.8747482146436
 30
0.0
 11
15190.80217064596
 21
867.8747482146436
 31
0.0
  0
LINE
  5
18EC4
330
125AA
100
AcDbEntity
  8
YODOROGO
100
AcDbLine
 10
15322.80217064596
 20
1013.874748214644
 30
0.0
 11
15486.80217064596
 21
1013.874748214644
 31
0.0
  0
LINE
  5
18EC5
330
125AA
100
AcDbEntity
  8
YODOROGO
100
AcDbLine
 10
15462.80217064596
 20
981.8747482146434
 30
0.0
 11
15348.80217064596
 21
981.8747482146434
 31
0.0
  0
LINE
  5
18EC6
330
125AA
100
AcDbEntity
  8
YODOROGO
100
AcDbLine
 10
15436.80217064595
 20
909.8747482146439
 30
0.0
 11
15449.80217064596
 21
909.8747482146439
 31
0.0
  0
LINE
  5
18EC7
330
125AA
100
AcDbEntity
  8
YODOROGO
100
AcDbLine
 10
15449.80217064596
 20
969.8747482146441
 30
0.0
 11
15436.80217064595
 21
909.8747482146439
 31
0.0
  0
LINE
  5
18EC8
330
125AA
100
AcDbEntity
  8
YODOROGO
100
AcDbLine
 10
15425.80217064596
 20
969.8747482146441
 30
0.0
 11
15449.80217064596
 21
969.8747482146441
 31
0.0
  0
LINE
  5
18EC9
330
125AA
100
AcDbEntity
  8
YODOROGO
100
AcDbLine
 10
15412.80217064596
 20
909.8747482146439
 30
0.0
 11
15425.80217064596
 21
969.8747482146441
 31
0.0
  0
LINE
  5
18ECA
330
125AA
100
AcDbEntity
  8
YODOROGO
100
AcDbLine
 10
15398.80217064596
 20
909.8747482146439
 30
0.0
 11
15412.80217064596
 21
909.8747482146439
 31
0.0
  0
LINE
  5
18ECB
330
125AA
100
AcDbEntity
  8
YODOROGO
100
AcDbLine
 10
15385.80217064596
 20
969.8747482146441
 30
0.0
 11
15398.80217064596
 21
909.8747482146439
 31
0.0
  0
LINE
  5
18ECC
330
125AA
100
AcDbEntity
  8
YODOROGO
100
AcDbLine
 10
15361.80217064596
 20
969.8747482146441
 30
0.0
 11
15385.80217064596
 21
969.8747482146441
 31
0.0
  0
LINE
  5
18ECD
330
125AA
100
AcDbEntity
  8
YODOROGO
100
AcDbLine
 10
15374.80217064596
 20
909.8747482146439
 30
0.0
 11
15361.80217064596
 21
969.8747482146441
 31
0.0
  0
LINE
  5
18ECE
330
125AA
100
AcDbEntity
  8
YODOROGO
100
AcDbLine
 10
15361.80217064596
 20
909.8747482146439
 30
0.0
 11
15374.80217064596
 21
909.8747482146439
 31
0.0
  0
LINE
  5
18ECF
330
125AA
100
AcDbEntity
  8
YODOROGO
100
AcDbLine
 10
15361.80217064596
 20
877.8747482146437
 30
0.0
 11
15361.80217064596
 21
909.8747482146439
 31
0.0
  0
LINE
  5
18ED0
330
125AA
100
AcDbEntity
  8
YODOROGO
100
AcDbLine
 10
15449.80217064596
 20
877.8747482146437
 30
0.0
 11
15361.80217064596
 21
877.8747482146437
 31
0.0
  0
LINE
  5
18ED1
330
125AA
100
AcDbEntity
  8
YODOROGO
100
AcDbLine
 10
15449.80217064596
 20
909.8747482146439
 30
0.0
 11
15449.80217064596
 21
877.8747482146437
 31
0.0
  0
LINE
  5
18ED2
330
125AA
100
AcDbEntity
  8
YODOROGO
100
AcDbLine
 10
15308.80217064596
 20
973.8747482146436
 30
0.0
 11
15308.80217064596
 21
929.874748214644
 31
0.0
  0
LINE
  5
18ED3
330
125AA
100
AcDbEntity
  8
YODOROGO
100
AcDbLine
 10
15395.80217064596
 20
877.8747482146437
 30
0.0
 11
15415.80217064596
 21
877.8747482146437
 31
0.0
  0
LINE
  5
18ED4
330
125AA
100
AcDbEntity
  8
YODOROGO
100
AcDbLine
 10
15361.80217064596
 20
845.8747482146444
 30
0.0
 11
15381.80217064596
 21
845.8747482146444
 31
0.0
  0
LINE
  5
18ED5
330
125AA
100
AcDbEntity
  8
YODOROGO
100
AcDbLine
 10
15429.80217064596
 20
845.8747482146444
 30
0.0
 11
15449.80217064596
 21
845.8747482146444
 31
0.0
  0
LINE
  5
18ED6
330
125AA
100
AcDbEntity
  8
YODOROGO
100
AcDbLine
 10
15308.80217064596
 20
897.8747482146435
 30
0.0
 11
15308.80217064596
 21
867.8747482146436
 31
0.0
  0
LINE
  5
18ED7
330
125AA
100
AcDbEntity
  8
YODOROGO
100
AcDbLine
 10
15582.80217064596
 20
1013.874748214644
 30
0.0
 11
15582.80217064596
 21
981.8747482146434
 31
0.0
  0
LINE
  5
18ED8
330
125AA
100
AcDbEntity
  8
YODOROGO
100
AcDbLine
 10
15766.80217064596
 20
797.8747482146435
 30
0.0
 11
15766.80217064595
 21
905.8747482146443
 31
0.0
  0
LINE
  5
18ED9
330
125AA
100
AcDbEntity
  8
YODOROGO
100
AcDbLine
 10
15730.80217064594
 20
993.8747482146439
 30
0.0
 11
15730.80217064594
 21
817.8747482146436
 31
0.0
  0
LINE
  5
18EDA
330
125AA
100
AcDbEntity
  8
YODOROGO
100
AcDbLine
 10
15826.80217064596
 20
713.8747482146436
 30
0.0
 11
15826.80217064595
 21
905.8747482146443
 31
0.0
  0
LINE
  5
18EDB
330
125AA
100
AcDbEntity
  8
YODOROGO
100
AcDbLine
 10
15794.80217064596
 20
905.8747482146443
 30
0.0
 11
15794.80217064596
 21
713.8747482146436
 31
0.0
  0
LINE
  5
18EDC
330
125AA
100
AcDbEntity
  8
YODOROGO
100
AcDbLine
 10
15618.80217064596
 20
797.8747482146435
 30
0.0
 11
15618.80217064596
 21
853.8747482146439
 31
0.0
  0
ARC
  5
18EDD
330
125AA
100
AcDbEntity
  8
YODOROGO
100
AcDbCircle
 10
15676.95743255803
 20
803.8951756442788
 30
0.0
 40
90.04622428799429
100
AcDbArc
 50
268.6284910216979
 51
356.1663845733032
  0
LINE
  5
18EDE
330
125AA
100
AcDbEntity
  8
YODOROGO
100
AcDbLine
 10
15674.80217064596
 20
763.8747482146436
 30
0.0
 11
15674.80217064596
 21
713.8747482146436
 31
0.0
  0
ARC
  5
18EDF
330
125AA
100
AcDbEntity
  8
YODOROGO
100
AcDbCircle
 10
15675.75903786228
 20
818.9194785088275
 30
0.0
 40
55.05304649180608
100
AcDbArc
 50
269.0041020930593
 51
358.9126445549248
  0
LINE
  5
18EE0
330
125AA
100
AcDbEntity
  8
YODOROGO
100
AcDbLine
 10
15794.80217064596
 20
713.8747482146436
 30
0.0
 11
15826.80217064596
 21
713.8747482146436
 31
0.0
  0
LINE
  5
18EE1
330
125AA
100
AcDbEntity
  8
YODOROGO
100
AcDbLine
 10
15766.80217064595
 20
905.8747482146443
 30
0.0
 11
15794.80217064596
 21
905.8747482146443
 31
0.0
  0
LINE
  5
18EE2
330
125AA
100
AcDbEntity
  8
YODOROGO
100
AcDbLine
 10
15810.80217064596
 20
993.8747482146439
 30
0.0
 11
15730.80217064594
 21
993.8747482146439
 31
0.0
  0
LINE
  5
18EE3
330
125AA
100
AcDbEntity
  8
YODOROGO
100
AcDbLine
 10
15766.80217064595
 20
957.8747482146436
 30
0.0
 11
15830.80217064596
 21
957.8747482146436
 31
0.0
  0
LINE
  5
18EE4
330
125AA
100
AcDbEntity
  8
YODOROGO
100
AcDbLine
 10
15850.80217064596
 20
937.8747482146435
 30
0.0
 11
15766.80217064595
 21
937.8747482146435
 31
0.0
  0
LINE
  5
18EE5
330
125AA
100
AcDbEntity
  8
YODOROGO
100
AcDbLine
 10
15618.80217064596
 20
889.8747482146443
 30
0.0
 11
15674.80217064596
 21
889.8747482146443
 31
0.0
  0
LINE
  5
18EE6
330
125AA
100
AcDbEntity
  8
YODOROGO
100
AcDbLine
 10
15618.80217064596
 20
917.8747482146436
 30
0.0
 11
15618.80217064596
 21
889.8747482146443
 31
0.0
  0
LINE
  5
18EE7
330
125AA
100
AcDbEntity
  8
YODOROGO
100
AcDbLine
 10
15674.80217064596
 20
917.8747482146436
 30
0.0
 11
15618.80217064596
 21
917.8747482146436
 31
0.0
  0
LINE
  5
18EE8
330
125AA
100
AcDbEntity
  8
YODOROGO
100
AcDbLine
 10
15674.80217064596
 20
889.8747482146443
 30
0.0
 11
15674.80217064596
 21
917.8747482146436
 31
0.0
  0
LINE
  5
18EE9
330
125AA
100
AcDbEntity
  8
YODOROGO
100
AcDbLine
 10
15766.80217064595
 20
937.8747482146435
 30
0.0
 11
15766.80217064595
 21
957.8747482146436
 31
0.0
  0
LINE
  5
18EEA
330
125AA
100
AcDbEntity
  8
YODOROGO
100
AcDbLine
 10
15706.80217064596
 20
853.8747482146439
 30
0.0
 11
15706.80217064596
 21
953.874748214644
 31
0.0
  0
LINE
  5
18EEB
330
125AA
100
AcDbEntity
  8
YODOROGO
100
AcDbLine
 10
15618.80217064596
 20
853.8747482146439
 30
0.0
 11
15706.80217064596
 21
853.8747482146439
 31
0.0
  0
LINE
  5
18EEC
330
125AA
100
AcDbEntity
  8
YODOROGO
100
AcDbLine
 10
15706.80217064596
 20
981.8747482146434
 30
0.0
 11
15706.80217064596
 21
1013.874748214644
 31
0.0
  0
ARC
  5
18EED
330
125AA
100
AcDbEntity
  8
YODOROGO
100
AcDbCircle
 10
15810.80217064596
 20
1001.874748214642
 30
0.0
 40
7.999999999997271
100
AcDbArc
 50
270.0
 51
0.0000000000081422
  0
LINE
  5
18EEE
330
125AA
100
AcDbEntity
  8
YODOROGO
100
AcDbLine
 10
15818.80217064596
 20
1013.874748214644
 30
0.0
 11
15818.80217064596
 21
1001.874748214643
 31
0.0
  0
LINE
  5
18EEF
330
125AA
100
AcDbEntity
  8
YODOROGO
100
AcDbLine
 10
15850.80217064596
 20
1013.874748214644
 30
0.0
 11
15818.80217064596
 21
1013.874748214644
 31
0.0
  0
LINE
  5
18EF0
330
125AA
100
AcDbEntity
  8
YODOROGO
100
AcDbLine
 10
15850.80217064596
 20
977.8747482146435
 30
0.0
 11
15850.80217064596
 21
1013.874748214644
 31
0.0
  0
ARC
  5
18EF1
330
125AA
100
AcDbEntity
  8
YODOROGO
100
AcDbCircle
 10
15830.80217064596
 20
977.8747482146435
 30
0.0
 40
20.0
100
AcDbArc
 50
270.0
 51
0.0
  0
LINE
  5
18EF2
330
125AA
100
AcDbEntity
  8
YODOROGO
100
AcDbLine
 10
15850.80217064596
 20
905.8747482146443
 30
0.0
 11
15850.80217064596
 21
937.8747482146435
 31
0.0
  0
LINE
  5
18EF3
330
125AA
100
AcDbEntity
  8
YODOROGO
100
AcDbLine
 10
15826.80217064595
 20
905.8747482146443
 30
0.0
 11
15850.80217064596
 21
905.8747482146443
 31
0.0
  0
LINE
  5
18EF4
330
125AA
100
AcDbEntity
  8
SUNPOU
100
AcDbLine
 10
11781.33837406209
 20
2470.14434405315
 30
0.0
 11
11781.33837406209
 21
2200.804976716085
 31
0.0
  0
LINE
  5
18EF5
330
125AA
100
AcDbEntity
  8
SUNPOU
100
AcDbLine
 10
11861.33837406209
 20
2510.144344053149
 30
0.0
 11
11861.33837406209
 21
2200.804976716085
 31
0.0
  0
LINE
  5
18EF6
330
125AA
100
AcDbEntity
  8
SUNPOU
100
AcDbLine
 10
11766.33837406209
 20
2245.804976716085
 30
0.0
 11
11751.33837406209
 21
2245.804976716085
 31
0.0
  0
LINE
  5
18EF7
330
125AA
100
AcDbEntity
  8
SUNPOU
100
AcDbLine
 10
11876.33837406208
 20
2245.804976716085
 30
0.0
 11
12078.48123120495
 21
2245.804976716085
 31
0.0
  0
LINE
  5
18EF8
330
125AA
100
AcDbEntity
  8
SUNPOU
100
AcDbLine
 10
11781.33837406209
 20
2245.804976716085
 30
0.0
 11
11861.33837406209
 21
2245.804976716085
 31
0.0
  0
LINE
  5
18EFD
330
125AA
100
AcDbEntity
  8
SUNPOU
100
AcDbLine
 10
11301.33837406211
 20
2470.14434405315
 30
0.0
 11
11301.33837406211
 21
2200.804976716085
 31
0.0
  0
LINE
  5
18EFE
330
125AA
100
AcDbEntity
  8
SUNPOU
100
AcDbLine
 10
11781.33837406209
 20
2470.14434405315
 30
0.0
 11
11781.33837406209
 21
2200.804976716085
 31
0.0
  0
LINE
  5
18EFF
330
125AA
100
AcDbEntity
  8
SUNPOU
100
AcDbLine
 10
11316.33837406211
 20
2245.804976716085
 30
0.0
 11
11766.33837406209
 21
2245.804976716085
 31
0.0
  0
LINE
  5
18F03
330
125AA
100
AcDbEntity
  8
SUNPOU
100
AcDbLine
 10
11301.33837406211
 20
2470.14434405315
 30
0.0
 11
11301.33837406211
 21
2200.804976716085
 31
0.0
  0
LINE
  5
18F04
330
125AA
100
AcDbEntity
  8
SUNPOU
100
AcDbLine
 10
11221.33837406209
 20
2510.144344053149
 30
0.0
 11
11221.33837406209
 21
2200.804976716085
 31
0.0
  0
LINE
  5
18F05
330
125AA
100
AcDbEntity
  8
SUNPOU
100
AcDbLine
 10
11316.33837406211
 20
2245.804976716085
 30
0.0
 11
11331.3383740621
 21
2245.804976716085
 31
0.0
  0
LINE
  5
18F06
330
125AA
100
AcDbEntity
  8
SUNPOU
100
AcDbLine
 10
11206.33837406209
 20
2245.804976716085
 30
0.0
 11
11004.19551691924
 21
2245.804976716085
 31
0.0
  0
LINE
  5
18F07
330
125AA
100
AcDbEntity
  8
SUNPOU
100
AcDbLine
 10
11301.33837406211
 20
2245.804976716085
 30
0.0
 11
11221.33837406209
 21
2245.804976716085
 31
0.0
  0
LINE
  5
18F0B
330
125AA
100
AcDbEntity
  8
SUNPOU
100
AcDbLine
 10
11221.33837406209
 20
2510.144344053149
 30
0.0
 11
11221.33837406209
 21
1990.804976716086
 31
0.0
  0
LINE
  5
18F0C
330
125AA
100
AcDbEntity
  8
SUNPOU
100
AcDbLine
 10
11861.33837406209
 20
2510.144344053149
 30
0.0
 11
11861.33837406209
 21
1990.804976716086
 31
0.0
  0
LINE
  5
18F0D
330
125AA
100
AcDbEntity
  8
SUNPOU
100
AcDbLine
 10
11236.33837406209
 20
2035.804976716086
 30
0.0
 11
11846.33837406209
 21
2035.804976716086
 31
0.0
  0
LINE
  5
18F11
330
125AA
100
AcDbEntity
  8
SUNPOU
100
AcDbLine
 10
11195.33837406209
 20
2700.144344053149
 30
0.0
 11
10873.33837406209
 21
2700.144344053149
 31
0.0
  0
LINE
  5
18F12
330
125AA
100
AcDbEntity
  8
SUNPOU
100
AcDbLine
 10
11191.33837406208
 20
2540.14434405315
 30
0.0
 11
10873.33837406209
 21
2540.14434405315
 31
0.0
  0
LINE
  5
18F13
330
125AA
100
AcDbEntity
  8
SUNPOU
100
AcDbLine
 10
10918.33837406209
 20
2685.14434405315
 30
0.0
 11
10918.33837406209
 21
2555.144344053149
 31
0.0
  0
LINE
  5
18F14
330
125AA
100
AcDbEntity
  8
SUNPOU
100
AcDbLine
 10
10918.33837406209
 20
2540.14434405315
 30
0.0
 11
10918.33837406209
 21
2338.001486910291
 31
0.0
  0
LINE
  5
18F18
330
125AA
100
AcDbEntity
  8
SUNPOU
100
AcDbLine
 10
11195.33837406209
 20
2700.144344053149
 30
0.0
 11
10873.33837406209
 21
2700.144344053149
 31
0.0
  0
LINE
  5
18F19
330
125AA
100
AcDbEntity
  8
SUNPOU
100
AcDbLine
 10
11191.33837406208
 20
2860.14434405315
 30
0.0
 11
10873.33837406209
 21
2860.14434405315
 31
0.0
  0
LINE
  5
18F1A
330
125AA
100
AcDbEntity
  8
SUNPOU
100
AcDbLine
 10
10918.33837406209
 20
2715.144344053149
 30
0.0
 11
10918.33837406209
 21
2845.14434405315
 31
0.0
  0
LINE
  5
18F1B
330
125AA
100
AcDbEntity
  8
SUNPOU
100
AcDbLine
 10
10918.33837406209
 20
2860.14434405315
 30
0.0
 11
10918.33837406209
 21
3062.287201196007
 31
0.0
  0
LINE
  5
18F1F
330
125AA
100
AcDbEntity
  8
SUNPOU
100
AcDbLine
 10
11191.33837406208
 20
2540.14434405315
 30
0.0
 11
10663.33837406209
 21
2540.14434405315
 31
0.0
  0
LINE
  5
18F20
330
125AA
100
AcDbEntity
  8
SUNPOU
100
AcDbLine
 10
11191.33837406208
 20
2860.14434405315
 30
0.0
 11
10663.33837406209
 21
2860.14434405315
 31
0.0
  0
LINE
  5
18F21
330
125AA
100
AcDbEntity
  8
SUNPOU
100
AcDbLine
 10
10708.33837406208
 20
2555.144344053149
 30
0.0
 11
10708.33837406208
 21
2845.14434405315
 31
0.0
  0
LINE
  5
18F25
330
125AA
100
AcDbEntity
  8
SUNPOU
100
AcDbLine
 10
11781.33837406209
 20
3548.33703658456
 30
0.0
 11
11781.33837406209
 21
3349.170862655058
 31
0.0
  0
LINE
  5
18F26
330
125AA
100
AcDbEntity
  8
SUNPOU
100
AcDbLine
 10
11861.33837406209
 20
3588.337036584561
 30
0.0
 11
11861.33837406209
 21
3349.170862655058
 31
0.0
  0
LINE
  5
18F27
330
125AA
100
AcDbEntity
  8
SUNPOU
100
AcDbLine
 10
11766.33837406209
 20
3394.170862655057
 30
0.0
 11
11751.33837406209
 21
3394.170862655057
 31
0.0
  0
LINE
  5
18F28
330
125AA
100
AcDbEntity
  8
SUNPOU
100
AcDbLine
 10
11876.33837406208
 20
3394.170862655057
 30
0.0
 11
12078.48123120495
 21
3394.170862655057
 31
0.0
  0
LINE
  5
18F29
330
125AA
100
AcDbEntity
  8
SUNPOU
100
AcDbLine
 10
11781.33837406209
 20
3394.170862655057
 30
0.0
 11
11861.33837406209
 21
3394.170862655057
 31
0.0
  0
LINE
  5
18F2D
330
125AA
100
AcDbEntity
  8
SUNPOU
100
AcDbLine
 10
11301.33837406211
 20
3548.33703658456
 30
0.0
 11
11301.33837406211
 21
3349.170862655058
 31
0.0
  0
LINE
  5
18F2E
330
125AA
100
AcDbEntity
  8
SUNPOU
100
AcDbLine
 10
11781.33837406209
 20
3548.33703658456
 30
0.0
 11
11781.33837406209
 21
3349.170862655058
 31
0.0
  0
LINE
  5
18F2F
330
125AA
100
AcDbEntity
  8
SUNPOU
100
AcDbLine
 10
11316.33837406211
 20
3394.170862655057
 30
0.0
 11
11766.33837406209
 21
3394.170862655057
 31
0.0
  0
LINE
  5
18F33
330
125AA
100
AcDbEntity
  8
SUNPOU
100
AcDbLine
 10
11301.33837406211
 20
3548.33703658456
 30
0.0
 11
11301.33837406211
 21
3349.170862655058
 31
0.0
  0
LINE
  5
18F34
330
125AA
100
AcDbEntity
  8
SUNPOU
100
AcDbLine
 10
11221.33837406209
 20
3588.337036584561
 30
0.0
 11
11221.33837406209
 21
3349.170862655058
 31
0.0
  0
LINE
  5
18F35
330
125AA
100
AcDbEntity
  8
SUNPOU
100
AcDbLine
 10
11316.33837406211
 20
3394.170862655057
 30
0.0
 11
11331.3383740621
 21
3394.170862655057
 31
0.0
  0
LINE
  5
18F36
330
125AA
100
AcDbEntity
  8
SUNPOU
100
AcDbLine
 10
11206.33837406209
 20
3394.170862655057
 30
0.0
 11
11004.19551691924
 21
3394.170862655057
 31
0.0
  0
LINE
  5
18F37
330
125AA
100
AcDbEntity
  8
SUNPOU
100
AcDbLine
 10
11301.33837406211
 20
3394.170862655057
 30
0.0
 11
11221.33837406209
 21
3394.170862655057
 31
0.0
  0
LINE
  5
18F3B
330
125AA
100
AcDbEntity
  8
SUNPOU
100
AcDbLine
 10
11221.33837406209
 20
3588.337036584561
 30
0.0
 11
11221.33837406209
 21
3139.170862655058
 31
0.0
  0
LINE
  5
18F3C
330
125AA
100
AcDbEntity
  8
SUNPOU
100
AcDbLine
 10
11861.33837406209
 20
3588.337036584561
 30
0.0
 11
11861.33837406209
 21
3139.170862655058
 31
0.0
  0
LINE
  5
18F3D
330
125AA
100
AcDbEntity
  8
SUNPOU
100
AcDbLine
 10
11236.33837406209
 20
3184.170862655058
 30
0.0
 11
11846.33837406209
 21
3184.170862655058
 31
0.0
  0
LINE
  5
18F41
330
125AA
100
AcDbEntity
  8
SUNPOU
100
AcDbLine
 10
7940.123251791111
 20
2690.684839419606
 30
0.0
 11
7940.123251791111
 21
2103.684839419604
 31
0.0
  0
LINE
  5
18F42
330
125AA
100
AcDbEntity
  8
SUNPOU
100
AcDbLine
 10
9220.123251791108
 20
2690.684839419606
 30
0.0
 11
9220.123251791108
 21
2103.684839419604
 31
0.0
  0
LINE
  5
18F43
330
125AA
100
AcDbEntity
  8
SUNPOU
100
AcDbLine
 10
7955.123251791111
 20
2148.684839419604
 30
0.0
 11
9205.123251791109
 21
2148.684839419604
 31
0.0
  0
LINE
  5
18F47
330
125AA
100
AcDbEntity
  8
SUNPOU
100
AcDbLine
 10
7780.123251791109
 20
2530.684839419603
 30
0.0
 11
7780.123251791109
 21
1893.684839419605
 31
0.0
  0
LINE
  5
18F48
330
125AA
100
AcDbEntity
  8
SUNPOU
100
AcDbLine
 10
9380.123251791109
 20
2530.684839419603
 30
0.0
 11
9380.123251791109
 21
1893.684839419605
 31
0.0
  0
LINE
  5
18F49
330
125AA
100
AcDbEntity
  8
SUNPOU
100
AcDbLine
 10
7795.123251791108
 20
1938.684839419605
 30
0.0
 11
9365.123251791109
 21
1938.684839419605
 31
0.0
  0
LINE
  5
18F4D
330
125AA
100
AcDbEntity
  8
SUNPOU
100
AcDbLine
 10
7270.769855790351
 20
3376.684839419608
 30
0.0
 11
7285.769855790352
 21
3376.684839419608
 31
0.0
  0
LINE
  5
18F4E
330
125AA
100
AcDbEntity
  8
SUNPOU
100
AcDbLine
 10
8230.123251791111
 20
3456.684839419605
 30
0.0
 11
7195.769855790351
 21
3456.684839419605
 31
0.0
  0
LINE
  5
18F4F
330
125AA
100
AcDbEntity
  8
SUNPOU
100
AcDbLine
 10
7240.769855790351
 20
3361.684839419608
 30
0.0
 11
7240.769855790351
 21
3346.684839419608
 31
0.0
  0
LINE
  5
18F50
330
125AA
100
AcDbEntity
  8
SUNPOU
100
AcDbLine
 10
7240.769855790351
 20
3471.684839419604
 30
0.0
 11
7240.769855790351
 21
3673.827696562462
 31
0.0
  0
LINE
  5
18F51
330
125AA
100
AcDbEntity
  8
SUNPOU
100
AcDbLine
 10
7240.769855790351
 20
3376.684839419608
 30
0.0
 11
7240.769855790351
 21
3456.684839419605
 31
0.0
  0
LINE
  5
18F55
330
125AA
100
AcDbEntity
  8
SUNPOU
100
AcDbLine
 10
7910.12325179111
 20
3328.684839419604
 30
0.0
 11
7615.769855790353
 21
3328.684839419604
 31
0.0
  0
LINE
  5
18F56
330
125AA
100
AcDbEntity
  8
SUNPOU
100
AcDbLine
 10
7910.12325179111
 20
3200.684839419601
 30
0.0
 11
7615.769855790353
 21
3200.684839419601
 31
0.0
  0
LINE
  5
18F57
330
125AA
100
AcDbEntity
  8
SUNPOU
100
AcDbLine
 10
7660.769855790352
 20
3313.684839419605
 30
0.0
 11
7660.769855790352
 21
3215.6848394196
 31
0.0
  0
LINE
  5
18F5B
330
125AA
100
AcDbEntity
  8
SUNPOU
100
AcDbLine
 10
7910.12325179111
 20
3328.684839419607
 30
0.0
 11
7615.769855790351
 21
3328.684839419607
 31
0.0
  0
LINE
  5
18F5C
330
125AA
100
AcDbEntity
  8
SUNPOU
100
AcDbLine
 10
8230.123251791111
 20
3456.684839419605
 30
0.0
 11
7615.769855790351
 21
3456.684839419605
 31
0.0
  0
LINE
  5
18F5D
330
125AA
100
AcDbEntity
  8
SUNPOU
100
AcDbLine
 10
7660.769855790352
 20
3343.684839419607
 30
0.0
 11
7660.769855790352
 21
3441.684839419604
 31
0.0
  0
LINE
  5
18F5E
330
125AA
100
AcDbEntity
  8
SUNPOU
100
AcDbLine
 10
7660.769855790352
 20
3456.684839419605
 30
0.0
 11
7660.769855790352
 21
3658.827696562461
 31
0.0
  0
LINE
  5
18F62
330
125AA
100
AcDbEntity
  8
SUNPOU
100
AcDbLine
 10
7750.123251791109
 20
2720.684839419607
 30
0.0
 11
7615.769855790351
 21
2720.684839419607
 31
0.0
  0
LINE
  5
18F63
330
125AA
100
AcDbEntity
  8
SUNPOU
100
AcDbLine
 10
7910.12325179111
 20
3200.684839419601
 30
0.0
 11
7615.769855790351
 21
3200.684839419601
 31
0.0
  0
LINE
  5
18F64
330
125AA
100
AcDbEntity
  8
SUNPOU
100
AcDbLine
 10
7660.769855790352
 20
2735.684839419606
 30
0.0
 11
7660.769855790352
 21
3185.684839419601
 31
0.0
  0
LINE
  5
18F68
330
125AA
100
AcDbEntity
  8
SUNPOU
100
AcDbLine
 10
7750.123251791109
 20
2720.684839419607
 30
0.0
 11
7615.769855790351
 21
2720.684839419607
 31
0.0
  0
LINE
  5
18F69
330
125AA
100
AcDbEntity
  8
SUNPOU
100
AcDbLine
 10
7750.123251791109
 20
2560.684839419602
 30
0.0
 11
7615.769855790351
 21
2560.684839419602
 31
0.0
  0
LINE
  5
18F6A
330
125AA
100
AcDbEntity
  8
SUNPOU
100
AcDbLine
 10
7660.769855790352
 20
2705.684839419606
 30
0.0
 11
7660.769855790352
 21
2575.684839419603
 31
0.0
  0
LINE
  5
18F6B
330
125AA
100
AcDbEntity
  8
SUNPOU
100
AcDbLine
 10
7660.769855790352
 20
2560.684839419602
 30
0.0
 11
7660.769855790352
 21
2309.970553705317
 31
0.0
  0
LINE
  5
18F6F
330
125AA
100
AcDbEntity
  8
SUNPOU
100
AcDbLine
 10
8230.123251791111
 20
3456.684839419605
 30
0.0
 11
7405.769855790352
 21
3456.684839419605
 31
0.0
  0
LINE
  5
18F70
330
125AA
100
AcDbEntity
  8
SUNPOU
100
AcDbLine
 10
7750.123251791109
 20
2560.684839419602
 30
0.0
 11
7405.769855790352
 21
2560.684839419602
 31
0.0
  0
LINE
  5
18F71
330
125AA
100
AcDbEntity
  8
SUNPOU
100
AcDbLine
 10
7450.769855790351
 20
3441.684839419604
 30
0.0
 11
7450.769855790351
 21
2575.684839419603
 31
0.0
  0
LINE
  5
18F75
330
125AA
100
AcDbEntity
  8
SUNPOU
100
AcDbLine
 10
10125.35375904136
 20
4130.485411556196
 30
0.0
 11
10065.35375904133
 21
4130.485411556196
 31
0.0
  0
LINE
  5
18F76
330
125AA
100
AcDbEntity
  8
SUNPOU
100
AcDbLine
 10
10125.35375904135
 20
4130.485411556196
 30
0.0
 11
10065.35375904135
 21
4146.562363102066
 31
0.0
  0
LINE
  5
18F77
330
125AA
100
AcDbEntity
  8
SUNPOU
100
AcDbLine
 10
10125.35375904136
 20
4130.485411556196
 30
0.0
 11
10065.35375904133
 21
4114.408460010326
 31
0.0
  0
LINE
  5
18F78
330
125AA
100
AcDbEntity
  8
SUNPOU
100
AcDbLine
 10
10065.35375904135
 20
4130.485411556196
 30
0.0
 11
10005.35375904133
 21
4130.485411556196
 31
0.0
  0
LINE
  5
18F79
330
125AA
100
AcDbEntity
  8
SUNPOU
100
AcDbLine
 10
10065.35375904135
 20
4130.485411556196
 30
0.0
 11
10005.35375904135
 21
4146.562363102066
 31
0.0
  0
LINE
  5
18F7A
330
125AA
100
AcDbEntity
  8
SUNPOU
100
AcDbLine
 10
10065.35375904135
 20
4130.485411556196
 30
0.0
 11
10005.35375904133
 21
4114.408460010326
 31
0.0
  0
LINE
  5
18F7B
330
125AA
100
AcDbEntity
  8
SUNPOU
100
AcDbLine
 10
8580.123251791111
 20
4160.485411556194
 30
0.0
 11
8580.123251791111
 21
4175.485411556194
 31
0.0
  0
LINE
  5
18F7C
330
125AA
100
AcDbEntity
  8
SUNPOU
100
AcDbLine
 10
8260.12325179111
 20
3486.684839419604
 30
0.0
 11
8260.12325179111
 21
4175.485411556194
 31
0.0
  0
LINE
  5
18F7D
330
125AA
100
AcDbEntity
  8
SUNPOU
100
AcDbLine
 10
8565.123251791112
 20
4130.485411556196
 30
0.0
 11
8275.123251791111
 21
4130.485411556196
 31
0.0
  0
LINE
  5
18F81
330
125AA
100
AcDbEntity
  8
SUNPOU
100
AcDbLine
 10
4159.797051267463
 20
2690.684839419602
 30
0.0
 11
4159.797051267463
 21
2103.684839419599
 31
0.0
  0
LINE
  5
18F82
330
125AA
100
AcDbEntity
  8
SUNPOU
100
AcDbLine
 10
5439.797051267464
 20
2690.684839419602
 30
0.0
 11
5439.797051267464
 21
2103.684839419599
 31
0.0
  0
LINE
  5
18F83
330
125AA
100
AcDbEntity
  8
SUNPOU
100
AcDbLine
 10
4174.797051267463
 20
2148.684839419601
 30
0.0
 11
5424.797051267464
 21
2148.684839419601
 31
0.0
  0
LINE
  5
18F87
330
125AA
100
AcDbEntity
  8
SUNPOU
100
AcDbLine
 10
3999.797051267462
 20
2530.684839419603
 30
0.0
 11
3999.797051267462
 21
1893.684839419601
 31
0.0
  0
LINE
  5
18F88
330
125AA
100
AcDbEntity
  8
SUNPOU
100
AcDbLine
 10
5599.797051267461
 20
2530.684839419603
 30
0.0
 11
5599.797051267461
 21
1893.684839419601
 31
0.0
  0
LINE
  5
18F89
330
125AA
100
AcDbEntity
  8
SUNPOU
100
AcDbLine
 10
4014.797051267462
 20
1938.6848394196
 30
0.0
 11
5584.797051267462
 21
1938.6848394196
 31
0.0
  0
LINE
  5
18F8D
330
125AA
100
AcDbEntity
  8
SUNPOU
100
AcDbLine
 10
3490.443655266703
 20
3376.684839419604
 30
0.0
 11
3505.443655266704
 21
3376.684839419604
 31
0.0
  0
LINE
  5
18F8E
330
125AA
100
AcDbEntity
  8
SUNPOU
100
AcDbLine
 10
4129.797051267463
 20
3456.684839419605
 30
0.0
 11
3415.443655266705
 21
3456.684839419605
 31
0.0
  0
LINE
  5
18F8F
330
125AA
100
AcDbEntity
  8
SUNPOU
100
AcDbLine
 10
3460.443655266704
 20
3361.684839419604
 30
0.0
 11
3460.443655266704
 21
3346.684839419604
 31
0.0
  0
LINE
  5
18F90
330
125AA
100
AcDbEntity
  8
SUNPOU
100
AcDbLine
 10
3460.443655266704
 20
3471.684839419605
 30
0.0
 11
3460.443655266704
 21
3673.827696562462
 31
0.0
  0
LINE
  5
18F91
330
125AA
100
AcDbEntity
  8
SUNPOU
100
AcDbLine
 10
3460.443655266704
 20
3376.684839419604
 30
0.0
 11
3460.443655266704
 21
3456.684839419605
 31
0.0
  0
LINE
  5
18F95
330
125AA
100
AcDbEntity
  8
SUNPOU
100
AcDbLine
 10
4129.797051267463
 20
3328.6848394196
 30
0.0
 11
3835.443655266706
 21
3328.6848394196
 31
0.0
  0
LINE
  5
18F96
330
125AA
100
AcDbEntity
  8
SUNPOU
100
AcDbLine
 10
4129.797051267463
 20
3200.684839419595
 30
0.0
 11
3835.443655266706
 21
3200.684839419595
 31
0.0
  0
LINE
  5
18F97
330
125AA
100
AcDbEntity
  8
SUNPOU
100
AcDbLine
 10
3880.443655266705
 20
3313.6848394196
 30
0.0
 11
3880.443655266705
 21
3215.684839419596
 31
0.0
  0
LINE
  5
18F9B
330
125AA
100
AcDbEntity
  8
SUNPOU
100
AcDbLine
 10
4129.797051267463
 20
3328.684839419602
 30
0.0
 11
3835.443655266704
 21
3328.684839419602
 31
0.0
  0
LINE
  5
18F9C
330
125AA
100
AcDbEntity
  8
SUNPOU
100
AcDbLine
 10
4129.797051267463
 20
3456.684839419605
 30
0.0
 11
3835.443655266704
 21
3456.684839419605
 31
0.0
  0
LINE
  5
18F9D
330
125AA
100
AcDbEntity
  8
SUNPOU
100
AcDbLine
 10
3880.443655266704
 20
3343.684839419601
 30
0.0
 11
3880.443655266704
 21
3441.684839419605
 31
0.0
  0
LINE
  5
18F9E
330
125AA
100
AcDbEntity
  8
SUNPOU
100
AcDbLine
 10
3880.443655266704
 20
3456.684839419605
 30
0.0
 11
3880.443655266704
 21
3658.827696562462
 31
0.0
  0
LINE
  5
18FA2
330
125AA
100
AcDbEntity
  8
SUNPOU
100
AcDbLine
 10
3969.797051267462
 20
2720.684839419603
 30
0.0
 11
3835.443655266704
 21
2720.684839419603
 31
0.0
  0
LINE
  5
18FA3
330
125AA
100
AcDbEntity
  8
SUNPOU
100
AcDbLine
 10
4129.797051267463
 20
3200.684839419595
 30
0.0
 11
3835.443655266704
 21
3200.684839419595
 31
0.0
  0
LINE
  5
18FA4
330
125AA
100
AcDbEntity
  8
SUNPOU
100
AcDbLine
 10
3880.443655266704
 20
2735.684839419602
 30
0.0
 11
3880.443655266704
 21
3185.684839419596
 31
0.0
  0
LINE
  5
18FA8
330
125AA
100
AcDbEntity
  8
SUNPOU
100
AcDbLine
 10
3969.797051267462
 20
2720.684839419603
 30
0.0
 11
3835.443655266704
 21
2720.684839419603
 31
0.0
  0
LINE
  5
18FA9
330
125AA
100
AcDbEntity
  8
SUNPOU
100
AcDbLine
 10
3969.797051267462
 20
2560.684839419602
 30
0.0
 11
3835.443655266704
 21
2560.684839419602
 31
0.0
  0
LINE
  5
18FAA
330
125AA
100
AcDbEntity
  8
SUNPOU
100
AcDbLine
 10
3880.443655266704
 20
2705.684839419602
 30
0.0
 11
3880.443655266704
 21
2575.684839419603
 31
0.0
  0
LINE
  5
18FAB
330
125AA
100
AcDbEntity
  8
SUNPOU
100
AcDbLine
 10
3880.443655266704
 20
2560.684839419602
 30
0.0
 11
3880.443655266704
 21
2309.970553705317
 31
0.0
  0
LINE
  5
18FAF
330
125AA
100
AcDbEntity
  8
SUNPOU
100
AcDbLine
 10
4129.797051267463
 20
3456.684839419605
 30
0.0
 11
3625.443655266705
 21
3456.684839419605
 31
0.0
  0
LINE
  5
18FB0
330
125AA
100
AcDbEntity
  8
SUNPOU
100
AcDbLine
 10
3969.797051267462
 20
2560.684839419602
 30
0.0
 11
3625.443655266705
 21
2560.684839419602
 31
0.0
  0
LINE
  5
18FB1
330
125AA
100
AcDbEntity
  8
SUNPOU
100
AcDbLine
 10
3670.443655266705
 20
3441.684839419605
 30
0.0
 11
3670.443655266705
 21
2575.684839419603
 31
0.0
  0
LINE
  5
18FB5
330
125AA
100
AcDbEntity
  8
SUNPOU
100
AcDbLine
 10
6345.027558517712
 20
4130.485411556192
 30
0.0
 11
6285.0275585177
 21
4130.485411556192
 31
0.0
  0
LINE
  5
18FB6
330
125AA
100
AcDbEntity
  8
SUNPOU
100
AcDbLine
 10
6345.027558517706
 20
4130.485411556192
 30
0.0
 11
6285.027558517706
 21
4146.562363102062
 31
0.0
  0
LINE
  5
18FB7
330
125AA
100
AcDbEntity
  8
SUNPOU
100
AcDbLine
 10
6345.027558517712
 20
4130.485411556192
 30
0.0
 11
6285.0275585177
 21
4114.408460010323
 31
0.0
  0
LINE
  5
18FB8
330
125AA
100
AcDbEntity
  8
SUNPOU
100
AcDbLine
 10
6285.027558517714
 20
4130.485411556192
 30
0.0
 11
6225.027558517701
 21
4130.485411556192
 31
0.0
  0
LINE
  5
18FB9
330
125AA
100
AcDbEntity
  8
SUNPOU
100
AcDbLine
 10
6285.027558517706
 20
4130.485411556192
 30
0.0
 11
6225.027558517706
 21
4146.562363102062
 31
0.0
  0
LINE
  5
18FBA
330
125AA
100
AcDbEntity
  8
SUNPOU
100
AcDbLine
 10
6285.027558517714
 20
4130.485411556192
 30
0.0
 11
6225.027558517701
 21
4114.408460010323
 31
0.0
  0
LINE
  5
18FBB
330
125AA
100
AcDbEntity
  8
SUNPOU
100
AcDbLine
 10
4799.797051267463
 20
4160.485411556192
 30
0.0
 11
4799.797051267463
 21
4175.485411556191
 31
0.0
  0
LINE
  5
18FBC
330
125AA
100
AcDbEntity
  8
SUNPOU
100
AcDbLine
 10
4159.797051267463
 20
3486.684839419604
 30
0.0
 11
4159.797051267463
 21
4175.485411556191
 31
0.0
  0
LINE
  5
18FBD
330
125AA
100
AcDbEntity
  8
SUNPOU
100
AcDbLine
 10
4784.797051267463
 20
4130.485411556192
 30
0.0
 11
4174.797051267463
 21
4130.485411556192
 31
0.0
  0
LINE
  5
18FC1
330
125AA
100
AcDbEntity
  8
SUNPOU
100
AcDbLine
 10
11856.36032602547
 20
9489.512702941778
 30
0.0
 11
12271.36032602547
 21
9489.512702941778
 31
0.0
  0
LINE
  5
18FC2
330
125AA
100
AcDbEntity
  8
SUNPOU
100
AcDbLine
 10
12001.36032602547
 20
9289.512702941776
 30
0.0
 11
12271.36032602547
 21
9289.512702941776
 31
0.0
  0
LINE
  5
18FC3
330
125AA
100
AcDbEntity
  8
SUNPOU
100
AcDbLine
 10
12226.36032602547
 20
9474.512702941778
 30
0.0
 11
12226.36032602547
 21
9304.512702941778
 31
0.0
  0
LINE
  5
18FC4
330
125AA
100
AcDbEntity
  8
SUNPOU
100
AcDbLine
 10
12226.36032602547
 20
9289.512702941776
 30
0.0
 11
12226.36032602547
 21
9030.226988656066
 31
0.0
  0
LINE
  5
18FC8
330
125AA
100
AcDbEntity
  8
SUNPOU
100
AcDbLine
 10
11856.36032602547
 20
9489.512702941778
 30
0.0
 11
12271.36032602547
 21
9489.512702941778
 31
0.0
  0
LINE
  5
18FC9
330
125AA
100
AcDbEntity
  8
SUNPOU
100
AcDbLine
 10
11856.36032602547
 20
9689.512702941778
 30
0.0
 11
12271.36032602547
 21
9689.512702941778
 31
0.0
  0
LINE
  5
18FCA
330
125AA
100
AcDbEntity
  8
SUNPOU
100
AcDbLine
 10
12226.36032602547
 20
9504.512702941779
 30
0.0
 11
12226.36032602547
 21
9674.512702941781
 31
0.0
  0
LINE
  5
18FCB
330
125AA
100
AcDbEntity
  8
SUNPOU
100
AcDbLine
 10
12226.36032602547
 20
9689.512702941778
 30
0.0
 11
12226.36032602547
 21
9948.798417227493
 31
0.0
  0
LINE
  5
18FD0
330
125AA
100
AcDbEntity
  8
SUNPOU
100
AcDbLine
 10
12646.36032602547
 20
9678.262702941779
 30
0.0
 11
12646.36032602547
 21
9667.01270294178
 31
0.0
  0
LINE
  5
18FD2
330
125AA
100
AcDbEntity
  8
SUNPOU
100
AcDbLine
 10
12436.36032602547
 20
9678.262702941779
 30
0.0
 11
12436.36032602547
 21
9667.01270294178
 31
0.0
  0
LINE
  5
18FD4
330
125AA
100
AcDbEntity
  8
SUNPOU
100
AcDbLine
 10
12436.36032602547
 20
9278.262702941779
 30
0.0
 11
12436.36032602547
 21
9267.012702941778
 31
0.0
  0
LINE
  5
18FD6
330
125AA
100
AcDbEntity
  8
SUNPOU
100
AcDbLine
 10
12436.36032602547
 20
9300.762702941778
 30
0.0
 11
12436.36032602547
 21
9312.012702941778
 31
0.0
  0
LINE
  5
18FD8
330
125AA
100
AcDbEntity
  8
SUNPOU
100
AcDbLine
 10
12436.36032602547
 20
7500.762702941777
 30
0.0
 11
12436.36032602547
 21
7512.012702941778
 31
0.0
  0
LINE
  5
18FDA
330
125AA
100
AcDbEntity
  8
SUNPOU
100
AcDbLine
 10
12436.36032602547
 20
7478.262702941778
 30
0.0
 11
12436.36032602547
 21
7467.012702941778
 31
0.0
  0
LINE
  5
18FDC
330
125AA
100
AcDbEntity
  8
SUNPOU
100
AcDbLine
 10
12646.36032602547
 20
7100.762702941778
 30
0.0
 11
12646.36032602547
 21
7112.012702941779
 31
0.0
  0
LINE
  5
18FDE
330
125AA
100
AcDbEntity
  8
SUNPOU
100
AcDbLine
 10
12436.36032602547
 20
7100.762702941778
 30
0.0
 11
12436.36032602547
 21
7112.012702941779
 31
0.0
  0
LINE
  5
18FDF
330
125AA
100
AcDbEntity
  8
SUNPOU
100
AcDbLine
 10
4636.360326025477
 20
9854.512702941782
 30
0.0
 11
4726.36032602548
 21
9839.512702941782
 31
0.0
  0
LINE
  5
18FE0
330
125AA
100
AcDbEntity
  8
SUNPOU
100
AcDbLine
 10
4726.36032602548
 20
9839.512702941782
 30
0.0
 11
4636.360326025477
 21
9824.512702941781
 31
0.0
  0
SOLID
  5
18FE1
330
125AA
100
AcDbEntity
  8
SUNPOU
100
AcDbTrace
 10
4636.360326025477
 20
9854.512702941782
 30
0.0
 11
4636.360326025477
 21
9824.512702941781
 31
0.0
 12
4726.36032602548
 22
9839.512702941782
 32
0.0
 13
4726.36032602548
 23
9839.512702941782
 33
0.0
  0
LINE
  5
18FE2
330
125AA
100
AcDbEntity
  8
SUNPOU
100
AcDbLine
 10
4636.360326025477
 20
9824.512702941781
 30
0.0
 11
4636.360326025477
 21
9854.512702941782
 31
0.0
  0
LINE
  5
18FE3
330
125AA
100
AcDbEntity
  8
SUNPOU
100
AcDbLine
 10
4636.360326025477
 20
8724.512702941776
 30
0.0
 11
4726.36032602548
 21
8739.512702941778
 31
0.0
  0
LINE
  5
18FE4
330
125AA
100
AcDbEntity
  8
SUNPOU
100
AcDbLine
 10
4726.36032602548
 20
8739.512702941778
 30
0.0
 11
4636.360326025477
 21
8754.512702941779
 31
0.0
  0
SOLID
  5
18FE5
330
125AA
100
AcDbEntity
  8
SUNPOU
100
AcDbTrace
 10
4636.360326025477
 20
8724.512702941776
 30
0.0
 11
4636.360326025477
 21
8754.512702941779
 31
0.0
 12
4726.36032602548
 22
8739.512702941778
 32
0.0
 13
4726.36032602548
 23
8739.512702941778
 33
0.0
  0
LINE
  5
18FE6
330
125AA
100
AcDbEntity
  8
SUNPOU
100
AcDbLine
 10
4636.360326025477
 20
8754.512702941779
 30
0.0
 11
4636.360326025477
 21
8724.512702941776
 31
0.0
  0
LINE
  5
18FE7
330
125AA
100
AcDbEntity
  8
SUNPOU
100
AcDbLine
 10
11426.36032602547
 20
9919.51270294178
 30
0.0
 11
11426.36032602547
 21
10034.51270294178
 31
0.0
  0
LINE
  5
18FE8
330
125AA
100
AcDbEntity
  8
SUNPOU
100
AcDbLine
 10
11826.36032602548
 20
9719.512702941781
 30
0.0
 11
11826.36032602548
 21
10034.51270294178
 31
0.0
  0
LINE
  5
18FE9
330
125AA
100
AcDbEntity
  8
SUNPOU
100
AcDbLine
 10
11441.36032602547
 20
9989.512702941778
 30
0.0
 11
11811.36032602547
 21
9989.512702941778
 31
0.0
  0
LINE
  5
18FEE
330
125AA
100
AcDbEntity
  8
SUNPOU
100
AcDbLine
 10
8615.110326025478
 20
9989.512702941778
 30
0.0
 11
8603.860326025479
 21
9989.512702941778
 31
0.0
  0
LINE
  5
18FEF
330
125AA
100
AcDbEntity
  8
SUNPOU
100
AcDbLine
 10
11426.36032602547
 20
9919.51270294178
 30
0.0
 11
11426.36032602547
 21
10034.51270294178
 31
0.0
  0
LINE
  5
18FF0
330
125AA
100
AcDbEntity
  8
SUNPOU
100
AcDbLine
 10
8626.360326025478
 20
9919.51270294178
 30
0.0
 11
8626.360326025478
 21
10034.51270294178
 31
0.0
  0
LINE
  5
18FF1
330
125AA
100
AcDbEntity
  8
SUNPOU
100
AcDbLine
 10
11411.36032602547
 20
9989.512702941778
 30
0.0
 11
8641.360326025479
 21
9989.512702941778
 31
0.0
  0
LINE
  5
18FF5
330
125AA
100
AcDbEntity
  8
SUNPOU
100
AcDbLine
 10
9056.360326025481
 20
7889.512702941778
 30
0.0
 11
9371.360326025484
 21
7889.512702941778
 31
0.0
  0
LINE
  5
18FF6
330
125AA
100
AcDbEntity
  8
SUNPOU
100
AcDbLine
 10
9056.360326025481
 20
7089.512702941778
 30
0.0
 11
9371.360326025484
 21
7089.512702941778
 31
0.0
  0
LINE
  5
18FF7
330
125AA
100
AcDbEntity
  8
SUNPOU
100
AcDbLine
 10
9326.360326025485
 20
7874.512702941778
 30
0.0
 11
9326.360326025485
 21
7104.512702941779
 31
0.0
  0
TEXT
  5
18FFB
330
125AA
100
AcDbEntity
  8
SUNPOU
100
AcDbText
 10
7518.646040311192
 20
10034.51270294178
 30
0.0
 40
90.0
  1
2800 × （ N - 2 ）
 41
0.6666666666666666
  7
00
100
AcDbText
  0
LINE
  5
18FFD
330
125AA
100
AcDbEntity
  8
SUNPOU
100
AcDbLine
 10
7237.610326025479
 20
9989.512702941778
 30
0.0
 11
7248.860326025479
 21
9989.512702941778
 31
0.0
  0
LINE
  5
18FFE
330
125AA
100
AcDbEntity
  8
SUNPOU
100
AcDbLine
 10
7226.360326025478
 20
9919.51270294178
 30
0.0
 11
7226.360326025478
 21
10034.51270294178
 31
0.0
  0
LINE
  5
18FFF
330
125AA
100
AcDbEntity
  8
SUNPOU
100
AcDbLine
 10
4426.36032602548
 20
9919.51270294178
 30
0.0
 11
4426.36032602548
 21
10034.51270294178
 31
0.0
  0
LINE
  5
19000
330
125AA
100
AcDbEntity
  8
SUNPOU
100
AcDbLine
 10
7211.360326025479
 20
9989.512702941778
 30
0.0
 11
4441.360326025479
 21
9989.512702941778
 31
0.0
  0
LINE
  5
19004
330
125AA
100
AcDbEntity
  8
SUNPOU
100
AcDbLine
 10
6826.360326025478
 20
8859.512702941778
 30
0.0
 11
6826.360326025478
 21
8544.512702941778
 31
0.0
  0
LINE
  5
19005
330
125AA
100
AcDbEntity
  8
SUNPOU
100
AcDbLine
 10
7626.360326025478
 20
8859.512702941778
 30
0.0
 11
7626.360326025478
 21
8544.512702941778
 31
0.0
  0
LINE
  5
19006
330
125AA
100
AcDbEntity
  8
SUNPOU
100
AcDbLine
 10
6841.360326025479
 20
8589.512702941778
 30
0.0
 11
7611.360326025479
 21
8589.512702941778
 31
0.0
  0
LINE
  5
1900A
330
125AA
100
AcDbEntity
  8
SUNPOU
100
AcDbLine
 10
5051.36032602548
 20
7699.512702941778
 30
0.0
 11
5036.360326025477
 21
7789.512702941777
 31
0.0
  0
LINE
  5
1900B
330
125AA
100
AcDbEntity
  8
SUNPOU
100
AcDbLine
 10
5036.360326025477
 20
7789.512702941777
 30
0.0
 11
5021.360326025479
 21
7699.512702941778
 31
0.0
  0
SOLID
  5
1900C
330
125AA
100
AcDbEntity
  8
SUNPOU
100
AcDbTrace
 10
5051.36032602548
 20
7699.512702941778
 30
0.0
 11
5021.360326025479
 21
7699.512702941778
 31
0.0
 12
5036.360326025477
 22
7789.512702941777
 32
0.0
 13
5036.360326025477
 23
7789.512702941777
 33
0.0
  0
LINE
  5
1900D
330
125AA
100
AcDbEntity
  8
SUNPOU
100
AcDbLine
 10
5021.360326025479
 20
7699.512702941778
 30
0.0
 11
5051.36032602548
 21
7699.512702941778
 31
0.0
  0
LINE
  5
1900E
330
125AA
100
AcDbEntity
  8
SUNPOU
100
AcDbLine
 10
6796.360326025478
 20
9689.512702941778
 30
0.0
 11
6481.360326025478
 21
9689.512702941778
 31
0.0
  0
LINE
  5
1900F
330
125AA
100
AcDbEntity
  8
SUNPOU
100
AcDbLine
 10
6796.360326025478
 20
8889.512702941777
 30
0.0
 11
6481.360326025478
 21
8889.512702941777
 31
0.0
  0
LINE
  5
19010
330
125AA
100
AcDbEntity
  8
SUNPOU
100
AcDbLine
 10
6526.360326025478
 20
9674.512702941781
 30
0.0
 11
6526.360326025478
 21
8904.512702941778
 31
0.0
  0
LINE
  5
19014
330
125AA
100
AcDbEntity
  8
SUNPOU
100
AcDbLine
 10
3801.360326025478
 20
7699.512702941778
 30
0.0
 11
3816.360326025479
 21
7789.512702941777
 31
0.0
  0
LINE
  5
19015
330
125AA
100
AcDbEntity
  8
SUNPOU
100
AcDbLine
 10
3816.360326025479
 20
7789.512702941777
 30
0.0
 11
3831.36032602548
 21
7699.512702941778
 31
0.0
  0
SOLID
  5
19016
330
125AA
100
AcDbEntity
  8
SUNPOU
100
AcDbTrace
 10
3801.360326025478
 20
7699.512702941778
 30
0.0
 11
3831.36032602548
 21
7699.512702941778
 31
0.0
 12
3816.360326025479
 22
7789.512702941777
 32
0.0
 13
3816.360326025479
 23
7789.512702941777
 33
0.0
  0
LINE
  5
19017
330
125AA
100
AcDbEntity
  8
SUNPOU
100
AcDbLine
 10
3831.36032602548
 20
7699.512702941778
 30
0.0
 11
3801.360326025478
 21
7699.512702941778
 31
0.0
  0
LINE
  5
19018
330
125AA
100
AcDbEntity
  8
SUNPOU
100
AcDbLine
 10
4426.36032602548
 20
9919.51270294178
 30
0.0
 11
4426.36032602548
 21
10034.51270294178
 31
0.0
  0
LINE
  5
19019
330
125AA
100
AcDbEntity
  8
SUNPOU
100
AcDbLine
 10
4026.360326025478
 20
9719.512702941781
 30
0.0
 11
4026.360326025478
 21
10034.51270294178
 31
0.0
  0
LINE
  5
1901A
330
125AA
100
AcDbEntity
  8
SUNPOU
100
AcDbLine
 10
4411.360326025477
 20
9989.512702941778
 30
0.0
 11
4041.360326025478
 21
9989.512702941778
 31
0.0
  0
LINE
  5
1901E
330
125AA
100
AcDbEntity
  8
SUNPOU
100
AcDbLine
 10
8226.360326025478
 20
7919.512702941777
 30
0.0
 11
8226.360326025478
 21
8234.512702941778
 31
0.0
  0
LINE
  5
1901F
330
125AA
100
AcDbEntity
  8
SUNPOU
100
AcDbLine
 10
9026.360326025478
 20
7919.512702941777
 30
0.0
 11
9026.360326025478
 21
8234.512702941778
 31
0.0
  0
LINE
  5
19020
330
125AA
100
AcDbEntity
  8
SUNPOU
100
AcDbLine
 10
8241.360326025478
 20
8189.512702941778
 30
0.0
 11
9011.36032602548
 21
8189.512702941778
 31
0.0
  0
LINE
  5
19024
330
125AA
100
AcDbEntity
  8
SUNPOU
100
AcDbLine
 10
4026.360326025478
 20
9719.512702941781
 30
0.0
 11
4026.360326025478
 21
10244.51270294178
 31
0.0
  0
LINE
  5
19025
330
125AA
100
AcDbEntity
  8
SUNPOU
100
AcDbLine
 10
11826.36032602548
 20
9719.512702941781
 30
0.0
 11
11826.36032602548
 21
10244.51270294178
 31
0.0
  0
LINE
  5
19026
330
125AA
100
AcDbEntity
  8
SUNPOU
100
AcDbLine
 10
4041.360326025478
 20
10199.51270294177
 30
0.0
 11
11811.36032602547
 21
10199.51270294177
 31
0.0
  0
TEXT
  5
1902A
330
125AA
100
AcDbEntity
  8
SUNPOU
100
AcDbText
 10
11927.76694549065
 20
2290.804976716086
 30
0.0
 40
90.0
  1
20
 41
0.6666666666666666
  7
00
100
AcDbText
  0
LINE
  5
1902C
330
125AA
100
AcDbEntity
  8
SUNPOU
100
AcDbLine
 10
11872.58837406209
 20
2245.804976716085
 30
0.0
 11
11883.83837406209
 21
2245.804976716085
 31
0.0
  0
LINE
  5
1902E
330
125AA
100
AcDbEntity
  8
SUNPOU
100
AcDbLine
 10
11770.08837406209
 20
2245.804976716085
 30
0.0
 11
11758.83837406209
 21
2245.804976716085
 31
0.0
  0
TEXT
  5
1902F
330
125AA
100
AcDbEntity
  8
SUNPOU
100
AcDbText
 10
11451.33837406209
 20
2290.804976716086
 30
0.0
 40
90.0
  1
120
 41
0.6666666666666666
  7
00
100
AcDbText
  0
LINE
  5
19031
330
125AA
100
AcDbEntity
  8
SUNPOU
100
AcDbLine
 10
11770.08837406209
 20
2245.804976716085
 30
0.0
 11
11758.83837406209
 21
2245.804976716085
 31
0.0
  0
LINE
  5
19033
330
125AA
100
AcDbEntity
  8
SUNPOU
100
AcDbLine
 10
11312.58837406211
 20
2245.804976716085
 30
0.0
 11
11323.83837406211
 21
2245.804976716085
 31
0.0
  0
TEXT
  5
19034
330
125AA
100
AcDbEntity
  8
SUNPOU
100
AcDbText
 10
11040.62408834781
 20
2290.804976716086
 30
0.0
 40
90.0
  1
20
 41
0.6666666666666666
  7
00
100
AcDbText
  0
LINE
  5
19036
330
125AA
100
AcDbEntity
  8
SUNPOU
100
AcDbLine
 10
11210.08837406209
 20
2245.804976716085
 30
0.0
 11
11198.83837406209
 21
2245.804976716085
 31
0.0
  0
LINE
  5
19038
330
125AA
100
AcDbEntity
  8
SUNPOU
100
AcDbLine
 10
11312.58837406211
 20
2245.804976716085
 30
0.0
 11
11323.83837406211
 21
2245.804976716085
 31
0.0
  0
TEXT
  5
19039
330
125AA
100
AcDbEntity
  8
SUNPOU
100
AcDbText
 10
11451.33837406208
 20
2080.804976716085
 30
0.0
 40
90.0
  1
160
 41
0.6666666666666666
  7
00
100
AcDbText
  0
LINE
  5
1903B
330
125AA
100
AcDbEntity
  8
SUNPOU
100
AcDbLine
 10
11850.08837406209
 20
2035.804976716086
 30
0.0
 11
11838.83837406209
 21
2035.804976716086
 31
0.0
  0
LINE
  5
1903D
330
125AA
100
AcDbEntity
  8
SUNPOU
100
AcDbLine
 10
11232.58837406209
 20
2035.804976716086
 30
0.0
 11
11243.83837406209
 21
2035.804976716086
 31
0.0
  0
TEXT
  5
1903E
330
125AA
100
AcDbEntity
  8
SUNPOU
100
AcDbText
 10
10873.33837406209
 20
2374.430058338866
 30
0.0
 40
90.0
  1
40
 50
90.0
 41
0.6666666666666666
  7
00
100
AcDbText
  0
LINE
  5
19040
330
125AA
100
AcDbEntity
  8
SUNPOU
100
AcDbLine
 10
10918.33837406209
 20
2551.39434405315
 30
0.0
 11
10918.33837406209
 21
2562.644344053149
 31
0.0
  0
LINE
  5
19042
330
125AA
100
AcDbEntity
  8
SUNPOU
100
AcDbLine
 10
10918.33837406209
 20
2688.89434405315
 30
0.0
 11
10918.33837406209
 21
2677.644344053149
 31
0.0
  0
TEXT
  5
19043
330
125AA
100
AcDbEntity
  8
SUNPOU
100
AcDbText
 10
10873.33837406209
 20
2911.572915481723
 30
0.0
 40
90.0
  1
40
 50
90.0
 41
0.6666666666666666
  7
00
100
AcDbText
  0
LINE
  5
19045
330
125AA
100
AcDbEntity
  8
SUNPOU
100
AcDbLine
 10
10918.33837406209
 20
2848.89434405315
 30
0.0
 11
10918.33837406209
 21
2837.644344053149
 31
0.0
  0
LINE
  5
19047
330
125AA
100
AcDbEntity
  8
SUNPOU
100
AcDbLine
 10
10918.33837406209
 20
2711.394344053149
 30
0.0
 11
10918.33837406209
 21
2722.644344053149
 31
0.0
  0
TEXT
  5
19048
330
125AA
100
AcDbEntity
  8
SUNPOU
100
AcDbText
 10
10663.33837406209
 20
2643.001486910295
 30
0.0
 40
90.0
  1
80
 50
90.0
 41
0.6666666666666666
  7
00
100
AcDbText
  0
LINE
  5
1904A
330
125AA
100
AcDbEntity
  8
SUNPOU
100
AcDbLine
 10
10708.33837406208
 20
2848.89434405315
 30
0.0
 11
10708.33837406208
 21
2837.644344053149
 31
0.0
  0
LINE
  5
1904C
330
125AA
100
AcDbEntity
  8
SUNPOU
100
AcDbLine
 10
10708.33837406208
 20
2551.39434405315
 30
0.0
 11
10708.33837406208
 21
2562.644344053149
 31
0.0
  0
TEXT
  5
1904D
330
125AA
100
AcDbEntity
  8
SUNPOU
100
AcDbText
 10
11927.76694549065
 20
3439.170862655058
 30
0.0
 40
90.0
  1
20
 41
0.6666666666666666
  7
00
100
AcDbText
  0
LINE
  5
1904F
330
125AA
100
AcDbEntity
  8
SUNPOU
100
AcDbLine
 10
11872.58837406209
 20
3394.170862655057
 30
0.0
 11
11883.83837406209
 21
3394.170862655057
 31
0.0
  0
LINE
  5
19051
330
125AA
100
AcDbEntity
  8
SUNPOU
100
AcDbLine
 10
11770.08837406209
 20
3394.170862655057
 30
0.0
 11
11758.83837406209
 21
3394.170862655057
 31
0.0
  0
TEXT
  5
19052
330
125AA
100
AcDbEntity
  8
SUNPOU
100
AcDbText
 10
11451.33837406209
 20
3439.170862655058
 30
0.0
 40
90.0
  1
120
 41
0.6666666666666666
  7
00
100
AcDbText
  0
LINE
  5
19054
330
125AA
100
AcDbEntity
  8
SUNPOU
100
AcDbLine
 10
11770.08837406209
 20
3394.170862655057
 30
0.0
 11
11758.83837406209
 21
3394.170862655057
 31
0.0
  0
LINE
  5
19056
330
125AA
100
AcDbEntity
  8
SUNPOU
100
AcDbLine
 10
11312.58837406211
 20
3394.170862655057
 30
0.0
 11
11323.83837406211
 21
3394.170862655057
 31
0.0
  0
TEXT
  5
19057
330
125AA
100
AcDbEntity
  8
SUNPOU
100
AcDbText
 10
11040.62408834781
 20
3439.170862655058
 30
0.0
 40
90.0
  1
20
 41
0.6666666666666666
  7
00
100
AcDbText
  0
LINE
  5
19059
330
125AA
100
AcDbEntity
  8
SUNPOU
100
AcDbLine
 10
11210.08837406209
 20
3394.170862655057
 30
0.0
 11
11198.83837406209
 21
3394.170862655057
 31
0.0
  0
LINE
  5
1905B
330
125AA
100
AcDbEntity
  8
SUNPOU
100
AcDbLine
 10
11312.58837406211
 20
3394.170862655057
 30
0.0
 11
11323.83837406211
 21
3394.170862655057
 31
0.0
  0
TEXT
  5
1905C
330
125AA
100
AcDbEntity
  8
SUNPOU
100
AcDbText
 10
11451.33837406208
 20
3229.170862655058
 30
0.0
 40
90.0
  1
160
 41
0.6666666666666666
  7
00
100
AcDbText
  0
LINE
  5
1905E
330
125AA
100
AcDbEntity
  8
SUNPOU
100
AcDbLine
 10
11850.08837406209
 20
3184.170862655058
 30
0.0
 11
11838.83837406209
 21
3184.170862655058
 31
0.0
  0
LINE
  5
19060
330
125AA
100
AcDbEntity
  8
SUNPOU
100
AcDbLine
 10
11232.58837406209
 20
3184.170862655058
 30
0.0
 11
11243.83837406209
 21
3184.170862655058
 31
0.0
  0
TEXT
  5
19061
330
125AA
100
AcDbEntity
  8
SUNPOU
100
AcDbText
 10
8494.408966076823
 20
2193.684839419605
 30
0.0
 40
90.0
  1
800
 41
0.6666666666666666
  7
00
100
AcDbText
  0
LINE
  5
19063
330
125AA
100
AcDbEntity
  8
SUNPOU
100
AcDbLine
 10
9208.873251791109
 20
2148.684839419604
 30
0.0
 11
9197.623251791108
 21
2148.684839419604
 31
0.0
  0
LINE
  5
19065
330
125AA
100
AcDbEntity
  8
SUNPOU
100
AcDbLine
 10
7951.373251791109
 20
2148.684839419604
 30
0.0
 11
7962.623251791112
 21
2148.684839419604
 31
0.0
  0
TEXT
  5
19066
330
125AA
100
AcDbEntity
  8
SUNPOU
100
AcDbText
 10
8461.55182321968
 20
1983.684839419605
 30
0.0
 40
90.0
  1
1000
 41
0.6666666666666666
  7
00
100
AcDbText
  0
LINE
  5
19068
330
125AA
100
AcDbEntity
  8
SUNPOU
100
AcDbLine
 10
9368.873251791109
 20
1938.684839419605
 30
0.0
 11
9357.623251791109
 21
1938.684839419605
 31
0.0
  0
LINE
  5
1906A
330
125AA
100
AcDbEntity
  8
SUNPOU
100
AcDbLine
 10
7791.373251791108
 20
1938.684839419605
 30
0.0
 11
7802.623251791108
 21
1938.684839419605
 31
0.0
  0
TEXT
  5
1906B
330
125AA
100
AcDbEntity
  8
SUNPOU
100
AcDbText
 10
7195.769855790351
 20
3523.113410848177
 30
0.0
 40
90.0
  1
50
 50
90.0
 41
0.6666666666666666
  7
00
100
AcDbText
  0
LINE
  5
1906D
330
125AA
100
AcDbEntity
  8
SUNPOU
100
AcDbLine
 10
7240.769855790351
 20
3467.934839419604
 30
0.0
 11
7240.769855790351
 21
3479.184839419604
 31
0.0
  0
LINE
  5
1906F
330
125AA
100
AcDbEntity
  8
SUNPOU
100
AcDbLine
 10
7240.769855790351
 20
3365.434839419608
 30
0.0
 11
7240.769855790351
 21
3354.184839419608
 31
0.0
  0
TEXT
  5
19070
330
125AA
100
AcDbEntity
  8
SUNPOU
100
AcDbText
 10
7615.769855790351
 20
3207.541982276746
 30
0.0
 40
90.0
  1
80
 50
90.0
 41
0.6666666666666666
  7
00
100
AcDbText
  0
LINE
  5
19072
330
125AA
100
AcDbEntity
  8
SUNPOU
100
AcDbLine
 10
7660.769855790352
 20
3211.9348394196
 30
0.0
 11
7660.769855790352
 21
3223.1848394196
 31
0.0
  0
LINE
  5
19074
330
125AA
100
AcDbEntity
  8
SUNPOU
100
AcDbLine
 10
7660.769855790352
 20
3317.434839419605
 30
0.0
 11
7660.769855790352
 21
3306.184839419604
 31
0.0
  0
TEXT
  5
19075
330
125AA
100
AcDbEntity
  8
SUNPOU
100
AcDbText
 10
7615.76985579035
 20
3508.113410848177
 30
0.0
 40
90.0
  1
80
 50
90.0
 41
0.6666666666666666
  7
00
100
AcDbText
  0
LINE
  5
19077
330
125AA
100
AcDbEntity
  8
SUNPOU
100
AcDbLine
 10
7660.769855790352
 20
3445.434839419604
 30
0.0
 11
7660.769855790352
 21
3434.184839419604
 31
0.0
  0
LINE
  5
19079
330
125AA
100
AcDbEntity
  8
SUNPOU
100
AcDbLine
 10
7660.769855790352
 20
3339.934839419607
 30
0.0
 11
7660.769855790352
 21
3351.184839419606
 31
0.0
  0
TEXT
  5
1907A
330
125AA
100
AcDbEntity
  8
SUNPOU
100
AcDbText
 10
7615.76985579035
 20
2874.970553705319
 30
0.0
 40
90.0
  1
300
 50
90.0
 41
0.6666666666666666
  7
00
100
AcDbText
  0
LINE
  5
1907C
330
125AA
100
AcDbEntity
  8
SUNPOU
100
AcDbLine
 10
7660.769855790352
 20
3189.4348394196
 30
0.0
 11
7660.769855790352
 21
3178.1848394196
 31
0.0
  0
LINE
  5
1907E
330
125AA
100
AcDbEntity
  8
SUNPOU
100
AcDbLine
 10
7660.769855790352
 20
2731.934839419607
 30
0.0
 11
7660.769855790352
 21
2743.184839419607
 31
0.0
  0
TEXT
  5
1907F
330
125AA
100
AcDbEntity
  8
SUNPOU
100
AcDbText
 10
7615.76985579035
 20
2337.827696562461
 30
0.0
 40
90.0
  1
120
 50
90.0
 41
0.6666666666666666
  7
00
100
AcDbText
  0
LINE
  5
19081
330
125AA
100
AcDbEntity
  8
SUNPOU
100
AcDbLine
 10
7660.769855790352
 20
2571.934839419602
 30
0.0
 11
7660.769855790352
 21
2583.184839419602
 31
0.0
  0
LINE
  5
19083
330
125AA
100
AcDbEntity
  8
SUNPOU
100
AcDbLine
 10
7660.769855790352
 20
2709.434839419607
 30
0.0
 11
7660.769855790352
 21
2698.184839419607
 31
0.0
  0
TEXT
  5
19084
330
125AA
100
AcDbEntity
  8
SUNPOU
100
AcDbText
 10
7405.76985579035
 20
2922.970553705319
 30
0.0
 40
90.0
  1
580
 50
90.0
 41
0.6666666666666666
  7
00
100
AcDbText
  0
LINE
  5
19086
330
125AA
100
AcDbEntity
  8
SUNPOU
100
AcDbLine
 10
7450.769855790351
 20
2571.934839419602
 30
0.0
 11
7450.769855790351
 21
2583.184839419602
 31
0.0
  0
LINE
  5
19088
330
125AA
100
AcDbEntity
  8
SUNPOU
100
AcDbLine
 10
7450.769855790351
 20
3445.434839419604
 30
0.0
 11
7450.769855790351
 21
3434.184839419604
 31
0.0
  0
TEXT
  5
19089
330
125AA
100
AcDbEntity
  8
SUNPOU
100
AcDbText
 10
8334.408966076825
 20
4175.485411556194
 30
0.0
 40
90.0
  1
200
 41
0.6666666666666666
  7
00
100
AcDbText
  0
LINE
  5
1908B
330
125AA
100
AcDbEntity
  8
SUNPOU
100
AcDbLine
 10
8271.373251791111
 20
4130.485411556196
 30
0.0
 11
8282.623251791111
 21
4130.485411556196
 31
0.0
  0
LINE
  5
1908D
330
125AA
100
AcDbEntity
  8
SUNPOU
100
AcDbLine
 10
8568.87325179111
 20
4130.485411556196
 30
0.0
 11
8557.623251791111
 21
4130.485411556196
 31
0.0
  0
TEXT
  5
1908E
330
125AA
100
AcDbEntity
  8
SUNPOU
100
AcDbText
 10
4714.082765553178
 20
2193.684839419601
 30
0.0
 40
90.0
  1
800
 41
0.6666666666666666
  7
00
100
AcDbText
  0
LINE
  5
19090
330
125AA
100
AcDbEntity
  8
SUNPOU
100
AcDbLine
 10
5428.547051267464
 20
2148.684839419601
 30
0.0
 11
5417.297051267464
 21
2148.684839419601
 31
0.0
  0
LINE
  5
19092
330
125AA
100
AcDbEntity
  8
SUNPOU
100
AcDbLine
 10
4171.047051267463
 20
2148.684839419601
 30
0.0
 11
4182.297051267464
 21
2148.684839419601
 31
0.0
  0
TEXT
  5
19093
330
125AA
100
AcDbEntity
  8
SUNPOU
100
AcDbText
 10
4681.225622696032
 20
1983.6848394196
 30
0.0
 40
90.0
  1
1000
 41
0.6666666666666666
  7
00
100
AcDbText
  0
LINE
  5
19095
330
125AA
100
AcDbEntity
  8
SUNPOU
100
AcDbLine
 10
5588.547051267462
 20
1938.6848394196
 30
0.0
 11
5577.297051267462
 21
1938.6848394196
 31
0.0
  0
LINE
  5
19097
330
125AA
100
AcDbEntity
  8
SUNPOU
100
AcDbLine
 10
4011.047051267461
 20
1938.6848394196
 30
0.0
 11
4022.297051267463
 21
1938.6848394196
 31
0.0
  0
TEXT
  5
19098
330
125AA
100
AcDbEntity
  8
SUNPOU
100
AcDbText
 10
3415.443655266705
 20
3523.113410848178
 30
0.0
 40
90.0
  1
50
 50
90.0
 41
0.6666666666666666
  7
00
100
AcDbText
  0
LINE
  5
1909A
330
125AA
100
AcDbEntity
  8
SUNPOU
100
AcDbLine
 10
3460.443655266704
 20
3467.934839419605
 30
0.0
 11
3460.443655266704
 21
3479.184839419605
 31
0.0
  0
LINE
  5
1909C
330
125AA
100
AcDbEntity
  8
SUNPOU
100
AcDbLine
 10
3460.443655266704
 20
3365.434839419604
 30
0.0
 11
3460.443655266704
 21
3354.184839419604
 31
0.0
  0
TEXT
  5
1909D
330
125AA
100
AcDbEntity
  8
SUNPOU
100
AcDbText
 10
3835.443655266704
 20
3207.541982276742
 30
0.0
 40
90.0
  1
80
 50
90.0
 41
0.6666666666666666
  7
00
100
AcDbText
  0
LINE
  5
1909F
330
125AA
100
AcDbEntity
  8
SUNPOU
100
AcDbLine
 10
3880.443655266705
 20
3211.934839419596
 30
0.0
 11
3880.443655266705
 21
3223.184839419595
 31
0.0
  0
LINE
  5
190A1
330
125AA
100
AcDbEntity
  8
SUNPOU
100
AcDbLine
 10
3880.443655266705
 20
3317.4348394196
 30
0.0
 11
3880.443655266705
 21
3306.1848394196
 31
0.0
  0
TEXT
  5
190A2
330
125AA
100
AcDbEntity
  8
SUNPOU
100
AcDbText
 10
3835.443655266704
 20
3508.113410848177
 30
0.0
 40
90.0
  1
80
 50
90.0
 41
0.6666666666666666
  7
00
100
AcDbText
  0
LINE
  5
190A4
330
125AA
100
AcDbEntity
  8
SUNPOU
100
AcDbLine
 10
3880.443655266704
 20
3445.434839419605
 30
0.0
 11
3880.443655266704
 21
3434.184839419605
 31
0.0
  0
LINE
  5
190A6
330
125AA
100
AcDbEntity
  8
SUNPOU
100
AcDbLine
 10
3880.443655266704
 20
3339.934839419603
 30
0.0
 11
3880.443655266704
 21
3351.184839419602
 31
0.0
  0
TEXT
  5
190A7
330
125AA
100
AcDbEntity
  8
SUNPOU
100
AcDbText
 10
3835.443655266704
 20
2874.970553705313
 30
0.0
 40
90.0
  1
300
 50
90.0
 41
0.6666666666666666
  7
00
100
AcDbText
  0
LINE
  5
190A9
330
125AA
100
AcDbEntity
  8
SUNPOU
100
AcDbLine
 10
3880.443655266704
 20
3189.434839419595
 30
0.0
 11
3880.443655266704
 21
3178.184839419595
 31
0.0
  0
LINE
  5
190AB
330
125AA
100
AcDbEntity
  8
SUNPOU
100
AcDbLine
 10
3880.443655266704
 20
2731.934839419603
 30
0.0
 11
3880.443655266704
 21
2743.184839419603
 31
0.0
  0
TEXT
  5
190AC
330
125AA
100
AcDbEntity
  8
SUNPOU
100
AcDbText
 10
3835.443655266704
 20
2337.82769656246
 30
0.0
 40
90.0
  1
120
 50
90.0
 41
0.6666666666666666
  7
00
100
AcDbText
  0
LINE
  5
190AE
330
125AA
100
AcDbEntity
  8
SUNPOU
100
AcDbLine
 10
3880.443655266704
 20
2571.934839419602
 30
0.0
 11
3880.443655266704
 21
2583.184839419602
 31
0.0
  0
LINE
  5
190B0
330
125AA
100
AcDbEntity
  8
SUNPOU
100
AcDbLine
 10
3880.443655266704
 20
2709.434839419602
 30
0.0
 11
3880.443655266704
 21
2698.184839419602
 31
0.0
  0
TEXT
  5
190B1
330
125AA
100
AcDbEntity
  8
SUNPOU
100
AcDbText
 10
3625.443655266705
 20
2922.970553705319
 30
0.0
 40
90.0
  1
580
 50
90.0
 41
0.6666666666666666
  7
00
100
AcDbText
  0
LINE
  5
190B3
330
125AA
100
AcDbEntity
  8
SUNPOU
100
AcDbLine
 10
3670.443655266705
 20
2571.934839419602
 30
0.0
 11
3670.443655266705
 21
2583.184839419602
 31
0.0
  0
LINE
  5
190B5
330
125AA
100
AcDbEntity
  8
SUNPOU
100
AcDbLine
 10
3670.443655266705
 20
3445.434839419605
 30
0.0
 11
3670.443655266705
 21
3434.184839419605
 31
0.0
  0
TEXT
  5
190B6
330
125AA
100
AcDbEntity
  8
SUNPOU
100
AcDbText
 10
4394.082765553178
 20
4175.485411556191
 30
0.0
 40
90.0
  1
400
 41
0.6666666666666666
  7
00
100
AcDbText
  0
LINE
  5
190B8
330
125AA
100
AcDbEntity
  8
SUNPOU
100
AcDbLine
 10
4171.047051267463
 20
4130.485411556192
 30
0.0
 11
4182.297051267464
 21
4130.485411556192
 31
0.0
  0
LINE
  5
190BA
330
125AA
100
AcDbEntity
  8
SUNPOU
100
AcDbLine
 10
4788.547051267463
 20
4130.485411556192
 30
0.0
 11
4777.297051267463
 21
4130.485411556192
 31
0.0
  0
TEXT
  5
190BB
330
125AA
100
AcDbEntity
  8
SUNPOU
100
AcDbText
 10
12181.36032602547
 20
9066.655560084637
 30
0.0
 40
90.0
  1
200
 50
90.0
 41
0.6666666666666666
  7
00
100
AcDbText
  0
LINE
  5
190BD
330
125AA
100
AcDbEntity
  8
SUNPOU
100
AcDbLine
 10
12226.36032602547
 20
9300.762702941778
 30
0.0
 11
12226.36032602547
 21
9312.012702941778
 31
0.0
  0
LINE
  5
190BF
330
125AA
100
AcDbEntity
  8
SUNPOU
100
AcDbLine
 10
12226.36032602547
 20
9478.262702941778
 30
0.0
 11
12226.36032602547
 21
9467.012702941778
 31
0.0
  0
TEXT
  5
190C0
330
125AA
100
AcDbEntity
  8
SUNPOU
100
AcDbText
 10
12181.36032602547
 20
9740.941274370353
 30
0.0
 40
90.0
  1
200
 50
90.0
 41
0.6666666666666666
  7
00
100
AcDbText
  0
LINE
  5
190C2
330
125AA
100
AcDbEntity
  8
SUNPOU
100
AcDbLine
 10
12226.36032602547
 20
9678.262702941779
 30
0.0
 11
12226.36032602547
 21
9667.01270294178
 31
0.0
  0
LINE
  5
190C4
330
125AA
100
AcDbEntity
  8
SUNPOU
100
AcDbLine
 10
12226.36032602547
 20
9500.762702941775
 30
0.0
 11
12226.36032602547
 21
9512.012702941779
 31
0.0
  0
ARC
  5
190C5
330
125AA
100
AcDbEntity
  8
SUNPOU
100
AcDbCircle
 10
12646.36032602547
 20
9689.512702941778
 30
0.0
 40
5.625
100
AcDbArc
 50
270.0
 51
90.0
  0
ARC
  5
190C6
330
125AA
100
AcDbEntity
  8
SUNPOU
100
AcDbCircle
 10
12646.36032602547
 20
9689.512702941778
 30
0.0
 40
5.625
100
AcDbArc
 50
90.0
 51
270.0
  0
ARC
  5
190C7
330
125AA
100
AcDbEntity
  8
SUNPOU
100
AcDbCircle
 10
12436.36032602547
 20
9689.512702941778
 30
0.0
 40
5.625
100
AcDbArc
 50
270.0
 51
90.0
  0
ARC
  5
190C8
330
125AA
100
AcDbEntity
  8
SUNPOU
100
AcDbCircle
 10
12436.36032602547
 20
9689.512702941778
 30
0.0
 40
5.625
100
AcDbArc
 50
90.0
 51
270.0
  0
ARC
  5
190C9
330
125AA
100
AcDbEntity
  8
SUNPOU
100
AcDbCircle
 10
12436.36032602547
 20
9289.512702941776
 30
0.0
 40
5.625
100
AcDbArc
 50
270.0
 51
90.0
  0
ARC
  5
190CA
330
125AA
100
AcDbEntity
  8
SUNPOU
100
AcDbCircle
 10
12436.36032602547
 20
9289.512702941776
 30
0.0
 40
5.625
100
AcDbArc
 50
90.0
 51
270.0
  0
ARC
  5
190CB
330
125AA
100
AcDbEntity
  8
SUNPOU
100
AcDbCircle
 10
12436.36032602547
 20
9289.512702941776
 30
0.0
 40
5.625
100
AcDbArc
 50
90.0
 51
270.0
  0
ARC
  5
190CC
330
125AA
100
AcDbEntity
  8
SUNPOU
100
AcDbCircle
 10
12436.36032602547
 20
9289.512702941776
 30
0.0
 40
5.625
100
AcDbArc
 50
270.0
 51
90.0
  0
ARC
  5
190CD
330
125AA
100
AcDbEntity
  8
SUNPOU
100
AcDbCircle
 10
12436.36032602547
 20
7489.512702941778
 30
0.0
 40
5.625
100
AcDbArc
 50
90.0
 51
270.0
  0
ARC
  5
190CE
330
125AA
100
AcDbEntity
  8
SUNPOU
100
AcDbCircle
 10
12436.36032602547
 20
7489.512702941778
 30
0.0
 40
5.625
100
AcDbArc
 50
270.0
 51
90.0
  0
ARC
  5
190CF
330
125AA
100
AcDbEntity
  8
SUNPOU
100
AcDbCircle
 10
12436.36032602547
 20
7489.512702941778
 30
0.0
 40
5.625
100
AcDbArc
 50
270.0
 51
90.0
  0
ARC
  5
190D0
330
125AA
100
AcDbEntity
  8
SUNPOU
100
AcDbCircle
 10
12436.36032602547
 20
7489.512702941778
 30
0.0
 40
5.625
100
AcDbArc
 50
90.0
 51
270.0
  0
ARC
  5
190D1
330
125AA
100
AcDbEntity
  8
SUNPOU
100
AcDbCircle
 10
12646.36032602547
 20
7089.512702941778
 30
0.0
 40
5.625
100
AcDbArc
 50
90.0
 51
270.0
  0
ARC
  5
190D2
330
125AA
100
AcDbEntity
  8
SUNPOU
100
AcDbCircle
 10
12646.36032602547
 20
7089.512702941778
 30
0.0
 40
5.625
100
AcDbArc
 50
270.0
 51
90.0
  0
ARC
  5
190D3
330
125AA
100
AcDbEntity
  8
SUNPOU
100
AcDbCircle
 10
12436.36032602547
 20
7089.512702941778
 30
0.0
 40
5.625
100
AcDbArc
 50
90.0
 51
270.0
  0
ARC
  5
190D4
330
125AA
100
AcDbEntity
  8
SUNPOU
100
AcDbCircle
 10
12436.36032602547
 20
7089.512702941778
 30
0.0
 40
5.625
100
AcDbArc
 50
270.0
 51
90.0
  0
TEXT
  5
190D5
330
125AA
100
AcDbEntity
  8
SUNPOU
100
AcDbText
 10
11540.64604031119
 20
10034.51270294178
 30
0.0
 40
90.0
  1
400
 41
0.6666666666666666
  7
00
100
AcDbText
  0
LINE
  5
190D7
330
125AA
100
AcDbEntity
  8
SUNPOU
100
AcDbLine
 10
11815.11032602547
 20
9989.512702941778
 30
0.0
 11
11803.86032602547
 21
9989.512702941778
 31
0.0
  0
LINE
  5
190D9
330
125AA
100
AcDbEntity
  8
SUNPOU
100
AcDbLine
 10
11437.61032602548
 20
9989.512702941778
 30
0.0
 11
11448.86032602547
 21
9989.512702941778
 31
0.0
  0
ARC
  5
190DA
330
125AA
100
AcDbEntity
  8
SUNPOU
100
AcDbCircle
 10
8626.360326025478
 20
9989.512702941778
 30
0.0
 40
5.625
100
AcDbArc
 50
180.0
 51
0.0
  0
ARC
  5
190DB
330
125AA
100
AcDbEntity
  8
SUNPOU
100
AcDbCircle
 10
8626.360326025478
 20
9989.512702941778
 30
0.0
 40
5.625
100
AcDbArc
 50
0.0
 51
180.0
  0
TEXT
  5
190DC
330
125AA
100
AcDbEntity
  8
SUNPOU
100
AcDbText
 10
9912.074611739765
 20
10034.51270294178
 30
0.0
 40
90.0
  1
2800
 41
0.6666666666666666
  7
00
100
AcDbText
  0
LINE
  5
190DE
330
125AA
100
AcDbEntity
  8
SUNPOU
100
AcDbLine
 10
8637.610326025479
 20
9989.512702941778
 30
0.0
 11
8648.860326025479
 21
9989.512702941778
 31
0.0
  0
LINE
  5
190E0
330
125AA
100
AcDbEntity
  8
SUNPOU
100
AcDbLine
 10
11415.11032602547
 20
9989.512702941778
 30
0.0
 11
11403.86032602547
 21
9989.512702941778
 31
0.0
  0
TEXT
  5
190E1
330
125AA
100
AcDbEntity
  8
SUNPOU
100
AcDbText
 10
9281.360326025481
 20
7403.798417227493
 30
0.0
 40
90.0
  1
800
 50
90.0
 41
0.6666666666666666
  7
00
100
AcDbText
  0
LINE
  5
190E3
330
125AA
100
AcDbEntity
  8
SUNPOU
100
AcDbLine
 10
9326.360326025485
 20
7100.762702941778
 30
0.0
 11
9326.360326025485
 21
7112.012702941779
 31
0.0
  0
LINE
  5
190E5
330
125AA
100
AcDbEntity
  8
SUNPOU
100
AcDbLine
 10
9326.360326025485
 20
7878.262702941778
 30
0.0
 11
9326.360326025485
 21
7867.012702941778
 31
0.0
  0
ARC
  5
190E6
330
125AA
100
AcDbEntity
  8
SUNPOU
100
AcDbCircle
 10
7226.360326025478
 20
9989.512702941778
 30
0.0
 40
5.625
100
AcDbArc
 50
0.0
 51
180.0
  0
ARC
  5
190E7
330
125AA
100
AcDbEntity
  8
SUNPOU
100
AcDbCircle
 10
7226.360326025478
 20
9989.512702941778
 30
0.0
 40
5.625
100
AcDbArc
 50
180.0
 51
0.0
  0
TEXT
  5
190E8
330
125AA
100
AcDbEntity
  8
SUNPOU
100
AcDbText
 10
5712.074611739765
 20
10034.51270294178
 30
0.0
 40
90.0
  1
2800
 41
0.6666666666666666
  7
00
100
AcDbText
  0
LINE
  5
190EA
330
125AA
100
AcDbEntity
  8
SUNPOU
100
AcDbLine
 10
4437.610326025478
 20
9989.512702941778
 30
0.0
 11
4448.860326025477
 21
9989.512702941778
 31
0.0
  0
LINE
  5
190EC
330
125AA
100
AcDbEntity
  8
SUNPOU
100
AcDbLine
 10
7215.110326025478
 20
9989.512702941778
 30
0.0
 11
7203.860326025479
 21
9989.512702941778
 31
0.0
  0
TEXT
  5
190ED
330
125AA
100
AcDbEntity
  8
SUNPOU
100
AcDbText
 10
7140.646040311192
 20
8634.512702941778
 30
0.0
 40
90.0
  1
800
 41
0.6666666666666666
  7
00
100
AcDbText
  0
LINE
  5
190EF
330
125AA
100
AcDbEntity
  8
SUNPOU
100
AcDbLine
 10
7615.110326025479
 20
8589.512702941778
 30
0.0
 11
7603.860326025479
 21
8589.512702941778
 31
0.0
  0
LINE
  5
190F1
330
125AA
100
AcDbEntity
  8
SUNPOU
100
AcDbLine
 10
6837.61032602548
 20
8589.512702941778
 30
0.0
 11
6848.860326025479
 21
8589.512702941778
 31
0.0
  0
TEXT
  5
190F2
330
125AA
100
AcDbEntity
  8
SUNPOU
100
AcDbText
 10
6481.360326025478
 20
9203.798417227494
 30
0.0
 40
90.0
  1
800
 50
90.0
 41
0.6666666666666666
  7
00
100
AcDbText
  0
LINE
  5
190F4
330
125AA
100
AcDbEntity
  8
SUNPOU
100
AcDbLine
 10
6526.360326025478
 20
8900.762702941777
 30
0.0
 11
6526.360326025478
 21
8912.012702941778
 31
0.0
  0
LINE
  5
190F6
330
125AA
100
AcDbEntity
  8
SUNPOU
100
AcDbLine
 10
6526.360326025478
 20
9678.262702941779
 30
0.0
 11
6526.360326025478
 21
9667.01270294178
 31
0.0
  0
TEXT
  5
190F7
330
125AA
100
AcDbEntity
  8
SUNPOU
100
AcDbText
 10
4140.646040311193
 20
10034.51270294178
 30
0.0
 40
90.0
  1
400
 41
0.6666666666666666
  7
00
100
AcDbText
  0
LINE
  5
190F9
330
125AA
100
AcDbEntity
  8
SUNPOU
100
AcDbLine
 10
4037.610326025478
 20
9989.512702941778
 30
0.0
 11
4048.860326025478
 21
9989.512702941778
 31
0.0
  0
LINE
  5
190FB
330
125AA
100
AcDbEntity
  8
SUNPOU
100
AcDbLine
 10
4415.110326025478
 20
9989.512702941778
 30
0.0
 11
4403.860326025479
 21
9989.512702941778
 31
0.0
  0
TEXT
  5
190FC
330
125AA
100
AcDbEntity
  8
SUNPOU
100
AcDbText
 10
8540.646040311193
 20
8234.512702941778
 30
0.0
 40
90.0
  1
800
 41
0.6666666666666666
  7
00
100
AcDbText
  0
LINE
  5
190FE
330
125AA
100
AcDbEntity
  8
SUNPOU
100
AcDbLine
 10
9015.110326025478
 20
8189.512702941778
 30
0.0
 11
9003.860326025479
 21
8189.512702941778
 31
0.0
  0
LINE
  5
19100
330
125AA
100
AcDbEntity
  8
SUNPOU
100
AcDbLine
 10
8237.61032602548
 20
8189.512702941778
 30
0.0
 11
8248.860326025479
 21
8189.512702941778
 31
0.0
  0
TEXT
  5
19101
330
125AA
100
AcDbEntity
  8
SUNPOU
100
AcDbText
 10
7897.788897454052
 20
10244.51270294178
 30
0.0
 40
90.0
  1
L
 41
0.6666666666666666
  7
00
100
AcDbText
  0
LINE
  5
19103
330
125AA
100
AcDbEntity
  8
SUNPOU
100
AcDbLine
 10
11815.11032602547
 20
10199.51270294177
 30
0.0
 11
11803.86032602547
 21
10199.51270294177
 31
0.0
  0
LINE
  5
19105
330
125AA
100
AcDbEntity
  8
SUNPOU
100
AcDbLine
 10
4037.610326025478
 20
10199.51270294177
 30
0.0
 11
4048.860326025478
 21
10199.51270294177
 31
0.0
  0
ARC
  5
19106
330
125AA
100
AcDbEntity
  8
SUNPOU
100
AcDbCircle
 10
11861.33837406209
 20
2245.804976716085
 30
0.0
 40
5.625
100
AcDbArc
 50
0.0
 51
180.0
  0
ARC
  5
19107
330
125AA
100
AcDbEntity
  8
SUNPOU
100
AcDbCircle
 10
11861.33837406209
 20
2245.804976716085
 30
0.0
 40
5.625
100
AcDbArc
 50
180.0
 51
0.0
  0
ARC
  5
19108
330
125AA
100
AcDbEntity
  8
SUNPOU
100
AcDbCircle
 10
11781.33837406209
 20
2245.804976716085
 30
0.0
 40
5.625
100
AcDbArc
 50
180.0
 51
0.0
  0
ARC
  5
19109
330
125AA
100
AcDbEntity
  8
SUNPOU
100
AcDbCircle
 10
11781.33837406209
 20
2245.804976716085
 30
0.0
 40
5.625
100
AcDbArc
 50
0.0
 51
180.0
  0
ARC
  5
1910A
330
125AA
100
AcDbEntity
  8
SUNPOU
100
AcDbCircle
 10
11781.33837406209
 20
2245.804976716085
 30
0.0
 40
5.625
100
AcDbArc
 50
180.0
 51
0.0
  0
ARC
  5
1910B
330
125AA
100
AcDbEntity
  8
SUNPOU
100
AcDbCircle
 10
11781.33837406209
 20
2245.804976716085
 30
0.0
 40
5.625
100
AcDbArc
 50
0.0
 51
180.0
  0
ARC
  5
1910C
330
125AA
100
AcDbEntity
  8
SUNPOU
100
AcDbCircle
 10
11301.33837406211
 20
2245.804976716085
 30
0.0
 40
5.625
100
AcDbArc
 50
0.0
 51
180.0
  0
ARC
  5
1910D
330
125AA
100
AcDbEntity
  8
SUNPOU
100
AcDbCircle
 10
11301.33837406211
 20
2245.804976716085
 30
0.0
 40
5.625
100
AcDbArc
 50
180.0
 51
0.0
  0
ARC
  5
1910E
330
125AA
100
AcDbEntity
  8
SUNPOU
100
AcDbCircle
 10
11221.33837406209
 20
2245.804976716085
 30
0.0
 40
5.625
100
AcDbArc
 50
180.0
 51
0.0
  0
ARC
  5
1910F
330
125AA
100
AcDbEntity
  8
SUNPOU
100
AcDbCircle
 10
11221.33837406209
 20
2245.804976716085
 30
0.0
 40
5.625
100
AcDbArc
 50
0.0
 51
180.0
  0
ARC
  5
19110
330
125AA
100
AcDbEntity
  8
SUNPOU
100
AcDbCircle
 10
11301.33837406211
 20
2245.804976716085
 30
0.0
 40
5.625
100
AcDbArc
 50
0.0
 51
180.0
  0
ARC
  5
19111
330
125AA
100
AcDbEntity
  8
SUNPOU
100
AcDbCircle
 10
11301.33837406211
 20
2245.804976716085
 30
0.0
 40
5.625
100
AcDbArc
 50
180.0
 51
0.0
  0
ARC
  5
19112
330
125AA
100
AcDbEntity
  8
SUNPOU
100
AcDbCircle
 10
11861.33837406209
 20
2035.804976716086
 30
0.0
 40
5.625
100
AcDbArc
 50
180.0
 51
0.0
  0
ARC
  5
19113
330
125AA
100
AcDbEntity
  8
SUNPOU
100
AcDbCircle
 10
11861.33837406209
 20
2035.804976716086
 30
0.0
 40
5.625
100
AcDbArc
 50
0.0
 51
180.0
  0
ARC
  5
19114
330
125AA
100
AcDbEntity
  8
SUNPOU
100
AcDbCircle
 10
11221.33837406209
 20
2035.804976716086
 30
0.0
 40
5.625
100
AcDbArc
 50
0.0
 51
180.0
  0
ARC
  5
19115
330
125AA
100
AcDbEntity
  8
SUNPOU
100
AcDbCircle
 10
11221.33837406209
 20
2035.804976716086
 30
0.0
 40
5.625
100
AcDbArc
 50
180.0
 51
0.0
  0
ARC
  5
19116
330
125AA
100
AcDbEntity
  8
SUNPOU
100
AcDbCircle
 10
10918.33837406209
 20
2540.14434405315
 30
0.0
 40
5.625
100
AcDbArc
 50
90.0
 51
270.0
  0
ARC
  5
19117
330
125AA
100
AcDbEntity
  8
SUNPOU
100
AcDbCircle
 10
10918.33837406209
 20
2540.14434405315
 30
0.0
 40
5.625
100
AcDbArc
 50
270.0
 51
90.0
  0
ARC
  5
19118
330
125AA
100
AcDbEntity
  8
SUNPOU
100
AcDbCircle
 10
10918.33837406209
 20
2700.144344053149
 30
0.0
 40
5.625
100
AcDbArc
 50
270.0
 51
90.0
  0
ARC
  5
19119
330
125AA
100
AcDbEntity
  8
SUNPOU
100
AcDbCircle
 10
10918.33837406209
 20
2700.144344053149
 30
0.0
 40
5.625
100
AcDbArc
 50
90.0
 51
270.0
  0
ARC
  5
1911A
330
125AA
100
AcDbEntity
  8
SUNPOU
100
AcDbCircle
 10
10918.33837406209
 20
2860.14434405315
 30
0.0
 40
5.625
100
AcDbArc
 50
270.0
 51
90.0
  0
ARC
  5
1911B
330
125AA
100
AcDbEntity
  8
SUNPOU
100
AcDbCircle
 10
10918.33837406209
 20
2860.14434405315
 30
0.0
 40
5.625
100
AcDbArc
 50
90.0
 51
270.0
  0
ARC
  5
1911C
330
125AA
100
AcDbEntity
  8
SUNPOU
100
AcDbCircle
 10
10918.33837406209
 20
2700.144344053149
 30
0.0
 40
5.625
100
AcDbArc
 50
90.0
 51
270.0
  0
ARC
  5
1911D
330
125AA
100
AcDbEntity
  8
SUNPOU
100
AcDbCircle
 10
10918.33837406209
 20
2700.144344053149
 30
0.0
 40
5.625
100
AcDbArc
 50
270.0
 51
90.0
  0
ARC
  5
1911E
330
125AA
100
AcDbEntity
  8
SUNPOU
100
AcDbCircle
 10
10708.33837406208
 20
2860.14434405315
 30
0.0
 40
5.625
100
AcDbArc
 50
270.0
 51
90.0
  0
ARC
  5
1911F
330
125AA
100
AcDbEntity
  8
SUNPOU
100
AcDbCircle
 10
10708.33837406208
 20
2860.14434405315
 30
0.0
 40
5.625
100
AcDbArc
 50
90.0
 51
270.0
  0
ARC
  5
19120
330
125AA
100
AcDbEntity
  8
SUNPOU
100
AcDbCircle
 10
10708.33837406208
 20
2540.14434405315
 30
0.0
 40
5.625
100
AcDbArc
 50
90.0
 51
270.0
  0
ARC
  5
19121
330
125AA
100
AcDbEntity
  8
SUNPOU
100
AcDbCircle
 10
10708.33837406208
 20
2540.14434405315
 30
0.0
 40
5.625
100
AcDbArc
 50
270.0
 51
90.0
  0
ARC
  5
19122
330
125AA
100
AcDbEntity
  8
SUNPOU
100
AcDbCircle
 10
11861.33837406209
 20
3394.170862655057
 30
0.0
 40
5.625
100
AcDbArc
 50
0.0
 51
180.0
  0
ARC
  5
19123
330
125AA
100
AcDbEntity
  8
SUNPOU
100
AcDbCircle
 10
11861.33837406209
 20
3394.170862655057
 30
0.0
 40
5.625
100
AcDbArc
 50
180.0
 51
0.0
  0
ARC
  5
19124
330
125AA
100
AcDbEntity
  8
SUNPOU
100
AcDbCircle
 10
11781.33837406209
 20
3394.170862655057
 30
0.0
 40
5.625
100
AcDbArc
 50
180.0
 51
0.0
  0
ARC
  5
19125
330
125AA
100
AcDbEntity
  8
SUNPOU
100
AcDbCircle
 10
11781.33837406209
 20
3394.170862655057
 30
0.0
 40
5.625
100
AcDbArc
 50
0.0
 51
180.0
  0
ARC
  5
19126
330
125AA
100
AcDbEntity
  8
SUNPOU
100
AcDbCircle
 10
11781.33837406209
 20
3394.170862655057
 30
0.0
 40
5.625
100
AcDbArc
 50
180.0
 51
0.0
  0
ARC
  5
19127
330
125AA
100
AcDbEntity
  8
SUNPOU
100
AcDbCircle
 10
11781.33837406209
 20
3394.170862655057
 30
0.0
 40
5.625
100
AcDbArc
 50
0.0
 51
180.0
  0
ARC
  5
19128
330
125AA
100
AcDbEntity
  8
SUNPOU
100
AcDbCircle
 10
11301.33837406211
 20
3394.170862655057
 30
0.0
 40
5.625
100
AcDbArc
 50
0.0
 51
180.0
  0
ARC
  5
19129
330
125AA
100
AcDbEntity
  8
SUNPOU
100
AcDbCircle
 10
11301.33837406211
 20
3394.170862655057
 30
0.0
 40
5.625
100
AcDbArc
 50
180.0
 51
0.0
  0
ARC
  5
1912A
330
125AA
100
AcDbEntity
  8
SUNPOU
100
AcDbCircle
 10
11221.33837406209
 20
3394.170862655057
 30
0.0
 40
5.625
100
AcDbArc
 50
180.0
 51
0.0
  0
ARC
  5
1912B
330
125AA
100
AcDbEntity
  8
SUNPOU
100
AcDbCircle
 10
11221.33837406209
 20
3394.170862655057
 30
0.0
 40
5.625
100
AcDbArc
 50
0.0
 51
180.0
  0
ARC
  5
1912C
330
125AA
100
AcDbEntity
  8
SUNPOU
100
AcDbCircle
 10
11301.33837406211
 20
3394.170862655057
 30
0.0
 40
5.625
100
AcDbArc
 50
0.0
 51
180.0
  0
ARC
  5
1912D
330
125AA
100
AcDbEntity
  8
SUNPOU
100
AcDbCircle
 10
11301.33837406211
 20
3394.170862655057
 30
0.0
 40
5.625
100
AcDbArc
 50
180.0
 51
0.0
  0
ARC
  5
1912E
330
125AA
100
AcDbEntity
  8
SUNPOU
100
AcDbCircle
 10
11861.33837406209
 20
3184.170862655058
 30
0.0
 40
5.625
100
AcDbArc
 50
180.0
 51
0.0
  0
ARC
  5
1912F
330
125AA
100
AcDbEntity
  8
SUNPOU
100
AcDbCircle
 10
11861.33837406209
 20
3184.170862655058
 30
0.0
 40
5.625
100
AcDbArc
 50
0.0
 51
180.0
  0
ARC
  5
19130
330
125AA
100
AcDbEntity
  8
SUNPOU
100
AcDbCircle
 10
11221.33837406209
 20
3184.170862655058
 30
0.0
 40
5.625
100
AcDbArc
 50
0.0
 51
180.0
  0
ARC
  5
19131
330
125AA
100
AcDbEntity
  8
SUNPOU
100
AcDbCircle
 10
11221.33837406209
 20
3184.170862655058
 30
0.0
 40
5.625
100
AcDbArc
 50
180.0
 51
0.0
  0
ARC
  5
19132
330
125AA
100
AcDbEntity
  8
SUNPOU
100
AcDbCircle
 10
9220.123251791108
 20
2148.684839419604
 30
0.0
 40
5.625
100
AcDbArc
 50
180.0
 51
0.0
  0
ARC
  5
19133
330
125AA
100
AcDbEntity
  8
SUNPOU
100
AcDbCircle
 10
9220.123251791108
 20
2148.684839419604
 30
0.0
 40
5.625
100
AcDbArc
 50
0.0
 51
180.0
  0
ARC
  5
19134
330
125AA
100
AcDbEntity
  8
SUNPOU
100
AcDbCircle
 10
7940.123251791111
 20
2148.684839419604
 30
0.0
 40
5.625
100
AcDbArc
 50
0.0
 51
180.0
  0
ARC
  5
19135
330
125AA
100
AcDbEntity
  8
SUNPOU
100
AcDbCircle
 10
7940.123251791111
 20
2148.684839419604
 30
0.0
 40
5.625
100
AcDbArc
 50
180.0
 51
0.0
  0
ARC
  5
19136
330
125AA
100
AcDbEntity
  8
SUNPOU
100
AcDbCircle
 10
9380.123251791109
 20
1938.684839419605
 30
0.0
 40
5.625
100
AcDbArc
 50
180.0
 51
0.0
  0
ARC
  5
19137
330
125AA
100
AcDbEntity
  8
SUNPOU
100
AcDbCircle
 10
9380.123251791109
 20
1938.684839419605
 30
0.0
 40
5.625
100
AcDbArc
 50
0.0
 51
180.0
  0
ARC
  5
19138
330
125AA
100
AcDbEntity
  8
SUNPOU
100
AcDbCircle
 10
7780.123251791109
 20
1938.684839419605
 30
0.0
 40
5.625
100
AcDbArc
 50
0.0
 51
180.0
  0
ARC
  5
19139
330
125AA
100
AcDbEntity
  8
SUNPOU
100
AcDbCircle
 10
7780.123251791109
 20
1938.684839419605
 30
0.0
 40
5.625
100
AcDbArc
 50
180.0
 51
0.0
  0
ARC
  5
1913A
330
125AA
100
AcDbEntity
  8
SUNPOU
100
AcDbCircle
 10
7240.769855790351
 20
3456.684839419605
 30
0.0
 40
5.625
100
AcDbArc
 50
90.0
 51
270.0
  0
ARC
  5
1913B
330
125AA
100
AcDbEntity
  8
SUNPOU
100
AcDbCircle
 10
7240.769855790351
 20
3456.684839419605
 30
0.0
 40
5.625
100
AcDbArc
 50
270.0
 51
90.0
  0
ARC
  5
1913C
330
125AA
100
AcDbEntity
  8
SUNPOU
100
AcDbCircle
 10
7240.769855790351
 20
3376.684839419608
 30
0.0
 40
5.625
100
AcDbArc
 50
270.0
 51
90.0
  0
ARC
  5
1913D
330
125AA
100
AcDbEntity
  8
SUNPOU
100
AcDbCircle
 10
7240.769855790351
 20
3376.684839419608
 30
0.0
 40
5.625
100
AcDbArc
 50
90.0
 51
270.0
  0
ARC
  5
1913E
330
125AA
100
AcDbEntity
  8
SUNPOU
100
AcDbCircle
 10
7660.769855790352
 20
3200.684839419601
 30
0.0
 40
5.625
100
AcDbArc
 50
90.0
 51
270.0
  0
ARC
  5
1913F
330
125AA
100
AcDbEntity
  8
SUNPOU
100
AcDbCircle
 10
7660.769855790352
 20
3200.684839419601
 30
0.0
 40
5.625
100
AcDbArc
 50
270.0
 51
90.0
  0
ARC
  5
19140
330
125AA
100
AcDbEntity
  8
SUNPOU
100
AcDbCircle
 10
7660.769855790352
 20
3328.684839419604
 30
0.0
 40
5.625
100
AcDbArc
 50
270.0
 51
90.0
  0
ARC
  5
19141
330
125AA
100
AcDbEntity
  8
SUNPOU
100
AcDbCircle
 10
7660.769855790352
 20
3328.684839419604
 30
0.0
 40
5.625
100
AcDbArc
 50
90.0
 51
270.0
  0
ARC
  5
19142
330
125AA
100
AcDbEntity
  8
SUNPOU
100
AcDbCircle
 10
7660.769855790352
 20
3456.684839419605
 30
0.0
 40
5.625
100
AcDbArc
 50
270.0
 51
90.0
  0
ARC
  5
19143
330
125AA
100
AcDbEntity
  8
SUNPOU
100
AcDbCircle
 10
7660.769855790352
 20
3456.684839419605
 30
0.0
 40
5.625
100
AcDbArc
 50
90.0
 51
270.0
  0
ARC
  5
19144
330
125AA
100
AcDbEntity
  8
SUNPOU
100
AcDbCircle
 10
7660.769855790352
 20
3328.684839419607
 30
0.0
 40
5.625
100
AcDbArc
 50
90.0
 51
270.0
  0
ARC
  5
19145
330
125AA
100
AcDbEntity
  8
SUNPOU
100
AcDbCircle
 10
7660.769855790352
 20
3328.684839419607
 30
0.0
 40
5.625
100
AcDbArc
 50
270.0
 51
90.0
  0
ARC
  5
19146
330
125AA
100
AcDbEntity
  8
SUNPOU
100
AcDbCircle
 10
7660.769855790352
 20
3200.684839419601
 30
0.0
 40
5.625
100
AcDbArc
 50
270.0
 51
90.0
  0
ARC
  5
19147
330
125AA
100
AcDbEntity
  8
SUNPOU
100
AcDbCircle
 10
7660.769855790352
 20
3200.684839419601
 30
0.0
 40
5.625
100
AcDbArc
 50
90.0
 51
270.0
  0
ARC
  5
19148
330
125AA
100
AcDbEntity
  8
SUNPOU
100
AcDbCircle
 10
7660.769855790352
 20
2720.684839419607
 30
0.0
 40
5.625
100
AcDbArc
 50
90.0
 51
270.0
  0
ARC
  5
19149
330
125AA
100
AcDbEntity
  8
SUNPOU
100
AcDbCircle
 10
7660.769855790352
 20
2720.684839419607
 30
0.0
 40
5.625
100
AcDbArc
 50
270.0
 51
90.0
  0
ARC
  5
1914A
330
125AA
100
AcDbEntity
  8
SUNPOU
100
AcDbCircle
 10
7660.769855790352
 20
2560.684839419602
 30
0.0
 40
5.625
100
AcDbArc
 50
90.0
 51
270.0
  0
ARC
  5
1914B
330
125AA
100
AcDbEntity
  8
SUNPOU
100
AcDbCircle
 10
7660.769855790352
 20
2560.684839419602
 30
0.0
 40
5.625
100
AcDbArc
 50
270.0
 51
90.0
  0
ARC
  5
1914C
330
125AA
100
AcDbEntity
  8
SUNPOU
100
AcDbCircle
 10
7660.769855790352
 20
2720.684839419607
 30
0.0
 40
5.625
100
AcDbArc
 50
270.0
 51
90.0
  0
ARC
  5
1914D
330
125AA
100
AcDbEntity
  8
SUNPOU
100
AcDbCircle
 10
7660.769855790352
 20
2720.684839419607
 30
0.0
 40
5.625
100
AcDbArc
 50
90.0
 51
270.0
  0
ARC
  5
1914E
330
125AA
100
AcDbEntity
  8
SUNPOU
100
AcDbCircle
 10
7450.769855790351
 20
2560.684839419602
 30
0.0
 40
5.625
100
AcDbArc
 50
90.0
 51
270.0
  0
ARC
  5
1914F
330
125AA
100
AcDbEntity
  8
SUNPOU
100
AcDbCircle
 10
7450.769855790351
 20
2560.684839419602
 30
0.0
 40
5.625
100
AcDbArc
 50
270.0
 51
90.0
  0
ARC
  5
19150
330
125AA
100
AcDbEntity
  8
SUNPOU
100
AcDbCircle
 10
7450.769855790351
 20
3456.684839419605
 30
0.0
 40
5.625
100
AcDbArc
 50
270.0
 51
90.0
  0
ARC
  5
19151
330
125AA
100
AcDbEntity
  8
SUNPOU
100
AcDbCircle
 10
7450.769855790351
 20
3456.684839419605
 30
0.0
 40
5.625
100
AcDbArc
 50
90.0
 51
270.0
  0
ARC
  5
19152
330
125AA
100
AcDbEntity
  8
SUNPOU
100
AcDbCircle
 10
8260.12325179111
 20
4130.485411556196
 30
0.0
 40
5.625
100
AcDbArc
 50
0.0
 51
180.0
  0
ARC
  5
19153
330
125AA
100
AcDbEntity
  8
SUNPOU
100
AcDbCircle
 10
8260.12325179111
 20
4130.485411556196
 30
0.0
 40
5.625
100
AcDbArc
 50
180.0
 51
0.0
  0
ARC
  5
19154
330
125AA
100
AcDbEntity
  8
SUNPOU
100
AcDbCircle
 10
8580.123251791111
 20
4130.485411556196
 30
0.0
 40
5.625
100
AcDbArc
 50
180.0
 51
0.0
  0
ARC
  5
19155
330
125AA
100
AcDbEntity
  8
SUNPOU
100
AcDbCircle
 10
8580.123251791111
 20
4130.485411556196
 30
0.0
 40
5.625
100
AcDbArc
 50
0.0
 51
180.0
  0
ARC
  5
19156
330
125AA
100
AcDbEntity
  8
SUNPOU
100
AcDbCircle
 10
5439.797051267464
 20
2148.684839419601
 30
0.0
 40
5.625
100
AcDbArc
 50
180.0
 51
0.0
  0
ARC
  5
19157
330
125AA
100
AcDbEntity
  8
SUNPOU
100
AcDbCircle
 10
5439.797051267464
 20
2148.684839419601
 30
0.0
 40
5.625
100
AcDbArc
 50
0.0
 51
180.0
  0
ARC
  5
19158
330
125AA
100
AcDbEntity
  8
SUNPOU
100
AcDbCircle
 10
4159.797051267463
 20
2148.684839419601
 30
0.0
 40
5.625
100
AcDbArc
 50
0.0
 51
180.0
  0
ARC
  5
19159
330
125AA
100
AcDbEntity
  8
SUNPOU
100
AcDbCircle
 10
4159.797051267463
 20
2148.684839419601
 30
0.0
 40
5.625
100
AcDbArc
 50
180.0
 51
0.0
  0
ARC
  5
1915A
330
125AA
100
AcDbEntity
  8
SUNPOU
100
AcDbCircle
 10
5599.797051267461
 20
1938.6848394196
 30
0.0
 40
5.625
100
AcDbArc
 50
180.0
 51
0.0
  0
ARC
  5
1915B
330
125AA
100
AcDbEntity
  8
SUNPOU
100
AcDbCircle
 10
5599.797051267461
 20
1938.6848394196
 30
0.0
 40
5.625
100
AcDbArc
 50
0.0
 51
180.0
  0
ARC
  5
1915C
330
125AA
100
AcDbEntity
  8
SUNPOU
100
AcDbCircle
 10
3999.797051267462
 20
1938.6848394196
 30
0.0
 40
5.625
100
AcDbArc
 50
0.0
 51
180.0
  0
ARC
  5
1915D
330
125AA
100
AcDbEntity
  8
SUNPOU
100
AcDbCircle
 10
3999.797051267462
 20
1938.6848394196
 30
0.0
 40
5.625
100
AcDbArc
 50
180.0
 51
0.0
  0
ARC
  5
1915E
330
125AA
100
AcDbEntity
  8
SUNPOU
100
AcDbCircle
 10
3460.443655266704
 20
3456.684839419605
 30
0.0
 40
5.625
100
AcDbArc
 50
90.0
 51
270.0
  0
ARC
  5
1915F
330
125AA
100
AcDbEntity
  8
SUNPOU
100
AcDbCircle
 10
3460.443655266704
 20
3456.684839419605
 30
0.0
 40
5.625
100
AcDbArc
 50
270.0
 51
90.0
  0
ARC
  5
19160
330
125AA
100
AcDbEntity
  8
SUNPOU
100
AcDbCircle
 10
3460.443655266704
 20
3376.684839419604
 30
0.0
 40
5.625
100
AcDbArc
 50
270.0
 51
90.0
  0
ARC
  5
19161
330
125AA
100
AcDbEntity
  8
SUNPOU
100
AcDbCircle
 10
3460.443655266704
 20
3376.684839419604
 30
0.0
 40
5.625
100
AcDbArc
 50
90.0
 51
270.0
  0
ARC
  5
19162
330
125AA
100
AcDbEntity
  8
SUNPOU
100
AcDbCircle
 10
3880.443655266705
 20
3200.684839419595
 30
0.0
 40
5.625
100
AcDbArc
 50
90.0
 51
270.0
  0
ARC
  5
19163
330
125AA
100
AcDbEntity
  8
SUNPOU
100
AcDbCircle
 10
3880.443655266705
 20
3200.684839419595
 30
0.0
 40
5.625
100
AcDbArc
 50
270.0
 51
90.0
  0
ARC
  5
19164
330
125AA
100
AcDbEntity
  8
SUNPOU
100
AcDbCircle
 10
3880.443655266705
 20
3328.6848394196
 30
0.0
 40
5.625
100
AcDbArc
 50
270.0
 51
90.0
  0
ARC
  5
19165
330
125AA
100
AcDbEntity
  8
SUNPOU
100
AcDbCircle
 10
3880.443655266705
 20
3328.6848394196
 30
0.0
 40
5.625
100
AcDbArc
 50
90.0
 51
270.0
  0
ARC
  5
19166
330
125AA
100
AcDbEntity
  8
SUNPOU
100
AcDbCircle
 10
3880.443655266704
 20
3456.684839419605
 30
0.0
 40
5.625
100
AcDbArc
 50
270.0
 51
90.0
  0
ARC
  5
19167
330
125AA
100
AcDbEntity
  8
SUNPOU
100
AcDbCircle
 10
3880.443655266704
 20
3456.684839419605
 30
0.0
 40
5.625
100
AcDbArc
 50
90.0
 51
270.0
  0
ARC
  5
19168
330
125AA
100
AcDbEntity
  8
SUNPOU
100
AcDbCircle
 10
3880.443655266704
 20
3328.684839419602
 30
0.0
 40
5.625
100
AcDbArc
 50
90.0
 51
270.0
  0
ARC
  5
19169
330
125AA
100
AcDbEntity
  8
SUNPOU
100
AcDbCircle
 10
3880.443655266704
 20
3328.684839419602
 30
0.0
 40
5.625
100
AcDbArc
 50
270.0
 51
90.0
  0
ARC
  5
1916A
330
125AA
100
AcDbEntity
  8
SUNPOU
100
AcDbCircle
 10
3880.443655266704
 20
3200.684839419595
 30
0.0
 40
5.625
100
AcDbArc
 50
270.0
 51
90.0
  0
ARC
  5
1916B
330
125AA
100
AcDbEntity
  8
SUNPOU
100
AcDbCircle
 10
3880.443655266704
 20
3200.684839419595
 30
0.0
 40
5.625
100
AcDbArc
 50
90.0
 51
270.0
  0
ARC
  5
1916C
330
125AA
100
AcDbEntity
  8
SUNPOU
100
AcDbCircle
 10
3880.443655266704
 20
2720.684839419603
 30
0.0
 40
5.625
100
AcDbArc
 50
90.0
 51
270.0
  0
ARC
  5
1916D
330
125AA
100
AcDbEntity
  8
SUNPOU
100
AcDbCircle
 10
3880.443655266704
 20
2720.684839419603
 30
0.0
 40
5.625
100
AcDbArc
 50
270.0
 51
90.0
  0
ARC
  5
1916E
330
125AA
100
AcDbEntity
  8
SUNPOU
100
AcDbCircle
 10
3880.443655266704
 20
2560.684839419602
 30
0.0
 40
5.625
100
AcDbArc
 50
90.0
 51
270.0
  0
ARC
  5
1916F
330
125AA
100
AcDbEntity
  8
SUNPOU
100
AcDbCircle
 10
3880.443655266704
 20
2560.684839419602
 30
0.0
 40
5.625
100
AcDbArc
 50
270.0
 51
90.0
  0
ARC
  5
19170
330
125AA
100
AcDbEntity
  8
SUNPOU
100
AcDbCircle
 10
3880.443655266704
 20
2720.684839419603
 30
0.0
 40
5.625
100
AcDbArc
 50
270.0
 51
90.0
  0
ARC
  5
19171
330
125AA
100
AcDbEntity
  8
SUNPOU
100
AcDbCircle
 10
3880.443655266704
 20
2720.684839419603
 30
0.0
 40
5.625
100
AcDbArc
 50
90.0
 51
270.0
  0
ARC
  5
19172
330
125AA
100
AcDbEntity
  8
SUNPOU
100
AcDbCircle
 10
3670.443655266705
 20
2560.684839419602
 30
0.0
 40
5.625
100
AcDbArc
 50
90.0
 51
270.0
  0
ARC
  5
19173
330
125AA
100
AcDbEntity
  8
SUNPOU
100
AcDbCircle
 10
3670.443655266705
 20
2560.684839419602
 30
0.0
 40
5.625
100
AcDbArc
 50
270.0
 51
90.0
  0
ARC
  5
19174
330
125AA
100
AcDbEntity
  8
SUNPOU
100
AcDbCircle
 10
3670.443655266705
 20
3456.684839419605
 30
0.0
 40
5.625
100
AcDbArc
 50
270.0
 51
90.0
  0
ARC
  5
19175
330
125AA
100
AcDbEntity
  8
SUNPOU
100
AcDbCircle
 10
3670.443655266705
 20
3456.684839419605
 30
0.0
 40
5.625
100
AcDbArc
 50
90.0
 51
270.0
  0
ARC
  5
19176
330
125AA
100
AcDbEntity
  8
SUNPOU
100
AcDbCircle
 10
4159.797051267463
 20
4130.485411556192
 30
0.0
 40
5.625
100
AcDbArc
 50
0.0
 51
180.0
  0
ARC
  5
19177
330
125AA
100
AcDbEntity
  8
SUNPOU
100
AcDbCircle
 10
4159.797051267463
 20
4130.485411556192
 30
0.0
 40
5.625
100
AcDbArc
 50
180.0
 51
0.0
  0
ARC
  5
19178
330
125AA
100
AcDbEntity
  8
SUNPOU
100
AcDbCircle
 10
4799.797051267463
 20
4130.485411556192
 30
0.0
 40
5.625
100
AcDbArc
 50
180.0
 51
0.0
  0
ARC
  5
19179
330
125AA
100
AcDbEntity
  8
SUNPOU
100
AcDbCircle
 10
4799.797051267463
 20
4130.485411556192
 30
0.0
 40
5.625
100
AcDbArc
 50
0.0
 51
180.0
  0
ARC
  5
1917A
330
125AA
100
AcDbEntity
  8
SUNPOU
100
AcDbCircle
 10
12226.36032602547
 20
9289.512702941776
 30
0.0
 40
5.625
100
AcDbArc
 50
90.0
 51
270.0
  0
ARC
  5
1917B
330
125AA
100
AcDbEntity
  8
SUNPOU
100
AcDbCircle
 10
12226.36032602547
 20
9289.512702941776
 30
0.0
 40
5.625
100
AcDbArc
 50
270.0
 51
90.0
  0
ARC
  5
1917C
330
125AA
100
AcDbEntity
  8
SUNPOU
100
AcDbCircle
 10
12226.36032602547
 20
9489.512702941778
 30
0.0
 40
5.625
100
AcDbArc
 50
270.0
 51
90.0
  0
ARC
  5
1917D
330
125AA
100
AcDbEntity
  8
SUNPOU
100
AcDbCircle
 10
12226.36032602547
 20
9489.512702941778
 30
0.0
 40
5.625
100
AcDbArc
 50
90.0
 51
270.0
  0
ARC
  5
1917E
330
125AA
100
AcDbEntity
  8
SUNPOU
100
AcDbCircle
 10
12226.36032602547
 20
9689.512702941778
 30
0.0
 40
5.625
100
AcDbArc
 50
270.0
 51
90.0
  0
ARC
  5
1917F
330
125AA
100
AcDbEntity
  8
SUNPOU
100
AcDbCircle
 10
12226.36032602547
 20
9689.512702941778
 30
0.0
 40
5.625
100
AcDbArc
 50
90.0
 51
270.0
  0
ARC
  5
19180
330
125AA
100
AcDbEntity
  8
SUNPOU
100
AcDbCircle
 10
12226.36032602547
 20
9489.512702941778
 30
0.0
 40
5.625
100
AcDbArc
 50
90.0
 51
270.0
  0
ARC
  5
19181
330
125AA
100
AcDbEntity
  8
SUNPOU
100
AcDbCircle
 10
12226.36032602547
 20
9489.512702941778
 30
0.0
 40
5.625
100
AcDbArc
 50
270.0
 51
90.0
  0
ARC
  5
19182
330
125AA
100
AcDbEntity
  8
SUNPOU
100
AcDbCircle
 10
11826.36032602548
 20
9989.512702941778
 30
0.0
 40
5.625
100
AcDbArc
 50
180.0
 51
0.0
  0
ARC
  5
19183
330
125AA
100
AcDbEntity
  8
SUNPOU
100
AcDbCircle
 10
11826.36032602548
 20
9989.512702941778
 30
0.0
 40
5.625
100
AcDbArc
 50
0.0
 51
180.0
  0
ARC
  5
19184
330
125AA
100
AcDbEntity
  8
SUNPOU
100
AcDbCircle
 10
11426.36032602547
 20
9989.512702941778
 30
0.0
 40
5.625
100
AcDbArc
 50
0.0
 51
180.0
  0
ARC
  5
19185
330
125AA
100
AcDbEntity
  8
SUNPOU
100
AcDbCircle
 10
11426.36032602547
 20
9989.512702941778
 30
0.0
 40
5.625
100
AcDbArc
 50
180.0
 51
0.0
  0
ARC
  5
19186
330
125AA
100
AcDbEntity
  8
SUNPOU
100
AcDbCircle
 10
8626.360326025478
 20
9989.512702941778
 30
0.0
 40
5.625
100
AcDbArc
 50
0.0
 51
180.0
  0
ARC
  5
19187
330
125AA
100
AcDbEntity
  8
SUNPOU
100
AcDbCircle
 10
8626.360326025478
 20
9989.512702941778
 30
0.0
 40
5.625
100
AcDbArc
 50
180.0
 51
0.0
  0
ARC
  5
19188
330
125AA
100
AcDbEntity
  8
SUNPOU
100
AcDbCircle
 10
11426.36032602547
 20
9989.512702941778
 30
0.0
 40
5.625
100
AcDbArc
 50
180.0
 51
0.0
  0
ARC
  5
19189
330
125AA
100
AcDbEntity
  8
SUNPOU
100
AcDbCircle
 10
11426.36032602547
 20
9989.512702941778
 30
0.0
 40
5.625
100
AcDbArc
 50
0.0
 51
180.0
  0
ARC
  5
1918A
330
125AA
100
AcDbEntity
  8
SUNPOU
100
AcDbCircle
 10
9326.360326025485
 20
7089.512702941778
 30
0.0
 40
5.625
100
AcDbArc
 50
90.0
 51
270.0
  0
ARC
  5
1918B
330
125AA
100
AcDbEntity
  8
SUNPOU
100
AcDbCircle
 10
9326.360326025485
 20
7089.512702941778
 30
0.0
 40
5.625
100
AcDbArc
 50
270.0
 51
90.0
  0
ARC
  5
1918C
330
125AA
100
AcDbEntity
  8
SUNPOU
100
AcDbCircle
 10
9326.360326025485
 20
7889.512702941778
 30
0.0
 40
5.625
100
AcDbArc
 50
270.0
 51
90.0
  0
ARC
  5
1918D
330
125AA
100
AcDbEntity
  8
SUNPOU
100
AcDbCircle
 10
9326.360326025485
 20
7889.512702941778
 30
0.0
 40
5.625
100
AcDbArc
 50
90.0
 51
270.0
  0
ARC
  5
1918E
330
125AA
100
AcDbEntity
  8
SUNPOU
100
AcDbCircle
 10
4426.36032602548
 20
9989.512702941778
 30
0.0
 40
5.625
100
AcDbArc
 50
0.0
 51
180.0
  0
ARC
  5
1918F
330
125AA
100
AcDbEntity
  8
SUNPOU
100
AcDbCircle
 10
4426.36032602548
 20
9989.512702941778
 30
0.0
 40
5.625
100
AcDbArc
 50
180.0
 51
0.0
  0
ARC
  5
19190
330
125AA
100
AcDbEntity
  8
SUNPOU
100
AcDbCircle
 10
7226.360326025478
 20
9989.512702941778
 30
0.0
 40
5.625
100
AcDbArc
 50
180.0
 51
0.0
  0
ARC
  5
19191
330
125AA
100
AcDbEntity
  8
SUNPOU
100
AcDbCircle
 10
7226.360326025478
 20
9989.512702941778
 30
0.0
 40
5.625
100
AcDbArc
 50
0.0
 51
180.0
  0
ARC
  5
19192
330
125AA
100
AcDbEntity
  8
SUNPOU
100
AcDbCircle
 10
7626.360326025478
 20
8589.512702941778
 30
0.0
 40
5.625
100
AcDbArc
 50
180.0
 51
0.0
  0
ARC
  5
19193
330
125AA
100
AcDbEntity
  8
SUNPOU
100
AcDbCircle
 10
7626.360326025478
 20
8589.512702941778
 30
0.0
 40
5.625
100
AcDbArc
 50
0.0
 51
180.0
  0
ARC
  5
19194
330
125AA
100
AcDbEntity
  8
SUNPOU
100
AcDbCircle
 10
6826.360326025478
 20
8589.512702941778
 30
0.0
 40
5.625
100
AcDbArc
 50
0.0
 51
180.0
  0
ARC
  5
19195
330
125AA
100
AcDbEntity
  8
SUNPOU
100
AcDbCircle
 10
6826.360326025478
 20
8589.512702941778
 30
0.0
 40
5.625
100
AcDbArc
 50
180.0
 51
0.0
  0
ARC
  5
19196
330
125AA
100
AcDbEntity
  8
SUNPOU
100
AcDbCircle
 10
6526.360326025478
 20
8889.512702941777
 30
0.0
 40
5.625
100
AcDbArc
 50
90.0
 51
270.0
  0
ARC
  5
19197
330
125AA
100
AcDbEntity
  8
SUNPOU
100
AcDbCircle
 10
6526.360326025478
 20
8889.512702941777
 30
0.0
 40
5.625
100
AcDbArc
 50
270.0
 51
90.0
  0
ARC
  5
19198
330
125AA
100
AcDbEntity
  8
SUNPOU
100
AcDbCircle
 10
6526.360326025478
 20
9689.512702941778
 30
0.0
 40
5.625
100
AcDbArc
 50
270.0
 51
90.0
  0
ARC
  5
19199
330
125AA
100
AcDbEntity
  8
SUNPOU
100
AcDbCircle
 10
6526.360326025478
 20
9689.512702941778
 30
0.0
 40
5.625
100
AcDbArc
 50
90.0
 51
270.0
  0
ARC
  5
1919A
330
125AA
100
AcDbEntity
  8
SUNPOU
100
AcDbCircle
 10
4026.360326025478
 20
9989.512702941778
 30
0.0
 40
5.625
100
AcDbArc
 50
0.0
 51
180.0
  0
ARC
  5
1919B
330
125AA
100
AcDbEntity
  8
SUNPOU
100
AcDbCircle
 10
4026.360326025478
 20
9989.512702941778
 30
0.0
 40
5.625
100
AcDbArc
 50
180.0
 51
0.0
  0
ARC
  5
1919C
330
125AA
100
AcDbEntity
  8
SUNPOU
100
AcDbCircle
 10
4426.36032602548
 20
9989.512702941778
 30
0.0
 40
5.625
100
AcDbArc
 50
180.0
 51
0.0
  0
ARC
  5
1919D
330
125AA
100
AcDbEntity
  8
SUNPOU
100
AcDbCircle
 10
4426.36032602548
 20
9989.512702941778
 30
0.0
 40
5.625
100
AcDbArc
 50
0.0
 51
180.0
  0
ARC
  5
1919E
330
125AA
100
AcDbEntity
  8
SUNPOU
100
AcDbCircle
 10
9026.360326025478
 20
8189.512702941778
 30
0.0
 40
5.625
100
AcDbArc
 50
180.0
 51
0.0
  0
ARC
  5
1919F
330
125AA
100
AcDbEntity
  8
SUNPOU
100
AcDbCircle
 10
9026.360326025478
 20
8189.512702941778
 30
0.0
 40
5.625
100
AcDbArc
 50
0.0
 51
180.0
  0
ARC
  5
191A0
330
125AA
100
AcDbEntity
  8
SUNPOU
100
AcDbCircle
 10
8226.360326025478
 20
8189.512702941778
 30
0.0
 40
5.625
100
AcDbArc
 50
0.0
 51
180.0
  0
ARC
  5
191A1
330
125AA
100
AcDbEntity
  8
SUNPOU
100
AcDbCircle
 10
8226.360326025478
 20
8189.512702941778
 30
0.0
 40
5.625
100
AcDbArc
 50
180.0
 51
0.0
  0
ARC
  5
191A2
330
125AA
100
AcDbEntity
  8
SUNPOU
100
AcDbCircle
 10
11826.36032602548
 20
10199.51270294177
 30
0.0
 40
5.625
100
AcDbArc
 50
180.0
 51
0.0
  0
ARC
  5
191A3
330
125AA
100
AcDbEntity
  8
SUNPOU
100
AcDbCircle
 10
11826.36032602548
 20
10199.51270294177
 30
0.0
 40
5.625
100
AcDbArc
 50
0.0
 51
180.0
  0
ARC
  5
191A4
330
125AA
100
AcDbEntity
  8
SUNPOU
100
AcDbCircle
 10
4026.360326025478
 20
10199.51270294177
 30
0.0
 40
5.625
100
AcDbArc
 50
0.0
 51
180.0
  0
ARC
  5
191A5
330
125AA
100
AcDbEntity
  8
SUNPOU
100
AcDbCircle
 10
4026.360326025478
 20
10199.51270294177
 30
0.0
 40
5.625
100
AcDbArc
 50
180.0
 51
0.0
  0
ARC
  5
191AD
330
125AA
100
AcDbEntity
  8
HIKIDASHI
100
AcDbCircle
 10
7368.753186178046
 20
1889.069567942468
 30
0.0
 40
74.66417910452284
100
AcDbArc
 50
164.8596129850915
 51
237.504500294165
  0
ARC
  5
191AE
330
125AA
100
AcDbEntity
  8
HIKIDASHI
100
AcDbCircle
 10
7305.32939213174
 20
1906.230591426951
 30
0.0
 40
8.959701492542743
100
AcDbArc
 50
15.14038701503428
 51
164.8596129849655
  0
LINE
  5
191B5
330
125AA
100
AcDbEntity
  8
HIKIDASHI
100
AcDbLine
 10
11865.19119696312
 20
2619.990092191335
 30
0.0
 11
12256.64239875644
 21
2245.804976716085
 31
0.0
1001
ACAD
1000
DSTYLE
1002
{
1070
   147
1040
1.0
1070
    77
1070
     0
1002
}
  0
LINE
  5
191B6
330
125AA
100
AcDbEntity
  8
HIKIDASHI
100
AcDbLine
 10
11874.40432936103
 20
2629.628347697202
 30
0.0
 11
11807.36166392793
 21
2675.268886578793
 31
0.0
  0
LINE
  5
191B7
330
125AA
100
AcDbEntity
  8
HIKIDASHI
100
AcDbLine
 10
11807.36166392793
 20
2675.268886578793
 30
0.0
 11
11855.97806456522
 21
2610.351836685468
 31
0.0
  0
SOLID
  5
191B8
330
125AA
100
AcDbEntity
  8
HIKIDASHI
100
AcDbTrace
 10
11874.40432936103
 20
2629.628347697202
 30
0.0
 11
11855.97806456522
 21
2610.351836685468
 31
0.0
 12
11807.36166392793
 22
2675.268886578793
 32
0.0
 13
11807.36166392793
 23
2675.268886578793
 33
0.0
  0
LINE
  5
191B9
330
125AA
100
AcDbEntity
  8
HIKIDASHI
100
AcDbLine
 10
11855.97806456522
 20
2610.351836685468
 30
0.0
 11
11874.40432936103
 21
2629.628347697202
 31
0.0
  0
LINE
  5
191BA
330
125AA
100
AcDbEntity
  8
HIKIDASHI
100
AcDbLine
 10
11918.49428872014
 20
2916.119351150967
 30
0.0
 11
12073.23363223807
 21
3067.661600164834
 31
0.0
1001
ACAD
1000
DSTYLE
1002
{
1070
   147
1040
1.0
1070
    77
1070
     0
1002
}
  0
LINE
  5
191BB
330
125AA
100
AcDbEntity
  8
HIKIDASHI
100
AcDbLine
 10
11909.16512087052
 20
2925.64533692731
 30
0.0
 11
11861.33837406209
 21
2860.14434405315
 31
0.0
  0
LINE
  5
191BC
330
125AA
100
AcDbEntity
  8
HIKIDASHI
100
AcDbLine
 10
11861.33837406209
 20
2860.14434405315
 30
0.0
 11
11927.82345656979
 21
2906.593365374622
 31
0.0
  0
SOLID
  5
191BD
330
125AA
100
AcDbEntity
  8
HIKIDASHI
100
AcDbTrace
 10
11909.16512087052
 20
2925.64533692731
 30
0.0
 11
11927.82345656979
 21
2906.593365374622
 31
0.0
 12
11861.33837406209
 22
2860.14434405315
 32
0.0
 13
11861.33837406209
 23
2860.14434405315
 33
0.0
  0
LINE
  5
191BE
330
125AA
100
AcDbEntity
  8
HIKIDASHI
100
AcDbLine
 10
11927.82345656979
 20
2906.593365374622
 30
0.0
 11
11909.16512087052
 21
2925.64533692731
 31
0.0
  0
LINE
  5
191BF
330
125AA
100
AcDbEntity
  8
HIKIDASHI
100
AcDbLine
 10
8365.749436704019
 20
2799.603596821356
 30
0.0
 11
7568.025406890003
 21
1938.684839419605
 31
0.0
1001
ACAD
1000
DSTYLE
1002
{
1070
   147
1040
1.0
1070
    77
1070
     0
1002
}
  0
LINE
  5
191C0
330
125AA
100
AcDbEntity
  8
HIKIDASHI
100
AcDbLine
 10
8375.529643803728
 20
2790.541294306841
 30
0.0
 11
8420.12325179111
 21
2858.284839419607
 31
0.0
  0
LINE
  5
191C1
330
125AA
100
AcDbEntity
  8
HIKIDASHI
100
AcDbLine
 10
8420.12325179111
 20
2858.284839419607
 30
0.0
 11
8355.969229604308
 21
2808.665899335871
 31
0.0
  0
SOLID
  5
191C2
330
125AA
100
AcDbEntity
  8
HIKIDASHI
100
AcDbTrace
 10
8375.529643803728
 20
2790.541294306841
 30
0.0
 11
8355.969229604308
 21
2808.665899335871
 31
0.0
 12
8420.12325179111
 22
2858.284839419607
 32
0.0
 13
8420.12325179111
 23
2858.284839419607
 33
0.0
  0
LINE
  5
191C3
330
125AA
100
AcDbEntity
  8
HIKIDASHI
100
AcDbLine
 10
8355.969229604308
 20
2808.665899335871
 30
0.0
 11
8375.529643803728
 21
2790.541294306841
 31
0.0
  0
ARC
  5
191C4
330
125AA
100
AcDbEntity
  8
HIKIDASHI
100
AcDbCircle
 10
7243.085124621173
 20
1890.249695302058
 30
0.0
 40
74.66417910452232
100
AcDbArc
 50
301.7712278330705
 51
15.14038701490951
  0
LINE
  5
191C5
330
125AA
100
AcDbEntity
  8
HIKIDASHI
100
AcDbLine
 10
5106.084662666019
 20
3525.966871722361
 30
0.0
 11
5333.860047839355
 21
3920.485411556192
 31
0.0
1001
ACAD
1000
DSTYLE
1002
{
1070
   147
1040
1.0
1070
    77
1070
     0
1002
}
  0
LINE
  5
191C6
330
125AA
100
AcDbEntity
  8
HIKIDASHI
100
AcDbLine
 10
5094.537657282226
 20
3532.633538389028
 30
0.0
 11
5066.084662666021
 21
3456.684839419605
 31
0.0
  0
LINE
  5
191C7
330
125AA
100
AcDbEntity
  8
HIKIDASHI
100
AcDbLine
 10
5066.084662666021
 20
3456.684839419605
 30
0.0
 11
5117.631668049813
 21
3519.300205055695
 31
0.0
  0
SOLID
  5
191C8
330
125AA
100
AcDbEntity
  8
HIKIDASHI
100
AcDbTrace
 10
5094.537657282226
 20
3532.633538389028
 30
0.0
 11
5117.631668049813
 21
3519.300205055695
 31
0.0
 12
5066.084662666021
 22
3456.684839419605
 32
0.0
 13
5066.084662666021
 23
3456.684839419605
 33
0.0
  0
LINE
  5
191C9
330
125AA
100
AcDbEntity
  8
HIKIDASHI
100
AcDbLine
 10
5117.631668049813
 20
3519.300205055695
 30
0.0
 11
5094.537657282226
 21
3532.633538389028
 31
0.0
  0
LINE
  5
191CA
330
125AA
100
AcDbEntity
  8
HIKIDASHI
100
AcDbLine
 10
5641.338723551276
 20
2556.316063915985
 30
0.0
 11
5816.33809680266
 21
2268.304238552882
 31
0.0
1001
ACAD
1000
DSTYLE
1002
{
1070
   147
1040
1.0
1070
    77
1070
     0
1002
}
  0
LINE
  5
191CB
330
125AA
100
AcDbEntity
  8
HIKIDASHI
100
AcDbLine
 10
5652.733519468547
 20
2563.239675963288
 30
0.0
 11
5599.797051267461
 21
2624.684839419602
 31
0.0
  0
LINE
  5
191CC
330
125AA
100
AcDbEntity
  8
HIKIDASHI
100
AcDbLine
 10
5599.797051267461
 20
2624.684839419602
 30
0.0
 11
5629.943927634007
 21
2549.392451868682
 31
0.0
  0
SOLID
  5
191CD
330
125AA
100
AcDbEntity
  8
HIKIDASHI
100
AcDbTrace
 10
5652.733519468547
 20
2563.239675963288
 30
0.0
 11
5629.943927634007
 21
2549.392451868682
 31
0.0
 12
5599.797051267461
 22
2624.684839419602
 32
0.0
 13
5599.797051267461
 23
2624.684839419602
 33
0.0
  0
LINE
  5
191CE
330
125AA
100
AcDbEntity
  8
HIKIDASHI
100
AcDbLine
 10
5629.943927634007
 20
2549.392451868682
 30
0.0
 11
5652.733519468547
 21
2563.239675963288
 31
0.0
  0
LINE
  5
191CF
330
125AA
100
AcDbEntity
  8
HIKIDASHI
100
AcDbLine
 10
5517.958310807199
 20
3204.439659000036
 30
0.0
 11
5674.871662611158
 21
2904.11470702088
 31
0.0
1001
ACAD
1000
DSTYLE
1002
{
1070
    41
1040
2.0
1070
   173
1070
     0
1070
   341
1005
125B0
1002
}
  0
ARC
  5
191D0
330
125AA
100
AcDbEntity
  8
HIKIDASHI
100
AcDbCircle
 10
5472.271108781361
 20
3259.491130329858
 30
0.0
 40
18.0
100
AcDbArc
 50
241.1434129563095
 51
354.0287934324676
  0
ARC
  5
191D1
330
125AA
100
AcDbEntity
  8
HIKIDASHI
100
AcDbCircle
 10
5508.075783564776
 20
3255.746098466976
 30
0.0
 40
18.0
100
AcDbArc
 50
61.1434129563095
 51
174.0287934324675
  0
LINE
  5
191D2
330
125AA
100
AcDbEntity
  8
HIKIDASHI
100
AcDbLine
 10
5490.173446173068
 20
3257.618614398416
 30
0.0
 11
5517.958310807205
 21
3204.439659000024
 31
0.0
  0
LWPOLYLINE
  5
191D3
330
125AA
100
AcDbEntity
  8
HATCH
100
AcDbPolyline
 90
        2
 70
     0
 43
0.0
 10
9636.165052686926
 20
3200.684839419481
 10
9616.965052686929
 20
3233.940214924799
  0
LINE
  5
191D4
330
125AA
100
AcDbEntity
  8
HATCH
100
AcDbLine
 10
9597.765052686932
 20
3200.684839419481
 30
0.0
 11
9671.665887143204
 21
3328.684839419474
 31
0.0
  0
LINE
  5
191D5
330
125AA
100
AcDbEntity
  8
HATCH
100
AcDbLine
 10
9633.265887143204
 20
3328.684839419473
 30
0.0
 11
9652.465887143202
 21
3295.429463914155
 31
0.0
  0
LWPOLYLINE
  5
191D6
330
125AA
100
AcDbEntity
  8
HATCH
100
AcDbPolyline
 90
        2
 70
     0
 43
0.0
 10
9348.165052686928
 20
3200.684839419481
 10
9328.965052686926
 20
3233.940214924799
  0
LINE
  5
191D7
330
125AA
100
AcDbEntity
  8
HATCH
100
AcDbLine
 10
9309.765052686932
 20
3200.684839419481
 30
0.0
 11
9383.6658871432
 21
3328.684839419474
 31
0.0
  0
LINE
  5
191D8
330
125AA
100
AcDbEntity
  8
HATCH
100
AcDbLine
 10
9345.265887143204
 20
3328.684839419473
 30
0.0
 11
9364.465887143202
 21
3295.429463914155
 31
0.0
  0
LWPOLYLINE
  5
191D9
330
125AA
100
AcDbEntity
  8
HATCH
100
AcDbPolyline
 90
        2
 70
     0
 43
0.0
 10
9492.165052686926
 20
3200.684839419481
 10
9472.965052686928
 20
3233.940214924799
  0
LINE
  5
191DA
330
125AA
100
AcDbEntity
  8
HATCH
100
AcDbLine
 10
9453.765052686932
 20
3200.684839419481
 30
0.0
 11
9527.665887143198
 21
3328.684839419474
 31
0.0
  0
LINE
  5
191DB
330
125AA
100
AcDbEntity
  8
HATCH
100
AcDbLine
 10
9489.265887143202
 20
3328.684839419473
 30
0.0
 11
9508.465887143202
 21
3295.429463914155
 31
0.0
  0
LWPOLYLINE
  5
191DC
330
125AA
100
AcDbEntity
  8
HATCH
100
AcDbPolyline
 90
        2
 70
     0
 43
0.0
 10
9780.165052686927
 20
3200.684839419481
 10
9760.965052686929
 20
3233.940214924799
  0
LINE
  5
191DD
330
125AA
100
AcDbEntity
  8
HATCH
100
AcDbLine
 10
9741.765052686934
 20
3200.684839419481
 30
0.0
 11
9815.665887143204
 21
3328.684839419474
 31
0.0
  0
LINE
  5
191DE
330
125AA
100
AcDbEntity
  8
HATCH
100
AcDbLine
 10
9777.265887143206
 20
3328.684839419473
 30
0.0
 11
9796.465887143202
 21
3295.429463914155
 31
0.0
  0
LWPOLYLINE
  5
191DF
330
125AA
100
AcDbEntity
  8
HATCH
100
AcDbPolyline
 90
        2
 70
     0
 43
0.0
 10
9636.165052688857
 20
3200.684839420098
 10
9616.965052688854
 20
3233.940214925427
  0
LINE
  5
191E0
330
125AA
100
AcDbEntity
  8
HATCH
100
AcDbLine
 10
9597.765052688853
 20
3200.684839420098
 30
0.0
 11
9671.66588714514
 21
3328.684839420128
 31
0.0
  0
LINE
  5
191E1
330
125AA
100
AcDbEntity
  8
HATCH
100
AcDbLine
 10
9633.265887145132
 20
3328.684839420127
 30
0.0
 11
9652.465887145137
 21
3295.429463914799
 31
0.0
  0
LWPOLYLINE
  5
191E2
330
125AA
100
AcDbEntity
  8
HATCH
100
AcDbPolyline
 90
        2
 70
     0
 43
0.0
 10
9780.165052688857
 20
3200.684839420098
 10
9760.965052688852
 20
3233.940214925427
  0
LINE
  5
191E3
330
125AA
100
AcDbEntity
  8
HATCH
100
AcDbLine
 10
9741.765052688853
 20
3200.684839420098
 30
0.0
 11
9815.66588714514
 21
3328.684839420128
 31
0.0
  0
LINE
  5
191E4
330
125AA
100
AcDbEntity
  8
HATCH
100
AcDbLine
 10
9777.265887145132
 20
3328.684839420127
 30
0.0
 11
9796.465887145137
 21
3295.429463914799
 31
0.0
  0
LWPOLYLINE
  5
191E5
330
125AA
100
AcDbEntity
  8
HATCH
100
AcDbPolyline
 90
        2
 70
     0
 43
0.0
 10
9492.165052688857
 20
3200.684839420098
 10
9472.96505268885
 20
3233.940214925427
  0
LINE
  5
191E6
330
125AA
100
AcDbEntity
  8
HATCH
100
AcDbLine
 10
9453.765052688849
 20
3200.684839420098
 30
0.0
 11
9527.66588714514
 21
3328.684839420128
 31
0.0
  0
LINE
  5
191E7
330
125AA
100
AcDbEntity
  8
HATCH
100
AcDbLine
 10
9489.265887145132
 20
3328.684839420127
 30
0.0
 11
9508.465887145135
 21
3295.429463914799
 31
0.0
  0
LWPOLYLINE
  5
191E8
330
125AA
100
AcDbEntity
  8
HATCH
100
AcDbPolyline
 90
        2
 70
     0
 43
0.0
 10
9348.165052688857
 20
3200.684839420098
 10
9328.96505268885
 20
3233.940214925427
  0
LINE
  5
191E9
330
125AA
100
AcDbEntity
  8
HATCH
100
AcDbLine
 10
9309.765052688851
 20
3200.684839420098
 30
0.0
 11
9383.66588714514
 21
3328.684839420128
 31
0.0
  0
LINE
  5
191EA
330
125AA
100
AcDbEntity
  8
HATCH
100
AcDbLine
 10
9345.265887145131
 20
3328.684839420127
 30
0.0
 11
9364.465887145135
 21
3295.429463914799
 31
0.0
  0
LWPOLYLINE
  5
191EB
330
125AA
100
AcDbEntity
  8
HATCH
100
AcDbPolyline
 90
        2
 70
     0
 43
0.0
 10
5855.83885216328
 20
3200.684839419478
 10
5836.638852163281
 20
3233.940214924795
  0
LINE
  5
191EC
330
125AA
100
AcDbEntity
  8
HATCH
100
AcDbLine
 10
5817.438852163286
 20
3200.684839419476
 30
0.0
 11
5891.339686619555
 21
3328.68483941947
 31
0.0
  0
LINE
  5
191ED
330
125AA
100
AcDbEntity
  8
HATCH
100
AcDbLine
 10
5852.939686619555
 20
3328.684839419469
 30
0.0
 11
5872.139686619554
 21
3295.429463914152
 31
0.0
  0
LWPOLYLINE
  5
191EE
330
125AA
100
AcDbEntity
  8
HATCH
100
AcDbPolyline
 90
        2
 70
     0
 43
0.0
 10
5567.83885216328
 20
3200.684839419478
 10
5548.638852163282
 20
3233.940214924795
  0
LINE
  5
191EF
330
125AA
100
AcDbEntity
  8
HATCH
100
AcDbLine
 10
5529.438852163288
 20
3200.684839419476
 30
0.0
 11
5603.339686619555
 21
3328.68483941947
 31
0.0
  0
LINE
  5
191F0
330
125AA
100
AcDbEntity
  8
HATCH
100
AcDbLine
 10
5564.939686619556
 20
3328.684839419469
 30
0.0
 11
5584.139686619556
 21
3295.429463914152
 31
0.0
  0
LWPOLYLINE
  5
191F1
330
125AA
100
AcDbEntity
  8
HATCH
100
AcDbPolyline
 90
        2
 70
     0
 43
0.0
 10
5711.838852163278
 20
3200.684839419478
 10
5692.63885216328
 20
3233.940214924795
  0
LINE
  5
191F2
330
125AA
100
AcDbEntity
  8
HATCH
100
AcDbLine
 10
5673.438852163286
 20
3200.684839419476
 30
0.0
 11
5747.339686619554
 21
3328.68483941947
 31
0.0
  0
LINE
  5
191F3
330
125AA
100
AcDbEntity
  8
HATCH
100
AcDbLine
 10
5708.939686619555
 20
3328.684839419469
 30
0.0
 11
5728.139686619556
 21
3295.429463914152
 31
0.0
  0
LWPOLYLINE
  5
191F4
330
125AA
100
AcDbEntity
  8
HATCH
100
AcDbPolyline
 90
        2
 70
     0
 43
0.0
 10
5999.838852163279
 20
3200.684839419478
 10
5980.638852163282
 20
3233.940214924795
  0
LINE
  5
191F5
330
125AA
100
AcDbEntity
  8
HATCH
100
AcDbLine
 10
5961.438852163286
 20
3200.684839419476
 30
0.0
 11
6035.339686619554
 21
3328.68483941947
 31
0.0
  0
LINE
  5
191F6
330
125AA
100
AcDbEntity
  8
HATCH
100
AcDbLine
 10
5996.939686619557
 20
3328.684839419469
 30
0.0
 11
6016.139686619556
 21
3295.429463914152
 31
0.0
  0
TEXT
  5
1922A
330
125AA
100
AcDbEntity
  8
SUNPOU
100
AcDbText
 10
1076.154682893234
 20
5188.181872120267
 30
0.0
 40
89.9993750043402
  1
地耐力   　　　 以上,コンクリート設計基準強度　　　　　以上
  7
01
100
AcDbText
  0
TEXT
  5
1922B
330
125AA
100
AcDbEntity
  8
SUNPOU
100
AcDbText
 10
1451.110427982627
 20
4500.324729263122
 30
0.0
 40
90.0
  1
その他現地の実情にあわせて設計して下さい。
  7
01
100
AcDbText
  0
TEXT
  5
1922C
330
125AA
100
AcDbEntity
  8
SUNPOU
100
AcDbText
 10
1451.110427982627
 20
4808.896157834553
 30
0.0
 40
90.0
  1
寒冷地の場合、凍結深度等を考慮し、実情に
  7
01
100
AcDbText
  0
TEXT
  5
1922D
330
125AA
100
AcDbEntity
  8
SUNPOU
100
AcDbText
 10
1450.413090318314
 20
5188.181872120267
 30
0.0
 40
89.9993750043402
  1
50  N/m
 41
0.6700000000000001
  7
01
100
AcDbText
  0
TEXT
  5
1922E
330
125AA
100
AcDbEntity
  8
SUNPOU
100
AcDbText
 10
1076.154682893234
 20
5033.896157834554
 30
0.0
 40
89.9993750043402
  1
基準風速   　　 , 地表面粗度区分
  7
01
100
AcDbText
  0
TEXT
  5
1922F
330
125AA
100
AcDbEntity
  8
SUNPOU
100
AcDbText
 10
1451.110427982627
 20
4654.610443548836
 30
0.0
 40
90.0
  1
あわせて設計して下さい。
  7
01
100
AcDbText
  0
TEXT
  5
19230
330
125AA
100
AcDbEntity
  8
SUNPOU
100
AcDbText
 10
945.591054177002
 20
5377.435874566224
 30
0.0
 40
90.0
  1
<下記条件での参考図>
  7
01
 72
     4
 11
1534.448197034144
 21
5422.435874566223
 31
0.0
100
AcDbText
  0
TEXT
  5
19231
330
125AA
100
AcDbEntity
  8
SUNPOU
100
AcDbText
 10
1559.918111558402
 20
5033.896157834554
 30
0.0
 40
89.9993750043402
  1
34 m/s
 41
0.6700000000000001
  7
01
100
AcDbText
  0
TEXT
  5
19232
330
125AA
100
AcDbEntity
  8
SUNPOU
100
AcDbText
 10
1787.798534397115
 20
5547.243566873915
 30
0.0
 40
92.30769230769228
  1
（ S = 　　  ）
 41
0.6700000000000001
  7
00
 11
1787.798534397115
 21
5534.935874566222
 31
0.0
100
AcDbText
 73
     1
  0
TEXT
  5
19233
330
125AA
100
AcDbEntity
  8
SUNPOU
100
AcDbText
 10
1244.904682893232
 20
4808.896157834553
 30
0.0
 40
90.0
  1
1
 41
0.6700000000000001
  7
01
100
AcDbText
  0
TEXT
  5
19234
330
125AA
100
AcDbEntity
  8
SUNPOU
100
AcDbText
 10
1134.270762680491
 20
4808.896157834553
 30
0.0
 40
90.0
  1
注　）
  7
01
100
AcDbText
  0
TEXT
  5
19235
330
125AA
100
AcDbEntity
  8
SUNPOU
100
AcDbText
 10
1134.270762680491
 20
4500.324729263122
 30
0.0
 40
90.0
  1
注　）
  7
01
100
AcDbText
  0
TEXT
  5
19236
330
125AA
100
AcDbEntity
  8
SUNPOU
100
AcDbText
 10
1244.904682893232
 20
4500.324729263122
 30
0.0
 40
90.0
  1
2
 41
0.6700000000000001
  7
01
100
AcDbText
  0
TEXT
  5
19237
330
125AA
100
AcDbEntity
  8
SUNPOU
100
AcDbText
 10
1070.948197034144
 20
5534.935874566225
 30
0.0
 40
120.0
  1
基礎断面図
  7
01
 72
     4
 11
1410.948197034144
 21
5594.935874566225
 31
0.0
100
AcDbText
  0
ARC
  5
19238
330
125AA
100
AcDbEntity
  8
SUNPOU
100
AcDbCircle
 10
1229.112956800437
 20
5151.969295562097
 30
0.0
 40
225.0
100
AcDbArc
 50
148.3472725282829
 51
211.652727471717
  0
TEXT
  5
19239
330
125AA
100
AcDbEntity
  8
SUNPOU
100
AcDbText
 10
1586.249543104269
 20
5188.181872120267
 30
0.0
 40
71.99950000347218
  1
K
 41
0.6700000000000001
  7
01
100
AcDbText
  0
TEXT
  5
1923A
330
125AA
100
AcDbEntity
  8
SUNPOU
100
AcDbText
 10
1853.889699832653
 20
5238.370298477754
 30
0.0
 40
46.28539285937498
  1
2
 41
0.6700000000000001
  7
00
100
AcDbText
  0
TEXT
  5
1923B
330
125AA
100
AcDbEntity
  8
SUNPOU
100
AcDbText
 10
2107.501236250201
 20
5563.243566873918
 30
0.0
 40
73.84615384615384
  1
1
 41
0.6700000000000001
  7
00
 11
2107.501236250201
 21
5553.397413027764
 31
0.0
100
AcDbText
 73
     1
  0
TEXT
  5
1923C
330
125AA
100
AcDbEntity
  8
SUNPOU
100
AcDbText
 10
2219.85680651994
 20
5526.320489950838
 30
0.0
 40
73.84615384615384
  1
25
 41
0.6700000000000001
  7
00
 11
2219.85680651994
 21
5516.474336104684
 31
0.0
100
AcDbText
 73
     1
  0
TEXT
  5
1923D
330
125AA
100
AcDbEntity
  8
SUNPOU
100
AcDbText
 10
2155.907363565573
 20
5544.782028412377
 30
0.0
 40
73.84615384615384
  1
/
 41
0.6700000000000001
  7
00
 11
2155.907363565573
 21
5534.935874566222
 31
0.0
100
AcDbText
 73
     1
  0
LINE
  5
1923E
330
125AA
100
AcDbEntity
  8
SUNPOU
100
AcDbLine
 10
2912.970244459841
 20
5033.896157834554
 30
0.0
 11
2912.970244459841
 21
5117.388521533333
 31
0.0
  0
LINE
  5
1923F
330
125AA
100
AcDbEntity
  8
SUNPOU
100
AcDbLine
 10
2896.095244459842
 20
5033.896157834554
 30
0.0
 11
2896.095244459842
 21
5117.388521533333
 31
0.0
  0
LINE
  5
19240
330
125AA
100
AcDbEntity
  8
SUNPOU
100
AcDbLine
 10
2879.220244459842
 20
5033.896157834554
 30
0.0
 11
2879.220244459842
 21
5117.388521533333
 31
0.0
  0
LINE
  5
19241
330
125AA
100
AcDbEntity
  8
SUNPOU
100
AcDbLine
 10
2867.970244459841
 20
5033.896157834549
 30
0.0
 11
2924.220244459841
 21
5033.896157834549
 31
0.0
  0
LINE
  5
19242
330
125AA
100
AcDbEntity
  8
SUNPOU
100
AcDbLine
 10
2867.970244459841
 20
5117.388521533333
 30
0.0
 11
2924.220244459841
 21
5117.388521533333
 31
0.0
  0
TEXT
  5
19243
330
125AA
100
AcDbEntity
  8
SUNPOU
100
AcDbText
 10
3656.33836056988
 20
5188.181872120267
 30
0.0
 40
89.9993750043402
  1
N/mm
 41
0.6700000000000001
  7
01
100
AcDbText
  0
TEXT
  5
19244
330
125AA
100
AcDbEntity
  8
SUNPOU
100
AcDbText
 10
3520.501907783929
 20
5188.181872120267
 30
0.0
 40
89.9993750043402
  1
18
 41
0.6700000000000001
  7
01
100
AcDbText
  0
TEXT
  5
19245
330
125AA
100
AcDbEntity
  8
SUNPOU
100
AcDbText
 10
3960.802842601285
 20
5238.370298477754
 30
0.0
 40
46.28539285937498
  1
2
 41
0.6700000000000001
  7
00
100
AcDbText
  0
ARC
  5
19246
330
125AA
100
AcDbEntity
  8
SUNPOU
100
AcDbCircle
 10
4130.553240052
 20
5151.969295562097
 30
0.0
 40
225.0
100
AcDbArc
 50
328.3472725282829
 51
31.65272747171703
  0
ENDSEC
  0
SECTION
  2
OBJECTS
  0
DICTIONARY
  5
1259E
330
0
100
AcDbDictionary
281
     1
  3
ACAD_COLOR
350
12AC1
  3
ACAD_GROUP
350
1259F
  3
ACAD_LAYOUT
350
1297B
  3
ACAD_MATERIAL
350
12AC0
  3
ACAD_MLEADERSTYLE
350
18CF0
  3
ACAD_MLINESTYLE
350
125A0
  3
ACAD_PLOTSETTINGS
350
1297C
  3
ACAD_PLOTSTYLENAME
350
12979
  3
ACAD_SCALELIST
350
18CCE
  3
ACAD_TABLESTYLE
350
15B34
  3
ACAD_VISUALSTYLE
350
15B23
  3
ACDB_RECOMPOSE_DATA
350
18D09
  3
AcDbVariableDictionary
350
13B02
  3
DWGPROPS
350
191F7
  0
DICTIONARY
  5
15B8E
330
1259A
100
AcDbDictionary
280
     1
281
     1
  0
DICTIONARY
  5
129B1
330
125AA
100
AcDbDictionary
280
     1
281
     1
  3
ACAD_LAYOUTSELFREF
360
12A86
  3
ACAD_SORTENTS
360
18EFC
  0
DICTIONARY
  5
129AF
330
125A7
100
AcDbDictionary
280
     1
281
     1
  3
ACAD_LAYOUTSELFREF
360
12A85
  0
DICTIONARY
  5
12AC1
102
{ACAD_REACTORS
330
1259E
102
}
330
1259E
100
AcDbDictionary
281
     1
  0
DICTIONARY
  5
1259F
102
{ACAD_REACTORS
330
1259E
102
}
330
1259E
100
AcDbDictionary
281
     1
  0
DICTIONARY
  5
1297B
102
{ACAD_REACTORS
330
1259E
102
}
330
1259E
100
AcDbDictionary
281
     1
  3
Model
350
1297D
  3
ﾚｲｱｳﾄ1
350
1297E
  0
DICTIONARY
  5
12AC0
102
{ACAD_REACTORS
330
1259E
102
}
330
1259E
100
AcDbDictionary
281
     1
  3
ByBlock
350
15B21
  3
ByLayer
350
15B20
  3
Global
350
15B22
  0
DICTIONARY
  5
18CF0
102
{ACAD_REACTORS
330
1259E
102
}
330
1259E
100
AcDbDictionary
281
     1
  3
Standard
350
18CF1
  0
DICTIONARY
  5
125A0
102
{ACAD_REACTORS
330
1259E
102
}
330
1259E
100
AcDbDictionary
281
     1
  3
STANDARD
350
125AD
  0
DICTIONARY
  5
1297C
102
{ACAD_REACTORS
330
1259E
102
}
330
1259E
100
AcDbDictionary
281
     1
  0
ACDBDICTIONARYWDFLT
  5
12979
102
{ACAD_REACTORS
330
1259E
102
}
330
1259E
100
AcDbDictionary
281
     1
  3
Normal
350
1297A
100
AcDbDictionaryWithDefault
340
1297A
  0
DICTIONARY
  5
18CCE
102
{ACAD_REACTORS
330
1259E
102
}
330
1259E
100
AcDbDictionary
281
     1
  3
A0
350
18CCF
  3
A1
350
18CD0
  3
A2
350
18CD1
  3
A3
350
18CD2
  3
A4
350
18CD3
  3
A5
350
18CD4
  3
A6
350
18CD5
  3
A7
350
18CD6
  3
A8
350
18CD7
  3
A9
350
18CD8
  3
B0
350
18CD9
  3
B1
350
18CDA
  3
B2
350
18CDB
  3
B3
350
18CDC
  3
B4
350
18CDD
  3
B5
350
18CDE
  3
B6
350
18CDF
  3
B7
350
18CE0
  3
B8
350
18CE1
  3
B9
350
18CE2
  3
C0
350
18CE3
  3
C1
350
18CE4
  3
C2
350
18CE5
  3
C3
350
18CE6
  3
C4
350
18CE7
  3
C5
350
18CE8
  3
C6
350
18CE9
  3
C7
350
18CEA
  3
C8
350
18CEB
  3
C9
350
18CEC
  3
D0
350
18CED
  3
D1
350
18CEE
  3
D2
350
18CEF
  0
DICTIONARY
  5
15B34
102
{ACAD_REACTORS
330
1259E
102
}
330
1259E
100
AcDbDictionary
281
     1
  3
Standard
350
15B35
  0
DICTIONARY
  5
15B23
102
{ACAD_REACTORS
330
1259E
102
}
330
1259E
100
AcDbDictionary
281
     1
  3
2dWireframe
350
15B29
  3
3D Hidden
350
15B2B
  3
3dWireframe
350
15B2A
  3
Basic
350
15B28
  3
Brighten
350
15B2F
  3
ColorChange
350
15B33
  3
Conceptual
350
15B2C
  3
Dim
350
15B2E
  3
EdgeColorOff
350
18CCD
  3
Facepattern
350
15B32
  3
Flat
350
15B24
  3
FlatWithEdges
350
15B25
  3
Gouraud
350
15B26
  3
GouraudWithEdges
350
15B27
  3
JitterOff
350
18CCB
  3
Linepattern
350
15B31
  3
OverhangOff
350
18CCC
  3
Realistic
350
15B2D
  3
Thicken
350
15B30
  0
XRECORD
  5
18D09
102
{ACAD_REACTORS
330
1259E
102
}
330
1259E
100
AcDbXrecord
280
     1
 90
        1
330
15B35
  0
DICTIONARY
  5
13B02
102
{ACAD_REACTORS
330
1259E
102
}
330
1259E
100
AcDbDictionary
281
     1
  3
CANNOSCALE
350
18D3F
  3
CMLEADERSTYLE
350
18D3E
  3
CTABLESTYLE
350
15C50
  3
DIMASSOC
350
13B03
  3
INDEXCTL
350
15C52
  3
PROJECTNAME
350
13B04
  3
SORTENTS
350
15C51
  3
XCLIPFRAME
350
18D40
  0
XRECORD
  5
191F7
102
{ACAD_REACTORS
330
1259E
102
}
330
1259E
100
AcDbXrecord
280
     1
  1
DWGPROPS COOKIE
  2

  3

  4

  6

  7

  8
User
  9

300
=
301
=
302
=
303
=
304
=
305
=
306
=
307
=
308
=
309
=
 40
0.1759732986111111
 41
2450266.571064815
 42
2455112.683217406
  1

 90
        0
  0
XRECORD
  5
12A86
102
{ACAD_REACTORS
330
129B1
102
}
330
129B1
100
AcDbXrecord
280
     1
340
125AA
  0
SORTENTSTABLE
  5
18EFC
102
{ACAD_REACTORS
330
129B1
102
}
330
129B1
100
AcDbSortentsTable
330
125AA
331
18E3F
  5
19142
331
18DE2
  5
190E5
331
18E01
  5
19104
331
18DAC
  5
190AF
331
18DCB
  5
190CE
331
18D6E
  5
19071
331
188F9
  5
1901A
331
18918
  5
19041
331
188BB
  5
18F63
331
188D2
  5
18F7C
331
18D8D
  5
19090
331
18E20
  5
19123
331
1885E
  5
18E71
331
1889C
  5
18EC7
331
191C9
  5
18E6F
331
19174
  5
18DD2
331
19193
  5
187EC
331
19136
  5
18F4F
331
19155
  5
18EE0
331
191E8
  5
18E9A
331
190E1
  5
18817
331
19100
  5
16B21
331
1906D
  5
18F41
331
190C2
  5
188B8
331
1911F
  5
18FCE
331
18ECA
  5
191CD
331
18EE9
  5
191EC
331
18E94
  5
19197
331
18EB3
  5
191B6
331
18E56
  5
19159
331
18E75
  5
19178
331
16C29
  5
1886A
331
18E02
  5
19105
331
18E21
  5
19124
331
18DCC
  5
190CF
331
18DE3
  5
190E6
331
18D8E
  5
19091
331
18DAD
  5
190B0
331
18E40
  5
19143
331
18919
  5
19042
331
188D3
  5
18F7D
331
188FA
  5
1901B
331
1887E
  5
18EA3
331
1889D
  5
18EC8
331
1885F
  5
18E73
331
188BC
  5
18F64
331
18D6F
  5
19072
331
191E9
  5
18E9B
331
19194
  5
187E8
331
19156
  5
18E55
331
19175
  5
18DD3
331
19137
  5
18F50
331
191CA
  5
18E69
331
1908D
  5
18EE1
331
1904F
  5
18FC5
331
19101
  5
16B0E
331
18F28
  5
18FBE
331
18EB4
  5
191B7
331
18ECB
  5
191CE
331
18E76
  5
19179
331
18E95
  5
19198
331
18E57
  5
1915A
331
18EEA
  5
191ED
331
16C2A
  5
1886B
331
18E41
  5
19144
331
18DE4
  5
190E7
331
18E03
  5
19106
331
18DAE
  5
190B1
331
18DCD
  5
190D0
331
18D70
  5
19073
331
188FB
  5
1901C
331
1891A
  5
19043
331
1889E
  5
18EC9
331
188BD
  5
18F65
331
18860
  5
18E75
331
1887F
  5
18EA4
331
188D4
  5
18F7E
331
18D8F
  5
19092
331
18E22
  5
19125
331
191CB
  5
18E65
331
19176
  5
18D86
331
19195
  5
187E9
331
190E3
  5
18815
331
19138
  5
18F4C
331
190C4
  5
188B5
331
19157
  5
18E56
331
191EA
  5
18E9C
331
1906F
  5
18F3C
331
1908E
  5
18E58
331
18F29
  5
18FBF
331
18ECC
  5
191CF
331
18EEB
  5
191EE
331
18E96
  5
19199
331
18EB5
  5
191B8
331
18E58
  5
1915B
331
18E77
  5
1917A
331
16C2B
  5
1886C
331
18E04
  5
19107
331
18E23
  5
19126
331
18DCE
  5
190D1
331
18DE5
  5
190E8
331
18D71
  5
19074
331
1891B
  5
19044
331
18D90
  5
19093
331
188FC
  5
1901D
331
18DAF
  5
190B2
331
18E42
  5
19145
331
18880
  5
18EA5
331
1889F
  5
18ECA
331
18861
  5
18E76
331
188BE
  5
18F66
331
191EB
  5
18D5E
331
19196
  5
187CA
331
191AD
  5
18F76
331
19158
  5
18E4E
331
19177
  5
18D88
331
19103
  5
16B0C
331
190C5
  5
18898
331
19139
  5
18F4D
331
191CC
  5
18E66
331
18F41
  5
18F53
331
18EEC
  5
191EF
331
18F0B
  5
18FE9
331
18EB6
  5
191B9
331
18ECD
  5
191D0
331
18E78
  5
1917B
331
18E97
  5
1919A
331
18E59
  5
1915C
331
18D4D
  5
19056
331
18E24
  5
19127
331
18E43
  5
19146
331
18DE6
  5
190E9
331
18E05
  5
19108
331
18DB0
  5
190B3
331
18DCF
  5
190D2
331
18D72
  5
19075
331
188FD
  5
1901E
331
1891C
  5
19045
331
18862
  5
18E77
331
188BF
  5
18F67
331
188D6
  5
18F84
331
18D91
  5
19094
331
191AE
  5
18F77
331
191CD
  5
18E67
331
19178
  5
18D82
331
19197
  5
187CB
331
190E5
  5
18810
331
1913A
  5
18F3D
331
190C6
  5
18899
331
19159
  5
18E53
331
191EC
  5
18D5F
331
18F42
  5
18F54
331
18ECE
  5
191D1
331
18EED
  5
191F0
331
18E98
  5
1919B
331
18EB7
  5
191BA
331
18E5A
  5
1915D
331
18E79
  5
1917C
331
18F0C
  5
18FEA
331
16B10
  5
187E0
331
16C2D
  5
18871
331
16AF1
  5
16AF1
331
18E06
  5
19109
331
18E25
  5
19128
331
18DD0
  5
190D3
331
18DE7
  5
190EA
331
18D73
  5
19076
331
1891D
  5
19046
331
18D92
  5
19095
331
18882
  5
18EA9
331
188D7
  5
18F85
331
18863
  5
18E78
331
188FE
  5
1901F
331
18DB1
  5
190B4
331
18E44
  5
19147
331
191ED
  5
18D60
331
1915A
  5
18E2C
331
19179
  5
18D83
331
19105
  5
16B08
331
190C7
  5
18894
331
190E6
  5
187FE
331
1913B
  5
18F3E
331
191CE
  5
18E68
331
18F81
  5
18E38
331
18F43
  5
18F55
331
18EEE
  5
191F1
331
18F0D
  5
18FEB
331
18EB8
  5
191BB
331
18ECF
  5
191D2
331
18F62
  5
18F0D
331
18E5B
  5
1915E
331
18E7A
  5
1917D
331
18E99
  5
1919C
331
187D0
  5
188CB
331
16AF2
  5
16AF2
331
16C2E
  5
18872
331
16B11
  5
187E1
331
18E26
  5
19129
331
18E45
  5
19148
331
18DE8
  5
190EB
331
18E07
  5
1910A
331
18D93
  5
19096
331
18DB2
  5
190B5
331
18CFD
  5
19054
331
18D74
  5
19077
331
188FF
  5
19020
331
1891E
  5
19047
331
18DD1
  5
190D4
331
18864
  5
18E79
331
18883
  5
18EAA
331
188D8
  5
18F86
331
1917A
  5
188C1
331
191CF
  5
18E64
331
1913C
  5
18F3A
331
190E7
  5
187FF
331
19106
  5
19015
331
1915B
  5
18E30
331
191EE
  5
18D5A
331
18FB8
  5
18D8C
331
18F63
  5
18F0E
331
18F2D
  5
18FB1
331
18ED0
  5
191D3
331
18EEF
  5
191F2
331
18F82
  5
18E39
331
18E9A
  5
1919D
331
18EB9
  5
191BC
331
18E5C
  5
1915F
331
18E7B
  5
1917E
331
187F0
  5
18908
331
16B12
  5
187E2
331
187D1
  5
188CC
331
16C2F
  5
18873
331
16BE1
  5
1884E
331
16B28
  5
18830
331
16AF3
  5
16AF3
331
18E46
  5
19149
331
18E08
  5
1910B
331
18E27
  5
1912A
331
18DD2
  5
190D5
331
18DE9
  5
190EC
331
18D75
  5
19078
331
18D94
  5
19097
331
1891F
  5
19048
331
18CFE
  5
19055
331
18884
  5
18EAB
331
188D9
  5
18F87
331
18865
  5
18E7A
331
18900
  5
19021
331
18DB3
  5
190B6
331
191D0
  5
18E5F
331
191EF
  5
18D5B
331
1915C
  5
18E29
331
1917B
  5
188C2
331
19107
  5
19016
331
1913D
  5
18F3B
331
18FB9
  5
18D91
331
18FD8
  5
1888C
331
18F83
  5
18E4C
331
18FA2
  5
18DE4
331
18F64
  5
18F10
331
18EF0
  5
191F3
331
18EBA
  5
191BD
331
18ED1
  5
191D4
331
18E5D
  5
19160
331
18E7C
  5
1917F
331
18E9B
  5
1919E
331
18F2E
  5
18FB2
331
187D2
  5
188CD
331
187F1
  5
18909
331
16D8F
  5
1889B
331
16AF4
  5
16AF4
331
16C30
  5
18874
331
16B13
  5
187E3
331
16BE2
  5
1884F
331
18810
  5
18D62
331
18E28
  5
1912B
331
18E47
  5
1914A
331
18DEA
  5
190ED
331
18E09
  5
1910C
331
18D95
  5
19098
331
18DB4
  5
190B7
331
18D76
  5
19079
331
188DA
  5
18F88
331
188A4
  5
18ED9
331
18901
  5
19022
331
18866
  5
18E7B
331
18885
  5
18EAC
331
18920
  5
19049
331
18DD3
  5
190D6
331
1917C
  5
188BE
331
191D1
  5
18E60
331
1913E
  5
18F30
331
1915D
  5
18E2A
331
191F0
  5
18D5C
331
18FA3
  5
18DE5
331
18F2F
  5
18FB3
331
18FBA
  5
18D93
331
18ED2
  5
191D5
331
18EF1
  5
191F4
331
18E7D
  5
19180
331
18E9C
  5
1919F
331
18E5E
  5
19161
331
18EBB
  5
191BE
331
187F2
  5
1890A
331
18811
  5
18D63
331
16B14
  5
187E4
331
187D3
  5
188CE
331
16C31
  5
18875
331
16BE3
  5
18850
331
16D90
  5
1889C
331
16AF5
  5
16AF5
331
18830
  5
18DA4
331
18E48
  5
1914B
331
18E0A
  5
1910D
331
18E29
  5
1912C
331
18DB5
  5
190B8
331
18DD4
  5
190D7
331
18D77
  5
1907A
331
18921
  5
1904A
331
18D96
  5
19099
331
18DEB
  5
190EE
331
18886
  5
18EAD
331
188DB
  5
18F89
331
18867
  5
18E7D
331
18902
  5
19023
331
191D2
  5
18E62
331
191F1
  5
18D56
331
1913F
  5
18F31
331
1915E
  5
18E0E
331
1917D
  5
188BF
331
19018
  5
16BE6
331
18FBB
  5
18D7F
331
18FDA
  5
18889
331
18EF2
  5
191F5
331
18F11
  5
18FDC
331
18FA4
  5
18DE6
331
18EBC
  5
191BF
331
18ED3
  5
191D6
331
18E5F
  5
19162
331
18E7E
  5
19181
331
18E9D
  5
191A0
331
18812
  5
18D64
331
18831
  5
18DA5
331
16D91
  5
1889D
331
187D4
  5
188CF
331
187F3
  5
1890B
331
16C32
  5
18876
331
16BE4
  5
18851
331
18E2A
  5
1912D
331
18E49
  5
1914C
331
18DEC
  5
190EF
331
18E0B
  5
1910E
331
18D97
  5
1909A
331
18DB6
  5
190B9
331
18D78
  5
1907B
331
188DC
  5
18F8A
331
188A6
  5
18EE8
331
18903
  5
19024
331
18887
  5
18EAE
331
18922
  5
1904B
331
18DD5
  5
190D8
331
191F2
  5
18D57
331
1917E
  5
188B6
331
191D3
  5
18ED6
331
1915F
  5
18E0F
331
18F12
  5
18FDD
331
18FBC
  5
18D80
331
18ED4
  5
191D7
331
18EF3
  5
191F6
331
19019
  5
16BE7
331
18E7F
  5
19182
331
18E9E
  5
191A1
331
18E60
  5
19163
331
18EBD
  5
191C0
331
187F4
  5
1890C
331
18813
  5
18D65
331
16C33
  5
18877
331
16BE5
  5
18852
331
16D92
  5
1889E
331
187D5
  5
188D0
331
18832
  5
18DA6
331
18D54
  5
19057
331
18E4A
  5
1914D
331
18E0C
  5
1910F
331
18E2B
  5
1912E
331
18DB7
  5
190BA
331
18DD6
  5
190D9
331
18D79
  5
1907C
331
18904
  5
19025
331
18923
  5
1904C
331
188DD
  5
18F8B
331
18D98
  5
1909B
331
18DED
  5
190F0
331
191D4
  5
18ED7
331
191F3
  5
18D58
331
191B5
  5
19032
331
1917F
  5
188B7
331
1901A
  5
16BE8
331
18FBD
  5
18D81
331
18F87
  5
18E23
331
18FDC
  5
18884
331
18EF4
  5
1900D
331
18F13
  5
18FDE
331
18E9F
  5
191A2
331
18EBE
  5
191C1
331
18E61
  5
19164
331
18E80
  5
19183
331
18ED5
  5
191D8
331
18F68
  5
18EFF
331
18FFB
  5
18802
331
18814
  5
18D66
331
18833
  5
18DAA
331
187D6
  5
188D1
331
187F5
  5
18910
331
16D93
  5
1889F
331
16B17
  5
187FD
331
16BE6
  5
18855
331
18D55
  5
19058
331
18E2C
  5
1912F
331
18E4B
  5
1914E
331
18DD7
  5
190DA
331
18DEE
  5
190F1
331
18D99
  5
1909C
331
18DB8
  5
190BB
331
18D7A
  5
1907D
331
18E0D
  5
19110
331
188DE
  5
18F8C
331
18905
  5
19026
331
18924
  5
1904D
331
191F4
  5
18926
331
191B6
  5
1902E
331
191D5
  5
18ED8
331
18F69
  5
18F01
331
18F14
  5
18FDF
331
18F33
  5
18FA5
331
18ED6
  5
191D9
331
18EF5
  5
1900E
331
18F88
  5
18E24
331
18E81
  5
19184
331
18EA0
  5
191A3
331
18E62
  5
19165
331
18EBF
  5
191C2
331
18834
  5
18DAB
331
187F6
  5
18911
331
18815
  5
18D67
331
187D7
  5
188D5
331
18D58
  5
1905B
331
16BE7
  5
18856
331
16D94
  5
188A3
331
16AF9
  5
16BDA
331
18D56
  5
19059
331
18E4C
  5
1914F
331
18E0E
  5
19111
331
18E2D
  5
19130
331
18DB9
  5
190BC
331
18D7B
  5
1907E
331
18906
  5
19027
331
18925
  5
1904E
331
188DF
  5
18F8D
331
18D9A
  5
1909D
331
18DEF
  5
190F2
331
191D6
  5
18ED3
331
191F5
  5
18927
331
191B7
  5
1902F
331
18FFD
  5
18800
331
18FDE
  5
18880
331
18F89
  5
18E25
331
18FA8
  5
18DD9
331
18F34
  5
18FA6
331
18EF6
  5
1900F
331
18EA1
  5
191A4
331
18EC0
  5
191C3
331
18E63
  5
19166
331
18E82
  5
19185
331
18ED7
  5
191DA
331
18F6A
  5
18F02
331
18816
  5
18D68
331
18835
  5
18DAC
331
187D8
  5
188D6
331
187F7
  5
18912
331
16AFA
  5
16BDC
331
16BE8
  5
18857
331
18D59
  5
1905C
331
16C36
  5
18878
331
16B19
  5
18801
331
18D57
  5
1905A
331
18E2E
  5
19131
331
18E4D
  5
19150
331
18DF0
  5
190F3
331
18D9B
  5
1909E
331
18DBA
  5
190BD
331
18926
  5
1904F
331
18907
  5
19028
331
18D7C
  5
1907F
331
18E0F
  5
19112
331
191F6
  5
18928
331
191D7
  5
18ED4
331
18FDF
  5
1886D
331
18FA9
  5
18DDA
331
18F6B
  5
18F03
331
18FFE
  5
187F1
331
18F35
  5
18FA7
331
18EC1
  5
191C4
331
18ED8
  5
191DB
331
18E83
  5
19186
331
18EA2
  5
191A5
331
18E64
  5
19167
331
18EF7
  5
19010
331
18836
  5
18DAD
331
187F8
  5
18916
331
18817
  5
18D69
331
16AFB
  5
16BDE
331
16C37
  5
18879
331
18D5A
  5
1905D
331
16BE9
  5
18858
331
187D9
  5
188D7
331
18E4E
  5
19151
331
18DF1
  5
190F4
331
18DBB
  5
190BE
331
18E10
  5
19113
331
18D7D
  5
19080
331
18927
  5
19050
331
18D9C
  5
1909F
331
18E2F
  5
19132
331
18FFF
  5
187F2
331
1901E
  5
16B11
331
18FC1
  5
188BA
331
18FE0
  5
1886E
331
18F36
  5
18FA8
331
18EF8
  5
19011
331
18F4D
  5
18F34
331
18FAA
  5
18DDB
331
18EA3
  5
191A6
331
18EC2
  5
191C5
331
18E65
  5
19168
331
18E84
  5
19187
331
18ED9
  5
191DC
331
18818
  5
18D6A
331
18837
  5
18DB1
331
187DA
  5
188D8
331
12ADD
  5
12ADD
331
16AFC
  5
16BDF
331
187F9
  5
18917
331
16BEA
  5
18859
331
18D5B
  5
1905E
331
16C38
  5
1887A
331
18E30
  5
19133
331
18E4F
  5
19152
331
18DF2
  5
190F5
331
18D9D
  5
190A0
331
18DBC
  5
190BF
331
18D7E
  5
19081
331
18E11
  5
19114
331
1901F
  5
16B17
331
18FE1
  5
1886F
331
19000
  5
187F3
331
18F4E
  5
18F35
331
18FAB
  5
18DDC
331
18F18
  5
18FD1
331
18EC3
  5
191C6
331
18EDA
  5
191DD
331
18E85
  5
19188
331
18EA4
  5
191A7
331
18F37
  5
18FA9
331
18FC2
  5
188BB
331
18E66
  5
19169
331
18838
  5
18DB2
331
187FA
  5
18918
331
18819
  5
18D6C
331
16AFD
  5
16BE1
331
16BDA
  5
1883E
331
16C39
  5
1887B
331
18D5C
  5
1905F
331
16BEB
  5
1885A
331
187DB
  5
188DC
331
18DF3
  5
190F6
331
18DBD
  5
190C0
331
18E12
  5
19115
331
18D7F
  5
19082
331
18D9E
  5
190A1
331
18E31
  5
19134
331
19020
  5
16B19
331
18FC3
  5
188BC
331
18F8D
  5
18E03
331
18F4F
  5
18F36
331
18FE2
  5
18870
331
18EDB
  5
191DE
331
18EA5
  5
191A8
331
18EC4
  5
191C7
331
18E67
  5
1916A
331
18E86
  5
19189
331
18F19
  5
18FD2
331
1881A
  5
18D6E
331
18839
  5
18DB3
331
187DC
  5
188DD
331
16BEC
  5
1885D
331
16BDB
  5
1883F
331
16AFE
  5
16BE2
331
18D5D
  5
19060
331
187FB
  5
18919
331
18E13
  5
19116
331
18E32
  5
19135
331
18DF4
  5
190F7
331
18D9F
  5
190A2
331
18DBE
  5
190C1
331
18FE3
  5
18844
331
18F8E
  5
18E04
331
18F50
  5
18F37
331
18F1A
  5
18FD3
331
18EC5
  5
191C8
331
18EDC
  5
191DF
331
18F6F
  5
18EF1
331
18E87
  5
1918A
331
18EA6
  5
191A9
331
18FC4
  5
188BD
331
18E68
  5
1916B
331
1883A
  5
18DB7
331
187FC
  5
1891A
331
1881B
  5
18D6F
331
16BDC
  5
18840
331
16C3B
  5
18881
331
18D5E
  5
19061
331
16BED
  5
1885E
331
187CA
  5
188C5
331
187DD
  5
188DE
331
18DF5
  5
190F8
331
18DBF
  5
190C2
331
18E14
  5
19117
331
18E33
  5
19136
331
18F70
  5
18EF2
331
18F8F
  5
18E05
331
18F51
  5
18F39
331
18FE4
  5
1884B
331
18EDD
  5
191E0
331
18EA7
  5
191AA
331
18EC6
  5
191C9
331
18E69
  5
1916C
331
18E88
  5
1918B
331
18F1B
  5
18FD4
331
1881C
  5
18D70
331
1883B
  5
18DB8
331
16B1F
  5
18803
331
187DE
  5
188E2
331
187CB
  5
188C6
331
16BEE
  5
1885F
331
16BDD
  5
18841
331
16B00
  5
16BF0
331
18D5F
  5
19062
331
187FD
  5
1891B
331
18E15
  5
19118
331
18E34
  5
19137
331
18DF6
  5
190F9
331
18FE5
  5
1884C
331
18F90
  5
18E06
331
18FAF
  5
18DCF
331
18F71
  5
18EF3
331
19004
  5
187E5
331
18EFD
  5
19003
331
18EC7
  5
191CA
331
18EDE
  5
191E1
331
18E89
  5
1918C
331
18EA8
  5
191AB
331
18F3B
  5
18F9B
331
18E6A
  5
1916D
331
1883C
  5
18DBA
331
187DF
  5
188E3
331
187FE
  5
1891D
331
16B01
  5
16BF1
331
16B20
  5
18805
331
1881D
  5
18D71
331
16BDE
  5
18842
331
16BEF
  5
18860
331
187CC
  5
188C7
331
18E35
  5
19138
331
18DF7
  5
190FA
331
18E16
  5
19119
331
19005
  5
187E6
331
19024
  5
16AF9
331
18FB0
  5
18DD0
331
18F3C
  5
18F9C
331
18EDF
  5
191E2
331
18EA9
  5
191AC
331
18EFE
  5
19004
331
18F91
  5
18E07
331
18FE6
  5
1884D
331
18E6B
  5
1916E
331
18E8A
  5
1918D
331
1881E
  5
18D72
331
1883D
  5
18DBF
331
16B21
  5
18807
331
187E0
  5
188E4
331
187CD
  5
188C8
331
16BF0
  5
18861
331
16BDF
  5
18843
331
16B02
  5
16BF2
331
187FF
  5
1891F
331
18E17
  5
1911A
331
18E36
  5
19139
331
19025
  5
16AFA
331
18FE7
  5
18831
331
19006
  5
187E7
331
18FB1
  5
18DD1
331
18EFF
  5
19005
331
18EE0
  5
191E3
331
18E6C
  5
1916F
331
18E8B
  5
1918E
331
18EAA
  5
191AD
331
18F3D
  5
18F9D
331
18FC8
  5
188A4
331
1883E
  5
18DC0
331
187E1
  5
188E5
331
18800
  5
18920
331
187CE
  5
188C9
331
16B03
  5
16BF3
331
16BF8
  5
18869
331
16C3F
  5
1888D
331
16B22
  5
18808
331
16BF1
  5
18862
331
1881F
  5
18D73
331
18E37
  5
1913A
331
19026
  5
16AFB
331
18FC9
  5
188A6
331
18F1F
  5
18FC7
331
18EE1
  5
191E4
331
18EAB
  5
191AE
331
18F55
  5
18F28
331
18FE8
  5
18832
331
18E6D
  5
19170
331
18E8C
  5
1918F
331
18801
  5
18921
331
18820
  5
18D75
331
187E2
  5
188E9
331
16BF2
  5
18863
331
187CF
  5
188CA
331
16B04
  5
16BF4
331
1883F
  5
18DC1
331
18FCA
  5
188AF
331
18FE9
  5
18836
331
18F56
  5
18F29
331
18F20
  5
18FC8
331
18EE2
  5
191E5
331
18F75
  5
18EED
331
18E6E
  5
19171
331
18E8D
  5
19190
331
18EAC
  5
191AF
331
18840
  5
18DC2
331
187E3
  5
188EA
331
18802
  5
18922
331
16B24
  5
18819
331
16BF3
  5
18864
331
159C6
  5
159C6
331
18821
  5
18D77
331
18FCB
  5
188B0
331
18F76
  5
18EEF
331
18F95
  5
18DF9
331
18F21
  5
18FC9
331
18EE3
  5
191E6
331
18E8E
  5
19191
331
18EAD
  5
191B0
331
18E6F
  5
19172
331
18F57
  5
18F2A
331
18803
  5
18923
331
18822
  5
18D78
331
16B25
  5
1881B
331
187E4
  5
188EB
331
16BF4
  5
18865
331
159C7
  5
159C7
331
16B06
  5
16C33
331
18841
  5
18DC3
331
18F96
  5
18DFA
331
18FB5
  5
18D94
331
18F03
  5
18FF7
331
18EE4
  5
191E7
331
18F77
  5
18EF0
331
1900A
  5
187DA
331
18E8F
  5
19192
331
18EAE
  5
191B1
331
18823
  5
18D79
331
18842
  5
18DC5
331
187E5
  5
188FA
331
16B07
  5
16C36
331
18804
  5
18924
331
16C43
  5
18897
331
16BF5
  5
18866
331
159C8
  5
159C8
331
18FB6
  5
18D95
331
1900B
  5
187DB
331
18F78
  5
18EE9
331
18EE5
  5
191E8
331
18EAF
  5
191B2
331
18F04
  5
18FF8
331
18F97
  5
18DFB
331
1902A
  5
19018
331
18824
  5
18D7A
331
187E6
  5
188FB
331
16BF6
  5
18867
331
16B08
  5
16C37
331
18843
  5
18DCA
331
18FB7
  5
18D96
331
18F05
  5
18FF9
331
18EE6
  5
191E9
331
18F79
  5
18EEA
331
1900C
  5
187DD
331
18825
  5
18D7B
331
18844
  5
18DCB
331
187E7
  5
188FC
331
16B09
  5
16C38
331
18806
  5
18CAA
331
16BF7
  5
18868
331
18FEE
  5
1882F
331
18F5B
  5
18F1A
331
18F25
  5
18FBB
331
18F7A
  5
18EEB
331
1900D
  5
187DF
331
18EE7
  5
191EA
331
18F06
  5
18FFA
331
1902C
  5
19017
331
18807
  5
18CFD
331
18826
  5
18D7D
331
187E8
  5
188FD
331
16B0A
  5
16C39
331
1900E
  5
16C3B
331
18FD0
  5
1889A
331
18FEF
  5
1881C
331
18F5C
  5
18F1C
331
18F07
  5
18FFB
331
18F26
  5
18FBC
331
18F7B
  5
18EDB
331
187E9
  5
188FE
331
18808
  5
18D4D
331
18FF0
  5
1881E
331
1900F
  5
16C3F
331
18F5D
  5
18F1D
331
18F27
  5
18FBD
331
18F7C
  5
18EDD
331
18F9B
  5
18DEE
331
1902E
  5
19014
331
18809
  5
18D55
331
18828
  5
18D8B
331
16B0C
  5
187D4
331
187EA
  5
18902
331
19010
  5
16C43
331
1902F
  5
1900C
331
18FD2
  5
18896
331
18F7D
  5
18EDE
331
18F9C
  5
18DEF
331
18F5E
  5
18F1E
331
18FF1
  5
1881F
331
187EB
  5
18903
331
16B0D
  5
187D8
331
18F9D
  5
18DF0
331
1880B
  5
18D59
331
16B0E
  5
187D9
331
187EC
  5
18904
331
18FD4
  5
18893
331
18F9E
  5
18DF1
331
1882B
  5
18D97
331
187ED
  5
18905
331
19031
  5
1900B
331
1880D
  5
18D5D
331
1882C
  5
18D98
331
187EE
  5
18906
331
19051
  5
18FC2
331
19070
  5
18F33
331
19014
  5
16C29
331
18FD6
  5
18890
331
18FF5
  5
18809
331
1882D
  5
18D99
331
187EF
  5
18907
331
19052
  5
18FBA
331
19033
  5
19008
331
19090
  5
18E57
331
18FF6
  5
1880A
331
19015
  5
16C2F
331
1880F
  5
18D61
331
1882E
  5
18D9E
331
19072
  5
18F32
331
19034
  5
19002
331
19016
  5
16C31
331
18FF7
  5
1880B
331
1882F
  5
18DA0
331
190A9
  5
18DEC
331
190C8
  5
18895
331
19054
  5
18FB9
331
19092
  5
18E54
331
19017
  5
16C32
331
190C9
  5
18891
331
19074
  5
18F2F
331
19036
  5
19001
331
19093
  5
18E33
331
190E8
  5
187FC
331
19108
  5
19012
331
190AB
  5
18DE9
331
19056
  5
18FB6
331
19075
  5
18F27
331
190CA
  5
18892
331
19109
  5
19013
331
19120
  5
18FCA
331
190CB
  5
1888E
331
190EA
  5
187FB
331
19095
  5
18E31
331
19038
  5
18FFE
331
19057
  5
18FB0
331
190AC
  5
18DE3
331
18868
  5
18E7F
331
19121
  5
18FCB
331
19140
  5
18F2C
331
1910A
  5
19009
331
19077
  5
18F26
331
19039
  5
18FF6
331
190CC
  5
1888F
331
18888
  5
18EB3
331
18869
  5
18E80
331
19141
  5
18F2E
331
19160
  5
18E08
331
1910B
  5
1900A
331
19122
  5
18FC3
331
190AE
  5
18DE2
331
190CD
  5
1888A
331
19097
  5
18E2B
331
19059
  5
18FAF
331
190EC
  5
187F6
331
1884B
  5
18E15
331
1886A
  5
18E81
331
18889
  5
18EB4
331
19161
  5
18E09
331
19180
  5
188B1
331
19123
  5
18FC4
331
19142
  5
18F24
331
190ED
  5
187EF
331
1910C
  5
19006
331
19098
  5
18E11
331
19079
  5
18F22
331
1903B
  5
18FF5
331
190CE
  5
1888B
331
188C0
  5
18F68
331
1886B
  5
18E82
331
1888A
  5
18EB5
331
1884C
  5
18E16
331
19198
  5
16D92
331
19143
  5
18F25
331
19162
  5
18DFF
331
1910D
  5
19007
331
190B0
  5
18DDF
331
1907A
  5
18F18
331
190CF
  5
18885
331
19124
  5
18FC0
331
1905B
  5
18FAC
331
19181
  5
188B2
331
188E0
  5
18F8E
331
188C1
  5
18F69
331
1884D
  5
18E17
331
1886C
  5
18E83
331
1888B
  5
18EB6
331
191B8
  5
19030
331
19163
  5
18E00
331
19182
  5
1883A
331
19125
  5
18FC1
331
19144
  5
18F1F
331
190D0
  5
18887
331
190EF
  5
187ED
331
1909A
  5
18E10
331
1905C
  5
18FA4
331
190B1
  5
18DD8
331
1910E
  5
18FFF
331
19199
  5
16D93
331
1903D
  5
18FF2
331
188C2
  5
18F6A
331
1886D
  5
18E84
331
1888C
  5
18EB7
331
1884E
  5
18E1B
331
188E1
  5
18F8F
331
191D8
  5
18ED5
331
19183
  5
1883B
331
1919A
  5
16BEC
331
19145
  5
18F20
331
19164
  5
18DFC
331
1910F
  5
19000
331
1907C
  5
18F17
331
1903E
  5
18FE8
331
190D1
  5
18882
331
19126
  5
18FB7
331
191B9
  5
19031
331
18928
  5
19051
331
188E2
  5
18F90
331
1888D
  5
18EB8
331
1884F
  5
18E1C
331
1886E
  5
18E85
331
188C3
  5
18F6B
331
191BA
  5
1902D
331
191D9
  5
18ECE
331
19165
  5
18DFD
331
19184
  5
18837
331
19127
  5
18FB8
331
19146
  5
18F15
331
190D2
  5
18883
331
190F1
  5
187EA
331
1909C
  5
18E0D
331
1905E
  5
18FA3
331
190B3
  5
18DD7
331
19110
  5
18FFC
331
1919B
  5
16BED
331
18D60
  5
19063
331
1890A
  5
19033
331
188C4
  5
18F6C
331
1886F
  5
18E8B
331
1888E
  5
18EB9
331
18850
  5
18E1D
331
188E3
  5
18F91
331
191DA
  5
18ECF
331
19185
  5
18838
331
1919C
  5
16BE9
331
19147
  5
18F16
331
19166
  5
18DF5
331
190F2
  5
187D2
331
19111
  5
18FFD
331
190D3
  5
1887C
331
1907E
  5
18F14
331
19040
  5
18FE7
331
1909D
  5
18E02
331
19128
  5
18FB4
331
191BB
  5
19029
331
18D61
  5
19064
331
188E4
  5
18F92
331
1890B
  5
19034
331
1888F
  5
18EBA
331
18851
  5
18E1E
331
18870
  5
18E8C
331
188C5
  5
18F6D
331
18D80
  5
19083
331
1919D
  5
16BEA
331
191BC
  5
1902A
331
19167
  5
18DF6
331
19186
  5
18823
331
19129
  5
18FB5
331
19148
  5
18F12
331
191DB
  5
18ED1
331
190D4
  5
1887E
331
190B5
  5
18DD4
331
19060
  5
18FA0
331
1907F
  5
18F0C
331
19112
  5
18FF3
331
18D62
  5
19065
331
1890C
  5
19035
331
18D81
  5
19084
331
188AF
  5
18F43
331
188C6
  5
18F6E
331
18871
  5
18E8D
331
18890
  5
18EBB
331
18852
  5
18E1F
331
188E5
  5
18F93
331
18DA0
  5
190A3
331
191DC
  5
18ECB
331
19187
  5
18824
331
1919E
  5
16B22
331
19149
  5
18F13
331
19168
  5
18DF2
331
190F4
  5
187D0
331
19113
  5
18FF4
331
190B6
  5
18D8A
331
190D5
  5
1883D
331
19061
  5
18F5C
331
19042
  5
18FE4
331
1909F
  5
18E01
331
1912A
  5
18FAD
331
191BD
  5
1902B
331
18D82
  5
19085
331
18DA1
  5
190A4
331
18D63
  5
19066
331
188E6
  5
18F94
331
1890D
  5
19036
331
18DC0
  5
190C3
331
18891
  5
18EBC
331
188B0
  5
18F44
331
18872
  5
18E8F
331
188C7
  5
18F6F
331
1919F
  5
16B24
331
191BE
  5
1902C
331
19169
  5
18DF3
331
19188
  5
18820
331
19114
  5
18FEC
331
1912B
  5
18FAE
331
1914A
  5
18F08
331
191DD
  5
18ECC
331
19043
  5
18FDB
331
19081
  5
18F0B
331
18DC1
  5
190C4
331
18DD8
  5
190DB
331
18D64
  5
19067
331
1890E
  5
19037
331
18D83
  5
19086
331
188B1
  5
18F45
331
188C8
  5
18F70
331
18873
  5
18E91
331
18892
  5
18EBD
331
188E7
  5
18F95
331
18DA2
  5
190A5
331
191BF
  5
18F83
331
191DE
  5
18ECD
331
19189
  5
18821
331
191A0
  5
16B1F
331
1914B
  5
18F0A
331
1916A
  5
18DEA
331
190F6
  5
16D94
331
19115
  5
18FF1
331
190B8
  5
18D89
331
190D7
  5
1883C
331
19063
  5
18F5B
331
190A1
  5
18DFE
331
1912C
  5
18FAA
331
18DD9
  5
190DC
331
18DF8
  5
190FB
331
18D84
  5
19087
331
18DA3
  5
190A6
331
18D65
  5
19068
331
188C9
  5
18F71
331
188E8
  5
18F96
331
18893
  5
18EBE
331
188B2
  5
18F46
331
18855
  5
18E5A
331
18874
  5
18E93
331
1890F
  5
19038
331
18DC2
  5
190C5
331
191A1
  5
16B20
331
191C0
  5
18F7F
331
1916B
  5
18DEB
331
1918A
  5
18812
331
19116
  5
18FE5
331
1912D
  5
18FAB
331
19083
  5
18F06
331
19045
  5
18FDA
331
190A2
  5
18DF8
331
190F7
  5
16BEF
331
1914C
  5
18F04
331
191DF
  5
18EA6
331
18DF9
  5
190FC
331
18E18
  5
1911B
331
18DA4
  5
190A7
331
18DC3
  5
190C6
331
18D66
  5
19069
331
18910
  5
19039
331
18D85
  5
19088
331
18DDA
  5
190DD
331
188CA
  5
18F72
331
18875
  5
18E94
331
18894
  5
18EBF
331
18856
  5
18E5C
331
188E9
  5
18F97
331
191C1
  5
18F80
331
191E0
  5
18EA7
331
1918B
  5
18814
331
191A2
  5
16B09
331
1912E
  5
18FA1
331
1914D
  5
18F05
331
19117
  5
18FE6
331
190BA
  5
18D84
331
19065
  5
18F58
331
19084
  5
18EFD
331
190D9
  5
18839
331
1916C
  5
18DE7
331
18E19
  5
1911C
331
18E38
  5
1913B
331
18DDB
  5
190DE
331
18DFA
  5
190FD
331
18D86
  5
19089
331
18DA5
  5
190A8
331
18D67
  5
1906A
331
188CB
  5
18F73
331
18895
  5
18EC0
331
188EA
  5
18F98
331
18857
  5
18E5D
331
18876
  5
18E95
331
18911
  5
1903A
331
18DC4
  5
190C7
331
191E1
  5
18EA8
331
191A3
  5
16B0A
331
191C2
  5
18F81
331
1916D
  5
18DE8
331
1918C
  5
1880D
331
19118
  5
18FE2
331
1912F
  5
18FA2
331
190DA
  5
18828
331
190F9
  5
16BEE
331
190A4
  5
18DF7
331
19047
  5
18FD7
331
19066
  5
18F52
331
190BB
  5
188C4
331
1914E
  5
18EF9
331
18E39
  5
1913C
331
18DFB
  5
190FE
331
18E1A
  5
1911D
331
18DA6
  5
190A9
331
18DC5
  5
190C8
331
18D68
  5
1906B
331
188EB
  5
18F99
331
18912
  5
1903B
331
188B5
  5
18F5D
331
188CC
  5
18F74
331
18D87
  5
1908A
331
18877
  5
18E96
331
18896
  5
18EC1
331
18DDC
  5
190DF
331
18858
  5
18E5E
331
191C3
  5
18F82
331
191E2
  5
18EA0
331
1918D
  5
1880E
331
191A4
  5
16B01
331
19130
  5
18F9E
331
1914F
  5
18EFA
331
19119
  5
18FE3
331
19086
  5
18EFB
331
19048
  5
18FD0
331
190DB
  5
1882B
331
1916E
  5
18DE0
331
18E50
  5
19153
331
18E1B
  5
1911E
331
18E3A
  5
1913D
331
18DC6
  5
190C9
331
18DDD
  5
190E0
331
18D88
  5
1908B
331
18DA7
  5
190AA
331
18CAA
  5
19052
331
18D69
  5
1906C
331
18DFC
  5
190FF
331
188EC
  5
18F9A
331
18897
  5
18EC2
331
188B6
  5
18F5E
331
18878
  5
18E97
331
18913
  5
1903C
331
191E3
  5
18EA1
331
191A5
  5
16B07
331
191C4
  5
18F75
331
19150
  5
18EF5
331
1916F
  5
18DE1
331
1911A
  5
18FD8
331
19131
  5
18F9F
331
190DC
  5
18826
331
190FB
  5
16BEB
331
1918E
  5
187F7
331
190A6
  5
18DF4
331
19068
  5
18F51
331
190BD
  5
188C3
331
18E70
  5
19173
331
18E51
  5
19154
331
18E3B
  5
1913E
331
18DFD
  5
19100
331
18E1C
  5
1911F
331
18DA8
  5
190AB
331
18DC7
  5
190CA
331
18D6A
  5
1906D
331
18D89
  5
1908C
331
18914
  5
1903D
331
188B7
  5
18F5F
331
188CE
  5
18F78
331
18879
  5
18E98
331
18898
  5
18EC3
331
18CAB
  5
19053
331
18DDE
  5
190E1
331
191C5
  5
18E70
331
1918F
  5
187F9
331
191E4
  5
18EA2
331
19132
  5
18F59
331
19151
  5
18EF7
331
190A7
  5
18DED
331
190FC
  5
16B28
331
19088
  5
18EF8
331
1911B
  5
18FD9
331
1904A
  5
18FCF
331
19170
  5
18DDD
331
18E90
  5
19193
331
18E52
  5
19155
331
18E71
  5
19174
331
18E1D
  5
19120
331
18E3C
  5
1913F
331
18DC8
  5
190CB
331
18DDF
  5
190E2
331
18D8A
  5
1908D
331
18DA9
  5
190AC
331
18915
  5
1903E
331
188CF
  5
18F79
331
18899
  5
18EC4
331
188B8
  5
18F60
331
18D6B
  5
1906E
331
18DFE
  5
19101
331
1887A
  5
18E99
331
191E5
  5
18E9D
331
191C6
  5
18E6B
331
19152
  5
18EE3
331
19171
  5
18DDE
331
1911C
  5
18FD5
331
190BF
  5
188C0
331
19089
  5
18EE7
331
190DE
  5
18825
331
19133
  5
18F5A
331
1906A
  5
18F4E
331
19190
  5
187F4
331
18EB0
  5
191B3
331
18E72
  5
19175
331
18E91
  5
19194
331
18E53
  5
19156
331
18E3D
  5
19140
331
18DE0
  5
190E3
331
18DFF
  5
19102
331
18DAA
  5
190AD
331
18DC9
  5
190CC
331
18D6C
  5
1906F
331
18916
  5
1903F
331
188B9
  5
18F61
331
188D0
  5
18F7A
331
18D8B
  5
1908E
331
18E1E
  5
19121
331
1889A
  5
18EC5
331
191C7
  5
18E6D
331
19172
  5
18DD5
331
19191
  5
187F5
331
19134
  5
18F56
331
19153
  5
18EE5
331
191E6
  5
18E9E
331
190FE
  5
16B25
331
1906B
  5
18F42
331
190C0
  5
188B9
331
1911D
  5
18FD6
331
1904C
  5
18FCC
331
18E92
  5
19195
331
18EB1
  5
191B4
331
18E54
  5
19157
331
18E73
  5
19176
331
18EC8
  5
191CB
331
18E1F
  5
19122
331
18E3E
  5
19141
331
18DCA
  5
190CD
331
18DE1
  5
190E4
331
18D8C
  5
1908F
331
18DAB
  5
190AE
331
18917
  5
19040
331
188D1
  5
18F7B
331
188F8
  5
19019
331
1889B
  5
18EC6
331
188BA
  5
18F62
331
18D6D
  5
19070
331
18E00
  5
19103
331
191E7
  5
18E9F
331
191C8
  5
18E6E
331
19154
  5
18EDF
331
19173
  5
18DD6
331
1911E
  5
18FCD
331
1908B
  5
18EE6
331
1904D
  5
18FC6
331
190E0
  5
18822
331
19135
  5
18F57
331
19192
  5
187EB
331
18EB2
  5
191B5
331
18EC9
  5
191CC
331
18E74
  5
19177
331
18E93
  5
19196
331
18E55
  5
19158
331
18EE8
  5
191EB
  0
XRECORD
  5
12A85
102
{ACAD_REACTORS
330
129AF
102
}
330
129AF
100
AcDbXrecord
280
     1
340
125A7
  0
LAYOUT
  5
1297D
102
{ACAD_XDICTIONARY
360
191F8
102
}
102
{ACAD_REACTORS
330
1297B
102
}
330
1297B
100
AcDbPlotSettings
  1

  2
いきなりPDF Professional
  4
User76
  6

 40
3.174999952316283
 41
3.174999952316283
 42
3.17498779296875
 43
3.17498779296875
 44
419.9889831542968
 45
297.0106506347656
 46
7.461129796972527
 47
6.848008763531339
 48
0.0
 49
0.0
140
0.0
141
0.0
142
1.0
143
40.0
 70
 11940
 72
     1
 73
     0
 74
     1
  7
sinsei-a3.ctb
 75
     0
147
0.025
148
-433.9966216520332
149
-163.6908237492789
100
AcDbLayout
  1
Model
 70
     1
 71
     0
 10
0.0
 20
0.0
 11
12.0
 21
9.0
 12
0.0
 22
0.0
 32
0.0
 14
0.0
 24
0.0
 34
0.0
 15
0.0
 25
0.0
 35
0.0
146
0.0
 13
0.0
 23
0.0
 33
0.0
 16
1.0
 26
0.0
 36
0.0
 17
0.0
 27
1.0
 37
0.0
 76
     0
330
125AA
331
18CC1
1001
ACAD_PSEXT
1000
いきなりPDF Professional
1000
いきなりPDF Professional
1000
SN PDFPro Port
1000

1070
     0
  0
LAYOUT
  5
1297E
102
{ACAD_XDICTIONARY
360
191FA
102
}
102
{ACAD_REACTORS
330
1297B
102
}
330
1297B
100
AcDbPlotSettings
  1

  2
RICOH NX-210 RPDL
  4

  6

 40
0.0
 41
0.0
 42
0.0
 43
0.0
 44
0.0
 45
0.0
 46
0.0
 47
0.0
 48
0.0
 49
0.0
140
0.0
141
0.0
142
1.0
143
1.0
 70
   688
 72
     0
 73
     0
 74
     5
  7
sinsei-a3.ctb
 75
    16
147
1.0
148
0.0
149
0.0
100
AcDbLayout
  1
ﾚｲｱｳﾄ1
 70
     0
 71
     1
 10
0.0
 20
0.0
 11
12.0
 21
9.0
 12
267.0
 22
194.8999999999998
 32
0.0
 14
1.000000000000000E+20
 24
1.000000000000000E+20
 34
1.000000000000000E+20
 15
-1.000000000000000E+20
 25
-1.000000000000000E+20
 35
-1.000000000000000E+20
146
0.0
 13
0.0
 23
0.0
 33
0.0
 16
1.0
 26
0.0
 36
0.0
 17
0.0
 27
1.0
 37
0.0
 76
     0
330
125A7
  0
MATERIAL
  5
15B21
102
{ACAD_XDICTIONARY
360
191FE
102
}
102
{ACAD_REACTORS
330
12AC0
102
}
330
12AC0
100
AcDbMaterial
  1
ByBlock
  0
MATERIAL
  5
15B20
102
{ACAD_XDICTIONARY
360
191FC
102
}
102
{ACAD_REACTORS
330
12AC0
102
}
330
12AC0
100
AcDbMaterial
  1
ByLayer
  0
MATERIAL
  5
15B22
102
{ACAD_XDICTIONARY
360
19200
102
}
102
{ACAD_REACTORS
330
12AC0
102
}
330
12AC0
100
AcDbMaterial
  1
Global
  0
ACAD_PROXY_OBJECT
  5
18CF1
102
{ACAD_REACTORS
330
18CF0
102
}
330
18CF0
100
AcDbProxyObject
 90
      499
 91
      521
 95
   851991
 70
     0
 93
      618
310
40901902A4063FBFFFFFE056BD1B81E855B9FC0AD7A3703D0AD73F4254DD185B99185C990000AD7A3703D0AC73F90141901A02B5E8DC0F42B1CFC02B5E8DC0F42B1CFE5764000000000000300FC0
340
125A4
340
0
340
125A2
340
0
 94
        0
1001
ACAD_MLEADERVER
1070
     2
1001
ACAD
1000
AcRTDxfName
1000
MLEADERSTYLE
  0
MLINESTYLE
  5
125AD
102
{ACAD_REACTORS
330
125A0
102
}
330
125A0
100
AcDbMlineStyle
  2
STANDARD
 70
     0
  3

 62
     0
 51
90.0
 52
90.0
 71
     2
 49
0.5
 62
   256
  6
BYLAYER
 49
-0.5
 62
   256
  6
BYLAYER
  0
ACDBPLACEHOLDER
  5
1297A
102
{ACAD_REACTORS
330
12979
102
}
330
12979
  0
ACAD_PROXY_OBJECT
  5
18CCF
102
{ACAD_REACTORS
330
18CCE
102
}
330
18CCE
100
AcDbProxyObject
 90
      499
 91
      520
 95
   851991
 70
     0
 93
       49
310
904313A31005BF
 94
        0
1001
ACAD
1000
AcRTDxfName
1000
SCALE
  0
ACAD_PROXY_OBJECT
  5
18CD0
102
{ACAD_REACTORS
330
18CCE
102
}
330
18CCE
100
AcDbProxyObject
 90
      499
 91
      520
 95
   851991
 70
     0
 93
      113
310
904313A32004000000000000004001
 94
        0
1001
ACAD
1000
AcRTDxfName
1000
SCALE
  0
ACAD_PROXY_OBJECT
  5
18CD1
102
{ACAD_REACTORS
330
18CCE
102
}
330
18CCE
100
AcDbProxyObject
 90
      499
 91
      520
 95
   851991
 70
     0
 93
      113
310
904313A34004000000000000104001
 94
        0
1001
ACAD
1000
AcRTDxfName
1000
SCALE
  0
ACAD_PROXY_OBJECT
  5
18CD2
102
{ACAD_REACTORS
330
18CCE
102
}
330
18CCE
100
AcDbProxyObject
 90
      499
 91
      520
 95
   851991
 70
     0
 93
      113
310
904313A35004000000000000144001
 94
        0
1001
ACAD
1000
AcRTDxfName
1000
SCALE
  0
ACAD_PROXY_OBJECT
  5
18CD3
102
{ACAD_REACTORS
330
18CCE
102
}
330
18CCE
100
AcDbProxyObject
 90
      499
 91
      520
 95
   851991
 70
     0
 93
      113
310
904313A38004000000000000204001
 94
        0
1001
ACAD
1000
AcRTDxfName
1000
SCALE
  0
ACAD_PROXY_OBJECT
  5
18CD4
102
{ACAD_REACTORS
330
18CCE
102
}
330
18CCE
100
AcDbProxyObject
 90
      499
 91
      520
 95
   851991
 70
     0
 93
      121
310
905313A3130004000000000000244068
 94
        0
1001
ACAD
1000
AcRTDxfName
1000
SCALE
  0
ACAD_PROXY_OBJECT
  5
18CD5
102
{ACAD_REACTORS
330
18CCE
102
}
330
18CCE
100
AcDbProxyObject
 90
      499
 91
      520
 95
   851991
 70
     0
 93
      121
310
905313A3136004000000000000304068
 94
        0
1001
ACAD
1000
AcRTDxfName
1000
SCALE
  0
ACAD_PROXY_OBJECT
  5
18CD6
102
{ACAD_REACTORS
330
18CCE
102
}
330
18CCE
100
AcDbProxyObject
 90
      499
 91
      520
 95
   851991
 70
     0
 93
      121
310
905313A3230004000000000000344068
 94
        0
1001
ACAD
1000
AcRTDxfName
1000
SCALE
  0
ACAD_PROXY_OBJECT
  5
18CD7
102
{ACAD_REACTORS
330
18CCE
102
}
330
18CCE
100
AcDbProxyObject
 90
      499
 91
      520
 95
   851991
 70
     0
 93
      121
310
905313A33300040000000000003E4068
 94
        0
1001
ACAD
1000
AcRTDxfName
1000
SCALE
  0
ACAD_PROXY_OBJECT
  5
18CD8
102
{ACAD_REACTORS
330
18CCE
102
}
330
18CCE
100
AcDbProxyObject
 90
      499
 91
      520
 95
   851991
 70
     0
 93
      121
310
905313A3430004000000000000444068
 94
        0
1001
ACAD
1000
AcRTDxfName
1000
SCALE
  0
ACAD_PROXY_OBJECT
  5
18CD9
102
{ACAD_REACTORS
330
18CCE
102
}
330
18CCE
100
AcDbProxyObject
 90
      499
 91
      520
 95
   851991
 70
     0
 93
      121
310
905313A3530004000000000000494068
 94
        0
1001
ACAD
1000
AcRTDxfName
1000
SCALE
  0
ACAD_PROXY_OBJECT
  5
18CDA
102
{ACAD_REACTORS
330
18CCE
102
}
330
18CCE
100
AcDbProxyObject
 90
      499
 91
      520
 95
   851991
 70
     0
 93
      129
310
906313A313030004000000000000594055
 94
        0
1001
ACAD
1000
AcRTDxfName
1000
SCALE
  0
ACAD_PROXY_OBJECT
  5
18CDB
102
{ACAD_REACTORS
330
18CCE
102
}
330
18CCE
100
AcDbProxyObject
 90
      499
 91
      520
 95
   851991
 70
     0
 93
      113
310
904323A31000000000000000010159
 94
        0
1001
ACAD
1000
AcRTDxfName
1000
SCALE
  0
ACAD_PROXY_OBJECT
  5
18CDC
102
{ACAD_REACTORS
330
18CCE
102
}
330
18CCE
100
AcDbProxyObject
 90
      499
 91
      520
 95
   851991
 70
     0
 93
      113
310
904343A31000000000000000410159
 94
        0
1001
ACAD
1000
AcRTDxfName
1000
SCALE
  0
ACAD_PROXY_OBJECT
  5
18CDD
102
{ACAD_REACTORS
330
18CCE
102
}
330
18CCE
100
AcDbProxyObject
 90
      499
 91
      520
 95
   851991
 70
     0
 93
      113
310
904383A31000000000000000810159
 94
        0
1001
ACAD
1000
AcRTDxfName
1000
SCALE
  0
ACAD_PROXY_OBJECT
  5
18CDE
102
{ACAD_REACTORS
330
18CCE
102
}
330
18CCE
100
AcDbProxyObject
 90
      499
 91
      520
 95
   851991
 70
     0
 93
      121
310
90531303A31000000000000000910140
 94
        0
1001
ACAD
1000
AcRTDxfName
1000
SCALE
  0
ACAD_PROXY_OBJECT
  5
18CDF
102
{ACAD_REACTORS
330
18CCE
102
}
330
18CCE
100
AcDbProxyObject
 90
      499
 91
      520
 95
   851991
 70
     0
 93
      129
310
9063130303A31000000000000001650155
 94
        0
1001
ACAD
1000
AcRTDxfName
1000
SCALE
  0
ACAD_PROXY_OBJECT
  5
18CE0
102
{ACAD_REACTORS
330
18CCE
102
}
330
18CCE
100
AcDbProxyObject
 90
      499
 91
      520
 95
   851991
 70
     0
 93
      265
310
90F312F31323822203D2031272D302200000000000000200FC000000000000284018
 94
        0
1001
ACAD
1000
AcRTDxfName
1000
SCALE
  0
ACAD_PROXY_OBJECT
  5
18CE1
102
{ACAD_REACTORS
330
18CCE
102
}
330
18CCE
100
AcDbProxyObject
 90
      499
 91
      520
 95
   851991
 70
     0
 93
      257
310
90E312F363422203D2031272D302200000000000000240FC000000000000284040
 94
        0
1001
ACAD
1000
AcRTDxfName
1000
SCALE
  0
ACAD_PROXY_OBJECT
  5
18CE2
102
{ACAD_REACTORS
330
18CCE
102
}
330
18CCE
100
AcDbProxyObject
 90
      499
 91
      520
 95
   851991
 70
     0
 93
      257
310
90E312F333222203D2031272D302200000000000000280FC000000000000284040
 94
        0
1001
ACAD
1000
AcRTDxfName
1000
SCALE
  0
ACAD_PROXY_OBJECT
  5
18CE3
102
{ACAD_REACTORS
330
18CCE
102
}
330
18CCE
100
AcDbProxyObject
 90
      499
 91
      520
 95
   851991
 70
     0
 93
      257
310
90E312F313622203D2031272D3022000000000000002C0FC000000000000284040
 94
        0
1001
ACAD
1000
AcRTDxfName
1000
SCALE
  0
ACAD_PROXY_OBJECT
  5
18CE4
102
{ACAD_REACTORS
330
18CCE
102
}
330
18CCE
100
AcDbProxyObject
 90
      499
 91
      520
 95
   851991
 70
     0
 93
      257
310
90E332F333222203D2031272D3022000000000000002E0FC000000000000284040
 94
        0
1001
ACAD
1000
AcRTDxfName
1000
SCALE
  0
ACAD_PROXY_OBJECT
  5
18CE5
102
{ACAD_REACTORS
330
18CCE
102
}
330
18CCE
100
AcDbProxyObject
 90
      499
 91
      520
 95
   851991
 70
     0
 93
      249
310
90D312F3822203D2031272D302200000000000000300FC000000000000284040
 94
        0
1001
ACAD
1000
AcRTDxfName
1000
SCALE
  0
ACAD_PROXY_OBJECT
  5
18CE6
102
{ACAD_REACTORS
330
18CCE
102
}
330
18CCE
100
AcDbProxyObject
 90
      499
 91
      520
 95
   851991
 70
     0
 93
      257
310
90E332F313622203D2031272D302200000000000000320FC000000000000284040
 94
        0
1001
ACAD
1000
AcRTDxfName
1000
SCALE
  0
ACAD_PROXY_OBJECT
  5
18CE7
102
{ACAD_REACTORS
330
18CCE
102
}
330
18CCE
100
AcDbProxyObject
 90
      499
 91
      520
 95
   851991
 70
     0
 93
      249
310
90D312F3422203D2031272D302200000000000000340FC000000000000284040
 94
        0
1001
ACAD
1000
AcRTDxfName
1000
SCALE
  0
ACAD_PROXY_OBJECT
  5
18CE8
102
{ACAD_REACTORS
330
18CCE
102
}
330
18CCE
100
AcDbProxyObject
 90
      499
 91
      520
 95
   851991
 70
     0
 93
      249
310
90D332F3822203D2031272D302200000000000000360FC000000000000284040
 94
        0
1001
ACAD
1000
AcRTDxfName
1000
SCALE
  0
ACAD_PROXY_OBJECT
  5
18CE9
102
{ACAD_REACTORS
330
18CCE
102
}
330
18CCE
100
AcDbProxyObject
 90
      499
 91
      520
 95
   851991
 70
     0
 93
      249
310
90D312F3222203D2031272D302200000000000000380FC000000000000284040
 94
        0
1001
ACAD
1000
AcRTDxfName
1000
SCALE
  0
ACAD_PROXY_OBJECT
  5
18CEA
102
{ACAD_REACTORS
330
18CCE
102
}
330
18CCE
100
AcDbProxyObject
 90
      499
 91
      520
 95
   851991
 70
     0
 93
      249
310
90D332F3422203D2031272D3022000000000000003A0FC000000000000284040
 94
        0
1001
ACAD
1000
AcRTDxfName
1000
SCALE
  0
ACAD_PROXY_OBJECT
  5
18CEB
102
{ACAD_REACTORS
330
18CCE
102
}
330
18CCE
100
AcDbProxyObject
 90
      499
 91
      520
 95
   851991
 70
     0
 93
      169
310
90B3122203D2031272D3022004000000000000284020
 94
        0
1001
ACAD
1000
AcRTDxfName
1000
SCALE
  0
ACAD_PROXY_OBJECT
  5
18CEC
102
{ACAD_REACTORS
330
18CCE
102
}
330
18CCE
100
AcDbProxyObject
 90
      499
 91
      520
 95
   851991
 70
     0
 93
      265
310
90F312D312F3222203D2031272D3022000000000000003E0FC000000000000284018
 94
        0
1001
ACAD
1000
AcRTDxfName
1000
SCALE
  0
ACAD_PROXY_OBJECT
  5
18CED
102
{ACAD_REACTORS
330
18CCE
102
}
330
18CCE
100
AcDbProxyObject
 90
      499
 91
      520
 95
   851991
 70
     0
 93
      233
310
90B3322203D2031272D30220000000000000002100000000000000284000
 94
        0
1001
ACAD
1000
AcRTDxfName
1000
SCALE
  0
ACAD_PROXY_OBJECT
  5
18CEE
102
{ACAD_REACTORS
330
18CCE
102
}
330
18CCE
100
AcDbProxyObject
 90
      499
 91
      520
 95
   851991
 70
     0
 93
      233
310
90B3622203D2031272D30220000000000000006100000000000000284000
 94
        0
1001
ACAD
1000
AcRTDxfName
1000
SCALE
  0
ACAD_PROXY_OBJECT
  5
18CEF
102
{ACAD_REACTORS
330
18CCE
102
}
330
18CCE
100
AcDbProxyObject
 90
      499
 91
      520
 95
   851991
 70
     0
 93
      257
310
90E31272D3022203D2031272D3022000000000000000A100000000000000284040
 94
        0
1001
ACAD
1000
AcRTDxfName
1000
SCALE
  0
TABLESTYLE
  5
15B35
102
{ACAD_XDICTIONARY
360
18D07
102
}
102
{ACAD_REACTORS
330
15B34
102
}
330
15B34
100
AcDbTableStyle
  3
Standard
 70
     0
 71
     0
 40
0.06
 41
0.06
280
     0
281
     0
  7
STANDARD
140
0.18
170
     2
 62
     0
 63
     7
283
     0
274
    -2
284
     1
 64
     0
275
    -2
285
     1
 65
     0
276
    -2
286
     1
 66
     0
277
    -2
287
     1
 67
     0
278
    -2
288
     1
 68
     0
279
    -2
289
     1
 69
     0
  7
STANDARD
140
0.25
170
     5
 62
     0
 63
     7
283
     0
274
    -2
284
     1
 64
     0
275
    -2
285
     1
 65
     0
276
    -2
286
     1
 66
     0
277
    -2
287
     1
 67
     0
278
    -2
288
     1
 68
     0
279
    -2
289
     1
 69
     0
  7
STANDARD
140
0.18
170
     5
 62
     0
 63
     7
283
     0
274
    -2
284
     1
 64
     0
275
    -2
285
     1
 65
     0
276
    -2
286
     1
 66
     0
277
    -2
287
     1
 67
     0
278
    -2
288
     1
 68
     0
279
    -2
289
     1
 69
     0
1001
ACAD
1000
AcRTDxfName
1000
TABLESTYLE
1000
AcRTDxfName
1000
TABLESTYLE
  0
VISUALSTYLE
  5
15B29
102
{ACAD_XDICTIONARY
360
18D20
102
}
102
{ACAD_REACTORS
330
15B23
102
}
330
15B23
100
AcDbVisualStyle
  2
2dWireframe
 70
     4
 71
     0
 72
     2
 73
     0
 90
        0
 40
-0.6
 41
-30.0
 62
     5
 63
     7
 74
     1
 91
        4
 64
     7
 65
   257
 75
     1
175
     1
 42
1.0
 92
        0
 66
   257
 43
1.0
 76
     1
 77
     6
 78
     2
 67
     7
 79
     5
170
     0
171
     0
290
     0
174
     0
 93
        1
 44
0.0
173
     0
291
     0
 45
0.0
1001
ACAD
1000
AcRTDxfName
1000
VISUALSTYLE
1000
AcRTDxfName
1000
VISUALSTYLE
1000
AcDbSavedByObjectVersion
1070
     0
  0
VISUALSTYLE
  5
15B2B
102
{ACAD_XDICTIONARY
360
18D24
102
}
102
{ACAD_REACTORS
330
15B23
102
}
330
15B23
100
AcDbVisualStyle
  2
3D Hidden
 70
     6
 71
     1
 72
     2
 73
     2
 90
        0
 40
-0.6
 41
-30.0
 62
     5
 63
     7
 74
     2
 91
        2
 64
     7
 65
   257
 75
     2
175
     1
 42
40.0
 92
        0
 66
   257
 43
1.0
 76
     1
 77
     6
 78
     2
 67
     7
 79
     3
170
     0
171
     0
290
     0
174
     0
 93
        1
 44
0.0
173
     0
291
     0
 45
0.0
1001
ACAD
1000
AcRTDxfName
1000
VISUALSTYLE
1000
AcRTDxfName
1000
VISUALSTYLE
1000
AcDbSavedByObjectVersion
1070
     0
  0
VISUALSTYLE
  5
15B2A
102
{ACAD_XDICTIONARY
360
18D22
102
}
102
{ACAD_REACTORS
330
15B23
102
}
330
15B23
100
AcDbVisualStyle
  2
3dWireframe
 70
     5
 71
     0
 72
     2
 73
     0
 90
        0
 40
-0.6
 41
-30.0
 62
     5
 63
     7
 74
     1
 91
        4
 64
     7
 65
   257
 75
     1
175
     1
 42
1.0
 92
        0
 66
   257
 43
1.0
 76
     1
 77
     6
 78
     2
 67
     7
 79
     5
170
     0
171
     0
290
     0
174
     0
 93
        1
 44
0.0
173
     0
291
     0
 45
0.0
1001
ACAD
1000
AcRTDxfName
1000
VISUALSTYLE
1000
AcRTDxfName
1000
VISUALSTYLE
1000
AcDbSavedByObjectVersion
1070
     0
  0
VISUALSTYLE
  5
15B28
102
{ACAD_XDICTIONARY
360
18D1E
102
}
102
{ACAD_REACTORS
330
15B23
102
}
330
15B23
100
AcDbVisualStyle
  2
Basic
 70
     7
 71
     1
 72
     0
 73
     1
 90
        0
 40
-0.6
 41
-30.0
 62
     5
 63
     7
 74
     0
 91
        4
 64
     7
 65
   257
 75
     1
175
     1
 42
1.0
 92
        8
 66
     7
 43
1.0
 76
     1
 77
     6
 78
     2
 67
     7
 79
     5
170
     0
171
     0
290
     0
174
     0
 93
        1
 44
0.0
173
     0
291
     1
 45
0.0
1001
ACAD
1000
AcRTDxfName
1000
VISUALSTYLE
1000
AcRTDxfName
1000
VISUALSTYLE
1000
AcDbSavedByObjectVersion
1070
     0
  0
VISUALSTYLE
  5
15B2F
102
{ACAD_XDICTIONARY
360
18D2C
102
}
102
{ACAD_REACTORS
330
15B23
102
}
330
15B23
100
AcDbVisualStyle
  2
Brighten
 70
    12
 71
     2
 72
     2
 73
     0
 90
        0
 40
-0.6
 41
-30.0
 62
     5
 63
     7
 74
     1
 91
        4
 64
     7
 65
   257
 75
     1
175
     1
 42
1.0
 92
        8
 66
     7
 43
1.0
 76
     1
 77
     6
 78
     2
 67
     7
 79
     5
170
     0
171
     0
290
     0
174
     0
 93
        1
 44
50.0
173
     0
291
     1
 45
0.0
1001
ACAD
1000
AcRTDxfName
1000
VISUALSTYLE
1000
AcRTDxfName
1000
VISUALSTYLE
1000
AcDbSavedByObjectVersion
1070
     0
  0
VISUALSTYLE
  5
15B33
102
{ACAD_XDICTIONARY
360
18D34
102
}
102
{ACAD_REACTORS
330
15B23
102
}
330
15B23
100
AcDbVisualStyle
  2
ColorChange
 70
    16
 71
     2
 72
     2
 73
     3
 90
        0
 40
-0.6
 41
-30.0
 62
     5
 63
     8
 74
     1
 91
        4
 64
     7
 65
   257
 75
     1
175
     1
 42
1.0
 92
        8
 66
     8
 43
1.0
 76
     1
 77
     6
 78
     2
 67
     7
 79
     5
170
     0
171
     0
290
     0
174
     0
 93
        1
 44
0.0
173
     0
291
     1
 45
0.0
1001
ACAD
1000
AcRTDxfName
1000
VISUALSTYLE
1000
AcRTDxfName
1000
VISUALSTYLE
1000
AcDbSavedByObjectVersion
1070
     0
  0
VISUALSTYLE
  5
15B2C
102
{ACAD_XDICTIONARY
360
18D26
102
}
102
{ACAD_REACTORS
330
15B23
102
}
330
15B23
100
AcDbVisualStyle
  2
Conceptual
 70
     9
 71
     3
 72
     2
 73
     0
 90
        0
 40
-0.6
 41
-30.0
 62
     5
 63
     7
 74
     2
 91
        2
 64
     7
 65
   257
 75
     1
175
     1
 42
40.0
 92
        8
 66
     7
 43
1.0
 76
     1
 77
     6
 78
     2
 67
     7
 79
     3
170
     0
171
     0
290
     0
174
     0
 93
        1
 44
0.0
173
     0
291
     0
 45
0.0
1001
ACAD
1000
AcRTDxfName
1000
VISUALSTYLE
1000
AcRTDxfName
1000
VISUALSTYLE
1000
AcDbSavedByObjectVersion
1070
     0
  0
VISUALSTYLE
  5
15B2E
102
{ACAD_XDICTIONARY
360
18D2A
102
}
102
{ACAD_REACTORS
330
15B23
102
}
330
15B23
100
AcDbVisualStyle
  2
Dim
 70
    11
 71
     2
 72
     2
 73
     0
 90
        0
 40
-0.6
 41
-30.0
 62
     5
 63
     7
 74
     1
 91
        4
 64
     7
 65
   257
 75
     1
175
     1
 42
1.0
 92
        8
 66
     7
 43
1.0
 76
     1
 77
     6
 78
     2
 67
     7
 79
     5
170
     0
171
     0
290
     0
174
     0
 93
        1
 44
-50.0
173
     0
291
     1
 45
0.0
1001
ACAD
1000
AcRTDxfName
1000
VISUALSTYLE
1000
AcRTDxfName
1000
VISUALSTYLE
1000
AcDbSavedByObjectVersion
1070
     0
  0
VISUALSTYLE
  5
18CCD
102
{ACAD_XDICTIONARY
360
18D3B
102
}
102
{ACAD_REACTORS
330
15B23
102
}
330
15B23
100
AcDbVisualStyle
  2
EdgeColorOff
 70
    22
 71
     2
 72
     2
 73
     0
 90
        0
 40
-0.6
 41
-30.0
 62
     5
 63
     7
 74
     1
 91
        4
 64
     7
 65
   257
 75
     1
175
     1
 42
1.0
 92
        8
 66
     7
 43
1.0
 76
     1
 77
     6
 78
     2
 67
     7
 79
     5
170
     0
171
     0
290
     0
174
     0
 93
        1
 44
0.0
173
     0
291
     1
 45
0.0
1001
ACAD
1000
AcDbSavedByObjectVersion
1070
     0
  0
VISUALSTYLE
  5
15B32
102
{ACAD_XDICTIONARY
360
18D32
102
}
102
{ACAD_REACTORS
330
15B23
102
}
330
15B23
100
AcDbVisualStyle
  2
Facepattern
 70
    15
 71
     2
 72
     2
 73
     0
 90
        0
 40
-0.6
 41
-30.0
 62
     5
 63
     7
 74
     1
 91
        4
 64
     7
 65
   257
 75
     1
175
     1
 42
1.0
 92
        8
 66
     7
 43
1.0
 76
     1
 77
     6
 78
     2
 67
     7
 79
     5
170
     0
171
     0
290
     0
174
     0
 93
        1
 44
0.0
173
     0
291
     1
 45
0.0
1001
ACAD
1000
AcRTDxfName
1000
VISUALSTYLE
1000
AcRTDxfName
1000
VISUALSTYLE
1000
AcDbSavedByObjectVersion
1070
     0
  0
VISUALSTYLE
  5
15B24
102
{ACAD_XDICTIONARY
360
18D16
102
}
102
{ACAD_REACTORS
330
15B23
102
}
330
15B23
100
AcDbVisualStyle
  2
Flat
 70
     0
 71
     2
 72
     1
 73
     1
 90
        2
 40
-0.6
 41
30.0
 62
     5
 63
     7
 74
     0
 91
        4
 64
     7
 65
   257
 75
     1
175
     1
 42
1.0
 92
        8
 66
     7
 43
1.0
 76
     1
 77
     6
 78
     2
 67
     7
 79
     5
170
     0
171
     0
290
     0
174
     0
 93
       13
 44
0.0
173
     0
291
     1
 45
0.0
1001
ACAD
1000
AcRTDxfName
1000
VISUALSTYLE
1000
AcRTDxfName
1000
VISUALSTYLE
1000
AcDbSavedByObjectVersion
1070
     0
  0
VISUALSTYLE
  5
15B25
102
{ACAD_XDICTIONARY
360
18D18
102
}
102
{ACAD_REACTORS
330
15B23
102
}
330
15B23
100
AcDbVisualStyle
  2
FlatWithEdges
 70
     1
 71
     2
 72
     1
 73
     1
 90
        2
 40
-0.6
 41
30.0
 62
     5
 63
     7
 74
     1
 91
        4
 64
     7
 65
   257
 75
     1
175
     1
 42
1.0
 92
        0
 66
   257
 43
1.0
 76
     1
 77
     6
 78
     2
 67
     7
 79
     5
170
     0
171
     0
290
     0
174
     0
 93
       13
 44
0.0
173
     0
291
     1
 45
0.0
1001
ACAD
1000
AcRTDxfName
1000
VISUALSTYLE
1000
AcRTDxfName
1000
VISUALSTYLE
1000
AcDbSavedByObjectVersion
1070
     0
  0
VISUALSTYLE
  5
15B26
102
{ACAD_XDICTIONARY
360
18D1A
102
}
102
{ACAD_REACTORS
330
15B23
102
}
330
15B23
100
AcDbVisualStyle
  2
Gouraud
 70
     2
 71
     2
 72
     2
 73
     1
 90
        2
 40
-0.6
 41
30.0
 62
     5
 63
     7
 74
     0
 91
        4
 64
     7
 65
   257
 75
     1
175
     1
 42
1.0
 92
        0
 66
     7
 43
1.0
 76
     1
 77
     6
 78
     2
 67
     7
 79
     5
170
     0
171
     0
290
     0
174
     0
 93
       13
 44
0.0
173
     0
291
     1
 45
0.0
1001
ACAD
1000
AcRTDxfName
1000
VISUALSTYLE
1000
AcRTDxfName
1000
VISUALSTYLE
1000
AcDbSavedByObjectVersion
1070
     0
  0
VISUALSTYLE
  5
15B27
102
{ACAD_XDICTIONARY
360
18D1C
102
}
102
{ACAD_REACTORS
330
15B23
102
}
330
15B23
100
AcDbVisualStyle
  2
GouraudWithEdges
 70
     3
 71
     2
 72
     2
 73
     1
 90
        2
 40
-0.6
 41
30.0
 62
     5
 63
     7
 74
     1
 91
        4
 64
     7
 65
   257
 75
     1
175
     1
 42
1.0
 92
        0
 66
   257
 43
1.0
 76
     1
 77
     6
 78
     2
 67
     7
 79
     5
170
     0
171
     0
290
     0
174
     0
 93
       13
 44
0.0
173
     0
291
     1
 45
0.0
1001
ACAD
1000
AcRTDxfName
1000
VISUALSTYLE
1000
AcRTDxfName
1000
VISUALSTYLE
1000
AcDbSavedByObjectVersion
1070
     0
  0
VISUALSTYLE
  5
18CCB
102
{ACAD_XDICTIONARY
360
18D37
102
}
102
{ACAD_REACTORS
330
15B23
102
}
330
15B23
100
AcDbVisualStyle
  2
JitterOff
 70
    20
 71
     2
 72
     2
 73
     0
 90
        0
 40
-0.6
 41
-30.0
 62
     5
 63
     7
 74
     1
 91
        4
 64
     7
 65
   257
 75
     1
175
     1
 42
1.0
 92
       10
 66
     7
 43
1.0
 76
     1
 77
     6
 78
     2
 67
     7
 79
     5
170
     0
171
     0
290
     0
174
     0
 93
        1
 44
0.0
173
     0
291
     1
 45
0.0
1001
ACAD
1000
AcDbSavedByObjectVersion
1070
     0
  0
VISUALSTYLE
  5
15B31
102
{ACAD_XDICTIONARY
360
18D30
102
}
102
{ACAD_REACTORS
330
15B23
102
}
330
15B23
100
AcDbVisualStyle
  2
Linepattern
 70
    14
 71
     2
 72
     2
 73
     0
 90
        0
 40
-0.6
 41
-30.0
 62
     5
 63
     7
 74
     1
 91
        4
 64
     7
 65
   257
 75
     7
175
     7
 42
1.0
 92
        8
 66
     7
 43
1.0
 76
     1
 77
     6
 78
     2
 67
     7
 79
     5
170
     0
171
     0
290
     0
174
     0
 93
        1
 44
0.0
173
     0
291
     1
 45
0.0
1001
ACAD
1000
AcRTDxfName
1000
VISUALSTYLE
1000
AcRTDxfName
1000
VISUALSTYLE
1000
AcDbSavedByObjectVersion
1070
     0
  0
VISUALSTYLE
  5
18CCC
102
{ACAD_XDICTIONARY
360
18D39
102
}
102
{ACAD_REACTORS
330
15B23
102
}
330
15B23
100
AcDbVisualStyle
  2
OverhangOff
 70
    21
 71
     2
 72
     2
 73
     0
 90
        0
 40
-0.6
 41
-30.0
 62
     5
 63
     7
 74
     1
 91
        4
 64
     7
 65
   257
 75
     1
175
     1
 42
1.0
 92
        9
 66
     7
 43
1.0
 76
     1
 77
     6
 78
     2
 67
     7
 79
     5
170
     0
171
     0
290
     0
174
     0
 93
        1
 44
0.0
173
     0
291
     1
 45
0.0
1001
ACAD
1000
AcDbSavedByObjectVersion
1070
     0
  0
VISUALSTYLE
  5
15B2D
102
{ACAD_XDICTIONARY
360
18D28
102
}
102
{ACAD_REACTORS
330
15B23
102
}
330
15B23
100
AcDbVisualStyle
  2
Realistic
 70
     8
 71
     2
 72
     2
 73
     0
 90
        0
 40
-0.6
 41
-30.0
 62
     5
 63
     7
 74
     1
 91
        0
 64
     7
 65
   257
 75
     1
175
     1
 42
1.0
 92
        8
 66
     8
 43
1.0
 76
     1
 77
     6
 78
     2
 67
     7
 79
     5
170
     0
171
     0
290
     0
174
     0
 93
       13
 44
0.0
173
     0
291
     0
 45
0.0
1001
ACAD
1000
AcRTDxfName
1000
VISUALSTYLE
1000
AcRTDxfName
1000
VISUALSTYLE
1000
AcDbSavedByObjectVersion
1070
     0
  0
VISUALSTYLE
  5
15B30
102
{ACAD_XDICTIONARY
360
18D2E
102
}
102
{ACAD_REACTORS
330
15B23
102
}
330
15B23
100
AcDbVisualStyle
  2
Thicken
 70
    13
 71
     2
 72
     2
 73
     0
 90
        0
 40
-0.6
 41
-30.0
 62
     5
 63
     7
 74
     1
 91
        4
 64
     7
 65
   257
 75
     1
175
     1
 42
1.0
 92
       12
 66
     7
 43
1.0
 76
     1
 77
     6
 78
     2
 67
     7
 79
     5
170
     0
171
     0
290
     0
174
     0
 93
        1
 44
0.0
173
     0
291
     1
 45
0.0
1001
ACAD
1000
AcRTDxfName
1000
VISUALSTYLE
1000
AcRTDxfName
1000
VISUALSTYLE
1000
AcDbSavedByObjectVersion
1070
     0
  0
DICTIONARYVAR
  5
18D3F
102
{ACAD_REACTORS
330
13B02
102
}
330
13B02
100
DictionaryVariables
280
     0
  1
1:1
  0
DICTIONARYVAR
  5
18D3E
102
{ACAD_REACTORS
330
13B02
102
}
330
13B02
100
DictionaryVariables
280
     0
  1
STANDARD
  0
DICTIONARYVAR
  5
15C50
102
{ACAD_REACTORS
330
13B02
102
}
330
13B02
100
DictionaryVariables
280
     0
  1
STANDARD
  0
DICTIONARYVAR
  5
13B03
102
{ACAD_REACTORS
330
13B02
102
}
330
13B02
100
DictionaryVariables
280
     0
  1
1
  0
DICTIONARYVAR
  5
15C52
102
{ACAD_REACTORS
330
13B02
102
}
330
13B02
100
DictionaryVariables
280
     0
  1
0
  0
DICTIONARYVAR
  5
13B04
102
{ACAD_REACTORS
330
13B02
102
}
330
13B02
100
DictionaryVariables
280
     0
  1

  0
DICTIONARYVAR
  5
15C51
102
{ACAD_REACTORS
330
13B02
102
}
330
13B02
100
DictionaryVariables
280
     0
  1
127
  0
DICTIONARYVAR
  5
18D40
102
{ACAD_REACTORS
330
13B02
102
}
330
13B02
100
DictionaryVariables
280
     0
  1
0
  0
DICTIONARY
  5
191F8
330
1297D
100
AcDbDictionary
280
     1
281
     1
  3
ACAD_XREC_ROUNDTRIP
360
191F9
  0
DICTIONARY
  5
191FA
330
1297E
100
AcDbDictionary
280
     1
281
     1
  3
ACAD_XREC_ROUNDTRIP
360
191FB
  0
DICTIONARY
  5
191FE
330
15B21
100
AcDbDictionary
280
     1
281
     1
  3
ACAD_XREC_ROUNDTRIP
360
191FF
  0
DICTIONARY
  5
191FC
330
15B20
100
AcDbDictionary
280
     1
281
     1
  3
ACAD_XREC_ROUNDTRIP
360
191FD
  0
DICTIONARY
  5
19200
330
15B22
100
AcDbDictionary
280
     1
281
     1
  3
ACAD_XREC_ROUNDTRIP
360
19201
  0
DICTIONARY
  5
18D07
330
15B35
100
AcDbDictionary
280
     1
281
     1
  3
ACAD_ROUNDTRIP_2008_TABLESTYLE_CELLSTYLEMAP
360
18D08
  3
ACAD_XREC_ROUNDTRIP
360
19202
  0
DICTIONARY
  5
18D20
330
15B29
100
AcDbDictionary
280
     1
281
     1
  3
ACAD_XREC_ROUNDTRIP
360
18D21
  0
DICTIONARY
  5
18D24
330
15B2B
100
AcDbDictionary
280
     1
281
     1
  3
ACAD_XREC_ROUNDTRIP
360
18D25
  0
DICTIONARY
  5
18D22
330
15B2A
100
AcDbDictionary
280
     1
281
     1
  3
ACAD_XREC_ROUNDTRIP
360
18D23
  0
DICTIONARY
  5
18D1E
330
15B28
100
AcDbDictionary
280
     1
281
     1
  3
ACAD_XREC_ROUNDTRIP
360
18D1F
  0
DICTIONARY
  5
18D2C
330
15B2F
100
AcDbDictionary
280
     1
281
     1
  3
ACAD_XREC_ROUNDTRIP
360
18D2D
  0
DICTIONARY
  5
18D34
330
15B33
100
AcDbDictionary
280
     1
281
     1
  3
ACAD_XREC_ROUNDTRIP
360
18D35
  0
DICTIONARY
  5
18D26
330
15B2C
100
AcDbDictionary
280
     1
281
     1
  3
ACAD_XREC_ROUNDTRIP
360
18D27
  0
DICTIONARY
  5
18D2A
330
15B2E
100
AcDbDictionary
280
     1
281
     1
  3
ACAD_XREC_ROUNDTRIP
360
18D2B
  0
DICTIONARY
  5
18D3B
330
18CCD
100
AcDbDictionary
280
     1
281
     1
  3
ACAD_XREC_ROUNDTRIP
360
18D3C
  0
DICTIONARY
  5
18D32
330
15B32
100
AcDbDictionary
280
     1
281
     1
  3
ACAD_XREC_ROUNDTRIP
360
18D33
  0
DICTIONARY
  5
18D16
330
15B24
100
AcDbDictionary
280
     1
281
     1
  3
ACAD_XREC_ROUNDTRIP
360
18D17
  0
DICTIONARY
  5
18D18
330
15B25
100
AcDbDictionary
280
     1
281
     1
  3
ACAD_XREC_ROUNDTRIP
360
18D19
  0
DICTIONARY
  5
18D1A
330
15B26
100
AcDbDictionary
280
     1
281
     1
  3
ACAD_XREC_ROUNDTRIP
360
18D1B
  0
DICTIONARY
  5
18D1C
330
15B27
100
AcDbDictionary
280
     1
281
     1
  3
ACAD_XREC_ROUNDTRIP
360
18D1D
  0
DICTIONARY
  5
18D37
330
18CCB
100
AcDbDictionary
280
     1
281
     1
  3
ACAD_XREC_ROUNDTRIP
360
18D38
  0
DICTIONARY
  5
18D30
330
15B31
100
AcDbDictionary
280
     1
281
     1
  3
ACAD_XREC_ROUNDTRIP
360
18D31
  0
DICTIONARY
  5
18D39
330
18CCC
100
AcDbDictionary
280
     1
281
     1
  3
ACAD_XREC_ROUNDTRIP
360
18D3A
  0
DICTIONARY
  5
18D28
330
15B2D
100
AcDbDictionary
280
     1
281
     1
  3
ACAD_XREC_ROUNDTRIP
360
18D29
  0
DICTIONARY
  5
18D2E
330
15B30
100
AcDbDictionary
280
     1
281
     1
  3
ACAD_XREC_ROUNDTRIP
360
18D2F
  0
XRECORD
  5
191F9
102
{ACAD_REACTORS
330
191F8
102
}
330
191F8
100
AcDbXrecord
280
     1
102
SHADEPLOT
 70
     1
102
SHADEPLOTRESLEVEL
 70
     2
102
SHADEPLOTCUSTOMDPI
 70
   300
  0
XRECORD
  5
191FB
102
{ACAD_REACTORS
330
191FA
102
}
330
191FA
100
AcDbXrecord
280
     1
102
SHADEPLOT
 70
     0
102
SHADEPLOTRESLEVEL
 70
     2
102
SHADEPLOTCUSTOMDPI
 70
   300
  0
XRECORD
  5
191FF
102
{ACAD_REACTORS
330
191FE
102
}
330
191FE
100
AcDbXrecord
280
     1
102
MATERIAL
148
0.0
149
0.0
149
0.0
 93
        0
 94
       63
282
     0
 72
     1
 77
     1
171
     1
175
     1
179
     1
273
     0
  0
XRECORD
  5
191FD
102
{ACAD_REACTORS
330
191FC
102
}
330
191FC
100
AcDbXrecord
280
     1
102
MATERIAL
148
0.0
149
0.0
149
0.0
 93
        0
 94
       63
282
     0
 72
     1
 77
     1
171
     1
175
     1
179
     1
273
     0
  0
XRECORD
  5
19201
102
{ACAD_REACTORS
330
19200
102
}
330
19200
100
AcDbXrecord
280
     1
102
MATERIAL
148
0.0
149
0.0
149
0.0
 93
        0
 94
       63
282
     0
 72
     1
 77
     1
171
     1
175
     1
179
     1
273
     0
  0
ACAD_PROXY_OBJECT
  5
18D08
102
{ACAD_REACTORS
330
18D07
102
}
330
18D07
100
AcDbProxyObject
 90
      499
 91
      522
 95
   851991
 70
     0
 93
     4092
310
40D054060020000020000003200101A000080002A5058000000C100000000000000340FE419019018000000C1003FBFFFFFE02B5E8DC0F42A9CFD029018000000C1003FBFFFFFE02B5E8DC0F42A9CFD049018000000C1003FBFFFFFE02B5E8DC0F42A9CFD089018000000C1003FBFFFFFE02B5E8DC0F42A9CFD10901800000
310
0C1003FBFFFFFE02B5E8DC0F42A9CFD209018000000C1003FBFFFFFE02B5E8DC0F42A9CFD01405075F5449544C450041501A8000000C800406800020000A9416000000304000AD7A3703D0AC73F90640640600000030400FEFFFFFF80AD7A3703D0AA73F40A40600000030400FEFFFFFF80AD7A3703D0AA73F412406000000
310
30400FEFFFFFF80AD7A3703D0AA73F42240600000030400FEFFFFFF80AD7A3703D0AA73F44240600000030400FEFFFFFF80AD7A3703D0AA73F48240600000030400FEFFFFFF80AD7A3703D0AA73F409014217D2115051115480105406A0000003200101A000080002A5028000000C10002B5E8DC0F42B1CFE4190190180000
310
00C1003FBFFFFFE02B5E8DC0F42A9CFD029018000000C1003FBFFFFFE02B5E8DC0F42A9CFD049018000000C1003FBFFFFFE02B5E8DC0F42A9CFD089018000000C1003FBFFFFFE02B5E8DC0F42A9CFD109018000000C1003FBFFFFFE02B5E8DC0F42A9CFD209018000000C1003FBFFFFFE02B5E8DC0F42A9CFD03409065F444
310
15441000
340
125A2
340
0
340
0
340
0
340
0
340
0
340
0
340
125A2
340
0
340
0
340
0
340
0
340
0
340
0
340
125A2
340
0
340
0
340
0
340
0
340
0
340
0
 94
        0
1001
ACAD
1000
AcRTDxfName
1000
CELLSTYLEMAP
  0
XRECORD
  5
19202
102
{ACAD_REACTORS
330
18D07
102
}
330
18D07
100
AcDbXrecord
280
     1
102
ACAD_ROUNDTRIP_PRE2007_TABLESTYLE
 90
      512
 91
        0
  1

 92
      512
 93
        0
  2

 94
      512
 95
        0
  3

  0
XRECORD
  5
18D21
102
{ACAD_REACTORS
330
18D20
102
}
330
18D20
100
AcDbXrecord
280
     1
102
RTVSPropertyOp0
 70
     1
102
RTVSPropertyOp1
 70
     1
102
RTVSPropertyOp2
 70
     1
102
RTVSPropertyOp3
 70
     1
102
RTVSPropertyOp4
 70
     1
102
RTVSPropertyOp5
 70
     1
102
RTVSPropertyOp6
 70
     1
102
RTVSPropertyOp7
 70
     1
102
RTVSPropertyOp8
 70
     1
102
RTVSPropertyOp9
 70
     1
102
RTVSPropertyOp10
 70
     1
102
RTVSPropertyOp11
 70
     1
102
RTVSPropertyOp12
 70
     1
102
RTVSPropertyOp13
 70
     1
102
RTVSPropertyOp14
 70
     1
102
RTVSPropertyOp15
 70
     1
102
RTVSPropertyOp16
 70
     1
102
RTVSPropertyOp17
 70
     1
102
RTVSPropertyOp18
 70
     1
102
RTVSPropertyOp19
 70
     1
102
RTVSPropertyOp20
 70
     1
102
RTVSPropertyOp21
 70
     1
102
RTVSPropertyOp22
 70
     1
102
RTVSPropertyOp23
 70
     1
102
RTVSPropertyOp24
 70
     1
102
RTVSPropertyOp25
 70
     1
102
RTVSPropertyOp26
 70
     1
102
RTVSPropertyOp27
 70
     1
  0
XRECORD
  5
18D25
102
{ACAD_REACTORS
330
18D24
102
}
330
18D24
100
AcDbXrecord
280
     1
102
RTVSPropertyOp0
 70
     1
102
RTVSPropertyOp1
 70
     1
102
RTVSPropertyOp2
 70
     1
102
RTVSPropertyOp3
 70
     1
102
RTVSPropertyOp4
 70
     1
102
RTVSPropertyOp5
 70
     1
102
RTVSPropertyOp6
 70
     1
102
RTVSPropertyOp7
 70
     1
102
RTVSPropertyOp8
 70
     1
102
RTVSPropertyOp9
 70
     1
102
RTVSPropertyOp10
 70
     1
102
RTVSPropertyOp11
 70
     1
102
RTVSPropertyOp12
 70
     1
102
RTVSPropertyOp13
 70
     1
102
RTVSPropertyOp14
 70
     1
102
RTVSPropertyOp15
 70
     1
102
RTVSPropertyOp16
 70
     1
102
RTVSPropertyOp17
 70
     1
102
RTVSPropertyOp18
 70
     1
102
RTVSPropertyOp19
 70
     1
102
RTVSPropertyOp20
 70
     1
102
RTVSPropertyOp21
 70
     1
102
RTVSPropertyOp22
 70
     1
102
RTVSPropertyOp23
 70
     1
102
RTVSPropertyOp24
 70
     1
102
RTVSPropertyOp25
 70
     1
102
RTVSPropertyOp26
 70
     1
102
RTVSPropertyOp27
 70
     1
  0
XRECORD
  5
18D23
102
{ACAD_REACTORS
330
18D22
102
}
330
18D22
100
AcDbXrecord
280
     1
102
RTVSPropertyOp0
 70
     1
102
RTVSPropertyOp1
 70
     1
102
RTVSPropertyOp2
 70
     1
102
RTVSPropertyOp3
 70
     1
102
RTVSPropertyOp4
 70
     1
102
RTVSPropertyOp5
 70
     1
102
RTVSPropertyOp6
 70
     1
102
RTVSPropertyOp7
 70
     1
102
RTVSPropertyOp8
 70
     1
102
RTVSPropertyOp9
 70
     1
102
RTVSPropertyOp10
 70
     1
102
RTVSPropertyOp11
 70
     1
102
RTVSPropertyOp12
 70
     1
102
RTVSPropertyOp13
 70
     1
102
RTVSPropertyOp14
 70
     1
102
RTVSPropertyOp15
 70
     1
102
RTVSPropertyOp16
 70
     1
102
RTVSPropertyOp17
 70
     1
102
RTVSPropertyOp18
 70
     1
102
RTVSPropertyOp19
 70
     1
102
RTVSPropertyOp20
 70
     1
102
RTVSPropertyOp21
 70
     1
102
RTVSPropertyOp22
 70
     1
102
RTVSPropertyOp23
 70
     1
102
RTVSPropertyOp24
 70
     1
102
RTVSPropertyOp25
 70
     1
102
RTVSPropertyOp26
 70
     1
102
RTVSPropertyOp27
 70
     1
  0
XRECORD
  5
18D1F
102
{ACAD_REACTORS
330
18D1E
102
}
330
18D1E
100
AcDbXrecord
280
     1
102
RTVSPropertyOp0
 70
     1
102
RTVSPropertyOp1
 70
     1
102
RTVSPropertyOp2
 70
     1
102
RTVSPropertyOp3
 70
     1
102
RTVSPropertyOp4
 70
     1
102
RTVSPropertyOp5
 70
     1
102
RTVSPropertyOp6
 70
     1
102
RTVSPropertyOp7
 70
     1
102
RTVSPropertyOp8
 70
     1
102
RTVSPropertyOp9
 70
     1
102
RTVSPropertyOp10
 70
     1
102
RTVSPropertyOp11
 70
     1
102
RTVSPropertyOp12
 70
     1
102
RTVSPropertyOp13
 70
     1
102
RTVSPropertyOp14
 70
     1
102
RTVSPropertyOp15
 70
     1
102
RTVSPropertyOp16
 70
     1
102
RTVSPropertyOp17
 70
     1
102
RTVSPropertyOp18
 70
     1
102
RTVSPropertyOp19
 70
     1
102
RTVSPropertyOp20
 70
     1
102
RTVSPropertyOp21
 70
     1
102
RTVSPropertyOp22
 70
     1
102
RTVSPropertyOp23
 70
     1
102
RTVSPropertyOp24
 70
     1
102
RTVSPropertyOp25
 70
     1
102
RTVSPropertyOp26
 70
     1
102
RTVSPropertyOp27
 70
     1
  0
XRECORD
  5
18D2D
102
{ACAD_REACTORS
330
18D2C
102
}
330
18D2C
100
AcDbXrecord
280
     1
102
RTVSPropertyOp0
 70
     1
102
RTVSPropertyOp1
 70
     1
102
RTVSPropertyOp2
 70
     1
102
RTVSPropertyOp3
 70
     1
102
RTVSPropertyOp4
 70
     1
102
RTVSPropertyOp5
 70
     1
102
RTVSPropertyOp6
 70
     1
102
RTVSPropertyOp7
 70
     1
102
RTVSPropertyOp8
 70
     1
102
RTVSPropertyOp9
 70
     1
102
RTVSPropertyOp10
 70
     1
102
RTVSPropertyOp11
 70
     1
102
RTVSPropertyOp12
 70
     1
102
RTVSPropertyOp13
 70
     1
102
RTVSPropertyOp14
 70
     1
102
RTVSPropertyOp15
 70
     1
102
RTVSPropertyOp16
 70
     1
102
RTVSPropertyOp17
 70
     1
102
RTVSPropertyOp18
 70
     1
102
RTVSPropertyOp19
 70
     1
102
RTVSPropertyOp20
 70
     1
102
RTVSPropertyOp21
 70
     1
102
RTVSPropertyOp22
 70
     1
102
RTVSPropertyOp23
 70
     1
102
RTVSPropertyOp24
 70
     1
102
RTVSPropertyOp25
 70
     1
102
RTVSPropertyOp26
 70
     1
102
RTVSPropertyOp27
 70
     1
  0
XRECORD
  5
18D35
102
{ACAD_REACTORS
330
18D34
102
}
330
18D34
100
AcDbXrecord
280
     1
102
RTVSPropertyOp0
 70
     1
102
RTVSPropertyOp1
 70
     1
102
RTVSPropertyOp2
 70
     1
102
RTVSPropertyOp3
 70
     1
102
RTVSPropertyOp4
 70
     1
102
RTVSPropertyOp5
 70
     1
102
RTVSPropertyOp6
 70
     1
102
RTVSPropertyOp7
 70
     1
102
RTVSPropertyOp8
 70
     1
102
RTVSPropertyOp9
 70
     1
102
RTVSPropertyOp10
 70
     1
102
RTVSPropertyOp11
 70
     1
102
RTVSPropertyOp12
 70
     1
102
RTVSPropertyOp13
 70
     1
102
RTVSPropertyOp14
 70
     1
102
RTVSPropertyOp15
 70
     1
102
RTVSPropertyOp16
 70
     1
102
RTVSPropertyOp17
 70
     1
102
RTVSPropertyOp18
 70
     1
102
RTVSPropertyOp19
 70
     1
102
RTVSPropertyOp20
 70
     1
102
RTVSPropertyOp21
 70
     1
102
RTVSPropertyOp22
 70
     1
102
RTVSPropertyOp23
 70
     1
102
RTVSPropertyOp24
 70
     1
102
RTVSPropertyOp25
 70
     1
102
RTVSPropertyOp26
 70
     1
102
RTVSPropertyOp27
 70
     1
  0
XRECORD
  5
18D27
102
{ACAD_REACTORS
330
18D26
102
}
330
18D26
100
AcDbXrecord
280
     1
102
RTVSPropertyOp0
 70
     1
102
RTVSPropertyOp1
 70
     1
102
RTVSPropertyOp2
 70
     1
102
RTVSPropertyOp3
 70
     1
102
RTVSPropertyOp4
 70
     1
102
RTVSPropertyOp5
 70
     1
102
RTVSPropertyOp6
 70
     1
102
RTVSPropertyOp7
 70
     1
102
RTVSPropertyOp8
 70
     1
102
RTVSPropertyOp9
 70
     1
102
RTVSPropertyOp10
 70
     1
102
RTVSPropertyOp11
 70
     1
102
RTVSPropertyOp12
 70
     1
102
RTVSPropertyOp13
 70
     1
102
RTVSPropertyOp14
 70
     1
102
RTVSPropertyOp15
 70
     1
102
RTVSPropertyOp16
 70
     1
102
RTVSPropertyOp17
 70
     1
102
RTVSPropertyOp18
 70
     1
102
RTVSPropertyOp19
 70
     1
102
RTVSPropertyOp20
 70
     1
102
RTVSPropertyOp21
 70
     1
102
RTVSPropertyOp22
 70
     1
102
RTVSPropertyOp23
 70
     1
102
RTVSPropertyOp24
 70
     1
102
RTVSPropertyOp25
 70
     1
102
RTVSPropertyOp26
 70
     1
102
RTVSPropertyOp27
 70
     1
  0
XRECORD
  5
18D2B
102
{ACAD_REACTORS
330
18D2A
102
}
330
18D2A
100
AcDbXrecord
280
     1
102
RTVSPropertyOp0
 70
     1
102
RTVSPropertyOp1
 70
     1
102
RTVSPropertyOp2
 70
     1
102
RTVSPropertyOp3
 70
     1
102
RTVSPropertyOp4
 70
     1
102
RTVSPropertyOp5
 70
     1
102
RTVSPropertyOp6
 70
     1
102
RTVSPropertyOp7
 70
     1
102
RTVSPropertyOp8
 70
     1
102
RTVSPropertyOp9
 70
     1
102
RTVSPropertyOp10
 70
     1
102
RTVSPropertyOp11
 70
     1
102
RTVSPropertyOp12
 70
     1
102
RTVSPropertyOp13
 70
     1
102
RTVSPropertyOp14
 70
     1
102
RTVSPropertyOp15
 70
     1
102
RTVSPropertyOp16
 70
     1
102
RTVSPropertyOp17
 70
     1
102
RTVSPropertyOp18
 70
     1
102
RTVSPropertyOp19
 70
     1
102
RTVSPropertyOp20
 70
     1
102
RTVSPropertyOp21
 70
     1
102
RTVSPropertyOp22
 70
     1
102
RTVSPropertyOp23
 70
     1
102
RTVSPropertyOp24
 70
     1
102
RTVSPropertyOp25
 70
     1
102
RTVSPropertyOp26
 70
     1
102
RTVSPropertyOp27
 70
     1
  0
XRECORD
  5
18D3C
102
{ACAD_REACTORS
330
18D3B
102
}
330
18D3B
100
AcDbXrecord
280
     1
102
RTVSPropertyOp0
 70
     0
102
RTVSPropertyOp1
 70
     0
102
RTVSPropertyOp2
 70
     0
102
RTVSPropertyOp3
 70
     0
102
RTVSPropertyOp4
 70
     0
102
RTVSPropertyOp5
 70
     0
102
RTVSPropertyOp6
 70
     0
102
RTVSPropertyOp7
 70
     0
102
RTVSPropertyOp8
 70
     0
102
RTVSPropertyOp9
 70
     0
102
RTVSPropertyOp10
 70
     0
102
RTVSPropertyOp11
 70
     0
102
RTVSPropertyOp12
 70
     0
102
RTVSPropertyOp13
 70
     0
102
RTVSPropertyOp14
 70
     2
102
RTVSPropertyOp15
 70
     0
102
RTVSPropertyOp16
 70
     0
102
RTVSPropertyOp17
 70
     0
102
RTVSPropertyOp18
 70
     0
102
RTVSPropertyOp19
 70
     0
102
RTVSPropertyOp20
 70
     0
102
RTVSPropertyOp21
 70
     0
102
RTVSPropertyOp22
 70
     0
102
RTVSPropertyOp23
 70
     0
102
RTVSPropertyOp24
 70
     0
102
RTVSPropertyOp25
 70
     0
102
RTVSPropertyOp26
 70
     0
102
RTVSPropertyOp27
 70
     0
  0
XRECORD
  5
18D33
102
{ACAD_REACTORS
330
18D32
102
}
330
18D32
100
AcDbXrecord
280
     1
102
RTVSPropertyOp0
 70
     1
102
RTVSPropertyOp1
 70
     1
102
RTVSPropertyOp2
 70
     1
102
RTVSPropertyOp3
 70
     1
102
RTVSPropertyOp4
 70
     1
102
RTVSPropertyOp5
 70
     1
102
RTVSPropertyOp6
 70
     1
102
RTVSPropertyOp7
 70
     1
102
RTVSPropertyOp8
 70
     1
102
RTVSPropertyOp9
 70
     1
102
RTVSPropertyOp10
 70
     1
102
RTVSPropertyOp11
 70
     1
102
RTVSPropertyOp12
 70
     1
102
RTVSPropertyOp13
 70
     1
102
RTVSPropertyOp14
 70
     1
102
RTVSPropertyOp15
 70
     1
102
RTVSPropertyOp16
 70
     1
102
RTVSPropertyOp17
 70
     1
102
RTVSPropertyOp18
 70
     1
102
RTVSPropertyOp19
 70
     1
102
RTVSPropertyOp20
 70
     1
102
RTVSPropertyOp21
 70
     1
102
RTVSPropertyOp22
 70
     1
102
RTVSPropertyOp23
 70
     1
102
RTVSPropertyOp24
 70
     1
102
RTVSPropertyOp25
 70
     1
102
RTVSPropertyOp26
 70
     1
102
RTVSPropertyOp27
 70
     1
  0
XRECORD
  5
18D17
102
{ACAD_REACTORS
330
18D16
102
}
330
18D16
100
AcDbXrecord
280
     1
102
RTVSPropertyOp0
 70
     1
102
RTVSPropertyOp1
 70
     1
102
RTVSPropertyOp2
 70
     1
102
RTVSPropertyOp3
 70
     1
102
RTVSPropertyOp4
 70
     1
102
RTVSPropertyOp5
 70
     1
102
RTVSPropertyOp6
 70
     1
102
RTVSPropertyOp7
 70
     1
102
RTVSPropertyOp8
 70
     1
102
RTVSPropertyOp9
 70
     1
102
RTVSPropertyOp10
 70
     1
102
RTVSPropertyOp11
 70
     1
102
RTVSPropertyOp12
 70
     1
102
RTVSPropertyOp13
 70
     1
102
RTVSPropertyOp14
 70
     1
102
RTVSPropertyOp15
 70
     1
102
RTVSPropertyOp16
 70
     1
102
RTVSPropertyOp17
 70
     1
102
RTVSPropertyOp18
 70
     1
102
RTVSPropertyOp19
 70
     1
102
RTVSPropertyOp20
 70
     1
102
RTVSPropertyOp21
 70
     1
102
RTVSPropertyOp22
 70
     1
102
RTVSPropertyOp23
 70
     1
102
RTVSPropertyOp24
 70
     1
102
RTVSPropertyOp25
 70
     1
102
RTVSPropertyOp26
 70
     1
102
RTVSPropertyOp27
 70
     1
  0
XRECORD
  5
18D19
102
{ACAD_REACTORS
330
18D18
102
}
330
18D18
100
AcDbXrecord
280
     1
102
RTVSPropertyOp0
 70
     1
102
RTVSPropertyOp1
 70
     1
102
RTVSPropertyOp2
 70
     1
102
RTVSPropertyOp3
 70
     1
102
RTVSPropertyOp4
 70
     1
102
RTVSPropertyOp5
 70
     1
102
RTVSPropertyOp6
 70
     1
102
RTVSPropertyOp7
 70
     1
102
RTVSPropertyOp8
 70
     1
102
RTVSPropertyOp9
 70
     1
102
RTVSPropertyOp10
 70
     1
102
RTVSPropertyOp11
 70
     1
102
RTVSPropertyOp12
 70
     1
102
RTVSPropertyOp13
 70
     1
102
RTVSPropertyOp14
 70
     1
102
RTVSPropertyOp15
 70
     1
102
RTVSPropertyOp16
 70
     1
102
RTVSPropertyOp17
 70
     1
102
RTVSPropertyOp18
 70
     1
102
RTVSPropertyOp19
 70
     1
102
RTVSPropertyOp20
 70
     1
102
RTVSPropertyOp21
 70
     1
102
RTVSPropertyOp22
 70
     1
102
RTVSPropertyOp23
 70
     1
102
RTVSPropertyOp24
 70
     1
102
RTVSPropertyOp25
 70
     1
102
RTVSPropertyOp26
 70
     1
102
RTVSPropertyOp27
 70
     1
  0
XRECORD
  5
18D1B
102
{ACAD_REACTORS
330
18D1A
102
}
330
18D1A
100
AcDbXrecord
280
     1
102
RTVSPropertyOp0
 70
     1
102
RTVSPropertyOp1
 70
     1
102
RTVSPropertyOp2
 70
     1
102
RTVSPropertyOp3
 70
     1
102
RTVSPropertyOp4
 70
     1
102
RTVSPropertyOp5
 70
     1
102
RTVSPropertyOp6
 70
     1
102
RTVSPropertyOp7
 70
     1
102
RTVSPropertyOp8
 70
     1
102
RTVSPropertyOp9
 70
     1
102
RTVSPropertyOp10
 70
     1
102
RTVSPropertyOp11
 70
     1
102
RTVSPropertyOp12
 70
     1
102
RTVSPropertyOp13
 70
     1
102
RTVSPropertyOp14
 70
     1
102
RTVSPropertyOp15
 70
     1
102
RTVSPropertyOp16
 70
     1
102
RTVSPropertyOp17
 70
     1
102
RTVSPropertyOp18
 70
     1
102
RTVSPropertyOp19
 70
     1
102
RTVSPropertyOp20
 70
     1
102
RTVSPropertyOp21
 70
     1
102
RTVSPropertyOp22
 70
     1
102
RTVSPropertyOp23
 70
     1
102
RTVSPropertyOp24
 70
     1
102
RTVSPropertyOp25
 70
     1
102
RTVSPropertyOp26
 70
     1
102
RTVSPropertyOp27
 70
     1
  0
XRECORD
  5
18D1D
102
{ACAD_REACTORS
330
18D1C
102
}
330
18D1C
100
AcDbXrecord
280
     1
102
RTVSPropertyOp0
 70
     1
102
RTVSPropertyOp1
 70
     1
102
RTVSPropertyOp2
 70
     1
102
RTVSPropertyOp3
 70
     1
102
RTVSPropertyOp4
 70
     1
102
RTVSPropertyOp5
 70
     1
102
RTVSPropertyOp6
 70
     1
102
RTVSPropertyOp7
 70
     1
102
RTVSPropertyOp8
 70
     1
102
RTVSPropertyOp9
 70
     1
102
RTVSPropertyOp10
 70
     1
102
RTVSPropertyOp11
 70
     1
102
RTVSPropertyOp12
 70
     1
102
RTVSPropertyOp13
 70
     1
102
RTVSPropertyOp14
 70
     1
102
RTVSPropertyOp15
 70
     1
102
RTVSPropertyOp16
 70
     1
102
RTVSPropertyOp17
 70
     1
102
RTVSPropertyOp18
 70
     1
102
RTVSPropertyOp19
 70
     1
102
RTVSPropertyOp20
 70
     1
102
RTVSPropertyOp21
 70
     1
102
RTVSPropertyOp22
 70
     1
102
RTVSPropertyOp23
 70
     1
102
RTVSPropertyOp24
 70
     1
102
RTVSPropertyOp25
 70
     1
102
RTVSPropertyOp26
 70
     1
102
RTVSPropertyOp27
 70
     1
  0
XRECORD
  5
18D38
102
{ACAD_REACTORS
330
18D37
102
}
330
18D37
100
AcDbXrecord
280
     1
102
RTVSPropertyOp0
 70
     0
102
RTVSPropertyOp1
 70
     0
102
RTVSPropertyOp2
 70
     0
102
RTVSPropertyOp3
 70
     0
102
RTVSPropertyOp4
 70
     0
102
RTVSPropertyOp5
 70
     0
102
RTVSPropertyOp6
 70
     0
102
RTVSPropertyOp7
 70
     0
102
RTVSPropertyOp8
 70
     0
102
RTVSPropertyOp9
 70
     0
102
RTVSPropertyOp10
 70
     0
102
RTVSPropertyOp11
 70
     0
102
RTVSPropertyOp12
 70
     0
102
RTVSPropertyOp13
 70
     0
102
RTVSPropertyOp14
 70
     2
102
RTVSPropertyOp15
 70
     0
102
RTVSPropertyOp16
 70
     0
102
RTVSPropertyOp17
 70
     0
102
RTVSPropertyOp18
 70
     0
102
RTVSPropertyOp19
 70
     0
102
RTVSPropertyOp20
 70
     0
102
RTVSPropertyOp21
 70
     0
102
RTVSPropertyOp22
 70
     0
102
RTVSPropertyOp23
 70
     0
102
RTVSPropertyOp24
 70
     0
102
RTVSPropertyOp25
 70
     0
102
RTVSPropertyOp26
 70
     0
102
RTVSPropertyOp27
 70
     0
  0
XRECORD
  5
18D31
102
{ACAD_REACTORS
330
18D30
102
}
330
18D30
100
AcDbXrecord
280
     1
102
RTVSPropertyOp0
 70
     1
102
RTVSPropertyOp1
 70
     1
102
RTVSPropertyOp2
 70
     1
102
RTVSPropertyOp3
 70
     1
102
RTVSPropertyOp4
 70
     1
102
RTVSPropertyOp5
 70
     1
102
RTVSPropertyOp6
 70
     1
102
RTVSPropertyOp7
 70
     1
102
RTVSPropertyOp8
 70
     1
102
RTVSPropertyOp9
 70
     1
102
RTVSPropertyOp10
 70
     1
102
RTVSPropertyOp11
 70
     1
102
RTVSPropertyOp12
 70
     1
102
RTVSPropertyOp13
 70
     1
102
RTVSPropertyOp14
 70
     1
102
RTVSPropertyOp15
 70
     1
102
RTVSPropertyOp16
 70
     1
102
RTVSPropertyOp17
 70
     1
102
RTVSPropertyOp18
 70
     1
102
RTVSPropertyOp19
 70
     1
102
RTVSPropertyOp20
 70
     1
102
RTVSPropertyOp21
 70
     1
102
RTVSPropertyOp22
 70
     1
102
RTVSPropertyOp23
 70
     1
102
RTVSPropertyOp24
 70
     1
102
RTVSPropertyOp25
 70
     1
102
RTVSPropertyOp26
 70
     1
102
RTVSPropertyOp27
 70
     1
  0
XRECORD
  5
18D3A
102
{ACAD_REACTORS
330
18D39
102
}
330
18D39
100
AcDbXrecord
280
     1
102
RTVSPropertyOp0
 70
     0
102
RTVSPropertyOp1
 70
     0
102
RTVSPropertyOp2
 70
     0
102
RTVSPropertyOp3
 70
     0
102
RTVSPropertyOp4
 70
     0
102
RTVSPropertyOp5
 70
     0
102
RTVSPropertyOp6
 70
     0
102
RTVSPropertyOp7
 70
     0
102
RTVSPropertyOp8
 70
     0
102
RTVSPropertyOp9
 70
     0
102
RTVSPropertyOp10
 70
     0
102
RTVSPropertyOp11
 70
     0
102
RTVSPropertyOp12
 70
     0
102
RTVSPropertyOp13
 70
     0
102
RTVSPropertyOp14
 70
     2
102
RTVSPropertyOp15
 70
     0
102
RTVSPropertyOp16
 70
     0
102
RTVSPropertyOp17
 70
     0
102
RTVSPropertyOp18
 70
     0
102
RTVSPropertyOp19
 70
     0
102
RTVSPropertyOp20
 70
     0
102
RTVSPropertyOp21
 70
     0
102
RTVSPropertyOp22
 70
     0
102
RTVSPropertyOp23
 70
     0
102
RTVSPropertyOp24
 70
     0
102
RTVSPropertyOp25
 70
     0
102
RTVSPropertyOp26
 70
     0
102
RTVSPropertyOp27
 70
     0
  0
XRECORD
  5
18D29
102
{ACAD_REACTORS
330
18D28
102
}
330
18D28
100
AcDbXrecord
280
     1
102
RTVSPropertyOp0
 70
     1
102
RTVSPropertyOp1
 70
     1
102
RTVSPropertyOp2
 70
     1
102
RTVSPropertyOp3
 70
     1
102
RTVSPropertyOp4
 70
     1
102
RTVSPropertyOp5
 70
     1
102
RTVSPropertyOp6
 70
     1
102
RTVSPropertyOp7
 70
     1
102
RTVSPropertyOp8
 70
     1
102
RTVSPropertyOp9
 70
     1
102
RTVSPropertyOp10
 70
     1
102
RTVSPropertyOp11
 70
     1
102
RTVSPropertyOp12
 70
     1
102
RTVSPropertyOp13
 70
     1
102
RTVSPropertyOp14
 70
     1
102
RTVSPropertyOp15
 70
     1
102
RTVSPropertyOp16
 70
     1
102
RTVSPropertyOp17
 70
     1
102
RTVSPropertyOp18
 70
     1
102
RTVSPropertyOp19
 70
     1
102
RTVSPropertyOp20
 70
     1
102
RTVSPropertyOp21
 70
     1
102
RTVSPropertyOp22
 70
     1
102
RTVSPropertyOp23
 70
     1
102
RTVSPropertyOp24
 70
     1
102
RTVSPropertyOp25
 70
     1
102
RTVSPropertyOp26
 70
     1
102
RTVSPropertyOp27
 70
     1
  0
XRECORD
  5
18D2F
102
{ACAD_REACTORS
330
18D2E
102
}
330
18D2E
100
AcDbXrecord
280
     1
102
RTVSPropertyOp0
 70
     1
102
RTVSPropertyOp1
 70
     1
102
RTVSPropertyOp2
 70
     1
102
RTVSPropertyOp3
 70
     1
102
RTVSPropertyOp4
 70
     1
102
RTVSPropertyOp5
 70
     1
102
RTVSPropertyOp6
 70
     1
102
RTVSPropertyOp7
 70
     1
102
RTVSPropertyOp8
 70
     1
102
RTVSPropertyOp9
 70
     1
102
RTVSPropertyOp10
 70
     1
102
RTVSPropertyOp11
 70
     1
102
RTVSPropertyOp12
 70
     1
102
RTVSPropertyOp13
 70
     1
102
RTVSPropertyOp14
 70
     1
102
RTVSPropertyOp15
 70
     1
102
RTVSPropertyOp16
 70
     1
102
RTVSPropertyOp17
 70
     1
102
RTVSPropertyOp18
 70
     1
102
RTVSPropertyOp19
 70
     1
102
RTVSPropertyOp20
 70
     1
102
RTVSPropertyOp21
 70
     1
102
RTVSPropertyOp22
 70
     1
102
RTVSPropertyOp23
 70
     1
102
RTVSPropertyOp24
 70
     1
102
RTVSPropertyOp25
 70
     1
102
RTVSPropertyOp26
 70
     1
102
RTVSPropertyOp27
 70
     1
  0
ENDSEC
  0
EOF
