  0
SECTION
  2
HEADER
  9
$ACADVER
  1
AC1015
  9
$ACADMAINTVER
 70
    13
  9
$DWGCODEPAGE
  3
ANSI_932
  9
$INSBASE
 10
267.0
 20
194.8999999999998
 30
0.0
  9
$EXTMIN
 10
433.9966216520333
 20
163.6908237492789
 30
-0.0000000000000053
  9
$EXTMAX
 10
16382.6660542547
 20
11242.27663824599
 30
0.0000000000000099
  9
$LIMMIN
 10
0.0
 20
0.0
  9
$LIMMAX
 10
16800.0
 20
11880.0
  9
$ORTHOMODE
 70
     0
  9
$REGENMODE
 70
     1
  9
$FILLMODE
 70
     1
  9
$QTEXTMODE
 70
     0
  9
$MIRRTEXT
 70
     0
  9
$LTSCALE
 40
40.0
  9
$ATTMODE
 70
     1
  9
$TEXTSIZE
 40
0.2
  9
$TRACEWID
 40
0.05
  9
$TEXTSTYLE
  7
00
  9
$CLAYER
  8
SUNPOU
  9
$CELTYPE
  6
ByLayer
  9
$CECOLOR
 62
   256
  9
$CELTSCALE
 40
1.0
  9
$DISPSILH
 70
     0
  9
$DIMSCALE
 40
40.0
  9
$DIMASZ
 40
0.5
  9
$DIMEXO
 40
1.0
  9
$DIMDLI
 40
7.0
  9
$DIMRND
 40
0.0
  9
$DIMDLE
 40
3.0
  9
$DIMEXE
 40
1.5
  9
$DIMTP
 40
0.0
  9
$DIMTM
 40
0.0
  9
$DIMTXT
 40
3.0
  9
$DIMCEN
 40
0.0
  9
$DIMTSZ
 40
0.0
  9
$DIMTOL
 70
     0
  9
$DIMLIM
 70
     0
  9
$DIMTIH
 70
     0
  9
$DIMTOH
 70
     0
  9
$DIMSE1
 70
     0
  9
$DIMSE2
 70
     0
  9
$DIMTAD
 70
     1
  9
$DIMZIN
 70
     8
  9
$DIMBLK
  1

  9
$DIMASO
 70
     1
  9
$DIMSHO
 70
     0
  9
$DIMPOST
  1

  9
$DIMAPOST
  1

  9
$DIMALT
 70
     0
  9
$DIMALTD
 70
     2
  9
$DIMALTF
 40
25.4
  9
$DIMLFAC
 40
0.625
  9
$DIMTOFL
 70
     1
  9
$DIMTVP
 40
0.0
  9
$DIMTIX
 70
     0
  9
$DIMSOXD
 70
     0
  9
$DIMSAH
 70
     1
  9
$DIMBLK1
  1
DOT
  9
$DIMBLK2
  1
DOT
  9
$DIMSTYLE
  2
SUNPOU_図面名
  9
$DIMCLRD
 70
   256
  9
$DIMCLRE
 70
   256
  9
$DIMCLRT
 70
   256
  9
$DIMTFAC
 40
1.0
  9
$DIMGAP
 40
1.5
  9
$DIMJUST
 70
     0
  9
$DIMSD1
 70
     0
  9
$DIMSD2
 70
     0
  9
$DIMTOLJ
 70
     1
  9
$DIMTZIN
 70
     0
  9
$DIMALTZ
 70
     0
  9
$DIMALTTZ
 70
     0
  9
$DIMUPT
 70
     0
  9
$DIMDEC
 70
     4
  9
$DIMTDEC
 70
     4
  9
$DIMALTU
 70
     2
  9
$DIMALTTD
 70
     2
  9
$DIMTXSTY
  7
STANDARD
  9
$DIMAUNIT
 70
     0
  9
$DIMADEC
 70
     0
  9
$DIMALTRND
 40
0.0
  9
$DIMAZIN
 70
     0
  9
$DIMDSEP
 70
    46
  9
$DIMATFIT
 70
     3
  9
$DIMFRAC
 70
     0
  9
$DIMLDRBLK
  1
DOT
  9
$DIMLUNIT
 70
     2
  9
$DIMLWD
 70
    -2
  9
$DIMLWE
 70
    -2
  9
$DIMTMOVE
 70
     0
  9
$LUNITS
 70
     2
  9
$LUPREC
 70
     2
  9
$SKETCHINC
 40
0.1
  9
$FILLETRAD
 40
0.0
  9
$AUNITS
 70
     0
  9
$AUPREC
 70
     0
  9
$MENU
  1
A:\TIGER\MENU\TIGER
  9
$ELEVATION
 40
0.0
  9
$PELEVATION
 40
0.0
  9
$THICKNESS
 40
0.0
  9
$LIMCHECK
 70
     0
  9
$CHAMFERA
 40
0.0
  9
$CHAMFERB
 40
0.0
  9
$CHAMFERC
 40
0.0
  9
$CHAMFERD
 40
0.0
  9
$SKPOLY
 70
     0
  9
$TDCREATE
 40
2450266.571064815
  9
$TDUCREATE
 40
2450266.196064815
  9
$TDUPDATE
 40
2456332.327617002
  9
$TDUUPDATE
 40
2456331.952617002
  9
$TDINDWG
 40
0.2082692940
  9
$TDUSRTIMER
 40
0.2082691204
  9
$USRTIMER
 70
     1
  9
$ANGBASE
 50
0.0
  9
$ANGDIR
 70
     0
  9
$PDMODE
 70
     0
  9
$PDSIZE
 40
0.0
  9
$PLINEWID
 40
0.0
  9
$SPLFRAME
 70
     0
  9
$SPLINETYPE
 70
     6
  9
$SPLINESEGS
 70
     8
  9
$HANDSEED
  5
1AE03
  9
$SURFTAB1
 70
     6
  9
$SURFTAB2
 70
     6
  9
$SURFTYPE
 70
     6
  9
$SURFU
 70
     6
  9
$SURFV
 70
     6
  9
$UCSBASE
  2

  9
$UCSNAME
  2

  9
$UCSORG
 10
0.0
 20
0.0
 30
0.0
  9
$UCSXDIR
 10
1.0
 20
0.0
 30
0.0
  9
$UCSYDIR
 10
0.0
 20
1.0
 30
0.0
  9
$UCSORTHOREF
  2

  9
$UCSORTHOVIEW
 70
     0
  9
$UCSORGTOP
 10
0.0
 20
0.0
 30
0.0
  9
$UCSORGBOTTOM
 10
0.0
 20
0.0
 30
0.0
  9
$UCSORGLEFT
 10
0.0
 20
0.0
 30
0.0
  9
$UCSORGRIGHT
 10
0.0
 20
0.0
 30
0.0
  9
$UCSORGFRONT
 10
0.0
 20
0.0
 30
0.0
  9
$UCSORGBACK
 10
0.0
 20
0.0
 30
0.0
  9
$PUCSBASE
  2

  9
$PUCSNAME
  2

  9
$PUCSORG
 10
0.0
 20
0.0
 30
0.0
  9
$PUCSXDIR
 10
1.0
 20
0.0
 30
0.0
  9
$PUCSYDIR
 10
0.0
 20
1.0
 30
0.0
  9
$PUCSORTHOREF
  2

  9
$PUCSORTHOVIEW
 70
     0
  9
$PUCSORGTOP
 10
0.0
 20
0.0
 30
0.0
  9
$PUCSORGBOTTOM
 10
0.0
 20
0.0
 30
0.0
  9
$PUCSORGLEFT
 10
0.0
 20
0.0
 30
0.0
  9
$PUCSORGRIGHT
 10
0.0
 20
0.0
 30
0.0
  9
$PUCSORGFRONT
 10
0.0
 20
0.0
 30
0.0
  9
$PUCSORGBACK
 10
0.0
 20
0.0
 30
0.0
  9
$USERI1
 70
     3
  9
$USERI2
 70
     0
  9
$USERI3
 70
     0
  9
$USERI4
 70
     0
  9
$USERI5
 70
  1103
  9
$USERR1
 40
0.0
  9
$USERR2
 40
1.0
  9
$USERR3
 40
0.0
  9
$USERR4
 40
0.0
  9
$USERR5
 40
0.0
  9
$WORLDVIEW
 70
     1
  9
$SHADEDGE
 70
     3
  9
$SHADEDIF
 70
    70
  9
$TILEMODE
 70
     1
  9
$MAXACTVP
 70
    16
  9
$PINSBASE
 10
0.0
 20
0.0
 30
0.0
  9
$PLIMCHECK
 70
     0
  9
$PEXTMIN
 10
1.000000000000000E+20
 20
1.000000000000000E+20
 30
1.000000000000000E+20
  9
$PEXTMAX
 10
-1.000000000000000E+20
 20
-1.000000000000000E+20
 30
-1.000000000000000E+20
  9
$PLIMMIN
 10
0.0
 20
0.0
  9
$PLIMMAX
 10
12.0
 20
9.0
  9
$UNITMODE
 70
     0
  9
$VISRETAIN
 70
     0
  9
$PLINEGEN
 70
     1
  9
$PSLTSCALE
 70
     0
  9
$TREEDEPTH
 70
  3020
  9
$CMLSTYLE
  2
Standard
  9
$CMLJUST
 70
     0
  9
$CMLSCALE
 40
1.0
  9
$PROXYGRAPHICS
 70
     1
  9
$MEASUREMENT
 70
     0
  9
$CELWEIGHT
370
    -1
  9
$ENDCAPS
280
     0
  9
$JOINSTYLE
280
     0
  9
$LWDISPLAY
290
     0
  9
$INSUNITS
 70
     0
  9
$HYPERLINKBASE
  1

  9
$STYLESHEET
  1

  9
$XEDIT
290
     1
  9
$CEPSNTYPE
380
     0
  9
$PSTYLEMODE
290
     1
  9
$FINGERPRINTGUID
  2
{29094B03-7B3D-4DB4-9209-7FF2388DF50A}
  9
$VERSIONGUID
  2
{52083503-4C5F-4A20-8B8F-0BB2134C1D09}
  9
$EXTNAMES
290
     1
  9
$PSVPSCALE
 40
0.0
  9
$OLESTARTUP
290
     0
  0
ENDSEC
  0
SECTION
  2
CLASSES
  0
CLASS
  1
ACDBDICTIONARYWDFLT
  2
AcDbDictionaryWithDefault
  3
AutoCAD 2000
 90
        0
280
     0
281
     0
  0
CLASS
  1
ACDBPLACEHOLDER
  2
AcDbPlaceHolder
  3
AutoCAD 2000
 90
        0
280
     0
281
     0
  0
CLASS
  1
LAYOUT
  2
AcDbLayout
  3
AutoCAD 2000
 90
        0
280
     0
281
     0
  0
CLASS
  1
DICTIONARYVAR
  2
AcDbDictionaryVar
  3
AutoCAD 2000
 90
        0
280
     0
281
     0
  0
ENDSEC
  0
SECTION
  2
TABLES
  0
TABLE
  2
VPORT
  5
1A715
330
0
100
AcDbSymbolTable
 70
     2
  0
VPORT
  5
1AE02
330
1A715
100
AcDbSymbolTableRecord
100
AcDbViewportTableRecord
  2
*Active
 70
     0
 10
0.0
 20
0.0
 11
1.0
 21
1.0
 12
8408.331337953367
 22
5702.983730997637
 13
0.0
 23
0.0
 14
1.0
 24
1.0
 15
0.0
 25
0.0
 16
0.0
 26
0.0
 36
1.0
 17
0.0
 27
0.0
 37
0.0
 40
11163.50538397298
 41
1.527918781725888
 42
50.0
 43
0.0
 44
0.0
 50
0.0
 51
0.0
 71
     0
 72
 10000
 73
     1
 74
     0
 75
     0
 76
     0
 77
     0
 78
     0
281
     0
 65
     1
110
0.0
120
0.0
130
0.0
111
1.0
121
0.0
131
0.0
112
0.0
122
1.0
132
0.0
 79
     0
146
0.0
  0
ENDTAB
  0
TABLE
  2
LTYPE
  5
1A712
330
0
100
AcDbSymbolTable
 70
     5
  0
LTYPE
  5
1A720
330
1A712
100
AcDbSymbolTableRecord
100
AcDbLinetypeTableRecord
  2
ByBlock
 70
     0
  3

 72
    65
 73
     0
 40
0.0
  0
LTYPE
  5
1A721
330
1A712
100
AcDbSymbolTableRecord
100
AcDbLinetypeTableRecord
  2
ByLayer
 70
     0
  3

 72
    65
 73
     0
 40
0.0
  0
LTYPE
  5
1A722
330
1A712
100
AcDbSymbolTableRecord
100
AcDbLinetypeTableRecord
  2
CONTINUOUS
 70
     0
  3
実線
 72
    65
 73
     0
 40
0.0
  0
LTYPE
  5
1A732
330
1A712
100
AcDbSymbolTableRecord
100
AcDbLinetypeTableRecord
  2
1PL-LL
 70
     0
  3

 72
    65
 73
     4
 40
106.0
 49
100.0
 74
     0
 49
-2.0
 74
     0
 49
2.0
 74
     0
 49
-2.0
 74
     0
  0
LTYPE
  5
1A733
330
1A712
100
AcDbSymbolTableRecord
100
AcDbLinetypeTableRecord
  2
1PL-M
 70
     0
  3

 72
    65
 73
     4
 40
15.0
 49
12.0
 74
     0
 49
-1.0
 74
     0
 49
1.0
 74
     0
 49
-1.0
 74
     0
  0
LTYPE
  5
1A734
330
1A712
100
AcDbSymbolTableRecord
100
AcDbLinetypeTableRecord
  2
2PL-L
 70
     0
  3

 72
    65
 73
     6
 40
60.0
 49
50.0
 74
     0
 49
-2.0
 74
     0
 49
2.0
 74
     0
 49
-2.0
 74
     0
 49
2.0
 74
     0
 49
-2.0
 74
     0
  0
LTYPE
  5
1A735
330
1A712
100
AcDbSymbolTableRecord
100
AcDbLinetypeTableRecord
  2
1PL-12
 70
     0
  3

 72
    65
 73
     4
 40
15.0
 49
12.0
 74
     0
 49
-1.0
 74
     0
 49
1.0
 74
     0
 49
-1.0
 74
     0
  0
ENDTAB
  0
TABLE
  2
LAYER
  5
1A70F
330
0
100
AcDbSymbolTable
 70
    19
  0
LAYER
  5
1A71D
330
1A70F
100
AcDbSymbolTableRecord
100
AcDbLayerTableRecord
  2
0
 70
     0
 62
     7
  6
CONTINUOUS
370
    -3
390
1A71C
  0
LAYER
  5
1A72F
330
1A70F
100
AcDbSymbolTableRecord
100
AcDbLayerTableRecord
  2
SUNPOU
 70
     0
 62
     4
  6
CONTINUOUS
370
    -3
390
1A71C
  0
LAYER
  5
1A736
330
1A70F
100
AcDbSymbolTableRecord
100
AcDbLayerTableRecord
  2
U1
 70
     0
 62
     3
  6
CONTINUOUS
370
    -3
390
1A71C
  0
LAYER
  5
1A737
330
1A70F
100
AcDbSymbolTableRecord
100
AcDbLayerTableRecord
  2
U3
 70
     0
 62
     6
  6
CONTINUOUS
370
    -3
390
1A71C
  0
LAYER
  5
1A738
330
1A70F
100
AcDbSymbolTableRecord
100
AcDbLayerTableRecord
  2
HIKIDASHI
 70
     0
 62
     6
  6
CONTINUOUS
370
    -3
390
1A71C
  0
LAYER
  5
1A739
330
1A70F
100
AcDbSymbolTableRecord
100
AcDbLayerTableRecord
  2
1PL-M1
 70
     0
 62
     6
  6
1PL-M
370
    -3
390
1A71C
  0
LAYER
  5
1A73A
330
1A70F
100
AcDbSymbolTableRecord
100
AcDbLayerTableRecord
  2
NAME
 70
     0
 62
    20
  6
CONTINUOUS
370
    -3
390
1A71C
  0
LAYER
  5
1A73B
330
1A70F
100
AcDbSymbolTableRecord
100
AcDbLayerTableRecord
  2
FILENAME
 70
     0
 62
     7
  6
CONTINUOUS
370
    -3
390
1A71C
  0
LAYER
  5
1A73C
330
1A70F
100
AcDbSymbolTableRecord
100
AcDbLayerTableRecord
  2
CENTER
 70
     0
 62
     6
  6
1PL-LL
370
    -3
390
1A71C
  0
LAYER
  5
1A73D
330
1A70F
100
AcDbSymbolTableRecord
100
AcDbLayerTableRecord
  2
KISO
 70
     0
 62
     2
  6
CONTINUOUS
370
    -3
390
1A71C
  0
LAYER
  5
1A73E
330
1A70F
100
AcDbSymbolTableRecord
100
AcDbLayerTableRecord
  2
YANE
 70
     0
 62
     1
  6
1PL-12
370
    -3
390
1A71C
  0
LAYER
  5
1A73F
330
1A70F
100
AcDbSymbolTableRecord
100
AcDbLayerTableRecord
  2
HATCH
 70
     0
 62
     1
  6
CONTINUOUS
370
    -3
390
1A71C
  0
LAYER
  5
1A740
330
1A70F
100
AcDbSymbolTableRecord
100
AcDbLayerTableRecord
  2
HASHIRA
 70
     0
 62
     3
  6
CONTINUOUS
370
    -3
390
1A71C
  0
LAYER
  5
1A741
330
1A70F
100
AcDbSymbolTableRecord
100
AcDbLayerTableRecord
  2
TEKKIN
 70
     0
 62
     2
  6
CONTINUOUS
370
    -3
390
1A71C
  0
LAYER
  5
1A742
330
1A70F
100
AcDbSymbolTableRecord
100
AcDbLayerTableRecord
  2
DOMAKON
 70
     0
 62
     2
  6
CONTINUOUS
370
    -3
390
1A71C
  0
LAYER
  5
1A743
330
1A70F
100
AcDbSymbolTableRecord
100
AcDbLayerTableRecord
  2
YODOROGO
 70
     0
 62
   130
  6
CONTINUOUS
370
    -3
390
1A71C
  0
LAYER
  5
1A744
330
1A70F
100
AcDbSymbolTableRecord
100
AcDbLayerTableRecord
  2
WAKUSEN-01
 70
     0
 62
    50
  6
CONTINUOUS
370
    -3
390
1A71C
  0
LAYER
  5
1A745
330
1A70F
100
AcDbSymbolTableRecord
100
AcDbLayerTableRecord
  2
WAKUSEN-02
 70
     0
 62
   130
  6
CONTINUOUS
370
    -3
390
1A71C
  0
LAYER
  5
1A746
330
1A70F
100
AcDbSymbolTableRecord
100
AcDbLayerTableRecord
  2
WAKUMOJI-01
 70
     0
 62
   130
  6
CONTINUOUS
370
    -3
390
1A71C
  0
ENDTAB
  0
TABLE
  2
STYLE
  5
1A710
330
0
100
AcDbSymbolTable
 70
     5
  0
STYLE
  5
1A71E
330
1A710
100
AcDbSymbolTableRecord
100
AcDbTextStyleTableRecord
  2
STANDARD
 70
     0
 40
3.0
 41
1.0
 50
0.0
 71
     0
 42
0.2
  3
ROMANS
  4
EXTFONT
  0
STYLE
  5
1A730
330
1A710
100
AcDbSymbolTableRecord
100
AcDbTextStyleTableRecord
  2
00
 70
     0
 40
0.0
 41
0.6666666666666666
 50
0.0
 71
     0
 42
0.2
  3
ROMANS
  4
BIGFONT
  0
STYLE
  5
1A747
330
1A710
100
AcDbSymbolTableRecord
100
AcDbTextStyleTableRecord
  2
01
 70
     0
 40
3.0
 41
1.0
 50
0.0
 71
     0
 42
0.2
  3
ROMANS
  4
BIGFONT
  0
STYLE
  5
1A748
330
1A710
100
AcDbSymbolTableRecord
100
AcDbTextStyleTableRecord
  2
FILENAME
 70
     0
 40
100.0
 41
1.0
 50
0.0
 71
     0
 42
100.0
  3
romans
  4
bigfont
  0
STYLE
  5
1A749
330
1A710
100
AcDbSymbolTableRecord
100
AcDbTextStyleTableRecord
  2
WAKUMOJI
 70
     0
 40
3.0
 41
1.0
 50
0.0
 71
     0
 42
3.0
  3
SIMPLEX
  4
BIGFONT
  0
ENDTAB
  0
TABLE
  2
VIEW
  5
1A713
330
0
100
AcDbSymbolTable
 70
     0
  0
ENDTAB
  0
TABLE
  2
UCS
  5
1A714
330
0
100
AcDbSymbolTable
 70
     0
  0
ENDTAB
  0
TABLE
  2
APPID
  5
1A716
330
0
100
AcDbSymbolTable
 70
     5
  0
APPID
  5
1A71F
330
1A716
100
AcDbSymbolTableRecord
100
AcDbRegAppTableRecord
  2
ACAD
 70
     0
  0
APPID
  5
1A74A
330
1A716
100
AcDbSymbolTableRecord
100
AcDbRegAppTableRecord
  2
AUTOCAD_POSTSCRIPT_FIGURE
 70
     0
  0
APPID
  5
1A74B
330
1A716
100
AcDbSymbolTableRecord
100
AcDbRegAppTableRecord
  2
ACAD_EXEMPT_FROM_CAD_STANDARDS
 70
     0
  0
APPID
  5
1A74C
330
1A716
100
AcDbSymbolTableRecord
100
AcDbRegAppTableRecord
  2
ACAD_PSEXT
 70
     0
  0
APPID
  5
1A74D
330
1A716
100
AcDbSymbolTableRecord
100
AcDbRegAppTableRecord
  2
CONTENTBLOCKICON
 70
     0
  0
ENDTAB
  0
TABLE
  2
DIMSTYLE
  5
1A717
330
0
100
AcDbSymbolTable
 70
     1
100
AcDbDimStyleTable
 71
     0
  0
DIMSTYLE
105
1A74E
330
1A717
100
AcDbSymbolTableRecord
100
AcDbDimStyleTableRecord
  2
SUNPOU_図面名
 70
     0
 40
30.0
 41
0.5
 42
1.0
 43
7.0
 44
1.5
 46
3.0
 73
     0
 74
     0
 77
     1
 78
     8
140
3.0
141
0.0
147
1.5
172
     1
173
     1
176
   256
177
   256
178
   256
271
     2
272
     2
279
     2
284
     8
285
     8
286
     8
340
1A730
  0
ENDTAB
  0
TABLE
  2
BLOCK_RECORD
  5
1A70E
330
0
100
AcDbSymbolTable
 70
    29
  0
BLOCK_RECORD
  5
1A72B
330
1A70E
100
AcDbSymbolTableRecord
100
AcDbBlockTableRecord
  2
*Model_Space
340
1A72E
  0
BLOCK_RECORD
  5
1A727
330
1A70E
100
AcDbSymbolTableRecord
100
AcDbBlockTableRecord
  2
*Paper_Space
340
1A72A
  0
BLOCK_RECORD
  5
1A753
330
1A70E
100
AcDbSymbolTableRecord
100
AcDbBlockTableRecord
  2
$MODEL_SPACE
340
0
  0
BLOCK_RECORD
  5
1A756
330
1A70E
100
AcDbSymbolTableRecord
100
AcDbBlockTableRecord
  2
$PAPER_SPACE
340
0
  0
BLOCK_RECORD
  5
1A759
330
1A70E
100
AcDbSymbolTableRecord
100
AcDbBlockTableRecord
  2
DOT
340
0
  0
BLOCK_RECORD
  5
1A761
330
1A70E
100
AcDbSymbolTableRecord
100
AcDbBlockTableRecord
  2
*U3
340
0
  0
BLOCK_RECORD
  5
1A765
330
1A70E
100
AcDbSymbolTableRecord
100
AcDbBlockTableRecord
  2
*U4
340
0
  0
BLOCK_RECORD
  5
1A769
330
1A70E
100
AcDbSymbolTableRecord
100
AcDbBlockTableRecord
  2
*U5
340
0
  0
BLOCK_RECORD
  5
1A76D
330
1A70E
100
AcDbSymbolTableRecord
100
AcDbBlockTableRecord
  2
*U6
340
0
  0
BLOCK_RECORD
  5
1A771
330
1A70E
100
AcDbSymbolTableRecord
100
AcDbBlockTableRecord
  2
*U7
340
0
  0
BLOCK_RECORD
  5
1A775
330
1A70E
100
AcDbSymbolTableRecord
100
AcDbBlockTableRecord
  2
*U8
340
0
  0
BLOCK_RECORD
  5
1A779
330
1A70E
100
AcDbSymbolTableRecord
100
AcDbBlockTableRecord
  2
*U9
340
0
  0
BLOCK_RECORD
  5
1A77D
330
1A70E
100
AcDbSymbolTableRecord
100
AcDbBlockTableRecord
  2
*U10
340
0
  0
BLOCK_RECORD
  5
1A781
330
1A70E
100
AcDbSymbolTableRecord
100
AcDbBlockTableRecord
  2
*U11
340
0
  0
BLOCK_RECORD
  5
1A785
330
1A70E
100
AcDbSymbolTableRecord
100
AcDbBlockTableRecord
  2
*U12
340
0
  0
BLOCK_RECORD
  5
1A789
330
1A70E
100
AcDbSymbolTableRecord
100
AcDbBlockTableRecord
  2
*U13
340
0
  0
BLOCK_RECORD
  5
1A78D
330
1A70E
100
AcDbSymbolTableRecord
100
AcDbBlockTableRecord
  2
*U14
340
0
  0
BLOCK_RECORD
  5
1A791
330
1A70E
100
AcDbSymbolTableRecord
100
AcDbBlockTableRecord
  2
*U15
340
0
  0
BLOCK_RECORD
  5
1A795
330
1A70E
100
AcDbSymbolTableRecord
100
AcDbBlockTableRecord
  2
*U16
340
0
  0
BLOCK_RECORD
  5
1A799
330
1A70E
100
AcDbSymbolTableRecord
100
AcDbBlockTableRecord
  2
*U17
340
0
  0
BLOCK_RECORD
  5
1A79D
330
1A70E
100
AcDbSymbolTableRecord
100
AcDbBlockTableRecord
  2
*U18
340
0
  0
BLOCK_RECORD
  5
1A7A1
330
1A70E
100
AcDbSymbolTableRecord
100
AcDbBlockTableRecord
  2
*U19
340
0
  0
BLOCK_RECORD
  5
1A7A5
330
1A70E
100
AcDbSymbolTableRecord
100
AcDbBlockTableRecord
  2
*U20
340
0
  0
BLOCK_RECORD
  5
1A7A9
330
1A70E
100
AcDbSymbolTableRecord
100
AcDbBlockTableRecord
  2
*U21
340
0
  0
BLOCK_RECORD
  5
1A7AD
330
1A70E
100
AcDbSymbolTableRecord
100
AcDbBlockTableRecord
  2
*U22
340
0
  0
BLOCK_RECORD
  5
1A7B1
330
1A70E
100
AcDbSymbolTableRecord
100
AcDbBlockTableRecord
  2
*U23
340
0
  0
BLOCK_RECORD
  5
1A7B5
330
1A70E
100
AcDbSymbolTableRecord
100
AcDbBlockTableRecord
  2
*U24
340
0
  0
BLOCK_RECORD
  5
1A7B9
330
1A70E
100
AcDbSymbolTableRecord
100
AcDbBlockTableRecord
  2
*U25
340
0
  0
BLOCK_RECORD
  5
1A7BD
330
1A70E
100
AcDbSymbolTableRecord
100
AcDbBlockTableRecord
  2
*U26
340
0
  0
BLOCK_RECORD
  5
1A7C1
330
1A70E
100
AcDbSymbolTableRecord
100
AcDbBlockTableRecord
  2
*U27
340
0
  0
ENDTAB
  0
ENDSEC
  0
SECTION
  2
BLOCKS
  0
BLOCK
  5
1A72C
330
1A72B
100
AcDbEntity
  8
0
100
AcDbBlockBegin
  2
*Model_Space
 70
     0
 10
0.0
 20
0.0
 30
0.0
  3
*Model_Space
  1

  0
ENDBLK
  5
1A72D
330
1A72B
100
AcDbEntity
  8
0
100
AcDbBlockEnd
  0
BLOCK
  5
1A728
330
1A727
100
AcDbEntity
 67
     1
  8
0
100
AcDbBlockBegin
  2
*Paper_Space
 70
     0
 10
0.0
 20
0.0
 30
0.0
  3
*Paper_Space
  1

  0
ENDBLK
  5
1A729
330
1A727
100
AcDbEntity
 67
     1
  8
0
100
AcDbBlockEnd
  0
BLOCK
  5
1A754
330
1A753
100
AcDbEntity
  8
0
100
AcDbBlockBegin
  2
$MODEL_SPACE
 70
     0
 10
0.0
 20
0.0
 30
0.0
  3
$MODEL_SPACE
  1

  0
ENDBLK
  5
1A755
330
1A753
100
AcDbEntity
  8
0
100
AcDbBlockEnd
  0
BLOCK
  5
1A757
330
1A756
100
AcDbEntity
  8
0
100
AcDbBlockBegin
  2
$PAPER_SPACE
 70
     0
 10
0.0
 20
0.0
 30
0.0
  3
$PAPER_SPACE
  1

  0
ENDBLK
  5
1A758
330
1A756
100
AcDbEntity
  8
0
100
AcDbBlockEnd
  0
BLOCK
  5
1A75A
330
1A759
100
AcDbEntity
  8
0
100
AcDbBlockBegin
  2
DOT
 70
     0
 10
0.0
 20
0.0
 30
0.0
  3
DOT
  1

  0
LWPOLYLINE
  5
1A75B
330
1A759
100
AcDbEntity
  8
0
  6
ByBlock
 62
     0
100
AcDbPolyline
 90
        2
 70
     1
 43
0.75
 10
-0.375
 20
0.0
 42
1.0
 10
0.375
 20
0.0
 42
1.0
  0
LINE
  5
1A75F
330
1A759
100
AcDbEntity
  8
0
  6
ByBlock
 62
     0
100
AcDbLine
 10
-0.75
 20
0.0
 30
0.0
 11
-1.5
 21
0.0
 31
0.0
  0
ENDBLK
  5
1A760
330
1A759
100
AcDbEntity
  8
0
100
AcDbBlockEnd
  0
BLOCK
  5
1A762
330
1A761
100
AcDbEntity
  8
0
100
AcDbBlockBegin
  2
*U3
 70
     1
 10
0.0
 20
0.0
 30
0.0
  3
*U3
  1

  0
TEXT
  5
1A763
330
1A761
100
AcDbEntity
  8
SUNPOU
100
AcDbText
 10
9389.217031986058
 20
7410.001074758969
 30
0.0
 40
90.0
  1
800
 50
90.0
 41
0.6666666666666666
  7
00
100
AcDbText
  0
ENDBLK
  5
1A764
330
1A761
100
AcDbEntity
  8
0
100
AcDbBlockEnd
  0
BLOCK
  5
1A766
330
1A765
100
AcDbEntity
  8
0
100
AcDbBlockBegin
  2
*U4
 70
     1
 10
0.0
 20
0.0
 30
0.0
  3
*U4
  1

  0
TEXT
  5
1A767
330
1A765
100
AcDbEntity
  8
SUNPOU
100
AcDbText
 10
8748.502746271773
 20
8110.715360473252
 30
0.0
 40
90.0
  1
800
 41
0.6666666666666666
  7
00
100
AcDbText
  0
ENDBLK
  5
1A768
330
1A765
100
AcDbEntity
  8
0
100
AcDbBlockEnd
  0
BLOCK
  5
1A76A
330
1A769
100
AcDbEntity
  8
0
100
AcDbBlockBegin
  2
*U5
 70
     1
 10
0.0
 20
0.0
 30
0.0
  3
*U5
  1

  0
TEXT
  5
1A76B
330
1A769
100
AcDbEntity
  8
SUNPOU
100
AcDbText
 10
12039.21703198606
 20
6477.143931901827
 30
0.0
 40
90.0
  1
1800
 50
90.0
 41
0.6666666666666666
  7
00
100
AcDbText
  0
ENDBLK
  5
1A76C
330
1A769
100
AcDbEntity
  8
0
100
AcDbBlockEnd
  0
BLOCK
  5
1A76E
330
1A76D
100
AcDbEntity
  8
0
100
AcDbBlockBegin
  2
*U6
 70
     1
 10
0.0
 20
0.0
 30
0.0
  3
*U6
  1

  0
TEXT
  5
1A76F
330
1A76D
100
AcDbEntity
  8
SUNPOU
100
AcDbText
 10
12039.21703198606
 20
8277.143931901829
 30
0.0
 40
90.0
  1
1800
 50
90.0
 41
0.6666666666666666
  7
00
100
AcDbText
  0
ENDBLK
  5
1A770
330
1A76D
100
AcDbEntity
  8
0
100
AcDbBlockEnd
  0
BLOCK
  5
1A772
330
1A771
100
AcDbEntity
  8
0
100
AcDbBlockBegin
  2
*U7
 70
     1
 10
0.0
 20
0.0
 30
0.0
  3
*U7
  1

  0
TEXT
  5
1A773
330
1A771
100
AcDbEntity
  8
SUNPOU
100
AcDbText
 10
8747.074174843204
 20
6290.715360473253
 30
0.0
 40
90.0
  1
600
 41
0.6666666666666666
  7
00
100
AcDbText
  0
ENDBLK
  5
1A774
330
1A771
100
AcDbEntity
  8
0
100
AcDbBlockEnd
  0
BLOCK
  5
1A776
330
1A775
100
AcDbEntity
  8
0
100
AcDbBlockBegin
  2
*U8
 70
     1
 10
0.0
 20
0.0
 30
0.0
  3
*U8
  1

  0
TEXT
  5
1A777
330
1A775
100
AcDbEntity
  8
SUNPOU
100
AcDbText
 10
7447.074174843203
 20
8740.715360473251
 30
0.0
 40
90.0
  1
600
 41
0.6666666666666666
  7
00
100
AcDbText
  0
ENDBLK
  5
1A778
330
1A775
100
AcDbEntity
  8
0
100
AcDbBlockEnd
  0
BLOCK
  5
1A77A
330
1A779
100
AcDbEntity
  8
0
100
AcDbBlockBegin
  2
*U9
 70
     1
 10
0.0
 20
0.0
 30
0.0
  3
*U9
  1

  0
TEXT
  5
1A77B
330
1A779
100
AcDbEntity
  8
SUNPOU
100
AcDbText
 10
6889.21703198606
 20
9208.572503330399
 30
0.0
 40
90.0
  1
600
 50
90.0
 41
0.6666666666666666
  7
00
100
AcDbText
  0
ENDBLK
  5
1A77C
330
1A779
100
AcDbEntity
  8
0
100
AcDbBlockEnd
  0
BLOCK
  5
1A77E
330
1A77D
100
AcDbEntity
  8
0
100
AcDbBlockBegin
  2
*U10
 70
     1
 10
0.0
 20
0.0
 30
0.0
  3
*U10
  1

  0
TEXT
  5
1A77F
330
1A77D
100
AcDbEntity
  8
SUNPOU
100
AcDbText
 10
9944.931317700344
 20
10040.71536047325
 30
0.0
 40
90.0
  1
2450
 41
0.6666666666666666
  7
00
100
AcDbText
  0
ENDBLK
  5
1A780
330
1A77D
100
AcDbEntity
  8
0
100
AcDbBlockEnd
  0
BLOCK
  5
1A782
330
1A781
100
AcDbEntity
  8
0
100
AcDbBlockBegin
  2
*U11
 70
     1
 10
0.0
 20
0.0
 30
0.0
  3
*U11
  1

  0
TEXT
  5
1A783
330
1A781
100
AcDbEntity
  8
SUNPOU
100
AcDbText
 10
6194.931317700345
 20
10040.71536047325
 30
0.0
 40
90.0
  1
2450
 41
0.6666666666666666
  7
00
100
AcDbText
  0
ENDBLK
  5
1A784
330
1A781
100
AcDbEntity
  8
0
100
AcDbBlockEnd
  0
BLOCK
  5
1A786
330
1A785
100
AcDbEntity
  8
0
100
AcDbBlockBegin
  2
*U12
 70
     1
 10
0.0
 20
0.0
 30
0.0
  3
*U12
  1

  0
TEXT
  5
1A787
330
1A785
100
AcDbEntity
  8
SUNPOU
100
AcDbText
 10
9389.21703198606
 20
5608.572503330398
 30
0.0
 40
90.0
  1
600
 50
90.0
 41
0.6666666666666666
  7
00
100
AcDbText
  0
ENDBLK
  5
1A788
330
1A785
100
AcDbEntity
  8
0
100
AcDbBlockEnd
  0
BLOCK
  5
1A78A
330
1A789
100
AcDbEntity
  8
0
100
AcDbBlockBegin
  2
*U13
 70
     1
 10
0.0
 20
0.0
 30
0.0
  3
*U13
  1

  0
TEXT
  5
1A78B
330
1A789
100
AcDbEntity
  8
SUNPOU
100
AcDbText
 10
4798.502746271775
 20
10040.71536047325
 30
0.0
 40
90.0
  1
400
 41
0.6666666666666666
  7
00
100
AcDbText
  0
ENDBLK
  5
1A78C
330
1A789
100
AcDbEntity
  8
0
100
AcDbBlockEnd
  0
BLOCK
  5
1A78E
330
1A78D
100
AcDbEntity
  8
0
100
AcDbBlockBegin
  2
*U14
 70
     1
 10
0.0
 20
0.0
 30
0.0
  3
*U14
  1

  0
TEXT
  5
1A78F
330
1A78D
100
AcDbEntity
  8
SUNPOU
100
AcDbText
 10
11398.50274627177
 20
10040.71536047325
 30
0.0
 40
90.0
  1
400
 41
0.6666666666666666
  7
00
100
AcDbText
  0
ENDBLK
  5
1A790
330
1A78D
100
AcDbEntity
  8
0
100
AcDbBlockEnd
  0
BLOCK
  5
1A792
330
1A791
100
AcDbEntity
  8
0
100
AcDbBlockBegin
  2
*U15
 70
     1
 10
0.0
 20
0.0
 30
0.0
  3
*U15
  1

  0
TEXT
  5
1A793
330
1A791
100
AcDbEntity
  8
SUNPOU
100
AcDbText
 10
7720.502746271773
 20
10250.71536047325
 30
0.0
 40
90.0
  1
L = 2450 x N + 800
 41
0.6666666666666666
  7
00
100
AcDbText
  0
ENDBLK
  5
1A794
330
1A791
100
AcDbEntity
  8
0
100
AcDbBlockEnd
  0
BLOCK
  5
1A796
330
1A795
100
AcDbEntity
  8
0
100
AcDbBlockBegin
  2
*U16
 70
     1
 10
0.0
 20
0.0
 30
0.0
  3
*U16
  1

  0
TEXT
  5
1A797
330
1A795
100
AcDbEntity
  8
SUNPOU
100
AcDbText
 10
3298.619628952101
 20
3332.183932023017
 30
0.0
 40
90.0
  1
400
 41
0.6666666666666666
  7
00
100
AcDbText
  0
ENDBLK
  5
1A798
330
1A795
100
AcDbEntity
  8
0
100
AcDbBlockEnd
  0
BLOCK
  5
1A79A
330
1A799
100
AcDbEntity
  8
0
100
AcDbBlockBegin
  2
*U17
 70
     1
 10
0.0
 20
0.0
 30
0.0
  3
*U17
  1

  0
TEXT
  5
1A79B
330
1A799
100
AcDbEntity
  8
SUNPOU
100
AcDbText
 10
2498.333796409538
 20
2014.469646308733
 30
0.0
 40
90.0
  1
480
 50
90.0
 41
0.6666666666666666
  7
00
100
AcDbText
  0
ENDBLK
  5
1A79C
330
1A799
100
AcDbEntity
  8
0
100
AcDbBlockEnd
  0
BLOCK
  5
1A79E
330
1A79D
100
AcDbEntity
  8
0
100
AcDbBlockBegin
  2
*U18
 70
     1
 10
0.0
 20
0.0
 30
0.0
  3
*U18
  1

  0
TEXT
  5
1A79F
330
1A79D
100
AcDbEntity
  8
SUNPOU
100
AcDbText
 10
2698.333796409539
 20
1706.183932023019
 30
0.0
 40
90.0
  1
100
 50
90.0
 41
0.6666666666666666
  7
00
100
AcDbText
  0
ENDBLK
  5
1A7A0
330
1A79D
100
AcDbEntity
  8
0
100
AcDbBlockEnd
  0
BLOCK
  5
1A7A2
330
1A7A1
100
AcDbEntity
  8
0
100
AcDbBlockBegin
  2
*U19
 70
     1
 10
0.0
 20
0.0
 30
0.0
  3
*U19
  1

  0
TEXT
  5
1A7A3
330
1A7A1
100
AcDbEntity
  8
SUNPOU
100
AcDbText
 10
2698.333796409537
 20
2094.469646308733
 30
0.0
 40
90.0
  1
380
 50
90.0
 41
0.6666666666666666
  7
00
100
AcDbText
  0
ENDBLK
  5
1A7A4
330
1A7A1
100
AcDbEntity
  8
0
100
AcDbBlockEnd
  0
BLOCK
  5
1A7A6
330
1A7A5
100
AcDbEntity
  8
0
100
AcDbBlockBegin
  2
*U20
 70
     1
 10
0.0
 20
0.0
 30
0.0
  3
*U20
  1

  0
TEXT
  5
1A7A7
330
1A7A5
100
AcDbEntity
  8
SUNPOU
100
AcDbText
 10
3618.6196289521
 20
1214.183932023016
 30
0.0
 40
90.0
  1
800
 41
0.6666666666666666
  7
00
100
AcDbText
  0
ENDBLK
  5
1A7A8
330
1A7A5
100
AcDbEntity
  8
0
100
AcDbBlockEnd
  0
BLOCK
  5
1A7AA
330
1A7A9
100
AcDbEntity
  8
0
100
AcDbBlockBegin
  2
*U21
 70
     1
 10
0.0
 20
0.0
 30
0.0
  3
*U21
  1

  0
TEXT
  5
1A7AB
330
1A7A9
100
AcDbEntity
  8
SUNPOU
100
AcDbText
 10
3617.191057523529
 20
1424.183932023016
 30
0.0
 40
90.0
  1
600
 41
0.6666666666666666
  7
00
100
AcDbText
  0
ENDBLK
  5
1A7AC
330
1A7A9
100
AcDbEntity
  8
0
100
AcDbBlockEnd
  0
BLOCK
  5
1A7AE
330
1A7AD
100
AcDbEntity
  8
0
100
AcDbBlockBegin
  2
*U22
 70
     1
 10
0.0
 20
0.0
 30
0.0
  3
*U22
  1

  0
TEXT
  5
1A7AF
330
1A7AD
100
AcDbEntity
  8
SUNPOU
100
AcDbText
 10
7632.187272641154
 20
1214.183932023014
 30
0.0
 40
90.0
  1
1000
 41
0.6666666666666666
  7
00
100
AcDbText
  0
ENDBLK
  5
1A7B0
330
1A7AD
100
AcDbEntity
  8
0
100
AcDbBlockEnd
  0
BLOCK
  5
1A7B2
330
1A7B1
100
AcDbEntity
  8
0
100
AcDbBlockBegin
  2
*U23
 70
     1
 10
0.0
 20
0.0
 30
0.0
  3
*U23
  1

  0
TEXT
  5
1A7B3
330
1A7B1
100
AcDbEntity
  8
SUNPOU
100
AcDbText
 10
7665.044415498293
 20
1424.183932023014
 30
0.0
 40
90.0
  1
800
 41
0.6666666666666666
  7
00
100
AcDbText
  0
ENDBLK
  5
1A7B4
330
1A7B1
100
AcDbEntity
  8
0
100
AcDbBlockEnd
  0
BLOCK
  5
1A7B6
330
1A7B5
100
AcDbEntity
  8
0
100
AcDbBlockBegin
  2
*U24
 70
     1
 10
0.0
 20
0.0
 30
0.0
  3
*U24
  1

  0
TEXT
  5
1A7B7
330
1A7B5
100
AcDbEntity
  8
SUNPOU
100
AcDbText
 10
6384.758582955733
 20
2014.469646308732
 30
0.0
 40
90.0
  1
480
 50
90.0
 41
0.6666666666666666
  7
00
100
AcDbText
  0
ENDBLK
  5
1A7B8
330
1A7B5
100
AcDbEntity
  8
0
100
AcDbBlockEnd
  0
BLOCK
  5
1A7BA
330
1A7B9
100
AcDbEntity
  8
0
100
AcDbBlockBegin
  2
*U25
 70
     1
 10
0.0
 20
0.0
 30
0.0
  3
*U25
  1

  0
TEXT
  5
1A7BB
330
1A7B9
100
AcDbEntity
  8
SUNPOU
100
AcDbText
 10
6584.758582955732
 20
1706.183932023017
 30
0.0
 40
90.0
  1
100
 50
90.0
 41
0.6666666666666666
  7
00
100
AcDbText
  0
ENDBLK
  5
1A7BC
330
1A7B9
100
AcDbEntity
  8
0
100
AcDbBlockEnd
  0
BLOCK
  5
1A7BE
330
1A7BD
100
AcDbEntity
  8
0
100
AcDbBlockBegin
  2
*U26
 70
     1
 10
0.0
 20
0.0
 30
0.0
  3
*U26
  1

  0
TEXT
  5
1A7BF
330
1A7BD
100
AcDbEntity
  8
SUNPOU
100
AcDbText
 10
6584.758582955732
 20
2094.469646308731
 30
0.0
 40
90.0
  1
380
 50
90.0
 41
0.6666666666666666
  7
00
100
AcDbText
  0
ENDBLK
  5
1A7C0
330
1A7BD
100
AcDbEntity
  8
0
100
AcDbBlockEnd
  0
BLOCK
  5
1A7C2
330
1A7C1
100
AcDbEntity
  8
0
100
AcDbBlockBegin
  2
*U27
 70
     1
 10
0.0
 20
0.0
 30
0.0
  3
*U27
  1

  0
TEXT
  5
1A7C3
330
1A7C1
100
AcDbEntity
  8
SUNPOU
100
AcDbText
 10
7345.044415498293
 20
3332.183932023015
 30
0.0
 40
90.0
  1
400
 41
0.6666666666666666
  7
00
100
AcDbText
  0
ENDBLK
  5
1A7C4
330
1A7C1
100
AcDbEntity
  8
0
100
AcDbBlockEnd
  0
ENDSEC
  0
SECTION
  2
ENTITIES
  0
TEXT
  5
1A7C5
330
1A72B
100
AcDbEntity
  8
NAME
100
AcDbText
 10
12203.32857318294
 20
1055.0
 30
0.0
 40
120.0
  1
Y O K C S
 41
0.6666666666666666
  7
00
100
AcDbText
  0
TEXT
  5
1A7C6
330
1A72B
100
AcDbEntity
  8
NAME
100
AcDbText
 10
11127.73587134625
 20
1055.0
 30
0.0
 40
120.0
  1
ヨド自転車置場　　　    型
  7
01
100
AcDbText
  0
TEXT
  5
1A7C7
330
1A72B
100
AcDbEntity
  8
NAME
100
AcDbText
 10
11112.07508082364
 20
875.0
 30
0.0
 40
120.0
  1
棟合せタイプ（埋め込み方式）
  7
01
 72
     4
 11
12072.07508082364
 21
935.0
 31
0.0
100
AcDbText
  0
TEXT
  5
1A7C8
330
1A72B
100
AcDbEntity
  8
NAME
100
AcDbText
 10
12854.79999999999
 20
541.0000000000001
 30
0.0
 40
160.0
  1
<3／3>
 41
0.6
  7
01
 72
     2
 11
13354.0
 21
541.0000000000001
 31
0.0
100
AcDbText
  0
TEXT
  5
1A7C9
330
1A72B
100
AcDbEntity
  8
NAME
100
AcDbText
 10
10789.37598063762
 20
541.0
 30
0.0
 40
160.0
  1
YOKCS-245
 41
0.7
  7
01
 72
     2
 11
11776.04264730429
 21
541.0
 31
0.0
100
AcDbText
  0
TEXT
  5
1A7CA
330
1A72B
100
AcDbEntity
  8
NAME
100
AcDbText
 10
11816.04264730429
 20
541.0
 30
0.0
 40
160.0
  1
型（積雪地用）
 41
0.8
  7
01
100
AcDbText
  0
TEXT
  5
1A7E8
330
1A72B
100
AcDbEntity
  8
SUNPOU
100
AcDbText
 10
4432.885652329143
 20
7840.715360473251
 30
0.0
 40
90.0
  1
B
 41
0.6700000000000001
  7
00
 72
     4
 11
4464.471366614856
 21
7885.715360473252
 31
0.0
100
AcDbText
  0
LINE
  5
1A7E9
330
1A72B
100
AcDbEntity
  8
SUNPOU
100
AcDbLine
 10
4464.47136661486
 20
7495.715360473251
 30
0.0
 11
4614.47136661486
 21
7495.715360473251
 31
0.0
  0
LINE
  5
1A7EA
330
1A72B
100
AcDbEntity
  8
SUNPOU
100
AcDbLine
 10
4464.47136661486
 20
7705.715360473253
 30
0.0
 11
4464.47136661486
 21
7495.715360473251
 31
0.0
  0
SOLID
  5
1A7EB
330
1A72B
100
AcDbEntity
  8
SUNPOU
100
AcDbTrace
 10
4449.47136661486
 20
7705.715360473253
 30
0.0
 11
4479.47136661486
 21
7705.715360473253
 31
0.0
 12
4464.47136661486
 22
7795.715360473251
 32
0.0
 13
4464.47136661486
 23
7795.715360473251
 33
0.0
  0
LINE
  5
1A7EC
330
1A72B
100
AcDbEntity
  8
SUNPOU
100
AcDbLine
 10
5669.217031986065
 20
7495.715360473251
 30
0.0
 11
5519.21703198606
 21
7495.715360473251
 31
0.0
  0
TEXT
  5
1A7ED
330
1A72B
100
AcDbEntity
  8
SUNPOU
100
AcDbText
 10
5624.709889128922
 20
7832.143931901822
 30
0.0
 40
90.0
  1
B'
 41
0.6700000000000001
  7
00
 72
     4
 11
5669.217031986065
 21
7885.715360473252
 31
0.0
100
AcDbText
  0
LINE
  5
1A7EE
330
1A72B
100
AcDbEntity
  8
SUNPOU
100
AcDbLine
 10
5669.217031986065
 20
7705.715360473253
 30
0.0
 11
5669.217031986065
 21
7495.715360473251
 31
0.0
  0
SOLID
  5
1A7EF
330
1A72B
100
AcDbEntity
  8
SUNPOU
100
AcDbTrace
 10
5684.217031986064
 20
7705.715360473253
 30
0.0
 11
5654.217031986064
 21
7705.715360473253
 31
0.0
 12
5669.217031986065
 22
7795.715360473251
 32
0.0
 13
5669.217031986065
 23
7795.715360473251
 33
0.0
  0
LINE
  5
1A7F0
330
1A72B
100
AcDbEntity
  8
CENTER
  6
1PL-M
100
AcDbLine
 10
8834.21703198606
 20
8245.715360473253
 30
0.0
 11
8834.21703198606
 21
9695.715360473252
 31
0.0
  0
LINE
  5
1A7F1
330
1A72B
100
AcDbEntity
  8
CENTER
  6
1PL-M
100
AcDbLine
 10
9454.217031986059
 20
7495.715360473251
 30
0.0
 11
12129.21703198605
 21
7495.715360473251
 31
0.0
  0
LINE
  5
1A7F2
330
1A72B
100
AcDbEntity
  8
CENTER
  6
1PL-M
100
AcDbLine
 10
8244.217031986062
 20
7495.715360473251
 30
0.0
 11
9189.217031986059
 21
7495.715360473251
 31
0.0
  0
LINE
  5
1A7F3
330
1A72B
100
AcDbEntity
  8
CENTER
  6
1PL-M
100
AcDbLine
 10
4614.21703198606
 20
7495.715360473251
 30
0.0
 11
8124.217031986061
 21
7495.715360473251
 31
0.0
  0
LINE
  5
1A7F4
330
1A72B
100
AcDbEntity
  8
CENTER
  6
1PL-M
100
AcDbLine
 10
8244.217031986062
 20
5695.715360473253
 30
0.0
 11
9274.217031986065
 21
5695.715360473253
 31
0.0
  0
LINE
  5
1A7F5
330
1A72B
100
AcDbEntity
  8
CENTER
  6
1PL-M
100
AcDbLine
 10
8244.217031986062
 20
9295.715360473252
 30
0.0
 11
12129.21703198605
 21
9295.715360473252
 31
0.0
  0
TEXT
  5
1A7F6
330
1A72B
100
AcDbEntity
  8
SUNPOU
100
AcDbText
 10
10531.34907160025
 20
4902.649361983672
 30
0.0
 40
90.0
  1
（  ：スパン数）
  7
01
 11
10531.34907160025
 21
4947.649361983672
 31
0.0
100
AcDbText
 73
     2
  0
TEXT
  5
1A7F7
330
1A72B
100
AcDbEntity
  8
SUNPOU
100
AcDbText
 10
10661.81028265175
 20
4902.649361983672
 30
0.0
 40
90.0
  1
N
 41
0.6666666666666666
  7
00
 72
     4
 11
10693.23885408032
 21
4947.649361983672
 31
0.0
100
AcDbText
  0
LINE
  5
1A7F8
330
1A72B
100
AcDbEntity
  8
CENTER
  6
1PL-M
100
AcDbLine
 10
4614.21703198606
 20
5695.715360473253
 30
0.0
 11
8124.217031986061
 21
5695.715360473253
 31
0.0
  0
LINE
  5
1A7F9
330
1A72B
100
AcDbEntity
  8
CENTER
  6
1PL-M
100
AcDbLine
 10
6982.96703198606
 20
9295.715360473252
 30
0.0
 11
8124.217031986061
 21
9295.715360473252
 31
0.0
  0
LINE
  5
1A7FA
330
1A72B
100
AcDbEntity
  8
SUNPOU
100
AcDbLine
 10
8124.217031986061
 20
9685.715360473253
 30
0.0
 11
8124.217031986061
 21
5275.715360473252
 31
0.0
  0
LINE
  5
1A7FB
330
1A72B
100
AcDbEntity
  8
CENTER
  6
1PL-M
100
AcDbLine
 10
5084.21703198606
 20
5295.715360473253
 30
0.0
 11
5084.21703198606
 21
9695.715360473252
 31
0.0
  0
LINE
  5
1A7FC
330
1A72B
100
AcDbEntity
  8
CENTER
  6
1PL-M
100
AcDbLine
 10
7534.217031986059
 20
8845.715360473255
 30
0.0
 11
7534.217031986059
 21
9695.715360473252
 31
0.0
  0
LINE
  5
1A7FD
330
1A72B
100
AcDbEntity
  8
CENTER
  6
1PL-M
100
AcDbLine
 10
7534.217031986059
 20
5295.715360473253
 30
0.0
 11
7534.217031986059
 21
8650.715360473251
 31
0.0
  0
LINE
  5
1A7FE
330
1A72B
100
AcDbEntity
  8
CENTER
  6
1PL-M
100
AcDbLine
 10
4614.21703198606
 20
9295.715360473252
 30
0.0
 11
6784.217031986064
 21
9295.715360473252
 31
0.0
  0
LINE
  5
1A7FF
330
1A72B
100
AcDbEntity
  8
CENTER
  6
1PL-M
100
AcDbLine
 10
9469.217031986065
 20
5695.715360473253
 30
0.0
 11
12129.21703198605
 21
5695.715360473253
 31
0.0
  0
LINE
  5
1A800
330
1A72B
100
AcDbEntity
  8
SUNPOU
100
AcDbLine
 10
11714.21703198606
 20
9595.715360473253
 30
0.0
 11
12339.21703198606
 21
9595.715360473253
 31
0.0
  0
LINE
  5
1A801
330
1A72B
100
AcDbEntity
  8
SUNPOU
100
AcDbLine
 10
11714.21703198606
 20
5395.715360473253
 30
0.0
 11
12339.21703198606
 21
5395.715360473253
 31
0.0
  0
LINE
  5
1A802
330
1A72B
100
AcDbEntity
  8
SUNPOU
100
AcDbLine
 10
8244.217031986062
 20
9685.715360473253
 30
0.0
 11
8244.217031986062
 21
5275.715360473252
 31
0.0
  0
LINE
  5
1A803
330
1A72B
100
AcDbEntity
  8
CENTER
  6
1PL-M
100
AcDbLine
 10
11284.21703198606
 20
5295.715360473253
 30
0.0
 11
11284.21703198606
 21
9695.715360473252
 31
0.0
  0
LINE
  5
1A804
330
1A72B
100
AcDbEntity
  8
CENTER
  6
1PL-M
100
AcDbLine
 10
8834.21703198606
 20
5295.715360473253
 30
0.0
 11
8834.21703198606
 21
6200.715360473253
 31
0.0
  0
LINE
  5
1A805
330
1A72B
100
AcDbEntity
  8
SUNPOU
100
AcDbLine
 10
12294.21703198606
 20
9580.715360473252
 30
0.0
 11
12294.21703198606
 21
5410.715360473253
 31
0.0
  0
LINE
  5
1A806
330
1A72B
100
AcDbEntity
  8
SUNPOU
100
AcDbLine
 10
12084.21703198605
 20
5680.715360473254
 30
0.0
 11
12084.21703198605
 21
5410.715360473253
 31
0.0
  0
LINE
  5
1A807
330
1A72B
100
AcDbEntity
  8
SUNPOU
100
AcDbLine
 10
12054.21703198606
 20
5395.715360473253
 30
0.0
 11
12039.21703198606
 21
5395.715360473253
 31
0.0
  0
TEXT
  5
1A808
330
1A72B
100
AcDbEntity
  8
SUNPOU
100
AcDbText
 10
12039.21703198606
 20
5460.001074758968
 30
0.0
 40
90.0
  1
300
 50
90.0
 41
0.6666666666666666
  7
00
 72
     4
 11
11994.21703198606
 21
5545.715360473253
 31
0.0
100
AcDbText
  0
TEXT
  5
1A809
330
1A72B
100
AcDbEntity
  8
SUNPOU
100
AcDbText
 10
12249.21703198605
 20
7381.429646187537
 30
0.0
 40
90.0
  1
4200
 50
90.0
 41
0.6666666666666666
  7
00
 72
     4
 11
12204.21703198605
 21
7495.715360473251
 31
0.0
100
AcDbText
  0
LINE
  5
1A80A
330
1A72B
100
AcDbEntity
  8
SUNPOU
100
AcDbLine
 10
12084.21703198605
 20
9580.715360473252
 30
0.0
 11
12084.21703198605
 21
9310.715360473251
 31
0.0
  0
TEXT
  5
1A80B
330
1A72B
100
AcDbEntity
  8
SUNPOU
100
AcDbText
 10
12039.21703198606
 20
9360.001074758967
 30
0.0
 40
90.0
  1
300
 50
90.0
 41
0.6666666666666666
  7
00
 72
     1
 11
11994.21703198606
 21
9445.715360473252
 31
0.0
100
AcDbText
 73
     2
  0
LINE
  5
1A80C
330
1A72B
100
AcDbEntity
  8
SUNPOU
100
AcDbLine
 10
12054.21703198606
 20
9595.715360473253
 30
0.0
 11
12039.21703198606
 21
9595.715360473253
 31
0.0
  0
LINE
  5
1A80D
330
1A72B
100
AcDbEntity
  8
CENTER
  6
1PL-M
100
AcDbLine
 10
8834.21703198606
 20
6395.715360473253
 30
0.0
 11
8834.21703198606
 21
8020.715360473252
 31
0.0
  0
LINE
  5
1A80E
330
1A72B
100
AcDbEntity
  8
SUNPOU
100
AcDbLine
 10
8834.21703198606
 20
9725.715360473252
 30
0.0
 11
8834.21703198606
 21
10040.71536047325
 31
0.0
  0
LINE
  5
1A80F
330
1A72B
100
AcDbEntity
  8
SUNPOU
100
AcDbLine
 10
7534.217031986059
 20
9725.715360473252
 30
0.0
 11
7534.217031986059
 21
10040.71536047325
 31
0.0
  0
LINE
  5
1A810
330
1A72B
100
AcDbEntity
  8
SUNPOU
100
AcDbLine
 10
8819.21703198606
 20
9995.715360473253
 30
0.0
 11
7549.21703198606
 21
9995.715360473253
 31
0.0
  0
TEXT
  5
1A811
330
1A72B
100
AcDbEntity
  8
HIKIDASHI
100
AcDbText
 10
5749.264373012014
 20
9720.715360473253
 30
0.0
 40
90.0
  1
（屋根前面位置）
  7
01
100
AcDbText
  0
TEXT
  5
1A812
330
1A72B
100
AcDbEntity
  8
HIKIDASHI
100
AcDbText
 10
5665.155771095992
 20
9455.715360473243
 30
0.0
 40
90.0
  1
（土間コン後面位置）
  7
01
100
AcDbText
  0
SOLID
  5
1A813
330
1A72B
100
AcDbEntity
  8
SUNPOU
100
AcDbTrace
 10
4449.47136661486
 20
5905.715360473253
 30
0.0
 11
4479.47136661486
 21
5905.715360473253
 31
0.0
 12
4464.47136661486
 22
5995.715360473253
 32
0.0
 13
4464.47136661486
 23
5995.715360473253
 33
0.0
  0
TEXT
  5
1A814
330
1A72B
100
AcDbEntity
  8
SUNPOU
100
AcDbText
 10
4438.628509471999
 20
6040.715360473253
 30
0.0
 40
90.0
  1
A
 41
0.6700000000000001
  7
00
 72
     4
 11
4464.471366614856
 21
6085.715360473253
 31
0.0
100
AcDbText
  0
LINE
  5
1A815
330
1A72B
100
AcDbEntity
  8
SUNPOU
100
AcDbLine
 10
4464.47136661486
 20
5905.715360473253
 30
0.0
 11
4464.47136661486
 21
5695.715360473253
 31
0.0
  0
LINE
  5
1A816
330
1A72B
100
AcDbEntity
  8
SUNPOU
100
AcDbLine
 10
4464.47136661486
 20
5695.715360473253
 30
0.0
 11
4614.47136661486
 21
5695.715360473253
 31
0.0
  0
LINE
  5
1A817
330
1A72B
100
AcDbEntity
  8
SUNPOU
100
AcDbLine
 10
5569.630294679762
 20
5695.715360473253
 30
0.0
 11
5419.630294679759
 21
5695.715360473253
 31
0.0
  0
LINE
  5
1A818
330
1A72B
100
AcDbEntity
  8
SUNPOU
100
AcDbLine
 10
5569.630294679762
 20
5905.715360473253
 30
0.0
 11
5569.630294679762
 21
5695.715360473253
 31
0.0
  0
TEXT
  5
1A819
330
1A72B
100
AcDbEntity
  8
SUNPOU
100
AcDbText
 10
5533.737437536905
 20
6032.143931901824
 30
0.0
 40
90.0
  1
A'
 41
0.6700000000000001
  7
00
 72
     4
 11
5569.630294679762
 21
6085.715360473253
 31
0.0
100
AcDbText
  0
SOLID
  5
1A81A
330
1A72B
100
AcDbEntity
  8
SUNPOU
100
AcDbTrace
 10
5584.630294679762
 20
5905.715360473253
 30
0.0
 11
5554.630294679762
 21
5905.715360473253
 31
0.0
 12
5569.630294679762
 22
5995.715360473253
 32
0.0
 13
5569.630294679762
 23
5995.715360473253
 33
0.0
  0
TEXT
  5
1A81B
330
1A72B
100
AcDbEntity
  8
HIKIDASHI
100
AcDbText
 10
5749.264373012014
 20
5180.715360473254
 30
0.0
 40
90.0
  1
（屋根前面位置）
  7
01
100
AcDbText
  0
TEXT
  5
1A81C
330
1A72B
100
AcDbEntity
  8
HIKIDASHI
100
AcDbText
 10
5665.155771095992
 20
5445.71536047326
 30
0.0
 40
90.0
  1
（土間コン前面位置）
  7
01
100
AcDbText
  0
TEXT
  5
1A81D
330
1A72B
100
AcDbEntity
  8
HIKIDASHI
100
AcDbText
 10
8772.515803529449
 20
4879.531802304223
 30
0.0
 40
80.0
  1
)
 41
0.6700000000000001
  7
00
100
AcDbText
  0
TEXT
  5
1A81E
330
1A72B
100
AcDbEntity
  8
HIKIDASHI
100
AcDbText
 10
8571.657054840066
 20
4895.09328005242
 30
0.0
 40
80.0
  1
1
 41
0.6700000000000001
  7
00
100
AcDbText
  0
TEXT
  5
1A81F
330
1A72B
100
AcDbEntity
  8
HIKIDASHI
100
AcDbText
 10
8604.794192704373
 20
4879.531802304223
 30
0.0
 40
80.0
  1
/
 41
0.6700000000000001
  7
00
100
AcDbText
  0
TEXT
  5
1A820
330
1A72B
100
AcDbEntity
  8
HIKIDASHI
100
AcDbText
 10
8651.089347467019
 20
4853.363971103946
 30
0.0
 40
80.0
  1
40
 41
0.6700000000000001
  7
00
100
AcDbText
  0
TEXT
  5
1A821
330
1A72B
100
AcDbEntity
  8
HIKIDASHI
100
AcDbText
 10
8390.949138902394
 20
4879.531802304223
 30
0.0
 40
80.0
  1
(S=
 41
0.6700000000000001
  7
00
100
AcDbText
  0
TEXT
  5
1A822
330
1A72B
100
AcDbEntity
  8
HIKIDASHI
100
AcDbText
 10
7548.949138902393
 20
4855.715360473254
 30
0.0
 40
120.0
  1
基 礎 伏 図
  7
01
 72
     2
 11
8300.949138902394
 21
4855.715360473254
 31
0.0
100
AcDbText
  0
LINE
  5
1A823
330
1A72B
100
AcDbEntity
  8
U3
100
AcDbLine
 10
2776.333914666386
 20
2303.169754165144
 30
0.0
 11
2843.31973680851
 21
2236.183932023019
 31
0.0
  0
LINE
  5
1A824
330
1A72B
100
AcDbEntity
  8
U3
100
AcDbLine
 10
3064.333914666386
 20
2404.183932023017
 30
0.0
 11
2776.333914666386
 21
2404.183932023017
 31
0.0
  0
LINE
  5
1A825
330
1A72B
100
AcDbEntity
  8
U3
100
AcDbLine
 10
2894.231425053934
 20
2287.095620268444
 30
0.0
 11
3011.31973680851
 21
2404.183932023017
 31
0.0
  0
LINE
  5
1A826
330
1A72B
100
AcDbEntity
  8
U3
100
AcDbLine
 10
2777.143113299321
 20
2404.183932023017
 30
0.0
 11
2945.143113299374
 21
2236.183932023021
 31
0.0
  0
LINE
  5
1A827
330
1A72B
100
AcDbEntity
  8
U3
100
AcDbLine
 10
2712.333914666388
 20
2404.183932023017
 30
0.0
 11
2105.143113299378
 21
2404.183932023017
 31
0.0
  0
LINE
  5
1A828
330
1A72B
100
AcDbEntity
  8
U3
100
AcDbLine
 10
2675.319736808516
 20
2302.360555532155
 30
0.0
 11
2690.829693650987
 21
2286.850598689685
 31
0.0
  0
LINE
  5
1A829
330
1A72B
100
AcDbEntity
  8
U3
100
AcDbLine
 10
2659.809779966045
 20
2286.850598689685
 30
0.0
 11
2712.333914666388
 21
2339.374733390029
 31
0.0
  0
LINE
  5
1A82A
330
1A72B
100
AcDbEntity
  8
U3
100
AcDbLine
 10
2390.231425053941
 20
2353.272243777586
 30
0.0
 11
2507.319736808512
 21
2236.183932023017
 31
0.0
  0
LINE
  5
1A82B
330
1A72B
100
AcDbEntity
  8
U3
100
AcDbLine
 10
2339.319736808512
 20
2302.360555532155
 30
0.0
 11
2405.496360317653
 21
2236.183932023017
 31
0.0
  0
LINE
  5
1A82C
330
1A72B
100
AcDbEntity
  8
U3
100
AcDbLine
 10
2558.231425053949
 20
2287.095620268451
 30
0.0
 11
2675.319736808516
 21
2404.183932023015
 31
0.0
  0
LINE
  5
1A82D
330
1A72B
100
AcDbEntity
  8
U3
100
AcDbLine
 10
2273.143113299378
 20
2236.183932023017
 30
0.0
 11
2441.143113299379
 21
2404.183932023015
 31
0.0
  0
LINE
  5
1A82E
330
1A72B
100
AcDbEntity
  8
U3
100
AcDbLine
 10
2171.319736808516
 20
2338.007308513879
 30
0.0
 11
2237.496360317652
 21
2404.183932023013
 31
0.0
  0
LINE
  5
1A82F
330
1A72B
100
AcDbEntity
  8
U3
100
AcDbLine
 10
2105.143113299378
 20
2404.183932023017
 30
0.0
 11
2273.143113299378
 21
2236.183932023017
 31
0.0
  0
LINE
  5
1A830
330
1A72B
100
AcDbEntity
  8
U3
100
AcDbLine
 10
2222.231425053946
 20
2287.095620268448
 30
0.0
 11
2339.319736808516
 21
2404.183932023013
 31
0.0
  0
LINE
  5
1A831
330
1A72B
100
AcDbEntity
  8
U3
100
AcDbLine
 10
2441.143113299379
 20
2404.183932023015
 30
0.0
 11
2558.476446632713
 21
2286.850598689685
 31
0.0
  0
LINE
  5
1A832
330
1A72B
100
AcDbEntity
  8
HATCH
100
AcDbLine
 10
4742.519737066388
 20
2293.439306423018
 30
0.0
 11
4761.719737066387
 21
2260.183932023017
 31
0.0
  0
LINE
  5
1A833
330
1A72B
100
AcDbEntity
  8
HATCH
100
AcDbLine
 10
4886.519737066389
 20
2293.439306423018
 30
0.0
 11
4905.719737066387
 21
2260.183932023017
 31
0.0
  0
LINE
  5
1A834
330
1A72B
100
AcDbEntity
  8
HATCH
100
AcDbLine
 10
4884.345362666385
 20
2356.183932023017
 30
0.0
 11
4903.545362666386
 21
2322.928556023017
 31
0.0
  0
LINE
  5
1A835
330
1A72B
100
AcDbEntity
  8
HATCH
100
AcDbLine
 10
4867.319737066389
 20
2260.183932023017
 30
0.0
 11
4922.745362666384
 21
2356.183932023017
 31
0.0
  0
LINE
  5
1A836
330
1A72B
100
AcDbEntity
  8
HATCH
100
AcDbLine
 10
4990.727527466386
 20
2484.183932023019
 30
0.0
 11
4862.727527466386
 21
2356.183932023017
 31
0.0
  0
LINE
  5
1A837
330
1A72B
100
AcDbEntity
  8
HATCH
100
AcDbLine
 10
4895.692375466388
 20
2484.183932023019
 30
0.0
 11
4767.692375466388
 21
2356.183932023017
 31
0.0
  0
LINE
  5
1A838
330
1A72B
100
AcDbEntity
  8
HATCH
100
AcDbLine
 10
4943.209951466386
 20
2484.183932023019
 30
0.0
 11
4815.209951466385
 21
2356.183932023017
 31
0.0
  0
LINE
  5
1A839
330
1A72B
100
AcDbEntity
  8
HATCH
100
AcDbLine
 10
4614.519737066387
 20
2293.439306423018
 30
0.0
 11
4633.719737066387
 21
2260.183932023017
 31
0.0
  0
LINE
  5
1A83A
330
1A72B
100
AcDbEntity
  8
HATCH
100
AcDbLine
 10
4612.345362666385
 20
2356.183932023017
 30
0.0
 11
4631.545362666384
 21
2322.928556023017
 31
0.0
  0
LINE
  5
1A83B
330
1A72B
100
AcDbEntity
  8
HATCH
100
AcDbLine
 10
4595.319737066386
 20
2260.183932023017
 30
0.0
 11
4650.745362666384
 21
2356.183932023017
 31
0.0
  0
LINE
  5
1A83C
330
1A72B
100
AcDbEntity
  8
HATCH
100
AcDbLine
 10
4371.494221866386
 20
2356.183932023017
 30
0.0
 11
4355.494221866386
 21
2356.183932023017
 31
0.0
  0
LINE
  5
1A83D
330
1A72B
100
AcDbEntity
  8
HATCH
100
AcDbLine
 10
4470.519737066386
 20
2293.439306423018
 30
0.0
 11
4489.719737066387
 21
2260.183932023017
 31
0.0
  0
LINE
  5
1A83E
330
1A72B
100
AcDbEntity
  8
HATCH
100
AcDbLine
 10
4451.319737066387
 20
2260.183932023017
 30
0.0
 11
4506.745362666385
 21
2356.183932023017
 31
0.0
  0
LINE
  5
1A83F
330
1A72B
100
AcDbEntity
  8
HATCH
100
AcDbLine
 10
4468.345362666385
 20
2356.183932023017
 30
0.0
 11
4487.545362666384
 21
2322.928556023017
 31
0.0
  0
LINE
  5
1A840
330
1A72B
100
AcDbEntity
  8
HATCH
100
AcDbLine
 10
4510.727527466386
 20
2484.183932023019
 30
0.0
 11
4382.727527466385
 21
2356.183932023017
 31
0.0
  0
LINE
  5
1A841
330
1A72B
100
AcDbEntity
  8
HATCH
100
AcDbLine
 10
4326.519737066386
 20
2293.439306423018
 30
0.0
 11
4345.719737066387
 21
2260.183932023017
 31
0.0
  0
LINE
  5
1A842
330
1A72B
100
AcDbEntity
  8
HATCH
100
AcDbLine
 10
4324.345362666385
 20
2356.183932023017
 30
0.0
 11
4343.545362666385
 21
2322.928556023017
 31
0.0
  0
LINE
  5
1A843
330
1A72B
100
AcDbEntity
  8
HATCH
100
AcDbLine
 10
4184.333914666385
 20
2296.581555464547
 30
0.0
 11
4218.745362666385
 21
2356.183932023017
 31
0.0
  0
LINE
  5
1A844
330
1A72B
100
AcDbEntity
  8
HATCH
100
AcDbLine
 10
4184.333914666385
 20
2349.275557207625
 30
0.0
 11
4199.545362666386
 21
2322.928556023017
 31
0.0
  0
LINE
  5
1A845
330
1A72B
100
AcDbEntity
  8
HATCH
100
AcDbLine
 10
4184.333914666385
 20
2290.297058750307
 30
0.0
 11
4201.719737066387
 21
2260.183932023017
 31
0.0
  0
LINE
  5
1A846
330
1A72B
100
AcDbEntity
  8
HATCH
100
AcDbLine
 10
4227.494221866386
 20
2356.183932023017
 30
0.0
 11
4211.494221866386
 21
2356.183932023017
 31
0.0
  0
LINE
  5
1A847
330
1A72B
100
AcDbEntity
  8
HATCH
100
AcDbLine
 10
4463.209951466384
 20
2484.183932023019
 30
0.0
 11
4335.209951466388
 21
2356.183932023017
 31
0.0
  0
LINE
  5
1A848
330
1A72B
100
AcDbEntity
  8
HATCH
100
AcDbLine
 10
4415.692375466385
 20
2484.183932023019
 30
0.0
 11
4287.692375466387
 21
2356.183932023017
 31
0.0
  0
LINE
  5
1A849
330
1A72B
100
AcDbEntity
  8
HATCH
100
AcDbLine
 10
4307.319737066388
 20
2260.183932023017
 30
0.0
 11
4362.745362666386
 21
2356.183932023017
 31
0.0
  0
LINE
  5
1A84A
330
1A72B
100
AcDbEntity
  8
HATCH
100
AcDbLine
 10
4740.345362666385
 20
2356.183932023017
 30
0.0
 11
4759.545362666385
 21
2322.928556023017
 31
0.0
  0
LINE
  5
1A84B
330
1A72B
100
AcDbEntity
  8
HATCH
100
AcDbLine
 10
4723.319737066386
 20
2260.183932023017
 30
0.0
 11
4778.745362666384
 21
2356.183932023017
 31
0.0
  0
LINE
  5
1A84C
330
1A72B
100
AcDbEntity
  8
KISO
100
AcDbLine
 10
4184.333914666385
 20
2260.183932023017
 30
0.0
 11
5021.727409209538
 21
2260.183932023017
 31
0.0
  0
LINE
  5
1A84D
330
1A72B
100
AcDbEntity
  8
KISO
100
AcDbLine
 10
5021.727409209538
 20
2356.183932023017
 30
0.0
 11
4184.333914666385
 21
2356.183932023017
 31
0.0
  0
LINE
  5
1A84E
330
1A72B
100
AcDbEntity
  8
KISO
100
AcDbLine
 10
3064.333914666386
 20
1876.183932023018
 30
0.0
 11
3064.333914666386
 21
1764.183932023017
 31
0.0
  0
LINE
  5
1A84F
330
1A72B
100
AcDbEntity
  8
1PL-M1
100
AcDbLine
 10
3704.333914666389
 20
1572.183932023019
 30
0.0
 11
3704.333914666387
 21
3332.183932023017
 31
0.0
  0
LINE
  5
1A850
330
1A72B
100
AcDbEntity
  8
HASHIRA
100
AcDbLine
 10
3652.333914666386
 20
1876.183932023019
 30
0.0
 11
3652.333914666386
 21
2964.183932023017
 31
0.0
  0
LINE
  5
1A851
330
1A72B
100
AcDbEntity
  8
HASHIRA
100
AcDbLine
 10
3756.333914666386
 20
1876.183932023019
 30
0.0
 11
3756.333914666384
 21
2964.183932023017
 31
0.0
  0
LINE
  5
1A852
330
1A72B
100
AcDbEntity
  8
KISO
100
AcDbLine
 10
4344.333914666385
 20
1876.183932023018
 30
0.0
 11
4344.333914666385
 21
1716.183932023018
 31
0.0
  0
LINE
  5
1A853
330
1A72B
100
AcDbEntity
  8
HATCH
100
AcDbLine
 10
3758.930376559231
 20
1716.183932023018
 30
0.0
 11
3851.306419225895
 21
1876.183932023019
 31
0.0
  0
LINE
  5
1A854
330
1A72B
100
AcDbEntity
  8
HATCH
100
AcDbLine
 10
3797.973085892562
 20
1876.183932023019
 30
0.0
 11
3824.639752559228
 21
1829.995909356355
 31
0.0
  0
LINE
  5
1A855
330
1A72B
100
AcDbEntity
  8
HATCH
100
AcDbLine
 10
3785.597043225897
 20
1762.371953356349
 30
0.0
 11
3812.263709892564
 21
1716.183932023018
 31
0.0
  0
LINE
  5
1A856
330
1A72B
100
AcDbEntity
  8
HATCH
100
AcDbLine
 10
3585.597043225897
 20
1762.371953356349
 30
0.0
 11
3612.263709892564
 21
1716.183932023018
 31
0.0
  0
LINE
  5
1A857
330
1A72B
100
AcDbEntity
  8
HATCH
100
AcDbLine
 10
3597.973085892562
 20
1876.183932023019
 30
0.0
 11
3624.639752559229
 21
1829.995909356355
 31
0.0
  0
LINE
  5
1A858
330
1A72B
100
AcDbEntity
  8
KISO
100
AcDbLine
 10
4184.333914666385
 20
2484.183932023019
 30
0.0
 11
4184.333914666385
 21
1876.183932023018
 31
0.0
  0
LINE
  5
1A859
330
1A72B
100
AcDbEntity
  8
KISO
100
AcDbLine
 10
3652.333914666386
 20
2484.183932023019
 30
0.0
 11
3064.333914666386
 21
2484.183932023019
 31
0.0
  0
LINE
  5
1A85A
330
1A72B
100
AcDbEntity
  8
HATCH
100
AcDbLine
 10
3614.393906272658
 20
2484.183932023019
 30
0.0
 11
3224.333914666388
 21
2094.123940416748
 31
0.0
  0
LINE
  5
1A85B
330
1A72B
100
AcDbEntity
  8
HATCH
100
AcDbLine
 10
3566.876330272656
 20
2484.183932023019
 30
0.0
 11
3224.333914666386
 21
2141.641516416747
 31
0.0
  0
LINE
  5
1A85C
330
1A72B
100
AcDbEntity
  8
HATCH
100
AcDbLine
 10
3519.358755872656
 20
2484.183932023019
 30
0.0
 11
3224.333914666386
 21
2189.159090816747
 31
0.0
  0
LINE
  5
1A85D
330
1A72B
100
AcDbEntity
  8
HATCH
100
AcDbLine
 10
3652.333914666386
 20
2134.531888053615
 30
0.0
 11
3497.985958635791
 21
1980.183932023019
 31
0.0
  0
LINE
  5
1A85E
330
1A72B
100
AcDbEntity
  8
HATCH
100
AcDbLine
 10
3385.597043225897
 20
1762.371953356349
 30
0.0
 11
3412.263709892564
 21
1716.183932023018
 31
0.0
  0
LINE
  5
1A85F
330
1A72B
100
AcDbEntity
  8
HATCH
100
AcDbLine
 10
3358.93037655923
 20
1716.183932023018
 30
0.0
 11
3451.306419225895
 21
1876.183932023019
 31
0.0
  0
LINE
  5
1A860
330
1A72B
100
AcDbEntity
  8
HATCH
100
AcDbLine
 10
3397.973085892562
 20
1876.183932023019
 30
0.0
 11
3424.639752559229
 21
1829.995909356355
 31
0.0
  0
LINE
  5
1A861
330
1A72B
100
AcDbEntity
  8
KISO
100
AcDbLine
 10
3064.333914666386
 20
1876.183932023019
 30
0.0
 11
3064.333914666386
 21
1716.183932023018
 31
0.0
  0
LINE
  5
1A862
330
1A72B
100
AcDbEntity
  8
HATCH
100
AcDbLine
 10
3185.597043225897
 20
1762.371953356349
 30
0.0
 11
3212.263709892564
 21
1716.183932023018
 31
0.0
  0
LINE
  5
1A863
330
1A72B
100
AcDbEntity
  8
HATCH
100
AcDbLine
 10
3197.973085892562
 20
1876.183932023019
 30
0.0
 11
3224.639752559229
 21
1829.995909356355
 31
0.0
  0
LINE
  5
1A864
330
1A72B
100
AcDbEntity
  8
HATCH
100
AcDbLine
 10
3158.930376559231
 20
1716.183932023018
 30
0.0
 11
3251.306419225895
 21
1876.183932023019
 31
0.0
  0
LINE
  5
1A865
330
1A72B
100
AcDbEntity
  8
KISO
100
AcDbLine
 10
3224.333914666386
 20
2484.183932023019
 30
0.0
 11
3224.333914666386
 21
1876.183932023019
 31
0.0
  0
LINE
  5
1A866
330
1A72B
100
AcDbEntity
  8
HATCH
100
AcDbLine
 10
3652.333914666386
 20
2229.567038453616
 30
0.0
 11
3298.95080823579
 21
1876.183932023019
 31
0.0
  0
LINE
  5
1A867
330
1A72B
100
AcDbEntity
  8
HATCH
100
AcDbLine
 10
3652.333914666386
 20
2182.049464053616
 30
0.0
 11
3450.46838263579
 21
1980.183932023019
 31
0.0
  0
LINE
  5
1A868
330
1A72B
100
AcDbEntity
  8
HATCH
100
AcDbLine
 10
3558.930376559231
 20
1716.183932023018
 30
0.0
 11
3651.306419225895
 21
1876.183932023019
 31
0.0
  0
LINE
  5
1A869
330
1A72B
100
AcDbEntity
  8
HATCH
100
AcDbLine
 10
4001.985958635791
 20
2484.183932023019
 30
0.0
 11
3756.333914666386
 21
2238.531888053614
 31
0.0
  0
LINE
  5
1A86A
330
1A72B
100
AcDbEntity
  8
HATCH
100
AcDbLine
 10
3954.46838263579
 20
2484.183932023019
 30
0.0
 11
3756.333914666386
 21
2286.049464053613
 31
0.0
  0
LINE
  5
1A86B
330
1A72B
100
AcDbEntity
  8
HATCH
100
AcDbLine
 10
3906.95080823579
 20
2484.183932023019
 30
0.0
 11
3756.333914666386
 21
2333.567038453614
 31
0.0
  0
LINE
  5
1A86C
330
1A72B
100
AcDbEntity
  8
KISO
100
AcDbLine
 10
3064.333914666386
 20
1716.18393202302
 30
0.0
 11
4344.333914666385
 21
1716.183932023018
 31
0.0
  0
LINE
  5
1A86D
330
1A72B
100
AcDbEntity
  8
KISO
100
AcDbLine
 10
5021.727409209538
 20
2484.183932023019
 30
0.0
 11
3756.333914666386
 21
2484.183932023019
 31
0.0
  0
LINE
  5
1A86E
330
1A72B
100
AcDbEntity
  8
HATCH
100
AcDbLine
 10
3997.973085892562
 20
1876.183932023019
 30
0.0
 11
4024.639752559227
 21
1829.995909356355
 31
0.0
  0
LINE
  5
1A86F
330
1A72B
100
AcDbEntity
  8
HATCH
100
AcDbLine
 10
3958.93037655923
 20
1716.183932023018
 30
0.0
 11
4051.306419225895
 21
1876.183932023019
 31
0.0
  0
LINE
  5
1A870
330
1A72B
100
AcDbEntity
  8
HATCH
100
AcDbLine
 10
3985.597043225897
 20
1762.371953356349
 30
0.0
 11
4012.263709892564
 21
1716.183932023018
 31
0.0
  0
LINE
  5
1A871
330
1A72B
100
AcDbEntity
  8
HATCH
100
AcDbLine
 10
4184.333914666385
 20
2278.939835690481
 30
0.0
 11
3885.578010998928
 21
1980.183932023019
 31
0.0
  0
LINE
  5
1A872
330
1A72B
100
AcDbEntity
  8
HATCH
100
AcDbLine
 10
4184.333914666385
 20
2326.457411690481
 30
0.0
 11
3838.060434998926
 21
1980.183932023019
 31
0.0
  0
LINE
  5
1A873
330
1A72B
100
AcDbEntity
  8
HATCH
100
AcDbLine
 10
4184.333914666385
 20
2373.974986090479
 30
0.0
 11
3756.333914666386
 21
1945.974986090478
 31
0.0
  0
LINE
  5
1A874
330
1A72B
100
AcDbEntity
  8
HATCH
100
AcDbLine
 10
4184.333914666385
 20
1986.382933727344
 30
0.0
 11
4074.134912962058
 21
1876.183932023019
 31
0.0
  0
LINE
  5
1A875
330
1A72B
100
AcDbEntity
  8
HATCH
100
AcDbLine
 10
4184.333914666385
 20
1938.865359327343
 30
0.0
 11
4121.652487362065
 21
1876.183932023019
 31
0.0
  0
LINE
  5
1A876
330
1A72B
100
AcDbEntity
  8
HATCH
100
AcDbLine
 10
4184.333914666385
 20
1891.347783327345
 30
0.0
 11
4169.17006336206
 21
1876.183932023019
 31
0.0
  0
LINE
  5
1A877
330
1A72B
100
AcDbEntity
  8
HATCH
100
AcDbLine
 10
3434.46838263579
 20
1964.183932023018
 30
0.0
 11
3346.468382635791
 21
1876.183932023019
 31
0.0
  0
LINE
  5
1A878
330
1A72B
100
AcDbEntity
  8
HATCH
100
AcDbLine
 10
3481.985958635791
 20
1964.183932023018
 30
0.0
 11
3393.985958635791
 21
1876.183932023019
 31
0.0
  0
LINE
  5
1A879
330
1A72B
100
AcDbEntity
  8
HATCH
100
AcDbLine
 10
3774.542860598926
 20
1964.183932023018
 30
0.0
 11
3756.333914666386
 21
1945.974986090478
 31
0.0
  0
LINE
  5
1A87A
330
1A72B
100
AcDbEntity
  8
HATCH
100
AcDbLine
 10
3822.060434998928
 20
1964.183932023018
 30
0.0
 11
3756.333914666386
 21
1898.457411690476
 31
0.0
  0
LINE
  5
1A87B
330
1A72B
100
AcDbEntity
  8
HATCH
100
AcDbLine
 10
3869.578010998927
 20
1964.183932023018
 30
0.0
 11
3781.578010998928
 21
1876.183932023019
 31
0.0
  0
LINE
  5
1A87C
330
1A72B
100
AcDbEntity
  8
KISO
100
AcDbLine
 10
3064.333914666386
 20
1876.183932023019
 30
0.0
 11
3064.333914666386
 21
1876.183932023019
 31
0.0
  0
LINE
  5
1A87D
330
1A72B
100
AcDbEntity
  8
SUNPOU
100
AcDbLine
 10
3719.333914666388
 20
3287.183932023017
 30
0.0
 11
4979.564421916637
 21
3287.183932023017
 31
0.0
  0
TEXT
  5
1A87E
330
1A72B
100
AcDbEntity
  8
SUNPOU
100
AcDbText
 10
4340.161613806854
 20
3332.183932023017
 30
0.0
 40
90.0
  1
2450
 41
0.6666666666666666
  7
00
 72
     4
 11
4454.447328092569
 21
3377.183932023017
 31
0.0
100
AcDbText
  0
TEXT
  5
1A87F
330
1A72B
100
AcDbEntity
  8
HIKIDASHI
100
AcDbText
 10
2465.84219057196
 20
2825.613541661912
 30
0.0
 40
90.0
  1
%%c
 41
0.6700000000000001
  7
00
100
AcDbText
  0
LINE
  5
1A880
330
1A72B
100
AcDbEntity
  8
HIKIDASHI
100
AcDbLine
 10
2075.958721952463
 20
2754.183932023015
 30
0.0
 11
2921.257717497342
 21
2754.183932023015
 31
0.0
  0
TEXT
  5
1A881
330
1A72B
100
AcDbEntity
  8
HIKIDASHI
100
AcDbText
 10
2631.5477195379
 20
2798.974945822925
 30
0.0
 40
89.55223880597014
  1
350
 41
0.6700000000000001
  7
00
100
AcDbText
  0
TEXT
  5
1A882
330
1A72B
100
AcDbEntity
  8
HIKIDASHI
100
AcDbText
 10
2550.412340384764
 20
2810.377961873764
 30
0.0
 40
89.55223880597014
  1
x
 41
0.6700000000000001
  7
00
100
AcDbText
  0
TEXT
  5
1A883
330
1A72B
100
AcDbEntity
  8
HIKIDASHI
100
AcDbText
 10
2105.958721952462
 20
2799.183932023015
 30
0.0
 40
90.0
  1
鉄筋
  7
01
100
AcDbText
  0
TEXT
  5
1A884
330
1A72B
100
AcDbEntity
  8
HIKIDASHI
100
AcDbText
 10
2337.465435554122
 20
2799.183932023015
 30
0.0
 40
89.55223880597014
  1
10
 41
0.6700000000000001
  7
00
100
AcDbText
  0
LINE
  5
1A885
330
1A72B
100
AcDbEntity
  8
HIKIDASHI
100
AcDbLine
 10
2580.663191527326
 20
2994.183932023015
 30
0.0
 11
2934.663191527326
 21
2994.183932023015
 31
0.0
  0
TEXT
  5
1A886
330
1A72B
100
AcDbEntity
  8
HIKIDASHI
100
AcDbText
 10
2610.663191527326
 20
3039.183932023015
 30
0.0
 40
90.0
  1
土　間
  7
01
100
AcDbText
  0
LINE
  5
1A887
330
1A72B
100
AcDbEntity
  8
HIKIDASHI
100
AcDbLine
 10
2839.167309682428
 20
1304.183932023019
 30
0.0
 11
2470.400932854805
 21
1304.183932023019
 31
0.0
  0
TEXT
  5
1A888
330
1A72B
100
AcDbEntity
  8
HIKIDASHI
100
AcDbText
 10
2497.468540446716
 20
1349.183932023019
 30
0.0
 40
90.0
  1
砕　石
  7
01
 72
     2
 11
2797.468540446716
 21
1394.183932023019
 31
0.0
100
AcDbText
 73
     2
  0
TEXT
  5
1A889
330
1A72B
100
AcDbEntity
  8
HIKIDASHI
100
AcDbText
 10
3780.537517545164
 20
925.1349131803479
 30
0.0
 40
90.0
  1
断 面
  7
01
100
AcDbText
  0
LINE
  5
1A88A
330
1A72B
100
AcDbEntity
  8
HIKIDASHI
100
AcDbLine
 10
3356.520238048601
 20
880.134913180348
 30
0.0
 11
4052.14759128417
 21
880.134913180348
 31
0.0
  0
LINE
  5
1A88B
330
1A72B
100
AcDbEntity
  8
HIKIDASHI
100
AcDbLine
 10
3356.520238048601
 20
850.1349131803479
 30
0.0
 11
4052.14759128417
 21
850.1349131803479
 31
0.0
  0
TEXT
  5
1A88C
330
1A72B
100
AcDbEntity
  8
HIKIDASHI
100
AcDbText
 10
3386.520238048602
 20
925.1349131803479
 30
0.0
 40
90.0
  1
A  ~  A'
 41
0.6700000000000001
  7
00
100
AcDbText
  0
TEXT
  5
1A88D
330
1A72B
100
AcDbEntity
  8
SUNPOU
100
AcDbText
 10
4660.022830783562
 20
1458.903907439804
 30
0.0
 40
90.0
  1
ベース筋
  7
01
 72
     4
 11
4864.022830783563
 21
1503.903907439804
 31
0.0
100
AcDbText
  0
TEXT
  5
1A88E
330
1A72B
100
AcDbEntity
  8
SUNPOU
100
AcDbText
 10
4520.599973640699
 20
1293.65456534739
 30
0.0
 40
90.0
  1
4-D13×4-D13
 41
0.6700000000000001
  7
01
 72
     4
 11
4864.022830783557
 21
1338.65456534739
 31
0.0
100
AcDbText
  0
TEXT
  5
1A88F
330
1A72B
100
AcDbEntity
  8
HIKIDASHI
100
AcDbText
 10
4444.49673216886
 20
2006.931554141245
 30
0.0
 40
90.0
  1
敷砂利又は砕石
  7
01
100
AcDbText
  0
LINE
  5
1A890
330
1A72B
100
AcDbEntity
  8
HIKIDASHI
100
AcDbLine
 10
4397.836947371135
 20
1961.931554141245
 30
0.0
 11
5200.487295746516
 21
1961.931554141245
 31
0.0
  0
TEXT
  5
1A891
330
1A72B
100
AcDbEntity
  8
SUNPOU
100
AcDbText
 10
4717.660162466765
 20
2619.183932023019
 30
0.0
 40
90.0
  1
F.L
 41
0.6666666666666666
  7
00
 72
     4
 11
4786.231591038194
 21
2664.183932023019
 31
0.0
100
AcDbText
  0
LINE
  5
1A892
330
1A72B
100
AcDbEntity
  8
SUNPOU
100
AcDbLine
 10
4786.231591038194
 20
2484.183932023019
 30
0.0
 11
4838.193115265261
 21
2574.183932023019
 31
0.0
  0
LINE
  5
1A893
330
1A72B
100
AcDbEntity
  8
SUNPOU
100
AcDbLine
 10
4734.270066811128
 20
2574.183932023019
 30
0.0
 11
4786.231591038194
 21
2484.183932023019
 31
0.0
  0
LINE
  5
1A894
330
1A72B
100
AcDbEntity
  8
SUNPOU
100
AcDbLine
 10
4838.193115265261
 20
2574.183932023019
 30
0.0
 11
4734.270066811128
 21
2574.183932023019
 31
0.0
  0
LINE
  5
1A895
330
1A72B
100
AcDbEntity
  8
U3
100
AcDbLine
 10
6598.75870121258
 20
2404.183932023014
 30
0.0
 11
5991.56789984557
 21
2404.183932023014
 31
0.0
  0
LINE
  5
1A896
330
1A72B
100
AcDbEntity
  8
U3
100
AcDbLine
 10
5991.56789984557
 20
2404.183932023014
 30
0.0
 11
6159.567899845569
 21
2236.183932023014
 31
0.0
  0
LINE
  5
1A897
330
1A72B
100
AcDbEntity
  8
U3
100
AcDbLine
 10
6057.744523354709
 20
2338.007308513876
 30
0.0
 11
6123.921146863847
 21
2404.18393202301
 31
0.0
  0
LINE
  5
1A898
330
1A72B
100
AcDbEntity
  8
U3
100
AcDbLine
 10
6546.234566512237
 20
2286.850598689682
 30
0.0
 11
6598.75870121258
 21
2339.374733390024
 31
0.0
  0
LINE
  5
1A899
330
1A72B
100
AcDbEntity
  8
U3
100
AcDbLine
 10
6159.567899845569
 20
2236.183932023014
 30
0.0
 11
6327.567899845568
 21
2404.183932023012
 31
0.0
  0
LINE
  5
1A89A
330
1A72B
100
AcDbEntity
  8
U3
100
AcDbLine
 10
6225.744523354705
 20
2302.360555532152
 30
0.0
 11
6291.921146863845
 21
2236.183932023014
 31
0.0
  0
LINE
  5
1A89B
330
1A72B
100
AcDbEntity
  8
U3
100
AcDbLine
 10
6276.656211600133
 20
2353.272243777581
 30
0.0
 11
6393.744523354705
 21
2236.183932023014
 31
0.0
  0
LINE
  5
1A89C
330
1A72B
100
AcDbEntity
  8
U3
100
AcDbLine
 10
6108.65621160014
 20
2287.095620268444
 30
0.0
 11
6225.744523354709
 21
2404.18393202301
 31
0.0
  0
LINE
  5
1A89D
330
1A72B
100
AcDbEntity
  8
U3
100
AcDbLine
 10
6444.65621160014
 20
2287.09562026845
 30
0.0
 11
6561.744523354708
 21
2404.183932023012
 31
0.0
  0
LINE
  5
1A89E
330
1A72B
100
AcDbEntity
  8
U3
100
AcDbLine
 10
6327.567899845568
 20
2404.183932023012
 30
0.0
 11
6444.901233178907
 21
2286.850598689682
 31
0.0
  0
LINE
  5
1A89F
330
1A72B
100
AcDbEntity
  8
U3
100
AcDbLine
 10
6561.744523354708
 20
2302.360555532152
 30
0.0
 11
6577.254480197176
 21
2286.850598689682
 31
0.0
  0
LINE
  5
1A8A0
330
1A72B
100
AcDbEntity
  8
U3
100
AcDbLine
 10
6662.75870121258
 20
2303.169754165141
 30
0.0
 11
6729.744523354703
 21
2236.183932023017
 31
0.0
  0
LINE
  5
1A8A1
330
1A72B
100
AcDbEntity
  8
U3
100
AcDbLine
 10
6663.567899845512
 20
2404.183932023014
 30
0.0
 11
6831.567899845566
 21
2236.183932023017
 31
0.0
  0
LINE
  5
1A8A2
330
1A72B
100
AcDbEntity
  8
U3
100
AcDbLine
 10
6831.567899845566
 20
2236.183932023017
 30
0.0
 11
6999.567899845565
 21
2404.183932023016
 31
0.0
  0
LINE
  5
1A8A3
330
1A72B
100
AcDbEntity
  8
U3
100
AcDbLine
 10
6897.744523354704
 20
2302.360555532156
 30
0.0
 11
6963.921146863839
 21
2236.183932023017
 31
0.0
  0
LINE
  5
1A8A4
330
1A72B
100
AcDbEntity
  8
U3
100
AcDbLine
 10
6948.656211600134
 20
2353.272243777587
 30
0.0
 11
7065.744523354704
 21
2236.183932023017
 31
0.0
  0
LINE
  5
1A8A5
330
1A72B
100
AcDbEntity
  8
U3
100
AcDbLine
 10
7110.758701212581
 20
2404.183932023014
 30
0.0
 11
6662.75870121258
 21
2404.183932023016
 31
0.0
  0
LINE
  5
1A8A6
330
1A72B
100
AcDbEntity
  8
U3
100
AcDbLine
 10
6780.656211600126
 20
2287.095620268441
 30
0.0
 11
6897.744523354704
 21
2404.183932023014
 31
0.0
  0
LINE
  5
1A8A7
330
1A72B
100
AcDbEntity
  8
U3
100
AcDbLine
 10
6999.567899845565
 20
2404.183932023012
 30
0.0
 11
7070.758701212584
 21
2332.993130655997
 31
0.0
  0
LINE
  5
1A8A8
330
1A72B
100
AcDbEntity
  8
KISO
100
AcDbLine
 10
8550.758701212577
 20
1876.183932023014
 30
0.0
 11
8550.758701212577
 21
1716.183932023017
 31
0.0
  0
LINE
  5
1A8A9
330
1A72B
100
AcDbEntity
  8
HATCH
100
AcDbLine
 10
7778.688496438757
 20
1716.183932023016
 30
0.0
 11
7871.064539105423
 21
1876.183932023014
 31
0.0
  0
LINE
  5
1A8AA
330
1A72B
100
AcDbEntity
  8
HATCH
100
AcDbLine
 10
7817.731205772083
 20
1876.183932023014
 30
0.0
 11
7844.397872438751
 21
1829.99590935635
 31
0.0
  0
LINE
  5
1A8AB
330
1A72B
100
AcDbEntity
  8
HATCH
100
AcDbLine
 10
7805.355163105422
 20
1762.371953356345
 30
0.0
 11
7832.02182977209
 21
1716.183932023016
 31
0.0
  0
LINE
  5
1A8AC
330
1A72B
100
AcDbEntity
  8
HATCH
100
AcDbLine
 10
7605.355163105421
 20
1762.371953356345
 30
0.0
 11
7632.02182977209
 21
1716.183932023016
 31
0.0
  0
LINE
  5
1A8AD
330
1A72B
100
AcDbEntity
  8
HATCH
100
AcDbLine
 10
7617.731205772082
 20
1876.183932023014
 30
0.0
 11
7644.397872438751
 21
1829.99590935635
 31
0.0
  0
LINE
  5
1A8AE
330
1A72B
100
AcDbEntity
  8
KISO
100
AcDbLine
 10
8390.758701212579
 20
2484.183932023016
 30
0.0
 11
8390.758701212579
 21
1876.183932023014
 31
0.0
  0
LINE
  5
1A8AF
330
1A72B
100
AcDbEntity
  8
KISO
100
AcDbLine
 10
7698.75870121258
 20
2484.183932023016
 30
0.0
 11
7110.758701212581
 21
2484.183932023016
 31
0.0
  0
LINE
  5
1A8B0
330
1A72B
100
AcDbEntity
  8
HATCH
100
AcDbLine
 10
7660.818692818849
 20
2484.183932023016
 30
0.0
 11
7110.758701212581
 21
1934.12394041674
 31
0.0
  0
LINE
  5
1A8B1
330
1A72B
100
AcDbEntity
  8
HATCH
100
AcDbLine
 10
7613.30111681885
 20
2484.183932023016
 30
0.0
 11
7110.758701212581
 21
1981.641516416744
 31
0.0
  0
LINE
  5
1A8B2
330
1A72B
100
AcDbEntity
  8
HATCH
100
AcDbLine
 10
7565.783542418848
 20
2484.183932023016
 30
0.0
 11
7110.758701212581
 21
2029.159090816739
 31
0.0
  0
LINE
  5
1A8B3
330
1A72B
100
AcDbEntity
  8
HATCH
100
AcDbLine
 10
7698.75870121258
 20
2134.531888053611
 30
0.0
 11
7544.410745181983
 21
1980.183932023015
 31
0.0
  0
LINE
  5
1A8B4
330
1A72B
100
AcDbEntity
  8
HATCH
100
AcDbLine
 10
7405.355163105422
 20
1762.371953356345
 30
0.0
 11
7432.021829772089
 21
1716.183932023016
 31
0.0
  0
LINE
  5
1A8B5
330
1A72B
100
AcDbEntity
  8
HATCH
100
AcDbLine
 10
7378.688496438757
 20
1716.183932023016
 30
0.0
 11
7471.064539105417
 21
1876.183932023014
 31
0.0
  0
LINE
  5
1A8B6
330
1A72B
100
AcDbEntity
  8
HATCH
100
AcDbLine
 10
7417.731205772082
 20
1876.183932023014
 30
0.0
 11
7444.39787243875
 21
1829.99590935635
 31
0.0
  0
LINE
  5
1A8B7
330
1A72B
100
AcDbEntity
  8
KISO
100
AcDbLine
 10
6950.758701212581
 20
1876.183932023014
 30
0.0
 11
6950.758701212581
 21
1716.183932023016
 31
0.0
  0
LINE
  5
1A8B8
330
1A72B
100
AcDbEntity
  8
HATCH
100
AcDbLine
 10
7205.355163105423
 20
1762.371953356345
 30
0.0
 11
7232.02182977209
 21
1716.183932023016
 31
0.0
  0
LINE
  5
1A8B9
330
1A72B
100
AcDbEntity
  8
HATCH
100
AcDbLine
 10
7217.731205772086
 20
1876.183932023014
 30
0.0
 11
7244.39787243875
 21
1829.99590935635
 31
0.0
  0
LINE
  5
1A8BA
330
1A72B
100
AcDbEntity
  8
HATCH
100
AcDbLine
 10
7178.688496438756
 20
1716.183932023016
 30
0.0
 11
7271.064539105417
 21
1876.183932023014
 31
0.0
  0
LINE
  5
1A8BB
330
1A72B
100
AcDbEntity
  8
KISO
100
AcDbLine
 10
7110.758701212581
 20
2484.183932023016
 30
0.0
 11
7110.758701212581
 21
1876.183932023014
 31
0.0
  0
LINE
  5
1A8BC
330
1A72B
100
AcDbEntity
  8
HATCH
100
AcDbLine
 10
7698.75870121258
 20
2229.567038453613
 30
0.0
 11
7345.375594781983
 21
1876.183932023014
 31
0.0
  0
LINE
  5
1A8BD
330
1A72B
100
AcDbEntity
  8
HATCH
100
AcDbLine
 10
7698.75870121258
 20
2182.049464053612
 30
0.0
 11
7496.893169181982
 21
1980.183932023015
 31
0.0
  0
LINE
  5
1A8BE
330
1A72B
100
AcDbEntity
  8
HATCH
100
AcDbLine
 10
7578.688496438757
 20
1716.183932023016
 30
0.0
 11
7671.064539105417
 21
1876.183932023014
 31
0.0
  0
LINE
  5
1A8BF
330
1A72B
100
AcDbEntity
  8
HATCH
100
AcDbLine
 10
8048.410745181982
 20
2484.183932023016
 30
0.0
 11
7802.758701212581
 21
2238.531888053611
 31
0.0
  0
LINE
  5
1A8C0
330
1A72B
100
AcDbEntity
  8
HATCH
100
AcDbLine
 10
8000.893169181983
 20
2484.183932023016
 30
0.0
 11
7802.758701212581
 21
2286.049464053611
 31
0.0
  0
LINE
  5
1A8C1
330
1A72B
100
AcDbEntity
  8
HATCH
100
AcDbLine
 10
7953.375594781983
 20
2484.183932023016
 30
0.0
 11
7802.758701212581
 21
2333.567038453611
 31
0.0
  0
LINE
  5
1A8C2
330
1A72B
100
AcDbEntity
  8
KISO
100
AcDbLine
 10
6950.758701212581
 20
1716.183932023016
 30
0.0
 11
8550.758701212577
 21
1716.183932023017
 31
0.0
  0
LINE
  5
1A8C3
330
1A72B
100
AcDbEntity
  8
HATCH
100
AcDbLine
 10
8017.731205772086
 20
1876.183932023014
 30
0.0
 11
8044.397872438755
 21
1829.99590935635
 31
0.0
  0
LINE
  5
1A8C4
330
1A72B
100
AcDbEntity
  8
HATCH
100
AcDbLine
 10
7978.688496438755
 20
1716.183932023016
 30
0.0
 11
8071.064539105421
 21
1876.183932023014
 31
0.0
  0
LINE
  5
1A8C5
330
1A72B
100
AcDbEntity
  8
HATCH
100
AcDbLine
 10
8005.355163105424
 20
1762.371953356345
 30
0.0
 11
8032.021829772089
 21
1716.183932023016
 31
0.0
  0
LINE
  5
1A8C6
330
1A72B
100
AcDbEntity
  8
HATCH
100
AcDbLine
 10
8390.758701212584
 20
2438.939835690479
 30
0.0
 11
7932.00279754512
 21
1980.183932023015
 31
0.0
  0
LINE
  5
1A8C7
330
1A72B
100
AcDbEntity
  8
HATCH
100
AcDbLine
 10
8388.485221545122
 20
2484.183932023016
 30
0.0
 11
7884.485221545121
 21
1980.183932023015
 31
0.0
  0
LINE
  5
1A8C8
330
1A72B
100
AcDbEntity
  8
HATCH
100
AcDbLine
 10
8340.96764714512
 20
2484.183932023016
 30
0.0
 11
7802.758701212581
 21
1945.974986090476
 31
0.0
  0
LINE
  5
1A8C9
330
1A72B
100
AcDbEntity
  8
HATCH
100
AcDbLine
 10
8390.758701212579
 20
2146.38293372734
 30
0.0
 11
8120.559699508254
 21
1876.183932023014
 31
0.0
  0
LINE
  5
1A8CA
330
1A72B
100
AcDbEntity
  8
HATCH
100
AcDbLine
 10
8390.758701212579
 20
2098.865359327338
 30
0.0
 11
8168.077273908258
 21
1876.183932023014
 31
0.0
  0
LINE
  5
1A8CB
330
1A72B
100
AcDbEntity
  8
HATCH
100
AcDbLine
 10
7480.893169181982
 20
1964.183932023016
 30
0.0
 11
7392.893169181981
 21
1876.183932023014
 31
0.0
  0
LINE
  5
1A8CC
330
1A72B
100
AcDbEntity
  8
HATCH
100
AcDbLine
 10
7528.410745181983
 20
1964.183932023016
 30
0.0
 11
7440.410745181982
 21
1876.183932023014
 31
0.0
  0
LINE
  5
1A8CD
330
1A72B
100
AcDbEntity
  8
HATCH
100
AcDbLine
 10
7820.967647145121
 20
1964.183932023016
 30
0.0
 11
7802.758701212581
 21
1945.974986090476
 31
0.0
  0
LINE
  5
1A8CE
330
1A72B
100
AcDbEntity
  8
HATCH
100
AcDbLine
 10
7868.485221545121
 20
1964.183932023016
 30
0.0
 11
7802.758701212581
 21
1898.457411690475
 31
0.0
  0
LINE
  5
1A8CF
330
1A72B
100
AcDbEntity
  8
HATCH
100
AcDbLine
 10
7916.00279754512
 20
1964.183932023016
 30
0.0
 11
7828.002797545119
 21
1876.183932023014
 31
0.0
  0
LINE
  5
1A8D0
330
1A72B
100
AcDbEntity
  8
KISO
100
AcDbLine
 10
6950.758701212581
 20
1876.183932023014
 30
0.0
 11
6950.758701212581
 21
1876.183932023014
 31
0.0
  0
LINE
  5
1A8D1
330
1A72B
100
AcDbEntity
  8
KISO
100
AcDbLine
 10
9228.152195755734
 20
2484.183932023016
 30
0.0
 11
7802.758701212581
 21
2484.183932023016
 31
0.0
  0
LINE
  5
1A8D2
330
1A72B
100
AcDbEntity
  8
1PL-M1
100
AcDbLine
 10
7750.758701212581
 20
1572.183932023015
 30
0.0
 11
7750.758701212581
 21
3332.183932023017
 31
0.0
  0
LINE
  5
1A8D3
330
1A72B
100
AcDbEntity
  8
HASHIRA
100
AcDbLine
 10
7698.75870121258
 20
1876.183932023014
 30
0.0
 11
7698.75870121258
 21
2964.183932023015
 31
0.0
  0
LINE
  5
1A8D4
330
1A72B
100
AcDbEntity
  8
HASHIRA
100
AcDbLine
 10
7802.758701212581
 20
1876.183932023014
 30
0.0
 11
7802.758701212581
 21
2964.183932023015
 31
0.0
  0
LINE
  5
1A8D5
330
1A72B
100
AcDbEntity
  8
HATCH
100
AcDbLine
 10
8390.758701212584
 20
2051.347783327336
 30
0.0
 11
8215.594849908258
 21
1876.183932023014
 31
0.0
  0
LINE
  5
1A8D6
330
1A72B
100
AcDbEntity
  8
HATCH
100
AcDbLine
 10
8217.731205772087
 20
1876.183932023014
 30
0.0
 11
8244.397872438755
 21
1829.99590935635
 31
0.0
  0
LINE
  5
1A8D7
330
1A72B
100
AcDbEntity
  8
HATCH
100
AcDbLine
 10
8178.688496438757
 20
1716.183932023016
 30
0.0
 11
8271.06453910542
 21
1876.183932023014
 31
0.0
  0
LINE
  5
1A8D8
330
1A72B
100
AcDbEntity
  8
HATCH
100
AcDbLine
 10
8205.355163105421
 20
1762.371953356345
 30
0.0
 11
8232.02182977209
 21
1716.183932023016
 31
0.0
  0
LINE
  5
1A8D9
330
1A72B
100
AcDbEntity
  8
HATCH
100
AcDbLine
 10
7005.355163105424
 20
1762.371953356345
 30
0.0
 11
7032.02182977209
 21
1716.183932023016
 31
0.0
  0
LINE
  5
1A8DA
330
1A72B
100
AcDbEntity
  8
HATCH
100
AcDbLine
 10
7017.731205772085
 20
1876.183932023014
 30
0.0
 11
7044.397872438752
 21
1829.99590935635
 31
0.0
  0
LINE
  5
1A8DB
330
1A72B
100
AcDbEntity
  8
HATCH
100
AcDbLine
 10
6978.688496438756
 20
1716.183932023016
 30
0.0
 11
7071.064539105417
 21
1876.183932023014
 31
0.0
  0
LINE
  5
1A8DC
330
1A72B
100
AcDbEntity
  8
HATCH
100
AcDbLine
 10
7273.226640455721
 20
2484.183932023016
 30
0.0
 11
7110.758701212581
 21
2321.715992779873
 31
0.0
  0
LINE
  5
1A8DD
330
1A72B
100
AcDbEntity
  8
HATCH
100
AcDbLine
 10
7225.70906445572
 20
2484.183932023016
 30
0.0
 11
7110.758701212581
 21
2369.233568779873
 31
0.0
  0
LINE
  5
1A8DE
330
1A72B
100
AcDbEntity
  8
HATCH
100
AcDbLine
 10
7178.191490055723
 20
2484.183932023016
 30
0.0
 11
7110.758701212581
 21
2416.751143179872
 31
0.0
  0
LINE
  5
1A8DF
330
1A72B
100
AcDbEntity
  8
SUNPOU
100
AcDbLine
 10
7765.75870121258
 20
3287.183932023015
 30
0.0
 11
9025.98920846283
 21
3287.183932023015
 31
0.0
  0
TEXT
  5
1A8E0
330
1A72B
100
AcDbEntity
  8
SUNPOU
100
AcDbText
 10
8386.586400353047
 20
3332.183932023015
 30
0.0
 40
90.0
  1
2450
 41
0.6666666666666666
  7
00
 72
     4
 11
8500.872114638761
 21
3377.183932023015
 31
0.0
100
AcDbText
  0
LINE
  5
1A8E1
330
1A72B
100
AcDbEntity
  8
KISO
100
AcDbLine
 10
8390.758701212579
 20
2260.183932023014
 30
0.0
 11
9228.152195755734
 21
2260.183932023014
 31
0.0
  0
LINE
  5
1A8E2
330
1A72B
100
AcDbEntity
  8
KISO
100
AcDbLine
 10
9228.152195755734
 20
2356.183932023014
 30
0.0
 11
8390.758701212579
 21
2356.183932023014
 31
0.0
  0
LINE
  5
1A8E3
330
1A72B
100
AcDbEntity
  8
HATCH
100
AcDbLine
 10
8577.919008412584
 20
2356.183932023014
 30
0.0
 11
8561.919008412582
 21
2356.183932023014
 31
0.0
  0
LINE
  5
1A8E4
330
1A72B
100
AcDbEntity
  8
HATCH
100
AcDbLine
 10
8513.744523612578
 20
2260.183932023014
 30
0.0
 11
8569.170149212579
 21
2356.183932023014
 31
0.0
  0
LINE
  5
1A8E5
330
1A72B
100
AcDbEntity
  8
HATCH
100
AcDbLine
 10
8390.758701212579
 20
2290.297058750295
 30
0.0
 11
8408.144523612582
 21
2260.183932023014
 31
0.0
  0
LINE
  5
1A8E6
330
1A72B
100
AcDbEntity
  8
HATCH
100
AcDbLine
 10
8532.944523612581
 20
2293.439306423013
 30
0.0
 11
8552.144523612581
 21
2260.183932023014
 31
0.0
  0
LINE
  5
1A8E7
330
1A72B
100
AcDbEntity
  8
HATCH
100
AcDbLine
 10
8433.919008412582
 20
2356.183932023014
 30
0.0
 11
8417.919008412582
 21
2356.183932023014
 31
0.0
  0
LINE
  5
1A8E8
330
1A72B
100
AcDbEntity
  8
HATCH
100
AcDbLine
 10
8390.758701212579
 20
2296.581555464543
 30
0.0
 11
8425.170149212579
 21
2356.183932023014
 31
0.0
  0
LINE
  5
1A8E9
330
1A72B
100
AcDbEntity
  8
HATCH
100
AcDbLine
 10
8390.758701212579
 20
2349.275557207618
 30
0.0
 11
8405.970149212578
 21
2322.928556023013
 31
0.0
  0
LINE
  5
1A8EA
330
1A72B
100
AcDbEntity
  8
HATCH
100
AcDbLine
 10
8530.77014921258
 20
2356.183932023014
 30
0.0
 11
8549.97014921258
 21
2322.928556023013
 31
0.0
  0
LINE
  5
1A8EB
330
1A72B
100
AcDbEntity
  8
HATCH
100
AcDbLine
 10
9073.74452361258
 20
2260.183932023014
 30
0.0
 11
9129.170149212582
 21
2356.183932023014
 31
0.0
  0
LINE
  5
1A8EC
330
1A72B
100
AcDbEntity
  8
HATCH
100
AcDbLine
 10
8676.944523612579
 20
2293.439306423013
 30
0.0
 11
8696.144523612579
 21
2260.183932023014
 31
0.0
  0
LINE
  5
1A8ED
330
1A72B
100
AcDbEntity
  8
HATCH
100
AcDbLine
 10
8657.744523612578
 20
2260.183932023014
 30
0.0
 11
8713.170149212579
 21
2356.183932023014
 31
0.0
  0
LINE
  5
1A8EE
330
1A72B
100
AcDbEntity
  8
HATCH
100
AcDbLine
 10
8820.944523612579
 20
2293.439306423013
 30
0.0
 11
8840.144523612583
 21
2260.183932023014
 31
0.0
  0
LINE
  5
1A8EF
330
1A72B
100
AcDbEntity
  8
HATCH
100
AcDbLine
 10
8801.74452361258
 20
2260.183932023014
 30
0.0
 11
8857.17014921258
 21
2356.183932023014
 31
0.0
  0
LINE
  5
1A8F0
330
1A72B
100
AcDbEntity
  8
HATCH
100
AcDbLine
 10
8948.944523612579
 20
2293.439306423013
 30
0.0
 11
8968.144523612577
 21
2260.183932023014
 31
0.0
  0
LINE
  5
1A8F1
330
1A72B
100
AcDbEntity
  8
HATCH
100
AcDbLine
 10
8929.744523612578
 20
2260.183932023014
 30
0.0
 11
8985.17014921258
 21
2356.183932023014
 31
0.0
  0
LINE
  5
1A8F2
330
1A72B
100
AcDbEntity
  8
HATCH
100
AcDbLine
 10
8818.770149212578
 20
2356.183932023014
 30
0.0
 11
8837.970149212578
 21
2322.928556023013
 31
0.0
  0
LINE
  5
1A8F3
330
1A72B
100
AcDbEntity
  8
HATCH
100
AcDbLine
 10
8674.770149212578
 20
2356.183932023014
 30
0.0
 11
8693.97014921258
 21
2322.928556023013
 31
0.0
  0
LINE
  5
1A8F4
330
1A72B
100
AcDbEntity
  8
HATCH
100
AcDbLine
 10
8946.77014921258
 20
2356.183932023014
 30
0.0
 11
8965.970149212578
 21
2322.928556023013
 31
0.0
  0
LINE
  5
1A8F5
330
1A72B
100
AcDbEntity
  8
HATCH
100
AcDbLine
 10
9092.944523612581
 20
2293.439306423013
 30
0.0
 11
9112.144523612581
 21
2260.183932023014
 31
0.0
  0
LINE
  5
1A8F6
330
1A72B
100
AcDbEntity
  8
HATCH
100
AcDbLine
 10
9090.770149212579
 20
2356.183932023014
 30
0.0
 11
9109.970149212578
 21
2322.928556023013
 31
0.0
  0
TEXT
  5
1A8F7
330
1A72B
100
AcDbEntity
  8
HIKIDASHI
100
AcDbText
 10
8650.921518715056
 20
2006.931554141242
 30
0.0
 40
90.0
  1
敷砂利又は砕石
  7
01
100
AcDbText
  0
LINE
  5
1A8F8
330
1A72B
100
AcDbEntity
  8
HIKIDASHI
100
AcDbLine
 10
8604.261733917331
 20
1961.931554141242
 30
0.0
 11
9406.912082292711
 21
1961.931554141242
 31
0.0
  0
TEXT
  5
1A8F9
330
1A72B
100
AcDbEntity
  8
SUNPOU
100
AcDbText
 10
8924.084949012959
 20
2619.183932023016
 30
0.0
 40
90.0
  1
F.L
 41
0.6666666666666666
  7
00
 72
     4
 11
8992.656377584387
 21
2664.183932023016
 31
0.0
100
AcDbText
  0
LINE
  5
1A8FA
330
1A72B
100
AcDbEntity
  8
SUNPOU
100
AcDbLine
 10
8992.656377584387
 20
2484.183932023016
 30
0.0
 11
9044.617901811456
 21
2574.183932023016
 31
0.0
  0
LINE
  5
1A8FB
330
1A72B
100
AcDbEntity
  8
SUNPOU
100
AcDbLine
 10
8940.694853357323
 20
2574.183932023016
 30
0.0
 11
8992.656377584387
 21
2484.183932023016
 31
0.0
  0
LINE
  5
1A8FC
330
1A72B
100
AcDbEntity
  8
SUNPOU
100
AcDbLine
 10
9044.617901811456
 20
2574.183932023016
 30
0.0
 11
8940.694853357323
 21
2574.183932023016
 31
0.0
  0
LINE
  5
1A8FD
330
1A72B
100
AcDbEntity
  8
HIKIDASHI
100
AcDbLine
 10
6725.592096228623
 20
1304.183932023017
 30
0.0
 11
6356.825719400998
 21
1304.183932023017
 31
0.0
  0
TEXT
  5
1A8FE
330
1A72B
100
AcDbEntity
  8
HIKIDASHI
100
AcDbText
 10
6383.893326992911
 20
1349.183932023017
 30
0.0
 40
90.0
  1
砕　石
  7
01
 72
     2
 11
6683.89332699291
 21
1394.183932023016
 31
0.0
100
AcDbText
 73
     2
  0
TEXT
  5
1A8FF
330
1A72B
100
AcDbEntity
  8
HIKIDASHI
100
AcDbText
 10
6592.266977118153
 20
2825.613541661909
 30
0.0
 40
90.0
  1
%%c
 41
0.6700000000000001
  7
00
100
AcDbText
  0
LINE
  5
1A900
330
1A72B
100
AcDbEntity
  8
HIKIDASHI
100
AcDbLine
 10
6202.383508498655
 20
2754.183932023012
 30
0.0
 11
7047.682504043535
 21
2754.183932023012
 31
0.0
  0
TEXT
  5
1A901
330
1A72B
100
AcDbEntity
  8
HIKIDASHI
100
AcDbText
 10
6757.972506084094
 20
2798.974945822921
 30
0.0
 40
89.55223880597014
  1
350
 41
0.6700000000000001
  7
00
100
AcDbText
  0
TEXT
  5
1A902
330
1A72B
100
AcDbEntity
  8
HIKIDASHI
100
AcDbText
 10
6676.837126930957
 20
2810.37796187376
 30
0.0
 40
89.55223880597014
  1
x
 41
0.6700000000000001
  7
00
100
AcDbText
  0
TEXT
  5
1A903
330
1A72B
100
AcDbEntity
  8
HIKIDASHI
100
AcDbText
 10
6232.383508498656
 20
2799.183932023012
 30
0.0
 40
90.0
  1
鉄筋
  7
01
100
AcDbText
  0
TEXT
  5
1A904
330
1A72B
100
AcDbEntity
  8
HIKIDASHI
100
AcDbText
 10
6463.890222100315
 20
2799.183932023012
 30
0.0
 40
89.55223880597014
  1
10
 41
0.6700000000000001
  7
00
100
AcDbText
  0
LINE
  5
1A905
330
1A72B
100
AcDbEntity
  8
HIKIDASHI
100
AcDbLine
 10
6707.087978073521
 20
2994.183932023012
 30
0.0
 11
7061.08797807352
 21
2994.183932023012
 31
0.0
  0
TEXT
  5
1A906
330
1A72B
100
AcDbEntity
  8
HIKIDASHI
100
AcDbText
 10
6737.087978073519
 20
3039.183932023012
 30
0.0
 40
90.0
  1
土　間
  7
01
100
AcDbText
  0
TEXT
  5
1A907
330
1A72B
100
AcDbEntity
  8
SUNPOU
100
AcDbText
 10
8729.52476018689
 20
1293.654565347389
 30
0.0
 40
90.0
  1
5-D13×5-D13
 41
0.6700000000000001
  7
01
 72
     4
 11
9072.947617329749
 21
1338.654565347389
 31
0.0
100
AcDbText
  0
TEXT
  5
1A908
330
1A72B
100
AcDbEntity
  8
SUNPOU
100
AcDbText
 10
8868.947617329755
 20
1458.903907439804
 30
0.0
 40
90.0
  1
ベース筋
  7
01
 72
     4
 11
9072.947617329756
 21
1503.903907439804
 31
0.0
100
AcDbText
  0
TEXT
  5
1A909
330
1A72B
100
AcDbEntity
  8
HIKIDASHI
100
AcDbText
 10
7826.962304091357
 20
925.1349131803474
 30
0.0
 40
90.0
  1
断 面
  7
01
100
AcDbText
  0
LINE
  5
1A90A
330
1A72B
100
AcDbEntity
  8
HIKIDASHI
100
AcDbLine
 10
7402.945024594797
 20
880.1349131803474
 30
0.0
 11
8098.572377830365
 21
880.1349131803474
 31
0.0
  0
LINE
  5
1A90B
330
1A72B
100
AcDbEntity
  8
HIKIDASHI
100
AcDbLine
 10
7402.945024594797
 20
850.1349131803474
 30
0.0
 11
8098.572377830365
 21
850.1349131803474
 31
0.0
  0
TEXT
  5
1A90C
330
1A72B
100
AcDbEntity
  8
HIKIDASHI
100
AcDbText
 10
7432.945024594793
 20
925.1349131803474
 30
0.0
 40
90.0
  1
B  ~  B'
 41
0.6700000000000001
  7
00
100
AcDbText
  0
LINE
  5
1A90D
330
1A72B
100
AcDbEntity
  8
HATCH
100
AcDbLine
 10
4197.973085892561
 20
1876.183932023019
 30
0.0
 11
4224.639752559228
 21
1829.995909356355
 31
0.0
  0
LINE
  5
1A90E
330
1A72B
100
AcDbEntity
  8
HATCH
100
AcDbLine
 10
4158.93037655923
 20
1716.183932023018
 30
0.0
 11
4251.306419225894
 21
1876.183932023019
 31
0.0
  0
LINE
  5
1A90F
330
1A72B
100
AcDbEntity
  8
HATCH
100
AcDbLine
 10
4185.597043225896
 20
1762.371953356349
 30
0.0
 11
4212.263709892562
 21
1716.183932023018
 31
0.0
  0
LINE
  5
1A910
330
1A72B
100
AcDbEntity
  8
HATCH
100
AcDbLine
 10
8417.731205772088
 20
1876.183932023014
 30
0.0
 11
8444.397872438754
 21
1829.99590935635
 31
0.0
  0
LINE
  5
1A911
330
1A72B
100
AcDbEntity
  8
HATCH
100
AcDbLine
 10
8378.688496438755
 20
1716.183932023016
 30
0.0
 11
8471.06453910542
 21
1876.183932023014
 31
0.0
  0
LINE
  5
1A912
330
1A72B
100
AcDbEntity
  8
HATCH
100
AcDbLine
 10
8405.355163105422
 20
1762.371953356345
 30
0.0
 11
8432.021829772089
 21
1716.183932023016
 31
0.0
  0
LINE
  5
1A913
330
1A72B
100
AcDbEntity
  8
KISO
100
AcDbLine
 10
3064.333914666386
 20
2484.183932023019
 30
0.0
 11
3064.333914666386
 21
2260.183932023017
 31
0.0
  0
LINE
  5
1A914
330
1A72B
100
AcDbEntity
  8
KISO
100
AcDbLine
 10
3064.333914666386
 20
2260.183932023017
 30
0.0
 11
3224.333914666386
 21
2260.183932023017
 31
0.0
  0
LINE
  5
1A915
330
1A72B
100
AcDbEntity
  8
KISO
100
AcDbLine
 10
3224.333914666386
 20
2356.183932023017
 30
0.0
 11
3064.333914666386
 21
2356.183932023017
 31
0.0
  0
LINE
  5
1A916
330
1A72B
100
AcDbEntity
  8
HATCH
100
AcDbLine
 10
3134.608080332767
 20
2293.439306423018
 30
0.0
 11
3153.808080332766
 21
2260.183932023017
 31
0.0
  0
LINE
  5
1A917
330
1A72B
100
AcDbEntity
  8
HATCH
100
AcDbLine
 10
3132.433705932765
 20
2356.183932023017
 30
0.0
 11
3151.633705932765
 21
2322.928556023017
 31
0.0
  0
LINE
  5
1A918
330
1A72B
100
AcDbEntity
  8
HATCH
100
AcDbLine
 10
3115.408080332766
 20
2260.183932023017
 30
0.0
 11
3170.833705932765
 21
2356.183932023017
 31
0.0
  0
LINE
  5
1A919
330
1A72B
100
AcDbEntity
  8
HATCH
100
AcDbLine
 10
3203.809059655493
 20
2484.183932023019
 30
0.0
 11
3075.809059655493
 21
2356.183932023017
 31
0.0
  0
LINE
  5
1A91A
330
1A72B
100
AcDbEntity
  8
HATCH
100
AcDbLine
 10
3156.29148365549
 20
2484.183932023019
 30
0.0
 11
3064.333914666386
 21
2392.226363033912
 31
0.0
  0
LINE
  5
1A91B
330
1A72B
100
AcDbEntity
  8
HATCH
100
AcDbLine
 10
3108.773907655493
 20
2484.183932023019
 30
0.0
 11
3064.333914666386
 21
2439.743939033911
 31
0.0
  0
TEXT
  5
1A91C
330
1A72B
100
AcDbEntity
  8
FILENAME
100
AcDbText
 10
13530.57142857142
 20
174.0
 30
0.0
 40
100.0
  1
＜YOKCS-245-MA-U_3_JIS_GL.DXF ＞
  7
FILENAME
 72
     2
 11
16382.0
 21
174.0
 31
0.0
100
AcDbText
  0
LINE
  5
1A91D
330
1A72B
100
AcDbEntity
  8
WAKUSEN-01
100
AcDbLine
 10
434.0000000000008
 20
413.9999999999997
 30
0.0
 11
16382.0
 21
413.9999999999997
 31
0.0
  0
LINE
  5
1A91E
330
1A72B
100
AcDbEntity
  8
WAKUSEN-01
100
AcDbLine
 10
434.0000000000008
 20
11242.0
 30
0.0
 11
16382.0
 21
11242.0
 31
0.0
  0
LINE
  5
1A91F
330
1A72B
100
AcDbEntity
  8
WAKUSEN-01
100
AcDbLine
 10
434.0000000000008
 20
413.9999999999997
 30
0.0
 11
434.0000000000008
 21
11242.0
 31
0.0
  0
LINE
  5
1A920
330
1A72B
100
AcDbEntity
  8
WAKUSEN-01
100
AcDbLine
 10
16382.0
 20
413.9999999999997
 30
0.0
 11
16382.0
 21
11242.0
 31
0.0
  0
LINE
  5
1A921
330
1A72B
100
AcDbEntity
  8
WAKUSEN-01
100
AcDbLine
 10
10280.0
 20
1242.0
 30
0.0
 11
16382.0
 21
1242.0
 31
0.0
  0
LINE
  5
1A922
330
1A72B
100
AcDbEntity
  8
WAKUSEN-02
100
AcDbLine
 10
10280.0
 20
827.9999999999997
 30
0.0
 11
13434.0
 21
827.9999999999997
 31
0.0
  0
TEXT
  5
1A923
330
1A72B
100
AcDbEntity
  8
WAKUMOJI-01
100
AcDbText
 10
10335.13012998137
 20
1062.951504669661
 30
0.0
 40
120.0
  1
名　称
  7
WAKUMOJI
100
AcDbText
  0
TEXT
  5
1A924
330
1A72B
100
AcDbEntity
  8
WAKUMOJI-01
100
AcDbText
 10
10328.25274254596
 20
659.5644874899107
 30
0.0
 40
120.0
  1
機種名
  7
WAKUMOJI
100
AcDbText
  0
LINE
  5
1A925
330
1A72B
100
AcDbEntity
  8
WAKUSEN-01
100
AcDbLine
 10
10280.0
 20
413.9999999999985
 30
0.0
 11
10280.0
 21
1242.0
 31
0.0
  0
LINE
  5
1A926
330
1A72B
100
AcDbEntity
  8
WAKUSEN-02
100
AcDbLine
 10
13434.0
 20
413.9999999999963
 30
0.0
 11
13434.0
 21
1242.0
 31
0.0
  0
LINE
  5
1A927
330
1A72B
100
AcDbEntity
  8
YODOROGO
100
AcDbLine
 10
14988.80217064596
 20
997.8747482146435
 30
0.0
 11
14914.80217064596
 21
997.8747482146435
 31
0.0
1001
AUTOCAD_POSTSCRIPT_FIGURE
1002
{
1000
PSFILL
1000
Grayscale
1000
Grayscale
1070
    25
1002
}
  0
LINE
  5
1A928
330
1A72B
100
AcDbEntity
  8
YODOROGO
100
AcDbLine
 10
14914.80217064596
 20
973.8747482146434
 30
0.0
 11
14988.80217064596
 21
973.8747482146434
 31
0.0
1001
AUTOCAD_POSTSCRIPT_FIGURE
1002
{
1000
PSFILL
1000
Grayscale
1000
Grayscale
1070
    25
1002
}
  0
LINE
  5
1A929
330
1A72B
100
AcDbEntity
  8
YODOROGO
100
AcDbLine
 10
14988.80217064596
 20
953.874748214644
 30
0.0
 11
14914.80217064596
 21
953.874748214644
 31
0.0
1001
AUTOCAD_POSTSCRIPT_FIGURE
1002
{
1000
PSFILL
1000
Grayscale
1000
Grayscale
1070
    25
1002
}
  0
LINE
  5
1A92A
330
1A72B
100
AcDbEntity
  8
YODOROGO
100
AcDbLine
 10
14914.80217064596
 20
929.874748214644
 30
0.0
 11
14988.80217064596
 21
929.874748214644
 31
0.0
1001
AUTOCAD_POSTSCRIPT_FIGURE
1002
{
1000
PSFILL
1000
Grayscale
1000
Grayscale
1070
    25
1002
}
  0
LINE
  5
1A92B
330
1A72B
100
AcDbEntity
  8
YODOROGO
100
AcDbLine
 10
14988.80217064596
 20
909.8747482146439
 30
0.0
 11
14914.80217064596
 21
909.8747482146439
 31
0.0
1001
AUTOCAD_POSTSCRIPT_FIGURE
1002
{
1000
PSFILL
1000
Grayscale
1000
Grayscale
1070
    25
1002
}
  0
LINE
  5
1A92C
330
1A72B
100
AcDbEntity
  8
YODOROGO
100
AcDbLine
 10
14960.80217064594
 20
853.874748214644
 30
0.0
 11
14988.80217064596
 21
853.874748214644
 31
0.0
1001
AUTOCAD_POSTSCRIPT_FIGURE
1002
{
1000
PSFILL
1000
Grayscale
1000
Grayscale
1070
    25
1002
}
  0
LINE
  5
1A92D
330
1A72B
100
AcDbEntity
  8
YODOROGO
100
AcDbLine
 10
14868.80217064596
 20
713.8747482146436
 30
0.0
 11
14968.80217064596
 21
740.6696674577553
 31
0.0
  0
LINE
  5
1A92E
330
1A72B
100
AcDbEntity
  8
YODOROGO
100
AcDbLine
 10
14974.80217064595
 20
853.874748214644
 30
0.0
 11
14942.80217064596
 21
853.874748214644
 31
0.0
  0
ARC
  5
1A92F
330
1A72B
100
AcDbEntity
  8
YODOROGO
100
AcDbCircle
 10
15127.17387491394
 20
903.9323046166312
 30
0.0
 40
190.9434321028236
100
AcDbArc
 50
213.9611167766784
 51
264.4787207431779
  0
ARC
  5
1A930
330
1A72B
100
AcDbEntity
  8
YODOROGO
100
AcDbCircle
 10
15127.17387491396
 20
903.9323046166513
 30
0.0
 40
190.9434321028408
100
AcDbArc
 50
208.141144204866
 51
212.9210361185994
  0
LINE
  5
1A931
330
1A72B
100
AcDbEntity
  8
YODOROGO
100
AcDbLine
 10
14885.70493649264
 20
778.403830673117
 30
0.0
 11
14966.89206625426
 21
800.1578565285436
 31
0.0
  0
LINE
  5
1A932
330
1A72B
100
AcDbEntity
  8
YODOROGO
100
AcDbLine
 10
14868.80217064596
 20
713.8747482146436
 30
0.0
 11
14968.80217064596
 21
740.6696674577553
 31
0.0
  0
LINE
  5
1A933
330
1A72B
100
AcDbEntity
  8
YODOROGO
100
AcDbLine
 10
14974.80217064595
 20
853.874748214644
 30
0.0
 11
14942.80217064596
 21
853.874748214644
 31
0.0
  0
ARC
  5
1A934
330
1A72B
100
AcDbEntity
  8
YODOROGO
100
AcDbCircle
 10
15127.17387491394
 20
903.9323046166312
 30
0.0
 40
190.9434321028236
100
AcDbArc
 50
213.9611167766784
 51
264.4787207431779
  0
LINE
  5
1A935
330
1A72B
100
AcDbEntity
  8
YODOROGO
100
AcDbLine
 10
14396.80217064594
 20
909.8747482146439
 30
0.0
 11
14216.80217064594
 21
909.8747482146439
 31
0.0
  0
LINE
  5
1A936
330
1A72B
100
AcDbEntity
  8
YODOROGO
100
AcDbLine
 10
14256.80217064594
 20
713.8747482146436
 30
0.0
 11
14396.80217064594
 21
713.8747482146436
 31
0.0
  0
LINE
  5
1A937
330
1A72B
100
AcDbEntity
  8
YODOROGO
100
AcDbLine
 10
14364.80217064596
 20
961.8747482146432
 30
0.0
 11
14248.80217064594
 21
961.8747482146432
 31
0.0
  0
LINE
  5
1A938
330
1A72B
100
AcDbEntity
  8
YODOROGO
100
AcDbLine
 10
14292.80217064596
 20
1013.874748214644
 30
0.0
 11
14328.80217064596
 21
1013.874748214644
 31
0.0
  0
LINE
  5
1A939
330
1A72B
100
AcDbEntity
  8
YODOROGO
100
AcDbLine
 10
14216.80217064594
 20
853.874748214644
 30
0.0
 11
14216.80217064594
 21
753.8747482146439
 31
0.0
  0
LINE
  5
1A93A
330
1A72B
100
AcDbEntity
  8
YODOROGO
100
AcDbLine
 10
14248.80217064594
 20
781.8747482146434
 30
0.0
 11
14248.80217064594
 21
853.874748214644
 31
0.0
  0
LINE
  5
1A93B
330
1A72B
100
AcDbEntity
  8
YODOROGO
100
AcDbLine
 10
14292.80217064596
 20
873.8747482146449
 30
0.0
 11
14292.80217064596
 21
773.874748214644
 31
0.0
  0
LINE
  5
1A93C
330
1A72B
100
AcDbEntity
  8
YODOROGO
100
AcDbLine
 10
13928.80217064596
 20
841.8747482146445
 30
0.0
 11
13888.80217064596
 21
809.9862070222856
 31
0.0
  0
LINE
  5
1A93D
330
1A72B
100
AcDbEntity
  8
YODOROGO
100
AcDbLine
 10
13968.80217064596
 20
809.9862070222856
 30
0.0
 11
13928.80217064596
 21
841.8747482146445
 31
0.0
  0
LINE
  5
1A93E
330
1A72B
100
AcDbEntity
  8
YODOROGO
100
AcDbLine
 10
13928.80217064596
 20
853.874748214644
 30
0.0
 11
13968.80217064596
 21
821.986207022285
 31
0.0
  0
LINE
  5
1A93F
330
1A72B
100
AcDbEntity
  8
YODOROGO
100
AcDbLine
 10
13888.80217064596
 20
821.986207022285
 30
0.0
 11
13928.80217064596
 21
853.874748214644
 31
0.0
  0
LINE
  5
1A940
330
1A72B
100
AcDbEntity
  8
YODOROGO
100
AcDbLine
 10
14020.45660200844
 20
829.874748214644
 30
0.0
 11
14020.45660200844
 21
841.8747482146434
 31
0.0
  0
LINE
  5
1A941
330
1A72B
100
AcDbEntity
  8
YODOROGO
100
AcDbLine
 10
13988.80217064596
 20
841.8747482146434
 30
0.0
 11
13988.80217064596
 21
833.8747482146427
 31
0.0
  0
LINE
  5
1A942
330
1A72B
100
AcDbEntity
  8
YODOROGO
100
AcDbLine
 10
14049.06776011545
 20
853.874748214644
 30
0.0
 11
14049.06776011545
 21
827.751818637328
 31
0.0
1001
AUTOCAD_POSTSCRIPT_FIGURE
1002
{
1000
PSFILL
1000
Grayscale
1000
Grayscale
1070
   100
1002
}
  0
LINE
  5
1A943
330
1A72B
100
AcDbEntity
  8
YODOROGO
100
AcDbLine
 10
14041.06776011546
 20
827.751818637328
 30
0.0
 11
14041.06776011546
 21
853.874748214644
 31
0.0
1001
AUTOCAD_POSTSCRIPT_FIGURE
1002
{
1000
PSFILL
1000
Grayscale
1000
Grayscale
1070
   100
1002
}
  0
LINE
  5
1A944
330
1A72B
100
AcDbEntity
  8
YODOROGO
100
AcDbLine
 10
13904.80217064596
 20
804.3859520216292
 30
0.0
 11
13904.80217064596
 21
816.3859520216298
 31
0.0
  0
LINE
  5
1A945
330
1A72B
100
AcDbEntity
  8
YODOROGO
100
AcDbLine
 10
13952.80217064596
 20
804.3859520216292
 30
0.0
 11
13904.80217064596
 21
804.3859520216292
 31
0.0
  0
LINE
  5
1A946
330
1A72B
100
AcDbEntity
  8
YODOROGO
100
AcDbLine
 10
13952.80217064596
 20
816.3859520216298
 30
0.0
 11
13952.80217064596
 21
804.3859520216292
 31
0.0
  0
LINE
  5
1A947
330
1A72B
100
AcDbEntity
  8
YODOROGO
100
AcDbLine
 10
13904.80217064596
 20
816.3859520216298
 30
0.0
 11
13952.80217064596
 21
816.3859520216298
 31
0.0
  0
LINE
  5
1A948
330
1A72B
100
AcDbEntity
  8
YODOROGO
100
AcDbLine
 10
13912.25479445787
 20
784.2514286852374
 30
0.0
 11
13892.80217064596
 21
737.8747482146435
 31
0.0
1001
AUTOCAD_POSTSCRIPT_FIGURE
1002
{
1000
PSFILL
1000
Grayscale
1000
Grayscale
1070
   100
1002
}
  0
LINE
  5
1A949
330
1A72B
100
AcDbEntity
  8
YODOROGO
100
AcDbLine
 10
13888.80217064596
 20
784.2514286852374
 30
0.0
 11
13912.25479445787
 21
784.2514286852374
 31
0.0
1001
AUTOCAD_POSTSCRIPT_FIGURE
1002
{
1000
PSFILL
1000
Grayscale
1000
Grayscale
1070
   100
1002
}
  0
LINE
  5
1A94A
330
1A72B
100
AcDbEntity
  8
YODOROGO
100
AcDbLine
 10
13888.80217064596
 20
794.2514286852374
 30
0.0
 11
13888.80217064596
 21
784.2514286852374
 31
0.0
1001
AUTOCAD_POSTSCRIPT_FIGURE
1002
{
1000
PSFILL
1000
Grayscale
1000
Grayscale
1070
   100
1002
}
  0
LINE
  5
1A94B
330
1A72B
100
AcDbEntity
  8
YODOROGO
100
AcDbLine
 10
13968.80217064596
 20
794.2514286852374
 30
0.0
 11
13888.80217064596
 21
794.2514286852374
 31
0.0
1001
AUTOCAD_POSTSCRIPT_FIGURE
1002
{
1000
PSFILL
1000
Grayscale
1000
Grayscale
1070
   100
1002
}
  0
LINE
  5
1A94C
330
1A72B
100
AcDbEntity
  8
YODOROGO
100
AcDbLine
 10
13968.80217064596
 20
784.2514286852374
 30
0.0
 11
13968.80217064596
 21
794.2514286852374
 31
0.0
1001
AUTOCAD_POSTSCRIPT_FIGURE
1002
{
1000
PSFILL
1000
Grayscale
1000
Grayscale
1070
   100
1002
}
  0
LINE
  5
1A94D
330
1A72B
100
AcDbEntity
  8
YODOROGO
100
AcDbLine
 10
13922.25479445786
 20
784.2514286852374
 30
0.0
 11
13968.80217064596
 21
784.2514286852374
 31
0.0
1001
AUTOCAD_POSTSCRIPT_FIGURE
1002
{
1000
PSFILL
1000
Grayscale
1000
Grayscale
1070
   100
1002
}
  0
LINE
  5
1A94E
330
1A72B
100
AcDbEntity
  8
YODOROGO
100
AcDbLine
 10
13907.77335914238
 20
747.8747482146435
 30
0.0
 11
13922.25479445786
 21
784.2514286852374
 31
0.0
1001
AUTOCAD_POSTSCRIPT_FIGURE
1002
{
1000
PSFILL
1000
Grayscale
1000
Grayscale
1070
   100
1002
}
  0
LINE
  5
1A94F
330
1A72B
100
AcDbEntity
  8
YODOROGO
100
AcDbLine
 10
13951.02739540432
 20
747.8747482146435
 30
0.0
 11
13907.77335914238
 21
747.8747482146435
 31
0.0
1001
AUTOCAD_POSTSCRIPT_FIGURE
1002
{
1000
PSFILL
1000
Grayscale
1000
Grayscale
1070
   100
1002
}
  0
LINE
  5
1A950
330
1A72B
100
AcDbEntity
  8
YODOROGO
100
AcDbLine
 10
13942.53250239547
 20
768.1169053488464
 30
0.0
 11
13951.02739540432
 21
747.8747482146435
 31
0.0
1001
AUTOCAD_POSTSCRIPT_FIGURE
1002
{
1000
PSFILL
1000
Grayscale
1000
Grayscale
1070
   100
1002
}
  0
LINE
  5
1A951
330
1A72B
100
AcDbEntity
  8
YODOROGO
100
AcDbLine
 10
13950.53250239547
 20
768.1169053488464
 30
0.0
 11
13942.53250239547
 21
768.1169053488464
 31
0.0
1001
AUTOCAD_POSTSCRIPT_FIGURE
1002
{
1000
PSFILL
1000
Grayscale
1000
Grayscale
1070
   100
1002
}
  0
LINE
  5
1A952
330
1A72B
100
AcDbEntity
  8
YODOROGO
100
AcDbLine
 10
13964.80217064596
 20
737.8747482146435
 30
0.0
 11
13950.53250239547
 21
768.1169053488464
 31
0.0
1001
AUTOCAD_POSTSCRIPT_FIGURE
1002
{
1000
PSFILL
1000
Grayscale
1000
Grayscale
1070
   100
1002
}
  0
LINE
  5
1A953
330
1A72B
100
AcDbEntity
  8
YODOROGO
100
AcDbLine
 10
13892.80217064596
 20
737.8747482146435
 30
0.0
 11
13964.80217064596
 21
737.8747482146435
 31
0.0
1001
AUTOCAD_POSTSCRIPT_FIGURE
1002
{
1000
PSFILL
1000
Grayscale
1000
Grayscale
1070
   100
1002
}
  0
LINE
  5
1A954
330
1A72B
100
AcDbEntity
  8
YODOROGO
100
AcDbLine
 10
13888.80217064596
 20
809.9862070222856
 30
0.0
 11
13888.80217064596
 21
821.986207022285
 31
0.0
  0
LINE
  5
1A955
330
1A72B
100
AcDbEntity
  8
YODOROGO
100
AcDbLine
 10
13968.80217064596
 20
821.986207022285
 30
0.0
 11
13968.80217064596
 21
809.9862070222856
 31
0.0
  0
ARC
  5
1A956
330
1A72B
100
AcDbEntity
  8
YODOROGO
100
AcDbCircle
 10
14112.97022107348
 20
800.438882662663
 30
0.0
 40
87.99999999999995
100
AcDbArc
 50
280.3644312771313
 51
3.541483659218056
  0
ARC
  5
1A957
330
1A72B
100
AcDbEntity
  8
YODOROGO
100
AcDbCircle
 10
14117.87801537965
 20
816.798903480952
 30
0.0
 40
55.99999999999914
100
AcDbArc
 50
281.2490582504155
 51
348.7509417495832
  0
LINE
  5
1A958
330
1A72B
100
AcDbEntity
  8
YODOROGO
100
AcDbLine
 10
14128.80217064596
 20
761.8747482146434
 30
0.0
 11
14128.80217064596
 21
713.8747482146436
 31
0.0
  0
LINE
  5
1A959
330
1A72B
100
AcDbEntity
  8
YODOROGO
100
AcDbLine
 10
14010.04445186845
 20
805.3252825309574
 30
0.0
 11
14020.45660200844
 21
829.874748214644
 31
0.0
  0
LINE
  5
1A95A
330
1A72B
100
AcDbEntity
  8
YODOROGO
100
AcDbLine
 10
14020.80217064596
 20
791.5602449742006
 30
0.0
 11
14010.04445186845
 21
805.3252825309574
 31
0.0
  0
LINE
  5
1A95B
330
1A72B
100
AcDbEntity
  8
YODOROGO
100
AcDbLine
 10
14020.80217064596
 20
781.5602449741994
 30
0.0
 11
14020.80217064596
 21
791.5602449742006
 31
0.0
  0
LINE
  5
1A95C
330
1A72B
100
AcDbEntity
  8
YODOROGO
100
AcDbLine
 10
14008.80217064596
 20
792.6185318747651
 30
0.0
 11
14020.80217064596
 21
781.5602449741994
 31
0.0
  0
LINE
  5
1A95D
330
1A72B
100
AcDbEntity
  8
YODOROGO
100
AcDbLine
 10
14008.80217064596
 20
737.8747482146435
 30
0.0
 11
14008.80217064596
 21
792.6185318747651
 31
0.0
  0
LINE
  5
1A95E
330
1A72B
100
AcDbEntity
  8
YODOROGO
100
AcDbLine
 10
14000.80217064596
 20
737.8747482146435
 30
0.0
 11
14008.80217064596
 21
737.8747482146435
 31
0.0
  0
LINE
  5
1A95F
330
1A72B
100
AcDbEntity
  8
YODOROGO
100
AcDbLine
 10
14000.80217064596
 20
790.0026748448738
 30
0.0
 11
14000.80217064596
 21
737.8747482146435
 31
0.0
  0
LINE
  5
1A960
330
1A72B
100
AcDbEntity
  8
YODOROGO
100
AcDbLine
 10
13988.80217064596
 20
766.3840395167142
 30
0.0
 11
14000.80217064596
 21
790.0026748448738
 31
0.0
  0
LINE
  5
1A961
330
1A72B
100
AcDbEntity
  8
YODOROGO
100
AcDbLine
 10
13988.80217064596
 20
778.3840395167149
 30
0.0
 11
13988.80217064596
 21
766.3840395167142
 31
0.0
  0
LINE
  5
1A962
330
1A72B
100
AcDbEntity
  8
YODOROGO
100
AcDbLine
 10
14012.91438714567
 20
833.8747482146427
 30
0.0
 11
13988.80217064596
 21
778.3840395167149
 31
0.0
  0
LINE
  5
1A963
330
1A72B
100
AcDbEntity
  8
YODOROGO
100
AcDbLine
 10
13988.80217064596
 20
833.8747482146427
 30
0.0
 11
14012.91438714567
 21
833.8747482146427
 31
0.0
  0
LINE
  5
1A964
330
1A72B
100
AcDbEntity
  8
YODOROGO
100
AcDbLine
 10
14025.06776011545
 20
827.751818637328
 30
0.0
 11
14041.06776011546
 21
827.751818637328
 31
0.0
1001
AUTOCAD_POSTSCRIPT_FIGURE
1002
{
1000
PSFILL
1000
Grayscale
1000
Grayscale
1070
   100
1002
}
  0
LINE
  5
1A965
330
1A72B
100
AcDbEntity
  8
YODOROGO
100
AcDbLine
 10
14025.06776011545
 20
815.7518186373286
 30
0.0
 11
14025.06776011545
 21
827.751818637328
 31
0.0
1001
AUTOCAD_POSTSCRIPT_FIGURE
1002
{
1000
PSFILL
1000
Grayscale
1000
Grayscale
1070
   100
1002
}
  0
LINE
  5
1A966
330
1A72B
100
AcDbEntity
  8
YODOROGO
100
AcDbLine
 10
14041.06776011546
 20
815.7518186373286
 30
0.0
 11
14025.06776011545
 21
815.7518186373286
 31
0.0
1001
AUTOCAD_POSTSCRIPT_FIGURE
1002
{
1000
PSFILL
1000
Grayscale
1000
Grayscale
1070
   100
1002
}
  0
LINE
  5
1A967
330
1A72B
100
AcDbEntity
  8
YODOROGO
100
AcDbLine
 10
14041.06776011546
 20
749.8747482146441
 30
0.0
 11
14041.06776011546
 21
815.7518186373286
 31
0.0
1001
AUTOCAD_POSTSCRIPT_FIGURE
1002
{
1000
PSFILL
1000
Grayscale
1000
Grayscale
1070
   100
1002
}
  0
LINE
  5
1A968
330
1A72B
100
AcDbEntity
  8
YODOROGO
100
AcDbLine
 10
14025.06776011545
 20
749.8747482146441
 30
0.0
 11
14041.06776011546
 21
749.8747482146441
 31
0.0
1001
AUTOCAD_POSTSCRIPT_FIGURE
1002
{
1000
PSFILL
1000
Grayscale
1000
Grayscale
1070
   100
1002
}
  0
LINE
  5
1A969
330
1A72B
100
AcDbEntity
  8
YODOROGO
100
AcDbLine
 10
14025.06776011545
 20
737.8747482146435
 30
0.0
 11
14025.06776011545
 21
749.8747482146441
 31
0.0
1001
AUTOCAD_POSTSCRIPT_FIGURE
1002
{
1000
PSFILL
1000
Grayscale
1000
Grayscale
1070
   100
1002
}
  0
LINE
  5
1A96A
330
1A72B
100
AcDbEntity
  8
YODOROGO
100
AcDbLine
 10
14068.80217064596
 20
737.8747482146435
 30
0.0
 11
14025.06776011545
 21
737.8747482146435
 31
0.0
1001
AUTOCAD_POSTSCRIPT_FIGURE
1002
{
1000
PSFILL
1000
Grayscale
1000
Grayscale
1070
   100
1002
}
  0
LINE
  5
1A96B
330
1A72B
100
AcDbEntity
  8
YODOROGO
100
AcDbLine
 10
14068.80217064596
 20
749.8747482146441
 30
0.0
 11
14068.80217064596
 21
737.8747482146435
 31
0.0
1001
AUTOCAD_POSTSCRIPT_FIGURE
1002
{
1000
PSFILL
1000
Grayscale
1000
Grayscale
1070
   100
1002
}
  0
LINE
  5
1A96C
330
1A72B
100
AcDbEntity
  8
YODOROGO
100
AcDbLine
 10
14049.06776011545
 20
749.8747482146441
 30
0.0
 11
14068.80217064596
 21
749.8747482146441
 31
0.0
1001
AUTOCAD_POSTSCRIPT_FIGURE
1002
{
1000
PSFILL
1000
Grayscale
1000
Grayscale
1070
   100
1002
}
  0
LINE
  5
1A96D
330
1A72B
100
AcDbEntity
  8
YODOROGO
100
AcDbLine
 10
14049.06776011545
 20
815.7518186373286
 30
0.0
 11
14049.06776011545
 21
749.8747482146441
 31
0.0
1001
AUTOCAD_POSTSCRIPT_FIGURE
1002
{
1000
PSFILL
1000
Grayscale
1000
Grayscale
1070
   100
1002
}
  0
LINE
  5
1A96E
330
1A72B
100
AcDbEntity
  8
YODOROGO
100
AcDbLine
 10
14068.80217064596
 20
815.7518186373286
 30
0.0
 11
14049.06776011545
 21
815.7518186373286
 31
0.0
1001
AUTOCAD_POSTSCRIPT_FIGURE
1002
{
1000
PSFILL
1000
Grayscale
1000
Grayscale
1070
   100
1002
}
  0
LINE
  5
1A96F
330
1A72B
100
AcDbEntity
  8
YODOROGO
100
AcDbLine
 10
14068.80217064596
 20
827.751818637328
 30
0.0
 11
14068.80217064596
 21
815.7518186373286
 31
0.0
1001
AUTOCAD_POSTSCRIPT_FIGURE
1002
{
1000
PSFILL
1000
Grayscale
1000
Grayscale
1070
   100
1002
}
  0
LINE
  5
1A970
330
1A72B
100
AcDbEntity
  8
YODOROGO
100
AcDbLine
 10
14049.06776011545
 20
827.751818637328
 30
0.0
 11
14068.80217064596
 21
827.751818637328
 31
0.0
1001
AUTOCAD_POSTSCRIPT_FIGURE
1002
{
1000
PSFILL
1000
Grayscale
1000
Grayscale
1070
   100
1002
}
  0
LINE
  5
1A971
330
1A72B
100
AcDbEntity
  8
YODOROGO
100
AcDbLine
 10
14200.80217064594
 20
833.8747482146439
 30
0.0
 11
14172.80217064596
 21
833.8747482146439
 31
0.0
  0
LINE
  5
1A972
330
1A72B
100
AcDbEntity
  8
YODOROGO
100
AcDbLine
 10
14200.80217064594
 20
805.8747482146443
 30
0.0
 11
14200.80217064594
 21
833.8747482146439
 31
0.0
  0
LINE
  5
1A973
330
1A72B
100
AcDbEntity
  8
YODOROGO
100
AcDbLine
 10
14172.80217064596
 20
833.8747482146439
 30
0.0
 11
14172.80217064596
 21
805.8747482146443
 31
0.0
  0
ARC
  5
1A974
330
1A72B
100
AcDbEntity
  8
YODOROGO
100
AcDbCircle
 10
14256.80217064594
 20
753.8747482146439
 30
0.0
 40
40.0
100
AcDbArc
 50
180.0
 51
270.0
  0
ARC
  5
1A975
330
1A72B
100
AcDbEntity
  8
YODOROGO
100
AcDbCircle
 10
14268.80217064594
 20
781.8747482146434
 30
0.0
 40
20.0
100
AcDbArc
 50
180.0
 51
270.0
  0
LINE
  5
1A976
330
1A72B
100
AcDbEntity
  8
YODOROGO
100
AcDbLine
 10
14280.80217064596
 20
761.8747482146434
 30
0.0
 11
14268.80217064594
 21
761.8747482146434
 31
0.0
  0
ARC
  5
1A977
330
1A72B
100
AcDbEntity
  8
YODOROGO
100
AcDbCircle
 10
14280.80217064596
 20
773.8747482146427
 30
0.0
 40
11.99999999999818
100
AcDbArc
 50
270.0
 51
0.0000000000054281
  0
LINE
  5
1A978
330
1A72B
100
AcDbEntity
  8
YODOROGO
100
AcDbLine
 10
13900.80217064596
 20
945.3932903968532
 30
0.0
 11
13888.80217064596
 21
921.8883739758362
 31
0.0
1001
AUTOCAD_POSTSCRIPT_FIGURE
1002
{
1000
PSFILL
1000
Grayscale
1000
Grayscale
1070
   100
1002
}
  0
LINE
  5
1A979
330
1A72B
100
AcDbEntity
  8
YODOROGO
100
AcDbLine
 10
13900.80217064596
 20
873.8747482146434
 30
0.0
 11
13900.80217064596
 21
945.3932903968532
 31
0.0
1001
AUTOCAD_POSTSCRIPT_FIGURE
1002
{
1000
PSFILL
1000
Grayscale
1000
Grayscale
1070
   100
1002
}
  0
LINE
  5
1A97A
330
1A72B
100
AcDbEntity
  8
YODOROGO
100
AcDbLine
 10
13908.80217064596
 20
873.8747482146434
 30
0.0
 11
13900.80217064596
 21
873.8747482146434
 31
0.0
1001
AUTOCAD_POSTSCRIPT_FIGURE
1002
{
1000
PSFILL
1000
Grayscale
1000
Grayscale
1070
   100
1002
}
  0
LINE
  5
1A97B
330
1A72B
100
AcDbEntity
  8
YODOROGO
100
AcDbLine
 10
13908.80217064596
 20
946.8856660426332
 30
0.0
 11
13908.80217064596
 21
873.8747482146434
 31
0.0
1001
AUTOCAD_POSTSCRIPT_FIGURE
1002
{
1000
PSFILL
1000
Grayscale
1000
Grayscale
1070
   100
1002
}
  0
LINE
  5
1A97C
330
1A72B
100
AcDbEntity
  8
YODOROGO
100
AcDbLine
 10
13920.80217064596
 20
933.8273791420684
 30
0.0
 11
13908.80217064596
 21
946.8856660426332
 31
0.0
1001
AUTOCAD_POSTSCRIPT_FIGURE
1002
{
1000
PSFILL
1000
Grayscale
1000
Grayscale
1070
   100
1002
}
  0
LINE
  5
1A97D
330
1A72B
100
AcDbEntity
  8
YODOROGO
100
AcDbLine
 10
13920.80217064596
 20
941.8273791420681
 30
0.0
 11
13920.80217064596
 21
933.8273791420684
 31
0.0
1001
AUTOCAD_POSTSCRIPT_FIGURE
1002
{
1000
PSFILL
1000
Grayscale
1000
Grayscale
1070
   100
1002
}
  0
LINE
  5
1A97E
330
1A72B
100
AcDbEntity
  8
YODOROGO
100
AcDbLine
 10
13908.80217064596
 20
958.8856660426325
 30
0.0
 11
13920.80217064596
 21
941.8273791420681
 31
0.0
1001
AUTOCAD_POSTSCRIPT_FIGURE
1002
{
1000
PSFILL
1000
Grayscale
1000
Grayscale
1070
   100
1002
}
  0
LINE
  5
1A97F
330
1A72B
100
AcDbEntity
  8
YODOROGO
100
AcDbLine
 10
13908.80217064596
 20
969.8747482146441
 30
0.0
 11
13908.80217064596
 21
958.8856660426325
 31
0.0
1001
AUTOCAD_POSTSCRIPT_FIGURE
1002
{
1000
PSFILL
1000
Grayscale
1000
Grayscale
1070
   100
1002
}
  0
LINE
  5
1A980
330
1A72B
100
AcDbEntity
  8
YODOROGO
100
AcDbLine
 10
13944.80217064596
 20
969.8747482146441
 30
0.0
 11
13908.80217064596
 21
969.8747482146441
 31
0.0
1001
AUTOCAD_POSTSCRIPT_FIGURE
1002
{
1000
PSFILL
1000
Grayscale
1000
Grayscale
1070
   100
1002
}
  0
LINE
  5
1A981
330
1A72B
100
AcDbEntity
  8
YODOROGO
100
AcDbLine
 10
13944.80217064596
 20
950.2841744681497
 30
0.0
 11
13944.80217064596
 21
969.8747482146441
 31
0.0
1001
AUTOCAD_POSTSCRIPT_FIGURE
1002
{
1000
PSFILL
1000
Grayscale
1000
Grayscale
1070
   100
1002
}
  0
LINE
  5
1A982
330
1A72B
100
AcDbEntity
  8
YODOROGO
100
AcDbLine
 10
13928.80217064596
 20
950.2841744681497
 30
0.0
 11
13944.80217064596
 21
950.2841744681497
 31
0.0
1001
AUTOCAD_POSTSCRIPT_FIGURE
1002
{
1000
PSFILL
1000
Grayscale
1000
Grayscale
1070
   100
1002
}
  0
LINE
  5
1A983
330
1A72B
100
AcDbEntity
  8
YODOROGO
100
AcDbLine
 10
13928.80217064596
 20
942.2841744681491
 30
0.0
 11
13928.80217064596
 21
950.2841744681497
 31
0.0
1001
AUTOCAD_POSTSCRIPT_FIGURE
1002
{
1000
PSFILL
1000
Grayscale
1000
Grayscale
1070
   100
1002
}
  0
LINE
  5
1A984
330
1A72B
100
AcDbEntity
  8
YODOROGO
100
AcDbLine
 10
13944.80217064596
 20
942.2841744681491
 30
0.0
 11
13928.80217064596
 21
942.2841744681491
 31
0.0
1001
AUTOCAD_POSTSCRIPT_FIGURE
1002
{
1000
PSFILL
1000
Grayscale
1000
Grayscale
1070
   100
1002
}
  0
LINE
  5
1A985
330
1A72B
100
AcDbEntity
  8
YODOROGO
100
AcDbLine
 10
13944.80217064596
 20
939.8095889822196
 30
0.0
 11
13944.80217064596
 21
942.2841744681491
 31
0.0
1001
AUTOCAD_POSTSCRIPT_FIGURE
1002
{
1000
PSFILL
1000
Grayscale
1000
Grayscale
1070
   100
1002
}
  0
LINE
  5
1A986
330
1A72B
100
AcDbEntity
  8
YODOROGO
100
AcDbLine
 10
13924.80217064596
 20
906.4874905807087
 30
0.0
 11
13944.80217064596
 21
939.8095889822196
 31
0.0
1001
AUTOCAD_POSTSCRIPT_FIGURE
1002
{
1000
PSFILL
1000
Grayscale
1000
Grayscale
1070
   100
1002
}
  0
LINE
  5
1A987
330
1A72B
100
AcDbEntity
  8
YODOROGO
100
AcDbLine
 10
13924.80217064596
 20
898.487490580708
 30
0.0
 11
13924.80217064596
 21
906.4874905807087
 31
0.0
1001
AUTOCAD_POSTSCRIPT_FIGURE
1002
{
1000
PSFILL
1000
Grayscale
1000
Grayscale
1070
   100
1002
}
  0
LINE
  5
1A988
330
1A72B
100
AcDbEntity
  8
YODOROGO
100
AcDbLine
 10
13944.80217064596
 20
923.8095889822183
 30
0.0
 11
13924.80217064596
 21
898.487490580708
 31
0.0
1001
AUTOCAD_POSTSCRIPT_FIGURE
1002
{
1000
PSFILL
1000
Grayscale
1000
Grayscale
1070
   100
1002
}
  0
LINE
  5
1A989
330
1A72B
100
AcDbEntity
  8
YODOROGO
100
AcDbLine
 10
13944.80217064596
 20
873.8747482146434
 30
0.0
 11
13944.80217064596
 21
923.8095889822183
 31
0.0
1001
AUTOCAD_POSTSCRIPT_FIGURE
1002
{
1000
PSFILL
1000
Grayscale
1000
Grayscale
1070
   100
1002
}
  0
LINE
  5
1A98A
330
1A72B
100
AcDbEntity
  8
YODOROGO
100
AcDbLine
 10
13952.80217064596
 20
873.8747482146434
 30
0.0
 11
13944.80217064596
 21
873.8747482146434
 31
0.0
1001
AUTOCAD_POSTSCRIPT_FIGURE
1002
{
1000
PSFILL
1000
Grayscale
1000
Grayscale
1070
   100
1002
}
  0
LINE
  5
1A98B
330
1A72B
100
AcDbEntity
  8
YODOROGO
100
AcDbLine
 10
13952.80217064596
 20
924.7045060794032
 30
0.0
 11
13952.80217064596
 21
873.8747482146434
 31
0.0
1001
AUTOCAD_POSTSCRIPT_FIGURE
1002
{
1000
PSFILL
1000
Grayscale
1000
Grayscale
1070
   100
1002
}
  0
LINE
  5
1A98C
330
1A72B
100
AcDbEntity
  8
YODOROGO
100
AcDbLine
 10
13968.80217064596
 20
898.487490580708
 30
0.0
 11
13952.80217064596
 21
924.7045060794032
 31
0.0
1001
AUTOCAD_POSTSCRIPT_FIGURE
1002
{
1000
PSFILL
1000
Grayscale
1000
Grayscale
1070
   100
1002
}
  0
LINE
  5
1A98D
330
1A72B
100
AcDbEntity
  8
YODOROGO
100
AcDbLine
 10
13968.80217064596
 20
906.4874905807087
 30
0.0
 11
13968.80217064596
 21
898.487490580708
 31
0.0
1001
AUTOCAD_POSTSCRIPT_FIGURE
1002
{
1000
PSFILL
1000
Grayscale
1000
Grayscale
1070
   100
1002
}
  0
LINE
  5
1A98E
330
1A72B
100
AcDbEntity
  8
YODOROGO
100
AcDbLine
 10
13952.80217064596
 20
940.7045060794041
 30
0.0
 11
13968.80217064596
 21
906.4874905807087
 31
0.0
1001
AUTOCAD_POSTSCRIPT_FIGURE
1002
{
1000
PSFILL
1000
Grayscale
1000
Grayscale
1070
   100
1002
}
  0
LINE
  5
1A98F
330
1A72B
100
AcDbEntity
  8
YODOROGO
100
AcDbLine
 10
13952.80217064596
 20
942.2841744681502
 30
0.0
 11
13952.80217064596
 21
940.7045060794041
 31
0.0
1001
AUTOCAD_POSTSCRIPT_FIGURE
1002
{
1000
PSFILL
1000
Grayscale
1000
Grayscale
1070
   100
1002
}
  0
LINE
  5
1A990
330
1A72B
100
AcDbEntity
  8
YODOROGO
100
AcDbLine
 10
13968.80217064596
 20
942.2841744681491
 30
0.0
 11
13952.80217064596
 21
942.2841744681502
 31
0.0
1001
AUTOCAD_POSTSCRIPT_FIGURE
1002
{
1000
PSFILL
1000
Grayscale
1000
Grayscale
1070
   100
1002
}
  0
LINE
  5
1A991
330
1A72B
100
AcDbEntity
  8
YODOROGO
100
AcDbLine
 10
13968.80217064596
 20
950.2841744681497
 30
0.0
 11
13968.80217064596
 21
942.2841744681491
 31
0.0
1001
AUTOCAD_POSTSCRIPT_FIGURE
1002
{
1000
PSFILL
1000
Grayscale
1000
Grayscale
1070
   100
1002
}
  0
LINE
  5
1A992
330
1A72B
100
AcDbEntity
  8
YODOROGO
100
AcDbLine
 10
13952.80217064596
 20
950.2841744681497
 30
0.0
 11
13968.80217064596
 21
950.2841744681497
 31
0.0
1001
AUTOCAD_POSTSCRIPT_FIGURE
1002
{
1000
PSFILL
1000
Grayscale
1000
Grayscale
1070
   100
1002
}
  0
LINE
  5
1A993
330
1A72B
100
AcDbEntity
  8
YODOROGO
100
AcDbLine
 10
13952.80217064596
 20
969.8747482146441
 30
0.0
 11
13952.80217064596
 21
950.2841744681497
 31
0.0
1001
AUTOCAD_POSTSCRIPT_FIGURE
1002
{
1000
PSFILL
1000
Grayscale
1000
Grayscale
1070
   100
1002
}
  0
LINE
  5
1A994
330
1A72B
100
AcDbEntity
  8
YODOROGO
100
AcDbLine
 10
13968.80217064596
 20
969.8747482146441
 30
0.0
 11
13952.80217064596
 21
969.8747482146441
 31
0.0
1001
AUTOCAD_POSTSCRIPT_FIGURE
1002
{
1000
PSFILL
1000
Grayscale
1000
Grayscale
1070
   100
1002
}
  0
LINE
  5
1A995
330
1A72B
100
AcDbEntity
  8
YODOROGO
100
AcDbLine
 10
13968.80217064596
 20
977.8747482146435
 30
0.0
 11
13968.80217064596
 21
969.8747482146441
 31
0.0
1001
AUTOCAD_POSTSCRIPT_FIGURE
1002
{
1000
PSFILL
1000
Grayscale
1000
Grayscale
1070
   100
1002
}
  0
LINE
  5
1A996
330
1A72B
100
AcDbEntity
  8
YODOROGO
100
AcDbLine
 10
13952.80217064596
 20
977.8747482146435
 30
0.0
 11
13968.80217064596
 21
977.8747482146435
 31
0.0
1001
AUTOCAD_POSTSCRIPT_FIGURE
1002
{
1000
PSFILL
1000
Grayscale
1000
Grayscale
1070
   100
1002
}
  0
LINE
  5
1A997
330
1A72B
100
AcDbEntity
  8
YODOROGO
100
AcDbLine
 10
13952.80217064596
 20
989.8747482146442
 30
0.0
 11
13952.80217064596
 21
977.8747482146435
 31
0.0
1001
AUTOCAD_POSTSCRIPT_FIGURE
1002
{
1000
PSFILL
1000
Grayscale
1000
Grayscale
1070
   100
1002
}
  0
LINE
  5
1A998
330
1A72B
100
AcDbEntity
  8
YODOROGO
100
AcDbLine
 10
13944.80217064596
 20
989.8747482146442
 30
0.0
 11
13952.80217064596
 21
989.8747482146442
 31
0.0
1001
AUTOCAD_POSTSCRIPT_FIGURE
1002
{
1000
PSFILL
1000
Grayscale
1000
Grayscale
1070
   100
1002
}
  0
LINE
  5
1A999
330
1A72B
100
AcDbEntity
  8
YODOROGO
100
AcDbLine
 10
13944.80217064596
 20
977.8747482146435
 30
0.0
 11
13944.80217064596
 21
989.8747482146442
 31
0.0
1001
AUTOCAD_POSTSCRIPT_FIGURE
1002
{
1000
PSFILL
1000
Grayscale
1000
Grayscale
1070
   100
1002
}
  0
LINE
  5
1A99A
330
1A72B
100
AcDbEntity
  8
YODOROGO
100
AcDbLine
 10
13932.80217064596
 20
977.8747482146435
 30
0.0
 11
13944.80217064596
 21
977.8747482146435
 31
0.0
1001
AUTOCAD_POSTSCRIPT_FIGURE
1002
{
1000
PSFILL
1000
Grayscale
1000
Grayscale
1070
   100
1002
}
  0
LINE
  5
1A99B
330
1A72B
100
AcDbEntity
  8
YODOROGO
100
AcDbLine
 10
13932.80217064596
 20
989.8747482146442
 30
0.0
 11
13932.80217064596
 21
977.8747482146435
 31
0.0
1001
AUTOCAD_POSTSCRIPT_FIGURE
1002
{
1000
PSFILL
1000
Grayscale
1000
Grayscale
1070
   100
1002
}
  0
LINE
  5
1A99C
330
1A72B
100
AcDbEntity
  8
YODOROGO
100
AcDbLine
 10
13924.80217064596
 20
989.8747482146442
 30
0.0
 11
13932.80217064596
 21
989.8747482146442
 31
0.0
1001
AUTOCAD_POSTSCRIPT_FIGURE
1002
{
1000
PSFILL
1000
Grayscale
1000
Grayscale
1070
   100
1002
}
  0
LINE
  5
1A99D
330
1A72B
100
AcDbEntity
  8
YODOROGO
100
AcDbLine
 10
13924.80217064596
 20
977.8747482146435
 30
0.0
 11
13924.80217064596
 21
989.8747482146442
 31
0.0
1001
AUTOCAD_POSTSCRIPT_FIGURE
1002
{
1000
PSFILL
1000
Grayscale
1000
Grayscale
1070
   100
1002
}
  0
LINE
  5
1A99E
330
1A72B
100
AcDbEntity
  8
YODOROGO
100
AcDbLine
 10
13908.80217064596
 20
977.8747482146435
 30
0.0
 11
13924.80217064596
 21
977.8747482146435
 31
0.0
1001
AUTOCAD_POSTSCRIPT_FIGURE
1002
{
1000
PSFILL
1000
Grayscale
1000
Grayscale
1070
   100
1002
}
  0
LINE
  5
1A99F
330
1A72B
100
AcDbEntity
  8
YODOROGO
100
AcDbLine
 10
13908.80217064596
 20
989.8747482146442
 30
0.0
 11
13908.80217064596
 21
977.8747482146435
 31
0.0
1001
AUTOCAD_POSTSCRIPT_FIGURE
1002
{
1000
PSFILL
1000
Grayscale
1000
Grayscale
1070
   100
1002
}
  0
LINE
  5
1A9A0
330
1A72B
100
AcDbEntity
  8
YODOROGO
100
AcDbLine
 10
13900.80217064596
 20
989.8747482146442
 30
0.0
 11
13908.80217064596
 21
989.8747482146442
 31
0.0
1001
AUTOCAD_POSTSCRIPT_FIGURE
1002
{
1000
PSFILL
1000
Grayscale
1000
Grayscale
1070
   100
1002
}
  0
LINE
  5
1A9A1
330
1A72B
100
AcDbEntity
  8
YODOROGO
100
AcDbLine
 10
13900.80217064596
 20
977.8747482146435
 30
0.0
 11
13900.80217064596
 21
989.8747482146442
 31
0.0
1001
AUTOCAD_POSTSCRIPT_FIGURE
1002
{
1000
PSFILL
1000
Grayscale
1000
Grayscale
1070
   100
1002
}
  0
LINE
  5
1A9A2
330
1A72B
100
AcDbEntity
  8
YODOROGO
100
AcDbLine
 10
13888.80217064596
 20
977.8747482146435
 30
0.0
 11
13900.80217064596
 21
977.8747482146435
 31
0.0
1001
AUTOCAD_POSTSCRIPT_FIGURE
1002
{
1000
PSFILL
1000
Grayscale
1000
Grayscale
1070
   100
1002
}
  0
LINE
  5
1A9A3
330
1A72B
100
AcDbEntity
  8
YODOROGO
100
AcDbLine
 10
13888.80217064596
 20
969.8747482146441
 30
0.0
 11
13888.80217064596
 21
977.8747482146435
 31
0.0
1001
AUTOCAD_POSTSCRIPT_FIGURE
1002
{
1000
PSFILL
1000
Grayscale
1000
Grayscale
1070
   100
1002
}
  0
LINE
  5
1A9A4
330
1A72B
100
AcDbEntity
  8
YODOROGO
100
AcDbLine
 10
13900.80217064596
 20
969.8747482146441
 30
0.0
 11
13888.80217064596
 21
969.8747482146441
 31
0.0
1001
AUTOCAD_POSTSCRIPT_FIGURE
1002
{
1000
PSFILL
1000
Grayscale
1000
Grayscale
1070
   100
1002
}
  0
LINE
  5
1A9A5
330
1A72B
100
AcDbEntity
  8
YODOROGO
100
AcDbLine
 10
13900.80217064596
 20
957.3932903968525
 30
0.0
 11
13900.80217064596
 21
969.8747482146441
 31
0.0
1001
AUTOCAD_POSTSCRIPT_FIGURE
1002
{
1000
PSFILL
1000
Grayscale
1000
Grayscale
1070
   100
1002
}
  0
LINE
  5
1A9A6
330
1A72B
100
AcDbEntity
  8
YODOROGO
100
AcDbLine
 10
13888.80217064596
 20
929.8883739758355
 30
0.0
 11
13900.80217064596
 21
957.3932903968525
 31
0.0
1001
AUTOCAD_POSTSCRIPT_FIGURE
1002
{
1000
PSFILL
1000
Grayscale
1000
Grayscale
1070
   100
1002
}
  0
LINE
  5
1A9A7
330
1A72B
100
AcDbEntity
  8
YODOROGO
100
AcDbLine
 10
13888.80217064596
 20
921.8883739758362
 30
0.0
 11
13888.80217064596
 21
929.8883739758355
 31
0.0
1001
AUTOCAD_POSTSCRIPT_FIGURE
1002
{
1000
PSFILL
1000
Grayscale
1000
Grayscale
1070
   100
1002
}
  0
LINE
  5
1A9A8
330
1A72B
100
AcDbEntity
  8
YODOROGO
100
AcDbLine
 10
14128.80217064596
 20
933.8747482146439
 30
0.0
 11
14200.80217064594
 21
912.4388128201532
 31
0.0
1001
AUTOCAD_POSTSCRIPT_FIGURE
1002
{
1000
PSFILL
1000
Grayscale
1000
Grayscale
1070
   100
1002
}
  0
LINE
  5
1A9A9
330
1A72B
100
AcDbEntity
  8
YODOROGO
100
AcDbLine
 10
14200.80217064594
 20
876.4388128201531
 30
0.0
 11
14128.80217064596
 21
897.8747482146435
 31
0.0
1001
AUTOCAD_POSTSCRIPT_FIGURE
1002
{
1000
PSFILL
1000
Grayscale
1000
Grayscale
1070
   100
1002
}
  0
LINE
  5
1A9AA
330
1A72B
100
AcDbEntity
  8
YODOROGO
100
AcDbLine
 10
14200.80217064594
 20
992.4388128201531
 30
0.0
 11
14128.80217064596
 21
1013.874748214644
 31
0.0
1001
AUTOCAD_POSTSCRIPT_FIGURE
1002
{
1000
PSFILL
1000
Grayscale
1000
Grayscale
1070
   100
1002
}
  0
LINE
  5
1A9AB
330
1A72B
100
AcDbEntity
  8
YODOROGO
100
AcDbLine
 10
14128.80217064596
 20
979.874748214644
 30
0.0
 11
14200.80217064594
 21
958.4388128201537
 31
0.0
1001
AUTOCAD_POSTSCRIPT_FIGURE
1002
{
1000
PSFILL
1000
Grayscale
1000
Grayscale
1070
   100
1002
}
  0
LINE
  5
1A9AC
330
1A72B
100
AcDbEntity
  8
YODOROGO
100
AcDbLine
 10
14128.80217064596
 20
897.8747482146435
 30
0.0
 11
14128.80217064596
 21
933.8747482146439
 31
0.0
1001
AUTOCAD_POSTSCRIPT_FIGURE
1002
{
1000
PSFILL
1000
Grayscale
1000
Grayscale
1070
   100
1002
}
  0
LINE
  5
1A9AD
330
1A72B
100
AcDbEntity
  8
YODOROGO
100
AcDbLine
 10
14128.80217064596
 20
1013.874748214644
 30
0.0
 11
14128.80217064596
 21
979.874748214644
 31
0.0
1001
AUTOCAD_POSTSCRIPT_FIGURE
1002
{
1000
PSFILL
1000
Grayscale
1000
Grayscale
1070
   100
1002
}
  0
LINE
  5
1A9AE
330
1A72B
100
AcDbEntity
  8
YODOROGO
100
AcDbLine
 10
14040.11816010337
 20
969.8747482146441
 30
0.0
 11
14064.80217064595
 21
873.8747482146434
 31
0.0
1001
AUTOCAD_POSTSCRIPT_FIGURE
1002
{
1000
PSFILL
1000
Grayscale
1000
Grayscale
1070
   100
1002
}
  0
LINE
  5
1A9AF
330
1A72B
100
AcDbEntity
  8
YODOROGO
100
AcDbLine
 10
13988.80217064596
 20
969.8747482146441
 30
0.0
 11
14040.11816010337
 21
969.8747482146441
 31
0.0
1001
AUTOCAD_POSTSCRIPT_FIGURE
1002
{
1000
PSFILL
1000
Grayscale
1000
Grayscale
1070
   100
1002
}
  0
LINE
  5
1A9B0
330
1A72B
100
AcDbEntity
  8
YODOROGO
100
AcDbLine
 10
13988.80217064596
 20
977.8747482146435
 30
0.0
 11
13988.80217064596
 21
969.8747482146441
 31
0.0
1001
AUTOCAD_POSTSCRIPT_FIGURE
1002
{
1000
PSFILL
1000
Grayscale
1000
Grayscale
1070
   100
1002
}
  0
LINE
  5
1A9B1
330
1A72B
100
AcDbEntity
  8
YODOROGO
100
AcDbLine
 10
14038.30343925995
 20
977.8747482146435
 30
0.0
 11
13988.80217064596
 21
977.8747482146435
 31
0.0
1001
AUTOCAD_POSTSCRIPT_FIGURE
1002
{
1000
PSFILL
1000
Grayscale
1000
Grayscale
1070
   100
1002
}
  0
LINE
  5
1A9B2
330
1A72B
100
AcDbEntity
  8
YODOROGO
100
AcDbLine
 10
14035.58135799485
 20
989.8747482146442
 30
0.0
 11
14038.30343925995
 21
977.8747482146435
 31
0.0
1001
AUTOCAD_POSTSCRIPT_FIGURE
1002
{
1000
PSFILL
1000
Grayscale
1000
Grayscale
1070
   100
1002
}
  0
LINE
  5
1A9B3
330
1A72B
100
AcDbEntity
  8
YODOROGO
100
AcDbLine
 10
14045.58135799485
 20
989.8747482146442
 30
0.0
 11
14035.58135799485
 21
989.8747482146442
 31
0.0
1001
AUTOCAD_POSTSCRIPT_FIGURE
1002
{
1000
PSFILL
1000
Grayscale
1000
Grayscale
1070
   100
1002
}
  0
LINE
  5
1A9B4
330
1A72B
100
AcDbEntity
  8
YODOROGO
100
AcDbLine
 10
14047.90343925997
 20
977.8747482146435
 30
0.0
 11
14045.58135799485
 21
989.8747482146442
 31
0.0
1001
AUTOCAD_POSTSCRIPT_FIGURE
1002
{
1000
PSFILL
1000
Grayscale
1000
Grayscale
1070
   100
1002
}
  0
LINE
  5
1A9B5
330
1A72B
100
AcDbEntity
  8
YODOROGO
100
AcDbLine
 10
14060.80217064596
 20
977.8747482146435
 30
0.0
 11
14047.90343925997
 21
977.8747482146435
 31
0.0
1001
AUTOCAD_POSTSCRIPT_FIGURE
1002
{
1000
PSFILL
1000
Grayscale
1000
Grayscale
1070
   100
1002
}
  0
LINE
  5
1A9B6
330
1A72B
100
AcDbEntity
  8
YODOROGO
100
AcDbLine
 10
14060.80217064596
 20
989.8747482146442
 30
0.0
 11
14060.80217064596
 21
977.8747482146435
 31
0.0
1001
AUTOCAD_POSTSCRIPT_FIGURE
1002
{
1000
PSFILL
1000
Grayscale
1000
Grayscale
1070
   100
1002
}
  0
LINE
  5
1A9B7
330
1A72B
100
AcDbEntity
  8
YODOROGO
100
AcDbLine
 10
14068.80217064596
 20
989.8747482146442
 30
0.0
 11
14060.80217064596
 21
989.8747482146442
 31
0.0
1001
AUTOCAD_POSTSCRIPT_FIGURE
1002
{
1000
PSFILL
1000
Grayscale
1000
Grayscale
1070
   100
1002
}
  0
LINE
  5
1A9B8
330
1A72B
100
AcDbEntity
  8
YODOROGO
100
AcDbLine
 10
14068.80217064596
 20
977.8747482146435
 30
0.0
 11
14068.80217064596
 21
989.8747482146442
 31
0.0
1001
AUTOCAD_POSTSCRIPT_FIGURE
1002
{
1000
PSFILL
1000
Grayscale
1000
Grayscale
1070
   100
1002
}
  0
LINE
  5
1A9B9
330
1A72B
100
AcDbEntity
  8
YODOROGO
100
AcDbLine
 10
14068.80217064596
 20
969.8747482146441
 30
0.0
 11
14068.80217064596
 21
977.8747482146435
 31
0.0
1001
AUTOCAD_POSTSCRIPT_FIGURE
1002
{
1000
PSFILL
1000
Grayscale
1000
Grayscale
1070
   100
1002
}
  0
LINE
  5
1A9BA
330
1A72B
100
AcDbEntity
  8
YODOROGO
100
AcDbLine
 10
14049.45149343671
 20
969.8747482146441
 30
0.0
 11
14068.80217064596
 21
969.8747482146441
 31
0.0
1001
AUTOCAD_POSTSCRIPT_FIGURE
1002
{
1000
PSFILL
1000
Grayscale
1000
Grayscale
1070
   100
1002
}
  0
LINE
  5
1A9BB
330
1A72B
100
AcDbEntity
  8
YODOROGO
100
AcDbLine
 10
14068.80217064596
 20
873.8747482146434
 30
0.0
 11
14049.45149343671
 21
969.8747482146441
 31
0.0
1001
AUTOCAD_POSTSCRIPT_FIGURE
1002
{
1000
PSFILL
1000
Grayscale
1000
Grayscale
1070
   100
1002
}
  0
LINE
  5
1A9BC
330
1A72B
100
AcDbEntity
  8
YODOROGO
100
AcDbLine
 10
14064.80217064595
 20
873.8747482146434
 30
0.0
 11
14068.80217064596
 21
873.8747482146434
 31
0.0
1001
AUTOCAD_POSTSCRIPT_FIGURE
1002
{
1000
PSFILL
1000
Grayscale
1000
Grayscale
1070
   100
1002
}
  0
LINE
  5
1A9BD
330
1A72B
100
AcDbEntity
  8
YODOROGO
100
AcDbLine
 10
14039.03460996689
 20
887.8703881493972
 30
0.0
 11
13988.80217064596
 21
873.8747482146434
 31
0.0
  0
LINE
  5
1A9BE
330
1A72B
100
AcDbEntity
  8
YODOROGO
100
AcDbLine
 10
14039.03460996689
 20
899.3344897645364
 30
0.0
 11
14039.03460996689
 21
887.8703881493972
 31
0.0
  0
LINE
  5
1A9BF
330
1A72B
100
AcDbEntity
  8
YODOROGO
100
AcDbLine
 10
14016.91839030643
 20
893.4084665668834
 30
0.0
 11
14039.03460996689
 21
899.3344897645364
 31
0.0
  0
LINE
  5
1A9C0
330
1A72B
100
AcDbEntity
  8
YODOROGO
100
AcDbLine
 10
14016.91839030643
 20
936.2841744681499
 30
0.0
 11
14016.91839030643
 21
893.4084665668834
 31
0.0
  0
LINE
  5
1A9C1
330
1A72B
100
AcDbEntity
  8
YODOROGO
100
AcDbLine
 10
14039.03460996689
 20
936.2841744681499
 30
0.0
 11
14016.91839030643
 21
936.2841744681499
 31
0.0
  0
LINE
  5
1A9C2
330
1A72B
100
AcDbEntity
  8
YODOROGO
100
AcDbLine
 10
14039.03460996689
 20
946.2841744681487
 30
0.0
 11
14039.03460996689
 21
936.2841744681499
 31
0.0
  0
LINE
  5
1A9C3
330
1A72B
100
AcDbEntity
  8
YODOROGO
100
AcDbLine
 10
13988.80217064596
 20
946.2841744681487
 30
0.0
 11
14039.03460996689
 21
946.2841744681487
 31
0.0
  0
LINE
  5
1A9C4
330
1A72B
100
AcDbEntity
  8
YODOROGO
100
AcDbLine
 10
13988.80217064596
 20
936.2841744681499
 30
0.0
 11
13988.80217064596
 21
946.2841744681487
 31
0.0
  0
LINE
  5
1A9C5
330
1A72B
100
AcDbEntity
  8
YODOROGO
100
AcDbLine
 10
14010.91839030643
 20
936.2841744681499
 30
0.0
 11
13988.80217064596
 21
936.2841744681499
 31
0.0
  0
LINE
  5
1A9C6
330
1A72B
100
AcDbEntity
  8
YODOROGO
100
AcDbLine
 10
14010.91839030643
 20
892.3366697971587
 30
0.0
 11
14010.91839030643
 21
936.2841744681499
 31
0.0
  0
LINE
  5
1A9C7
330
1A72B
100
AcDbEntity
  8
YODOROGO
100
AcDbLine
 10
13988.80217064596
 20
885.8747482146432
 30
0.0
 11
14010.91839030643
 21
892.3366697971587
 31
0.0
  0
LINE
  5
1A9C8
330
1A72B
100
AcDbEntity
  8
YODOROGO
100
AcDbLine
 10
13988.80217064596
 20
873.8747482146434
 30
0.0
 11
13988.80217064596
 21
885.8747482146432
 31
0.0
  0
LINE
  5
1A9C9
330
1A72B
100
AcDbEntity
  8
YODOROGO
100
AcDbLine
 10
14000.80217064596
 20
853.874748214644
 30
0.0
 11
14000.80217064596
 21
841.8747482146434
 31
0.0
  0
LINE
  5
1A9CA
330
1A72B
100
AcDbEntity
  8
YODOROGO
100
AcDbLine
 10
14000.80217064596
 20
853.874748214644
 30
0.0
 11
14000.80217064596
 21
853.874748214644
 31
0.0
  0
LINE
  5
1A9CB
330
1A72B
100
AcDbEntity
  8
YODOROGO
100
AcDbLine
 10
14008.80217064596
 20
853.874748214644
 30
0.0
 11
14000.80217064596
 21
853.874748214644
 31
0.0
  0
LINE
  5
1A9CC
330
1A72B
100
AcDbEntity
  8
YODOROGO
100
AcDbLine
 10
14008.80217064596
 20
841.8747482146434
 30
0.0
 11
14008.80217064596
 21
853.874748214644
 31
0.0
  0
LINE
  5
1A9CD
330
1A72B
100
AcDbEntity
  8
YODOROGO
100
AcDbLine
 10
14020.45660200844
 20
841.8747482146434
 30
0.0
 11
14008.80217064596
 21
841.8747482146434
 31
0.0
  0
LINE
  5
1A9CE
330
1A72B
100
AcDbEntity
  8
YODOROGO
100
AcDbLine
 10
14000.80217064596
 20
841.8747482146434
 30
0.0
 11
13988.80217064596
 21
841.8747482146434
 31
0.0
  0
LINE
  5
1A9CF
330
1A72B
100
AcDbEntity
  8
YODOROGO
100
AcDbLine
 10
14041.06776011546
 20
853.874748214644
 30
0.0
 11
14049.06776011545
 21
853.874748214644
 31
0.0
1001
AUTOCAD_POSTSCRIPT_FIGURE
1002
{
1000
PSFILL
1000
Grayscale
1000
Grayscale
1070
   100
1002
}
  0
LINE
  5
1A9D0
330
1A72B
100
AcDbEntity
  8
YODOROGO
100
AcDbLine
 10
14200.80217064594
 20
912.4388128201532
 30
0.0
 11
14200.80217064594
 21
876.4388128201531
 31
0.0
1001
AUTOCAD_POSTSCRIPT_FIGURE
1002
{
1000
PSFILL
1000
Grayscale
1000
Grayscale
1070
   100
1002
}
  0
LINE
  5
1A9D1
330
1A72B
100
AcDbEntity
  8
YODOROGO
100
AcDbLine
 10
14200.80217064594
 20
958.4388128201537
 30
0.0
 11
14200.80217064594
 21
992.4388128201531
 31
0.0
1001
AUTOCAD_POSTSCRIPT_FIGURE
1002
{
1000
PSFILL
1000
Grayscale
1000
Grayscale
1070
   100
1002
}
  0
LINE
  5
1A9D2
330
1A72B
100
AcDbEntity
  8
YODOROGO
100
AcDbLine
 10
14216.80217064594
 20
909.8747482146439
 30
0.0
 11
14216.80217064594
 21
873.8747482146449
 31
0.0
  0
LINE
  5
1A9D3
330
1A72B
100
AcDbEntity
  8
YODOROGO
100
AcDbLine
 10
14248.80217064594
 20
853.874748214644
 30
0.0
 11
14216.80217064594
 21
853.874748214644
 31
0.0
  0
LINE
  5
1A9D4
330
1A72B
100
AcDbEntity
  8
YODOROGO
100
AcDbLine
 10
14216.80217064594
 20
873.8747482146449
 30
0.0
 11
14292.80217064596
 21
873.8747482146449
 31
0.0
  0
LINE
  5
1A9D5
330
1A72B
100
AcDbEntity
  8
YODOROGO
100
AcDbLine
 10
14248.80217064594
 20
933.8747482146439
 30
0.0
 11
14216.80217064594
 21
933.8747482146439
 31
0.0
  0
LINE
  5
1A9D6
330
1A72B
100
AcDbEntity
  8
YODOROGO
100
AcDbLine
 10
14248.80217064594
 20
961.8747482146432
 30
0.0
 11
14248.80217064594
 21
933.8747482146439
 31
0.0
  0
LINE
  5
1A9D7
330
1A72B
100
AcDbEntity
  8
YODOROGO
100
AcDbLine
 10
14292.80217064596
 20
993.8747482146439
 30
0.0
 11
14292.80217064596
 21
1013.874748214644
 31
0.0
  0
LINE
  5
1A9D8
330
1A72B
100
AcDbEntity
  8
YODOROGO
100
AcDbLine
 10
14216.80217064594
 20
993.8747482146439
 30
0.0
 11
14292.80217064596
 21
993.8747482146439
 31
0.0
  0
LINE
  5
1A9D9
330
1A72B
100
AcDbEntity
  8
YODOROGO
100
AcDbLine
 10
14216.80217064594
 20
933.8747482146439
 30
0.0
 11
14216.80217064594
 21
993.8747482146439
 31
0.0
  0
LINE
  5
1A9DA
330
1A72B
100
AcDbEntity
  8
YODOROGO
100
AcDbLine
 10
14500.80217064594
 20
1013.874748214644
 30
0.0
 11
14500.80217064594
 21
809.8747482146441
 31
0.0
  0
LINE
  5
1A9DB
330
1A72B
100
AcDbEntity
  8
YODOROGO
100
AcDbLine
 10
14536.80217064596
 20
789.8747482146441
 30
0.0
 11
14536.80217064596
 21
1013.874748214644
 31
0.0
  0
LINE
  5
1A9DC
330
1A72B
100
AcDbEntity
  8
YODOROGO
100
AcDbLine
 10
14630.80217064596
 20
745.8747482146431
 30
0.0
 11
14630.80217064596
 21
1003.874748214644
 31
0.0
  0
LINE
  5
1A9DD
330
1A72B
100
AcDbEntity
  8
YODOROGO
100
AcDbLine
 10
14598.80217064596
 20
1003.874748214644
 30
0.0
 11
14598.80217064596
 21
745.8747482146431
 31
0.0
  0
LINE
  5
1A9DE
330
1A72B
100
AcDbEntity
  8
YODOROGO
100
AcDbLine
 10
14692.80217064596
 20
1013.874748214644
 30
0.0
 11
14692.80217064596
 21
713.8747482146436
 31
0.0
  0
LINE
  5
1A9DF
330
1A72B
100
AcDbEntity
  8
YODOROGO
100
AcDbLine
 10
14728.80217064596
 20
713.8747482146436
 30
0.0
 11
14728.80217064596
 21
1013.874748214644
 31
0.0
  0
LINE
  5
1A9E0
330
1A72B
100
AcDbEntity
  8
YODOROGO
100
AcDbLine
 10
14328.80217064594
 20
833.8747482146439
 30
0.0
 11
14328.80217064594
 21
873.8747482146449
 31
0.0
  0
LINE
  5
1A9E1
330
1A72B
100
AcDbEntity
  8
YODOROGO
100
AcDbLine
 10
14942.80217064596
 20
853.874748214644
 30
0.0
 11
14942.80217064596
 21
833.8747482146439
 31
0.0
  0
LINE
  5
1A9E2
330
1A72B
100
AcDbEntity
  8
YODOROGO
100
AcDbLine
 10
14942.80217064596
 20
853.874748214644
 30
0.0
 11
14942.80217064596
 21
833.8747482146439
 31
0.0
  0
ARC
  5
1A9E3
330
1A72B
100
AcDbEntity
  8
YODOROGO
100
AcDbCircle
 10
14453.45578809342
 20
809.1089322211363
 30
0.0
 40
47.35257558937082
100
AcDbArc
 50
274.052441629071
 51
0.9266642149310712
  0
ARC
  5
1A9E4
330
1A72B
100
AcDbEntity
  8
YODOROGO
100
AcDbCircle
 10
14454.5930853599
 20
796.30536430522
 30
0.0
 40
82.46021178042756
100
AcDbArc
 50
271.5351210653777
 51
355.5272775058505
  0
LINE
  5
1A9E5
330
1A72B
100
AcDbEntity
  8
YODOROGO
100
AcDbLine
 10
14456.80217064596
 20
761.8747482146434
 30
0.0
 11
14456.80217064596
 21
713.8747482146436
 31
0.0
  0
LINE
  5
1A9E6
330
1A72B
100
AcDbEntity
  8
YODOROGO
100
AcDbLine
 10
14396.80217064594
 20
833.8747482146439
 30
0.0
 11
14328.80217064594
 21
833.8747482146439
 31
0.0
  0
LINE
  5
1A9E7
330
1A72B
100
AcDbEntity
  8
YODOROGO
100
AcDbLine
 10
14396.80217064594
 20
801.8747482146444
 30
0.0
 11
14396.80217064594
 21
833.8747482146439
 31
0.0
  0
LINE
  5
1A9E8
330
1A72B
100
AcDbEntity
  8
YODOROGO
100
AcDbLine
 10
14328.80217064594
 20
801.8747482146444
 30
0.0
 11
14396.80217064594
 21
801.8747482146444
 31
0.0
  0
LINE
  5
1A9E9
330
1A72B
100
AcDbEntity
  8
YODOROGO
100
AcDbLine
 10
14328.80217064594
 20
761.8747482146434
 30
0.0
 11
14328.80217064594
 21
801.8747482146444
 31
0.0
  0
LINE
  5
1A9EA
330
1A72B
100
AcDbEntity
  8
YODOROGO
100
AcDbLine
 10
14396.80217064594
 20
761.8747482146434
 30
0.0
 11
14328.80217064594
 21
761.8747482146434
 31
0.0
  0
LINE
  5
1A9EB
330
1A72B
100
AcDbEntity
  8
YODOROGO
100
AcDbLine
 10
14396.80217064594
 20
713.8747482146436
 30
0.0
 11
14396.80217064594
 21
761.8747482146434
 31
0.0
  0
LINE
  5
1A9EC
330
1A72B
100
AcDbEntity
  8
YODOROGO
100
AcDbLine
 10
14598.80217064596
 20
745.8747482146431
 30
0.0
 11
14630.80217064596
 21
745.8747482146431
 31
0.0
  0
LINE
  5
1A9ED
330
1A72B
100
AcDbEntity
  8
YODOROGO
100
AcDbLine
 10
14692.80217064596
 20
713.8747482146436
 30
0.0
 11
14728.80217064596
 21
713.8747482146436
 31
0.0
  0
LINE
  5
1A9EE
330
1A72B
100
AcDbEntity
  8
YODOROGO
100
AcDbLine
 10
14868.80217064596
 20
764.2207260852818
 30
0.0
 11
14868.80217064596
 21
713.8747482146436
 31
0.0
  0
LINE
  5
1A9EF
330
1A72B
100
AcDbEntity
  8
YODOROGO
100
AcDbLine
 10
14808.80217064596
 20
713.8747482146436
 30
0.0
 11
14868.80217064596
 21
764.2207260852818
 31
0.0
  0
LINE
  5
1A9F0
330
1A72B
100
AcDbEntity
  8
YODOROGO
100
AcDbLine
 10
14808.80217064596
 20
773.874748214644
 30
0.0
 11
14808.80217064596
 21
713.8747482146436
 31
0.0
  0
LINE
  5
1A9F1
330
1A72B
100
AcDbEntity
  8
YODOROGO
100
AcDbLine
 10
14856.47231434973
 20
813.8747482146435
 30
0.0
 11
14808.80217064596
 21
773.874748214644
 31
0.0
  0
LINE
  5
1A9F2
330
1A72B
100
AcDbEntity
  8
YODOROGO
100
AcDbLine
 10
14808.80217064596
 20
813.8747482146435
 30
0.0
 11
14856.47231434973
 21
813.8747482146435
 31
0.0
  0
LINE
  5
1A9F3
330
1A72B
100
AcDbEntity
  8
YODOROGO
100
AcDbLine
 10
14808.80217064596
 20
833.8747482146439
 30
0.0
 11
14808.80217064596
 21
813.8747482146435
 31
0.0
  0
LINE
  5
1A9F4
330
1A72B
100
AcDbEntity
  8
YODOROGO
100
AcDbLine
 10
14942.80217064596
 20
833.8747482146439
 30
0.0
 11
14808.80217064596
 21
833.8747482146439
 31
0.0
  0
LINE
  5
1A9F5
330
1A72B
100
AcDbEntity
  8
YODOROGO
100
AcDbLine
 10
14958.80217064596
 20
813.8747482146435
 30
0.0
 11
14888.80217064596
 21
813.8747482146435
 31
0.0
  0
LINE
  5
1A9F6
330
1A72B
100
AcDbEntity
  8
YODOROGO
100
AcDbLine
 10
14888.80217064596
 20
781.0027187088283
 30
0.0
 11
14885.70493649264
 21
778.403830673117
 31
0.0
  0
LINE
  5
1A9F7
330
1A72B
100
AcDbEntity
  8
YODOROGO
100
AcDbLine
 10
14888.80217064596
 20
813.8747482146435
 30
0.0
 11
14888.80217064596
 21
781.0027187088283
 31
0.0
  0
LINE
  5
1A9F8
330
1A72B
100
AcDbEntity
  8
YODOROGO
100
AcDbLine
 10
14868.80217064596
 20
764.2207260852818
 30
0.0
 11
14868.80217064596
 21
713.8747482146436
 31
0.0
  0
LINE
  5
1A9F9
330
1A72B
100
AcDbEntity
  8
YODOROGO
100
AcDbLine
 10
14808.80217064596
 20
713.8747482146436
 30
0.0
 11
14868.80217064596
 21
764.2207260852818
 31
0.0
  0
LINE
  5
1A9FA
330
1A72B
100
AcDbEntity
  8
YODOROGO
100
AcDbLine
 10
14808.80217064596
 20
773.874748214644
 30
0.0
 11
14808.80217064596
 21
713.8747482146436
 31
0.0
  0
LINE
  5
1A9FB
330
1A72B
100
AcDbEntity
  8
YODOROGO
100
AcDbLine
 10
14856.47231434973
 20
813.8747482146435
 30
0.0
 11
14808.80217064596
 21
773.874748214644
 31
0.0
  0
LINE
  5
1A9FC
330
1A72B
100
AcDbEntity
  8
YODOROGO
100
AcDbLine
 10
14808.80217064596
 20
813.8747482146435
 30
0.0
 11
14856.47231434973
 21
813.8747482146435
 31
0.0
  0
LINE
  5
1A9FD
330
1A72B
100
AcDbEntity
  8
YODOROGO
100
AcDbLine
 10
14808.80217064596
 20
833.8747482146439
 30
0.0
 11
14808.80217064596
 21
813.8747482146435
 31
0.0
  0
LINE
  5
1A9FE
330
1A72B
100
AcDbEntity
  8
YODOROGO
100
AcDbLine
 10
14942.80217064596
 20
833.8747482146439
 30
0.0
 11
14808.80217064596
 21
833.8747482146439
 31
0.0
  0
LINE
  5
1A9FF
330
1A72B
100
AcDbEntity
  8
YODOROGO
100
AcDbLine
 10
14396.80217064594
 20
873.8747482146449
 30
0.0
 11
14396.80217064594
 21
909.8747482146439
 31
0.0
  0
LINE
  5
1AA00
330
1A72B
100
AcDbEntity
  8
YODOROGO
100
AcDbLine
 10
14328.80217064594
 20
873.8747482146449
 30
0.0
 11
14396.80217064594
 21
873.8747482146449
 31
0.0
  0
LINE
  5
1AA01
330
1A72B
100
AcDbEntity
  8
YODOROGO
100
AcDbLine
 10
14364.80217064596
 20
933.8747482146439
 30
0.0
 11
14364.80217064596
 21
961.8747482146432
 31
0.0
  0
LINE
  5
1AA02
330
1A72B
100
AcDbEntity
  8
YODOROGO
100
AcDbLine
 10
14396.80217064594
 20
933.8747482146439
 30
0.0
 11
14364.80217064596
 21
933.8747482146439
 31
0.0
  0
LINE
  5
1AA03
330
1A72B
100
AcDbEntity
  8
YODOROGO
100
AcDbLine
 10
14396.80217064594
 20
973.8747482146434
 30
0.0
 11
14396.80217064594
 21
933.8747482146439
 31
0.0
  0
ARC
  5
1AA04
330
1A72B
100
AcDbEntity
  8
YODOROGO
100
AcDbCircle
 10
14376.80217064594
 20
973.8747482146434
 30
0.0
 40
20.0
100
AcDbArc
 50
0.0
 51
90.0
  0
LINE
  5
1AA05
330
1A72B
100
AcDbEntity
  8
YODOROGO
100
AcDbLine
 10
14328.80217064596
 20
993.8747482146439
 30
0.0
 11
14376.80217064594
 21
993.8747482146439
 31
0.0
  0
LINE
  5
1AA06
330
1A72B
100
AcDbEntity
  8
YODOROGO
100
AcDbLine
 10
14328.80217064596
 20
1013.874748214644
 30
0.0
 11
14328.80217064596
 21
993.8747482146439
 31
0.0
  0
LINE
  5
1AA07
330
1A72B
100
AcDbEntity
  8
YODOROGO
100
AcDbLine
 10
14536.80217064596
 20
1013.874748214644
 30
0.0
 11
14500.80217064594
 21
1013.874748214644
 31
0.0
  0
LINE
  5
1AA08
330
1A72B
100
AcDbEntity
  8
YODOROGO
100
AcDbLine
 10
14630.80217064596
 20
1003.874748214644
 30
0.0
 11
14598.80217064596
 21
1003.874748214644
 31
0.0
  0
LINE
  5
1AA09
330
1A72B
100
AcDbEntity
  8
YODOROGO
100
AcDbLine
 10
14728.80217064596
 20
1013.874748214644
 30
0.0
 11
14692.80217064596
 21
1013.874748214644
 31
0.0
  0
LINE
  5
1AA0A
330
1A72B
100
AcDbEntity
  8
YODOROGO
100
AcDbLine
 10
14836.80217064596
 20
853.874748214644
 30
0.0
 11
14836.80217064596
 21
885.8747482146441
 31
0.0
1001
AUTOCAD_POSTSCRIPT_FIGURE
1002
{
1000
PSFILL
1000
Grayscale
1000
Grayscale
1070
    25
1002
}
  0
LINE
  5
1AA0B
330
1A72B
100
AcDbEntity
  8
YODOROGO
100
AcDbLine
 10
14808.80217064596
 20
853.874748214644
 30
0.0
 11
14836.80217064596
 21
853.874748214644
 31
0.0
1001
AUTOCAD_POSTSCRIPT_FIGURE
1002
{
1000
PSFILL
1000
Grayscale
1000
Grayscale
1070
    25
1002
}
  0
LINE
  5
1AA0C
330
1A72B
100
AcDbEntity
  8
YODOROGO
100
AcDbLine
 10
14808.80217064596
 20
909.8747482146439
 30
0.0
 11
14808.80217064596
 21
853.874748214644
 31
0.0
1001
AUTOCAD_POSTSCRIPT_FIGURE
1002
{
1000
PSFILL
1000
Grayscale
1000
Grayscale
1070
    25
1002
}
  0
LINE
  5
1AA0D
330
1A72B
100
AcDbEntity
  8
YODOROGO
100
AcDbLine
 10
14882.80217064596
 20
909.8747482146439
 30
0.0
 11
14808.80217064596
 21
909.8747482146439
 31
0.0
1001
AUTOCAD_POSTSCRIPT_FIGURE
1002
{
1000
PSFILL
1000
Grayscale
1000
Grayscale
1070
    25
1002
}
  0
LINE
  5
1AA0E
330
1A72B
100
AcDbEntity
  8
YODOROGO
100
AcDbLine
 10
14882.80217064596
 20
929.874748214644
 30
0.0
 11
14882.80217064596
 21
909.8747482146439
 31
0.0
1001
AUTOCAD_POSTSCRIPT_FIGURE
1002
{
1000
PSFILL
1000
Grayscale
1000
Grayscale
1070
    25
1002
}
  0
LINE
  5
1AA0F
330
1A72B
100
AcDbEntity
  8
YODOROGO
100
AcDbLine
 10
14808.80217064596
 20
929.874748214644
 30
0.0
 11
14882.80217064596
 21
929.874748214644
 31
0.0
1001
AUTOCAD_POSTSCRIPT_FIGURE
1002
{
1000
PSFILL
1000
Grayscale
1000
Grayscale
1070
    25
1002
}
  0
LINE
  5
1AA10
330
1A72B
100
AcDbEntity
  8
YODOROGO
100
AcDbLine
 10
14808.80217064596
 20
953.874748214644
 30
0.0
 11
14808.80217064596
 21
929.874748214644
 31
0.0
1001
AUTOCAD_POSTSCRIPT_FIGURE
1002
{
1000
PSFILL
1000
Grayscale
1000
Grayscale
1070
    25
1002
}
  0
LINE
  5
1AA11
330
1A72B
100
AcDbEntity
  8
YODOROGO
100
AcDbLine
 10
14882.80217064596
 20
953.874748214644
 30
0.0
 11
14808.80217064596
 21
953.874748214644
 31
0.0
1001
AUTOCAD_POSTSCRIPT_FIGURE
1002
{
1000
PSFILL
1000
Grayscale
1000
Grayscale
1070
    25
1002
}
  0
LINE
  5
1AA12
330
1A72B
100
AcDbEntity
  8
YODOROGO
100
AcDbLine
 10
14882.80217064596
 20
973.8747482146434
 30
0.0
 11
14882.80217064596
 21
953.874748214644
 31
0.0
1001
AUTOCAD_POSTSCRIPT_FIGURE
1002
{
1000
PSFILL
1000
Grayscale
1000
Grayscale
1070
    25
1002
}
  0
LINE
  5
1AA13
330
1A72B
100
AcDbEntity
  8
YODOROGO
100
AcDbLine
 10
14808.80217064596
 20
973.8747482146434
 30
0.0
 11
14882.80217064596
 21
973.8747482146434
 31
0.0
1001
AUTOCAD_POSTSCRIPT_FIGURE
1002
{
1000
PSFILL
1000
Grayscale
1000
Grayscale
1070
    25
1002
}
  0
LINE
  5
1AA14
330
1A72B
100
AcDbEntity
  8
YODOROGO
100
AcDbLine
 10
14808.80217064596
 20
1013.874748214644
 30
0.0
 11
14808.80217064596
 21
973.8747482146434
 31
0.0
1001
AUTOCAD_POSTSCRIPT_FIGURE
1002
{
1000
PSFILL
1000
Grayscale
1000
Grayscale
1070
    25
1002
}
  0
LINE
  5
1AA15
330
1A72B
100
AcDbEntity
  8
YODOROGO
100
AcDbLine
 10
14832.80217064596
 20
1013.874748214644
 30
0.0
 11
14808.80217064596
 21
1013.874748214644
 31
0.0
1001
AUTOCAD_POSTSCRIPT_FIGURE
1002
{
1000
PSFILL
1000
Grayscale
1000
Grayscale
1070
    25
1002
}
  0
LINE
  5
1AA16
330
1A72B
100
AcDbEntity
  8
YODOROGO
100
AcDbLine
 10
14832.80217064596
 20
997.8747482146435
 30
0.0
 11
14832.80217064596
 21
1013.874748214644
 31
0.0
1001
AUTOCAD_POSTSCRIPT_FIGURE
1002
{
1000
PSFILL
1000
Grayscale
1000
Grayscale
1070
    25
1002
}
  0
LINE
  5
1AA17
330
1A72B
100
AcDbEntity
  8
YODOROGO
100
AcDbLine
 10
14882.80217064596
 20
997.8747482146435
 30
0.0
 11
14832.80217064596
 21
997.8747482146435
 31
0.0
1001
AUTOCAD_POSTSCRIPT_FIGURE
1002
{
1000
PSFILL
1000
Grayscale
1000
Grayscale
1070
    25
1002
}
  0
LINE
  5
1AA18
330
1A72B
100
AcDbEntity
  8
YODOROGO
100
AcDbLine
 10
14882.80217064596
 20
1013.874748214644
 30
0.0
 11
14882.80217064596
 21
997.8747482146435
 31
0.0
1001
AUTOCAD_POSTSCRIPT_FIGURE
1002
{
1000
PSFILL
1000
Grayscale
1000
Grayscale
1070
    25
1002
}
  0
LINE
  5
1AA19
330
1A72B
100
AcDbEntity
  8
YODOROGO
100
AcDbLine
 10
14914.80217064596
 20
1013.874748214644
 30
0.0
 11
14882.80217064596
 21
1013.874748214644
 31
0.0
1001
AUTOCAD_POSTSCRIPT_FIGURE
1002
{
1000
PSFILL
1000
Grayscale
1000
Grayscale
1070
    25
1002
}
  0
LINE
  5
1AA1A
330
1A72B
100
AcDbEntity
  8
YODOROGO
100
AcDbLine
 10
14914.80217064596
 20
997.8747482146435
 30
0.0
 11
14914.80217064596
 21
1013.874748214644
 31
0.0
1001
AUTOCAD_POSTSCRIPT_FIGURE
1002
{
1000
PSFILL
1000
Grayscale
1000
Grayscale
1070
    25
1002
}
  0
LINE
  5
1AA1B
330
1A72B
100
AcDbEntity
  8
YODOROGO
100
AcDbLine
 10
14914.80217064596
 20
953.874748214644
 30
0.0
 11
14914.80217064596
 21
973.8747482146434
 31
0.0
1001
AUTOCAD_POSTSCRIPT_FIGURE
1002
{
1000
PSFILL
1000
Grayscale
1000
Grayscale
1070
    25
1002
}
  0
LINE
  5
1AA1C
330
1A72B
100
AcDbEntity
  8
YODOROGO
100
AcDbLine
 10
14914.80217064596
 20
909.8747482146439
 30
0.0
 11
14914.80217064596
 21
929.874748214644
 31
0.0
1001
AUTOCAD_POSTSCRIPT_FIGURE
1002
{
1000
PSFILL
1000
Grayscale
1000
Grayscale
1070
    25
1002
}
  0
LINE
  5
1AA1D
330
1A72B
100
AcDbEntity
  8
YODOROGO
100
AcDbLine
 10
14960.80217064594
 20
885.8747482146441
 30
0.0
 11
14960.80217064594
 21
853.874748214644
 31
0.0
1001
AUTOCAD_POSTSCRIPT_FIGURE
1002
{
1000
PSFILL
1000
Grayscale
1000
Grayscale
1070
    25
1002
}
  0
LINE
  5
1AA1E
330
1A72B
100
AcDbEntity
  8
YODOROGO
100
AcDbLine
 10
14914.80217064596
 20
885.8747482146441
 30
0.0
 11
14960.80217064594
 21
885.8747482146441
 31
0.0
1001
AUTOCAD_POSTSCRIPT_FIGURE
1002
{
1000
PSFILL
1000
Grayscale
1000
Grayscale
1070
    25
1002
}
  0
LINE
  5
1AA1F
330
1A72B
100
AcDbEntity
  8
YODOROGO
100
AcDbLine
 10
14914.80217064596
 20
853.874748214644
 30
0.0
 11
14914.80217064596
 21
885.8747482146441
 31
0.0
1001
AUTOCAD_POSTSCRIPT_FIGURE
1002
{
1000
PSFILL
1000
Grayscale
1000
Grayscale
1070
    25
1002
}
  0
LINE
  5
1AA20
330
1A72B
100
AcDbEntity
  8
YODOROGO
100
AcDbLine
 10
14882.80217064596
 20
853.874748214644
 30
0.0
 11
14914.80217064596
 21
853.874748214644
 31
0.0
1001
AUTOCAD_POSTSCRIPT_FIGURE
1002
{
1000
PSFILL
1000
Grayscale
1000
Grayscale
1070
    25
1002
}
  0
LINE
  5
1AA21
330
1A72B
100
AcDbEntity
  8
YODOROGO
100
AcDbLine
 10
14882.80217064596
 20
885.8747482146441
 30
0.0
 11
14882.80217064596
 21
853.874748214644
 31
0.0
1001
AUTOCAD_POSTSCRIPT_FIGURE
1002
{
1000
PSFILL
1000
Grayscale
1000
Grayscale
1070
    25
1002
}
  0
LINE
  5
1AA22
330
1A72B
100
AcDbEntity
  8
YODOROGO
100
AcDbLine
 10
14836.80217064596
 20
885.8747482146441
 30
0.0
 11
14882.80217064596
 21
885.8747482146441
 31
0.0
1001
AUTOCAD_POSTSCRIPT_FIGURE
1002
{
1000
PSFILL
1000
Grayscale
1000
Grayscale
1070
    25
1002
}
  0
ARC
  5
1AA23
330
1A72B
100
AcDbEntity
  8
YODOROGO
100
AcDbCircle
 10
15529.75894667896
 20
801.3403687577881
 30
0.0
 40
89.11064055536078
100
AcDbArc
 50
281.0262749542535
 51
357.771135755738
  0
LINE
  5
1AA24
330
1A72B
100
AcDbEntity
  8
YODOROGO
100
AcDbLine
 10
15706.80217064596
 20
953.874748214644
 30
0.0
 11
15582.80217064596
 21
953.874748214644
 31
0.0
  0
LINE
  5
1AA25
330
1A72B
100
AcDbEntity
  8
YODOROGO
100
AcDbLine
 10
15706.80217064596
 20
1013.874748214644
 30
0.0
 11
15582.80217064596
 21
1013.874748214644
 31
0.0
  0
LINE
  5
1AA26
330
1A72B
100
AcDbEntity
  8
YODOROGO
100
AcDbLine
 10
15582.80217064596
 20
981.8747482146434
 30
0.0
 11
15706.80217064596
 21
981.8747482146434
 31
0.0
  0
LINE
  5
1AA27
330
1A72B
100
AcDbEntity
  8
YODOROGO
100
AcDbLine
 10
15395.80217064596
 20
781.8747482146434
 30
0.0
 11
15395.80217064596
 21
877.8747482146435
 31
0.0
  0
LINE
  5
1AA28
330
1A72B
100
AcDbEntity
  8
YODOROGO
100
AcDbLine
 10
15381.80217064596
 20
845.8747482146444
 30
0.0
 11
15381.80217064596
 21
781.8747482146434
 31
0.0
  0
LINE
  5
1AA29
330
1A72B
100
AcDbEntity
  8
YODOROGO
100
AcDbLine
 10
15361.80217064596
 20
745.8747482146443
 30
0.0
 11
15361.80217064596
 21
845.8747482146444
 31
0.0
  0
LINE
  5
1AA2A
330
1A72B
100
AcDbEntity
  8
YODOROGO
100
AcDbLine
 10
15449.80217064596
 20
845.8747482146444
 30
0.0
 11
15449.80217064596
 21
745.8747482146443
 31
0.0
  0
LINE
  5
1AA2B
330
1A72B
100
AcDbEntity
  8
YODOROGO
100
AcDbLine
 10
15429.80217064596
 20
781.8747482146434
 30
0.0
 11
15429.80217064596
 21
845.8747482146444
 31
0.0
  0
LINE
  5
1AA2C
330
1A72B
100
AcDbEntity
  8
YODOROGO
100
AcDbLine
 10
15415.80217064596
 20
877.8747482146435
 30
0.0
 11
15415.80217064596
 21
781.8747482146434
 31
0.0
  0
LINE
  5
1AA2D
330
1A72B
100
AcDbEntity
  8
YODOROGO
100
AcDbLine
 10
15486.80217064596
 20
1013.874748214644
 30
0.0
 11
15486.80217064596
 21
733.8747482146435
 31
0.0
  0
LINE
  5
1AA2E
330
1A72B
100
AcDbEntity
  8
YODOROGO
100
AcDbLine
 10
15322.80217064596
 20
713.8747482146436
 30
0.0
 11
15322.80217064596
 21
1013.874748214644
 31
0.0
  0
LINE
  5
1AA2F
330
1A72B
100
AcDbEntity
  8
YODOROGO
100
AcDbLine
 10
15348.80217064596
 20
981.8747482146434
 30
0.0
 11
15348.80217064596
 21
713.8747482146436
 31
0.0
  0
LINE
  5
1AA30
330
1A72B
100
AcDbEntity
  8
YODOROGO
100
AcDbLine
 10
15462.80217064596
 20
773.874748214644
 30
0.0
 11
15462.80217064596
 21
981.8747482146434
 31
0.0
  0
LINE
  5
1AA31
330
1A72B
100
AcDbEntity
  8
YODOROGO
100
AcDbLine
 10
15190.80217064596
 20
813.8747482146435
 30
0.0
 11
15190.80217064596
 21
839.8747482146442
 31
0.0
  0
LINE
  5
1AA32
330
1A72B
100
AcDbEntity
  8
YODOROGO
100
AcDbLine
 10
15308.80217064596
 20
839.8747482146442
 30
0.0
 11
15308.80217064596
 21
813.8747482146435
 31
0.0
  0
LINE
  5
1AA33
330
1A72B
100
AcDbEntity
  8
YODOROGO
100
AcDbLine
 10
15582.80217064596
 20
953.874748214644
 30
0.0
 11
15582.80217064596
 21
817.8747482146436
 31
0.0
  0
LINE
  5
1AA34
330
1A72B
100
AcDbEntity
  8
YODOROGO
100
AcDbLine
 10
14974.80217064595
 20
833.8747482146439
 30
0.0
 11
14974.80217064595
 21
853.874748214644
 31
0.0
  0
LINE
  5
1AA35
330
1A72B
100
AcDbEntity
  8
YODOROGO
100
AcDbLine
 10
14974.80217064595
 20
833.8747482146439
 30
0.0
 11
14974.80217064595
 21
853.874748214644
 31
0.0
  0
ARC
  5
1AA36
330
1A72B
100
AcDbEntity
  8
YODOROGO
100
AcDbCircle
 10
15268.80217064596
 20
753.8747482146439
 30
0.0
 40
40.0
100
AcDbArc
 50
270.0
 51
0.0
  0
LINE
  5
1AA37
330
1A72B
100
AcDbEntity
  8
YODOROGO
100
AcDbLine
 10
15284.80217064596
 20
799.8747482146441
 30
0.0
 11
15308.80217064596
 21
799.8747482146441
 31
0.0
  0
LINE
  5
1AA38
330
1A72B
100
AcDbEntity
  8
YODOROGO
100
AcDbLine
 10
15308.80217064596
 20
813.8747482146435
 30
0.0
 11
15264.80217064596
 21
813.8747482146435
 31
0.0
  0
LINE
  5
1AA39
330
1A72B
100
AcDbEntity
  8
YODOROGO
100
AcDbLine
 10
15108.80217064596
 20
833.8747482146439
 30
0.0
 11
14974.80217064595
 21
833.8747482146439
 31
0.0
  0
LINE
  5
1AA3A
330
1A72B
100
AcDbEntity
  8
YODOROGO
100
AcDbLine
 10
15108.80217064596
 20
813.8747482146435
 30
0.0
 11
15108.80217064596
 21
833.8747482146439
 31
0.0
  0
LINE
  5
1AA3B
330
1A72B
100
AcDbEntity
  8
YODOROGO
100
AcDbLine
 10
15008.80217064596
 20
813.8747482146435
 30
0.0
 11
15108.80217064596
 21
813.8747482146435
 31
0.0
  0
ARC
  5
1AA3C
330
1A72B
100
AcDbEntity
  8
YODOROGO
100
AcDbCircle
 10
15115.02941435068
 20
934.4428574764513
 30
0.0
 40
160.6888181426141
100
AcDbArc
 50
228.6181454618993
 51
245.660289248906
  0
LINE
  5
1AA3D
330
1A72B
100
AcDbEntity
  8
YODOROGO
100
AcDbLine
 10
15052.80217064596
 20
801.8747482146444
 30
0.0
 11
15048.80217064598
 21
788.0364079349501
 31
0.0
  0
LINE
  5
1AA3E
330
1A72B
100
AcDbEntity
  8
YODOROGO
100
AcDbLine
 10
15094.80217064596
 20
801.8747482146444
 30
0.0
 11
15052.80217064596
 21
801.8747482146444
 31
0.0
  0
LINE
  5
1AA3F
330
1A72B
100
AcDbEntity
  8
YODOROGO
100
AcDbLine
 10
15088.80217064596
 20
775.9088612367134
 30
0.0
 11
15094.80217064596
 21
801.8747482146444
 31
0.0
  0
ARC
  5
1AA40
330
1A72B
100
AcDbEntity
  8
YODOROGO
100
AcDbCircle
 10
15115.02941435023
 20
934.4428574765014
 30
0.0
 40
160.6888181426453
100
AcDbArc
 50
260.6062929796992
 51
267.7790355655586
  0
LINE
  5
1AA41
330
1A72B
100
AcDbEntity
  8
YODOROGO
100
AcDbLine
 10
15108.80217064596
 20
713.8747482146428
 30
0.0
 11
15108.80217064596
 21
773.874748214644
 31
0.0
  0
LINE
  5
1AA42
330
1A72B
100
AcDbEntity
  8
YODOROGO
100
AcDbLine
 10
14968.80217064596
 20
740.6696674577553
 30
0.0
 11
14968.80217064596
 21
797.2655452655705
 31
0.0
  0
LINE
  5
1AA43
330
1A72B
100
AcDbEntity
  8
YODOROGO
100
AcDbLine
 10
15108.80217064596
 20
833.8747482146439
 30
0.0
 11
14974.80217064595
 21
833.8747482146439
 31
0.0
  0
LINE
  5
1AA44
330
1A72B
100
AcDbEntity
  8
YODOROGO
100
AcDbLine
 10
15108.80217064596
 20
813.8747482146435
 30
0.0
 11
15108.80217064596
 21
833.8747482146439
 31
0.0
  0
LINE
  5
1AA45
330
1A72B
100
AcDbEntity
  8
YODOROGO
100
AcDbLine
 10
15008.80217064596
 20
813.8747482146435
 30
0.0
 11
15108.80217064596
 21
813.8747482146435
 31
0.0
  0
ARC
  5
1AA46
330
1A72B
100
AcDbEntity
  8
YODOROGO
100
AcDbCircle
 10
15115.02941435068
 20
934.4428574764513
 30
0.0
 40
160.6888181426141
100
AcDbArc
 50
228.6181454618993
 51
245.660289248906
  0
LINE
  5
1AA47
330
1A72B
100
AcDbEntity
  8
YODOROGO
100
AcDbLine
 10
15052.80217064596
 20
801.8747482146444
 30
0.0
 11
15048.80217064598
 21
788.0364079349501
 31
0.0
  0
LINE
  5
1AA48
330
1A72B
100
AcDbEntity
  8
YODOROGO
100
AcDbLine
 10
15094.80217064596
 20
801.8747482146444
 30
0.0
 11
15052.80217064596
 21
801.8747482146444
 31
0.0
  0
LINE
  5
1AA49
330
1A72B
100
AcDbEntity
  8
YODOROGO
100
AcDbLine
 10
15088.80217064596
 20
775.9088612367134
 30
0.0
 11
15094.80217064596
 21
801.8747482146444
 31
0.0
  0
ARC
  5
1AA4A
330
1A72B
100
AcDbEntity
  8
YODOROGO
100
AcDbCircle
 10
15115.02941435023
 20
934.4428574765014
 30
0.0
 40
160.6888181426453
100
AcDbArc
 50
260.6062929796992
 51
267.7790355655586
  0
LINE
  5
1AA4B
330
1A72B
100
AcDbEntity
  8
YODOROGO
100
AcDbLine
 10
15108.80217064596
 20
713.8747482146428
 30
0.0
 11
15108.80217064596
 21
773.874748214644
 31
0.0
  0
LINE
  5
1AA4C
330
1A72B
100
AcDbEntity
  8
YODOROGO
100
AcDbLine
 10
14968.80217064596
 20
740.6696674577553
 30
0.0
 11
14968.80217064596
 21
797.2655452655705
 31
0.0
  0
LINE
  5
1AA4D
330
1A72B
100
AcDbEntity
  8
YODOROGO
100
AcDbLine
 10
15216.80217064596
 20
786.8747482146444
 30
0.0
 11
15190.80217064596
 21
786.8747482146444
 31
0.0
  0
LINE
  5
1AA4E
330
1A72B
100
AcDbEntity
  8
YODOROGO
100
AcDbLine
 10
15216.80217064596
 20
800.8747482146432
 30
0.0
 11
15216.80217064596
 21
786.8747482146444
 31
0.0
  0
LINE
  5
1AA4F
330
1A72B
100
AcDbEntity
  8
YODOROGO
100
AcDbLine
 10
15190.80217064596
 20
800.8747482146432
 30
0.0
 11
15216.80217064596
 21
800.8747482146432
 31
0.0
  0
LINE
  5
1AA50
330
1A72B
100
AcDbEntity
  8
YODOROGO
100
AcDbLine
 10
15190.80217064596
 20
786.8747482146444
 30
0.0
 11
15190.80217064596
 21
800.8747482146432
 31
0.0
  0
LINE
  5
1AA51
330
1A72B
100
AcDbEntity
  8
YODOROGO
100
AcDbLine
 10
15214.80217064596
 20
788.8747482146436
 30
0.0
 11
15192.80217064595
 21
788.8747482146436
 31
0.0
  0
LINE
  5
1AA52
330
1A72B
100
AcDbEntity
  8
YODOROGO
100
AcDbLine
 10
15214.80217064596
 20
798.874748214644
 30
0.0
 11
15214.80217064596
 21
788.8747482146436
 31
0.0
  0
LINE
  5
1AA53
330
1A72B
100
AcDbEntity
  8
YODOROGO
100
AcDbLine
 10
15192.80217064595
 20
798.874748214644
 30
0.0
 11
15214.80217064596
 21
798.874748214644
 31
0.0
  0
LINE
  5
1AA54
330
1A72B
100
AcDbEntity
  8
YODOROGO
100
AcDbLine
 10
15192.80217064595
 20
788.8747482146436
 30
0.0
 11
15192.80217064595
 21
798.874748214644
 31
0.0
  0
LINE
  5
1AA55
330
1A72B
100
AcDbEntity
  8
YODOROGO
100
AcDbLine
 10
15212.80217064596
 20
790.8747482146432
 30
0.0
 11
15194.80217064596
 21
790.8747482146432
 31
0.0
  0
LINE
  5
1AA56
330
1A72B
100
AcDbEntity
  8
YODOROGO
100
AcDbLine
 10
15212.80217064596
 20
796.8747482146445
 30
0.0
 11
15212.80217064596
 21
790.8747482146432
 31
0.0
  0
LINE
  5
1AA57
330
1A72B
100
AcDbEntity
  8
YODOROGO
100
AcDbLine
 10
15194.80217064596
 20
796.8747482146445
 30
0.0
 11
15212.80217064596
 21
796.8747482146445
 31
0.0
  0
LINE
  5
1AA58
330
1A72B
100
AcDbEntity
  8
YODOROGO
100
AcDbLine
 10
15194.80217064596
 20
790.8747482146432
 30
0.0
 11
15194.80217064596
 21
796.8747482146445
 31
0.0
  0
LINE
  5
1AA59
330
1A72B
100
AcDbEntity
  8
YODOROGO
100
AcDbLine
 10
15210.80217064596
 20
792.8747482146435
 30
0.0
 11
15196.80217064596
 21
792.8747482146435
 31
0.0
  0
LINE
  5
1AA5A
330
1A72B
100
AcDbEntity
  8
YODOROGO
100
AcDbLine
 10
15210.80217064596
 20
794.8747482146441
 30
0.0
 11
15210.80217064596
 21
792.8747482146435
 31
0.0
  0
LINE
  5
1AA5B
330
1A72B
100
AcDbEntity
  8
YODOROGO
100
AcDbLine
 10
15196.80217064596
 20
794.8747482146441
 30
0.0
 11
15210.80217064596
 21
794.8747482146441
 31
0.0
  0
LINE
  5
1AA5C
330
1A72B
100
AcDbEntity
  8
YODOROGO
100
AcDbLine
 10
15196.80217064596
 20
792.8747482146435
 30
0.0
 11
15196.80217064596
 21
794.8747482146441
 31
0.0
  0
LINE
  5
1AA5D
330
1A72B
100
AcDbEntity
  8
YODOROGO
100
AcDbLine
 10
15232.80217064596
 20
813.8747482146435
 30
0.0
 11
15190.80217064596
 21
813.8747482146435
 31
0.0
  0
LINE
  5
1AA5E
330
1A72B
100
AcDbEntity
  8
YODOROGO
100
AcDbLine
 10
15232.80217064596
 20
773.874748214644
 30
0.0
 11
15232.80217064596
 21
813.8747482146435
 31
0.0
  0
LINE
  5
1AA5F
330
1A72B
100
AcDbEntity
  8
YODOROGO
100
AcDbLine
 10
15190.80217064596
 20
773.874748214644
 30
0.0
 11
15232.80217064596
 21
773.874748214644
 31
0.0
  0
LINE
  5
1AA60
330
1A72B
100
AcDbEntity
  8
YODOROGO
100
AcDbLine
 10
15190.80217064596
 20
713.8747482146436
 30
0.0
 11
15190.80217064596
 21
773.874748214644
 31
0.0
  0
LINE
  5
1AA61
330
1A72B
100
AcDbEntity
  8
YODOROGO
100
AcDbLine
 10
15268.80217064596
 20
713.8747482146436
 30
0.0
 11
15190.80217064596
 21
713.8747482146436
 31
0.0
  0
LINE
  5
1AA62
330
1A72B
100
AcDbEntity
  8
YODOROGO
100
AcDbLine
 10
15284.80217064596
 20
785.8747482146432
 30
0.0
 11
15284.80217064596
 21
799.8747482146441
 31
0.0
  0
ARC
  5
1AA63
330
1A72B
100
AcDbEntity
  8
YODOROGO
100
AcDbCircle
 10
15272.80217064594
 20
785.8747482146457
 30
0.0
 40
12.00000000000187
100
AcDbArc
 50
270.0
 51
359.9999999999877
  0
LINE
  5
1AA64
330
1A72B
100
AcDbEntity
  8
YODOROGO
100
AcDbLine
 10
15264.80217064596
 20
773.874748214644
 30
0.0
 11
15272.80217064594
 21
773.874748214644
 31
0.0
  0
LINE
  5
1AA65
330
1A72B
100
AcDbEntity
  8
YODOROGO
100
AcDbLine
 10
15264.80217064596
 20
813.8747482146435
 30
0.0
 11
15264.80217064596
 21
773.874748214644
 31
0.0
  0
LINE
  5
1AA66
330
1A72B
100
AcDbEntity
  8
YODOROGO
100
AcDbLine
 10
15449.80217064596
 20
773.874748214644
 30
0.0
 11
15462.80217064596
 21
773.874748214644
 31
0.0
  0
LINE
  5
1AA67
330
1A72B
100
AcDbEntity
  8
YODOROGO
100
AcDbLine
 10
15466.80217064596
 20
713.8747482146436
 30
0.0
 11
15449.80217064596
 21
713.8747482146436
 31
0.0
  0
LINE
  5
1AA68
330
1A72B
100
AcDbEntity
  8
YODOROGO
100
AcDbLine
 10
15381.80217064596
 20
781.8747482146434
 30
0.0
 11
15395.80217064596
 21
781.8747482146434
 31
0.0
  0
LINE
  5
1AA69
330
1A72B
100
AcDbEntity
  8
YODOROGO
100
AcDbLine
 10
15449.80217064596
 20
745.8747482146443
 30
0.0
 11
15361.80217064596
 21
745.8747482146443
 31
0.0
  0
LINE
  5
1AA6A
330
1A72B
100
AcDbEntity
  8
YODOROGO
100
AcDbLine
 10
15415.80217064596
 20
781.8747482146434
 30
0.0
 11
15429.80217064596
 21
781.8747482146434
 31
0.0
  0
LINE
  5
1AA6B
330
1A72B
100
AcDbEntity
  8
YODOROGO
100
AcDbLine
 10
15449.80217064596
 20
713.8747482146436
 30
0.0
 11
15449.80217064596
 21
773.874748214644
 31
0.0
  0
LINE
  5
1AA6C
330
1A72B
100
AcDbEntity
  8
YODOROGO
100
AcDbLine
 10
15348.80217064596
 20
713.8747482146436
 30
0.0
 11
15322.80217064596
 21
713.8747482146436
 31
0.0
  0
LINE
  5
1AA6D
330
1A72B
100
AcDbEntity
  8
YODOROGO
100
AcDbLine
 10
15308.80217064596
 20
799.8747482146441
 30
0.0
 11
15308.80217064596
 21
753.8747482146439
 31
0.0
  0
ARC
  5
1AA6E
330
1A72B
100
AcDbEntity
  8
YODOROGO
100
AcDbCircle
 10
15466.80217064596
 20
733.8747482146435
 30
0.0
 40
20.0
100
AcDbArc
 50
270.0
 51
0.0
  0
LINE
  5
1AA6F
330
1A72B
100
AcDbEntity
  8
YODOROGO
100
AcDbLine
 10
15546.80217064596
 20
761.8747482146434
 30
0.0
 11
15546.80217064596
 21
713.8747482146436
 31
0.0
  0
ARC
  5
1AA70
330
1A72B
100
AcDbEntity
  8
YODOROGO
100
AcDbCircle
 10
15519.86069778339
 20
818.7656950548664
 30
0.0
 40
62.94777829583771
100
AcDbArc
 50
295.3405244216011
 51
359.1890230341867
  0
LINE
  5
1AA71
330
1A72B
100
AcDbEntity
  8
YODOROGO
100
AcDbLine
 10
15308.80217064596
 20
929.874748214644
 30
0.0
 11
15248.80217064596
 21
969.8747482146441
 31
0.0
  0
LINE
  5
1AA72
330
1A72B
100
AcDbEntity
  8
YODOROGO
100
AcDbLine
 10
15248.80217064596
 20
1013.874748214644
 30
0.0
 11
15308.80217064596
 21
973.8747482146434
 31
0.0
  0
LINE
  5
1AA73
330
1A72B
100
AcDbEntity
  8
YODOROGO
100
AcDbLine
 10
15264.80217064596
 20
839.8747482146442
 30
0.0
 11
15308.80217064596
 21
839.8747482146442
 31
0.0
  0
LINE
  5
1AA74
330
1A72B
100
AcDbEntity
  8
YODOROGO
100
AcDbLine
 10
15308.80217064596
 20
867.8747482146436
 30
0.0
 11
15264.80217064596
 21
867.8747482146436
 31
0.0
  0
LINE
  5
1AA75
330
1A72B
100
AcDbEntity
  8
YODOROGO
100
AcDbLine
 10
15190.80217064596
 20
897.8747482146435
 30
0.0
 11
15308.80217064596
 21
897.8747482146435
 31
0.0
  0
LINE
  5
1AA76
330
1A72B
100
AcDbEntity
  8
YODOROGO
100
AcDbLine
 10
15040.80217064596
 20
1013.874748214644
 30
0.0
 11
15010.80217064596
 21
1013.874748214644
 31
0.0
  0
LINE
  5
1AA77
330
1A72B
100
AcDbEntity
  8
YODOROGO
100
AcDbLine
 10
15040.80217064596
 20
913.8747482146435
 30
0.0
 11
15040.80217064596
 21
1013.874748214644
 31
0.0
  0
LINE
  5
1AA78
330
1A72B
100
AcDbEntity
  8
YODOROGO
100
AcDbLine
 10
15010.80217064596
 20
913.8747482146435
 30
0.0
 11
15040.80217064596
 21
913.8747482146435
 31
0.0
  0
LINE
  5
1AA79
330
1A72B
100
AcDbEntity
  8
YODOROGO
100
AcDbLine
 10
15010.80217064596
 20
1013.874748214644
 30
0.0
 11
15010.80217064596
 21
913.8747482146435
 31
0.0
  0
LINE
  5
1AA7A
330
1A72B
100
AcDbEntity
  8
YODOROGO
100
AcDbLine
 10
15080.80217064596
 20
1013.874748214644
 30
0.0
 11
15108.80217064596
 21
1013.874748214644
 31
0.0
  0
LINE
  5
1AA7B
330
1A72B
100
AcDbEntity
  8
YODOROGO
100
AcDbLine
 10
15080.80217064596
 20
905.8747482146443
 30
0.0
 11
15080.80217064596
 21
1013.874748214644
 31
0.0
  0
ARC
  5
1AA7C
330
1A72B
100
AcDbEntity
  8
YODOROGO
100
AcDbCircle
 10
15060.80217064596
 20
905.8747482146443
 30
0.0
 40
20.0
100
AcDbArc
 50
270.0
 51
0.0
  0
LINE
  5
1AA7D
330
1A72B
100
AcDbEntity
  8
YODOROGO
100
AcDbLine
 10
15010.80217064596
 20
885.8747482146441
 30
0.0
 11
15060.80217064596
 21
885.8747482146441
 31
0.0
  0
LINE
  5
1AA7E
330
1A72B
100
AcDbEntity
  8
YODOROGO
100
AcDbLine
 10
15010.80217064596
 20
853.874748214644
 30
0.0
 11
15010.80217064596
 21
885.8747482146441
 31
0.0
  0
LINE
  5
1AA7F
330
1A72B
100
AcDbEntity
  8
YODOROGO
100
AcDbLine
 10
15068.80217064596
 20
853.874748214644
 30
0.0
 11
15010.80217064596
 21
853.874748214644
 31
0.0
  0
ARC
  5
1AA80
330
1A72B
100
AcDbEntity
  8
YODOROGO
100
AcDbCircle
 10
15068.80217064596
 20
893.8747482146439
 30
0.0
 40
40.0
100
AcDbArc
 50
270.0
 51
0.0
  0
LINE
  5
1AA81
330
1A72B
100
AcDbEntity
  8
YODOROGO
100
AcDbLine
 10
15108.80217064596
 20
1013.874748214644
 30
0.0
 11
15108.80217064596
 21
893.8747482146439
 31
0.0
  0
LINE
  5
1AA82
330
1A72B
100
AcDbEntity
  8
YODOROGO
100
AcDbLine
 10
14988.80217064596
 20
973.8747482146434
 30
0.0
 11
14988.80217064596
 21
997.8747482146435
 31
0.0
1001
AUTOCAD_POSTSCRIPT_FIGURE
1002
{
1000
PSFILL
1000
Grayscale
1000
Grayscale
1070
    25
1002
}
  0
LINE
  5
1AA83
330
1A72B
100
AcDbEntity
  8
YODOROGO
100
AcDbLine
 10
14988.80217064596
 20
929.874748214644
 30
0.0
 11
14988.80217064596
 21
953.874748214644
 31
0.0
1001
AUTOCAD_POSTSCRIPT_FIGURE
1002
{
1000
PSFILL
1000
Grayscale
1000
Grayscale
1070
    25
1002
}
  0
LINE
  5
1AA84
330
1A72B
100
AcDbEntity
  8
YODOROGO
100
AcDbLine
 10
14988.80217064596
 20
853.874748214644
 30
0.0
 11
14988.80217064596
 21
909.8747482146439
 31
0.0
1001
AUTOCAD_POSTSCRIPT_FIGURE
1002
{
1000
PSFILL
1000
Grayscale
1000
Grayscale
1070
    25
1002
}
  0
LINE
  5
1AA85
330
1A72B
100
AcDbEntity
  8
YODOROGO
100
AcDbLine
 10
15190.80217064596
 20
953.874748214644
 30
0.0
 11
15248.80217064596
 21
1013.874748214644
 31
0.0
  0
LINE
  5
1AA86
330
1A72B
100
AcDbEntity
  8
YODOROGO
100
AcDbLine
 10
15190.80217064596
 20
909.8747482146439
 30
0.0
 11
15190.80217064596
 21
953.874748214644
 31
0.0
  0
LINE
  5
1AA87
330
1A72B
100
AcDbEntity
  8
YODOROGO
100
AcDbLine
 10
15248.80217064596
 20
969.8747482146441
 30
0.0
 11
15190.80217064596
 21
909.8747482146439
 31
0.0
  0
LINE
  5
1AA88
330
1A72B
100
AcDbEntity
  8
YODOROGO
100
AcDbLine
 10
15232.80217064596
 20
839.8747482146442
 30
0.0
 11
15232.80217064596
 21
867.8747482146436
 31
0.0
  0
LINE
  5
1AA89
330
1A72B
100
AcDbEntity
  8
YODOROGO
100
AcDbLine
 10
15190.80217064596
 20
839.8747482146442
 30
0.0
 11
15232.80217064596
 21
839.8747482146442
 31
0.0
  0
LINE
  5
1AA8A
330
1A72B
100
AcDbEntity
  8
YODOROGO
100
AcDbLine
 10
15264.80217064596
 20
867.8747482146436
 30
0.0
 11
15264.80217064596
 21
839.8747482146442
 31
0.0
  0
LINE
  5
1AA8B
330
1A72B
100
AcDbEntity
  8
YODOROGO
100
AcDbLine
 10
15190.80217064596
 20
867.8747482146436
 30
0.0
 11
15190.80217064596
 21
897.8747482146435
 31
0.0
  0
LINE
  5
1AA8C
330
1A72B
100
AcDbEntity
  8
YODOROGO
100
AcDbLine
 10
15232.80217064596
 20
867.8747482146436
 30
0.0
 11
15190.80217064596
 21
867.8747482146436
 31
0.0
  0
LINE
  5
1AA8D
330
1A72B
100
AcDbEntity
  8
YODOROGO
100
AcDbLine
 10
15322.80217064596
 20
1013.874748214644
 30
0.0
 11
15486.80217064596
 21
1013.874748214644
 31
0.0
  0
LINE
  5
1AA8E
330
1A72B
100
AcDbEntity
  8
YODOROGO
100
AcDbLine
 10
15462.80217064596
 20
981.8747482146434
 30
0.0
 11
15348.80217064596
 21
981.8747482146434
 31
0.0
  0
LINE
  5
1AA8F
330
1A72B
100
AcDbEntity
  8
YODOROGO
100
AcDbLine
 10
15436.80217064595
 20
909.8747482146439
 30
0.0
 11
15449.80217064596
 21
909.8747482146439
 31
0.0
  0
LINE
  5
1AA90
330
1A72B
100
AcDbEntity
  8
YODOROGO
100
AcDbLine
 10
15449.80217064596
 20
969.8747482146441
 30
0.0
 11
15436.80217064595
 21
909.8747482146439
 31
0.0
  0
LINE
  5
1AA91
330
1A72B
100
AcDbEntity
  8
YODOROGO
100
AcDbLine
 10
15425.80217064596
 20
969.8747482146441
 30
0.0
 11
15449.80217064596
 21
969.8747482146441
 31
0.0
  0
LINE
  5
1AA92
330
1A72B
100
AcDbEntity
  8
YODOROGO
100
AcDbLine
 10
15412.80217064596
 20
909.8747482146439
 30
0.0
 11
15425.80217064596
 21
969.8747482146441
 31
0.0
  0
LINE
  5
1AA93
330
1A72B
100
AcDbEntity
  8
YODOROGO
100
AcDbLine
 10
15398.80217064596
 20
909.8747482146439
 30
0.0
 11
15412.80217064596
 21
909.8747482146439
 31
0.0
  0
LINE
  5
1AA94
330
1A72B
100
AcDbEntity
  8
YODOROGO
100
AcDbLine
 10
15385.80217064596
 20
969.8747482146441
 30
0.0
 11
15398.80217064596
 21
909.8747482146439
 31
0.0
  0
LINE
  5
1AA95
330
1A72B
100
AcDbEntity
  8
YODOROGO
100
AcDbLine
 10
15361.80217064596
 20
969.8747482146441
 30
0.0
 11
15385.80217064596
 21
969.8747482146441
 31
0.0
  0
LINE
  5
1AA96
330
1A72B
100
AcDbEntity
  8
YODOROGO
100
AcDbLine
 10
15374.80217064596
 20
909.8747482146439
 30
0.0
 11
15361.80217064596
 21
969.8747482146441
 31
0.0
  0
LINE
  5
1AA97
330
1A72B
100
AcDbEntity
  8
YODOROGO
100
AcDbLine
 10
15361.80217064596
 20
909.8747482146439
 30
0.0
 11
15374.80217064596
 21
909.8747482146439
 31
0.0
  0
LINE
  5
1AA98
330
1A72B
100
AcDbEntity
  8
YODOROGO
100
AcDbLine
 10
15361.80217064596
 20
877.8747482146435
 30
0.0
 11
15361.80217064596
 21
909.8747482146439
 31
0.0
  0
LINE
  5
1AA99
330
1A72B
100
AcDbEntity
  8
YODOROGO
100
AcDbLine
 10
15449.80217064596
 20
877.8747482146435
 30
0.0
 11
15361.80217064596
 21
877.8747482146435
 31
0.0
  0
LINE
  5
1AA9A
330
1A72B
100
AcDbEntity
  8
YODOROGO
100
AcDbLine
 10
15449.80217064596
 20
909.8747482146439
 30
0.0
 11
15449.80217064596
 21
877.8747482146435
 31
0.0
  0
LINE
  5
1AA9B
330
1A72B
100
AcDbEntity
  8
YODOROGO
100
AcDbLine
 10
15308.80217064596
 20
973.8747482146434
 30
0.0
 11
15308.80217064596
 21
929.874748214644
 31
0.0
  0
LINE
  5
1AA9C
330
1A72B
100
AcDbEntity
  8
YODOROGO
100
AcDbLine
 10
15395.80217064596
 20
877.8747482146435
 30
0.0
 11
15415.80217064596
 21
877.8747482146435
 31
0.0
  0
LINE
  5
1AA9D
330
1A72B
100
AcDbEntity
  8
YODOROGO
100
AcDbLine
 10
15361.80217064596
 20
845.8747482146444
 30
0.0
 11
15381.80217064596
 21
845.8747482146444
 31
0.0
  0
LINE
  5
1AA9E
330
1A72B
100
AcDbEntity
  8
YODOROGO
100
AcDbLine
 10
15429.80217064596
 20
845.8747482146444
 30
0.0
 11
15449.80217064596
 21
845.8747482146444
 31
0.0
  0
LINE
  5
1AA9F
330
1A72B
100
AcDbEntity
  8
YODOROGO
100
AcDbLine
 10
15308.80217064596
 20
897.8747482146435
 30
0.0
 11
15308.80217064596
 21
867.8747482146436
 31
0.0
  0
LINE
  5
1AAA0
330
1A72B
100
AcDbEntity
  8
YODOROGO
100
AcDbLine
 10
15582.80217064596
 20
1013.874748214644
 30
0.0
 11
15582.80217064596
 21
981.8747482146434
 31
0.0
  0
LINE
  5
1AAA1
330
1A72B
100
AcDbEntity
  8
YODOROGO
100
AcDbLine
 10
15766.80217064596
 20
797.8747482146435
 30
0.0
 11
15766.80217064594
 21
905.8747482146443
 31
0.0
  0
LINE
  5
1AAA2
330
1A72B
100
AcDbEntity
  8
YODOROGO
100
AcDbLine
 10
15730.80217064594
 20
993.8747482146439
 30
0.0
 11
15730.80217064594
 21
817.8747482146436
 31
0.0
  0
LINE
  5
1AAA3
330
1A72B
100
AcDbEntity
  8
YODOROGO
100
AcDbLine
 10
15826.80217064596
 20
713.8747482146436
 30
0.0
 11
15826.80217064594
 21
905.8747482146443
 31
0.0
  0
LINE
  5
1AAA4
330
1A72B
100
AcDbEntity
  8
YODOROGO
100
AcDbLine
 10
15794.80217064596
 20
905.8747482146443
 30
0.0
 11
15794.80217064596
 21
713.8747482146436
 31
0.0
  0
LINE
  5
1AAA5
330
1A72B
100
AcDbEntity
  8
YODOROGO
100
AcDbLine
 10
15618.80217064596
 20
797.8747482146435
 30
0.0
 11
15618.80217064596
 21
853.874748214644
 31
0.0
  0
ARC
  5
1AAA6
330
1A72B
100
AcDbEntity
  8
YODOROGO
100
AcDbCircle
 10
15676.95743255803
 20
803.8951756442788
 30
0.0
 40
90.04622428799429
100
AcDbArc
 50
268.6284910216979
 51
356.1663845733032
  0
LINE
  5
1AAA7
330
1A72B
100
AcDbEntity
  8
YODOROGO
100
AcDbLine
 10
15674.80217064596
 20
763.8747482146435
 30
0.0
 11
15674.80217064596
 21
713.8747482146436
 31
0.0
  0
ARC
  5
1AAA8
330
1A72B
100
AcDbEntity
  8
YODOROGO
100
AcDbCircle
 10
15675.75903786228
 20
818.9194785088275
 30
0.0
 40
55.05304649180608
100
AcDbArc
 50
269.0041020930593
 51
358.9126445549248
  0
LINE
  5
1AAA9
330
1A72B
100
AcDbEntity
  8
YODOROGO
100
AcDbLine
 10
15794.80217064596
 20
713.8747482146436
 30
0.0
 11
15826.80217064596
 21
713.8747482146436
 31
0.0
  0
LINE
  5
1AAAA
330
1A72B
100
AcDbEntity
  8
YODOROGO
100
AcDbLine
 10
15766.80217064594
 20
905.8747482146443
 30
0.0
 11
15794.80217064596
 21
905.8747482146443
 31
0.0
  0
LINE
  5
1AAAB
330
1A72B
100
AcDbEntity
  8
YODOROGO
100
AcDbLine
 10
15810.80217064596
 20
993.8747482146439
 30
0.0
 11
15730.80217064594
 21
993.8747482146439
 31
0.0
  0
LINE
  5
1AAAC
330
1A72B
100
AcDbEntity
  8
YODOROGO
100
AcDbLine
 10
15766.80217064594
 20
957.8747482146436
 30
0.0
 11
15830.80217064596
 21
957.8747482146436
 31
0.0
  0
LINE
  5
1AAAD
330
1A72B
100
AcDbEntity
  8
YODOROGO
100
AcDbLine
 10
15850.80217064596
 20
937.8747482146435
 30
0.0
 11
15766.80217064594
 21
937.8747482146435
 31
0.0
  0
LINE
  5
1AAAE
330
1A72B
100
AcDbEntity
  8
YODOROGO
100
AcDbLine
 10
15618.80217064596
 20
889.8747482146442
 30
0.0
 11
15674.80217064596
 21
889.8747482146442
 31
0.0
  0
LINE
  5
1AAAF
330
1A72B
100
AcDbEntity
  8
YODOROGO
100
AcDbLine
 10
15618.80217064596
 20
917.8747482146436
 30
0.0
 11
15618.80217064596
 21
889.8747482146442
 31
0.0
  0
LINE
  5
1AAB0
330
1A72B
100
AcDbEntity
  8
YODOROGO
100
AcDbLine
 10
15674.80217064596
 20
917.8747482146436
 30
0.0
 11
15618.80217064596
 21
917.8747482146436
 31
0.0
  0
LINE
  5
1AAB1
330
1A72B
100
AcDbEntity
  8
YODOROGO
100
AcDbLine
 10
15674.80217064596
 20
889.8747482146442
 30
0.0
 11
15674.80217064596
 21
917.8747482146436
 31
0.0
  0
LINE
  5
1AAB2
330
1A72B
100
AcDbEntity
  8
YODOROGO
100
AcDbLine
 10
15766.80217064594
 20
937.8747482146435
 30
0.0
 11
15766.80217064594
 21
957.8747482146436
 31
0.0
  0
LINE
  5
1AAB3
330
1A72B
100
AcDbEntity
  8
YODOROGO
100
AcDbLine
 10
15706.80217064596
 20
853.874748214644
 30
0.0
 11
15706.80217064596
 21
953.874748214644
 31
0.0
  0
LINE
  5
1AAB4
330
1A72B
100
AcDbEntity
  8
YODOROGO
100
AcDbLine
 10
15618.80217064596
 20
853.874748214644
 30
0.0
 11
15706.80217064596
 21
853.874748214644
 31
0.0
  0
LINE
  5
1AAB5
330
1A72B
100
AcDbEntity
  8
YODOROGO
100
AcDbLine
 10
15706.80217064596
 20
981.8747482146434
 30
0.0
 11
15706.80217064596
 21
1013.874748214644
 31
0.0
  0
ARC
  5
1AAB6
330
1A72B
100
AcDbEntity
  8
YODOROGO
100
AcDbCircle
 10
15810.80217064596
 20
1001.874748214642
 30
0.0
 40
7.99999999999727
100
AcDbArc
 50
270.0
 51
0.0000000000081422
  0
LINE
  5
1AAB7
330
1A72B
100
AcDbEntity
  8
YODOROGO
100
AcDbLine
 10
15818.80217064596
 20
1013.874748214644
 30
0.0
 11
15818.80217064596
 21
1001.874748214643
 31
0.0
  0
LINE
  5
1AAB8
330
1A72B
100
AcDbEntity
  8
YODOROGO
100
AcDbLine
 10
15850.80217064596
 20
1013.874748214644
 30
0.0
 11
15818.80217064596
 21
1013.874748214644
 31
0.0
  0
LINE
  5
1AAB9
330
1A72B
100
AcDbEntity
  8
YODOROGO
100
AcDbLine
 10
15850.80217064596
 20
977.8747482146435
 30
0.0
 11
15850.80217064596
 21
1013.874748214644
 31
0.0
  0
ARC
  5
1AABA
330
1A72B
100
AcDbEntity
  8
YODOROGO
100
AcDbCircle
 10
15830.80217064596
 20
977.8747482146435
 30
0.0
 40
20.0
100
AcDbArc
 50
270.0
 51
0.0
  0
LINE
  5
1AABB
330
1A72B
100
AcDbEntity
  8
YODOROGO
100
AcDbLine
 10
15850.80217064596
 20
905.8747482146443
 30
0.0
 11
15850.80217064596
 21
937.8747482146435
 31
0.0
  0
LINE
  5
1AABC
330
1A72B
100
AcDbEntity
  8
YODOROGO
100
AcDbLine
 10
15826.80217064594
 20
905.8747482146443
 30
0.0
 11
15850.80217064596
 21
905.8747482146443
 31
0.0
  0
LINE
  5
1AABD
330
1A72B
100
AcDbEntity
  8
SUNPOU
100
AcDbLine
 10
9145.989208462832
 20
3287.183932023015
 30
0.0
 11
9085.989208462816
 21
3287.183932023015
 31
0.0
  0
LINE
  5
1AABE
330
1A72B
100
AcDbEntity
  8
SUNPOU
100
AcDbLine
 10
9145.989208462822
 20
3287.183932023015
 30
0.0
 11
9085.989208462823
 21
3303.260883568885
 31
0.0
  0
LINE
  5
1AABF
330
1A72B
100
AcDbEntity
  8
SUNPOU
100
AcDbLine
 10
9145.989208462832
 20
3287.183932023015
 30
0.0
 11
9085.989208462816
 21
3271.106980477146
 31
0.0
  0
LINE
  5
1AAC0
330
1A72B
100
AcDbEntity
  8
SUNPOU
100
AcDbLine
 10
9085.98920846283
 20
3287.183932023015
 30
0.0
 11
9025.989208462815
 21
3287.183932023015
 31
0.0
  0
LINE
  5
1AAC1
330
1A72B
100
AcDbEntity
  8
SUNPOU
100
AcDbLine
 10
9085.989208462823
 20
3287.183932023015
 30
0.0
 11
9025.989208462823
 21
3303.260883568885
 31
0.0
  0
LINE
  5
1AAC2
330
1A72B
100
AcDbEntity
  8
SUNPOU
100
AcDbLine
 10
9085.98920846283
 20
3287.183932023015
 30
0.0
 11
9025.989208462815
 21
3271.106980477146
 31
0.0
  0
LINE
  5
1AAC3
330
1A72B
100
AcDbEntity
  8
SUNPOU
100
AcDbLine
 10
7762.008701212581
 20
3287.183932023015
 30
0.0
 11
7773.258701212579
 21
3287.183932023015
 31
0.0
  0
LINE
  5
1AAC4
330
1A72B
100
AcDbEntity
  8
SUNPOU
100
AcDbLine
 10
7750.758701212581
 20
3317.183932023015
 30
0.0
 11
7750.758701212581
 21
3332.183932023015
 31
0.0
  0
LINE
  5
1AAC5
330
1A72B
100
AcDbEntity
  8
SUNPOU
100
AcDbLine
 10
7110.758701212581
 20
2514.183932023016
 30
0.0
 11
7110.758701212581
 21
3332.183932023015
 31
0.0
  0
LINE
  5
1AAC6
330
1A72B
100
AcDbEntity
  8
SUNPOU
100
AcDbLine
 10
7735.758701212581
 20
3287.183932023014
 30
0.0
 11
7125.758701212581
 21
3287.183932023014
 31
0.0
  0
LINE
  5
1AAC7
330
1A72B
100
AcDbEntity
  8
SUNPOU
100
AcDbLine
 10
7080.75870121258
 20
2484.183932023016
 30
0.0
 11
6584.758582955732
 21
2484.183932023016
 31
0.0
  0
LINE
  5
1AAC8
330
1A72B
100
AcDbEntity
  8
SUNPOU
100
AcDbLine
 10
6920.758701212581
 20
1876.183932023014
 30
0.0
 11
6584.758582955732
 21
1876.183932023016
 31
0.0
  0
LINE
  5
1AAC9
330
1A72B
100
AcDbEntity
  8
SUNPOU
100
AcDbLine
 10
6629.758582955734
 20
2469.183932023016
 30
0.0
 11
6629.758582955732
 21
1891.183932023016
 31
0.0
  0
LINE
  5
1AACA
330
1A72B
100
AcDbEntity
  8
SUNPOU
100
AcDbLine
 10
6920.758701212581
 20
1876.183932023017
 30
0.0
 11
6584.758582955732
 21
1876.183932023018
 31
0.0
  0
LINE
  5
1AACB
330
1A72B
100
AcDbEntity
  8
SUNPOU
100
AcDbLine
 10
6920.758701212581
 20
1716.183932023017
 30
0.0
 11
6584.758582955732
 21
1716.183932023017
 31
0.0
  0
LINE
  5
1AACC
330
1A72B
100
AcDbEntity
  8
SUNPOU
100
AcDbLine
 10
6629.758582955732
 20
1861.183932023017
 30
0.0
 11
6629.758582955732
 21
1731.183932023017
 31
0.0
  0
LINE
  5
1AACD
330
1A72B
100
AcDbEntity
  8
SUNPOU
100
AcDbLine
 10
7080.758701212582
 20
2484.183932023016
 30
0.0
 11
6384.758582955733
 21
2484.183932023016
 31
0.0
  0
LINE
  5
1AACE
330
1A72B
100
AcDbEntity
  8
SUNPOU
100
AcDbLine
 10
6920.758701212581
 20
1716.183932023017
 30
0.0
 11
6384.758582955733
 21
1716.183932023017
 31
0.0
  0
LINE
  5
1AACF
330
1A72B
100
AcDbEntity
  8
SUNPOU
100
AcDbLine
 10
6429.758582955732
 20
2469.183932023016
 30
0.0
 11
6429.758582955732
 21
1731.183932023017
 31
0.0
  0
LINE
  5
1AAD0
330
1A72B
100
AcDbEntity
  8
SUNPOU
100
AcDbLine
 10
7110.758701212581
 20
1846.183932023015
 30
0.0
 11
7110.758701212581
 21
1334.183932023013
 31
0.0
  0
LINE
  5
1AAD1
330
1A72B
100
AcDbEntity
  8
SUNPOU
100
AcDbLine
 10
8390.758701212579
 20
1846.183932023015
 30
0.0
 11
8390.758701212579
 21
1334.183932023013
 31
0.0
  0
LINE
  5
1AAD2
330
1A72B
100
AcDbEntity
  8
SUNPOU
100
AcDbLine
 10
7125.758701212581
 20
1379.183932023014
 30
0.0
 11
8375.758701212578
 21
1379.183932023014
 31
0.0
  0
LINE
  5
1AAD3
330
1A72B
100
AcDbEntity
  8
SUNPOU
100
AcDbLine
 10
6950.758701212581
 20
1686.183932023016
 30
0.0
 11
6950.758701212581
 21
1124.183932023014
 31
0.0
  0
LINE
  5
1AAD4
330
1A72B
100
AcDbEntity
  8
SUNPOU
100
AcDbLine
 10
8550.758701212577
 20
1686.183932023017
 30
0.0
 11
8550.758701212577
 21
1124.183932023014
 31
0.0
  0
LINE
  5
1AAD5
330
1A72B
100
AcDbEntity
  8
SUNPOU
100
AcDbLine
 10
6965.75870121258
 20
1169.183932023013
 30
0.0
 11
8535.758701212579
 21
1169.183932023013
 31
0.0
  0
LINE
  5
1AAD6
330
1A72B
100
AcDbEntity
  8
SUNPOU
100
AcDbLine
 10
3224.333914666386
 20
1846.183932023019
 30
0.0
 11
3224.333914666386
 21
1334.183932023016
 31
0.0
  0
LINE
  5
1AAD7
330
1A72B
100
AcDbEntity
  8
SUNPOU
100
AcDbLine
 10
4184.333914666385
 20
1846.183932023017
 30
0.0
 11
4184.333914666385
 21
1334.183932023016
 31
0.0
  0
LINE
  5
1AAD8
330
1A72B
100
AcDbEntity
  8
SUNPOU
100
AcDbLine
 10
3239.333914666387
 20
1379.183932023016
 30
0.0
 11
4169.333914666387
 21
1379.183932023016
 31
0.0
  0
LINE
  5
1AAD9
330
1A72B
100
AcDbEntity
  8
SUNPOU
100
AcDbLine
 10
3064.333914666386
 20
1686.18393202302
 30
0.0
 11
3064.333914666386
 21
1124.183932023016
 31
0.0
  0
LINE
  5
1AADA
330
1A72B
100
AcDbEntity
  8
SUNPOU
100
AcDbLine
 10
4344.333914666385
 20
1686.183932023018
 30
0.0
 11
4344.333914666385
 21
1124.183932023016
 31
0.0
  0
LINE
  5
1AADB
330
1A72B
100
AcDbEntity
  8
SUNPOU
100
AcDbLine
 10
3079.333914666387
 20
1169.183932023016
 30
0.0
 11
4329.333914666387
 21
1169.183932023016
 31
0.0
  0
LINE
  5
1AADC
330
1A72B
100
AcDbEntity
  8
SUNPOU
100
AcDbLine
 10
3034.333914666386
 20
2484.183932023019
 30
0.0
 11
2698.333796409538
 21
2484.183932023019
 31
0.0
  0
LINE
  5
1AADD
330
1A72B
100
AcDbEntity
  8
SUNPOU
100
AcDbLine
 10
3034.333914666386
 20
1876.183932023018
 30
0.0
 11
2698.333796409538
 21
1876.183932023018
 31
0.0
  0
LINE
  5
1AADE
330
1A72B
100
AcDbEntity
  8
SUNPOU
100
AcDbLine
 10
2743.333796409538
 20
2469.183932023019
 30
0.0
 11
2743.333796409538
 21
1891.183932023017
 31
0.0
  0
LINE
  5
1AADF
330
1A72B
100
AcDbEntity
  8
SUNPOU
100
AcDbLine
 10
3034.333914666386
 20
1876.183932023019
 30
0.0
 11
2698.333796409539
 21
1876.183932023019
 31
0.0
  0
LINE
  5
1AAE0
330
1A72B
100
AcDbEntity
  8
SUNPOU
100
AcDbLine
 10
3034.333914666386
 20
1716.18393202302
 30
0.0
 11
2698.333796409539
 21
1716.18393202302
 31
0.0
  0
LINE
  5
1AAE1
330
1A72B
100
AcDbEntity
  8
SUNPOU
100
AcDbLine
 10
2743.333796409539
 20
1861.183932023019
 30
0.0
 11
2743.333796409539
 21
1731.18393202302
 31
0.0
  0
LINE
  5
1AAE2
330
1A72B
100
AcDbEntity
  8
SUNPOU
100
AcDbLine
 10
3034.333914666388
 20
2484.183932023019
 30
0.0
 11
2498.333796409538
 21
2484.183932023019
 31
0.0
  0
LINE
  5
1AAE3
330
1A72B
100
AcDbEntity
  8
SUNPOU
100
AcDbLine
 10
3034.333914666386
 20
1716.18393202302
 30
0.0
 11
2498.333796409538
 21
1716.18393202302
 31
0.0
  0
LINE
  5
1AAE4
330
1A72B
100
AcDbEntity
  8
SUNPOU
100
AcDbLine
 10
2543.333796409538
 20
2469.183932023019
 30
0.0
 11
2543.333796409538
 21
1731.18393202302
 31
0.0
  0
LINE
  5
1AAE5
330
1A72B
100
AcDbEntity
  8
SUNPOU
100
AcDbLine
 10
3704.333914666387
 20
3317.183932023015
 30
0.0
 11
3704.333914666387
 21
3332.183932023017
 31
0.0
  0
LINE
  5
1AAE6
330
1A72B
100
AcDbEntity
  8
SUNPOU
100
AcDbLine
 10
3064.333914666386
 20
2514.183932023019
 30
0.0
 11
3064.333914666386
 21
3332.183932023017
 31
0.0
  0
LINE
  5
1AAE7
330
1A72B
100
AcDbEntity
  8
SUNPOU
100
AcDbLine
 10
3689.333914666387
 20
3287.183932023017
 30
0.0
 11
3079.333914666386
 21
3287.183932023017
 31
0.0
  0
LINE
  5
1AAE8
330
1A72B
100
AcDbEntity
  8
SUNPOU
100
AcDbLine
 10
5099.564421916637
 20
3287.183932023017
 30
0.0
 11
5039.564421916624
 21
3287.183932023017
 31
0.0
  0
LINE
  5
1AAE9
330
1A72B
100
AcDbEntity
  8
SUNPOU
100
AcDbLine
 10
5099.564421916631
 20
3287.183932023017
 30
0.0
 11
5039.56442191663
 21
3303.260883568886
 31
0.0
  0
LINE
  5
1AAEA
330
1A72B
100
AcDbEntity
  8
SUNPOU
100
AcDbLine
 10
5099.564421916637
 20
3287.183932023017
 30
0.0
 11
5039.564421916624
 21
3271.106980477147
 31
0.0
  0
LINE
  5
1AAEB
330
1A72B
100
AcDbEntity
  8
SUNPOU
100
AcDbLine
 10
5039.564421916637
 20
3287.183932023017
 30
0.0
 11
4979.564421916624
 21
3287.183932023017
 31
0.0
  0
LINE
  5
1AAEC
330
1A72B
100
AcDbEntity
  8
SUNPOU
100
AcDbLine
 10
5039.56442191663
 20
3287.183932023017
 30
0.0
 11
4979.564421916631
 21
3303.260883568886
 31
0.0
  0
LINE
  5
1AAED
330
1A72B
100
AcDbEntity
  8
SUNPOU
100
AcDbLine
 10
5039.564421916637
 20
3287.183932023017
 30
0.0
 11
4979.564421916624
 21
3271.106980477147
 31
0.0
  0
LINE
  5
1AAEE
330
1A72B
100
AcDbEntity
  8
SUNPOU
100
AcDbLine
 10
3715.583914666388
 20
3287.183932023017
 30
0.0
 11
3726.833914666387
 21
3287.183932023017
 31
0.0
  0
LINE
  5
1AAEF
330
1A72B
100
AcDbEntity
  8
SUNPOU
100
AcDbLine
 10
9164.21703198606
 20
5995.715360473255
 30
0.0
 11
9479.21703198606
 21
5995.715360473255
 31
0.0
  0
LINE
  5
1AAF0
330
1A72B
100
AcDbEntity
  8
SUNPOU
100
AcDbLine
 10
9164.21703198606
 20
5395.715360473253
 30
0.0
 11
9479.21703198606
 21
5395.715360473253
 31
0.0
  0
LINE
  5
1AAF1
330
1A72B
100
AcDbEntity
  8
SUNPOU
100
AcDbLine
 10
9434.21703198606
 20
5980.715360473254
 30
0.0
 11
9434.21703198606
 21
5410.715360473254
 31
0.0
  0
TEXT
  5
1AAF2
330
1A72B
100
AcDbEntity
  8
SUNPOU
100
AcDbText
 10
7776.502746271773
 20
10040.71536047325
 30
0.0
 40
90.0
  1
2450 × （ N - 2 ）
 41
0.6666666666666666
  7
00
100
AcDbText
  0
LINE
  5
1AAF3
330
1A72B
100
AcDbEntity
  8
SUNPOU
100
AcDbLine
 10
7545.46703198606
 20
9995.715360473253
 30
0.0
 11
7556.717031986058
 21
9995.715360473253
 31
0.0
  0
LINE
  5
1AAF4
330
1A72B
100
AcDbEntity
  8
SUNPOU
100
AcDbLine
 10
8822.96703198606
 20
9995.715360473253
 30
0.0
 11
8811.717031986061
 21
9995.715360473253
 31
0.0
  0
LINE
  5
1AAF5
330
1A72B
100
AcDbEntity
  8
SUNPOU
100
AcDbLine
 10
4684.21703198606
 20
9625.715360473252
 30
0.0
 11
4684.21703198606
 21
10250.71536047325
 31
0.0
  0
LINE
  5
1AAF6
330
1A72B
100
AcDbEntity
  8
SUNPOU
100
AcDbLine
 10
11684.21703198605
 20
9625.715360473252
 30
0.0
 11
11684.21703198605
 21
10250.71536047325
 31
0.0
  0
LINE
  5
1AAF7
330
1A72B
100
AcDbEntity
  8
SUNPOU
100
AcDbLine
 10
4699.21703198606
 20
10205.71536047325
 30
0.0
 11
11669.21703198606
 21
10205.71536047325
 31
0.0
  0
LINE
  5
1AAF8
330
1A72B
100
AcDbEntity
  8
SUNPOU
100
AcDbLine
 10
7534.217031986059
 20
9725.715360473252
 30
0.0
 11
7534.217031986059
 21
10040.71536047325
 31
0.0
  0
LINE
  5
1AAF9
330
1A72B
100
AcDbEntity
  8
SUNPOU
100
AcDbLine
 10
5084.21703198606
 20
9725.715360473252
 30
0.0
 11
5084.21703198606
 21
10040.71536047325
 31
0.0
  0
LINE
  5
1AAFA
330
1A72B
100
AcDbEntity
  8
SUNPOU
100
AcDbLine
 10
7519.217031986058
 20
9995.715360473253
 30
0.0
 11
5099.21703198606
 21
9995.715360473253
 31
0.0
  0
LINE
  5
1AAFB
330
1A72B
100
AcDbEntity
  8
SUNPOU
100
AcDbLine
 10
11284.21703198606
 20
9725.715360473252
 30
0.0
 11
11284.21703198606
 21
10040.71536047325
 31
0.0
  0
LINE
  5
1AAFC
330
1A72B
100
AcDbEntity
  8
SUNPOU
100
AcDbLine
 10
8834.21703198606
 20
9725.715360473252
 30
0.0
 11
8834.21703198606
 21
10040.71536047325
 31
0.0
  0
LINE
  5
1AAFD
330
1A72B
100
AcDbEntity
  8
SUNPOU
100
AcDbLine
 10
11269.21703198606
 20
9995.715360473253
 30
0.0
 11
8849.217031986063
 21
9995.715360473253
 31
0.0
  0
LINE
  5
1AAFE
330
1A72B
100
AcDbEntity
  8
SUNPOU
100
AcDbLine
 10
5084.21703198606
 20
9725.715360473252
 30
0.0
 11
5084.21703198606
 21
10040.71536047325
 31
0.0
  0
LINE
  5
1AAFF
330
1A72B
100
AcDbEntity
  8
SUNPOU
100
AcDbLine
 10
4684.21703198606
 20
9625.715360473252
 30
0.0
 11
4684.21703198606
 21
10040.71536047325
 31
0.0
  0
LINE
  5
1AB00
330
1A72B
100
AcDbEntity
  8
SUNPOU
100
AcDbLine
 10
5069.21703198606
 20
9995.715360473253
 30
0.0
 11
4699.21703198606
 21
9995.715360473253
 31
0.0
  0
LINE
  5
1AB01
330
1A72B
100
AcDbEntity
  8
SUNPOU
100
AcDbLine
 10
11284.21703198606
 20
9725.715360473252
 30
0.0
 11
11284.21703198606
 21
10040.71536047325
 31
0.0
  0
LINE
  5
1AB02
330
1A72B
100
AcDbEntity
  8
SUNPOU
100
AcDbLine
 10
11684.21703198605
 20
9625.715360473252
 30
0.0
 11
11684.21703198605
 21
10040.71536047325
 31
0.0
  0
LINE
  5
1AB03
330
1A72B
100
AcDbEntity
  8
SUNPOU
100
AcDbLine
 10
11299.21703198605
 20
9995.715360473253
 30
0.0
 11
11669.21703198606
 21
9995.715360473253
 31
0.0
  0
LINE
  5
1AB04
330
1A72B
100
AcDbEntity
  8
SUNPOU
100
AcDbLine
 10
12294.21703198606
 20
9584.465360473252
 30
0.0
 11
12294.21703198606
 21
9573.215360473252
 31
0.0
  0
LINE
  5
1AB05
330
1A72B
100
AcDbEntity
  8
SUNPOU
100
AcDbLine
 10
12084.21703198605
 20
9584.465360473252
 30
0.0
 11
12084.21703198605
 21
9573.215360473252
 31
0.0
  0
LINE
  5
1AB06
330
1A72B
100
AcDbEntity
  8
SUNPOU
100
AcDbLine
 10
12084.21703198605
 20
9284.465360473253
 30
0.0
 11
12084.21703198605
 21
9273.215360473249
 31
0.0
  0
LINE
  5
1AB07
330
1A72B
100
AcDbEntity
  8
SUNPOU
100
AcDbLine
 10
12084.21703198605
 20
9306.965360473252
 30
0.0
 11
12084.21703198605
 21
9318.215360473251
 31
0.0
  0
LINE
  5
1AB08
330
1A72B
100
AcDbEntity
  8
SUNPOU
100
AcDbLine
 10
12084.21703198605
 20
5684.465360473253
 30
0.0
 11
12084.21703198605
 21
5673.215360473253
 31
0.0
  0
LINE
  5
1AB09
330
1A72B
100
AcDbEntity
  8
SUNPOU
100
AcDbLine
 10
12084.21703198605
 20
5706.965360473253
 30
0.0
 11
12084.21703198605
 21
5718.215360473253
 31
0.0
  0
LINE
  5
1AB0A
330
1A72B
100
AcDbEntity
  8
SUNPOU
100
AcDbLine
 10
12294.21703198606
 20
5406.965360473253
 30
0.0
 11
12294.21703198606
 21
5418.215360473253
 31
0.0
  0
LINE
  5
1AB0B
330
1A72B
100
AcDbEntity
  8
SUNPOU
100
AcDbLine
 10
12084.21703198605
 20
5406.965360473253
 30
0.0
 11
12084.21703198605
 21
5418.215360473253
 31
0.0
  0
LINE
  5
1AB0C
330
1A72B
100
AcDbEntity
  8
SUNPOU
100
AcDbLine
 10
7204.21703198606
 20
9595.715360473253
 30
0.0
 11
6889.21703198606
 21
9595.715360473253
 31
0.0
  0
LINE
  5
1AB0D
330
1A72B
100
AcDbEntity
  8
SUNPOU
100
AcDbLine
 10
7204.21703198606
 20
8995.715360473253
 30
0.0
 11
6889.21703198606
 21
8995.715360473253
 31
0.0
  0
LINE
  5
1AB0E
330
1A72B
100
AcDbEntity
  8
SUNPOU
100
AcDbLine
 10
6934.21703198606
 20
9580.715360473252
 30
0.0
 11
6934.21703198606
 21
9010.715360473252
 31
0.0
  0
LINE
  5
1AB0F
330
1A72B
100
AcDbEntity
  8
SUNPOU
100
AcDbLine
 10
7234.21703198606
 20
8965.71536047325
 30
0.0
 11
7234.21703198606
 21
8650.715360473251
 31
0.0
  0
LINE
  5
1AB10
330
1A72B
100
AcDbEntity
  8
SUNPOU
100
AcDbLine
 10
7834.21703198606
 20
8965.71536047325
 30
0.0
 11
7834.21703198606
 21
8650.715360473251
 31
0.0
  0
LINE
  5
1AB11
330
1A72B
100
AcDbEntity
  8
SUNPOU
100
AcDbLine
 10
7249.21703198606
 20
8695.715360473251
 30
0.0
 11
7819.21703198606
 21
8695.715360473251
 31
0.0
  0
LINE
  5
1AB12
330
1A72B
100
AcDbEntity
  8
SUNPOU
100
AcDbLine
 10
8534.217031986059
 20
6025.715360473252
 30
0.0
 11
8534.217031986059
 21
6290.715360473253
 31
0.0
  0
LINE
  5
1AB13
330
1A72B
100
AcDbEntity
  8
SUNPOU
100
AcDbLine
 10
9134.217031986059
 20
6025.715360473252
 30
0.0
 11
9134.217031986059
 21
6290.715360473253
 31
0.0
  0
LINE
  5
1AB14
330
1A72B
100
AcDbEntity
  8
SUNPOU
100
AcDbLine
 10
8549.21703198606
 20
6245.715360473253
 30
0.0
 11
9119.217031986059
 21
6245.715360473253
 31
0.0
  0
LINE
  5
1AB15
330
1A72B
100
AcDbEntity
  8
SUNPOU
100
AcDbLine
 10
12084.21703198605
 20
9280.71536047325
 30
0.0
 11
12084.21703198605
 21
7510.715360473253
 31
0.0
  0
LINE
  5
1AB16
330
1A72B
100
AcDbEntity
  8
SUNPOU
100
AcDbLine
 10
12084.21703198605
 20
7480.715360473253
 30
0.0
 11
12084.21703198605
 21
5710.715360473253
 31
0.0
  0
LINE
  5
1AB17
330
1A72B
100
AcDbEntity
  8
SUNPOU
100
AcDbLine
 10
8434.21703198606
 20
7925.715360473255
 30
0.0
 11
8434.21703198606
 21
8110.715360473252
 31
0.0
  0
LINE
  5
1AB18
330
1A72B
100
AcDbEntity
  8
SUNPOU
100
AcDbLine
 10
9234.217031986061
 20
7925.715360473255
 30
0.0
 11
9234.217031986061
 21
8110.715360473252
 31
0.0
  0
LINE
  5
1AB19
330
1A72B
100
AcDbEntity
  8
SUNPOU
100
AcDbLine
 10
8449.21703198606
 20
8065.715360473253
 30
0.0
 11
9219.21703198606
 21
8065.715360473253
 31
0.0
  0
LINE
  5
1AB1A
330
1A72B
100
AcDbEntity
  8
SUNPOU
100
AcDbLine
 10
9264.21703198606
 20
7895.715360473253
 30
0.0
 11
9479.21703198606
 21
7895.715360473253
 31
0.0
  0
LINE
  5
1AB1B
330
1A72B
100
AcDbEntity
  8
SUNPOU
100
AcDbLine
 10
9264.21703198606
 20
7095.715360473253
 30
0.0
 11
9479.21703198606
 21
7095.715360473253
 31
0.0
  0
LINE
  5
1AB1C
330
1A72B
100
AcDbEntity
  8
SUNPOU
100
AcDbLine
 10
9434.21703198606
 20
7880.715360473253
 30
0.0
 11
9434.21703198606
 21
7110.715360473253
 31
0.0
  0
ARC
  5
1AB1D
330
1A72B
100
AcDbEntity
  8
SUNPOU
100
AcDbCircle
 10
7750.758701212581
 20
3287.183932023015
 30
0.0
 40
5.625
100
AcDbArc
 50
0.0
 51
180.0
  0
ARC
  5
1AB1E
330
1A72B
100
AcDbEntity
  8
SUNPOU
100
AcDbCircle
 10
7750.758701212581
 20
3287.183932023015
 30
0.0
 40
5.625
100
AcDbArc
 50
180.0
 51
0.0
  0
TEXT
  5
1AB1F
330
1A72B
100
AcDbEntity
  8
SUNPOU
100
AcDbText
 10
7345.044415498293
 20
3332.183932023015
 30
0.0
 40
90.0
  1
400
 41
0.6666666666666666
  7
00
100
AcDbText
  0
LINE
  5
1AB20
330
1A72B
100
AcDbEntity
  8
SUNPOU
100
AcDbLine
 10
7122.00870121258
 20
3287.183932023014
 30
0.0
 11
7133.258701212581
 21
3287.183932023014
 31
0.0
  0
LINE
  5
1AB21
330
1A72B
100
AcDbEntity
  8
SUNPOU
100
AcDbLine
 10
7739.508701212582
 20
3287.183932023014
 30
0.0
 11
7728.25870121258
 21
3287.183932023014
 31
0.0
  0
TEXT
  5
1AB22
330
1A72B
100
AcDbEntity
  8
SUNPOU
100
AcDbText
 10
6584.758582955732
 20
2094.469646308731
 30
0.0
 40
90.0
  1
380
 50
90.0
 41
0.6666666666666666
  7
00
100
AcDbText
  0
LINE
  5
1AB23
330
1A72B
100
AcDbEntity
  8
SUNPOU
100
AcDbLine
 10
6629.758582955732
 20
1887.433932023015
 30
0.0
 11
6629.758582955732
 21
1898.683932023016
 31
0.0
  0
LINE
  5
1AB24
330
1A72B
100
AcDbEntity
  8
SUNPOU
100
AcDbLine
 10
6629.758582955734
 20
2472.933932023016
 30
0.0
 11
6629.758582955734
 21
2461.683932023015
 31
0.0
  0
TEXT
  5
1AB25
330
1A72B
100
AcDbEntity
  8
SUNPOU
100
AcDbText
 10
6584.758582955732
 20
1706.183932023017
 30
0.0
 40
90.0
  1
100
 50
90.0
 41
0.6666666666666666
  7
00
100
AcDbText
  0
LINE
  5
1AB26
330
1A72B
100
AcDbEntity
  8
SUNPOU
100
AcDbLine
 10
6629.758582955732
 20
1727.433932023016
 30
0.0
 11
6629.758582955732
 21
1738.683932023018
 31
0.0
  0
LINE
  5
1AB27
330
1A72B
100
AcDbEntity
  8
SUNPOU
100
AcDbLine
 10
6629.758582955732
 20
1864.933932023016
 30
0.0
 11
6629.758582955732
 21
1853.683932023017
 31
0.0
  0
TEXT
  5
1AB28
330
1A72B
100
AcDbEntity
  8
SUNPOU
100
AcDbText
 10
6384.758582955733
 20
2014.469646308732
 30
0.0
 40
90.0
  1
480
 50
90.0
 41
0.6666666666666666
  7
00
100
AcDbText
  0
LINE
  5
1AB29
330
1A72B
100
AcDbEntity
  8
SUNPOU
100
AcDbLine
 10
6429.758582955732
 20
1727.433932023016
 30
0.0
 11
6429.758582955732
 21
1738.683932023018
 31
0.0
  0
LINE
  5
1AB2A
330
1A72B
100
AcDbEntity
  8
SUNPOU
100
AcDbLine
 10
6429.758582955732
 20
2472.933932023016
 30
0.0
 11
6429.758582955732
 21
2461.683932023015
 31
0.0
  0
TEXT
  5
1AB2B
330
1A72B
100
AcDbEntity
  8
SUNPOU
100
AcDbText
 10
7665.044415498293
 20
1424.183932023014
 30
0.0
 40
90.0
  1
800
 41
0.6666666666666666
  7
00
100
AcDbText
  0
LINE
  5
1AB2C
330
1A72B
100
AcDbEntity
  8
SUNPOU
100
AcDbLine
 10
8379.508701212579
 20
1379.183932023014
 30
0.0
 11
8368.25870121258
 21
1379.183932023014
 31
0.0
  0
LINE
  5
1AB2D
330
1A72B
100
AcDbEntity
  8
SUNPOU
100
AcDbLine
 10
7122.00870121258
 20
1379.183932023014
 30
0.0
 11
7133.258701212581
 21
1379.183932023014
 31
0.0
  0
TEXT
  5
1AB2E
330
1A72B
100
AcDbEntity
  8
SUNPOU
100
AcDbText
 10
7632.187272641154
 20
1214.183932023014
 30
0.0
 40
90.0
  1
1000
 41
0.6666666666666666
  7
00
100
AcDbText
  0
LINE
  5
1AB2F
330
1A72B
100
AcDbEntity
  8
SUNPOU
100
AcDbLine
 10
8539.508701212579
 20
1169.183932023013
 30
0.0
 11
8528.258701212578
 21
1169.183932023013
 31
0.0
  0
LINE
  5
1AB30
330
1A72B
100
AcDbEntity
  8
SUNPOU
100
AcDbLine
 10
6962.008701212581
 20
1169.183932023013
 30
0.0
 11
6973.25870121258
 21
1169.183932023013
 31
0.0
  0
TEXT
  5
1AB31
330
1A72B
100
AcDbEntity
  8
SUNPOU
100
AcDbText
 10
3617.191057523529
 20
1424.183932023016
 30
0.0
 40
90.0
  1
600
 41
0.6666666666666666
  7
00
100
AcDbText
  0
LINE
  5
1AB32
330
1A72B
100
AcDbEntity
  8
SUNPOU
100
AcDbLine
 10
4173.083914666387
 20
1379.183932023016
 30
0.0
 11
4161.833914666385
 21
1379.183932023016
 31
0.0
  0
LINE
  5
1AB33
330
1A72B
100
AcDbEntity
  8
SUNPOU
100
AcDbLine
 10
3235.583914666387
 20
1379.183932023016
 30
0.0
 11
3246.833914666386
 21
1379.183932023016
 31
0.0
  0
TEXT
  5
1AB34
330
1A72B
100
AcDbEntity
  8
SUNPOU
100
AcDbText
 10
3618.6196289521
 20
1214.183932023016
 30
0.0
 40
90.0
  1
800
 41
0.6666666666666666
  7
00
100
AcDbText
  0
LINE
  5
1AB35
330
1A72B
100
AcDbEntity
  8
SUNPOU
100
AcDbLine
 10
4333.083914666387
 20
1169.183932023016
 30
0.0
 11
4321.833914666386
 21
1169.183932023016
 31
0.0
  0
LINE
  5
1AB36
330
1A72B
100
AcDbEntity
  8
SUNPOU
100
AcDbLine
 10
3075.583914666387
 20
1169.183932023016
 30
0.0
 11
3086.833914666387
 21
1169.183932023016
 31
0.0
  0
TEXT
  5
1AB37
330
1A72B
100
AcDbEntity
  8
SUNPOU
100
AcDbText
 10
2698.333796409537
 20
2094.469646308733
 30
0.0
 40
90.0
  1
380
 50
90.0
 41
0.6666666666666666
  7
00
100
AcDbText
  0
LINE
  5
1AB38
330
1A72B
100
AcDbEntity
  8
SUNPOU
100
AcDbLine
 10
2743.333796409538
 20
1887.433932023017
 30
0.0
 11
2743.333796409538
 21
1898.683932023017
 31
0.0
  0
LINE
  5
1AB39
330
1A72B
100
AcDbEntity
  8
SUNPOU
100
AcDbLine
 10
2743.333796409538
 20
2472.933932023019
 30
0.0
 11
2743.333796409538
 21
2461.683932023019
 31
0.0
  0
TEXT
  5
1AB3A
330
1A72B
100
AcDbEntity
  8
SUNPOU
100
AcDbText
 10
2698.333796409539
 20
1706.183932023019
 30
0.0
 40
90.0
  1
100
 50
90.0
 41
0.6666666666666666
  7
00
100
AcDbText
  0
LINE
  5
1AB3B
330
1A72B
100
AcDbEntity
  8
SUNPOU
100
AcDbLine
 10
2743.333796409539
 20
1727.43393202302
 30
0.0
 11
2743.333796409539
 21
1738.683932023019
 31
0.0
  0
LINE
  5
1AB3C
330
1A72B
100
AcDbEntity
  8
SUNPOU
100
AcDbLine
 10
2743.333796409539
 20
1864.933932023019
 30
0.0
 11
2743.333796409539
 21
1853.683932023018
 31
0.0
  0
TEXT
  5
1AB3D
330
1A72B
100
AcDbEntity
  8
SUNPOU
100
AcDbText
 10
2498.333796409538
 20
2014.469646308733
 30
0.0
 40
90.0
  1
480
 50
90.0
 41
0.6666666666666666
  7
00
100
AcDbText
  0
LINE
  5
1AB3E
330
1A72B
100
AcDbEntity
  8
SUNPOU
100
AcDbLine
 10
2543.333796409538
 20
1727.43393202302
 30
0.0
 11
2543.333796409538
 21
1738.683932023019
 31
0.0
  0
LINE
  5
1AB3F
330
1A72B
100
AcDbEntity
  8
SUNPOU
100
AcDbLine
 10
2543.333796409538
 20
2472.933932023019
 30
0.0
 11
2543.333796409538
 21
2461.683932023019
 31
0.0
  0
TEXT
  5
1AB40
330
1A72B
100
AcDbEntity
  8
SUNPOU
100
AcDbText
 10
3298.619628952101
 20
3332.183932023017
 30
0.0
 40
90.0
  1
400
 41
0.6666666666666666
  7
00
100
AcDbText
  0
LINE
  5
1AB41
330
1A72B
100
AcDbEntity
  8
SUNPOU
100
AcDbLine
 10
3075.583914666387
 20
3287.183932023017
 30
0.0
 11
3086.833914666386
 21
3287.183932023017
 31
0.0
  0
LINE
  5
1AB42
330
1A72B
100
AcDbEntity
  8
SUNPOU
100
AcDbLine
 10
3693.083914666386
 20
3287.183932023017
 30
0.0
 11
3681.833914666388
 21
3287.183932023017
 31
0.0
  0
ARC
  5
1AB43
330
1A72B
100
AcDbEntity
  8
SUNPOU
100
AcDbCircle
 10
3704.333914666387
 20
3287.183932023017
 30
0.0
 40
5.625
100
AcDbArc
 50
0.0
 51
180.0
  0
ARC
  5
1AB44
330
1A72B
100
AcDbEntity
  8
SUNPOU
100
AcDbCircle
 10
3704.333914666387
 20
3287.183932023017
 30
0.0
 40
5.625
100
AcDbArc
 50
180.0
 51
0.0
  0
TEXT
  5
1AB45
330
1A72B
100
AcDbEntity
  8
SUNPOU
100
AcDbText
 10
9389.21703198606
 20
5608.572503330398
 30
0.0
 40
90.0
  1
600
 50
90.0
 41
0.6666666666666666
  7
00
100
AcDbText
  0
LINE
  5
1AB46
330
1A72B
100
AcDbEntity
  8
SUNPOU
100
AcDbLine
 10
9434.21703198606
 20
5406.965360473254
 30
0.0
 11
9434.21703198606
 21
5418.215360473254
 31
0.0
  0
LINE
  5
1AB47
330
1A72B
100
AcDbEntity
  8
SUNPOU
100
AcDbLine
 10
9434.21703198606
 20
5984.465360473254
 30
0.0
 11
9434.21703198606
 21
5973.215360473255
 31
0.0
  0
ARC
  5
1AB48
330
1A72B
100
AcDbEntity
  8
SUNPOU
100
AcDbCircle
 10
7534.217031986059
 20
9995.715360473253
 30
0.0
 40
5.625
100
AcDbArc
 50
0.0
 51
180.0
  0
ARC
  5
1AB49
330
1A72B
100
AcDbEntity
  8
SUNPOU
100
AcDbCircle
 10
7534.217031986059
 20
9995.715360473253
 30
0.0
 40
5.625
100
AcDbArc
 50
180.0
 51
0.0
  0
ARC
  5
1AB4A
330
1A72B
100
AcDbEntity
  8
SUNPOU
100
AcDbCircle
 10
8834.21703198606
 20
9995.715360473253
 30
0.0
 40
5.625
100
AcDbArc
 50
180.0
 51
0.0
  0
ARC
  5
1AB4B
330
1A72B
100
AcDbEntity
  8
SUNPOU
100
AcDbCircle
 10
8834.21703198606
 20
9995.715360473253
 30
0.0
 40
5.625
100
AcDbArc
 50
0.0
 51
180.0
  0
TEXT
  5
1AB4C
330
1A72B
100
AcDbEntity
  8
SUNPOU
100
AcDbText
 10
7720.502746271773
 20
10250.71536047325
 30
0.0
 40
90.0
  1
L = 2450 x N + 800
 41
0.6666666666666666
  7
00
100
AcDbText
  0
LINE
  5
1AB4D
330
1A72B
100
AcDbEntity
  8
SUNPOU
100
AcDbLine
 10
11672.96703198606
 20
10205.71536047325
 30
0.0
 11
11661.71703198606
 21
10205.71536047325
 31
0.0
  0
LINE
  5
1AB4E
330
1A72B
100
AcDbEntity
  8
SUNPOU
100
AcDbLine
 10
4695.467031986058
 20
10205.71536047325
 30
0.0
 11
4706.71703198606
 21
10205.71536047325
 31
0.0
  0
TEXT
  5
1AB4F
330
1A72B
100
AcDbEntity
  8
SUNPOU
100
AcDbText
 10
6194.931317700345
 20
10040.71536047325
 30
0.0
 40
90.0
  1
2450
 41
0.6666666666666666
  7
00
100
AcDbText
  0
LINE
  5
1AB50
330
1A72B
100
AcDbEntity
  8
SUNPOU
100
AcDbLine
 10
5095.46703198606
 20
9995.715360473253
 30
0.0
 11
5106.71703198606
 21
9995.715360473253
 31
0.0
  0
LINE
  5
1AB51
330
1A72B
100
AcDbEntity
  8
SUNPOU
100
AcDbLine
 10
7522.96703198606
 20
9995.715360473253
 30
0.0
 11
7511.71703198606
 21
9995.715360473253
 31
0.0
  0
TEXT
  5
1AB52
330
1A72B
100
AcDbEntity
  8
SUNPOU
100
AcDbText
 10
9944.931317700344
 20
10040.71536047325
 30
0.0
 40
90.0
  1
2450
 41
0.6666666666666666
  7
00
100
AcDbText
  0
LINE
  5
1AB53
330
1A72B
100
AcDbEntity
  8
SUNPOU
100
AcDbLine
 10
8845.467031986059
 20
9995.715360473253
 30
0.0
 11
8856.717031986059
 21
9995.715360473253
 31
0.0
  0
LINE
  5
1AB54
330
1A72B
100
AcDbEntity
  8
SUNPOU
100
AcDbLine
 10
11272.96703198606
 20
9995.715360473253
 30
0.0
 11
11261.71703198606
 21
9995.715360473253
 31
0.0
  0
TEXT
  5
1AB55
330
1A72B
100
AcDbEntity
  8
SUNPOU
100
AcDbText
 10
4798.502746271775
 20
10040.71536047325
 30
0.0
 40
90.0
  1
400
 41
0.6666666666666666
  7
00
100
AcDbText
  0
LINE
  5
1AB56
330
1A72B
100
AcDbEntity
  8
SUNPOU
100
AcDbLine
 10
4695.467031986058
 20
9995.715360473253
 30
0.0
 11
4706.71703198606
 21
9995.715360473253
 31
0.0
  0
LINE
  5
1AB57
330
1A72B
100
AcDbEntity
  8
SUNPOU
100
AcDbLine
 10
5072.96703198606
 20
9995.715360473253
 30
0.0
 11
5061.717031986058
 21
9995.715360473253
 31
0.0
  0
TEXT
  5
1AB58
330
1A72B
100
AcDbEntity
  8
SUNPOU
100
AcDbText
 10
11398.50274627177
 20
10040.71536047325
 30
0.0
 40
90.0
  1
400
 41
0.6666666666666666
  7
00
100
AcDbText
  0
LINE
  5
1AB59
330
1A72B
100
AcDbEntity
  8
SUNPOU
100
AcDbLine
 10
11672.96703198606
 20
9995.715360473253
 30
0.0
 11
11661.71703198606
 21
9995.715360473253
 31
0.0
  0
LINE
  5
1AB5A
330
1A72B
100
AcDbEntity
  8
SUNPOU
100
AcDbLine
 10
11295.46703198605
 20
9995.715360473253
 30
0.0
 11
11306.71703198605
 21
9995.715360473253
 31
0.0
  0
ARC
  5
1AB5B
330
1A72B
100
AcDbEntity
  8
SUNPOU
100
AcDbCircle
 10
12294.21703198606
 20
9595.715360473253
 30
0.0
 40
5.625
100
AcDbArc
 50
270.0
 51
90.0
  0
ARC
  5
1AB5C
330
1A72B
100
AcDbEntity
  8
SUNPOU
100
AcDbCircle
 10
12294.21703198606
 20
9595.715360473253
 30
0.0
 40
5.625
100
AcDbArc
 50
90.0
 51
270.0
  0
ARC
  5
1AB5D
330
1A72B
100
AcDbEntity
  8
SUNPOU
100
AcDbCircle
 10
12084.21703198605
 20
9595.715360473253
 30
0.0
 40
5.625
100
AcDbArc
 50
270.0
 51
90.0
  0
ARC
  5
1AB5E
330
1A72B
100
AcDbEntity
  8
SUNPOU
100
AcDbCircle
 10
12084.21703198605
 20
9595.715360473253
 30
0.0
 40
5.625
100
AcDbArc
 50
90.0
 51
270.0
  0
ARC
  5
1AB5F
330
1A72B
100
AcDbEntity
  8
SUNPOU
100
AcDbCircle
 10
12084.21703198605
 20
9295.715360473252
 30
0.0
 40
5.625
100
AcDbArc
 50
270.0
 51
90.0
  0
ARC
  5
1AB60
330
1A72B
100
AcDbEntity
  8
SUNPOU
100
AcDbCircle
 10
12084.21703198605
 20
9295.715360473252
 30
0.0
 40
5.625
100
AcDbArc
 50
90.0
 51
270.0
  0
ARC
  5
1AB61
330
1A72B
100
AcDbEntity
  8
SUNPOU
100
AcDbCircle
 10
12084.21703198605
 20
9295.715360473252
 30
0.0
 40
5.625
100
AcDbArc
 50
90.0
 51
270.0
  0
ARC
  5
1AB62
330
1A72B
100
AcDbEntity
  8
SUNPOU
100
AcDbCircle
 10
12084.21703198605
 20
9295.715360473252
 30
0.0
 40
5.625
100
AcDbArc
 50
270.0
 51
90.0
  0
ARC
  5
1AB63
330
1A72B
100
AcDbEntity
  8
SUNPOU
100
AcDbCircle
 10
12084.21703198605
 20
5695.715360473253
 30
0.0
 40
5.625
100
AcDbArc
 50
270.0
 51
90.0
  0
ARC
  5
1AB64
330
1A72B
100
AcDbEntity
  8
SUNPOU
100
AcDbCircle
 10
12084.21703198605
 20
5695.715360473253
 30
0.0
 40
5.625
100
AcDbArc
 50
90.0
 51
270.0
  0
ARC
  5
1AB65
330
1A72B
100
AcDbEntity
  8
SUNPOU
100
AcDbCircle
 10
12084.21703198605
 20
5695.715360473253
 30
0.0
 40
5.625
100
AcDbArc
 50
90.0
 51
270.0
  0
ARC
  5
1AB66
330
1A72B
100
AcDbEntity
  8
SUNPOU
100
AcDbCircle
 10
12084.21703198605
 20
5695.715360473253
 30
0.0
 40
5.625
100
AcDbArc
 50
270.0
 51
90.0
  0
ARC
  5
1AB67
330
1A72B
100
AcDbEntity
  8
SUNPOU
100
AcDbCircle
 10
12294.21703198606
 20
5395.715360473253
 30
0.0
 40
5.625
100
AcDbArc
 50
90.0
 51
270.0
  0
ARC
  5
1AB68
330
1A72B
100
AcDbEntity
  8
SUNPOU
100
AcDbCircle
 10
12294.21703198606
 20
5395.715360473253
 30
0.0
 40
5.625
100
AcDbArc
 50
270.0
 51
90.0
  0
ARC
  5
1AB69
330
1A72B
100
AcDbEntity
  8
SUNPOU
100
AcDbCircle
 10
12084.21703198605
 20
5395.715360473253
 30
0.0
 40
5.625
100
AcDbArc
 50
90.0
 51
270.0
  0
ARC
  5
1AB6A
330
1A72B
100
AcDbEntity
  8
SUNPOU
100
AcDbCircle
 10
12084.21703198605
 20
5395.715360473253
 30
0.0
 40
5.625
100
AcDbArc
 50
270.0
 51
90.0
  0
TEXT
  5
1AB6B
330
1A72B
100
AcDbEntity
  8
SUNPOU
100
AcDbText
 10
6889.21703198606
 20
9208.572503330399
 30
0.0
 40
90.0
  1
600
 50
90.0
 41
0.6666666666666666
  7
00
100
AcDbText
  0
LINE
  5
1AB6C
330
1A72B
100
AcDbEntity
  8
SUNPOU
100
AcDbLine
 10
6934.21703198606
 20
9006.96536047325
 30
0.0
 11
6934.21703198606
 21
9018.215360473252
 31
0.0
  0
LINE
  5
1AB6D
330
1A72B
100
AcDbEntity
  8
SUNPOU
100
AcDbLine
 10
6934.21703198606
 20
9584.465360473252
 30
0.0
 11
6934.21703198606
 21
9573.215360473252
 31
0.0
  0
TEXT
  5
1AB6E
330
1A72B
100
AcDbEntity
  8
SUNPOU
100
AcDbText
 10
7447.074174843203
 20
8740.715360473251
 30
0.0
 40
90.0
  1
600
 41
0.6666666666666666
  7
00
100
AcDbText
  0
LINE
  5
1AB6F
330
1A72B
100
AcDbEntity
  8
SUNPOU
100
AcDbLine
 10
7822.96703198606
 20
8695.715360473251
 30
0.0
 11
7811.71703198606
 21
8695.715360473251
 31
0.0
  0
LINE
  5
1AB70
330
1A72B
100
AcDbEntity
  8
SUNPOU
100
AcDbLine
 10
7245.467031986058
 20
8695.715360473251
 30
0.0
 11
7256.71703198606
 21
8695.715360473251
 31
0.0
  0
TEXT
  5
1AB71
330
1A72B
100
AcDbEntity
  8
SUNPOU
100
AcDbText
 10
8747.074174843204
 20
6290.715360473253
 30
0.0
 40
90.0
  1
600
 41
0.6666666666666666
  7
00
100
AcDbText
  0
LINE
  5
1AB72
330
1A72B
100
AcDbEntity
  8
SUNPOU
100
AcDbLine
 10
9122.96703198606
 20
6245.715360473253
 30
0.0
 11
9111.71703198606
 21
6245.715360473253
 31
0.0
  0
LINE
  5
1AB73
330
1A72B
100
AcDbEntity
  8
SUNPOU
100
AcDbLine
 10
8545.46703198606
 20
6245.715360473253
 30
0.0
 11
8556.717031986059
 21
6245.715360473253
 31
0.0
  0
TEXT
  5
1AB74
330
1A72B
100
AcDbEntity
  8
SUNPOU
100
AcDbText
 10
12039.21703198606
 20
8277.143931901829
 30
0.0
 40
90.0
  1
1800
 50
90.0
 41
0.6666666666666666
  7
00
100
AcDbText
  0
LINE
  5
1AB75
330
1A72B
100
AcDbEntity
  8
SUNPOU
100
AcDbLine
 10
12084.21703198605
 20
7506.965360473255
 30
0.0
 11
12084.21703198605
 21
7518.215360473253
 31
0.0
  0
LINE
  5
1AB76
330
1A72B
100
AcDbEntity
  8
SUNPOU
100
AcDbLine
 10
12084.21703198605
 20
9284.465360473253
 30
0.0
 11
12084.21703198605
 21
9273.215360473249
 31
0.0
  0
TEXT
  5
1AB77
330
1A72B
100
AcDbEntity
  8
SUNPOU
100
AcDbText
 10
12039.21703198606
 20
6477.143931901827
 30
0.0
 40
90.0
  1
1800
 50
90.0
 41
0.6666666666666666
  7
00
100
AcDbText
  0
LINE
  5
1AB78
330
1A72B
100
AcDbEntity
  8
SUNPOU
100
AcDbLine
 10
12084.21703198605
 20
5706.965360473253
 30
0.0
 11
12084.21703198605
 21
5718.215360473253
 31
0.0
  0
LINE
  5
1AB79
330
1A72B
100
AcDbEntity
  8
SUNPOU
100
AcDbLine
 10
12084.21703198605
 20
7484.465360473253
 30
0.0
 11
12084.21703198605
 21
7473.215360473253
 31
0.0
  0
TEXT
  5
1AB7A
330
1A72B
100
AcDbEntity
  8
SUNPOU
100
AcDbText
 10
8748.502746271773
 20
8110.715360473252
 30
0.0
 40
90.0
  1
800
 41
0.6666666666666666
  7
00
100
AcDbText
  0
LINE
  5
1AB7B
330
1A72B
100
AcDbEntity
  8
SUNPOU
100
AcDbLine
 10
9222.96703198606
 20
8065.715360473253
 30
0.0
 11
9211.71703198606
 21
8065.715360473253
 31
0.0
  0
LINE
  5
1AB7C
330
1A72B
100
AcDbEntity
  8
SUNPOU
100
AcDbLine
 10
8445.46703198606
 20
8065.715360473253
 30
0.0
 11
8456.717031986059
 21
8065.715360473253
 31
0.0
  0
TEXT
  5
1AB7D
330
1A72B
100
AcDbEntity
  8
SUNPOU
100
AcDbText
 10
9389.217031986058
 20
7410.001074758969
 30
0.0
 40
90.0
  1
800
 50
90.0
 41
0.6666666666666666
  7
00
100
AcDbText
  0
LINE
  5
1AB7E
330
1A72B
100
AcDbEntity
  8
SUNPOU
100
AcDbLine
 10
9434.21703198606
 20
7106.965360473253
 30
0.0
 11
9434.21703198606
 21
7118.215360473254
 31
0.0
  0
LINE
  5
1AB7F
330
1A72B
100
AcDbEntity
  8
SUNPOU
100
AcDbLine
 10
9434.21703198606
 20
7884.465360473253
 30
0.0
 11
9434.21703198606
 21
7873.215360473253
 31
0.0
  0
ARC
  5
1AB80
330
1A72B
100
AcDbEntity
  8
SUNPOU
100
AcDbCircle
 10
7110.758701212581
 20
3287.183932023014
 30
0.0
 40
5.625
100
AcDbArc
 50
0.0
 51
180.0
  0
ARC
  5
1AB81
330
1A72B
100
AcDbEntity
  8
SUNPOU
100
AcDbCircle
 10
7110.758701212581
 20
3287.183932023014
 30
0.0
 40
5.625
100
AcDbArc
 50
180.0
 51
0.0
  0
ARC
  5
1AB82
330
1A72B
100
AcDbEntity
  8
SUNPOU
100
AcDbCircle
 10
7750.758701212581
 20
3287.183932023014
 30
0.0
 40
5.625
100
AcDbArc
 50
180.0
 51
0.0
  0
ARC
  5
1AB83
330
1A72B
100
AcDbEntity
  8
SUNPOU
100
AcDbCircle
 10
7750.758701212581
 20
3287.183932023014
 30
0.0
 40
5.625
100
AcDbArc
 50
0.0
 51
180.0
  0
ARC
  5
1AB84
330
1A72B
100
AcDbEntity
  8
SUNPOU
100
AcDbCircle
 10
6629.758582955732
 20
1876.183932023016
 30
0.0
 40
5.625
100
AcDbArc
 50
90.0
 51
270.0
  0
ARC
  5
1AB85
330
1A72B
100
AcDbEntity
  8
SUNPOU
100
AcDbCircle
 10
6629.758582955732
 20
1876.183932023016
 30
0.0
 40
5.625
100
AcDbArc
 50
270.0
 51
90.0
  0
ARC
  5
1AB86
330
1A72B
100
AcDbEntity
  8
SUNPOU
100
AcDbCircle
 10
6629.758582955734
 20
2484.183932023016
 30
0.0
 40
5.625
100
AcDbArc
 50
270.0
 51
90.0
  0
ARC
  5
1AB87
330
1A72B
100
AcDbEntity
  8
SUNPOU
100
AcDbCircle
 10
6629.758582955734
 20
2484.183932023016
 30
0.0
 40
5.625
100
AcDbArc
 50
90.0
 51
270.0
  0
ARC
  5
1AB88
330
1A72B
100
AcDbEntity
  8
SUNPOU
100
AcDbCircle
 10
6629.758582955732
 20
1716.183932023017
 30
0.0
 40
5.625
100
AcDbArc
 50
90.0
 51
270.0
  0
ARC
  5
1AB89
330
1A72B
100
AcDbEntity
  8
SUNPOU
100
AcDbCircle
 10
6629.758582955732
 20
1716.183932023017
 30
0.0
 40
5.625
100
AcDbArc
 50
270.0
 51
90.0
  0
ARC
  5
1AB8A
330
1A72B
100
AcDbEntity
  8
SUNPOU
100
AcDbCircle
 10
6629.758582955732
 20
1876.183932023018
 30
0.0
 40
5.625
100
AcDbArc
 50
270.0
 51
90.0
  0
ARC
  5
1AB8B
330
1A72B
100
AcDbEntity
  8
SUNPOU
100
AcDbCircle
 10
6629.758582955732
 20
1876.183932023018
 30
0.0
 40
5.625
100
AcDbArc
 50
90.0
 51
270.0
  0
ARC
  5
1AB8C
330
1A72B
100
AcDbEntity
  8
SUNPOU
100
AcDbCircle
 10
6429.758582955732
 20
1716.183932023017
 30
0.0
 40
5.625
100
AcDbArc
 50
90.0
 51
270.0
  0
ARC
  5
1AB8D
330
1A72B
100
AcDbEntity
  8
SUNPOU
100
AcDbCircle
 10
6429.758582955732
 20
1716.183932023017
 30
0.0
 40
5.625
100
AcDbArc
 50
270.0
 51
90.0
  0
ARC
  5
1AB8E
330
1A72B
100
AcDbEntity
  8
SUNPOU
100
AcDbCircle
 10
6429.758582955732
 20
2484.183932023016
 30
0.0
 40
5.625
100
AcDbArc
 50
270.0
 51
90.0
  0
ARC
  5
1AB8F
330
1A72B
100
AcDbEntity
  8
SUNPOU
100
AcDbCircle
 10
6429.758582955732
 20
2484.183932023016
 30
0.0
 40
5.625
100
AcDbArc
 50
90.0
 51
270.0
  0
ARC
  5
1AB90
330
1A72B
100
AcDbEntity
  8
SUNPOU
100
AcDbCircle
 10
8390.758701212579
 20
1379.183932023014
 30
0.0
 40
5.625
100
AcDbArc
 50
180.0
 51
0.0
  0
ARC
  5
1AB91
330
1A72B
100
AcDbEntity
  8
SUNPOU
100
AcDbCircle
 10
8390.758701212579
 20
1379.183932023014
 30
0.0
 40
5.625
100
AcDbArc
 50
0.0
 51
180.0
  0
ARC
  5
1AB92
330
1A72B
100
AcDbEntity
  8
SUNPOU
100
AcDbCircle
 10
7110.758701212581
 20
1379.183932023014
 30
0.0
 40
5.625
100
AcDbArc
 50
0.0
 51
180.0
  0
ARC
  5
1AB93
330
1A72B
100
AcDbEntity
  8
SUNPOU
100
AcDbCircle
 10
7110.758701212581
 20
1379.183932023014
 30
0.0
 40
5.625
100
AcDbArc
 50
180.0
 51
0.0
  0
ARC
  5
1AB94
330
1A72B
100
AcDbEntity
  8
SUNPOU
100
AcDbCircle
 10
8550.758701212577
 20
1169.183932023013
 30
0.0
 40
5.625
100
AcDbArc
 50
180.0
 51
0.0
  0
ARC
  5
1AB95
330
1A72B
100
AcDbEntity
  8
SUNPOU
100
AcDbCircle
 10
8550.758701212577
 20
1169.183932023013
 30
0.0
 40
5.625
100
AcDbArc
 50
0.0
 51
180.0
  0
ARC
  5
1AB96
330
1A72B
100
AcDbEntity
  8
SUNPOU
100
AcDbCircle
 10
6950.758701212581
 20
1169.183932023013
 30
0.0
 40
5.625
100
AcDbArc
 50
0.0
 51
180.0
  0
ARC
  5
1AB97
330
1A72B
100
AcDbEntity
  8
SUNPOU
100
AcDbCircle
 10
6950.758701212581
 20
1169.183932023013
 30
0.0
 40
5.625
100
AcDbArc
 50
180.0
 51
0.0
  0
ARC
  5
1AB98
330
1A72B
100
AcDbEntity
  8
SUNPOU
100
AcDbCircle
 10
4184.333914666385
 20
1379.183932023016
 30
0.0
 40
5.625
100
AcDbArc
 50
180.0
 51
0.0
  0
ARC
  5
1AB99
330
1A72B
100
AcDbEntity
  8
SUNPOU
100
AcDbCircle
 10
4184.333914666385
 20
1379.183932023016
 30
0.0
 40
5.625
100
AcDbArc
 50
0.0
 51
180.0
  0
ARC
  5
1AB9A
330
1A72B
100
AcDbEntity
  8
SUNPOU
100
AcDbCircle
 10
3224.333914666386
 20
1379.183932023016
 30
0.0
 40
5.625
100
AcDbArc
 50
0.0
 51
180.0
  0
ARC
  5
1AB9B
330
1A72B
100
AcDbEntity
  8
SUNPOU
100
AcDbCircle
 10
3224.333914666386
 20
1379.183932023016
 30
0.0
 40
5.625
100
AcDbArc
 50
180.0
 51
0.0
  0
ARC
  5
1AB9C
330
1A72B
100
AcDbEntity
  8
SUNPOU
100
AcDbCircle
 10
4344.333914666385
 20
1169.183932023016
 30
0.0
 40
5.625
100
AcDbArc
 50
180.0
 51
0.0
  0
ARC
  5
1AB9D
330
1A72B
100
AcDbEntity
  8
SUNPOU
100
AcDbCircle
 10
4344.333914666385
 20
1169.183932023016
 30
0.0
 40
5.625
100
AcDbArc
 50
0.0
 51
180.0
  0
ARC
  5
1AB9E
330
1A72B
100
AcDbEntity
  8
SUNPOU
100
AcDbCircle
 10
3064.333914666386
 20
1169.183932023016
 30
0.0
 40
5.625
100
AcDbArc
 50
0.0
 51
180.0
  0
ARC
  5
1AB9F
330
1A72B
100
AcDbEntity
  8
SUNPOU
100
AcDbCircle
 10
3064.333914666386
 20
1169.183932023016
 30
0.0
 40
5.625
100
AcDbArc
 50
180.0
 51
0.0
  0
ARC
  5
1ABA0
330
1A72B
100
AcDbEntity
  8
SUNPOU
100
AcDbCircle
 10
2743.333796409538
 20
1876.183932023018
 30
0.0
 40
5.625
100
AcDbArc
 50
90.0
 51
270.0
  0
ARC
  5
1ABA1
330
1A72B
100
AcDbEntity
  8
SUNPOU
100
AcDbCircle
 10
2743.333796409538
 20
1876.183932023018
 30
0.0
 40
5.625
100
AcDbArc
 50
270.0
 51
90.0
  0
ARC
  5
1ABA2
330
1A72B
100
AcDbEntity
  8
SUNPOU
100
AcDbCircle
 10
2743.333796409538
 20
2484.183932023019
 30
0.0
 40
5.625
100
AcDbArc
 50
270.0
 51
90.0
  0
ARC
  5
1ABA3
330
1A72B
100
AcDbEntity
  8
SUNPOU
100
AcDbCircle
 10
2743.333796409538
 20
2484.183932023019
 30
0.0
 40
5.625
100
AcDbArc
 50
90.0
 51
270.0
  0
ARC
  5
1ABA4
330
1A72B
100
AcDbEntity
  8
SUNPOU
100
AcDbCircle
 10
2743.333796409539
 20
1716.18393202302
 30
0.0
 40
5.625
100
AcDbArc
 50
90.0
 51
270.0
  0
ARC
  5
1ABA5
330
1A72B
100
AcDbEntity
  8
SUNPOU
100
AcDbCircle
 10
2743.333796409539
 20
1716.18393202302
 30
0.0
 40
5.625
100
AcDbArc
 50
270.0
 51
90.0
  0
ARC
  5
1ABA6
330
1A72B
100
AcDbEntity
  8
SUNPOU
100
AcDbCircle
 10
2743.333796409539
 20
1876.183932023019
 30
0.0
 40
5.625
100
AcDbArc
 50
270.0
 51
90.0
  0
ARC
  5
1ABA7
330
1A72B
100
AcDbEntity
  8
SUNPOU
100
AcDbCircle
 10
2743.333796409539
 20
1876.183932023019
 30
0.0
 40
5.625
100
AcDbArc
 50
90.0
 51
270.0
  0
ARC
  5
1ABA8
330
1A72B
100
AcDbEntity
  8
SUNPOU
100
AcDbCircle
 10
2543.333796409538
 20
1716.18393202302
 30
0.0
 40
5.625
100
AcDbArc
 50
90.0
 51
270.0
  0
ARC
  5
1ABA9
330
1A72B
100
AcDbEntity
  8
SUNPOU
100
AcDbCircle
 10
2543.333796409538
 20
1716.18393202302
 30
0.0
 40
5.625
100
AcDbArc
 50
270.0
 51
90.0
  0
ARC
  5
1ABAA
330
1A72B
100
AcDbEntity
  8
SUNPOU
100
AcDbCircle
 10
2543.333796409538
 20
2484.183932023019
 30
0.0
 40
5.625
100
AcDbArc
 50
270.0
 51
90.0
  0
ARC
  5
1ABAB
330
1A72B
100
AcDbEntity
  8
SUNPOU
100
AcDbCircle
 10
2543.333796409538
 20
2484.183932023019
 30
0.0
 40
5.625
100
AcDbArc
 50
90.0
 51
270.0
  0
ARC
  5
1ABAC
330
1A72B
100
AcDbEntity
  8
SUNPOU
100
AcDbCircle
 10
3064.333914666386
 20
3287.183932023017
 30
0.0
 40
5.625
100
AcDbArc
 50
0.0
 51
180.0
  0
ARC
  5
1ABAD
330
1A72B
100
AcDbEntity
  8
SUNPOU
100
AcDbCircle
 10
3064.333914666386
 20
3287.183932023017
 30
0.0
 40
5.625
100
AcDbArc
 50
180.0
 51
0.0
  0
ARC
  5
1ABAE
330
1A72B
100
AcDbEntity
  8
SUNPOU
100
AcDbCircle
 10
3704.333914666387
 20
3287.183932023017
 30
0.0
 40
5.625
100
AcDbArc
 50
180.0
 51
0.0
  0
ARC
  5
1ABAF
330
1A72B
100
AcDbEntity
  8
SUNPOU
100
AcDbCircle
 10
3704.333914666387
 20
3287.183932023017
 30
0.0
 40
5.625
100
AcDbArc
 50
0.0
 51
180.0
  0
ARC
  5
1ABB0
330
1A72B
100
AcDbEntity
  8
SUNPOU
100
AcDbCircle
 10
9434.21703198606
 20
5395.715360473253
 30
0.0
 40
5.625
100
AcDbArc
 50
90.0
 51
270.0
  0
ARC
  5
1ABB1
330
1A72B
100
AcDbEntity
  8
SUNPOU
100
AcDbCircle
 10
9434.21703198606
 20
5395.715360473253
 30
0.0
 40
5.625
100
AcDbArc
 50
270.0
 51
90.0
  0
ARC
  5
1ABB2
330
1A72B
100
AcDbEntity
  8
SUNPOU
100
AcDbCircle
 10
9434.21703198606
 20
5995.715360473255
 30
0.0
 40
5.625
100
AcDbArc
 50
270.0
 51
90.0
  0
ARC
  5
1ABB3
330
1A72B
100
AcDbEntity
  8
SUNPOU
100
AcDbCircle
 10
9434.21703198606
 20
5995.715360473255
 30
0.0
 40
5.625
100
AcDbArc
 50
90.0
 51
270.0
  0
ARC
  5
1ABB4
330
1A72B
100
AcDbEntity
  8
SUNPOU
100
AcDbCircle
 10
11684.21703198605
 20
10205.71536047325
 30
0.0
 40
5.625
100
AcDbArc
 50
180.0
 51
0.0
  0
ARC
  5
1ABB5
330
1A72B
100
AcDbEntity
  8
SUNPOU
100
AcDbCircle
 10
11684.21703198605
 20
10205.71536047325
 30
0.0
 40
5.625
100
AcDbArc
 50
0.0
 51
180.0
  0
ARC
  5
1ABB6
330
1A72B
100
AcDbEntity
  8
SUNPOU
100
AcDbCircle
 10
4684.21703198606
 20
10205.71536047325
 30
0.0
 40
5.625
100
AcDbArc
 50
0.0
 51
180.0
  0
ARC
  5
1ABB7
330
1A72B
100
AcDbEntity
  8
SUNPOU
100
AcDbCircle
 10
4684.21703198606
 20
10205.71536047325
 30
0.0
 40
5.625
100
AcDbArc
 50
180.0
 51
0.0
  0
ARC
  5
1ABB8
330
1A72B
100
AcDbEntity
  8
SUNPOU
100
AcDbCircle
 10
5084.21703198606
 20
9995.715360473253
 30
0.0
 40
5.625
100
AcDbArc
 50
0.0
 51
180.0
  0
ARC
  5
1ABB9
330
1A72B
100
AcDbEntity
  8
SUNPOU
100
AcDbCircle
 10
5084.21703198606
 20
9995.715360473253
 30
0.0
 40
5.625
100
AcDbArc
 50
180.0
 51
0.0
  0
ARC
  5
1ABBA
330
1A72B
100
AcDbEntity
  8
SUNPOU
100
AcDbCircle
 10
7534.217031986059
 20
9995.715360473253
 30
0.0
 40
5.625
100
AcDbArc
 50
180.0
 51
0.0
  0
ARC
  5
1ABBB
330
1A72B
100
AcDbEntity
  8
SUNPOU
100
AcDbCircle
 10
7534.217031986059
 20
9995.715360473253
 30
0.0
 40
5.625
100
AcDbArc
 50
0.0
 51
180.0
  0
ARC
  5
1ABBC
330
1A72B
100
AcDbEntity
  8
SUNPOU
100
AcDbCircle
 10
8834.21703198606
 20
9995.715360473253
 30
0.0
 40
5.625
100
AcDbArc
 50
0.0
 51
180.0
  0
ARC
  5
1ABBD
330
1A72B
100
AcDbEntity
  8
SUNPOU
100
AcDbCircle
 10
8834.21703198606
 20
9995.715360473253
 30
0.0
 40
5.625
100
AcDbArc
 50
180.0
 51
0.0
  0
ARC
  5
1ABBE
330
1A72B
100
AcDbEntity
  8
SUNPOU
100
AcDbCircle
 10
11284.21703198606
 20
9995.715360473253
 30
0.0
 40
5.625
100
AcDbArc
 50
180.0
 51
0.0
  0
ARC
  5
1ABBF
330
1A72B
100
AcDbEntity
  8
SUNPOU
100
AcDbCircle
 10
11284.21703198606
 20
9995.715360473253
 30
0.0
 40
5.625
100
AcDbArc
 50
0.0
 51
180.0
  0
ARC
  5
1ABC0
330
1A72B
100
AcDbEntity
  8
SUNPOU
100
AcDbCircle
 10
4684.21703198606
 20
9995.715360473253
 30
0.0
 40
5.625
100
AcDbArc
 50
0.0
 51
180.0
  0
ARC
  5
1ABC1
330
1A72B
100
AcDbEntity
  8
SUNPOU
100
AcDbCircle
 10
4684.21703198606
 20
9995.715360473253
 30
0.0
 40
5.625
100
AcDbArc
 50
180.0
 51
0.0
  0
ARC
  5
1ABC2
330
1A72B
100
AcDbEntity
  8
SUNPOU
100
AcDbCircle
 10
5084.21703198606
 20
9995.715360473253
 30
0.0
 40
5.625
100
AcDbArc
 50
180.0
 51
0.0
  0
ARC
  5
1ABC3
330
1A72B
100
AcDbEntity
  8
SUNPOU
100
AcDbCircle
 10
5084.21703198606
 20
9995.715360473253
 30
0.0
 40
5.625
100
AcDbArc
 50
0.0
 51
180.0
  0
ARC
  5
1ABC4
330
1A72B
100
AcDbEntity
  8
SUNPOU
100
AcDbCircle
 10
11684.21703198605
 20
9995.715360473253
 30
0.0
 40
5.625
100
AcDbArc
 50
180.0
 51
0.0
  0
ARC
  5
1ABC5
330
1A72B
100
AcDbEntity
  8
SUNPOU
100
AcDbCircle
 10
11684.21703198605
 20
9995.715360473253
 30
0.0
 40
5.625
100
AcDbArc
 50
0.0
 51
180.0
  0
ARC
  5
1ABC6
330
1A72B
100
AcDbEntity
  8
SUNPOU
100
AcDbCircle
 10
11284.21703198606
 20
9995.715360473253
 30
0.0
 40
5.625
100
AcDbArc
 50
0.0
 51
180.0
  0
ARC
  5
1ABC7
330
1A72B
100
AcDbEntity
  8
SUNPOU
100
AcDbCircle
 10
11284.21703198606
 20
9995.715360473253
 30
0.0
 40
5.625
100
AcDbArc
 50
180.0
 51
0.0
  0
ARC
  5
1ABC8
330
1A72B
100
AcDbEntity
  8
SUNPOU
100
AcDbCircle
 10
6934.21703198606
 20
8995.715360473253
 30
0.0
 40
5.625
100
AcDbArc
 50
90.0
 51
270.0
  0
ARC
  5
1ABC9
330
1A72B
100
AcDbEntity
  8
SUNPOU
100
AcDbCircle
 10
6934.21703198606
 20
8995.715360473253
 30
0.0
 40
5.625
100
AcDbArc
 50
270.0
 51
90.0
  0
ARC
  5
1ABCA
330
1A72B
100
AcDbEntity
  8
SUNPOU
100
AcDbCircle
 10
6934.21703198606
 20
9595.715360473253
 30
0.0
 40
5.625
100
AcDbArc
 50
270.0
 51
90.0
  0
ARC
  5
1ABCB
330
1A72B
100
AcDbEntity
  8
SUNPOU
100
AcDbCircle
 10
6934.21703198606
 20
9595.715360473253
 30
0.0
 40
5.625
100
AcDbArc
 50
90.0
 51
270.0
  0
ARC
  5
1ABCC
330
1A72B
100
AcDbEntity
  8
SUNPOU
100
AcDbCircle
 10
7834.21703198606
 20
8695.715360473251
 30
0.0
 40
5.625
100
AcDbArc
 50
180.0
 51
0.0
  0
ARC
  5
1ABCD
330
1A72B
100
AcDbEntity
  8
SUNPOU
100
AcDbCircle
 10
7834.21703198606
 20
8695.715360473251
 30
0.0
 40
5.625
100
AcDbArc
 50
0.0
 51
180.0
  0
ARC
  5
1ABCE
330
1A72B
100
AcDbEntity
  8
SUNPOU
100
AcDbCircle
 10
7234.21703198606
 20
8695.715360473251
 30
0.0
 40
5.625
100
AcDbArc
 50
0.0
 51
180.0
  0
ARC
  5
1ABCF
330
1A72B
100
AcDbEntity
  8
SUNPOU
100
AcDbCircle
 10
7234.21703198606
 20
8695.715360473251
 30
0.0
 40
5.625
100
AcDbArc
 50
180.0
 51
0.0
  0
ARC
  5
1ABD0
330
1A72B
100
AcDbEntity
  8
SUNPOU
100
AcDbCircle
 10
9134.217031986059
 20
6245.715360473253
 30
0.0
 40
5.625
100
AcDbArc
 50
180.0
 51
0.0
  0
ARC
  5
1ABD1
330
1A72B
100
AcDbEntity
  8
SUNPOU
100
AcDbCircle
 10
9134.217031986059
 20
6245.715360473253
 30
0.0
 40
5.625
100
AcDbArc
 50
0.0
 51
180.0
  0
ARC
  5
1ABD2
330
1A72B
100
AcDbEntity
  8
SUNPOU
100
AcDbCircle
 10
8534.217031986059
 20
6245.715360473253
 30
0.0
 40
5.625
100
AcDbArc
 50
0.0
 51
180.0
  0
ARC
  5
1ABD3
330
1A72B
100
AcDbEntity
  8
SUNPOU
100
AcDbCircle
 10
8534.217031986059
 20
6245.715360473253
 30
0.0
 40
5.625
100
AcDbArc
 50
180.0
 51
0.0
  0
ARC
  5
1ABD4
330
1A72B
100
AcDbEntity
  8
SUNPOU
100
AcDbCircle
 10
12084.21703198605
 20
7495.715360473251
 30
0.0
 40
5.625
100
AcDbArc
 50
90.0
 51
270.0
  0
ARC
  5
1ABD5
330
1A72B
100
AcDbEntity
  8
SUNPOU
100
AcDbCircle
 10
12084.21703198605
 20
7495.715360473251
 30
0.0
 40
5.625
100
AcDbArc
 50
270.0
 51
90.0
  0
ARC
  5
1ABD6
330
1A72B
100
AcDbEntity
  8
SUNPOU
100
AcDbCircle
 10
12084.21703198605
 20
9295.715360473252
 30
0.0
 40
5.625
100
AcDbArc
 50
270.0
 51
90.0
  0
ARC
  5
1ABD7
330
1A72B
100
AcDbEntity
  8
SUNPOU
100
AcDbCircle
 10
12084.21703198605
 20
9295.715360473252
 30
0.0
 40
5.625
100
AcDbArc
 50
90.0
 51
270.0
  0
ARC
  5
1ABD8
330
1A72B
100
AcDbEntity
  8
SUNPOU
100
AcDbCircle
 10
12084.21703198605
 20
5695.715360473253
 30
0.0
 40
5.625
100
AcDbArc
 50
90.0
 51
270.0
  0
ARC
  5
1ABD9
330
1A72B
100
AcDbEntity
  8
SUNPOU
100
AcDbCircle
 10
12084.21703198605
 20
5695.715360473253
 30
0.0
 40
5.625
100
AcDbArc
 50
270.0
 51
90.0
  0
ARC
  5
1ABDA
330
1A72B
100
AcDbEntity
  8
SUNPOU
100
AcDbCircle
 10
12084.21703198605
 20
7495.715360473251
 30
0.0
 40
5.625
100
AcDbArc
 50
270.0
 51
90.0
  0
ARC
  5
1ABDB
330
1A72B
100
AcDbEntity
  8
SUNPOU
100
AcDbCircle
 10
12084.21703198605
 20
7495.715360473251
 30
0.0
 40
5.625
100
AcDbArc
 50
90.0
 51
270.0
  0
ARC
  5
1ABDC
330
1A72B
100
AcDbEntity
  8
SUNPOU
100
AcDbCircle
 10
9234.217031986061
 20
8065.715360473253
 30
0.0
 40
5.625
100
AcDbArc
 50
180.0
 51
0.0
  0
ARC
  5
1ABDD
330
1A72B
100
AcDbEntity
  8
SUNPOU
100
AcDbCircle
 10
9234.217031986061
 20
8065.715360473253
 30
0.0
 40
5.625
100
AcDbArc
 50
0.0
 51
180.0
  0
ARC
  5
1ABDE
330
1A72B
100
AcDbEntity
  8
SUNPOU
100
AcDbCircle
 10
8434.21703198606
 20
8065.715360473253
 30
0.0
 40
5.625
100
AcDbArc
 50
0.0
 51
180.0
  0
ARC
  5
1ABDF
330
1A72B
100
AcDbEntity
  8
SUNPOU
100
AcDbCircle
 10
8434.21703198606
 20
8065.715360473253
 30
0.0
 40
5.625
100
AcDbArc
 50
180.0
 51
0.0
  0
ARC
  5
1ABE0
330
1A72B
100
AcDbEntity
  8
SUNPOU
100
AcDbCircle
 10
9434.21703198606
 20
7095.715360473253
 30
0.0
 40
5.625
100
AcDbArc
 50
90.0
 51
270.0
  0
ARC
  5
1ABE1
330
1A72B
100
AcDbEntity
  8
SUNPOU
100
AcDbCircle
 10
9434.21703198606
 20
7095.715360473253
 30
0.0
 40
5.625
100
AcDbArc
 50
270.0
 51
90.0
  0
ARC
  5
1ABE2
330
1A72B
100
AcDbEntity
  8
SUNPOU
100
AcDbCircle
 10
9434.21703198606
 20
7895.715360473253
 30
0.0
 40
5.625
100
AcDbArc
 50
270.0
 51
90.0
  0
ARC
  5
1ABE3
330
1A72B
100
AcDbEntity
  8
SUNPOU
100
AcDbCircle
 10
9434.21703198606
 20
7895.715360473253
 30
0.0
 40
5.625
100
AcDbArc
 50
90.0
 51
270.0
  0
ARC
  5
1ABE4
330
1A72B
100
AcDbEntity
  8
HIKIDASHI
100
AcDbCircle
 10
7034.163526321626
 20
2884.568660545874
 30
0.0
 40
74.66417910452284
100
AcDbArc
 50
164.8596129850915
 51
237.5045002941574
  0
ARC
  5
1ABE5
330
1A72B
100
AcDbEntity
  8
HIKIDASHI
100
AcDbCircle
 10
6970.739732275323
 20
2901.729684030359
 30
0.0
 40
8.959701492542745
100
AcDbArc
 50
15.14038701504827
 51
164.8596129849796
  0
ARC
  5
1ABE6
330
1A72B
100
AcDbEntity
  8
HIKIDASHI
100
AcDbCircle
 10
2907.738739775433
 20
2884.568660545875
 30
0.0
 40
74.66417910452284
100
AcDbArc
 50
164.859612985099
 51
237.5045002941329
  0
ARC
  5
1ABE7
330
1A72B
100
AcDbEntity
  8
HIKIDASHI
100
AcDbCircle
 10
2844.314945729129
 20
2901.72968403036
 30
0.0
 40
8.959701492542745
100
AcDbArc
 50
15.14038701504827
 51
164.8596129849796
  0
LINE
  5
1ABE8
330
1A72B
100
AcDbEntity
  8
HIKIDASHI
100
AcDbLine
 10
7373.188673061545
 20
2549.657897273409
 30
0.0
 11
7061.08797807352
 21
2994.183932023012
 31
0.0
1001
ACAD
1000
DSTYLE
1002
{
1070
   147
1040
1.0
1070
    77
1070
     0
1070
   144
1040
0.625
1002
}
  0
LINE
  5
1ABE9
330
1A72B
100
AcDbEntity
  8
HIKIDASHI
100
AcDbLine
 10
7362.276345519813
 20
2541.996377489465
 30
0.0
 11
7419.1577917652
 21
2484.183932023017
 31
0.0
  0
LINE
  5
1ABEA
330
1A72B
100
AcDbEntity
  8
HIKIDASHI
100
AcDbLine
 10
7419.1577917652
 20
2484.183932023017
 30
0.0
 11
7384.101000603277
 21
2557.319417057351
 31
0.0
  0
SOLID
  5
1ABEB
330
1A72B
100
AcDbEntity
  8
HIKIDASHI
100
AcDbTrace
 10
7362.276345519813
 20
2541.996377489465
 30
0.0
 11
7384.101000603277
 21
2557.319417057351
 31
0.0
 12
7419.1577917652
 22
2484.183932023017
 32
0.0
 13
7419.1577917652
 23
2484.183932023017
 33
0.0
  0
LINE
  5
1ABEC
330
1A72B
100
AcDbEntity
  8
HIKIDASHI
100
AcDbLine
 10
7384.101000603277
 20
2557.319417057351
 30
0.0
 11
7362.276345519813
 21
2541.996377489465
 31
0.0
  0
LINE
  5
1ABED
330
1A72B
100
AcDbEntity
  8
HIKIDASHI
100
AcDbLine
 10
7528.904070814292
 20
2046.34284855436
 30
0.0
 11
7047.682504043535
 21
2754.183932023012
 31
0.0
1001
ACAD
1000
DSTYLE
1002
{
1070
   147
1040
1.0
1070
    77
1070
     0
1070
   144
1040
0.625
1002
}
  0
LINE
  5
1ABEE
330
1A72B
100
AcDbEntity
  8
HIKIDASHI
100
AcDbLine
 10
7517.877584725734
 20
2038.846557316913
 30
0.0
 11
7573.881818238977
 21
1980.183932023017
 31
0.0
  0
LINE
  5
1ABEF
330
1A72B
100
AcDbEntity
  8
HIKIDASHI
100
AcDbLine
 10
7573.881818238977
 20
1980.183932023017
 30
0.0
 11
7539.93055690285
 21
2053.839139791807
 31
0.0
  0
SOLID
  5
1ABF0
330
1A72B
100
AcDbEntity
  8
HIKIDASHI
100
AcDbTrace
 10
7517.877584725734
 20
2038.846557316913
 30
0.0
 11
7539.93055690285
 21
2053.839139791807
 31
0.0
 12
7573.881818238977
 22
1980.183932023017
 32
0.0
 13
7573.881818238977
 23
1980.183932023017
 33
0.0
  0
LINE
  5
1ABF1
330
1A72B
100
AcDbEntity
  8
HIKIDASHI
100
AcDbLine
 10
7539.93055690285
 20
2053.839139791807
 30
0.0
 11
7517.877584725734
 21
2038.846557316913
 31
0.0
  0
ARC
  5
1ABF2
330
1A72B
100
AcDbEntity
  8
HIKIDASHI
100
AcDbCircle
 10
6908.495464764758
 20
2885.748787905465
 30
0.0
 40
74.66417910452253
100
AcDbArc
 50
301.7712278330703
 51
15.14038701490934
  0
LINE
  5
1ABF3
330
1A72B
100
AcDbEntity
  8
HIKIDASHI
100
AcDbLine
 10
6916.549902271178
 20
1707.8668657455
 30
0.0
 11
6725.592096228623
 21
1304.183932023017
 31
0.0
1001
ACAD
1000
DSTYLE
1002
{
1070
   147
1040
1.0
1070
    77
1070
     0
1070
   144
1040
0.625
1002
}
  0
LINE
  5
1ABF4
330
1A72B
100
AcDbEntity
  8
HIKIDASHI
100
AcDbLine
 10
6928.602746650764
 20
1702.165399255266
 30
0.0
 11
6950.758701212581
 21
1780.183932023017
 31
0.0
  0
LINE
  5
1ABF5
330
1A72B
100
AcDbEntity
  8
HIKIDASHI
100
AcDbLine
 10
6950.758701212581
 20
1780.183932023017
 30
0.0
 11
6904.497057891591
 21
1713.568332235734
 31
0.0
  0
SOLID
  5
1ABF6
330
1A72B
100
AcDbEntity
  8
HIKIDASHI
100
AcDbTrace
 10
6928.602746650764
 20
1702.165399255266
 30
0.0
 11
6904.497057891591
 21
1713.568332235734
 31
0.0
 12
6950.758701212581
 22
1780.183932023017
 32
0.0
 13
6950.758701212581
 23
1780.183932023017
 33
0.0
  0
LINE
  5
1ABF7
330
1A72B
100
AcDbEntity
  8
HIKIDASHI
100
AcDbLine
 10
6904.497057891591
 20
1713.568332235734
 30
0.0
 11
6928.602746650764
 21
1702.165399255266
 31
0.0
  0
LINE
  5
1ABF8
330
1A72B
100
AcDbEntity
  8
HIKIDASHI
100
AcDbLine
 10
8512.255537304527
 20
2235.555264269678
 30
0.0
 11
8604.261733917331
 21
1961.931554141242
 31
0.0
1001
ACAD
1000
DSTYLE
1002
{
1070
   147
1040
1.0
1070
    77
1070
     0
1070
   144
1040
0.625
1070
   173
1070
     0
1070
   341
1005
125B0
1002
}
  0
ARC
  5
1ABF9
330
1A72B
100
AcDbEntity
  8
HIKIDASHI
100
AcDbCircle
 10
8463.573051272508
 20
2317.583646062627
 30
0.0
 40
24.0
100
AcDbArc
 50
232.1425703309788
 51
345.0279508071377
  0
ARC
  5
1ABFA
330
1A72B
100
AcDbEntity
  8
HIKIDASHI
100
AcDbCircle
 10
8509.943545927438
 20
2305.182951507191
 30
0.0
 40
24.0
100
AcDbArc
 50
52.14257033097887
 51
165.0279508071375
  0
LINE
  5
1ABFB
330
1A72B
100
AcDbEntity
  8
HIKIDASHI
100
AcDbLine
 10
8486.758298599971
 20
2311.383298784909
 30
0.0
 11
8512.255537304531
 21
2235.555264269661
 31
0.0
  0
LINE
  5
1ABFC
330
1A72B
100
AcDbEntity
  8
HIKIDASHI
100
AcDbLine
 10
4305.830750758332
 20
2235.555264269682
 30
0.0
 11
4397.836947371135
 21
1961.931554141245
 31
0.0
1001
ACAD
1000
DSTYLE
1002
{
1070
   147
1040
1.0
1070
    77
1070
     0
1070
   144
1040
0.625
1070
   173
1070
     0
1070
   341
1005
125B0
1002
}
  0
ARC
  5
1ABFD
330
1A72B
100
AcDbEntity
  8
HIKIDASHI
100
AcDbCircle
 10
4257.148264726313
 20
2317.58364606263
 30
0.0
 40
24.0
100
AcDbArc
 50
232.1425703309794
 51
345.0279508071377
  0
ARC
  5
1ABFE
330
1A72B
100
AcDbEntity
  8
HIKIDASHI
100
AcDbCircle
 10
4303.51875938124
 20
2305.182951507194
 30
0.0
 40
24.0
100
AcDbArc
 50
52.14257033097939
 51
165.0279508071375
  0
LINE
  5
1ABFF
330
1A72B
100
AcDbEntity
  8
HIKIDASHI
100
AcDbLine
 10
4280.333512053776
 20
2311.383298784912
 30
0.0
 11
4305.830750758338
 21
2235.555264269664
 31
0.0
  0
LINE
  5
1AC00
330
1A72B
100
AcDbEntity
  8
HIKIDASHI
100
AcDbLine
 10
3030.125115724983
 20
1707.866865745504
 30
0.0
 11
2839.167309682428
 21
1304.183932023019
 31
0.0
1001
ACAD
1000
DSTYLE
1002
{
1070
   147
1040
1.0
1070
    77
1070
     0
1070
   144
1040
0.625
1002
}
  0
LINE
  5
1AC01
330
1A72B
100
AcDbEntity
  8
HIKIDASHI
100
AcDbLine
 10
3042.177960104569
 20
1702.165399255268
 30
0.0
 11
3064.333914666386
 21
1780.183932023019
 31
0.0
  0
LINE
  5
1AC02
330
1A72B
100
AcDbEntity
  8
HIKIDASHI
100
AcDbLine
 10
3064.333914666386
 20
1780.183932023019
 30
0.0
 11
3018.072271345396
 21
1713.568332235738
 31
0.0
  0
SOLID
  5
1AC03
330
1A72B
100
AcDbEntity
  8
HIKIDASHI
100
AcDbTrace
 10
3042.177960104569
 20
1702.165399255268
 30
0.0
 11
3018.072271345396
 21
1713.568332235738
 31
0.0
 12
3064.333914666386
 22
1780.183932023019
 32
0.0
 13
3064.333914666386
 23
1780.183932023019
 33
0.0
  0
LINE
  5
1AC04
330
1A72B
100
AcDbEntity
  8
HIKIDASHI
100
AcDbLine
 10
3018.072271345396
 20
1713.568332235738
 30
0.0
 11
3042.177960104569
 21
1702.165399255268
 31
0.0
  0
LINE
  5
1AC05
330
1A72B
100
AcDbEntity
  8
HIKIDASHI
100
AcDbLine
 10
3382.119677299271
 20
2541.104574300084
 30
0.0
 11
2934.663191527326
 21
2994.183932023015
 31
0.0
1001
ACAD
1000
DSTYLE
1002
{
1070
   147
1040
1.0
1070
    77
1070
     0
1070
   144
1040
0.625
1002
}
  0
LINE
  5
1AC06
330
1A72B
100
AcDbEntity
  8
HIKIDASHI
100
AcDbLine
 10
3372.632903586426
 20
2531.735534738897
 30
0.0
 11
3438.333914666386
 21
2484.183932023019
 31
0.0
  0
LINE
  5
1AC07
330
1A72B
100
AcDbEntity
  8
HIKIDASHI
100
AcDbLine
 10
3438.333914666386
 20
2484.183932023019
 30
0.0
 11
3391.606451012115
 21
2550.47361386127
 31
0.0
  0
SOLID
  5
1AC08
330
1A72B
100
AcDbEntity
  8
HIKIDASHI
100
AcDbTrace
 10
3372.632903586426
 20
2531.735534738897
 30
0.0
 11
3391.606451012115
 21
2550.47361386127
 31
0.0
 12
3438.333914666386
 22
2484.183932023019
 32
0.0
 13
3438.333914666386
 23
2484.183932023019
 33
0.0
  0
LINE
  5
1AC09
330
1A72B
100
AcDbEntity
  8
HIKIDASHI
100
AcDbLine
 10
3391.606451012115
 20
2550.47361386127
 30
0.0
 11
3372.632903586426
 21
2531.735534738897
 31
0.0
  0
LINE
  5
1AC0A
330
1A72B
100
AcDbEntity
  8
HIKIDASHI
100
AcDbLine
 10
3488.463040470064
 20
2042.737076683335
 30
0.0
 11
2921.257717497342
 21
2754.183932023015
 31
0.0
1001
ACAD
1000
DSTYLE
1002
{
1070
   147
1040
1.0
1070
    77
1070
     0
1070
   144
1040
0.625
1002
}
  0
LINE
  5
1AC0B
330
1A72B
100
AcDbEntity
  8
HIKIDASHI
100
AcDbLine
 10
3478.037516360011
 20
2034.425264317282
 30
0.0
 11
3538.333914666386
 21
1980.183932023019
 31
0.0
  0
LINE
  5
1AC0C
330
1A72B
100
AcDbEntity
  8
HIKIDASHI
100
AcDbLine
 10
3538.333914666386
 20
1980.183932023019
 30
0.0
 11
3498.888564580116
 21
2051.048889049389
 31
0.0
  0
SOLID
  5
1AC0D
330
1A72B
100
AcDbEntity
  8
HIKIDASHI
100
AcDbTrace
 10
3478.037516360011
 20
2034.425264317282
 30
0.0
 11
3498.888564580116
 21
2051.048889049389
 31
0.0
 12
3538.333914666386
 22
1980.183932023019
 32
0.0
 13
3538.333914666386
 23
1980.183932023019
 33
0.0
  0
LINE
  5
1AC0E
330
1A72B
100
AcDbEntity
  8
HIKIDASHI
100
AcDbLine
 10
3498.888564580116
 20
2051.048889049389
 30
0.0
 11
3478.037516360011
 21
2034.425264317282
 31
0.0
  0
ARC
  5
1AC0F
330
1A72B
100
AcDbEntity
  8
HIKIDASHI
100
AcDbCircle
 10
2782.07067821856
 20
2885.748787905466
 30
0.0
 40
74.66417910452276
100
AcDbArc
 50
301.7712278330706
 51
15.14038701490924
  0
LINE
  5
1AC10
330
1A72B
100
AcDbEntity
  8
KISO
100
AcDbLine
 10
8550.758701212577
 20
1876.183932023014
 30
0.0
 11
8550.758701212577
 21
1876.183932023014
 31
0.0
  0
LINE
  5
1AC11
330
1A72B
100
AcDbEntity
  8
KISO
100
AcDbLine
 10
8550.758701212577
 20
1876.183932023014
 30
0.0
 11
6950.758701212581
 21
1876.183932023014
 31
0.0
  0
LINE
  5
1AC12
330
1A72B
100
AcDbEntity
  8
TEKKIN
100
AcDbLine
 10
7698.75870121258
 20
1980.183932023015
 30
0.0
 11
7470.758701212581
 21
1980.183932023015
 31
0.0
  0
LINE
  5
1AC13
330
1A72B
100
AcDbEntity
  8
TEKKIN
100
AcDbLine
 10
7470.758701212581
 20
1980.183932023015
 30
0.0
 11
7470.758701212581
 21
1964.183932023016
 31
0.0
  0
LINE
  5
1AC14
330
1A72B
100
AcDbEntity
  8
TEKKIN
100
AcDbLine
 10
7470.758701212581
 20
1964.183932023016
 30
0.0
 11
7698.75870121258
 21
1964.183932023016
 31
0.0
  0
LINE
  5
1AC15
330
1A72B
100
AcDbEntity
  8
TEKKIN
100
AcDbLine
 10
7802.758701212581
 20
1964.183932023016
 30
0.0
 11
8030.758701212581
 21
1964.183932023016
 31
0.0
  0
LINE
  5
1AC16
330
1A72B
100
AcDbEntity
  8
TEKKIN
100
AcDbLine
 10
8030.758701212581
 20
1964.183932023016
 30
0.0
 11
8030.758701212581
 21
1980.183932023015
 31
0.0
  0
LINE
  5
1AC17
330
1A72B
100
AcDbEntity
  8
TEKKIN
100
AcDbLine
 10
8030.758701212581
 20
1980.183932023015
 30
0.0
 11
7802.758701212581
 21
1980.183932023015
 31
0.0
  0
LINE
  5
1AC18
330
1A72B
100
AcDbEntity
  8
KISO
100
AcDbLine
 10
4344.333914666385
 20
1876.183932023018
 30
0.0
 11
4344.333914666385
 21
1876.183932023018
 31
0.0
  0
LINE
  5
1AC19
330
1A72B
100
AcDbEntity
  8
KISO
100
AcDbLine
 10
4344.333914666385
 20
1876.183932023018
 30
0.0
 11
3064.333914666386
 21
1876.183932023019
 31
0.0
  0
LINE
  5
1AC1A
330
1A72B
100
AcDbEntity
  8
TEKKIN
100
AcDbLine
 10
3652.333914666386
 20
1980.183932023019
 30
0.0
 11
3424.333914666386
 21
1980.183932023019
 31
0.0
  0
LINE
  5
1AC1B
330
1A72B
100
AcDbEntity
  8
TEKKIN
100
AcDbLine
 10
3424.333914666386
 20
1980.183932023019
 30
0.0
 11
3424.333914666386
 21
1964.183932023018
 31
0.0
  0
LINE
  5
1AC1C
330
1A72B
100
AcDbEntity
  8
TEKKIN
100
AcDbLine
 10
3424.333914666386
 20
1964.183932023018
 30
0.0
 11
3652.333914666386
 21
1964.183932023018
 31
0.0
  0
LINE
  5
1AC1D
330
1A72B
100
AcDbEntity
  8
TEKKIN
100
AcDbLine
 10
3756.333914666386
 20
1964.183932023018
 30
0.0
 11
3984.333914666386
 21
1964.183932023018
 31
0.0
  0
LINE
  5
1AC1E
330
1A72B
100
AcDbEntity
  8
TEKKIN
100
AcDbLine
 10
3984.333914666386
 20
1964.183932023018
 30
0.0
 11
3984.333914666386
 21
1980.183932023019
 31
0.0
  0
LINE
  5
1AC1F
330
1A72B
100
AcDbEntity
  8
TEKKIN
100
AcDbLine
 10
3984.333914666386
 20
1980.183932023019
 30
0.0
 11
3756.333914666386
 21
1980.183932023019
 31
0.0
  0
LINE
  5
1AC20
330
1A72B
100
AcDbEntity
  8
DOMAKON
100
AcDbLine
 10
8244.217031986062
 20
5395.715360473253
 30
0.0
 11
11684.21703198605
 21
5395.715360473253
 31
0.0
  0
LINE
  5
1AC21
330
1A72B
100
AcDbEntity
  8
DOMAKON
100
AcDbLine
 10
11684.21703198605
 20
5395.715360473253
 30
0.0
 11
11684.21703198605
 21
9595.715360473253
 31
0.0
  0
LINE
  5
1AC22
330
1A72B
100
AcDbEntity
  8
DOMAKON
100
AcDbLine
 10
11684.21703198605
 20
9595.715360473253
 30
0.0
 11
8244.217031986062
 21
9595.715360473253
 31
0.0
  0
LINE
  5
1AC23
330
1A72B
100
AcDbEntity
  8
DOMAKON
100
AcDbLine
 10
8124.217031986061
 20
9595.715360473253
 30
0.0
 11
4684.21703198606
 21
9595.715360473253
 31
0.0
  0
LINE
  5
1AC24
330
1A72B
100
AcDbEntity
  8
DOMAKON
100
AcDbLine
 10
4684.21703198606
 20
9595.715360473253
 30
0.0
 11
4684.21703198606
 21
5395.715360473253
 31
0.0
  0
LINE
  5
1AC25
330
1A72B
100
AcDbEntity
  8
DOMAKON
100
AcDbLine
 10
4684.21703198606
 20
5395.715360473253
 30
0.0
 11
8124.217031986061
 21
5395.715360473253
 31
0.0
  0
LINE
  5
1AC26
330
1A72B
100
AcDbEntity
  8
KISO
100
AcDbLine
 10
4684.21703198606
 20
7095.715360473253
 30
0.0
 11
5484.21703198606
 21
7095.715360473253
 31
0.0
  0
LINE
  5
1AC27
330
1A72B
100
AcDbEntity
  8
KISO
100
AcDbLine
 10
5484.21703198606
 20
7095.715360473253
 30
0.0
 11
5484.21703198606
 21
7895.715360473253
 31
0.0
  0
LINE
  5
1AC28
330
1A72B
100
AcDbEntity
  8
KISO
100
AcDbLine
 10
5484.21703198606
 20
7895.715360473253
 30
0.0
 11
4684.21703198606
 21
7895.715360473253
 31
0.0
  0
LINE
  5
1AC29
330
1A72B
100
AcDbEntity
  8
KISO
100
AcDbLine
 10
4684.21703198606
 20
7895.715360473253
 30
0.0
 11
4684.21703198606
 21
7095.715360473253
 31
0.0
  0
LINE
  5
1AC2A
330
1A72B
100
AcDbEntity
  8
KISO
100
AcDbLine
 10
10884.21703198606
 20
7095.715360473253
 30
0.0
 11
11684.21703198605
 21
7095.715360473253
 31
0.0
  0
LINE
  5
1AC2B
330
1A72B
100
AcDbEntity
  8
KISO
100
AcDbLine
 10
11684.21703198605
 20
7095.715360473253
 30
0.0
 11
11684.21703198605
 21
7895.715360473253
 31
0.0
  0
LINE
  5
1AC2C
330
1A72B
100
AcDbEntity
  8
KISO
100
AcDbLine
 10
11684.21703198605
 20
7895.715360473253
 30
0.0
 11
10884.21703198606
 21
7895.715360473253
 31
0.0
  0
LINE
  5
1AC2D
330
1A72B
100
AcDbEntity
  8
KISO
100
AcDbLine
 10
10884.21703198606
 20
7895.715360473253
 30
0.0
 11
10884.21703198606
 21
7095.715360473253
 31
0.0
  0
LINE
  5
1AC2E
330
1A72B
100
AcDbEntity
  8
KISO
100
AcDbLine
 10
8434.21703198606
 20
7095.715360473253
 30
0.0
 11
9234.217031986061
 21
7095.715360473253
 31
0.0
  0
LINE
  5
1AC2F
330
1A72B
100
AcDbEntity
  8
KISO
100
AcDbLine
 10
9234.217031986061
 20
7095.715360473253
 30
0.0
 11
9234.217031986061
 21
7895.715360473253
 31
0.0
  0
LINE
  5
1AC30
330
1A72B
100
AcDbEntity
  8
KISO
100
AcDbLine
 10
9234.217031986061
 20
7895.715360473253
 30
0.0
 11
8434.21703198606
 21
7895.715360473253
 31
0.0
  0
LINE
  5
1AC31
330
1A72B
100
AcDbEntity
  8
KISO
100
AcDbLine
 10
8434.21703198606
 20
7895.715360473253
 30
0.0
 11
8434.21703198606
 21
7095.715360473253
 31
0.0
  0
LINE
  5
1AC32
330
1A72B
100
AcDbEntity
  8
U1
100
AcDbLine
 10
8840.417031986062
 20
7525.915360473252
 30
0.0
 11
8808.017031986059
 21
7525.915360473252
 31
0.0
  0
LINE
  5
1AC33
330
1A72B
100
AcDbEntity
  8
U1
100
AcDbLine
 10
8808.017031986059
 20
7465.515360473251
 30
0.0
 11
8860.41703198606
 21
7465.515360473251
 31
0.0
  0
ARC
  5
1AC34
330
1A72B
100
AcDbEntity
  8
U1
100
AcDbCircle
 10
8808.017031986059
 20
7469.515360473251
 30
0.0
 40
4.0
100
AcDbArc
 50
180.0
 51
270.0
  0
ARC
  5
1AC35
330
1A72B
100
AcDbEntity
  8
U1
100
AcDbCircle
 10
8808.017031986059
 20
7521.915360473252
 30
0.0
 40
4.0
100
AcDbArc
 50
90.0
 51
180.0
  0
LINE
  5
1AC36
330
1A72B
100
AcDbEntity
  8
U1
100
AcDbLine
 10
8804.017031986061
 20
7521.915360473252
 30
0.0
 11
8804.017031986061
 21
7469.515360473251
 31
0.0
  0
ARC
  5
1AC37
330
1A72B
100
AcDbEntity
  8
U1
100
AcDbCircle
 10
8860.41703198606
 20
7469.515360473251
 30
0.0
 40
4.0
100
AcDbArc
 50
270.0
 51
0.0
  0
ARC
  5
1AC38
330
1A72B
100
AcDbEntity
  8
U1
100
AcDbCircle
 10
8840.417031986062
 20
7521.915360473252
 30
0.0
 40
4.0
100
AcDbArc
 50
0.0
 51
90.0
  0
ARC
  5
1AC39
330
1A72B
100
AcDbEntity
  8
U1
100
AcDbCircle
 10
8847.86703198606
 20
7512.665360473251
 30
0.0
 40
1.149999999999977
100
AcDbArc
 50
180.0
 51
0.0
  0
LINE
  5
1AC3A
330
1A72B
100
AcDbEntity
  8
U1
100
AcDbLine
 10
8851.317031986061
 20
7520.215360473253
 30
0.0
 11
8851.317031986061
 21
7512.665360473251
 31
0.0
  0
LINE
  5
1AC3B
330
1A72B
100
AcDbEntity
  8
U1
100
AcDbLine
 10
8849.017031986059
 20
7520.215360473253
 30
0.0
 11
8851.317031986061
 21
7520.215360473253
 31
0.0
  0
LINE
  5
1AC3C
330
1A72B
100
AcDbEntity
  8
U1
100
AcDbLine
 10
8846.717031986059
 20
7513.215360473253
 30
0.0
 11
8849.017031986059
 21
7513.215360473253
 31
0.0
  0
ARC
  5
1AC3D
330
1A72B
100
AcDbEntity
  8
U1
100
AcDbCircle
 10
8847.86703198606
 20
7512.665360473251
 30
0.0
 40
3.450000000000044
100
AcDbArc
 50
180.0
 51
0.0
  0
LINE
  5
1AC3E
330
1A72B
100
AcDbEntity
  8
U1
100
AcDbLine
 10
8846.717031986059
 20
7512.665360473251
 30
0.0
 11
8846.717031986059
 21
7521.915360473252
 31
0.0
  0
LINE
  5
1AC3F
330
1A72B
100
AcDbEntity
  8
U1
100
AcDbLine
 10
8849.017031986059
 20
7521.915360473252
 30
0.0
 11
8849.017031986059
 21
7512.665360473251
 31
0.0
  0
LINE
  5
1AC40
330
1A72B
100
AcDbEntity
  8
U1
100
AcDbLine
 10
8844.417031986059
 20
7512.665360473251
 30
0.0
 11
8844.417031986059
 21
7521.915360473252
 31
0.0
  0
ARC
  5
1AC41
330
1A72B
100
AcDbEntity
  8
U1
100
AcDbCircle
 10
8860.41703198606
 20
7521.915360473252
 30
0.0
 40
4.0
100
AcDbArc
 50
0.0
 51
90.0
  0
LINE
  5
1AC42
330
1A72B
100
AcDbEntity
  8
U1
100
AcDbLine
 10
8860.41703198606
 20
7525.915360473252
 30
0.0
 11
8853.017031986059
 21
7525.915360473252
 31
0.0
  0
ARC
  5
1AC43
330
1A72B
100
AcDbEntity
  8
U1
100
AcDbCircle
 10
8853.017031986059
 20
7521.915360473252
 30
0.0
 40
4.0
100
AcDbArc
 50
90.0
 51
180.0
  0
LINE
  5
1AC44
330
1A72B
100
AcDbEntity
  8
U1
100
AcDbLine
 10
8864.417031986061
 20
7469.515360473251
 30
0.0
 11
8864.417031986061
 21
7521.915360473252
 31
0.0
  0
LINE
  5
1AC45
330
1A72B
100
AcDbEntity
  8
KISO
100
AcDbLine
 10
7134.21703198606
 20
7095.715360473253
 30
0.0
 11
7934.21703198606
 21
7095.715360473253
 31
0.0
  0
LINE
  5
1AC46
330
1A72B
100
AcDbEntity
  8
KISO
100
AcDbLine
 10
7934.21703198606
 20
7095.715360473253
 30
0.0
 11
7934.21703198606
 21
7895.715360473253
 31
0.0
  0
LINE
  5
1AC47
330
1A72B
100
AcDbEntity
  8
KISO
100
AcDbLine
 10
7934.21703198606
 20
7895.715360473253
 30
0.0
 11
7134.21703198606
 21
7895.715360473253
 31
0.0
  0
LINE
  5
1AC48
330
1A72B
100
AcDbEntity
  8
KISO
100
AcDbLine
 10
7134.21703198606
 20
7895.715360473253
 30
0.0
 11
7134.21703198606
 21
7095.715360473253
 31
0.0
  0
LINE
  5
1AC49
330
1A72B
100
AcDbEntity
  8
YANE
  6
2PL-L
 62
     6
100
AcDbLine
 10
11680.21703198605
 20
5315.715360473252
 30
0.0
 11
4688.217031986058
 21
5315.715360473252
 31
0.0
  0
LINE
  5
1AC4A
330
1A72B
100
AcDbEntity
  8
YANE
  6
2PL-L
 62
     6
100
AcDbLine
 10
4688.217031986058
 20
5315.715360473252
 30
0.0
 11
4688.217031986058
 21
9675.715360473253
 31
0.0
  0
LINE
  5
1AC4B
330
1A72B
100
AcDbEntity
  8
YANE
  6
2PL-L
 62
     6
100
AcDbLine
 10
4688.217031986058
 20
9675.715360473253
 30
0.0
 11
11680.21703198605
 21
9675.715360473253
 31
0.0
  0
LINE
  5
1AC4C
330
1A72B
100
AcDbEntity
  8
YANE
  6
2PL-L
 62
     6
100
AcDbLine
 10
11680.21703198605
 20
9675.715360473253
 30
0.0
 11
11680.21703198605
 21
5315.715360473252
 31
0.0
  0
LINE
  5
1AC4D
330
1A72B
100
AcDbEntity
  8
KISO
100
AcDbLine
 10
9134.217031986059
 20
8995.715360473253
 30
0.0
 11
8534.217031986059
 21
8995.715360473253
 31
0.0
  0
LINE
  5
1AC4E
330
1A72B
100
AcDbEntity
  8
KISO
100
AcDbLine
 10
8534.217031986059
 20
8995.715360473253
 30
0.0
 11
8534.217031986059
 21
9595.715360473253
 31
0.0
  0
LINE
  5
1AC4F
330
1A72B
100
AcDbEntity
  8
KISO
100
AcDbLine
 10
8534.217031986059
 20
9595.715360473253
 30
0.0
 11
9134.217031986059
 21
9595.715360473253
 31
0.0
  0
LINE
  5
1AC50
330
1A72B
100
AcDbEntity
  8
KISO
100
AcDbLine
 10
9134.217031986059
 20
9595.715360473253
 30
0.0
 11
9134.217031986059
 21
8995.715360473253
 31
0.0
  0
LINE
  5
1AC51
330
1A72B
100
AcDbEntity
  8
KISO
100
AcDbLine
 10
7234.21703198606
 20
5395.715360473253
 30
0.0
 11
7834.21703198606
 21
5395.715360473253
 31
0.0
  0
LINE
  5
1AC52
330
1A72B
100
AcDbEntity
  8
KISO
100
AcDbLine
 10
7834.21703198606
 20
5395.715360473253
 30
0.0
 11
7834.21703198606
 21
5995.715360473253
 31
0.0
  0
LINE
  5
1AC53
330
1A72B
100
AcDbEntity
  8
KISO
100
AcDbLine
 10
7834.21703198606
 20
5995.715360473253
 30
0.0
 11
7234.21703198606
 21
5995.715360473253
 31
0.0
  0
LINE
  5
1AC54
330
1A72B
100
AcDbEntity
  8
KISO
100
AcDbLine
 10
7234.21703198606
 20
5995.715360473253
 30
0.0
 11
7234.21703198606
 21
5395.715360473253
 31
0.0
  0
LINE
  5
1AC55
330
1A72B
100
AcDbEntity
  8
KISO
100
AcDbLine
 10
4784.217031986058
 20
5395.715360473253
 30
0.0
 11
5384.21703198606
 21
5395.715360473253
 31
0.0
  0
LINE
  5
1AC56
330
1A72B
100
AcDbEntity
  8
KISO
100
AcDbLine
 10
5384.21703198606
 20
5395.715360473253
 30
0.0
 11
5384.21703198606
 21
5995.715360473253
 31
0.0
  0
LINE
  5
1AC57
330
1A72B
100
AcDbEntity
  8
KISO
100
AcDbLine
 10
5384.21703198606
 20
5995.715360473253
 30
0.0
 11
4784.217031986058
 21
5995.715360473253
 31
0.0
  0
LINE
  5
1AC58
330
1A72B
100
AcDbEntity
  8
KISO
100
AcDbLine
 10
4784.217031986058
 20
5995.715360473253
 30
0.0
 11
4784.217031986058
 21
5395.715360473253
 31
0.0
  0
LINE
  5
1AC59
330
1A72B
100
AcDbEntity
  8
KISO
100
AcDbLine
 10
4784.217031986058
 20
8995.715360473253
 30
0.0
 11
5384.21703198606
 21
8995.715360473253
 31
0.0
  0
LINE
  5
1AC5A
330
1A72B
100
AcDbEntity
  8
KISO
100
AcDbLine
 10
5384.21703198606
 20
8995.715360473253
 30
0.0
 11
5384.21703198606
 21
9595.715360473253
 31
0.0
  0
LINE
  5
1AC5B
330
1A72B
100
AcDbEntity
  8
KISO
100
AcDbLine
 10
5384.21703198606
 20
9595.715360473253
 30
0.0
 11
4784.217031986058
 21
9595.715360473253
 31
0.0
  0
LINE
  5
1AC5C
330
1A72B
100
AcDbEntity
  8
KISO
100
AcDbLine
 10
4784.217031986058
 20
9595.715360473253
 30
0.0
 11
4784.217031986058
 21
8995.715360473253
 31
0.0
  0
LINE
  5
1AC5D
330
1A72B
100
AcDbEntity
  8
KISO
100
AcDbLine
 10
11584.21703198605
 20
8995.715360473253
 30
0.0
 11
10984.21703198606
 21
8995.715360473253
 31
0.0
  0
LINE
  5
1AC5E
330
1A72B
100
AcDbEntity
  8
KISO
100
AcDbLine
 10
10984.21703198606
 20
8995.715360473253
 30
0.0
 11
10984.21703198606
 21
9595.715360473253
 31
0.0
  0
LINE
  5
1AC5F
330
1A72B
100
AcDbEntity
  8
KISO
100
AcDbLine
 10
10984.21703198606
 20
9595.715360473253
 30
0.0
 11
11584.21703198605
 21
9595.715360473253
 31
0.0
  0
LINE
  5
1AC60
330
1A72B
100
AcDbEntity
  8
KISO
100
AcDbLine
 10
11584.21703198605
 20
9595.715360473253
 30
0.0
 11
11584.21703198605
 21
8995.715360473253
 31
0.0
  0
LINE
  5
1AC61
330
1A72B
100
AcDbEntity
  8
KISO
100
AcDbLine
 10
11584.21703198605
 20
5395.715360473253
 30
0.0
 11
10984.21703198606
 21
5395.715360473253
 31
0.0
  0
LINE
  5
1AC62
330
1A72B
100
AcDbEntity
  8
KISO
100
AcDbLine
 10
10984.21703198606
 20
5395.715360473253
 30
0.0
 11
10984.21703198606
 21
5995.715360473253
 31
0.0
  0
LINE
  5
1AC63
330
1A72B
100
AcDbEntity
  8
KISO
100
AcDbLine
 10
10984.21703198606
 20
5995.715360473253
 30
0.0
 11
11584.21703198605
 21
5995.715360473253
 31
0.0
  0
LINE
  5
1AC64
330
1A72B
100
AcDbEntity
  8
KISO
100
AcDbLine
 10
11584.21703198605
 20
5995.715360473253
 30
0.0
 11
11584.21703198605
 21
5395.715360473253
 31
0.0
  0
LINE
  5
1AC65
330
1A72B
100
AcDbEntity
  8
KISO
100
AcDbLine
 10
9134.217031986059
 20
5395.715360473253
 30
0.0
 11
8534.217031986059
 21
5395.715360473253
 31
0.0
  0
LINE
  5
1AC66
330
1A72B
100
AcDbEntity
  8
KISO
100
AcDbLine
 10
8534.217031986059
 20
5395.715360473253
 30
0.0
 11
8534.217031986059
 21
5995.715360473253
 31
0.0
  0
LINE
  5
1AC67
330
1A72B
100
AcDbEntity
  8
KISO
100
AcDbLine
 10
8534.217031986059
 20
5995.715360473253
 30
0.0
 11
9134.217031986059
 21
5995.715360473253
 31
0.0
  0
LINE
  5
1AC68
330
1A72B
100
AcDbEntity
  8
KISO
100
AcDbLine
 10
9134.217031986059
 20
5995.715360473253
 30
0.0
 11
9134.217031986059
 21
5395.715360473253
 31
0.0
  0
LINE
  5
1AC69
330
1A72B
100
AcDbEntity
  8
KISO
100
AcDbLine
 10
7834.21703198606
 20
8995.715360473253
 30
0.0
 11
7234.21703198606
 21
8995.715360473253
 31
0.0
  0
LINE
  5
1AC6A
330
1A72B
100
AcDbEntity
  8
KISO
100
AcDbLine
 10
7234.21703198606
 20
8995.715360473253
 30
0.0
 11
7234.21703198606
 21
9595.715360473253
 31
0.0
  0
LINE
  5
1AC6B
330
1A72B
100
AcDbEntity
  8
KISO
100
AcDbLine
 10
7234.21703198606
 20
9595.715360473253
 30
0.0
 11
7834.21703198606
 21
9595.715360473253
 31
0.0
  0
LINE
  5
1AC6C
330
1A72B
100
AcDbEntity
  8
KISO
100
AcDbLine
 10
7834.21703198606
 20
9595.715360473253
 30
0.0
 11
7834.21703198606
 21
8995.715360473253
 31
0.0
  0
LINE
  5
1AC6D
330
1A72B
100
AcDbEntity
  8
U1
100
AcDbLine
 10
11290.41703198606
 20
9265.515360473251
 30
0.0
 11
11258.01703198606
 21
9265.515360473251
 31
0.0
  0
LINE
  5
1AC6E
330
1A72B
100
AcDbEntity
  8
U1
100
AcDbLine
 10
11258.01703198606
 20
9325.915360473253
 30
0.0
 11
11310.41703198606
 21
9325.915360473253
 31
0.0
  0
ARC
  5
1AC6F
330
1A72B
100
AcDbEntity
  8
U1
100
AcDbCircle
 10
11258.01703198606
 20
9321.915360473253
 30
0.0
 40
4.0
100
AcDbArc
 50
90.0
 51
180.0
  0
ARC
  5
1AC70
330
1A72B
100
AcDbEntity
  8
U1
100
AcDbCircle
 10
11258.01703198606
 20
9269.515360473251
 30
0.0
 40
4.0
100
AcDbArc
 50
180.0
 51
270.0
  0
LINE
  5
1AC71
330
1A72B
100
AcDbEntity
  8
U1
100
AcDbLine
 10
11254.01703198605
 20
9269.515360473251
 30
0.0
 11
11254.01703198605
 21
9321.915360473253
 31
0.0
  0
ARC
  5
1AC72
330
1A72B
100
AcDbEntity
  8
U1
100
AcDbCircle
 10
11310.41703198606
 20
9321.915360473253
 30
0.0
 40
4.0
100
AcDbArc
 50
0.0
 51
90.0
  0
ARC
  5
1AC73
330
1A72B
100
AcDbEntity
  8
U1
100
AcDbCircle
 10
11290.41703198606
 20
9269.515360473251
 30
0.0
 40
4.0
100
AcDbArc
 50
270.0
 51
0.0
  0
ARC
  5
1AC74
330
1A72B
100
AcDbEntity
  8
U1
100
AcDbCircle
 10
11297.86703198605
 20
9278.765360473251
 30
0.0
 40
1.149999999999977
100
AcDbArc
 50
0.0
 51
180.0
  0
LINE
  5
1AC75
330
1A72B
100
AcDbEntity
  8
U1
100
AcDbLine
 10
11301.31703198606
 20
9271.215360473252
 30
0.0
 11
11301.31703198606
 21
9278.765360473251
 31
0.0
  0
LINE
  5
1AC76
330
1A72B
100
AcDbEntity
  8
U1
100
AcDbLine
 10
11299.01703198606
 20
9271.215360473252
 30
0.0
 11
11301.31703198606
 21
9271.215360473252
 31
0.0
  0
LINE
  5
1AC77
330
1A72B
100
AcDbEntity
  8
U1
100
AcDbLine
 10
11296.71703198606
 20
9278.215360473252
 30
0.0
 11
11299.01703198606
 21
9278.215360473252
 31
0.0
  0
ARC
  5
1AC78
330
1A72B
100
AcDbEntity
  8
U1
100
AcDbCircle
 10
11297.86703198605
 20
9278.765360473251
 30
0.0
 40
3.450000000000044
100
AcDbArc
 50
0.0
 51
180.0
  0
LINE
  5
1AC79
330
1A72B
100
AcDbEntity
  8
U1
100
AcDbLine
 10
11296.71703198606
 20
9278.765360473251
 30
0.0
 11
11296.71703198606
 21
9269.515360473251
 31
0.0
  0
LINE
  5
1AC7A
330
1A72B
100
AcDbEntity
  8
U1
100
AcDbLine
 10
11299.01703198606
 20
9269.515360473251
 30
0.0
 11
11299.01703198606
 21
9278.765360473251
 31
0.0
  0
LINE
  5
1AC7B
330
1A72B
100
AcDbEntity
  8
U1
100
AcDbLine
 10
11294.41703198606
 20
9278.765360473251
 30
0.0
 11
11294.41703198606
 21
9269.515360473251
 31
0.0
  0
ARC
  5
1AC7C
330
1A72B
100
AcDbEntity
  8
U1
100
AcDbCircle
 10
11310.41703198606
 20
9269.515360473251
 30
0.0
 40
4.0
100
AcDbArc
 50
270.0
 51
0.0
  0
LINE
  5
1AC7D
330
1A72B
100
AcDbEntity
  8
U1
100
AcDbLine
 10
11310.41703198606
 20
9265.515360473251
 30
0.0
 11
11303.01703198606
 21
9265.515360473251
 31
0.0
  0
ARC
  5
1AC7E
330
1A72B
100
AcDbEntity
  8
U1
100
AcDbCircle
 10
11303.01703198606
 20
9269.515360473251
 30
0.0
 40
4.0
100
AcDbArc
 50
180.0
 51
270.0
  0
LINE
  5
1AC7F
330
1A72B
100
AcDbEntity
  8
U1
100
AcDbLine
 10
11314.41703198606
 20
9321.915360473253
 30
0.0
 11
11314.41703198606
 21
9269.515360473251
 31
0.0
  0
LINE
  5
1AC80
330
1A72B
100
AcDbEntity
  8
U1
100
AcDbLine
 10
8840.417031986062
 20
9265.515360473251
 30
0.0
 11
8808.017031986059
 21
9265.515360473251
 31
0.0
  0
LINE
  5
1AC81
330
1A72B
100
AcDbEntity
  8
U1
100
AcDbLine
 10
8808.017031986061
 20
9325.915360473253
 30
0.0
 11
8860.41703198606
 21
9325.915360473253
 31
0.0
  0
ARC
  5
1AC82
330
1A72B
100
AcDbEntity
  8
U1
100
AcDbCircle
 10
8808.017031986061
 20
9321.915360473253
 30
0.0
 40
4.0
100
AcDbArc
 50
90.0
 51
180.0
  0
ARC
  5
1AC83
330
1A72B
100
AcDbEntity
  8
U1
100
AcDbCircle
 10
8808.017031986059
 20
9269.515360473251
 30
0.0
 40
4.0
100
AcDbArc
 50
180.0
 51
270.0
  0
LINE
  5
1AC84
330
1A72B
100
AcDbEntity
  8
U1
100
AcDbLine
 10
8804.017031986061
 20
9269.515360473251
 30
0.0
 11
8804.017031986061
 21
9321.915360473253
 31
0.0
  0
ARC
  5
1AC85
330
1A72B
100
AcDbEntity
  8
U1
100
AcDbCircle
 10
8860.41703198606
 20
9321.915360473253
 30
0.0
 40
4.0
100
AcDbArc
 50
0.0
 51
90.0
  0
ARC
  5
1AC86
330
1A72B
100
AcDbEntity
  8
U1
100
AcDbCircle
 10
8840.417031986062
 20
9269.515360473251
 30
0.0
 40
4.0
100
AcDbArc
 50
270.0
 51
0.0
  0
ARC
  5
1AC87
330
1A72B
100
AcDbEntity
  8
U1
100
AcDbCircle
 10
8847.86703198606
 20
9278.765360473251
 30
0.0
 40
1.149999999999977
100
AcDbArc
 50
0.0
 51
180.0
  0
LINE
  5
1AC88
330
1A72B
100
AcDbEntity
  8
U1
100
AcDbLine
 10
8851.317031986061
 20
9271.215360473252
 30
0.0
 11
8851.317031986061
 21
9278.765360473251
 31
0.0
  0
LINE
  5
1AC89
330
1A72B
100
AcDbEntity
  8
U1
100
AcDbLine
 10
8849.017031986059
 20
9271.215360473252
 30
0.0
 11
8851.317031986061
 21
9271.215360473252
 31
0.0
  0
LINE
  5
1AC8A
330
1A72B
100
AcDbEntity
  8
U1
100
AcDbLine
 10
8846.717031986059
 20
9278.215360473252
 30
0.0
 11
8849.017031986059
 21
9278.215360473252
 31
0.0
  0
ARC
  5
1AC8B
330
1A72B
100
AcDbEntity
  8
U1
100
AcDbCircle
 10
8847.86703198606
 20
9278.765360473251
 30
0.0
 40
3.450000000000044
100
AcDbArc
 50
0.0
 51
180.0
  0
LINE
  5
1AC8C
330
1A72B
100
AcDbEntity
  8
U1
100
AcDbLine
 10
8846.717031986059
 20
9278.765360473251
 30
0.0
 11
8846.717031986059
 21
9269.515360473251
 31
0.0
  0
LINE
  5
1AC8D
330
1A72B
100
AcDbEntity
  8
U1
100
AcDbLine
 10
8849.017031986059
 20
9269.515360473251
 30
0.0
 11
8849.017031986059
 21
9278.765360473251
 31
0.0
  0
LINE
  5
1AC8E
330
1A72B
100
AcDbEntity
  8
U1
100
AcDbLine
 10
8844.417031986059
 20
9278.765360473251
 30
0.0
 11
8844.417031986059
 21
9269.515360473251
 31
0.0
  0
ARC
  5
1AC8F
330
1A72B
100
AcDbEntity
  8
U1
100
AcDbCircle
 10
8860.417031986058
 20
9269.515360473251
 30
0.0
 40
4.0
100
AcDbArc
 50
270.0
 51
0.0
  0
LINE
  5
1AC90
330
1A72B
100
AcDbEntity
  8
U1
100
AcDbLine
 10
8860.417031986058
 20
9265.515360473251
 30
0.0
 11
8853.017031986059
 21
9265.515360473251
 31
0.0
  0
ARC
  5
1AC91
330
1A72B
100
AcDbEntity
  8
U1
100
AcDbCircle
 10
8853.017031986059
 20
9269.515360473251
 30
0.0
 40
4.0
100
AcDbArc
 50
180.0
 51
270.0
  0
LINE
  5
1AC92
330
1A72B
100
AcDbEntity
  8
U1
100
AcDbLine
 10
8864.417031986061
 20
9321.915360473253
 30
0.0
 11
8864.417031986059
 21
9269.515360473251
 31
0.0
  0
LINE
  5
1AC93
330
1A72B
100
AcDbEntity
  8
U1
100
AcDbLine
 10
7540.417031986061
 20
9265.515360473251
 30
0.0
 11
7508.017031986061
 21
9265.515360473251
 31
0.0
  0
LINE
  5
1AC94
330
1A72B
100
AcDbEntity
  8
U1
100
AcDbLine
 10
7508.017031986061
 20
9325.915360473253
 30
0.0
 11
7560.41703198606
 21
9325.915360473253
 31
0.0
  0
ARC
  5
1AC95
330
1A72B
100
AcDbEntity
  8
U1
100
AcDbCircle
 10
7508.017031986061
 20
9321.915360473253
 30
0.0
 40
4.0
100
AcDbArc
 50
90.0
 51
180.0
  0
ARC
  5
1AC96
330
1A72B
100
AcDbEntity
  8
U1
100
AcDbCircle
 10
7508.017031986061
 20
9269.515360473251
 30
0.0
 40
4.0
100
AcDbArc
 50
180.0
 51
270.0
  0
LINE
  5
1AC97
330
1A72B
100
AcDbEntity
  8
U1
100
AcDbLine
 10
7504.017031986061
 20
9269.515360473251
 30
0.0
 11
7504.017031986061
 21
9321.915360473253
 31
0.0
  0
ARC
  5
1AC98
330
1A72B
100
AcDbEntity
  8
U1
100
AcDbCircle
 10
7560.41703198606
 20
9321.915360473253
 30
0.0
 40
4.0
100
AcDbArc
 50
0.0
 51
90.0
  0
ARC
  5
1AC99
330
1A72B
100
AcDbEntity
  8
U1
100
AcDbCircle
 10
7540.417031986061
 20
9269.515360473251
 30
0.0
 40
4.0
100
AcDbArc
 50
270.0
 51
0.0
  0
ARC
  5
1AC9A
330
1A72B
100
AcDbEntity
  8
U1
100
AcDbCircle
 10
7547.867031986061
 20
9278.765360473251
 30
0.0
 40
1.149999999999977
100
AcDbArc
 50
0.0
 51
180.0
  0
LINE
  5
1AC9B
330
1A72B
100
AcDbEntity
  8
U1
100
AcDbLine
 10
7551.31703198606
 20
9271.215360473252
 30
0.0
 11
7551.31703198606
 21
9278.765360473251
 31
0.0
  0
LINE
  5
1AC9C
330
1A72B
100
AcDbEntity
  8
U1
100
AcDbLine
 10
7549.01703198606
 20
9271.215360473252
 30
0.0
 11
7551.31703198606
 21
9271.215360473252
 31
0.0
  0
LINE
  5
1AC9D
330
1A72B
100
AcDbEntity
  8
U1
100
AcDbLine
 10
7546.717031986061
 20
9278.215360473252
 30
0.0
 11
7549.01703198606
 21
9278.215360473252
 31
0.0
  0
ARC
  5
1AC9E
330
1A72B
100
AcDbEntity
  8
U1
100
AcDbCircle
 10
7547.867031986061
 20
9278.765360473251
 30
0.0
 40
3.450000000000044
100
AcDbArc
 50
0.0
 51
180.0
  0
LINE
  5
1AC9F
330
1A72B
100
AcDbEntity
  8
U1
100
AcDbLine
 10
7546.717031986061
 20
9278.765360473251
 30
0.0
 11
7546.71703198606
 21
9269.515360473251
 31
0.0
  0
LINE
  5
1ACA0
330
1A72B
100
AcDbEntity
  8
U1
100
AcDbLine
 10
7549.01703198606
 20
9269.515360473251
 30
0.0
 11
7549.01703198606
 21
9278.765360473251
 31
0.0
  0
LINE
  5
1ACA1
330
1A72B
100
AcDbEntity
  8
U1
100
AcDbLine
 10
7544.417031986061
 20
9278.765360473251
 30
0.0
 11
7544.417031986061
 21
9269.515360473251
 31
0.0
  0
ARC
  5
1ACA2
330
1A72B
100
AcDbEntity
  8
U1
100
AcDbCircle
 10
7560.41703198606
 20
9269.515360473251
 30
0.0
 40
4.0
100
AcDbArc
 50
270.0
 51
0.0
  0
LINE
  5
1ACA3
330
1A72B
100
AcDbEntity
  8
U1
100
AcDbLine
 10
7560.41703198606
 20
9265.515360473251
 30
0.0
 11
7553.017031986062
 21
9265.515360473251
 31
0.0
  0
ARC
  5
1ACA4
330
1A72B
100
AcDbEntity
  8
U1
100
AcDbCircle
 10
7553.017031986062
 20
9269.515360473251
 30
0.0
 40
4.0
100
AcDbArc
 50
180.0
 51
270.0
  0
LINE
  5
1ACA5
330
1A72B
100
AcDbEntity
  8
U1
100
AcDbLine
 10
7564.417031986059
 20
9321.915360473253
 30
0.0
 11
7564.417031986059
 21
9269.515360473251
 31
0.0
  0
LINE
  5
1ACA6
330
1A72B
100
AcDbEntity
  8
U1
100
AcDbLine
 10
5078.017031986059
 20
9265.515360473251
 30
0.0
 11
5110.41703198606
 21
9265.515360473251
 31
0.0
  0
LINE
  5
1ACA7
330
1A72B
100
AcDbEntity
  8
U1
100
AcDbLine
 10
5110.41703198606
 20
9325.915360473253
 30
0.0
 11
5058.017031986059
 21
9325.915360473253
 31
0.0
  0
ARC
  5
1ACA8
330
1A72B
100
AcDbEntity
  8
U1
100
AcDbCircle
 10
5110.41703198606
 20
9321.915360473253
 30
0.0
 40
4.0
100
AcDbArc
 50
0.0
 51
90.0
  0
ARC
  5
1ACA9
330
1A72B
100
AcDbEntity
  8
U1
100
AcDbCircle
 10
5110.41703198606
 20
9269.515360473251
 30
0.0
 40
4.0
100
AcDbArc
 50
270.0
 51
0.0
  0
LINE
  5
1ACAA
330
1A72B
100
AcDbEntity
  8
U1
100
AcDbLine
 10
5114.417031986061
 20
9269.515360473251
 30
0.0
 11
5114.417031986061
 21
9321.915360473253
 31
0.0
  0
ARC
  5
1ACAB
330
1A72B
100
AcDbEntity
  8
U1
100
AcDbCircle
 10
5058.017031986059
 20
9321.915360473253
 30
0.0
 40
4.0
100
AcDbArc
 50
90.0
 51
180.0
  0
ARC
  5
1ACAC
330
1A72B
100
AcDbEntity
  8
U1
100
AcDbCircle
 10
5078.017031986059
 20
9269.515360473251
 30
0.0
 40
4.0
100
AcDbArc
 50
180.0
 51
270.0
  0
ARC
  5
1ACAD
330
1A72B
100
AcDbEntity
  8
U1
100
AcDbCircle
 10
5070.567031986059
 20
9278.765360473251
 30
0.0
 40
1.149999999999977
100
AcDbArc
 50
0.0
 51
180.0
  0
LINE
  5
1ACAE
330
1A72B
100
AcDbEntity
  8
U1
100
AcDbLine
 10
5067.117031986059
 20
9271.215360473252
 30
0.0
 11
5067.117031986059
 21
9278.765360473251
 31
0.0
  0
LINE
  5
1ACAF
330
1A72B
100
AcDbEntity
  8
U1
100
AcDbLine
 10
5069.417031986057
 20
9271.215360473252
 30
0.0
 11
5067.117031986059
 21
9271.215360473252
 31
0.0
  0
LINE
  5
1ACB0
330
1A72B
100
AcDbEntity
  8
U1
100
AcDbLine
 10
5071.717031986057
 20
9278.215360473252
 30
0.0
 11
5069.417031986057
 21
9278.215360473252
 31
0.0
  0
ARC
  5
1ACB1
330
1A72B
100
AcDbEntity
  8
U1
100
AcDbCircle
 10
5070.567031986059
 20
9278.765360473251
 30
0.0
 40
3.450000000000044
100
AcDbArc
 50
0.0
 51
180.0
  0
LINE
  5
1ACB2
330
1A72B
100
AcDbEntity
  8
U1
100
AcDbLine
 10
5071.717031986057
 20
9278.765360473251
 30
0.0
 11
5071.71703198606
 21
9269.515360473251
 31
0.0
  0
LINE
  5
1ACB3
330
1A72B
100
AcDbEntity
  8
U1
100
AcDbLine
 10
5069.417031986057
 20
9269.515360473251
 30
0.0
 11
5069.417031986057
 21
9278.765360473251
 31
0.0
  0
LINE
  5
1ACB4
330
1A72B
100
AcDbEntity
  8
U1
100
AcDbLine
 10
5074.017031986059
 20
9278.765360473251
 30
0.0
 11
5074.017031986059
 21
9269.515360473251
 31
0.0
  0
ARC
  5
1ACB5
330
1A72B
100
AcDbEntity
  8
U1
100
AcDbCircle
 10
5058.01703198606
 20
9269.515360473251
 30
0.0
 40
4.0
100
AcDbArc
 50
180.0
 51
270.0
  0
LINE
  5
1ACB6
330
1A72B
100
AcDbEntity
  8
U1
100
AcDbLine
 10
5058.01703198606
 20
9265.515360473251
 30
0.0
 11
5065.41703198606
 21
9265.515360473251
 31
0.0
  0
ARC
  5
1ACB7
330
1A72B
100
AcDbEntity
  8
U1
100
AcDbCircle
 10
5065.41703198606
 20
9269.515360473251
 30
0.0
 40
4.0
100
AcDbArc
 50
270.0
 51
0.0
  0
LINE
  5
1ACB8
330
1A72B
100
AcDbEntity
  8
U1
100
AcDbLine
 10
5054.01703198606
 20
9321.915360473253
 30
0.0
 11
5054.01703198606
 21
9269.515360473251
 31
0.0
  0
LINE
  5
1ACB9
330
1A72B
100
AcDbEntity
  8
U1
100
AcDbLine
 10
7540.417031986061
 20
5725.915360473253
 30
0.0
 11
7508.017031986061
 21
5725.915360473253
 31
0.0
  0
LINE
  5
1ACBA
330
1A72B
100
AcDbEntity
  8
U1
100
AcDbLine
 10
7508.017031986061
 20
5665.515360473253
 30
0.0
 11
7560.41703198606
 21
5665.515360473253
 31
0.0
  0
ARC
  5
1ACBB
330
1A72B
100
AcDbEntity
  8
U1
100
AcDbCircle
 10
7508.017031986061
 20
5669.515360473252
 30
0.0
 40
4.0
100
AcDbArc
 50
180.0
 51
270.0
  0
ARC
  5
1ACBC
330
1A72B
100
AcDbEntity
  8
U1
100
AcDbCircle
 10
7508.017031986061
 20
5721.915360473253
 30
0.0
 40
4.0
100
AcDbArc
 50
90.0
 51
180.0
  0
LINE
  5
1ACBD
330
1A72B
100
AcDbEntity
  8
U1
100
AcDbLine
 10
7504.017031986061
 20
5721.915360473253
 30
0.0
 11
7504.017031986061
 21
5669.515360473252
 31
0.0
  0
ARC
  5
1ACBE
330
1A72B
100
AcDbEntity
  8
U1
100
AcDbCircle
 10
7560.41703198606
 20
5669.515360473252
 30
0.0
 40
4.0
100
AcDbArc
 50
270.0
 51
0.0
  0
ARC
  5
1ACBF
330
1A72B
100
AcDbEntity
  8
U1
100
AcDbCircle
 10
7540.417031986061
 20
5721.915360473253
 30
0.0
 40
4.0
100
AcDbArc
 50
0.0
 51
90.0
  0
ARC
  5
1ACC0
330
1A72B
100
AcDbEntity
  8
U1
100
AcDbCircle
 10
7547.867031986061
 20
5712.665360473253
 30
0.0
 40
1.149999999999977
100
AcDbArc
 50
180.0
 51
0.0
  0
LINE
  5
1ACC1
330
1A72B
100
AcDbEntity
  8
U1
100
AcDbLine
 10
7551.31703198606
 20
5720.215360473253
 30
0.0
 11
7551.31703198606
 21
5712.665360473253
 31
0.0
  0
LINE
  5
1ACC2
330
1A72B
100
AcDbEntity
  8
U1
100
AcDbLine
 10
7549.01703198606
 20
5720.215360473253
 30
0.0
 11
7551.31703198606
 21
5720.215360473253
 31
0.0
  0
LINE
  5
1ACC3
330
1A72B
100
AcDbEntity
  8
U1
100
AcDbLine
 10
7546.717031986061
 20
5713.215360473252
 30
0.0
 11
7549.01703198606
 21
5713.215360473252
 31
0.0
  0
ARC
  5
1ACC4
330
1A72B
100
AcDbEntity
  8
U1
100
AcDbCircle
 10
7547.867031986061
 20
5712.665360473253
 30
0.0
 40
3.450000000000044
100
AcDbArc
 50
180.0
 51
0.0
  0
LINE
  5
1ACC5
330
1A72B
100
AcDbEntity
  8
U1
100
AcDbLine
 10
7546.717031986061
 20
5712.665360473253
 30
0.0
 11
7546.71703198606
 21
5721.915360473252
 31
0.0
  0
LINE
  5
1ACC6
330
1A72B
100
AcDbEntity
  8
U1
100
AcDbLine
 10
7549.01703198606
 20
5721.915360473253
 30
0.0
 11
7549.01703198606
 21
5712.665360473253
 31
0.0
  0
LINE
  5
1ACC7
330
1A72B
100
AcDbEntity
  8
U1
100
AcDbLine
 10
7544.417031986061
 20
5712.665360473253
 30
0.0
 11
7544.417031986061
 21
5721.915360473253
 31
0.0
  0
ARC
  5
1ACC8
330
1A72B
100
AcDbEntity
  8
U1
100
AcDbCircle
 10
7560.41703198606
 20
5721.915360473253
 30
0.0
 40
4.0
100
AcDbArc
 50
0.0
 51
90.0
  0
LINE
  5
1ACC9
330
1A72B
100
AcDbEntity
  8
U1
100
AcDbLine
 10
7560.41703198606
 20
5725.915360473253
 30
0.0
 11
7553.017031986062
 21
5725.915360473253
 31
0.0
  0
ARC
  5
1ACCA
330
1A72B
100
AcDbEntity
  8
U1
100
AcDbCircle
 10
7553.017031986062
 20
5721.915360473253
 30
0.0
 40
4.0
100
AcDbArc
 50
90.0
 51
180.0
  0
LINE
  5
1ACCB
330
1A72B
100
AcDbEntity
  8
U1
100
AcDbLine
 10
7564.417031986059
 20
5669.515360473252
 30
0.0
 11
7564.417031986059
 21
5721.915360473253
 31
0.0
  0
LINE
  5
1ACCC
330
1A72B
100
AcDbEntity
  8
U1
100
AcDbLine
 10
5078.017031986059
 20
5725.915360473253
 30
0.0
 11
5110.41703198606
 21
5725.915360473253
 31
0.0
  0
LINE
  5
1ACCD
330
1A72B
100
AcDbEntity
  8
U1
100
AcDbLine
 10
5110.41703198606
 20
5665.515360473253
 30
0.0
 11
5058.017031986059
 21
5665.515360473253
 31
0.0
  0
ARC
  5
1ACCE
330
1A72B
100
AcDbEntity
  8
U1
100
AcDbCircle
 10
5110.41703198606
 20
5669.515360473252
 30
0.0
 40
4.0
100
AcDbArc
 50
270.0
 51
0.0
  0
ARC
  5
1ACCF
330
1A72B
100
AcDbEntity
  8
U1
100
AcDbCircle
 10
5110.41703198606
 20
5721.915360473253
 30
0.0
 40
4.0
100
AcDbArc
 50
0.0
 51
90.0
  0
LINE
  5
1ACD0
330
1A72B
100
AcDbEntity
  8
U1
100
AcDbLine
 10
5114.417031986061
 20
5721.915360473253
 30
0.0
 11
5114.417031986061
 21
5669.515360473252
 31
0.0
  0
ARC
  5
1ACD1
330
1A72B
100
AcDbEntity
  8
U1
100
AcDbCircle
 10
5058.017031986059
 20
5669.515360473252
 30
0.0
 40
4.0
100
AcDbArc
 50
180.0
 51
270.0
  0
ARC
  5
1ACD2
330
1A72B
100
AcDbEntity
  8
U1
100
AcDbCircle
 10
5078.017031986059
 20
5721.915360473253
 30
0.0
 40
4.0
100
AcDbArc
 50
90.0
 51
180.0
  0
ARC
  5
1ACD3
330
1A72B
100
AcDbEntity
  8
U1
100
AcDbCircle
 10
5070.567031986059
 20
5712.665360473253
 30
0.0
 40
1.149999999999977
100
AcDbArc
 50
180.0
 51
0.0
  0
LINE
  5
1ACD4
330
1A72B
100
AcDbEntity
  8
U1
100
AcDbLine
 10
5067.117031986059
 20
5720.215360473253
 30
0.0
 11
5067.117031986059
 21
5712.665360473253
 31
0.0
  0
LINE
  5
1ACD5
330
1A72B
100
AcDbEntity
  8
U1
100
AcDbLine
 10
5069.417031986057
 20
5720.215360473253
 30
0.0
 11
5067.117031986059
 21
5720.215360473253
 31
0.0
  0
LINE
  5
1ACD6
330
1A72B
100
AcDbEntity
  8
U1
100
AcDbLine
 10
5071.717031986057
 20
5713.215360473252
 30
0.0
 11
5069.417031986057
 21
5713.215360473252
 31
0.0
  0
ARC
  5
1ACD7
330
1A72B
100
AcDbEntity
  8
U1
100
AcDbCircle
 10
5070.567031986059
 20
5712.665360473253
 30
0.0
 40
3.450000000000044
100
AcDbArc
 50
180.0
 51
0.0
  0
LINE
  5
1ACD8
330
1A72B
100
AcDbEntity
  8
U1
100
AcDbLine
 10
5071.717031986057
 20
5712.665360473253
 30
0.0
 11
5071.71703198606
 21
5721.915360473252
 31
0.0
  0
LINE
  5
1ACD9
330
1A72B
100
AcDbEntity
  8
U1
100
AcDbLine
 10
5069.417031986057
 20
5721.915360473253
 30
0.0
 11
5069.417031986057
 21
5712.665360473253
 31
0.0
  0
LINE
  5
1ACDA
330
1A72B
100
AcDbEntity
  8
U1
100
AcDbLine
 10
5074.017031986059
 20
5712.665360473253
 30
0.0
 11
5074.017031986059
 21
5721.915360473253
 31
0.0
  0
ARC
  5
1ACDB
330
1A72B
100
AcDbEntity
  8
U1
100
AcDbCircle
 10
5058.01703198606
 20
5721.915360473253
 30
0.0
 40
4.0
100
AcDbArc
 50
90.0
 51
180.0
  0
LINE
  5
1ACDC
330
1A72B
100
AcDbEntity
  8
U1
100
AcDbLine
 10
5058.01703198606
 20
5725.915360473253
 30
0.0
 11
5065.41703198606
 21
5725.915360473253
 31
0.0
  0
ARC
  5
1ACDD
330
1A72B
100
AcDbEntity
  8
U1
100
AcDbCircle
 10
5065.41703198606
 20
5721.915360473253
 30
0.0
 40
4.0
100
AcDbArc
 50
0.0
 51
90.0
  0
LINE
  5
1ACDE
330
1A72B
100
AcDbEntity
  8
U1
100
AcDbLine
 10
5054.01703198606
 20
5669.515360473252
 30
0.0
 11
5054.01703198606
 21
5721.915360473253
 31
0.0
  0
LINE
  5
1ACDF
330
1A72B
100
AcDbEntity
  8
U1
100
AcDbLine
 10
8840.417031986062
 20
5725.915360473253
 30
0.0
 11
8808.017031986059
 21
5725.915360473253
 31
0.0
  0
LINE
  5
1ACE0
330
1A72B
100
AcDbEntity
  8
U1
100
AcDbLine
 10
8808.017031986059
 20
5665.515360473253
 30
0.0
 11
8860.41703198606
 21
5665.515360473253
 31
0.0
  0
ARC
  5
1ACE1
330
1A72B
100
AcDbEntity
  8
U1
100
AcDbCircle
 10
8808.017031986059
 20
5669.515360473252
 30
0.0
 40
4.0
100
AcDbArc
 50
180.0
 51
270.0
  0
ARC
  5
1ACE2
330
1A72B
100
AcDbEntity
  8
U1
100
AcDbCircle
 10
8808.017031986059
 20
5721.915360473253
 30
0.0
 40
4.0
100
AcDbArc
 50
90.0
 51
180.0
  0
LINE
  5
1ACE3
330
1A72B
100
AcDbEntity
  8
U1
100
AcDbLine
 10
8804.017031986061
 20
5721.915360473253
 30
0.0
 11
8804.017031986061
 21
5669.515360473252
 31
0.0
  0
ARC
  5
1ACE4
330
1A72B
100
AcDbEntity
  8
U1
100
AcDbCircle
 10
8860.41703198606
 20
5669.515360473252
 30
0.0
 40
4.0
100
AcDbArc
 50
270.0
 51
0.0
  0
ARC
  5
1ACE5
330
1A72B
100
AcDbEntity
  8
U1
100
AcDbCircle
 10
8840.417031986062
 20
5721.915360473253
 30
0.0
 40
4.0
100
AcDbArc
 50
0.0
 51
90.0
  0
ARC
  5
1ACE6
330
1A72B
100
AcDbEntity
  8
U1
100
AcDbCircle
 10
8847.86703198606
 20
5712.665360473253
 30
0.0
 40
1.149999999999977
100
AcDbArc
 50
180.0
 51
0.0
  0
LINE
  5
1ACE7
330
1A72B
100
AcDbEntity
  8
U1
100
AcDbLine
 10
8851.317031986061
 20
5720.215360473253
 30
0.0
 11
8851.317031986061
 21
5712.665360473253
 31
0.0
  0
LINE
  5
1ACE8
330
1A72B
100
AcDbEntity
  8
U1
100
AcDbLine
 10
8849.017031986059
 20
5720.215360473253
 30
0.0
 11
8851.317031986061
 21
5720.215360473253
 31
0.0
  0
LINE
  5
1ACE9
330
1A72B
100
AcDbEntity
  8
U1
100
AcDbLine
 10
8846.717031986059
 20
5713.215360473252
 30
0.0
 11
8849.017031986059
 21
5713.215360473252
 31
0.0
  0
ARC
  5
1ACEA
330
1A72B
100
AcDbEntity
  8
U1
100
AcDbCircle
 10
8847.86703198606
 20
5712.665360473253
 30
0.0
 40
3.450000000000044
100
AcDbArc
 50
180.0
 51
0.0
  0
LINE
  5
1ACEB
330
1A72B
100
AcDbEntity
  8
U1
100
AcDbLine
 10
8846.717031986059
 20
5712.665360473253
 30
0.0
 11
8846.717031986059
 21
5721.915360473252
 31
0.0
  0
LINE
  5
1ACEC
330
1A72B
100
AcDbEntity
  8
U1
100
AcDbLine
 10
8849.017031986059
 20
5721.915360473253
 30
0.0
 11
8849.017031986059
 21
5712.665360473253
 31
0.0
  0
LINE
  5
1ACED
330
1A72B
100
AcDbEntity
  8
U1
100
AcDbLine
 10
8844.417031986059
 20
5712.665360473253
 30
0.0
 11
8844.417031986059
 21
5721.915360473253
 31
0.0
  0
ARC
  5
1ACEE
330
1A72B
100
AcDbEntity
  8
U1
100
AcDbCircle
 10
8860.41703198606
 20
5721.915360473253
 30
0.0
 40
4.0
100
AcDbArc
 50
0.0
 51
90.0
  0
LINE
  5
1ACEF
330
1A72B
100
AcDbEntity
  8
U1
100
AcDbLine
 10
8860.41703198606
 20
5725.915360473253
 30
0.0
 11
8853.017031986059
 21
5725.915360473253
 31
0.0
  0
ARC
  5
1ACF0
330
1A72B
100
AcDbEntity
  8
U1
100
AcDbCircle
 10
8853.017031986059
 20
5721.915360473253
 30
0.0
 40
4.0
100
AcDbArc
 50
90.0
 51
180.0
  0
LINE
  5
1ACF1
330
1A72B
100
AcDbEntity
  8
U1
100
AcDbLine
 10
8864.417031986061
 20
5669.515360473252
 30
0.0
 11
8864.417031986061
 21
5721.915360473253
 31
0.0
  0
LINE
  5
1ACF2
330
1A72B
100
AcDbEntity
  8
U1
100
AcDbLine
 10
11290.41703198606
 20
5725.915360473253
 30
0.0
 11
11258.01703198606
 21
5725.915360473253
 31
0.0
  0
LINE
  5
1ACF3
330
1A72B
100
AcDbEntity
  8
U1
100
AcDbLine
 10
11258.01703198606
 20
5665.515360473253
 30
0.0
 11
11310.41703198606
 21
5665.515360473253
 31
0.0
  0
ARC
  5
1ACF4
330
1A72B
100
AcDbEntity
  8
U1
100
AcDbCircle
 10
11258.01703198606
 20
5669.515360473252
 30
0.0
 40
4.0
100
AcDbArc
 50
180.0
 51
270.0
  0
ARC
  5
1ACF5
330
1A72B
100
AcDbEntity
  8
U1
100
AcDbCircle
 10
11258.01703198606
 20
5721.915360473253
 30
0.0
 40
4.0
100
AcDbArc
 50
90.0
 51
180.0
  0
LINE
  5
1ACF6
330
1A72B
100
AcDbEntity
  8
U1
100
AcDbLine
 10
11254.01703198605
 20
5721.915360473253
 30
0.0
 11
11254.01703198605
 21
5669.515360473252
 31
0.0
  0
ARC
  5
1ACF7
330
1A72B
100
AcDbEntity
  8
U1
100
AcDbCircle
 10
11310.41703198606
 20
5669.515360473252
 30
0.0
 40
4.0
100
AcDbArc
 50
270.0
 51
0.0
  0
ARC
  5
1ACF8
330
1A72B
100
AcDbEntity
  8
U1
100
AcDbCircle
 10
11290.41703198606
 20
5721.915360473253
 30
0.0
 40
4.0
100
AcDbArc
 50
0.0
 51
90.0
  0
ARC
  5
1ACF9
330
1A72B
100
AcDbEntity
  8
U1
100
AcDbCircle
 10
11297.86703198605
 20
5712.665360473253
 30
0.0
 40
1.149999999999977
100
AcDbArc
 50
180.0
 51
0.0
  0
LINE
  5
1ACFA
330
1A72B
100
AcDbEntity
  8
U1
100
AcDbLine
 10
11301.31703198606
 20
5720.215360473253
 30
0.0
 11
11301.31703198606
 21
5712.665360473253
 31
0.0
  0
LINE
  5
1ACFB
330
1A72B
100
AcDbEntity
  8
U1
100
AcDbLine
 10
11299.01703198606
 20
5720.215360473253
 30
0.0
 11
11301.31703198606
 21
5720.215360473253
 31
0.0
  0
LINE
  5
1ACFC
330
1A72B
100
AcDbEntity
  8
U1
100
AcDbLine
 10
11296.71703198606
 20
5713.215360473252
 30
0.0
 11
11299.01703198606
 21
5713.215360473252
 31
0.0
  0
ARC
  5
1ACFD
330
1A72B
100
AcDbEntity
  8
U1
100
AcDbCircle
 10
11297.86703198605
 20
5712.665360473253
 30
0.0
 40
3.450000000000044
100
AcDbArc
 50
180.0
 51
0.0
  0
LINE
  5
1ACFE
330
1A72B
100
AcDbEntity
  8
U1
100
AcDbLine
 10
11296.71703198606
 20
5712.665360473253
 30
0.0
 11
11296.71703198606
 21
5721.915360473252
 31
0.0
  0
LINE
  5
1ACFF
330
1A72B
100
AcDbEntity
  8
U1
100
AcDbLine
 10
11299.01703198606
 20
5721.915360473253
 30
0.0
 11
11299.01703198606
 21
5712.665360473253
 31
0.0
  0
LINE
  5
1AD00
330
1A72B
100
AcDbEntity
  8
U1
100
AcDbLine
 10
11294.41703198606
 20
5712.665360473253
 30
0.0
 11
11294.41703198606
 21
5721.915360473253
 31
0.0
  0
ARC
  5
1AD01
330
1A72B
100
AcDbEntity
  8
U1
100
AcDbCircle
 10
11310.41703198606
 20
5721.915360473253
 30
0.0
 40
4.0
100
AcDbArc
 50
0.0
 51
90.0
  0
LINE
  5
1AD02
330
1A72B
100
AcDbEntity
  8
U1
100
AcDbLine
 10
11310.41703198606
 20
5725.915360473253
 30
0.0
 11
11303.01703198606
 21
5725.915360473253
 31
0.0
  0
ARC
  5
1AD03
330
1A72B
100
AcDbEntity
  8
U1
100
AcDbCircle
 10
11303.01703198606
 20
5721.915360473253
 30
0.0
 40
4.0
100
AcDbArc
 50
90.0
 51
180.0
  0
LINE
  5
1AD04
330
1A72B
100
AcDbEntity
  8
U1
100
AcDbLine
 10
11314.41703198606
 20
5669.515360473252
 30
0.0
 11
11314.41703198606
 21
5721.915360473253
 31
0.0
  0
LINE
  5
1AD05
330
1A72B
100
AcDbEntity
  8
U1
100
AcDbLine
 10
5078.017031986059
 20
7525.915360473252
 30
0.0
 11
5110.41703198606
 21
7525.915360473252
 31
0.0
  0
LINE
  5
1AD06
330
1A72B
100
AcDbEntity
  8
U1
100
AcDbLine
 10
5110.41703198606
 20
7465.515360473251
 30
0.0
 11
5058.017031986059
 21
7465.515360473251
 31
0.0
  0
ARC
  5
1AD07
330
1A72B
100
AcDbEntity
  8
U1
100
AcDbCircle
 10
5110.41703198606
 20
7469.515360473251
 30
0.0
 40
4.0
100
AcDbArc
 50
270.0
 51
0.0
  0
ARC
  5
1AD08
330
1A72B
100
AcDbEntity
  8
U1
100
AcDbCircle
 10
5110.41703198606
 20
7521.915360473252
 30
0.0
 40
4.0
100
AcDbArc
 50
0.0
 51
90.0
  0
LINE
  5
1AD09
330
1A72B
100
AcDbEntity
  8
U1
100
AcDbLine
 10
5114.417031986061
 20
7521.915360473252
 30
0.0
 11
5114.417031986061
 21
7469.515360473251
 31
0.0
  0
ARC
  5
1AD0A
330
1A72B
100
AcDbEntity
  8
U1
100
AcDbCircle
 10
5058.017031986059
 20
7469.515360473251
 30
0.0
 40
4.0
100
AcDbArc
 50
180.0
 51
270.0
  0
ARC
  5
1AD0B
330
1A72B
100
AcDbEntity
  8
U1
100
AcDbCircle
 10
5078.017031986059
 20
7521.915360473252
 30
0.0
 40
4.0
100
AcDbArc
 50
90.0
 51
180.0
  0
ARC
  5
1AD0C
330
1A72B
100
AcDbEntity
  8
U1
100
AcDbCircle
 10
5070.567031986059
 20
7512.665360473251
 30
0.0
 40
1.149999999999977
100
AcDbArc
 50
180.0
 51
0.0
  0
LINE
  5
1AD0D
330
1A72B
100
AcDbEntity
  8
U1
100
AcDbLine
 10
5067.117031986059
 20
7520.215360473253
 30
0.0
 11
5067.117031986059
 21
7512.665360473251
 31
0.0
  0
LINE
  5
1AD0E
330
1A72B
100
AcDbEntity
  8
U1
100
AcDbLine
 10
5069.417031986057
 20
7520.215360473253
 30
0.0
 11
5067.117031986059
 21
7520.215360473253
 31
0.0
  0
LINE
  5
1AD0F
330
1A72B
100
AcDbEntity
  8
U1
100
AcDbLine
 10
5071.717031986057
 20
7513.215360473253
 30
0.0
 11
5069.417031986057
 21
7513.215360473253
 31
0.0
  0
ARC
  5
1AD10
330
1A72B
100
AcDbEntity
  8
U1
100
AcDbCircle
 10
5070.567031986059
 20
7512.665360473251
 30
0.0
 40
3.450000000000044
100
AcDbArc
 50
180.0
 51
0.0
  0
LINE
  5
1AD11
330
1A72B
100
AcDbEntity
  8
U1
100
AcDbLine
 10
5071.717031986057
 20
7512.665360473251
 30
0.0
 11
5071.71703198606
 21
7521.915360473252
 31
0.0
  0
LINE
  5
1AD12
330
1A72B
100
AcDbEntity
  8
U1
100
AcDbLine
 10
5069.417031986057
 20
7521.915360473252
 30
0.0
 11
5069.417031986057
 21
7512.665360473251
 31
0.0
  0
LINE
  5
1AD13
330
1A72B
100
AcDbEntity
  8
U1
100
AcDbLine
 10
5074.017031986059
 20
7512.665360473251
 30
0.0
 11
5074.017031986059
 21
7521.915360473252
 31
0.0
  0
ARC
  5
1AD14
330
1A72B
100
AcDbEntity
  8
U1
100
AcDbCircle
 10
5058.01703198606
 20
7521.915360473252
 30
0.0
 40
4.0
100
AcDbArc
 50
90.0
 51
180.0
  0
LINE
  5
1AD15
330
1A72B
100
AcDbEntity
  8
U1
100
AcDbLine
 10
5058.01703198606
 20
7525.915360473252
 30
0.0
 11
5065.41703198606
 21
7525.915360473252
 31
0.0
  0
ARC
  5
1AD16
330
1A72B
100
AcDbEntity
  8
U1
100
AcDbCircle
 10
5065.41703198606
 20
7521.915360473252
 30
0.0
 40
4.0
100
AcDbArc
 50
0.0
 51
90.0
  0
LINE
  5
1AD17
330
1A72B
100
AcDbEntity
  8
U1
100
AcDbLine
 10
5054.01703198606
 20
7469.515360473251
 30
0.0
 11
5054.01703198606
 21
7521.915360473252
 31
0.0
  0
LINE
  5
1AD18
330
1A72B
100
AcDbEntity
  8
U1
100
AcDbLine
 10
7540.417031986061
 20
7525.915360473252
 30
0.0
 11
7508.017031986061
 21
7525.915360473252
 31
0.0
  0
LINE
  5
1AD19
330
1A72B
100
AcDbEntity
  8
U1
100
AcDbLine
 10
7508.017031986061
 20
7465.515360473251
 30
0.0
 11
7560.41703198606
 21
7465.515360473251
 31
0.0
  0
ARC
  5
1AD1A
330
1A72B
100
AcDbEntity
  8
U1
100
AcDbCircle
 10
7508.017031986061
 20
7469.515360473251
 30
0.0
 40
4.0
100
AcDbArc
 50
180.0
 51
270.0
  0
ARC
  5
1AD1B
330
1A72B
100
AcDbEntity
  8
U1
100
AcDbCircle
 10
7508.017031986061
 20
7521.915360473252
 30
0.0
 40
4.0
100
AcDbArc
 50
90.0
 51
180.0
  0
LINE
  5
1AD1C
330
1A72B
100
AcDbEntity
  8
U1
100
AcDbLine
 10
7504.017031986061
 20
7521.915360473252
 30
0.0
 11
7504.017031986061
 21
7469.515360473251
 31
0.0
  0
ARC
  5
1AD1D
330
1A72B
100
AcDbEntity
  8
U1
100
AcDbCircle
 10
7560.41703198606
 20
7469.515360473251
 30
0.0
 40
4.0
100
AcDbArc
 50
270.0
 51
0.0
  0
ARC
  5
1AD1E
330
1A72B
100
AcDbEntity
  8
U1
100
AcDbCircle
 10
7540.417031986061
 20
7521.915360473252
 30
0.0
 40
4.0
100
AcDbArc
 50
0.0
 51
90.0
  0
ARC
  5
1AD1F
330
1A72B
100
AcDbEntity
  8
U1
100
AcDbCircle
 10
7547.867031986061
 20
7512.665360473251
 30
0.0
 40
1.149999999999977
100
AcDbArc
 50
180.0
 51
0.0
  0
LINE
  5
1AD20
330
1A72B
100
AcDbEntity
  8
U1
100
AcDbLine
 10
7551.31703198606
 20
7520.215360473253
 30
0.0
 11
7551.31703198606
 21
7512.665360473251
 31
0.0
  0
LINE
  5
1AD21
330
1A72B
100
AcDbEntity
  8
U1
100
AcDbLine
 10
7549.01703198606
 20
7520.215360473253
 30
0.0
 11
7551.31703198606
 21
7520.215360473253
 31
0.0
  0
LINE
  5
1AD22
330
1A72B
100
AcDbEntity
  8
U1
100
AcDbLine
 10
7546.717031986061
 20
7513.215360473253
 30
0.0
 11
7549.01703198606
 21
7513.215360473253
 31
0.0
  0
ARC
  5
1AD23
330
1A72B
100
AcDbEntity
  8
U1
100
AcDbCircle
 10
7547.867031986061
 20
7512.665360473251
 30
0.0
 40
3.450000000000044
100
AcDbArc
 50
180.0
 51
0.0
  0
LINE
  5
1AD24
330
1A72B
100
AcDbEntity
  8
U1
100
AcDbLine
 10
7546.717031986061
 20
7512.665360473251
 30
0.0
 11
7546.71703198606
 21
7521.915360473252
 31
0.0
  0
LINE
  5
1AD25
330
1A72B
100
AcDbEntity
  8
U1
100
AcDbLine
 10
7549.01703198606
 20
7521.915360473252
 30
0.0
 11
7549.01703198606
 21
7512.665360473251
 31
0.0
  0
LINE
  5
1AD26
330
1A72B
100
AcDbEntity
  8
U1
100
AcDbLine
 10
7544.417031986061
 20
7512.665360473251
 30
0.0
 11
7544.417031986061
 21
7521.915360473252
 31
0.0
  0
ARC
  5
1AD27
330
1A72B
100
AcDbEntity
  8
U1
100
AcDbCircle
 10
7560.41703198606
 20
7521.915360473252
 30
0.0
 40
4.0
100
AcDbArc
 50
0.0
 51
90.0
  0
LINE
  5
1AD28
330
1A72B
100
AcDbEntity
  8
U1
100
AcDbLine
 10
7560.41703198606
 20
7525.915360473252
 30
0.0
 11
7553.017031986062
 21
7525.915360473252
 31
0.0
  0
ARC
  5
1AD29
330
1A72B
100
AcDbEntity
  8
U1
100
AcDbCircle
 10
7553.017031986062
 20
7521.915360473252
 30
0.0
 40
4.0
100
AcDbArc
 50
90.0
 51
180.0
  0
LINE
  5
1AD2A
330
1A72B
100
AcDbEntity
  8
U1
100
AcDbLine
 10
7564.417031986059
 20
7469.515360473251
 30
0.0
 11
7564.417031986059
 21
7521.915360473252
 31
0.0
  0
LINE
  5
1AD2B
330
1A72B
100
AcDbEntity
  8
U1
100
AcDbLine
 10
11290.41703198606
 20
7525.915360473252
 30
0.0
 11
11258.01703198606
 21
7525.915360473252
 31
0.0
  0
LINE
  5
1AD2C
330
1A72B
100
AcDbEntity
  8
U1
100
AcDbLine
 10
11258.01703198606
 20
7465.515360473251
 30
0.0
 11
11310.41703198606
 21
7465.515360473251
 31
0.0
  0
ARC
  5
1AD2D
330
1A72B
100
AcDbEntity
  8
U1
100
AcDbCircle
 10
11258.01703198606
 20
7469.515360473251
 30
0.0
 40
4.0
100
AcDbArc
 50
180.0
 51
270.0
  0
ARC
  5
1AD2E
330
1A72B
100
AcDbEntity
  8
U1
100
AcDbCircle
 10
11258.01703198606
 20
7521.915360473252
 30
0.0
 40
4.0
100
AcDbArc
 50
90.0
 51
180.0
  0
LINE
  5
1AD2F
330
1A72B
100
AcDbEntity
  8
U1
100
AcDbLine
 10
11254.01703198605
 20
7521.915360473252
 30
0.0
 11
11254.01703198605
 21
7469.515360473251
 31
0.0
  0
ARC
  5
1AD30
330
1A72B
100
AcDbEntity
  8
U1
100
AcDbCircle
 10
11310.41703198606
 20
7469.515360473251
 30
0.0
 40
4.0
100
AcDbArc
 50
270.0
 51
0.0
  0
ARC
  5
1AD31
330
1A72B
100
AcDbEntity
  8
U1
100
AcDbCircle
 10
11290.41703198606
 20
7521.915360473252
 30
0.0
 40
4.0
100
AcDbArc
 50
0.0
 51
90.0
  0
ARC
  5
1AD32
330
1A72B
100
AcDbEntity
  8
U1
100
AcDbCircle
 10
11297.86703198605
 20
7512.665360473251
 30
0.0
 40
1.149999999999977
100
AcDbArc
 50
180.0
 51
0.0
  0
LINE
  5
1AD33
330
1A72B
100
AcDbEntity
  8
U1
100
AcDbLine
 10
11301.31703198606
 20
7520.215360473253
 30
0.0
 11
11301.31703198606
 21
7512.665360473251
 31
0.0
  0
LINE
  5
1AD34
330
1A72B
100
AcDbEntity
  8
U1
100
AcDbLine
 10
11299.01703198606
 20
7520.215360473253
 30
0.0
 11
11301.31703198606
 21
7520.215360473253
 31
0.0
  0
LINE
  5
1AD35
330
1A72B
100
AcDbEntity
  8
U1
100
AcDbLine
 10
11296.71703198606
 20
7513.215360473253
 30
0.0
 11
11299.01703198606
 21
7513.215360473253
 31
0.0
  0
ARC
  5
1AD36
330
1A72B
100
AcDbEntity
  8
U1
100
AcDbCircle
 10
11297.86703198605
 20
7512.665360473251
 30
0.0
 40
3.450000000000044
100
AcDbArc
 50
180.0
 51
0.0
  0
LINE
  5
1AD37
330
1A72B
100
AcDbEntity
  8
U1
100
AcDbLine
 10
11296.71703198606
 20
7512.665360473251
 30
0.0
 11
11296.71703198606
 21
7521.915360473252
 31
0.0
  0
LINE
  5
1AD38
330
1A72B
100
AcDbEntity
  8
U1
100
AcDbLine
 10
11299.01703198606
 20
7521.915360473252
 30
0.0
 11
11299.01703198606
 21
7512.665360473251
 31
0.0
  0
LINE
  5
1AD39
330
1A72B
100
AcDbEntity
  8
U1
100
AcDbLine
 10
11294.41703198606
 20
7512.665360473251
 30
0.0
 11
11294.41703198606
 21
7521.915360473252
 31
0.0
  0
ARC
  5
1AD3A
330
1A72B
100
AcDbEntity
  8
U1
100
AcDbCircle
 10
11310.41703198606
 20
7521.915360473252
 30
0.0
 40
4.0
100
AcDbArc
 50
0.0
 51
90.0
  0
LINE
  5
1AD3B
330
1A72B
100
AcDbEntity
  8
U1
100
AcDbLine
 10
11310.41703198606
 20
7525.915360473252
 30
0.0
 11
11303.01703198606
 21
7525.915360473252
 31
0.0
  0
ARC
  5
1AD3C
330
1A72B
100
AcDbEntity
  8
U1
100
AcDbCircle
 10
11303.01703198606
 20
7521.915360473252
 30
0.0
 40
4.0
100
AcDbArc
 50
90.0
 51
180.0
  0
LINE
  5
1AD3D
330
1A72B
100
AcDbEntity
  8
U1
100
AcDbLine
 10
11314.41703198606
 20
7469.515360473251
 30
0.0
 11
11314.41703198606
 21
7521.915360473252
 31
0.0
  0
ARC
  5
1AD3E
330
1A72B
100
AcDbEntity
  8
U1
100
AcDbCircle
 10
8860.41703198606
 20
7521.915360473252
 30
0.0
 40
6.299999999999272
100
AcDbArc
 50
0.0
 51
90.0
  0
LINE
  5
1AD3F
330
1A72B
100
AcDbEntity
  8
U1
100
AcDbLine
 10
8860.41703198606
 20
7528.215360473253
 30
0.0
 11
8853.017031986059
 21
7528.215360473253
 31
0.0
  0
ARC
  5
1AD40
330
1A72B
100
AcDbEntity
  8
U1
100
AcDbCircle
 10
8853.017031986059
 20
7521.915360473252
 30
0.0
 40
6.300000000000181
100
AcDbArc
 50
90.0
 51
180.0
  0
ARC
  5
1AD41
330
1A72B
100
AcDbEntity
  8
U1
100
AcDbCircle
 10
8840.417031986062
 20
7521.915360473252
 30
0.0
 40
6.299999999999272
100
AcDbArc
 50
0.0
 51
90.0
  0
LINE
  5
1AD42
330
1A72B
100
AcDbEntity
  8
U1
100
AcDbLine
 10
8840.417031986062
 20
7528.215360473253
 30
0.0
 11
8808.017031986059
 21
7528.215360473253
 31
0.0
  0
ARC
  5
1AD43
330
1A72B
100
AcDbEntity
  8
U1
100
AcDbCircle
 10
8808.017031986059
 20
7521.915360473252
 30
0.0
 40
6.300000000000181
100
AcDbArc
 50
90.0
 51
180.0
  0
LINE
  5
1AD44
330
1A72B
100
AcDbEntity
  8
U1
100
AcDbLine
 10
8801.71703198606
 20
7521.915360473252
 30
0.0
 11
8801.71703198606
 21
7469.515360473251
 31
0.0
  0
ARC
  5
1AD45
330
1A72B
100
AcDbEntity
  8
U1
100
AcDbCircle
 10
8808.017031986059
 20
7469.515360473251
 30
0.0
 40
6.299999999999272
100
AcDbArc
 50
180.0
 51
270.0
  0
LINE
  5
1AD46
330
1A72B
100
AcDbEntity
  8
U1
100
AcDbLine
 10
8808.017031986059
 20
7463.215360473253
 30
0.0
 11
8860.41703198606
 21
7463.215360473253
 31
0.0
  0
ARC
  5
1AD47
330
1A72B
100
AcDbEntity
  8
U1
100
AcDbCircle
 10
8860.41703198606
 20
7469.515360473251
 30
0.0
 40
6.299999999999272
100
AcDbArc
 50
270.0
 51
0.0
  0
LINE
  5
1AD48
330
1A72B
100
AcDbEntity
  8
U1
100
AcDbLine
 10
8866.717031986061
 20
7469.515360473251
 30
0.0
 11
8866.717031986061
 21
7521.915360473252
 31
0.0
  0
ARC
  5
1AD49
330
1A72B
100
AcDbEntity
  8
U1
100
AcDbCircle
 10
11310.41703198606
 20
9269.515360473251
 30
0.0
 40
6.300000000001091
100
AcDbArc
 50
270.0
 51
0.0
  0
LINE
  5
1AD4A
330
1A72B
100
AcDbEntity
  8
U1
100
AcDbLine
 10
11310.41703198606
 20
9263.215360473251
 30
0.0
 11
11303.01703198606
 21
9263.215360473251
 31
0.0
  0
ARC
  5
1AD4B
330
1A72B
100
AcDbEntity
  8
U1
100
AcDbCircle
 10
11303.01703198606
 20
9269.515360473251
 30
0.0
 40
6.299999999999272
100
AcDbArc
 50
180.0
 51
270.0
  0
ARC
  5
1AD4C
330
1A72B
100
AcDbEntity
  8
U1
100
AcDbCircle
 10
11290.41703198606
 20
9269.515360473251
 30
0.0
 40
6.300000000001091
100
AcDbArc
 50
270.0
 51
359.9999999999833
  0
LINE
  5
1AD4D
330
1A72B
100
AcDbEntity
  8
U1
100
AcDbLine
 10
11290.41703198606
 20
9263.215360473251
 30
0.0
 11
11258.01703198606
 21
9263.215360473251
 31
0.0
  0
ARC
  5
1AD4E
330
1A72B
100
AcDbEntity
  8
U1
100
AcDbCircle
 10
11258.01703198606
 20
9269.515360473251
 30
0.0
 40
6.300000000001091
100
AcDbArc
 50
180.0
 51
270.0
  0
LINE
  5
1AD4F
330
1A72B
100
AcDbEntity
  8
U1
100
AcDbLine
 10
11251.71703198605
 20
9269.515360473251
 30
0.0
 11
11251.71703198605
 21
9321.915360473253
 31
0.0
  0
ARC
  5
1AD50
330
1A72B
100
AcDbEntity
  8
U1
100
AcDbCircle
 10
11258.01703198606
 20
9321.915360473253
 30
0.0
 40
6.300000000001091
100
AcDbArc
 50
90.0
 51
180.0
  0
LINE
  5
1AD51
330
1A72B
100
AcDbEntity
  8
U1
100
AcDbLine
 10
11258.01703198606
 20
9328.215360473253
 30
0.0
 11
11310.41703198606
 21
9328.215360473253
 31
0.0
  0
ARC
  5
1AD52
330
1A72B
100
AcDbEntity
  8
U1
100
AcDbCircle
 10
11310.41703198606
 20
9321.915360473253
 30
0.0
 40
6.299999999999272
100
AcDbArc
 50
0.0
 51
90.0
  0
LINE
  5
1AD53
330
1A72B
100
AcDbEntity
  8
U1
100
AcDbLine
 10
11316.71703198606
 20
9321.915360473253
 30
0.0
 11
11316.71703198606
 21
9269.515360473251
 31
0.0
  0
ARC
  5
1AD54
330
1A72B
100
AcDbEntity
  8
U1
100
AcDbCircle
 10
8860.417031986058
 20
9269.515360473251
 30
0.0
 40
6.300000000001091
100
AcDbArc
 50
270.0
 51
0.0
  0
LINE
  5
1AD55
330
1A72B
100
AcDbEntity
  8
U1
100
AcDbLine
 10
8860.417031986058
 20
9263.215360473251
 30
0.0
 11
8853.017031986059
 21
9263.215360473251
 31
0.0
  0
ARC
  5
1AD56
330
1A72B
100
AcDbEntity
  8
U1
100
AcDbCircle
 10
8853.017031986059
 20
9269.515360473251
 30
0.0
 40
6.299999999999272
100
AcDbArc
 50
180.0
 51
270.0
  0
ARC
  5
1AD57
330
1A72B
100
AcDbEntity
  8
U1
100
AcDbCircle
 10
8840.417031986058
 20
9269.515360473251
 30
0.0
 40
6.300000000001091
100
AcDbArc
 50
270.0
 51
359.9999999999833
  0
LINE
  5
1AD58
330
1A72B
100
AcDbEntity
  8
U1
100
AcDbLine
 10
8840.417031986058
 20
9263.215360473251
 30
0.0
 11
8808.017031986059
 21
9263.215360473251
 31
0.0
  0
ARC
  5
1AD59
330
1A72B
100
AcDbEntity
  8
U1
100
AcDbCircle
 10
8808.017031986059
 20
9269.515360473251
 30
0.0
 40
6.300000000001091
100
AcDbArc
 50
180.0
 51
270.0
  0
LINE
  5
1AD5A
330
1A72B
100
AcDbEntity
  8
U1
100
AcDbLine
 10
8801.71703198606
 20
9269.515360473251
 30
0.0
 11
8801.71703198606
 21
9321.915360473253
 31
0.0
  0
ARC
  5
1AD5B
330
1A72B
100
AcDbEntity
  8
U1
100
AcDbCircle
 10
8808.017031986061
 20
9321.915360473253
 30
0.0
 40
6.300000000001091
100
AcDbArc
 50
90.0
 51
180.0
  0
LINE
  5
1AD5C
330
1A72B
100
AcDbEntity
  8
U1
100
AcDbLine
 10
8808.017031986061
 20
9328.215360473253
 30
0.0
 11
8860.41703198606
 21
9328.215360473253
 31
0.0
  0
ARC
  5
1AD5D
330
1A72B
100
AcDbEntity
  8
U1
100
AcDbCircle
 10
8860.41703198606
 20
9321.915360473253
 30
0.0
 40
6.299999999999272
100
AcDbArc
 50
0.0
 51
90.0
  0
LINE
  5
1AD5E
330
1A72B
100
AcDbEntity
  8
U1
100
AcDbLine
 10
8866.717031986061
 20
9321.915360473253
 30
0.0
 11
8866.717031986061
 21
9269.515360473251
 31
0.0
  0
ARC
  5
1AD5F
330
1A72B
100
AcDbEntity
  8
U1
100
AcDbCircle
 10
7560.41703198606
 20
9269.515360473251
 30
0.0
 40
6.299999999999272
100
AcDbArc
 50
269.9999999999918
 51
0.0
  0
LINE
  5
1AD60
330
1A72B
100
AcDbEntity
  8
U1
100
AcDbLine
 10
7560.41703198606
 20
9263.215360473251
 30
0.0
 11
7553.017031986062
 21
9263.215360473251
 31
0.0
  0
ARC
  5
1AD61
330
1A72B
100
AcDbEntity
  8
U1
100
AcDbCircle
 10
7553.017031986058
 20
9269.515360473251
 30
0.0
 40
6.299999999999272
100
AcDbArc
 50
180.0
 51
270.0000000000081
  0
ARC
  5
1AD62
330
1A72B
100
AcDbEntity
  8
U1
100
AcDbCircle
 10
7540.417031986061
 20
9269.515360473251
 30
0.0
 40
6.299999999999272
100
AcDbArc
 50
269.9999999999918
 51
0.0
  0
LINE
  5
1AD63
330
1A72B
100
AcDbEntity
  8
U1
100
AcDbLine
 10
7540.417031986058
 20
9263.215360473251
 30
0.0
 11
7508.017031986061
 21
9263.215360473251
 31
0.0
  0
ARC
  5
1AD64
330
1A72B
100
AcDbEntity
  8
U1
100
AcDbCircle
 10
7508.017031986061
 20
9269.515360473251
 30
0.0
 40
6.300000000001091
100
AcDbArc
 50
180.0
 51
270.0
  0
LINE
  5
1AD65
330
1A72B
100
AcDbEntity
  8
U1
100
AcDbLine
 10
7501.71703198606
 20
9269.515360473251
 30
0.0
 11
7501.71703198606
 21
9321.915360473253
 31
0.0
  0
ARC
  5
1AD66
330
1A72B
100
AcDbEntity
  8
U1
100
AcDbCircle
 10
7508.017031986058
 20
9321.915360473253
 30
0.0
 40
6.299999999999272
100
AcDbArc
 50
89.99999999999173
 51
180.0
  0
LINE
  5
1AD67
330
1A72B
100
AcDbEntity
  8
U1
100
AcDbLine
 10
7508.017031986061
 20
9328.215360473253
 30
0.0
 11
7560.41703198606
 21
9328.215360473253
 31
0.0
  0
ARC
  5
1AD68
330
1A72B
100
AcDbEntity
  8
U1
100
AcDbCircle
 10
7560.41703198606
 20
9321.915360473253
 30
0.0
 40
6.299999999999272
100
AcDbArc
 50
0.0
 51
90.00000000000826
  0
LINE
  5
1AD69
330
1A72B
100
AcDbEntity
  8
U1
100
AcDbLine
 10
7566.71703198606
 20
9321.915360473253
 30
0.0
 11
7566.71703198606
 21
9269.515360473251
 31
0.0
  0
ARC
  5
1AD6A
330
1A72B
100
AcDbEntity
  8
U1
100
AcDbCircle
 10
5058.01703198606
 20
9269.515360473251
 30
0.0
 40
6.300000000000181
100
AcDbArc
 50
180.0
 51
270.0
  0
LINE
  5
1AD6B
330
1A72B
100
AcDbEntity
  8
U1
100
AcDbLine
 10
5058.01703198606
 20
9263.215360473251
 30
0.0
 11
5065.41703198606
 21
9263.215360473251
 31
0.0
  0
ARC
  5
1AD6C
330
1A72B
100
AcDbEntity
  8
U1
100
AcDbCircle
 10
5065.41703198606
 20
9269.515360473251
 30
0.0
 40
6.299999999999272
100
AcDbArc
 50
269.9999999999918
 51
0.0
  0
ARC
  5
1AD6D
330
1A72B
100
AcDbEntity
  8
U1
100
AcDbCircle
 10
5078.017031986059
 20
9269.515360473251
 30
0.0
 40
6.299999999999272
100
AcDbArc
 50
180.0
 51
270.0000000000081
  0
LINE
  5
1AD6E
330
1A72B
100
AcDbEntity
  8
U1
100
AcDbLine
 10
5078.01703198606
 20
9263.215360473251
 30
0.0
 11
5110.41703198606
 21
9263.215360473251
 31
0.0
  0
ARC
  5
1AD6F
330
1A72B
100
AcDbEntity
  8
U1
100
AcDbCircle
 10
5110.41703198606
 20
9269.515360473251
 30
0.0
 40
6.299999999999272
100
AcDbArc
 50
269.9999999999918
 51
0.0
  0
LINE
  5
1AD70
330
1A72B
100
AcDbEntity
  8
U1
100
AcDbLine
 10
5116.717031986058
 20
9269.515360473251
 30
0.0
 11
5116.717031986058
 21
9321.915360473253
 31
0.0
  0
ARC
  5
1AD71
330
1A72B
100
AcDbEntity
  8
U1
100
AcDbCircle
 10
5110.41703198606
 20
9321.915360473253
 30
0.0
 40
6.299999999999272
100
AcDbArc
 50
0.0
 51
90.00000000000826
  0
LINE
  5
1AD72
330
1A72B
100
AcDbEntity
  8
U1
100
AcDbLine
 10
5110.41703198606
 20
9328.215360473253
 30
0.0
 11
5058.01703198606
 21
9328.215360473253
 31
0.0
  0
ARC
  5
1AD73
330
1A72B
100
AcDbEntity
  8
U1
100
AcDbCircle
 10
5058.017031986059
 20
9321.915360473253
 30
0.0
 40
6.299999999999272
100
AcDbArc
 50
89.99999999999173
 51
180.0
  0
LINE
  5
1AD74
330
1A72B
100
AcDbEntity
  8
U1
100
AcDbLine
 10
5051.71703198606
 20
9321.915360473253
 30
0.0
 11
5051.71703198606
 21
9269.515360473251
 31
0.0
  0
ARC
  5
1AD75
330
1A72B
100
AcDbEntity
  8
U1
100
AcDbCircle
 10
7560.41703198606
 20
5721.915360473253
 30
0.0
 40
6.299999999999272
100
AcDbArc
 50
0.0
 51
90.00000000000826
  0
LINE
  5
1AD76
330
1A72B
100
AcDbEntity
  8
U1
100
AcDbLine
 10
7560.41703198606
 20
5728.215360473253
 30
0.0
 11
7553.017031986062
 21
5728.215360473253
 31
0.0
  0
ARC
  5
1AD77
330
1A72B
100
AcDbEntity
  8
U1
100
AcDbCircle
 10
7553.017031986058
 20
5721.915360473253
 30
0.0
 40
6.300000000000181
100
AcDbArc
 50
89.99999999999173
 51
180.0
  0
ARC
  5
1AD78
330
1A72B
100
AcDbEntity
  8
U1
100
AcDbCircle
 10
7540.417031986058
 20
5721.915360473252
 30
0.0
 40
6.300000000000181
100
AcDbArc
 50
0.0000000000082715
 51
90.0
  0
LINE
  5
1AD79
330
1A72B
100
AcDbEntity
  8
U1
100
AcDbLine
 10
7540.417031986058
 20
5728.215360473253
 30
0.0
 11
7508.017031986061
 21
5728.215360473253
 31
0.0
  0
ARC
  5
1AD7A
330
1A72B
100
AcDbEntity
  8
U1
100
AcDbCircle
 10
7508.017031986058
 20
5721.915360473253
 30
0.0
 40
6.300000000000181
100
AcDbArc
 50
89.99999999999173
 51
180.0
  0
LINE
  5
1AD7B
330
1A72B
100
AcDbEntity
  8
U1
100
AcDbLine
 10
7501.71703198606
 20
5721.915360473253
 30
0.0
 11
7501.71703198606
 21
5669.515360473252
 31
0.0
  0
ARC
  5
1AD7C
330
1A72B
100
AcDbEntity
  8
U1
100
AcDbCircle
 10
7508.017031986058
 20
5669.515360473252
 30
0.0
 40
6.299999999999272
100
AcDbArc
 50
180.0
 51
270.0000000000081
  0
LINE
  5
1AD7D
330
1A72B
100
AcDbEntity
  8
U1
100
AcDbLine
 10
7508.017031986061
 20
5663.215360473253
 30
0.0
 11
7560.41703198606
 21
5663.215360473253
 31
0.0
  0
ARC
  5
1AD7E
330
1A72B
100
AcDbEntity
  8
U1
100
AcDbCircle
 10
7560.41703198606
 20
5669.515360473252
 30
0.0
 40
6.299999999999272
100
AcDbArc
 50
269.9999999999918
 51
0.0
  0
LINE
  5
1AD7F
330
1A72B
100
AcDbEntity
  8
U1
100
AcDbLine
 10
7566.71703198606
 20
5669.515360473252
 30
0.0
 11
7566.71703198606
 21
5721.915360473253
 31
0.0
  0
ARC
  5
1AD80
330
1A72B
100
AcDbEntity
  8
U1
100
AcDbCircle
 10
5058.017031986059
 20
5721.915360473253
 30
0.0
 40
6.299999999999272
100
AcDbArc
 50
89.99999999999173
 51
180.0
  0
LINE
  5
1AD81
330
1A72B
100
AcDbEntity
  8
U1
100
AcDbLine
 10
5058.01703198606
 20
5728.215360473253
 30
0.0
 11
5065.41703198606
 21
5728.215360473253
 31
0.0
  0
ARC
  5
1AD82
330
1A72B
100
AcDbEntity
  8
U1
100
AcDbCircle
 10
5065.41703198606
 20
5721.915360473253
 30
0.0
 40
6.300000000000181
100
AcDbArc
 50
0.0
 51
90.00000000000826
  0
ARC
  5
1AD83
330
1A72B
100
AcDbEntity
  8
U1
100
AcDbCircle
 10
5078.01703198606
 20
5721.915360473252
 30
0.0
 40
6.300000000000181
100
AcDbArc
 50
90.0
 51
179.9999999999916
  0
LINE
  5
1AD84
330
1A72B
100
AcDbEntity
  8
U1
100
AcDbLine
 10
5078.01703198606
 20
5728.215360473253
 30
0.0
 11
5110.41703198606
 21
5728.215360473253
 31
0.0
  0
ARC
  5
1AD85
330
1A72B
100
AcDbEntity
  8
U1
100
AcDbCircle
 10
5110.41703198606
 20
5721.915360473253
 30
0.0
 40
6.300000000000181
100
AcDbArc
 50
0.0
 51
90.00000000000826
  0
LINE
  5
1AD86
330
1A72B
100
AcDbEntity
  8
U1
100
AcDbLine
 10
5116.717031986058
 20
5721.915360473253
 30
0.0
 11
5116.717031986058
 21
5669.515360473252
 31
0.0
  0
ARC
  5
1AD87
330
1A72B
100
AcDbEntity
  8
U1
100
AcDbCircle
 10
5110.41703198606
 20
5669.515360473252
 30
0.0
 40
6.299999999999272
100
AcDbArc
 50
269.9999999999918
 51
0.0
  0
LINE
  5
1AD88
330
1A72B
100
AcDbEntity
  8
U1
100
AcDbLine
 10
5110.41703198606
 20
5663.215360473253
 30
0.0
 11
5058.01703198606
 21
5663.215360473253
 31
0.0
  0
ARC
  5
1AD89
330
1A72B
100
AcDbEntity
  8
U1
100
AcDbCircle
 10
5058.017031986059
 20
5669.515360473252
 30
0.0
 40
6.299999999999272
100
AcDbArc
 50
180.0
 51
270.0000000000081
  0
LINE
  5
1AD8A
330
1A72B
100
AcDbEntity
  8
U1
100
AcDbLine
 10
5051.71703198606
 20
5669.515360473252
 30
0.0
 11
5051.71703198606
 21
5721.915360473253
 31
0.0
  0
ARC
  5
1AD8B
330
1A72B
100
AcDbEntity
  8
U1
100
AcDbCircle
 10
8860.41703198606
 20
5721.915360473253
 30
0.0
 40
6.299999999999272
100
AcDbArc
 50
0.0
 51
90.0
  0
LINE
  5
1AD8C
330
1A72B
100
AcDbEntity
  8
U1
100
AcDbLine
 10
8860.41703198606
 20
5728.215360473253
 30
0.0
 11
8853.017031986059
 21
5728.215360473253
 31
0.0
  0
ARC
  5
1AD8D
330
1A72B
100
AcDbEntity
  8
U1
100
AcDbCircle
 10
8853.017031986059
 20
5721.915360473253
 30
0.0
 40
6.300000000000181
100
AcDbArc
 50
90.0
 51
180.0
  0
ARC
  5
1AD8E
330
1A72B
100
AcDbEntity
  8
U1
100
AcDbCircle
 10
8840.417031986062
 20
5721.915360473253
 30
0.0
 40
6.299999999999272
100
AcDbArc
 50
0.0
 51
90.0
  0
LINE
  5
1AD8F
330
1A72B
100
AcDbEntity
  8
U1
100
AcDbLine
 10
8840.417031986062
 20
5728.215360473253
 30
0.0
 11
8808.017031986059
 21
5728.215360473253
 31
0.0
  0
ARC
  5
1AD90
330
1A72B
100
AcDbEntity
  8
U1
100
AcDbCircle
 10
8808.017031986059
 20
5721.915360473253
 30
0.0
 40
6.300000000000181
100
AcDbArc
 50
90.0
 51
180.0
  0
LINE
  5
1AD91
330
1A72B
100
AcDbEntity
  8
U1
100
AcDbLine
 10
8801.71703198606
 20
5721.915360473253
 30
0.0
 11
8801.71703198606
 21
5669.515360473252
 31
0.0
  0
ARC
  5
1AD92
330
1A72B
100
AcDbEntity
  8
U1
100
AcDbCircle
 10
8808.017031986059
 20
5669.515360473252
 30
0.0
 40
6.299999999999272
100
AcDbArc
 50
180.0
 51
270.0
  0
LINE
  5
1AD93
330
1A72B
100
AcDbEntity
  8
U1
100
AcDbLine
 10
8808.017031986059
 20
5663.215360473253
 30
0.0
 11
8860.41703198606
 21
5663.215360473253
 31
0.0
  0
ARC
  5
1AD94
330
1A72B
100
AcDbEntity
  8
U1
100
AcDbCircle
 10
8860.41703198606
 20
5669.515360473252
 30
0.0
 40
6.299999999999272
100
AcDbArc
 50
270.0
 51
0.0
  0
LINE
  5
1AD95
330
1A72B
100
AcDbEntity
  8
U1
100
AcDbLine
 10
8866.717031986061
 20
5669.515360473252
 30
0.0
 11
8866.717031986061
 21
5721.915360473253
 31
0.0
  0
ARC
  5
1AD96
330
1A72B
100
AcDbEntity
  8
U1
100
AcDbCircle
 10
11310.41703198606
 20
5721.915360473253
 30
0.0
 40
6.299999999999272
100
AcDbArc
 50
0.0
 51
90.0
  0
LINE
  5
1AD97
330
1A72B
100
AcDbEntity
  8
U1
100
AcDbLine
 10
11310.41703198606
 20
5728.215360473253
 30
0.0
 11
11303.01703198606
 21
5728.215360473253
 31
0.0
  0
ARC
  5
1AD98
330
1A72B
100
AcDbEntity
  8
U1
100
AcDbCircle
 10
11303.01703198606
 20
5721.915360473253
 30
0.0
 40
6.300000000000181
100
AcDbArc
 50
90.0
 51
180.0
  0
ARC
  5
1AD99
330
1A72B
100
AcDbEntity
  8
U1
100
AcDbCircle
 10
11290.41703198606
 20
5721.915360473253
 30
0.0
 40
6.299999999999272
100
AcDbArc
 50
0.0
 51
90.0
  0
LINE
  5
1AD9A
330
1A72B
100
AcDbEntity
  8
U1
100
AcDbLine
 10
11290.41703198606
 20
5728.215360473253
 30
0.0
 11
11258.01703198606
 21
5728.215360473253
 31
0.0
  0
ARC
  5
1AD9B
330
1A72B
100
AcDbEntity
  8
U1
100
AcDbCircle
 10
11258.01703198606
 20
5721.915360473253
 30
0.0
 40
6.300000000000181
100
AcDbArc
 50
90.0
 51
180.0
  0
LINE
  5
1AD9C
330
1A72B
100
AcDbEntity
  8
U1
100
AcDbLine
 10
11251.71703198605
 20
5721.915360473253
 30
0.0
 11
11251.71703198605
 21
5669.515360473252
 31
0.0
  0
ARC
  5
1AD9D
330
1A72B
100
AcDbEntity
  8
U1
100
AcDbCircle
 10
11258.01703198606
 20
5669.515360473252
 30
0.0
 40
6.299999999999272
100
AcDbArc
 50
180.0
 51
270.0
  0
LINE
  5
1AD9E
330
1A72B
100
AcDbEntity
  8
U1
100
AcDbLine
 10
11258.01703198606
 20
5663.215360473253
 30
0.0
 11
11310.41703198606
 21
5663.215360473253
 31
0.0
  0
ARC
  5
1AD9F
330
1A72B
100
AcDbEntity
  8
U1
100
AcDbCircle
 10
11310.41703198606
 20
5669.515360473252
 30
0.0
 40
6.299999999999272
100
AcDbArc
 50
270.0
 51
0.0
  0
LINE
  5
1ADA0
330
1A72B
100
AcDbEntity
  8
U1
100
AcDbLine
 10
11316.71703198606
 20
5669.515360473252
 30
0.0
 11
11316.71703198606
 21
5721.915360473253
 31
0.0
  0
ARC
  5
1ADA1
330
1A72B
100
AcDbEntity
  8
U1
100
AcDbCircle
 10
5058.017031986059
 20
7521.915360473252
 30
0.0
 40
6.299999999999272
100
AcDbArc
 50
89.99999999999173
 51
180.0
  0
LINE
  5
1ADA2
330
1A72B
100
AcDbEntity
  8
U1
100
AcDbLine
 10
5058.01703198606
 20
7528.215360473253
 30
0.0
 11
5065.41703198606
 21
7528.215360473253
 31
0.0
  0
ARC
  5
1ADA3
330
1A72B
100
AcDbEntity
  8
U1
100
AcDbCircle
 10
5065.41703198606
 20
7521.915360473252
 30
0.0
 40
6.300000000000181
100
AcDbArc
 50
0.0
 51
90.00000000000826
  0
ARC
  5
1ADA4
330
1A72B
100
AcDbEntity
  8
U1
100
AcDbCircle
 10
5078.01703198606
 20
7521.915360473252
 30
0.0
 40
6.300000000000181
100
AcDbArc
 50
90.0
 51
179.9999999999916
  0
LINE
  5
1ADA5
330
1A72B
100
AcDbEntity
  8
U1
100
AcDbLine
 10
5078.01703198606
 20
7528.215360473253
 30
0.0
 11
5110.41703198606
 21
7528.215360473253
 31
0.0
  0
ARC
  5
1ADA6
330
1A72B
100
AcDbEntity
  8
U1
100
AcDbCircle
 10
5110.41703198606
 20
7521.915360473252
 30
0.0
 40
6.300000000000181
100
AcDbArc
 50
0.0
 51
90.00000000000826
  0
LINE
  5
1ADA7
330
1A72B
100
AcDbEntity
  8
U1
100
AcDbLine
 10
5116.717031986058
 20
7521.915360473252
 30
0.0
 11
5116.717031986058
 21
7469.515360473251
 31
0.0
  0
ARC
  5
1ADA8
330
1A72B
100
AcDbEntity
  8
U1
100
AcDbCircle
 10
5110.41703198606
 20
7469.515360473251
 30
0.0
 40
6.299999999999272
100
AcDbArc
 50
269.9999999999918
 51
0.0
  0
LINE
  5
1ADA9
330
1A72B
100
AcDbEntity
  8
U1
100
AcDbLine
 10
5110.41703198606
 20
7463.215360473253
 30
0.0
 11
5058.01703198606
 21
7463.215360473253
 31
0.0
  0
ARC
  5
1ADAA
330
1A72B
100
AcDbEntity
  8
U1
100
AcDbCircle
 10
5058.017031986059
 20
7469.515360473251
 30
0.0
 40
6.299999999999272
100
AcDbArc
 50
180.0
 51
270.0000000000081
  0
LINE
  5
1ADAB
330
1A72B
100
AcDbEntity
  8
U1
100
AcDbLine
 10
5051.71703198606
 20
7469.515360473251
 30
0.0
 11
5051.71703198606
 21
7521.915360473252
 31
0.0
  0
ARC
  5
1ADAC
330
1A72B
100
AcDbEntity
  8
U1
100
AcDbCircle
 10
7560.41703198606
 20
7521.915360473252
 30
0.0
 40
6.299999999999272
100
AcDbArc
 50
0.0
 51
90.00000000000826
  0
LINE
  5
1ADAD
330
1A72B
100
AcDbEntity
  8
U1
100
AcDbLine
 10
7560.41703198606
 20
7528.215360473253
 30
0.0
 11
7553.017031986062
 21
7528.215360473253
 31
0.0
  0
ARC
  5
1ADAE
330
1A72B
100
AcDbEntity
  8
U1
100
AcDbCircle
 10
7553.017031986058
 20
7521.915360473252
 30
0.0
 40
6.300000000000181
100
AcDbArc
 50
89.99999999999173
 51
180.0
  0
ARC
  5
1ADAF
330
1A72B
100
AcDbEntity
  8
U1
100
AcDbCircle
 10
7540.417031986058
 20
7521.915360473252
 30
0.0
 40
6.300000000000181
100
AcDbArc
 50
0.0000000000082715
 51
90.0
  0
LINE
  5
1ADB0
330
1A72B
100
AcDbEntity
  8
U1
100
AcDbLine
 10
7540.417031986058
 20
7528.215360473253
 30
0.0
 11
7508.017031986061
 21
7528.215360473253
 31
0.0
  0
ARC
  5
1ADB1
330
1A72B
100
AcDbEntity
  8
U1
100
AcDbCircle
 10
7508.017031986058
 20
7521.915360473252
 30
0.0
 40
6.300000000000181
100
AcDbArc
 50
89.99999999999173
 51
180.0
  0
LINE
  5
1ADB2
330
1A72B
100
AcDbEntity
  8
U1
100
AcDbLine
 10
7501.71703198606
 20
7521.915360473252
 30
0.0
 11
7501.71703198606
 21
7469.515360473251
 31
0.0
  0
ARC
  5
1ADB3
330
1A72B
100
AcDbEntity
  8
U1
100
AcDbCircle
 10
7508.017031986058
 20
7469.515360473251
 30
0.0
 40
6.299999999999272
100
AcDbArc
 50
180.0
 51
270.0000000000081
  0
LINE
  5
1ADB4
330
1A72B
100
AcDbEntity
  8
U1
100
AcDbLine
 10
7508.017031986061
 20
7463.215360473253
 30
0.0
 11
7560.41703198606
 21
7463.215360473253
 31
0.0
  0
ARC
  5
1ADB5
330
1A72B
100
AcDbEntity
  8
U1
100
AcDbCircle
 10
7560.41703198606
 20
7469.515360473251
 30
0.0
 40
6.299999999999272
100
AcDbArc
 50
269.9999999999918
 51
0.0
  0
LINE
  5
1ADB6
330
1A72B
100
AcDbEntity
  8
U1
100
AcDbLine
 10
7566.71703198606
 20
7469.515360473251
 30
0.0
 11
7566.71703198606
 21
7521.915360473252
 31
0.0
  0
ARC
  5
1ADB7
330
1A72B
100
AcDbEntity
  8
U1
100
AcDbCircle
 10
11310.41703198606
 20
7521.915360473252
 30
0.0
 40
6.299999999999272
100
AcDbArc
 50
0.0
 51
90.0
  0
LINE
  5
1ADB8
330
1A72B
100
AcDbEntity
  8
U1
100
AcDbLine
 10
11310.41703198606
 20
7528.215360473253
 30
0.0
 11
11303.01703198606
 21
7528.215360473253
 31
0.0
  0
ARC
  5
1ADB9
330
1A72B
100
AcDbEntity
  8
U1
100
AcDbCircle
 10
11303.01703198606
 20
7521.915360473252
 30
0.0
 40
6.300000000000181
100
AcDbArc
 50
90.0
 51
180.0
  0
ARC
  5
1ADBA
330
1A72B
100
AcDbEntity
  8
U1
100
AcDbCircle
 10
11290.41703198606
 20
7521.915360473252
 30
0.0
 40
6.299999999999272
100
AcDbArc
 50
0.0
 51
90.0
  0
LINE
  5
1ADBB
330
1A72B
100
AcDbEntity
  8
U1
100
AcDbLine
 10
11290.41703198606
 20
7528.215360473253
 30
0.0
 11
11258.01703198606
 21
7528.215360473253
 31
0.0
  0
ARC
  5
1ADBC
330
1A72B
100
AcDbEntity
  8
U1
100
AcDbCircle
 10
11258.01703198606
 20
7521.915360473252
 30
0.0
 40
6.300000000000181
100
AcDbArc
 50
90.0
 51
180.0
  0
LINE
  5
1ADBD
330
1A72B
100
AcDbEntity
  8
U1
100
AcDbLine
 10
11251.71703198605
 20
7521.915360473252
 30
0.0
 11
11251.71703198605
 21
7469.515360473251
 31
0.0
  0
ARC
  5
1ADBE
330
1A72B
100
AcDbEntity
  8
U1
100
AcDbCircle
 10
11258.01703198606
 20
7469.515360473251
 30
0.0
 40
6.299999999999272
100
AcDbArc
 50
180.0
 51
270.0
  0
LINE
  5
1ADBF
330
1A72B
100
AcDbEntity
  8
U1
100
AcDbLine
 10
11258.01703198606
 20
7463.215360473253
 30
0.0
 11
11310.41703198606
 21
7463.215360473253
 31
0.0
  0
ARC
  5
1ADC0
330
1A72B
100
AcDbEntity
  8
U1
100
AcDbCircle
 10
11310.41703198606
 20
7469.515360473251
 30
0.0
 40
6.299999999999272
100
AcDbArc
 50
270.0
 51
0.0
  0
LINE
  5
1ADC1
330
1A72B
100
AcDbEntity
  8
U1
100
AcDbLine
 10
11316.71703198606
 20
7469.515360473251
 30
0.0
 11
11316.71703198606
 21
7521.915360473252
 31
0.0
  0
TEXT
  5
1ADE3
330
1A72B
100
AcDbEntity
  8
SUNPOU
100
AcDbText
 10
1606.816781718915
 20
4313.68357085428
 30
0.0
 40
90.0
  1
寒冷地の場合、凍結深度等を考慮し、実情に
  7
01
100
AcDbText
  0
TEXT
  5
1ADE4
330
1A72B
100
AcDbEntity
  8
SUNPOU
100
AcDbText
 10
1606.816781718915
 20
4005.112142282853
 30
0.0
 40
90.0
  1
その他現地の実情にあわせて設計して下さい。
  7
01
100
AcDbText
  0
TEXT
  5
1ADE5
330
1A72B
100
AcDbEntity
  8
SUNPOU
100
AcDbText
 10
1231.861036629522
 20
4692.969285139992
 30
0.0
 40
89.9993750043402
  1
地耐力   　　　 以上,コンクリート設計基準強度　　　　　以上
  7
01
100
AcDbText
  0
TEXT
  5
1ADE6
330
1A72B
100
AcDbEntity
  8
SUNPOU
100
AcDbText
 10
1400.611036629522
 20
4313.68357085428
 30
0.0
 40
90.0
  1
1
 41
0.6700000000000001
  7
01
100
AcDbText
  0
TEXT
  5
1ADE7
330
1A72B
100
AcDbEntity
  8
SUNPOU
100
AcDbText
 10
1289.977116416779
 20
4313.68357085428
 30
0.0
 40
90.0
  1
注　）
  7
01
100
AcDbText
  0
TEXT
  5
1ADE8
330
1A72B
100
AcDbEntity
  8
SUNPOU
100
AcDbText
 10
1606.816781718915
 20
4159.397856568564
 30
0.0
 40
90.0
  1
あわせて設計して下さい。
  7
01
100
AcDbText
  0
TEXT
  5
1ADE9
330
1A72B
100
AcDbEntity
  8
SUNPOU
100
AcDbText
 10
1289.977116416779
 20
4005.112142282853
 30
0.0
 40
90.0
  1
注　）
  7
01
100
AcDbText
  0
TEXT
  5
1ADEA
330
1A72B
100
AcDbEntity
  8
SUNPOU
100
AcDbText
 10
1400.611036629522
 20
4005.112142282853
 30
0.0
 40
90.0
  1
2
 41
0.6700000000000001
  7
01
100
AcDbText
  0
TEXT
  5
1ADEB
330
1A72B
100
AcDbEntity
  8
SUNPOU
100
AcDbText
 10
1943.504888133405
 20
5052.030979893642
 30
0.0
 40
92.30769230769228
  1
（ S = 　　  ）
 41
0.6700000000000001
  7
00
 11
1943.504888133405
 21
5039.72328758595
 31
0.0
100
AcDbText
 73
     1
  0
TEXT
  5
1ADEC
330
1A72B
100
AcDbEntity
  8
SUNPOU
100
AcDbText
 10
1101.297407913292
 20
4882.223287585949
 30
0.0
 40
90.0
  1
<下記条件での参考図>
  7
01
 72
     4
 11
1690.154550770435
 21
4927.223287585949
 31
0.0
100
AcDbText
  0
TEXT
  5
1ADED
330
1A72B
100
AcDbEntity
  8
SUNPOU
100
AcDbText
 10
1231.861036629522
 20
4538.68357085428
 30
0.0
 40
89.9993750043402
  1
基準風速   　　 , 地表面粗度区分
  7
01
100
AcDbText
  0
TEXT
  5
1ADEE
330
1A72B
100
AcDbEntity
  8
SUNPOU
100
AcDbText
 10
1226.654550770434
 20
5039.72328758595
 30
0.0
 40
120.0
  1
基礎断面図
  7
01
 72
     4
 11
1566.654550770434
 21
5099.723287585948
 31
0.0
100
AcDbText
  0
ARC
  5
1ADEF
330
1A72B
100
AcDbEntity
  8
SUNPOU
100
AcDbCircle
 10
1384.819310536729
 20
4656.756708581824
 30
0.0
 40
225.0
100
AcDbArc
 50
148.3472725282829
 51
211.652727471717
  0
TEXT
  5
1ADF0
330
1A72B
100
AcDbEntity
  8
SUNPOU
100
AcDbText
 10
1606.119444054605
 20
4692.969285139992
 30
0.0
 40
89.9993750043402
  1
50  N/m
 41
0.6700000000000001
  7
01
100
AcDbText
  0
TEXT
  5
1ADF1
330
1A72B
100
AcDbEntity
  8
SUNPOU
100
AcDbText
 10
2009.59605356894
 20
4743.15771149748
 30
0.0
 40
46.28539285937498
  1
2
 41
0.6700000000000001
  7
00
100
AcDbText
  0
TEXT
  5
1ADF2
330
1A72B
100
AcDbEntity
  8
SUNPOU
100
AcDbText
 10
1715.624465294689
 20
4538.68357085428
 30
0.0
 40
89.9993750043402
  1
34 m/s
 41
0.6700000000000001
  7
01
100
AcDbText
  0
TEXT
  5
1ADF3
330
1A72B
100
AcDbEntity
  8
SUNPOU
100
AcDbText
 10
1741.955896840559
 20
4692.969285139992
 30
0.0
 40
71.99950000347218
  1
K
 41
0.6700000000000001
  7
01
100
AcDbText
  0
TEXT
  5
1ADF4
330
1A72B
100
AcDbEntity
  8
SUNPOU
100
AcDbText
 10
2375.563160256231
 20
5031.107902970564
 30
0.0
 40
73.84615384615384
  1
25
 41
0.6700000000000001
  7
00
 11
2375.563160256231
 21
5021.261749124409
 31
0.0
100
AcDbText
 73
     1
  0
TEXT
  5
1ADF5
330
1A72B
100
AcDbEntity
  8
SUNPOU
100
AcDbText
 10
2263.207589986488
 20
5068.030979893642
 30
0.0
 40
73.84615384615384
  1
1
 41
0.6700000000000001
  7
00
 11
2263.207589986488
 21
5058.184826047488
 31
0.0
100
AcDbText
 73
     1
  0
TEXT
  5
1ADF6
330
1A72B
100
AcDbEntity
  8
SUNPOU
100
AcDbText
 10
2311.61371730186
 20
5049.569441432104
 30
0.0
 40
73.84615384615384
  1
/
 41
0.6700000000000001
  7
00
 11
2311.61371730186
 21
5039.72328758595
 31
0.0
100
AcDbText
 73
     1
  0
LINE
  5
1ADF7
330
1A72B
100
AcDbEntity
  8
SUNPOU
100
AcDbLine
 10
3023.676598196132
 20
4622.175934553059
 30
0.0
 11
3079.926598196132
 21
4622.175934553059
 31
0.0
  0
LINE
  5
1ADF8
330
1A72B
100
AcDbEntity
  8
SUNPOU
100
AcDbLine
 10
3023.676598196132
 20
4538.683570854278
 30
0.0
 11
3079.926598196132
 21
4538.683570854278
 31
0.0
  0
LINE
  5
1ADF9
330
1A72B
100
AcDbEntity
  8
SUNPOU
100
AcDbLine
 10
3034.926598196132
 20
4538.68357085428
 30
0.0
 11
3034.926598196132
 21
4622.175934553059
 31
0.0
  0
LINE
  5
1ADFA
330
1A72B
100
AcDbEntity
  8
SUNPOU
100
AcDbLine
 10
3051.801598196132
 20
4538.68357085428
 30
0.0
 11
3051.801598196132
 21
4622.175934553059
 31
0.0
  0
LINE
  5
1ADFB
330
1A72B
100
AcDbEntity
  8
SUNPOU
100
AcDbLine
 10
3068.676598196131
 20
4538.68357085428
 30
0.0
 11
3068.676598196131
 21
4622.175934553059
 31
0.0
  0
TEXT
  5
1ADFC
330
1A72B
100
AcDbEntity
  8
SUNPOU
100
AcDbText
 10
3810.447205654339
 20
4692.969285139992
 30
0.0
 40
89.9993750043402
  1
N/mm
 41
0.6700000000000001
  7
01
100
AcDbText
  0
TEXT
  5
1ADFD
330
1A72B
100
AcDbEntity
  8
SUNPOU
100
AcDbText
 10
3674.610752868387
 20
4692.969285139992
 30
0.0
 40
89.9993750043402
  1
18
 41
0.6700000000000001
  7
01
100
AcDbText
  0
TEXT
  5
1ADFE
330
1A72B
100
AcDbEntity
  8
SUNPOU
100
AcDbText
 10
4114.911687685743
 20
4743.15771149748
 30
0.0
 40
46.28539285937498
  1
2
 41
0.6700000000000001
  7
00
100
AcDbText
  0
ARC
  5
1ADFF
330
1A72B
100
AcDbEntity
  8
SUNPOU
100
AcDbCircle
 10
4269.650337923982
 20
4656.756708581824
 30
0.0
 40
225.0
100
AcDbArc
 50
328.3472725282829
 51
31.65272747171703
  0
ENDSEC
  0
SECTION
  2
OBJECTS
  0
DICTIONARY
  5
1A719
330
0
100
AcDbDictionary
281
     1
  3
ACAD_GROUP
350
1A71A
  3
ACAD_LAYOUT
350
1A726
  3
ACAD_MLINESTYLE
350
1A723
  3
ACAD_PLOTSETTINGS
350
1A725
  3
ACAD_PLOTSTYLENAME
350
1A71B
  3
AcDbVariableDictionary
350
1AE00
  0
DICTIONARY
  5
1A71A
102
{ACAD_REACTORS
330
1A719
102
}
330
1A719
100
AcDbDictionary
281
     1
  0
DICTIONARY
  5
1A726
102
{ACAD_REACTORS
330
1A719
102
}
330
1A719
100
AcDbDictionary
281
     1
  3
Model
350
1A72E
  3
ﾚｲｱｳﾄ1
350
1A72A
  0
DICTIONARY
  5
1A723
102
{ACAD_REACTORS
330
1A719
102
}
330
1A719
100
AcDbDictionary
281
     1
  3
Standard
350
1A724
  0
DICTIONARY
  5
1A725
102
{ACAD_REACTORS
330
1A719
102
}
330
1A719
100
AcDbDictionary
281
     1
  0
ACDBDICTIONARYWDFLT
  5
1A71B
102
{ACAD_REACTORS
330
1A719
102
}
330
1A719
100
AcDbDictionary
281
     1
  3
Normal
350
1A71C
100
AcDbDictionaryWithDefault
340
1A71C
  0
DICTIONARY
  5
1AE00
102
{ACAD_REACTORS
330
1A719
102
}
330
1A719
100
AcDbDictionary
281
     1
  3
DIMASSOC
350
1AE01
  0
LAYOUT
  5
1A72E
102
{ACAD_REACTORS
330
1A726
102
}
330
1A726
100
AcDbPlotSettings
  1

  2
Muratec V-1200 Is@Web Printer
  4

  6

 40
0.0
 41
0.0
 42
0.0
 43
0.0
 44
0.0
 45
0.0
 46
0.0
 47
0.0
 48
0.0
 49
0.0
140
0.0
141
0.0
142
1.0
143
1.0
 70
  1712
 72
     0
 73
     0
 74
     0
  7

 75
     0
147
1.0
148
0.0
149
0.0
100
AcDbLayout
  1
Model
 70
     1
 71
     0
 10
0.0
 20
0.0
 11
12.0
 21
9.0
 12
0.0
 22
0.0
 32
0.0
 14
0.0
 24
0.0
 34
0.0
 15
0.0
 25
0.0
 35
0.0
146
0.0
 13
0.0
 23
0.0
 33
0.0
 16
1.0
 26
0.0
 36
0.0
 17
0.0
 27
1.0
 37
0.0
 76
     0
330
1A72B
  0
LAYOUT
  5
1A72A
102
{ACAD_REACTORS
330
1A726
102
}
330
1A726
100
AcDbPlotSettings
  1

  2
Muratec V-1200 Is@Web Printer
  4

  6

 40
0.0
 41
0.0
 42
0.0
 43
0.0
 44
0.0
 45
0.0
 46
0.0
 47
0.0
 48
0.0
 49
0.0
140
0.0
141
0.0
142
1.0
143
1.0
 70
   688
 72
     0
 73
     0
 74
     5
  7

 75
    16
147
1.0
148
0.0
149
0.0
100
AcDbLayout
  1
ﾚｲｱｳﾄ1
 70
     0
 71
     1
 10
0.0
 20
0.0
 11
12.0
 21
9.0
 12
0.0
 22
0.0
 32
0.0
 14
1.000000000000000E+20
 24
1.000000000000000E+20
 34
1.000000000000000E+20
 15
-1.000000000000000E+20
 25
-1.000000000000000E+20
 35
-1.000000000000000E+20
146
0.0
 13
0.0
 23
0.0
 33
0.0
 16
1.0
 26
0.0
 36
0.0
 17
0.0
 27
1.0
 37
0.0
 76
     0
330
1A727
  0
MLINESTYLE
  5
1A724
102
{ACAD_REACTORS
330
1A723
102
}
330
1A723
100
AcDbMlineStyle
  2
STANDARD
 70
     0
  3

 62
   256
 51
90.0
 52
90.0
 71
     2
 49
0.5
 62
   256
  6
BYLAYER
 49
-0.5
 62
   256
  6
BYLAYER
  0
ACDBPLACEHOLDER
  5
1A71C
102
{ACAD_REACTORS
330
1A71B
102
}
330
1A71B
  0
DICTIONARYVAR
  5
1AE01
102
{ACAD_REACTORS
330
1AE00
102
}
330
1AE00
100
DictionaryVariables
280
     0
  1
1
  0
ENDSEC
  0
EOF
