  0
SECTION
  2
HEADER
  9
$ACADVER
  1
AC1015
  9
$ACADMAINTVER
 70
    13
  9
$DWGCODEPAGE
  3
ANSI_932
  9
$INSBASE
 10
267.0
 20
194.8999999999998
 30
0.0
  9
$EXTMIN
 10
433.9966216520333
 20
163.6908237492789
 30
-0.000000000000013
  9
$EXTMAX
 10
16382.6660542547
 20
11242.27663824599
 30
0.0000000000000023
  9
$LIMMIN
 10
0.0
 20
0.0
  9
$LIMMAX
 10
16800.0
 20
11880.0
  9
$ORTHOMODE
 70
     1
  9
$REGENMODE
 70
     1
  9
$FILLMODE
 70
     1
  9
$QTEXTMODE
 70
     0
  9
$MIRRTEXT
 70
     0
  9
$LTSCALE
 40
40.0
  9
$ATTMODE
 70
     1
  9
$TEXTSIZE
 40
0.2
  9
$TRACEWID
 40
0.05
  9
$TEXTSTYLE
  7
00
  9
$CLAYER
  8
SUNPOU
  9
$CELTYPE
  6
ByLayer
  9
$CECOLOR
 62
   256
  9
$CELTSCALE
 40
1.0
  9
$DISPSILH
 70
     0
  9
$DIMSCALE
 40
40.0
  9
$DIMASZ
 40
0.5
  9
$DIMEXO
 40
1.0
  9
$DIMDLI
 40
7.0
  9
$DIMRND
 40
0.0
  9
$DIMDLE
 40
3.0
  9
$DIMEXE
 40
1.5
  9
$DIMTP
 40
0.0
  9
$DIMTM
 40
0.0
  9
$DIMTXT
 40
3.0
  9
$DIMCEN
 40
0.0
  9
$DIMTSZ
 40
0.0
  9
$DIMTOL
 70
     0
  9
$DIMLIM
 70
     0
  9
$DIMTIH
 70
     0
  9
$DIMTOH
 70
     0
  9
$DIMSE1
 70
     0
  9
$DIMSE2
 70
     0
  9
$DIMTAD
 70
     1
  9
$DIMZIN
 70
     8
  9
$DIMBLK
  1
DOT
  9
$DIMASO
 70
     1
  9
$DIMSHO
 70
     0
  9
$DIMPOST
  1

  9
$DIMAPOST
  1

  9
$DIMALT
 70
     0
  9
$DIMALTD
 70
     2
  9
$DIMALTF
 40
25.4
  9
$DIMLFAC
 40
1.0
  9
$DIMTOFL
 70
     1
  9
$DIMTVP
 40
0.0
  9
$DIMTIX
 70
     0
  9
$DIMSOXD
 70
     0
  9
$DIMSAH
 70
     1
  9
$DIMBLK1
  1
DOT
  9
$DIMBLK2
  1
DOT
  9
$DIMSTYLE
  2
SUNPOU_図面名
  9
$DIMCLRD
 70
   256
  9
$DIMCLRE
 70
   256
  9
$DIMCLRT
 70
   256
  9
$DIMTFAC
 40
1.0
  9
$DIMGAP
 40
1.5
  9
$DIMJUST
 70
     0
  9
$DIMSD1
 70
     0
  9
$DIMSD2
 70
     0
  9
$DIMTOLJ
 70
     1
  9
$DIMTZIN
 70
     0
  9
$DIMALTZ
 70
     0
  9
$DIMALTTZ
 70
     0
  9
$DIMUPT
 70
     0
  9
$DIMDEC
 70
     2
  9
$DIMTDEC
 70
     2
  9
$DIMALTU
 70
     2
  9
$DIMALTTD
 70
     2
  9
$DIMTXSTY
  7
STANDARD
  9
$DIMAUNIT
 70
     0
  9
$DIMADEC
 70
     0
  9
$DIMALTRND
 40
0.0
  9
$DIMAZIN
 70
     0
  9
$DIMDSEP
 70
    46
  9
$DIMATFIT
 70
     3
  9
$DIMFRAC
 70
     0
  9
$DIMLDRBLK
  1

  9
$DIMLUNIT
 70
     2
  9
$DIMLWD
 70
    -2
  9
$DIMLWE
 70
    -2
  9
$DIMTMOVE
 70
     2
  9
$LUNITS
 70
     2
  9
$LUPREC
 70
     2
  9
$SKETCHINC
 40
0.1
  9
$FILLETRAD
 40
0.0
  9
$AUNITS
 70
     0
  9
$AUPREC
 70
     0
  9
$MENU
  1
A:\TIGER\MENU\TIGER
  9
$ELEVATION
 40
0.0
  9
$PELEVATION
 40
0.0
  9
$THICKNESS
 40
0.0
  9
$LIMCHECK
 70
     0
  9
$CHAMFERA
 40
0.0
  9
$CHAMFERB
 40
0.0
  9
$CHAMFERC
 40
1.0
  9
$CHAMFERD
 40
0.0
  9
$SKPOLY
 70
     0
  9
$TDCREATE
 40
2450266.571064815
  9
$TDUCREATE
 40
2450266.196064815
  9
$TDUPDATE
 40
2456332.320723379
  9
$TDUUPDATE
 40
2456331.945723379
  9
$TDINDWG
 40
0.2202569676
  9
$TDUSRTIMER
 40
0.2202567824
  9
$USRTIMER
 70
     1
  9
$ANGBASE
 50
0.0
  9
$ANGDIR
 70
     0
  9
$PDMODE
 70
     0
  9
$PDSIZE
 40
0.0
  9
$PLINEWID
 40
0.0
  9
$SPLFRAME
 70
     0
  9
$SPLINETYPE
 70
     6
  9
$SPLINESEGS
 70
     8
  9
$HANDSEED
  5
1AA72
  9
$SURFTAB1
 70
     6
  9
$SURFTAB2
 70
     6
  9
$SURFTYPE
 70
     6
  9
$SURFU
 70
     6
  9
$SURFV
 70
     6
  9
$UCSBASE
  2

  9
$UCSNAME
  2

  9
$UCSORG
 10
0.0
 20
0.0
 30
0.0
  9
$UCSXDIR
 10
1.0
 20
0.0
 30
0.0
  9
$UCSYDIR
 10
0.0
 20
1.0
 30
0.0
  9
$UCSORTHOREF
  2

  9
$UCSORTHOVIEW
 70
     0
  9
$UCSORGTOP
 10
0.0
 20
0.0
 30
0.0
  9
$UCSORGBOTTOM
 10
0.0
 20
0.0
 30
0.0
  9
$UCSORGLEFT
 10
0.0
 20
0.0
 30
0.0
  9
$UCSORGRIGHT
 10
0.0
 20
0.0
 30
0.0
  9
$UCSORGFRONT
 10
0.0
 20
0.0
 30
0.0
  9
$UCSORGBACK
 10
0.0
 20
0.0
 30
0.0
  9
$PUCSBASE
  2

  9
$PUCSNAME
  2

  9
$PUCSORG
 10
0.0
 20
0.0
 30
0.0
  9
$PUCSXDIR
 10
1.0
 20
0.0
 30
0.0
  9
$PUCSYDIR
 10
0.0
 20
1.0
 30
0.0
  9
$PUCSORTHOREF
  2

  9
$PUCSORTHOVIEW
 70
     0
  9
$PUCSORGTOP
 10
0.0
 20
0.0
 30
0.0
  9
$PUCSORGBOTTOM
 10
0.0
 20
0.0
 30
0.0
  9
$PUCSORGLEFT
 10
0.0
 20
0.0
 30
0.0
  9
$PUCSORGRIGHT
 10
0.0
 20
0.0
 30
0.0
  9
$PUCSORGFRONT
 10
0.0
 20
0.0
 30
0.0
  9
$PUCSORGBACK
 10
0.0
 20
0.0
 30
0.0
  9
$USERI1
 70
     3
  9
$USERI2
 70
     0
  9
$USERI3
 70
     0
  9
$USERI4
 70
     0
  9
$USERI5
 70
  1103
  9
$USERR1
 40
0.0
  9
$USERR2
 40
1.0
  9
$USERR3
 40
0.0
  9
$USERR4
 40
0.0
  9
$USERR5
 40
0.0
  9
$WORLDVIEW
 70
     1
  9
$SHADEDGE
 70
     3
  9
$SHADEDIF
 70
    70
  9
$TILEMODE
 70
     1
  9
$MAXACTVP
 70
    16
  9
$PINSBASE
 10
0.0
 20
0.0
 30
0.0
  9
$PLIMCHECK
 70
     0
  9
$PEXTMIN
 10
1.000000000000000E+20
 20
1.000000000000000E+20
 30
1.000000000000000E+20
  9
$PEXTMAX
 10
-1.000000000000000E+20
 20
-1.000000000000000E+20
 30
-1.000000000000000E+20
  9
$PLIMMIN
 10
0.0
 20
0.0
  9
$PLIMMAX
 10
12.0
 20
9.0
  9
$UNITMODE
 70
     0
  9
$VISRETAIN
 70
     0
  9
$PLINEGEN
 70
     1
  9
$PSLTSCALE
 70
     0
  9
$TREEDEPTH
 70
  3020
  9
$CMLSTYLE
  2
Standard
  9
$CMLJUST
 70
     0
  9
$CMLSCALE
 40
1.0
  9
$PROXYGRAPHICS
 70
     1
  9
$MEASUREMENT
 70
     0
  9
$CELWEIGHT
370
    -1
  9
$ENDCAPS
280
     0
  9
$JOINSTYLE
280
     0
  9
$LWDISPLAY
290
     0
  9
$INSUNITS
 70
     0
  9
$HYPERLINKBASE
  1

  9
$STYLESHEET
  1

  9
$XEDIT
290
     1
  9
$CEPSNTYPE
380
     0
  9
$PSTYLEMODE
290
     1
  9
$FINGERPRINTGUID
  2
{0AF9A933-C9D2-4E9E-9F28-52CD9D373536}
  9
$VERSIONGUID
  2
{6EE813A4-B1DF-4316-8A53-BC65BA6D685C}
  9
$EXTNAMES
290
     1
  9
$PSVPSCALE
 40
0.0
  9
$OLESTARTUP
290
     0
  0
ENDSEC
  0
SECTION
  2
CLASSES
  0
CLASS
  1
ACDBDICTIONARYWDFLT
  2
AcDbDictionaryWithDefault
  3
AutoCAD 2000
 90
        0
280
     0
281
     0
  0
CLASS
  1
ACDBPLACEHOLDER
  2
AcDbPlaceHolder
  3
AutoCAD 2000
 90
        0
280
     0
281
     0
  0
CLASS
  1
LAYOUT
  2
AcDbLayout
  3
AutoCAD 2000
 90
        0
280
     0
281
     0
  0
CLASS
  1
DICTIONARYVAR
  2
AcDbDictionaryVar
  3
AutoCAD 2000
 90
        0
280
     0
281
     0
  0
ENDSEC
  0
SECTION
  2
TABLES
  0
TABLE
  2
VPORT
  5
1A9F7
330
0
100
AcDbSymbolTable
 70
     2
  0
VPORT
  5
1AA71
330
1A9F7
100
AcDbSymbolTableRecord
100
AcDbViewportTableRecord
  2
*Active
 70
     0
 10
0.0
 20
0.0
 11
1.0
 21
1.0
 12
8408.331337953367
 22
5702.983730997637
 13
0.0
 23
0.0
 14
1.0
 24
1.0
 15
0.0
 25
0.0
 16
0.0
 26
0.0
 36
1.0
 17
0.0
 27
0.0
 37
0.0
 40
11162.83361536741
 41
1.527918781725888
 42
50.0
 43
0.0
 44
0.0
 50
0.0
 51
0.0
 71
     0
 72
 10000
 73
     1
 74
     0
 75
     0
 76
     0
 77
     0
 78
     0
281
     0
 65
     0
110
0.0
120
0.0
130
0.0
111
1.0
121
0.0
131
0.0
112
0.0
122
1.0
132
0.0
 79
     0
146
0.0
  0
ENDTAB
  0
TABLE
  2
LTYPE
  5
1A9F4
330
0
100
AcDbSymbolTable
 70
     5
  0
LTYPE
  5
1AA02
330
1A9F4
100
AcDbSymbolTableRecord
100
AcDbLinetypeTableRecord
  2
ByBlock
 70
     0
  3

 72
    65
 73
     0
 40
0.0
  0
LTYPE
  5
1AA03
330
1A9F4
100
AcDbSymbolTableRecord
100
AcDbLinetypeTableRecord
  2
ByLayer
 70
     0
  3

 72
    65
 73
     0
 40
0.0
  0
LTYPE
  5
1AA04
330
1A9F4
100
AcDbSymbolTableRecord
100
AcDbLinetypeTableRecord
  2
CONTINUOUS
 70
     0
  3
実線
 72
    65
 73
     0
 40
0.0
  0
LTYPE
  5
1AA10
330
1A9F4
100
AcDbSymbolTableRecord
100
AcDbLinetypeTableRecord
  2
1PL-LL
 70
     0
  3

 72
    65
 73
     4
 40
106.0
 49
100.0
 74
     0
 49
-2.0
 74
     0
 49
2.0
 74
     0
 49
-2.0
 74
     0
  0
LTYPE
  5
1AA11
330
1A9F4
100
AcDbSymbolTableRecord
100
AcDbLinetypeTableRecord
  2
1PL-M
 70
     0
  3

 72
    65
 73
     4
 40
15.0
 49
12.0
 74
     0
 49
-1.0
 74
     0
 49
1.0
 74
     0
 49
-1.0
 74
     0
  0
LTYPE
  5
1AA12
330
1A9F4
100
AcDbSymbolTableRecord
100
AcDbLinetypeTableRecord
  2
2PL-L
 70
     0
  3

 72
    65
 73
     6
 40
60.0
 49
50.0
 74
     0
 49
-2.0
 74
     0
 49
2.0
 74
     0
 49
-2.0
 74
     0
 49
2.0
 74
     0
 49
-2.0
 74
     0
  0
LTYPE
  5
1AA13
330
1A9F4
100
AcDbSymbolTableRecord
100
AcDbLinetypeTableRecord
  2
1PL-12
 70
     0
  3

 72
    65
 73
     4
 40
15.0
 49
12.0
 74
     0
 49
-1.0
 74
     0
 49
1.0
 74
     0
 49
-1.0
 74
     0
  0
ENDTAB
  0
TABLE
  2
LAYER
  5
1A9F1
330
0
100
AcDbSymbolTable
 70
    19
  0
LAYER
  5
1A9FF
330
1A9F1
100
AcDbSymbolTableRecord
100
AcDbLayerTableRecord
  2
0
 70
     0
 62
     7
  6
CONTINUOUS
370
    -3
390
1A9FE
  0
LAYER
  5
1AA15
330
1A9F1
100
AcDbSymbolTableRecord
100
AcDbLayerTableRecord
  2
U1
 70
     0
 62
     3
  6
CONTINUOUS
370
    -3
390
1A9FE
  0
LAYER
  5
1AA16
330
1A9F1
100
AcDbSymbolTableRecord
100
AcDbLayerTableRecord
  2
U3
 70
     0
 62
     6
  6
CONTINUOUS
370
    -3
390
1A9FE
  0
LAYER
  5
1AA17
330
1A9F1
100
AcDbSymbolTableRecord
100
AcDbLayerTableRecord
  2
SUNPOU
 70
     0
 62
     4
  6
CONTINUOUS
370
    -3
390
1A9FE
  0
LAYER
  5
1AA18
330
1A9F1
100
AcDbSymbolTableRecord
100
AcDbLayerTableRecord
  2
HIKIDASHI
 70
     0
 62
     6
  6
CONTINUOUS
370
    -3
390
1A9FE
  0
LAYER
  5
1AA19
330
1A9F1
100
AcDbSymbolTableRecord
100
AcDbLayerTableRecord
  2
1PL-M1
 70
     0
 62
     6
  6
1PL-M
370
    -3
390
1A9FE
  0
LAYER
  5
1AA1A
330
1A9F1
100
AcDbSymbolTableRecord
100
AcDbLayerTableRecord
  2
NAME
 70
     0
 62
    20
  6
CONTINUOUS
370
    -3
390
1A9FE
  0
LAYER
  5
1AA1B
330
1A9F1
100
AcDbSymbolTableRecord
100
AcDbLayerTableRecord
  2
FILENAME
 70
     0
 62
     7
  6
CONTINUOUS
370
    -3
390
1A9FE
  0
LAYER
  5
1AA1C
330
1A9F1
100
AcDbSymbolTableRecord
100
AcDbLayerTableRecord
  2
CENTER
 70
     0
 62
     6
  6
1PL-LL
370
    -3
390
1A9FE
  0
LAYER
  5
1AA1D
330
1A9F1
100
AcDbSymbolTableRecord
100
AcDbLayerTableRecord
  2
KISO
 70
     0
 62
     2
  6
CONTINUOUS
370
    -3
390
1A9FE
  0
LAYER
  5
1AA1E
330
1A9F1
100
AcDbSymbolTableRecord
100
AcDbLayerTableRecord
  2
YANE
 70
     0
 62
     1
  6
1PL-12
370
    -3
390
1A9FE
  0
LAYER
  5
1AA1F
330
1A9F1
100
AcDbSymbolTableRecord
100
AcDbLayerTableRecord
  2
HATCH
 70
     0
 62
     1
  6
CONTINUOUS
370
    -3
390
1A9FE
  0
LAYER
  5
1AA20
330
1A9F1
100
AcDbSymbolTableRecord
100
AcDbLayerTableRecord
  2
HASHIRA
 70
     0
 62
     3
  6
CONTINUOUS
370
    -3
390
1A9FE
  0
LAYER
  5
1AA21
330
1A9F1
100
AcDbSymbolTableRecord
100
AcDbLayerTableRecord
  2
TEKKIN
 70
     0
 62
     2
  6
CONTINUOUS
370
    -3
390
1A9FE
  0
LAYER
  5
1AA22
330
1A9F1
100
AcDbSymbolTableRecord
100
AcDbLayerTableRecord
  2
DOMAKON
 70
     0
 62
     2
  6
CONTINUOUS
370
    -3
390
1A9FE
  0
LAYER
  5
1AA23
330
1A9F1
100
AcDbSymbolTableRecord
100
AcDbLayerTableRecord
  2
YODOROGO
 70
     0
 62
   130
  6
CONTINUOUS
370
    -3
390
1A9FE
  0
LAYER
  5
1AA24
330
1A9F1
100
AcDbSymbolTableRecord
100
AcDbLayerTableRecord
  2
WAKUSEN-01
 70
     0
 62
    50
  6
CONTINUOUS
370
    -3
390
1A9FE
  0
LAYER
  5
1AA25
330
1A9F1
100
AcDbSymbolTableRecord
100
AcDbLayerTableRecord
  2
WAKUSEN-02
 70
     0
 62
   130
  6
CONTINUOUS
370
    -3
390
1A9FE
  0
LAYER
  5
1AA26
330
1A9F1
100
AcDbSymbolTableRecord
100
AcDbLayerTableRecord
  2
WAKUMOJI-01
 70
     0
 62
   130
  6
CONTINUOUS
370
    -3
390
1A9FE
  0
ENDTAB
  0
TABLE
  2
STYLE
  5
1A9F2
330
0
100
AcDbSymbolTable
 70
     5
  0
STYLE
  5
1AA00
330
1A9F2
100
AcDbSymbolTableRecord
100
AcDbTextStyleTableRecord
  2
STANDARD
 70
     0
 40
3.0
 41
1.0
 50
0.0
 71
     0
 42
0.2
  3
ROMANS
  4
EXTFONT
  0
STYLE
  5
1AA28
330
1A9F2
100
AcDbSymbolTableRecord
100
AcDbTextStyleTableRecord
  2
01
 70
     0
 40
3.0
 41
1.0
 50
0.0
 71
     0
 42
0.2
  3
ROMANS
  4
BIGFONT
  0
STYLE
  5
1AA29
330
1A9F2
100
AcDbSymbolTableRecord
100
AcDbTextStyleTableRecord
  2
00
 70
     0
 40
0.0
 41
0.6666666666666666
 50
0.0
 71
     0
 42
0.2
  3
ROMANS
  4
BIGFONT
  0
STYLE
  5
1AA2A
330
1A9F2
100
AcDbSymbolTableRecord
100
AcDbTextStyleTableRecord
  2
FILENAME
 70
     0
 40
100.0
 41
1.0
 50
0.0
 71
     0
 42
100.0
  3
romans
  4
bigfont
  0
STYLE
  5
1AA2B
330
1A9F2
100
AcDbSymbolTableRecord
100
AcDbTextStyleTableRecord
  2
WAKUMOJI
 70
     0
 40
3.0
 41
1.0
 50
0.0
 71
     0
 42
3.0
  3
SIMPLEX
  4
BIGFONT
  0
ENDTAB
  0
TABLE
  2
VIEW
  5
1A9F5
330
0
100
AcDbSymbolTable
 70
     0
  0
ENDTAB
  0
TABLE
  2
UCS
  5
1A9F6
330
0
100
AcDbSymbolTable
 70
     0
  0
ENDTAB
  0
TABLE
  2
APPID
  5
1A9F8
330
0
100
AcDbSymbolTable
 70
     5
  0
APPID
  5
1AA01
330
1A9F8
100
AcDbSymbolTableRecord
100
AcDbRegAppTableRecord
  2
ACAD
 70
     0
  0
APPID
  5
1AA2D
330
1A9F8
100
AcDbSymbolTableRecord
100
AcDbRegAppTableRecord
  2
AUTOCAD_POSTSCRIPT_FIGURE
 70
     0
  0
APPID
  5
1AA2E
330
1A9F8
100
AcDbSymbolTableRecord
100
AcDbRegAppTableRecord
  2
ACAD_EXEMPT_FROM_CAD_STANDARDS
 70
     0
  0
APPID
  5
1AA2F
330
1A9F8
100
AcDbSymbolTableRecord
100
AcDbRegAppTableRecord
  2
ACAD_PSEXT
 70
     0
  0
APPID
  5
1AA30
330
1A9F8
100
AcDbSymbolTableRecord
100
AcDbRegAppTableRecord
  2
CONTENTBLOCKICON
 70
     0
  0
ENDTAB
  0
TABLE
  2
DIMSTYLE
  5
1A9F9
330
0
100
AcDbSymbolTable
 70
     1
100
AcDbDimStyleTable
 71
     0
  0
DIMSTYLE
105
D00
330
1A9F9
100
AcDbSymbolTableRecord
100
AcDbDimStyleTableRecord
  2
SUNPOU_図面名
 70
     0
 40
30.0
 41
0.5
 42
1.0
 43
7.0
 44
1.5
 46
3.0
 73
     0
 74
     0
 77
     1
 78
     8
140
3.0
141
0.0
147
1.5
172
     1
173
     1
176
   256
177
   256
178
   256
340
1AA29
341
1AA34
342
1AA34
343
1AA34
344
1AA34
  0
ENDTAB
  0
TABLE
  2
BLOCK_RECORD
  5
1A9F0
330
0
100
AcDbSymbolTable
 70
    26
  0
BLOCK_RECORD
  5
1AA0B
330
1A9F0
100
AcDbSymbolTableRecord
100
AcDbBlockTableRecord
  2
*Model_Space
340
1AA0C
  0
BLOCK_RECORD
  5
1AA09
330
1A9F0
100
AcDbSymbolTableRecord
100
AcDbBlockTableRecord
  2
*Paper_Space
340
1AA0A
  0
BLOCK_RECORD
  5
1AA34
330
1A9F0
100
AcDbSymbolTableRecord
100
AcDbBlockTableRecord
  2
DOT
340
0
  0
BLOCK_RECORD
  5
1AA36
330
1A9F0
100
AcDbSymbolTableRecord
100
AcDbBlockTableRecord
  2
*U1
340
0
  0
BLOCK_RECORD
  5
1AA38
330
1A9F0
100
AcDbSymbolTableRecord
100
AcDbBlockTableRecord
  2
*U2
340
0
  0
BLOCK_RECORD
  5
1AA3A
330
1A9F0
100
AcDbSymbolTableRecord
100
AcDbBlockTableRecord
  2
*U3
340
0
  0
BLOCK_RECORD
  5
1AA3C
330
1A9F0
100
AcDbSymbolTableRecord
100
AcDbBlockTableRecord
  2
*U4
340
0
  0
BLOCK_RECORD
  5
1AA3E
330
1A9F0
100
AcDbSymbolTableRecord
100
AcDbBlockTableRecord
  2
*U5
340
0
  0
BLOCK_RECORD
  5
1AA40
330
1A9F0
100
AcDbSymbolTableRecord
100
AcDbBlockTableRecord
  2
*U6
340
0
  0
BLOCK_RECORD
  5
1AA42
330
1A9F0
100
AcDbSymbolTableRecord
100
AcDbBlockTableRecord
  2
*U7
340
0
  0
BLOCK_RECORD
  5
1AA44
330
1A9F0
100
AcDbSymbolTableRecord
100
AcDbBlockTableRecord
  2
*U8
340
0
  0
BLOCK_RECORD
  5
1AA46
330
1A9F0
100
AcDbSymbolTableRecord
100
AcDbBlockTableRecord
  2
*U9
340
0
  0
BLOCK_RECORD
  5
1AA48
330
1A9F0
100
AcDbSymbolTableRecord
100
AcDbBlockTableRecord
  2
*U10
340
0
  0
BLOCK_RECORD
  5
1AA4A
330
1A9F0
100
AcDbSymbolTableRecord
100
AcDbBlockTableRecord
  2
*U11
340
0
  0
BLOCK_RECORD
  5
1AA4C
330
1A9F0
100
AcDbSymbolTableRecord
100
AcDbBlockTableRecord
  2
*U12
340
0
  0
BLOCK_RECORD
  5
1AA4E
330
1A9F0
100
AcDbSymbolTableRecord
100
AcDbBlockTableRecord
  2
*U13
340
0
  0
BLOCK_RECORD
  5
1AA50
330
1A9F0
100
AcDbSymbolTableRecord
100
AcDbBlockTableRecord
  2
*U14
340
0
  0
BLOCK_RECORD
  5
1AA52
330
1A9F0
100
AcDbSymbolTableRecord
100
AcDbBlockTableRecord
  2
*U15
340
0
  0
BLOCK_RECORD
  5
1AA54
330
1A9F0
100
AcDbSymbolTableRecord
100
AcDbBlockTableRecord
  2
*U16
340
0
  0
BLOCK_RECORD
  5
1AA56
330
1A9F0
100
AcDbSymbolTableRecord
100
AcDbBlockTableRecord
  2
*U17
340
0
  0
BLOCK_RECORD
  5
1AA58
330
1A9F0
100
AcDbSymbolTableRecord
100
AcDbBlockTableRecord
  2
*U18
340
0
  0
BLOCK_RECORD
  5
1AA5A
330
1A9F0
100
AcDbSymbolTableRecord
100
AcDbBlockTableRecord
  2
*U19
340
0
  0
BLOCK_RECORD
  5
1AA5C
330
1A9F0
100
AcDbSymbolTableRecord
100
AcDbBlockTableRecord
  2
*U20
340
0
  0
BLOCK_RECORD
  5
1AA5E
330
1A9F0
100
AcDbSymbolTableRecord
100
AcDbBlockTableRecord
  2
*U21
340
0
  0
BLOCK_RECORD
  5
1AA60
330
1A9F0
100
AcDbSymbolTableRecord
100
AcDbBlockTableRecord
  2
*U22
340
0
  0
BLOCK_RECORD
  5
1AA62
330
1A9F0
100
AcDbSymbolTableRecord
100
AcDbBlockTableRecord
  2
*U23
340
0
  0
BLOCK_RECORD
  5
1AA64
330
1A9F0
100
AcDbSymbolTableRecord
100
AcDbBlockTableRecord
  2
*U24
340
0
  0
BLOCK_RECORD
  5
1AA66
330
1A9F0
100
AcDbSymbolTableRecord
100
AcDbBlockTableRecord
  2
*U25
340
0
  0
ENDTAB
  0
ENDSEC
  0
SECTION
  2
BLOCKS
  0
BLOCK
  5
1AA31
330
1AA0B
100
AcDbEntity
  8
0
100
AcDbBlockBegin
  2
*Model_Space
 70
     0
 10
0.0
 20
0.0
 30
0.0
  3
*Model_Space
  1

  0
ENDBLK
  5
125F7
330
1AA0B
100
AcDbEntity
  8
0
100
AcDbBlockEnd
  0
BLOCK
  5
1AA32
330
1AA09
100
AcDbEntity
 67
     1
  8
0
100
AcDbBlockBegin
  2
*Paper_Space
 70
     0
 10
0.0
 20
0.0
 30
0.0
  3
*Paper_Space
  1

  0
ENDBLK
  5
125F5
330
1AA09
100
AcDbEntity
 67
     1
  8
0
100
AcDbBlockEnd
  0
BLOCK
  5
1AA33
330
1AA34
100
AcDbEntity
  8
0
100
AcDbBlockBegin
  2
DOT
 70
     0
 10
0.0
 20
0.0
 30
0.0
  3
DOT
  1

  0
LWPOLYLINE
  5
12987
330
1AA34
100
AcDbEntity
  8
0
  6
ByBlock
 62
     0
100
AcDbPolyline
 90
        2
 70
     1
 43
0.75
 10
-0.375
 20
0.0
 42
1.0
 10
0.375
 20
0.0
 42
1.0
  0
LINE
  5
12988
330
1AA34
100
AcDbEntity
  8
0
  6
ByBlock
 62
     0
100
AcDbLine
 10
-0.75
 20
0.0
 30
0.0
 11
-1.5
 21
0.0
 31
0.0
  0
ENDBLK
  5
12989
330
1AA34
100
AcDbEntity
  8
0
100
AcDbBlockEnd
  0
BLOCK
  5
1AA35
330
1AA36
100
AcDbEntity
  8
0
100
AcDbBlockBegin
  2
*U1
 70
     1
 10
0.0
 20
0.0
 30
0.0
  3
*U1
  1

  0
TEXT
  5
1A98A
330
1AA36
100
AcDbEntity
  8
SUNPOU
100
AcDbText
 10
6673.502746271774
 20
10040.71536047325
 30
0.0
 40
90.0
  1
400
 41
0.6666666666666666
  7
00
100
AcDbText
  0
ENDBLK
  5
1A98C
330
1AA36
100
AcDbEntity
  8
0
100
AcDbBlockEnd
  0
BLOCK
  5
1AA37
330
1AA38
100
AcDbEntity
  8
0
100
AcDbBlockBegin
  2
*U2
 70
     1
 10
0.0
 20
0.0
 30
0.0
  3
*U2
  1

  0
TEXT
  5
1A98E
330
1AA38
100
AcDbEntity
  8
SUNPOU
100
AcDbText
 10
8069.931317700344
 20
10040.71536047325
 30
0.0
 40
90.0
  1
2450
 41
0.6666666666666666
  7
00
100
AcDbText
  0
ENDBLK
  5
1A990
330
1AA38
100
AcDbEntity
  8
0
100
AcDbBlockEnd
  0
BLOCK
  5
1AA39
330
1AA3A
100
AcDbEntity
  8
0
100
AcDbBlockBegin
  2
*U3
 70
     1
 10
0.0
 20
0.0
 30
0.0
  3
*U3
  1

  0
TEXT
  5
1A992
330
1AA3A
100
AcDbEntity
  8
SUNPOU
100
AcDbText
 10
8069.931317700344
 20
10250.71536047325
 30
0.0
 40
90.0
  1
3250
 41
0.6666666666666666
  7
00
100
AcDbText
  0
ENDBLK
  5
1A994
330
1AA3A
100
AcDbEntity
  8
0
100
AcDbBlockEnd
  0
BLOCK
  5
1AA3B
330
1AA3C
100
AcDbEntity
  8
0
100
AcDbBlockBegin
  2
*U4
 70
     1
 10
0.0
 20
0.0
 30
0.0
  3
*U4
  1

  0
TEXT
  5
1A996
330
1AA3C
100
AcDbEntity
  8
SUNPOU
100
AcDbText
 10
9523.502746271773
 20
10040.71536047325
 30
0.0
 40
90.0
  1
400
 41
0.6666666666666666
  7
00
100
AcDbText
  0
ENDBLK
  5
1A998
330
1AA3C
100
AcDbEntity
  8
0
100
AcDbBlockEnd
  0
BLOCK
  5
1AA3D
330
1AA3E
100
AcDbEntity
  8
0
100
AcDbBlockBegin
  2
*U5
 70
     1
 10
0.0
 20
0.0
 30
0.0
  3
*U5
  1

  0
TEXT
  5
1A99A
330
1AA3E
100
AcDbEntity
  8
SUNPOU
100
AcDbText
 10
9322.074174843205
 20
8740.715360473252
 30
0.0
 40
90.0
  1
600
 41
0.6666666666666666
  7
00
100
AcDbText
  0
ENDBLK
  5
1A99C
330
1AA3E
100
AcDbEntity
  8
0
100
AcDbBlockEnd
  0
BLOCK
  5
1AA3F
330
1AA40
100
AcDbEntity
  8
0
100
AcDbBlockBegin
  2
*U6
 70
     1
 10
0.0
 20
0.0
 30
0.0
  3
*U6
  1

  0
TEXT
  5
1A99E
330
1AA40
100
AcDbEntity
  8
SUNPOU
100
AcDbText
 10
8764.217031986062
 20
9208.572503330399
 30
0.0
 40
90.0
  1
600
 50
90.0
 41
0.6666666666666666
  7
00
100
AcDbText
  0
ENDBLK
  5
1A9A0
330
1AA40
100
AcDbEntity
  8
0
100
AcDbBlockEnd
  0
BLOCK
  5
1AA41
330
1AA42
100
AcDbEntity
  8
0
100
AcDbBlockBegin
  2
*U7
 70
     1
 10
0.0
 20
0.0
 30
0.0
  3
*U7
  1

  0
TEXT
  5
1A9A2
330
1AA42
100
AcDbEntity
  8
SUNPOU
100
AcDbText
 10
9323.502746271774
 20
8110.715360473252
 30
0.0
 40
90.0
  1
800
 41
0.6666666666666666
  7
00
100
AcDbText
  0
ENDBLK
  5
1A9A4
330
1AA42
100
AcDbEntity
  8
0
100
AcDbBlockEnd
  0
BLOCK
  5
1AA43
330
1AA44
100
AcDbEntity
  8
0
100
AcDbBlockBegin
  2
*U8
 70
     1
 10
0.0
 20
0.0
 30
0.0
  3
*U8
  1

  0
TEXT
  5
1A9A6
330
1AA44
100
AcDbEntity
  8
SUNPOU
100
AcDbText
 10
8764.217031986062
 20
7410.001074758969
 30
0.0
 40
90.0
  1
800
 50
90.0
 41
0.6666666666666666
  7
00
100
AcDbText
  0
ENDBLK
  5
1A9A8
330
1AA44
100
AcDbEntity
  8
0
100
AcDbBlockEnd
  0
BLOCK
  5
1AA45
330
1AA46
100
AcDbEntity
  8
0
100
AcDbBlockBegin
  2
*U9
 70
     1
 10
0.0
 20
0.0
 30
0.0
  3
*U9
  1

  0
TEXT
  5
1A9AA
330
1AA46
100
AcDbEntity
  8
SUNPOU
100
AcDbText
 10
10374.21703198605
 20
7381.42964618754
 30
0.0
 40
90.0
  1
4200
 50
90.0
 41
0.6666666666666666
  7
00
100
AcDbText
  0
ENDBLK
  5
1A9AC
330
1AA46
100
AcDbEntity
  8
0
100
AcDbBlockEnd
  0
BLOCK
  5
1AA47
330
1AA48
100
AcDbEntity
  8
0
100
AcDbBlockBegin
  2
*U10
 70
     1
 10
0.0
 20
0.0
 30
0.0
  3
*U10
  1

  0
TEXT
  5
1A9AE
330
1AA48
100
AcDbEntity
  8
SUNPOU
100
AcDbText
 10
10164.21703198606
 20
5460.001074758968
 30
0.0
 40
90.0
  1
300
 50
90.0
 41
0.6666666666666666
  7
00
100
AcDbText
  0
ENDBLK
  5
1A9B0
330
1AA48
100
AcDbEntity
  8
0
100
AcDbBlockEnd
  0
BLOCK
  5
1AA49
330
1AA4A
100
AcDbEntity
  8
0
100
AcDbBlockBegin
  2
*U11
 70
     1
 10
0.0
 20
0.0
 30
0.0
  3
*U11
  1

  0
TEXT
  5
1A9B2
330
1AA4A
100
AcDbEntity
  8
SUNPOU
100
AcDbText
 10
10164.21703198606
 20
6477.143931901824
 30
0.0
 40
90.0
  1
1800
 50
90.0
 41
0.6666666666666666
  7
00
100
AcDbText
  0
ENDBLK
  5
1A9B4
330
1AA4A
100
AcDbEntity
  8
0
100
AcDbBlockEnd
  0
BLOCK
  5
1AA4B
330
1AA4C
100
AcDbEntity
  8
0
100
AcDbBlockBegin
  2
*U12
 70
     1
 10
0.0
 20
0.0
 30
0.0
  3
*U12
  1

  0
TEXT
  5
1A9B6
330
1AA4C
100
AcDbEntity
  8
SUNPOU
100
AcDbText
 10
10164.21703198606
 20
8277.143931901827
 30
0.0
 40
90.0
  1
1800
 50
90.0
 41
0.6666666666666666
  7
00
100
AcDbText
  0
ENDBLK
  5
1A9B8
330
1AA4C
100
AcDbEntity
  8
0
100
AcDbBlockEnd
  0
BLOCK
  5
1AA4D
330
1AA4E
100
AcDbEntity
  8
0
100
AcDbBlockBegin
  2
*U13
 70
     1
 10
0.0
 20
0.0
 30
0.0
  3
*U13
  1

  0
TEXT
  5
1A9BA
330
1AA4E
100
AcDbEntity
  8
SUNPOU
100
AcDbText
 10
10164.21703198606
 20
9360.001074758967
 30
0.0
 40
90.0
  1
300
 50
90.0
 41
0.6666666666666666
  7
00
100
AcDbText
  0
ENDBLK
  5
1A9BC
330
1AA4E
100
AcDbEntity
  8
0
100
AcDbBlockEnd
  0
BLOCK
  5
1AA4F
330
1AA50
100
AcDbEntity
  8
0
100
AcDbBlockBegin
  2
*U14
 70
     1
 10
0.0
 20
0.0
 30
0.0
  3
*U14
  1

  0
TEXT
  5
1A9BE
330
1AA50
100
AcDbEntity
  8
SUNPOU
100
AcDbText
 10
3298.619628952101
 20
3332.183932023017
 30
0.0
 40
90.0
  1
400
 41
0.6666666666666666
  7
00
100
AcDbText
  0
ENDBLK
  5
1A9C0
330
1AA50
100
AcDbEntity
  8
0
100
AcDbBlockEnd
  0
BLOCK
  5
1AA51
330
1AA52
100
AcDbEntity
  8
0
100
AcDbBlockBegin
  2
*U15
 70
     1
 10
0.0
 20
0.0
 30
0.0
  3
*U15
  1

  0
TEXT
  5
1A9C2
330
1AA52
100
AcDbEntity
  8
SUNPOU
100
AcDbText
 10
2498.333796409538
 20
2014.469646308734
 30
0.0
 40
90.0
  1
480
 50
90.0
 41
0.6666666666666666
  7
00
100
AcDbText
  0
ENDBLK
  5
1A9C4
330
1AA52
100
AcDbEntity
  8
0
100
AcDbBlockEnd
  0
BLOCK
  5
1AA53
330
1AA54
100
AcDbEntity
  8
0
100
AcDbBlockBegin
  2
*U16
 70
     1
 10
0.0
 20
0.0
 30
0.0
  3
*U16
  1

  0
TEXT
  5
1A9C6
330
1AA54
100
AcDbEntity
  8
SUNPOU
100
AcDbText
 10
2698.333796409539
 20
1706.183932023019
 30
0.0
 40
90.0
  1
100
 50
90.0
 41
0.6666666666666666
  7
00
100
AcDbText
  0
ENDBLK
  5
1A9C8
330
1AA54
100
AcDbEntity
  8
0
100
AcDbBlockEnd
  0
BLOCK
  5
1AA55
330
1AA56
100
AcDbEntity
  8
0
100
AcDbBlockBegin
  2
*U17
 70
     1
 10
0.0
 20
0.0
 30
0.0
  3
*U17
  1

  0
TEXT
  5
1A9CA
330
1AA56
100
AcDbEntity
  8
SUNPOU
100
AcDbText
 10
2698.333796409537
 20
2094.469646308734
 30
0.0
 40
90.0
  1
380
 50
90.0
 41
0.6666666666666666
  7
00
100
AcDbText
  0
ENDBLK
  5
1A9CC
330
1AA56
100
AcDbEntity
  8
0
100
AcDbBlockEnd
  0
BLOCK
  5
1AA57
330
1AA58
100
AcDbEntity
  8
0
100
AcDbBlockBegin
  2
*U18
 70
     1
 10
0.0
 20
0.0
 30
0.0
  3
*U18
  1

  0
TEXT
  5
1A9CE
330
1AA58
100
AcDbEntity
  8
SUNPOU
100
AcDbText
 10
3618.6196289521
 20
1214.183932023016
 30
0.0
 40
90.0
  1
800
 41
0.6666666666666666
  7
00
100
AcDbText
  0
ENDBLK
  5
1A9D0
330
1AA58
100
AcDbEntity
  8
0
100
AcDbBlockEnd
  0
BLOCK
  5
1AA59
330
1AA5A
100
AcDbEntity
  8
0
100
AcDbBlockBegin
  2
*U19
 70
     1
 10
0.0
 20
0.0
 30
0.0
  3
*U19
  1

  0
TEXT
  5
1A9D2
330
1AA5A
100
AcDbEntity
  8
SUNPOU
100
AcDbText
 10
3617.191057523529
 20
1424.183932023016
 30
0.0
 40
90.0
  1
600
 41
0.6666666666666666
  7
00
100
AcDbText
  0
ENDBLK
  5
1A9D4
330
1AA5A
100
AcDbEntity
  8
0
100
AcDbBlockEnd
  0
BLOCK
  5
1AA5B
330
1AA5C
100
AcDbEntity
  8
0
100
AcDbBlockBegin
  2
*U20
 70
     1
 10
0.0
 20
0.0
 30
0.0
  3
*U20
  1

  0
TEXT
  5
1A9D6
330
1AA5C
100
AcDbEntity
  8
SUNPOU
100
AcDbText
 10
7632.187272641154
 20
1214.183932023014
 30
0.0
 40
90.0
  1
1000
 41
0.6666666666666666
  7
00
100
AcDbText
  0
ENDBLK
  5
1A9D8
330
1AA5C
100
AcDbEntity
  8
0
100
AcDbBlockEnd
  0
BLOCK
  5
1AA5D
330
1AA5E
100
AcDbEntity
  8
0
100
AcDbBlockBegin
  2
*U21
 70
     1
 10
0.0
 20
0.0
 30
0.0
  3
*U21
  1

  0
TEXT
  5
1A9DA
330
1AA5E
100
AcDbEntity
  8
SUNPOU
100
AcDbText
 10
7665.044415498295
 20
1424.183932023014
 30
0.0
 40
90.0
  1
800
 41
0.6666666666666666
  7
00
100
AcDbText
  0
ENDBLK
  5
1A9DC
330
1AA5E
100
AcDbEntity
  8
0
100
AcDbBlockEnd
  0
BLOCK
  5
1AA5F
330
1AA60
100
AcDbEntity
  8
0
100
AcDbBlockBegin
  2
*U22
 70
     1
 10
0.0
 20
0.0
 30
0.0
  3
*U22
  1

  0
TEXT
  5
1A9DE
330
1AA60
100
AcDbEntity
  8
SUNPOU
100
AcDbText
 10
6384.758582955733
 20
2014.469646308732
 30
0.0
 40
90.0
  1
480
 50
90.0
 41
0.6666666666666666
  7
00
100
AcDbText
  0
ENDBLK
  5
1A9E0
330
1AA60
100
AcDbEntity
  8
0
100
AcDbBlockEnd
  0
BLOCK
  5
1AA61
330
1AA62
100
AcDbEntity
  8
0
100
AcDbBlockBegin
  2
*U23
 70
     1
 10
0.0
 20
0.0
 30
0.0
  3
*U23
  1

  0
TEXT
  5
1A9E2
330
1AA62
100
AcDbEntity
  8
SUNPOU
100
AcDbText
 10
6584.758582955732
 20
1706.183932023017
 30
0.0
 40
90.0
  1
100
 50
90.0
 41
0.6666666666666666
  7
00
100
AcDbText
  0
ENDBLK
  5
1A9E4
330
1AA62
100
AcDbEntity
  8
0
100
AcDbBlockEnd
  0
BLOCK
  5
1AA63
330
1AA64
100
AcDbEntity
  8
0
100
AcDbBlockBegin
  2
*U24
 70
     1
 10
0.0
 20
0.0
 30
0.0
  3
*U24
  1

  0
TEXT
  5
1A9E6
330
1AA64
100
AcDbEntity
  8
SUNPOU
100
AcDbText
 10
6584.758582955732
 20
2094.469646308731
 30
0.0
 40
90.0
  1
380
 50
90.0
 41
0.6666666666666666
  7
00
100
AcDbText
  0
ENDBLK
  5
1A9E8
330
1AA64
100
AcDbEntity
  8
0
100
AcDbBlockEnd
  0
BLOCK
  5
1AA65
330
1AA66
100
AcDbEntity
  8
0
100
AcDbBlockBegin
  2
*U25
 70
     1
 10
0.0
 20
0.0
 30
0.0
  3
*U25
  1

  0
TEXT
  5
1A9EA
330
1AA66
100
AcDbEntity
  8
SUNPOU
100
AcDbText
 10
7345.044415498295
 20
3332.183932023015
 30
0.0
 40
90.0
  1
400
 41
0.6666666666666666
  7
00
100
AcDbText
  0
ENDBLK
  5
1A9EC
330
1AA66
100
AcDbEntity
  8
0
100
AcDbBlockEnd
  0
ENDSEC
  0
SECTION
  2
ENTITIES
  0
TEXT
  5
12ADB
330
1AA0B
100
AcDbEntity
  8
NAME
100
AcDbText
 10
12203.32857318294
 20
1055.0
 30
0.0
 40
120.0
  1
Y O K C S
 41
0.6666666666666666
  7
00
100
AcDbText
  0
TEXT
  5
12ADC
330
1AA0B
100
AcDbEntity
  8
NAME
100
AcDbText
 10
11127.73587134625
 20
1055.0
 30
0.0
 40
120.0
  1
ヨド自転車置場　　　    型
  7
01
100
AcDbText
  0
TEXT
  5
12ADD
330
1AA0B
100
AcDbEntity
  8
NAME
100
AcDbText
 10
11112.07508082364
 20
875.0
 30
0.0
 40
120.0
  1
棟合せタイプ（埋め込み方式）
  7
01
 72
     4
 11
12072.07508082364
 21
935.0
 31
0.0
100
AcDbText
  0
TEXT
  5
159C6
330
1AA0B
100
AcDbEntity
  8
NAME
100
AcDbText
 10
12854.79999999999
 20
541.0000000000001
 30
0.0
 40
160.0
  1
<3／3>
 41
0.6
  7
01
 72
     2
 11
13354.0
 21
541.0000000000001
 31
0.0
100
AcDbText
  0
TEXT
  5
159C7
330
1AA0B
100
AcDbEntity
  8
NAME
100
AcDbText
 10
10789.37598063762
 20
541.0
 30
0.0
 40
160.0
  1
YOKCS-245
 41
0.7
  7
01
 72
     2
 11
11776.04264730429
 21
541.0
 31
0.0
100
AcDbText
  0
TEXT
  5
159C8
330
1AA0B
100
AcDbEntity
  8
NAME
100
AcDbText
 10
11816.04264730429
 20
541.0
 30
0.0
 40
160.0
  1
型（積雪地用）
 41
0.8
  7
01
100
AcDbText
  0
TEXT
  5
190C6
330
1AA0B
100
AcDbEntity
  8
SUNPOU
100
AcDbText
 10
3881.571684326015
 20
4502.276467781016
 30
0.0
 40
46.28539285937498
  1
2
 41
0.6700000000000001
  7
00
100
AcDbText
  0
TEXT
  5
190C7
330
1AA0B
100
AcDbEntity
  8
SUNPOU
100
AcDbText
 10
3577.107202294611
 20
4452.088041423529
 30
0.0
 40
89.99937500434022
  1
N/mm
 41
0.6700000000000001
  7
01
100
AcDbText
  0
TEXT
  5
190C8
330
1AA0B
100
AcDbEntity
  8
SUNPOU
100
AcDbText
 10
3441.270749508659
 20
4452.088041423529
 30
0.0
 40
89.99937500434022
  1
18
 41
0.6700000000000001
  7
01
100
AcDbText
  0
LINE
  5
190C9
330
1AA0B
100
AcDbEntity
  8
SUNPOU
100
AcDbLine
 10
2835.336594836403
 20
4297.802327137817
 30
0.0
 11
2835.336594836403
 21
4381.294690836596
 31
0.0
  0
LINE
  5
190CA
330
1AA0B
100
AcDbEntity
  8
SUNPOU
100
AcDbLine
 10
2818.461594836404
 20
4297.802327137817
 30
0.0
 11
2818.461594836404
 21
4381.294690836596
 31
0.0
  0
LINE
  5
190CB
330
1AA0B
100
AcDbEntity
  8
SUNPOU
100
AcDbLine
 10
2801.586594836404
 20
4297.802327137817
 30
0.0
 11
2801.586594836404
 21
4381.294690836596
 31
0.0
  0
LINE
  5
190CC
330
1AA0B
100
AcDbEntity
  8
SUNPOU
100
AcDbLine
 10
2790.336594836404
 20
4297.802327137815
 30
0.0
 11
2846.586594836404
 21
4297.802327137815
 31
0.0
  0
LINE
  5
190CD
330
1AA0B
100
AcDbEntity
  8
SUNPOU
100
AcDbLine
 10
2790.336594836404
 20
4381.294690836596
 30
0.0
 11
2846.586594836404
 21
4381.294690836596
 31
0.0
  0
ARC
  5
190CE
330
1AA0B
100
AcDbEntity
  8
SUNPOU
100
AcDbCircle
 10
4036.310334564254
 20
4415.875464865361
 30
0.0
 40
225.0
100
AcDbArc
 50
328.3472725282829
 51
31.65272747171703
  0
TEXT
  5
190CF
330
1AA0B
100
AcDbEntity
  8
SUNPOU
100
AcDbText
 10
1776.256050209213
 20
4502.276467781016
 30
0.0
 40
46.28539285937498
  1
2
 41
0.6700000000000001
  7
00
100
AcDbText
  0
TEXT
  5
190D0
330
1AA0B
100
AcDbEntity
  8
SUNPOU
100
AcDbText
 10
1508.615893480831
 20
4452.088041423529
 30
0.0
 40
71.99950000347218
  1
K
 41
0.6700000000000001
  7
01
100
AcDbText
  0
TEXT
  5
190D1
330
1AA0B
100
AcDbEntity
  8
SUNPOU
100
AcDbText
 10
1372.779440694877
 20
4452.088041423529
 30
0.0
 40
89.99937500434022
  1
50  N/m
 41
0.6700000000000001
  7
01
100
AcDbText
  0
ARC
  5
190D2
330
1AA0B
100
AcDbEntity
  8
SUNPOU
100
AcDbCircle
 10
1151.479307177001
 20
4415.875464865361
 30
0.0
 40
225.0
100
AcDbArc
 50
148.3472725282829
 51
211.6527274717169
  0
TEXT
  5
190D3
330
1AA0B
100
AcDbEntity
  8
SUNPOU
100
AcDbText
 10
1482.284461934962
 20
4297.802327137817
 30
0.0
 40
89.99937500434022
  1
34 m/s
 41
0.6700000000000001
  7
01
100
AcDbText
  0
TEXT
  5
190D4
330
1AA0B
100
AcDbEntity
  8
SUNPOU
100
AcDbText
 10
998.5210332697944
 20
4297.802327137817
 30
0.0
 40
89.99937500434022
  1
基準風速   　　 , 地表面粗度区分
  7
01
100
AcDbText
  0
TEXT
  5
190D5
330
1AA0B
100
AcDbEntity
  8
SUNPOU
100
AcDbText
 10
998.5210332697944
 20
4452.088041423529
 30
0.0
 40
89.99937500434022
  1
地耐力   　　　 以上,コンクリート設計基準強度　　　　　以上
  7
01
100
AcDbText
  0
TEXT
  5
190D6
330
1AA0B
100
AcDbEntity
  8
SUNPOU
100
AcDbText
 10
1167.271033269794
 20
3764.23089856639
 30
0.0
 40
90.0
  1
2
 41
0.6700000000000001
  7
01
100
AcDbText
  0
TEXT
  5
190D7
330
1AA0B
100
AcDbEntity
  8
SUNPOU
100
AcDbText
 10
1056.637113057051
 20
3764.23089856639
 30
0.0
 40
90.0
  1
注　）
  7
01
100
AcDbText
  0
TEXT
  5
190D8
330
1AA0B
100
AcDbEntity
  8
SUNPOU
100
AcDbText
 10
1056.637113057051
 20
4072.802327137817
 30
0.0
 40
90.0
  1
注　）
  7
01
100
AcDbText
  0
TEXT
  5
190D9
330
1AA0B
100
AcDbEntity
  8
SUNPOU
100
AcDbText
 10
1167.271033269794
 20
4072.802327137817
 30
0.0
 40
90.0
  1
1
 41
0.6700000000000001
  7
01
100
AcDbText
  0
TEXT
  5
190DA
330
1AA0B
100
AcDbEntity
  8
SUNPOU
100
AcDbText
 10
1373.476778359187
 20
3918.516612852101
 30
0.0
 40
90.0
  1
あわせて設計して下さい。
  7
01
100
AcDbText
  0
TEXT
  5
190DB
330
1AA0B
100
AcDbEntity
  8
SUNPOU
100
AcDbText
 10
1373.476778359187
 20
3764.23089856639
 30
0.0
 40
90.0
  1
その他現地の実情にあわせて設計して下さい。
  7
01
100
AcDbText
  0
TEXT
  5
190DC
330
1AA0B
100
AcDbEntity
  8
SUNPOU
100
AcDbText
 10
1373.476778359187
 20
4072.802327137817
 30
0.0
 40
90.0
  1
寒冷地の場合、凍結深度等を考慮し、実情に
  7
01
100
AcDbText
  0
TEXT
  5
190DD
330
1AA0B
100
AcDbEntity
  8
SUNPOU
100
AcDbText
 10
867.9574045535641
 20
4641.342043869485
 30
0.0
 40
90.0
  1
<下記条件での参考図>
  7
01
 72
     4
 11
1456.814547410707
 21
4686.342043869486
 31
0.0
100
AcDbText
  0
TEXT
  5
190DE
330
1AA0B
100
AcDbEntity
  8
SUNPOU
100
AcDbText
 10
2078.273713942132
 20
4808.68819771564
 30
0.0
 40
73.84615384615384
  1
/
 41
0.6700000000000001
  7
00
 11
2078.273713942132
 21
4798.842043869486
 31
0.0
100
AcDbText
 73
     1
  0
TEXT
  5
190DF
330
1AA0B
100
AcDbEntity
  8
SUNPOU
100
AcDbText
 10
2142.223156896503
 20
4790.2266592541
 30
0.0
 40
73.84615384615384
  1
25
 41
0.6700000000000001
  7
00
 11
2142.223156896503
 21
4780.380505407946
 31
0.0
100
AcDbText
 73
     1
  0
TEXT
  5
190E0
330
1AA0B
100
AcDbEntity
  8
SUNPOU
100
AcDbText
 10
2029.86758662676
 20
4827.14973617718
 30
0.0
 40
73.84615384615384
  1
1
 41
0.6700000000000001
  7
00
 11
2029.86758662676
 21
4817.303582331025
 31
0.0
100
AcDbText
 73
     1
  0
TEXT
  5
190E1
330
1AA0B
100
AcDbEntity
  8
SUNPOU
100
AcDbText
 10
1710.164884773677
 20
4811.149736177178
 30
0.0
 40
92.30769230769228
  1
（ S = 　　  ）
 41
0.6700000000000001
  7
00
 11
1710.164884773677
 21
4798.842043869486
 31
0.0
100
AcDbText
 73
     1
  0
TEXT
  5
190E2
330
1AA0B
100
AcDbEntity
  8
SUNPOU
100
AcDbText
 10
993.3145474107067
 20
4798.842043869486
 30
0.0
 40
120.0
  1
基礎断面図
  7
01
 72
     4
 11
1333.314547410706
 21
4858.842043869486
 31
0.0
100
AcDbText
  0
TEXT
  5
19149
330
1AA0B
100
AcDbEntity
  8
HIKIDASHI
100
AcDbText
 10
8772.515803529449
 20
4879.531802304223
 30
0.0
 40
80.0
  1
)
 41
0.6700000000000001
  7
00
100
AcDbText
  0
TEXT
  5
1914A
330
1AA0B
100
AcDbEntity
  8
HIKIDASHI
100
AcDbText
 10
8571.657054840066
 20
4895.09328005242
 30
0.0
 40
80.0
  1
1
 41
0.6700000000000001
  7
00
100
AcDbText
  0
TEXT
  5
1914B
330
1AA0B
100
AcDbEntity
  8
HIKIDASHI
100
AcDbText
 10
8604.794192704376
 20
4879.531802304223
 30
0.0
 40
80.0
  1
/
 41
0.6700000000000001
  7
00
100
AcDbText
  0
TEXT
  5
1914C
330
1AA0B
100
AcDbEntity
  8
HIKIDASHI
100
AcDbText
 10
8651.089347467021
 20
4853.363971103946
 30
0.0
 40
80.0
  1
40
 41
0.6700000000000001
  7
00
100
AcDbText
  0
TEXT
  5
1914D
330
1AA0B
100
AcDbEntity
  8
HIKIDASHI
100
AcDbText
 10
8390.949138902394
 20
4879.531802304223
 30
0.0
 40
80.0
  1
(S=
 41
0.6700000000000001
  7
00
100
AcDbText
  0
TEXT
  5
1914E
330
1AA0B
100
AcDbEntity
  8
HIKIDASHI
100
AcDbText
 10
7548.949138902393
 20
4855.715360473254
 30
0.0
 40
120.0
  1
基 礎 伏 図
  7
01
 72
     2
 11
8300.949138902394
 21
4855.715360473254
 31
0.0
100
AcDbText
  0
LINE
  5
19B70
330
1AA0B
100
AcDbEntity
  8
CENTER
  6
1PL-M
100
AcDbLine
 10
6489.21703198606
 20
7495.715360473252
 30
0.0
 11
8644.217031986059
 21
7495.715360473251
 31
0.0
  0
LINE
  5
19B77
330
1AA0B
100
AcDbEntity
  8
CENTER
  6
1PL-M
100
AcDbLine
 10
6489.21703198606
 20
9295.715360473252
 30
0.0
 11
8644.217031986059
 21
9295.715360473252
 31
0.0
  0
LINE
  5
19B84
330
1AA0B
100
AcDbEntity
  8
CENTER
  6
1PL-M
100
AcDbLine
 10
6959.21703198606
 20
5295.715360473252
 30
0.0
 11
6959.21703198606
 21
9695.715360473252
 31
0.0
  0
LINE
  5
19B88
330
1AA0B
100
AcDbEntity
  8
CENTER
  6
1PL-M
100
AcDbLine
 10
6489.21703198606
 20
5695.715360473254
 30
0.0
 11
10254.21703198605
 21
5695.715360473252
 31
0.0
  0
LINE
  5
19B8A
330
1AA0B
100
AcDbEntity
  8
CENTER
  6
1PL-M
100
AcDbLine
 10
9409.217031986059
 20
5295.715360473252
 30
0.0
 11
9409.217031986059
 21
8080.715360473252
 31
0.0
  0
LINE
  5
19CD0
330
1AA0B
100
AcDbEntity
  8
CENTER
  6
1PL-M
100
AcDbLine
 10
8794.217031986059
 20
9295.715360473252
 30
0.0
 11
10254.21703198605
 21
9295.715360473252
 31
0.0
  0
LINE
  5
19CE6
330
1AA0B
100
AcDbEntity
  8
CENTER
  6
1PL-M
100
AcDbLine
 10
9409.217031986059
 20
8860.71536047325
 30
0.0
 11
9409.217031986059
 21
9695.715360473252
 31
0.0
  0
LINE
  5
19CFC
330
1AA0B
100
AcDbEntity
  8
CENTER
  6
1PL-M
100
AcDbLine
 10
9409.217031986059
 20
8230.715360473253
 30
0.0
 11
9409.217031986059
 21
8710.715360473257
 31
0.0
  0
LINE
  5
19D12
330
1AA0B
100
AcDbEntity
  8
CENTER
  6
1PL-M
100
AcDbLine
 10
8794.217031986059
 20
7495.715360473251
 30
0.0
 11
10254.21703198605
 21
7495.715360473252
 31
0.0
  0
TEXT
  5
19D83
330
1AA0B
100
AcDbEntity
  8
SUNPOU
100
AcDbText
 10
6307.885652329144
 20
7840.715360473253
 30
0.0
 40
90.0
  1
B
 41
0.6700000000000001
  7
00
 72
     4
 11
6339.471366614858
 21
7885.715360473252
 31
0.0
100
AcDbText
  0
LINE
  5
19D84
330
1AA0B
100
AcDbEntity
  8
SUNPOU
100
AcDbLine
 10
6339.47136661486
 20
7495.715360473252
 30
0.0
 11
6489.471366614861
 21
7495.715360473252
 31
0.0
  0
LINE
  5
19D85
330
1AA0B
100
AcDbEntity
  8
SUNPOU
100
AcDbLine
 10
6339.47136661486
 20
7705.715360473252
 30
0.0
 11
6339.47136661486
 21
7495.715360473252
 31
0.0
  0
SOLID
  5
19D86
330
1AA0B
100
AcDbEntity
  8
SUNPOU
100
AcDbTrace
 10
6324.47136661486
 20
7705.715360473252
 30
0.0
 11
6354.47136661486
 21
7705.715360473252
 31
0.0
 12
6339.47136661486
 22
7795.715360473252
 32
0.0
 13
6339.47136661486
 23
7795.715360473252
 33
0.0
  0
LINE
  5
19D87
330
1AA0B
100
AcDbEntity
  8
SUNPOU
100
AcDbLine
 10
7544.217031986065
 20
7495.715360473252
 30
0.0
 11
7394.217031986059
 21
7495.715360473252
 31
0.0
  0
TEXT
  5
19D88
330
1AA0B
100
AcDbEntity
  8
SUNPOU
100
AcDbText
 10
7499.709889128921
 20
7832.143931901824
 30
0.0
 40
90.0
  1
B'
 41
0.6700000000000001
  7
00
 72
     4
 11
7544.217031986065
 21
7885.715360473252
 31
0.0
100
AcDbText
  0
LINE
  5
19D89
330
1AA0B
100
AcDbEntity
  8
SUNPOU
100
AcDbLine
 10
7544.217031986065
 20
7705.715360473252
 30
0.0
 11
7544.217031986065
 21
7495.715360473252
 31
0.0
  0
SOLID
  5
19D8A
330
1AA0B
100
AcDbEntity
  8
SUNPOU
100
AcDbTrace
 10
7559.217031986064
 20
7705.715360473252
 30
0.0
 11
7529.217031986063
 21
7705.715360473252
 31
0.0
 12
7544.217031986065
 22
7795.715360473252
 32
0.0
 13
7544.217031986065
 23
7795.715360473252
 33
0.0
  0
SOLID
  5
19D8B
330
1AA0B
100
AcDbEntity
  8
SUNPOU
100
AcDbTrace
 10
6324.47136661486
 20
5905.715360473251
 30
0.0
 11
6354.47136661486
 21
5905.715360473251
 31
0.0
 12
6339.47136661486
 22
5995.715360473252
 32
0.0
 13
6339.47136661486
 23
5995.715360473252
 33
0.0
  0
TEXT
  5
19D8C
330
1AA0B
100
AcDbEntity
  8
SUNPOU
100
AcDbText
 10
6313.628509472001
 20
6040.715360473252
 30
0.0
 40
90.0
  1
A
 41
0.6700000000000001
  7
00
 72
     4
 11
6339.471366614858
 21
6085.715360473252
 31
0.0
100
AcDbText
  0
LINE
  5
19D8D
330
1AA0B
100
AcDbEntity
  8
SUNPOU
100
AcDbLine
 10
6339.47136661486
 20
5905.715360473251
 30
0.0
 11
6339.47136661486
 21
5695.715360473252
 31
0.0
  0
LINE
  5
19D8E
330
1AA0B
100
AcDbEntity
  8
SUNPOU
100
AcDbLine
 10
6339.47136661486
 20
5695.715360473252
 30
0.0
 11
6489.471366614861
 21
5695.715360473252
 31
0.0
  0
LINE
  5
19D8F
330
1AA0B
100
AcDbEntity
  8
SUNPOU
100
AcDbLine
 10
7444.630294679763
 20
5695.715360473252
 30
0.0
 11
7294.63029467976
 21
5695.715360473252
 31
0.0
  0
LINE
  5
19D90
330
1AA0B
100
AcDbEntity
  8
SUNPOU
100
AcDbLine
 10
7444.630294679763
 20
5905.715360473251
 30
0.0
 11
7444.630294679763
 21
5695.715360473252
 31
0.0
  0
TEXT
  5
19D91
330
1AA0B
100
AcDbEntity
  8
SUNPOU
100
AcDbText
 10
7408.737437536906
 20
6032.143931901824
 30
0.0
 40
90.0
  1
A'
 41
0.6700000000000001
  7
00
 72
     4
 11
7444.630294679763
 21
6085.715360473252
 31
0.0
100
AcDbText
  0
SOLID
  5
19D92
330
1AA0B
100
AcDbEntity
  8
SUNPOU
100
AcDbTrace
 10
7459.630294679762
 20
5905.715360473251
 30
0.0
 11
7429.630294679762
 21
5905.715360473251
 31
0.0
 12
7444.630294679763
 22
5995.715360473252
 32
0.0
 13
7444.630294679763
 23
5995.715360473252
 33
0.0
  0
TEXT
  5
19D93
330
1AA0B
100
AcDbEntity
  8
HIKIDASHI
100
AcDbText
 10
7624.264373012015
 20
9720.715360473255
 30
0.0
 40
90.0
  1
（屋根前面位置）
  7
01
100
AcDbText
  0
TEXT
  5
19D94
330
1AA0B
100
AcDbEntity
  8
HIKIDASHI
100
AcDbText
 10
7540.155771095992
 20
9455.715360473243
 30
0.0
 40
90.0
  1
（土間コン後面位置）
  7
01
100
AcDbText
  0
TEXT
  5
19D95
330
1AA0B
100
AcDbEntity
  8
HIKIDASHI
100
AcDbText
 10
7624.264373012015
 20
5180.715360473254
 30
0.0
 40
90.0
  1
（屋根前面位置）
  7
01
100
AcDbText
  0
TEXT
  5
19D96
330
1AA0B
100
AcDbEntity
  8
HIKIDASHI
100
AcDbText
 10
7540.155771095992
 20
5445.715360473259
 30
0.0
 40
90.0
  1
（土間コン前面位置）
  7
01
100
AcDbText
  0
LINE
  5
1A169
330
1AA0B
100
AcDbEntity
  8
U3
100
AcDbLine
 10
2776.333914666386
 20
2303.169754165144
 30
0.0
 11
2843.31973680851
 21
2236.183932023019
 31
0.0
  0
LINE
  5
1A16A
330
1AA0B
100
AcDbEntity
  8
U3
100
AcDbLine
 10
3064.333914666386
 20
2404.183932023017
 30
0.0
 11
2776.333914666386
 21
2404.183932023018
 31
0.0
  0
LINE
  5
1A16B
330
1AA0B
100
AcDbEntity
  8
U3
100
AcDbLine
 10
2894.231425053934
 20
2287.095620268444
 30
0.0
 11
3011.31973680851
 21
2404.183932023017
 31
0.0
  0
LINE
  5
1A16C
330
1AA0B
100
AcDbEntity
  8
U3
100
AcDbLine
 10
2777.143113299321
 20
2404.183932023017
 30
0.0
 11
2945.143113299374
 21
2236.183932023021
 31
0.0
  0
LINE
  5
1A16D
330
1AA0B
100
AcDbEntity
  8
U3
100
AcDbLine
 10
2712.333914666388
 20
2404.183932023017
 30
0.0
 11
2105.143113299378
 21
2404.183932023017
 31
0.0
  0
LINE
  5
1A16E
330
1AA0B
100
AcDbEntity
  8
U3
100
AcDbLine
 10
2675.319736808516
 20
2302.360555532153
 30
0.0
 11
2690.829693650987
 21
2286.850598689685
 31
0.0
  0
LINE
  5
1A16F
330
1AA0B
100
AcDbEntity
  8
U3
100
AcDbLine
 10
2659.809779966046
 20
2286.850598689685
 30
0.0
 11
2712.333914666388
 21
2339.374733390029
 31
0.0
  0
LINE
  5
1A170
330
1AA0B
100
AcDbEntity
  8
U3
100
AcDbLine
 10
2390.231425053941
 20
2353.272243777586
 30
0.0
 11
2507.319736808512
 21
2236.183932023017
 31
0.0
  0
LINE
  5
1A171
330
1AA0B
100
AcDbEntity
  8
U3
100
AcDbLine
 10
2339.319736808512
 20
2302.360555532153
 30
0.0
 11
2405.496360317653
 21
2236.183932023017
 31
0.0
  0
LINE
  5
1A172
330
1AA0B
100
AcDbEntity
  8
U3
100
AcDbLine
 10
2558.231425053949
 20
2287.095620268451
 30
0.0
 11
2675.319736808516
 21
2404.183932023015
 31
0.0
  0
LINE
  5
1A173
330
1AA0B
100
AcDbEntity
  8
U3
100
AcDbLine
 10
2273.143113299378
 20
2236.183932023017
 30
0.0
 11
2441.143113299379
 21
2404.183932023015
 31
0.0
  0
LINE
  5
1A174
330
1AA0B
100
AcDbEntity
  8
U3
100
AcDbLine
 10
2171.319736808516
 20
2338.007308513879
 30
0.0
 11
2237.496360317652
 21
2404.183932023013
 31
0.0
  0
LINE
  5
1A175
330
1AA0B
100
AcDbEntity
  8
U3
100
AcDbLine
 10
2105.143113299378
 20
2404.183932023017
 30
0.0
 11
2273.143113299378
 21
2236.183932023017
 31
0.0
  0
LINE
  5
1A176
330
1AA0B
100
AcDbEntity
  8
U3
100
AcDbLine
 10
2222.231425053946
 20
2287.095620268448
 30
0.0
 11
2339.319736808516
 21
2404.183932023013
 31
0.0
  0
LINE
  5
1A177
330
1AA0B
100
AcDbEntity
  8
U3
100
AcDbLine
 10
2441.143113299379
 20
2404.183932023015
 30
0.0
 11
2558.476446632713
 21
2286.850598689685
 31
0.0
  0
LINE
  5
1A178
330
1AA0B
100
AcDbEntity
  8
HATCH
100
AcDbLine
 10
4742.519737066388
 20
2293.439306423018
 30
0.0
 11
4761.719737066387
 21
2260.183932023017
 31
0.0
  0
LINE
  5
1A179
330
1AA0B
100
AcDbEntity
  8
HATCH
100
AcDbLine
 10
4886.519737066389
 20
2293.439306423018
 30
0.0
 11
4905.719737066387
 21
2260.183932023017
 31
0.0
  0
LINE
  5
1A17A
330
1AA0B
100
AcDbEntity
  8
HATCH
100
AcDbLine
 10
4884.345362666385
 20
2356.183932023018
 30
0.0
 11
4903.545362666386
 21
2322.928556023017
 31
0.0
  0
LINE
  5
1A17B
330
1AA0B
100
AcDbEntity
  8
HATCH
100
AcDbLine
 10
4867.319737066388
 20
2260.183932023017
 30
0.0
 11
4922.745362666384
 21
2356.183932023018
 31
0.0
  0
LINE
  5
1A17C
330
1AA0B
100
AcDbEntity
  8
HATCH
100
AcDbLine
 10
4990.727527466386
 20
2484.183932023019
 30
0.0
 11
4862.727527466386
 21
2356.183932023018
 31
0.0
  0
LINE
  5
1A17D
330
1AA0B
100
AcDbEntity
  8
HATCH
100
AcDbLine
 10
4895.692375466388
 20
2484.183932023019
 30
0.0
 11
4767.692375466388
 21
2356.183932023018
 31
0.0
  0
LINE
  5
1A17E
330
1AA0B
100
AcDbEntity
  8
HATCH
100
AcDbLine
 10
4943.209951466386
 20
2484.183932023019
 30
0.0
 11
4815.209951466385
 21
2356.183932023018
 31
0.0
  0
LINE
  5
1A17F
330
1AA0B
100
AcDbEntity
  8
HATCH
100
AcDbLine
 10
4614.519737066387
 20
2293.439306423018
 30
0.0
 11
4633.719737066387
 21
2260.183932023017
 31
0.0
  0
LINE
  5
1A180
330
1AA0B
100
AcDbEntity
  8
HATCH
100
AcDbLine
 10
4612.345362666385
 20
2356.183932023018
 30
0.0
 11
4631.545362666384
 21
2322.928556023017
 31
0.0
  0
LINE
  5
1A181
330
1AA0B
100
AcDbEntity
  8
HATCH
100
AcDbLine
 10
4595.319737066386
 20
2260.183932023017
 30
0.0
 11
4650.745362666384
 21
2356.183932023018
 31
0.0
  0
LINE
  5
1A182
330
1AA0B
100
AcDbEntity
  8
HATCH
100
AcDbLine
 10
4371.494221866386
 20
2356.183932023018
 30
0.0
 11
4355.494221866386
 21
2356.183932023018
 31
0.0
  0
LINE
  5
1A183
330
1AA0B
100
AcDbEntity
  8
HATCH
100
AcDbLine
 10
4470.519737066386
 20
2293.439306423018
 30
0.0
 11
4489.719737066387
 21
2260.183932023017
 31
0.0
  0
LINE
  5
1A184
330
1AA0B
100
AcDbEntity
  8
HATCH
100
AcDbLine
 10
4451.319737066387
 20
2260.183932023017
 30
0.0
 11
4506.745362666385
 21
2356.183932023018
 31
0.0
  0
LINE
  5
1A185
330
1AA0B
100
AcDbEntity
  8
HATCH
100
AcDbLine
 10
4468.345362666385
 20
2356.183932023018
 30
0.0
 11
4487.545362666384
 21
2322.928556023017
 31
0.0
  0
LINE
  5
1A186
330
1AA0B
100
AcDbEntity
  8
HATCH
100
AcDbLine
 10
4510.727527466386
 20
2484.183932023019
 30
0.0
 11
4382.727527466386
 21
2356.183932023018
 31
0.0
  0
LINE
  5
1A187
330
1AA0B
100
AcDbEntity
  8
HATCH
100
AcDbLine
 10
4326.519737066386
 20
2293.439306423018
 30
0.0
 11
4345.719737066387
 21
2260.183932023017
 31
0.0
  0
LINE
  5
1A188
330
1AA0B
100
AcDbEntity
  8
HATCH
100
AcDbLine
 10
4324.345362666385
 20
2356.183932023018
 30
0.0
 11
4343.545362666385
 21
2322.928556023017
 31
0.0
  0
LINE
  5
1A189
330
1AA0B
100
AcDbEntity
  8
HATCH
100
AcDbLine
 10
4184.333914666385
 20
2296.581555464547
 30
0.0
 11
4218.745362666385
 21
2356.183932023018
 31
0.0
  0
LINE
  5
1A18A
330
1AA0B
100
AcDbEntity
  8
HATCH
100
AcDbLine
 10
4184.333914666385
 20
2349.275557207625
 30
0.0
 11
4199.545362666386
 21
2322.928556023017
 31
0.0
  0
LINE
  5
1A18B
330
1AA0B
100
AcDbEntity
  8
HATCH
100
AcDbLine
 10
4184.333914666385
 20
2290.297058750307
 30
0.0
 11
4201.719737066387
 21
2260.183932023017
 31
0.0
  0
LINE
  5
1A18C
330
1AA0B
100
AcDbEntity
  8
HATCH
100
AcDbLine
 10
4227.494221866386
 20
2356.183932023018
 30
0.0
 11
4211.494221866386
 21
2356.183932023018
 31
0.0
  0
LINE
  5
1A18D
330
1AA0B
100
AcDbEntity
  8
HATCH
100
AcDbLine
 10
4463.209951466384
 20
2484.183932023019
 30
0.0
 11
4335.209951466388
 21
2356.183932023018
 31
0.0
  0
LINE
  5
1A18E
330
1AA0B
100
AcDbEntity
  8
HATCH
100
AcDbLine
 10
4415.692375466385
 20
2484.183932023019
 30
0.0
 11
4287.692375466387
 21
2356.183932023018
 31
0.0
  0
LINE
  5
1A18F
330
1AA0B
100
AcDbEntity
  8
HATCH
100
AcDbLine
 10
4307.319737066388
 20
2260.183932023017
 30
0.0
 11
4362.745362666387
 21
2356.183932023018
 31
0.0
  0
LINE
  5
1A190
330
1AA0B
100
AcDbEntity
  8
HATCH
100
AcDbLine
 10
4740.345362666385
 20
2356.183932023018
 30
0.0
 11
4759.545362666385
 21
2322.928556023017
 31
0.0
  0
LINE
  5
1A191
330
1AA0B
100
AcDbEntity
  8
HATCH
100
AcDbLine
 10
4723.319737066386
 20
2260.183932023017
 30
0.0
 11
4778.745362666384
 21
2356.183932023018
 31
0.0
  0
LINE
  5
1A192
330
1AA0B
100
AcDbEntity
  8
KISO
100
AcDbLine
 10
4184.333914666385
 20
2260.183932023017
 30
0.0
 11
5021.727409209539
 21
2260.183932023017
 31
0.0
  0
LINE
  5
1A193
330
1AA0B
100
AcDbEntity
  8
KISO
100
AcDbLine
 10
5021.727409209539
 20
2356.183932023018
 30
0.0
 11
4184.333914666385
 21
2356.183932023018
 31
0.0
  0
LINE
  5
1A194
330
1AA0B
100
AcDbEntity
  8
KISO
100
AcDbLine
 10
3064.333914666386
 20
1876.183932023018
 30
0.0
 11
3064.333914666386
 21
1764.183932023017
 31
0.0
  0
LINE
  5
1A197
330
1AA0B
100
AcDbEntity
  8
1PL-M1
100
AcDbLine
 10
3704.333914666389
 20
1572.183932023019
 30
0.0
 11
3704.333914666387
 21
3332.183932023018
 31
0.0
  0
LINE
  5
1A198
330
1AA0B
100
AcDbEntity
  8
HASHIRA
100
AcDbLine
 10
3652.333914666386
 20
1876.183932023019
 30
0.0
 11
3652.333914666386
 21
2964.183932023018
 31
0.0
  0
LINE
  5
1A199
330
1AA0B
100
AcDbEntity
  8
HASHIRA
100
AcDbLine
 10
3756.333914666386
 20
1876.183932023019
 30
0.0
 11
3756.333914666384
 21
2964.183932023018
 31
0.0
  0
LINE
  5
1A19A
330
1AA0B
100
AcDbEntity
  8
KISO
100
AcDbLine
 10
4344.333914666385
 20
1876.183932023018
 30
0.0
 11
4344.333914666385
 21
1716.183932023018
 31
0.0
  0
LINE
  5
1A19B
330
1AA0B
100
AcDbEntity
  8
HATCH
100
AcDbLine
 10
3758.930376559231
 20
1716.183932023018
 30
0.0
 11
3851.306419225895
 21
1876.183932023019
 31
0.0
  0
LINE
  5
1A19C
330
1AA0B
100
AcDbEntity
  8
HATCH
100
AcDbLine
 10
3797.973085892562
 20
1876.183932023019
 30
0.0
 11
3824.639752559228
 21
1829.995909356355
 31
0.0
  0
LINE
  5
1A19D
330
1AA0B
100
AcDbEntity
  8
HATCH
100
AcDbLine
 10
3785.597043225897
 20
1762.371953356349
 30
0.0
 11
3812.263709892564
 21
1716.183932023018
 31
0.0
  0
LINE
  5
1A19E
330
1AA0B
100
AcDbEntity
  8
HATCH
100
AcDbLine
 10
3585.597043225897
 20
1762.371953356349
 30
0.0
 11
3612.263709892564
 21
1716.183932023018
 31
0.0
  0
LINE
  5
1A19F
330
1AA0B
100
AcDbEntity
  8
HATCH
100
AcDbLine
 10
3597.973085892562
 20
1876.183932023019
 30
0.0
 11
3624.639752559229
 21
1829.995909356355
 31
0.0
  0
LINE
  5
1A1A0
330
1AA0B
100
AcDbEntity
  8
KISO
100
AcDbLine
 10
4184.333914666385
 20
2484.183932023019
 30
0.0
 11
4184.333914666385
 21
1876.183932023018
 31
0.0
  0
LINE
  5
1A1A1
330
1AA0B
100
AcDbEntity
  8
KISO
100
AcDbLine
 10
3652.333914666386
 20
2484.183932023019
 30
0.0
 11
3064.333914666386
 21
2484.183932023019
 31
0.0
  0
LINE
  5
1A1A2
330
1AA0B
100
AcDbEntity
  8
HATCH
100
AcDbLine
 10
3614.393906272658
 20
2484.183932023019
 30
0.0
 11
3224.333914666388
 21
2094.123940416748
 31
0.0
  0
LINE
  5
1A1A3
330
1AA0B
100
AcDbEntity
  8
HATCH
100
AcDbLine
 10
3566.876330272656
 20
2484.183932023019
 30
0.0
 11
3224.333914666386
 21
2141.641516416747
 31
0.0
  0
LINE
  5
1A1A4
330
1AA0B
100
AcDbEntity
  8
HATCH
100
AcDbLine
 10
3519.358755872656
 20
2484.183932023019
 30
0.0
 11
3224.333914666386
 21
2189.159090816747
 31
0.0
  0
LINE
  5
1A1A5
330
1AA0B
100
AcDbEntity
  8
HATCH
100
AcDbLine
 10
3652.333914666386
 20
2134.531888053615
 30
0.0
 11
3497.985958635791
 21
1980.183932023019
 31
0.0
  0
LINE
  5
1A1A6
330
1AA0B
100
AcDbEntity
  8
HATCH
100
AcDbLine
 10
3385.597043225897
 20
1762.371953356349
 30
0.0
 11
3412.263709892564
 21
1716.183932023018
 31
0.0
  0
LINE
  5
1A1A7
330
1AA0B
100
AcDbEntity
  8
HATCH
100
AcDbLine
 10
3358.93037655923
 20
1716.183932023018
 30
0.0
 11
3451.306419225895
 21
1876.183932023019
 31
0.0
  0
LINE
  5
1A1A8
330
1AA0B
100
AcDbEntity
  8
HATCH
100
AcDbLine
 10
3397.973085892562
 20
1876.183932023019
 30
0.0
 11
3424.639752559229
 21
1829.995909356355
 31
0.0
  0
LINE
  5
1A1A9
330
1AA0B
100
AcDbEntity
  8
KISO
100
AcDbLine
 10
3064.333914666386
 20
1876.183932023019
 30
0.0
 11
3064.333914666386
 21
1716.183932023018
 31
0.0
  0
LINE
  5
1A1AA
330
1AA0B
100
AcDbEntity
  8
HATCH
100
AcDbLine
 10
3185.597043225897
 20
1762.371953356349
 30
0.0
 11
3212.263709892564
 21
1716.183932023018
 31
0.0
  0
LINE
  5
1A1AB
330
1AA0B
100
AcDbEntity
  8
HATCH
100
AcDbLine
 10
3197.973085892562
 20
1876.183932023019
 30
0.0
 11
3224.639752559229
 21
1829.995909356355
 31
0.0
  0
LINE
  5
1A1AC
330
1AA0B
100
AcDbEntity
  8
HATCH
100
AcDbLine
 10
3158.930376559231
 20
1716.183932023018
 30
0.0
 11
3251.306419225895
 21
1876.183932023019
 31
0.0
  0
LINE
  5
1A1AD
330
1AA0B
100
AcDbEntity
  8
KISO
100
AcDbLine
 10
3224.333914666386
 20
2484.183932023019
 30
0.0
 11
3224.333914666386
 21
1876.183932023019
 31
0.0
  0
LINE
  5
1A1AE
330
1AA0B
100
AcDbEntity
  8
HATCH
100
AcDbLine
 10
3652.333914666386
 20
2229.567038453616
 30
0.0
 11
3298.95080823579
 21
1876.183932023019
 31
0.0
  0
LINE
  5
1A1AF
330
1AA0B
100
AcDbEntity
  8
HATCH
100
AcDbLine
 10
3652.333914666386
 20
2182.049464053616
 30
0.0
 11
3450.46838263579
 21
1980.183932023019
 31
0.0
  0
LINE
  5
1A1B0
330
1AA0B
100
AcDbEntity
  8
HATCH
100
AcDbLine
 10
3558.930376559231
 20
1716.183932023018
 30
0.0
 11
3651.306419225895
 21
1876.183932023019
 31
0.0
  0
LINE
  5
1A1B1
330
1AA0B
100
AcDbEntity
  8
HATCH
100
AcDbLine
 10
4001.985958635791
 20
2484.183932023019
 30
0.0
 11
3756.333914666386
 21
2238.531888053614
 31
0.0
  0
LINE
  5
1A1B2
330
1AA0B
100
AcDbEntity
  8
HATCH
100
AcDbLine
 10
3954.46838263579
 20
2484.183932023019
 30
0.0
 11
3756.333914666386
 21
2286.049464053613
 31
0.0
  0
LINE
  5
1A1B3
330
1AA0B
100
AcDbEntity
  8
HATCH
100
AcDbLine
 10
3906.950808235789
 20
2484.183932023019
 30
0.0
 11
3756.333914666386
 21
2333.567038453614
 31
0.0
  0
LINE
  5
1A1B4
330
1AA0B
100
AcDbEntity
  8
KISO
100
AcDbLine
 10
3064.333914666386
 20
1716.18393202302
 30
0.0
 11
4344.333914666385
 21
1716.183932023018
 31
0.0
  0
LINE
  5
1A1B5
330
1AA0B
100
AcDbEntity
  8
KISO
100
AcDbLine
 10
5021.727409209539
 20
2484.183932023019
 30
0.0
 11
3756.333914666386
 21
2484.183932023019
 31
0.0
  0
LINE
  5
1A1B6
330
1AA0B
100
AcDbEntity
  8
HATCH
100
AcDbLine
 10
3997.973085892562
 20
1876.183932023019
 30
0.0
 11
4024.639752559227
 21
1829.995909356355
 31
0.0
  0
LINE
  5
1A1B7
330
1AA0B
100
AcDbEntity
  8
HATCH
100
AcDbLine
 10
3958.93037655923
 20
1716.183932023018
 30
0.0
 11
4051.306419225895
 21
1876.183932023019
 31
0.0
  0
LINE
  5
1A1B8
330
1AA0B
100
AcDbEntity
  8
HATCH
100
AcDbLine
 10
3985.597043225897
 20
1762.371953356349
 30
0.0
 11
4012.263709892564
 21
1716.183932023018
 31
0.0
  0
LINE
  5
1A1B9
330
1AA0B
100
AcDbEntity
  8
HATCH
100
AcDbLine
 10
4184.333914666385
 20
2278.939835690481
 30
0.0
 11
3885.578010998928
 21
1980.183932023019
 31
0.0
  0
LINE
  5
1A1BA
330
1AA0B
100
AcDbEntity
  8
HATCH
100
AcDbLine
 10
4184.333914666385
 20
2326.457411690481
 30
0.0
 11
3838.060434998925
 21
1980.183932023019
 31
0.0
  0
LINE
  5
1A1BB
330
1AA0B
100
AcDbEntity
  8
HATCH
100
AcDbLine
 10
4184.333914666385
 20
2373.974986090479
 30
0.0
 11
3756.333914666386
 21
1945.974986090478
 31
0.0
  0
LINE
  5
1A1BC
330
1AA0B
100
AcDbEntity
  8
HATCH
100
AcDbLine
 10
4184.333914666385
 20
1986.382933727345
 30
0.0
 11
4074.134912962058
 21
1876.183932023019
 31
0.0
  0
LINE
  5
1A1BD
330
1AA0B
100
AcDbEntity
  8
HATCH
100
AcDbLine
 10
4184.333914666385
 20
1938.865359327343
 30
0.0
 11
4121.652487362065
 21
1876.183932023019
 31
0.0
  0
LINE
  5
1A1BE
330
1AA0B
100
AcDbEntity
  8
HATCH
100
AcDbLine
 10
4184.333914666385
 20
1891.347783327345
 30
0.0
 11
4169.17006336206
 21
1876.183932023019
 31
0.0
  0
LINE
  5
1A1C0
330
1AA0B
100
AcDbEntity
  8
HATCH
100
AcDbLine
 10
3434.46838263579
 20
1964.183932023018
 30
0.0
 11
3346.468382635791
 21
1876.183932023019
 31
0.0
  0
LINE
  5
1A1C1
330
1AA0B
100
AcDbEntity
  8
HATCH
100
AcDbLine
 10
3481.985958635791
 20
1964.183932023018
 30
0.0
 11
3393.985958635791
 21
1876.183932023019
 31
0.0
  0
LINE
  5
1A1C2
330
1AA0B
100
AcDbEntity
  8
HATCH
100
AcDbLine
 10
3774.542860598926
 20
1964.183932023018
 30
0.0
 11
3756.333914666386
 21
1945.974986090478
 31
0.0
  0
LINE
  5
1A1C3
330
1AA0B
100
AcDbEntity
  8
HATCH
100
AcDbLine
 10
3822.060434998928
 20
1964.183932023018
 30
0.0
 11
3756.333914666386
 21
1898.457411690477
 31
0.0
  0
LINE
  5
1A1C4
330
1AA0B
100
AcDbEntity
  8
HATCH
100
AcDbLine
 10
3869.578010998927
 20
1964.183932023018
 30
0.0
 11
3781.578010998928
 21
1876.183932023019
 31
0.0
  0
LINE
  5
1A1C5
330
1AA0B
100
AcDbEntity
  8
KISO
100
AcDbLine
 10
3064.333914666386
 20
1876.183932023019
 30
0.0
 11
3064.333914666386
 21
1876.183932023019
 31
0.0
  0
LINE
  5
1A1C6
330
1AA0B
100
AcDbEntity
  8
SUNPOU
100
AcDbLine
 10
3719.333914666388
 20
3287.183932023017
 30
0.0
 11
4979.564421916637
 21
3287.183932023017
 31
0.0
  0
TEXT
  5
1A1C8
330
1AA0B
100
AcDbEntity
  8
SUNPOU
100
AcDbText
 10
4340.161613806854
 20
3332.183932023017
 30
0.0
 40
90.0
  1
2450
 41
0.6666666666666666
  7
00
 72
     4
 11
4454.447328092569
 21
3377.183932023017
 31
0.0
100
AcDbText
  0
TEXT
  5
1A1CF
330
1AA0B
100
AcDbEntity
  8
HIKIDASHI
100
AcDbText
 10
2465.84219057196
 20
2825.613541661912
 30
0.0
 40
90.0
  1
%%c
 41
0.6700000000000001
  7
00
100
AcDbText
  0
LINE
  5
1A1D0
330
1AA0B
100
AcDbEntity
  8
HIKIDASHI
100
AcDbLine
 10
2075.958721952463
 20
2754.183932023015
 30
0.0
 11
2921.257717497342
 21
2754.183932023015
 31
0.0
  0
TEXT
  5
1A1D2
330
1AA0B
100
AcDbEntity
  8
HIKIDASHI
100
AcDbText
 10
2631.5477195379
 20
2798.974945822925
 30
0.0
 40
89.55223880597015
  1
350
 41
0.6700000000000001
  7
00
100
AcDbText
  0
TEXT
  5
1A1D3
330
1AA0B
100
AcDbEntity
  8
HIKIDASHI
100
AcDbText
 10
2550.412340384764
 20
2810.377961873764
 30
0.0
 40
89.55223880597015
  1
x
 41
0.6700000000000001
  7
00
100
AcDbText
  0
TEXT
  5
1A1D4
330
1AA0B
100
AcDbEntity
  8
HIKIDASHI
100
AcDbText
 10
2105.958721952463
 20
2799.183932023015
 30
0.0
 40
90.0
  1
鉄筋
  7
01
100
AcDbText
  0
TEXT
  5
1A1D5
330
1AA0B
100
AcDbEntity
  8
HIKIDASHI
100
AcDbText
 10
2337.465435554122
 20
2799.183932023015
 30
0.0
 40
89.55223880597015
  1
10
 41
0.6700000000000001
  7
00
100
AcDbText
  0
LINE
  5
1A1D6
330
1AA0B
100
AcDbEntity
  8
HIKIDASHI
100
AcDbLine
 10
2580.663191527326
 20
2994.183932023015
 30
0.0
 11
2934.663191527326
 21
2994.183932023015
 31
0.0
  0
TEXT
  5
1A1D7
330
1AA0B
100
AcDbEntity
  8
HIKIDASHI
100
AcDbText
 10
2610.663191527326
 20
3039.183932023015
 30
0.0
 40
90.0
  1
土　間
  7
01
100
AcDbText
  0
LINE
  5
1A1DA
330
1AA0B
100
AcDbEntity
  8
HIKIDASHI
100
AcDbLine
 10
2839.167309682428
 20
1304.183932023019
 30
0.0
 11
2470.400932854805
 21
1304.183932023019
 31
0.0
  0
TEXT
  5
1A1DB
330
1AA0B
100
AcDbEntity
  8
HIKIDASHI
100
AcDbText
 10
2497.468540446716
 20
1349.183932023019
 30
0.0
 40
90.0
  1
砕　石
  7
01
 72
     2
 11
2797.468540446716
 21
1394.183932023019
 31
0.0
100
AcDbText
 73
     2
  0
TEXT
  5
1A1DF
330
1AA0B
100
AcDbEntity
  8
HIKIDASHI
100
AcDbText
 10
3780.537517545164
 20
925.1349131803479
 30
0.0
 40
90.0
  1
断 面
  7
01
100
AcDbText
  0
LINE
  5
1A1E0
330
1AA0B
100
AcDbEntity
  8
HIKIDASHI
100
AcDbLine
 10
3356.520238048601
 20
880.134913180348
 30
0.0
 11
4052.14759128417
 21
880.134913180348
 31
0.0
  0
LINE
  5
1A1E1
330
1AA0B
100
AcDbEntity
  8
HIKIDASHI
100
AcDbLine
 10
3356.520238048601
 20
850.1349131803479
 30
0.0
 11
4052.14759128417
 21
850.1349131803479
 31
0.0
  0
TEXT
  5
1A1E2
330
1AA0B
100
AcDbEntity
  8
HIKIDASHI
100
AcDbText
 10
3386.520238048602
 20
925.1349131803479
 30
0.0
 40
90.0
  1
A  ~  A'
 41
0.6700000000000001
  7
00
100
AcDbText
  0
TEXT
  5
1A1E3
330
1AA0B
100
AcDbEntity
  8
SUNPOU
100
AcDbText
 10
4660.02283078356
 20
1458.903907439805
 30
0.0
 40
90.0
  1
ベース筋
  7
01
 72
     4
 11
4864.022830783561
 21
1503.903907439805
 31
0.0
100
AcDbText
  0
TEXT
  5
1A1E4
330
1AA0B
100
AcDbEntity
  8
SUNPOU
100
AcDbText
 10
4520.599973640699
 20
1293.65456534739
 30
0.0
 40
90.0
  1
4-D13×4-D13
 41
0.6700000000000001
  7
01
 72
     4
 11
4864.022830783557
 21
1338.65456534739
 31
0.0
100
AcDbText
  0
TEXT
  5
1A1E5
330
1AA0B
100
AcDbEntity
  8
HIKIDASHI
100
AcDbText
 10
4444.49673216886
 20
2006.931554141246
 30
0.0
 40
90.0
  1
敷砂利又は砕石
  7
01
100
AcDbText
  0
LINE
  5
1A1E6
330
1AA0B
100
AcDbEntity
  8
HIKIDASHI
100
AcDbLine
 10
4397.836947371135
 20
1961.931554141246
 30
0.0
 11
5200.487295746516
 21
1961.931554141246
 31
0.0
  0
TEXT
  5
1A1E7
330
1AA0B
100
AcDbEntity
  8
SUNPOU
100
AcDbText
 10
4717.660162466766
 20
2619.183932023019
 30
0.0
 40
90.0
  1
F.L
 41
0.6666666666666666
  7
00
 72
     4
 11
4786.231591038195
 21
2664.183932023019
 31
0.0
100
AcDbText
  0
LINE
  5
1A1E8
330
1AA0B
100
AcDbEntity
  8
SUNPOU
100
AcDbLine
 10
4786.231591038195
 20
2484.183932023019
 30
0.0
 11
4838.193115265261
 21
2574.183932023019
 31
0.0
  0
LINE
  5
1A1E9
330
1AA0B
100
AcDbEntity
  8
SUNPOU
100
AcDbLine
 10
4734.270066811128
 20
2574.183932023019
 30
0.0
 11
4786.231591038195
 21
2484.183932023019
 31
0.0
  0
LINE
  5
1A1EA
330
1AA0B
100
AcDbEntity
  8
SUNPOU
100
AcDbLine
 10
4838.193115265261
 20
2574.183932023019
 30
0.0
 11
4734.270066811128
 21
2574.183932023019
 31
0.0
  0
LINE
  5
1A1EC
330
1AA0B
100
AcDbEntity
  8
U3
100
AcDbLine
 10
6598.75870121258
 20
2404.183932023014
 30
0.0
 11
5991.56789984557
 21
2404.183932023014
 31
0.0
  0
LINE
  5
1A1ED
330
1AA0B
100
AcDbEntity
  8
U3
100
AcDbLine
 10
5991.56789984557
 20
2404.183932023014
 30
0.0
 11
6159.567899845569
 21
2236.183932023013
 31
0.0
  0
LINE
  5
1A1EE
330
1AA0B
100
AcDbEntity
  8
U3
100
AcDbLine
 10
6057.744523354709
 20
2338.007308513876
 30
0.0
 11
6123.921146863847
 21
2404.18393202301
 31
0.0
  0
LINE
  5
1A1EF
330
1AA0B
100
AcDbEntity
  8
U3
100
AcDbLine
 10
6546.234566512237
 20
2286.850598689682
 30
0.0
 11
6598.75870121258
 21
2339.374733390024
 31
0.0
  0
LINE
  5
1A1F0
330
1AA0B
100
AcDbEntity
  8
U3
100
AcDbLine
 10
6159.567899845569
 20
2236.183932023013
 30
0.0
 11
6327.567899845568
 21
2404.183932023012
 31
0.0
  0
LINE
  5
1A1F1
330
1AA0B
100
AcDbEntity
  8
U3
100
AcDbLine
 10
6225.744523354705
 20
2302.360555532152
 30
0.0
 11
6291.921146863845
 21
2236.183932023013
 31
0.0
  0
LINE
  5
1A1F2
330
1AA0B
100
AcDbEntity
  8
U3
100
AcDbLine
 10
6276.656211600133
 20
2353.272243777581
 30
0.0
 11
6393.744523354705
 21
2236.183932023013
 31
0.0
  0
LINE
  5
1A1F3
330
1AA0B
100
AcDbEntity
  8
U3
100
AcDbLine
 10
6108.65621160014
 20
2287.095620268444
 30
0.0
 11
6225.744523354709
 21
2404.18393202301
 31
0.0
  0
LINE
  5
1A1F4
330
1AA0B
100
AcDbEntity
  8
U3
100
AcDbLine
 10
6444.65621160014
 20
2287.09562026845
 30
0.0
 11
6561.744523354708
 21
2404.183932023012
 31
0.0
  0
LINE
  5
1A1F5
330
1AA0B
100
AcDbEntity
  8
U3
100
AcDbLine
 10
6327.567899845568
 20
2404.183932023012
 30
0.0
 11
6444.901233178905
 21
2286.850598689682
 31
0.0
  0
LINE
  5
1A1F6
330
1AA0B
100
AcDbEntity
  8
U3
100
AcDbLine
 10
6561.744523354708
 20
2302.360555532152
 30
0.0
 11
6577.254480197176
 21
2286.850598689682
 31
0.0
  0
LINE
  5
1A1F7
330
1AA0B
100
AcDbEntity
  8
U3
100
AcDbLine
 10
6662.75870121258
 20
2303.169754165141
 30
0.0
 11
6729.744523354703
 21
2236.183932023017
 31
0.0
  0
LINE
  5
1A1F8
330
1AA0B
100
AcDbEntity
  8
U3
100
AcDbLine
 10
6663.567899845512
 20
2404.183932023014
 30
0.0
 11
6831.567899845566
 21
2236.183932023017
 31
0.0
  0
LINE
  5
1A1F9
330
1AA0B
100
AcDbEntity
  8
U3
100
AcDbLine
 10
6831.567899845566
 20
2236.183932023017
 30
0.0
 11
6999.567899845565
 21
2404.183932023016
 31
0.0
  0
LINE
  5
1A1FA
330
1AA0B
100
AcDbEntity
  8
U3
100
AcDbLine
 10
6897.744523354704
 20
2302.360555532156
 30
0.0
 11
6963.921146863839
 21
2236.183932023017
 31
0.0
  0
LINE
  5
1A1FB
330
1AA0B
100
AcDbEntity
  8
U3
100
AcDbLine
 10
6948.656211600134
 20
2353.272243777587
 30
0.0
 11
7065.744523354704
 21
2236.183932023017
 31
0.0
  0
LINE
  5
1A1FC
330
1AA0B
100
AcDbEntity
  8
U3
100
AcDbLine
 10
7110.758701212581
 20
2404.183932023014
 30
0.0
 11
6662.75870121258
 21
2404.183932023016
 31
0.0
  0
LINE
  5
1A1FD
330
1AA0B
100
AcDbEntity
  8
U3
100
AcDbLine
 10
6780.656211600126
 20
2287.095620268441
 30
0.0
 11
6897.744523354704
 21
2404.183932023014
 31
0.0
  0
LINE
  5
1A1FE
330
1AA0B
100
AcDbEntity
  8
U3
100
AcDbLine
 10
6999.567899845565
 20
2404.183932023012
 30
0.0
 11
7070.758701212584
 21
2332.993130655998
 31
0.0
  0
LINE
  5
1A201
330
1AA0B
100
AcDbEntity
  8
KISO
100
AcDbLine
 10
8550.758701212577
 20
1876.183932023015
 30
0.0
 11
8550.758701212577
 21
1716.183932023017
 31
0.0
  0
LINE
  5
1A202
330
1AA0B
100
AcDbEntity
  8
HATCH
100
AcDbLine
 10
7778.688496438757
 20
1716.183932023016
 30
0.0
 11
7871.064539105423
 21
1876.183932023015
 31
0.0
  0
LINE
  5
1A203
330
1AA0B
100
AcDbEntity
  8
HATCH
100
AcDbLine
 10
7817.731205772085
 20
1876.183932023015
 30
0.0
 11
7844.397872438752
 21
1829.99590935635
 31
0.0
  0
LINE
  5
1A204
330
1AA0B
100
AcDbEntity
  8
HATCH
100
AcDbLine
 10
7805.355163105423
 20
1762.371953356344
 30
0.0
 11
7832.021829772092
 21
1716.183932023016
 31
0.0
  0
LINE
  5
1A205
330
1AA0B
100
AcDbEntity
  8
HATCH
100
AcDbLine
 10
7605.355163105423
 20
1762.371953356344
 30
0.0
 11
7632.021829772091
 21
1716.183932023016
 31
0.0
  0
LINE
  5
1A206
330
1AA0B
100
AcDbEntity
  8
HATCH
100
AcDbLine
 10
7617.731205772085
 20
1876.183932023015
 30
0.0
 11
7644.397872438752
 21
1829.99590935635
 31
0.0
  0
LINE
  5
1A207
330
1AA0B
100
AcDbEntity
  8
KISO
100
AcDbLine
 10
8390.758701212579
 20
2484.183932023016
 30
0.0
 11
8390.758701212579
 21
1876.183932023015
 31
0.0
  0
LINE
  5
1A208
330
1AA0B
100
AcDbEntity
  8
KISO
100
AcDbLine
 10
7698.75870121258
 20
2484.183932023016
 30
0.0
 11
7110.758701212581
 21
2484.183932023016
 31
0.0
  0
LINE
  5
1A209
330
1AA0B
100
AcDbEntity
  8
HATCH
100
AcDbLine
 10
7660.818692818849
 20
2484.183932023016
 30
0.0
 11
7110.758701212581
 21
1934.123940416741
 31
0.0
  0
LINE
  5
1A20A
330
1AA0B
100
AcDbEntity
  8
HATCH
100
AcDbLine
 10
7613.30111681885
 20
2484.183932023016
 30
0.0
 11
7110.758701212581
 21
1981.641516416744
 31
0.0
  0
LINE
  5
1A20B
330
1AA0B
100
AcDbEntity
  8
HATCH
100
AcDbLine
 10
7565.783542418849
 20
2484.183932023016
 30
0.0
 11
7110.758701212581
 21
2029.159090816739
 31
0.0
  0
LINE
  5
1A20C
330
1AA0B
100
AcDbEntity
  8
HATCH
100
AcDbLine
 10
7698.75870121258
 20
2134.531888053611
 30
0.0
 11
7544.410745181983
 21
1980.183932023015
 31
0.0
  0
LINE
  5
1A20D
330
1AA0B
100
AcDbEntity
  8
HATCH
100
AcDbLine
 10
7405.355163105423
 20
1762.371953356344
 30
0.0
 11
7432.021829772089
 21
1716.183932023016
 31
0.0
  0
LINE
  5
1A20E
330
1AA0B
100
AcDbEntity
  8
HATCH
100
AcDbLine
 10
7378.688496438757
 20
1716.183932023016
 30
0.0
 11
7471.064539105419
 21
1876.183932023015
 31
0.0
  0
LINE
  5
1A20F
330
1AA0B
100
AcDbEntity
  8
HATCH
100
AcDbLine
 10
7417.731205772085
 20
1876.183932023015
 30
0.0
 11
7444.397872438752
 21
1829.99590935635
 31
0.0
  0
LINE
  5
1A210
330
1AA0B
100
AcDbEntity
  8
KISO
100
AcDbLine
 10
6950.758701212581
 20
1876.183932023015
 30
0.0
 11
6950.758701212581
 21
1716.183932023016
 31
0.0
  0
LINE
  5
1A211
330
1AA0B
100
AcDbEntity
  8
HATCH
100
AcDbLine
 10
7205.355163105423
 20
1762.371953356344
 30
0.0
 11
7232.021829772091
 21
1716.183932023016
 31
0.0
  0
LINE
  5
1A212
330
1AA0B
100
AcDbEntity
  8
HATCH
100
AcDbLine
 10
7217.731205772087
 20
1876.183932023015
 30
0.0
 11
7244.397872438752
 21
1829.99590935635
 31
0.0
  0
LINE
  5
1A213
330
1AA0B
100
AcDbEntity
  8
HATCH
100
AcDbLine
 10
7178.688496438756
 20
1716.183932023016
 30
0.0
 11
7271.064539105417
 21
1876.183932023015
 31
0.0
  0
LINE
  5
1A214
330
1AA0B
100
AcDbEntity
  8
KISO
100
AcDbLine
 10
7110.758701212581
 20
2484.183932023016
 30
0.0
 11
7110.758701212581
 21
1876.183932023015
 31
0.0
  0
LINE
  5
1A215
330
1AA0B
100
AcDbEntity
  8
HATCH
100
AcDbLine
 10
7698.75870121258
 20
2229.567038453613
 30
0.0
 11
7345.375594781981
 21
1876.183932023015
 31
0.0
  0
LINE
  5
1A216
330
1AA0B
100
AcDbEntity
  8
HATCH
100
AcDbLine
 10
7698.75870121258
 20
2182.049464053612
 30
0.0
 11
7496.893169181984
 21
1980.183932023015
 31
0.0
  0
LINE
  5
1A217
330
1AA0B
100
AcDbEntity
  8
HATCH
100
AcDbLine
 10
7578.688496438757
 20
1716.183932023016
 30
0.0
 11
7671.064539105419
 21
1876.183932023015
 31
0.0
  0
LINE
  5
1A218
330
1AA0B
100
AcDbEntity
  8
HATCH
100
AcDbLine
 10
8048.410745181984
 20
2484.183932023016
 30
0.0
 11
7802.758701212581
 21
2238.531888053611
 31
0.0
  0
LINE
  5
1A219
330
1AA0B
100
AcDbEntity
  8
HATCH
100
AcDbLine
 10
8000.893169181983
 20
2484.183932023016
 30
0.0
 11
7802.758701212581
 21
2286.049464053611
 31
0.0
  0
LINE
  5
1A21A
330
1AA0B
100
AcDbEntity
  8
HATCH
100
AcDbLine
 10
7953.375594781981
 20
2484.183932023016
 30
0.0
 11
7802.758701212581
 21
2333.567038453611
 31
0.0
  0
LINE
  5
1A21B
330
1AA0B
100
AcDbEntity
  8
KISO
100
AcDbLine
 10
6950.758701212581
 20
1716.183932023016
 30
0.0
 11
8550.758701212577
 21
1716.183932023017
 31
0.0
  0
LINE
  5
1A21C
330
1AA0B
100
AcDbEntity
  8
HATCH
100
AcDbLine
 10
8017.731205772086
 20
1876.183932023015
 30
0.0
 11
8044.397872438755
 21
1829.99590935635
 31
0.0
  0
LINE
  5
1A21D
330
1AA0B
100
AcDbEntity
  8
HATCH
100
AcDbLine
 10
7978.688496438756
 20
1716.183932023016
 30
0.0
 11
8071.064539105421
 21
1876.183932023015
 31
0.0
  0
LINE
  5
1A21E
330
1AA0B
100
AcDbEntity
  8
HATCH
100
AcDbLine
 10
8005.355163105424
 20
1762.371953356344
 30
0.0
 11
8032.021829772089
 21
1716.183932023016
 31
0.0
  0
LINE
  5
1A21F
330
1AA0B
100
AcDbEntity
  8
HATCH
100
AcDbLine
 10
8390.758701212584
 20
2438.939835690479
 30
0.0
 11
7932.002797545121
 21
1980.183932023015
 31
0.0
  0
LINE
  5
1A220
330
1AA0B
100
AcDbEntity
  8
HATCH
100
AcDbLine
 10
8388.485221545122
 20
2484.183932023016
 30
0.0
 11
7884.485221545121
 21
1980.183932023015
 31
0.0
  0
LINE
  5
1A221
330
1AA0B
100
AcDbEntity
  8
HATCH
100
AcDbLine
 10
8340.96764714512
 20
2484.183932023016
 30
0.0
 11
7802.758701212581
 21
1945.974986090476
 31
0.0
  0
LINE
  5
1A222
330
1AA0B
100
AcDbEntity
  8
HATCH
100
AcDbLine
 10
8390.758701212579
 20
2146.382933727339
 30
0.0
 11
8120.559699508254
 21
1876.183932023015
 31
0.0
  0
LINE
  5
1A223
330
1AA0B
100
AcDbEntity
  8
HATCH
100
AcDbLine
 10
8390.758701212579
 20
2098.865359327338
 30
0.0
 11
8168.077273908259
 21
1876.183932023015
 31
0.0
  0
LINE
  5
1A225
330
1AA0B
100
AcDbEntity
  8
HATCH
100
AcDbLine
 10
7480.893169181982
 20
1964.183932023016
 30
0.0
 11
7392.893169181981
 21
1876.183932023015
 31
0.0
  0
LINE
  5
1A226
330
1AA0B
100
AcDbEntity
  8
HATCH
100
AcDbLine
 10
7528.410745181983
 20
1964.183932023016
 30
0.0
 11
7440.410745181984
 21
1876.183932023015
 31
0.0
  0
LINE
  5
1A227
330
1AA0B
100
AcDbEntity
  8
HATCH
100
AcDbLine
 10
7820.967647145121
 20
1964.183932023016
 30
0.0
 11
7802.758701212581
 21
1945.974986090476
 31
0.0
  0
LINE
  5
1A228
330
1AA0B
100
AcDbEntity
  8
HATCH
100
AcDbLine
 10
7868.485221545121
 20
1964.183932023016
 30
0.0
 11
7802.758701212581
 21
1898.457411690475
 31
0.0
  0
LINE
  5
1A229
330
1AA0B
100
AcDbEntity
  8
HATCH
100
AcDbLine
 10
7916.002797545122
 20
1964.183932023016
 30
0.0
 11
7828.002797545119
 21
1876.183932023015
 31
0.0
  0
LINE
  5
1A22A
330
1AA0B
100
AcDbEntity
  8
KISO
100
AcDbLine
 10
6950.758701212581
 20
1876.183932023015
 30
0.0
 11
6950.758701212581
 21
1876.183932023015
 31
0.0
  0
LINE
  5
1A22B
330
1AA0B
100
AcDbEntity
  8
KISO
100
AcDbLine
 10
9228.152195755734
 20
2484.183932023016
 30
0.0
 11
7802.758701212581
 21
2484.183932023016
 31
0.0
  0
LINE
  5
1A22C
330
1AA0B
100
AcDbEntity
  8
1PL-M1
100
AcDbLine
 10
7750.758701212581
 20
1572.183932023015
 30
0.0
 11
7750.758701212581
 21
3332.183932023017
 31
0.0
  0
LINE
  5
1A22D
330
1AA0B
100
AcDbEntity
  8
HASHIRA
100
AcDbLine
 10
7698.75870121258
 20
1876.183932023015
 30
0.0
 11
7698.75870121258
 21
2964.183932023013
 31
0.0
  0
LINE
  5
1A22E
330
1AA0B
100
AcDbEntity
  8
HASHIRA
100
AcDbLine
 10
7802.758701212581
 20
1876.183932023015
 30
0.0
 11
7802.758701212581
 21
2964.183932023013
 31
0.0
  0
LINE
  5
1A22F
330
1AA0B
100
AcDbEntity
  8
HATCH
100
AcDbLine
 10
8390.758701212584
 20
2051.347783327336
 30
0.0
 11
8215.594849908258
 21
1876.183932023015
 31
0.0
  0
LINE
  5
1A230
330
1AA0B
100
AcDbEntity
  8
HATCH
100
AcDbLine
 10
8217.731205772087
 20
1876.183932023015
 30
0.0
 11
8244.397872438756
 21
1829.99590935635
 31
0.0
  0
LINE
  5
1A231
330
1AA0B
100
AcDbEntity
  8
HATCH
100
AcDbLine
 10
8178.688496438757
 20
1716.183932023016
 30
0.0
 11
8271.06453910542
 21
1876.183932023015
 31
0.0
  0
LINE
  5
1A232
330
1AA0B
100
AcDbEntity
  8
HATCH
100
AcDbLine
 10
8205.355163105423
 20
1762.371953356344
 30
0.0
 11
8232.021829772092
 21
1716.183932023016
 31
0.0
  0
LINE
  5
1A235
330
1AA0B
100
AcDbEntity
  8
HATCH
100
AcDbLine
 10
7005.355163105424
 20
1762.371953356344
 30
0.0
 11
7032.02182977209
 21
1716.183932023016
 31
0.0
  0
LINE
  5
1A236
330
1AA0B
100
AcDbEntity
  8
HATCH
100
AcDbLine
 10
7017.731205772085
 20
1876.183932023015
 30
0.0
 11
7044.397872438752
 21
1829.99590935635
 31
0.0
  0
LINE
  5
1A237
330
1AA0B
100
AcDbEntity
  8
HATCH
100
AcDbLine
 10
6978.688496438756
 20
1716.183932023016
 30
0.0
 11
7071.064539105417
 21
1876.183932023015
 31
0.0
  0
LINE
  5
1A238
330
1AA0B
100
AcDbEntity
  8
HATCH
100
AcDbLine
 10
7273.226640455721
 20
2484.183932023016
 30
0.0
 11
7110.758701212581
 21
2321.715992779873
 31
0.0
  0
LINE
  5
1A239
330
1AA0B
100
AcDbEntity
  8
HATCH
100
AcDbLine
 10
7225.70906445572
 20
2484.183932023016
 30
0.0
 11
7110.758701212581
 21
2369.233568779873
 31
0.0
  0
LINE
  5
1A23A
330
1AA0B
100
AcDbEntity
  8
HATCH
100
AcDbLine
 10
7178.191490055723
 20
2484.183932023016
 30
0.0
 11
7110.758701212581
 21
2416.751143179872
 31
0.0
  0
LINE
  5
1A23F
330
1AA0B
100
AcDbEntity
  8
SUNPOU
100
AcDbLine
 10
7765.75870121258
 20
3287.183932023015
 30
0.0
 11
9025.98920846283
 21
3287.183932023015
 31
0.0
  0
TEXT
  5
1A241
330
1AA0B
100
AcDbEntity
  8
SUNPOU
100
AcDbText
 10
8386.586400353047
 20
3332.183932023015
 30
0.0
 40
90.0
  1
2450
 41
0.6666666666666666
  7
00
 72
     4
 11
8500.872114638761
 21
3377.183932023015
 31
0.0
100
AcDbText
  0
LINE
  5
1A244
330
1AA0B
100
AcDbEntity
  8
KISO
100
AcDbLine
 10
8390.758701212579
 20
2260.183932023013
 30
0.0
 11
9228.152195755734
 21
2260.183932023013
 31
0.0
  0
LINE
  5
1A245
330
1AA0B
100
AcDbEntity
  8
KISO
100
AcDbLine
 10
9228.152195755734
 20
2356.183932023014
 30
0.0
 11
8390.758701212579
 21
2356.183932023014
 31
0.0
  0
LINE
  5
1A246
330
1AA0B
100
AcDbEntity
  8
HATCH
100
AcDbLine
 10
8577.919008412584
 20
2356.183932023014
 30
0.0
 11
8561.919008412582
 21
2356.183932023014
 31
0.0
  0
LINE
  5
1A247
330
1AA0B
100
AcDbEntity
  8
HATCH
100
AcDbLine
 10
8513.744523612578
 20
2260.183932023013
 30
0.0
 11
8569.170149212579
 21
2356.183932023014
 31
0.0
  0
LINE
  5
1A248
330
1AA0B
100
AcDbEntity
  8
HATCH
100
AcDbLine
 10
8390.758701212579
 20
2290.297058750295
 30
0.0
 11
8408.144523612582
 21
2260.183932023013
 31
0.0
  0
LINE
  5
1A249
330
1AA0B
100
AcDbEntity
  8
HATCH
100
AcDbLine
 10
8532.944523612581
 20
2293.439306423013
 30
0.0
 11
8552.144523612581
 21
2260.183932023013
 31
0.0
  0
LINE
  5
1A24A
330
1AA0B
100
AcDbEntity
  8
HATCH
100
AcDbLine
 10
8433.919008412582
 20
2356.183932023014
 30
0.0
 11
8417.919008412582
 21
2356.183932023014
 31
0.0
  0
LINE
  5
1A24B
330
1AA0B
100
AcDbEntity
  8
HATCH
100
AcDbLine
 10
8390.758701212579
 20
2296.581555464543
 30
0.0
 11
8425.170149212579
 21
2356.183932023014
 31
0.0
  0
LINE
  5
1A24C
330
1AA0B
100
AcDbEntity
  8
HATCH
100
AcDbLine
 10
8390.758701212579
 20
2349.275557207618
 30
0.0
 11
8405.970149212578
 21
2322.928556023013
 31
0.0
  0
LINE
  5
1A24D
330
1AA0B
100
AcDbEntity
  8
HATCH
100
AcDbLine
 10
8530.77014921258
 20
2356.183932023014
 30
0.0
 11
8549.97014921258
 21
2322.928556023013
 31
0.0
  0
LINE
  5
1A24E
330
1AA0B
100
AcDbEntity
  8
HATCH
100
AcDbLine
 10
9073.74452361258
 20
2260.183932023013
 30
0.0
 11
9129.17014921258
 21
2356.183932023014
 31
0.0
  0
LINE
  5
1A24F
330
1AA0B
100
AcDbEntity
  8
HATCH
100
AcDbLine
 10
8676.944523612579
 20
2293.439306423013
 30
0.0
 11
8696.144523612579
 21
2260.183932023013
 31
0.0
  0
LINE
  5
1A250
330
1AA0B
100
AcDbEntity
  8
HATCH
100
AcDbLine
 10
8657.744523612578
 20
2260.183932023013
 30
0.0
 11
8713.170149212579
 21
2356.183932023014
 31
0.0
  0
LINE
  5
1A251
330
1AA0B
100
AcDbEntity
  8
HATCH
100
AcDbLine
 10
8820.944523612579
 20
2293.439306423013
 30
0.0
 11
8840.144523612583
 21
2260.183932023013
 31
0.0
  0
LINE
  5
1A252
330
1AA0B
100
AcDbEntity
  8
HATCH
100
AcDbLine
 10
8801.74452361258
 20
2260.183932023013
 30
0.0
 11
8857.17014921258
 21
2356.183932023014
 31
0.0
  0
LINE
  5
1A253
330
1AA0B
100
AcDbEntity
  8
HATCH
100
AcDbLine
 10
8948.944523612579
 20
2293.439306423013
 30
0.0
 11
8968.144523612577
 21
2260.183932023013
 31
0.0
  0
LINE
  5
1A254
330
1AA0B
100
AcDbEntity
  8
HATCH
100
AcDbLine
 10
8929.744523612578
 20
2260.183932023013
 30
0.0
 11
8985.17014921258
 21
2356.183932023014
 31
0.0
  0
LINE
  5
1A255
330
1AA0B
100
AcDbEntity
  8
HATCH
100
AcDbLine
 10
8818.770149212578
 20
2356.183932023014
 30
0.0
 11
8837.970149212578
 21
2322.928556023013
 31
0.0
  0
LINE
  5
1A256
330
1AA0B
100
AcDbEntity
  8
HATCH
100
AcDbLine
 10
8674.770149212578
 20
2356.183932023014
 30
0.0
 11
8693.97014921258
 21
2322.928556023013
 31
0.0
  0
LINE
  5
1A257
330
1AA0B
100
AcDbEntity
  8
HATCH
100
AcDbLine
 10
8946.77014921258
 20
2356.183932023014
 30
0.0
 11
8965.970149212578
 21
2322.928556023013
 31
0.0
  0
LINE
  5
1A258
330
1AA0B
100
AcDbEntity
  8
HATCH
100
AcDbLine
 10
9092.94452361258
 20
2293.439306423013
 30
0.0
 11
9112.144523612583
 21
2260.183932023013
 31
0.0
  0
LINE
  5
1A259
330
1AA0B
100
AcDbEntity
  8
HATCH
100
AcDbLine
 10
9090.770149212579
 20
2356.183932023014
 30
0.0
 11
9109.97014921258
 21
2322.928556023013
 31
0.0
  0
TEXT
  5
1A25A
330
1AA0B
100
AcDbEntity
  8
HIKIDASHI
100
AcDbText
 10
8650.921518715055
 20
2006.931554141242
 30
0.0
 40
90.0
  1
敷砂利又は砕石
  7
01
100
AcDbText
  0
LINE
  5
1A25B
330
1AA0B
100
AcDbEntity
  8
HIKIDASHI
100
AcDbLine
 10
8604.261733917329
 20
1961.931554141242
 30
0.0
 11
9406.912082292711
 21
1961.931554141242
 31
0.0
  0
TEXT
  5
1A25C
330
1AA0B
100
AcDbEntity
  8
SUNPOU
100
AcDbText
 10
8924.084949012963
 20
2619.183932023016
 30
0.0
 40
90.0
  1
F.L
 41
0.6666666666666666
  7
00
 72
     4
 11
8992.656377584392
 21
2664.183932023016
 31
0.0
100
AcDbText
  0
LINE
  5
1A25D
330
1AA0B
100
AcDbEntity
  8
SUNPOU
100
AcDbLine
 10
8992.656377584392
 20
2484.183932023016
 30
0.0
 11
9044.617901811456
 21
2574.183932023016
 31
0.0
  0
LINE
  5
1A25E
330
1AA0B
100
AcDbEntity
  8
SUNPOU
100
AcDbLine
 10
8940.694853357323
 20
2574.183932023016
 30
0.0
 11
8992.656377584392
 21
2484.183932023016
 31
0.0
  0
LINE
  5
1A25F
330
1AA0B
100
AcDbEntity
  8
SUNPOU
100
AcDbLine
 10
9044.617901811456
 20
2574.183932023016
 30
0.0
 11
8940.694853357323
 21
2574.183932023016
 31
0.0
  0
LINE
  5
1A261
330
1AA0B
100
AcDbEntity
  8
HIKIDASHI
100
AcDbLine
 10
6725.592096228623
 20
1304.183932023017
 30
0.0
 11
6356.825719400998
 21
1304.183932023017
 31
0.0
  0
TEXT
  5
1A262
330
1AA0B
100
AcDbEntity
  8
HIKIDASHI
100
AcDbText
 10
6383.893326992911
 20
1349.183932023017
 30
0.0
 40
90.0
  1
砕　石
  7
01
 72
     2
 11
6683.89332699291
 21
1394.183932023016
 31
0.0
100
AcDbText
 73
     2
  0
TEXT
  5
1A264
330
1AA0B
100
AcDbEntity
  8
HIKIDASHI
100
AcDbText
 10
6592.266977118153
 20
2825.613541661909
 30
0.0
 40
90.0
  1
%%c
 41
0.6700000000000001
  7
00
100
AcDbText
  0
LINE
  5
1A265
330
1AA0B
100
AcDbEntity
  8
HIKIDASHI
100
AcDbLine
 10
6202.383508498655
 20
2754.183932023012
 30
0.0
 11
7047.682504043535
 21
2754.183932023012
 31
0.0
  0
TEXT
  5
1A267
330
1AA0B
100
AcDbEntity
  8
HIKIDASHI
100
AcDbText
 10
6757.972506084094
 20
2798.974945822921
 30
0.0
 40
89.55223880597015
  1
350
 41
0.6700000000000001
  7
00
100
AcDbText
  0
TEXT
  5
1A268
330
1AA0B
100
AcDbEntity
  8
HIKIDASHI
100
AcDbText
 10
6676.837126930957
 20
2810.37796187376
 30
0.0
 40
89.55223880597015
  1
x
 41
0.6700000000000001
  7
00
100
AcDbText
  0
TEXT
  5
1A269
330
1AA0B
100
AcDbEntity
  8
HIKIDASHI
100
AcDbText
 10
6232.383508498656
 20
2799.183932023012
 30
0.0
 40
90.0
  1
鉄筋
  7
01
100
AcDbText
  0
TEXT
  5
1A26A
330
1AA0B
100
AcDbEntity
  8
HIKIDASHI
100
AcDbText
 10
6463.890222100315
 20
2799.183932023012
 30
0.0
 40
89.55223880597015
  1
10
 41
0.6700000000000001
  7
00
100
AcDbText
  0
LINE
  5
1A26C
330
1AA0B
100
AcDbEntity
  8
HIKIDASHI
100
AcDbLine
 10
6707.087978073521
 20
2994.183932023012
 30
0.0
 11
7061.08797807352
 21
2994.183932023012
 31
0.0
  0
TEXT
  5
1A26D
330
1AA0B
100
AcDbEntity
  8
HIKIDASHI
100
AcDbText
 10
6737.087978073519
 20
3039.183932023012
 30
0.0
 40
90.0
  1
土　間
  7
01
100
AcDbText
  0
TEXT
  5
1A26F
330
1AA0B
100
AcDbEntity
  8
SUNPOU
100
AcDbText
 10
8729.524760186892
 20
1293.654565347389
 30
0.0
 40
90.0
  1
5-D13×5-D13
 41
0.6700000000000001
  7
01
 72
     4
 11
9072.94761732975
 21
1338.654565347389
 31
0.0
100
AcDbText
  0
TEXT
  5
1A270
330
1AA0B
100
AcDbEntity
  8
SUNPOU
100
AcDbText
 10
8868.947617329755
 20
1458.903907439804
 30
0.0
 40
90.0
  1
ベース筋
  7
01
 72
     4
 11
9072.947617329756
 21
1503.903907439804
 31
0.0
100
AcDbText
  0
TEXT
  5
1A271
330
1AA0B
100
AcDbEntity
  8
HIKIDASHI
100
AcDbText
 10
7826.962304091357
 20
925.1349131803474
 30
0.0
 40
90.0
  1
断 面
  7
01
100
AcDbText
  0
LINE
  5
1A272
330
1AA0B
100
AcDbEntity
  8
HIKIDASHI
100
AcDbLine
 10
7402.945024594797
 20
880.1349131803473
 30
0.0
 11
8098.572377830365
 21
880.1349131803473
 31
0.0
  0
LINE
  5
1A273
330
1AA0B
100
AcDbEntity
  8
HIKIDASHI
100
AcDbLine
 10
7402.945024594797
 20
850.1349131803474
 30
0.0
 11
8098.572377830365
 21
850.1349131803474
 31
0.0
  0
TEXT
  5
1A274
330
1AA0B
100
AcDbEntity
  8
HIKIDASHI
100
AcDbText
 10
7432.945024594795
 20
925.1349131803474
 30
0.0
 40
90.0
  1
B  ~  B'
 41
0.6700000000000001
  7
00
100
AcDbText
  0
LINE
  5
1A275
330
1AA0B
100
AcDbEntity
  8
HATCH
100
AcDbLine
 10
4197.973085892561
 20
1876.183932023019
 30
0.0
 11
4224.639752559228
 21
1829.995909356355
 31
0.0
  0
LINE
  5
1A276
330
1AA0B
100
AcDbEntity
  8
HATCH
100
AcDbLine
 10
4158.930376559229
 20
1716.183932023018
 30
0.0
 11
4251.306419225894
 21
1876.183932023019
 31
0.0
  0
LINE
  5
1A277
330
1AA0B
100
AcDbEntity
  8
HATCH
100
AcDbLine
 10
4185.597043225896
 20
1762.371953356349
 30
0.0
 11
4212.263709892562
 21
1716.183932023018
 31
0.0
  0
LINE
  5
1A278
330
1AA0B
100
AcDbEntity
  8
HATCH
100
AcDbLine
 10
8417.731205772088
 20
1876.183932023015
 30
0.0
 11
8444.397872438756
 21
1829.99590935635
 31
0.0
  0
LINE
  5
1A279
330
1AA0B
100
AcDbEntity
  8
HATCH
100
AcDbLine
 10
8378.688496438755
 20
1716.183932023016
 30
0.0
 11
8471.06453910542
 21
1876.183932023015
 31
0.0
  0
LINE
  5
1A27A
330
1AA0B
100
AcDbEntity
  8
HATCH
100
AcDbLine
 10
8405.355163105422
 20
1762.371953356344
 30
0.0
 11
8432.021829772091
 21
1716.183932023016
 31
0.0
  0
LINE
  5
1A27B
330
1AA0B
100
AcDbEntity
  8
KISO
100
AcDbLine
 10
3064.333914666386
 20
2484.183932023019
 30
0.0
 11
3064.333914666386
 21
2260.183932023017
 31
0.0
  0
LINE
  5
1A27C
330
1AA0B
100
AcDbEntity
  8
KISO
100
AcDbLine
 10
3064.333914666386
 20
2260.183932023017
 30
0.0
 11
3224.333914666386
 21
2260.183932023017
 31
0.0
  0
LINE
  5
1A27D
330
1AA0B
100
AcDbEntity
  8
KISO
100
AcDbLine
 10
3224.333914666386
 20
2356.183932023018
 30
0.0
 11
3064.333914666386
 21
2356.183932023018
 31
0.0
  0
LINE
  5
1A27E
330
1AA0B
100
AcDbEntity
  8
HATCH
100
AcDbLine
 10
3134.608080332767
 20
2293.439306423018
 30
0.0
 11
3153.808080332766
 21
2260.183932023017
 31
0.0
  0
LINE
  5
1A27F
330
1AA0B
100
AcDbEntity
  8
HATCH
100
AcDbLine
 10
3132.433705932765
 20
2356.183932023018
 30
0.0
 11
3151.633705932765
 21
2322.928556023017
 31
0.0
  0
LINE
  5
1A280
330
1AA0B
100
AcDbEntity
  8
HATCH
100
AcDbLine
 10
3115.408080332766
 20
2260.183932023017
 30
0.0
 11
3170.833705932765
 21
2356.183932023018
 31
0.0
  0
LINE
  5
1A281
330
1AA0B
100
AcDbEntity
  8
HATCH
100
AcDbLine
 10
3203.809059655493
 20
2484.183932023019
 30
0.0
 11
3075.809059655493
 21
2356.183932023018
 31
0.0
  0
LINE
  5
1A282
330
1AA0B
100
AcDbEntity
  8
HATCH
100
AcDbLine
 10
3156.29148365549
 20
2484.183932023019
 30
0.0
 11
3064.333914666386
 21
2392.226363033912
 31
0.0
  0
LINE
  5
1A283
330
1AA0B
100
AcDbEntity
  8
HATCH
100
AcDbLine
 10
3108.773907655493
 20
2484.183932023019
 30
0.0
 11
3064.333914666386
 21
2439.743939033911
 31
0.0
  0
TEXT
  5
1A50E
330
1AA0B
100
AcDbEntity
  8
FILENAME
100
AcDbText
 10
13435.33333333333
 20
174.0
 30
0.0
 40
100.0
  1
＜YOKCS-245-MA-U1_3_JIS_GL.DXF ＞
  7
FILENAME
 72
     2
 11
16382.0
 21
174.0
 31
0.0
100
AcDbText
  0
LINE
  5
1A515
330
1AA0B
100
AcDbEntity
  8
WAKUSEN-01
100
AcDbLine
 10
434.0000000000008
 20
413.9999999999997
 30
0.0
 11
16382.0
 21
413.9999999999997
 31
0.0
  0
LINE
  5
1A516
330
1AA0B
100
AcDbEntity
  8
WAKUSEN-01
100
AcDbLine
 10
434.0000000000008
 20
11242.0
 30
0.0
 11
16382.0
 21
11242.0
 31
0.0
  0
LINE
  5
1A517
330
1AA0B
100
AcDbEntity
  8
WAKUSEN-01
100
AcDbLine
 10
434.0000000000008
 20
413.9999999999997
 30
0.0
 11
434.0000000000008
 21
11242.0
 31
0.0
  0
LINE
  5
1A518
330
1AA0B
100
AcDbEntity
  8
WAKUSEN-01
100
AcDbLine
 10
16382.0
 20
413.9999999999997
 30
0.0
 11
16382.0
 21
11242.0
 31
0.0
  0
LINE
  5
1A519
330
1AA0B
100
AcDbEntity
  8
WAKUSEN-01
100
AcDbLine
 10
10280.0
 20
1242.0
 30
0.0
 11
16382.0
 21
1242.0
 31
0.0
  0
LINE
  5
1A51A
330
1AA0B
100
AcDbEntity
  8
WAKUSEN-02
100
AcDbLine
 10
10280.0
 20
827.9999999999997
 30
0.0
 11
13434.0
 21
827.9999999999997
 31
0.0
  0
TEXT
  5
1A51B
330
1AA0B
100
AcDbEntity
  8
WAKUMOJI-01
100
AcDbText
 10
10335.13012998137
 20
1062.951504669661
 30
0.0
 40
120.0
  1
名　称
  7
WAKUMOJI
100
AcDbText
  0
TEXT
  5
1A51C
330
1AA0B
100
AcDbEntity
  8
WAKUMOJI-01
100
AcDbText
 10
10328.25274254596
 20
659.5644874899107
 30
0.0
 40
120.0
  1
機種名
  7
WAKUMOJI
100
AcDbText
  0
LINE
  5
1A51D
330
1AA0B
100
AcDbEntity
  8
WAKUSEN-01
100
AcDbLine
 10
10280.0
 20
413.9999999999986
 30
0.0
 11
10280.0
 21
1242.0
 31
0.0
  0
LINE
  5
1A51E
330
1AA0B
100
AcDbEntity
  8
WAKUSEN-02
100
AcDbLine
 10
13434.0
 20
413.9999999999963
 30
0.0
 11
13434.0
 21
1242.0
 31
0.0
  0
LINE
  5
1A51F
330
1AA0B
100
AcDbEntity
  8
YODOROGO
100
AcDbLine
 10
14988.80217064596
 20
997.8747482146435
 30
0.0
 11
14914.80217064596
 21
997.8747482146435
 31
0.0
1001
AUTOCAD_POSTSCRIPT_FIGURE
1002
{
1000
PSFILL
1000
Grayscale
1000
Grayscale
1070
    25
1002
}
  0
LINE
  5
1A520
330
1AA0B
100
AcDbEntity
  8
YODOROGO
100
AcDbLine
 10
14914.80217064596
 20
973.8747482146436
 30
0.0
 11
14988.80217064596
 21
973.8747482146436
 31
0.0
1001
AUTOCAD_POSTSCRIPT_FIGURE
1002
{
1000
PSFILL
1000
Grayscale
1000
Grayscale
1070
    25
1002
}
  0
LINE
  5
1A521
330
1AA0B
100
AcDbEntity
  8
YODOROGO
100
AcDbLine
 10
14988.80217064596
 20
953.874748214644
 30
0.0
 11
14914.80217064596
 21
953.874748214644
 31
0.0
1001
AUTOCAD_POSTSCRIPT_FIGURE
1002
{
1000
PSFILL
1000
Grayscale
1000
Grayscale
1070
    25
1002
}
  0
LINE
  5
1A522
330
1AA0B
100
AcDbEntity
  8
YODOROGO
100
AcDbLine
 10
14914.80217064596
 20
929.874748214644
 30
0.0
 11
14988.80217064596
 21
929.874748214644
 31
0.0
1001
AUTOCAD_POSTSCRIPT_FIGURE
1002
{
1000
PSFILL
1000
Grayscale
1000
Grayscale
1070
    25
1002
}
  0
LINE
  5
1A523
330
1AA0B
100
AcDbEntity
  8
YODOROGO
100
AcDbLine
 10
14988.80217064596
 20
909.8747482146439
 30
0.0
 11
14914.80217064596
 21
909.8747482146439
 31
0.0
1001
AUTOCAD_POSTSCRIPT_FIGURE
1002
{
1000
PSFILL
1000
Grayscale
1000
Grayscale
1070
    25
1002
}
  0
LINE
  5
1A524
330
1AA0B
100
AcDbEntity
  8
YODOROGO
100
AcDbLine
 10
14960.80217064594
 20
853.8747482146439
 30
0.0
 11
14988.80217064596
 21
853.8747482146439
 31
0.0
1001
AUTOCAD_POSTSCRIPT_FIGURE
1002
{
1000
PSFILL
1000
Grayscale
1000
Grayscale
1070
    25
1002
}
  0
LINE
  5
1A525
330
1AA0B
100
AcDbEntity
  8
YODOROGO
100
AcDbLine
 10
14868.80217064596
 20
713.8747482146436
 30
0.0
 11
14968.80217064596
 21
740.6696674577553
 31
0.0
  0
LINE
  5
1A526
330
1AA0B
100
AcDbEntity
  8
YODOROGO
100
AcDbLine
 10
14974.80217064595
 20
853.8747482146439
 30
0.0
 11
14942.80217064596
 21
853.8747482146439
 31
0.0
  0
ARC
  5
1A527
330
1AA0B
100
AcDbEntity
  8
YODOROGO
100
AcDbCircle
 10
15127.17387491395
 20
903.9323046166312
 30
0.0
 40
190.9434321028236
100
AcDbArc
 50
213.9611167766784
 51
264.4787207431779
  0
ARC
  5
1A528
330
1AA0B
100
AcDbEntity
  8
YODOROGO
100
AcDbCircle
 10
15127.17387491396
 20
903.9323046166513
 30
0.0
 40
190.9434321028408
100
AcDbArc
 50
208.141144204866
 51
212.9210361185995
  0
LINE
  5
1A529
330
1AA0B
100
AcDbEntity
  8
YODOROGO
100
AcDbLine
 10
14885.70493649264
 20
778.403830673117
 30
0.0
 11
14966.89206625426
 21
800.1578565285436
 31
0.0
  0
LINE
  5
1A52A
330
1AA0B
100
AcDbEntity
  8
YODOROGO
100
AcDbLine
 10
14868.80217064596
 20
713.8747482146436
 30
0.0
 11
14968.80217064596
 21
740.6696674577553
 31
0.0
  0
LINE
  5
1A52B
330
1AA0B
100
AcDbEntity
  8
YODOROGO
100
AcDbLine
 10
14974.80217064595
 20
853.8747482146439
 30
0.0
 11
14942.80217064596
 21
853.8747482146439
 31
0.0
  0
ARC
  5
1A52C
330
1AA0B
100
AcDbEntity
  8
YODOROGO
100
AcDbCircle
 10
15127.17387491395
 20
903.9323046166312
 30
0.0
 40
190.9434321028236
100
AcDbArc
 50
213.9611167766784
 51
264.4787207431779
  0
LINE
  5
1A52D
330
1AA0B
100
AcDbEntity
  8
YODOROGO
100
AcDbLine
 10
14396.80217064594
 20
909.8747482146439
 30
0.0
 11
14216.80217064595
 21
909.8747482146439
 31
0.0
  0
LINE
  5
1A52E
330
1AA0B
100
AcDbEntity
  8
YODOROGO
100
AcDbLine
 10
14256.80217064595
 20
713.8747482146436
 30
0.0
 11
14396.80217064594
 21
713.8747482146436
 31
0.0
  0
LINE
  5
1A52F
330
1AA0B
100
AcDbEntity
  8
YODOROGO
100
AcDbLine
 10
14364.80217064596
 20
961.8747482146432
 30
0.0
 11
14248.80217064595
 21
961.8747482146432
 31
0.0
  0
LINE
  5
1A530
330
1AA0B
100
AcDbEntity
  8
YODOROGO
100
AcDbLine
 10
14292.80217064596
 20
1013.874748214644
 30
0.0
 11
14328.80217064596
 21
1013.874748214644
 31
0.0
  0
LINE
  5
1A531
330
1AA0B
100
AcDbEntity
  8
YODOROGO
100
AcDbLine
 10
14216.80217064595
 20
853.8747482146439
 30
0.0
 11
14216.80217064595
 21
753.8747482146439
 31
0.0
  0
LINE
  5
1A532
330
1AA0B
100
AcDbEntity
  8
YODOROGO
100
AcDbLine
 10
14248.80217064595
 20
781.8747482146434
 30
0.0
 11
14248.80217064595
 21
853.8747482146439
 31
0.0
  0
LINE
  5
1A533
330
1AA0B
100
AcDbEntity
  8
YODOROGO
100
AcDbLine
 10
14292.80217064596
 20
873.8747482146449
 30
0.0
 11
14292.80217064596
 21
773.8747482146439
 31
0.0
  0
LINE
  5
1A534
330
1AA0B
100
AcDbEntity
  8
YODOROGO
100
AcDbLine
 10
13928.80217064596
 20
841.8747482146445
 30
0.0
 11
13888.80217064596
 21
809.9862070222856
 31
0.0
  0
LINE
  5
1A535
330
1AA0B
100
AcDbEntity
  8
YODOROGO
100
AcDbLine
 10
13968.80217064596
 20
809.9862070222856
 30
0.0
 11
13928.80217064596
 21
841.8747482146445
 31
0.0
  0
LINE
  5
1A536
330
1AA0B
100
AcDbEntity
  8
YODOROGO
100
AcDbLine
 10
13928.80217064596
 20
853.8747482146439
 30
0.0
 11
13968.80217064596
 21
821.986207022285
 31
0.0
  0
LINE
  5
1A537
330
1AA0B
100
AcDbEntity
  8
YODOROGO
100
AcDbLine
 10
13888.80217064596
 20
821.986207022285
 30
0.0
 11
13928.80217064596
 21
853.8747482146439
 31
0.0
  0
LINE
  5
1A538
330
1AA0B
100
AcDbEntity
  8
YODOROGO
100
AcDbLine
 10
14020.45660200845
 20
829.874748214644
 30
0.0
 11
14020.45660200845
 21
841.8747482146434
 31
0.0
  0
LINE
  5
1A539
330
1AA0B
100
AcDbEntity
  8
YODOROGO
100
AcDbLine
 10
13988.80217064596
 20
841.8747482146434
 30
0.0
 11
13988.80217064596
 21
833.8747482146427
 31
0.0
  0
LINE
  5
1A53A
330
1AA0B
100
AcDbEntity
  8
YODOROGO
100
AcDbLine
 10
14049.06776011545
 20
853.8747482146439
 30
0.0
 11
14049.06776011545
 21
827.751818637328
 31
0.0
1001
AUTOCAD_POSTSCRIPT_FIGURE
1002
{
1000
PSFILL
1000
Grayscale
1000
Grayscale
1070
   100
1002
}
  0
LINE
  5
1A53B
330
1AA0B
100
AcDbEntity
  8
YODOROGO
100
AcDbLine
 10
14041.06776011546
 20
827.751818637328
 30
0.0
 11
14041.06776011546
 21
853.8747482146439
 31
0.0
1001
AUTOCAD_POSTSCRIPT_FIGURE
1002
{
1000
PSFILL
1000
Grayscale
1000
Grayscale
1070
   100
1002
}
  0
LINE
  5
1A53C
330
1AA0B
100
AcDbEntity
  8
YODOROGO
100
AcDbLine
 10
13904.80217064596
 20
804.3859520216292
 30
0.0
 11
13904.80217064596
 21
816.3859520216298
 31
0.0
  0
LINE
  5
1A53D
330
1AA0B
100
AcDbEntity
  8
YODOROGO
100
AcDbLine
 10
13952.80217064596
 20
804.3859520216292
 30
0.0
 11
13904.80217064596
 21
804.3859520216292
 31
0.0
  0
LINE
  5
1A53E
330
1AA0B
100
AcDbEntity
  8
YODOROGO
100
AcDbLine
 10
13952.80217064596
 20
816.3859520216298
 30
0.0
 11
13952.80217064596
 21
804.3859520216292
 31
0.0
  0
LINE
  5
1A53F
330
1AA0B
100
AcDbEntity
  8
YODOROGO
100
AcDbLine
 10
13904.80217064596
 20
816.3859520216298
 30
0.0
 11
13952.80217064596
 21
816.3859520216298
 31
0.0
  0
LINE
  5
1A540
330
1AA0B
100
AcDbEntity
  8
YODOROGO
100
AcDbLine
 10
13912.25479445787
 20
784.2514286852374
 30
0.0
 11
13892.80217064596
 21
737.8747482146437
 31
0.0
1001
AUTOCAD_POSTSCRIPT_FIGURE
1002
{
1000
PSFILL
1000
Grayscale
1000
Grayscale
1070
   100
1002
}
  0
LINE
  5
1A541
330
1AA0B
100
AcDbEntity
  8
YODOROGO
100
AcDbLine
 10
13888.80217064596
 20
784.2514286852374
 30
0.0
 11
13912.25479445787
 21
784.2514286852374
 31
0.0
1001
AUTOCAD_POSTSCRIPT_FIGURE
1002
{
1000
PSFILL
1000
Grayscale
1000
Grayscale
1070
   100
1002
}
  0
LINE
  5
1A542
330
1AA0B
100
AcDbEntity
  8
YODOROGO
100
AcDbLine
 10
13888.80217064596
 20
794.2514286852374
 30
0.0
 11
13888.80217064596
 21
784.2514286852374
 31
0.0
1001
AUTOCAD_POSTSCRIPT_FIGURE
1002
{
1000
PSFILL
1000
Grayscale
1000
Grayscale
1070
   100
1002
}
  0
LINE
  5
1A543
330
1AA0B
100
AcDbEntity
  8
YODOROGO
100
AcDbLine
 10
13968.80217064596
 20
794.2514286852374
 30
0.0
 11
13888.80217064596
 21
794.2514286852374
 31
0.0
1001
AUTOCAD_POSTSCRIPT_FIGURE
1002
{
1000
PSFILL
1000
Grayscale
1000
Grayscale
1070
   100
1002
}
  0
LINE
  5
1A544
330
1AA0B
100
AcDbEntity
  8
YODOROGO
100
AcDbLine
 10
13968.80217064596
 20
784.2514286852374
 30
0.0
 11
13968.80217064596
 21
794.2514286852374
 31
0.0
1001
AUTOCAD_POSTSCRIPT_FIGURE
1002
{
1000
PSFILL
1000
Grayscale
1000
Grayscale
1070
   100
1002
}
  0
LINE
  5
1A545
330
1AA0B
100
AcDbEntity
  8
YODOROGO
100
AcDbLine
 10
13922.25479445787
 20
784.2514286852374
 30
0.0
 11
13968.80217064596
 21
784.2514286852374
 31
0.0
1001
AUTOCAD_POSTSCRIPT_FIGURE
1002
{
1000
PSFILL
1000
Grayscale
1000
Grayscale
1070
   100
1002
}
  0
LINE
  5
1A546
330
1AA0B
100
AcDbEntity
  8
YODOROGO
100
AcDbLine
 10
13907.77335914239
 20
747.8747482146435
 30
0.0
 11
13922.25479445787
 21
784.2514286852374
 31
0.0
1001
AUTOCAD_POSTSCRIPT_FIGURE
1002
{
1000
PSFILL
1000
Grayscale
1000
Grayscale
1070
   100
1002
}
  0
LINE
  5
1A547
330
1AA0B
100
AcDbEntity
  8
YODOROGO
100
AcDbLine
 10
13951.02739540432
 20
747.8747482146435
 30
0.0
 11
13907.77335914239
 21
747.8747482146435
 31
0.0
1001
AUTOCAD_POSTSCRIPT_FIGURE
1002
{
1000
PSFILL
1000
Grayscale
1000
Grayscale
1070
   100
1002
}
  0
LINE
  5
1A548
330
1AA0B
100
AcDbEntity
  8
YODOROGO
100
AcDbLine
 10
13942.53250239547
 20
768.1169053488464
 30
0.0
 11
13951.02739540432
 21
747.8747482146435
 31
0.0
1001
AUTOCAD_POSTSCRIPT_FIGURE
1002
{
1000
PSFILL
1000
Grayscale
1000
Grayscale
1070
   100
1002
}
  0
LINE
  5
1A549
330
1AA0B
100
AcDbEntity
  8
YODOROGO
100
AcDbLine
 10
13950.53250239547
 20
768.1169053488464
 30
0.0
 11
13942.53250239547
 21
768.1169053488464
 31
0.0
1001
AUTOCAD_POSTSCRIPT_FIGURE
1002
{
1000
PSFILL
1000
Grayscale
1000
Grayscale
1070
   100
1002
}
  0
LINE
  5
1A54A
330
1AA0B
100
AcDbEntity
  8
YODOROGO
100
AcDbLine
 10
13964.80217064596
 20
737.8747482146437
 30
0.0
 11
13950.53250239547
 21
768.1169053488464
 31
0.0
1001
AUTOCAD_POSTSCRIPT_FIGURE
1002
{
1000
PSFILL
1000
Grayscale
1000
Grayscale
1070
   100
1002
}
  0
LINE
  5
1A54B
330
1AA0B
100
AcDbEntity
  8
YODOROGO
100
AcDbLine
 10
13892.80217064596
 20
737.8747482146437
 30
0.0
 11
13964.80217064596
 21
737.8747482146437
 31
0.0
1001
AUTOCAD_POSTSCRIPT_FIGURE
1002
{
1000
PSFILL
1000
Grayscale
1000
Grayscale
1070
   100
1002
}
  0
LINE
  5
1A54C
330
1AA0B
100
AcDbEntity
  8
YODOROGO
100
AcDbLine
 10
13888.80217064596
 20
809.9862070222856
 30
0.0
 11
13888.80217064596
 21
821.986207022285
 31
0.0
  0
LINE
  5
1A54D
330
1AA0B
100
AcDbEntity
  8
YODOROGO
100
AcDbLine
 10
13968.80217064596
 20
821.986207022285
 30
0.0
 11
13968.80217064596
 21
809.9862070222856
 31
0.0
  0
ARC
  5
1A54E
330
1AA0B
100
AcDbEntity
  8
YODOROGO
100
AcDbCircle
 10
14112.97022107348
 20
800.438882662663
 30
0.0
 40
87.99999999999995
100
AcDbArc
 50
280.3644312771313
 51
3.541483659218056
  0
ARC
  5
1A54F
330
1AA0B
100
AcDbEntity
  8
YODOROGO
100
AcDbCircle
 10
14117.87801537965
 20
816.7989034809522
 30
0.0
 40
55.99999999999916
100
AcDbArc
 50
281.2490582504155
 51
348.7509417495832
  0
LINE
  5
1A550
330
1AA0B
100
AcDbEntity
  8
YODOROGO
100
AcDbLine
 10
14128.80217064596
 20
761.8747482146434
 30
0.0
 11
14128.80217064596
 21
713.8747482146436
 31
0.0
  0
LINE
  5
1A551
330
1AA0B
100
AcDbEntity
  8
YODOROGO
100
AcDbLine
 10
14010.04445186844
 20
805.3252825309574
 30
0.0
 11
14020.45660200845
 21
829.874748214644
 31
0.0
  0
LINE
  5
1A552
330
1AA0B
100
AcDbEntity
  8
YODOROGO
100
AcDbLine
 10
14020.80217064596
 20
791.5602449742006
 30
0.0
 11
14010.04445186844
 21
805.3252825309574
 31
0.0
  0
LINE
  5
1A553
330
1AA0B
100
AcDbEntity
  8
YODOROGO
100
AcDbLine
 10
14020.80217064596
 20
781.5602449741995
 30
0.0
 11
14020.80217064596
 21
791.5602449742006
 31
0.0
  0
LINE
  5
1A554
330
1AA0B
100
AcDbEntity
  8
YODOROGO
100
AcDbLine
 10
14008.80217064596
 20
792.6185318747652
 30
0.0
 11
14020.80217064596
 21
781.5602449741995
 31
0.0
  0
LINE
  5
1A555
330
1AA0B
100
AcDbEntity
  8
YODOROGO
100
AcDbLine
 10
14008.80217064596
 20
737.8747482146437
 30
0.0
 11
14008.80217064596
 21
792.6185318747652
 31
0.0
  0
LINE
  5
1A556
330
1AA0B
100
AcDbEntity
  8
YODOROGO
100
AcDbLine
 10
14000.80217064596
 20
737.8747482146437
 30
0.0
 11
14008.80217064596
 21
737.8747482146437
 31
0.0
  0
LINE
  5
1A557
330
1AA0B
100
AcDbEntity
  8
YODOROGO
100
AcDbLine
 10
14000.80217064596
 20
790.0026748448738
 30
0.0
 11
14000.80217064596
 21
737.8747482146437
 31
0.0
  0
LINE
  5
1A558
330
1AA0B
100
AcDbEntity
  8
YODOROGO
100
AcDbLine
 10
13988.80217064596
 20
766.3840395167142
 30
0.0
 11
14000.80217064596
 21
790.0026748448738
 31
0.0
  0
LINE
  5
1A559
330
1AA0B
100
AcDbEntity
  8
YODOROGO
100
AcDbLine
 10
13988.80217064596
 20
778.3840395167149
 30
0.0
 11
13988.80217064596
 21
766.3840395167142
 31
0.0
  0
LINE
  5
1A55A
330
1AA0B
100
AcDbEntity
  8
YODOROGO
100
AcDbLine
 10
14012.91438714567
 20
833.8747482146427
 30
0.0
 11
13988.80217064596
 21
778.3840395167149
 31
0.0
  0
LINE
  5
1A55B
330
1AA0B
100
AcDbEntity
  8
YODOROGO
100
AcDbLine
 10
13988.80217064596
 20
833.8747482146427
 30
0.0
 11
14012.91438714567
 21
833.8747482146427
 31
0.0
  0
LINE
  5
1A55C
330
1AA0B
100
AcDbEntity
  8
YODOROGO
100
AcDbLine
 10
14025.06776011545
 20
827.751818637328
 30
0.0
 11
14041.06776011546
 21
827.751818637328
 31
0.0
1001
AUTOCAD_POSTSCRIPT_FIGURE
1002
{
1000
PSFILL
1000
Grayscale
1000
Grayscale
1070
   100
1002
}
  0
LINE
  5
1A55D
330
1AA0B
100
AcDbEntity
  8
YODOROGO
100
AcDbLine
 10
14025.06776011545
 20
815.7518186373286
 30
0.0
 11
14025.06776011545
 21
827.751818637328
 31
0.0
1001
AUTOCAD_POSTSCRIPT_FIGURE
1002
{
1000
PSFILL
1000
Grayscale
1000
Grayscale
1070
   100
1002
}
  0
LINE
  5
1A55E
330
1AA0B
100
AcDbEntity
  8
YODOROGO
100
AcDbLine
 10
14041.06776011546
 20
815.7518186373286
 30
0.0
 11
14025.06776011545
 21
815.7518186373286
 31
0.0
1001
AUTOCAD_POSTSCRIPT_FIGURE
1002
{
1000
PSFILL
1000
Grayscale
1000
Grayscale
1070
   100
1002
}
  0
LINE
  5
1A55F
330
1AA0B
100
AcDbEntity
  8
YODOROGO
100
AcDbLine
 10
14041.06776011546
 20
749.8747482146441
 30
0.0
 11
14041.06776011546
 21
815.7518186373286
 31
0.0
1001
AUTOCAD_POSTSCRIPT_FIGURE
1002
{
1000
PSFILL
1000
Grayscale
1000
Grayscale
1070
   100
1002
}
  0
LINE
  5
1A560
330
1AA0B
100
AcDbEntity
  8
YODOROGO
100
AcDbLine
 10
14025.06776011545
 20
749.8747482146441
 30
0.0
 11
14041.06776011546
 21
749.8747482146441
 31
0.0
1001
AUTOCAD_POSTSCRIPT_FIGURE
1002
{
1000
PSFILL
1000
Grayscale
1000
Grayscale
1070
   100
1002
}
  0
LINE
  5
1A561
330
1AA0B
100
AcDbEntity
  8
YODOROGO
100
AcDbLine
 10
14025.06776011545
 20
737.8747482146437
 30
0.0
 11
14025.06776011545
 21
749.8747482146441
 31
0.0
1001
AUTOCAD_POSTSCRIPT_FIGURE
1002
{
1000
PSFILL
1000
Grayscale
1000
Grayscale
1070
   100
1002
}
  0
LINE
  5
1A562
330
1AA0B
100
AcDbEntity
  8
YODOROGO
100
AcDbLine
 10
14068.80217064596
 20
737.8747482146437
 30
0.0
 11
14025.06776011545
 21
737.8747482146437
 31
0.0
1001
AUTOCAD_POSTSCRIPT_FIGURE
1002
{
1000
PSFILL
1000
Grayscale
1000
Grayscale
1070
   100
1002
}
  0
LINE
  5
1A563
330
1AA0B
100
AcDbEntity
  8
YODOROGO
100
AcDbLine
 10
14068.80217064596
 20
749.8747482146441
 30
0.0
 11
14068.80217064596
 21
737.8747482146437
 31
0.0
1001
AUTOCAD_POSTSCRIPT_FIGURE
1002
{
1000
PSFILL
1000
Grayscale
1000
Grayscale
1070
   100
1002
}
  0
LINE
  5
1A564
330
1AA0B
100
AcDbEntity
  8
YODOROGO
100
AcDbLine
 10
14049.06776011545
 20
749.8747482146441
 30
0.0
 11
14068.80217064596
 21
749.8747482146441
 31
0.0
1001
AUTOCAD_POSTSCRIPT_FIGURE
1002
{
1000
PSFILL
1000
Grayscale
1000
Grayscale
1070
   100
1002
}
  0
LINE
  5
1A565
330
1AA0B
100
AcDbEntity
  8
YODOROGO
100
AcDbLine
 10
14049.06776011545
 20
815.7518186373286
 30
0.0
 11
14049.06776011545
 21
749.8747482146441
 31
0.0
1001
AUTOCAD_POSTSCRIPT_FIGURE
1002
{
1000
PSFILL
1000
Grayscale
1000
Grayscale
1070
   100
1002
}
  0
LINE
  5
1A566
330
1AA0B
100
AcDbEntity
  8
YODOROGO
100
AcDbLine
 10
14068.80217064596
 20
815.7518186373286
 30
0.0
 11
14049.06776011545
 21
815.7518186373286
 31
0.0
1001
AUTOCAD_POSTSCRIPT_FIGURE
1002
{
1000
PSFILL
1000
Grayscale
1000
Grayscale
1070
   100
1002
}
  0
LINE
  5
1A567
330
1AA0B
100
AcDbEntity
  8
YODOROGO
100
AcDbLine
 10
14068.80217064596
 20
827.751818637328
 30
0.0
 11
14068.80217064596
 21
815.7518186373286
 31
0.0
1001
AUTOCAD_POSTSCRIPT_FIGURE
1002
{
1000
PSFILL
1000
Grayscale
1000
Grayscale
1070
   100
1002
}
  0
LINE
  5
1A568
330
1AA0B
100
AcDbEntity
  8
YODOROGO
100
AcDbLine
 10
14049.06776011545
 20
827.751818637328
 30
0.0
 11
14068.80217064596
 21
827.751818637328
 31
0.0
1001
AUTOCAD_POSTSCRIPT_FIGURE
1002
{
1000
PSFILL
1000
Grayscale
1000
Grayscale
1070
   100
1002
}
  0
LINE
  5
1A569
330
1AA0B
100
AcDbEntity
  8
YODOROGO
100
AcDbLine
 10
14200.80217064595
 20
833.8747482146439
 30
0.0
 11
14172.80217064596
 21
833.8747482146439
 31
0.0
  0
LINE
  5
1A56A
330
1AA0B
100
AcDbEntity
  8
YODOROGO
100
AcDbLine
 10
14200.80217064595
 20
805.8747482146443
 30
0.0
 11
14200.80217064595
 21
833.8747482146439
 31
0.0
  0
LINE
  5
1A56B
330
1AA0B
100
AcDbEntity
  8
YODOROGO
100
AcDbLine
 10
14172.80217064596
 20
833.8747482146439
 30
0.0
 11
14172.80217064596
 21
805.8747482146443
 31
0.0
  0
ARC
  5
1A56C
330
1AA0B
100
AcDbEntity
  8
YODOROGO
100
AcDbCircle
 10
14256.80217064595
 20
753.8747482146439
 30
0.0
 40
40.0
100
AcDbArc
 50
180.0
 51
270.0
  0
ARC
  5
1A56D
330
1AA0B
100
AcDbEntity
  8
YODOROGO
100
AcDbCircle
 10
14268.80217064595
 20
781.8747482146434
 30
0.0
 40
20.0
100
AcDbArc
 50
180.0
 51
270.0
  0
LINE
  5
1A56E
330
1AA0B
100
AcDbEntity
  8
YODOROGO
100
AcDbLine
 10
14280.80217064596
 20
761.8747482146434
 30
0.0
 11
14268.80217064595
 21
761.8747482146434
 31
0.0
  0
ARC
  5
1A56F
330
1AA0B
100
AcDbEntity
  8
YODOROGO
100
AcDbCircle
 10
14280.80217064596
 20
773.8747482146427
 30
0.0
 40
11.99999999999818
100
AcDbArc
 50
270.0
 51
0.0000000000054281
  0
LINE
  5
1A570
330
1AA0B
100
AcDbEntity
  8
YODOROGO
100
AcDbLine
 10
13900.80217064596
 20
945.3932903968532
 30
0.0
 11
13888.80217064596
 21
921.8883739758362
 31
0.0
1001
AUTOCAD_POSTSCRIPT_FIGURE
1002
{
1000
PSFILL
1000
Grayscale
1000
Grayscale
1070
   100
1002
}
  0
LINE
  5
1A571
330
1AA0B
100
AcDbEntity
  8
YODOROGO
100
AcDbLine
 10
13900.80217064596
 20
873.8747482146436
 30
0.0
 11
13900.80217064596
 21
945.3932903968532
 31
0.0
1001
AUTOCAD_POSTSCRIPT_FIGURE
1002
{
1000
PSFILL
1000
Grayscale
1000
Grayscale
1070
   100
1002
}
  0
LINE
  5
1A572
330
1AA0B
100
AcDbEntity
  8
YODOROGO
100
AcDbLine
 10
13908.80217064596
 20
873.8747482146436
 30
0.0
 11
13900.80217064596
 21
873.8747482146436
 31
0.0
1001
AUTOCAD_POSTSCRIPT_FIGURE
1002
{
1000
PSFILL
1000
Grayscale
1000
Grayscale
1070
   100
1002
}
  0
LINE
  5
1A573
330
1AA0B
100
AcDbEntity
  8
YODOROGO
100
AcDbLine
 10
13908.80217064596
 20
946.8856660426334
 30
0.0
 11
13908.80217064596
 21
873.8747482146436
 31
0.0
1001
AUTOCAD_POSTSCRIPT_FIGURE
1002
{
1000
PSFILL
1000
Grayscale
1000
Grayscale
1070
   100
1002
}
  0
LINE
  5
1A574
330
1AA0B
100
AcDbEntity
  8
YODOROGO
100
AcDbLine
 10
13920.80217064596
 20
933.8273791420684
 30
0.0
 11
13908.80217064596
 21
946.8856660426334
 31
0.0
1001
AUTOCAD_POSTSCRIPT_FIGURE
1002
{
1000
PSFILL
1000
Grayscale
1000
Grayscale
1070
   100
1002
}
  0
LINE
  5
1A575
330
1AA0B
100
AcDbEntity
  8
YODOROGO
100
AcDbLine
 10
13920.80217064596
 20
941.8273791420681
 30
0.0
 11
13920.80217064596
 21
933.8273791420684
 31
0.0
1001
AUTOCAD_POSTSCRIPT_FIGURE
1002
{
1000
PSFILL
1000
Grayscale
1000
Grayscale
1070
   100
1002
}
  0
LINE
  5
1A576
330
1AA0B
100
AcDbEntity
  8
YODOROGO
100
AcDbLine
 10
13908.80217064596
 20
958.8856660426326
 30
0.0
 11
13920.80217064596
 21
941.8273791420681
 31
0.0
1001
AUTOCAD_POSTSCRIPT_FIGURE
1002
{
1000
PSFILL
1000
Grayscale
1000
Grayscale
1070
   100
1002
}
  0
LINE
  5
1A577
330
1AA0B
100
AcDbEntity
  8
YODOROGO
100
AcDbLine
 10
13908.80217064596
 20
969.8747482146441
 30
0.0
 11
13908.80217064596
 21
958.8856660426326
 31
0.0
1001
AUTOCAD_POSTSCRIPT_FIGURE
1002
{
1000
PSFILL
1000
Grayscale
1000
Grayscale
1070
   100
1002
}
  0
LINE
  5
1A578
330
1AA0B
100
AcDbEntity
  8
YODOROGO
100
AcDbLine
 10
13944.80217064596
 20
969.8747482146441
 30
0.0
 11
13908.80217064596
 21
969.8747482146441
 31
0.0
1001
AUTOCAD_POSTSCRIPT_FIGURE
1002
{
1000
PSFILL
1000
Grayscale
1000
Grayscale
1070
   100
1002
}
  0
LINE
  5
1A579
330
1AA0B
100
AcDbEntity
  8
YODOROGO
100
AcDbLine
 10
13944.80217064596
 20
950.2841744681497
 30
0.0
 11
13944.80217064596
 21
969.8747482146441
 31
0.0
1001
AUTOCAD_POSTSCRIPT_FIGURE
1002
{
1000
PSFILL
1000
Grayscale
1000
Grayscale
1070
   100
1002
}
  0
LINE
  5
1A57A
330
1AA0B
100
AcDbEntity
  8
YODOROGO
100
AcDbLine
 10
13928.80217064596
 20
950.2841744681497
 30
0.0
 11
13944.80217064596
 21
950.2841744681497
 31
0.0
1001
AUTOCAD_POSTSCRIPT_FIGURE
1002
{
1000
PSFILL
1000
Grayscale
1000
Grayscale
1070
   100
1002
}
  0
LINE
  5
1A57B
330
1AA0B
100
AcDbEntity
  8
YODOROGO
100
AcDbLine
 10
13928.80217064596
 20
942.2841744681491
 30
0.0
 11
13928.80217064596
 21
950.2841744681497
 31
0.0
1001
AUTOCAD_POSTSCRIPT_FIGURE
1002
{
1000
PSFILL
1000
Grayscale
1000
Grayscale
1070
   100
1002
}
  0
LINE
  5
1A57C
330
1AA0B
100
AcDbEntity
  8
YODOROGO
100
AcDbLine
 10
13944.80217064596
 20
942.2841744681491
 30
0.0
 11
13928.80217064596
 21
942.2841744681491
 31
0.0
1001
AUTOCAD_POSTSCRIPT_FIGURE
1002
{
1000
PSFILL
1000
Grayscale
1000
Grayscale
1070
   100
1002
}
  0
LINE
  5
1A57D
330
1AA0B
100
AcDbEntity
  8
YODOROGO
100
AcDbLine
 10
13944.80217064596
 20
939.8095889822197
 30
0.0
 11
13944.80217064596
 21
942.2841744681491
 31
0.0
1001
AUTOCAD_POSTSCRIPT_FIGURE
1002
{
1000
PSFILL
1000
Grayscale
1000
Grayscale
1070
   100
1002
}
  0
LINE
  5
1A57E
330
1AA0B
100
AcDbEntity
  8
YODOROGO
100
AcDbLine
 10
13924.80217064596
 20
906.4874905807087
 30
0.0
 11
13944.80217064596
 21
939.8095889822197
 31
0.0
1001
AUTOCAD_POSTSCRIPT_FIGURE
1002
{
1000
PSFILL
1000
Grayscale
1000
Grayscale
1070
   100
1002
}
  0
LINE
  5
1A57F
330
1AA0B
100
AcDbEntity
  8
YODOROGO
100
AcDbLine
 10
13924.80217064596
 20
898.487490580708
 30
0.0
 11
13924.80217064596
 21
906.4874905807087
 31
0.0
1001
AUTOCAD_POSTSCRIPT_FIGURE
1002
{
1000
PSFILL
1000
Grayscale
1000
Grayscale
1070
   100
1002
}
  0
LINE
  5
1A580
330
1AA0B
100
AcDbEntity
  8
YODOROGO
100
AcDbLine
 10
13944.80217064596
 20
923.8095889822183
 30
0.0
 11
13924.80217064596
 21
898.487490580708
 31
0.0
1001
AUTOCAD_POSTSCRIPT_FIGURE
1002
{
1000
PSFILL
1000
Grayscale
1000
Grayscale
1070
   100
1002
}
  0
LINE
  5
1A581
330
1AA0B
100
AcDbEntity
  8
YODOROGO
100
AcDbLine
 10
13944.80217064596
 20
873.8747482146436
 30
0.0
 11
13944.80217064596
 21
923.8095889822183
 31
0.0
1001
AUTOCAD_POSTSCRIPT_FIGURE
1002
{
1000
PSFILL
1000
Grayscale
1000
Grayscale
1070
   100
1002
}
  0
LINE
  5
1A582
330
1AA0B
100
AcDbEntity
  8
YODOROGO
100
AcDbLine
 10
13952.80217064596
 20
873.8747482146436
 30
0.0
 11
13944.80217064596
 21
873.8747482146436
 31
0.0
1001
AUTOCAD_POSTSCRIPT_FIGURE
1002
{
1000
PSFILL
1000
Grayscale
1000
Grayscale
1070
   100
1002
}
  0
LINE
  5
1A583
330
1AA0B
100
AcDbEntity
  8
YODOROGO
100
AcDbLine
 10
13952.80217064596
 20
924.7045060794032
 30
0.0
 11
13952.80217064596
 21
873.8747482146436
 31
0.0
1001
AUTOCAD_POSTSCRIPT_FIGURE
1002
{
1000
PSFILL
1000
Grayscale
1000
Grayscale
1070
   100
1002
}
  0
LINE
  5
1A584
330
1AA0B
100
AcDbEntity
  8
YODOROGO
100
AcDbLine
 10
13968.80217064596
 20
898.487490580708
 30
0.0
 11
13952.80217064596
 21
924.7045060794032
 31
0.0
1001
AUTOCAD_POSTSCRIPT_FIGURE
1002
{
1000
PSFILL
1000
Grayscale
1000
Grayscale
1070
   100
1002
}
  0
LINE
  5
1A585
330
1AA0B
100
AcDbEntity
  8
YODOROGO
100
AcDbLine
 10
13968.80217064596
 20
906.4874905807087
 30
0.0
 11
13968.80217064596
 21
898.487490580708
 31
0.0
1001
AUTOCAD_POSTSCRIPT_FIGURE
1002
{
1000
PSFILL
1000
Grayscale
1000
Grayscale
1070
   100
1002
}
  0
LINE
  5
1A586
330
1AA0B
100
AcDbEntity
  8
YODOROGO
100
AcDbLine
 10
13952.80217064596
 20
940.7045060794045
 30
0.0
 11
13968.80217064596
 21
906.4874905807087
 31
0.0
1001
AUTOCAD_POSTSCRIPT_FIGURE
1002
{
1000
PSFILL
1000
Grayscale
1000
Grayscale
1070
   100
1002
}
  0
LINE
  5
1A587
330
1AA0B
100
AcDbEntity
  8
YODOROGO
100
AcDbLine
 10
13952.80217064596
 20
942.2841744681502
 30
0.0
 11
13952.80217064596
 21
940.7045060794045
 31
0.0
1001
AUTOCAD_POSTSCRIPT_FIGURE
1002
{
1000
PSFILL
1000
Grayscale
1000
Grayscale
1070
   100
1002
}
  0
LINE
  5
1A588
330
1AA0B
100
AcDbEntity
  8
YODOROGO
100
AcDbLine
 10
13968.80217064596
 20
942.2841744681491
 30
0.0
 11
13952.80217064596
 21
942.2841744681502
 31
0.0
1001
AUTOCAD_POSTSCRIPT_FIGURE
1002
{
1000
PSFILL
1000
Grayscale
1000
Grayscale
1070
   100
1002
}
  0
LINE
  5
1A589
330
1AA0B
100
AcDbEntity
  8
YODOROGO
100
AcDbLine
 10
13968.80217064596
 20
950.2841744681497
 30
0.0
 11
13968.80217064596
 21
942.2841744681491
 31
0.0
1001
AUTOCAD_POSTSCRIPT_FIGURE
1002
{
1000
PSFILL
1000
Grayscale
1000
Grayscale
1070
   100
1002
}
  0
LINE
  5
1A58A
330
1AA0B
100
AcDbEntity
  8
YODOROGO
100
AcDbLine
 10
13952.80217064596
 20
950.2841744681497
 30
0.0
 11
13968.80217064596
 21
950.2841744681497
 31
0.0
1001
AUTOCAD_POSTSCRIPT_FIGURE
1002
{
1000
PSFILL
1000
Grayscale
1000
Grayscale
1070
   100
1002
}
  0
LINE
  5
1A58B
330
1AA0B
100
AcDbEntity
  8
YODOROGO
100
AcDbLine
 10
13952.80217064596
 20
969.8747482146441
 30
0.0
 11
13952.80217064596
 21
950.2841744681497
 31
0.0
1001
AUTOCAD_POSTSCRIPT_FIGURE
1002
{
1000
PSFILL
1000
Grayscale
1000
Grayscale
1070
   100
1002
}
  0
LINE
  5
1A58C
330
1AA0B
100
AcDbEntity
  8
YODOROGO
100
AcDbLine
 10
13968.80217064596
 20
969.8747482146441
 30
0.0
 11
13952.80217064596
 21
969.8747482146441
 31
0.0
1001
AUTOCAD_POSTSCRIPT_FIGURE
1002
{
1000
PSFILL
1000
Grayscale
1000
Grayscale
1070
   100
1002
}
  0
LINE
  5
1A58D
330
1AA0B
100
AcDbEntity
  8
YODOROGO
100
AcDbLine
 10
13968.80217064596
 20
977.8747482146435
 30
0.0
 11
13968.80217064596
 21
969.8747482146441
 31
0.0
1001
AUTOCAD_POSTSCRIPT_FIGURE
1002
{
1000
PSFILL
1000
Grayscale
1000
Grayscale
1070
   100
1002
}
  0
LINE
  5
1A58E
330
1AA0B
100
AcDbEntity
  8
YODOROGO
100
AcDbLine
 10
13952.80217064596
 20
977.8747482146435
 30
0.0
 11
13968.80217064596
 21
977.8747482146435
 31
0.0
1001
AUTOCAD_POSTSCRIPT_FIGURE
1002
{
1000
PSFILL
1000
Grayscale
1000
Grayscale
1070
   100
1002
}
  0
LINE
  5
1A58F
330
1AA0B
100
AcDbEntity
  8
YODOROGO
100
AcDbLine
 10
13952.80217064596
 20
989.8747482146443
 30
0.0
 11
13952.80217064596
 21
977.8747482146435
 31
0.0
1001
AUTOCAD_POSTSCRIPT_FIGURE
1002
{
1000
PSFILL
1000
Grayscale
1000
Grayscale
1070
   100
1002
}
  0
LINE
  5
1A590
330
1AA0B
100
AcDbEntity
  8
YODOROGO
100
AcDbLine
 10
13944.80217064596
 20
989.8747482146443
 30
0.0
 11
13952.80217064596
 21
989.8747482146443
 31
0.0
1001
AUTOCAD_POSTSCRIPT_FIGURE
1002
{
1000
PSFILL
1000
Grayscale
1000
Grayscale
1070
   100
1002
}
  0
LINE
  5
1A591
330
1AA0B
100
AcDbEntity
  8
YODOROGO
100
AcDbLine
 10
13944.80217064596
 20
977.8747482146435
 30
0.0
 11
13944.80217064596
 21
989.8747482146443
 31
0.0
1001
AUTOCAD_POSTSCRIPT_FIGURE
1002
{
1000
PSFILL
1000
Grayscale
1000
Grayscale
1070
   100
1002
}
  0
LINE
  5
1A592
330
1AA0B
100
AcDbEntity
  8
YODOROGO
100
AcDbLine
 10
13932.80217064596
 20
977.8747482146435
 30
0.0
 11
13944.80217064596
 21
977.8747482146435
 31
0.0
1001
AUTOCAD_POSTSCRIPT_FIGURE
1002
{
1000
PSFILL
1000
Grayscale
1000
Grayscale
1070
   100
1002
}
  0
LINE
  5
1A593
330
1AA0B
100
AcDbEntity
  8
YODOROGO
100
AcDbLine
 10
13932.80217064596
 20
989.8747482146443
 30
0.0
 11
13932.80217064596
 21
977.8747482146435
 31
0.0
1001
AUTOCAD_POSTSCRIPT_FIGURE
1002
{
1000
PSFILL
1000
Grayscale
1000
Grayscale
1070
   100
1002
}
  0
LINE
  5
1A594
330
1AA0B
100
AcDbEntity
  8
YODOROGO
100
AcDbLine
 10
13924.80217064596
 20
989.8747482146443
 30
0.0
 11
13932.80217064596
 21
989.8747482146443
 31
0.0
1001
AUTOCAD_POSTSCRIPT_FIGURE
1002
{
1000
PSFILL
1000
Grayscale
1000
Grayscale
1070
   100
1002
}
  0
LINE
  5
1A595
330
1AA0B
100
AcDbEntity
  8
YODOROGO
100
AcDbLine
 10
13924.80217064596
 20
977.8747482146435
 30
0.0
 11
13924.80217064596
 21
989.8747482146443
 31
0.0
1001
AUTOCAD_POSTSCRIPT_FIGURE
1002
{
1000
PSFILL
1000
Grayscale
1000
Grayscale
1070
   100
1002
}
  0
LINE
  5
1A596
330
1AA0B
100
AcDbEntity
  8
YODOROGO
100
AcDbLine
 10
13908.80217064596
 20
977.8747482146435
 30
0.0
 11
13924.80217064596
 21
977.8747482146435
 31
0.0
1001
AUTOCAD_POSTSCRIPT_FIGURE
1002
{
1000
PSFILL
1000
Grayscale
1000
Grayscale
1070
   100
1002
}
  0
LINE
  5
1A597
330
1AA0B
100
AcDbEntity
  8
YODOROGO
100
AcDbLine
 10
13908.80217064596
 20
989.8747482146443
 30
0.0
 11
13908.80217064596
 21
977.8747482146435
 31
0.0
1001
AUTOCAD_POSTSCRIPT_FIGURE
1002
{
1000
PSFILL
1000
Grayscale
1000
Grayscale
1070
   100
1002
}
  0
LINE
  5
1A598
330
1AA0B
100
AcDbEntity
  8
YODOROGO
100
AcDbLine
 10
13900.80217064596
 20
989.8747482146443
 30
0.0
 11
13908.80217064596
 21
989.8747482146443
 31
0.0
1001
AUTOCAD_POSTSCRIPT_FIGURE
1002
{
1000
PSFILL
1000
Grayscale
1000
Grayscale
1070
   100
1002
}
  0
LINE
  5
1A599
330
1AA0B
100
AcDbEntity
  8
YODOROGO
100
AcDbLine
 10
13900.80217064596
 20
977.8747482146435
 30
0.0
 11
13900.80217064596
 21
989.8747482146443
 31
0.0
1001
AUTOCAD_POSTSCRIPT_FIGURE
1002
{
1000
PSFILL
1000
Grayscale
1000
Grayscale
1070
   100
1002
}
  0
LINE
  5
1A59A
330
1AA0B
100
AcDbEntity
  8
YODOROGO
100
AcDbLine
 10
13888.80217064596
 20
977.8747482146435
 30
0.0
 11
13900.80217064596
 21
977.8747482146435
 31
0.0
1001
AUTOCAD_POSTSCRIPT_FIGURE
1002
{
1000
PSFILL
1000
Grayscale
1000
Grayscale
1070
   100
1002
}
  0
LINE
  5
1A59B
330
1AA0B
100
AcDbEntity
  8
YODOROGO
100
AcDbLine
 10
13888.80217064596
 20
969.8747482146441
 30
0.0
 11
13888.80217064596
 21
977.8747482146435
 31
0.0
1001
AUTOCAD_POSTSCRIPT_FIGURE
1002
{
1000
PSFILL
1000
Grayscale
1000
Grayscale
1070
   100
1002
}
  0
LINE
  5
1A59C
330
1AA0B
100
AcDbEntity
  8
YODOROGO
100
AcDbLine
 10
13900.80217064596
 20
969.8747482146441
 30
0.0
 11
13888.80217064596
 21
969.8747482146441
 31
0.0
1001
AUTOCAD_POSTSCRIPT_FIGURE
1002
{
1000
PSFILL
1000
Grayscale
1000
Grayscale
1070
   100
1002
}
  0
LINE
  5
1A59D
330
1AA0B
100
AcDbEntity
  8
YODOROGO
100
AcDbLine
 10
13900.80217064596
 20
957.3932903968524
 30
0.0
 11
13900.80217064596
 21
969.8747482146441
 31
0.0
1001
AUTOCAD_POSTSCRIPT_FIGURE
1002
{
1000
PSFILL
1000
Grayscale
1000
Grayscale
1070
   100
1002
}
  0
LINE
  5
1A59E
330
1AA0B
100
AcDbEntity
  8
YODOROGO
100
AcDbLine
 10
13888.80217064596
 20
929.8883739758355
 30
0.0
 11
13900.80217064596
 21
957.3932903968524
 31
0.0
1001
AUTOCAD_POSTSCRIPT_FIGURE
1002
{
1000
PSFILL
1000
Grayscale
1000
Grayscale
1070
   100
1002
}
  0
LINE
  5
1A59F
330
1AA0B
100
AcDbEntity
  8
YODOROGO
100
AcDbLine
 10
13888.80217064596
 20
921.8883739758362
 30
0.0
 11
13888.80217064596
 21
929.8883739758355
 31
0.0
1001
AUTOCAD_POSTSCRIPT_FIGURE
1002
{
1000
PSFILL
1000
Grayscale
1000
Grayscale
1070
   100
1002
}
  0
LINE
  5
1A5A0
330
1AA0B
100
AcDbEntity
  8
YODOROGO
100
AcDbLine
 10
14128.80217064596
 20
933.8747482146439
 30
0.0
 11
14200.80217064595
 21
912.4388128201532
 31
0.0
1001
AUTOCAD_POSTSCRIPT_FIGURE
1002
{
1000
PSFILL
1000
Grayscale
1000
Grayscale
1070
   100
1002
}
  0
LINE
  5
1A5A1
330
1AA0B
100
AcDbEntity
  8
YODOROGO
100
AcDbLine
 10
14200.80217064595
 20
876.4388128201531
 30
0.0
 11
14128.80217064596
 21
897.8747482146435
 31
0.0
1001
AUTOCAD_POSTSCRIPT_FIGURE
1002
{
1000
PSFILL
1000
Grayscale
1000
Grayscale
1070
   100
1002
}
  0
LINE
  5
1A5A2
330
1AA0B
100
AcDbEntity
  8
YODOROGO
100
AcDbLine
 10
14200.80217064595
 20
992.4388128201531
 30
0.0
 11
14128.80217064596
 21
1013.874748214644
 31
0.0
1001
AUTOCAD_POSTSCRIPT_FIGURE
1002
{
1000
PSFILL
1000
Grayscale
1000
Grayscale
1070
   100
1002
}
  0
LINE
  5
1A5A3
330
1AA0B
100
AcDbEntity
  8
YODOROGO
100
AcDbLine
 10
14128.80217064596
 20
979.874748214644
 30
0.0
 11
14200.80217064595
 21
958.4388128201537
 31
0.0
1001
AUTOCAD_POSTSCRIPT_FIGURE
1002
{
1000
PSFILL
1000
Grayscale
1000
Grayscale
1070
   100
1002
}
  0
LINE
  5
1A5A4
330
1AA0B
100
AcDbEntity
  8
YODOROGO
100
AcDbLine
 10
14128.80217064596
 20
897.8747482146435
 30
0.0
 11
14128.80217064596
 21
933.8747482146439
 31
0.0
1001
AUTOCAD_POSTSCRIPT_FIGURE
1002
{
1000
PSFILL
1000
Grayscale
1000
Grayscale
1070
   100
1002
}
  0
LINE
  5
1A5A5
330
1AA0B
100
AcDbEntity
  8
YODOROGO
100
AcDbLine
 10
14128.80217064596
 20
1013.874748214644
 30
0.0
 11
14128.80217064596
 21
979.874748214644
 31
0.0
1001
AUTOCAD_POSTSCRIPT_FIGURE
1002
{
1000
PSFILL
1000
Grayscale
1000
Grayscale
1070
   100
1002
}
  0
LINE
  5
1A5A6
330
1AA0B
100
AcDbEntity
  8
YODOROGO
100
AcDbLine
 10
14040.11816010337
 20
969.8747482146441
 30
0.0
 11
14064.80217064595
 21
873.8747482146436
 31
0.0
1001
AUTOCAD_POSTSCRIPT_FIGURE
1002
{
1000
PSFILL
1000
Grayscale
1000
Grayscale
1070
   100
1002
}
  0
LINE
  5
1A5A7
330
1AA0B
100
AcDbEntity
  8
YODOROGO
100
AcDbLine
 10
13988.80217064596
 20
969.8747482146441
 30
0.0
 11
14040.11816010337
 21
969.8747482146441
 31
0.0
1001
AUTOCAD_POSTSCRIPT_FIGURE
1002
{
1000
PSFILL
1000
Grayscale
1000
Grayscale
1070
   100
1002
}
  0
LINE
  5
1A5A8
330
1AA0B
100
AcDbEntity
  8
YODOROGO
100
AcDbLine
 10
13988.80217064596
 20
977.8747482146435
 30
0.0
 11
13988.80217064596
 21
969.8747482146441
 31
0.0
1001
AUTOCAD_POSTSCRIPT_FIGURE
1002
{
1000
PSFILL
1000
Grayscale
1000
Grayscale
1070
   100
1002
}
  0
LINE
  5
1A5A9
330
1AA0B
100
AcDbEntity
  8
YODOROGO
100
AcDbLine
 10
14038.30343925995
 20
977.8747482146435
 30
0.0
 11
13988.80217064596
 21
977.8747482146435
 31
0.0
1001
AUTOCAD_POSTSCRIPT_FIGURE
1002
{
1000
PSFILL
1000
Grayscale
1000
Grayscale
1070
   100
1002
}
  0
LINE
  5
1A5AA
330
1AA0B
100
AcDbEntity
  8
YODOROGO
100
AcDbLine
 10
14035.58135799485
 20
989.8747482146443
 30
0.0
 11
14038.30343925995
 21
977.8747482146435
 31
0.0
1001
AUTOCAD_POSTSCRIPT_FIGURE
1002
{
1000
PSFILL
1000
Grayscale
1000
Grayscale
1070
   100
1002
}
  0
LINE
  5
1A5AB
330
1AA0B
100
AcDbEntity
  8
YODOROGO
100
AcDbLine
 10
14045.58135799485
 20
989.8747482146443
 30
0.0
 11
14035.58135799485
 21
989.8747482146443
 31
0.0
1001
AUTOCAD_POSTSCRIPT_FIGURE
1002
{
1000
PSFILL
1000
Grayscale
1000
Grayscale
1070
   100
1002
}
  0
LINE
  5
1A5AC
330
1AA0B
100
AcDbEntity
  8
YODOROGO
100
AcDbLine
 10
14047.90343925997
 20
977.8747482146435
 30
0.0
 11
14045.58135799485
 21
989.8747482146443
 31
0.0
1001
AUTOCAD_POSTSCRIPT_FIGURE
1002
{
1000
PSFILL
1000
Grayscale
1000
Grayscale
1070
   100
1002
}
  0
LINE
  5
1A5AD
330
1AA0B
100
AcDbEntity
  8
YODOROGO
100
AcDbLine
 10
14060.80217064596
 20
977.8747482146435
 30
0.0
 11
14047.90343925997
 21
977.8747482146435
 31
0.0
1001
AUTOCAD_POSTSCRIPT_FIGURE
1002
{
1000
PSFILL
1000
Grayscale
1000
Grayscale
1070
   100
1002
}
  0
LINE
  5
1A5AE
330
1AA0B
100
AcDbEntity
  8
YODOROGO
100
AcDbLine
 10
14060.80217064596
 20
989.8747482146443
 30
0.0
 11
14060.80217064596
 21
977.8747482146435
 31
0.0
1001
AUTOCAD_POSTSCRIPT_FIGURE
1002
{
1000
PSFILL
1000
Grayscale
1000
Grayscale
1070
   100
1002
}
  0
LINE
  5
1A5AF
330
1AA0B
100
AcDbEntity
  8
YODOROGO
100
AcDbLine
 10
14068.80217064596
 20
989.8747482146443
 30
0.0
 11
14060.80217064596
 21
989.8747482146443
 31
0.0
1001
AUTOCAD_POSTSCRIPT_FIGURE
1002
{
1000
PSFILL
1000
Grayscale
1000
Grayscale
1070
   100
1002
}
  0
LINE
  5
1A5B0
330
1AA0B
100
AcDbEntity
  8
YODOROGO
100
AcDbLine
 10
14068.80217064596
 20
977.8747482146435
 30
0.0
 11
14068.80217064596
 21
989.8747482146443
 31
0.0
1001
AUTOCAD_POSTSCRIPT_FIGURE
1002
{
1000
PSFILL
1000
Grayscale
1000
Grayscale
1070
   100
1002
}
  0
LINE
  5
1A5B1
330
1AA0B
100
AcDbEntity
  8
YODOROGO
100
AcDbLine
 10
14068.80217064596
 20
969.8747482146441
 30
0.0
 11
14068.80217064596
 21
977.8747482146435
 31
0.0
1001
AUTOCAD_POSTSCRIPT_FIGURE
1002
{
1000
PSFILL
1000
Grayscale
1000
Grayscale
1070
   100
1002
}
  0
LINE
  5
1A5B2
330
1AA0B
100
AcDbEntity
  8
YODOROGO
100
AcDbLine
 10
14049.4514934367
 20
969.8747482146441
 30
0.0
 11
14068.80217064596
 21
969.8747482146441
 31
0.0
1001
AUTOCAD_POSTSCRIPT_FIGURE
1002
{
1000
PSFILL
1000
Grayscale
1000
Grayscale
1070
   100
1002
}
  0
LINE
  5
1A5B3
330
1AA0B
100
AcDbEntity
  8
YODOROGO
100
AcDbLine
 10
14068.80217064596
 20
873.8747482146436
 30
0.0
 11
14049.4514934367
 21
969.8747482146441
 31
0.0
1001
AUTOCAD_POSTSCRIPT_FIGURE
1002
{
1000
PSFILL
1000
Grayscale
1000
Grayscale
1070
   100
1002
}
  0
LINE
  5
1A5B4
330
1AA0B
100
AcDbEntity
  8
YODOROGO
100
AcDbLine
 10
14064.80217064595
 20
873.8747482146436
 30
0.0
 11
14068.80217064596
 21
873.8747482146436
 31
0.0
1001
AUTOCAD_POSTSCRIPT_FIGURE
1002
{
1000
PSFILL
1000
Grayscale
1000
Grayscale
1070
   100
1002
}
  0
LINE
  5
1A5B5
330
1AA0B
100
AcDbEntity
  8
YODOROGO
100
AcDbLine
 10
14039.03460996689
 20
887.8703881493972
 30
0.0
 11
13988.80217064596
 21
873.8747482146436
 31
0.0
  0
LINE
  5
1A5B6
330
1AA0B
100
AcDbEntity
  8
YODOROGO
100
AcDbLine
 10
14039.03460996689
 20
899.3344897645366
 30
0.0
 11
14039.03460996689
 21
887.8703881493972
 31
0.0
  0
LINE
  5
1A5B7
330
1AA0B
100
AcDbEntity
  8
YODOROGO
100
AcDbLine
 10
14016.91839030643
 20
893.4084665668834
 30
0.0
 11
14039.03460996689
 21
899.3344897645366
 31
0.0
  0
LINE
  5
1A5B8
330
1AA0B
100
AcDbEntity
  8
YODOROGO
100
AcDbLine
 10
14016.91839030643
 20
936.2841744681499
 30
0.0
 11
14016.91839030643
 21
893.4084665668834
 31
0.0
  0
LINE
  5
1A5B9
330
1AA0B
100
AcDbEntity
  8
YODOROGO
100
AcDbLine
 10
14039.03460996689
 20
936.2841744681499
 30
0.0
 11
14016.91839030643
 21
936.2841744681499
 31
0.0
  0
LINE
  5
1A5BA
330
1AA0B
100
AcDbEntity
  8
YODOROGO
100
AcDbLine
 10
14039.03460996689
 20
946.2841744681487
 30
0.0
 11
14039.03460996689
 21
936.2841744681499
 31
0.0
  0
LINE
  5
1A5BB
330
1AA0B
100
AcDbEntity
  8
YODOROGO
100
AcDbLine
 10
13988.80217064596
 20
946.2841744681487
 30
0.0
 11
14039.03460996689
 21
946.2841744681487
 31
0.0
  0
LINE
  5
1A5BC
330
1AA0B
100
AcDbEntity
  8
YODOROGO
100
AcDbLine
 10
13988.80217064596
 20
936.2841744681499
 30
0.0
 11
13988.80217064596
 21
946.2841744681487
 31
0.0
  0
LINE
  5
1A5BD
330
1AA0B
100
AcDbEntity
  8
YODOROGO
100
AcDbLine
 10
14010.91839030643
 20
936.2841744681499
 30
0.0
 11
13988.80217064596
 21
936.2841744681499
 31
0.0
  0
LINE
  5
1A5BE
330
1AA0B
100
AcDbEntity
  8
YODOROGO
100
AcDbLine
 10
14010.91839030643
 20
892.3366697971587
 30
0.0
 11
14010.91839030643
 21
936.2841744681499
 31
0.0
  0
LINE
  5
1A5BF
330
1AA0B
100
AcDbEntity
  8
YODOROGO
100
AcDbLine
 10
13988.80217064596
 20
885.8747482146432
 30
0.0
 11
14010.91839030643
 21
892.3366697971587
 31
0.0
  0
LINE
  5
1A5C0
330
1AA0B
100
AcDbEntity
  8
YODOROGO
100
AcDbLine
 10
13988.80217064596
 20
873.8747482146436
 30
0.0
 11
13988.80217064596
 21
885.8747482146432
 31
0.0
  0
LINE
  5
1A5C1
330
1AA0B
100
AcDbEntity
  8
YODOROGO
100
AcDbLine
 10
14000.80217064596
 20
853.8747482146439
 30
0.0
 11
14000.80217064596
 21
841.8747482146434
 31
0.0
  0
LINE
  5
1A5C2
330
1AA0B
100
AcDbEntity
  8
YODOROGO
100
AcDbLine
 10
14000.80217064596
 20
853.8747482146439
 30
0.0
 11
14000.80217064596
 21
853.8747482146439
 31
0.0
  0
LINE
  5
1A5C3
330
1AA0B
100
AcDbEntity
  8
YODOROGO
100
AcDbLine
 10
14008.80217064596
 20
853.8747482146439
 30
0.0
 11
14000.80217064596
 21
853.8747482146439
 31
0.0
  0
LINE
  5
1A5C4
330
1AA0B
100
AcDbEntity
  8
YODOROGO
100
AcDbLine
 10
14008.80217064596
 20
841.8747482146434
 30
0.0
 11
14008.80217064596
 21
853.8747482146439
 31
0.0
  0
LINE
  5
1A5C5
330
1AA0B
100
AcDbEntity
  8
YODOROGO
100
AcDbLine
 10
14020.45660200845
 20
841.8747482146434
 30
0.0
 11
14008.80217064596
 21
841.8747482146434
 31
0.0
  0
LINE
  5
1A5C6
330
1AA0B
100
AcDbEntity
  8
YODOROGO
100
AcDbLine
 10
14000.80217064596
 20
841.8747482146434
 30
0.0
 11
13988.80217064596
 21
841.8747482146434
 31
0.0
  0
LINE
  5
1A5C7
330
1AA0B
100
AcDbEntity
  8
YODOROGO
100
AcDbLine
 10
14041.06776011546
 20
853.8747482146439
 30
0.0
 11
14049.06776011545
 21
853.8747482146439
 31
0.0
1001
AUTOCAD_POSTSCRIPT_FIGURE
1002
{
1000
PSFILL
1000
Grayscale
1000
Grayscale
1070
   100
1002
}
  0
LINE
  5
1A5C8
330
1AA0B
100
AcDbEntity
  8
YODOROGO
100
AcDbLine
 10
14200.80217064595
 20
912.4388128201532
 30
0.0
 11
14200.80217064595
 21
876.4388128201531
 31
0.0
1001
AUTOCAD_POSTSCRIPT_FIGURE
1002
{
1000
PSFILL
1000
Grayscale
1000
Grayscale
1070
   100
1002
}
  0
LINE
  5
1A5C9
330
1AA0B
100
AcDbEntity
  8
YODOROGO
100
AcDbLine
 10
14200.80217064595
 20
958.4388128201537
 30
0.0
 11
14200.80217064595
 21
992.4388128201531
 31
0.0
1001
AUTOCAD_POSTSCRIPT_FIGURE
1002
{
1000
PSFILL
1000
Grayscale
1000
Grayscale
1070
   100
1002
}
  0
LINE
  5
1A5CA
330
1AA0B
100
AcDbEntity
  8
YODOROGO
100
AcDbLine
 10
14216.80217064595
 20
909.8747482146439
 30
0.0
 11
14216.80217064595
 21
873.8747482146449
 31
0.0
  0
LINE
  5
1A5CB
330
1AA0B
100
AcDbEntity
  8
YODOROGO
100
AcDbLine
 10
14248.80217064595
 20
853.8747482146439
 30
0.0
 11
14216.80217064595
 21
853.8747482146439
 31
0.0
  0
LINE
  5
1A5CC
330
1AA0B
100
AcDbEntity
  8
YODOROGO
100
AcDbLine
 10
14216.80217064595
 20
873.8747482146449
 30
0.0
 11
14292.80217064596
 21
873.8747482146449
 31
0.0
  0
LINE
  5
1A5CD
330
1AA0B
100
AcDbEntity
  8
YODOROGO
100
AcDbLine
 10
14248.80217064595
 20
933.8747482146439
 30
0.0
 11
14216.80217064595
 21
933.8747482146439
 31
0.0
  0
LINE
  5
1A5CE
330
1AA0B
100
AcDbEntity
  8
YODOROGO
100
AcDbLine
 10
14248.80217064595
 20
961.8747482146432
 30
0.0
 11
14248.80217064595
 21
933.8747482146439
 31
0.0
  0
LINE
  5
1A5CF
330
1AA0B
100
AcDbEntity
  8
YODOROGO
100
AcDbLine
 10
14292.80217064596
 20
993.8747482146439
 30
0.0
 11
14292.80217064596
 21
1013.874748214644
 31
0.0
  0
LINE
  5
1A5D0
330
1AA0B
100
AcDbEntity
  8
YODOROGO
100
AcDbLine
 10
14216.80217064595
 20
993.8747482146439
 30
0.0
 11
14292.80217064596
 21
993.8747482146439
 31
0.0
  0
LINE
  5
1A5D1
330
1AA0B
100
AcDbEntity
  8
YODOROGO
100
AcDbLine
 10
14216.80217064595
 20
933.8747482146439
 30
0.0
 11
14216.80217064595
 21
993.8747482146439
 31
0.0
  0
LINE
  5
1A5D2
330
1AA0B
100
AcDbEntity
  8
YODOROGO
100
AcDbLine
 10
14500.80217064595
 20
1013.874748214644
 30
0.0
 11
14500.80217064595
 21
809.8747482146441
 31
0.0
  0
LINE
  5
1A5D3
330
1AA0B
100
AcDbEntity
  8
YODOROGO
100
AcDbLine
 10
14536.80217064596
 20
789.8747482146441
 30
0.0
 11
14536.80217064596
 21
1013.874748214644
 31
0.0
  0
LINE
  5
1A5D4
330
1AA0B
100
AcDbEntity
  8
YODOROGO
100
AcDbLine
 10
14630.80217064596
 20
745.8747482146431
 30
0.0
 11
14630.80217064596
 21
1003.874748214644
 31
0.0
  0
LINE
  5
1A5D5
330
1AA0B
100
AcDbEntity
  8
YODOROGO
100
AcDbLine
 10
14598.80217064596
 20
1003.874748214644
 30
0.0
 11
14598.80217064596
 21
745.8747482146431
 31
0.0
  0
LINE
  5
1A5D6
330
1AA0B
100
AcDbEntity
  8
YODOROGO
100
AcDbLine
 10
14692.80217064596
 20
1013.874748214644
 30
0.0
 11
14692.80217064596
 21
713.8747482146436
 31
0.0
  0
LINE
  5
1A5D7
330
1AA0B
100
AcDbEntity
  8
YODOROGO
100
AcDbLine
 10
14728.80217064596
 20
713.8747482146436
 30
0.0
 11
14728.80217064596
 21
1013.874748214644
 31
0.0
  0
LINE
  5
1A5D8
330
1AA0B
100
AcDbEntity
  8
YODOROGO
100
AcDbLine
 10
14328.80217064595
 20
833.8747482146439
 30
0.0
 11
14328.80217064595
 21
873.8747482146449
 31
0.0
  0
LINE
  5
1A5D9
330
1AA0B
100
AcDbEntity
  8
YODOROGO
100
AcDbLine
 10
14942.80217064596
 20
853.8747482146439
 30
0.0
 11
14942.80217064596
 21
833.8747482146439
 31
0.0
  0
LINE
  5
1A5DA
330
1AA0B
100
AcDbEntity
  8
YODOROGO
100
AcDbLine
 10
14942.80217064596
 20
853.8747482146439
 30
0.0
 11
14942.80217064596
 21
833.8747482146439
 31
0.0
  0
ARC
  5
1A5DB
330
1AA0B
100
AcDbEntity
  8
YODOROGO
100
AcDbCircle
 10
14453.45578809341
 20
809.1089322211365
 30
0.0
 40
47.35257558937083
100
AcDbArc
 50
274.052441629071
 51
0.9266642149310712
  0
ARC
  5
1A5DC
330
1AA0B
100
AcDbEntity
  8
YODOROGO
100
AcDbCircle
 10
14454.59308535991
 20
796.30536430522
 30
0.0
 40
82.46021178042756
100
AcDbArc
 50
271.5351210653778
 51
355.5272775058505
  0
LINE
  5
1A5DD
330
1AA0B
100
AcDbEntity
  8
YODOROGO
100
AcDbLine
 10
14456.80217064596
 20
761.8747482146434
 30
0.0
 11
14456.80217064596
 21
713.8747482146436
 31
0.0
  0
LINE
  5
1A5DE
330
1AA0B
100
AcDbEntity
  8
YODOROGO
100
AcDbLine
 10
14396.80217064594
 20
833.8747482146439
 30
0.0
 11
14328.80217064595
 21
833.8747482146439
 31
0.0
  0
LINE
  5
1A5DF
330
1AA0B
100
AcDbEntity
  8
YODOROGO
100
AcDbLine
 10
14396.80217064594
 20
801.8747482146446
 30
0.0
 11
14396.80217064594
 21
833.8747482146439
 31
0.0
  0
LINE
  5
1A5E0
330
1AA0B
100
AcDbEntity
  8
YODOROGO
100
AcDbLine
 10
14328.80217064595
 20
801.8747482146446
 30
0.0
 11
14396.80217064594
 21
801.8747482146446
 31
0.0
  0
LINE
  5
1A5E1
330
1AA0B
100
AcDbEntity
  8
YODOROGO
100
AcDbLine
 10
14328.80217064595
 20
761.8747482146434
 30
0.0
 11
14328.80217064595
 21
801.8747482146446
 31
0.0
  0
LINE
  5
1A5E2
330
1AA0B
100
AcDbEntity
  8
YODOROGO
100
AcDbLine
 10
14396.80217064594
 20
761.8747482146434
 30
0.0
 11
14328.80217064595
 21
761.8747482146434
 31
0.0
  0
LINE
  5
1A5E3
330
1AA0B
100
AcDbEntity
  8
YODOROGO
100
AcDbLine
 10
14396.80217064594
 20
713.8747482146436
 30
0.0
 11
14396.80217064594
 21
761.8747482146434
 31
0.0
  0
LINE
  5
1A5E4
330
1AA0B
100
AcDbEntity
  8
YODOROGO
100
AcDbLine
 10
14598.80217064596
 20
745.8747482146431
 30
0.0
 11
14630.80217064596
 21
745.8747482146431
 31
0.0
  0
LINE
  5
1A5E5
330
1AA0B
100
AcDbEntity
  8
YODOROGO
100
AcDbLine
 10
14692.80217064596
 20
713.8747482146436
 30
0.0
 11
14728.80217064596
 21
713.8747482146436
 31
0.0
  0
LINE
  5
1A5E6
330
1AA0B
100
AcDbEntity
  8
YODOROGO
100
AcDbLine
 10
14868.80217064596
 20
764.2207260852821
 30
0.0
 11
14868.80217064596
 21
713.8747482146436
 31
0.0
  0
LINE
  5
1A5E7
330
1AA0B
100
AcDbEntity
  8
YODOROGO
100
AcDbLine
 10
14808.80217064596
 20
713.8747482146436
 30
0.0
 11
14868.80217064596
 21
764.2207260852821
 31
0.0
  0
LINE
  5
1A5E8
330
1AA0B
100
AcDbEntity
  8
YODOROGO
100
AcDbLine
 10
14808.80217064596
 20
773.8747482146439
 30
0.0
 11
14808.80217064596
 21
713.8747482146436
 31
0.0
  0
LINE
  5
1A5E9
330
1AA0B
100
AcDbEntity
  8
YODOROGO
100
AcDbLine
 10
14856.47231434973
 20
813.8747482146436
 30
0.0
 11
14808.80217064596
 21
773.8747482146439
 31
0.0
  0
LINE
  5
1A5EA
330
1AA0B
100
AcDbEntity
  8
YODOROGO
100
AcDbLine
 10
14808.80217064596
 20
813.8747482146436
 30
0.0
 11
14856.47231434973
 21
813.8747482146436
 31
0.0
  0
LINE
  5
1A5EB
330
1AA0B
100
AcDbEntity
  8
YODOROGO
100
AcDbLine
 10
14808.80217064596
 20
833.8747482146439
 30
0.0
 11
14808.80217064596
 21
813.8747482146436
 31
0.0
  0
LINE
  5
1A5EC
330
1AA0B
100
AcDbEntity
  8
YODOROGO
100
AcDbLine
 10
14942.80217064596
 20
833.8747482146439
 30
0.0
 11
14808.80217064596
 21
833.8747482146439
 31
0.0
  0
LINE
  5
1A5ED
330
1AA0B
100
AcDbEntity
  8
YODOROGO
100
AcDbLine
 10
14958.80217064596
 20
813.8747482146436
 30
0.0
 11
14888.80217064596
 21
813.8747482146436
 31
0.0
  0
LINE
  5
1A5EE
330
1AA0B
100
AcDbEntity
  8
YODOROGO
100
AcDbLine
 10
14888.80217064596
 20
781.0027187088283
 30
0.0
 11
14885.70493649264
 21
778.403830673117
 31
0.0
  0
LINE
  5
1A5EF
330
1AA0B
100
AcDbEntity
  8
YODOROGO
100
AcDbLine
 10
14888.80217064596
 20
813.8747482146436
 30
0.0
 11
14888.80217064596
 21
781.0027187088283
 31
0.0
  0
LINE
  5
1A5F0
330
1AA0B
100
AcDbEntity
  8
YODOROGO
100
AcDbLine
 10
14868.80217064596
 20
764.2207260852821
 30
0.0
 11
14868.80217064596
 21
713.8747482146436
 31
0.0
  0
LINE
  5
1A5F1
330
1AA0B
100
AcDbEntity
  8
YODOROGO
100
AcDbLine
 10
14808.80217064596
 20
713.8747482146436
 30
0.0
 11
14868.80217064596
 21
764.2207260852821
 31
0.0
  0
LINE
  5
1A5F2
330
1AA0B
100
AcDbEntity
  8
YODOROGO
100
AcDbLine
 10
14808.80217064596
 20
773.8747482146439
 30
0.0
 11
14808.80217064596
 21
713.8747482146436
 31
0.0
  0
LINE
  5
1A5F3
330
1AA0B
100
AcDbEntity
  8
YODOROGO
100
AcDbLine
 10
14856.47231434973
 20
813.8747482146436
 30
0.0
 11
14808.80217064596
 21
773.8747482146439
 31
0.0
  0
LINE
  5
1A5F4
330
1AA0B
100
AcDbEntity
  8
YODOROGO
100
AcDbLine
 10
14808.80217064596
 20
813.8747482146436
 30
0.0
 11
14856.47231434973
 21
813.8747482146436
 31
0.0
  0
LINE
  5
1A5F5
330
1AA0B
100
AcDbEntity
  8
YODOROGO
100
AcDbLine
 10
14808.80217064596
 20
833.8747482146439
 30
0.0
 11
14808.80217064596
 21
813.8747482146436
 31
0.0
  0
LINE
  5
1A5F6
330
1AA0B
100
AcDbEntity
  8
YODOROGO
100
AcDbLine
 10
14942.80217064596
 20
833.8747482146439
 30
0.0
 11
14808.80217064596
 21
833.8747482146439
 31
0.0
  0
LINE
  5
1A5F7
330
1AA0B
100
AcDbEntity
  8
YODOROGO
100
AcDbLine
 10
14396.80217064594
 20
873.8747482146449
 30
0.0
 11
14396.80217064594
 21
909.8747482146439
 31
0.0
  0
LINE
  5
1A5F8
330
1AA0B
100
AcDbEntity
  8
YODOROGO
100
AcDbLine
 10
14328.80217064595
 20
873.8747482146449
 30
0.0
 11
14396.80217064594
 21
873.8747482146449
 31
0.0
  0
LINE
  5
1A5F9
330
1AA0B
100
AcDbEntity
  8
YODOROGO
100
AcDbLine
 10
14364.80217064596
 20
933.8747482146439
 30
0.0
 11
14364.80217064596
 21
961.8747482146432
 31
0.0
  0
LINE
  5
1A5FA
330
1AA0B
100
AcDbEntity
  8
YODOROGO
100
AcDbLine
 10
14396.80217064594
 20
933.8747482146439
 30
0.0
 11
14364.80217064596
 21
933.8747482146439
 31
0.0
  0
LINE
  5
1A5FB
330
1AA0B
100
AcDbEntity
  8
YODOROGO
100
AcDbLine
 10
14396.80217064594
 20
973.8747482146436
 30
0.0
 11
14396.80217064594
 21
933.8747482146439
 31
0.0
  0
ARC
  5
1A5FC
330
1AA0B
100
AcDbEntity
  8
YODOROGO
100
AcDbCircle
 10
14376.80217064595
 20
973.8747482146436
 30
0.0
 40
20.0
100
AcDbArc
 50
0.0
 51
90.0
  0
LINE
  5
1A5FD
330
1AA0B
100
AcDbEntity
  8
YODOROGO
100
AcDbLine
 10
14328.80217064596
 20
993.8747482146439
 30
0.0
 11
14376.80217064595
 21
993.8747482146439
 31
0.0
  0
LINE
  5
1A5FE
330
1AA0B
100
AcDbEntity
  8
YODOROGO
100
AcDbLine
 10
14328.80217064596
 20
1013.874748214644
 30
0.0
 11
14328.80217064596
 21
993.8747482146439
 31
0.0
  0
LINE
  5
1A5FF
330
1AA0B
100
AcDbEntity
  8
YODOROGO
100
AcDbLine
 10
14536.80217064596
 20
1013.874748214644
 30
0.0
 11
14500.80217064595
 21
1013.874748214644
 31
0.0
  0
LINE
  5
1A600
330
1AA0B
100
AcDbEntity
  8
YODOROGO
100
AcDbLine
 10
14630.80217064596
 20
1003.874748214644
 30
0.0
 11
14598.80217064596
 21
1003.874748214644
 31
0.0
  0
LINE
  5
1A601
330
1AA0B
100
AcDbEntity
  8
YODOROGO
100
AcDbLine
 10
14728.80217064596
 20
1013.874748214644
 30
0.0
 11
14692.80217064596
 21
1013.874748214644
 31
0.0
  0
LINE
  5
1A602
330
1AA0B
100
AcDbEntity
  8
YODOROGO
100
AcDbLine
 10
14836.80217064596
 20
853.8747482146439
 30
0.0
 11
14836.80217064596
 21
885.8747482146442
 31
0.0
1001
AUTOCAD_POSTSCRIPT_FIGURE
1002
{
1000
PSFILL
1000
Grayscale
1000
Grayscale
1070
    25
1002
}
  0
LINE
  5
1A603
330
1AA0B
100
AcDbEntity
  8
YODOROGO
100
AcDbLine
 10
14808.80217064596
 20
853.8747482146439
 30
0.0
 11
14836.80217064596
 21
853.8747482146439
 31
0.0
1001
AUTOCAD_POSTSCRIPT_FIGURE
1002
{
1000
PSFILL
1000
Grayscale
1000
Grayscale
1070
    25
1002
}
  0
LINE
  5
1A604
330
1AA0B
100
AcDbEntity
  8
YODOROGO
100
AcDbLine
 10
14808.80217064596
 20
909.8747482146439
 30
0.0
 11
14808.80217064596
 21
853.8747482146439
 31
0.0
1001
AUTOCAD_POSTSCRIPT_FIGURE
1002
{
1000
PSFILL
1000
Grayscale
1000
Grayscale
1070
    25
1002
}
  0
LINE
  5
1A605
330
1AA0B
100
AcDbEntity
  8
YODOROGO
100
AcDbLine
 10
14882.80217064596
 20
909.8747482146439
 30
0.0
 11
14808.80217064596
 21
909.8747482146439
 31
0.0
1001
AUTOCAD_POSTSCRIPT_FIGURE
1002
{
1000
PSFILL
1000
Grayscale
1000
Grayscale
1070
    25
1002
}
  0
LINE
  5
1A606
330
1AA0B
100
AcDbEntity
  8
YODOROGO
100
AcDbLine
 10
14882.80217064596
 20
929.874748214644
 30
0.0
 11
14882.80217064596
 21
909.8747482146439
 31
0.0
1001
AUTOCAD_POSTSCRIPT_FIGURE
1002
{
1000
PSFILL
1000
Grayscale
1000
Grayscale
1070
    25
1002
}
  0
LINE
  5
1A607
330
1AA0B
100
AcDbEntity
  8
YODOROGO
100
AcDbLine
 10
14808.80217064596
 20
929.874748214644
 30
0.0
 11
14882.80217064596
 21
929.874748214644
 31
0.0
1001
AUTOCAD_POSTSCRIPT_FIGURE
1002
{
1000
PSFILL
1000
Grayscale
1000
Grayscale
1070
    25
1002
}
  0
LINE
  5
1A608
330
1AA0B
100
AcDbEntity
  8
YODOROGO
100
AcDbLine
 10
14808.80217064596
 20
953.874748214644
 30
0.0
 11
14808.80217064596
 21
929.874748214644
 31
0.0
1001
AUTOCAD_POSTSCRIPT_FIGURE
1002
{
1000
PSFILL
1000
Grayscale
1000
Grayscale
1070
    25
1002
}
  0
LINE
  5
1A609
330
1AA0B
100
AcDbEntity
  8
YODOROGO
100
AcDbLine
 10
14882.80217064596
 20
953.874748214644
 30
0.0
 11
14808.80217064596
 21
953.874748214644
 31
0.0
1001
AUTOCAD_POSTSCRIPT_FIGURE
1002
{
1000
PSFILL
1000
Grayscale
1000
Grayscale
1070
    25
1002
}
  0
LINE
  5
1A60A
330
1AA0B
100
AcDbEntity
  8
YODOROGO
100
AcDbLine
 10
14882.80217064596
 20
973.8747482146436
 30
0.0
 11
14882.80217064596
 21
953.874748214644
 31
0.0
1001
AUTOCAD_POSTSCRIPT_FIGURE
1002
{
1000
PSFILL
1000
Grayscale
1000
Grayscale
1070
    25
1002
}
  0
LINE
  5
1A60B
330
1AA0B
100
AcDbEntity
  8
YODOROGO
100
AcDbLine
 10
14808.80217064596
 20
973.8747482146436
 30
0.0
 11
14882.80217064596
 21
973.8747482146436
 31
0.0
1001
AUTOCAD_POSTSCRIPT_FIGURE
1002
{
1000
PSFILL
1000
Grayscale
1000
Grayscale
1070
    25
1002
}
  0
LINE
  5
1A60C
330
1AA0B
100
AcDbEntity
  8
YODOROGO
100
AcDbLine
 10
14808.80217064596
 20
1013.874748214644
 30
0.0
 11
14808.80217064596
 21
973.8747482146436
 31
0.0
1001
AUTOCAD_POSTSCRIPT_FIGURE
1002
{
1000
PSFILL
1000
Grayscale
1000
Grayscale
1070
    25
1002
}
  0
LINE
  5
1A60D
330
1AA0B
100
AcDbEntity
  8
YODOROGO
100
AcDbLine
 10
14832.80217064596
 20
1013.874748214644
 30
0.0
 11
14808.80217064596
 21
1013.874748214644
 31
0.0
1001
AUTOCAD_POSTSCRIPT_FIGURE
1002
{
1000
PSFILL
1000
Grayscale
1000
Grayscale
1070
    25
1002
}
  0
LINE
  5
1A60E
330
1AA0B
100
AcDbEntity
  8
YODOROGO
100
AcDbLine
 10
14832.80217064596
 20
997.8747482146435
 30
0.0
 11
14832.80217064596
 21
1013.874748214644
 31
0.0
1001
AUTOCAD_POSTSCRIPT_FIGURE
1002
{
1000
PSFILL
1000
Grayscale
1000
Grayscale
1070
    25
1002
}
  0
LINE
  5
1A60F
330
1AA0B
100
AcDbEntity
  8
YODOROGO
100
AcDbLine
 10
14882.80217064596
 20
997.8747482146435
 30
0.0
 11
14832.80217064596
 21
997.8747482146435
 31
0.0
1001
AUTOCAD_POSTSCRIPT_FIGURE
1002
{
1000
PSFILL
1000
Grayscale
1000
Grayscale
1070
    25
1002
}
  0
LINE
  5
1A610
330
1AA0B
100
AcDbEntity
  8
YODOROGO
100
AcDbLine
 10
14882.80217064596
 20
1013.874748214644
 30
0.0
 11
14882.80217064596
 21
997.8747482146435
 31
0.0
1001
AUTOCAD_POSTSCRIPT_FIGURE
1002
{
1000
PSFILL
1000
Grayscale
1000
Grayscale
1070
    25
1002
}
  0
LINE
  5
1A611
330
1AA0B
100
AcDbEntity
  8
YODOROGO
100
AcDbLine
 10
14914.80217064596
 20
1013.874748214644
 30
0.0
 11
14882.80217064596
 21
1013.874748214644
 31
0.0
1001
AUTOCAD_POSTSCRIPT_FIGURE
1002
{
1000
PSFILL
1000
Grayscale
1000
Grayscale
1070
    25
1002
}
  0
LINE
  5
1A612
330
1AA0B
100
AcDbEntity
  8
YODOROGO
100
AcDbLine
 10
14914.80217064596
 20
997.8747482146435
 30
0.0
 11
14914.80217064596
 21
1013.874748214644
 31
0.0
1001
AUTOCAD_POSTSCRIPT_FIGURE
1002
{
1000
PSFILL
1000
Grayscale
1000
Grayscale
1070
    25
1002
}
  0
LINE
  5
1A613
330
1AA0B
100
AcDbEntity
  8
YODOROGO
100
AcDbLine
 10
14914.80217064596
 20
953.874748214644
 30
0.0
 11
14914.80217064596
 21
973.8747482146436
 31
0.0
1001
AUTOCAD_POSTSCRIPT_FIGURE
1002
{
1000
PSFILL
1000
Grayscale
1000
Grayscale
1070
    25
1002
}
  0
LINE
  5
1A614
330
1AA0B
100
AcDbEntity
  8
YODOROGO
100
AcDbLine
 10
14914.80217064596
 20
909.8747482146439
 30
0.0
 11
14914.80217064596
 21
929.874748214644
 31
0.0
1001
AUTOCAD_POSTSCRIPT_FIGURE
1002
{
1000
PSFILL
1000
Grayscale
1000
Grayscale
1070
    25
1002
}
  0
LINE
  5
1A615
330
1AA0B
100
AcDbEntity
  8
YODOROGO
100
AcDbLine
 10
14960.80217064594
 20
885.8747482146442
 30
0.0
 11
14960.80217064594
 21
853.8747482146439
 31
0.0
1001
AUTOCAD_POSTSCRIPT_FIGURE
1002
{
1000
PSFILL
1000
Grayscale
1000
Grayscale
1070
    25
1002
}
  0
LINE
  5
1A616
330
1AA0B
100
AcDbEntity
  8
YODOROGO
100
AcDbLine
 10
14914.80217064596
 20
885.8747482146442
 30
0.0
 11
14960.80217064594
 21
885.8747482146442
 31
0.0
1001
AUTOCAD_POSTSCRIPT_FIGURE
1002
{
1000
PSFILL
1000
Grayscale
1000
Grayscale
1070
    25
1002
}
  0
LINE
  5
1A617
330
1AA0B
100
AcDbEntity
  8
YODOROGO
100
AcDbLine
 10
14914.80217064596
 20
853.8747482146439
 30
0.0
 11
14914.80217064596
 21
885.8747482146442
 31
0.0
1001
AUTOCAD_POSTSCRIPT_FIGURE
1002
{
1000
PSFILL
1000
Grayscale
1000
Grayscale
1070
    25
1002
}
  0
LINE
  5
1A618
330
1AA0B
100
AcDbEntity
  8
YODOROGO
100
AcDbLine
 10
14882.80217064596
 20
853.8747482146439
 30
0.0
 11
14914.80217064596
 21
853.8747482146439
 31
0.0
1001
AUTOCAD_POSTSCRIPT_FIGURE
1002
{
1000
PSFILL
1000
Grayscale
1000
Grayscale
1070
    25
1002
}
  0
LINE
  5
1A619
330
1AA0B
100
AcDbEntity
  8
YODOROGO
100
AcDbLine
 10
14882.80217064596
 20
885.8747482146442
 30
0.0
 11
14882.80217064596
 21
853.8747482146439
 31
0.0
1001
AUTOCAD_POSTSCRIPT_FIGURE
1002
{
1000
PSFILL
1000
Grayscale
1000
Grayscale
1070
    25
1002
}
  0
LINE
  5
1A61A
330
1AA0B
100
AcDbEntity
  8
YODOROGO
100
AcDbLine
 10
14836.80217064596
 20
885.8747482146442
 30
0.0
 11
14882.80217064596
 21
885.8747482146442
 31
0.0
1001
AUTOCAD_POSTSCRIPT_FIGURE
1002
{
1000
PSFILL
1000
Grayscale
1000
Grayscale
1070
    25
1002
}
  0
ARC
  5
1A61B
330
1AA0B
100
AcDbEntity
  8
YODOROGO
100
AcDbCircle
 10
15529.75894667896
 20
801.3403687577882
 30
0.0
 40
89.11064055536078
100
AcDbArc
 50
281.0262749542535
 51
357.771135755738
  0
LINE
  5
1A61C
330
1AA0B
100
AcDbEntity
  8
YODOROGO
100
AcDbLine
 10
15706.80217064596
 20
953.874748214644
 30
0.0
 11
15582.80217064596
 21
953.874748214644
 31
0.0
  0
LINE
  5
1A61D
330
1AA0B
100
AcDbEntity
  8
YODOROGO
100
AcDbLine
 10
15706.80217064596
 20
1013.874748214644
 30
0.0
 11
15582.80217064596
 21
1013.874748214644
 31
0.0
  0
LINE
  5
1A61E
330
1AA0B
100
AcDbEntity
  8
YODOROGO
100
AcDbLine
 10
15582.80217064596
 20
981.8747482146434
 30
0.0
 11
15706.80217064596
 21
981.8747482146434
 31
0.0
  0
LINE
  5
1A61F
330
1AA0B
100
AcDbEntity
  8
YODOROGO
100
AcDbLine
 10
15395.80217064596
 20
781.8747482146434
 30
0.0
 11
15395.80217064596
 21
877.8747482146437
 31
0.0
  0
LINE
  5
1A620
330
1AA0B
100
AcDbEntity
  8
YODOROGO
100
AcDbLine
 10
15381.80217064596
 20
845.8747482146444
 30
0.0
 11
15381.80217064596
 21
781.8747482146434
 31
0.0
  0
LINE
  5
1A621
330
1AA0B
100
AcDbEntity
  8
YODOROGO
100
AcDbLine
 10
15361.80217064596
 20
745.8747482146443
 30
0.0
 11
15361.80217064596
 21
845.8747482146444
 31
0.0
  0
LINE
  5
1A622
330
1AA0B
100
AcDbEntity
  8
YODOROGO
100
AcDbLine
 10
15449.80217064596
 20
845.8747482146444
 30
0.0
 11
15449.80217064596
 21
745.8747482146443
 31
0.0
  0
LINE
  5
1A623
330
1AA0B
100
AcDbEntity
  8
YODOROGO
100
AcDbLine
 10
15429.80217064596
 20
781.8747482146434
 30
0.0
 11
15429.80217064596
 21
845.8747482146444
 31
0.0
  0
LINE
  5
1A624
330
1AA0B
100
AcDbEntity
  8
YODOROGO
100
AcDbLine
 10
15415.80217064596
 20
877.8747482146437
 30
0.0
 11
15415.80217064596
 21
781.8747482146434
 31
0.0
  0
LINE
  5
1A625
330
1AA0B
100
AcDbEntity
  8
YODOROGO
100
AcDbLine
 10
15486.80217064596
 20
1013.874748214644
 30
0.0
 11
15486.80217064596
 21
733.8747482146437
 31
0.0
  0
LINE
  5
1A626
330
1AA0B
100
AcDbEntity
  8
YODOROGO
100
AcDbLine
 10
15322.80217064596
 20
713.8747482146436
 30
0.0
 11
15322.80217064596
 21
1013.874748214644
 31
0.0
  0
LINE
  5
1A627
330
1AA0B
100
AcDbEntity
  8
YODOROGO
100
AcDbLine
 10
15348.80217064596
 20
981.8747482146434
 30
0.0
 11
15348.80217064596
 21
713.8747482146436
 31
0.0
  0
LINE
  5
1A628
330
1AA0B
100
AcDbEntity
  8
YODOROGO
100
AcDbLine
 10
15462.80217064596
 20
773.8747482146439
 30
0.0
 11
15462.80217064596
 21
981.8747482146434
 31
0.0
  0
LINE
  5
1A629
330
1AA0B
100
AcDbEntity
  8
YODOROGO
100
AcDbLine
 10
15190.80217064596
 20
813.8747482146436
 30
0.0
 11
15190.80217064596
 21
839.8747482146443
 31
0.0
  0
LINE
  5
1A62A
330
1AA0B
100
AcDbEntity
  8
YODOROGO
100
AcDbLine
 10
15308.80217064596
 20
839.8747482146443
 30
0.0
 11
15308.80217064596
 21
813.8747482146436
 31
0.0
  0
LINE
  5
1A62B
330
1AA0B
100
AcDbEntity
  8
YODOROGO
100
AcDbLine
 10
15582.80217064596
 20
953.874748214644
 30
0.0
 11
15582.80217064596
 21
817.8747482146436
 31
0.0
  0
LINE
  5
1A62C
330
1AA0B
100
AcDbEntity
  8
YODOROGO
100
AcDbLine
 10
14974.80217064595
 20
833.8747482146439
 30
0.0
 11
14974.80217064595
 21
853.8747482146439
 31
0.0
  0
LINE
  5
1A62D
330
1AA0B
100
AcDbEntity
  8
YODOROGO
100
AcDbLine
 10
14974.80217064595
 20
833.8747482146439
 30
0.0
 11
14974.80217064595
 21
853.8747482146439
 31
0.0
  0
ARC
  5
1A62E
330
1AA0B
100
AcDbEntity
  8
YODOROGO
100
AcDbCircle
 10
15268.80217064596
 20
753.8747482146439
 30
0.0
 40
40.0
100
AcDbArc
 50
270.0
 51
0.0
  0
LINE
  5
1A62F
330
1AA0B
100
AcDbEntity
  8
YODOROGO
100
AcDbLine
 10
15284.80217064596
 20
799.8747482146441
 30
0.0
 11
15308.80217064596
 21
799.8747482146441
 31
0.0
  0
LINE
  5
1A630
330
1AA0B
100
AcDbEntity
  8
YODOROGO
100
AcDbLine
 10
15308.80217064596
 20
813.8747482146436
 30
0.0
 11
15264.80217064596
 21
813.8747482146436
 31
0.0
  0
LINE
  5
1A631
330
1AA0B
100
AcDbEntity
  8
YODOROGO
100
AcDbLine
 10
15108.80217064596
 20
833.8747482146439
 30
0.0
 11
14974.80217064595
 21
833.8747482146439
 31
0.0
  0
LINE
  5
1A632
330
1AA0B
100
AcDbEntity
  8
YODOROGO
100
AcDbLine
 10
15108.80217064596
 20
813.8747482146436
 30
0.0
 11
15108.80217064596
 21
833.8747482146439
 31
0.0
  0
LINE
  5
1A633
330
1AA0B
100
AcDbEntity
  8
YODOROGO
100
AcDbLine
 10
15008.80217064596
 20
813.8747482146436
 30
0.0
 11
15108.80217064596
 21
813.8747482146436
 31
0.0
  0
ARC
  5
1A634
330
1AA0B
100
AcDbEntity
  8
YODOROGO
100
AcDbCircle
 10
15115.02941435068
 20
934.4428574764513
 30
0.0
 40
160.6888181426141
100
AcDbArc
 50
228.6181454618993
 51
245.660289248906
  0
LINE
  5
1A635
330
1AA0B
100
AcDbEntity
  8
YODOROGO
100
AcDbLine
 10
15052.80217064596
 20
801.8747482146446
 30
0.0
 11
15048.80217064598
 21
788.0364079349501
 31
0.0
  0
LINE
  5
1A636
330
1AA0B
100
AcDbEntity
  8
YODOROGO
100
AcDbLine
 10
15094.80217064596
 20
801.8747482146446
 30
0.0
 11
15052.80217064596
 21
801.8747482146446
 31
0.0
  0
LINE
  5
1A637
330
1AA0B
100
AcDbEntity
  8
YODOROGO
100
AcDbLine
 10
15088.80217064596
 20
775.9088612367134
 30
0.0
 11
15094.80217064596
 21
801.8747482146446
 31
0.0
  0
ARC
  5
1A638
330
1AA0B
100
AcDbEntity
  8
YODOROGO
100
AcDbCircle
 10
15115.02941435023
 20
934.4428574765013
 30
0.0
 40
160.6888181426453
100
AcDbArc
 50
260.6062929796993
 51
267.7790355655585
  0
LINE
  5
1A639
330
1AA0B
100
AcDbEntity
  8
YODOROGO
100
AcDbLine
 10
15108.80217064596
 20
713.8747482146428
 30
0.0
 11
15108.80217064596
 21
773.8747482146439
 31
0.0
  0
LINE
  5
1A63A
330
1AA0B
100
AcDbEntity
  8
YODOROGO
100
AcDbLine
 10
14968.80217064596
 20
740.6696674577553
 30
0.0
 11
14968.80217064596
 21
797.2655452655707
 31
0.0
  0
LINE
  5
1A63B
330
1AA0B
100
AcDbEntity
  8
YODOROGO
100
AcDbLine
 10
15108.80217064596
 20
833.8747482146439
 30
0.0
 11
14974.80217064595
 21
833.8747482146439
 31
0.0
  0
LINE
  5
1A63C
330
1AA0B
100
AcDbEntity
  8
YODOROGO
100
AcDbLine
 10
15108.80217064596
 20
813.8747482146436
 30
0.0
 11
15108.80217064596
 21
833.8747482146439
 31
0.0
  0
LINE
  5
1A63D
330
1AA0B
100
AcDbEntity
  8
YODOROGO
100
AcDbLine
 10
15008.80217064596
 20
813.8747482146436
 30
0.0
 11
15108.80217064596
 21
813.8747482146436
 31
0.0
  0
ARC
  5
1A63E
330
1AA0B
100
AcDbEntity
  8
YODOROGO
100
AcDbCircle
 10
15115.02941435068
 20
934.4428574764513
 30
0.0
 40
160.6888181426141
100
AcDbArc
 50
228.6181454618993
 51
245.660289248906
  0
LINE
  5
1A63F
330
1AA0B
100
AcDbEntity
  8
YODOROGO
100
AcDbLine
 10
15052.80217064596
 20
801.8747482146446
 30
0.0
 11
15048.80217064598
 21
788.0364079349501
 31
0.0
  0
LINE
  5
1A640
330
1AA0B
100
AcDbEntity
  8
YODOROGO
100
AcDbLine
 10
15094.80217064596
 20
801.8747482146446
 30
0.0
 11
15052.80217064596
 21
801.8747482146446
 31
0.0
  0
LINE
  5
1A641
330
1AA0B
100
AcDbEntity
  8
YODOROGO
100
AcDbLine
 10
15088.80217064596
 20
775.9088612367134
 30
0.0
 11
15094.80217064596
 21
801.8747482146446
 31
0.0
  0
ARC
  5
1A642
330
1AA0B
100
AcDbEntity
  8
YODOROGO
100
AcDbCircle
 10
15115.02941435023
 20
934.4428574765013
 30
0.0
 40
160.6888181426453
100
AcDbArc
 50
260.6062929796993
 51
267.7790355655585
  0
LINE
  5
1A643
330
1AA0B
100
AcDbEntity
  8
YODOROGO
100
AcDbLine
 10
15108.80217064596
 20
713.8747482146428
 30
0.0
 11
15108.80217064596
 21
773.8747482146439
 31
0.0
  0
LINE
  5
1A644
330
1AA0B
100
AcDbEntity
  8
YODOROGO
100
AcDbLine
 10
14968.80217064596
 20
740.6696674577553
 30
0.0
 11
14968.80217064596
 21
797.2655452655707
 31
0.0
  0
LINE
  5
1A645
330
1AA0B
100
AcDbEntity
  8
YODOROGO
100
AcDbLine
 10
15216.80217064596
 20
786.8747482146446
 30
0.0
 11
15190.80217064596
 21
786.8747482146446
 31
0.0
  0
LINE
  5
1A646
330
1AA0B
100
AcDbEntity
  8
YODOROGO
100
AcDbLine
 10
15216.80217064596
 20
800.8747482146432
 30
0.0
 11
15216.80217064596
 21
786.8747482146446
 31
0.0
  0
LINE
  5
1A647
330
1AA0B
100
AcDbEntity
  8
YODOROGO
100
AcDbLine
 10
15190.80217064596
 20
800.8747482146432
 30
0.0
 11
15216.80217064596
 21
800.8747482146432
 31
0.0
  0
LINE
  5
1A648
330
1AA0B
100
AcDbEntity
  8
YODOROGO
100
AcDbLine
 10
15190.80217064596
 20
786.8747482146446
 30
0.0
 11
15190.80217064596
 21
800.8747482146432
 31
0.0
  0
LINE
  5
1A649
330
1AA0B
100
AcDbEntity
  8
YODOROGO
100
AcDbLine
 10
15214.80217064596
 20
788.8747482146436
 30
0.0
 11
15192.80217064595
 21
788.8747482146436
 31
0.0
  0
LINE
  5
1A64A
330
1AA0B
100
AcDbEntity
  8
YODOROGO
100
AcDbLine
 10
15214.80217064596
 20
798.8747482146439
 30
0.0
 11
15214.80217064596
 21
788.8747482146436
 31
0.0
  0
LINE
  5
1A64B
330
1AA0B
100
AcDbEntity
  8
YODOROGO
100
AcDbLine
 10
15192.80217064595
 20
798.8747482146439
 30
0.0
 11
15214.80217064596
 21
798.8747482146439
 31
0.0
  0
LINE
  5
1A64C
330
1AA0B
100
AcDbEntity
  8
YODOROGO
100
AcDbLine
 10
15192.80217064595
 20
788.8747482146436
 30
0.0
 11
15192.80217064595
 21
798.8747482146439
 31
0.0
  0
LINE
  5
1A64D
330
1AA0B
100
AcDbEntity
  8
YODOROGO
100
AcDbLine
 10
15212.80217064596
 20
790.8747482146432
 30
0.0
 11
15194.80217064596
 21
790.8747482146432
 31
0.0
  0
LINE
  5
1A64E
330
1AA0B
100
AcDbEntity
  8
YODOROGO
100
AcDbLine
 10
15212.80217064596
 20
796.8747482146445
 30
0.0
 11
15212.80217064596
 21
790.8747482146432
 31
0.0
  0
LINE
  5
1A64F
330
1AA0B
100
AcDbEntity
  8
YODOROGO
100
AcDbLine
 10
15194.80217064596
 20
796.8747482146445
 30
0.0
 11
15212.80217064596
 21
796.8747482146445
 31
0.0
  0
LINE
  5
1A650
330
1AA0B
100
AcDbEntity
  8
YODOROGO
100
AcDbLine
 10
15194.80217064596
 20
790.8747482146432
 30
0.0
 11
15194.80217064596
 21
796.8747482146445
 31
0.0
  0
LINE
  5
1A651
330
1AA0B
100
AcDbEntity
  8
YODOROGO
100
AcDbLine
 10
15210.80217064596
 20
792.8747482146435
 30
0.0
 11
15196.80217064596
 21
792.8747482146435
 31
0.0
  0
LINE
  5
1A652
330
1AA0B
100
AcDbEntity
  8
YODOROGO
100
AcDbLine
 10
15210.80217064596
 20
794.8747482146441
 30
0.0
 11
15210.80217064596
 21
792.8747482146435
 31
0.0
  0
LINE
  5
1A653
330
1AA0B
100
AcDbEntity
  8
YODOROGO
100
AcDbLine
 10
15196.80217064596
 20
794.8747482146441
 30
0.0
 11
15210.80217064596
 21
794.8747482146441
 31
0.0
  0
LINE
  5
1A654
330
1AA0B
100
AcDbEntity
  8
YODOROGO
100
AcDbLine
 10
15196.80217064596
 20
792.8747482146435
 30
0.0
 11
15196.80217064596
 21
794.8747482146441
 31
0.0
  0
LINE
  5
1A655
330
1AA0B
100
AcDbEntity
  8
YODOROGO
100
AcDbLine
 10
15232.80217064596
 20
813.8747482146436
 30
0.0
 11
15190.80217064596
 21
813.8747482146436
 31
0.0
  0
LINE
  5
1A656
330
1AA0B
100
AcDbEntity
  8
YODOROGO
100
AcDbLine
 10
15232.80217064596
 20
773.8747482146439
 30
0.0
 11
15232.80217064596
 21
813.8747482146436
 31
0.0
  0
LINE
  5
1A657
330
1AA0B
100
AcDbEntity
  8
YODOROGO
100
AcDbLine
 10
15190.80217064596
 20
773.8747482146439
 30
0.0
 11
15232.80217064596
 21
773.8747482146439
 31
0.0
  0
LINE
  5
1A658
330
1AA0B
100
AcDbEntity
  8
YODOROGO
100
AcDbLine
 10
15190.80217064596
 20
713.8747482146436
 30
0.0
 11
15190.80217064596
 21
773.8747482146439
 31
0.0
  0
LINE
  5
1A659
330
1AA0B
100
AcDbEntity
  8
YODOROGO
100
AcDbLine
 10
15268.80217064596
 20
713.8747482146436
 30
0.0
 11
15190.80217064596
 21
713.8747482146436
 31
0.0
  0
LINE
  5
1A65A
330
1AA0B
100
AcDbEntity
  8
YODOROGO
100
AcDbLine
 10
15284.80217064596
 20
785.8747482146432
 30
0.0
 11
15284.80217064596
 21
799.8747482146441
 31
0.0
  0
ARC
  5
1A65B
330
1AA0B
100
AcDbEntity
  8
YODOROGO
100
AcDbCircle
 10
15272.80217064594
 20
785.8747482146457
 30
0.0
 40
12.00000000000186
100
AcDbArc
 50
270.0
 51
359.9999999999877
  0
LINE
  5
1A65C
330
1AA0B
100
AcDbEntity
  8
YODOROGO
100
AcDbLine
 10
15264.80217064596
 20
773.8747482146439
 30
0.0
 11
15272.80217064594
 21
773.8747482146439
 31
0.0
  0
LINE
  5
1A65D
330
1AA0B
100
AcDbEntity
  8
YODOROGO
100
AcDbLine
 10
15264.80217064596
 20
813.8747482146436
 30
0.0
 11
15264.80217064596
 21
773.8747482146439
 31
0.0
  0
LINE
  5
1A65E
330
1AA0B
100
AcDbEntity
  8
YODOROGO
100
AcDbLine
 10
15449.80217064597
 20
773.8747482146439
 30
0.0
 11
15462.80217064596
 21
773.8747482146439
 31
0.0
  0
LINE
  5
1A65F
330
1AA0B
100
AcDbEntity
  8
YODOROGO
100
AcDbLine
 10
15466.80217064596
 20
713.8747482146436
 30
0.0
 11
15449.80217064596
 21
713.8747482146436
 31
0.0
  0
LINE
  5
1A660
330
1AA0B
100
AcDbEntity
  8
YODOROGO
100
AcDbLine
 10
15381.80217064596
 20
781.8747482146434
 30
0.0
 11
15395.80217064596
 21
781.8747482146434
 31
0.0
  0
LINE
  5
1A661
330
1AA0B
100
AcDbEntity
  8
YODOROGO
100
AcDbLine
 10
15449.80217064596
 20
745.8747482146443
 30
0.0
 11
15361.80217064596
 21
745.8747482146443
 31
0.0
  0
LINE
  5
1A662
330
1AA0B
100
AcDbEntity
  8
YODOROGO
100
AcDbLine
 10
15415.80217064596
 20
781.8747482146434
 30
0.0
 11
15429.80217064596
 21
781.8747482146434
 31
0.0
  0
LINE
  5
1A663
330
1AA0B
100
AcDbEntity
  8
YODOROGO
100
AcDbLine
 10
15449.80217064596
 20
713.8747482146436
 30
0.0
 11
15449.80217064597
 21
773.8747482146439
 31
0.0
  0
LINE
  5
1A664
330
1AA0B
100
AcDbEntity
  8
YODOROGO
100
AcDbLine
 10
15348.80217064596
 20
713.8747482146436
 30
0.0
 11
15322.80217064596
 21
713.8747482146436
 31
0.0
  0
LINE
  5
1A665
330
1AA0B
100
AcDbEntity
  8
YODOROGO
100
AcDbLine
 10
15308.80217064596
 20
799.8747482146441
 30
0.0
 11
15308.80217064596
 21
753.8747482146439
 31
0.0
  0
ARC
  5
1A666
330
1AA0B
100
AcDbEntity
  8
YODOROGO
100
AcDbCircle
 10
15466.80217064596
 20
733.8747482146437
 30
0.0
 40
20.0
100
AcDbArc
 50
270.0
 51
0.0
  0
LINE
  5
1A667
330
1AA0B
100
AcDbEntity
  8
YODOROGO
100
AcDbLine
 10
15546.80217064596
 20
761.8747482146434
 30
0.0
 11
15546.80217064596
 21
713.8747482146436
 31
0.0
  0
ARC
  5
1A668
330
1AA0B
100
AcDbEntity
  8
YODOROGO
100
AcDbCircle
 10
15519.86069778339
 20
818.7656950548667
 30
0.0
 40
62.94777829583771
100
AcDbArc
 50
295.3405244216011
 51
359.1890230341867
  0
LINE
  5
1A669
330
1AA0B
100
AcDbEntity
  8
YODOROGO
100
AcDbLine
 10
15308.80217064596
 20
929.874748214644
 30
0.0
 11
15248.80217064596
 21
969.8747482146441
 31
0.0
  0
LINE
  5
1A66A
330
1AA0B
100
AcDbEntity
  8
YODOROGO
100
AcDbLine
 10
15248.80217064596
 20
1013.874748214644
 30
0.0
 11
15308.80217064596
 21
973.8747482146436
 31
0.0
  0
LINE
  5
1A66B
330
1AA0B
100
AcDbEntity
  8
YODOROGO
100
AcDbLine
 10
15264.80217064596
 20
839.8747482146443
 30
0.0
 11
15308.80217064596
 21
839.8747482146443
 31
0.0
  0
LINE
  5
1A66C
330
1AA0B
100
AcDbEntity
  8
YODOROGO
100
AcDbLine
 10
15308.80217064596
 20
867.8747482146436
 30
0.0
 11
15264.80217064596
 21
867.8747482146436
 31
0.0
  0
LINE
  5
1A66D
330
1AA0B
100
AcDbEntity
  8
YODOROGO
100
AcDbLine
 10
15190.80217064596
 20
897.8747482146435
 30
0.0
 11
15308.80217064596
 21
897.8747482146435
 31
0.0
  0
LINE
  5
1A66E
330
1AA0B
100
AcDbEntity
  8
YODOROGO
100
AcDbLine
 10
15040.80217064596
 20
1013.874748214644
 30
0.0
 11
15010.80217064596
 21
1013.874748214644
 31
0.0
  0
LINE
  5
1A66F
330
1AA0B
100
AcDbEntity
  8
YODOROGO
100
AcDbLine
 10
15040.80217064596
 20
913.8747482146436
 30
0.0
 11
15040.80217064596
 21
1013.874748214644
 31
0.0
  0
LINE
  5
1A670
330
1AA0B
100
AcDbEntity
  8
YODOROGO
100
AcDbLine
 10
15010.80217064596
 20
913.8747482146436
 30
0.0
 11
15040.80217064596
 21
913.8747482146436
 31
0.0
  0
LINE
  5
1A671
330
1AA0B
100
AcDbEntity
  8
YODOROGO
100
AcDbLine
 10
15010.80217064596
 20
1013.874748214644
 30
0.0
 11
15010.80217064596
 21
913.8747482146436
 31
0.0
  0
LINE
  5
1A672
330
1AA0B
100
AcDbEntity
  8
YODOROGO
100
AcDbLine
 10
15080.80217064596
 20
1013.874748214644
 30
0.0
 11
15108.80217064596
 21
1013.874748214644
 31
0.0
  0
LINE
  5
1A673
330
1AA0B
100
AcDbEntity
  8
YODOROGO
100
AcDbLine
 10
15080.80217064596
 20
905.8747482146443
 30
0.0
 11
15080.80217064596
 21
1013.874748214644
 31
0.0
  0
ARC
  5
1A674
330
1AA0B
100
AcDbEntity
  8
YODOROGO
100
AcDbCircle
 10
15060.80217064596
 20
905.8747482146443
 30
0.0
 40
20.0
100
AcDbArc
 50
270.0
 51
0.0
  0
LINE
  5
1A675
330
1AA0B
100
AcDbEntity
  8
YODOROGO
100
AcDbLine
 10
15010.80217064596
 20
885.8747482146442
 30
0.0
 11
15060.80217064596
 21
885.8747482146442
 31
0.0
  0
LINE
  5
1A676
330
1AA0B
100
AcDbEntity
  8
YODOROGO
100
AcDbLine
 10
15010.80217064596
 20
853.8747482146439
 30
0.0
 11
15010.80217064596
 21
885.8747482146442
 31
0.0
  0
LINE
  5
1A677
330
1AA0B
100
AcDbEntity
  8
YODOROGO
100
AcDbLine
 10
15068.80217064596
 20
853.8747482146439
 30
0.0
 11
15010.80217064596
 21
853.8747482146439
 31
0.0
  0
ARC
  5
1A678
330
1AA0B
100
AcDbEntity
  8
YODOROGO
100
AcDbCircle
 10
15068.80217064596
 20
893.8747482146439
 30
0.0
 40
40.0
100
AcDbArc
 50
270.0
 51
0.0
  0
LINE
  5
1A679
330
1AA0B
100
AcDbEntity
  8
YODOROGO
100
AcDbLine
 10
15108.80217064596
 20
1013.874748214644
 30
0.0
 11
15108.80217064596
 21
893.8747482146439
 31
0.0
  0
LINE
  5
1A67A
330
1AA0B
100
AcDbEntity
  8
YODOROGO
100
AcDbLine
 10
14988.80217064596
 20
973.8747482146436
 30
0.0
 11
14988.80217064596
 21
997.8747482146435
 31
0.0
1001
AUTOCAD_POSTSCRIPT_FIGURE
1002
{
1000
PSFILL
1000
Grayscale
1000
Grayscale
1070
    25
1002
}
  0
LINE
  5
1A67B
330
1AA0B
100
AcDbEntity
  8
YODOROGO
100
AcDbLine
 10
14988.80217064596
 20
929.874748214644
 30
0.0
 11
14988.80217064596
 21
953.874748214644
 31
0.0
1001
AUTOCAD_POSTSCRIPT_FIGURE
1002
{
1000
PSFILL
1000
Grayscale
1000
Grayscale
1070
    25
1002
}
  0
LINE
  5
1A67C
330
1AA0B
100
AcDbEntity
  8
YODOROGO
100
AcDbLine
 10
14988.80217064596
 20
853.8747482146439
 30
0.0
 11
14988.80217064596
 21
909.8747482146439
 31
0.0
1001
AUTOCAD_POSTSCRIPT_FIGURE
1002
{
1000
PSFILL
1000
Grayscale
1000
Grayscale
1070
    25
1002
}
  0
LINE
  5
1A67D
330
1AA0B
100
AcDbEntity
  8
YODOROGO
100
AcDbLine
 10
15190.80217064596
 20
953.874748214644
 30
0.0
 11
15248.80217064596
 21
1013.874748214644
 31
0.0
  0
LINE
  5
1A67E
330
1AA0B
100
AcDbEntity
  8
YODOROGO
100
AcDbLine
 10
15190.80217064596
 20
909.8747482146439
 30
0.0
 11
15190.80217064596
 21
953.874748214644
 31
0.0
  0
LINE
  5
1A67F
330
1AA0B
100
AcDbEntity
  8
YODOROGO
100
AcDbLine
 10
15248.80217064596
 20
969.8747482146441
 30
0.0
 11
15190.80217064596
 21
909.8747482146439
 31
0.0
  0
LINE
  5
1A680
330
1AA0B
100
AcDbEntity
  8
YODOROGO
100
AcDbLine
 10
15232.80217064596
 20
839.8747482146443
 30
0.0
 11
15232.80217064596
 21
867.8747482146436
 31
0.0
  0
LINE
  5
1A681
330
1AA0B
100
AcDbEntity
  8
YODOROGO
100
AcDbLine
 10
15190.80217064596
 20
839.8747482146443
 30
0.0
 11
15232.80217064596
 21
839.8747482146443
 31
0.0
  0
LINE
  5
1A682
330
1AA0B
100
AcDbEntity
  8
YODOROGO
100
AcDbLine
 10
15264.80217064596
 20
867.8747482146436
 30
0.0
 11
15264.80217064596
 21
839.8747482146443
 31
0.0
  0
LINE
  5
1A683
330
1AA0B
100
AcDbEntity
  8
YODOROGO
100
AcDbLine
 10
15190.80217064596
 20
867.8747482146436
 30
0.0
 11
15190.80217064596
 21
897.8747482146435
 31
0.0
  0
LINE
  5
1A684
330
1AA0B
100
AcDbEntity
  8
YODOROGO
100
AcDbLine
 10
15232.80217064596
 20
867.8747482146436
 30
0.0
 11
15190.80217064596
 21
867.8747482146436
 31
0.0
  0
LINE
  5
1A685
330
1AA0B
100
AcDbEntity
  8
YODOROGO
100
AcDbLine
 10
15322.80217064596
 20
1013.874748214644
 30
0.0
 11
15486.80217064596
 21
1013.874748214644
 31
0.0
  0
LINE
  5
1A686
330
1AA0B
100
AcDbEntity
  8
YODOROGO
100
AcDbLine
 10
15462.80217064596
 20
981.8747482146434
 30
0.0
 11
15348.80217064596
 21
981.8747482146434
 31
0.0
  0
LINE
  5
1A687
330
1AA0B
100
AcDbEntity
  8
YODOROGO
100
AcDbLine
 10
15436.80217064595
 20
909.8747482146439
 30
0.0
 11
15449.80217064596
 21
909.8747482146439
 31
0.0
  0
LINE
  5
1A688
330
1AA0B
100
AcDbEntity
  8
YODOROGO
100
AcDbLine
 10
15449.80217064596
 20
969.8747482146441
 30
0.0
 11
15436.80217064595
 21
909.8747482146439
 31
0.0
  0
LINE
  5
1A689
330
1AA0B
100
AcDbEntity
  8
YODOROGO
100
AcDbLine
 10
15425.80217064596
 20
969.8747482146441
 30
0.0
 11
15449.80217064596
 21
969.8747482146441
 31
0.0
  0
LINE
  5
1A68A
330
1AA0B
100
AcDbEntity
  8
YODOROGO
100
AcDbLine
 10
15412.80217064596
 20
909.8747482146439
 30
0.0
 11
15425.80217064596
 21
969.8747482146441
 31
0.0
  0
LINE
  5
1A68B
330
1AA0B
100
AcDbEntity
  8
YODOROGO
100
AcDbLine
 10
15398.80217064596
 20
909.8747482146439
 30
0.0
 11
15412.80217064596
 21
909.8747482146439
 31
0.0
  0
LINE
  5
1A68C
330
1AA0B
100
AcDbEntity
  8
YODOROGO
100
AcDbLine
 10
15385.80217064596
 20
969.8747482146441
 30
0.0
 11
15398.80217064596
 21
909.8747482146439
 31
0.0
  0
LINE
  5
1A68D
330
1AA0B
100
AcDbEntity
  8
YODOROGO
100
AcDbLine
 10
15361.80217064596
 20
969.8747482146441
 30
0.0
 11
15385.80217064596
 21
969.8747482146441
 31
0.0
  0
LINE
  5
1A68E
330
1AA0B
100
AcDbEntity
  8
YODOROGO
100
AcDbLine
 10
15374.80217064596
 20
909.8747482146439
 30
0.0
 11
15361.80217064596
 21
969.8747482146441
 31
0.0
  0
LINE
  5
1A68F
330
1AA0B
100
AcDbEntity
  8
YODOROGO
100
AcDbLine
 10
15361.80217064596
 20
909.8747482146439
 30
0.0
 11
15374.80217064596
 21
909.8747482146439
 31
0.0
  0
LINE
  5
1A690
330
1AA0B
100
AcDbEntity
  8
YODOROGO
100
AcDbLine
 10
15361.80217064596
 20
877.8747482146437
 30
0.0
 11
15361.80217064596
 21
909.8747482146439
 31
0.0
  0
LINE
  5
1A691
330
1AA0B
100
AcDbEntity
  8
YODOROGO
100
AcDbLine
 10
15449.80217064596
 20
877.8747482146437
 30
0.0
 11
15361.80217064596
 21
877.8747482146437
 31
0.0
  0
LINE
  5
1A692
330
1AA0B
100
AcDbEntity
  8
YODOROGO
100
AcDbLine
 10
15449.80217064596
 20
909.8747482146439
 30
0.0
 11
15449.80217064596
 21
877.8747482146437
 31
0.0
  0
LINE
  5
1A693
330
1AA0B
100
AcDbEntity
  8
YODOROGO
100
AcDbLine
 10
15308.80217064596
 20
973.8747482146436
 30
0.0
 11
15308.80217064596
 21
929.874748214644
 31
0.0
  0
LINE
  5
1A694
330
1AA0B
100
AcDbEntity
  8
YODOROGO
100
AcDbLine
 10
15395.80217064596
 20
877.8747482146437
 30
0.0
 11
15415.80217064596
 21
877.8747482146437
 31
0.0
  0
LINE
  5
1A695
330
1AA0B
100
AcDbEntity
  8
YODOROGO
100
AcDbLine
 10
15361.80217064596
 20
845.8747482146444
 30
0.0
 11
15381.80217064596
 21
845.8747482146444
 31
0.0
  0
LINE
  5
1A696
330
1AA0B
100
AcDbEntity
  8
YODOROGO
100
AcDbLine
 10
15429.80217064596
 20
845.8747482146444
 30
0.0
 11
15449.80217064596
 21
845.8747482146444
 31
0.0
  0
LINE
  5
1A697
330
1AA0B
100
AcDbEntity
  8
YODOROGO
100
AcDbLine
 10
15308.80217064596
 20
897.8747482146435
 30
0.0
 11
15308.80217064596
 21
867.8747482146436
 31
0.0
  0
LINE
  5
1A698
330
1AA0B
100
AcDbEntity
  8
YODOROGO
100
AcDbLine
 10
15582.80217064596
 20
1013.874748214644
 30
0.0
 11
15582.80217064596
 21
981.8747482146434
 31
0.0
  0
LINE
  5
1A699
330
1AA0B
100
AcDbEntity
  8
YODOROGO
100
AcDbLine
 10
15766.80217064596
 20
797.8747482146435
 30
0.0
 11
15766.80217064595
 21
905.8747482146443
 31
0.0
  0
LINE
  5
1A69A
330
1AA0B
100
AcDbEntity
  8
YODOROGO
100
AcDbLine
 10
15730.80217064594
 20
993.8747482146439
 30
0.0
 11
15730.80217064594
 21
817.8747482146436
 31
0.0
  0
LINE
  5
1A69B
330
1AA0B
100
AcDbEntity
  8
YODOROGO
100
AcDbLine
 10
15826.80217064596
 20
713.8747482146436
 30
0.0
 11
15826.80217064595
 21
905.8747482146443
 31
0.0
  0
LINE
  5
1A69C
330
1AA0B
100
AcDbEntity
  8
YODOROGO
100
AcDbLine
 10
15794.80217064596
 20
905.8747482146443
 30
0.0
 11
15794.80217064596
 21
713.8747482146436
 31
0.0
  0
LINE
  5
1A69D
330
1AA0B
100
AcDbEntity
  8
YODOROGO
100
AcDbLine
 10
15618.80217064596
 20
797.8747482146435
 30
0.0
 11
15618.80217064596
 21
853.8747482146439
 31
0.0
  0
ARC
  5
1A69E
330
1AA0B
100
AcDbEntity
  8
YODOROGO
100
AcDbCircle
 10
15676.95743255803
 20
803.8951756442788
 30
0.0
 40
90.04622428799429
100
AcDbArc
 50
268.6284910216979
 51
356.1663845733032
  0
LINE
  5
1A69F
330
1AA0B
100
AcDbEntity
  8
YODOROGO
100
AcDbLine
 10
15674.80217064596
 20
763.8747482146436
 30
0.0
 11
15674.80217064596
 21
713.8747482146436
 31
0.0
  0
ARC
  5
1A6A0
330
1AA0B
100
AcDbEntity
  8
YODOROGO
100
AcDbCircle
 10
15675.75903786228
 20
818.9194785088275
 30
0.0
 40
55.05304649180608
100
AcDbArc
 50
269.0041020930593
 51
358.9126445549248
  0
LINE
  5
1A6A1
330
1AA0B
100
AcDbEntity
  8
YODOROGO
100
AcDbLine
 10
15794.80217064596
 20
713.8747482146436
 30
0.0
 11
15826.80217064596
 21
713.8747482146436
 31
0.0
  0
LINE
  5
1A6A2
330
1AA0B
100
AcDbEntity
  8
YODOROGO
100
AcDbLine
 10
15766.80217064595
 20
905.8747482146443
 30
0.0
 11
15794.80217064596
 21
905.8747482146443
 31
0.0
  0
LINE
  5
1A6A3
330
1AA0B
100
AcDbEntity
  8
YODOROGO
100
AcDbLine
 10
15810.80217064596
 20
993.8747482146439
 30
0.0
 11
15730.80217064594
 21
993.8747482146439
 31
0.0
  0
LINE
  5
1A6A4
330
1AA0B
100
AcDbEntity
  8
YODOROGO
100
AcDbLine
 10
15766.80217064595
 20
957.8747482146436
 30
0.0
 11
15830.80217064596
 21
957.8747482146436
 31
0.0
  0
LINE
  5
1A6A5
330
1AA0B
100
AcDbEntity
  8
YODOROGO
100
AcDbLine
 10
15850.80217064596
 20
937.8747482146435
 30
0.0
 11
15766.80217064595
 21
937.8747482146435
 31
0.0
  0
LINE
  5
1A6A6
330
1AA0B
100
AcDbEntity
  8
YODOROGO
100
AcDbLine
 10
15618.80217064596
 20
889.8747482146443
 30
0.0
 11
15674.80217064596
 21
889.8747482146443
 31
0.0
  0
LINE
  5
1A6A7
330
1AA0B
100
AcDbEntity
  8
YODOROGO
100
AcDbLine
 10
15618.80217064596
 20
917.8747482146436
 30
0.0
 11
15618.80217064596
 21
889.8747482146443
 31
0.0
  0
LINE
  5
1A6A8
330
1AA0B
100
AcDbEntity
  8
YODOROGO
100
AcDbLine
 10
15674.80217064596
 20
917.8747482146436
 30
0.0
 11
15618.80217064596
 21
917.8747482146436
 31
0.0
  0
LINE
  5
1A6A9
330
1AA0B
100
AcDbEntity
  8
YODOROGO
100
AcDbLine
 10
15674.80217064596
 20
889.8747482146443
 30
0.0
 11
15674.80217064596
 21
917.8747482146436
 31
0.0
  0
LINE
  5
1A6AA
330
1AA0B
100
AcDbEntity
  8
YODOROGO
100
AcDbLine
 10
15766.80217064595
 20
937.8747482146435
 30
0.0
 11
15766.80217064595
 21
957.8747482146436
 31
0.0
  0
LINE
  5
1A6AB
330
1AA0B
100
AcDbEntity
  8
YODOROGO
100
AcDbLine
 10
15706.80217064596
 20
853.8747482146439
 30
0.0
 11
15706.80217064596
 21
953.874748214644
 31
0.0
  0
LINE
  5
1A6AC
330
1AA0B
100
AcDbEntity
  8
YODOROGO
100
AcDbLine
 10
15618.80217064596
 20
853.8747482146439
 30
0.0
 11
15706.80217064596
 21
853.8747482146439
 31
0.0
  0
LINE
  5
1A6AD
330
1AA0B
100
AcDbEntity
  8
YODOROGO
100
AcDbLine
 10
15706.80217064596
 20
981.8747482146434
 30
0.0
 11
15706.80217064596
 21
1013.874748214644
 31
0.0
  0
ARC
  5
1A6AE
330
1AA0B
100
AcDbEntity
  8
YODOROGO
100
AcDbCircle
 10
15810.80217064596
 20
1001.874748214642
 30
0.0
 40
7.999999999997271
100
AcDbArc
 50
270.0
 51
0.0000000000081422
  0
LINE
  5
1A6AF
330
1AA0B
100
AcDbEntity
  8
YODOROGO
100
AcDbLine
 10
15818.80217064596
 20
1013.874748214644
 30
0.0
 11
15818.80217064596
 21
1001.874748214643
 31
0.0
  0
LINE
  5
1A6B0
330
1AA0B
100
AcDbEntity
  8
YODOROGO
100
AcDbLine
 10
15850.80217064596
 20
1013.874748214644
 30
0.0
 11
15818.80217064596
 21
1013.874748214644
 31
0.0
  0
LINE
  5
1A6B1
330
1AA0B
100
AcDbEntity
  8
YODOROGO
100
AcDbLine
 10
15850.80217064596
 20
977.8747482146435
 30
0.0
 11
15850.80217064596
 21
1013.874748214644
 31
0.0
  0
ARC
  5
1A6B2
330
1AA0B
100
AcDbEntity
  8
YODOROGO
100
AcDbCircle
 10
15830.80217064596
 20
977.8747482146435
 30
0.0
 40
20.0
100
AcDbArc
 50
270.0
 51
0.0
  0
LINE
  5
1A6B3
330
1AA0B
100
AcDbEntity
  8
YODOROGO
100
AcDbLine
 10
15850.80217064596
 20
905.8747482146443
 30
0.0
 11
15850.80217064596
 21
937.8747482146435
 31
0.0
  0
LINE
  5
1A6B4
330
1AA0B
100
AcDbEntity
  8
YODOROGO
100
AcDbLine
 10
15826.80217064595
 20
905.8747482146443
 30
0.0
 11
15850.80217064596
 21
905.8747482146443
 31
0.0
  0
LINE
  5
1A6B5
330
1AA0B
100
AcDbEntity
  8
SUNPOU
100
AcDbLine
 10
9145.989208462832
 20
3287.183932023015
 30
0.0
 11
9085.989208462816
 21
3287.183932023015
 31
0.0
  0
LINE
  5
1A6B6
330
1AA0B
100
AcDbEntity
  8
SUNPOU
100
AcDbLine
 10
9145.989208462822
 20
3287.183932023015
 30
0.0
 11
9085.989208462823
 21
3303.260883568885
 31
0.0
  0
LINE
  5
1A6B7
330
1AA0B
100
AcDbEntity
  8
SUNPOU
100
AcDbLine
 10
9145.989208462832
 20
3287.183932023015
 30
0.0
 11
9085.989208462816
 21
3271.106980477146
 31
0.0
  0
LINE
  5
1A6B8
330
1AA0B
100
AcDbEntity
  8
SUNPOU
100
AcDbLine
 10
9085.98920846283
 20
3287.183932023015
 30
0.0
 11
9025.989208462815
 21
3287.183932023015
 31
0.0
  0
LINE
  5
1A6B9
330
1AA0B
100
AcDbEntity
  8
SUNPOU
100
AcDbLine
 10
9085.989208462823
 20
3287.183932023015
 30
0.0
 11
9025.989208462823
 21
3303.260883568885
 31
0.0
  0
LINE
  5
1A6BA
330
1AA0B
100
AcDbEntity
  8
SUNPOU
100
AcDbLine
 10
9085.98920846283
 20
3287.183932023015
 30
0.0
 11
9025.989208462815
 21
3271.106980477146
 31
0.0
  0
LINE
  5
1A6BC
330
1AA0B
100
AcDbEntity
  8
SUNPOU
100
AcDbLine
 10
7762.008701212581
 20
3287.183932023015
 30
0.0
 11
7773.258701212579
 21
3287.183932023015
 31
0.0
  0
LINE
  5
1A6BD
330
1AA0B
100
AcDbEntity
  8
SUNPOU
100
AcDbLine
 10
7750.758701212581
 20
3317.183932023015
 30
0.0
 11
7750.758701212581
 21
3332.183932023015
 31
0.0
  0
LINE
  5
1A6BE
330
1AA0B
100
AcDbEntity
  8
SUNPOU
100
AcDbLine
 10
7110.758701212581
 20
2514.183932023016
 30
0.0
 11
7110.758701212581
 21
3332.183932023015
 31
0.0
  0
LINE
  5
1A6BF
330
1AA0B
100
AcDbEntity
  8
SUNPOU
100
AcDbLine
 10
7735.758701212581
 20
3287.183932023014
 30
0.0
 11
7125.758701212581
 21
3287.183932023014
 31
0.0
  0
LINE
  5
1A6C3
330
1AA0B
100
AcDbEntity
  8
SUNPOU
100
AcDbLine
 10
7080.758701212579
 20
2484.183932023016
 30
0.0
 11
6584.758582955732
 21
2484.183932023016
 31
0.0
  0
LINE
  5
1A6C4
330
1AA0B
100
AcDbEntity
  8
SUNPOU
100
AcDbLine
 10
6920.758701212581
 20
1876.183932023015
 30
0.0
 11
6584.758582955732
 21
1876.183932023016
 31
0.0
  0
LINE
  5
1A6C5
330
1AA0B
100
AcDbEntity
  8
SUNPOU
100
AcDbLine
 10
6629.758582955734
 20
2469.183932023016
 30
0.0
 11
6629.758582955732
 21
1891.183932023016
 31
0.0
  0
LINE
  5
1A6C9
330
1AA0B
100
AcDbEntity
  8
SUNPOU
100
AcDbLine
 10
6920.758701212581
 20
1876.183932023017
 30
0.0
 11
6584.758582955732
 21
1876.183932023018
 31
0.0
  0
LINE
  5
1A6CA
330
1AA0B
100
AcDbEntity
  8
SUNPOU
100
AcDbLine
 10
6920.758701212581
 20
1716.183932023017
 30
0.0
 11
6584.758582955732
 21
1716.183932023017
 31
0.0
  0
LINE
  5
1A6CB
330
1AA0B
100
AcDbEntity
  8
SUNPOU
100
AcDbLine
 10
6629.758582955732
 20
1861.183932023017
 30
0.0
 11
6629.758582955732
 21
1731.183932023017
 31
0.0
  0
LINE
  5
1A6CF
330
1AA0B
100
AcDbEntity
  8
SUNPOU
100
AcDbLine
 10
7080.758701212582
 20
2484.183932023016
 30
0.0
 11
6384.758582955733
 21
2484.183932023016
 31
0.0
  0
LINE
  5
1A6D0
330
1AA0B
100
AcDbEntity
  8
SUNPOU
100
AcDbLine
 10
6920.758701212581
 20
1716.183932023017
 30
0.0
 11
6384.758582955733
 21
1716.183932023017
 31
0.0
  0
LINE
  5
1A6D1
330
1AA0B
100
AcDbEntity
  8
SUNPOU
100
AcDbLine
 10
6429.758582955732
 20
2469.183932023016
 30
0.0
 11
6429.758582955732
 21
1731.183932023017
 31
0.0
  0
LINE
  5
1A6D5
330
1AA0B
100
AcDbEntity
  8
SUNPOU
100
AcDbLine
 10
7110.758701212581
 20
1846.183932023015
 30
0.0
 11
7110.758701212581
 21
1334.183932023013
 31
0.0
  0
LINE
  5
1A6D6
330
1AA0B
100
AcDbEntity
  8
SUNPOU
100
AcDbLine
 10
8390.758701212579
 20
1846.183932023015
 30
0.0
 11
8390.758701212579
 21
1334.183932023013
 31
0.0
  0
LINE
  5
1A6D7
330
1AA0B
100
AcDbEntity
  8
SUNPOU
100
AcDbLine
 10
7125.758701212581
 20
1379.183932023014
 30
0.0
 11
8375.758701212578
 21
1379.183932023014
 31
0.0
  0
LINE
  5
1A6DB
330
1AA0B
100
AcDbEntity
  8
SUNPOU
100
AcDbLine
 10
6950.758701212581
 20
1686.183932023016
 30
0.0
 11
6950.758701212581
 21
1124.183932023014
 31
0.0
  0
LINE
  5
1A6DC
330
1AA0B
100
AcDbEntity
  8
SUNPOU
100
AcDbLine
 10
8550.758701212577
 20
1686.183932023017
 30
0.0
 11
8550.758701212577
 21
1124.183932023014
 31
0.0
  0
LINE
  5
1A6DD
330
1AA0B
100
AcDbEntity
  8
SUNPOU
100
AcDbLine
 10
6965.75870121258
 20
1169.183932023013
 30
0.0
 11
8535.758701212579
 21
1169.183932023013
 31
0.0
  0
LINE
  5
1A6E1
330
1AA0B
100
AcDbEntity
  8
SUNPOU
100
AcDbLine
 10
3224.333914666386
 20
1846.183932023019
 30
0.0
 11
3224.333914666386
 21
1334.183932023016
 31
0.0
  0
LINE
  5
1A6E2
330
1AA0B
100
AcDbEntity
  8
SUNPOU
100
AcDbLine
 10
4184.333914666385
 20
1846.183932023017
 30
0.0
 11
4184.333914666385
 21
1334.183932023016
 31
0.0
  0
LINE
  5
1A6E3
330
1AA0B
100
AcDbEntity
  8
SUNPOU
100
AcDbLine
 10
3239.333914666387
 20
1379.183932023016
 30
0.0
 11
4169.333914666387
 21
1379.183932023016
 31
0.0
  0
LINE
  5
1A6E7
330
1AA0B
100
AcDbEntity
  8
SUNPOU
100
AcDbLine
 10
3064.333914666386
 20
1686.18393202302
 30
0.0
 11
3064.333914666386
 21
1124.183932023016
 31
0.0
  0
LINE
  5
1A6E8
330
1AA0B
100
AcDbEntity
  8
SUNPOU
100
AcDbLine
 10
4344.333914666385
 20
1686.183932023018
 30
0.0
 11
4344.333914666385
 21
1124.183932023016
 31
0.0
  0
LINE
  5
1A6E9
330
1AA0B
100
AcDbEntity
  8
SUNPOU
100
AcDbLine
 10
3079.333914666387
 20
1169.183932023016
 30
0.0
 11
4329.333914666387
 21
1169.183932023016
 31
0.0
  0
LINE
  5
1A6ED
330
1AA0B
100
AcDbEntity
  8
SUNPOU
100
AcDbLine
 10
3034.333914666386
 20
2484.183932023019
 30
0.0
 11
2698.333796409538
 21
2484.183932023019
 31
0.0
  0
LINE
  5
1A6EE
330
1AA0B
100
AcDbEntity
  8
SUNPOU
100
AcDbLine
 10
3034.333914666386
 20
1876.183932023018
 30
0.0
 11
2698.333796409538
 21
1876.183932023018
 31
0.0
  0
LINE
  5
1A6EF
330
1AA0B
100
AcDbEntity
  8
SUNPOU
100
AcDbLine
 10
2743.333796409538
 20
2469.183932023019
 30
0.0
 11
2743.333796409538
 21
1891.183932023017
 31
0.0
  0
LINE
  5
1A6F3
330
1AA0B
100
AcDbEntity
  8
SUNPOU
100
AcDbLine
 10
3034.333914666386
 20
1876.183932023019
 30
0.0
 11
2698.333796409539
 21
1876.183932023019
 31
0.0
  0
LINE
  5
1A6F4
330
1AA0B
100
AcDbEntity
  8
SUNPOU
100
AcDbLine
 10
3034.333914666386
 20
1716.18393202302
 30
0.0
 11
2698.333796409539
 21
1716.18393202302
 31
0.0
  0
LINE
  5
1A6F5
330
1AA0B
100
AcDbEntity
  8
SUNPOU
100
AcDbLine
 10
2743.333796409539
 20
1861.183932023019
 30
0.0
 11
2743.333796409539
 21
1731.18393202302
 31
0.0
  0
LINE
  5
1A6F9
330
1AA0B
100
AcDbEntity
  8
SUNPOU
100
AcDbLine
 10
3034.333914666388
 20
2484.183932023019
 30
0.0
 11
2498.333796409538
 21
2484.183932023019
 31
0.0
  0
LINE
  5
1A6FA
330
1AA0B
100
AcDbEntity
  8
SUNPOU
100
AcDbLine
 10
3034.333914666386
 20
1716.18393202302
 30
0.0
 11
2498.333796409538
 21
1716.18393202302
 31
0.0
  0
LINE
  5
1A6FB
330
1AA0B
100
AcDbEntity
  8
SUNPOU
100
AcDbLine
 10
2543.333796409538
 20
2469.183932023019
 30
0.0
 11
2543.333796409538
 21
1731.18393202302
 31
0.0
  0
LINE
  5
1A6FF
330
1AA0B
100
AcDbEntity
  8
SUNPOU
100
AcDbLine
 10
3704.333914666387
 20
3317.183932023015
 30
0.0
 11
3704.333914666387
 21
3332.183932023017
 31
0.0
  0
LINE
  5
1A700
330
1AA0B
100
AcDbEntity
  8
SUNPOU
100
AcDbLine
 10
3064.333914666386
 20
2514.183932023019
 30
0.0
 11
3064.333914666386
 21
3332.183932023017
 31
0.0
  0
LINE
  5
1A701
330
1AA0B
100
AcDbEntity
  8
SUNPOU
100
AcDbLine
 10
3689.333914666387
 20
3287.183932023017
 30
0.0
 11
3079.333914666386
 21
3287.183932023017
 31
0.0
  0
LINE
  5
1A705
330
1AA0B
100
AcDbEntity
  8
SUNPOU
100
AcDbLine
 10
5099.564421916637
 20
3287.183932023017
 30
0.0
 11
5039.564421916623
 21
3287.183932023017
 31
0.0
  0
LINE
  5
1A706
330
1AA0B
100
AcDbEntity
  8
SUNPOU
100
AcDbLine
 10
5099.56442191663
 20
3287.183932023017
 30
0.0
 11
5039.56442191663
 21
3303.260883568886
 31
0.0
  0
LINE
  5
1A707
330
1AA0B
100
AcDbEntity
  8
SUNPOU
100
AcDbLine
 10
5099.564421916637
 20
3287.183932023017
 30
0.0
 11
5039.564421916623
 21
3271.106980477147
 31
0.0
  0
LINE
  5
1A708
330
1AA0B
100
AcDbEntity
  8
SUNPOU
100
AcDbLine
 10
5039.564421916637
 20
3287.183932023017
 30
0.0
 11
4979.564421916624
 21
3287.183932023017
 31
0.0
  0
LINE
  5
1A709
330
1AA0B
100
AcDbEntity
  8
SUNPOU
100
AcDbLine
 10
5039.56442191663
 20
3287.183932023017
 30
0.0
 11
4979.56442191663
 21
3303.260883568886
 31
0.0
  0
LINE
  5
1A70A
330
1AA0B
100
AcDbEntity
  8
SUNPOU
100
AcDbLine
 10
5039.564421916637
 20
3287.183932023017
 30
0.0
 11
4979.564421916624
 21
3271.106980477147
 31
0.0
  0
LINE
  5
1A70C
330
1AA0B
100
AcDbEntity
  8
SUNPOU
100
AcDbLine
 10
3715.583914666388
 20
3287.183932023017
 30
0.0
 11
3726.833914666387
 21
3287.183932023017
 31
0.0
  0
LINE
  5
1A70D
330
1AA0B
100
AcDbEntity
  8
SUNPOU
100
AcDbLine
 10
10179.21703198606
 20
9295.715360473252
 30
0.0
 11
10164.21703198606
 21
9295.715360473252
 31
0.0
  0
LINE
  5
1A70E
330
1AA0B
100
AcDbEntity
  8
SUNPOU
100
AcDbLine
 10
9839.217031986059
 20
9595.715360473255
 30
0.0
 11
10254.21703198605
 21
9595.715360473255
 31
0.0
  0
LINE
  5
1A70F
330
1AA0B
100
AcDbEntity
  8
SUNPOU
100
AcDbLine
 10
10209.21703198605
 20
9310.715360473251
 30
0.0
 11
10209.21703198605
 21
9580.715360473252
 31
0.0
  0
LINE
  5
1A713
330
1AA0B
100
AcDbEntity
  8
SUNPOU
100
AcDbLine
 10
10179.21703198606
 20
7495.715360473252
 30
0.0
 11
10164.21703198606
 21
7495.715360473252
 31
0.0
  0
LINE
  5
1A714
330
1AA0B
100
AcDbEntity
  8
SUNPOU
100
AcDbLine
 10
10179.21703198606
 20
9295.715360473252
 30
0.0
 11
10164.21703198606
 21
9295.715360473252
 31
0.0
  0
LINE
  5
1A715
330
1AA0B
100
AcDbEntity
  8
SUNPOU
100
AcDbLine
 10
10209.21703198605
 20
7510.715360473252
 30
0.0
 11
10209.21703198605
 21
9280.71536047325
 31
0.0
  0
LINE
  5
1A719
330
1AA0B
100
AcDbEntity
  8
SUNPOU
100
AcDbLine
 10
10179.21703198606
 20
5695.715360473252
 30
0.0
 11
10164.21703198606
 21
5695.715360473252
 31
0.0
  0
LINE
  5
1A71A
330
1AA0B
100
AcDbEntity
  8
SUNPOU
100
AcDbLine
 10
10179.21703198606
 20
7495.715360473252
 30
0.0
 11
10164.21703198606
 21
7495.715360473252
 31
0.0
  0
LINE
  5
1A71B
330
1AA0B
100
AcDbEntity
  8
SUNPOU
100
AcDbLine
 10
10209.21703198605
 20
5710.715360473252
 30
0.0
 11
10209.21703198605
 21
7480.715360473252
 31
0.0
  0
LINE
  5
1A71F
330
1AA0B
100
AcDbEntity
  8
SUNPOU
100
AcDbLine
 10
9839.217031986059
 20
5395.715360473253
 30
0.0
 11
10254.21703198605
 21
5395.715360473251
 31
0.0
  0
LINE
  5
1A720
330
1AA0B
100
AcDbEntity
  8
SUNPOU
100
AcDbLine
 10
10179.21703198606
 20
5695.715360473252
 30
0.0
 11
10164.21703198606
 21
5695.715360473252
 31
0.0
  0
LINE
  5
1A721
330
1AA0B
100
AcDbEntity
  8
SUNPOU
100
AcDbLine
 10
10209.21703198605
 20
5410.715360473252
 30
0.0
 11
10209.21703198605
 21
5680.715360473252
 31
0.0
  0
LINE
  5
1A725
330
1AA0B
100
AcDbEntity
  8
SUNPOU
100
AcDbLine
 10
9839.217031986059
 20
5395.715360473253
 30
0.0
 11
10464.21703198606
 21
5395.715360473251
 31
0.0
  0
LINE
  5
1A726
330
1AA0B
100
AcDbEntity
  8
SUNPOU
100
AcDbLine
 10
9839.217031986059
 20
9595.715360473255
 30
0.0
 11
10464.21703198606
 21
9595.715360473255
 31
0.0
  0
LINE
  5
1A727
330
1AA0B
100
AcDbEntity
  8
SUNPOU
100
AcDbLine
 10
10419.21703198606
 20
5410.71536047325
 30
0.0
 11
10419.21703198606
 21
9580.715360473252
 31
0.0
  0
LINE
  5
1A72B
330
1AA0B
100
AcDbEntity
  8
SUNPOU
100
AcDbLine
 10
8979.21703198606
 20
7095.715360473253
 30
0.0
 11
8764.217031986063
 21
7095.715360473253
 31
0.0
  0
LINE
  5
1A72C
330
1AA0B
100
AcDbEntity
  8
SUNPOU
100
AcDbLine
 10
8979.21703198606
 20
7895.715360473253
 30
0.0
 11
8764.217031986063
 21
7895.715360473253
 31
0.0
  0
LINE
  5
1A72D
330
1AA0B
100
AcDbEntity
  8
SUNPOU
100
AcDbLine
 10
8809.217031986063
 20
7110.715360473252
 30
0.0
 11
8809.217031986063
 21
7880.715360473252
 31
0.0
  0
LINE
  5
1A731
330
1AA0B
100
AcDbEntity
  8
SUNPOU
100
AcDbLine
 10
9009.217031986059
 20
7925.715360473252
 30
0.0
 11
9009.217031986059
 21
8110.715360473252
 31
0.0
  0
LINE
  5
1A732
330
1AA0B
100
AcDbEntity
  8
SUNPOU
100
AcDbLine
 10
9809.21703198606
 20
7925.715360473252
 30
0.0
 11
9809.21703198606
 21
8110.715360473252
 31
0.0
  0
LINE
  5
1A733
330
1AA0B
100
AcDbEntity
  8
SUNPOU
100
AcDbLine
 10
9024.21703198606
 20
8065.715360473253
 30
0.0
 11
9794.217031986059
 21
8065.715360473253
 31
0.0
  0
LINE
  5
1A737
330
1AA0B
100
AcDbEntity
  8
SUNPOU
100
AcDbLine
 10
9079.217031986066
 20
9595.715360473255
 30
0.0
 11
8764.217031986063
 21
9595.715360473255
 31
0.0
  0
LINE
  5
1A738
330
1AA0B
100
AcDbEntity
  8
SUNPOU
100
AcDbLine
 10
9079.217031986066
 20
8995.715360473253
 30
0.0
 11
8764.217031986063
 21
8995.715360473253
 31
0.0
  0
LINE
  5
1A739
330
1AA0B
100
AcDbEntity
  8
SUNPOU
100
AcDbLine
 10
8809.217031986063
 20
9580.715360473252
 30
0.0
 11
8809.217031986063
 21
9010.715360473252
 31
0.0
  0
LINE
  5
1A73D
330
1AA0B
100
AcDbEntity
  8
SUNPOU
100
AcDbLine
 10
9109.217031986066
 20
8965.715360473252
 30
0.0
 11
9109.217031986066
 21
8650.715360473252
 31
0.0
  0
LINE
  5
1A73E
330
1AA0B
100
AcDbEntity
  8
SUNPOU
100
AcDbLine
 10
9709.217031986066
 20
8965.715360473252
 30
0.0
 11
9709.217031986066
 21
8650.715360473252
 31
0.0
  0
LINE
  5
1A73F
330
1AA0B
100
AcDbEntity
  8
SUNPOU
100
AcDbLine
 10
9124.217031986065
 20
8695.715360473252
 30
0.0
 11
9694.217031986065
 21
8695.715360473252
 31
0.0
  0
LINE
  5
1A743
330
1AA0B
100
AcDbEntity
  8
SUNPOU
100
AcDbLine
 10
9409.217031986059
 20
9725.715360473252
 30
0.0
 11
9409.217031986059
 21
10040.71536047325
 31
0.0
  0
LINE
  5
1A744
330
1AA0B
100
AcDbEntity
  8
SUNPOU
100
AcDbLine
 10
9809.21703198606
 20
9625.715360473252
 30
0.0
 11
9809.21703198606
 21
10040.71536047325
 31
0.0
  0
LINE
  5
1A745
330
1AA0B
100
AcDbEntity
  8
SUNPOU
100
AcDbLine
 10
9424.21703198606
 20
9995.715360473255
 30
0.0
 11
9794.217031986059
 21
9995.715360473255
 31
0.0
  0
LINE
  5
1A749
330
1AA0B
100
AcDbEntity
  8
SUNPOU
100
AcDbLine
 10
6559.21703198606
 20
9625.715360473252
 30
0.0
 11
6559.21703198606
 21
10250.71536047325
 31
0.0
  0
LINE
  5
1A74A
330
1AA0B
100
AcDbEntity
  8
SUNPOU
100
AcDbLine
 10
9809.21703198606
 20
9625.715360473252
 30
0.0
 11
9809.21703198606
 21
10250.71536047325
 31
0.0
  0
LINE
  5
1A74B
330
1AA0B
100
AcDbEntity
  8
SUNPOU
100
AcDbLine
 10
6574.21703198606
 20
10205.71536047325
 30
0.0
 11
9794.217031986059
 21
10205.71536047325
 31
0.0
  0
LINE
  5
1A74F
330
1AA0B
100
AcDbEntity
  8
SUNPOU
100
AcDbLine
 10
9409.217031986059
 20
9725.715360473252
 30
0.0
 11
9409.217031986059
 21
10040.71536047325
 31
0.0
  0
LINE
  5
1A750
330
1AA0B
100
AcDbEntity
  8
SUNPOU
100
AcDbLine
 10
6959.21703198606
 20
9725.715360473252
 30
0.0
 11
6959.21703198606
 21
10040.71536047325
 31
0.0
  0
LINE
  5
1A751
330
1AA0B
100
AcDbEntity
  8
SUNPOU
100
AcDbLine
 10
9394.217031986059
 20
9995.715360473255
 30
0.0
 11
6974.217031986061
 21
9995.715360473255
 31
0.0
  0
LINE
  5
1A755
330
1AA0B
100
AcDbEntity
  8
SUNPOU
100
AcDbLine
 10
6959.21703198606
 20
9725.715360473252
 30
0.0
 11
6959.21703198606
 21
10040.71536047325
 31
0.0
  0
LINE
  5
1A756
330
1AA0B
100
AcDbEntity
  8
SUNPOU
100
AcDbLine
 10
6559.21703198606
 20
9625.715360473252
 30
0.0
 11
6559.21703198606
 21
10040.71536047325
 31
0.0
  0
LINE
  5
1A757
330
1AA0B
100
AcDbEntity
  8
SUNPOU
100
AcDbLine
 10
6944.21703198606
 20
9995.715360473255
 30
0.0
 11
6574.21703198606
 21
9995.715360473255
 31
0.0
  0
ARC
  5
1A75B
330
1AA0B
100
AcDbEntity
  8
SUNPOU
100
AcDbCircle
 10
7750.758701212581
 20
3287.183932023015
 30
0.0
 40
5.625
100
AcDbArc
 50
0.0
 51
180.0
  0
ARC
  5
1A75C
330
1AA0B
100
AcDbEntity
  8
SUNPOU
100
AcDbCircle
 10
7750.758701212581
 20
3287.183932023015
 30
0.0
 40
5.625
100
AcDbArc
 50
180.0
 51
0.0
  0
TEXT
  5
1A75D
330
1AA0B
100
AcDbEntity
  8
SUNPOU
100
AcDbText
 10
7345.044415498295
 20
3332.183932023015
 30
0.0
 40
90.0
  1
400
 41
0.6666666666666666
  7
00
100
AcDbText
  0
LINE
  5
1A75F
330
1AA0B
100
AcDbEntity
  8
SUNPOU
100
AcDbLine
 10
7122.00870121258
 20
3287.183932023014
 30
0.0
 11
7133.258701212581
 21
3287.183932023014
 31
0.0
  0
LINE
  5
1A761
330
1AA0B
100
AcDbEntity
  8
SUNPOU
100
AcDbLine
 10
7739.508701212582
 20
3287.183932023014
 30
0.0
 11
7728.25870121258
 21
3287.183932023014
 31
0.0
  0
TEXT
  5
1A762
330
1AA0B
100
AcDbEntity
  8
SUNPOU
100
AcDbText
 10
6584.758582955732
 20
2094.469646308731
 30
0.0
 40
90.0
  1
380
 50
90.0
 41
0.6666666666666666
  7
00
100
AcDbText
  0
LINE
  5
1A764
330
1AA0B
100
AcDbEntity
  8
SUNPOU
100
AcDbLine
 10
6629.758582955732
 20
1887.433932023015
 30
0.0
 11
6629.758582955732
 21
1898.683932023016
 31
0.0
  0
LINE
  5
1A766
330
1AA0B
100
AcDbEntity
  8
SUNPOU
100
AcDbLine
 10
6629.758582955734
 20
2472.933932023016
 30
0.0
 11
6629.758582955734
 21
2461.683932023015
 31
0.0
  0
TEXT
  5
1A767
330
1AA0B
100
AcDbEntity
  8
SUNPOU
100
AcDbText
 10
6584.758582955732
 20
1706.183932023017
 30
0.0
 40
90.0
  1
100
 50
90.0
 41
0.6666666666666666
  7
00
100
AcDbText
  0
LINE
  5
1A769
330
1AA0B
100
AcDbEntity
  8
SUNPOU
100
AcDbLine
 10
6629.758582955732
 20
1727.433932023016
 30
0.0
 11
6629.758582955732
 21
1738.683932023018
 31
0.0
  0
LINE
  5
1A76B
330
1AA0B
100
AcDbEntity
  8
SUNPOU
100
AcDbLine
 10
6629.758582955732
 20
1864.933932023016
 30
0.0
 11
6629.758582955732
 21
1853.683932023017
 31
0.0
  0
TEXT
  5
1A76C
330
1AA0B
100
AcDbEntity
  8
SUNPOU
100
AcDbText
 10
6384.758582955733
 20
2014.469646308732
 30
0.0
 40
90.0
  1
480
 50
90.0
 41
0.6666666666666666
  7
00
100
AcDbText
  0
LINE
  5
1A76E
330
1AA0B
100
AcDbEntity
  8
SUNPOU
100
AcDbLine
 10
6429.758582955732
 20
1727.433932023016
 30
0.0
 11
6429.758582955732
 21
1738.683932023018
 31
0.0
  0
LINE
  5
1A770
330
1AA0B
100
AcDbEntity
  8
SUNPOU
100
AcDbLine
 10
6429.758582955732
 20
2472.933932023016
 30
0.0
 11
6429.758582955732
 21
2461.683932023015
 31
0.0
  0
TEXT
  5
1A771
330
1AA0B
100
AcDbEntity
  8
SUNPOU
100
AcDbText
 10
7665.044415498295
 20
1424.183932023014
 30
0.0
 40
90.0
  1
800
 41
0.6666666666666666
  7
00
100
AcDbText
  0
LINE
  5
1A773
330
1AA0B
100
AcDbEntity
  8
SUNPOU
100
AcDbLine
 10
8379.508701212579
 20
1379.183932023014
 30
0.0
 11
8368.25870121258
 21
1379.183932023014
 31
0.0
  0
LINE
  5
1A775
330
1AA0B
100
AcDbEntity
  8
SUNPOU
100
AcDbLine
 10
7122.00870121258
 20
1379.183932023014
 30
0.0
 11
7133.258701212581
 21
1379.183932023014
 31
0.0
  0
TEXT
  5
1A776
330
1AA0B
100
AcDbEntity
  8
SUNPOU
100
AcDbText
 10
7632.187272641154
 20
1214.183932023014
 30
0.0
 40
90.0
  1
1000
 41
0.6666666666666666
  7
00
100
AcDbText
  0
LINE
  5
1A778
330
1AA0B
100
AcDbEntity
  8
SUNPOU
100
AcDbLine
 10
8539.508701212579
 20
1169.183932023013
 30
0.0
 11
8528.258701212578
 21
1169.183932023013
 31
0.0
  0
LINE
  5
1A77A
330
1AA0B
100
AcDbEntity
  8
SUNPOU
100
AcDbLine
 10
6962.008701212581
 20
1169.183932023013
 30
0.0
 11
6973.258701212579
 21
1169.183932023013
 31
0.0
  0
TEXT
  5
1A77B
330
1AA0B
100
AcDbEntity
  8
SUNPOU
100
AcDbText
 10
3617.191057523529
 20
1424.183932023016
 30
0.0
 40
90.0
  1
600
 41
0.6666666666666666
  7
00
100
AcDbText
  0
LINE
  5
1A77D
330
1AA0B
100
AcDbEntity
  8
SUNPOU
100
AcDbLine
 10
4173.083914666387
 20
1379.183932023016
 30
0.0
 11
4161.833914666385
 21
1379.183932023016
 31
0.0
  0
LINE
  5
1A77F
330
1AA0B
100
AcDbEntity
  8
SUNPOU
100
AcDbLine
 10
3235.583914666387
 20
1379.183932023016
 30
0.0
 11
3246.833914666386
 21
1379.183932023016
 31
0.0
  0
TEXT
  5
1A780
330
1AA0B
100
AcDbEntity
  8
SUNPOU
100
AcDbText
 10
3618.6196289521
 20
1214.183932023016
 30
0.0
 40
90.0
  1
800
 41
0.6666666666666666
  7
00
100
AcDbText
  0
LINE
  5
1A782
330
1AA0B
100
AcDbEntity
  8
SUNPOU
100
AcDbLine
 10
4333.083914666387
 20
1169.183932023016
 30
0.0
 11
4321.833914666386
 21
1169.183932023016
 31
0.0
  0
LINE
  5
1A784
330
1AA0B
100
AcDbEntity
  8
SUNPOU
100
AcDbLine
 10
3075.583914666387
 20
1169.183932023016
 30
0.0
 11
3086.833914666387
 21
1169.183932023016
 31
0.0
  0
TEXT
  5
1A785
330
1AA0B
100
AcDbEntity
  8
SUNPOU
100
AcDbText
 10
2698.333796409537
 20
2094.469646308734
 30
0.0
 40
90.0
  1
380
 50
90.0
 41
0.6666666666666666
  7
00
100
AcDbText
  0
LINE
  5
1A787
330
1AA0B
100
AcDbEntity
  8
SUNPOU
100
AcDbLine
 10
2743.333796409538
 20
1887.433932023017
 30
0.0
 11
2743.333796409538
 21
1898.683932023017
 31
0.0
  0
LINE
  5
1A789
330
1AA0B
100
AcDbEntity
  8
SUNPOU
100
AcDbLine
 10
2743.333796409538
 20
2472.933932023019
 30
0.0
 11
2743.333796409538
 21
2461.683932023019
 31
0.0
  0
TEXT
  5
1A78A
330
1AA0B
100
AcDbEntity
  8
SUNPOU
100
AcDbText
 10
2698.333796409539
 20
1706.183932023019
 30
0.0
 40
90.0
  1
100
 50
90.0
 41
0.6666666666666666
  7
00
100
AcDbText
  0
LINE
  5
1A78C
330
1AA0B
100
AcDbEntity
  8
SUNPOU
100
AcDbLine
 10
2743.333796409539
 20
1727.43393202302
 30
0.0
 11
2743.333796409539
 21
1738.683932023019
 31
0.0
  0
LINE
  5
1A78E
330
1AA0B
100
AcDbEntity
  8
SUNPOU
100
AcDbLine
 10
2743.333796409539
 20
1864.933932023019
 30
0.0
 11
2743.333796409539
 21
1853.683932023018
 31
0.0
  0
TEXT
  5
1A78F
330
1AA0B
100
AcDbEntity
  8
SUNPOU
100
AcDbText
 10
2498.333796409538
 20
2014.469646308734
 30
0.0
 40
90.0
  1
480
 50
90.0
 41
0.6666666666666666
  7
00
100
AcDbText
  0
LINE
  5
1A791
330
1AA0B
100
AcDbEntity
  8
SUNPOU
100
AcDbLine
 10
2543.333796409538
 20
1727.43393202302
 30
0.0
 11
2543.333796409538
 21
1738.683932023019
 31
0.0
  0
LINE
  5
1A793
330
1AA0B
100
AcDbEntity
  8
SUNPOU
100
AcDbLine
 10
2543.333796409538
 20
2472.933932023019
 30
0.0
 11
2543.333796409538
 21
2461.683932023019
 31
0.0
  0
TEXT
  5
1A794
330
1AA0B
100
AcDbEntity
  8
SUNPOU
100
AcDbText
 10
3298.619628952101
 20
3332.183932023017
 30
0.0
 40
90.0
  1
400
 41
0.6666666666666666
  7
00
100
AcDbText
  0
LINE
  5
1A796
330
1AA0B
100
AcDbEntity
  8
SUNPOU
100
AcDbLine
 10
3075.583914666387
 20
3287.183932023017
 30
0.0
 11
3086.833914666386
 21
3287.183932023017
 31
0.0
  0
LINE
  5
1A798
330
1AA0B
100
AcDbEntity
  8
SUNPOU
100
AcDbLine
 10
3693.083914666386
 20
3287.183932023017
 30
0.0
 11
3681.833914666388
 21
3287.183932023017
 31
0.0
  0
ARC
  5
1A799
330
1AA0B
100
AcDbEntity
  8
SUNPOU
100
AcDbCircle
 10
3704.333914666387
 20
3287.183932023017
 30
0.0
 40
5.625
100
AcDbArc
 50
0.0
 51
180.0
  0
ARC
  5
1A79A
330
1AA0B
100
AcDbEntity
  8
SUNPOU
100
AcDbCircle
 10
3704.333914666387
 20
3287.183932023017
 30
0.0
 40
5.625
100
AcDbArc
 50
180.0
 51
0.0
  0
TEXT
  5
1A79B
330
1AA0B
100
AcDbEntity
  8
SUNPOU
100
AcDbText
 10
10164.21703198606
 20
9360.001074758967
 30
0.0
 40
90.0
  1
300
 50
90.0
 41
0.6666666666666666
  7
00
100
AcDbText
  0
LINE
  5
1A79D
330
1AA0B
100
AcDbEntity
  8
SUNPOU
100
AcDbLine
 10
10209.21703198605
 20
9584.465360473252
 30
0.0
 11
10209.21703198605
 21
9573.215360473252
 31
0.0
  0
LINE
  5
1A79F
330
1AA0B
100
AcDbEntity
  8
SUNPOU
100
AcDbLine
 10
10209.21703198605
 20
9306.965360473252
 30
0.0
 11
10209.21703198605
 21
9318.215360473251
 31
0.0
  0
TEXT
  5
1A7A0
330
1AA0B
100
AcDbEntity
  8
SUNPOU
100
AcDbText
 10
10164.21703198606
 20
8277.143931901827
 30
0.0
 40
90.0
  1
1800
 50
90.0
 41
0.6666666666666666
  7
00
100
AcDbText
  0
LINE
  5
1A7A2
330
1AA0B
100
AcDbEntity
  8
SUNPOU
100
AcDbLine
 10
10209.21703198605
 20
9284.465360473253
 30
0.0
 11
10209.21703198605
 21
9273.215360473249
 31
0.0
  0
LINE
  5
1A7A4
330
1AA0B
100
AcDbEntity
  8
SUNPOU
100
AcDbLine
 10
10209.21703198605
 20
7506.965360473252
 30
0.0
 11
10209.21703198605
 21
7518.215360473252
 31
0.0
  0
TEXT
  5
1A7A5
330
1AA0B
100
AcDbEntity
  8
SUNPOU
100
AcDbText
 10
10164.21703198606
 20
6477.143931901824
 30
0.0
 40
90.0
  1
1800
 50
90.0
 41
0.6666666666666666
  7
00
100
AcDbText
  0
LINE
  5
1A7A7
330
1AA0B
100
AcDbEntity
  8
SUNPOU
100
AcDbLine
 10
10209.21703198605
 20
7484.465360473253
 30
0.0
 11
10209.21703198605
 21
7473.215360473251
 31
0.0
  0
LINE
  5
1A7A9
330
1AA0B
100
AcDbEntity
  8
SUNPOU
100
AcDbLine
 10
10209.21703198605
 20
5706.965360473252
 30
0.0
 11
10209.21703198605
 21
5718.215360473251
 31
0.0
  0
TEXT
  5
1A7AA
330
1AA0B
100
AcDbEntity
  8
SUNPOU
100
AcDbText
 10
10164.21703198606
 20
5460.001074758968
 30
0.0
 40
90.0
  1
300
 50
90.0
 41
0.6666666666666666
  7
00
100
AcDbText
  0
LINE
  5
1A7AC
330
1AA0B
100
AcDbEntity
  8
SUNPOU
100
AcDbLine
 10
10209.21703198605
 20
5684.465360473252
 30
0.0
 11
10209.21703198605
 21
5673.215360473252
 31
0.0
  0
LINE
  5
1A7AE
330
1AA0B
100
AcDbEntity
  8
SUNPOU
100
AcDbLine
 10
10209.21703198605
 20
5406.965360473252
 30
0.0
 11
10209.21703198605
 21
5418.215360473252
 31
0.0
  0
TEXT
  5
1A7AF
330
1AA0B
100
AcDbEntity
  8
SUNPOU
100
AcDbText
 10
10374.21703198605
 20
7381.42964618754
 30
0.0
 40
90.0
  1
4200
 50
90.0
 41
0.6666666666666666
  7
00
100
AcDbText
  0
LINE
  5
1A7B1
330
1AA0B
100
AcDbEntity
  8
SUNPOU
100
AcDbLine
 10
10419.21703198606
 20
9584.465360473252
 30
0.0
 11
10419.21703198606
 21
9573.215360473252
 31
0.0
  0
LINE
  5
1A7B3
330
1AA0B
100
AcDbEntity
  8
SUNPOU
100
AcDbLine
 10
10419.21703198606
 20
5406.965360473251
 30
0.0
 11
10419.21703198606
 21
5418.215360473251
 31
0.0
  0
TEXT
  5
1A7B4
330
1AA0B
100
AcDbEntity
  8
SUNPOU
100
AcDbText
 10
8764.217031986062
 20
7410.001074758969
 30
0.0
 40
90.0
  1
800
 50
90.0
 41
0.6666666666666666
  7
00
100
AcDbText
  0
LINE
  5
1A7B6
330
1AA0B
100
AcDbEntity
  8
SUNPOU
100
AcDbLine
 10
8809.217031986063
 20
7884.465360473253
 30
0.0
 11
8809.217031986063
 21
7873.215360473252
 31
0.0
  0
LINE
  5
1A7B8
330
1AA0B
100
AcDbEntity
  8
SUNPOU
100
AcDbLine
 10
8809.217031986063
 20
7106.965360473252
 30
0.0
 11
8809.217031986063
 21
7118.215360473252
 31
0.0
  0
TEXT
  5
1A7B9
330
1AA0B
100
AcDbEntity
  8
SUNPOU
100
AcDbText
 10
9323.502746271774
 20
8110.715360473252
 30
0.0
 40
90.0
  1
800
 41
0.6666666666666666
  7
00
100
AcDbText
  0
LINE
  5
1A7BB
330
1AA0B
100
AcDbEntity
  8
SUNPOU
100
AcDbLine
 10
9797.967031986061
 20
8065.715360473253
 30
0.0
 11
9786.717031986063
 21
8065.715360473253
 31
0.0
  0
LINE
  5
1A7BD
330
1AA0B
100
AcDbEntity
  8
SUNPOU
100
AcDbLine
 10
9020.46703198606
 20
8065.715360473253
 30
0.0
 11
9031.71703198606
 21
8065.715360473253
 31
0.0
  0
TEXT
  5
1A7BE
330
1AA0B
100
AcDbEntity
  8
SUNPOU
100
AcDbText
 10
8764.217031986062
 20
9208.572503330399
 30
0.0
 40
90.0
  1
600
 50
90.0
 41
0.6666666666666666
  7
00
100
AcDbText
  0
LINE
  5
1A7C0
330
1AA0B
100
AcDbEntity
  8
SUNPOU
100
AcDbLine
 10
8809.217031986063
 20
9006.965360473252
 30
0.0
 11
8809.217031986063
 21
9018.215360473252
 31
0.0
  0
LINE
  5
1A7C2
330
1AA0B
100
AcDbEntity
  8
SUNPOU
100
AcDbLine
 10
8809.217031986063
 20
9584.465360473252
 30
0.0
 11
8809.217031986063
 21
9573.215360473252
 31
0.0
  0
TEXT
  5
1A7C3
330
1AA0B
100
AcDbEntity
  8
SUNPOU
100
AcDbText
 10
9322.074174843205
 20
8740.715360473252
 30
0.0
 40
90.0
  1
600
 41
0.6666666666666666
  7
00
100
AcDbText
  0
LINE
  5
1A7C5
330
1AA0B
100
AcDbEntity
  8
SUNPOU
100
AcDbLine
 10
9697.967031986067
 20
8695.715360473252
 30
0.0
 11
9686.717031986065
 21
8695.715360473252
 31
0.0
  0
LINE
  5
1A7C7
330
1AA0B
100
AcDbEntity
  8
SUNPOU
100
AcDbLine
 10
9120.467031986065
 20
8695.715360473252
 30
0.0
 11
9131.717031986065
 21
8695.715360473252
 31
0.0
  0
TEXT
  5
1A7C8
330
1AA0B
100
AcDbEntity
  8
SUNPOU
100
AcDbText
 10
9523.502746271773
 20
10040.71536047325
 30
0.0
 40
90.0
  1
400
 41
0.6666666666666666
  7
00
100
AcDbText
  0
LINE
  5
1A7CA
330
1AA0B
100
AcDbEntity
  8
SUNPOU
100
AcDbLine
 10
9797.967031986061
 20
9995.715360473255
 30
0.0
 11
9786.717031986063
 21
9995.715360473255
 31
0.0
  0
LINE
  5
1A7CC
330
1AA0B
100
AcDbEntity
  8
SUNPOU
100
AcDbLine
 10
9420.46703198606
 20
9995.715360473255
 30
0.0
 11
9431.717031986059
 21
9995.715360473255
 31
0.0
  0
TEXT
  5
1A7CD
330
1AA0B
100
AcDbEntity
  8
SUNPOU
100
AcDbText
 10
8069.931317700344
 20
10250.71536047325
 30
0.0
 40
90.0
  1
3250
 41
0.6666666666666666
  7
00
100
AcDbText
  0
LINE
  5
1A7CF
330
1AA0B
100
AcDbEntity
  8
SUNPOU
100
AcDbLine
 10
9797.967031986061
 20
10205.71536047325
 30
0.0
 11
9786.717031986063
 21
10205.71536047325
 31
0.0
  0
LINE
  5
1A7D1
330
1AA0B
100
AcDbEntity
  8
SUNPOU
100
AcDbLine
 10
6570.467031986059
 20
10205.71536047325
 30
0.0
 11
6581.717031986059
 21
10205.71536047325
 31
0.0
  0
TEXT
  5
1A7D2
330
1AA0B
100
AcDbEntity
  8
SUNPOU
100
AcDbText
 10
8069.931317700344
 20
10040.71536047325
 30
0.0
 40
90.0
  1
2450
 41
0.6666666666666666
  7
00
100
AcDbText
  0
LINE
  5
1A7D4
330
1AA0B
100
AcDbEntity
  8
SUNPOU
100
AcDbLine
 10
6970.46703198606
 20
9995.715360473255
 30
0.0
 11
6981.717031986059
 21
9995.715360473255
 31
0.0
  0
LINE
  5
1A7D6
330
1AA0B
100
AcDbEntity
  8
SUNPOU
100
AcDbLine
 10
9397.967031986061
 20
9995.715360473255
 30
0.0
 11
9386.71703198606
 21
9995.715360473255
 31
0.0
  0
TEXT
  5
1A7D7
330
1AA0B
100
AcDbEntity
  8
SUNPOU
100
AcDbText
 10
6673.502746271774
 20
10040.71536047325
 30
0.0
 40
90.0
  1
400
 41
0.6666666666666666
  7
00
100
AcDbText
  0
LINE
  5
1A7D9
330
1AA0B
100
AcDbEntity
  8
SUNPOU
100
AcDbLine
 10
6570.467031986059
 20
9995.715360473255
 30
0.0
 11
6581.717031986059
 21
9995.715360473255
 31
0.0
  0
LINE
  5
1A7DB
330
1AA0B
100
AcDbEntity
  8
SUNPOU
100
AcDbLine
 10
6947.96703198606
 20
9995.715360473255
 30
0.0
 11
6936.71703198606
 21
9995.715360473255
 31
0.0
  0
ARC
  5
1A7DC
330
1AA0B
100
AcDbEntity
  8
SUNPOU
100
AcDbCircle
 10
7110.758701212581
 20
3287.183932023014
 30
0.0
 40
5.625
100
AcDbArc
 50
0.0
 51
180.0
  0
ARC
  5
1A7DD
330
1AA0B
100
AcDbEntity
  8
SUNPOU
100
AcDbCircle
 10
7110.758701212581
 20
3287.183932023014
 30
0.0
 40
5.625
100
AcDbArc
 50
180.0
 51
0.0
  0
ARC
  5
1A7DE
330
1AA0B
100
AcDbEntity
  8
SUNPOU
100
AcDbCircle
 10
7750.758701212581
 20
3287.183932023014
 30
0.0
 40
5.625
100
AcDbArc
 50
180.0
 51
0.0
  0
ARC
  5
1A7DF
330
1AA0B
100
AcDbEntity
  8
SUNPOU
100
AcDbCircle
 10
7750.758701212581
 20
3287.183932023014
 30
0.0
 40
5.625
100
AcDbArc
 50
0.0
 51
180.0
  0
ARC
  5
1A7E0
330
1AA0B
100
AcDbEntity
  8
SUNPOU
100
AcDbCircle
 10
6629.758582955732
 20
1876.183932023016
 30
0.0
 40
5.625
100
AcDbArc
 50
90.0
 51
270.0
  0
ARC
  5
1A7E1
330
1AA0B
100
AcDbEntity
  8
SUNPOU
100
AcDbCircle
 10
6629.758582955732
 20
1876.183932023016
 30
0.0
 40
5.625
100
AcDbArc
 50
270.0
 51
90.0
  0
ARC
  5
1A7E2
330
1AA0B
100
AcDbEntity
  8
SUNPOU
100
AcDbCircle
 10
6629.758582955734
 20
2484.183932023016
 30
0.0
 40
5.625
100
AcDbArc
 50
270.0
 51
90.0
  0
ARC
  5
1A7E3
330
1AA0B
100
AcDbEntity
  8
SUNPOU
100
AcDbCircle
 10
6629.758582955734
 20
2484.183932023016
 30
0.0
 40
5.625
100
AcDbArc
 50
90.0
 51
270.0
  0
ARC
  5
1A7E4
330
1AA0B
100
AcDbEntity
  8
SUNPOU
100
AcDbCircle
 10
6629.758582955732
 20
1716.183932023017
 30
0.0
 40
5.625
100
AcDbArc
 50
90.0
 51
270.0
  0
ARC
  5
1A7E5
330
1AA0B
100
AcDbEntity
  8
SUNPOU
100
AcDbCircle
 10
6629.758582955732
 20
1716.183932023017
 30
0.0
 40
5.625
100
AcDbArc
 50
270.0
 51
90.0
  0
ARC
  5
1A7E6
330
1AA0B
100
AcDbEntity
  8
SUNPOU
100
AcDbCircle
 10
6629.758582955732
 20
1876.183932023018
 30
0.0
 40
5.625
100
AcDbArc
 50
270.0
 51
90.0
  0
ARC
  5
1A7E7
330
1AA0B
100
AcDbEntity
  8
SUNPOU
100
AcDbCircle
 10
6629.758582955732
 20
1876.183932023018
 30
0.0
 40
5.625
100
AcDbArc
 50
90.0
 51
270.0
  0
ARC
  5
1A7E8
330
1AA0B
100
AcDbEntity
  8
SUNPOU
100
AcDbCircle
 10
6429.758582955732
 20
1716.183932023017
 30
0.0
 40
5.625
100
AcDbArc
 50
90.0
 51
270.0
  0
ARC
  5
1A7E9
330
1AA0B
100
AcDbEntity
  8
SUNPOU
100
AcDbCircle
 10
6429.758582955732
 20
1716.183932023017
 30
0.0
 40
5.625
100
AcDbArc
 50
270.0
 51
90.0
  0
ARC
  5
1A7EA
330
1AA0B
100
AcDbEntity
  8
SUNPOU
100
AcDbCircle
 10
6429.758582955732
 20
2484.183932023016
 30
0.0
 40
5.625
100
AcDbArc
 50
270.0
 51
90.0
  0
ARC
  5
1A7EB
330
1AA0B
100
AcDbEntity
  8
SUNPOU
100
AcDbCircle
 10
6429.758582955732
 20
2484.183932023016
 30
0.0
 40
5.625
100
AcDbArc
 50
90.0
 51
270.0
  0
ARC
  5
1A7EC
330
1AA0B
100
AcDbEntity
  8
SUNPOU
100
AcDbCircle
 10
8390.758701212579
 20
1379.183932023014
 30
0.0
 40
5.625
100
AcDbArc
 50
180.0
 51
0.0
  0
ARC
  5
1A7ED
330
1AA0B
100
AcDbEntity
  8
SUNPOU
100
AcDbCircle
 10
8390.758701212579
 20
1379.183932023014
 30
0.0
 40
5.625
100
AcDbArc
 50
0.0
 51
180.0
  0
ARC
  5
1A7EE
330
1AA0B
100
AcDbEntity
  8
SUNPOU
100
AcDbCircle
 10
7110.758701212581
 20
1379.183932023014
 30
0.0
 40
5.625
100
AcDbArc
 50
0.0
 51
180.0
  0
ARC
  5
1A7EF
330
1AA0B
100
AcDbEntity
  8
SUNPOU
100
AcDbCircle
 10
7110.758701212581
 20
1379.183932023014
 30
0.0
 40
5.625
100
AcDbArc
 50
180.0
 51
0.0
  0
ARC
  5
1A7F0
330
1AA0B
100
AcDbEntity
  8
SUNPOU
100
AcDbCircle
 10
8550.758701212577
 20
1169.183932023013
 30
0.0
 40
5.625
100
AcDbArc
 50
180.0
 51
0.0
  0
ARC
  5
1A7F1
330
1AA0B
100
AcDbEntity
  8
SUNPOU
100
AcDbCircle
 10
8550.758701212577
 20
1169.183932023013
 30
0.0
 40
5.625
100
AcDbArc
 50
0.0
 51
180.0
  0
ARC
  5
1A7F2
330
1AA0B
100
AcDbEntity
  8
SUNPOU
100
AcDbCircle
 10
6950.758701212581
 20
1169.183932023013
 30
0.0
 40
5.625
100
AcDbArc
 50
0.0
 51
180.0
  0
ARC
  5
1A7F3
330
1AA0B
100
AcDbEntity
  8
SUNPOU
100
AcDbCircle
 10
6950.758701212581
 20
1169.183932023013
 30
0.0
 40
5.625
100
AcDbArc
 50
180.0
 51
0.0
  0
ARC
  5
1A7F4
330
1AA0B
100
AcDbEntity
  8
SUNPOU
100
AcDbCircle
 10
4184.333914666385
 20
1379.183932023016
 30
0.0
 40
5.625
100
AcDbArc
 50
180.0
 51
0.0
  0
ARC
  5
1A7F5
330
1AA0B
100
AcDbEntity
  8
SUNPOU
100
AcDbCircle
 10
4184.333914666385
 20
1379.183932023016
 30
0.0
 40
5.625
100
AcDbArc
 50
0.0
 51
180.0
  0
ARC
  5
1A7F6
330
1AA0B
100
AcDbEntity
  8
SUNPOU
100
AcDbCircle
 10
3224.333914666386
 20
1379.183932023016
 30
0.0
 40
5.625
100
AcDbArc
 50
0.0
 51
180.0
  0
ARC
  5
1A7F7
330
1AA0B
100
AcDbEntity
  8
SUNPOU
100
AcDbCircle
 10
3224.333914666386
 20
1379.183932023016
 30
0.0
 40
5.625
100
AcDbArc
 50
180.0
 51
0.0
  0
ARC
  5
1A7F8
330
1AA0B
100
AcDbEntity
  8
SUNPOU
100
AcDbCircle
 10
4344.333914666385
 20
1169.183932023016
 30
0.0
 40
5.625
100
AcDbArc
 50
180.0
 51
0.0
  0
ARC
  5
1A7F9
330
1AA0B
100
AcDbEntity
  8
SUNPOU
100
AcDbCircle
 10
4344.333914666385
 20
1169.183932023016
 30
0.0
 40
5.625
100
AcDbArc
 50
0.0
 51
180.0
  0
ARC
  5
1A7FA
330
1AA0B
100
AcDbEntity
  8
SUNPOU
100
AcDbCircle
 10
3064.333914666386
 20
1169.183932023016
 30
0.0
 40
5.625
100
AcDbArc
 50
0.0
 51
180.0
  0
ARC
  5
1A7FB
330
1AA0B
100
AcDbEntity
  8
SUNPOU
100
AcDbCircle
 10
3064.333914666386
 20
1169.183932023016
 30
0.0
 40
5.625
100
AcDbArc
 50
180.0
 51
0.0
  0
ARC
  5
1A7FC
330
1AA0B
100
AcDbEntity
  8
SUNPOU
100
AcDbCircle
 10
2743.333796409538
 20
1876.183932023018
 30
0.0
 40
5.625
100
AcDbArc
 50
90.0
 51
270.0
  0
ARC
  5
1A7FD
330
1AA0B
100
AcDbEntity
  8
SUNPOU
100
AcDbCircle
 10
2743.333796409538
 20
1876.183932023018
 30
0.0
 40
5.625
100
AcDbArc
 50
270.0
 51
90.0
  0
ARC
  5
1A7FE
330
1AA0B
100
AcDbEntity
  8
SUNPOU
100
AcDbCircle
 10
2743.333796409538
 20
2484.183932023019
 30
0.0
 40
5.625
100
AcDbArc
 50
270.0
 51
90.0
  0
ARC
  5
1A7FF
330
1AA0B
100
AcDbEntity
  8
SUNPOU
100
AcDbCircle
 10
2743.333796409538
 20
2484.183932023019
 30
0.0
 40
5.625
100
AcDbArc
 50
90.0
 51
270.0
  0
ARC
  5
1A800
330
1AA0B
100
AcDbEntity
  8
SUNPOU
100
AcDbCircle
 10
2743.333796409539
 20
1716.18393202302
 30
0.0
 40
5.625
100
AcDbArc
 50
90.0
 51
270.0
  0
ARC
  5
1A801
330
1AA0B
100
AcDbEntity
  8
SUNPOU
100
AcDbCircle
 10
2743.333796409539
 20
1716.18393202302
 30
0.0
 40
5.625
100
AcDbArc
 50
270.0
 51
90.0
  0
ARC
  5
1A802
330
1AA0B
100
AcDbEntity
  8
SUNPOU
100
AcDbCircle
 10
2743.333796409539
 20
1876.183932023019
 30
0.0
 40
5.625
100
AcDbArc
 50
270.0
 51
90.0
  0
ARC
  5
1A803
330
1AA0B
100
AcDbEntity
  8
SUNPOU
100
AcDbCircle
 10
2743.333796409539
 20
1876.183932023019
 30
0.0
 40
5.625
100
AcDbArc
 50
90.0
 51
270.0
  0
ARC
  5
1A804
330
1AA0B
100
AcDbEntity
  8
SUNPOU
100
AcDbCircle
 10
2543.333796409538
 20
1716.18393202302
 30
0.0
 40
5.625
100
AcDbArc
 50
90.0
 51
270.0
  0
ARC
  5
1A805
330
1AA0B
100
AcDbEntity
  8
SUNPOU
100
AcDbCircle
 10
2543.333796409538
 20
1716.18393202302
 30
0.0
 40
5.625
100
AcDbArc
 50
270.0
 51
90.0
  0
ARC
  5
1A806
330
1AA0B
100
AcDbEntity
  8
SUNPOU
100
AcDbCircle
 10
2543.333796409538
 20
2484.183932023019
 30
0.0
 40
5.625
100
AcDbArc
 50
270.0
 51
90.0
  0
ARC
  5
1A807
330
1AA0B
100
AcDbEntity
  8
SUNPOU
100
AcDbCircle
 10
2543.333796409538
 20
2484.183932023019
 30
0.0
 40
5.625
100
AcDbArc
 50
90.0
 51
270.0
  0
ARC
  5
1A808
330
1AA0B
100
AcDbEntity
  8
SUNPOU
100
AcDbCircle
 10
3064.333914666386
 20
3287.183932023017
 30
0.0
 40
5.625
100
AcDbArc
 50
0.0
 51
180.0
  0
ARC
  5
1A809
330
1AA0B
100
AcDbEntity
  8
SUNPOU
100
AcDbCircle
 10
3064.333914666386
 20
3287.183932023017
 30
0.0
 40
5.625
100
AcDbArc
 50
180.0
 51
0.0
  0
ARC
  5
1A80A
330
1AA0B
100
AcDbEntity
  8
SUNPOU
100
AcDbCircle
 10
3704.333914666387
 20
3287.183932023017
 30
0.0
 40
5.625
100
AcDbArc
 50
180.0
 51
0.0
  0
ARC
  5
1A80B
330
1AA0B
100
AcDbEntity
  8
SUNPOU
100
AcDbCircle
 10
3704.333914666387
 20
3287.183932023017
 30
0.0
 40
5.625
100
AcDbArc
 50
0.0
 51
180.0
  0
ARC
  5
1A80C
330
1AA0B
100
AcDbEntity
  8
SUNPOU
100
AcDbCircle
 10
10209.21703198605
 20
9595.715360473255
 30
0.0
 40
5.625
100
AcDbArc
 50
270.0
 51
90.0
  0
ARC
  5
1A80D
330
1AA0B
100
AcDbEntity
  8
SUNPOU
100
AcDbCircle
 10
10209.21703198605
 20
9595.715360473255
 30
0.0
 40
5.625
100
AcDbArc
 50
90.0
 51
270.0
  0
ARC
  5
1A80E
330
1AA0B
100
AcDbEntity
  8
SUNPOU
100
AcDbCircle
 10
10209.21703198605
 20
9295.715360473252
 30
0.0
 40
5.625
100
AcDbArc
 50
90.0
 51
270.0
  0
ARC
  5
1A80F
330
1AA0B
100
AcDbEntity
  8
SUNPOU
100
AcDbCircle
 10
10209.21703198605
 20
9295.715360473252
 30
0.0
 40
5.625
100
AcDbArc
 50
270.0
 51
90.0
  0
ARC
  5
1A810
330
1AA0B
100
AcDbEntity
  8
SUNPOU
100
AcDbCircle
 10
10209.21703198605
 20
9295.715360473252
 30
0.0
 40
5.625
100
AcDbArc
 50
270.0
 51
90.0
  0
ARC
  5
1A811
330
1AA0B
100
AcDbEntity
  8
SUNPOU
100
AcDbCircle
 10
10209.21703198605
 20
9295.715360473252
 30
0.0
 40
5.625
100
AcDbArc
 50
90.0
 51
270.0
  0
ARC
  5
1A812
330
1AA0B
100
AcDbEntity
  8
SUNPOU
100
AcDbCircle
 10
10209.21703198605
 20
7495.715360473252
 30
0.0
 40
5.625
100
AcDbArc
 50
90.0
 51
270.0
  0
ARC
  5
1A813
330
1AA0B
100
AcDbEntity
  8
SUNPOU
100
AcDbCircle
 10
10209.21703198605
 20
7495.715360473252
 30
0.0
 40
5.625
100
AcDbArc
 50
270.0
 51
90.0
  0
ARC
  5
1A814
330
1AA0B
100
AcDbEntity
  8
SUNPOU
100
AcDbCircle
 10
10209.21703198605
 20
7495.715360473252
 30
0.0
 40
5.625
100
AcDbArc
 50
270.0
 51
90.0
  0
ARC
  5
1A815
330
1AA0B
100
AcDbEntity
  8
SUNPOU
100
AcDbCircle
 10
10209.21703198605
 20
7495.715360473252
 30
0.0
 40
5.625
100
AcDbArc
 50
90.0
 51
270.0
  0
ARC
  5
1A816
330
1AA0B
100
AcDbEntity
  8
SUNPOU
100
AcDbCircle
 10
10209.21703198605
 20
5695.715360473252
 30
0.0
 40
5.625
100
AcDbArc
 50
90.0
 51
270.0
  0
ARC
  5
1A817
330
1AA0B
100
AcDbEntity
  8
SUNPOU
100
AcDbCircle
 10
10209.21703198605
 20
5695.715360473252
 30
0.0
 40
5.625
100
AcDbArc
 50
270.0
 51
90.0
  0
ARC
  5
1A818
330
1AA0B
100
AcDbEntity
  8
SUNPOU
100
AcDbCircle
 10
10209.21703198605
 20
5695.715360473252
 30
0.0
 40
5.625
100
AcDbArc
 50
270.0
 51
90.0
  0
ARC
  5
1A819
330
1AA0B
100
AcDbEntity
  8
SUNPOU
100
AcDbCircle
 10
10209.21703198605
 20
5695.715360473252
 30
0.0
 40
5.625
100
AcDbArc
 50
90.0
 51
270.0
  0
ARC
  5
1A81A
330
1AA0B
100
AcDbEntity
  8
SUNPOU
100
AcDbCircle
 10
10209.21703198605
 20
5395.715360473253
 30
0.0
 40
5.625
100
AcDbArc
 50
90.0
 51
270.0
  0
ARC
  5
1A81B
330
1AA0B
100
AcDbEntity
  8
SUNPOU
100
AcDbCircle
 10
10209.21703198605
 20
5395.715360473253
 30
0.0
 40
5.625
100
AcDbArc
 50
270.0
 51
90.0
  0
ARC
  5
1A81C
330
1AA0B
100
AcDbEntity
  8
SUNPOU
100
AcDbCircle
 10
10419.21703198606
 20
9595.715360473255
 30
0.0
 40
5.625
100
AcDbArc
 50
270.0
 51
90.0
  0
ARC
  5
1A81D
330
1AA0B
100
AcDbEntity
  8
SUNPOU
100
AcDbCircle
 10
10419.21703198606
 20
9595.715360473255
 30
0.0
 40
5.625
100
AcDbArc
 50
90.0
 51
270.0
  0
ARC
  5
1A81E
330
1AA0B
100
AcDbEntity
  8
SUNPOU
100
AcDbCircle
 10
10419.21703198606
 20
5395.715360473251
 30
0.0
 40
5.625
100
AcDbArc
 50
90.0
 51
270.0
  0
ARC
  5
1A81F
330
1AA0B
100
AcDbEntity
  8
SUNPOU
100
AcDbCircle
 10
10419.21703198606
 20
5395.715360473251
 30
0.0
 40
5.625
100
AcDbArc
 50
270.0
 51
90.0
  0
ARC
  5
1A820
330
1AA0B
100
AcDbEntity
  8
SUNPOU
100
AcDbCircle
 10
8809.217031986063
 20
7895.715360473253
 30
0.0
 40
5.625
100
AcDbArc
 50
270.0
 51
90.0
  0
ARC
  5
1A821
330
1AA0B
100
AcDbEntity
  8
SUNPOU
100
AcDbCircle
 10
8809.217031986063
 20
7895.715360473253
 30
0.0
 40
5.625
100
AcDbArc
 50
90.0
 51
270.0
  0
ARC
  5
1A822
330
1AA0B
100
AcDbEntity
  8
SUNPOU
100
AcDbCircle
 10
8809.217031986063
 20
7095.715360473253
 30
0.0
 40
5.625
100
AcDbArc
 50
90.0
 51
270.0
  0
ARC
  5
1A823
330
1AA0B
100
AcDbEntity
  8
SUNPOU
100
AcDbCircle
 10
8809.217031986063
 20
7095.715360473253
 30
0.0
 40
5.625
100
AcDbArc
 50
270.0
 51
90.0
  0
ARC
  5
1A824
330
1AA0B
100
AcDbEntity
  8
SUNPOU
100
AcDbCircle
 10
9809.21703198606
 20
8065.715360473253
 30
0.0
 40
5.625
100
AcDbArc
 50
180.0
 51
0.0
  0
ARC
  5
1A825
330
1AA0B
100
AcDbEntity
  8
SUNPOU
100
AcDbCircle
 10
9809.21703198606
 20
8065.715360473253
 30
0.0
 40
5.625
100
AcDbArc
 50
0.0
 51
180.0
  0
ARC
  5
1A826
330
1AA0B
100
AcDbEntity
  8
SUNPOU
100
AcDbCircle
 10
9009.217031986059
 20
8065.715360473253
 30
0.0
 40
5.625
100
AcDbArc
 50
0.0
 51
180.0
  0
ARC
  5
1A827
330
1AA0B
100
AcDbEntity
  8
SUNPOU
100
AcDbCircle
 10
9009.217031986059
 20
8065.715360473253
 30
0.0
 40
5.625
100
AcDbArc
 50
180.0
 51
0.0
  0
ARC
  5
1A828
330
1AA0B
100
AcDbEntity
  8
SUNPOU
100
AcDbCircle
 10
8809.217031986063
 20
8995.715360473253
 30
0.0
 40
5.625
100
AcDbArc
 50
90.0
 51
270.0
  0
ARC
  5
1A829
330
1AA0B
100
AcDbEntity
  8
SUNPOU
100
AcDbCircle
 10
8809.217031986063
 20
8995.715360473253
 30
0.0
 40
5.625
100
AcDbArc
 50
270.0
 51
90.0
  0
ARC
  5
1A82A
330
1AA0B
100
AcDbEntity
  8
SUNPOU
100
AcDbCircle
 10
8809.217031986063
 20
9595.715360473255
 30
0.0
 40
5.625
100
AcDbArc
 50
270.0
 51
90.0
  0
ARC
  5
1A82B
330
1AA0B
100
AcDbEntity
  8
SUNPOU
100
AcDbCircle
 10
8809.217031986063
 20
9595.715360473255
 30
0.0
 40
5.625
100
AcDbArc
 50
90.0
 51
270.0
  0
ARC
  5
1A82C
330
1AA0B
100
AcDbEntity
  8
SUNPOU
100
AcDbCircle
 10
9709.217031986066
 20
8695.715360473252
 30
0.0
 40
5.625
100
AcDbArc
 50
180.0
 51
0.0
  0
ARC
  5
1A82D
330
1AA0B
100
AcDbEntity
  8
SUNPOU
100
AcDbCircle
 10
9709.217031986066
 20
8695.715360473252
 30
0.0
 40
5.625
100
AcDbArc
 50
0.0
 51
180.0
  0
ARC
  5
1A82E
330
1AA0B
100
AcDbEntity
  8
SUNPOU
100
AcDbCircle
 10
9109.217031986066
 20
8695.715360473252
 30
0.0
 40
5.625
100
AcDbArc
 50
0.0
 51
180.0
  0
ARC
  5
1A82F
330
1AA0B
100
AcDbEntity
  8
SUNPOU
100
AcDbCircle
 10
9109.217031986066
 20
8695.715360473252
 30
0.0
 40
5.625
100
AcDbArc
 50
180.0
 51
0.0
  0
ARC
  5
1A830
330
1AA0B
100
AcDbEntity
  8
SUNPOU
100
AcDbCircle
 10
9809.21703198606
 20
9995.715360473255
 30
0.0
 40
5.625
100
AcDbArc
 50
180.0
 51
0.0
  0
ARC
  5
1A831
330
1AA0B
100
AcDbEntity
  8
SUNPOU
100
AcDbCircle
 10
9809.21703198606
 20
9995.715360473255
 30
0.0
 40
5.625
100
AcDbArc
 50
0.0
 51
180.0
  0
ARC
  5
1A832
330
1AA0B
100
AcDbEntity
  8
SUNPOU
100
AcDbCircle
 10
9409.217031986059
 20
9995.715360473255
 30
0.0
 40
5.625
100
AcDbArc
 50
0.0
 51
180.0
  0
ARC
  5
1A833
330
1AA0B
100
AcDbEntity
  8
SUNPOU
100
AcDbCircle
 10
9409.217031986059
 20
9995.715360473255
 30
0.0
 40
5.625
100
AcDbArc
 50
180.0
 51
0.0
  0
ARC
  5
1A834
330
1AA0B
100
AcDbEntity
  8
SUNPOU
100
AcDbCircle
 10
9809.21703198606
 20
10205.71536047325
 30
0.0
 40
5.625
100
AcDbArc
 50
180.0
 51
0.0
  0
ARC
  5
1A835
330
1AA0B
100
AcDbEntity
  8
SUNPOU
100
AcDbCircle
 10
9809.21703198606
 20
10205.71536047325
 30
0.0
 40
5.625
100
AcDbArc
 50
0.0
 51
180.0
  0
ARC
  5
1A836
330
1AA0B
100
AcDbEntity
  8
SUNPOU
100
AcDbCircle
 10
6559.21703198606
 20
10205.71536047325
 30
0.0
 40
5.625
100
AcDbArc
 50
0.0
 51
180.0
  0
ARC
  5
1A837
330
1AA0B
100
AcDbEntity
  8
SUNPOU
100
AcDbCircle
 10
6559.21703198606
 20
10205.71536047325
 30
0.0
 40
5.625
100
AcDbArc
 50
180.0
 51
0.0
  0
ARC
  5
1A838
330
1AA0B
100
AcDbEntity
  8
SUNPOU
100
AcDbCircle
 10
6959.21703198606
 20
9995.715360473255
 30
0.0
 40
5.625
100
AcDbArc
 50
0.0
 51
180.0
  0
ARC
  5
1A839
330
1AA0B
100
AcDbEntity
  8
SUNPOU
100
AcDbCircle
 10
6959.21703198606
 20
9995.715360473255
 30
0.0
 40
5.625
100
AcDbArc
 50
180.0
 51
0.0
  0
ARC
  5
1A83A
330
1AA0B
100
AcDbEntity
  8
SUNPOU
100
AcDbCircle
 10
9409.217031986059
 20
9995.715360473255
 30
0.0
 40
5.625
100
AcDbArc
 50
180.0
 51
0.0
  0
ARC
  5
1A83B
330
1AA0B
100
AcDbEntity
  8
SUNPOU
100
AcDbCircle
 10
9409.217031986059
 20
9995.715360473255
 30
0.0
 40
5.625
100
AcDbArc
 50
0.0
 51
180.0
  0
ARC
  5
1A83C
330
1AA0B
100
AcDbEntity
  8
SUNPOU
100
AcDbCircle
 10
6559.21703198606
 20
9995.715360473255
 30
0.0
 40
5.625
100
AcDbArc
 50
0.0
 51
180.0
  0
ARC
  5
1A83D
330
1AA0B
100
AcDbEntity
  8
SUNPOU
100
AcDbCircle
 10
6559.21703198606
 20
9995.715360473255
 30
0.0
 40
5.625
100
AcDbArc
 50
180.0
 51
0.0
  0
ARC
  5
1A83E
330
1AA0B
100
AcDbEntity
  8
SUNPOU
100
AcDbCircle
 10
6959.21703198606
 20
9995.715360473255
 30
0.0
 40
5.625
100
AcDbArc
 50
180.0
 51
0.0
  0
ARC
  5
1A83F
330
1AA0B
100
AcDbEntity
  8
SUNPOU
100
AcDbCircle
 10
6959.21703198606
 20
9995.715360473255
 30
0.0
 40
5.625
100
AcDbArc
 50
0.0
 51
180.0
  0
ARC
  5
1A845
330
1AA0B
100
AcDbEntity
  8
HIKIDASHI
100
AcDbCircle
 10
7034.163526321627
 20
2884.568660545874
 30
0.0
 40
74.66417910452284
100
AcDbArc
 50
164.8596129850915
 51
237.5045002941574
  0
ARC
  5
1A846
330
1AA0B
100
AcDbEntity
  8
HIKIDASHI
100
AcDbCircle
 10
6970.739732275323
 20
2901.729684030359
 30
0.0
 40
8.959701492542743
100
AcDbArc
 50
15.14038701504826
 51
164.8596129849796
  0
ARC
  5
1A854
330
1AA0B
100
AcDbEntity
  8
HIKIDASHI
100
AcDbCircle
 10
2907.738739775433
 20
2884.568660545875
 30
0.0
 40
74.66417910452284
100
AcDbArc
 50
164.859612985099
 51
237.5045002941329
  0
ARC
  5
1A855
330
1AA0B
100
AcDbEntity
  8
HIKIDASHI
100
AcDbCircle
 10
2844.314945729129
 20
2901.72968403036
 30
0.0
 40
8.959701492542743
100
AcDbArc
 50
15.14038701504826
 51
164.8596129849796
  0
LINE
  5
1A856
330
1AA0B
100
AcDbEntity
  8
HIKIDASHI
100
AcDbLine
 10
7373.188673061545
 20
2549.657897273409
 30
0.0
 11
7061.08797807352
 21
2994.183932023012
 31
0.0
1001
ACAD
1000
DSTYLE
1002
{
1070
   147
1040
1.0
1070
    77
1070
     0
1070
   144
1040
0.625
1002
}
  0
LINE
  5
1A857
330
1AA0B
100
AcDbEntity
  8
HIKIDASHI
100
AcDbLine
 10
7362.276345519815
 20
2541.996377489466
 30
0.0
 11
7419.1577917652
 21
2484.183932023018
 31
0.0
  0
LINE
  5
1A858
330
1AA0B
100
AcDbEntity
  8
HIKIDASHI
100
AcDbLine
 10
7419.1577917652
 20
2484.183932023018
 30
0.0
 11
7384.101000603279
 21
2557.319417057351
 31
0.0
  0
SOLID
  5
1A859
330
1AA0B
100
AcDbEntity
  8
HIKIDASHI
100
AcDbTrace
 10
7362.276345519815
 20
2541.996377489466
 30
0.0
 11
7384.101000603279
 21
2557.319417057351
 31
0.0
 12
7419.1577917652
 22
2484.183932023018
 32
0.0
 13
7419.1577917652
 23
2484.183932023018
 33
0.0
  0
LINE
  5
1A85A
330
1AA0B
100
AcDbEntity
  8
HIKIDASHI
100
AcDbLine
 10
7384.101000603279
 20
2557.319417057351
 30
0.0
 11
7362.276345519815
 21
2541.996377489466
 31
0.0
  0
LINE
  5
1A85B
330
1AA0B
100
AcDbEntity
  8
HIKIDASHI
100
AcDbLine
 10
7528.904070814292
 20
2046.342848554361
 30
0.0
 11
7047.682504043535
 21
2754.183932023012
 31
0.0
1001
ACAD
1000
DSTYLE
1002
{
1070
   147
1040
1.0
1070
    77
1070
     0
1070
   144
1040
0.625
1002
}
  0
LINE
  5
1A85C
330
1AA0B
100
AcDbEntity
  8
HIKIDASHI
100
AcDbLine
 10
7517.877584725734
 20
2038.846557316913
 30
0.0
 11
7573.881818238977
 21
1980.183932023017
 31
0.0
  0
LINE
  5
1A85D
330
1AA0B
100
AcDbEntity
  8
HIKIDASHI
100
AcDbLine
 10
7573.881818238977
 20
1980.183932023017
 30
0.0
 11
7539.93055690285
 21
2053.839139791807
 31
0.0
  0
SOLID
  5
1A85E
330
1AA0B
100
AcDbEntity
  8
HIKIDASHI
100
AcDbTrace
 10
7517.877584725734
 20
2038.846557316913
 30
0.0
 11
7539.93055690285
 21
2053.839139791807
 31
0.0
 12
7573.881818238977
 22
1980.183932023017
 32
0.0
 13
7573.881818238977
 23
1980.183932023017
 33
0.0
  0
LINE
  5
1A85F
330
1AA0B
100
AcDbEntity
  8
HIKIDASHI
100
AcDbLine
 10
7539.93055690285
 20
2053.839139791807
 30
0.0
 11
7517.877584725734
 21
2038.846557316913
 31
0.0
  0
ARC
  5
1A860
330
1AA0B
100
AcDbEntity
  8
HIKIDASHI
100
AcDbCircle
 10
6908.495464764756
 20
2885.748787905465
 30
0.0
 40
74.66417910452252
100
AcDbArc
 50
301.7712278330703
 51
15.14038701490934
  0
LINE
  5
1A861
330
1AA0B
100
AcDbEntity
  8
HIKIDASHI
100
AcDbLine
 10
6916.549902271177
 20
1707.866865745501
 30
0.0
 11
6725.592096228623
 21
1304.183932023017
 31
0.0
1001
ACAD
1000
DSTYLE
1002
{
1070
   147
1040
1.0
1070
    77
1070
     0
1070
   144
1040
0.625
1002
}
  0
LINE
  5
1A862
330
1AA0B
100
AcDbEntity
  8
HIKIDASHI
100
AcDbLine
 10
6928.602746650764
 20
1702.165399255266
 30
0.0
 11
6950.758701212581
 21
1780.183932023017
 31
0.0
  0
LINE
  5
1A863
330
1AA0B
100
AcDbEntity
  8
HIKIDASHI
100
AcDbLine
 10
6950.758701212581
 20
1780.183932023017
 30
0.0
 11
6904.497057891591
 21
1713.568332235734
 31
0.0
  0
SOLID
  5
1A864
330
1AA0B
100
AcDbEntity
  8
HIKIDASHI
100
AcDbTrace
 10
6928.602746650764
 20
1702.165399255266
 30
0.0
 11
6904.497057891591
 21
1713.568332235734
 31
0.0
 12
6950.758701212581
 22
1780.183932023017
 32
0.0
 13
6950.758701212581
 23
1780.183932023017
 33
0.0
  0
LINE
  5
1A865
330
1AA0B
100
AcDbEntity
  8
HIKIDASHI
100
AcDbLine
 10
6904.497057891591
 20
1713.568332235734
 30
0.0
 11
6928.602746650764
 21
1702.165399255266
 31
0.0
  0
LINE
  5
1A866
330
1AA0B
100
AcDbEntity
  8
HIKIDASHI
100
AcDbLine
 10
8512.255537304527
 20
2235.555264269679
 30
0.0
 11
8604.261733917329
 21
1961.931554141242
 31
0.0
1001
ACAD
1000
DSTYLE
1002
{
1070
   147
1040
1.0
1070
    77
1070
     0
1070
   144
1040
0.625
1070
   173
1070
     0
1070
   341
1005
125B0
1002
}
  0
ARC
  5
1A867
330
1AA0B
100
AcDbEntity
  8
HIKIDASHI
100
AcDbCircle
 10
8463.573051272508
 20
2317.583646062627
 30
0.0
 40
24.0
100
AcDbArc
 50
232.1425703309788
 51
345.0279508071377
  0
ARC
  5
1A868
330
1AA0B
100
AcDbEntity
  8
HIKIDASHI
100
AcDbCircle
 10
8509.943545927438
 20
2305.182951507191
 30
0.0
 40
24.0
100
AcDbArc
 50
52.14257033097887
 51
165.0279508071375
  0
LINE
  5
1A869
330
1AA0B
100
AcDbEntity
  8
HIKIDASHI
100
AcDbLine
 10
8486.758298599973
 20
2311.383298784909
 30
0.0
 11
8512.255537304532
 21
2235.555264269661
 31
0.0
  0
LINE
  5
1A86A
330
1AA0B
100
AcDbEntity
  8
HIKIDASHI
100
AcDbLine
 10
4305.830750758332
 20
2235.555264269682
 30
0.0
 11
4397.836947371135
 21
1961.931554141246
 31
0.0
1001
ACAD
1000
DSTYLE
1002
{
1070
   147
1040
1.0
1070
    77
1070
     0
1070
   144
1040
0.625
1070
   173
1070
     0
1070
   341
1005
125B0
1002
}
  0
ARC
  5
1A86B
330
1AA0B
100
AcDbEntity
  8
HIKIDASHI
100
AcDbCircle
 10
4257.148264726313
 20
2317.58364606263
 30
0.0
 40
24.0
100
AcDbArc
 50
232.1425703309794
 51
345.0279508071377
  0
ARC
  5
1A86C
330
1AA0B
100
AcDbEntity
  8
HIKIDASHI
100
AcDbCircle
 10
4303.51875938124
 20
2305.182951507194
 30
0.0
 40
24.0
100
AcDbArc
 50
52.1425703309794
 51
165.0279508071375
  0
LINE
  5
1A86D
330
1AA0B
100
AcDbEntity
  8
HIKIDASHI
100
AcDbLine
 10
4280.333512053776
 20
2311.383298784912
 30
0.0
 11
4305.830750758338
 21
2235.555264269664
 31
0.0
  0
LINE
  5
1A86E
330
1AA0B
100
AcDbEntity
  8
HIKIDASHI
100
AcDbLine
 10
3030.125115724983
 20
1707.866865745504
 30
0.0
 11
2839.167309682428
 21
1304.183932023019
 31
0.0
1001
ACAD
1000
DSTYLE
1002
{
1070
   147
1040
1.0
1070
    77
1070
     0
1070
   144
1040
0.625
1002
}
  0
LINE
  5
1A86F
330
1AA0B
100
AcDbEntity
  8
HIKIDASHI
100
AcDbLine
 10
3042.177960104569
 20
1702.165399255268
 30
0.0
 11
3064.333914666386
 21
1780.183932023019
 31
0.0
  0
LINE
  5
1A870
330
1AA0B
100
AcDbEntity
  8
HIKIDASHI
100
AcDbLine
 10
3064.333914666386
 20
1780.183932023019
 30
0.0
 11
3018.072271345396
 21
1713.568332235738
 31
0.0
  0
SOLID
  5
1A871
330
1AA0B
100
AcDbEntity
  8
HIKIDASHI
100
AcDbTrace
 10
3042.177960104569
 20
1702.165399255268
 30
0.0
 11
3018.072271345396
 21
1713.568332235738
 31
0.0
 12
3064.333914666386
 22
1780.183932023019
 32
0.0
 13
3064.333914666386
 23
1780.183932023019
 33
0.0
  0
LINE
  5
1A872
330
1AA0B
100
AcDbEntity
  8
HIKIDASHI
100
AcDbLine
 10
3018.072271345396
 20
1713.568332235738
 30
0.0
 11
3042.177960104569
 21
1702.165399255268
 31
0.0
  0
LINE
  5
1A873
330
1AA0B
100
AcDbEntity
  8
HIKIDASHI
100
AcDbLine
 10
3382.119677299271
 20
2541.104574300084
 30
0.0
 11
2934.663191527326
 21
2994.183932023015
 31
0.0
1001
ACAD
1000
DSTYLE
1002
{
1070
   147
1040
1.0
1070
    77
1070
     0
1070
   144
1040
0.625
1002
}
  0
LINE
  5
1A874
330
1AA0B
100
AcDbEntity
  8
HIKIDASHI
100
AcDbLine
 10
3372.632903586426
 20
2531.735534738897
 30
0.0
 11
3438.333914666386
 21
2484.183932023019
 31
0.0
  0
LINE
  5
1A875
330
1AA0B
100
AcDbEntity
  8
HIKIDASHI
100
AcDbLine
 10
3438.333914666386
 20
2484.183932023019
 30
0.0
 11
3391.606451012115
 21
2550.47361386127
 31
0.0
  0
SOLID
  5
1A876
330
1AA0B
100
AcDbEntity
  8
HIKIDASHI
100
AcDbTrace
 10
3372.632903586426
 20
2531.735534738897
 30
0.0
 11
3391.606451012115
 21
2550.47361386127
 31
0.0
 12
3438.333914666386
 22
2484.183932023019
 32
0.0
 13
3438.333914666386
 23
2484.183932023019
 33
0.0
  0
LINE
  5
1A877
330
1AA0B
100
AcDbEntity
  8
HIKIDASHI
100
AcDbLine
 10
3391.606451012115
 20
2550.47361386127
 30
0.0
 11
3372.632903586426
 21
2531.735534738897
 31
0.0
  0
LINE
  5
1A878
330
1AA0B
100
AcDbEntity
  8
HIKIDASHI
100
AcDbLine
 10
3488.463040470064
 20
2042.737076683335
 30
0.0
 11
2921.257717497342
 21
2754.183932023015
 31
0.0
1001
ACAD
1000
DSTYLE
1002
{
1070
   147
1040
1.0
1070
    77
1070
     0
1070
   144
1040
0.625
1002
}
  0
LINE
  5
1A879
330
1AA0B
100
AcDbEntity
  8
HIKIDASHI
100
AcDbLine
 10
3478.037516360011
 20
2034.425264317282
 30
0.0
 11
3538.333914666386
 21
1980.183932023019
 31
0.0
  0
LINE
  5
1A87A
330
1AA0B
100
AcDbEntity
  8
HIKIDASHI
100
AcDbLine
 10
3538.333914666386
 20
1980.183932023019
 30
0.0
 11
3498.888564580116
 21
2051.048889049389
 31
0.0
  0
SOLID
  5
1A87B
330
1AA0B
100
AcDbEntity
  8
HIKIDASHI
100
AcDbTrace
 10
3478.037516360011
 20
2034.425264317282
 30
0.0
 11
3498.888564580116
 21
2051.048889049389
 31
0.0
 12
3538.333914666386
 22
1980.183932023019
 32
0.0
 13
3538.333914666386
 23
1980.183932023019
 33
0.0
  0
LINE
  5
1A87C
330
1AA0B
100
AcDbEntity
  8
HIKIDASHI
100
AcDbLine
 10
3498.888564580116
 20
2051.048889049389
 30
0.0
 11
3478.037516360011
 21
2034.425264317282
 31
0.0
  0
ARC
  5
1A87D
330
1AA0B
100
AcDbEntity
  8
HIKIDASHI
100
AcDbCircle
 10
2782.07067821856
 20
2885.748787905466
 30
0.0
 40
74.66417910452276
100
AcDbArc
 50
301.7712278330706
 51
15.14038701490925
  0
LINE
  5
1A87E
330
1AA0B
100
AcDbEntity
  8
KISO
100
AcDbLine
 10
8550.758701212577
 20
1876.183932023015
 30
0.0
 11
8550.758701212577
 21
1876.183932023015
 31
0.0
  0
LINE
  5
1A87F
330
1AA0B
100
AcDbEntity
  8
KISO
100
AcDbLine
 10
8550.758701212577
 20
1876.183932023015
 30
0.0
 11
6950.758701212581
 21
1876.183932023015
 31
0.0
  0
LINE
  5
1A880
330
1AA0B
100
AcDbEntity
  8
TEKKIN
100
AcDbLine
 10
7698.75870121258
 20
1980.183932023015
 30
0.0
 11
7470.758701212581
 21
1980.183932023015
 31
0.0
  0
LINE
  5
1A881
330
1AA0B
100
AcDbEntity
  8
TEKKIN
100
AcDbLine
 10
7470.758701212581
 20
1980.183932023015
 30
0.0
 11
7470.758701212581
 21
1964.183932023016
 31
0.0
  0
LINE
  5
1A882
330
1AA0B
100
AcDbEntity
  8
TEKKIN
100
AcDbLine
 10
7470.758701212581
 20
1964.183932023016
 30
0.0
 11
7698.75870121258
 21
1964.183932023016
 31
0.0
  0
LINE
  5
1A883
330
1AA0B
100
AcDbEntity
  8
TEKKIN
100
AcDbLine
 10
7802.758701212581
 20
1964.183932023016
 30
0.0
 11
8030.758701212581
 21
1964.183932023016
 31
0.0
  0
LINE
  5
1A884
330
1AA0B
100
AcDbEntity
  8
TEKKIN
100
AcDbLine
 10
8030.758701212581
 20
1964.183932023016
 30
0.0
 11
8030.758701212581
 21
1980.183932023015
 31
0.0
  0
LINE
  5
1A885
330
1AA0B
100
AcDbEntity
  8
TEKKIN
100
AcDbLine
 10
8030.758701212581
 20
1980.183932023015
 30
0.0
 11
7802.758701212581
 21
1980.183932023015
 31
0.0
  0
LINE
  5
1A886
330
1AA0B
100
AcDbEntity
  8
KISO
100
AcDbLine
 10
4344.333914666385
 20
1876.183932023018
 30
0.0
 11
4344.333914666385
 21
1876.183932023018
 31
0.0
  0
LINE
  5
1A887
330
1AA0B
100
AcDbEntity
  8
KISO
100
AcDbLine
 10
4344.333914666385
 20
1876.183932023018
 30
0.0
 11
3064.333914666386
 21
1876.183932023019
 31
0.0
  0
LINE
  5
1A888
330
1AA0B
100
AcDbEntity
  8
TEKKIN
100
AcDbLine
 10
3652.333914666386
 20
1980.183932023019
 30
0.0
 11
3424.333914666386
 21
1980.183932023019
 31
0.0
  0
LINE
  5
1A889
330
1AA0B
100
AcDbEntity
  8
TEKKIN
100
AcDbLine
 10
3424.333914666386
 20
1980.183932023019
 30
0.0
 11
3424.333914666386
 21
1964.183932023018
 31
0.0
  0
LINE
  5
1A88A
330
1AA0B
100
AcDbEntity
  8
TEKKIN
100
AcDbLine
 10
3424.333914666386
 20
1964.183932023018
 30
0.0
 11
3652.333914666386
 21
1964.183932023018
 31
0.0
  0
LINE
  5
1A88B
330
1AA0B
100
AcDbEntity
  8
TEKKIN
100
AcDbLine
 10
3756.333914666386
 20
1964.183932023018
 30
0.0
 11
3984.333914666386
 21
1964.183932023018
 31
0.0
  0
LINE
  5
1A88C
330
1AA0B
100
AcDbEntity
  8
TEKKIN
100
AcDbLine
 10
3984.333914666386
 20
1964.183932023018
 30
0.0
 11
3984.333914666386
 21
1980.183932023019
 31
0.0
  0
LINE
  5
1A88D
330
1AA0B
100
AcDbEntity
  8
TEKKIN
100
AcDbLine
 10
3984.333914666386
 20
1980.183932023019
 30
0.0
 11
3756.333914666386
 21
1980.183932023019
 31
0.0
  0
LINE
  5
1A88E
330
1AA0B
100
AcDbEntity
  8
DOMAKON
100
AcDbLine
 10
6559.21703198606
 20
5395.715360473253
 30
0.0
 11
9809.21703198606
 21
5395.715360473253
 31
0.0
  0
LINE
  5
1A88F
330
1AA0B
100
AcDbEntity
  8
DOMAKON
100
AcDbLine
 10
9809.21703198606
 20
5395.715360473253
 30
0.0
 11
9809.21703198606
 21
9595.715360473255
 31
0.0
  0
LINE
  5
1A890
330
1AA0B
100
AcDbEntity
  8
DOMAKON
100
AcDbLine
 10
9809.21703198606
 20
9595.715360473255
 30
0.0
 11
6559.21703198606
 21
9595.715360473255
 31
0.0
  0
LINE
  5
1A891
330
1AA0B
100
AcDbEntity
  8
DOMAKON
100
AcDbLine
 10
6559.21703198606
 20
9595.715360473255
 30
0.0
 11
6559.21703198606
 21
5395.715360473253
 31
0.0
  0
LINE
  5
1A892
330
1AA0B
100
AcDbEntity
  8
KISO
100
AcDbLine
 10
6559.21703198606
 20
7095.715360473253
 30
0.0
 11
7359.21703198606
 21
7095.715360473253
 31
0.0
  0
LINE
  5
1A893
330
1AA0B
100
AcDbEntity
  8
KISO
100
AcDbLine
 10
7359.21703198606
 20
7095.715360473253
 30
0.0
 11
7359.21703198606
 21
7895.715360473253
 31
0.0
  0
LINE
  5
1A894
330
1AA0B
100
AcDbEntity
  8
KISO
100
AcDbLine
 10
7359.21703198606
 20
7895.715360473253
 30
0.0
 11
6559.21703198606
 21
7895.715360473253
 31
0.0
  0
LINE
  5
1A895
330
1AA0B
100
AcDbEntity
  8
KISO
100
AcDbLine
 10
6559.21703198606
 20
7895.715360473253
 30
0.0
 11
6559.21703198606
 21
7095.715360473253
 31
0.0
  0
LINE
  5
1A896
330
1AA0B
100
AcDbEntity
  8
KISO
100
AcDbLine
 10
9009.217031986059
 20
7095.715360473253
 30
0.0
 11
9809.21703198606
 21
7095.715360473253
 31
0.0
  0
LINE
  5
1A897
330
1AA0B
100
AcDbEntity
  8
KISO
100
AcDbLine
 10
9809.21703198606
 20
7095.715360473253
 30
0.0
 11
9809.21703198606
 21
7895.715360473253
 31
0.0
  0
LINE
  5
1A898
330
1AA0B
100
AcDbEntity
  8
KISO
100
AcDbLine
 10
9809.21703198606
 20
7895.715360473253
 30
0.0
 11
9009.217031986059
 21
7895.715360473253
 31
0.0
  0
LINE
  5
1A899
330
1AA0B
100
AcDbEntity
  8
KISO
100
AcDbLine
 10
9009.217031986059
 20
7895.715360473253
 30
0.0
 11
9009.217031986059
 21
7095.715360473253
 31
0.0
  0
LINE
  5
1A89A
330
1AA0B
100
AcDbEntity
  8
YANE
  6
2PL-L
 62
     6
100
AcDbLine
 10
9805.21703198606
 20
5315.715360473252
 30
0.0
 11
6563.217031986059
 21
5315.715360473252
 31
0.0
  0
LINE
  5
1A89B
330
1AA0B
100
AcDbEntity
  8
YANE
  6
2PL-L
 62
     6
100
AcDbLine
 10
6563.217031986059
 20
5315.715360473252
 30
0.0
 11
6563.217031986059
 21
9675.715360473255
 31
0.0
  0
LINE
  5
1A89C
330
1AA0B
100
AcDbEntity
  8
YANE
  6
2PL-L
 62
     6
100
AcDbLine
 10
6563.217031986059
 20
9675.715360473255
 30
0.0
 11
9805.21703198606
 21
9675.715360473255
 31
0.0
  0
LINE
  5
1A89D
330
1AA0B
100
AcDbEntity
  8
YANE
  6
2PL-L
 62
     6
100
AcDbLine
 10
9805.21703198606
 20
9675.715360473255
 30
0.0
 11
9805.21703198606
 21
5315.715360473252
 31
0.0
  0
LINE
  5
1A89E
330
1AA0B
100
AcDbEntity
  8
KISO
100
AcDbLine
 10
6659.217031986059
 20
5395.715360473253
 30
0.0
 11
7259.21703198606
 21
5395.715360473253
 31
0.0
  0
LINE
  5
1A89F
330
1AA0B
100
AcDbEntity
  8
KISO
100
AcDbLine
 10
7259.21703198606
 20
5395.715360473253
 30
0.0
 11
7259.21703198606
 21
5995.715360473252
 31
0.0
  0
LINE
  5
1A8A0
330
1AA0B
100
AcDbEntity
  8
KISO
100
AcDbLine
 10
7259.21703198606
 20
5995.715360473252
 30
0.0
 11
6659.217031986059
 21
5995.715360473252
 31
0.0
  0
LINE
  5
1A8A1
330
1AA0B
100
AcDbEntity
  8
KISO
100
AcDbLine
 10
6659.217031986059
 20
5995.715360473252
 30
0.0
 11
6659.217031986059
 21
5395.715360473253
 31
0.0
  0
LINE
  5
1A8A2
330
1AA0B
100
AcDbEntity
  8
KISO
100
AcDbLine
 10
6659.217031986059
 20
8995.715360473253
 30
0.0
 11
7259.21703198606
 21
8995.715360473253
 31
0.0
  0
LINE
  5
1A8A3
330
1AA0B
100
AcDbEntity
  8
KISO
100
AcDbLine
 10
7259.21703198606
 20
8995.715360473253
 30
0.0
 11
7259.21703198606
 21
9595.715360473255
 31
0.0
  0
LINE
  5
1A8A4
330
1AA0B
100
AcDbEntity
  8
KISO
100
AcDbLine
 10
7259.21703198606
 20
9595.715360473255
 30
0.0
 11
6659.217031986059
 21
9595.715360473255
 31
0.0
  0
LINE
  5
1A8A5
330
1AA0B
100
AcDbEntity
  8
KISO
100
AcDbLine
 10
6659.217031986059
 20
9595.715360473255
 30
0.0
 11
6659.217031986059
 21
8995.715360473253
 31
0.0
  0
LINE
  5
1A8A6
330
1AA0B
100
AcDbEntity
  8
KISO
100
AcDbLine
 10
9709.217031986066
 20
8995.715360473253
 30
0.0
 11
9109.217031986066
 21
8995.715360473253
 31
0.0
  0
LINE
  5
1A8A7
330
1AA0B
100
AcDbEntity
  8
KISO
100
AcDbLine
 10
9109.217031986066
 20
8995.715360473253
 30
0.0
 11
9109.217031986066
 21
9595.715360473255
 31
0.0
  0
LINE
  5
1A8A8
330
1AA0B
100
AcDbEntity
  8
KISO
100
AcDbLine
 10
9109.217031986066
 20
9595.715360473255
 30
0.0
 11
9709.217031986066
 21
9595.715360473255
 31
0.0
  0
LINE
  5
1A8A9
330
1AA0B
100
AcDbEntity
  8
KISO
100
AcDbLine
 10
9709.217031986066
 20
9595.715360473255
 30
0.0
 11
9709.217031986066
 21
8995.715360473253
 31
0.0
  0
LINE
  5
1A8AA
330
1AA0B
100
AcDbEntity
  8
KISO
100
AcDbLine
 10
9709.217031986066
 20
5395.715360473253
 30
0.0
 11
9109.217031986066
 21
5395.715360473253
 31
0.0
  0
LINE
  5
1A8AB
330
1AA0B
100
AcDbEntity
  8
KISO
100
AcDbLine
 10
9109.217031986066
 20
5395.715360473253
 30
0.0
 11
9109.217031986066
 21
5995.715360473252
 31
0.0
  0
LINE
  5
1A8AC
330
1AA0B
100
AcDbEntity
  8
KISO
100
AcDbLine
 10
9109.217031986066
 20
5995.715360473252
 30
0.0
 11
9709.217031986066
 21
5995.715360473252
 31
0.0
  0
LINE
  5
1A8AD
330
1AA0B
100
AcDbEntity
  8
KISO
100
AcDbLine
 10
9709.217031986066
 20
5995.715360473252
 30
0.0
 11
9709.217031986066
 21
5395.715360473253
 31
0.0
  0
LINE
  5
1A8AE
330
1AA0B
100
AcDbEntity
  8
U1
100
AcDbLine
 10
9415.417031986061
 20
9265.515360473251
 30
0.0
 11
9383.017031986055
 21
9265.515360473251
 31
0.0
  0
LINE
  5
1A8AF
330
1AA0B
100
AcDbEntity
  8
U1
100
AcDbLine
 10
9383.017031986064
 20
9325.915360473253
 30
0.0
 11
9435.417031986061
 21
9325.915360473253
 31
0.0
  0
ARC
  5
1A8B1
330
1AA0B
100
AcDbEntity
  8
U1
100
AcDbCircle
 10
9383.017031986064
 20
9321.915360473253
 30
0.0
 40
4.0
100
AcDbArc
 50
90.0
 51
180.0
  0
ARC
  5
1A8B2
330
1AA0B
100
AcDbEntity
  8
U1
100
AcDbCircle
 10
9383.017031986055
 20
9269.515360473251
 30
0.0
 40
4.0
100
AcDbArc
 50
180.0
 51
270.0
  0
LINE
  5
1A8B3
330
1AA0B
100
AcDbEntity
  8
U1
100
AcDbLine
 10
9379.017031986059
 20
9269.515360473251
 30
0.0
 11
9379.017031986059
 21
9321.915360473253
 31
0.0
  0
ARC
  5
1A8B4
330
1AA0B
100
AcDbEntity
  8
U1
100
AcDbCircle
 10
9435.417031986061
 20
9321.915360473253
 30
0.0
 40
4.0
100
AcDbArc
 50
0.0
 51
90.0
  0
ARC
  5
1A8B5
330
1AA0B
100
AcDbEntity
  8
U1
100
AcDbCircle
 10
9415.417031986061
 20
9269.515360473251
 30
0.0
 40
4.0
100
AcDbArc
 50
270.0
 51
0.0
  0
ARC
  5
1A8B6
330
1AA0B
100
AcDbEntity
  8
U1
100
AcDbCircle
 10
9422.86703198606
 20
9278.765360473251
 30
0.0
 40
1.149999999999977
100
AcDbArc
 50
0.0
 51
180.0
  0
LINE
  5
1A8B7
330
1AA0B
100
AcDbEntity
  8
U1
100
AcDbLine
 10
9426.31703198606
 20
9271.215360473252
 30
0.0
 11
9426.31703198606
 21
9278.765360473251
 31
0.0
  0
LINE
  5
1A8B8
330
1AA0B
100
AcDbEntity
  8
U1
100
AcDbLine
 10
9424.017031986059
 20
9271.215360473252
 30
0.0
 11
9426.31703198606
 21
9271.215360473252
 31
0.0
  0
LINE
  5
1A8B9
330
1AA0B
100
AcDbEntity
  8
U1
100
AcDbLine
 10
9421.717031986061
 20
9278.215360473252
 30
0.0
 11
9424.017031986059
 21
9278.215360473252
 31
0.0
  0
ARC
  5
1A8BA
330
1AA0B
100
AcDbEntity
  8
U1
100
AcDbCircle
 10
9422.86703198606
 20
9278.765360473251
 30
0.0
 40
3.450000000000044
100
AcDbArc
 50
0.0
 51
180.0
  0
LINE
  5
1A8BB
330
1AA0B
100
AcDbEntity
  8
U1
100
AcDbLine
 10
9421.717031986061
 20
9278.765360473251
 30
0.0
 11
9421.717031986061
 21
9269.515360473251
 31
0.0
  0
LINE
  5
1A8BC
330
1AA0B
100
AcDbEntity
  8
U1
100
AcDbLine
 10
9424.017031986059
 20
9269.515360473251
 30
0.0
 11
9424.017031986059
 21
9278.765360473251
 31
0.0
  0
LINE
  5
1A8BD
330
1AA0B
100
AcDbEntity
  8
U1
100
AcDbLine
 10
9419.417031986061
 20
9278.765360473251
 30
0.0
 11
9419.417031986061
 21
9269.515360473251
 31
0.0
  0
ARC
  5
1A8BE
330
1AA0B
100
AcDbEntity
  8
U1
100
AcDbCircle
 10
9435.417031986061
 20
9269.515360473251
 30
0.0
 40
4.0
100
AcDbArc
 50
270.0
 51
0.0
  0
LINE
  5
1A8BF
330
1AA0B
100
AcDbEntity
  8
U1
100
AcDbLine
 10
9435.417031986061
 20
9265.515360473251
 30
0.0
 11
9428.017031986057
 21
9265.515360473251
 31
0.0
  0
ARC
  5
1A8C0
330
1AA0B
100
AcDbEntity
  8
U1
100
AcDbCircle
 10
9428.017031986057
 20
9269.515360473251
 30
0.0
 40
4.0
100
AcDbArc
 50
180.0
 51
270.0
  0
LINE
  5
1A8C1
330
1AA0B
100
AcDbEntity
  8
U1
100
AcDbLine
 10
9439.41703198606
 20
9321.915360473253
 30
0.0
 11
9439.41703198606
 21
9269.515360473251
 31
0.0
  0
LINE
  5
1A8C2
330
1AA0B
100
AcDbEntity
  8
U1
100
AcDbLine
 10
6953.01703198606
 20
9265.515360473251
 30
0.0
 11
6985.41703198606
 21
9265.515360473251
 31
0.0
  0
LINE
  5
1A8C3
330
1AA0B
100
AcDbEntity
  8
U1
100
AcDbLine
 10
6985.41703198606
 20
9325.915360473253
 30
0.0
 11
6933.017031986058
 21
9325.915360473253
 31
0.0
  0
ARC
  5
1A8C5
330
1AA0B
100
AcDbEntity
  8
U1
100
AcDbCircle
 10
6985.41703198606
 20
9321.915360473253
 30
0.0
 40
4.0
100
AcDbArc
 50
0.0
 51
90.0
  0
ARC
  5
1A8C6
330
1AA0B
100
AcDbEntity
  8
U1
100
AcDbCircle
 10
6985.41703198606
 20
9269.515360473251
 30
0.0
 40
4.0
100
AcDbArc
 50
270.0
 51
0.0
  0
LINE
  5
1A8C7
330
1AA0B
100
AcDbEntity
  8
U1
100
AcDbLine
 10
6989.417031986059
 20
9269.515360473251
 30
0.0
 11
6989.417031986059
 21
9321.915360473253
 31
0.0
  0
ARC
  5
1A8C8
330
1AA0B
100
AcDbEntity
  8
U1
100
AcDbCircle
 10
6933.017031986058
 20
9321.915360473253
 30
0.0
 40
4.0
100
AcDbArc
 50
90.0
 51
180.0
  0
ARC
  5
1A8C9
330
1AA0B
100
AcDbEntity
  8
U1
100
AcDbCircle
 10
6953.01703198606
 20
9269.515360473251
 30
0.0
 40
4.0
100
AcDbArc
 50
180.0
 51
270.0
  0
ARC
  5
1A8CA
330
1AA0B
100
AcDbEntity
  8
U1
100
AcDbCircle
 10
6945.567031986058
 20
9278.765360473251
 30
0.0
 40
1.149999999999977
100
AcDbArc
 50
0.0
 51
180.0
  0
LINE
  5
1A8CB
330
1AA0B
100
AcDbEntity
  8
U1
100
AcDbLine
 10
6942.117031986059
 20
9271.215360473252
 30
0.0
 11
6942.117031986059
 21
9278.765360473251
 31
0.0
  0
LINE
  5
1A8CC
330
1AA0B
100
AcDbEntity
  8
U1
100
AcDbLine
 10
6944.41703198606
 20
9271.215360473252
 30
0.0
 11
6942.117031986059
 21
9271.215360473252
 31
0.0
  0
LINE
  5
1A8CD
330
1AA0B
100
AcDbEntity
  8
U1
100
AcDbLine
 10
6946.717031986058
 20
9278.215360473252
 30
0.0
 11
6944.41703198606
 21
9278.215360473252
 31
0.0
  0
ARC
  5
1A8CE
330
1AA0B
100
AcDbEntity
  8
U1
100
AcDbCircle
 10
6945.567031986058
 20
9278.765360473251
 30
0.0
 40
3.450000000000044
100
AcDbArc
 50
0.0
 51
180.0
  0
LINE
  5
1A8CF
330
1AA0B
100
AcDbEntity
  8
U1
100
AcDbLine
 10
6946.717031986058
 20
9278.765360473251
 30
0.0
 11
6946.71703198606
 21
9269.515360473251
 31
0.0
  0
LINE
  5
1A8D0
330
1AA0B
100
AcDbEntity
  8
U1
100
AcDbLine
 10
6944.41703198606
 20
9269.515360473251
 30
0.0
 11
6944.41703198606
 21
9278.765360473251
 31
0.0
  0
LINE
  5
1A8D1
330
1AA0B
100
AcDbEntity
  8
U1
100
AcDbLine
 10
6949.017031986059
 20
9278.765360473251
 30
0.0
 11
6949.017031986059
 21
9269.515360473251
 31
0.0
  0
ARC
  5
1A8D2
330
1AA0B
100
AcDbEntity
  8
U1
100
AcDbCircle
 10
6933.01703198606
 20
9269.515360473251
 30
0.0
 40
4.0
100
AcDbArc
 50
180.0
 51
270.0
  0
LINE
  5
1A8D3
330
1AA0B
100
AcDbEntity
  8
U1
100
AcDbLine
 10
6933.01703198606
 20
9265.515360473251
 30
0.0
 11
6940.41703198606
 21
9265.515360473251
 31
0.0
  0
ARC
  5
1A8D4
330
1AA0B
100
AcDbEntity
  8
U1
100
AcDbCircle
 10
6940.41703198606
 20
9269.515360473251
 30
0.0
 40
4.0
100
AcDbArc
 50
270.0
 51
0.0
  0
LINE
  5
1A8D5
330
1AA0B
100
AcDbEntity
  8
U1
100
AcDbLine
 10
6929.01703198606
 20
9321.915360473253
 30
0.0
 11
6929.01703198606
 21
9269.515360473251
 31
0.0
  0
LINE
  5
1A8D6
330
1AA0B
100
AcDbEntity
  8
U1
100
AcDbLine
 10
6953.01703198606
 20
5725.915360473251
 30
0.0
 11
6985.41703198606
 21
5725.915360473251
 31
0.0
  0
LINE
  5
1A8D7
330
1AA0B
100
AcDbEntity
  8
U1
100
AcDbLine
 10
6985.41703198606
 20
5665.51536047325
 30
0.0
 11
6933.017031986058
 21
5665.51536047325
 31
0.0
  0
ARC
  5
1A8D9
330
1AA0B
100
AcDbEntity
  8
U1
100
AcDbCircle
 10
6985.41703198606
 20
5669.51536047325
 30
0.0
 40
4.0
100
AcDbArc
 50
270.0
 51
0.0
  0
ARC
  5
1A8DA
330
1AA0B
100
AcDbEntity
  8
U1
100
AcDbCircle
 10
6985.41703198606
 20
5721.915360473252
 30
0.0
 40
4.0
100
AcDbArc
 50
0.0
 51
90.0
  0
LINE
  5
1A8DB
330
1AA0B
100
AcDbEntity
  8
U1
100
AcDbLine
 10
6989.417031986059
 20
5721.915360473252
 30
0.0
 11
6989.417031986059
 21
5669.51536047325
 31
0.0
  0
ARC
  5
1A8DC
330
1AA0B
100
AcDbEntity
  8
U1
100
AcDbCircle
 10
6933.017031986058
 20
5669.51536047325
 30
0.0
 40
4.0
100
AcDbArc
 50
180.0
 51
270.0
  0
ARC
  5
1A8DD
330
1AA0B
100
AcDbEntity
  8
U1
100
AcDbCircle
 10
6953.01703198606
 20
5721.915360473252
 30
0.0
 40
4.0
100
AcDbArc
 50
90.0
 51
180.0
  0
ARC
  5
1A8DE
330
1AA0B
100
AcDbEntity
  8
U1
100
AcDbCircle
 10
6945.567031986058
 20
5712.665360473252
 30
0.0
 40
1.149999999999977
100
AcDbArc
 50
180.0
 51
0.0
  0
LINE
  5
1A8DF
330
1AA0B
100
AcDbEntity
  8
U1
100
AcDbLine
 10
6942.117031986059
 20
5720.215360473252
 30
0.0
 11
6942.117031986059
 21
5712.665360473252
 31
0.0
  0
LINE
  5
1A8E0
330
1AA0B
100
AcDbEntity
  8
U1
100
AcDbLine
 10
6944.41703198606
 20
5720.215360473252
 30
0.0
 11
6942.117031986059
 21
5720.215360473252
 31
0.0
  0
LINE
  5
1A8E1
330
1AA0B
100
AcDbEntity
  8
U1
100
AcDbLine
 10
6946.717031986058
 20
5713.215360473252
 30
0.0
 11
6944.41703198606
 21
5713.215360473252
 31
0.0
  0
ARC
  5
1A8E2
330
1AA0B
100
AcDbEntity
  8
U1
100
AcDbCircle
 10
6945.567031986058
 20
5712.665360473252
 30
0.0
 40
3.450000000000044
100
AcDbArc
 50
180.0
 51
0.0
  0
LINE
  5
1A8E3
330
1AA0B
100
AcDbEntity
  8
U1
100
AcDbLine
 10
6946.717031986058
 20
5712.665360473252
 30
0.0
 11
6946.71703198606
 21
5721.915360473251
 31
0.0
  0
LINE
  5
1A8E4
330
1AA0B
100
AcDbEntity
  8
U1
100
AcDbLine
 10
6944.41703198606
 20
5721.915360473252
 30
0.0
 11
6944.41703198606
 21
5712.665360473252
 31
0.0
  0
LINE
  5
1A8E5
330
1AA0B
100
AcDbEntity
  8
U1
100
AcDbLine
 10
6949.017031986059
 20
5712.665360473252
 30
0.0
 11
6949.017031986059
 21
5721.915360473252
 31
0.0
  0
ARC
  5
1A8E6
330
1AA0B
100
AcDbEntity
  8
U1
100
AcDbCircle
 10
6933.01703198606
 20
5721.915360473252
 30
0.0
 40
4.0
100
AcDbArc
 50
90.0
 51
180.0
  0
LINE
  5
1A8E7
330
1AA0B
100
AcDbEntity
  8
U1
100
AcDbLine
 10
6933.01703198606
 20
5725.915360473251
 30
0.0
 11
6940.41703198606
 21
5725.915360473251
 31
0.0
  0
ARC
  5
1A8E8
330
1AA0B
100
AcDbEntity
  8
U1
100
AcDbCircle
 10
6940.41703198606
 20
5721.915360473252
 30
0.0
 40
4.0
100
AcDbArc
 50
0.0
 51
90.0
  0
LINE
  5
1A8E9
330
1AA0B
100
AcDbEntity
  8
U1
100
AcDbLine
 10
6929.01703198606
 20
5669.51536047325
 30
0.0
 11
6929.01703198606
 21
5721.915360473252
 31
0.0
  0
LINE
  5
1A8EA
330
1AA0B
100
AcDbEntity
  8
U1
100
AcDbLine
 10
9415.417031986061
 20
5725.915360473251
 30
0.0
 11
9383.017031986055
 21
5725.915360473251
 31
0.0
  0
LINE
  5
1A8EB
330
1AA0B
100
AcDbEntity
  8
U1
100
AcDbLine
 10
9383.017031986055
 20
5665.51536047325
 30
0.0
 11
9435.417031986061
 21
5665.51536047325
 31
0.0
  0
ARC
  5
1A8ED
330
1AA0B
100
AcDbEntity
  8
U1
100
AcDbCircle
 10
9383.017031986055
 20
5669.51536047325
 30
0.0
 40
4.0
100
AcDbArc
 50
180.0
 51
270.0
  0
ARC
  5
1A8EE
330
1AA0B
100
AcDbEntity
  8
U1
100
AcDbCircle
 10
9383.017031986055
 20
5721.915360473252
 30
0.0
 40
4.0
100
AcDbArc
 50
90.0
 51
180.0
  0
LINE
  5
1A8EF
330
1AA0B
100
AcDbEntity
  8
U1
100
AcDbLine
 10
9379.017031986059
 20
5721.915360473252
 30
0.0
 11
9379.017031986059
 21
5669.51536047325
 31
0.0
  0
ARC
  5
1A8F0
330
1AA0B
100
AcDbEntity
  8
U1
100
AcDbCircle
 10
9435.417031986061
 20
5669.51536047325
 30
0.0
 40
4.0
100
AcDbArc
 50
270.0
 51
0.0
  0
ARC
  5
1A8F1
330
1AA0B
100
AcDbEntity
  8
U1
100
AcDbCircle
 10
9415.417031986061
 20
5721.915360473252
 30
0.0
 40
4.0
100
AcDbArc
 50
0.0
 51
90.0
  0
ARC
  5
1A8F2
330
1AA0B
100
AcDbEntity
  8
U1
100
AcDbCircle
 10
9422.86703198606
 20
5712.665360473252
 30
0.0
 40
1.149999999999977
100
AcDbArc
 50
180.0
 51
0.0
  0
LINE
  5
1A8F3
330
1AA0B
100
AcDbEntity
  8
U1
100
AcDbLine
 10
9426.31703198606
 20
5720.215360473252
 30
0.0
 11
9426.31703198606
 21
5712.665360473252
 31
0.0
  0
LINE
  5
1A8F4
330
1AA0B
100
AcDbEntity
  8
U1
100
AcDbLine
 10
9424.017031986059
 20
5720.215360473252
 30
0.0
 11
9426.31703198606
 21
5720.215360473252
 31
0.0
  0
LINE
  5
1A8F5
330
1AA0B
100
AcDbEntity
  8
U1
100
AcDbLine
 10
9421.717031986061
 20
5713.215360473252
 30
0.0
 11
9424.017031986059
 21
5713.215360473252
 31
0.0
  0
ARC
  5
1A8F6
330
1AA0B
100
AcDbEntity
  8
U1
100
AcDbCircle
 10
9422.86703198606
 20
5712.665360473252
 30
0.0
 40
3.450000000000044
100
AcDbArc
 50
180.0
 51
0.0
  0
LINE
  5
1A8F7
330
1AA0B
100
AcDbEntity
  8
U1
100
AcDbLine
 10
9421.717031986061
 20
5712.665360473252
 30
0.0
 11
9421.717031986061
 21
5721.915360473251
 31
0.0
  0
LINE
  5
1A8F8
330
1AA0B
100
AcDbEntity
  8
U1
100
AcDbLine
 10
9424.017031986059
 20
5721.915360473252
 30
0.0
 11
9424.017031986059
 21
5712.665360473252
 31
0.0
  0
LINE
  5
1A8F9
330
1AA0B
100
AcDbEntity
  8
U1
100
AcDbLine
 10
9419.417031986061
 20
5712.665360473252
 30
0.0
 11
9419.417031986061
 21
5721.915360473252
 31
0.0
  0
ARC
  5
1A8FA
330
1AA0B
100
AcDbEntity
  8
U1
100
AcDbCircle
 10
9435.417031986061
 20
5721.915360473252
 30
0.0
 40
4.0
100
AcDbArc
 50
0.0
 51
90.0
  0
LINE
  5
1A8FB
330
1AA0B
100
AcDbEntity
  8
U1
100
AcDbLine
 10
9435.417031986061
 20
5725.915360473251
 30
0.0
 11
9428.017031986057
 21
5725.915360473251
 31
0.0
  0
ARC
  5
1A8FC
330
1AA0B
100
AcDbEntity
  8
U1
100
AcDbCircle
 10
9428.017031986057
 20
5721.915360473252
 30
0.0
 40
4.0
100
AcDbArc
 50
90.0
 51
180.0
  0
LINE
  5
1A8FD
330
1AA0B
100
AcDbEntity
  8
U1
100
AcDbLine
 10
9439.41703198606
 20
5669.51536047325
 30
0.0
 11
9439.41703198606
 21
5721.915360473252
 31
0.0
  0
LINE
  5
1A8FE
330
1AA0B
100
AcDbEntity
  8
U1
100
AcDbLine
 10
6953.01703198606
 20
7525.915360473252
 30
0.0
 11
6985.41703198606
 21
7525.915360473252
 31
0.0
  0
LINE
  5
1A8FF
330
1AA0B
100
AcDbEntity
  8
U1
100
AcDbLine
 10
6985.41703198606
 20
7465.515360473252
 30
0.0
 11
6933.017031986058
 21
7465.515360473252
 31
0.0
  0
ARC
  5
1A901
330
1AA0B
100
AcDbEntity
  8
U1
100
AcDbCircle
 10
6985.41703198606
 20
7469.515360473251
 30
0.0
 40
4.0
100
AcDbArc
 50
270.0
 51
0.0
  0
ARC
  5
1A902
330
1AA0B
100
AcDbEntity
  8
U1
100
AcDbCircle
 10
6985.41703198606
 20
7521.915360473252
 30
0.0
 40
4.0
100
AcDbArc
 50
0.0
 51
90.0
  0
LINE
  5
1A903
330
1AA0B
100
AcDbEntity
  8
U1
100
AcDbLine
 10
6989.417031986059
 20
7521.915360473252
 30
0.0
 11
6989.417031986059
 21
7469.515360473251
 31
0.0
  0
ARC
  5
1A904
330
1AA0B
100
AcDbEntity
  8
U1
100
AcDbCircle
 10
6933.017031986058
 20
7469.515360473251
 30
0.0
 40
4.0
100
AcDbArc
 50
180.0
 51
270.0
  0
ARC
  5
1A905
330
1AA0B
100
AcDbEntity
  8
U1
100
AcDbCircle
 10
6953.01703198606
 20
7521.915360473252
 30
0.0
 40
4.0
100
AcDbArc
 50
90.0
 51
180.0
  0
ARC
  5
1A906
330
1AA0B
100
AcDbEntity
  8
U1
100
AcDbCircle
 10
6945.567031986058
 20
7512.665360473253
 30
0.0
 40
1.149999999999977
100
AcDbArc
 50
180.0
 51
0.0
  0
LINE
  5
1A907
330
1AA0B
100
AcDbEntity
  8
U1
100
AcDbLine
 10
6942.117031986059
 20
7520.215360473251
 30
0.0
 11
6942.117031986059
 21
7512.665360473253
 31
0.0
  0
LINE
  5
1A908
330
1AA0B
100
AcDbEntity
  8
U1
100
AcDbLine
 10
6944.41703198606
 20
7520.215360473251
 30
0.0
 11
6942.117031986059
 21
7520.215360473251
 31
0.0
  0
LINE
  5
1A909
330
1AA0B
100
AcDbEntity
  8
U1
100
AcDbLine
 10
6946.717031986058
 20
7513.215360473252
 30
0.0
 11
6944.41703198606
 21
7513.215360473252
 31
0.0
  0
ARC
  5
1A90A
330
1AA0B
100
AcDbEntity
  8
U1
100
AcDbCircle
 10
6945.567031986058
 20
7512.665360473253
 30
0.0
 40
3.450000000000044
100
AcDbArc
 50
180.0
 51
0.0
  0
LINE
  5
1A90B
330
1AA0B
100
AcDbEntity
  8
U1
100
AcDbLine
 10
6946.717031986058
 20
7512.665360473253
 30
0.0
 11
6946.71703198606
 21
7521.915360473251
 31
0.0
  0
LINE
  5
1A90C
330
1AA0B
100
AcDbEntity
  8
U1
100
AcDbLine
 10
6944.41703198606
 20
7521.915360473252
 30
0.0
 11
6944.41703198606
 21
7512.665360473253
 31
0.0
  0
LINE
  5
1A90D
330
1AA0B
100
AcDbEntity
  8
U1
100
AcDbLine
 10
6949.017031986059
 20
7512.665360473253
 30
0.0
 11
6949.017031986059
 21
7521.915360473252
 31
0.0
  0
ARC
  5
1A90E
330
1AA0B
100
AcDbEntity
  8
U1
100
AcDbCircle
 10
6933.01703198606
 20
7521.915360473252
 30
0.0
 40
4.0
100
AcDbArc
 50
90.0
 51
180.0
  0
LINE
  5
1A90F
330
1AA0B
100
AcDbEntity
  8
U1
100
AcDbLine
 10
6933.01703198606
 20
7525.915360473252
 30
0.0
 11
6940.41703198606
 21
7525.915360473252
 31
0.0
  0
ARC
  5
1A910
330
1AA0B
100
AcDbEntity
  8
U1
100
AcDbCircle
 10
6940.41703198606
 20
7521.915360473252
 30
0.0
 40
4.0
100
AcDbArc
 50
0.0
 51
90.0
  0
LINE
  5
1A911
330
1AA0B
100
AcDbEntity
  8
U1
100
AcDbLine
 10
6929.01703198606
 20
7469.515360473251
 30
0.0
 11
6929.01703198606
 21
7521.915360473252
 31
0.0
  0
LINE
  5
1A912
330
1AA0B
100
AcDbEntity
  8
U1
100
AcDbLine
 10
9415.417031986061
 20
7525.915360473252
 30
0.0
 11
9383.017031986055
 21
7525.915360473252
 31
0.0
  0
LINE
  5
1A913
330
1AA0B
100
AcDbEntity
  8
U1
100
AcDbLine
 10
9383.017031986055
 20
7465.515360473252
 30
0.0
 11
9435.417031986061
 21
7465.515360473252
 31
0.0
  0
ARC
  5
1A915
330
1AA0B
100
AcDbEntity
  8
U1
100
AcDbCircle
 10
9383.017031986055
 20
7469.515360473251
 30
0.0
 40
4.0
100
AcDbArc
 50
180.0
 51
270.0
  0
ARC
  5
1A916
330
1AA0B
100
AcDbEntity
  8
U1
100
AcDbCircle
 10
9383.017031986055
 20
7521.915360473252
 30
0.0
 40
4.0
100
AcDbArc
 50
90.0
 51
180.0
  0
LINE
  5
1A917
330
1AA0B
100
AcDbEntity
  8
U1
100
AcDbLine
 10
9379.017031986059
 20
7521.915360473252
 30
0.0
 11
9379.017031986059
 21
7469.515360473251
 31
0.0
  0
ARC
  5
1A918
330
1AA0B
100
AcDbEntity
  8
U1
100
AcDbCircle
 10
9435.417031986061
 20
7469.515360473251
 30
0.0
 40
4.0
100
AcDbArc
 50
270.0
 51
0.0
  0
ARC
  5
1A919
330
1AA0B
100
AcDbEntity
  8
U1
100
AcDbCircle
 10
9415.417031986061
 20
7521.915360473252
 30
0.0
 40
4.0
100
AcDbArc
 50
0.0
 51
90.0
  0
ARC
  5
1A91A
330
1AA0B
100
AcDbEntity
  8
U1
100
AcDbCircle
 10
9422.86703198606
 20
7512.665360473253
 30
0.0
 40
1.149999999999977
100
AcDbArc
 50
180.0
 51
0.0
  0
LINE
  5
1A91B
330
1AA0B
100
AcDbEntity
  8
U1
100
AcDbLine
 10
9426.31703198606
 20
7520.215360473251
 30
0.0
 11
9426.31703198606
 21
7512.665360473253
 31
0.0
  0
LINE
  5
1A91C
330
1AA0B
100
AcDbEntity
  8
U1
100
AcDbLine
 10
9424.017031986059
 20
7520.215360473251
 30
0.0
 11
9426.31703198606
 21
7520.215360473251
 31
0.0
  0
LINE
  5
1A91D
330
1AA0B
100
AcDbEntity
  8
U1
100
AcDbLine
 10
9421.717031986061
 20
7513.215360473252
 30
0.0
 11
9424.017031986059
 21
7513.215360473252
 31
0.0
  0
ARC
  5
1A91E
330
1AA0B
100
AcDbEntity
  8
U1
100
AcDbCircle
 10
9422.86703198606
 20
7512.665360473253
 30
0.0
 40
3.450000000000044
100
AcDbArc
 50
180.0
 51
0.0
  0
LINE
  5
1A91F
330
1AA0B
100
AcDbEntity
  8
U1
100
AcDbLine
 10
9421.717031986061
 20
7512.665360473253
 30
0.0
 11
9421.717031986061
 21
7521.915360473251
 31
0.0
  0
LINE
  5
1A920
330
1AA0B
100
AcDbEntity
  8
U1
100
AcDbLine
 10
9424.017031986059
 20
7521.915360473252
 30
0.0
 11
9424.017031986059
 21
7512.665360473253
 31
0.0
  0
LINE
  5
1A921
330
1AA0B
100
AcDbEntity
  8
U1
100
AcDbLine
 10
9419.417031986061
 20
7512.665360473253
 30
0.0
 11
9419.417031986061
 21
7521.915360473252
 31
0.0
  0
ARC
  5
1A922
330
1AA0B
100
AcDbEntity
  8
U1
100
AcDbCircle
 10
9435.417031986061
 20
7521.915360473252
 30
0.0
 40
4.0
100
AcDbArc
 50
0.0
 51
90.0
  0
LINE
  5
1A923
330
1AA0B
100
AcDbEntity
  8
U1
100
AcDbLine
 10
9435.417031986061
 20
7525.915360473252
 30
0.0
 11
9428.017031986057
 21
7525.915360473252
 31
0.0
  0
ARC
  5
1A924
330
1AA0B
100
AcDbEntity
  8
U1
100
AcDbCircle
 10
9428.017031986057
 20
7521.915360473252
 30
0.0
 40
4.0
100
AcDbArc
 50
90.0
 51
180.0
  0
LINE
  5
1A925
330
1AA0B
100
AcDbEntity
  8
U1
100
AcDbLine
 10
9439.41703198606
 20
7469.515360473251
 30
0.0
 11
9439.41703198606
 21
7521.915360473252
 31
0.0
  0
ARC
  5
1A926
330
1AA0B
100
AcDbEntity
  8
U1
100
AcDbCircle
 10
9435.417031986061
 20
9269.515360473251
 30
0.0
 40
6.30000000000109
100
AcDbArc
 50
270.0
 51
0.0
  0
LINE
  5
1A927
330
1AA0B
100
AcDbEntity
  8
U1
100
AcDbLine
 10
9435.417031986061
 20
9263.215360473251
 30
0.0
 11
9428.017031986057
 21
9263.215360473251
 31
0.0
  0
ARC
  5
1A928
330
1AA0B
100
AcDbEntity
  8
U1
100
AcDbCircle
 10
9428.017031986057
 20
9269.515360473251
 30
0.0
 40
6.299999999999272
100
AcDbArc
 50
180.0
 51
270.0
  0
ARC
  5
1A929
330
1AA0B
100
AcDbEntity
  8
U1
100
AcDbCircle
 10
9415.417031986056
 20
9269.515360473251
 30
0.0
 40
6.30000000000109
100
AcDbArc
 50
270.0
 51
359.9999999999833
  0
LINE
  5
1A92A
330
1AA0B
100
AcDbEntity
  8
U1
100
AcDbLine
 10
9415.417031986056
 20
9263.215360473251
 30
0.0
 11
9383.017031986055
 21
9263.215360473251
 31
0.0
  0
ARC
  5
1A92B
330
1AA0B
100
AcDbEntity
  8
U1
100
AcDbCircle
 10
9383.017031986055
 20
9269.515360473251
 30
0.0
 40
6.30000000000109
100
AcDbArc
 50
180.0
 51
270.0
  0
LINE
  5
1A92C
330
1AA0B
100
AcDbEntity
  8
U1
100
AcDbLine
 10
9376.717031986059
 20
9269.515360473251
 30
0.0
 11
9376.717031986059
 21
9321.915360473253
 31
0.0
  0
ARC
  5
1A92D
330
1AA0B
100
AcDbEntity
  8
U1
100
AcDbCircle
 10
9383.017031986064
 20
9321.915360473253
 30
0.0
 40
6.30000000000109
100
AcDbArc
 50
90.0
 51
180.0
  0
LINE
  5
1A92E
330
1AA0B
100
AcDbEntity
  8
U1
100
AcDbLine
 10
9383.017031986064
 20
9328.215360473254
 30
0.0
 11
9435.417031986061
 21
9328.215360473254
 31
0.0
  0
ARC
  5
1A92F
330
1AA0B
100
AcDbEntity
  8
U1
100
AcDbCircle
 10
9435.417031986061
 20
9321.915360473253
 30
0.0
 40
6.299999999999272
100
AcDbArc
 50
0.0
 51
90.0
  0
LINE
  5
1A930
330
1AA0B
100
AcDbEntity
  8
U1
100
AcDbLine
 10
9441.71703198606
 20
9321.915360473253
 30
0.0
 11
9441.71703198606
 21
9269.515360473251
 31
0.0
  0
ARC
  5
1A931
330
1AA0B
100
AcDbEntity
  8
U1
100
AcDbCircle
 10
6933.01703198606
 20
9269.515360473251
 30
0.0
 40
6.300000000000181
100
AcDbArc
 50
180.0
 51
270.0
  0
LINE
  5
1A932
330
1AA0B
100
AcDbEntity
  8
U1
100
AcDbLine
 10
6933.01703198606
 20
9263.215360473251
 30
0.0
 11
6940.41703198606
 21
9263.215360473251
 31
0.0
  0
ARC
  5
1A933
330
1AA0B
100
AcDbEntity
  8
U1
100
AcDbCircle
 10
6940.417031986061
 20
9269.515360473251
 30
0.0
 40
6.299999999999272
100
AcDbArc
 50
269.9999999999918
 51
0.0
  0
ARC
  5
1A934
330
1AA0B
100
AcDbEntity
  8
U1
100
AcDbCircle
 10
6953.01703198606
 20
9269.515360473251
 30
0.0
 40
6.299999999999272
100
AcDbArc
 50
180.0
 51
270.0000000000081
  0
LINE
  5
1A935
330
1AA0B
100
AcDbEntity
  8
U1
100
AcDbLine
 10
6953.01703198606
 20
9263.215360473251
 30
0.0
 11
6985.41703198606
 21
9263.215360473251
 31
0.0
  0
ARC
  5
1A936
330
1AA0B
100
AcDbEntity
  8
U1
100
AcDbCircle
 10
6985.41703198606
 20
9269.515360473251
 30
0.0
 40
6.299999999999272
100
AcDbArc
 50
269.9999999999918
 51
0.0
  0
LINE
  5
1A937
330
1AA0B
100
AcDbEntity
  8
U1
100
AcDbLine
 10
6991.71703198606
 20
9269.515360473251
 30
0.0
 11
6991.71703198606
 21
9321.915360473253
 31
0.0
  0
ARC
  5
1A938
330
1AA0B
100
AcDbEntity
  8
U1
100
AcDbCircle
 10
6985.41703198606
 20
9321.915360473253
 30
0.0
 40
6.299999999999272
100
AcDbArc
 50
0.0
 51
90.00000000000826
  0
LINE
  5
1A939
330
1AA0B
100
AcDbEntity
  8
U1
100
AcDbLine
 10
6985.41703198606
 20
9328.215360473254
 30
0.0
 11
6933.01703198606
 21
9328.215360473254
 31
0.0
  0
ARC
  5
1A93A
330
1AA0B
100
AcDbEntity
  8
U1
100
AcDbCircle
 10
6933.017031986058
 20
9321.915360473253
 30
0.0
 40
6.299999999999272
100
AcDbArc
 50
89.99999999999173
 51
180.0
  0
LINE
  5
1A93B
330
1AA0B
100
AcDbEntity
  8
U1
100
AcDbLine
 10
6926.71703198606
 20
9321.915360473253
 30
0.0
 11
6926.71703198606
 21
9269.515360473251
 31
0.0
  0
ARC
  5
1A93C
330
1AA0B
100
AcDbEntity
  8
U1
100
AcDbCircle
 10
6933.017031986058
 20
5721.915360473253
 30
0.0
 40
6.299999999999272
100
AcDbArc
 50
89.99999999999173
 51
180.0000000000082
  0
LINE
  5
1A93D
330
1AA0B
100
AcDbEntity
  8
U1
100
AcDbLine
 10
6933.01703198606
 20
5728.215360473252
 30
0.0
 11
6940.41703198606
 21
5728.215360473252
 31
0.0
  0
ARC
  5
1A93E
330
1AA0B
100
AcDbEntity
  8
U1
100
AcDbCircle
 10
6940.417031986061
 20
5721.915360473253
 30
0.0
 40
6.299999999999272
100
AcDbArc
 50
359.9999999999917
 51
90.00000000000826
  0
ARC
  5
1A93F
330
1AA0B
100
AcDbEntity
  8
U1
100
AcDbCircle
 10
6953.01703198606
 20
5721.915360473252
 30
0.0
 40
6.300000000000181
100
AcDbArc
 50
90.0
 51
180.0
  0
LINE
  5
1A940
330
1AA0B
100
AcDbEntity
  8
U1
100
AcDbLine
 10
6953.01703198606
 20
5728.215360473252
 30
0.0
 11
6985.41703198606
 21
5728.215360473252
 31
0.0
  0
ARC
  5
1A941
330
1AA0B
100
AcDbEntity
  8
U1
100
AcDbCircle
 10
6985.41703198606
 20
5721.915360473253
 30
0.0
 40
6.299999999999272
100
AcDbArc
 50
359.9999999999917
 51
90.00000000000826
  0
LINE
  5
1A942
330
1AA0B
100
AcDbEntity
  8
U1
100
AcDbLine
 10
6991.71703198606
 20
5721.915360473252
 30
0.0
 11
6991.71703198606
 21
5669.51536047325
 31
0.0
  0
ARC
  5
1A943
330
1AA0B
100
AcDbEntity
  8
U1
100
AcDbCircle
 10
6985.41703198606
 20
5669.51536047325
 30
0.0
 40
6.299999999999272
100
AcDbArc
 50
269.9999999999918
 51
0.0
  0
LINE
  5
1A944
330
1AA0B
100
AcDbEntity
  8
U1
100
AcDbLine
 10
6985.41703198606
 20
5663.215360473252
 30
0.0
 11
6933.01703198606
 21
5663.215360473252
 31
0.0
  0
ARC
  5
1A945
330
1AA0B
100
AcDbEntity
  8
U1
100
AcDbCircle
 10
6933.017031986058
 20
5669.51536047325
 30
0.0
 40
6.299999999999272
100
AcDbArc
 50
180.0
 51
270.0000000000081
  0
LINE
  5
1A946
330
1AA0B
100
AcDbEntity
  8
U1
100
AcDbLine
 10
6926.71703198606
 20
5669.51536047325
 30
0.0
 11
6926.71703198606
 21
5721.915360473252
 31
0.0
  0
ARC
  5
1A947
330
1AA0B
100
AcDbEntity
  8
U1
100
AcDbCircle
 10
9435.417031986061
 20
5721.915360473253
 30
0.0
 40
6.299999999999272
100
AcDbArc
 50
359.9999999999917
 51
90.0
  0
LINE
  5
1A948
330
1AA0B
100
AcDbEntity
  8
U1
100
AcDbLine
 10
9435.417031986061
 20
5728.215360473252
 30
0.0
 11
9428.017031986057
 21
5728.215360473252
 31
0.0
  0
ARC
  5
1A949
330
1AA0B
100
AcDbEntity
  8
U1
100
AcDbCircle
 10
9428.017031986057
 20
5721.915360473253
 30
0.0
 40
6.299999999999272
100
AcDbArc
 50
90.0
 51
180.0000000000082
  0
ARC
  5
1A94A
330
1AA0B
100
AcDbEntity
  8
U1
100
AcDbCircle
 10
9415.417031986061
 20
5721.915360473253
 30
0.0
 40
6.299999999999272
100
AcDbArc
 50
359.9999999999917
 51
90.0
  0
LINE
  5
1A94B
330
1AA0B
100
AcDbEntity
  8
U1
100
AcDbLine
 10
9415.417031986061
 20
5728.215360473252
 30
0.0
 11
9383.017031986055
 21
5728.215360473252
 31
0.0
  0
ARC
  5
1A94C
330
1AA0B
100
AcDbEntity
  8
U1
100
AcDbCircle
 10
9383.017031986055
 20
5721.915360473253
 30
0.0
 40
6.299999999999272
100
AcDbArc
 50
90.0
 51
180.0000000000082
  0
LINE
  5
1A94D
330
1AA0B
100
AcDbEntity
  8
U1
100
AcDbLine
 10
9376.717031986059
 20
5721.915360473252
 30
0.0
 11
9376.717031986059
 21
5669.51536047325
 31
0.0
  0
ARC
  5
1A94E
330
1AA0B
100
AcDbEntity
  8
U1
100
AcDbCircle
 10
9383.017031986055
 20
5669.51536047325
 30
0.0
 40
6.299999999999272
100
AcDbArc
 50
180.0
 51
270.0
  0
LINE
  5
1A94F
330
1AA0B
100
AcDbEntity
  8
U1
100
AcDbLine
 10
9383.017031986055
 20
5663.215360473252
 30
0.0
 11
9435.417031986061
 21
5663.215360473252
 31
0.0
  0
ARC
  5
1A950
330
1AA0B
100
AcDbEntity
  8
U1
100
AcDbCircle
 10
9435.417031986061
 20
5669.51536047325
 30
0.0
 40
6.299999999999272
100
AcDbArc
 50
270.0
 51
0.0
  0
LINE
  5
1A951
330
1AA0B
100
AcDbEntity
  8
U1
100
AcDbLine
 10
9441.71703198606
 20
5669.51536047325
 30
0.0
 11
9441.71703198606
 21
5721.915360473252
 31
0.0
  0
ARC
  5
1A952
330
1AA0B
100
AcDbEntity
  8
U1
100
AcDbCircle
 10
6933.017031986058
 20
7521.915360473252
 30
0.0
 40
6.299999999999272
100
AcDbArc
 50
89.99999999999173
 51
180.0000000000082
  0
LINE
  5
1A953
330
1AA0B
100
AcDbEntity
  8
U1
100
AcDbLine
 10
6933.01703198606
 20
7528.215360473253
 30
0.0
 11
6940.41703198606
 21
7528.215360473253
 31
0.0
  0
ARC
  5
1A954
330
1AA0B
100
AcDbEntity
  8
U1
100
AcDbCircle
 10
6940.417031986061
 20
7521.915360473252
 30
0.0
 40
6.299999999999272
100
AcDbArc
 50
359.9999999999917
 51
90.00000000000826
  0
ARC
  5
1A955
330
1AA0B
100
AcDbEntity
  8
U1
100
AcDbCircle
 10
6953.01703198606
 20
7521.915360473252
 30
0.0
 40
6.300000000000181
100
AcDbArc
 50
90.0
 51
180.0
  0
LINE
  5
1A956
330
1AA0B
100
AcDbEntity
  8
U1
100
AcDbLine
 10
6953.01703198606
 20
7528.215360473253
 30
0.0
 11
6985.41703198606
 21
7528.215360473253
 31
0.0
  0
ARC
  5
1A957
330
1AA0B
100
AcDbEntity
  8
U1
100
AcDbCircle
 10
6985.41703198606
 20
7521.915360473252
 30
0.0
 40
6.299999999999272
100
AcDbArc
 50
359.9999999999917
 51
90.00000000000826
  0
LINE
  5
1A958
330
1AA0B
100
AcDbEntity
  8
U1
100
AcDbLine
 10
6991.71703198606
 20
7521.915360473252
 30
0.0
 11
6991.71703198606
 21
7469.515360473251
 31
0.0
  0
ARC
  5
1A959
330
1AA0B
100
AcDbEntity
  8
U1
100
AcDbCircle
 10
6985.41703198606
 20
7469.515360473251
 30
0.0
 40
6.299999999999272
100
AcDbArc
 50
269.9999999999918
 51
0.0
  0
LINE
  5
1A95A
330
1AA0B
100
AcDbEntity
  8
U1
100
AcDbLine
 10
6985.41703198606
 20
7463.215360473252
 30
0.0
 11
6933.01703198606
 21
7463.215360473252
 31
0.0
  0
ARC
  5
1A95B
330
1AA0B
100
AcDbEntity
  8
U1
100
AcDbCircle
 10
6933.017031986058
 20
7469.515360473251
 30
0.0
 40
6.299999999999272
100
AcDbArc
 50
180.0
 51
270.0000000000081
  0
LINE
  5
1A95C
330
1AA0B
100
AcDbEntity
  8
U1
100
AcDbLine
 10
6926.71703198606
 20
7469.515360473251
 30
0.0
 11
6926.71703198606
 21
7521.915360473252
 31
0.0
  0
ARC
  5
1A95D
330
1AA0B
100
AcDbEntity
  8
U1
100
AcDbCircle
 10
9435.417031986061
 20
7521.915360473252
 30
0.0
 40
6.299999999999272
100
AcDbArc
 50
359.9999999999917
 51
90.0
  0
LINE
  5
1A95E
330
1AA0B
100
AcDbEntity
  8
U1
100
AcDbLine
 10
9435.417031986061
 20
7528.215360473253
 30
0.0
 11
9428.017031986057
 21
7528.215360473253
 31
0.0
  0
ARC
  5
1A95F
330
1AA0B
100
AcDbEntity
  8
U1
100
AcDbCircle
 10
9428.017031986057
 20
7521.915360473252
 30
0.0
 40
6.299999999999272
100
AcDbArc
 50
90.0
 51
180.0000000000082
  0
ARC
  5
1A960
330
1AA0B
100
AcDbEntity
  8
U1
100
AcDbCircle
 10
9415.417031986061
 20
7521.915360473252
 30
0.0
 40
6.299999999999272
100
AcDbArc
 50
359.9999999999917
 51
90.0
  0
LINE
  5
1A961
330
1AA0B
100
AcDbEntity
  8
U1
100
AcDbLine
 10
9415.417031986061
 20
7528.215360473253
 30
0.0
 11
9383.017031986055
 21
7528.215360473253
 31
0.0
  0
ARC
  5
1A962
330
1AA0B
100
AcDbEntity
  8
U1
100
AcDbCircle
 10
9383.017031986055
 20
7521.915360473252
 30
0.0
 40
6.299999999999272
100
AcDbArc
 50
90.0
 51
180.0000000000082
  0
LINE
  5
1A963
330
1AA0B
100
AcDbEntity
  8
U1
100
AcDbLine
 10
9376.717031986059
 20
7521.915360473252
 30
0.0
 11
9376.717031986059
 21
7469.515360473251
 31
0.0
  0
ARC
  5
1A964
330
1AA0B
100
AcDbEntity
  8
U1
100
AcDbCircle
 10
9383.017031986055
 20
7469.515360473251
 30
0.0
 40
6.299999999999272
100
AcDbArc
 50
180.0
 51
270.0
  0
LINE
  5
1A965
330
1AA0B
100
AcDbEntity
  8
U1
100
AcDbLine
 10
9383.017031986055
 20
7463.215360473252
 30
0.0
 11
9435.417031986061
 21
7463.215360473252
 31
0.0
  0
ARC
  5
1A966
330
1AA0B
100
AcDbEntity
  8
U1
100
AcDbCircle
 10
9435.417031986061
 20
7469.515360473251
 30
0.0
 40
6.299999999999272
100
AcDbArc
 50
270.0
 51
0.0
  0
LINE
  5
1A967
330
1AA0B
100
AcDbEntity
  8
U1
100
AcDbLine
 10
9441.71703198606
 20
7469.515360473251
 30
0.0
 11
9441.71703198606
 21
7521.915360473252
 31
0.0
  0
ENDSEC
  0
SECTION
  2
OBJECTS
  0
DICTIONARY
  5
1A9FB
330
0
100
AcDbDictionary
281
     1
  3
ACAD_GROUP
350
1A9FC
  3
ACAD_LAYOUT
350
1AA08
  3
ACAD_MLEADERSTYLE
350
1AA68
  3
ACAD_MLINESTYLE
350
1AA05
  3
ACAD_PLOTSETTINGS
350
1AA07
  3
ACAD_PLOTSTYLENAME
350
1A9FD
  3
ACAD_TABLESTYLE
350
1AA67
  3
AcDbVariableDictionary
350
1AA6F
  0
DICTIONARY
  5
1A9FC
102
{ACAD_REACTORS
330
1A9FB
102
}
330
1A9FB
100
AcDbDictionary
281
     1
  0
DICTIONARY
  5
1AA08
102
{ACAD_REACTORS
330
1A9FB
102
}
330
1A9FB
100
AcDbDictionary
281
     1
  3
Layout1
350
1AA0A
  3
Model
350
1AA0C
  0
DICTIONARY
  5
1AA68
102
{ACAD_REACTORS
330
1A9FB
102
}
330
1A9FB
100
AcDbDictionary
281
     1
  0
DICTIONARY
  5
1AA05
102
{ACAD_REACTORS
330
1A9FB
102
}
330
1A9FB
100
AcDbDictionary
281
     1
  3
Standard
350
1AA06
  0
DICTIONARY
  5
1AA07
102
{ACAD_REACTORS
330
1A9FB
102
}
330
1A9FB
100
AcDbDictionary
281
     1
  0
ACDBDICTIONARYWDFLT
  5
1A9FD
102
{ACAD_REACTORS
330
1A9FB
102
}
330
1A9FB
100
AcDbDictionary
281
     1
  3
Normal
350
1A9FE
100
AcDbDictionaryWithDefault
340
1A9FE
  0
DICTIONARY
  5
1AA67
102
{ACAD_REACTORS
330
1A9FB
102
}
330
1A9FB
100
AcDbDictionary
281
     1
  0
DICTIONARY
  5
1AA6F
102
{ACAD_REACTORS
330
1A9FB
102
}
330
1A9FB
100
AcDbDictionary
281
     1
  3
DIMASSOC
350
1AA70
  0
LAYOUT
  5
1AA0A
102
{ACAD_REACTORS
330
1AA08
102
}
330
1AA08
100
AcDbPlotSettings
  1

  2
none_device
  4

  6

 40
0.0
 41
0.0
 42
0.0
 43
0.0
 44
0.0
 45
0.0
 46
0.0
 47
0.0
 48
0.0
 49
0.0
140
0.0
141
0.0
142
1.0
143
1.0
 70
   688
 72
     0
 73
     0
 74
     5
  7

 75
    16
147
1.0
148
0.0
149
0.0
100
AcDbLayout
  1
Layout1
 70
     0
 71
     1
 10
0.0
 20
0.0
 11
12.0
 21
9.0
 12
0.0
 22
0.0
 32
0.0
 14
1.000000000000000E+20
 24
1.000000000000000E+20
 34
1.000000000000000E+20
 15
-1.000000000000000E+20
 25
-1.000000000000000E+20
 35
-1.000000000000000E+20
146
0.0
 13
0.0
 23
0.0
 33
0.0
 16
1.0
 26
0.0
 36
0.0
 17
0.0
 27
1.0
 37
0.0
 76
     0
330
1AA09
  0
LAYOUT
  5
1AA0C
102
{ACAD_REACTORS
330
1AA08
102
}
330
1AA08
100
AcDbPlotSettings
  1

  2
none_device
  4

  6

 40
0.0
 41
0.0
 42
0.0
 43
0.0
 44
0.0
 45
0.0
 46
0.0
 47
0.0
 48
0.0
 49
0.0
140
0.0
141
0.0
142
1.0
143
1.0
 70
  1712
 72
     0
 73
     0
 74
     0
  7

 75
     0
147
1.0
148
0.0
149
0.0
100
AcDbLayout
  1
Model
 70
     1
 71
     0
 10
0.0
 20
0.0
 11
12.0
 21
9.0
 12
267.0
 22
194.8999999999998
 32
0.0
 14
433.9966216520332
 24
163.6908237492789
 34
-0.0000000000000053
 15
16382.66605425469
 25
11242.27663824599
 35
0.0000000000000099
146
0.0
 13
0.0
 23
0.0
 33
0.0
 16
1.0
 26
0.0
 36
0.0
 17
0.0
 27
1.0
 37
0.0
 76
     0
330
1AA0B
331
1AA0E
  0
MLINESTYLE
  5
1AA06
102
{ACAD_REACTORS
330
1AA05
102
}
330
1AA05
100
AcDbMlineStyle
  2
STANDARD
 70
     0
  3

 62
   256
 51
90.0
 52
90.0
 71
     2
 49
0.5
 62
   256
  6
BYLAYER
 49
-0.5
 62
   256
  6
BYLAYER
  0
ACDBPLACEHOLDER
  5
1A9FE
102
{ACAD_REACTORS
330
1A9FD
102
}
330
1A9FD
  0
DICTIONARYVAR
  5
1AA70
102
{ACAD_REACTORS
330
1AA6F
102
}
330
1AA6F
100
DictionaryVariables
280
     0
  1
1
  0
ENDSEC
  0
EOF
