  0
SECTION
  2
HEADER
  9
$ACADVER
  1
AC1015
  9
$ACADMAINTVER
 70
    13
  9
$DWGCODEPAGE
  3
ANSI_932
  9
$INSBASE
 10
267.0
 20
194.8999999999998
 30
0.0
  9
$EXTMIN
 10
433.9966216520333
 20
163.6908237492789
 30
-0.0000000000000053
  9
$EXTMAX
 10
16382.6660542547
 20
11242.27663824599
 30
0.0000000000000099
  9
$LIMMIN
 10
0.0
 20
0.0
  9
$LIMMAX
 10
16800.0
 20
11880.0
  9
$ORTHOMODE
 70
     0
  9
$REGENMODE
 70
     1
  9
$FILLMODE
 70
     1
  9
$QTEXTMODE
 70
     0
  9
$MIRRTEXT
 70
     0
  9
$LTSCALE
 40
40.0
  9
$ATTMODE
 70
     1
  9
$TEXTSIZE
 40
0.2
  9
$TRACEWID
 40
0.05
  9
$TEXTSTYLE
  7
00
  9
$CLAYER
  8
SUNPOU
  9
$CELTYPE
  6
ByLayer
  9
$CECOLOR
 62
   256
  9
$CELTSCALE
 40
1.0
  9
$DISPSILH
 70
     0
  9
$DIMSCALE
 40
40.0
  9
$DIMASZ
 40
0.5
  9
$DIMEXO
 40
1.0
  9
$DIMDLI
 40
7.0
  9
$DIMRND
 40
0.0
  9
$DIMDLE
 40
3.0
  9
$DIMEXE
 40
1.5
  9
$DIMTP
 40
0.0
  9
$DIMTM
 40
0.0
  9
$DIMTXT
 40
3.0
  9
$DIMCEN
 40
0.0
  9
$DIMTSZ
 40
0.0
  9
$DIMTOL
 70
     0
  9
$DIMLIM
 70
     0
  9
$DIMTIH
 70
     0
  9
$DIMTOH
 70
     0
  9
$DIMSE1
 70
     0
  9
$DIMSE2
 70
     0
  9
$DIMTAD
 70
     1
  9
$DIMZIN
 70
     8
  9
$DIMBLK
  1
DOT
  9
$DIMASO
 70
     1
  9
$DIMSHO
 70
     0
  9
$DIMPOST
  1

  9
$DIMAPOST
  1

  9
$DIMALT
 70
     0
  9
$DIMALTD
 70
     2
  9
$DIMALTF
 40
25.4
  9
$DIMLFAC
 40
1.0
  9
$DIMTOFL
 70
     1
  9
$DIMTVP
 40
0.0
  9
$DIMTIX
 70
     0
  9
$DIMSOXD
 70
     0
  9
$DIMSAH
 70
     1
  9
$DIMBLK1
  1
DOT
  9
$DIMBLK2
  1
DOT
  9
$DIMSTYLE
  2
SUNPOU_図面名
  9
$DIMCLRD
 70
   256
  9
$DIMCLRE
 70
   256
  9
$DIMCLRT
 70
   256
  9
$DIMTFAC
 40
1.0
  9
$DIMGAP
 40
1.5
  9
$DIMJUST
 70
     0
  9
$DIMSD1
 70
     0
  9
$DIMSD2
 70
     0
  9
$DIMTOLJ
 70
     1
  9
$DIMTZIN
 70
     0
  9
$DIMALTZ
 70
     0
  9
$DIMALTTZ
 70
     0
  9
$DIMUPT
 70
     0
  9
$DIMDEC
 70
     4
  9
$DIMTDEC
 70
     4
  9
$DIMALTU
 70
     2
  9
$DIMALTTD
 70
     2
  9
$DIMTXSTY
  7
STANDARD
  9
$DIMAUNIT
 70
     0
  9
$DIMADEC
 70
     0
  9
$DIMALTRND
 40
0.0
  9
$DIMAZIN
 70
     0
  9
$DIMDSEP
 70
    46
  9
$DIMATFIT
 70
     3
  9
$DIMFRAC
 70
     0
  9
$DIMLDRBLK
  1
DOT
  9
$DIMLUNIT
 70
     2
  9
$DIMLWD
 70
    -2
  9
$DIMLWE
 70
    -2
  9
$DIMTMOVE
 70
     0
  9
$LUNITS
 70
     2
  9
$LUPREC
 70
     2
  9
$SKETCHINC
 40
0.1
  9
$FILLETRAD
 40
0.0
  9
$AUNITS
 70
     0
  9
$AUPREC
 70
     0
  9
$MENU
  1
A:\TIGER\MENU\TIGER
  9
$ELEVATION
 40
0.0
  9
$PELEVATION
 40
0.0
  9
$THICKNESS
 40
0.0
  9
$LIMCHECK
 70
     0
  9
$CHAMFERA
 40
0.0
  9
$CHAMFERB
 40
0.0
  9
$CHAMFERC
 40
0.0
  9
$CHAMFERD
 40
0.0
  9
$SKPOLY
 70
     0
  9
$TDCREATE
 40
2450266.571064815
  9
$TDUCREATE
 40
2450266.196064815
  9
$TDUPDATE
 40
2456332.413179791
  9
$TDUUPDATE
 40
2456332.038179791
  9
$TDINDWG
 40
0.2367876505
  9
$TDUSRTIMER
 40
0.2367874653
  9
$USRTIMER
 70
     1
  9
$ANGBASE
 50
0.0
  9
$ANGDIR
 70
     0
  9
$PDMODE
 70
     0
  9
$PDSIZE
 40
0.0
  9
$PLINEWID
 40
0.0
  9
$SPLFRAME
 70
     0
  9
$SPLINETYPE
 70
     6
  9
$SPLINESEGS
 70
     8
  9
$HANDSEED
  5
1C4D0
  9
$SURFTAB1
 70
     6
  9
$SURFTAB2
 70
     6
  9
$SURFTYPE
 70
     6
  9
$SURFU
 70
     6
  9
$SURFV
 70
     6
  9
$UCSBASE
  2

  9
$UCSNAME
  2

  9
$UCSORG
 10
0.0
 20
0.0
 30
0.0
  9
$UCSXDIR
 10
1.0
 20
0.0
 30
0.0
  9
$UCSYDIR
 10
0.0
 20
1.0
 30
0.0
  9
$UCSORTHOREF
  2

  9
$UCSORTHOVIEW
 70
     0
  9
$UCSORGTOP
 10
0.0
 20
0.0
 30
0.0
  9
$UCSORGBOTTOM
 10
0.0
 20
0.0
 30
0.0
  9
$UCSORGLEFT
 10
0.0
 20
0.0
 30
0.0
  9
$UCSORGRIGHT
 10
0.0
 20
0.0
 30
0.0
  9
$UCSORGFRONT
 10
0.0
 20
0.0
 30
0.0
  9
$UCSORGBACK
 10
0.0
 20
0.0
 30
0.0
  9
$PUCSBASE
  2

  9
$PUCSNAME
  2

  9
$PUCSORG
 10
0.0
 20
0.0
 30
0.0
  9
$PUCSXDIR
 10
1.0
 20
0.0
 30
0.0
  9
$PUCSYDIR
 10
0.0
 20
1.0
 30
0.0
  9
$PUCSORTHOREF
  2

  9
$PUCSORTHOVIEW
 70
     0
  9
$PUCSORGTOP
 10
0.0
 20
0.0
 30
0.0
  9
$PUCSORGBOTTOM
 10
0.0
 20
0.0
 30
0.0
  9
$PUCSORGLEFT
 10
0.0
 20
0.0
 30
0.0
  9
$PUCSORGRIGHT
 10
0.0
 20
0.0
 30
0.0
  9
$PUCSORGFRONT
 10
0.0
 20
0.0
 30
0.0
  9
$PUCSORGBACK
 10
0.0
 20
0.0
 30
0.0
  9
$USERI1
 70
     3
  9
$USERI2
 70
     0
  9
$USERI3
 70
     0
  9
$USERI4
 70
     0
  9
$USERI5
 70
  1103
  9
$USERR1
 40
0.0
  9
$USERR2
 40
1.0
  9
$USERR3
 40
0.0
  9
$USERR4
 40
0.0
  9
$USERR5
 40
0.0
  9
$WORLDVIEW
 70
     1
  9
$SHADEDGE
 70
     3
  9
$SHADEDIF
 70
    70
  9
$TILEMODE
 70
     1
  9
$MAXACTVP
 70
    16
  9
$PINSBASE
 10
0.0
 20
0.0
 30
0.0
  9
$PLIMCHECK
 70
     0
  9
$PEXTMIN
 10
1.000000000000000E+20
 20
1.000000000000000E+20
 30
1.000000000000000E+20
  9
$PEXTMAX
 10
-1.000000000000000E+20
 20
-1.000000000000000E+20
 30
-1.000000000000000E+20
  9
$PLIMMIN
 10
0.0
 20
0.0
  9
$PLIMMAX
 10
12.0
 20
9.0
  9
$UNITMODE
 70
     0
  9
$VISRETAIN
 70
     0
  9
$PLINEGEN
 70
     1
  9
$PSLTSCALE
 70
     0
  9
$TREEDEPTH
 70
  3020
  9
$CMLSTYLE
  2
Standard
  9
$CMLJUST
 70
     0
  9
$CMLSCALE
 40
1.0
  9
$PROXYGRAPHICS
 70
     1
  9
$MEASUREMENT
 70
     0
  9
$CELWEIGHT
370
    -1
  9
$ENDCAPS
280
     0
  9
$JOINSTYLE
280
     0
  9
$LWDISPLAY
290
     0
  9
$INSUNITS
 70
     0
  9
$HYPERLINKBASE
  1

  9
$STYLESHEET
  1

  9
$XEDIT
290
     1
  9
$CEPSNTYPE
380
     0
  9
$PSTYLEMODE
290
     1
  9
$FINGERPRINTGUID
  2
{75CF325D-191C-49C0-BB77-EC07BC78F22F}
  9
$VERSIONGUID
  2
{5565EF28-05E3-4B5F-8825-5CFED3F6706B}
  9
$EXTNAMES
290
     1
  9
$PSVPSCALE
 40
0.0
  9
$OLESTARTUP
290
     0
  0
ENDSEC
  0
SECTION
  2
CLASSES
  0
CLASS
  1
ACDBDICTIONARYWDFLT
  2
AcDbDictionaryWithDefault
  3
AutoCAD 2000
 90
        0
280
     0
281
     0
  0
CLASS
  1
ACDBPLACEHOLDER
  2
AcDbPlaceHolder
  3
AutoCAD 2000
 90
        0
280
     0
281
     0
  0
CLASS
  1
LAYOUT
  2
AcDbLayout
  3
AutoCAD 2000
 90
        0
280
     0
281
     0
  0
CLASS
  1
DICTIONARYVAR
  2
AcDbDictionaryVar
  3
AutoCAD 2000
 90
        0
280
     0
281
     0
  0
ENDSEC
  0
SECTION
  2
TABLES
  0
TABLE
  2
VPORT
  5
1BD84
330
0
100
AcDbSymbolTable
 70
     2
  0
VPORT
  5
1C4CF
330
1BD84
100
AcDbSymbolTableRecord
100
AcDbViewportTableRecord
  2
*Active
 70
     0
 10
0.0
 20
0.0
 11
1.0
 21
1.0
 12
8408.331337953367
 22
5702.983730997637
 13
0.0
 23
0.0
 14
1.0
 24
1.0
 15
0.0
 25
0.0
 16
0.0
 26
0.0
 36
1.0
 17
0.0
 27
0.0
 37
0.0
 40
11163.50538397298
 41
1.527918781725888
 42
50.0
 43
0.0
 44
0.0
 50
0.0
 51
0.0
 71
     0
 72
 10000
 73
     1
 74
     0
 75
     0
 76
     0
 77
     0
 78
     0
281
     0
 65
     1
110
0.0
120
0.0
130
0.0
111
1.0
121
0.0
131
0.0
112
0.0
122
1.0
132
0.0
 79
     0
146
0.0
  0
ENDTAB
  0
TABLE
  2
LTYPE
  5
1BD81
330
0
100
AcDbSymbolTable
 70
     7
  0
LTYPE
  5
1BD8F
330
1BD81
100
AcDbSymbolTableRecord
100
AcDbLinetypeTableRecord
  2
ByBlock
 70
     0
  3

 72
    65
 73
     0
 40
0.0
  0
LTYPE
  5
1BD90
330
1BD81
100
AcDbSymbolTableRecord
100
AcDbLinetypeTableRecord
  2
ByLayer
 70
     0
  3

 72
    65
 73
     0
 40
0.0
  0
LTYPE
  5
1BD91
330
1BD81
100
AcDbSymbolTableRecord
100
AcDbLinetypeTableRecord
  2
CONTINUOUS
 70
     0
  3
実線
 72
    65
 73
     0
 40
0.0
  0
LTYPE
  5
1BDA1
330
1BD81
100
AcDbSymbolTableRecord
100
AcDbLinetypeTableRecord
  2
TENSEN-
 70
     0
  3

 72
    65
 73
     2
 40
0.6000000000000001
 49
0.2
 74
     0
 49
-0.4
 74
     0
  0
LTYPE
  5
1BDA2
330
1BD81
100
AcDbSymbolTableRecord
100
AcDbLinetypeTableRecord
  2
1PL-LL
 70
     0
  3

 72
    65
 73
     4
 40
106.0
 49
100.0
 74
     0
 49
-2.0
 74
     0
 49
2.0
 74
     0
 49
-2.0
 74
     0
  0
LTYPE
  5
1BDA3
330
1BD81
100
AcDbSymbolTableRecord
100
AcDbLinetypeTableRecord
  2
1PL-M
 70
     0
  3

 72
    65
 73
     4
 40
15.0
 49
12.0
 74
     0
 49
-1.0
 74
     0
 49
1.0
 74
     0
 49
-1.0
 74
     0
  0
LTYPE
  5
1BDA4
330
1BD81
100
AcDbSymbolTableRecord
100
AcDbLinetypeTableRecord
  2
1PL-S
 70
     0
  3

 72
    65
 73
     4
 40
4.0
 49
2.5
 74
     0
 49
-0.5
 74
     0
 49
0.5
 74
     0
 49
-0.5
 74
     0
  0
LTYPE
  5
1BDA5
330
1BD81
100
AcDbSymbolTableRecord
100
AcDbLinetypeTableRecord
  2
2PL-L
 70
     0
  3

 72
    65
 73
     6
 40
60.0
 49
50.0
 74
     0
 49
-2.0
 74
     0
 49
2.0
 74
     0
 49
-2.0
 74
     0
 49
2.0
 74
     0
 49
-2.0
 74
     0
  0
LTYPE
  5
1BDA6
330
1BD81
100
AcDbSymbolTableRecord
100
AcDbLinetypeTableRecord
  2
1PL-12
 70
     0
  3

 72
    65
 73
     4
 40
15.0
 49
12.0
 74
     0
 49
-1.0
 74
     0
 49
1.0
 74
     0
 49
-1.0
 74
     0
  0
ENDTAB
  0
TABLE
  2
LAYER
  5
1BD7E
330
0
100
AcDbSymbolTable
 70
    21
  0
LAYER
  5
1BD8C
330
1BD7E
100
AcDbSymbolTableRecord
100
AcDbLayerTableRecord
  2
0
 70
     0
 62
     7
  6
CONTINUOUS
370
    -3
390
1BD8B
  0
LAYER
  5
1BD9E
330
1BD7E
100
AcDbSymbolTableRecord
100
AcDbLayerTableRecord
  2
SUNPOU
 70
     0
 62
     4
  6
CONTINUOUS
370
    -3
390
1BD8B
  0
LAYER
  5
1BDA7
330
1BD7E
100
AcDbSymbolTableRecord
100
AcDbLayerTableRecord
  2
U1
 70
     0
 62
     3
  6
CONTINUOUS
370
    -3
390
1BD8B
  0
LAYER
  5
1BDA8
330
1BD7E
100
AcDbSymbolTableRecord
100
AcDbLayerTableRecord
  2
U3
 70
     0
 62
     6
  6
CONTINUOUS
370
    -3
390
1BD8B
  0
LAYER
  5
1BDA9
330
1BD7E
100
AcDbSymbolTableRecord
100
AcDbLayerTableRecord
  2
HIKIDASHI
 70
     0
 62
     6
  6
CONTINUOUS
370
    -3
390
1BD8B
  0
LAYER
  5
1BDAA
330
1BD7E
100
AcDbSymbolTableRecord
100
AcDbLayerTableRecord
  2
TENSEN-1
 70
     0
 62
     6
  6
TENSEN-
370
    -3
390
1BD8B
  0
LAYER
  5
1BDAB
330
1BD7E
100
AcDbSymbolTableRecord
100
AcDbLayerTableRecord
  2
1PL-S1
 70
     0
 62
     6
  6
1PL-S
370
    -3
390
1BD8B
  0
LAYER
  5
1BDAC
330
1BD7E
100
AcDbSymbolTableRecord
100
AcDbLayerTableRecord
  2
1PL-M1
 70
     0
 62
     6
  6
1PL-M
370
    -3
390
1BD8B
  0
LAYER
  5
1BDAD
330
1BD7E
100
AcDbSymbolTableRecord
100
AcDbLayerTableRecord
  2
NAME
 70
     0
 62
    20
  6
CONTINUOUS
370
    -3
390
1BD8B
  0
LAYER
  5
1BDAE
330
1BD7E
100
AcDbSymbolTableRecord
100
AcDbLayerTableRecord
  2
FILENAME
 70
     0
 62
     7
  6
CONTINUOUS
370
    -3
390
1BD8B
  0
LAYER
  5
1BDAF
330
1BD7E
100
AcDbSymbolTableRecord
100
AcDbLayerTableRecord
  2
CENTER
 70
     0
 62
     6
  6
1PL-LL
370
    -3
390
1BD8B
  0
LAYER
  5
1BDB0
330
1BD7E
100
AcDbSymbolTableRecord
100
AcDbLayerTableRecord
  2
KISO
 70
     0
 62
     2
  6
CONTINUOUS
370
    -3
390
1BD8B
  0
LAYER
  5
1BDB1
330
1BD7E
100
AcDbSymbolTableRecord
100
AcDbLayerTableRecord
  2
BOLT
 70
     0
 62
     4
  6
CONTINUOUS
370
    -3
390
1BD8B
  0
LAYER
  5
1BDB2
330
1BD7E
100
AcDbSymbolTableRecord
100
AcDbLayerTableRecord
  2
YANE
 70
     0
 62
     1
  6
1PL-12
370
    -3
390
1BD8B
  0
LAYER
  5
1BDB3
330
1BD7E
100
AcDbSymbolTableRecord
100
AcDbLayerTableRecord
  2
HATCH
 70
     0
 62
     1
  6
CONTINUOUS
370
    -3
390
1BD8B
  0
LAYER
  5
1BDB4
330
1BD7E
100
AcDbSymbolTableRecord
100
AcDbLayerTableRecord
  2
HASHIRA
 70
     0
 62
     3
  6
CONTINUOUS
370
    -3
390
1BD8B
  0
LAYER
  5
1BDB5
330
1BD7E
100
AcDbSymbolTableRecord
100
AcDbLayerTableRecord
  2
DOMAKON
 70
     0
 62
     2
  6
CONTINUOUS
370
    -3
390
1BD8B
  0
LAYER
  5
1BDB6
330
1BD7E
100
AcDbSymbolTableRecord
100
AcDbLayerTableRecord
  2
YODOROGO
 70
     0
 62
   130
  6
CONTINUOUS
370
    -3
390
1BD8B
  0
LAYER
  5
1BDB7
330
1BD7E
100
AcDbSymbolTableRecord
100
AcDbLayerTableRecord
  2
WAKUSEN-01
 70
     0
 62
    50
  6
CONTINUOUS
370
    -3
390
1BD8B
  0
LAYER
  5
1BDB8
330
1BD7E
100
AcDbSymbolTableRecord
100
AcDbLayerTableRecord
  2
WAKUSEN-02
 70
     0
 62
   130
  6
CONTINUOUS
370
    -3
390
1BD8B
  0
LAYER
  5
1BDB9
330
1BD7E
100
AcDbSymbolTableRecord
100
AcDbLayerTableRecord
  2
WAKUMOJI-01
 70
     0
 62
   130
  6
CONTINUOUS
370
    -3
390
1BD8B
  0
ENDTAB
  0
TABLE
  2
STYLE
  5
1BD7F
330
0
100
AcDbSymbolTable
 70
     5
  0
STYLE
  5
1BD8D
330
1BD7F
100
AcDbSymbolTableRecord
100
AcDbTextStyleTableRecord
  2
STANDARD
 70
     0
 40
3.0
 41
1.0
 50
0.0
 71
     0
 42
0.2
  3
ROMANS
  4
EXTFONT
  0
STYLE
  5
1BD9F
330
1BD7F
100
AcDbSymbolTableRecord
100
AcDbTextStyleTableRecord
  2
00
 70
     0
 40
0.0
 41
0.6666666666666666
 50
0.0
 71
     0
 42
0.2
  3
ROMANS
  4
BIGFONT
  0
STYLE
  5
1BDBA
330
1BD7F
100
AcDbSymbolTableRecord
100
AcDbTextStyleTableRecord
  2
01
 70
     0
 40
3.0
 41
1.0
 50
0.0
 71
     0
 42
0.2
  3
ROMANS
  4
BIGFONT
  0
STYLE
  5
1BDBB
330
1BD7F
100
AcDbSymbolTableRecord
100
AcDbTextStyleTableRecord
  2
WAKUMOJI
 70
     0
 40
3.0
 41
1.0
 50
0.0
 71
     0
 42
3.0
  3
SIMPLEX
  4
BIGFONT
  0
STYLE
  5
1BDBC
330
1BD7F
100
AcDbSymbolTableRecord
100
AcDbTextStyleTableRecord
  2
FILENAME
 70
     0
 40
100.0
 41
1.0
 50
0.0
 71
     0
 42
100.0
  3
romans
  4
bigfont
  0
ENDTAB
  0
TABLE
  2
VIEW
  5
1BD82
330
0
100
AcDbSymbolTable
 70
     0
  0
ENDTAB
  0
TABLE
  2
UCS
  5
1BD83
330
0
100
AcDbSymbolTable
 70
     0
  0
ENDTAB
  0
TABLE
  2
APPID
  5
1BD85
330
0
100
AcDbSymbolTable
 70
     5
  0
APPID
  5
1BD8E
330
1BD85
100
AcDbSymbolTableRecord
100
AcDbRegAppTableRecord
  2
ACAD
 70
     0
  0
APPID
  5
1BDBD
330
1BD85
100
AcDbSymbolTableRecord
100
AcDbRegAppTableRecord
  2
AUTOCAD_POSTSCRIPT_FIGURE
 70
     0
  0
APPID
  5
1BDBE
330
1BD85
100
AcDbSymbolTableRecord
100
AcDbRegAppTableRecord
  2
ACAD_EXEMPT_FROM_CAD_STANDARDS
 70
     0
  0
APPID
  5
1BDBF
330
1BD85
100
AcDbSymbolTableRecord
100
AcDbRegAppTableRecord
  2
ACAD_PSEXT
 70
     0
  0
APPID
  5
1BDC0
330
1BD85
100
AcDbSymbolTableRecord
100
AcDbRegAppTableRecord
  2
ACLAYERTOOLS
 70
     0
  0
ENDTAB
  0
TABLE
  2
DIMSTYLE
  5
1BD86
330
0
100
AcDbSymbolTable
 70
     1
100
AcDbDimStyleTable
 71
     0
  0
DIMSTYLE
105
1BDC1
330
1BD86
100
AcDbSymbolTableRecord
100
AcDbDimStyleTableRecord
  2
SUNPOU_図面名
 70
     0
 40
30.0
 41
0.5
 42
1.0
 43
7.0
 44
1.5
 46
3.0
 73
     0
 74
     0
 77
     1
 78
     8
140
3.0
141
0.0
147
1.5
172
     1
173
     1
176
   256
177
   256
178
   256
271
     2
272
     2
279
     2
284
     8
285
     8
286
     8
340
1BD9F
  0
ENDTAB
  0
TABLE
  2
BLOCK_RECORD
  5
1BD7D
330
0
100
AcDbSymbolTable
 70
    44
  0
BLOCK_RECORD
  5
1BD9A
330
1BD7D
100
AcDbSymbolTableRecord
100
AcDbBlockTableRecord
  2
*Model_Space
340
1BD9D
  0
BLOCK_RECORD
  5
1BD96
330
1BD7D
100
AcDbSymbolTableRecord
100
AcDbBlockTableRecord
  2
*Paper_Space
340
1BD99
  0
BLOCK_RECORD
  5
1BDC6
330
1BD7D
100
AcDbSymbolTableRecord
100
AcDbBlockTableRecord
  2
$MODEL_SPACE
340
0
  0
BLOCK_RECORD
  5
1BDC9
330
1BD7D
100
AcDbSymbolTableRecord
100
AcDbBlockTableRecord
  2
$PAPER_SPACE
340
0
  0
BLOCK_RECORD
  5
1BDCC
330
1BD7D
100
AcDbSymbolTableRecord
100
AcDbBlockTableRecord
  2
DOT
340
0
  0
BLOCK_RECORD
  5
1BDD4
330
1BD7D
100
AcDbSymbolTableRecord
100
AcDbBlockTableRecord
  2
*U3
340
0
  0
BLOCK_RECORD
  5
1BDD8
330
1BD7D
100
AcDbSymbolTableRecord
100
AcDbBlockTableRecord
  2
*U4
340
0
  0
BLOCK_RECORD
  5
1BDDC
330
1BD7D
100
AcDbSymbolTableRecord
100
AcDbBlockTableRecord
  2
*U5
340
0
  0
BLOCK_RECORD
  5
1BDE0
330
1BD7D
100
AcDbSymbolTableRecord
100
AcDbBlockTableRecord
  2
*U6
340
0
  0
BLOCK_RECORD
  5
1BDE4
330
1BD7D
100
AcDbSymbolTableRecord
100
AcDbBlockTableRecord
  2
*U7
340
0
  0
BLOCK_RECORD
  5
1BDE8
330
1BD7D
100
AcDbSymbolTableRecord
100
AcDbBlockTableRecord
  2
*U8
340
0
  0
BLOCK_RECORD
  5
1BDEC
330
1BD7D
100
AcDbSymbolTableRecord
100
AcDbBlockTableRecord
  2
*U9
340
0
  0
BLOCK_RECORD
  5
1BDF0
330
1BD7D
100
AcDbSymbolTableRecord
100
AcDbBlockTableRecord
  2
*U10
340
0
  0
BLOCK_RECORD
  5
1BDF4
330
1BD7D
100
AcDbSymbolTableRecord
100
AcDbBlockTableRecord
  2
*U11
340
0
  0
BLOCK_RECORD
  5
1BDF8
330
1BD7D
100
AcDbSymbolTableRecord
100
AcDbBlockTableRecord
  2
*U12
340
0
  0
BLOCK_RECORD
  5
1BDFC
330
1BD7D
100
AcDbSymbolTableRecord
100
AcDbBlockTableRecord
  2
*U13
340
0
  0
BLOCK_RECORD
  5
1BE00
330
1BD7D
100
AcDbSymbolTableRecord
100
AcDbBlockTableRecord
  2
*U14
340
0
  0
BLOCK_RECORD
  5
1BE04
330
1BD7D
100
AcDbSymbolTableRecord
100
AcDbBlockTableRecord
  2
*U15
340
0
  0
BLOCK_RECORD
  5
1BE08
330
1BD7D
100
AcDbSymbolTableRecord
100
AcDbBlockTableRecord
  2
*U16
340
0
  0
BLOCK_RECORD
  5
1BE0C
330
1BD7D
100
AcDbSymbolTableRecord
100
AcDbBlockTableRecord
  2
*U17
340
0
  0
BLOCK_RECORD
  5
1BE10
330
1BD7D
100
AcDbSymbolTableRecord
100
AcDbBlockTableRecord
  2
*U18
340
0
  0
BLOCK_RECORD
  5
1BE14
330
1BD7D
100
AcDbSymbolTableRecord
100
AcDbBlockTableRecord
  2
*U19
340
0
  0
BLOCK_RECORD
  5
1BE18
330
1BD7D
100
AcDbSymbolTableRecord
100
AcDbBlockTableRecord
  2
*U20
340
0
  0
BLOCK_RECORD
  5
1BE1C
330
1BD7D
100
AcDbSymbolTableRecord
100
AcDbBlockTableRecord
  2
*U21
340
0
  0
BLOCK_RECORD
  5
1BE20
330
1BD7D
100
AcDbSymbolTableRecord
100
AcDbBlockTableRecord
  2
*U22
340
0
  0
BLOCK_RECORD
  5
1BE24
330
1BD7D
100
AcDbSymbolTableRecord
100
AcDbBlockTableRecord
  2
*U23
340
0
  0
BLOCK_RECORD
  5
1BE28
330
1BD7D
100
AcDbSymbolTableRecord
100
AcDbBlockTableRecord
  2
*U24
340
0
  0
BLOCK_RECORD
  5
1BE2C
330
1BD7D
100
AcDbSymbolTableRecord
100
AcDbBlockTableRecord
  2
*U25
340
0
  0
BLOCK_RECORD
  5
1BE30
330
1BD7D
100
AcDbSymbolTableRecord
100
AcDbBlockTableRecord
  2
*U26
340
0
  0
BLOCK_RECORD
  5
1BE34
330
1BD7D
100
AcDbSymbolTableRecord
100
AcDbBlockTableRecord
  2
*U27
340
0
  0
BLOCK_RECORD
  5
1BE38
330
1BD7D
100
AcDbSymbolTableRecord
100
AcDbBlockTableRecord
  2
*U28
340
0
  0
BLOCK_RECORD
  5
1BE3C
330
1BD7D
100
AcDbSymbolTableRecord
100
AcDbBlockTableRecord
  2
*U29
340
0
  0
BLOCK_RECORD
  5
1BE40
330
1BD7D
100
AcDbSymbolTableRecord
100
AcDbBlockTableRecord
  2
*U30
340
0
  0
BLOCK_RECORD
  5
1BE44
330
1BD7D
100
AcDbSymbolTableRecord
100
AcDbBlockTableRecord
  2
*U31
340
0
  0
BLOCK_RECORD
  5
1BE48
330
1BD7D
100
AcDbSymbolTableRecord
100
AcDbBlockTableRecord
  2
*U32
340
0
  0
BLOCK_RECORD
  5
1BE4C
330
1BD7D
100
AcDbSymbolTableRecord
100
AcDbBlockTableRecord
  2
*U33
340
0
  0
BLOCK_RECORD
  5
1BE50
330
1BD7D
100
AcDbSymbolTableRecord
100
AcDbBlockTableRecord
  2
*U34
340
0
  0
BLOCK_RECORD
  5
1BE54
330
1BD7D
100
AcDbSymbolTableRecord
100
AcDbBlockTableRecord
  2
*U35
340
0
  0
BLOCK_RECORD
  5
1BE58
330
1BD7D
100
AcDbSymbolTableRecord
100
AcDbBlockTableRecord
  2
*U36
340
0
  0
BLOCK_RECORD
  5
1BE5C
330
1BD7D
100
AcDbSymbolTableRecord
100
AcDbBlockTableRecord
  2
*U37
340
0
  0
BLOCK_RECORD
  5
1BE60
330
1BD7D
100
AcDbSymbolTableRecord
100
AcDbBlockTableRecord
  2
*U38
340
0
  0
BLOCK_RECORD
  5
1BE64
330
1BD7D
100
AcDbSymbolTableRecord
100
AcDbBlockTableRecord
  2
*U39
340
0
  0
BLOCK_RECORD
  5
1BE68
330
1BD7D
100
AcDbSymbolTableRecord
100
AcDbBlockTableRecord
  2
*U40
340
0
  0
BLOCK_RECORD
  5
1BE6C
330
1BD7D
100
AcDbSymbolTableRecord
100
AcDbBlockTableRecord
  2
*U41
340
0
  0
BLOCK_RECORD
  5
1BE70
330
1BD7D
100
AcDbSymbolTableRecord
100
AcDbBlockTableRecord
  2
*U42
340
0
  0
ENDTAB
  0
ENDSEC
  0
SECTION
  2
BLOCKS
  0
BLOCK
  5
1BD9B
330
1BD9A
100
AcDbEntity
  8
0
100
AcDbBlockBegin
  2
*Model_Space
 70
     0
 10
0.0
 20
0.0
 30
0.0
  3
*Model_Space
  1

  0
ENDBLK
  5
1BD9C
330
1BD9A
100
AcDbEntity
  8
0
100
AcDbBlockEnd
  0
BLOCK
  5
1BD97
330
1BD96
100
AcDbEntity
 67
     1
  8
0
100
AcDbBlockBegin
  2
*Paper_Space
 70
     0
 10
0.0
 20
0.0
 30
0.0
  3
*Paper_Space
  1

  0
ENDBLK
  5
1BD98
330
1BD96
100
AcDbEntity
 67
     1
  8
0
100
AcDbBlockEnd
  0
BLOCK
  5
1BDC7
330
1BDC6
100
AcDbEntity
  8
0
100
AcDbBlockBegin
  2
$MODEL_SPACE
 70
     0
 10
0.0
 20
0.0
 30
0.0
  3
$MODEL_SPACE
  1

  0
ENDBLK
  5
1BDC8
330
1BDC6
100
AcDbEntity
  8
0
100
AcDbBlockEnd
  0
BLOCK
  5
1BDCA
330
1BDC9
100
AcDbEntity
  8
0
100
AcDbBlockBegin
  2
$PAPER_SPACE
 70
     0
 10
0.0
 20
0.0
 30
0.0
  3
$PAPER_SPACE
  1

  0
ENDBLK
  5
1BDCB
330
1BDC9
100
AcDbEntity
  8
0
100
AcDbBlockEnd
  0
BLOCK
  5
1BDCD
330
1BDCC
100
AcDbEntity
  8
0
100
AcDbBlockBegin
  2
DOT
 70
     0
 10
0.0
 20
0.0
 30
0.0
  3
DOT
  1

  0
LWPOLYLINE
  5
1BDCE
330
1BDCC
100
AcDbEntity
  8
0
  6
ByBlock
 62
     0
100
AcDbPolyline
 90
        2
 70
     1
 43
0.75
 10
-0.375
 20
0.0
 42
1.0
 10
0.375
 20
0.0
 42
1.0
  0
LINE
  5
1BDD2
330
1BDCC
100
AcDbEntity
  8
0
  6
ByBlock
 62
     0
100
AcDbLine
 10
-0.75
 20
0.0
 30
0.0
 11
-1.5
 21
0.0
 31
0.0
  0
ENDBLK
  5
1BDD3
330
1BDCC
100
AcDbEntity
  8
0
100
AcDbBlockEnd
  0
BLOCK
  5
1BDD5
330
1BDD4
100
AcDbEntity
  8
0
100
AcDbBlockBegin
  2
*U3
 70
     1
 10
0.0
 20
0.0
 30
0.0
  3
*U3
  1

  0
TEXT
  5
1BDD6
330
1BDD4
100
AcDbEntity
  8
SUNPOU
100
AcDbText
 10
11855.58860891543
 20
3076.790768968928
 30
0.0
 40
90.0
  1
160
 41
0.6666666666666666
  7
00
100
AcDbText
  0
ENDBLK
  5
1BDD7
330
1BDD4
100
AcDbEntity
  8
0
100
AcDbBlockEnd
  0
BLOCK
  5
1BDD9
330
1BDD8
100
AcDbEntity
  8
0
100
AcDbBlockBegin
  2
*U4
 70
     1
 10
0.0
 20
0.0
 30
0.0
  3
*U4
  1

  0
TEXT
  5
1BDDA
330
1BDD8
100
AcDbEntity
  8
SUNPOU
100
AcDbText
 10
11444.87432320114
 20
3286.790768968928
 30
0.0
 40
90.0
  1
20
 41
0.6666666666666666
  7
00
100
AcDbText
  0
ENDBLK
  5
1BDDB
330
1BDD8
100
AcDbEntity
  8
0
100
AcDbBlockEnd
  0
BLOCK
  5
1BDDD
330
1BDDC
100
AcDbEntity
  8
0
100
AcDbBlockBegin
  2
*U5
 70
     1
 10
0.0
 20
0.0
 30
0.0
  3
*U5
  1

  0
TEXT
  5
1BDDE
330
1BDDC
100
AcDbEntity
  8
SUNPOU
100
AcDbText
 10
11855.58860891545
 20
3286.790768968928
 30
0.0
 40
90.0
  1
120
 41
0.6666666666666666
  7
00
100
AcDbText
  0
ENDBLK
  5
1BDDF
330
1BDDC
100
AcDbEntity
  8
0
100
AcDbBlockEnd
  0
BLOCK
  5
1BDE1
330
1BDE0
100
AcDbEntity
  8
0
100
AcDbBlockBegin
  2
*U6
 70
     1
 10
0.0
 20
0.0
 30
0.0
  3
*U6
  1

  0
TEXT
  5
1BDE2
330
1BDE0
100
AcDbEntity
  8
SUNPOU
100
AcDbText
 10
12332.017180344
 20
3286.790768968928
 30
0.0
 40
90.0
  1
20
 41
0.6666666666666666
  7
00
100
AcDbText
  0
ENDBLK
  5
1BDE3
330
1BDE0
100
AcDbEntity
  8
0
100
AcDbBlockEnd
  0
BLOCK
  5
1BDE5
330
1BDE4
100
AcDbEntity
  8
0
100
AcDbBlockBegin
  2
*U7
 70
     1
 10
0.0
 20
0.0
 30
0.0
  3
*U7
  1

  0
TEXT
  5
1BDE6
330
1BDE4
100
AcDbEntity
  8
SUNPOU
100
AcDbText
 10
11067.58860891543
 20
2490.621393224165
 30
0.0
 40
90.0
  1
80
 50
90.0
 41
0.6666666666666666
  7
00
100
AcDbText
  0
ENDBLK
  5
1BDE7
330
1BDE4
100
AcDbEntity
  8
0
100
AcDbBlockEnd
  0
BLOCK
  5
1BDE9
330
1BDE8
100
AcDbEntity
  8
0
100
AcDbBlockBegin
  2
*U8
 70
     1
 10
0.0
 20
0.0
 30
0.0
  3
*U8
  1

  0
TEXT
  5
1BDEA
330
1BDE8
100
AcDbEntity
  8
SUNPOU
100
AcDbText
 10
11277.58860891543
 20
2759.192821795593
 30
0.0
 40
90.0
  1
40
 50
90.0
 41
0.6666666666666666
  7
00
100
AcDbText
  0
ENDBLK
  5
1BDEB
330
1BDE8
100
AcDbEntity
  8
0
100
AcDbBlockEnd
  0
BLOCK
  5
1BDED
330
1BDEC
100
AcDbEntity
  8
0
100
AcDbBlockBegin
  2
*U9
 70
     1
 10
0.0
 20
0.0
 30
0.0
  3
*U9
  1

  0
TEXT
  5
1BDEE
330
1BDEC
100
AcDbEntity
  8
SUNPOU
100
AcDbText
 10
11277.58860891543
 20
2222.049964652736
 30
0.0
 40
90.0
  1
40
 50
90.0
 41
0.6666666666666666
  7
00
100
AcDbText
  0
ENDBLK
  5
1BDEF
330
1BDEC
100
AcDbEntity
  8
0
100
AcDbBlockEnd
  0
BLOCK
  5
1BDF1
330
1BDF0
100
AcDbEntity
  8
0
100
AcDbBlockBegin
  2
*U10
 70
     1
 10
0.0
 20
0.0
 30
0.0
  3
*U10
  1

  0
TEXT
  5
1BDF2
330
1BDF0
100
AcDbEntity
  8
SUNPOU
100
AcDbText
 10
11855.58860891543
 20
1928.424883029956
 30
0.0
 40
90.0
  1
160
 41
0.6666666666666666
  7
00
100
AcDbText
  0
ENDBLK
  5
1BDF3
330
1BDF0
100
AcDbEntity
  8
0
100
AcDbBlockEnd
  0
BLOCK
  5
1BDF5
330
1BDF4
100
AcDbEntity
  8
0
100
AcDbBlockBegin
  2
*U11
 70
     1
 10
0.0
 20
0.0
 30
0.0
  3
*U11
  1

  0
TEXT
  5
1BDF6
330
1BDF4
100
AcDbEntity
  8
SUNPOU
100
AcDbText
 10
11444.87432320114
 20
2138.424883029956
 30
0.0
 40
90.0
  1
20
 41
0.6666666666666666
  7
00
100
AcDbText
  0
ENDBLK
  5
1BDF7
330
1BDF4
100
AcDbEntity
  8
0
100
AcDbBlockEnd
  0
BLOCK
  5
1BDF9
330
1BDF8
100
AcDbEntity
  8
0
100
AcDbBlockBegin
  2
*U12
 70
     1
 10
0.0
 20
0.0
 30
0.0
  3
*U12
  1

  0
TEXT
  5
1BDFA
330
1BDF8
100
AcDbEntity
  8
SUNPOU
100
AcDbText
 10
11855.58860891545
 20
2138.424883029956
 30
0.0
 40
90.0
  1
120
 41
0.6666666666666666
  7
00
100
AcDbText
  0
ENDBLK
  5
1BDFB
330
1BDF8
100
AcDbEntity
  8
0
100
AcDbBlockEnd
  0
BLOCK
  5
1BDFD
330
1BDFC
100
AcDbEntity
  8
0
100
AcDbBlockBegin
  2
*U13
 70
     1
 10
0.0
 20
0.0
 30
0.0
  3
*U13
  1

  0
TEXT
  5
1BDFE
330
1BDFC
100
AcDbEntity
  8
SUNPOU
100
AcDbText
 10
12332.017180344
 20
2138.424883029956
 30
0.0
 40
90.0
  1
20
 41
0.6666666666666666
  7
00
100
AcDbText
  0
ENDBLK
  5
1BDFF
330
1BDFC
100
AcDbEntity
  8
0
100
AcDbBlockEnd
  0
BLOCK
  5
1BE01
330
1BE00
100
AcDbEntity
  8
0
100
AcDbBlockBegin
  2
*U14
 70
     1
 10
0.0
 20
0.0
 30
0.0
  3
*U14
  1

  0
TEXT
  5
1BE02
330
1BE00
100
AcDbEntity
  8
SUNPOU
100
AcDbText
 10
10374.21703198605
 20
7381.42964618754
 30
0.0
 40
90.0
  1
4200
 50
90.0
 41
0.6666666666666666
  7
00
100
AcDbText
  0
ENDBLK
  5
1BE03
330
1BE00
100
AcDbEntity
  8
0
100
AcDbBlockEnd
  0
BLOCK
  5
1BE05
330
1BE04
100
AcDbEntity
  8
0
100
AcDbBlockBegin
  2
*U15
 70
     1
 10
0.0
 20
0.0
 30
0.0
  3
*U15
  1

  0
TEXT
  5
1BE06
330
1BE04
100
AcDbEntity
  8
SUNPOU
100
AcDbText
 10
10164.21703198606
 20
5460.001074758968
 30
0.0
 40
90.0
  1
300
 50
90.0
 41
0.6666666666666666
  7
00
100
AcDbText
  0
ENDBLK
  5
1BE07
330
1BE04
100
AcDbEntity
  8
0
100
AcDbBlockEnd
  0
BLOCK
  5
1BE09
330
1BE08
100
AcDbEntity
  8
0
100
AcDbBlockBegin
  2
*U16
 70
     1
 10
0.0
 20
0.0
 30
0.0
  3
*U16
  1

  0
TEXT
  5
1BE0A
330
1BE08
100
AcDbEntity
  8
SUNPOU
100
AcDbText
 10
10164.21703198606
 20
6477.143931901824
 30
0.0
 40
90.0
  1
1800
 50
90.0
 41
0.6666666666666666
  7
00
100
AcDbText
  0
ENDBLK
  5
1BE0B
330
1BE08
100
AcDbEntity
  8
0
100
AcDbBlockEnd
  0
BLOCK
  5
1BE0D
330
1BE0C
100
AcDbEntity
  8
0
100
AcDbBlockBegin
  2
*U17
 70
     1
 10
0.0
 20
0.0
 30
0.0
  3
*U17
  1

  0
TEXT
  5
1BE0E
330
1BE0C
100
AcDbEntity
  8
SUNPOU
100
AcDbText
 10
10164.21703198606
 20
8277.143931901827
 30
0.0
 40
90.0
  1
1800
 50
90.0
 41
0.6666666666666666
  7
00
100
AcDbText
  0
ENDBLK
  5
1BE0F
330
1BE0C
100
AcDbEntity
  8
0
100
AcDbBlockEnd
  0
BLOCK
  5
1BE11
330
1BE10
100
AcDbEntity
  8
0
100
AcDbBlockBegin
  2
*U18
 70
     1
 10
0.0
 20
0.0
 30
0.0
  3
*U18
  1

  0
TEXT
  5
1BE12
330
1BE10
100
AcDbEntity
  8
SUNPOU
100
AcDbText
 10
10164.21703198606
 20
9360.001074758967
 30
0.0
 40
90.0
  1
300
 50
90.0
 41
0.6666666666666666
  7
00
100
AcDbText
  0
ENDBLK
  5
1BE13
330
1BE10
100
AcDbEntity
  8
0
100
AcDbBlockEnd
  0
BLOCK
  5
1BE15
330
1BE14
100
AcDbEntity
  8
0
100
AcDbBlockBegin
  2
*U19
 70
     1
 10
0.0
 20
0.0
 30
0.0
  3
*U19
  1

  0
TEXT
  5
1BE16
330
1BE14
100
AcDbEntity
  8
SUNPOU
100
AcDbText
 10
6673.502746271774
 20
10040.71536047325
 30
0.0
 40
90.0
  1
400
 41
0.6666666666666666
  7
00
100
AcDbText
  0
ENDBLK
  5
1BE17
330
1BE14
100
AcDbEntity
  8
0
100
AcDbBlockEnd
  0
BLOCK
  5
1BE19
330
1BE18
100
AcDbEntity
  8
0
100
AcDbBlockBegin
  2
*U20
 70
     1
 10
0.0
 20
0.0
 30
0.0
  3
*U20
  1

  0
TEXT
  5
1BE1A
330
1BE18
100
AcDbEntity
  8
SUNPOU
100
AcDbText
 10
8069.931317700344
 20
10040.71536047325
 30
0.0
 40
90.0
  1
2450
 41
0.6666666666666666
  7
00
100
AcDbText
  0
ENDBLK
  5
1BE1B
330
1BE18
100
AcDbEntity
  8
0
100
AcDbBlockEnd
  0
BLOCK
  5
1BE1D
330
1BE1C
100
AcDbEntity
  8
0
100
AcDbBlockBegin
  2
*U21
 70
     1
 10
0.0
 20
0.0
 30
0.0
  3
*U21
  1

  0
TEXT
  5
1BE1E
330
1BE1C
100
AcDbEntity
  8
SUNPOU
100
AcDbText
 10
8069.931317700344
 20
10250.71536047325
 30
0.0
 40
90.0
  1
3250
 41
0.6666666666666666
  7
00
100
AcDbText
  0
ENDBLK
  5
1BE1F
330
1BE1C
100
AcDbEntity
  8
0
100
AcDbBlockEnd
  0
BLOCK
  5
1BE21
330
1BE20
100
AcDbEntity
  8
0
100
AcDbBlockBegin
  2
*U22
 70
     1
 10
0.0
 20
0.0
 30
0.0
  3
*U22
  1

  0
TEXT
  5
1BE22
330
1BE20
100
AcDbEntity
  8
SUNPOU
100
AcDbText
 10
9523.502746271772
 20
10040.71536047325
 30
0.0
 40
90.0
  1
400
 41
0.6666666666666666
  7
00
100
AcDbText
  0
ENDBLK
  5
1BE23
330
1BE20
100
AcDbEntity
  8
0
100
AcDbBlockEnd
  0
BLOCK
  5
1BE25
330
1BE24
100
AcDbEntity
  8
0
100
AcDbBlockBegin
  2
*U23
 70
     1
 10
0.0
 20
0.0
 30
0.0
  3
*U23
  1

  0
TEXT
  5
1BE26
330
1BE24
100
AcDbEntity
  8
SUNPOU
100
AcDbText
 10
9322.074174843205
 20
8740.715360473251
 30
0.0
 40
90.0
  1
600
 41
0.6666666666666666
  7
00
100
AcDbText
  0
ENDBLK
  5
1BE27
330
1BE24
100
AcDbEntity
  8
0
100
AcDbBlockEnd
  0
BLOCK
  5
1BE29
330
1BE28
100
AcDbEntity
  8
0
100
AcDbBlockBegin
  2
*U24
 70
     1
 10
0.0
 20
0.0
 30
0.0
  3
*U24
  1

  0
TEXT
  5
1BE2A
330
1BE28
100
AcDbEntity
  8
SUNPOU
100
AcDbText
 10
8764.217031986062
 20
9208.572503330399
 30
0.0
 40
90.0
  1
600
 50
90.0
 41
0.6666666666666666
  7
00
100
AcDbText
  0
ENDBLK
  5
1BE2B
330
1BE28
100
AcDbEntity
  8
0
100
AcDbBlockEnd
  0
BLOCK
  5
1BE2D
330
1BE2C
100
AcDbEntity
  8
0
100
AcDbBlockBegin
  2
*U25
 70
     1
 10
0.0
 20
0.0
 30
0.0
  3
*U25
  1

  0
TEXT
  5
1BE2E
330
1BE2C
100
AcDbEntity
  8
SUNPOU
100
AcDbText
 10
9323.502746271772
 20
8110.715360473252
 30
0.0
 40
90.0
  1
800
 41
0.6666666666666666
  7
00
100
AcDbText
  0
ENDBLK
  5
1BE2F
330
1BE2C
100
AcDbEntity
  8
0
100
AcDbBlockEnd
  0
BLOCK
  5
1BE31
330
1BE30
100
AcDbEntity
  8
0
100
AcDbBlockBegin
  2
*U26
 70
     1
 10
0.0
 20
0.0
 30
0.0
  3
*U26
  1

  0
TEXT
  5
1BE32
330
1BE30
100
AcDbEntity
  8
SUNPOU
100
AcDbText
 10
8764.217031986062
 20
7410.001074758966
 30
0.0
 40
90.0
  1
800
 50
90.0
 41
0.6666666666666666
  7
00
100
AcDbText
  0
ENDBLK
  5
1BE33
330
1BE30
100
AcDbEntity
  8
0
100
AcDbBlockEnd
  0
BLOCK
  5
1BE35
330
1BE34
100
AcDbEntity
  8
0
100
AcDbBlockBegin
  2
*U27
 70
     1
 10
0.0
 20
0.0
 30
0.0
  3
*U27
  1

  0
TEXT
  5
1BE36
330
1BE34
100
AcDbEntity
  8
SUNPOU
100
AcDbText
 10
3186.201707025588
 20
3409.184504159606
 30
0.0
 40
90.0
  1
400
 41
0.6666666666666666
  7
00
100
AcDbText
  0
ENDBLK
  5
1BE37
330
1BE34
100
AcDbEntity
  8
0
100
AcDbBlockEnd
  0
BLOCK
  5
1BE39
330
1BE38
100
AcDbEntity
  8
0
100
AcDbBlockBegin
  2
*U28
 70
     1
 10
0.0
 20
0.0
 30
0.0
  3
*U28
  1

  0
TEXT
  5
1BE3A
330
1BE38
100
AcDbEntity
  8
SUNPOU
100
AcDbText
 10
2417.562596739115
 20
2148.841074880162
 30
0.0
 40
90.0
  1
564
 50
90.0
 41
0.6666666666666666
  7
00
100
AcDbText
  0
ENDBLK
  5
1BE3B
330
1BE38
100
AcDbEntity
  8
0
100
AcDbBlockEnd
  0
BLOCK
  5
1BE3D
330
1BE3C
100
AcDbEntity
  8
0
100
AcDbBlockBegin
  2
*U29
 70
     1
 10
0.0
 20
0.0
 30
0.0
  3
*U29
  1

  0
TEXT
  5
1BE3E
330
1BE3C
100
AcDbEntity
  8
SUNPOU
100
AcDbText
 10
2627.562596739115
 20
1561.926789165875
 30
0.0
 40
90.0
  1
100
 50
90.0
 41
0.6666666666666666
  7
00
100
AcDbText
  0
ENDBLK
  5
1BE3F
330
1BE3C
100
AcDbEntity
  8
0
100
AcDbBlockEnd
  0
BLOCK
  5
1BE41
330
1BE40
100
AcDbEntity
  8
0
100
AcDbBlockBegin
  2
*U30
 70
     1
 10
0.0
 20
0.0
 30
0.0
  3
*U30
  1

  0
TEXT
  5
1BE42
330
1BE40
100
AcDbEntity
  8
SUNPOU
100
AcDbText
 10
2627.562596739115
 20
2099.069646308731
 30
0.0
 40
90.0
  1
300
 50
90.0
 41
0.6666666666666666
  7
00
100
AcDbText
  0
ENDBLK
  5
1BE43
330
1BE40
100
AcDbEntity
  8
0
100
AcDbBlockEnd
  0
BLOCK
  5
1BE45
330
1BE44
100
AcDbEntity
  8
0
100
AcDbBlockBegin
  2
*U31
 70
     1
 10
0.0
 20
0.0
 30
0.0
  3
*U31
  1

  0
TEXT
  5
1BE46
330
1BE44
100
AcDbEntity
  8
SUNPOU
100
AcDbText
 10
2627.562596739115
 20
2738.612503451589
 30
0.0
 40
90.0
  1
84
 50
90.0
 41
0.6666666666666666
  7
00
100
AcDbText
  0
ENDBLK
  5
1BE47
330
1BE44
100
AcDbEntity
  8
0
100
AcDbBlockEnd
  0
BLOCK
  5
1BE49
330
1BE48
100
AcDbEntity
  8
0
100
AcDbBlockBegin
  2
*U32
 70
     1
 10
0.0
 20
0.0
 30
0.0
  3
*U32
  1

  0
TEXT
  5
1BE4A
330
1BE48
100
AcDbEntity
  8
SUNPOU
100
AcDbText
 10
2627.562596739117
 20
2431.641074880156
 30
0.0
 40
90.0
  1
80
 50
90.0
 41
0.6666666666666666
  7
00
100
AcDbText
  0
ENDBLK
  5
1BE4B
330
1BE48
100
AcDbEntity
  8
0
100
AcDbBlockEnd
  0
BLOCK
  5
1BE4D
330
1BE4C
100
AcDbEntity
  8
0
100
AcDbBlockBegin
  2
*U33
 70
     1
 10
0.0
 20
0.0
 30
0.0
  3
*U33
  1

  0
TEXT
  5
1BE4E
330
1BE4C
100
AcDbEntity
  8
SUNPOU
100
AcDbText
 10
2207.562596739115
 20
2753.612503451589
 30
0.0
 40
90.0
  1
50
 50
90.0
 41
0.6666666666666666
  7
00
100
AcDbText
  0
ENDBLK
  5
1BE4F
330
1BE4C
100
AcDbEntity
  8
0
100
AcDbBlockEnd
  0
BLOCK
  5
1BE51
330
1BE50
100
AcDbEntity
  8
0
100
AcDbBlockBegin
  2
*U34
 70
     1
 10
0.0
 20
0.0
 30
0.0
  3
*U34
  1

  0
TEXT
  5
1BE52
330
1BE50
100
AcDbEntity
  8
SUNPOU
100
AcDbText
 10
3506.201707025587
 20
1217.383932023014
 30
0.0
 40
90.0
  1
800
 41
0.6666666666666666
  7
00
100
AcDbText
  0
ENDBLK
  5
1BE53
330
1BE50
100
AcDbEntity
  8
0
100
AcDbBlockEnd
  0
BLOCK
  5
1BE55
330
1BE54
100
AcDbEntity
  8
0
100
AcDbBlockBegin
  2
*U35
 70
     1
 10
0.0
 20
0.0
 30
0.0
  3
*U35
  1

  0
TEXT
  5
1BE56
330
1BE54
100
AcDbEntity
  8
SUNPOU
100
AcDbText
 10
3504.773135597017
 20
1427.383932023013
 30
0.0
 40
90.0
  1
600
 41
0.6666666666666666
  7
00
100
AcDbText
  0
ENDBLK
  5
1BE57
330
1BE54
100
AcDbEntity
  8
0
100
AcDbBlockEnd
  0
BLOCK
  5
1BE59
330
1BE58
100
AcDbEntity
  8
0
100
AcDbBlockBegin
  2
*U36
 70
     1
 10
0.0
 20
0.0
 30
0.0
  3
*U36
  1

  0
TEXT
  5
1BE5A
330
1BE58
100
AcDbEntity
  8
SUNPOU
100
AcDbText
 10
6576.405305211823
 20
2148.841074880162
 30
0.0
 40
90.0
  1
564
 50
90.0
 41
0.6666666666666666
  7
00
100
AcDbText
  0
ENDBLK
  5
1BE5B
330
1BE58
100
AcDbEntity
  8
0
100
AcDbBlockEnd
  0
BLOCK
  5
1BE5D
330
1BE5C
100
AcDbEntity
  8
0
100
AcDbBlockBegin
  2
*U37
 70
     1
 10
0.0
 20
0.0
 30
0.0
  3
*U37
  1

  0
TEXT
  5
1BE5E
330
1BE5C
100
AcDbEntity
  8
SUNPOU
100
AcDbText
 10
6786.405305211824
 20
1561.926789165875
 30
0.0
 40
90.0
  1
100
 50
90.0
 41
0.6666666666666666
  7
00
100
AcDbText
  0
ENDBLK
  5
1BE5F
330
1BE5C
100
AcDbEntity
  8
0
100
AcDbBlockEnd
  0
BLOCK
  5
1BE61
330
1BE60
100
AcDbEntity
  8
0
100
AcDbBlockBegin
  2
*U38
 70
     1
 10
0.0
 20
0.0
 30
0.0
  3
*U38
  1

  0
TEXT
  5
1BE62
330
1BE60
100
AcDbEntity
  8
SUNPOU
100
AcDbText
 10
6786.405305211822
 20
2099.069646308733
 30
0.0
 40
90.0
  1
300
 50
90.0
 41
0.6666666666666666
  7
00
100
AcDbText
  0
ENDBLK
  5
1BE63
330
1BE60
100
AcDbEntity
  8
0
100
AcDbBlockEnd
  0
BLOCK
  5
1BE65
330
1BE64
100
AcDbEntity
  8
0
100
AcDbBlockBegin
  2
*U39
 70
     1
 10
0.0
 20
0.0
 30
0.0
  3
*U39
  1

  0
TEXT
  5
1BE66
330
1BE64
100
AcDbEntity
  8
SUNPOU
100
AcDbText
 10
6786.405305211822
 20
2738.612503451589
 30
0.0
 40
90.0
  1
84
 50
90.0
 41
0.6666666666666666
  7
00
100
AcDbText
  0
ENDBLK
  5
1BE67
330
1BE64
100
AcDbEntity
  8
0
100
AcDbBlockEnd
  0
BLOCK
  5
1BE69
330
1BE68
100
AcDbEntity
  8
0
100
AcDbBlockBegin
  2
*U40
 70
     1
 10
0.0
 20
0.0
 30
0.0
  3
*U40
  1

  0
TEXT
  5
1BE6A
330
1BE68
100
AcDbEntity
  8
SUNPOU
100
AcDbText
 10
6786.405305211824
 20
2431.641074880161
 30
0.0
 40
90.0
  1
80
 50
90.0
 41
0.6666666666666666
  7
00
100
AcDbText
  0
ENDBLK
  5
1BE6B
330
1BE68
100
AcDbEntity
  8
0
100
AcDbBlockEnd
  0
BLOCK
  5
1BE6D
330
1BE6C
100
AcDbEntity
  8
0
100
AcDbBlockBegin
  2
*U41
 70
     1
 10
0.0
 20
0.0
 30
0.0
  3
*U41
  1

  0
TEXT
  5
1BE6E
330
1BE6C
100
AcDbEntity
  8
SUNPOU
100
AcDbText
 10
7632.187272641154
 20
1217.38393202302
 30
0.0
 40
90.0
  1
1000
 41
0.6666666666666666
  7
00
100
AcDbText
  0
ENDBLK
  5
1BE6F
330
1BE6C
100
AcDbEntity
  8
0
100
AcDbBlockEnd
  0
BLOCK
  5
1BE71
330
1BE70
100
AcDbEntity
  8
0
100
AcDbBlockBegin
  2
*U42
 70
     1
 10
0.0
 20
0.0
 30
0.0
  3
*U42
  1

  0
TEXT
  5
1BE72
330
1BE70
100
AcDbEntity
  8
SUNPOU
100
AcDbText
 10
7665.044415498297
 20
1427.383932023019
 30
0.0
 40
90.0
  1
800
 41
0.6666666666666666
  7
00
100
AcDbText
  0
ENDBLK
  5
1BE73
330
1BE70
100
AcDbEntity
  8
0
100
AcDbBlockEnd
  0
ENDSEC
  0
SECTION
  2
ENTITIES
  0
TEXT
  5
1BE74
330
1BD9A
100
AcDbEntity
  8
NAME
100
AcDbText
 10
12153.32857318294
 20
1055.0
 30
0.0
 40
120.0
  1
Y O K C S
 41
0.6666666666666666
  7
00
100
AcDbText
  0
TEXT
  5
1BE75
330
1BD9A
100
AcDbEntity
  8
NAME
100
AcDbText
 10
11077.73587134625
 20
1055.0
 30
0.0
 40
120.0
  1
ヨド自転車置場　　　    型
  7
01
100
AcDbText
  0
TEXT
  5
1BE76
330
1BD9A
100
AcDbEntity
  8
NAME
100
AcDbText
 10
10824.07508082364
 20
875.0
 30
0.0
 40
120.0
  1
棟合せタイプ（アンカープレート方式）
  7
01
 72
     4
 11
12072.07508082364
 21
935.0
 31
0.0
100
AcDbText
  0
TEXT
  5
1BE77
330
1BD9A
100
AcDbEntity
  8
NAME
100
AcDbText
 10
12854.79999999999
 20
541.0000000000001
 30
0.0
 40
160.0
  1
<3／3>
 41
0.6
  7
01
 72
     2
 11
13354.0
 21
541.0000000000001
 31
0.0
100
AcDbText
  0
TEXT
  5
1BE78
330
1BD9A
100
AcDbEntity
  8
NAME
100
AcDbText
 10
10789.37598063762
 20
541.0
 30
0.0
 40
160.0
  1
YOKCS-245
 41
0.7
  7
01
 72
     2
 11
11776.04264730429
 21
541.0
 31
0.0
100
AcDbText
  0
TEXT
  5
1BE79
330
1BD9A
100
AcDbEntity
  8
NAME
100
AcDbText
 10
11816.04264730429
 20
541.0
 30
0.0
 40
160.0
  1
型（積雪地用）
 41
0.8
  7
01
100
AcDbText
  0
TEXT
  5
1BE7A
330
1BD9A
100
AcDbEntity
  8
HIKIDASHI
100
AcDbText
 10
8772.515803529449
 20
4879.531802304223
 30
0.0
 40
80.0
  1
)
 41
0.6700000000000001
  7
00
100
AcDbText
  0
TEXT
  5
1BE7B
330
1BD9A
100
AcDbEntity
  8
HIKIDASHI
100
AcDbText
 10
8571.657054840066
 20
4895.09328005242
 30
0.0
 40
80.0
  1
1
 41
0.6700000000000001
  7
00
100
AcDbText
  0
TEXT
  5
1BE7C
330
1BD9A
100
AcDbEntity
  8
HIKIDASHI
100
AcDbText
 10
8604.794192704373
 20
4879.531802304223
 30
0.0
 40
80.0
  1
/
 41
0.6700000000000001
  7
00
100
AcDbText
  0
TEXT
  5
1BE7D
330
1BD9A
100
AcDbEntity
  8
HIKIDASHI
100
AcDbText
 10
8651.089347467019
 20
4853.363971103946
 30
0.0
 40
80.0
  1
40
 41
0.6700000000000001
  7
00
100
AcDbText
  0
TEXT
  5
1BE7E
330
1BD9A
100
AcDbEntity
  8
HIKIDASHI
100
AcDbText
 10
8390.949138902394
 20
4879.531802304223
 30
0.0
 40
80.0
  1
(S=
 41
0.6700000000000001
  7
00
100
AcDbText
  0
TEXT
  5
1BE7F
330
1BD9A
100
AcDbEntity
  8
HIKIDASHI
100
AcDbText
 10
7548.949138902393
 20
4855.715360473254
 30
0.0
 40
120.0
  1
基 礎 伏 図
  7
01
 72
     2
 11
8300.949138902394
 21
4855.715360473254
 31
0.0
100
AcDbText
  0
LINE
  5
1BE80
330
1BD9A
100
AcDbEntity
  8
1PL-S1
100
AcDbLine
 10
11629.58860891543
 20
2547.76425036702
 30
0.0
 11
12261.58860891543
 21
2547.76425036702
 31
0.0
  0
LINE
  5
1BE81
330
1BD9A
100
AcDbEntity
  8
U1
100
AcDbLine
 10
11795.58860891545
 20
3489.95694289843
 30
0.0
 11
11795.58860891545
 21
3874.021482077699
 31
0.0
  0
LINE
  5
1BE82
330
1BD9A
100
AcDbEntity
  8
U1
100
AcDbLine
 10
12095.58860891543
 20
3489.95694289843
 30
0.0
 11
12095.58860891543
 21
3874.021482077699
 31
0.0
  0
LINE
  5
1BE83
330
1BD9A
100
AcDbEntity
  8
1PL-S1
100
AcDbLine
 10
11945.58860891544
 20
3425.956942898431
 30
0.0
 11
11945.58860891544
 21
3914.021482077697
 31
0.0
  0
CIRCLE
  5
1BE84
330
1BD9A
100
AcDbEntity
  8
U1
100
AcDbCircle
 10
11945.58860891544
 20
3729.956942898431
 30
0.0
 40
24.0
  0
LINE
  5
1BE85
330
1BD9A
100
AcDbEntity
  8
1PL-S1
100
AcDbLine
 10
11705.58860891544
 20
2471.764250367019
 30
0.0
 11
11705.58860891544
 21
2623.764250367019
 31
0.0
  0
LINE
  5
1BE86
330
1BD9A
100
AcDbEntity
  8
1PL-S1
100
AcDbLine
 10
12185.58860891544
 20
2471.764250367019
 30
0.0
 11
12185.58860891544
 21
2623.764250367019
 31
0.0
  0
LINE
  5
1BE87
330
1BD9A
100
AcDbEntity
  8
1PL-S1
100
AcDbLine
 10
11945.58860891544
 20
2347.76425036702
 30
0.0
 11
11945.58860891544
 21
2747.76425036702
 31
0.0
  0
CIRCLE
  5
1BE88
330
1BD9A
100
AcDbEntity
  8
U1
100
AcDbCircle
 10
11705.58860891544
 20
2547.76425036702
 30
0.0
 40
36.0
  0
LINE
  5
1BE89
330
1BD9A
100
AcDbEntity
  8
U1
100
AcDbLine
 10
12095.58860891543
 20
2547.76425036702
 30
0.0
 11
12016.56153015709
 21
2547.76425036702
 31
0.0
  0
CIRCLE
  5
1BE8A
330
1BD9A
100
AcDbEntity
  8
U1
100
AcDbCircle
 10
12185.58860891544
 20
2547.76425036702
 30
0.0
 40
36.0
  0
LINE
  5
1BE8B
330
1BD9A
100
AcDbEntity
  8
1PL-S1
100
AcDbLine
 10
11881.58860891543
 20
3569.956942898431
 30
0.0
 11
12009.58860891544
 21
3569.956942898431
 31
0.0
  0
LINE
  5
1BE8C
330
1BD9A
100
AcDbEntity
  8
1PL-S1
100
AcDbLine
 10
11705.58860891545
 20
3425.956942898431
 30
0.0
 11
11705.58860891544
 21
3529.956942898431
 31
0.0
  0
LINE
  5
1BE8D
330
1BD9A
100
AcDbEntity
  8
1PL-S1
100
AcDbLine
 10
12185.58860891544
 20
3425.956942898431
 30
0.0
 11
12185.58860891544
 21
3529.956942898431
 31
0.0
  0
CIRCLE
  5
1BE8E
330
1BD9A
100
AcDbEntity
  8
U1
100
AcDbCircle
 10
11945.58860891544
 20
3569.956942898431
 30
0.0
 40
24.0
  0
LINE
  5
1BE8F
330
1BD9A
100
AcDbEntity
  8
1PL-S1
100
AcDbLine
 10
11881.58860891543
 20
3729.956942898431
 30
0.0
 11
12009.58860891544
 21
3729.956942898431
 31
0.0
  0
TEXT
  5
1BE90
330
1BD9A
100
AcDbEntity
  8
SUNPOU
100
AcDbText
 10
11154.30164503282
 20
1522.206168148942
 30
0.0
 40
120.0
  1
柱脚金具詳細図
  7
01
 72
     4
 11
11638.30164503282
 21
1582.206168148942
 31
0.0
100
AcDbText
  0
TEXT
  5
1BE91
330
1BD9A
100
AcDbEntity
  8
SUNPOU
100
AcDbText
 10
12550.41047420127
 20
1519.744629687403
 30
0.0
 40
73.84615384615384
  1
/
 41
0.6700000000000001
  7
00
 11
12550.41047420127
 21
1509.89847584125
 31
0.0
100
AcDbText
 73
     1
  0
TEXT
  5
1BE92
330
1BD9A
100
AcDbEntity
  8
SUNPOU
100
AcDbText
 10
12614.35991715563
 20
1501.283091225865
 30
0.0
 40
73.84615384615384
  1
10
 41
0.6700000000000001
  7
00
 11
12614.35991715563
 21
1491.436937379711
 31
0.0
100
AcDbText
 73
     1
  0
TEXT
  5
1BE93
330
1BD9A
100
AcDbEntity
  8
SUNPOU
100
AcDbText
 10
12502.00434688589
 20
1538.206168148943
 30
0.0
 40
73.84615384615384
  1
1
 41
0.6700000000000001
  7
00
 11
12502.00434688589
 21
1528.360014302789
 31
0.0
100
AcDbText
 73
     1
  0
TEXT
  5
1BE94
330
1BD9A
100
AcDbEntity
  8
SUNPOU
100
AcDbText
 10
12182.30164503282
 20
1522.206168148942
 30
0.0
 40
92.30769230769228
  1
（ S = 　　  ）
 41
0.6700000000000001
  7
00
 11
12182.30164503282
 21
1509.89847584125
 31
0.0
100
AcDbText
 73
     1
  0
LINE
  5
1BE95
330
1BD9A
100
AcDbEntity
  8
HIKIDASHI
100
AcDbLine
 10
12477.48386709142
 20
2915.281506478704
 30
0.0
 11
13061.52466265539
 21
2915.281506478704
 31
0.0
  0
TEXT
  5
1BE96
330
1BD9A
100
AcDbEntity
  8
HIKIDASHI
100
AcDbText
 10
12496.77386488815
 20
2960.281506478704
 30
0.0
 40
90.0
  1
プレ－ト
  7
01
 72
     2
 11
12886.77386488815
 21
2960.281506478704
 31
0.0
100
AcDbText
  0
TEXT
  5
1BE97
330
1BD9A
100
AcDbEntity
  8
HIKIDASHI
100
AcDbText
 10
12925.22904557056
 20
2960.281506478704
 30
0.0
 40
90.0
  1
6
 41
0.6666666666666666
  7
00
 72
     2
 11
12973.80047414199
 21
2960.281506478704
 31
0.0
100
AcDbText
  0
TEXT
  5
1BE98
330
1BD9A
100
AcDbEntity
  8
HIKIDASHI
100
AcDbText
 10
13011.22669604257
 20
2974.26725491467
 30
0.0
 40
89.99999909999997
  1
t
 41
0.6700000000000001
  7
00
100
AcDbText
  0
LINE
  5
1BEB6
330
1BD9A
100
AcDbEntity
  8
CENTER
  6
1PL-M
100
AcDbLine
 10
6489.21703198606
 20
7495.715360473251
 30
0.0
 11
8644.217031986059
 21
7495.715360473251
 31
0.0
  0
LINE
  5
1BEB7
330
1BD9A
100
AcDbEntity
  8
CENTER
  6
1PL-M
100
AcDbLine
 10
6489.217031986058
 20
9295.71536047325
 30
0.0
 11
8644.217031986059
 21
9295.71536047325
 31
0.0
  0
LINE
  5
1BEB8
330
1BD9A
100
AcDbEntity
  8
CENTER
  6
1PL-M
100
AcDbLine
 10
6959.21703198606
 20
5295.715360473252
 30
0.0
 11
6959.21703198606
 21
9695.715360473252
 31
0.0
  0
LINE
  5
1BEB9
330
1BD9A
100
AcDbEntity
  8
CENTER
  6
1PL-M
100
AcDbLine
 10
6489.21703198606
 20
5695.715360473252
 30
0.0
 11
10254.21703198605
 21
5695.715360473252
 31
0.0
  0
LINE
  5
1BEBA
330
1BD9A
100
AcDbEntity
  8
CENTER
  6
1PL-M
100
AcDbLine
 10
9409.217031986059
 20
5295.715360473252
 30
0.0
 11
9409.217031986059
 21
8080.715360473254
 31
0.0
  0
CIRCLE
  5
1BEBB
330
1BD9A
100
AcDbEntity
  8
HASHIRA
100
AcDbCircle
 10
6959.21703198606
 20
5755.715360473252
 30
0.0
 40
9.0
  0
CIRCLE
  5
1BEBC
330
1BD9A
100
AcDbEntity
  8
HASHIRA
100
AcDbCircle
 10
6959.21703198606
 20
5635.715360473252
 30
0.0
 40
9.0
  0
CIRCLE
  5
1BEBD
330
1BD9A
100
AcDbEntity
  8
HASHIRA
100
AcDbCircle
 10
6959.21703198606
 20
7555.715360473252
 30
0.0
 40
9.0
  0
CIRCLE
  5
1BEBE
330
1BD9A
100
AcDbEntity
  8
HASHIRA
100
AcDbCircle
 10
6959.21703198606
 20
7435.715360473252
 30
0.0
 40
9.0
  0
CIRCLE
  5
1BEBF
330
1BD9A
100
AcDbEntity
  8
HASHIRA
100
AcDbCircle
 10
6959.21703198606
 20
9355.715360473253
 30
0.0
 40
9.0
  0
CIRCLE
  5
1BEC0
330
1BD9A
100
AcDbEntity
  8
HASHIRA
100
AcDbCircle
 10
6959.21703198606
 20
9235.715360473252
 30
0.0
 40
9.0
  0
CIRCLE
  5
1BEC1
330
1BD9A
100
AcDbEntity
  8
HASHIRA
100
AcDbCircle
 10
9409.217031986059
 20
5755.715360473252
 30
0.0
 40
9.0
  0
CIRCLE
  5
1BEC2
330
1BD9A
100
AcDbEntity
  8
HASHIRA
100
AcDbCircle
 10
9409.217031986059
 20
5635.715360473252
 30
0.0
 40
9.0
  0
CIRCLE
  5
1BEC3
330
1BD9A
100
AcDbEntity
  8
HASHIRA
100
AcDbCircle
 10
9409.217031986059
 20
7555.715360473252
 30
0.0
 40
9.0
  0
CIRCLE
  5
1BEC4
330
1BD9A
100
AcDbEntity
  8
HASHIRA
100
AcDbCircle
 10
9409.217031986059
 20
7435.715360473252
 30
0.0
 40
9.0
  0
CIRCLE
  5
1BEC5
330
1BD9A
100
AcDbEntity
  8
HASHIRA
100
AcDbCircle
 10
9409.217031986059
 20
9355.715360473253
 30
0.0
 40
9.0
  0
CIRCLE
  5
1BEC6
330
1BD9A
100
AcDbEntity
  8
HASHIRA
100
AcDbCircle
 10
9409.217031986059
 20
9235.715360473252
 30
0.0
 40
9.0
  0
LINE
  5
1BEC7
330
1BD9A
100
AcDbEntity
  8
CENTER
  6
1PL-M
100
AcDbLine
 10
9409.217031986059
 20
8860.71536047325
 30
0.0
 11
9409.217031986059
 21
9695.715360473252
 31
0.0
  0
LINE
  5
1BEC8
330
1BD9A
100
AcDbEntity
  8
CENTER
  6
1PL-M
100
AcDbLine
 10
8794.217031986063
 20
9295.71536047325
 30
0.0
 11
10254.21703198605
 21
9295.715360473252
 31
0.0
  0
LINE
  5
1BEC9
330
1BD9A
100
AcDbEntity
  8
CENTER
  6
1PL-M
100
AcDbLine
 10
9409.217031986059
 20
8230.715360473253
 30
0.0
 11
9409.217031986059
 21
8710.715360473249
 31
0.0
  0
LINE
  5
1BECA
330
1BD9A
100
AcDbEntity
  8
CENTER
  6
1PL-M
100
AcDbLine
 10
8794.217031986063
 20
7495.715360473251
 30
0.0
 11
10254.21703198605
 21
7495.715360473251
 31
0.0
  0
TEXT
  5
1BECB
330
1BD9A
100
AcDbEntity
  8
HIKIDASHI
100
AcDbText
 10
7624.264373012015
 20
9691.715360473253
 30
0.0
 40
90.0
  1
（屋根前面位置）
  7
01
100
AcDbText
  0
TEXT
  5
1BECC
330
1BD9A
100
AcDbEntity
  8
HIKIDASHI
100
AcDbText
 10
7540.155771095993
 20
9455.715360473243
 30
0.0
 40
90.0
  1
（土間コン後面位置）
  7
01
100
AcDbText
  0
TEXT
  5
1BECD
330
1BD9A
100
AcDbEntity
  8
HIKIDASHI
100
AcDbText
 10
7624.264373012015
 20
5209.715360473254
 30
0.0
 40
90.0
  1
（屋根前面位置）
  7
01
100
AcDbText
  0
TEXT
  5
1BECE
330
1BD9A
100
AcDbEntity
  8
HIKIDASHI
100
AcDbText
 10
7540.155771095993
 20
5445.715360473259
 30
0.0
 40
90.0
  1
（土間コン前面位置）
  7
01
100
AcDbText
  0
SOLID
  5
1BECF
330
1BD9A
100
AcDbEntity
  8
SUNPOU
100
AcDbTrace
 10
6324.47136661486
 20
5905.715360473251
 30
0.0
 11
6354.47136661486
 21
5905.715360473251
 31
0.0
 12
6339.47136661486
 22
5995.715360473252
 32
0.0
 13
6339.47136661486
 23
5995.715360473252
 33
0.0
  0
TEXT
  5
1BED0
330
1BD9A
100
AcDbEntity
  8
SUNPOU
100
AcDbText
 10
6313.628509472001
 20
6040.715360473252
 30
0.0
 40
90.0
  1
A
 41
0.6700000000000001
  7
00
 72
     4
 11
6339.471366614858
 21
6085.715360473252
 31
0.0
100
AcDbText
  0
LINE
  5
1BED1
330
1BD9A
100
AcDbEntity
  8
SUNPOU
100
AcDbLine
 10
6339.47136661486
 20
5905.715360473251
 30
0.0
 11
6339.47136661486
 21
5695.715360473252
 31
0.0
  0
LINE
  5
1BED2
330
1BD9A
100
AcDbEntity
  8
SUNPOU
100
AcDbLine
 10
6339.47136661486
 20
5695.715360473252
 30
0.0
 11
6489.471366614861
 21
5695.715360473252
 31
0.0
  0
LINE
  5
1BED3
330
1BD9A
100
AcDbEntity
  8
SUNPOU
100
AcDbLine
 10
7444.630294679763
 20
5695.715360473252
 30
0.0
 11
7294.630294679759
 21
5695.715360473252
 31
0.0
  0
LINE
  5
1BED4
330
1BD9A
100
AcDbEntity
  8
SUNPOU
100
AcDbLine
 10
7444.630294679763
 20
5905.715360473251
 30
0.0
 11
7444.630294679763
 21
5695.715360473252
 31
0.0
  0
TEXT
  5
1BED5
330
1BD9A
100
AcDbEntity
  8
SUNPOU
100
AcDbText
 10
7408.737437536906
 20
6032.143931901824
 30
0.0
 40
90.0
  1
A'
 41
0.6700000000000001
  7
00
 72
     4
 11
7444.630294679763
 21
6085.715360473252
 31
0.0
100
AcDbText
  0
SOLID
  5
1BED6
330
1BD9A
100
AcDbEntity
  8
SUNPOU
100
AcDbTrace
 10
7459.630294679762
 20
5905.715360473251
 30
0.0
 11
7429.630294679762
 21
5905.715360473251
 31
0.0
 12
7444.630294679763
 22
5995.715360473252
 32
0.0
 13
7444.630294679763
 23
5995.715360473252
 33
0.0
  0
TEXT
  5
1BED7
330
1BD9A
100
AcDbEntity
  8
SUNPOU
100
AcDbText
 10
7317.19781972598
 20
8040.715360473251
 30
0.0
 40
90.0
  1
B
 41
0.6700000000000001
  7
00
 72
     4
 11
7348.783534011694
 21
8085.715360473251
 31
0.0
100
AcDbText
  0
LINE
  5
1BED8
330
1BD9A
100
AcDbEntity
  8
SUNPOU
100
AcDbLine
 10
6959.21703198606
 20
8085.715360473251
 30
0.0
 11
6959.21703198606
 21
7935.715360473252
 31
0.0
  0
LINE
  5
1BED9
330
1BD9A
100
AcDbEntity
  8
SUNPOU
100
AcDbLine
 10
7169.217031986057
 20
8085.715360473251
 30
0.0
 11
6959.21703198606
 21
8085.715360473251
 31
0.0
  0
SOLID
  5
1BEDA
330
1BD9A
100
AcDbEntity
  8
SUNPOU
100
AcDbTrace
 10
7169.217031986057
 20
8100.71536047325
 30
0.0
 11
7169.217031986057
 21
8070.715360473251
 31
0.0
 12
7259.21703198606
 22
8085.715360473251
 32
0.0
 13
7259.21703198606
 23
8085.715360473251
 33
0.0
  0
TEXT
  5
1BEDB
330
1BD9A
100
AcDbEntity
  8
SUNPOU
100
AcDbText
 10
7304.276391154552
 20
6852.143931901823
 30
0.0
 40
90.0
  1
B'
 41
0.6700000000000001
  7
00
 72
     4
 11
7348.783534011694
 21
6905.715360473251
 31
0.0
100
AcDbText
  0
LINE
  5
1BEDC
330
1BD9A
100
AcDbEntity
  8
SUNPOU
100
AcDbLine
 10
6959.21703198606
 20
6905.715360473251
 30
0.0
 11
6959.21703198606
 21
7055.715360473252
 31
0.0
  0
LINE
  5
1BEDD
330
1BD9A
100
AcDbEntity
  8
SUNPOU
100
AcDbLine
 10
7169.217031986057
 20
6905.715360473251
 30
0.0
 11
6959.21703198606
 21
6905.715360473251
 31
0.0
  0
SOLID
  5
1BEDE
330
1BD9A
100
AcDbEntity
  8
SUNPOU
100
AcDbTrace
 10
7169.217031986057
 20
6890.715360473253
 30
0.0
 11
7169.217031986057
 21
6920.715360473252
 31
0.0
 12
7259.21703198606
 22
6905.715360473251
 32
0.0
 13
7259.21703198606
 23
6905.715360473251
 33
0.0
  0
LINE
  5
1BEDF
330
1BD9A
100
AcDbEntity
  8
1PL-M1
100
AcDbLine
 10
3591.915992739874
 20
1661.8712184822
 30
0.0
 11
3591.915992739874
 21
3409.184504159606
 31
0.0
  0
LINE
  5
1BEE0
330
1BD9A
100
AcDbEntity
  8
KISO
100
AcDbLine
 10
4874.312715479185
 20
2687.183932023017
 30
0.0
 11
3643.915992739866
 21
2687.183932023017
 31
0.0
  0
LINE
  5
1BEE1
330
1BD9A
100
AcDbEntity
  8
KISO
100
AcDbLine
 10
4874.312715479187
 20
2552.78393202302
 30
0.0
 11
3111.915992739875
 21
2552.783932023016
 31
0.0
  0
LINE
  5
1BEE2
330
1BD9A
100
AcDbEntity
  8
HATCH
100
AcDbLine
 10
3820.074452931295
 20
2687.183932023017
 30
0.0
 11
3685.674452931305
 21
2552.783932023021
 31
0.0
  0
LINE
  5
1BEE3
330
1BD9A
100
AcDbEntity
  8
U3
100
AcDbLine
 10
2146.080599495376
 20
2607.183932023017
 30
0.0
 11
2314.080599495376
 21
2439.183932023021
 31
0.0
  0
LINE
  5
1BEE4
330
1BD9A
100
AcDbEntity
  8
U3
100
AcDbLine
 10
2095.168911249944
 20
2556.272243777586
 30
0.0
 11
2212.257223004511
 21
2439.183932023017
 31
0.0
  0
LINE
  5
1BEE5
330
1BD9A
100
AcDbEntity
  8
U3
100
AcDbLine
 10
2381.939037005733
 20
2607.183932023017
 30
0.0
 11
1810.080599495376
 21
2607.183932023017
 31
0.0
  0
LINE
  5
1BEE6
330
1BD9A
100
AcDbEntity
  8
U3
100
AcDbLine
 10
1876.25722300451
 20
2541.00730851388
 30
0.0
 11
1942.433846513645
 21
2607.183932023015
 31
0.0
  0
LINE
  5
1BEE7
330
1BD9A
100
AcDbEntity
  8
U3
100
AcDbLine
 10
1810.080599495376
 20
2607.183932023015
 30
0.0
 11
1978.080599495376
 21
2439.183932023019
 31
0.0
  0
LINE
  5
1BEE8
330
1BD9A
100
AcDbEntity
  8
U3
100
AcDbLine
 10
1927.168911249944
 20
2490.09562026845
 30
0.0
 11
2044.25722300451
 21
2607.183932023015
 31
0.0
  0
LINE
  5
1BEE9
330
1BD9A
100
AcDbEntity
  8
U3
100
AcDbLine
 10
1978.080599495376
 20
2439.183932023019
 30
0.0
 11
2146.080599495376
 21
2607.183932023017
 31
0.0
  0
LINE
  5
1BEEA
330
1BD9A
100
AcDbEntity
  8
U3
100
AcDbLine
 10
2044.25722300451
 20
2505.360555532154
 30
0.0
 11
2110.433846513648
 21
2439.183932023017
 31
0.0
  0
LINE
  5
1BEEB
330
1BD9A
100
AcDbEntity
  8
U3
100
AcDbLine
 10
2314.080599495376
 20
2439.183932023021
 30
0.0
 11
2381.939037005733
 21
2507.042369533377
 31
0.0
  0
LINE
  5
1BEEC
330
1BD9A
100
AcDbEntity
  8
U3
100
AcDbLine
 10
2212.257223004511
 20
2541.007308513882
 30
0.0
 11
2278.433846513645
 21
2607.183932023017
 31
0.0
  0
LINE
  5
1BEED
330
1BD9A
100
AcDbEntity
  8
U3
100
AcDbLine
 10
2263.168911249942
 20
2490.095620268451
 30
0.0
 11
2380.257223004513
 21
2607.183932023017
 31
0.0
  0
LINE
  5
1BEEE
330
1BD9A
100
AcDbEntity
  8
HASHIRA
100
AcDbLine
 10
3643.915992739866
 20
2562.383932023022
 30
0.0
 11
3643.915992739866
 21
2952.617137223765
 31
0.0
  0
LINE
  5
1BEEF
330
1BD9A
100
AcDbEntity
  8
HASHIRA
100
AcDbLine
 10
3539.915992739867
 20
2952.617137223765
 30
0.0
 11
3539.915992739867
 21
2562.383932023022
 31
0.0
  0
LINE
  5
1BEF0
330
1BD9A
100
AcDbEntity
  8
U3
100
AcDbLine
 10
2951.915992739875
 20
2607.183932023017
 30
0.0
 11
2701.939037005733
 21
2607.183932023017
 31
0.0
  0
LINE
  5
1BEF1
330
1BD9A
100
AcDbEntity
  8
U3
100
AcDbLine
 10
2767.884284372259
 20
2562.201462532761
 30
0.0
 11
2890.901814882006
 21
2439.183932023017
 31
0.0
  0
LINE
  5
1BEF2
330
1BD9A
100
AcDbEntity
  8
KISO
100
AcDbLine
 10
3539.915992739867
 20
2687.183932023017
 30
0.0
 11
2951.915992739875
 21
2687.183932023017
 31
0.0
  0
LINE
  5
1BEF3
330
1BD9A
100
AcDbEntity
  8
HATCH
100
AcDbLine
 10
3623.433568435618
 20
2552.783932023024
 30
0.0
 11
3602.315992739876
 21
2531.666356327281
 31
0.0
  0
LINE
  5
1BEF4
330
1BD9A
100
AcDbEntity
  8
KISO
100
AcDbLine
 10
4071.915992739881
 20
2424.783932023017
 30
0.0
 11
4874.312715479187
 21
2424.783932023019
 31
0.0
  0
LINE
  5
1BEF5
330
1BD9A
100
AcDbEntity
  8
HATCH
100
AcDbLine
 10
4827.592028627032
 20
2687.183932023017
 30
0.0
 11
4693.192028627045
 21
2552.78393202302
 31
0.0
  0
LINE
  5
1BEF6
330
1BD9A
100
AcDbEntity
  8
HATCH
100
AcDbLine
 10
4875.109604322773
 20
2687.183932023017
 30
0.0
 11
4740.709604322776
 21
2552.78393202302
 31
0.0
  0
LINE
  5
1BEF7
330
1BD9A
100
AcDbEntity
  8
HATCH
100
AcDbLine
 10
4300.074452931294
 20
2687.183932023017
 30
0.0
 11
4165.674452931301
 21
2552.783932023021
 31
0.0
  0
LINE
  5
1BEF8
330
1BD9A
100
AcDbEntity
  8
HATCH
100
AcDbLine
 10
4347.592028627032
 20
2687.183932023017
 30
0.0
 11
4213.192028627045
 21
2552.78393202302
 31
0.0
  0
LINE
  5
1BEF9
330
1BD9A
100
AcDbEntity
  8
HATCH
100
AcDbLine
 10
3915.109604322772
 20
2687.183932023017
 30
0.0
 11
3780.709604322776
 21
2552.78393202302
 31
0.0
  0
LINE
  5
1BEFA
330
1BD9A
100
AcDbEntity
  8
HATCH
100
AcDbLine
 10
3867.592028627031
 20
2687.183932023017
 30
0.0
 11
3733.192028627045
 21
2552.78393202302
 31
0.0
  0
LINE
  5
1BEFB
330
1BD9A
100
AcDbEntity
  8
HATCH
100
AcDbLine
 10
4395.109604322771
 20
2687.183932023017
 30
0.0
 11
4260.709604322777
 21
2552.78393202302
 31
0.0
  0
LINE
  5
1BEFC
330
1BD9A
100
AcDbEntity
  8
HATCH
100
AcDbLine
 10
4780.074452931294
 20
2687.183932023017
 30
0.0
 11
4645.674452931301
 21
2552.783932023021
 31
0.0
  0
LINE
  5
1BEFD
330
1BD9A
100
AcDbEntity
  8
KISO
100
AcDbLine
 10
3111.915992739875
 20
2552.783932023016
 30
0.0
 11
3111.915992739875
 21
1944.783932023019
 31
0.0
  0
LINE
  5
1BEFE
330
1BD9A
100
AcDbEntity
  8
KISO
100
AcDbLine
 10
4071.915992739874
 20
2552.783932023016
 30
0.0
 11
4071.915992739874
 21
1944.783932023019
 31
0.0
  0
LINE
  5
1BEFF
330
1BD9A
100
AcDbEntity
  8
HATCH
100
AcDbLine
 10
4071.915992739874
 20
2137.266356327276
 30
0.0
 11
3879.433568435618
 21
1944.783932023019
 31
0.0
  0
LINE
  5
1BF00
330
1BD9A
100
AcDbEntity
  8
HATCH
100
AcDbLine
 10
4071.915992739874
 20
2521.748780631543
 30
0.0
 11
3494.951144131358
 21
1944.783932023019
 31
0.0
  0
LINE
  5
1BF01
330
1BD9A
100
AcDbEntity
  8
HATCH
100
AcDbLine
 10
4055.433568435613
 20
2552.783932023016
 30
0.0
 11
3602.315992739876
 21
2099.666356327273
 31
0.0
  0
LINE
  5
1BF02
330
1BD9A
100
AcDbEntity
  8
HATCH
100
AcDbLine
 10
4007.915992739873
 20
2552.783932023016
 30
0.0
 11
3602.315992739876
 21
2147.183932023012
 31
0.0
  0
LINE
  5
1BF03
330
1BD9A
100
AcDbEntity
  8
HATCH
100
AcDbLine
 10
4071.915992739874
 20
2089.748780631539
 30
0.0
 11
3926.951144131358
 21
1944.783932023019
 31
0.0
  0
LINE
  5
1BF04
330
1BD9A
100
AcDbEntity
  8
HATCH
100
AcDbLine
 10
4071.915992739874
 20
2042.231204935805
 30
0.0
 11
3974.468719827089
 21
1944.783932023019
 31
0.0
  0
LINE
  5
1BF05
330
1BD9A
100
AcDbEntity
  8
HATCH
100
AcDbLine
 10
3575.915992739894
 20
2552.783932023024
 30
0.0
 11
3111.915992739875
 21
2088.783932023008
 31
0.0
  0
LINE
  5
1BF06
330
1BD9A
100
AcDbEntity
  8
HATCH
100
AcDbLine
 10
3528.398417044143
 20
2552.783932023018
 30
0.0
 11
3111.915992739875
 21
2136.301507718747
 31
0.0
  0
LINE
  5
1BF07
330
1BD9A
100
AcDbEntity
  8
HATCH
100
AcDbLine
 10
3581.515992739874
 20
2510.866356327278
 30
0.0
 11
3111.915992739875
 21
2041.266356327276
 31
0.0
  0
LINE
  5
1BF08
330
1BD9A
100
AcDbEntity
  8
HATCH
100
AcDbLine
 10
3143.915992739881
 20
2552.783932023016
 30
0.0
 11
3111.915992739875
 21
2520.783932023011
 31
0.0
  0
LINE
  5
1BF09
330
1BD9A
100
AcDbEntity
  8
HATCH
100
AcDbLine
 10
3581.515992739874
 20
2126.38393202301
 30
0.0
 11
3558.315992739891
 21
2103.183932023023
 31
0.0
  0
LINE
  5
1BF0A
330
1BD9A
100
AcDbEntity
  8
HATCH
100
AcDbLine
 10
3537.515992739892
 20
2082.383932023024
 30
0.0
 11
3399.915992739885
 21
1944.783932023019
 31
0.0
  0
LINE
  5
1BF0B
330
1BD9A
100
AcDbEntity
  8
U3
100
AcDbLine
 10
2716.972596126825
 20
2511.289774287332
 30
0.0
 11
2789.078438391143
 21
2439.183932023016
 31
0.0
  0
LINE
  5
1BF0C
330
1BD9A
100
AcDbEntity
  8
U3
100
AcDbLine
 10
2701.939037005733
 20
2496.256215166237
 30
0.0
 11
2812.866753862511
 21
2607.183932023015
 31
0.0
  0
LINE
  5
1BF0D
330
1BD9A
100
AcDbEntity
  8
HATCH
100
AcDbLine
 10
3585.033568435632
 20
2082.383932023024
 30
0.0
 11
3447.433568435626
 21
1944.783932023019
 31
0.0
  0
LINE
  5
1BF0E
330
1BD9A
100
AcDbEntity
  8
HATCH
100
AcDbLine
 10
3435.109604322772
 20
2687.183932023017
 30
0.0
 11
3300.709604322777
 21
2552.78393202302
 31
0.0
  0
LINE
  5
1BF0F
330
1BD9A
100
AcDbEntity
  8
HATCH
100
AcDbLine
 10
3387.592028627032
 20
2687.183932023017
 30
0.0
 11
3253.192028627044
 21
2552.78393202302
 31
0.0
  0
LINE
  5
1BF10
330
1BD9A
100
AcDbEntity
  8
HATCH
100
AcDbLine
 10
3340.074452931296
 20
2687.183932023017
 30
0.0
 11
3205.674452931307
 21
2552.783932023021
 31
0.0
  0
LINE
  5
1BF11
330
1BD9A
100
AcDbEntity
  8
SUNPOU
100
AcDbLine
 10
3591.915992739874
 20
3364.184504159605
 30
0.0
 11
5017.146499990126
 21
3364.184504159605
 31
0.0
  0
TEXT
  5
1BF12
330
1BD9A
100
AcDbEntity
  8
SUNPOU
100
AcDbText
 10
4377.743691880338
 20
3409.184504159606
 30
0.0
 40
90.0
  1
2450
 41
0.6666666666666666
  7
00
 72
     4
 11
4492.029406166053
 21
3454.184504159605
 31
0.0
100
AcDbText
  0
LINE
  5
1BF13
330
1BD9A
100
AcDbEntity
  8
HATCH
100
AcDbLine
 10
3646.512454632716
 20
1784.783932023017
 30
0.0
 11
3738.888497299381
 21
1944.783932023019
 31
0.0
  0
LINE
  5
1BF14
330
1BD9A
100
AcDbEntity
  8
HATCH
100
AcDbLine
 10
3685.555163966046
 20
1944.783932023019
 30
0.0
 11
3712.221830632715
 21
1898.595909356354
 31
0.0
  0
LINE
  5
1BF15
330
1BD9A
100
AcDbEntity
  8
HATCH
100
AcDbLine
 10
3673.179121299382
 20
1830.971953356348
 30
0.0
 11
3699.84578796605
 21
1784.783932023017
 31
0.0
  0
LINE
  5
1BF16
330
1BD9A
100
AcDbEntity
  8
HATCH
100
AcDbLine
 10
3473.179121299382
 20
1830.971953356348
 30
0.0
 11
3499.84578796605
 21
1784.783932023017
 31
0.0
  0
LINE
  5
1BF17
330
1BD9A
100
AcDbEntity
  8
HATCH
100
AcDbLine
 10
3485.555163966047
 20
1944.783932023019
 30
0.0
 11
3512.221830632714
 21
1898.595909356354
 31
0.0
  0
LINE
  5
1BF18
330
1BD9A
100
AcDbEntity
  8
HATCH
100
AcDbLine
 10
3273.179121299381
 20
1830.971953356348
 30
0.0
 11
3299.84578796605
 21
1784.783932023017
 31
0.0
  0
LINE
  5
1BF19
330
1BD9A
100
AcDbEntity
  8
HATCH
100
AcDbLine
 10
3246.512454632716
 20
1784.783932023017
 30
0.0
 11
3338.888497299381
 21
1944.783932023019
 31
0.0
  0
LINE
  5
1BF1A
330
1BD9A
100
AcDbEntity
  8
HATCH
100
AcDbLine
 10
3285.555163966046
 20
1944.783932023019
 30
0.0
 11
3312.221830632715
 21
1898.595909356354
 31
0.0
  0
LINE
  5
1BF1B
330
1BD9A
100
AcDbEntity
  8
HATCH
100
AcDbLine
 10
3073.179121299383
 20
1830.971953356348
 30
0.0
 11
3099.845787966049
 21
1784.783932023017
 31
0.0
  0
LINE
  5
1BF1C
330
1BD9A
100
AcDbEntity
  8
HATCH
100
AcDbLine
 10
3085.555163966046
 20
1944.783932023019
 30
0.0
 11
3112.221830632714
 21
1898.595909356354
 31
0.0
  0
LINE
  5
1BF1D
330
1BD9A
100
AcDbEntity
  8
HATCH
100
AcDbLine
 10
3046.512454632716
 20
1784.783932023017
 30
0.0
 11
3138.888497299381
 21
1944.783932023019
 31
0.0
  0
LINE
  5
1BF1E
330
1BD9A
100
AcDbEntity
  8
HATCH
100
AcDbLine
 10
3446.512454632716
 20
1784.783932023017
 30
0.0
 11
3538.888497299382
 21
1944.783932023019
 31
0.0
  0
LINE
  5
1BF1F
330
1BD9A
100
AcDbEntity
  8
HATCH
100
AcDbLine
 10
3885.555163966047
 20
1944.783932023019
 30
0.0
 11
3912.221830632715
 21
1898.595909356354
 31
0.0
  0
LINE
  5
1BF20
330
1BD9A
100
AcDbEntity
  8
HATCH
100
AcDbLine
 10
3846.512454632716
 20
1784.783932023017
 30
0.0
 11
3938.888497299382
 21
1944.783932023019
 31
0.0
  0
LINE
  5
1BF21
330
1BD9A
100
AcDbEntity
  8
HATCH
100
AcDbLine
 10
3873.179121299381
 20
1830.971953356348
 30
0.0
 11
3899.84578796605
 21
1784.783932023017
 31
0.0
  0
TEXT
  5
1BF22
330
1BD9A
100
AcDbEntity
  8
SUNPOU
100
AcDbText
 10
1862.18045760488
 20
2742.183932023017
 30
0.0
 40
90.0
  1
G.L
 41
0.6700000000000001
  7
01
 72
     4
 11
1933.966171890595
 21
2787.183932023017
 31
0.0
100
AcDbText
  0
LINE
  5
1BF23
330
1BD9A
100
AcDbEntity
  8
SUNPOU
100
AcDbLine
 10
1985.92769611766
 20
2697.183932023017
 30
0.0
 11
1882.004647663528
 21
2697.183932023017
 31
0.0
  0
LINE
  5
1BF24
330
1BD9A
100
AcDbEntity
  8
SUNPOU
100
AcDbLine
 10
1882.004647663528
 20
2697.183932023017
 30
0.0
 11
1933.966171890595
 21
2607.183932023017
 31
0.0
  0
LINE
  5
1BF25
330
1BD9A
100
AcDbEntity
  8
SUNPOU
100
AcDbLine
 10
1933.966171890595
 20
2607.183932023017
 30
0.0
 11
1985.92769611766
 21
2697.183932023017
 31
0.0
  0
TEXT
  5
1BF26
330
1BD9A
100
AcDbEntity
  8
HIKIDASHI
100
AcDbText
 10
3668.119595618649
 20
898.3349131803498
 30
0.0
 40
90.0
  1
断 面
  7
01
100
AcDbText
  0
LINE
  5
1BF27
330
1BD9A
100
AcDbEntity
  8
HIKIDASHI
100
AcDbLine
 10
3244.102316122087
 20
853.3349131803495
 30
0.0
 11
3939.729669357657
 21
853.3349131803495
 31
0.0
  0
LINE
  5
1BF28
330
1BD9A
100
AcDbEntity
  8
HIKIDASHI
100
AcDbLine
 10
3244.102316122087
 20
823.3349131803498
 30
0.0
 11
3939.729669357657
 21
823.3349131803498
 31
0.0
  0
TEXT
  5
1BF29
330
1BD9A
100
AcDbEntity
  8
HIKIDASHI
100
AcDbText
 10
3274.102316122088
 20
898.3349131803498
 30
0.0
 40
90.0
  1
A  ~  A'
 41
0.6700000000000001
  7
00
100
AcDbText
  0
TEXT
  5
1BF2A
330
1BD9A
100
AcDbEntity
  8
HIKIDASHI
100
AcDbText
 10
4510.824473165036
 20
2182.813799624294
 30
0.0
 40
90.0
  1
敷砂利又は砕石
  7
01
 72
     2
 11
5242.824473165036
 21
2227.813799624294
 31
0.0
100
AcDbText
 73
     2
  0
LINE
  5
1BF2B
330
1BD9A
100
AcDbEntity
  8
HIKIDASHI
100
AcDbLine
 10
5268.054773810714
 20
2137.813799624294
 30
0.0
 11
4466.990604083568
 21
2137.813799624294
 31
0.0
  0
TEXT
  5
1BF2C
330
1BD9A
100
AcDbEntity
  8
HIKIDASHI
100
AcDbText
 10
4475.524645866981
 20
1627.003331156296
 30
0.0
 40
90.0
  1
砕　石
  7
01
 72
     2
 11
4775.524645866981
 21
1672.003331156296
 31
0.0
100
AcDbText
 73
     2
  0
LINE
  5
1BF2D
330
1BD9A
100
AcDbEntity
  8
HIKIDASHI
100
AcDbLine
 10
4817.223415102695
 20
1582.003331156295
 30
0.0
 11
4448.457038275068
 21
1582.003331156295
 31
0.0
  0
TEXT
  5
1BF2E
330
1BD9A
100
AcDbEntity
  8
SUNPOU
100
AcDbText
 10
4389.610702028725
 20
1812.583798459791
 30
0.0
 40
90.0
  1
4-D13×4-D13
 41
0.6700000000000001
  7
01
 72
     4
 11
4733.033559171583
 21
1857.583798459792
 31
0.0
100
AcDbText
  0
TEXT
  5
1BF2F
330
1BD9A
100
AcDbEntity
  8
SUNPOU
100
AcDbText
 10
4524.72641631444
 20
1947.583798459792
 30
0.0
 40
90.0
  1
ベース筋
  7
01
 72
     4
 11
4728.726416314439
 21
1992.583798459792
 31
0.0
100
AcDbText
  0
TEXT
  5
1BF30
330
1BD9A
100
AcDbEntity
  8
HIKIDASHI
100
AcDbText
 10
2115.963976636491
 20
1048.577961873762
 30
0.0
 40
89.55223880597014
  1
x
 41
0.6700000000000001
  7
00
100
AcDbText
  0
TEXT
  5
1BF31
330
1BD9A
100
AcDbEntity
  8
HIKIDASHI
100
AcDbText
 10
2044.129039446116
 20
1036.787486631349
 30
0.0
 40
67.16417910447761
  1
2
 41
0.6700000000000001
  7
00
100
AcDbText
  0
TEXT
  5
1BF32
330
1BD9A
100
AcDbEntity
  8
HIKIDASHI
100
AcDbText
 10
1956.237002887194
 20
1063.81354166191
 30
0.0
 40
67.16417910447761
  1
1
 41
0.6700000000000001
  7
00
100
AcDbText
  0
TEXT
  5
1BF33
330
1BD9A
100
AcDbEntity
  8
HIKIDASHI
100
AcDbText
 10
1881.63619220397
 20
1037.383932023014
 30
0.0
 40
89.55223880597014
  1
W ／
 41
0.6700000000000001
  7
00
100
AcDbText
  0
TEXT
  5
1BF34
330
1BD9A
100
AcDbEntity
  8
HIKIDASHI
100
AcDbText
 10
2197.099355789624
 20
1037.174945822925
 30
0.0
 40
89.55223880597014
  1
300
 41
0.6700000000000001
  7
00
100
AcDbText
  0
TEXT
  5
1BF35
330
1BD9A
100
AcDbEntity
  8
HIKIDASHI
100
AcDbText
 10
1881.63619220397
 20
1217.383932023014
 30
0.0
 40
90.0
  1
アンカーボルト
  7
01
100
AcDbText
  0
LINE
  5
1BF36
330
1BD9A
100
AcDbEntity
  8
HIKIDASHI
100
AcDbLine
 10
1852.556583342265
 20
1172.383932023014
 30
0.0
 11
2672.562596739116
 21
1172.383932023014
 31
0.0
  0
LINE
  5
1BF37
330
1BD9A
100
AcDbEntity
  8
HATCH
100
AcDbLine
 10
4085.555163966047
 20
1944.783932023019
 30
0.0
 11
4112.221830632716
 21
1898.595909356354
 31
0.0
  0
LINE
  5
1BF38
330
1BD9A
100
AcDbEntity
  8
HATCH
100
AcDbLine
 10
4046.512454632716
 20
1784.783932023017
 30
0.0
 11
4138.888497299382
 21
1944.783932023019
 31
0.0
  0
LINE
  5
1BF39
330
1BD9A
100
AcDbEntity
  8
HATCH
100
AcDbLine
 10
4073.179121299381
 20
1830.971953356348
 30
0.0
 11
4099.845787966049
 21
1784.783932023017
 31
0.0
  0
CIRCLE
  5
1BF3A
330
1BD9A
100
AcDbEntity
  8
BOLT
100
AcDbCircle
 10
7750.758701212581
 20
2659.983932023015
 30
0.0
 40
13.2
  0
CIRCLE
  5
1BF3B
330
1BD9A
100
AcDbEntity
  8
BOLT
100
AcDbCircle
 10
7750.758701212581
 20
2659.983932023015
 30
0.0
 40
16.8
  0
CIRCLE
  5
1BF3C
330
1BD9A
100
AcDbEntity
  8
BOLT
100
AcDbCircle
 10
7750.758701212581
 20
2595.983932023015
 30
0.0
 40
16.8
  0
CIRCLE
  5
1BF3D
330
1BD9A
100
AcDbEntity
  8
BOLT
100
AcDbCircle
 10
7750.758701212581
 20
2595.983932023015
 30
0.0
 40
13.2
  0
LINE
  5
1BF3E
330
1BD9A
100
AcDbEntity
  8
KISO
100
AcDbLine
 10
9033.155423951882
 20
2687.183932023017
 30
0.0
 11
7802.758701212576
 21
2687.183932023017
 31
0.0
  0
LINE
  5
1BF3F
330
1BD9A
100
AcDbEntity
  8
KISO
100
AcDbLine
 10
6468.361978473277
 20
2424.783932023014
 30
0.0
 11
7110.758701212581
 21
2424.783932023014
 31
0.0
  0
LINE
  5
1BF40
330
1BD9A
100
AcDbEntity
  8
KISO
100
AcDbLine
 10
8390.758701212579
 20
2424.783932023016
 30
0.0
 11
9033.155423951887
 21
2424.783932023017
 31
0.0
  0
LINE
  5
1BF41
330
1BD9A
100
AcDbEntity
  8
KISO
100
AcDbLine
 10
7698.758701212579
 20
2687.183932023017
 30
0.0
 11
6468.361978473271
 21
2687.183932023019
 31
0.0
  0
LINE
  5
1BF42
330
1BD9A
100
AcDbEntity
  8
HASHIRA
100
AcDbLine
 10
7802.758701212581
 20
2567.183932023016
 30
0.0
 11
7802.758701212574
 21
2817.184504159605
 31
0.0
  0
LINE
  5
1BF43
330
1BD9A
100
AcDbEntity
  8
HASHIRA
100
AcDbLine
 10
7698.758701212581
 20
2817.184504159605
 30
0.0
 11
7698.758701212581
 21
2567.183932023016
 31
0.0
  0
LINE
  5
1BF44
330
1BD9A
100
AcDbEntity
  8
HATCH
100
AcDbLine
 10
7502.117161404007
 20
2690.383932023017
 30
0.0
 11
7364.517161404008
 21
2552.783932023018
 31
0.0
  0
LINE
  5
1BF45
330
1BD9A
100
AcDbEntity
  8
HATCH
100
AcDbLine
 10
7597.152312795479
 20
2690.383932023017
 30
0.0
 11
7459.552312795479
 21
2552.783932023016
 31
0.0
  0
LINE
  5
1BF46
330
1BD9A
100
AcDbEntity
  8
HATCH
100
AcDbLine
 10
7549.634737099747
 20
2690.383932023017
 30
0.0
 11
7412.034737099746
 21
2552.783932023016
 31
0.0
  0
LINE
  5
1BF47
330
1BD9A
100
AcDbEntity
  8
1PL-S1
100
AcDbLine
 10
7638.758701212582
 20
2543.183932023016
 30
0.0
 11
7638.758701212582
 21
2571.983932023019
 31
0.0
  0
LINE
  5
1BF48
330
1BD9A
100
AcDbEntity
  8
HATCH
100
AcDbLine
 10
7978.917161404005
 20
2687.183932023017
 30
0.0
 11
7844.517161404003
 21
2552.783932023016
 31
0.0
  0
LINE
  5
1BF49
330
1BD9A
100
AcDbEntity
  8
HATCH
100
AcDbLine
 10
8026.434737099746
 20
2687.183932023017
 30
0.0
 11
7892.034737099746
 21
2552.783932023016
 31
0.0
  0
LINE
  5
1BF4A
330
1BD9A
100
AcDbEntity
  8
1PL-S1
100
AcDbLine
 10
7862.75870121258
 20
2543.183932023012
 30
0.0
 11
7862.75870121258
 21
2571.983932023013
 31
0.0
  0
LINE
  5
1BF4B
330
1BD9A
100
AcDbEntity
  8
HATCH
100
AcDbLine
 10
8073.952312795478
 20
2687.183932023017
 30
0.0
 11
7939.552312795479
 21
2552.783932023016
 31
0.0
  0
LINE
  5
1BF4C
330
1BD9A
100
AcDbEntity
  8
HATCH
100
AcDbLine
 10
8458.917161404007
 20
2687.183932023017
 30
0.0
 11
8324.517161404003
 21
2552.783932023016
 31
0.0
  0
LINE
  5
1BF4D
330
1BD9A
100
AcDbEntity
  8
HATCH
100
AcDbLine
 10
8506.434737099745
 20
2687.183932023017
 30
0.0
 11
8372.034737099744
 21
2552.783932023016
 31
0.0
  0
LINE
  5
1BF4E
330
1BD9A
100
AcDbEntity
  8
HATCH
100
AcDbLine
 10
8553.952312795479
 20
2687.183932023017
 30
0.0
 11
8419.552312795474
 21
2552.783932023016
 31
0.0
  0
LINE
  5
1BF4F
330
1BD9A
100
AcDbEntity
  8
HATCH
100
AcDbLine
 10
9033.155423951882
 20
2686.387043179423
 30
0.0
 11
8899.552312795469
 21
2552.783932023016
 31
0.0
  0
LINE
  5
1BF50
330
1BD9A
100
AcDbEntity
  8
HATCH
100
AcDbLine
 10
8986.434737099743
 20
2687.183932023017
 30
0.0
 11
8852.034737099748
 21
2552.783932023016
 31
0.0
  0
LINE
  5
1BF51
330
1BD9A
100
AcDbEntity
  8
HATCH
100
AcDbLine
 10
8938.917161404006
 20
2687.183932023017
 30
0.0
 11
8804.517161404003
 21
2552.783932023016
 31
0.0
  0
LINE
  5
1BF52
330
1BD9A
100
AcDbEntity
  8
KISO
100
AcDbLine
 10
9033.155423951887
 20
2552.783932023016
 30
0.0
 11
6468.361978473277
 21
2552.783932023016
 31
0.0
  0
LINE
  5
1BF53
330
1BD9A
100
AcDbEntity
  8
HATCH
100
AcDbLine
 10
8390.758701212579
 20
2518.935094678731
 30
0.0
 11
8410.301336565062
 21
2552.783932023016
 31
0.0
  0
LINE
  5
1BF54
330
1BD9A
100
AcDbEntity
  8
HATCH
100
AcDbLine
 10
8390.758701212579
 20
2306.86635632728
 30
0.0
 11
8028.676276908322
 21
1944.78393202302
 31
0.0
  0
LINE
  5
1BF55
330
1BD9A
100
AcDbEntity
  8
HATCH
100
AcDbLine
 10
8390.758701212579
 20
2259.348780631543
 30
0.0
 11
8076.193852604058
 21
1944.78393202302
 31
0.0
  0
LINE
  5
1BF56
330
1BD9A
100
AcDbEntity
  8
HATCH
100
AcDbLine
 10
8390.758701212579
 20
2211.831204935808
 30
0.0
 11
8123.711428299797
 21
1944.783932023021
 31
0.0
  0
LINE
  5
1BF57
330
1BD9A
100
AcDbEntity
  8
HATCH
100
AcDbLine
 10
8204.676276908314
 20
2552.783932023016
 30
0.0
 11
7873.15870121258
 21
2221.266356327276
 31
0.0
  0
LINE
  5
1BF58
330
1BD9A
100
AcDbEntity
  8
HATCH
100
AcDbLine
 10
8252.193852604044
 20
2552.783932023016
 30
0.0
 11
7873.15870121258
 21
2173.748780631548
 31
0.0
  0
LINE
  5
1BF59
330
1BD9A
100
AcDbEntity
  8
HATCH
100
AcDbLine
 10
8157.158701212578
 20
2552.783932023016
 30
0.0
 11
7873.15870121258
 21
2268.783932023016
 31
0.0
  0
LINE
  5
1BF5A
330
1BD9A
100
AcDbEntity
  8
KISO
100
AcDbLine
 10
8390.758701212579
 20
2552.78393202302
 30
0.0
 11
8390.758701212579
 21
1944.78393202302
 31
0.0
  0
LINE
  5
1BF5B
330
1BD9A
100
AcDbEntity
  8
KISO
100
AcDbLine
 10
7110.758701212581
 20
2552.78393202302
 30
0.0
 11
7110.758701212581
 21
1944.78393202302
 31
0.0
  0
LINE
  5
1BF5C
330
1BD9A
100
AcDbEntity
  8
HATCH
100
AcDbLine
 10
7293.158701212582
 20
2552.783932023016
 30
0.0
 11
7110.758701212581
 21
2370.383932023016
 31
0.0
  0
LINE
  5
1BF5D
330
1BD9A
100
AcDbEntity
  8
HATCH
100
AcDbLine
 10
7240.841125516855
 20
2547.983932023017
 30
0.0
 11
7110.758701212581
 21
2417.901507718748
 31
0.0
  0
LINE
  5
1BF5E
330
1BD9A
100
AcDbEntity
  8
HATCH
100
AcDbLine
 10
7852.358701212581
 20
2247.983932023016
 30
0.0
 11
7549.158701212602
 21
1944.78393202302
 31
0.0
  0
LINE
  5
1BF5F
330
1BD9A
100
AcDbEntity
  8
HATCH
100
AcDbLine
 10
7852.358701212579
 20
2200.466356327277
 30
0.0
 11
7596.676276908333
 21
1944.78393202302
 31
0.0
  0
LINE
  5
1BF60
330
1BD9A
100
AcDbEntity
  8
HATCH
100
AcDbLine
 10
7852.358701212579
 20
2152.948780631545
 30
0.0
 11
7644.193852604061
 21
1944.78393202302
 31
0.0
  0
LINE
  5
1BF61
330
1BD9A
100
AcDbEntity
  8
HATCH
100
AcDbLine
 10
7677.641125516848
 20
2552.783932023016
 30
0.0
 11
7649.158701212584
 21
2524.30150771875
 31
0.0
  0
LINE
  5
1BF62
330
1BD9A
100
AcDbEntity
  8
HATCH
100
AcDbLine
 10
7628.358701212585
 20
2503.501507718751
 30
0.0
 11
7110.758701212581
 21
1985.901507718751
 31
0.0
  0
LINE
  5
1BF63
330
1BD9A
100
AcDbEntity
  8
HATCH
100
AcDbLine
 10
7725.158701212589
 20
2552.783932023016
 30
0.0
 11
7649.158701212584
 21
2476.783932023013
 31
0.0
  0
LINE
  5
1BF64
330
1BD9A
100
AcDbEntity
  8
HATCH
100
AcDbLine
 10
7628.358701212585
 20
2455.983932023012
 30
0.0
 11
7117.158701212598
 21
1944.78393202302
 31
0.0
  0
LINE
  5
1BF65
330
1BD9A
100
AcDbEntity
  8
HATCH
100
AcDbLine
 10
7772.676276908322
 20
2552.783932023016
 30
0.0
 11
7649.158701212584
 21
2429.266356327278
 31
0.0
  0
LINE
  5
1BF66
330
1BD9A
100
AcDbEntity
  8
HATCH
100
AcDbLine
 10
7628.358701212585
 20
2408.466356327279
 30
0.0
 11
7164.676276908325
 21
1944.78393202302
 31
0.0
  0
LINE
  5
1BF67
330
1BD9A
100
AcDbEntity
  8
HATCH
100
AcDbLine
 10
7198.123549821115
 20
2552.783932023016
 30
0.0
 11
7110.758701212581
 21
2465.419083414488
 31
0.0
  0
LINE
  5
1BF68
330
1BD9A
100
AcDbEntity
  8
1PL-M1
100
AcDbLine
 10
7750.758701212581
 20
1661.871218482205
 30
0.0
 11
7750.758701212581
 21
3409.184504159609
 31
0.0
  0
LINE
  5
1BF69
330
1BD9A
100
AcDbEntity
  8
KISO
100
AcDbLine
 10
8550.758701212577
 20
1944.78393202302
 30
0.0
 11
8550.758701212577
 21
1784.783932023017
 31
0.0
  0
LINE
  5
1BF6A
330
1BD9A
100
AcDbEntity
  8
HATCH
100
AcDbLine
 10
7778.688496438757
 20
1784.783932023021
 30
0.0
 11
7871.064539105423
 21
1944.78393202302
 31
0.0
  0
LINE
  5
1BF6B
330
1BD9A
100
AcDbEntity
  8
HATCH
100
AcDbLine
 10
7817.731205772087
 20
1944.78393202302
 30
0.0
 11
7844.397872438753
 21
1898.595909356358
 31
0.0
  0
LINE
  5
1BF6C
330
1BD9A
100
AcDbEntity
  8
HATCH
100
AcDbLine
 10
7805.355163105422
 20
1830.971953356351
 30
0.0
 11
7832.02182977209
 21
1784.783932023021
 31
0.0
  0
LINE
  5
1BF6D
330
1BD9A
100
AcDbEntity
  8
HATCH
100
AcDbLine
 10
7605.355163105421
 20
1830.971953356351
 30
0.0
 11
7632.02182977209
 21
1784.783932023021
 31
0.0
  0
LINE
  5
1BF6E
330
1BD9A
100
AcDbEntity
  8
HATCH
100
AcDbLine
 10
7617.731205772087
 20
1944.78393202302
 30
0.0
 11
7644.397872438755
 21
1898.595909356358
 31
0.0
  0
LINE
  5
1BF6F
330
1BD9A
100
AcDbEntity
  8
HATCH
100
AcDbLine
 10
7405.355163105422
 20
1830.971953356351
 30
0.0
 11
7432.021829772089
 21
1784.783932023021
 31
0.0
  0
LINE
  5
1BF70
330
1BD9A
100
AcDbEntity
  8
HATCH
100
AcDbLine
 10
7378.688496438757
 20
1784.783932023021
 30
0.0
 11
7471.064539105423
 21
1944.78393202302
 31
0.0
  0
LINE
  5
1BF71
330
1BD9A
100
AcDbEntity
  8
HATCH
100
AcDbLine
 10
7417.731205772087
 20
1944.78393202302
 30
0.0
 11
7444.397872438755
 21
1898.595909356358
 31
0.0
  0
LINE
  5
1BF72
330
1BD9A
100
AcDbEntity
  8
KISO
100
AcDbLine
 10
6950.758701212581
 20
1944.78393202302
 30
0.0
 11
6950.758701212581
 21
1784.783932023017
 31
0.0
  0
LINE
  5
1BF73
330
1BD9A
100
AcDbEntity
  8
HATCH
100
AcDbLine
 10
7205.355163105423
 20
1830.971953356351
 30
0.0
 11
7232.02182977209
 21
1784.783932023021
 31
0.0
  0
LINE
  5
1BF74
330
1BD9A
100
AcDbEntity
  8
HATCH
100
AcDbLine
 10
7217.731205772087
 20
1944.78393202302
 30
0.0
 11
7244.397872438755
 21
1898.595909356358
 31
0.0
  0
LINE
  5
1BF75
330
1BD9A
100
AcDbEntity
  8
HATCH
100
AcDbLine
 10
7178.688496438756
 20
1784.783932023021
 30
0.0
 11
7271.064539105421
 21
1944.78393202302
 31
0.0
  0
LINE
  5
1BF76
330
1BD9A
100
AcDbEntity
  8
HATCH
100
AcDbLine
 10
7578.688496438757
 20
1784.783932023021
 30
0.0
 11
7671.064539105422
 21
1944.78393202302
 31
0.0
  0
LINE
  5
1BF77
330
1BD9A
100
AcDbEntity
  8
KISO
100
AcDbLine
 10
6950.758701212581
 20
1784.783932023017
 30
0.0
 11
8550.758701212577
 21
1784.783932023017
 31
0.0
  0
LINE
  5
1BF78
330
1BD9A
100
AcDbEntity
  8
HATCH
100
AcDbLine
 10
8017.731205772086
 20
1944.78393202302
 30
0.0
 11
8044.397872438755
 21
1898.595909356358
 31
0.0
  0
LINE
  5
1BF79
330
1BD9A
100
AcDbEntity
  8
HATCH
100
AcDbLine
 10
7978.688496438755
 20
1784.783932023021
 30
0.0
 11
8071.064539105423
 21
1944.78393202302
 31
0.0
  0
LINE
  5
1BF7A
330
1BD9A
100
AcDbEntity
  8
HATCH
100
AcDbLine
 10
8005.355163105424
 20
1830.971953356351
 30
0.0
 11
8032.021829772089
 21
1784.783932023021
 31
0.0
  0
LINE
  5
1BF7B
330
1BD9A
100
AcDbEntity
  8
HATCH
100
AcDbLine
 10
8178.688496438757
 20
1784.783932023021
 30
0.0
 11
8271.064539105422
 21
1944.78393202302
 31
0.0
  0
LINE
  5
1BF7C
330
1BD9A
100
AcDbEntity
  8
HATCH
100
AcDbLine
 10
8217.731205772087
 20
1944.78393202302
 30
0.0
 11
8244.397872438755
 21
1898.595909356358
 31
0.0
  0
LINE
  5
1BF7D
330
1BD9A
100
AcDbEntity
  8
HATCH
100
AcDbLine
 10
8205.355163105421
 20
1830.971953356351
 30
0.0
 11
8232.02182977209
 21
1784.783932023021
 31
0.0
  0
LINE
  5
1BF7E
330
1BD9A
100
AcDbEntity
  8
HATCH
100
AcDbLine
 10
7017.731205772086
 20
1944.78393202302
 30
0.0
 11
7044.397872438755
 21
1898.595909356358
 31
0.0
  0
LINE
  5
1BF7F
330
1BD9A
100
AcDbEntity
  8
HATCH
100
AcDbLine
 10
6978.688496438756
 20
1784.783932023021
 30
0.0
 11
7071.064539105421
 21
1944.78393202302
 31
0.0
  0
LINE
  5
1BF80
330
1BD9A
100
AcDbEntity
  8
HATCH
100
AcDbLine
 10
7005.355163105424
 20
1830.971953356351
 30
0.0
 11
7032.02182977209
 21
1784.783932023021
 31
0.0
  0
LINE
  5
1BF81
330
1BD9A
100
AcDbEntity
  8
SUNPOU
100
AcDbLine
 10
7750.758701212581
 20
3364.184504159609
 30
0.0
 11
8871.999660394948
 21
3364.184504159609
 31
0.0
  0
TEXT
  5
1BF82
330
1BD9A
100
AcDbEntity
  8
SUNPOU
100
AcDbText
 10
8260.65655596852
 20
3409.184504159609
 30
0.0
 40
90.0
  1
1800
 41
0.6666666666666666
  7
00
 72
     4
 11
8379.227984539948
 21
3454.184504159609
 31
0.0
100
AcDbText
  0
LINE
  5
1BF83
330
1BD9A
100
AcDbEntity
  8
HIKIDASHI
100
AcDbLine
 10
8897.25547140607
 20
3154.184504159609
 30
0.0
 11
8528.48909457845
 21
3154.184504159609
 31
0.0
  0
TEXT
  5
1BF84
330
1BD9A
100
AcDbEntity
  8
HIKIDASHI
100
AcDbText
 10
8561.556702170356
 20
3199.184504159609
 30
0.0
 40
90.0
  1
土　間
  7
01
 72
     2
 11
8855.556702170359
 21
3244.184504159609
 31
0.0
100
AcDbText
 73
     2
  0
TEXT
  5
1BF85
330
1BD9A
100
AcDbEntity
  8
SUNPOU
100
AcDbText
 10
8649.223035703865
 20
2822.183932023017
 30
0.0
 40
90.0
  1
F.L
 41
0.6666666666666666
  7
00
 72
     4
 11
8717.794464275293
 21
2867.183932023017
 31
0.0
100
AcDbText
  0
LINE
  5
1BF86
330
1BD9A
100
AcDbEntity
  8
SUNPOU
100
AcDbLine
 10
8717.794464275293
 20
2687.183932023017
 30
0.0
 11
8769.755988502362
 21
2777.183932023017
 31
0.0
  0
LINE
  5
1BF87
330
1BD9A
100
AcDbEntity
  8
SUNPOU
100
AcDbLine
 10
8665.832940048229
 20
2777.183932023017
 30
0.0
 11
8717.794464275293
 21
2687.183932023017
 31
0.0
  0
LINE
  5
1BF88
330
1BD9A
100
AcDbEntity
  8
SUNPOU
100
AcDbLine
 10
8769.755988502362
 20
2777.183932023017
 30
0.0
 11
8665.832940048229
 21
2777.183932023017
 31
0.0
  0
TEXT
  5
1BF89
330
1BD9A
100
AcDbEntity
  8
HIKIDASHI
100
AcDbText
 10
6182.062236208849
 20
1048.577961873766
 30
0.0
 40
89.55223880597014
  1
x
 41
0.6700000000000001
  7
00
100
AcDbText
  0
TEXT
  5
1BF8A
330
1BD9A
100
AcDbEntity
  8
HIKIDASHI
100
AcDbText
 10
6110.227299018474
 20
1036.787486631354
 30
0.0
 40
67.16417910447761
  1
2
 41
0.6700000000000001
  7
00
100
AcDbText
  0
TEXT
  5
1BF8B
330
1BD9A
100
AcDbEntity
  8
HIKIDASHI
100
AcDbText
 10
6022.335262459553
 20
1063.813541661914
 30
0.0
 40
67.16417910447761
  1
1
 41
0.6700000000000001
  7
00
100
AcDbText
  0
TEXT
  5
1BF8C
330
1BD9A
100
AcDbEntity
  8
HIKIDASHI
100
AcDbText
 10
5947.73445177633
 20
1037.38393202302
 30
0.0
 40
89.55223880597014
  1
W ／
 41
0.6700000000000001
  7
00
100
AcDbText
  0
TEXT
  5
1BF8D
330
1BD9A
100
AcDbEntity
  8
HIKIDASHI
100
AcDbText
 10
6263.197615361984
 20
1037.17494582293
 30
0.0
 40
89.55223880597014
  1
300
 41
0.6700000000000001
  7
00
100
AcDbText
  0
TEXT
  5
1BF8E
330
1BD9A
100
AcDbEntity
  8
HIKIDASHI
100
AcDbText
 10
5947.73445177633
 20
1217.38393202302
 30
0.0
 40
90.0
  1
アンカーボルト
  7
01
100
AcDbText
  0
LINE
  5
1BF8F
330
1BD9A
100
AcDbEntity
  8
HIKIDASHI
100
AcDbLine
 10
5918.654842914624
 20
1172.38393202302
 30
0.0
 11
6738.660856311475
 21
1172.38393202302
 31
0.0
  0
TEXT
  5
1BF90
330
1BD9A
100
AcDbEntity
  8
HIKIDASHI
100
AcDbText
 10
7432.945024594793
 20
898.3349131803533
 30
0.0
 40
90.0
  1
B  ~  B'
 41
0.6700000000000001
  7
00
100
AcDbText
  0
LINE
  5
1BF91
330
1BD9A
100
AcDbEntity
  8
HIKIDASHI
100
AcDbLine
 10
7402.945024594792
 20
823.3349131803532
 30
0.0
 11
8098.572377830363
 21
823.3349131803532
 31
0.0
  0
LINE
  5
1BF92
330
1BD9A
100
AcDbEntity
  8
HIKIDASHI
100
AcDbLine
 10
7402.945024594792
 20
853.3349131803534
 30
0.0
 11
8098.572377830363
 21
853.3349131803534
 31
0.0
  0
TEXT
  5
1BF93
330
1BD9A
100
AcDbEntity
  8
HIKIDASHI
100
AcDbText
 10
7826.962304091354
 20
898.3349131803533
 30
0.0
 40
90.0
  1
断 面
  7
01
100
AcDbText
  0
TEXT
  5
1BF94
330
1BD9A
100
AcDbEntity
  8
SUNPOU
100
AcDbText
 10
8708.45341050143
 20
1812.583798459796
 30
0.0
 40
90.0
  1
5-D13×5-D13
 41
0.6700000000000001
  7
01
 72
     4
 11
9051.876267644287
 21
1857.583798459796
 31
0.0
100
AcDbText
  0
TEXT
  5
1BF95
330
1BD9A
100
AcDbEntity
  8
SUNPOU
100
AcDbText
 10
8843.569124787149
 20
1947.583798459796
 30
0.0
 40
90.0
  1
ベース筋
  7
01
 72
     4
 11
9047.56912478715
 21
1992.583798459796
 31
0.0
100
AcDbText
  0
LINE
  5
1BF96
330
1BD9A
100
AcDbEntity
  8
KISO
100
AcDbLine
 10
6950.758701212581
 20
1944.78393202302
 30
0.0
 11
8550.758701212577
 21
1944.78393202302
 31
0.0
  0
LINE
  5
1BF97
330
1BD9A
100
AcDbEntity
  8
HATCH
100
AcDbLine
 10
8378.688496438755
 20
1784.783932023024
 30
0.0
 11
8471.06453910542
 21
1944.783932023024
 31
0.0
  0
LINE
  5
1BF98
330
1BD9A
100
AcDbEntity
  8
HATCH
100
AcDbLine
 10
8417.731205772087
 20
1944.783932023024
 30
0.0
 11
8444.397872438752
 21
1898.59590935636
 31
0.0
  0
LINE
  5
1BF99
330
1BD9A
100
AcDbEntity
  8
HATCH
100
AcDbLine
 10
8405.355163105422
 20
1830.971953356355
 30
0.0
 11
8432.021829772086
 21
1784.783932023024
 31
0.0
  0
LINE
  5
1BF9A
330
1BD9A
100
AcDbEntity
  8
HATCH
100
AcDbLine
 10
7018.917161404012
 20
2687.183932023017
 30
0.0
 11
6884.517161404009
 21
2552.783932023018
 31
0.0
  0
LINE
  5
1BF9B
330
1BD9A
100
AcDbEntity
  8
HATCH
100
AcDbLine
 10
7113.952312795483
 20
2687.183932023017
 30
0.0
 11
6979.552312795481
 21
2552.783932023016
 31
0.0
  0
LINE
  5
1BF9C
330
1BD9A
100
AcDbEntity
  8
HATCH
100
AcDbLine
 10
7066.434737099749
 20
2687.183932023017
 30
0.0
 11
6932.034737099749
 21
2552.783932023016
 31
0.0
  0
LINE
  5
1BF9D
330
1BD9A
100
AcDbEntity
  8
HATCH
100
AcDbLine
 10
6542.117161404012
 20
2690.383932023017
 30
0.0
 11
6468.361978473277
 21
2616.628749092284
 31
0.0
  0
LINE
  5
1BF9E
330
1BD9A
100
AcDbEntity
  8
HATCH
100
AcDbLine
 10
6637.152312795485
 20
2690.383932023017
 30
0.0
 11
6499.552312795483
 21
2552.783932023016
 31
0.0
  0
LINE
  5
1BF9F
330
1BD9A
100
AcDbEntity
  8
HATCH
100
AcDbLine
 10
6589.634737099752
 20
2690.383932023017
 30
0.0
 11
6468.361978473277
 21
2569.111173396545
 31
0.0
  0
LINE
  5
1BFA0
330
1BD9A
100
AcDbEntity
  8
SUNPOU
100
AcDbLine
 10
7750.758701212581
 20
3364.184504159609
 30
0.0
 11
6629.517742030216
 21
3364.184504159609
 31
0.0
  0
TEXT
  5
1BFA1
330
1BD9A
100
AcDbEntity
  8
SUNPOU
100
AcDbText
 10
7003.717989313786
 20
3409.184504159609
 30
0.0
 40
90.0
  1
1800
 41
0.6666666666666666
  7
00
 72
     4
 11
7122.289417885214
 21
3454.184504159609
 31
0.0
100
AcDbText
  0
LINE
  5
1BFA2
330
1BD9A
100
AcDbEntity
  8
HIKIDASHI
100
AcDbLine
 10
4494.745366139386
 20
3154.184504159605
 30
0.0
 11
4125.978989311763
 21
3154.184504159605
 31
0.0
  0
TEXT
  5
1BFA3
330
1BD9A
100
AcDbEntity
  8
HIKIDASHI
100
AcDbText
 10
4159.046596903675
 20
3199.184504159605
 30
0.0
 40
90.0
  1
土　間
  7
01
 72
     2
 11
4453.046596903676
 21
3244.184504159606
 31
0.0
100
AcDbText
 73
     2
  0
LINE
  5
1BFA4
330
1BD9A
100
AcDbEntity
  8
KISO
100
AcDbLine
 10
2951.915992739875
 20
2687.183932023017
 30
0.0
 11
2951.915992739874
 21
2424.783932023015
 31
0.0
  0
LINE
  5
1BFA5
330
1BD9A
100
AcDbEntity
  8
KISO
100
AcDbLine
 10
2951.915992739874
 20
2424.783932023015
 30
0.0
 11
3111.915992739875
 21
2424.783932023015
 31
0.0
  0
LINE
  5
1BFA6
330
1BD9A
100
AcDbEntity
  8
KISO
100
AcDbLine
 10
3111.915992739875
 20
2552.783932023016
 30
0.0
 11
2951.915992739875
 21
2552.783932023016
 31
0.0
  0
LINE
  5
1BFA7
330
1BD9A
100
AcDbEntity
  8
HATCH
100
AcDbLine
 10
3088.191137728982
 20
2687.183932023017
 30
0.0
 11
2953.79113772898
 21
2552.783932023016
 31
0.0
  0
LINE
  5
1BFA8
330
1BD9A
100
AcDbEntity
  8
HATCH
100
AcDbLine
 10
3040.67356172898
 20
2687.183932023017
 30
0.0
 11
2951.915992739875
 21
2598.426363033911
 31
0.0
  0
LINE
  5
1BFA9
330
1BD9A
100
AcDbEntity
  8
HATCH
100
AcDbLine
 10
2993.155985728983
 20
2687.183932023017
 30
0.0
 11
2951.915992739875
 21
2645.943939033911
 31
0.0
  0
TEXT
  5
1BFAA
330
1BD9A
100
AcDbEntity
  8
HIKIDASHI
100
AcDbText
 10
8794.367354339684
 20
1627.003331156298
 30
0.0
 40
90.0
  1
砕　石
  7
01
 72
     2
 11
9094.367354339684
 21
1672.003331156298
 31
0.0
100
AcDbText
 73
     2
  0
LINE
  5
1BFAB
330
1BD9A
100
AcDbEntity
  8
HIKIDASHI
100
AcDbLine
 10
9136.0661235754
 20
1582.003331156298
 30
0.0
 11
8767.299746747777
 21
1582.003331156298
 31
0.0
  0
TEXT
  5
1BFAC
330
1BD9A
100
AcDbEntity
  8
HIKIDASHI
100
AcDbText
 10
8829.667181637743
 20
2182.813799624292
 30
0.0
 40
90.0
  1
敷砂利又は砕石
  7
01
 72
     2
 11
9561.667181637742
 21
2227.813799624292
 31
0.0
100
AcDbText
 73
     2
  0
LINE
  5
1BFAD
330
1BD9A
100
AcDbEntity
  8
HIKIDASHI
100
AcDbLine
 10
9586.89748228342
 20
2137.813799624292
 30
0.0
 11
8785.833312556276
 21
2137.813799624292
 31
0.0
  0
TEXT
  5
1BFAE
330
1BD9A
100
AcDbEntity
  8
SUNPOU
100
AcDbText
 10
4490.380327231169
 20
2822.183932023015
 30
0.0
 40
90.0
  1
F.L
 41
0.6666666666666666
  7
00
 72
     4
 11
4558.951755802597
 21
2867.183932023015
 31
0.0
100
AcDbText
  0
LINE
  5
1BFAF
330
1BD9A
100
AcDbEntity
  8
SUNPOU
100
AcDbLine
 10
4558.951755802597
 20
2687.183932023016
 30
0.0
 11
4610.913280029662
 21
2777.183932023016
 31
0.0
  0
LINE
  5
1BFB0
330
1BD9A
100
AcDbEntity
  8
SUNPOU
100
AcDbLine
 10
4506.99023157553
 20
2777.183932023016
 30
0.0
 11
4558.951755802597
 21
2687.183932023016
 31
0.0
  0
LINE
  5
1BFB1
330
1BD9A
100
AcDbEntity
  8
SUNPOU
100
AcDbLine
 10
4610.913280029662
 20
2777.183932023016
 30
0.0
 11
4506.99023157553
 21
2777.183932023016
 31
0.0
  0
TEXT
  5
1BFB2
330
1BD9A
100
AcDbEntity
  8
HIKIDASHI
100
AcDbText
 10
12690.89263360978
 20
2138.424883029956
 30
0.0
 40
90.0
  1
2
 41
0.6666666666666666
  7
00
100
AcDbText
  0
TEXT
  5
1BFB3
330
1BD9A
100
AcDbEntity
  8
HIKIDASHI
100
AcDbText
 10
12769.4640621812
 20
2153.424883029956
 30
0.0
 40
90.0
  1
ｹ
  7
01
100
AcDbText
  0
TEXT
  5
1BFB4
330
1BD9A
100
AcDbEntity
  8
HIKIDASHI
100
AcDbText
 10
12850.4640621812
 20
2138.424883029956
 30
0.0
 40
90.0
  1
-
 41
0.6666666666666666
  7
00
100
AcDbText
  0
TEXT
  5
1BFB5
330
1BD9A
100
AcDbEntity
  8
HIKIDASHI
100
AcDbText
 10
12958.32120503835
 20
2138.424883029956
 30
0.0
 40
90.0
  1
18
 41
0.6666666666666666
  7
00
100
AcDbText
  0
TEXT
  5
1BFB6
330
1BD9A
100
AcDbEntity
  8
HIKIDASHI
100
AcDbText
 10
13094.03549075264
 20
2153.424883029956
 30
0.0
 40
90.0
  1
%%c
 41
0.6666666666666666
  7
00
100
AcDbText
  0
TEXT
  5
1BFB7
330
1BD9A
100
AcDbEntity
  8
HIKIDASHI
100
AcDbText
 10
13169.74977646692
 20
2138.424883029956
 30
0.0
 40
90.0
  1
孔
  7
01
100
AcDbText
  0
LINE
  5
1BFB8
330
1BD9A
100
AcDbEntity
  8
HIKIDASHI
100
AcDbLine
 10
12660.89263360979
 20
2093.424883029956
 30
0.0
 11
13283.74977646692
 21
2093.424883029956
 31
0.0
  0
TEXT
  5
1BFB9
330
1BD9A
100
AcDbEntity
  8
FILENAME
100
AcDbText
 10
13454.38095238095
 20
174.0
 30
0.0
 40
100.0
  1
＜YOKCS-245-MA-A1_3_JIS_GL.DXF ＞
  7
FILENAME
 72
     2
 11
16382.0
 21
174.0
 31
0.0
100
AcDbText
  0
LINE
  5
1BFBA
330
1BD9A
100
AcDbEntity
  8
WAKUSEN-01
100
AcDbLine
 10
434.0000000000008
 20
413.9999999999997
 30
0.0
 11
16382.0
 21
413.9999999999997
 31
0.0
  0
LINE
  5
1BFBB
330
1BD9A
100
AcDbEntity
  8
WAKUSEN-01
100
AcDbLine
 10
434.0000000000008
 20
11242.0
 30
0.0
 11
16382.0
 21
11242.0
 31
0.0
  0
LINE
  5
1BFBC
330
1BD9A
100
AcDbEntity
  8
WAKUSEN-01
100
AcDbLine
 10
434.0000000000008
 20
413.9999999999997
 30
0.0
 11
434.0000000000008
 21
11242.0
 31
0.0
  0
LINE
  5
1BFBD
330
1BD9A
100
AcDbEntity
  8
WAKUSEN-01
100
AcDbLine
 10
16382.0
 20
413.9999999999997
 30
0.0
 11
16382.0
 21
11242.0
 31
0.0
  0
LINE
  5
1BFBE
330
1BD9A
100
AcDbEntity
  8
WAKUSEN-01
100
AcDbLine
 10
10280.0
 20
1242.0
 30
0.0
 11
16382.0
 21
1242.0
 31
0.0
  0
LINE
  5
1BFBF
330
1BD9A
100
AcDbEntity
  8
WAKUSEN-02
100
AcDbLine
 10
10280.0
 20
827.9999999999997
 30
0.0
 11
13434.0
 21
827.9999999999997
 31
0.0
  0
TEXT
  5
1BFC0
330
1BD9A
100
AcDbEntity
  8
WAKUMOJI-01
100
AcDbText
 10
10335.13012998137
 20
1062.951504669661
 30
0.0
 40
120.0
  1
名　称
  7
WAKUMOJI
100
AcDbText
  0
TEXT
  5
1BFC1
330
1BD9A
100
AcDbEntity
  8
WAKUMOJI-01
100
AcDbText
 10
10328.25274254596
 20
659.5644874899107
 30
0.0
 40
120.0
  1
機種名
  7
WAKUMOJI
100
AcDbText
  0
LINE
  5
1BFC2
330
1BD9A
100
AcDbEntity
  8
WAKUSEN-01
100
AcDbLine
 10
10280.0
 20
413.9999999999985
 30
0.0
 11
10280.0
 21
1242.0
 31
0.0
  0
LINE
  5
1BFC3
330
1BD9A
100
AcDbEntity
  8
WAKUSEN-02
100
AcDbLine
 10
13434.0
 20
413.9999999999963
 30
0.0
 11
13434.0
 21
1242.0
 31
0.0
  0
LINE
  5
1BFC4
330
1BD9A
100
AcDbEntity
  8
YODOROGO
100
AcDbLine
 10
14988.80217064596
 20
997.8747482146435
 30
0.0
 11
14914.80217064596
 21
997.8747482146435
 31
0.0
1001
AUTOCAD_POSTSCRIPT_FIGURE
1002
{
1000
PSFILL
1000
Grayscale
1000
Grayscale
1070
    25
1002
}
  0
LINE
  5
1BFC5
330
1BD9A
100
AcDbEntity
  8
YODOROGO
100
AcDbLine
 10
14914.80217064596
 20
973.8747482146434
 30
0.0
 11
14988.80217064596
 21
973.8747482146434
 31
0.0
1001
AUTOCAD_POSTSCRIPT_FIGURE
1002
{
1000
PSFILL
1000
Grayscale
1000
Grayscale
1070
    25
1002
}
  0
LINE
  5
1BFC6
330
1BD9A
100
AcDbEntity
  8
YODOROGO
100
AcDbLine
 10
14988.80217064596
 20
953.874748214644
 30
0.0
 11
14914.80217064596
 21
953.874748214644
 31
0.0
1001
AUTOCAD_POSTSCRIPT_FIGURE
1002
{
1000
PSFILL
1000
Grayscale
1000
Grayscale
1070
    25
1002
}
  0
LINE
  5
1BFC7
330
1BD9A
100
AcDbEntity
  8
YODOROGO
100
AcDbLine
 10
14914.80217064596
 20
929.874748214644
 30
0.0
 11
14988.80217064596
 21
929.874748214644
 31
0.0
1001
AUTOCAD_POSTSCRIPT_FIGURE
1002
{
1000
PSFILL
1000
Grayscale
1000
Grayscale
1070
    25
1002
}
  0
LINE
  5
1BFC8
330
1BD9A
100
AcDbEntity
  8
YODOROGO
100
AcDbLine
 10
14988.80217064596
 20
909.8747482146439
 30
0.0
 11
14914.80217064596
 21
909.8747482146439
 31
0.0
1001
AUTOCAD_POSTSCRIPT_FIGURE
1002
{
1000
PSFILL
1000
Grayscale
1000
Grayscale
1070
    25
1002
}
  0
LINE
  5
1BFC9
330
1BD9A
100
AcDbEntity
  8
YODOROGO
100
AcDbLine
 10
14960.80217064594
 20
853.874748214644
 30
0.0
 11
14988.80217064596
 21
853.874748214644
 31
0.0
1001
AUTOCAD_POSTSCRIPT_FIGURE
1002
{
1000
PSFILL
1000
Grayscale
1000
Grayscale
1070
    25
1002
}
  0
LINE
  5
1BFCA
330
1BD9A
100
AcDbEntity
  8
YODOROGO
100
AcDbLine
 10
14868.80217064596
 20
713.8747482146436
 30
0.0
 11
14968.80217064596
 21
740.6696674577553
 31
0.0
  0
LINE
  5
1BFCB
330
1BD9A
100
AcDbEntity
  8
YODOROGO
100
AcDbLine
 10
14974.80217064595
 20
853.874748214644
 30
0.0
 11
14942.80217064596
 21
853.874748214644
 31
0.0
  0
ARC
  5
1BFCC
330
1BD9A
100
AcDbEntity
  8
YODOROGO
100
AcDbCircle
 10
15127.17387491394
 20
903.9323046166312
 30
0.0
 40
190.9434321028236
100
AcDbArc
 50
213.9611167766784
 51
264.4787207431779
  0
ARC
  5
1BFCD
330
1BD9A
100
AcDbEntity
  8
YODOROGO
100
AcDbCircle
 10
15127.17387491396
 20
903.9323046166513
 30
0.0
 40
190.9434321028408
100
AcDbArc
 50
208.141144204866
 51
212.9210361185994
  0
LINE
  5
1BFCE
330
1BD9A
100
AcDbEntity
  8
YODOROGO
100
AcDbLine
 10
14885.70493649264
 20
778.403830673117
 30
0.0
 11
14966.89206625426
 21
800.1578565285436
 31
0.0
  0
LINE
  5
1BFCF
330
1BD9A
100
AcDbEntity
  8
YODOROGO
100
AcDbLine
 10
14868.80217064596
 20
713.8747482146436
 30
0.0
 11
14968.80217064596
 21
740.6696674577553
 31
0.0
  0
LINE
  5
1BFD0
330
1BD9A
100
AcDbEntity
  8
YODOROGO
100
AcDbLine
 10
14974.80217064595
 20
853.874748214644
 30
0.0
 11
14942.80217064596
 21
853.874748214644
 31
0.0
  0
ARC
  5
1BFD1
330
1BD9A
100
AcDbEntity
  8
YODOROGO
100
AcDbCircle
 10
15127.17387491394
 20
903.9323046166312
 30
0.0
 40
190.9434321028236
100
AcDbArc
 50
213.9611167766784
 51
264.4787207431779
  0
LINE
  5
1BFD2
330
1BD9A
100
AcDbEntity
  8
YODOROGO
100
AcDbLine
 10
14396.80217064594
 20
909.8747482146439
 30
0.0
 11
14216.80217064594
 21
909.8747482146439
 31
0.0
  0
LINE
  5
1BFD3
330
1BD9A
100
AcDbEntity
  8
YODOROGO
100
AcDbLine
 10
14256.80217064594
 20
713.8747482146436
 30
0.0
 11
14396.80217064594
 21
713.8747482146436
 31
0.0
  0
LINE
  5
1BFD4
330
1BD9A
100
AcDbEntity
  8
YODOROGO
100
AcDbLine
 10
14364.80217064596
 20
961.8747482146432
 30
0.0
 11
14248.80217064594
 21
961.8747482146432
 31
0.0
  0
LINE
  5
1BFD5
330
1BD9A
100
AcDbEntity
  8
YODOROGO
100
AcDbLine
 10
14292.80217064596
 20
1013.874748214644
 30
0.0
 11
14328.80217064596
 21
1013.874748214644
 31
0.0
  0
LINE
  5
1BFD6
330
1BD9A
100
AcDbEntity
  8
YODOROGO
100
AcDbLine
 10
14216.80217064594
 20
853.874748214644
 30
0.0
 11
14216.80217064594
 21
753.8747482146439
 31
0.0
  0
LINE
  5
1BFD7
330
1BD9A
100
AcDbEntity
  8
YODOROGO
100
AcDbLine
 10
14248.80217064594
 20
781.8747482146434
 30
0.0
 11
14248.80217064594
 21
853.874748214644
 31
0.0
  0
LINE
  5
1BFD8
330
1BD9A
100
AcDbEntity
  8
YODOROGO
100
AcDbLine
 10
14292.80217064596
 20
873.8747482146449
 30
0.0
 11
14292.80217064596
 21
773.874748214644
 31
0.0
  0
LINE
  5
1BFD9
330
1BD9A
100
AcDbEntity
  8
YODOROGO
100
AcDbLine
 10
13928.80217064596
 20
841.8747482146445
 30
0.0
 11
13888.80217064596
 21
809.9862070222856
 31
0.0
  0
LINE
  5
1BFDA
330
1BD9A
100
AcDbEntity
  8
YODOROGO
100
AcDbLine
 10
13968.80217064596
 20
809.9862070222856
 30
0.0
 11
13928.80217064596
 21
841.8747482146445
 31
0.0
  0
LINE
  5
1BFDB
330
1BD9A
100
AcDbEntity
  8
YODOROGO
100
AcDbLine
 10
13928.80217064596
 20
853.874748214644
 30
0.0
 11
13968.80217064596
 21
821.986207022285
 31
0.0
  0
LINE
  5
1BFDC
330
1BD9A
100
AcDbEntity
  8
YODOROGO
100
AcDbLine
 10
13888.80217064596
 20
821.986207022285
 30
0.0
 11
13928.80217064596
 21
853.874748214644
 31
0.0
  0
LINE
  5
1BFDD
330
1BD9A
100
AcDbEntity
  8
YODOROGO
100
AcDbLine
 10
14020.45660200844
 20
829.874748214644
 30
0.0
 11
14020.45660200844
 21
841.8747482146434
 31
0.0
  0
LINE
  5
1BFDE
330
1BD9A
100
AcDbEntity
  8
YODOROGO
100
AcDbLine
 10
13988.80217064596
 20
841.8747482146434
 30
0.0
 11
13988.80217064596
 21
833.8747482146427
 31
0.0
  0
LINE
  5
1BFDF
330
1BD9A
100
AcDbEntity
  8
YODOROGO
100
AcDbLine
 10
14049.06776011545
 20
853.874748214644
 30
0.0
 11
14049.06776011545
 21
827.751818637328
 31
0.0
1001
AUTOCAD_POSTSCRIPT_FIGURE
1002
{
1000
PSFILL
1000
Grayscale
1000
Grayscale
1070
   100
1002
}
  0
LINE
  5
1BFE0
330
1BD9A
100
AcDbEntity
  8
YODOROGO
100
AcDbLine
 10
14041.06776011546
 20
827.751818637328
 30
0.0
 11
14041.06776011546
 21
853.874748214644
 31
0.0
1001
AUTOCAD_POSTSCRIPT_FIGURE
1002
{
1000
PSFILL
1000
Grayscale
1000
Grayscale
1070
   100
1002
}
  0
LINE
  5
1BFE1
330
1BD9A
100
AcDbEntity
  8
YODOROGO
100
AcDbLine
 10
13904.80217064596
 20
804.3859520216292
 30
0.0
 11
13904.80217064596
 21
816.3859520216298
 31
0.0
  0
LINE
  5
1BFE2
330
1BD9A
100
AcDbEntity
  8
YODOROGO
100
AcDbLine
 10
13952.80217064596
 20
804.3859520216292
 30
0.0
 11
13904.80217064596
 21
804.3859520216292
 31
0.0
  0
LINE
  5
1BFE3
330
1BD9A
100
AcDbEntity
  8
YODOROGO
100
AcDbLine
 10
13952.80217064596
 20
816.3859520216298
 30
0.0
 11
13952.80217064596
 21
804.3859520216292
 31
0.0
  0
LINE
  5
1BFE4
330
1BD9A
100
AcDbEntity
  8
YODOROGO
100
AcDbLine
 10
13904.80217064596
 20
816.3859520216298
 30
0.0
 11
13952.80217064596
 21
816.3859520216298
 31
0.0
  0
LINE
  5
1BFE5
330
1BD9A
100
AcDbEntity
  8
YODOROGO
100
AcDbLine
 10
13912.25479445787
 20
784.2514286852374
 30
0.0
 11
13892.80217064596
 21
737.8747482146435
 31
0.0
1001
AUTOCAD_POSTSCRIPT_FIGURE
1002
{
1000
PSFILL
1000
Grayscale
1000
Grayscale
1070
   100
1002
}
  0
LINE
  5
1BFE6
330
1BD9A
100
AcDbEntity
  8
YODOROGO
100
AcDbLine
 10
13888.80217064596
 20
784.2514286852374
 30
0.0
 11
13912.25479445787
 21
784.2514286852374
 31
0.0
1001
AUTOCAD_POSTSCRIPT_FIGURE
1002
{
1000
PSFILL
1000
Grayscale
1000
Grayscale
1070
   100
1002
}
  0
LINE
  5
1BFE7
330
1BD9A
100
AcDbEntity
  8
YODOROGO
100
AcDbLine
 10
13888.80217064596
 20
794.2514286852374
 30
0.0
 11
13888.80217064596
 21
784.2514286852374
 31
0.0
1001
AUTOCAD_POSTSCRIPT_FIGURE
1002
{
1000
PSFILL
1000
Grayscale
1000
Grayscale
1070
   100
1002
}
  0
LINE
  5
1BFE8
330
1BD9A
100
AcDbEntity
  8
YODOROGO
100
AcDbLine
 10
13968.80217064596
 20
794.2514286852374
 30
0.0
 11
13888.80217064596
 21
794.2514286852374
 31
0.0
1001
AUTOCAD_POSTSCRIPT_FIGURE
1002
{
1000
PSFILL
1000
Grayscale
1000
Grayscale
1070
   100
1002
}
  0
LINE
  5
1BFE9
330
1BD9A
100
AcDbEntity
  8
YODOROGO
100
AcDbLine
 10
13968.80217064596
 20
784.2514286852374
 30
0.0
 11
13968.80217064596
 21
794.2514286852374
 31
0.0
1001
AUTOCAD_POSTSCRIPT_FIGURE
1002
{
1000
PSFILL
1000
Grayscale
1000
Grayscale
1070
   100
1002
}
  0
LINE
  5
1BFEA
330
1BD9A
100
AcDbEntity
  8
YODOROGO
100
AcDbLine
 10
13922.25479445786
 20
784.2514286852374
 30
0.0
 11
13968.80217064596
 21
784.2514286852374
 31
0.0
1001
AUTOCAD_POSTSCRIPT_FIGURE
1002
{
1000
PSFILL
1000
Grayscale
1000
Grayscale
1070
   100
1002
}
  0
LINE
  5
1BFEB
330
1BD9A
100
AcDbEntity
  8
YODOROGO
100
AcDbLine
 10
13907.77335914238
 20
747.8747482146435
 30
0.0
 11
13922.25479445786
 21
784.2514286852374
 31
0.0
1001
AUTOCAD_POSTSCRIPT_FIGURE
1002
{
1000
PSFILL
1000
Grayscale
1000
Grayscale
1070
   100
1002
}
  0
LINE
  5
1BFEC
330
1BD9A
100
AcDbEntity
  8
YODOROGO
100
AcDbLine
 10
13951.02739540432
 20
747.8747482146435
 30
0.0
 11
13907.77335914238
 21
747.8747482146435
 31
0.0
1001
AUTOCAD_POSTSCRIPT_FIGURE
1002
{
1000
PSFILL
1000
Grayscale
1000
Grayscale
1070
   100
1002
}
  0
LINE
  5
1BFED
330
1BD9A
100
AcDbEntity
  8
YODOROGO
100
AcDbLine
 10
13942.53250239547
 20
768.1169053488464
 30
0.0
 11
13951.02739540432
 21
747.8747482146435
 31
0.0
1001
AUTOCAD_POSTSCRIPT_FIGURE
1002
{
1000
PSFILL
1000
Grayscale
1000
Grayscale
1070
   100
1002
}
  0
LINE
  5
1BFEE
330
1BD9A
100
AcDbEntity
  8
YODOROGO
100
AcDbLine
 10
13950.53250239547
 20
768.1169053488464
 30
0.0
 11
13942.53250239547
 21
768.1169053488464
 31
0.0
1001
AUTOCAD_POSTSCRIPT_FIGURE
1002
{
1000
PSFILL
1000
Grayscale
1000
Grayscale
1070
   100
1002
}
  0
LINE
  5
1BFEF
330
1BD9A
100
AcDbEntity
  8
YODOROGO
100
AcDbLine
 10
13964.80217064596
 20
737.8747482146435
 30
0.0
 11
13950.53250239547
 21
768.1169053488464
 31
0.0
1001
AUTOCAD_POSTSCRIPT_FIGURE
1002
{
1000
PSFILL
1000
Grayscale
1000
Grayscale
1070
   100
1002
}
  0
LINE
  5
1BFF0
330
1BD9A
100
AcDbEntity
  8
YODOROGO
100
AcDbLine
 10
13892.80217064596
 20
737.8747482146435
 30
0.0
 11
13964.80217064596
 21
737.8747482146435
 31
0.0
1001
AUTOCAD_POSTSCRIPT_FIGURE
1002
{
1000
PSFILL
1000
Grayscale
1000
Grayscale
1070
   100
1002
}
  0
LINE
  5
1BFF1
330
1BD9A
100
AcDbEntity
  8
YODOROGO
100
AcDbLine
 10
13888.80217064596
 20
809.9862070222856
 30
0.0
 11
13888.80217064596
 21
821.986207022285
 31
0.0
  0
LINE
  5
1BFF2
330
1BD9A
100
AcDbEntity
  8
YODOROGO
100
AcDbLine
 10
13968.80217064596
 20
821.986207022285
 30
0.0
 11
13968.80217064596
 21
809.9862070222856
 31
0.0
  0
ARC
  5
1BFF3
330
1BD9A
100
AcDbEntity
  8
YODOROGO
100
AcDbCircle
 10
14112.97022107348
 20
800.438882662663
 30
0.0
 40
87.99999999999995
100
AcDbArc
 50
280.3644312771313
 51
3.541483659218056
  0
ARC
  5
1BFF4
330
1BD9A
100
AcDbEntity
  8
YODOROGO
100
AcDbCircle
 10
14117.87801537965
 20
816.798903480952
 30
0.0
 40
55.99999999999914
100
AcDbArc
 50
281.2490582504155
 51
348.7509417495832
  0
LINE
  5
1BFF5
330
1BD9A
100
AcDbEntity
  8
YODOROGO
100
AcDbLine
 10
14128.80217064596
 20
761.8747482146434
 30
0.0
 11
14128.80217064596
 21
713.8747482146436
 31
0.0
  0
LINE
  5
1BFF6
330
1BD9A
100
AcDbEntity
  8
YODOROGO
100
AcDbLine
 10
14010.04445186845
 20
805.3252825309574
 30
0.0
 11
14020.45660200844
 21
829.874748214644
 31
0.0
  0
LINE
  5
1BFF7
330
1BD9A
100
AcDbEntity
  8
YODOROGO
100
AcDbLine
 10
14020.80217064596
 20
791.5602449742006
 30
0.0
 11
14010.04445186845
 21
805.3252825309574
 31
0.0
  0
LINE
  5
1BFF8
330
1BD9A
100
AcDbEntity
  8
YODOROGO
100
AcDbLine
 10
14020.80217064596
 20
781.5602449741994
 30
0.0
 11
14020.80217064596
 21
791.5602449742006
 31
0.0
  0
LINE
  5
1BFF9
330
1BD9A
100
AcDbEntity
  8
YODOROGO
100
AcDbLine
 10
14008.80217064596
 20
792.6185318747651
 30
0.0
 11
14020.80217064596
 21
781.5602449741994
 31
0.0
  0
LINE
  5
1BFFA
330
1BD9A
100
AcDbEntity
  8
YODOROGO
100
AcDbLine
 10
14008.80217064596
 20
737.8747482146435
 30
0.0
 11
14008.80217064596
 21
792.6185318747651
 31
0.0
  0
LINE
  5
1BFFB
330
1BD9A
100
AcDbEntity
  8
YODOROGO
100
AcDbLine
 10
14000.80217064596
 20
737.8747482146435
 30
0.0
 11
14008.80217064596
 21
737.8747482146435
 31
0.0
  0
LINE
  5
1BFFC
330
1BD9A
100
AcDbEntity
  8
YODOROGO
100
AcDbLine
 10
14000.80217064596
 20
790.0026748448738
 30
0.0
 11
14000.80217064596
 21
737.8747482146435
 31
0.0
  0
LINE
  5
1BFFD
330
1BD9A
100
AcDbEntity
  8
YODOROGO
100
AcDbLine
 10
13988.80217064596
 20
766.3840395167142
 30
0.0
 11
14000.80217064596
 21
790.0026748448738
 31
0.0
  0
LINE
  5
1BFFE
330
1BD9A
100
AcDbEntity
  8
YODOROGO
100
AcDbLine
 10
13988.80217064596
 20
778.3840395167149
 30
0.0
 11
13988.80217064596
 21
766.3840395167142
 31
0.0
  0
LINE
  5
1BFFF
330
1BD9A
100
AcDbEntity
  8
YODOROGO
100
AcDbLine
 10
14012.91438714567
 20
833.8747482146427
 30
0.0
 11
13988.80217064596
 21
778.3840395167149
 31
0.0
  0
LINE
  5
1C000
330
1BD9A
100
AcDbEntity
  8
YODOROGO
100
AcDbLine
 10
13988.80217064596
 20
833.8747482146427
 30
0.0
 11
14012.91438714567
 21
833.8747482146427
 31
0.0
  0
LINE
  5
1C001
330
1BD9A
100
AcDbEntity
  8
YODOROGO
100
AcDbLine
 10
14025.06776011545
 20
827.751818637328
 30
0.0
 11
14041.06776011546
 21
827.751818637328
 31
0.0
1001
AUTOCAD_POSTSCRIPT_FIGURE
1002
{
1000
PSFILL
1000
Grayscale
1000
Grayscale
1070
   100
1002
}
  0
LINE
  5
1C002
330
1BD9A
100
AcDbEntity
  8
YODOROGO
100
AcDbLine
 10
14025.06776011545
 20
815.7518186373286
 30
0.0
 11
14025.06776011545
 21
827.751818637328
 31
0.0
1001
AUTOCAD_POSTSCRIPT_FIGURE
1002
{
1000
PSFILL
1000
Grayscale
1000
Grayscale
1070
   100
1002
}
  0
LINE
  5
1C003
330
1BD9A
100
AcDbEntity
  8
YODOROGO
100
AcDbLine
 10
14041.06776011546
 20
815.7518186373286
 30
0.0
 11
14025.06776011545
 21
815.7518186373286
 31
0.0
1001
AUTOCAD_POSTSCRIPT_FIGURE
1002
{
1000
PSFILL
1000
Grayscale
1000
Grayscale
1070
   100
1002
}
  0
LINE
  5
1C004
330
1BD9A
100
AcDbEntity
  8
YODOROGO
100
AcDbLine
 10
14041.06776011546
 20
749.8747482146441
 30
0.0
 11
14041.06776011546
 21
815.7518186373286
 31
0.0
1001
AUTOCAD_POSTSCRIPT_FIGURE
1002
{
1000
PSFILL
1000
Grayscale
1000
Grayscale
1070
   100
1002
}
  0
LINE
  5
1C005
330
1BD9A
100
AcDbEntity
  8
YODOROGO
100
AcDbLine
 10
14025.06776011545
 20
749.8747482146441
 30
0.0
 11
14041.06776011546
 21
749.8747482146441
 31
0.0
1001
AUTOCAD_POSTSCRIPT_FIGURE
1002
{
1000
PSFILL
1000
Grayscale
1000
Grayscale
1070
   100
1002
}
  0
LINE
  5
1C006
330
1BD9A
100
AcDbEntity
  8
YODOROGO
100
AcDbLine
 10
14025.06776011545
 20
737.8747482146435
 30
0.0
 11
14025.06776011545
 21
749.8747482146441
 31
0.0
1001
AUTOCAD_POSTSCRIPT_FIGURE
1002
{
1000
PSFILL
1000
Grayscale
1000
Grayscale
1070
   100
1002
}
  0
LINE
  5
1C007
330
1BD9A
100
AcDbEntity
  8
YODOROGO
100
AcDbLine
 10
14068.80217064596
 20
737.8747482146435
 30
0.0
 11
14025.06776011545
 21
737.8747482146435
 31
0.0
1001
AUTOCAD_POSTSCRIPT_FIGURE
1002
{
1000
PSFILL
1000
Grayscale
1000
Grayscale
1070
   100
1002
}
  0
LINE
  5
1C008
330
1BD9A
100
AcDbEntity
  8
YODOROGO
100
AcDbLine
 10
14068.80217064596
 20
749.8747482146441
 30
0.0
 11
14068.80217064596
 21
737.8747482146435
 31
0.0
1001
AUTOCAD_POSTSCRIPT_FIGURE
1002
{
1000
PSFILL
1000
Grayscale
1000
Grayscale
1070
   100
1002
}
  0
LINE
  5
1C009
330
1BD9A
100
AcDbEntity
  8
YODOROGO
100
AcDbLine
 10
14049.06776011545
 20
749.8747482146441
 30
0.0
 11
14068.80217064596
 21
749.8747482146441
 31
0.0
1001
AUTOCAD_POSTSCRIPT_FIGURE
1002
{
1000
PSFILL
1000
Grayscale
1000
Grayscale
1070
   100
1002
}
  0
LINE
  5
1C00A
330
1BD9A
100
AcDbEntity
  8
YODOROGO
100
AcDbLine
 10
14049.06776011545
 20
815.7518186373286
 30
0.0
 11
14049.06776011545
 21
749.8747482146441
 31
0.0
1001
AUTOCAD_POSTSCRIPT_FIGURE
1002
{
1000
PSFILL
1000
Grayscale
1000
Grayscale
1070
   100
1002
}
  0
LINE
  5
1C00B
330
1BD9A
100
AcDbEntity
  8
YODOROGO
100
AcDbLine
 10
14068.80217064596
 20
815.7518186373286
 30
0.0
 11
14049.06776011545
 21
815.7518186373286
 31
0.0
1001
AUTOCAD_POSTSCRIPT_FIGURE
1002
{
1000
PSFILL
1000
Grayscale
1000
Grayscale
1070
   100
1002
}
  0
LINE
  5
1C00C
330
1BD9A
100
AcDbEntity
  8
YODOROGO
100
AcDbLine
 10
14068.80217064596
 20
827.751818637328
 30
0.0
 11
14068.80217064596
 21
815.7518186373286
 31
0.0
1001
AUTOCAD_POSTSCRIPT_FIGURE
1002
{
1000
PSFILL
1000
Grayscale
1000
Grayscale
1070
   100
1002
}
  0
LINE
  5
1C00D
330
1BD9A
100
AcDbEntity
  8
YODOROGO
100
AcDbLine
 10
14049.06776011545
 20
827.751818637328
 30
0.0
 11
14068.80217064596
 21
827.751818637328
 31
0.0
1001
AUTOCAD_POSTSCRIPT_FIGURE
1002
{
1000
PSFILL
1000
Grayscale
1000
Grayscale
1070
   100
1002
}
  0
LINE
  5
1C00E
330
1BD9A
100
AcDbEntity
  8
YODOROGO
100
AcDbLine
 10
14200.80217064594
 20
833.8747482146439
 30
0.0
 11
14172.80217064596
 21
833.8747482146439
 31
0.0
  0
LINE
  5
1C00F
330
1BD9A
100
AcDbEntity
  8
YODOROGO
100
AcDbLine
 10
14200.80217064594
 20
805.8747482146443
 30
0.0
 11
14200.80217064594
 21
833.8747482146439
 31
0.0
  0
LINE
  5
1C010
330
1BD9A
100
AcDbEntity
  8
YODOROGO
100
AcDbLine
 10
14172.80217064596
 20
833.8747482146439
 30
0.0
 11
14172.80217064596
 21
805.8747482146443
 31
0.0
  0
ARC
  5
1C011
330
1BD9A
100
AcDbEntity
  8
YODOROGO
100
AcDbCircle
 10
14256.80217064594
 20
753.8747482146439
 30
0.0
 40
40.0
100
AcDbArc
 50
180.0
 51
270.0
  0
ARC
  5
1C012
330
1BD9A
100
AcDbEntity
  8
YODOROGO
100
AcDbCircle
 10
14268.80217064594
 20
781.8747482146434
 30
0.0
 40
20.0
100
AcDbArc
 50
180.0
 51
270.0
  0
LINE
  5
1C013
330
1BD9A
100
AcDbEntity
  8
YODOROGO
100
AcDbLine
 10
14280.80217064596
 20
761.8747482146434
 30
0.0
 11
14268.80217064594
 21
761.8747482146434
 31
0.0
  0
ARC
  5
1C014
330
1BD9A
100
AcDbEntity
  8
YODOROGO
100
AcDbCircle
 10
14280.80217064596
 20
773.8747482146427
 30
0.0
 40
11.99999999999818
100
AcDbArc
 50
270.0
 51
0.0000000000054281
  0
LINE
  5
1C015
330
1BD9A
100
AcDbEntity
  8
YODOROGO
100
AcDbLine
 10
13900.80217064596
 20
945.3932903968532
 30
0.0
 11
13888.80217064596
 21
921.8883739758362
 31
0.0
1001
AUTOCAD_POSTSCRIPT_FIGURE
1002
{
1000
PSFILL
1000
Grayscale
1000
Grayscale
1070
   100
1002
}
  0
LINE
  5
1C016
330
1BD9A
100
AcDbEntity
  8
YODOROGO
100
AcDbLine
 10
13900.80217064596
 20
873.8747482146434
 30
0.0
 11
13900.80217064596
 21
945.3932903968532
 31
0.0
1001
AUTOCAD_POSTSCRIPT_FIGURE
1002
{
1000
PSFILL
1000
Grayscale
1000
Grayscale
1070
   100
1002
}
  0
LINE
  5
1C017
330
1BD9A
100
AcDbEntity
  8
YODOROGO
100
AcDbLine
 10
13908.80217064596
 20
873.8747482146434
 30
0.0
 11
13900.80217064596
 21
873.8747482146434
 31
0.0
1001
AUTOCAD_POSTSCRIPT_FIGURE
1002
{
1000
PSFILL
1000
Grayscale
1000
Grayscale
1070
   100
1002
}
  0
LINE
  5
1C018
330
1BD9A
100
AcDbEntity
  8
YODOROGO
100
AcDbLine
 10
13908.80217064596
 20
946.8856660426332
 30
0.0
 11
13908.80217064596
 21
873.8747482146434
 31
0.0
1001
AUTOCAD_POSTSCRIPT_FIGURE
1002
{
1000
PSFILL
1000
Grayscale
1000
Grayscale
1070
   100
1002
}
  0
LINE
  5
1C019
330
1BD9A
100
AcDbEntity
  8
YODOROGO
100
AcDbLine
 10
13920.80217064596
 20
933.8273791420684
 30
0.0
 11
13908.80217064596
 21
946.8856660426332
 31
0.0
1001
AUTOCAD_POSTSCRIPT_FIGURE
1002
{
1000
PSFILL
1000
Grayscale
1000
Grayscale
1070
   100
1002
}
  0
LINE
  5
1C01A
330
1BD9A
100
AcDbEntity
  8
YODOROGO
100
AcDbLine
 10
13920.80217064596
 20
941.8273791420681
 30
0.0
 11
13920.80217064596
 21
933.8273791420684
 31
0.0
1001
AUTOCAD_POSTSCRIPT_FIGURE
1002
{
1000
PSFILL
1000
Grayscale
1000
Grayscale
1070
   100
1002
}
  0
LINE
  5
1C01B
330
1BD9A
100
AcDbEntity
  8
YODOROGO
100
AcDbLine
 10
13908.80217064596
 20
958.8856660426325
 30
0.0
 11
13920.80217064596
 21
941.8273791420681
 31
0.0
1001
AUTOCAD_POSTSCRIPT_FIGURE
1002
{
1000
PSFILL
1000
Grayscale
1000
Grayscale
1070
   100
1002
}
  0
LINE
  5
1C01C
330
1BD9A
100
AcDbEntity
  8
YODOROGO
100
AcDbLine
 10
13908.80217064596
 20
969.8747482146441
 30
0.0
 11
13908.80217064596
 21
958.8856660426325
 31
0.0
1001
AUTOCAD_POSTSCRIPT_FIGURE
1002
{
1000
PSFILL
1000
Grayscale
1000
Grayscale
1070
   100
1002
}
  0
LINE
  5
1C01D
330
1BD9A
100
AcDbEntity
  8
YODOROGO
100
AcDbLine
 10
13944.80217064596
 20
969.8747482146441
 30
0.0
 11
13908.80217064596
 21
969.8747482146441
 31
0.0
1001
AUTOCAD_POSTSCRIPT_FIGURE
1002
{
1000
PSFILL
1000
Grayscale
1000
Grayscale
1070
   100
1002
}
  0
LINE
  5
1C01E
330
1BD9A
100
AcDbEntity
  8
YODOROGO
100
AcDbLine
 10
13944.80217064596
 20
950.2841744681497
 30
0.0
 11
13944.80217064596
 21
969.8747482146441
 31
0.0
1001
AUTOCAD_POSTSCRIPT_FIGURE
1002
{
1000
PSFILL
1000
Grayscale
1000
Grayscale
1070
   100
1002
}
  0
LINE
  5
1C01F
330
1BD9A
100
AcDbEntity
  8
YODOROGO
100
AcDbLine
 10
13928.80217064596
 20
950.2841744681497
 30
0.0
 11
13944.80217064596
 21
950.2841744681497
 31
0.0
1001
AUTOCAD_POSTSCRIPT_FIGURE
1002
{
1000
PSFILL
1000
Grayscale
1000
Grayscale
1070
   100
1002
}
  0
LINE
  5
1C020
330
1BD9A
100
AcDbEntity
  8
YODOROGO
100
AcDbLine
 10
13928.80217064596
 20
942.2841744681491
 30
0.0
 11
13928.80217064596
 21
950.2841744681497
 31
0.0
1001
AUTOCAD_POSTSCRIPT_FIGURE
1002
{
1000
PSFILL
1000
Grayscale
1000
Grayscale
1070
   100
1002
}
  0
LINE
  5
1C021
330
1BD9A
100
AcDbEntity
  8
YODOROGO
100
AcDbLine
 10
13944.80217064596
 20
942.2841744681491
 30
0.0
 11
13928.80217064596
 21
942.2841744681491
 31
0.0
1001
AUTOCAD_POSTSCRIPT_FIGURE
1002
{
1000
PSFILL
1000
Grayscale
1000
Grayscale
1070
   100
1002
}
  0
LINE
  5
1C022
330
1BD9A
100
AcDbEntity
  8
YODOROGO
100
AcDbLine
 10
13944.80217064596
 20
939.8095889822196
 30
0.0
 11
13944.80217064596
 21
942.2841744681491
 31
0.0
1001
AUTOCAD_POSTSCRIPT_FIGURE
1002
{
1000
PSFILL
1000
Grayscale
1000
Grayscale
1070
   100
1002
}
  0
LINE
  5
1C023
330
1BD9A
100
AcDbEntity
  8
YODOROGO
100
AcDbLine
 10
13924.80217064596
 20
906.4874905807087
 30
0.0
 11
13944.80217064596
 21
939.8095889822196
 31
0.0
1001
AUTOCAD_POSTSCRIPT_FIGURE
1002
{
1000
PSFILL
1000
Grayscale
1000
Grayscale
1070
   100
1002
}
  0
LINE
  5
1C024
330
1BD9A
100
AcDbEntity
  8
YODOROGO
100
AcDbLine
 10
13924.80217064596
 20
898.487490580708
 30
0.0
 11
13924.80217064596
 21
906.4874905807087
 31
0.0
1001
AUTOCAD_POSTSCRIPT_FIGURE
1002
{
1000
PSFILL
1000
Grayscale
1000
Grayscale
1070
   100
1002
}
  0
LINE
  5
1C025
330
1BD9A
100
AcDbEntity
  8
YODOROGO
100
AcDbLine
 10
13944.80217064596
 20
923.8095889822183
 30
0.0
 11
13924.80217064596
 21
898.487490580708
 31
0.0
1001
AUTOCAD_POSTSCRIPT_FIGURE
1002
{
1000
PSFILL
1000
Grayscale
1000
Grayscale
1070
   100
1002
}
  0
LINE
  5
1C026
330
1BD9A
100
AcDbEntity
  8
YODOROGO
100
AcDbLine
 10
13944.80217064596
 20
873.8747482146434
 30
0.0
 11
13944.80217064596
 21
923.8095889822183
 31
0.0
1001
AUTOCAD_POSTSCRIPT_FIGURE
1002
{
1000
PSFILL
1000
Grayscale
1000
Grayscale
1070
   100
1002
}
  0
LINE
  5
1C027
330
1BD9A
100
AcDbEntity
  8
YODOROGO
100
AcDbLine
 10
13952.80217064596
 20
873.8747482146434
 30
0.0
 11
13944.80217064596
 21
873.8747482146434
 31
0.0
1001
AUTOCAD_POSTSCRIPT_FIGURE
1002
{
1000
PSFILL
1000
Grayscale
1000
Grayscale
1070
   100
1002
}
  0
LINE
  5
1C028
330
1BD9A
100
AcDbEntity
  8
YODOROGO
100
AcDbLine
 10
13952.80217064596
 20
924.7045060794032
 30
0.0
 11
13952.80217064596
 21
873.8747482146434
 31
0.0
1001
AUTOCAD_POSTSCRIPT_FIGURE
1002
{
1000
PSFILL
1000
Grayscale
1000
Grayscale
1070
   100
1002
}
  0
LINE
  5
1C029
330
1BD9A
100
AcDbEntity
  8
YODOROGO
100
AcDbLine
 10
13968.80217064596
 20
898.487490580708
 30
0.0
 11
13952.80217064596
 21
924.7045060794032
 31
0.0
1001
AUTOCAD_POSTSCRIPT_FIGURE
1002
{
1000
PSFILL
1000
Grayscale
1000
Grayscale
1070
   100
1002
}
  0
LINE
  5
1C02A
330
1BD9A
100
AcDbEntity
  8
YODOROGO
100
AcDbLine
 10
13968.80217064596
 20
906.4874905807087
 30
0.0
 11
13968.80217064596
 21
898.487490580708
 31
0.0
1001
AUTOCAD_POSTSCRIPT_FIGURE
1002
{
1000
PSFILL
1000
Grayscale
1000
Grayscale
1070
   100
1002
}
  0
LINE
  5
1C02B
330
1BD9A
100
AcDbEntity
  8
YODOROGO
100
AcDbLine
 10
13952.80217064596
 20
940.7045060794041
 30
0.0
 11
13968.80217064596
 21
906.4874905807087
 31
0.0
1001
AUTOCAD_POSTSCRIPT_FIGURE
1002
{
1000
PSFILL
1000
Grayscale
1000
Grayscale
1070
   100
1002
}
  0
LINE
  5
1C02C
330
1BD9A
100
AcDbEntity
  8
YODOROGO
100
AcDbLine
 10
13952.80217064596
 20
942.2841744681502
 30
0.0
 11
13952.80217064596
 21
940.7045060794041
 31
0.0
1001
AUTOCAD_POSTSCRIPT_FIGURE
1002
{
1000
PSFILL
1000
Grayscale
1000
Grayscale
1070
   100
1002
}
  0
LINE
  5
1C02D
330
1BD9A
100
AcDbEntity
  8
YODOROGO
100
AcDbLine
 10
13968.80217064596
 20
942.2841744681491
 30
0.0
 11
13952.80217064596
 21
942.2841744681502
 31
0.0
1001
AUTOCAD_POSTSCRIPT_FIGURE
1002
{
1000
PSFILL
1000
Grayscale
1000
Grayscale
1070
   100
1002
}
  0
LINE
  5
1C02E
330
1BD9A
100
AcDbEntity
  8
YODOROGO
100
AcDbLine
 10
13968.80217064596
 20
950.2841744681497
 30
0.0
 11
13968.80217064596
 21
942.2841744681491
 31
0.0
1001
AUTOCAD_POSTSCRIPT_FIGURE
1002
{
1000
PSFILL
1000
Grayscale
1000
Grayscale
1070
   100
1002
}
  0
LINE
  5
1C02F
330
1BD9A
100
AcDbEntity
  8
YODOROGO
100
AcDbLine
 10
13952.80217064596
 20
950.2841744681497
 30
0.0
 11
13968.80217064596
 21
950.2841744681497
 31
0.0
1001
AUTOCAD_POSTSCRIPT_FIGURE
1002
{
1000
PSFILL
1000
Grayscale
1000
Grayscale
1070
   100
1002
}
  0
LINE
  5
1C030
330
1BD9A
100
AcDbEntity
  8
YODOROGO
100
AcDbLine
 10
13952.80217064596
 20
969.8747482146441
 30
0.0
 11
13952.80217064596
 21
950.2841744681497
 31
0.0
1001
AUTOCAD_POSTSCRIPT_FIGURE
1002
{
1000
PSFILL
1000
Grayscale
1000
Grayscale
1070
   100
1002
}
  0
LINE
  5
1C031
330
1BD9A
100
AcDbEntity
  8
YODOROGO
100
AcDbLine
 10
13968.80217064596
 20
969.8747482146441
 30
0.0
 11
13952.80217064596
 21
969.8747482146441
 31
0.0
1001
AUTOCAD_POSTSCRIPT_FIGURE
1002
{
1000
PSFILL
1000
Grayscale
1000
Grayscale
1070
   100
1002
}
  0
LINE
  5
1C032
330
1BD9A
100
AcDbEntity
  8
YODOROGO
100
AcDbLine
 10
13968.80217064596
 20
977.8747482146435
 30
0.0
 11
13968.80217064596
 21
969.8747482146441
 31
0.0
1001
AUTOCAD_POSTSCRIPT_FIGURE
1002
{
1000
PSFILL
1000
Grayscale
1000
Grayscale
1070
   100
1002
}
  0
LINE
  5
1C033
330
1BD9A
100
AcDbEntity
  8
YODOROGO
100
AcDbLine
 10
13952.80217064596
 20
977.8747482146435
 30
0.0
 11
13968.80217064596
 21
977.8747482146435
 31
0.0
1001
AUTOCAD_POSTSCRIPT_FIGURE
1002
{
1000
PSFILL
1000
Grayscale
1000
Grayscale
1070
   100
1002
}
  0
LINE
  5
1C034
330
1BD9A
100
AcDbEntity
  8
YODOROGO
100
AcDbLine
 10
13952.80217064596
 20
989.8747482146442
 30
0.0
 11
13952.80217064596
 21
977.8747482146435
 31
0.0
1001
AUTOCAD_POSTSCRIPT_FIGURE
1002
{
1000
PSFILL
1000
Grayscale
1000
Grayscale
1070
   100
1002
}
  0
LINE
  5
1C035
330
1BD9A
100
AcDbEntity
  8
YODOROGO
100
AcDbLine
 10
13944.80217064596
 20
989.8747482146442
 30
0.0
 11
13952.80217064596
 21
989.8747482146442
 31
0.0
1001
AUTOCAD_POSTSCRIPT_FIGURE
1002
{
1000
PSFILL
1000
Grayscale
1000
Grayscale
1070
   100
1002
}
  0
LINE
  5
1C036
330
1BD9A
100
AcDbEntity
  8
YODOROGO
100
AcDbLine
 10
13944.80217064596
 20
977.8747482146435
 30
0.0
 11
13944.80217064596
 21
989.8747482146442
 31
0.0
1001
AUTOCAD_POSTSCRIPT_FIGURE
1002
{
1000
PSFILL
1000
Grayscale
1000
Grayscale
1070
   100
1002
}
  0
LINE
  5
1C037
330
1BD9A
100
AcDbEntity
  8
YODOROGO
100
AcDbLine
 10
13932.80217064596
 20
977.8747482146435
 30
0.0
 11
13944.80217064596
 21
977.8747482146435
 31
0.0
1001
AUTOCAD_POSTSCRIPT_FIGURE
1002
{
1000
PSFILL
1000
Grayscale
1000
Grayscale
1070
   100
1002
}
  0
LINE
  5
1C038
330
1BD9A
100
AcDbEntity
  8
YODOROGO
100
AcDbLine
 10
13932.80217064596
 20
989.8747482146442
 30
0.0
 11
13932.80217064596
 21
977.8747482146435
 31
0.0
1001
AUTOCAD_POSTSCRIPT_FIGURE
1002
{
1000
PSFILL
1000
Grayscale
1000
Grayscale
1070
   100
1002
}
  0
LINE
  5
1C039
330
1BD9A
100
AcDbEntity
  8
YODOROGO
100
AcDbLine
 10
13924.80217064596
 20
989.8747482146442
 30
0.0
 11
13932.80217064596
 21
989.8747482146442
 31
0.0
1001
AUTOCAD_POSTSCRIPT_FIGURE
1002
{
1000
PSFILL
1000
Grayscale
1000
Grayscale
1070
   100
1002
}
  0
LINE
  5
1C03A
330
1BD9A
100
AcDbEntity
  8
YODOROGO
100
AcDbLine
 10
13924.80217064596
 20
977.8747482146435
 30
0.0
 11
13924.80217064596
 21
989.8747482146442
 31
0.0
1001
AUTOCAD_POSTSCRIPT_FIGURE
1002
{
1000
PSFILL
1000
Grayscale
1000
Grayscale
1070
   100
1002
}
  0
LINE
  5
1C03B
330
1BD9A
100
AcDbEntity
  8
YODOROGO
100
AcDbLine
 10
13908.80217064596
 20
977.8747482146435
 30
0.0
 11
13924.80217064596
 21
977.8747482146435
 31
0.0
1001
AUTOCAD_POSTSCRIPT_FIGURE
1002
{
1000
PSFILL
1000
Grayscale
1000
Grayscale
1070
   100
1002
}
  0
LINE
  5
1C03C
330
1BD9A
100
AcDbEntity
  8
YODOROGO
100
AcDbLine
 10
13908.80217064596
 20
989.8747482146442
 30
0.0
 11
13908.80217064596
 21
977.8747482146435
 31
0.0
1001
AUTOCAD_POSTSCRIPT_FIGURE
1002
{
1000
PSFILL
1000
Grayscale
1000
Grayscale
1070
   100
1002
}
  0
LINE
  5
1C03D
330
1BD9A
100
AcDbEntity
  8
YODOROGO
100
AcDbLine
 10
13900.80217064596
 20
989.8747482146442
 30
0.0
 11
13908.80217064596
 21
989.8747482146442
 31
0.0
1001
AUTOCAD_POSTSCRIPT_FIGURE
1002
{
1000
PSFILL
1000
Grayscale
1000
Grayscale
1070
   100
1002
}
  0
LINE
  5
1C03E
330
1BD9A
100
AcDbEntity
  8
YODOROGO
100
AcDbLine
 10
13900.80217064596
 20
977.8747482146435
 30
0.0
 11
13900.80217064596
 21
989.8747482146442
 31
0.0
1001
AUTOCAD_POSTSCRIPT_FIGURE
1002
{
1000
PSFILL
1000
Grayscale
1000
Grayscale
1070
   100
1002
}
  0
LINE
  5
1C03F
330
1BD9A
100
AcDbEntity
  8
YODOROGO
100
AcDbLine
 10
13888.80217064596
 20
977.8747482146435
 30
0.0
 11
13900.80217064596
 21
977.8747482146435
 31
0.0
1001
AUTOCAD_POSTSCRIPT_FIGURE
1002
{
1000
PSFILL
1000
Grayscale
1000
Grayscale
1070
   100
1002
}
  0
LINE
  5
1C040
330
1BD9A
100
AcDbEntity
  8
YODOROGO
100
AcDbLine
 10
13888.80217064596
 20
969.8747482146441
 30
0.0
 11
13888.80217064596
 21
977.8747482146435
 31
0.0
1001
AUTOCAD_POSTSCRIPT_FIGURE
1002
{
1000
PSFILL
1000
Grayscale
1000
Grayscale
1070
   100
1002
}
  0
LINE
  5
1C041
330
1BD9A
100
AcDbEntity
  8
YODOROGO
100
AcDbLine
 10
13900.80217064596
 20
969.8747482146441
 30
0.0
 11
13888.80217064596
 21
969.8747482146441
 31
0.0
1001
AUTOCAD_POSTSCRIPT_FIGURE
1002
{
1000
PSFILL
1000
Grayscale
1000
Grayscale
1070
   100
1002
}
  0
LINE
  5
1C042
330
1BD9A
100
AcDbEntity
  8
YODOROGO
100
AcDbLine
 10
13900.80217064596
 20
957.3932903968525
 30
0.0
 11
13900.80217064596
 21
969.8747482146441
 31
0.0
1001
AUTOCAD_POSTSCRIPT_FIGURE
1002
{
1000
PSFILL
1000
Grayscale
1000
Grayscale
1070
   100
1002
}
  0
LINE
  5
1C043
330
1BD9A
100
AcDbEntity
  8
YODOROGO
100
AcDbLine
 10
13888.80217064596
 20
929.8883739758355
 30
0.0
 11
13900.80217064596
 21
957.3932903968525
 31
0.0
1001
AUTOCAD_POSTSCRIPT_FIGURE
1002
{
1000
PSFILL
1000
Grayscale
1000
Grayscale
1070
   100
1002
}
  0
LINE
  5
1C044
330
1BD9A
100
AcDbEntity
  8
YODOROGO
100
AcDbLine
 10
13888.80217064596
 20
921.8883739758362
 30
0.0
 11
13888.80217064596
 21
929.8883739758355
 31
0.0
1001
AUTOCAD_POSTSCRIPT_FIGURE
1002
{
1000
PSFILL
1000
Grayscale
1000
Grayscale
1070
   100
1002
}
  0
LINE
  5
1C045
330
1BD9A
100
AcDbEntity
  8
YODOROGO
100
AcDbLine
 10
14128.80217064596
 20
933.8747482146439
 30
0.0
 11
14200.80217064594
 21
912.4388128201532
 31
0.0
1001
AUTOCAD_POSTSCRIPT_FIGURE
1002
{
1000
PSFILL
1000
Grayscale
1000
Grayscale
1070
   100
1002
}
  0
LINE
  5
1C046
330
1BD9A
100
AcDbEntity
  8
YODOROGO
100
AcDbLine
 10
14200.80217064594
 20
876.4388128201531
 30
0.0
 11
14128.80217064596
 21
897.8747482146435
 31
0.0
1001
AUTOCAD_POSTSCRIPT_FIGURE
1002
{
1000
PSFILL
1000
Grayscale
1000
Grayscale
1070
   100
1002
}
  0
LINE
  5
1C047
330
1BD9A
100
AcDbEntity
  8
YODOROGO
100
AcDbLine
 10
14200.80217064594
 20
992.4388128201531
 30
0.0
 11
14128.80217064596
 21
1013.874748214644
 31
0.0
1001
AUTOCAD_POSTSCRIPT_FIGURE
1002
{
1000
PSFILL
1000
Grayscale
1000
Grayscale
1070
   100
1002
}
  0
LINE
  5
1C048
330
1BD9A
100
AcDbEntity
  8
YODOROGO
100
AcDbLine
 10
14128.80217064596
 20
979.874748214644
 30
0.0
 11
14200.80217064594
 21
958.4388128201537
 31
0.0
1001
AUTOCAD_POSTSCRIPT_FIGURE
1002
{
1000
PSFILL
1000
Grayscale
1000
Grayscale
1070
   100
1002
}
  0
LINE
  5
1C049
330
1BD9A
100
AcDbEntity
  8
YODOROGO
100
AcDbLine
 10
14128.80217064596
 20
897.8747482146435
 30
0.0
 11
14128.80217064596
 21
933.8747482146439
 31
0.0
1001
AUTOCAD_POSTSCRIPT_FIGURE
1002
{
1000
PSFILL
1000
Grayscale
1000
Grayscale
1070
   100
1002
}
  0
LINE
  5
1C04A
330
1BD9A
100
AcDbEntity
  8
YODOROGO
100
AcDbLine
 10
14128.80217064596
 20
1013.874748214644
 30
0.0
 11
14128.80217064596
 21
979.874748214644
 31
0.0
1001
AUTOCAD_POSTSCRIPT_FIGURE
1002
{
1000
PSFILL
1000
Grayscale
1000
Grayscale
1070
   100
1002
}
  0
LINE
  5
1C04B
330
1BD9A
100
AcDbEntity
  8
YODOROGO
100
AcDbLine
 10
14040.11816010337
 20
969.8747482146441
 30
0.0
 11
14064.80217064595
 21
873.8747482146434
 31
0.0
1001
AUTOCAD_POSTSCRIPT_FIGURE
1002
{
1000
PSFILL
1000
Grayscale
1000
Grayscale
1070
   100
1002
}
  0
LINE
  5
1C04C
330
1BD9A
100
AcDbEntity
  8
YODOROGO
100
AcDbLine
 10
13988.80217064596
 20
969.8747482146441
 30
0.0
 11
14040.11816010337
 21
969.8747482146441
 31
0.0
1001
AUTOCAD_POSTSCRIPT_FIGURE
1002
{
1000
PSFILL
1000
Grayscale
1000
Grayscale
1070
   100
1002
}
  0
LINE
  5
1C04D
330
1BD9A
100
AcDbEntity
  8
YODOROGO
100
AcDbLine
 10
13988.80217064596
 20
977.8747482146435
 30
0.0
 11
13988.80217064596
 21
969.8747482146441
 31
0.0
1001
AUTOCAD_POSTSCRIPT_FIGURE
1002
{
1000
PSFILL
1000
Grayscale
1000
Grayscale
1070
   100
1002
}
  0
LINE
  5
1C04E
330
1BD9A
100
AcDbEntity
  8
YODOROGO
100
AcDbLine
 10
14038.30343925995
 20
977.8747482146435
 30
0.0
 11
13988.80217064596
 21
977.8747482146435
 31
0.0
1001
AUTOCAD_POSTSCRIPT_FIGURE
1002
{
1000
PSFILL
1000
Grayscale
1000
Grayscale
1070
   100
1002
}
  0
LINE
  5
1C04F
330
1BD9A
100
AcDbEntity
  8
YODOROGO
100
AcDbLine
 10
14035.58135799485
 20
989.8747482146442
 30
0.0
 11
14038.30343925995
 21
977.8747482146435
 31
0.0
1001
AUTOCAD_POSTSCRIPT_FIGURE
1002
{
1000
PSFILL
1000
Grayscale
1000
Grayscale
1070
   100
1002
}
  0
LINE
  5
1C050
330
1BD9A
100
AcDbEntity
  8
YODOROGO
100
AcDbLine
 10
14045.58135799485
 20
989.8747482146442
 30
0.0
 11
14035.58135799485
 21
989.8747482146442
 31
0.0
1001
AUTOCAD_POSTSCRIPT_FIGURE
1002
{
1000
PSFILL
1000
Grayscale
1000
Grayscale
1070
   100
1002
}
  0
LINE
  5
1C051
330
1BD9A
100
AcDbEntity
  8
YODOROGO
100
AcDbLine
 10
14047.90343925997
 20
977.8747482146435
 30
0.0
 11
14045.58135799485
 21
989.8747482146442
 31
0.0
1001
AUTOCAD_POSTSCRIPT_FIGURE
1002
{
1000
PSFILL
1000
Grayscale
1000
Grayscale
1070
   100
1002
}
  0
LINE
  5
1C052
330
1BD9A
100
AcDbEntity
  8
YODOROGO
100
AcDbLine
 10
14060.80217064596
 20
977.8747482146435
 30
0.0
 11
14047.90343925997
 21
977.8747482146435
 31
0.0
1001
AUTOCAD_POSTSCRIPT_FIGURE
1002
{
1000
PSFILL
1000
Grayscale
1000
Grayscale
1070
   100
1002
}
  0
LINE
  5
1C053
330
1BD9A
100
AcDbEntity
  8
YODOROGO
100
AcDbLine
 10
14060.80217064596
 20
989.8747482146442
 30
0.0
 11
14060.80217064596
 21
977.8747482146435
 31
0.0
1001
AUTOCAD_POSTSCRIPT_FIGURE
1002
{
1000
PSFILL
1000
Grayscale
1000
Grayscale
1070
   100
1002
}
  0
LINE
  5
1C054
330
1BD9A
100
AcDbEntity
  8
YODOROGO
100
AcDbLine
 10
14068.80217064596
 20
989.8747482146442
 30
0.0
 11
14060.80217064596
 21
989.8747482146442
 31
0.0
1001
AUTOCAD_POSTSCRIPT_FIGURE
1002
{
1000
PSFILL
1000
Grayscale
1000
Grayscale
1070
   100
1002
}
  0
LINE
  5
1C055
330
1BD9A
100
AcDbEntity
  8
YODOROGO
100
AcDbLine
 10
14068.80217064596
 20
977.8747482146435
 30
0.0
 11
14068.80217064596
 21
989.8747482146442
 31
0.0
1001
AUTOCAD_POSTSCRIPT_FIGURE
1002
{
1000
PSFILL
1000
Grayscale
1000
Grayscale
1070
   100
1002
}
  0
LINE
  5
1C056
330
1BD9A
100
AcDbEntity
  8
YODOROGO
100
AcDbLine
 10
14068.80217064596
 20
969.8747482146441
 30
0.0
 11
14068.80217064596
 21
977.8747482146435
 31
0.0
1001
AUTOCAD_POSTSCRIPT_FIGURE
1002
{
1000
PSFILL
1000
Grayscale
1000
Grayscale
1070
   100
1002
}
  0
LINE
  5
1C057
330
1BD9A
100
AcDbEntity
  8
YODOROGO
100
AcDbLine
 10
14049.45149343671
 20
969.8747482146441
 30
0.0
 11
14068.80217064596
 21
969.8747482146441
 31
0.0
1001
AUTOCAD_POSTSCRIPT_FIGURE
1002
{
1000
PSFILL
1000
Grayscale
1000
Grayscale
1070
   100
1002
}
  0
LINE
  5
1C058
330
1BD9A
100
AcDbEntity
  8
YODOROGO
100
AcDbLine
 10
14068.80217064596
 20
873.8747482146434
 30
0.0
 11
14049.45149343671
 21
969.8747482146441
 31
0.0
1001
AUTOCAD_POSTSCRIPT_FIGURE
1002
{
1000
PSFILL
1000
Grayscale
1000
Grayscale
1070
   100
1002
}
  0
LINE
  5
1C059
330
1BD9A
100
AcDbEntity
  8
YODOROGO
100
AcDbLine
 10
14064.80217064595
 20
873.8747482146434
 30
0.0
 11
14068.80217064596
 21
873.8747482146434
 31
0.0
1001
AUTOCAD_POSTSCRIPT_FIGURE
1002
{
1000
PSFILL
1000
Grayscale
1000
Grayscale
1070
   100
1002
}
  0
LINE
  5
1C05A
330
1BD9A
100
AcDbEntity
  8
YODOROGO
100
AcDbLine
 10
14039.03460996689
 20
887.8703881493972
 30
0.0
 11
13988.80217064596
 21
873.8747482146434
 31
0.0
  0
LINE
  5
1C05B
330
1BD9A
100
AcDbEntity
  8
YODOROGO
100
AcDbLine
 10
14039.03460996689
 20
899.3344897645364
 30
0.0
 11
14039.03460996689
 21
887.8703881493972
 31
0.0
  0
LINE
  5
1C05C
330
1BD9A
100
AcDbEntity
  8
YODOROGO
100
AcDbLine
 10
14016.91839030643
 20
893.4084665668834
 30
0.0
 11
14039.03460996689
 21
899.3344897645364
 31
0.0
  0
LINE
  5
1C05D
330
1BD9A
100
AcDbEntity
  8
YODOROGO
100
AcDbLine
 10
14016.91839030643
 20
936.2841744681499
 30
0.0
 11
14016.91839030643
 21
893.4084665668834
 31
0.0
  0
LINE
  5
1C05E
330
1BD9A
100
AcDbEntity
  8
YODOROGO
100
AcDbLine
 10
14039.03460996689
 20
936.2841744681499
 30
0.0
 11
14016.91839030643
 21
936.2841744681499
 31
0.0
  0
LINE
  5
1C05F
330
1BD9A
100
AcDbEntity
  8
YODOROGO
100
AcDbLine
 10
14039.03460996689
 20
946.2841744681487
 30
0.0
 11
14039.03460996689
 21
936.2841744681499
 31
0.0
  0
LINE
  5
1C060
330
1BD9A
100
AcDbEntity
  8
YODOROGO
100
AcDbLine
 10
13988.80217064596
 20
946.2841744681487
 30
0.0
 11
14039.03460996689
 21
946.2841744681487
 31
0.0
  0
LINE
  5
1C061
330
1BD9A
100
AcDbEntity
  8
YODOROGO
100
AcDbLine
 10
13988.80217064596
 20
936.2841744681499
 30
0.0
 11
13988.80217064596
 21
946.2841744681487
 31
0.0
  0
LINE
  5
1C062
330
1BD9A
100
AcDbEntity
  8
YODOROGO
100
AcDbLine
 10
14010.91839030643
 20
936.2841744681499
 30
0.0
 11
13988.80217064596
 21
936.2841744681499
 31
0.0
  0
LINE
  5
1C063
330
1BD9A
100
AcDbEntity
  8
YODOROGO
100
AcDbLine
 10
14010.91839030643
 20
892.3366697971587
 30
0.0
 11
14010.91839030643
 21
936.2841744681499
 31
0.0
  0
LINE
  5
1C064
330
1BD9A
100
AcDbEntity
  8
YODOROGO
100
AcDbLine
 10
13988.80217064596
 20
885.8747482146432
 30
0.0
 11
14010.91839030643
 21
892.3366697971587
 31
0.0
  0
LINE
  5
1C065
330
1BD9A
100
AcDbEntity
  8
YODOROGO
100
AcDbLine
 10
13988.80217064596
 20
873.8747482146434
 30
0.0
 11
13988.80217064596
 21
885.8747482146432
 31
0.0
  0
LINE
  5
1C066
330
1BD9A
100
AcDbEntity
  8
YODOROGO
100
AcDbLine
 10
14000.80217064596
 20
853.874748214644
 30
0.0
 11
14000.80217064596
 21
841.8747482146434
 31
0.0
  0
LINE
  5
1C067
330
1BD9A
100
AcDbEntity
  8
YODOROGO
100
AcDbLine
 10
14000.80217064596
 20
853.874748214644
 30
0.0
 11
14000.80217064596
 21
853.874748214644
 31
0.0
  0
LINE
  5
1C068
330
1BD9A
100
AcDbEntity
  8
YODOROGO
100
AcDbLine
 10
14008.80217064596
 20
853.874748214644
 30
0.0
 11
14000.80217064596
 21
853.874748214644
 31
0.0
  0
LINE
  5
1C069
330
1BD9A
100
AcDbEntity
  8
YODOROGO
100
AcDbLine
 10
14008.80217064596
 20
841.8747482146434
 30
0.0
 11
14008.80217064596
 21
853.874748214644
 31
0.0
  0
LINE
  5
1C06A
330
1BD9A
100
AcDbEntity
  8
YODOROGO
100
AcDbLine
 10
14020.45660200844
 20
841.8747482146434
 30
0.0
 11
14008.80217064596
 21
841.8747482146434
 31
0.0
  0
LINE
  5
1C06B
330
1BD9A
100
AcDbEntity
  8
YODOROGO
100
AcDbLine
 10
14000.80217064596
 20
841.8747482146434
 30
0.0
 11
13988.80217064596
 21
841.8747482146434
 31
0.0
  0
LINE
  5
1C06C
330
1BD9A
100
AcDbEntity
  8
YODOROGO
100
AcDbLine
 10
14041.06776011546
 20
853.874748214644
 30
0.0
 11
14049.06776011545
 21
853.874748214644
 31
0.0
1001
AUTOCAD_POSTSCRIPT_FIGURE
1002
{
1000
PSFILL
1000
Grayscale
1000
Grayscale
1070
   100
1002
}
  0
LINE
  5
1C06D
330
1BD9A
100
AcDbEntity
  8
YODOROGO
100
AcDbLine
 10
14200.80217064594
 20
912.4388128201532
 30
0.0
 11
14200.80217064594
 21
876.4388128201531
 31
0.0
1001
AUTOCAD_POSTSCRIPT_FIGURE
1002
{
1000
PSFILL
1000
Grayscale
1000
Grayscale
1070
   100
1002
}
  0
LINE
  5
1C06E
330
1BD9A
100
AcDbEntity
  8
YODOROGO
100
AcDbLine
 10
14200.80217064594
 20
958.4388128201537
 30
0.0
 11
14200.80217064594
 21
992.4388128201531
 31
0.0
1001
AUTOCAD_POSTSCRIPT_FIGURE
1002
{
1000
PSFILL
1000
Grayscale
1000
Grayscale
1070
   100
1002
}
  0
LINE
  5
1C06F
330
1BD9A
100
AcDbEntity
  8
YODOROGO
100
AcDbLine
 10
14216.80217064594
 20
909.8747482146439
 30
0.0
 11
14216.80217064594
 21
873.8747482146449
 31
0.0
  0
LINE
  5
1C070
330
1BD9A
100
AcDbEntity
  8
YODOROGO
100
AcDbLine
 10
14248.80217064594
 20
853.874748214644
 30
0.0
 11
14216.80217064594
 21
853.874748214644
 31
0.0
  0
LINE
  5
1C071
330
1BD9A
100
AcDbEntity
  8
YODOROGO
100
AcDbLine
 10
14216.80217064594
 20
873.8747482146449
 30
0.0
 11
14292.80217064596
 21
873.8747482146449
 31
0.0
  0
LINE
  5
1C072
330
1BD9A
100
AcDbEntity
  8
YODOROGO
100
AcDbLine
 10
14248.80217064594
 20
933.8747482146439
 30
0.0
 11
14216.80217064594
 21
933.8747482146439
 31
0.0
  0
LINE
  5
1C073
330
1BD9A
100
AcDbEntity
  8
YODOROGO
100
AcDbLine
 10
14248.80217064594
 20
961.8747482146432
 30
0.0
 11
14248.80217064594
 21
933.8747482146439
 31
0.0
  0
LINE
  5
1C074
330
1BD9A
100
AcDbEntity
  8
YODOROGO
100
AcDbLine
 10
14292.80217064596
 20
993.8747482146439
 30
0.0
 11
14292.80217064596
 21
1013.874748214644
 31
0.0
  0
LINE
  5
1C075
330
1BD9A
100
AcDbEntity
  8
YODOROGO
100
AcDbLine
 10
14216.80217064594
 20
993.8747482146439
 30
0.0
 11
14292.80217064596
 21
993.8747482146439
 31
0.0
  0
LINE
  5
1C076
330
1BD9A
100
AcDbEntity
  8
YODOROGO
100
AcDbLine
 10
14216.80217064594
 20
933.8747482146439
 30
0.0
 11
14216.80217064594
 21
993.8747482146439
 31
0.0
  0
LINE
  5
1C077
330
1BD9A
100
AcDbEntity
  8
YODOROGO
100
AcDbLine
 10
14500.80217064594
 20
1013.874748214644
 30
0.0
 11
14500.80217064594
 21
809.8747482146441
 31
0.0
  0
LINE
  5
1C078
330
1BD9A
100
AcDbEntity
  8
YODOROGO
100
AcDbLine
 10
14536.80217064596
 20
789.8747482146441
 30
0.0
 11
14536.80217064596
 21
1013.874748214644
 31
0.0
  0
LINE
  5
1C079
330
1BD9A
100
AcDbEntity
  8
YODOROGO
100
AcDbLine
 10
14630.80217064596
 20
745.8747482146431
 30
0.0
 11
14630.80217064596
 21
1003.874748214644
 31
0.0
  0
LINE
  5
1C07A
330
1BD9A
100
AcDbEntity
  8
YODOROGO
100
AcDbLine
 10
14598.80217064596
 20
1003.874748214644
 30
0.0
 11
14598.80217064596
 21
745.8747482146431
 31
0.0
  0
LINE
  5
1C07B
330
1BD9A
100
AcDbEntity
  8
YODOROGO
100
AcDbLine
 10
14692.80217064596
 20
1013.874748214644
 30
0.0
 11
14692.80217064596
 21
713.8747482146436
 31
0.0
  0
LINE
  5
1C07C
330
1BD9A
100
AcDbEntity
  8
YODOROGO
100
AcDbLine
 10
14728.80217064596
 20
713.8747482146436
 30
0.0
 11
14728.80217064596
 21
1013.874748214644
 31
0.0
  0
LINE
  5
1C07D
330
1BD9A
100
AcDbEntity
  8
YODOROGO
100
AcDbLine
 10
14328.80217064594
 20
833.8747482146439
 30
0.0
 11
14328.80217064594
 21
873.8747482146449
 31
0.0
  0
LINE
  5
1C07E
330
1BD9A
100
AcDbEntity
  8
YODOROGO
100
AcDbLine
 10
14942.80217064596
 20
853.874748214644
 30
0.0
 11
14942.80217064596
 21
833.8747482146439
 31
0.0
  0
LINE
  5
1C07F
330
1BD9A
100
AcDbEntity
  8
YODOROGO
100
AcDbLine
 10
14942.80217064596
 20
853.874748214644
 30
0.0
 11
14942.80217064596
 21
833.8747482146439
 31
0.0
  0
ARC
  5
1C080
330
1BD9A
100
AcDbEntity
  8
YODOROGO
100
AcDbCircle
 10
14453.45578809342
 20
809.1089322211363
 30
0.0
 40
47.35257558937082
100
AcDbArc
 50
274.052441629071
 51
0.9266642149310712
  0
ARC
  5
1C081
330
1BD9A
100
AcDbEntity
  8
YODOROGO
100
AcDbCircle
 10
14454.5930853599
 20
796.30536430522
 30
0.0
 40
82.46021178042756
100
AcDbArc
 50
271.5351210653777
 51
355.5272775058505
  0
LINE
  5
1C082
330
1BD9A
100
AcDbEntity
  8
YODOROGO
100
AcDbLine
 10
14456.80217064596
 20
761.8747482146434
 30
0.0
 11
14456.80217064596
 21
713.8747482146436
 31
0.0
  0
LINE
  5
1C083
330
1BD9A
100
AcDbEntity
  8
YODOROGO
100
AcDbLine
 10
14396.80217064594
 20
833.8747482146439
 30
0.0
 11
14328.80217064594
 21
833.8747482146439
 31
0.0
  0
LINE
  5
1C084
330
1BD9A
100
AcDbEntity
  8
YODOROGO
100
AcDbLine
 10
14396.80217064594
 20
801.8747482146444
 30
0.0
 11
14396.80217064594
 21
833.8747482146439
 31
0.0
  0
LINE
  5
1C085
330
1BD9A
100
AcDbEntity
  8
YODOROGO
100
AcDbLine
 10
14328.80217064594
 20
801.8747482146444
 30
0.0
 11
14396.80217064594
 21
801.8747482146444
 31
0.0
  0
LINE
  5
1C086
330
1BD9A
100
AcDbEntity
  8
YODOROGO
100
AcDbLine
 10
14328.80217064594
 20
761.8747482146434
 30
0.0
 11
14328.80217064594
 21
801.8747482146444
 31
0.0
  0
LINE
  5
1C087
330
1BD9A
100
AcDbEntity
  8
YODOROGO
100
AcDbLine
 10
14396.80217064594
 20
761.8747482146434
 30
0.0
 11
14328.80217064594
 21
761.8747482146434
 31
0.0
  0
LINE
  5
1C088
330
1BD9A
100
AcDbEntity
  8
YODOROGO
100
AcDbLine
 10
14396.80217064594
 20
713.8747482146436
 30
0.0
 11
14396.80217064594
 21
761.8747482146434
 31
0.0
  0
LINE
  5
1C089
330
1BD9A
100
AcDbEntity
  8
YODOROGO
100
AcDbLine
 10
14598.80217064596
 20
745.8747482146431
 30
0.0
 11
14630.80217064596
 21
745.8747482146431
 31
0.0
  0
LINE
  5
1C08A
330
1BD9A
100
AcDbEntity
  8
YODOROGO
100
AcDbLine
 10
14692.80217064596
 20
713.8747482146436
 30
0.0
 11
14728.80217064596
 21
713.8747482146436
 31
0.0
  0
LINE
  5
1C08B
330
1BD9A
100
AcDbEntity
  8
YODOROGO
100
AcDbLine
 10
14868.80217064596
 20
764.2207260852818
 30
0.0
 11
14868.80217064596
 21
713.8747482146436
 31
0.0
  0
LINE
  5
1C08C
330
1BD9A
100
AcDbEntity
  8
YODOROGO
100
AcDbLine
 10
14808.80217064596
 20
713.8747482146436
 30
0.0
 11
14868.80217064596
 21
764.2207260852818
 31
0.0
  0
LINE
  5
1C08D
330
1BD9A
100
AcDbEntity
  8
YODOROGO
100
AcDbLine
 10
14808.80217064596
 20
773.874748214644
 30
0.0
 11
14808.80217064596
 21
713.8747482146436
 31
0.0
  0
LINE
  5
1C08E
330
1BD9A
100
AcDbEntity
  8
YODOROGO
100
AcDbLine
 10
14856.47231434973
 20
813.8747482146435
 30
0.0
 11
14808.80217064596
 21
773.874748214644
 31
0.0
  0
LINE
  5
1C08F
330
1BD9A
100
AcDbEntity
  8
YODOROGO
100
AcDbLine
 10
14808.80217064596
 20
813.8747482146435
 30
0.0
 11
14856.47231434973
 21
813.8747482146435
 31
0.0
  0
LINE
  5
1C090
330
1BD9A
100
AcDbEntity
  8
YODOROGO
100
AcDbLine
 10
14808.80217064596
 20
833.8747482146439
 30
0.0
 11
14808.80217064596
 21
813.8747482146435
 31
0.0
  0
LINE
  5
1C091
330
1BD9A
100
AcDbEntity
  8
YODOROGO
100
AcDbLine
 10
14942.80217064596
 20
833.8747482146439
 30
0.0
 11
14808.80217064596
 21
833.8747482146439
 31
0.0
  0
LINE
  5
1C092
330
1BD9A
100
AcDbEntity
  8
YODOROGO
100
AcDbLine
 10
14958.80217064596
 20
813.8747482146435
 30
0.0
 11
14888.80217064596
 21
813.8747482146435
 31
0.0
  0
LINE
  5
1C093
330
1BD9A
100
AcDbEntity
  8
YODOROGO
100
AcDbLine
 10
14888.80217064596
 20
781.0027187088283
 30
0.0
 11
14885.70493649264
 21
778.403830673117
 31
0.0
  0
LINE
  5
1C094
330
1BD9A
100
AcDbEntity
  8
YODOROGO
100
AcDbLine
 10
14888.80217064596
 20
813.8747482146435
 30
0.0
 11
14888.80217064596
 21
781.0027187088283
 31
0.0
  0
LINE
  5
1C095
330
1BD9A
100
AcDbEntity
  8
YODOROGO
100
AcDbLine
 10
14868.80217064596
 20
764.2207260852818
 30
0.0
 11
14868.80217064596
 21
713.8747482146436
 31
0.0
  0
LINE
  5
1C096
330
1BD9A
100
AcDbEntity
  8
YODOROGO
100
AcDbLine
 10
14808.80217064596
 20
713.8747482146436
 30
0.0
 11
14868.80217064596
 21
764.2207260852818
 31
0.0
  0
LINE
  5
1C097
330
1BD9A
100
AcDbEntity
  8
YODOROGO
100
AcDbLine
 10
14808.80217064596
 20
773.874748214644
 30
0.0
 11
14808.80217064596
 21
713.8747482146436
 31
0.0
  0
LINE
  5
1C098
330
1BD9A
100
AcDbEntity
  8
YODOROGO
100
AcDbLine
 10
14856.47231434973
 20
813.8747482146435
 30
0.0
 11
14808.80217064596
 21
773.874748214644
 31
0.0
  0
LINE
  5
1C099
330
1BD9A
100
AcDbEntity
  8
YODOROGO
100
AcDbLine
 10
14808.80217064596
 20
813.8747482146435
 30
0.0
 11
14856.47231434973
 21
813.8747482146435
 31
0.0
  0
LINE
  5
1C09A
330
1BD9A
100
AcDbEntity
  8
YODOROGO
100
AcDbLine
 10
14808.80217064596
 20
833.8747482146439
 30
0.0
 11
14808.80217064596
 21
813.8747482146435
 31
0.0
  0
LINE
  5
1C09B
330
1BD9A
100
AcDbEntity
  8
YODOROGO
100
AcDbLine
 10
14942.80217064596
 20
833.8747482146439
 30
0.0
 11
14808.80217064596
 21
833.8747482146439
 31
0.0
  0
LINE
  5
1C09C
330
1BD9A
100
AcDbEntity
  8
YODOROGO
100
AcDbLine
 10
14396.80217064594
 20
873.8747482146449
 30
0.0
 11
14396.80217064594
 21
909.8747482146439
 31
0.0
  0
LINE
  5
1C09D
330
1BD9A
100
AcDbEntity
  8
YODOROGO
100
AcDbLine
 10
14328.80217064594
 20
873.8747482146449
 30
0.0
 11
14396.80217064594
 21
873.8747482146449
 31
0.0
  0
LINE
  5
1C09E
330
1BD9A
100
AcDbEntity
  8
YODOROGO
100
AcDbLine
 10
14364.80217064596
 20
933.8747482146439
 30
0.0
 11
14364.80217064596
 21
961.8747482146432
 31
0.0
  0
LINE
  5
1C09F
330
1BD9A
100
AcDbEntity
  8
YODOROGO
100
AcDbLine
 10
14396.80217064594
 20
933.8747482146439
 30
0.0
 11
14364.80217064596
 21
933.8747482146439
 31
0.0
  0
LINE
  5
1C0A0
330
1BD9A
100
AcDbEntity
  8
YODOROGO
100
AcDbLine
 10
14396.80217064594
 20
973.8747482146434
 30
0.0
 11
14396.80217064594
 21
933.8747482146439
 31
0.0
  0
ARC
  5
1C0A1
330
1BD9A
100
AcDbEntity
  8
YODOROGO
100
AcDbCircle
 10
14376.80217064594
 20
973.8747482146434
 30
0.0
 40
20.0
100
AcDbArc
 50
0.0
 51
90.0
  0
LINE
  5
1C0A2
330
1BD9A
100
AcDbEntity
  8
YODOROGO
100
AcDbLine
 10
14328.80217064596
 20
993.8747482146439
 30
0.0
 11
14376.80217064594
 21
993.8747482146439
 31
0.0
  0
LINE
  5
1C0A3
330
1BD9A
100
AcDbEntity
  8
YODOROGO
100
AcDbLine
 10
14328.80217064596
 20
1013.874748214644
 30
0.0
 11
14328.80217064596
 21
993.8747482146439
 31
0.0
  0
LINE
  5
1C0A4
330
1BD9A
100
AcDbEntity
  8
YODOROGO
100
AcDbLine
 10
14536.80217064596
 20
1013.874748214644
 30
0.0
 11
14500.80217064594
 21
1013.874748214644
 31
0.0
  0
LINE
  5
1C0A5
330
1BD9A
100
AcDbEntity
  8
YODOROGO
100
AcDbLine
 10
14630.80217064596
 20
1003.874748214644
 30
0.0
 11
14598.80217064596
 21
1003.874748214644
 31
0.0
  0
LINE
  5
1C0A6
330
1BD9A
100
AcDbEntity
  8
YODOROGO
100
AcDbLine
 10
14728.80217064596
 20
1013.874748214644
 30
0.0
 11
14692.80217064596
 21
1013.874748214644
 31
0.0
  0
LINE
  5
1C0A7
330
1BD9A
100
AcDbEntity
  8
YODOROGO
100
AcDbLine
 10
14836.80217064596
 20
853.874748214644
 30
0.0
 11
14836.80217064596
 21
885.8747482146441
 31
0.0
1001
AUTOCAD_POSTSCRIPT_FIGURE
1002
{
1000
PSFILL
1000
Grayscale
1000
Grayscale
1070
    25
1002
}
  0
LINE
  5
1C0A8
330
1BD9A
100
AcDbEntity
  8
YODOROGO
100
AcDbLine
 10
14808.80217064596
 20
853.874748214644
 30
0.0
 11
14836.80217064596
 21
853.874748214644
 31
0.0
1001
AUTOCAD_POSTSCRIPT_FIGURE
1002
{
1000
PSFILL
1000
Grayscale
1000
Grayscale
1070
    25
1002
}
  0
LINE
  5
1C0A9
330
1BD9A
100
AcDbEntity
  8
YODOROGO
100
AcDbLine
 10
14808.80217064596
 20
909.8747482146439
 30
0.0
 11
14808.80217064596
 21
853.874748214644
 31
0.0
1001
AUTOCAD_POSTSCRIPT_FIGURE
1002
{
1000
PSFILL
1000
Grayscale
1000
Grayscale
1070
    25
1002
}
  0
LINE
  5
1C0AA
330
1BD9A
100
AcDbEntity
  8
YODOROGO
100
AcDbLine
 10
14882.80217064596
 20
909.8747482146439
 30
0.0
 11
14808.80217064596
 21
909.8747482146439
 31
0.0
1001
AUTOCAD_POSTSCRIPT_FIGURE
1002
{
1000
PSFILL
1000
Grayscale
1000
Grayscale
1070
    25
1002
}
  0
LINE
  5
1C0AB
330
1BD9A
100
AcDbEntity
  8
YODOROGO
100
AcDbLine
 10
14882.80217064596
 20
929.874748214644
 30
0.0
 11
14882.80217064596
 21
909.8747482146439
 31
0.0
1001
AUTOCAD_POSTSCRIPT_FIGURE
1002
{
1000
PSFILL
1000
Grayscale
1000
Grayscale
1070
    25
1002
}
  0
LINE
  5
1C0AC
330
1BD9A
100
AcDbEntity
  8
YODOROGO
100
AcDbLine
 10
14808.80217064596
 20
929.874748214644
 30
0.0
 11
14882.80217064596
 21
929.874748214644
 31
0.0
1001
AUTOCAD_POSTSCRIPT_FIGURE
1002
{
1000
PSFILL
1000
Grayscale
1000
Grayscale
1070
    25
1002
}
  0
LINE
  5
1C0AD
330
1BD9A
100
AcDbEntity
  8
YODOROGO
100
AcDbLine
 10
14808.80217064596
 20
953.874748214644
 30
0.0
 11
14808.80217064596
 21
929.874748214644
 31
0.0
1001
AUTOCAD_POSTSCRIPT_FIGURE
1002
{
1000
PSFILL
1000
Grayscale
1000
Grayscale
1070
    25
1002
}
  0
LINE
  5
1C0AE
330
1BD9A
100
AcDbEntity
  8
YODOROGO
100
AcDbLine
 10
14882.80217064596
 20
953.874748214644
 30
0.0
 11
14808.80217064596
 21
953.874748214644
 31
0.0
1001
AUTOCAD_POSTSCRIPT_FIGURE
1002
{
1000
PSFILL
1000
Grayscale
1000
Grayscale
1070
    25
1002
}
  0
LINE
  5
1C0AF
330
1BD9A
100
AcDbEntity
  8
YODOROGO
100
AcDbLine
 10
14882.80217064596
 20
973.8747482146434
 30
0.0
 11
14882.80217064596
 21
953.874748214644
 31
0.0
1001
AUTOCAD_POSTSCRIPT_FIGURE
1002
{
1000
PSFILL
1000
Grayscale
1000
Grayscale
1070
    25
1002
}
  0
LINE
  5
1C0B0
330
1BD9A
100
AcDbEntity
  8
YODOROGO
100
AcDbLine
 10
14808.80217064596
 20
973.8747482146434
 30
0.0
 11
14882.80217064596
 21
973.8747482146434
 31
0.0
1001
AUTOCAD_POSTSCRIPT_FIGURE
1002
{
1000
PSFILL
1000
Grayscale
1000
Grayscale
1070
    25
1002
}
  0
LINE
  5
1C0B1
330
1BD9A
100
AcDbEntity
  8
YODOROGO
100
AcDbLine
 10
14808.80217064596
 20
1013.874748214644
 30
0.0
 11
14808.80217064596
 21
973.8747482146434
 31
0.0
1001
AUTOCAD_POSTSCRIPT_FIGURE
1002
{
1000
PSFILL
1000
Grayscale
1000
Grayscale
1070
    25
1002
}
  0
LINE
  5
1C0B2
330
1BD9A
100
AcDbEntity
  8
YODOROGO
100
AcDbLine
 10
14832.80217064596
 20
1013.874748214644
 30
0.0
 11
14808.80217064596
 21
1013.874748214644
 31
0.0
1001
AUTOCAD_POSTSCRIPT_FIGURE
1002
{
1000
PSFILL
1000
Grayscale
1000
Grayscale
1070
    25
1002
}
  0
LINE
  5
1C0B3
330
1BD9A
100
AcDbEntity
  8
YODOROGO
100
AcDbLine
 10
14832.80217064596
 20
997.8747482146435
 30
0.0
 11
14832.80217064596
 21
1013.874748214644
 31
0.0
1001
AUTOCAD_POSTSCRIPT_FIGURE
1002
{
1000
PSFILL
1000
Grayscale
1000
Grayscale
1070
    25
1002
}
  0
LINE
  5
1C0B4
330
1BD9A
100
AcDbEntity
  8
YODOROGO
100
AcDbLine
 10
14882.80217064596
 20
997.8747482146435
 30
0.0
 11
14832.80217064596
 21
997.8747482146435
 31
0.0
1001
AUTOCAD_POSTSCRIPT_FIGURE
1002
{
1000
PSFILL
1000
Grayscale
1000
Grayscale
1070
    25
1002
}
  0
LINE
  5
1C0B5
330
1BD9A
100
AcDbEntity
  8
YODOROGO
100
AcDbLine
 10
14882.80217064596
 20
1013.874748214644
 30
0.0
 11
14882.80217064596
 21
997.8747482146435
 31
0.0
1001
AUTOCAD_POSTSCRIPT_FIGURE
1002
{
1000
PSFILL
1000
Grayscale
1000
Grayscale
1070
    25
1002
}
  0
LINE
  5
1C0B6
330
1BD9A
100
AcDbEntity
  8
YODOROGO
100
AcDbLine
 10
14914.80217064596
 20
1013.874748214644
 30
0.0
 11
14882.80217064596
 21
1013.874748214644
 31
0.0
1001
AUTOCAD_POSTSCRIPT_FIGURE
1002
{
1000
PSFILL
1000
Grayscale
1000
Grayscale
1070
    25
1002
}
  0
LINE
  5
1C0B7
330
1BD9A
100
AcDbEntity
  8
YODOROGO
100
AcDbLine
 10
14914.80217064596
 20
997.8747482146435
 30
0.0
 11
14914.80217064596
 21
1013.874748214644
 31
0.0
1001
AUTOCAD_POSTSCRIPT_FIGURE
1002
{
1000
PSFILL
1000
Grayscale
1000
Grayscale
1070
    25
1002
}
  0
LINE
  5
1C0B8
330
1BD9A
100
AcDbEntity
  8
YODOROGO
100
AcDbLine
 10
14914.80217064596
 20
953.874748214644
 30
0.0
 11
14914.80217064596
 21
973.8747482146434
 31
0.0
1001
AUTOCAD_POSTSCRIPT_FIGURE
1002
{
1000
PSFILL
1000
Grayscale
1000
Grayscale
1070
    25
1002
}
  0
LINE
  5
1C0B9
330
1BD9A
100
AcDbEntity
  8
YODOROGO
100
AcDbLine
 10
14914.80217064596
 20
909.8747482146439
 30
0.0
 11
14914.80217064596
 21
929.874748214644
 31
0.0
1001
AUTOCAD_POSTSCRIPT_FIGURE
1002
{
1000
PSFILL
1000
Grayscale
1000
Grayscale
1070
    25
1002
}
  0
LINE
  5
1C0BA
330
1BD9A
100
AcDbEntity
  8
YODOROGO
100
AcDbLine
 10
14960.80217064594
 20
885.8747482146441
 30
0.0
 11
14960.80217064594
 21
853.874748214644
 31
0.0
1001
AUTOCAD_POSTSCRIPT_FIGURE
1002
{
1000
PSFILL
1000
Grayscale
1000
Grayscale
1070
    25
1002
}
  0
LINE
  5
1C0BB
330
1BD9A
100
AcDbEntity
  8
YODOROGO
100
AcDbLine
 10
14914.80217064596
 20
885.8747482146441
 30
0.0
 11
14960.80217064594
 21
885.8747482146441
 31
0.0
1001
AUTOCAD_POSTSCRIPT_FIGURE
1002
{
1000
PSFILL
1000
Grayscale
1000
Grayscale
1070
    25
1002
}
  0
LINE
  5
1C0BC
330
1BD9A
100
AcDbEntity
  8
YODOROGO
100
AcDbLine
 10
14914.80217064596
 20
853.874748214644
 30
0.0
 11
14914.80217064596
 21
885.8747482146441
 31
0.0
1001
AUTOCAD_POSTSCRIPT_FIGURE
1002
{
1000
PSFILL
1000
Grayscale
1000
Grayscale
1070
    25
1002
}
  0
LINE
  5
1C0BD
330
1BD9A
100
AcDbEntity
  8
YODOROGO
100
AcDbLine
 10
14882.80217064596
 20
853.874748214644
 30
0.0
 11
14914.80217064596
 21
853.874748214644
 31
0.0
1001
AUTOCAD_POSTSCRIPT_FIGURE
1002
{
1000
PSFILL
1000
Grayscale
1000
Grayscale
1070
    25
1002
}
  0
LINE
  5
1C0BE
330
1BD9A
100
AcDbEntity
  8
YODOROGO
100
AcDbLine
 10
14882.80217064596
 20
885.8747482146441
 30
0.0
 11
14882.80217064596
 21
853.874748214644
 31
0.0
1001
AUTOCAD_POSTSCRIPT_FIGURE
1002
{
1000
PSFILL
1000
Grayscale
1000
Grayscale
1070
    25
1002
}
  0
LINE
  5
1C0BF
330
1BD9A
100
AcDbEntity
  8
YODOROGO
100
AcDbLine
 10
14836.80217064596
 20
885.8747482146441
 30
0.0
 11
14882.80217064596
 21
885.8747482146441
 31
0.0
1001
AUTOCAD_POSTSCRIPT_FIGURE
1002
{
1000
PSFILL
1000
Grayscale
1000
Grayscale
1070
    25
1002
}
  0
ARC
  5
1C0C0
330
1BD9A
100
AcDbEntity
  8
YODOROGO
100
AcDbCircle
 10
15529.75894667896
 20
801.3403687577881
 30
0.0
 40
89.11064055536078
100
AcDbArc
 50
281.0262749542535
 51
357.771135755738
  0
LINE
  5
1C0C1
330
1BD9A
100
AcDbEntity
  8
YODOROGO
100
AcDbLine
 10
15706.80217064596
 20
953.874748214644
 30
0.0
 11
15582.80217064596
 21
953.874748214644
 31
0.0
  0
LINE
  5
1C0C2
330
1BD9A
100
AcDbEntity
  8
YODOROGO
100
AcDbLine
 10
15706.80217064596
 20
1013.874748214644
 30
0.0
 11
15582.80217064596
 21
1013.874748214644
 31
0.0
  0
LINE
  5
1C0C3
330
1BD9A
100
AcDbEntity
  8
YODOROGO
100
AcDbLine
 10
15582.80217064596
 20
981.8747482146434
 30
0.0
 11
15706.80217064596
 21
981.8747482146434
 31
0.0
  0
LINE
  5
1C0C4
330
1BD9A
100
AcDbEntity
  8
YODOROGO
100
AcDbLine
 10
15395.80217064596
 20
781.8747482146434
 30
0.0
 11
15395.80217064596
 21
877.8747482146435
 31
0.0
  0
LINE
  5
1C0C5
330
1BD9A
100
AcDbEntity
  8
YODOROGO
100
AcDbLine
 10
15381.80217064596
 20
845.8747482146444
 30
0.0
 11
15381.80217064596
 21
781.8747482146434
 31
0.0
  0
LINE
  5
1C0C6
330
1BD9A
100
AcDbEntity
  8
YODOROGO
100
AcDbLine
 10
15361.80217064596
 20
745.8747482146443
 30
0.0
 11
15361.80217064596
 21
845.8747482146444
 31
0.0
  0
LINE
  5
1C0C7
330
1BD9A
100
AcDbEntity
  8
YODOROGO
100
AcDbLine
 10
15449.80217064596
 20
845.8747482146444
 30
0.0
 11
15449.80217064596
 21
745.8747482146443
 31
0.0
  0
LINE
  5
1C0C8
330
1BD9A
100
AcDbEntity
  8
YODOROGO
100
AcDbLine
 10
15429.80217064596
 20
781.8747482146434
 30
0.0
 11
15429.80217064596
 21
845.8747482146444
 31
0.0
  0
LINE
  5
1C0C9
330
1BD9A
100
AcDbEntity
  8
YODOROGO
100
AcDbLine
 10
15415.80217064596
 20
877.8747482146435
 30
0.0
 11
15415.80217064596
 21
781.8747482146434
 31
0.0
  0
LINE
  5
1C0CA
330
1BD9A
100
AcDbEntity
  8
YODOROGO
100
AcDbLine
 10
15486.80217064596
 20
1013.874748214644
 30
0.0
 11
15486.80217064596
 21
733.8747482146435
 31
0.0
  0
LINE
  5
1C0CB
330
1BD9A
100
AcDbEntity
  8
YODOROGO
100
AcDbLine
 10
15322.80217064596
 20
713.8747482146436
 30
0.0
 11
15322.80217064596
 21
1013.874748214644
 31
0.0
  0
LINE
  5
1C0CC
330
1BD9A
100
AcDbEntity
  8
YODOROGO
100
AcDbLine
 10
15348.80217064596
 20
981.8747482146434
 30
0.0
 11
15348.80217064596
 21
713.8747482146436
 31
0.0
  0
LINE
  5
1C0CD
330
1BD9A
100
AcDbEntity
  8
YODOROGO
100
AcDbLine
 10
15462.80217064596
 20
773.874748214644
 30
0.0
 11
15462.80217064596
 21
981.8747482146434
 31
0.0
  0
LINE
  5
1C0CE
330
1BD9A
100
AcDbEntity
  8
YODOROGO
100
AcDbLine
 10
15190.80217064596
 20
813.8747482146435
 30
0.0
 11
15190.80217064596
 21
839.8747482146442
 31
0.0
  0
LINE
  5
1C0CF
330
1BD9A
100
AcDbEntity
  8
YODOROGO
100
AcDbLine
 10
15308.80217064596
 20
839.8747482146442
 30
0.0
 11
15308.80217064596
 21
813.8747482146435
 31
0.0
  0
LINE
  5
1C0D0
330
1BD9A
100
AcDbEntity
  8
YODOROGO
100
AcDbLine
 10
15582.80217064596
 20
953.874748214644
 30
0.0
 11
15582.80217064596
 21
817.8747482146436
 31
0.0
  0
LINE
  5
1C0D1
330
1BD9A
100
AcDbEntity
  8
YODOROGO
100
AcDbLine
 10
14974.80217064595
 20
833.8747482146439
 30
0.0
 11
14974.80217064595
 21
853.874748214644
 31
0.0
  0
LINE
  5
1C0D2
330
1BD9A
100
AcDbEntity
  8
YODOROGO
100
AcDbLine
 10
14974.80217064595
 20
833.8747482146439
 30
0.0
 11
14974.80217064595
 21
853.874748214644
 31
0.0
  0
ARC
  5
1C0D3
330
1BD9A
100
AcDbEntity
  8
YODOROGO
100
AcDbCircle
 10
15268.80217064596
 20
753.8747482146439
 30
0.0
 40
40.0
100
AcDbArc
 50
270.0
 51
0.0
  0
LINE
  5
1C0D4
330
1BD9A
100
AcDbEntity
  8
YODOROGO
100
AcDbLine
 10
15284.80217064596
 20
799.8747482146441
 30
0.0
 11
15308.80217064596
 21
799.8747482146441
 31
0.0
  0
LINE
  5
1C0D5
330
1BD9A
100
AcDbEntity
  8
YODOROGO
100
AcDbLine
 10
15308.80217064596
 20
813.8747482146435
 30
0.0
 11
15264.80217064596
 21
813.8747482146435
 31
0.0
  0
LINE
  5
1C0D6
330
1BD9A
100
AcDbEntity
  8
YODOROGO
100
AcDbLine
 10
15108.80217064596
 20
833.8747482146439
 30
0.0
 11
14974.80217064595
 21
833.8747482146439
 31
0.0
  0
LINE
  5
1C0D7
330
1BD9A
100
AcDbEntity
  8
YODOROGO
100
AcDbLine
 10
15108.80217064596
 20
813.8747482146435
 30
0.0
 11
15108.80217064596
 21
833.8747482146439
 31
0.0
  0
LINE
  5
1C0D8
330
1BD9A
100
AcDbEntity
  8
YODOROGO
100
AcDbLine
 10
15008.80217064596
 20
813.8747482146435
 30
0.0
 11
15108.80217064596
 21
813.8747482146435
 31
0.0
  0
ARC
  5
1C0D9
330
1BD9A
100
AcDbEntity
  8
YODOROGO
100
AcDbCircle
 10
15115.02941435068
 20
934.4428574764513
 30
0.0
 40
160.6888181426141
100
AcDbArc
 50
228.6181454618993
 51
245.660289248906
  0
LINE
  5
1C0DA
330
1BD9A
100
AcDbEntity
  8
YODOROGO
100
AcDbLine
 10
15052.80217064596
 20
801.8747482146444
 30
0.0
 11
15048.80217064598
 21
788.0364079349501
 31
0.0
  0
LINE
  5
1C0DB
330
1BD9A
100
AcDbEntity
  8
YODOROGO
100
AcDbLine
 10
15094.80217064596
 20
801.8747482146444
 30
0.0
 11
15052.80217064596
 21
801.8747482146444
 31
0.0
  0
LINE
  5
1C0DC
330
1BD9A
100
AcDbEntity
  8
YODOROGO
100
AcDbLine
 10
15088.80217064596
 20
775.9088612367134
 30
0.0
 11
15094.80217064596
 21
801.8747482146444
 31
0.0
  0
ARC
  5
1C0DD
330
1BD9A
100
AcDbEntity
  8
YODOROGO
100
AcDbCircle
 10
15115.02941435023
 20
934.4428574765014
 30
0.0
 40
160.6888181426453
100
AcDbArc
 50
260.6062929796992
 51
267.7790355655586
  0
LINE
  5
1C0DE
330
1BD9A
100
AcDbEntity
  8
YODOROGO
100
AcDbLine
 10
15108.80217064596
 20
713.8747482146428
 30
0.0
 11
15108.80217064596
 21
773.874748214644
 31
0.0
  0
LINE
  5
1C0DF
330
1BD9A
100
AcDbEntity
  8
YODOROGO
100
AcDbLine
 10
14968.80217064596
 20
740.6696674577553
 30
0.0
 11
14968.80217064596
 21
797.2655452655705
 31
0.0
  0
LINE
  5
1C0E0
330
1BD9A
100
AcDbEntity
  8
YODOROGO
100
AcDbLine
 10
15108.80217064596
 20
833.8747482146439
 30
0.0
 11
14974.80217064595
 21
833.8747482146439
 31
0.0
  0
LINE
  5
1C0E1
330
1BD9A
100
AcDbEntity
  8
YODOROGO
100
AcDbLine
 10
15108.80217064596
 20
813.8747482146435
 30
0.0
 11
15108.80217064596
 21
833.8747482146439
 31
0.0
  0
LINE
  5
1C0E2
330
1BD9A
100
AcDbEntity
  8
YODOROGO
100
AcDbLine
 10
15008.80217064596
 20
813.8747482146435
 30
0.0
 11
15108.80217064596
 21
813.8747482146435
 31
0.0
  0
ARC
  5
1C0E3
330
1BD9A
100
AcDbEntity
  8
YODOROGO
100
AcDbCircle
 10
15115.02941435068
 20
934.4428574764513
 30
0.0
 40
160.6888181426141
100
AcDbArc
 50
228.6181454618993
 51
245.660289248906
  0
LINE
  5
1C0E4
330
1BD9A
100
AcDbEntity
  8
YODOROGO
100
AcDbLine
 10
15052.80217064596
 20
801.8747482146444
 30
0.0
 11
15048.80217064598
 21
788.0364079349501
 31
0.0
  0
LINE
  5
1C0E5
330
1BD9A
100
AcDbEntity
  8
YODOROGO
100
AcDbLine
 10
15094.80217064596
 20
801.8747482146444
 30
0.0
 11
15052.80217064596
 21
801.8747482146444
 31
0.0
  0
LINE
  5
1C0E6
330
1BD9A
100
AcDbEntity
  8
YODOROGO
100
AcDbLine
 10
15088.80217064596
 20
775.9088612367134
 30
0.0
 11
15094.80217064596
 21
801.8747482146444
 31
0.0
  0
ARC
  5
1C0E7
330
1BD9A
100
AcDbEntity
  8
YODOROGO
100
AcDbCircle
 10
15115.02941435023
 20
934.4428574765014
 30
0.0
 40
160.6888181426453
100
AcDbArc
 50
260.6062929796992
 51
267.7790355655586
  0
LINE
  5
1C0E8
330
1BD9A
100
AcDbEntity
  8
YODOROGO
100
AcDbLine
 10
15108.80217064596
 20
713.8747482146428
 30
0.0
 11
15108.80217064596
 21
773.874748214644
 31
0.0
  0
LINE
  5
1C0E9
330
1BD9A
100
AcDbEntity
  8
YODOROGO
100
AcDbLine
 10
14968.80217064596
 20
740.6696674577553
 30
0.0
 11
14968.80217064596
 21
797.2655452655705
 31
0.0
  0
LINE
  5
1C0EA
330
1BD9A
100
AcDbEntity
  8
YODOROGO
100
AcDbLine
 10
15216.80217064596
 20
786.8747482146444
 30
0.0
 11
15190.80217064596
 21
786.8747482146444
 31
0.0
  0
LINE
  5
1C0EB
330
1BD9A
100
AcDbEntity
  8
YODOROGO
100
AcDbLine
 10
15216.80217064596
 20
800.8747482146432
 30
0.0
 11
15216.80217064596
 21
786.8747482146444
 31
0.0
  0
LINE
  5
1C0EC
330
1BD9A
100
AcDbEntity
  8
YODOROGO
100
AcDbLine
 10
15190.80217064596
 20
800.8747482146432
 30
0.0
 11
15216.80217064596
 21
800.8747482146432
 31
0.0
  0
LINE
  5
1C0ED
330
1BD9A
100
AcDbEntity
  8
YODOROGO
100
AcDbLine
 10
15190.80217064596
 20
786.8747482146444
 30
0.0
 11
15190.80217064596
 21
800.8747482146432
 31
0.0
  0
LINE
  5
1C0EE
330
1BD9A
100
AcDbEntity
  8
YODOROGO
100
AcDbLine
 10
15214.80217064596
 20
788.8747482146436
 30
0.0
 11
15192.80217064595
 21
788.8747482146436
 31
0.0
  0
LINE
  5
1C0EF
330
1BD9A
100
AcDbEntity
  8
YODOROGO
100
AcDbLine
 10
15214.80217064596
 20
798.874748214644
 30
0.0
 11
15214.80217064596
 21
788.8747482146436
 31
0.0
  0
LINE
  5
1C0F0
330
1BD9A
100
AcDbEntity
  8
YODOROGO
100
AcDbLine
 10
15192.80217064595
 20
798.874748214644
 30
0.0
 11
15214.80217064596
 21
798.874748214644
 31
0.0
  0
LINE
  5
1C0F1
330
1BD9A
100
AcDbEntity
  8
YODOROGO
100
AcDbLine
 10
15192.80217064595
 20
788.8747482146436
 30
0.0
 11
15192.80217064595
 21
798.874748214644
 31
0.0
  0
LINE
  5
1C0F2
330
1BD9A
100
AcDbEntity
  8
YODOROGO
100
AcDbLine
 10
15212.80217064596
 20
790.8747482146432
 30
0.0
 11
15194.80217064596
 21
790.8747482146432
 31
0.0
  0
LINE
  5
1C0F3
330
1BD9A
100
AcDbEntity
  8
YODOROGO
100
AcDbLine
 10
15212.80217064596
 20
796.8747482146445
 30
0.0
 11
15212.80217064596
 21
790.8747482146432
 31
0.0
  0
LINE
  5
1C0F4
330
1BD9A
100
AcDbEntity
  8
YODOROGO
100
AcDbLine
 10
15194.80217064596
 20
796.8747482146445
 30
0.0
 11
15212.80217064596
 21
796.8747482146445
 31
0.0
  0
LINE
  5
1C0F5
330
1BD9A
100
AcDbEntity
  8
YODOROGO
100
AcDbLine
 10
15194.80217064596
 20
790.8747482146432
 30
0.0
 11
15194.80217064596
 21
796.8747482146445
 31
0.0
  0
LINE
  5
1C0F6
330
1BD9A
100
AcDbEntity
  8
YODOROGO
100
AcDbLine
 10
15210.80217064596
 20
792.8747482146435
 30
0.0
 11
15196.80217064596
 21
792.8747482146435
 31
0.0
  0
LINE
  5
1C0F7
330
1BD9A
100
AcDbEntity
  8
YODOROGO
100
AcDbLine
 10
15210.80217064596
 20
794.8747482146441
 30
0.0
 11
15210.80217064596
 21
792.8747482146435
 31
0.0
  0
LINE
  5
1C0F8
330
1BD9A
100
AcDbEntity
  8
YODOROGO
100
AcDbLine
 10
15196.80217064596
 20
794.8747482146441
 30
0.0
 11
15210.80217064596
 21
794.8747482146441
 31
0.0
  0
LINE
  5
1C0F9
330
1BD9A
100
AcDbEntity
  8
YODOROGO
100
AcDbLine
 10
15196.80217064596
 20
792.8747482146435
 30
0.0
 11
15196.80217064596
 21
794.8747482146441
 31
0.0
  0
LINE
  5
1C0FA
330
1BD9A
100
AcDbEntity
  8
YODOROGO
100
AcDbLine
 10
15232.80217064596
 20
813.8747482146435
 30
0.0
 11
15190.80217064596
 21
813.8747482146435
 31
0.0
  0
LINE
  5
1C0FB
330
1BD9A
100
AcDbEntity
  8
YODOROGO
100
AcDbLine
 10
15232.80217064596
 20
773.874748214644
 30
0.0
 11
15232.80217064596
 21
813.8747482146435
 31
0.0
  0
LINE
  5
1C0FC
330
1BD9A
100
AcDbEntity
  8
YODOROGO
100
AcDbLine
 10
15190.80217064596
 20
773.874748214644
 30
0.0
 11
15232.80217064596
 21
773.874748214644
 31
0.0
  0
LINE
  5
1C0FD
330
1BD9A
100
AcDbEntity
  8
YODOROGO
100
AcDbLine
 10
15190.80217064596
 20
713.8747482146436
 30
0.0
 11
15190.80217064596
 21
773.874748214644
 31
0.0
  0
LINE
  5
1C0FE
330
1BD9A
100
AcDbEntity
  8
YODOROGO
100
AcDbLine
 10
15268.80217064596
 20
713.8747482146436
 30
0.0
 11
15190.80217064596
 21
713.8747482146436
 31
0.0
  0
LINE
  5
1C0FF
330
1BD9A
100
AcDbEntity
  8
YODOROGO
100
AcDbLine
 10
15284.80217064596
 20
785.8747482146432
 30
0.0
 11
15284.80217064596
 21
799.8747482146441
 31
0.0
  0
ARC
  5
1C100
330
1BD9A
100
AcDbEntity
  8
YODOROGO
100
AcDbCircle
 10
15272.80217064594
 20
785.8747482146457
 30
0.0
 40
12.00000000000187
100
AcDbArc
 50
270.0
 51
359.9999999999877
  0
LINE
  5
1C101
330
1BD9A
100
AcDbEntity
  8
YODOROGO
100
AcDbLine
 10
15264.80217064596
 20
773.874748214644
 30
0.0
 11
15272.80217064594
 21
773.874748214644
 31
0.0
  0
LINE
  5
1C102
330
1BD9A
100
AcDbEntity
  8
YODOROGO
100
AcDbLine
 10
15264.80217064596
 20
813.8747482146435
 30
0.0
 11
15264.80217064596
 21
773.874748214644
 31
0.0
  0
LINE
  5
1C103
330
1BD9A
100
AcDbEntity
  8
YODOROGO
100
AcDbLine
 10
15449.80217064596
 20
773.874748214644
 30
0.0
 11
15462.80217064596
 21
773.874748214644
 31
0.0
  0
LINE
  5
1C104
330
1BD9A
100
AcDbEntity
  8
YODOROGO
100
AcDbLine
 10
15466.80217064596
 20
713.8747482146436
 30
0.0
 11
15449.80217064596
 21
713.8747482146436
 31
0.0
  0
LINE
  5
1C105
330
1BD9A
100
AcDbEntity
  8
YODOROGO
100
AcDbLine
 10
15381.80217064596
 20
781.8747482146434
 30
0.0
 11
15395.80217064596
 21
781.8747482146434
 31
0.0
  0
LINE
  5
1C106
330
1BD9A
100
AcDbEntity
  8
YODOROGO
100
AcDbLine
 10
15449.80217064596
 20
745.8747482146443
 30
0.0
 11
15361.80217064596
 21
745.8747482146443
 31
0.0
  0
LINE
  5
1C107
330
1BD9A
100
AcDbEntity
  8
YODOROGO
100
AcDbLine
 10
15415.80217064596
 20
781.8747482146434
 30
0.0
 11
15429.80217064596
 21
781.8747482146434
 31
0.0
  0
LINE
  5
1C108
330
1BD9A
100
AcDbEntity
  8
YODOROGO
100
AcDbLine
 10
15449.80217064596
 20
713.8747482146436
 30
0.0
 11
15449.80217064596
 21
773.874748214644
 31
0.0
  0
LINE
  5
1C109
330
1BD9A
100
AcDbEntity
  8
YODOROGO
100
AcDbLine
 10
15348.80217064596
 20
713.8747482146436
 30
0.0
 11
15322.80217064596
 21
713.8747482146436
 31
0.0
  0
LINE
  5
1C10A
330
1BD9A
100
AcDbEntity
  8
YODOROGO
100
AcDbLine
 10
15308.80217064596
 20
799.8747482146441
 30
0.0
 11
15308.80217064596
 21
753.8747482146439
 31
0.0
  0
ARC
  5
1C10B
330
1BD9A
100
AcDbEntity
  8
YODOROGO
100
AcDbCircle
 10
15466.80217064596
 20
733.8747482146435
 30
0.0
 40
20.0
100
AcDbArc
 50
270.0
 51
0.0
  0
LINE
  5
1C10C
330
1BD9A
100
AcDbEntity
  8
YODOROGO
100
AcDbLine
 10
15546.80217064596
 20
761.8747482146434
 30
0.0
 11
15546.80217064596
 21
713.8747482146436
 31
0.0
  0
ARC
  5
1C10D
330
1BD9A
100
AcDbEntity
  8
YODOROGO
100
AcDbCircle
 10
15519.86069778339
 20
818.7656950548664
 30
0.0
 40
62.94777829583771
100
AcDbArc
 50
295.3405244216011
 51
359.1890230341867
  0
LINE
  5
1C10E
330
1BD9A
100
AcDbEntity
  8
YODOROGO
100
AcDbLine
 10
15308.80217064596
 20
929.874748214644
 30
0.0
 11
15248.80217064596
 21
969.8747482146441
 31
0.0
  0
LINE
  5
1C10F
330
1BD9A
100
AcDbEntity
  8
YODOROGO
100
AcDbLine
 10
15248.80217064596
 20
1013.874748214644
 30
0.0
 11
15308.80217064596
 21
973.8747482146434
 31
0.0
  0
LINE
  5
1C110
330
1BD9A
100
AcDbEntity
  8
YODOROGO
100
AcDbLine
 10
15264.80217064596
 20
839.8747482146442
 30
0.0
 11
15308.80217064596
 21
839.8747482146442
 31
0.0
  0
LINE
  5
1C111
330
1BD9A
100
AcDbEntity
  8
YODOROGO
100
AcDbLine
 10
15308.80217064596
 20
867.8747482146436
 30
0.0
 11
15264.80217064596
 21
867.8747482146436
 31
0.0
  0
LINE
  5
1C112
330
1BD9A
100
AcDbEntity
  8
YODOROGO
100
AcDbLine
 10
15190.80217064596
 20
897.8747482146435
 30
0.0
 11
15308.80217064596
 21
897.8747482146435
 31
0.0
  0
LINE
  5
1C113
330
1BD9A
100
AcDbEntity
  8
YODOROGO
100
AcDbLine
 10
15040.80217064596
 20
1013.874748214644
 30
0.0
 11
15010.80217064596
 21
1013.874748214644
 31
0.0
  0
LINE
  5
1C114
330
1BD9A
100
AcDbEntity
  8
YODOROGO
100
AcDbLine
 10
15040.80217064596
 20
913.8747482146435
 30
0.0
 11
15040.80217064596
 21
1013.874748214644
 31
0.0
  0
LINE
  5
1C115
330
1BD9A
100
AcDbEntity
  8
YODOROGO
100
AcDbLine
 10
15010.80217064596
 20
913.8747482146435
 30
0.0
 11
15040.80217064596
 21
913.8747482146435
 31
0.0
  0
LINE
  5
1C116
330
1BD9A
100
AcDbEntity
  8
YODOROGO
100
AcDbLine
 10
15010.80217064596
 20
1013.874748214644
 30
0.0
 11
15010.80217064596
 21
913.8747482146435
 31
0.0
  0
LINE
  5
1C117
330
1BD9A
100
AcDbEntity
  8
YODOROGO
100
AcDbLine
 10
15080.80217064596
 20
1013.874748214644
 30
0.0
 11
15108.80217064596
 21
1013.874748214644
 31
0.0
  0
LINE
  5
1C118
330
1BD9A
100
AcDbEntity
  8
YODOROGO
100
AcDbLine
 10
15080.80217064596
 20
905.8747482146443
 30
0.0
 11
15080.80217064596
 21
1013.874748214644
 31
0.0
  0
ARC
  5
1C119
330
1BD9A
100
AcDbEntity
  8
YODOROGO
100
AcDbCircle
 10
15060.80217064596
 20
905.8747482146443
 30
0.0
 40
20.0
100
AcDbArc
 50
270.0
 51
0.0
  0
LINE
  5
1C11A
330
1BD9A
100
AcDbEntity
  8
YODOROGO
100
AcDbLine
 10
15010.80217064596
 20
885.8747482146441
 30
0.0
 11
15060.80217064596
 21
885.8747482146441
 31
0.0
  0
LINE
  5
1C11B
330
1BD9A
100
AcDbEntity
  8
YODOROGO
100
AcDbLine
 10
15010.80217064596
 20
853.874748214644
 30
0.0
 11
15010.80217064596
 21
885.8747482146441
 31
0.0
  0
LINE
  5
1C11C
330
1BD9A
100
AcDbEntity
  8
YODOROGO
100
AcDbLine
 10
15068.80217064596
 20
853.874748214644
 30
0.0
 11
15010.80217064596
 21
853.874748214644
 31
0.0
  0
ARC
  5
1C11D
330
1BD9A
100
AcDbEntity
  8
YODOROGO
100
AcDbCircle
 10
15068.80217064596
 20
893.8747482146439
 30
0.0
 40
40.0
100
AcDbArc
 50
270.0
 51
0.0
  0
LINE
  5
1C11E
330
1BD9A
100
AcDbEntity
  8
YODOROGO
100
AcDbLine
 10
15108.80217064596
 20
1013.874748214644
 30
0.0
 11
15108.80217064596
 21
893.8747482146439
 31
0.0
  0
LINE
  5
1C11F
330
1BD9A
100
AcDbEntity
  8
YODOROGO
100
AcDbLine
 10
14988.80217064596
 20
973.8747482146434
 30
0.0
 11
14988.80217064596
 21
997.8747482146435
 31
0.0
1001
AUTOCAD_POSTSCRIPT_FIGURE
1002
{
1000
PSFILL
1000
Grayscale
1000
Grayscale
1070
    25
1002
}
  0
LINE
  5
1C120
330
1BD9A
100
AcDbEntity
  8
YODOROGO
100
AcDbLine
 10
14988.80217064596
 20
929.874748214644
 30
0.0
 11
14988.80217064596
 21
953.874748214644
 31
0.0
1001
AUTOCAD_POSTSCRIPT_FIGURE
1002
{
1000
PSFILL
1000
Grayscale
1000
Grayscale
1070
    25
1002
}
  0
LINE
  5
1C121
330
1BD9A
100
AcDbEntity
  8
YODOROGO
100
AcDbLine
 10
14988.80217064596
 20
853.874748214644
 30
0.0
 11
14988.80217064596
 21
909.8747482146439
 31
0.0
1001
AUTOCAD_POSTSCRIPT_FIGURE
1002
{
1000
PSFILL
1000
Grayscale
1000
Grayscale
1070
    25
1002
}
  0
LINE
  5
1C122
330
1BD9A
100
AcDbEntity
  8
YODOROGO
100
AcDbLine
 10
15190.80217064596
 20
953.874748214644
 30
0.0
 11
15248.80217064596
 21
1013.874748214644
 31
0.0
  0
LINE
  5
1C123
330
1BD9A
100
AcDbEntity
  8
YODOROGO
100
AcDbLine
 10
15190.80217064596
 20
909.8747482146439
 30
0.0
 11
15190.80217064596
 21
953.874748214644
 31
0.0
  0
LINE
  5
1C124
330
1BD9A
100
AcDbEntity
  8
YODOROGO
100
AcDbLine
 10
15248.80217064596
 20
969.8747482146441
 30
0.0
 11
15190.80217064596
 21
909.8747482146439
 31
0.0
  0
LINE
  5
1C125
330
1BD9A
100
AcDbEntity
  8
YODOROGO
100
AcDbLine
 10
15232.80217064596
 20
839.8747482146442
 30
0.0
 11
15232.80217064596
 21
867.8747482146436
 31
0.0
  0
LINE
  5
1C126
330
1BD9A
100
AcDbEntity
  8
YODOROGO
100
AcDbLine
 10
15190.80217064596
 20
839.8747482146442
 30
0.0
 11
15232.80217064596
 21
839.8747482146442
 31
0.0
  0
LINE
  5
1C127
330
1BD9A
100
AcDbEntity
  8
YODOROGO
100
AcDbLine
 10
15264.80217064596
 20
867.8747482146436
 30
0.0
 11
15264.80217064596
 21
839.8747482146442
 31
0.0
  0
LINE
  5
1C128
330
1BD9A
100
AcDbEntity
  8
YODOROGO
100
AcDbLine
 10
15190.80217064596
 20
867.8747482146436
 30
0.0
 11
15190.80217064596
 21
897.8747482146435
 31
0.0
  0
LINE
  5
1C129
330
1BD9A
100
AcDbEntity
  8
YODOROGO
100
AcDbLine
 10
15232.80217064596
 20
867.8747482146436
 30
0.0
 11
15190.80217064596
 21
867.8747482146436
 31
0.0
  0
LINE
  5
1C12A
330
1BD9A
100
AcDbEntity
  8
YODOROGO
100
AcDbLine
 10
15322.80217064596
 20
1013.874748214644
 30
0.0
 11
15486.80217064596
 21
1013.874748214644
 31
0.0
  0
LINE
  5
1C12B
330
1BD9A
100
AcDbEntity
  8
YODOROGO
100
AcDbLine
 10
15462.80217064596
 20
981.8747482146434
 30
0.0
 11
15348.80217064596
 21
981.8747482146434
 31
0.0
  0
LINE
  5
1C12C
330
1BD9A
100
AcDbEntity
  8
YODOROGO
100
AcDbLine
 10
15436.80217064595
 20
909.8747482146439
 30
0.0
 11
15449.80217064596
 21
909.8747482146439
 31
0.0
  0
LINE
  5
1C12D
330
1BD9A
100
AcDbEntity
  8
YODOROGO
100
AcDbLine
 10
15449.80217064596
 20
969.8747482146441
 30
0.0
 11
15436.80217064595
 21
909.8747482146439
 31
0.0
  0
LINE
  5
1C12E
330
1BD9A
100
AcDbEntity
  8
YODOROGO
100
AcDbLine
 10
15425.80217064596
 20
969.8747482146441
 30
0.0
 11
15449.80217064596
 21
969.8747482146441
 31
0.0
  0
LINE
  5
1C12F
330
1BD9A
100
AcDbEntity
  8
YODOROGO
100
AcDbLine
 10
15412.80217064596
 20
909.8747482146439
 30
0.0
 11
15425.80217064596
 21
969.8747482146441
 31
0.0
  0
LINE
  5
1C130
330
1BD9A
100
AcDbEntity
  8
YODOROGO
100
AcDbLine
 10
15398.80217064596
 20
909.8747482146439
 30
0.0
 11
15412.80217064596
 21
909.8747482146439
 31
0.0
  0
LINE
  5
1C131
330
1BD9A
100
AcDbEntity
  8
YODOROGO
100
AcDbLine
 10
15385.80217064596
 20
969.8747482146441
 30
0.0
 11
15398.80217064596
 21
909.8747482146439
 31
0.0
  0
LINE
  5
1C132
330
1BD9A
100
AcDbEntity
  8
YODOROGO
100
AcDbLine
 10
15361.80217064596
 20
969.8747482146441
 30
0.0
 11
15385.80217064596
 21
969.8747482146441
 31
0.0
  0
LINE
  5
1C133
330
1BD9A
100
AcDbEntity
  8
YODOROGO
100
AcDbLine
 10
15374.80217064596
 20
909.8747482146439
 30
0.0
 11
15361.80217064596
 21
969.8747482146441
 31
0.0
  0
LINE
  5
1C134
330
1BD9A
100
AcDbEntity
  8
YODOROGO
100
AcDbLine
 10
15361.80217064596
 20
909.8747482146439
 30
0.0
 11
15374.80217064596
 21
909.8747482146439
 31
0.0
  0
LINE
  5
1C135
330
1BD9A
100
AcDbEntity
  8
YODOROGO
100
AcDbLine
 10
15361.80217064596
 20
877.8747482146435
 30
0.0
 11
15361.80217064596
 21
909.8747482146439
 31
0.0
  0
LINE
  5
1C136
330
1BD9A
100
AcDbEntity
  8
YODOROGO
100
AcDbLine
 10
15449.80217064596
 20
877.8747482146435
 30
0.0
 11
15361.80217064596
 21
877.8747482146435
 31
0.0
  0
LINE
  5
1C137
330
1BD9A
100
AcDbEntity
  8
YODOROGO
100
AcDbLine
 10
15449.80217064596
 20
909.8747482146439
 30
0.0
 11
15449.80217064596
 21
877.8747482146435
 31
0.0
  0
LINE
  5
1C138
330
1BD9A
100
AcDbEntity
  8
YODOROGO
100
AcDbLine
 10
15308.80217064596
 20
973.8747482146434
 30
0.0
 11
15308.80217064596
 21
929.874748214644
 31
0.0
  0
LINE
  5
1C139
330
1BD9A
100
AcDbEntity
  8
YODOROGO
100
AcDbLine
 10
15395.80217064596
 20
877.8747482146435
 30
0.0
 11
15415.80217064596
 21
877.8747482146435
 31
0.0
  0
LINE
  5
1C13A
330
1BD9A
100
AcDbEntity
  8
YODOROGO
100
AcDbLine
 10
15361.80217064596
 20
845.8747482146444
 30
0.0
 11
15381.80217064596
 21
845.8747482146444
 31
0.0
  0
LINE
  5
1C13B
330
1BD9A
100
AcDbEntity
  8
YODOROGO
100
AcDbLine
 10
15429.80217064596
 20
845.8747482146444
 30
0.0
 11
15449.80217064596
 21
845.8747482146444
 31
0.0
  0
LINE
  5
1C13C
330
1BD9A
100
AcDbEntity
  8
YODOROGO
100
AcDbLine
 10
15308.80217064596
 20
897.8747482146435
 30
0.0
 11
15308.80217064596
 21
867.8747482146436
 31
0.0
  0
LINE
  5
1C13D
330
1BD9A
100
AcDbEntity
  8
YODOROGO
100
AcDbLine
 10
15582.80217064596
 20
1013.874748214644
 30
0.0
 11
15582.80217064596
 21
981.8747482146434
 31
0.0
  0
LINE
  5
1C13E
330
1BD9A
100
AcDbEntity
  8
YODOROGO
100
AcDbLine
 10
15766.80217064596
 20
797.8747482146435
 30
0.0
 11
15766.80217064594
 21
905.8747482146443
 31
0.0
  0
LINE
  5
1C13F
330
1BD9A
100
AcDbEntity
  8
YODOROGO
100
AcDbLine
 10
15730.80217064594
 20
993.8747482146439
 30
0.0
 11
15730.80217064594
 21
817.8747482146436
 31
0.0
  0
LINE
  5
1C140
330
1BD9A
100
AcDbEntity
  8
YODOROGO
100
AcDbLine
 10
15826.80217064596
 20
713.8747482146436
 30
0.0
 11
15826.80217064594
 21
905.8747482146443
 31
0.0
  0
LINE
  5
1C141
330
1BD9A
100
AcDbEntity
  8
YODOROGO
100
AcDbLine
 10
15794.80217064596
 20
905.8747482146443
 30
0.0
 11
15794.80217064596
 21
713.8747482146436
 31
0.0
  0
LINE
  5
1C142
330
1BD9A
100
AcDbEntity
  8
YODOROGO
100
AcDbLine
 10
15618.80217064596
 20
797.8747482146435
 30
0.0
 11
15618.80217064596
 21
853.874748214644
 31
0.0
  0
ARC
  5
1C143
330
1BD9A
100
AcDbEntity
  8
YODOROGO
100
AcDbCircle
 10
15676.95743255803
 20
803.8951756442788
 30
0.0
 40
90.04622428799429
100
AcDbArc
 50
268.6284910216979
 51
356.1663845733032
  0
LINE
  5
1C144
330
1BD9A
100
AcDbEntity
  8
YODOROGO
100
AcDbLine
 10
15674.80217064596
 20
763.8747482146435
 30
0.0
 11
15674.80217064596
 21
713.8747482146436
 31
0.0
  0
ARC
  5
1C145
330
1BD9A
100
AcDbEntity
  8
YODOROGO
100
AcDbCircle
 10
15675.75903786228
 20
818.9194785088275
 30
0.0
 40
55.05304649180608
100
AcDbArc
 50
269.0041020930593
 51
358.9126445549248
  0
LINE
  5
1C146
330
1BD9A
100
AcDbEntity
  8
YODOROGO
100
AcDbLine
 10
15794.80217064596
 20
713.8747482146436
 30
0.0
 11
15826.80217064596
 21
713.8747482146436
 31
0.0
  0
LINE
  5
1C147
330
1BD9A
100
AcDbEntity
  8
YODOROGO
100
AcDbLine
 10
15766.80217064594
 20
905.8747482146443
 30
0.0
 11
15794.80217064596
 21
905.8747482146443
 31
0.0
  0
LINE
  5
1C148
330
1BD9A
100
AcDbEntity
  8
YODOROGO
100
AcDbLine
 10
15810.80217064596
 20
993.8747482146439
 30
0.0
 11
15730.80217064594
 21
993.8747482146439
 31
0.0
  0
LINE
  5
1C149
330
1BD9A
100
AcDbEntity
  8
YODOROGO
100
AcDbLine
 10
15766.80217064594
 20
957.8747482146436
 30
0.0
 11
15830.80217064596
 21
957.8747482146436
 31
0.0
  0
LINE
  5
1C14A
330
1BD9A
100
AcDbEntity
  8
YODOROGO
100
AcDbLine
 10
15850.80217064596
 20
937.8747482146435
 30
0.0
 11
15766.80217064594
 21
937.8747482146435
 31
0.0
  0
LINE
  5
1C14B
330
1BD9A
100
AcDbEntity
  8
YODOROGO
100
AcDbLine
 10
15618.80217064596
 20
889.8747482146442
 30
0.0
 11
15674.80217064596
 21
889.8747482146442
 31
0.0
  0
LINE
  5
1C14C
330
1BD9A
100
AcDbEntity
  8
YODOROGO
100
AcDbLine
 10
15618.80217064596
 20
917.8747482146436
 30
0.0
 11
15618.80217064596
 21
889.8747482146442
 31
0.0
  0
LINE
  5
1C14D
330
1BD9A
100
AcDbEntity
  8
YODOROGO
100
AcDbLine
 10
15674.80217064596
 20
917.8747482146436
 30
0.0
 11
15618.80217064596
 21
917.8747482146436
 31
0.0
  0
LINE
  5
1C14E
330
1BD9A
100
AcDbEntity
  8
YODOROGO
100
AcDbLine
 10
15674.80217064596
 20
889.8747482146442
 30
0.0
 11
15674.80217064596
 21
917.8747482146436
 31
0.0
  0
LINE
  5
1C14F
330
1BD9A
100
AcDbEntity
  8
YODOROGO
100
AcDbLine
 10
15766.80217064594
 20
937.8747482146435
 30
0.0
 11
15766.80217064594
 21
957.8747482146436
 31
0.0
  0
LINE
  5
1C150
330
1BD9A
100
AcDbEntity
  8
YODOROGO
100
AcDbLine
 10
15706.80217064596
 20
853.874748214644
 30
0.0
 11
15706.80217064596
 21
953.874748214644
 31
0.0
  0
LINE
  5
1C151
330
1BD9A
100
AcDbEntity
  8
YODOROGO
100
AcDbLine
 10
15618.80217064596
 20
853.874748214644
 30
0.0
 11
15706.80217064596
 21
853.874748214644
 31
0.0
  0
LINE
  5
1C152
330
1BD9A
100
AcDbEntity
  8
YODOROGO
100
AcDbLine
 10
15706.80217064596
 20
981.8747482146434
 30
0.0
 11
15706.80217064596
 21
1013.874748214644
 31
0.0
  0
ARC
  5
1C153
330
1BD9A
100
AcDbEntity
  8
YODOROGO
100
AcDbCircle
 10
15810.80217064596
 20
1001.874748214642
 30
0.0
 40
7.99999999999727
100
AcDbArc
 50
270.0
 51
0.0000000000081422
  0
LINE
  5
1C154
330
1BD9A
100
AcDbEntity
  8
YODOROGO
100
AcDbLine
 10
15818.80217064596
 20
1013.874748214644
 30
0.0
 11
15818.80217064596
 21
1001.874748214643
 31
0.0
  0
LINE
  5
1C155
330
1BD9A
100
AcDbEntity
  8
YODOROGO
100
AcDbLine
 10
15850.80217064596
 20
1013.874748214644
 30
0.0
 11
15818.80217064596
 21
1013.874748214644
 31
0.0
  0
LINE
  5
1C156
330
1BD9A
100
AcDbEntity
  8
YODOROGO
100
AcDbLine
 10
15850.80217064596
 20
977.8747482146435
 30
0.0
 11
15850.80217064596
 21
1013.874748214644
 31
0.0
  0
ARC
  5
1C157
330
1BD9A
100
AcDbEntity
  8
YODOROGO
100
AcDbCircle
 10
15830.80217064596
 20
977.8747482146435
 30
0.0
 40
20.0
100
AcDbArc
 50
270.0
 51
0.0
  0
LINE
  5
1C158
330
1BD9A
100
AcDbEntity
  8
YODOROGO
100
AcDbLine
 10
15850.80217064596
 20
905.8747482146443
 30
0.0
 11
15850.80217064596
 21
937.8747482146435
 31
0.0
  0
LINE
  5
1C159
330
1BD9A
100
AcDbEntity
  8
YODOROGO
100
AcDbLine
 10
15826.80217064594
 20
905.8747482146443
 30
0.0
 11
15850.80217064596
 21
905.8747482146443
 31
0.0
  0
LINE
  5
1C15A
330
1BD9A
100
AcDbEntity
  8
SUNPOU
100
AcDbLine
 10
6509.517742030221
 20
3364.184504159609
 30
0.0
 11
6569.517742030234
 21
3364.184504159609
 31
0.0
  0
LINE
  5
1C15B
330
1BD9A
100
AcDbEntity
  8
SUNPOU
100
AcDbLine
 10
6509.517742030228
 20
3364.184504159609
 30
0.0
 11
6569.517742030228
 21
3380.261455705479
 31
0.0
  0
LINE
  5
1C15C
330
1BD9A
100
AcDbEntity
  8
SUNPOU
100
AcDbLine
 10
6509.517742030221
 20
3364.184504159609
 30
0.0
 11
6569.517742030234
 21
3348.10755261374
 31
0.0
  0
LINE
  5
1C15D
330
1BD9A
100
AcDbEntity
  8
SUNPOU
100
AcDbLine
 10
6569.51774203022
 20
3364.184504159609
 30
0.0
 11
6629.517742030234
 21
3364.184504159609
 31
0.0
  0
LINE
  5
1C15E
330
1BD9A
100
AcDbEntity
  8
SUNPOU
100
AcDbLine
 10
6569.517742030228
 20
3364.184504159609
 30
0.0
 11
6629.517742030228
 21
3380.261455705479
 31
0.0
  0
LINE
  5
1C15F
330
1BD9A
100
AcDbEntity
  8
SUNPOU
100
AcDbLine
 10
6569.51774203022
 20
3364.184504159609
 30
0.0
 11
6629.517742030234
 21
3348.10755261374
 31
0.0
  0
LINE
  5
1C160
330
1BD9A
100
AcDbEntity
  8
SUNPOU
100
AcDbLine
 10
7750.758701212581
 20
3375.434504159609
 30
0.0
 11
7750.758701212581
 21
3386.684504159609
 31
0.0
  0
LINE
  5
1C161
330
1BD9A
100
AcDbEntity
  8
SUNPOU
100
AcDbLine
 10
7110.758701212581
 20
1914.783932023021
 30
0.0
 11
7110.758701212581
 21
1337.383932023019
 31
0.0
  0
LINE
  5
1C162
330
1BD9A
100
AcDbEntity
  8
SUNPOU
100
AcDbLine
 10
8390.758701212579
 20
1914.783932023021
 30
0.0
 11
8390.758701212579
 21
1337.383932023019
 31
0.0
  0
LINE
  5
1C163
330
1BD9A
100
AcDbEntity
  8
SUNPOU
100
AcDbLine
 10
7125.758701212581
 20
1382.383932023019
 30
0.0
 11
8375.758701212578
 21
1382.383932023019
 31
0.0
  0
LINE
  5
1C164
330
1BD9A
100
AcDbEntity
  8
SUNPOU
100
AcDbLine
 10
6950.758701212581
 20
1754.783932023018
 30
0.0
 11
6950.758701212581
 21
1127.38393202302
 31
0.0
  0
LINE
  5
1C165
330
1BD9A
100
AcDbEntity
  8
SUNPOU
100
AcDbLine
 10
8550.758701212577
 20
1754.783932023018
 30
0.0
 11
8550.758701212577
 21
1127.38393202302
 31
0.0
  0
LINE
  5
1C166
330
1BD9A
100
AcDbEntity
  8
SUNPOU
100
AcDbLine
 10
6965.75870121258
 20
1172.38393202302
 30
0.0
 11
8535.758701212579
 21
1172.38393202302
 31
0.0
  0
LINE
  5
1C167
330
1BD9A
100
AcDbEntity
  8
SUNPOU
100
AcDbLine
 10
7080.758701212582
 20
2552.78393202302
 30
0.0
 11
6786.405305211824
 21
2552.78393202302
 31
0.0
  0
LINE
  5
1C168
330
1BD9A
100
AcDbEntity
  8
SUNPOU
100
AcDbLine
 10
7080.758701212582
 20
2424.783932023015
 30
0.0
 11
6786.405305211824
 21
2424.783932023015
 31
0.0
  0
LINE
  5
1C169
330
1BD9A
100
AcDbEntity
  8
SUNPOU
100
AcDbLine
 10
6831.405305211823
 20
2537.78393202302
 30
0.0
 11
6831.405305211823
 21
2439.783932023015
 31
0.0
  0
LINE
  5
1C16A
330
1BD9A
100
AcDbEntity
  8
SUNPOU
100
AcDbLine
 10
7080.758701212582
 20
2552.783932023016
 30
0.0
 11
6786.405305211824
 21
2552.783932023016
 31
0.0
  0
LINE
  5
1C16B
330
1BD9A
100
AcDbEntity
  8
SUNPOU
100
AcDbLine
 10
6988.917161404009
 20
2687.183932023017
 30
0.0
 11
6786.405305211824
 21
2687.183932023017
 31
0.0
  0
LINE
  5
1C16C
330
1BD9A
100
AcDbEntity
  8
SUNPOU
100
AcDbLine
 10
6831.405305211823
 20
2567.783932023017
 30
0.0
 11
6831.405305211823
 21
2672.183932023017
 31
0.0
  0
LINE
  5
1C16D
330
1BD9A
100
AcDbEntity
  8
SUNPOU
100
AcDbLine
 10
6831.405305211823
 20
2687.183932023017
 30
0.0
 11
6831.405305211823
 21
2892.183932023017
 31
0.0
  0
LINE
  5
1C16E
330
1BD9A
100
AcDbEntity
  8
SUNPOU
100
AcDbLine
 10
6920.758701212581
 20
1944.78393202302
 30
0.0
 11
6786.405305211822
 21
1944.78393202302
 31
0.0
  0
LINE
  5
1C16F
330
1BD9A
100
AcDbEntity
  8
SUNPOU
100
AcDbLine
 10
7080.758701212582
 20
2424.783932023015
 30
0.0
 11
6786.405305211824
 21
2424.783932023015
 31
0.0
  0
LINE
  5
1C170
330
1BD9A
100
AcDbEntity
  8
SUNPOU
100
AcDbLine
 10
6831.405305211823
 20
1959.783932023021
 30
0.0
 11
6831.405305211823
 21
2409.783932023015
 31
0.0
  0
LINE
  5
1C171
330
1BD9A
100
AcDbEntity
  8
SUNPOU
100
AcDbLine
 10
6920.758701212581
 20
1944.78393202302
 30
0.0
 11
6786.405305211824
 21
1944.78393202302
 31
0.0
  0
LINE
  5
1C172
330
1BD9A
100
AcDbEntity
  8
SUNPOU
100
AcDbLine
 10
6920.758701212581
 20
1784.783932023017
 30
0.0
 11
6786.405305211824
 21
1784.783932023017
 31
0.0
  0
LINE
  5
1C173
330
1BD9A
100
AcDbEntity
  8
SUNPOU
100
AcDbLine
 10
6831.405305211823
 20
1929.783932023021
 30
0.0
 11
6831.405305211823
 21
1799.783932023018
 31
0.0
  0
LINE
  5
1C174
330
1BD9A
100
AcDbEntity
  8
SUNPOU
100
AcDbLine
 10
6831.405305211823
 20
1784.783932023017
 30
0.0
 11
6831.405305211823
 21
1534.069646308732
 31
0.0
  0
LINE
  5
1C175
330
1BD9A
100
AcDbEntity
  8
SUNPOU
100
AcDbLine
 10
6988.917161404009
 20
2687.183932023017
 30
0.0
 11
6576.405305211823
 21
2687.183932023017
 31
0.0
  0
LINE
  5
1C176
330
1BD9A
100
AcDbEntity
  8
SUNPOU
100
AcDbLine
 10
6920.758701212581
 20
1784.783932023017
 30
0.0
 11
6576.405305211823
 21
1784.783932023017
 31
0.0
  0
LINE
  5
1C177
330
1BD9A
100
AcDbEntity
  8
SUNPOU
100
AcDbLine
 10
6621.405305211823
 20
2672.183932023017
 30
0.0
 11
6621.405305211823
 21
1799.783932023018
 31
0.0
  0
LINE
  5
1C178
330
1BD9A
100
AcDbEntity
  8
SUNPOU
100
AcDbLine
 10
8991.999660394943
 20
3364.184504159609
 30
0.0
 11
8931.999660394932
 21
3364.184504159609
 31
0.0
  0
LINE
  5
1C179
330
1BD9A
100
AcDbEntity
  8
SUNPOU
100
AcDbLine
 10
8991.999660394936
 20
3364.184504159609
 30
0.0
 11
8931.999660394936
 21
3380.261455705479
 31
0.0
  0
LINE
  5
1C17A
330
1BD9A
100
AcDbEntity
  8
SUNPOU
100
AcDbLine
 10
8991.999660394943
 20
3364.184504159609
 30
0.0
 11
8931.999660394932
 21
3348.10755261374
 31
0.0
  0
LINE
  5
1C17B
330
1BD9A
100
AcDbEntity
  8
SUNPOU
100
AcDbLine
 10
8931.999660394941
 20
3364.184504159609
 30
0.0
 11
8871.999660394932
 21
3364.184504159609
 31
0.0
  0
LINE
  5
1C17C
330
1BD9A
100
AcDbEntity
  8
SUNPOU
100
AcDbLine
 10
8931.999660394936
 20
3364.184504159609
 30
0.0
 11
8871.999660394937
 21
3380.261455705479
 31
0.0
  0
LINE
  5
1C17D
330
1BD9A
100
AcDbEntity
  8
SUNPOU
100
AcDbLine
 10
8931.999660394941
 20
3364.184504159609
 30
0.0
 11
8871.999660394932
 21
3348.10755261374
 31
0.0
  0
LINE
  5
1C17E
330
1BD9A
100
AcDbEntity
  8
SUNPOU
100
AcDbLine
 10
3111.915992739874
 20
1924.383932023016
 30
0.0
 11
3111.915992739874
 21
1337.383932023014
 31
0.0
  0
LINE
  5
1C17F
330
1BD9A
100
AcDbEntity
  8
SUNPOU
100
AcDbLine
 10
4071.915992739874
 20
1924.383932023016
 30
0.0
 11
4071.915992739874
 21
1337.383932023014
 31
0.0
  0
LINE
  5
1C180
330
1BD9A
100
AcDbEntity
  8
SUNPOU
100
AcDbLine
 10
3126.915992739875
 20
1382.383932023014
 30
0.0
 11
4056.915992739873
 21
1382.383932023014
 31
0.0
  0
LINE
  5
1C181
330
1BD9A
100
AcDbEntity
  8
SUNPOU
100
AcDbLine
 10
2951.915992739873
 20
1764.383932023016
 30
0.0
 11
2951.915992739873
 21
1127.383932023014
 31
0.0
  0
LINE
  5
1C182
330
1BD9A
100
AcDbEntity
  8
SUNPOU
100
AcDbLine
 10
4231.915992739871
 20
1764.383932023016
 30
0.0
 11
4231.915992739871
 21
1127.383932023014
 31
0.0
  0
LINE
  5
1C183
330
1BD9A
100
AcDbEntity
  8
SUNPOU
100
AcDbLine
 10
2966.915992739873
 20
1172.383932023014
 30
0.0
 11
4216.915992739871
 21
1172.383932023014
 31
0.0
  0
LINE
  5
1C184
330
1BD9A
100
AcDbEntity
  8
SUNPOU
100
AcDbLine
 10
2282.562596739113
 20
2607.183932023017
 30
0.0
 11
2297.562596739116
 21
2607.183932023017
 31
0.0
  0
LINE
  5
1C185
330
1BD9A
100
AcDbEntity
  8
SUNPOU
100
AcDbLine
 10
2921.915992739874
 20
2687.183932023017
 30
0.0
 11
2207.562596739115
 21
2687.183932023017
 31
0.0
  0
LINE
  5
1C186
330
1BD9A
100
AcDbEntity
  8
SUNPOU
100
AcDbLine
 10
2252.562596739116
 20
2592.183932023017
 30
0.0
 11
2252.562596739116
 21
2577.183932023017
 31
0.0
  0
LINE
  5
1C187
330
1BD9A
100
AcDbEntity
  8
SUNPOU
100
AcDbLine
 10
2252.562596739116
 20
2702.183932023017
 30
0.0
 11
2252.562596739116
 21
2904.326789165875
 31
0.0
  0
LINE
  5
1C188
330
1BD9A
100
AcDbEntity
  8
SUNPOU
100
AcDbLine
 10
2252.562596739116
 20
2607.183932023017
 30
0.0
 11
2252.562596739116
 21
2687.183932023017
 31
0.0
  0
LINE
  5
1C189
330
1BD9A
100
AcDbEntity
  8
SUNPOU
100
AcDbLine
 10
2921.915992739874
 20
2552.783932023015
 30
0.0
 11
2627.562596739117
 21
2552.783932023015
 31
0.0
  0
LINE
  5
1C18A
330
1BD9A
100
AcDbEntity
  8
SUNPOU
100
AcDbLine
 10
2921.915992739874
 20
2424.783932023011
 30
0.0
 11
2627.562596739117
 21
2424.783932023011
 31
0.0
  0
LINE
  5
1C18B
330
1BD9A
100
AcDbEntity
  8
SUNPOU
100
AcDbLine
 10
2672.562596739117
 20
2537.783932023015
 30
0.0
 11
2672.562596739117
 21
2439.783932023011
 31
0.0
  0
LINE
  5
1C18C
330
1BD9A
100
AcDbEntity
  8
SUNPOU
100
AcDbLine
 10
2921.915992739874
 20
2552.783932023016
 30
0.0
 11
2627.562596739116
 21
2552.783932023016
 31
0.0
  0
LINE
  5
1C18D
330
1BD9A
100
AcDbEntity
  8
SUNPOU
100
AcDbLine
 10
2921.915992739874
 20
2687.183932023017
 30
0.0
 11
2627.562596739116
 21
2687.183932023017
 31
0.0
  0
LINE
  5
1C18E
330
1BD9A
100
AcDbEntity
  8
SUNPOU
100
AcDbLine
 10
2672.562596739116
 20
2567.783932023017
 30
0.0
 11
2672.562596739116
 21
2672.183932023017
 31
0.0
  0
LINE
  5
1C18F
330
1BD9A
100
AcDbEntity
  8
SUNPOU
100
AcDbLine
 10
2672.562596739116
 20
2687.183932023017
 30
0.0
 11
2672.562596739116
 21
2892.183932023017
 31
0.0
  0
LINE
  5
1C190
330
1BD9A
100
AcDbEntity
  8
SUNPOU
100
AcDbLine
 10
2921.915992739873
 20
1944.783932023019
 30
0.0
 11
2627.562596739116
 21
1944.783932023019
 31
0.0
  0
LINE
  5
1C191
330
1BD9A
100
AcDbEntity
  8
SUNPOU
100
AcDbLine
 10
2921.915992739873
 20
2424.783932023013
 30
0.0
 11
2627.562596739116
 21
2424.783932023013
 31
0.0
  0
LINE
  5
1C192
330
1BD9A
100
AcDbEntity
  8
SUNPOU
100
AcDbLine
 10
2672.562596739116
 20
1959.783932023017
 30
0.0
 11
2672.562596739116
 21
2409.783932023012
 31
0.0
  0
LINE
  5
1C193
330
1BD9A
100
AcDbEntity
  8
SUNPOU
100
AcDbLine
 10
2921.915992739873
 20
1944.783932023019
 30
0.0
 11
2627.562596739116
 21
1944.783932023019
 31
0.0
  0
LINE
  5
1C194
330
1BD9A
100
AcDbEntity
  8
SUNPOU
100
AcDbLine
 10
2921.915992739873
 20
1784.783932023017
 30
0.0
 11
2627.562596739116
 21
1784.783932023017
 31
0.0
  0
LINE
  5
1C195
330
1BD9A
100
AcDbEntity
  8
SUNPOU
100
AcDbLine
 10
2672.562596739116
 20
1929.783932023019
 30
0.0
 11
2672.562596739116
 21
1799.783932023018
 31
0.0
  0
LINE
  5
1C196
330
1BD9A
100
AcDbEntity
  8
SUNPOU
100
AcDbLine
 10
2672.562596739116
 20
1784.783932023017
 30
0.0
 11
2672.562596739116
 21
1534.069646308732
 31
0.0
  0
LINE
  5
1C197
330
1BD9A
100
AcDbEntity
  8
SUNPOU
100
AcDbLine
 10
2921.915992739874
 20
2687.183932023017
 30
0.0
 11
2417.562596739115
 21
2687.183932023017
 31
0.0
  0
LINE
  5
1C198
330
1BD9A
100
AcDbEntity
  8
SUNPOU
100
AcDbLine
 10
2921.915992739873
 20
1784.783932023017
 30
0.0
 11
2417.562596739115
 21
1784.783932023018
 31
0.0
  0
LINE
  5
1C199
330
1BD9A
100
AcDbEntity
  8
SUNPOU
100
AcDbLine
 10
2462.562596739115
 20
2672.183932023017
 30
0.0
 11
2462.562596739115
 21
1799.783932023018
 31
0.0
  0
LINE
  5
1C19A
330
1BD9A
100
AcDbEntity
  8
SUNPOU
100
AcDbLine
 10
5137.146499990122
 20
3364.184504159605
 30
0.0
 11
5077.14649999011
 21
3364.184504159605
 31
0.0
  0
LINE
  5
1C19B
330
1BD9A
100
AcDbEntity
  8
SUNPOU
100
AcDbLine
 10
5137.146499990117
 20
3364.184504159605
 30
0.0
 11
5077.146499990117
 21
3380.261455705475
 31
0.0
  0
LINE
  5
1C19C
330
1BD9A
100
AcDbEntity
  8
SUNPOU
100
AcDbLine
 10
5137.146499990122
 20
3364.184504159605
 30
0.0
 11
5077.14649999011
 21
3348.107552613736
 31
0.0
  0
LINE
  5
1C19D
330
1BD9A
100
AcDbEntity
  8
SUNPOU
100
AcDbLine
 10
5077.146499990124
 20
3364.184504159605
 30
0.0
 11
5017.14649999011
 21
3364.184504159605
 31
0.0
  0
LINE
  5
1C19E
330
1BD9A
100
AcDbEntity
  8
SUNPOU
100
AcDbLine
 10
5077.146499990117
 20
3364.184504159605
 30
0.0
 11
5017.146499990118
 21
3380.261455705475
 31
0.0
  0
LINE
  5
1C19F
330
1BD9A
100
AcDbEntity
  8
SUNPOU
100
AcDbLine
 10
5077.146499990124
 20
3364.184504159605
 30
0.0
 11
5017.14649999011
 21
3348.107552613736
 31
0.0
  0
LINE
  5
1C1A0
330
1BD9A
100
AcDbEntity
  8
SUNPOU
100
AcDbLine
 10
3591.915992739874
 20
3394.184504159606
 30
0.0
 11
3591.915992739874
 21
3409.184504159606
 31
0.0
  0
LINE
  5
1C1A1
330
1BD9A
100
AcDbEntity
  8
SUNPOU
100
AcDbLine
 10
2951.915992739875
 20
2717.183932023017
 30
0.0
 11
2951.915992739875
 21
3409.184504159606
 31
0.0
  0
LINE
  5
1C1A2
330
1BD9A
100
AcDbEntity
  8
SUNPOU
100
AcDbLine
 10
3576.915992739873
 20
3364.184504159605
 30
0.0
 11
2966.915992739875
 21
3364.184504159605
 31
0.0
  0
LINE
  5
1C1A3
330
1BD9A
100
AcDbEntity
  8
SUNPOU
100
AcDbLine
 10
8979.21703198606
 20
7095.715360473253
 30
0.0
 11
8764.217031986062
 21
7095.715360473253
 31
0.0
  0
LINE
  5
1C1A4
330
1BD9A
100
AcDbEntity
  8
SUNPOU
100
AcDbLine
 10
8979.21703198606
 20
7895.715360473253
 30
0.0
 11
8764.217031986062
 21
7895.715360473253
 31
0.0
  0
LINE
  5
1C1A5
330
1BD9A
100
AcDbEntity
  8
SUNPOU
100
AcDbLine
 10
8809.217031986062
 20
7110.715360473252
 30
0.0
 11
8809.217031986062
 21
7880.715360473252
 31
0.0
  0
LINE
  5
1C1A6
330
1BD9A
100
AcDbEntity
  8
SUNPOU
100
AcDbLine
 10
9009.217031986059
 20
7925.715360473251
 30
0.0
 11
9009.217031986059
 21
8110.715360473252
 31
0.0
  0
LINE
  5
1C1A7
330
1BD9A
100
AcDbEntity
  8
SUNPOU
100
AcDbLine
 10
9809.21703198606
 20
7925.715360473251
 30
0.0
 11
9809.21703198606
 21
8110.715360473252
 31
0.0
  0
LINE
  5
1C1A8
330
1BD9A
100
AcDbEntity
  8
SUNPOU
100
AcDbLine
 10
9024.21703198606
 20
8065.715360473253
 30
0.0
 11
9794.217031986059
 21
8065.715360473253
 31
0.0
  0
LINE
  5
1C1A9
330
1BD9A
100
AcDbEntity
  8
SUNPOU
100
AcDbLine
 10
9079.217031986066
 20
9595.715360473253
 30
0.0
 11
8764.217031986062
 21
9595.715360473253
 31
0.0
  0
LINE
  5
1C1AA
330
1BD9A
100
AcDbEntity
  8
SUNPOU
100
AcDbLine
 10
9079.217031986066
 20
8995.715360473253
 30
0.0
 11
8764.217031986062
 21
8995.715360473253
 31
0.0
  0
LINE
  5
1C1AB
330
1BD9A
100
AcDbEntity
  8
SUNPOU
100
AcDbLine
 10
8809.217031986062
 20
9580.715360473252
 30
0.0
 11
8809.217031986062
 21
9010.715360473252
 31
0.0
  0
LINE
  5
1C1AC
330
1BD9A
100
AcDbEntity
  8
SUNPOU
100
AcDbLine
 10
9109.217031986066
 20
8965.71536047325
 30
0.0
 11
9109.217031986066
 21
8650.715360473251
 31
0.0
  0
LINE
  5
1C1AD
330
1BD9A
100
AcDbEntity
  8
SUNPOU
100
AcDbLine
 10
9709.217031986066
 20
8965.71536047325
 30
0.0
 11
9709.217031986066
 21
8650.715360473251
 31
0.0
  0
LINE
  5
1C1AE
330
1BD9A
100
AcDbEntity
  8
SUNPOU
100
AcDbLine
 10
9124.217031986065
 20
8695.715360473251
 30
0.0
 11
9694.217031986065
 21
8695.715360473251
 31
0.0
  0
LINE
  5
1C1AF
330
1BD9A
100
AcDbEntity
  8
SUNPOU
100
AcDbLine
 10
9409.217031986059
 20
9725.715360473252
 30
0.0
 11
9409.217031986059
 21
10040.71536047325
 31
0.0
  0
LINE
  5
1C1B0
330
1BD9A
100
AcDbEntity
  8
SUNPOU
100
AcDbLine
 10
9809.21703198606
 20
9625.715360473252
 30
0.0
 11
9809.21703198606
 21
10040.71536047325
 31
0.0
  0
LINE
  5
1C1B1
330
1BD9A
100
AcDbEntity
  8
SUNPOU
100
AcDbLine
 10
9424.21703198606
 20
9995.715360473253
 30
0.0
 11
9794.217031986059
 21
9995.715360473253
 31
0.0
  0
LINE
  5
1C1B2
330
1BD9A
100
AcDbEntity
  8
SUNPOU
100
AcDbLine
 10
6559.21703198606
 20
9625.715360473252
 30
0.0
 11
6559.21703198606
 21
10250.71536047325
 31
0.0
  0
LINE
  5
1C1B3
330
1BD9A
100
AcDbEntity
  8
SUNPOU
100
AcDbLine
 10
9809.21703198606
 20
9625.715360473252
 30
0.0
 11
9809.21703198606
 21
10250.71536047325
 31
0.0
  0
LINE
  5
1C1B4
330
1BD9A
100
AcDbEntity
  8
SUNPOU
100
AcDbLine
 10
6574.21703198606
 20
10205.71536047325
 30
0.0
 11
9794.217031986059
 21
10205.71536047325
 31
0.0
  0
LINE
  5
1C1B5
330
1BD9A
100
AcDbEntity
  8
SUNPOU
100
AcDbLine
 10
9409.217031986059
 20
9725.715360473252
 30
0.0
 11
9409.217031986059
 21
10040.71536047325
 31
0.0
  0
LINE
  5
1C1B6
330
1BD9A
100
AcDbEntity
  8
SUNPOU
100
AcDbLine
 10
6959.21703198606
 20
9725.715360473252
 30
0.0
 11
6959.21703198606
 21
10040.71536047325
 31
0.0
  0
LINE
  5
1C1B7
330
1BD9A
100
AcDbEntity
  8
SUNPOU
100
AcDbLine
 10
9394.217031986059
 20
9995.715360473253
 30
0.0
 11
6974.217031986061
 21
9995.715360473253
 31
0.0
  0
LINE
  5
1C1B8
330
1BD9A
100
AcDbEntity
  8
SUNPOU
100
AcDbLine
 10
6959.21703198606
 20
9725.715360473252
 30
0.0
 11
6959.21703198606
 21
10040.71536047325
 31
0.0
  0
LINE
  5
1C1B9
330
1BD9A
100
AcDbEntity
  8
SUNPOU
100
AcDbLine
 10
6559.21703198606
 20
9625.715360473252
 30
0.0
 11
6559.21703198606
 21
10040.71536047325
 31
0.0
  0
LINE
  5
1C1BA
330
1BD9A
100
AcDbEntity
  8
SUNPOU
100
AcDbLine
 10
6944.21703198606
 20
9995.715360473253
 30
0.0
 11
6574.21703198606
 21
9995.715360473253
 31
0.0
  0
LINE
  5
1C1BB
330
1BD9A
100
AcDbEntity
  8
SUNPOU
100
AcDbLine
 10
10179.21703198606
 20
9295.715360473252
 30
0.0
 11
10164.21703198606
 21
9295.715360473252
 31
0.0
  0
LINE
  5
1C1BC
330
1BD9A
100
AcDbEntity
  8
SUNPOU
100
AcDbLine
 10
9839.217031986059
 20
9595.715360473253
 30
0.0
 11
10254.21703198605
 21
9595.715360473253
 31
0.0
  0
LINE
  5
1C1BD
330
1BD9A
100
AcDbEntity
  8
SUNPOU
100
AcDbLine
 10
10209.21703198605
 20
9310.715360473251
 30
0.0
 11
10209.21703198605
 21
9580.715360473252
 31
0.0
  0
LINE
  5
1C1BE
330
1BD9A
100
AcDbEntity
  8
SUNPOU
100
AcDbLine
 10
10179.21703198606
 20
7495.715360473251
 30
0.0
 11
10164.21703198606
 21
7495.715360473251
 31
0.0
  0
LINE
  5
1C1BF
330
1BD9A
100
AcDbEntity
  8
SUNPOU
100
AcDbLine
 10
10179.21703198606
 20
9295.715360473252
 30
0.0
 11
10164.21703198606
 21
9295.715360473252
 31
0.0
  0
LINE
  5
1C1C0
330
1BD9A
100
AcDbEntity
  8
SUNPOU
100
AcDbLine
 10
10209.21703198605
 20
7510.715360473252
 30
0.0
 11
10209.21703198605
 21
9280.71536047325
 31
0.0
  0
LINE
  5
1C1C1
330
1BD9A
100
AcDbEntity
  8
SUNPOU
100
AcDbLine
 10
10179.21703198606
 20
5695.715360473252
 30
0.0
 11
10164.21703198606
 21
5695.715360473252
 31
0.0
  0
LINE
  5
1C1C2
330
1BD9A
100
AcDbEntity
  8
SUNPOU
100
AcDbLine
 10
10179.21703198606
 20
7495.715360473251
 30
0.0
 11
10164.21703198606
 21
7495.715360473251
 31
0.0
  0
LINE
  5
1C1C3
330
1BD9A
100
AcDbEntity
  8
SUNPOU
100
AcDbLine
 10
10209.21703198605
 20
5710.715360473252
 30
0.0
 11
10209.21703198605
 21
7480.715360473252
 31
0.0
  0
LINE
  5
1C1C4
330
1BD9A
100
AcDbEntity
  8
SUNPOU
100
AcDbLine
 10
9839.217031986059
 20
5395.715360473253
 30
0.0
 11
10254.21703198605
 21
5395.715360473251
 31
0.0
  0
LINE
  5
1C1C5
330
1BD9A
100
AcDbEntity
  8
SUNPOU
100
AcDbLine
 10
10179.21703198606
 20
5695.715360473252
 30
0.0
 11
10164.21703198606
 21
5695.715360473252
 31
0.0
  0
LINE
  5
1C1C6
330
1BD9A
100
AcDbEntity
  8
SUNPOU
100
AcDbLine
 10
10209.21703198605
 20
5410.715360473252
 30
0.0
 11
10209.21703198605
 21
5680.715360473252
 31
0.0
  0
LINE
  5
1C1C7
330
1BD9A
100
AcDbEntity
  8
SUNPOU
100
AcDbLine
 10
9839.217031986059
 20
5395.715360473253
 30
0.0
 11
10464.21703198606
 21
5395.715360473251
 31
0.0
  0
LINE
  5
1C1C8
330
1BD9A
100
AcDbEntity
  8
SUNPOU
100
AcDbLine
 10
9839.217031986059
 20
9595.715360473253
 30
0.0
 11
10464.21703198606
 21
9595.715360473253
 31
0.0
  0
LINE
  5
1C1C9
330
1BD9A
100
AcDbEntity
  8
SUNPOU
100
AcDbLine
 10
10419.21703198606
 20
5410.71536047325
 30
0.0
 11
10419.21703198606
 21
9580.715360473252
 31
0.0
  0
LINE
  5
1C1CA
330
1BD9A
100
AcDbEntity
  8
SUNPOU
100
AcDbLine
 10
12185.58860891544
 20
2317.764250367019
 30
0.0
 11
12185.58860891544
 21
2048.424883029956
 31
0.0
  0
LINE
  5
1C1CB
330
1BD9A
100
AcDbEntity
  8
SUNPOU
100
AcDbLine
 10
12265.58860891543
 20
2357.764250367019
 30
0.0
 11
12265.58860891543
 21
2048.424883029956
 31
0.0
  0
LINE
  5
1C1CC
330
1BD9A
100
AcDbEntity
  8
SUNPOU
100
AcDbLine
 10
12170.58860891544
 20
2093.424883029956
 30
0.0
 11
12155.58860891543
 21
2093.424883029956
 31
0.0
  0
LINE
  5
1C1CD
330
1BD9A
100
AcDbEntity
  8
SUNPOU
100
AcDbLine
 10
12280.58860891543
 20
2093.424883029956
 30
0.0
 11
12482.7314660583
 21
2093.424883029956
 31
0.0
  0
LINE
  5
1C1CE
330
1BD9A
100
AcDbEntity
  8
SUNPOU
100
AcDbLine
 10
12185.58860891544
 20
2093.424883029956
 30
0.0
 11
12265.58860891543
 21
2093.424883029956
 31
0.0
  0
LINE
  5
1C1CF
330
1BD9A
100
AcDbEntity
  8
SUNPOU
100
AcDbLine
 10
11705.58860891545
 20
2317.764250367019
 30
0.0
 11
11705.58860891545
 21
2048.424883029956
 31
0.0
  0
LINE
  5
1C1D0
330
1BD9A
100
AcDbEntity
  8
SUNPOU
100
AcDbLine
 10
12185.58860891544
 20
2317.764250367019
 30
0.0
 11
12185.58860891544
 21
2048.424883029956
 31
0.0
  0
LINE
  5
1C1D1
330
1BD9A
100
AcDbEntity
  8
SUNPOU
100
AcDbLine
 10
11720.58860891544
 20
2093.424883029956
 30
0.0
 11
12170.58860891544
 21
2093.424883029956
 31
0.0
  0
LINE
  5
1C1D2
330
1BD9A
100
AcDbEntity
  8
SUNPOU
100
AcDbLine
 10
11705.58860891545
 20
2317.764250367019
 30
0.0
 11
11705.58860891545
 21
2048.424883029956
 31
0.0
  0
LINE
  5
1C1D3
330
1BD9A
100
AcDbEntity
  8
SUNPOU
100
AcDbLine
 10
11625.58860891544
 20
2357.764250367019
 30
0.0
 11
11625.58860891544
 21
2048.424883029956
 31
0.0
  0
LINE
  5
1C1D4
330
1BD9A
100
AcDbEntity
  8
SUNPOU
100
AcDbLine
 10
11720.58860891544
 20
2093.424883029956
 30
0.0
 11
11735.58860891545
 21
2093.424883029956
 31
0.0
  0
LINE
  5
1C1D5
330
1BD9A
100
AcDbEntity
  8
SUNPOU
100
AcDbLine
 10
11610.58860891543
 20
2093.424883029956
 30
0.0
 11
11408.44575177258
 21
2093.424883029956
 31
0.0
  0
LINE
  5
1C1D6
330
1BD9A
100
AcDbEntity
  8
SUNPOU
100
AcDbLine
 10
11705.58860891545
 20
2093.424883029956
 30
0.0
 11
11625.58860891544
 21
2093.424883029956
 31
0.0
  0
LINE
  5
1C1D7
330
1BD9A
100
AcDbEntity
  8
SUNPOU
100
AcDbLine
 10
11625.58860891544
 20
2357.764250367019
 30
0.0
 11
11625.58860891544
 21
1838.424883029956
 31
0.0
  0
LINE
  5
1C1D8
330
1BD9A
100
AcDbEntity
  8
SUNPOU
100
AcDbLine
 10
12265.58860891543
 20
2357.764250367019
 30
0.0
 11
12265.58860891543
 21
1838.424883029956
 31
0.0
  0
LINE
  5
1C1D9
330
1BD9A
100
AcDbEntity
  8
SUNPOU
100
AcDbLine
 10
11640.58860891543
 20
1883.424883029956
 30
0.0
 11
12250.58860891544
 21
1883.424883029956
 31
0.0
  0
LINE
  5
1C1DA
330
1BD9A
100
AcDbEntity
  8
SUNPOU
100
AcDbLine
 10
11599.58860891543
 20
2547.76425036702
 30
0.0
 11
11277.58860891543
 21
2547.76425036702
 31
0.0
  0
LINE
  5
1C1DB
330
1BD9A
100
AcDbEntity
  8
SUNPOU
100
AcDbLine
 10
11595.58860891543
 20
2387.764250367019
 30
0.0
 11
11277.58860891543
 21
2387.764250367019
 31
0.0
  0
LINE
  5
1C1DC
330
1BD9A
100
AcDbEntity
  8
SUNPOU
100
AcDbLine
 10
11322.58860891544
 20
2532.76425036702
 30
0.0
 11
11322.58860891544
 21
2402.764250367019
 31
0.0
  0
LINE
  5
1C1DD
330
1BD9A
100
AcDbEntity
  8
SUNPOU
100
AcDbLine
 10
11322.58860891544
 20
2387.764250367019
 30
0.0
 11
11322.58860891544
 21
2185.621393224163
 31
0.0
  0
LINE
  5
1C1DE
330
1BD9A
100
AcDbEntity
  8
SUNPOU
100
AcDbLine
 10
11599.58860891543
 20
2547.76425036702
 30
0.0
 11
11277.58860891543
 21
2547.76425036702
 31
0.0
  0
LINE
  5
1C1DF
330
1BD9A
100
AcDbEntity
  8
SUNPOU
100
AcDbLine
 10
11595.58860891543
 20
2707.76425036702
 30
0.0
 11
11277.58860891543
 21
2707.76425036702
 31
0.0
  0
LINE
  5
1C1E0
330
1BD9A
100
AcDbEntity
  8
SUNPOU
100
AcDbLine
 10
11322.58860891544
 20
2562.76425036702
 30
0.0
 11
11322.58860891544
 21
2692.764250367019
 31
0.0
  0
LINE
  5
1C1E1
330
1BD9A
100
AcDbEntity
  8
SUNPOU
100
AcDbLine
 10
11322.58860891544
 20
2707.76425036702
 30
0.0
 11
11322.58860891544
 21
2909.907107509877
 31
0.0
  0
LINE
  5
1C1E2
330
1BD9A
100
AcDbEntity
  8
SUNPOU
100
AcDbLine
 10
11595.58860891543
 20
2387.764250367019
 30
0.0
 11
11067.58860891543
 21
2387.764250367019
 31
0.0
  0
LINE
  5
1C1E3
330
1BD9A
100
AcDbEntity
  8
SUNPOU
100
AcDbLine
 10
11595.58860891543
 20
2707.76425036702
 30
0.0
 11
11067.58860891543
 21
2707.76425036702
 31
0.0
  0
LINE
  5
1C1E4
330
1BD9A
100
AcDbEntity
  8
SUNPOU
100
AcDbLine
 10
11112.58860891543
 20
2402.76425036702
 30
0.0
 11
11112.58860891543
 21
2692.764250367019
 31
0.0
  0
LINE
  5
1C1E5
330
1BD9A
100
AcDbEntity
  8
SUNPOU
100
AcDbLine
 10
12185.58860891544
 20
3395.95694289843
 30
0.0
 11
12185.58860891544
 21
3196.790768968928
 31
0.0
  0
LINE
  5
1C1E6
330
1BD9A
100
AcDbEntity
  8
SUNPOU
100
AcDbLine
 10
12265.58860891543
 20
3435.95694289843
 30
0.0
 11
12265.58860891543
 21
3196.790768968928
 31
0.0
  0
LINE
  5
1C1E7
330
1BD9A
100
AcDbEntity
  8
SUNPOU
100
AcDbLine
 10
12170.58860891544
 20
3241.790768968928
 30
0.0
 11
12155.58860891543
 21
3241.790768968928
 31
0.0
  0
LINE
  5
1C1E8
330
1BD9A
100
AcDbEntity
  8
SUNPOU
100
AcDbLine
 10
12280.58860891543
 20
3241.790768968928
 30
0.0
 11
12482.7314660583
 21
3241.790768968928
 31
0.0
  0
LINE
  5
1C1E9
330
1BD9A
100
AcDbEntity
  8
SUNPOU
100
AcDbLine
 10
12185.58860891544
 20
3241.790768968928
 30
0.0
 11
12265.58860891543
 21
3241.790768968928
 31
0.0
  0
LINE
  5
1C1EA
330
1BD9A
100
AcDbEntity
  8
SUNPOU
100
AcDbLine
 10
11705.58860891545
 20
3395.95694289843
 30
0.0
 11
11705.58860891545
 21
3196.790768968928
 31
0.0
  0
LINE
  5
1C1EB
330
1BD9A
100
AcDbEntity
  8
SUNPOU
100
AcDbLine
 10
12185.58860891544
 20
3395.95694289843
 30
0.0
 11
12185.58860891544
 21
3196.790768968928
 31
0.0
  0
LINE
  5
1C1EC
330
1BD9A
100
AcDbEntity
  8
SUNPOU
100
AcDbLine
 10
11720.58860891544
 20
3241.790768968928
 30
0.0
 11
12170.58860891544
 21
3241.790768968928
 31
0.0
  0
LINE
  5
1C1ED
330
1BD9A
100
AcDbEntity
  8
SUNPOU
100
AcDbLine
 10
11705.58860891545
 20
3395.95694289843
 30
0.0
 11
11705.58860891545
 21
3196.790768968928
 31
0.0
  0
LINE
  5
1C1EE
330
1BD9A
100
AcDbEntity
  8
SUNPOU
100
AcDbLine
 10
11625.58860891544
 20
3435.95694289843
 30
0.0
 11
11625.58860891544
 21
3196.790768968928
 31
0.0
  0
LINE
  5
1C1EF
330
1BD9A
100
AcDbEntity
  8
SUNPOU
100
AcDbLine
 10
11720.58860891544
 20
3241.790768968928
 30
0.0
 11
11735.58860891545
 21
3241.790768968928
 31
0.0
  0
LINE
  5
1C1F0
330
1BD9A
100
AcDbEntity
  8
SUNPOU
100
AcDbLine
 10
11610.58860891543
 20
3241.790768968928
 30
0.0
 11
11408.44575177258
 21
3241.790768968928
 31
0.0
  0
LINE
  5
1C1F1
330
1BD9A
100
AcDbEntity
  8
SUNPOU
100
AcDbLine
 10
11705.58860891545
 20
3241.790768968928
 30
0.0
 11
11625.58860891544
 21
3241.790768968928
 31
0.0
  0
LINE
  5
1C1F2
330
1BD9A
100
AcDbEntity
  8
SUNPOU
100
AcDbLine
 10
11625.58860891544
 20
3435.95694289843
 30
0.0
 11
11625.58860891544
 21
2986.790768968928
 31
0.0
  0
LINE
  5
1C1F3
330
1BD9A
100
AcDbEntity
  8
SUNPOU
100
AcDbLine
 10
12265.58860891543
 20
3435.95694289843
 30
0.0
 11
12265.58860891543
 21
2986.790768968928
 31
0.0
  0
LINE
  5
1C1F4
330
1BD9A
100
AcDbEntity
  8
SUNPOU
100
AcDbLine
 10
11640.58860891543
 20
3031.790768968928
 30
0.0
 11
12250.58860891544
 21
3031.790768968928
 31
0.0
  0
ARC
  5
1C1F5
330
1BD9A
100
AcDbEntity
  8
SUNPOU
100
AcDbCircle
 10
7750.758701212581
 20
3364.184504159609
 30
0.0
 40
5.625
100
AcDbArc
 50
90.0
 51
270.0
  0
ARC
  5
1C1F6
330
1BD9A
100
AcDbEntity
  8
SUNPOU
100
AcDbCircle
 10
7750.758701212581
 20
3364.184504159609
 30
0.0
 40
5.625
100
AcDbArc
 50
270.0
 51
90.0
  0
TEXT
  5
1C1F7
330
1BD9A
100
AcDbEntity
  8
SUNPOU
100
AcDbText
 10
7665.044415498297
 20
1427.383932023019
 30
0.0
 40
90.0
  1
800
 41
0.6666666666666666
  7
00
100
AcDbText
  0
LINE
  5
1C1F8
330
1BD9A
100
AcDbEntity
  8
SUNPOU
100
AcDbLine
 10
8379.508701212579
 20
1382.383932023019
 30
0.0
 11
8368.25870121258
 21
1382.383932023019
 31
0.0
  0
LINE
  5
1C1F9
330
1BD9A
100
AcDbEntity
  8
SUNPOU
100
AcDbLine
 10
7122.008701212583
 20
1382.383932023019
 30
0.0
 11
7133.258701212581
 21
1382.383932023019
 31
0.0
  0
TEXT
  5
1C1FA
330
1BD9A
100
AcDbEntity
  8
SUNPOU
100
AcDbText
 10
7632.187272641154
 20
1217.38393202302
 30
0.0
 40
90.0
  1
1000
 41
0.6666666666666666
  7
00
100
AcDbText
  0
LINE
  5
1C1FB
330
1BD9A
100
AcDbEntity
  8
SUNPOU
100
AcDbLine
 10
8539.508701212579
 20
1172.38393202302
 30
0.0
 11
8528.258701212578
 21
1172.38393202302
 31
0.0
  0
LINE
  5
1C1FC
330
1BD9A
100
AcDbEntity
  8
SUNPOU
100
AcDbLine
 10
6962.008701212581
 20
1172.38393202302
 30
0.0
 11
6973.25870121258
 21
1172.38393202302
 31
0.0
  0
TEXT
  5
1C1FD
330
1BD9A
100
AcDbEntity
  8
SUNPOU
100
AcDbText
 10
6786.405305211824
 20
2431.641074880161
 30
0.0
 40
90.0
  1
80
 50
90.0
 41
0.6666666666666666
  7
00
100
AcDbText
  0
LINE
  5
1C1FE
330
1BD9A
100
AcDbEntity
  8
SUNPOU
100
AcDbLine
 10
6831.405305211823
 20
2436.033932023015
 30
0.0
 11
6831.405305211823
 21
2447.283932023015
 31
0.0
  0
LINE
  5
1C1FF
330
1BD9A
100
AcDbEntity
  8
SUNPOU
100
AcDbLine
 10
6831.405305211823
 20
2541.53393202302
 30
0.0
 11
6831.405305211823
 21
2530.283932023019
 31
0.0
  0
TEXT
  5
1C200
330
1BD9A
100
AcDbEntity
  8
SUNPOU
100
AcDbText
 10
6786.405305211822
 20
2738.612503451589
 30
0.0
 40
90.0
  1
84
 50
90.0
 41
0.6666666666666666
  7
00
100
AcDbText
  0
LINE
  5
1C201
330
1BD9A
100
AcDbEntity
  8
SUNPOU
100
AcDbLine
 10
6831.405305211823
 20
2675.933932023017
 30
0.0
 11
6831.405305211823
 21
2664.683932023017
 31
0.0
  0
LINE
  5
1C202
330
1BD9A
100
AcDbEntity
  8
SUNPOU
100
AcDbLine
 10
6831.405305211823
 20
2564.033932023017
 30
0.0
 11
6831.405305211823
 21
2575.283932023017
 31
0.0
  0
TEXT
  5
1C203
330
1BD9A
100
AcDbEntity
  8
SUNPOU
100
AcDbText
 10
6786.405305211822
 20
2099.069646308733
 30
0.0
 40
90.0
  1
300
 50
90.0
 41
0.6666666666666666
  7
00
100
AcDbText
  0
LINE
  5
1C204
330
1BD9A
100
AcDbEntity
  8
SUNPOU
100
AcDbLine
 10
6831.405305211823
 20
2413.533932023015
 30
0.0
 11
6831.405305211823
 21
2402.283932023015
 31
0.0
  0
LINE
  5
1C205
330
1BD9A
100
AcDbEntity
  8
SUNPOU
100
AcDbLine
 10
6831.405305211823
 20
1956.033932023021
 30
0.0
 11
6831.405305211823
 21
1967.283932023021
 31
0.0
  0
TEXT
  5
1C206
330
1BD9A
100
AcDbEntity
  8
SUNPOU
100
AcDbText
 10
6786.405305211824
 20
1561.926789165875
 30
0.0
 40
90.0
  1
100
 50
90.0
 41
0.6666666666666666
  7
00
100
AcDbText
  0
LINE
  5
1C207
330
1BD9A
100
AcDbEntity
  8
SUNPOU
100
AcDbLine
 10
6831.405305211823
 20
1796.033932023018
 30
0.0
 11
6831.405305211823
 21
1807.283932023018
 31
0.0
  0
LINE
  5
1C208
330
1BD9A
100
AcDbEntity
  8
SUNPOU
100
AcDbLine
 10
6831.405305211823
 20
1933.533932023021
 30
0.0
 11
6831.405305211823
 21
1922.283932023021
 31
0.0
  0
TEXT
  5
1C209
330
1BD9A
100
AcDbEntity
  8
SUNPOU
100
AcDbText
 10
6576.405305211823
 20
2148.841074880162
 30
0.0
 40
90.0
  1
564
 50
90.0
 41
0.6666666666666666
  7
00
100
AcDbText
  0
LINE
  5
1C20A
330
1BD9A
100
AcDbEntity
  8
SUNPOU
100
AcDbLine
 10
6621.405305211823
 20
1796.033932023018
 30
0.0
 11
6621.405305211823
 21
1807.283932023018
 31
0.0
  0
LINE
  5
1C20B
330
1BD9A
100
AcDbEntity
  8
SUNPOU
100
AcDbLine
 10
6621.405305211823
 20
2675.933932023017
 30
0.0
 11
6621.405305211823
 21
2664.683932023017
 31
0.0
  0
TEXT
  5
1C20C
330
1BD9A
100
AcDbEntity
  8
SUNPOU
100
AcDbText
 10
3504.773135597017
 20
1427.383932023013
 30
0.0
 40
90.0
  1
600
 41
0.6666666666666666
  7
00
100
AcDbText
  0
LINE
  5
1C20D
330
1BD9A
100
AcDbEntity
  8
SUNPOU
100
AcDbLine
 10
4060.665992739873
 20
1382.383932023014
 30
0.0
 11
4049.415992739874
 21
1382.383932023014
 31
0.0
  0
LINE
  5
1C20E
330
1BD9A
100
AcDbEntity
  8
SUNPOU
100
AcDbLine
 10
3123.165992739874
 20
1382.383932023014
 30
0.0
 11
3134.415992739874
 21
1382.383932023014
 31
0.0
  0
TEXT
  5
1C20F
330
1BD9A
100
AcDbEntity
  8
SUNPOU
100
AcDbText
 10
3506.201707025587
 20
1217.383932023014
 30
0.0
 40
90.0
  1
800
 41
0.6666666666666666
  7
00
100
AcDbText
  0
LINE
  5
1C210
330
1BD9A
100
AcDbEntity
  8
SUNPOU
100
AcDbLine
 10
4220.665992739871
 20
1172.383932023014
 30
0.0
 11
4209.415992739871
 21
1172.383932023014
 31
0.0
  0
LINE
  5
1C211
330
1BD9A
100
AcDbEntity
  8
SUNPOU
100
AcDbLine
 10
2963.165992739872
 20
1172.383932023014
 30
0.0
 11
2974.415992739873
 21
1172.383932023014
 31
0.0
  0
TEXT
  5
1C212
330
1BD9A
100
AcDbEntity
  8
SUNPOU
100
AcDbText
 10
2207.562596739115
 20
2753.612503451589
 30
0.0
 40
90.0
  1
50
 50
90.0
 41
0.6666666666666666
  7
00
100
AcDbText
  0
LINE
  5
1C213
330
1BD9A
100
AcDbEntity
  8
SUNPOU
100
AcDbLine
 10
2252.562596739116
 20
2698.433932023017
 30
0.0
 11
2252.562596739116
 21
2709.683932023017
 31
0.0
  0
LINE
  5
1C214
330
1BD9A
100
AcDbEntity
  8
SUNPOU
100
AcDbLine
 10
2252.562596739116
 20
2595.933932023017
 30
0.0
 11
2252.562596739116
 21
2584.683932023017
 31
0.0
  0
TEXT
  5
1C215
330
1BD9A
100
AcDbEntity
  8
SUNPOU
100
AcDbText
 10
2627.562596739117
 20
2431.641074880156
 30
0.0
 40
90.0
  1
80
 50
90.0
 41
0.6666666666666666
  7
00
100
AcDbText
  0
LINE
  5
1C216
330
1BD9A
100
AcDbEntity
  8
SUNPOU
100
AcDbLine
 10
2672.562596739117
 20
2436.033932023011
 30
0.0
 11
2672.562596739117
 21
2447.28393202301
 31
0.0
  0
LINE
  5
1C217
330
1BD9A
100
AcDbEntity
  8
SUNPOU
100
AcDbLine
 10
2672.562596739117
 20
2541.533932023015
 30
0.0
 11
2672.562596739117
 21
2530.283932023015
 31
0.0
  0
TEXT
  5
1C218
330
1BD9A
100
AcDbEntity
  8
SUNPOU
100
AcDbText
 10
2627.562596739115
 20
2738.612503451589
 30
0.0
 40
90.0
  1
84
 50
90.0
 41
0.6666666666666666
  7
00
100
AcDbText
  0
LINE
  5
1C219
330
1BD9A
100
AcDbEntity
  8
SUNPOU
100
AcDbLine
 10
2672.562596739116
 20
2675.933932023017
 30
0.0
 11
2672.562596739116
 21
2664.683932023017
 31
0.0
  0
LINE
  5
1C21A
330
1BD9A
100
AcDbEntity
  8
SUNPOU
100
AcDbLine
 10
2672.562596739116
 20
2564.033932023017
 30
0.0
 11
2672.562596739116
 21
2575.283932023017
 31
0.0
  0
TEXT
  5
1C21B
330
1BD9A
100
AcDbEntity
  8
SUNPOU
100
AcDbText
 10
2627.562596739115
 20
2099.069646308731
 30
0.0
 40
90.0
  1
300
 50
90.0
 41
0.6666666666666666
  7
00
100
AcDbText
  0
LINE
  5
1C21C
330
1BD9A
100
AcDbEntity
  8
SUNPOU
100
AcDbLine
 10
2672.562596739116
 20
2413.533932023013
 30
0.0
 11
2672.562596739116
 21
2402.283932023012
 31
0.0
  0
LINE
  5
1C21D
330
1BD9A
100
AcDbEntity
  8
SUNPOU
100
AcDbLine
 10
2672.562596739116
 20
1956.033932023018
 30
0.0
 11
2672.562596739116
 21
1967.283932023018
 31
0.0
  0
TEXT
  5
1C21E
330
1BD9A
100
AcDbEntity
  8
SUNPOU
100
AcDbText
 10
2627.562596739115
 20
1561.926789165875
 30
0.0
 40
90.0
  1
100
 50
90.0
 41
0.6666666666666666
  7
00
100
AcDbText
  0
LINE
  5
1C21F
330
1BD9A
100
AcDbEntity
  8
SUNPOU
100
AcDbLine
 10
2672.562596739116
 20
1796.033932023019
 30
0.0
 11
2672.562596739116
 21
1807.283932023018
 31
0.0
  0
LINE
  5
1C220
330
1BD9A
100
AcDbEntity
  8
SUNPOU
100
AcDbLine
 10
2672.562596739116
 20
1933.533932023019
 30
0.0
 11
2672.562596739116
 21
1922.283932023018
 31
0.0
  0
TEXT
  5
1C221
330
1BD9A
100
AcDbEntity
  8
SUNPOU
100
AcDbText
 10
2417.562596739115
 20
2148.841074880162
 30
0.0
 40
90.0
  1
564
 50
90.0
 41
0.6666666666666666
  7
00
100
AcDbText
  0
LINE
  5
1C222
330
1BD9A
100
AcDbEntity
  8
SUNPOU
100
AcDbLine
 10
2462.562596739115
 20
1796.033932023019
 30
0.0
 11
2462.562596739115
 21
1807.283932023019
 31
0.0
  0
LINE
  5
1C223
330
1BD9A
100
AcDbEntity
  8
SUNPOU
100
AcDbLine
 10
2462.562596739115
 20
2675.933932023017
 30
0.0
 11
2462.562596739115
 21
2664.683932023017
 31
0.0
  0
TEXT
  5
1C224
330
1BD9A
100
AcDbEntity
  8
SUNPOU
100
AcDbText
 10
3186.201707025588
 20
3409.184504159606
 30
0.0
 40
90.0
  1
400
 41
0.6666666666666666
  7
00
100
AcDbText
  0
LINE
  5
1C225
330
1BD9A
100
AcDbEntity
  8
SUNPOU
100
AcDbLine
 10
2963.165992739875
 20
3364.184504159605
 30
0.0
 11
2974.415992739875
 21
3364.184504159605
 31
0.0
  0
LINE
  5
1C226
330
1BD9A
100
AcDbEntity
  8
SUNPOU
100
AcDbLine
 10
3580.665992739874
 20
3364.184504159605
 30
0.0
 11
3569.415992739874
 21
3364.184504159605
 31
0.0
  0
TEXT
  5
1C227
330
1BD9A
100
AcDbEntity
  8
SUNPOU
100
AcDbText
 10
8764.217031986062
 20
7410.001074758966
 30
0.0
 40
90.0
  1
800
 50
90.0
 41
0.6666666666666666
  7
00
100
AcDbText
  0
LINE
  5
1C228
330
1BD9A
100
AcDbEntity
  8
SUNPOU
100
AcDbLine
 10
8809.217031986062
 20
7884.465360473253
 30
0.0
 11
8809.217031986062
 21
7873.215360473252
 31
0.0
  0
LINE
  5
1C229
330
1BD9A
100
AcDbEntity
  8
SUNPOU
100
AcDbLine
 10
8809.217031986062
 20
7106.965360473252
 30
0.0
 11
8809.217031986062
 21
7118.215360473252
 31
0.0
  0
TEXT
  5
1C22A
330
1BD9A
100
AcDbEntity
  8
SUNPOU
100
AcDbText
 10
9323.502746271772
 20
8110.715360473252
 30
0.0
 40
90.0
  1
800
 41
0.6666666666666666
  7
00
100
AcDbText
  0
LINE
  5
1C22B
330
1BD9A
100
AcDbEntity
  8
SUNPOU
100
AcDbLine
 10
9797.967031986061
 20
8065.715360473253
 30
0.0
 11
9786.717031986061
 21
8065.715360473253
 31
0.0
  0
LINE
  5
1C22C
330
1BD9A
100
AcDbEntity
  8
SUNPOU
100
AcDbLine
 10
9020.46703198606
 20
8065.715360473253
 30
0.0
 11
9031.71703198606
 21
8065.715360473253
 31
0.0
  0
TEXT
  5
1C22D
330
1BD9A
100
AcDbEntity
  8
SUNPOU
100
AcDbText
 10
8764.217031986062
 20
9208.572503330399
 30
0.0
 40
90.0
  1
600
 50
90.0
 41
0.6666666666666666
  7
00
100
AcDbText
  0
LINE
  5
1C22E
330
1BD9A
100
AcDbEntity
  8
SUNPOU
100
AcDbLine
 10
8809.217031986062
 20
9006.96536047325
 30
0.0
 11
8809.217031986062
 21
9018.215360473252
 31
0.0
  0
LINE
  5
1C22F
330
1BD9A
100
AcDbEntity
  8
SUNPOU
100
AcDbLine
 10
8809.217031986062
 20
9584.465360473252
 30
0.0
 11
8809.217031986062
 21
9573.215360473252
 31
0.0
  0
TEXT
  5
1C230
330
1BD9A
100
AcDbEntity
  8
SUNPOU
100
AcDbText
 10
9322.074174843205
 20
8740.715360473251
 30
0.0
 40
90.0
  1
600
 41
0.6666666666666666
  7
00
100
AcDbText
  0
LINE
  5
1C231
330
1BD9A
100
AcDbEntity
  8
SUNPOU
100
AcDbLine
 10
9697.967031986067
 20
8695.715360473251
 30
0.0
 11
9686.717031986065
 21
8695.715360473251
 31
0.0
  0
LINE
  5
1C232
330
1BD9A
100
AcDbEntity
  8
SUNPOU
100
AcDbLine
 10
9120.467031986065
 20
8695.715360473251
 30
0.0
 11
9131.717031986065
 21
8695.715360473251
 31
0.0
  0
TEXT
  5
1C233
330
1BD9A
100
AcDbEntity
  8
SUNPOU
100
AcDbText
 10
9523.502746271772
 20
10040.71536047325
 30
0.0
 40
90.0
  1
400
 41
0.6666666666666666
  7
00
100
AcDbText
  0
LINE
  5
1C234
330
1BD9A
100
AcDbEntity
  8
SUNPOU
100
AcDbLine
 10
9797.967031986061
 20
9995.715360473253
 30
0.0
 11
9786.717031986061
 21
9995.715360473253
 31
0.0
  0
LINE
  5
1C235
330
1BD9A
100
AcDbEntity
  8
SUNPOU
100
AcDbLine
 10
9420.46703198606
 20
9995.715360473253
 30
0.0
 11
9431.717031986059
 21
9995.715360473253
 31
0.0
  0
TEXT
  5
1C236
330
1BD9A
100
AcDbEntity
  8
SUNPOU
100
AcDbText
 10
8069.931317700344
 20
10250.71536047325
 30
0.0
 40
90.0
  1
3250
 41
0.6666666666666666
  7
00
100
AcDbText
  0
LINE
  5
1C237
330
1BD9A
100
AcDbEntity
  8
SUNPOU
100
AcDbLine
 10
9797.967031986061
 20
10205.71536047325
 30
0.0
 11
9786.717031986061
 21
10205.71536047325
 31
0.0
  0
LINE
  5
1C238
330
1BD9A
100
AcDbEntity
  8
SUNPOU
100
AcDbLine
 10
6570.467031986058
 20
10205.71536047325
 30
0.0
 11
6581.717031986058
 21
10205.71536047325
 31
0.0
  0
TEXT
  5
1C239
330
1BD9A
100
AcDbEntity
  8
SUNPOU
100
AcDbText
 10
8069.931317700344
 20
10040.71536047325
 30
0.0
 40
90.0
  1
2450
 41
0.6666666666666666
  7
00
100
AcDbText
  0
LINE
  5
1C23A
330
1BD9A
100
AcDbEntity
  8
SUNPOU
100
AcDbLine
 10
6970.46703198606
 20
9995.715360473253
 30
0.0
 11
6981.717031986057
 21
9995.715360473253
 31
0.0
  0
LINE
  5
1C23B
330
1BD9A
100
AcDbEntity
  8
SUNPOU
100
AcDbLine
 10
9397.967031986061
 20
9995.715360473253
 30
0.0
 11
9386.71703198606
 21
9995.715360473253
 31
0.0
  0
TEXT
  5
1C23C
330
1BD9A
100
AcDbEntity
  8
SUNPOU
100
AcDbText
 10
6673.502746271774
 20
10040.71536047325
 30
0.0
 40
90.0
  1
400
 41
0.6666666666666666
  7
00
100
AcDbText
  0
LINE
  5
1C23D
330
1BD9A
100
AcDbEntity
  8
SUNPOU
100
AcDbLine
 10
6570.467031986058
 20
9995.715360473253
 30
0.0
 11
6581.717031986058
 21
9995.715360473253
 31
0.0
  0
LINE
  5
1C23E
330
1BD9A
100
AcDbEntity
  8
SUNPOU
100
AcDbLine
 10
6947.96703198606
 20
9995.715360473253
 30
0.0
 11
6936.71703198606
 21
9995.715360473253
 31
0.0
  0
TEXT
  5
1C23F
330
1BD9A
100
AcDbEntity
  8
SUNPOU
100
AcDbText
 10
10164.21703198606
 20
9360.001074758967
 30
0.0
 40
90.0
  1
300
 50
90.0
 41
0.6666666666666666
  7
00
100
AcDbText
  0
LINE
  5
1C240
330
1BD9A
100
AcDbEntity
  8
SUNPOU
100
AcDbLine
 10
10209.21703198605
 20
9584.465360473252
 30
0.0
 11
10209.21703198605
 21
9573.215360473252
 31
0.0
  0
LINE
  5
1C241
330
1BD9A
100
AcDbEntity
  8
SUNPOU
100
AcDbLine
 10
10209.21703198605
 20
9306.965360473252
 30
0.0
 11
10209.21703198605
 21
9318.215360473251
 31
0.0
  0
TEXT
  5
1C242
330
1BD9A
100
AcDbEntity
  8
SUNPOU
100
AcDbText
 10
10164.21703198606
 20
8277.143931901827
 30
0.0
 40
90.0
  1
1800
 50
90.0
 41
0.6666666666666666
  7
00
100
AcDbText
  0
LINE
  5
1C243
330
1BD9A
100
AcDbEntity
  8
SUNPOU
100
AcDbLine
 10
10209.21703198605
 20
9284.465360473253
 30
0.0
 11
10209.21703198605
 21
9273.215360473249
 31
0.0
  0
LINE
  5
1C244
330
1BD9A
100
AcDbEntity
  8
SUNPOU
100
AcDbLine
 10
10209.21703198605
 20
7506.965360473251
 30
0.0
 11
10209.21703198605
 21
7518.215360473252
 31
0.0
  0
TEXT
  5
1C245
330
1BD9A
100
AcDbEntity
  8
SUNPOU
100
AcDbText
 10
10164.21703198606
 20
6477.143931901824
 30
0.0
 40
90.0
  1
1800
 50
90.0
 41
0.6666666666666666
  7
00
100
AcDbText
  0
LINE
  5
1C246
330
1BD9A
100
AcDbEntity
  8
SUNPOU
100
AcDbLine
 10
10209.21703198605
 20
7484.465360473253
 30
0.0
 11
10209.21703198605
 21
7473.215360473251
 31
0.0
  0
LINE
  5
1C247
330
1BD9A
100
AcDbEntity
  8
SUNPOU
100
AcDbLine
 10
10209.21703198605
 20
5706.965360473252
 30
0.0
 11
10209.21703198605
 21
5718.215360473251
 31
0.0
  0
TEXT
  5
1C248
330
1BD9A
100
AcDbEntity
  8
SUNPOU
100
AcDbText
 10
10164.21703198606
 20
5460.001074758968
 30
0.0
 40
90.0
  1
300
 50
90.0
 41
0.6666666666666666
  7
00
100
AcDbText
  0
LINE
  5
1C249
330
1BD9A
100
AcDbEntity
  8
SUNPOU
100
AcDbLine
 10
10209.21703198605
 20
5684.465360473252
 30
0.0
 11
10209.21703198605
 21
5673.215360473252
 31
0.0
  0
LINE
  5
1C24A
330
1BD9A
100
AcDbEntity
  8
SUNPOU
100
AcDbLine
 10
10209.21703198605
 20
5406.965360473252
 30
0.0
 11
10209.21703198605
 21
5418.215360473252
 31
0.0
  0
TEXT
  5
1C24B
330
1BD9A
100
AcDbEntity
  8
SUNPOU
100
AcDbText
 10
10374.21703198605
 20
7381.42964618754
 30
0.0
 40
90.0
  1
4200
 50
90.0
 41
0.6666666666666666
  7
00
100
AcDbText
  0
LINE
  5
1C24C
330
1BD9A
100
AcDbEntity
  8
SUNPOU
100
AcDbLine
 10
10419.21703198606
 20
9584.465360473252
 30
0.0
 11
10419.21703198606
 21
9573.215360473252
 31
0.0
  0
LINE
  5
1C24D
330
1BD9A
100
AcDbEntity
  8
SUNPOU
100
AcDbLine
 10
10419.21703198606
 20
5406.965360473251
 30
0.0
 11
10419.21703198606
 21
5418.215360473251
 31
0.0
  0
TEXT
  5
1C24E
330
1BD9A
100
AcDbEntity
  8
SUNPOU
100
AcDbText
 10
12332.017180344
 20
2138.424883029956
 30
0.0
 40
90.0
  1
20
 41
0.6666666666666666
  7
00
100
AcDbText
  0
LINE
  5
1C24F
330
1BD9A
100
AcDbEntity
  8
SUNPOU
100
AcDbLine
 10
12276.83860891543
 20
2093.424883029956
 30
0.0
 11
12288.08860891543
 21
2093.424883029956
 31
0.0
  0
LINE
  5
1C250
330
1BD9A
100
AcDbEntity
  8
SUNPOU
100
AcDbLine
 10
12174.33860891544
 20
2093.424883029956
 30
0.0
 11
12163.08860891543
 21
2093.424883029956
 31
0.0
  0
TEXT
  5
1C251
330
1BD9A
100
AcDbEntity
  8
SUNPOU
100
AcDbText
 10
11855.58860891545
 20
2138.424883029956
 30
0.0
 40
90.0
  1
120
 41
0.6666666666666666
  7
00
100
AcDbText
  0
LINE
  5
1C252
330
1BD9A
100
AcDbEntity
  8
SUNPOU
100
AcDbLine
 10
12174.33860891544
 20
2093.424883029956
 30
0.0
 11
12163.08860891543
 21
2093.424883029956
 31
0.0
  0
LINE
  5
1C253
330
1BD9A
100
AcDbEntity
  8
SUNPOU
100
AcDbLine
 10
11716.83860891544
 20
2093.424883029956
 30
0.0
 11
11728.08860891545
 21
2093.424883029956
 31
0.0
  0
TEXT
  5
1C254
330
1BD9A
100
AcDbEntity
  8
SUNPOU
100
AcDbText
 10
11444.87432320114
 20
2138.424883029956
 30
0.0
 40
90.0
  1
20
 41
0.6666666666666666
  7
00
100
AcDbText
  0
LINE
  5
1C255
330
1BD9A
100
AcDbEntity
  8
SUNPOU
100
AcDbLine
 10
11614.33860891543
 20
2093.424883029956
 30
0.0
 11
11603.08860891543
 21
2093.424883029956
 31
0.0
  0
LINE
  5
1C256
330
1BD9A
100
AcDbEntity
  8
SUNPOU
100
AcDbLine
 10
11716.83860891544
 20
2093.424883029956
 30
0.0
 11
11728.08860891545
 21
2093.424883029956
 31
0.0
  0
TEXT
  5
1C257
330
1BD9A
100
AcDbEntity
  8
SUNPOU
100
AcDbText
 10
11855.58860891543
 20
1928.424883029956
 30
0.0
 40
90.0
  1
160
 41
0.6666666666666666
  7
00
100
AcDbText
  0
LINE
  5
1C258
330
1BD9A
100
AcDbEntity
  8
SUNPOU
100
AcDbLine
 10
12254.33860891544
 20
1883.424883029956
 30
0.0
 11
12243.08860891544
 21
1883.424883029956
 31
0.0
  0
LINE
  5
1C259
330
1BD9A
100
AcDbEntity
  8
SUNPOU
100
AcDbLine
 10
11636.83860891544
 20
1883.424883029956
 30
0.0
 11
11648.08860891543
 21
1883.424883029956
 31
0.0
  0
TEXT
  5
1C25A
330
1BD9A
100
AcDbEntity
  8
SUNPOU
100
AcDbText
 10
11277.58860891543
 20
2222.049964652736
 30
0.0
 40
90.0
  1
40
 50
90.0
 41
0.6666666666666666
  7
00
100
AcDbText
  0
LINE
  5
1C25B
330
1BD9A
100
AcDbEntity
  8
SUNPOU
100
AcDbLine
 10
11322.58860891544
 20
2399.01425036702
 30
0.0
 11
11322.58860891544
 21
2410.26425036702
 31
0.0
  0
LINE
  5
1C25C
330
1BD9A
100
AcDbEntity
  8
SUNPOU
100
AcDbLine
 10
11322.58860891544
 20
2536.514250367019
 30
0.0
 11
11322.58860891544
 21
2525.264250367019
 31
0.0
  0
TEXT
  5
1C25D
330
1BD9A
100
AcDbEntity
  8
SUNPOU
100
AcDbText
 10
11277.58860891543
 20
2759.192821795593
 30
0.0
 40
90.0
  1
40
 50
90.0
 41
0.6666666666666666
  7
00
100
AcDbText
  0
LINE
  5
1C25E
330
1BD9A
100
AcDbEntity
  8
SUNPOU
100
AcDbLine
 10
11322.58860891544
 20
2696.51425036702
 30
0.0
 11
11322.58860891544
 21
2685.26425036702
 31
0.0
  0
LINE
  5
1C25F
330
1BD9A
100
AcDbEntity
  8
SUNPOU
100
AcDbLine
 10
11322.58860891544
 20
2559.014250367019
 30
0.0
 11
11322.58860891544
 21
2570.264250367019
 31
0.0
  0
TEXT
  5
1C260
330
1BD9A
100
AcDbEntity
  8
SUNPOU
100
AcDbText
 10
11067.58860891543
 20
2490.621393224165
 30
0.0
 40
90.0
  1
80
 50
90.0
 41
0.6666666666666666
  7
00
100
AcDbText
  0
LINE
  5
1C261
330
1BD9A
100
AcDbEntity
  8
SUNPOU
100
AcDbLine
 10
11112.58860891543
 20
2696.51425036702
 30
0.0
 11
11112.58860891543
 21
2685.26425036702
 31
0.0
  0
LINE
  5
1C262
330
1BD9A
100
AcDbEntity
  8
SUNPOU
100
AcDbLine
 10
11112.58860891543
 20
2399.01425036702
 30
0.0
 11
11112.58860891543
 21
2410.26425036702
 31
0.0
  0
TEXT
  5
1C263
330
1BD9A
100
AcDbEntity
  8
SUNPOU
100
AcDbText
 10
12332.017180344
 20
3286.790768968928
 30
0.0
 40
90.0
  1
20
 41
0.6666666666666666
  7
00
100
AcDbText
  0
LINE
  5
1C264
330
1BD9A
100
AcDbEntity
  8
SUNPOU
100
AcDbLine
 10
12276.83860891543
 20
3241.790768968928
 30
0.0
 11
12288.08860891543
 21
3241.790768968928
 31
0.0
  0
LINE
  5
1C265
330
1BD9A
100
AcDbEntity
  8
SUNPOU
100
AcDbLine
 10
12174.33860891544
 20
3241.790768968928
 30
0.0
 11
12163.08860891543
 21
3241.790768968928
 31
0.0
  0
TEXT
  5
1C266
330
1BD9A
100
AcDbEntity
  8
SUNPOU
100
AcDbText
 10
11855.58860891545
 20
3286.790768968928
 30
0.0
 40
90.0
  1
120
 41
0.6666666666666666
  7
00
100
AcDbText
  0
LINE
  5
1C267
330
1BD9A
100
AcDbEntity
  8
SUNPOU
100
AcDbLine
 10
12174.33860891544
 20
3241.790768968928
 30
0.0
 11
12163.08860891543
 21
3241.790768968928
 31
0.0
  0
LINE
  5
1C268
330
1BD9A
100
AcDbEntity
  8
SUNPOU
100
AcDbLine
 10
11716.83860891544
 20
3241.790768968928
 30
0.0
 11
11728.08860891545
 21
3241.790768968928
 31
0.0
  0
TEXT
  5
1C269
330
1BD9A
100
AcDbEntity
  8
SUNPOU
100
AcDbText
 10
11444.87432320114
 20
3286.790768968928
 30
0.0
 40
90.0
  1
20
 41
0.6666666666666666
  7
00
100
AcDbText
  0
LINE
  5
1C26A
330
1BD9A
100
AcDbEntity
  8
SUNPOU
100
AcDbLine
 10
11614.33860891543
 20
3241.790768968928
 30
0.0
 11
11603.08860891543
 21
3241.790768968928
 31
0.0
  0
LINE
  5
1C26B
330
1BD9A
100
AcDbEntity
  8
SUNPOU
100
AcDbLine
 10
11716.83860891544
 20
3241.790768968928
 30
0.0
 11
11728.08860891545
 21
3241.790768968928
 31
0.0
  0
TEXT
  5
1C26C
330
1BD9A
100
AcDbEntity
  8
SUNPOU
100
AcDbText
 10
11855.58860891543
 20
3076.790768968928
 30
0.0
 40
90.0
  1
160
 41
0.6666666666666666
  7
00
100
AcDbText
  0
LINE
  5
1C26D
330
1BD9A
100
AcDbEntity
  8
SUNPOU
100
AcDbLine
 10
12254.33860891544
 20
3031.790768968928
 30
0.0
 11
12243.08860891544
 21
3031.790768968928
 31
0.0
  0
LINE
  5
1C26E
330
1BD9A
100
AcDbEntity
  8
SUNPOU
100
AcDbLine
 10
11636.83860891544
 20
3031.790768968928
 30
0.0
 11
11648.08860891543
 21
3031.790768968928
 31
0.0
  0
ARC
  5
1C26F
330
1BD9A
100
AcDbEntity
  8
SUNPOU
100
AcDbCircle
 10
8390.758701212579
 20
1382.383932023019
 30
0.0
 40
5.625
100
AcDbArc
 50
180.0
 51
0.0
  0
ARC
  5
1C270
330
1BD9A
100
AcDbEntity
  8
SUNPOU
100
AcDbCircle
 10
8390.758701212579
 20
1382.383932023019
 30
0.0
 40
5.625
100
AcDbArc
 50
0.0
 51
180.0
  0
ARC
  5
1C271
330
1BD9A
100
AcDbEntity
  8
SUNPOU
100
AcDbCircle
 10
7110.758701212581
 20
1382.383932023019
 30
0.0
 40
5.625
100
AcDbArc
 50
0.0
 51
180.0
  0
ARC
  5
1C272
330
1BD9A
100
AcDbEntity
  8
SUNPOU
100
AcDbCircle
 10
7110.758701212581
 20
1382.383932023019
 30
0.0
 40
5.625
100
AcDbArc
 50
180.0
 51
0.0
  0
ARC
  5
1C273
330
1BD9A
100
AcDbEntity
  8
SUNPOU
100
AcDbCircle
 10
8550.758701212577
 20
1172.38393202302
 30
0.0
 40
5.625
100
AcDbArc
 50
180.0
 51
0.0
  0
ARC
  5
1C274
330
1BD9A
100
AcDbEntity
  8
SUNPOU
100
AcDbCircle
 10
8550.758701212577
 20
1172.38393202302
 30
0.0
 40
5.625
100
AcDbArc
 50
0.0
 51
180.0
  0
ARC
  5
1C275
330
1BD9A
100
AcDbEntity
  8
SUNPOU
100
AcDbCircle
 10
6950.758701212581
 20
1172.38393202302
 30
0.0
 40
5.625
100
AcDbArc
 50
0.0
 51
180.0
  0
ARC
  5
1C276
330
1BD9A
100
AcDbEntity
  8
SUNPOU
100
AcDbCircle
 10
6950.758701212581
 20
1172.38393202302
 30
0.0
 40
5.625
100
AcDbArc
 50
180.0
 51
0.0
  0
ARC
  5
1C277
330
1BD9A
100
AcDbEntity
  8
SUNPOU
100
AcDbCircle
 10
6831.405305211823
 20
2424.783932023015
 30
0.0
 40
5.625
100
AcDbArc
 50
90.0
 51
270.0
  0
ARC
  5
1C278
330
1BD9A
100
AcDbEntity
  8
SUNPOU
100
AcDbCircle
 10
6831.405305211823
 20
2424.783932023015
 30
0.0
 40
5.625
100
AcDbArc
 50
270.0
 51
90.0
  0
ARC
  5
1C279
330
1BD9A
100
AcDbEntity
  8
SUNPOU
100
AcDbCircle
 10
6831.405305211823
 20
2552.78393202302
 30
0.0
 40
5.625
100
AcDbArc
 50
270.0
 51
90.0
  0
ARC
  5
1C27A
330
1BD9A
100
AcDbEntity
  8
SUNPOU
100
AcDbCircle
 10
6831.405305211823
 20
2552.78393202302
 30
0.0
 40
5.625
100
AcDbArc
 50
90.0
 51
270.0
  0
ARC
  5
1C27B
330
1BD9A
100
AcDbEntity
  8
SUNPOU
100
AcDbCircle
 10
6831.405305211823
 20
2687.183932023017
 30
0.0
 40
5.625
100
AcDbArc
 50
270.0
 51
90.0
  0
ARC
  5
1C27C
330
1BD9A
100
AcDbEntity
  8
SUNPOU
100
AcDbCircle
 10
6831.405305211823
 20
2687.183932023017
 30
0.0
 40
5.625
100
AcDbArc
 50
90.0
 51
270.0
  0
ARC
  5
1C27D
330
1BD9A
100
AcDbEntity
  8
SUNPOU
100
AcDbCircle
 10
6831.405305211823
 20
2552.783932023016
 30
0.0
 40
5.625
100
AcDbArc
 50
90.0
 51
270.0
  0
ARC
  5
1C27E
330
1BD9A
100
AcDbEntity
  8
SUNPOU
100
AcDbCircle
 10
6831.405305211823
 20
2552.783932023016
 30
0.0
 40
5.625
100
AcDbArc
 50
270.0
 51
90.0
  0
ARC
  5
1C27F
330
1BD9A
100
AcDbEntity
  8
SUNPOU
100
AcDbCircle
 10
6831.405305211823
 20
2424.783932023015
 30
0.0
 40
5.625
100
AcDbArc
 50
270.0
 51
90.0
  0
ARC
  5
1C280
330
1BD9A
100
AcDbEntity
  8
SUNPOU
100
AcDbCircle
 10
6831.405305211823
 20
2424.783932023015
 30
0.0
 40
5.625
100
AcDbArc
 50
90.0
 51
270.0
  0
ARC
  5
1C281
330
1BD9A
100
AcDbEntity
  8
SUNPOU
100
AcDbCircle
 10
6831.405305211823
 20
1944.78393202302
 30
0.0
 40
5.625
100
AcDbArc
 50
90.0
 51
270.0
  0
ARC
  5
1C282
330
1BD9A
100
AcDbEntity
  8
SUNPOU
100
AcDbCircle
 10
6831.405305211823
 20
1944.78393202302
 30
0.0
 40
5.625
100
AcDbArc
 50
270.0
 51
90.0
  0
ARC
  5
1C283
330
1BD9A
100
AcDbEntity
  8
SUNPOU
100
AcDbCircle
 10
6831.405305211823
 20
1784.783932023017
 30
0.0
 40
5.625
100
AcDbArc
 50
90.0
 51
270.0
  0
ARC
  5
1C284
330
1BD9A
100
AcDbEntity
  8
SUNPOU
100
AcDbCircle
 10
6831.405305211823
 20
1784.783932023017
 30
0.0
 40
5.625
100
AcDbArc
 50
270.0
 51
90.0
  0
ARC
  5
1C285
330
1BD9A
100
AcDbEntity
  8
SUNPOU
100
AcDbCircle
 10
6831.405305211823
 20
1944.78393202302
 30
0.0
 40
5.625
100
AcDbArc
 50
270.0
 51
90.0
  0
ARC
  5
1C286
330
1BD9A
100
AcDbEntity
  8
SUNPOU
100
AcDbCircle
 10
6831.405305211823
 20
1944.78393202302
 30
0.0
 40
5.625
100
AcDbArc
 50
90.0
 51
270.0
  0
ARC
  5
1C287
330
1BD9A
100
AcDbEntity
  8
SUNPOU
100
AcDbCircle
 10
6621.405305211823
 20
1784.783932023017
 30
0.0
 40
5.625
100
AcDbArc
 50
90.0
 51
270.0
  0
ARC
  5
1C288
330
1BD9A
100
AcDbEntity
  8
SUNPOU
100
AcDbCircle
 10
6621.405305211823
 20
1784.783932023017
 30
0.0
 40
5.625
100
AcDbArc
 50
270.0
 51
90.0
  0
ARC
  5
1C289
330
1BD9A
100
AcDbEntity
  8
SUNPOU
100
AcDbCircle
 10
6621.405305211823
 20
2687.183932023017
 30
0.0
 40
5.625
100
AcDbArc
 50
270.0
 51
90.0
  0
ARC
  5
1C28A
330
1BD9A
100
AcDbEntity
  8
SUNPOU
100
AcDbCircle
 10
6621.405305211823
 20
2687.183932023017
 30
0.0
 40
5.625
100
AcDbArc
 50
90.0
 51
270.0
  0
ARC
  5
1C28B
330
1BD9A
100
AcDbEntity
  8
SUNPOU
100
AcDbCircle
 10
4071.915992739874
 20
1382.383932023014
 30
0.0
 40
5.625
100
AcDbArc
 50
180.0
 51
0.0
  0
ARC
  5
1C28C
330
1BD9A
100
AcDbEntity
  8
SUNPOU
100
AcDbCircle
 10
4071.915992739874
 20
1382.383932023014
 30
0.0
 40
5.625
100
AcDbArc
 50
0.0
 51
180.0
  0
ARC
  5
1C28D
330
1BD9A
100
AcDbEntity
  8
SUNPOU
100
AcDbCircle
 10
3111.915992739874
 20
1382.383932023014
 30
0.0
 40
5.625
100
AcDbArc
 50
0.0
 51
180.0
  0
ARC
  5
1C28E
330
1BD9A
100
AcDbEntity
  8
SUNPOU
100
AcDbCircle
 10
3111.915992739874
 20
1382.383932023014
 30
0.0
 40
5.625
100
AcDbArc
 50
180.0
 51
0.0
  0
ARC
  5
1C28F
330
1BD9A
100
AcDbEntity
  8
SUNPOU
100
AcDbCircle
 10
4231.915992739871
 20
1172.383932023014
 30
0.0
 40
5.625
100
AcDbArc
 50
180.0
 51
0.0
  0
ARC
  5
1C290
330
1BD9A
100
AcDbEntity
  8
SUNPOU
100
AcDbCircle
 10
4231.915992739871
 20
1172.383932023014
 30
0.0
 40
5.625
100
AcDbArc
 50
0.0
 51
180.0
  0
ARC
  5
1C291
330
1BD9A
100
AcDbEntity
  8
SUNPOU
100
AcDbCircle
 10
2951.915992739873
 20
1172.383932023014
 30
0.0
 40
5.625
100
AcDbArc
 50
0.0
 51
180.0
  0
ARC
  5
1C292
330
1BD9A
100
AcDbEntity
  8
SUNPOU
100
AcDbCircle
 10
2951.915992739873
 20
1172.383932023014
 30
0.0
 40
5.625
100
AcDbArc
 50
180.0
 51
0.0
  0
ARC
  5
1C293
330
1BD9A
100
AcDbEntity
  8
SUNPOU
100
AcDbCircle
 10
2252.562596739116
 20
2687.183932023017
 30
0.0
 40
5.625
100
AcDbArc
 50
90.0
 51
270.0
  0
ARC
  5
1C294
330
1BD9A
100
AcDbEntity
  8
SUNPOU
100
AcDbCircle
 10
2252.562596739116
 20
2687.183932023017
 30
0.0
 40
5.625
100
AcDbArc
 50
270.0
 51
90.0
  0
ARC
  5
1C295
330
1BD9A
100
AcDbEntity
  8
SUNPOU
100
AcDbCircle
 10
2252.562596739116
 20
2607.183932023017
 30
0.0
 40
5.625
100
AcDbArc
 50
270.0
 51
90.0
  0
ARC
  5
1C296
330
1BD9A
100
AcDbEntity
  8
SUNPOU
100
AcDbCircle
 10
2252.562596739116
 20
2607.183932023017
 30
0.0
 40
5.625
100
AcDbArc
 50
90.0
 51
270.0
  0
ARC
  5
1C297
330
1BD9A
100
AcDbEntity
  8
SUNPOU
100
AcDbCircle
 10
2672.562596739117
 20
2424.783932023011
 30
0.0
 40
5.625
100
AcDbArc
 50
90.0
 51
270.0
  0
ARC
  5
1C298
330
1BD9A
100
AcDbEntity
  8
SUNPOU
100
AcDbCircle
 10
2672.562596739117
 20
2424.783932023011
 30
0.0
 40
5.625
100
AcDbArc
 50
270.0
 51
90.0
  0
ARC
  5
1C299
330
1BD9A
100
AcDbEntity
  8
SUNPOU
100
AcDbCircle
 10
2672.562596739117
 20
2552.783932023015
 30
0.0
 40
5.625
100
AcDbArc
 50
270.0
 51
90.0
  0
ARC
  5
1C29A
330
1BD9A
100
AcDbEntity
  8
SUNPOU
100
AcDbCircle
 10
2672.562596739117
 20
2552.783932023015
 30
0.0
 40
5.625
100
AcDbArc
 50
90.0
 51
270.0
  0
ARC
  5
1C29B
330
1BD9A
100
AcDbEntity
  8
SUNPOU
100
AcDbCircle
 10
2672.562596739116
 20
2687.183932023017
 30
0.0
 40
5.625
100
AcDbArc
 50
270.0
 51
90.0
  0
ARC
  5
1C29C
330
1BD9A
100
AcDbEntity
  8
SUNPOU
100
AcDbCircle
 10
2672.562596739116
 20
2687.183932023017
 30
0.0
 40
5.625
100
AcDbArc
 50
90.0
 51
270.0
  0
ARC
  5
1C29D
330
1BD9A
100
AcDbEntity
  8
SUNPOU
100
AcDbCircle
 10
2672.562596739116
 20
2552.783932023016
 30
0.0
 40
5.625
100
AcDbArc
 50
90.0
 51
270.0
  0
ARC
  5
1C29E
330
1BD9A
100
AcDbEntity
  8
SUNPOU
100
AcDbCircle
 10
2672.562596739116
 20
2552.783932023016
 30
0.0
 40
5.625
100
AcDbArc
 50
270.0
 51
90.0
  0
ARC
  5
1C29F
330
1BD9A
100
AcDbEntity
  8
SUNPOU
100
AcDbCircle
 10
2672.562596739116
 20
2424.783932023013
 30
0.0
 40
5.625
100
AcDbArc
 50
270.0
 51
90.0
  0
ARC
  5
1C2A0
330
1BD9A
100
AcDbEntity
  8
SUNPOU
100
AcDbCircle
 10
2672.562596739116
 20
2424.783932023013
 30
0.0
 40
5.625
100
AcDbArc
 50
90.0
 51
270.0
  0
ARC
  5
1C2A1
330
1BD9A
100
AcDbEntity
  8
SUNPOU
100
AcDbCircle
 10
2672.562596739116
 20
1944.783932023019
 30
0.0
 40
5.625
100
AcDbArc
 50
90.0
 51
270.0
  0
ARC
  5
1C2A2
330
1BD9A
100
AcDbEntity
  8
SUNPOU
100
AcDbCircle
 10
2672.562596739116
 20
1944.783932023019
 30
0.0
 40
5.625
100
AcDbArc
 50
270.0
 51
90.0
  0
ARC
  5
1C2A3
330
1BD9A
100
AcDbEntity
  8
SUNPOU
100
AcDbCircle
 10
2672.562596739116
 20
1784.783932023017
 30
0.0
 40
5.625
100
AcDbArc
 50
90.0
 51
270.0
  0
ARC
  5
1C2A4
330
1BD9A
100
AcDbEntity
  8
SUNPOU
100
AcDbCircle
 10
2672.562596739116
 20
1784.783932023017
 30
0.0
 40
5.625
100
AcDbArc
 50
270.0
 51
90.0
  0
ARC
  5
1C2A5
330
1BD9A
100
AcDbEntity
  8
SUNPOU
100
AcDbCircle
 10
2672.562596739116
 20
1944.783932023019
 30
0.0
 40
5.625
100
AcDbArc
 50
270.0
 51
90.0
  0
ARC
  5
1C2A6
330
1BD9A
100
AcDbEntity
  8
SUNPOU
100
AcDbCircle
 10
2672.562596739116
 20
1944.783932023019
 30
0.0
 40
5.625
100
AcDbArc
 50
90.0
 51
270.0
  0
ARC
  5
1C2A7
330
1BD9A
100
AcDbEntity
  8
SUNPOU
100
AcDbCircle
 10
2462.562596739115
 20
1784.783932023018
 30
0.0
 40
5.625
100
AcDbArc
 50
90.0
 51
270.0
  0
ARC
  5
1C2A8
330
1BD9A
100
AcDbEntity
  8
SUNPOU
100
AcDbCircle
 10
2462.562596739115
 20
1784.783932023018
 30
0.0
 40
5.625
100
AcDbArc
 50
270.0
 51
90.0
  0
ARC
  5
1C2A9
330
1BD9A
100
AcDbEntity
  8
SUNPOU
100
AcDbCircle
 10
2462.562596739115
 20
2687.183932023017
 30
0.0
 40
5.625
100
AcDbArc
 50
270.0
 51
90.0
  0
ARC
  5
1C2AA
330
1BD9A
100
AcDbEntity
  8
SUNPOU
100
AcDbCircle
 10
2462.562596739115
 20
2687.183932023017
 30
0.0
 40
5.625
100
AcDbArc
 50
90.0
 51
270.0
  0
ARC
  5
1C2AB
330
1BD9A
100
AcDbEntity
  8
SUNPOU
100
AcDbCircle
 10
2951.915992739875
 20
3364.184504159605
 30
0.0
 40
5.625
100
AcDbArc
 50
0.0
 51
180.0
  0
ARC
  5
1C2AC
330
1BD9A
100
AcDbEntity
  8
SUNPOU
100
AcDbCircle
 10
2951.915992739875
 20
3364.184504159605
 30
0.0
 40
5.625
100
AcDbArc
 50
180.0
 51
0.0
  0
ARC
  5
1C2AD
330
1BD9A
100
AcDbEntity
  8
SUNPOU
100
AcDbCircle
 10
3591.915992739874
 20
3364.184504159605
 30
0.0
 40
5.625
100
AcDbArc
 50
180.0
 51
0.0
  0
ARC
  5
1C2AE
330
1BD9A
100
AcDbEntity
  8
SUNPOU
100
AcDbCircle
 10
3591.915992739874
 20
3364.184504159605
 30
0.0
 40
5.625
100
AcDbArc
 50
0.0
 51
180.0
  0
ARC
  5
1C2AF
330
1BD9A
100
AcDbEntity
  8
SUNPOU
100
AcDbCircle
 10
8809.217031986062
 20
7895.715360473253
 30
0.0
 40
5.625
100
AcDbArc
 50
270.0
 51
90.0
  0
ARC
  5
1C2B0
330
1BD9A
100
AcDbEntity
  8
SUNPOU
100
AcDbCircle
 10
8809.217031986062
 20
7895.715360473253
 30
0.0
 40
5.625
100
AcDbArc
 50
90.0
 51
270.0
  0
ARC
  5
1C2B1
330
1BD9A
100
AcDbEntity
  8
SUNPOU
100
AcDbCircle
 10
8809.217031986062
 20
7095.715360473253
 30
0.0
 40
5.625
100
AcDbArc
 50
90.0
 51
270.0
  0
ARC
  5
1C2B2
330
1BD9A
100
AcDbEntity
  8
SUNPOU
100
AcDbCircle
 10
8809.217031986062
 20
7095.715360473253
 30
0.0
 40
5.625
100
AcDbArc
 50
270.0
 51
90.0
  0
ARC
  5
1C2B3
330
1BD9A
100
AcDbEntity
  8
SUNPOU
100
AcDbCircle
 10
9809.21703198606
 20
8065.715360473253
 30
0.0
 40
5.625
100
AcDbArc
 50
180.0
 51
0.0
  0
ARC
  5
1C2B4
330
1BD9A
100
AcDbEntity
  8
SUNPOU
100
AcDbCircle
 10
9809.21703198606
 20
8065.715360473253
 30
0.0
 40
5.625
100
AcDbArc
 50
0.0
 51
180.0
  0
ARC
  5
1C2B5
330
1BD9A
100
AcDbEntity
  8
SUNPOU
100
AcDbCircle
 10
9009.217031986059
 20
8065.715360473253
 30
0.0
 40
5.625
100
AcDbArc
 50
0.0
 51
180.0
  0
ARC
  5
1C2B6
330
1BD9A
100
AcDbEntity
  8
SUNPOU
100
AcDbCircle
 10
9009.217031986059
 20
8065.715360473253
 30
0.0
 40
5.625
100
AcDbArc
 50
180.0
 51
0.0
  0
ARC
  5
1C2B7
330
1BD9A
100
AcDbEntity
  8
SUNPOU
100
AcDbCircle
 10
8809.217031986062
 20
8995.715360473253
 30
0.0
 40
5.625
100
AcDbArc
 50
90.0
 51
270.0
  0
ARC
  5
1C2B8
330
1BD9A
100
AcDbEntity
  8
SUNPOU
100
AcDbCircle
 10
8809.217031986062
 20
8995.715360473253
 30
0.0
 40
5.625
100
AcDbArc
 50
270.0
 51
90.0
  0
ARC
  5
1C2B9
330
1BD9A
100
AcDbEntity
  8
SUNPOU
100
AcDbCircle
 10
8809.217031986062
 20
9595.715360473253
 30
0.0
 40
5.625
100
AcDbArc
 50
270.0
 51
90.0
  0
ARC
  5
1C2BA
330
1BD9A
100
AcDbEntity
  8
SUNPOU
100
AcDbCircle
 10
8809.217031986062
 20
9595.715360473253
 30
0.0
 40
5.625
100
AcDbArc
 50
90.0
 51
270.0
  0
ARC
  5
1C2BB
330
1BD9A
100
AcDbEntity
  8
SUNPOU
100
AcDbCircle
 10
9709.217031986066
 20
8695.715360473251
 30
0.0
 40
5.625
100
AcDbArc
 50
180.0
 51
0.0
  0
ARC
  5
1C2BC
330
1BD9A
100
AcDbEntity
  8
SUNPOU
100
AcDbCircle
 10
9709.217031986066
 20
8695.715360473251
 30
0.0
 40
5.625
100
AcDbArc
 50
0.0
 51
180.0
  0
ARC
  5
1C2BD
330
1BD9A
100
AcDbEntity
  8
SUNPOU
100
AcDbCircle
 10
9109.217031986066
 20
8695.715360473251
 30
0.0
 40
5.625
100
AcDbArc
 50
0.0
 51
180.0
  0
ARC
  5
1C2BE
330
1BD9A
100
AcDbEntity
  8
SUNPOU
100
AcDbCircle
 10
9109.217031986066
 20
8695.715360473251
 30
0.0
 40
5.625
100
AcDbArc
 50
180.0
 51
0.0
  0
ARC
  5
1C2BF
330
1BD9A
100
AcDbEntity
  8
SUNPOU
100
AcDbCircle
 10
9809.21703198606
 20
9995.715360473253
 30
0.0
 40
5.625
100
AcDbArc
 50
180.0
 51
0.0
  0
ARC
  5
1C2C0
330
1BD9A
100
AcDbEntity
  8
SUNPOU
100
AcDbCircle
 10
9809.21703198606
 20
9995.715360473253
 30
0.0
 40
5.625
100
AcDbArc
 50
0.0
 51
180.0
  0
ARC
  5
1C2C1
330
1BD9A
100
AcDbEntity
  8
SUNPOU
100
AcDbCircle
 10
9409.217031986059
 20
9995.715360473253
 30
0.0
 40
5.625
100
AcDbArc
 50
0.0
 51
180.0
  0
ARC
  5
1C2C2
330
1BD9A
100
AcDbEntity
  8
SUNPOU
100
AcDbCircle
 10
9409.217031986059
 20
9995.715360473253
 30
0.0
 40
5.625
100
AcDbArc
 50
180.0
 51
0.0
  0
ARC
  5
1C2C3
330
1BD9A
100
AcDbEntity
  8
SUNPOU
100
AcDbCircle
 10
9809.21703198606
 20
10205.71536047325
 30
0.0
 40
5.625
100
AcDbArc
 50
180.0
 51
0.0
  0
ARC
  5
1C2C4
330
1BD9A
100
AcDbEntity
  8
SUNPOU
100
AcDbCircle
 10
9809.21703198606
 20
10205.71536047325
 30
0.0
 40
5.625
100
AcDbArc
 50
0.0
 51
180.0
  0
ARC
  5
1C2C5
330
1BD9A
100
AcDbEntity
  8
SUNPOU
100
AcDbCircle
 10
6559.21703198606
 20
10205.71536047325
 30
0.0
 40
5.625
100
AcDbArc
 50
0.0
 51
180.0
  0
ARC
  5
1C2C6
330
1BD9A
100
AcDbEntity
  8
SUNPOU
100
AcDbCircle
 10
6559.21703198606
 20
10205.71536047325
 30
0.0
 40
5.625
100
AcDbArc
 50
180.0
 51
0.0
  0
ARC
  5
1C2C7
330
1BD9A
100
AcDbEntity
  8
SUNPOU
100
AcDbCircle
 10
6959.21703198606
 20
9995.715360473253
 30
0.0
 40
5.625
100
AcDbArc
 50
0.0
 51
180.0
  0
ARC
  5
1C2C8
330
1BD9A
100
AcDbEntity
  8
SUNPOU
100
AcDbCircle
 10
6959.21703198606
 20
9995.715360473253
 30
0.0
 40
5.625
100
AcDbArc
 50
180.0
 51
0.0
  0
ARC
  5
1C2C9
330
1BD9A
100
AcDbEntity
  8
SUNPOU
100
AcDbCircle
 10
9409.217031986059
 20
9995.715360473253
 30
0.0
 40
5.625
100
AcDbArc
 50
180.0
 51
0.0
  0
ARC
  5
1C2CA
330
1BD9A
100
AcDbEntity
  8
SUNPOU
100
AcDbCircle
 10
9409.217031986059
 20
9995.715360473253
 30
0.0
 40
5.625
100
AcDbArc
 50
0.0
 51
180.0
  0
ARC
  5
1C2CB
330
1BD9A
100
AcDbEntity
  8
SUNPOU
100
AcDbCircle
 10
6559.21703198606
 20
9995.715360473253
 30
0.0
 40
5.625
100
AcDbArc
 50
0.0
 51
180.0
  0
ARC
  5
1C2CC
330
1BD9A
100
AcDbEntity
  8
SUNPOU
100
AcDbCircle
 10
6559.21703198606
 20
9995.715360473253
 30
0.0
 40
5.625
100
AcDbArc
 50
180.0
 51
0.0
  0
ARC
  5
1C2CD
330
1BD9A
100
AcDbEntity
  8
SUNPOU
100
AcDbCircle
 10
6959.21703198606
 20
9995.715360473253
 30
0.0
 40
5.625
100
AcDbArc
 50
180.0
 51
0.0
  0
ARC
  5
1C2CE
330
1BD9A
100
AcDbEntity
  8
SUNPOU
100
AcDbCircle
 10
6959.21703198606
 20
9995.715360473253
 30
0.0
 40
5.625
100
AcDbArc
 50
0.0
 51
180.0
  0
ARC
  5
1C2CF
330
1BD9A
100
AcDbEntity
  8
SUNPOU
100
AcDbCircle
 10
10209.21703198605
 20
9595.715360473253
 30
0.0
 40
5.625
100
AcDbArc
 50
270.0
 51
90.0
  0
ARC
  5
1C2D0
330
1BD9A
100
AcDbEntity
  8
SUNPOU
100
AcDbCircle
 10
10209.21703198605
 20
9595.715360473253
 30
0.0
 40
5.625
100
AcDbArc
 50
90.0
 51
270.0
  0
ARC
  5
1C2D1
330
1BD9A
100
AcDbEntity
  8
SUNPOU
100
AcDbCircle
 10
10209.21703198605
 20
9295.715360473252
 30
0.0
 40
5.625
100
AcDbArc
 50
90.0
 51
270.0
  0
ARC
  5
1C2D2
330
1BD9A
100
AcDbEntity
  8
SUNPOU
100
AcDbCircle
 10
10209.21703198605
 20
9295.715360473252
 30
0.0
 40
5.625
100
AcDbArc
 50
270.0
 51
90.0
  0
ARC
  5
1C2D3
330
1BD9A
100
AcDbEntity
  8
SUNPOU
100
AcDbCircle
 10
10209.21703198605
 20
9295.715360473252
 30
0.0
 40
5.625
100
AcDbArc
 50
270.0
 51
90.0
  0
ARC
  5
1C2D4
330
1BD9A
100
AcDbEntity
  8
SUNPOU
100
AcDbCircle
 10
10209.21703198605
 20
9295.715360473252
 30
0.0
 40
5.625
100
AcDbArc
 50
90.0
 51
270.0
  0
ARC
  5
1C2D5
330
1BD9A
100
AcDbEntity
  8
SUNPOU
100
AcDbCircle
 10
10209.21703198605
 20
7495.715360473251
 30
0.0
 40
5.625
100
AcDbArc
 50
90.0
 51
270.0
  0
ARC
  5
1C2D6
330
1BD9A
100
AcDbEntity
  8
SUNPOU
100
AcDbCircle
 10
10209.21703198605
 20
7495.715360473251
 30
0.0
 40
5.625
100
AcDbArc
 50
270.0
 51
90.0
  0
ARC
  5
1C2D7
330
1BD9A
100
AcDbEntity
  8
SUNPOU
100
AcDbCircle
 10
10209.21703198605
 20
7495.715360473251
 30
0.0
 40
5.625
100
AcDbArc
 50
270.0
 51
90.0
  0
ARC
  5
1C2D8
330
1BD9A
100
AcDbEntity
  8
SUNPOU
100
AcDbCircle
 10
10209.21703198605
 20
7495.715360473251
 30
0.0
 40
5.625
100
AcDbArc
 50
90.0
 51
270.0
  0
ARC
  5
1C2D9
330
1BD9A
100
AcDbEntity
  8
SUNPOU
100
AcDbCircle
 10
10209.21703198605
 20
5695.715360473252
 30
0.0
 40
5.625
100
AcDbArc
 50
90.0
 51
270.0
  0
ARC
  5
1C2DA
330
1BD9A
100
AcDbEntity
  8
SUNPOU
100
AcDbCircle
 10
10209.21703198605
 20
5695.715360473252
 30
0.0
 40
5.625
100
AcDbArc
 50
270.0
 51
90.0
  0
ARC
  5
1C2DB
330
1BD9A
100
AcDbEntity
  8
SUNPOU
100
AcDbCircle
 10
10209.21703198605
 20
5695.715360473252
 30
0.0
 40
5.625
100
AcDbArc
 50
270.0
 51
90.0
  0
ARC
  5
1C2DC
330
1BD9A
100
AcDbEntity
  8
SUNPOU
100
AcDbCircle
 10
10209.21703198605
 20
5695.715360473252
 30
0.0
 40
5.625
100
AcDbArc
 50
90.0
 51
270.0
  0
ARC
  5
1C2DD
330
1BD9A
100
AcDbEntity
  8
SUNPOU
100
AcDbCircle
 10
10209.21703198605
 20
5395.715360473253
 30
0.0
 40
5.625
100
AcDbArc
 50
90.0
 51
270.0
  0
ARC
  5
1C2DE
330
1BD9A
100
AcDbEntity
  8
SUNPOU
100
AcDbCircle
 10
10209.21703198605
 20
5395.715360473253
 30
0.0
 40
5.625
100
AcDbArc
 50
270.0
 51
90.0
  0
ARC
  5
1C2DF
330
1BD9A
100
AcDbEntity
  8
SUNPOU
100
AcDbCircle
 10
10419.21703198606
 20
9595.715360473253
 30
0.0
 40
5.625
100
AcDbArc
 50
270.0
 51
90.0
  0
ARC
  5
1C2E0
330
1BD9A
100
AcDbEntity
  8
SUNPOU
100
AcDbCircle
 10
10419.21703198606
 20
9595.715360473253
 30
0.0
 40
5.625
100
AcDbArc
 50
90.0
 51
270.0
  0
ARC
  5
1C2E1
330
1BD9A
100
AcDbEntity
  8
SUNPOU
100
AcDbCircle
 10
10419.21703198606
 20
5395.715360473251
 30
0.0
 40
5.625
100
AcDbArc
 50
90.0
 51
270.0
  0
ARC
  5
1C2E2
330
1BD9A
100
AcDbEntity
  8
SUNPOU
100
AcDbCircle
 10
10419.21703198606
 20
5395.715360473251
 30
0.0
 40
5.625
100
AcDbArc
 50
270.0
 51
90.0
  0
ARC
  5
1C2E3
330
1BD9A
100
AcDbEntity
  8
SUNPOU
100
AcDbCircle
 10
12265.58860891543
 20
2093.424883029956
 30
0.0
 40
5.625
100
AcDbArc
 50
0.0
 51
180.0
  0
ARC
  5
1C2E4
330
1BD9A
100
AcDbEntity
  8
SUNPOU
100
AcDbCircle
 10
12265.58860891543
 20
2093.424883029956
 30
0.0
 40
5.625
100
AcDbArc
 50
180.0
 51
0.0
  0
ARC
  5
1C2E5
330
1BD9A
100
AcDbEntity
  8
SUNPOU
100
AcDbCircle
 10
12185.58860891544
 20
2093.424883029956
 30
0.0
 40
5.625
100
AcDbArc
 50
180.0
 51
0.0
  0
ARC
  5
1C2E6
330
1BD9A
100
AcDbEntity
  8
SUNPOU
100
AcDbCircle
 10
12185.58860891544
 20
2093.424883029956
 30
0.0
 40
5.625
100
AcDbArc
 50
0.0
 51
180.0
  0
ARC
  5
1C2E7
330
1BD9A
100
AcDbEntity
  8
SUNPOU
100
AcDbCircle
 10
12185.58860891544
 20
2093.424883029956
 30
0.0
 40
5.625
100
AcDbArc
 50
180.0
 51
0.0
  0
ARC
  5
1C2E8
330
1BD9A
100
AcDbEntity
  8
SUNPOU
100
AcDbCircle
 10
12185.58860891544
 20
2093.424883029956
 30
0.0
 40
5.625
100
AcDbArc
 50
0.0
 51
180.0
  0
ARC
  5
1C2E9
330
1BD9A
100
AcDbEntity
  8
SUNPOU
100
AcDbCircle
 10
11705.58860891545
 20
2093.424883029956
 30
0.0
 40
5.625
100
AcDbArc
 50
0.0
 51
180.0
  0
ARC
  5
1C2EA
330
1BD9A
100
AcDbEntity
  8
SUNPOU
100
AcDbCircle
 10
11705.58860891545
 20
2093.424883029956
 30
0.0
 40
5.625
100
AcDbArc
 50
180.0
 51
0.0
  0
ARC
  5
1C2EB
330
1BD9A
100
AcDbEntity
  8
SUNPOU
100
AcDbCircle
 10
11625.58860891544
 20
2093.424883029956
 30
0.0
 40
5.625
100
AcDbArc
 50
180.0
 51
0.0
  0
ARC
  5
1C2EC
330
1BD9A
100
AcDbEntity
  8
SUNPOU
100
AcDbCircle
 10
11625.58860891544
 20
2093.424883029956
 30
0.0
 40
5.625
100
AcDbArc
 50
0.0
 51
180.0
  0
ARC
  5
1C2ED
330
1BD9A
100
AcDbEntity
  8
SUNPOU
100
AcDbCircle
 10
11705.58860891545
 20
2093.424883029956
 30
0.0
 40
5.625
100
AcDbArc
 50
0.0
 51
180.0
  0
ARC
  5
1C2EE
330
1BD9A
100
AcDbEntity
  8
SUNPOU
100
AcDbCircle
 10
11705.58860891545
 20
2093.424883029956
 30
0.0
 40
5.625
100
AcDbArc
 50
180.0
 51
0.0
  0
ARC
  5
1C2EF
330
1BD9A
100
AcDbEntity
  8
SUNPOU
100
AcDbCircle
 10
12265.58860891543
 20
1883.424883029956
 30
0.0
 40
5.625
100
AcDbArc
 50
180.0
 51
0.0
  0
ARC
  5
1C2F0
330
1BD9A
100
AcDbEntity
  8
SUNPOU
100
AcDbCircle
 10
12265.58860891543
 20
1883.424883029956
 30
0.0
 40
5.625
100
AcDbArc
 50
0.0
 51
180.0
  0
ARC
  5
1C2F1
330
1BD9A
100
AcDbEntity
  8
SUNPOU
100
AcDbCircle
 10
11625.58860891544
 20
1883.424883029956
 30
0.0
 40
5.625
100
AcDbArc
 50
0.0
 51
180.0
  0
ARC
  5
1C2F2
330
1BD9A
100
AcDbEntity
  8
SUNPOU
100
AcDbCircle
 10
11625.58860891544
 20
1883.424883029956
 30
0.0
 40
5.625
100
AcDbArc
 50
180.0
 51
0.0
  0
ARC
  5
1C2F3
330
1BD9A
100
AcDbEntity
  8
SUNPOU
100
AcDbCircle
 10
11322.58860891544
 20
2387.764250367019
 30
0.0
 40
5.625
100
AcDbArc
 50
90.0
 51
270.0
  0
ARC
  5
1C2F4
330
1BD9A
100
AcDbEntity
  8
SUNPOU
100
AcDbCircle
 10
11322.58860891544
 20
2387.764250367019
 30
0.0
 40
5.625
100
AcDbArc
 50
270.0
 51
90.0
  0
ARC
  5
1C2F5
330
1BD9A
100
AcDbEntity
  8
SUNPOU
100
AcDbCircle
 10
11322.58860891544
 20
2547.76425036702
 30
0.0
 40
5.625
100
AcDbArc
 50
270.0
 51
90.0
  0
ARC
  5
1C2F6
330
1BD9A
100
AcDbEntity
  8
SUNPOU
100
AcDbCircle
 10
11322.58860891544
 20
2547.76425036702
 30
0.0
 40
5.625
100
AcDbArc
 50
90.0
 51
270.0
  0
ARC
  5
1C2F7
330
1BD9A
100
AcDbEntity
  8
SUNPOU
100
AcDbCircle
 10
11322.58860891544
 20
2707.76425036702
 30
0.0
 40
5.625
100
AcDbArc
 50
270.0
 51
90.0
  0
ARC
  5
1C2F8
330
1BD9A
100
AcDbEntity
  8
SUNPOU
100
AcDbCircle
 10
11322.58860891544
 20
2707.76425036702
 30
0.0
 40
5.625
100
AcDbArc
 50
90.0
 51
270.0
  0
ARC
  5
1C2F9
330
1BD9A
100
AcDbEntity
  8
SUNPOU
100
AcDbCircle
 10
11322.58860891544
 20
2547.76425036702
 30
0.0
 40
5.625
100
AcDbArc
 50
90.0
 51
270.0
  0
ARC
  5
1C2FA
330
1BD9A
100
AcDbEntity
  8
SUNPOU
100
AcDbCircle
 10
11322.58860891544
 20
2547.76425036702
 30
0.0
 40
5.625
100
AcDbArc
 50
270.0
 51
90.0
  0
ARC
  5
1C2FB
330
1BD9A
100
AcDbEntity
  8
SUNPOU
100
AcDbCircle
 10
11112.58860891543
 20
2707.76425036702
 30
0.0
 40
5.625
100
AcDbArc
 50
270.0
 51
90.0
  0
ARC
  5
1C2FC
330
1BD9A
100
AcDbEntity
  8
SUNPOU
100
AcDbCircle
 10
11112.58860891543
 20
2707.76425036702
 30
0.0
 40
5.625
100
AcDbArc
 50
90.0
 51
270.0
  0
ARC
  5
1C2FD
330
1BD9A
100
AcDbEntity
  8
SUNPOU
100
AcDbCircle
 10
11112.58860891543
 20
2387.764250367019
 30
0.0
 40
5.625
100
AcDbArc
 50
90.0
 51
270.0
  0
ARC
  5
1C2FE
330
1BD9A
100
AcDbEntity
  8
SUNPOU
100
AcDbCircle
 10
11112.58860891543
 20
2387.764250367019
 30
0.0
 40
5.625
100
AcDbArc
 50
270.0
 51
90.0
  0
ARC
  5
1C2FF
330
1BD9A
100
AcDbEntity
  8
SUNPOU
100
AcDbCircle
 10
12265.58860891543
 20
3241.790768968928
 30
0.0
 40
5.625
100
AcDbArc
 50
0.0
 51
180.0
  0
ARC
  5
1C300
330
1BD9A
100
AcDbEntity
  8
SUNPOU
100
AcDbCircle
 10
12265.58860891543
 20
3241.790768968928
 30
0.0
 40
5.625
100
AcDbArc
 50
180.0
 51
0.0
  0
ARC
  5
1C301
330
1BD9A
100
AcDbEntity
  8
SUNPOU
100
AcDbCircle
 10
12185.58860891544
 20
3241.790768968928
 30
0.0
 40
5.625
100
AcDbArc
 50
180.0
 51
0.0
  0
ARC
  5
1C302
330
1BD9A
100
AcDbEntity
  8
SUNPOU
100
AcDbCircle
 10
12185.58860891544
 20
3241.790768968928
 30
0.0
 40
5.625
100
AcDbArc
 50
0.0
 51
180.0
  0
ARC
  5
1C303
330
1BD9A
100
AcDbEntity
  8
SUNPOU
100
AcDbCircle
 10
12185.58860891544
 20
3241.790768968928
 30
0.0
 40
5.625
100
AcDbArc
 50
180.0
 51
0.0
  0
ARC
  5
1C304
330
1BD9A
100
AcDbEntity
  8
SUNPOU
100
AcDbCircle
 10
12185.58860891544
 20
3241.790768968928
 30
0.0
 40
5.625
100
AcDbArc
 50
0.0
 51
180.0
  0
ARC
  5
1C305
330
1BD9A
100
AcDbEntity
  8
SUNPOU
100
AcDbCircle
 10
11705.58860891545
 20
3241.790768968928
 30
0.0
 40
5.625
100
AcDbArc
 50
0.0
 51
180.0
  0
ARC
  5
1C306
330
1BD9A
100
AcDbEntity
  8
SUNPOU
100
AcDbCircle
 10
11705.58860891545
 20
3241.790768968928
 30
0.0
 40
5.625
100
AcDbArc
 50
180.0
 51
0.0
  0
ARC
  5
1C307
330
1BD9A
100
AcDbEntity
  8
SUNPOU
100
AcDbCircle
 10
11625.58860891544
 20
3241.790768968928
 30
0.0
 40
5.625
100
AcDbArc
 50
180.0
 51
0.0
  0
ARC
  5
1C308
330
1BD9A
100
AcDbEntity
  8
SUNPOU
100
AcDbCircle
 10
11625.58860891544
 20
3241.790768968928
 30
0.0
 40
5.625
100
AcDbArc
 50
0.0
 51
180.0
  0
ARC
  5
1C309
330
1BD9A
100
AcDbEntity
  8
SUNPOU
100
AcDbCircle
 10
11705.58860891545
 20
3241.790768968928
 30
0.0
 40
5.625
100
AcDbArc
 50
0.0
 51
180.0
  0
ARC
  5
1C30A
330
1BD9A
100
AcDbEntity
  8
SUNPOU
100
AcDbCircle
 10
11705.58860891545
 20
3241.790768968928
 30
0.0
 40
5.625
100
AcDbArc
 50
180.0
 51
0.0
  0
ARC
  5
1C30B
330
1BD9A
100
AcDbEntity
  8
SUNPOU
100
AcDbCircle
 10
12265.58860891543
 20
3031.790768968928
 30
0.0
 40
5.625
100
AcDbArc
 50
180.0
 51
0.0
  0
ARC
  5
1C30C
330
1BD9A
100
AcDbEntity
  8
SUNPOU
100
AcDbCircle
 10
12265.58860891543
 20
3031.790768968928
 30
0.0
 40
5.625
100
AcDbArc
 50
0.0
 51
180.0
  0
ARC
  5
1C30D
330
1BD9A
100
AcDbEntity
  8
SUNPOU
100
AcDbCircle
 10
11625.58860891544
 20
3031.790768968928
 30
0.0
 40
5.625
100
AcDbArc
 50
0.0
 51
180.0
  0
ARC
  5
1C30E
330
1BD9A
100
AcDbEntity
  8
SUNPOU
100
AcDbCircle
 10
11625.58860891544
 20
3031.790768968928
 30
0.0
 40
5.625
100
AcDbArc
 50
180.0
 51
0.0
  0
ARC
  5
1C30F
330
1BD9A
100
AcDbEntity
  8
HIKIDASHI
100
AcDbCircle
 10
6539.388635599518
 20
1122.768660545881
 30
0.0
 40
74.66417910452284
100
AcDbArc
 50
164.8596129850915
 51
237.504500294165
  0
ARC
  5
1C310
330
1BD9A
100
AcDbEntity
  8
HIKIDASHI
100
AcDbCircle
 10
6475.964841553213
 20
1139.929684030366
 30
0.0
 40
8.959701492542745
100
AcDbArc
 50
15.14038701503429
 51
164.8596129849655
  0
ARC
  5
1C311
330
1BD9A
100
AcDbEntity
  8
HIKIDASHI
100
AcDbCircle
 10
2473.290376027156
 20
1122.768660545877
 30
0.0
 40
74.66417910452284
100
AcDbArc
 50
164.859612985099
 51
237.5045002941407
  0
ARC
  5
1C312
330
1BD9A
100
AcDbEntity
  8
HIKIDASHI
100
AcDbCircle
 10
2409.866581980852
 20
1139.92968403036
 30
0.0
 40
8.959701492542745
100
AcDbArc
 50
15.14038701503429
 51
164.8596129849655
  0
LINE
  5
1C313
330
1BD9A
100
AcDbEntity
  8
HIKIDASHI
100
AcDbLine
 10
8628.919960752318
 20
2438.13875160345
 30
0.0
 11
8785.833312556276
 21
2137.813799624292
 31
0.0
1001
ACAD
1000
DSTYLE
1002
{
1070
    41
1040
2.0
1070
   173
1070
     0
1070
   341
1005
125B0
1002
}
  0
ARC
  5
1C314
330
1BD9A
100
AcDbEntity
  8
HIKIDASHI
100
AcDbCircle
 10
8583.232758726479
 20
2493.190222933271
 30
0.0
 40
18.0
100
AcDbArc
 50
241.1434129563086
 51
354.0287934324676
  0
ARC
  5
1C315
330
1BD9A
100
AcDbEntity
  8
HIKIDASHI
100
AcDbCircle
 10
8619.037433509891
 20
2489.44519107039
 30
0.0
 40
18.0
100
AcDbArc
 50
61.14341295630873
 51
174.0287934324676
  0
LINE
  5
1C316
330
1BD9A
100
AcDbEntity
  8
HIKIDASHI
100
AcDbLine
 10
8601.135096118182
 20
2491.317707001829
 30
0.0
 11
8628.919960752323
 21
2438.138751603437
 31
0.0
  0
LINE
  5
1C317
330
1BD9A
100
AcDbEntity
  8
HIKIDASHI
100
AcDbLine
 10
8600.097717874611
 20
1795.41043414634
 30
0.0
 11
8767.299746747777
 21
1582.003331156298
 31
0.0
1001
ACAD
1000
DSTYLE
1002
{
1070
   147
1040
1.0
1070
    77
1070
     0
1002
}
  0
LINE
  5
1C318
330
1BD9A
100
AcDbEntity
  8
HIKIDASHI
100
AcDbLine
 10
8610.593300854056
 20
1803.633603590012
 30
0.0
 11
8550.758701212577
 21
1858.383932023019
 31
0.0
  0
LINE
  5
1C319
330
1BD9A
100
AcDbEntity
  8
HIKIDASHI
100
AcDbLine
 10
8550.758701212577
 20
1858.383932023019
 30
0.0
 11
8589.602134895162
 21
1787.187264702668
 31
0.0
  0
SOLID
  5
1C31A
330
1BD9A
100
AcDbEntity
  8
HIKIDASHI
100
AcDbTrace
 10
8610.593300854056
 20
1803.633603590012
 30
0.0
 11
8589.602134895162
 21
1787.187264702668
 31
0.0
 12
8550.758701212577
 22
1858.383932023019
 32
0.0
 13
8550.758701212577
 23
1858.383932023019
 33
0.0
  0
LINE
  5
1C31B
330
1BD9A
100
AcDbEntity
  8
HIKIDASHI
100
AcDbLine
 10
8589.602134895162
 20
1787.187264702668
 30
0.0
 11
8610.593300854056
 21
1803.633603590012
 31
0.0
  0
LINE
  5
1C31C
330
1BD9A
100
AcDbEntity
  8
HIKIDASHI
100
AcDbLine
 10
7520.632832867663
 20
2023.473912706196
 30
0.0
 11
6738.660856311475
 21
1172.38393202302
 31
0.0
1001
ACAD
1000
DSTYLE
1002
{
1070
   147
1040
1.0
1070
    77
1070
     0
1002
}
  0
LINE
  5
1C31D
330
1BD9A
100
AcDbEntity
  8
HIKIDASHI
100
AcDbLine
 10
7530.451169420466
 20
2014.452934648709
 30
0.0
 11
7574.758701212582
 21
2082.383932023016
 31
0.0
  0
LINE
  5
1C31E
330
1BD9A
100
AcDbEntity
  8
HIKIDASHI
100
AcDbLine
 10
7574.758701212582
 20
2082.383932023016
 30
0.0
 11
7510.814496314857
 21
2032.494890763683
 31
0.0
  0
SOLID
  5
1C31F
330
1BD9A
100
AcDbEntity
  8
HIKIDASHI
100
AcDbTrace
 10
7530.451169420466
 20
2014.452934648709
 30
0.0
 11
7510.814496314857
 21
2032.494890763683
 31
0.0
 12
7574.758701212582
 22
2082.383932023016
 32
0.0
 13
7574.758701212582
 23
2082.383932023016
 33
0.0
  0
LINE
  5
1C320
330
1BD9A
100
AcDbEntity
  8
HIKIDASHI
100
AcDbLine
 10
7510.814496314857
 20
2032.494890763683
 30
0.0
 11
7530.451169420466
 21
2014.452934648709
 31
0.0
  0
ARC
  5
1C321
330
1BD9A
100
AcDbEntity
  8
HIKIDASHI
100
AcDbCircle
 10
6413.720574042645
 20
1123.948787905472
 30
0.0
 40
74.66417910452232
100
AcDbArc
 50
301.7712278330705
 51
15.14038701490951
  0
LINE
  5
1C322
330
1BD9A
100
AcDbEntity
  8
HIKIDASHI
100
AcDbLine
 10
3531.263001732123
 20
2236.025390518661
 30
0.0
 11
2672.562596739116
 21
1172.383932023014
 31
0.0
1001
ACAD
1000
DSTYLE
1002
{
1070
   147
1040
1.0
1070
    77
1070
     0
1002
}
  0
LINE
  5
1C323
330
1BD9A
100
AcDbEntity
  8
HIKIDASHI
100
AcDbLine
 10
3541.637431963835
 20
2227.649892017369
 30
0.0
 11
3581.515992739872
 21
2298.271971908927
 31
0.0
  0
LINE
  5
1C324
330
1BD9A
100
AcDbEntity
  8
HIKIDASHI
100
AcDbLine
 10
3581.515992739872
 20
2298.271971908927
 30
0.0
 11
3520.888571500412
 21
2244.400889019952
 31
0.0
  0
SOLID
  5
1C325
330
1BD9A
100
AcDbEntity
  8
HIKIDASHI
100
AcDbTrace
 10
3541.637431963835
 20
2227.649892017369
 30
0.0
 11
3520.888571500412
 21
2244.400889019952
 31
0.0
 12
3581.515992739872
 22
2298.271971908927
 32
0.0
 13
3581.515992739872
 23
2298.271971908927
 33
0.0
  0
LINE
  5
1C326
330
1BD9A
100
AcDbEntity
  8
HIKIDASHI
100
AcDbLine
 10
3520.888571500412
 20
2244.400889019952
 30
0.0
 11
3541.637431963835
 21
2227.649892017369
 31
0.0
  0
ARC
  5
1C327
330
1BD9A
100
AcDbEntity
  8
HIKIDASHI
100
AcDbCircle
 10
2347.622314470285
 20
1123.948787905467
 30
0.0
 40
74.66417910452256
100
AcDbArc
 50
301.7712278330707
 51
15.14038701490941
  0
LINE
  5
1C328
330
1BD9A
100
AcDbEntity
  8
HIKIDASHI
100
AcDbLine
 10
3897.99750841665
 20
2756.584545725607
 30
0.0
 11
4125.978989311763
 21
3154.184504159605
 31
0.0
1001
ACAD
1000
DSTYLE
1002
{
1070
   147
1040
1.0
1070
    77
1070
     0
1002
}
  0
LINE
  5
1C329
330
1BD9A
100
AcDbEntity
  8
HIKIDASHI
100
AcDbLine
 10
3886.430739466219
 20
2763.21686310531
 30
0.0
 11
3858.203604138433
 21
2687.183932023017
 31
0.0
  0
LINE
  5
1C32A
330
1BD9A
100
AcDbEntity
  8
HIKIDASHI
100
AcDbLine
 10
3858.203604138433
 20
2687.183932023017
 30
0.0
 11
3909.564277367082
 21
2749.952228345903
 31
0.0
  0
SOLID
  5
1C32B
330
1BD9A
100
AcDbEntity
  8
HIKIDASHI
100
AcDbTrace
 10
3886.430739466219
 20
2763.21686310531
 30
0.0
 11
3909.564277367082
 21
2749.952228345903
 31
0.0
 12
3858.203604138433
 22
2687.183932023017
 32
0.0
 13
3858.203604138433
 23
2687.183932023017
 33
0.0
  0
LINE
  5
1C32C
330
1BD9A
100
AcDbEntity
  8
HIKIDASHI
100
AcDbLine
 10
3909.564277367082
 20
2749.952228345903
 30
0.0
 11
3886.430739466219
 21
2763.21686310531
 31
0.0
  0
LINE
  5
1C32D
330
1BD9A
100
AcDbEntity
  8
HIKIDASHI
100
AcDbLine
 10
4281.255009401902
 20
1795.410434146337
 30
0.0
 11
4448.457038275068
 21
1582.003331156295
 31
0.0
1001
ACAD
1000
DSTYLE
1002
{
1070
   147
1040
1.0
1070
    77
1070
     0
1002
}
  0
LINE
  5
1C32E
330
1BD9A
100
AcDbEntity
  8
HIKIDASHI
100
AcDbLine
 10
4291.750592381346
 20
1803.633603590008
 30
0.0
 11
4231.915992739871
 21
1858.383932023016
 31
0.0
  0
LINE
  5
1C32F
330
1BD9A
100
AcDbEntity
  8
HIKIDASHI
100
AcDbLine
 10
4231.915992739871
 20
1858.383932023016
 30
0.0
 11
4270.759426422454
 21
1787.187264702666
 31
0.0
  0
SOLID
  5
1C330
330
1BD9A
100
AcDbEntity
  8
HIKIDASHI
100
AcDbTrace
 10
4291.750592381346
 20
1803.633603590008
 30
0.0
 11
4270.759426422454
 21
1787.187264702666
 31
0.0
 12
4231.915992739871
 22
1858.383932023016
 32
0.0
 13
4231.915992739871
 23
1858.383932023016
 33
0.0
  0
LINE
  5
1C331
330
1BD9A
100
AcDbEntity
  8
HIKIDASHI
100
AcDbLine
 10
4270.759426422454
 20
1787.187264702666
 30
0.0
 11
4291.750592381346
 21
1803.633603590008
 31
0.0
  0
LINE
  5
1C332
330
1BD9A
100
AcDbEntity
  8
HIKIDASHI
100
AcDbLine
 10
4310.077252279611
 20
2438.13875160345
 30
0.0
 11
4466.990604083568
 21
2137.813799624294
 31
0.0
1001
ACAD
1000
DSTYLE
1002
{
1070
    41
1040
2.0
1070
   173
1070
     0
1070
   341
1005
125B0
1002
}
  0
ARC
  5
1C333
330
1BD9A
100
AcDbEntity
  8
HIKIDASHI
100
AcDbCircle
 10
4264.390050253772
 20
2493.190222933272
 30
0.0
 40
18.0
100
AcDbArc
 50
241.1434129563095
 51
354.0287934324676
  0
ARC
  5
1C334
330
1BD9A
100
AcDbEntity
  8
HIKIDASHI
100
AcDbCircle
 10
4300.194725037186
 20
2489.44519107039
 30
0.0
 40
18.0
100
AcDbArc
 50
61.1434129563095
 51
174.0287934324675
  0
LINE
  5
1C335
330
1BD9A
100
AcDbEntity
  8
HIKIDASHI
100
AcDbLine
 10
4282.292387645479
 20
2491.317707001831
 30
0.0
 11
4310.077252279617
 21
2438.138751603437
 31
0.0
  0
LINE
  5
1C336
330
1BD9A
100
AcDbEntity
  8
HIKIDASHI
100
AcDbLine
 10
12269.44143181648
 20
2467.609998505205
 30
0.0
 11
12660.89263360979
 21
2093.424883029956
 31
0.0
1001
ACAD
1000
DSTYLE
1002
{
1070
   147
1040
1.0
1070
    77
1070
     0
1002
}
  0
LINE
  5
1C337
330
1BD9A
100
AcDbEntity
  8
HIKIDASHI
100
AcDbLine
 10
12278.65456421439
 20
2477.248254011072
 30
0.0
 11
12211.61189878127
 21
2522.888792892663
 31
0.0
  0
LINE
  5
1C338
330
1BD9A
100
AcDbEntity
  8
HIKIDASHI
100
AcDbLine
 10
12211.61189878127
 20
2522.888792892663
 30
0.0
 11
12260.22829941856
 21
2457.971742999339
 31
0.0
  0
SOLID
  5
1C339
330
1BD9A
100
AcDbEntity
  8
HIKIDASHI
100
AcDbTrace
 10
12278.65456421439
 20
2477.248254011072
 30
0.0
 11
12260.22829941856
 21
2457.971742999339
 31
0.0
 12
12211.61189878127
 22
2522.888792892663
 32
0.0
 13
12211.61189878127
 23
2522.888792892663
 33
0.0
  0
LINE
  5
1C33A
330
1BD9A
100
AcDbEntity
  8
HIKIDASHI
100
AcDbLine
 10
12260.22829941856
 20
2457.971742999339
 30
0.0
 11
12278.65456421439
 21
2477.248254011072
 31
0.0
  0
LINE
  5
1C33B
330
1BD9A
100
AcDbEntity
  8
HIKIDASHI
100
AcDbLine
 10
12322.7445235735
 20
2763.739257464837
 30
0.0
 11
12477.48386709142
 21
2915.281506478704
 31
0.0
1001
ACAD
1000
DSTYLE
1002
{
1070
   147
1040
1.0
1070
    77
1070
     0
1002
}
  0
LINE
  5
1C33C
330
1BD9A
100
AcDbEntity
  8
HIKIDASHI
100
AcDbLine
 10
12313.41535572386
 20
2773.265243241179
 30
0.0
 11
12265.58860891543
 21
2707.76425036702
 31
0.0
  0
LINE
  5
1C33D
330
1BD9A
100
AcDbEntity
  8
HIKIDASHI
100
AcDbLine
 10
12265.58860891543
 20
2707.76425036702
 30
0.0
 11
12332.07369142312
 21
2754.213271688493
 31
0.0
  0
SOLID
  5
1C33E
330
1BD9A
100
AcDbEntity
  8
HIKIDASHI
100
AcDbTrace
 10
12313.41535572386
 20
2773.265243241179
 30
0.0
 11
12332.07369142312
 21
2754.213271688493
 31
0.0
 12
12265.58860891543
 22
2707.76425036702
 32
0.0
 13
12265.58860891543
 23
2707.76425036702
 33
0.0
  0
LINE
  5
1C33F
330
1BD9A
100
AcDbEntity
  8
HIKIDASHI
100
AcDbLine
 10
12332.07369142312
 20
2754.213271688493
 30
0.0
 11
12313.41535572386
 21
2773.265243241179
 31
0.0
  0
LINE
  5
1C340
330
1BD9A
100
AcDbEntity
  8
HATCH
100
AcDbLine
 10
2995.716279290155
 20
2424.783932023638
 30
0.0
 11
3069.617113746422
 21
2552.783932023631
 31
0.0
  0
LINE
  5
1C341
330
1BD9A
100
AcDbEntity
  8
HATCH
100
AcDbLine
 10
3031.217113746425
 20
2552.783932023629
 30
0.0
 11
3050.417113746424
 21
2519.528556518313
 31
0.0
  0
LINE
  5
1C342
330
1BD9A
100
AcDbEntity
  8
HATCH
100
AcDbLine
 10
6566.457866754373
 20
2424.783932023719
 30
0.0
 11
6640.358701210641
 21
2552.783932023711
 31
0.0
  0
LINE
  5
1C343
330
1BD9A
100
AcDbEntity
  8
HATCH
100
AcDbLine
 10
6601.958701210645
 20
2552.783932023709
 30
0.0
 11
6621.158701210642
 21
2519.528556518393
 31
0.0
  0
LINE
  5
1C344
330
1BD9A
100
AcDbEntity
  8
HATCH
100
AcDbLine
 10
6566.457866756292
 20
2424.783932024337
 30
0.0
 11
6640.358701212581
 21
2552.783932024366
 31
0.0
  0
LINE
  5
1C345
330
1BD9A
100
AcDbEntity
  8
HATCH
100
AcDbLine
 10
6601.958701212571
 20
2552.783932024365
 30
0.0
 11
6621.158701212576
 21
2519.528556519037
 31
0.0
  0
LINE
  5
1C346
330
1BD9A
100
AcDbEntity
  8
HATCH
100
AcDbLine
 10
6854.457866754373
 20
2424.783932022442
 30
0.0
 11
6928.35870121064
 21
2552.783932022435
 31
0.0
  0
LINE
  5
1C347
330
1BD9A
100
AcDbEntity
  8
HATCH
100
AcDbLine
 10
6889.958701210642
 20
2552.783932022433
 30
0.0
 11
6909.158701210642
 21
2519.528556517116
 31
0.0
  0
LINE
  5
1C348
330
1BD9A
100
AcDbEntity
  8
HATCH
100
AcDbLine
 10
6998.457866754371
 20
2424.783932022442
 30
0.0
 11
7072.358701210641
 21
2552.783932022435
 31
0.0
  0
LINE
  5
1C349
330
1BD9A
100
AcDbEntity
  8
HATCH
100
AcDbLine
 10
7033.958701210642
 20
2552.783932022433
 30
0.0
 11
7053.158701210641
 21
2519.528556517116
 31
0.0
  0
LINE
  5
1C34A
330
1BD9A
100
AcDbEntity
  8
HATCH
100
AcDbLine
 10
6854.457866756288
 20
2424.78393202306
 30
0.0
 11
6928.358701212578
 21
2552.78393202309
 31
0.0
  0
LINE
  5
1C34B
330
1BD9A
100
AcDbEntity
  8
HATCH
100
AcDbLine
 10
6889.958701212569
 20
2552.783932023088
 30
0.0
 11
6909.158701212574
 21
2519.52855651776
 31
0.0
  0
LINE
  5
1C34C
330
1BD9A
100
AcDbEntity
  8
HATCH
100
AcDbLine
 10
6998.45786675629
 20
2424.78393202306
 30
0.0
 11
7072.358701212578
 21
2552.78393202309
 31
0.0
  0
LINE
  5
1C34D
330
1BD9A
100
AcDbEntity
  8
HATCH
100
AcDbLine
 10
7033.958701212569
 20
2552.783932023088
 30
0.0
 11
7053.158701212575
 21
2519.52855651776
 31
0.0
  0
LINE
  5
1C34E
330
1BD9A
100
AcDbEntity
  8
HATCH
100
AcDbLine
 10
8768.400502108404
 20
2424.783932023682
 30
0.0
 11
8842.301336564672
 21
2552.783932023676
 31
0.0
  0
LINE
  5
1C34F
330
1BD9A
100
AcDbEntity
  8
HATCH
100
AcDbLine
 10
8803.901336564676
 20
2552.783932023674
 30
0.0
 11
8823.101336564674
 21
2519.528556518356
 31
0.0
  0
LINE
  5
1C350
330
1BD9A
100
AcDbEntity
  8
HATCH
100
AcDbLine
 10
8480.400502108405
 20
2424.783932023682
 30
0.0
 11
8554.301336564673
 21
2552.783932023676
 31
0.0
  0
LINE
  5
1C351
330
1BD9A
100
AcDbEntity
  8
HATCH
100
AcDbLine
 10
8515.901336564676
 20
2552.783932023674
 30
0.0
 11
8535.101336564672
 21
2519.528556518356
 31
0.0
  0
LINE
  5
1C352
330
1BD9A
100
AcDbEntity
  8
HATCH
100
AcDbLine
 10
8624.400502108406
 20
2424.783932023682
 30
0.0
 11
8698.301336564673
 21
2552.783932023676
 31
0.0
  0
LINE
  5
1C353
330
1BD9A
100
AcDbEntity
  8
HATCH
100
AcDbLine
 10
8659.901336564676
 20
2552.783932023674
 30
0.0
 11
8679.101336564675
 21
2519.528556518356
 31
0.0
  0
LINE
  5
1C354
330
1BD9A
100
AcDbEntity
  8
HATCH
100
AcDbLine
 10
8912.400502108404
 20
2424.783932023682
 30
0.0
 11
8986.301336564675
 21
2552.783932023676
 31
0.0
  0
LINE
  5
1C355
330
1BD9A
100
AcDbEntity
  8
HATCH
100
AcDbLine
 10
8947.901336564674
 20
2552.783932023674
 30
0.0
 11
8967.101336564674
 21
2519.528556518356
 31
0.0
  0
LINE
  5
1C356
330
1BD9A
100
AcDbEntity
  8
HATCH
100
AcDbLine
 10
8768.400502110322
 20
2424.7839320243
 30
0.0
 11
8842.301336566611
 21
2552.78393202433
 31
0.0
  0
LINE
  5
1C357
330
1BD9A
100
AcDbEntity
  8
HATCH
100
AcDbLine
 10
8803.901336566601
 20
2552.783932024329
 30
0.0
 11
8823.101336566606
 21
2519.528556519002
 31
0.0
  0
LINE
  5
1C358
330
1BD9A
100
AcDbEntity
  8
HATCH
100
AcDbLine
 10
8912.400502110322
 20
2424.7839320243
 30
0.0
 11
8986.301336566612
 21
2552.78393202433
 31
0.0
  0
LINE
  5
1C359
330
1BD9A
100
AcDbEntity
  8
HATCH
100
AcDbLine
 10
8947.901336566603
 20
2552.783932024329
 30
0.0
 11
8967.101336566605
 21
2519.528556519002
 31
0.0
  0
LINE
  5
1C35A
330
1BD9A
100
AcDbEntity
  8
HATCH
100
AcDbLine
 10
8624.400502110322
 20
2424.7839320243
 30
0.0
 11
8698.301336566611
 21
2552.78393202433
 31
0.0
  0
LINE
  5
1C35B
330
1BD9A
100
AcDbEntity
  8
HATCH
100
AcDbLine
 10
8659.901336566601
 20
2552.783932024329
 30
0.0
 11
8679.101336566606
 21
2519.528556519002
 31
0.0
  0
LINE
  5
1C35C
330
1BD9A
100
AcDbEntity
  8
HATCH
100
AcDbLine
 10
8480.400502110322
 20
2424.7839320243
 30
0.0
 11
8554.301336566608
 21
2552.78393202433
 31
0.0
  0
LINE
  5
1C35D
330
1BD9A
100
AcDbEntity
  8
HATCH
100
AcDbLine
 10
8515.901336566601
 20
2552.783932024329
 30
0.0
 11
8535.101336566606
 21
2519.528556519002
 31
0.0
  0
LINE
  5
1C35E
330
1BD9A
100
AcDbEntity
  8
HATCH
100
AcDbLine
 10
4177.557793635696
 20
2424.783932023638
 30
0.0
 11
4251.458628091965
 21
2552.783932023631
 31
0.0
  0
LINE
  5
1C35F
330
1BD9A
100
AcDbEntity
  8
HATCH
100
AcDbLine
 10
4213.058628091967
 20
2552.783932023629
 30
0.0
 11
4232.258628091964
 21
2519.528556518313
 31
0.0
  0
LINE
  5
1C360
330
1BD9A
100
AcDbEntity
  8
HATCH
100
AcDbLine
 10
4609.557793635697
 20
2424.783932023638
 30
0.0
 11
4683.458628091965
 21
2552.783932023631
 31
0.0
  0
LINE
  5
1C361
330
1BD9A
100
AcDbEntity
  8
HATCH
100
AcDbLine
 10
4645.058628091967
 20
2552.783932023629
 30
0.0
 11
4664.258628091966
 21
2519.528556518313
 31
0.0
  0
LINE
  5
1C362
330
1BD9A
100
AcDbEntity
  8
HATCH
100
AcDbLine
 10
4321.557793635697
 20
2424.783932023638
 30
0.0
 11
4395.458628091964
 21
2552.783932023631
 31
0.0
  0
LINE
  5
1C363
330
1BD9A
100
AcDbEntity
  8
HATCH
100
AcDbLine
 10
4357.058628091967
 20
2552.783932023629
 30
0.0
 11
4376.258628091965
 21
2519.528556518313
 31
0.0
  0
LINE
  5
1C364
330
1BD9A
100
AcDbEntity
  8
HATCH
100
AcDbLine
 10
4465.557793635697
 20
2424.783932023638
 30
0.0
 11
4539.458628091963
 21
2552.783932023631
 31
0.0
  0
LINE
  5
1C365
330
1BD9A
100
AcDbEntity
  8
HATCH
100
AcDbLine
 10
4501.058628091967
 20
2552.783932023629
 30
0.0
 11
4520.258628091966
 21
2519.528556518313
 31
0.0
  0
LINE
  5
1C366
330
1BD9A
100
AcDbEntity
  8
HATCH
100
AcDbLine
 10
4753.557793635695
 20
2424.783932023638
 30
0.0
 11
4827.458628091965
 21
2552.783932023631
 31
0.0
  0
LINE
  5
1C367
330
1BD9A
100
AcDbEntity
  8
HATCH
100
AcDbLine
 10
4789.058628091967
 20
2552.783932023629
 30
0.0
 11
4808.258628091966
 21
2519.528556518313
 31
0.0
  0
LINE
  5
1C368
330
1BD9A
100
AcDbEntity
  8
HATCH
100
AcDbLine
 10
3034.116279290147
 20
2424.783932023639
 30
0.0
 11
3014.916279290149
 21
2458.039307528957
 31
0.0
  0
LINE
  5
1C369
330
1BD9A
100
AcDbEntity
  8
HATCH
100
AcDbLine
 10
6604.857866754366
 20
2424.783932023719
 30
0.0
 11
6585.657866754369
 21
2458.039307529036
 31
0.0
  0
LINE
  5
1C36A
330
1BD9A
100
AcDbEntity
  8
HATCH
100
AcDbLine
 10
6604.857866756295
 20
2424.783932024337
 30
0.0
 11
6585.65786675629
 21
2458.039307529665
 31
0.0
  0
LINE
  5
1C36B
330
1BD9A
100
AcDbEntity
  8
HATCH
100
AcDbLine
 10
6892.857866754365
 20
2424.783932022442
 30
0.0
 11
6873.657866754367
 21
2458.03930752776
 31
0.0
  0
LINE
  5
1C36C
330
1BD9A
100
AcDbEntity
  8
HATCH
100
AcDbLine
 10
7036.857866754366
 20
2424.783932022442
 30
0.0
 11
7017.657866754366
 21
2458.03930752776
 31
0.0
  0
LINE
  5
1C36D
330
1BD9A
100
AcDbEntity
  8
HATCH
100
AcDbLine
 10
6892.857866756293
 20
2424.78393202306
 30
0.0
 11
6873.657866756289
 21
2458.039307528388
 31
0.0
  0
LINE
  5
1C36E
330
1BD9A
100
AcDbEntity
  8
HATCH
100
AcDbLine
 10
7036.857866756292
 20
2424.78393202306
 30
0.0
 11
7017.657866756289
 21
2458.039307528388
 31
0.0
  0
LINE
  5
1C36F
330
1BD9A
100
AcDbEntity
  8
HATCH
100
AcDbLine
 10
8806.800502108398
 20
2424.783932023683
 30
0.0
 11
8787.600502108398
 21
2458.039307529
 31
0.0
  0
LINE
  5
1C370
330
1BD9A
100
AcDbEntity
  8
HATCH
100
AcDbLine
 10
8518.800502108398
 20
2424.783932023683
 30
0.0
 11
8499.600502108398
 21
2458.039307529
 31
0.0
  0
LINE
  5
1C371
330
1BD9A
100
AcDbEntity
  8
HATCH
100
AcDbLine
 10
8662.800502108398
 20
2424.783932023683
 30
0.0
 11
8643.600502108398
 21
2458.039307529
 31
0.0
  0
LINE
  5
1C372
330
1BD9A
100
AcDbEntity
  8
HATCH
100
AcDbLine
 10
8950.800502108398
 20
2424.783932023683
 30
0.0
 11
8931.600502108398
 21
2458.039307529
 31
0.0
  0
LINE
  5
1C373
330
1BD9A
100
AcDbEntity
  8
HATCH
100
AcDbLine
 10
8806.800502110325
 20
2424.7839320243
 30
0.0
 11
8787.60050211032
 21
2458.039307529629
 31
0.0
  0
LINE
  5
1C374
330
1BD9A
100
AcDbEntity
  8
HATCH
100
AcDbLine
 10
8950.800502110325
 20
2424.7839320243
 30
0.0
 11
8931.600502110324
 21
2458.039307529629
 31
0.0
  0
LINE
  5
1C375
330
1BD9A
100
AcDbEntity
  8
HATCH
100
AcDbLine
 10
8662.800502110325
 20
2424.7839320243
 30
0.0
 11
8643.600502110322
 21
2458.039307529629
 31
0.0
  0
LINE
  5
1C376
330
1BD9A
100
AcDbEntity
  8
HATCH
100
AcDbLine
 10
8518.800502110325
 20
2424.7839320243
 30
0.0
 11
8499.600502110324
 21
2458.039307529629
 31
0.0
  0
LINE
  5
1C377
330
1BD9A
100
AcDbEntity
  8
TENSEN-1
100
AcDbLine
 10
7926.75870121258
 20
2103.183932023013
 30
0.0
 11
7873.15870121258
 21
2103.183932023013
 31
0.0
  0
LINE
  5
1C378
330
1BD9A
100
AcDbEntity
  8
TENSEN-1
100
AcDbLine
 10
7873.15870121258
 20
2103.183932023013
 30
0.0
 11
7873.15870121258
 21
2594.383932023013
 31
0.0
  0
LINE
  5
1C379
330
1BD9A
100
AcDbEntity
  8
TENSEN-1
100
AcDbLine
 10
7873.15870121258
 20
2594.383932023013
 30
0.0
 11
7852.358701212581
 21
2594.383932023013
 31
0.0
  0
LINE
  5
1C37A
330
1BD9A
100
AcDbEntity
  8
TENSEN-1
100
AcDbLine
 10
7852.358701212581
 20
2594.383932023013
 30
0.0
 11
7852.358701212579
 21
2082.383932023013
 31
0.0
  0
LINE
  5
1C37B
330
1BD9A
100
AcDbEntity
  8
TENSEN-1
100
AcDbLine
 10
7852.358701212579
 20
2082.383932023013
 30
0.0
 11
7926.75870121258
 21
2082.383932023013
 31
0.0
  0
LINE
  5
1C37C
330
1BD9A
100
AcDbEntity
  8
TENSEN-1
100
AcDbLine
 10
7926.75870121258
 20
2082.383932023013
 30
0.0
 11
7926.75870121258
 21
2103.183932023013
 31
0.0
  0
LINE
  5
1C37D
330
1BD9A
100
AcDbEntity
  8
TENSEN-1
100
AcDbLine
 10
7574.758701212582
 20
2103.183932023017
 30
0.0
 11
7628.358701212585
 21
2103.183932023017
 31
0.0
  0
LINE
  5
1C37E
330
1BD9A
100
AcDbEntity
  8
TENSEN-1
100
AcDbLine
 10
7628.358701212585
 20
2103.183932023017
 30
0.0
 11
7628.358701212585
 21
2594.383932023017
 31
0.0
  0
LINE
  5
1C37F
330
1BD9A
100
AcDbEntity
  8
TENSEN-1
100
AcDbLine
 10
7628.358701212585
 20
2594.383932023017
 30
0.0
 11
7649.158701212584
 21
2594.383932023017
 31
0.0
  0
LINE
  5
1C380
330
1BD9A
100
AcDbEntity
  8
TENSEN-1
100
AcDbLine
 10
7649.158701212584
 20
2594.383932023017
 30
0.0
 11
7649.158701212584
 21
2082.383932023016
 31
0.0
  0
LINE
  5
1C381
330
1BD9A
100
AcDbEntity
  8
TENSEN-1
100
AcDbLine
 10
7649.158701212584
 20
2082.383932023016
 30
0.0
 11
7574.758701212582
 21
2082.383932023016
 31
0.0
  0
LINE
  5
1C382
330
1BD9A
100
AcDbEntity
  8
TENSEN-1
100
AcDbLine
 10
7574.758701212582
 20
2082.383932023016
 30
0.0
 11
7574.758701212582
 21
2103.183932023017
 31
0.0
  0
LINE
  5
1C383
330
1BD9A
100
AcDbEntity
  8
HASHIRA
100
AcDbLine
 10
7606.758701212581
 20
2552.783932023013
 30
0.0
 11
7894.758701212579
 21
2552.783932023016
 31
0.0
  0
LINE
  5
1C384
330
1BD9A
100
AcDbEntity
  8
HASHIRA
100
AcDbLine
 10
7894.758701212579
 20
2552.783932023016
 30
0.0
 11
7894.758701212579
 21
2567.183932023016
 31
0.0
  0
LINE
  5
1C385
330
1BD9A
100
AcDbEntity
  8
HASHIRA
100
AcDbLine
 10
7894.758701212579
 20
2567.183932023016
 30
0.0
 11
7606.758701212581
 21
2567.183932023013
 31
0.0
  0
LINE
  5
1C386
330
1BD9A
100
AcDbEntity
  8
HASHIRA
100
AcDbLine
 10
7606.758701212581
 20
2567.183932023013
 30
0.0
 11
7606.758701212581
 21
2552.783932023013
 31
0.0
  0
LINE
  5
1C387
330
1BD9A
100
AcDbEntity
  8
BOLT
100
AcDbLine
 10
7764.35870121258
 20
2595.983932023015
 30
0.0
 11
7764.35870121258
 21
2603.835895683991
 31
0.0
  0
LINE
  5
1C388
330
1BD9A
100
AcDbEntity
  8
BOLT
100
AcDbLine
 10
7764.35870121258
 20
2603.835895683991
 30
0.0
 11
7750.758701212581
 21
2611.687859344974
 31
0.0
  0
LINE
  5
1C389
330
1BD9A
100
AcDbEntity
  8
BOLT
100
AcDbLine
 10
7750.758701212581
 20
2611.687859344974
 30
0.0
 11
7737.15870121258
 21
2603.835895683991
 31
0.0
  0
LINE
  5
1C38A
330
1BD9A
100
AcDbEntity
  8
BOLT
100
AcDbLine
 10
7737.15870121258
 20
2603.835895683991
 30
0.0
 11
7737.15870121258
 21
2595.983932023015
 31
0.0
  0
LINE
  5
1C38B
330
1BD9A
100
AcDbEntity
  8
BOLT
100
AcDbLine
 10
7737.15870121258
 20
2595.983932023015
 30
0.0
 11
7737.15870121258
 21
2588.131968362035
 31
0.0
  0
LINE
  5
1C38C
330
1BD9A
100
AcDbEntity
  8
BOLT
100
AcDbLine
 10
7737.15870121258
 20
2588.131968362035
 30
0.0
 11
7750.758701212581
 21
2580.280004701055
 31
0.0
  0
LINE
  5
1C38D
330
1BD9A
100
AcDbEntity
  8
BOLT
100
AcDbLine
 10
7750.758701212581
 20
2580.280004701055
 30
0.0
 11
7764.35870121258
 21
2588.131968362035
 31
0.0
  0
LINE
  5
1C38E
330
1BD9A
100
AcDbEntity
  8
BOLT
100
AcDbLine
 10
7764.35870121258
 20
2588.131968362035
 30
0.0
 11
7764.35870121258
 21
2595.983932023015
 31
0.0
  0
LINE
  5
1C38F
330
1BD9A
100
AcDbEntity
  8
BOLT
100
AcDbLine
 10
7764.35870121258
 20
2659.983932023015
 30
0.0
 11
7764.35870121258
 21
2667.835895683991
 31
0.0
  0
LINE
  5
1C390
330
1BD9A
100
AcDbEntity
  8
BOLT
100
AcDbLine
 10
7764.35870121258
 20
2667.835895683991
 30
0.0
 11
7750.758701212581
 21
2675.687859344974
 31
0.0
  0
LINE
  5
1C391
330
1BD9A
100
AcDbEntity
  8
BOLT
100
AcDbLine
 10
7750.758701212581
 20
2675.687859344974
 30
0.0
 11
7737.15870121258
 21
2667.835895683991
 31
0.0
  0
LINE
  5
1C392
330
1BD9A
100
AcDbEntity
  8
BOLT
100
AcDbLine
 10
7737.15870121258
 20
2667.835895683991
 30
0.0
 11
7737.15870121258
 21
2659.983932023015
 31
0.0
  0
LINE
  5
1C393
330
1BD9A
100
AcDbEntity
  8
BOLT
100
AcDbLine
 10
7737.15870121258
 20
2659.983932023015
 30
0.0
 11
7737.15870121258
 21
2652.131968362035
 31
0.0
  0
LINE
  5
1C394
330
1BD9A
100
AcDbEntity
  8
BOLT
100
AcDbLine
 10
7737.15870121258
 20
2652.131968362035
 30
0.0
 11
7750.758701212581
 21
2644.280004701055
 31
0.0
  0
LINE
  5
1C395
330
1BD9A
100
AcDbEntity
  8
BOLT
100
AcDbLine
 10
7750.758701212581
 20
2644.280004701055
 30
0.0
 11
7764.35870121258
 21
2652.131968362035
 31
0.0
  0
LINE
  5
1C396
330
1BD9A
100
AcDbEntity
  8
BOLT
100
AcDbLine
 10
7764.35870121258
 20
2652.131968362035
 30
0.0
 11
7764.35870121258
 21
2659.983932023015
 31
0.0
  0
LINE
  5
1C397
330
1BD9A
100
AcDbEntity
  8
KISO
100
AcDbLine
 10
2951.915992739873
 20
1784.783932023017
 30
0.0
 11
4231.915992739874
 21
1784.783932023017
 31
0.0
  0
LINE
  5
1C398
330
1BD9A
100
AcDbEntity
  8
KISO
100
AcDbLine
 10
4231.915992739874
 20
1784.783932023017
 30
0.0
 11
4231.915992739874
 21
1944.783932023019
 31
0.0
  0
LINE
  5
1C399
330
1BD9A
100
AcDbEntity
  8
KISO
100
AcDbLine
 10
4231.915992739874
 20
1944.783932023019
 30
0.0
 11
2951.915992739873
 21
1944.783932023019
 31
0.0
  0
LINE
  5
1C39A
330
1BD9A
100
AcDbEntity
  8
KISO
100
AcDbLine
 10
2951.915992739873
 20
1944.783932023019
 30
0.0
 11
2951.915992739873
 21
1784.783932023017
 31
0.0
  0
LINE
  5
1C39B
330
1BD9A
100
AcDbEntity
  8
HATCH
100
AcDbLine
 10
4215.95779363569
 20
2424.783932023639
 30
0.0
 11
4196.757793635691
 21
2458.039307528957
 31
0.0
  0
LINE
  5
1C39C
330
1BD9A
100
AcDbEntity
  8
HATCH
100
AcDbLine
 10
4647.95779363569
 20
2424.783932023639
 30
0.0
 11
4628.757793635691
 21
2458.039307528957
 31
0.0
  0
LINE
  5
1C39D
330
1BD9A
100
AcDbEntity
  8
HATCH
100
AcDbLine
 10
4359.95779363569
 20
2424.783932023639
 30
0.0
 11
4340.757793635691
 21
2458.039307528957
 31
0.0
  0
LINE
  5
1C39E
330
1BD9A
100
AcDbEntity
  8
HATCH
100
AcDbLine
 10
4503.95779363569
 20
2424.783932023639
 30
0.0
 11
4484.757793635691
 21
2458.039307528957
 31
0.0
  0
LINE
  5
1C39F
330
1BD9A
100
AcDbEntity
  8
HATCH
100
AcDbLine
 10
4791.95779363569
 20
2424.783932023639
 30
0.0
 11
4772.757793635689
 21
2458.039307528957
 31
0.0
  0
LINE
  5
1C3A0
330
1BD9A
100
AcDbEntity
  8
HASHIRA
100
AcDbLine
 10
3527.915992739874
 20
2552.783932023023
 30
0.0
 11
3655.915992739874
 21
2552.783932023023
 31
0.0
  0
LINE
  5
1C3A1
330
1BD9A
100
AcDbEntity
  8
HASHIRA
100
AcDbLine
 10
3655.915992739874
 20
2552.783932023023
 30
0.0
 11
3655.915992739874
 21
2562.383932023022
 31
0.0
  0
LINE
  5
1C3A2
330
1BD9A
100
AcDbEntity
  8
HASHIRA
100
AcDbLine
 10
3655.915992739874
 20
2562.383932023022
 30
0.0
 11
3527.915992739874
 21
2562.383932023022
 31
0.0
  0
LINE
  5
1C3A3
330
1BD9A
100
AcDbEntity
  8
HASHIRA
100
AcDbLine
 10
3527.915992739874
 20
2562.383932023022
 30
0.0
 11
3527.915992739874
 21
2552.783932023023
 31
0.0
  0
LINE
  5
1C3A4
330
1BD9A
100
AcDbEntity
  8
TENSEN-1
100
AcDbLine
 10
3527.915992739874
 20
2103.183932023021
 30
0.0
 11
3581.515992739872
 21
2103.183932023021
 31
0.0
  0
LINE
  5
1C3A5
330
1BD9A
100
AcDbEntity
  8
TENSEN-1
100
AcDbLine
 10
3581.515992739872
 20
2103.183932023021
 30
0.0
 11
3581.515992739872
 21
2594.383932023022
 31
0.0
  0
LINE
  5
1C3A6
330
1BD9A
100
AcDbEntity
  8
TENSEN-1
100
AcDbLine
 10
3581.515992739872
 20
2594.383932023022
 30
0.0
 11
3602.315992739876
 21
2594.383932023022
 31
0.0
  0
LINE
  5
1C3A7
330
1BD9A
100
AcDbEntity
  8
TENSEN-1
100
AcDbLine
 10
3602.315992739876
 20
2594.383932023022
 30
0.0
 11
3602.315992739876
 21
2082.383932023022
 31
0.0
  0
LINE
  5
1C3A8
330
1BD9A
100
AcDbEntity
  8
TENSEN-1
100
AcDbLine
 10
3602.315992739876
 20
2082.383932023022
 30
0.0
 11
3527.915992739874
 21
2082.383932023022
 31
0.0
  0
LINE
  5
1C3A9
330
1BD9A
100
AcDbEntity
  8
TENSEN-1
100
AcDbLine
 10
3527.915992739874
 20
2082.383932023022
 30
0.0
 11
3527.915992739874
 21
2103.183932023021
 31
0.0
  0
LINE
  5
1C3AA
330
1BD9A
100
AcDbEntity
  8
DOMAKON
100
AcDbLine
 10
6559.21703198606
 20
5395.715360473253
 30
0.0
 11
9809.21703198606
 21
5395.715360473253
 31
0.0
  0
LINE
  5
1C3AB
330
1BD9A
100
AcDbEntity
  8
DOMAKON
100
AcDbLine
 10
9809.21703198606
 20
5395.715360473253
 30
0.0
 11
9809.21703198606
 21
9595.715360473253
 31
0.0
  0
LINE
  5
1C3AC
330
1BD9A
100
AcDbEntity
  8
DOMAKON
100
AcDbLine
 10
9809.21703198606
 20
9595.715360473253
 30
0.0
 11
6559.21703198606
 21
9595.715360473253
 31
0.0
  0
LINE
  5
1C3AD
330
1BD9A
100
AcDbEntity
  8
DOMAKON
100
AcDbLine
 10
6559.21703198606
 20
9595.715360473253
 30
0.0
 11
6559.21703198606
 21
5395.715360473253
 31
0.0
  0
LINE
  5
1C3AE
330
1BD9A
100
AcDbEntity
  8
U1
100
AcDbLine
 10
9415.417031986061
 20
9325.915360473253
 30
0.0
 11
9383.017031986055
 21
9325.915360473253
 31
0.0
  0
LINE
  5
1C3AF
330
1BD9A
100
AcDbEntity
  8
U1
100
AcDbLine
 10
9383.017031986055
 20
9265.515360473251
 30
0.0
 11
9435.417031986061
 21
9265.515360473251
 31
0.0
  0
ARC
  5
1C3B0
330
1BD9A
100
AcDbEntity
  8
U1
100
AcDbCircle
 10
9383.017031986055
 20
9269.515360473251
 30
0.0
 40
4.0
100
AcDbArc
 50
180.0
 51
270.0
  0
ARC
  5
1C3B1
330
1BD9A
100
AcDbEntity
  8
U1
100
AcDbCircle
 10
9383.017031986055
 20
9321.915360473253
 30
0.0
 40
4.0
100
AcDbArc
 50
90.0
 51
180.0
  0
LINE
  5
1C3B2
330
1BD9A
100
AcDbEntity
  8
U1
100
AcDbLine
 10
9379.017031986059
 20
9321.915360473253
 30
0.0
 11
9379.017031986059
 21
9269.515360473251
 31
0.0
  0
ARC
  5
1C3B3
330
1BD9A
100
AcDbEntity
  8
U1
100
AcDbCircle
 10
9435.417031986061
 20
9269.515360473251
 30
0.0
 40
4.0
100
AcDbArc
 50
270.0
 51
0.0
  0
ARC
  5
1C3B4
330
1BD9A
100
AcDbEntity
  8
U1
100
AcDbCircle
 10
9415.417031986061
 20
9321.915360473253
 30
0.0
 40
4.0
100
AcDbArc
 50
0.0
 51
90.0
  0
ARC
  5
1C3B5
330
1BD9A
100
AcDbEntity
  8
U1
100
AcDbCircle
 10
9422.86703198606
 20
9312.665360473252
 30
0.0
 40
1.149999999999977
100
AcDbArc
 50
180.0
 51
0.0
  0
LINE
  5
1C3B6
330
1BD9A
100
AcDbEntity
  8
U1
100
AcDbLine
 10
9426.31703198606
 20
9320.215360473252
 30
0.0
 11
9426.31703198606
 21
9312.665360473252
 31
0.0
  0
LINE
  5
1C3B7
330
1BD9A
100
AcDbEntity
  8
U1
100
AcDbLine
 10
9424.017031986059
 20
9320.215360473252
 30
0.0
 11
9426.31703198606
 21
9320.215360473252
 31
0.0
  0
LINE
  5
1C3B8
330
1BD9A
100
AcDbEntity
  8
U1
100
AcDbLine
 10
9421.717031986061
 20
9313.215360473252
 30
0.0
 11
9424.017031986059
 21
9313.215360473252
 31
0.0
  0
ARC
  5
1C3B9
330
1BD9A
100
AcDbEntity
  8
U1
100
AcDbCircle
 10
9422.86703198606
 20
9312.665360473252
 30
0.0
 40
3.450000000000044
100
AcDbArc
 50
180.0
 51
0.0
  0
LINE
  5
1C3BA
330
1BD9A
100
AcDbEntity
  8
U1
100
AcDbLine
 10
9421.717031986061
 20
9312.665360473252
 30
0.0
 11
9421.717031986061
 21
9321.915360473253
 31
0.0
  0
LINE
  5
1C3BB
330
1BD9A
100
AcDbEntity
  8
U1
100
AcDbLine
 10
9424.017031986059
 20
9321.915360473253
 30
0.0
 11
9424.017031986059
 21
9312.665360473252
 31
0.0
  0
LINE
  5
1C3BC
330
1BD9A
100
AcDbEntity
  8
U1
100
AcDbLine
 10
9419.417031986061
 20
9312.665360473252
 30
0.0
 11
9419.417031986061
 21
9321.915360473253
 31
0.0
  0
ARC
  5
1C3BD
330
1BD9A
100
AcDbEntity
  8
U1
100
AcDbCircle
 10
9435.417031986061
 20
9321.915360473253
 30
0.0
 40
4.0
100
AcDbArc
 50
0.0
 51
90.0
  0
LINE
  5
1C3BE
330
1BD9A
100
AcDbEntity
  8
U1
100
AcDbLine
 10
9435.417031986061
 20
9325.915360473253
 30
0.0
 11
9428.017031986057
 21
9325.915360473253
 31
0.0
  0
ARC
  5
1C3BF
330
1BD9A
100
AcDbEntity
  8
U1
100
AcDbCircle
 10
9428.017031986057
 20
9321.915360473253
 30
0.0
 40
4.0
100
AcDbArc
 50
90.0
 51
180.0
  0
LINE
  5
1C3C0
330
1BD9A
100
AcDbEntity
  8
U1
100
AcDbLine
 10
9439.41703198606
 20
9269.515360473251
 30
0.0
 11
9439.41703198606
 21
9321.915360473253
 31
0.0
  0
LINE
  5
1C3C1
330
1BD9A
100
AcDbEntity
  8
U1
100
AcDbLine
 10
9415.417031986061
 20
7525.915360473253
 30
0.0
 11
9383.017031986055
 21
7525.915360473253
 31
0.0
  0
LINE
  5
1C3C2
330
1BD9A
100
AcDbEntity
  8
U1
100
AcDbLine
 10
9383.017031986055
 20
7465.515360473251
 30
0.0
 11
9435.417031986061
 21
7465.515360473251
 31
0.0
  0
ARC
  5
1C3C3
330
1BD9A
100
AcDbEntity
  8
U1
100
AcDbCircle
 10
9383.017031986055
 20
7469.515360473251
 30
0.0
 40
4.0
100
AcDbArc
 50
180.0
 51
270.0
  0
ARC
  5
1C3C4
330
1BD9A
100
AcDbEntity
  8
U1
100
AcDbCircle
 10
9383.017031986055
 20
7521.915360473252
 30
0.0
 40
4.0
100
AcDbArc
 50
90.0
 51
180.0
  0
LINE
  5
1C3C5
330
1BD9A
100
AcDbEntity
  8
U1
100
AcDbLine
 10
9379.017031986059
 20
7521.915360473252
 30
0.0
 11
9379.017031986059
 21
7469.515360473251
 31
0.0
  0
ARC
  5
1C3C6
330
1BD9A
100
AcDbEntity
  8
U1
100
AcDbCircle
 10
9435.417031986061
 20
7469.515360473251
 30
0.0
 40
4.0
100
AcDbArc
 50
270.0
 51
0.0
  0
ARC
  5
1C3C7
330
1BD9A
100
AcDbEntity
  8
U1
100
AcDbCircle
 10
9415.417031986061
 20
7521.915360473252
 30
0.0
 40
4.0
100
AcDbArc
 50
0.0
 51
90.0
  0
ARC
  5
1C3C8
330
1BD9A
100
AcDbEntity
  8
U1
100
AcDbCircle
 10
9422.86703198606
 20
7512.665360473251
 30
0.0
 40
1.149999999999977
100
AcDbArc
 50
180.0
 51
0.0
  0
LINE
  5
1C3C9
330
1BD9A
100
AcDbEntity
  8
U1
100
AcDbLine
 10
9426.31703198606
 20
7520.215360473251
 30
0.0
 11
9426.31703198606
 21
7512.665360473251
 31
0.0
  0
LINE
  5
1C3CA
330
1BD9A
100
AcDbEntity
  8
U1
100
AcDbLine
 10
9424.017031986059
 20
7520.215360473251
 30
0.0
 11
9426.31703198606
 21
7520.215360473251
 31
0.0
  0
LINE
  5
1C3CB
330
1BD9A
100
AcDbEntity
  8
U1
100
AcDbLine
 10
9421.717031986061
 20
7513.215360473251
 30
0.0
 11
9424.017031986059
 21
7513.215360473251
 31
0.0
  0
ARC
  5
1C3CC
330
1BD9A
100
AcDbEntity
  8
U1
100
AcDbCircle
 10
9422.86703198606
 20
7512.665360473251
 30
0.0
 40
3.450000000000044
100
AcDbArc
 50
180.0
 51
0.0
  0
LINE
  5
1C3CD
330
1BD9A
100
AcDbEntity
  8
U1
100
AcDbLine
 10
9421.717031986061
 20
7512.665360473251
 30
0.0
 11
9421.717031986061
 21
7521.915360473251
 31
0.0
  0
LINE
  5
1C3CE
330
1BD9A
100
AcDbEntity
  8
U1
100
AcDbLine
 10
9424.017031986059
 20
7521.915360473252
 30
0.0
 11
9424.017031986059
 21
7512.665360473251
 31
0.0
  0
LINE
  5
1C3CF
330
1BD9A
100
AcDbEntity
  8
U1
100
AcDbLine
 10
9419.417031986061
 20
7512.665360473251
 30
0.0
 11
9419.417031986061
 21
7521.915360473252
 31
0.0
  0
ARC
  5
1C3D0
330
1BD9A
100
AcDbEntity
  8
U1
100
AcDbCircle
 10
9435.417031986061
 20
7521.915360473252
 30
0.0
 40
4.0
100
AcDbArc
 50
0.0
 51
90.0
  0
LINE
  5
1C3D1
330
1BD9A
100
AcDbEntity
  8
U1
100
AcDbLine
 10
9435.417031986061
 20
7525.915360473253
 30
0.0
 11
9428.017031986057
 21
7525.915360473253
 31
0.0
  0
ARC
  5
1C3D2
330
1BD9A
100
AcDbEntity
  8
U1
100
AcDbCircle
 10
9428.017031986057
 20
7521.915360473252
 30
0.0
 40
4.0
100
AcDbArc
 50
90.0
 51
180.0
  0
LINE
  5
1C3D3
330
1BD9A
100
AcDbEntity
  8
U1
100
AcDbLine
 10
9439.41703198606
 20
7469.515360473251
 30
0.0
 11
9439.41703198606
 21
7521.915360473252
 31
0.0
  0
LINE
  5
1C3D4
330
1BD9A
100
AcDbEntity
  8
U1
100
AcDbLine
 10
9415.417031986061
 20
5725.915360473251
 30
0.0
 11
9383.017031986055
 21
5725.915360473251
 31
0.0
  0
LINE
  5
1C3D5
330
1BD9A
100
AcDbEntity
  8
U1
100
AcDbLine
 10
9383.017031986055
 20
5665.51536047325
 30
0.0
 11
9435.417031986061
 21
5665.51536047325
 31
0.0
  0
ARC
  5
1C3D6
330
1BD9A
100
AcDbEntity
  8
U1
100
AcDbCircle
 10
9383.017031986055
 20
5669.51536047325
 30
0.0
 40
4.0
100
AcDbArc
 50
180.0
 51
270.0
  0
ARC
  5
1C3D7
330
1BD9A
100
AcDbEntity
  8
U1
100
AcDbCircle
 10
9383.017031986055
 20
5721.915360473252
 30
0.0
 40
4.0
100
AcDbArc
 50
90.0
 51
180.0
  0
LINE
  5
1C3D8
330
1BD9A
100
AcDbEntity
  8
U1
100
AcDbLine
 10
9379.017031986059
 20
5721.915360473252
 30
0.0
 11
9379.017031986059
 21
5669.51536047325
 31
0.0
  0
ARC
  5
1C3D9
330
1BD9A
100
AcDbEntity
  8
U1
100
AcDbCircle
 10
9435.417031986061
 20
5669.51536047325
 30
0.0
 40
4.0
100
AcDbArc
 50
270.0
 51
0.0
  0
ARC
  5
1C3DA
330
1BD9A
100
AcDbEntity
  8
U1
100
AcDbCircle
 10
9415.417031986061
 20
5721.915360473252
 30
0.0
 40
4.0
100
AcDbArc
 50
0.0
 51
90.0
  0
ARC
  5
1C3DB
330
1BD9A
100
AcDbEntity
  8
U1
100
AcDbCircle
 10
9422.86703198606
 20
5712.665360473252
 30
0.0
 40
1.149999999999977
100
AcDbArc
 50
180.0
 51
0.0
  0
LINE
  5
1C3DC
330
1BD9A
100
AcDbEntity
  8
U1
100
AcDbLine
 10
9426.31703198606
 20
5720.215360473252
 30
0.0
 11
9426.31703198606
 21
5712.665360473252
 31
0.0
  0
LINE
  5
1C3DD
330
1BD9A
100
AcDbEntity
  8
U1
100
AcDbLine
 10
9424.017031986059
 20
5720.215360473252
 30
0.0
 11
9426.31703198606
 21
5720.215360473252
 31
0.0
  0
LINE
  5
1C3DE
330
1BD9A
100
AcDbEntity
  8
U1
100
AcDbLine
 10
9421.717031986061
 20
5713.215360473252
 30
0.0
 11
9424.017031986059
 21
5713.215360473252
 31
0.0
  0
ARC
  5
1C3DF
330
1BD9A
100
AcDbEntity
  8
U1
100
AcDbCircle
 10
9422.86703198606
 20
5712.665360473252
 30
0.0
 40
3.450000000000044
100
AcDbArc
 50
180.0
 51
0.0
  0
LINE
  5
1C3E0
330
1BD9A
100
AcDbEntity
  8
U1
100
AcDbLine
 10
9421.717031986061
 20
5712.665360473252
 30
0.0
 11
9421.717031986061
 21
5721.915360473251
 31
0.0
  0
LINE
  5
1C3E1
330
1BD9A
100
AcDbEntity
  8
U1
100
AcDbLine
 10
9424.017031986059
 20
5721.915360473252
 30
0.0
 11
9424.017031986059
 21
5712.665360473252
 31
0.0
  0
LINE
  5
1C3E2
330
1BD9A
100
AcDbEntity
  8
U1
100
AcDbLine
 10
9419.417031986061
 20
5712.665360473252
 30
0.0
 11
9419.417031986061
 21
5721.915360473252
 31
0.0
  0
ARC
  5
1C3E3
330
1BD9A
100
AcDbEntity
  8
U1
100
AcDbCircle
 10
9435.417031986061
 20
5721.915360473252
 30
0.0
 40
4.0
100
AcDbArc
 50
0.0
 51
90.0
  0
LINE
  5
1C3E4
330
1BD9A
100
AcDbEntity
  8
U1
100
AcDbLine
 10
9435.417031986061
 20
5725.915360473251
 30
0.0
 11
9428.017031986057
 21
5725.915360473251
 31
0.0
  0
ARC
  5
1C3E5
330
1BD9A
100
AcDbEntity
  8
U1
100
AcDbCircle
 10
9428.017031986057
 20
5721.915360473252
 30
0.0
 40
4.0
100
AcDbArc
 50
90.0
 51
180.0
  0
LINE
  5
1C3E6
330
1BD9A
100
AcDbEntity
  8
U1
100
AcDbLine
 10
9439.41703198606
 20
5669.51536047325
 30
0.0
 11
9439.41703198606
 21
5721.915360473252
 31
0.0
  0
LINE
  5
1C3E7
330
1BD9A
100
AcDbEntity
  8
U1
100
AcDbLine
 10
6965.417031986061
 20
9325.915360473253
 30
0.0
 11
6933.01703198606
 21
9325.915360473253
 31
0.0
  0
LINE
  5
1C3E8
330
1BD9A
100
AcDbEntity
  8
U1
100
AcDbLine
 10
6933.01703198606
 20
9265.515360473251
 30
0.0
 11
6985.41703198606
 21
9265.515360473251
 31
0.0
  0
ARC
  5
1C3E9
330
1BD9A
100
AcDbEntity
  8
U1
100
AcDbCircle
 10
6933.01703198606
 20
9269.515360473251
 30
0.0
 40
4.0
100
AcDbArc
 50
180.0
 51
270.0
  0
ARC
  5
1C3EA
330
1BD9A
100
AcDbEntity
  8
U1
100
AcDbCircle
 10
6933.01703198606
 20
9321.915360473253
 30
0.0
 40
4.0
100
AcDbArc
 50
90.0
 51
180.0
  0
LINE
  5
1C3EB
330
1BD9A
100
AcDbEntity
  8
U1
100
AcDbLine
 10
6929.01703198606
 20
9321.915360473253
 30
0.0
 11
6929.01703198606
 21
9269.515360473251
 31
0.0
  0
ARC
  5
1C3EC
330
1BD9A
100
AcDbEntity
  8
U1
100
AcDbCircle
 10
6985.41703198606
 20
9269.515360473251
 30
0.0
 40
4.0
100
AcDbArc
 50
270.0
 51
0.0
  0
ARC
  5
1C3ED
330
1BD9A
100
AcDbEntity
  8
U1
100
AcDbCircle
 10
6965.417031986061
 20
9321.915360473253
 30
0.0
 40
4.0
100
AcDbArc
 50
0.0
 51
90.0
  0
ARC
  5
1C3EE
330
1BD9A
100
AcDbEntity
  8
U1
100
AcDbCircle
 10
6972.867031986059
 20
9312.665360473252
 30
0.0
 40
1.149999999999977
100
AcDbArc
 50
180.0
 51
0.0
  0
LINE
  5
1C3EF
330
1BD9A
100
AcDbEntity
  8
U1
100
AcDbLine
 10
6976.317031986059
 20
9320.215360473252
 30
0.0
 11
6976.317031986059
 21
9312.665360473252
 31
0.0
  0
LINE
  5
1C3F0
330
1BD9A
100
AcDbEntity
  8
U1
100
AcDbLine
 10
6974.017031986059
 20
9320.215360473252
 30
0.0
 11
6976.317031986059
 21
9320.215360473252
 31
0.0
  0
LINE
  5
1C3F1
330
1BD9A
100
AcDbEntity
  8
U1
100
AcDbLine
 10
6971.717031986061
 20
9313.215360473252
 30
0.0
 11
6974.017031986059
 21
9313.215360473252
 31
0.0
  0
ARC
  5
1C3F2
330
1BD9A
100
AcDbEntity
  8
U1
100
AcDbCircle
 10
6972.867031986059
 20
9312.665360473252
 30
0.0
 40
3.450000000000044
100
AcDbArc
 50
180.0
 51
0.0
  0
LINE
  5
1C3F3
330
1BD9A
100
AcDbEntity
  8
U1
100
AcDbLine
 10
6971.717031986061
 20
9312.665360473252
 30
0.0
 11
6971.717031986059
 21
9321.915360473253
 31
0.0
  0
LINE
  5
1C3F4
330
1BD9A
100
AcDbEntity
  8
U1
100
AcDbLine
 10
6974.017031986059
 20
9321.915360473253
 30
0.0
 11
6974.017031986059
 21
9312.665360473252
 31
0.0
  0
LINE
  5
1C3F5
330
1BD9A
100
AcDbEntity
  8
U1
100
AcDbLine
 10
6969.41703198606
 20
9312.665360473252
 30
0.0
 11
6969.41703198606
 21
9321.915360473253
 31
0.0
  0
ARC
  5
1C3F6
330
1BD9A
100
AcDbEntity
  8
U1
100
AcDbCircle
 10
6985.41703198606
 20
9321.915360473253
 30
0.0
 40
4.0
100
AcDbArc
 50
0.0
 51
90.0
  0
LINE
  5
1C3F7
330
1BD9A
100
AcDbEntity
  8
U1
100
AcDbLine
 10
6985.41703198606
 20
9325.915360473253
 30
0.0
 11
6978.01703198606
 21
9325.915360473253
 31
0.0
  0
ARC
  5
1C3F8
330
1BD9A
100
AcDbEntity
  8
U1
100
AcDbCircle
 10
6978.01703198606
 20
9321.915360473253
 30
0.0
 40
4.0
100
AcDbArc
 50
90.0
 51
180.0
  0
LINE
  5
1C3F9
330
1BD9A
100
AcDbEntity
  8
U1
100
AcDbLine
 10
6989.417031986061
 20
9269.515360473251
 30
0.0
 11
6989.417031986059
 21
9321.915360473253
 31
0.0
  0
LINE
  5
1C3FA
330
1BD9A
100
AcDbEntity
  8
U1
100
AcDbLine
 10
6965.417031986061
 20
7525.915360473253
 30
0.0
 11
6933.01703198606
 21
7525.915360473253
 31
0.0
  0
LINE
  5
1C3FB
330
1BD9A
100
AcDbEntity
  8
U1
100
AcDbLine
 10
6933.01703198606
 20
7465.515360473251
 30
0.0
 11
6985.41703198606
 21
7465.515360473251
 31
0.0
  0
ARC
  5
1C3FC
330
1BD9A
100
AcDbEntity
  8
U1
100
AcDbCircle
 10
6933.01703198606
 20
7469.515360473251
 30
0.0
 40
4.0
100
AcDbArc
 50
180.0
 51
270.0
  0
ARC
  5
1C3FD
330
1BD9A
100
AcDbEntity
  8
U1
100
AcDbCircle
 10
6933.01703198606
 20
7521.915360473252
 30
0.0
 40
4.0
100
AcDbArc
 50
90.0
 51
180.0
  0
LINE
  5
1C3FE
330
1BD9A
100
AcDbEntity
  8
U1
100
AcDbLine
 10
6929.01703198606
 20
7521.915360473252
 30
0.0
 11
6929.01703198606
 21
7469.515360473251
 31
0.0
  0
ARC
  5
1C3FF
330
1BD9A
100
AcDbEntity
  8
U1
100
AcDbCircle
 10
6985.41703198606
 20
7469.515360473251
 30
0.0
 40
4.0
100
AcDbArc
 50
270.0
 51
0.0
  0
ARC
  5
1C400
330
1BD9A
100
AcDbEntity
  8
U1
100
AcDbCircle
 10
6965.417031986061
 20
7521.915360473252
 30
0.0
 40
4.0
100
AcDbArc
 50
0.0
 51
90.0
  0
ARC
  5
1C401
330
1BD9A
100
AcDbEntity
  8
U1
100
AcDbCircle
 10
6972.867031986059
 20
7512.665360473251
 30
0.0
 40
1.149999999999977
100
AcDbArc
 50
180.0
 51
0.0
  0
LINE
  5
1C402
330
1BD9A
100
AcDbEntity
  8
U1
100
AcDbLine
 10
6976.317031986059
 20
7520.215360473251
 30
0.0
 11
6976.317031986059
 21
7512.665360473251
 31
0.0
  0
LINE
  5
1C403
330
1BD9A
100
AcDbEntity
  8
U1
100
AcDbLine
 10
6974.017031986059
 20
7520.215360473251
 30
0.0
 11
6976.317031986059
 21
7520.215360473251
 31
0.0
  0
LINE
  5
1C404
330
1BD9A
100
AcDbEntity
  8
U1
100
AcDbLine
 10
6971.717031986061
 20
7513.215360473251
 30
0.0
 11
6974.017031986059
 21
7513.215360473251
 31
0.0
  0
ARC
  5
1C405
330
1BD9A
100
AcDbEntity
  8
U1
100
AcDbCircle
 10
6972.867031986059
 20
7512.665360473251
 30
0.0
 40
3.450000000000044
100
AcDbArc
 50
180.0
 51
0.0
  0
LINE
  5
1C406
330
1BD9A
100
AcDbEntity
  8
U1
100
AcDbLine
 10
6971.717031986061
 20
7512.665360473251
 30
0.0
 11
6971.717031986059
 21
7521.915360473251
 31
0.0
  0
LINE
  5
1C407
330
1BD9A
100
AcDbEntity
  8
U1
100
AcDbLine
 10
6974.017031986059
 20
7521.915360473252
 30
0.0
 11
6974.017031986059
 21
7512.665360473251
 31
0.0
  0
LINE
  5
1C408
330
1BD9A
100
AcDbEntity
  8
U1
100
AcDbLine
 10
6969.41703198606
 20
7512.665360473251
 30
0.0
 11
6969.41703198606
 21
7521.915360473252
 31
0.0
  0
ARC
  5
1C409
330
1BD9A
100
AcDbEntity
  8
U1
100
AcDbCircle
 10
6985.41703198606
 20
7521.915360473252
 30
0.0
 40
4.0
100
AcDbArc
 50
0.0
 51
90.0
  0
LINE
  5
1C40A
330
1BD9A
100
AcDbEntity
  8
U1
100
AcDbLine
 10
6985.41703198606
 20
7525.915360473253
 30
0.0
 11
6978.01703198606
 21
7525.915360473253
 31
0.0
  0
ARC
  5
1C40B
330
1BD9A
100
AcDbEntity
  8
U1
100
AcDbCircle
 10
6978.01703198606
 20
7521.915360473252
 30
0.0
 40
4.0
100
AcDbArc
 50
90.0
 51
180.0
  0
LINE
  5
1C40C
330
1BD9A
100
AcDbEntity
  8
U1
100
AcDbLine
 10
6989.417031986061
 20
7469.515360473251
 30
0.0
 11
6989.417031986059
 21
7521.915360473252
 31
0.0
  0
LINE
  5
1C40D
330
1BD9A
100
AcDbEntity
  8
U1
100
AcDbLine
 10
6965.417031986061
 20
5725.915360473251
 30
0.0
 11
6933.01703198606
 21
5725.915360473251
 31
0.0
  0
LINE
  5
1C40E
330
1BD9A
100
AcDbEntity
  8
U1
100
AcDbLine
 10
6933.01703198606
 20
5665.51536047325
 30
0.0
 11
6985.41703198606
 21
5665.51536047325
 31
0.0
  0
ARC
  5
1C40F
330
1BD9A
100
AcDbEntity
  8
U1
100
AcDbCircle
 10
6933.01703198606
 20
5669.51536047325
 30
0.0
 40
4.0
100
AcDbArc
 50
180.0
 51
270.0
  0
ARC
  5
1C410
330
1BD9A
100
AcDbEntity
  8
U1
100
AcDbCircle
 10
6933.01703198606
 20
5721.915360473252
 30
0.0
 40
4.0
100
AcDbArc
 50
90.0
 51
180.0
  0
LINE
  5
1C411
330
1BD9A
100
AcDbEntity
  8
U1
100
AcDbLine
 10
6929.01703198606
 20
5721.915360473252
 30
0.0
 11
6929.01703198606
 21
5669.51536047325
 31
0.0
  0
ARC
  5
1C412
330
1BD9A
100
AcDbEntity
  8
U1
100
AcDbCircle
 10
6985.41703198606
 20
5669.51536047325
 30
0.0
 40
4.0
100
AcDbArc
 50
270.0
 51
0.0
  0
ARC
  5
1C413
330
1BD9A
100
AcDbEntity
  8
U1
100
AcDbCircle
 10
6965.417031986061
 20
5721.915360473252
 30
0.0
 40
4.0
100
AcDbArc
 50
0.0
 51
90.0
  0
ARC
  5
1C414
330
1BD9A
100
AcDbEntity
  8
U1
100
AcDbCircle
 10
6972.867031986059
 20
5712.665360473252
 30
0.0
 40
1.149999999999977
100
AcDbArc
 50
180.0
 51
0.0
  0
LINE
  5
1C415
330
1BD9A
100
AcDbEntity
  8
U1
100
AcDbLine
 10
6976.317031986059
 20
5720.215360473252
 30
0.0
 11
6976.317031986059
 21
5712.665360473252
 31
0.0
  0
LINE
  5
1C416
330
1BD9A
100
AcDbEntity
  8
U1
100
AcDbLine
 10
6974.017031986059
 20
5720.215360473252
 30
0.0
 11
6976.317031986059
 21
5720.215360473252
 31
0.0
  0
LINE
  5
1C417
330
1BD9A
100
AcDbEntity
  8
U1
100
AcDbLine
 10
6971.717031986061
 20
5713.215360473252
 30
0.0
 11
6974.017031986059
 21
5713.215360473252
 31
0.0
  0
ARC
  5
1C418
330
1BD9A
100
AcDbEntity
  8
U1
100
AcDbCircle
 10
6972.867031986059
 20
5712.665360473252
 30
0.0
 40
3.450000000000044
100
AcDbArc
 50
180.0
 51
0.0
  0
LINE
  5
1C419
330
1BD9A
100
AcDbEntity
  8
U1
100
AcDbLine
 10
6971.717031986061
 20
5712.665360473252
 30
0.0
 11
6971.717031986059
 21
5721.915360473251
 31
0.0
  0
LINE
  5
1C41A
330
1BD9A
100
AcDbEntity
  8
U1
100
AcDbLine
 10
6974.017031986059
 20
5721.915360473252
 30
0.0
 11
6974.017031986059
 21
5712.665360473252
 31
0.0
  0
LINE
  5
1C41B
330
1BD9A
100
AcDbEntity
  8
U1
100
AcDbLine
 10
6969.41703198606
 20
5712.665360473252
 30
0.0
 11
6969.41703198606
 21
5721.915360473252
 31
0.0
  0
ARC
  5
1C41C
330
1BD9A
100
AcDbEntity
  8
U1
100
AcDbCircle
 10
6985.41703198606
 20
5721.915360473252
 30
0.0
 40
4.0
100
AcDbArc
 50
0.0
 51
90.0
  0
LINE
  5
1C41D
330
1BD9A
100
AcDbEntity
  8
U1
100
AcDbLine
 10
6985.41703198606
 20
5725.915360473251
 30
0.0
 11
6978.01703198606
 21
5725.915360473251
 31
0.0
  0
ARC
  5
1C41E
330
1BD9A
100
AcDbEntity
  8
U1
100
AcDbCircle
 10
6978.01703198606
 20
5721.915360473252
 30
0.0
 40
4.0
100
AcDbArc
 50
90.0
 51
180.0
  0
LINE
  5
1C41F
330
1BD9A
100
AcDbEntity
  8
U1
100
AcDbLine
 10
6989.417031986061
 20
5669.51536047325
 30
0.0
 11
6989.417031986059
 21
5721.915360473252
 31
0.0
  0
LINE
  5
1C420
330
1BD9A
100
AcDbEntity
  8
KISO
100
AcDbLine
 10
6559.21703198606
 20
7095.715360473253
 30
0.0
 11
7359.21703198606
 21
7095.715360473253
 31
0.0
  0
LINE
  5
1C421
330
1BD9A
100
AcDbEntity
  8
KISO
100
AcDbLine
 10
7359.21703198606
 20
7095.715360473253
 30
0.0
 11
7359.21703198606
 21
7895.715360473253
 31
0.0
  0
LINE
  5
1C422
330
1BD9A
100
AcDbEntity
  8
KISO
100
AcDbLine
 10
7359.21703198606
 20
7895.715360473253
 30
0.0
 11
6559.21703198606
 21
7895.715360473253
 31
0.0
  0
LINE
  5
1C423
330
1BD9A
100
AcDbEntity
  8
KISO
100
AcDbLine
 10
6559.21703198606
 20
7895.715360473253
 30
0.0
 11
6559.21703198606
 21
7095.715360473253
 31
0.0
  0
LINE
  5
1C424
330
1BD9A
100
AcDbEntity
  8
KISO
100
AcDbLine
 10
9009.217031986059
 20
7095.715360473253
 30
0.0
 11
9809.21703198606
 21
7095.715360473253
 31
0.0
  0
LINE
  5
1C425
330
1BD9A
100
AcDbEntity
  8
KISO
100
AcDbLine
 10
9809.21703198606
 20
7095.715360473253
 30
0.0
 11
9809.21703198606
 21
7895.715360473253
 31
0.0
  0
LINE
  5
1C426
330
1BD9A
100
AcDbEntity
  8
KISO
100
AcDbLine
 10
9809.21703198606
 20
7895.715360473253
 30
0.0
 11
9009.217031986059
 21
7895.715360473253
 31
0.0
  0
LINE
  5
1C427
330
1BD9A
100
AcDbEntity
  8
KISO
100
AcDbLine
 10
9009.217031986059
 20
7895.715360473253
 30
0.0
 11
9009.217031986059
 21
7095.715360473253
 31
0.0
  0
LINE
  5
1C428
330
1BD9A
100
AcDbEntity
  8
YANE
  6
2PL-L
 62
     6
100
AcDbLine
 10
9805.21703198606
 20
5344.715360473252
 30
0.0
 11
6563.217031986058
 21
5344.715360473252
 31
0.0
  0
LINE
  5
1C429
330
1BD9A
100
AcDbEntity
  8
YANE
  6
2PL-L
 62
     6
100
AcDbLine
 10
6563.217031986058
 20
5344.715360473252
 30
0.0
 11
6563.217031986058
 21
9646.715360473251
 31
0.0
  0
LINE
  5
1C42A
330
1BD9A
100
AcDbEntity
  8
YANE
  6
2PL-L
 62
     6
100
AcDbLine
 10
6563.217031986058
 20
9646.715360473251
 30
0.0
 11
9805.21703198606
 21
9646.715360473251
 31
0.0
  0
LINE
  5
1C42B
330
1BD9A
100
AcDbEntity
  8
YANE
  6
2PL-L
 62
     6
100
AcDbLine
 10
9805.21703198606
 20
9646.715360473251
 30
0.0
 11
9805.21703198606
 21
5344.715360473252
 31
0.0
  0
LINE
  5
1C42C
330
1BD9A
100
AcDbEntity
  8
KISO
100
AcDbLine
 10
6659.217031986059
 20
5395.715360473253
 30
0.0
 11
7259.21703198606
 21
5395.715360473253
 31
0.0
  0
LINE
  5
1C42D
330
1BD9A
100
AcDbEntity
  8
KISO
100
AcDbLine
 10
7259.21703198606
 20
5395.715360473253
 30
0.0
 11
7259.21703198606
 21
5995.715360473252
 31
0.0
  0
LINE
  5
1C42E
330
1BD9A
100
AcDbEntity
  8
KISO
100
AcDbLine
 10
7259.21703198606
 20
5995.715360473252
 30
0.0
 11
6659.217031986059
 21
5995.715360473252
 31
0.0
  0
LINE
  5
1C42F
330
1BD9A
100
AcDbEntity
  8
KISO
100
AcDbLine
 10
6659.217031986059
 20
5995.715360473252
 30
0.0
 11
6659.217031986059
 21
5395.715360473253
 31
0.0
  0
LINE
  5
1C430
330
1BD9A
100
AcDbEntity
  8
KISO
100
AcDbLine
 10
6659.217031986059
 20
8995.715360473253
 30
0.0
 11
7259.21703198606
 21
8995.715360473253
 31
0.0
  0
LINE
  5
1C431
330
1BD9A
100
AcDbEntity
  8
KISO
100
AcDbLine
 10
7259.21703198606
 20
8995.715360473253
 30
0.0
 11
7259.21703198606
 21
9595.715360473253
 31
0.0
  0
LINE
  5
1C432
330
1BD9A
100
AcDbEntity
  8
KISO
100
AcDbLine
 10
7259.21703198606
 20
9595.715360473253
 30
0.0
 11
6659.217031986059
 21
9595.715360473253
 31
0.0
  0
LINE
  5
1C433
330
1BD9A
100
AcDbEntity
  8
KISO
100
AcDbLine
 10
6659.217031986059
 20
9595.715360473253
 30
0.0
 11
6659.217031986059
 21
8995.715360473253
 31
0.0
  0
LINE
  5
1C434
330
1BD9A
100
AcDbEntity
  8
KISO
100
AcDbLine
 10
9709.217031986066
 20
8995.715360473253
 30
0.0
 11
9109.217031986066
 21
8995.715360473253
 31
0.0
  0
LINE
  5
1C435
330
1BD9A
100
AcDbEntity
  8
KISO
100
AcDbLine
 10
9109.217031986066
 20
8995.715360473253
 30
0.0
 11
9109.217031986066
 21
9595.715360473253
 31
0.0
  0
LINE
  5
1C436
330
1BD9A
100
AcDbEntity
  8
KISO
100
AcDbLine
 10
9109.217031986066
 20
9595.715360473253
 30
0.0
 11
9709.217031986066
 21
9595.715360473253
 31
0.0
  0
LINE
  5
1C437
330
1BD9A
100
AcDbEntity
  8
KISO
100
AcDbLine
 10
9709.217031986066
 20
9595.715360473253
 30
0.0
 11
9709.217031986066
 21
8995.715360473253
 31
0.0
  0
LINE
  5
1C438
330
1BD9A
100
AcDbEntity
  8
KISO
100
AcDbLine
 10
9709.217031986066
 20
5395.715360473253
 30
0.0
 11
9109.217031986066
 21
5395.715360473253
 31
0.0
  0
LINE
  5
1C439
330
1BD9A
100
AcDbEntity
  8
KISO
100
AcDbLine
 10
9109.217031986066
 20
5395.715360473253
 30
0.0
 11
9109.217031986066
 21
5995.715360473252
 31
0.0
  0
LINE
  5
1C43A
330
1BD9A
100
AcDbEntity
  8
KISO
100
AcDbLine
 10
9109.217031986066
 20
5995.715360473252
 30
0.0
 11
9709.217031986066
 21
5995.715360473252
 31
0.0
  0
LINE
  5
1C43B
330
1BD9A
100
AcDbEntity
  8
KISO
100
AcDbLine
 10
9709.217031986066
 20
5995.715360473252
 30
0.0
 11
9709.217031986066
 21
5395.715360473253
 31
0.0
  0
LINE
  5
1C43C
330
1BD9A
100
AcDbEntity
  8
U1
100
AcDbLine
 10
11795.58860891543
 20
2397.76425036702
 30
0.0
 11
12095.58860891543
 21
2397.76425036702
 31
0.0
  0
LINE
  5
1C43D
330
1BD9A
100
AcDbEntity
  8
U1
100
AcDbLine
 10
12095.58860891543
 20
2397.76425036702
 30
0.0
 11
12095.58860891543
 21
2697.76425036702
 31
0.0
  0
LINE
  5
1C43E
330
1BD9A
100
AcDbEntity
  8
U1
100
AcDbLine
 10
12095.58860891543
 20
2697.76425036702
 30
0.0
 11
11795.58860891543
 21
2697.76425036702
 31
0.0
  0
LINE
  5
1C43F
330
1BD9A
100
AcDbEntity
  8
U1
100
AcDbLine
 10
11795.58860891543
 20
2697.76425036702
 30
0.0
 11
11795.58860891543
 21
2397.76425036702
 31
0.0
  0
LINE
  5
1C440
330
1BD9A
100
AcDbEntity
  8
U1
100
AcDbLine
 10
11625.58860891544
 20
2387.764250367019
 30
0.0
 11
12265.58860891543
 21
2387.764250367019
 31
0.0
  0
LINE
  5
1C441
330
1BD9A
100
AcDbEntity
  8
U1
100
AcDbLine
 10
12265.58860891543
 20
2387.764250367019
 30
0.0
 11
12265.58860891543
 21
2707.76425036702
 31
0.0
  0
LINE
  5
1C442
330
1BD9A
100
AcDbEntity
  8
U1
100
AcDbLine
 10
12265.58860891543
 20
2707.76425036702
 30
0.0
 11
11625.58860891544
 21
2707.76425036702
 31
0.0
  0
LINE
  5
1C443
330
1BD9A
100
AcDbEntity
  8
U1
100
AcDbLine
 10
11625.58860891544
 20
2707.76425036702
 30
0.0
 11
11625.58860891544
 21
2387.764250367019
 31
0.0
  0
LINE
  5
1C444
330
1BD9A
100
AcDbEntity
  8
U1
100
AcDbLine
 10
11625.58860891544
 20
3465.956942898431
 30
0.0
 11
12265.58860891543
 21
3465.956942898431
 31
0.0
  0
LINE
  5
1C445
330
1BD9A
100
AcDbEntity
  8
U1
100
AcDbLine
 10
12265.58860891543
 20
3465.956942898431
 30
0.0
 11
12265.58860891543
 21
3489.95694289843
 31
0.0
  0
LINE
  5
1C446
330
1BD9A
100
AcDbEntity
  8
U1
100
AcDbLine
 10
12265.58860891543
 20
3489.95694289843
 30
0.0
 11
11625.58860891544
 21
3489.95694289843
 31
0.0
  0
LINE
  5
1C447
330
1BD9A
100
AcDbEntity
  8
U1
100
AcDbLine
 10
11625.58860891544
 20
3489.95694289843
 30
0.0
 11
11625.58860891544
 21
3465.956942898431
 31
0.0
  0
LINE
  5
1C448
330
1BD9A
100
AcDbEntity
  8
U3
100
AcDbLine
 10
8300.71370940511
 20
2759.665964325775
 30
0.0
 11
8528.48909457845
 21
3154.184504159609
 31
0.0
1001
ACAD
1000
DSTYLE
1002
{
1070
   147
1040
1.0
1070
    77
1070
     0
1002
}
  0
LINE
  5
1C449
330
1BD9A
100
AcDbEntity
  8
0
100
AcDbLine
 10
8289.166704021317
 20
2766.332630992441
 30
0.0
 11
8260.713709405118
 21
2690.383932023017
 31
0.0
  0
LINE
  5
1C44A
330
1BD9A
100
AcDbEntity
  8
0
100
AcDbLine
 10
8260.713709405118
 20
2690.383932023017
 30
0.0
 11
8312.260714788907
 21
2752.999297659108
 31
0.0
  0
SOLID
  5
1C44B
330
1BD9A
100
AcDbEntity
  8
0
100
AcDbTrace
 10
8289.166704021317
 20
2766.332630992441
 30
0.0
 11
8312.260714788907
 21
2752.999297659108
 31
0.0
 12
8260.713709405118
 22
2690.383932023017
 32
0.0
 13
8260.713709405118
 23
2690.383932023017
 33
0.0
  0
LINE
  5
1C44C
330
1BD9A
100
AcDbEntity
  8
0
100
AcDbLine
 10
8312.260714788907
 20
2752.999297659108
 30
0.0
 11
8289.166704021317
 21
2766.332630992441
 31
0.0
  0
ARC
  5
1C44D
330
1BD9A
100
AcDbEntity
  8
U1
100
AcDbCircle
 10
9435.417031986061
 20
9321.915360473253
 30
0.0
 40
6.299999999999272
100
AcDbArc
 50
0.0
 51
90.0
  0
LINE
  5
1C44E
330
1BD9A
100
AcDbEntity
  8
U1
100
AcDbLine
 10
9435.417031986061
 20
9328.215360473253
 30
0.0
 11
9428.017031986057
 21
9328.215360473253
 31
0.0
  0
ARC
  5
1C44F
330
1BD9A
100
AcDbEntity
  8
U1
100
AcDbCircle
 10
9428.017031986057
 20
9321.915360473253
 30
0.0
 40
6.299999999999272
100
AcDbArc
 50
90.0
 51
180.0
  0
ARC
  5
1C450
330
1BD9A
100
AcDbEntity
  8
U1
100
AcDbCircle
 10
9415.417031986061
 20
9321.915360473253
 30
0.0
 40
6.299999999999272
100
AcDbArc
 50
0.0
 51
90.0
  0
LINE
  5
1C451
330
1BD9A
100
AcDbEntity
  8
U1
100
AcDbLine
 10
9415.417031986061
 20
9328.215360473253
 30
0.0
 11
9383.017031986055
 21
9328.215360473253
 31
0.0
  0
ARC
  5
1C452
330
1BD9A
100
AcDbEntity
  8
U1
100
AcDbCircle
 10
9383.017031986055
 20
9321.915360473253
 30
0.0
 40
6.299999999999272
100
AcDbArc
 50
90.0
 51
180.0
  0
LINE
  5
1C453
330
1BD9A
100
AcDbEntity
  8
U1
100
AcDbLine
 10
9376.717031986059
 20
9321.915360473253
 30
0.0
 11
9376.717031986059
 21
9269.515360473251
 31
0.0
  0
ARC
  5
1C454
330
1BD9A
100
AcDbEntity
  8
U1
100
AcDbCircle
 10
9383.017031986055
 20
9269.515360473251
 30
0.0
 40
6.299999999999272
100
AcDbArc
 50
180.0
 51
270.0
  0
LINE
  5
1C455
330
1BD9A
100
AcDbEntity
  8
U1
100
AcDbLine
 10
9383.017031986055
 20
9263.215360473251
 30
0.0
 11
9435.417031986061
 21
9263.215360473251
 31
0.0
  0
ARC
  5
1C456
330
1BD9A
100
AcDbEntity
  8
U1
100
AcDbCircle
 10
9435.417031986061
 20
9269.515360473251
 30
0.0
 40
6.299999999999272
100
AcDbArc
 50
270.0
 51
0.0
  0
LINE
  5
1C457
330
1BD9A
100
AcDbEntity
  8
U1
100
AcDbLine
 10
9441.71703198606
 20
9269.515360473251
 30
0.0
 11
9441.71703198606
 21
9321.915360473253
 31
0.0
  0
ARC
  5
1C458
330
1BD9A
100
AcDbEntity
  8
U1
100
AcDbCircle
 10
9435.417031986061
 20
7521.915360473252
 30
0.0
 40
6.299999999999272
100
AcDbArc
 50
359.9999999999917
 51
90.0
  0
LINE
  5
1C459
330
1BD9A
100
AcDbEntity
  8
U1
100
AcDbLine
 10
9435.417031986061
 20
7528.215360473253
 30
0.0
 11
9428.017031986057
 21
7528.215360473253
 31
0.0
  0
ARC
  5
1C45A
330
1BD9A
100
AcDbEntity
  8
U1
100
AcDbCircle
 10
9428.017031986057
 20
7521.915360473252
 30
0.0
 40
6.299999999999272
100
AcDbArc
 50
90.0
 51
180.0000000000082
  0
ARC
  5
1C45B
330
1BD9A
100
AcDbEntity
  8
U1
100
AcDbCircle
 10
9415.417031986061
 20
7521.915360473252
 30
0.0
 40
6.299999999999272
100
AcDbArc
 50
359.9999999999917
 51
90.0
  0
LINE
  5
1C45C
330
1BD9A
100
AcDbEntity
  8
U1
100
AcDbLine
 10
9415.417031986061
 20
7528.215360473253
 30
0.0
 11
9383.017031986055
 21
7528.215360473253
 31
0.0
  0
ARC
  5
1C45D
330
1BD9A
100
AcDbEntity
  8
U1
100
AcDbCircle
 10
9383.017031986055
 20
7521.915360473252
 30
0.0
 40
6.299999999999272
100
AcDbArc
 50
90.0
 51
180.0000000000082
  0
LINE
  5
1C45E
330
1BD9A
100
AcDbEntity
  8
U1
100
AcDbLine
 10
9376.717031986059
 20
7521.915360473252
 30
0.0
 11
9376.717031986059
 21
7469.515360473251
 31
0.0
  0
ARC
  5
1C45F
330
1BD9A
100
AcDbEntity
  8
U1
100
AcDbCircle
 10
9383.017031986055
 20
7469.515360473251
 30
0.0
 40
6.299999999999272
100
AcDbArc
 50
180.0
 51
270.0
  0
LINE
  5
1C460
330
1BD9A
100
AcDbEntity
  8
U1
100
AcDbLine
 10
9383.017031986055
 20
7463.215360473251
 30
0.0
 11
9435.417031986061
 21
7463.215360473251
 31
0.0
  0
ARC
  5
1C461
330
1BD9A
100
AcDbEntity
  8
U1
100
AcDbCircle
 10
9435.417031986061
 20
7469.515360473251
 30
0.0
 40
6.299999999999272
100
AcDbArc
 50
270.0
 51
0.0
  0
LINE
  5
1C462
330
1BD9A
100
AcDbEntity
  8
U1
100
AcDbLine
 10
9441.71703198606
 20
7469.515360473251
 30
0.0
 11
9441.71703198606
 21
7521.915360473252
 31
0.0
  0
ARC
  5
1C463
330
1BD9A
100
AcDbEntity
  8
U1
100
AcDbCircle
 10
9435.417031986061
 20
5721.915360473253
 30
0.0
 40
6.299999999999272
100
AcDbArc
 50
359.9999999999917
 51
90.0
  0
LINE
  5
1C464
330
1BD9A
100
AcDbEntity
  8
U1
100
AcDbLine
 10
9435.417031986061
 20
5728.215360473252
 30
0.0
 11
9428.017031986057
 21
5728.215360473252
 31
0.0
  0
ARC
  5
1C465
330
1BD9A
100
AcDbEntity
  8
U1
100
AcDbCircle
 10
9428.017031986057
 20
5721.915360473253
 30
0.0
 40
6.299999999999272
100
AcDbArc
 50
90.0
 51
180.0000000000082
  0
ARC
  5
1C466
330
1BD9A
100
AcDbEntity
  8
U1
100
AcDbCircle
 10
9415.417031986061
 20
5721.915360473253
 30
0.0
 40
6.299999999999272
100
AcDbArc
 50
359.9999999999917
 51
90.0
  0
LINE
  5
1C467
330
1BD9A
100
AcDbEntity
  8
U1
100
AcDbLine
 10
9415.417031986061
 20
5728.215360473252
 30
0.0
 11
9383.017031986055
 21
5728.215360473252
 31
0.0
  0
ARC
  5
1C468
330
1BD9A
100
AcDbEntity
  8
U1
100
AcDbCircle
 10
9383.017031986055
 20
5721.915360473253
 30
0.0
 40
6.299999999999272
100
AcDbArc
 50
90.0
 51
180.0000000000082
  0
LINE
  5
1C469
330
1BD9A
100
AcDbEntity
  8
U1
100
AcDbLine
 10
9376.717031986059
 20
5721.915360473252
 30
0.0
 11
9376.717031986059
 21
5669.51536047325
 31
0.0
  0
ARC
  5
1C46A
330
1BD9A
100
AcDbEntity
  8
U1
100
AcDbCircle
 10
9383.017031986055
 20
5669.51536047325
 30
0.0
 40
6.299999999999272
100
AcDbArc
 50
180.0
 51
270.0
  0
LINE
  5
1C46B
330
1BD9A
100
AcDbEntity
  8
U1
100
AcDbLine
 10
9383.017031986055
 20
5663.215360473252
 30
0.0
 11
9435.417031986061
 21
5663.215360473252
 31
0.0
  0
ARC
  5
1C46C
330
1BD9A
100
AcDbEntity
  8
U1
100
AcDbCircle
 10
9435.417031986061
 20
5669.51536047325
 30
0.0
 40
6.299999999999272
100
AcDbArc
 50
270.0
 51
0.0
  0
LINE
  5
1C46D
330
1BD9A
100
AcDbEntity
  8
U1
100
AcDbLine
 10
9441.71703198606
 20
5669.51536047325
 30
0.0
 11
9441.71703198606
 21
5721.915360473252
 31
0.0
  0
ARC
  5
1C46E
330
1BD9A
100
AcDbEntity
  8
U1
100
AcDbCircle
 10
6985.41703198606
 20
9321.915360473253
 30
0.0
 40
6.299999999999272
100
AcDbArc
 50
0.0
 51
90.00000000000826
  0
LINE
  5
1C46F
330
1BD9A
100
AcDbEntity
  8
U1
100
AcDbLine
 10
6985.41703198606
 20
9328.215360473253
 30
0.0
 11
6978.01703198606
 21
9328.215360473253
 31
0.0
  0
ARC
  5
1C470
330
1BD9A
100
AcDbEntity
  8
U1
100
AcDbCircle
 10
6978.01703198606
 20
9321.915360473253
 30
0.0
 40
6.299999999999272
100
AcDbArc
 50
89.99999999999173
 51
180.0
  0
ARC
  5
1C471
330
1BD9A
100
AcDbEntity
  8
U1
100
AcDbCircle
 10
6965.417031986061
 20
9321.915360473253
 30
0.0
 40
6.299999999999272
100
AcDbArc
 50
0.0
 51
90.00000000000826
  0
LINE
  5
1C472
330
1BD9A
100
AcDbEntity
  8
U1
100
AcDbLine
 10
6965.41703198606
 20
9328.215360473253
 30
0.0
 11
6933.01703198606
 21
9328.215360473253
 31
0.0
  0
ARC
  5
1C473
330
1BD9A
100
AcDbEntity
  8
U1
100
AcDbCircle
 10
6933.017031986058
 20
9321.915360473253
 30
0.0
 40
6.299999999999272
100
AcDbArc
 50
89.99999999999173
 51
180.0
  0
LINE
  5
1C474
330
1BD9A
100
AcDbEntity
  8
U1
100
AcDbLine
 10
6926.71703198606
 20
9321.915360473253
 30
0.0
 11
6926.71703198606
 21
9269.515360473251
 31
0.0
  0
ARC
  5
1C475
330
1BD9A
100
AcDbEntity
  8
U1
100
AcDbCircle
 10
6933.017031986058
 20
9269.515360473251
 30
0.0
 40
6.299999999999272
100
AcDbArc
 50
180.0
 51
270.0000000000081
  0
LINE
  5
1C476
330
1BD9A
100
AcDbEntity
  8
U1
100
AcDbLine
 10
6933.01703198606
 20
9263.215360473251
 30
0.0
 11
6985.41703198606
 21
9263.215360473251
 31
0.0
  0
ARC
  5
1C477
330
1BD9A
100
AcDbEntity
  8
U1
100
AcDbCircle
 10
6985.41703198606
 20
9269.515360473251
 30
0.0
 40
6.299999999999272
100
AcDbArc
 50
269.9999999999918
 51
0.0
  0
LINE
  5
1C478
330
1BD9A
100
AcDbEntity
  8
U1
100
AcDbLine
 10
6991.71703198606
 20
9269.515360473251
 30
0.0
 11
6991.71703198606
 21
9321.915360473253
 31
0.0
  0
ARC
  5
1C479
330
1BD9A
100
AcDbEntity
  8
U1
100
AcDbCircle
 10
6985.41703198606
 20
7521.915360473252
 30
0.0
 40
6.299999999999272
100
AcDbArc
 50
359.9999999999917
 51
90.00000000000826
  0
LINE
  5
1C47A
330
1BD9A
100
AcDbEntity
  8
U1
100
AcDbLine
 10
6985.41703198606
 20
7528.215360473253
 30
0.0
 11
6978.01703198606
 21
7528.215360473253
 31
0.0
  0
ARC
  5
1C47B
330
1BD9A
100
AcDbEntity
  8
U1
100
AcDbCircle
 10
6978.01703198606
 20
7521.915360473252
 30
0.0
 40
6.299999999999272
100
AcDbArc
 50
89.99999999999173
 51
180.0000000000082
  0
ARC
  5
1C47C
330
1BD9A
100
AcDbEntity
  8
U1
100
AcDbCircle
 10
6965.41703198606
 20
7521.915360473252
 30
0.0
 40
6.300000000000181
100
AcDbArc
 50
0.0
 51
90.0
  0
LINE
  5
1C47D
330
1BD9A
100
AcDbEntity
  8
U1
100
AcDbLine
 10
6965.41703198606
 20
7528.215360473253
 30
0.0
 11
6933.01703198606
 21
7528.215360473253
 31
0.0
  0
ARC
  5
1C47E
330
1BD9A
100
AcDbEntity
  8
U1
100
AcDbCircle
 10
6933.017031986058
 20
7521.915360473252
 30
0.0
 40
6.299999999999272
100
AcDbArc
 50
89.99999999999173
 51
180.0000000000082
  0
LINE
  5
1C47F
330
1BD9A
100
AcDbEntity
  8
U1
100
AcDbLine
 10
6926.71703198606
 20
7521.915360473252
 30
0.0
 11
6926.71703198606
 21
7469.515360473251
 31
0.0
  0
ARC
  5
1C480
330
1BD9A
100
AcDbEntity
  8
U1
100
AcDbCircle
 10
6933.017031986058
 20
7469.515360473251
 30
0.0
 40
6.299999999999272
100
AcDbArc
 50
180.0
 51
270.0000000000081
  0
LINE
  5
1C481
330
1BD9A
100
AcDbEntity
  8
U1
100
AcDbLine
 10
6933.01703198606
 20
7463.215360473251
 30
0.0
 11
6985.41703198606
 21
7463.215360473251
 31
0.0
  0
ARC
  5
1C482
330
1BD9A
100
AcDbEntity
  8
U1
100
AcDbCircle
 10
6985.41703198606
 20
7469.515360473251
 30
0.0
 40
6.299999999999272
100
AcDbArc
 50
269.9999999999918
 51
0.0
  0
LINE
  5
1C483
330
1BD9A
100
AcDbEntity
  8
U1
100
AcDbLine
 10
6991.71703198606
 20
7469.515360473251
 30
0.0
 11
6991.71703198606
 21
7521.915360473252
 31
0.0
  0
ARC
  5
1C484
330
1BD9A
100
AcDbEntity
  8
U1
100
AcDbCircle
 10
6985.41703198606
 20
5721.915360473253
 30
0.0
 40
6.299999999999272
100
AcDbArc
 50
359.9999999999917
 51
90.00000000000826
  0
LINE
  5
1C485
330
1BD9A
100
AcDbEntity
  8
U1
100
AcDbLine
 10
6985.41703198606
 20
5728.215360473252
 30
0.0
 11
6978.01703198606
 21
5728.215360473252
 31
0.0
  0
ARC
  5
1C486
330
1BD9A
100
AcDbEntity
  8
U1
100
AcDbCircle
 10
6978.01703198606
 20
5721.915360473253
 30
0.0
 40
6.299999999999272
100
AcDbArc
 50
89.99999999999173
 51
180.0000000000082
  0
ARC
  5
1C487
330
1BD9A
100
AcDbEntity
  8
U1
100
AcDbCircle
 10
6965.41703198606
 20
5721.915360473252
 30
0.0
 40
6.300000000000181
100
AcDbArc
 50
0.0
 51
90.0
  0
LINE
  5
1C488
330
1BD9A
100
AcDbEntity
  8
U1
100
AcDbLine
 10
6965.41703198606
 20
5728.215360473252
 30
0.0
 11
6933.01703198606
 21
5728.215360473252
 31
0.0
  0
ARC
  5
1C489
330
1BD9A
100
AcDbEntity
  8
U1
100
AcDbCircle
 10
6933.017031986058
 20
5721.915360473253
 30
0.0
 40
6.299999999999272
100
AcDbArc
 50
89.99999999999173
 51
180.0000000000082
  0
LINE
  5
1C48A
330
1BD9A
100
AcDbEntity
  8
U1
100
AcDbLine
 10
6926.71703198606
 20
5721.915360473252
 30
0.0
 11
6926.71703198606
 21
5669.51536047325
 31
0.0
  0
ARC
  5
1C48B
330
1BD9A
100
AcDbEntity
  8
U1
100
AcDbCircle
 10
6933.017031986058
 20
5669.51536047325
 30
0.0
 40
6.299999999999272
100
AcDbArc
 50
180.0
 51
270.0000000000081
  0
LINE
  5
1C48C
330
1BD9A
100
AcDbEntity
  8
U1
100
AcDbLine
 10
6933.01703198606
 20
5663.215360473252
 30
0.0
 11
6985.41703198606
 21
5663.215360473252
 31
0.0
  0
ARC
  5
1C48D
330
1BD9A
100
AcDbEntity
  8
U1
100
AcDbCircle
 10
6985.41703198606
 20
5669.51536047325
 30
0.0
 40
6.299999999999272
100
AcDbArc
 50
269.9999999999918
 51
0.0
  0
LINE
  5
1C48E
330
1BD9A
100
AcDbEntity
  8
U1
100
AcDbLine
 10
6991.71703198606
 20
5669.51536047325
 30
0.0
 11
6991.71703198606
 21
5721.915360473252
 31
0.0
  0
TEXT
  5
1C4B0
330
1BD9A
100
AcDbEntity
  8
SUNPOU
100
AcDbText
 10
2447.224177967036
 20
5506.64783241331
 30
0.0
 40
73.84615384615384
  1
1
 41
0.6700000000000001
  7
00
 11
2447.224177967036
 21
5496.801678567156
 31
0.0
100
AcDbText
 73
     1
  0
TEXT
  5
1C4B1
330
1BD9A
100
AcDbEntity
  8
SUNPOU
100
AcDbText
 10
2127.52147611395
 20
5490.647832413309
 30
0.0
 40
92.30769230769228
  1
（ S = 　　  ）
 41
0.6700000000000001
  7
00
 11
2127.52147611395
 21
5478.340140105616
 31
0.0
100
AcDbText
 73
     1
  0
TEXT
  5
1C4B2
330
1BD9A
100
AcDbEntity
  8
SUNPOU
100
AcDbText
 10
1410.67113875098
 20
5478.340140105618
 30
0.0
 40
120.0
  1
基礎断面図
  7
01
 72
     4
 11
1750.671138750981
 21
5538.340140105618
 31
0.0
100
AcDbText
  0
TEXT
  5
1C4B3
330
1BD9A
100
AcDbEntity
  8
SUNPOU
100
AcDbText
 10
2559.579748236775
 20
5469.724755490232
 30
0.0
 40
73.84615384615384
  1
25
 41
0.6700000000000001
  7
00
 11
2559.579748236775
 21
5459.878601644078
 31
0.0
100
AcDbText
 73
     1
  0
TEXT
  5
1C4B4
330
1BD9A
100
AcDbEntity
  8
SUNPOU
100
AcDbText
 10
2495.630305282408
 20
5488.18629395177
 30
0.0
 40
73.84615384615384
  1
/
 41
0.6700000000000001
  7
00
 11
2495.630305282408
 21
5478.340140105616
 31
0.0
100
AcDbText
 73
     1
  0
TEXT
  5
1C4B5
330
1BD9A
100
AcDbEntity
  8
SUNPOU
100
AcDbText
 10
1790.833369699463
 20
4752.300423373948
 30
0.0
 40
90.0
  1
寒冷地の場合、凍結深度等を考慮し、実情に
  7
01
100
AcDbText
  0
TEXT
  5
1C4B6
330
1BD9A
100
AcDbEntity
  8
SUNPOU
100
AcDbText
 10
1790.833369699463
 20
4443.728994802516
 30
0.0
 40
90.0
  1
その他現地の実情にあわせて設計して下さい。
  7
01
100
AcDbText
  0
TEXT
  5
1C4B7
330
1BD9A
100
AcDbEntity
  8
SUNPOU
100
AcDbText
 10
1415.877624610069
 20
5131.58613765966
 30
0.0
 40
89.9993750043402
  1
地耐力   　　　 以上,コンクリート設計基準強度　　　　　以上
  7
01
100
AcDbText
  0
TEXT
  5
1C4B8
330
1BD9A
100
AcDbEntity
  8
SUNPOU
100
AcDbText
 10
1285.313995893837
 20
5320.840140105616
 30
0.0
 40
90.0
  1
<下記条件での参考図>
  7
01
 72
     4
 11
1874.17113875098
 21
5365.840140105616
 31
0.0
100
AcDbText
  0
TEXT
  5
1C4B9
330
1BD9A
100
AcDbEntity
  8
SUNPOU
100
AcDbText
 10
1790.833369699463
 20
4598.01470908823
 30
0.0
 40
90.0
  1
あわせて設計して下さい。
  7
01
100
AcDbText
  0
TEXT
  5
1C4BA
330
1BD9A
100
AcDbEntity
  8
SUNPOU
100
AcDbText
 10
1415.877624610069
 20
4977.300423373947
 30
0.0
 40
89.9993750043402
  1
基準風速   　　 , 地表面粗度区分
  7
01
100
AcDbText
  0
TEXT
  5
1C4BB
330
1BD9A
100
AcDbEntity
  8
SUNPOU
100
AcDbText
 10
1473.993704397327
 20
4443.728994802516
 30
0.0
 40
90.0
  1
注　）
  7
01
100
AcDbText
  0
TEXT
  5
1C4BC
330
1BD9A
100
AcDbEntity
  8
SUNPOU
100
AcDbText
 10
1584.627624610067
 20
4443.728994802516
 30
0.0
 40
90.0
  1
2
 41
0.6700000000000001
  7
01
100
AcDbText
  0
TEXT
  5
1C4BD
330
1BD9A
100
AcDbEntity
  8
SUNPOU
100
AcDbText
 10
1473.993704397327
 20
4752.300423373948
 30
0.0
 40
90.0
  1
注　）
  7
01
100
AcDbText
  0
TEXT
  5
1C4BE
330
1BD9A
100
AcDbEntity
  8
SUNPOU
100
AcDbText
 10
1584.627624610067
 20
4752.300423373948
 30
0.0
 40
90.0
  1
1
 41
0.6700000000000001
  7
01
100
AcDbText
  0
ARC
  5
1C4BF
330
1BD9A
100
AcDbEntity
  8
SUNPOU
100
AcDbCircle
 10
1568.835898517274
 20
5095.373561101492
 30
0.0
 40
225.0
100
AcDbArc
 50
148.3472725282829
 51
211.652727471717
  0
TEXT
  5
1C4C0
330
1BD9A
100
AcDbEntity
  8
SUNPOU
100
AcDbText
 10
1899.641053275237
 20
4977.300423373947
 30
0.0
 40
89.9993750043402
  1
34 m/s
 41
0.6700000000000001
  7
01
100
AcDbText
  0
TEXT
  5
1C4C1
330
1BD9A
100
AcDbEntity
  8
SUNPOU
100
AcDbText
 10
1790.136032035151
 20
5131.58613765966
 30
0.0
 40
89.9993750043402
  1
50  N/m
 41
0.6700000000000001
  7
01
100
AcDbText
  0
TEXT
  5
1C4C2
330
1BD9A
100
AcDbEntity
  8
SUNPOU
100
AcDbText
 10
1925.972484821105
 20
5131.58613765966
 30
0.0
 40
71.99950000347218
  1
K
 41
0.6700000000000001
  7
01
100
AcDbText
  0
TEXT
  5
1C4C3
330
1BD9A
100
AcDbEntity
  8
SUNPOU
100
AcDbText
 10
2193.612641549488
 20
5181.774564017147
 30
0.0
 40
46.28539285937498
  1
2
 41
0.6700000000000001
  7
00
100
AcDbText
  0
LINE
  5
1C4C4
330
1BD9A
100
AcDbEntity
  8
SUNPOU
100
AcDbLine
 10
3207.693186176677
 20
5060.792787072727
 30
0.0
 11
3263.943186176677
 21
5060.792787072727
 31
0.0
  0
LINE
  5
1C4C5
330
1BD9A
100
AcDbEntity
  8
SUNPOU
100
AcDbLine
 10
3207.693186176677
 20
4977.300423373944
 30
0.0
 11
3263.943186176677
 21
4977.300423373944
 31
0.0
  0
LINE
  5
1C4C6
330
1BD9A
100
AcDbEntity
  8
SUNPOU
100
AcDbLine
 10
3218.943186176677
 20
4977.300423373947
 30
0.0
 11
3218.943186176677
 21
5060.792787072727
 31
0.0
  0
LINE
  5
1C4C7
330
1BD9A
100
AcDbEntity
  8
SUNPOU
100
AcDbLine
 10
3235.818186176677
 20
4977.300423373947
 30
0.0
 11
3235.818186176677
 21
5060.792787072727
 31
0.0
  0
LINE
  5
1C4C8
330
1BD9A
100
AcDbEntity
  8
SUNPOU
100
AcDbLine
 10
3252.693186176677
 20
4977.300423373947
 30
0.0
 11
3252.693186176677
 21
5060.792787072727
 31
0.0
  0
TEXT
  5
1C4C9
330
1BD9A
100
AcDbEntity
  8
SUNPOU
100
AcDbText
 10
3996.061302286715
 20
5131.58613765966
 30
0.0
 40
89.9993750043402
  1
N/mm
 41
0.6700000000000001
  7
01
100
AcDbText
  0
TEXT
  5
1C4CA
330
1BD9A
100
AcDbEntity
  8
SUNPOU
100
AcDbText
 10
3860.224849500765
 20
5131.58613765966
 30
0.0
 40
89.9993750043402
  1
18
 41
0.6700000000000001
  7
01
100
AcDbText
  0
ARC
  5
1C4CB
330
1BD9A
100
AcDbEntity
  8
SUNPOU
100
AcDbCircle
 10
4470.276181768835
 20
5095.373561101492
 30
0.0
 40
225.0
100
AcDbArc
 50
328.3472725282829
 51
31.65272747171703
  0
TEXT
  5
1C4CC
330
1BD9A
100
AcDbEntity
  8
SUNPOU
100
AcDbText
 10
4300.525784318121
 20
5181.774564017147
 30
0.0
 40
46.28539285937498
  1
2
 41
0.6700000000000001
  7
00
100
AcDbText
  0
ENDSEC
  0
SECTION
  2
OBJECTS
  0
DICTIONARY
  5
1BD88
330
0
100
AcDbDictionary
281
     1
  3
ACAD_GROUP
350
1BD89
  3
ACAD_LAYOUT
350
1BD95
  3
ACAD_MLINESTYLE
350
1BD92
  3
ACAD_PLOTSETTINGS
350
1BD94
  3
ACAD_PLOTSTYLENAME
350
1BD8A
  3
AcDbVariableDictionary
350
1C4CD
  0
DICTIONARY
  5
1BD89
102
{ACAD_REACTORS
330
1BD88
102
}
330
1BD88
100
AcDbDictionary
281
     1
  0
DICTIONARY
  5
1BD95
102
{ACAD_REACTORS
330
1BD88
102
}
330
1BD88
100
AcDbDictionary
281
     1
  3
Model
350
1BD9D
  3
ﾚｲｱｳﾄ1
350
1BD99
  0
DICTIONARY
  5
1BD92
102
{ACAD_REACTORS
330
1BD88
102
}
330
1BD88
100
AcDbDictionary
281
     1
  3
Standard
350
1BD93
  0
DICTIONARY
  5
1BD94
102
{ACAD_REACTORS
330
1BD88
102
}
330
1BD88
100
AcDbDictionary
281
     1
  0
ACDBDICTIONARYWDFLT
  5
1BD8A
102
{ACAD_REACTORS
330
1BD88
102
}
330
1BD88
100
AcDbDictionary
281
     1
  3
Normal
350
1BD8B
100
AcDbDictionaryWithDefault
340
1BD8B
  0
DICTIONARY
  5
1C4CD
102
{ACAD_REACTORS
330
1BD88
102
}
330
1BD88
100
AcDbDictionary
281
     1
  3
DIMASSOC
350
1C4CE
  0
LAYOUT
  5
1BD9D
102
{ACAD_REACTORS
330
1BD95
102
}
330
1BD95
100
AcDbPlotSettings
  1

  2
Muratec V-1200 Is@Web Printer
  4

  6

 40
0.0
 41
0.0
 42
0.0
 43
0.0
 44
0.0
 45
0.0
 46
0.0
 47
0.0
 48
0.0
 49
0.0
140
0.0
141
0.0
142
1.0
143
1.0
 70
  1712
 72
     0
 73
     0
 74
     0
  7

 75
     0
147
1.0
148
0.0
149
0.0
100
AcDbLayout
  1
Model
 70
     1
 71
     0
 10
0.0
 20
0.0
 11
12.0
 21
9.0
 12
0.0
 22
0.0
 32
0.0
 14
0.0
 24
0.0
 34
0.0
 15
0.0
 25
0.0
 35
0.0
146
0.0
 13
0.0
 23
0.0
 33
0.0
 16
1.0
 26
0.0
 36
0.0
 17
0.0
 27
1.0
 37
0.0
 76
     0
330
1BD9A
  0
LAYOUT
  5
1BD99
102
{ACAD_REACTORS
330
1BD95
102
}
330
1BD95
100
AcDbPlotSettings
  1

  2
Muratec V-1200 Is@Web Printer
  4

  6

 40
0.0
 41
0.0
 42
0.0
 43
0.0
 44
0.0
 45
0.0
 46
0.0
 47
0.0
 48
0.0
 49
0.0
140
0.0
141
0.0
142
1.0
143
1.0
 70
   688
 72
     0
 73
     0
 74
     5
  7

 75
    16
147
1.0
148
0.0
149
0.0
100
AcDbLayout
  1
ﾚｲｱｳﾄ1
 70
     0
 71
     1
 10
0.0
 20
0.0
 11
12.0
 21
9.0
 12
0.0
 22
0.0
 32
0.0
 14
1.000000000000000E+20
 24
1.000000000000000E+20
 34
1.000000000000000E+20
 15
-1.000000000000000E+20
 25
-1.000000000000000E+20
 35
-1.000000000000000E+20
146
0.0
 13
0.0
 23
0.0
 33
0.0
 16
1.0
 26
0.0
 36
0.0
 17
0.0
 27
1.0
 37
0.0
 76
     0
330
1BD96
  0
MLINESTYLE
  5
1BD93
102
{ACAD_REACTORS
330
1BD92
102
}
330
1BD92
100
AcDbMlineStyle
  2
STANDARD
 70
     0
  3

 62
   256
 51
90.0
 52
90.0
 71
     2
 49
0.5
 62
   256
  6
BYLAYER
 49
-0.5
 62
   256
  6
BYLAYER
  0
ACDBPLACEHOLDER
  5
1BD8B
102
{ACAD_REACTORS
330
1BD8A
102
}
330
1BD8A
  0
DICTIONARYVAR
  5
1C4CE
102
{ACAD_REACTORS
330
1C4CD
102
}
330
1C4CD
100
DictionaryVariables
280
     0
  1
1
  0
ENDSEC
  0
EOF
