  0
SECTION
  2
HEADER
  9
$ACADVER
  1
AC1015
  9
$ACADMAINTVER
 70
    13
  9
$DWGCODEPAGE
  3
ANSI_932
  9
$INSBASE
 10
267.0
 20
194.8999999999998
 30
0.0
  9
$EXTMIN
 10
433.9966216520333
 20
163.6908237492789
 30
-0.0000000000112498
  9
$EXTMAX
 10
16382.6660542547
 20
11242.27663824599
 30
0.0000000000002956
  9
$LIMMIN
 10
0.0
 20
0.0
  9
$LIMMAX
 10
16800.0
 20
11880.0
  9
$ORTHOMODE
 70
     0
  9
$REGENMODE
 70
     1
  9
$FILLMODE
 70
     1
  9
$QTEXTMODE
 70
     0
  9
$MIRRTEXT
 70
     0
  9
$LTSCALE
 40
40.0
  9
$ATTMODE
 70
     1
  9
$TEXTSIZE
 40
0.2
  9
$TRACEWID
 40
0.05
  9
$TEXTSTYLE
  7
00
  9
$CLAYER
  8
SUNPOU
  9
$CELTYPE
  6
ByLayer
  9
$CECOLOR
 62
   256
  9
$CELTSCALE
 40
1.0
  9
$DISPSILH
 70
     0
  9
$DIMSCALE
 40
40.0
  9
$DIMASZ
 40
0.5
  9
$DIMEXO
 40
1.0
  9
$DIMDLI
 40
7.0
  9
$DIMRND
 40
0.0
  9
$DIMDLE
 40
3.0
  9
$DIMEXE
 40
1.125
  9
$DIMTP
 40
0.0
  9
$DIMTM
 40
0.0
  9
$DIMTXT
 40
2.25
  9
$DIMCEN
 40
0.0
  9
$DIMTSZ
 40
0.0
  9
$DIMTOL
 70
     0
  9
$DIMLIM
 70
     0
  9
$DIMTIH
 70
     0
  9
$DIMTOH
 70
     0
  9
$DIMSE1
 70
     0
  9
$DIMSE2
 70
     0
  9
$DIMTAD
 70
     1
  9
$DIMZIN
 70
     8
  9
$DIMBLK
  1
DOT
  9
$DIMASO
 70
     1
  9
$DIMSHO
 70
     0
  9
$DIMPOST
  1

  9
$DIMAPOST
  1

  9
$DIMALT
 70
     0
  9
$DIMALTD
 70
     2
  9
$DIMALTF
 40
25.4
  9
$DIMLFAC
 40
1.0
  9
$DIMTOFL
 70
     1
  9
$DIMTVP
 40
0.0
  9
$DIMTIX
 70
     0
  9
$DIMSOXD
 70
     0
  9
$DIMSAH
 70
     1
  9
$DIMBLK1
  1
DOT
  9
$DIMBLK2
  1
DOT
  9
$DIMSTYLE
  2
SUNPOU_図面名
  9
$DIMCLRD
 70
   256
  9
$DIMCLRE
 70
   256
  9
$DIMCLRT
 70
   256
  9
$DIMTFAC
 40
1.0
  9
$DIMGAP
 40
1.125
  9
$DIMJUST
 70
     0
  9
$DIMSD1
 70
     0
  9
$DIMSD2
 70
     0
  9
$DIMTOLJ
 70
     1
  9
$DIMTZIN
 70
     0
  9
$DIMALTZ
 70
     0
  9
$DIMALTTZ
 70
     0
  9
$DIMUPT
 70
     0
  9
$DIMDEC
 70
     4
  9
$DIMTDEC
 70
     4
  9
$DIMALTU
 70
     2
  9
$DIMALTTD
 70
     2
  9
$DIMTXSTY
  7
STANDARD
  9
$DIMAUNIT
 70
     0
  9
$DIMADEC
 70
     0
  9
$DIMALTRND
 40
0.0
  9
$DIMAZIN
 70
     0
  9
$DIMDSEP
 70
    46
  9
$DIMATFIT
 70
     3
  9
$DIMFRAC
 70
     0
  9
$DIMLDRBLK
  1
DOT
  9
$DIMLUNIT
 70
     2
  9
$DIMLWD
 70
    -2
  9
$DIMLWE
 70
    -2
  9
$DIMTMOVE
 70
     0
  9
$LUNITS
 70
     2
  9
$LUPREC
 70
     2
  9
$SKETCHINC
 40
0.1
  9
$FILLETRAD
 40
0.0
  9
$AUNITS
 70
     0
  9
$AUPREC
 70
     0
  9
$MENU
  1
A:\TIGER\MENU\TIGER
  9
$ELEVATION
 40
0.0
  9
$PELEVATION
 40
0.0
  9
$THICKNESS
 40
0.0
  9
$LIMCHECK
 70
     0
  9
$CHAMFERA
 40
0.0
  9
$CHAMFERB
 40
0.0
  9
$CHAMFERC
 40
0.0
  9
$CHAMFERD
 40
0.0
  9
$SKPOLY
 70
     0
  9
$TDCREATE
 40
2450266.571064815
  9
$TDUCREATE
 40
2450266.196064815
  9
$TDUPDATE
 40
2456330.823749629
  9
$TDUUPDATE
 40
2456330.448749629
  9
$TDINDWG
 40
0.1369267593
  9
$TDUSRTIMER
 40
0.1369267593
  9
$USRTIMER
 70
     1
  9
$ANGBASE
 50
0.0
  9
$ANGDIR
 70
     0
  9
$PDMODE
 70
     0
  9
$PDSIZE
 40
0.0
  9
$PLINEWID
 40
0.0
  9
$SPLFRAME
 70
     0
  9
$SPLINETYPE
 70
     6
  9
$SPLINESEGS
 70
     8
  9
$HANDSEED
  5
167BA
  9
$SURFTAB1
 70
     6
  9
$SURFTAB2
 70
     6
  9
$SURFTYPE
 70
     6
  9
$SURFU
 70
     6
  9
$SURFV
 70
     6
  9
$UCSBASE
  2

  9
$UCSNAME
  2

  9
$UCSORG
 10
0.0
 20
0.0
 30
0.0
  9
$UCSXDIR
 10
1.0
 20
0.0
 30
0.0
  9
$UCSYDIR
 10
0.0
 20
1.0
 30
0.0
  9
$UCSORTHOREF
  2

  9
$UCSORTHOVIEW
 70
     0
  9
$UCSORGTOP
 10
0.0
 20
0.0
 30
0.0
  9
$UCSORGBOTTOM
 10
0.0
 20
0.0
 30
0.0
  9
$UCSORGLEFT
 10
0.0
 20
0.0
 30
0.0
  9
$UCSORGRIGHT
 10
0.0
 20
0.0
 30
0.0
  9
$UCSORGFRONT
 10
0.0
 20
0.0
 30
0.0
  9
$UCSORGBACK
 10
0.0
 20
0.0
 30
0.0
  9
$PUCSBASE
  2

  9
$PUCSNAME
  2

  9
$PUCSORG
 10
0.0
 20
0.0
 30
0.0
  9
$PUCSXDIR
 10
1.0
 20
0.0
 30
0.0
  9
$PUCSYDIR
 10
0.0
 20
1.0
 30
0.0
  9
$PUCSORTHOREF
  2

  9
$PUCSORTHOVIEW
 70
     0
  9
$PUCSORGTOP
 10
0.0
 20
0.0
 30
0.0
  9
$PUCSORGBOTTOM
 10
0.0
 20
0.0
 30
0.0
  9
$PUCSORGLEFT
 10
0.0
 20
0.0
 30
0.0
  9
$PUCSORGRIGHT
 10
0.0
 20
0.0
 30
0.0
  9
$PUCSORGFRONT
 10
0.0
 20
0.0
 30
0.0
  9
$PUCSORGBACK
 10
0.0
 20
0.0
 30
0.0
  9
$USERI1
 70
     3
  9
$USERI2
 70
     0
  9
$USERI3
 70
     0
  9
$USERI4
 70
     0
  9
$USERI5
 70
  1103
  9
$USERR1
 40
0.0
  9
$USERR2
 40
1.0
  9
$USERR3
 40
0.0
  9
$USERR4
 40
0.0
  9
$USERR5
 40
0.0
  9
$WORLDVIEW
 70
     1
  9
$SHADEDGE
 70
     3
  9
$SHADEDIF
 70
    70
  9
$TILEMODE
 70
     1
  9
$MAXACTVP
 70
    16
  9
$PINSBASE
 10
0.0
 20
0.0
 30
0.0
  9
$PLIMCHECK
 70
     0
  9
$PEXTMIN
 10
1.000000000000000E+20
 20
1.000000000000000E+20
 30
1.000000000000000E+20
  9
$PEXTMAX
 10
-1.000000000000000E+20
 20
-1.000000000000000E+20
 30
-1.000000000000000E+20
  9
$PLIMMIN
 10
0.0
 20
0.0
  9
$PLIMMAX
 10
12.0
 20
9.0
  9
$UNITMODE
 70
     0
  9
$VISRETAIN
 70
     0
  9
$PLINEGEN
 70
     1
  9
$PSLTSCALE
 70
     0
  9
$TREEDEPTH
 70
  3020
  9
$CMLSTYLE
  2
Standard
  9
$CMLJUST
 70
     0
  9
$CMLSCALE
 40
1.0
  9
$PROXYGRAPHICS
 70
     1
  9
$MEASUREMENT
 70
     0
  9
$CELWEIGHT
370
    -1
  9
$ENDCAPS
280
     0
  9
$JOINSTYLE
280
     0
  9
$LWDISPLAY
290
     0
  9
$INSUNITS
 70
     0
  9
$HYPERLINKBASE
  1

  9
$STYLESHEET
  1

  9
$XEDIT
290
     1
  9
$CEPSNTYPE
380
     0
  9
$PSTYLEMODE
290
     1
  9
$FINGERPRINTGUID
  2
{5CADBA22-D355-4844-89B7-F192F1DA72B5}
  9
$VERSIONGUID
  2
{431141AD-DCF2-44C4-B96B-D77399D8D9C4}
  9
$EXTNAMES
290
     1
  9
$PSVPSCALE
 40
0.0
  9
$OLESTARTUP
290
     0
  0
ENDSEC
  0
SECTION
  2
CLASSES
  0
CLASS
  1
ACDBDICTIONARYWDFLT
  2
AcDbDictionaryWithDefault
  3
AutoCAD 2000
 90
        0
280
     0
281
     0
  0
CLASS
  1
ACDBPLACEHOLDER
  2
AcDbPlaceHolder
  3
AutoCAD 2000
 90
        0
280
     0
281
     0
  0
CLASS
  1
LAYOUT
  2
AcDbLayout
  3
AutoCAD 2000
 90
        0
280
     0
281
     0
  0
CLASS
  1
DICTIONARYVAR
  2
AcDbDictionaryVar
  3
AutoCAD 2000
 90
        0
280
     0
281
     0
  0
ENDSEC
  0
SECTION
  2
TABLES
  0
TABLE
  2
VPORT
  5
16238
330
0
100
AcDbSymbolTable
 70
     2
  0
VPORT
  5
167B9
330
16238
100
AcDbSymbolTableRecord
100
AcDbViewportTableRecord
  2
*Active
 70
     0
 10
0.0
 20
0.0
 11
1.0
 21
1.0
 12
8408.331337953367
 22
5702.983730997637
 13
0.0
 23
0.0
 14
1.0
 24
1.0
 15
0.0
 25
0.0
 16
0.0
 26
0.0
 36
1.0
 17
0.0
 27
0.0
 37
0.0
 40
11162.83361536741
 41
1.527918781725888
 42
50.0
 43
0.0
 44
0.0
 50
0.0
 51
0.0
 71
     0
 72
 10000
 73
     1
 74
     0
 75
     0
 76
     0
 77
     0
 78
     0
281
     0
 65
     1
110
0.0
120
0.0
130
0.0
111
1.0
121
0.0
131
0.0
112
0.0
122
1.0
132
0.0
 79
     0
146
0.0
  0
ENDTAB
  0
TABLE
  2
LTYPE
  5
16235
330
0
100
AcDbSymbolTable
 70
     9
  0
LTYPE
  5
16243
330
16235
100
AcDbSymbolTableRecord
100
AcDbLinetypeTableRecord
  2
ByBlock
 70
     0
  3

 72
    65
 73
     0
 40
0.0
  0
LTYPE
  5
16244
330
16235
100
AcDbSymbolTableRecord
100
AcDbLinetypeTableRecord
  2
ByLayer
 70
     0
  3

 72
    65
 73
     0
 40
0.0
  0
LTYPE
  5
16245
330
16235
100
AcDbSymbolTableRecord
100
AcDbLinetypeTableRecord
  2
CONTINUOUS
 70
     0
  3
実線
 72
    65
 73
     0
 40
0.0
  0
LTYPE
  5
16255
330
16235
100
AcDbSymbolTableRecord
100
AcDbLinetypeTableRecord
  2
HIDE-M
 70
     0
  3

 72
    65
 73
     2
 40
2.0
 49
1.0
 74
     0
 49
-1.0
 74
     0
  0
LTYPE
  5
16256
330
16235
100
AcDbSymbolTableRecord
100
AcDbLinetypeTableRecord
  2
HIDE-S
 70
     0
  3

 72
    65
 73
     2
 40
1.0
 49
0.5
 74
     0
 49
-0.5
 74
     0
  0
LTYPE
  5
16257
330
16235
100
AcDbSymbolTableRecord
100
AcDbLinetypeTableRecord
  2
TENSEN-
 70
     0
  3

 72
    65
 73
     2
 40
0.6000000000000001
 49
0.2
 74
     0
 49
-0.4
 74
     0
  0
LTYPE
  5
16258
330
16235
100
AcDbSymbolTableRecord
100
AcDbLinetypeTableRecord
  2
1PL-M
 70
     0
  3

 72
    65
 73
     4
 40
15.0
 49
12.0
 74
     0
 49
-1.0
 74
     0
 49
1.0
 74
     0
 49
-1.0
 74
     0
  0
LTYPE
  5
16259
330
16235
100
AcDbSymbolTableRecord
100
AcDbLinetypeTableRecord
  2
1PL-12
 70
     0
  3

 72
    65
 73
     4
 40
15.0
 49
12.0
 74
     0
 49
-1.0
 74
     0
 49
1.0
 74
     0
 49
-1.0
 74
     0
  0
LTYPE
  5
1625A
330
16235
100
AcDbSymbolTableRecord
100
AcDbLinetypeTableRecord
  2
KAKURE-1
 70
     0
  3

 72
    65
 73
     2
 40
2.0
 49
1.0
 74
     0
 49
-1.0
 74
     0
  0
LTYPE
  5
1625B
330
16235
100
AcDbSymbolTableRecord
100
AcDbLinetypeTableRecord
  2
2PL-12
 70
     0
  3

 72
    65
 73
     6
 40
17.0
 49
12.0
 74
     0
 49
-1.0
 74
     0
 49
1.0
 74
     0
 49
-1.0
 74
     0
 49
1.0
 74
     0
 49
-1.0
 74
     0
  0
LTYPE
  5
1625C
330
16235
100
AcDbSymbolTableRecord
100
AcDbLinetypeTableRecord
  2
2PL-5
 70
     0
  3

 72
    65
 73
     6
 40
7.5
 49
5.0
 74
     0
 49
-0.5
 74
     0
 49
0.5
 74
     0
 49
-0.5
 74
     0
 49
0.5
 74
     0
 49
-0.5
 74
     0
  0
ENDTAB
  0
TABLE
  2
LAYER
  5
16232
330
0
100
AcDbSymbolTable
 70
    27
  0
LAYER
  5
16240
330
16232
100
AcDbSymbolTableRecord
100
AcDbLayerTableRecord
  2
0
 70
     0
 62
     7
  6
CONTINUOUS
370
    -3
390
1623F
  0
LAYER
  5
16252
330
16232
100
AcDbSymbolTableRecord
100
AcDbLayerTableRecord
  2
SUNPOU
 70
     0
 62
     4
  6
CONTINUOUS
370
    -3
390
1623F
  0
LAYER
  5
1625D
330
16232
100
AcDbSymbolTableRecord
100
AcDbLayerTableRecord
  2
U1
 70
     0
 62
     3
  6
CONTINUOUS
370
    -3
390
1623F
  0
LAYER
  5
1625E
330
16232
100
AcDbSymbolTableRecord
100
AcDbLayerTableRecord
  2
U2
 70
     0
 62
     4
  6
CONTINUOUS
370
    -3
390
1623F
  0
LAYER
  5
1625F
330
16232
100
AcDbSymbolTableRecord
100
AcDbLayerTableRecord
  2
U7
 70
     0
 62
     2
  6
CONTINUOUS
370
    -3
390
1623F
  0
LAYER
  5
16260
330
16232
100
AcDbSymbolTableRecord
100
AcDbLayerTableRecord
  2
HIKIDASHI
 70
     0
 62
     6
  6
CONTINUOUS
370
    -3
390
1623F
  0
LAYER
  5
16261
330
16232
100
AcDbSymbolTableRecord
100
AcDbLayerTableRecord
  2
TENSEN-1
 70
     0
 62
     6
  6
TENSEN-
370
    -3
390
1623F
  0
LAYER
  5
16262
330
16232
100
AcDbSymbolTableRecord
100
AcDbLayerTableRecord
  2
HIDE-S1
 70
     0
 62
     6
  6
HIDE-S
370
    -3
390
1623F
  0
LAYER
  5
16263
330
16232
100
AcDbSymbolTableRecord
100
AcDbLayerTableRecord
  2
HIDE-M1
 70
     0
 62
     6
  6
HIDE-M
370
    -3
390
1623F
  0
LAYER
  5
16264
330
16232
100
AcDbSymbolTableRecord
100
AcDbLayerTableRecord
  2
1PL-M1
 70
     0
 62
     6
  6
1PL-M
370
    -3
390
1623F
  0
LAYER
  5
16265
330
16232
100
AcDbSymbolTableRecord
100
AcDbLayerTableRecord
  2
NAME
 70
     0
 62
    20
  6
CONTINUOUS
370
    -3
390
1623F
  0
LAYER
  5
16266
330
16232
100
AcDbSymbolTableRecord
100
AcDbLayerTableRecord
  2
FILENAME
 70
     0
 62
     7
  6
CONTINUOUS
370
    -3
390
1623F
  0
LAYER
  5
16267
330
16232
100
AcDbSymbolTableRecord
100
AcDbLayerTableRecord
  2
KISO
 70
     0
 62
     2
  6
CONTINUOUS
370
    -3
390
1623F
  0
LAYER
  5
16268
330
16232
100
AcDbSymbolTableRecord
100
AcDbLayerTableRecord
  2
YANE
 70
     0
 62
     1
  6
1PL-12
370
    -3
390
1623F
  0
LAYER
  5
16269
330
16232
100
AcDbSymbolTableRecord
100
AcDbLayerTableRecord
  2
HATCH
 70
     0
 62
     1
  6
CONTINUOUS
370
    -3
390
1623F
  0
LAYER
  5
1626A
330
16232
100
AcDbSymbolTableRecord
100
AcDbLayerTableRecord
  2
DOMAKON
 70
     0
 62
     2
  6
CONTINUOUS
370
    -3
390
1623F
  0
LAYER
  5
1626B
330
16232
100
AcDbSymbolTableRecord
100
AcDbLayerTableRecord
  2
KISO-1
 70
     0
 62
     6
  6
2PL-12
370
    -3
390
1623F
  0
LAYER
  5
1626C
330
16232
100
AcDbSymbolTableRecord
100
AcDbLayerTableRecord
  2
KISO-2
 70
     0
 62
     1
  6
KAKURE-1
370
    -3
390
1623F
  0
LAYER
  5
1626D
330
16232
100
AcDbSymbolTableRecord
100
AcDbLayerTableRecord
  2
SIN
 70
     0
 62
     6
  6
1PL-12
370
    -3
390
1623F
  0
LAYER
  5
1626E
330
16232
100
AcDbSymbolTableRecord
100
AcDbLayerTableRecord
  2
AQU_HOKYOU
 70
     0
 62
     2
  6
CONTINUOUS
370
    -3
390
1623F
  0
LAYER
  5
1626F
330
16232
100
AcDbSymbolTableRecord
100
AcDbLayerTableRecord
  2
BOLT
 70
     0
 62
     1
  6
CONTINUOUS
370
    -3
390
1623F
  0
LAYER
  5
16270
330
16232
100
AcDbSymbolTableRecord
100
AcDbLayerTableRecord
  2
KISO-3
 70
     0
 62
     1
  6
2PL-5
370
    -3
390
1623F
  0
LAYER
  5
16271
330
16232
100
AcDbSymbolTableRecord
100
AcDbLayerTableRecord
  2
HASIRA
 70
     0
 62
     3
  6
CONTINUOUS
370
    -3
390
1623F
  0
LAYER
  5
16272
330
16232
100
AcDbSymbolTableRecord
100
AcDbLayerTableRecord
  2
YODOROGO
 70
     0
 62
   130
  6
CONTINUOUS
370
    -3
390
1623F
  0
LAYER
  5
16273
330
16232
100
AcDbSymbolTableRecord
100
AcDbLayerTableRecord
  2
WAKUSEN-01
 70
     0
 62
    50
  6
CONTINUOUS
370
    -3
390
1623F
  0
LAYER
  5
16274
330
16232
100
AcDbSymbolTableRecord
100
AcDbLayerTableRecord
  2
WAKUSEN-02
 70
     0
 62
   130
  6
CONTINUOUS
370
    -3
390
1623F
  0
LAYER
  5
16275
330
16232
100
AcDbSymbolTableRecord
100
AcDbLayerTableRecord
  2
WAKUMOJI-01
 70
     0
 62
   130
  6
CONTINUOUS
370
    -3
390
1623F
  0
ENDTAB
  0
TABLE
  2
STYLE
  5
16233
330
0
100
AcDbSymbolTable
 70
     5
  0
STYLE
  5
16241
330
16233
100
AcDbSymbolTableRecord
100
AcDbTextStyleTableRecord
  2
STANDARD
 70
     0
 40
3.0
 41
1.0
 50
0.0
 71
     0
 42
0.2
  3
ROMANS
  4
EXTFONT
  0
STYLE
  5
16253
330
16233
100
AcDbSymbolTableRecord
100
AcDbTextStyleTableRecord
  2
00
 70
     0
 40
0.0
 41
0.6666666666666666
 50
0.0
 71
     0
 42
0.2
  3
ROMANS
  4
BIGFONT
  0
STYLE
  5
16276
330
16233
100
AcDbSymbolTableRecord
100
AcDbTextStyleTableRecord
  2
01
 70
     0
 40
3.0
 41
1.0
 50
0.0
 71
     0
 42
0.2
  3
ROMANS
  4
BIGFONT
  0
STYLE
  5
16277
330
16233
100
AcDbSymbolTableRecord
100
AcDbTextStyleTableRecord
  2
WAKUMOJI
 70
     0
 40
3.0
 41
1.0
 50
0.0
 71
     0
 42
3.0
  3
SIMPLEX
  4
BIGFONT
  0
STYLE
  5
16278
330
16233
100
AcDbSymbolTableRecord
100
AcDbTextStyleTableRecord
  2
FILENAME
 70
     0
 40
75.0
 41
1.0
 50
0.0
 71
     0
 42
75.0
  3
romans
  4
bigfont
  0
ENDTAB
  0
TABLE
  2
VIEW
  5
16236
330
0
100
AcDbSymbolTable
 70
     0
  0
ENDTAB
  0
TABLE
  2
UCS
  5
16237
330
0
100
AcDbSymbolTable
 70
     0
  0
ENDTAB
  0
TABLE
  2
APPID
  5
16239
330
0
100
AcDbSymbolTable
 70
     5
  0
APPID
  5
16242
330
16239
100
AcDbSymbolTableRecord
100
AcDbRegAppTableRecord
  2
ACAD
 70
     0
  0
APPID
  5
16279
330
16239
100
AcDbSymbolTableRecord
100
AcDbRegAppTableRecord
  2
AUTOCAD_POSTSCRIPT_FIGURE
 70
     0
  0
APPID
  5
1627A
330
16239
100
AcDbSymbolTableRecord
100
AcDbRegAppTableRecord
  2
ACAD_PSEXT
 70
     0
  0
APPID
  5
1627B
330
16239
100
AcDbSymbolTableRecord
100
AcDbRegAppTableRecord
  2
ACAD_EXEMPT_FROM_CAD_STANDARDS
 70
     0
  0
APPID
  5
1627C
330
16239
100
AcDbSymbolTableRecord
100
AcDbRegAppTableRecord
  2
ACAD_MLEADERVER
 70
     0
  0
ENDTAB
  0
TABLE
  2
DIMSTYLE
  5
1623A
330
0
100
AcDbSymbolTable
 70
     1
100
AcDbDimStyleTable
 71
     0
  0
DIMSTYLE
105
1627D
330
1623A
100
AcDbSymbolTableRecord
100
AcDbDimStyleTableRecord
  2
SUNPOU_図面名
 70
     0
 40
40.0
 41
0.5
 42
1.0
 43
7.0
 44
1.125
 46
3.0
 73
     0
 74
     0
 77
     1
 78
     8
140
2.25
141
0.0
147
1.125
172
     1
173
     1
176
   256
177
   256
178
   256
271
     2
272
     2
279
     2
284
     8
285
     8
286
     8
340
16253
  0
ENDTAB
  0
TABLE
  2
BLOCK_RECORD
  5
16231
330
0
100
AcDbSymbolTable
 70
     4
  0
BLOCK_RECORD
  5
1624E
330
16231
100
AcDbSymbolTableRecord
100
AcDbBlockTableRecord
  2
*Model_Space
340
16251
  0
BLOCK_RECORD
  5
1624A
330
16231
100
AcDbSymbolTableRecord
100
AcDbBlockTableRecord
  2
*Paper_Space
340
1624D
  0
BLOCK_RECORD
  5
16282
330
16231
100
AcDbSymbolTableRecord
100
AcDbBlockTableRecord
  2
$MODEL_SPACE
340
0
  0
BLOCK_RECORD
  5
16285
330
16231
100
AcDbSymbolTableRecord
100
AcDbBlockTableRecord
  2
$PAPER_SPACE
340
0
  0
BLOCK_RECORD
  5
16288
330
16231
100
AcDbSymbolTableRecord
100
AcDbBlockTableRecord
  2
DOT
340
0
  0
ENDTAB
  0
ENDSEC
  0
SECTION
  2
BLOCKS
  0
BLOCK
  5
1624F
330
1624E
100
AcDbEntity
  8
0
100
AcDbBlockBegin
  2
*Model_Space
 70
     0
 10
0.0
 20
0.0
 30
0.0
  3
*Model_Space
  1

  0
ENDBLK
  5
16250
330
1624E
100
AcDbEntity
  8
0
100
AcDbBlockEnd
  0
BLOCK
  5
1624B
330
1624A
100
AcDbEntity
 67
     1
  8
0
100
AcDbBlockBegin
  2
*Paper_Space
 70
     0
 10
0.0
 20
0.0
 30
0.0
  3
*Paper_Space
  1

  0
ENDBLK
  5
1624C
330
1624A
100
AcDbEntity
 67
     1
  8
0
100
AcDbBlockEnd
  0
BLOCK
  5
16283
330
16282
100
AcDbEntity
  8
0
100
AcDbBlockBegin
  2
$MODEL_SPACE
 70
     0
 10
0.0
 20
0.0
 30
0.0
  3
$MODEL_SPACE
  1

  0
ENDBLK
  5
16284
330
16282
100
AcDbEntity
  8
0
100
AcDbBlockEnd
  0
BLOCK
  5
16286
330
16285
100
AcDbEntity
  8
0
100
AcDbBlockBegin
  2
$PAPER_SPACE
 70
     0
 10
0.0
 20
0.0
 30
0.0
  3
$PAPER_SPACE
  1

  0
ENDBLK
  5
16287
330
16285
100
AcDbEntity
  8
0
100
AcDbBlockEnd
  0
BLOCK
  5
16289
330
16288
100
AcDbEntity
  8
0
100
AcDbBlockBegin
  2
DOT
 70
     0
 10
0.0
 20
0.0
 30
0.0
  3
DOT
  1

  0
LWPOLYLINE
  5
1628A
330
16288
100
AcDbEntity
  8
0
  6
ByBlock
 62
     0
100
AcDbPolyline
 90
        2
 70
     1
 43
0.75
 10
-0.375
 20
0.0
 42
1.0
 10
0.375
 20
0.0
 42
1.0
  0
LINE
  5
1628E
330
16288
100
AcDbEntity
  8
0
  6
ByBlock
 62
     0
100
AcDbLine
 10
-0.75
 20
0.0
 30
0.0
 11
-1.5
 21
0.0
 31
0.0
  0
ENDBLK
  5
1628F
330
16288
100
AcDbEntity
  8
0
100
AcDbBlockEnd
  0
ENDSEC
  0
SECTION
  2
ENTITIES
  0
TEXT
  5
16290
330
1624E
100
AcDbEntity
  8
FILENAME
100
AcDbText
 10
14042.95238095238
 20
174.0
 30
0.0
 40
100.0
  1
＜YOCF-280-A_3_JIS_GL.DXF＞
  7
FILENAME
 72
     2
 11
16382.0
 21
174.0
 31
0.0
100
AcDbText
  0
TEXT
  5
16291
330
1624E
100
AcDbEntity
  8
NAME
100
AcDbText
 10
12854.79999999999
 20
541.0000000000001
 30
0.0
 40
160.0
  1
<3／3>
 41
0.6
  7
01
 72
     2
 11
13354.0
 21
541.0000000000001
 31
0.0
100
AcDbText
  0
TEXT
  5
16292
330
1624E
100
AcDbEntity
  8
NAME
100
AcDbText
 10
10912.04264730428
 20
541.0
 30
0.0
 40
160.0
  1
YOCF-280
 41
0.7
  7
01
 72
     2
 11
11776.04264730429
 21
541.0
 31
0.0
100
AcDbText
  0
TEXT
  5
16293
330
1624E
100
AcDbEntity
  8
NAME
100
AcDbText
 10
11816.04264730429
 20
541.0
 30
0.0
 40
160.0
  1
型（一般地用）
 41
0.8
  7
01
100
AcDbText
  0
TEXT
  5
162B6
330
1624E
100
AcDbEntity
  8
NAME
100
AcDbText
 10
12536.92663601099
 20
954.9999999999991
 30
0.0
 40
160.0
  1
YOCF
 41
0.7
  7
01
100
AcDbText
  0
TEXT
  5
162B7
330
1624E
100
AcDbEntity
  8
NAME
100
AcDbText
 10
11103.68799031879
 20
954.9999999999991
 30
0.0
 40
160.0
  1
ヨド自転車置場      型
  7
01
100
AcDbText
  0
TEXT
  5
162B8
330
1624E
100
AcDbEntity
  8
HIKIDASHI
100
AcDbText
 10
7373.224950707393
 20
5827.785415026241
 30
0.0
 40
135.0
  1
基 礎 平 面 図　縮尺
  7
01
 72
     4
 11
8165.224950707393
 21
5895.285415026241
 31
0.0
100
AcDbText
  0
TEXT
  5
162B9
330
1624E
100
AcDbEntity
  8
HIKIDASHI
100
AcDbText
 10
7718.349095873493
 20
5612.785415026241
 30
0.0
 40
135.0
  1
（  ：スパン数）
  7
01
 11
7718.349095873493
 21
5680.285415026241
 31
0.0
100
AcDbText
 73
     2
  0
TEXT
  5
162BA
330
1624E
100
AcDbEntity
  8
HIKIDASHI
100
AcDbText
 10
7896.77300853283
 20
5612.785415026241
 30
0.0
 40
135.0
  1
N
 41
0.6666666666666666
  7
00
 72
     4
 11
7943.915865675686
 21
5680.285415026241
 31
0.0
100
AcDbText
  0
LINE
  5
162BB
330
1624E
100
AcDbEntity
  8
HIKIDASHI
100
AcDbLine
 10
9298.946484844256
 20
5962.785415026245
 30
0.0
 11
9163.946484844251
 21
5827.785415026241
 31
0.0
  0
TEXT
  5
162BC
330
1624E
100
AcDbEntity
  8
HIKIDASHI
100
AcDbText
 10
9019.710916571296
 20
5837.428272169098
 30
0.0
 40
135.0
  1
=
 41
0.6666666666666666
  7
00
 72
     4
 11
9075.425202285584
 21
5895.285415026241
 31
0.0
100
AcDbText
  0
TEXT
  5
162BD
330
1624E
100
AcDbEntity
  8
HIKIDASHI
100
AcDbText
 10
9250.098548007766
 20
5827.785415026244
 30
0.0
 40
67.5
  1
40
 41
0.6666666666666666
  7
00
 72
     4
 11
9292.955690864909
 21
5861.535415026245
 31
0.0
100
AcDbText
  0
TEXT
  5
162BE
330
1624E
100
AcDbEntity
  8
HIKIDASHI
100
AcDbText
 10
9166.356580868946
 20
5895.199271577448
 30
0.0
 40
67.5
  1
1
 41
0.6666666666666666
  7
00
 72
     4
 11
9184.570866583232
 21
5928.949271577447
 31
0.0
100
AcDbText
  0
LINE
  5
162BF
330
1624E
100
AcDbEntity
  8
KISO-1
100
AcDbLine
 10
4019.127507899649
 20
8143.693182432325
 30
0.0
 11
4819.127507899651
 21
8143.693182432325
 31
0.0
  0
LINE
  5
162C0
330
1624E
100
AcDbEntity
  8
KISO-1
100
AcDbLine
 10
4819.127507899651
 20
9143.693182432331
 30
0.0
 11
4019.127507899649
 21
9143.693182432331
 31
0.0
  0
TEXT
  5
162C1
330
1624E
100
AcDbEntity
  8
HIKIDASHI
100
AcDbText
 10
3974.127507899643
 20
7003.168187707529
 30
0.0
 40
90.0
  1
（土間コン側面位置）
 50
90.0
  7
01
100
AcDbText
  0
LINE
  5
162C2
330
1624E
100
AcDbEntity
  8
KISO-1
100
AcDbLine
 10
4019.127507899649
 20
9143.693182432331
 30
0.0
 11
4019.127507899649
 21
9083.693182432327
 31
0.0
  0
LINE
  5
162C3
330
1624E
100
AcDbEntity
  8
SIN
100
AcDbLine
 10
7219.127507899648
 20
9210.693182432331
 30
0.0
 11
7219.127507899648
 21
8076.693182432325
 31
0.0
  0
TEXT
  5
162C4
330
1624E
100
AcDbEntity
  8
HIKIDASHI
100
AcDbText
 10
5294.907558109872
 20
9128.693182432334
 30
0.0
 40
90.0
  1
（土間コン後面位置）
  7
01
100
AcDbText
  0
LINE
  5
162C5
330
1624E
100
AcDbEntity
  8
SIN
100
AcDbLine
 10
4419.127507899649
 20
9210.693182432331
 30
0.0
 11
4419.127507899649
 21
8076.693182432325
 31
0.0
  0
TEXT
  5
162C6
330
1624E
100
AcDbEntity
  8
HIKIDASHI
100
AcDbText
 10
4332.326854848417
 20
7111.814277369062
 30
0.0
 40
90.0
  1
（けらば側面）
 50
90.0
  7
01
100
AcDbText
  0
TEXT
  5
162C7
330
1624E
100
AcDbEntity
  8
HIKIDASHI
100
AcDbText
 10
5294.907558109872
 20
6708.693182432321
 30
0.0
 40
90.0
  1
（土間コン前面位置）
  7
01
100
AcDbText
  0
TEXT
  5
162C8
330
1624E
100
AcDbEntity
  8
HIKIDASHI
100
AcDbText
 10
5403.553647771406
 20
7000.143910050988
 30
0.0
 40
90.0
  1
（鼻隠し外面）
  7
01
100
AcDbText
  0
LINE
  5
162C9
330
1624E
100
AcDbEntity
  8
KISO-1
100
AcDbLine
 10
4819.127507899651
 20
8143.693182432325
 30
0.0
 11
4819.127507899651
 21
9143.693182432331
 31
0.0
  0
CIRCLE
  5
162CA
330
1624E
100
AcDbEntity
  8
KISO-2
100
AcDbCircle
 10
4419.127507899649
 20
8843.69318243233
 30
0.0
 40
44.55
  0
LINE
  5
162CB
330
1624E
100
AcDbEntity
  8
BOLT
100
AcDbLine
 10
4289.127507899649
 20
8743.69318243233
 30
0.0
 11
4349.127507899648
 21
8743.69318243233
 31
0.0
  0
LINE
  5
162CC
330
1624E
100
AcDbEntity
  8
BOLT
100
AcDbLine
 10
4319.12750789965
 20
8713.693182432331
 30
0.0
 11
4319.12750789965
 21
8773.69318243233
 31
0.0
  0
LINE
  5
162CD
330
1624E
100
AcDbEntity
  8
BOLT
100
AcDbLine
 10
4549.127507899648
 20
8743.69318243233
 30
0.0
 11
4489.127507899648
 21
8743.69318243233
 31
0.0
  0
LINE
  5
162CE
330
1624E
100
AcDbEntity
  8
BOLT
100
AcDbLine
 10
4519.127507899649
 20
8713.693182432331
 30
0.0
 11
4519.127507899649
 21
8773.69318243233
 31
0.0
  0
LINE
  5
162CF
330
1624E
100
AcDbEntity
  8
SIN
100
AcDbLine
 10
4538.677507899648
 20
8843.69318243233
 30
0.0
 11
4299.577507899649
 21
8843.69318243233
 31
0.0
  0
LINE
  5
162D0
330
1624E
100
AcDbEntity
  8
BOLT
100
AcDbLine
 10
4289.127507899649
 20
8943.693182432332
 30
0.0
 11
4349.127507899648
 21
8943.693182432332
 31
0.0
  0
LINE
  5
162D1
330
1624E
100
AcDbEntity
  8
BOLT
100
AcDbLine
 10
4319.12750789965
 20
8973.693182432331
 30
0.0
 11
4319.12750789965
 21
8913.693182432325
 31
0.0
  0
LINE
  5
162D2
330
1624E
100
AcDbEntity
  8
BOLT
100
AcDbLine
 10
4549.127507899648
 20
8943.693182432332
 30
0.0
 11
4489.127507899648
 21
8943.693182432332
 31
0.0
  0
LINE
  5
162D3
330
1624E
100
AcDbEntity
  8
BOLT
100
AcDbLine
 10
4519.127507899649
 20
8973.693182432331
 30
0.0
 11
4519.127507899649
 21
8913.693182432325
 31
0.0
  0
TEXT
  5
162D4
330
1624E
100
AcDbEntity
  8
HIKIDASHI
100
AcDbText
 10
5403.553647771406
 20
8837.242454813669
 30
0.0
 40
90.0
  1
（屋根後面位置）
  7
01
100
AcDbText
  0
LINE
  5
162D5
330
1624E
100
AcDbEntity
  8
U2
100
AcDbLine
 10
8359.12750789965
 20
9158.693182432331
 30
0.0
 11
8359.12750789965
 21
6768.693182432328
 31
0.0
  0
LINE
  5
162D6
330
1624E
100
AcDbEntity
  8
U2
100
AcDbLine
 10
8479.127507899653
 20
9158.693182432331
 30
0.0
 11
8479.127507899653
 21
6768.693182432328
 31
0.0
  0
CIRCLE
  5
162D7
330
1624E
100
AcDbEntity
  8
KISO-2
100
AcDbCircle
 10
7219.127507899648
 20
8843.69318243233
 30
0.0
 40
44.55
  0
LINE
  5
162D8
330
1624E
100
AcDbEntity
  8
BOLT
100
AcDbLine
 10
7349.127507899646
 20
8743.69318243233
 30
0.0
 11
7289.127507899646
 21
8743.69318243233
 31
0.0
  0
LINE
  5
162D9
330
1624E
100
AcDbEntity
  8
BOLT
100
AcDbLine
 10
7089.12750789965
 20
8743.69318243233
 30
0.0
 11
7149.127507899646
 21
8743.69318243233
 31
0.0
  0
LINE
  5
162DA
330
1624E
100
AcDbEntity
  8
BOLT
100
AcDbLine
 10
7119.12750789965
 20
8713.693182432331
 30
0.0
 11
7119.12750789965
 21
8773.69318243233
 31
0.0
  0
LINE
  5
162DB
330
1624E
100
AcDbEntity
  8
BOLT
100
AcDbLine
 10
7319.12750789965
 20
8713.693182432331
 30
0.0
 11
7319.12750789965
 21
8773.69318243233
 31
0.0
  0
LINE
  5
162DC
330
1624E
100
AcDbEntity
  8
SIN
100
AcDbLine
 10
7338.67750789965
 20
8843.69318243233
 30
0.0
 11
7099.57750789965
 21
8843.69318243233
 31
0.0
  0
LINE
  5
162DD
330
1624E
100
AcDbEntity
  8
BOLT
100
AcDbLine
 10
7349.127507899646
 20
8943.693182432332
 30
0.0
 11
7289.127507899646
 21
8943.693182432332
 31
0.0
  0
LINE
  5
162DE
330
1624E
100
AcDbEntity
  8
BOLT
100
AcDbLine
 10
7089.12750789965
 20
8943.693182432332
 30
0.0
 11
7149.127507899646
 21
8943.693182432332
 31
0.0
  0
LINE
  5
162DF
330
1624E
100
AcDbEntity
  8
BOLT
100
AcDbLine
 10
7119.12750789965
 20
8973.693182432331
 30
0.0
 11
7119.12750789965
 21
8913.693182432325
 31
0.0
  0
LINE
  5
162E0
330
1624E
100
AcDbEntity
  8
BOLT
100
AcDbLine
 10
7319.12750789965
 20
8973.693182432331
 30
0.0
 11
7319.12750789965
 21
8913.693182432325
 31
0.0
  0
LINE
  5
162E1
330
1624E
100
AcDbEntity
  8
SUNPOU
100
AcDbLine
 10
12849.12750789964
 20
9143.693182432331
 30
0.0
 11
13104.12750789964
 21
9143.693182432331
 31
0.0
  0
LINE
  5
162E2
330
1624E
100
AcDbEntity
  8
SUNPOU
100
AcDbLine
 10
12579.12750789965
 20
8943.693182432332
 30
0.0
 11
13314.12750789964
 21
8943.693182432332
 31
0.0
  0
LINE
  5
162E3
330
1624E
100
AcDbEntity
  8
SUNPOU
100
AcDbLine
 10
12579.12750789965
 20
8743.69318243233
 30
0.0
 11
13314.12750789964
 21
8743.69318243233
 31
0.0
  0
LINE
  5
162E4
330
1624E
100
AcDbEntity
  8
SUNPOU
100
AcDbLine
 10
12849.12750789964
 20
8143.693182432325
 30
0.0
 11
13524.12750789964
 21
8143.693182432325
 31
0.0
  0
LINE
  5
162E5
330
1624E
100
AcDbEntity
  8
SUNPOU
100
AcDbLine
 10
12849.12750789964
 20
9083.693182432327
 30
0.0
 11
13524.12750789964
 21
9083.693182432327
 31
0.0
  0
LINE
  5
162E6
330
1624E
100
AcDbEntity
  8
SUNPOU
100
AcDbLine
 10
12689.12750789964
 20
8603.693182432333
 30
0.0
 11
13524.12750789964
 21
8603.693182432333
 31
0.0
  0
LINE
  5
162E7
330
1624E
100
AcDbEntity
  8
SIN
100
AcDbLine
 10
9619.127507899648
 20
9210.693182432331
 30
0.0
 11
9619.127507899648
 21
8076.693182432325
 31
0.0
  0
LINE
  5
162E8
330
1624E
100
AcDbEntity
  8
SIN
100
AcDbLine
 10
12419.12750789965
 20
9210.693182432331
 30
0.0
 11
12419.12750789965
 21
8076.693182432325
 31
0.0
  0
LINE
  5
162E9
330
1624E
100
AcDbEntity
  8
SUNPOU
100
AcDbLine
 10
12019.12750789965
 20
9173.693182432328
 30
0.0
 11
12019.12750789965
 21
10058.69318243232
 31
0.0
  0
LINE
  5
162EA
330
1624E
100
AcDbEntity
  8
SUNPOU
100
AcDbLine
 10
12659.12750789964
 20
9113.693182432324
 30
0.0
 11
12659.12750789964
 21
9848.693182432331
 31
0.0
  0
LINE
  5
162EB
330
1624E
100
AcDbEntity
  8
SUNPOU
100
AcDbLine
 10
12179.12750789965
 20
9113.693182432324
 30
0.0
 11
12179.12750789965
 21
9848.693182432331
 31
0.0
  0
LINE
  5
162EC
330
1624E
100
AcDbEntity
  8
SUNPOU
100
AcDbLine
 10
12559.12750789965
 20
9013.693182432325
 30
0.0
 11
12559.12750789965
 21
9638.693182432325
 31
0.0
  0
LINE
  5
162ED
330
1624E
100
AcDbEntity
  8
SUNPOU
100
AcDbLine
 10
12279.12750789965
 20
9013.693182432325
 30
0.0
 11
12279.12750789965
 21
9638.693182432325
 31
0.0
  0
LINE
  5
162EE
330
1624E
100
AcDbEntity
  8
SUNPOU
100
AcDbLine
 10
12519.12750789965
 20
9003.693182432327
 30
0.0
 11
12519.12750789965
 21
9428.693182432327
 31
0.0
  0
LINE
  5
162EF
330
1624E
100
AcDbEntity
  8
SUNPOU
100
AcDbLine
 10
12319.12750789965
 20
9003.693182432327
 30
0.0
 11
12319.12750789965
 21
9428.693182432327
 31
0.0
  0
LINE
  5
162F0
330
1624E
100
AcDbEntity
  8
HIKIDASHI
100
AcDbLine
 10
12276.81172707854
 20
8986.229927647503
 30
0.0
 11
11881.41316311141
 21
9383.693182432327
 31
0.0
  0
LINE
  5
162F1
330
1624E
100
AcDbEntity
  8
HIKIDASHI
100
AcDbLine
 10
12469.74187207791
 20
8977.767497898419
 30
0.0
 11
11881.41316311141
 21
9383.693182432331
 31
0.0
  0
LINE
  5
162F2
330
1624E
100
AcDbEntity
  8
SUNPOU
100
AcDbLine
 10
12819.12750789964
 20
9173.693182432328
 30
0.0
 11
12819.12750789964
 21
10058.69318243232
 31
0.0
  0
LINE
  5
162F3
330
1624E
100
AcDbEntity
  8
BOLT
100
AcDbLine
 10
9489.127507899651
 20
8943.693182432332
 30
0.0
 11
9549.127507899648
 21
8943.693182432332
 31
0.0
  0
LINE
  5
162F4
330
1624E
100
AcDbEntity
  8
SIN
100
AcDbLine
 10
9738.67750789965
 20
8843.69318243233
 30
0.0
 11
9499.577507899649
 21
8843.69318243233
 31
0.0
  0
LINE
  5
162F5
330
1624E
100
AcDbEntity
  8
BOLT
100
AcDbLine
 10
9489.127507899651
 20
8743.69318243233
 30
0.0
 11
9549.127507899648
 21
8743.69318243233
 31
0.0
  0
CIRCLE
  5
162F6
330
1624E
100
AcDbEntity
  8
KISO-2
100
AcDbCircle
 10
9619.127507899648
 20
8843.69318243233
 30
0.0
 40
44.55
  0
LINE
  5
162F7
330
1624E
100
AcDbEntity
  8
BOLT
100
AcDbLine
 10
9519.127507899648
 20
8713.693182432331
 30
0.0
 11
9519.127507899648
 21
8773.69318243233
 31
0.0
  0
LINE
  5
162F8
330
1624E
100
AcDbEntity
  8
BOLT
100
AcDbLine
 10
9719.127507899649
 20
8713.693182432331
 30
0.0
 11
9719.127507899649
 21
8773.69318243233
 31
0.0
  0
LINE
  5
162F9
330
1624E
100
AcDbEntity
  8
BOLT
100
AcDbLine
 10
9749.127507899649
 20
8743.69318243233
 30
0.0
 11
9689.127507899648
 21
8743.69318243233
 31
0.0
  0
LINE
  5
162FA
330
1624E
100
AcDbEntity
  8
BOLT
100
AcDbLine
 10
9519.127507899648
 20
8973.693182432331
 30
0.0
 11
9519.127507899648
 21
8913.693182432325
 31
0.0
  0
LINE
  5
162FB
330
1624E
100
AcDbEntity
  8
BOLT
100
AcDbLine
 10
9719.127507899649
 20
8973.693182432331
 30
0.0
 11
9719.127507899649
 21
8913.693182432325
 31
0.0
  0
LINE
  5
162FC
330
1624E
100
AcDbEntity
  8
BOLT
100
AcDbLine
 10
9749.127507899649
 20
8943.693182432332
 30
0.0
 11
9689.127507899648
 21
8943.693182432332
 31
0.0
  0
TEXT
  5
162FD
330
1624E
100
AcDbEntity
  8
HIKIDASHI
100
AcDbText
 10
12595.92816095087
 20
7111.814277369062
 30
0.0
 40
90.0
  1
（けらば側面）
 50
90.0
  7
01
100
AcDbText
  0
LINE
  5
162FE
330
1624E
100
AcDbEntity
  8
SUNPOU
100
AcDbLine
 10
12269.57750789965
 20
8843.69318243233
 30
0.0
 11
11524.12750789965
 21
8843.69318243233
 31
0.0
  0
LINE
  5
162FF
330
1624E
100
AcDbEntity
  8
HIKIDASHI
100
AcDbLine
 10
11765.72805486335
 20
8200.107713759622
 30
0.0
 11
11881.41316311141
 21
8200.107713759622
 31
0.0
  0
LINE
  5
16300
330
1624E
100
AcDbEntity
  8
SUNPOU
100
AcDbLine
 10
11989.12750789965
 20
8143.693182432325
 30
0.0
 11
11314.12750789965
 21
8143.693182432325
 31
0.0
  0
LINE
  5
16301
330
1624E
100
AcDbEntity
  8
SUNPOU
100
AcDbLine
 10
11989.12750789965
 20
9143.693182432331
 30
0.0
 11
11314.12750789965
 21
9143.693182432331
 31
0.0
  0
LINE
  5
16302
330
1624E
100
AcDbEntity
  8
SUNPOU
100
AcDbLine
 10
11359.12750789965
 20
8158.693182432331
 30
0.0
 11
11359.12750789965
 21
9128.693182432327
 31
0.0
  0
LINE
  5
16303
330
1624E
100
AcDbEntity
  8
SUNPOU
100
AcDbLine
 10
11569.12750789965
 20
8158.693182432331
 30
0.0
 11
11569.12750789965
 21
8828.693182432331
 31
0.0
  0
TEXT
  5
16304
330
1624E
100
AcDbEntity
  8
SUNPOU
100
AcDbText
 10
11524.12750789965
 20
8407.978896718045
 30
0.0
 40
90.0
  1
700
 50
90.0
 41
0.6666666666666666
  7
00
 72
     1
 11
11479.12750789965
 21
8493.69318243233
 31
0.0
100
AcDbText
 73
     2
  0
TEXT
  5
16305
330
1624E
100
AcDbEntity
  8
HIKIDASHI
100
AcDbText
 10
11775.72805486335
 20
8245.107713759622
 30
0.0
 40
90.0
  1
柱
  7
01
100
AcDbText
  0
TEXT
  5
16306
330
1624E
100
AcDbEntity
  8
SUNPOU
100
AcDbText
 10
11314.12750789965
 20
8525.121753860901
 30
0.0
 40
90.0
  1
1000
 50
90.0
 41
0.6666666666666666
  7
00
 72
     1
 11
11269.12750789965
 21
8643.693182432331
 31
0.0
100
AcDbText
 73
     2
  0
TEXT
  5
16307
330
1624E
100
AcDbEntity
  8
SUNPOU
100
AcDbText
 10
11524.12750789965
 20
8900.541137189696
 30
0.0
 40
90.0
  1
300
 50
90.0
 41
0.6666666666666666
  7
00
 72
     1
 11
11479.12750789965
 21
8986.255422903981
 31
0.0
100
AcDbText
 73
     2
  0
LINE
  5
16308
330
1624E
100
AcDbEntity
  8
SUNPOU
100
AcDbLine
 10
11569.12750789965
 20
8858.693182432325
 30
0.0
 11
11569.12750789965
 21
9128.693182432327
 31
0.0
  0
LINE
  5
16309
330
1624E
100
AcDbEntity
  8
KISO-1
100
AcDbLine
 10
12019.12750789965
 20
8143.693182432325
 30
0.0
 11
12019.12750789965
 21
9143.693182432331
 31
0.0
  0
LINE
  5
1630A
330
1624E
100
AcDbEntity
  8
HIKIDASHI
100
AcDbLine
 10
12352.09378829813
 20
8763.461125644624
 30
0.0
 11
11881.41316311141
 21
8200.107713759622
 31
0.0
  0
LINE
  5
1630B
330
1624E
100
AcDbEntity
  8
KISO-1
100
AcDbLine
 10
12819.12750789964
 20
8143.693182432325
 30
0.0
 11
12019.12750789965
 21
8143.693182432325
 31
0.0
  0
LINE
  5
1630C
330
1624E
100
AcDbEntity
  8
KISO-1
100
AcDbLine
 10
12019.12750789965
 20
9143.693182432331
 30
0.0
 11
12819.12750789964
 21
9143.693182432331
 31
0.0
  0
LINE
  5
1630D
330
1624E
100
AcDbEntity
  8
SIN
100
AcDbLine
 10
12538.67750789965
 20
8843.69318243233
 30
0.0
 11
12299.57750789965
 21
8843.69318243233
 31
0.0
  0
LINE
  5
1630E
330
1624E
100
AcDbEntity
  8
BOLT
100
AcDbLine
 10
12319.12750789965
 20
8713.693182432331
 30
0.0
 11
12319.12750789965
 21
8773.69318243233
 31
0.0
  0
LINE
  5
1630F
330
1624E
100
AcDbEntity
  8
BOLT
100
AcDbLine
 10
12289.12750789965
 20
8743.69318243233
 30
0.0
 11
12349.12750789965
 21
8743.69318243233
 31
0.0
  0
LINE
  5
16310
330
1624E
100
AcDbEntity
  8
BOLT
100
AcDbLine
 10
12319.12750789965
 20
8973.693182432331
 30
0.0
 11
12319.12750789965
 21
8913.693182432325
 31
0.0
  0
LINE
  5
16311
330
1624E
100
AcDbEntity
  8
BOLT
100
AcDbLine
 10
12289.12750789965
 20
8943.693182432332
 30
0.0
 11
12349.12750789965
 21
8943.693182432332
 31
0.0
  0
CIRCLE
  5
16312
330
1624E
100
AcDbEntity
  8
KISO-2
100
AcDbCircle
 10
12419.12750789965
 20
8843.69318243233
 30
0.0
 40
44.55
  0
LINE
  5
16313
330
1624E
100
AcDbEntity
  8
BOLT
100
AcDbLine
 10
12549.12750789965
 20
8743.69318243233
 30
0.0
 11
12489.12750789965
 21
8743.69318243233
 31
0.0
  0
LINE
  5
16314
330
1624E
100
AcDbEntity
  8
BOLT
100
AcDbLine
 10
12519.12750789965
 20
8713.693182432331
 30
0.0
 11
12519.12750789965
 21
8773.69318243233
 31
0.0
  0
LINE
  5
16315
330
1624E
100
AcDbEntity
  8
BOLT
100
AcDbLine
 10
12549.12750789965
 20
8943.693182432332
 30
0.0
 11
12489.12750789965
 21
8943.693182432332
 31
0.0
  0
LINE
  5
16316
330
1624E
100
AcDbEntity
  8
BOLT
100
AcDbLine
 10
12519.12750789965
 20
8973.693182432331
 30
0.0
 11
12519.12750789965
 21
8913.693182432325
 31
0.0
  0
LINE
  5
16317
330
1624E
100
AcDbEntity
  8
KISO-1
100
AcDbLine
 10
12819.12750789964
 20
9143.693182432331
 30
0.0
 11
12819.12750789964
 21
9083.693182432327
 31
0.0
  0
TEXT
  5
16318
330
1624E
100
AcDbEntity
  8
SUNPOU
100
AcDbText
 10
12333.41322218536
 20
9848.693182432331
 30
0.0
 40
90.0
  1
480
 41
0.6666666666666666
  7
00
 72
     1
 11
12419.12750789965
 21
9893.693182432331
 31
0.0
100
AcDbText
 73
     2
  0
TEXT
  5
16319
330
1624E
100
AcDbEntity
  8
SUNPOU
100
AcDbText
 10
12649.12750789964
 20
9848.693182432331
 30
0.0
 40
90.0
  1
160
 41
0.6666666666666666
  7
00
 72
     4
 11
12739.12750789964
 21
9893.693182432331
 31
0.0
100
AcDbText
  0
TEXT
  5
1631A
330
1624E
100
AcDbEntity
  8
SUNPOU
100
AcDbText
 10
12009.12750789965
 20
9848.693182432331
 30
0.0
 40
90.0
  1
160
 41
0.6666666666666666
  7
00
 72
     4
 11
12099.12750789965
 21
9893.693182432331
 31
0.0
100
AcDbText
  0
TEXT
  5
1631B
330
1624E
100
AcDbEntity
  8
SUNPOU
100
AcDbText
 10
12333.41322218536
 20
9638.693182432326
 30
0.0
 40
90.0
  1
280
 41
0.6666666666666666
  7
00
 72
     1
 11
12419.12750789965
 21
9683.693182432328
 31
0.0
100
AcDbText
 73
     2
  0
TEXT
  5
1631C
330
1624E
100
AcDbEntity
  8
SUNPOU
100
AcDbText
 10
12333.41322218536
 20
9428.693182432331
 30
0.0
 40
90.0
  1
200
 41
0.6666666666666666
  7
00
 72
     1
 11
12419.12750789965
 21
9473.693182432331
 31
0.0
100
AcDbText
 73
     2
  0
LINE
  5
1631D
330
1624E
100
AcDbEntity
  8
SUNPOU
100
AcDbLine
 10
12504.12750789965
 20
9383.693182432327
 30
0.0
 11
12334.12750789965
 21
9383.693182432327
 31
0.0
  0
LINE
  5
1631E
330
1624E
100
AcDbEntity
  8
SUNPOU
100
AcDbLine
 10
12644.12750789964
 20
9803.693182432327
 30
0.0
 11
12194.12750789965
 21
9803.693182432327
 31
0.0
  0
LINE
  5
1631F
330
1624E
100
AcDbEntity
  8
SUNPOU
100
AcDbLine
 10
12544.12750789965
 20
9593.693182432328
 30
0.0
 11
12294.12750789965
 21
9593.693182432328
 31
0.0
  0
LINE
  5
16320
330
1624E
100
AcDbEntity
  8
SUNPOU
100
AcDbLine
 10
12164.12750789965
 20
9803.693182432327
 30
0.0
 11
12034.12750789965
 21
9803.693182432327
 31
0.0
  0
LINE
  5
16321
330
1624E
100
AcDbEntity
  8
SUNPOU
100
AcDbLine
 10
12804.12750789964
 20
9803.693182432327
 30
0.0
 11
12674.12750789964
 21
9803.693182432327
 31
0.0
  0
TEXT
  5
16322
330
1624E
100
AcDbEntity
  8
SUNPOU
100
AcDbText
 10
12333.41322218536
 20
10058.69318243232
 30
0.0
 40
90.0
  1
800
 41
0.6666666666666666
  7
00
 72
     1
 11
12419.12750789965
 21
10103.69318243232
 31
0.0
100
AcDbText
 73
     2
  0
LINE
  5
16323
330
1624E
100
AcDbEntity
  8
SUNPOU
100
AcDbLine
 10
12804.12750789964
 20
10013.69318243232
 30
0.0
 11
12034.12750789965
 21
10013.69318243232
 31
0.0
  0
TEXT
  5
16324
330
1624E
100
AcDbEntity
  8
SUNPOU
100
AcDbText
 10
13434.12750789964
 20
9166.484739998395
 30
0.0
 40
90.0
  1
60
 50
90.0
 41
0.6666666666666666
  7
00
 72
     4
 11
13389.12750789964
 21
9225.056168569825
 31
0.0
100
AcDbText
  0
LINE
  5
16325
330
1624E
100
AcDbEntity
  8
SUNPOU
100
AcDbLine
 10
13479.12750789964
 20
9143.693182432331
 30
0.0
 11
13479.12750789964
 21
9288.712578282012
 31
0.0
  0
TEXT
  5
16326
330
1624E
100
AcDbEntity
  8
SUNPOU
100
AcDbText
 10
13224.12750789964
 20
9094.004202463258
 30
0.0
 40
90.0
  1
140
 50
90.0
 41
0.6666666666666666
  7
00
 72
     4
 11
13179.12750789964
 21
9184.004202463258
 31
0.0
100
AcDbText
  0
LINE
  5
16327
330
1624E
100
AcDbEntity
  8
SUNPOU
100
AcDbLine
 10
13269.12750789964
 20
9083.693182432327
 30
0.0
 11
13269.12750789964
 21
9268.677953603893
 31
0.0
  0
TEXT
  5
16328
330
1624E
100
AcDbEntity
  8
HIKIDASHI
100
AcDbText
 10
12954.12750789965
 20
7003.168187707529
 30
0.0
 40
90.0
  1
（土間コン側面位置）
 50
90.0
  7
01
100
AcDbText
  0
LINE
  5
16329
330
1624E
100
AcDbEntity
  8
SUNPOU
100
AcDbLine
 10
13479.12750789964
 20
8588.693182432326
 30
0.0
 11
13479.12750789964
 21
8158.693182432331
 31
0.0
  0
TEXT
  5
1632A
330
1624E
100
AcDbEntity
  8
SUNPOU
100
AcDbText
 10
13224.12750789964
 20
8418.543114346546
 30
0.0
 40
90.0
  1
140
 50
90.0
 41
0.6666666666666666
  7
00
 72
     4
 11
13179.12750789964
 21
8508.543114346547
 31
0.0
100
AcDbText
  0
LINE
  5
1632B
330
1624E
100
AcDbEntity
  8
SUNPOU
100
AcDbLine
 10
13269.12750789964
 20
8603.693182432333
 30
0.0
 11
13269.12750789964
 21
8425.724440024493
 31
0.0
  0
TEXT
  5
1632C
330
1624E
100
AcDbEntity
  8
SUNPOU
100
AcDbText
 10
13434.12750789964
 20
8287.978896718039
 30
0.0
 40
90.0
  1
460
 50
90.0
 41
0.6666666666666666
  7
00
 72
     1
 11
13389.12750789964
 21
8373.693182432326
 31
0.0
100
AcDbText
 73
     2
  0
TEXT
  5
1632D
330
1624E
100
AcDbEntity
  8
SUNPOU
100
AcDbText
 10
13434.12750789964
 20
8757.978896718045
 30
0.0
 40
90.0
  1
480
 50
90.0
 41
0.6666666666666666
  7
00
 72
     1
 11
13389.12750789964
 21
8843.69318243233
 31
0.0
100
AcDbText
 73
     2
  0
LINE
  5
1632E
330
1624E
100
AcDbEntity
  8
SUNPOU
100
AcDbLine
 10
13299.12750789964
 20
9143.693182432331
 30
0.0
 11
13524.12750789964
 21
9143.693182432331
 31
0.0
  0
TEXT
  5
1632F
330
1624E
100
AcDbEntity
  8
SUNPOU
100
AcDbText
 10
13224.12750789964
 20
8757.978896718045
 30
0.0
 40
90.0
  1
200
 50
90.0
 41
0.6666666666666666
  7
00
 72
     4
 11
13179.12750789964
 21
8843.69318243233
 31
0.0
100
AcDbText
  0
LINE
  5
16330
330
1624E
100
AcDbEntity
  8
SUNPOU
100
AcDbLine
 10
13269.12750789964
 20
8928.693182432326
 30
0.0
 11
13269.12750789964
 21
8758.693182432331
 31
0.0
  0
LINE
  5
16331
330
1624E
100
AcDbEntity
  8
SUNPOU
100
AcDbLine
 10
13269.12750789964
 20
8728.693182432333
 30
0.0
 11
13269.12750789964
 21
8618.69318243233
 31
0.0
  0
LINE
  5
16332
330
1624E
100
AcDbEntity
  8
SUNPOU
100
AcDbLine
 10
13269.12750789964
 20
9068.693182432332
 30
0.0
 11
13269.12750789964
 21
8958.693182432325
 31
0.0
  0
LINE
  5
16333
330
1624E
100
AcDbEntity
  8
SUNPOU
100
AcDbLine
 10
13479.12750789964
 20
9068.693182432332
 30
0.0
 11
13479.12750789964
 21
8618.69318243233
 31
0.0
  0
LINE
  5
16334
330
1624E
100
AcDbEntity
  8
SUNPOU
100
AcDbLine
 10
13479.12750789964
 20
9128.693182432327
 30
0.0
 11
13479.12750789964
 21
9098.693182432331
 31
0.0
  0
LINE
  5
16335
330
1624E
100
AcDbEntity
  8
SUNPOU
100
AcDbLine
 10
9409.127507899652
 20
7948.693182432328
 30
0.0
 11
9619.127507899648
 21
7948.693182432328
 31
0.0
  0
LINE
  5
16336
330
1624E
100
AcDbEntity
  8
SUNPOU
100
AcDbLine
 10
9619.127507899648
 20
7948.693182432332
 30
0.0
 11
9619.127507899648
 21
8098.693182432333
 31
0.0
  0
TEXT
  5
16337
330
1624E
100
AcDbEntity
  8
SUNPOU
100
AcDbText
 10
9203.28465075679
 20
7903.693182432329
 30
0.0
 40
90.0
  1
A
 41
0.6700000000000001
  7
00
 72
     4
 11
9229.127507899647
 21
7948.693182432328
 31
0.0
100
AcDbText
  0
LINE
  5
16338
330
1624E
100
AcDbEntity
  8
SUNPOU
100
AcDbLine
 10
9409.127507899652
 20
9338.693182432328
 30
0.0
 11
9619.127507899648
 21
9338.693182432328
 31
0.0
  0
LINE
  5
16339
330
1624E
100
AcDbEntity
  8
SUNPOU
100
AcDbLine
 10
9619.127507899648
 20
9338.693182432328
 30
0.0
 11
9619.127507899648
 21
9188.693182432327
 31
0.0
  0
TEXT
  5
1633A
330
1624E
100
AcDbEntity
  8
SUNPOU
100
AcDbText
 10
9193.234650756791
 20
9285.121753860897
 30
0.0
 40
90.0
  1
A'
 41
0.6700000000000001
  7
00
 72
     4
 11
9229.127507899647
 21
9338.693182432328
 31
0.0
100
AcDbText
  0
TEXT
  5
1633B
330
1624E
100
AcDbEntity
  8
HIKIDASHI
100
AcDbText
 10
10171.46360890451
 20
9428.693182432331
 30
0.0
 40
90.00009018009018
  1
アンカーボルト
  7
01
100
AcDbText
  0
LINE
  5
1633C
330
1624E
100
AcDbEntity
  8
HIKIDASHI
100
AcDbLine
 10
10137.18592395598
 20
9383.693182432331
 30
0.0
 11
11881.4131631114
 21
9383.693182432331
 31
0.0
  0
TEXT
  5
1633D
330
1624E
100
AcDbEntity
  8
HIKIDASHI
100
AcDbText
 10
10931.80066350989
 20
9428.693182432331
 30
0.0
 40
89.55223880597012
  1
W ／
 41
0.6700000000000001
  7
00
100
AcDbText
  0
TEXT
  5
1633E
330
1624E
100
AcDbEntity
  8
HIKIDASHI
100
AcDbText
 10
11006.40147419312
 20
9455.122792071227
 30
0.0
 40
67.16417910447761
  1
1
 41
0.6700000000000001
  7
00
100
AcDbText
  0
TEXT
  5
1633F
330
1624E
100
AcDbEntity
  8
HIKIDASHI
100
AcDbText
 10
11247.26382709554
 20
9428.48419623224
 30
0.0
 40
89.55223880597012
  1
400
 41
0.6700000000000001
  7
00
100
AcDbText
  0
TEXT
  5
16340
330
1624E
100
AcDbEntity
  8
HIKIDASHI
100
AcDbText
 10
11094.29351075204
 20
9428.096737040663
 30
0.0
 40
67.16417910447761
  1
2
 41
0.6700000000000001
  7
00
100
AcDbText
  0
TEXT
  5
16341
330
1624E
100
AcDbEntity
  8
HIKIDASHI
100
AcDbText
 10
11166.12844794242
 20
9439.887212283082
 30
0.0
 40
89.55223880597012
  1
x
 41
0.6700000000000001
  7
00
100
AcDbText
  0
TEXT
  5
16342
330
1624E
100
AcDbEntity
  8
HIKIDASHI
100
AcDbText
 10
11488.98398115706
 20
9428.693182432331
 30
0.0
 40
90.00009018009018
  1
（別途）
  7
01
100
AcDbText
  0
LINE
  5
16343
330
1624E
100
AcDbEntity
  8
SUNPOU
100
AcDbLine
 10
9409.127507899652
 20
7933.693182432326
 30
0.0
 11
9319.127507899649
 21
7948.693182432328
 31
0.0
  0
LINE
  5
16344
330
1624E
100
AcDbEntity
  8
SUNPOU
100
AcDbLine
 10
9319.127507899649
 20
7948.693182432328
 30
0.0
 11
9409.127507899652
 21
7963.693182432326
 31
0.0
  0
SOLID
  5
16345
330
1624E
100
AcDbEntity
  8
SUNPOU
100
AcDbTrace
 10
9409.127507899652
 20
7933.693182432326
 30
0.0
 11
9409.127507899652
 21
7963.693182432326
 31
0.0
 12
9319.127507899649
 22
7948.693182432328
 32
0.0
 13
9319.127507899649
 23
7948.693182432328
 33
0.0
  0
LINE
  5
16346
330
1624E
100
AcDbEntity
  8
SUNPOU
100
AcDbLine
 10
9409.127507899652
 20
7963.693182432326
 30
0.0
 11
9409.127507899652
 21
7933.693182432326
 31
0.0
  0
LINE
  5
16347
330
1624E
100
AcDbEntity
  8
SUNPOU
100
AcDbLine
 10
11359.12750789965
 20
8154.943182432328
 30
0.0
 11
11359.12750789965
 21
8166.193182432333
 31
0.0
  0
LINE
  5
16348
330
1624E
100
AcDbEntity
  8
SUNPOU
100
AcDbLine
 10
11569.12750789965
 20
8154.943182432328
 30
0.0
 11
11569.12750789965
 21
8166.193182432333
 31
0.0
  0
LINE
  5
16349
330
1624E
100
AcDbEntity
  8
SUNPOU
100
AcDbLine
 10
11359.12750789965
 20
9132.443182432327
 30
0.0
 11
11359.12750789965
 21
9121.193182432325
 31
0.0
  0
LINE
  5
1634A
330
1624E
100
AcDbEntity
  8
SUNPOU
100
AcDbLine
 10
11569.12750789965
 20
8854.943182432331
 30
0.0
 11
11569.12750789965
 21
8866.193182432326
 31
0.0
  0
LINE
  5
1634B
330
1624E
100
AcDbEntity
  8
SUNPOU
100
AcDbLine
 10
11569.12750789965
 20
8832.443182432326
 30
0.0
 11
11569.12750789965
 21
8821.193182432326
 31
0.0
  0
LINE
  5
1634C
330
1624E
100
AcDbEntity
  8
SUNPOU
100
AcDbLine
 10
11569.12750789965
 20
9132.443182432327
 30
0.0
 11
11569.12750789965
 21
9121.193182432325
 31
0.0
  0
LINE
  5
1634D
330
1624E
100
AcDbEntity
  8
SUNPOU
100
AcDbLine
 10
9409.127507899652
 20
9353.693182432332
 30
0.0
 11
9319.127507899649
 21
9338.693182432328
 31
0.0
  0
LINE
  5
1634E
330
1624E
100
AcDbEntity
  8
SUNPOU
100
AcDbLine
 10
9319.127507899649
 20
9338.693182432328
 30
0.0
 11
9409.127507899652
 21
9323.693182432331
 31
0.0
  0
SOLID
  5
1634F
330
1624E
100
AcDbEntity
  8
SUNPOU
100
AcDbTrace
 10
9409.127507899652
 20
9353.693182432332
 30
0.0
 11
9409.127507899652
 21
9323.693182432331
 31
0.0
 12
9319.127507899649
 22
9338.693182432328
 32
0.0
 13
9319.127507899649
 23
9338.693182432328
 33
0.0
  0
LINE
  5
16350
330
1624E
100
AcDbEntity
  8
SUNPOU
100
AcDbLine
 10
9409.127507899652
 20
9323.693182432331
 30
0.0
 11
9409.127507899652
 21
9353.693182432332
 31
0.0
  0
LINE
  5
16351
330
1624E
100
AcDbEntity
  8
SUNPOU
100
AcDbLine
 10
12330.37750789965
 20
9383.693182432327
 30
0.0
 11
12341.62750789965
 21
9383.693182432327
 31
0.0
  0
LINE
  5
16352
330
1624E
100
AcDbEntity
  8
SUNPOU
100
AcDbLine
 10
12030.37750789965
 20
9803.693182432327
 30
0.0
 11
12041.62750789965
 21
9803.693182432327
 31
0.0
  0
LINE
  5
16353
330
1624E
100
AcDbEntity
  8
SUNPOU
100
AcDbLine
 10
12290.37750789965
 20
9593.693182432328
 30
0.0
 11
12301.62750789965
 21
9593.693182432328
 31
0.0
  0
LINE
  5
16354
330
1624E
100
AcDbEntity
  8
SUNPOU
100
AcDbLine
 10
12167.87750789965
 20
9803.693182432327
 30
0.0
 11
12156.62750789965
 21
9803.693182432327
 31
0.0
  0
LINE
  5
16355
330
1624E
100
AcDbEntity
  8
SUNPOU
100
AcDbLine
 10
12190.37750789965
 20
9803.693182432327
 30
0.0
 11
12201.62750789965
 21
9803.693182432327
 31
0.0
  0
LINE
  5
16356
330
1624E
100
AcDbEntity
  8
SUNPOU
100
AcDbLine
 10
12507.87750789965
 20
9383.693182432327
 30
0.0
 11
12496.62750789965
 21
9383.693182432327
 31
0.0
  0
LINE
  5
16357
330
1624E
100
AcDbEntity
  8
SUNPOU
100
AcDbLine
 10
12547.87750789965
 20
9593.693182432328
 30
0.0
 11
12536.62750789965
 21
9593.693182432328
 31
0.0
  0
LINE
  5
16358
330
1624E
100
AcDbEntity
  8
SUNPOU
100
AcDbLine
 10
12647.87750789964
 20
9803.693182432327
 30
0.0
 11
12636.62750789964
 21
9803.693182432327
 31
0.0
  0
LINE
  5
16359
330
1624E
100
AcDbEntity
  8
SUNPOU
100
AcDbLine
 10
12670.37750789964
 20
9803.693182432327
 30
0.0
 11
12681.62750789964
 21
9803.693182432327
 31
0.0
  0
LINE
  5
1635A
330
1624E
100
AcDbEntity
  8
SUNPOU
100
AcDbLine
 10
12807.87750789964
 20
9803.693182432327
 30
0.0
 11
12796.62750789964
 21
9803.693182432327
 31
0.0
  0
LINE
  5
1635B
330
1624E
100
AcDbEntity
  8
SUNPOU
100
AcDbLine
 10
12030.37750789965
 20
10013.69318243232
 30
0.0
 11
12041.62750789965
 21
10013.69318243232
 31
0.0
  0
LINE
  5
1635C
330
1624E
100
AcDbEntity
  8
SUNPOU
100
AcDbLine
 10
12807.87750789964
 20
10013.69318243232
 30
0.0
 11
12796.62750789964
 21
10013.69318243232
 31
0.0
  0
LINE
  5
1635D
330
1624E
100
AcDbEntity
  8
SUNPOU
100
AcDbLine
 10
13479.12750789964
 20
8154.943182432328
 30
0.0
 11
13479.12750789964
 21
8166.193182432333
 31
0.0
  0
LINE
  5
1635E
330
1624E
100
AcDbEntity
  8
SUNPOU
100
AcDbLine
 10
13269.12750789964
 20
8614.943182432325
 30
0.0
 11
13269.12750789964
 21
8626.193182432325
 31
0.0
  0
LINE
  5
1635F
330
1624E
100
AcDbEntity
  8
SUNPOU
100
AcDbLine
 10
13269.12750789964
 20
8732.443182432332
 30
0.0
 11
13269.12750789964
 21
8721.193182432331
 31
0.0
  0
LINE
  5
16360
330
1624E
100
AcDbEntity
  8
SUNPOU
100
AcDbLine
 10
13269.12750789964
 20
8754.943182432331
 30
0.0
 11
13269.12750789964
 21
8766.193182432331
 31
0.0
  0
LINE
  5
16361
330
1624E
100
AcDbEntity
  8
SUNPOU
100
AcDbLine
 10
13269.12750789964
 20
8932.443182432326
 30
0.0
 11
13269.12750789964
 21
8921.193182432325
 31
0.0
  0
LINE
  5
16362
330
1624E
100
AcDbEntity
  8
SUNPOU
100
AcDbLine
 10
13269.12750789964
 20
8954.94318243233
 30
0.0
 11
13269.12750789964
 21
8966.193182432332
 31
0.0
  0
LINE
  5
16363
330
1624E
100
AcDbEntity
  8
SUNPOU
100
AcDbLine
 10
13269.12750789964
 20
9072.443182432332
 30
0.0
 11
13269.12750789964
 21
9061.193182432328
 31
0.0
  0
LINE
  5
16364
330
1624E
100
AcDbEntity
  8
SUNPOU
100
AcDbLine
 10
13479.12750789964
 20
8592.443182432326
 30
0.0
 11
13479.12750789964
 21
8581.193182432331
 31
0.0
  0
LINE
  5
16365
330
1624E
100
AcDbEntity
  8
SUNPOU
100
AcDbLine
 10
13479.12750789964
 20
8614.943182432325
 30
0.0
 11
13479.12750789964
 21
8626.193182432325
 31
0.0
  0
LINE
  5
16366
330
1624E
100
AcDbEntity
  8
SUNPOU
100
AcDbLine
 10
13479.12750789964
 20
9072.443182432332
 30
0.0
 11
13479.12750789964
 21
9061.193182432328
 31
0.0
  0
LINE
  5
16367
330
1624E
100
AcDbEntity
  8
SUNPOU
100
AcDbLine
 10
13479.12750789964
 20
9094.943182432327
 30
0.0
 11
13479.12750789964
 21
9106.193182432331
 31
0.0
  0
LINE
  5
16368
330
1624E
100
AcDbEntity
  8
SUNPOU
100
AcDbLine
 10
13479.12750789964
 20
9132.443182432327
 30
0.0
 11
13479.12750789964
 21
9121.193182432325
 31
0.0
  0
TEXT
  5
16369
330
1624E
100
AcDbEntity
  8
HIKIDASHI
100
AcDbText
 10
7373.224950707393
 20
5827.785415026241
 30
0.0
 40
135.0
  1
基 礎 平 面 図　縮尺
  7
01
 72
     4
 11
8165.224950707393
 21
5895.285415026241
 31
0.0
100
AcDbText
  0
TEXT
  5
1636A
330
1624E
100
AcDbEntity
  8
HIKIDASHI
100
AcDbText
 10
7718.349095873501
 20
5612.785415026241
 30
0.0
 40
135.0
  1
（  ：スパン数）
  7
01
 11
7718.349095873501
 21
5680.285415026241
 31
0.0
100
AcDbText
 73
     2
  0
TEXT
  5
1636B
330
1624E
100
AcDbEntity
  8
HIKIDASHI
100
AcDbText
 10
7896.773008532834
 20
5612.785415026241
 30
0.0
 40
135.0
  1
N
 41
0.6666666666666666
  7
00
 72
     4
 11
7943.915865675691
 21
5680.285415026241
 31
0.0
100
AcDbText
  0
LINE
  5
1636C
330
1624E
100
AcDbEntity
  8
HIKIDASHI
100
AcDbLine
 10
9298.946484844256
 20
5962.785415026245
 30
0.0
 11
9163.946484844251
 21
5827.785415026241
 31
0.0
  0
TEXT
  5
1636D
330
1624E
100
AcDbEntity
  8
HIKIDASHI
100
AcDbText
 10
9019.710916571296
 20
5837.428272169098
 30
0.0
 40
135.0
  1
=
 41
0.6666666666666666
  7
00
 72
     4
 11
9075.425202285584
 21
5895.285415026241
 31
0.0
100
AcDbText
  0
TEXT
  5
1636E
330
1624E
100
AcDbEntity
  8
HIKIDASHI
100
AcDbText
 10
9250.098548007766
 20
5827.785415026244
 30
0.0
 40
67.5
  1
40
 41
0.6666666666666666
  7
00
 72
     4
 11
9292.955690864909
 21
5861.535415026245
 31
0.0
100
AcDbText
  0
TEXT
  5
1636F
330
1624E
100
AcDbEntity
  8
HIKIDASHI
100
AcDbText
 10
9166.356580868946
 20
5895.199271577448
 30
0.0
 40
67.5
  1
1
 41
0.6666666666666666
  7
00
 72
     4
 11
9184.570866583232
 21
5928.949271577447
 31
0.0
100
AcDbText
  0
LINE
  5
16370
330
1624E
100
AcDbEntity
  8
U7
100
AcDbLine
 10
2194.518944222549
 20
2189.885413258397
 30
0.0
 11
3570.51894422255
 21
2189.885413258397
 31
0.0
  0
LINE
  5
16371
330
1624E
100
AcDbEntity
  8
KISO
100
AcDbLine
 10
1922.518944222549
 20
2029.885413258394
 30
0.0
 11
3842.51894422255
 21
2029.885413258397
 31
0.0
  0
LINE
  5
16372
330
1624E
100
AcDbEntity
  8
KISO
100
AcDbLine
 10
1922.518944222549
 20
1869.885413258393
 30
0.0
 11
3842.51894422255
 21
1869.885413258398
 31
0.0
  0
LINE
  5
16373
330
1624E
100
AcDbEntity
  8
KISO
100
AcDbLine
 10
1922.518944222549
 20
2109.885413258395
 30
0.0
 11
3842.51894422255
 21
2109.885413258397
 31
0.0
  0
LINE
  5
16374
330
1624E
100
AcDbEntity
  8
HIDE-S1
100
AcDbLine
 10
3586.518944222546
 20
2877.885413258399
 30
0.0
 11
2818.518944222546
 21
2877.885413258399
 31
0.0
  0
LINE
  5
16375
330
1624E
100
AcDbEntity
  8
U7
100
AcDbLine
 10
2882.51894422255
 20
2734.685413258395
 30
0.0
 11
3522.518944222548
 21
2734.685413258398
 31
0.0
  0
LINE
  5
16376
330
1624E
100
AcDbEntity
  8
U7
100
AcDbLine
 10
2882.51894422255
 20
2574.685413258396
 30
0.0
 11
3522.518944222548
 21
2574.685413258396
 31
0.0
  0
LINE
  5
16377
330
1624E
100
AcDbEntity
  8
U7
100
AcDbLine
 10
2882.51894422255
 20
2414.685413258398
 30
0.0
 11
3522.518944222546
 21
2414.685413258398
 31
0.0
  0
LINE
  5
16378
330
1624E
100
AcDbEntity
  8
U7
100
AcDbLine
 10
2882.51894422255
 20
2254.685413258397
 30
0.0
 11
3522.518944222548
 21
2254.685413258397
 31
0.0
  0
LINE
  5
16379
330
1624E
100
AcDbEntity
  8
U7
100
AcDbLine
 10
2882.51894422255
 20
3054.685413258396
 30
0.0
 11
3522.518944222546
 21
3054.685413258399
 31
0.0
  0
LINE
  5
1637A
330
1624E
100
AcDbEntity
  8
U7
100
AcDbLine
 10
2882.51894422255
 20
2894.685413258395
 30
0.0
 11
3522.518944222546
 21
2894.685413258397
 31
0.0
  0
LINE
  5
1637B
330
1624E
100
AcDbEntity
  8
KISO
100
AcDbLine
 10
3131.23894422254
 20
3117.885413258397
 30
0.0
 11
1220.725709533755
 21
3117.885413258396
 31
0.0
  0
LINE
  5
1637C
330
1624E
100
AcDbEntity
  8
KISO
100
AcDbLine
 10
1220.725709533752
 20
2877.885413258395
 30
0.0
 11
2082.518944222545
 21
2877.885413258395
 31
0.0
  0
LINE
  5
1637D
330
1624E
100
AcDbEntity
  8
KISO
100
AcDbLine
 10
1220.725709533752
 20
2973.885413258397
 30
0.0
 11
2082.518944222548
 21
2973.885413258399
 31
0.0
  0
LINE
  5
1637E
330
1624E
100
AcDbEntity
  8
U1
100
AcDbLine
 10
2882.51894422255
 20
3054.685413258396
 30
0.0
 11
2882.51894422255
 21
2247.485413258396
 31
0.0
  0
LINE
  5
1637F
330
1624E
100
AcDbEntity
  8
KISO
100
AcDbLine
 10
2082.518944222548
 20
2973.885413258399
 30
0.0
 11
2082.518944222548
 21
2109.885413258395
 31
0.0
  0
LINE
  5
16380
330
1624E
100
AcDbEntity
  8
HATCH
100
AcDbLine
 10
2834.036519918289
 20
2877.885413258399
 30
0.0
 11
2082.518944222545
 21
2126.367837562659
 31
0.0
  0
LINE
  5
16381
330
1624E
100
AcDbEntity
  8
HATCH
100
AcDbLine
 10
2834.518944222546
 20
2493.885413258396
 30
0.0
 11
2604.918944222546
 21
2264.285413258396
 31
0.0
  0
LINE
  5
16382
330
1624E
100
AcDbEntity
  8
HATCH
100
AcDbLine
 10
2834.518944222546
 20
2446.367837562661
 30
0.0
 11
2652.436519918287
 21
2264.285413258396
 31
0.0
  0
LINE
  5
16383
330
1624E
100
AcDbEntity
  8
HATCH
100
AcDbLine
 10
2786.518944222553
 20
2877.885413258399
 30
0.0
 11
2082.518944222548
 21
2173.88541325839
 31
0.0
  0
LINE
  5
16384
330
1624E
100
AcDbEntity
  8
HATCH
100
AcDbLine
 10
2739.001368526817
 20
2877.885413258399
 30
0.0
 11
2082.518944222545
 21
2221.402988954127
 31
0.0
  0
CIRCLE
  5
16385
330
1624E
100
AcDbEntity
  8
U7
100
AcDbCircle
 10
2875.318944222549
 20
2414.685413258398
 30
0.0
 40
7.2
  0
LINE
  5
16386
330
1624E
100
AcDbEntity
  8
KISO
100
AcDbLine
 10
1922.518944222549
 20
1869.885413258393
 30
0.0
 11
1922.518944222549
 21
2109.885413258395
 31
0.0
  0
CIRCLE
  5
16387
330
1624E
100
AcDbEntity
  8
U7
100
AcDbCircle
 10
2194.518944222545
 20
2200.285413258396
 30
0.0
 40
10.4
  0
LINE
  5
16388
330
1624E
100
AcDbEntity
  8
U1
100
AcDbLine
 10
2562.518944222546
 20
2226.685413258397
 30
0.0
 11
2861.718944222549
 21
2226.685413258397
 31
0.0
  0
LINE
  5
16389
330
1624E
100
AcDbEntity
  8
HATCH
100
AcDbLine
 10
2834.51894422255
 20
2398.850261866925
 30
0.0
 11
2699.954095614019
 21
2264.285413258396
 31
0.0
  0
LINE
  5
1638A
330
1624E
100
AcDbEntity
  8
HATCH
100
AcDbLine
 10
2567.154095614017
 20
2131.485413258396
 30
0.0
 11
2545.554095614018
 21
2109.885413258395
 31
0.0
  0
LINE
  5
1638B
330
1624E
100
AcDbEntity
  8
HATCH
100
AcDbLine
 10
2472.118944222547
 20
2131.485413258396
 30
0.0
 11
2450.51894422255
 21
2109.885413258395
 31
0.0
  0
LINE
  5
1638C
330
1624E
100
AcDbEntity
  8
HATCH
100
AcDbLine
 10
2519.636519918288
 20
2131.485413258396
 30
0.0
 11
2498.036519918285
 21
2109.885413258397
 31
0.0
  0
LINE
  5
1638D
330
1624E
100
AcDbEntity
  8
HATCH
100
AcDbLine
 10
2951.63651991828
 20
2131.485413258396
 30
0.0
 11
2930.036519918277
 21
2109.885413258397
 31
0.0
  0
LINE
  5
1638E
330
1624E
100
AcDbEntity
  8
HATCH
100
AcDbLine
 10
2999.154095614017
 20
2131.485413258396
 30
0.0
 11
2977.554095614016
 21
2109.885413258397
 31
0.0
  0
LINE
  5
1638F
330
1624E
100
AcDbEntity
  8
HATCH
100
AcDbLine
 10
3046.671671309749
 20
2131.485413258396
 30
0.0
 11
3025.07167130975
 21
2109.885413258397
 31
0.0
  0
ARC
  5
16390
330
1624E
100
AcDbEntity
  8
U1
100
AcDbCircle
 10
2861.718944222549
 20
2247.485413258396
 30
0.0
 40
20.8
100
AcDbArc
 50
270.0
 51
0.0
  0
CIRCLE
  5
16391
330
1624E
100
AcDbEntity
  8
U7
100
AcDbCircle
 10
2875.318944222549
 20
2254.685413258397
 30
0.0
 40
7.2
  0
LINE
  5
16392
330
1624E
100
AcDbEntity
  8
KISO
100
AcDbLine
 10
2818.518944222546
 20
2877.885413258399
 30
0.0
 11
2082.518944222545
 21
2877.885413258395
 31
0.0
  0
LINE
  5
16393
330
1624E
100
AcDbEntity
  8
HATCH
100
AcDbLine
 10
2307.001368526817
 20
2877.885413258395
 30
0.0
 11
2082.518944222545
 21
2653.402988954121
 31
0.0
  0
LINE
  5
16394
330
1624E
100
AcDbEntity
  8
HATCH
100
AcDbLine
 10
2354.518944222556
 20
2877.885413258395
 30
0.0
 11
2082.518944222548
 21
2605.885413258391
 31
0.0
  0
LINE
  5
16395
330
1624E
100
AcDbEntity
  8
HATCH
100
AcDbLine
 10
2259.483792831081
 20
2877.885413258395
 30
0.0
 11
2082.518944222545
 21
2700.920564649863
 31
0.0
  0
LINE
  5
16396
330
1624E
100
AcDbEntity
  8
KISO
100
AcDbLine
 10
2818.518944222546
 20
3117.885413258396
 30
0.0
 11
2818.518944222546
 21
2877.885413258399
 31
0.0
  0
LINE
  5
16397
330
1624E
100
AcDbEntity
  8
KISO
100
AcDbLine
 10
3131.23894422254
 20
3089.085413258398
 30
0.0
 11
2978.518944222548
 21
2897.085413258399
 31
0.0
  0
CIRCLE
  5
16398
330
1624E
100
AcDbEntity
  8
U7
100
AcDbCircle
 10
2875.318944222549
 20
2574.685413258398
 30
0.0
 40
7.2
  0
CIRCLE
  5
16399
330
1624E
100
AcDbEntity
  8
U7
100
AcDbCircle
 10
2875.318944222549
 20
2734.685413258395
 30
0.0
 40
7.2
  0
CIRCLE
  5
1639A
330
1624E
100
AcDbEntity
  8
U7
100
AcDbCircle
 10
2875.318944222549
 20
2894.685413258395
 30
0.0
 40
7.2
  0
LINE
  5
1639B
330
1624E
100
AcDbEntity
  8
HATCH
100
AcDbLine
 10
2963.15409561402
 20
3068.285413258396
 30
0.0
 11
2913.554095614017
 21
3117.885413258396
 31
0.0
  0
LINE
  5
1639C
330
1624E
100
AcDbEntity
  8
HATCH
100
AcDbLine
 10
2915.636519918288
 20
3068.285413258396
 30
0.0
 11
2866.036519918285
 21
3117.885413258397
 31
0.0
  0
LINE
  5
1639D
330
1624E
100
AcDbEntity
  8
HATCH
100
AcDbLine
 10
2868.118944222552
 20
3068.285413258396
 30
0.0
 11
2818.518944222546
 21
3117.885413258396
 31
0.0
  0
CIRCLE
  5
1639E
330
1624E
100
AcDbEntity
  8
U7
100
AcDbCircle
 10
2875.318944222549
 20
3054.685413258396
 30
0.0
 40
7.2
  0
LINE
  5
1639F
330
1624E
100
AcDbEntity
  8
U1
100
AcDbLine
 10
3522.518944222546
 20
3054.685413258399
 30
0.0
 11
3522.518944222548
 21
2247.485413258396
 31
0.0
  0
CIRCLE
  5
163A0
330
1624E
100
AcDbEntity
  8
U7
100
AcDbCircle
 10
3529.718944222549
 20
2414.685413258398
 30
0.0
 40
7.2
  0
LINE
  5
163A1
330
1624E
100
AcDbEntity
  8
KISO
100
AcDbLine
 10
3682.518944222548
 20
2109.885413258397
 30
0.0
 11
3682.518944222545
 21
2877.885413258399
 31
0.0
  0
LINE
  5
163A2
330
1624E
100
AcDbEntity
  8
U1
100
AcDbLine
 10
3543.318944222548
 20
2226.685413258397
 30
0.0
 11
3596.918944222547
 21
2226.685413258397
 31
0.0
  0
LINE
  5
163A3
330
1624E
100
AcDbEntity
  8
HATCH
100
AcDbLine
 10
3526.189247005488
 20
2131.485413258396
 30
0.0
 11
3504.58924700549
 21
2109.885413258397
 31
0.0
  0
LINE
  5
163A4
330
1624E
100
AcDbEntity
  8
HATCH
100
AcDbLine
 10
3478.671671309752
 20
2131.485413258396
 30
0.0
 11
3457.07167130975
 21
2109.885413258397
 31
0.0
  0
LINE
  5
163A5
330
1624E
100
AcDbEntity
  8
HATCH
100
AcDbLine
 10
3431.154095614016
 20
2131.485413258396
 30
0.0
 11
3409.554095614013
 21
2109.885413258397
 31
0.0
  0
ARC
  5
163A6
330
1624E
100
AcDbEntity
  8
U1
100
AcDbCircle
 10
3543.318944222548
 20
2247.485413258396
 30
0.0
 40
20.8
100
AcDbArc
 50
180.0
 51
270.0
  0
CIRCLE
  5
163A7
330
1624E
100
AcDbEntity
  8
U7
100
AcDbCircle
 10
3529.718944222549
 20
2254.685413258397
 30
0.0
 40
7.2
  0
LINE
  5
163A8
330
1624E
100
AcDbEntity
  8
KISO
100
AcDbLine
 10
3842.51894422255
 20
1869.885413258398
 30
0.0
 11
3842.51894422255
 21
2109.885413258397
 31
0.0
  0
CIRCLE
  5
163A9
330
1624E
100
AcDbEntity
  8
U7
100
AcDbCircle
 10
3570.51894422255
 20
2200.285413258398
 30
0.0
 40
10.4
  0
LINE
  5
163AA
330
1624E
100
AcDbEntity
  8
HATCH
100
AcDbLine
 10
3682.518944222548
 20
2382.850261866934
 30
0.0
 11
3570.518944222553
 21
2270.850261866934
 31
0.0
  0
LINE
  5
163AB
330
1624E
100
AcDbEntity
  8
HATCH
100
AcDbLine
 10
3682.518944222548
 20
2335.332686171193
 30
0.0
 11
3611.471671309752
 21
2264.285413258398
 31
0.0
  0
LINE
  5
163AC
330
1624E
100
AcDbEntity
  8
HATCH
100
AcDbLine
 10
3682.518944222548
 20
2287.815110475457
 30
0.0
 11
3658.989247005488
 21
2264.285413258398
 31
0.0
  0
LINE
  5
163AD
330
1624E
100
AcDbEntity
  8
AQU_HOKYOU
100
AcDbLine
 10
4157.069795261559
 20
3069.885413258399
 30
0.0
 11
3586.518944222546
 21
3069.885413258399
 31
0.0
  0
LINE
  5
163AE
330
1624E
100
AcDbEntity
  8
AQU_HOKYOU
100
AcDbLine
 10
3922.518944222548
 20
2901.885413258402
 30
0.0
 11
4090.518944222548
 21
3069.885413258399
 31
0.0
  0
LINE
  5
163AF
330
1624E
100
AcDbEntity
  8
AQU_HOKYOU
100
AcDbLine
 10
3871.607255977116
 20
2952.797101503831
 30
0.0
 11
3988.695567731688
 21
3069.885413258399
 31
0.0
  0
LINE
  5
163B0
330
1624E
100
AcDbEntity
  8
KISO
100
AcDbLine
 10
3586.518944222546
 20
2877.885413258399
 30
0.0
 11
3586.518944222546
 21
3117.885413258397
 31
0.0
  0
LINE
  5
163B1
330
1624E
100
AcDbEntity
  8
KISO
100
AcDbLine
 10
3273.798944222548
 20
3089.085413258398
 30
0.0
 11
3426.518944222549
 21
2897.085413258399
 31
0.0
  0
LINE
  5
163B2
330
1624E
100
AcDbEntity
  8
AQU_HOKYOU
100
AcDbLine
 10
3703.607255977117
 20
3018.973725012968
 30
0.0
 11
3820.695567731684
 21
2901.885413258397
 31
0.0
  0
LINE
  5
163B3
330
1624E
100
AcDbEntity
  8
AQU_HOKYOU
100
AcDbLine
 10
3586.518944222546
 20
2901.885413258402
 30
0.0
 11
3754.518944222546
 21
3069.885413258399
 31
0.0
  0
LINE
  5
163B4
330
1624E
100
AcDbEntity
  8
AQU_HOKYOU
100
AcDbLine
 10
3754.518944222546
 20
3069.885413258399
 30
0.0
 11
3922.518944222548
 21
2901.885413258402
 31
0.0
  0
CIRCLE
  5
163B5
330
1624E
100
AcDbEntity
  8
U7
100
AcDbCircle
 10
3529.718944222549
 20
2574.685413258398
 30
0.0
 40
7.2
  0
CIRCLE
  5
163B6
330
1624E
100
AcDbEntity
  8
U7
100
AcDbCircle
 10
3529.718944222549
 20
2734.685413258395
 30
0.0
 40
7.2
  0
CIRCLE
  5
163B7
330
1624E
100
AcDbEntity
  8
U7
100
AcDbCircle
 10
3529.718944222549
 20
2894.685413258397
 30
0.0
 40
7.2
  0
LINE
  5
163B8
330
1624E
100
AcDbEntity
  8
HATCH
100
AcDbLine
 10
3682.518944222548
 20
2767.332686171188
 30
0.0
 11
3570.51894422255
 21
2655.332686171191
 31
0.0
  0
LINE
  5
163B9
330
1624E
100
AcDbEntity
  8
HATCH
100
AcDbLine
 10
3682.518944222545
 20
2814.850261866924
 30
0.0
 11
3570.51894422255
 21
2702.850261866929
 31
0.0
  0
LINE
  5
163BA
330
1624E
100
AcDbEntity
  8
HATCH
100
AcDbLine
 10
3682.518944222545
 20
2862.367837562661
 30
0.0
 11
3570.51894422255
 21
2750.367837562666
 31
0.0
  0
LINE
  5
163BB
330
1624E
100
AcDbEntity
  8
KISO
100
AcDbLine
 10
3682.518944222545
 20
2877.885413258399
 30
0.0
 11
3586.518944222546
 21
2877.885413258399
 31
0.0
  0
LINE
  5
163BC
330
1624E
100
AcDbEntity
  8
AQU_HOKYOU
100
AcDbLine
 10
3652.695567731683
 20
2968.062036767537
 30
0.0
 11
3718.872191240821
 21
2901.885413258397
 31
0.0
  0
LINE
  5
163BD
330
1624E
100
AcDbEntity
  8
KISO
100
AcDbLine
 10
3586.518944222546
 20
3117.885413258397
 30
0.0
 11
3273.798944222544
 21
3117.885413258397
 31
0.0
  0
LINE
  5
163BE
330
1624E
100
AcDbEntity
  8
HATCH
100
AcDbLine
 10
3395.154095614024
 20
3068.2854132584
 30
0.0
 11
3345.554095614018
 21
3117.885413258397
 31
0.0
  0
LINE
  5
163BF
330
1624E
100
AcDbEntity
  8
HATCH
100
AcDbLine
 10
3347.636519918277
 20
3068.285413258396
 30
0.0
 11
3298.036519918277
 21
3117.885413258397
 31
0.0
  0
LINE
  5
163C0
330
1624E
100
AcDbEntity
  8
HATCH
100
AcDbLine
 10
3442.671671309764
 20
3068.2854132584
 30
0.0
 11
3393.07167130975
 21
3117.885413258397
 31
0.0
  0
CIRCLE
  5
163C1
330
1624E
100
AcDbEntity
  8
U7
100
AcDbCircle
 10
3529.718944222549
 20
3054.685413258399
 30
0.0
 40
7.2
  0
LINE
  5
163C2
330
1624E
100
AcDbEntity
  8
AQU_HOKYOU
100
AcDbLine
 10
3586.518944222548
 20
3003.70878974926
 30
0.0
 11
3652.695567731688
 21
3069.885413258399
 31
0.0
  0
LINE
  5
163C3
330
1624E
100
AcDbEntity
  8
AQU_HOKYOU
100
AcDbLine
 10
3820.695567731684
 20
3003.708789749266
 30
0.0
 11
3886.872191240819
 21
3069.885413258399
 31
0.0
  0
LINE
  5
163C4
330
1624E
100
AcDbEntity
  8
AQU_HOKYOU
100
AcDbLine
 10
4090.518944222548
 20
3069.885413258399
 30
0.0
 11
4157.069795261559
 21
3003.334562219388
 31
0.0
  0
LINE
  5
163C5
330
1624E
100
AcDbEntity
  8
AQU_HOKYOU
100
AcDbLine
 10
4039.607255977116
 20
3018.973725012968
 30
0.0
 11
4156.695567731683
 21
2901.885413258397
 31
0.0
  0
LINE
  5
163C6
330
1624E
100
AcDbEntity
  8
AQU_HOKYOU
100
AcDbLine
 10
3988.695567731688
 20
2968.062036767537
 30
0.0
 11
4054.87219124082
 21
2901.885413258397
 31
0.0
  0
LINE
  5
163C7
330
1624E
100
AcDbEntity
  8
HATCH
100
AcDbLine
 10
2178.34587454739
 20
3117.885413258396
 30
0.0
 11
2034.345874547395
 21
2973.885413258395
 31
0.0
  0
LINE
  5
163C8
330
1624E
100
AcDbEntity
  8
HATCH
100
AcDbLine
 10
2225.863450243184
 20
3117.885413258396
 30
0.0
 11
2081.863450243174
 21
2973.885413258399
 31
0.0
  0
LINE
  5
163C9
330
1624E
100
AcDbEntity
  8
HATCH
100
AcDbLine
 10
1698.828298851665
 20
3117.885413258396
 30
0.0
 11
1554.828298851665
 21
2973.885413258395
 31
0.0
  0
LINE
  5
163CA
330
1624E
100
AcDbEntity
  8
HATCH
100
AcDbLine
 10
1651.31072315594
 20
3117.885413258396
 30
0.0
 11
1507.310723155932
 21
2973.885413258395
 31
0.0
  0
LINE
  5
163CB
330
1624E
100
AcDbEntity
  8
HATCH
100
AcDbLine
 10
1746.345874547409
 20
3117.885413258396
 30
0.0
 11
1602.345874547404
 21
2973.885413258395
 31
0.0
  0
LINE
  5
163CC
330
1624E
100
AcDbEntity
  8
HATCH
100
AcDbLine
 10
2130.828298851652
 20
3117.885413258396
 30
0.0
 11
1986.828298851655
 21
2973.885413258399
 31
0.0
  0
LINE
  5
163CD
330
1624E
100
AcDbEntity
  8
HATCH
100
AcDbLine
 10
2705.381025938961
 20
3117.885413258397
 30
0.0
 11
2465.381025938947
 21
2877.885413258399
 31
0.0
  0
LINE
  5
163CE
330
1624E
100
AcDbEntity
  8
HATCH
100
AcDbLine
 10
2610.345874547427
 20
3117.885413258397
 30
0.0
 11
2370.34587454743
 21
2877.885413258395
 31
0.0
  0
LINE
  5
163CF
330
1624E
100
AcDbEntity
  8
HATCH
100
AcDbLine
 10
2657.863450243167
 20
3117.885413258396
 30
0.0
 11
2417.863450243171
 21
2877.885413258395
 31
0.0
  0
CIRCLE
  5
163D0
330
1624E
100
AcDbEntity
  8
U7
100
AcDbCircle
 10
2469.718944222547
 20
2200.285413258396
 30
0.0
 40
10.4
  0
CIRCLE
  5
163D1
330
1624E
100
AcDbEntity
  8
U7
100
AcDbCircle
 10
2744.918944222547
 20
2200.285413258396
 30
0.0
 40
10.4
  0
CIRCLE
  5
163D2
330
1624E
100
AcDbEntity
  8
U7
100
AcDbCircle
 10
3020.118944222544
 20
2200.285413258396
 30
0.0
 40
10.4
  0
CIRCLE
  5
163D3
330
1624E
100
AcDbEntity
  8
U7
100
AcDbCircle
 10
3295.318944222549
 20
2200.285413258396
 30
0.0
 40
10.4
  0
LINE
  5
163D4
330
1624E
100
AcDbEntity
  8
SUNPOU
100
AcDbLine
 10
3971.755893969114
 20
3159.885413258397
 30
0.0
 11
3867.832845514982
 21
3159.885413258397
 31
0.0
  0
TEXT
  5
163D5
330
1624E
100
AcDbEntity
  8
SUNPOU
100
AcDbText
 10
3848.365798313482
 20
3204.885413258397
 30
0.0
 40
90.0
  1
G.L
 41
0.6666666666666666
  7
00
 72
     4
 11
3919.794369742053
 21
3249.885413258397
 31
0.0
100
AcDbText
  0
LINE
  5
163D6
330
1624E
100
AcDbEntity
  8
SUNPOU
100
AcDbLine
 10
3919.794369742053
 20
3069.885413258397
 30
0.0
 11
3971.755893969114
 21
3159.885413258397
 31
0.0
  0
LINE
  5
163D7
330
1624E
100
AcDbEntity
  8
SUNPOU
100
AcDbLine
 10
3867.832845514982
 20
3159.885413258397
 30
0.0
 11
3919.794369742053
 21
3069.885413258397
 31
0.0
  0
LINE
  5
163D8
330
1624E
100
AcDbEntity
  8
SUNPOU
100
AcDbLine
 10
1327.398466300423
 20
3207.885413258396
 30
0.0
 11
1379.359990527488
 21
3117.885413258396
 31
0.0
  0
LINE
  5
163D9
330
1624E
100
AcDbEntity
  8
SUNPOU
100
AcDbLine
 10
1431.321514754555
 20
3207.885413258396
 30
0.0
 11
1327.398466300423
 21
3207.885413258396
 31
0.0
  0
TEXT
  5
163DA
330
1624E
100
AcDbEntity
  8
SUNPOU
100
AcDbText
 10
1310.78856195606
 20
3252.885413258394
 30
0.0
 40
90.0
  1
F.L
 41
0.6666666666666666
  7
00
 72
     4
 11
1379.359990527488
 21
3297.885413258395
 31
0.0
100
AcDbText
  0
LINE
  5
163DB
330
1624E
100
AcDbEntity
  8
SUNPOU
100
AcDbLine
 10
1379.359990527488
 20
3117.885413258396
 30
0.0
 11
1431.321514754555
 21
3207.885413258396
 31
0.0
  0
TEXT
  5
163DC
330
1624E
100
AcDbEntity
  8
HIKIDASHI
100
AcDbText
 10
4261.78977893146
 20
1248.074801954208
 30
0.0
 40
90.0
  1
帯筋
  7
01
100
AcDbText
  0
LINE
  5
163DD
330
1624E
100
AcDbEntity
  8
HIKIDASHI
100
AcDbLine
 10
4251.789778931458
 20
1203.074801954208
 30
0.0
 11
5009.511080140506
 21
1203.074801954208
 31
0.0
  0
LINE
  5
163DE
330
1624E
100
AcDbEntity
  8
HIKIDASHI
100
AcDbLine
 10
4324.244726880155
 20
1425.89868986287
 30
0.0
 11
4932.149814289343
 21
1425.89868986287
 31
0.0
  0
TEXT
  5
163DF
330
1624E
100
AcDbEntity
  8
HIKIDASHI
100
AcDbText
 10
4809.952772656586
 20
1248.074801954208
 30
0.0
 40
90.0
  1
100
 41
0.6700000000000001
  7
00
100
AcDbText
  0
TEXT
  5
163E0
330
1624E
100
AcDbEntity
  8
HIKIDASHI
100
AcDbText
 10
4588.842766429485
 20
1248.074801954208
 30
0.0
 40
90.0
  1
%%C
 41
0.6700000000000001
  7
00
100
AcDbText
  0
TEXT
  5
163E1
330
1624E
100
AcDbEntity
  8
HIKIDASHI
100
AcDbText
 10
4511.053731965243
 20
1248.074801954208
 30
0.0
 40
90.0
  1
9
 41
0.6700000000000001
  7
00
100
AcDbText
  0
TEXT
  5
163E2
330
1624E
100
AcDbEntity
  8
HIKIDASHI
100
AcDbText
 10
4700.468098999214
 20
1255.574801954209
 30
0.0
 40
75.0
  1
ア
  7
01
 72
     1
 11
4732.968098999214
 21
1293.074801954209
 31
0.0
100
AcDbText
 73
     2
  0
CIRCLE
  5
163E3
330
1624E
100
AcDbEntity
  8
HIKIDASHI
100
AcDbCircle
 10
4732.968098999214
 20
1293.074801954209
 30
0.0
 40
60.0
  0
TEXT
  5
163E4
330
1624E
100
AcDbEntity
  8
HIKIDASHI
100
AcDbText
 10
4334.244726880155
 20
1470.898689862872
 30
0.0
 40
90.0
  1
主筋
  7
01
100
AcDbText
  0
TEXT
  5
163E5
330
1624E
100
AcDbEntity
  8
HIKIDASHI
100
AcDbText
 10
4583.508679913943
 20
1470.898689862872
 30
0.0
 40
90.0
  1
4-D13
 41
0.6700000000000001
  7
00
100
AcDbText
  0
TEXT
  5
163E6
330
1624E
100
AcDbEntity
  8
HIKIDASHI
100
AcDbText
 10
5075.039595134742
 20
3665.351685441334
 30
0.0
 40
90.00009018009018
  1
（別途）
  7
01
100
AcDbText
  0
LINE
  5
163E7
330
1624E
100
AcDbEntity
  8
HIKIDASHI
100
AcDbLine
 10
3723.241537933667
 20
3620.351685441334
 30
0.0
 11
5467.468777089091
 21
3620.351685441334
 31
0.0
  0
TEXT
  5
163E8
330
1624E
100
AcDbEntity
  8
HIKIDASHI
100
AcDbText
 10
3757.519222882201
 20
3665.351685441334
 30
0.0
 40
90.00009018009018
  1
アンカーボルト
  7
01
100
AcDbText
  0
TEXT
  5
163E9
330
1624E
100
AcDbEntity
  8
HIKIDASHI
100
AcDbText
 10
4833.319441073239
 20
3665.142699241246
 30
0.0
 40
89.55223880597012
  1
400
 41
0.6700000000000001
  7
00
100
AcDbText
  0
TEXT
  5
163EA
330
1624E
100
AcDbEntity
  8
HIKIDASHI
100
AcDbText
 10
4517.856277487583
 20
3665.351685441334
 30
0.0
 40
89.55223880597012
  1
W ／
 41
0.6700000000000001
  7
00
100
AcDbText
  0
TEXT
  5
163EB
330
1624E
100
AcDbEntity
  8
HIKIDASHI
100
AcDbText
 10
4592.457088170806
 20
3691.781295080231
 30
0.0
 40
67.16417910447761
  1
1
 41
0.6700000000000001
  7
00
100
AcDbText
  0
TEXT
  5
163EC
330
1624E
100
AcDbEntity
  8
HIKIDASHI
100
AcDbText
 10
4680.349124729731
 20
3664.755240049669
 30
0.0
 40
67.16417910447761
  1
2
 41
0.6700000000000001
  7
00
100
AcDbText
  0
TEXT
  5
163ED
330
1624E
100
AcDbEntity
  8
HIKIDASHI
100
AcDbText
 10
4752.184061920107
 20
3676.545715292081
 30
0.0
 40
89.55223880597012
  1
x
 41
0.6700000000000001
  7
00
100
AcDbText
  0
LINE
  5
163EE
330
1624E
100
AcDbEntity
  8
HIKIDASHI
100
AcDbLine
 10
2624.760714765904
 20
886.5967710460388
 30
0.0
 11
3552.263852413329
 21
886.5967710460388
 31
0.0
  0
LINE
  5
163EF
330
1624E
100
AcDbEntity
  8
HIKIDASHI
100
AcDbLine
 10
2624.760714765904
 20
926.5967710460389
 30
0.0
 11
3552.263852413329
 21
926.5967710460389
 31
0.0
  0
TEXT
  5
163F0
330
1624E
100
AcDbEntity
  8
HIKIDASHI
100
AcDbText
 10
2664.760714765904
 20
986.5967710460388
 30
0.0
 40
120.0
  1
A  ~  A'
 41
0.6700000000000001
  7
00
100
AcDbText
  0
TEXT
  5
163F1
330
1624E
100
AcDbEntity
  8
HIKIDASHI
100
AcDbText
 10
3150.117087427985
 20
986.5967710460388
 30
0.0
 40
120.0
  1
断  面
  7
01
100
AcDbText
  0
LINE
  5
163F2
330
1624E
100
AcDbEntity
  8
1PL-M1
100
AcDbLine
 10
7470.982396145197
 20
3251.333194070899
 30
0.0
 11
7470.982396145197
 21
1731.333194070896
 31
0.0
  0
LINE
  5
163F3
330
1624E
100
AcDbEntity
  8
U7
100
AcDbLine
 10
6462.982396145199
 20
2491.3331940709
 30
0.0
 11
7838.982396145198
 21
2491.333194070895
 31
0.0
  0
LINE
  5
163F4
330
1624E
100
AcDbEntity
  8
U7
100
AcDbLine
 10
6462.982396145199
 20
2755.333194070896
 30
0.0
 11
7838.982396145198
 21
2755.333194070896
 31
0.0
  0
LINE
  5
163F5
330
1624E
100
AcDbEntity
  8
HIDE-M1
100
AcDbLine
 10
7086.9823961452
 20
2875.3331940709
 30
0.0
 11
7854.982396145198
 21
2875.3331940709
 31
0.0
  0
LINE
  5
163F6
330
1624E
100
AcDbEntity
  8
U7
100
AcDbLine
 10
7854.982396145198
 20
2107.333194070895
 30
0.0
 11
7086.9823961452
 21
2107.333194070895
 31
0.0
  0
LINE
  5
163F7
330
1624E
100
AcDbEntity
  8
U7
100
AcDbLine
 10
6473.382396145201
 20
3019.333194070895
 30
0.0
 11
7828.582396145201
 21
3019.333194070895
 31
0.0
  0
LINE
  5
163F8
330
1624E
100
AcDbEntity
  8
HATCH
100
AcDbLine
 10
7458.268793732258
 20
3131.333194070899
 30
0.0
 11
6818.268793732258
 21
2491.333194070895
 31
0.0
  0
LINE
  5
163F9
330
1624E
100
AcDbEntity
  8
HATCH
100
AcDbLine
 10
7505.786369427994
 20
3131.333194070899
 30
0.0
 11
6865.786369427991
 21
2491.333194070895
 31
0.0
  0
LINE
  5
163FA
330
1624E
100
AcDbEntity
  8
HATCH
100
AcDbLine
 10
7410.751218036523
 20
3131.333194070899
 30
0.0
 11
6770.751218036522
 21
2491.333194070895
 31
0.0
  0
LINE
  5
163FB
330
1624E
100
AcDbEntity
  8
1PL-M1
100
AcDbLine
 10
8070.982396145197
 20
2491.333194070895
 30
0.0
 11
6230.982396145197
 21
2491.333194070895
 31
0.0
  0
LINE
  5
163FC
330
1624E
100
AcDbEntity
  8
U7
100
AcDbLine
 10
7013.3823961452
 20
2491.333194070895
 30
0.0
 11
7013.3823961452
 21
3019.333194070895
 31
0.0
  0
LINE
  5
163FD
330
1624E
100
AcDbEntity
  8
U7
100
AcDbLine
 10
6738.1823961452
 20
2491.333194070895
 30
0.0
 11
6738.1823961452
 21
3019.333194070895
 31
0.0
  0
LINE
  5
163FE
330
1624E
100
AcDbEntity
  8
U7
100
AcDbLine
 10
7086.9823961452
 20
2107.333194070895
 30
0.0
 11
7086.9823961452
 21
2491.333194070895
 31
0.0
  0
LINE
  5
163FF
330
1624E
100
AcDbEntity
  8
HATCH
100
AcDbLine
 10
7022.499971840938
 20
3127.564372179577
 30
0.0
 11
6386.268793732263
 21
2491.333194070895
 31
0.0
  0
LINE
  5
16400
330
1624E
100
AcDbEntity
  8
HATCH
100
AcDbLine
 10
6931.233642340792
 20
3131.333194070899
 30
0.0
 11
6350.982396145198
 21
2551.081947875303
 31
0.0
  0
LINE
  5
16401
330
1624E
100
AcDbEntity
  8
HATCH
100
AcDbLine
 10
6978.751218036528
 20
3131.333194070899
 30
0.0
 11
6350.982396145198
 21
2503.564372179567
 31
0.0
  0
LINE
  5
16402
330
1624E
100
AcDbEntity
  8
HATCH
100
AcDbLine
 10
6546.751218036529
 20
3131.333194070901
 30
0.0
 11
6350.982396145198
 21
2935.564372179572
 31
0.0
  0
LINE
  5
16403
330
1624E
100
AcDbEntity
  8
HATCH
100
AcDbLine
 10
6499.233642340797
 20
3131.333194070901
 30
0.0
 11
6350.982396145198
 21
2983.081947875301
 31
0.0
  0
LINE
  5
16404
330
1624E
100
AcDbEntity
  8
HATCH
100
AcDbLine
 10
6451.716066645058
 20
3131.333194070899
 30
0.0
 11
6350.982396145198
 21
3030.599523571044
 31
0.0
  0
LINE
  5
16405
330
1624E
100
AcDbEntity
  8
HIDE-M1
100
AcDbLine
 10
7086.9823961452
 20
2491.333194070895
 30
0.0
 11
7086.9823961452
 21
2875.3331940709
 31
0.0
  0
LINE
  5
16406
330
1624E
100
AcDbEntity
  8
U7
100
AcDbLine
 10
6462.982396145199
 20
2491.3331940709
 30
0.0
 11
6462.982396145199
 21
3008.933194070896
 31
0.0
  0
ARC
  5
16407
330
1624E
100
AcDbEntity
  8
U7
100
AcDbCircle
 10
6473.382396145201
 20
3008.933194070896
 30
0.0
 40
10.4
100
AcDbArc
 50
90.0
 51
180.0
  0
LINE
  5
16408
330
1624E
100
AcDbEntity
  8
U7
100
AcDbLine
 10
7563.782396145201
 20
2491.333194070895
 30
0.0
 11
7563.782396145201
 21
3019.333194070895
 31
0.0
  0
LINE
  5
16409
330
1624E
100
AcDbEntity
  8
U7
100
AcDbLine
 10
7288.582396145198
 20
2491.333194070895
 30
0.0
 11
7288.582396145198
 21
3019.333194070895
 31
0.0
  0
LINE
  5
1640A
330
1624E
100
AcDbEntity
  8
U7
100
AcDbLine
 10
7854.982396145198
 20
2491.333194070895
 30
0.0
 11
7854.982396145198
 21
2107.333194070895
 31
0.0
  0
LINE
  5
1640B
330
1624E
100
AcDbEntity
  8
HATCH
100
AcDbLine
 10
7890.26879373225
 20
3131.333194070899
 30
0.0
 11
7250.26879373225
 21
2491.333194070895
 31
0.0
  0
LINE
  5
1640C
330
1624E
100
AcDbEntity
  8
U7
100
AcDbLine
 10
7838.982396145198
 20
3008.933194070896
 30
0.0
 11
7838.982396145198
 21
2491.333194070895
 31
0.0
  0
LINE
  5
1640D
330
1624E
100
AcDbEntity
  8
HIDE-M1
100
AcDbLine
 10
7854.982396145198
 20
2491.333194070895
 30
0.0
 11
7854.982396145198
 21
2875.3331940709
 31
0.0
  0
LINE
  5
1640E
330
1624E
100
AcDbEntity
  8
HATCH
100
AcDbLine
 10
7937.786369427996
 20
3131.333194070899
 30
0.0
 11
7297.786369427996
 21
2491.333194070895
 31
0.0
  0
LINE
  5
1640F
330
1624E
100
AcDbEntity
  8
HATCH
100
AcDbLine
 10
7950.982396145206
 20
3097.011645092372
 30
0.0
 11
7345.303945123728
 21
2491.333194070895
 31
0.0
  0
LINE
  5
16410
330
1624E
100
AcDbEntity
  8
HATCH
100
AcDbLine
 10
7950.982396145206
 20
2712.529220788109
 30
0.0
 11
7729.786369427983
 21
2491.333194070895
 31
0.0
  0
LINE
  5
16411
330
1624E
100
AcDbEntity
  8
HATCH
100
AcDbLine
 10
7950.982396145206
 20
2665.011645092373
 30
0.0
 11
7777.303945123728
 21
2491.333194070895
 31
0.0
  0
LINE
  5
16412
330
1624E
100
AcDbEntity
  8
HATCH
100
AcDbLine
 10
7950.982396145206
 20
2617.494069396641
 30
0.0
 11
7824.821520819455
 21
2491.333194070895
 31
0.0
  0
ARC
  5
16413
330
1624E
100
AcDbEntity
  8
U7
100
AcDbCircle
 10
7828.582396145201
 20
3008.933194070896
 30
0.0
 40
10.4
100
AcDbArc
 50
0.0
 51
90.0
  0
LINE
  5
16414
330
1624E
100
AcDbEntity
  8
SUNPOU
100
AcDbLine
 10
6433.3823961452
 20
3019.333194070897
 30
0.0
 11
5892.721313588933
 21
3019.333194070897
 31
0.0
  0
LINE
  5
16415
330
1624E
100
AcDbEntity
  8
SUNPOU
100
AcDbLine
 10
6433.3823961452
 20
1963.333194070895
 30
0.0
 11
5892.721313588933
 21
1963.333194070895
 31
0.0
  0
LINE
  5
16416
330
1624E
100
AcDbEntity
  8
SUNPOU
100
AcDbLine
 10
5937.721313588934
 20
2999.333194070898
 30
0.0
 11
5937.721313588934
 21
1983.333194070896
 31
0.0
  0
TEXT
  5
16417
330
1624E
100
AcDbEntity
  8
SUNPOU
100
AcDbText
 10
5892.721313588933
 20
2585.331856419735
 30
0.0
 40
90.0
  1
5-D13
 50
90.0
 41
0.6666666666666666
  7
00
 72
     4
 11
5847.721313588934
 21
2738.188999276877
 31
0.0
100
AcDbText
  0
TEXT
  5
16418
330
1624E
100
AcDbEntity
  8
SUNPOU
100
AcDbText
 10
5892.721313588933
 20
2122.696818884269
 30
0.0
 40
90.0
  1
ベース筋
 50
90.0
  7
01
 72
     4
 11
5847.721313588934
 21
2326.696818884269
 31
0.0
100
AcDbText
  0
LINE
  5
16419
330
1624E
100
AcDbEntity
  8
SUNPOU
100
AcDbLine
 10
6462.982396145199
 20
3048.933194070897
 30
0.0
 11
6462.982396145199
 21
3447.711278313303
 31
0.0
  0
LINE
  5
1641A
330
1624E
100
AcDbEntity
  8
SUNPOU
100
AcDbLine
 10
7838.982396145198
 20
3048.933194070897
 30
0.0
 11
7838.982396145198
 21
3447.711278313303
 31
0.0
  0
LINE
  5
1641B
330
1624E
100
AcDbEntity
  8
SUNPOU
100
AcDbLine
 10
6482.982396145198
 20
3402.711278313303
 30
0.0
 11
7818.982396145198
 21
3402.711278313303
 31
0.0
  0
TEXT
  5
1641C
330
1624E
100
AcDbEntity
  8
SUNPOU
100
AcDbText
 10
6786.261013232951
 20
3447.711278313303
 30
0.0
 40
90.0
  1
ベース筋
  7
01
 72
     4
 11
6990.26101323295
 21
3492.711278313303
 31
0.0
100
AcDbText
  0
TEXT
  5
1641D
330
1624E
100
AcDbEntity
  8
SUNPOU
100
AcDbText
 10
7239.634926987296
 20
3447.711278313303
 30
0.0
 40
90.0
  1
6-D13
 41
0.6666666666666666
  7
00
 72
     4
 11
7393.92064127301
 21
3492.711278313303
 31
0.0
100
AcDbText
  0
LINE
  5
1641E
330
1624E
100
AcDbEntity
  8
HATCH
100
AcDbLine
 10
2224.305863761351
 20
2109.885413258397
 30
0.0
 11
2304.305863761351
 21
2029.885413258396
 31
0.0
  0
LINE
  5
1641F
330
1624E
100
AcDbEntity
  8
HATCH
100
AcDbLine
 10
2176.788288065618
 20
2109.885413258397
 30
0.0
 11
2256.788288065613
 21
2029.885413258394
 31
0.0
  0
LINE
  5
16420
330
1624E
100
AcDbEntity
  8
HATCH
100
AcDbLine
 10
2271.823439457087
 20
2109.885413258397
 30
0.0
 11
2351.823439457087
 21
2029.885413258396
 31
0.0
  0
LINE
  5
16421
330
1624E
100
AcDbEntity
  8
HATCH
100
AcDbLine
 10
2656.305863761351
 20
2109.885413258397
 30
0.0
 11
2736.305863761351
 21
2029.885413258396
 31
0.0
  0
LINE
  5
16422
330
1624E
100
AcDbEntity
  8
HATCH
100
AcDbLine
 10
2703.823439457087
 20
2109.885413258397
 30
0.0
 11
2783.823439457083
 21
2029.885413258396
 31
0.0
  0
LINE
  5
16423
330
1624E
100
AcDbEntity
  8
HATCH
100
AcDbLine
 10
2751.341015152819
 20
2109.885413258397
 30
0.0
 11
2831.341015152823
 21
2029.885413258396
 31
0.0
  0
LINE
  5
16424
330
1624E
100
AcDbEntity
  8
HATCH
100
AcDbLine
 10
3135.823439457083
 20
2109.885413258397
 30
0.0
 11
3215.823439457083
 21
2029.885413258396
 31
0.0
  0
LINE
  5
16425
330
1624E
100
AcDbEntity
  8
HATCH
100
AcDbLine
 10
3183.341015152821
 20
2109.885413258397
 30
0.0
 11
3263.341015152819
 21
2029.885413258396
 31
0.0
  0
LINE
  5
16426
330
1624E
100
AcDbEntity
  8
HATCH
100
AcDbLine
 10
3230.858590848555
 20
2109.885413258397
 30
0.0
 11
3310.858590848555
 21
2029.885413258396
 31
0.0
  0
LINE
  5
16427
330
1624E
100
AcDbEntity
  8
HATCH
100
AcDbLine
 10
3615.341015152818
 20
2109.885413258397
 30
0.0
 11
3695.341015152819
 21
2029.885413258397
 31
0.0
  0
LINE
  5
16428
330
1624E
100
AcDbEntity
  8
HATCH
100
AcDbLine
 10
3662.858590848555
 20
2109.885413258397
 30
0.0
 11
3742.858590848555
 21
2029.885413258397
 31
0.0
  0
LINE
  5
16429
330
1624E
100
AcDbEntity
  8
HATCH
100
AcDbLine
 10
3710.376166544287
 20
2109.885413258397
 30
0.0
 11
3790.37616654429
 21
2029.885413258397
 31
0.0
  0
LINE
  5
1642A
330
1624E
100
AcDbEntity
  8
WAKUSEN-01
100
AcDbLine
 10
434.0000000000008
 20
413.9999999999997
 30
0.0
 11
16382.0
 21
413.9999999999997
 31
0.0
  0
LINE
  5
1642B
330
1624E
100
AcDbEntity
  8
WAKUSEN-01
100
AcDbLine
 10
434.0000000000008
 20
11242.0
 30
0.0
 11
16382.0
 21
11242.0
 31
0.0
  0
LINE
  5
1642C
330
1624E
100
AcDbEntity
  8
WAKUSEN-01
100
AcDbLine
 10
434.0000000000008
 20
413.9999999999997
 30
0.0
 11
434.0000000000008
 21
11242.0
 31
0.0
  0
LINE
  5
1642D
330
1624E
100
AcDbEntity
  8
WAKUSEN-01
100
AcDbLine
 10
16382.0
 20
413.9999999999997
 30
0.0
 11
16382.0
 21
11242.0
 31
0.0
  0
LINE
  5
1642E
330
1624E
100
AcDbEntity
  8
WAKUSEN-01
100
AcDbLine
 10
10280.0
 20
1242.0
 30
0.0
 11
16382.0
 21
1242.0
 31
0.0
  0
LINE
  5
1642F
330
1624E
100
AcDbEntity
  8
WAKUSEN-02
100
AcDbLine
 10
10280.0
 20
827.9999999999997
 30
0.0
 11
13434.0
 21
827.9999999999997
 31
0.0
  0
TEXT
  5
16430
330
1624E
100
AcDbEntity
  8
WAKUMOJI-01
100
AcDbText
 10
10335.13012998137
 20
1062.951504669661
 30
0.0
 40
120.0
  1
名　称
  7
WAKUMOJI
100
AcDbText
  0
TEXT
  5
16431
330
1624E
100
AcDbEntity
  8
WAKUMOJI-01
100
AcDbText
 10
10328.25274254596
 20
659.5644874899107
 30
0.0
 40
120.0
  1
図面名
  7
WAKUMOJI
100
AcDbText
  0
LINE
  5
16432
330
1624E
100
AcDbEntity
  8
WAKUSEN-01
100
AcDbLine
 10
10280.0
 20
413.9999999999985
 30
0.0
 11
10280.0
 21
1242.0
 31
0.0
  0
LINE
  5
16433
330
1624E
100
AcDbEntity
  8
WAKUSEN-02
100
AcDbLine
 10
13434.0
 20
413.9999999999963
 30
0.0
 11
13434.0
 21
1242.0
 31
0.0
  0
LINE
  5
16434
330
1624E
100
AcDbEntity
  8
SUNPOU
100
AcDbLine
 10
7894.982396145199
 20
2107.333194070898
 30
0.0
 11
8446.848304711025
 21
2107.333194070898
 31
0.0
  0
LINE
  5
16435
330
1624E
100
AcDbEntity
  8
SUNPOU
100
AcDbLine
 10
7894.982396145199
 20
2875.333194070897
 30
0.0
 11
8446.848304711025
 21
2875.333194070897
 31
0.0
  0
LINE
  5
16436
330
1624E
100
AcDbEntity
  8
SUNPOU
100
AcDbLine
 10
8401.848304711029
 20
2127.333194070898
 30
0.0
 11
8401.848304711029
 21
2855.333194070897
 31
0.0
  0
LINE
  5
16437
330
1624E
100
AcDbEntity
  8
SUNPOU
100
AcDbLine
 10
7990.982396145198
 20
3131.333194070897
 30
0.0
 11
8656.848304711026
 21
3131.333194070897
 31
0.0
  0
LINE
  5
16438
330
1624E
100
AcDbEntity
  8
SUNPOU
100
AcDbLine
 10
7990.982396145198
 20
1851.333194070899
 30
0.0
 11
8656.848304711026
 21
1851.333194070899
 31
0.0
  0
LINE
  5
16439
330
1624E
100
AcDbEntity
  8
SUNPOU
100
AcDbLine
 10
8611.848304711026
 20
3111.333194070898
 30
0.0
 11
8611.848304711026
 21
1871.333194070898
 31
0.0
  0
LINE
  5
1643A
330
1624E
100
AcDbEntity
  8
SUNPOU
  6
ByBlock
100
AcDbLine
 10
7823.982396145197
 20
3402.711278313303
 30
0.0
 11
7808.982396145198
 21
3402.711278313303
 31
0.0
  0
LINE
  5
1643B
330
1624E
100
AcDbEntity
  8
SUNPOU
  6
ByBlock
100
AcDbLine
 10
6477.982396145198
 20
3402.711278313303
 30
0.0
 11
6492.982396145198
 21
3402.711278313303
 31
0.0
  0
LINE
  5
1643C
330
1624E
100
AcDbEntity
  8
SUNPOU
  6
ByBlock
100
AcDbLine
 10
5937.721313588934
 20
1978.333194070896
 30
0.0
 11
5937.721313588934
 21
1993.333194070896
 31
0.0
  0
LINE
  5
1643D
330
1624E
100
AcDbEntity
  8
SUNPOU
  6
ByBlock
100
AcDbLine
 10
5937.721313588934
 20
3004.333194070897
 30
0.0
 11
5937.721313588934
 21
2989.333194070897
 31
0.0
  0
LINE
  5
1643E
330
1624E
100
AcDbEntity
  8
SUNPOU
100
AcDbLine
 10
7854.982396145198
 20
2067.333194070895
 30
0.0
 11
7854.982396145198
 21
1525.898498232149
 31
0.0
  0
LINE
  5
1643F
330
1624E
100
AcDbEntity
  8
SUNPOU
100
AcDbLine
 10
7086.9823961452
 20
2067.333194070895
 30
0.0
 11
7086.9823961452
 21
1525.898498232149
 31
0.0
  0
LINE
  5
16440
330
1624E
100
AcDbEntity
  8
SUNPOU
100
AcDbLine
 10
7834.982396145197
 20
1570.898498232149
 30
0.0
 11
7106.982396145197
 21
1570.898498232149
 31
0.0
  0
LINE
  5
16441
330
1624E
100
AcDbEntity
  8
SUNPOU
100
AcDbLine
 10
6350.982396145198
 20
1811.333194070897
 30
0.0
 11
6350.982396145198
 21
1315.898498232149
 31
0.0
  0
LINE
  5
16442
330
1624E
100
AcDbEntity
  8
SUNPOU
100
AcDbLine
 10
7950.982396145197
 20
1811.333194070897
 30
0.0
 11
7950.982396145197
 21
1315.898498232149
 31
0.0
  0
LINE
  5
16443
330
1624E
100
AcDbEntity
  8
SUNPOU
100
AcDbLine
 10
6370.982396145199
 20
1360.898498232149
 30
0.0
 11
7930.982396145198
 21
1360.898498232149
 31
0.0
  0
LINE
  5
16444
330
1624E
100
AcDbEntity
  8
SUNPOU
100
AcDbLine
 10
2818.518944222546
 20
3157.885413258396
 30
0.0
 11
2818.518944222546
 21
3665.351685441335
 31
0.0
  0
LINE
  5
16445
330
1624E
100
AcDbEntity
  8
SUNPOU
100
AcDbLine
 10
3586.518944222546
 20
3157.885413258397
 30
0.0
 11
3586.518944222546
 21
3665.351685441335
 31
0.0
  0
LINE
  5
16446
330
1624E
100
AcDbEntity
  8
SUNPOU
100
AcDbLine
 10
2838.518944222546
 20
3620.351685441334
 30
0.0
 11
3566.518944222546
 21
3620.351685441334
 31
0.0
  0
LINE
  5
16447
330
1624E
100
AcDbEntity
  8
SUNPOU
100
AcDbLine
 10
3722.518944222546
 20
2877.885413258399
 30
0.0
 11
4369.096926062878
 21
2877.885413258399
 31
0.0
  0
LINE
  5
16448
330
1624E
100
AcDbEntity
  8
SUNPOU
100
AcDbLine
 10
3626.518944222546
 20
3117.885413258397
 30
0.0
 11
4369.096926062878
 21
3117.885413258397
 31
0.0
  0
LINE
  5
16449
330
1624E
100
AcDbEntity
  8
SUNPOU
100
AcDbLine
 10
4324.096926062877
 20
2897.885413258399
 30
0.0
 11
4324.096926062877
 21
3097.885413258397
 31
0.0
  0
LINE
  5
1644A
330
1624E
100
AcDbEntity
  8
SUNPOU
100
AcDbLine
 10
4324.096926062877
 20
3117.885413258397
 30
0.0
 11
4324.096926062877
 21
3373.599698972687
 31
0.0
  0
LINE
  5
1644B
330
1624E
100
AcDbEntity
  8
SUNPOU
100
AcDbLine
 10
3882.51894422255
 20
2029.885413258397
 30
0.0
 11
4369.096926062876
 21
2029.885413258397
 31
0.0
  0
LINE
  5
1644C
330
1624E
100
AcDbEntity
  8
SUNPOU
100
AcDbLine
 10
3882.51894422255
 20
2109.885413258397
 30
0.0
 11
4369.096926062876
 21
2109.885413258397
 31
0.0
  0
LINE
  5
1644D
330
1624E
100
AcDbEntity
  8
SUNPOU
100
AcDbLine
 10
4324.096926062876
 20
2009.885413258398
 30
0.0
 11
4324.096926062876
 21
1989.885413258398
 31
0.0
  0
LINE
  5
1644E
330
1624E
100
AcDbEntity
  8
SUNPOU
100
AcDbLine
 10
4324.096926062877
 20
2129.885413258397
 30
0.0
 11
4324.096926062877
 21
2149.885413258397
 31
0.0
  0
LINE
  5
1644F
330
1624E
100
AcDbEntity
  8
SUNPOU
100
AcDbLine
 10
4324.096926062876
 20
2029.885413258397
 30
0.0
 11
4324.096926062877
 21
2109.885413258397
 31
0.0
  0
LINE
  5
16450
330
1624E
100
AcDbEntity
  8
SUNPOU
100
AcDbLine
 10
3882.51894422255
 20
2029.885413258397
 30
0.0
 11
4369.096926062876
 21
2029.885413258397
 31
0.0
  0
LINE
  5
16451
330
1624E
100
AcDbEntity
  8
SUNPOU
100
AcDbLine
 10
3882.51894422255
 20
1869.885413258398
 30
0.0
 11
4369.096926062876
 21
1869.885413258398
 31
0.0
  0
LINE
  5
16452
330
1624E
100
AcDbEntity
  8
SUNPOU
100
AcDbLine
 10
4324.096926062877
 20
2009.885413258398
 30
0.0
 11
4324.096926062877
 21
1889.885413258398
 31
0.0
  0
LINE
  5
16453
330
1624E
100
AcDbEntity
  8
SUNPOU
100
AcDbLine
 10
4324.096926062877
 20
1869.885413258398
 30
0.0
 11
4324.096926062877
 21
1614.171127544111
 31
0.0
  0
LINE
  5
16454
330
1624E
100
AcDbEntity
  8
SUNPOU
100
AcDbLine
 10
3722.518944222546
 20
2877.885413258399
 30
0.0
 11
4369.096926062876
 21
2877.885413258399
 31
0.0
  0
LINE
  5
16455
330
1624E
100
AcDbEntity
  8
SUNPOU
100
AcDbLine
 10
3882.51894422255
 20
2109.885413258397
 30
0.0
 11
4369.096926062876
 21
2109.885413258397
 31
0.0
  0
LINE
  5
16456
330
1624E
100
AcDbEntity
  8
SUNPOU
100
AcDbLine
 10
4324.096926062877
 20
2857.885413258399
 30
0.0
 11
4324.096926062877
 21
2129.885413258397
 31
0.0
  0
LINE
  5
16457
330
1624E
100
AcDbEntity
  8
SUNPOU
100
AcDbLine
 10
3202.518944222549
 20
1610.898498232149
 30
0.0
 11
3202.518944222549
 21
1615.898498232149
 31
0.0
  0
LINE
  5
16458
330
1624E
100
AcDbEntity
  8
SUNPOU
100
AcDbLine
 10
3682.518944222553
 20
1829.885413258398
 30
0.0
 11
3682.518944222553
 21
1525.898498232149
 31
0.0
  0
LINE
  5
16459
330
1624E
100
AcDbEntity
  8
SUNPOU
100
AcDbLine
 10
3222.518944222548
 20
1570.898498232149
 30
0.0
 11
3662.518944222553
 21
1570.898498232149
 31
0.0
  0
LINE
  5
1645A
330
1624E
100
AcDbEntity
  8
SUNPOU
100
AcDbLine
 10
2082.518944222548
 20
1829.885413258394
 30
0.0
 11
2082.518944222548
 21
1525.898498232149
 31
0.0
  0
LINE
  5
1645B
330
1624E
100
AcDbEntity
  8
SUNPOU
100
AcDbLine
 10
3202.518944222549
 20
1610.898498232149
 30
0.0
 11
3202.518944222549
 21
1615.898498232149
 31
0.0
  0
LINE
  5
1645C
330
1624E
100
AcDbEntity
  8
SUNPOU
100
AcDbLine
 10
2102.518944222548
 20
1570.898498232149
 30
0.0
 11
3182.518944222548
 21
1570.898498232149
 31
0.0
  0
LINE
  5
1645D
330
1624E
100
AcDbEntity
  8
SUNPOU
100
AcDbLine
 10
2082.518944222548
 20
1829.885413258394
 30
0.0
 11
2082.518944222548
 21
1315.898498232149
 31
0.0
  0
LINE
  5
1645E
330
1624E
100
AcDbEntity
  8
SUNPOU
100
AcDbLine
 10
3682.518944222553
 20
1829.885413258398
 30
0.0
 11
3682.518944222553
 21
1315.898498232149
 31
0.0
  0
LINE
  5
1645F
330
1624E
100
AcDbEntity
  8
SUNPOU
100
AcDbLine
 10
2102.518944222548
 20
1360.898498232149
 30
0.0
 11
3662.518944222553
 21
1360.898498232149
 31
0.0
  0
LINE
  5
16460
330
1624E
100
AcDbEntity
  8
SUNPOU
100
AcDbLine
 10
4019.127507899649
 20
6803.693182432329
 30
0.0
 11
4019.127507899649
 21
6070.530812336172
 31
0.0
  0
LINE
  5
16461
330
1624E
100
AcDbEntity
  8
SUNPOU
100
AcDbLine
 10
12819.12750789964
 20
6803.693182432329
 30
0.0
 11
12819.12750789964
 21
6070.530812336172
 31
0.0
  0
LINE
  5
16462
330
1624E
100
AcDbEntity
  8
SUNPOU
100
AcDbLine
 10
4039.127507899649
 20
6115.530812336172
 30
0.0
 11
12799.12750789964
 21
6115.530812336172
 31
0.0
  0
LINE
  5
16463
330
1624E
100
AcDbEntity
  8
SUNPOU
100
AcDbLine
 10
4259.577507899649
 20
8843.69318243233
 30
0.0
 11
3524.127507899649
 21
8843.693182432332
 31
0.0
  0
LINE
  5
16464
330
1624E
100
AcDbEntity
  8
SUNPOU
100
AcDbLine
 10
3979.12750789965
 20
9083.693182432327
 30
0.0
 11
3524.127507899649
 21
9083.693182432327
 31
0.0
  0
LINE
  5
16465
330
1624E
100
AcDbEntity
  8
SUNPOU
100
AcDbLine
 10
3569.12750789965
 20
8823.693182432334
 30
0.0
 11
3569.12750789965
 21
8803.693182432333
 31
0.0
  0
LINE
  5
16466
330
1624E
100
AcDbEntity
  8
SUNPOU
100
AcDbLine
 10
3569.12750789965
 20
9103.693182432328
 30
0.0
 11
3569.12750789965
 21
9123.693182432328
 31
0.0
  0
LINE
  5
16467
330
1624E
100
AcDbEntity
  8
SUNPOU
100
AcDbLine
 10
3569.12750789965
 20
8843.693182432332
 30
0.0
 11
3569.12750789965
 21
9083.693182432327
 31
0.0
  0
LINE
  5
16468
330
1624E
100
AcDbEntity
  8
SUNPOU
100
AcDbLine
 10
3979.12750789965
 20
6843.693182432328
 30
0.0
 11
3524.127507899649
 21
6843.693182432328
 31
0.0
  0
LINE
  5
16469
330
1624E
100
AcDbEntity
  8
SUNPOU
100
AcDbLine
 10
4259.577507899649
 20
8843.69318243233
 30
0.0
 11
3524.127507899649
 21
8843.693182432332
 31
0.0
  0
LINE
  5
1646A
330
1624E
100
AcDbEntity
  8
SUNPOU
100
AcDbLine
 10
3569.127507899649
 20
6863.693182432328
 30
0.0
 11
3569.12750789965
 21
8823.693182432334
 31
0.0
  0
LINE
  5
1646B
330
1624E
100
AcDbEntity
  8
SUNPOU
100
AcDbLine
 10
12419.12750789965
 20
8036.693182432328
 30
0.0
 11
12419.12750789965
 21
6348.693182432328
 31
0.0
  0
LINE
  5
1646C
330
1624E
100
AcDbEntity
  8
SUNPOU
100
AcDbLine
 10
12819.12750789964
 20
6803.693182432329
 30
0.0
 11
12819.12750789964
 21
6348.693182432328
 31
0.0
  0
LINE
  5
1646D
330
1624E
100
AcDbEntity
  8
SUNPOU
100
AcDbLine
 10
12439.12750789965
 20
6393.693182432328
 30
0.0
 11
12799.12750789964
 21
6393.693182432328
 31
0.0
  0
LINE
  5
1646E
330
1624E
100
AcDbEntity
  8
SUNPOU
100
AcDbLine
 10
9619.127507899648
 20
8036.693182432328
 30
0.0
 11
9619.127507899648
 21
6348.693182432328
 31
0.0
  0
LINE
  5
1646F
330
1624E
100
AcDbEntity
  8
SUNPOU
100
AcDbLine
 10
12419.12750789965
 20
8036.693182432328
 30
0.0
 11
12419.12750789965
 21
6348.693182432328
 31
0.0
  0
LINE
  5
16470
330
1624E
100
AcDbEntity
  8
SUNPOU
100
AcDbLine
 10
9639.127507899651
 20
6393.693182432328
 30
0.0
 11
12399.12750789965
 21
6393.693182432328
 31
0.0
  0
LINE
  5
16471
330
1624E
100
AcDbEntity
  8
SUNPOU
100
AcDbLine
 10
7219.127507899648
 20
8036.693182432328
 30
0.0
 11
7219.127507899648
 21
6348.693182432328
 31
0.0
  0
LINE
  5
16472
330
1624E
100
AcDbEntity
  8
SUNPOU
100
AcDbLine
 10
9619.127507899648
 20
8036.693182432328
 30
0.0
 11
9619.127507899648
 21
6348.693182432328
 31
0.0
  0
LINE
  5
16473
330
1624E
100
AcDbEntity
  8
SUNPOU
100
AcDbLine
 10
7239.12750789965
 20
6393.693182432328
 30
0.0
 11
9599.127507899648
 21
6393.693182432328
 31
0.0
  0
LINE
  5
16474
330
1624E
100
AcDbEntity
  8
SUNPOU
100
AcDbLine
 10
4419.127507899649
 20
8036.693182432328
 30
0.0
 11
4419.127507899649
 21
6348.693182432328
 31
0.0
  0
LINE
  5
16475
330
1624E
100
AcDbEntity
  8
SUNPOU
100
AcDbLine
 10
7219.127507899648
 20
8036.693182432328
 30
0.0
 11
7219.127507899648
 21
6348.693182432328
 31
0.0
  0
LINE
  5
16476
330
1624E
100
AcDbEntity
  8
SUNPOU
100
AcDbLine
 10
4439.127507899648
 20
6393.693182432328
 30
0.0
 11
7199.12750789965
 21
6393.693182432328
 31
0.0
  0
LINE
  5
16477
330
1624E
100
AcDbEntity
  8
SUNPOU
100
AcDbLine
 10
4019.127507899649
 20
6803.693182432329
 30
0.0
 11
4019.127507899649
 21
6348.693182432328
 31
0.0
  0
LINE
  5
16478
330
1624E
100
AcDbEntity
  8
SUNPOU
100
AcDbLine
 10
4419.127507899649
 20
8036.693182432328
 30
0.0
 11
4419.127507899649
 21
6348.693182432328
 31
0.0
  0
LINE
  5
16479
330
1624E
100
AcDbEntity
  8
SUNPOU
100
AcDbLine
 10
4039.127507899649
 20
6393.693182432328
 30
0.0
 11
4399.127507899648
 21
6393.693182432328
 31
0.0
  0
ARC
  5
1647A
330
1624E
100
AcDbEntity
  8
SUNPOU
100
AcDbCircle
 10
13479.12750789964
 20
9143.693182432327
 30
0.0
 40
5.624999999998181
100
AcDbArc
 50
270.0
 51
90.0
  0
ARC
  5
1647B
330
1624E
100
AcDbEntity
  8
SUNPOU
100
AcDbCircle
 10
13479.12750789964
 20
9143.693182432327
 30
0.0
 40
5.624999999998181
100
AcDbArc
 50
90.0
 51
270.0
  0
ARC
  5
1647C
330
1624E
100
AcDbEntity
  8
SUNPOU
100
AcDbCircle
 10
13479.12750789964
 20
9083.693182432332
 30
0.0
 40
5.625
100
AcDbArc
 50
90.0
 51
270.0
  0
ARC
  5
1647D
330
1624E
100
AcDbEntity
  8
SUNPOU
100
AcDbCircle
 10
13479.12750789964
 20
9083.693182432332
 30
0.0
 40
5.625
100
AcDbArc
 50
270.0
 51
90.0
  0
ARC
  5
1647E
330
1624E
100
AcDbEntity
  8
SUNPOU
100
AcDbCircle
 10
13479.12750789964
 20
9083.693182432332
 30
0.0
 40
5.625
100
AcDbArc
 50
270.0
 51
90.0
  0
ARC
  5
1647F
330
1624E
100
AcDbEntity
  8
SUNPOU
100
AcDbCircle
 10
13479.12750789964
 20
9083.693182432332
 30
0.0
 40
5.625
100
AcDbArc
 50
90.0
 51
270.0
  0
ARC
  5
16480
330
1624E
100
AcDbEntity
  8
SUNPOU
100
AcDbCircle
 10
13479.12750789964
 20
8603.693182432326
 30
0.0
 40
5.625000000001817
100
AcDbArc
 50
90.0
 51
270.0
  0
ARC
  5
16481
330
1624E
100
AcDbEntity
  8
SUNPOU
100
AcDbCircle
 10
13479.12750789964
 20
8603.693182432326
 30
0.0
 40
5.625000000001817
100
AcDbArc
 50
270.0
 51
90.0
  0
ARC
  5
16482
330
1624E
100
AcDbEntity
  8
SUNPOU
100
AcDbCircle
 10
13479.12750789964
 20
8603.693182432326
 30
0.0
 40
5.625000000001817
100
AcDbArc
 50
270.0
 51
90.0
  0
ARC
  5
16483
330
1624E
100
AcDbEntity
  8
SUNPOU
100
AcDbCircle
 10
13479.12750789964
 20
8603.693182432326
 30
0.0
 40
5.625000000001817
100
AcDbArc
 50
90.0
 51
270.0
  0
ARC
  5
16484
330
1624E
100
AcDbEntity
  8
SUNPOU
100
AcDbCircle
 10
13269.12750789964
 20
9083.693182432332
 30
0.0
 40
5.625
100
AcDbArc
 50
270.0
 51
90.0
  0
ARC
  5
16485
330
1624E
100
AcDbEntity
  8
SUNPOU
100
AcDbCircle
 10
13269.12750789964
 20
9083.693182432332
 30
0.0
 40
5.625
100
AcDbArc
 50
90.0
 51
270.0
  0
ARC
  5
16486
330
1624E
100
AcDbEntity
  8
SUNPOU
100
AcDbCircle
 10
13269.12750789964
 20
8943.693182432332
 30
0.0
 40
5.624999999998181
100
AcDbArc
 50
90.0
 51
270.0
  0
ARC
  5
16487
330
1624E
100
AcDbEntity
  8
SUNPOU
100
AcDbCircle
 10
13269.12750789964
 20
8943.693182432332
 30
0.0
 40
5.624999999998181
100
AcDbArc
 50
270.0
 51
90.0
  0
ARC
  5
16488
330
1624E
100
AcDbEntity
  8
SUNPOU
100
AcDbCircle
 10
13269.12750789964
 20
8943.693182432332
 30
0.0
 40
5.624999999998181
100
AcDbArc
 50
270.0
 51
90.0
  0
ARC
  5
16489
330
1624E
100
AcDbEntity
  8
SUNPOU
100
AcDbCircle
 10
13269.12750789964
 20
8943.693182432332
 30
0.0
 40
5.624999999998181
100
AcDbArc
 50
90.0
 51
270.0
  0
ARC
  5
1648A
330
1624E
100
AcDbEntity
  8
SUNPOU
100
AcDbCircle
 10
13269.12750789964
 20
8743.69318243233
 30
0.0
 40
5.625
100
AcDbArc
 50
90.0
 51
270.0
  0
ARC
  5
1648B
330
1624E
100
AcDbEntity
  8
SUNPOU
100
AcDbCircle
 10
13269.12750789964
 20
8743.69318243233
 30
0.0
 40
5.625
100
AcDbArc
 50
270.0
 51
90.0
  0
ARC
  5
1648C
330
1624E
100
AcDbEntity
  8
SUNPOU
100
AcDbCircle
 10
13269.12750789964
 20
8743.69318243233
 30
0.0
 40
5.625
100
AcDbArc
 50
270.0
 51
90.0
  0
ARC
  5
1648D
330
1624E
100
AcDbEntity
  8
SUNPOU
100
AcDbCircle
 10
13269.12750789964
 20
8743.69318243233
 30
0.0
 40
5.625
100
AcDbArc
 50
90.0
 51
270.0
  0
ARC
  5
1648E
330
1624E
100
AcDbEntity
  8
SUNPOU
100
AcDbCircle
 10
13269.12750789964
 20
8603.693182432326
 30
0.0
 40
5.625000000001817
100
AcDbArc
 50
90.0
 51
270.0
  0
ARC
  5
1648F
330
1624E
100
AcDbEntity
  8
SUNPOU
100
AcDbCircle
 10
13269.12750789964
 20
8603.693182432326
 30
0.0
 40
5.625000000001817
100
AcDbArc
 50
270.0
 51
90.0
  0
ARC
  5
16490
330
1624E
100
AcDbEntity
  8
SUNPOU
100
AcDbCircle
 10
13479.12750789964
 20
8143.693182432331
 30
0.0
 40
5.624999999998181
100
AcDbArc
 50
90.0
 51
270.0
  0
ARC
  5
16491
330
1624E
100
AcDbEntity
  8
SUNPOU
100
AcDbCircle
 10
13479.12750789964
 20
8143.693182432331
 30
0.0
 40
5.624999999998181
100
AcDbArc
 50
270.0
 51
90.0
  0
ARC
  5
16492
330
1624E
100
AcDbEntity
  8
SUNPOU
100
AcDbCircle
 10
12819.12750789964
 20
10013.69318243232
 30
0.0
 40
5.625
100
AcDbArc
 50
180.0
 51
0.0
  0
ARC
  5
16493
330
1624E
100
AcDbEntity
  8
SUNPOU
100
AcDbCircle
 10
12819.12750789964
 20
10013.69318243232
 30
0.0
 40
5.625
100
AcDbArc
 50
0.0
 51
180.0
  0
ARC
  5
16494
330
1624E
100
AcDbEntity
  8
SUNPOU
100
AcDbCircle
 10
12019.12750789965
 20
10013.69318243232
 30
0.0
 40
5.625
100
AcDbArc
 50
0.0
 51
180.0
  0
ARC
  5
16495
330
1624E
100
AcDbEntity
  8
SUNPOU
100
AcDbCircle
 10
12019.12750789965
 20
10013.69318243232
 30
0.0
 40
5.625
100
AcDbArc
 50
180.0
 51
0.0
  0
ARC
  5
16496
330
1624E
100
AcDbEntity
  8
SUNPOU
100
AcDbCircle
 10
12819.12750789964
 20
9803.693182432327
 30
0.0
 40
5.625
100
AcDbArc
 50
180.0
 51
0.0
  0
ARC
  5
16497
330
1624E
100
AcDbEntity
  8
SUNPOU
100
AcDbCircle
 10
12819.12750789964
 20
9803.693182432327
 30
0.0
 40
5.625
100
AcDbArc
 50
0.0
 51
180.0
  0
ARC
  5
16498
330
1624E
100
AcDbEntity
  8
SUNPOU
100
AcDbCircle
 10
12659.12750789964
 20
9803.693182432327
 30
0.0
 40
5.625
100
AcDbArc
 50
0.0
 51
180.0
  0
ARC
  5
16499
330
1624E
100
AcDbEntity
  8
SUNPOU
100
AcDbCircle
 10
12659.12750789964
 20
9803.693182432327
 30
0.0
 40
5.625
100
AcDbArc
 50
180.0
 51
0.0
  0
ARC
  5
1649A
330
1624E
100
AcDbEntity
  8
SUNPOU
100
AcDbCircle
 10
12659.12750789964
 20
9803.693182432327
 30
0.0
 40
5.625
100
AcDbArc
 50
180.0
 51
0.0
  0
ARC
  5
1649B
330
1624E
100
AcDbEntity
  8
SUNPOU
100
AcDbCircle
 10
12659.12750789964
 20
9803.693182432327
 30
0.0
 40
5.625
100
AcDbArc
 50
0.0
 51
180.0
  0
ARC
  5
1649C
330
1624E
100
AcDbEntity
  8
SUNPOU
100
AcDbCircle
 10
12559.12750789965
 20
9593.693182432328
 30
0.0
 40
5.625
100
AcDbArc
 50
180.0
 51
0.0
  0
ARC
  5
1649D
330
1624E
100
AcDbEntity
  8
SUNPOU
100
AcDbCircle
 10
12559.12750789965
 20
9593.693182432328
 30
0.0
 40
5.625
100
AcDbArc
 50
0.0
 51
180.0
  0
ARC
  5
1649E
330
1624E
100
AcDbEntity
  8
SUNPOU
100
AcDbCircle
 10
12519.12750789965
 20
9383.693182432327
 30
0.0
 40
5.625
100
AcDbArc
 50
180.0
 51
0.0
  0
ARC
  5
1649F
330
1624E
100
AcDbEntity
  8
SUNPOU
100
AcDbCircle
 10
12519.12750789965
 20
9383.693182432327
 30
0.0
 40
5.625
100
AcDbArc
 50
0.0
 51
180.0
  0
ARC
  5
164A0
330
1624E
100
AcDbEntity
  8
SUNPOU
100
AcDbCircle
 10
12179.12750789965
 20
9803.693182432327
 30
0.0
 40
5.625
100
AcDbArc
 50
0.0
 51
180.0
  0
ARC
  5
164A1
330
1624E
100
AcDbEntity
  8
SUNPOU
100
AcDbCircle
 10
12179.12750789965
 20
9803.693182432327
 30
0.0
 40
5.625
100
AcDbArc
 50
180.0
 51
0.0
  0
ARC
  5
164A2
330
1624E
100
AcDbEntity
  8
SUNPOU
100
AcDbCircle
 10
12179.12750789965
 20
9803.693182432327
 30
0.0
 40
5.625
100
AcDbArc
 50
180.0
 51
0.0
  0
ARC
  5
164A3
330
1624E
100
AcDbEntity
  8
SUNPOU
100
AcDbCircle
 10
12179.12750789965
 20
9803.693182432327
 30
0.0
 40
5.625
100
AcDbArc
 50
0.0
 51
180.0
  0
ARC
  5
164A4
330
1624E
100
AcDbEntity
  8
SUNPOU
100
AcDbCircle
 10
12279.12750789965
 20
9593.693182432328
 30
0.0
 40
5.624999999998181
100
AcDbArc
 50
0.0
 51
180.0
  0
ARC
  5
164A5
330
1624E
100
AcDbEntity
  8
SUNPOU
100
AcDbCircle
 10
12279.12750789965
 20
9593.693182432328
 30
0.0
 40
5.624999999998181
100
AcDbArc
 50
180.0
 51
0.0
  0
ARC
  5
164A6
330
1624E
100
AcDbEntity
  8
SUNPOU
100
AcDbCircle
 10
12019.12750789965
 20
9803.693182432327
 30
0.0
 40
5.625
100
AcDbArc
 50
0.0
 51
180.0
  0
ARC
  5
164A7
330
1624E
100
AcDbEntity
  8
SUNPOU
100
AcDbCircle
 10
12019.12750789965
 20
9803.693182432327
 30
0.0
 40
5.625
100
AcDbArc
 50
180.0
 51
0.0
  0
ARC
  5
164A8
330
1624E
100
AcDbEntity
  8
SUNPOU
100
AcDbCircle
 10
12319.12750789965
 20
9383.693182432327
 30
0.0
 40
5.625
100
AcDbArc
 50
0.0
 51
180.0
  0
ARC
  5
164A9
330
1624E
100
AcDbEntity
  8
SUNPOU
100
AcDbCircle
 10
12319.12750789965
 20
9383.693182432327
 30
0.0
 40
5.625
100
AcDbArc
 50
180.0
 51
0.0
  0
ARC
  5
164AA
330
1624E
100
AcDbEntity
  8
SUNPOU
100
AcDbCircle
 10
11569.12750789965
 20
9143.693182432327
 30
0.0
 40
5.624999999998181
100
AcDbArc
 50
270.0
 51
90.0
  0
ARC
  5
164AB
330
1624E
100
AcDbEntity
  8
SUNPOU
100
AcDbCircle
 10
11569.12750789965
 20
9143.693182432327
 30
0.0
 40
5.624999999998181
100
AcDbArc
 50
90.0
 51
270.0
  0
ARC
  5
164AC
330
1624E
100
AcDbEntity
  8
SUNPOU
100
AcDbCircle
 10
11569.12750789965
 20
8843.69318243233
 30
0.0
 40
5.624999999998181
100
AcDbArc
 50
270.0
 51
90.0
  0
ARC
  5
164AD
330
1624E
100
AcDbEntity
  8
SUNPOU
100
AcDbCircle
 10
11569.12750789965
 20
8843.69318243233
 30
0.0
 40
5.624999999998181
100
AcDbArc
 50
90.0
 51
270.0
  0
ARC
  5
164AE
330
1624E
100
AcDbEntity
  8
SUNPOU
100
AcDbCircle
 10
11569.12750789965
 20
8843.69318243233
 30
0.0
 40
5.624999999998181
100
AcDbArc
 50
90.0
 51
270.0
  0
ARC
  5
164AF
330
1624E
100
AcDbEntity
  8
SUNPOU
100
AcDbCircle
 10
11569.12750789965
 20
8843.69318243233
 30
0.0
 40
5.624999999998181
100
AcDbArc
 50
270.0
 51
90.0
  0
ARC
  5
164B0
330
1624E
100
AcDbEntity
  8
SUNPOU
100
AcDbCircle
 10
11359.12750789965
 20
9143.693182432327
 30
0.0
 40
5.624999999998181
100
AcDbArc
 50
270.0
 51
90.0
  0
ARC
  5
164B1
330
1624E
100
AcDbEntity
  8
SUNPOU
100
AcDbCircle
 10
11359.12750789965
 20
9143.693182432327
 30
0.0
 40
5.624999999998181
100
AcDbArc
 50
90.0
 51
270.0
  0
ARC
  5
164B2
330
1624E
100
AcDbEntity
  8
SUNPOU
100
AcDbCircle
 10
11569.12750789965
 20
8143.693182432331
 30
0.0
 40
5.624999999998181
100
AcDbArc
 50
90.0
 51
270.0
  0
ARC
  5
164B3
330
1624E
100
AcDbEntity
  8
SUNPOU
100
AcDbCircle
 10
11569.12750789965
 20
8143.693182432331
 30
0.0
 40
5.624999999998181
100
AcDbArc
 50
270.0
 51
90.0
  0
ARC
  5
164B4
330
1624E
100
AcDbEntity
  8
SUNPOU
100
AcDbCircle
 10
11359.12750789965
 20
8143.693182432331
 30
0.0
 40
5.624999999998181
100
AcDbArc
 50
90.0
 51
270.0
  0
ARC
  5
164B5
330
1624E
100
AcDbEntity
  8
SUNPOU
100
AcDbCircle
 10
11359.12750789965
 20
8143.693182432331
 30
0.0
 40
5.624999999998181
100
AcDbArc
 50
270.0
 51
90.0
  0
TEXT
  5
164B6
330
1624E
100
AcDbEntity
  8
SUNPOU
100
AcDbText
 10
8356.848304711027
 20
2405.618908356613
 30
0.0
 40
90.0
  1
480
 50
90.0
 41
0.6666666666666666
  7
00
100
AcDbText
  0
LINE
  5
164B7
330
1624E
100
AcDbEntity
  8
SUNPOU
  6
ByBlock
100
AcDbLine
 10
8401.848304711029
 20
2860.333194070897
 30
0.0
 11
8401.848304711029
 21
2845.333194070898
 31
0.0
  0
LINE
  5
164B8
330
1624E
100
AcDbEntity
  8
SUNPOU
  6
ByBlock
100
AcDbLine
 10
8401.848304711029
 20
2122.333194070898
 30
0.0
 11
8401.848304711029
 21
2137.333194070897
 31
0.0
  0
TEXT
  5
164B9
330
1624E
100
AcDbEntity
  8
SUNPOU
100
AcDbText
 10
8566.848304711026
 20
2405.618908356614
 30
0.0
 40
90.0
  1
800
 50
90.0
 41
0.6666666666666666
  7
00
100
AcDbText
  0
LINE
  5
164BA
330
1624E
100
AcDbEntity
  8
SUNPOU
  6
ByBlock
100
AcDbLine
 10
8611.848304711026
 20
1866.333194070898
 30
0.0
 11
8611.848304711026
 21
1881.333194070899
 31
0.0
  0
LINE
  5
164BB
330
1624E
100
AcDbEntity
  8
SUNPOU
  6
ByBlock
100
AcDbLine
 10
8611.848304711026
 20
3116.333194070898
 30
0.0
 11
8611.848304711026
 21
3101.333194070897
 31
0.0
  0
ARC
  5
164BC
330
1624E
100
AcDbEntity
  8
SUNPOU
  6
ByBlock
100
AcDbCircle
 10
7838.982396145198
 20
3402.711278313303
 30
0.0
 40
7.5
100
AcDbArc
 50
180.0
 51
0.0
  0
ARC
  5
164BD
330
1624E
100
AcDbEntity
  8
SUNPOU
  6
ByBlock
100
AcDbCircle
 10
7838.982396145198
 20
3402.711278313303
 30
0.0
 40
7.5
100
AcDbArc
 50
0.0
 51
180.0
  0
ARC
  5
164BE
330
1624E
100
AcDbEntity
  8
SUNPOU
  6
ByBlock
100
AcDbCircle
 10
6462.982396145199
 20
3402.711278313303
 30
0.0
 40
7.5
100
AcDbArc
 50
0.0
 51
180.0
  0
ARC
  5
164BF
330
1624E
100
AcDbEntity
  8
SUNPOU
  6
ByBlock
100
AcDbCircle
 10
6462.982396145199
 20
3402.711278313303
 30
0.0
 40
7.5
100
AcDbArc
 50
180.0
 51
0.0
  0
ARC
  5
164C0
330
1624E
100
AcDbEntity
  8
SUNPOU
  6
ByBlock
100
AcDbCircle
 10
5937.721313588934
 20
1963.333194070895
 30
0.0
 40
7.5
100
AcDbArc
 50
90.0
 51
270.0
  0
ARC
  5
164C1
330
1624E
100
AcDbEntity
  8
SUNPOU
  6
ByBlock
100
AcDbCircle
 10
5937.721313588934
 20
1963.333194070895
 30
0.0
 40
7.5
100
AcDbArc
 50
270.0
 51
90.0
  0
ARC
  5
164C2
330
1624E
100
AcDbEntity
  8
SUNPOU
  6
ByBlock
100
AcDbCircle
 10
5937.721313588934
 20
3019.333194070897
 30
0.0
 40
7.5
100
AcDbArc
 50
270.0
 51
90.0
  0
ARC
  5
164C3
330
1624E
100
AcDbEntity
  8
SUNPOU
  6
ByBlock
100
AcDbCircle
 10
5937.721313588934
 20
3019.333194070897
 30
0.0
 40
7.5
100
AcDbArc
 50
90.0
 51
270.0
  0
TEXT
  5
164C4
330
1624E
100
AcDbEntity
  8
SUNPOU
100
AcDbText
 10
7385.268110430914
 20
1615.898498232149
 30
0.0
 40
90.0
  1
480
 41
0.6666666666666666
  7
00
100
AcDbText
  0
LINE
  5
164C5
330
1624E
100
AcDbEntity
  8
SUNPOU
  6
ByBlock
100
AcDbLine
 10
7101.982396145199
 20
1570.898498232149
 30
0.0
 11
7116.982396145198
 21
1570.898498232149
 31
0.0
  0
LINE
  5
164C6
330
1624E
100
AcDbEntity
  8
SUNPOU
  6
ByBlock
100
AcDbLine
 10
7839.982396145197
 20
1570.898498232149
 30
0.0
 11
7824.982396145198
 21
1570.898498232149
 31
0.0
  0
TEXT
  5
164C7
330
1624E
100
AcDbEntity
  8
SUNPOU
100
AcDbText
 10
7032.410967573771
 20
1405.898498232149
 30
0.0
 40
90.0
  1
1000
 41
0.6666666666666666
  7
00
100
AcDbText
  0
LINE
  5
164C8
330
1624E
100
AcDbEntity
  8
SUNPOU
  6
ByBlock
100
AcDbLine
 10
7935.982396145198
 20
1360.898498232149
 30
0.0
 11
7920.982396145197
 21
1360.898498232149
 31
0.0
  0
LINE
  5
164C9
330
1624E
100
AcDbEntity
  8
SUNPOU
  6
ByBlock
100
AcDbLine
 10
6365.9823961452
 20
1360.898498232149
 30
0.0
 11
6380.982396145197
 21
1360.898498232149
 31
0.0
  0
TEXT
  5
164CA
330
1624E
100
AcDbEntity
  8
SUNPOU
100
AcDbText
 10
3116.80465850826
 20
3665.351685441335
 30
0.0
 40
90.0
  1
480
 41
0.6666666666666666
  7
00
100
AcDbText
  0
LINE
  5
164CB
330
1624E
100
AcDbEntity
  8
SUNPOU
  6
ByBlock
100
AcDbLine
 10
3571.518944222546
 20
3620.351685441334
 30
0.0
 11
3556.518944222545
 21
3620.351685441334
 31
0.0
  0
LINE
  5
164CC
330
1624E
100
AcDbEntity
  8
SUNPOU
  6
ByBlock
100
AcDbLine
 10
2833.518944222546
 20
3620.351685441334
 30
0.0
 11
2848.518944222546
 21
3620.351685441334
 31
0.0
  0
TEXT
  5
164CD
330
1624E
100
AcDbEntity
  8
SUNPOU
100
AcDbText
 10
4279.096926062877
 20
3165.742556115545
 30
0.0
 40
90.0
  1
150
 50
90.0
 41
0.6666666666666666
  7
00
100
AcDbText
  0
LINE
  5
164CE
330
1624E
100
AcDbEntity
  8
SUNPOU
  6
ByBlock
100
AcDbLine
 10
4324.096926062877
 20
3102.885413258399
 30
0.0
 11
4324.096926062877
 21
3087.885413258399
 31
0.0
  0
LINE
  5
164CF
330
1624E
100
AcDbEntity
  8
SUNPOU
  6
ByBlock
100
AcDbLine
 10
4324.096926062877
 20
2892.885413258397
 30
0.0
 11
4324.096926062877
 21
2907.885413258397
 31
0.0
  0
LINE
  5
164D0
330
1624E
100
AcDbEntity
  8
SUNPOU
  6
ByBlock
100
AcDbLine
 10
4324.096926062877
 20
2124.885413258397
 30
0.0
 11
4324.096926062877
 21
2139.885413258399
 31
0.0
  0
LINE
  5
164D1
330
1624E
100
AcDbEntity
  8
SUNPOU
  6
ByBlock
100
AcDbLine
 10
4324.096926062876
 20
2014.885413258399
 30
0.0
 11
4324.096926062876
 21
1999.885413258398
 31
0.0
  0
TEXT
  5
164D2
330
1624E
100
AcDbEntity
  8
SUNPOU
100
AcDbText
 10
4496.720090518002
 20
2016.742556115541
 30
0.0
 40
90.0
  1
50
 50
90.0
 41
0.6666666666666666
  7
00
100
AcDbText
  0
TEXT
  5
164D3
330
1624E
100
AcDbEntity
  8
SUNPOU
100
AcDbText
 10
4279.096926062877
 20
1642.028270401256
 30
0.0
 40
90.0
  1
100
 50
90.0
 41
0.6666666666666666
  7
00
100
AcDbText
  0
LINE
  5
164D4
330
1624E
100
AcDbEntity
  8
SUNPOU
  6
ByBlock
100
AcDbLine
 10
4324.096926062877
 20
1884.885413258398
 30
0.0
 11
4324.096926062877
 21
1899.885413258398
 31
0.0
  0
LINE
  5
164D5
330
1624E
100
AcDbEntity
  8
SUNPOU
  6
ByBlock
100
AcDbLine
 10
4324.096926062877
 20
2014.885413258399
 30
0.0
 11
4324.096926062877
 21
1999.885413258398
 31
0.0
  0
TEXT
  5
164D6
330
1624E
100
AcDbEntity
  8
SUNPOU
100
AcDbText
 10
4279.096926062876
 20
2408.171127544113
 30
0.0
 40
90.0
  1
480
 50
90.0
 41
0.6666666666666666
  7
00
100
AcDbText
  0
LINE
  5
164D7
330
1624E
100
AcDbEntity
  8
SUNPOU
  6
ByBlock
100
AcDbLine
 10
4324.096926062877
 20
2124.885413258397
 30
0.0
 11
4324.096926062877
 21
2139.885413258399
 31
0.0
  0
LINE
  5
164D8
330
1624E
100
AcDbEntity
  8
SUNPOU
  6
ByBlock
100
AcDbLine
 10
4324.096926062877
 20
2862.885413258397
 30
0.0
 11
4324.096926062877
 21
2847.885413258397
 31
0.0
  0
TEXT
  5
164D9
330
1624E
100
AcDbEntity
  8
SUNPOU
100
AcDbText
 10
3356.804658508266
 20
1615.898498232149
 30
0.0
 40
90.0
  1
300
 41
0.6666666666666666
  7
00
100
AcDbText
  0
LINE
  5
164DA
330
1624E
100
AcDbEntity
  8
SUNPOU
  6
ByBlock
100
AcDbLine
 10
3667.518944222553
 20
1570.898498232149
 30
0.0
 11
3652.518944222553
 21
1570.898498232149
 31
0.0
  0
LINE
  5
164DB
330
1624E
100
AcDbEntity
  8
SUNPOU
  6
ByBlock
100
AcDbLine
 10
3217.51894422255
 20
1570.898498232149
 30
0.0
 11
3232.51894422255
 21
1570.898498232149
 31
0.0
  0
TEXT
  5
164DC
330
1624E
100
AcDbEntity
  8
SUNPOU
100
AcDbText
 10
2556.804658508263
 20
1615.898498232149
 30
0.0
 40
90.0
  1
700
 41
0.6666666666666666
  7
00
100
AcDbText
  0
LINE
  5
164DD
330
1624E
100
AcDbEntity
  8
SUNPOU
  6
ByBlock
100
AcDbLine
 10
3187.51894422255
 20
1570.898498232149
 30
0.0
 11
3172.518944222549
 21
1570.898498232149
 31
0.0
  0
LINE
  5
164DE
330
1624E
100
AcDbEntity
  8
SUNPOU
  6
ByBlock
100
AcDbLine
 10
2097.518944222549
 20
1570.898498232149
 30
0.0
 11
2112.518944222548
 21
1570.898498232149
 31
0.0
  0
TEXT
  5
164DF
330
1624E
100
AcDbEntity
  8
SUNPOU
100
AcDbText
 10
2763.947515651121
 20
1405.898498232149
 30
0.0
 40
90.0
  1
1000
 41
0.6666666666666666
  7
00
100
AcDbText
  0
LINE
  5
164E0
330
1624E
100
AcDbEntity
  8
SUNPOU
  6
ByBlock
100
AcDbLine
 10
3667.518944222553
 20
1360.898498232149
 30
0.0
 11
3652.518944222553
 21
1360.898498232149
 31
0.0
  0
LINE
  5
164E1
330
1624E
100
AcDbEntity
  8
SUNPOU
  6
ByBlock
100
AcDbLine
 10
2097.518944222549
 20
1360.898498232149
 30
0.0
 11
2112.518944222548
 21
1360.898498232149
 31
0.0
  0
TEXT
  5
164E2
330
1624E
100
AcDbEntity
  8
SUNPOU
100
AcDbText
 10
7955.413222185358
 20
6160.530812336173
 30
0.0
 40
90.0
  1
L = 2800 x N + 800
 41
0.6666666666666666
  7
00
100
AcDbText
  0
LINE
  5
164E3
330
1624E
100
AcDbEntity
  8
SUNPOU
  6
ByBlock
100
AcDbLine
 10
12804.12750789964
 20
6115.530812336172
 30
0.0
 11
12789.12750789964
 21
6115.530812336172
 31
0.0
  0
LINE
  5
164E4
330
1624E
100
AcDbEntity
  8
SUNPOU
  6
ByBlock
100
AcDbLine
 10
4034.12750789965
 20
6115.530812336172
 30
0.0
 11
4049.127507899649
 21
6115.530812336172
 31
0.0
  0
TEXT
  5
164E5
330
1624E
100
AcDbEntity
  8
SUNPOU
100
AcDbText
 10
3524.127507899648
 20
8877.978896718046
 30
0.0
 40
90.0
  1
240
 50
90.0
 41
0.6666666666666666
  7
00
100
AcDbText
  0
LINE
  5
164E6
330
1624E
100
AcDbEntity
  8
SUNPOU
  6
ByBlock
100
AcDbLine
 10
3569.12750789965
 20
9098.693182432327
 30
0.0
 11
3569.12750789965
 21
9113.693182432324
 31
0.0
  0
LINE
  5
164E7
330
1624E
100
AcDbEntity
  8
SUNPOU
  6
ByBlock
100
AcDbLine
 10
3569.12750789965
 20
8828.693182432333
 30
0.0
 11
3569.12750789965
 21
8813.693182432333
 31
0.0
  0
TEXT
  5
164E8
330
1624E
100
AcDbEntity
  8
SUNPOU
100
AcDbText
 10
3524.127507899648
 20
7729.407468146617
 30
0.0
 40
90.0
  1
2000
 50
90.0
 41
0.6666666666666666
  7
00
100
AcDbText
  0
LINE
  5
164E9
330
1624E
100
AcDbEntity
  8
SUNPOU
  6
ByBlock
100
AcDbLine
 10
3569.12750789965
 20
8828.693182432333
 30
0.0
 11
3569.12750789965
 21
8813.693182432333
 31
0.0
  0
LINE
  5
164EA
330
1624E
100
AcDbEntity
  8
SUNPOU
  6
ByBlock
100
AcDbLine
 10
3569.127507899649
 20
6858.693182432329
 30
0.0
 11
3569.127507899649
 21
6873.693182432328
 31
0.0
  0
TEXT
  5
164EB
330
1624E
100
AcDbEntity
  8
SUNPOU
100
AcDbText
 10
12533.41322218536
 20
6438.693182432328
 30
0.0
 40
90.0
  1
400
 41
0.6666666666666666
  7
00
100
AcDbText
  0
LINE
  5
164EC
330
1624E
100
AcDbEntity
  8
SUNPOU
  6
ByBlock
100
AcDbLine
 10
12804.12750789964
 20
6393.693182432328
 30
0.0
 11
12789.12750789964
 21
6393.693182432328
 31
0.0
  0
LINE
  5
164ED
330
1624E
100
AcDbEntity
  8
SUNPOU
  6
ByBlock
100
AcDbLine
 10
12434.12750789965
 20
6393.693182432328
 30
0.0
 11
12449.12750789965
 21
6393.693182432328
 31
0.0
  0
TEXT
  5
164EE
330
1624E
100
AcDbEntity
  8
SUNPOU
100
AcDbText
 10
10904.84179361393
 20
6438.693182432328
 30
0.0
 40
90.0
  1
2800
 41
0.6666666666666666
  7
00
100
AcDbText
  0
LINE
  5
164EF
330
1624E
100
AcDbEntity
  8
SUNPOU
  6
ByBlock
100
AcDbLine
 10
12404.12750789965
 20
6393.693182432328
 30
0.0
 11
12389.12750789965
 21
6393.693182432328
 31
0.0
  0
LINE
  5
164F0
330
1624E
100
AcDbEntity
  8
SUNPOU
  6
ByBlock
100
AcDbLine
 10
9634.127507899648
 20
6393.693182432328
 30
0.0
 11
9649.127507899649
 21
6393.693182432328
 31
0.0
  0
TEXT
  5
164F1
330
1624E
100
AcDbEntity
  8
SUNPOU
100
AcDbText
 10
8029.413222185366
 20
6438.693182432328
 30
0.0
 40
90.0
  1
2800 ×（ N - 2 ）
 41
0.6666666666666666
  7
00
100
AcDbText
  0
LINE
  5
164F2
330
1624E
100
AcDbEntity
  8
SUNPOU
  6
ByBlock
100
AcDbLine
 10
9604.127507899647
 20
6393.693182432328
 30
0.0
 11
9589.127507899648
 21
6393.693182432328
 31
0.0
  0
LINE
  5
164F3
330
1624E
100
AcDbEntity
  8
SUNPOU
  6
ByBlock
100
AcDbLine
 10
7234.12750789965
 20
6393.693182432328
 30
0.0
 11
7249.127507899649
 21
6393.693182432328
 31
0.0
  0
TEXT
  5
164F4
330
1624E
100
AcDbEntity
  8
SUNPOU
100
AcDbText
 10
5704.841793613936
 20
6438.693182432328
 30
0.0
 40
90.0
  1
2800
 41
0.6666666666666666
  7
00
100
AcDbText
  0
LINE
  5
164F5
330
1624E
100
AcDbEntity
  8
SUNPOU
  6
ByBlock
100
AcDbLine
 10
7204.127507899649
 20
6393.693182432328
 30
0.0
 11
7189.12750789965
 21
6393.693182432328
 31
0.0
  0
LINE
  5
164F6
330
1624E
100
AcDbEntity
  8
SUNPOU
  6
ByBlock
100
AcDbLine
 10
4434.127507899648
 20
6393.693182432328
 30
0.0
 11
4449.127507899649
 21
6393.693182432328
 31
0.0
  0
TEXT
  5
164F7
330
1624E
100
AcDbEntity
  8
SUNPOU
100
AcDbText
 10
4133.413222185363
 20
6438.693182432328
 30
0.0
 40
90.0
  1
400
 41
0.6666666666666666
  7
00
100
AcDbText
  0
LINE
  5
164F8
330
1624E
100
AcDbEntity
  8
SUNPOU
  6
ByBlock
100
AcDbLine
 10
4404.12750789965
 20
6393.693182432328
 30
0.0
 11
4389.127507899648
 21
6393.693182432328
 31
0.0
  0
LINE
  5
164F9
330
1624E
100
AcDbEntity
  8
SUNPOU
  6
ByBlock
100
AcDbLine
 10
4034.12750789965
 20
6393.693182432328
 30
0.0
 11
4049.127507899649
 21
6393.693182432328
 31
0.0
  0
ARC
  5
164FA
330
1624E
100
AcDbEntity
  8
SUNPOU
  6
ByBlock
100
AcDbCircle
 10
8401.848304711029
 20
2875.333194070897
 30
0.0
 40
7.5
100
AcDbArc
 50
270.0
 51
90.0
  0
ARC
  5
164FB
330
1624E
100
AcDbEntity
  8
SUNPOU
  6
ByBlock
100
AcDbCircle
 10
8401.848304711029
 20
2875.333194070897
 30
0.0
 40
7.5
100
AcDbArc
 50
90.0
 51
270.0
  0
ARC
  5
164FC
330
1624E
100
AcDbEntity
  8
SUNPOU
  6
ByBlock
100
AcDbCircle
 10
8401.848304711029
 20
2107.333194070898
 30
0.0
 40
7.5
100
AcDbArc
 50
90.0
 51
270.0
  0
ARC
  5
164FD
330
1624E
100
AcDbEntity
  8
SUNPOU
  6
ByBlock
100
AcDbCircle
 10
8401.848304711029
 20
2107.333194070898
 30
0.0
 40
7.5
100
AcDbArc
 50
270.0
 51
90.0
  0
ARC
  5
164FE
330
1624E
100
AcDbEntity
  8
SUNPOU
  6
ByBlock
100
AcDbCircle
 10
8611.848304711026
 20
1851.333194070899
 30
0.0
 40
7.5
100
AcDbArc
 50
90.0
 51
270.0
  0
ARC
  5
164FF
330
1624E
100
AcDbEntity
  8
SUNPOU
  6
ByBlock
100
AcDbCircle
 10
8611.848304711026
 20
1851.333194070899
 30
0.0
 40
7.5
100
AcDbArc
 50
270.0
 51
90.0
  0
ARC
  5
16500
330
1624E
100
AcDbEntity
  8
SUNPOU
  6
ByBlock
100
AcDbCircle
 10
8611.848304711026
 20
3131.333194070897
 30
0.0
 40
7.5
100
AcDbArc
 50
270.0
 51
90.0
  0
ARC
  5
16501
330
1624E
100
AcDbEntity
  8
SUNPOU
  6
ByBlock
100
AcDbCircle
 10
8611.848304711026
 20
3131.333194070897
 30
0.0
 40
7.5
100
AcDbArc
 50
90.0
 51
270.0
  0
ARC
  5
16502
330
1624E
100
AcDbEntity
  8
SUNPOU
  6
ByBlock
100
AcDbCircle
 10
7086.9823961452
 20
1570.898498232149
 30
0.0
 40
7.5
100
AcDbArc
 50
0.0
 51
180.0
  0
ARC
  5
16503
330
1624E
100
AcDbEntity
  8
SUNPOU
  6
ByBlock
100
AcDbCircle
 10
7086.9823961452
 20
1570.898498232149
 30
0.0
 40
7.5
100
AcDbArc
 50
180.0
 51
0.0
  0
ARC
  5
16504
330
1624E
100
AcDbEntity
  8
SUNPOU
  6
ByBlock
100
AcDbCircle
 10
7854.982396145198
 20
1570.898498232149
 30
0.0
 40
7.5
100
AcDbArc
 50
180.0
 51
0.0
  0
ARC
  5
16505
330
1624E
100
AcDbEntity
  8
SUNPOU
  6
ByBlock
100
AcDbCircle
 10
7854.982396145198
 20
1570.898498232149
 30
0.0
 40
7.5
100
AcDbArc
 50
0.0
 51
180.0
  0
ARC
  5
16506
330
1624E
100
AcDbEntity
  8
SUNPOU
  6
ByBlock
100
AcDbCircle
 10
7950.982396145197
 20
1360.898498232149
 30
0.0
 40
7.5
100
AcDbArc
 50
180.0
 51
0.0
  0
ARC
  5
16507
330
1624E
100
AcDbEntity
  8
SUNPOU
  6
ByBlock
100
AcDbCircle
 10
7950.982396145197
 20
1360.898498232149
 30
0.0
 40
7.5
100
AcDbArc
 50
0.0
 51
180.0
  0
ARC
  5
16508
330
1624E
100
AcDbEntity
  8
SUNPOU
  6
ByBlock
100
AcDbCircle
 10
6350.982396145198
 20
1360.898498232149
 30
0.0
 40
7.5
100
AcDbArc
 50
0.0
 51
180.0
  0
ARC
  5
16509
330
1624E
100
AcDbEntity
  8
SUNPOU
  6
ByBlock
100
AcDbCircle
 10
6350.982396145198
 20
1360.898498232149
 30
0.0
 40
7.5
100
AcDbArc
 50
180.0
 51
0.0
  0
ARC
  5
1650A
330
1624E
100
AcDbEntity
  8
SUNPOU
  6
ByBlock
100
AcDbCircle
 10
3586.518944222546
 20
3620.351685441334
 30
0.0
 40
7.5
100
AcDbArc
 50
180.0
 51
0.0
  0
ARC
  5
1650B
330
1624E
100
AcDbEntity
  8
SUNPOU
  6
ByBlock
100
AcDbCircle
 10
3586.518944222546
 20
3620.351685441334
 30
0.0
 40
7.5
100
AcDbArc
 50
0.0
 51
180.0
  0
ARC
  5
1650C
330
1624E
100
AcDbEntity
  8
SUNPOU
  6
ByBlock
100
AcDbCircle
 10
2818.518944222546
 20
3620.351685441334
 30
0.0
 40
7.5
100
AcDbArc
 50
0.0
 51
180.0
  0
ARC
  5
1650D
330
1624E
100
AcDbEntity
  8
SUNPOU
  6
ByBlock
100
AcDbCircle
 10
2818.518944222546
 20
3620.351685441334
 30
0.0
 40
7.5
100
AcDbArc
 50
180.0
 51
0.0
  0
ARC
  5
1650E
330
1624E
100
AcDbEntity
  8
SUNPOU
  6
ByBlock
100
AcDbCircle
 10
4324.096926062877
 20
3117.885413258397
 30
0.0
 40
7.5
100
AcDbArc
 50
270.0
 51
90.0
  0
ARC
  5
1650F
330
1624E
100
AcDbEntity
  8
SUNPOU
  6
ByBlock
100
AcDbCircle
 10
4324.096926062877
 20
3117.885413258397
 30
0.0
 40
7.5
100
AcDbArc
 50
90.0
 51
270.0
  0
ARC
  5
16510
330
1624E
100
AcDbEntity
  8
SUNPOU
  6
ByBlock
100
AcDbCircle
 10
4324.096926062877
 20
2877.885413258399
 30
0.0
 40
7.5
100
AcDbArc
 50
90.0
 51
270.0
  0
ARC
  5
16511
330
1624E
100
AcDbEntity
  8
SUNPOU
  6
ByBlock
100
AcDbCircle
 10
4324.096926062877
 20
2877.885413258399
 30
0.0
 40
7.5
100
AcDbArc
 50
270.0
 51
90.0
  0
ARC
  5
16512
330
1624E
100
AcDbEntity
  8
SUNPOU
  6
ByBlock
100
AcDbCircle
 10
4324.096926062877
 20
2109.885413258397
 30
0.0
 40
7.5
100
AcDbArc
 50
90.0
 51
270.0
  0
ARC
  5
16513
330
1624E
100
AcDbEntity
  8
SUNPOU
  6
ByBlock
100
AcDbCircle
 10
4324.096926062877
 20
2109.885413258397
 30
0.0
 40
7.5
100
AcDbArc
 50
270.0
 51
90.0
  0
ARC
  5
16514
330
1624E
100
AcDbEntity
  8
SUNPOU
  6
ByBlock
100
AcDbCircle
 10
4324.096926062876
 20
2029.885413258397
 30
0.0
 40
7.5
100
AcDbArc
 50
270.0
 51
90.0
  0
ARC
  5
16515
330
1624E
100
AcDbEntity
  8
SUNPOU
  6
ByBlock
100
AcDbCircle
 10
4324.096926062876
 20
2029.885413258397
 30
0.0
 40
7.5
100
AcDbArc
 50
90.0
 51
270.0
  0
ARC
  5
16516
330
1624E
100
AcDbEntity
  8
SUNPOU
  6
ByBlock
100
AcDbCircle
 10
4324.096926062877
 20
1869.885413258398
 30
0.0
 40
7.5
100
AcDbArc
 50
90.0
 51
270.0
  0
ARC
  5
16517
330
1624E
100
AcDbEntity
  8
SUNPOU
  6
ByBlock
100
AcDbCircle
 10
4324.096926062877
 20
1869.885413258398
 30
0.0
 40
7.5
100
AcDbArc
 50
270.0
 51
90.0
  0
ARC
  5
16518
330
1624E
100
AcDbEntity
  8
SUNPOU
  6
ByBlock
100
AcDbCircle
 10
4324.096926062877
 20
2029.885413258397
 30
0.0
 40
7.5
100
AcDbArc
 50
270.0
 51
90.0
  0
ARC
  5
16519
330
1624E
100
AcDbEntity
  8
SUNPOU
  6
ByBlock
100
AcDbCircle
 10
4324.096926062877
 20
2029.885413258397
 30
0.0
 40
7.5
100
AcDbArc
 50
90.0
 51
270.0
  0
ARC
  5
1651A
330
1624E
100
AcDbEntity
  8
SUNPOU
  6
ByBlock
100
AcDbCircle
 10
4324.096926062877
 20
2109.885413258397
 30
0.0
 40
7.5
100
AcDbArc
 50
90.0
 51
270.0
  0
ARC
  5
1651B
330
1624E
100
AcDbEntity
  8
SUNPOU
  6
ByBlock
100
AcDbCircle
 10
4324.096926062877
 20
2109.885413258397
 30
0.0
 40
7.5
100
AcDbArc
 50
270.0
 51
90.0
  0
ARC
  5
1651C
330
1624E
100
AcDbEntity
  8
SUNPOU
  6
ByBlock
100
AcDbCircle
 10
4324.096926062877
 20
2877.885413258399
 30
0.0
 40
7.5
100
AcDbArc
 50
270.0
 51
90.0
  0
ARC
  5
1651D
330
1624E
100
AcDbEntity
  8
SUNPOU
  6
ByBlock
100
AcDbCircle
 10
4324.096926062877
 20
2877.885413258399
 30
0.0
 40
7.5
100
AcDbArc
 50
90.0
 51
270.0
  0
ARC
  5
1651E
330
1624E
100
AcDbEntity
  8
SUNPOU
  6
ByBlock
100
AcDbCircle
 10
3682.518944222553
 20
1570.898498232149
 30
0.0
 40
7.5
100
AcDbArc
 50
180.0
 51
0.0
  0
ARC
  5
1651F
330
1624E
100
AcDbEntity
  8
SUNPOU
  6
ByBlock
100
AcDbCircle
 10
3682.518944222553
 20
1570.898498232149
 30
0.0
 40
7.5
100
AcDbArc
 50
0.0
 51
180.0
  0
ARC
  5
16520
330
1624E
100
AcDbEntity
  8
SUNPOU
  6
ByBlock
100
AcDbCircle
 10
3202.518944222549
 20
1570.898498232149
 30
0.0
 40
7.5
100
AcDbArc
 50
0.0
 51
180.0
  0
ARC
  5
16521
330
1624E
100
AcDbEntity
  8
SUNPOU
  6
ByBlock
100
AcDbCircle
 10
3202.518944222549
 20
1570.898498232149
 30
0.0
 40
7.5
100
AcDbArc
 50
180.0
 51
0.0
  0
ARC
  5
16522
330
1624E
100
AcDbEntity
  8
SUNPOU
  6
ByBlock
100
AcDbCircle
 10
3202.518944222549
 20
1570.898498232149
 30
0.0
 40
7.5
100
AcDbArc
 50
180.0
 51
0.0
  0
ARC
  5
16523
330
1624E
100
AcDbEntity
  8
SUNPOU
  6
ByBlock
100
AcDbCircle
 10
3202.518944222549
 20
1570.898498232149
 30
0.0
 40
7.5
100
AcDbArc
 50
0.0
 51
180.0
  0
ARC
  5
16524
330
1624E
100
AcDbEntity
  8
SUNPOU
  6
ByBlock
100
AcDbCircle
 10
2082.518944222548
 20
1570.898498232149
 30
0.0
 40
7.5
100
AcDbArc
 50
0.0
 51
180.0
  0
ARC
  5
16525
330
1624E
100
AcDbEntity
  8
SUNPOU
  6
ByBlock
100
AcDbCircle
 10
2082.518944222548
 20
1570.898498232149
 30
0.0
 40
7.5
100
AcDbArc
 50
180.0
 51
0.0
  0
ARC
  5
16526
330
1624E
100
AcDbEntity
  8
SUNPOU
  6
ByBlock
100
AcDbCircle
 10
3682.518944222553
 20
1360.898498232149
 30
0.0
 40
7.5
100
AcDbArc
 50
180.0
 51
0.0
  0
ARC
  5
16527
330
1624E
100
AcDbEntity
  8
SUNPOU
  6
ByBlock
100
AcDbCircle
 10
3682.518944222553
 20
1360.898498232149
 30
0.0
 40
7.5
100
AcDbArc
 50
0.0
 51
180.0
  0
ARC
  5
16528
330
1624E
100
AcDbEntity
  8
SUNPOU
  6
ByBlock
100
AcDbCircle
 10
2082.518944222548
 20
1360.898498232149
 30
0.0
 40
7.5
100
AcDbArc
 50
0.0
 51
180.0
  0
ARC
  5
16529
330
1624E
100
AcDbEntity
  8
SUNPOU
  6
ByBlock
100
AcDbCircle
 10
2082.518944222548
 20
1360.898498232149
 30
0.0
 40
7.5
100
AcDbArc
 50
180.0
 51
0.0
  0
ARC
  5
1652A
330
1624E
100
AcDbEntity
  8
SUNPOU
  6
ByBlock
100
AcDbCircle
 10
12819.12750789964
 20
6115.530812336172
 30
0.0
 40
7.5
100
AcDbArc
 50
180.0
 51
0.0
  0
ARC
  5
1652B
330
1624E
100
AcDbEntity
  8
SUNPOU
  6
ByBlock
100
AcDbCircle
 10
12819.12750789964
 20
6115.530812336172
 30
0.0
 40
7.5
100
AcDbArc
 50
0.0
 51
180.0
  0
ARC
  5
1652C
330
1624E
100
AcDbEntity
  8
SUNPOU
  6
ByBlock
100
AcDbCircle
 10
4019.127507899649
 20
6115.530812336172
 30
0.0
 40
7.5
100
AcDbArc
 50
0.0
 51
180.0
  0
ARC
  5
1652D
330
1624E
100
AcDbEntity
  8
SUNPOU
  6
ByBlock
100
AcDbCircle
 10
4019.127507899649
 20
6115.530812336172
 30
0.0
 40
7.5
100
AcDbArc
 50
180.0
 51
0.0
  0
ARC
  5
1652E
330
1624E
100
AcDbEntity
  8
SUNPOU
  6
ByBlock
100
AcDbCircle
 10
3569.12750789965
 20
9083.693182432327
 30
0.0
 40
7.5
100
AcDbArc
 50
90.0
 51
270.0
  0
ARC
  5
1652F
330
1624E
100
AcDbEntity
  8
SUNPOU
  6
ByBlock
100
AcDbCircle
 10
3569.12750789965
 20
9083.693182432327
 30
0.0
 40
7.5
100
AcDbArc
 50
270.0
 51
90.0
  0
ARC
  5
16530
330
1624E
100
AcDbEntity
  8
SUNPOU
  6
ByBlock
100
AcDbCircle
 10
3569.12750789965
 20
8843.693182432332
 30
0.0
 40
7.5
100
AcDbArc
 50
270.0
 51
90.0
  0
ARC
  5
16531
330
1624E
100
AcDbEntity
  8
SUNPOU
  6
ByBlock
100
AcDbCircle
 10
3569.12750789965
 20
8843.693182432332
 30
0.0
 40
7.5
100
AcDbArc
 50
90.0
 51
270.0
  0
ARC
  5
16532
330
1624E
100
AcDbEntity
  8
SUNPOU
  6
ByBlock
100
AcDbCircle
 10
3569.12750789965
 20
8843.693182432332
 30
0.0
 40
7.5
100
AcDbArc
 50
270.0
 51
90.0
  0
ARC
  5
16533
330
1624E
100
AcDbEntity
  8
SUNPOU
  6
ByBlock
100
AcDbCircle
 10
3569.12750789965
 20
8843.693182432332
 30
0.0
 40
7.5
100
AcDbArc
 50
90.0
 51
270.0
  0
ARC
  5
16534
330
1624E
100
AcDbEntity
  8
SUNPOU
  6
ByBlock
100
AcDbCircle
 10
3569.127507899649
 20
6843.693182432328
 30
0.0
 40
7.5
100
AcDbArc
 50
90.0
 51
270.0
  0
ARC
  5
16535
330
1624E
100
AcDbEntity
  8
SUNPOU
  6
ByBlock
100
AcDbCircle
 10
3569.127507899649
 20
6843.693182432328
 30
0.0
 40
7.5
100
AcDbArc
 50
270.0
 51
90.0
  0
ARC
  5
16536
330
1624E
100
AcDbEntity
  8
SUNPOU
  6
ByBlock
100
AcDbCircle
 10
12819.12750789964
 20
6393.693182432328
 30
0.0
 40
7.5
100
AcDbArc
 50
180.0
 51
0.0
  0
ARC
  5
16537
330
1624E
100
AcDbEntity
  8
SUNPOU
  6
ByBlock
100
AcDbCircle
 10
12819.12750789964
 20
6393.693182432328
 30
0.0
 40
7.5
100
AcDbArc
 50
0.0
 51
180.0
  0
ARC
  5
16538
330
1624E
100
AcDbEntity
  8
SUNPOU
  6
ByBlock
100
AcDbCircle
 10
12419.12750789965
 20
6393.693182432328
 30
0.0
 40
7.5
100
AcDbArc
 50
0.0
 51
180.0
  0
ARC
  5
16539
330
1624E
100
AcDbEntity
  8
SUNPOU
  6
ByBlock
100
AcDbCircle
 10
12419.12750789965
 20
6393.693182432328
 30
0.0
 40
7.5
100
AcDbArc
 50
180.0
 51
0.0
  0
ARC
  5
1653A
330
1624E
100
AcDbEntity
  8
SUNPOU
  6
ByBlock
100
AcDbCircle
 10
12419.12750789965
 20
6393.693182432328
 30
0.0
 40
7.5
100
AcDbArc
 50
180.0
 51
0.0
  0
ARC
  5
1653B
330
1624E
100
AcDbEntity
  8
SUNPOU
  6
ByBlock
100
AcDbCircle
 10
12419.12750789965
 20
6393.693182432328
 30
0.0
 40
7.5
100
AcDbArc
 50
0.0
 51
180.0
  0
ARC
  5
1653C
330
1624E
100
AcDbEntity
  8
SUNPOU
  6
ByBlock
100
AcDbCircle
 10
9619.127507899648
 20
6393.693182432328
 30
0.0
 40
7.5
100
AcDbArc
 50
0.0
 51
180.0
  0
ARC
  5
1653D
330
1624E
100
AcDbEntity
  8
SUNPOU
  6
ByBlock
100
AcDbCircle
 10
9619.127507899648
 20
6393.693182432328
 30
0.0
 40
7.5
100
AcDbArc
 50
180.0
 51
0.0
  0
ARC
  5
1653E
330
1624E
100
AcDbEntity
  8
SUNPOU
  6
ByBlock
100
AcDbCircle
 10
9619.127507899648
 20
6393.693182432328
 30
0.0
 40
7.5
100
AcDbArc
 50
180.0
 51
0.0
  0
ARC
  5
1653F
330
1624E
100
AcDbEntity
  8
SUNPOU
  6
ByBlock
100
AcDbCircle
 10
9619.127507899648
 20
6393.693182432328
 30
0.0
 40
7.5
100
AcDbArc
 50
0.0
 51
180.0
  0
ARC
  5
16540
330
1624E
100
AcDbEntity
  8
SUNPOU
  6
ByBlock
100
AcDbCircle
 10
7219.127507899648
 20
6393.693182432328
 30
0.0
 40
7.5
100
AcDbArc
 50
0.0
 51
180.0
  0
ARC
  5
16541
330
1624E
100
AcDbEntity
  8
SUNPOU
  6
ByBlock
100
AcDbCircle
 10
7219.127507899648
 20
6393.693182432328
 30
0.0
 40
7.5
100
AcDbArc
 50
180.0
 51
0.0
  0
ARC
  5
16542
330
1624E
100
AcDbEntity
  8
SUNPOU
  6
ByBlock
100
AcDbCircle
 10
7219.127507899648
 20
6393.693182432328
 30
0.0
 40
7.5
100
AcDbArc
 50
180.0
 51
0.0
  0
ARC
  5
16543
330
1624E
100
AcDbEntity
  8
SUNPOU
  6
ByBlock
100
AcDbCircle
 10
7219.127507899648
 20
6393.693182432328
 30
0.0
 40
7.5
100
AcDbArc
 50
0.0
 51
180.0
  0
ARC
  5
16544
330
1624E
100
AcDbEntity
  8
SUNPOU
  6
ByBlock
100
AcDbCircle
 10
4419.127507899649
 20
6393.693182432328
 30
0.0
 40
7.5
100
AcDbArc
 50
0.0
 51
180.0
  0
ARC
  5
16545
330
1624E
100
AcDbEntity
  8
SUNPOU
  6
ByBlock
100
AcDbCircle
 10
4419.127507899649
 20
6393.693182432328
 30
0.0
 40
7.5
100
AcDbArc
 50
180.0
 51
0.0
  0
ARC
  5
16546
330
1624E
100
AcDbEntity
  8
SUNPOU
  6
ByBlock
100
AcDbCircle
 10
4419.127507899649
 20
6393.693182432328
 30
0.0
 40
7.5
100
AcDbArc
 50
180.0
 51
0.0
  0
ARC
  5
16547
330
1624E
100
AcDbEntity
  8
SUNPOU
  6
ByBlock
100
AcDbCircle
 10
4419.127507899649
 20
6393.693182432328
 30
0.0
 40
7.5
100
AcDbArc
 50
0.0
 51
180.0
  0
ARC
  5
16548
330
1624E
100
AcDbEntity
  8
SUNPOU
  6
ByBlock
100
AcDbCircle
 10
4019.127507899649
 20
6393.693182432328
 30
0.0
 40
7.5
100
AcDbArc
 50
0.0
 51
180.0
  0
ARC
  5
16549
330
1624E
100
AcDbEntity
  8
SUNPOU
  6
ByBlock
100
AcDbCircle
 10
4019.127507899649
 20
6393.693182432328
 30
0.0
 40
7.5
100
AcDbArc
 50
180.0
 51
0.0
  0
ARC
  5
1654A
330
1624E
100
AcDbEntity
  8
HIKIDASHI
100
AcDbCircle
 10
5109.510461311053
 20
3750.736413964284
 30
0.0
 40
74.66417910459829
100
AcDbArc
 50
164.8596129850786
 51
237.5045002941396
  0
ARC
  5
1654B
330
1624E
100
AcDbEntity
  8
HIKIDASHI
100
AcDbCircle
 10
5046.086667264681
 20
3767.897437448785
 30
0.0
 40
8.959701492551799
100
AcDbArc
 50
15.14038701503315
 51
164.8596129849669
  0
ARC
  5
1654C
330
1624E
100
AcDbEntity
  8
HIKIDASHI
100
AcDbCircle
 10
11523.45484733307
 20
9514.077910955192
 30
0.0
 40
74.66417910452284
100
AcDbArc
 50
164.8596129850635
 51
237.5045002941574
  0
ARC
  5
1654D
330
1624E
100
AcDbEntity
  8
HIKIDASHI
100
AcDbCircle
 10
11460.03105328678
 20
9531.238934439677
 30
0.0
 40
8.959701492542745
100
AcDbArc
 50
15.14038701504827
 51
164.8596129849517
  0
LINE
  5
1654E
330
1624E
100
AcDbEntity
  8
HIKIDASHI
100
AcDbLine
 10
12464.06281950023
 20
8969.536558594796
 30
0.0
 11
12519.12750789965
 21
8943.693182432332
 31
0.0
  0
LINE
  5
1654F
330
1624E
100
AcDbEntity
  8
HIKIDASHI
100
AcDbLine
 10
12519.12750789965
 20
8943.693182432332
 30
0.0
 11
12475.42092465558
 21
8985.998437202043
 31
0.0
  0
SOLID
  5
16550
330
1624E
100
AcDbEntity
  8
HIKIDASHI
100
AcDbTrace
 10
12464.06281950023
 20
8969.536558594796
 30
0.0
 11
12475.42092465558
 21
8985.998437202043
 31
0.0
 12
12519.12750789965
 22
8943.693182432332
 32
0.0
 13
12519.12750789965
 23
8943.693182432332
 33
0.0
  0
LINE
  5
16551
330
1624E
100
AcDbEntity
  8
HIKIDASHI
100
AcDbLine
 10
12475.42092465558
 20
8985.998437202043
 30
0.0
 11
12464.06281950023
 21
8969.536558594796
 31
0.0
  0
LINE
  5
16552
330
1624E
100
AcDbEntity
  8
HIKIDASHI
100
AcDbLine
 10
12269.72226954269
 20
8979.177297510659
 30
0.0
 11
12319.12750789965
 21
8943.693182432332
 31
0.0
  0
LINE
  5
16553
330
1624E
100
AcDbEntity
  8
HIKIDASHI
100
AcDbLine
 10
12319.12750789965
 20
8943.693182432332
 30
0.0
 11
12283.9011846144
 21
8993.282557784356
 31
0.0
  0
SOLID
  5
16554
330
1624E
100
AcDbEntity
  8
HIKIDASHI
100
AcDbTrace
 10
12269.72226954269
 20
8979.177297510659
 30
0.0
 11
12283.9011846144
 21
8993.282557784356
 31
0.0
 12
12319.12750789965
 22
8943.693182432332
 32
0.0
 13
12319.12750789965
 23
8943.693182432332
 33
0.0
  0
LINE
  5
16555
330
1624E
100
AcDbEntity
  8
HIKIDASHI
100
AcDbLine
 10
12283.9011846144
 20
8993.282557784356
 30
0.0
 11
12269.72226954269
 21
8979.177297510659
 31
0.0
  0
LINE
  5
16556
330
1624E
100
AcDbEntity
  8
HIKIDASHI
100
AcDbLine
 10
12359.7678252936
 20
8757.049483406314
 30
0.0
 11
12390.56364172797
 21
8809.505347617481
 31
0.0
  0
LINE
  5
16557
330
1624E
100
AcDbEntity
  8
HIKIDASHI
100
AcDbLine
 10
12390.56364172797
 20
8809.505347617481
 30
0.0
 11
12344.41975130266
 21
8769.872767882931
 31
0.0
  0
SOLID
  5
16558
330
1624E
100
AcDbEntity
  8
HIKIDASHI
100
AcDbTrace
 10
12359.7678252936
 20
8757.049483406314
 30
0.0
 11
12344.41975130266
 21
8769.872767882931
 31
0.0
 12
12390.56364172797
 22
8809.505347617481
 32
0.0
 13
12390.56364172797
 23
8809.505347617481
 33
0.0
  0
LINE
  5
16559
330
1624E
100
AcDbEntity
  8
HIKIDASHI
100
AcDbLine
 10
12344.41975130266
 20
8769.872767882931
 30
0.0
 11
12359.7678252936
 21
8757.049483406314
 31
0.0
  0
LINE
  5
1655A
330
1624E
100
AcDbEntity
  8
HIKIDASHI
100
AcDbLine
 10
3400.041822860991
 20
2982.605030730539
 30
0.0
 11
3723.241537933667
 21
3620.351685441334
 31
0.0
1001
ACAD
1000
DSTYLE
1002
{
1070
   147
1040
1.125
1070
    77
1070
     0
1070
   144
1040
0.625
1002
}
  0
LINE
  5
1655B
330
1624E
100
AcDbEntity
  8
HIKIDASHI
100
AcDbLine
 10
3391.121886615634
 20
2987.125510503613
 30
0.0
 11
3372.918944222547
 21
2929.085413258399
 31
0.0
  0
LINE
  5
1655C
330
1624E
100
AcDbEntity
  8
HIKIDASHI
100
AcDbLine
 10
3372.918944222547
 20
2929.085413258399
 30
0.0
 11
3408.961759106349
 21
2978.084550957466
 31
0.0
  0
SOLID
  5
1655D
330
1624E
100
AcDbEntity
  8
HIKIDASHI
100
AcDbTrace
 10
3391.121886615634
 20
2987.125510503613
 30
0.0
 11
3408.961759106349
 21
2978.084550957466
 31
0.0
 12
3372.918944222547
 22
2929.085413258399
 32
0.0
 13
3372.918944222547
 23
2929.085413258399
 33
0.0
  0
LINE
  5
1655E
330
1624E
100
AcDbEntity
  8
HIKIDASHI
100
AcDbLine
 10
3408.961759106349
 20
2978.084550957466
 30
0.0
 11
3391.121886615634
 21
2987.125510503613
 31
0.0
  0
ARC
  5
1655F
330
1624E
100
AcDbEntity
  8
HIKIDASHI
100
AcDbCircle
 10
4983.842399754053
 20
3751.916541323875
 30
0.0
 40
74.66417910459771
100
AcDbArc
 50
301.7712278330707
 51
15.14038701490958
  0
LINE
  5
16560
330
1624E
100
AcDbEntity
  8
HIKIDASHI
100
AcDbLine
 10
3291.098430146663
 20
2211.248456072743
 30
0.0
 11
4251.789778931458
 21
1203.074801954208
 31
0.0
1001
ACAD
1000
DSTYLE
1002
{
1070
   147
1040
1.125
1070
    77
1070
     0
1002
}
  0
LINE
  5
16561
330
1624E
100
AcDbEntity
  8
HIKIDASHI
100
AcDbLine
 10
3298.337923010938
 20
2218.146988022956
 30
0.0
 11
3249.70723844539
 21
2254.685413258397
 31
0.0
  0
LINE
  5
16562
330
1624E
100
AcDbEntity
  8
HIKIDASHI
100
AcDbLine
 10
3249.70723844539
 20
2254.685413258397
 30
0.0
 11
3283.858937282387
 21
2204.349924122531
 31
0.0
  0
SOLID
  5
16563
330
1624E
100
AcDbEntity
  8
HIKIDASHI
100
AcDbTrace
 10
3298.337923010938
 20
2218.146988022956
 30
0.0
 11
3283.858937282387
 21
2204.349924122531
 31
0.0
 12
3249.70723844539
 22
2254.685413258397
 32
0.0
 13
3249.70723844539
 23
2254.685413258397
 33
0.0
  0
LINE
  5
16564
330
1624E
100
AcDbEntity
  8
HIKIDASHI
100
AcDbLine
 10
3283.858937282387
 20
2204.349924122531
 30
0.0
 11
3298.337923010938
 21
2218.146988022956
 31
0.0
  0
LINE
  5
16565
330
1624E
100
AcDbEntity
  8
HIKIDASHI
100
AcDbLine
 10
3558.558497289697
 20
2445.062426828688
 30
0.0
 11
4324.244726880155
 21
1425.89868986287
 31
0.0
1001
ACAD
1000
DSTYLE
1002
{
1070
   147
1040
1.125
1070
    77
1070
     0
1002
}
  0
LINE
  5
16566
330
1624E
100
AcDbEntity
  8
HIKIDASHI
100
AcDbLine
 10
3566.553548909849
 20
2451.069019006547
 30
0.0
 11
3522.518944222548
 21
2493.032736549601
 31
0.0
  0
LINE
  5
16567
330
1624E
100
AcDbEntity
  8
HIKIDASHI
100
AcDbLine
 10
3522.518944222548
 20
2493.032736549601
 30
0.0
 11
3550.563445669545
 21
2439.055834650831
 31
0.0
  0
SOLID
  5
16568
330
1624E
100
AcDbEntity
  8
HIKIDASHI
100
AcDbTrace
 10
3566.553548909849
 20
2451.069019006547
 30
0.0
 11
3550.563445669545
 21
2439.055834650831
 31
0.0
 12
3522.518944222548
 22
2493.032736549601
 32
0.0
 13
3522.518944222548
 23
2493.032736549601
 33
0.0
  0
LINE
  5
16569
330
1624E
100
AcDbEntity
  8
HIKIDASHI
100
AcDbLine
 10
3550.563445669545
 20
2439.055834650831
 30
0.0
 11
3566.553548909849
 21
2451.069019006547
 31
0.0
  0
ARC
  5
1656A
330
1624E
100
AcDbEntity
  8
HIKIDASHI
100
AcDbCircle
 10
11397.7867857762
 20
9515.258038314783
 30
0.0
 40
74.66417910452388
100
AcDbArc
 50
301.7712278330712
 51
15.14038701490931
  0
LINE
  5
1656B
330
1624E
100
AcDbEntity
  8
KISO
100
AcDbLine
 10
6350.982396145198
 20
1851.333194070897
 30
0.0
 11
7950.982396145197
 21
1851.333194070897
 31
0.0
  0
LINE
  5
1656C
330
1624E
100
AcDbEntity
  8
KISO
100
AcDbLine
 10
7950.982396145197
 20
1851.333194070897
 30
0.0
 11
7950.982396145197
 21
3131.333194070899
 31
0.0
  0
LINE
  5
1656D
330
1624E
100
AcDbEntity
  8
KISO
100
AcDbLine
 10
7950.982396145197
 20
3131.333194070899
 30
0.0
 11
6350.982396145198
 21
3131.333194070899
 31
0.0
  0
LINE
  5
1656E
330
1624E
100
AcDbEntity
  8
KISO
100
AcDbLine
 10
6350.982396145198
 20
3131.333194070899
 30
0.0
 11
6350.982396145198
 21
1851.333194070897
 31
0.0
  0
LINE
  5
1656F
330
1624E
100
AcDbEntity
  8
HATCH
100
AcDbLine
 10
3683.024048731596
 20
1869.885413258396
 30
0.0
 11
3775.400091801905
 21
2029.885413258341
 31
0.0
  0
LINE
  5
16570
330
1624E
100
AcDbEntity
  8
HATCH
100
AcDbLine
 10
3711.400091801926
 20
2029.885413258341
 30
0.0
 11
3743.400091801915
 21
1974.459787416159
 31
0.0
  0
LINE
  5
16571
330
1624E
100
AcDbEntity
  8
HATCH
100
AcDbLine
 10
3715.024048731583
 20
1925.311039100582
 30
0.0
 11
3747.024048731574
 21
1869.885413258396
 31
0.0
  0
LINE
  5
16572
330
1624E
100
AcDbEntity
  8
HATCH
100
AcDbLine
 10
3443.024048731595
 20
1869.885413258396
 30
0.0
 11
3535.400091801903
 21
2029.885413258341
 31
0.0
  0
LINE
  5
16573
330
1624E
100
AcDbEntity
  8
HATCH
100
AcDbLine
 10
3471.400091801926
 20
2029.885413258341
 30
0.0
 11
3503.400091801915
 21
1974.459787416159
 31
0.0
  0
LINE
  5
16574
330
1624E
100
AcDbEntity
  8
HATCH
100
AcDbLine
 10
3475.024048731583
 20
1925.311039100582
 30
0.0
 11
3507.024048731574
 21
1869.885413258396
 31
0.0
  0
LINE
  5
16575
330
1624E
100
AcDbEntity
  8
HATCH
100
AcDbLine
 10
3203.024048731595
 20
1869.885413258396
 30
0.0
 11
3295.400091801904
 21
2029.885413258341
 31
0.0
  0
LINE
  5
16576
330
1624E
100
AcDbEntity
  8
HATCH
100
AcDbLine
 10
3231.400091801926
 20
2029.885413258341
 30
0.0
 11
3263.400091801916
 21
1974.459787416159
 31
0.0
  0
LINE
  5
16577
330
1624E
100
AcDbEntity
  8
HATCH
100
AcDbLine
 10
3235.024048731585
 20
1925.311039100582
 30
0.0
 11
3267.024048731573
 21
1869.885413258396
 31
0.0
  0
LINE
  5
16578
330
1624E
100
AcDbEntity
  8
TENSEN-1
100
AcDbLine
 10
3420.918944222548
 20
2277.885413258397
 30
0.0
 11
3372.918944222547
 21
2277.885413258397
 31
0.0
  0
LINE
  5
16579
330
1624E
100
AcDbEntity
  8
TENSEN-1
100
AcDbLine
 10
3372.918944222547
 20
2277.885413258397
 30
0.0
 11
3372.918944222547
 21
2929.085413258399
 31
0.0
  0
LINE
  5
1657A
330
1624E
100
AcDbEntity
  8
TENSEN-1
100
AcDbLine
 10
3372.918944222547
 20
2929.085413258399
 30
0.0
 11
3352.118944222544
 21
2929.085413258396
 31
0.0
  0
LINE
  5
1657B
330
1624E
100
AcDbEntity
  8
TENSEN-1
100
AcDbLine
 10
3352.118944222544
 20
2929.085413258396
 30
0.0
 11
3352.118944222544
 21
2257.085413258395
 31
0.0
  0
LINE
  5
1657C
330
1624E
100
AcDbEntity
  8
TENSEN-1
100
AcDbLine
 10
3352.118944222544
 20
2257.085413258395
 30
0.0
 11
3420.918944222548
 21
2257.085413258399
 31
0.0
  0
LINE
  5
1657D
330
1624E
100
AcDbEntity
  8
TENSEN-1
100
AcDbLine
 10
3420.918944222548
 20
2257.085413258399
 30
0.0
 11
3420.918944222548
 21
2277.885413258397
 31
0.0
  0
LINE
  5
1657E
330
1624E
100
AcDbEntity
  8
HASIRA
100
AcDbLine
 10
3273.798944222548
 20
2897.085413258396
 30
0.0
 11
3273.798944222544
 21
3552.107886046835
 31
0.0
  0
LINE
  5
1657F
330
1624E
100
AcDbEntity
  8
HATCH
100
AcDbLine
 10
1586.518944222413
 20
2877.885413258395
 30
0.0
 11
1641.944570064567
 21
2973.885413258308
 31
0.0
  0
LINE
  5
16580
330
1624E
100
AcDbEntity
  8
HATCH
100
AcDbLine
 10
1603.544570064604
 20
2973.885413258307
 30
0.0
 11
1622.744570064585
 21
2940.630037753017
 31
0.0
  0
LINE
  5
16581
330
1624E
100
AcDbEntity
  8
HATCH
100
AcDbLine
 10
1605.718944222397
 20
2911.140788763688
 30
0.0
 11
1624.91894422238
 21
2877.885413258395
 31
0.0
  0
LINE
  5
16582
330
1624E
100
AcDbEntity
  8
HATCH
100
AcDbLine
 10
1730.518944222414
 20
2877.885413258395
 30
0.0
 11
1785.944570064567
 21
2973.885413258308
 31
0.0
  0
LINE
  5
16583
330
1624E
100
AcDbEntity
  8
HATCH
100
AcDbLine
 10
1747.544570064603
 20
2973.885413258307
 30
0.0
 11
1766.744570064585
 21
2940.630037753017
 31
0.0
  0
LINE
  5
16584
330
1624E
100
AcDbEntity
  8
HATCH
100
AcDbLine
 10
1749.718944222396
 20
2911.140788763688
 30
0.0
 11
1768.918944222379
 21
2877.885413258395
 31
0.0
  0
LINE
  5
16585
330
1624E
100
AcDbEntity
  8
HATCH
100
AcDbLine
 10
2018.518944222415
 20
2877.885413258395
 30
0.0
 11
2073.944570064568
 21
2973.885413258308
 31
0.0
  0
LINE
  5
16586
330
1624E
100
AcDbEntity
  8
HATCH
100
AcDbLine
 10
2035.544570064604
 20
2973.885413258307
 30
0.0
 11
2054.744570064586
 21
2940.630037753017
 31
0.0
  0
LINE
  5
16587
330
1624E
100
AcDbEntity
  8
HATCH
100
AcDbLine
 10
2037.718944222397
 20
2911.140788763688
 30
0.0
 11
2056.91894422238
 21
2877.885413258395
 31
0.0
  0
LINE
  5
16588
330
1624E
100
AcDbEntity
  8
HATCH
100
AcDbLine
 10
1874.518944222413
 20
2877.885413258395
 30
0.0
 11
1929.944570064568
 21
2973.885413258308
 31
0.0
  0
LINE
  5
16589
330
1624E
100
AcDbEntity
  8
HATCH
100
AcDbLine
 10
1891.544570064603
 20
2973.885413258307
 30
0.0
 11
1910.744570064585
 21
2940.630037753017
 31
0.0
  0
LINE
  5
1658A
330
1624E
100
AcDbEntity
  8
HATCH
100
AcDbLine
 10
1893.718944222396
 20
2911.140788763688
 30
0.0
 11
1912.918944222379
 21
2877.885413258395
 31
0.0
  0
LINE
  5
1658B
330
1624E
100
AcDbEntity
  8
HATCH
100
AcDbLine
 10
2963.024048731595
 20
1869.885413258393
 30
0.0
 11
3055.400091801904
 21
2029.88541325834
 31
0.0
  0
LINE
  5
1658C
330
1624E
100
AcDbEntity
  8
HATCH
100
AcDbLine
 10
2991.400091801926
 20
2029.885413258339
 30
0.0
 11
3023.400091801915
 21
1974.459787416158
 31
0.0
  0
LINE
  5
1658D
330
1624E
100
AcDbEntity
  8
HATCH
100
AcDbLine
 10
2995.024048731584
 20
1925.311039100581
 30
0.0
 11
3027.024048731572
 21
1869.885413258393
 31
0.0
  0
LINE
  5
1658E
330
1624E
100
AcDbEntity
  8
HATCH
100
AcDbLine
 10
2483.024048731595
 20
1869.885413258393
 30
0.0
 11
2575.400091801904
 21
2029.88541325834
 31
0.0
  0
LINE
  5
1658F
330
1624E
100
AcDbEntity
  8
HATCH
100
AcDbLine
 10
2511.400091801926
 20
2029.885413258339
 30
0.0
 11
2543.400091801915
 21
1974.459787416158
 31
0.0
  0
LINE
  5
16590
330
1624E
100
AcDbEntity
  8
HATCH
100
AcDbLine
 10
2515.024048731584
 20
1925.311039100581
 30
0.0
 11
2547.024048731572
 21
1869.885413258393
 31
0.0
  0
LINE
  5
16591
330
1624E
100
AcDbEntity
  8
HATCH
100
AcDbLine
 10
2723.024048731595
 20
1869.885413258393
 30
0.0
 11
2815.400091801905
 21
2029.88541325834
 31
0.0
  0
LINE
  5
16592
330
1624E
100
AcDbEntity
  8
HATCH
100
AcDbLine
 10
2751.400091801926
 20
2029.885413258339
 30
0.0
 11
2783.400091801915
 21
1974.459787416158
 31
0.0
  0
LINE
  5
16593
330
1624E
100
AcDbEntity
  8
HATCH
100
AcDbLine
 10
2755.024048731585
 20
1925.311039100581
 30
0.0
 11
2787.024048731574
 21
1869.885413258393
 31
0.0
  0
LINE
  5
16594
330
1624E
100
AcDbEntity
  8
HATCH
100
AcDbLine
 10
2243.02404873159
 20
1869.885413258393
 30
0.0
 11
2335.400091801901
 21
2029.88541325834
 31
0.0
  0
LINE
  5
16595
330
1624E
100
AcDbEntity
  8
HATCH
100
AcDbLine
 10
2271.400091801921
 20
2029.885413258339
 30
0.0
 11
2303.400091801911
 21
1974.459787416158
 31
0.0
  0
LINE
  5
16596
330
1624E
100
AcDbEntity
  8
HATCH
100
AcDbLine
 10
2275.02404873158
 20
1925.311039100581
 30
0.0
 11
2307.02404873157
 21
1869.885413258393
 31
0.0
  0
LINE
  5
16597
330
1624E
100
AcDbEntity
  8
HATCH
100
AcDbLine
 10
2003.024048731594
 20
1869.885413258393
 30
0.0
 11
2095.400091801904
 21
2029.88541325834
 31
0.0
  0
LINE
  5
16598
330
1624E
100
AcDbEntity
  8
HATCH
100
AcDbLine
 10
2031.400091801926
 20
2029.885413258339
 30
0.0
 11
2063.400091801915
 21
1974.459787416158
 31
0.0
  0
LINE
  5
16599
330
1624E
100
AcDbEntity
  8
HATCH
100
AcDbLine
 10
2035.024048731584
 20
1925.311039100581
 30
0.0
 11
2067.024048731572
 21
1869.885413258393
 31
0.0
  0
LINE
  5
1659A
330
1624E
100
AcDbEntity
  8
TENSEN-1
100
AcDbLine
 10
2984.118944222548
 20
2277.885413258397
 30
0.0
 11
3032.118944222544
 21
2277.885413258397
 31
0.0
  0
LINE
  5
1659B
330
1624E
100
AcDbEntity
  8
TENSEN-1
100
AcDbLine
 10
3032.118944222544
 20
2277.885413258397
 30
0.0
 11
3032.118944222544
 21
2929.085413258396
 31
0.0
  0
LINE
  5
1659C
330
1624E
100
AcDbEntity
  8
TENSEN-1
100
AcDbLine
 10
3032.118944222544
 20
2929.085413258396
 30
0.0
 11
3052.918944222547
 21
2929.085413258396
 31
0.0
  0
LINE
  5
1659D
330
1624E
100
AcDbEntity
  8
TENSEN-1
100
AcDbLine
 10
3052.918944222547
 20
2929.085413258396
 30
0.0
 11
3052.918944222547
 21
2257.085413258395
 31
0.0
  0
LINE
  5
1659E
330
1624E
100
AcDbEntity
  8
TENSEN-1
100
AcDbLine
 10
3052.918944222547
 20
2257.085413258395
 30
0.0
 11
2984.118944222548
 21
2257.085413258399
 31
0.0
  0
LINE
  5
1659F
330
1624E
100
AcDbEntity
  8
TENSEN-1
100
AcDbLine
 10
2984.118944222548
 20
2257.085413258399
 30
0.0
 11
2984.118944222548
 21
2277.885413258397
 31
0.0
  0
LINE
  5
165A0
330
1624E
100
AcDbEntity
  8
HATCH
100
AcDbLine
 10
1442.518944222413
 20
2877.885413258395
 30
0.0
 11
1497.944570064567
 21
2973.885413258308
 31
0.0
  0
LINE
  5
165A1
330
1624E
100
AcDbEntity
  8
HATCH
100
AcDbLine
 10
1459.544570064602
 20
2973.885413258307
 30
0.0
 11
1478.744570064585
 21
2940.630037753017
 31
0.0
  0
LINE
  5
165A2
330
1624E
100
AcDbEntity
  8
HATCH
100
AcDbLine
 10
1461.718944222397
 20
2911.140788763688
 30
0.0
 11
1480.91894422238
 21
2877.885413258395
 31
0.0
  0
LINE
  5
165A3
330
1624E
100
AcDbEntity
  8
HATCH
100
AcDbLine
 10
1298.518944222414
 20
2877.885413258395
 30
0.0
 11
1353.944570064568
 21
2973.885413258308
 31
0.0
  0
LINE
  5
165A4
330
1624E
100
AcDbEntity
  8
HATCH
100
AcDbLine
 10
1315.544570064603
 20
2973.885413258307
 30
0.0
 11
1334.744570064586
 21
2940.630037753017
 31
0.0
  0
LINE
  5
165A5
330
1624E
100
AcDbEntity
  8
HATCH
100
AcDbLine
 10
1317.718944222397
 20
2911.140788763688
 30
0.0
 11
1336.91894422238
 21
2877.885413258395
 31
0.0
  0
LINE
  5
165A6
330
1624E
100
AcDbEntity
  8
HASIRA
100
AcDbLine
 10
3131.23894422254
 20
2897.085413258396
 30
0.0
 11
3131.238944222543
 21
3552.107886046835
 31
0.0
  0
LINE
  5
165A7
330
1624E
100
AcDbEntity
  8
KISO
100
AcDbLine
 10
2978.518944222548
 20
2877.885413258395
 30
0.0
 11
3426.518944222549
 21
2877.885413258399
 31
0.0
  0
LINE
  5
165A8
330
1624E
100
AcDbEntity
  8
KISO
100
AcDbLine
 10
3426.518944222549
 20
2877.885413258399
 30
0.0
 11
3426.518944222549
 21
2897.085413258396
 31
0.0
  0
LINE
  5
165A9
330
1624E
100
AcDbEntity
  8
KISO
100
AcDbLine
 10
3426.518944222549
 20
2897.085413258396
 30
0.0
 11
2978.518944222548
 21
2897.085413258396
 31
0.0
  0
LINE
  5
165AA
330
1624E
100
AcDbEntity
  8
KISO
100
AcDbLine
 10
2978.518944222548
 20
2897.085413258396
 30
0.0
 11
2978.518944222548
 21
2877.885413258395
 31
0.0
  0
LINE
  5
165AB
330
1624E
100
AcDbEntity
  8
1PL-M1
100
AcDbLine
 10
3202.518944222549
 20
1525.898498232149
 30
0.0
 11
3202.518944222545
 21
3552.107886046835
 31
0.0
  0
LINE
  5
165AC
330
1624E
100
AcDbEntity
  8
KISO-3
100
AcDbLine
 10
12659.12750789964
 20
9083.693182432327
 30
0.0
 11
12659.12750789964
 21
8603.693182432333
 31
0.0
  0
LINE
  5
165AD
330
1624E
100
AcDbEntity
  8
KISO-3
100
AcDbLine
 10
12659.12750789964
 20
8603.693182432333
 30
0.0
 11
12179.12750789965
 21
8603.693182432333
 31
0.0
  0
LINE
  5
165AE
330
1624E
100
AcDbEntity
  8
KISO-3
100
AcDbLine
 10
12179.12750789965
 20
8603.693182432333
 30
0.0
 11
12179.12750789965
 21
9083.693182432327
 31
0.0
  0
LINE
  5
165AF
330
1624E
100
AcDbEntity
  8
KISO-2
100
AcDbLine
 10
12279.12750789965
 20
8703.693182432331
 30
0.0
 11
12559.12750789965
 21
8703.693182432331
 31
0.0
  0
LINE
  5
165B0
330
1624E
100
AcDbEntity
  8
KISO-2
100
AcDbLine
 10
12559.12750789965
 20
8703.693182432331
 30
0.0
 11
12559.12750789965
 21
8983.693182432325
 31
0.0
  0
LINE
  5
165B1
330
1624E
100
AcDbEntity
  8
KISO-2
100
AcDbLine
 10
12559.12750789965
 20
8983.693182432325
 30
0.0
 11
12279.12750789965
 21
8983.693182432325
 31
0.0
  0
LINE
  5
165B2
330
1624E
100
AcDbEntity
  8
KISO-2
100
AcDbLine
 10
12279.12750789965
 20
8983.693182432325
 30
0.0
 11
12279.12750789965
 21
8703.693182432331
 31
0.0
  0
LINE
  5
165B3
330
1624E
100
AcDbEntity
  8
KISO-1
100
AcDbLine
 10
10019.12750789965
 20
8143.693182432325
 30
0.0
 11
9219.127507899647
 21
8143.693182432325
 31
0.0
  0
LINE
  5
165B4
330
1624E
100
AcDbEntity
  8
KISO-1
100
AcDbLine
 10
9219.127507899647
 20
8143.693182432325
 30
0.0
 11
9219.127507899647
 21
9143.693182432331
 31
0.0
  0
LINE
  5
165B5
330
1624E
100
AcDbEntity
  8
KISO-1
100
AcDbLine
 10
9219.127507899647
 20
9143.693182432331
 30
0.0
 11
10019.12750789965
 21
9143.693182432331
 31
0.0
  0
LINE
  5
165B6
330
1624E
100
AcDbEntity
  8
KISO-1
100
AcDbLine
 10
10019.12750789965
 20
9143.693182432331
 30
0.0
 11
10019.12750789965
 21
8143.693182432325
 31
0.0
  0
LINE
  5
165B7
330
1624E
100
AcDbEntity
  8
KISO-3
100
AcDbLine
 10
9859.127507899648
 20
9083.693182432327
 30
0.0
 11
9859.127507899648
 21
8603.693182432333
 31
0.0
  0
LINE
  5
165B8
330
1624E
100
AcDbEntity
  8
KISO-3
100
AcDbLine
 10
9859.127507899648
 20
8603.693182432333
 30
0.0
 11
9379.127507899648
 21
8603.693182432333
 31
0.0
  0
LINE
  5
165B9
330
1624E
100
AcDbEntity
  8
KISO-3
100
AcDbLine
 10
9379.127507899648
 20
8603.693182432333
 30
0.0
 11
9379.127507899648
 21
9083.693182432327
 31
0.0
  0
LINE
  5
165BA
330
1624E
100
AcDbEntity
  8
KISO-2
100
AcDbLine
 10
9479.127507899647
 20
8703.693182432331
 30
0.0
 11
9759.127507899648
 21
8703.693182432331
 31
0.0
  0
LINE
  5
165BB
330
1624E
100
AcDbEntity
  8
KISO-2
100
AcDbLine
 10
9759.127507899648
 20
8703.693182432331
 30
0.0
 11
9759.127507899648
 21
8983.693182432325
 31
0.0
  0
LINE
  5
165BC
330
1624E
100
AcDbEntity
  8
KISO-2
100
AcDbLine
 10
9759.127507899648
 20
8983.693182432325
 30
0.0
 11
9479.127507899647
 21
8983.693182432325
 31
0.0
  0
LINE
  5
165BD
330
1624E
100
AcDbEntity
  8
KISO-2
100
AcDbLine
 10
9479.127507899647
 20
8983.693182432325
 30
0.0
 11
9479.127507899647
 21
8703.693182432331
 31
0.0
  0
LINE
  5
165BE
330
1624E
100
AcDbEntity
  8
KISO-2
100
AcDbLine
 10
7079.127507899649
 20
8703.693182432331
 30
0.0
 11
7359.127507899646
 21
8703.693182432331
 31
0.0
  0
LINE
  5
165BF
330
1624E
100
AcDbEntity
  8
KISO-2
100
AcDbLine
 10
7359.127507899646
 20
8703.693182432331
 30
0.0
 11
7359.127507899646
 21
8983.693182432325
 31
0.0
  0
LINE
  5
165C0
330
1624E
100
AcDbEntity
  8
KISO-2
100
AcDbLine
 10
7359.127507899646
 20
8983.693182432325
 30
0.0
 11
7079.127507899649
 21
8983.693182432325
 31
0.0
  0
LINE
  5
165C1
330
1624E
100
AcDbEntity
  8
KISO-2
100
AcDbLine
 10
7079.127507899649
 20
8983.693182432325
 30
0.0
 11
7079.127507899649
 21
8703.693182432331
 31
0.0
  0
LINE
  5
165C2
330
1624E
100
AcDbEntity
  8
KISO-3
100
AcDbLine
 10
7459.12750789965
 20
9083.693182432327
 30
0.0
 11
7459.12750789965
 21
8603.693182432333
 31
0.0
  0
LINE
  5
165C3
330
1624E
100
AcDbEntity
  8
KISO-3
100
AcDbLine
 10
7459.12750789965
 20
8603.693182432333
 30
0.0
 11
6979.127507899646
 21
8603.693182432333
 31
0.0
  0
LINE
  5
165C4
330
1624E
100
AcDbEntity
  8
KISO-3
100
AcDbLine
 10
6979.127507899646
 20
8603.693182432333
 30
0.0
 11
6979.127507899646
 21
9083.693182432327
 31
0.0
  0
LINE
  5
165C5
330
1624E
100
AcDbEntity
  8
KISO-1
100
AcDbLine
 10
7619.12750789965
 20
8143.693182432325
 30
0.0
 11
6819.127507899645
 21
8143.693182432325
 31
0.0
  0
LINE
  5
165C6
330
1624E
100
AcDbEntity
  8
KISO-1
100
AcDbLine
 10
6819.127507899645
 20
8143.693182432325
 30
0.0
 11
6819.127507899645
 21
9143.693182432331
 31
0.0
  0
LINE
  5
165C7
330
1624E
100
AcDbEntity
  8
KISO-1
100
AcDbLine
 10
6819.127507899645
 20
9143.693182432331
 30
0.0
 11
7619.12750789965
 21
9143.693182432331
 31
0.0
  0
LINE
  5
165C8
330
1624E
100
AcDbEntity
  8
KISO-1
100
AcDbLine
 10
7619.12750789965
 20
9143.693182432331
 30
0.0
 11
7619.12750789965
 21
8143.693182432325
 31
0.0
  0
LINE
  5
165C9
330
1624E
100
AcDbEntity
  8
KISO-2
100
AcDbLine
 10
4559.127507899648
 20
8703.693182432331
 30
0.0
 11
4279.12750789965
 21
8703.693182432331
 31
0.0
  0
LINE
  5
165CA
330
1624E
100
AcDbEntity
  8
KISO-2
100
AcDbLine
 10
4279.12750789965
 20
8703.693182432331
 30
0.0
 11
4279.12750789965
 21
8983.693182432325
 31
0.0
  0
LINE
  5
165CB
330
1624E
100
AcDbEntity
  8
KISO-2
100
AcDbLine
 10
4279.12750789965
 20
8983.693182432325
 30
0.0
 11
4559.127507899648
 21
8983.693182432325
 31
0.0
  0
LINE
  5
165CC
330
1624E
100
AcDbEntity
  8
KISO-2
100
AcDbLine
 10
4559.127507899648
 20
8983.693182432325
 30
0.0
 11
4559.127507899648
 21
8703.693182432331
 31
0.0
  0
LINE
  5
165CD
330
1624E
100
AcDbEntity
  8
DOMAKON
100
AcDbLine
 10
4019.127507899649
 20
9083.693182432327
 30
0.0
 11
8359.12750789965
 21
9083.693182432327
 31
0.0
  0
LINE
  5
165CE
330
1624E
100
AcDbEntity
  8
DOMAKON
100
AcDbLine
 10
8359.12750789965
 20
6843.693182432328
 30
0.0
 11
4019.127507899649
 21
6843.693182432328
 31
0.0
  0
LINE
  5
165CF
330
1624E
100
AcDbEntity
  8
DOMAKON
100
AcDbLine
 10
4019.127507899649
 20
6843.693182432328
 30
0.0
 11
4019.127507899649
 21
9083.693182432327
 31
0.0
  0
LINE
  5
165D0
330
1624E
100
AcDbEntity
  8
KISO-3
100
AcDbLine
 10
4179.127507899648
 20
9083.693182432327
 30
0.0
 11
4179.127507899648
 21
8603.693182432333
 31
0.0
  0
LINE
  5
165D1
330
1624E
100
AcDbEntity
  8
KISO-3
100
AcDbLine
 10
4179.127507899648
 20
8603.693182432333
 30
0.0
 11
4659.12750789965
 21
8603.693182432333
 31
0.0
  0
LINE
  5
165D2
330
1624E
100
AcDbEntity
  8
KISO-3
100
AcDbLine
 10
4659.12750789965
 20
8603.693182432333
 30
0.0
 11
4659.12750789965
 21
9083.693182432327
 31
0.0
  0
LINE
  5
165D3
330
1624E
100
AcDbEntity
  8
DOMAKON
100
AcDbLine
 10
8479.127507899653
 20
9083.693182432327
 30
0.0
 11
12819.12750789964
 21
9083.693182432327
 31
0.0
  0
LINE
  5
165D4
330
1624E
100
AcDbEntity
  8
DOMAKON
100
AcDbLine
 10
12819.12750789964
 20
9083.693182432327
 30
0.0
 11
12819.12750789964
 21
6843.693182432328
 31
0.0
  0
LINE
  5
165D5
330
1624E
100
AcDbEntity
  8
DOMAKON
100
AcDbLine
 10
12819.12750789964
 20
6843.693182432328
 30
0.0
 11
8479.127507899653
 21
6843.693182432328
 31
0.0
  0
LINE
  5
165D6
330
1624E
100
AcDbEntity
  8
YANE
100
AcDbLine
 10
12640.92816095087
 20
6970.143910050989
 30
0.0
 11
4197.326854848409
 21
6970.143910050989
 31
0.0
  0
LINE
  5
165D7
330
1624E
100
AcDbEntity
  8
YANE
100
AcDbLine
 10
4197.326854848409
 20
6970.143910050989
 30
0.0
 11
4197.326854848409
 21
8958.243182432324
 31
0.0
  0
LINE
  5
165D8
330
1624E
100
AcDbEntity
  8
YANE
100
AcDbLine
 10
4197.326854848409
 20
8958.243182432324
 30
0.0
 11
12640.92816095087
 21
8958.243182432324
 31
0.0
  0
LINE
  5
165D9
330
1624E
100
AcDbEntity
  8
YANE
100
AcDbLine
 10
12640.92816095087
 20
8958.243182432324
 30
0.0
 11
12640.92816095087
 21
6970.143910050989
 31
0.0
  0
LINE
  5
165DA
330
1624E
100
AcDbEntity
  8
YODOROGO
100
AcDbLine
 10
15674.80217064596
 20
889.8747482146442
 30
0.0
 11
15674.80217064596
 21
917.8747482146436
 31
0.0
  0
LINE
  5
165DB
330
1624E
100
AcDbEntity
  8
YODOROGO
100
AcDbLine
 10
15674.80217064596
 20
917.8747482146436
 30
0.0
 11
15618.80217064596
 21
917.8747482146436
 31
0.0
  0
LINE
  5
165DC
330
1624E
100
AcDbEntity
  8
YODOROGO
100
AcDbLine
 10
15618.80217064596
 20
917.8747482146436
 30
0.0
 11
15618.80217064596
 21
889.8747482146442
 31
0.0
  0
LINE
  5
165DD
330
1624E
100
AcDbEntity
  8
YODOROGO
100
AcDbLine
 10
15618.80217064596
 20
889.8747482146442
 30
0.0
 11
15674.80217064596
 21
889.8747482146442
 31
0.0
  0
LINE
  5
165DE
330
1624E
100
AcDbEntity
  8
YODOROGO
100
AcDbLine
 10
15794.80217064596
 20
905.8747482146443
 30
0.0
 11
15794.80217064596
 21
713.8747482146436
 31
0.0
  0
LINE
  5
165DF
330
1624E
100
AcDbEntity
  8
YODOROGO
100
AcDbLine
 10
15794.80217064596
 20
713.8747482146436
 30
0.0
 11
15826.80217064596
 21
713.8747482146436
 31
0.0
  0
LINE
  5
165E0
330
1624E
100
AcDbEntity
  8
YODOROGO
100
AcDbLine
 10
15826.80217064596
 20
713.8747482146436
 30
0.0
 11
15826.80217064594
 21
905.8747482146443
 31
0.0
  0
LINE
  5
165E1
330
1624E
100
AcDbEntity
  8
YODOROGO
100
AcDbLine
 10
15826.80217064594
 20
905.8747482146443
 30
0.0
 11
15850.80217064596
 21
905.8747482146443
 31
0.0
  0
LINE
  5
165E2
330
1624E
100
AcDbEntity
  8
YODOROGO
100
AcDbLine
 10
15850.80217064596
 20
905.8747482146443
 30
0.0
 11
15850.80217064596
 21
937.8747482146435
 31
0.0
  0
LINE
  5
165E3
330
1624E
100
AcDbEntity
  8
YODOROGO
100
AcDbLine
 10
15850.80217064596
 20
937.8747482146435
 30
0.0
 11
15766.80217064594
 21
937.8747482146435
 31
0.0
  0
LINE
  5
165E4
330
1624E
100
AcDbEntity
  8
YODOROGO
100
AcDbLine
 10
15766.80217064594
 20
937.8747482146435
 30
0.0
 11
15766.80217064594
 21
957.8747482146436
 31
0.0
  0
LINE
  5
165E5
330
1624E
100
AcDbEntity
  8
YODOROGO
100
AcDbLine
 10
15766.80217064594
 20
957.8747482146436
 30
0.0
 11
15830.80217064596
 21
957.8747482146436
 31
0.0
  0
ARC
  5
165E6
330
1624E
100
AcDbEntity
  8
YODOROGO
100
AcDbCircle
 10
15830.80217064596
 20
977.8747482146435
 30
0.0
 40
20.0
100
AcDbArc
 50
270.0
 51
0.0
  0
LINE
  5
165E7
330
1624E
100
AcDbEntity
  8
YODOROGO
100
AcDbLine
 10
15850.80217064596
 20
977.8747482146435
 30
0.0
 11
15850.80217064596
 21
1013.874748214644
 31
0.0
  0
LINE
  5
165E8
330
1624E
100
AcDbEntity
  8
YODOROGO
100
AcDbLine
 10
15850.80217064596
 20
1013.874748214644
 30
0.0
 11
15818.80217064596
 21
1013.874748214644
 31
0.0
  0
LINE
  5
165E9
330
1624E
100
AcDbEntity
  8
YODOROGO
100
AcDbLine
 10
15818.80217064596
 20
1013.874748214644
 30
0.0
 11
15818.80217064596
 21
1001.874748214643
 31
0.0
  0
ARC
  5
165EA
330
1624E
100
AcDbEntity
  8
YODOROGO
100
AcDbCircle
 10
15810.80217064596
 20
1001.874748214642
 30
0.0
 40
7.999999999998181
100
AcDbArc
 50
270.000000000013
 51
0.0000000000113991
  0
LINE
  5
165EB
330
1624E
100
AcDbEntity
  8
YODOROGO
100
AcDbLine
 10
15810.80217064596
 20
993.8747482146439
 30
0.0
 11
15730.80217064594
 21
993.8747482146439
 31
0.0
  0
LINE
  5
165EC
330
1624E
100
AcDbEntity
  8
YODOROGO
100
AcDbLine
 10
15730.80217064594
 20
993.8747482146439
 30
0.0
 11
15730.80217064594
 21
817.8747482146436
 31
0.0
  0
ARC
  5
165ED
330
1624E
100
AcDbEntity
  8
YODOROGO
100
AcDbCircle
 10
15675.75903786228
 20
818.9194785088274
 30
0.0
 40
55.05304649180789
100
AcDbArc
 50
269.0041020930613
 51
358.912644554925
  0
LINE
  5
165EE
330
1624E
100
AcDbEntity
  8
YODOROGO
100
AcDbLine
 10
15674.80217064596
 20
763.8747482146435
 30
0.0
 11
15674.80217064596
 21
713.8747482146436
 31
0.0
  0
ARC
  5
165EF
330
1624E
100
AcDbEntity
  8
YODOROGO
100
AcDbCircle
 10
15676.95743255803
 20
803.8951756442784
 30
0.0
 40
90.04622428799427
100
AcDbArc
 50
268.6284910216973
 51
356.1663845733032
  0
LINE
  5
165F0
330
1624E
100
AcDbEntity
  8
YODOROGO
100
AcDbLine
 10
15766.80217064596
 20
797.8747482146435
 30
0.0
 11
15766.80217064594
 21
905.8747482146443
 31
0.0
  0
LINE
  5
165F1
330
1624E
100
AcDbEntity
  8
YODOROGO
100
AcDbLine
 10
15766.80217064594
 20
905.8747482146443
 30
0.0
 11
15794.80217064596
 21
905.8747482146443
 31
0.0
  0
LINE
  5
165F2
330
1624E
100
AcDbEntity
  8
YODOROGO
100
AcDbLine
 10
15449.80217064596
 20
909.8747482146439
 30
0.0
 11
15449.80217064596
 21
877.8747482146435
 31
0.0
  0
LINE
  5
165F3
330
1624E
100
AcDbEntity
  8
YODOROGO
100
AcDbLine
 10
15449.80217064596
 20
877.8747482146435
 30
0.0
 11
15361.80217064596
 21
877.8747482146435
 31
0.0
  0
LINE
  5
165F4
330
1624E
100
AcDbEntity
  8
YODOROGO
100
AcDbLine
 10
15361.80217064596
 20
877.8747482146435
 30
0.0
 11
15361.80217064596
 21
909.8747482146439
 31
0.0
  0
LINE
  5
165F5
330
1624E
100
AcDbEntity
  8
YODOROGO
100
AcDbLine
 10
15361.80217064596
 20
909.8747482146439
 30
0.0
 11
15374.80217064596
 21
909.8747482146439
 31
0.0
  0
LINE
  5
165F6
330
1624E
100
AcDbEntity
  8
YODOROGO
100
AcDbLine
 10
15374.80217064596
 20
909.8747482146439
 30
0.0
 11
15361.80217064596
 21
969.8747482146441
 31
0.0
  0
LINE
  5
165F7
330
1624E
100
AcDbEntity
  8
YODOROGO
100
AcDbLine
 10
15361.80217064596
 20
969.8747482146441
 30
0.0
 11
15385.80217064596
 21
969.8747482146441
 31
0.0
  0
LINE
  5
165F8
330
1624E
100
AcDbEntity
  8
YODOROGO
100
AcDbLine
 10
15385.80217064596
 20
969.8747482146441
 30
0.0
 11
15398.80217064596
 21
909.8747482146439
 31
0.0
  0
LINE
  5
165F9
330
1624E
100
AcDbEntity
  8
YODOROGO
100
AcDbLine
 10
15398.80217064596
 20
909.8747482146439
 30
0.0
 11
15412.80217064596
 21
909.8747482146439
 31
0.0
  0
LINE
  5
165FA
330
1624E
100
AcDbEntity
  8
YODOROGO
100
AcDbLine
 10
15412.80217064596
 20
909.8747482146439
 30
0.0
 11
15425.80217064596
 21
969.8747482146441
 31
0.0
  0
LINE
  5
165FB
330
1624E
100
AcDbEntity
  8
YODOROGO
100
AcDbLine
 10
15425.80217064596
 20
969.8747482146441
 30
0.0
 11
15449.80217064596
 21
969.8747482146441
 31
0.0
  0
LINE
  5
165FC
330
1624E
100
AcDbEntity
  8
YODOROGO
100
AcDbLine
 10
15449.80217064596
 20
969.8747482146441
 30
0.0
 11
15436.80217064595
 21
909.8747482146439
 31
0.0
  0
LINE
  5
165FD
330
1624E
100
AcDbEntity
  8
YODOROGO
100
AcDbLine
 10
15436.80217064595
 20
909.8747482146439
 30
0.0
 11
15449.80217064596
 21
909.8747482146439
 31
0.0
  0
LINE
  5
165FE
330
1624E
100
AcDbEntity
  8
YODOROGO
100
AcDbLine
 10
15010.80217064596
 20
1013.874748214644
 30
0.0
 11
15010.80217064596
 21
913.8747482146435
 31
0.0
  0
LINE
  5
165FF
330
1624E
100
AcDbEntity
  8
YODOROGO
100
AcDbLine
 10
15010.80217064596
 20
913.8747482146435
 30
0.0
 11
15040.80217064596
 21
913.8747482146435
 31
0.0
  0
LINE
  5
16600
330
1624E
100
AcDbEntity
  8
YODOROGO
100
AcDbLine
 10
15040.80217064596
 20
913.8747482146435
 30
0.0
 11
15040.80217064596
 21
1013.874748214644
 31
0.0
  0
LINE
  5
16601
330
1624E
100
AcDbEntity
  8
YODOROGO
100
AcDbLine
 10
15040.80217064596
 20
1013.874748214644
 30
0.0
 11
15010.80217064596
 21
1013.874748214644
 31
0.0
  0
LINE
  5
16602
330
1624E
100
AcDbEntity
  8
YODOROGO
100
AcDbLine
 10
15108.80217064596
 20
1013.874748214644
 30
0.0
 11
15108.80217064596
 21
893.8747482146439
 31
0.0
  0
ARC
  5
16603
330
1624E
100
AcDbEntity
  8
YODOROGO
100
AcDbCircle
 10
15068.80217064596
 20
893.8747482146439
 30
0.0
 40
40.0
100
AcDbArc
 50
270.0
 51
0.0
  0
LINE
  5
16604
330
1624E
100
AcDbEntity
  8
YODOROGO
100
AcDbLine
 10
15068.80217064596
 20
853.874748214644
 30
0.0
 11
15010.80217064596
 21
853.874748214644
 31
0.0
  0
LINE
  5
16605
330
1624E
100
AcDbEntity
  8
YODOROGO
100
AcDbLine
 10
15010.80217064596
 20
853.874748214644
 30
0.0
 11
15010.80217064596
 21
885.8747482146441
 31
0.0
  0
LINE
  5
16606
330
1624E
100
AcDbEntity
  8
YODOROGO
100
AcDbLine
 10
15010.80217064596
 20
885.8747482146441
 30
0.0
 11
15060.80217064596
 21
885.8747482146441
 31
0.0
  0
ARC
  5
16607
330
1624E
100
AcDbEntity
  8
YODOROGO
100
AcDbCircle
 10
15060.80217064596
 20
905.8747482146443
 30
0.0
 40
20.0
100
AcDbArc
 50
270.0
 51
0.0
  0
LINE
  5
16608
330
1624E
100
AcDbEntity
  8
YODOROGO
100
AcDbLine
 10
15080.80217064596
 20
905.8747482146443
 30
0.0
 11
15080.80217064596
 21
1013.874748214644
 31
0.0
  0
LINE
  5
16609
330
1624E
100
AcDbEntity
  8
YODOROGO
100
AcDbLine
 10
15080.80217064596
 20
1013.874748214644
 30
0.0
 11
15108.80217064596
 21
1013.874748214644
 31
0.0
  0
LINE
  5
1660A
330
1624E
100
AcDbEntity
  8
YODOROGO
100
AcDbLine
 10
15248.80217064596
 20
969.8747482146441
 30
0.0
 11
15190.80217064596
 21
909.8747482146439
 31
0.0
  0
LINE
  5
1660B
330
1624E
100
AcDbEntity
  8
YODOROGO
100
AcDbLine
 10
15190.80217064596
 20
909.8747482146439
 30
0.0
 11
15190.80217064596
 21
953.874748214644
 31
0.0
  0
LINE
  5
1660C
330
1624E
100
AcDbEntity
  8
YODOROGO
100
AcDbLine
 10
15190.80217064596
 20
953.874748214644
 30
0.0
 11
15248.80217064596
 21
1013.874748214644
 31
0.0
  0
LINE
  5
1660D
330
1624E
100
AcDbEntity
  8
YODOROGO
100
AcDbLine
 10
15248.80217064596
 20
1013.874748214644
 30
0.0
 11
15308.80217064596
 21
973.8747482146434
 31
0.0
  0
LINE
  5
1660E
330
1624E
100
AcDbEntity
  8
YODOROGO
100
AcDbLine
 10
15308.80217064596
 20
973.8747482146434
 30
0.0
 11
15308.80217064596
 21
929.874748214644
 31
0.0
  0
LINE
  5
1660F
330
1624E
100
AcDbEntity
  8
YODOROGO
100
AcDbLine
 10
15308.80217064596
 20
929.874748214644
 30
0.0
 11
15248.80217064596
 21
969.8747482146441
 31
0.0
  0
LINE
  5
16610
330
1624E
100
AcDbEntity
  8
YODOROGO
100
AcDbLine
 10
15190.80217064596
 20
786.8747482146444
 30
0.0
 11
15190.80217064596
 21
800.8747482146432
 31
0.0
  0
LINE
  5
16611
330
1624E
100
AcDbEntity
  8
YODOROGO
100
AcDbLine
 10
15190.80217064596
 20
800.8747482146432
 30
0.0
 11
15216.80217064596
 21
800.8747482146432
 31
0.0
  0
LINE
  5
16612
330
1624E
100
AcDbEntity
  8
YODOROGO
100
AcDbLine
 10
15216.80217064596
 20
800.8747482146432
 30
0.0
 11
15216.80217064596
 21
786.8747482146444
 31
0.0
  0
LINE
  5
16613
330
1624E
100
AcDbEntity
  8
YODOROGO
100
AcDbLine
 10
15216.80217064596
 20
786.8747482146444
 30
0.0
 11
15190.80217064596
 21
786.8747482146444
 31
0.0
  0
LINE
  5
16614
330
1624E
100
AcDbEntity
  8
YODOROGO
100
AcDbLine
 10
15192.80217064595
 20
788.8747482146436
 30
0.0
 11
15192.80217064595
 21
798.874748214644
 31
0.0
  0
LINE
  5
16615
330
1624E
100
AcDbEntity
  8
YODOROGO
100
AcDbLine
 10
15192.80217064595
 20
798.874748214644
 30
0.0
 11
15214.80217064596
 21
798.874748214644
 31
0.0
  0
LINE
  5
16616
330
1624E
100
AcDbEntity
  8
YODOROGO
100
AcDbLine
 10
15214.80217064596
 20
798.874748214644
 30
0.0
 11
15214.80217064596
 21
788.8747482146436
 31
0.0
  0
LINE
  5
16617
330
1624E
100
AcDbEntity
  8
YODOROGO
100
AcDbLine
 10
15214.80217064596
 20
788.8747482146436
 30
0.0
 11
15192.80217064595
 21
788.8747482146436
 31
0.0
  0
LINE
  5
16618
330
1624E
100
AcDbEntity
  8
YODOROGO
100
AcDbLine
 10
15194.80217064596
 20
790.8747482146432
 30
0.0
 11
15194.80217064596
 21
796.8747482146445
 31
0.0
  0
LINE
  5
16619
330
1624E
100
AcDbEntity
  8
YODOROGO
100
AcDbLine
 10
15194.80217064596
 20
796.8747482146445
 30
0.0
 11
15212.80217064596
 21
796.8747482146445
 31
0.0
  0
LINE
  5
1661A
330
1624E
100
AcDbEntity
  8
YODOROGO
100
AcDbLine
 10
15212.80217064596
 20
796.8747482146445
 30
0.0
 11
15212.80217064596
 21
790.8747482146432
 31
0.0
  0
LINE
  5
1661B
330
1624E
100
AcDbEntity
  8
YODOROGO
100
AcDbLine
 10
15212.80217064596
 20
790.8747482146432
 30
0.0
 11
15194.80217064596
 21
790.8747482146432
 31
0.0
  0
LINE
  5
1661C
330
1624E
100
AcDbEntity
  8
YODOROGO
100
AcDbLine
 10
15196.80217064596
 20
792.8747482146435
 30
0.0
 11
15196.80217064596
 21
794.8747482146441
 31
0.0
  0
LINE
  5
1661D
330
1624E
100
AcDbEntity
  8
YODOROGO
100
AcDbLine
 10
15196.80217064596
 20
794.8747482146441
 30
0.0
 11
15210.80217064596
 21
794.8747482146441
 31
0.0
  0
LINE
  5
1661E
330
1624E
100
AcDbEntity
  8
YODOROGO
100
AcDbLine
 10
15210.80217064596
 20
794.8747482146441
 30
0.0
 11
15210.80217064596
 21
792.8747482146435
 31
0.0
  0
LINE
  5
1661F
330
1624E
100
AcDbEntity
  8
YODOROGO
100
AcDbLine
 10
15210.80217064596
 20
792.8747482146435
 30
0.0
 11
15196.80217064596
 21
792.8747482146435
 31
0.0
  0
LINE
  5
16620
330
1624E
100
AcDbEntity
  8
YODOROGO
100
AcDbLine
 10
15415.80217064596
 20
877.8747482146435
 30
0.0
 11
15415.80217064596
 21
781.8747482146434
 31
0.0
  0
LINE
  5
16621
330
1624E
100
AcDbEntity
  8
YODOROGO
100
AcDbLine
 10
15415.80217064596
 20
781.8747482146434
 30
0.0
 11
15429.80217064596
 21
781.8747482146434
 31
0.0
  0
LINE
  5
16622
330
1624E
100
AcDbEntity
  8
YODOROGO
100
AcDbLine
 10
15429.80217064596
 20
781.8747482146434
 30
0.0
 11
15429.80217064596
 21
845.8747482146444
 31
0.0
  0
LINE
  5
16623
330
1624E
100
AcDbEntity
  8
YODOROGO
100
AcDbLine
 10
15429.80217064596
 20
845.8747482146444
 30
0.0
 11
15449.80217064596
 21
845.8747482146444
 31
0.0
  0
LINE
  5
16624
330
1624E
100
AcDbEntity
  8
YODOROGO
100
AcDbLine
 10
15449.80217064596
 20
845.8747482146444
 30
0.0
 11
15449.80217064596
 21
745.8747482146443
 31
0.0
  0
LINE
  5
16625
330
1624E
100
AcDbEntity
  8
YODOROGO
100
AcDbLine
 10
15449.80217064596
 20
745.8747482146443
 30
0.0
 11
15361.80217064596
 21
745.8747482146443
 31
0.0
  0
LINE
  5
16626
330
1624E
100
AcDbEntity
  8
YODOROGO
100
AcDbLine
 10
15361.80217064596
 20
745.8747482146443
 30
0.0
 11
15361.80217064596
 21
845.8747482146444
 31
0.0
  0
LINE
  5
16627
330
1624E
100
AcDbEntity
  8
YODOROGO
100
AcDbLine
 10
15361.80217064596
 20
845.8747482146444
 30
0.0
 11
15381.80217064596
 21
845.8747482146444
 31
0.0
  0
LINE
  5
16628
330
1624E
100
AcDbEntity
  8
YODOROGO
100
AcDbLine
 10
15381.80217064596
 20
845.8747482146444
 30
0.0
 11
15381.80217064596
 21
781.8747482146434
 31
0.0
  0
LINE
  5
16629
330
1624E
100
AcDbEntity
  8
YODOROGO
100
AcDbLine
 10
15381.80217064596
 20
781.8747482146434
 30
0.0
 11
15395.80217064596
 21
781.8747482146434
 31
0.0
  0
LINE
  5
1662A
330
1624E
100
AcDbEntity
  8
YODOROGO
100
AcDbLine
 10
15395.80217064596
 20
781.8747482146434
 30
0.0
 11
15395.80217064596
 21
877.8747482146435
 31
0.0
  0
LINE
  5
1662B
330
1624E
100
AcDbEntity
  8
YODOROGO
100
AcDbLine
 10
15395.80217064596
 20
877.8747482146435
 30
0.0
 11
15415.80217064596
 21
877.8747482146435
 31
0.0
  0
LINE
  5
1662C
330
1624E
100
AcDbEntity
  8
YODOROGO
100
AcDbLine
 10
15462.80217064596
 20
773.874748214644
 30
0.0
 11
15462.80217064596
 21
981.8747482146434
 31
0.0
  0
LINE
  5
1662D
330
1624E
100
AcDbEntity
  8
YODOROGO
100
AcDbLine
 10
15462.80217064596
 20
981.8747482146434
 30
0.0
 11
15348.80217064596
 21
981.8747482146434
 31
0.0
  0
LINE
  5
1662E
330
1624E
100
AcDbEntity
  8
YODOROGO
100
AcDbLine
 10
15348.80217064596
 20
981.8747482146434
 30
0.0
 11
15348.80217064596
 21
713.8747482146436
 31
0.0
  0
LINE
  5
1662F
330
1624E
100
AcDbEntity
  8
YODOROGO
100
AcDbLine
 10
15348.80217064596
 20
713.8747482146436
 30
0.0
 11
15322.80217064596
 21
713.8747482146436
 31
0.0
  0
LINE
  5
16630
330
1624E
100
AcDbEntity
  8
YODOROGO
100
AcDbLine
 10
15322.80217064596
 20
713.8747482146436
 30
0.0
 11
15322.80217064596
 21
1013.874748214644
 31
0.0
  0
LINE
  5
16631
330
1624E
100
AcDbEntity
  8
YODOROGO
100
AcDbLine
 10
15322.80217064596
 20
1013.874748214644
 30
0.0
 11
15486.80217064596
 21
1013.874748214644
 31
0.0
  0
LINE
  5
16632
330
1624E
100
AcDbEntity
  8
YODOROGO
100
AcDbLine
 10
15486.80217064596
 20
1013.874748214644
 30
0.0
 11
15486.80217064596
 21
733.8747482146435
 31
0.0
  0
ARC
  5
16633
330
1624E
100
AcDbEntity
  8
YODOROGO
100
AcDbCircle
 10
15466.80217064596
 20
733.8747482146435
 30
0.0
 40
20.0
100
AcDbArc
 50
270.0
 51
0.0
  0
LINE
  5
16634
330
1624E
100
AcDbEntity
  8
YODOROGO
100
AcDbLine
 10
15466.80217064596
 20
713.8747482146436
 30
0.0
 11
15449.80217064596
 21
713.8747482146436
 31
0.0
  0
LINE
  5
16635
330
1624E
100
AcDbEntity
  8
YODOROGO
100
AcDbLine
 10
15449.80217064596
 20
713.8747482146436
 30
0.0
 11
15449.80217064596
 21
773.874748214644
 31
0.0
  0
LINE
  5
16636
330
1624E
100
AcDbEntity
  8
YODOROGO
100
AcDbLine
 10
15449.80217064596
 20
773.874748214644
 30
0.0
 11
15462.80217064596
 21
773.874748214644
 31
0.0
  0
LINE
  5
16637
330
1624E
100
AcDbEntity
  8
YODOROGO
100
AcDbLine
 10
15232.80217064596
 20
867.8747482146436
 30
0.0
 11
15190.80217064596
 21
867.8747482146436
 31
0.0
  0
LINE
  5
16638
330
1624E
100
AcDbEntity
  8
YODOROGO
100
AcDbLine
 10
15190.80217064596
 20
867.8747482146436
 30
0.0
 11
15190.80217064596
 21
897.8747482146435
 31
0.0
  0
LINE
  5
16639
330
1624E
100
AcDbEntity
  8
YODOROGO
100
AcDbLine
 10
15190.80217064596
 20
897.8747482146435
 30
0.0
 11
15308.80217064596
 21
897.8747482146435
 31
0.0
  0
LINE
  5
1663A
330
1624E
100
AcDbEntity
  8
YODOROGO
100
AcDbLine
 10
15308.80217064596
 20
897.8747482146435
 30
0.0
 11
15308.80217064596
 21
867.8747482146436
 31
0.0
  0
LINE
  5
1663B
330
1624E
100
AcDbEntity
  8
YODOROGO
100
AcDbLine
 10
15308.80217064596
 20
867.8747482146436
 30
0.0
 11
15264.80217064596
 21
867.8747482146436
 31
0.0
  0
LINE
  5
1663C
330
1624E
100
AcDbEntity
  8
YODOROGO
100
AcDbLine
 10
15264.80217064596
 20
867.8747482146436
 30
0.0
 11
15264.80217064596
 21
839.8747482146442
 31
0.0
  0
LINE
  5
1663D
330
1624E
100
AcDbEntity
  8
YODOROGO
100
AcDbLine
 10
15264.80217064596
 20
839.8747482146442
 30
0.0
 11
15308.80217064596
 21
839.8747482146442
 31
0.0
  0
LINE
  5
1663E
330
1624E
100
AcDbEntity
  8
YODOROGO
100
AcDbLine
 10
15308.80217064596
 20
839.8747482146442
 30
0.0
 11
15308.80217064596
 21
813.8747482146435
 31
0.0
  0
LINE
  5
1663F
330
1624E
100
AcDbEntity
  8
YODOROGO
100
AcDbLine
 10
15308.80217064596
 20
813.8747482146435
 30
0.0
 11
15264.80217064596
 21
813.8747482146435
 31
0.0
  0
LINE
  5
16640
330
1624E
100
AcDbEntity
  8
YODOROGO
100
AcDbLine
 10
15264.80217064596
 20
813.8747482146435
 30
0.0
 11
15264.80217064596
 21
773.874748214644
 31
0.0
  0
LINE
  5
16641
330
1624E
100
AcDbEntity
  8
YODOROGO
100
AcDbLine
 10
15264.80217064596
 20
773.874748214644
 30
0.0
 11
15272.80217064594
 21
773.874748214644
 31
0.0
  0
ARC
  5
16642
330
1624E
100
AcDbEntity
  8
YODOROGO
100
AcDbCircle
 10
15272.80217064596
 20
785.8747482146461
 30
0.0
 40
12.00000000000227
100
AcDbArc
 50
269.9999999999914
 51
359.9999999999859
  0
LINE
  5
16643
330
1624E
100
AcDbEntity
  8
YODOROGO
100
AcDbLine
 10
15284.80217064596
 20
785.8747482146432
 30
0.0
 11
15284.80217064596
 21
799.8747482146441
 31
0.0
  0
LINE
  5
16644
330
1624E
100
AcDbEntity
  8
YODOROGO
100
AcDbLine
 10
15284.80217064596
 20
799.8747482146441
 30
0.0
 11
15308.80217064596
 21
799.8747482146441
 31
0.0
  0
LINE
  5
16645
330
1624E
100
AcDbEntity
  8
YODOROGO
100
AcDbLine
 10
15308.80217064596
 20
799.8747482146441
 30
0.0
 11
15308.80217064596
 21
753.8747482146439
 31
0.0
  0
ARC
  5
16646
330
1624E
100
AcDbEntity
  8
YODOROGO
100
AcDbCircle
 10
15268.80217064596
 20
753.8747482146439
 30
0.0
 40
40.0
100
AcDbArc
 50
270.0
 51
0.0
  0
LINE
  5
16647
330
1624E
100
AcDbEntity
  8
YODOROGO
100
AcDbLine
 10
15268.80217064596
 20
713.8747482146436
 30
0.0
 11
15190.80217064596
 21
713.8747482146436
 31
0.0
  0
LINE
  5
16648
330
1624E
100
AcDbEntity
  8
YODOROGO
100
AcDbLine
 10
15190.80217064596
 20
713.8747482146436
 30
0.0
 11
15190.80217064596
 21
773.874748214644
 31
0.0
  0
LINE
  5
16649
330
1624E
100
AcDbEntity
  8
YODOROGO
100
AcDbLine
 10
15190.80217064596
 20
773.874748214644
 30
0.0
 11
15232.80217064596
 21
773.874748214644
 31
0.0
  0
LINE
  5
1664A
330
1624E
100
AcDbEntity
  8
YODOROGO
100
AcDbLine
 10
15232.80217064596
 20
773.874748214644
 30
0.0
 11
15232.80217064596
 21
813.8747482146435
 31
0.0
  0
LINE
  5
1664B
330
1624E
100
AcDbEntity
  8
YODOROGO
100
AcDbLine
 10
15232.80217064596
 20
813.8747482146435
 30
0.0
 11
15190.80217064596
 21
813.8747482146435
 31
0.0
  0
LINE
  5
1664C
330
1624E
100
AcDbEntity
  8
YODOROGO
100
AcDbLine
 10
15190.80217064596
 20
813.8747482146435
 30
0.0
 11
15190.80217064596
 21
839.8747482146442
 31
0.0
  0
LINE
  5
1664D
330
1624E
100
AcDbEntity
  8
YODOROGO
100
AcDbLine
 10
15190.80217064596
 20
839.8747482146442
 30
0.0
 11
15232.80217064596
 21
839.8747482146442
 31
0.0
  0
LINE
  5
1664E
330
1624E
100
AcDbEntity
  8
YODOROGO
100
AcDbLine
 10
15232.80217064596
 20
839.8747482146442
 30
0.0
 11
15232.80217064596
 21
867.8747482146436
 31
0.0
  0
LINE
  5
1664F
330
1624E
100
AcDbEntity
  8
YODOROGO
100
AcDbLine
 10
15618.80217064596
 20
797.8747482146435
 30
0.0
 11
15618.80217064596
 21
853.874748214644
 31
0.0
  0
LINE
  5
16650
330
1624E
100
AcDbEntity
  8
YODOROGO
100
AcDbLine
 10
15618.80217064596
 20
853.874748214644
 30
0.0
 11
15706.80217064596
 21
853.874748214644
 31
0.0
  0
LINE
  5
16651
330
1624E
100
AcDbEntity
  8
YODOROGO
100
AcDbLine
 10
15706.80217064596
 20
853.874748214644
 30
0.0
 11
15706.80217064596
 21
953.874748214644
 31
0.0
  0
LINE
  5
16652
330
1624E
100
AcDbEntity
  8
YODOROGO
100
AcDbLine
 10
15706.80217064596
 20
953.874748214644
 30
0.0
 11
15582.80217064596
 21
953.874748214644
 31
0.0
  0
LINE
  5
16653
330
1624E
100
AcDbEntity
  8
YODOROGO
100
AcDbLine
 10
15582.80217064596
 20
953.874748214644
 30
0.0
 11
15582.80217064596
 21
817.8747482146436
 31
0.0
  0
ARC
  5
16654
330
1624E
100
AcDbEntity
  8
YODOROGO
100
AcDbCircle
 10
15519.86069778339
 20
818.7656950548657
 30
0.0
 40
62.94777829583679
100
AcDbArc
 50
295.3405244216012
 51
359.1890230341872
  0
LINE
  5
16655
330
1624E
100
AcDbEntity
  8
YODOROGO
100
AcDbLine
 10
15546.80217064596
 20
761.8747482146434
 30
0.0
 11
15546.80217064596
 21
713.8747482146436
 31
0.0
  0
ARC
  5
16656
330
1624E
100
AcDbEntity
  8
YODOROGO
100
AcDbCircle
 10
15529.75894667896
 20
801.3403687577881
 30
0.0
 40
89.11064055536114
100
AcDbArc
 50
281.0262749542548
 51
357.771135755738
  0
LINE
  5
16657
330
1624E
100
AcDbEntity
  8
YODOROGO
100
AcDbLine
 10
15582.80217064596
 20
1013.874748214644
 30
0.0
 11
15582.80217064596
 21
981.8747482146434
 31
0.0
  0
LINE
  5
16658
330
1624E
100
AcDbEntity
  8
YODOROGO
100
AcDbLine
 10
15582.80217064596
 20
981.8747482146434
 30
0.0
 11
15706.80217064596
 21
981.8747482146434
 31
0.0
  0
LINE
  5
16659
330
1624E
100
AcDbEntity
  8
YODOROGO
100
AcDbLine
 10
15706.80217064596
 20
981.8747482146434
 30
0.0
 11
15706.80217064596
 21
1013.874748214644
 31
0.0
  0
LINE
  5
1665A
330
1624E
100
AcDbEntity
  8
YODOROGO
100
AcDbLine
 10
15706.80217064596
 20
1013.874748214644
 30
0.0
 11
15582.80217064596
 21
1013.874748214644
 31
0.0
  0
ARC
  5
1665B
330
1624E
100
AcDbEntity
  8
YODOROGO
100
AcDbCircle
 10
14454.5930853599
 20
796.3053643052199
 30
0.0
 40
82.46021178042751
100
AcDbArc
 50
271.5351210653781
 51
355.5272775058505
  0
LINE
  5
1665C
330
1624E
100
AcDbEntity
  8
YODOROGO
100
AcDbLine
 10
14536.80217064596
 20
789.8747482146441
 30
0.0
 11
14536.80217064596
 21
1013.874748214644
 31
0.0
  0
LINE
  5
1665D
330
1624E
100
AcDbEntity
  8
YODOROGO
100
AcDbLine
 10
14536.80217064596
 20
1013.874748214644
 30
0.0
 11
14500.80217064594
 21
1013.874748214644
 31
0.0
  0
LINE
  5
1665E
330
1624E
100
AcDbEntity
  8
YODOROGO
100
AcDbLine
 10
14500.80217064594
 20
1013.874748214644
 30
0.0
 11
14500.80217064594
 21
809.8747482146441
 31
0.0
  0
ARC
  5
1665F
330
1624E
100
AcDbEntity
  8
YODOROGO
100
AcDbCircle
 10
14453.45578809342
 20
809.1089322211363
 30
0.0
 40
47.35257558937173
100
AcDbArc
 50
274.0524416290722
 51
0.9266642149309848
  0
LINE
  5
16660
330
1624E
100
AcDbEntity
  8
YODOROGO
100
AcDbLine
 10
14456.80217064596
 20
761.8747482146434
 30
0.0
 11
14456.80217064596
 21
713.8747482146436
 31
0.0
  0
LINE
  5
16661
330
1624E
100
AcDbEntity
  8
YODOROGO
100
AcDbLine
 10
14630.80217064596
 20
1003.874748214644
 30
0.0
 11
14598.80217064596
 21
1003.874748214644
 31
0.0
  0
LINE
  5
16662
330
1624E
100
AcDbEntity
  8
YODOROGO
100
AcDbLine
 10
14598.80217064596
 20
1003.874748214644
 30
0.0
 11
14598.80217064596
 21
745.8747482146431
 31
0.0
  0
LINE
  5
16663
330
1624E
100
AcDbEntity
  8
YODOROGO
100
AcDbLine
 10
14598.80217064596
 20
745.8747482146431
 30
0.0
 11
14630.80217064596
 21
745.8747482146431
 31
0.0
  0
LINE
  5
16664
330
1624E
100
AcDbEntity
  8
YODOROGO
100
AcDbLine
 10
14630.80217064596
 20
745.8747482146431
 30
0.0
 11
14630.80217064596
 21
1003.874748214644
 31
0.0
  0
LINE
  5
16665
330
1624E
100
AcDbEntity
  8
YODOROGO
100
AcDbLine
 10
14728.80217064596
 20
713.8747482146436
 30
0.0
 11
14728.80217064596
 21
1013.874748214644
 31
0.0
  0
LINE
  5
16666
330
1624E
100
AcDbEntity
  8
YODOROGO
100
AcDbLine
 10
14728.80217064596
 20
1013.874748214644
 30
0.0
 11
14692.80217064596
 21
1013.874748214644
 31
0.0
  0
LINE
  5
16667
330
1624E
100
AcDbEntity
  8
YODOROGO
100
AcDbLine
 10
14692.80217064596
 20
1013.874748214644
 30
0.0
 11
14692.80217064596
 21
713.8747482146436
 31
0.0
  0
LINE
  5
16668
330
1624E
100
AcDbEntity
  8
YODOROGO
100
AcDbLine
 10
14692.80217064596
 20
713.8747482146436
 30
0.0
 11
14728.80217064596
 21
713.8747482146436
 31
0.0
  0
LINE
  5
16669
330
1624E
100
AcDbEntity
  8
YODOROGO
100
AcDbLine
 10
14064.80217064595
 20
873.8747482146434
 30
0.0
 11
14068.80217064596
 21
873.8747482146434
 31
0.0
1001
AUTOCAD_POSTSCRIPT_FIGURE
1002
{
1000
PSFILL
1000
Grayscale
1000
Grayscale
1070
   100
1002
}
  0
LINE
  5
1666A
330
1624E
100
AcDbEntity
  8
YODOROGO
100
AcDbLine
 10
14068.80217064596
 20
873.8747482146434
 30
0.0
 11
14049.45149343671
 21
969.8747482146441
 31
0.0
1001
AUTOCAD_POSTSCRIPT_FIGURE
1002
{
1000
PSFILL
1000
Grayscale
1000
Grayscale
1070
   100
1002
}
  0
LINE
  5
1666B
330
1624E
100
AcDbEntity
  8
YODOROGO
100
AcDbLine
 10
14049.45149343671
 20
969.8747482146441
 30
0.0
 11
14068.80217064596
 21
969.8747482146441
 31
0.0
1001
AUTOCAD_POSTSCRIPT_FIGURE
1002
{
1000
PSFILL
1000
Grayscale
1000
Grayscale
1070
   100
1002
}
  0
LINE
  5
1666C
330
1624E
100
AcDbEntity
  8
YODOROGO
100
AcDbLine
 10
14068.80217064596
 20
969.8747482146441
 30
0.0
 11
14068.80217064596
 21
977.8747482146435
 31
0.0
1001
AUTOCAD_POSTSCRIPT_FIGURE
1002
{
1000
PSFILL
1000
Grayscale
1000
Grayscale
1070
   100
1002
}
  0
LINE
  5
1666D
330
1624E
100
AcDbEntity
  8
YODOROGO
100
AcDbLine
 10
14068.80217064596
 20
977.8747482146435
 30
0.0
 11
14068.80217064596
 21
989.8747482146442
 31
0.0
1001
AUTOCAD_POSTSCRIPT_FIGURE
1002
{
1000
PSFILL
1000
Grayscale
1000
Grayscale
1070
   100
1002
}
  0
LINE
  5
1666E
330
1624E
100
AcDbEntity
  8
YODOROGO
100
AcDbLine
 10
14068.80217064596
 20
989.8747482146442
 30
0.0
 11
14060.80217064596
 21
989.8747482146442
 31
0.0
1001
AUTOCAD_POSTSCRIPT_FIGURE
1002
{
1000
PSFILL
1000
Grayscale
1000
Grayscale
1070
   100
1002
}
  0
LINE
  5
1666F
330
1624E
100
AcDbEntity
  8
YODOROGO
100
AcDbLine
 10
14060.80217064596
 20
989.8747482146442
 30
0.0
 11
14060.80217064596
 21
977.8747482146435
 31
0.0
1001
AUTOCAD_POSTSCRIPT_FIGURE
1002
{
1000
PSFILL
1000
Grayscale
1000
Grayscale
1070
   100
1002
}
  0
LINE
  5
16670
330
1624E
100
AcDbEntity
  8
YODOROGO
100
AcDbLine
 10
14060.80217064596
 20
977.8747482146435
 30
0.0
 11
14047.90343925997
 21
977.8747482146435
 31
0.0
1001
AUTOCAD_POSTSCRIPT_FIGURE
1002
{
1000
PSFILL
1000
Grayscale
1000
Grayscale
1070
   100
1002
}
  0
LINE
  5
16671
330
1624E
100
AcDbEntity
  8
YODOROGO
100
AcDbLine
 10
14047.90343925997
 20
977.8747482146435
 30
0.0
 11
14045.58135799485
 21
989.8747482146442
 31
0.0
1001
AUTOCAD_POSTSCRIPT_FIGURE
1002
{
1000
PSFILL
1000
Grayscale
1000
Grayscale
1070
   100
1002
}
  0
LINE
  5
16672
330
1624E
100
AcDbEntity
  8
YODOROGO
100
AcDbLine
 10
14045.58135799485
 20
989.8747482146442
 30
0.0
 11
14035.58135799485
 21
989.8747482146442
 31
0.0
1001
AUTOCAD_POSTSCRIPT_FIGURE
1002
{
1000
PSFILL
1000
Grayscale
1000
Grayscale
1070
   100
1002
}
  0
LINE
  5
16673
330
1624E
100
AcDbEntity
  8
YODOROGO
100
AcDbLine
 10
14035.58135799485
 20
989.8747482146442
 30
0.0
 11
14038.30343925995
 21
977.8747482146435
 31
0.0
1001
AUTOCAD_POSTSCRIPT_FIGURE
1002
{
1000
PSFILL
1000
Grayscale
1000
Grayscale
1070
   100
1002
}
  0
LINE
  5
16674
330
1624E
100
AcDbEntity
  8
YODOROGO
100
AcDbLine
 10
14038.30343925995
 20
977.8747482146435
 30
0.0
 11
13988.80217064596
 21
977.8747482146435
 31
0.0
1001
AUTOCAD_POSTSCRIPT_FIGURE
1002
{
1000
PSFILL
1000
Grayscale
1000
Grayscale
1070
   100
1002
}
  0
LINE
  5
16675
330
1624E
100
AcDbEntity
  8
YODOROGO
100
AcDbLine
 10
13988.80217064596
 20
977.8747482146435
 30
0.0
 11
13988.80217064596
 21
969.8747482146441
 31
0.0
1001
AUTOCAD_POSTSCRIPT_FIGURE
1002
{
1000
PSFILL
1000
Grayscale
1000
Grayscale
1070
   100
1002
}
  0
LINE
  5
16676
330
1624E
100
AcDbEntity
  8
YODOROGO
100
AcDbLine
 10
13988.80217064596
 20
969.8747482146441
 30
0.0
 11
14040.11816010337
 21
969.8747482146441
 31
0.0
1001
AUTOCAD_POSTSCRIPT_FIGURE
1002
{
1000
PSFILL
1000
Grayscale
1000
Grayscale
1070
   100
1002
}
  0
LINE
  5
16677
330
1624E
100
AcDbEntity
  8
YODOROGO
100
AcDbLine
 10
14040.11816010337
 20
969.8747482146441
 30
0.0
 11
14064.80217064595
 21
873.8747482146434
 31
0.0
1001
AUTOCAD_POSTSCRIPT_FIGURE
1002
{
1000
PSFILL
1000
Grayscale
1000
Grayscale
1070
   100
1002
}
  0
LINE
  5
16678
330
1624E
100
AcDbEntity
  8
YODOROGO
100
AcDbLine
 10
13988.80217064596
 20
873.8747482146434
 30
0.0
 11
13988.80217064596
 21
885.8747482146432
 31
0.0
  0
LINE
  5
16679
330
1624E
100
AcDbEntity
  8
YODOROGO
100
AcDbLine
 10
13988.80217064596
 20
885.8747482146432
 30
0.0
 11
14010.91839030643
 21
892.3366697971587
 31
0.0
  0
LINE
  5
1667A
330
1624E
100
AcDbEntity
  8
YODOROGO
100
AcDbLine
 10
14010.91839030643
 20
892.3366697971587
 30
0.0
 11
14010.91839030643
 21
936.2841744681499
 31
0.0
  0
LINE
  5
1667B
330
1624E
100
AcDbEntity
  8
YODOROGO
100
AcDbLine
 10
14010.91839030643
 20
936.2841744681499
 30
0.0
 11
13988.80217064596
 21
936.2841744681499
 31
0.0
  0
LINE
  5
1667C
330
1624E
100
AcDbEntity
  8
YODOROGO
100
AcDbLine
 10
13988.80217064596
 20
936.2841744681499
 30
0.0
 11
13988.80217064596
 21
946.2841744681487
 31
0.0
  0
LINE
  5
1667D
330
1624E
100
AcDbEntity
  8
YODOROGO
100
AcDbLine
 10
13988.80217064596
 20
946.2841744681487
 30
0.0
 11
14039.03460996689
 21
946.2841744681487
 31
0.0
  0
LINE
  5
1667E
330
1624E
100
AcDbEntity
  8
YODOROGO
100
AcDbLine
 10
14039.03460996689
 20
946.2841744681487
 30
0.0
 11
14039.03460996689
 21
936.2841744681499
 31
0.0
  0
LINE
  5
1667F
330
1624E
100
AcDbEntity
  8
YODOROGO
100
AcDbLine
 10
14039.03460996689
 20
936.2841744681499
 30
0.0
 11
14016.91839030643
 21
936.2841744681499
 31
0.0
  0
LINE
  5
16680
330
1624E
100
AcDbEntity
  8
YODOROGO
100
AcDbLine
 10
14016.91839030643
 20
936.2841744681499
 30
0.0
 11
14016.91839030643
 21
893.4084665668834
 31
0.0
  0
LINE
  5
16681
330
1624E
100
AcDbEntity
  8
YODOROGO
100
AcDbLine
 10
14016.91839030643
 20
893.4084665668834
 30
0.0
 11
14039.03460996689
 21
899.3344897645364
 31
0.0
  0
LINE
  5
16682
330
1624E
100
AcDbEntity
  8
YODOROGO
100
AcDbLine
 10
14039.03460996689
 20
899.3344897645364
 30
0.0
 11
14039.03460996689
 21
887.8703881493972
 31
0.0
  0
LINE
  5
16683
330
1624E
100
AcDbEntity
  8
YODOROGO
100
AcDbLine
 10
14039.03460996689
 20
887.8703881493972
 30
0.0
 11
13988.80217064596
 21
873.8747482146434
 31
0.0
  0
LINE
  5
16684
330
1624E
100
AcDbEntity
  8
YODOROGO
100
AcDbLine
 10
14200.80217064594
 20
912.4388128201532
 30
0.0
 11
14200.80217064594
 21
876.4388128201531
 31
0.0
1001
AUTOCAD_POSTSCRIPT_FIGURE
1002
{
1000
PSFILL
1000
Grayscale
1000
Grayscale
1070
   100
1002
}
  0
LINE
  5
16685
330
1624E
100
AcDbEntity
  8
YODOROGO
100
AcDbLine
 10
14200.80217064594
 20
876.4388128201531
 30
0.0
 11
14128.80217064596
 21
897.8747482146435
 31
0.0
1001
AUTOCAD_POSTSCRIPT_FIGURE
1002
{
1000
PSFILL
1000
Grayscale
1000
Grayscale
1070
   100
1002
}
  0
LINE
  5
16686
330
1624E
100
AcDbEntity
  8
YODOROGO
100
AcDbLine
 10
14128.80217064596
 20
897.8747482146435
 30
0.0
 11
14128.80217064596
 21
933.8747482146439
 31
0.0
1001
AUTOCAD_POSTSCRIPT_FIGURE
1002
{
1000
PSFILL
1000
Grayscale
1000
Grayscale
1070
   100
1002
}
  0
LINE
  5
16687
330
1624E
100
AcDbEntity
  8
YODOROGO
100
AcDbLine
 10
14128.80217064596
 20
933.8747482146439
 30
0.0
 11
14200.80217064594
 21
912.4388128201532
 31
0.0
1001
AUTOCAD_POSTSCRIPT_FIGURE
1002
{
1000
PSFILL
1000
Grayscale
1000
Grayscale
1070
   100
1002
}
  0
LINE
  5
16688
330
1624E
100
AcDbEntity
  8
YODOROGO
100
AcDbLine
 10
14128.80217064596
 20
1013.874748214644
 30
0.0
 11
14128.80217064596
 21
979.874748214644
 31
0.0
1001
AUTOCAD_POSTSCRIPT_FIGURE
1002
{
1000
PSFILL
1000
Grayscale
1000
Grayscale
1070
   100
1002
}
  0
LINE
  5
16689
330
1624E
100
AcDbEntity
  8
YODOROGO
100
AcDbLine
 10
14128.80217064596
 20
979.874748214644
 30
0.0
 11
14200.80217064594
 21
958.4388128201537
 31
0.0
1001
AUTOCAD_POSTSCRIPT_FIGURE
1002
{
1000
PSFILL
1000
Grayscale
1000
Grayscale
1070
   100
1002
}
  0
LINE
  5
1668A
330
1624E
100
AcDbEntity
  8
YODOROGO
100
AcDbLine
 10
14200.80217064594
 20
958.4388128201537
 30
0.0
 11
14200.80217064594
 21
992.4388128201531
 31
0.0
1001
AUTOCAD_POSTSCRIPT_FIGURE
1002
{
1000
PSFILL
1000
Grayscale
1000
Grayscale
1070
   100
1002
}
  0
LINE
  5
1668B
330
1624E
100
AcDbEntity
  8
YODOROGO
100
AcDbLine
 10
14200.80217064594
 20
992.4388128201531
 30
0.0
 11
14128.80217064596
 21
1013.874748214644
 31
0.0
1001
AUTOCAD_POSTSCRIPT_FIGURE
1002
{
1000
PSFILL
1000
Grayscale
1000
Grayscale
1070
   100
1002
}
  0
LINE
  5
1668C
330
1624E
100
AcDbEntity
  8
YODOROGO
100
AcDbLine
 10
13888.80217064596
 20
921.8883739758362
 30
0.0
 11
13888.80217064596
 21
929.8883739758355
 31
0.0
1001
AUTOCAD_POSTSCRIPT_FIGURE
1002
{
1000
PSFILL
1000
Grayscale
1000
Grayscale
1070
   100
1002
}
  0
LINE
  5
1668D
330
1624E
100
AcDbEntity
  8
YODOROGO
100
AcDbLine
 10
13888.80217064596
 20
929.8883739758355
 30
0.0
 11
13900.80217064596
 21
957.3932903968525
 31
0.0
1001
AUTOCAD_POSTSCRIPT_FIGURE
1002
{
1000
PSFILL
1000
Grayscale
1000
Grayscale
1070
   100
1002
}
  0
LINE
  5
1668E
330
1624E
100
AcDbEntity
  8
YODOROGO
100
AcDbLine
 10
13900.80217064596
 20
957.3932903968525
 30
0.0
 11
13900.80217064596
 21
969.8747482146441
 31
0.0
1001
AUTOCAD_POSTSCRIPT_FIGURE
1002
{
1000
PSFILL
1000
Grayscale
1000
Grayscale
1070
   100
1002
}
  0
LINE
  5
1668F
330
1624E
100
AcDbEntity
  8
YODOROGO
100
AcDbLine
 10
13900.80217064596
 20
969.8747482146441
 30
0.0
 11
13888.80217064596
 21
969.8747482146441
 31
0.0
1001
AUTOCAD_POSTSCRIPT_FIGURE
1002
{
1000
PSFILL
1000
Grayscale
1000
Grayscale
1070
   100
1002
}
  0
LINE
  5
16690
330
1624E
100
AcDbEntity
  8
YODOROGO
100
AcDbLine
 10
13888.80217064596
 20
969.8747482146441
 30
0.0
 11
13888.80217064596
 21
977.8747482146435
 31
0.0
1001
AUTOCAD_POSTSCRIPT_FIGURE
1002
{
1000
PSFILL
1000
Grayscale
1000
Grayscale
1070
   100
1002
}
  0
LINE
  5
16691
330
1624E
100
AcDbEntity
  8
YODOROGO
100
AcDbLine
 10
13888.80217064596
 20
977.8747482146435
 30
0.0
 11
13900.80217064596
 21
977.8747482146435
 31
0.0
1001
AUTOCAD_POSTSCRIPT_FIGURE
1002
{
1000
PSFILL
1000
Grayscale
1000
Grayscale
1070
   100
1002
}
  0
LINE
  5
16692
330
1624E
100
AcDbEntity
  8
YODOROGO
100
AcDbLine
 10
13900.80217064596
 20
977.8747482146435
 30
0.0
 11
13900.80217064596
 21
989.8747482146442
 31
0.0
1001
AUTOCAD_POSTSCRIPT_FIGURE
1002
{
1000
PSFILL
1000
Grayscale
1000
Grayscale
1070
   100
1002
}
  0
LINE
  5
16693
330
1624E
100
AcDbEntity
  8
YODOROGO
100
AcDbLine
 10
13900.80217064596
 20
989.8747482146442
 30
0.0
 11
13908.80217064596
 21
989.8747482146442
 31
0.0
1001
AUTOCAD_POSTSCRIPT_FIGURE
1002
{
1000
PSFILL
1000
Grayscale
1000
Grayscale
1070
   100
1002
}
  0
LINE
  5
16694
330
1624E
100
AcDbEntity
  8
YODOROGO
100
AcDbLine
 10
13908.80217064596
 20
989.8747482146442
 30
0.0
 11
13908.80217064596
 21
977.8747482146435
 31
0.0
1001
AUTOCAD_POSTSCRIPT_FIGURE
1002
{
1000
PSFILL
1000
Grayscale
1000
Grayscale
1070
   100
1002
}
  0
LINE
  5
16695
330
1624E
100
AcDbEntity
  8
YODOROGO
100
AcDbLine
 10
13908.80217064596
 20
977.8747482146435
 30
0.0
 11
13924.80217064596
 21
977.8747482146435
 31
0.0
1001
AUTOCAD_POSTSCRIPT_FIGURE
1002
{
1000
PSFILL
1000
Grayscale
1000
Grayscale
1070
   100
1002
}
  0
LINE
  5
16696
330
1624E
100
AcDbEntity
  8
YODOROGO
100
AcDbLine
 10
13924.80217064596
 20
977.8747482146435
 30
0.0
 11
13924.80217064596
 21
989.8747482146442
 31
0.0
1001
AUTOCAD_POSTSCRIPT_FIGURE
1002
{
1000
PSFILL
1000
Grayscale
1000
Grayscale
1070
   100
1002
}
  0
LINE
  5
16697
330
1624E
100
AcDbEntity
  8
YODOROGO
100
AcDbLine
 10
13924.80217064596
 20
989.8747482146442
 30
0.0
 11
13932.80217064596
 21
989.8747482146442
 31
0.0
1001
AUTOCAD_POSTSCRIPT_FIGURE
1002
{
1000
PSFILL
1000
Grayscale
1000
Grayscale
1070
   100
1002
}
  0
LINE
  5
16698
330
1624E
100
AcDbEntity
  8
YODOROGO
100
AcDbLine
 10
13932.80217064596
 20
989.8747482146442
 30
0.0
 11
13932.80217064596
 21
977.8747482146435
 31
0.0
1001
AUTOCAD_POSTSCRIPT_FIGURE
1002
{
1000
PSFILL
1000
Grayscale
1000
Grayscale
1070
   100
1002
}
  0
LINE
  5
16699
330
1624E
100
AcDbEntity
  8
YODOROGO
100
AcDbLine
 10
13932.80217064596
 20
977.8747482146435
 30
0.0
 11
13944.80217064596
 21
977.8747482146435
 31
0.0
1001
AUTOCAD_POSTSCRIPT_FIGURE
1002
{
1000
PSFILL
1000
Grayscale
1000
Grayscale
1070
   100
1002
}
  0
LINE
  5
1669A
330
1624E
100
AcDbEntity
  8
YODOROGO
100
AcDbLine
 10
13944.80217064596
 20
977.8747482146435
 30
0.0
 11
13944.80217064596
 21
989.8747482146442
 31
0.0
1001
AUTOCAD_POSTSCRIPT_FIGURE
1002
{
1000
PSFILL
1000
Grayscale
1000
Grayscale
1070
   100
1002
}
  0
LINE
  5
1669B
330
1624E
100
AcDbEntity
  8
YODOROGO
100
AcDbLine
 10
13944.80217064596
 20
989.8747482146442
 30
0.0
 11
13952.80217064596
 21
989.8747482146442
 31
0.0
1001
AUTOCAD_POSTSCRIPT_FIGURE
1002
{
1000
PSFILL
1000
Grayscale
1000
Grayscale
1070
   100
1002
}
  0
LINE
  5
1669C
330
1624E
100
AcDbEntity
  8
YODOROGO
100
AcDbLine
 10
13952.80217064596
 20
989.8747482146442
 30
0.0
 11
13952.80217064596
 21
977.8747482146435
 31
0.0
1001
AUTOCAD_POSTSCRIPT_FIGURE
1002
{
1000
PSFILL
1000
Grayscale
1000
Grayscale
1070
   100
1002
}
  0
LINE
  5
1669D
330
1624E
100
AcDbEntity
  8
YODOROGO
100
AcDbLine
 10
13952.80217064596
 20
977.8747482146435
 30
0.0
 11
13968.80217064596
 21
977.8747482146435
 31
0.0
1001
AUTOCAD_POSTSCRIPT_FIGURE
1002
{
1000
PSFILL
1000
Grayscale
1000
Grayscale
1070
   100
1002
}
  0
LINE
  5
1669E
330
1624E
100
AcDbEntity
  8
YODOROGO
100
AcDbLine
 10
13968.80217064596
 20
977.8747482146435
 30
0.0
 11
13968.80217064596
 21
969.8747482146441
 31
0.0
1001
AUTOCAD_POSTSCRIPT_FIGURE
1002
{
1000
PSFILL
1000
Grayscale
1000
Grayscale
1070
   100
1002
}
  0
LINE
  5
1669F
330
1624E
100
AcDbEntity
  8
YODOROGO
100
AcDbLine
 10
13968.80217064596
 20
969.8747482146441
 30
0.0
 11
13952.80217064596
 21
969.8747482146441
 31
0.0
1001
AUTOCAD_POSTSCRIPT_FIGURE
1002
{
1000
PSFILL
1000
Grayscale
1000
Grayscale
1070
   100
1002
}
  0
LINE
  5
166A0
330
1624E
100
AcDbEntity
  8
YODOROGO
100
AcDbLine
 10
13952.80217064596
 20
969.8747482146441
 30
0.0
 11
13952.80217064596
 21
950.2841744681497
 31
0.0
1001
AUTOCAD_POSTSCRIPT_FIGURE
1002
{
1000
PSFILL
1000
Grayscale
1000
Grayscale
1070
   100
1002
}
  0
LINE
  5
166A1
330
1624E
100
AcDbEntity
  8
YODOROGO
100
AcDbLine
 10
13952.80217064596
 20
950.2841744681497
 30
0.0
 11
13968.80217064596
 21
950.2841744681497
 31
0.0
1001
AUTOCAD_POSTSCRIPT_FIGURE
1002
{
1000
PSFILL
1000
Grayscale
1000
Grayscale
1070
   100
1002
}
  0
LINE
  5
166A2
330
1624E
100
AcDbEntity
  8
YODOROGO
100
AcDbLine
 10
13968.80217064596
 20
950.2841744681497
 30
0.0
 11
13968.80217064596
 21
942.2841744681491
 31
0.0
1001
AUTOCAD_POSTSCRIPT_FIGURE
1002
{
1000
PSFILL
1000
Grayscale
1000
Grayscale
1070
   100
1002
}
  0
LINE
  5
166A3
330
1624E
100
AcDbEntity
  8
YODOROGO
100
AcDbLine
 10
13968.80217064596
 20
942.2841744681491
 30
0.0
 11
13952.80217064596
 21
942.2841744681502
 31
0.0
1001
AUTOCAD_POSTSCRIPT_FIGURE
1002
{
1000
PSFILL
1000
Grayscale
1000
Grayscale
1070
   100
1002
}
  0
LINE
  5
166A4
330
1624E
100
AcDbEntity
  8
YODOROGO
100
AcDbLine
 10
13952.80217064596
 20
942.2841744681502
 30
0.0
 11
13952.80217064596
 21
940.7045060794041
 31
0.0
1001
AUTOCAD_POSTSCRIPT_FIGURE
1002
{
1000
PSFILL
1000
Grayscale
1000
Grayscale
1070
   100
1002
}
  0
LINE
  5
166A5
330
1624E
100
AcDbEntity
  8
YODOROGO
100
AcDbLine
 10
13952.80217064596
 20
940.7045060794041
 30
0.0
 11
13968.80217064596
 21
906.4874905807087
 31
0.0
1001
AUTOCAD_POSTSCRIPT_FIGURE
1002
{
1000
PSFILL
1000
Grayscale
1000
Grayscale
1070
   100
1002
}
  0
LINE
  5
166A6
330
1624E
100
AcDbEntity
  8
YODOROGO
100
AcDbLine
 10
13968.80217064596
 20
906.4874905807087
 30
0.0
 11
13968.80217064596
 21
898.487490580708
 31
0.0
1001
AUTOCAD_POSTSCRIPT_FIGURE
1002
{
1000
PSFILL
1000
Grayscale
1000
Grayscale
1070
   100
1002
}
  0
LINE
  5
166A7
330
1624E
100
AcDbEntity
  8
YODOROGO
100
AcDbLine
 10
13968.80217064596
 20
898.487490580708
 30
0.0
 11
13952.80217064596
 21
924.7045060794032
 31
0.0
1001
AUTOCAD_POSTSCRIPT_FIGURE
1002
{
1000
PSFILL
1000
Grayscale
1000
Grayscale
1070
   100
1002
}
  0
LINE
  5
166A8
330
1624E
100
AcDbEntity
  8
YODOROGO
100
AcDbLine
 10
13952.80217064596
 20
924.7045060794032
 30
0.0
 11
13952.80217064596
 21
873.8747482146434
 31
0.0
1001
AUTOCAD_POSTSCRIPT_FIGURE
1002
{
1000
PSFILL
1000
Grayscale
1000
Grayscale
1070
   100
1002
}
  0
LINE
  5
166A9
330
1624E
100
AcDbEntity
  8
YODOROGO
100
AcDbLine
 10
13952.80217064596
 20
873.8747482146434
 30
0.0
 11
13944.80217064596
 21
873.8747482146434
 31
0.0
1001
AUTOCAD_POSTSCRIPT_FIGURE
1002
{
1000
PSFILL
1000
Grayscale
1000
Grayscale
1070
   100
1002
}
  0
LINE
  5
166AA
330
1624E
100
AcDbEntity
  8
YODOROGO
100
AcDbLine
 10
13944.80217064596
 20
873.8747482146434
 30
0.0
 11
13944.80217064596
 21
923.8095889822183
 31
0.0
1001
AUTOCAD_POSTSCRIPT_FIGURE
1002
{
1000
PSFILL
1000
Grayscale
1000
Grayscale
1070
   100
1002
}
  0
LINE
  5
166AB
330
1624E
100
AcDbEntity
  8
YODOROGO
100
AcDbLine
 10
13944.80217064596
 20
923.8095889822183
 30
0.0
 11
13924.80217064596
 21
898.487490580708
 31
0.0
1001
AUTOCAD_POSTSCRIPT_FIGURE
1002
{
1000
PSFILL
1000
Grayscale
1000
Grayscale
1070
   100
1002
}
  0
LINE
  5
166AC
330
1624E
100
AcDbEntity
  8
YODOROGO
100
AcDbLine
 10
13924.80217064596
 20
898.487490580708
 30
0.0
 11
13924.80217064596
 21
906.4874905807087
 31
0.0
1001
AUTOCAD_POSTSCRIPT_FIGURE
1002
{
1000
PSFILL
1000
Grayscale
1000
Grayscale
1070
   100
1002
}
  0
LINE
  5
166AD
330
1624E
100
AcDbEntity
  8
YODOROGO
100
AcDbLine
 10
13924.80217064596
 20
906.4874905807087
 30
0.0
 11
13944.80217064596
 21
939.8095889822196
 31
0.0
1001
AUTOCAD_POSTSCRIPT_FIGURE
1002
{
1000
PSFILL
1000
Grayscale
1000
Grayscale
1070
   100
1002
}
  0
LINE
  5
166AE
330
1624E
100
AcDbEntity
  8
YODOROGO
100
AcDbLine
 10
13944.80217064596
 20
939.8095889822196
 30
0.0
 11
13944.80217064596
 21
942.2841744681491
 31
0.0
1001
AUTOCAD_POSTSCRIPT_FIGURE
1002
{
1000
PSFILL
1000
Grayscale
1000
Grayscale
1070
   100
1002
}
  0
LINE
  5
166AF
330
1624E
100
AcDbEntity
  8
YODOROGO
100
AcDbLine
 10
13944.80217064596
 20
942.2841744681491
 30
0.0
 11
13928.80217064596
 21
942.2841744681491
 31
0.0
1001
AUTOCAD_POSTSCRIPT_FIGURE
1002
{
1000
PSFILL
1000
Grayscale
1000
Grayscale
1070
   100
1002
}
  0
LINE
  5
166B0
330
1624E
100
AcDbEntity
  8
YODOROGO
100
AcDbLine
 10
13928.80217064596
 20
942.2841744681491
 30
0.0
 11
13928.80217064596
 21
950.2841744681497
 31
0.0
1001
AUTOCAD_POSTSCRIPT_FIGURE
1002
{
1000
PSFILL
1000
Grayscale
1000
Grayscale
1070
   100
1002
}
  0
LINE
  5
166B1
330
1624E
100
AcDbEntity
  8
YODOROGO
100
AcDbLine
 10
13928.80217064596
 20
950.2841744681497
 30
0.0
 11
13944.80217064596
 21
950.2841744681497
 31
0.0
1001
AUTOCAD_POSTSCRIPT_FIGURE
1002
{
1000
PSFILL
1000
Grayscale
1000
Grayscale
1070
   100
1002
}
  0
LINE
  5
166B2
330
1624E
100
AcDbEntity
  8
YODOROGO
100
AcDbLine
 10
13944.80217064596
 20
950.2841744681497
 30
0.0
 11
13944.80217064596
 21
969.8747482146441
 31
0.0
1001
AUTOCAD_POSTSCRIPT_FIGURE
1002
{
1000
PSFILL
1000
Grayscale
1000
Grayscale
1070
   100
1002
}
  0
LINE
  5
166B3
330
1624E
100
AcDbEntity
  8
YODOROGO
100
AcDbLine
 10
13944.80217064596
 20
969.8747482146441
 30
0.0
 11
13908.80217064596
 21
969.8747482146441
 31
0.0
1001
AUTOCAD_POSTSCRIPT_FIGURE
1002
{
1000
PSFILL
1000
Grayscale
1000
Grayscale
1070
   100
1002
}
  0
LINE
  5
166B4
330
1624E
100
AcDbEntity
  8
YODOROGO
100
AcDbLine
 10
13908.80217064596
 20
969.8747482146441
 30
0.0
 11
13908.80217064596
 21
958.8856660426325
 31
0.0
1001
AUTOCAD_POSTSCRIPT_FIGURE
1002
{
1000
PSFILL
1000
Grayscale
1000
Grayscale
1070
   100
1002
}
  0
LINE
  5
166B5
330
1624E
100
AcDbEntity
  8
YODOROGO
100
AcDbLine
 10
13908.80217064596
 20
958.8856660426325
 30
0.0
 11
13920.80217064596
 21
941.8273791420681
 31
0.0
1001
AUTOCAD_POSTSCRIPT_FIGURE
1002
{
1000
PSFILL
1000
Grayscale
1000
Grayscale
1070
   100
1002
}
  0
LINE
  5
166B6
330
1624E
100
AcDbEntity
  8
YODOROGO
100
AcDbLine
 10
13920.80217064596
 20
941.8273791420681
 30
0.0
 11
13920.80217064596
 21
933.8273791420684
 31
0.0
1001
AUTOCAD_POSTSCRIPT_FIGURE
1002
{
1000
PSFILL
1000
Grayscale
1000
Grayscale
1070
   100
1002
}
  0
LINE
  5
166B7
330
1624E
100
AcDbEntity
  8
YODOROGO
100
AcDbLine
 10
13920.80217064596
 20
933.8273791420684
 30
0.0
 11
13908.80217064596
 21
946.8856660426332
 31
0.0
1001
AUTOCAD_POSTSCRIPT_FIGURE
1002
{
1000
PSFILL
1000
Grayscale
1000
Grayscale
1070
   100
1002
}
  0
LINE
  5
166B8
330
1624E
100
AcDbEntity
  8
YODOROGO
100
AcDbLine
 10
13908.80217064596
 20
946.8856660426332
 30
0.0
 11
13908.80217064596
 21
873.8747482146434
 31
0.0
1001
AUTOCAD_POSTSCRIPT_FIGURE
1002
{
1000
PSFILL
1000
Grayscale
1000
Grayscale
1070
   100
1002
}
  0
LINE
  5
166B9
330
1624E
100
AcDbEntity
  8
YODOROGO
100
AcDbLine
 10
13908.80217064596
 20
873.8747482146434
 30
0.0
 11
13900.80217064596
 21
873.8747482146434
 31
0.0
1001
AUTOCAD_POSTSCRIPT_FIGURE
1002
{
1000
PSFILL
1000
Grayscale
1000
Grayscale
1070
   100
1002
}
  0
LINE
  5
166BA
330
1624E
100
AcDbEntity
  8
YODOROGO
100
AcDbLine
 10
13900.80217064596
 20
873.8747482146434
 30
0.0
 11
13900.80217064596
 21
945.3932903968532
 31
0.0
1001
AUTOCAD_POSTSCRIPT_FIGURE
1002
{
1000
PSFILL
1000
Grayscale
1000
Grayscale
1070
   100
1002
}
  0
LINE
  5
166BB
330
1624E
100
AcDbEntity
  8
YODOROGO
100
AcDbLine
 10
13900.80217064596
 20
945.3932903968532
 30
0.0
 11
13888.80217064596
 21
921.8883739758362
 31
0.0
1001
AUTOCAD_POSTSCRIPT_FIGURE
1002
{
1000
PSFILL
1000
Grayscale
1000
Grayscale
1070
   100
1002
}
  0
LINE
  5
166BC
330
1624E
100
AcDbEntity
  8
YODOROGO
100
AcDbLine
 10
14172.80217064596
 20
833.8747482146439
 30
0.0
 11
14172.80217064596
 21
805.8747482146443
 31
0.0
  0
ARC
  5
166BD
330
1624E
100
AcDbEntity
  8
YODOROGO
100
AcDbCircle
 10
14117.87801537965
 20
816.7989034809513
 30
0.0
 40
55.99999999999901
100
AcDbArc
 50
281.2490582504167
 51
348.7509417495839
  0
LINE
  5
166BE
330
1624E
100
AcDbEntity
  8
YODOROGO
100
AcDbLine
 10
14128.80217064596
 20
761.8747482146434
 30
0.0
 11
14128.80217064596
 21
713.8747482146436
 31
0.0
  0
ARC
  5
166BF
330
1624E
100
AcDbEntity
  8
YODOROGO
100
AcDbCircle
 10
14112.97022107349
 20
800.438882662663
 30
0.0
 40
87.99999999999979
100
AcDbArc
 50
280.3644312771306
 51
3.541483659218113
  0
LINE
  5
166C0
330
1624E
100
AcDbEntity
  8
YODOROGO
100
AcDbLine
 10
14200.80217064594
 20
805.8747482146443
 30
0.0
 11
14200.80217064594
 21
833.8747482146439
 31
0.0
  0
LINE
  5
166C1
330
1624E
100
AcDbEntity
  8
YODOROGO
100
AcDbLine
 10
14200.80217064594
 20
833.8747482146439
 30
0.0
 11
14172.80217064596
 21
833.8747482146439
 31
0.0
  0
LINE
  5
166C2
330
1624E
100
AcDbEntity
  8
YODOROGO
100
AcDbLine
 10
13904.80217064596
 20
816.3859520216298
 30
0.0
 11
13952.80217064596
 21
816.3859520216298
 31
0.0
  0
LINE
  5
166C3
330
1624E
100
AcDbEntity
  8
YODOROGO
100
AcDbLine
 10
13952.80217064596
 20
816.3859520216298
 30
0.0
 11
13952.80217064596
 21
804.3859520216292
 31
0.0
  0
LINE
  5
166C4
330
1624E
100
AcDbEntity
  8
YODOROGO
100
AcDbLine
 10
13952.80217064596
 20
804.3859520216292
 30
0.0
 11
13904.80217064596
 21
804.3859520216292
 31
0.0
  0
LINE
  5
166C5
330
1624E
100
AcDbEntity
  8
YODOROGO
100
AcDbLine
 10
13904.80217064596
 20
804.3859520216292
 30
0.0
 11
13904.80217064596
 21
816.3859520216298
 31
0.0
  0
LINE
  5
166C6
330
1624E
100
AcDbEntity
  8
YODOROGO
100
AcDbLine
 10
13892.80217064596
 20
737.8747482146435
 30
0.0
 11
13964.80217064596
 21
737.8747482146435
 31
0.0
1001
AUTOCAD_POSTSCRIPT_FIGURE
1002
{
1000
PSFILL
1000
Grayscale
1000
Grayscale
1070
   100
1002
}
  0
LINE
  5
166C7
330
1624E
100
AcDbEntity
  8
YODOROGO
100
AcDbLine
 10
13964.80217064596
 20
737.8747482146435
 30
0.0
 11
13950.53250239547
 21
768.1169053488464
 31
0.0
1001
AUTOCAD_POSTSCRIPT_FIGURE
1002
{
1000
PSFILL
1000
Grayscale
1000
Grayscale
1070
   100
1002
}
  0
LINE
  5
166C8
330
1624E
100
AcDbEntity
  8
YODOROGO
100
AcDbLine
 10
13950.53250239547
 20
768.1169053488464
 30
0.0
 11
13942.53250239547
 21
768.1169053488464
 31
0.0
1001
AUTOCAD_POSTSCRIPT_FIGURE
1002
{
1000
PSFILL
1000
Grayscale
1000
Grayscale
1070
   100
1002
}
  0
LINE
  5
166C9
330
1624E
100
AcDbEntity
  8
YODOROGO
100
AcDbLine
 10
13942.53250239547
 20
768.1169053488464
 30
0.0
 11
13951.02739540432
 21
747.8747482146435
 31
0.0
1001
AUTOCAD_POSTSCRIPT_FIGURE
1002
{
1000
PSFILL
1000
Grayscale
1000
Grayscale
1070
   100
1002
}
  0
LINE
  5
166CA
330
1624E
100
AcDbEntity
  8
YODOROGO
100
AcDbLine
 10
13951.02739540432
 20
747.8747482146435
 30
0.0
 11
13907.77335914238
 21
747.8747482146435
 31
0.0
1001
AUTOCAD_POSTSCRIPT_FIGURE
1002
{
1000
PSFILL
1000
Grayscale
1000
Grayscale
1070
   100
1002
}
  0
LINE
  5
166CB
330
1624E
100
AcDbEntity
  8
YODOROGO
100
AcDbLine
 10
13907.77335914238
 20
747.8747482146435
 30
0.0
 11
13922.25479445786
 21
784.2514286852374
 31
0.0
1001
AUTOCAD_POSTSCRIPT_FIGURE
1002
{
1000
PSFILL
1000
Grayscale
1000
Grayscale
1070
   100
1002
}
  0
LINE
  5
166CC
330
1624E
100
AcDbEntity
  8
YODOROGO
100
AcDbLine
 10
13922.25479445786
 20
784.2514286852374
 30
0.0
 11
13968.80217064596
 21
784.2514286852374
 31
0.0
1001
AUTOCAD_POSTSCRIPT_FIGURE
1002
{
1000
PSFILL
1000
Grayscale
1000
Grayscale
1070
   100
1002
}
  0
LINE
  5
166CD
330
1624E
100
AcDbEntity
  8
YODOROGO
100
AcDbLine
 10
13968.80217064596
 20
784.2514286852374
 30
0.0
 11
13968.80217064596
 21
794.2514286852374
 31
0.0
1001
AUTOCAD_POSTSCRIPT_FIGURE
1002
{
1000
PSFILL
1000
Grayscale
1000
Grayscale
1070
   100
1002
}
  0
LINE
  5
166CE
330
1624E
100
AcDbEntity
  8
YODOROGO
100
AcDbLine
 10
13968.80217064596
 20
794.2514286852374
 30
0.0
 11
13888.80217064596
 21
794.2514286852374
 31
0.0
1001
AUTOCAD_POSTSCRIPT_FIGURE
1002
{
1000
PSFILL
1000
Grayscale
1000
Grayscale
1070
   100
1002
}
  0
LINE
  5
166CF
330
1624E
100
AcDbEntity
  8
YODOROGO
100
AcDbLine
 10
13888.80217064596
 20
794.2514286852374
 30
0.0
 11
13888.80217064596
 21
784.2514286852374
 31
0.0
1001
AUTOCAD_POSTSCRIPT_FIGURE
1002
{
1000
PSFILL
1000
Grayscale
1000
Grayscale
1070
   100
1002
}
  0
LINE
  5
166D0
330
1624E
100
AcDbEntity
  8
YODOROGO
100
AcDbLine
 10
13888.80217064596
 20
784.2514286852374
 30
0.0
 11
13912.25479445787
 21
784.2514286852374
 31
0.0
1001
AUTOCAD_POSTSCRIPT_FIGURE
1002
{
1000
PSFILL
1000
Grayscale
1000
Grayscale
1070
   100
1002
}
  0
LINE
  5
166D1
330
1624E
100
AcDbEntity
  8
YODOROGO
100
AcDbLine
 10
13912.25479445787
 20
784.2514286852374
 30
0.0
 11
13892.80217064596
 21
737.8747482146435
 31
0.0
1001
AUTOCAD_POSTSCRIPT_FIGURE
1002
{
1000
PSFILL
1000
Grayscale
1000
Grayscale
1070
   100
1002
}
  0
LINE
  5
166D2
330
1624E
100
AcDbEntity
  8
YODOROGO
100
AcDbLine
 10
13888.80217064596
 20
821.986207022285
 30
0.0
 11
13928.80217064596
 21
853.874748214644
 31
0.0
  0
LINE
  5
166D3
330
1624E
100
AcDbEntity
  8
YODOROGO
100
AcDbLine
 10
13928.80217064596
 20
853.874748214644
 30
0.0
 11
13968.80217064596
 21
821.986207022285
 31
0.0
  0
LINE
  5
166D4
330
1624E
100
AcDbEntity
  8
YODOROGO
100
AcDbLine
 10
13968.80217064596
 20
821.986207022285
 30
0.0
 11
13968.80217064596
 21
809.9862070222856
 31
0.0
  0
LINE
  5
166D5
330
1624E
100
AcDbEntity
  8
YODOROGO
100
AcDbLine
 10
13968.80217064596
 20
809.9862070222856
 30
0.0
 11
13928.80217064596
 21
841.8747482146445
 31
0.0
  0
LINE
  5
166D6
330
1624E
100
AcDbEntity
  8
YODOROGO
100
AcDbLine
 10
13928.80217064596
 20
841.8747482146445
 30
0.0
 11
13888.80217064596
 21
809.9862070222856
 31
0.0
  0
LINE
  5
166D7
330
1624E
100
AcDbEntity
  8
YODOROGO
100
AcDbLine
 10
13888.80217064596
 20
809.9862070222856
 30
0.0
 11
13888.80217064596
 21
821.986207022285
 31
0.0
  0
LINE
  5
166D8
330
1624E
100
AcDbEntity
  8
YODOROGO
100
AcDbLine
 10
14000.80217064596
 20
841.8747482146434
 30
0.0
 11
13988.80217064596
 21
841.8747482146434
 31
0.0
  0
LINE
  5
166D9
330
1624E
100
AcDbEntity
  8
YODOROGO
100
AcDbLine
 10
13988.80217064596
 20
841.8747482146434
 30
0.0
 11
13988.80217064596
 21
833.8747482146427
 31
0.0
  0
LINE
  5
166DA
330
1624E
100
AcDbEntity
  8
YODOROGO
100
AcDbLine
 10
13988.80217064596
 20
833.8747482146427
 30
0.0
 11
14012.91438714567
 21
833.8747482146427
 31
0.0
  0
LINE
  5
166DB
330
1624E
100
AcDbEntity
  8
YODOROGO
100
AcDbLine
 10
14012.91438714567
 20
833.8747482146427
 30
0.0
 11
13988.80217064596
 21
778.3840395167149
 31
0.0
  0
LINE
  5
166DC
330
1624E
100
AcDbEntity
  8
YODOROGO
100
AcDbLine
 10
13988.80217064596
 20
778.3840395167149
 30
0.0
 11
13988.80217064596
 21
766.3840395167142
 31
0.0
  0
LINE
  5
166DD
330
1624E
100
AcDbEntity
  8
YODOROGO
100
AcDbLine
 10
13988.80217064596
 20
766.3840395167142
 30
0.0
 11
14000.80217064596
 21
790.0026748448738
 31
0.0
  0
LINE
  5
166DE
330
1624E
100
AcDbEntity
  8
YODOROGO
100
AcDbLine
 10
14000.80217064596
 20
790.0026748448738
 30
0.0
 11
14000.80217064596
 21
737.8747482146435
 31
0.0
  0
LINE
  5
166DF
330
1624E
100
AcDbEntity
  8
YODOROGO
100
AcDbLine
 10
14000.80217064596
 20
737.8747482146435
 30
0.0
 11
14008.80217064596
 21
737.8747482146435
 31
0.0
  0
LINE
  5
166E0
330
1624E
100
AcDbEntity
  8
YODOROGO
100
AcDbLine
 10
14008.80217064596
 20
737.8747482146435
 30
0.0
 11
14008.80217064596
 21
792.6185318747651
 31
0.0
  0
LINE
  5
166E1
330
1624E
100
AcDbEntity
  8
YODOROGO
100
AcDbLine
 10
14008.80217064596
 20
792.6185318747651
 30
0.0
 11
14020.80217064596
 21
781.5602449741994
 31
0.0
  0
LINE
  5
166E2
330
1624E
100
AcDbEntity
  8
YODOROGO
100
AcDbLine
 10
14020.80217064596
 20
781.5602449741994
 30
0.0
 11
14020.80217064596
 21
791.5602449742006
 31
0.0
  0
LINE
  5
166E3
330
1624E
100
AcDbEntity
  8
YODOROGO
100
AcDbLine
 10
14020.80217064596
 20
791.5602449742006
 30
0.0
 11
14010.04445186845
 21
805.3252825309574
 31
0.0
  0
LINE
  5
166E4
330
1624E
100
AcDbEntity
  8
YODOROGO
100
AcDbLine
 10
14010.04445186845
 20
805.3252825309574
 30
0.0
 11
14020.45660200844
 21
829.874748214644
 31
0.0
  0
LINE
  5
166E5
330
1624E
100
AcDbEntity
  8
YODOROGO
100
AcDbLine
 10
14020.45660200844
 20
829.874748214644
 30
0.0
 11
14020.45660200844
 21
841.8747482146434
 31
0.0
  0
LINE
  5
166E6
330
1624E
100
AcDbEntity
  8
YODOROGO
100
AcDbLine
 10
14020.45660200844
 20
841.8747482146434
 30
0.0
 11
14008.80217064596
 21
841.8747482146434
 31
0.0
  0
LINE
  5
166E7
330
1624E
100
AcDbEntity
  8
YODOROGO
100
AcDbLine
 10
14008.80217064596
 20
841.8747482146434
 30
0.0
 11
14008.80217064596
 21
853.874748214644
 31
0.0
  0
LINE
  5
166E8
330
1624E
100
AcDbEntity
  8
YODOROGO
100
AcDbLine
 10
14008.80217064596
 20
853.874748214644
 30
0.0
 11
14000.80217064596
 21
853.874748214644
 31
0.0
  0
LINE
  5
166E9
330
1624E
100
AcDbEntity
  8
YODOROGO
100
AcDbLine
 10
14000.80217064596
 20
853.874748214644
 30
0.0
 11
14000.80217064596
 21
841.8747482146434
 31
0.0
  0
LINE
  5
166EA
330
1624E
100
AcDbEntity
  8
YODOROGO
100
AcDbLine
 10
14041.06776011546
 20
827.751818637328
 30
0.0
 11
14041.06776011546
 21
853.874748214644
 31
0.0
1001
AUTOCAD_POSTSCRIPT_FIGURE
1002
{
1000
PSFILL
1000
Grayscale
1000
Grayscale
1070
   100
1002
}
  0
LINE
  5
166EB
330
1624E
100
AcDbEntity
  8
YODOROGO
100
AcDbLine
 10
14041.06776011546
 20
853.874748214644
 30
0.0
 11
14049.06776011545
 21
853.874748214644
 31
0.0
1001
AUTOCAD_POSTSCRIPT_FIGURE
1002
{
1000
PSFILL
1000
Grayscale
1000
Grayscale
1070
   100
1002
}
  0
LINE
  5
166EC
330
1624E
100
AcDbEntity
  8
YODOROGO
100
AcDbLine
 10
14049.06776011545
 20
853.874748214644
 30
0.0
 11
14049.06776011545
 21
827.751818637328
 31
0.0
1001
AUTOCAD_POSTSCRIPT_FIGURE
1002
{
1000
PSFILL
1000
Grayscale
1000
Grayscale
1070
   100
1002
}
  0
LINE
  5
166ED
330
1624E
100
AcDbEntity
  8
YODOROGO
100
AcDbLine
 10
14049.06776011545
 20
827.751818637328
 30
0.0
 11
14068.80217064596
 21
827.751818637328
 31
0.0
1001
AUTOCAD_POSTSCRIPT_FIGURE
1002
{
1000
PSFILL
1000
Grayscale
1000
Grayscale
1070
   100
1002
}
  0
LINE
  5
166EE
330
1624E
100
AcDbEntity
  8
YODOROGO
100
AcDbLine
 10
14068.80217064596
 20
827.751818637328
 30
0.0
 11
14068.80217064596
 21
815.7518186373286
 31
0.0
1001
AUTOCAD_POSTSCRIPT_FIGURE
1002
{
1000
PSFILL
1000
Grayscale
1000
Grayscale
1070
   100
1002
}
  0
LINE
  5
166EF
330
1624E
100
AcDbEntity
  8
YODOROGO
100
AcDbLine
 10
14068.80217064596
 20
815.7518186373286
 30
0.0
 11
14049.06776011545
 21
815.7518186373286
 31
0.0
1001
AUTOCAD_POSTSCRIPT_FIGURE
1002
{
1000
PSFILL
1000
Grayscale
1000
Grayscale
1070
   100
1002
}
  0
LINE
  5
166F0
330
1624E
100
AcDbEntity
  8
YODOROGO
100
AcDbLine
 10
14049.06776011545
 20
815.7518186373286
 30
0.0
 11
14049.06776011545
 21
749.8747482146441
 31
0.0
1001
AUTOCAD_POSTSCRIPT_FIGURE
1002
{
1000
PSFILL
1000
Grayscale
1000
Grayscale
1070
   100
1002
}
  0
LINE
  5
166F1
330
1624E
100
AcDbEntity
  8
YODOROGO
100
AcDbLine
 10
14049.06776011545
 20
749.8747482146441
 30
0.0
 11
14068.80217064596
 21
749.8747482146441
 31
0.0
1001
AUTOCAD_POSTSCRIPT_FIGURE
1002
{
1000
PSFILL
1000
Grayscale
1000
Grayscale
1070
   100
1002
}
  0
LINE
  5
166F2
330
1624E
100
AcDbEntity
  8
YODOROGO
100
AcDbLine
 10
14068.80217064596
 20
749.8747482146441
 30
0.0
 11
14068.80217064596
 21
737.8747482146435
 31
0.0
1001
AUTOCAD_POSTSCRIPT_FIGURE
1002
{
1000
PSFILL
1000
Grayscale
1000
Grayscale
1070
   100
1002
}
  0
LINE
  5
166F3
330
1624E
100
AcDbEntity
  8
YODOROGO
100
AcDbLine
 10
14068.80217064596
 20
737.8747482146435
 30
0.0
 11
14025.06776011545
 21
737.8747482146435
 31
0.0
1001
AUTOCAD_POSTSCRIPT_FIGURE
1002
{
1000
PSFILL
1000
Grayscale
1000
Grayscale
1070
   100
1002
}
  0
LINE
  5
166F4
330
1624E
100
AcDbEntity
  8
YODOROGO
100
AcDbLine
 10
14025.06776011545
 20
737.8747482146435
 30
0.0
 11
14025.06776011545
 21
749.8747482146441
 31
0.0
1001
AUTOCAD_POSTSCRIPT_FIGURE
1002
{
1000
PSFILL
1000
Grayscale
1000
Grayscale
1070
   100
1002
}
  0
LINE
  5
166F5
330
1624E
100
AcDbEntity
  8
YODOROGO
100
AcDbLine
 10
14025.06776011545
 20
749.8747482146441
 30
0.0
 11
14041.06776011546
 21
749.8747482146441
 31
0.0
1001
AUTOCAD_POSTSCRIPT_FIGURE
1002
{
1000
PSFILL
1000
Grayscale
1000
Grayscale
1070
   100
1002
}
  0
LINE
  5
166F6
330
1624E
100
AcDbEntity
  8
YODOROGO
100
AcDbLine
 10
14041.06776011546
 20
749.8747482146441
 30
0.0
 11
14041.06776011546
 21
815.7518186373286
 31
0.0
1001
AUTOCAD_POSTSCRIPT_FIGURE
1002
{
1000
PSFILL
1000
Grayscale
1000
Grayscale
1070
   100
1002
}
  0
LINE
  5
166F7
330
1624E
100
AcDbEntity
  8
YODOROGO
100
AcDbLine
 10
14041.06776011546
 20
815.7518186373286
 30
0.0
 11
14025.06776011545
 21
815.7518186373286
 31
0.0
1001
AUTOCAD_POSTSCRIPT_FIGURE
1002
{
1000
PSFILL
1000
Grayscale
1000
Grayscale
1070
   100
1002
}
  0
LINE
  5
166F8
330
1624E
100
AcDbEntity
  8
YODOROGO
100
AcDbLine
 10
14025.06776011545
 20
815.7518186373286
 30
0.0
 11
14025.06776011545
 21
827.751818637328
 31
0.0
1001
AUTOCAD_POSTSCRIPT_FIGURE
1002
{
1000
PSFILL
1000
Grayscale
1000
Grayscale
1070
   100
1002
}
  0
LINE
  5
166F9
330
1624E
100
AcDbEntity
  8
YODOROGO
100
AcDbLine
 10
14025.06776011545
 20
827.751818637328
 30
0.0
 11
14041.06776011546
 21
827.751818637328
 31
0.0
1001
AUTOCAD_POSTSCRIPT_FIGURE
1002
{
1000
PSFILL
1000
Grayscale
1000
Grayscale
1070
   100
1002
}
  0
LINE
  5
166FA
330
1624E
100
AcDbEntity
  8
YODOROGO
100
AcDbLine
 10
14216.80217064594
 20
873.8747482146449
 30
0.0
 11
14292.80217064596
 21
873.8747482146449
 31
0.0
  0
LINE
  5
166FB
330
1624E
100
AcDbEntity
  8
YODOROGO
100
AcDbLine
 10
14292.80217064596
 20
873.8747482146449
 30
0.0
 11
14292.80217064596
 21
773.874748214644
 31
0.0
  0
ARC
  5
166FC
330
1624E
100
AcDbEntity
  8
YODOROGO
100
AcDbCircle
 10
14280.80217064596
 20
773.8747482146417
 30
0.0
 40
11.99999999999818
100
AcDbArc
 50
270.0000000000085
 51
0.0000000000097707
  0
LINE
  5
166FD
330
1624E
100
AcDbEntity
  8
YODOROGO
100
AcDbLine
 10
14280.80217064596
 20
761.8747482146434
 30
0.0
 11
14268.80217064594
 21
761.8747482146434
 31
0.0
  0
ARC
  5
166FE
330
1624E
100
AcDbEntity
  8
YODOROGO
100
AcDbCircle
 10
14268.80217064594
 20
781.8747482146434
 30
0.0
 40
20.0
100
AcDbArc
 50
180.0
 51
270.0
  0
LINE
  5
166FF
330
1624E
100
AcDbEntity
  8
YODOROGO
100
AcDbLine
 10
14248.80217064594
 20
781.8747482146434
 30
0.0
 11
14248.80217064594
 21
853.874748214644
 31
0.0
  0
LINE
  5
16700
330
1624E
100
AcDbEntity
  8
YODOROGO
100
AcDbLine
 10
14248.80217064594
 20
853.874748214644
 30
0.0
 11
14216.80217064594
 21
853.874748214644
 31
0.0
  0
LINE
  5
16701
330
1624E
100
AcDbEntity
  8
YODOROGO
100
AcDbLine
 10
14216.80217064594
 20
853.874748214644
 30
0.0
 11
14216.80217064594
 21
753.8747482146439
 31
0.0
  0
ARC
  5
16702
330
1624E
100
AcDbEntity
  8
YODOROGO
100
AcDbCircle
 10
14256.80217064594
 20
753.8747482146439
 30
0.0
 40
40.0
100
AcDbArc
 50
180.0
 51
270.0
  0
LINE
  5
16703
330
1624E
100
AcDbEntity
  8
YODOROGO
100
AcDbLine
 10
14256.80217064594
 20
713.8747482146436
 30
0.0
 11
14396.80217064594
 21
713.8747482146436
 31
0.0
  0
LINE
  5
16704
330
1624E
100
AcDbEntity
  8
YODOROGO
100
AcDbLine
 10
14396.80217064594
 20
713.8747482146436
 30
0.0
 11
14396.80217064594
 21
761.8747482146434
 31
0.0
  0
LINE
  5
16705
330
1624E
100
AcDbEntity
  8
YODOROGO
100
AcDbLine
 10
14396.80217064594
 20
761.8747482146434
 30
0.0
 11
14328.80217064594
 21
761.8747482146434
 31
0.0
  0
LINE
  5
16706
330
1624E
100
AcDbEntity
  8
YODOROGO
100
AcDbLine
 10
14328.80217064594
 20
761.8747482146434
 30
0.0
 11
14328.80217064594
 21
801.8747482146444
 31
0.0
  0
LINE
  5
16707
330
1624E
100
AcDbEntity
  8
YODOROGO
100
AcDbLine
 10
14328.80217064594
 20
801.8747482146444
 30
0.0
 11
14396.80217064594
 21
801.8747482146444
 31
0.0
  0
LINE
  5
16708
330
1624E
100
AcDbEntity
  8
YODOROGO
100
AcDbLine
 10
14396.80217064594
 20
801.8747482146444
 30
0.0
 11
14396.80217064594
 21
833.8747482146439
 31
0.0
  0
LINE
  5
16709
330
1624E
100
AcDbEntity
  8
YODOROGO
100
AcDbLine
 10
14396.80217064594
 20
833.8747482146439
 30
0.0
 11
14328.80217064594
 21
833.8747482146439
 31
0.0
  0
LINE
  5
1670A
330
1624E
100
AcDbEntity
  8
YODOROGO
100
AcDbLine
 10
14328.80217064594
 20
833.8747482146439
 30
0.0
 11
14328.80217064594
 21
873.8747482146449
 31
0.0
  0
LINE
  5
1670B
330
1624E
100
AcDbEntity
  8
YODOROGO
100
AcDbLine
 10
14328.80217064594
 20
873.8747482146449
 30
0.0
 11
14396.80217064594
 21
873.8747482146449
 31
0.0
  0
LINE
  5
1670C
330
1624E
100
AcDbEntity
  8
YODOROGO
100
AcDbLine
 10
14396.80217064594
 20
873.8747482146449
 30
0.0
 11
14396.80217064594
 21
909.8747482146439
 31
0.0
  0
LINE
  5
1670D
330
1624E
100
AcDbEntity
  8
YODOROGO
100
AcDbLine
 10
14396.80217064594
 20
909.8747482146439
 30
0.0
 11
14216.80217064594
 21
909.8747482146439
 31
0.0
  0
LINE
  5
1670E
330
1624E
100
AcDbEntity
  8
YODOROGO
100
AcDbLine
 10
14216.80217064594
 20
909.8747482146439
 30
0.0
 11
14216.80217064594
 21
873.8747482146449
 31
0.0
  0
LINE
  5
1670F
330
1624E
100
AcDbEntity
  8
YODOROGO
100
AcDbLine
 10
14216.80217064594
 20
933.8747482146439
 30
0.0
 11
14216.80217064594
 21
993.8747482146439
 31
0.0
  0
LINE
  5
16710
330
1624E
100
AcDbEntity
  8
YODOROGO
100
AcDbLine
 10
14216.80217064594
 20
993.8747482146439
 30
0.0
 11
14292.80217064596
 21
993.8747482146439
 31
0.0
  0
LINE
  5
16711
330
1624E
100
AcDbEntity
  8
YODOROGO
100
AcDbLine
 10
14292.80217064596
 20
993.8747482146439
 30
0.0
 11
14292.80217064596
 21
1013.874748214644
 31
0.0
  0
LINE
  5
16712
330
1624E
100
AcDbEntity
  8
YODOROGO
100
AcDbLine
 10
14292.80217064596
 20
1013.874748214644
 30
0.0
 11
14328.80217064596
 21
1013.874748214644
 31
0.0
  0
LINE
  5
16713
330
1624E
100
AcDbEntity
  8
YODOROGO
100
AcDbLine
 10
14328.80217064596
 20
1013.874748214644
 30
0.0
 11
14328.80217064596
 21
993.8747482146439
 31
0.0
  0
LINE
  5
16714
330
1624E
100
AcDbEntity
  8
YODOROGO
100
AcDbLine
 10
14328.80217064596
 20
993.8747482146439
 30
0.0
 11
14376.80217064594
 21
993.8747482146439
 31
0.0
  0
ARC
  5
16715
330
1624E
100
AcDbEntity
  8
YODOROGO
100
AcDbCircle
 10
14376.80217064594
 20
973.8747482146434
 30
0.0
 40
20.0
100
AcDbArc
 50
0.0
 51
90.0
  0
LINE
  5
16716
330
1624E
100
AcDbEntity
  8
YODOROGO
100
AcDbLine
 10
14396.80217064594
 20
973.8747482146434
 30
0.0
 11
14396.80217064594
 21
933.8747482146439
 31
0.0
  0
LINE
  5
16717
330
1624E
100
AcDbEntity
  8
YODOROGO
100
AcDbLine
 10
14396.80217064594
 20
933.8747482146439
 30
0.0
 11
14364.80217064596
 21
933.8747482146439
 31
0.0
  0
LINE
  5
16718
330
1624E
100
AcDbEntity
  8
YODOROGO
100
AcDbLine
 10
14364.80217064596
 20
933.8747482146439
 30
0.0
 11
14364.80217064596
 21
961.8747482146432
 31
0.0
  0
LINE
  5
16719
330
1624E
100
AcDbEntity
  8
YODOROGO
100
AcDbLine
 10
14364.80217064596
 20
961.8747482146432
 30
0.0
 11
14248.80217064594
 21
961.8747482146432
 31
0.0
  0
LINE
  5
1671A
330
1624E
100
AcDbEntity
  8
YODOROGO
100
AcDbLine
 10
14248.80217064594
 20
961.8747482146432
 30
0.0
 11
14248.80217064594
 21
933.8747482146439
 31
0.0
  0
LINE
  5
1671B
330
1624E
100
AcDbEntity
  8
YODOROGO
100
AcDbLine
 10
14248.80217064594
 20
933.8747482146439
 30
0.0
 11
14216.80217064594
 21
933.8747482146439
 31
0.0
  0
LINE
  5
1671C
330
1624E
100
AcDbEntity
  8
YODOROGO
100
AcDbLine
 10
14836.80217064596
 20
885.8747482146441
 30
0.0
 11
14882.80217064596
 21
885.8747482146441
 31
0.0
1001
AUTOCAD_POSTSCRIPT_FIGURE
1002
{
1000
PSFILL
1000
Grayscale
1000
Grayscale
1070
    25
1002
}
  0
LINE
  5
1671D
330
1624E
100
AcDbEntity
  8
YODOROGO
100
AcDbLine
 10
14882.80217064596
 20
885.8747482146441
 30
0.0
 11
14882.80217064596
 21
853.874748214644
 31
0.0
1001
AUTOCAD_POSTSCRIPT_FIGURE
1002
{
1000
PSFILL
1000
Grayscale
1000
Grayscale
1070
    25
1002
}
  0
LINE
  5
1671E
330
1624E
100
AcDbEntity
  8
YODOROGO
100
AcDbLine
 10
14882.80217064596
 20
853.874748214644
 30
0.0
 11
14914.80217064596
 21
853.874748214644
 31
0.0
1001
AUTOCAD_POSTSCRIPT_FIGURE
1002
{
1000
PSFILL
1000
Grayscale
1000
Grayscale
1070
    25
1002
}
  0
LINE
  5
1671F
330
1624E
100
AcDbEntity
  8
YODOROGO
100
AcDbLine
 10
14914.80217064596
 20
853.874748214644
 30
0.0
 11
14914.80217064596
 21
885.8747482146441
 31
0.0
1001
AUTOCAD_POSTSCRIPT_FIGURE
1002
{
1000
PSFILL
1000
Grayscale
1000
Grayscale
1070
    25
1002
}
  0
LINE
  5
16720
330
1624E
100
AcDbEntity
  8
YODOROGO
100
AcDbLine
 10
14914.80217064596
 20
885.8747482146441
 30
0.0
 11
14960.80217064594
 21
885.8747482146441
 31
0.0
1001
AUTOCAD_POSTSCRIPT_FIGURE
1002
{
1000
PSFILL
1000
Grayscale
1000
Grayscale
1070
    25
1002
}
  0
LINE
  5
16721
330
1624E
100
AcDbEntity
  8
YODOROGO
100
AcDbLine
 10
14960.80217064594
 20
885.8747482146441
 30
0.0
 11
14960.80217064594
 21
853.874748214644
 31
0.0
1001
AUTOCAD_POSTSCRIPT_FIGURE
1002
{
1000
PSFILL
1000
Grayscale
1000
Grayscale
1070
    25
1002
}
  0
LINE
  5
16722
330
1624E
100
AcDbEntity
  8
YODOROGO
100
AcDbLine
 10
14960.80217064594
 20
853.874748214644
 30
0.0
 11
14988.80217064596
 21
853.874748214644
 31
0.0
1001
AUTOCAD_POSTSCRIPT_FIGURE
1002
{
1000
PSFILL
1000
Grayscale
1000
Grayscale
1070
    25
1002
}
  0
LINE
  5
16723
330
1624E
100
AcDbEntity
  8
YODOROGO
100
AcDbLine
 10
14988.80217064596
 20
853.874748214644
 30
0.0
 11
14988.80217064596
 21
909.8747482146439
 31
0.0
1001
AUTOCAD_POSTSCRIPT_FIGURE
1002
{
1000
PSFILL
1000
Grayscale
1000
Grayscale
1070
    25
1002
}
  0
LINE
  5
16724
330
1624E
100
AcDbEntity
  8
YODOROGO
100
AcDbLine
 10
14988.80217064596
 20
909.8747482146439
 30
0.0
 11
14914.80217064596
 21
909.8747482146439
 31
0.0
1001
AUTOCAD_POSTSCRIPT_FIGURE
1002
{
1000
PSFILL
1000
Grayscale
1000
Grayscale
1070
    25
1002
}
  0
LINE
  5
16725
330
1624E
100
AcDbEntity
  8
YODOROGO
100
AcDbLine
 10
14914.80217064596
 20
909.8747482146439
 30
0.0
 11
14914.80217064596
 21
929.874748214644
 31
0.0
1001
AUTOCAD_POSTSCRIPT_FIGURE
1002
{
1000
PSFILL
1000
Grayscale
1000
Grayscale
1070
    25
1002
}
  0
LINE
  5
16726
330
1624E
100
AcDbEntity
  8
YODOROGO
100
AcDbLine
 10
14914.80217064596
 20
929.874748214644
 30
0.0
 11
14988.80217064596
 21
929.874748214644
 31
0.0
1001
AUTOCAD_POSTSCRIPT_FIGURE
1002
{
1000
PSFILL
1000
Grayscale
1000
Grayscale
1070
    25
1002
}
  0
LINE
  5
16727
330
1624E
100
AcDbEntity
  8
YODOROGO
100
AcDbLine
 10
14988.80217064596
 20
929.874748214644
 30
0.0
 11
14988.80217064596
 21
953.874748214644
 31
0.0
1001
AUTOCAD_POSTSCRIPT_FIGURE
1002
{
1000
PSFILL
1000
Grayscale
1000
Grayscale
1070
    25
1002
}
  0
LINE
  5
16728
330
1624E
100
AcDbEntity
  8
YODOROGO
100
AcDbLine
 10
14988.80217064596
 20
953.874748214644
 30
0.0
 11
14914.80217064596
 21
953.874748214644
 31
0.0
1001
AUTOCAD_POSTSCRIPT_FIGURE
1002
{
1000
PSFILL
1000
Grayscale
1000
Grayscale
1070
    25
1002
}
  0
LINE
  5
16729
330
1624E
100
AcDbEntity
  8
YODOROGO
100
AcDbLine
 10
14914.80217064596
 20
953.874748214644
 30
0.0
 11
14914.80217064596
 21
973.8747482146434
 31
0.0
1001
AUTOCAD_POSTSCRIPT_FIGURE
1002
{
1000
PSFILL
1000
Grayscale
1000
Grayscale
1070
    25
1002
}
  0
LINE
  5
1672A
330
1624E
100
AcDbEntity
  8
YODOROGO
100
AcDbLine
 10
14914.80217064596
 20
973.8747482146434
 30
0.0
 11
14988.80217064596
 21
973.8747482146434
 31
0.0
1001
AUTOCAD_POSTSCRIPT_FIGURE
1002
{
1000
PSFILL
1000
Grayscale
1000
Grayscale
1070
    25
1002
}
  0
LINE
  5
1672B
330
1624E
100
AcDbEntity
  8
YODOROGO
100
AcDbLine
 10
14988.80217064596
 20
973.8747482146434
 30
0.0
 11
14988.80217064596
 21
997.8747482146435
 31
0.0
1001
AUTOCAD_POSTSCRIPT_FIGURE
1002
{
1000
PSFILL
1000
Grayscale
1000
Grayscale
1070
    25
1002
}
  0
LINE
  5
1672C
330
1624E
100
AcDbEntity
  8
YODOROGO
100
AcDbLine
 10
14988.80217064596
 20
997.8747482146435
 30
0.0
 11
14914.80217064596
 21
997.8747482146435
 31
0.0
1001
AUTOCAD_POSTSCRIPT_FIGURE
1002
{
1000
PSFILL
1000
Grayscale
1000
Grayscale
1070
    25
1002
}
  0
LINE
  5
1672D
330
1624E
100
AcDbEntity
  8
YODOROGO
100
AcDbLine
 10
14914.80217064596
 20
997.8747482146435
 30
0.0
 11
14914.80217064596
 21
1013.874748214644
 31
0.0
1001
AUTOCAD_POSTSCRIPT_FIGURE
1002
{
1000
PSFILL
1000
Grayscale
1000
Grayscale
1070
    25
1002
}
  0
LINE
  5
1672E
330
1624E
100
AcDbEntity
  8
YODOROGO
100
AcDbLine
 10
14914.80217064596
 20
1013.874748214644
 30
0.0
 11
14882.80217064596
 21
1013.874748214644
 31
0.0
1001
AUTOCAD_POSTSCRIPT_FIGURE
1002
{
1000
PSFILL
1000
Grayscale
1000
Grayscale
1070
    25
1002
}
  0
LINE
  5
1672F
330
1624E
100
AcDbEntity
  8
YODOROGO
100
AcDbLine
 10
14882.80217064596
 20
1013.874748214644
 30
0.0
 11
14882.80217064596
 21
997.8747482146435
 31
0.0
1001
AUTOCAD_POSTSCRIPT_FIGURE
1002
{
1000
PSFILL
1000
Grayscale
1000
Grayscale
1070
    25
1002
}
  0
LINE
  5
16730
330
1624E
100
AcDbEntity
  8
YODOROGO
100
AcDbLine
 10
14882.80217064596
 20
997.8747482146435
 30
0.0
 11
14832.80217064596
 21
997.8747482146435
 31
0.0
1001
AUTOCAD_POSTSCRIPT_FIGURE
1002
{
1000
PSFILL
1000
Grayscale
1000
Grayscale
1070
    25
1002
}
  0
LINE
  5
16731
330
1624E
100
AcDbEntity
  8
YODOROGO
100
AcDbLine
 10
14832.80217064596
 20
997.8747482146435
 30
0.0
 11
14832.80217064596
 21
1013.874748214644
 31
0.0
1001
AUTOCAD_POSTSCRIPT_FIGURE
1002
{
1000
PSFILL
1000
Grayscale
1000
Grayscale
1070
    25
1002
}
  0
LINE
  5
16732
330
1624E
100
AcDbEntity
  8
YODOROGO
100
AcDbLine
 10
14832.80217064596
 20
1013.874748214644
 30
0.0
 11
14808.80217064596
 21
1013.874748214644
 31
0.0
1001
AUTOCAD_POSTSCRIPT_FIGURE
1002
{
1000
PSFILL
1000
Grayscale
1000
Grayscale
1070
    25
1002
}
  0
LINE
  5
16733
330
1624E
100
AcDbEntity
  8
YODOROGO
100
AcDbLine
 10
14808.80217064596
 20
1013.874748214644
 30
0.0
 11
14808.80217064596
 21
973.8747482146434
 31
0.0
1001
AUTOCAD_POSTSCRIPT_FIGURE
1002
{
1000
PSFILL
1000
Grayscale
1000
Grayscale
1070
    25
1002
}
  0
LINE
  5
16734
330
1624E
100
AcDbEntity
  8
YODOROGO
100
AcDbLine
 10
14808.80217064596
 20
973.8747482146434
 30
0.0
 11
14882.80217064596
 21
973.8747482146434
 31
0.0
1001
AUTOCAD_POSTSCRIPT_FIGURE
1002
{
1000
PSFILL
1000
Grayscale
1000
Grayscale
1070
    25
1002
}
  0
LINE
  5
16735
330
1624E
100
AcDbEntity
  8
YODOROGO
100
AcDbLine
 10
14882.80217064596
 20
973.8747482146434
 30
0.0
 11
14882.80217064596
 21
953.874748214644
 31
0.0
1001
AUTOCAD_POSTSCRIPT_FIGURE
1002
{
1000
PSFILL
1000
Grayscale
1000
Grayscale
1070
    25
1002
}
  0
LINE
  5
16736
330
1624E
100
AcDbEntity
  8
YODOROGO
100
AcDbLine
 10
14882.80217064596
 20
953.874748214644
 30
0.0
 11
14808.80217064596
 21
953.874748214644
 31
0.0
1001
AUTOCAD_POSTSCRIPT_FIGURE
1002
{
1000
PSFILL
1000
Grayscale
1000
Grayscale
1070
    25
1002
}
  0
LINE
  5
16737
330
1624E
100
AcDbEntity
  8
YODOROGO
100
AcDbLine
 10
14808.80217064596
 20
953.874748214644
 30
0.0
 11
14808.80217064596
 21
929.874748214644
 31
0.0
1001
AUTOCAD_POSTSCRIPT_FIGURE
1002
{
1000
PSFILL
1000
Grayscale
1000
Grayscale
1070
    25
1002
}
  0
LINE
  5
16738
330
1624E
100
AcDbEntity
  8
YODOROGO
100
AcDbLine
 10
14808.80217064596
 20
929.874748214644
 30
0.0
 11
14882.80217064596
 21
929.874748214644
 31
0.0
1001
AUTOCAD_POSTSCRIPT_FIGURE
1002
{
1000
PSFILL
1000
Grayscale
1000
Grayscale
1070
    25
1002
}
  0
LINE
  5
16739
330
1624E
100
AcDbEntity
  8
YODOROGO
100
AcDbLine
 10
14882.80217064596
 20
929.874748214644
 30
0.0
 11
14882.80217064596
 21
909.8747482146439
 31
0.0
1001
AUTOCAD_POSTSCRIPT_FIGURE
1002
{
1000
PSFILL
1000
Grayscale
1000
Grayscale
1070
    25
1002
}
  0
LINE
  5
1673A
330
1624E
100
AcDbEntity
  8
YODOROGO
100
AcDbLine
 10
14882.80217064596
 20
909.8747482146439
 30
0.0
 11
14808.80217064596
 21
909.8747482146439
 31
0.0
1001
AUTOCAD_POSTSCRIPT_FIGURE
1002
{
1000
PSFILL
1000
Grayscale
1000
Grayscale
1070
    25
1002
}
  0
LINE
  5
1673B
330
1624E
100
AcDbEntity
  8
YODOROGO
100
AcDbLine
 10
14808.80217064596
 20
909.8747482146439
 30
0.0
 11
14808.80217064596
 21
853.874748214644
 31
0.0
1001
AUTOCAD_POSTSCRIPT_FIGURE
1002
{
1000
PSFILL
1000
Grayscale
1000
Grayscale
1070
    25
1002
}
  0
LINE
  5
1673C
330
1624E
100
AcDbEntity
  8
YODOROGO
100
AcDbLine
 10
14808.80217064596
 20
853.874748214644
 30
0.0
 11
14836.80217064596
 21
853.874748214644
 31
0.0
1001
AUTOCAD_POSTSCRIPT_FIGURE
1002
{
1000
PSFILL
1000
Grayscale
1000
Grayscale
1070
    25
1002
}
  0
LINE
  5
1673D
330
1624E
100
AcDbEntity
  8
YODOROGO
100
AcDbLine
 10
14836.80217064596
 20
853.874748214644
 30
0.0
 11
14836.80217064596
 21
885.8747482146441
 31
0.0
1001
AUTOCAD_POSTSCRIPT_FIGURE
1002
{
1000
PSFILL
1000
Grayscale
1000
Grayscale
1070
    25
1002
}
  0
LINE
  5
1673E
330
1624E
100
AcDbEntity
  8
YODOROGO
100
AcDbLine
 10
14968.80217064596
 20
740.6696674577553
 30
0.0
 11
14968.80217064596
 21
797.2655452655705
 31
0.0
  0
ARC
  5
1673F
330
1624E
100
AcDbEntity
  8
YODOROGO
100
AcDbCircle
 10
15127.17387491394
 20
903.9323046166312
 30
0.0
 40
190.9434321028236
100
AcDbArc
 50
213.9611167766784
 51
264.4787207431779
  0
LINE
  5
16740
330
1624E
100
AcDbEntity
  8
YODOROGO
100
AcDbLine
 10
15108.80217064596
 20
713.8747482146428
 30
0.0
 11
15108.80217064596
 21
773.874748214644
 31
0.0
  0
ARC
  5
16741
330
1624E
100
AcDbEntity
  8
YODOROGO
100
AcDbCircle
 10
15115.02941435022
 20
934.4428574765011
 30
0.0
 40
160.6888181426452
100
AcDbArc
 50
260.6062929797
 51
267.7790355655591
  0
LINE
  5
16742
330
1624E
100
AcDbEntity
  8
YODOROGO
100
AcDbLine
 10
15088.80217064596
 20
775.9088612367134
 30
0.0
 11
15094.80217064596
 21
801.8747482146444
 31
0.0
  0
LINE
  5
16743
330
1624E
100
AcDbEntity
  8
YODOROGO
100
AcDbLine
 10
15094.80217064596
 20
801.8747482146444
 30
0.0
 11
15052.80217064596
 21
801.8747482146444
 31
0.0
  0
LINE
  5
16744
330
1624E
100
AcDbEntity
  8
YODOROGO
100
AcDbLine
 10
15052.80217064596
 20
801.8747482146444
 30
0.0
 11
15048.80217064598
 21
788.0364079349501
 31
0.0
  0
ARC
  5
16745
330
1624E
100
AcDbEntity
  8
YODOROGO
100
AcDbCircle
 10
15115.02941435068
 20
934.442857476448
 30
0.0
 40
160.6888181426116
100
AcDbArc
 50
228.6181454618984
 51
245.6602892489051
  0
LINE
  5
16746
330
1624E
100
AcDbEntity
  8
YODOROGO
100
AcDbLine
 10
15008.80217064596
 20
813.8747482146435
 30
0.0
 11
15108.80217064596
 21
813.8747482146435
 31
0.0
  0
LINE
  5
16747
330
1624E
100
AcDbEntity
  8
YODOROGO
100
AcDbLine
 10
15108.80217064596
 20
813.8747482146435
 30
0.0
 11
15108.80217064596
 21
833.8747482146439
 31
0.0
  0
LINE
  5
16748
330
1624E
100
AcDbEntity
  8
YODOROGO
100
AcDbLine
 10
15108.80217064596
 20
833.8747482146439
 30
0.0
 11
14974.80217064595
 21
833.8747482146439
 31
0.0
  0
LINE
  5
16749
330
1624E
100
AcDbEntity
  8
YODOROGO
100
AcDbLine
 10
14974.80217064595
 20
833.8747482146439
 30
0.0
 11
14974.80217064595
 21
853.874748214644
 31
0.0
  0
LINE
  5
1674A
330
1624E
100
AcDbEntity
  8
YODOROGO
100
AcDbLine
 10
14974.80217064595
 20
853.874748214644
 30
0.0
 11
14942.80217064596
 21
853.874748214644
 31
0.0
  0
LINE
  5
1674B
330
1624E
100
AcDbEntity
  8
YODOROGO
100
AcDbLine
 10
14942.80217064596
 20
853.874748214644
 30
0.0
 11
14942.80217064596
 21
833.8747482146439
 31
0.0
  0
LINE
  5
1674C
330
1624E
100
AcDbEntity
  8
YODOROGO
100
AcDbLine
 10
14942.80217064596
 20
833.8747482146439
 30
0.0
 11
14808.80217064596
 21
833.8747482146439
 31
0.0
  0
LINE
  5
1674D
330
1624E
100
AcDbEntity
  8
YODOROGO
100
AcDbLine
 10
14808.80217064596
 20
833.8747482146439
 30
0.0
 11
14808.80217064596
 21
813.8747482146435
 31
0.0
  0
LINE
  5
1674E
330
1624E
100
AcDbEntity
  8
YODOROGO
100
AcDbLine
 10
14808.80217064596
 20
813.8747482146435
 30
0.0
 11
14856.47231434973
 21
813.8747482146435
 31
0.0
  0
LINE
  5
1674F
330
1624E
100
AcDbEntity
  8
YODOROGO
100
AcDbLine
 10
14856.47231434973
 20
813.8747482146435
 30
0.0
 11
14808.80217064596
 21
773.874748214644
 31
0.0
  0
LINE
  5
16750
330
1624E
100
AcDbEntity
  8
YODOROGO
100
AcDbLine
 10
14808.80217064596
 20
773.874748214644
 30
0.0
 11
14808.80217064596
 21
713.8747482146436
 31
0.0
  0
LINE
  5
16751
330
1624E
100
AcDbEntity
  8
YODOROGO
100
AcDbLine
 10
14808.80217064596
 20
713.8747482146436
 30
0.0
 11
14868.80217064596
 21
764.2207260852818
 31
0.0
  0
LINE
  5
16752
330
1624E
100
AcDbEntity
  8
YODOROGO
100
AcDbLine
 10
14868.80217064596
 20
764.2207260852818
 30
0.0
 11
14868.80217064596
 21
713.8747482146436
 31
0.0
  0
LINE
  5
16753
330
1624E
100
AcDbEntity
  8
YODOROGO
100
AcDbLine
 10
14868.80217064596
 20
713.8747482146436
 30
0.0
 11
14968.80217064596
 21
740.6696674577553
 31
0.0
  0
LINE
  5
16754
330
1624E
100
AcDbEntity
  8
YODOROGO
100
AcDbLine
 10
14888.80217064596
 20
813.8747482146435
 30
0.0
 11
14888.80217064596
 21
781.0027187088283
 31
0.0
  0
LINE
  5
16755
330
1624E
100
AcDbEntity
  8
YODOROGO
100
AcDbLine
 10
14888.80217064596
 20
781.0027187088283
 30
0.0
 11
14885.70493649264
 21
778.403830673117
 31
0.0
  0
LINE
  5
16756
330
1624E
100
AcDbEntity
  8
YODOROGO
100
AcDbLine
 10
14885.70493649264
 20
778.403830673117
 30
0.0
 11
14966.89206625426
 21
800.1578565285436
 31
0.0
  0
ARC
  5
16757
330
1624E
100
AcDbEntity
  8
YODOROGO
100
AcDbCircle
 10
15127.17387491396
 20
903.9323046166616
 30
0.0
 40
190.9434321028459
100
AcDbArc
 50
208.1411442048688
 51
212.9210361186024
  0
LINE
  5
16758
330
1624E
100
AcDbEntity
  8
YODOROGO
100
AcDbLine
 10
14958.80217064596
 20
813.8747482146435
 30
0.0
 11
14888.80217064596
 21
813.8747482146435
 31
0.0
  0
LINE
  5
16759
330
1624E
100
AcDbEntity
  8
YODOROGO
100
AcDbLine
 10
14968.80217064596
 20
740.6696674577553
 30
0.0
 11
14968.80217064596
 21
797.2655452655705
 31
0.0
  0
ARC
  5
1675A
330
1624E
100
AcDbEntity
  8
YODOROGO
100
AcDbCircle
 10
15127.17387491394
 20
903.9323046166312
 30
0.0
 40
190.9434321028236
100
AcDbArc
 50
213.9611167766784
 51
264.4787207431779
  0
LINE
  5
1675B
330
1624E
100
AcDbEntity
  8
YODOROGO
100
AcDbLine
 10
15108.80217064596
 20
713.8747482146428
 30
0.0
 11
15108.80217064596
 21
773.874748214644
 31
0.0
  0
ARC
  5
1675C
330
1624E
100
AcDbEntity
  8
YODOROGO
100
AcDbCircle
 10
15115.02941435022
 20
934.4428574765011
 30
0.0
 40
160.6888181426452
100
AcDbArc
 50
260.6062929797
 51
267.7790355655591
  0
LINE
  5
1675D
330
1624E
100
AcDbEntity
  8
YODOROGO
100
AcDbLine
 10
15088.80217064596
 20
775.9088612367134
 30
0.0
 11
15094.80217064596
 21
801.8747482146444
 31
0.0
  0
LINE
  5
1675E
330
1624E
100
AcDbEntity
  8
YODOROGO
100
AcDbLine
 10
15094.80217064596
 20
801.8747482146444
 30
0.0
 11
15052.80217064596
 21
801.8747482146444
 31
0.0
  0
LINE
  5
1675F
330
1624E
100
AcDbEntity
  8
YODOROGO
100
AcDbLine
 10
15052.80217064596
 20
801.8747482146444
 30
0.0
 11
15048.80217064598
 21
788.0364079349501
 31
0.0
  0
ARC
  5
16760
330
1624E
100
AcDbEntity
  8
YODOROGO
100
AcDbCircle
 10
15115.02941435068
 20
934.442857476448
 30
0.0
 40
160.6888181426116
100
AcDbArc
 50
228.6181454618984
 51
245.6602892489051
  0
LINE
  5
16761
330
1624E
100
AcDbEntity
  8
YODOROGO
100
AcDbLine
 10
15008.80217064596
 20
813.8747482146435
 30
0.0
 11
15108.80217064596
 21
813.8747482146435
 31
0.0
  0
LINE
  5
16762
330
1624E
100
AcDbEntity
  8
YODOROGO
100
AcDbLine
 10
15108.80217064596
 20
813.8747482146435
 30
0.0
 11
15108.80217064596
 21
833.8747482146439
 31
0.0
  0
LINE
  5
16763
330
1624E
100
AcDbEntity
  8
YODOROGO
100
AcDbLine
 10
15108.80217064596
 20
833.8747482146439
 30
0.0
 11
14974.80217064595
 21
833.8747482146439
 31
0.0
  0
LINE
  5
16764
330
1624E
100
AcDbEntity
  8
YODOROGO
100
AcDbLine
 10
14974.80217064595
 20
833.8747482146439
 30
0.0
 11
14974.80217064595
 21
853.874748214644
 31
0.0
  0
LINE
  5
16765
330
1624E
100
AcDbEntity
  8
YODOROGO
100
AcDbLine
 10
14974.80217064595
 20
853.874748214644
 30
0.0
 11
14942.80217064596
 21
853.874748214644
 31
0.0
  0
LINE
  5
16766
330
1624E
100
AcDbEntity
  8
YODOROGO
100
AcDbLine
 10
14942.80217064596
 20
853.874748214644
 30
0.0
 11
14942.80217064596
 21
833.8747482146439
 31
0.0
  0
LINE
  5
16767
330
1624E
100
AcDbEntity
  8
YODOROGO
100
AcDbLine
 10
14942.80217064596
 20
833.8747482146439
 30
0.0
 11
14808.80217064596
 21
833.8747482146439
 31
0.0
  0
LINE
  5
16768
330
1624E
100
AcDbEntity
  8
YODOROGO
100
AcDbLine
 10
14808.80217064596
 20
833.8747482146439
 30
0.0
 11
14808.80217064596
 21
813.8747482146435
 31
0.0
  0
LINE
  5
16769
330
1624E
100
AcDbEntity
  8
YODOROGO
100
AcDbLine
 10
14808.80217064596
 20
813.8747482146435
 30
0.0
 11
14856.47231434973
 21
813.8747482146435
 31
0.0
  0
LINE
  5
1676A
330
1624E
100
AcDbEntity
  8
YODOROGO
100
AcDbLine
 10
14856.47231434973
 20
813.8747482146435
 30
0.0
 11
14808.80217064596
 21
773.874748214644
 31
0.0
  0
LINE
  5
1676B
330
1624E
100
AcDbEntity
  8
YODOROGO
100
AcDbLine
 10
14808.80217064596
 20
773.874748214644
 30
0.0
 11
14808.80217064596
 21
713.8747482146436
 31
0.0
  0
LINE
  5
1676C
330
1624E
100
AcDbEntity
  8
YODOROGO
100
AcDbLine
 10
14808.80217064596
 20
713.8747482146436
 30
0.0
 11
14868.80217064596
 21
764.2207260852818
 31
0.0
  0
LINE
  5
1676D
330
1624E
100
AcDbEntity
  8
YODOROGO
100
AcDbLine
 10
14868.80217064596
 20
764.2207260852818
 30
0.0
 11
14868.80217064596
 21
713.8747482146436
 31
0.0
  0
LINE
  5
1676E
330
1624E
100
AcDbEntity
  8
YODOROGO
100
AcDbLine
 10
14868.80217064596
 20
713.8747482146436
 30
0.0
 11
14968.80217064596
 21
740.6696674577553
 31
0.0
  0
TEXT
  5
16795
330
1624E
100
AcDbEntity
  8
SUNPOU
100
AcDbText
 10
9988.206026161009
 20
1897.634854374946
 30
0.0
 40
90.0
  1
所もありますので、ご注意願います。
  7
01
100
AcDbText
  0
TEXT
  5
16796
330
1624E
100
AcDbEntity
  8
SUNPOU
100
AcDbText
 10
9613.250281071625
 20
2894.063425803519
 30
0.0
 40
89.9993750043402
  1
基準風速   　　 , 地表面粗度区分
  7
01
100
AcDbText
  0
TEXT
  5
16797
330
1624E
100
AcDbEntity
  8
SUNPOU
100
AcDbText
 10
9988.206026161009
 20
2514.777711517805
 30
0.0
 40
90.0
  1
あわせて設計して下さい。
  7
01
100
AcDbText
  0
TEXT
  5
16798
330
1624E
100
AcDbEntity
  8
SUNPOU
100
AcDbText
 10
9988.206026161009
 20
2206.206282946377
 30
0.0
 40
90.0
  1
異形鉄筋の場合、原則としてフックは不要ですが、
  7
01
100
AcDbText
  0
TEXT
  5
16799
330
1624E
100
AcDbEntity
  8
SUNPOU
100
AcDbText
 10
9613.250281071625
 20
3048.349140089232
 30
0.0
 40
89.9993750043402
  1
地耐力   　　　 以上,コンクリート設計基準強度　　　　　以上
  7
01
100
AcDbText
  0
TEXT
  5
1679A
330
1624E
100
AcDbEntity
  8
SUNPOU
100
AcDbText
 10
9988.206026161009
 20
2360.491997232092
 30
0.0
 40
90.0
  1
その他現地の実情にあわせて設計して下さい。
  7
01
100
AcDbText
  0
TEXT
  5
1679B
330
1624E
100
AcDbEntity
  8
SUNPOU
100
AcDbText
 10
9988.206026161009
 20
2669.063425803519
 30
0.0
 40
90.0
  1
寒冷地の場合、凍結深度等を考慮し、実情に
  7
01
100
AcDbText
  0
TEXT
  5
1679C
330
1624E
100
AcDbEntity
  8
SUNPOU
100
AcDbText
 10
9988.206026161009
 20
2051.920568660663
 30
0.0
 40
90.0
  1
地域によっては、フックをつける様指導している
  7
01
100
AcDbText
  0
TEXT
  5
1679D
330
1624E
100
AcDbEntity
  8
SUNPOU
100
AcDbText
 10
10756.95240469833
 20
3386.487757919802
 30
0.0
 40
73.84615384615384
  1
25
 41
0.6700000000000001
  7
00
 11
10756.95240469833
 21
3376.641604073649
 31
0.0
100
AcDbText
 73
     1
  0
TEXT
  5
1679E
330
1624E
100
AcDbEntity
  8
SUNPOU
100
AcDbText
 10
10693.00296174395
 20
3404.949296381342
 30
0.0
 40
73.84615384615384
  1
/
 41
0.6700000000000001
  7
00
 11
10693.00296174395
 21
3395.103142535188
 31
0.0
100
AcDbText
 73
     1
  0
TEXT
  5
1679F
330
1624E
100
AcDbEntity
  8
SUNPOU
100
AcDbText
 10
9608.043795212537
 20
3395.103142535189
 30
0.0
 40
120.0
  1
基礎断面図
  7
01
 72
     4
 11
9948.043795212539
 21
3455.103142535189
 31
0.0
100
AcDbText
  0
TEXT
  5
167A0
330
1624E
100
AcDbEntity
  8
SUNPOU
100
AcDbText
 10
9482.686652355383
 20
3237.603142535188
 30
0.0
 40
90.0
  1
<下記条件での参考図>
  7
01
 72
     4
 11
10071.54379521252
 21
3282.603142535188
 31
0.0
100
AcDbText
  0
ARC
  5
167A1
330
1624E
100
AcDbEntity
  8
SUNPOU
100
AcDbCircle
 10
9766.208554978829
 20
3012.136563531065
 30
0.0
 40
225.0
100
AcDbArc
 50
148.3472725282761
 51
211.6527274717238
  0
TEXT
  5
167A2
330
1624E
100
AcDbEntity
  8
SUNPOU
100
AcDbText
 10
9671.366360858897
 20
2206.206282946377
 30
0.0
 40
90.0
  1
注　）
  7
01
100
AcDbText
  0
TEXT
  5
167A3
330
1624E
100
AcDbEntity
  8
SUNPOU
100
AcDbText
 10
9782.000281071624
 20
2206.206282946377
 30
0.0
 40
90.0
  1
3
 41
0.6700000000000001
  7
01
100
AcDbText
  0
TEXT
  5
167A4
330
1624E
100
AcDbEntity
  8
SUNPOU
100
AcDbText
 10
9671.366360858897
 20
2360.491997232092
 30
0.0
 40
90.0
  1
注　）
  7
01
100
AcDbText
  0
TEXT
  5
167A5
330
1624E
100
AcDbEntity
  8
SUNPOU
100
AcDbText
 10
9782.000281071624
 20
2360.491997232092
 30
0.0
 40
90.0
  1
2
 41
0.6700000000000001
  7
01
100
AcDbText
  0
TEXT
  5
167A6
330
1624E
100
AcDbEntity
  8
SUNPOU
100
AcDbText
 10
10097.01370973679
 20
2894.063425803519
 30
0.0
 40
89.9993750043402
  1
34 m/s
 41
0.6700000000000001
  7
01
100
AcDbText
  0
TEXT
  5
167A7
330
1624E
100
AcDbEntity
  8
SUNPOU
100
AcDbText
 10
9987.508688496697
 20
3048.349140089232
 30
0.0
 40
89.9993750043402
  1
50  N/m
 41
0.6700000000000001
  7
01
100
AcDbText
  0
TEXT
  5
167A8
330
1624E
100
AcDbEntity
  8
SUNPOU
100
AcDbText
 10
9782.000281071624
 20
2669.063425803519
 30
0.0
 40
90.0
  1
1
 41
0.6700000000000001
  7
01
100
AcDbText
  0
TEXT
  5
167A9
330
1624E
100
AcDbEntity
  8
SUNPOU
100
AcDbText
 10
9671.366360858897
 20
2669.063425803519
 30
0.0
 40
90.0
  1
注　）
  7
01
100
AcDbText
  0
TEXT
  5
167AA
330
1624E
100
AcDbEntity
  8
SUNPOU
100
AcDbText
 10
10123.34514128264
 20
3048.349140089232
 30
0.0
 40
71.99950000347218
  1
K
 41
0.6700000000000001
  7
01
100
AcDbText
  0
TEXT
  5
167AB
330
1624E
100
AcDbEntity
  8
SUNPOU
100
AcDbText
 10
10390.98529801105
 20
3098.537566446719
 30
0.0
 40
46.28539285937498
  1
2
 41
0.6700000000000001
  7
00
100
AcDbText
  0
TEXT
  5
167AC
330
1624E
100
AcDbEntity
  8
SUNPOU
100
AcDbText
 10
10324.8941325755
 20
3407.410834842881
 30
0.0
 40
92.30769230769228
  1
（ S = 　　  ）
 41
0.6700000000000001
  7
00
 11
10324.8941325755
 21
3395.103142535188
 31
0.0
100
AcDbText
 73
     1
  0
TEXT
  5
167AD
330
1624E
100
AcDbEntity
  8
SUNPOU
100
AcDbText
 10
10644.59683442856
 20
3423.410834842883
 30
0.0
 40
73.84615384615384
  1
1
 41
0.6700000000000001
  7
00
 11
10644.59683442856
 21
3413.564680996729
 31
0.0
100
AcDbText
 73
     1
  0
TEXT
  5
167AE
330
1624E
100
AcDbEntity
  8
SUNPOU
100
AcDbText
 10
12168.09721214429
 20
3048.349140089232
 30
0.0
 40
89.9993750043402
  1
N/mm
 41
0.6700000000000001
  7
01
100
AcDbText
  0
LINE
  5
167AF
330
1624E
100
AcDbEntity
  8
SUNPOU
100
AcDbLine
 10
11450.06584263822
 20
2894.063425803519
 30
0.0
 11
11450.06584263822
 21
2977.555789502299
 31
0.0
  0
LINE
  5
167B0
330
1624E
100
AcDbEntity
  8
SUNPOU
100
AcDbLine
 10
11433.19084263823
 20
2894.063425803519
 30
0.0
 11
11433.19084263823
 21
2977.555789502299
 31
0.0
  0
LINE
  5
167B1
330
1624E
100
AcDbEntity
  8
SUNPOU
100
AcDbLine
 10
11416.31584263822
 20
2894.063425803519
 30
0.0
 11
11416.31584263822
 21
2977.555789502299
 31
0.0
  0
LINE
  5
167B2
330
1624E
100
AcDbEntity
  8
SUNPOU
100
AcDbLine
 10
11405.06584263822
 20
2894.063425803519
 30
0.0
 11
11461.31584263822
 21
2894.063425803519
 31
0.0
  0
LINE
  5
167B3
330
1624E
100
AcDbEntity
  8
SUNPOU
100
AcDbLine
 10
11405.06584263822
 20
2977.555789502299
 30
0.0
 11
11461.31584263822
 21
2977.555789502299
 31
0.0
  0
TEXT
  5
167B4
330
1624E
100
AcDbEntity
  8
SUNPOU
100
AcDbText
 10
12032.26075935832
 20
3048.349140089232
 30
0.0
 40
89.9993750043402
  1
18
 41
0.6700000000000001
  7
01
100
AcDbText
  0
ARC
  5
167B5
330
1624E
100
AcDbEntity
  8
SUNPOU
100
AcDbCircle
 10
12621.43895870929
 20
3012.136563531065
 30
0.0
 40
225.0
100
AcDbArc
 50
328.3472725282761
 51
31.65272747172387
  0
TEXT
  5
167B6
330
1624E
100
AcDbEntity
  8
SUNPOU
100
AcDbText
 10
12472.56169417569
 20
3098.537566446719
 30
0.0
 40
46.28539285937498
  1
2
 41
0.6700000000000001
  7
00
100
AcDbText
  0
ENDSEC
  0
SECTION
  2
OBJECTS
  0
DICTIONARY
  5
1623C
330
0
100
AcDbDictionary
281
     1
  3
ACAD_GROUP
350
1623D
  3
ACAD_LAYOUT
350
16249
  3
ACAD_MLINESTYLE
350
16246
  3
ACAD_PLOTSETTINGS
350
16248
  3
ACAD_PLOTSTYLENAME
350
1623E
  3
AcDbVariableDictionary
350
167B7
  0
DICTIONARY
  5
1623D
102
{ACAD_REACTORS
330
1623C
102
}
330
1623C
100
AcDbDictionary
281
     1
  0
DICTIONARY
  5
16249
102
{ACAD_REACTORS
330
1623C
102
}
330
1623C
100
AcDbDictionary
281
     1
  3
Model
350
16251
  3
ﾚｲｱｳﾄ1
350
1624D
  0
DICTIONARY
  5
16246
102
{ACAD_REACTORS
330
1623C
102
}
330
1623C
100
AcDbDictionary
281
     1
  3
Standard
350
16247
  0
DICTIONARY
  5
16248
102
{ACAD_REACTORS
330
1623C
102
}
330
1623C
100
AcDbDictionary
281
     1
  0
ACDBDICTIONARYWDFLT
  5
1623E
102
{ACAD_REACTORS
330
1623C
102
}
330
1623C
100
AcDbDictionary
281
     1
  3
Normal
350
1623F
100
AcDbDictionaryWithDefault
340
1623F
  0
DICTIONARY
  5
167B7
102
{ACAD_REACTORS
330
1623C
102
}
330
1623C
100
AcDbDictionary
281
     1
  3
DIMASSOC
350
167B8
  0
LAYOUT
  5
16251
102
{ACAD_REACTORS
330
16249
102
}
330
16249
100
AcDbPlotSettings
  1

  2
Muratec V-1200 Is@Web Printer
  4

  6

 40
0.0
 41
0.0
 42
0.0
 43
0.0
 44
0.0
 45
0.0
 46
0.0
 47
0.0
 48
0.0
 49
0.0
140
0.0
141
0.0
142
1.0
143
1.0
 70
  1712
 72
     0
 73
     0
 74
     0
  7

 75
     0
147
1.0
148
0.0
149
0.0
100
AcDbLayout
  1
Model
 70
     1
 71
     0
 10
0.0
 20
0.0
 11
12.0
 21
9.0
 12
0.0
 22
0.0
 32
0.0
 14
0.0
 24
0.0
 34
0.0
 15
0.0
 25
0.0
 35
0.0
146
0.0
 13
0.0
 23
0.0
 33
0.0
 16
1.0
 26
0.0
 36
0.0
 17
0.0
 27
1.0
 37
0.0
 76
     0
330
1624E
  0
LAYOUT
  5
1624D
102
{ACAD_REACTORS
330
16249
102
}
330
16249
100
AcDbPlotSettings
  1

  2
Muratec V-1200 Is@Web Printer
  4

  6

 40
0.0
 41
0.0
 42
0.0
 43
0.0
 44
0.0
 45
0.0
 46
0.0
 47
0.0
 48
0.0
 49
0.0
140
0.0
141
0.0
142
1.0
143
1.0
 70
   688
 72
     0
 73
     0
 74
     5
  7

 75
    16
147
1.0
148
0.0
149
0.0
100
AcDbLayout
  1
ﾚｲｱｳﾄ1
 70
     0
 71
     1
 10
0.0
 20
0.0
 11
12.0
 21
9.0
 12
0.0
 22
0.0
 32
0.0
 14
1.000000000000000E+20
 24
1.000000000000000E+20
 34
1.000000000000000E+20
 15
-1.000000000000000E+20
 25
-1.000000000000000E+20
 35
-1.000000000000000E+20
146
0.0
 13
0.0
 23
0.0
 33
0.0
 16
1.0
 26
0.0
 36
0.0
 17
0.0
 27
1.0
 37
0.0
 76
     0
330
1624A
  0
MLINESTYLE
  5
16247
102
{ACAD_REACTORS
330
16246
102
}
330
16246
100
AcDbMlineStyle
  2
STANDARD
 70
     0
  3

 62
   256
 51
90.0
 52
90.0
 71
     2
 49
0.5
 62
   256
  6
BYLAYER
 49
-0.5
 62
   256
  6
BYLAYER
  0
ACDBPLACEHOLDER
  5
1623F
102
{ACAD_REACTORS
330
1623E
102
}
330
1623E
  0
DICTIONARYVAR
  5
167B8
102
{ACAD_REACTORS
330
167B7
102
}
330
167B7
100
DictionaryVariables
280
     0
  1
1
  0
ENDSEC
  0
EOF
