  0
SECTION
  2
HEADER
  9
$ACADVER
  1
AC1024
  9
$ACADMAINTVER
 70
    37
  9
$DWGCODEPAGE
  3
ANSI_932
  9
$LASTSAVEDBY
  1
93036
  9
$INSBASE
 10
267.0000000000001
 20
194.8999999999998
 30
0.0
  9
$EXTMIN
 10
433.9966216520333
 20
163.6908237492789
 30
-0.000000000000013
  9
$EXTMAX
 10
16382.6660542547
 20
11242.27663824599
 30
0.0000000000000023
  9
$LIMMIN
 10
0.0
 20
0.0
  9
$LIMMAX
 10
16800.0
 20
11880.0
  9
$ORTHOMODE
 70
     0
  9
$REGENMODE
 70
     1
  9
$FILLMODE
 70
     1
  9
$QTEXTMODE
 70
     0
  9
$MIRRTEXT
 70
     0
  9
$LTSCALE
 40
40.0
  9
$ATTMODE
 70
     1
  9
$TEXTSIZE
 40
0.2
  9
$TRACEWID
 40
0.05
  9
$TEXTSTYLE
  7
00
  9
$CLAYER
  8
SUNPOU
  9
$CELTYPE
  6
ByLayer
  9
$CECOLOR
 62
   256
  9
$CELTSCALE
 40
1.0
  9
$DISPSILH
 70
     0
  9
$DIMSCALE
 40
40.0
  9
$DIMASZ
 40
0.5
  9
$DIMEXO
 40
1.0
  9
$DIMDLI
 40
7.0
  9
$DIMRND
 40
0.0
  9
$DIMDLE
 40
3.0
  9
$DIMEXE
 40
1.125
  9
$DIMTP
 40
0.0
  9
$DIMTM
 40
0.0
  9
$DIMTXT
 40
2.25
  9
$DIMCEN
 40
0.0
  9
$DIMTSZ
 40
0.0
  9
$DIMTOL
 70
     0
  9
$DIMLIM
 70
     0
  9
$DIMTIH
 70
     0
  9
$DIMTOH
 70
     0
  9
$DIMSE1
 70
     0
  9
$DIMSE2
 70
     0
  9
$DIMTAD
 70
     1
  9
$DIMZIN
 70
     8
  9
$DIMBLK
  1
DOT
  9
$DIMASO
 70
     1
  9
$DIMSHO
 70
     0
  9
$DIMPOST
  1

  9
$DIMAPOST
  1

  9
$DIMALT
 70
     0
  9
$DIMALTD
 70
     2
  9
$DIMALTF
 40
25.4
  9
$DIMLFAC
 40
1.0
  9
$DIMTOFL
 70
     1
  9
$DIMTVP
 40
0.0
  9
$DIMTIX
 70
     0
  9
$DIMSOXD
 70
     0
  9
$DIMSAH
 70
     1
  9
$DIMBLK1
  1
DOT
  9
$DIMBLK2
  1
DOT
  9
$DIMSTYLE
  2
SUNPOU_図面名
  9
$DIMCLRD
 70
   256
  9
$DIMCLRE
 70
   256
  9
$DIMCLRT
 70
   256
  9
$DIMTFAC
 40
1.0
  9
$DIMGAP
 40
1.125
  9
$DIMJUST
 70
     0
  9
$DIMSD1
 70
     0
  9
$DIMSD2
 70
     0
  9
$DIMTOLJ
 70
     1
  9
$DIMTZIN
 70
     0
  9
$DIMALTZ
 70
     0
  9
$DIMALTTZ
 70
     0
  9
$DIMUPT
 70
     0
  9
$DIMDEC
 70
     4
  9
$DIMTDEC
 70
     4
  9
$DIMALTU
 70
     2
  9
$DIMALTTD
 70
     2
  9
$DIMTXSTY
  7
STANDARD
  9
$DIMAUNIT
 70
     0
  9
$DIMADEC
 70
     0
  9
$DIMALTRND
 40
0.0
  9
$DIMAZIN
 70
     0
  9
$DIMDSEP
 70
    46
  9
$DIMATFIT
 70
     3
  9
$DIMFRAC
 70
     0
  9
$DIMLDRBLK
  1
DOT
  9
$DIMLUNIT
 70
     2
  9
$DIMLWD
 70
    -2
  9
$DIMLWE
 70
    -2
  9
$DIMTMOVE
 70
     0
  9
$DIMFXL
 40
1.0
  9
$DIMFXLON
 70
     0
  9
$DIMJOGANG
 40
0.7853981633974483
  9
$DIMTFILL
 70
     0
  9
$DIMTFILLCLR
 70
     0
  9
$DIMARCSYM
 70
     0
  9
$DIMLTYPE
  6

  9
$DIMLTEX1
  6

  9
$DIMLTEX2
  6

  9
$DIMTXTDIRECTION
 70
     0
  9
$LUNITS
 70
     2
  9
$LUPREC
 70
     2
  9
$SKETCHINC
 40
0.1
  9
$FILLETRAD
 40
0.0
  9
$AUNITS
 70
     0
  9
$AUPREC
 70
     0
  9
$MENU
  1
A:\TIGER\MENU\TIGER
  9
$ELEVATION
 40
0.0
  9
$PELEVATION
 40
0.0
  9
$THICKNESS
 40
0.0
  9
$LIMCHECK
 70
     0
  9
$CHAMFERA
 40
0.0
  9
$CHAMFERB
 40
0.0
  9
$CHAMFERC
 40
0.0
  9
$CHAMFERD
 40
0.0
  9
$SKPOLY
 70
     0
  9
$TDCREATE
 40
2450266.571064815
  9
$TDUCREATE
 40
2450266.196064815
  9
$TDUPDATE
 40
2456405.508791817
  9
$TDUUPDATE
 40
2456405.133791818
  9
$TDINDWG
 40
0.2431264931
  9
$TDUSRTIMER
 40
0.2431263194
  9
$USRTIMER
 70
     1
  9
$ANGBASE
 50
0.0
  9
$ANGDIR
 70
     0
  9
$PDMODE
 70
     0
  9
$PDSIZE
 40
0.0
  9
$PLINEWID
 40
0.0
  9
$SPLFRAME
 70
     0
  9
$SPLINETYPE
 70
     6
  9
$SPLINESEGS
 70
     8
  9
$HANDSEED
  5
179D2
  9
$SURFTAB1
 70
     6
  9
$SURFTAB2
 70
     6
  9
$SURFTYPE
 70
     6
  9
$SURFU
 70
     6
  9
$SURFV
 70
     6
  9
$UCSBASE
  2

  9
$UCSNAME
  2

  9
$UCSORG
 10
0.0
 20
0.0
 30
0.0
  9
$UCSXDIR
 10
1.0
 20
0.0
 30
0.0
  9
$UCSYDIR
 10
0.0
 20
1.0
 30
0.0
  9
$UCSORTHOREF
  2

  9
$UCSORTHOVIEW
 70
     0
  9
$UCSORGTOP
 10
0.0
 20
0.0
 30
0.0
  9
$UCSORGBOTTOM
 10
0.0
 20
0.0
 30
0.0
  9
$UCSORGLEFT
 10
0.0
 20
0.0
 30
0.0
  9
$UCSORGRIGHT
 10
0.0
 20
0.0
 30
0.0
  9
$UCSORGFRONT
 10
0.0
 20
0.0
 30
0.0
  9
$UCSORGBACK
 10
0.0
 20
0.0
 30
0.0
  9
$PUCSBASE
  2

  9
$PUCSNAME
  2

  9
$PUCSORG
 10
0.0
 20
0.0
 30
0.0
  9
$PUCSXDIR
 10
1.0
 20
0.0
 30
0.0
  9
$PUCSYDIR
 10
0.0
 20
1.0
 30
0.0
  9
$PUCSORTHOREF
  2

  9
$PUCSORTHOVIEW
 70
     0
  9
$PUCSORGTOP
 10
0.0
 20
0.0
 30
0.0
  9
$PUCSORGBOTTOM
 10
0.0
 20
0.0
 30
0.0
  9
$PUCSORGLEFT
 10
0.0
 20
0.0
 30
0.0
  9
$PUCSORGRIGHT
 10
0.0
 20
0.0
 30
0.0
  9
$PUCSORGFRONT
 10
0.0
 20
0.0
 30
0.0
  9
$PUCSORGBACK
 10
0.0
 20
0.0
 30
0.0
  9
$USERI1
 70
     3
  9
$USERI2
 70
     0
  9
$USERI3
 70
     0
  9
$USERI4
 70
     0
  9
$USERI5
 70
  1103
  9
$USERR1
 40
0.0
  9
$USERR2
 40
1.0
  9
$USERR3
 40
0.0
  9
$USERR4
 40
0.0
  9
$USERR5
 40
0.0
  9
$WORLDVIEW
 70
     1
  9
$SHADEDGE
 70
     3
  9
$SHADEDIF
 70
    70
  9
$TILEMODE
 70
     1
  9
$MAXACTVP
 70
    16
  9
$PINSBASE
 10
0.0
 20
0.0
 30
0.0
  9
$PLIMCHECK
 70
     0
  9
$PEXTMIN
 10
1.000000000000000E+20
 20
1.000000000000000E+20
 30
1.000000000000000E+20
  9
$PEXTMAX
 10
-1.000000000000000E+20
 20
-1.000000000000000E+20
 30
-1.000000000000000E+20
  9
$PLIMMIN
 10
0.0
 20
0.0
  9
$PLIMMAX
 10
12.0
 20
9.0
  9
$UNITMODE
 70
     0
  9
$VISRETAIN
 70
     0
  9
$PLINEGEN
 70
     1
  9
$PSLTSCALE
 70
     0
  9
$TREEDEPTH
 70
  3020
  9
$CMLSTYLE
  2
Standard
  9
$CMLJUST
 70
     0
  9
$CMLSCALE
 40
1.0
  9
$PROXYGRAPHICS
 70
     1
  9
$MEASUREMENT
 70
     0
  9
$CELWEIGHT
370
    -1
  9
$ENDCAPS
280
     0
  9
$JOINSTYLE
280
     0
  9
$LWDISPLAY
290
     0
  9
$INSUNITS
 70
     0
  9
$HYPERLINKBASE
  1

  9
$STYLESHEET
  1

  9
$XEDIT
290
     1
  9
$CEPSNTYPE
380
     0
  9
$PSTYLEMODE
290
     1
  9
$FINGERPRINTGUID
  2
{8CE0130B-47B7-4DA4-AB23-37A1F0E8E590}
  9
$VERSIONGUID
  2
{D15CE7FE-0080-40F3-89BF-DE50CC089D92}
  9
$EXTNAMES
290
     1
  9
$PSVPSCALE
 40
0.0
  9
$OLESTARTUP
290
     0
  9
$SORTENTS
280
   127
  9
$INDEXCTL
280
     0
  9
$HIDETEXT
280
     0
  9
$XCLIPFRAME
280
     2
  9
$HALOGAP
280
     0
  9
$OBSCOLOR
 70
   257
  9
$OBSLTYPE
280
     0
  9
$INTERSECTIONDISPLAY
280
     0
  9
$INTERSECTIONCOLOR
 70
   257
  9
$DIMASSOC
280
     1
  9
$PROJECTNAME
  1

  9
$CAMERADISPLAY
290
     0
  9
$LENSLENGTH
 40
50.0
  9
$CAMERAHEIGHT
 40
0.0
  9
$STEPSPERSEC
 40
2.0
  9
$STEPSIZE
 40
6.0
  9
$3DDWFPREC
 40
2.0
  9
$PSOLWIDTH
 40
0.25
  9
$PSOLHEIGHT
 40
4.0
  9
$LOFTANG1
 40
1.570796326794896
  9
$LOFTANG2
 40
1.570796326794896
  9
$LOFTMAG1
 40
0.0
  9
$LOFTMAG2
 40
0.0
  9
$LOFTPARAM
 70
     7
  9
$LOFTNORMALS
280
     1
  9
$LATITUDE
 40
37.795
  9
$LONGITUDE
 40
-122.394
  9
$NORTHDIRECTION
 40
0.0
  9
$TIMEZONE
 70
 -8000
  9
$LIGHTGLYPHDISPLAY
280
     1
  9
$TILEMODELIGHTSYNCH
280
     1
  9
$CMATERIAL
347
1792F
  9
$SOLIDHIST
280
     1
  9
$SHOWHIST
280
     1
  9
$DWFFRAME
280
     2
  9
$DGNFRAME
280
     0
  9
$REALWORLDSCALE
290
     1
  9
$INTERFERECOLOR
 62
     1
  9
$INTERFEREOBJVS
345
17951
  9
$INTERFEREVPVS
346
1794E
  9
$CSHADOW
280
     0
  9
$SHADOWPLANELOCATION
 40
0.0
  0
ENDSEC
  0
SECTION
  2
CLASSES
  0
CLASS
  1
ACDBDICTIONARYWDFLT
  2
AcDbDictionaryWithDefault
  3
ObjectDBX Classes
 90
        0
 91
        1
280
     0
281
     0
  0
CLASS
  1
MATERIAL
  2
AcDbMaterial
  3
ObjectDBX Classes
 90
     1153
 91
        3
280
     0
281
     0
  0
CLASS
  1
VISUALSTYLE
  2
AcDbVisualStyle
  3
ObjectDBX Classes
 90
     4095
 91
       24
280
     0
281
     0
  0
CLASS
  1
SCALE
  2
AcDbScale
  3
ObjectDBX Classes
 90
     1153
 91
       17
280
     0
281
     0
  0
CLASS
  1
TABLESTYLE
  2
AcDbTableStyle
  3
ObjectDBX Classes
 90
     4095
 91
        1
280
     0
281
     0
  0
CLASS
  1
MLEADERSTYLE
  2
AcDbMLeaderStyle
  3
ACDB_MLEADERSTYLE_CLASS
 90
     4095
 91
        1
280
     0
281
     0
  0
CLASS
  1
DICTIONARYVAR
  2
AcDbDictionaryVar
  3
ObjectDBX Classes
 90
        0
 91
        7
280
     0
281
     0
  0
CLASS
  1
CELLSTYLEMAP
  2
AcDbCellStyleMap
  3
ObjectDBX Classes
 90
     1152
 91
        1
280
     0
281
     0
  0
ENDSEC
  0
SECTION
  2
TABLES
  0
TABLE
  2
VPORT
  5
17926
330
0
100
AcDbSymbolTable
 70
     1
  0
VPORT
  5
1798F
330
17926
100
AcDbSymbolTableRecord
100
AcDbViewportTableRecord
  2
*ACTIVE
 70
     0
 10
0.0
 20
0.0
 11
1.0
 21
1.0
 12
8408.331337953368
 22
5702.983730997637
 13
0.0
 23
0.0
 14
1.0
 24
1.0
 15
0.0
 25
0.0
 16
0.0
 26
0.0
 36
1.0
 17
0.0
 27
0.0
 37
0.0
 40
11172.33971419626
 41
1.800847457627118
 42
50.0
 43
0.0
 44
0.0
 50
0.0
 51
0.0
 71
     0
 72
 10000
 73
     1
 74
     0
 75
     0
 76
     0
 77
     0
 78
     0
281
     0
 65
     1
110
0.0
120
0.0
130
0.0
111
1.0
121
0.0
131
0.0
112
0.0
122
1.0
132
0.0
 79
     0
146
0.0
348
1794D
 60
     3
 61
     5
292
     1
282
     0
141
0.0
142
0.0
 63
   250
421
  3355443
  0
ENDTAB
  0
TABLE
  2
LTYPE
  5
17923
330
0
100
AcDbSymbolTable
 70
    11
  0
LTYPE
  5
17978
330
17923
100
AcDbSymbolTableRecord
100
AcDbLinetypeTableRecord
  2
ByBlock
 70
     0
  3

 72
    65
 73
     0
 40
0.0
  0
LTYPE
  5
17979
330
17923
100
AcDbSymbolTableRecord
100
AcDbLinetypeTableRecord
  2
ByLayer
 70
     0
  3

 72
    65
 73
     0
 40
0.0
  0
LTYPE
  5
1797A
330
17923
100
AcDbSymbolTableRecord
100
AcDbLinetypeTableRecord
  2
CONTINUOUS
 70
     0
  3
実線
 72
    65
 73
     0
 40
0.0
  0
LTYPE
  5
17990
330
17923
100
AcDbSymbolTableRecord
100
AcDbLinetypeTableRecord
  2
1PL-M
 70
     0
  3

 72
    65
 73
     4
 40
15.0
 49
12.0
 74
     0
 49
-1.0
 74
     0
 49
1.0
 74
     0
 49
-1.0
 74
     0
  0
LTYPE
  5
17991
330
17923
100
AcDbSymbolTableRecord
100
AcDbLinetypeTableRecord
  2
2PL-M
 70
     0
  3

 72
    65
 73
     6
 40
17.0
 49
12.0
 74
     0
 49
-1.0
 74
     0
 49
1.0
 74
     0
 49
-1.0
 74
     0
 49
1.0
 74
     0
 49
-1.0
 74
     0
  0
LTYPE
  5
17992
330
17923
100
AcDbSymbolTableRecord
100
AcDbLinetypeTableRecord
  2
1PL-12
 70
     0
  3

 72
    65
 73
     4
 40
15.0
 49
12.0
 74
     0
 49
-1.0
 74
     0
 49
1.0
 74
     0
 49
-1.0
 74
     0
  0
LTYPE
  5
17993
330
17923
100
AcDbSymbolTableRecord
100
AcDbLinetypeTableRecord
  2
KAKURE-1
 70
     0
  3

 72
    65
 73
     2
 40
2.0
 49
1.0
 74
     0
 49
-1.0
 74
     0
  0
LTYPE
  5
17994
330
17923
100
AcDbSymbolTableRecord
100
AcDbLinetypeTableRecord
  2
2PL-12
 70
     0
  3

 72
    65
 73
     6
 40
17.0
 49
12.0
 74
     0
 49
-1.0
 74
     0
 49
1.0
 74
     0
 49
-1.0
 74
     0
 49
1.0
 74
     0
 49
-1.0
 74
     0
  0
LTYPE
  5
17995
330
17923
100
AcDbSymbolTableRecord
100
AcDbLinetypeTableRecord
  2
HIDE-M
 70
     0
  3

 72
    65
 73
     2
 40
2.0
 49
1.0
 74
     0
 49
-1.0
 74
     0
  0
LTYPE
  5
17996
330
17923
100
AcDbSymbolTableRecord
100
AcDbLinetypeTableRecord
  2
HIDE-S
 70
     0
  3

 72
    65
 73
     2
 40
1.0
 49
0.5
 74
     0
 49
-0.5
 74
     0
  0
LTYPE
  5
17997
330
17923
100
AcDbSymbolTableRecord
100
AcDbLinetypeTableRecord
  2
TENSEN-
 70
     0
  3

 72
    65
 73
     2
 40
0.6000000000000001
 49
0.2
 74
     0
 49
-0.4
 74
     0
  0
LTYPE
  5
17998
330
17923
100
AcDbSymbolTableRecord
100
AcDbLinetypeTableRecord
  2
2PL-5
 70
     0
  3

 72
    65
 73
     6
 40
7.5
 49
5.0
 74
     0
 49
-0.5
 74
     0
 49
0.5
 74
     0
 49
-0.5
 74
     0
 49
0.5
 74
     0
 49
-0.5
 74
     0
  0
ENDTAB
  0
TABLE
  2
LAYER
  5
17920
330
0
100
AcDbSymbolTable
 70
    26
  0
LAYER
  5
17972
330
17920
100
AcDbSymbolTableRecord
100
AcDbLayerTableRecord
  2
0
 70
     0
 62
     7
  6
CONTINUOUS
370
    -3
390
1792D
347
1793F
  0
LAYER
  5
1798D
330
17920
100
AcDbSymbolTableRecord
100
AcDbLayerTableRecord
  2
SUNPOU
 70
     0
 62
     4
  6
CONTINUOUS
370
    -3
390
1792D
347
1793F
  0
LAYER
  5
17999
330
17920
100
AcDbSymbolTableRecord
100
AcDbLayerTableRecord
  2
U2
 70
     0
 62
     4
  6
CONTINUOUS
370
    -3
390
1792D
347
1793F
  0
LAYER
  5
1799A
330
17920
100
AcDbSymbolTableRecord
100
AcDbLayerTableRecord
  2
HIKIDASHI
 70
     0
 62
     6
  6
CONTINUOUS
370
    -3
390
1792D
347
1793F
  0
LAYER
  5
1799B
330
17920
100
AcDbSymbolTableRecord
100
AcDbLayerTableRecord
  2
1PL-M1
 70
     0
 62
     6
  6
1PL-M
370
    -3
390
1792D
347
1793F
  0
LAYER
  5
1799C
330
17920
100
AcDbSymbolTableRecord
100
AcDbLayerTableRecord
  2
NAME
 70
     0
 62
    20
  6
CONTINUOUS
370
    -3
390
1792D
347
1793F
  0
LAYER
  5
1799D
330
17920
100
AcDbSymbolTableRecord
100
AcDbLayerTableRecord
  2
FILENAME
 70
     0
 62
     7
  6
CONTINUOUS
370
    -3
390
1792D
347
1793F
  0
LAYER
  5
1799E
330
17920
100
AcDbSymbolTableRecord
100
AcDbLayerTableRecord
  2
KISO
 70
     0
 62
     2
  6
CONTINUOUS
370
    -3
390
1792D
347
1793F
  0
LAYER
  5
1799F
330
17920
100
AcDbSymbolTableRecord
100
AcDbLayerTableRecord
  2
YANE
 70
     0
 62
     1
  6
1PL-12
370
    -3
390
1792D
347
1793F
  0
LAYER
  5
179A0
330
17920
100
AcDbSymbolTableRecord
100
AcDbLayerTableRecord
  2
HATCH
 70
     0
 62
     1
  6
CONTINUOUS
370
    -3
390
1792D
347
1793F
  0
LAYER
  5
179A1
330
17920
100
AcDbSymbolTableRecord
100
AcDbLayerTableRecord
  2
DOMAKON
 70
     0
 62
     2
  6
CONTINUOUS
370
    -3
390
1792D
347
1793F
  0
LAYER
  5
179A2
330
17920
100
AcDbSymbolTableRecord
100
AcDbLayerTableRecord
  2
KISO-1
 70
     0
 62
     6
  6
2PL-12
370
    -3
390
1792D
347
1793F
  0
LAYER
  5
179A3
330
17920
100
AcDbSymbolTableRecord
100
AcDbLayerTableRecord
  2
KISO-2
 70
     0
 62
     1
  6
KAKURE-1
370
    -3
390
1792D
347
1793F
  0
LAYER
  5
179A4
330
17920
100
AcDbSymbolTableRecord
100
AcDbLayerTableRecord
  2
SIN
 70
     0
 62
     6
  6
1PL-12
370
    -3
390
1792D
347
1793F
  0
LAYER
  5
179A5
330
17920
100
AcDbSymbolTableRecord
100
AcDbLayerTableRecord
  2
YODOROGO
 70
     0
 62
   130
  6
CONTINUOUS
370
    -3
390
1792D
347
1793F
  0
LAYER
  5
179A6
330
17920
100
AcDbSymbolTableRecord
100
AcDbLayerTableRecord
  2
WAKUSEN-01
 70
     0
 62
    50
  6
CONTINUOUS
370
    -3
390
1792D
347
1793F
  0
LAYER
  5
179A7
330
17920
100
AcDbSymbolTableRecord
100
AcDbLayerTableRecord
  2
WAKUSEN-02
 70
     0
 62
   130
  6
CONTINUOUS
370
    -3
390
1792D
347
1793F
  0
LAYER
  5
179A8
330
17920
100
AcDbSymbolTableRecord
100
AcDbLayerTableRecord
  2
WAKUMOJI-01
 70
     0
 62
   130
  6
CONTINUOUS
370
    -3
390
1792D
347
1793F
  0
LAYER
  5
179A9
330
17920
100
AcDbSymbolTableRecord
100
AcDbLayerTableRecord
  2
U1
 70
     0
 62
     3
  6
CONTINUOUS
370
    -3
390
1792D
347
1793F
  0
LAYER
  5
179AA
330
17920
100
AcDbSymbolTableRecord
100
AcDbLayerTableRecord
  2
U7
 70
     0
 62
     2
  6
CONTINUOUS
370
    -3
390
1792D
347
1793F
  0
LAYER
  5
179AB
330
17920
100
AcDbSymbolTableRecord
100
AcDbLayerTableRecord
  2
TENSEN-1
 70
     0
 62
     6
  6
TENSEN-
370
    -3
390
1792D
347
1793F
  0
LAYER
  5
179AC
330
17920
100
AcDbSymbolTableRecord
100
AcDbLayerTableRecord
  2
HIDE-S1
 70
     0
 62
     6
  6
HIDE-S
370
    -3
390
1792D
347
1793F
  0
LAYER
  5
179AD
330
17920
100
AcDbSymbolTableRecord
100
AcDbLayerTableRecord
  2
HIDE-M1
 70
     0
 62
     6
  6
HIDE-M
370
    -3
390
1792D
347
1793F
  0
LAYER
  5
179AE
330
17920
100
AcDbSymbolTableRecord
100
AcDbLayerTableRecord
  2
BOLT
 70
     0
 62
     1
  6
CONTINUOUS
370
    -3
390
1792D
347
1793F
  0
LAYER
  5
179AF
330
17920
100
AcDbSymbolTableRecord
100
AcDbLayerTableRecord
  2
KISO-3
 70
     0
 62
     1
  6
2PL-5
370
    -3
390
1792D
347
1793F
  0
LAYER
  5
179B0
330
17920
100
AcDbSymbolTableRecord
100
AcDbLayerTableRecord
  2
HASIRA
 70
     0
 62
     3
  6
CONTINUOUS
370
    -3
390
1792D
347
1793F
  0
ENDTAB
  0
TABLE
  2
STYLE
  5
17921
330
0
100
AcDbSymbolTable
 70
     6
  0
STYLE
  5
17973
330
17921
100
AcDbSymbolTableRecord
100
AcDbTextStyleTableRecord
  2
STANDARD
 70
     0
 40
3.0
 41
1.0
 50
0.0
 71
     0
 42
0.2
  3
ROMANS
  4
EXTFONT
  0
STYLE
  5
17977
330
17921
100
AcDbSymbolTableRecord
100
AcDbTextStyleTableRecord
  2
Annotative
 70
     0
 40
0.0
 41
1.0
 50
0.0
 71
     0
 42
0.2
  3
txt
  4

1001
AcadAnnotative
1000
AnnotativeData
1002
{
1070
     1
1070
     1
1002
}
  0
STYLE
  5
1798E
330
17921
100
AcDbSymbolTableRecord
100
AcDbTextStyleTableRecord
  2
00
 70
     0
 40
0.0
 41
0.6666666666666666
 50
0.0
 71
     0
 42
0.2
  3
ROMANS
  4
BIGFONT
  0
STYLE
  5
179B1
330
17921
100
AcDbSymbolTableRecord
100
AcDbTextStyleTableRecord
  2
01
 70
     0
 40
3.0
 41
1.0
 50
0.0
 71
     0
 42
0.2
  3
ROMANS
  4
BIGFONT
  0
STYLE
  5
179B2
330
17921
100
AcDbSymbolTableRecord
100
AcDbTextStyleTableRecord
  2
WAKUMOJI
 70
     0
 40
3.0
 41
1.0
 50
0.0
 71
     0
 42
3.0
  3
SIMPLEX
  4
BIGFONT
  0
STYLE
  5
179B3
330
17921
100
AcDbSymbolTableRecord
100
AcDbTextStyleTableRecord
  2
FILENAME
 70
     0
 40
100.0
 41
1.0
 50
0.0
 71
     0
 42
100.0
  3
romans
  4
bigfont
  0
ENDTAB
  0
TABLE
  2
VIEW
  5
17924
330
0
100
AcDbSymbolTable
 70
     0
  0
ENDTAB
  0
TABLE
  2
UCS
  5
17925
330
0
100
AcDbSymbolTable
 70
     0
  0
ENDTAB
  0
TABLE
  2
APPID
  5
17927
330
0
100
AcDbSymbolTable
 70
     8
  0
APPID
  5
17974
330
17927
100
AcDbSymbolTableRecord
100
AcDbRegAppTableRecord
  2
ACAD
 70
     0
  0
APPID
  5
1797B
330
17927
100
AcDbSymbolTableRecord
100
AcDbRegAppTableRecord
  2
AcadAnnotative
 70
     0
  0
APPID
  5
179B4
330
17927
100
AcDbSymbolTableRecord
100
AcDbRegAppTableRecord
  2
AUTOCAD_POSTSCRIPT_FIGURE
 70
     0
  0
APPID
  5
179B5
330
17927
100
AcDbSymbolTableRecord
100
AcDbRegAppTableRecord
  2
ACAD_PSEXT
 70
     0
  0
APPID
  5
179B6
330
17927
100
AcDbSymbolTableRecord
100
AcDbRegAppTableRecord
  2
AEC_XDATA_BOUND_SPACE
 70
     0
  0
APPID
  5
179B7
330
17927
100
AcDbSymbolTableRecord
100
AcDbRegAppTableRecord
  2
ACAD_NAV_VCDISPLAY
 70
     0
  0
APPID
  5
179B8
330
17927
100
AcDbSymbolTableRecord
100
AcDbRegAppTableRecord
  2
ACAD_EXEMPT_FROM_CAD_STANDARDS
 70
     0
  0
APPID
  5
179B9
330
17927
100
AcDbSymbolTableRecord
100
AcDbRegAppTableRecord
  2
ACAD_MLEADERVER
 70
     0
  0
ENDTAB
  0
TABLE
  2
DIMSTYLE
  5
17928
330
0
100
AcDbSymbolTable
 70
     3
100
AcDbDimStyleTable
 71
     0
  0
DIMSTYLE
105
17975
330
17928
100
AcDbSymbolTableRecord
100
AcDbDimStyleTableRecord
  2
Standard
 70
     0
340
17973
  0
DIMSTYLE
105
17976
330
17928
100
AcDbSymbolTableRecord
100
AcDbDimStyleTableRecord
  2
Annotative
 70
     0
340
17973
1001
AcadAnnotative
1000
AnnotativeData
1002
{
1070
     1
1070
     1
1002
}
  0
DIMSTYLE
105
179BA
330
17928
100
AcDbSymbolTableRecord
100
AcDbDimStyleTableRecord
  2
SUNPOU_図面名
 70
     0
 40
40.0
 41
0.5
 42
1.0
 43
7.0
 44
1.125
 46
3.0
 73
     0
 74
     0
 77
     1
 78
     8
140
2.25
141
0.0
147
1.125
172
     1
173
     1
176
   256
177
   256
178
   256
271
     2
272
     2
279
     2
284
     8
285
     8
286
     8
340
1798E
  0
ENDTAB
  0
TABLE
  2
BLOCK_RECORD
  5
1791F
330
0
100
AcDbSymbolTable
 70
     3
  0
BLOCK_RECORD
  5
17989
330
1791F
100
AcDbSymbolTableRecord
100
AcDbBlockTableRecord
  2
*Model_Space
340
1798C
 70
     0
280
     1
281
     0
  0
BLOCK_RECORD
  5
17985
330
1791F
100
AcDbSymbolTableRecord
100
AcDbBlockTableRecord
  2
*Paper_Space
340
17988
 70
     0
280
     1
281
     0
  0
BLOCK_RECORD
  5
179C0
330
1791F
100
AcDbSymbolTableRecord
100
AcDbBlockTableRecord
  2
$MODEL_SPACE
340
0
 70
     0
280
     1
281
     0
  0
BLOCK_RECORD
  5
179C2
330
1791F
100
AcDbSymbolTableRecord
100
AcDbBlockTableRecord
  2
$PAPER_SPACE
340
0
 70
     0
280
     1
281
     0
  0
BLOCK_RECORD
  5
179C4
330
1791F
100
AcDbSymbolTableRecord
100
AcDbBlockTableRecord
  2
DOT
340
0
 70
     0
280
     1
281
     0
  0
ENDTAB
  0
ENDSEC
  0
SECTION
  2
BLOCKS
  0
BLOCK
  5
1798A
330
17989
100
AcDbEntity
  8
0
100
AcDbBlockBegin
  2
*Model_Space
 70
     0
 10
0.0
 20
0.0
 30
0.0
  3
*Model_Space
  1

  0
ENDBLK
  5
1798B
330
17989
100
AcDbEntity
  8
0
100
AcDbBlockEnd
  0
BLOCK
  5
17986
330
17985
100
AcDbEntity
 67
     1
  8
0
100
AcDbBlockBegin
  2
*Paper_Space
 70
     0
 10
0.0
 20
0.0
 30
0.0
  3
*Paper_Space
  1

  0
ENDBLK
  5
17987
330
17985
100
AcDbEntity
 67
     1
  8
0
100
AcDbBlockEnd
  0
BLOCK
  5
179C1
330
179C0
100
AcDbEntity
  8
0
100
AcDbBlockBegin
  2
$MODEL_SPACE
 70
     0
 10
0.0
 20
0.0
 30
0.0
  3
$MODEL_SPACE
  1

  0
ENDBLK
  5
125F7
330
179C0
100
AcDbEntity
  8
0
100
AcDbBlockEnd
  0
BLOCK
  5
179C3
330
179C2
100
AcDbEntity
  8
0
100
AcDbBlockBegin
  2
$PAPER_SPACE
 70
     0
 10
0.0
 20
0.0
 30
0.0
  3
$PAPER_SPACE
  1

  0
ENDBLK
  5
125F5
330
179C2
100
AcDbEntity
  8
0
100
AcDbBlockEnd
  0
BLOCK
  5
179C5
330
179C4
100
AcDbEntity
  8
0
100
AcDbBlockBegin
  2
DOT
 70
     0
 10
0.0
 20
0.0
 30
0.0
  3
DOT
  1

  0
LWPOLYLINE
  5
12987
330
179C4
100
AcDbEntity
  8
0
  6
ByBlock
 62
     0
100
AcDbPolyline
 90
        2
 70
     1
 43
0.75
 10
-0.375
 20
0.0
 42
1.0
 10
0.375
 20
0.0
 42
1.0
  0
LINE
  5
12988
330
179C4
100
AcDbEntity
  8
0
  6
ByBlock
 62
     0
100
AcDbLine
 10
-0.75
 20
0.0
 30
0.0
 11
-1.5
 21
0.0
 31
0.0
  0
ENDBLK
  5
12989
330
179C4
100
AcDbEntity
  8
0
100
AcDbBlockEnd
  0
ENDSEC
  0
SECTION
  2
ENTITIES
  0
TEXT
  5
16164
330
17989
100
AcDbEntity
  8
NAME
100
AcDbText
 10
12336.92663601099
 20
954.9999999999982
 30
0.0
 40
160.0
  1
YOCF
 41
0.7
  7
01
100
AcDbText
  0
TEXT
  5
16165
330
17989
100
AcDbEntity
  8
NAME
100
AcDbText
 10
10903.68799031881
 20
954.9999999999982
 30
0.0
 40
160.0
  1
ヨド自転車置場      タイプ
  7
01
100
AcDbText
  0
LINE
  5
164F1
330
17989
100
AcDbEntity
  8
KISO-1
100
AcDbLine
 10
9746.801569802755
 20
7336.279066364538
 30
0.0
 11
8946.801569802756
 21
7336.279066364538
 31
0.0
  0
LINE
  5
164F2
330
17989
100
AcDbEntity
  8
KISO-1
100
AcDbLine
 10
8946.801569802747
 20
8626.279066364539
 30
0.0
 11
9746.801569802748
 21
8626.279066364539
 31
0.0
  0
CIRCLE
  5
164F7
330
17989
100
AcDbEntity
  8
KISO-2
100
AcDbCircle
 10
9346.801569802755
 20
7836.279066364538
 30
0.0
 40
44.55
  0
LINE
  5
164F9
330
17989
100
AcDbEntity
  8
SIN
100
AcDbLine
 10
9346.801569802748
 20
8693.279066364539
 30
0.0
 11
9346.801569802755
 21
7269.279066364538
 31
0.0
  0
LINE
  5
164FA
330
17989
100
AcDbEntity
  8
KISO-1
100
AcDbLine
 10
8946.801569802756
 20
7336.279066364538
 30
0.0
 11
8946.801569802747
 21
8626.279066364539
 31
0.0
  0
TEXT
  5
164FD
330
17989
100
AcDbEntity
  8
SUNPOU
100
AcDbText
 10
8811.901469674351
 20
7072.70763779311
 30
0.0
 40
90.0
  1
A'
 41
0.6700000000000001
  7
00
 72
     4
 11
8847.79432681721
 21
7126.279066364539
 31
0.0
100
AcDbText
  0
LINE
  5
164FE
330
17989
100
AcDbEntity
  8
SUNPOU
100
AcDbLine
 10
9136.801569802752
 20
7126.279066364539
 30
0.0
 11
9346.801569802755
 21
7126.279066364539
 31
0.0
  0
LINE
  5
164FF
330
17989
100
AcDbEntity
  8
BOLT
100
AcDbLine
 10
9216.801569802752
 20
7736.279066364541
 30
0.0
 11
9276.801569802755
 21
7736.279066364541
 31
0.0
  0
LINE
  5
16500
330
17989
100
AcDbEntity
  8
SUNPOU
100
AcDbLine
 10
9346.801569802755
 20
7126.279066364539
 30
0.0
 11
9346.801569802755
 21
7276.279066364539
 31
0.0
  0
LINE
  5
16501
330
17989
100
AcDbEntity
  8
BOLT
100
AcDbLine
 10
9476.801569802752
 20
7736.279066364541
 30
0.0
 11
9416.801569802752
 21
7736.279066364541
 31
0.0
  0
LINE
  5
16502
330
17989
100
AcDbEntity
  8
BOLT
100
AcDbLine
 10
9246.801569802753
 20
7706.279066364539
 30
0.0
 11
9246.801569802753
 21
7766.279066364538
 31
0.0
  0
LINE
  5
16503
330
17989
100
AcDbEntity
  8
BOLT
100
AcDbLine
 10
9446.801569802754
 20
7706.279066364539
 30
0.0
 11
9446.801569802754
 21
7766.279066364538
 31
0.0
  0
LINE
  5
1650A
330
17989
100
AcDbEntity
  8
BOLT
100
AcDbLine
 10
9216.801569802752
 20
8226.279066364538
 30
0.0
 11
9276.801569802755
 21
8226.279066364538
 31
0.0
  0
LINE
  5
1650B
330
17989
100
AcDbEntity
  8
BOLT
100
AcDbLine
 10
9216.801569802752
 20
8026.279066364539
 30
0.0
 11
9276.801569802755
 21
8026.279066364539
 31
0.0
  0
LINE
  5
1650C
330
17989
100
AcDbEntity
  8
BOLT
100
AcDbLine
 10
9216.801569802752
 20
7936.279066364541
 30
0.0
 11
9276.801569802755
 21
7936.279066364541
 31
0.0
  0
LINE
  5
1650E
330
17989
100
AcDbEntity
  8
KISO-3
100
AcDbLine
 10
9106.801569802753
 20
8366.279066364539
 30
0.0
 11
9586.80156980275
 21
8366.279066364539
 31
0.0
  0
CIRCLE
  5
1650F
330
17989
100
AcDbEntity
  8
KISO-2
100
AcDbCircle
 10
9346.801569802755
 20
8126.279066364539
 30
0.0
 40
44.55
  0
LINE
  5
16510
330
17989
100
AcDbEntity
  8
BOLT
100
AcDbLine
 10
9476.801569802752
 20
8026.279066364539
 30
0.0
 11
9416.801569802752
 21
8026.279066364539
 31
0.0
  0
LINE
  5
16511
330
17989
100
AcDbEntity
  8
BOLT
100
AcDbLine
 10
9476.801569802752
 20
7936.279066364541
 30
0.0
 11
9416.801569802752
 21
7936.279066364541
 31
0.0
  0
LINE
  5
16512
330
17989
100
AcDbEntity
  8
SIN
100
AcDbLine
 10
9466.351569802748
 20
7836.279066364538
 30
0.0
 11
9227.251569802747
 21
7836.279066364538
 31
0.0
  0
LINE
  5
16513
330
17989
100
AcDbEntity
  8
BOLT
100
AcDbLine
 10
9246.801569802753
 20
7966.279066364538
 30
0.0
 11
9246.801569802753
 21
7906.279066364539
 31
0.0
  0
LINE
  5
16514
330
17989
100
AcDbEntity
  8
BOLT
100
AcDbLine
 10
9446.801569802754
 20
7966.279066364538
 30
0.0
 11
9446.801569802754
 21
7906.279066364539
 31
0.0
  0
LINE
  5
16515
330
17989
100
AcDbEntity
  8
SIN
100
AcDbLine
 10
9466.351569802748
 20
8126.279066364539
 30
0.0
 11
9227.251569802747
 21
8126.279066364539
 31
0.0
  0
LINE
  5
16516
330
17989
100
AcDbEntity
  8
BOLT
100
AcDbLine
 10
9246.801569802753
 20
7996.27906636454
 30
0.0
 11
9246.801569802753
 21
8056.279066364538
 31
0.0
  0
LINE
  5
16517
330
17989
100
AcDbEntity
  8
BOLT
100
AcDbLine
 10
9446.801569802754
 20
7996.27906636454
 30
0.0
 11
9446.801569802754
 21
8056.279066364538
 31
0.0
  0
LINE
  5
16518
330
17989
100
AcDbEntity
  8
BOLT
100
AcDbLine
 10
9476.801569802752
 20
8226.279066364538
 30
0.0
 11
9416.801569802752
 21
8226.279066364538
 31
0.0
  0
LINE
  5
16519
330
17989
100
AcDbEntity
  8
BOLT
100
AcDbLine
 10
9246.801569802753
 20
8256.279066364539
 30
0.0
 11
9246.801569802753
 21
8196.279066364539
 31
0.0
  0
LINE
  5
1651A
330
17989
100
AcDbEntity
  8
BOLT
100
AcDbLine
 10
9446.801569802754
 20
8256.279066364539
 30
0.0
 11
9446.801569802754
 21
8196.279066364539
 31
0.0
  0
LINE
  5
1651B
330
17989
100
AcDbEntity
  8
SUNPOU
100
AcDbLine
 10
9136.801569802747
 20
8836.279066364539
 30
0.0
 11
9346.801569802748
 21
8836.279066364539
 31
0.0
  0
TEXT
  5
1651C
330
17989
100
AcDbEntity
  8
SUNPOU
100
AcDbText
 10
8821.951469674344
 20
8791.279066364539
 30
0.0
 40
90.0
  1
A
 41
0.6700000000000001
  7
00
 72
     4
 11
8847.794326817203
 21
8836.279066364539
 31
0.0
100
AcDbText
  0
LINE
  5
1651D
330
17989
100
AcDbEntity
  8
SUNPOU
100
AcDbLine
 10
9346.801569802748
 20
8836.279066364539
 30
0.0
 11
9346.801569802748
 21
8686.279066364539
 31
0.0
  0
LINE
  5
1651F
330
17989
100
AcDbEntity
  8
KISO-1
100
AcDbLine
 10
9746.801569802748
 20
8626.279066364539
 30
0.0
 11
9746.801569802761
 21
7336.279066364538
 31
0.0
  0
LINE
  5
16526
330
17989
100
AcDbEntity
  8
KISO-1
100
AcDbLine
 10
11746.80156980275
 20
8626.279066364539
 30
0.0
 11
12546.80156980275
 21
8626.279066364539
 31
0.0
  0
LINE
  5
16527
330
17989
100
AcDbEntity
  8
KISO-3
100
AcDbLine
 10
11906.80156980275
 20
8366.279066364539
 30
0.0
 11
12386.80156980275
 21
8366.279066364539
 31
0.0
  0
LINE
  5
16528
330
17989
100
AcDbEntity
  8
HIKIDASHI
100
AcDbLine
 10
12216.35558949486
 20
8277.980539100743
 30
0.0
 11
11840.82621354575
 21
8915.681200926831
 31
0.0
  0
LINE
  5
16529
330
17989
100
AcDbEntity
  8
HIKIDASHI
100
AcDbLine
 10
12029.62537535513
 20
8283.768007425388
 30
0.0
 11
11840.82621354575
 21
8915.681200926831
 31
0.0
  0
LINE
  5
1652A
330
17989
100
AcDbEntity
  8
SUNPOU
100
AcDbLine
 10
11997.25156980275
 20
7836.279066364538
 30
0.0
 11
11416.80156980276
 21
7836.279066364538
 31
0.0
  0
LINE
  5
1652B
330
17989
100
AcDbEntity
  8
SUNPOU
100
AcDbLine
 10
11997.25156980275
 20
7836.279066364538
 30
0.0
 11
11416.80156980276
 21
7836.279066364538
 31
0.0
  0
LINE
  5
1652C
330
17989
100
AcDbEntity
  8
SUNPOU
100
AcDbLine
 10
11997.25156980275
 20
8126.279066364539
 30
0.0
 11
11416.80156980276
 21
8126.279066364539
 31
0.0
  0
LINE
  5
1652D
330
17989
100
AcDbEntity
  8
SUNPOU
100
AcDbLine
 10
11997.25156980275
 20
8126.279066364539
 30
0.0
 11
11416.80156980276
 21
8126.279066364539
 31
0.0
  0
LINE
  5
1652E
330
17989
100
AcDbEntity
  8
HIKIDASHI
100
AcDbLine
 10
12054.99371462076
 20
7786.372724886662
 30
0.0
 11
11694.56553806702
 21
7577.260660246182
 31
0.0
  0
LINE
  5
1652F
330
17989
100
AcDbEntity
  8
KISO-1
100
AcDbLine
 10
12546.80156980275
 20
7336.279066364538
 30
0.0
 11
11746.80156980276
 21
7336.279066364538
 31
0.0
  0
LINE
  5
16530
330
17989
100
AcDbEntity
  8
SUNPOU
100
AcDbLine
 10
12531.80156980275
 20
6666.279066364538
 30
0.0
 11
11761.80156980275
 21
6666.279066364538
 31
0.0
  0
LINE
  5
16531
330
17989
100
AcDbEntity
  8
SUNPOU
100
AcDbLine
 10
12371.80156980275
 20
6876.279066364539
 30
0.0
 11
11921.80156980275
 21
6876.279066364539
 31
0.0
  0
LINE
  5
16533
330
17989
100
AcDbEntity
  8
HIKIDASHI
100
AcDbLine
 10
12080.32933579205
 20
8045.581206382838
 30
0.0
 11
11694.56553806702
 21
7577.260660246186
 31
0.0
  0
LINE
  5
16534
330
17989
100
AcDbEntity
  8
KISO-1
100
AcDbLine
 10
11746.80156980276
 20
7336.279066364538
 30
0.0
 11
11746.80156980275
 21
8626.279066364539
 31
0.0
  0
LINE
  5
16535
330
17989
100
AcDbEntity
  8
SUNPOU
100
AcDbLine
 10
11236.80156980276
 20
7351.279066364539
 30
0.0
 11
11236.80156980276
 21
8611.27906636454
 31
0.0
  0
LINE
  5
16536
330
17989
100
AcDbEntity
  8
SUNPOU
100
AcDbLine
 10
11446.80156980276
 20
7351.279066364539
 30
0.0
 11
11446.80156980276
 21
7821.279066364538
 31
0.0
  0
LINE
  5
16537
330
17989
100
AcDbEntity
  8
SUNPOU
100
AcDbLine
 10
11906.80156980275
 20
7566.279066364541
 30
0.0
 11
11906.80156980275
 21
6831.279066364539
 31
0.0
  0
LINE
  5
16538
330
17989
100
AcDbEntity
  8
SUNPOU
100
AcDbLine
 10
11746.80156980276
 20
7301.702201810382
 30
0.0
 11
11746.80156980276
 21
6621.27906636454
 31
0.0
  0
TEXT
  5
16539
330
17989
100
AcDbEntity
  8
SUNPOU
100
AcDbText
 10
11736.80156980275
 20
6921.279066364538
 30
0.0
 40
90.0
  1
160
 41
0.6666666666666666
  7
00
 72
     4
 11
11826.80156980275
 21
6966.279066364538
 31
0.0
100
AcDbText
  0
LINE
  5
1653A
330
17989
100
AcDbEntity
  8
SUNPOU
100
AcDbLine
 10
11891.80156980275
 20
6876.279066364539
 30
0.0
 11
11761.80156980275
 21
6876.279066364539
 31
0.0
  0
LINE
  5
1653B
330
17989
100
AcDbEntity
  8
SUNPOU
100
AcDbLine
 10
11716.80156980276
 20
7336.279066364538
 30
0.0
 11
11206.80156980276
 21
7336.279066364538
 31
0.0
  0
TEXT
  5
1653D
330
17989
100
AcDbEntity
  8
SUNPOU
100
AcDbText
 10
11401.80156980276
 20
7500.564780650254
 30
0.0
 40
90.0
  1
500
 50
90.0
 41
0.6666666666666666
  7
00
 72
     1
 11
11356.80156980276
 21
7586.279066364538
 31
0.0
100
AcDbText
 73
     2
  0
LINE
  5
1653E
330
17989
100
AcDbEntity
  8
HIKIDASHI
100
AcDbLine
 10
11578.88042981896
 20
7577.260660246182
 30
0.0
 11
11694.56553806702
 21
7577.260660246182
 31
0.0
  0
TEXT
  5
1653F
330
17989
100
AcDbEntity
  8
HIKIDASHI
100
AcDbText
 10
11588.88042981896
 20
7622.260660246183
 30
0.0
 40
90.0
  1
柱
  7
01
100
AcDbText
  0
TEXT
  5
16540
330
17989
100
AcDbEntity
  8
HIKIDASHI
100
AcDbText
 10
10891.21371394424
 20
8960.681200926821
 30
0.0
 40
89.55223880597012
  1
W ／
 41
0.6700000000000001
  7
00
100
AcDbText
  0
LINE
  5
16541
330
17989
100
AcDbEntity
  8
HIKIDASHI
100
AcDbLine
 10
10096.59897439034
 20
8915.681200926822
 30
0.0
 11
11840.82621354576
 21
8915.681200926822
 31
0.0
  0
TEXT
  5
16542
330
17989
100
AcDbEntity
  8
HIKIDASHI
100
AcDbText
 10
10130.87665933887
 20
8960.681200926821
 30
0.0
 40
90.00009018009018
  1
アンカーボルト
  7
01
100
AcDbText
  0
TEXT
  5
16543
330
17989
100
AcDbEntity
  8
HIKIDASHI
100
AcDbText
 10
10965.81452462747
 20
8987.110810565715
 30
0.0
 40
67.16417910447761
  1
1
 41
0.6700000000000001
  7
00
100
AcDbText
  0
LINE
  5
16544
330
17989
100
AcDbEntity
  8
SUNPOU
100
AcDbLine
 10
11446.80156980276
 20
8141.279066364537
 30
0.0
 11
11446.80156980276
 21
8611.27906636454
 31
0.0
  0
TEXT
  5
16545
330
17989
100
AcDbEntity
  8
SUNPOU
100
AcDbText
 10
11191.80156980276
 20
7862.707637793111
 30
0.0
 40
90.0
  1
1290
 50
90.0
 41
0.6666666666666666
  7
00
 72
     1
 11
11146.80156980276
 21
7981.279066364539
 31
0.0
100
AcDbText
 73
     2
  0
LINE
  5
16546
330
17989
100
AcDbEntity
  8
SUNPOU
100
AcDbLine
 10
11446.80156980276
 20
7851.279066364539
 30
0.0
 11
11446.80156980276
 21
8111.279066364541
 31
0.0
  0
TEXT
  5
16547
330
17989
100
AcDbEntity
  8
SUNPOU
100
AcDbText
 10
11401.80156980276
 20
7895.564780650253
 30
0.0
 40
90.0
  1
290
 50
90.0
 41
0.6666666666666666
  7
00
 72
     1
 11
11356.80156980276
 21
7981.279066364539
 31
0.0
100
AcDbText
 73
     2
  0
TEXT
  5
16548
330
17989
100
AcDbEntity
  8
SUNPOU
100
AcDbText
 10
11401.80156980276
 20
8290.564780650253
 30
0.0
 40
90.0
  1
500
 50
90.0
 41
0.6666666666666666
  7
00
 72
     1
 11
11356.80156980276
 21
8376.279066364539
 31
0.0
100
AcDbText
 73
     2
  0
TEXT
  5
16549
330
17989
100
AcDbEntity
  8
HIKIDASHI
100
AcDbText
 10
11448.39703159141
 20
8960.681200926821
 30
0.0
 40
90.00009018009018
  1
（別途）
  7
01
100
AcDbText
  0
LINE
  5
1654A
330
17989
100
AcDbEntity
  8
SUNPOU
100
AcDbLine
 10
11716.80156980275
 20
8626.279066364539
 30
0.0
 11
11206.80156980276
 21
8626.279066364539
 31
0.0
  0
TEXT
  5
1654C
330
17989
100
AcDbEntity
  8
HIKIDASHI
100
AcDbText
 10
11206.67687752991
 20
8960.472214726726
 30
0.0
 40
89.55223880597012
  1
400
 41
0.6700000000000001
  7
00
100
AcDbText
  0
TEXT
  5
1654D
330
17989
100
AcDbEntity
  8
HIKIDASHI
100
AcDbText
 10
11125.54149837677
 20
8971.875230777568
 30
0.0
 40
89.55223880597012
  1
x
 41
0.6700000000000001
  7
00
100
AcDbText
  0
TEXT
  5
1654E
330
17989
100
AcDbEntity
  8
HIKIDASHI
100
AcDbText
 10
11053.7065611864
 20
8960.084755535156
 30
0.0
 40
67.16417910447761
  1
2
 41
0.6700000000000001
  7
00
100
AcDbText
  0
LINE
  5
16552
330
17989
100
AcDbEntity
  8
SUNPOU
100
AcDbLine
 10
12996.80156980275
 20
7921.279066364538
 30
0.0
 11
12996.80156980275
 21
7751.279066364539
 31
0.0
  0
TEXT
  5
16553
330
17989
100
AcDbEntity
  8
SUNPOU
100
AcDbText
 10
12951.80156980275
 20
7734.107854207144
 30
0.0
 40
90.0
  1
200
 50
90.0
 41
0.6666666666666666
  7
00
 72
     4
 11
12906.80156980275
 21
7819.822139921431
 31
0.0
100
AcDbText
  0
LINE
  5
16554
330
17989
100
AcDbEntity
  8
SUNPOU
100
AcDbLine
 10
13206.80156980275
 20
7611.279066364541
 30
0.0
 11
13206.80156980275
 21
8351.279066364538
 31
0.0
  0
LINE
  5
16556
330
17989
100
AcDbEntity
  8
SIN
100
AcDbLine
 10
12146.80156980275
 20
8693.279066364539
 30
0.0
 11
12146.80156980275
 21
7269.279066364538
 31
0.0
  0
CIRCLE
  5
16558
330
17989
100
AcDbEntity
  8
KISO-2
100
AcDbCircle
 10
12146.80156980275
 20
7836.279066364538
 30
0.0
 40
44.55
  0
LINE
  5
16559
330
17989
100
AcDbEntity
  8
KISO-1
100
AcDbLine
 10
12546.80156980275
 20
8626.279066364539
 30
0.0
 11
12546.80156980276
 21
7336.279066364538
 31
0.0
  0
LINE
  5
1655A
330
17989
100
AcDbEntity
  8
SUNPOU
100
AcDbLine
 10
12306.80156980275
 20
7736.279066364541
 30
0.0
 11
13041.80156980275
 21
7736.279066364541
 31
0.0
  0
LINE
  5
1655B
330
17989
100
AcDbEntity
  8
SUNPOU
100
AcDbLine
 10
12576.80156980275
 20
7336.279066364538
 30
0.0
 11
13236.80156980275
 21
7336.279066364538
 31
0.0
  0
LINE
  5
1655C
330
17989
100
AcDbEntity
  8
SUNPOU
100
AcDbLine
 10
12416.80156980275
 20
7596.279066364537
 30
0.0
 11
13236.80156980275
 21
7596.279066364537
 31
0.0
  0
LINE
  5
1655D
330
17989
100
AcDbEntity
  8
SUNPOU
100
AcDbLine
 10
12416.80156980275
 20
7596.279066364537
 30
0.0
 11
13236.80156980275
 21
7596.279066364537
 31
0.0
  0
LINE
  5
1655E
330
17989
100
AcDbEntity
  8
SUNPOU
100
AcDbLine
 10
12046.80156980275
 20
7676.279066364539
 30
0.0
 11
12046.80156980275
 21
7041.279066364538
 31
0.0
  0
LINE
  5
1655F
330
17989
100
AcDbEntity
  8
SUNPOU
100
AcDbLine
 10
12246.80156980275
 20
7676.279066364539
 30
0.0
 11
12246.80156980275
 21
7041.279066364538
 31
0.0
  0
LINE
  5
16560
330
17989
100
AcDbEntity
  8
SUNPOU
100
AcDbLine
 10
12386.80156980275
 20
7566.279066364541
 30
0.0
 11
12386.80156980275
 21
6831.279066364539
 31
0.0
  0
LINE
  5
16561
330
17989
100
AcDbEntity
  8
SUNPOU
100
AcDbLine
 10
12531.80156980275
 20
6876.279066364539
 30
0.0
 11
12401.80156980275
 21
6876.279066364539
 31
0.0
  0
TEXT
  5
16562
330
17989
100
AcDbEntity
  8
SUNPOU
100
AcDbText
 10
12376.80156980275
 20
6921.279066364538
 30
0.0
 40
90.0
  1
160
 41
0.6666666666666666
  7
00
 72
     4
 11
12466.80156980275
 21
6966.279066364538
 31
0.0
100
AcDbText
  0
TEXT
  5
16563
330
17989
100
AcDbEntity
  8
SUNPOU
100
AcDbText
 10
12061.08728408846
 20
6711.279066364544
 30
0.0
 40
90.0
  1
800
 41
0.6666666666666666
  7
00
 72
     1
 11
12146.80156980275
 21
6756.279066364545
 31
0.0
100
AcDbText
 73
     2
  0
TEXT
  5
16564
330
17989
100
AcDbEntity
  8
SUNPOU
100
AcDbText
 10
12061.08728408846
 20
6921.279066364538
 30
0.0
 40
90.0
  1
480
 41
0.6666666666666666
  7
00
 72
     1
 11
12146.80156980275
 21
6966.279066364538
 31
0.0
100
AcDbText
 73
     2
  0
LINE
  5
16565
330
17989
100
AcDbEntity
  8
SUNPOU
100
AcDbLine
 10
12146.80156980275
 20
6858.850215751537
 30
0.0
 11
12146.80156980275
 21
6831.279066364539
 31
0.0
  0
LINE
  5
16566
330
17989
100
AcDbEntity
  8
SUNPOU
100
AcDbLine
 10
12231.80156980275
 20
7086.279066364538
 30
0.0
 11
12061.80156980275
 21
7086.279066364538
 31
0.0
  0
LINE
  5
16567
330
17989
100
AcDbEntity
  8
SUNPOU
100
AcDbLine
 10
12146.80156980275
 20
7062.364474672232
 30
0.0
 11
12146.80156980275
 21
7041.279066364538
 31
0.0
  0
TEXT
  5
16568
330
17989
100
AcDbEntity
  8
SUNPOU
100
AcDbText
 10
12061.08728408846
 20
7131.279066364538
 30
0.0
 40
90.0
  1
200
 41
0.6666666666666666
  7
00
 72
     1
 11
12146.80156980275
 21
7176.279066364539
 31
0.0
100
AcDbText
 73
     2
  0
LINE
  5
16569
330
17989
100
AcDbEntity
  8
BOLT
100
AcDbLine
 10
12276.80156980275
 20
7736.279066364541
 30
0.0
 11
12216.80156980275
 21
7736.279066364541
 31
0.0
  0
LINE
  5
1656A
330
17989
100
AcDbEntity
  8
BOLT
100
AcDbLine
 10
12016.80156980275
 20
7736.279066364541
 30
0.0
 11
12076.80156980275
 21
7736.279066364541
 31
0.0
  0
LINE
  5
1656B
330
17989
100
AcDbEntity
  8
BOLT
100
AcDbLine
 10
12046.80156980275
 20
7706.279066364539
 30
0.0
 11
12046.80156980275
 21
7766.279066364538
 31
0.0
  0
LINE
  5
1656C
330
17989
100
AcDbEntity
  8
BOLT
100
AcDbLine
 10
12246.80156980275
 20
7706.279066364539
 30
0.0
 11
12246.80156980275
 21
7766.279066364538
 31
0.0
  0
TEXT
  5
1656D
330
17989
100
AcDbEntity
  8
SUNPOU
100
AcDbText
 10
12951.80156980275
 20
7411.128998278759
 30
0.0
 40
90.0
  1
140
 50
90.0
 41
0.6666666666666666
  7
00
 72
     4
 11
12906.80156980275
 21
7501.12899827876
 31
0.0
100
AcDbText
  0
LINE
  5
1656E
330
17989
100
AcDbEntity
  8
SUNPOU
100
AcDbLine
 10
13206.80156980275
 20
7351.279066364539
 30
0.0
 11
13206.80156980275
 21
7581.279066364539
 31
0.0
  0
LINE
  5
1656F
330
17989
100
AcDbEntity
  8
SUNPOU
100
AcDbLine
 10
12996.80156980275
 20
7596.279066364537
 30
0.0
 11
12996.80156980275
 21
7418.310323956702
 31
0.0
  0
TEXT
  5
16570
330
17989
100
AcDbEntity
  8
SUNPOU
100
AcDbText
 10
13161.80156980275
 20
7380.564780650253
 30
0.0
 40
90.0
  1
260
 50
90.0
 41
0.6666666666666666
  7
00
 72
     1
 11
13116.80156980275
 21
7466.279066364538
 31
0.0
100
AcDbText
 73
     2
  0
LINE
  5
16571
330
17989
100
AcDbEntity
  8
SUNPOU
100
AcDbLine
 10
12996.80156980275
 20
7721.279066364537
 30
0.0
 11
12996.80156980275
 21
7611.279066364541
 31
0.0
  0
LINE
  5
16572
330
17989
100
AcDbEntity
  8
SUNPOU
100
AcDbLine
 10
12416.80156980275
 20
8366.279066364539
 30
0.0
 11
13236.80156980275
 21
8366.279066364539
 31
0.0
  0
LINE
  5
16573
330
17989
100
AcDbEntity
  8
SUNPOU
100
AcDbLine
 10
12416.80156980275
 20
8366.279066364539
 30
0.0
 11
13236.80156980275
 21
8366.279066364539
 31
0.0
  0
LINE
  5
16574
330
17989
100
AcDbEntity
  8
SUNPOU
100
AcDbLine
 10
12576.80156980275
 20
8626.279066364539
 30
0.0
 11
13236.80156980275
 21
8626.279066364539
 31
0.0
  0
LINE
  5
16575
330
17989
100
AcDbEntity
  8
SUNPOU
100
AcDbLine
 10
12306.80156980275
 20
8226.279066364538
 30
0.0
 11
13041.80156980275
 21
8226.279066364538
 31
0.0
  0
TEXT
  5
16576
330
17989
100
AcDbEntity
  8
SUNPOU
100
AcDbText
 10
12951.80156980275
 20
8371.429134450321
 30
0.0
 40
90.0
  1
140
 50
90.0
 41
0.6666666666666666
  7
00
 72
     4
 11
12906.80156980275
 21
8461.429134450321
 31
0.0
100
AcDbText
  0
LINE
  5
16577
330
17989
100
AcDbEntity
  8
SUNPOU
100
AcDbLine
 10
12306.80156980275
 20
7936.279066364541
 30
0.0
 11
12838.37145894453
 21
7936.279066364541
 31
0.0
  0
LINE
  5
16578
330
17989
100
AcDbEntity
  8
SUNPOU
100
AcDbLine
 10
12306.80156980275
 20
8026.279066364539
 30
0.0
 11
12838.37145894453
 21
8026.279066364539
 31
0.0
  0
CIRCLE
  5
16579
330
17989
100
AcDbEntity
  8
KISO-2
100
AcDbCircle
 10
12146.80156980275
 20
8126.279066364539
 30
0.0
 40
44.55
  0
LINE
  5
1657B
330
17989
100
AcDbEntity
  8
BOLT
100
AcDbLine
 10
12276.80156980275
 20
8026.279066364539
 30
0.0
 11
12216.80156980275
 21
8026.279066364539
 31
0.0
  0
LINE
  5
1657C
330
17989
100
AcDbEntity
  8
BOLT
100
AcDbLine
 10
12276.80156980275
 20
7936.279066364541
 30
0.0
 11
12216.80156980275
 21
7936.279066364541
 31
0.0
  0
LINE
  5
1657D
330
17989
100
AcDbEntity
  8
SIN
100
AcDbLine
 10
12266.35156980275
 20
7836.279066364538
 30
0.0
 11
12027.25156980275
 21
7836.279066364538
 31
0.0
  0
LINE
  5
1657E
330
17989
100
AcDbEntity
  8
SIN
100
AcDbLine
 10
12266.35156980275
 20
8126.279066364539
 30
0.0
 11
12027.25156980275
 21
8126.279066364539
 31
0.0
  0
LINE
  5
1657F
330
17989
100
AcDbEntity
  8
BOLT
100
AcDbLine
 10
12016.80156980275
 20
7936.279066364541
 30
0.0
 11
12076.80156980275
 21
7936.279066364541
 31
0.0
  0
LINE
  5
16580
330
17989
100
AcDbEntity
  8
BOLT
100
AcDbLine
 10
12046.80156980275
 20
7966.279066364538
 30
0.0
 11
12046.80156980275
 21
7906.279066364539
 31
0.0
  0
LINE
  5
16582
330
17989
100
AcDbEntity
  8
BOLT
100
AcDbLine
 10
12016.80156980275
 20
8026.279066364539
 30
0.0
 11
12076.80156980275
 21
8026.279066364539
 31
0.0
  0
LINE
  5
16583
330
17989
100
AcDbEntity
  8
BOLT
100
AcDbLine
 10
12046.80156980275
 20
7996.27906636454
 30
0.0
 11
12046.80156980275
 21
8056.279066364538
 31
0.0
  0
LINE
  5
16584
330
17989
100
AcDbEntity
  8
BOLT
100
AcDbLine
 10
12246.80156980275
 20
7966.279066364538
 30
0.0
 11
12246.80156980275
 21
7906.279066364539
 31
0.0
  0
LINE
  5
16585
330
17989
100
AcDbEntity
  8
BOLT
100
AcDbLine
 10
12246.80156980275
 20
7996.27906636454
 30
0.0
 11
12246.80156980275
 21
8056.279066364538
 31
0.0
  0
LINE
  5
16587
330
17989
100
AcDbEntity
  8
BOLT
100
AcDbLine
 10
12276.80156980275
 20
8226.279066364538
 30
0.0
 11
12216.80156980275
 21
8226.279066364538
 31
0.0
  0
LINE
  5
16589
330
17989
100
AcDbEntity
  8
BOLT
100
AcDbLine
 10
12016.80156980275
 20
8226.279066364538
 30
0.0
 11
12076.80156980275
 21
8226.279066364538
 31
0.0
  0
LINE
  5
1658A
330
17989
100
AcDbEntity
  8
BOLT
100
AcDbLine
 10
12046.80156980275
 20
8256.279066364539
 30
0.0
 11
12046.80156980275
 21
8196.279066364539
 31
0.0
  0
LINE
  5
1658B
330
17989
100
AcDbEntity
  8
BOLT
100
AcDbLine
 10
12246.80156980275
 20
8256.279066364539
 30
0.0
 11
12246.80156980275
 21
8196.279066364539
 31
0.0
  0
TEXT
  5
1658C
330
17989
100
AcDbEntity
  8
SUNPOU
100
AcDbText
 10
12951.80156980275
 20
8051.536071860734
 30
0.0
 40
90.0
  1
200
 50
90.0
 41
0.6666666666666666
  7
00
 72
     4
 11
12906.80156980275
 21
8137.25035757502
 31
0.0
100
AcDbText
  0
TEXT
  5
1658D
330
17989
100
AcDbEntity
  8
SUNPOU
100
AcDbText
 10
12951.80156980275
 20
7924.10949307877
 30
0.0
 40
90.0
  1
90
 50
90.0
 41
0.6666666666666666
  7
00
 72
     4
 11
12906.80156980275
 21
7981.252350221627
 31
0.0
100
AcDbText
  0
LINE
  5
1658E
330
17989
100
AcDbEntity
  8
SUNPOU
100
AcDbLine
 10
13206.80156980275
 20
8381.279066364539
 30
0.0
 11
13206.80156980275
 21
8611.27906636454
 31
0.0
  0
TEXT
  5
1658F
330
17989
100
AcDbEntity
  8
SUNPOU
100
AcDbText
 10
13161.80156980275
 20
8410.564780650252
 30
0.0
 40
90.0
  1
260
 50
90.0
 41
0.6666666666666666
  7
00
 72
     1
 11
13116.80156980275
 21
8496.27906636454
 31
0.0
100
AcDbText
 73
     2
  0
LINE
  5
16590
330
17989
100
AcDbEntity
  8
SUNPOU
100
AcDbLine
 10
12996.80156980275
 20
8366.279066364539
 30
0.0
 11
12996.80156980275
 21
8544.247808772373
 31
0.0
  0
LINE
  5
16591
330
17989
100
AcDbEntity
  8
SUNPOU
100
AcDbLine
 10
12996.80156980275
 20
8041.279066364538
 30
0.0
 11
12996.80156980275
 21
8211.279066364539
 31
0.0
  0
LINE
  5
16592
330
17989
100
AcDbEntity
  8
SUNPOU
100
AcDbLine
 10
12996.80156980275
 20
8026.279066364539
 30
0.0
 11
12996.80156980275
 21
7936.279066364541
 31
0.0
  0
TEXT
  5
16593
330
17989
100
AcDbEntity
  8
SUNPOU
100
AcDbText
 10
13161.80156980275
 20
7895.564780650253
 30
0.0
 40
90.0
  1
770
 50
90.0
 41
0.6666666666666666
  7
00
 72
     1
 11
13116.80156980275
 21
7981.279066364539
 31
0.0
100
AcDbText
 73
     2
  0
LINE
  5
16594
330
17989
100
AcDbEntity
  8
SUNPOU
100
AcDbLine
 10
12973.7724226146
 20
7936.279066364541
 30
0.0
 11
13041.80156980275
 21
7936.279066364541
 31
0.0
  0
LINE
  5
16595
330
17989
100
AcDbEntity
  8
SUNPOU
100
AcDbLine
 10
12973.7724226146
 20
8026.279066364539
 30
0.0
 11
13041.80156980275
 21
8026.279066364539
 31
0.0
  0
LINE
  5
16596
330
17989
100
AcDbEntity
  8
SUNPOU
100
AcDbLine
 10
12996.80156980275
 20
8241.279066364539
 30
0.0
 11
12996.80156980275
 21
8351.279066364538
 31
0.0
  0
LINE
  5
16599
330
17989
100
AcDbEntity
  8
SUNPOU
100
AcDbLine
 10
9136.801569802752
 20
7111.27906636454
 30
0.0
 11
9046.801569802752
 21
7126.279066364539
 31
0.0
  0
LINE
  5
1659A
330
17989
100
AcDbEntity
  8
SUNPOU
100
AcDbLine
 10
9046.801569802752
 20
7126.279066364539
 30
0.0
 11
9136.801569802752
 21
7141.279066364538
 31
0.0
  0
SOLID
  5
1659B
330
17989
100
AcDbEntity
  8
SUNPOU
100
AcDbTrace
 10
9136.801569802752
 20
7111.27906636454
 30
0.0
 11
9136.801569802752
 21
7141.279066364538
 31
0.0
 12
9046.801569802752
 22
7126.279066364539
 32
0.0
 13
9046.801569802752
 23
7126.279066364539
 33
0.0
  0
LINE
  5
1659C
330
17989
100
AcDbEntity
  8
SUNPOU
100
AcDbLine
 10
9136.801569802752
 20
7141.279066364538
 30
0.0
 11
9136.801569802752
 21
7111.27906636454
 31
0.0
  0
LINE
  5
165A5
330
17989
100
AcDbEntity
  8
SUNPOU
100
AcDbLine
 10
9136.801569802747
 20
8851.279066364538
 30
0.0
 11
9046.801569802743
 21
8836.279066364539
 31
0.0
  0
LINE
  5
165A6
330
17989
100
AcDbEntity
  8
SUNPOU
100
AcDbLine
 10
9046.801569802743
 20
8836.279066364539
 30
0.0
 11
9136.801569802747
 21
8821.279066364539
 31
0.0
  0
SOLID
  5
165A7
330
17989
100
AcDbEntity
  8
SUNPOU
100
AcDbTrace
 10
9136.801569802747
 20
8851.279066364538
 30
0.0
 11
9136.801569802747
 21
8821.279066364539
 31
0.0
 12
9046.801569802743
 22
8836.279066364539
 32
0.0
 13
9046.801569802743
 23
8836.279066364539
 33
0.0
  0
LINE
  5
165A8
330
17989
100
AcDbEntity
  8
SUNPOU
100
AcDbLine
 10
9136.801569802747
 20
8821.279066364539
 30
0.0
 11
9136.801569802747
 21
8851.279066364538
 31
0.0
  0
LINE
  5
165AC
330
17989
100
AcDbEntity
  8
SUNPOU
100
AcDbLine
 10
11758.05156980275
 20
6666.279066364538
 30
0.0
 11
11769.30156980275
 21
6666.279066364538
 31
0.0
  0
LINE
  5
165AE
330
17989
100
AcDbEntity
  8
SUNPOU
100
AcDbLine
 10
11758.05156980275
 20
6876.279066364539
 30
0.0
 11
11769.30156980275
 21
6876.279066364539
 31
0.0
  0
LINE
  5
165B0
330
17989
100
AcDbEntity
  8
SUNPOU
100
AcDbLine
 10
11918.05156980275
 20
6876.279066364539
 30
0.0
 11
11929.30156980275
 21
6876.279066364539
 31
0.0
  0
LINE
  5
165B2
330
17989
100
AcDbEntity
  8
SUNPOU
100
AcDbLine
 10
11895.55156980275
 20
6876.279066364539
 30
0.0
 11
11884.30156980275
 21
6876.279066364539
 31
0.0
  0
LINE
  5
165B4
330
17989
100
AcDbEntity
  8
SUNPOU
100
AcDbLine
 10
11236.80156980276
 20
7347.529066364541
 30
0.0
 11
11236.80156980276
 21
7358.779066364538
 31
0.0
  0
LINE
  5
165B6
330
17989
100
AcDbEntity
  8
SUNPOU
100
AcDbLine
 10
11446.80156980276
 20
7347.529066364541
 30
0.0
 11
11446.80156980276
 21
7358.779066364538
 31
0.0
  0
LINE
  5
165B8
330
17989
100
AcDbEntity
  8
SUNPOU
100
AcDbLine
 10
11446.80156980276
 20
8137.529066364539
 30
0.0
 11
11446.80156980276
 21
8148.779066364538
 31
0.0
  0
LINE
  5
165BA
330
17989
100
AcDbEntity
  8
SUNPOU
100
AcDbLine
 10
11446.80156980276
 20
7847.529066364541
 30
0.0
 11
11446.80156980276
 21
7858.779066364538
 31
0.0
  0
LINE
  5
165BC
330
17989
100
AcDbEntity
  8
SUNPOU
100
AcDbLine
 10
11446.80156980276
 20
7825.029066364539
 30
0.0
 11
11446.80156980276
 21
7813.779066364539
 31
0.0
  0
LINE
  5
165BE
330
17989
100
AcDbEntity
  8
SUNPOU
100
AcDbLine
 10
11446.80156980276
 20
8115.02906636454
 30
0.0
 11
11446.80156980276
 21
8103.779066364538
 31
0.0
  0
LINE
  5
165C0
330
17989
100
AcDbEntity
  8
SUNPOU
100
AcDbLine
 10
11236.80156980276
 20
8615.02906636454
 30
0.0
 11
11236.80156980276
 21
8603.779066364539
 31
0.0
  0
LINE
  5
165C2
330
17989
100
AcDbEntity
  8
SUNPOU
100
AcDbLine
 10
11446.80156980276
 20
8615.02906636454
 30
0.0
 11
11446.80156980276
 21
8603.779066364539
 31
0.0
  0
LINE
  5
165C4
330
17989
100
AcDbEntity
  8
SUNPOU
100
AcDbLine
 10
12058.05156980275
 20
7086.279066364538
 30
0.0
 11
12069.30156980275
 21
7086.279066364538
 31
0.0
  0
LINE
  5
165C6
330
17989
100
AcDbEntity
  8
SUNPOU
100
AcDbLine
 10
12235.55156980275
 20
7086.279066364538
 30
0.0
 11
12224.30156980275
 21
7086.279066364538
 31
0.0
  0
LINE
  5
165C8
330
17989
100
AcDbEntity
  8
SUNPOU
100
AcDbLine
 10
12398.05156980275
 20
6876.279066364539
 30
0.0
 11
12409.30156980275
 21
6876.279066364539
 31
0.0
  0
LINE
  5
165CA
330
17989
100
AcDbEntity
  8
SUNPOU
100
AcDbLine
 10
12375.55156980275
 20
6876.279066364539
 30
0.0
 11
12364.30156980275
 21
6876.279066364539
 31
0.0
  0
LINE
  5
165CC
330
17989
100
AcDbEntity
  8
SUNPOU
100
AcDbLine
 10
12535.55156980275
 20
6666.279066364538
 30
0.0
 11
12524.30156980275
 21
6666.279066364538
 31
0.0
  0
LINE
  5
165CE
330
17989
100
AcDbEntity
  8
SUNPOU
100
AcDbLine
 10
12535.55156980275
 20
6876.279066364539
 30
0.0
 11
12524.30156980275
 21
6876.279066364539
 31
0.0
  0
LINE
  5
165D0
330
17989
100
AcDbEntity
  8
SUNPOU
100
AcDbLine
 10
13206.80156980275
 20
7347.529066364541
 30
0.0
 11
13206.80156980275
 21
7358.779066364538
 31
0.0
  0
LINE
  5
165D2
330
17989
100
AcDbEntity
  8
SUNPOU
100
AcDbLine
 10
12996.80156980275
 20
7607.529066364539
 30
0.0
 11
12996.80156980275
 21
7618.779066364538
 31
0.0
  0
LINE
  5
165D4
330
17989
100
AcDbEntity
  8
SUNPOU
100
AcDbLine
 10
13206.80156980275
 20
7607.529066364539
 30
0.0
 11
13206.80156980275
 21
7618.779066364538
 31
0.0
  0
LINE
  5
165D6
330
17989
100
AcDbEntity
  8
SUNPOU
100
AcDbLine
 10
13206.80156980275
 20
7585.02906636454
 30
0.0
 11
13206.80156980275
 21
7573.779066364541
 31
0.0
  0
LINE
  5
165D8
330
17989
100
AcDbEntity
  8
SUNPOU
100
AcDbLine
 10
12996.80156980275
 20
7747.529066364538
 30
0.0
 11
12996.80156980275
 21
7758.779066364538
 31
0.0
  0
LINE
  5
165DA
330
17989
100
AcDbEntity
  8
SUNPOU
100
AcDbLine
 10
12996.80156980275
 20
7725.029066364538
 30
0.0
 11
12996.80156980275
 21
7713.779066364539
 31
0.0
  0
LINE
  5
165DC
330
17989
100
AcDbEntity
  8
SUNPOU
100
AcDbLine
 10
12996.80156980275
 20
7947.529066364538
 30
0.0
 11
12996.80156980275
 21
7958.779066364538
 31
0.0
  0
LINE
  5
165DE
330
17989
100
AcDbEntity
  8
SUNPOU
100
AcDbLine
 10
12996.80156980275
 20
7925.029066364539
 30
0.0
 11
12996.80156980275
 21
7913.779066364539
 31
0.0
  0
LINE
  5
165E0
330
17989
100
AcDbEntity
  8
SUNPOU
100
AcDbLine
 10
12996.80156980275
 20
8037.529066364539
 30
0.0
 11
12996.80156980275
 21
8048.779066364541
 31
0.0
  0
LINE
  5
165E2
330
17989
100
AcDbEntity
  8
SUNPOU
100
AcDbLine
 10
12996.80156980275
 20
8015.029066364538
 30
0.0
 11
12996.80156980275
 21
8003.779066364542
 31
0.0
  0
LINE
  5
165E4
330
17989
100
AcDbEntity
  8
SUNPOU
100
AcDbLine
 10
12996.80156980275
 20
8237.529066364539
 30
0.0
 11
12996.80156980275
 21
8248.779066364539
 31
0.0
  0
LINE
  5
165E6
330
17989
100
AcDbEntity
  8
SUNPOU
100
AcDbLine
 10
12996.80156980275
 20
8215.02906636454
 30
0.0
 11
12996.80156980275
 21
8203.779066364539
 31
0.0
  0
LINE
  5
165E8
330
17989
100
AcDbEntity
  8
SUNPOU
100
AcDbLine
 10
12996.80156980275
 20
8355.02906636454
 30
0.0
 11
12996.80156980275
 21
8343.779066364538
 31
0.0
  0
LINE
  5
165EA
330
17989
100
AcDbEntity
  8
SUNPOU
100
AcDbLine
 10
13206.80156980275
 20
8377.529066364539
 30
0.0
 11
13206.80156980275
 21
8388.77906636454
 31
0.0
  0
LINE
  5
165EC
330
17989
100
AcDbEntity
  8
SUNPOU
100
AcDbLine
 10
13206.80156980275
 20
8355.02906636454
 30
0.0
 11
13206.80156980275
 21
8343.779066364538
 31
0.0
  0
LINE
  5
165EE
330
17989
100
AcDbEntity
  8
SUNPOU
100
AcDbLine
 10
13206.80156980275
 20
8615.02906636454
 30
0.0
 11
13206.80156980275
 21
8603.779066364539
 31
0.0
  0
LINE
  5
165F2
330
17989
100
AcDbEntity
  8
U7
100
AcDbLine
 10
6590.706062185525
 20
3200.603629464092
 30
0.0
 11
8409.906062185523
 21
3200.603629464092
 31
0.0
  0
LINE
  5
165F3
330
17989
100
AcDbEntity
  8
1PL-M1
100
AcDbLine
 10
8652.306062185527
 20
2672.603629464092
 30
0.0
 11
6348.306062185526
 21
2672.603629464092
 31
0.0
  0
LINE
  5
165F5
330
17989
100
AcDbEntity
  8
U7
100
AcDbLine
 10
6580.306062185525
 20
2936.603629464091
 30
0.0
 11
8420.306062185519
 21
2936.603629464091
 31
0.0
  0
LINE
  5
165F6
330
17989
100
AcDbEntity
  8
U7
100
AcDbLine
 10
6580.306062185525
 20
2672.603629464092
 30
0.0
 11
8420.306062185519
 21
2672.603629464092
 31
0.0
  0
LINE
  5
165F8
330
17989
100
AcDbEntity
  8
U7
100
AcDbLine
 10
2729.191924633935
 20
3075.955848651584
 30
0.0
 11
3831.666180891753
 21
3075.955848651586
 31
0.0
  0
LINE
  5
165F9
330
17989
100
AcDbEntity
  8
U7
100
AcDbLine
 10
2729.191924633935
 20
3235.955848651584
 30
0.0
 11
3831.666180892288
 21
3235.955848651584
 31
0.0
  0
LINE
  5
165FA
330
17989
100
AcDbEntity
  8
U7
100
AcDbLine
 10
2729.191924633935
 20
2595.955848651584
 30
0.0
 11
3831.666180892968
 21
2595.955848651587
 31
0.0
  0
LINE
  5
165FB
330
17989
100
AcDbEntity
  8
U7
100
AcDbLine
 10
2729.191924633935
 20
2755.955848651584
 30
0.0
 11
3831.666180892211
 21
2755.955848651586
 31
0.0
  0
LINE
  5
165FC
330
17989
100
AcDbEntity
  8
U7
100
AcDbLine
 10
2729.191924633935
 20
2915.955848651586
 30
0.0
 11
3831.666180892625
 21
2915.955848651586
 31
0.0
  0
LINE
  5
165FD
330
17989
100
AcDbEntity
  8
HIDE-S1
100
AcDbLine
 10
3896.429052763157
 20
3059.155848651587
 30
0.0
 11
2664.429052763157
 21
3059.155848651587
 31
0.0
  0
LINE
  5
165FE
330
17989
100
AcDbEntity
  8
U7
100
AcDbLine
 10
2361.191924633935
 20
2371.155848651583
 30
0.0
 11
4199.666095789146
 21
2371.155848651587
 31
0.0
  0
LINE
  5
165FF
330
17989
100
AcDbEntity
  8
U7
100
AcDbLine
 10
2729.191924633935
 20
2435.955848651584
 30
0.0
 11
3831.666180892364
 21
2435.955848651587
 31
0.0
  0
LINE
  5
16600
330
17989
100
AcDbEntity
  8
KISO
100
AcDbLine
 10
2168.429052763157
 20
2291.155848651583
 30
0.0
 11
4392.429052763156
 21
2291.155848651587
 31
0.0
  0
LINE
  5
16601
330
17989
100
AcDbEntity
  8
KISO
100
AcDbLine
 10
2168.429052763157
 20
2051.155848651583
 30
0.0
 11
4392.429052763156
 21
2051.155848651585
 31
0.0
  0
LINE
  5
16602
330
17989
100
AcDbEntity
  8
KISO
100
AcDbLine
 10
2168.429052763157
 20
2211.155848651583
 30
0.0
 11
4392.429052763156
 21
2211.155848651586
 31
0.0
  0
LINE
  5
16603
330
17989
100
AcDbEntity
  8
HATCH
100
AcDbLine
 10
3958.981779850353
 20
3059.155848651587
 30
0.0
 11
3190.981779850354
 21
2291.155848651583
 31
0.0
  0
LINE
  5
16604
330
17989
100
AcDbEntity
  8
HATCH
100
AcDbLine
 10
3911.464204154607
 20
3059.155848651587
 30
0.0
 11
3143.464204154629
 21
2291.155848651583
 31
0.0
  0
LINE
  5
16605
330
17989
100
AcDbEntity
  8
HATCH
100
AcDbLine
 10
3863.946628458889
 20
3059.155848651587
 30
0.0
 11
3095.94662845889
 21
2291.155848651583
 31
0.0
  0
LINE
  5
16606
330
17989
100
AcDbEntity
  8
HATCH
100
AcDbLine
 10
2904.91147706742
 20
3059.155848651587
 30
0.0
 11
2248.429052763153
 21
2402.673424347316
 31
0.0
  0
LINE
  5
16607
330
17989
100
AcDbEntity
  8
HATCH
100
AcDbLine
 10
2952.429052763164
 20
3059.155848651587
 30
0.0
 11
2248.429052763157
 21
2355.155848651577
 31
0.0
  0
LINE
  5
16608
330
17989
100
AcDbEntity
  8
HATCH
100
AcDbLine
 10
2999.946628458896
 20
3059.155848651587
 30
0.0
 11
2248.429052763153
 21
2307.638272955843
 31
0.0
  0
LINE
  5
16609
330
17989
100
AcDbEntity
  8
KISO
100
AcDbLine
 10
2248.429052763157
 20
3155.155848651583
 30
0.0
 11
2248.429052763157
 21
2291.155848651583
 31
0.0
  0
LINE
  5
1660C
330
17989
100
AcDbEntity
  8
HATCH
100
AcDbLine
 10
3479.464204154629
 20
3059.155848651587
 30
0.0
 11
2711.464204154629
 21
2291.155848651583
 31
0.0
  0
LINE
  5
1660E
330
17989
100
AcDbEntity
  8
HATCH
100
AcDbLine
 10
3431.946628458889
 20
3059.155848651587
 30
0.0
 11
2663.946628458897
 21
2291.155848651583
 31
0.0
  0
LINE
  5
1660F
330
17989
100
AcDbEntity
  8
HATCH
100
AcDbLine
 10
3384.429052763156
 20
3059.155848651587
 30
0.0
 11
2616.429052763153
 21
2291.155848651583
 31
0.0
  0
LINE
  5
16610
330
17989
100
AcDbEntity
  8
U1
100
AcDbLine
 10
2729.191924633935
 20
3235.955848651584
 30
0.0
 11
2729.191924633935
 21
2428.755848651583
 31
0.0
  0
LINE
  5
16611
330
17989
100
AcDbEntity
  8
U1
100
AcDbLine
 10
3280.429052763157
 20
3235.955848651584
 30
0.0
 11
3280.429052763164
 21
2428.755848651583
 31
0.0
  0
LINE
  5
16616
330
17989
100
AcDbEntity
  8
KISO
100
AcDbLine
 10
2168.429052763157
 20
2051.155848651583
 30
0.0
 11
2168.429052763157
 21
2291.155848651583
 31
0.0
  0
CIRCLE
  5
16617
330
17989
100
AcDbEntity
  8
U7
100
AcDbCircle
 10
2361.191924633935
 20
2381.555848651585
 30
0.0
 40
10.4
  0
CIRCLE
  5
16618
330
17989
100
AcDbEntity
  8
U7
100
AcDbCircle
 10
2624.071924633933
 20
2381.555848651585
 30
0.0
 40
10.4
  0
LINE
  5
16619
330
17989
100
AcDbEntity
  8
U1
100
AcDbLine
 10
2409.191924633935
 20
2407.955848651584
 30
0.0
 11
2708.391924633936
 21
2407.955848651584
 31
0.0
  0
CIRCLE
  5
1661A
330
17989
100
AcDbEntity
  8
U7
100
AcDbCircle
 10
2721.991924633934
 20
2595.955848651584
 30
0.0
 40
7.2
  0
CIRCLE
  5
1661B
330
17989
100
AcDbEntity
  8
U7
100
AcDbCircle
 10
2721.991924633934
 20
2435.955848651584
 30
0.0
 40
7.2
  0
ARC
  5
1661C
330
17989
100
AcDbEntity
  8
U1
100
AcDbCircle
 10
2708.391924633936
 20
2428.755848651583
 30
0.0
 40
20.8
100
AcDbArc
 50
270.0
 51
0.0
  0
CIRCLE
  5
16620
330
17989
100
AcDbEntity
  8
U7
100
AcDbCircle
 10
2886.951924633937
 20
2381.555848651585
 30
0.0
 40
10.4
  0
CIRCLE
  5
16621
330
17989
100
AcDbEntity
  8
U7
100
AcDbCircle
 10
3149.831924633938
 20
2381.555848651585
 30
0.0
 40
10.4
  0
CIRCLE
  5
16622
330
17989
100
AcDbEntity
  8
U7
100
AcDbCircle
 10
3412.711924633935
 20
2381.555848651585
 30
0.0
 40
10.4
  0
LINE
  5
16623
330
17989
100
AcDbEntity
  8
HATCH
100
AcDbLine
 10
2120.386010772774
 20
3299.155848651583
 30
0.0
 11
1976.386010772773
 21
3155.155848651583
 31
0.0
  0
LINE
  5
16624
330
17989
100
AcDbEntity
  8
HATCH
100
AcDbLine
 10
2025.35085938131
 20
3299.155848651583
 30
0.0
 11
1881.350859381306
 21
3155.155848651583
 31
0.0
  0
LINE
  5
16625
330
17989
100
AcDbEntity
  8
HATCH
100
AcDbLine
 10
2072.868435077031
 20
3299.155848651583
 30
0.0
 11
1928.868435077031
 21
3155.155848651583
 31
0.0
  0
LINE
  5
16626
330
17989
100
AcDbEntity
  8
KISO
100
AcDbLine
 10
1720.886240370048
 20
3155.155848651583
 30
0.0
 11
2248.429052763157
 21
3155.155848651583
 31
0.0
  0
LINE
  5
16627
330
17989
100
AcDbEntity
  8
KISO
100
AcDbLine
 10
1720.886240370048
 20
3059.155848651587
 30
0.0
 11
2248.429052763157
 21
3059.155848651583
 31
0.0
  0
LINE
  5
16628
330
17989
100
AcDbEntity
  8
KISO
100
AcDbLine
 10
2977.911924633929
 20
3299.155848651583
 30
0.0
 11
1720.886240370048
 21
3299.155848651583
 31
0.0
  0
LINE
  5
1662B
330
17989
100
AcDbEntity
  8
HATCH
100
AcDbLine
 10
2803.472773955738
 20
3249.555848651587
 30
0.0
 11
2753.87277395574
 21
3299.155848651583
 31
0.0
  0
LINE
  5
1662C
330
17989
100
AcDbEntity
  8
HATCH
100
AcDbLine
 10
2504.868435077013
 20
3299.155848651583
 30
0.0
 11
2264.86843507702
 21
3059.155848651587
 31
0.0
  0
LINE
  5
1662D
330
17989
100
AcDbEntity
  8
HATCH
100
AcDbLine
 10
2599.903586468554
 20
3299.155848651583
 30
0.0
 11
2359.903586468543
 21
3059.155848651587
 31
0.0
  0
LINE
  5
1662E
330
17989
100
AcDbEntity
  8
HATCH
100
AcDbLine
 10
2552.386010772756
 20
3299.155848651583
 30
0.0
 11
2312.386010772756
 21
3059.155848651583
 31
0.0
  0
CIRCLE
  5
1662F
330
17989
100
AcDbEntity
  8
U7
100
AcDbCircle
 10
2721.991924633934
 20
3235.955848651584
 30
0.0
 40
7.2
  0
LINE
  5
16630
330
17989
100
AcDbEntity
  8
KISO
100
AcDbLine
 10
2664.429052763157
 20
3299.155848651583
 30
0.0
 11
2664.429052763157
 21
3059.155848651587
 31
0.0
  0
LINE
  5
16631
330
17989
100
AcDbEntity
  8
HATCH
100
AcDbLine
 10
2425.393901371688
 20
3059.155848651583
 30
0.0
 11
2248.429052763153
 21
2882.19100004305
 31
0.0
  0
LINE
  5
16632
330
17989
100
AcDbEntity
  8
KISO
100
AcDbLine
 10
2664.429052763157
 20
3059.155848651587
 30
0.0
 11
2248.429052763157
 21
3059.155848651583
 31
0.0
  0
LINE
  5
16633
330
17989
100
AcDbEntity
  8
HATCH
100
AcDbLine
 10
2520.429052763164
 20
3059.155848651583
 30
0.0
 11
2248.429052763157
 21
2787.155848651576
 31
0.0
  0
LINE
  5
16634
330
17989
100
AcDbEntity
  8
HATCH
100
AcDbLine
 10
2472.911477067424
 20
3059.155848651583
 30
0.0
 11
2248.429052763153
 21
2834.673424347311
 31
0.0
  0
CIRCLE
  5
16637
330
17989
100
AcDbEntity
  8
U7
100
AcDbCircle
 10
2721.991924633934
 20
2755.955848651586
 30
0.0
 40
7.2
  0
CIRCLE
  5
16638
330
17989
100
AcDbEntity
  8
U7
100
AcDbCircle
 10
2721.991924633934
 20
2915.955848651586
 30
0.0
 40
7.2
  0
CIRCLE
  5
16639
330
17989
100
AcDbEntity
  8
U7
100
AcDbCircle
 10
2721.991924633934
 20
3075.955848651584
 30
0.0
 40
7.2
  0
LINE
  5
1663A
330
17989
100
AcDbEntity
  8
HATCH
100
AcDbLine
 10
2755.955198259999
 20
3249.555848651587
 30
0.0
 11
2706.355198259993
 21
3299.155848651583
 31
0.0
  0
LINE
  5
1663B
330
17989
100
AcDbEntity
  8
KISO
100
AcDbLine
 10
3440.386180892383
 20
3270.355848651584
 30
0.0
 11
3287.666180892382
 21
3078.355848651587
 31
0.0
  0
LINE
  5
1663C
330
17989
100
AcDbEntity
  8
KISO
100
AcDbLine
 10
2977.911924633929
 20
3270.355848651584
 30
0.0
 11
2825.191924633935
 21
3078.355848651587
 31
0.0
  0
LINE
  5
1663D
330
17989
100
AcDbEntity
  8
KISO
100
AcDbLine
 10
3120.471924633941
 20
3270.355848651584
 30
0.0
 11
3273.191924633935
 21
3078.355848651587
 31
0.0
  0
LINE
  5
16640
330
17989
100
AcDbEntity
  8
HASIRA
100
AcDbLine
 10
3440.386180892387
 20
3075.955848651586
 30
0.0
 11
3440.386180892387
 21
3588.012757417067
 31
0.0
  0
LINE
  5
16642
330
17989
100
AcDbEntity
  8
KISO
100
AcDbLine
 10
3433.191924633935
 20
3299.155848651583
 30
0.0
 11
3120.471924633934
 21
3299.155848651583
 31
0.0
  0
LINE
  5
16643
330
17989
100
AcDbEntity
  8
HATCH
100
AcDbLine
 10
2850.990349651471
 20
3249.555848651587
 30
0.0
 11
2801.390349651465
 21
3299.155848651583
 31
0.0
  0
LINE
  5
16644
330
17989
100
AcDbEntity
  8
HATCH
100
AcDbLine
 10
3235.47277395572
 20
3249.555848651587
 30
0.0
 11
3185.872773955725
 21
3299.155848651583
 31
0.0
  0
LINE
  5
16645
330
17989
100
AcDbEntity
  8
HATCH
100
AcDbLine
 10
3282.990349651479
 20
3249.555848651587
 30
0.0
 11
3233.390349651472
 21
3299.155848651583
 31
0.0
  0
LINE
  5
16646
330
17989
100
AcDbEntity
  8
HATCH
100
AcDbLine
 10
3330.507925347209
 20
3249.555848651587
 30
0.0
 11
3280.907925347205
 21
3299.155848651583
 31
0.0
  0
LINE
  5
16647
330
17989
100
AcDbEntity
  8
U7
100
AcDbLine
 10
8116.306062185522
 20
2672.603629464092
 30
0.0
 11
8116.306062185522
 21
2290.603629464088
 31
0.0
  0
LINE
  5
16648
330
17989
100
AcDbEntity
  8
U7
100
AcDbLine
 10
6884.306062185527
 20
2288.603629464088
 30
0.0
 11
6884.306062185527
 21
2672.603629464092
 31
0.0
  0
LINE
  5
16649
330
17989
100
AcDbEntity
  8
1PL-M1
100
AcDbLine
 10
7500.306062185526
 20
3432.603629464092
 30
0.0
 11
7500.306062185526
 21
1912.603629464086
 31
0.0
  0
LINE
  5
1664A
330
17989
100
AcDbEntity
  8
HATCH
100
AcDbLine
 10
4312.429052763162
 20
3028.120697260126
 30
0.0
 11
3575.464204154621
 21
2291.155848651587
 31
0.0
  0
LINE
  5
1664B
330
17989
100
AcDbEntity
  8
HATCH
100
AcDbLine
 10
4310.981779850361
 20
2979.155848651583
 30
0.0
 11
3622.981779850361
 21
2291.155848651587
 31
0.0
  0
LINE
  5
1664C
330
17989
100
AcDbEntity
  8
HATCH
100
AcDbLine
 10
4312.429052763162
 20
2933.085545868606
 30
0.0
 11
3670.499355546093
 21
2291.155848651587
 31
0.0
  0
LINE
  5
1664D
330
17989
100
AcDbEntity
  8
U1
100
AcDbLine
 10
3831.666180892382
 20
3235.955848651584
 30
0.0
 11
3831.666180892382
 21
2428.755848651583
 31
0.0
  0
LINE
  5
1664F
330
17989
100
AcDbEntity
  8
KISO
100
AcDbLine
 10
4312.429052763162
 20
3155.155848651583
 30
0.0
 11
4312.429052763162
 21
2291.155848651583
 31
0.0
  0
LINE
  5
16650
330
17989
100
AcDbEntity
  8
HATCH
100
AcDbLine
 10
4356.80509583351
 20
2211.155848651583
 30
0.0
 11
4388.80509583351
 21
2155.730222809383
 31
0.0
  0
LINE
  5
16651
330
17989
100
AcDbEntity
  8
HATCH
100
AcDbLine
 10
4328.429052763171
 20
2051.155848651585
 30
0.0
 11
4392.429052763156
 21
2162.007100335972
 31
0.0
  0
LINE
  5
16655
330
17989
100
AcDbEntity
  8
U1
100
AcDbLine
 10
4151.666180892382
 20
2407.955848651584
 30
0.0
 11
3852.466180892381
 21
2407.955848651584
 31
0.0
  0
CIRCLE
  5
16656
330
17989
100
AcDbEntity
  8
U7
100
AcDbCircle
 10
3675.591924633937
 20
2381.555848651585
 30
0.0
 40
10.4
  0
CIRCLE
  5
16657
330
17989
100
AcDbEntity
  8
U7
100
AcDbCircle
 10
3938.471924633941
 20
2381.555848651585
 30
0.0
 40
10.4
  0
CIRCLE
  5
16658
330
17989
100
AcDbEntity
  8
U7
100
AcDbCircle
 10
3838.866180892383
 20
2595.955848651584
 30
0.0
 40
7.2
  0
CIRCLE
  5
16659
330
17989
100
AcDbEntity
  8
U7
100
AcDbCircle
 10
3838.866180892383
 20
2435.955848651584
 30
0.0
 40
7.2
  0
ARC
  5
1665A
330
17989
100
AcDbEntity
  8
U1
100
AcDbCircle
 10
3852.466180892381
 20
2428.755848651583
 30
0.0
 40
20.8
100
AcDbArc
 50
180.0
 51
270.0
  0
LINE
  5
1665B
330
17989
100
AcDbEntity
  8
HATCH
100
AcDbLine
 10
4312.429052763162
 20
2548.603121564393
 30
0.0
 11
4054.981779850352
 21
2291.155848651587
 31
0.0
  0
LINE
  5
1665C
330
17989
100
AcDbEntity
  8
HATCH
100
AcDbLine
 10
4312.429052763162
 20
2501.085545868655
 30
0.0
 11
4102.499355546092
 21
2291.155848651587
 31
0.0
  0
LINE
  5
1665D
330
17989
100
AcDbEntity
  8
HATCH
100
AcDbLine
 10
4312.429052763162
 20
2453.567970172907
 30
0.0
 11
4150.016931241832
 21
2291.155848651587
 31
0.0
  0
CIRCLE
  5
1665E
330
17989
100
AcDbEntity
  8
U7
100
AcDbCircle
 10
4199.666180892381
 20
2381.555848651585
 30
0.0
 40
10.4
  0
LINE
  5
1665F
330
17989
100
AcDbEntity
  8
HATCH
100
AcDbLine
 10
4360.429052763171
 20
2106.581474493793
 30
0.0
 11
4392.429052763171
 21
2051.155848651585
 31
0.0
  0
LINE
  5
16660
330
17989
100
AcDbEntity
  8
KISO
100
AcDbLine
 10
4392.429052763156
 20
2051.155848651585
 30
0.0
 11
4392.429052763156
 21
2291.155848651587
 31
0.0
  0
LINE
  5
16661
330
17989
100
AcDbEntity
  8
U7
100
AcDbLine
 10
8114.306062185523
 20
2288.603629464088
 30
0.0
 11
6884.306062185527
 21
2288.603629464088
 31
0.0
  0
LINE
  5
16662
330
17989
100
AcDbEntity
  8
KISO
100
AcDbLine
 10
3582.946180892385
 20
3299.155848651583
 30
0.0
 11
4734.604572265886
 21
3299.155848651583
 31
0.0
  0
LINE
  5
16663
330
17989
100
AcDbEntity
  8
KISO
100
AcDbLine
 10
4734.604572265886
 20
3059.155848651583
 30
0.0
 11
4312.429052763162
 21
3059.155848651583
 31
0.0
  0
LINE
  5
16664
330
17989
100
AcDbEntity
  8
KISO
100
AcDbLine
 10
4734.604572265886
 20
3155.155848651583
 30
0.0
 11
4312.429052763162
 21
3155.155848651583
 31
0.0
  0
LINE
  5
16666
330
17989
100
AcDbEntity
  8
HATCH
100
AcDbLine
 10
4201.783758434369
 20
3299.155848651583
 30
0.0
 11
3961.783758434362
 21
3059.155848651583
 31
0.0
  0
LINE
  5
16667
330
17989
100
AcDbEntity
  8
HATCH
100
AcDbLine
 10
4296.818909825833
 20
3299.155848651583
 30
0.0
 11
4056.818909825834
 21
3059.155848651583
 31
0.0
  0
LINE
  5
16668
330
17989
100
AcDbEntity
  8
HATCH
100
AcDbLine
 10
4249.301334130087
 20
3299.155848651583
 30
0.0
 11
4009.301334130086
 21
3059.155848651583
 31
0.0
  0
CIRCLE
  5
16669
330
17989
100
AcDbEntity
  8
U7
100
AcDbCircle
 10
3838.866180892383
 20
3235.955848651584
 30
0.0
 40
7.2
  0
LINE
  5
1666A
330
17989
100
AcDbEntity
  8
KISO
100
AcDbLine
 10
3582.946180892385
 20
3270.355848651584
 30
0.0
 11
3735.666180892382
 21
3078.355848651587
 31
0.0
  0
LINE
  5
1666B
330
17989
100
AcDbEntity
  8
KISO
100
AcDbLine
 10
3896.429052763157
 20
3299.155848651583
 30
0.0
 11
3896.429052763157
 21
3059.155848651587
 31
0.0
  0
LINE
  5
1666D
330
17989
100
AcDbEntity
  8
KISO
100
AcDbLine
 10
3896.429052763157
 20
3059.155848651587
 30
0.0
 11
4312.429052763162
 21
3059.155848651583
 31
0.0
  0
CIRCLE
  5
1666E
330
17989
100
AcDbEntity
  8
U7
100
AcDbCircle
 10
3838.866180892383
 20
2755.955848651586
 30
0.0
 40
7.2
  0
CIRCLE
  5
1666F
330
17989
100
AcDbEntity
  8
U7
100
AcDbCircle
 10
3838.866180892383
 20
2915.955848651586
 30
0.0
 40
7.2
  0
CIRCLE
  5
16670
330
17989
100
AcDbEntity
  8
U7
100
AcDbCircle
 10
3838.866180892383
 20
3075.955848651584
 30
0.0
 40
7.2
  0
LINE
  5
16671
330
17989
100
AcDbEntity
  8
HATCH
100
AcDbLine
 10
3810.025501042947
 20
3249.555848651587
 30
0.0
 11
3760.425501042942
 21
3299.155848651587
 31
0.0
  0
LINE
  5
16672
330
17989
100
AcDbEntity
  8
HATCH
100
AcDbLine
 10
3762.50792534721
 20
3249.555848651587
 30
0.0
 11
3712.907925347205
 21
3299.155848651587
 31
0.0
  0
LINE
  5
16673
330
17989
100
AcDbEntity
  8
HATCH
100
AcDbLine
 10
3714.99034965146
 20
3249.555848651587
 30
0.0
 11
3665.390349651465
 21
3299.155848651587
 31
0.0
  0
LINE
  5
16674
330
17989
100
AcDbEntity
  8
HATCH
100
AcDbLine
 10
4728.818909825816
 20
3299.155848651583
 30
0.0
 11
4584.818909825815
 21
3155.155848651583
 31
0.0
  0
LINE
  5
16675
330
17989
100
AcDbEntity
  8
HATCH
100
AcDbLine
 10
4681.301334130072
 20
3299.155848651583
 30
0.0
 11
4537.301334130074
 21
3155.155848651583
 31
0.0
  0
LINE
  5
16676
330
17989
100
AcDbEntity
  8
HATCH
100
AcDbLine
 10
4734.604572265886
 20
3257.423935395859
 30
0.0
 11
4632.336485521606
 21
3155.155848651583
 31
0.0
  0
LINE
  5
16679
330
17989
100
AcDbEntity
  8
U7
100
AcDbLine
 10
6580.306062185525
 20
2672.603629464092
 30
0.0
 11
6580.306062185525
 21
3190.203629464091
 31
0.0
  0
ARC
  5
1667A
330
17989
100
AcDbEntity
  8
U7
100
AcDbCircle
 10
6590.706062185525
 20
3190.203629464091
 30
0.0
 40
10.4
100
AcDbArc
 50
90.0
 51
180.0
  0
LINE
  5
1667B
330
17989
100
AcDbEntity
  8
HIDE-M1
100
AcDbLine
 10
6889.106062185525
 20
3056.603629464087
 30
0.0
 11
8116.306062185522
 21
3056.603629464091
 31
0.0
  0
LINE
  5
1667C
330
17989
100
AcDbEntity
  8
U7
100
AcDbLine
 10
6843.186062185522
 20
2672.603629464092
 30
0.0
 11
6843.186062185522
 21
3200.603629464092
 31
0.0
  0
LINE
  5
1667D
330
17989
100
AcDbEntity
  8
U7
100
AcDbLine
 10
7106.066062185529
 20
2672.603629464092
 30
0.0
 11
7106.06606218552
 21
3200.603629464092
 31
0.0
  0
LINE
  5
1667E
330
17989
100
AcDbEntity
  8
U7
100
AcDbLine
 10
7368.946062185521
 20
2672.603629464092
 30
0.0
 11
7368.946062185521
 21
3200.603629464092
 31
0.0
  0
LINE
  5
1667F
330
17989
100
AcDbEntity
  8
HIDE-M1
100
AcDbLine
 10
6884.306062185527
 20
2672.603629464092
 30
0.0
 11
6884.306062185527
 21
3051.803629464085
 31
0.0
  0
LINE
  5
16680
330
17989
100
AcDbEntity
  8
HIDE-M1
100
AcDbLine
 10
6884.306062185527
 20
2672.603629464092
 30
0.0
 11
6884.306062185527
 21
3051.803629464085
 31
0.0
  0
ARC
  5
16681
330
17989
100
AcDbEntity
  8
HIDE-M1
100
AcDbCircle
 10
6889.106062185525
 20
3051.803629464085
 30
0.0
 40
4.799999999999999
100
AcDbArc
 50
90.0
 51
180.0
  0
ARC
  5
16682
330
17989
100
AcDbEntity
  8
HIDE-M1
100
AcDbCircle
 10
6889.106062185525
 20
3051.803629464085
 30
0.0
 40
4.799999999999999
100
AcDbArc
 50
90.0
 51
180.0
  0
LINE
  5
16683
330
17989
100
AcDbEntity
  8
U7
100
AcDbLine
 10
7631.82606218553
 20
2672.603629464092
 30
0.0
 11
7631.826062185526
 21
3200.603629464092
 31
0.0
  0
LINE
  5
16684
330
17989
100
AcDbEntity
  8
U7
100
AcDbLine
 10
7894.706062185523
 20
2672.603629464092
 30
0.0
 11
7894.706062185523
 21
3200.603629464092
 31
0.0
  0
LINE
  5
16685
330
17989
100
AcDbEntity
  8
U7
100
AcDbLine
 10
8157.586062185528
 20
2672.603629464092
 30
0.0
 11
8157.586062185522
 21
3200.603629464092
 31
0.0
  0
LINE
  5
16686
330
17989
100
AcDbEntity
  8
HIDE-M1
100
AcDbLine
 10
8116.306062185522
 20
2672.603629464092
 30
0.0
 11
8116.306062185522
 21
3056.603629464091
 31
0.0
  0
LINE
  5
16687
330
17989
100
AcDbEntity
  8
U7
100
AcDbLine
 10
8420.306062185526
 20
3190.203629464091
 30
0.0
 11
8420.306062185526
 21
2672.603629464092
 31
0.0
  0
ARC
  5
16688
330
17989
100
AcDbEntity
  8
U7
100
AcDbCircle
 10
8409.906062185523
 20
3190.203629464091
 30
0.0
 40
10.4
100
AcDbArc
 50
0.0
 51
90.0
  0
LINE
  5
1668D
330
17989
100
AcDbEntity
  8
SUNPOU
100
AcDbLine
 10
6580.306062185522
 20
3352.603629464088
 30
0.0
 11
6580.306062185522
 21
3628.981713706492
 31
0.0
  0
LINE
  5
1668E
330
17989
100
AcDbEntity
  8
SUNPOU
100
AcDbLine
 10
8420.306062185526
 20
3352.603629464088
 30
0.0
 11
8420.306062185526
 21
3628.981713706492
 31
0.0
  0
LINE
  5
1668F
330
17989
100
AcDbEntity
  8
SUNPOU
100
AcDbLine
 10
6600.306062185523
 20
3583.981713706492
 30
0.0
 11
8400.306062185526
 21
3583.981713706492
 31
0.0
  0
LINE
  5
16692
330
17989
100
AcDbEntity
  8
SUNPOU
100
AcDbLine
 10
6550.706062185523
 20
2144.603629464091
 30
0.0
 11
6010.044979629257
 21
2144.603629464091
 31
0.0
  0
LINE
  5
16693
330
17989
100
AcDbEntity
  8
SUNPOU
100
AcDbLine
 10
6550.706062185523
 20
3200.603629464092
 30
0.0
 11
6010.044979629257
 21
3200.603629464092
 31
0.0
  0
LINE
  5
16694
330
17989
100
AcDbEntity
  8
SUNPOU
100
AcDbLine
 10
6055.044979629257
 20
2164.603629464091
 30
0.0
 11
6055.044979629257
 21
3180.603629464091
 31
0.0
  0
TEXT
  5
16697
330
17989
100
AcDbEntity
  8
SUNPOU
100
AcDbText
 10
7131.567751039826
 20
3628.981713706492
 30
0.0
 40
90.0
  1
ベース筋
  7
01
 72
     4
 11
7335.567751039826
 21
3673.981713706492
 31
0.0
100
AcDbText
  0
TEXT
  5
16698
330
17989
100
AcDbEntity
  8
SUNPOU
100
AcDbText
 10
7586.370236222745
 20
3628.981713706492
 30
0.0
 40
90.0
  1
8-D13
 41
0.6666666666666666
  7
00
 72
     4
 11
7739.227379079889
 21
3673.981713706492
 31
0.0
100
AcDbText
  0
TEXT
  5
16699
330
17989
100
AcDbEntity
  8
SUNPOU
100
AcDbText
 10
6010.044979629257
 20
2288.967254277465
 30
0.0
 40
90.0
  1
ベース筋
 50
90.0
  7
01
 72
     4
 11
5965.044979629257
 21
2492.967254277465
 31
0.0
100
AcDbText
  0
TEXT
  5
1669A
330
17989
100
AcDbEntity
  8
SUNPOU
100
AcDbText
 10
6010.044979629257
 20
2751.602291812929
 30
0.0
 40
90.0
  1
5-D13
 50
90.0
 41
0.6666666666666666
  7
00
 72
     4
 11
5965.044979629257
 21
2904.459434670071
 31
0.0
100
AcDbText
  0
TEXT
  5
166A0
330
17989
100
AcDbEntity
  8
HIKIDASHI
100
AcDbText
 10
1770.42596496575
 20
2808.786428635248
 30
0.0
 40
90.0
  1
6-D13
 41
0.6700000000000001
  7
00
100
AcDbText
  0
TEXT
  5
166A1
330
17989
100
AcDbEntity
  8
HIKIDASHI
100
AcDbText
 10
1521.162011931967
 20
2808.786428635248
 30
0.0
 40
90.0
  1
主筋
  7
01
100
AcDbText
  0
LINE
  5
166A2
330
17989
100
AcDbEntity
  8
HIKIDASHI
100
AcDbLine
 10
1521.162011931967
 20
2763.786428635248
 30
0.0
 11
2119.067099341151
 21
2763.786428635248
 31
0.0
  0
LINE
  5
166A4
330
17989
100
AcDbEntity
  8
HIKIDASHI
100
AcDbLine
 10
1367.253829721249
 20
2358.891637814443
 30
0.0
 11
2124.975130930299
 21
2358.891637814443
 31
0.0
  0
TEXT
  5
166A5
330
17989
100
AcDbEntity
  8
HIKIDASHI
100
AcDbText
 10
1626.517782755036
 20
2403.891637814443
 30
0.0
 40
90.0
  1
9
 41
0.6700000000000001
  7
00
100
AcDbText
  0
TEXT
  5
166A6
330
17989
100
AcDbEntity
  8
HIKIDASHI
100
AcDbText
 10
1377.253829721248
 20
2403.891637814443
 30
0.0
 40
90.0
  1
帯筋
  7
01
100
AcDbText
  0
TEXT
  5
166A7
330
17989
100
AcDbEntity
  8
HIKIDASHI
100
AcDbText
 10
1815.932149789008
 20
2411.391637814443
 30
0.0
 40
75.0
  1
ア
  7
01
 72
     1
 11
1848.432149789008
 21
2448.891637814443
 31
0.0
100
AcDbText
 73
     2
  0
TEXT
  5
166A8
330
17989
100
AcDbEntity
  8
HIKIDASHI
100
AcDbText
 10
1704.306817219276
 20
2403.891637814443
 30
0.0
 40
90.0
  1
%%C
 41
0.6700000000000001
  7
00
100
AcDbText
  0
CIRCLE
  5
166A9
330
17989
100
AcDbEntity
  8
HIKIDASHI
100
AcDbCircle
 10
1848.432149789008
 20
2448.891637814443
 30
0.0
 40
60.0
  0
TEXT
  5
166AA
330
17989
100
AcDbEntity
  8
HIKIDASHI
100
AcDbText
 10
1925.416823446379
 20
2403.891637814443
 30
0.0
 40
90.0
  1
100
 41
0.6700000000000001
  7
00
100
AcDbText
  0
TEXT
  5
166AC
330
17989
100
AcDbEntity
  8
HIKIDASHI
100
AcDbText
 10
5349.728067453241
 20
3737.530553718546
 30
0.0
 40
90.00009018009018
  1
（別途）
  7
01
100
AcDbText
  0
LINE
  5
166AD
330
17989
100
AcDbEntity
  8
HIKIDASHI
100
AcDbLine
 10
3997.930010252171
 20
3692.530553718546
 30
0.0
 11
5742.157249407592
 21
3692.530553718546
 31
0.0
  0
TEXT
  5
166AE
330
17989
100
AcDbEntity
  8
HIKIDASHI
100
AcDbText
 10
4032.207695200701
 20
3737.530553718546
 30
0.0
 40
90.00009018009018
  1
アンカーボルト
  7
01
100
AcDbText
  0
TEXT
  5
166AF
330
17989
100
AcDbEntity
  8
HIKIDASHI
100
AcDbText
 10
5108.007913391737
 20
3737.321567518455
 30
0.0
 40
89.55223880597012
  1
400
 41
0.6700000000000001
  7
00
100
AcDbText
  0
TEXT
  5
166B0
330
17989
100
AcDbEntity
  8
HIKIDASHI
100
AcDbText
 10
4792.544749806086
 20
3737.530553718546
 30
0.0
 40
89.55223880597012
  1
W ／
 41
0.6700000000000001
  7
00
100
AcDbText
  0
TEXT
  5
166B1
330
17989
100
AcDbEntity
  8
HIKIDASHI
100
AcDbText
 10
4955.037597048232
 20
3736.934108326877
 30
0.0
 40
67.16417910447761
  1
2
 41
0.6700000000000001
  7
00
100
AcDbText
  0
TEXT
  5
166B2
330
17989
100
AcDbEntity
  8
HIKIDASHI
100
AcDbText
 10
4867.145560489309
 20
3763.960163357444
 30
0.0
 40
67.16417910447761
  1
1
 41
0.6700000000000001
  7
00
100
AcDbText
  0
TEXT
  5
166B3
330
17989
100
AcDbEntity
  8
HIKIDASHI
100
AcDbText
 10
5026.872534238606
 20
3748.724583569293
 30
0.0
 40
89.55223880597012
  1
x
 41
0.6700000000000001
  7
00
100
AcDbText
  0
LINE
  5
166B7
330
17989
100
AcDbEntity
  8
SUNPOU
100
AcDbLine
 10
1898.496684319278
 20
3389.155848651583
 30
0.0
 11
1950.458208546344
 21
3299.155848651583
 31
0.0
  0
LINE
  5
166B8
330
17989
100
AcDbEntity
  8
SUNPOU
100
AcDbLine
 10
2002.419732773411
 20
3389.155848651583
 30
0.0
 11
1898.496684319278
 21
3389.155848651583
 31
0.0
  0
LINE
  5
166B9
330
17989
100
AcDbEntity
  8
SUNPOU
100
AcDbLine
 10
1950.458208546344
 20
3299.155848651583
 30
0.0
 11
2002.419732773411
 21
3389.155848651583
 31
0.0
  0
TEXT
  5
166BA
330
17989
100
AcDbEntity
  8
SUNPOU
100
AcDbText
 10
1881.886779974916
 20
3434.155848651584
 30
0.0
 40
90.0
  1
F.L
 41
0.6666666666666666
  7
00
 72
     4
 11
1950.458208546344
 21
3479.155848651583
 31
0.0
100
AcDbText
  0
LINE
  5
166BF
330
17989
100
AcDbEntity
  8
HIKIDASHI
100
AcDbLine
 10
2946.306191125406
 20
1067.867206439227
 30
0.0
 11
3873.809328772831
 21
1067.867206439227
 31
0.0
  0
LINE
  5
166C0
330
17989
100
AcDbEntity
  8
HIKIDASHI
100
AcDbLine
 10
2946.306191125406
 20
1107.867206439226
 30
0.0
 11
3873.809328772831
 21
1107.867206439226
 31
0.0
  0
TEXT
  5
166C1
330
17989
100
AcDbEntity
  8
HIKIDASHI
100
AcDbText
 10
2986.306191125406
 20
1167.867206439227
 30
0.0
 40
120.0
  1
A  ~  A'
 41
0.6700000000000001
  7
00
100
AcDbText
  0
TEXT
  5
166C2
330
17989
100
AcDbEntity
  8
HIKIDASHI
100
AcDbText
 10
3471.662563787486
 20
1167.867206439227
 30
0.0
 40
120.0
  1
断  面
  7
01
100
AcDbText
  0
LINE
  5
166C9
330
17989
100
AcDbEntity
  8
HATCH
100
AcDbLine
 10
2452.260798623971
 20
2211.155848651583
 30
0.0
 11
2372.260798623979
 21
2291.155848651583
 31
0.0
  0
LINE
  5
166CA
330
17989
100
AcDbEntity
  8
HATCH
100
AcDbLine
 10
2404.743222928239
 20
2211.155848651583
 30
0.0
 11
2324.743222928245
 21
2291.155848651585
 31
0.0
  0
LINE
  5
166CB
330
17989
100
AcDbEntity
  8
HATCH
100
AcDbLine
 10
2357.225647232499
 20
2211.155848651583
 30
0.0
 11
2277.225647232503
 21
2291.155848651587
 31
0.0
  0
LINE
  5
166CC
330
17989
100
AcDbEntity
  8
HATCH
100
AcDbLine
 10
2931.778374319696
 20
2211.155848651585
 30
0.0
 11
2851.778374319703
 21
2291.155848651583
 31
0.0
  0
LINE
  5
166CD
330
17989
100
AcDbEntity
  8
HATCH
100
AcDbLine
 10
2884.260798623968
 20
2211.155848651585
 30
0.0
 11
2804.260798623971
 21
2291.155848651585
 31
0.0
  0
LINE
  5
166CE
330
17989
100
AcDbEntity
  8
HATCH
100
AcDbLine
 10
2836.743222928224
 20
2211.155848651585
 30
0.0
 11
2756.743222928228
 21
2291.155848651587
 31
0.0
  0
LINE
  5
166CF
330
17989
100
AcDbEntity
  8
HATCH
100
AcDbLine
 10
3411.295950015425
 20
2211.155848651585
 30
0.0
 11
3331.295950015432
 21
2291.155848651585
 31
0.0
  0
LINE
  5
166D0
330
17989
100
AcDbEntity
  8
HATCH
100
AcDbLine
 10
3363.778374319693
 20
2211.155848651585
 30
0.0
 11
3283.778374319699
 21
2291.155848651587
 31
0.0
  0
LINE
  5
166D1
330
17989
100
AcDbEntity
  8
HATCH
100
AcDbLine
 10
3316.260798623954
 20
2211.155848651585
 30
0.0
 11
3236.260798623957
 21
2291.155848651588
 31
0.0
  0
LINE
  5
166D2
330
17989
100
AcDbEntity
  8
HATCH
100
AcDbLine
 10
3890.81352571115
 20
2211.155848651586
 30
0.0
 11
3810.813525711157
 21
2291.155848651587
 31
0.0
  0
LINE
  5
166D3
330
17989
100
AcDbEntity
  8
HATCH
100
AcDbLine
 10
3843.295950015421
 20
2211.155848651586
 30
0.0
 11
3763.295950015425
 21
2291.155848651588
 31
0.0
  0
LINE
  5
166D4
330
17989
100
AcDbEntity
  8
HATCH
100
AcDbLine
 10
3795.778374319681
 20
2211.155848651586
 30
0.0
 11
3715.778374319682
 21
2291.15584865159
 31
0.0
  0
LINE
  5
166D5
330
17989
100
AcDbEntity
  8
HATCH
100
AcDbLine
 10
4370.331101406878
 20
2211.155848651588
 30
0.0
 11
4290.331101406884
 21
2291.155848651587
 31
0.0
  0
LINE
  5
166D6
330
17989
100
AcDbEntity
  8
HATCH
100
AcDbLine
 10
4322.813525711145
 20
2211.155848651588
 30
0.0
 11
4242.813525711152
 21
2291.155848651588
 31
0.0
  0
LINE
  5
166D7
330
17989
100
AcDbEntity
  8
HATCH
100
AcDbLine
 10
4275.295950015407
 20
2211.155848651588
 30
0.0
 11
4195.295950015409
 21
2291.15584865159
 31
0.0
  0
LINE
  5
16A66
330
17989
100
AcDbEntity
  8
SUNPOU
100
AcDbLine
 10
12546.80156980276
 20
7301.702201810382
 30
0.0
 11
12546.80156980276
 21
6621.27906636454
 31
0.0
  0
TEXT
  5
16F80
330
17989
100
AcDbEntity
  8
SUNPOU
100
AcDbText
 10
10183.6232995964
 20
2630.151830360839
 30
0.0
 40
90.0
  1
2
 41
0.6700000000000001
  7
01
100
AcDbText
  0
TEXT
  5
16F81
330
17989
100
AcDbEntity
  8
SUNPOU
100
AcDbText
 10
10072.98937938366
 20
2630.151830360839
 30
0.0
 40
90.0
  1
注　）
  7
01
100
AcDbText
  0
TEXT
  5
16F82
330
17989
100
AcDbEntity
  8
SUNPOU
100
AcDbText
 10
10072.98937938366
 20
2938.723258932267
 30
0.0
 40
90.0
  1
注　）
  7
01
100
AcDbText
  0
TEXT
  5
16F83
330
17989
100
AcDbEntity
  8
SUNPOU
100
AcDbText
 10
10183.6232995964
 20
2938.723258932267
 30
0.0
 40
90.0
  1
1
 41
0.6700000000000001
  7
01
100
AcDbText
  0
TEXT
  5
16F84
330
17989
100
AcDbEntity
  8
SUNPOU
100
AcDbText
 10
10389.8290446858
 20
2784.437544646551
 30
0.0
 40
90.0
  1
あわせて設計して下さい。
  7
01
100
AcDbText
  0
TEXT
  5
16F85
330
17989
100
AcDbEntity
  8
SUNPOU
100
AcDbText
 10
10389.8290446858
 20
2630.151830360839
 30
0.0
 40
90.0
  1
その他現地の実情にあわせて設計して下さい。
  7
01
100
AcDbText
  0
TEXT
  5
16F86
330
17989
100
AcDbEntity
  8
SUNPOU
100
AcDbText
 10
10389.8290446858
 20
2938.723258932267
 30
0.0
 40
90.0
  1
寒冷地の場合、凍結深度等を考慮し、実情に
  7
01
100
AcDbText
  0
TEXT
  5
16F87
330
17989
100
AcDbEntity
  8
SUNPOU
100
AcDbText
 10
9884.309670880178
 20
3507.262975663935
 30
0.0
 40
90.0
  1
<下記条件での参考図>
  7
01
 72
     4
 11
10473.16681373732
 21
3552.262975663935
 31
0.0
100
AcDbText
  0
TEXT
  5
16F88
330
17989
100
AcDbEntity
  8
SUNPOU
100
AcDbText
 10
12893.27085719543
 20
3368.197399575466
 30
0.0
 40
46.28539285937498
  1
2
 41
0.6700000000000001
  7
00
100
AcDbText
  0
TEXT
  5
16F89
330
17989
100
AcDbEntity
  8
SUNPOU
100
AcDbText
 10
12588.80637516402
 20
3318.008973217979
 30
0.0
 40
89.9993750043402
  1
N/mm
 41
0.6700000000000001
  7
01
100
AcDbText
  0
TEXT
  5
16F8A
330
17989
100
AcDbEntity
  8
SUNPOU
100
AcDbText
 10
12452.96992237806
 20
3318.008973217979
 30
0.0
 40
89.9993750043402
  1
18
 41
0.6700000000000001
  7
01
100
AcDbText
  0
LINE
  5
16F8B
330
17989
100
AcDbEntity
  8
SUNPOU
100
AcDbLine
 10
11851.68886116302
 20
3163.723258932267
 30
0.0
 11
11851.68886116302
 21
3247.215622631044
 31
0.0
  0
LINE
  5
16F8C
330
17989
100
AcDbEntity
  8
SUNPOU
100
AcDbLine
 10
11834.81386116302
 20
3163.723258932267
 30
0.0
 11
11834.81386116302
 21
3247.215622631044
 31
0.0
  0
LINE
  5
16F8D
330
17989
100
AcDbEntity
  8
SUNPOU
100
AcDbLine
 10
11817.93886116302
 20
3163.723258932267
 30
0.0
 11
11817.93886116302
 21
3247.215622631044
 31
0.0
  0
LINE
  5
16F8E
330
17989
100
AcDbEntity
  8
SUNPOU
100
AcDbLine
 10
11806.68886116302
 20
3163.723258932262
 30
0.0
 11
11862.93886116302
 21
3163.723258932262
 31
0.0
  0
LINE
  5
16F8F
330
17989
100
AcDbEntity
  8
SUNPOU
100
AcDbLine
 10
11806.68886116302
 20
3247.215622631044
 30
0.0
 11
11862.93886116302
 21
3247.215622631044
 31
0.0
  0
ARC
  5
16F90
330
17989
100
AcDbEntity
  8
SUNPOU
100
AcDbCircle
 10
13028.08600268203
 20
3281.796396659809
 30
0.0
 40
225.0
100
AcDbArc
 50
328.3472725282761
 51
31.65272747172387
  0
TEXT
  5
16F91
330
17989
100
AcDbEntity
  8
SUNPOU
100
AcDbText
 10
10792.60831653583
 20
3368.197399575466
 30
0.0
 40
46.28539285937498
  1
2
 41
0.6700000000000001
  7
00
100
AcDbText
  0
TEXT
  5
16F92
330
17989
100
AcDbEntity
  8
SUNPOU
100
AcDbText
 10
10524.96815980745
 20
3318.008973217979
 30
0.0
 40
71.99950000347218
  1
K
 41
0.6700000000000001
  7
01
100
AcDbText
  0
TEXT
  5
16F93
330
17989
100
AcDbEntity
  8
SUNPOU
100
AcDbText
 10
10389.13170702149
 20
3318.008973217979
 30
0.0
 40
89.9993750043402
  1
50  N/m
 41
0.6700000000000001
  7
01
100
AcDbText
  0
ARC
  5
16F94
330
17989
100
AcDbEntity
  8
SUNPOU
100
AcDbCircle
 10
10167.83157350362
 20
3281.796396659809
 30
0.0
 40
225.0
100
AcDbArc
 50
148.3472725282761
 51
211.6527274717239
  0
TEXT
  5
16F95
330
17989
100
AcDbEntity
  8
SUNPOU
100
AcDbText
 10
10014.8732995964
 20
3163.723258932267
 30
0.0
 40
89.9993750043402
  1
基準風速   　　 , 地表面粗度区分
  7
01
100
AcDbText
  0
TEXT
  5
16F96
330
17989
100
AcDbEntity
  8
SUNPOU
100
AcDbText
 10
10014.8732995964
 20
3318.008973217979
 30
0.0
 40
89.9993750043402
  1
地耐力   　　　 以上,コンクリート設計基準強度   　　　 以上
  7
01
100
AcDbText
  0
TEXT
  5
16F97
330
17989
100
AcDbEntity
  8
SUNPOU
100
AcDbText
 10
10498.63672826158
 20
3163.723258932267
 30
0.0
 40
89.9993750043402
  1
34 m/s
 41
0.6700000000000001
  7
01
100
AcDbText
  0
TEXT
  5
16F98
330
17989
100
AcDbEntity
  8
SUNPOU
100
AcDbText
 10
10389.82904468579
 20
2475.866116075124
 30
0.0
 40
90.0
  1
異形鉄筋の場合、原則としてフックは不要ですが、
  7
01
100
AcDbText
  0
TEXT
  5
16F99
330
17989
100
AcDbEntity
  8
SUNPOU
100
AcDbText
 10
10389.82904468579
 20
2321.580401789409
 30
0.0
 40
90.0
  1
地域によっては、フックをつける様指導している
  7
01
100
AcDbText
  0
TEXT
  5
16F9A
330
17989
100
AcDbEntity
  8
SUNPOU
100
AcDbText
 10
10389.82904468579
 20
2167.294687503693
 30
0.0
 40
90.0
  1
所もありますので、ご注意願います。
  7
01
100
AcDbText
  0
TEXT
  5
16F9B
330
17989
100
AcDbEntity
  8
SUNPOU
100
AcDbText
 10
10072.98937938366
 20
2475.866116075124
 30
0.0
 40
90.0
  1
注　）
  7
01
100
AcDbText
  0
TEXT
  5
16F9C
330
17989
100
AcDbEntity
  8
SUNPOU
100
AcDbText
 10
10183.6232995964
 20
2475.866116075124
 30
0.0
 40
90.0
  1
3
 41
0.6700000000000001
  7
01
100
AcDbText
  0
TEXT
  5
16F9D
330
17989
100
AcDbEntity
  8
SUNPOU
100
AcDbText
 10
11094.62598026874
 20
3674.609129510089
 30
0.0
 40
73.84615384615384
  1
/
 41
0.6700000000000001
  7
00
 11
11094.62598026874
 21
3664.762975663935
 31
0.0
100
AcDbText
 73
     1
  0
TEXT
  5
16F9E
330
17989
100
AcDbEntity
  8
SUNPOU
100
AcDbText
 10
11158.57542322311
 20
3656.147591048551
 30
0.0
 40
73.84615384615384
  1
25
 41
0.6700000000000001
  7
00
 11
11158.57542322311
 21
3646.301437202396
 31
0.0
100
AcDbText
 73
     1
  0
TEXT
  5
16F9F
330
17989
100
AcDbEntity
  8
SUNPOU
100
AcDbText
 10
11046.21985295337
 20
3693.070667971627
 30
0.0
 40
73.84615384615384
  1
1
 41
0.6700000000000001
  7
00
 11
11046.21985295337
 21
3683.224514125474
 31
0.0
100
AcDbText
 73
     1
  0
TEXT
  5
16FA0
330
17989
100
AcDbEntity
  8
SUNPOU
100
AcDbText
 10
10726.51715110029
 20
3677.070667971628
 30
0.0
 40
92.30769230769228
  1
（ S = 　　  ）
 41
0.6700000000000001
  7
00
 11
10726.51715110029
 21
3664.762975663935
 31
0.0
100
AcDbText
 73
     1
  0
TEXT
  5
16FA1
330
17989
100
AcDbEntity
  8
SUNPOU
100
AcDbText
 10
10009.66681373732
 20
3664.762975663935
 30
0.0
 40
120.0
  1
基礎断面図
  7
01
 72
     4
 11
10349.66681373732
 21
3724.762975663935
 31
0.0
100
AcDbText
  0
TEXT
  5
17104
330
17989
100
AcDbEntity
  8
HIKIDASHI
100
AcDbText
 10
8187.273096307379
 20
4680.01570763025
 30
0.0
 40
135.0
  1
N
 41
0.6666666666666666
  7
00
 72
     4
 11
8234.415953450236
 21
4747.51570763025
 31
0.0
100
AcDbText
  0
TEXT
  5
17105
330
17989
100
AcDbEntity
  8
HIKIDASHI
100
AcDbText
 10
7084.263946529414
 20
4882.515707630251
 30
0.0
 40
135.0
  1
基 礎 平 面 図　 縮尺
  7
01
 72
     4
 11
7916.763946529413
 21
4950.01570763025
 31
0.0
100
AcDbText
  0
TEXT
  5
17106
330
17989
100
AcDbEntity
  8
HIKIDASHI
100
AcDbText
 10
7986.359702583292
 20
4680.01570763025
 30
0.0
 40
135.0
  1
（  ：スパン数）
  7
01
 72
     4
 11
8611.859702583291
 21
4747.51570763025
 31
0.0
100
AcDbText
  0
LINE
  5
17108
330
17989
100
AcDbEntity
  8
SUNPOU
100
AcDbLine
 10
2496.801569802749
 20
7821.279066364538
 30
0.0
 11
2496.801569802749
 21
5851.279066364538
 31
0.0
  0
LINE
  5
1710A
330
17989
100
AcDbEntity
  8
U2
100
AcDbLine
 10
7596.80156980275
 20
10201.27906636454
 30
0.0
 11
7596.80156980275
 21
5761.279066364538
 31
0.0
  0
LINE
  5
1710B
330
17989
100
AcDbEntity
  8
U2
100
AcDbLine
 10
7896.801569802753
 20
10201.27906636454
 30
0.0
 11
7896.801569802753
 21
5761.279066364538
 31
0.0
  0
LINE
  5
1710D
330
17989
100
AcDbEntity
  8
SUNPOU
100
AcDbLine
 10
2916.801569802748
 20
5836.279066364538
 30
0.0
 11
2466.801569802749
 21
5836.279066364538
 31
0.0
  0
TEXT
  5
1710E
330
17989
100
AcDbEntity
  8
HIKIDASHI
100
AcDbText
 10
4822.581620012972
 20
5701.279066364532
 30
0.0
 40
90.0
  1
（土間コン前面位置）
  7
01
100
AcDbText
  0
TEXT
  5
1710F
330
17989
100
AcDbEntity
  8
HIKIDASHI
100
AcDbText
 10
4931.227709674506
 20
5992.729793983198
 30
0.0
 40
90.0
  1
（鼻隠し外面）
  7
01
100
AcDbText
  0
LINE
  5
17110
330
17989
100
AcDbEntity
  8
SUNPOU
100
AcDbLine
 10
3197.251569802749
 20
7836.279066364538
 30
0.0
 11
2466.801569802749
 21
7836.279066364538
 31
0.0
  0
LINE
  5
17111
330
17989
100
AcDbEntity
  8
SUNPOU
100
AcDbLine
 10
3197.251569802749
 20
7836.279066364538
 30
0.0
 11
2466.801569802749
 21
7836.279066364538
 31
0.0
  0
LINE
  5
17112
330
17989
100
AcDbEntity
  8
SUNPOU
100
AcDbLine
 10
3197.251569802749
 20
8126.279066364539
 30
0.0
 11
2466.801569802749
 21
8126.279066364539
 31
0.0
  0
LINE
  5
17113
330
17989
100
AcDbEntity
  8
SUNPOU
100
AcDbLine
 10
3197.251569802749
 20
8126.279066364539
 30
0.0
 11
2466.801569802749
 21
8126.279066364539
 31
0.0
  0
TEXT
  5
17115
330
17989
100
AcDbEntity
  8
SUNPOU
100
AcDbText
 10
2451.801569802749
 20
9011.993352078825
 30
0.0
 40
90.0
  1
2000
 50
90.0
 41
0.6666666666666666
  7
00
 72
     1
 11
2406.801569802749
 21
9126.279066364539
 31
0.0
100
AcDbText
 73
     2
  0
LINE
  5
17116
330
17989
100
AcDbEntity
  8
SUNPOU
100
AcDbLine
 10
2496.801569802749
 20
10111.27906636454
 30
0.0
 11
2496.801569802749
 21
8141.279066364537
 31
0.0
  0
TEXT
  5
17117
330
17989
100
AcDbEntity
  8
HIKIDASHI
100
AcDbText
 10
2901.801569802743
 20
8838.462240836198
 30
0.0
 40
90.0
  1
（土間コン側面位置）
 50
90.0
  7
01
100
AcDbText
  0
TEXT
  5
17118
330
17989
100
AcDbEntity
  8
SUNPOU
100
AcDbText
 10
2451.801569802749
 20
6721.993352078823
 30
0.0
 40
90.0
  1
2000
 50
90.0
 41
0.6666666666666666
  7
00
 72
     1
 11
2406.801569802749
 21
6836.279066364538
 31
0.0
100
AcDbText
 73
     2
  0
TEXT
  5
17119
330
17989
100
AcDbEntity
  8
SUNPOU
100
AcDbText
 10
2451.801569802749
 20
7895.564780650253
 30
0.0
 40
90.0
  1
290
 50
90.0
 41
0.6666666666666666
  7
00
 72
     1
 11
2406.801569802749
 21
7981.279066364539
 31
0.0
100
AcDbText
 73
     2
  0
LINE
  5
1711A
330
17989
100
AcDbEntity
  8
SUNPOU
100
AcDbLine
 10
2496.801569802749
 20
8111.279066364541
 30
0.0
 11
2496.801569802749
 21
7851.279066364539
 31
0.0
  0
LINE
  5
1711B
330
17989
100
AcDbEntity
  8
SUNPOU
100
AcDbLine
 10
2916.801569802748
 20
10126.27906636454
 30
0.0
 11
2466.801569802749
 21
10126.27906636454
 31
0.0
  0
TEXT
  5
1711C
330
17989
100
AcDbEntity
  8
HIKIDASHI
100
AcDbText
 10
3260.000916751515
 20
8947.108330497737
 30
0.0
 40
90.0
  1
（けらば外面）
 50
90.0
  7
01
100
AcDbText
  0
TEXT
  5
1711F
330
17989
100
AcDbEntity
  8
HIKIDASHI
100
AcDbText
 10
4822.581620012972
 20
10171.27906636454
 30
0.0
 40
90.0
  1
（土間コン後面位置）
  7
01
100
AcDbText
  0
TEXT
  5
17120
330
17989
100
AcDbEntity
  8
HIKIDASHI
100
AcDbText
 10
4931.227709674506
 20
9879.828338745877
 30
0.0
 40
90.0
  1
（鼻隠し外面）
  7
01
100
AcDbText
  0
TEXT
  5
17121
330
17989
100
AcDbEntity
  8
HIKIDASHI
100
AcDbText
 10
8822.254707628943
 20
4892.158564773107
 30
0.0
 40
135.0
  1
=
 41
0.6666666666666666
  7
00
 72
     4
 11
8877.968993343229
 21
4950.01570763025
 31
0.0
100
AcDbText
  0
LINE
  5
17122
330
17989
100
AcDbEntity
  8
HIKIDASHI
100
AcDbLine
 10
9140.493679661531
 20
5017.51570763025
 30
0.0
 11
9005.493679661535
 21
4882.515707630251
 31
0.0
  0
TEXT
  5
17123
330
17989
100
AcDbEntity
  8
HIKIDASHI
100
AcDbText
 10
9007.90377568623
 20
4949.929564181453
 30
0.0
 40
67.5
  1
1
 41
0.6666666666666666
  7
00
 72
     4
 11
9026.118061400516
 21
4983.679564181453
 31
0.0
100
AcDbText
  0
TEXT
  5
17124
330
17989
100
AcDbEntity
  8
HIKIDASHI
100
AcDbText
 10
9091.645742825049
 20
4882.515707630251
 30
0.0
 40
67.5
  1
40
 41
0.6666666666666666
  7
00
 72
     4
 11
9134.502885682193
 21
4916.26570763025
 31
0.0
100
AcDbText
  0
TEXT
  5
17125
330
17989
100
AcDbEntity
  8
HIKIDASHI
100
AcDbText
 10
12323.60222285397
 20
8947.108330497737
 30
0.0
 40
90.0
  1
（けらば外面）
 50
90.0
  7
01
100
AcDbText
  0
TEXT
  5
17149
330
17989
100
AcDbEntity
  8
HIKIDASHI
100
AcDbText
 10
12681.80156980275
 20
8838.462240836198
 30
0.0
 40
90.0
  1
（土間コン側面位置）
 50
90.0
  7
01
100
AcDbText
  0
LINE
  5
17151
330
17989
100
AcDbEntity
  8
SUNPOU
100
AcDbLine
 10
2496.801569802749
 20
5847.52906636454
 30
0.0
 11
2496.801569802749
 21
5858.779066364538
 31
0.0
  0
LINE
  5
17153
330
17989
100
AcDbEntity
  8
SUNPOU
100
AcDbLine
 10
2496.801569802749
 20
8137.529066364539
 30
0.0
 11
2496.801569802749
 21
8148.779066364538
 31
0.0
  0
LINE
  5
17155
330
17989
100
AcDbEntity
  8
SUNPOU
100
AcDbLine
 10
2496.801569802749
 20
7847.529066364541
 30
0.0
 11
2496.801569802749
 21
7858.779066364538
 31
0.0
  0
LINE
  5
17157
330
17989
100
AcDbEntity
  8
SUNPOU
100
AcDbLine
 10
2496.801569802749
 20
7825.029066364539
 30
0.0
 11
2496.801569802749
 21
7813.779066364539
 31
0.0
  0
LINE
  5
17159
330
17989
100
AcDbEntity
  8
SUNPOU
100
AcDbLine
 10
2496.801569802749
 20
8115.02906636454
 30
0.0
 11
2496.801569802749
 21
8103.779066364538
 31
0.0
  0
LINE
  5
1715B
330
17989
100
AcDbEntity
  8
SUNPOU
100
AcDbLine
 10
2496.801569802749
 20
10115.02906636454
 30
0.0
 11
2496.801569802749
 21
10103.77906636454
 31
0.0
  0
LINE
  5
17220
330
17989
100
AcDbEntity
  8
KISO-1
100
AcDbLine
 10
3746.801569802752
 20
7336.279066364538
 30
0.0
 11
2946.801569802752
 21
7336.279066364538
 31
0.0
  0
LINE
  5
17221
330
17989
100
AcDbEntity
  8
KISO-1
100
AcDbLine
 10
2946.801569802745
 20
8626.279066364539
 30
0.0
 11
3746.801569802745
 21
8626.279066364539
 31
0.0
  0
CIRCLE
  5
17222
330
17989
100
AcDbEntity
  8
KISO-2
100
AcDbCircle
 10
3346.801569802752
 20
7836.279066364538
 30
0.0
 40
44.55
  0
LINE
  5
17224
330
17989
100
AcDbEntity
  8
SIN
100
AcDbLine
 10
3346.801569802745
 20
8693.279066364539
 30
0.0
 11
3346.801569802752
 21
7269.279066364538
 31
0.0
  0
LINE
  5
17225
330
17989
100
AcDbEntity
  8
KISO-1
100
AcDbLine
 10
2946.801569802752
 20
7336.279066364538
 30
0.0
 11
2946.801569802745
 21
8626.279066364539
 31
0.0
  0
LINE
  5
17227
330
17989
100
AcDbEntity
  8
BOLT
100
AcDbLine
 10
3216.801569802753
 20
7736.279066364541
 30
0.0
 11
3276.801569802752
 21
7736.279066364541
 31
0.0
  0
LINE
  5
17228
330
17989
100
AcDbEntity
  8
BOLT
100
AcDbLine
 10
3476.801569802752
 20
7736.279066364541
 30
0.0
 11
3416.801569802752
 21
7736.279066364541
 31
0.0
  0
LINE
  5
17229
330
17989
100
AcDbEntity
  8
BOLT
100
AcDbLine
 10
3246.801569802752
 20
7706.279066364539
 30
0.0
 11
3246.801569802752
 21
7766.279066364538
 31
0.0
  0
LINE
  5
1722A
330
17989
100
AcDbEntity
  8
BOLT
100
AcDbLine
 10
3446.801569802752
 20
7706.279066364539
 30
0.0
 11
3446.801569802752
 21
7766.279066364538
 31
0.0
  0
LINE
  5
1722B
330
17989
100
AcDbEntity
  8
BOLT
100
AcDbLine
 10
3216.801569802753
 20
8226.279066364538
 30
0.0
 11
3276.801569802752
 21
8226.279066364538
 31
0.0
  0
LINE
  5
1722C
330
17989
100
AcDbEntity
  8
BOLT
100
AcDbLine
 10
3216.801569802753
 20
8026.279066364539
 30
0.0
 11
3276.801569802752
 21
8026.279066364539
 31
0.0
  0
LINE
  5
1722D
330
17989
100
AcDbEntity
  8
BOLT
100
AcDbLine
 10
3216.801569802753
 20
7936.279066364541
 30
0.0
 11
3276.801569802752
 21
7936.279066364541
 31
0.0
  0
LINE
  5
1722F
330
17989
100
AcDbEntity
  8
KISO-3
100
AcDbLine
 10
3106.801569802752
 20
8366.279066364539
 30
0.0
 11
3586.801569802752
 21
8366.279066364539
 31
0.0
  0
CIRCLE
  5
17230
330
17989
100
AcDbEntity
  8
KISO-2
100
AcDbCircle
 10
3346.801569802752
 20
8126.279066364539
 30
0.0
 40
44.55
  0
LINE
  5
17231
330
17989
100
AcDbEntity
  8
BOLT
100
AcDbLine
 10
3476.801569802752
 20
8026.279066364539
 30
0.0
 11
3416.801569802752
 21
8026.279066364539
 31
0.0
  0
LINE
  5
17232
330
17989
100
AcDbEntity
  8
BOLT
100
AcDbLine
 10
3476.801569802752
 20
7936.279066364541
 30
0.0
 11
3416.801569802752
 21
7936.279066364541
 31
0.0
  0
LINE
  5
17233
330
17989
100
AcDbEntity
  8
SIN
100
AcDbLine
 10
3466.351569802748
 20
7836.279066364538
 30
0.0
 11
3227.251569802749
 21
7836.279066364538
 31
0.0
  0
LINE
  5
17234
330
17989
100
AcDbEntity
  8
BOLT
100
AcDbLine
 10
3246.801569802752
 20
7966.279066364538
 30
0.0
 11
3246.801569802752
 21
7906.279066364539
 31
0.0
  0
LINE
  5
17235
330
17989
100
AcDbEntity
  8
BOLT
100
AcDbLine
 10
3446.801569802752
 20
7966.279066364538
 30
0.0
 11
3446.801569802752
 21
7906.279066364539
 31
0.0
  0
LINE
  5
17236
330
17989
100
AcDbEntity
  8
SIN
100
AcDbLine
 10
3466.351569802748
 20
8126.279066364539
 30
0.0
 11
3227.251569802749
 21
8126.279066364539
 31
0.0
  0
LINE
  5
17237
330
17989
100
AcDbEntity
  8
BOLT
100
AcDbLine
 10
3246.801569802752
 20
7996.27906636454
 30
0.0
 11
3246.801569802752
 21
8056.279066364538
 31
0.0
  0
LINE
  5
17238
330
17989
100
AcDbEntity
  8
BOLT
100
AcDbLine
 10
3446.801569802752
 20
7996.27906636454
 30
0.0
 11
3446.801569802752
 21
8056.279066364538
 31
0.0
  0
LINE
  5
17239
330
17989
100
AcDbEntity
  8
BOLT
100
AcDbLine
 10
3476.801569802752
 20
8226.279066364538
 30
0.0
 11
3416.801569802752
 21
8226.279066364538
 31
0.0
  0
LINE
  5
1723A
330
17989
100
AcDbEntity
  8
BOLT
100
AcDbLine
 10
3246.801569802752
 20
8256.279066364539
 30
0.0
 11
3246.801569802752
 21
8196.279066364539
 31
0.0
  0
LINE
  5
1723B
330
17989
100
AcDbEntity
  8
BOLT
100
AcDbLine
 10
3446.801569802752
 20
8256.279066364539
 30
0.0
 11
3446.801569802752
 21
8196.279066364539
 31
0.0
  0
LINE
  5
1723C
330
17989
100
AcDbEntity
  8
KISO-1
100
AcDbLine
 10
3746.801569802745
 20
8626.279066364539
 30
0.0
 11
3746.801569802759
 21
7336.279066364538
 31
0.0
  0
LINE
  5
1723D
330
17989
100
AcDbEntity
  8
KISO-1
100
AcDbLine
 10
5746.801569802752
 20
8626.279066364539
 30
0.0
 11
6546.801569802751
 21
8626.279066364539
 31
0.0
  0
LINE
  5
1723E
330
17989
100
AcDbEntity
  8
KISO-3
100
AcDbLine
 10
5906.801569802752
 20
8366.279066364539
 30
0.0
 11
6386.801569802751
 21
8366.279066364539
 31
0.0
  0
LINE
  5
1723F
330
17989
100
AcDbEntity
  8
KISO-1
100
AcDbLine
 10
6546.801569802751
 20
7336.279066364538
 30
0.0
 11
5746.801569802759
 21
7336.279066364538
 31
0.0
  0
LINE
  5
17241
330
17989
100
AcDbEntity
  8
KISO-1
100
AcDbLine
 10
5746.801569802759
 20
7336.279066364538
 30
0.0
 11
5746.801569802752
 21
8626.279066364539
 31
0.0
  0
LINE
  5
17242
330
17989
100
AcDbEntity
  8
SIN
100
AcDbLine
 10
6146.801569802751
 20
8693.279066364539
 30
0.0
 11
6146.801569802751
 21
7269.279066364538
 31
0.0
  0
CIRCLE
  5
17244
330
17989
100
AcDbEntity
  8
KISO-2
100
AcDbCircle
 10
6146.801569802751
 20
7836.279066364538
 30
0.0
 40
44.55
  0
LINE
  5
17245
330
17989
100
AcDbEntity
  8
KISO-1
100
AcDbLine
 10
6546.801569802751
 20
8626.279066364539
 30
0.0
 11
6546.801569802759
 21
7336.279066364538
 31
0.0
  0
LINE
  5
17246
330
17989
100
AcDbEntity
  8
BOLT
100
AcDbLine
 10
6276.801569802751
 20
7736.279066364541
 30
0.0
 11
6216.801569802751
 21
7736.279066364541
 31
0.0
  0
LINE
  5
17247
330
17989
100
AcDbEntity
  8
BOLT
100
AcDbLine
 10
6016.801569802751
 20
7736.279066364541
 30
0.0
 11
6076.801569802751
 21
7736.279066364541
 31
0.0
  0
LINE
  5
17248
330
17989
100
AcDbEntity
  8
BOLT
100
AcDbLine
 10
6046.801569802751
 20
7706.279066364539
 30
0.0
 11
6046.801569802751
 21
7766.279066364538
 31
0.0
  0
LINE
  5
17249
330
17989
100
AcDbEntity
  8
BOLT
100
AcDbLine
 10
6246.801569802752
 20
7706.279066364539
 30
0.0
 11
6246.801569802752
 21
7766.279066364538
 31
0.0
  0
CIRCLE
  5
1724A
330
17989
100
AcDbEntity
  8
KISO-2
100
AcDbCircle
 10
6146.801569802751
 20
8126.279066364539
 30
0.0
 40
44.55
  0
LINE
  5
1724C
330
17989
100
AcDbEntity
  8
BOLT
100
AcDbLine
 10
6276.801569802751
 20
8026.279066364539
 30
0.0
 11
6216.801569802751
 21
8026.279066364539
 31
0.0
  0
LINE
  5
1724D
330
17989
100
AcDbEntity
  8
BOLT
100
AcDbLine
 10
6276.801569802751
 20
7936.279066364541
 30
0.0
 11
6216.801569802751
 21
7936.279066364541
 31
0.0
  0
LINE
  5
1724E
330
17989
100
AcDbEntity
  8
SIN
100
AcDbLine
 10
6266.351569802755
 20
7836.279066364538
 30
0.0
 11
6027.251569802749
 21
7836.279066364538
 31
0.0
  0
LINE
  5
1724F
330
17989
100
AcDbEntity
  8
SIN
100
AcDbLine
 10
6266.351569802755
 20
8126.279066364539
 30
0.0
 11
6027.251569802749
 21
8126.279066364539
 31
0.0
  0
LINE
  5
17250
330
17989
100
AcDbEntity
  8
BOLT
100
AcDbLine
 10
6016.801569802751
 20
7936.279066364541
 30
0.0
 11
6076.801569802751
 21
7936.279066364541
 31
0.0
  0
LINE
  5
17251
330
17989
100
AcDbEntity
  8
BOLT
100
AcDbLine
 10
6046.801569802751
 20
7966.279066364538
 30
0.0
 11
6046.801569802751
 21
7906.279066364539
 31
0.0
  0
LINE
  5
17252
330
17989
100
AcDbEntity
  8
BOLT
100
AcDbLine
 10
6016.801569802751
 20
8026.279066364539
 30
0.0
 11
6076.801569802751
 21
8026.279066364539
 31
0.0
  0
LINE
  5
17253
330
17989
100
AcDbEntity
  8
BOLT
100
AcDbLine
 10
6046.801569802751
 20
7996.27906636454
 30
0.0
 11
6046.801569802751
 21
8056.279066364538
 31
0.0
  0
LINE
  5
17254
330
17989
100
AcDbEntity
  8
BOLT
100
AcDbLine
 10
6246.801569802752
 20
7966.279066364538
 30
0.0
 11
6246.801569802752
 21
7906.279066364539
 31
0.0
  0
LINE
  5
17255
330
17989
100
AcDbEntity
  8
BOLT
100
AcDbLine
 10
6246.801569802752
 20
7996.27906636454
 30
0.0
 11
6246.801569802752
 21
8056.279066364538
 31
0.0
  0
LINE
  5
17256
330
17989
100
AcDbEntity
  8
BOLT
100
AcDbLine
 10
6276.801569802751
 20
8226.279066364538
 30
0.0
 11
6216.801569802751
 21
8226.279066364538
 31
0.0
  0
LINE
  5
17257
330
17989
100
AcDbEntity
  8
BOLT
100
AcDbLine
 10
6016.801569802751
 20
8226.279066364538
 30
0.0
 11
6076.801569802751
 21
8226.279066364538
 31
0.0
  0
LINE
  5
17258
330
17989
100
AcDbEntity
  8
BOLT
100
AcDbLine
 10
6046.801569802751
 20
8256.279066364539
 30
0.0
 11
6046.801569802751
 21
8196.279066364539
 31
0.0
  0
LINE
  5
17259
330
17989
100
AcDbEntity
  8
BOLT
100
AcDbLine
 10
6246.801569802752
 20
8256.279066364539
 30
0.0
 11
6246.801569802752
 21
8196.279066364539
 31
0.0
  0
TEXT
  5
174CE
330
17989
100
AcDbEntity
  8
FILENAME
100
AcDbText
 10
13678.19047619047
 20
174.0
 30
0.0
 40
100.0
  1
＜YOCF-280-SA-A_3_JIS_GL.DXF ＞
  7
FILENAME
 72
     2
 11
16382.0
 21
174.0
 31
0.0
100
AcDbText
  0
LINE
  5
174D0
330
17989
100
AcDbEntity
  8
WAKUSEN-01
100
AcDbLine
 10
434.0000000000008
 20
413.9999999999997
 30
0.0
 11
16382.0
 21
413.9999999999997
 31
0.0
  0
LINE
  5
174D1
330
17989
100
AcDbEntity
  8
WAKUSEN-01
100
AcDbLine
 10
434.0000000000008
 20
11242.0
 30
0.0
 11
16382.0
 21
11242.0
 31
0.0
  0
LINE
  5
174D2
330
17989
100
AcDbEntity
  8
WAKUSEN-01
100
AcDbLine
 10
434.0000000000008
 20
413.9999999999997
 30
0.0
 11
434.0000000000008
 21
11242.0
 31
0.0
  0
LINE
  5
174D3
330
17989
100
AcDbEntity
  8
WAKUSEN-01
100
AcDbLine
 10
16382.0
 20
413.9999999999997
 30
0.0
 11
16382.0
 21
11242.0
 31
0.0
  0
LINE
  5
174D4
330
17989
100
AcDbEntity
  8
WAKUSEN-01
100
AcDbLine
 10
10280.0
 20
1242.0
 30
0.0
 11
16382.0
 21
1242.0
 31
0.0
  0
LINE
  5
174D5
330
17989
100
AcDbEntity
  8
WAKUSEN-02
100
AcDbLine
 10
10280.0
 20
827.9999999999997
 30
0.0
 11
13434.0
 21
827.9999999999997
 31
0.0
  0
TEXT
  5
174D6
330
17989
100
AcDbEntity
  8
WAKUMOJI-01
100
AcDbText
 10
10335.13012998138
 20
1062.951504669661
 30
0.0
 40
120.0
  1
名　称
  7
WAKUMOJI
100
AcDbText
  0
TEXT
  5
174D7
330
17989
100
AcDbEntity
  8
WAKUMOJI-01
100
AcDbText
 10
10328.25274254596
 20
659.5644874899107
 30
0.0
 40
120.0
  1
機種名
  7
WAKUMOJI
100
AcDbText
  0
LINE
  5
174D8
330
17989
100
AcDbEntity
  8
WAKUSEN-01
100
AcDbLine
 10
10280.0
 20
413.9999999999985
 30
0.0
 11
10280.0
 21
1242.0
 31
0.0
  0
LINE
  5
174D9
330
17989
100
AcDbEntity
  8
WAKUSEN-02
100
AcDbLine
 10
13434.0
 20
413.9999999999963
 30
0.0
 11
13434.0
 21
1242.0
 31
0.0
  0
LINE
  5
174DA
330
17989
100
AcDbEntity
  8
YODOROGO
100
AcDbLine
 10
14988.80217064596
 20
997.8747482146435
 30
0.0
 11
14914.80217064596
 21
997.8747482146435
 31
0.0
1001
AUTOCAD_POSTSCRIPT_FIGURE
1002
{
1000
PSFILL
1000
Grayscale
1000
Grayscale
1070
    25
1002
}
  0
LINE
  5
174DB
330
17989
100
AcDbEntity
  8
YODOROGO
100
AcDbLine
 10
14914.80217064596
 20
973.8747482146434
 30
0.0
 11
14988.80217064596
 21
973.8747482146434
 31
0.0
1001
AUTOCAD_POSTSCRIPT_FIGURE
1002
{
1000
PSFILL
1000
Grayscale
1000
Grayscale
1070
    25
1002
}
  0
LINE
  5
174DC
330
17989
100
AcDbEntity
  8
YODOROGO
100
AcDbLine
 10
14988.80217064596
 20
953.874748214644
 30
0.0
 11
14914.80217064596
 21
953.874748214644
 31
0.0
1001
AUTOCAD_POSTSCRIPT_FIGURE
1002
{
1000
PSFILL
1000
Grayscale
1000
Grayscale
1070
    25
1002
}
  0
LINE
  5
174DD
330
17989
100
AcDbEntity
  8
YODOROGO
100
AcDbLine
 10
14914.80217064596
 20
929.874748214644
 30
0.0
 11
14988.80217064596
 21
929.874748214644
 31
0.0
1001
AUTOCAD_POSTSCRIPT_FIGURE
1002
{
1000
PSFILL
1000
Grayscale
1000
Grayscale
1070
    25
1002
}
  0
LINE
  5
174DE
330
17989
100
AcDbEntity
  8
YODOROGO
100
AcDbLine
 10
14988.80217064596
 20
909.8747482146439
 30
0.0
 11
14914.80217064596
 21
909.8747482146439
 31
0.0
1001
AUTOCAD_POSTSCRIPT_FIGURE
1002
{
1000
PSFILL
1000
Grayscale
1000
Grayscale
1070
    25
1002
}
  0
LINE
  5
174DF
330
17989
100
AcDbEntity
  8
YODOROGO
100
AcDbLine
 10
14960.80217064594
 20
853.874748214644
 30
0.0
 11
14988.80217064596
 21
853.874748214644
 31
0.0
1001
AUTOCAD_POSTSCRIPT_FIGURE
1002
{
1000
PSFILL
1000
Grayscale
1000
Grayscale
1070
    25
1002
}
  0
LINE
  5
174E0
330
17989
100
AcDbEntity
  8
YODOROGO
100
AcDbLine
 10
14868.80217064596
 20
713.8747482146436
 30
0.0
 11
14968.80217064596
 21
740.6696674577553
 31
0.0
  0
LINE
  5
174E1
330
17989
100
AcDbEntity
  8
YODOROGO
100
AcDbLine
 10
14974.80217064596
 20
853.874748214644
 30
0.0
 11
14942.80217064596
 21
853.874748214644
 31
0.0
  0
ARC
  5
174E2
330
17989
100
AcDbEntity
  8
YODOROGO
100
AcDbCircle
 10
15127.17387491395
 20
903.9323046166312
 30
0.0
 40
190.9434321028236
100
AcDbArc
 50
213.9611167766785
 51
264.4787207431779
  0
ARC
  5
174E3
330
17989
100
AcDbEntity
  8
YODOROGO
100
AcDbCircle
 10
15127.17387491396
 20
903.9323046166513
 30
0.0
 40
190.9434321028408
100
AcDbArc
 50
208.141144204866
 51
212.9210361185995
  0
LINE
  5
174E4
330
17989
100
AcDbEntity
  8
YODOROGO
100
AcDbLine
 10
14885.70493649265
 20
778.403830673117
 30
0.0
 11
14966.89206625427
 21
800.1578565285436
 31
0.0
  0
LINE
  5
174E5
330
17989
100
AcDbEntity
  8
YODOROGO
100
AcDbLine
 10
14868.80217064596
 20
713.8747482146436
 30
0.0
 11
14968.80217064596
 21
740.6696674577553
 31
0.0
  0
LINE
  5
174E6
330
17989
100
AcDbEntity
  8
YODOROGO
100
AcDbLine
 10
14974.80217064596
 20
853.874748214644
 30
0.0
 11
14942.80217064596
 21
853.874748214644
 31
0.0
  0
ARC
  5
174E7
330
17989
100
AcDbEntity
  8
YODOROGO
100
AcDbCircle
 10
15127.17387491395
 20
903.9323046166312
 30
0.0
 40
190.9434321028236
100
AcDbArc
 50
213.9611167766785
 51
264.4787207431779
  0
LINE
  5
174E8
330
17989
100
AcDbEntity
  8
YODOROGO
100
AcDbLine
 10
14396.80217064594
 20
909.8747482146439
 30
0.0
 11
14216.80217064595
 21
909.8747482146439
 31
0.0
  0
LINE
  5
174E9
330
17989
100
AcDbEntity
  8
YODOROGO
100
AcDbLine
 10
14256.80217064595
 20
713.8747482146436
 30
0.0
 11
14396.80217064594
 21
713.8747482146436
 31
0.0
  0
LINE
  5
174EA
330
17989
100
AcDbEntity
  8
YODOROGO
100
AcDbLine
 10
14364.80217064596
 20
961.8747482146432
 30
0.0
 11
14248.80217064595
 21
961.8747482146432
 31
0.0
  0
LINE
  5
174EB
330
17989
100
AcDbEntity
  8
YODOROGO
100
AcDbLine
 10
14292.80217064596
 20
1013.874748214644
 30
0.0
 11
14328.80217064596
 21
1013.874748214644
 31
0.0
  0
LINE
  5
174EC
330
17989
100
AcDbEntity
  8
YODOROGO
100
AcDbLine
 10
14216.80217064595
 20
853.874748214644
 30
0.0
 11
14216.80217064595
 21
753.8747482146439
 31
0.0
  0
LINE
  5
174ED
330
17989
100
AcDbEntity
  8
YODOROGO
100
AcDbLine
 10
14248.80217064595
 20
781.8747482146434
 30
0.0
 11
14248.80217064595
 21
853.874748214644
 31
0.0
  0
LINE
  5
174EE
330
17989
100
AcDbEntity
  8
YODOROGO
100
AcDbLine
 10
14292.80217064596
 20
873.8747482146449
 30
0.0
 11
14292.80217064596
 21
773.874748214644
 31
0.0
  0
LINE
  5
174EF
330
17989
100
AcDbEntity
  8
YODOROGO
100
AcDbLine
 10
13928.80217064596
 20
841.8747482146445
 30
0.0
 11
13888.80217064596
 21
809.9862070222856
 31
0.0
  0
LINE
  5
174F0
330
17989
100
AcDbEntity
  8
YODOROGO
100
AcDbLine
 10
13968.80217064596
 20
809.9862070222856
 30
0.0
 11
13928.80217064596
 21
841.8747482146445
 31
0.0
  0
LINE
  5
174F1
330
17989
100
AcDbEntity
  8
YODOROGO
100
AcDbLine
 10
13928.80217064596
 20
853.874748214644
 30
0.0
 11
13968.80217064596
 21
821.986207022285
 31
0.0
  0
LINE
  5
174F2
330
17989
100
AcDbEntity
  8
YODOROGO
100
AcDbLine
 10
13888.80217064596
 20
821.986207022285
 30
0.0
 11
13928.80217064596
 21
853.874748214644
 31
0.0
  0
LINE
  5
174F3
330
17989
100
AcDbEntity
  8
YODOROGO
100
AcDbLine
 10
14020.45660200845
 20
829.874748214644
 30
0.0
 11
14020.45660200845
 21
841.8747482146434
 31
0.0
  0
LINE
  5
174F4
330
17989
100
AcDbEntity
  8
YODOROGO
100
AcDbLine
 10
13988.80217064596
 20
841.8747482146434
 30
0.0
 11
13988.80217064596
 21
833.8747482146427
 31
0.0
  0
LINE
  5
174F5
330
17989
100
AcDbEntity
  8
YODOROGO
100
AcDbLine
 10
14049.06776011546
 20
853.874748214644
 30
0.0
 11
14049.06776011546
 21
827.751818637328
 31
0.0
1001
AUTOCAD_POSTSCRIPT_FIGURE
1002
{
1000
PSFILL
1000
Grayscale
1000
Grayscale
1070
   100
1002
}
  0
LINE
  5
174F6
330
17989
100
AcDbEntity
  8
YODOROGO
100
AcDbLine
 10
14041.06776011546
 20
827.751818637328
 30
0.0
 11
14041.06776011546
 21
853.874748214644
 31
0.0
1001
AUTOCAD_POSTSCRIPT_FIGURE
1002
{
1000
PSFILL
1000
Grayscale
1000
Grayscale
1070
   100
1002
}
  0
LINE
  5
174F7
330
17989
100
AcDbEntity
  8
YODOROGO
100
AcDbLine
 10
13904.80217064596
 20
804.3859520216292
 30
0.0
 11
13904.80217064596
 21
816.3859520216298
 31
0.0
  0
LINE
  5
174F8
330
17989
100
AcDbEntity
  8
YODOROGO
100
AcDbLine
 10
13952.80217064596
 20
804.3859520216292
 30
0.0
 11
13904.80217064596
 21
804.3859520216292
 31
0.0
  0
LINE
  5
174F9
330
17989
100
AcDbEntity
  8
YODOROGO
100
AcDbLine
 10
13952.80217064596
 20
816.3859520216298
 30
0.0
 11
13952.80217064596
 21
804.3859520216292
 31
0.0
  0
LINE
  5
174FA
330
17989
100
AcDbEntity
  8
YODOROGO
100
AcDbLine
 10
13904.80217064596
 20
816.3859520216298
 30
0.0
 11
13952.80217064596
 21
816.3859520216298
 31
0.0
  0
LINE
  5
174FB
330
17989
100
AcDbEntity
  8
YODOROGO
100
AcDbLine
 10
13912.25479445787
 20
784.2514286852374
 30
0.0
 11
13892.80217064596
 21
737.8747482146435
 31
0.0
1001
AUTOCAD_POSTSCRIPT_FIGURE
1002
{
1000
PSFILL
1000
Grayscale
1000
Grayscale
1070
   100
1002
}
  0
LINE
  5
174FC
330
17989
100
AcDbEntity
  8
YODOROGO
100
AcDbLine
 10
13888.80217064596
 20
784.2514286852374
 30
0.0
 11
13912.25479445787
 21
784.2514286852374
 31
0.0
1001
AUTOCAD_POSTSCRIPT_FIGURE
1002
{
1000
PSFILL
1000
Grayscale
1000
Grayscale
1070
   100
1002
}
  0
LINE
  5
174FD
330
17989
100
AcDbEntity
  8
YODOROGO
100
AcDbLine
 10
13888.80217064596
 20
794.2514286852374
 30
0.0
 11
13888.80217064596
 21
784.2514286852374
 31
0.0
1001
AUTOCAD_POSTSCRIPT_FIGURE
1002
{
1000
PSFILL
1000
Grayscale
1000
Grayscale
1070
   100
1002
}
  0
LINE
  5
174FE
330
17989
100
AcDbEntity
  8
YODOROGO
100
AcDbLine
 10
13968.80217064596
 20
794.2514286852374
 30
0.0
 11
13888.80217064596
 21
794.2514286852374
 31
0.0
1001
AUTOCAD_POSTSCRIPT_FIGURE
1002
{
1000
PSFILL
1000
Grayscale
1000
Grayscale
1070
   100
1002
}
  0
LINE
  5
174FF
330
17989
100
AcDbEntity
  8
YODOROGO
100
AcDbLine
 10
13968.80217064596
 20
784.2514286852374
 30
0.0
 11
13968.80217064596
 21
794.2514286852374
 31
0.0
1001
AUTOCAD_POSTSCRIPT_FIGURE
1002
{
1000
PSFILL
1000
Grayscale
1000
Grayscale
1070
   100
1002
}
  0
LINE
  5
17500
330
17989
100
AcDbEntity
  8
YODOROGO
100
AcDbLine
 10
13922.25479445787
 20
784.2514286852374
 30
0.0
 11
13968.80217064596
 21
784.2514286852374
 31
0.0
1001
AUTOCAD_POSTSCRIPT_FIGURE
1002
{
1000
PSFILL
1000
Grayscale
1000
Grayscale
1070
   100
1002
}
  0
LINE
  5
17501
330
17989
100
AcDbEntity
  8
YODOROGO
100
AcDbLine
 10
13907.77335914239
 20
747.8747482146435
 30
0.0
 11
13922.25479445787
 21
784.2514286852374
 31
0.0
1001
AUTOCAD_POSTSCRIPT_FIGURE
1002
{
1000
PSFILL
1000
Grayscale
1000
Grayscale
1070
   100
1002
}
  0
LINE
  5
17502
330
17989
100
AcDbEntity
  8
YODOROGO
100
AcDbLine
 10
13951.02739540432
 20
747.8747482146435
 30
0.0
 11
13907.77335914239
 21
747.8747482146435
 31
0.0
1001
AUTOCAD_POSTSCRIPT_FIGURE
1002
{
1000
PSFILL
1000
Grayscale
1000
Grayscale
1070
   100
1002
}
  0
LINE
  5
17503
330
17989
100
AcDbEntity
  8
YODOROGO
100
AcDbLine
 10
13942.53250239547
 20
768.1169053488464
 30
0.0
 11
13951.02739540432
 21
747.8747482146435
 31
0.0
1001
AUTOCAD_POSTSCRIPT_FIGURE
1002
{
1000
PSFILL
1000
Grayscale
1000
Grayscale
1070
   100
1002
}
  0
LINE
  5
17504
330
17989
100
AcDbEntity
  8
YODOROGO
100
AcDbLine
 10
13950.53250239547
 20
768.1169053488464
 30
0.0
 11
13942.53250239547
 21
768.1169053488464
 31
0.0
1001
AUTOCAD_POSTSCRIPT_FIGURE
1002
{
1000
PSFILL
1000
Grayscale
1000
Grayscale
1070
   100
1002
}
  0
LINE
  5
17505
330
17989
100
AcDbEntity
  8
YODOROGO
100
AcDbLine
 10
13964.80217064596
 20
737.8747482146435
 30
0.0
 11
13950.53250239547
 21
768.1169053488464
 31
0.0
1001
AUTOCAD_POSTSCRIPT_FIGURE
1002
{
1000
PSFILL
1000
Grayscale
1000
Grayscale
1070
   100
1002
}
  0
LINE
  5
17506
330
17989
100
AcDbEntity
  8
YODOROGO
100
AcDbLine
 10
13892.80217064596
 20
737.8747482146435
 30
0.0
 11
13964.80217064596
 21
737.8747482146435
 31
0.0
1001
AUTOCAD_POSTSCRIPT_FIGURE
1002
{
1000
PSFILL
1000
Grayscale
1000
Grayscale
1070
   100
1002
}
  0
LINE
  5
17507
330
17989
100
AcDbEntity
  8
YODOROGO
100
AcDbLine
 10
13888.80217064596
 20
809.9862070222856
 30
0.0
 11
13888.80217064596
 21
821.986207022285
 31
0.0
  0
LINE
  5
17508
330
17989
100
AcDbEntity
  8
YODOROGO
100
AcDbLine
 10
13968.80217064596
 20
821.986207022285
 30
0.0
 11
13968.80217064596
 21
809.9862070222856
 31
0.0
  0
ARC
  5
17509
330
17989
100
AcDbEntity
  8
YODOROGO
100
AcDbCircle
 10
14112.97022107348
 20
800.438882662663
 30
0.0
 40
87.99999999999995
100
AcDbArc
 50
280.3644312771313
 51
3.541483659218056
  0
ARC
  5
1750A
330
17989
100
AcDbEntity
  8
YODOROGO
100
AcDbCircle
 10
14117.87801537965
 20
816.798903480952
 30
0.0
 40
55.99999999999914
100
AcDbArc
 50
281.2490582504156
 51
348.7509417495833
  0
LINE
  5
1750B
330
17989
100
AcDbEntity
  8
YODOROGO
100
AcDbLine
 10
14128.80217064596
 20
761.8747482146434
 30
0.0
 11
14128.80217064596
 21
713.8747482146436
 31
0.0
  0
LINE
  5
1750C
330
17989
100
AcDbEntity
  8
YODOROGO
100
AcDbLine
 10
14010.04445186845
 20
805.3252825309574
 30
0.0
 11
14020.45660200845
 21
829.874748214644
 31
0.0
  0
LINE
  5
1750D
330
17989
100
AcDbEntity
  8
YODOROGO
100
AcDbLine
 10
14020.80217064596
 20
791.5602449742006
 30
0.0
 11
14010.04445186845
 21
805.3252825309574
 31
0.0
  0
LINE
  5
1750E
330
17989
100
AcDbEntity
  8
YODOROGO
100
AcDbLine
 10
14020.80217064596
 20
781.5602449741994
 30
0.0
 11
14020.80217064596
 21
791.5602449742006
 31
0.0
  0
LINE
  5
1750F
330
17989
100
AcDbEntity
  8
YODOROGO
100
AcDbLine
 10
14008.80217064596
 20
792.6185318747651
 30
0.0
 11
14020.80217064596
 21
781.5602449741994
 31
0.0
  0
LINE
  5
17510
330
17989
100
AcDbEntity
  8
YODOROGO
100
AcDbLine
 10
14008.80217064596
 20
737.8747482146435
 30
0.0
 11
14008.80217064596
 21
792.6185318747651
 31
0.0
  0
LINE
  5
17511
330
17989
100
AcDbEntity
  8
YODOROGO
100
AcDbLine
 10
14000.80217064596
 20
737.8747482146435
 30
0.0
 11
14008.80217064596
 21
737.8747482146435
 31
0.0
  0
LINE
  5
17512
330
17989
100
AcDbEntity
  8
YODOROGO
100
AcDbLine
 10
14000.80217064596
 20
790.0026748448738
 30
0.0
 11
14000.80217064596
 21
737.8747482146435
 31
0.0
  0
LINE
  5
17513
330
17989
100
AcDbEntity
  8
YODOROGO
100
AcDbLine
 10
13988.80217064596
 20
766.3840395167142
 30
0.0
 11
14000.80217064596
 21
790.0026748448738
 31
0.0
  0
LINE
  5
17514
330
17989
100
AcDbEntity
  8
YODOROGO
100
AcDbLine
 10
13988.80217064596
 20
778.3840395167149
 30
0.0
 11
13988.80217064596
 21
766.3840395167142
 31
0.0
  0
LINE
  5
17515
330
17989
100
AcDbEntity
  8
YODOROGO
100
AcDbLine
 10
14012.91438714568
 20
833.8747482146427
 30
0.0
 11
13988.80217064596
 21
778.3840395167149
 31
0.0
  0
LINE
  5
17516
330
17989
100
AcDbEntity
  8
YODOROGO
100
AcDbLine
 10
13988.80217064596
 20
833.8747482146427
 30
0.0
 11
14012.91438714568
 21
833.8747482146427
 31
0.0
  0
LINE
  5
17517
330
17989
100
AcDbEntity
  8
YODOROGO
100
AcDbLine
 10
14025.06776011545
 20
827.751818637328
 30
0.0
 11
14041.06776011546
 21
827.751818637328
 31
0.0
1001
AUTOCAD_POSTSCRIPT_FIGURE
1002
{
1000
PSFILL
1000
Grayscale
1000
Grayscale
1070
   100
1002
}
  0
LINE
  5
17518
330
17989
100
AcDbEntity
  8
YODOROGO
100
AcDbLine
 10
14025.06776011545
 20
815.7518186373286
 30
0.0
 11
14025.06776011545
 21
827.751818637328
 31
0.0
1001
AUTOCAD_POSTSCRIPT_FIGURE
1002
{
1000
PSFILL
1000
Grayscale
1000
Grayscale
1070
   100
1002
}
  0
LINE
  5
17519
330
17989
100
AcDbEntity
  8
YODOROGO
100
AcDbLine
 10
14041.06776011546
 20
815.7518186373286
 30
0.0
 11
14025.06776011545
 21
815.7518186373286
 31
0.0
1001
AUTOCAD_POSTSCRIPT_FIGURE
1002
{
1000
PSFILL
1000
Grayscale
1000
Grayscale
1070
   100
1002
}
  0
LINE
  5
1751A
330
17989
100
AcDbEntity
  8
YODOROGO
100
AcDbLine
 10
14041.06776011546
 20
749.8747482146441
 30
0.0
 11
14041.06776011546
 21
815.7518186373286
 31
0.0
1001
AUTOCAD_POSTSCRIPT_FIGURE
1002
{
1000
PSFILL
1000
Grayscale
1000
Grayscale
1070
   100
1002
}
  0
LINE
  5
1751B
330
17989
100
AcDbEntity
  8
YODOROGO
100
AcDbLine
 10
14025.06776011546
 20
749.8747482146441
 30
0.0
 11
14041.06776011546
 21
749.8747482146441
 31
0.0
1001
AUTOCAD_POSTSCRIPT_FIGURE
1002
{
1000
PSFILL
1000
Grayscale
1000
Grayscale
1070
   100
1002
}
  0
LINE
  5
1751C
330
17989
100
AcDbEntity
  8
YODOROGO
100
AcDbLine
 10
14025.06776011546
 20
737.8747482146435
 30
0.0
 11
14025.06776011546
 21
749.8747482146441
 31
0.0
1001
AUTOCAD_POSTSCRIPT_FIGURE
1002
{
1000
PSFILL
1000
Grayscale
1000
Grayscale
1070
   100
1002
}
  0
LINE
  5
1751D
330
17989
100
AcDbEntity
  8
YODOROGO
100
AcDbLine
 10
14068.80217064596
 20
737.8747482146435
 30
0.0
 11
14025.06776011546
 21
737.8747482146435
 31
0.0
1001
AUTOCAD_POSTSCRIPT_FIGURE
1002
{
1000
PSFILL
1000
Grayscale
1000
Grayscale
1070
   100
1002
}
  0
LINE
  5
1751E
330
17989
100
AcDbEntity
  8
YODOROGO
100
AcDbLine
 10
14068.80217064596
 20
749.8747482146441
 30
0.0
 11
14068.80217064596
 21
737.8747482146435
 31
0.0
1001
AUTOCAD_POSTSCRIPT_FIGURE
1002
{
1000
PSFILL
1000
Grayscale
1000
Grayscale
1070
   100
1002
}
  0
LINE
  5
1751F
330
17989
100
AcDbEntity
  8
YODOROGO
100
AcDbLine
 10
14049.06776011546
 20
749.8747482146441
 30
0.0
 11
14068.80217064596
 21
749.8747482146441
 31
0.0
1001
AUTOCAD_POSTSCRIPT_FIGURE
1002
{
1000
PSFILL
1000
Grayscale
1000
Grayscale
1070
   100
1002
}
  0
LINE
  5
17520
330
17989
100
AcDbEntity
  8
YODOROGO
100
AcDbLine
 10
14049.06776011546
 20
815.7518186373286
 30
0.0
 11
14049.06776011546
 21
749.8747482146441
 31
0.0
1001
AUTOCAD_POSTSCRIPT_FIGURE
1002
{
1000
PSFILL
1000
Grayscale
1000
Grayscale
1070
   100
1002
}
  0
LINE
  5
17521
330
17989
100
AcDbEntity
  8
YODOROGO
100
AcDbLine
 10
14068.80217064596
 20
815.7518186373286
 30
0.0
 11
14049.06776011546
 21
815.7518186373286
 31
0.0
1001
AUTOCAD_POSTSCRIPT_FIGURE
1002
{
1000
PSFILL
1000
Grayscale
1000
Grayscale
1070
   100
1002
}
  0
LINE
  5
17522
330
17989
100
AcDbEntity
  8
YODOROGO
100
AcDbLine
 10
14068.80217064596
 20
827.751818637328
 30
0.0
 11
14068.80217064596
 21
815.7518186373286
 31
0.0
1001
AUTOCAD_POSTSCRIPT_FIGURE
1002
{
1000
PSFILL
1000
Grayscale
1000
Grayscale
1070
   100
1002
}
  0
LINE
  5
17523
330
17989
100
AcDbEntity
  8
YODOROGO
100
AcDbLine
 10
14049.06776011546
 20
827.751818637328
 30
0.0
 11
14068.80217064596
 21
827.751818637328
 31
0.0
1001
AUTOCAD_POSTSCRIPT_FIGURE
1002
{
1000
PSFILL
1000
Grayscale
1000
Grayscale
1070
   100
1002
}
  0
LINE
  5
17524
330
17989
100
AcDbEntity
  8
YODOROGO
100
AcDbLine
 10
14200.80217064595
 20
833.8747482146439
 30
0.0
 11
14172.80217064596
 21
833.8747482146439
 31
0.0
  0
LINE
  5
17525
330
17989
100
AcDbEntity
  8
YODOROGO
100
AcDbLine
 10
14200.80217064595
 20
805.8747482146443
 30
0.0
 11
14200.80217064595
 21
833.8747482146439
 31
0.0
  0
LINE
  5
17526
330
17989
100
AcDbEntity
  8
YODOROGO
100
AcDbLine
 10
14172.80217064596
 20
833.8747482146439
 30
0.0
 11
14172.80217064596
 21
805.8747482146443
 31
0.0
  0
ARC
  5
17527
330
17989
100
AcDbEntity
  8
YODOROGO
100
AcDbCircle
 10
14256.80217064595
 20
753.8747482146439
 30
0.0
 40
40.0
100
AcDbArc
 50
180.0
 51
270.0
  0
ARC
  5
17528
330
17989
100
AcDbEntity
  8
YODOROGO
100
AcDbCircle
 10
14268.80217064595
 20
781.8747482146434
 30
0.0
 40
20.0
100
AcDbArc
 50
180.0
 51
270.0
  0
LINE
  5
17529
330
17989
100
AcDbEntity
  8
YODOROGO
100
AcDbLine
 10
14280.80217064596
 20
761.8747482146434
 30
0.0
 11
14268.80217064595
 21
761.8747482146434
 31
0.0
  0
ARC
  5
1752A
330
17989
100
AcDbEntity
  8
YODOROGO
100
AcDbCircle
 10
14280.80217064596
 20
773.8747482146427
 30
0.0
 40
11.99999999999818
100
AcDbArc
 50
270.0
 51
0.0000000000054281
  0
LINE
  5
1752B
330
17989
100
AcDbEntity
  8
YODOROGO
100
AcDbLine
 10
13900.80217064596
 20
945.3932903968532
 30
0.0
 11
13888.80217064596
 21
921.8883739758362
 31
0.0
1001
AUTOCAD_POSTSCRIPT_FIGURE
1002
{
1000
PSFILL
1000
Grayscale
1000
Grayscale
1070
   100
1002
}
  0
LINE
  5
1752C
330
17989
100
AcDbEntity
  8
YODOROGO
100
AcDbLine
 10
13900.80217064596
 20
873.8747482146434
 30
0.0
 11
13900.80217064596
 21
945.3932903968532
 31
0.0
1001
AUTOCAD_POSTSCRIPT_FIGURE
1002
{
1000
PSFILL
1000
Grayscale
1000
Grayscale
1070
   100
1002
}
  0
LINE
  5
1752D
330
17989
100
AcDbEntity
  8
YODOROGO
100
AcDbLine
 10
13908.80217064596
 20
873.8747482146434
 30
0.0
 11
13900.80217064596
 21
873.8747482146434
 31
0.0
1001
AUTOCAD_POSTSCRIPT_FIGURE
1002
{
1000
PSFILL
1000
Grayscale
1000
Grayscale
1070
   100
1002
}
  0
LINE
  5
1752E
330
17989
100
AcDbEntity
  8
YODOROGO
100
AcDbLine
 10
13908.80217064596
 20
946.8856660426332
 30
0.0
 11
13908.80217064596
 21
873.8747482146434
 31
0.0
1001
AUTOCAD_POSTSCRIPT_FIGURE
1002
{
1000
PSFILL
1000
Grayscale
1000
Grayscale
1070
   100
1002
}
  0
LINE
  5
1752F
330
17989
100
AcDbEntity
  8
YODOROGO
100
AcDbLine
 10
13920.80217064596
 20
933.8273791420684
 30
0.0
 11
13908.80217064596
 21
946.8856660426332
 31
0.0
1001
AUTOCAD_POSTSCRIPT_FIGURE
1002
{
1000
PSFILL
1000
Grayscale
1000
Grayscale
1070
   100
1002
}
  0
LINE
  5
17530
330
17989
100
AcDbEntity
  8
YODOROGO
100
AcDbLine
 10
13920.80217064596
 20
941.8273791420681
 30
0.0
 11
13920.80217064596
 21
933.8273791420684
 31
0.0
1001
AUTOCAD_POSTSCRIPT_FIGURE
1002
{
1000
PSFILL
1000
Grayscale
1000
Grayscale
1070
   100
1002
}
  0
LINE
  5
17531
330
17989
100
AcDbEntity
  8
YODOROGO
100
AcDbLine
 10
13908.80217064596
 20
958.8856660426325
 30
0.0
 11
13920.80217064596
 21
941.8273791420681
 31
0.0
1001
AUTOCAD_POSTSCRIPT_FIGURE
1002
{
1000
PSFILL
1000
Grayscale
1000
Grayscale
1070
   100
1002
}
  0
LINE
  5
17532
330
17989
100
AcDbEntity
  8
YODOROGO
100
AcDbLine
 10
13908.80217064596
 20
969.8747482146441
 30
0.0
 11
13908.80217064596
 21
958.8856660426325
 31
0.0
1001
AUTOCAD_POSTSCRIPT_FIGURE
1002
{
1000
PSFILL
1000
Grayscale
1000
Grayscale
1070
   100
1002
}
  0
LINE
  5
17533
330
17989
100
AcDbEntity
  8
YODOROGO
100
AcDbLine
 10
13944.80217064596
 20
969.8747482146441
 30
0.0
 11
13908.80217064596
 21
969.8747482146441
 31
0.0
1001
AUTOCAD_POSTSCRIPT_FIGURE
1002
{
1000
PSFILL
1000
Grayscale
1000
Grayscale
1070
   100
1002
}
  0
LINE
  5
17534
330
17989
100
AcDbEntity
  8
YODOROGO
100
AcDbLine
 10
13944.80217064596
 20
950.2841744681497
 30
0.0
 11
13944.80217064596
 21
969.8747482146441
 31
0.0
1001
AUTOCAD_POSTSCRIPT_FIGURE
1002
{
1000
PSFILL
1000
Grayscale
1000
Grayscale
1070
   100
1002
}
  0
LINE
  5
17535
330
17989
100
AcDbEntity
  8
YODOROGO
100
AcDbLine
 10
13928.80217064596
 20
950.2841744681497
 30
0.0
 11
13944.80217064596
 21
950.2841744681497
 31
0.0
1001
AUTOCAD_POSTSCRIPT_FIGURE
1002
{
1000
PSFILL
1000
Grayscale
1000
Grayscale
1070
   100
1002
}
  0
LINE
  5
17536
330
17989
100
AcDbEntity
  8
YODOROGO
100
AcDbLine
 10
13928.80217064596
 20
942.2841744681491
 30
0.0
 11
13928.80217064596
 21
950.2841744681497
 31
0.0
1001
AUTOCAD_POSTSCRIPT_FIGURE
1002
{
1000
PSFILL
1000
Grayscale
1000
Grayscale
1070
   100
1002
}
  0
LINE
  5
17537
330
17989
100
AcDbEntity
  8
YODOROGO
100
AcDbLine
 10
13944.80217064596
 20
942.2841744681491
 30
0.0
 11
13928.80217064596
 21
942.2841744681491
 31
0.0
1001
AUTOCAD_POSTSCRIPT_FIGURE
1002
{
1000
PSFILL
1000
Grayscale
1000
Grayscale
1070
   100
1002
}
  0
LINE
  5
17538
330
17989
100
AcDbEntity
  8
YODOROGO
100
AcDbLine
 10
13944.80217064596
 20
939.8095889822196
 30
0.0
 11
13944.80217064596
 21
942.2841744681491
 31
0.0
1001
AUTOCAD_POSTSCRIPT_FIGURE
1002
{
1000
PSFILL
1000
Grayscale
1000
Grayscale
1070
   100
1002
}
  0
LINE
  5
17539
330
17989
100
AcDbEntity
  8
YODOROGO
100
AcDbLine
 10
13924.80217064596
 20
906.4874905807087
 30
0.0
 11
13944.80217064596
 21
939.8095889822196
 31
0.0
1001
AUTOCAD_POSTSCRIPT_FIGURE
1002
{
1000
PSFILL
1000
Grayscale
1000
Grayscale
1070
   100
1002
}
  0
LINE
  5
1753A
330
17989
100
AcDbEntity
  8
YODOROGO
100
AcDbLine
 10
13924.80217064596
 20
898.487490580708
 30
0.0
 11
13924.80217064596
 21
906.4874905807087
 31
0.0
1001
AUTOCAD_POSTSCRIPT_FIGURE
1002
{
1000
PSFILL
1000
Grayscale
1000
Grayscale
1070
   100
1002
}
  0
LINE
  5
1753B
330
17989
100
AcDbEntity
  8
YODOROGO
100
AcDbLine
 10
13944.80217064596
 20
923.8095889822183
 30
0.0
 11
13924.80217064596
 21
898.487490580708
 31
0.0
1001
AUTOCAD_POSTSCRIPT_FIGURE
1002
{
1000
PSFILL
1000
Grayscale
1000
Grayscale
1070
   100
1002
}
  0
LINE
  5
1753C
330
17989
100
AcDbEntity
  8
YODOROGO
100
AcDbLine
 10
13944.80217064596
 20
873.8747482146434
 30
0.0
 11
13944.80217064596
 21
923.8095889822183
 31
0.0
1001
AUTOCAD_POSTSCRIPT_FIGURE
1002
{
1000
PSFILL
1000
Grayscale
1000
Grayscale
1070
   100
1002
}
  0
LINE
  5
1753D
330
17989
100
AcDbEntity
  8
YODOROGO
100
AcDbLine
 10
13952.80217064596
 20
873.8747482146434
 30
0.0
 11
13944.80217064596
 21
873.8747482146434
 31
0.0
1001
AUTOCAD_POSTSCRIPT_FIGURE
1002
{
1000
PSFILL
1000
Grayscale
1000
Grayscale
1070
   100
1002
}
  0
LINE
  5
1753E
330
17989
100
AcDbEntity
  8
YODOROGO
100
AcDbLine
 10
13952.80217064596
 20
924.7045060794032
 30
0.0
 11
13952.80217064596
 21
873.8747482146434
 31
0.0
1001
AUTOCAD_POSTSCRIPT_FIGURE
1002
{
1000
PSFILL
1000
Grayscale
1000
Grayscale
1070
   100
1002
}
  0
LINE
  5
1753F
330
17989
100
AcDbEntity
  8
YODOROGO
100
AcDbLine
 10
13968.80217064596
 20
898.487490580708
 30
0.0
 11
13952.80217064596
 21
924.7045060794032
 31
0.0
1001
AUTOCAD_POSTSCRIPT_FIGURE
1002
{
1000
PSFILL
1000
Grayscale
1000
Grayscale
1070
   100
1002
}
  0
LINE
  5
17540
330
17989
100
AcDbEntity
  8
YODOROGO
100
AcDbLine
 10
13968.80217064596
 20
906.4874905807087
 30
0.0
 11
13968.80217064596
 21
898.487490580708
 31
0.0
1001
AUTOCAD_POSTSCRIPT_FIGURE
1002
{
1000
PSFILL
1000
Grayscale
1000
Grayscale
1070
   100
1002
}
  0
LINE
  5
17541
330
17989
100
AcDbEntity
  8
YODOROGO
100
AcDbLine
 10
13952.80217064596
 20
940.7045060794041
 30
0.0
 11
13968.80217064596
 21
906.4874905807087
 31
0.0
1001
AUTOCAD_POSTSCRIPT_FIGURE
1002
{
1000
PSFILL
1000
Grayscale
1000
Grayscale
1070
   100
1002
}
  0
LINE
  5
17542
330
17989
100
AcDbEntity
  8
YODOROGO
100
AcDbLine
 10
13952.80217064596
 20
942.2841744681502
 30
0.0
 11
13952.80217064596
 21
940.7045060794041
 31
0.0
1001
AUTOCAD_POSTSCRIPT_FIGURE
1002
{
1000
PSFILL
1000
Grayscale
1000
Grayscale
1070
   100
1002
}
  0
LINE
  5
17543
330
17989
100
AcDbEntity
  8
YODOROGO
100
AcDbLine
 10
13968.80217064596
 20
942.2841744681491
 30
0.0
 11
13952.80217064596
 21
942.2841744681502
 31
0.0
1001
AUTOCAD_POSTSCRIPT_FIGURE
1002
{
1000
PSFILL
1000
Grayscale
1000
Grayscale
1070
   100
1002
}
  0
LINE
  5
17544
330
17989
100
AcDbEntity
  8
YODOROGO
100
AcDbLine
 10
13968.80217064596
 20
950.2841744681497
 30
0.0
 11
13968.80217064596
 21
942.2841744681491
 31
0.0
1001
AUTOCAD_POSTSCRIPT_FIGURE
1002
{
1000
PSFILL
1000
Grayscale
1000
Grayscale
1070
   100
1002
}
  0
LINE
  5
17545
330
17989
100
AcDbEntity
  8
YODOROGO
100
AcDbLine
 10
13952.80217064596
 20
950.2841744681497
 30
0.0
 11
13968.80217064596
 21
950.2841744681497
 31
0.0
1001
AUTOCAD_POSTSCRIPT_FIGURE
1002
{
1000
PSFILL
1000
Grayscale
1000
Grayscale
1070
   100
1002
}
  0
LINE
  5
17546
330
17989
100
AcDbEntity
  8
YODOROGO
100
AcDbLine
 10
13952.80217064596
 20
969.8747482146441
 30
0.0
 11
13952.80217064596
 21
950.2841744681497
 31
0.0
1001
AUTOCAD_POSTSCRIPT_FIGURE
1002
{
1000
PSFILL
1000
Grayscale
1000
Grayscale
1070
   100
1002
}
  0
LINE
  5
17547
330
17989
100
AcDbEntity
  8
YODOROGO
100
AcDbLine
 10
13968.80217064596
 20
969.8747482146441
 30
0.0
 11
13952.80217064596
 21
969.8747482146441
 31
0.0
1001
AUTOCAD_POSTSCRIPT_FIGURE
1002
{
1000
PSFILL
1000
Grayscale
1000
Grayscale
1070
   100
1002
}
  0
LINE
  5
17548
330
17989
100
AcDbEntity
  8
YODOROGO
100
AcDbLine
 10
13968.80217064596
 20
977.8747482146435
 30
0.0
 11
13968.80217064596
 21
969.8747482146441
 31
0.0
1001
AUTOCAD_POSTSCRIPT_FIGURE
1002
{
1000
PSFILL
1000
Grayscale
1000
Grayscale
1070
   100
1002
}
  0
LINE
  5
17549
330
17989
100
AcDbEntity
  8
YODOROGO
100
AcDbLine
 10
13952.80217064596
 20
977.8747482146435
 30
0.0
 11
13968.80217064596
 21
977.8747482146435
 31
0.0
1001
AUTOCAD_POSTSCRIPT_FIGURE
1002
{
1000
PSFILL
1000
Grayscale
1000
Grayscale
1070
   100
1002
}
  0
LINE
  5
1754A
330
17989
100
AcDbEntity
  8
YODOROGO
100
AcDbLine
 10
13952.80217064596
 20
989.8747482146442
 30
0.0
 11
13952.80217064596
 21
977.8747482146435
 31
0.0
1001
AUTOCAD_POSTSCRIPT_FIGURE
1002
{
1000
PSFILL
1000
Grayscale
1000
Grayscale
1070
   100
1002
}
  0
LINE
  5
1754B
330
17989
100
AcDbEntity
  8
YODOROGO
100
AcDbLine
 10
13944.80217064596
 20
989.8747482146442
 30
0.0
 11
13952.80217064596
 21
989.8747482146442
 31
0.0
1001
AUTOCAD_POSTSCRIPT_FIGURE
1002
{
1000
PSFILL
1000
Grayscale
1000
Grayscale
1070
   100
1002
}
  0
LINE
  5
1754C
330
17989
100
AcDbEntity
  8
YODOROGO
100
AcDbLine
 10
13944.80217064596
 20
977.8747482146435
 30
0.0
 11
13944.80217064596
 21
989.8747482146442
 31
0.0
1001
AUTOCAD_POSTSCRIPT_FIGURE
1002
{
1000
PSFILL
1000
Grayscale
1000
Grayscale
1070
   100
1002
}
  0
LINE
  5
1754D
330
17989
100
AcDbEntity
  8
YODOROGO
100
AcDbLine
 10
13932.80217064596
 20
977.8747482146435
 30
0.0
 11
13944.80217064596
 21
977.8747482146435
 31
0.0
1001
AUTOCAD_POSTSCRIPT_FIGURE
1002
{
1000
PSFILL
1000
Grayscale
1000
Grayscale
1070
   100
1002
}
  0
LINE
  5
1754E
330
17989
100
AcDbEntity
  8
YODOROGO
100
AcDbLine
 10
13932.80217064596
 20
989.8747482146442
 30
0.0
 11
13932.80217064596
 21
977.8747482146435
 31
0.0
1001
AUTOCAD_POSTSCRIPT_FIGURE
1002
{
1000
PSFILL
1000
Grayscale
1000
Grayscale
1070
   100
1002
}
  0
LINE
  5
1754F
330
17989
100
AcDbEntity
  8
YODOROGO
100
AcDbLine
 10
13924.80217064596
 20
989.8747482146442
 30
0.0
 11
13932.80217064596
 21
989.8747482146442
 31
0.0
1001
AUTOCAD_POSTSCRIPT_FIGURE
1002
{
1000
PSFILL
1000
Grayscale
1000
Grayscale
1070
   100
1002
}
  0
LINE
  5
17550
330
17989
100
AcDbEntity
  8
YODOROGO
100
AcDbLine
 10
13924.80217064596
 20
977.8747482146435
 30
0.0
 11
13924.80217064596
 21
989.8747482146442
 31
0.0
1001
AUTOCAD_POSTSCRIPT_FIGURE
1002
{
1000
PSFILL
1000
Grayscale
1000
Grayscale
1070
   100
1002
}
  0
LINE
  5
17551
330
17989
100
AcDbEntity
  8
YODOROGO
100
AcDbLine
 10
13908.80217064596
 20
977.8747482146435
 30
0.0
 11
13924.80217064596
 21
977.8747482146435
 31
0.0
1001
AUTOCAD_POSTSCRIPT_FIGURE
1002
{
1000
PSFILL
1000
Grayscale
1000
Grayscale
1070
   100
1002
}
  0
LINE
  5
17552
330
17989
100
AcDbEntity
  8
YODOROGO
100
AcDbLine
 10
13908.80217064596
 20
989.8747482146442
 30
0.0
 11
13908.80217064596
 21
977.8747482146435
 31
0.0
1001
AUTOCAD_POSTSCRIPT_FIGURE
1002
{
1000
PSFILL
1000
Grayscale
1000
Grayscale
1070
   100
1002
}
  0
LINE
  5
17553
330
17989
100
AcDbEntity
  8
YODOROGO
100
AcDbLine
 10
13900.80217064596
 20
989.8747482146442
 30
0.0
 11
13908.80217064596
 21
989.8747482146442
 31
0.0
1001
AUTOCAD_POSTSCRIPT_FIGURE
1002
{
1000
PSFILL
1000
Grayscale
1000
Grayscale
1070
   100
1002
}
  0
LINE
  5
17554
330
17989
100
AcDbEntity
  8
YODOROGO
100
AcDbLine
 10
13900.80217064596
 20
977.8747482146435
 30
0.0
 11
13900.80217064596
 21
989.8747482146442
 31
0.0
1001
AUTOCAD_POSTSCRIPT_FIGURE
1002
{
1000
PSFILL
1000
Grayscale
1000
Grayscale
1070
   100
1002
}
  0
LINE
  5
17555
330
17989
100
AcDbEntity
  8
YODOROGO
100
AcDbLine
 10
13888.80217064596
 20
977.8747482146435
 30
0.0
 11
13900.80217064596
 21
977.8747482146435
 31
0.0
1001
AUTOCAD_POSTSCRIPT_FIGURE
1002
{
1000
PSFILL
1000
Grayscale
1000
Grayscale
1070
   100
1002
}
  0
LINE
  5
17556
330
17989
100
AcDbEntity
  8
YODOROGO
100
AcDbLine
 10
13888.80217064596
 20
969.8747482146441
 30
0.0
 11
13888.80217064596
 21
977.8747482146435
 31
0.0
1001
AUTOCAD_POSTSCRIPT_FIGURE
1002
{
1000
PSFILL
1000
Grayscale
1000
Grayscale
1070
   100
1002
}
  0
LINE
  5
17557
330
17989
100
AcDbEntity
  8
YODOROGO
100
AcDbLine
 10
13900.80217064596
 20
969.8747482146441
 30
0.0
 11
13888.80217064596
 21
969.8747482146441
 31
0.0
1001
AUTOCAD_POSTSCRIPT_FIGURE
1002
{
1000
PSFILL
1000
Grayscale
1000
Grayscale
1070
   100
1002
}
  0
LINE
  5
17558
330
17989
100
AcDbEntity
  8
YODOROGO
100
AcDbLine
 10
13900.80217064596
 20
957.3932903968525
 30
0.0
 11
13900.80217064596
 21
969.8747482146441
 31
0.0
1001
AUTOCAD_POSTSCRIPT_FIGURE
1002
{
1000
PSFILL
1000
Grayscale
1000
Grayscale
1070
   100
1002
}
  0
LINE
  5
17559
330
17989
100
AcDbEntity
  8
YODOROGO
100
AcDbLine
 10
13888.80217064596
 20
929.8883739758355
 30
0.0
 11
13900.80217064596
 21
957.3932903968525
 31
0.0
1001
AUTOCAD_POSTSCRIPT_FIGURE
1002
{
1000
PSFILL
1000
Grayscale
1000
Grayscale
1070
   100
1002
}
  0
LINE
  5
1755A
330
17989
100
AcDbEntity
  8
YODOROGO
100
AcDbLine
 10
13888.80217064596
 20
921.8883739758362
 30
0.0
 11
13888.80217064596
 21
929.8883739758355
 31
0.0
1001
AUTOCAD_POSTSCRIPT_FIGURE
1002
{
1000
PSFILL
1000
Grayscale
1000
Grayscale
1070
   100
1002
}
  0
LINE
  5
1755B
330
17989
100
AcDbEntity
  8
YODOROGO
100
AcDbLine
 10
14128.80217064596
 20
933.8747482146439
 30
0.0
 11
14200.80217064595
 21
912.4388128201532
 31
0.0
1001
AUTOCAD_POSTSCRIPT_FIGURE
1002
{
1000
PSFILL
1000
Grayscale
1000
Grayscale
1070
   100
1002
}
  0
LINE
  5
1755C
330
17989
100
AcDbEntity
  8
YODOROGO
100
AcDbLine
 10
14200.80217064595
 20
876.4388128201531
 30
0.0
 11
14128.80217064596
 21
897.8747482146435
 31
0.0
1001
AUTOCAD_POSTSCRIPT_FIGURE
1002
{
1000
PSFILL
1000
Grayscale
1000
Grayscale
1070
   100
1002
}
  0
LINE
  5
1755D
330
17989
100
AcDbEntity
  8
YODOROGO
100
AcDbLine
 10
14200.80217064595
 20
992.4388128201531
 30
0.0
 11
14128.80217064596
 21
1013.874748214644
 31
0.0
1001
AUTOCAD_POSTSCRIPT_FIGURE
1002
{
1000
PSFILL
1000
Grayscale
1000
Grayscale
1070
   100
1002
}
  0
LINE
  5
1755E
330
17989
100
AcDbEntity
  8
YODOROGO
100
AcDbLine
 10
14128.80217064596
 20
979.874748214644
 30
0.0
 11
14200.80217064595
 21
958.4388128201537
 31
0.0
1001
AUTOCAD_POSTSCRIPT_FIGURE
1002
{
1000
PSFILL
1000
Grayscale
1000
Grayscale
1070
   100
1002
}
  0
LINE
  5
1755F
330
17989
100
AcDbEntity
  8
YODOROGO
100
AcDbLine
 10
14128.80217064596
 20
897.8747482146435
 30
0.0
 11
14128.80217064596
 21
933.8747482146439
 31
0.0
1001
AUTOCAD_POSTSCRIPT_FIGURE
1002
{
1000
PSFILL
1000
Grayscale
1000
Grayscale
1070
   100
1002
}
  0
LINE
  5
17560
330
17989
100
AcDbEntity
  8
YODOROGO
100
AcDbLine
 10
14128.80217064596
 20
1013.874748214644
 30
0.0
 11
14128.80217064596
 21
979.874748214644
 31
0.0
1001
AUTOCAD_POSTSCRIPT_FIGURE
1002
{
1000
PSFILL
1000
Grayscale
1000
Grayscale
1070
   100
1002
}
  0
LINE
  5
17561
330
17989
100
AcDbEntity
  8
YODOROGO
100
AcDbLine
 10
14040.11816010337
 20
969.8747482146441
 30
0.0
 11
14064.80217064596
 21
873.8747482146434
 31
0.0
1001
AUTOCAD_POSTSCRIPT_FIGURE
1002
{
1000
PSFILL
1000
Grayscale
1000
Grayscale
1070
   100
1002
}
  0
LINE
  5
17562
330
17989
100
AcDbEntity
  8
YODOROGO
100
AcDbLine
 10
13988.80217064596
 20
969.8747482146441
 30
0.0
 11
14040.11816010337
 21
969.8747482146441
 31
0.0
1001
AUTOCAD_POSTSCRIPT_FIGURE
1002
{
1000
PSFILL
1000
Grayscale
1000
Grayscale
1070
   100
1002
}
  0
LINE
  5
17563
330
17989
100
AcDbEntity
  8
YODOROGO
100
AcDbLine
 10
13988.80217064596
 20
977.8747482146435
 30
0.0
 11
13988.80217064596
 21
969.8747482146441
 31
0.0
1001
AUTOCAD_POSTSCRIPT_FIGURE
1002
{
1000
PSFILL
1000
Grayscale
1000
Grayscale
1070
   100
1002
}
  0
LINE
  5
17564
330
17989
100
AcDbEntity
  8
YODOROGO
100
AcDbLine
 10
14038.30343925996
 20
977.8747482146435
 30
0.0
 11
13988.80217064596
 21
977.8747482146435
 31
0.0
1001
AUTOCAD_POSTSCRIPT_FIGURE
1002
{
1000
PSFILL
1000
Grayscale
1000
Grayscale
1070
   100
1002
}
  0
LINE
  5
17565
330
17989
100
AcDbEntity
  8
YODOROGO
100
AcDbLine
 10
14035.58135799485
 20
989.8747482146442
 30
0.0
 11
14038.30343925996
 21
977.8747482146435
 31
0.0
1001
AUTOCAD_POSTSCRIPT_FIGURE
1002
{
1000
PSFILL
1000
Grayscale
1000
Grayscale
1070
   100
1002
}
  0
LINE
  5
17566
330
17989
100
AcDbEntity
  8
YODOROGO
100
AcDbLine
 10
14045.58135799485
 20
989.8747482146442
 30
0.0
 11
14035.58135799485
 21
989.8747482146442
 31
0.0
1001
AUTOCAD_POSTSCRIPT_FIGURE
1002
{
1000
PSFILL
1000
Grayscale
1000
Grayscale
1070
   100
1002
}
  0
LINE
  5
17567
330
17989
100
AcDbEntity
  8
YODOROGO
100
AcDbLine
 10
14047.90343925997
 20
977.8747482146435
 30
0.0
 11
14045.58135799485
 21
989.8747482146442
 31
0.0
1001
AUTOCAD_POSTSCRIPT_FIGURE
1002
{
1000
PSFILL
1000
Grayscale
1000
Grayscale
1070
   100
1002
}
  0
LINE
  5
17568
330
17989
100
AcDbEntity
  8
YODOROGO
100
AcDbLine
 10
14060.80217064596
 20
977.8747482146435
 30
0.0
 11
14047.90343925997
 21
977.8747482146435
 31
0.0
1001
AUTOCAD_POSTSCRIPT_FIGURE
1002
{
1000
PSFILL
1000
Grayscale
1000
Grayscale
1070
   100
1002
}
  0
LINE
  5
17569
330
17989
100
AcDbEntity
  8
YODOROGO
100
AcDbLine
 10
14060.80217064596
 20
989.8747482146442
 30
0.0
 11
14060.80217064596
 21
977.8747482146435
 31
0.0
1001
AUTOCAD_POSTSCRIPT_FIGURE
1002
{
1000
PSFILL
1000
Grayscale
1000
Grayscale
1070
   100
1002
}
  0
LINE
  5
1756A
330
17989
100
AcDbEntity
  8
YODOROGO
100
AcDbLine
 10
14068.80217064596
 20
989.8747482146442
 30
0.0
 11
14060.80217064596
 21
989.8747482146442
 31
0.0
1001
AUTOCAD_POSTSCRIPT_FIGURE
1002
{
1000
PSFILL
1000
Grayscale
1000
Grayscale
1070
   100
1002
}
  0
LINE
  5
1756B
330
17989
100
AcDbEntity
  8
YODOROGO
100
AcDbLine
 10
14068.80217064596
 20
977.8747482146435
 30
0.0
 11
14068.80217064596
 21
989.8747482146442
 31
0.0
1001
AUTOCAD_POSTSCRIPT_FIGURE
1002
{
1000
PSFILL
1000
Grayscale
1000
Grayscale
1070
   100
1002
}
  0
LINE
  5
1756C
330
17989
100
AcDbEntity
  8
YODOROGO
100
AcDbLine
 10
14068.80217064596
 20
969.8747482146441
 30
0.0
 11
14068.80217064596
 21
977.8747482146435
 31
0.0
1001
AUTOCAD_POSTSCRIPT_FIGURE
1002
{
1000
PSFILL
1000
Grayscale
1000
Grayscale
1070
   100
1002
}
  0
LINE
  5
1756D
330
17989
100
AcDbEntity
  8
YODOROGO
100
AcDbLine
 10
14049.45149343671
 20
969.8747482146441
 30
0.0
 11
14068.80217064596
 21
969.8747482146441
 31
0.0
1001
AUTOCAD_POSTSCRIPT_FIGURE
1002
{
1000
PSFILL
1000
Grayscale
1000
Grayscale
1070
   100
1002
}
  0
LINE
  5
1756E
330
17989
100
AcDbEntity
  8
YODOROGO
100
AcDbLine
 10
14068.80217064596
 20
873.8747482146434
 30
0.0
 11
14049.45149343671
 21
969.8747482146441
 31
0.0
1001
AUTOCAD_POSTSCRIPT_FIGURE
1002
{
1000
PSFILL
1000
Grayscale
1000
Grayscale
1070
   100
1002
}
  0
LINE
  5
1756F
330
17989
100
AcDbEntity
  8
YODOROGO
100
AcDbLine
 10
14064.80217064596
 20
873.8747482146434
 30
0.0
 11
14068.80217064596
 21
873.8747482146434
 31
0.0
1001
AUTOCAD_POSTSCRIPT_FIGURE
1002
{
1000
PSFILL
1000
Grayscale
1000
Grayscale
1070
   100
1002
}
  0
LINE
  5
17570
330
17989
100
AcDbEntity
  8
YODOROGO
100
AcDbLine
 10
14039.0346099669
 20
887.8703881493972
 30
0.0
 11
13988.80217064596
 21
873.8747482146434
 31
0.0
  0
LINE
  5
17571
330
17989
100
AcDbEntity
  8
YODOROGO
100
AcDbLine
 10
14039.0346099669
 20
899.3344897645364
 30
0.0
 11
14039.0346099669
 21
887.8703881493972
 31
0.0
  0
LINE
  5
17572
330
17989
100
AcDbEntity
  8
YODOROGO
100
AcDbLine
 10
14016.91839030643
 20
893.4084665668834
 30
0.0
 11
14039.0346099669
 21
899.3344897645364
 31
0.0
  0
LINE
  5
17573
330
17989
100
AcDbEntity
  8
YODOROGO
100
AcDbLine
 10
14016.91839030643
 20
936.2841744681499
 30
0.0
 11
14016.91839030643
 21
893.4084665668834
 31
0.0
  0
LINE
  5
17574
330
17989
100
AcDbEntity
  8
YODOROGO
100
AcDbLine
 10
14039.0346099669
 20
936.2841744681499
 30
0.0
 11
14016.91839030643
 21
936.2841744681499
 31
0.0
  0
LINE
  5
17575
330
17989
100
AcDbEntity
  8
YODOROGO
100
AcDbLine
 10
14039.0346099669
 20
946.2841744681487
 30
0.0
 11
14039.0346099669
 21
936.2841744681499
 31
0.0
  0
LINE
  5
17576
330
17989
100
AcDbEntity
  8
YODOROGO
100
AcDbLine
 10
13988.80217064596
 20
946.2841744681487
 30
0.0
 11
14039.0346099669
 21
946.2841744681487
 31
0.0
  0
LINE
  5
17577
330
17989
100
AcDbEntity
  8
YODOROGO
100
AcDbLine
 10
13988.80217064596
 20
936.2841744681499
 30
0.0
 11
13988.80217064596
 21
946.2841744681487
 31
0.0
  0
LINE
  5
17578
330
17989
100
AcDbEntity
  8
YODOROGO
100
AcDbLine
 10
14010.91839030643
 20
936.2841744681499
 30
0.0
 11
13988.80217064596
 21
936.2841744681499
 31
0.0
  0
LINE
  5
17579
330
17989
100
AcDbEntity
  8
YODOROGO
100
AcDbLine
 10
14010.91839030643
 20
892.3366697971587
 30
0.0
 11
14010.91839030643
 21
936.2841744681499
 31
0.0
  0
LINE
  5
1757A
330
17989
100
AcDbEntity
  8
YODOROGO
100
AcDbLine
 10
13988.80217064596
 20
885.8747482146432
 30
0.0
 11
14010.91839030643
 21
892.3366697971587
 31
0.0
  0
LINE
  5
1757B
330
17989
100
AcDbEntity
  8
YODOROGO
100
AcDbLine
 10
13988.80217064596
 20
873.8747482146434
 30
0.0
 11
13988.80217064596
 21
885.8747482146432
 31
0.0
  0
LINE
  5
1757C
330
17989
100
AcDbEntity
  8
YODOROGO
100
AcDbLine
 10
14000.80217064596
 20
853.874748214644
 30
0.0
 11
14000.80217064596
 21
841.8747482146434
 31
0.0
  0
LINE
  5
1757E
330
17989
100
AcDbEntity
  8
YODOROGO
100
AcDbLine
 10
14008.80217064596
 20
853.874748214644
 30
0.0
 11
14000.80217064596
 21
853.874748214644
 31
0.0
  0
LINE
  5
1757F
330
17989
100
AcDbEntity
  8
YODOROGO
100
AcDbLine
 10
14008.80217064596
 20
841.8747482146434
 30
0.0
 11
14008.80217064596
 21
853.874748214644
 31
0.0
  0
LINE
  5
17580
330
17989
100
AcDbEntity
  8
YODOROGO
100
AcDbLine
 10
14020.45660200845
 20
841.8747482146434
 30
0.0
 11
14008.80217064596
 21
841.8747482146434
 31
0.0
  0
LINE
  5
17581
330
17989
100
AcDbEntity
  8
YODOROGO
100
AcDbLine
 10
14000.80217064596
 20
841.8747482146434
 30
0.0
 11
13988.80217064596
 21
841.8747482146434
 31
0.0
  0
LINE
  5
17582
330
17989
100
AcDbEntity
  8
YODOROGO
100
AcDbLine
 10
14041.06776011546
 20
853.874748214644
 30
0.0
 11
14049.06776011546
 21
853.874748214644
 31
0.0
1001
AUTOCAD_POSTSCRIPT_FIGURE
1002
{
1000
PSFILL
1000
Grayscale
1000
Grayscale
1070
   100
1002
}
  0
LINE
  5
17583
330
17989
100
AcDbEntity
  8
YODOROGO
100
AcDbLine
 10
14200.80217064595
 20
912.4388128201532
 30
0.0
 11
14200.80217064595
 21
876.4388128201531
 31
0.0
1001
AUTOCAD_POSTSCRIPT_FIGURE
1002
{
1000
PSFILL
1000
Grayscale
1000
Grayscale
1070
   100
1002
}
  0
LINE
  5
17584
330
17989
100
AcDbEntity
  8
YODOROGO
100
AcDbLine
 10
14200.80217064595
 20
958.4388128201537
 30
0.0
 11
14200.80217064595
 21
992.4388128201531
 31
0.0
1001
AUTOCAD_POSTSCRIPT_FIGURE
1002
{
1000
PSFILL
1000
Grayscale
1000
Grayscale
1070
   100
1002
}
  0
LINE
  5
17585
330
17989
100
AcDbEntity
  8
YODOROGO
100
AcDbLine
 10
14216.80217064595
 20
909.8747482146439
 30
0.0
 11
14216.80217064595
 21
873.8747482146449
 31
0.0
  0
LINE
  5
17586
330
17989
100
AcDbEntity
  8
YODOROGO
100
AcDbLine
 10
14248.80217064595
 20
853.874748214644
 30
0.0
 11
14216.80217064595
 21
853.874748214644
 31
0.0
  0
LINE
  5
17587
330
17989
100
AcDbEntity
  8
YODOROGO
100
AcDbLine
 10
14216.80217064595
 20
873.8747482146449
 30
0.0
 11
14292.80217064596
 21
873.8747482146449
 31
0.0
  0
LINE
  5
17588
330
17989
100
AcDbEntity
  8
YODOROGO
100
AcDbLine
 10
14248.80217064595
 20
933.8747482146439
 30
0.0
 11
14216.80217064595
 21
933.8747482146439
 31
0.0
  0
LINE
  5
17589
330
17989
100
AcDbEntity
  8
YODOROGO
100
AcDbLine
 10
14248.80217064595
 20
961.8747482146432
 30
0.0
 11
14248.80217064595
 21
933.8747482146439
 31
0.0
  0
LINE
  5
1758A
330
17989
100
AcDbEntity
  8
YODOROGO
100
AcDbLine
 10
14292.80217064596
 20
993.8747482146439
 30
0.0
 11
14292.80217064596
 21
1013.874748214644
 31
0.0
  0
LINE
  5
1758B
330
17989
100
AcDbEntity
  8
YODOROGO
100
AcDbLine
 10
14216.80217064595
 20
993.8747482146439
 30
0.0
 11
14292.80217064596
 21
993.8747482146439
 31
0.0
  0
LINE
  5
1758C
330
17989
100
AcDbEntity
  8
YODOROGO
100
AcDbLine
 10
14216.80217064595
 20
933.8747482146439
 30
0.0
 11
14216.80217064595
 21
993.8747482146439
 31
0.0
  0
LINE
  5
1758D
330
17989
100
AcDbEntity
  8
YODOROGO
100
AcDbLine
 10
14500.80217064595
 20
1013.874748214644
 30
0.0
 11
14500.80217064595
 21
809.8747482146441
 31
0.0
  0
LINE
  5
1758E
330
17989
100
AcDbEntity
  8
YODOROGO
100
AcDbLine
 10
14536.80217064596
 20
789.8747482146441
 30
0.0
 11
14536.80217064596
 21
1013.874748214644
 31
0.0
  0
LINE
  5
1758F
330
17989
100
AcDbEntity
  8
YODOROGO
100
AcDbLine
 10
14630.80217064596
 20
745.8747482146431
 30
0.0
 11
14630.80217064596
 21
1003.874748214644
 31
0.0
  0
LINE
  5
17590
330
17989
100
AcDbEntity
  8
YODOROGO
100
AcDbLine
 10
14598.80217064596
 20
1003.874748214644
 30
0.0
 11
14598.80217064596
 21
745.8747482146431
 31
0.0
  0
LINE
  5
17591
330
17989
100
AcDbEntity
  8
YODOROGO
100
AcDbLine
 10
14692.80217064596
 20
1013.874748214644
 30
0.0
 11
14692.80217064596
 21
713.8747482146436
 31
0.0
  0
LINE
  5
17592
330
17989
100
AcDbEntity
  8
YODOROGO
100
AcDbLine
 10
14728.80217064596
 20
713.8747482146436
 30
0.0
 11
14728.80217064596
 21
1013.874748214644
 31
0.0
  0
LINE
  5
17593
330
17989
100
AcDbEntity
  8
YODOROGO
100
AcDbLine
 10
14328.80217064595
 20
833.8747482146439
 30
0.0
 11
14328.80217064595
 21
873.8747482146449
 31
0.0
  0
LINE
  5
17594
330
17989
100
AcDbEntity
  8
YODOROGO
100
AcDbLine
 10
14942.80217064596
 20
853.874748214644
 30
0.0
 11
14942.80217064596
 21
833.8747482146439
 31
0.0
  0
LINE
  5
17595
330
17989
100
AcDbEntity
  8
YODOROGO
100
AcDbLine
 10
14942.80217064596
 20
853.874748214644
 30
0.0
 11
14942.80217064596
 21
833.8747482146439
 31
0.0
  0
ARC
  5
17596
330
17989
100
AcDbEntity
  8
YODOROGO
100
AcDbCircle
 10
14453.45578809342
 20
809.1089322211363
 30
0.0
 40
47.35257558937082
100
AcDbArc
 50
274.0524416290711
 51
0.9266642149310712
  0
ARC
  5
17597
330
17989
100
AcDbEntity
  8
YODOROGO
100
AcDbCircle
 10
14454.59308535991
 20
796.30536430522
 30
0.0
 40
82.46021178042756
100
AcDbArc
 50
271.5351210653777
 51
355.5272775058505
  0
LINE
  5
17598
330
17989
100
AcDbEntity
  8
YODOROGO
100
AcDbLine
 10
14456.80217064596
 20
761.8747482146434
 30
0.0
 11
14456.80217064596
 21
713.8747482146436
 31
0.0
  0
LINE
  5
17599
330
17989
100
AcDbEntity
  8
YODOROGO
100
AcDbLine
 10
14396.80217064594
 20
833.8747482146439
 30
0.0
 11
14328.80217064595
 21
833.8747482146439
 31
0.0
  0
LINE
  5
1759A
330
17989
100
AcDbEntity
  8
YODOROGO
100
AcDbLine
 10
14396.80217064594
 20
801.8747482146444
 30
0.0
 11
14396.80217064594
 21
833.8747482146439
 31
0.0
  0
LINE
  5
1759B
330
17989
100
AcDbEntity
  8
YODOROGO
100
AcDbLine
 10
14328.80217064595
 20
801.8747482146444
 30
0.0
 11
14396.80217064594
 21
801.8747482146444
 31
0.0
  0
LINE
  5
1759C
330
17989
100
AcDbEntity
  8
YODOROGO
100
AcDbLine
 10
14328.80217064595
 20
761.8747482146434
 30
0.0
 11
14328.80217064595
 21
801.8747482146444
 31
0.0
  0
LINE
  5
1759D
330
17989
100
AcDbEntity
  8
YODOROGO
100
AcDbLine
 10
14396.80217064594
 20
761.8747482146434
 30
0.0
 11
14328.80217064595
 21
761.8747482146434
 31
0.0
  0
LINE
  5
1759E
330
17989
100
AcDbEntity
  8
YODOROGO
100
AcDbLine
 10
14396.80217064594
 20
713.8747482146436
 30
0.0
 11
14396.80217064594
 21
761.8747482146434
 31
0.0
  0
LINE
  5
1759F
330
17989
100
AcDbEntity
  8
YODOROGO
100
AcDbLine
 10
14598.80217064596
 20
745.8747482146431
 30
0.0
 11
14630.80217064596
 21
745.8747482146431
 31
0.0
  0
LINE
  5
175A0
330
17989
100
AcDbEntity
  8
YODOROGO
100
AcDbLine
 10
14692.80217064596
 20
713.8747482146436
 30
0.0
 11
14728.80217064596
 21
713.8747482146436
 31
0.0
  0
LINE
  5
175A1
330
17989
100
AcDbEntity
  8
YODOROGO
100
AcDbLine
 10
14868.80217064596
 20
764.2207260852818
 30
0.0
 11
14868.80217064596
 21
713.8747482146436
 31
0.0
  0
LINE
  5
175A2
330
17989
100
AcDbEntity
  8
YODOROGO
100
AcDbLine
 10
14808.80217064596
 20
713.8747482146436
 30
0.0
 11
14868.80217064596
 21
764.2207260852818
 31
0.0
  0
LINE
  5
175A3
330
17989
100
AcDbEntity
  8
YODOROGO
100
AcDbLine
 10
14808.80217064596
 20
773.874748214644
 30
0.0
 11
14808.80217064596
 21
713.8747482146436
 31
0.0
  0
LINE
  5
175A4
330
17989
100
AcDbEntity
  8
YODOROGO
100
AcDbLine
 10
14856.47231434973
 20
813.8747482146435
 30
0.0
 11
14808.80217064596
 21
773.874748214644
 31
0.0
  0
LINE
  5
175A5
330
17989
100
AcDbEntity
  8
YODOROGO
100
AcDbLine
 10
14808.80217064596
 20
813.8747482146435
 30
0.0
 11
14856.47231434973
 21
813.8747482146435
 31
0.0
  0
LINE
  5
175A6
330
17989
100
AcDbEntity
  8
YODOROGO
100
AcDbLine
 10
14808.80217064596
 20
833.8747482146439
 30
0.0
 11
14808.80217064596
 21
813.8747482146435
 31
0.0
  0
LINE
  5
175A7
330
17989
100
AcDbEntity
  8
YODOROGO
100
AcDbLine
 10
14942.80217064596
 20
833.8747482146439
 30
0.0
 11
14808.80217064596
 21
833.8747482146439
 31
0.0
  0
LINE
  5
175A8
330
17989
100
AcDbEntity
  8
YODOROGO
100
AcDbLine
 10
14958.80217064596
 20
813.8747482146435
 30
0.0
 11
14888.80217064596
 21
813.8747482146435
 31
0.0
  0
LINE
  5
175A9
330
17989
100
AcDbEntity
  8
YODOROGO
100
AcDbLine
 10
14888.80217064596
 20
781.0027187088283
 30
0.0
 11
14885.70493649265
 21
778.403830673117
 31
0.0
  0
LINE
  5
175AA
330
17989
100
AcDbEntity
  8
YODOROGO
100
AcDbLine
 10
14888.80217064596
 20
813.8747482146435
 30
0.0
 11
14888.80217064596
 21
781.0027187088283
 31
0.0
  0
LINE
  5
175AB
330
17989
100
AcDbEntity
  8
YODOROGO
100
AcDbLine
 10
14868.80217064596
 20
764.2207260852818
 30
0.0
 11
14868.80217064596
 21
713.8747482146436
 31
0.0
  0
LINE
  5
175AC
330
17989
100
AcDbEntity
  8
YODOROGO
100
AcDbLine
 10
14808.80217064596
 20
713.8747482146436
 30
0.0
 11
14868.80217064596
 21
764.2207260852818
 31
0.0
  0
LINE
  5
175AD
330
17989
100
AcDbEntity
  8
YODOROGO
100
AcDbLine
 10
14808.80217064596
 20
773.874748214644
 30
0.0
 11
14808.80217064596
 21
713.8747482146436
 31
0.0
  0
LINE
  5
175AE
330
17989
100
AcDbEntity
  8
YODOROGO
100
AcDbLine
 10
14856.47231434973
 20
813.8747482146435
 30
0.0
 11
14808.80217064596
 21
773.874748214644
 31
0.0
  0
LINE
  5
175AF
330
17989
100
AcDbEntity
  8
YODOROGO
100
AcDbLine
 10
14808.80217064596
 20
813.8747482146435
 30
0.0
 11
14856.47231434973
 21
813.8747482146435
 31
0.0
  0
LINE
  5
175B0
330
17989
100
AcDbEntity
  8
YODOROGO
100
AcDbLine
 10
14808.80217064596
 20
833.8747482146439
 30
0.0
 11
14808.80217064596
 21
813.8747482146435
 31
0.0
  0
LINE
  5
175B1
330
17989
100
AcDbEntity
  8
YODOROGO
100
AcDbLine
 10
14942.80217064596
 20
833.8747482146439
 30
0.0
 11
14808.80217064596
 21
833.8747482146439
 31
0.0
  0
LINE
  5
175B2
330
17989
100
AcDbEntity
  8
YODOROGO
100
AcDbLine
 10
14396.80217064594
 20
873.8747482146449
 30
0.0
 11
14396.80217064594
 21
909.8747482146439
 31
0.0
  0
LINE
  5
175B3
330
17989
100
AcDbEntity
  8
YODOROGO
100
AcDbLine
 10
14328.80217064595
 20
873.8747482146449
 30
0.0
 11
14396.80217064594
 21
873.8747482146449
 31
0.0
  0
LINE
  5
175B4
330
17989
100
AcDbEntity
  8
YODOROGO
100
AcDbLine
 10
14364.80217064596
 20
933.8747482146439
 30
0.0
 11
14364.80217064596
 21
961.8747482146432
 31
0.0
  0
LINE
  5
175B5
330
17989
100
AcDbEntity
  8
YODOROGO
100
AcDbLine
 10
14396.80217064594
 20
933.8747482146439
 30
0.0
 11
14364.80217064596
 21
933.8747482146439
 31
0.0
  0
LINE
  5
175B6
330
17989
100
AcDbEntity
  8
YODOROGO
100
AcDbLine
 10
14396.80217064594
 20
973.8747482146434
 30
0.0
 11
14396.80217064594
 21
933.8747482146439
 31
0.0
  0
ARC
  5
175B7
330
17989
100
AcDbEntity
  8
YODOROGO
100
AcDbCircle
 10
14376.80217064595
 20
973.8747482146434
 30
0.0
 40
20.0
100
AcDbArc
 50
0.0
 51
90.0
  0
LINE
  5
175B8
330
17989
100
AcDbEntity
  8
YODOROGO
100
AcDbLine
 10
14328.80217064596
 20
993.8747482146439
 30
0.0
 11
14376.80217064595
 21
993.8747482146439
 31
0.0
  0
LINE
  5
175B9
330
17989
100
AcDbEntity
  8
YODOROGO
100
AcDbLine
 10
14328.80217064596
 20
1013.874748214644
 30
0.0
 11
14328.80217064596
 21
993.8747482146439
 31
0.0
  0
LINE
  5
175BA
330
17989
100
AcDbEntity
  8
YODOROGO
100
AcDbLine
 10
14536.80217064596
 20
1013.874748214644
 30
0.0
 11
14500.80217064595
 21
1013.874748214644
 31
0.0
  0
LINE
  5
175BB
330
17989
100
AcDbEntity
  8
YODOROGO
100
AcDbLine
 10
14630.80217064596
 20
1003.874748214644
 30
0.0
 11
14598.80217064596
 21
1003.874748214644
 31
0.0
  0
LINE
  5
175BC
330
17989
100
AcDbEntity
  8
YODOROGO
100
AcDbLine
 10
14728.80217064596
 20
1013.874748214644
 30
0.0
 11
14692.80217064596
 21
1013.874748214644
 31
0.0
  0
LINE
  5
175BD
330
17989
100
AcDbEntity
  8
YODOROGO
100
AcDbLine
 10
14836.80217064596
 20
853.874748214644
 30
0.0
 11
14836.80217064596
 21
885.8747482146441
 31
0.0
1001
AUTOCAD_POSTSCRIPT_FIGURE
1002
{
1000
PSFILL
1000
Grayscale
1000
Grayscale
1070
    25
1002
}
  0
LINE
  5
175BE
330
17989
100
AcDbEntity
  8
YODOROGO
100
AcDbLine
 10
14808.80217064596
 20
853.874748214644
 30
0.0
 11
14836.80217064596
 21
853.874748214644
 31
0.0
1001
AUTOCAD_POSTSCRIPT_FIGURE
1002
{
1000
PSFILL
1000
Grayscale
1000
Grayscale
1070
    25
1002
}
  0
LINE
  5
175BF
330
17989
100
AcDbEntity
  8
YODOROGO
100
AcDbLine
 10
14808.80217064596
 20
909.8747482146439
 30
0.0
 11
14808.80217064596
 21
853.874748214644
 31
0.0
1001
AUTOCAD_POSTSCRIPT_FIGURE
1002
{
1000
PSFILL
1000
Grayscale
1000
Grayscale
1070
    25
1002
}
  0
LINE
  5
175C0
330
17989
100
AcDbEntity
  8
YODOROGO
100
AcDbLine
 10
14882.80217064596
 20
909.8747482146439
 30
0.0
 11
14808.80217064596
 21
909.8747482146439
 31
0.0
1001
AUTOCAD_POSTSCRIPT_FIGURE
1002
{
1000
PSFILL
1000
Grayscale
1000
Grayscale
1070
    25
1002
}
  0
LINE
  5
175C1
330
17989
100
AcDbEntity
  8
YODOROGO
100
AcDbLine
 10
14882.80217064596
 20
929.874748214644
 30
0.0
 11
14882.80217064596
 21
909.8747482146439
 31
0.0
1001
AUTOCAD_POSTSCRIPT_FIGURE
1002
{
1000
PSFILL
1000
Grayscale
1000
Grayscale
1070
    25
1002
}
  0
LINE
  5
175C2
330
17989
100
AcDbEntity
  8
YODOROGO
100
AcDbLine
 10
14808.80217064596
 20
929.874748214644
 30
0.0
 11
14882.80217064596
 21
929.874748214644
 31
0.0
1001
AUTOCAD_POSTSCRIPT_FIGURE
1002
{
1000
PSFILL
1000
Grayscale
1000
Grayscale
1070
    25
1002
}
  0
LINE
  5
175C3
330
17989
100
AcDbEntity
  8
YODOROGO
100
AcDbLine
 10
14808.80217064596
 20
953.874748214644
 30
0.0
 11
14808.80217064596
 21
929.874748214644
 31
0.0
1001
AUTOCAD_POSTSCRIPT_FIGURE
1002
{
1000
PSFILL
1000
Grayscale
1000
Grayscale
1070
    25
1002
}
  0
LINE
  5
175C4
330
17989
100
AcDbEntity
  8
YODOROGO
100
AcDbLine
 10
14882.80217064596
 20
953.874748214644
 30
0.0
 11
14808.80217064596
 21
953.874748214644
 31
0.0
1001
AUTOCAD_POSTSCRIPT_FIGURE
1002
{
1000
PSFILL
1000
Grayscale
1000
Grayscale
1070
    25
1002
}
  0
LINE
  5
175C5
330
17989
100
AcDbEntity
  8
YODOROGO
100
AcDbLine
 10
14882.80217064596
 20
973.8747482146434
 30
0.0
 11
14882.80217064596
 21
953.874748214644
 31
0.0
1001
AUTOCAD_POSTSCRIPT_FIGURE
1002
{
1000
PSFILL
1000
Grayscale
1000
Grayscale
1070
    25
1002
}
  0
LINE
  5
175C6
330
17989
100
AcDbEntity
  8
YODOROGO
100
AcDbLine
 10
14808.80217064596
 20
973.8747482146434
 30
0.0
 11
14882.80217064596
 21
973.8747482146434
 31
0.0
1001
AUTOCAD_POSTSCRIPT_FIGURE
1002
{
1000
PSFILL
1000
Grayscale
1000
Grayscale
1070
    25
1002
}
  0
LINE
  5
175C7
330
17989
100
AcDbEntity
  8
YODOROGO
100
AcDbLine
 10
14808.80217064596
 20
1013.874748214644
 30
0.0
 11
14808.80217064596
 21
973.8747482146434
 31
0.0
1001
AUTOCAD_POSTSCRIPT_FIGURE
1002
{
1000
PSFILL
1000
Grayscale
1000
Grayscale
1070
    25
1002
}
  0
LINE
  5
175C8
330
17989
100
AcDbEntity
  8
YODOROGO
100
AcDbLine
 10
14832.80217064596
 20
1013.874748214644
 30
0.0
 11
14808.80217064596
 21
1013.874748214644
 31
0.0
1001
AUTOCAD_POSTSCRIPT_FIGURE
1002
{
1000
PSFILL
1000
Grayscale
1000
Grayscale
1070
    25
1002
}
  0
LINE
  5
175C9
330
17989
100
AcDbEntity
  8
YODOROGO
100
AcDbLine
 10
14832.80217064596
 20
997.8747482146435
 30
0.0
 11
14832.80217064596
 21
1013.874748214644
 31
0.0
1001
AUTOCAD_POSTSCRIPT_FIGURE
1002
{
1000
PSFILL
1000
Grayscale
1000
Grayscale
1070
    25
1002
}
  0
LINE
  5
175CA
330
17989
100
AcDbEntity
  8
YODOROGO
100
AcDbLine
 10
14882.80217064596
 20
997.8747482146435
 30
0.0
 11
14832.80217064596
 21
997.8747482146435
 31
0.0
1001
AUTOCAD_POSTSCRIPT_FIGURE
1002
{
1000
PSFILL
1000
Grayscale
1000
Grayscale
1070
    25
1002
}
  0
LINE
  5
175CB
330
17989
100
AcDbEntity
  8
YODOROGO
100
AcDbLine
 10
14882.80217064596
 20
1013.874748214644
 30
0.0
 11
14882.80217064596
 21
997.8747482146435
 31
0.0
1001
AUTOCAD_POSTSCRIPT_FIGURE
1002
{
1000
PSFILL
1000
Grayscale
1000
Grayscale
1070
    25
1002
}
  0
LINE
  5
175CC
330
17989
100
AcDbEntity
  8
YODOROGO
100
AcDbLine
 10
14914.80217064596
 20
1013.874748214644
 30
0.0
 11
14882.80217064596
 21
1013.874748214644
 31
0.0
1001
AUTOCAD_POSTSCRIPT_FIGURE
1002
{
1000
PSFILL
1000
Grayscale
1000
Grayscale
1070
    25
1002
}
  0
LINE
  5
175CD
330
17989
100
AcDbEntity
  8
YODOROGO
100
AcDbLine
 10
14914.80217064596
 20
997.8747482146435
 30
0.0
 11
14914.80217064596
 21
1013.874748214644
 31
0.0
1001
AUTOCAD_POSTSCRIPT_FIGURE
1002
{
1000
PSFILL
1000
Grayscale
1000
Grayscale
1070
    25
1002
}
  0
LINE
  5
175CE
330
17989
100
AcDbEntity
  8
YODOROGO
100
AcDbLine
 10
14914.80217064596
 20
953.874748214644
 30
0.0
 11
14914.80217064596
 21
973.8747482146434
 31
0.0
1001
AUTOCAD_POSTSCRIPT_FIGURE
1002
{
1000
PSFILL
1000
Grayscale
1000
Grayscale
1070
    25
1002
}
  0
LINE
  5
175CF
330
17989
100
AcDbEntity
  8
YODOROGO
100
AcDbLine
 10
14914.80217064596
 20
909.8747482146439
 30
0.0
 11
14914.80217064596
 21
929.874748214644
 31
0.0
1001
AUTOCAD_POSTSCRIPT_FIGURE
1002
{
1000
PSFILL
1000
Grayscale
1000
Grayscale
1070
    25
1002
}
  0
LINE
  5
175D0
330
17989
100
AcDbEntity
  8
YODOROGO
100
AcDbLine
 10
14960.80217064594
 20
885.8747482146441
 30
0.0
 11
14960.80217064594
 21
853.874748214644
 31
0.0
1001
AUTOCAD_POSTSCRIPT_FIGURE
1002
{
1000
PSFILL
1000
Grayscale
1000
Grayscale
1070
    25
1002
}
  0
LINE
  5
175D1
330
17989
100
AcDbEntity
  8
YODOROGO
100
AcDbLine
 10
14914.80217064596
 20
885.8747482146441
 30
0.0
 11
14960.80217064594
 21
885.8747482146441
 31
0.0
1001
AUTOCAD_POSTSCRIPT_FIGURE
1002
{
1000
PSFILL
1000
Grayscale
1000
Grayscale
1070
    25
1002
}
  0
LINE
  5
175D2
330
17989
100
AcDbEntity
  8
YODOROGO
100
AcDbLine
 10
14914.80217064596
 20
853.874748214644
 30
0.0
 11
14914.80217064596
 21
885.8747482146441
 31
0.0
1001
AUTOCAD_POSTSCRIPT_FIGURE
1002
{
1000
PSFILL
1000
Grayscale
1000
Grayscale
1070
    25
1002
}
  0
LINE
  5
175D3
330
17989
100
AcDbEntity
  8
YODOROGO
100
AcDbLine
 10
14882.80217064596
 20
853.874748214644
 30
0.0
 11
14914.80217064596
 21
853.874748214644
 31
0.0
1001
AUTOCAD_POSTSCRIPT_FIGURE
1002
{
1000
PSFILL
1000
Grayscale
1000
Grayscale
1070
    25
1002
}
  0
LINE
  5
175D4
330
17989
100
AcDbEntity
  8
YODOROGO
100
AcDbLine
 10
14882.80217064596
 20
885.8747482146441
 30
0.0
 11
14882.80217064596
 21
853.874748214644
 31
0.0
1001
AUTOCAD_POSTSCRIPT_FIGURE
1002
{
1000
PSFILL
1000
Grayscale
1000
Grayscale
1070
    25
1002
}
  0
LINE
  5
175D5
330
17989
100
AcDbEntity
  8
YODOROGO
100
AcDbLine
 10
14836.80217064596
 20
885.8747482146441
 30
0.0
 11
14882.80217064596
 21
885.8747482146441
 31
0.0
1001
AUTOCAD_POSTSCRIPT_FIGURE
1002
{
1000
PSFILL
1000
Grayscale
1000
Grayscale
1070
    25
1002
}
  0
ARC
  5
175D6
330
17989
100
AcDbEntity
  8
YODOROGO
100
AcDbCircle
 10
15529.75894667896
 20
801.3403687577881
 30
0.0
 40
89.11064055536078
100
AcDbArc
 50
281.0262749542535
 51
357.771135755738
  0
LINE
  5
175D7
330
17989
100
AcDbEntity
  8
YODOROGO
100
AcDbLine
 10
15706.80217064596
 20
953.874748214644
 30
0.0
 11
15582.80217064596
 21
953.874748214644
 31
0.0
  0
LINE
  5
175D8
330
17989
100
AcDbEntity
  8
YODOROGO
100
AcDbLine
 10
15706.80217064596
 20
1013.874748214644
 30
0.0
 11
15582.80217064596
 21
1013.874748214644
 31
0.0
  0
LINE
  5
175D9
330
17989
100
AcDbEntity
  8
YODOROGO
100
AcDbLine
 10
15582.80217064596
 20
981.8747482146434
 30
0.0
 11
15706.80217064596
 21
981.8747482146434
 31
0.0
  0
LINE
  5
175DA
330
17989
100
AcDbEntity
  8
YODOROGO
100
AcDbLine
 10
15395.80217064596
 20
781.8747482146434
 30
0.0
 11
15395.80217064596
 21
877.8747482146435
 31
0.0
  0
LINE
  5
175DB
330
17989
100
AcDbEntity
  8
YODOROGO
100
AcDbLine
 10
15381.80217064596
 20
845.8747482146444
 30
0.0
 11
15381.80217064596
 21
781.8747482146434
 31
0.0
  0
LINE
  5
175DC
330
17989
100
AcDbEntity
  8
YODOROGO
100
AcDbLine
 10
15361.80217064596
 20
745.8747482146443
 30
0.0
 11
15361.80217064596
 21
845.8747482146444
 31
0.0
  0
LINE
  5
175DD
330
17989
100
AcDbEntity
  8
YODOROGO
100
AcDbLine
 10
15449.80217064596
 20
845.8747482146444
 30
0.0
 11
15449.80217064596
 21
745.8747482146443
 31
0.0
  0
LINE
  5
175DE
330
17989
100
AcDbEntity
  8
YODOROGO
100
AcDbLine
 10
15429.80217064596
 20
781.8747482146434
 30
0.0
 11
15429.80217064596
 21
845.8747482146444
 31
0.0
  0
LINE
  5
175DF
330
17989
100
AcDbEntity
  8
YODOROGO
100
AcDbLine
 10
15415.80217064596
 20
877.8747482146435
 30
0.0
 11
15415.80217064596
 21
781.8747482146434
 31
0.0
  0
LINE
  5
175E0
330
17989
100
AcDbEntity
  8
YODOROGO
100
AcDbLine
 10
15486.80217064596
 20
1013.874748214644
 30
0.0
 11
15486.80217064596
 21
733.8747482146435
 31
0.0
  0
LINE
  5
175E1
330
17989
100
AcDbEntity
  8
YODOROGO
100
AcDbLine
 10
15322.80217064596
 20
713.8747482146436
 30
0.0
 11
15322.80217064596
 21
1013.874748214644
 31
0.0
  0
LINE
  5
175E2
330
17989
100
AcDbEntity
  8
YODOROGO
100
AcDbLine
 10
15348.80217064596
 20
981.8747482146434
 30
0.0
 11
15348.80217064596
 21
713.8747482146436
 31
0.0
  0
LINE
  5
175E3
330
17989
100
AcDbEntity
  8
YODOROGO
100
AcDbLine
 10
15462.80217064596
 20
773.874748214644
 30
0.0
 11
15462.80217064596
 21
981.8747482146434
 31
0.0
  0
LINE
  5
175E4
330
17989
100
AcDbEntity
  8
YODOROGO
100
AcDbLine
 10
15190.80217064596
 20
813.8747482146435
 30
0.0
 11
15190.80217064596
 21
839.8747482146442
 31
0.0
  0
LINE
  5
175E5
330
17989
100
AcDbEntity
  8
YODOROGO
100
AcDbLine
 10
15308.80217064596
 20
839.8747482146442
 30
0.0
 11
15308.80217064596
 21
813.8747482146435
 31
0.0
  0
LINE
  5
175E6
330
17989
100
AcDbEntity
  8
YODOROGO
100
AcDbLine
 10
15582.80217064596
 20
953.874748214644
 30
0.0
 11
15582.80217064596
 21
817.8747482146436
 31
0.0
  0
LINE
  5
175E7
330
17989
100
AcDbEntity
  8
YODOROGO
100
AcDbLine
 10
14974.80217064596
 20
833.8747482146439
 30
0.0
 11
14974.80217064596
 21
853.874748214644
 31
0.0
  0
LINE
  5
175E8
330
17989
100
AcDbEntity
  8
YODOROGO
100
AcDbLine
 10
14974.80217064596
 20
833.8747482146439
 30
0.0
 11
14974.80217064596
 21
853.874748214644
 31
0.0
  0
ARC
  5
175E9
330
17989
100
AcDbEntity
  8
YODOROGO
100
AcDbCircle
 10
15268.80217064596
 20
753.8747482146439
 30
0.0
 40
40.0
100
AcDbArc
 50
270.0
 51
0.0
  0
LINE
  5
175EA
330
17989
100
AcDbEntity
  8
YODOROGO
100
AcDbLine
 10
15284.80217064596
 20
799.8747482146441
 30
0.0
 11
15308.80217064596
 21
799.8747482146441
 31
0.0
  0
LINE
  5
175EB
330
17989
100
AcDbEntity
  8
YODOROGO
100
AcDbLine
 10
15308.80217064596
 20
813.8747482146435
 30
0.0
 11
15264.80217064596
 21
813.8747482146435
 31
0.0
  0
LINE
  5
175EC
330
17989
100
AcDbEntity
  8
YODOROGO
100
AcDbLine
 10
15108.80217064596
 20
833.8747482146439
 30
0.0
 11
14974.80217064596
 21
833.8747482146439
 31
0.0
  0
LINE
  5
175ED
330
17989
100
AcDbEntity
  8
YODOROGO
100
AcDbLine
 10
15108.80217064596
 20
813.8747482146435
 30
0.0
 11
15108.80217064596
 21
833.8747482146439
 31
0.0
  0
LINE
  5
175EE
330
17989
100
AcDbEntity
  8
YODOROGO
100
AcDbLine
 10
15008.80217064596
 20
813.8747482146435
 30
0.0
 11
15108.80217064596
 21
813.8747482146435
 31
0.0
  0
ARC
  5
175EF
330
17989
100
AcDbEntity
  8
YODOROGO
100
AcDbCircle
 10
15115.02941435068
 20
934.4428574764513
 30
0.0
 40
160.6888181426141
100
AcDbArc
 50
228.6181454618994
 51
245.660289248906
  0
LINE
  5
175F0
330
17989
100
AcDbEntity
  8
YODOROGO
100
AcDbLine
 10
15052.80217064596
 20
801.8747482146444
 30
0.0
 11
15048.80217064598
 21
788.0364079349501
 31
0.0
  0
LINE
  5
175F1
330
17989
100
AcDbEntity
  8
YODOROGO
100
AcDbLine
 10
15094.80217064596
 20
801.8747482146444
 30
0.0
 11
15052.80217064596
 21
801.8747482146444
 31
0.0
  0
LINE
  5
175F2
330
17989
100
AcDbEntity
  8
YODOROGO
100
AcDbLine
 10
15088.80217064596
 20
775.9088612367134
 30
0.0
 11
15094.80217064596
 21
801.8747482146444
 31
0.0
  0
ARC
  5
175F3
330
17989
100
AcDbEntity
  8
YODOROGO
100
AcDbCircle
 10
15115.02941435023
 20
934.4428574765014
 30
0.0
 40
160.6888181426454
100
AcDbArc
 50
260.6062929796993
 51
267.7790355655586
  0
LINE
  5
175F4
330
17989
100
AcDbEntity
  8
YODOROGO
100
AcDbLine
 10
15108.80217064596
 20
713.8747482146428
 30
0.0
 11
15108.80217064596
 21
773.874748214644
 31
0.0
  0
LINE
  5
175F5
330
17989
100
AcDbEntity
  8
YODOROGO
100
AcDbLine
 10
14968.80217064596
 20
740.6696674577553
 30
0.0
 11
14968.80217064596
 21
797.2655452655705
 31
0.0
  0
LINE
  5
175F6
330
17989
100
AcDbEntity
  8
YODOROGO
100
AcDbLine
 10
15108.80217064596
 20
833.8747482146439
 30
0.0
 11
14974.80217064596
 21
833.8747482146439
 31
0.0
  0
LINE
  5
175F7
330
17989
100
AcDbEntity
  8
YODOROGO
100
AcDbLine
 10
15108.80217064596
 20
813.8747482146435
 30
0.0
 11
15108.80217064596
 21
833.8747482146439
 31
0.0
  0
LINE
  5
175F8
330
17989
100
AcDbEntity
  8
YODOROGO
100
AcDbLine
 10
15008.80217064596
 20
813.8747482146435
 30
0.0
 11
15108.80217064596
 21
813.8747482146435
 31
0.0
  0
ARC
  5
175F9
330
17989
100
AcDbEntity
  8
YODOROGO
100
AcDbCircle
 10
15115.02941435068
 20
934.4428574764513
 30
0.0
 40
160.6888181426141
100
AcDbArc
 50
228.6181454618994
 51
245.660289248906
  0
LINE
  5
175FA
330
17989
100
AcDbEntity
  8
YODOROGO
100
AcDbLine
 10
15052.80217064596
 20
801.8747482146444
 30
0.0
 11
15048.80217064598
 21
788.0364079349501
 31
0.0
  0
LINE
  5
175FB
330
17989
100
AcDbEntity
  8
YODOROGO
100
AcDbLine
 10
15094.80217064596
 20
801.8747482146444
 30
0.0
 11
15052.80217064596
 21
801.8747482146444
 31
0.0
  0
LINE
  5
175FC
330
17989
100
AcDbEntity
  8
YODOROGO
100
AcDbLine
 10
15088.80217064596
 20
775.9088612367134
 30
0.0
 11
15094.80217064596
 21
801.8747482146444
 31
0.0
  0
ARC
  5
175FD
330
17989
100
AcDbEntity
  8
YODOROGO
100
AcDbCircle
 10
15115.02941435023
 20
934.4428574765014
 30
0.0
 40
160.6888181426454
100
AcDbArc
 50
260.6062929796993
 51
267.7790355655586
  0
LINE
  5
175FE
330
17989
100
AcDbEntity
  8
YODOROGO
100
AcDbLine
 10
15108.80217064596
 20
713.8747482146428
 30
0.0
 11
15108.80217064596
 21
773.874748214644
 31
0.0
  0
LINE
  5
175FF
330
17989
100
AcDbEntity
  8
YODOROGO
100
AcDbLine
 10
14968.80217064596
 20
740.6696674577553
 30
0.0
 11
14968.80217064596
 21
797.2655452655705
 31
0.0
  0
LINE
  5
17600
330
17989
100
AcDbEntity
  8
YODOROGO
100
AcDbLine
 10
15216.80217064596
 20
786.8747482146444
 30
0.0
 11
15190.80217064596
 21
786.8747482146444
 31
0.0
  0
LINE
  5
17601
330
17989
100
AcDbEntity
  8
YODOROGO
100
AcDbLine
 10
15216.80217064596
 20
800.8747482146432
 30
0.0
 11
15216.80217064596
 21
786.8747482146444
 31
0.0
  0
LINE
  5
17602
330
17989
100
AcDbEntity
  8
YODOROGO
100
AcDbLine
 10
15190.80217064596
 20
800.8747482146432
 30
0.0
 11
15216.80217064596
 21
800.8747482146432
 31
0.0
  0
LINE
  5
17603
330
17989
100
AcDbEntity
  8
YODOROGO
100
AcDbLine
 10
15190.80217064596
 20
786.8747482146444
 30
0.0
 11
15190.80217064596
 21
800.8747482146432
 31
0.0
  0
LINE
  5
17604
330
17989
100
AcDbEntity
  8
YODOROGO
100
AcDbLine
 10
15214.80217064596
 20
788.8747482146436
 30
0.0
 11
15192.80217064596
 21
788.8747482146436
 31
0.0
  0
LINE
  5
17605
330
17989
100
AcDbEntity
  8
YODOROGO
100
AcDbLine
 10
15214.80217064596
 20
798.874748214644
 30
0.0
 11
15214.80217064596
 21
788.8747482146436
 31
0.0
  0
LINE
  5
17606
330
17989
100
AcDbEntity
  8
YODOROGO
100
AcDbLine
 10
15192.80217064596
 20
798.874748214644
 30
0.0
 11
15214.80217064596
 21
798.874748214644
 31
0.0
  0
LINE
  5
17607
330
17989
100
AcDbEntity
  8
YODOROGO
100
AcDbLine
 10
15192.80217064596
 20
788.8747482146436
 30
0.0
 11
15192.80217064596
 21
798.874748214644
 31
0.0
  0
LINE
  5
17608
330
17989
100
AcDbEntity
  8
YODOROGO
100
AcDbLine
 10
15212.80217064596
 20
790.8747482146432
 30
0.0
 11
15194.80217064596
 21
790.8747482146432
 31
0.0
  0
LINE
  5
17609
330
17989
100
AcDbEntity
  8
YODOROGO
100
AcDbLine
 10
15212.80217064596
 20
796.8747482146445
 30
0.0
 11
15212.80217064596
 21
790.8747482146432
 31
0.0
  0
LINE
  5
1760A
330
17989
100
AcDbEntity
  8
YODOROGO
100
AcDbLine
 10
15194.80217064596
 20
796.8747482146445
 30
0.0
 11
15212.80217064596
 21
796.8747482146445
 31
0.0
  0
LINE
  5
1760B
330
17989
100
AcDbEntity
  8
YODOROGO
100
AcDbLine
 10
15194.80217064596
 20
790.8747482146432
 30
0.0
 11
15194.80217064596
 21
796.8747482146445
 31
0.0
  0
LINE
  5
1760C
330
17989
100
AcDbEntity
  8
YODOROGO
100
AcDbLine
 10
15210.80217064596
 20
792.8747482146435
 30
0.0
 11
15196.80217064596
 21
792.8747482146435
 31
0.0
  0
LINE
  5
1760D
330
17989
100
AcDbEntity
  8
YODOROGO
100
AcDbLine
 10
15210.80217064596
 20
794.8747482146441
 30
0.0
 11
15210.80217064596
 21
792.8747482146435
 31
0.0
  0
LINE
  5
1760E
330
17989
100
AcDbEntity
  8
YODOROGO
100
AcDbLine
 10
15196.80217064596
 20
794.8747482146441
 30
0.0
 11
15210.80217064596
 21
794.8747482146441
 31
0.0
  0
LINE
  5
1760F
330
17989
100
AcDbEntity
  8
YODOROGO
100
AcDbLine
 10
15196.80217064596
 20
792.8747482146435
 30
0.0
 11
15196.80217064596
 21
794.8747482146441
 31
0.0
  0
LINE
  5
17610
330
17989
100
AcDbEntity
  8
YODOROGO
100
AcDbLine
 10
15232.80217064596
 20
813.8747482146435
 30
0.0
 11
15190.80217064596
 21
813.8747482146435
 31
0.0
  0
LINE
  5
17611
330
17989
100
AcDbEntity
  8
YODOROGO
100
AcDbLine
 10
15232.80217064596
 20
773.874748214644
 30
0.0
 11
15232.80217064596
 21
813.8747482146435
 31
0.0
  0
LINE
  5
17612
330
17989
100
AcDbEntity
  8
YODOROGO
100
AcDbLine
 10
15190.80217064596
 20
773.874748214644
 30
0.0
 11
15232.80217064596
 21
773.874748214644
 31
0.0
  0
LINE
  5
17613
330
17989
100
AcDbEntity
  8
YODOROGO
100
AcDbLine
 10
15190.80217064596
 20
713.8747482146436
 30
0.0
 11
15190.80217064596
 21
773.874748214644
 31
0.0
  0
LINE
  5
17614
330
17989
100
AcDbEntity
  8
YODOROGO
100
AcDbLine
 10
15268.80217064596
 20
713.8747482146436
 30
0.0
 11
15190.80217064596
 21
713.8747482146436
 31
0.0
  0
LINE
  5
17615
330
17989
100
AcDbEntity
  8
YODOROGO
100
AcDbLine
 10
15284.80217064596
 20
785.8747482146432
 30
0.0
 11
15284.80217064596
 21
799.8747482146441
 31
0.0
  0
ARC
  5
17616
330
17989
100
AcDbEntity
  8
YODOROGO
100
AcDbCircle
 10
15272.80217064595
 20
785.8747482146457
 30
0.0
 40
12.00000000000187
100
AcDbArc
 50
270.0
 51
359.9999999999877
  0
LINE
  5
17617
330
17989
100
AcDbEntity
  8
YODOROGO
100
AcDbLine
 10
15264.80217064596
 20
773.874748214644
 30
0.0
 11
15272.80217064595
 21
773.874748214644
 31
0.0
  0
LINE
  5
17618
330
17989
100
AcDbEntity
  8
YODOROGO
100
AcDbLine
 10
15264.80217064596
 20
813.8747482146435
 30
0.0
 11
15264.80217064596
 21
773.874748214644
 31
0.0
  0
LINE
  5
17619
330
17989
100
AcDbEntity
  8
YODOROGO
100
AcDbLine
 10
15449.80217064597
 20
773.874748214644
 30
0.0
 11
15462.80217064596
 21
773.874748214644
 31
0.0
  0
LINE
  5
1761A
330
17989
100
AcDbEntity
  8
YODOROGO
100
AcDbLine
 10
15466.80217064596
 20
713.8747482146436
 30
0.0
 11
15449.80217064596
 21
713.8747482146436
 31
0.0
  0
LINE
  5
1761B
330
17989
100
AcDbEntity
  8
YODOROGO
100
AcDbLine
 10
15381.80217064596
 20
781.8747482146434
 30
0.0
 11
15395.80217064596
 21
781.8747482146434
 31
0.0
  0
LINE
  5
1761C
330
17989
100
AcDbEntity
  8
YODOROGO
100
AcDbLine
 10
15449.80217064596
 20
745.8747482146443
 30
0.0
 11
15361.80217064596
 21
745.8747482146443
 31
0.0
  0
LINE
  5
1761D
330
17989
100
AcDbEntity
  8
YODOROGO
100
AcDbLine
 10
15415.80217064596
 20
781.8747482146434
 30
0.0
 11
15429.80217064596
 21
781.8747482146434
 31
0.0
  0
LINE
  5
1761E
330
17989
100
AcDbEntity
  8
YODOROGO
100
AcDbLine
 10
15449.80217064596
 20
713.8747482146436
 30
0.0
 11
15449.80217064597
 21
773.874748214644
 31
0.0
  0
LINE
  5
1761F
330
17989
100
AcDbEntity
  8
YODOROGO
100
AcDbLine
 10
15348.80217064596
 20
713.8747482146436
 30
0.0
 11
15322.80217064596
 21
713.8747482146436
 31
0.0
  0
LINE
  5
17620
330
17989
100
AcDbEntity
  8
YODOROGO
100
AcDbLine
 10
15308.80217064596
 20
799.8747482146441
 30
0.0
 11
15308.80217064596
 21
753.8747482146439
 31
0.0
  0
ARC
  5
17621
330
17989
100
AcDbEntity
  8
YODOROGO
100
AcDbCircle
 10
15466.80217064596
 20
733.8747482146435
 30
0.0
 40
20.0
100
AcDbArc
 50
270.0
 51
0.0
  0
LINE
  5
17622
330
17989
100
AcDbEntity
  8
YODOROGO
100
AcDbLine
 10
15546.80217064596
 20
761.8747482146434
 30
0.0
 11
15546.80217064596
 21
713.8747482146436
 31
0.0
  0
ARC
  5
17623
330
17989
100
AcDbEntity
  8
YODOROGO
100
AcDbCircle
 10
15519.86069778339
 20
818.7656950548664
 30
0.0
 40
62.94777829583771
100
AcDbArc
 50
295.3405244216011
 51
359.1890230341868
  0
LINE
  5
17624
330
17989
100
AcDbEntity
  8
YODOROGO
100
AcDbLine
 10
15308.80217064596
 20
929.874748214644
 30
0.0
 11
15248.80217064596
 21
969.8747482146441
 31
0.0
  0
LINE
  5
17625
330
17989
100
AcDbEntity
  8
YODOROGO
100
AcDbLine
 10
15248.80217064596
 20
1013.874748214644
 30
0.0
 11
15308.80217064596
 21
973.8747482146434
 31
0.0
  0
LINE
  5
17626
330
17989
100
AcDbEntity
  8
YODOROGO
100
AcDbLine
 10
15264.80217064596
 20
839.8747482146442
 30
0.0
 11
15308.80217064596
 21
839.8747482146442
 31
0.0
  0
LINE
  5
17627
330
17989
100
AcDbEntity
  8
YODOROGO
100
AcDbLine
 10
15308.80217064596
 20
867.8747482146436
 30
0.0
 11
15264.80217064596
 21
867.8747482146436
 31
0.0
  0
LINE
  5
17628
330
17989
100
AcDbEntity
  8
YODOROGO
100
AcDbLine
 10
15190.80217064596
 20
897.8747482146435
 30
0.0
 11
15308.80217064596
 21
897.8747482146435
 31
0.0
  0
LINE
  5
17629
330
17989
100
AcDbEntity
  8
YODOROGO
100
AcDbLine
 10
15040.80217064596
 20
1013.874748214644
 30
0.0
 11
15010.80217064596
 21
1013.874748214644
 31
0.0
  0
LINE
  5
1762A
330
17989
100
AcDbEntity
  8
YODOROGO
100
AcDbLine
 10
15040.80217064596
 20
913.8747482146435
 30
0.0
 11
15040.80217064596
 21
1013.874748214644
 31
0.0
  0
LINE
  5
1762B
330
17989
100
AcDbEntity
  8
YODOROGO
100
AcDbLine
 10
15010.80217064596
 20
913.8747482146435
 30
0.0
 11
15040.80217064596
 21
913.8747482146435
 31
0.0
  0
LINE
  5
1762C
330
17989
100
AcDbEntity
  8
YODOROGO
100
AcDbLine
 10
15010.80217064596
 20
1013.874748214644
 30
0.0
 11
15010.80217064596
 21
913.8747482146435
 31
0.0
  0
LINE
  5
1762D
330
17989
100
AcDbEntity
  8
YODOROGO
100
AcDbLine
 10
15080.80217064596
 20
1013.874748214644
 30
0.0
 11
15108.80217064596
 21
1013.874748214644
 31
0.0
  0
LINE
  5
1762E
330
17989
100
AcDbEntity
  8
YODOROGO
100
AcDbLine
 10
15080.80217064596
 20
905.8747482146443
 30
0.0
 11
15080.80217064596
 21
1013.874748214644
 31
0.0
  0
ARC
  5
1762F
330
17989
100
AcDbEntity
  8
YODOROGO
100
AcDbCircle
 10
15060.80217064596
 20
905.8747482146443
 30
0.0
 40
20.0
100
AcDbArc
 50
270.0
 51
0.0
  0
LINE
  5
17630
330
17989
100
AcDbEntity
  8
YODOROGO
100
AcDbLine
 10
15010.80217064596
 20
885.8747482146441
 30
0.0
 11
15060.80217064596
 21
885.8747482146441
 31
0.0
  0
LINE
  5
17631
330
17989
100
AcDbEntity
  8
YODOROGO
100
AcDbLine
 10
15010.80217064596
 20
853.874748214644
 30
0.0
 11
15010.80217064596
 21
885.8747482146441
 31
0.0
  0
LINE
  5
17632
330
17989
100
AcDbEntity
  8
YODOROGO
100
AcDbLine
 10
15068.80217064596
 20
853.874748214644
 30
0.0
 11
15010.80217064596
 21
853.874748214644
 31
0.0
  0
ARC
  5
17633
330
17989
100
AcDbEntity
  8
YODOROGO
100
AcDbCircle
 10
15068.80217064596
 20
893.8747482146439
 30
0.0
 40
40.0
100
AcDbArc
 50
270.0
 51
0.0
  0
LINE
  5
17634
330
17989
100
AcDbEntity
  8
YODOROGO
100
AcDbLine
 10
15108.80217064596
 20
1013.874748214644
 30
0.0
 11
15108.80217064596
 21
893.8747482146439
 31
0.0
  0
LINE
  5
17635
330
17989
100
AcDbEntity
  8
YODOROGO
100
AcDbLine
 10
14988.80217064596
 20
973.8747482146434
 30
0.0
 11
14988.80217064596
 21
997.8747482146435
 31
0.0
1001
AUTOCAD_POSTSCRIPT_FIGURE
1002
{
1000
PSFILL
1000
Grayscale
1000
Grayscale
1070
    25
1002
}
  0
LINE
  5
17636
330
17989
100
AcDbEntity
  8
YODOROGO
100
AcDbLine
 10
14988.80217064596
 20
929.874748214644
 30
0.0
 11
14988.80217064596
 21
953.874748214644
 31
0.0
1001
AUTOCAD_POSTSCRIPT_FIGURE
1002
{
1000
PSFILL
1000
Grayscale
1000
Grayscale
1070
    25
1002
}
  0
LINE
  5
17637
330
17989
100
AcDbEntity
  8
YODOROGO
100
AcDbLine
 10
14988.80217064596
 20
853.874748214644
 30
0.0
 11
14988.80217064596
 21
909.8747482146439
 31
0.0
1001
AUTOCAD_POSTSCRIPT_FIGURE
1002
{
1000
PSFILL
1000
Grayscale
1000
Grayscale
1070
    25
1002
}
  0
LINE
  5
17638
330
17989
100
AcDbEntity
  8
YODOROGO
100
AcDbLine
 10
15190.80217064596
 20
953.874748214644
 30
0.0
 11
15248.80217064596
 21
1013.874748214644
 31
0.0
  0
LINE
  5
17639
330
17989
100
AcDbEntity
  8
YODOROGO
100
AcDbLine
 10
15190.80217064596
 20
909.8747482146439
 30
0.0
 11
15190.80217064596
 21
953.874748214644
 31
0.0
  0
LINE
  5
1763A
330
17989
100
AcDbEntity
  8
YODOROGO
100
AcDbLine
 10
15248.80217064596
 20
969.8747482146441
 30
0.0
 11
15190.80217064596
 21
909.8747482146439
 31
0.0
  0
LINE
  5
1763B
330
17989
100
AcDbEntity
  8
YODOROGO
100
AcDbLine
 10
15232.80217064596
 20
839.8747482146442
 30
0.0
 11
15232.80217064596
 21
867.8747482146436
 31
0.0
  0
LINE
  5
1763C
330
17989
100
AcDbEntity
  8
YODOROGO
100
AcDbLine
 10
15190.80217064596
 20
839.8747482146442
 30
0.0
 11
15232.80217064596
 21
839.8747482146442
 31
0.0
  0
LINE
  5
1763D
330
17989
100
AcDbEntity
  8
YODOROGO
100
AcDbLine
 10
15264.80217064596
 20
867.8747482146436
 30
0.0
 11
15264.80217064596
 21
839.8747482146442
 31
0.0
  0
LINE
  5
1763E
330
17989
100
AcDbEntity
  8
YODOROGO
100
AcDbLine
 10
15190.80217064596
 20
867.8747482146436
 30
0.0
 11
15190.80217064596
 21
897.8747482146435
 31
0.0
  0
LINE
  5
1763F
330
17989
100
AcDbEntity
  8
YODOROGO
100
AcDbLine
 10
15232.80217064596
 20
867.8747482146436
 30
0.0
 11
15190.80217064596
 21
867.8747482146436
 31
0.0
  0
LINE
  5
17640
330
17989
100
AcDbEntity
  8
YODOROGO
100
AcDbLine
 10
15322.80217064596
 20
1013.874748214644
 30
0.0
 11
15486.80217064596
 21
1013.874748214644
 31
0.0
  0
LINE
  5
17641
330
17989
100
AcDbEntity
  8
YODOROGO
100
AcDbLine
 10
15462.80217064596
 20
981.8747482146434
 30
0.0
 11
15348.80217064596
 21
981.8747482146434
 31
0.0
  0
LINE
  5
17642
330
17989
100
AcDbEntity
  8
YODOROGO
100
AcDbLine
 10
15436.80217064596
 20
909.8747482146439
 30
0.0
 11
15449.80217064596
 21
909.8747482146439
 31
0.0
  0
LINE
  5
17643
330
17989
100
AcDbEntity
  8
YODOROGO
100
AcDbLine
 10
15449.80217064596
 20
969.8747482146441
 30
0.0
 11
15436.80217064596
 21
909.8747482146439
 31
0.0
  0
LINE
  5
17644
330
17989
100
AcDbEntity
  8
YODOROGO
100
AcDbLine
 10
15425.80217064596
 20
969.8747482146441
 30
0.0
 11
15449.80217064596
 21
969.8747482146441
 31
0.0
  0
LINE
  5
17645
330
17989
100
AcDbEntity
  8
YODOROGO
100
AcDbLine
 10
15412.80217064596
 20
909.8747482146439
 30
0.0
 11
15425.80217064596
 21
969.8747482146441
 31
0.0
  0
LINE
  5
17646
330
17989
100
AcDbEntity
  8
YODOROGO
100
AcDbLine
 10
15398.80217064596
 20
909.8747482146439
 30
0.0
 11
15412.80217064596
 21
909.8747482146439
 31
0.0
  0
LINE
  5
17647
330
17989
100
AcDbEntity
  8
YODOROGO
100
AcDbLine
 10
15385.80217064596
 20
969.8747482146441
 30
0.0
 11
15398.80217064596
 21
909.8747482146439
 31
0.0
  0
LINE
  5
17648
330
17989
100
AcDbEntity
  8
YODOROGO
100
AcDbLine
 10
15361.80217064596
 20
969.8747482146441
 30
0.0
 11
15385.80217064596
 21
969.8747482146441
 31
0.0
  0
LINE
  5
17649
330
17989
100
AcDbEntity
  8
YODOROGO
100
AcDbLine
 10
15374.80217064596
 20
909.8747482146439
 30
0.0
 11
15361.80217064596
 21
969.8747482146441
 31
0.0
  0
LINE
  5
1764A
330
17989
100
AcDbEntity
  8
YODOROGO
100
AcDbLine
 10
15361.80217064596
 20
909.8747482146439
 30
0.0
 11
15374.80217064596
 21
909.8747482146439
 31
0.0
  0
LINE
  5
1764B
330
17989
100
AcDbEntity
  8
YODOROGO
100
AcDbLine
 10
15361.80217064596
 20
877.8747482146435
 30
0.0
 11
15361.80217064596
 21
909.8747482146439
 31
0.0
  0
LINE
  5
1764C
330
17989
100
AcDbEntity
  8
YODOROGO
100
AcDbLine
 10
15449.80217064596
 20
877.8747482146435
 30
0.0
 11
15361.80217064596
 21
877.8747482146435
 31
0.0
  0
LINE
  5
1764D
330
17989
100
AcDbEntity
  8
YODOROGO
100
AcDbLine
 10
15449.80217064596
 20
909.8747482146439
 30
0.0
 11
15449.80217064596
 21
877.8747482146435
 31
0.0
  0
LINE
  5
1764E
330
17989
100
AcDbEntity
  8
YODOROGO
100
AcDbLine
 10
15308.80217064596
 20
973.8747482146434
 30
0.0
 11
15308.80217064596
 21
929.874748214644
 31
0.0
  0
LINE
  5
1764F
330
17989
100
AcDbEntity
  8
YODOROGO
100
AcDbLine
 10
15395.80217064596
 20
877.8747482146435
 30
0.0
 11
15415.80217064596
 21
877.8747482146435
 31
0.0
  0
LINE
  5
17650
330
17989
100
AcDbEntity
  8
YODOROGO
100
AcDbLine
 10
15361.80217064596
 20
845.8747482146444
 30
0.0
 11
15381.80217064596
 21
845.8747482146444
 31
0.0
  0
LINE
  5
17651
330
17989
100
AcDbEntity
  8
YODOROGO
100
AcDbLine
 10
15429.80217064596
 20
845.8747482146444
 30
0.0
 11
15449.80217064596
 21
845.8747482146444
 31
0.0
  0
LINE
  5
17652
330
17989
100
AcDbEntity
  8
YODOROGO
100
AcDbLine
 10
15308.80217064596
 20
897.8747482146435
 30
0.0
 11
15308.80217064596
 21
867.8747482146436
 31
0.0
  0
LINE
  5
17653
330
17989
100
AcDbEntity
  8
YODOROGO
100
AcDbLine
 10
15582.80217064596
 20
1013.874748214644
 30
0.0
 11
15582.80217064596
 21
981.8747482146434
 31
0.0
  0
LINE
  5
17654
330
17989
100
AcDbEntity
  8
YODOROGO
100
AcDbLine
 10
15766.80217064596
 20
797.8747482146435
 30
0.0
 11
15766.80217064595
 21
905.8747482146443
 31
0.0
  0
LINE
  5
17655
330
17989
100
AcDbEntity
  8
YODOROGO
100
AcDbLine
 10
15730.80217064594
 20
993.8747482146439
 30
0.0
 11
15730.80217064594
 21
817.8747482146436
 31
0.0
  0
LINE
  5
17656
330
17989
100
AcDbEntity
  8
YODOROGO
100
AcDbLine
 10
15826.80217064596
 20
713.8747482146436
 30
0.0
 11
15826.80217064595
 21
905.8747482146443
 31
0.0
  0
LINE
  5
17657
330
17989
100
AcDbEntity
  8
YODOROGO
100
AcDbLine
 10
15794.80217064596
 20
905.8747482146443
 30
0.0
 11
15794.80217064596
 21
713.8747482146436
 31
0.0
  0
LINE
  5
17658
330
17989
100
AcDbEntity
  8
YODOROGO
100
AcDbLine
 10
15618.80217064596
 20
797.8747482146435
 30
0.0
 11
15618.80217064596
 21
853.874748214644
 31
0.0
  0
ARC
  5
17659
330
17989
100
AcDbEntity
  8
YODOROGO
100
AcDbCircle
 10
15676.95743255803
 20
803.8951756442788
 30
0.0
 40
90.04622428799429
100
AcDbArc
 50
268.628491021698
 51
356.1663845733032
  0
LINE
  5
1765A
330
17989
100
AcDbEntity
  8
YODOROGO
100
AcDbLine
 10
15674.80217064596
 20
763.8747482146435
 30
0.0
 11
15674.80217064596
 21
713.8747482146436
 31
0.0
  0
ARC
  5
1765B
330
17989
100
AcDbEntity
  8
YODOROGO
100
AcDbCircle
 10
15675.75903786228
 20
818.9194785088275
 30
0.0
 40
55.05304649180608
100
AcDbArc
 50
269.0041020930594
 51
358.9126445549248
  0
LINE
  5
1765C
330
17989
100
AcDbEntity
  8
YODOROGO
100
AcDbLine
 10
15794.80217064596
 20
713.8747482146436
 30
0.0
 11
15826.80217064596
 21
713.8747482146436
 31
0.0
  0
LINE
  5
1765D
330
17989
100
AcDbEntity
  8
YODOROGO
100
AcDbLine
 10
15766.80217064595
 20
905.8747482146443
 30
0.0
 11
15794.80217064596
 21
905.8747482146443
 31
0.0
  0
LINE
  5
1765E
330
17989
100
AcDbEntity
  8
YODOROGO
100
AcDbLine
 10
15810.80217064596
 20
993.8747482146439
 30
0.0
 11
15730.80217064594
 21
993.8747482146439
 31
0.0
  0
LINE
  5
1765F
330
17989
100
AcDbEntity
  8
YODOROGO
100
AcDbLine
 10
15766.80217064595
 20
957.8747482146436
 30
0.0
 11
15830.80217064596
 21
957.8747482146436
 31
0.0
  0
LINE
  5
17660
330
17989
100
AcDbEntity
  8
YODOROGO
100
AcDbLine
 10
15850.80217064596
 20
937.8747482146435
 30
0.0
 11
15766.80217064595
 21
937.8747482146435
 31
0.0
  0
LINE
  5
17661
330
17989
100
AcDbEntity
  8
YODOROGO
100
AcDbLine
 10
15618.80217064596
 20
889.8747482146442
 30
0.0
 11
15674.80217064596
 21
889.8747482146442
 31
0.0
  0
LINE
  5
17662
330
17989
100
AcDbEntity
  8
YODOROGO
100
AcDbLine
 10
15618.80217064596
 20
917.8747482146436
 30
0.0
 11
15618.80217064596
 21
889.8747482146442
 31
0.0
  0
LINE
  5
17663
330
17989
100
AcDbEntity
  8
YODOROGO
100
AcDbLine
 10
15674.80217064596
 20
917.8747482146436
 30
0.0
 11
15618.80217064596
 21
917.8747482146436
 31
0.0
  0
LINE
  5
17664
330
17989
100
AcDbEntity
  8
YODOROGO
100
AcDbLine
 10
15674.80217064596
 20
889.8747482146442
 30
0.0
 11
15674.80217064596
 21
917.8747482146436
 31
0.0
  0
LINE
  5
17665
330
17989
100
AcDbEntity
  8
YODOROGO
100
AcDbLine
 10
15766.80217064595
 20
937.8747482146435
 30
0.0
 11
15766.80217064595
 21
957.8747482146436
 31
0.0
  0
LINE
  5
17666
330
17989
100
AcDbEntity
  8
YODOROGO
100
AcDbLine
 10
15706.80217064596
 20
853.874748214644
 30
0.0
 11
15706.80217064596
 21
953.874748214644
 31
0.0
  0
LINE
  5
17667
330
17989
100
AcDbEntity
  8
YODOROGO
100
AcDbLine
 10
15618.80217064596
 20
853.874748214644
 30
0.0
 11
15706.80217064596
 21
853.874748214644
 31
0.0
  0
LINE
  5
17668
330
17989
100
AcDbEntity
  8
YODOROGO
100
AcDbLine
 10
15706.80217064596
 20
981.8747482146434
 30
0.0
 11
15706.80217064596
 21
1013.874748214644
 31
0.0
  0
ARC
  5
17669
330
17989
100
AcDbEntity
  8
YODOROGO
100
AcDbCircle
 10
15810.80217064596
 20
1001.874748214642
 30
0.0
 40
7.99999999999727
100
AcDbArc
 50
270.0
 51
0.0000000000081422
  0
LINE
  5
1766A
330
17989
100
AcDbEntity
  8
YODOROGO
100
AcDbLine
 10
15818.80217064596
 20
1013.874748214644
 30
0.0
 11
15818.80217064596
 21
1001.874748214643
 31
0.0
  0
LINE
  5
1766B
330
17989
100
AcDbEntity
  8
YODOROGO
100
AcDbLine
 10
15850.80217064596
 20
1013.874748214644
 30
0.0
 11
15818.80217064596
 21
1013.874748214644
 31
0.0
  0
LINE
  5
1766C
330
17989
100
AcDbEntity
  8
YODOROGO
100
AcDbLine
 10
15850.80217064596
 20
977.8747482146435
 30
0.0
 11
15850.80217064596
 21
1013.874748214644
 31
0.0
  0
ARC
  5
1766D
330
17989
100
AcDbEntity
  8
YODOROGO
100
AcDbCircle
 10
15830.80217064596
 20
977.8747482146435
 30
0.0
 40
20.0
100
AcDbArc
 50
270.0
 51
0.0
  0
LINE
  5
1766E
330
17989
100
AcDbEntity
  8
YODOROGO
100
AcDbLine
 10
15850.80217064596
 20
905.8747482146443
 30
0.0
 11
15850.80217064596
 21
937.8747482146435
 31
0.0
  0
LINE
  5
1766F
330
17989
100
AcDbEntity
  8
YODOROGO
100
AcDbLine
 10
15826.80217064595
 20
905.8747482146443
 30
0.0
 11
15850.80217064596
 21
905.8747482146443
 31
0.0
  0
LINE
  5
17670
330
17989
100
AcDbEntity
  8
SUNPOU
100
AcDbLine
 10
2946.801569802749
 20
5796.279066364538
 30
0.0
 11
2946.801569802749
 21
5131.279066364539
 31
0.0
  0
LINE
  5
17671
330
17989
100
AcDbEntity
  8
SUNPOU
100
AcDbLine
 10
12546.80156980274
 20
5796.279066364538
 30
0.0
 11
12546.80156980274
 21
5131.279066364539
 31
0.0
  0
LINE
  5
17672
330
17989
100
AcDbEntity
  8
SUNPOU
100
AcDbLine
 10
2966.801569802749
 20
5176.279066364539
 30
0.0
 11
12526.80156980274
 21
5176.279066364539
 31
0.0
  0
LINE
  5
17676
330
17989
100
AcDbEntity
  8
SUNPOU
100
AcDbLine
 10
12146.80156980274
 20
6946.279066364538
 30
0.0
 11
12146.80156980274
 21
5341.279066364539
 31
0.0
  0
LINE
  5
17677
330
17989
100
AcDbEntity
  8
SUNPOU
100
AcDbLine
 10
12546.80156980274
 20
5796.279066364538
 30
0.0
 11
12546.80156980274
 21
5341.279066364539
 31
0.0
  0
LINE
  5
17678
330
17989
100
AcDbEntity
  8
SUNPOU
100
AcDbLine
 10
12166.80156980274
 20
5386.279066364539
 30
0.0
 11
12526.80156980274
 21
5386.279066364539
 31
0.0
  0
LINE
  5
1767C
330
17989
100
AcDbEntity
  8
SUNPOU
100
AcDbLine
 10
9346.801569802748
 20
7129.279066364539
 30
0.0
 11
9346.801569802748
 21
5341.279066364539
 31
0.0
  0
LINE
  5
1767D
330
17989
100
AcDbEntity
  8
SUNPOU
100
AcDbLine
 10
12146.80156980274
 20
6946.279066364538
 30
0.0
 11
12146.80156980274
 21
5341.279066364539
 31
0.0
  0
LINE
  5
1767E
330
17989
100
AcDbEntity
  8
SUNPOU
100
AcDbLine
 10
9366.801569802749
 20
5386.279066364539
 30
0.0
 11
12126.80156980274
 21
5386.279066364539
 31
0.0
  0
LINE
  5
17682
330
17989
100
AcDbEntity
  8
SUNPOU
100
AcDbLine
 10
6146.801569802749
 20
7129.279066364539
 30
0.0
 11
6146.801569802749
 21
5341.279066364539
 31
0.0
  0
LINE
  5
17683
330
17989
100
AcDbEntity
  8
SUNPOU
100
AcDbLine
 10
9346.801569802748
 20
7129.279066364539
 30
0.0
 11
9346.801569802748
 21
5341.279066364539
 31
0.0
  0
LINE
  5
17684
330
17989
100
AcDbEntity
  8
SUNPOU
100
AcDbLine
 10
6166.801569802746
 20
5386.279066364539
 30
0.0
 11
9326.801569802748
 21
5386.279066364539
 31
0.0
  0
LINE
  5
17688
330
17989
100
AcDbEntity
  8
SUNPOU
100
AcDbLine
 10
3346.801569802749
 20
7129.279066364539
 30
0.0
 11
3346.801569802749
 21
5341.279066364539
 31
0.0
  0
LINE
  5
17689
330
17989
100
AcDbEntity
  8
SUNPOU
100
AcDbLine
 10
6146.801569802749
 20
7129.279066364539
 30
0.0
 11
6146.801569802749
 21
5341.279066364539
 31
0.0
  0
LINE
  5
1768A
330
17989
100
AcDbEntity
  8
SUNPOU
100
AcDbLine
 10
3366.801569802748
 20
5386.279066364539
 30
0.0
 11
6126.801569802747
 21
5386.279066364539
 31
0.0
  0
LINE
  5
1768E
330
17989
100
AcDbEntity
  8
SUNPOU
100
AcDbLine
 10
2946.801569802749
 20
5796.279066364538
 30
0.0
 11
2946.801569802749
 21
5341.279066364539
 31
0.0
  0
LINE
  5
1768F
330
17989
100
AcDbEntity
  8
SUNPOU
100
AcDbLine
 10
3346.801569802749
 20
7129.279066364539
 30
0.0
 11
3346.801569802749
 21
5341.279066364539
 31
0.0
  0
LINE
  5
17690
330
17989
100
AcDbEntity
  8
SUNPOU
100
AcDbLine
 10
2966.801569802749
 20
5386.279066364539
 30
0.0
 11
3326.801569802749
 21
5386.279066364539
 31
0.0
  0
ARC
  5
17694
330
17989
100
AcDbEntity
  8
SUNPOU
100
AcDbCircle
 10
2496.801569802749
 20
10126.27906636454
 30
0.0
 40
5.625
100
AcDbArc
 50
270.0
 51
90.0
  0
ARC
  5
17695
330
17989
100
AcDbEntity
  8
SUNPOU
100
AcDbCircle
 10
2496.801569802749
 20
10126.27906636454
 30
0.0
 40
5.625
100
AcDbArc
 50
90.0
 51
270.0
  0
ARC
  5
17696
330
17989
100
AcDbEntity
  8
SUNPOU
100
AcDbCircle
 10
2496.801569802749
 20
8126.279066364539
 30
0.0
 40
5.625
100
AcDbArc
 50
270.0
 51
90.0
  0
ARC
  5
17697
330
17989
100
AcDbEntity
  8
SUNPOU
100
AcDbCircle
 10
2496.801569802749
 20
8126.279066364539
 30
0.0
 40
5.625
100
AcDbArc
 50
90.0
 51
270.0
  0
ARC
  5
17698
330
17989
100
AcDbEntity
  8
SUNPOU
100
AcDbCircle
 10
2496.801569802749
 20
7836.279066364538
 30
0.0
 40
5.625
100
AcDbArc
 50
270.0
 51
90.0
  0
ARC
  5
17699
330
17989
100
AcDbEntity
  8
SUNPOU
100
AcDbCircle
 10
2496.801569802749
 20
7836.279066364538
 30
0.0
 40
5.625
100
AcDbArc
 50
90.0
 51
270.0
  0
ARC
  5
1769A
330
17989
100
AcDbEntity
  8
SUNPOU
100
AcDbCircle
 10
2496.801569802749
 20
7836.279066364538
 30
0.0
 40
5.625
100
AcDbArc
 50
90.0
 51
270.0
  0
ARC
  5
1769B
330
17989
100
AcDbEntity
  8
SUNPOU
100
AcDbCircle
 10
2496.801569802749
 20
7836.279066364538
 30
0.0
 40
5.625
100
AcDbArc
 50
270.0
 51
90.0
  0
ARC
  5
1769C
330
17989
100
AcDbEntity
  8
SUNPOU
100
AcDbCircle
 10
2496.801569802749
 20
8126.279066364539
 30
0.0
 40
5.625
100
AcDbArc
 50
90.0
 51
270.0
  0
ARC
  5
1769D
330
17989
100
AcDbEntity
  8
SUNPOU
100
AcDbCircle
 10
2496.801569802749
 20
8126.279066364539
 30
0.0
 40
5.625
100
AcDbArc
 50
270.0
 51
90.0
  0
ARC
  5
1769E
330
17989
100
AcDbEntity
  8
SUNPOU
100
AcDbCircle
 10
2496.801569802749
 20
5836.279066364538
 30
0.0
 40
5.625
100
AcDbArc
 50
90.0
 51
270.0
  0
ARC
  5
1769F
330
17989
100
AcDbEntity
  8
SUNPOU
100
AcDbCircle
 10
2496.801569802749
 20
5836.279066364538
 30
0.0
 40
5.625
100
AcDbArc
 50
270.0
 51
90.0
  0
LINE
  5
176A0
330
17989
100
AcDbEntity
  8
SUNPOU
100
AcDbLine
 10
3048.429052763142
 20
1792.168933625339
 30
0.0
 11
3048.429052763142
 21
1797.168933625339
 31
0.0
  0
LINE
  5
176A1
330
17989
100
AcDbEntity
  8
SUNPOU
100
AcDbLine
 10
3512.429052763142
 20
1792.168933625339
 30
0.0
 11
3512.429052763142
 21
1797.168933625339
 31
0.0
  0
LINE
  5
176A2
330
17989
100
AcDbEntity
  8
SUNPOU
100
AcDbLine
 10
3068.429052763142
 20
1752.168933625339
 30
0.0
 11
3492.429052763142
 21
1752.168933625339
 31
0.0
  0
LINE
  5
176A6
330
17989
100
AcDbEntity
  8
SUNPOU
100
AcDbLine
 10
3512.429052763142
 20
1792.168933625339
 30
0.0
 11
3512.429052763142
 21
1797.168933625339
 31
0.0
  0
LINE
  5
176A7
330
17989
100
AcDbEntity
  8
SUNPOU
100
AcDbLine
 10
4312.429052763162
 20
2011.155848651585
 30
0.0
 11
4312.429052763162
 21
1707.168933625339
 31
0.0
  0
LINE
  5
176A8
330
17989
100
AcDbEntity
  8
SUNPOU
100
AcDbLine
 10
3532.429052763142
 20
1752.168933625339
 30
0.0
 11
4292.429052763162
 21
1752.168933625339
 31
0.0
  0
LINE
  5
176AC
330
17989
100
AcDbEntity
  8
SUNPOU
100
AcDbLine
 10
2248.429052763157
 20
2011.155848651583
 30
0.0
 11
2248.429052763157
 21
1707.168933625339
 31
0.0
  0
LINE
  5
176AD
330
17989
100
AcDbEntity
  8
SUNPOU
100
AcDbLine
 10
3048.429052763142
 20
1792.168933625339
 30
0.0
 11
3048.429052763142
 21
1797.168933625339
 31
0.0
  0
LINE
  5
176AE
330
17989
100
AcDbEntity
  8
SUNPOU
100
AcDbLine
 10
2268.429052763156
 20
1752.168933625339
 30
0.0
 11
3028.429052763142
 21
1752.168933625339
 31
0.0
  0
LINE
  5
176B2
330
17989
100
AcDbEntity
  8
SUNPOU
100
AcDbLine
 10
2248.429052763157
 20
2011.155848651583
 30
0.0
 11
2248.429052763157
 21
1497.168933625339
 31
0.0
  0
LINE
  5
176B3
330
17989
100
AcDbEntity
  8
SUNPOU
100
AcDbLine
 10
4312.429052763162
 20
2011.155848651585
 30
0.0
 11
4312.429052763162
 21
1497.168933625339
 31
0.0
  0
LINE
  5
176B4
330
17989
100
AcDbEntity
  8
SUNPOU
100
AcDbLine
 10
2268.429052763156
 20
1542.168933625339
 30
0.0
 11
4292.429052763162
 21
1542.168933625339
 31
0.0
  0
LINE
  5
176B8
330
17989
100
AcDbEntity
  8
SUNPOU
100
AcDbLine
 10
2664.429052763157
 20
3339.155848651583
 30
0.0
 11
2664.429052763157
 21
3737.530553718546
 31
0.0
  0
LINE
  5
176B9
330
17989
100
AcDbEntity
  8
SUNPOU
100
AcDbLine
 10
3896.429052763157
 20
3339.155848651583
 30
0.0
 11
3896.429052763157
 21
3737.530553718546
 31
0.0
  0
LINE
  5
176BA
330
17989
100
AcDbEntity
  8
SUNPOU
100
AcDbLine
 10
2684.429052763157
 20
3692.530553718546
 30
0.0
 11
3876.429052763157
 21
3692.530553718546
 31
0.0
  0
LINE
  5
176BE
330
17989
100
AcDbEntity
  8
SUNPOU
100
AcDbLine
 10
4774.604572265885
 20
3059.155848651583
 30
0.0
 11
4983.007034603488
 21
3059.155848651583
 31
0.0
  0
LINE
  5
176BF
330
17989
100
AcDbEntity
  8
SUNPOU
100
AcDbLine
 10
4432.429052763157
 20
2291.155848651587
 30
0.0
 11
4983.007034603488
 21
2291.155848651587
 31
0.0
  0
LINE
  5
176C0
330
17989
100
AcDbEntity
  8
SUNPOU
100
AcDbLine
 10
4938.007034603488
 20
3039.155848651584
 30
0.0
 11
4938.007034603488
 21
2311.155848651587
 31
0.0
  0
LINE
  5
176C4
330
17989
100
AcDbEntity
  8
SUNPOU
100
AcDbLine
 10
4774.604572265885
 20
3299.155848651583
 30
0.0
 11
4983.007034603488
 21
3299.155848651583
 31
0.0
  0
LINE
  5
176C5
330
17989
100
AcDbEntity
  8
SUNPOU
100
AcDbLine
 10
4774.604572265885
 20
3059.155848651583
 30
0.0
 11
4983.007034603488
 21
3059.155848651583
 31
0.0
  0
LINE
  5
176C6
330
17989
100
AcDbEntity
  8
SUNPOU
100
AcDbLine
 10
4938.007034603488
 20
3279.155848651583
 30
0.0
 11
4938.007034603488
 21
3079.155848651583
 31
0.0
  0
LINE
  5
176CA
330
17989
100
AcDbEntity
  8
SUNPOU
100
AcDbLine
 10
4432.429052763157
 20
2211.155848651588
 30
0.0
 11
5193.007034603488
 21
2211.155848651588
 31
0.0
  0
LINE
  5
176CB
330
17989
100
AcDbEntity
  8
SUNPOU
100
AcDbLine
 10
4432.429052763157
 20
2291.155848651588
 30
0.0
 11
5193.007034603488
 21
2291.155848651588
 31
0.0
  0
LINE
  5
176CC
330
17989
100
AcDbEntity
  8
SUNPOU
100
AcDbLine
 10
5148.007034603488
 20
2191.155848651588
 30
0.0
 11
5148.007034603488
 21
2171.155848651588
 31
0.0
  0
LINE
  5
176CD
330
17989
100
AcDbEntity
  8
SUNPOU
100
AcDbLine
 10
5148.007034603488
 20
2311.155848651588
 30
0.0
 11
5148.007034603488
 21
2331.155848651588
 31
0.0
  0
LINE
  5
176CF
330
17989
100
AcDbEntity
  8
SUNPOU
100
AcDbLine
 10
5148.007034603488
 20
2211.155848651588
 30
0.0
 11
5148.007034603488
 21
2291.155848651588
 31
0.0
  0
LINE
  5
176D2
330
17989
100
AcDbEntity
  8
SUNPOU
100
AcDbLine
 10
4432.429052763157
 20
2211.155848651588
 30
0.0
 11
5193.007034603488
 21
2211.155848651588
 31
0.0
  0
LINE
  5
176D3
330
17989
100
AcDbEntity
  8
SUNPOU
100
AcDbLine
 10
4432.429052763157
 20
2051.155848651589
 30
0.0
 11
5193.007034603488
 21
2051.155848651589
 31
0.0
  0
LINE
  5
176D4
330
17989
100
AcDbEntity
  8
SUNPOU
100
AcDbLine
 10
5148.007034603488
 20
2191.155848651588
 30
0.0
 11
5148.007034603488
 21
2071.155848651589
 31
0.0
  0
LINE
  5
176D5
330
17989
100
AcDbEntity
  8
SUNPOU
100
AcDbLine
 10
5148.007034603488
 20
2051.155848651589
 30
0.0
 11
5148.007034603487
 21
1795.441562937302
 31
0.0
  0
LINE
  5
176D9
330
17989
100
AcDbEntity
  8
SUNPOU
100
AcDbLine
 10
4774.604572265885
 20
3299.155848651583
 30
0.0
 11
5193.007034603488
 21
3299.155848651582
 31
0.0
  0
LINE
  5
176DA
330
17989
100
AcDbEntity
  8
SUNPOU
100
AcDbLine
 10
4432.429052763157
 20
2291.155848651588
 30
0.0
 11
5193.007034603488
 21
2291.155848651588
 31
0.0
  0
LINE
  5
176DB
330
17989
100
AcDbEntity
  8
SUNPOU
100
AcDbLine
 10
5148.007034603488
 20
3279.155848651583
 30
0.0
 11
5148.007034603488
 21
2311.155848651588
 31
0.0
  0
LINE
  5
176E0
330
17989
100
AcDbEntity
  8
SUNPOU
100
AcDbLine
 10
6055.044979629257
 20
3185.603629464091
 30
0.0
 11
6055.044979629257
 21
3170.603629464091
 31
0.0
  0
LINE
  5
176E2
330
17989
100
AcDbEntity
  8
SUNPOU
100
AcDbLine
 10
6055.044979629257
 20
2159.603629464092
 30
0.0
 11
6055.044979629257
 21
2174.603629464091
 31
0.0
  0
LINE
  5
176E4
330
17989
100
AcDbEntity
  8
SUNPOU
100
AcDbLine
 10
8405.306062185525
 20
3583.981713706492
 30
0.0
 11
8390.306062185526
 21
3583.981713706492
 31
0.0
  0
LINE
  5
176E6
330
17989
100
AcDbEntity
  8
SUNPOU
100
AcDbLine
 10
6595.306062185521
 20
3583.981713706492
 30
0.0
 11
6610.306062185522
 21
3583.981713706492
 31
0.0
  0
LINE
  5
176E7
330
17989
100
AcDbEntity
  8
SUNPOU
100
AcDbLine
 10
8476.306062185519
 20
2288.603629464088
 30
0.0
 11
9028.171970751353
 21
2288.603629464088
 31
0.0
  0
LINE
  5
176E8
330
17989
100
AcDbEntity
  8
SUNPOU
100
AcDbLine
 10
8476.306062185519
 20
3056.603629464088
 30
0.0
 11
9028.171970751353
 21
3056.603629464088
 31
0.0
  0
LINE
  5
176E9
330
17989
100
AcDbEntity
  8
SUNPOU
100
AcDbLine
 10
8983.171970751349
 20
2308.603629464088
 30
0.0
 11
8983.171970751349
 21
3036.603629464088
 31
0.0
  0
LINE
  5
176ED
330
17989
100
AcDbEntity
  8
SUNPOU
100
AcDbLine
 10
8572.306062185525
 20
3312.603629464089
 30
0.0
 11
9238.171970751348
 21
3312.603629464087
 31
0.0
  0
LINE
  5
176EE
330
17989
100
AcDbEntity
  8
SUNPOU
100
AcDbLine
 10
8572.306062185525
 20
2032.603629464089
 30
0.0
 11
9238.171970751348
 21
2032.603629464089
 31
0.0
  0
LINE
  5
176EF
330
17989
100
AcDbEntity
  8
SUNPOU
100
AcDbLine
 10
9193.171970751349
 20
3292.603629464088
 30
0.0
 11
9193.171970751349
 21
2052.603629464089
 31
0.0
  0
LINE
  5
176F3
330
17989
100
AcDbEntity
  8
SUNPOU
100
AcDbLine
 10
8116.306062185522
 20
2248.603629464088
 30
0.0
 11
8116.306062185522
 21
1707.168933625339
 31
0.0
  0
LINE
  5
176F4
330
17989
100
AcDbEntity
  8
SUNPOU
100
AcDbLine
 10
6884.306062185527
 20
2248.603629464088
 30
0.0
 11
6884.306062185527
 21
1707.168933625339
 31
0.0
  0
LINE
  5
176F5
330
17989
100
AcDbEntity
  8
SUNPOU
100
AcDbLine
 10
8096.306062185524
 20
1752.168933625339
 30
0.0
 11
6904.306062185526
 21
1752.168933625339
 31
0.0
  0
LINE
  5
176F9
330
17989
100
AcDbEntity
  8
SUNPOU
100
AcDbLine
 10
6468.306062185526
 20
1992.603629464086
 30
0.0
 11
6468.306062185526
 21
1497.168933625339
 31
0.0
  0
LINE
  5
176FA
330
17989
100
AcDbEntity
  8
SUNPOU
100
AcDbLine
 10
8532.306062185526
 20
1992.603629464086
 30
0.0
 11
8532.306062185526
 21
1497.168933625339
 31
0.0
  0
LINE
  5
176FB
330
17989
100
AcDbEntity
  8
SUNPOU
100
AcDbLine
 10
6488.306062185526
 20
1542.168933625339
 30
0.0
 11
8512.306062185526
 21
1542.168933625339
 31
0.0
  0
ARC
  5
176FF
330
17989
100
AcDbEntity
  8
SUNPOU
100
AcDbCircle
 10
13206.80156980275
 20
8626.279066364539
 30
0.0
 40
5.625
100
AcDbArc
 50
270.0
 51
90.0
  0
ARC
  5
17700
330
17989
100
AcDbEntity
  8
SUNPOU
100
AcDbCircle
 10
13206.80156980275
 20
8626.279066364539
 30
0.0
 40
5.625
100
AcDbArc
 50
90.0
 51
270.0
  0
ARC
  5
17701
330
17989
100
AcDbEntity
  8
SUNPOU
100
AcDbCircle
 10
13206.80156980275
 20
8366.279066364539
 30
0.0
 40
5.625
100
AcDbArc
 50
270.0
 51
90.0
  0
ARC
  5
17702
330
17989
100
AcDbEntity
  8
SUNPOU
100
AcDbCircle
 10
13206.80156980275
 20
8366.279066364539
 30
0.0
 40
5.625
100
AcDbArc
 50
90.0
 51
270.0
  0
ARC
  5
17703
330
17989
100
AcDbEntity
  8
SUNPOU
100
AcDbCircle
 10
13206.80156980275
 20
8366.279066364539
 30
0.0
 40
5.625
100
AcDbArc
 50
90.0
 51
270.0
  0
ARC
  5
17704
330
17989
100
AcDbEntity
  8
SUNPOU
100
AcDbCircle
 10
13206.80156980275
 20
8366.279066364539
 30
0.0
 40
5.625
100
AcDbArc
 50
270.0
 51
90.0
  0
ARC
  5
17705
330
17989
100
AcDbEntity
  8
SUNPOU
100
AcDbCircle
 10
12996.80156980275
 20
8366.279066364539
 30
0.0
 40
5.625
100
AcDbArc
 50
90.0
 51
270.0
  0
ARC
  5
17706
330
17989
100
AcDbEntity
  8
SUNPOU
100
AcDbCircle
 10
12996.80156980275
 20
8366.279066364539
 30
0.0
 40
5.625
100
AcDbArc
 50
270.0
 51
90.0
  0
ARC
  5
17707
330
17989
100
AcDbEntity
  8
SUNPOU
100
AcDbCircle
 10
12996.80156980275
 20
8226.279066364538
 30
0.0
 40
5.625
100
AcDbArc
 50
90.0
 51
270.0
  0
ARC
  5
17708
330
17989
100
AcDbEntity
  8
SUNPOU
100
AcDbCircle
 10
12996.80156980275
 20
8226.279066364538
 30
0.0
 40
5.625
100
AcDbArc
 50
270.0
 51
90.0
  0
ARC
  5
17709
330
17989
100
AcDbEntity
  8
SUNPOU
100
AcDbCircle
 10
12996.80156980275
 20
8226.279066364538
 30
0.0
 40
5.625
100
AcDbArc
 50
270.0
 51
90.0
  0
ARC
  5
1770A
330
17989
100
AcDbEntity
  8
SUNPOU
100
AcDbCircle
 10
12996.80156980275
 20
8226.279066364538
 30
0.0
 40
5.625
100
AcDbArc
 50
90.0
 51
270.0
  0
ARC
  5
1770B
330
17989
100
AcDbEntity
  8
SUNPOU
100
AcDbCircle
 10
12996.80156980275
 20
8026.279066364539
 30
0.0
 40
5.625
100
AcDbArc
 50
90.0
 51
270.0
  0
ARC
  5
1770C
330
17989
100
AcDbEntity
  8
SUNPOU
100
AcDbCircle
 10
12996.80156980275
 20
8026.279066364539
 30
0.0
 40
5.625
100
AcDbArc
 50
270.0
 51
90.0
  0
ARC
  5
1770D
330
17989
100
AcDbEntity
  8
SUNPOU
100
AcDbCircle
 10
12996.80156980275
 20
8026.279066364539
 30
0.0
 40
5.625
100
AcDbArc
 50
270.0
 51
90.0
  0
ARC
  5
1770E
330
17989
100
AcDbEntity
  8
SUNPOU
100
AcDbCircle
 10
12996.80156980275
 20
8026.279066364539
 30
0.0
 40
5.625
100
AcDbArc
 50
90.0
 51
270.0
  0
ARC
  5
1770F
330
17989
100
AcDbEntity
  8
SUNPOU
100
AcDbCircle
 10
12996.80156980275
 20
7936.279066364541
 30
0.0
 40
5.625
100
AcDbArc
 50
270.0
 51
90.0
  0
ARC
  5
17710
330
17989
100
AcDbEntity
  8
SUNPOU
100
AcDbCircle
 10
12996.80156980275
 20
7936.279066364541
 30
0.0
 40
5.625
100
AcDbArc
 50
90.0
 51
270.0
  0
ARC
  5
17711
330
17989
100
AcDbEntity
  8
SUNPOU
100
AcDbCircle
 10
12996.80156980275
 20
7936.279066364541
 30
0.0
 40
5.625
100
AcDbArc
 50
90.0
 51
270.0
  0
ARC
  5
17712
330
17989
100
AcDbEntity
  8
SUNPOU
100
AcDbCircle
 10
12996.80156980275
 20
7936.279066364541
 30
0.0
 40
5.625
100
AcDbArc
 50
270.0
 51
90.0
  0
ARC
  5
17713
330
17989
100
AcDbEntity
  8
SUNPOU
100
AcDbCircle
 10
12996.80156980275
 20
7736.279066364541
 30
0.0
 40
5.625
100
AcDbArc
 50
270.0
 51
90.0
  0
ARC
  5
17714
330
17989
100
AcDbEntity
  8
SUNPOU
100
AcDbCircle
 10
12996.80156980275
 20
7736.279066364541
 30
0.0
 40
5.625
100
AcDbArc
 50
90.0
 51
270.0
  0
ARC
  5
17715
330
17989
100
AcDbEntity
  8
SUNPOU
100
AcDbCircle
 10
12996.80156980275
 20
7736.279066364541
 30
0.0
 40
5.625
100
AcDbArc
 50
90.0
 51
270.0
  0
ARC
  5
17716
330
17989
100
AcDbEntity
  8
SUNPOU
100
AcDbCircle
 10
12996.80156980275
 20
7736.279066364541
 30
0.0
 40
5.625
100
AcDbArc
 50
270.0
 51
90.0
  0
ARC
  5
17717
330
17989
100
AcDbEntity
  8
SUNPOU
100
AcDbCircle
 10
13206.80156980275
 20
7596.279066364537
 30
0.0
 40
5.625
100
AcDbArc
 50
270.0
 51
90.0
  0
ARC
  5
17718
330
17989
100
AcDbEntity
  8
SUNPOU
100
AcDbCircle
 10
13206.80156980275
 20
7596.279066364537
 30
0.0
 40
5.625
100
AcDbArc
 50
90.0
 51
270.0
  0
ARC
  5
17719
330
17989
100
AcDbEntity
  8
SUNPOU
100
AcDbCircle
 10
13206.80156980275
 20
7596.279066364537
 30
0.0
 40
5.625
100
AcDbArc
 50
90.0
 51
270.0
  0
ARC
  5
1771A
330
17989
100
AcDbEntity
  8
SUNPOU
100
AcDbCircle
 10
13206.80156980275
 20
7596.279066364537
 30
0.0
 40
5.625
100
AcDbArc
 50
270.0
 51
90.0
  0
ARC
  5
1771B
330
17989
100
AcDbEntity
  8
SUNPOU
100
AcDbCircle
 10
12996.80156980275
 20
7596.279066364537
 30
0.0
 40
5.625
100
AcDbArc
 50
90.0
 51
270.0
  0
ARC
  5
1771C
330
17989
100
AcDbEntity
  8
SUNPOU
100
AcDbCircle
 10
12996.80156980275
 20
7596.279066364537
 30
0.0
 40
5.625
100
AcDbArc
 50
270.0
 51
90.0
  0
ARC
  5
1771D
330
17989
100
AcDbEntity
  8
SUNPOU
100
AcDbCircle
 10
13206.80156980275
 20
7336.279066364538
 30
0.0
 40
5.625
100
AcDbArc
 50
90.0
 51
270.0
  0
ARC
  5
1771E
330
17989
100
AcDbEntity
  8
SUNPOU
100
AcDbCircle
 10
13206.80156980275
 20
7336.279066364538
 30
0.0
 40
5.625
100
AcDbArc
 50
270.0
 51
90.0
  0
ARC
  5
1771F
330
17989
100
AcDbEntity
  8
SUNPOU
100
AcDbCircle
 10
12546.80156980275
 20
6876.279066364539
 30
0.0
 40
5.625
100
AcDbArc
 50
0.0
 51
180.0
  0
ARC
  5
17720
330
17989
100
AcDbEntity
  8
SUNPOU
100
AcDbCircle
 10
12546.80156980275
 20
6876.279066364539
 30
0.0
 40
5.625
100
AcDbArc
 50
180.0
 51
0.0
  0
ARC
  5
17721
330
17989
100
AcDbEntity
  8
SUNPOU
100
AcDbCircle
 10
12546.80156980275
 20
6666.279066364538
 30
0.0
 40
5.625
100
AcDbArc
 50
0.0
 51
180.0
  0
ARC
  5
17722
330
17989
100
AcDbEntity
  8
SUNPOU
100
AcDbCircle
 10
12546.80156980275
 20
6666.279066364538
 30
0.0
 40
5.625
100
AcDbArc
 50
180.0
 51
0.0
  0
ARC
  5
17723
330
17989
100
AcDbEntity
  8
SUNPOU
100
AcDbCircle
 10
12386.80156980275
 20
6876.279066364539
 30
0.0
 40
5.625
100
AcDbArc
 50
0.0
 51
180.0
  0
ARC
  5
17724
330
17989
100
AcDbEntity
  8
SUNPOU
100
AcDbCircle
 10
12386.80156980275
 20
6876.279066364539
 30
0.0
 40
5.625
100
AcDbArc
 50
180.0
 51
0.0
  0
ARC
  5
17725
330
17989
100
AcDbEntity
  8
SUNPOU
100
AcDbCircle
 10
12386.80156980275
 20
6876.279066364539
 30
0.0
 40
5.625
100
AcDbArc
 50
180.0
 51
0.0
  0
ARC
  5
17726
330
17989
100
AcDbEntity
  8
SUNPOU
100
AcDbCircle
 10
12386.80156980275
 20
6876.279066364539
 30
0.0
 40
5.625
100
AcDbArc
 50
0.0
 51
180.0
  0
ARC
  5
17727
330
17989
100
AcDbEntity
  8
SUNPOU
100
AcDbCircle
 10
12246.80156980275
 20
7086.279066364538
 30
0.0
 40
5.625
100
AcDbArc
 50
0.0
 51
180.0
  0
ARC
  5
17728
330
17989
100
AcDbEntity
  8
SUNPOU
100
AcDbCircle
 10
12246.80156980275
 20
7086.279066364538
 30
0.0
 40
5.625
100
AcDbArc
 50
180.0
 51
0.0
  0
ARC
  5
17729
330
17989
100
AcDbEntity
  8
SUNPOU
100
AcDbCircle
 10
12046.80156980275
 20
7086.279066364538
 30
0.0
 40
5.625
100
AcDbArc
 50
180.0
 51
0.0
  0
ARC
  5
1772A
330
17989
100
AcDbEntity
  8
SUNPOU
100
AcDbCircle
 10
12046.80156980275
 20
7086.279066364538
 30
0.0
 40
5.625
100
AcDbArc
 50
0.0
 51
180.0
  0
ARC
  5
1772B
330
17989
100
AcDbEntity
  8
SUNPOU
100
AcDbCircle
 10
11446.80156980276
 20
8626.279066364539
 30
0.0
 40
5.625
100
AcDbArc
 50
270.0
 51
90.0
  0
ARC
  5
1772C
330
17989
100
AcDbEntity
  8
SUNPOU
100
AcDbCircle
 10
11446.80156980276
 20
8626.279066364539
 30
0.0
 40
5.625
100
AcDbArc
 50
90.0
 51
270.0
  0
ARC
  5
1772D
330
17989
100
AcDbEntity
  8
SUNPOU
100
AcDbCircle
 10
11236.80156980276
 20
8626.279066364539
 30
0.0
 40
5.625
100
AcDbArc
 50
270.0
 51
90.0
  0
ARC
  5
1772E
330
17989
100
AcDbEntity
  8
SUNPOU
100
AcDbCircle
 10
11236.80156980276
 20
8626.279066364539
 30
0.0
 40
5.625
100
AcDbArc
 50
90.0
 51
270.0
  0
ARC
  5
1772F
330
17989
100
AcDbEntity
  8
SUNPOU
100
AcDbCircle
 10
11446.80156980276
 20
8126.279066364539
 30
0.0
 40
5.625
100
AcDbArc
 50
270.0
 51
90.0
  0
ARC
  5
17730
330
17989
100
AcDbEntity
  8
SUNPOU
100
AcDbCircle
 10
11446.80156980276
 20
8126.279066364539
 30
0.0
 40
5.625
100
AcDbArc
 50
90.0
 51
270.0
  0
ARC
  5
17731
330
17989
100
AcDbEntity
  8
SUNPOU
100
AcDbCircle
 10
11446.80156980276
 20
7836.279066364538
 30
0.0
 40
5.625
100
AcDbArc
 50
270.0
 51
90.0
  0
ARC
  5
17732
330
17989
100
AcDbEntity
  8
SUNPOU
100
AcDbCircle
 10
11446.80156980276
 20
7836.279066364538
 30
0.0
 40
5.625
100
AcDbArc
 50
90.0
 51
270.0
  0
ARC
  5
17733
330
17989
100
AcDbEntity
  8
SUNPOU
100
AcDbCircle
 10
11446.80156980276
 20
7836.279066364538
 30
0.0
 40
5.625
100
AcDbArc
 50
90.0
 51
270.0
  0
ARC
  5
17734
330
17989
100
AcDbEntity
  8
SUNPOU
100
AcDbCircle
 10
11446.80156980276
 20
7836.279066364538
 30
0.0
 40
5.625
100
AcDbArc
 50
270.0
 51
90.0
  0
ARC
  5
17735
330
17989
100
AcDbEntity
  8
SUNPOU
100
AcDbCircle
 10
11446.80156980276
 20
8126.279066364539
 30
0.0
 40
5.625
100
AcDbArc
 50
90.0
 51
270.0
  0
ARC
  5
17736
330
17989
100
AcDbEntity
  8
SUNPOU
100
AcDbCircle
 10
11446.80156980276
 20
8126.279066364539
 30
0.0
 40
5.625
100
AcDbArc
 50
270.0
 51
90.0
  0
ARC
  5
17737
330
17989
100
AcDbEntity
  8
SUNPOU
100
AcDbCircle
 10
11446.80156980276
 20
7336.279066364538
 30
0.0
 40
5.625
100
AcDbArc
 50
90.0
 51
270.0
  0
ARC
  5
17738
330
17989
100
AcDbEntity
  8
SUNPOU
100
AcDbCircle
 10
11446.80156980276
 20
7336.279066364538
 30
0.0
 40
5.625
100
AcDbArc
 50
270.0
 51
90.0
  0
ARC
  5
17739
330
17989
100
AcDbEntity
  8
SUNPOU
100
AcDbCircle
 10
11236.80156980276
 20
7336.279066364538
 30
0.0
 40
5.625
100
AcDbArc
 50
90.0
 51
270.0
  0
ARC
  5
1773A
330
17989
100
AcDbEntity
  8
SUNPOU
100
AcDbCircle
 10
11236.80156980276
 20
7336.279066364538
 30
0.0
 40
5.625
100
AcDbArc
 50
270.0
 51
90.0
  0
ARC
  5
1773B
330
17989
100
AcDbEntity
  8
SUNPOU
100
AcDbCircle
 10
11906.80156980275
 20
6876.279066364539
 30
0.0
 40
5.625
100
AcDbArc
 50
0.0
 51
180.0
  0
ARC
  5
1773C
330
17989
100
AcDbEntity
  8
SUNPOU
100
AcDbCircle
 10
11906.80156980275
 20
6876.279066364539
 30
0.0
 40
5.625
100
AcDbArc
 50
180.0
 51
0.0
  0
ARC
  5
1773D
330
17989
100
AcDbEntity
  8
SUNPOU
100
AcDbCircle
 10
11906.80156980275
 20
6876.279066364539
 30
0.0
 40
5.625
100
AcDbArc
 50
180.0
 51
0.0
  0
ARC
  5
1773E
330
17989
100
AcDbEntity
  8
SUNPOU
100
AcDbCircle
 10
11906.80156980275
 20
6876.279066364539
 30
0.0
 40
5.625
100
AcDbArc
 50
0.0
 51
180.0
  0
ARC
  5
1773F
330
17989
100
AcDbEntity
  8
SUNPOU
100
AcDbCircle
 10
11746.80156980275
 20
6876.279066364539
 30
0.0
 40
5.624999999996362
100
AcDbArc
 50
180.0
 51
0.0
  0
ARC
  5
17740
330
17989
100
AcDbEntity
  8
SUNPOU
100
AcDbCircle
 10
11746.80156980275
 20
6876.279066364539
 30
0.0
 40
5.624999999996362
100
AcDbArc
 50
0.0
 51
180.0
  0
ARC
  5
17741
330
17989
100
AcDbEntity
  8
SUNPOU
100
AcDbCircle
 10
11746.80156980275
 20
6666.279066364538
 30
0.0
 40
5.624999999996362
100
AcDbArc
 50
180.0
 51
0.0
  0
ARC
  5
17742
330
17989
100
AcDbEntity
  8
SUNPOU
100
AcDbCircle
 10
11746.80156980275
 20
6666.279066364538
 30
0.0
 40
5.624999999996362
100
AcDbArc
 50
0.0
 51
180.0
  0
TEXT
  5
17743
330
17989
100
AcDbEntity
  8
SUNPOU
100
AcDbText
 10
7271.349226945602
 20
5221.279066364539
 30
0.0
 40
90.0
  1
L = 2800 × N + 800
 41
0.6667
  7
00
100
AcDbText
  0
LINE
  5
17745
330
17989
100
AcDbEntity
  8
SUNPOU
100
AcDbLine
 10
12531.80156980274
 20
5176.279066364539
 30
0.0
 11
12516.80156980274
 21
5176.279066364539
 31
0.0
  0
LINE
  5
17747
330
17989
100
AcDbEntity
  8
SUNPOU
100
AcDbLine
 10
2961.801569802748
 20
5176.279066364539
 30
0.0
 11
2976.801569802749
 21
5176.279066364539
 31
0.0
  0
TEXT
  5
17748
330
17989
100
AcDbEntity
  8
SUNPOU
100
AcDbText
 10
12261.08728408844
 20
5431.279066364539
 30
0.0
 40
90.0
  1
400
 41
0.6666666666666666
  7
00
100
AcDbText
  0
LINE
  5
1774A
330
17989
100
AcDbEntity
  8
SUNPOU
100
AcDbLine
 10
12531.80156980274
 20
5386.279066364539
 30
0.0
 11
12516.80156980274
 21
5386.279066364539
 31
0.0
  0
LINE
  5
1774C
330
17989
100
AcDbEntity
  8
SUNPOU
100
AcDbLine
 10
12161.80156980274
 20
5386.279066364539
 30
0.0
 11
12176.80156980274
 21
5386.279066364539
 31
0.0
  0
TEXT
  5
1774D
330
17989
100
AcDbEntity
  8
SUNPOU
100
AcDbText
 10
10632.51585551703
 20
5431.279066364539
 30
0.0
 40
90.0
  1
2800
 41
0.6666666666666666
  7
00
100
AcDbText
  0
LINE
  5
1774F
330
17989
100
AcDbEntity
  8
SUNPOU
100
AcDbLine
 10
12131.80156980274
 20
5386.279066364539
 30
0.0
 11
12116.80156980274
 21
5386.279066364539
 31
0.0
  0
LINE
  5
17751
330
17989
100
AcDbEntity
  8
SUNPOU
100
AcDbLine
 10
9361.801569802748
 20
5386.279066364539
 30
0.0
 11
9376.801569802749
 21
5386.279066364539
 31
0.0
  0
TEXT
  5
17752
330
17989
100
AcDbEntity
  8
SUNPOU
100
AcDbText
 10
7357.087284088462
 20
5431.279066364539
 30
0.0
 40
90.0
  1
2800 ×（ N - 2 ）
 41
0.6666666666666666
  7
00
100
AcDbText
  0
LINE
  5
17754
330
17989
100
AcDbEntity
  8
SUNPOU
100
AcDbLine
 10
9331.801569802747
 20
5386.279066364539
 30
0.0
 11
9316.801569802748
 21
5386.279066364539
 31
0.0
  0
LINE
  5
17756
330
17989
100
AcDbEntity
  8
SUNPOU
100
AcDbLine
 10
6161.801569802747
 20
5386.279066364539
 30
0.0
 11
6176.80156980275
 21
5386.279066364539
 31
0.0
  0
TEXT
  5
17757
330
17989
100
AcDbEntity
  8
SUNPOU
100
AcDbText
 10
4632.515855517034
 20
5431.279066364539
 30
0.0
 40
90.0
  1
2800
 41
0.6666666666666666
  7
00
100
AcDbText
  0
LINE
  5
17759
330
17989
100
AcDbEntity
  8
SUNPOU
100
AcDbLine
 10
6131.801569802746
 20
5386.279066364539
 30
0.0
 11
6116.801569802746
 21
5386.279066364539
 31
0.0
  0
LINE
  5
1775B
330
17989
100
AcDbEntity
  8
SUNPOU
100
AcDbLine
 10
3361.801569802749
 20
5386.279066364539
 30
0.0
 11
3376.801569802748
 21
5386.279066364539
 31
0.0
  0
TEXT
  5
1775C
330
17989
100
AcDbEntity
  8
SUNPOU
100
AcDbText
 10
3061.087284088463
 20
5431.279066364539
 30
0.0
 40
90.0
  1
400
 41
0.6666666666666666
  7
00
100
AcDbText
  0
LINE
  5
1775E
330
17989
100
AcDbEntity
  8
SUNPOU
100
AcDbLine
 10
3331.801569802749
 20
5386.279066364539
 30
0.0
 11
3316.801569802748
 21
5386.279066364539
 31
0.0
  0
LINE
  5
17760
330
17989
100
AcDbEntity
  8
SUNPOU
100
AcDbLine
 10
2961.801569802748
 20
5386.279066364539
 30
0.0
 11
2976.801569802749
 21
5386.279066364539
 31
0.0
  0
TEXT
  5
17761
330
17989
100
AcDbEntity
  8
SUNPOU
100
AcDbText
 10
3194.714767048856
 20
1797.168933625339
 30
0.0
 40
90.0
  1
290
 41
0.6666666666666666
  7
00
100
AcDbText
  0
LINE
  5
17763
330
17989
100
AcDbEntity
  8
SUNPOU
100
AcDbLine
 10
3497.429052763142
 20
1752.168933625339
 30
0.0
 11
3482.429052763142
 21
1752.168933625339
 31
0.0
  0
LINE
  5
17765
330
17989
100
AcDbEntity
  8
SUNPOU
100
AcDbLine
 10
3063.429052763142
 20
1752.168933625339
 30
0.0
 11
3078.429052763142
 21
1752.168933625339
 31
0.0
  0
TEXT
  5
17766
330
17989
100
AcDbEntity
  8
SUNPOU
100
AcDbText
 10
3826.714767048867
 20
1797.168933625339
 30
0.0
 40
90.0
  1
500
 41
0.6666666666666666
  7
00
100
AcDbText
  0
LINE
  5
17768
330
17989
100
AcDbEntity
  8
SUNPOU
100
AcDbLine
 10
4297.429052763162
 20
1752.168933625339
 30
0.0
 11
4282.429052763164
 21
1752.168933625339
 31
0.0
  0
LINE
  5
1776A
330
17989
100
AcDbEntity
  8
SUNPOU
100
AcDbLine
 10
3527.429052763142
 20
1752.168933625339
 30
0.0
 11
3542.429052763142
 21
1752.168933625339
 31
0.0
  0
TEXT
  5
1776B
330
17989
100
AcDbEntity
  8
SUNPOU
100
AcDbText
 10
2562.714767048865
 20
1797.168933625339
 30
0.0
 40
90.0
  1
500
 41
0.6666666666666666
  7
00
100
AcDbText
  0
LINE
  5
1776D
330
17989
100
AcDbEntity
  8
SUNPOU
100
AcDbLine
 10
3033.429052763142
 20
1752.168933625339
 30
0.0
 11
3018.429052763142
 21
1752.168933625339
 31
0.0
  0
LINE
  5
1776F
330
17989
100
AcDbEntity
  8
SUNPOU
100
AcDbLine
 10
2263.429052763157
 20
1752.168933625339
 30
0.0
 11
2278.429052763156
 21
1752.168933625339
 31
0.0
  0
TEXT
  5
17770
330
17989
100
AcDbEntity
  8
SUNPOU
100
AcDbText
 10
3161.857624191731
 20
1587.168933625339
 30
0.0
 40
90.0
  1
1290
 41
0.6666666666666666
  7
00
100
AcDbText
  0
LINE
  5
17772
330
17989
100
AcDbEntity
  8
SUNPOU
100
AcDbLine
 10
4297.429052763162
 20
1542.168933625339
 30
0.0
 11
4282.429052763164
 21
1542.168933625339
 31
0.0
  0
LINE
  5
17774
330
17989
100
AcDbEntity
  8
SUNPOU
100
AcDbLine
 10
2263.429052763157
 20
1542.168933625339
 30
0.0
 11
2278.429052763156
 21
1542.168933625339
 31
0.0
  0
TEXT
  5
17775
330
17989
100
AcDbEntity
  8
SUNPOU
100
AcDbText
 10
3194.714767048871
 20
3737.530553718546
 30
0.0
 40
90.0
  1
770
 41
0.6666666666666666
  7
00
100
AcDbText
  0
LINE
  5
17777
330
17989
100
AcDbEntity
  8
SUNPOU
100
AcDbLine
 10
3881.429052763156
 20
3692.530553718546
 30
0.0
 11
3866.429052763157
 21
3692.530553718546
 31
0.0
  0
LINE
  5
17779
330
17989
100
AcDbEntity
  8
SUNPOU
100
AcDbLine
 10
2679.429052763157
 20
3692.530553718546
 30
0.0
 11
2694.429052763157
 21
3692.530553718546
 31
0.0
  0
TEXT
  5
1777A
330
17989
100
AcDbEntity
  8
SUNPOU
100
AcDbText
 10
4893.007034603487
 20
2589.441562937299
 30
0.0
 40
90.0
  1
480
 50
90.0
 41
0.6666666666666666
  7
00
100
AcDbText
  0
LINE
  5
1777C
330
17989
100
AcDbEntity
  8
SUNPOU
100
AcDbLine
 10
4938.007034603488
 20
2306.155848651586
 30
0.0
 11
4938.007034603488
 21
2321.155848651587
 31
0.0
  0
LINE
  5
1777E
330
17989
100
AcDbEntity
  8
SUNPOU
100
AcDbLine
 10
4938.007034603488
 20
3044.155848651584
 30
0.0
 11
4938.007034603488
 21
3029.155848651583
 31
0.0
  0
TEXT
  5
1777F
330
17989
100
AcDbEntity
  8
SUNPOU
100
AcDbText
 10
4893.007034603487
 20
3089.155848651583
 30
0.0
 40
90.0
  1
150
 50
90.0
 41
0.6666666666666666
  7
00
100
AcDbText
  0
LINE
  5
17781
330
17989
100
AcDbEntity
  8
SUNPOU
100
AcDbLine
 10
4938.007034603488
 20
3074.155848651583
 30
0.0
 11
4938.007034603488
 21
3089.155848651583
 31
0.0
  0
LINE
  5
17783
330
17989
100
AcDbEntity
  8
SUNPOU
100
AcDbLine
 10
4938.007034603488
 20
3284.155848651584
 30
0.0
 11
4938.007034603488
 21
3269.155848651583
 31
0.0
  0
LINE
  5
17785
330
17989
100
AcDbEntity
  8
SUNPOU
100
AcDbLine
 10
5148.007034603488
 20
2306.155848651588
 30
0.0
 11
5148.007034603488
 21
2321.155848651589
 31
0.0
  0
LINE
  5
17787
330
17989
100
AcDbEntity
  8
SUNPOU
100
AcDbLine
 10
5148.007034603488
 20
2196.155848651589
 30
0.0
 11
5148.007034603488
 21
2181.155848651588
 31
0.0
  0
TEXT
  5
17788
330
17989
100
AcDbEntity
  8
SUNPOU
100
AcDbText
 10
5320.630199058618
 20
2194.012991508728
 30
0.0
 40
90.0
  1
50
 50
90.0
 41
0.6666666666666666
  7
00
100
AcDbText
  0
TEXT
  5
17789
330
17989
100
AcDbEntity
  8
SUNPOU
100
AcDbText
 10
5103.007034603487
 20
1823.298705794446
 30
0.0
 40
90.0
  1
100
 50
90.0
 41
0.6666666666666666
  7
00
100
AcDbText
  0
LINE
  5
1778B
330
17989
100
AcDbEntity
  8
SUNPOU
100
AcDbLine
 10
5148.007034603488
 20
2066.155848651588
 30
0.0
 11
5148.007034603488
 21
2081.155848651588
 31
0.0
  0
LINE
  5
1778D
330
17989
100
AcDbEntity
  8
SUNPOU
100
AcDbLine
 10
5148.007034603488
 20
2196.155848651589
 30
0.0
 11
5148.007034603488
 21
2181.155848651588
 31
0.0
  0
TEXT
  5
1778E
330
17989
100
AcDbEntity
  8
SUNPOU
100
AcDbText
 10
5103.007034603487
 20
2708.012991508729
 30
0.0
 40
90.0
  1
630
 50
90.0
 41
0.6666666666666666
  7
00
100
AcDbText
  0
LINE
  5
17790
330
17989
100
AcDbEntity
  8
SUNPOU
100
AcDbLine
 10
5148.007034603488
 20
2306.155848651588
 30
0.0
 11
5148.007034603488
 21
2321.155848651589
 31
0.0
  0
LINE
  5
17792
330
17989
100
AcDbEntity
  8
SUNPOU
100
AcDbLine
 10
5148.007034603488
 20
3284.155848651582
 30
0.0
 11
5148.007034603488
 21
3269.155848651582
 31
0.0
  0
ARC
  5
17793
330
17989
100
AcDbEntity
  8
SUNPOU
100
AcDbCircle
 10
6055.044979629257
 20
3200.603629464092
 30
0.0
 40
7.5
100
AcDbArc
 50
270.0
 51
90.0
  0
ARC
  5
17794
330
17989
100
AcDbEntity
  8
SUNPOU
100
AcDbCircle
 10
6055.044979629257
 20
3200.603629464092
 30
0.0
 40
7.5
100
AcDbArc
 50
90.0
 51
270.0
  0
ARC
  5
17795
330
17989
100
AcDbEntity
  8
SUNPOU
100
AcDbCircle
 10
6055.044979629257
 20
2144.603629464091
 30
0.0
 40
7.5
100
AcDbArc
 50
90.0
 51
270.0
  0
ARC
  5
17796
330
17989
100
AcDbEntity
  8
SUNPOU
100
AcDbCircle
 10
6055.044979629257
 20
2144.603629464091
 30
0.0
 40
7.5
100
AcDbArc
 50
270.0
 51
90.0
  0
ARC
  5
17797
330
17989
100
AcDbEntity
  8
SUNPOU
100
AcDbCircle
 10
8420.306062185526
 20
3583.981713706492
 30
0.0
 40
7.5
100
AcDbArc
 50
180.0
 51
0.0
  0
ARC
  5
17798
330
17989
100
AcDbEntity
  8
SUNPOU
100
AcDbCircle
 10
8420.306062185526
 20
3583.981713706492
 30
0.0
 40
7.5
100
AcDbArc
 50
0.0
 51
180.0
  0
ARC
  5
17799
330
17989
100
AcDbEntity
  8
SUNPOU
100
AcDbCircle
 10
6580.306062185522
 20
3583.981713706492
 30
0.0
 40
7.5
100
AcDbArc
 50
0.0
 51
180.0
  0
ARC
  5
1779A
330
17989
100
AcDbEntity
  8
SUNPOU
100
AcDbCircle
 10
6580.306062185522
 20
3583.981713706492
 30
0.0
 40
7.5
100
AcDbArc
 50
180.0
 51
0.0
  0
TEXT
  5
1779B
330
17989
100
AcDbEntity
  8
SUNPOU
100
AcDbText
 10
8938.17197075135
 20
2586.889343749803
 30
0.0
 40
90.0
  1
480
 50
90.0
 41
0.6666666666666666
  7
00
100
AcDbText
  0
LINE
  5
1779D
330
17989
100
AcDbEntity
  8
SUNPOU
100
AcDbLine
 10
8983.171970751349
 20
3041.603629464088
 30
0.0
 11
8983.171970751349
 21
3026.603629464088
 31
0.0
  0
LINE
  5
1779F
330
17989
100
AcDbEntity
  8
SUNPOU
100
AcDbLine
 10
8983.171970751349
 20
2303.603629464088
 30
0.0
 11
8983.171970751349
 21
2318.603629464087
 31
0.0
  0
TEXT
  5
177A0
330
17989
100
AcDbEntity
  8
SUNPOU
100
AcDbText
 10
9148.171970751354
 20
2586.889343749804
 30
0.0
 40
90.0
  1
800
 50
90.0
 41
0.6666666666666666
  7
00
100
AcDbText
  0
LINE
  5
177A2
330
17989
100
AcDbEntity
  8
SUNPOU
100
AcDbLine
 10
9193.171970751349
 20
2047.603629464089
 30
0.0
 11
9193.171970751349
 21
2062.603629464089
 31
0.0
  0
LINE
  5
177A4
330
17989
100
AcDbEntity
  8
SUNPOU
100
AcDbLine
 10
9193.171970751349
 20
3297.603629464088
 30
0.0
 11
9193.171970751349
 21
3282.603629464088
 31
0.0
  0
TEXT
  5
177A5
330
17989
100
AcDbEntity
  8
SUNPOU
100
AcDbText
 10
7414.59177647124
 20
1797.168933625339
 30
0.0
 40
90.0
  1
770
 41
0.6666666666666666
  7
00
100
AcDbText
  0
LINE
  5
177A7
330
17989
100
AcDbEntity
  8
SUNPOU
100
AcDbLine
 10
6899.306062185527
 20
1752.168933625339
 30
0.0
 11
6914.306062185525
 21
1752.168933625339
 31
0.0
  0
LINE
  5
177A9
330
17989
100
AcDbEntity
  8
SUNPOU
100
AcDbLine
 10
8101.306062185527
 20
1752.168933625339
 30
0.0
 11
8086.306062185526
 21
1752.168933625339
 31
0.0
  0
TEXT
  5
177AA
330
17989
100
AcDbEntity
  8
SUNPOU
100
AcDbText
 10
7381.734633614098
 20
1587.168933625339
 30
0.0
 40
90.0
  1
1290
 41
0.6666666666666666
  7
00
100
AcDbText
  0
LINE
  5
177AC
330
17989
100
AcDbEntity
  8
SUNPOU
100
AcDbLine
 10
8517.306062185525
 20
1542.168933625339
 30
0.0
 11
8502.306062185526
 21
1542.168933625339
 31
0.0
  0
LINE
  5
177AE
330
17989
100
AcDbEntity
  8
SUNPOU
100
AcDbLine
 10
6483.306062185525
 20
1542.168933625339
 30
0.0
 11
6498.306062185527
 21
1542.168933625339
 31
0.0
  0
ARC
  5
177AF
330
17989
100
AcDbEntity
  8
SUNPOU
100
AcDbCircle
 10
12546.80156980274
 20
5176.279066364539
 30
0.0
 40
7.5
100
AcDbArc
 50
180.0
 51
0.0
  0
ARC
  5
177B0
330
17989
100
AcDbEntity
  8
SUNPOU
100
AcDbCircle
 10
12546.80156980274
 20
5176.279066364539
 30
0.0
 40
7.5
100
AcDbArc
 50
0.0
 51
180.0
  0
ARC
  5
177B1
330
17989
100
AcDbEntity
  8
SUNPOU
100
AcDbCircle
 10
2946.801569802749
 20
5176.279066364539
 30
0.0
 40
7.5
100
AcDbArc
 50
0.0
 51
180.0
  0
ARC
  5
177B2
330
17989
100
AcDbEntity
  8
SUNPOU
100
AcDbCircle
 10
2946.801569802749
 20
5176.279066364539
 30
0.0
 40
7.5
100
AcDbArc
 50
180.0
 51
0.0
  0
ARC
  5
177B3
330
17989
100
AcDbEntity
  8
SUNPOU
100
AcDbCircle
 10
12546.80156980274
 20
5386.279066364539
 30
0.0
 40
7.5
100
AcDbArc
 50
180.0
 51
0.0
  0
ARC
  5
177B4
330
17989
100
AcDbEntity
  8
SUNPOU
100
AcDbCircle
 10
12546.80156980274
 20
5386.279066364539
 30
0.0
 40
7.5
100
AcDbArc
 50
0.0
 51
180.0
  0
ARC
  5
177B5
330
17989
100
AcDbEntity
  8
SUNPOU
100
AcDbCircle
 10
12146.80156980274
 20
5386.279066364539
 30
0.0
 40
7.5
100
AcDbArc
 50
0.0
 51
180.0
  0
ARC
  5
177B6
330
17989
100
AcDbEntity
  8
SUNPOU
100
AcDbCircle
 10
12146.80156980274
 20
5386.279066364539
 30
0.0
 40
7.5
100
AcDbArc
 50
180.0
 51
0.0
  0
ARC
  5
177B7
330
17989
100
AcDbEntity
  8
SUNPOU
100
AcDbCircle
 10
12146.80156980274
 20
5386.279066364539
 30
0.0
 40
7.5
100
AcDbArc
 50
180.0
 51
0.0
  0
ARC
  5
177B8
330
17989
100
AcDbEntity
  8
SUNPOU
100
AcDbCircle
 10
12146.80156980274
 20
5386.279066364539
 30
0.0
 40
7.5
100
AcDbArc
 50
0.0
 51
180.0
  0
ARC
  5
177B9
330
17989
100
AcDbEntity
  8
SUNPOU
100
AcDbCircle
 10
9346.801569802748
 20
5386.279066364539
 30
0.0
 40
7.5
100
AcDbArc
 50
0.0
 51
180.0
  0
ARC
  5
177BA
330
17989
100
AcDbEntity
  8
SUNPOU
100
AcDbCircle
 10
9346.801569802748
 20
5386.279066364539
 30
0.0
 40
7.5
100
AcDbArc
 50
180.0
 51
0.0
  0
ARC
  5
177BB
330
17989
100
AcDbEntity
  8
SUNPOU
100
AcDbCircle
 10
9346.801569802748
 20
5386.279066364539
 30
0.0
 40
7.5
100
AcDbArc
 50
180.0
 51
0.0
  0
ARC
  5
177BC
330
17989
100
AcDbEntity
  8
SUNPOU
100
AcDbCircle
 10
9346.801569802748
 20
5386.279066364539
 30
0.0
 40
7.5
100
AcDbArc
 50
0.0
 51
180.0
  0
ARC
  5
177BD
330
17989
100
AcDbEntity
  8
SUNPOU
100
AcDbCircle
 10
6146.801569802749
 20
5386.279066364539
 30
0.0
 40
7.5
100
AcDbArc
 50
0.0
 51
180.0
  0
ARC
  5
177BE
330
17989
100
AcDbEntity
  8
SUNPOU
100
AcDbCircle
 10
6146.801569802749
 20
5386.279066364539
 30
0.0
 40
7.5
100
AcDbArc
 50
180.0
 51
0.0
  0
ARC
  5
177BF
330
17989
100
AcDbEntity
  8
SUNPOU
100
AcDbCircle
 10
6146.801569802749
 20
5386.279066364539
 30
0.0
 40
7.5
100
AcDbArc
 50
180.0
 51
0.0
  0
ARC
  5
177C0
330
17989
100
AcDbEntity
  8
SUNPOU
100
AcDbCircle
 10
6146.801569802749
 20
5386.279066364539
 30
0.0
 40
7.5
100
AcDbArc
 50
0.0
 51
180.0
  0
ARC
  5
177C1
330
17989
100
AcDbEntity
  8
SUNPOU
100
AcDbCircle
 10
3346.801569802749
 20
5386.279066364539
 30
0.0
 40
7.5
100
AcDbArc
 50
0.0
 51
180.0
  0
ARC
  5
177C2
330
17989
100
AcDbEntity
  8
SUNPOU
100
AcDbCircle
 10
3346.801569802749
 20
5386.279066364539
 30
0.0
 40
7.5
100
AcDbArc
 50
180.0
 51
0.0
  0
ARC
  5
177C3
330
17989
100
AcDbEntity
  8
SUNPOU
100
AcDbCircle
 10
3346.801569802749
 20
5386.279066364539
 30
0.0
 40
7.5
100
AcDbArc
 50
180.0
 51
0.0
  0
ARC
  5
177C4
330
17989
100
AcDbEntity
  8
SUNPOU
100
AcDbCircle
 10
3346.801569802749
 20
5386.279066364539
 30
0.0
 40
7.5
100
AcDbArc
 50
0.0
 51
180.0
  0
ARC
  5
177C5
330
17989
100
AcDbEntity
  8
SUNPOU
100
AcDbCircle
 10
2946.801569802749
 20
5386.279066364539
 30
0.0
 40
7.5
100
AcDbArc
 50
0.0
 51
180.0
  0
ARC
  5
177C6
330
17989
100
AcDbEntity
  8
SUNPOU
100
AcDbCircle
 10
2946.801569802749
 20
5386.279066364539
 30
0.0
 40
7.5
100
AcDbArc
 50
180.0
 51
0.0
  0
ARC
  5
177C7
330
17989
100
AcDbEntity
  8
SUNPOU
100
AcDbCircle
 10
3512.429052763142
 20
1752.168933625339
 30
0.0
 40
7.5
100
AcDbArc
 50
180.0
 51
0.0
  0
ARC
  5
177C8
330
17989
100
AcDbEntity
  8
SUNPOU
100
AcDbCircle
 10
3512.429052763142
 20
1752.168933625339
 30
0.0
 40
7.5
100
AcDbArc
 50
0.0
 51
180.0
  0
ARC
  5
177C9
330
17989
100
AcDbEntity
  8
SUNPOU
100
AcDbCircle
 10
3048.429052763142
 20
1752.168933625339
 30
0.0
 40
7.5
100
AcDbArc
 50
0.0
 51
180.0
  0
ARC
  5
177CA
330
17989
100
AcDbEntity
  8
SUNPOU
100
AcDbCircle
 10
3048.429052763142
 20
1752.168933625339
 30
0.0
 40
7.5
100
AcDbArc
 50
180.0
 51
0.0
  0
ARC
  5
177CB
330
17989
100
AcDbEntity
  8
SUNPOU
100
AcDbCircle
 10
4312.429052763162
 20
1752.168933625339
 30
0.0
 40
7.5
100
AcDbArc
 50
180.0
 51
0.0
  0
ARC
  5
177CC
330
17989
100
AcDbEntity
  8
SUNPOU
100
AcDbCircle
 10
4312.429052763162
 20
1752.168933625339
 30
0.0
 40
7.5
100
AcDbArc
 50
0.0
 51
180.0
  0
ARC
  5
177CD
330
17989
100
AcDbEntity
  8
SUNPOU
100
AcDbCircle
 10
3512.429052763142
 20
1752.168933625339
 30
0.0
 40
7.5
100
AcDbArc
 50
0.0
 51
180.0
  0
ARC
  5
177CE
330
17989
100
AcDbEntity
  8
SUNPOU
100
AcDbCircle
 10
3512.429052763142
 20
1752.168933625339
 30
0.0
 40
7.5
100
AcDbArc
 50
180.0
 51
0.0
  0
ARC
  5
177CF
330
17989
100
AcDbEntity
  8
SUNPOU
100
AcDbCircle
 10
3048.429052763142
 20
1752.168933625339
 30
0.0
 40
7.5
100
AcDbArc
 50
180.0
 51
0.0
  0
ARC
  5
177D0
330
17989
100
AcDbEntity
  8
SUNPOU
100
AcDbCircle
 10
3048.429052763142
 20
1752.168933625339
 30
0.0
 40
7.5
100
AcDbArc
 50
0.0
 51
180.0
  0
ARC
  5
177D1
330
17989
100
AcDbEntity
  8
SUNPOU
100
AcDbCircle
 10
2248.429052763157
 20
1752.168933625339
 30
0.0
 40
7.5
100
AcDbArc
 50
0.0
 51
180.0
  0
ARC
  5
177D2
330
17989
100
AcDbEntity
  8
SUNPOU
100
AcDbCircle
 10
2248.429052763157
 20
1752.168933625339
 30
0.0
 40
7.5
100
AcDbArc
 50
180.0
 51
0.0
  0
ARC
  5
177D3
330
17989
100
AcDbEntity
  8
SUNPOU
100
AcDbCircle
 10
4312.429052763162
 20
1542.168933625339
 30
0.0
 40
7.5
100
AcDbArc
 50
180.0
 51
0.0
  0
ARC
  5
177D4
330
17989
100
AcDbEntity
  8
SUNPOU
100
AcDbCircle
 10
4312.429052763162
 20
1542.168933625339
 30
0.0
 40
7.5
100
AcDbArc
 50
0.0
 51
180.0
  0
ARC
  5
177D5
330
17989
100
AcDbEntity
  8
SUNPOU
100
AcDbCircle
 10
2248.429052763157
 20
1542.168933625339
 30
0.0
 40
7.5
100
AcDbArc
 50
0.0
 51
180.0
  0
ARC
  5
177D6
330
17989
100
AcDbEntity
  8
SUNPOU
100
AcDbCircle
 10
2248.429052763157
 20
1542.168933625339
 30
0.0
 40
7.5
100
AcDbArc
 50
180.0
 51
0.0
  0
ARC
  5
177D7
330
17989
100
AcDbEntity
  8
SUNPOU
100
AcDbCircle
 10
3896.429052763157
 20
3692.530553718546
 30
0.0
 40
7.5
100
AcDbArc
 50
180.0
 51
0.0
  0
ARC
  5
177D8
330
17989
100
AcDbEntity
  8
SUNPOU
100
AcDbCircle
 10
3896.429052763157
 20
3692.530553718546
 30
0.0
 40
7.5
100
AcDbArc
 50
0.0
 51
180.0
  0
ARC
  5
177D9
330
17989
100
AcDbEntity
  8
SUNPOU
100
AcDbCircle
 10
2664.429052763157
 20
3692.530553718546
 30
0.0
 40
7.5
100
AcDbArc
 50
0.0
 51
180.0
  0
ARC
  5
177DA
330
17989
100
AcDbEntity
  8
SUNPOU
100
AcDbCircle
 10
2664.429052763157
 20
3692.530553718546
 30
0.0
 40
7.5
100
AcDbArc
 50
180.0
 51
0.0
  0
ARC
  5
177DB
330
17989
100
AcDbEntity
  8
SUNPOU
100
AcDbCircle
 10
4938.007034603488
 20
2291.155848651587
 30
0.0
 40
7.5
100
AcDbArc
 50
90.0
 51
270.0
  0
ARC
  5
177DC
330
17989
100
AcDbEntity
  8
SUNPOU
100
AcDbCircle
 10
4938.007034603488
 20
2291.155848651587
 30
0.0
 40
7.5
100
AcDbArc
 50
270.0
 51
90.0
  0
ARC
  5
177DD
330
17989
100
AcDbEntity
  8
SUNPOU
100
AcDbCircle
 10
4938.007034603488
 20
3059.155848651583
 30
0.0
 40
7.5
100
AcDbArc
 50
270.0
 51
90.0
  0
ARC
  5
177DE
330
17989
100
AcDbEntity
  8
SUNPOU
100
AcDbCircle
 10
4938.007034603488
 20
3059.155848651583
 30
0.0
 40
7.5
100
AcDbArc
 50
90.0
 51
270.0
  0
ARC
  5
177DF
330
17989
100
AcDbEntity
  8
SUNPOU
100
AcDbCircle
 10
4938.007034603488
 20
3059.155848651583
 30
0.0
 40
7.5
100
AcDbArc
 50
90.0
 51
270.0
  0
ARC
  5
177E0
330
17989
100
AcDbEntity
  8
SUNPOU
100
AcDbCircle
 10
4938.007034603488
 20
3059.155848651583
 30
0.0
 40
7.5
100
AcDbArc
 50
270.0
 51
90.0
  0
ARC
  5
177E1
330
17989
100
AcDbEntity
  8
SUNPOU
100
AcDbCircle
 10
4938.007034603488
 20
3299.155848651583
 30
0.0
 40
7.5
100
AcDbArc
 50
270.0
 51
90.0
  0
ARC
  5
177E2
330
17989
100
AcDbEntity
  8
SUNPOU
100
AcDbCircle
 10
4938.007034603488
 20
3299.155848651583
 30
0.0
 40
7.5
100
AcDbArc
 50
90.0
 51
270.0
  0
ARC
  5
177E3
330
17989
100
AcDbEntity
  8
SUNPOU
100
AcDbCircle
 10
5148.007034603488
 20
2291.155848651588
 30
0.0
 40
7.5
100
AcDbArc
 50
90.0
 51
270.0
  0
ARC
  5
177E4
330
17989
100
AcDbEntity
  8
SUNPOU
100
AcDbCircle
 10
5148.007034603488
 20
2291.155848651588
 30
0.0
 40
7.5
100
AcDbArc
 50
270.0
 51
90.0
  0
ARC
  5
177E5
330
17989
100
AcDbEntity
  8
SUNPOU
100
AcDbCircle
 10
5148.007034603488
 20
2211.155848651588
 30
0.0
 40
7.5
100
AcDbArc
 50
270.0
 51
90.0
  0
ARC
  5
177E6
330
17989
100
AcDbEntity
  8
SUNPOU
100
AcDbCircle
 10
5148.007034603488
 20
2211.155848651588
 30
0.0
 40
7.5
100
AcDbArc
 50
90.0
 51
270.0
  0
ARC
  5
177E7
330
17989
100
AcDbEntity
  8
SUNPOU
100
AcDbCircle
 10
5148.007034603488
 20
2051.155848651589
 30
0.0
 40
7.5
100
AcDbArc
 50
90.0
 51
270.0
  0
ARC
  5
177E8
330
17989
100
AcDbEntity
  8
SUNPOU
100
AcDbCircle
 10
5148.007034603488
 20
2051.155848651589
 30
0.0
 40
7.5
100
AcDbArc
 50
270.0
 51
90.0
  0
ARC
  5
177E9
330
17989
100
AcDbEntity
  8
SUNPOU
100
AcDbCircle
 10
5148.007034603488
 20
2211.155848651588
 30
0.0
 40
7.5
100
AcDbArc
 50
270.0
 51
90.0
  0
ARC
  5
177EA
330
17989
100
AcDbEntity
  8
SUNPOU
100
AcDbCircle
 10
5148.007034603488
 20
2211.155848651588
 30
0.0
 40
7.5
100
AcDbArc
 50
90.0
 51
270.0
  0
ARC
  5
177EB
330
17989
100
AcDbEntity
  8
SUNPOU
100
AcDbCircle
 10
5148.007034603488
 20
2291.155848651588
 30
0.0
 40
7.5
100
AcDbArc
 50
90.0
 51
270.0
  0
ARC
  5
177EC
330
17989
100
AcDbEntity
  8
SUNPOU
100
AcDbCircle
 10
5148.007034603488
 20
2291.155848651588
 30
0.0
 40
7.5
100
AcDbArc
 50
270.0
 51
90.0
  0
ARC
  5
177ED
330
17989
100
AcDbEntity
  8
SUNPOU
100
AcDbCircle
 10
5148.007034603488
 20
3299.155848651582
 30
0.0
 40
7.5
100
AcDbArc
 50
270.0
 51
90.0
  0
ARC
  5
177EE
330
17989
100
AcDbEntity
  8
SUNPOU
100
AcDbCircle
 10
5148.007034603488
 20
3299.155848651582
 30
0.0
 40
7.5
100
AcDbArc
 50
90.0
 51
270.0
  0
ARC
  5
177EF
330
17989
100
AcDbEntity
  8
SUNPOU
100
AcDbCircle
 10
8983.171970751349
 20
3056.603629464088
 30
0.0
 40
7.5
100
AcDbArc
 50
270.0
 51
90.0
  0
ARC
  5
177F0
330
17989
100
AcDbEntity
  8
SUNPOU
100
AcDbCircle
 10
8983.171970751349
 20
3056.603629464088
 30
0.0
 40
7.5
100
AcDbArc
 50
90.0
 51
270.0
  0
ARC
  5
177F1
330
17989
100
AcDbEntity
  8
SUNPOU
100
AcDbCircle
 10
8983.171970751349
 20
2288.603629464088
 30
0.0
 40
7.5
100
AcDbArc
 50
90.0
 51
270.0
  0
ARC
  5
177F2
330
17989
100
AcDbEntity
  8
SUNPOU
100
AcDbCircle
 10
8983.171970751349
 20
2288.603629464088
 30
0.0
 40
7.5
100
AcDbArc
 50
270.0
 51
90.0
  0
ARC
  5
177F3
330
17989
100
AcDbEntity
  8
SUNPOU
100
AcDbCircle
 10
9193.171970751349
 20
2032.603629464089
 30
0.0
 40
7.5
100
AcDbArc
 50
90.0
 51
270.0
  0
ARC
  5
177F4
330
17989
100
AcDbEntity
  8
SUNPOU
100
AcDbCircle
 10
9193.171970751349
 20
2032.603629464089
 30
0.0
 40
7.5
100
AcDbArc
 50
270.0
 51
90.0
  0
ARC
  5
177F5
330
17989
100
AcDbEntity
  8
SUNPOU
100
AcDbCircle
 10
9193.171970751349
 20
3312.603629464089
 30
0.0
 40
7.5
100
AcDbArc
 50
270.0
 51
90.0
  0
ARC
  5
177F6
330
17989
100
AcDbEntity
  8
SUNPOU
100
AcDbCircle
 10
9193.171970751349
 20
3312.603629464089
 30
0.0
 40
7.5
100
AcDbArc
 50
90.0
 51
270.0
  0
ARC
  5
177F7
330
17989
100
AcDbEntity
  8
SUNPOU
100
AcDbCircle
 10
6884.306062185527
 20
1752.168933625339
 30
0.0
 40
7.5
100
AcDbArc
 50
0.0
 51
180.0
  0
ARC
  5
177F8
330
17989
100
AcDbEntity
  8
SUNPOU
100
AcDbCircle
 10
6884.306062185527
 20
1752.168933625339
 30
0.0
 40
7.5
100
AcDbArc
 50
180.0
 51
0.0
  0
ARC
  5
177F9
330
17989
100
AcDbEntity
  8
SUNPOU
100
AcDbCircle
 10
8116.306062185522
 20
1752.168933625339
 30
0.0
 40
7.5
100
AcDbArc
 50
180.0
 51
0.0
  0
ARC
  5
177FA
330
17989
100
AcDbEntity
  8
SUNPOU
100
AcDbCircle
 10
8116.306062185522
 20
1752.168933625339
 30
0.0
 40
7.5
100
AcDbArc
 50
0.0
 51
180.0
  0
ARC
  5
177FB
330
17989
100
AcDbEntity
  8
SUNPOU
100
AcDbCircle
 10
8532.306062185526
 20
1542.168933625339
 30
0.0
 40
7.5
100
AcDbArc
 50
180.0
 51
0.0
  0
ARC
  5
177FC
330
17989
100
AcDbEntity
  8
SUNPOU
100
AcDbCircle
 10
8532.306062185526
 20
1542.168933625339
 30
0.0
 40
7.5
100
AcDbArc
 50
0.0
 51
180.0
  0
ARC
  5
177FD
330
17989
100
AcDbEntity
  8
SUNPOU
100
AcDbCircle
 10
6468.306062185526
 20
1542.168933625339
 30
0.0
 40
7.5
100
AcDbArc
 50
0.0
 51
180.0
  0
ARC
  5
177FE
330
17989
100
AcDbEntity
  8
SUNPOU
100
AcDbCircle
 10
6468.306062185526
 20
1542.168933625339
 30
0.0
 40
7.5
100
AcDbArc
 50
180.0
 51
0.0
  0
ARC
  5
17802
330
17989
100
AcDbEntity
  8
HIKIDASHI
100
AcDbCircle
 10
5384.198933629273
 20
3822.915282241407
 30
0.0
 40
74.66417910452284
100
AcDbArc
 50
164.8596129850915
 51
237.5045002941574
  0
ARC
  5
17803
330
17989
100
AcDbEntity
  8
HIKIDASHI
100
AcDbCircle
 10
5320.775139582967
 20
3840.076305725892
 30
0.0
 40
8.959701492542745
100
AcDbArc
 50
15.14038701504827
 51
164.8596129849797
  0
LINE
  5
17808
330
17989
100
AcDbEntity
  8
HIKIDASHI
100
AcDbLine
 10
12020.04388517832
 20
8280.905308350785
 30
0.0
 11
12046.80156980275
 21
8226.279066364538
 31
0.0
  0
LINE
  5
17809
330
17989
100
AcDbEntity
  8
HIKIDASHI
100
AcDbLine
 10
12046.80156980275
 20
8226.279066364538
 30
0.0
 11
12039.20686553194
 21
8286.630706499991
 31
0.0
  0
SOLID
  5
1780A
330
17989
100
AcDbEntity
  8
HIKIDASHI
100
AcDbTrace
 10
12020.04388517832
 20
8280.905308350785
 30
0.0
 11
12039.20686553194
 21
8286.630706499991
 31
0.0
 12
12046.80156980275
 22
8226.279066364538
 32
0.0
 13
12046.80156980275
 23
8226.279066364538
 33
0.0
  0
LINE
  5
1780B
330
17989
100
AcDbEntity
  8
HIKIDASHI
100
AcDbLine
 10
12039.20686553194
 20
8286.630706499991
 30
0.0
 11
12020.04388517832
 21
8280.905308350785
 31
0.0
  0
LINE
  5
1780C
330
17989
100
AcDbEntity
  8
HIKIDASHI
100
AcDbLine
 10
12207.73867737217
 20
8272.906209049429
 30
0.0
 11
12246.80156980275
 21
8226.279066364538
 31
0.0
  0
LINE
  5
1780D
330
17989
100
AcDbEntity
  8
HIKIDASHI
100
AcDbLine
 10
12246.80156980275
 20
8226.279066364538
 30
0.0
 11
12224.97250161758
 21
8283.054869152056
 31
0.0
  0
SOLID
  5
1780E
330
17989
100
AcDbEntity
  8
HIKIDASHI
100
AcDbTrace
 10
12207.73867737217
 20
8272.906209049429
 30
0.0
 11
12224.97250161758
 21
8283.054869152056
 31
0.0
 12
12246.80156980275
 22
8226.279066364538
 32
0.0
 13
12246.80156980275
 23
8226.279066364538
 33
0.0
  0
LINE
  5
1780F
330
17989
100
AcDbEntity
  8
HIKIDASHI
100
AcDbLine
 10
12224.97250161758
 20
8283.054869152056
 30
0.0
 11
12207.73867737217
 21
8272.906209049429
 31
0.0
  0
LINE
  5
17810
330
17989
100
AcDbEntity
  8
HIKIDASHI
100
AcDbLine
 10
12088.04792593855
 20
8039.223269126912
 30
0.0
 11
12118.47695932761
 21
8091.892747261859
 31
0.0
  0
LINE
  5
17811
330
17989
100
AcDbEntity
  8
HIKIDASHI
100
AcDbLine
 10
12118.47695932761
 20
8091.892747261859
 30
0.0
 11
12072.61074564555
 21
8051.939143638769
 31
0.0
  0
SOLID
  5
17812
330
17989
100
AcDbEntity
  8
HIKIDASHI
100
AcDbTrace
 10
12088.04792593855
 20
8039.223269126912
 30
0.0
 11
12072.61074564555
 21
8051.939143638769
 31
0.0
 12
12118.47695932761
 22
8091.892747261859
 32
0.0
 13
12118.47695932761
 23
8091.892747261859
 33
0.0
  0
LINE
  5
17813
330
17989
100
AcDbEntity
  8
HIKIDASHI
100
AcDbLine
 10
12072.61074564555
 20
8051.939143638769
 30
0.0
 11
12088.04792593855
 21
8039.223269126912
 31
0.0
  0
LINE
  5
17814
330
17989
100
AcDbEntity
  8
HIKIDASHI
100
AcDbLine
 10
12060.01203975975
 20
7777.723076755122
 30
0.0
 11
12106.89160340998
 21
7816.482675720592
 31
0.0
  0
LINE
  5
17815
330
17989
100
AcDbEntity
  8
HIKIDASHI
100
AcDbLine
 10
12106.89160340998
 20
7816.482675720592
 30
0.0
 11
12049.97538948177
 21
7795.022373018198
 31
0.0
  0
SOLID
  5
17816
330
17989
100
AcDbEntity
  8
HIKIDASHI
100
AcDbTrace
 10
12060.01203975975
 20
7777.723076755122
 30
0.0
 11
12049.97538948177
 21
7795.022373018198
 31
0.0
 12
12106.89160340998
 22
7816.482675720592
 32
0.0
 13
12106.89160340998
 23
7816.482675720592
 33
0.0
  0
LINE
  5
17817
330
17989
100
AcDbEntity
  8
HIKIDASHI
100
AcDbLine
 10
12049.97538948177
 20
7795.022373018198
 30
0.0
 11
12060.01203975975
 21
7777.723076755122
 31
0.0
  0
ARC
  5
17819
330
17989
100
AcDbEntity
  8
HIKIDASHI
100
AcDbCircle
 10
11482.86789776744
 20
9046.06592944968
 30
0.0
 40
74.66417910452284
100
AcDbArc
 50
164.8596129850635
 51
237.5045002941574
  0
ARC
  5
1781A
330
17989
100
AcDbEntity
  8
HIKIDASHI
100
AcDbCircle
 10
11419.44410372114
 20
9063.226952934163
 30
0.0
 40
8.959701492542745
100
AcDbArc
 50
15.14038701504827
 51
164.8596129849517
  0
LINE
  5
1781B
330
17989
100
AcDbEntity
  8
HIKIDASHI
100
AcDbLine
 10
3729.755090521486
 20
3198.252196120563
 30
0.0
 11
3997.930010252171
 21
3692.530553718546
 31
0.0
1001
ACAD
1000
DSTYLE
1002
{
1070
   147
1040
1.125
1070
    77
1070
     0
1070
   144
1040
0.625
1002
}
  0
LINE
  5
1781C
330
17989
100
AcDbEntity
  8
HIKIDASHI
100
AcDbLine
 10
3715.105699276656
 20
3206.200347725415
 30
0.0
 11
3682.06618089238
 21
3110.355848651587
 31
0.0
  0
LINE
  5
1781D
330
17989
100
AcDbEntity
  8
HIKIDASHI
100
AcDbLine
 10
3682.06618089238
 20
3110.355848651587
 30
0.0
 11
3744.404481766316
 21
3190.304044515712
 31
0.0
  0
SOLID
  5
1781E
330
17989
100
AcDbEntity
  8
HIKIDASHI
100
AcDbTrace
 10
3715.105699276656
 20
3206.200347725415
 30
0.0
 11
3744.404481766316
 21
3190.304044515712
 31
0.0
 12
3682.06618089238
 22
3110.355848651587
 32
0.0
 13
3682.06618089238
 23
3110.355848651587
 33
0.0
  0
LINE
  5
1781F
330
17989
100
AcDbEntity
  8
HIKIDASHI
100
AcDbLine
 10
3744.404481766316
 20
3190.304044515712
 30
0.0
 11
3715.105699276656
 21
3206.200347725415
 31
0.0
  0
ARC
  5
17820
330
17989
100
AcDbEntity
  8
HIKIDASHI
100
AcDbCircle
 10
5258.530872072402
 20
3824.095409600999
 30
0.0
 40
74.66417910452253
100
AcDbArc
 50
301.7712278330704
 51
15.14038701490934
  0
LINE
  5
17821
330
17989
100
AcDbEntity
  8
HIKIDASHI
100
AcDbLine
 10
2729.500491295243
 20
2563.847432095119
 30
0.0
 11
2124.975130930299
 21
2358.891637814443
 31
0.0
1001
ACAD
1000
DSTYLE
1002
{
1070
   147
1040
1.125
1070
    77
1070
     0
1070
   144
1040
0.625
1002
}
  0
LINE
  5
17822
330
17989
100
AcDbEntity
  8
HIKIDASHI
100
AcDbLine
 10
2734.851894054653
 20
2548.063254375505
 30
0.0
 11
2824.205557612924
 21
2595.955848651584
 31
0.0
  0
LINE
  5
17823
330
17989
100
AcDbEntity
  8
HIKIDASHI
100
AcDbLine
 10
2824.205557612924
 20
2595.955848651584
 30
0.0
 11
2724.149088535832
 21
2579.631609814733
 31
0.0
  0
SOLID
  5
17824
330
17989
100
AcDbEntity
  8
HIKIDASHI
100
AcDbTrace
 10
2734.851894054653
 20
2548.063254375505
 30
0.0
 11
2724.149088535832
 21
2579.631609814733
 31
0.0
 12
2824.205557612924
 22
2595.955848651584
 32
0.0
 13
2824.205557612924
 23
2595.955848651584
 33
0.0
  0
LINE
  5
17825
330
17989
100
AcDbEntity
  8
HIKIDASHI
100
AcDbLine
 10
2724.149088535832
 20
2579.631609814733
 30
0.0
 11
2734.851894054653
 21
2548.063254375505
 31
0.0
  0
LINE
  5
17826
330
17989
100
AcDbEntity
  8
HIKIDASHI
100
AcDbLine
 10
2630.724108941591
 20
2673.174541750537
 30
0.0
 11
2119.067099341151
 21
2763.786428635248
 31
0.0
1001
ACAD
1000
DSTYLE
1002
{
1070
   147
1040
1.125
1070
    77
1070
     0
1070
   144
1040
0.625
1002
}
  0
LINE
  5
17827
330
17989
100
AcDbEntity
  8
HIKIDASHI
100
AcDbLine
 10
2627.817749665135
 20
2656.763239135146
 30
0.0
 11
2729.191924633935
 21
2655.736386091795
 31
0.0
  0
LINE
  5
17828
330
17989
100
AcDbEntity
  8
HIKIDASHI
100
AcDbLine
 10
2729.191924633935
 20
2655.736386091795
 30
0.0
 11
2633.630468218048
 21
2689.585844365928
 31
0.0
  0
SOLID
  5
17829
330
17989
100
AcDbEntity
  8
HIKIDASHI
100
AcDbTrace
 10
2627.817749665135
 20
2656.763239135146
 30
0.0
 11
2633.630468218048
 21
2689.585844365928
 31
0.0
 12
2729.191924633935
 22
2655.736386091795
 32
0.0
 13
2729.191924633935
 23
2655.736386091795
 33
0.0
  0
LINE
  5
1782A
330
17989
100
AcDbEntity
  8
HIKIDASHI
100
AcDbLine
 10
2633.630468218048
 20
2689.585844365928
 30
0.0
 11
2627.817749665135
 21
2656.763239135146
 31
0.0
  0
ARC
  5
1782B
330
17989
100
AcDbEntity
  8
HIKIDASHI
100
AcDbCircle
 10
11357.19983621057
 20
9047.246056809269
 30
0.0
 40
74.66417910452133
100
AcDbArc
 50
301.7712278330709
 51
15.14038701491102
  0
LINE
  5
1782C
330
17989
100
AcDbEntity
  8
KISO-2
100
AcDbLine
 10
6006.801569802751
 20
7986.279066364541
 30
0.0
 11
6286.801569802751
 21
7986.279066364541
 31
0.0
  0
LINE
  5
1782D
330
17989
100
AcDbEntity
  8
KISO-2
100
AcDbLine
 10
6286.801569802751
 20
7986.279066364541
 30
0.0
 11
6286.801569802751
 21
8266.279066364539
 31
0.0
  0
LINE
  5
1782E
330
17989
100
AcDbEntity
  8
KISO-2
100
AcDbLine
 10
6286.801569802751
 20
8266.279066364539
 30
0.0
 11
6006.801569802751
 21
8266.279066364539
 31
0.0
  0
LINE
  5
1782F
330
17989
100
AcDbEntity
  8
KISO-2
100
AcDbLine
 10
6006.801569802751
 20
8266.279066364539
 30
0.0
 11
6006.801569802751
 21
7986.279066364541
 31
0.0
  0
LINE
  5
17830
330
17989
100
AcDbEntity
  8
KISO-2
100
AcDbLine
 10
6006.801569802751
 20
7696.279066364538
 30
0.0
 11
6286.801569802751
 21
7696.279066364538
 31
0.0
  0
LINE
  5
17831
330
17989
100
AcDbEntity
  8
KISO-2
100
AcDbLine
 10
6286.801569802751
 20
7696.279066364538
 30
0.0
 11
6286.801569802751
 21
7976.279066364539
 31
0.0
  0
LINE
  5
17832
330
17989
100
AcDbEntity
  8
KISO-2
100
AcDbLine
 10
6286.801569802751
 20
7976.279066364539
 30
0.0
 11
6006.801569802751
 21
7976.279066364539
 31
0.0
  0
LINE
  5
17833
330
17989
100
AcDbEntity
  8
KISO-2
100
AcDbLine
 10
6006.801569802751
 20
7976.279066364539
 30
0.0
 11
6006.801569802751
 21
7696.279066364538
 31
0.0
  0
LINE
  5
17834
330
17989
100
AcDbEntity
  8
KISO-3
100
AcDbLine
 10
6386.801569802751
 20
8366.279066364539
 30
0.0
 11
6386.801569802751
 21
7596.279066364537
 31
0.0
  0
LINE
  5
17835
330
17989
100
AcDbEntity
  8
KISO-3
100
AcDbLine
 10
6386.801569802751
 20
7596.279066364537
 30
0.0
 11
5906.801569802752
 21
7596.279066364537
 31
0.0
  0
LINE
  5
17836
330
17989
100
AcDbEntity
  8
KISO-3
100
AcDbLine
 10
5906.801569802752
 20
7596.279066364537
 30
0.0
 11
5906.801569802752
 21
8366.279066364539
 31
0.0
  0
LINE
  5
17837
330
17989
100
AcDbEntity
  8
KISO-2
100
AcDbLine
 10
3206.801569802752
 20
7986.279066364541
 30
0.0
 11
3486.801569802752
 21
7986.279066364541
 31
0.0
  0
LINE
  5
17838
330
17989
100
AcDbEntity
  8
KISO-2
100
AcDbLine
 10
3486.801569802752
 20
7986.279066364541
 30
0.0
 11
3486.801569802752
 21
8266.279066364539
 31
0.0
  0
LINE
  5
17839
330
17989
100
AcDbEntity
  8
KISO-2
100
AcDbLine
 10
3486.801569802752
 20
8266.279066364539
 30
0.0
 11
3206.801569802752
 21
8266.279066364539
 31
0.0
  0
LINE
  5
1783A
330
17989
100
AcDbEntity
  8
KISO-2
100
AcDbLine
 10
3206.801569802752
 20
8266.279066364539
 30
0.0
 11
3206.801569802752
 21
7986.279066364541
 31
0.0
  0
LINE
  5
1783B
330
17989
100
AcDbEntity
  8
KISO-3
100
AcDbLine
 10
3586.801569802752
 20
8366.279066364539
 30
0.0
 11
3586.801569802752
 21
7596.279066364537
 31
0.0
  0
LINE
  5
1783C
330
17989
100
AcDbEntity
  8
KISO-3
100
AcDbLine
 10
3586.801569802752
 20
7596.279066364537
 30
0.0
 11
3106.801569802752
 21
7596.279066364537
 31
0.0
  0
LINE
  5
1783D
330
17989
100
AcDbEntity
  8
KISO-3
100
AcDbLine
 10
3106.801569802752
 20
7596.279066364537
 30
0.0
 11
3106.801569802752
 21
8366.279066364539
 31
0.0
  0
LINE
  5
1783E
330
17989
100
AcDbEntity
  8
KISO-2
100
AcDbLine
 10
3206.801569802752
 20
7696.279066364538
 30
0.0
 11
3486.801569802752
 21
7696.279066364538
 31
0.0
  0
LINE
  5
1783F
330
17989
100
AcDbEntity
  8
KISO-2
100
AcDbLine
 10
3486.801569802752
 20
7696.279066364538
 30
0.0
 11
3486.801569802752
 21
7976.279066364539
 31
0.0
  0
LINE
  5
17840
330
17989
100
AcDbEntity
  8
KISO-2
100
AcDbLine
 10
3486.801569802752
 20
7976.279066364539
 30
0.0
 11
3206.801569802752
 21
7976.279066364539
 31
0.0
  0
LINE
  5
17841
330
17989
100
AcDbEntity
  8
KISO-2
100
AcDbLine
 10
3206.801569802752
 20
7976.279066364539
 30
0.0
 11
3206.801569802752
 21
7696.279066364538
 31
0.0
  0
LINE
  5
17842
330
17989
100
AcDbEntity
  8
DOMAKON
100
AcDbLine
 10
2946.801569802749
 20
10126.27906636454
 30
0.0
 11
7596.80156980275
 21
10126.27906636454
 31
0.0
  0
LINE
  5
17843
330
17989
100
AcDbEntity
  8
DOMAKON
100
AcDbLine
 10
7596.80156980275
 20
5836.279066364538
 30
0.0
 11
2946.801569802749
 21
5836.279066364538
 31
0.0
  0
LINE
  5
17844
330
17989
100
AcDbEntity
  8
DOMAKON
100
AcDbLine
 10
2946.801569802749
 20
5836.279066364538
 30
0.0
 11
2946.801569802749
 21
10126.27906636454
 31
0.0
  0
LINE
  5
17845
330
17989
100
AcDbEntity
  8
YANE
  6
2PL-M
100
AcDbLine
 10
7596.80156980275
 20
5962.729793983196
 30
0.0
 11
3125.000916751509
 21
5962.729793983196
 31
0.0
  0
LINE
  5
17846
330
17989
100
AcDbEntity
  8
YANE
  6
2PL-M
100
AcDbLine
 10
3125.000916751509
 20
5962.729793983196
 30
0.0
 11
3125.000916751509
 21
10000.82906636454
 31
0.0
  0
LINE
  5
17847
330
17989
100
AcDbEntity
  8
YANE
  6
2PL-M
100
AcDbLine
 10
3125.000916751509
 20
10000.82906636454
 30
0.0
 11
7596.80156980275
 21
10000.82906636454
 31
0.0
  0
LINE
  5
17848
330
17989
100
AcDbEntity
  8
DOMAKON
100
AcDbLine
 10
7896.801569802753
 20
10126.27906636454
 30
0.0
 11
12546.80156980274
 21
10126.27906636454
 31
0.0
  0
LINE
  5
17849
330
17989
100
AcDbEntity
  8
DOMAKON
100
AcDbLine
 10
12546.80156980274
 20
10126.27906636454
 30
0.0
 11
12546.80156980274
 21
5836.279066364538
 31
0.0
  0
LINE
  5
1784A
330
17989
100
AcDbEntity
  8
DOMAKON
100
AcDbLine
 10
12546.80156980274
 20
5836.279066364538
 30
0.0
 11
7896.801569802753
 21
5836.279066364538
 31
0.0
  0
LINE
  5
1784B
330
17989
100
AcDbEntity
  8
YANE
  6
2PL-M
100
AcDbLine
 10
7896.801569802753
 20
10000.82906636454
 30
0.0
 11
12368.60222285397
 21
10000.82906636454
 31
0.0
  0
LINE
  5
1784C
330
17989
100
AcDbEntity
  8
YANE
  6
2PL-M
100
AcDbLine
 10
12368.60222285397
 20
10000.82906636454
 30
0.0
 11
12368.60222285397
 21
5962.729793983196
 31
0.0
  0
LINE
  5
1784D
330
17989
100
AcDbEntity
  8
YANE
  6
2PL-M
100
AcDbLine
 10
12368.60222285397
 20
5962.729793983196
 30
0.0
 11
7896.801569802753
 21
5962.729793983196
 31
0.0
  0
LINE
  5
1784E
330
17989
100
AcDbEntity
  8
HATCH
100
AcDbLine
 10
2168.429052763212
 20
2051.155848651583
 30
0.0
 11
2260.805095833573
 21
2211.155848651619
 31
0.0
  0
LINE
  5
1784F
330
17989
100
AcDbEntity
  8
HATCH
100
AcDbLine
 10
2196.805095833558
 20
2211.155848651618
 30
0.0
 11
2228.805095833565
 21
2155.730222809404
 31
0.0
  0
LINE
  5
17850
330
17989
100
AcDbEntity
  8
HATCH
100
AcDbLine
 10
2200.429052763217
 20
2106.5814744938
 30
0.0
 11
2232.429052763226
 21
2051.155848651583
 31
0.0
  0
LINE
  5
17851
330
17989
100
AcDbEntity
  8
HATCH
100
AcDbLine
 10
4600.429052762998
 20
3059.155848651583
 30
0.0
 11
4655.854678605139
 21
3155.155848651473
 31
0.0
  0
LINE
  5
17852
330
17989
100
AcDbEntity
  8
HATCH
100
AcDbLine
 10
4617.454678605183
 20
3155.155848651473
 30
0.0
 11
4636.654678605161
 21
3121.90047314619
 31
0.0
  0
LINE
  5
17853
330
17989
100
AcDbEntity
  8
HATCH
100
AcDbLine
 10
4619.629052762976
 20
3092.411224156868
 30
0.0
 11
4638.829052762954
 21
3059.155848651583
 31
0.0
  0
LINE
  5
17854
330
17989
100
AcDbEntity
  8
HATCH
100
AcDbLine
 10
4456.429052762998
 20
3059.155848651583
 30
0.0
 11
4511.854678605139
 21
3155.155848651473
 31
0.0
  0
LINE
  5
17855
330
17989
100
AcDbEntity
  8
HATCH
100
AcDbLine
 10
4473.454678605183
 20
3155.155848651473
 30
0.0
 11
4492.654678605162
 21
3121.90047314619
 31
0.0
  0
LINE
  5
17856
330
17989
100
AcDbEntity
  8
HATCH
100
AcDbLine
 10
4475.629052762977
 20
3092.411224156868
 30
0.0
 11
4494.829052762955
 21
3059.155848651583
 31
0.0
  0
LINE
  5
17857
330
17989
100
AcDbEntity
  8
HASIRA
100
AcDbLine
 10
3582.946180892385
 20
3078.355848651587
 30
0.0
 11
3582.946180892385
 21
3588.012757417067
 31
0.0
  0
LINE
  5
17858
330
17989
100
AcDbEntity
  8
HATCH
100
AcDbLine
 10
4312.429052762998
 20
3059.155848651583
 30
0.0
 11
4367.854678605139
 21
3155.155848651473
 31
0.0
  0
LINE
  5
17859
330
17989
100
AcDbEntity
  8
HATCH
100
AcDbLine
 10
4329.454678605183
 20
3155.155848651473
 30
0.0
 11
4348.654678605161
 21
3121.90047314619
 31
0.0
  0
LINE
  5
1785A
330
17989
100
AcDbEntity
  8
HATCH
100
AcDbLine
 10
4331.629052762977
 20
3092.411224156868
 30
0.0
 11
4350.829052762953
 21
3059.155848651583
 31
0.0
  0
LINE
  5
1785B
330
17989
100
AcDbEntity
  8
HATCH
100
AcDbLine
 10
3848.429052763219
 20
2051.155848651585
 30
0.0
 11
3940.80509583358
 21
2211.155848651621
 31
0.0
  0
LINE
  5
1785C
330
17989
100
AcDbEntity
  8
HATCH
100
AcDbLine
 10
3876.805095833566
 20
2211.15584865162
 30
0.0
 11
3908.805095833573
 21
2155.730222809407
 31
0.0
  0
LINE
  5
1785D
330
17989
100
AcDbEntity
  8
HATCH
100
AcDbLine
 10
3880.429052763226
 20
2106.581474493803
 30
0.0
 11
3912.429052763233
 21
2051.155848651585
 31
0.0
  0
LINE
  5
1785E
330
17989
100
AcDbEntity
  8
HATCH
100
AcDbLine
 10
3608.429052763213
 20
2051.155848651585
 30
0.0
 11
3700.805095833572
 21
2211.155848651621
 31
0.0
  0
LINE
  5
1785F
330
17989
100
AcDbEntity
  8
HATCH
100
AcDbLine
 10
3636.805095833557
 20
2211.15584865162
 30
0.0
 11
3668.805095833565
 21
2155.730222809407
 31
0.0
  0
LINE
  5
17860
330
17989
100
AcDbEntity
  8
HATCH
100
AcDbLine
 10
3640.429052763219
 20
2106.581474493803
 30
0.0
 11
3672.429052763226
 21
2051.155848651585
 31
0.0
  0
LINE
  5
17861
330
17989
100
AcDbEntity
  8
HATCH
100
AcDbLine
 10
4088.429052763218
 20
2051.155848651585
 30
0.0
 11
4180.805095833579
 21
2211.155848651621
 31
0.0
  0
LINE
  5
17862
330
17989
100
AcDbEntity
  8
HATCH
100
AcDbLine
 10
4116.805095833565
 20
2211.15584865162
 30
0.0
 11
4148.805095833572
 21
2155.730222809407
 31
0.0
  0
LINE
  5
17863
330
17989
100
AcDbEntity
  8
HATCH
100
AcDbLine
 10
4120.429052763226
 20
2106.581474493803
 30
0.0
 11
4152.429052763233
 21
2051.155848651585
 31
0.0
  0
LINE
  5
17864
330
17989
100
AcDbEntity
  8
TENSEN-1
100
AcDbLine
 10
3730.06618089238
 20
2459.155848651587
 30
0.0
 11
3682.06618089238
 21
2459.155848651583
 31
0.0
  0
LINE
  5
17865
330
17989
100
AcDbEntity
  8
TENSEN-1
100
AcDbLine
 10
3682.06618089238
 20
2459.155848651583
 30
0.0
 11
3682.06618089238
 21
3110.355848651587
 31
0.0
  0
LINE
  5
17866
330
17989
100
AcDbEntity
  8
TENSEN-1
100
AcDbLine
 10
3682.06618089238
 20
3110.355848651587
 30
0.0
 11
3661.26618089238
 21
3110.355848651587
 31
0.0
  0
LINE
  5
17867
330
17989
100
AcDbEntity
  8
TENSEN-1
100
AcDbLine
 10
3661.26618089238
 20
3110.355848651587
 30
0.0
 11
3661.26618089238
 21
2438.355848651584
 31
0.0
  0
LINE
  5
17868
330
17989
100
AcDbEntity
  8
TENSEN-1
100
AcDbLine
 10
3661.26618089238
 20
2438.355848651584
 30
0.0
 11
3730.06618089238
 21
2438.355848651588
 31
0.0
  0
LINE
  5
17869
330
17989
100
AcDbEntity
  8
TENSEN-1
100
AcDbLine
 10
3730.06618089238
 20
2438.355848651588
 30
0.0
 11
3730.06618089238
 21
2459.155848651587
 31
0.0
  0
LINE
  5
1786A
330
17989
100
AcDbEntity
  8
KISO
100
AcDbLine
 10
2825.191924633935
 20
3059.155848651587
 30
0.0
 11
3273.191924633935
 21
3059.155848651587
 31
0.0
  0
LINE
  5
1786B
330
17989
100
AcDbEntity
  8
KISO
100
AcDbLine
 10
3273.191924633935
 20
3059.155848651587
 30
0.0
 11
3273.191924633935
 21
3078.355848651587
 31
0.0
  0
LINE
  5
1786C
330
17989
100
AcDbEntity
  8
KISO
100
AcDbLine
 10
3273.191924633935
 20
3078.355848651587
 30
0.0
 11
2825.191924633935
 21
3078.355848651587
 31
0.0
  0
LINE
  5
1786D
330
17989
100
AcDbEntity
  8
KISO
100
AcDbLine
 10
2825.191924633935
 20
3078.355848651587
 30
0.0
 11
2825.191924633935
 21
3059.155848651587
 31
0.0
  0
LINE
  5
1786E
330
17989
100
AcDbEntity
  8
HASIRA
100
AcDbLine
 10
2977.911924633929
 20
3078.355848651587
 30
0.0
 11
2977.911924633929
 21
3588.012757417067
 31
0.0
  0
LINE
  5
1786F
330
17989
100
AcDbEntity
  8
HASIRA
100
AcDbLine
 10
3120.471924633941
 20
3078.355848651587
 30
0.0
 11
3120.471924633941
 21
3588.012757417067
 31
0.0
  0
LINE
  5
17870
330
17989
100
AcDbEntity
  8
HATCH
100
AcDbLine
 10
2009.19192463377
 20
3059.155848651583
 30
0.0
 11
2064.61755047591
 21
3155.155848651473
 31
0.0
  0
LINE
  5
17871
330
17989
100
AcDbEntity
  8
HATCH
100
AcDbLine
 10
2026.217550475955
 20
3155.155848651473
 30
0.0
 11
2045.417550475933
 21
3121.90047314619
 31
0.0
  0
LINE
  5
17872
330
17989
100
AcDbEntity
  8
HATCH
100
AcDbLine
 10
2028.391924633748
 20
3092.411224156868
 30
0.0
 11
2047.591924633726
 21
3059.155848651583
 31
0.0
  0
LINE
  5
17873
330
17989
100
AcDbEntity
  8
HATCH
100
AcDbLine
 10
2153.191924633771
 20
3059.155848651583
 30
0.0
 11
2208.61755047591
 21
3155.155848651473
 31
0.0
  0
LINE
  5
17874
330
17989
100
AcDbEntity
  8
HATCH
100
AcDbLine
 10
2170.217550475955
 20
3155.155848651473
 30
0.0
 11
2189.417550475933
 21
3121.90047314619
 31
0.0
  0
LINE
  5
17875
330
17989
100
AcDbEntity
  8
HATCH
100
AcDbLine
 10
2172.391924633748
 20
3092.411224156868
 30
0.0
 11
2191.591924633727
 21
3059.155848651583
 31
0.0
  0
LINE
  5
17876
330
17989
100
AcDbEntity
  8
HATCH
100
AcDbLine
 10
1865.191924633769
 20
3059.155848651583
 30
0.0
 11
1920.61755047591
 21
3155.155848651473
 31
0.0
  0
LINE
  5
17877
330
17989
100
AcDbEntity
  8
HATCH
100
AcDbLine
 10
1882.217550475954
 20
3155.155848651473
 30
0.0
 11
1901.417550475932
 21
3121.90047314619
 31
0.0
  0
LINE
  5
17878
330
17989
100
AcDbEntity
  8
HATCH
100
AcDbLine
 10
1884.391924633748
 20
3092.411224156868
 30
0.0
 11
1903.591924633726
 21
3059.155848651583
 31
0.0
  0
LINE
  5
17879
330
17989
100
AcDbEntity
  8
HATCH
100
AcDbLine
 10
1721.191924633769
 20
3059.155848651583
 30
0.0
 11
1776.61755047591
 21
3155.155848651473
 31
0.0
  0
LINE
  5
1787A
330
17989
100
AcDbEntity
  8
HATCH
100
AcDbLine
 10
1738.217550475954
 20
3155.155848651473
 30
0.0
 11
1757.417550475932
 21
3121.90047314619
 31
0.0
  0
LINE
  5
1787B
330
17989
100
AcDbEntity
  8
HATCH
100
AcDbLine
 10
1740.391924633748
 20
3092.411224156868
 30
0.0
 11
1759.591924633725
 21
3059.155848651583
 31
0.0
  0
LINE
  5
1787C
330
17989
100
AcDbEntity
  8
HATCH
100
AcDbLine
 10
3128.429052763211
 20
2051.155848651583
 30
0.0
 11
3220.805095833572
 21
2211.155848651619
 31
0.0
  0
LINE
  5
1787D
330
17989
100
AcDbEntity
  8
HATCH
100
AcDbLine
 10
3156.805095833558
 20
2211.155848651618
 30
0.0
 11
3188.805095833565
 21
2155.730222809404
 31
0.0
  0
LINE
  5
1787E
330
17989
100
AcDbEntity
  8
HATCH
100
AcDbLine
 10
3160.429052763218
 20
2106.5814744938
 30
0.0
 11
3192.429052763225
 21
2051.155848651583
 31
0.0
  0
LINE
  5
1787F
330
17989
100
AcDbEntity
  8
HATCH
100
AcDbLine
 10
2888.429052763211
 20
2051.155848651583
 30
0.0
 11
2980.805095833573
 21
2211.155848651619
 31
0.0
  0
LINE
  5
17880
330
17989
100
AcDbEntity
  8
HATCH
100
AcDbLine
 10
2916.805095833558
 20
2211.155848651618
 30
0.0
 11
2948.805095833565
 21
2155.730222809404
 31
0.0
  0
LINE
  5
17881
330
17989
100
AcDbEntity
  8
HATCH
100
AcDbLine
 10
2920.429052763219
 20
2106.5814744938
 30
0.0
 11
2952.429052763226
 21
2051.155848651583
 31
0.0
  0
LINE
  5
17882
330
17989
100
AcDbEntity
  8
HATCH
100
AcDbLine
 10
3368.429052763211
 20
2051.155848651585
 30
0.0
 11
3460.805095833573
 21
2211.155848651621
 31
0.0
  0
LINE
  5
17883
330
17989
100
AcDbEntity
  8
HATCH
100
AcDbLine
 10
3396.805095833558
 20
2211.15584865162
 30
0.0
 11
3428.805095833566
 21
2155.730222809407
 31
0.0
  0
LINE
  5
17884
330
17989
100
AcDbEntity
  8
HATCH
100
AcDbLine
 10
3400.429052763219
 20
2106.581474493803
 30
0.0
 11
3432.429052763226
 21
2051.155848651585
 31
0.0
  0
LINE
  5
17885
330
17989
100
AcDbEntity
  8
HATCH
100
AcDbLine
 10
2648.429052763211
 20
2051.155848651583
 30
0.0
 11
2740.805095833573
 21
2211.155848651619
 31
0.0
  0
LINE
  5
17886
330
17989
100
AcDbEntity
  8
HATCH
100
AcDbLine
 10
2676.805095833558
 20
2211.155848651618
 30
0.0
 11
2708.805095833565
 21
2155.730222809404
 31
0.0
  0
LINE
  5
17887
330
17989
100
AcDbEntity
  8
HATCH
100
AcDbLine
 10
2680.429052763218
 20
2106.5814744938
 30
0.0
 11
2712.429052763226
 21
2051.155848651583
 31
0.0
  0
LINE
  5
17888
330
17989
100
AcDbEntity
  8
HATCH
100
AcDbLine
 10
2408.429052763211
 20
2051.155848651583
 30
0.0
 11
2500.805095833573
 21
2211.155848651619
 31
0.0
  0
LINE
  5
17889
330
17989
100
AcDbEntity
  8
HATCH
100
AcDbLine
 10
2436.805095833558
 20
2211.155848651618
 30
0.0
 11
2468.805095833565
 21
2155.730222809404
 31
0.0
  0
LINE
  5
1788A
330
17989
100
AcDbEntity
  8
HATCH
100
AcDbLine
 10
2440.429052763219
 20
2106.5814744938
 30
0.0
 11
2472.429052763227
 21
2051.155848651583
 31
0.0
  0
LINE
  5
1788B
330
17989
100
AcDbEntity
  8
TENSEN-1
100
AcDbLine
 10
2830.791924633933
 20
2459.155848651587
 30
0.0
 11
2878.791924633933
 21
2459.155848651583
 31
0.0
  0
LINE
  5
1788C
330
17989
100
AcDbEntity
  8
TENSEN-1
100
AcDbLine
 10
2878.791924633933
 20
2459.155848651583
 30
0.0
 11
2878.791924633933
 21
3110.355848651587
 31
0.0
  0
LINE
  5
1788D
330
17989
100
AcDbEntity
  8
TENSEN-1
100
AcDbLine
 10
2878.791924633933
 20
3110.355848651587
 30
0.0
 11
2899.591924633936
 21
3110.355848651587
 31
0.0
  0
LINE
  5
1788E
330
17989
100
AcDbEntity
  8
TENSEN-1
100
AcDbLine
 10
2899.591924633936
 20
3110.355848651587
 30
0.0
 11
2899.591924633936
 21
2438.355848651584
 31
0.0
  0
LINE
  5
1788F
330
17989
100
AcDbEntity
  8
TENSEN-1
100
AcDbLine
 10
2899.591924633936
 20
2438.355848651584
 30
0.0
 11
2830.791924633933
 21
2438.355848651588
 31
0.0
  0
LINE
  5
17890
330
17989
100
AcDbEntity
  8
TENSEN-1
100
AcDbLine
 10
2830.791924633933
 20
2438.355848651588
 30
0.0
 11
2830.791924633933
 21
2459.155848651587
 31
0.0
  0
LINE
  5
17891
330
17989
100
AcDbEntity
  8
TENSEN-1
100
AcDbLine
 10
3267.59192463394
 20
2459.155848651587
 30
0.0
 11
3219.59192463394
 21
2459.155848651587
 31
0.0
  0
LINE
  5
17892
330
17989
100
AcDbEntity
  8
TENSEN-1
100
AcDbLine
 10
3219.59192463394
 20
2459.155848651587
 30
0.0
 11
3219.59192463394
 21
3110.355848651587
 31
0.0
  0
LINE
  5
17893
330
17989
100
AcDbEntity
  8
TENSEN-1
100
AcDbLine
 10
3219.59192463394
 20
3110.355848651587
 30
0.0
 11
3198.791924633934
 21
3110.355848651587
 31
0.0
  0
LINE
  5
17894
330
17989
100
AcDbEntity
  8
TENSEN-1
100
AcDbLine
 10
3198.791924633934
 20
3110.355848651587
 30
0.0
 11
3198.791924633934
 21
2438.355848651584
 31
0.0
  0
LINE
  5
17895
330
17989
100
AcDbEntity
  8
TENSEN-1
100
AcDbLine
 10
3198.791924633934
 20
2438.355848651584
 30
0.0
 11
3267.591924633936
 21
2438.355848651588
 31
0.0
  0
LINE
  5
17896
330
17989
100
AcDbEntity
  8
TENSEN-1
100
AcDbLine
 10
3267.591924633936
 20
2438.355848651588
 30
0.0
 11
3267.59192463394
 21
2459.155848651587
 31
0.0
  0
LINE
  5
17897
330
17989
100
AcDbEntity
  8
TENSEN-1
100
AcDbLine
 10
3293.266180892381
 20
2459.155848651587
 30
0.0
 11
3341.26618089238
 21
2459.155848651587
 31
0.0
  0
LINE
  5
17898
330
17989
100
AcDbEntity
  8
TENSEN-1
100
AcDbLine
 10
3341.26618089238
 20
2459.155848651587
 30
0.0
 11
3341.26618089238
 21
3110.355848651587
 31
0.0
  0
LINE
  5
17899
330
17989
100
AcDbEntity
  8
TENSEN-1
100
AcDbLine
 10
3341.26618089238
 20
3110.355848651587
 30
0.0
 11
3362.06618089238
 21
3110.355848651587
 31
0.0
  0
LINE
  5
1789A
330
17989
100
AcDbEntity
  8
TENSEN-1
100
AcDbLine
 10
3362.06618089238
 20
3110.355848651587
 30
0.0
 11
3362.06618089238
 21
2438.355848651584
 31
0.0
  0
LINE
  5
1789B
330
17989
100
AcDbEntity
  8
TENSEN-1
100
AcDbLine
 10
3362.06618089238
 20
2438.355848651584
 30
0.0
 11
3293.266180892381
 21
2438.355848651588
 31
0.0
  0
LINE
  5
1789C
330
17989
100
AcDbEntity
  8
TENSEN-1
100
AcDbLine
 10
3293.266180892381
 20
2438.355848651588
 30
0.0
 11
3293.266180892381
 21
2459.155848651587
 31
0.0
  0
LINE
  5
1789D
330
17989
100
AcDbEntity
  8
1PL-M1
100
AcDbLine
 10
3511.666180892382
 20
1707.168933625339
 30
0.0
 11
3511.666180892382
 21
3588.012757417067
 31
0.0
  0
LINE
  5
1789E
330
17989
100
AcDbEntity
  8
1PL-M1
100
AcDbLine
 10
3049.191924633942
 20
1707.168933625339
 30
0.0
 11
3049.191924633935
 21
3588.012757417067
 31
0.0
  0
LINE
  5
1789F
330
17989
100
AcDbEntity
  8
KISO
100
AcDbLine
 10
3735.666180892382
 20
3059.155848651587
 30
0.0
 11
3287.666180892382
 21
3059.155848651587
 31
0.0
  0
LINE
  5
178A0
330
17989
100
AcDbEntity
  8
KISO
100
AcDbLine
 10
3287.666180892382
 20
3059.155848651587
 30
0.0
 11
3287.666180892382
 21
3078.355848651587
 31
0.0
  0
LINE
  5
178A1
330
17989
100
AcDbEntity
  8
KISO
100
AcDbLine
 10
3287.666180892382
 20
3078.355848651587
 30
0.0
 11
3735.666180892382
 21
3078.355848651587
 31
0.0
  0
LINE
  5
178A2
330
17989
100
AcDbEntity
  8
KISO
100
AcDbLine
 10
3735.666180892382
 20
3078.355848651587
 30
0.0
 11
3735.666180892382
 21
3059.155848651587
 31
0.0
  0
LINE
  5
178A3
330
17989
100
AcDbEntity
  8
KISO
100
AcDbLine
 10
6468.306062185526
 20
2032.603629464087
 30
0.0
 11
8532.306062185526
 21
2032.603629464087
 31
0.0
  0
LINE
  5
178A4
330
17989
100
AcDbEntity
  8
KISO
100
AcDbLine
 10
8532.306062185526
 20
2032.603629464087
 30
0.0
 11
8532.306062185526
 21
3312.603629464089
 31
0.0
  0
LINE
  5
178A5
330
17989
100
AcDbEntity
  8
KISO
100
AcDbLine
 10
8532.306062185526
 20
3312.603629464089
 30
0.0
 11
6468.306062185526
 21
3312.603629464089
 31
0.0
  0
LINE
  5
178A6
330
17989
100
AcDbEntity
  8
KISO
100
AcDbLine
 10
6468.306062185526
 20
3312.603629464089
 30
0.0
 11
6468.306062185526
 21
2032.603629464087
 31
0.0
  0
LINE
  5
178A7
330
17989
100
AcDbEntity
  8
0
 62
     0
100
AcDbLine
 10
6746.477527978765
 20
2672.603629465032
 30
0.0
 11
7386.47752797891
 21
3312.60362946518
 31
0.0
  0
LINE
  5
178A8
330
17989
100
AcDbEntity
  8
0
 62
     0
100
AcDbLine
 10
6468.306062189491
 20
2960.117588625115
 30
0.0
 11
6820.792103029532
 21
3312.60362946518
 31
0.0
  0
LINE
  5
178A9
330
17989
100
AcDbEntity
  8
0
 62
     0
100
AcDbLine
 10
7312.162952928128
 20
2672.603629465032
 30
0.0
 11
7952.162952928272
 21
3312.60362946518
 31
0.0
  0
LINE
  5
178AA
330
17989
100
AcDbEntity
  8
0
 62
     0
100
AcDbLine
 10
7877.848377877487
 20
2672.603629465032
 30
0.0
 11
8517.848377877646
 21
3312.60362946518
 31
0.0
  0
LINE
  5
178AB
330
17989
100
AcDbEntity
  8
0
 62
     0
100
AcDbLine
 10
8443.533802826861
 20
2672.603629465032
 30
0.0
 11
8532.30606218996
 21
2761.375888828119
 31
0.0
  0
LINE
  5
178AC
330
17989
100
AcDbEntity
  8
0
 62
     0
100
AcDbLine
 10
6675.766849860098
 20
2672.603629465032
 30
0.0
 11
7315.766849860243
 21
3312.60362946518
 31
0.0
  0
LINE
  5
178AD
330
17989
100
AcDbEntity
  8
0
 62
     0
100
AcDbLine
 10
6468.306062189491
 20
3030.828266743784
 30
0.0
 11
6750.081424910876
 21
3312.60362946518
 31
0.0
  0
LINE
  5
178AE
330
17989
100
AcDbEntity
  8
0
 62
     0
100
AcDbLine
 10
7241.45227480945
 20
2672.603629465032
 30
0.0
 11
7881.452274809595
 21
3312.60362946518
 31
0.0
  0
LINE
  5
178AF
330
17989
100
AcDbEntity
  8
0
 62
     0
100
AcDbLine
 10
7807.137699758825
 20
2672.603629465032
 30
0.0
 11
8447.137699758973
 21
3312.60362946518
 31
0.0
  0
LINE
  5
178B0
330
17989
100
AcDbEntity
  8
0
 62
     0
100
AcDbLine
 10
8372.823124708189
 20
2672.603629465032
 30
0.0
 11
8532.30606218996
 21
2832.08656694679
 31
0.0
  0
LINE
  5
178B1
330
17989
100
AcDbEntity
  8
0
 62
     0
100
AcDbLine
 10
7170.741596690783
 20
2672.603629465032
 30
0.0
 11
7810.741596690927
 21
3312.60362946518
 31
0.0
  0
LINE
  5
178B2
330
17989
100
AcDbEntity
  8
0
 62
     0
100
AcDbLine
 10
6605.05617174142
 20
2672.603629465032
 30
0.0
 11
7245.056171741565
 21
3312.60362946518
 31
0.0
  0
LINE
  5
178B3
330
17989
100
AcDbEntity
  8
0
 62
     0
100
AcDbLine
 10
6468.306062189491
 20
3101.538944862456
 30
0.0
 11
6679.370746792208
 21
3312.60362946518
 31
0.0
  0
LINE
  5
178B4
330
17989
100
AcDbEntity
  8
0
 62
     0
100
AcDbLine
 10
7736.427021640158
 20
2672.603629465032
 30
0.0
 11
8376.427021640301
 21
3312.60362946518
 31
0.0
  0
LINE
  5
178B5
330
17989
100
AcDbEntity
  8
0
 62
     0
100
AcDbLine
 10
8302.112446589516
 20
2672.603629465032
 30
0.0
 11
8532.30606218996
 21
2902.797245065461
 31
0.0
  0
LINE
  5
178B6
330
17989
100
AcDbEntity
  8
KISO-2
100
AcDbLine
 10
12006.80156980275
 20
7986.279066364541
 30
0.0
 11
12286.80156980275
 21
7986.279066364541
 31
0.0
  0
LINE
  5
178B7
330
17989
100
AcDbEntity
  8
KISO-2
100
AcDbLine
 10
12286.80156980275
 20
7986.279066364541
 30
0.0
 11
12286.80156980275
 21
8266.279066364539
 31
0.0
  0
LINE
  5
178B8
330
17989
100
AcDbEntity
  8
KISO-2
100
AcDbLine
 10
12286.80156980275
 20
8266.279066364539
 30
0.0
 11
12006.80156980275
 21
8266.279066364539
 31
0.0
  0
LINE
  5
178B9
330
17989
100
AcDbEntity
  8
KISO-2
100
AcDbLine
 10
12006.80156980275
 20
8266.279066364539
 30
0.0
 11
12006.80156980275
 21
7986.279066364541
 31
0.0
  0
LINE
  5
178BA
330
17989
100
AcDbEntity
  8
KISO-2
100
AcDbLine
 10
12006.80156980275
 20
7696.279066364538
 30
0.0
 11
12286.80156980275
 21
7696.279066364538
 31
0.0
  0
LINE
  5
178BB
330
17989
100
AcDbEntity
  8
KISO-2
100
AcDbLine
 10
12286.80156980275
 20
7696.279066364538
 30
0.0
 11
12286.80156980275
 21
7976.279066364539
 31
0.0
  0
LINE
  5
178BC
330
17989
100
AcDbEntity
  8
KISO-2
100
AcDbLine
 10
12286.80156980275
 20
7976.279066364539
 30
0.0
 11
12006.80156980275
 21
7976.279066364539
 31
0.0
  0
LINE
  5
178BD
330
17989
100
AcDbEntity
  8
KISO-2
100
AcDbLine
 10
12006.80156980275
 20
7976.279066364539
 30
0.0
 11
12006.80156980275
 21
7696.279066364538
 31
0.0
  0
LINE
  5
178BE
330
17989
100
AcDbEntity
  8
KISO-3
100
AcDbLine
 10
12386.80156980275
 20
8366.279066364539
 30
0.0
 11
12386.80156980275
 21
7596.279066364537
 31
0.0
  0
LINE
  5
178BF
330
17989
100
AcDbEntity
  8
KISO-3
100
AcDbLine
 10
12386.80156980275
 20
7596.279066364537
 30
0.0
 11
11906.80156980275
 21
7596.279066364537
 31
0.0
  0
LINE
  5
178C0
330
17989
100
AcDbEntity
  8
KISO-3
100
AcDbLine
 10
11906.80156980275
 20
7596.279066364537
 30
0.0
 11
11906.80156980275
 21
8366.279066364539
 31
0.0
  0
LINE
  5
178C1
330
17989
100
AcDbEntity
  8
KISO-2
100
AcDbLine
 10
9206.801569802752
 20
7986.279066364541
 30
0.0
 11
9486.801569802752
 21
7986.279066364541
 31
0.0
  0
LINE
  5
178C2
330
17989
100
AcDbEntity
  8
KISO-2
100
AcDbLine
 10
9486.801569802752
 20
7986.279066364541
 30
0.0
 11
9486.801569802752
 21
8266.279066364539
 31
0.0
  0
LINE
  5
178C3
330
17989
100
AcDbEntity
  8
KISO-2
100
AcDbLine
 10
9486.801569802752
 20
8266.279066364539
 30
0.0
 11
9206.801569802752
 21
8266.279066364539
 31
0.0
  0
LINE
  5
178C4
330
17989
100
AcDbEntity
  8
KISO-2
100
AcDbLine
 10
9206.801569802752
 20
8266.279066364539
 30
0.0
 11
9206.801569802752
 21
7986.279066364541
 31
0.0
  0
LINE
  5
178C5
330
17989
100
AcDbEntity
  8
KISO-3
100
AcDbLine
 10
9586.80156980275
 20
8366.279066364539
 30
0.0
 11
9586.80156980275
 21
7596.279066364537
 31
0.0
  0
LINE
  5
178C6
330
17989
100
AcDbEntity
  8
KISO-3
100
AcDbLine
 10
9586.80156980275
 20
7596.279066364537
 30
0.0
 11
9106.801569802753
 21
7596.279066364537
 31
0.0
  0
LINE
  5
178C7
330
17989
100
AcDbEntity
  8
KISO-3
100
AcDbLine
 10
9106.801569802753
 20
7596.279066364537
 30
0.0
 11
9106.801569802753
 21
8366.279066364539
 31
0.0
  0
LINE
  5
178C8
330
17989
100
AcDbEntity
  8
KISO-2
100
AcDbLine
 10
9206.801569802752
 20
7696.279066364538
 30
0.0
 11
9486.801569802752
 21
7696.279066364538
 31
0.0
  0
LINE
  5
178C9
330
17989
100
AcDbEntity
  8
KISO-2
100
AcDbLine
 10
9486.801569802752
 20
7696.279066364538
 30
0.0
 11
9486.801569802752
 21
7976.279066364539
 31
0.0
  0
LINE
  5
178CA
330
17989
100
AcDbEntity
  8
KISO-2
100
AcDbLine
 10
9486.801569802752
 20
7976.279066364539
 30
0.0
 11
9206.801569802752
 21
7976.279066364539
 31
0.0
  0
LINE
  5
178CB
330
17989
100
AcDbEntity
  8
KISO-2
100
AcDbLine
 10
9206.801569802752
 20
7976.279066364539
 30
0.0
 11
9206.801569802752
 21
7696.279066364538
 31
0.0
  0
TEXT
  5
178CC
330
17989
100
AcDbEntity
  8
NAME
100
AcDbText
 10
10826.90738393217
 20
541.0
 30
0.0
 40
160.0
  1
YOCF-280SA
 41
0.6
  7
01
100
AcDbText
  0
TEXT
  5
178CE
330
17989
100
AcDbEntity
  8
NAME
100
AcDbText
 10
11818.91058393216
 20
541.0
 30
0.0
 40
160.0
  1
型
 41
0.8
  7
01
100
AcDbText
  0
TEXT
  5
178CF
330
17989
100
AcDbEntity
  8
NAME
100
AcDbText
 10
11972.51058393217
 20
541.0
 30
0.0
 40
160.0
  1
（
 41
0.6667
  7
01
100
AcDbText
  0
TEXT
  5
178D0
330
17989
100
AcDbEntity
  8
NAME
100
AcDbText
 10
12100.51698393217
 20
541.0
 30
0.0
 40
160.0
  1
一般地用
 41
0.8
  7
01
100
AcDbText
  0
TEXT
  5
178D1
330
17989
100
AcDbEntity
  8
NAME
100
AcDbText
 10
12714.91698393216
 20
541.0
 30
0.0
 40
160.0
  1
）
 41
0.6667
  7
01
100
AcDbText
  0
TEXT
  5
178D2
330
17989
100
AcDbEntity
  8
NAME
100
AcDbText
 10
12842.92338393217
 20
541.0
 30
0.0
 40
160.0
  1
<3／3>
 41
0.6
  7
01
100
AcDbText
  0
ENDSEC
  0
SECTION
  2
OBJECTS
  0
DICTIONARY
  5
1792A
330
0
100
AcDbDictionary
281
     1
  3
ACAD_COLOR
350
17980
  3
ACAD_GROUP
350
1792B
  3
ACAD_LAYOUT
350
1797F
  3
ACAD_MATERIAL
350
1792E
  3
ACAD_MLEADERSTYLE
350
17983
  3
ACAD_MLINESTYLE
350
1797C
  3
ACAD_PLOTSETTINGS
350
1797E
  3
ACAD_PLOTSTYLENAME
350
1792C
  3
ACAD_SCALELIST
350
17960
  3
ACAD_TABLESTYLE
350
17981
  3
ACAD_VISUALSTYLE
350
17947
  3
ACDB_RECOMPOSE_DATA
350
179D1
  3
AcDbVariableDictionary
350
179C7
  0
DICTIONARY
  5
17980
102
{ACAD_REACTORS
330
1792A
102
}
330
1792A
100
AcDbDictionary
281
     1
  0
DICTIONARY
  5
1792B
102
{ACAD_REACTORS
330
1792A
102
}
330
1792A
100
AcDbDictionary
281
     1
  0
DICTIONARY
  5
1797F
102
{ACAD_REACTORS
330
1792A
102
}
330
1792A
100
AcDbDictionary
281
     1
  3
Model
350
1798C
  3
レイアウト1
350
17988
  0
DICTIONARY
  5
1792E
102
{ACAD_REACTORS
330
1792A
102
}
330
1792A
100
AcDbDictionary
281
     1
  3
ByBlock
350
17937
  3
ByLayer
350
1792F
  3
Global
350
1793F
  0
DICTIONARY
  5
17983
102
{ACAD_REACTORS
330
1792A
102
}
330
1792A
100
AcDbDictionary
281
     1
  3
Standard
350
17984
  0
DICTIONARY
  5
1797C
102
{ACAD_REACTORS
330
1792A
102
}
330
1792A
100
AcDbDictionary
281
     1
  3
Standard
350
1797D
  0
DICTIONARY
  5
1797E
102
{ACAD_REACTORS
330
1792A
102
}
330
1792A
100
AcDbDictionary
281
     1
  0
ACDBDICTIONARYWDFLT
  5
1792C
102
{ACAD_REACTORS
330
1792A
102
}
330
1792A
100
AcDbDictionary
281
     1
  3
Normal
350
1792D
100
AcDbDictionaryWithDefault
340
1792D
  0
DICTIONARY
  5
17960
102
{ACAD_REACTORS
330
1792A
102
}
330
1792A
100
AcDbDictionary
281
     1
  3
A0
350
17961
  3
A1
350
17962
  3
A2
350
17963
  3
A3
350
17964
  3
A4
350
17965
  3
A5
350
17966
  3
A6
350
17967
  3
A7
350
17968
  3
A8
350
17969
  3
A9
350
1796A
  3
B0
350
1796B
  3
B1
350
1796C
  3
B2
350
1796D
  3
B3
350
1796E
  3
B4
350
1796F
  3
B5
350
17970
  3
B6
350
17971
  0
DICTIONARY
  5
17981
102
{ACAD_REACTORS
330
1792A
102
}
330
1792A
100
AcDbDictionary
281
     1
  3
Standard
350
17982
  0
DICTIONARY
  5
17947
102
{ACAD_REACTORS
330
1792A
102
}
330
1792A
100
AcDbDictionary
281
     1
  3
2dWireframe
350
1794D
  3
Basic
350
1794C
  3
Brighten
350
17953
  3
ColorChange
350
17957
  3
Conceptual
350
17950
  3
Dim
350
17952
  3
EdgeColorOff
350
1795F
  3
Facepattern
350
17956
  3
Flat
350
17948
  3
FlatWithEdges
350
17949
  3
Gouraud
350
1794A
  3
GouraudWithEdges
350
1794B
  3
Hidden
350
1794F
  3
JitterOff
350
1795D
  3
Linepattern
350
17955
  3
OverhangOff
350
1795E
  3
Realistic
350
17951
  3
Shaded
350
1795C
  3
Shaded with edges
350
1795B
  3
Shades of Gray
350
17958
  3
Sketchy
350
17959
  3
Thicken
350
17954
  3
Wireframe
350
1794E
  3
X-Ray
350
1795A
  0
XRECORD
  5
179D1
102
{ACAD_REACTORS
330
1792A
102
}
330
1792A
100
AcDbXrecord
280
     1
 90
        1
330
17982
  0
DICTIONARY
  5
179C7
102
{ACAD_REACTORS
330
1792A
102
}
330
1792A
100
AcDbDictionary
281
     1
  3
CANNOSCALE
350
179CB
  3
CMLEADERSTYLE
350
179C9
  3
CTABLESTYLE
350
179C8
  3
LAYEREVAL
350
179CD
  3
LAYERNOTIFY
350
179CE
  3
LIGHTINGUNITS
350
179CC
  3
MSLTSCALE
350
179CA
  0
LAYOUT
  5
1798C
102
{ACAD_REACTORS
330
1797F
102
}
330
1797F
100
AcDbPlotSettings
  1

  2
RICOH imagio MP C4500 ｶﾗｰ_南
  4

  6

 40
0.0
 41
0.0
 42
0.0
 43
0.0
 44
0.0
 45
0.0
 46
0.0
 47
0.0
 48
0.0
 49
0.0
140
0.0
141
0.0
142
1.0
143
1.0
 70
  1712
 72
     0
 73
     0
 74
     0
  7

 75
     0
147
1.0
 76
     0
 77
     2
 78
   300
148
0.0
149
0.0
100
AcDbLayout
  1
Model
 70
     1
 71
     0
 10
0.0
 20
0.0
 11
12.0
 21
9.0
 12
0.0
 22
0.0
 32
0.0
 14
0.0
 24
0.0
 34
0.0
 15
0.0
 25
0.0
 35
0.0
146
0.0
 13
0.0
 23
0.0
 33
0.0
 16
1.0
 26
0.0
 36
0.0
 17
0.0
 27
1.0
 37
0.0
 76
     0
330
17989
331
1798F
  0
LAYOUT
  5
17988
102
{ACAD_REACTORS
330
1797F
102
}
330
1797F
100
AcDbPlotSettings
  1

  2
RICOH imagio MP C4500 ｶﾗｰ_南
  4

  6

 40
0.0
 41
0.0
 42
0.0
 43
0.0
 44
0.0
 45
0.0
 46
0.0
 47
0.0
 48
0.0
 49
0.0
140
0.0
141
0.0
142
1.0
143
1.0
 70
   688
 72
     0
 73
     0
 74
     5
  7

 75
    16
147
1.0
 76
     0
 77
     2
 78
   300
148
0.0
149
0.0
100
AcDbLayout
  1
レイアウト1
 70
     0
 71
     1
 10
0.0
 20
0.0
 11
12.0
 21
9.0
 12
0.0
 22
0.0
 32
0.0
 14
1.000000000000000E+20
 24
1.000000000000000E+20
 34
1.000000000000000E+20
 15
-1.000000000000000E+20
 25
-1.000000000000000E+20
 35
-1.000000000000000E+20
146
0.0
 13
0.0
 23
0.0
 33
0.0
 16
1.0
 26
0.0
 36
0.0
 17
0.0
 27
1.0
 37
0.0
 76
     0
330
17985
  0
MATERIAL
  5
17937
102
{ACAD_XDICTIONARY
360
17938
102
}
102
{ACAD_REACTORS
330
1792E
102
}
330
1792E
100
AcDbMaterial
  1
ByBlock
 72
     0
 43
0.0208333333333333
 43
0.0
 43
0.0
 43
0.0
 43
0.0
 43
0.0208333333333333
 43
0.0
 43
0.0
 43
0.0
 43
0.0
 43
1.0
 43
0.0
 43
0.0
 43
0.0
 43
0.0
 43
1.0
 77
     0
 47
0.0208333333333333
 47
0.0
 47
0.0
 47
0.0
 47
0.0
 47
0.0208333333333333
 47
0.0
 47
0.0
 47
0.0
 47
0.0
 47
1.0
 47
0.0
 47
0.0
 47
0.0
 47
0.0
 47
1.0
171
     0
 49
0.0208333333333333
 49
0.0
 49
0.0
 49
0.0
 49
0.0
 49
0.0208333333333333
 49
0.0
 49
0.0
 49
0.0
 49
0.0
 49
1.0
 49
0.0
 49
0.0
 49
0.0
 49
0.0
 49
1.0
175
     0
142
0.0208333333333333
142
0.0
142
0.0
142
0.0
142
0.0
142
0.0208333333333333
142
0.0
142
0.0
142
0.0
142
0.0
142
1.0
142
0.0
142
0.0
142
0.0
142
0.0
142
1.0
179
     0
144
0.0208333333333333
144
0.0
144
0.0
144
0.0
144
0.0
144
0.0208333333333333
144
0.0
144
0.0
144
0.0
144
0.0
144
1.0
144
0.0
144
0.0
144
0.0
144
0.0
144
1.0
147
0.0208333333333333
147
0.0
147
0.0
147
0.0
147
0.0
147
0.0208333333333333
147
0.0
147
0.0
147
0.0
147
0.0
147
1.0
147
0.0
147
0.0
147
0.0
147
0.0
147
1.0
  0
MATERIAL
  5
1792F
102
{ACAD_XDICTIONARY
360
17930
102
}
102
{ACAD_REACTORS
330
1792E
102
}
330
1792E
100
AcDbMaterial
  1
ByLayer
 72
     0
 43
0.0208333333333333
 43
0.0
 43
0.0
 43
0.0
 43
0.0
 43
0.0208333333333333
 43
0.0
 43
0.0
 43
0.0
 43
0.0
 43
1.0
 43
0.0
 43
0.0
 43
0.0
 43
0.0
 43
1.0
 77
     0
 47
0.0208333333333333
 47
0.0
 47
0.0
 47
0.0
 47
0.0
 47
0.0208333333333333
 47
0.0
 47
0.0
 47
0.0
 47
0.0
 47
1.0
 47
0.0
 47
0.0
 47
0.0
 47
0.0
 47
1.0
171
     0
 49
0.0208333333333333
 49
0.0
 49
0.0
 49
0.0
 49
0.0
 49
0.0208333333333333
 49
0.0
 49
0.0
 49
0.0
 49
0.0
 49
1.0
 49
0.0
 49
0.0
 49
0.0
 49
0.0
 49
1.0
175
     0
142
0.0208333333333333
142
0.0
142
0.0
142
0.0
142
0.0
142
0.0208333333333333
142
0.0
142
0.0
142
0.0
142
0.0
142
1.0
142
0.0
142
0.0
142
0.0
142
0.0
142
1.0
179
     0
144
0.0208333333333333
144
0.0
144
0.0
144
0.0
144
0.0
144
0.0208333333333333
144
0.0
144
0.0
144
0.0
144
0.0
144
1.0
144
0.0
144
0.0
144
0.0
144
0.0
144
1.0
147
0.0208333333333333
147
0.0
147
0.0
147
0.0
147
0.0
147
0.0208333333333333
147
0.0
147
0.0
147
0.0
147
0.0
147
1.0
147
0.0
147
0.0
147
0.0
147
0.0
147
1.0
  0
MATERIAL
  5
1793F
102
{ACAD_XDICTIONARY
360
17940
102
}
102
{ACAD_REACTORS
330
1792E
102
}
330
1792E
100
AcDbMaterial
  1
Global
 72
     0
 43
0.0208333333333333
 43
0.0
 43
0.0
 43
0.0
 43
0.0
 43
0.0208333333333333
 43
0.0
 43
0.0
 43
0.0
 43
0.0
 43
1.0
 43
0.0
 43
0.0
 43
0.0
 43
0.0
 43
1.0
 77
     0
 47
0.0208333333333333
 47
0.0
 47
0.0
 47
0.0
 47
0.0
 47
0.0208333333333333
 47
0.0
 47
0.0
 47
0.0
 47
0.0
 47
1.0
 47
0.0
 47
0.0
 47
0.0
 47
0.0
 47
1.0
171
     0
 49
0.0208333333333333
 49
0.0
 49
0.0
 49
0.0
 49
0.0
 49
0.0208333333333333
 49
0.0
 49
0.0
 49
0.0
 49
0.0
 49
1.0
 49
0.0
 49
0.0
 49
0.0
 49
0.0
 49
1.0
175
     0
142
0.0208333333333333
142
0.0
142
0.0
142
0.0
142
0.0
142
0.0208333333333333
142
0.0
142
0.0
142
0.0
142
0.0
142
1.0
142
0.0
142
0.0
142
0.0
142
0.0
142
1.0
179
     0
144
0.0208333333333333
144
0.0
144
0.0
144
0.0
144
0.0
144
0.0208333333333333
144
0.0
144
0.0
144
0.0
144
0.0
144
1.0
144
0.0
144
0.0
144
0.0
144
0.0
144
1.0
147
0.0208333333333333
147
0.0
147
0.0
147
0.0
147
0.0
147
0.0208333333333333
147
0.0
147
0.0
147
0.0
147
0.0
147
1.0
147
0.0
147
0.0
147
0.0
147
0.0
147
1.0
  0
MLEADERSTYLE
  5
17984
102
{ACAD_REACTORS
330
17983
102
}
330
17983
100
AcDbMLeaderStyle
179
     2
170
     2
171
     1
172
     0
 90
        2
 40
0.0
 41
0.0
173
     1
 91
-1056964608
340
17978
 92
       -2
290
     1
 42
0.09
291
     1
 43
0.36
  3
Standard
 44
0.18
300

342
17973
174
     1
178
     6
175
     1
176
     0
 93
-1056964608
 45
0.18
292
     0
297
     0
 46
0.18
 94
-1056964608
 47
1.0
 49
1.0
140
1.0
293
     1
141
0.0
294
     1
177
     0
142
1.0
295
     0
296
     0
143
0.125
271
     0
272
     9
273
     9
  0
MLINESTYLE
  5
1797D
102
{ACAD_REACTORS
330
1797C
102
}
330
1797C
100
AcDbMlineStyle
  2
STANDARD
 70
     0
  3

 62
   256
 51
90.0
 52
90.0
 71
     2
 49
0.5
 62
   256
  6
BYLAYER
 49
-0.5
 62
   256
  6
BYLAYER
  0
ACDBPLACEHOLDER
  5
1792D
102
{ACAD_REACTORS
330
1792C
102
}
330
1792C
  0
SCALE
  5
17961
102
{ACAD_REACTORS
330
17960
102
}
330
17960
100
AcDbScale
 70
     0
300
1:1
140
1.0
141
1.0
290
     1
  0
SCALE
  5
17962
102
{ACAD_REACTORS
330
17960
102
}
330
17960
100
AcDbScale
 70
     0
300
1/128" = 1'-0"
140
0.0078125
141
12.0
290
     0
  0
SCALE
  5
17963
102
{ACAD_REACTORS
330
17960
102
}
330
17960
100
AcDbScale
 70
     0
300
1/64" = 1'-0"
140
0.015625
141
12.0
290
     0
  0
SCALE
  5
17964
102
{ACAD_REACTORS
330
17960
102
}
330
17960
100
AcDbScale
 70
     0
300
1/32" = 1'-0"
140
0.03125
141
12.0
290
     0
  0
SCALE
  5
17965
102
{ACAD_REACTORS
330
17960
102
}
330
17960
100
AcDbScale
 70
     0
300
1/16" = 1'-0"
140
0.0625
141
12.0
290
     0
  0
SCALE
  5
17966
102
{ACAD_REACTORS
330
17960
102
}
330
17960
100
AcDbScale
 70
     0
300
3/32" = 1'-0"
140
0.09375
141
12.0
290
     0
  0
SCALE
  5
17967
102
{ACAD_REACTORS
330
17960
102
}
330
17960
100
AcDbScale
 70
     0
300
1/8" = 1'-0"
140
0.125
141
12.0
290
     0
  0
SCALE
  5
17968
102
{ACAD_REACTORS
330
17960
102
}
330
17960
100
AcDbScale
 70
     0
300
3/16" = 1'-0"
140
0.1875
141
12.0
290
     0
  0
SCALE
  5
17969
102
{ACAD_REACTORS
330
17960
102
}
330
17960
100
AcDbScale
 70
     0
300
1/4" = 1'-0"
140
0.25
141
12.0
290
     0
  0
SCALE
  5
1796A
102
{ACAD_REACTORS
330
17960
102
}
330
17960
100
AcDbScale
 70
     0
300
3/8" = 1'-0"
140
0.375
141
12.0
290
     0
  0
SCALE
  5
1796B
102
{ACAD_REACTORS
330
17960
102
}
330
17960
100
AcDbScale
 70
     0
300
1/2" = 1'-0"
140
0.5
141
12.0
290
     0
  0
SCALE
  5
1796C
102
{ACAD_REACTORS
330
17960
102
}
330
17960
100
AcDbScale
 70
     0
300
3/4" = 1'-0"
140
0.75
141
12.0
290
     0
  0
SCALE
  5
1796D
102
{ACAD_REACTORS
330
17960
102
}
330
17960
100
AcDbScale
 70
     0
300
1" = 1'-0"
140
1.0
141
12.0
290
     0
  0
SCALE
  5
1796E
102
{ACAD_REACTORS
330
17960
102
}
330
17960
100
AcDbScale
 70
     0
300
1-1/2" = 1'-0"
140
1.5
141
12.0
290
     0
  0
SCALE
  5
1796F
102
{ACAD_REACTORS
330
17960
102
}
330
17960
100
AcDbScale
 70
     0
300
3" = 1'-0"
140
3.0
141
12.0
290
     0
  0
SCALE
  5
17970
102
{ACAD_REACTORS
330
17960
102
}
330
17960
100
AcDbScale
 70
     0
300
6" = 1'-0"
140
6.0
141
12.0
290
     0
  0
SCALE
  5
17971
102
{ACAD_REACTORS
330
17960
102
}
330
17960
100
AcDbScale
 70
     0
300
1'-0" = 1'-0"
140
12.0
141
12.0
290
     0
  0
TABLESTYLE
  5
17982
102
{ACAD_XDICTIONARY
360
179CF
102
}
102
{ACAD_REACTORS
330
17981
102
}
330
17981
100
AcDbTableStyle
280
     0
  3
Standard
 70
     0
 71
     0
 40
0.06
 41
0.06
280
     0
281
     0
  7
STANDARD
140
0.18
170
     2
 62
     0
 63
     7
283
     0
 90
      512
 91
        0
  1

274
    -2
284
     1
 64
     0
275
    -2
285
     1
 65
     0
276
    -2
286
     1
 66
     0
277
    -2
287
     1
 67
     0
278
    -2
288
     1
 68
     0
279
    -2
289
     1
 69
     0
  7
STANDARD
140
0.25
170
     5
 62
     0
 63
     7
283
     0
 90
      512
 91
        0
  1

274
    -2
284
     1
 64
     0
275
    -2
285
     1
 65
     0
276
    -2
286
     1
 66
     0
277
    -2
287
     1
 67
     0
278
    -2
288
     1
 68
     0
279
    -2
289
     1
 69
     0
  7
STANDARD
140
0.18
170
     5
 62
     0
 63
     7
283
     0
 90
      512
 91
        0
  1

274
    -2
284
     1
 64
     0
275
    -2
285
     1
 65
     0
276
    -2
286
     1
 66
     0
277
    -2
287
     1
 67
     0
278
    -2
288
     1
 68
     0
279
    -2
289
     1
 69
     0
  0
VISUALSTYLE
  5
1794D
102
{ACAD_REACTORS
330
17947
102
}
330
17947
100
AcDbVisualStyle
  2
2dWireframe
 70
     4
177
     2
291
     0
 71
     0
176
     1
 72
     2
176
     1
 73
     0
176
     1
 90
        0
176
     1
 40
0.6
176
     1
 41
30.0
176
     1
 63
     7
421
 16777215
176
     1
 74
     1
176
     1
 91
        4
176
     1
 64
     7
176
     1
 65
   257
176
     1
 75
     1
176
     1
175
     1
176
     1
 42
1.0
176
     1
 92
        0
176
     1
 66
   257
176
     1
 43
1.0
176
     1
 76
     1
176
     1
 77
     6
176
     1
 78
     2
176
     1
 67
     7
176
     1
 79
     5
176
     1
170
     0
176
     1
171
     0
176
     1
290
     0
176
     1
 93
        1
176
     1
 44
0.0
176
     1
173
     0
176
     1
  0
VISUALSTYLE
  5
1794C
102
{ACAD_REACTORS
330
17947
102
}
330
17947
100
AcDbVisualStyle
  2
Basic
 70
     7
177
     2
291
     1
 71
     1
176
     1
 72
     0
176
     1
 73
     1
176
     1
 90
        0
176
     1
 40
0.6
176
     1
 41
30.0
176
     1
 63
     7
421
 16777215
176
     1
 74
     0
176
     1
 91
        4
176
     1
 64
     7
176
     1
 65
   257
176
     1
 75
     1
176
     1
175
     1
176
     1
 42
1.0
176
     1
 92
        8
176
     1
 66
     7
176
     1
 43
1.0
176
     1
 76
     1
176
     1
 77
     6
176
     1
 78
     2
176
     1
 67
     7
176
     1
 79
     5
176
     1
170
     0
176
     1
171
     0
176
     1
290
     0
176
     1
 93
        1
176
     1
 44
0.0
176
     1
173
     0
176
     1
  0
VISUALSTYLE
  5
17953
102
{ACAD_REACTORS
330
17947
102
}
330
17947
100
AcDbVisualStyle
  2
Brighten
 70
    12
177
     2
291
     1
 71
     2
176
     1
 72
     2
176
     1
 73
     0
176
     1
 90
        0
176
     1
 40
0.6
176
     1
 41
30.0
176
     1
 63
     7
421
 16777215
176
     1
 74
     1
176
     1
 91
        4
176
     1
 64
     7
176
     1
 65
   257
176
     1
 75
     1
176
     1
175
     1
176
     1
 42
1.0
176
     1
 92
        8
176
     1
 66
     7
176
     1
 43
1.0
176
     1
 76
     1
176
     1
 77
     6
176
     1
 78
     2
176
     1
 67
     7
176
     1
 79
     5
176
     1
170
     0
176
     1
171
     0
176
     1
290
     0
176
     1
 93
        1
176
     1
 44
50.0
176
     1
173
     0
176
     1
  0
VISUALSTYLE
  5
17957
102
{ACAD_REACTORS
330
17947
102
}
330
17947
100
AcDbVisualStyle
  2
ColorChange
 70
    16
177
     2
291
     1
 71
     2
176
     1
 72
     2
176
     1
 73
     3
176
     1
 90
        0
176
     1
 40
0.6
176
     1
 41
30.0
176
     1
 63
     8
421
  8421504
176
     1
 74
     1
176
     1
 91
        4
176
     1
 64
     7
176
     1
 65
   257
176
     1
 75
     1
176
     1
175
     1
176
     1
 42
1.0
176
     1
 92
        8
176
     1
 66
     8
424
  8421504
176
     1
 43
1.0
176
     1
 76
     1
176
     1
 77
     6
176
     1
 78
     2
176
     1
 67
     7
176
     1
 79
     5
176
     1
170
     0
176
     1
171
     0
176
     1
290
     0
176
     1
 93
        1
176
     1
 44
0.0
176
     1
173
     0
176
     1
  0
VISUALSTYLE
  5
17950
102
{ACAD_REACTORS
330
17947
102
}
330
17947
100
AcDbVisualStyle
  2
Conceptual
 70
     9
177
     2
291
     0
 71
     3
176
     1
 72
     2
176
     1
 73
     0
176
     1
 90
        0
176
     1
 40
0.6
176
     1
 41
30.0
176
     1
 63
     7
421
 16777215
176
     1
 74
     2
176
     1
 91
        2
176
     1
 64
     7
176
     1
 65
   257
176
     1
 75
     1
176
     1
175
     1
176
     1
 42
179.0
176
     1
 92
        8
176
     1
 66
     7
176
     1
 43
1.0
176
     1
 76
     1
176
     1
 77
     6
176
     1
 78
     2
176
     1
 67
     7
176
     1
 79
     3
176
     1
170
     0
176
     1
171
     0
176
     1
290
     0
176
     1
 93
        1
176
     1
 44
0.0
176
     1
173
     0
176
     1
  0
VISUALSTYLE
  5
17952
102
{ACAD_REACTORS
330
17947
102
}
330
17947
100
AcDbVisualStyle
  2
Dim
 70
    11
177
     2
291
     1
 71
     2
176
     1
 72
     2
176
     1
 73
     0
176
     1
 90
        0
176
     1
 40
0.6
176
     1
 41
30.0
176
     1
 63
     7
421
 16777215
176
     1
 74
     1
176
     1
 91
        4
176
     1
 64
     7
176
     1
 65
   257
176
     1
 75
     1
176
     1
175
     1
176
     1
 42
1.0
176
     1
 92
        8
176
     1
 66
     7
176
     1
 43
1.0
176
     1
 76
     1
176
     1
 77
     6
176
     1
 78
     2
176
     1
 67
     7
176
     1
 79
     5
176
     1
170
     0
176
     1
171
     0
176
     1
290
     0
176
     1
 93
        1
176
     1
 44
-50.0
176
     1
173
     0
176
     1
  0
VISUALSTYLE
  5
1795F
102
{ACAD_REACTORS
330
17947
102
}
330
17947
100
AcDbVisualStyle
  2
EdgeColorOff
 70
    22
177
     2
291
     1
 71
     2
176
     0
 72
     2
176
     0
 73
     0
176
     0
 90
        0
176
     0
 40
0.6
176
     0
 41
30.0
176
     0
 63
     7
421
 16777215
176
     0
 74
     1
176
     0
 91
        4
176
     0
 64
     7
176
     0
 65
   257
176
     0
 75
     1
176
     0
175
     1
176
     0
 42
1.0
176
     0
 92
        8
176
     2
 66
     7
176
     0
 43
1.0
176
     0
 76
     1
176
     0
 77
     6
176
     0
 78
     2
176
     0
 67
     7
176
     0
 79
     5
176
     0
170
     0
176
     0
171
     0
176
     0
290
     0
176
     0
 93
        1
176
     0
 44
0.0
176
     0
173
     0
176
     0
  0
VISUALSTYLE
  5
17956
102
{ACAD_REACTORS
330
17947
102
}
330
17947
100
AcDbVisualStyle
  2
Facepattern
 70
    15
177
     2
291
     1
 71
     2
176
     1
 72
     2
176
     1
 73
     0
176
     1
 90
        0
176
     1
 40
0.6
176
     1
 41
30.0
176
     1
 63
     7
421
 16777215
176
     1
 74
     1
176
     1
 91
        4
176
     1
 64
     7
176
     1
 65
   257
176
     1
 75
     1
176
     1
175
     1
176
     1
 42
1.0
176
     1
 92
        8
176
     1
 66
     7
176
     1
 43
1.0
176
     1
 76
     1
176
     1
 77
     6
176
     1
 78
     2
176
     1
 67
     7
176
     1
 79
     5
176
     1
170
     0
176
     1
171
     0
176
     1
290
     0
176
     1
 93
        1
176
     1
 44
0.0
176
     1
173
     0
176
     1
  0
VISUALSTYLE
  5
17948
102
{ACAD_REACTORS
330
17947
102
}
330
17947
100
AcDbVisualStyle
  2
Flat
 70
     0
177
     2
291
     1
 71
     2
176
     1
 72
     1
176
     1
 73
     1
176
     1
 90
        2
176
     1
 40
0.6
176
     1
 41
30.0
176
     1
 63
     7
421
 16777215
176
     1
 74
     0
176
     1
 91
        0
176
     1
 64
     7
176
     1
 65
   257
176
     1
 75
     1
176
     1
175
     1
176
     1
 42
1.0
176
     1
 92
        8
176
     1
 66
     7
176
     1
 43
1.0
176
     1
 76
     1
176
     1
 77
     6
176
     1
 78
     2
176
     1
 67
     7
176
     1
 79
     5
176
     1
170
     0
176
     1
171
     0
176
     1
290
     0
176
     1
 93
       13
176
     1
 44
0.0
176
     1
173
     0
176
     1
  0
VISUALSTYLE
  5
17949
102
{ACAD_REACTORS
330
17947
102
}
330
17947
100
AcDbVisualStyle
  2
FlatWithEdges
 70
     1
177
     2
291
     1
 71
     2
176
     1
 72
     1
176
     1
 73
     1
176
     1
 90
        2
176
     1
 40
0.6
176
     1
 41
30.0
176
     1
 63
     7
421
 16777215
176
     1
 74
     1
176
     1
 91
        0
176
     1
 64
     7
176
     1
 65
   257
176
     1
 75
     1
176
     1
175
     1
176
     1
 42
1.0
176
     1
 92
        0
176
     1
 66
   257
176
     1
 43
1.0
176
     1
 76
     1
176
     1
 77
     6
176
     1
 78
     2
176
     1
 67
     7
176
     1
 79
     5
176
     1
170
     0
176
     1
171
     0
176
     1
290
     0
176
     1
 93
       13
176
     1
 44
0.0
176
     1
173
     0
176
     1
  0
VISUALSTYLE
  5
1794A
102
{ACAD_REACTORS
330
17947
102
}
330
17947
100
AcDbVisualStyle
  2
Gouraud
 70
     2
177
     2
291
     1
 71
     2
176
     1
 72
     2
176
     1
 73
     1
176
     1
 90
        2
176
     1
 40
0.6
176
     1
 41
30.0
176
     1
 63
     7
421
 16777215
176
     1
 74
     0
176
     1
 91
        0
176
     1
 64
     7
176
     1
 65
   257
176
     1
 75
     1
176
     1
175
     1
176
     1
 42
1.0
176
     1
 92
        0
176
     1
 66
     7
176
     1
 43
1.0
176
     1
 76
     1
176
     1
 77
     6
176
     1
 78
     2
176
     1
 67
     7
176
     1
 79
     5
176
     1
170
     0
176
     1
171
     0
176
     1
290
     0
176
     1
 93
       13
176
     1
 44
0.0
176
     1
173
     0
176
     1
  0
VISUALSTYLE
  5
1794B
102
{ACAD_REACTORS
330
17947
102
}
330
17947
100
AcDbVisualStyle
  2
GouraudWithEdges
 70
     3
177
     2
291
     1
 71
     2
176
     1
 72
     2
176
     1
 73
     1
176
     1
 90
        2
176
     1
 40
0.6
176
     1
 41
30.0
176
     1
 63
     7
421
 16777215
176
     1
 74
     1
176
     1
 91
        0
176
     1
 64
     7
176
     1
 65
   257
176
     1
 75
     1
176
     1
175
     1
176
     1
 42
1.0
176
     1
 92
        0
176
     1
 66
   257
176
     1
 43
1.0
176
     1
 76
     1
176
     1
 77
     6
176
     1
 78
     2
176
     1
 67
     7
176
     1
 79
     5
176
     1
170
     0
176
     1
171
     0
176
     1
290
     0
176
     1
 93
       13
176
     1
 44
0.0
176
     1
173
     0
176
     1
  0
VISUALSTYLE
  5
1794F
102
{ACAD_REACTORS
330
17947
102
}
330
17947
100
AcDbVisualStyle
  2
Hidden
 70
     6
177
     2
291
     0
 71
     1
176
     1
 72
     2
176
     1
 73
     2
176
     1
 90
        0
176
     1
 40
0.6
176
     1
 41
30.0
176
     1
 63
     7
421
 16777215
176
     1
 74
     2
176
     1
 91
        2
176
     1
 64
     7
176
     1
 65
   257
176
     1
 75
     2
176
     1
175
     1
176
     1
 42
40.0
176
     1
 92
        0
176
     1
 66
   257
176
     1
 43
1.0
176
     1
 76
     1
176
     1
 77
     6
176
     1
 78
     2
176
     1
 67
     7
176
     1
 79
     3
176
     1
170
     0
176
     1
171
     0
176
     1
290
     0
176
     1
 93
        1
176
     1
 44
0.0
176
     1
173
     0
176
     1
  0
VISUALSTYLE
  5
1795D
102
{ACAD_REACTORS
330
17947
102
}
330
17947
100
AcDbVisualStyle
  2
JitterOff
 70
    20
177
     2
291
     1
 71
     2
176
     0
 72
     2
176
     0
 73
     0
176
     0
 90
        0
176
     0
 40
0.6
176
     0
 41
30.0
176
     0
 63
     7
421
 16777215
176
     0
 74
     1
176
     0
 91
        4
176
     0
 64
     7
176
     0
 65
   257
176
     0
 75
     1
176
     0
175
     1
176
     0
 42
1.0
176
     0
 92
       10
176
     2
 66
     7
176
     0
 43
1.0
176
     0
 76
     1
176
     0
 77
     6
176
     0
 78
     2
176
     0
 67
     7
176
     0
 79
     5
176
     0
170
     0
176
     0
171
     0
176
     0
290
     0
176
     0
 93
        1
176
     0
 44
0.0
176
     0
173
     0
176
     0
  0
VISUALSTYLE
  5
17955
102
{ACAD_REACTORS
330
17947
102
}
330
17947
100
AcDbVisualStyle
  2
Linepattern
 70
    14
177
     2
291
     1
 71
     2
176
     1
 72
     2
176
     1
 73
     0
176
     1
 90
        0
176
     1
 40
0.6
176
     1
 41
30.0
176
     1
 63
     7
421
 16777215
176
     1
 74
     1
176
     1
 91
        4
176
     1
 64
     7
176
     1
 65
   257
176
     1
 75
     7
176
     1
175
     7
176
     1
 42
1.0
176
     1
 92
        8
176
     1
 66
     7
176
     1
 43
1.0
176
     1
 76
     1
176
     1
 77
     6
176
     1
 78
     2
176
     1
 67
     7
176
     1
 79
     5
176
     1
170
     0
176
     1
171
     0
176
     1
290
     0
176
     1
 93
        1
176
     1
 44
0.0
176
     1
173
     0
176
     1
  0
VISUALSTYLE
  5
1795E
102
{ACAD_REACTORS
330
17947
102
}
330
17947
100
AcDbVisualStyle
  2
OverhangOff
 70
    21
177
     2
291
     1
 71
     2
176
     0
 72
     2
176
     0
 73
     0
176
     0
 90
        0
176
     0
 40
0.6
176
     0
 41
30.0
176
     0
 63
     7
421
 16777215
176
     0
 74
     1
176
     0
 91
        4
176
     0
 64
     7
176
     0
 65
   257
176
     0
 75
     1
176
     0
175
     1
176
     0
 42
1.0
176
     0
 92
        9
176
     2
 66
     7
176
     0
 43
1.0
176
     0
 76
     1
176
     0
 77
     6
176
     0
 78
     2
176
     0
 67
     7
176
     0
 79
     5
176
     0
170
     0
176
     0
171
     0
176
     0
290
     0
176
     0
 93
        1
176
     0
 44
0.0
176
     0
173
     0
176
     0
  0
VISUALSTYLE
  5
17951
102
{ACAD_REACTORS
330
17947
102
}
330
17947
100
AcDbVisualStyle
  2
Realistic
 70
     8
177
     2
291
     0
 71
     2
176
     1
 72
     3
176
     1
 73
     0
176
     1
 90
        2
176
     1
 40
0.6
176
     1
 41
30.0
176
     1
 63
     7
421
 16777215
176
     1
 74
     0
176
     1
 91
        0
176
     1
 64
     7
176
     1
 65
   257
176
     1
 75
     1
176
     1
175
     1
176
     1
 42
1.0
176
     1
 92
        8
176
     1
 66
   257
176
     1
 43
1.0
176
     1
 76
     1
176
     1
 77
     6
176
     1
 78
     2
176
     1
 67
     7
176
     1
 79
     3
176
     1
170
     0
176
     1
171
     0
176
     1
290
     0
176
     1
 93
       13
176
     1
 44
0.0
176
     1
173
     0
176
     1
  0
VISUALSTYLE
  5
1795C
102
{ACAD_REACTORS
330
17947
102
}
330
17947
100
AcDbVisualStyle
  2
Shaded
 70
    27
177
     2
291
     0
 71
     2
176
     1
 72
     2
176
     1
 73
     1
176
     1
 90
        2
176
     1
 40
0.6
176
     1
 41
30.0
176
     1
 63
     7
421
 16777215
176
     1
 74
     0
176
     1
 91
        4
176
     1
 64
     7
176
     1
 65
   257
176
     1
 75
     1
176
     1
175
     1
176
     1
 42
1.0
176
     1
 92
        8
176
     1
 66
   257
176
     1
 43
1.0
176
     1
 76
     1
176
     1
 77
     6
176
     1
 78
     2
176
     1
 67
     8
425
  7895160
176
     1
 79
     3
176
     1
170
     0
176
     1
171
     0
176
     1
290
     0
176
     1
 93
        5
176
     1
 44
0.0
176
     1
173
     0
176
     1
  0
VISUALSTYLE
  5
1795B
102
{ACAD_REACTORS
330
17947
102
}
330
17947
100
AcDbVisualStyle
  2
Shaded with edges
 70
    26
177
     2
291
     0
 71
     2
176
     1
 72
     2
176
     1
 73
     1
176
     1
 90
        2
176
     1
 40
0.6
176
     1
 41
30.0
176
     1
 63
     7
421
 16777215
176
     1
 74
     1
176
     1
 91
       10
176
     1
 64
     7
176
     1
 65
   257
176
     1
 75
     2
176
     1
175
     1
176
     1
 42
1.0
176
     1
 92
        8
176
     1
 66
   257
176
     1
 43
1.0
176
     1
 76
     1
176
     1
 77
     6
176
     1
 78
     2
176
     1
 67
     7
176
     1
 79
     3
176
     1
170
     0
176
     1
171
     0
176
     1
290
     0
176
     1
 93
        5
176
     1
 44
0.0
176
     1
173
     0
176
     1
  0
VISUALSTYLE
  5
17958
102
{ACAD_REACTORS
330
17947
102
}
330
17947
100
AcDbVisualStyle
  2
Shades of Gray
 70
    23
177
     2
291
     0
 71
     2
176
     1
 72
     2
176
     1
 73
     3
176
     1
 90
        0
176
     1
 40
0.6
176
     1
 41
30.0
176
     1
 63
     7
421
 16777215
176
     1
 74
     2
176
     1
 91
        2
176
     1
 64
     7
176
     1
 65
     7
176
     1
 75
     1
176
     1
175
     1
176
     1
 42
40.0
176
     1
 92
        8
176
     1
 66
     7
176
     1
 43
1.0
176
     1
 76
     1
176
     1
 77
     6
176
     1
 78
     2
176
     1
 67
     7
176
     1
 79
     3
176
     1
170
     0
176
     1
171
     0
176
     1
290
     0
176
     1
 93
        1
176
     1
 44
0.0
176
     1
173
     0
176
     1
  0
VISUALSTYLE
  5
17959
102
{ACAD_REACTORS
330
17947
102
}
330
17947
100
AcDbVisualStyle
  2
Sketchy
 70
    24
177
     2
291
     0
 71
     1
176
     1
 72
     2
176
     1
 73
     2
176
     1
 90
        0
176
     1
 40
0.6
176
     1
 41
30.0
176
     1
 63
     7
421
 16777215
176
     1
 74
     2
176
     1
 91
        2
176
     1
 64
     7
176
     1
 65
     7
176
     1
 75
     1
176
     1
175
     1
176
     1
 42
40.0
176
     1
 92
       11
176
     1
 66
     7
176
     1
 43
1.0
176
     1
 76
     1
176
     1
 77
     6
176
     1
 78
     2
176
     1
 67
     7
176
     1
 79
     6
176
     1
170
     0
176
     1
171
     0
176
     1
290
     0
176
     1
 93
        1
176
     1
 44
0.0
176
     1
173
     0
176
     1
  0
VISUALSTYLE
  5
17954
102
{ACAD_REACTORS
330
17947
102
}
330
17947
100
AcDbVisualStyle
  2
Thicken
 70
    13
177
     2
291
     1
 71
     2
176
     1
 72
     2
176
     1
 73
     0
176
     1
 90
        0
176
     1
 40
0.6
176
     1
 41
30.0
176
     1
 63
     7
421
 16777215
176
     1
 74
     1
176
     1
 91
        4
176
     1
 64
     7
176
     1
 65
   257
176
     1
 75
     1
176
     1
175
     1
176
     1
 42
1.0
176
     1
 92
       12
176
     1
 66
     7
176
     1
 43
1.0
176
     1
 76
     1
176
     1
 77
     6
176
     1
 78
     2
176
     1
 67
     7
176
     1
 79
     5
176
     1
170
     0
176
     1
171
     0
176
     1
290
     0
176
     1
 93
        1
176
     1
 44
0.0
176
     1
173
     0
176
     1
  0
VISUALSTYLE
  5
1794E
102
{ACAD_REACTORS
330
17947
102
}
330
17947
100
AcDbVisualStyle
  2
Wireframe
 70
     5
177
     2
291
     0
 71
     0
176
     1
 72
     2
176
     1
 73
     0
176
     1
 90
        0
176
     1
 40
0.6
176
     1
 41
30.0
176
     1
 63
     7
421
 16777215
176
     1
 74
     1
176
     1
 91
        4
176
     1
 64
     7
176
     1
 65
   257
176
     1
 75
     1
176
     1
175
     1
176
     1
 42
1.0
176
     1
 92
        0
176
     1
 66
   257
176
     1
 43
1.0
176
     1
 76
     1
176
     1
 77
     6
176
     1
 78
     2
176
     1
 67
     7
176
     1
 79
     3
176
     1
170
     0
176
     1
171
     0
176
     1
290
     0
176
     1
 93
        1
176
     1
 44
0.0
176
     1
173
     0
176
     1
  0
VISUALSTYLE
  5
1795A
102
{ACAD_REACTORS
330
17947
102
}
330
17947
100
AcDbVisualStyle
  2
X-Ray
 70
    25
177
     2
291
     0
 71
     2
176
     1
 72
     2
176
     1
 73
     1
176
     1
 90
        1
176
     1
 40
0.5
176
     1
 41
30.0
176
     1
 63
     7
421
 16777215
176
     1
 74
     1
176
     1
 91
        0
176
     1
 64
     7
176
     1
 65
   257
176
     1
 75
     1
176
     1
175
     1
176
     1
 42
1.0
176
     1
 92
        8
176
     1
 66
     7
176
     1
 43
1.0
176
     1
 76
     1
176
     1
 77
     6
176
     1
 78
     2
176
     1
 67
     7
176
     1
 79
     3
176
     1
170
     0
176
     1
171
     0
176
     1
290
     0
176
     1
 93
       13
176
     1
 44
0.0
176
     1
173
     0
176
     1
  0
DICTIONARYVAR
  5
179CB
102
{ACAD_REACTORS
330
179C7
102
}
330
179C7
100
DictionaryVariables
280
     0
  1
1:1
  0
DICTIONARYVAR
  5
179C9
102
{ACAD_REACTORS
330
179C7
102
}
330
179C7
100
DictionaryVariables
280
     0
  1
STANDARD
  0
DICTIONARYVAR
  5
179C8
102
{ACAD_REACTORS
330
179C7
102
}
330
179C7
100
DictionaryVariables
280
     0
  1
STANDARD
  0
DICTIONARYVAR
  5
179CD
102
{ACAD_REACTORS
330
179C7
102
}
330
179C7
100
DictionaryVariables
280
     0
  1
1
  0
DICTIONARYVAR
  5
179CE
102
{ACAD_REACTORS
330
179C7
102
}
330
179C7
100
DictionaryVariables
280
     0
  1
15
  0
DICTIONARYVAR
  5
179CC
102
{ACAD_REACTORS
330
179C7
102
}
330
179C7
100
DictionaryVariables
280
     0
  1
0
  0
DICTIONARYVAR
  5
179CA
102
{ACAD_REACTORS
330
179C7
102
}
330
179C7
100
DictionaryVariables
280
     0
  1
0
  0
DICTIONARY
  5
17938
330
17937
100
AcDbDictionary
280
     1
281
     1
  3
BUMPTILE
360
1793A
  3
DIFFUSETILE
360
17939
  3
OPACITYTILE
360
1793D
  3
REFLECTIONTILE
360
1793C
  3
REFRACTIONTILE
360
1793E
  3
SPECULARTILE
360
1793B
  0
DICTIONARY
  5
17930
330
1792F
100
AcDbDictionary
280
     1
281
     1
  3
BUMPTILE
360
17932
  3
DIFFUSETILE
360
17931
  3
OPACITYTILE
360
17935
  3
REFLECTIONTILE
360
17934
  3
REFRACTIONTILE
360
17936
  3
SPECULARTILE
360
17933
  0
DICTIONARY
  5
17940
330
1793F
100
AcDbDictionary
280
     1
281
     1
  3
BUMPTILE
360
17942
  3
DIFFUSETILE
360
17941
  3
OPACITYTILE
360
17945
  3
REFLECTIONTILE
360
17944
  3
REFRACTIONTILE
360
17946
  3
SPECULARTILE
360
17943
  0
DICTIONARY
  5
179CF
330
17982
100
AcDbDictionary
280
     1
281
     1
  3
ACAD_ROUNDTRIP_2008_TABLESTYLE_CELLSTYLEMAP
360
179D0
  0
XRECORD
  5
1793A
102
{ACAD_REACTORS
330
17938
102
}
330
17938
100
AcDbXrecord
280
     1
270
     1
271
     1
  0
XRECORD
  5
17939
102
{ACAD_REACTORS
330
17938
102
}
330
17938
100
AcDbXrecord
280
     1
270
     1
271
     1
  0
XRECORD
  5
1793D
102
{ACAD_REACTORS
330
17938
102
}
330
17938
100
AcDbXrecord
280
     1
270
     1
271
     1
  0
XRECORD
  5
1793C
102
{ACAD_REACTORS
330
17938
102
}
330
17938
100
AcDbXrecord
280
     1
270
     1
271
     1
  0
XRECORD
  5
1793E
102
{ACAD_REACTORS
330
17938
102
}
330
17938
100
AcDbXrecord
280
     1
270
     1
271
     1
  0
XRECORD
  5
1793B
102
{ACAD_REACTORS
330
17938
102
}
330
17938
100
AcDbXrecord
280
     1
270
     1
271
     1
  0
XRECORD
  5
17932
102
{ACAD_REACTORS
330
17930
102
}
330
17930
100
AcDbXrecord
280
     1
270
     1
271
     1
  0
XRECORD
  5
17931
102
{ACAD_REACTORS
330
17930
102
}
330
17930
100
AcDbXrecord
280
     1
270
     1
271
     1
  0
XRECORD
  5
17935
102
{ACAD_REACTORS
330
17930
102
}
330
17930
100
AcDbXrecord
280
     1
270
     1
271
     1
  0
XRECORD
  5
17934
102
{ACAD_REACTORS
330
17930
102
}
330
17930
100
AcDbXrecord
280
     1
270
     1
271
     1
  0
XRECORD
  5
17936
102
{ACAD_REACTORS
330
17930
102
}
330
17930
100
AcDbXrecord
280
     1
270
     1
271
     1
  0
XRECORD
  5
17933
102
{ACAD_REACTORS
330
17930
102
}
330
17930
100
AcDbXrecord
280
     1
270
     1
271
     1
  0
XRECORD
  5
17942
102
{ACAD_REACTORS
330
17940
102
}
330
17940
100
AcDbXrecord
280
     1
270
     1
271
     1
  0
XRECORD
  5
17941
102
{ACAD_REACTORS
330
17940
102
}
330
17940
100
AcDbXrecord
280
     1
270
     1
271
     1
  0
XRECORD
  5
17945
102
{ACAD_REACTORS
330
17940
102
}
330
17940
100
AcDbXrecord
280
     1
270
     1
271
     1
  0
XRECORD
  5
17944
102
{ACAD_REACTORS
330
17940
102
}
330
17940
100
AcDbXrecord
280
     1
270
     1
271
     1
  0
XRECORD
  5
17946
102
{ACAD_REACTORS
330
17940
102
}
330
17940
100
AcDbXrecord
280
     1
270
     1
271
     1
  0
XRECORD
  5
17943
102
{ACAD_REACTORS
330
17940
102
}
330
17940
100
AcDbXrecord
280
     1
270
     1
271
     1
  0
CELLSTYLEMAP
  5
179D0
102
{ACAD_REACTORS
330
179CF
102
}
330
179CF
100
AcDbCellStyleMap
 90
        3
300
CELLSTYLE
  1
TABLEFORMAT_BEGIN
 90
        5
170
     1
 91
        0
 92
    32768
 62
   257
 93
        1
300
CONTENTFORMAT
  1
CONTENTFORMAT_BEGIN
 90
        0
 91
        0
 92
      512
 93
        0
300

 40
0.0
140
1.0
 94
        5
 62
     0
340
17973
144
0.25
309
CONTENTFORMAT_END
171
     0
 94
        0
309
TABLEFORMAT_END
  1
CELLSTYLE_BEGIN
 90
        1
 91
        1
300
_TITLE
309
CELLSTYLE_END
300
CELLSTYLE
  1
TABLEFORMAT_BEGIN
 90
        5
170
     1
 91
        0
 92
        0
 62
   257
 93
        1
300
CONTENTFORMAT
  1
CONTENTFORMAT_BEGIN
 90
        0
 91
        0
 92
      512
 93
        0
300

 40
0.0
140
1.0
 94
        5
 62
     0
340
17973
144
0.18
309
CONTENTFORMAT_END
171
     0
 94
        0
309
TABLEFORMAT_END
  1
CELLSTYLE_BEGIN
 90
        2
 91
        1
300
_HEADER
309
CELLSTYLE_END
300
CELLSTYLE
  1
TABLEFORMAT_BEGIN
 90
        5
170
     1
 91
        0
 92
        0
 62
   257
 93
        1
300
CONTENTFORMAT
  1
CONTENTFORMAT_BEGIN
 90
        0
 91
        0
 92
      512
 93
        0
300

 40
0.0
140
1.0
 94
        2
 62
     0
340
17973
144
0.18
309
CONTENTFORMAT_END
171
     0
 94
        0
309
TABLEFORMAT_END
  1
CELLSTYLE_BEGIN
 90
        3
 91
        2
300
_DATA
309
CELLSTYLE_END
  0
ENDSEC
  0
EOF
