  0
SECTION
  2
HEADER
  9
$ACADVER
  1
AC1015
  9
$ACADMAINTVER
 70
    13
  9
$DWGCODEPAGE
  3
ANSI_932
  9
$INSBASE
 10
267.0
 20
194.8999999999998
 30
0.0
  9
$EXTMIN
 10
433.9966216520333
 20
163.6908237492789
 30
-0.0000000000000053
  9
$EXTMAX
 10
16382.6660542547
 20
11242.27663824599
 30
0.00000000000001
  9
$LIMMIN
 10
0.0
 20
0.0
  9
$LIMMAX
 10
16800.0
 20
11880.0
  9
$ORTHOMODE
 70
     0
  9
$REGENMODE
 70
     1
  9
$FILLMODE
 70
     1
  9
$QTEXTMODE
 70
     0
  9
$MIRRTEXT
 70
     0
  9
$LTSCALE
 40
40.0
  9
$ATTMODE
 70
     1
  9
$TEXTSIZE
 40
0.2
  9
$TRACEWID
 40
0.05
  9
$TEXTSTYLE
  7
00
  9
$CLAYER
  8
SUNPOU
  9
$CELTYPE
  6
ByLayer
  9
$CECOLOR
 62
   256
  9
$CELTSCALE
 40
1.0
  9
$DISPSILH
 70
     0
  9
$DIMSCALE
 40
40.0
  9
$DIMASZ
 40
0.5
  9
$DIMEXO
 40
1.0
  9
$DIMDLI
 40
7.0
  9
$DIMRND
 40
0.0
  9
$DIMDLE
 40
3.0
  9
$DIMEXE
 40
1.125
  9
$DIMTP
 40
0.0
  9
$DIMTM
 40
0.0
  9
$DIMTXT
 40
2.25
  9
$DIMCEN
 40
0.0
  9
$DIMTSZ
 40
0.0
  9
$DIMTOL
 70
     0
  9
$DIMLIM
 70
     0
  9
$DIMTIH
 70
     0
  9
$DIMTOH
 70
     0
  9
$DIMSE1
 70
     0
  9
$DIMSE2
 70
     0
  9
$DIMTAD
 70
     1
  9
$DIMZIN
 70
     8
  9
$DIMBLK
  1
DOT
  9
$DIMASO
 70
     1
  9
$DIMSHO
 70
     0
  9
$DIMPOST
  1

  9
$DIMAPOST
  1

  9
$DIMALT
 70
     0
  9
$DIMALTD
 70
     2
  9
$DIMALTF
 40
25.4
  9
$DIMLFAC
 40
1.0
  9
$DIMTOFL
 70
     1
  9
$DIMTVP
 40
0.0
  9
$DIMTIX
 70
     0
  9
$DIMSOXD
 70
     0
  9
$DIMSAH
 70
     1
  9
$DIMBLK1
  1
DOT
  9
$DIMBLK2
  1
DOT
  9
$DIMSTYLE
  2
SUNPOU_図面名
  9
$DIMCLRD
 70
   256
  9
$DIMCLRE
 70
   256
  9
$DIMCLRT
 70
   256
  9
$DIMTFAC
 40
1.0
  9
$DIMGAP
 40
1.125
  9
$DIMJUST
 70
     0
  9
$DIMSD1
 70
     0
  9
$DIMSD2
 70
     0
  9
$DIMTOLJ
 70
     1
  9
$DIMTZIN
 70
     0
  9
$DIMALTZ
 70
     0
  9
$DIMALTTZ
 70
     0
  9
$DIMUPT
 70
     0
  9
$DIMDEC
 70
     4
  9
$DIMTDEC
 70
     4
  9
$DIMALTU
 70
     2
  9
$DIMALTTD
 70
     2
  9
$DIMTXSTY
  7
STANDARD
  9
$DIMAUNIT
 70
     0
  9
$DIMADEC
 70
     0
  9
$DIMALTRND
 40
0.0
  9
$DIMAZIN
 70
     0
  9
$DIMDSEP
 70
    46
  9
$DIMATFIT
 70
     3
  9
$DIMFRAC
 70
     0
  9
$DIMLDRBLK
  1
DOT
  9
$DIMLUNIT
 70
     2
  9
$DIMLWD
 70
    -2
  9
$DIMLWE
 70
    -2
  9
$DIMTMOVE
 70
     0
  9
$LUNITS
 70
     2
  9
$LUPREC
 70
     2
  9
$SKETCHINC
 40
0.1
  9
$FILLETRAD
 40
0.0
  9
$AUNITS
 70
     0
  9
$AUPREC
 70
     0
  9
$MENU
  1
A:\TIGER\MENU\TIGER
  9
$ELEVATION
 40
0.0
  9
$PELEVATION
 40
0.0
  9
$THICKNESS
 40
0.0
  9
$LIMCHECK
 70
     0
  9
$CHAMFERA
 40
0.0
  9
$CHAMFERB
 40
0.0
  9
$CHAMFERC
 40
0.0
  9
$CHAMFERD
 40
0.0
  9
$SKPOLY
 70
     0
  9
$TDCREATE
 40
2450266.571064815
  9
$TDUCREATE
 40
2450266.196064815
  9
$TDUPDATE
 40
2456330.680300196
  9
$TDUUPDATE
 40
2456330.305300197
  9
$TDINDWG
 40
0.1124671875
  9
$TDUSRTIMER
 40
0.1124671875
  9
$USRTIMER
 70
     1
  9
$ANGBASE
 50
0.0
  9
$ANGDIR
 70
     0
  9
$PDMODE
 70
     0
  9
$PDSIZE
 40
0.0
  9
$PLINEWID
 40
0.0
  9
$SPLFRAME
 70
     0
  9
$SPLINETYPE
 70
     6
  9
$SPLINESEGS
 70
     8
  9
$HANDSEED
  5
156C4
  9
$SURFTAB1
 70
     6
  9
$SURFTAB2
 70
     6
  9
$SURFTYPE
 70
     6
  9
$SURFU
 70
     6
  9
$SURFV
 70
     6
  9
$UCSBASE
  2

  9
$UCSNAME
  2

  9
$UCSORG
 10
0.0
 20
0.0
 30
0.0
  9
$UCSXDIR
 10
1.0
 20
0.0
 30
0.0
  9
$UCSYDIR
 10
0.0
 20
1.0
 30
0.0
  9
$UCSORTHOREF
  2

  9
$UCSORTHOVIEW
 70
     0
  9
$UCSORGTOP
 10
0.0
 20
0.0
 30
0.0
  9
$UCSORGBOTTOM
 10
0.0
 20
0.0
 30
0.0
  9
$UCSORGLEFT
 10
0.0
 20
0.0
 30
0.0
  9
$UCSORGRIGHT
 10
0.0
 20
0.0
 30
0.0
  9
$UCSORGFRONT
 10
0.0
 20
0.0
 30
0.0
  9
$UCSORGBACK
 10
0.0
 20
0.0
 30
0.0
  9
$PUCSBASE
  2

  9
$PUCSNAME
  2

  9
$PUCSORG
 10
0.0
 20
0.0
 30
0.0
  9
$PUCSXDIR
 10
1.0
 20
0.0
 30
0.0
  9
$PUCSYDIR
 10
0.0
 20
1.0
 30
0.0
  9
$PUCSORTHOREF
  2

  9
$PUCSORTHOVIEW
 70
     0
  9
$PUCSORGTOP
 10
0.0
 20
0.0
 30
0.0
  9
$PUCSORGBOTTOM
 10
0.0
 20
0.0
 30
0.0
  9
$PUCSORGLEFT
 10
0.0
 20
0.0
 30
0.0
  9
$PUCSORGRIGHT
 10
0.0
 20
0.0
 30
0.0
  9
$PUCSORGFRONT
 10
0.0
 20
0.0
 30
0.0
  9
$PUCSORGBACK
 10
0.0
 20
0.0
 30
0.0
  9
$USERI1
 70
     3
  9
$USERI2
 70
     0
  9
$USERI3
 70
     0
  9
$USERI4
 70
     0
  9
$USERI5
 70
  1103
  9
$USERR1
 40
0.0
  9
$USERR2
 40
1.0
  9
$USERR3
 40
0.0
  9
$USERR4
 40
0.0
  9
$USERR5
 40
0.0
  9
$WORLDVIEW
 70
     1
  9
$SHADEDGE
 70
     3
  9
$SHADEDIF
 70
    70
  9
$TILEMODE
 70
     1
  9
$MAXACTVP
 70
    16
  9
$PINSBASE
 10
0.0
 20
0.0
 30
0.0
  9
$PLIMCHECK
 70
     0
  9
$PEXTMIN
 10
1.000000000000000E+20
 20
1.000000000000000E+20
 30
1.000000000000000E+20
  9
$PEXTMAX
 10
-1.000000000000000E+20
 20
-1.000000000000000E+20
 30
-1.000000000000000E+20
  9
$PLIMMIN
 10
0.0
 20
0.0
  9
$PLIMMAX
 10
12.0
 20
9.0
  9
$UNITMODE
 70
     0
  9
$VISRETAIN
 70
     0
  9
$PLINEGEN
 70
     1
  9
$PSLTSCALE
 70
     0
  9
$TREEDEPTH
 70
  3020
  9
$CMLSTYLE
  2
Standard
  9
$CMLJUST
 70
     0
  9
$CMLSCALE
 40
1.0
  9
$PROXYGRAPHICS
 70
     1
  9
$MEASUREMENT
 70
     0
  9
$CELWEIGHT
370
    -1
  9
$ENDCAPS
280
     0
  9
$JOINSTYLE
280
     0
  9
$LWDISPLAY
290
     0
  9
$INSUNITS
 70
     0
  9
$HYPERLINKBASE
  1

  9
$STYLESHEET
  1

  9
$XEDIT
290
     1
  9
$CEPSNTYPE
380
     0
  9
$PSTYLEMODE
290
     1
  9
$FINGERPRINTGUID
  2
{606EB72C-1B54-4A1B-A02E-A91338B0A6B7}
  9
$VERSIONGUID
  2
{EEB33657-18D8-4C2B-B82D-C5B251E1FE95}
  9
$EXTNAMES
290
     1
  9
$PSVPSCALE
 40
0.0
  9
$OLESTARTUP
290
     0
  0
ENDSEC
  0
SECTION
  2
CLASSES
  0
CLASS
  1
ACDBDICTIONARYWDFLT
  2
AcDbDictionaryWithDefault
  3
AutoCAD 2000
 90
        0
280
     0
281
     0
  0
CLASS
  1
ACDBPLACEHOLDER
  2
AcDbPlaceHolder
  3
AutoCAD 2000
 90
        0
280
     0
281
     0
  0
CLASS
  1
LAYOUT
  2
AcDbLayout
  3
AutoCAD 2000
 90
        0
280
     0
281
     0
  0
CLASS
  1
DICTIONARYVAR
  2
AcDbDictionaryVar
  3
AutoCAD 2000
 90
        0
280
     0
281
     0
  0
ENDSEC
  0
SECTION
  2
TABLES
  0
TABLE
  2
VPORT
  5
15211
330
0
100
AcDbSymbolTable
 70
     2
  0
VPORT
  5
156C3
330
15211
100
AcDbSymbolTableRecord
100
AcDbViewportTableRecord
  2
*Active
 70
     0
 10
0.0
 20
0.0
 11
1.0
 21
1.0
 12
8408.331337953367
 22
5702.983730997637
 13
0.0
 23
0.0
 14
1.0
 24
1.0
 15
0.0
 25
0.0
 16
0.0
 26
0.0
 36
1.0
 17
0.0
 27
0.0
 37
0.0
 40
11163.50538397298
 41
1.527918781725888
 42
50.0
 43
0.0
 44
0.0
 50
0.0
 51
0.0
 71
     0
 72
 10000
 73
     1
 74
     0
 75
     0
 76
     0
 77
     0
 78
     0
281
     0
 65
     1
110
0.0
120
0.0
130
0.0
111
1.0
121
0.0
131
0.0
112
0.0
122
1.0
132
0.0
 79
     0
146
0.0
  0
ENDTAB
  0
TABLE
  2
LTYPE
  5
1520E
330
0
100
AcDbSymbolTable
 70
     6
  0
LTYPE
  5
1521C
330
1520E
100
AcDbSymbolTableRecord
100
AcDbLinetypeTableRecord
  2
ByBlock
 70
     0
  3

 72
    65
 73
     0
 40
0.0
  0
LTYPE
  5
1521D
330
1520E
100
AcDbSymbolTableRecord
100
AcDbLinetypeTableRecord
  2
ByLayer
 70
     0
  3

 72
    65
 73
     0
 40
0.0
  0
LTYPE
  5
1521E
330
1520E
100
AcDbSymbolTableRecord
100
AcDbLinetypeTableRecord
  2
CONTINUOUS
 70
     0
  3
実線
 72
    65
 73
     0
 40
0.0
  0
LTYPE
  5
1522E
330
1520E
100
AcDbSymbolTableRecord
100
AcDbLinetypeTableRecord
  2
1PL-M
 70
     0
  3

 72
    65
 73
     4
 40
15.0
 49
12.0
 74
     0
 49
-1.0
 74
     0
 49
1.0
 74
     0
 49
-1.0
 74
     0
  0
LTYPE
  5
1522F
330
1520E
100
AcDbSymbolTableRecord
100
AcDbLinetypeTableRecord
  2
2PL-M
 70
     0
  3

 72
    65
 73
     6
 40
17.0
 49
12.0
 74
     0
 49
-1.0
 74
     0
 49
1.0
 74
     0
 49
-1.0
 74
     0
 49
1.0
 74
     0
 49
-1.0
 74
     0
  0
LTYPE
  5
15230
330
1520E
100
AcDbSymbolTableRecord
100
AcDbLinetypeTableRecord
  2
1PL-12
 70
     0
  3

 72
    65
 73
     4
 40
15.0
 49
12.0
 74
     0
 49
-1.0
 74
     0
 49
1.0
 74
     0
 49
-1.0
 74
     0
  0
LTYPE
  5
15231
330
1520E
100
AcDbSymbolTableRecord
100
AcDbLinetypeTableRecord
  2
KAKURE-1
 70
     0
  3

 72
    65
 73
     2
 40
2.0
 49
1.0
 74
     0
 49
-1.0
 74
     0
  0
LTYPE
  5
15232
330
1520E
100
AcDbSymbolTableRecord
100
AcDbLinetypeTableRecord
  2
2PL-12
 70
     0
  3

 72
    65
 73
     6
 40
17.0
 49
12.0
 74
     0
 49
-1.0
 74
     0
 49
1.0
 74
     0
 49
-1.0
 74
     0
 49
1.0
 74
     0
 49
-1.0
 74
     0
  0
ENDTAB
  0
TABLE
  2
LAYER
  5
1520B
330
0
100
AcDbSymbolTable
 70
    22
  0
LAYER
  5
15219
330
1520B
100
AcDbSymbolTableRecord
100
AcDbLayerTableRecord
  2
0
 70
     0
 62
     7
  6
CONTINUOUS
370
    -3
390
15218
  0
LAYER
  5
1522B
330
1520B
100
AcDbSymbolTableRecord
100
AcDbLayerTableRecord
  2
SUNPOU
 70
     0
 62
     4
  6
CONTINUOUS
370
    -3
390
15218
  0
LAYER
  5
15233
330
1520B
100
AcDbSymbolTableRecord
100
AcDbLayerTableRecord
  2
U2
 70
     0
 62
     4
  6
CONTINUOUS
370
    -3
390
15218
  0
LAYER
  5
15234
330
1520B
100
AcDbSymbolTableRecord
100
AcDbLayerTableRecord
  2
HIKIDASHI
 70
     0
 62
     6
  6
CONTINUOUS
370
    -3
390
15218
  0
LAYER
  5
15235
330
1520B
100
AcDbSymbolTableRecord
100
AcDbLayerTableRecord
  2
1PL-M1
 70
     0
 62
     6
  6
1PL-M
370
    -3
390
15218
  0
LAYER
  5
15236
330
1520B
100
AcDbSymbolTableRecord
100
AcDbLayerTableRecord
  2
NAME
 70
     0
 62
    20
  6
CONTINUOUS
370
    -3
390
15218
  0
LAYER
  5
15237
330
1520B
100
AcDbSymbolTableRecord
100
AcDbLayerTableRecord
  2
FILENAME
 70
     0
 62
     7
  6
CONTINUOUS
370
    -3
390
15218
  0
LAYER
  5
15238
330
1520B
100
AcDbSymbolTableRecord
100
AcDbLayerTableRecord
  2
KISO
 70
     0
 62
     2
  6
CONTINUOUS
370
    -3
390
15218
  0
LAYER
  5
15239
330
1520B
100
AcDbSymbolTableRecord
100
AcDbLayerTableRecord
  2
YANE
 70
     0
 62
     1
  6
1PL-12
370
    -3
390
15218
  0
LAYER
  5
1523A
330
1520B
100
AcDbSymbolTableRecord
100
AcDbLayerTableRecord
  2
HATCH
 70
     0
 62
     1
  6
CONTINUOUS
370
    -3
390
15218
  0
LAYER
  5
1523B
330
1520B
100
AcDbSymbolTableRecord
100
AcDbLayerTableRecord
  2
DOMAKON
 70
     0
 62
     2
  6
CONTINUOUS
370
    -3
390
15218
  0
LAYER
  5
1523C
330
1520B
100
AcDbSymbolTableRecord
100
AcDbLayerTableRecord
  2
KISO-1
 70
     0
 62
     6
  6
2PL-12
370
    -3
390
15218
  0
LAYER
  5
1523D
330
1520B
100
AcDbSymbolTableRecord
100
AcDbLayerTableRecord
  2
KISO-2
 70
     0
 62
     1
  6
KAKURE-1
370
    -3
390
15218
  0
LAYER
  5
1523E
330
1520B
100
AcDbSymbolTableRecord
100
AcDbLayerTableRecord
  2
SIN
 70
     0
 62
     6
  6
1PL-12
370
    -3
390
15218
  0
LAYER
  5
1523F
330
1520B
100
AcDbSymbolTableRecord
100
AcDbLayerTableRecord
  2
AQU_HOKYOU
 70
     0
 62
     2
  6
CONTINUOUS
370
    -3
390
15218
  0
LAYER
  5
15240
330
1520B
100
AcDbSymbolTableRecord
100
AcDbLayerTableRecord
  2
CF-101
 70
     0
 62
     3
  6
CONTINUOUS
370
    -3
390
15218
  0
LAYER
  5
15241
330
1520B
100
AcDbSymbolTableRecord
100
AcDbLayerTableRecord
  2
KIN
 70
     0
 62
     7
  6
CONTINUOUS
370
    -3
390
15218
  0
LAYER
  5
15242
330
1520B
100
AcDbSymbolTableRecord
100
AcDbLayerTableRecord
  2
KIN-T
 70
     0
 62
     3
  6
CONTINUOUS
370
    -3
390
15218
  0
LAYER
  5
15243
330
1520B
100
AcDbSymbolTableRecord
100
AcDbLayerTableRecord
  2
YODOROGO
 70
     0
 62
   130
  6
CONTINUOUS
370
    -3
390
15218
  0
LAYER
  5
15244
330
1520B
100
AcDbSymbolTableRecord
100
AcDbLayerTableRecord
  2
WAKUSEN-01
 70
     0
 62
    50
  6
CONTINUOUS
370
    -3
390
15218
  0
LAYER
  5
15245
330
1520B
100
AcDbSymbolTableRecord
100
AcDbLayerTableRecord
  2
WAKUSEN-02
 70
     0
 62
   130
  6
CONTINUOUS
370
    -3
390
15218
  0
LAYER
  5
15246
330
1520B
100
AcDbSymbolTableRecord
100
AcDbLayerTableRecord
  2
WAKUMOJI-01
 70
     0
 62
   130
  6
CONTINUOUS
370
    -3
390
15218
  0
ENDTAB
  0
TABLE
  2
STYLE
  5
1520C
330
0
100
AcDbSymbolTable
 70
     5
  0
STYLE
  5
1521A
330
1520C
100
AcDbSymbolTableRecord
100
AcDbTextStyleTableRecord
  2
STANDARD
 70
     0
 40
3.0
 41
1.0
 50
0.0
 71
     0
 42
0.2
  3
ROMANS
  4
EXTFONT
  0
STYLE
  5
1522C
330
1520C
100
AcDbSymbolTableRecord
100
AcDbTextStyleTableRecord
  2
00
 70
     0
 40
0.0
 41
0.6666666666666666
 50
0.0
 71
     0
 42
0.2
  3
ROMANS
  4
BIGFONT
  0
STYLE
  5
15247
330
1520C
100
AcDbSymbolTableRecord
100
AcDbTextStyleTableRecord
  2
01
 70
     0
 40
3.0
 41
1.0
 50
0.0
 71
     0
 42
0.2
  3
ROMANS
  4
BIGFONT
  0
STYLE
  5
15248
330
1520C
100
AcDbSymbolTableRecord
100
AcDbTextStyleTableRecord
  2
WAKUMOJI
 70
     0
 40
3.0
 41
1.0
 50
0.0
 71
     0
 42
3.0
  3
SIMPLEX
  4
BIGFONT
  0
STYLE
  5
15249
330
1520C
100
AcDbSymbolTableRecord
100
AcDbTextStyleTableRecord
  2
FILENAME
 70
     0
 40
100.0
 41
1.0
 50
0.0
 71
     0
 42
100.0
  3
romans
  4
bigfont
  0
ENDTAB
  0
TABLE
  2
VIEW
  5
1520F
330
0
100
AcDbSymbolTable
 70
     0
  0
ENDTAB
  0
TABLE
  2
UCS
  5
15210
330
0
100
AcDbSymbolTable
 70
     0
  0
ENDTAB
  0
TABLE
  2
APPID
  5
15212
330
0
100
AcDbSymbolTable
 70
     3
  0
APPID
  5
1521B
330
15212
100
AcDbSymbolTableRecord
100
AcDbRegAppTableRecord
  2
ACAD
 70
     0
  0
APPID
  5
1524A
330
15212
100
AcDbSymbolTableRecord
100
AcDbRegAppTableRecord
  2
AUTOCAD_POSTSCRIPT_FIGURE
 70
     0
  0
APPID
  5
1524B
330
15212
100
AcDbSymbolTableRecord
100
AcDbRegAppTableRecord
  2
ACAD_PSEXT
 70
     0
  0
ENDTAB
  0
TABLE
  2
DIMSTYLE
  5
15213
330
0
100
AcDbSymbolTable
 70
     1
100
AcDbDimStyleTable
 71
     0
  0
DIMSTYLE
105
1524C
330
15213
100
AcDbSymbolTableRecord
100
AcDbDimStyleTableRecord
  2
SUNPOU_図面名
 70
     0
 40
40.0
 41
0.5
 42
1.0
 43
7.0
 44
1.125
 46
3.0
 73
     0
 74
     0
 77
     1
 78
     8
140
2.25
141
0.0
147
1.125
172
     1
173
     1
176
   256
177
   256
178
   256
271
     2
272
     2
279
     2
284
     8
285
     8
286
     8
340
1522C
  0
ENDTAB
  0
TABLE
  2
BLOCK_RECORD
  5
1520A
330
0
100
AcDbSymbolTable
 70
    27
  0
BLOCK_RECORD
  5
15227
330
1520A
100
AcDbSymbolTableRecord
100
AcDbBlockTableRecord
  2
*Model_Space
340
1522A
  0
BLOCK_RECORD
  5
15223
330
1520A
100
AcDbSymbolTableRecord
100
AcDbBlockTableRecord
  2
*Paper_Space
340
15226
  0
BLOCK_RECORD
  5
15251
330
1520A
100
AcDbSymbolTableRecord
100
AcDbBlockTableRecord
  2
$MODEL_SPACE
340
0
  0
BLOCK_RECORD
  5
15254
330
1520A
100
AcDbSymbolTableRecord
100
AcDbBlockTableRecord
  2
$PAPER_SPACE
340
0
  0
BLOCK_RECORD
  5
15257
330
1520A
100
AcDbSymbolTableRecord
100
AcDbBlockTableRecord
  2
DOT
340
0
  0
BLOCK_RECORD
  5
1525F
330
1520A
100
AcDbSymbolTableRecord
100
AcDbBlockTableRecord
  2
*U3
340
0
  0
BLOCK_RECORD
  5
15263
330
1520A
100
AcDbSymbolTableRecord
100
AcDbBlockTableRecord
  2
*U4
340
0
  0
BLOCK_RECORD
  5
15267
330
1520A
100
AcDbSymbolTableRecord
100
AcDbBlockTableRecord
  2
*U5
340
0
  0
BLOCK_RECORD
  5
1526B
330
1520A
100
AcDbSymbolTableRecord
100
AcDbBlockTableRecord
  2
*U6
340
0
  0
BLOCK_RECORD
  5
1526F
330
1520A
100
AcDbSymbolTableRecord
100
AcDbBlockTableRecord
  2
*U7
340
0
  0
BLOCK_RECORD
  5
15273
330
1520A
100
AcDbSymbolTableRecord
100
AcDbBlockTableRecord
  2
*U8
340
0
  0
BLOCK_RECORD
  5
15277
330
1520A
100
AcDbSymbolTableRecord
100
AcDbBlockTableRecord
  2
*U9
340
0
  0
BLOCK_RECORD
  5
1527B
330
1520A
100
AcDbSymbolTableRecord
100
AcDbBlockTableRecord
  2
*U10
340
0
  0
BLOCK_RECORD
  5
1527F
330
1520A
100
AcDbSymbolTableRecord
100
AcDbBlockTableRecord
  2
*U11
340
0
  0
BLOCK_RECORD
  5
15283
330
1520A
100
AcDbSymbolTableRecord
100
AcDbBlockTableRecord
  2
*U12
340
0
  0
BLOCK_RECORD
  5
15287
330
1520A
100
AcDbSymbolTableRecord
100
AcDbBlockTableRecord
  2
*U13
340
0
  0
BLOCK_RECORD
  5
1528B
330
1520A
100
AcDbSymbolTableRecord
100
AcDbBlockTableRecord
  2
*U14
340
0
  0
BLOCK_RECORD
  5
1528F
330
1520A
100
AcDbSymbolTableRecord
100
AcDbBlockTableRecord
  2
*U15
340
0
  0
BLOCK_RECORD
  5
15293
330
1520A
100
AcDbSymbolTableRecord
100
AcDbBlockTableRecord
  2
*U16
340
0
  0
BLOCK_RECORD
  5
15297
330
1520A
100
AcDbSymbolTableRecord
100
AcDbBlockTableRecord
  2
*U17
340
0
  0
BLOCK_RECORD
  5
1529B
330
1520A
100
AcDbSymbolTableRecord
100
AcDbBlockTableRecord
  2
*U18
340
0
  0
BLOCK_RECORD
  5
1529F
330
1520A
100
AcDbSymbolTableRecord
100
AcDbBlockTableRecord
  2
*U19
340
0
  0
BLOCK_RECORD
  5
152A3
330
1520A
100
AcDbSymbolTableRecord
100
AcDbBlockTableRecord
  2
*U20
340
0
  0
BLOCK_RECORD
  5
152A7
330
1520A
100
AcDbSymbolTableRecord
100
AcDbBlockTableRecord
  2
*U21
340
0
  0
BLOCK_RECORD
  5
152AB
330
1520A
100
AcDbSymbolTableRecord
100
AcDbBlockTableRecord
  2
*U22
340
0
  0
BLOCK_RECORD
  5
152AF
330
1520A
100
AcDbSymbolTableRecord
100
AcDbBlockTableRecord
  2
*U23
340
0
  0
BLOCK_RECORD
  5
152B3
330
1520A
100
AcDbSymbolTableRecord
100
AcDbBlockTableRecord
  2
*U24
340
0
  0
BLOCK_RECORD
  5
152B7
330
1520A
100
AcDbSymbolTableRecord
100
AcDbBlockTableRecord
  2
*U25
340
0
  0
ENDTAB
  0
ENDSEC
  0
SECTION
  2
BLOCKS
  0
BLOCK
  5
15228
330
15227
100
AcDbEntity
  8
0
100
AcDbBlockBegin
  2
*Model_Space
 70
     0
 10
0.0
 20
0.0
 30
0.0
  3
*Model_Space
  1

  0
ENDBLK
  5
15229
330
15227
100
AcDbEntity
  8
0
100
AcDbBlockEnd
  0
BLOCK
  5
15224
330
15223
100
AcDbEntity
 67
     1
  8
0
100
AcDbBlockBegin
  2
*Paper_Space
 70
     0
 10
0.0
 20
0.0
 30
0.0
  3
*Paper_Space
  1

  0
ENDBLK
  5
15225
330
15223
100
AcDbEntity
 67
     1
  8
0
100
AcDbBlockEnd
  0
BLOCK
  5
15252
330
15251
100
AcDbEntity
  8
0
100
AcDbBlockBegin
  2
$MODEL_SPACE
 70
     0
 10
0.0
 20
0.0
 30
0.0
  3
$MODEL_SPACE
  1

  0
ENDBLK
  5
15253
330
15251
100
AcDbEntity
  8
0
100
AcDbBlockEnd
  0
BLOCK
  5
15255
330
15254
100
AcDbEntity
  8
0
100
AcDbBlockBegin
  2
$PAPER_SPACE
 70
     0
 10
0.0
 20
0.0
 30
0.0
  3
$PAPER_SPACE
  1

  0
ENDBLK
  5
15256
330
15254
100
AcDbEntity
  8
0
100
AcDbBlockEnd
  0
BLOCK
  5
15258
330
15257
100
AcDbEntity
  8
0
100
AcDbBlockBegin
  2
DOT
 70
     0
 10
0.0
 20
0.0
 30
0.0
  3
DOT
  1

  0
LWPOLYLINE
  5
15259
330
15257
100
AcDbEntity
  8
0
  6
ByBlock
 62
     0
100
AcDbPolyline
 90
        2
 70
     1
 43
0.75
 10
-0.375
 20
0.0
 42
1.0
 10
0.375
 20
0.0
 42
1.0
  0
LINE
  5
1525D
330
15257
100
AcDbEntity
  8
0
  6
ByBlock
 62
     0
100
AcDbLine
 10
-0.75
 20
0.0
 30
0.0
 11
-1.5
 21
0.0
 31
0.0
  0
ENDBLK
  5
1525E
330
15257
100
AcDbEntity
  8
0
100
AcDbBlockEnd
  0
BLOCK
  5
15260
330
1525F
100
AcDbEntity
  8
0
100
AcDbBlockBegin
  2
*U3
 70
     1
 10
0.0
 20
0.0
 30
0.0
  3
*U3
  1

  0
TEXT
  5
15261
330
1525F
100
AcDbEntity
  8
SUNPOU
100
AcDbText
 10
6912.410967573769
 20
1405.89849823215
 30
0.0
 40
90.0
  1
1150
 41
0.6666666666666666
  7
00
100
AcDbText
  0
ENDBLK
  5
15262
330
1525F
100
AcDbEntity
  8
0
100
AcDbBlockEnd
  0
BLOCK
  5
15264
330
15263
100
AcDbEntity
  8
0
100
AcDbBlockBegin
  2
*U4
 70
     1
 10
0.0
 20
0.0
 30
0.0
  3
*U4
  1

  0
TEXT
  5
15265
330
15263
100
AcDbEntity
  8
SUNPOU
100
AcDbText
 10
8566.848304711026
 20
2405.618908356614
 30
0.0
 40
90.0
  1
800
 50
90.0
 41
0.6666666666666666
  7
00
100
AcDbText
  0
ENDBLK
  5
15266
330
15263
100
AcDbEntity
  8
0
100
AcDbBlockEnd
  0
BLOCK
  5
15268
330
15267
100
AcDbEntity
  8
0
100
AcDbBlockBegin
  2
*U5
 70
     1
 10
0.0
 20
0.0
 30
0.0
  3
*U5
  1

  0
TEXT
  5
15269
330
15267
100
AcDbEntity
  8
SUNPOU
100
AcDbText
 10
4685.461558243986
 20
2502.742556115541
 30
0.0
 40
90.0
  1
600
 50
90.0
 41
0.6666666666666666
  7
00
100
AcDbText
  0
ENDBLK
  5
1526A
330
15267
100
AcDbEntity
  8
0
100
AcDbBlockEnd
  0
BLOCK
  5
1526C
330
1526B
100
AcDbEntity
  8
0
100
AcDbBlockBegin
  2
*U6
 70
     1
 10
0.0
 20
0.0
 30
0.0
  3
*U6
  1

  0
TEXT
  5
1526D
330
1526B
100
AcDbEntity
  8
SUNPOU
100
AcDbText
 10
4475.461558243987
 20
2584.171127544112
 30
0.0
 40
90.0
  1
500
 50
90.0
 41
0.6666666666666666
  7
00
100
AcDbText
  0
ENDBLK
  5
1526E
330
1526B
100
AcDbEntity
  8
0
100
AcDbBlockEnd
  0
BLOCK
  5
15270
330
1526F
100
AcDbEntity
  8
0
100
AcDbBlockBegin
  2
*U7
 70
     1
 10
0.0
 20
0.0
 30
0.0
  3
*U7
  1

  0
TEXT
  5
15271
330
1526F
100
AcDbEntity
  8
SUNPOU
100
AcDbText
 10
12133.41322218536
 20
6438.693182432328
 30
0.0
 40
90.0
  1
400
 41
0.6666666666666666
  7
00
100
AcDbText
  0
ENDBLK
  5
15272
330
1526F
100
AcDbEntity
  8
0
100
AcDbBlockEnd
  0
BLOCK
  5
15274
330
15273
100
AcDbEntity
  8
0
100
AcDbBlockBegin
  2
*U8
 70
     1
 10
0.0
 20
0.0
 30
0.0
  3
*U8
  1

  0
TEXT
  5
15275
330
15273
100
AcDbEntity
  8
SUNPOU
100
AcDbText
 10
10704.84179361393
 20
6438.693182432328
 30
0.0
 40
90.0
  1
2400
 41
0.6666666666666666
  7
00
100
AcDbText
  0
ENDBLK
  5
15276
330
15273
100
AcDbEntity
  8
0
100
AcDbBlockEnd
  0
BLOCK
  5
15278
330
15277
100
AcDbEntity
  8
0
100
AcDbBlockBegin
  2
*U9
 70
     1
 10
0.0
 20
0.0
 30
0.0
  3
*U9
  1

  0
TEXT
  5
15279
330
15277
100
AcDbEntity
  8
SUNPOU
100
AcDbText
 10
5904.841793613934
 20
6438.693182432328
 30
0.0
 40
90.0
  1
2400
 41
0.6666666666666666
  7
00
100
AcDbText
  0
ENDBLK
  5
1527A
330
15277
100
AcDbEntity
  8
0
100
AcDbBlockEnd
  0
BLOCK
  5
1527C
330
1527B
100
AcDbEntity
  8
0
100
AcDbBlockBegin
  2
*U10
 70
     1
 10
0.0
 20
0.0
 30
0.0
  3
*U10
  1

  0
TEXT
  5
1527D
330
1527B
100
AcDbEntity
  8
SUNPOU
100
AcDbText
 10
4533.413222185362
 20
6438.693182432328
 30
0.0
 40
90.0
  1
400
 41
0.6666666666666666
  7
00
100
AcDbText
  0
ENDBLK
  5
1527E
330
1527B
100
AcDbEntity
  8
0
100
AcDbBlockEnd
  0
BLOCK
  5
15280
330
1527F
100
AcDbEntity
  8
0
100
AcDbBlockBegin
  2
*U11
 70
     1
 10
0.0
 20
0.0
 30
0.0
  3
*U11
  1

  0
TEXT
  5
15281
330
1527F
100
AcDbEntity
  8
SUNPOU
100
AcDbText
 10
8023.127507899646
 20
6438.693182432328
 30
0.0
 40
90.0
  1
2400 x （ N - 2 ）
 41
0.6666666666666666
  7
00
100
AcDbText
  0
ENDBLK
  5
15282
330
1527F
100
AcDbEntity
  8
0
100
AcDbBlockEnd
  0
BLOCK
  5
15284
330
15283
100
AcDbEntity
  8
0
100
AcDbBlockBegin
  2
*U12
 70
     1
 10
0.0
 20
0.0
 30
0.0
  3
*U12
  1

  0
TEXT
  5
15285
330
15283
100
AcDbEntity
  8
SUNPOU
100
AcDbText
 10
3924.127507899647
 20
7729.407468146617
 30
0.0
 40
90.0
  1
2000
 50
90.0
 41
0.6666666666666666
  7
00
100
AcDbText
  0
ENDBLK
  5
15286
330
15283
100
AcDbEntity
  8
0
100
AcDbBlockEnd
  0
BLOCK
  5
15288
330
15287
100
AcDbEntity
  8
0
100
AcDbBlockBegin
  2
*U13
 70
     1
 10
0.0
 20
0.0
 30
0.0
  3
*U13
  1

  0
TEXT
  5
15289
330
15287
100
AcDbEntity
  8
SUNPOU
100
AcDbText
 10
3924.127507899647
 20
8877.978896718046
 30
0.0
 40
90.0
  1
240
 50
90.0
 41
0.6666666666666666
  7
00
100
AcDbText
  0
ENDBLK
  5
1528A
330
15287
100
AcDbEntity
  8
0
100
AcDbBlockEnd
  0
BLOCK
  5
1528C
330
1528B
100
AcDbEntity
  8
0
100
AcDbBlockBegin
  2
*U14
 70
     1
 10
0.0
 20
0.0
 30
0.0
  3
*U14
  1

  0
TEXT
  5
1528D
330
1528B
100
AcDbEntity
  8
SUNPOU
100
AcDbText
 10
11933.41322218536
 20
9488.693182432331
 30
0.0
 40
90.0
  1
800
 41
0.6666666666666666
  7
00
100
AcDbText
  0
ENDBLK
  5
1528E
330
1528B
100
AcDbEntity
  8
0
100
AcDbBlockEnd
  0
BLOCK
  5
15290
330
1528F
100
AcDbEntity
  8
0
100
AcDbBlockBegin
  2
*U15
 70
     1
 10
0.0
 20
0.0
 30
0.0
  3
*U15
  1

  0
TEXT
  5
15291
330
1528F
100
AcDbEntity
  8
SUNPOU
100
AcDbText
 10
13034.12750789964
 20
8450.121753860907
 30
0.0
 40
90.0
  1
1150
 50
90.0
 41
0.6666666666666666
  7
00
100
AcDbText
  0
ENDBLK
  5
15292
330
1528F
100
AcDbEntity
  8
0
100
AcDbBlockEnd
  0
BLOCK
  5
15294
330
15293
100
AcDbEntity
  8
0
100
AcDbBlockBegin
  2
*U16
 70
     1
 10
0.0
 20
0.0
 30
0.0
  3
*U16
  1

  0
TEXT
  5
15295
330
15293
100
AcDbEntity
  8
SUNPOU
100
AcDbText
 10
12824.12750789964
 20
8332.978896718044
 30
0.0
 40
90.0
  1
850
 50
90.0
 41
0.6666666666666666
  7
00
100
AcDbText
  0
ENDBLK
  5
15296
330
15293
100
AcDbEntity
  8
0
100
AcDbBlockEnd
  0
BLOCK
  5
15298
330
15297
100
AcDbEntity
  8
0
100
AcDbBlockBegin
  2
*U17
 70
     1
 10
0.0
 20
0.0
 30
0.0
  3
*U17
  1

  0
TEXT
  5
15299
330
15297
100
AcDbEntity
  8
SUNPOU
100
AcDbText
 10
12824.12750789964
 20
8907.978896718045
 30
0.0
 40
90.0
  1
300
 50
90.0
 41
0.6666666666666666
  7
00
100
AcDbText
  0
ENDBLK
  5
1529A
330
15297
100
AcDbEntity
  8
0
100
AcDbBlockEnd
  0
BLOCK
  5
1529C
330
1529B
100
AcDbEntity
  8
0
100
AcDbBlockBegin
  2
*U18
 70
     1
 10
0.0
 20
0.0
 30
0.0
  3
*U18
  1

  0
TEXT
  5
1529D
330
1529B
100
AcDbEntity
  8
SUNPOU
100
AcDbText
 10
7385.268110430914
 20
1615.898498232149
 30
0.0
 40
90.0
  1
460
 41
0.6666666666666666
  7
00
100
AcDbText
  0
ENDBLK
  5
1529E
330
1529B
100
AcDbEntity
  8
0
100
AcDbBlockEnd
  0
BLOCK
  5
152A0
330
1529F
100
AcDbEntity
  8
0
100
AcDbBlockBegin
  2
*U19
 70
     1
 10
0.0
 20
0.0
 30
0.0
  3
*U19
  1

  0
TEXT
  5
152A1
330
1529F
100
AcDbEntity
  8
SUNPOU
100
AcDbText
 10
8356.848304711027
 20
2405.618908356613
 30
0.0
 40
90.0
  1
460
 50
90.0
 41
0.6666666666666666
  7
00
100
AcDbText
  0
ENDBLK
  5
152A2
330
1529F
100
AcDbEntity
  8
0
100
AcDbBlockEnd
  0
BLOCK
  5
152A4
330
152A3
100
AcDbEntity
  8
0
100
AcDbBlockBegin
  2
*U20
 70
     1
 10
0.0
 20
0.0
 30
0.0
  3
*U20
  1

  0
TEXT
  5
152A5
330
152A3
100
AcDbEntity
  8
SUNPOU
100
AcDbText
 10
7943.698936471074
 20
6228.693182432328
 30
0.0
 40
90.0
  1
L = 2400 × N + 800
 41
0.6666666666666666
  7
00
100
AcDbText
  0
ENDBLK
  5
152A6
330
152A3
100
AcDbEntity
  8
0
100
AcDbBlockEnd
  0
BLOCK
  5
152A8
330
152A7
100
AcDbEntity
  8
0
100
AcDbBlockBegin
  2
*U21
 70
     1
 10
0.0
 20
0.0
 30
0.0
  3
*U21
  1

  0
TEXT
  5
152A9
330
152A7
100
AcDbEntity
  8
SUNPOU
100
AcDbText
 10
3553.169290689375
 20
1615.898498232149
 30
0.0
 40
90.0
  1
300
 41
0.6666666666666666
  7
00
100
AcDbText
  0
ENDBLK
  5
152AA
330
152A7
100
AcDbEntity
  8
0
100
AcDbBlockEnd
  0
BLOCK
  5
152AC
330
152AB
100
AcDbEntity
  8
0
100
AcDbBlockBegin
  2
*U22
 70
     1
 10
0.0
 20
0.0
 30
0.0
  3
*U22
  1

  0
TEXT
  5
152AD
330
152AB
100
AcDbEntity
  8
SUNPOU
100
AcDbText
 10
2633.169290689374
 20
1615.898498232149
 30
0.0
 40
90.0
  1
850
 41
0.6666666666666666
  7
00
100
AcDbText
  0
ENDBLK
  5
152AE
330
152AB
100
AcDbEntity
  8
0
100
AcDbBlockEnd
  0
BLOCK
  5
152B0
330
152AF
100
AcDbEntity
  8
0
100
AcDbBlockBegin
  2
*U23
 70
     1
 10
0.0
 20
0.0
 30
0.0
  3
*U23
  1

  0
TEXT
  5
152B1
330
152AF
100
AcDbEntity
  8
SUNPOU
100
AcDbText
 10
2840.312147832232
 20
1405.89849823215
 30
0.0
 40
90.0
  1
1150
 41
0.6666666666666666
  7
00
100
AcDbText
  0
ENDBLK
  5
152B2
330
152AF
100
AcDbEntity
  8
0
100
AcDbBlockEnd
  0
BLOCK
  5
152B4
330
152B3
100
AcDbEntity
  8
0
100
AcDbBlockBegin
  2
*U24
 70
     1
 10
0.0
 20
0.0
 30
0.0
  3
*U24
  1

  0
TEXT
  5
152B5
330
152B3
100
AcDbEntity
  8
SUNPOU
100
AcDbText
 10
4903.084722699117
 20
2041.313984686969
 30
0.0
 40
90.0
  1
0
 50
90.0
 41
0.6666666666666666
  7
00
100
AcDbText
  0
ENDBLK
  5
152B6
330
152B3
100
AcDbEntity
  8
0
100
AcDbBlockEnd
  0
BLOCK
  5
152B8
330
152B7
100
AcDbEntity
  8
0
100
AcDbBlockBegin
  2
*U25
 70
     1
 10
0.0
 20
0.0
 30
0.0
  3
*U25
  1

  0
TEXT
  5
152B9
330
152B7
100
AcDbEntity
  8
SUNPOU
100
AcDbText
 10
4685.461558243988
 20
1722.028270401252
 30
0.0
 40
90.0
  1
100
 50
90.0
 41
0.6666666666666666
  7
00
100
AcDbText
  0
ENDBLK
  5
152BA
330
152B7
100
AcDbEntity
  8
0
100
AcDbBlockEnd
  0
ENDSEC
  0
SECTION
  2
ENTITIES
  0
TEXT
  5
152BB
330
15227
100
AcDbEntity
  8
NAME
100
AcDbText
 10
12854.79999999999
 20
541.0000000000001
 30
0.0
 40
160.0
  1
<3／3>
 41
0.6
  7
01
 72
     2
 11
13354.0
 21
541.0000000000001
 31
0.0
100
AcDbText
  0
TEXT
  5
152BC
330
15227
100
AcDbEntity
  8
NAME
100
AcDbText
 10
10912.04264730428
 20
541.0
 30
0.0
 40
160.0
  1
YOCF-240
 41
0.7
  7
01
 72
     2
 11
11776.04264730429
 21
541.0
 31
0.0
100
AcDbText
  0
TEXT
  5
152BD
330
15227
100
AcDbEntity
  8
NAME
100
AcDbText
 10
11816.04264730429
 20
541.0
 30
0.0
 40
160.0
  1
型（一般地用）
 41
0.8
  7
01
100
AcDbText
  0
TEXT
  5
152BE
330
15227
100
AcDbEntity
  8
HIKIDASHI
100
AcDbText
 10
7437.050177551384
 20
5782.138246625836
 30
0.0
 40
135.0
  1
基 礎 平 面 図　縮尺
  7
01
 72
     4
 11
8229.050177551384
 21
5849.638246625836
 31
0.0
100
AcDbText
  0
TEXT
  5
152BF
330
15227
100
AcDbEntity
  8
HIKIDASHI
100
AcDbText
 10
7782.174322717491
 20
5567.138246625837
 30
0.0
 40
135.0
  1
（  ：スパン数）
  7
01
 11
7782.174322717491
 21
5634.638246625836
 31
0.0
100
AcDbText
 73
     2
  0
TEXT
  5
152C0
330
15227
100
AcDbEntity
  8
HIKIDASHI
100
AcDbText
 10
7960.598235376822
 20
5567.138246625837
 30
0.0
 40
135.0
  1
N
 41
0.6666666666666666
  7
00
 72
     4
 11
8007.74109251968
 21
5634.638246625836
 31
0.0
100
AcDbText
  0
LINE
  5
152C1
330
15227
100
AcDbEntity
  8
KISO-1
100
AcDbLine
 10
5219.127507899647
 20
9143.693182432331
 30
0.0
 11
4419.127507899647
 21
9143.693182432331
 31
0.0
  0
LINE
  5
152C2
330
15227
100
AcDbEntity
  8
KISO-1
100
AcDbLine
 10
4419.127507899647
 20
7993.69318243233
 30
0.0
 11
5219.127507899647
 21
7993.69318243233
 31
0.0
  0
TEXT
  5
152C3
330
15227
100
AcDbEntity
  8
HIKIDASHI
100
AcDbText
 10
4374.127507899644
 20
6928.168187707528
 30
0.0
 40
90.0
  1
（土間コン側面位置）
 50
90.0
  7
01
100
AcDbText
  0
LINE
  5
152C4
330
15227
100
AcDbEntity
  8
KISO-1
100
AcDbLine
 10
4419.127507899647
 20
9143.693182432331
 30
0.0
 11
4419.127507899647
 21
9083.693182432327
 31
0.0
  0
TEXT
  5
152C5
330
15227
100
AcDbEntity
  8
HIKIDASHI
100
AcDbText
 10
5508.666308047362
 20
9128.693182432334
 30
0.0
 40
90.0
  1
（土間コン後面位置）
  7
01
100
AcDbText
  0
LINE
  5
152C6
330
15227
100
AcDbEntity
  8
SIN
100
AcDbLine
 10
4819.127507899647
 20
9210.693182432331
 30
0.0
 11
4819.127507899647
 21
7926.693182432328
 31
0.0
  0
LINE
  5
152C7
330
15227
100
AcDbEntity
  8
SIN
100
AcDbLine
 10
7219.127507899648
 20
9210.693182432331
 30
0.0
 11
7219.127507899648
 21
7926.693182432328
 31
0.0
  0
TEXT
  5
152C8
330
15227
100
AcDbEntity
  8
HIKIDASHI
100
AcDbText
 10
4732.326854848415
 20
7036.814277369064
 30
0.0
 40
90.0
  1
（けらば外面）
 50
90.0
  7
01
100
AcDbText
  0
TEXT
  5
152C9
330
15227
100
AcDbEntity
  8
HIKIDASHI
100
AcDbText
 10
5526.575500939492
 20
6708.693182432321
 30
0.0
 40
90.0
  1
（土間コン前面位置）
  7
01
100
AcDbText
  0
TEXT
  5
152CA
330
15227
100
AcDbEntity
  8
HIKIDASHI
100
AcDbText
 10
5635.22159060103
 20
7000.143910050988
 30
0.0
 40
90.0
  1
（鼻隠し外面）
  7
01
100
AcDbText
  0
LINE
  5
152CB
330
15227
100
AcDbEntity
  8
KISO-1
100
AcDbLine
 10
5219.127507899647
 20
7993.69318243233
 30
0.0
 11
5219.127507899647
 21
9143.693182432331
 31
0.0
  0
CIRCLE
  5
152CC
330
15227
100
AcDbEntity
  8
KISO-2
100
AcDbCircle
 10
4819.127507899647
 20
8843.69318243233
 30
0.0
 40
44.55
  0
LINE
  5
152CD
330
15227
100
AcDbEntity
  8
SIN
100
AcDbLine
 10
4938.677507899647
 20
8843.69318243233
 30
0.0
 11
4699.57750789965
 21
8843.69318243233
 31
0.0
  0
TEXT
  5
152CE
330
15227
100
AcDbEntity
  8
HIKIDASHI
100
AcDbText
 10
5617.312397708899
 20
8837.242454813669
 30
0.0
 40
90.0
  1
（屋根後面位置）
  7
01
100
AcDbText
  0
LINE
  5
152CF
330
15227
100
AcDbEntity
  8
U2
100
AcDbLine
 10
8269.127507899645
 20
9158.693182432331
 30
0.0
 11
8269.127507899645
 21
6768.693182432328
 31
0.0
  0
CIRCLE
  5
152D0
330
15227
100
AcDbEntity
  8
KISO-2
100
AcDbCircle
 10
7219.127507899648
 20
8843.69318243233
 30
0.0
 40
44.55
  0
LINE
  5
152D1
330
15227
100
AcDbEntity
  8
SIN
100
AcDbLine
 10
7338.67750789965
 20
8843.69318243233
 30
0.0
 11
7099.57750789965
 21
8843.69318243233
 31
0.0
  0
LINE
  5
152D2
330
15227
100
AcDbEntity
  8
HIKIDASHI
100
AcDbLine
 10
9362.771711688244
 20
5917.138246625839
 30
0.0
 11
9227.771711688246
 21
5782.138246625836
 31
0.0
  0
TEXT
  5
152D3
330
15227
100
AcDbEntity
  8
HIKIDASHI
100
AcDbText
 10
9083.536143415292
 20
5791.781103768693
 30
0.0
 40
135.0
  1
=
 41
0.6666666666666666
  7
00
 72
     4
 11
9139.250429129578
 21
5849.638246625836
 31
0.0
100
AcDbText
  0
TEXT
  5
152D4
330
15227
100
AcDbEntity
  8
HIKIDASHI
100
AcDbText
 10
9313.923774851756
 20
5782.138246625838
 30
0.0
 40
67.5
  1
40
 41
0.6666666666666666
  7
00
 72
     4
 11
9356.780917708901
 21
5815.888246625839
 31
0.0
100
AcDbText
  0
TEXT
  5
152D5
330
15227
100
AcDbEntity
  8
HIKIDASHI
100
AcDbText
 10
9230.181807712936
 20
5849.552103177039
 30
0.0
 40
67.5
  1
1
 41
0.6666666666666666
  7
00
 72
     4
 11
9248.396093427222
 21
5883.302103177039
 31
0.0
100
AcDbText
  0
LINE
  5
152D6
330
15227
100
AcDbEntity
  8
HIKIDASHI
100
AcDbLine
 10
12086.16122750115
 20
8923.925239220036
 30
0.0
 11
12520.42628261919
 21
9443.693182432332
 31
0.0
  0
LINE
  5
152D7
330
15227
100
AcDbEntity
  8
SIN
100
AcDbLine
 10
12019.12750789964
 20
9210.693182432331
 30
0.0
 11
12019.12750789964
 21
7926.693182432328
 31
0.0
  0
LINE
  5
152D8
330
15227
100
AcDbEntity
  8
SIN
100
AcDbLine
 10
9619.127507899644
 20
9210.693182432331
 30
0.0
 11
9619.127507899644
 21
7926.693182432328
 31
0.0
  0
LINE
  5
152D9
330
15227
100
AcDbEntity
  8
U2
100
AcDbLine
 10
8569.127507899649
 20
9158.693182432331
 30
0.0
 11
8569.127507899649
 21
6768.693182432328
 31
0.0
  0
LINE
  5
152DA
330
15227
100
AcDbEntity
  8
SIN
100
AcDbLine
 10
9738.677507899645
 20
8843.69318243233
 30
0.0
 11
9499.577507899649
 21
8843.69318243233
 31
0.0
  0
CIRCLE
  5
152DB
330
15227
100
AcDbEntity
  8
KISO-2
100
AcDbCircle
 10
9619.127507899644
 20
8843.69318243233
 30
0.0
 40
44.55
  0
TEXT
  5
152DC
330
15227
100
AcDbEntity
  8
HIKIDASHI
100
AcDbText
 10
12195.92816095087
 20
7036.814277369064
 30
0.0
 40
90.0
  1
（けらば外面）
 50
90.0
  7
01
100
AcDbText
  0
LINE
  5
152DD
330
15227
100
AcDbEntity
  8
KISO-1
100
AcDbLine
 10
11619.12750789964
 20
7993.69318243233
 30
0.0
 11
11619.12750789964
 21
9143.693182432331
 31
0.0
  0
LINE
  5
152DE
330
15227
100
AcDbEntity
  8
KISO-1
100
AcDbLine
 10
12419.12750789964
 20
7993.69318243233
 30
0.0
 11
11619.12750789964
 21
7993.69318243233
 31
0.0
  0
LINE
  5
152DF
330
15227
100
AcDbEntity
  8
KISO-1
100
AcDbLine
 10
11619.12750789964
 20
9143.693182432331
 30
0.0
 11
12419.12750789964
 21
9143.693182432331
 31
0.0
  0
LINE
  5
152E0
330
15227
100
AcDbEntity
  8
SIN
100
AcDbLine
 10
12138.67750789964
 20
8843.69318243233
 30
0.0
 11
11899.57750789965
 21
8843.69318243233
 31
0.0
  0
CIRCLE
  5
152E1
330
15227
100
AcDbEntity
  8
KISO-2
100
AcDbCircle
 10
12019.12750789964
 20
8843.69318243233
 30
0.0
 40
44.55
  0
LINE
  5
152E2
330
15227
100
AcDbEntity
  8
KISO-1
100
AcDbLine
 10
12419.12750789964
 20
9143.693182432331
 30
0.0
 11
12419.12750789964
 21
9083.693182432327
 31
0.0
  0
TEXT
  5
152E3
330
15227
100
AcDbEntity
  8
HIKIDASHI
100
AcDbText
 10
12554.12750789964
 20
6928.168187707528
 30
0.0
 40
90.0
  1
（土間コン側面位置）
 50
90.0
  7
01
100
AcDbText
  0
TEXT
  5
152E4
330
15227
100
AcDbEntity
  8
HIKIDASHI
100
AcDbText
 10
12530.4262826192
 20
9488.693182432324
 30
0.0
 40
90.0
  1
柱
  7
01
100
AcDbText
  0
LINE
  5
152E5
330
15227
100
AcDbEntity
  8
HIKIDASHI
100
AcDbLine
 10
12520.42628261919
 20
9443.693182432332
 30
0.0
 11
12636.11139086725
 21
9443.693182432332
 31
0.0
  0
LINE
  5
152E6
330
15227
100
AcDbEntity
  8
SUNPOU
100
AcDbLine
 10
9409.127507899645
 20
9353.693182432332
 30
0.0
 11
9619.127507899644
 21
9353.693182432332
 31
0.0
  0
LINE
  5
152E7
330
15227
100
AcDbEntity
  8
SUNPOU
100
AcDbLine
 10
9619.127507899644
 20
9353.693182432332
 30
0.0
 11
9619.127507899644
 21
9203.693182432331
 31
0.0
  0
TEXT
  5
152E8
330
15227
100
AcDbEntity
  8
SUNPOU
100
AcDbText
 10
9193.234650756787
 20
9300.121753860901
 30
0.0
 40
90.0
  1
A'
 41
0.6700000000000001
  7
00
 72
     4
 11
9229.127507899645
 21
9353.693182432332
 31
0.0
100
AcDbText
  0
LINE
  5
152E9
330
15227
100
AcDbEntity
  8
SUNPOU
100
AcDbLine
 10
9409.127507899645
 20
7783.693182432331
 30
0.0
 11
9619.127507899644
 21
7783.693182432331
 31
0.0
  0
LINE
  5
152EA
330
15227
100
AcDbEntity
  8
SUNPOU
100
AcDbLine
 10
9619.127507899644
 20
7783.693182432331
 30
0.0
 11
9619.127507899644
 21
7933.693182432326
 31
0.0
  0
TEXT
  5
152EB
330
15227
100
AcDbEntity
  8
SUNPOU
100
AcDbText
 10
9203.284650756787
 20
7738.693182432325
 30
0.0
 40
90.0
  1
A
 41
0.6700000000000001
  7
00
 72
     4
 11
9229.127507899645
 21
7783.693182432326
 31
0.0
100
AcDbText
  0
LINE
  5
152EC
330
15227
100
AcDbEntity
  8
SUNPOU
100
AcDbLine
 10
9409.127507899645
 20
7768.693182432328
 30
0.0
 11
9319.127507899644
 21
7783.693182432326
 31
0.0
  0
LINE
  5
152ED
330
15227
100
AcDbEntity
  8
SUNPOU
100
AcDbLine
 10
9319.127507899644
 20
7783.693182432326
 30
0.0
 11
9409.127507899645
 21
7798.693182432328
 31
0.0
  0
SOLID
  5
152EE
330
15227
100
AcDbEntity
  8
SUNPOU
100
AcDbTrace
 10
9409.127507899645
 20
7768.693182432328
 30
0.0
 11
9409.127507899645
 21
7798.693182432328
 31
0.0
 12
9319.127507899644
 22
7783.693182432326
 32
0.0
 13
9319.127507899644
 23
7783.693182432326
 33
0.0
  0
LINE
  5
152EF
330
15227
100
AcDbEntity
  8
SUNPOU
100
AcDbLine
 10
9409.127507899645
 20
7798.693182432328
 30
0.0
 11
9409.127507899645
 21
7768.693182432328
 31
0.0
  0
LINE
  5
152F0
330
15227
100
AcDbEntity
  8
SUNPOU
100
AcDbLine
 10
9409.127507899645
 20
9368.693182432329
 30
0.0
 11
9319.127507899644
 21
9353.693182432332
 31
0.0
  0
LINE
  5
152F1
330
15227
100
AcDbEntity
  8
SUNPOU
100
AcDbLine
 10
9319.127507899644
 20
9353.693182432332
 30
0.0
 11
9409.127507899645
 21
9338.693182432331
 31
0.0
  0
SOLID
  5
152F2
330
15227
100
AcDbEntity
  8
SUNPOU
100
AcDbTrace
 10
9409.127507899645
 20
9368.693182432329
 30
0.0
 11
9409.127507899645
 21
9338.693182432331
 31
0.0
 12
9319.127507899644
 22
9353.693182432332
 32
0.0
 13
9319.127507899644
 23
9353.693182432332
 33
0.0
  0
LINE
  5
152F3
330
15227
100
AcDbEntity
  8
SUNPOU
100
AcDbLine
 10
9409.127507899645
 20
9338.693182432331
 30
0.0
 11
9409.127507899645
 21
9368.693182432329
 31
0.0
  0
LINE
  5
152F4
330
15227
100
AcDbEntity
  8
AQU_HOKYOU
100
AcDbLine
 10
3995.971888158225
 20
2970.973725012967
 30
0.0
 11
4113.060199912793
 21
2853.885413258396
 31
0.0
  0
LINE
  5
152F5
330
15227
100
AcDbEntity
  8
AQU_HOKYOU
100
AcDbLine
 10
3878.883576403658
 20
2853.8854132584
 30
0.0
 11
4046.883576403657
 21
3021.885413258399
 31
0.0
  0
LINE
  5
152F6
330
15227
100
AcDbEntity
  8
AQU_HOKYOU
100
AcDbLine
 10
4353.434427442669
 20
3021.885413258399
 30
0.0
 11
3878.883576403658
 21
3021.885413258399
 31
0.0
  0
LINE
  5
152F7
330
15227
100
AcDbEntity
  8
KISO
100
AcDbLine
 10
4038.883576403661
 20
2109.885413258393
 30
0.0
 11
1878.88357640366
 21
2109.885413258393
 31
0.0
  0
LINE
  5
152F8
330
15227
100
AcDbEntity
  8
KISO
100
AcDbLine
 10
1878.88357640366
 20
1949.885413258392
 30
0.0
 11
4038.883576403661
 21
1949.885413258393
 31
0.0
  0
LINE
  5
152F9
330
15227
100
AcDbEntity
  8
HATCH
100
AcDbLine
 10
2519.366000707928
 20
3069.885413258397
 30
0.0
 11
2038.883576403657
 21
2589.402988954119
 31
0.0
  0
LINE
  5
152FA
330
15227
100
AcDbEntity
  8
HATCH
100
AcDbLine
 10
2471.848425012189
 20
3069.885413258397
 30
0.0
 11
2038.883576403657
 21
2636.920564649855
 31
0.0
  0
LINE
  5
152FB
330
15227
100
AcDbEntity
  8
HATCH
100
AcDbLine
 10
2566.883576403664
 20
3069.885413258397
 30
0.0
 11
2038.883576403657
 21
2541.885413258385
 31
0.0
  0
LINE
  5
152FC
330
15227
100
AcDbEntity
  8
HATCH
100
AcDbLine
 10
2502.883576403641
 20
2141.885413258397
 30
0.0
 11
2470.883576403636
 21
2109.885413258393
 31
0.0
  0
LINE
  5
152FD
330
15227
100
AcDbEntity
  8
KIN
100
AcDbLine
 10
2150.88357640366
 20
2189.885413258396
 30
0.0
 11
3766.883576403663
 21
2189.885413258397
 31
0.0
  0
LINE
  5
152FE
330
15227
100
AcDbEntity
  8
HATCH
100
AcDbLine
 10
2998.883576403666
 20
3069.885413258399
 30
0.0
 11
2166.883576403669
 21
2237.885413258397
 31
0.0
  0
LINE
  5
152FF
330
15227
100
AcDbEntity
  8
HATCH
100
AcDbLine
 10
2951.366000707926
 20
3069.885413258397
 30
0.0
 11
2119.36600070793
 21
2237.885413258397
 31
0.0
  0
LINE
  5
15300
330
15227
100
AcDbEntity
  8
HATCH
100
AcDbLine
 10
3046.401152099396
 20
3069.885413258399
 30
0.0
 11
2214.401152099398
 21
2237.885413258396
 31
0.0
  0
LINE
  5
15301
330
15227
100
AcDbEntity
  8
KISO
100
AcDbLine
 10
3327.603576403655
 20
3069.885413258399
 30
0.0
 11
1417.090341714865
 21
3069.885413258396
 31
0.0
  0
LINE
  5
15302
330
15227
100
AcDbEntity
  8
KISO
100
AcDbLine
 10
2038.883576403661
 20
3069.885413258397
 30
0.0
 11
2038.883576403661
 21
2109.885413258393
 31
0.0
  0
LINE
  5
15303
330
15227
100
AcDbEntity
  8
KISO
100
AcDbLine
 10
1878.88357640366
 20
1949.885413258392
 30
0.0
 11
1878.88357640366
 21
2109.885413258393
 31
0.0
  0
CIRCLE
  5
15304
330
15227
100
AcDbEntity
  8
KIN
100
AcDbCircle
 10
2150.88357640366
 20
2200.285413258393
 30
0.0
 40
10.4
  0
LINE
  5
15305
330
15227
100
AcDbEntity
  8
KISO
100
AcDbLine
 10
1417.090341714865
 20
2829.885413258396
 30
0.0
 11
2038.883576403657
 21
2829.885413258397
 31
0.0
  0
LINE
  5
15306
330
15227
100
AcDbEntity
  8
KISO
100
AcDbLine
 10
1417.090341714865
 20
2925.885413258395
 30
0.0
 11
2038.883576403657
 21
2925.885413258395
 31
0.0
  0
LINE
  5
15307
330
15227
100
AcDbEntity
  8
CF-101
100
AcDbLine
 10
3327.603576403655
 20
2269.885413258396
 30
0.0
 11
3327.603576403663
 21
3497.085413258395
 31
0.0
  0
LINE
  5
15308
330
15227
100
AcDbEntity
  8
CF-101
100
AcDbLine
 10
3470.163576403654
 20
2269.885413258396
 30
0.0
 11
3470.163576403664
 21
3497.085413258395
 31
0.0
  0
LINE
  5
15309
330
15227
100
AcDbEntity
  8
HATCH
100
AcDbLine
 10
3878.88357640366
 20
2558.850261866932
 30
0.0
 11
3766.883576403659
 21
2446.850261866929
 31
0.0
  0
LINE
  5
1530A
330
15227
100
AcDbEntity
  8
HATCH
100
AcDbLine
 10
3878.883576403658
 20
2511.332686171193
 30
0.0
 11
3766.883576403663
 21
2399.332686171193
 31
0.0
  0
LINE
  5
1530B
330
15227
100
AcDbEntity
  8
KIN-T
100
AcDbLine
 10
3078.883576403661
 20
2973.885413258397
 30
0.0
 11
3078.883576403658
 21
2437.885413258397
 31
0.0
  0
LINE
  5
1530C
330
15227
100
AcDbEntity
  8
KIN-T
100
AcDbLine
 10
3718.88357640366
 20
2973.885413258397
 30
0.0
 11
3718.883576403658
 21
2437.885413258396
 31
0.0
  0
LINE
  5
1530D
330
15227
100
AcDbEntity
  8
KISO
100
AcDbLine
 10
3878.88357640366
 20
2109.885413258397
 30
0.0
 11
3878.883576403658
 21
3069.885413258399
 31
0.0
  0
LINE
  5
1530E
330
15227
100
AcDbEntity
  8
KIN
100
AcDbLine
 10
3118.883576403659
 20
2429.885413258396
 30
0.0
 11
3327.603576403659
 21
2429.885413258396
 31
0.0
  0
LINE
  5
1530F
330
15227
100
AcDbEntity
  8
KIN-T
100
AcDbLine
 10
2798.163576403658
 20
2389.885413258397
 30
0.0
 11
3030.883576403659
 21
2389.885413258397
 31
0.0
  0
LINE
  5
15310
330
15227
100
AcDbEntity
  8
HATCH
100
AcDbLine
 10
2597.918727795129
 20
2141.885413258397
 30
0.0
 11
2565.918727795128
 21
2109.885413258393
 31
0.0
  0
LINE
  5
15311
330
15227
100
AcDbEntity
  8
HATCH
100
AcDbLine
 10
2550.401152099396
 20
2141.885413258397
 30
0.0
 11
2518.401152099394
 21
2109.885413258393
 31
0.0
  0
LINE
  5
15312
330
15227
100
AcDbEntity
  8
HATCH
100
AcDbLine
 10
3029.436303490857
 20
2141.885413258397
 30
0.0
 11
2997.436303490857
 21
2109.885413258396
 31
0.0
  0
LINE
  5
15313
330
15227
100
AcDbEntity
  8
HATCH
100
AcDbLine
 10
2981.918727795125
 20
2141.885413258397
 30
0.0
 11
2949.918727795123
 21
2109.885413258396
 31
0.0
  0
LINE
  5
15314
330
15227
100
AcDbEntity
  8
HATCH
100
AcDbLine
 10
2934.401152099368
 20
2141.885413258397
 30
0.0
 11
2902.401152099367
 21
2109.885413258396
 31
0.0
  0
ARC
  5
15315
330
15227
100
AcDbEntity
  8
KIN-T
100
AcDbCircle
 10
3030.883576403659
 20
2437.885413258397
 30
0.0
 40
48.0
100
AcDbArc
 50
270.0
 51
0.0
  0
LINE
  5
15316
330
15227
100
AcDbEntity
  8
KIN
100
AcDbLine
 10
3470.163576403657
 20
2429.885413258396
 30
0.0
 11
3678.88357640366
 21
2429.885413258396
 31
0.0
  0
LINE
  5
15317
330
15227
100
AcDbEntity
  8
KIN-T
100
AcDbLine
 10
3438.163576403657
 20
2389.885413258395
 30
0.0
 11
3670.883576403658
 21
2389.885413258395
 31
0.0
  0
LINE
  5
15318
330
15227
100
AcDbEntity
  8
HATCH
100
AcDbLine
 10
3461.43630349087
 20
2141.885413258397
 30
0.0
 11
3429.436303490872
 21
2109.885413258396
 31
0.0
  0
LINE
  5
15319
330
15227
100
AcDbEntity
  8
HATCH
100
AcDbLine
 10
3413.918727795139
 20
2141.885413258397
 30
0.0
 11
3381.918727795139
 21
2109.885413258396
 31
0.0
  0
LINE
  5
1531A
330
15227
100
AcDbEntity
  8
HATCH
100
AcDbLine
 10
3508.953879186591
 20
2141.885413258397
 30
0.0
 11
3476.953879186588
 21
2109.885413258397
 31
0.0
  0
LINE
  5
1531B
330
15227
100
AcDbEntity
  8
CF-101
100
AcDbLine
 10
3470.163576403654
 20
2269.885413258396
 30
0.0
 11
3327.603576403655
 21
2269.885413258396
 31
0.0
  0
CIRCLE
  5
1531C
330
15227
100
AcDbEntity
  8
KIN
100
AcDbCircle
 10
3766.883576403663
 20
2200.285413258396
 30
0.0
 40
10.4
  0
LINE
  5
1531D
330
15227
100
AcDbEntity
  8
HATCH
100
AcDbLine
 10
3878.88357640366
 20
2463.815110475457
 30
0.0
 11
3766.883576403663
 21
2351.815110475461
 31
0.0
  0
ARC
  5
1531E
330
15227
100
AcDbEntity
  8
KIN-T
100
AcDbCircle
 10
3670.883576403658
 20
2437.885413258396
 30
0.0
 40
48.0
100
AcDbArc
 50
270.0
 51
0.0
  0
LINE
  5
1531F
330
15227
100
AcDbEntity
  8
KIN
100
AcDbLine
 10
3078.883576403661
 20
2973.885413258397
 30
0.0
 11
3718.88357640366
 21
2973.885413258397
 31
0.0
  0
LINE
  5
15320
330
15227
100
AcDbEntity
  8
KIN
100
AcDbLine
 10
3078.883576403658
 20
2813.885413258393
 30
0.0
 11
3718.88357640366
 21
2813.885413258396
 31
0.0
  0
LINE
  5
15321
330
15227
100
AcDbEntity
  8
KIN
100
AcDbLine
 10
3078.883576403658
 20
2653.885413258396
 30
0.0
 11
3718.883576403661
 21
2653.885413258396
 31
0.0
  0
LINE
  5
15322
330
15227
100
AcDbEntity
  8
KIN
100
AcDbLine
 10
3078.883576403661
 20
2493.885413258396
 30
0.0
 11
3718.883576403661
 21
2493.885413258396
 31
0.0
  0
CIRCLE
  5
15323
330
15227
100
AcDbEntity
  8
KIN
100
AcDbCircle
 10
3071.683576403659
 20
2653.885413258396
 30
0.0
 40
7.2
  0
CIRCLE
  5
15324
330
15227
100
AcDbEntity
  8
KIN
100
AcDbCircle
 10
3071.683576403659
 20
2493.885413258396
 30
0.0
 40
7.2
  0
CIRCLE
  5
15325
330
15227
100
AcDbEntity
  8
KIN
100
AcDbCircle
 10
3071.683576403659
 20
2973.885413258397
 30
0.0
 40
7.2
  0
CIRCLE
  5
15326
330
15227
100
AcDbEntity
  8
KIN
100
AcDbCircle
 10
3071.683576403659
 20
2813.885413258393
 30
0.0
 40
7.2
  0
LINE
  5
15327
330
15227
100
AcDbEntity
  8
HATCH
100
AcDbLine
 10
3878.883576403658
 20
3038.36783756266
 30
0.0
 11
3766.883576403663
 21
2926.367837562666
 31
0.0
  0
CIRCLE
  5
15328
330
15227
100
AcDbEntity
  8
KIN
100
AcDbCircle
 10
3726.083576403659
 20
2653.885413258396
 30
0.0
 40
7.2
  0
CIRCLE
  5
15329
330
15227
100
AcDbEntity
  8
KIN
100
AcDbCircle
 10
3726.083576403659
 20
2493.885413258396
 30
0.0
 40
7.2
  0
LINE
  5
1532A
330
15227
100
AcDbEntity
  8
HATCH
100
AcDbLine
 10
3878.883576403658
 20
2943.332686171187
 30
0.0
 11
3766.883576403663
 21
2831.332686171188
 31
0.0
  0
LINE
  5
1532B
330
15227
100
AcDbEntity
  8
HATCH
100
AcDbLine
 10
3878.883576403658
 20
2990.850261866926
 30
0.0
 11
3766.883576403663
 21
2878.850261866926
 31
0.0
  0
CIRCLE
  5
1532C
330
15227
100
AcDbEntity
  8
KIN
100
AcDbCircle
 10
3726.083576403659
 20
2973.885413258397
 30
0.0
 40
7.2
  0
CIRCLE
  5
1532D
330
15227
100
AcDbEntity
  8
KIN
100
AcDbCircle
 10
3726.083576403659
 20
2813.885413258396
 30
0.0
 40
7.2
  0
LINE
  5
1532E
330
15227
100
AcDbEntity
  8
AQU_HOKYOU
100
AcDbLine
 10
3945.060199912795
 20
2920.062036767536
 30
0.0
 11
4011.236823421931
 21
2853.885413258396
 31
0.0
  0
LINE
  5
1532F
330
15227
100
AcDbEntity
  8
AQU_HOKYOU
100
AcDbLine
 10
3878.88357640366
 20
2955.708789749257
 30
0.0
 11
3945.060199912801
 21
3021.885413258399
 31
0.0
  0
LINE
  5
15330
330
15227
100
AcDbEntity
  8
KISO
100
AcDbLine
 10
3878.883576403658
 20
3069.885413258399
 30
0.0
 11
3470.163576403657
 21
3069.885413258399
 31
0.0
  0
LINE
  5
15331
330
15227
100
AcDbEntity
  8
KISO
100
AcDbLine
 10
4038.883576403661
 20
1949.885413258393
 30
0.0
 11
4038.883576403661
 21
2109.885413258397
 31
0.0
  0
LINE
  5
15332
330
15227
100
AcDbEntity
  8
AQU_HOKYOU
100
AcDbLine
 10
4331.971888158227
 20
2970.973725012967
 30
0.0
 11
4353.434427442669
 21
2949.511185728524
 31
0.0
  0
LINE
  5
15333
330
15227
100
AcDbEntity
  8
AQU_HOKYOU
100
AcDbLine
 10
4214.883576403657
 20
2853.8854132584
 30
0.0
 11
4353.434427442669
 21
2992.43626429741
 31
0.0
  0
LINE
  5
15334
330
15227
100
AcDbEntity
  8
AQU_HOKYOU
100
AcDbLine
 10
4163.971888158227
 20
2904.797101503833
 30
0.0
 11
4281.060199912796
 21
3021.885413258399
 31
0.0
  0
LINE
  5
15335
330
15227
100
AcDbEntity
  8
AQU_HOKYOU
100
AcDbLine
 10
4046.883576403657
 20
3021.885413258399
 30
0.0
 11
4214.883576403657
 21
2853.8854132584
 31
0.0
  0
LINE
  5
15336
330
15227
100
AcDbEntity
  8
AQU_HOKYOU
100
AcDbLine
 10
4113.060199912793
 20
2955.708789749262
 30
0.0
 11
4179.236823421926
 21
3021.885413258399
 31
0.0
  0
LINE
  5
15337
330
15227
100
AcDbEntity
  8
AQU_HOKYOU
100
AcDbLine
 10
4281.060199912793
 20
2920.062036767536
 30
0.0
 11
4347.236823421932
 21
2853.885413258396
 31
0.0
  0
LINE
  5
1533D
330
15227
100
AcDbEntity
  8
HATCH
100
AcDbLine
 10
1783.640535747121
 20
3069.885413258396
 30
0.0
 11
1639.640535747124
 21
2925.885413258395
 31
0.0
  0
LINE
  5
1533E
330
15227
100
AcDbEntity
  8
HATCH
100
AcDbLine
 10
1831.158111442914
 20
3069.885413258397
 30
0.0
 11
1687.158111442905
 21
2925.885413258395
 31
0.0
  0
LINE
  5
1533F
330
15227
100
AcDbEntity
  8
HATCH
100
AcDbLine
 10
1736.12296005138
 20
3069.885413258397
 30
0.0
 11
1592.122960051383
 21
2925.885413258395
 31
0.0
  0
LINE
  5
15340
330
15227
100
AcDbEntity
  8
HATCH
100
AcDbLine
 10
3030.883576403659
 20
2622.36783756266
 30
0.0
 11
2646.401152099397
 21
2237.885413258397
 31
0.0
  0
LINE
  5
15341
330
15227
100
AcDbEntity
  8
HATCH
100
AcDbLine
 10
3030.883576403657
 20
2669.885413258397
 30
0.0
 11
2598.883576403659
 21
2237.885413258397
 31
0.0
  0
LINE
  5
15342
330
15227
100
AcDbEntity
  8
HATCH
100
AcDbLine
 10
3030.883576403659
 20
2574.850261866929
 30
0.0
 11
2693.918727795129
 21
2237.885413258397
 31
0.0
  0
LINE
  5
15343
330
15227
100
AcDbEntity
  8
HATCH
100
AcDbLine
 10
2118.4011520994
 20
2141.885413258397
 30
0.0
 11
2086.401152099397
 21
2109.885413258396
 31
0.0
  0
LINE
  5
15344
330
15227
100
AcDbEntity
  8
HATCH
100
AcDbLine
 10
2070.883576403669
 20
2141.885413258397
 30
0.0
 11
2038.883576403661
 21
2109.885413258387
 31
0.0
  0
LINE
  5
15345
330
15227
100
AcDbEntity
  8
KIN
100
AcDbLine
 10
6222.982396145201
 20
2491.333194070897
 30
0.0
 11
7838.662396145197
 21
2491.333194070897
 31
0.0
  0
LINE
  5
15346
330
15227
100
AcDbEntity
  8
KIN
100
AcDbLine
 10
6222.982396145201
 20
2755.333194070897
 30
0.0
 11
7838.662396145197
 21
2755.333194070897
 31
0.0
  0
LINE
  5
15347
330
15227
100
AcDbEntity
  8
HATCH
100
AcDbLine
 10
7458.268793732258
 20
3131.333194070897
 30
0.0
 11
6818.268793732258
 21
2491.333194070897
 31
0.0
  0
LINE
  5
15348
330
15227
100
AcDbEntity
  8
HATCH
100
AcDbLine
 10
7505.786369427998
 20
3131.333194070897
 30
0.0
 11
6865.786369427991
 21
2491.333194070897
 31
0.0
  0
LINE
  5
15349
330
15227
100
AcDbEntity
  8
1PL-M1
100
AcDbLine
 10
8070.982396145197
 20
2491.333194070897
 30
0.0
 11
5990.9823961452
 21
2491.333194070897
 31
0.0
  0
LINE
  5
1534A
330
15227
100
AcDbEntity
  8
KIN
100
AcDbLine
 10
6233.382396145199
 20
3019.333194070897
 30
0.0
 11
7828.582396145201
 21
3019.333194070897
 31
0.0
  0
LINE
  5
1534B
330
15227
100
AcDbEntity
  8
HATCH
100
AcDbLine
 10
7890.268793732253
 20
3131.333194070897
 30
0.0
 11
7250.268793732253
 21
2491.333194070897
 31
0.0
  0
LINE
  5
1534C
330
15227
100
AcDbEntity
  8
HATCH
100
AcDbLine
 10
7937.786369427993
 20
3131.333194070897
 30
0.0
 11
7297.786369427995
 21
2491.333194070897
 31
0.0
  0
LINE
  5
1534D
330
15227
100
AcDbEntity
  8
HATCH
100
AcDbLine
 10
7950.982396145206
 20
3097.011645092369
 30
0.0
 11
7345.303945123726
 21
2491.333194070897
 31
0.0
  0
LINE
  5
1534E
330
15227
100
AcDbEntity
  8
KIN
100
AcDbLine
 10
6492.2623961452
 20
2491.333194070897
 30
0.0
 11
6492.2623961452
 21
3019.333194070897
 31
0.0
  0
LINE
  5
1534F
330
15227
100
AcDbEntity
  8
KIN
100
AcDbLine
 10
6761.542396145202
 20
2491.333194070897
 30
0.0
 11
6761.542396145202
 21
3019.333194070897
 31
0.0
  0
LINE
  5
15350
330
15227
100
AcDbEntity
  8
KIN
100
AcDbLine
 10
7030.822396145197
 20
2491.333194070897
 30
0.0
 11
7030.822396145197
 21
3019.333194070897
 31
0.0
  0
LINE
  5
15351
330
15227
100
AcDbEntity
  8
KIN
100
AcDbLine
 10
7300.102396145198
 20
2491.333194070897
 30
0.0
 11
7300.102396145198
 21
3019.333194070897
 31
0.0
  0
LINE
  5
15352
330
15227
100
AcDbEntity
  8
HATCH
100
AcDbLine
 10
6931.233642340792
 20
3131.333194070897
 30
0.0
 11
6291.233642340792
 21
2491.333194070897
 31
0.0
  0
LINE
  5
15353
330
15227
100
AcDbEntity
  8
HATCH
100
AcDbLine
 10
6978.751218036528
 20
3131.333194070897
 30
0.0
 11
6338.751218036532
 21
2491.333194070897
 31
0.0
  0
LINE
  5
15354
330
15227
100
AcDbEntity
  8
HATCH
100
AcDbLine
 10
7022.499971840936
 20
3127.564372179576
 30
0.0
 11
6386.268793732265
 21
2491.333194070897
 31
0.0
  0
LINE
  5
15355
330
15227
100
AcDbEntity
  8
HATCH
100
AcDbLine
 10
7410.751218036523
 20
3131.333194070897
 30
0.0
 11
6770.751218036522
 21
2491.333194070897
 31
0.0
  0
LINE
  5
15356
330
15227
100
AcDbEntity
  8
KIN
100
AcDbLine
 10
6222.982396145201
 20
2491.333194070897
 30
0.0
 11
6222.982396145201
 21
3008.933194070897
 31
0.0
  0
LINE
  5
15357
330
15227
100
AcDbEntity
  8
HATCH
100
AcDbLine
 10
6546.751218036529
 20
3131.333194070899
 30
0.0
 11
6110.9823961452
 21
2695.564372179565
 31
0.0
  0
LINE
  5
15358
330
15227
100
AcDbEntity
  8
HATCH
100
AcDbLine
 10
6499.233642340795
 20
3131.333194070899
 30
0.0
 11
6110.9823961452
 21
2743.081947875297
 31
0.0
  0
LINE
  5
15359
330
15227
100
AcDbEntity
  8
HATCH
100
AcDbLine
 10
6451.716066645056
 20
3131.333194070897
 30
0.0
 11
6110.9823961452
 21
2790.599523571046
 31
0.0
  0
ARC
  5
1535A
330
15227
100
AcDbEntity
  8
KIN
100
AcDbCircle
 10
6233.382396145199
 20
3008.933194070897
 30
0.0
 40
10.4
100
AcDbArc
 50
90.0
 51
180.0
  0
LINE
  5
1535B
330
15227
100
AcDbEntity
  8
KIN
100
AcDbLine
 10
7569.3823961452
 20
2491.333194070897
 30
0.0
 11
7569.3823961452
 21
3019.333194070897
 31
0.0
  0
LINE
  5
1535C
330
15227
100
AcDbEntity
  8
KIN
100
AcDbLine
 10
7838.662396145197
 20
2491.333194070897
 30
0.0
 11
7838.662396145197
 21
3008.933194070897
 31
0.0
  0
LINE
  5
1535D
330
15227
100
AcDbEntity
  8
KIN
100
AcDbLine
 10
7838.982396145201
 20
3008.933194070897
 30
0.0
 11
7838.982396145201
 21
2491.333194070897
 31
0.0
  0
LINE
  5
1535E
330
15227
100
AcDbEntity
  8
1PL-M1
100
AcDbLine
 10
7470.982396145197
 20
3251.333194070898
 30
0.0
 11
7470.982396145197
 21
1731.333194070898
 31
0.0
  0
LINE
  5
1535F
330
15227
100
AcDbEntity
  8
HATCH
100
AcDbLine
 10
7950.982396145206
 20
2617.494069396641
 30
0.0
 11
7824.821520819455
 21
2491.333194070897
 31
0.0
  0
LINE
  5
15360
330
15227
100
AcDbEntity
  8
HATCH
100
AcDbLine
 10
7950.982396145206
 20
2665.011645092374
 30
0.0
 11
7777.303945123723
 21
2491.333194070897
 31
0.0
  0
LINE
  5
15361
330
15227
100
AcDbEntity
  8
HATCH
100
AcDbLine
 10
7950.982396145206
 20
2712.529220788112
 30
0.0
 11
7729.786369427985
 21
2491.333194070897
 31
0.0
  0
ARC
  5
15362
330
15227
100
AcDbEntity
  8
KIN
100
AcDbCircle
 10
7828.582396145201
 20
3008.933194070897
 30
0.0
 40
10.4
100
AcDbArc
 50
0.0
 51
90.0
  0
CIRCLE
  5
15363
330
15227
100
AcDbEntity
  8
KIN
100
AcDbCircle
 10
2420.16357640366
 20
2200.285413258393
 30
0.0
 40
10.4
  0
CIRCLE
  5
15364
330
15227
100
AcDbEntity
  8
KIN
100
AcDbCircle
 10
2689.443576403659
 20
2200.285413258393
 30
0.0
 40
10.4
  0
CIRCLE
  5
15365
330
15227
100
AcDbEntity
  8
KIN
100
AcDbCircle
 10
2958.72357640366
 20
2200.285413258393
 30
0.0
 40
10.4
  0
CIRCLE
  5
15366
330
15227
100
AcDbEntity
  8
KIN
100
AcDbCircle
 10
3228.00357640366
 20
2200.285413258393
 30
0.0
 40
10.4
  0
CIRCLE
  5
15367
330
15227
100
AcDbEntity
  8
KIN
100
AcDbCircle
 10
3497.283576403661
 20
2200.285413258393
 30
0.0
 40
10.4
  0
CIRCLE
  5
15368
330
15227
100
AcDbEntity
  8
KIN
100
AcDbCircle
 10
3766.56357640366
 20
2200.285413258393
 30
0.0
 40
10.4
  0
LINE
  5
15386
330
15227
100
AcDbEntity
  8
SUNPOU
100
AcDbLine
 10
4168.120526150229
 20
3111.885413258399
 30
0.0
 11
4064.197477696096
 21
3111.885413258399
 31
0.0
  0
TEXT
  5
15387
330
15227
100
AcDbEntity
  8
SUNPOU
100
AcDbText
 10
4044.730430494594
 20
3156.885413258397
 30
0.0
 40
90.0
  1
G.L
 41
0.6666666666666666
  7
00
 72
     4
 11
4116.159001923165
 21
3201.885413258397
 31
0.0
100
AcDbText
  0
LINE
  5
15388
330
15227
100
AcDbEntity
  8
SUNPOU
100
AcDbLine
 10
4116.159001923165
 20
3021.885413258399
 30
0.0
 11
4168.120526150229
 21
3111.885413258399
 31
0.0
  0
LINE
  5
15389
330
15227
100
AcDbEntity
  8
SUNPOU
100
AcDbLine
 10
4064.197477696096
 20
3111.885413258399
 30
0.0
 11
4116.159001923165
 21
3021.885413258399
 31
0.0
  0
LINE
  5
1538A
330
15227
100
AcDbEntity
  8
SUNPOU
100
AcDbLine
 10
1523.763098481535
 20
3159.885413258396
 30
0.0
 11
1575.724622708602
 21
3069.885413258396
 31
0.0
  0
LINE
  5
1538B
330
15227
100
AcDbEntity
  8
SUNPOU
100
AcDbLine
 10
1627.686146935667
 20
3159.885413258396
 30
0.0
 11
1523.763098481535
 21
3159.885413258396
 31
0.0
  0
TEXT
  5
1538C
330
15227
100
AcDbEntity
  8
SUNPOU
100
AcDbText
 10
1507.153194137173
 20
3204.885413258395
 30
0.0
 40
90.0
  1
F.L
 41
0.6666666666666666
  7
00
 72
     4
 11
1575.724622708602
 21
3249.885413258395
 31
0.0
100
AcDbText
  0
LINE
  5
1538D
330
15227
100
AcDbEntity
  8
SUNPOU
100
AcDbLine
 10
1575.724622708602
 20
3069.885413258396
 30
0.0
 11
1627.686146935667
 21
3159.885413258396
 31
0.0
  0
LINE
  5
1538E
330
15227
100
AcDbEntity
  8
HIKIDASHI
100
AcDbLine
 10
4180.954574982387
 20
1237.31409672427
 30
0.0
 11
5030.248659654635
 21
1237.31409672427
 31
0.0
  0
CIRCLE
  5
1538F
330
15227
100
AcDbEntity
  8
HIKIDASHI
100
AcDbCircle
 10
4718.105054266566
 20
1327.314096724269
 30
0.0
 40
60.0
  0
TEXT
  5
15390
330
15227
100
AcDbEntity
  8
HIKIDASHI
100
AcDbText
 10
4685.605054266566
 20
1289.814096724269
 30
0.0
 40
75.0
  1
ア
  7
01
 72
     1
 11
4718.105054266566
 21
1327.314096724269
 31
0.0
100
AcDbText
 73
     2
  0
TEXT
  5
15391
330
15227
100
AcDbEntity
  8
HIKIDASHI
100
AcDbText
 10
4210.954574982387
 20
1282.314096724269
 30
0.0
 40
90.0
  1
帯筋
  7
01
100
AcDbText
  0
TEXT
  5
15392
330
15227
100
AcDbEntity
  8
HIKIDASHI
100
AcDbText
 10
4460.218528016175
 20
1282.314096724269
 30
0.0
 40
90.0
  1
9 %%c
 41
0.6700000000000001
  7
00
100
AcDbText
  0
TEXT
  5
15393
330
15227
100
AcDbEntity
  8
HIKIDASHI
100
AcDbText
 10
4836.577231083206
 20
1282.314096724269
 30
0.0
 40
90.0
  1
100
 41
0.6700000000000001
  7
00
100
AcDbText
  0
TEXT
  5
15394
330
15227
100
AcDbEntity
  8
HIKIDASHI
100
AcDbText
 10
4547.134136852667
 20
1487.518112960122
 30
0.0
 40
90.0
  1
4-D13
 41
0.6700000000000001
  7
00
100
AcDbText
  0
TEXT
  5
15395
330
15227
100
AcDbEntity
  8
HIKIDASHI
100
AcDbText
 10
4297.870183818878
 20
1487.518112960122
 30
0.0
 40
90.0
  1
主筋
  7
01
100
AcDbText
  0
LINE
  5
15396
330
15227
100
AcDbEntity
  8
HIKIDASHI
100
AcDbLine
 10
4257.870183818879
 20
1447.518112960122
 30
0.0
 11
4901.985324386036
 21
1447.518112960122
 31
0.0
  0
LINE
  5
15397
330
15227
100
AcDbEntity
  8
HIKIDASHI
100
AcDbLine
 10
2624.760714765906
 20
886.5967710460388
 30
0.0
 11
3552.263852413331
 21
886.5967710460388
 31
0.0
  0
LINE
  5
15398
330
15227
100
AcDbEntity
  8
HIKIDASHI
100
AcDbLine
 10
2624.760714765906
 20
926.5967710460389
 30
0.0
 11
3552.263852413331
 21
926.5967710460389
 31
0.0
  0
TEXT
  5
15399
330
15227
100
AcDbEntity
  8
HIKIDASHI
100
AcDbText
 10
2664.760714765906
 20
986.5967710460388
 30
0.0
 40
120.0
  1
A  ~  A'
 41
0.6700000000000001
  7
00
100
AcDbText
  0
TEXT
  5
1539A
330
15227
100
AcDbEntity
  8
HIKIDASHI
100
AcDbText
 10
3150.117087427985
 20
986.5967710460388
 30
0.0
 40
120.0
  1
断  面
  7
01
100
AcDbText
  0
LINE
  5
1539B
330
15227
100
AcDbEntity
  8
SUNPOU
100
AcDbLine
 10
6222.982396145201
 20
3048.933194070897
 30
0.0
 11
6222.982396145201
 21
3447.711278313302
 31
0.0
  0
LINE
  5
1539C
330
15227
100
AcDbEntity
  8
SUNPOU
100
AcDbLine
 10
7838.982396145201
 20
3048.933194070897
 30
0.0
 11
7838.982396145201
 21
3447.711278313302
 31
0.0
  0
LINE
  5
1539D
330
15227
100
AcDbEntity
  8
SUNPOU
100
AcDbLine
 10
6242.9823961452
 20
3402.7112783133
 30
0.0
 11
7818.982396145201
 21
3402.7112783133
 31
0.0
  0
LINE
  5
1539E
330
15227
100
AcDbEntity
  8
SUNPOU
100
AcDbLine
 10
6193.382396145199
 20
3019.333194070897
 30
0.0
 11
5652.721313588934
 21
3019.333194070897
 31
0.0
  0
LINE
  5
1539F
330
15227
100
AcDbEntity
  8
SUNPOU
100
AcDbLine
 10
6193.382396145199
 20
1963.333194070895
 30
0.0
 11
5652.721313588934
 21
1963.333194070895
 31
0.0
  0
LINE
  5
153A0
330
15227
100
AcDbEntity
  8
SUNPOU
100
AcDbLine
 10
5697.721313588933
 20
2999.333194070898
 30
0.0
 11
5697.721313588933
 21
1983.333194070896
 31
0.0
  0
TEXT
  5
153A1
330
15227
100
AcDbEntity
  8
SUNPOU
100
AcDbText
 10
7126.063498415868
 20
3447.711278313302
 30
0.0
 40
90.0
  1
7-D13
 41
0.6666666666666666
  7
00
 72
     4
 11
7278.920641273012
 21
3492.711278313302
 31
0.0
100
AcDbText
  0
TEXT
  5
153A2
330
15227
100
AcDbEntity
  8
SUNPOU
100
AcDbText
 10
6671.261013232951
 20
3447.711278313302
 30
0.0
 40
90.0
  1
ベース筋
  7
01
 72
     4
 11
6875.261013232952
 21
3492.711278313302
 31
0.0
100
AcDbText
  0
TEXT
  5
153A3
330
15227
100
AcDbEntity
  8
SUNPOU
100
AcDbText
 10
5652.721313588934
 20
2585.331856419735
 30
0.0
 40
90.0
  1
5-D13
 50
90.0
 41
0.6666666666666666
  7
00
 72
     4
 11
5607.721313588934
 21
2738.188999276877
 31
0.0
100
AcDbText
  0
TEXT
  5
153A4
330
15227
100
AcDbEntity
  8
SUNPOU
100
AcDbText
 10
5652.721313588934
 20
2122.69681888427
 30
0.0
 40
90.0
  1
ベース筋
 50
90.0
  7
01
 72
     4
 11
5607.721313588934
 21
2326.69681888427
 31
0.0
100
AcDbText
  0
TEXT
  5
153A5
330
15227
100
AcDbEntity
  8
HIKIDASHI
100
AcDbText
 10
1282.680380784509
 20
1615.89849823215
 30
0.0
 40
90.0
  1
10 %%c x 350
 41
0.6700000000000001
  7
00
100
AcDbText
  0
LINE
  5
153A6
330
15227
100
AcDbEntity
  8
HIKIDASHI
100
AcDbLine
 10
991.7276786742739
 20
1570.89849823215
 30
0.0
 11
1853.456509507222
 21
1570.89849823215
 31
0.0
  0
TEXT
  5
153A7
330
15227
100
AcDbEntity
  8
HIKIDASHI
100
AcDbText
 10
1022.125378438444
 20
1615.89849823215
 30
0.0
 40
90.0
  1
鉄筋
  7
01
100
AcDbText
  0
TEXT
  5
153A8
330
15227
100
AcDbEntity
  8
NAME
100
AcDbText
 10
12536.92663601099
 20
954.9999999999991
 30
0.0
 40
160.0
  1
YOCF
 41
0.7
  7
01
100
AcDbText
  0
TEXT
  5
153A9
330
15227
100
AcDbEntity
  8
NAME
100
AcDbText
 10
11103.68799031879
 20
954.9999999999991
 30
0.0
 40
160.0
  1
ヨド自転車置場      型
  7
01
100
AcDbText
  0
TEXT
  5
153AA
330
15227
100
AcDbEntity
  8
FILENAME
100
AcDbText
 10
13963.90476190475
 20
174.0
 30
0.0
 40
100.0
  1
＜YOCF-240-U_3_JIS_GL.DXF ＞
  7
FILENAME
 72
     2
 11
16382.0
 21
174.0
 31
0.0
100
AcDbText
  0
LINE
  5
153AB
330
15227
100
AcDbEntity
  8
WAKUSEN-01
100
AcDbLine
 10
434.0000000000008
 20
413.9999999999997
 30
0.0
 11
16382.0
 21
413.9999999999997
 31
0.0
  0
LINE
  5
153AC
330
15227
100
AcDbEntity
  8
WAKUSEN-01
100
AcDbLine
 10
434.0000000000008
 20
11242.0
 30
0.0
 11
16382.0
 21
11242.0
 31
0.0
  0
LINE
  5
153AD
330
15227
100
AcDbEntity
  8
WAKUSEN-01
100
AcDbLine
 10
434.0000000000008
 20
413.9999999999997
 30
0.0
 11
434.0000000000008
 21
11242.0
 31
0.0
  0
LINE
  5
153AE
330
15227
100
AcDbEntity
  8
WAKUSEN-01
100
AcDbLine
 10
16382.0
 20
413.9999999999997
 30
0.0
 11
16382.0
 21
11242.0
 31
0.0
  0
LINE
  5
153AF
330
15227
100
AcDbEntity
  8
WAKUSEN-01
100
AcDbLine
 10
10280.0
 20
1242.0
 30
0.0
 11
16382.0
 21
1242.0
 31
0.0
  0
LINE
  5
153B0
330
15227
100
AcDbEntity
  8
WAKUSEN-02
100
AcDbLine
 10
10280.0
 20
827.9999999999997
 30
0.0
 11
13434.0
 21
827.9999999999997
 31
0.0
  0
TEXT
  5
153B1
330
15227
100
AcDbEntity
  8
WAKUMOJI-01
100
AcDbText
 10
10335.13012998137
 20
1062.951504669661
 30
0.0
 40
120.0
  1
名　称
  7
WAKUMOJI
100
AcDbText
  0
TEXT
  5
153B2
330
15227
100
AcDbEntity
  8
WAKUMOJI-01
100
AcDbText
 10
10328.25274254596
 20
659.5644874899107
 30
0.0
 40
120.0
  1
機種名
  7
WAKUMOJI
100
AcDbText
  0
LINE
  5
153B3
330
15227
100
AcDbEntity
  8
WAKUSEN-01
100
AcDbLine
 10
10280.0
 20
413.9999999999985
 30
0.0
 11
10280.0
 21
1242.0
 31
0.0
  0
LINE
  5
153B4
330
15227
100
AcDbEntity
  8
WAKUSEN-02
100
AcDbLine
 10
13434.0
 20
413.9999999999963
 30
0.0
 11
13434.0
 21
1242.0
 31
0.0
  0
LINE
  5
153B5
330
15227
100
AcDbEntity
  8
YODOROGO
100
AcDbLine
 10
14988.80217064596
 20
997.8747482146435
 30
0.0
 11
14914.80217064596
 21
997.8747482146435
 31
0.0
1001
AUTOCAD_POSTSCRIPT_FIGURE
1002
{
1000
PSFILL
1000
Grayscale
1000
Grayscale
1070
    25
1002
}
  0
LINE
  5
153B6
330
15227
100
AcDbEntity
  8
YODOROGO
100
AcDbLine
 10
14914.80217064596
 20
973.8747482146434
 30
0.0
 11
14988.80217064596
 21
973.8747482146434
 31
0.0
1001
AUTOCAD_POSTSCRIPT_FIGURE
1002
{
1000
PSFILL
1000
Grayscale
1000
Grayscale
1070
    25
1002
}
  0
LINE
  5
153B7
330
15227
100
AcDbEntity
  8
YODOROGO
100
AcDbLine
 10
14988.80217064596
 20
953.874748214644
 30
0.0
 11
14914.80217064596
 21
953.874748214644
 31
0.0
1001
AUTOCAD_POSTSCRIPT_FIGURE
1002
{
1000
PSFILL
1000
Grayscale
1000
Grayscale
1070
    25
1002
}
  0
LINE
  5
153B8
330
15227
100
AcDbEntity
  8
YODOROGO
100
AcDbLine
 10
14914.80217064596
 20
929.874748214644
 30
0.0
 11
14988.80217064596
 21
929.874748214644
 31
0.0
1001
AUTOCAD_POSTSCRIPT_FIGURE
1002
{
1000
PSFILL
1000
Grayscale
1000
Grayscale
1070
    25
1002
}
  0
LINE
  5
153B9
330
15227
100
AcDbEntity
  8
YODOROGO
100
AcDbLine
 10
14988.80217064596
 20
909.8747482146439
 30
0.0
 11
14914.80217064596
 21
909.8747482146439
 31
0.0
1001
AUTOCAD_POSTSCRIPT_FIGURE
1002
{
1000
PSFILL
1000
Grayscale
1000
Grayscale
1070
    25
1002
}
  0
LINE
  5
153BA
330
15227
100
AcDbEntity
  8
YODOROGO
100
AcDbLine
 10
14960.80217064594
 20
853.874748214644
 30
0.0
 11
14988.80217064596
 21
853.874748214644
 31
0.0
1001
AUTOCAD_POSTSCRIPT_FIGURE
1002
{
1000
PSFILL
1000
Grayscale
1000
Grayscale
1070
    25
1002
}
  0
LINE
  5
153BB
330
15227
100
AcDbEntity
  8
YODOROGO
100
AcDbLine
 10
14868.80217064596
 20
713.8747482146436
 30
0.0
 11
14968.80217064596
 21
740.6696674577553
 31
0.0
  0
LINE
  5
153BC
330
15227
100
AcDbEntity
  8
YODOROGO
100
AcDbLine
 10
14974.80217064595
 20
853.874748214644
 30
0.0
 11
14942.80217064596
 21
853.874748214644
 31
0.0
  0
ARC
  5
153BD
330
15227
100
AcDbEntity
  8
YODOROGO
100
AcDbCircle
 10
15127.17387491394
 20
903.9323046166312
 30
0.0
 40
190.9434321028236
100
AcDbArc
 50
213.9611167766784
 51
264.4787207431779
  0
ARC
  5
153BE
330
15227
100
AcDbEntity
  8
YODOROGO
100
AcDbCircle
 10
15127.17387491396
 20
903.9323046166513
 30
0.0
 40
190.9434321028408
100
AcDbArc
 50
208.141144204866
 51
212.9210361185994
  0
LINE
  5
153BF
330
15227
100
AcDbEntity
  8
YODOROGO
100
AcDbLine
 10
14885.70493649264
 20
778.403830673117
 30
0.0
 11
14966.89206625426
 21
800.1578565285436
 31
0.0
  0
LINE
  5
153C0
330
15227
100
AcDbEntity
  8
YODOROGO
100
AcDbLine
 10
14868.80217064596
 20
713.8747482146436
 30
0.0
 11
14968.80217064596
 21
740.6696674577553
 31
0.0
  0
LINE
  5
153C1
330
15227
100
AcDbEntity
  8
YODOROGO
100
AcDbLine
 10
14974.80217064595
 20
853.874748214644
 30
0.0
 11
14942.80217064596
 21
853.874748214644
 31
0.0
  0
ARC
  5
153C2
330
15227
100
AcDbEntity
  8
YODOROGO
100
AcDbCircle
 10
15127.17387491394
 20
903.9323046166312
 30
0.0
 40
190.9434321028236
100
AcDbArc
 50
213.9611167766784
 51
264.4787207431779
  0
LINE
  5
153C3
330
15227
100
AcDbEntity
  8
YODOROGO
100
AcDbLine
 10
14396.80217064594
 20
909.8747482146439
 30
0.0
 11
14216.80217064594
 21
909.8747482146439
 31
0.0
  0
LINE
  5
153C4
330
15227
100
AcDbEntity
  8
YODOROGO
100
AcDbLine
 10
14256.80217064594
 20
713.8747482146436
 30
0.0
 11
14396.80217064594
 21
713.8747482146436
 31
0.0
  0
LINE
  5
153C5
330
15227
100
AcDbEntity
  8
YODOROGO
100
AcDbLine
 10
14364.80217064596
 20
961.8747482146432
 30
0.0
 11
14248.80217064594
 21
961.8747482146432
 31
0.0
  0
LINE
  5
153C6
330
15227
100
AcDbEntity
  8
YODOROGO
100
AcDbLine
 10
14292.80217064596
 20
1013.874748214644
 30
0.0
 11
14328.80217064596
 21
1013.874748214644
 31
0.0
  0
LINE
  5
153C7
330
15227
100
AcDbEntity
  8
YODOROGO
100
AcDbLine
 10
14216.80217064594
 20
853.874748214644
 30
0.0
 11
14216.80217064594
 21
753.8747482146439
 31
0.0
  0
LINE
  5
153C8
330
15227
100
AcDbEntity
  8
YODOROGO
100
AcDbLine
 10
14248.80217064594
 20
781.8747482146434
 30
0.0
 11
14248.80217064594
 21
853.874748214644
 31
0.0
  0
LINE
  5
153C9
330
15227
100
AcDbEntity
  8
YODOROGO
100
AcDbLine
 10
14292.80217064596
 20
873.8747482146449
 30
0.0
 11
14292.80217064596
 21
773.874748214644
 31
0.0
  0
LINE
  5
153CA
330
15227
100
AcDbEntity
  8
YODOROGO
100
AcDbLine
 10
13928.80217064596
 20
841.8747482146445
 30
0.0
 11
13888.80217064596
 21
809.9862070222856
 31
0.0
  0
LINE
  5
153CB
330
15227
100
AcDbEntity
  8
YODOROGO
100
AcDbLine
 10
13968.80217064596
 20
809.9862070222856
 30
0.0
 11
13928.80217064596
 21
841.8747482146445
 31
0.0
  0
LINE
  5
153CC
330
15227
100
AcDbEntity
  8
YODOROGO
100
AcDbLine
 10
13928.80217064596
 20
853.874748214644
 30
0.0
 11
13968.80217064596
 21
821.986207022285
 31
0.0
  0
LINE
  5
153CD
330
15227
100
AcDbEntity
  8
YODOROGO
100
AcDbLine
 10
13888.80217064596
 20
821.986207022285
 30
0.0
 11
13928.80217064596
 21
853.874748214644
 31
0.0
  0
LINE
  5
153CE
330
15227
100
AcDbEntity
  8
YODOROGO
100
AcDbLine
 10
14020.45660200844
 20
829.874748214644
 30
0.0
 11
14020.45660200844
 21
841.8747482146434
 31
0.0
  0
LINE
  5
153CF
330
15227
100
AcDbEntity
  8
YODOROGO
100
AcDbLine
 10
13988.80217064596
 20
841.8747482146434
 30
0.0
 11
13988.80217064596
 21
833.8747482146427
 31
0.0
  0
LINE
  5
153D0
330
15227
100
AcDbEntity
  8
YODOROGO
100
AcDbLine
 10
14049.06776011545
 20
853.874748214644
 30
0.0
 11
14049.06776011545
 21
827.751818637328
 31
0.0
1001
AUTOCAD_POSTSCRIPT_FIGURE
1002
{
1000
PSFILL
1000
Grayscale
1000
Grayscale
1070
   100
1002
}
  0
LINE
  5
153D1
330
15227
100
AcDbEntity
  8
YODOROGO
100
AcDbLine
 10
14041.06776011546
 20
827.751818637328
 30
0.0
 11
14041.06776011546
 21
853.874748214644
 31
0.0
1001
AUTOCAD_POSTSCRIPT_FIGURE
1002
{
1000
PSFILL
1000
Grayscale
1000
Grayscale
1070
   100
1002
}
  0
LINE
  5
153D2
330
15227
100
AcDbEntity
  8
YODOROGO
100
AcDbLine
 10
13904.80217064596
 20
804.3859520216292
 30
0.0
 11
13904.80217064596
 21
816.3859520216298
 31
0.0
  0
LINE
  5
153D3
330
15227
100
AcDbEntity
  8
YODOROGO
100
AcDbLine
 10
13952.80217064596
 20
804.3859520216292
 30
0.0
 11
13904.80217064596
 21
804.3859520216292
 31
0.0
  0
LINE
  5
153D4
330
15227
100
AcDbEntity
  8
YODOROGO
100
AcDbLine
 10
13952.80217064596
 20
816.3859520216298
 30
0.0
 11
13952.80217064596
 21
804.3859520216292
 31
0.0
  0
LINE
  5
153D5
330
15227
100
AcDbEntity
  8
YODOROGO
100
AcDbLine
 10
13904.80217064596
 20
816.3859520216298
 30
0.0
 11
13952.80217064596
 21
816.3859520216298
 31
0.0
  0
LINE
  5
153D6
330
15227
100
AcDbEntity
  8
YODOROGO
100
AcDbLine
 10
13912.25479445787
 20
784.2514286852374
 30
0.0
 11
13892.80217064596
 21
737.8747482146435
 31
0.0
1001
AUTOCAD_POSTSCRIPT_FIGURE
1002
{
1000
PSFILL
1000
Grayscale
1000
Grayscale
1070
   100
1002
}
  0
LINE
  5
153D7
330
15227
100
AcDbEntity
  8
YODOROGO
100
AcDbLine
 10
13888.80217064596
 20
784.2514286852374
 30
0.0
 11
13912.25479445787
 21
784.2514286852374
 31
0.0
1001
AUTOCAD_POSTSCRIPT_FIGURE
1002
{
1000
PSFILL
1000
Grayscale
1000
Grayscale
1070
   100
1002
}
  0
LINE
  5
153D8
330
15227
100
AcDbEntity
  8
YODOROGO
100
AcDbLine
 10
13888.80217064596
 20
794.2514286852374
 30
0.0
 11
13888.80217064596
 21
784.2514286852374
 31
0.0
1001
AUTOCAD_POSTSCRIPT_FIGURE
1002
{
1000
PSFILL
1000
Grayscale
1000
Grayscale
1070
   100
1002
}
  0
LINE
  5
153D9
330
15227
100
AcDbEntity
  8
YODOROGO
100
AcDbLine
 10
13968.80217064596
 20
794.2514286852374
 30
0.0
 11
13888.80217064596
 21
794.2514286852374
 31
0.0
1001
AUTOCAD_POSTSCRIPT_FIGURE
1002
{
1000
PSFILL
1000
Grayscale
1000
Grayscale
1070
   100
1002
}
  0
LINE
  5
153DA
330
15227
100
AcDbEntity
  8
YODOROGO
100
AcDbLine
 10
13968.80217064596
 20
784.2514286852374
 30
0.0
 11
13968.80217064596
 21
794.2514286852374
 31
0.0
1001
AUTOCAD_POSTSCRIPT_FIGURE
1002
{
1000
PSFILL
1000
Grayscale
1000
Grayscale
1070
   100
1002
}
  0
LINE
  5
153DB
330
15227
100
AcDbEntity
  8
YODOROGO
100
AcDbLine
 10
13922.25479445786
 20
784.2514286852374
 30
0.0
 11
13968.80217064596
 21
784.2514286852374
 31
0.0
1001
AUTOCAD_POSTSCRIPT_FIGURE
1002
{
1000
PSFILL
1000
Grayscale
1000
Grayscale
1070
   100
1002
}
  0
LINE
  5
153DC
330
15227
100
AcDbEntity
  8
YODOROGO
100
AcDbLine
 10
13907.77335914238
 20
747.8747482146435
 30
0.0
 11
13922.25479445786
 21
784.2514286852374
 31
0.0
1001
AUTOCAD_POSTSCRIPT_FIGURE
1002
{
1000
PSFILL
1000
Grayscale
1000
Grayscale
1070
   100
1002
}
  0
LINE
  5
153DD
330
15227
100
AcDbEntity
  8
YODOROGO
100
AcDbLine
 10
13951.02739540432
 20
747.8747482146435
 30
0.0
 11
13907.77335914238
 21
747.8747482146435
 31
0.0
1001
AUTOCAD_POSTSCRIPT_FIGURE
1002
{
1000
PSFILL
1000
Grayscale
1000
Grayscale
1070
   100
1002
}
  0
LINE
  5
153DE
330
15227
100
AcDbEntity
  8
YODOROGO
100
AcDbLine
 10
13942.53250239547
 20
768.1169053488464
 30
0.0
 11
13951.02739540432
 21
747.8747482146435
 31
0.0
1001
AUTOCAD_POSTSCRIPT_FIGURE
1002
{
1000
PSFILL
1000
Grayscale
1000
Grayscale
1070
   100
1002
}
  0
LINE
  5
153DF
330
15227
100
AcDbEntity
  8
YODOROGO
100
AcDbLine
 10
13950.53250239547
 20
768.1169053488464
 30
0.0
 11
13942.53250239547
 21
768.1169053488464
 31
0.0
1001
AUTOCAD_POSTSCRIPT_FIGURE
1002
{
1000
PSFILL
1000
Grayscale
1000
Grayscale
1070
   100
1002
}
  0
LINE
  5
153E0
330
15227
100
AcDbEntity
  8
YODOROGO
100
AcDbLine
 10
13964.80217064596
 20
737.8747482146435
 30
0.0
 11
13950.53250239547
 21
768.1169053488464
 31
0.0
1001
AUTOCAD_POSTSCRIPT_FIGURE
1002
{
1000
PSFILL
1000
Grayscale
1000
Grayscale
1070
   100
1002
}
  0
LINE
  5
153E1
330
15227
100
AcDbEntity
  8
YODOROGO
100
AcDbLine
 10
13892.80217064596
 20
737.8747482146435
 30
0.0
 11
13964.80217064596
 21
737.8747482146435
 31
0.0
1001
AUTOCAD_POSTSCRIPT_FIGURE
1002
{
1000
PSFILL
1000
Grayscale
1000
Grayscale
1070
   100
1002
}
  0
LINE
  5
153E2
330
15227
100
AcDbEntity
  8
YODOROGO
100
AcDbLine
 10
13888.80217064596
 20
809.9862070222856
 30
0.0
 11
13888.80217064596
 21
821.986207022285
 31
0.0
  0
LINE
  5
153E3
330
15227
100
AcDbEntity
  8
YODOROGO
100
AcDbLine
 10
13968.80217064596
 20
821.986207022285
 30
0.0
 11
13968.80217064596
 21
809.9862070222856
 31
0.0
  0
ARC
  5
153E4
330
15227
100
AcDbEntity
  8
YODOROGO
100
AcDbCircle
 10
14112.97022107348
 20
800.438882662663
 30
0.0
 40
87.99999999999995
100
AcDbArc
 50
280.3644312771313
 51
3.541483659218056
  0
ARC
  5
153E5
330
15227
100
AcDbEntity
  8
YODOROGO
100
AcDbCircle
 10
14117.87801537965
 20
816.798903480952
 30
0.0
 40
55.99999999999914
100
AcDbArc
 50
281.2490582504155
 51
348.7509417495832
  0
LINE
  5
153E6
330
15227
100
AcDbEntity
  8
YODOROGO
100
AcDbLine
 10
14128.80217064596
 20
761.8747482146434
 30
0.0
 11
14128.80217064596
 21
713.8747482146436
 31
0.0
  0
LINE
  5
153E7
330
15227
100
AcDbEntity
  8
YODOROGO
100
AcDbLine
 10
14010.04445186845
 20
805.3252825309574
 30
0.0
 11
14020.45660200844
 21
829.874748214644
 31
0.0
  0
LINE
  5
153E8
330
15227
100
AcDbEntity
  8
YODOROGO
100
AcDbLine
 10
14020.80217064596
 20
791.5602449742006
 30
0.0
 11
14010.04445186845
 21
805.3252825309574
 31
0.0
  0
LINE
  5
153E9
330
15227
100
AcDbEntity
  8
YODOROGO
100
AcDbLine
 10
14020.80217064596
 20
781.5602449741994
 30
0.0
 11
14020.80217064596
 21
791.5602449742006
 31
0.0
  0
LINE
  5
153EA
330
15227
100
AcDbEntity
  8
YODOROGO
100
AcDbLine
 10
14008.80217064596
 20
792.6185318747651
 30
0.0
 11
14020.80217064596
 21
781.5602449741994
 31
0.0
  0
LINE
  5
153EB
330
15227
100
AcDbEntity
  8
YODOROGO
100
AcDbLine
 10
14008.80217064596
 20
737.8747482146435
 30
0.0
 11
14008.80217064596
 21
792.6185318747651
 31
0.0
  0
LINE
  5
153EC
330
15227
100
AcDbEntity
  8
YODOROGO
100
AcDbLine
 10
14000.80217064596
 20
737.8747482146435
 30
0.0
 11
14008.80217064596
 21
737.8747482146435
 31
0.0
  0
LINE
  5
153ED
330
15227
100
AcDbEntity
  8
YODOROGO
100
AcDbLine
 10
14000.80217064596
 20
790.0026748448738
 30
0.0
 11
14000.80217064596
 21
737.8747482146435
 31
0.0
  0
LINE
  5
153EE
330
15227
100
AcDbEntity
  8
YODOROGO
100
AcDbLine
 10
13988.80217064596
 20
766.3840395167142
 30
0.0
 11
14000.80217064596
 21
790.0026748448738
 31
0.0
  0
LINE
  5
153EF
330
15227
100
AcDbEntity
  8
YODOROGO
100
AcDbLine
 10
13988.80217064596
 20
778.3840395167149
 30
0.0
 11
13988.80217064596
 21
766.3840395167142
 31
0.0
  0
LINE
  5
153F0
330
15227
100
AcDbEntity
  8
YODOROGO
100
AcDbLine
 10
14012.91438714567
 20
833.8747482146427
 30
0.0
 11
13988.80217064596
 21
778.3840395167149
 31
0.0
  0
LINE
  5
153F1
330
15227
100
AcDbEntity
  8
YODOROGO
100
AcDbLine
 10
13988.80217064596
 20
833.8747482146427
 30
0.0
 11
14012.91438714567
 21
833.8747482146427
 31
0.0
  0
LINE
  5
153F2
330
15227
100
AcDbEntity
  8
YODOROGO
100
AcDbLine
 10
14025.06776011545
 20
827.751818637328
 30
0.0
 11
14041.06776011546
 21
827.751818637328
 31
0.0
1001
AUTOCAD_POSTSCRIPT_FIGURE
1002
{
1000
PSFILL
1000
Grayscale
1000
Grayscale
1070
   100
1002
}
  0
LINE
  5
153F3
330
15227
100
AcDbEntity
  8
YODOROGO
100
AcDbLine
 10
14025.06776011545
 20
815.7518186373286
 30
0.0
 11
14025.06776011545
 21
827.751818637328
 31
0.0
1001
AUTOCAD_POSTSCRIPT_FIGURE
1002
{
1000
PSFILL
1000
Grayscale
1000
Grayscale
1070
   100
1002
}
  0
LINE
  5
153F4
330
15227
100
AcDbEntity
  8
YODOROGO
100
AcDbLine
 10
14041.06776011546
 20
815.7518186373286
 30
0.0
 11
14025.06776011545
 21
815.7518186373286
 31
0.0
1001
AUTOCAD_POSTSCRIPT_FIGURE
1002
{
1000
PSFILL
1000
Grayscale
1000
Grayscale
1070
   100
1002
}
  0
LINE
  5
153F5
330
15227
100
AcDbEntity
  8
YODOROGO
100
AcDbLine
 10
14041.06776011546
 20
749.8747482146441
 30
0.0
 11
14041.06776011546
 21
815.7518186373286
 31
0.0
1001
AUTOCAD_POSTSCRIPT_FIGURE
1002
{
1000
PSFILL
1000
Grayscale
1000
Grayscale
1070
   100
1002
}
  0
LINE
  5
153F6
330
15227
100
AcDbEntity
  8
YODOROGO
100
AcDbLine
 10
14025.06776011545
 20
749.8747482146441
 30
0.0
 11
14041.06776011546
 21
749.8747482146441
 31
0.0
1001
AUTOCAD_POSTSCRIPT_FIGURE
1002
{
1000
PSFILL
1000
Grayscale
1000
Grayscale
1070
   100
1002
}
  0
LINE
  5
153F7
330
15227
100
AcDbEntity
  8
YODOROGO
100
AcDbLine
 10
14025.06776011545
 20
737.8747482146435
 30
0.0
 11
14025.06776011545
 21
749.8747482146441
 31
0.0
1001
AUTOCAD_POSTSCRIPT_FIGURE
1002
{
1000
PSFILL
1000
Grayscale
1000
Grayscale
1070
   100
1002
}
  0
LINE
  5
153F8
330
15227
100
AcDbEntity
  8
YODOROGO
100
AcDbLine
 10
14068.80217064596
 20
737.8747482146435
 30
0.0
 11
14025.06776011545
 21
737.8747482146435
 31
0.0
1001
AUTOCAD_POSTSCRIPT_FIGURE
1002
{
1000
PSFILL
1000
Grayscale
1000
Grayscale
1070
   100
1002
}
  0
LINE
  5
153F9
330
15227
100
AcDbEntity
  8
YODOROGO
100
AcDbLine
 10
14068.80217064596
 20
749.8747482146441
 30
0.0
 11
14068.80217064596
 21
737.8747482146435
 31
0.0
1001
AUTOCAD_POSTSCRIPT_FIGURE
1002
{
1000
PSFILL
1000
Grayscale
1000
Grayscale
1070
   100
1002
}
  0
LINE
  5
153FA
330
15227
100
AcDbEntity
  8
YODOROGO
100
AcDbLine
 10
14049.06776011545
 20
749.8747482146441
 30
0.0
 11
14068.80217064596
 21
749.8747482146441
 31
0.0
1001
AUTOCAD_POSTSCRIPT_FIGURE
1002
{
1000
PSFILL
1000
Grayscale
1000
Grayscale
1070
   100
1002
}
  0
LINE
  5
153FB
330
15227
100
AcDbEntity
  8
YODOROGO
100
AcDbLine
 10
14049.06776011545
 20
815.7518186373286
 30
0.0
 11
14049.06776011545
 21
749.8747482146441
 31
0.0
1001
AUTOCAD_POSTSCRIPT_FIGURE
1002
{
1000
PSFILL
1000
Grayscale
1000
Grayscale
1070
   100
1002
}
  0
LINE
  5
153FC
330
15227
100
AcDbEntity
  8
YODOROGO
100
AcDbLine
 10
14068.80217064596
 20
815.7518186373286
 30
0.0
 11
14049.06776011545
 21
815.7518186373286
 31
0.0
1001
AUTOCAD_POSTSCRIPT_FIGURE
1002
{
1000
PSFILL
1000
Grayscale
1000
Grayscale
1070
   100
1002
}
  0
LINE
  5
153FD
330
15227
100
AcDbEntity
  8
YODOROGO
100
AcDbLine
 10
14068.80217064596
 20
827.751818637328
 30
0.0
 11
14068.80217064596
 21
815.7518186373286
 31
0.0
1001
AUTOCAD_POSTSCRIPT_FIGURE
1002
{
1000
PSFILL
1000
Grayscale
1000
Grayscale
1070
   100
1002
}
  0
LINE
  5
153FE
330
15227
100
AcDbEntity
  8
YODOROGO
100
AcDbLine
 10
14049.06776011545
 20
827.751818637328
 30
0.0
 11
14068.80217064596
 21
827.751818637328
 31
0.0
1001
AUTOCAD_POSTSCRIPT_FIGURE
1002
{
1000
PSFILL
1000
Grayscale
1000
Grayscale
1070
   100
1002
}
  0
LINE
  5
153FF
330
15227
100
AcDbEntity
  8
YODOROGO
100
AcDbLine
 10
14200.80217064594
 20
833.8747482146439
 30
0.0
 11
14172.80217064596
 21
833.8747482146439
 31
0.0
  0
LINE
  5
15400
330
15227
100
AcDbEntity
  8
YODOROGO
100
AcDbLine
 10
14200.80217064594
 20
805.8747482146443
 30
0.0
 11
14200.80217064594
 21
833.8747482146439
 31
0.0
  0
LINE
  5
15401
330
15227
100
AcDbEntity
  8
YODOROGO
100
AcDbLine
 10
14172.80217064596
 20
833.8747482146439
 30
0.0
 11
14172.80217064596
 21
805.8747482146443
 31
0.0
  0
ARC
  5
15402
330
15227
100
AcDbEntity
  8
YODOROGO
100
AcDbCircle
 10
14256.80217064594
 20
753.8747482146439
 30
0.0
 40
40.0
100
AcDbArc
 50
180.0
 51
270.0
  0
ARC
  5
15403
330
15227
100
AcDbEntity
  8
YODOROGO
100
AcDbCircle
 10
14268.80217064594
 20
781.8747482146434
 30
0.0
 40
20.0
100
AcDbArc
 50
180.0
 51
270.0
  0
LINE
  5
15404
330
15227
100
AcDbEntity
  8
YODOROGO
100
AcDbLine
 10
14280.80217064596
 20
761.8747482146434
 30
0.0
 11
14268.80217064594
 21
761.8747482146434
 31
0.0
  0
ARC
  5
15405
330
15227
100
AcDbEntity
  8
YODOROGO
100
AcDbCircle
 10
14280.80217064596
 20
773.8747482146427
 30
0.0
 40
11.99999999999818
100
AcDbArc
 50
270.0
 51
0.0000000000054281
  0
LINE
  5
15406
330
15227
100
AcDbEntity
  8
YODOROGO
100
AcDbLine
 10
13900.80217064596
 20
945.3932903968532
 30
0.0
 11
13888.80217064596
 21
921.8883739758362
 31
0.0
1001
AUTOCAD_POSTSCRIPT_FIGURE
1002
{
1000
PSFILL
1000
Grayscale
1000
Grayscale
1070
   100
1002
}
  0
LINE
  5
15407
330
15227
100
AcDbEntity
  8
YODOROGO
100
AcDbLine
 10
13900.80217064596
 20
873.8747482146434
 30
0.0
 11
13900.80217064596
 21
945.3932903968532
 31
0.0
1001
AUTOCAD_POSTSCRIPT_FIGURE
1002
{
1000
PSFILL
1000
Grayscale
1000
Grayscale
1070
   100
1002
}
  0
LINE
  5
15408
330
15227
100
AcDbEntity
  8
YODOROGO
100
AcDbLine
 10
13908.80217064596
 20
873.8747482146434
 30
0.0
 11
13900.80217064596
 21
873.8747482146434
 31
0.0
1001
AUTOCAD_POSTSCRIPT_FIGURE
1002
{
1000
PSFILL
1000
Grayscale
1000
Grayscale
1070
   100
1002
}
  0
LINE
  5
15409
330
15227
100
AcDbEntity
  8
YODOROGO
100
AcDbLine
 10
13908.80217064596
 20
946.8856660426332
 30
0.0
 11
13908.80217064596
 21
873.8747482146434
 31
0.0
1001
AUTOCAD_POSTSCRIPT_FIGURE
1002
{
1000
PSFILL
1000
Grayscale
1000
Grayscale
1070
   100
1002
}
  0
LINE
  5
1540A
330
15227
100
AcDbEntity
  8
YODOROGO
100
AcDbLine
 10
13920.80217064596
 20
933.8273791420684
 30
0.0
 11
13908.80217064596
 21
946.8856660426332
 31
0.0
1001
AUTOCAD_POSTSCRIPT_FIGURE
1002
{
1000
PSFILL
1000
Grayscale
1000
Grayscale
1070
   100
1002
}
  0
LINE
  5
1540B
330
15227
100
AcDbEntity
  8
YODOROGO
100
AcDbLine
 10
13920.80217064596
 20
941.8273791420681
 30
0.0
 11
13920.80217064596
 21
933.8273791420684
 31
0.0
1001
AUTOCAD_POSTSCRIPT_FIGURE
1002
{
1000
PSFILL
1000
Grayscale
1000
Grayscale
1070
   100
1002
}
  0
LINE
  5
1540C
330
15227
100
AcDbEntity
  8
YODOROGO
100
AcDbLine
 10
13908.80217064596
 20
958.8856660426325
 30
0.0
 11
13920.80217064596
 21
941.8273791420681
 31
0.0
1001
AUTOCAD_POSTSCRIPT_FIGURE
1002
{
1000
PSFILL
1000
Grayscale
1000
Grayscale
1070
   100
1002
}
  0
LINE
  5
1540D
330
15227
100
AcDbEntity
  8
YODOROGO
100
AcDbLine
 10
13908.80217064596
 20
969.8747482146441
 30
0.0
 11
13908.80217064596
 21
958.8856660426325
 31
0.0
1001
AUTOCAD_POSTSCRIPT_FIGURE
1002
{
1000
PSFILL
1000
Grayscale
1000
Grayscale
1070
   100
1002
}
  0
LINE
  5
1540E
330
15227
100
AcDbEntity
  8
YODOROGO
100
AcDbLine
 10
13944.80217064596
 20
969.8747482146441
 30
0.0
 11
13908.80217064596
 21
969.8747482146441
 31
0.0
1001
AUTOCAD_POSTSCRIPT_FIGURE
1002
{
1000
PSFILL
1000
Grayscale
1000
Grayscale
1070
   100
1002
}
  0
LINE
  5
1540F
330
15227
100
AcDbEntity
  8
YODOROGO
100
AcDbLine
 10
13944.80217064596
 20
950.2841744681497
 30
0.0
 11
13944.80217064596
 21
969.8747482146441
 31
0.0
1001
AUTOCAD_POSTSCRIPT_FIGURE
1002
{
1000
PSFILL
1000
Grayscale
1000
Grayscale
1070
   100
1002
}
  0
LINE
  5
15410
330
15227
100
AcDbEntity
  8
YODOROGO
100
AcDbLine
 10
13928.80217064596
 20
950.2841744681497
 30
0.0
 11
13944.80217064596
 21
950.2841744681497
 31
0.0
1001
AUTOCAD_POSTSCRIPT_FIGURE
1002
{
1000
PSFILL
1000
Grayscale
1000
Grayscale
1070
   100
1002
}
  0
LINE
  5
15411
330
15227
100
AcDbEntity
  8
YODOROGO
100
AcDbLine
 10
13928.80217064596
 20
942.2841744681491
 30
0.0
 11
13928.80217064596
 21
950.2841744681497
 31
0.0
1001
AUTOCAD_POSTSCRIPT_FIGURE
1002
{
1000
PSFILL
1000
Grayscale
1000
Grayscale
1070
   100
1002
}
  0
LINE
  5
15412
330
15227
100
AcDbEntity
  8
YODOROGO
100
AcDbLine
 10
13944.80217064596
 20
942.2841744681491
 30
0.0
 11
13928.80217064596
 21
942.2841744681491
 31
0.0
1001
AUTOCAD_POSTSCRIPT_FIGURE
1002
{
1000
PSFILL
1000
Grayscale
1000
Grayscale
1070
   100
1002
}
  0
LINE
  5
15413
330
15227
100
AcDbEntity
  8
YODOROGO
100
AcDbLine
 10
13944.80217064596
 20
939.8095889822196
 30
0.0
 11
13944.80217064596
 21
942.2841744681491
 31
0.0
1001
AUTOCAD_POSTSCRIPT_FIGURE
1002
{
1000
PSFILL
1000
Grayscale
1000
Grayscale
1070
   100
1002
}
  0
LINE
  5
15414
330
15227
100
AcDbEntity
  8
YODOROGO
100
AcDbLine
 10
13924.80217064596
 20
906.4874905807087
 30
0.0
 11
13944.80217064596
 21
939.8095889822196
 31
0.0
1001
AUTOCAD_POSTSCRIPT_FIGURE
1002
{
1000
PSFILL
1000
Grayscale
1000
Grayscale
1070
   100
1002
}
  0
LINE
  5
15415
330
15227
100
AcDbEntity
  8
YODOROGO
100
AcDbLine
 10
13924.80217064596
 20
898.487490580708
 30
0.0
 11
13924.80217064596
 21
906.4874905807087
 31
0.0
1001
AUTOCAD_POSTSCRIPT_FIGURE
1002
{
1000
PSFILL
1000
Grayscale
1000
Grayscale
1070
   100
1002
}
  0
LINE
  5
15416
330
15227
100
AcDbEntity
  8
YODOROGO
100
AcDbLine
 10
13944.80217064596
 20
923.8095889822183
 30
0.0
 11
13924.80217064596
 21
898.487490580708
 31
0.0
1001
AUTOCAD_POSTSCRIPT_FIGURE
1002
{
1000
PSFILL
1000
Grayscale
1000
Grayscale
1070
   100
1002
}
  0
LINE
  5
15417
330
15227
100
AcDbEntity
  8
YODOROGO
100
AcDbLine
 10
13944.80217064596
 20
873.8747482146434
 30
0.0
 11
13944.80217064596
 21
923.8095889822183
 31
0.0
1001
AUTOCAD_POSTSCRIPT_FIGURE
1002
{
1000
PSFILL
1000
Grayscale
1000
Grayscale
1070
   100
1002
}
  0
LINE
  5
15418
330
15227
100
AcDbEntity
  8
YODOROGO
100
AcDbLine
 10
13952.80217064596
 20
873.8747482146434
 30
0.0
 11
13944.80217064596
 21
873.8747482146434
 31
0.0
1001
AUTOCAD_POSTSCRIPT_FIGURE
1002
{
1000
PSFILL
1000
Grayscale
1000
Grayscale
1070
   100
1002
}
  0
LINE
  5
15419
330
15227
100
AcDbEntity
  8
YODOROGO
100
AcDbLine
 10
13952.80217064596
 20
924.7045060794032
 30
0.0
 11
13952.80217064596
 21
873.8747482146434
 31
0.0
1001
AUTOCAD_POSTSCRIPT_FIGURE
1002
{
1000
PSFILL
1000
Grayscale
1000
Grayscale
1070
   100
1002
}
  0
LINE
  5
1541A
330
15227
100
AcDbEntity
  8
YODOROGO
100
AcDbLine
 10
13968.80217064596
 20
898.487490580708
 30
0.0
 11
13952.80217064596
 21
924.7045060794032
 31
0.0
1001
AUTOCAD_POSTSCRIPT_FIGURE
1002
{
1000
PSFILL
1000
Grayscale
1000
Grayscale
1070
   100
1002
}
  0
LINE
  5
1541B
330
15227
100
AcDbEntity
  8
YODOROGO
100
AcDbLine
 10
13968.80217064596
 20
906.4874905807087
 30
0.0
 11
13968.80217064596
 21
898.487490580708
 31
0.0
1001
AUTOCAD_POSTSCRIPT_FIGURE
1002
{
1000
PSFILL
1000
Grayscale
1000
Grayscale
1070
   100
1002
}
  0
LINE
  5
1541C
330
15227
100
AcDbEntity
  8
YODOROGO
100
AcDbLine
 10
13952.80217064596
 20
940.7045060794041
 30
0.0
 11
13968.80217064596
 21
906.4874905807087
 31
0.0
1001
AUTOCAD_POSTSCRIPT_FIGURE
1002
{
1000
PSFILL
1000
Grayscale
1000
Grayscale
1070
   100
1002
}
  0
LINE
  5
1541D
330
15227
100
AcDbEntity
  8
YODOROGO
100
AcDbLine
 10
13952.80217064596
 20
942.2841744681502
 30
0.0
 11
13952.80217064596
 21
940.7045060794041
 31
0.0
1001
AUTOCAD_POSTSCRIPT_FIGURE
1002
{
1000
PSFILL
1000
Grayscale
1000
Grayscale
1070
   100
1002
}
  0
LINE
  5
1541E
330
15227
100
AcDbEntity
  8
YODOROGO
100
AcDbLine
 10
13968.80217064596
 20
942.2841744681491
 30
0.0
 11
13952.80217064596
 21
942.2841744681502
 31
0.0
1001
AUTOCAD_POSTSCRIPT_FIGURE
1002
{
1000
PSFILL
1000
Grayscale
1000
Grayscale
1070
   100
1002
}
  0
LINE
  5
1541F
330
15227
100
AcDbEntity
  8
YODOROGO
100
AcDbLine
 10
13968.80217064596
 20
950.2841744681497
 30
0.0
 11
13968.80217064596
 21
942.2841744681491
 31
0.0
1001
AUTOCAD_POSTSCRIPT_FIGURE
1002
{
1000
PSFILL
1000
Grayscale
1000
Grayscale
1070
   100
1002
}
  0
LINE
  5
15420
330
15227
100
AcDbEntity
  8
YODOROGO
100
AcDbLine
 10
13952.80217064596
 20
950.2841744681497
 30
0.0
 11
13968.80217064596
 21
950.2841744681497
 31
0.0
1001
AUTOCAD_POSTSCRIPT_FIGURE
1002
{
1000
PSFILL
1000
Grayscale
1000
Grayscale
1070
   100
1002
}
  0
LINE
  5
15421
330
15227
100
AcDbEntity
  8
YODOROGO
100
AcDbLine
 10
13952.80217064596
 20
969.8747482146441
 30
0.0
 11
13952.80217064596
 21
950.2841744681497
 31
0.0
1001
AUTOCAD_POSTSCRIPT_FIGURE
1002
{
1000
PSFILL
1000
Grayscale
1000
Grayscale
1070
   100
1002
}
  0
LINE
  5
15422
330
15227
100
AcDbEntity
  8
YODOROGO
100
AcDbLine
 10
13968.80217064596
 20
969.8747482146441
 30
0.0
 11
13952.80217064596
 21
969.8747482146441
 31
0.0
1001
AUTOCAD_POSTSCRIPT_FIGURE
1002
{
1000
PSFILL
1000
Grayscale
1000
Grayscale
1070
   100
1002
}
  0
LINE
  5
15423
330
15227
100
AcDbEntity
  8
YODOROGO
100
AcDbLine
 10
13968.80217064596
 20
977.8747482146435
 30
0.0
 11
13968.80217064596
 21
969.8747482146441
 31
0.0
1001
AUTOCAD_POSTSCRIPT_FIGURE
1002
{
1000
PSFILL
1000
Grayscale
1000
Grayscale
1070
   100
1002
}
  0
LINE
  5
15424
330
15227
100
AcDbEntity
  8
YODOROGO
100
AcDbLine
 10
13952.80217064596
 20
977.8747482146435
 30
0.0
 11
13968.80217064596
 21
977.8747482146435
 31
0.0
1001
AUTOCAD_POSTSCRIPT_FIGURE
1002
{
1000
PSFILL
1000
Grayscale
1000
Grayscale
1070
   100
1002
}
  0
LINE
  5
15425
330
15227
100
AcDbEntity
  8
YODOROGO
100
AcDbLine
 10
13952.80217064596
 20
989.8747482146442
 30
0.0
 11
13952.80217064596
 21
977.8747482146435
 31
0.0
1001
AUTOCAD_POSTSCRIPT_FIGURE
1002
{
1000
PSFILL
1000
Grayscale
1000
Grayscale
1070
   100
1002
}
  0
LINE
  5
15426
330
15227
100
AcDbEntity
  8
YODOROGO
100
AcDbLine
 10
13944.80217064596
 20
989.8747482146442
 30
0.0
 11
13952.80217064596
 21
989.8747482146442
 31
0.0
1001
AUTOCAD_POSTSCRIPT_FIGURE
1002
{
1000
PSFILL
1000
Grayscale
1000
Grayscale
1070
   100
1002
}
  0
LINE
  5
15427
330
15227
100
AcDbEntity
  8
YODOROGO
100
AcDbLine
 10
13944.80217064596
 20
977.8747482146435
 30
0.0
 11
13944.80217064596
 21
989.8747482146442
 31
0.0
1001
AUTOCAD_POSTSCRIPT_FIGURE
1002
{
1000
PSFILL
1000
Grayscale
1000
Grayscale
1070
   100
1002
}
  0
LINE
  5
15428
330
15227
100
AcDbEntity
  8
YODOROGO
100
AcDbLine
 10
13932.80217064596
 20
977.8747482146435
 30
0.0
 11
13944.80217064596
 21
977.8747482146435
 31
0.0
1001
AUTOCAD_POSTSCRIPT_FIGURE
1002
{
1000
PSFILL
1000
Grayscale
1000
Grayscale
1070
   100
1002
}
  0
LINE
  5
15429
330
15227
100
AcDbEntity
  8
YODOROGO
100
AcDbLine
 10
13932.80217064596
 20
989.8747482146442
 30
0.0
 11
13932.80217064596
 21
977.8747482146435
 31
0.0
1001
AUTOCAD_POSTSCRIPT_FIGURE
1002
{
1000
PSFILL
1000
Grayscale
1000
Grayscale
1070
   100
1002
}
  0
LINE
  5
1542A
330
15227
100
AcDbEntity
  8
YODOROGO
100
AcDbLine
 10
13924.80217064596
 20
989.8747482146442
 30
0.0
 11
13932.80217064596
 21
989.8747482146442
 31
0.0
1001
AUTOCAD_POSTSCRIPT_FIGURE
1002
{
1000
PSFILL
1000
Grayscale
1000
Grayscale
1070
   100
1002
}
  0
LINE
  5
1542B
330
15227
100
AcDbEntity
  8
YODOROGO
100
AcDbLine
 10
13924.80217064596
 20
977.8747482146435
 30
0.0
 11
13924.80217064596
 21
989.8747482146442
 31
0.0
1001
AUTOCAD_POSTSCRIPT_FIGURE
1002
{
1000
PSFILL
1000
Grayscale
1000
Grayscale
1070
   100
1002
}
  0
LINE
  5
1542C
330
15227
100
AcDbEntity
  8
YODOROGO
100
AcDbLine
 10
13908.80217064596
 20
977.8747482146435
 30
0.0
 11
13924.80217064596
 21
977.8747482146435
 31
0.0
1001
AUTOCAD_POSTSCRIPT_FIGURE
1002
{
1000
PSFILL
1000
Grayscale
1000
Grayscale
1070
   100
1002
}
  0
LINE
  5
1542D
330
15227
100
AcDbEntity
  8
YODOROGO
100
AcDbLine
 10
13908.80217064596
 20
989.8747482146442
 30
0.0
 11
13908.80217064596
 21
977.8747482146435
 31
0.0
1001
AUTOCAD_POSTSCRIPT_FIGURE
1002
{
1000
PSFILL
1000
Grayscale
1000
Grayscale
1070
   100
1002
}
  0
LINE
  5
1542E
330
15227
100
AcDbEntity
  8
YODOROGO
100
AcDbLine
 10
13900.80217064596
 20
989.8747482146442
 30
0.0
 11
13908.80217064596
 21
989.8747482146442
 31
0.0
1001
AUTOCAD_POSTSCRIPT_FIGURE
1002
{
1000
PSFILL
1000
Grayscale
1000
Grayscale
1070
   100
1002
}
  0
LINE
  5
1542F
330
15227
100
AcDbEntity
  8
YODOROGO
100
AcDbLine
 10
13900.80217064596
 20
977.8747482146435
 30
0.0
 11
13900.80217064596
 21
989.8747482146442
 31
0.0
1001
AUTOCAD_POSTSCRIPT_FIGURE
1002
{
1000
PSFILL
1000
Grayscale
1000
Grayscale
1070
   100
1002
}
  0
LINE
  5
15430
330
15227
100
AcDbEntity
  8
YODOROGO
100
AcDbLine
 10
13888.80217064596
 20
977.8747482146435
 30
0.0
 11
13900.80217064596
 21
977.8747482146435
 31
0.0
1001
AUTOCAD_POSTSCRIPT_FIGURE
1002
{
1000
PSFILL
1000
Grayscale
1000
Grayscale
1070
   100
1002
}
  0
LINE
  5
15431
330
15227
100
AcDbEntity
  8
YODOROGO
100
AcDbLine
 10
13888.80217064596
 20
969.8747482146441
 30
0.0
 11
13888.80217064596
 21
977.8747482146435
 31
0.0
1001
AUTOCAD_POSTSCRIPT_FIGURE
1002
{
1000
PSFILL
1000
Grayscale
1000
Grayscale
1070
   100
1002
}
  0
LINE
  5
15432
330
15227
100
AcDbEntity
  8
YODOROGO
100
AcDbLine
 10
13900.80217064596
 20
969.8747482146441
 30
0.0
 11
13888.80217064596
 21
969.8747482146441
 31
0.0
1001
AUTOCAD_POSTSCRIPT_FIGURE
1002
{
1000
PSFILL
1000
Grayscale
1000
Grayscale
1070
   100
1002
}
  0
LINE
  5
15433
330
15227
100
AcDbEntity
  8
YODOROGO
100
AcDbLine
 10
13900.80217064596
 20
957.3932903968525
 30
0.0
 11
13900.80217064596
 21
969.8747482146441
 31
0.0
1001
AUTOCAD_POSTSCRIPT_FIGURE
1002
{
1000
PSFILL
1000
Grayscale
1000
Grayscale
1070
   100
1002
}
  0
LINE
  5
15434
330
15227
100
AcDbEntity
  8
YODOROGO
100
AcDbLine
 10
13888.80217064596
 20
929.8883739758355
 30
0.0
 11
13900.80217064596
 21
957.3932903968525
 31
0.0
1001
AUTOCAD_POSTSCRIPT_FIGURE
1002
{
1000
PSFILL
1000
Grayscale
1000
Grayscale
1070
   100
1002
}
  0
LINE
  5
15435
330
15227
100
AcDbEntity
  8
YODOROGO
100
AcDbLine
 10
13888.80217064596
 20
921.8883739758362
 30
0.0
 11
13888.80217064596
 21
929.8883739758355
 31
0.0
1001
AUTOCAD_POSTSCRIPT_FIGURE
1002
{
1000
PSFILL
1000
Grayscale
1000
Grayscale
1070
   100
1002
}
  0
LINE
  5
15436
330
15227
100
AcDbEntity
  8
YODOROGO
100
AcDbLine
 10
14128.80217064596
 20
933.8747482146439
 30
0.0
 11
14200.80217064594
 21
912.4388128201532
 31
0.0
1001
AUTOCAD_POSTSCRIPT_FIGURE
1002
{
1000
PSFILL
1000
Grayscale
1000
Grayscale
1070
   100
1002
}
  0
LINE
  5
15437
330
15227
100
AcDbEntity
  8
YODOROGO
100
AcDbLine
 10
14200.80217064594
 20
876.4388128201531
 30
0.0
 11
14128.80217064596
 21
897.8747482146435
 31
0.0
1001
AUTOCAD_POSTSCRIPT_FIGURE
1002
{
1000
PSFILL
1000
Grayscale
1000
Grayscale
1070
   100
1002
}
  0
LINE
  5
15438
330
15227
100
AcDbEntity
  8
YODOROGO
100
AcDbLine
 10
14200.80217064594
 20
992.4388128201531
 30
0.0
 11
14128.80217064596
 21
1013.874748214644
 31
0.0
1001
AUTOCAD_POSTSCRIPT_FIGURE
1002
{
1000
PSFILL
1000
Grayscale
1000
Grayscale
1070
   100
1002
}
  0
LINE
  5
15439
330
15227
100
AcDbEntity
  8
YODOROGO
100
AcDbLine
 10
14128.80217064596
 20
979.874748214644
 30
0.0
 11
14200.80217064594
 21
958.4388128201537
 31
0.0
1001
AUTOCAD_POSTSCRIPT_FIGURE
1002
{
1000
PSFILL
1000
Grayscale
1000
Grayscale
1070
   100
1002
}
  0
LINE
  5
1543A
330
15227
100
AcDbEntity
  8
YODOROGO
100
AcDbLine
 10
14128.80217064596
 20
897.8747482146435
 30
0.0
 11
14128.80217064596
 21
933.8747482146439
 31
0.0
1001
AUTOCAD_POSTSCRIPT_FIGURE
1002
{
1000
PSFILL
1000
Grayscale
1000
Grayscale
1070
   100
1002
}
  0
LINE
  5
1543B
330
15227
100
AcDbEntity
  8
YODOROGO
100
AcDbLine
 10
14128.80217064596
 20
1013.874748214644
 30
0.0
 11
14128.80217064596
 21
979.874748214644
 31
0.0
1001
AUTOCAD_POSTSCRIPT_FIGURE
1002
{
1000
PSFILL
1000
Grayscale
1000
Grayscale
1070
   100
1002
}
  0
LINE
  5
1543C
330
15227
100
AcDbEntity
  8
YODOROGO
100
AcDbLine
 10
14040.11816010337
 20
969.8747482146441
 30
0.0
 11
14064.80217064595
 21
873.8747482146434
 31
0.0
1001
AUTOCAD_POSTSCRIPT_FIGURE
1002
{
1000
PSFILL
1000
Grayscale
1000
Grayscale
1070
   100
1002
}
  0
LINE
  5
1543D
330
15227
100
AcDbEntity
  8
YODOROGO
100
AcDbLine
 10
13988.80217064596
 20
969.8747482146441
 30
0.0
 11
14040.11816010337
 21
969.8747482146441
 31
0.0
1001
AUTOCAD_POSTSCRIPT_FIGURE
1002
{
1000
PSFILL
1000
Grayscale
1000
Grayscale
1070
   100
1002
}
  0
LINE
  5
1543E
330
15227
100
AcDbEntity
  8
YODOROGO
100
AcDbLine
 10
13988.80217064596
 20
977.8747482146435
 30
0.0
 11
13988.80217064596
 21
969.8747482146441
 31
0.0
1001
AUTOCAD_POSTSCRIPT_FIGURE
1002
{
1000
PSFILL
1000
Grayscale
1000
Grayscale
1070
   100
1002
}
  0
LINE
  5
1543F
330
15227
100
AcDbEntity
  8
YODOROGO
100
AcDbLine
 10
14038.30343925995
 20
977.8747482146435
 30
0.0
 11
13988.80217064596
 21
977.8747482146435
 31
0.0
1001
AUTOCAD_POSTSCRIPT_FIGURE
1002
{
1000
PSFILL
1000
Grayscale
1000
Grayscale
1070
   100
1002
}
  0
LINE
  5
15440
330
15227
100
AcDbEntity
  8
YODOROGO
100
AcDbLine
 10
14035.58135799485
 20
989.8747482146442
 30
0.0
 11
14038.30343925995
 21
977.8747482146435
 31
0.0
1001
AUTOCAD_POSTSCRIPT_FIGURE
1002
{
1000
PSFILL
1000
Grayscale
1000
Grayscale
1070
   100
1002
}
  0
LINE
  5
15441
330
15227
100
AcDbEntity
  8
YODOROGO
100
AcDbLine
 10
14045.58135799485
 20
989.8747482146442
 30
0.0
 11
14035.58135799485
 21
989.8747482146442
 31
0.0
1001
AUTOCAD_POSTSCRIPT_FIGURE
1002
{
1000
PSFILL
1000
Grayscale
1000
Grayscale
1070
   100
1002
}
  0
LINE
  5
15442
330
15227
100
AcDbEntity
  8
YODOROGO
100
AcDbLine
 10
14047.90343925997
 20
977.8747482146435
 30
0.0
 11
14045.58135799485
 21
989.8747482146442
 31
0.0
1001
AUTOCAD_POSTSCRIPT_FIGURE
1002
{
1000
PSFILL
1000
Grayscale
1000
Grayscale
1070
   100
1002
}
  0
LINE
  5
15443
330
15227
100
AcDbEntity
  8
YODOROGO
100
AcDbLine
 10
14060.80217064596
 20
977.8747482146435
 30
0.0
 11
14047.90343925997
 21
977.8747482146435
 31
0.0
1001
AUTOCAD_POSTSCRIPT_FIGURE
1002
{
1000
PSFILL
1000
Grayscale
1000
Grayscale
1070
   100
1002
}
  0
LINE
  5
15444
330
15227
100
AcDbEntity
  8
YODOROGO
100
AcDbLine
 10
14060.80217064596
 20
989.8747482146442
 30
0.0
 11
14060.80217064596
 21
977.8747482146435
 31
0.0
1001
AUTOCAD_POSTSCRIPT_FIGURE
1002
{
1000
PSFILL
1000
Grayscale
1000
Grayscale
1070
   100
1002
}
  0
LINE
  5
15445
330
15227
100
AcDbEntity
  8
YODOROGO
100
AcDbLine
 10
14068.80217064596
 20
989.8747482146442
 30
0.0
 11
14060.80217064596
 21
989.8747482146442
 31
0.0
1001
AUTOCAD_POSTSCRIPT_FIGURE
1002
{
1000
PSFILL
1000
Grayscale
1000
Grayscale
1070
   100
1002
}
  0
LINE
  5
15446
330
15227
100
AcDbEntity
  8
YODOROGO
100
AcDbLine
 10
14068.80217064596
 20
977.8747482146435
 30
0.0
 11
14068.80217064596
 21
989.8747482146442
 31
0.0
1001
AUTOCAD_POSTSCRIPT_FIGURE
1002
{
1000
PSFILL
1000
Grayscale
1000
Grayscale
1070
   100
1002
}
  0
LINE
  5
15447
330
15227
100
AcDbEntity
  8
YODOROGO
100
AcDbLine
 10
14068.80217064596
 20
969.8747482146441
 30
0.0
 11
14068.80217064596
 21
977.8747482146435
 31
0.0
1001
AUTOCAD_POSTSCRIPT_FIGURE
1002
{
1000
PSFILL
1000
Grayscale
1000
Grayscale
1070
   100
1002
}
  0
LINE
  5
15448
330
15227
100
AcDbEntity
  8
YODOROGO
100
AcDbLine
 10
14049.45149343671
 20
969.8747482146441
 30
0.0
 11
14068.80217064596
 21
969.8747482146441
 31
0.0
1001
AUTOCAD_POSTSCRIPT_FIGURE
1002
{
1000
PSFILL
1000
Grayscale
1000
Grayscale
1070
   100
1002
}
  0
LINE
  5
15449
330
15227
100
AcDbEntity
  8
YODOROGO
100
AcDbLine
 10
14068.80217064596
 20
873.8747482146434
 30
0.0
 11
14049.45149343671
 21
969.8747482146441
 31
0.0
1001
AUTOCAD_POSTSCRIPT_FIGURE
1002
{
1000
PSFILL
1000
Grayscale
1000
Grayscale
1070
   100
1002
}
  0
LINE
  5
1544A
330
15227
100
AcDbEntity
  8
YODOROGO
100
AcDbLine
 10
14064.80217064595
 20
873.8747482146434
 30
0.0
 11
14068.80217064596
 21
873.8747482146434
 31
0.0
1001
AUTOCAD_POSTSCRIPT_FIGURE
1002
{
1000
PSFILL
1000
Grayscale
1000
Grayscale
1070
   100
1002
}
  0
LINE
  5
1544B
330
15227
100
AcDbEntity
  8
YODOROGO
100
AcDbLine
 10
14039.03460996689
 20
887.8703881493972
 30
0.0
 11
13988.80217064596
 21
873.8747482146434
 31
0.0
  0
LINE
  5
1544C
330
15227
100
AcDbEntity
  8
YODOROGO
100
AcDbLine
 10
14039.03460996689
 20
899.3344897645364
 30
0.0
 11
14039.03460996689
 21
887.8703881493972
 31
0.0
  0
LINE
  5
1544D
330
15227
100
AcDbEntity
  8
YODOROGO
100
AcDbLine
 10
14016.91839030643
 20
893.4084665668834
 30
0.0
 11
14039.03460996689
 21
899.3344897645364
 31
0.0
  0
LINE
  5
1544E
330
15227
100
AcDbEntity
  8
YODOROGO
100
AcDbLine
 10
14016.91839030643
 20
936.2841744681499
 30
0.0
 11
14016.91839030643
 21
893.4084665668834
 31
0.0
  0
LINE
  5
1544F
330
15227
100
AcDbEntity
  8
YODOROGO
100
AcDbLine
 10
14039.03460996689
 20
936.2841744681499
 30
0.0
 11
14016.91839030643
 21
936.2841744681499
 31
0.0
  0
LINE
  5
15450
330
15227
100
AcDbEntity
  8
YODOROGO
100
AcDbLine
 10
14039.03460996689
 20
946.2841744681487
 30
0.0
 11
14039.03460996689
 21
936.2841744681499
 31
0.0
  0
LINE
  5
15451
330
15227
100
AcDbEntity
  8
YODOROGO
100
AcDbLine
 10
13988.80217064596
 20
946.2841744681487
 30
0.0
 11
14039.03460996689
 21
946.2841744681487
 31
0.0
  0
LINE
  5
15452
330
15227
100
AcDbEntity
  8
YODOROGO
100
AcDbLine
 10
13988.80217064596
 20
936.2841744681499
 30
0.0
 11
13988.80217064596
 21
946.2841744681487
 31
0.0
  0
LINE
  5
15453
330
15227
100
AcDbEntity
  8
YODOROGO
100
AcDbLine
 10
14010.91839030643
 20
936.2841744681499
 30
0.0
 11
13988.80217064596
 21
936.2841744681499
 31
0.0
  0
LINE
  5
15454
330
15227
100
AcDbEntity
  8
YODOROGO
100
AcDbLine
 10
14010.91839030643
 20
892.3366697971587
 30
0.0
 11
14010.91839030643
 21
936.2841744681499
 31
0.0
  0
LINE
  5
15455
330
15227
100
AcDbEntity
  8
YODOROGO
100
AcDbLine
 10
13988.80217064596
 20
885.8747482146432
 30
0.0
 11
14010.91839030643
 21
892.3366697971587
 31
0.0
  0
LINE
  5
15456
330
15227
100
AcDbEntity
  8
YODOROGO
100
AcDbLine
 10
13988.80217064596
 20
873.8747482146434
 30
0.0
 11
13988.80217064596
 21
885.8747482146432
 31
0.0
  0
LINE
  5
15457
330
15227
100
AcDbEntity
  8
YODOROGO
100
AcDbLine
 10
14000.80217064596
 20
853.874748214644
 30
0.0
 11
14000.80217064596
 21
841.8747482146434
 31
0.0
  0
LINE
  5
15458
330
15227
100
AcDbEntity
  8
YODOROGO
100
AcDbLine
 10
14000.80217064596
 20
853.874748214644
 30
0.0
 11
14000.80217064596
 21
853.874748214644
 31
0.0
  0
LINE
  5
15459
330
15227
100
AcDbEntity
  8
YODOROGO
100
AcDbLine
 10
14008.80217064596
 20
853.874748214644
 30
0.0
 11
14000.80217064596
 21
853.874748214644
 31
0.0
  0
LINE
  5
1545A
330
15227
100
AcDbEntity
  8
YODOROGO
100
AcDbLine
 10
14008.80217064596
 20
841.8747482146434
 30
0.0
 11
14008.80217064596
 21
853.874748214644
 31
0.0
  0
LINE
  5
1545B
330
15227
100
AcDbEntity
  8
YODOROGO
100
AcDbLine
 10
14020.45660200844
 20
841.8747482146434
 30
0.0
 11
14008.80217064596
 21
841.8747482146434
 31
0.0
  0
LINE
  5
1545C
330
15227
100
AcDbEntity
  8
YODOROGO
100
AcDbLine
 10
14000.80217064596
 20
841.8747482146434
 30
0.0
 11
13988.80217064596
 21
841.8747482146434
 31
0.0
  0
LINE
  5
1545D
330
15227
100
AcDbEntity
  8
YODOROGO
100
AcDbLine
 10
14041.06776011546
 20
853.874748214644
 30
0.0
 11
14049.06776011545
 21
853.874748214644
 31
0.0
1001
AUTOCAD_POSTSCRIPT_FIGURE
1002
{
1000
PSFILL
1000
Grayscale
1000
Grayscale
1070
   100
1002
}
  0
LINE
  5
1545E
330
15227
100
AcDbEntity
  8
YODOROGO
100
AcDbLine
 10
14200.80217064594
 20
912.4388128201532
 30
0.0
 11
14200.80217064594
 21
876.4388128201531
 31
0.0
1001
AUTOCAD_POSTSCRIPT_FIGURE
1002
{
1000
PSFILL
1000
Grayscale
1000
Grayscale
1070
   100
1002
}
  0
LINE
  5
1545F
330
15227
100
AcDbEntity
  8
YODOROGO
100
AcDbLine
 10
14200.80217064594
 20
958.4388128201537
 30
0.0
 11
14200.80217064594
 21
992.4388128201531
 31
0.0
1001
AUTOCAD_POSTSCRIPT_FIGURE
1002
{
1000
PSFILL
1000
Grayscale
1000
Grayscale
1070
   100
1002
}
  0
LINE
  5
15460
330
15227
100
AcDbEntity
  8
YODOROGO
100
AcDbLine
 10
14216.80217064594
 20
909.8747482146439
 30
0.0
 11
14216.80217064594
 21
873.8747482146449
 31
0.0
  0
LINE
  5
15461
330
15227
100
AcDbEntity
  8
YODOROGO
100
AcDbLine
 10
14248.80217064594
 20
853.874748214644
 30
0.0
 11
14216.80217064594
 21
853.874748214644
 31
0.0
  0
LINE
  5
15462
330
15227
100
AcDbEntity
  8
YODOROGO
100
AcDbLine
 10
14216.80217064594
 20
873.8747482146449
 30
0.0
 11
14292.80217064596
 21
873.8747482146449
 31
0.0
  0
LINE
  5
15463
330
15227
100
AcDbEntity
  8
YODOROGO
100
AcDbLine
 10
14248.80217064594
 20
933.8747482146439
 30
0.0
 11
14216.80217064594
 21
933.8747482146439
 31
0.0
  0
LINE
  5
15464
330
15227
100
AcDbEntity
  8
YODOROGO
100
AcDbLine
 10
14248.80217064594
 20
961.8747482146432
 30
0.0
 11
14248.80217064594
 21
933.8747482146439
 31
0.0
  0
LINE
  5
15465
330
15227
100
AcDbEntity
  8
YODOROGO
100
AcDbLine
 10
14292.80217064596
 20
993.8747482146439
 30
0.0
 11
14292.80217064596
 21
1013.874748214644
 31
0.0
  0
LINE
  5
15466
330
15227
100
AcDbEntity
  8
YODOROGO
100
AcDbLine
 10
14216.80217064594
 20
993.8747482146439
 30
0.0
 11
14292.80217064596
 21
993.8747482146439
 31
0.0
  0
LINE
  5
15467
330
15227
100
AcDbEntity
  8
YODOROGO
100
AcDbLine
 10
14216.80217064594
 20
933.8747482146439
 30
0.0
 11
14216.80217064594
 21
993.8747482146439
 31
0.0
  0
LINE
  5
15468
330
15227
100
AcDbEntity
  8
YODOROGO
100
AcDbLine
 10
14500.80217064594
 20
1013.874748214644
 30
0.0
 11
14500.80217064594
 21
809.8747482146441
 31
0.0
  0
LINE
  5
15469
330
15227
100
AcDbEntity
  8
YODOROGO
100
AcDbLine
 10
14536.80217064596
 20
789.8747482146441
 30
0.0
 11
14536.80217064596
 21
1013.874748214644
 31
0.0
  0
LINE
  5
1546A
330
15227
100
AcDbEntity
  8
YODOROGO
100
AcDbLine
 10
14630.80217064596
 20
745.8747482146431
 30
0.0
 11
14630.80217064596
 21
1003.874748214644
 31
0.0
  0
LINE
  5
1546B
330
15227
100
AcDbEntity
  8
YODOROGO
100
AcDbLine
 10
14598.80217064596
 20
1003.874748214644
 30
0.0
 11
14598.80217064596
 21
745.8747482146431
 31
0.0
  0
LINE
  5
1546C
330
15227
100
AcDbEntity
  8
YODOROGO
100
AcDbLine
 10
14692.80217064596
 20
1013.874748214644
 30
0.0
 11
14692.80217064596
 21
713.8747482146436
 31
0.0
  0
LINE
  5
1546D
330
15227
100
AcDbEntity
  8
YODOROGO
100
AcDbLine
 10
14728.80217064596
 20
713.8747482146436
 30
0.0
 11
14728.80217064596
 21
1013.874748214644
 31
0.0
  0
LINE
  5
1546E
330
15227
100
AcDbEntity
  8
YODOROGO
100
AcDbLine
 10
14328.80217064594
 20
833.8747482146439
 30
0.0
 11
14328.80217064594
 21
873.8747482146449
 31
0.0
  0
LINE
  5
1546F
330
15227
100
AcDbEntity
  8
YODOROGO
100
AcDbLine
 10
14942.80217064596
 20
853.874748214644
 30
0.0
 11
14942.80217064596
 21
833.8747482146439
 31
0.0
  0
LINE
  5
15470
330
15227
100
AcDbEntity
  8
YODOROGO
100
AcDbLine
 10
14942.80217064596
 20
853.874748214644
 30
0.0
 11
14942.80217064596
 21
833.8747482146439
 31
0.0
  0
ARC
  5
15471
330
15227
100
AcDbEntity
  8
YODOROGO
100
AcDbCircle
 10
14453.45578809342
 20
809.1089322211363
 30
0.0
 40
47.35257558937082
100
AcDbArc
 50
274.052441629071
 51
0.9266642149310712
  0
ARC
  5
15472
330
15227
100
AcDbEntity
  8
YODOROGO
100
AcDbCircle
 10
14454.5930853599
 20
796.30536430522
 30
0.0
 40
82.46021178042756
100
AcDbArc
 50
271.5351210653777
 51
355.5272775058505
  0
LINE
  5
15473
330
15227
100
AcDbEntity
  8
YODOROGO
100
AcDbLine
 10
14456.80217064596
 20
761.8747482146434
 30
0.0
 11
14456.80217064596
 21
713.8747482146436
 31
0.0
  0
LINE
  5
15474
330
15227
100
AcDbEntity
  8
YODOROGO
100
AcDbLine
 10
14396.80217064594
 20
833.8747482146439
 30
0.0
 11
14328.80217064594
 21
833.8747482146439
 31
0.0
  0
LINE
  5
15475
330
15227
100
AcDbEntity
  8
YODOROGO
100
AcDbLine
 10
14396.80217064594
 20
801.8747482146444
 30
0.0
 11
14396.80217064594
 21
833.8747482146439
 31
0.0
  0
LINE
  5
15476
330
15227
100
AcDbEntity
  8
YODOROGO
100
AcDbLine
 10
14328.80217064594
 20
801.8747482146444
 30
0.0
 11
14396.80217064594
 21
801.8747482146444
 31
0.0
  0
LINE
  5
15477
330
15227
100
AcDbEntity
  8
YODOROGO
100
AcDbLine
 10
14328.80217064594
 20
761.8747482146434
 30
0.0
 11
14328.80217064594
 21
801.8747482146444
 31
0.0
  0
LINE
  5
15478
330
15227
100
AcDbEntity
  8
YODOROGO
100
AcDbLine
 10
14396.80217064594
 20
761.8747482146434
 30
0.0
 11
14328.80217064594
 21
761.8747482146434
 31
0.0
  0
LINE
  5
15479
330
15227
100
AcDbEntity
  8
YODOROGO
100
AcDbLine
 10
14396.80217064594
 20
713.8747482146436
 30
0.0
 11
14396.80217064594
 21
761.8747482146434
 31
0.0
  0
LINE
  5
1547A
330
15227
100
AcDbEntity
  8
YODOROGO
100
AcDbLine
 10
14598.80217064596
 20
745.8747482146431
 30
0.0
 11
14630.80217064596
 21
745.8747482146431
 31
0.0
  0
LINE
  5
1547B
330
15227
100
AcDbEntity
  8
YODOROGO
100
AcDbLine
 10
14692.80217064596
 20
713.8747482146436
 30
0.0
 11
14728.80217064596
 21
713.8747482146436
 31
0.0
  0
LINE
  5
1547C
330
15227
100
AcDbEntity
  8
YODOROGO
100
AcDbLine
 10
14868.80217064596
 20
764.2207260852818
 30
0.0
 11
14868.80217064596
 21
713.8747482146436
 31
0.0
  0
LINE
  5
1547D
330
15227
100
AcDbEntity
  8
YODOROGO
100
AcDbLine
 10
14808.80217064596
 20
713.8747482146436
 30
0.0
 11
14868.80217064596
 21
764.2207260852818
 31
0.0
  0
LINE
  5
1547E
330
15227
100
AcDbEntity
  8
YODOROGO
100
AcDbLine
 10
14808.80217064596
 20
773.874748214644
 30
0.0
 11
14808.80217064596
 21
713.8747482146436
 31
0.0
  0
LINE
  5
1547F
330
15227
100
AcDbEntity
  8
YODOROGO
100
AcDbLine
 10
14856.47231434973
 20
813.8747482146435
 30
0.0
 11
14808.80217064596
 21
773.874748214644
 31
0.0
  0
LINE
  5
15480
330
15227
100
AcDbEntity
  8
YODOROGO
100
AcDbLine
 10
14808.80217064596
 20
813.8747482146435
 30
0.0
 11
14856.47231434973
 21
813.8747482146435
 31
0.0
  0
LINE
  5
15481
330
15227
100
AcDbEntity
  8
YODOROGO
100
AcDbLine
 10
14808.80217064596
 20
833.8747482146439
 30
0.0
 11
14808.80217064596
 21
813.8747482146435
 31
0.0
  0
LINE
  5
15482
330
15227
100
AcDbEntity
  8
YODOROGO
100
AcDbLine
 10
14942.80217064596
 20
833.8747482146439
 30
0.0
 11
14808.80217064596
 21
833.8747482146439
 31
0.0
  0
LINE
  5
15483
330
15227
100
AcDbEntity
  8
YODOROGO
100
AcDbLine
 10
14958.80217064596
 20
813.8747482146435
 30
0.0
 11
14888.80217064596
 21
813.8747482146435
 31
0.0
  0
LINE
  5
15484
330
15227
100
AcDbEntity
  8
YODOROGO
100
AcDbLine
 10
14888.80217064596
 20
781.0027187088283
 30
0.0
 11
14885.70493649264
 21
778.403830673117
 31
0.0
  0
LINE
  5
15485
330
15227
100
AcDbEntity
  8
YODOROGO
100
AcDbLine
 10
14888.80217064596
 20
813.8747482146435
 30
0.0
 11
14888.80217064596
 21
781.0027187088283
 31
0.0
  0
LINE
  5
15486
330
15227
100
AcDbEntity
  8
YODOROGO
100
AcDbLine
 10
14868.80217064596
 20
764.2207260852818
 30
0.0
 11
14868.80217064596
 21
713.8747482146436
 31
0.0
  0
LINE
  5
15487
330
15227
100
AcDbEntity
  8
YODOROGO
100
AcDbLine
 10
14808.80217064596
 20
713.8747482146436
 30
0.0
 11
14868.80217064596
 21
764.2207260852818
 31
0.0
  0
LINE
  5
15488
330
15227
100
AcDbEntity
  8
YODOROGO
100
AcDbLine
 10
14808.80217064596
 20
773.874748214644
 30
0.0
 11
14808.80217064596
 21
713.8747482146436
 31
0.0
  0
LINE
  5
15489
330
15227
100
AcDbEntity
  8
YODOROGO
100
AcDbLine
 10
14856.47231434973
 20
813.8747482146435
 30
0.0
 11
14808.80217064596
 21
773.874748214644
 31
0.0
  0
LINE
  5
1548A
330
15227
100
AcDbEntity
  8
YODOROGO
100
AcDbLine
 10
14808.80217064596
 20
813.8747482146435
 30
0.0
 11
14856.47231434973
 21
813.8747482146435
 31
0.0
  0
LINE
  5
1548B
330
15227
100
AcDbEntity
  8
YODOROGO
100
AcDbLine
 10
14808.80217064596
 20
833.8747482146439
 30
0.0
 11
14808.80217064596
 21
813.8747482146435
 31
0.0
  0
LINE
  5
1548C
330
15227
100
AcDbEntity
  8
YODOROGO
100
AcDbLine
 10
14942.80217064596
 20
833.8747482146439
 30
0.0
 11
14808.80217064596
 21
833.8747482146439
 31
0.0
  0
LINE
  5
1548D
330
15227
100
AcDbEntity
  8
YODOROGO
100
AcDbLine
 10
14396.80217064594
 20
873.8747482146449
 30
0.0
 11
14396.80217064594
 21
909.8747482146439
 31
0.0
  0
LINE
  5
1548E
330
15227
100
AcDbEntity
  8
YODOROGO
100
AcDbLine
 10
14328.80217064594
 20
873.8747482146449
 30
0.0
 11
14396.80217064594
 21
873.8747482146449
 31
0.0
  0
LINE
  5
1548F
330
15227
100
AcDbEntity
  8
YODOROGO
100
AcDbLine
 10
14364.80217064596
 20
933.8747482146439
 30
0.0
 11
14364.80217064596
 21
961.8747482146432
 31
0.0
  0
LINE
  5
15490
330
15227
100
AcDbEntity
  8
YODOROGO
100
AcDbLine
 10
14396.80217064594
 20
933.8747482146439
 30
0.0
 11
14364.80217064596
 21
933.8747482146439
 31
0.0
  0
LINE
  5
15491
330
15227
100
AcDbEntity
  8
YODOROGO
100
AcDbLine
 10
14396.80217064594
 20
973.8747482146434
 30
0.0
 11
14396.80217064594
 21
933.8747482146439
 31
0.0
  0
ARC
  5
15492
330
15227
100
AcDbEntity
  8
YODOROGO
100
AcDbCircle
 10
14376.80217064594
 20
973.8747482146434
 30
0.0
 40
20.0
100
AcDbArc
 50
0.0
 51
90.0
  0
LINE
  5
15493
330
15227
100
AcDbEntity
  8
YODOROGO
100
AcDbLine
 10
14328.80217064596
 20
993.8747482146439
 30
0.0
 11
14376.80217064594
 21
993.8747482146439
 31
0.0
  0
LINE
  5
15494
330
15227
100
AcDbEntity
  8
YODOROGO
100
AcDbLine
 10
14328.80217064596
 20
1013.874748214644
 30
0.0
 11
14328.80217064596
 21
993.8747482146439
 31
0.0
  0
LINE
  5
15495
330
15227
100
AcDbEntity
  8
YODOROGO
100
AcDbLine
 10
14536.80217064596
 20
1013.874748214644
 30
0.0
 11
14500.80217064594
 21
1013.874748214644
 31
0.0
  0
LINE
  5
15496
330
15227
100
AcDbEntity
  8
YODOROGO
100
AcDbLine
 10
14630.80217064596
 20
1003.874748214644
 30
0.0
 11
14598.80217064596
 21
1003.874748214644
 31
0.0
  0
LINE
  5
15497
330
15227
100
AcDbEntity
  8
YODOROGO
100
AcDbLine
 10
14728.80217064596
 20
1013.874748214644
 30
0.0
 11
14692.80217064596
 21
1013.874748214644
 31
0.0
  0
LINE
  5
15498
330
15227
100
AcDbEntity
  8
YODOROGO
100
AcDbLine
 10
14836.80217064596
 20
853.874748214644
 30
0.0
 11
14836.80217064596
 21
885.8747482146441
 31
0.0
1001
AUTOCAD_POSTSCRIPT_FIGURE
1002
{
1000
PSFILL
1000
Grayscale
1000
Grayscale
1070
    25
1002
}
  0
LINE
  5
15499
330
15227
100
AcDbEntity
  8
YODOROGO
100
AcDbLine
 10
14808.80217064596
 20
853.874748214644
 30
0.0
 11
14836.80217064596
 21
853.874748214644
 31
0.0
1001
AUTOCAD_POSTSCRIPT_FIGURE
1002
{
1000
PSFILL
1000
Grayscale
1000
Grayscale
1070
    25
1002
}
  0
LINE
  5
1549A
330
15227
100
AcDbEntity
  8
YODOROGO
100
AcDbLine
 10
14808.80217064596
 20
909.8747482146439
 30
0.0
 11
14808.80217064596
 21
853.874748214644
 31
0.0
1001
AUTOCAD_POSTSCRIPT_FIGURE
1002
{
1000
PSFILL
1000
Grayscale
1000
Grayscale
1070
    25
1002
}
  0
LINE
  5
1549B
330
15227
100
AcDbEntity
  8
YODOROGO
100
AcDbLine
 10
14882.80217064596
 20
909.8747482146439
 30
0.0
 11
14808.80217064596
 21
909.8747482146439
 31
0.0
1001
AUTOCAD_POSTSCRIPT_FIGURE
1002
{
1000
PSFILL
1000
Grayscale
1000
Grayscale
1070
    25
1002
}
  0
LINE
  5
1549C
330
15227
100
AcDbEntity
  8
YODOROGO
100
AcDbLine
 10
14882.80217064596
 20
929.874748214644
 30
0.0
 11
14882.80217064596
 21
909.8747482146439
 31
0.0
1001
AUTOCAD_POSTSCRIPT_FIGURE
1002
{
1000
PSFILL
1000
Grayscale
1000
Grayscale
1070
    25
1002
}
  0
LINE
  5
1549D
330
15227
100
AcDbEntity
  8
YODOROGO
100
AcDbLine
 10
14808.80217064596
 20
929.874748214644
 30
0.0
 11
14882.80217064596
 21
929.874748214644
 31
0.0
1001
AUTOCAD_POSTSCRIPT_FIGURE
1002
{
1000
PSFILL
1000
Grayscale
1000
Grayscale
1070
    25
1002
}
  0
LINE
  5
1549E
330
15227
100
AcDbEntity
  8
YODOROGO
100
AcDbLine
 10
14808.80217064596
 20
953.874748214644
 30
0.0
 11
14808.80217064596
 21
929.874748214644
 31
0.0
1001
AUTOCAD_POSTSCRIPT_FIGURE
1002
{
1000
PSFILL
1000
Grayscale
1000
Grayscale
1070
    25
1002
}
  0
LINE
  5
1549F
330
15227
100
AcDbEntity
  8
YODOROGO
100
AcDbLine
 10
14882.80217064596
 20
953.874748214644
 30
0.0
 11
14808.80217064596
 21
953.874748214644
 31
0.0
1001
AUTOCAD_POSTSCRIPT_FIGURE
1002
{
1000
PSFILL
1000
Grayscale
1000
Grayscale
1070
    25
1002
}
  0
LINE
  5
154A0
330
15227
100
AcDbEntity
  8
YODOROGO
100
AcDbLine
 10
14882.80217064596
 20
973.8747482146434
 30
0.0
 11
14882.80217064596
 21
953.874748214644
 31
0.0
1001
AUTOCAD_POSTSCRIPT_FIGURE
1002
{
1000
PSFILL
1000
Grayscale
1000
Grayscale
1070
    25
1002
}
  0
LINE
  5
154A1
330
15227
100
AcDbEntity
  8
YODOROGO
100
AcDbLine
 10
14808.80217064596
 20
973.8747482146434
 30
0.0
 11
14882.80217064596
 21
973.8747482146434
 31
0.0
1001
AUTOCAD_POSTSCRIPT_FIGURE
1002
{
1000
PSFILL
1000
Grayscale
1000
Grayscale
1070
    25
1002
}
  0
LINE
  5
154A2
330
15227
100
AcDbEntity
  8
YODOROGO
100
AcDbLine
 10
14808.80217064596
 20
1013.874748214644
 30
0.0
 11
14808.80217064596
 21
973.8747482146434
 31
0.0
1001
AUTOCAD_POSTSCRIPT_FIGURE
1002
{
1000
PSFILL
1000
Grayscale
1000
Grayscale
1070
    25
1002
}
  0
LINE
  5
154A3
330
15227
100
AcDbEntity
  8
YODOROGO
100
AcDbLine
 10
14832.80217064596
 20
1013.874748214644
 30
0.0
 11
14808.80217064596
 21
1013.874748214644
 31
0.0
1001
AUTOCAD_POSTSCRIPT_FIGURE
1002
{
1000
PSFILL
1000
Grayscale
1000
Grayscale
1070
    25
1002
}
  0
LINE
  5
154A4
330
15227
100
AcDbEntity
  8
YODOROGO
100
AcDbLine
 10
14832.80217064596
 20
997.8747482146435
 30
0.0
 11
14832.80217064596
 21
1013.874748214644
 31
0.0
1001
AUTOCAD_POSTSCRIPT_FIGURE
1002
{
1000
PSFILL
1000
Grayscale
1000
Grayscale
1070
    25
1002
}
  0
LINE
  5
154A5
330
15227
100
AcDbEntity
  8
YODOROGO
100
AcDbLine
 10
14882.80217064596
 20
997.8747482146435
 30
0.0
 11
14832.80217064596
 21
997.8747482146435
 31
0.0
1001
AUTOCAD_POSTSCRIPT_FIGURE
1002
{
1000
PSFILL
1000
Grayscale
1000
Grayscale
1070
    25
1002
}
  0
LINE
  5
154A6
330
15227
100
AcDbEntity
  8
YODOROGO
100
AcDbLine
 10
14882.80217064596
 20
1013.874748214644
 30
0.0
 11
14882.80217064596
 21
997.8747482146435
 31
0.0
1001
AUTOCAD_POSTSCRIPT_FIGURE
1002
{
1000
PSFILL
1000
Grayscale
1000
Grayscale
1070
    25
1002
}
  0
LINE
  5
154A7
330
15227
100
AcDbEntity
  8
YODOROGO
100
AcDbLine
 10
14914.80217064596
 20
1013.874748214644
 30
0.0
 11
14882.80217064596
 21
1013.874748214644
 31
0.0
1001
AUTOCAD_POSTSCRIPT_FIGURE
1002
{
1000
PSFILL
1000
Grayscale
1000
Grayscale
1070
    25
1002
}
  0
LINE
  5
154A8
330
15227
100
AcDbEntity
  8
YODOROGO
100
AcDbLine
 10
14914.80217064596
 20
997.8747482146435
 30
0.0
 11
14914.80217064596
 21
1013.874748214644
 31
0.0
1001
AUTOCAD_POSTSCRIPT_FIGURE
1002
{
1000
PSFILL
1000
Grayscale
1000
Grayscale
1070
    25
1002
}
  0
LINE
  5
154A9
330
15227
100
AcDbEntity
  8
YODOROGO
100
AcDbLine
 10
14914.80217064596
 20
953.874748214644
 30
0.0
 11
14914.80217064596
 21
973.8747482146434
 31
0.0
1001
AUTOCAD_POSTSCRIPT_FIGURE
1002
{
1000
PSFILL
1000
Grayscale
1000
Grayscale
1070
    25
1002
}
  0
LINE
  5
154AA
330
15227
100
AcDbEntity
  8
YODOROGO
100
AcDbLine
 10
14914.80217064596
 20
909.8747482146439
 30
0.0
 11
14914.80217064596
 21
929.874748214644
 31
0.0
1001
AUTOCAD_POSTSCRIPT_FIGURE
1002
{
1000
PSFILL
1000
Grayscale
1000
Grayscale
1070
    25
1002
}
  0
LINE
  5
154AB
330
15227
100
AcDbEntity
  8
YODOROGO
100
AcDbLine
 10
14960.80217064594
 20
885.8747482146441
 30
0.0
 11
14960.80217064594
 21
853.874748214644
 31
0.0
1001
AUTOCAD_POSTSCRIPT_FIGURE
1002
{
1000
PSFILL
1000
Grayscale
1000
Grayscale
1070
    25
1002
}
  0
LINE
  5
154AC
330
15227
100
AcDbEntity
  8
YODOROGO
100
AcDbLine
 10
14914.80217064596
 20
885.8747482146441
 30
0.0
 11
14960.80217064594
 21
885.8747482146441
 31
0.0
1001
AUTOCAD_POSTSCRIPT_FIGURE
1002
{
1000
PSFILL
1000
Grayscale
1000
Grayscale
1070
    25
1002
}
  0
LINE
  5
154AD
330
15227
100
AcDbEntity
  8
YODOROGO
100
AcDbLine
 10
14914.80217064596
 20
853.874748214644
 30
0.0
 11
14914.80217064596
 21
885.8747482146441
 31
0.0
1001
AUTOCAD_POSTSCRIPT_FIGURE
1002
{
1000
PSFILL
1000
Grayscale
1000
Grayscale
1070
    25
1002
}
  0
LINE
  5
154AE
330
15227
100
AcDbEntity
  8
YODOROGO
100
AcDbLine
 10
14882.80217064596
 20
853.874748214644
 30
0.0
 11
14914.80217064596
 21
853.874748214644
 31
0.0
1001
AUTOCAD_POSTSCRIPT_FIGURE
1002
{
1000
PSFILL
1000
Grayscale
1000
Grayscale
1070
    25
1002
}
  0
LINE
  5
154AF
330
15227
100
AcDbEntity
  8
YODOROGO
100
AcDbLine
 10
14882.80217064596
 20
885.8747482146441
 30
0.0
 11
14882.80217064596
 21
853.874748214644
 31
0.0
1001
AUTOCAD_POSTSCRIPT_FIGURE
1002
{
1000
PSFILL
1000
Grayscale
1000
Grayscale
1070
    25
1002
}
  0
LINE
  5
154B0
330
15227
100
AcDbEntity
  8
YODOROGO
100
AcDbLine
 10
14836.80217064596
 20
885.8747482146441
 30
0.0
 11
14882.80217064596
 21
885.8747482146441
 31
0.0
1001
AUTOCAD_POSTSCRIPT_FIGURE
1002
{
1000
PSFILL
1000
Grayscale
1000
Grayscale
1070
    25
1002
}
  0
ARC
  5
154B1
330
15227
100
AcDbEntity
  8
YODOROGO
100
AcDbCircle
 10
15529.75894667896
 20
801.3403687577881
 30
0.0
 40
89.11064055536078
100
AcDbArc
 50
281.0262749542535
 51
357.771135755738
  0
LINE
  5
154B2
330
15227
100
AcDbEntity
  8
YODOROGO
100
AcDbLine
 10
15706.80217064596
 20
953.874748214644
 30
0.0
 11
15582.80217064596
 21
953.874748214644
 31
0.0
  0
LINE
  5
154B3
330
15227
100
AcDbEntity
  8
YODOROGO
100
AcDbLine
 10
15706.80217064596
 20
1013.874748214644
 30
0.0
 11
15582.80217064596
 21
1013.874748214644
 31
0.0
  0
LINE
  5
154B4
330
15227
100
AcDbEntity
  8
YODOROGO
100
AcDbLine
 10
15582.80217064596
 20
981.8747482146434
 30
0.0
 11
15706.80217064596
 21
981.8747482146434
 31
0.0
  0
LINE
  5
154B5
330
15227
100
AcDbEntity
  8
YODOROGO
100
AcDbLine
 10
15395.80217064596
 20
781.8747482146434
 30
0.0
 11
15395.80217064596
 21
877.8747482146435
 31
0.0
  0
LINE
  5
154B6
330
15227
100
AcDbEntity
  8
YODOROGO
100
AcDbLine
 10
15381.80217064596
 20
845.8747482146444
 30
0.0
 11
15381.80217064596
 21
781.8747482146434
 31
0.0
  0
LINE
  5
154B7
330
15227
100
AcDbEntity
  8
YODOROGO
100
AcDbLine
 10
15361.80217064596
 20
745.8747482146443
 30
0.0
 11
15361.80217064596
 21
845.8747482146444
 31
0.0
  0
LINE
  5
154B8
330
15227
100
AcDbEntity
  8
YODOROGO
100
AcDbLine
 10
15449.80217064596
 20
845.8747482146444
 30
0.0
 11
15449.80217064596
 21
745.8747482146443
 31
0.0
  0
LINE
  5
154B9
330
15227
100
AcDbEntity
  8
YODOROGO
100
AcDbLine
 10
15429.80217064596
 20
781.8747482146434
 30
0.0
 11
15429.80217064596
 21
845.8747482146444
 31
0.0
  0
LINE
  5
154BA
330
15227
100
AcDbEntity
  8
YODOROGO
100
AcDbLine
 10
15415.80217064596
 20
877.8747482146435
 30
0.0
 11
15415.80217064596
 21
781.8747482146434
 31
0.0
  0
LINE
  5
154BB
330
15227
100
AcDbEntity
  8
YODOROGO
100
AcDbLine
 10
15486.80217064596
 20
1013.874748214644
 30
0.0
 11
15486.80217064596
 21
733.8747482146435
 31
0.0
  0
LINE
  5
154BC
330
15227
100
AcDbEntity
  8
YODOROGO
100
AcDbLine
 10
15322.80217064596
 20
713.8747482146436
 30
0.0
 11
15322.80217064596
 21
1013.874748214644
 31
0.0
  0
LINE
  5
154BD
330
15227
100
AcDbEntity
  8
YODOROGO
100
AcDbLine
 10
15348.80217064596
 20
981.8747482146434
 30
0.0
 11
15348.80217064596
 21
713.8747482146436
 31
0.0
  0
LINE
  5
154BE
330
15227
100
AcDbEntity
  8
YODOROGO
100
AcDbLine
 10
15462.80217064596
 20
773.874748214644
 30
0.0
 11
15462.80217064596
 21
981.8747482146434
 31
0.0
  0
LINE
  5
154BF
330
15227
100
AcDbEntity
  8
YODOROGO
100
AcDbLine
 10
15190.80217064596
 20
813.8747482146435
 30
0.0
 11
15190.80217064596
 21
839.8747482146442
 31
0.0
  0
LINE
  5
154C0
330
15227
100
AcDbEntity
  8
YODOROGO
100
AcDbLine
 10
15308.80217064596
 20
839.8747482146442
 30
0.0
 11
15308.80217064596
 21
813.8747482146435
 31
0.0
  0
LINE
  5
154C1
330
15227
100
AcDbEntity
  8
YODOROGO
100
AcDbLine
 10
15582.80217064596
 20
953.874748214644
 30
0.0
 11
15582.80217064596
 21
817.8747482146436
 31
0.0
  0
LINE
  5
154C2
330
15227
100
AcDbEntity
  8
YODOROGO
100
AcDbLine
 10
14974.80217064595
 20
833.8747482146439
 30
0.0
 11
14974.80217064595
 21
853.874748214644
 31
0.0
  0
LINE
  5
154C3
330
15227
100
AcDbEntity
  8
YODOROGO
100
AcDbLine
 10
14974.80217064595
 20
833.8747482146439
 30
0.0
 11
14974.80217064595
 21
853.874748214644
 31
0.0
  0
ARC
  5
154C4
330
15227
100
AcDbEntity
  8
YODOROGO
100
AcDbCircle
 10
15268.80217064596
 20
753.8747482146439
 30
0.0
 40
40.0
100
AcDbArc
 50
270.0
 51
0.0
  0
LINE
  5
154C5
330
15227
100
AcDbEntity
  8
YODOROGO
100
AcDbLine
 10
15284.80217064596
 20
799.8747482146441
 30
0.0
 11
15308.80217064596
 21
799.8747482146441
 31
0.0
  0
LINE
  5
154C6
330
15227
100
AcDbEntity
  8
YODOROGO
100
AcDbLine
 10
15308.80217064596
 20
813.8747482146435
 30
0.0
 11
15264.80217064596
 21
813.8747482146435
 31
0.0
  0
LINE
  5
154C7
330
15227
100
AcDbEntity
  8
YODOROGO
100
AcDbLine
 10
15108.80217064596
 20
833.8747482146439
 30
0.0
 11
14974.80217064595
 21
833.8747482146439
 31
0.0
  0
LINE
  5
154C8
330
15227
100
AcDbEntity
  8
YODOROGO
100
AcDbLine
 10
15108.80217064596
 20
813.8747482146435
 30
0.0
 11
15108.80217064596
 21
833.8747482146439
 31
0.0
  0
LINE
  5
154C9
330
15227
100
AcDbEntity
  8
YODOROGO
100
AcDbLine
 10
15008.80217064596
 20
813.8747482146435
 30
0.0
 11
15108.80217064596
 21
813.8747482146435
 31
0.0
  0
ARC
  5
154CA
330
15227
100
AcDbEntity
  8
YODOROGO
100
AcDbCircle
 10
15115.02941435068
 20
934.4428574764513
 30
0.0
 40
160.6888181426141
100
AcDbArc
 50
228.6181454618993
 51
245.660289248906
  0
LINE
  5
154CB
330
15227
100
AcDbEntity
  8
YODOROGO
100
AcDbLine
 10
15052.80217064596
 20
801.8747482146444
 30
0.0
 11
15048.80217064598
 21
788.0364079349501
 31
0.0
  0
LINE
  5
154CC
330
15227
100
AcDbEntity
  8
YODOROGO
100
AcDbLine
 10
15094.80217064596
 20
801.8747482146444
 30
0.0
 11
15052.80217064596
 21
801.8747482146444
 31
0.0
  0
LINE
  5
154CD
330
15227
100
AcDbEntity
  8
YODOROGO
100
AcDbLine
 10
15088.80217064596
 20
775.9088612367134
 30
0.0
 11
15094.80217064596
 21
801.8747482146444
 31
0.0
  0
ARC
  5
154CE
330
15227
100
AcDbEntity
  8
YODOROGO
100
AcDbCircle
 10
15115.02941435023
 20
934.4428574765014
 30
0.0
 40
160.6888181426453
100
AcDbArc
 50
260.6062929796992
 51
267.7790355655586
  0
LINE
  5
154CF
330
15227
100
AcDbEntity
  8
YODOROGO
100
AcDbLine
 10
15108.80217064596
 20
713.8747482146428
 30
0.0
 11
15108.80217064596
 21
773.874748214644
 31
0.0
  0
LINE
  5
154D0
330
15227
100
AcDbEntity
  8
YODOROGO
100
AcDbLine
 10
14968.80217064596
 20
740.6696674577553
 30
0.0
 11
14968.80217064596
 21
797.2655452655705
 31
0.0
  0
LINE
  5
154D1
330
15227
100
AcDbEntity
  8
YODOROGO
100
AcDbLine
 10
15108.80217064596
 20
833.8747482146439
 30
0.0
 11
14974.80217064595
 21
833.8747482146439
 31
0.0
  0
LINE
  5
154D2
330
15227
100
AcDbEntity
  8
YODOROGO
100
AcDbLine
 10
15108.80217064596
 20
813.8747482146435
 30
0.0
 11
15108.80217064596
 21
833.8747482146439
 31
0.0
  0
LINE
  5
154D3
330
15227
100
AcDbEntity
  8
YODOROGO
100
AcDbLine
 10
15008.80217064596
 20
813.8747482146435
 30
0.0
 11
15108.80217064596
 21
813.8747482146435
 31
0.0
  0
ARC
  5
154D4
330
15227
100
AcDbEntity
  8
YODOROGO
100
AcDbCircle
 10
15115.02941435068
 20
934.4428574764513
 30
0.0
 40
160.6888181426141
100
AcDbArc
 50
228.6181454618993
 51
245.660289248906
  0
LINE
  5
154D5
330
15227
100
AcDbEntity
  8
YODOROGO
100
AcDbLine
 10
15052.80217064596
 20
801.8747482146444
 30
0.0
 11
15048.80217064598
 21
788.0364079349501
 31
0.0
  0
LINE
  5
154D6
330
15227
100
AcDbEntity
  8
YODOROGO
100
AcDbLine
 10
15094.80217064596
 20
801.8747482146444
 30
0.0
 11
15052.80217064596
 21
801.8747482146444
 31
0.0
  0
LINE
  5
154D7
330
15227
100
AcDbEntity
  8
YODOROGO
100
AcDbLine
 10
15088.80217064596
 20
775.9088612367134
 30
0.0
 11
15094.80217064596
 21
801.8747482146444
 31
0.0
  0
ARC
  5
154D8
330
15227
100
AcDbEntity
  8
YODOROGO
100
AcDbCircle
 10
15115.02941435023
 20
934.4428574765014
 30
0.0
 40
160.6888181426453
100
AcDbArc
 50
260.6062929796992
 51
267.7790355655586
  0
LINE
  5
154D9
330
15227
100
AcDbEntity
  8
YODOROGO
100
AcDbLine
 10
15108.80217064596
 20
713.8747482146428
 30
0.0
 11
15108.80217064596
 21
773.874748214644
 31
0.0
  0
LINE
  5
154DA
330
15227
100
AcDbEntity
  8
YODOROGO
100
AcDbLine
 10
14968.80217064596
 20
740.6696674577553
 30
0.0
 11
14968.80217064596
 21
797.2655452655705
 31
0.0
  0
LINE
  5
154DB
330
15227
100
AcDbEntity
  8
YODOROGO
100
AcDbLine
 10
15216.80217064596
 20
786.8747482146444
 30
0.0
 11
15190.80217064596
 21
786.8747482146444
 31
0.0
  0
LINE
  5
154DC
330
15227
100
AcDbEntity
  8
YODOROGO
100
AcDbLine
 10
15216.80217064596
 20
800.8747482146432
 30
0.0
 11
15216.80217064596
 21
786.8747482146444
 31
0.0
  0
LINE
  5
154DD
330
15227
100
AcDbEntity
  8
YODOROGO
100
AcDbLine
 10
15190.80217064596
 20
800.8747482146432
 30
0.0
 11
15216.80217064596
 21
800.8747482146432
 31
0.0
  0
LINE
  5
154DE
330
15227
100
AcDbEntity
  8
YODOROGO
100
AcDbLine
 10
15190.80217064596
 20
786.8747482146444
 30
0.0
 11
15190.80217064596
 21
800.8747482146432
 31
0.0
  0
LINE
  5
154DF
330
15227
100
AcDbEntity
  8
YODOROGO
100
AcDbLine
 10
15214.80217064596
 20
788.8747482146436
 30
0.0
 11
15192.80217064595
 21
788.8747482146436
 31
0.0
  0
LINE
  5
154E0
330
15227
100
AcDbEntity
  8
YODOROGO
100
AcDbLine
 10
15214.80217064596
 20
798.874748214644
 30
0.0
 11
15214.80217064596
 21
788.8747482146436
 31
0.0
  0
LINE
  5
154E1
330
15227
100
AcDbEntity
  8
YODOROGO
100
AcDbLine
 10
15192.80217064595
 20
798.874748214644
 30
0.0
 11
15214.80217064596
 21
798.874748214644
 31
0.0
  0
LINE
  5
154E2
330
15227
100
AcDbEntity
  8
YODOROGO
100
AcDbLine
 10
15192.80217064595
 20
788.8747482146436
 30
0.0
 11
15192.80217064595
 21
798.874748214644
 31
0.0
  0
LINE
  5
154E3
330
15227
100
AcDbEntity
  8
YODOROGO
100
AcDbLine
 10
15212.80217064596
 20
790.8747482146432
 30
0.0
 11
15194.80217064596
 21
790.8747482146432
 31
0.0
  0
LINE
  5
154E4
330
15227
100
AcDbEntity
  8
YODOROGO
100
AcDbLine
 10
15212.80217064596
 20
796.8747482146445
 30
0.0
 11
15212.80217064596
 21
790.8747482146432
 31
0.0
  0
LINE
  5
154E5
330
15227
100
AcDbEntity
  8
YODOROGO
100
AcDbLine
 10
15194.80217064596
 20
796.8747482146445
 30
0.0
 11
15212.80217064596
 21
796.8747482146445
 31
0.0
  0
LINE
  5
154E6
330
15227
100
AcDbEntity
  8
YODOROGO
100
AcDbLine
 10
15194.80217064596
 20
790.8747482146432
 30
0.0
 11
15194.80217064596
 21
796.8747482146445
 31
0.0
  0
LINE
  5
154E7
330
15227
100
AcDbEntity
  8
YODOROGO
100
AcDbLine
 10
15210.80217064596
 20
792.8747482146435
 30
0.0
 11
15196.80217064596
 21
792.8747482146435
 31
0.0
  0
LINE
  5
154E8
330
15227
100
AcDbEntity
  8
YODOROGO
100
AcDbLine
 10
15210.80217064596
 20
794.8747482146441
 30
0.0
 11
15210.80217064596
 21
792.8747482146435
 31
0.0
  0
LINE
  5
154E9
330
15227
100
AcDbEntity
  8
YODOROGO
100
AcDbLine
 10
15196.80217064596
 20
794.8747482146441
 30
0.0
 11
15210.80217064596
 21
794.8747482146441
 31
0.0
  0
LINE
  5
154EA
330
15227
100
AcDbEntity
  8
YODOROGO
100
AcDbLine
 10
15196.80217064596
 20
792.8747482146435
 30
0.0
 11
15196.80217064596
 21
794.8747482146441
 31
0.0
  0
LINE
  5
154EB
330
15227
100
AcDbEntity
  8
YODOROGO
100
AcDbLine
 10
15232.80217064596
 20
813.8747482146435
 30
0.0
 11
15190.80217064596
 21
813.8747482146435
 31
0.0
  0
LINE
  5
154EC
330
15227
100
AcDbEntity
  8
YODOROGO
100
AcDbLine
 10
15232.80217064596
 20
773.874748214644
 30
0.0
 11
15232.80217064596
 21
813.8747482146435
 31
0.0
  0
LINE
  5
154ED
330
15227
100
AcDbEntity
  8
YODOROGO
100
AcDbLine
 10
15190.80217064596
 20
773.874748214644
 30
0.0
 11
15232.80217064596
 21
773.874748214644
 31
0.0
  0
LINE
  5
154EE
330
15227
100
AcDbEntity
  8
YODOROGO
100
AcDbLine
 10
15190.80217064596
 20
713.8747482146436
 30
0.0
 11
15190.80217064596
 21
773.874748214644
 31
0.0
  0
LINE
  5
154EF
330
15227
100
AcDbEntity
  8
YODOROGO
100
AcDbLine
 10
15268.80217064596
 20
713.8747482146436
 30
0.0
 11
15190.80217064596
 21
713.8747482146436
 31
0.0
  0
LINE
  5
154F0
330
15227
100
AcDbEntity
  8
YODOROGO
100
AcDbLine
 10
15284.80217064596
 20
785.8747482146432
 30
0.0
 11
15284.80217064596
 21
799.8747482146441
 31
0.0
  0
ARC
  5
154F1
330
15227
100
AcDbEntity
  8
YODOROGO
100
AcDbCircle
 10
15272.80217064594
 20
785.8747482146457
 30
0.0
 40
12.00000000000187
100
AcDbArc
 50
270.0
 51
359.9999999999877
  0
LINE
  5
154F2
330
15227
100
AcDbEntity
  8
YODOROGO
100
AcDbLine
 10
15264.80217064596
 20
773.874748214644
 30
0.0
 11
15272.80217064594
 21
773.874748214644
 31
0.0
  0
LINE
  5
154F3
330
15227
100
AcDbEntity
  8
YODOROGO
100
AcDbLine
 10
15264.80217064596
 20
813.8747482146435
 30
0.0
 11
15264.80217064596
 21
773.874748214644
 31
0.0
  0
LINE
  5
154F4
330
15227
100
AcDbEntity
  8
YODOROGO
100
AcDbLine
 10
15449.80217064596
 20
773.874748214644
 30
0.0
 11
15462.80217064596
 21
773.874748214644
 31
0.0
  0
LINE
  5
154F5
330
15227
100
AcDbEntity
  8
YODOROGO
100
AcDbLine
 10
15466.80217064596
 20
713.8747482146436
 30
0.0
 11
15449.80217064596
 21
713.8747482146436
 31
0.0
  0
LINE
  5
154F6
330
15227
100
AcDbEntity
  8
YODOROGO
100
AcDbLine
 10
15381.80217064596
 20
781.8747482146434
 30
0.0
 11
15395.80217064596
 21
781.8747482146434
 31
0.0
  0
LINE
  5
154F7
330
15227
100
AcDbEntity
  8
YODOROGO
100
AcDbLine
 10
15449.80217064596
 20
745.8747482146443
 30
0.0
 11
15361.80217064596
 21
745.8747482146443
 31
0.0
  0
LINE
  5
154F8
330
15227
100
AcDbEntity
  8
YODOROGO
100
AcDbLine
 10
15415.80217064596
 20
781.8747482146434
 30
0.0
 11
15429.80217064596
 21
781.8747482146434
 31
0.0
  0
LINE
  5
154F9
330
15227
100
AcDbEntity
  8
YODOROGO
100
AcDbLine
 10
15449.80217064596
 20
713.8747482146436
 30
0.0
 11
15449.80217064596
 21
773.874748214644
 31
0.0
  0
LINE
  5
154FA
330
15227
100
AcDbEntity
  8
YODOROGO
100
AcDbLine
 10
15348.80217064596
 20
713.8747482146436
 30
0.0
 11
15322.80217064596
 21
713.8747482146436
 31
0.0
  0
LINE
  5
154FB
330
15227
100
AcDbEntity
  8
YODOROGO
100
AcDbLine
 10
15308.80217064596
 20
799.8747482146441
 30
0.0
 11
15308.80217064596
 21
753.8747482146439
 31
0.0
  0
ARC
  5
154FC
330
15227
100
AcDbEntity
  8
YODOROGO
100
AcDbCircle
 10
15466.80217064596
 20
733.8747482146435
 30
0.0
 40
20.0
100
AcDbArc
 50
270.0
 51
0.0
  0
LINE
  5
154FD
330
15227
100
AcDbEntity
  8
YODOROGO
100
AcDbLine
 10
15546.80217064596
 20
761.8747482146434
 30
0.0
 11
15546.80217064596
 21
713.8747482146436
 31
0.0
  0
ARC
  5
154FE
330
15227
100
AcDbEntity
  8
YODOROGO
100
AcDbCircle
 10
15519.86069778339
 20
818.7656950548664
 30
0.0
 40
62.94777829583771
100
AcDbArc
 50
295.3405244216011
 51
359.1890230341867
  0
LINE
  5
154FF
330
15227
100
AcDbEntity
  8
YODOROGO
100
AcDbLine
 10
15308.80217064596
 20
929.874748214644
 30
0.0
 11
15248.80217064596
 21
969.8747482146441
 31
0.0
  0
LINE
  5
15500
330
15227
100
AcDbEntity
  8
YODOROGO
100
AcDbLine
 10
15248.80217064596
 20
1013.874748214644
 30
0.0
 11
15308.80217064596
 21
973.8747482146434
 31
0.0
  0
LINE
  5
15501
330
15227
100
AcDbEntity
  8
YODOROGO
100
AcDbLine
 10
15264.80217064596
 20
839.8747482146442
 30
0.0
 11
15308.80217064596
 21
839.8747482146442
 31
0.0
  0
LINE
  5
15502
330
15227
100
AcDbEntity
  8
YODOROGO
100
AcDbLine
 10
15308.80217064596
 20
867.8747482146436
 30
0.0
 11
15264.80217064596
 21
867.8747482146436
 31
0.0
  0
LINE
  5
15503
330
15227
100
AcDbEntity
  8
YODOROGO
100
AcDbLine
 10
15190.80217064596
 20
897.8747482146435
 30
0.0
 11
15308.80217064596
 21
897.8747482146435
 31
0.0
  0
LINE
  5
15504
330
15227
100
AcDbEntity
  8
YODOROGO
100
AcDbLine
 10
15040.80217064596
 20
1013.874748214644
 30
0.0
 11
15010.80217064596
 21
1013.874748214644
 31
0.0
  0
LINE
  5
15505
330
15227
100
AcDbEntity
  8
YODOROGO
100
AcDbLine
 10
15040.80217064596
 20
913.8747482146435
 30
0.0
 11
15040.80217064596
 21
1013.874748214644
 31
0.0
  0
LINE
  5
15506
330
15227
100
AcDbEntity
  8
YODOROGO
100
AcDbLine
 10
15010.80217064596
 20
913.8747482146435
 30
0.0
 11
15040.80217064596
 21
913.8747482146435
 31
0.0
  0
LINE
  5
15507
330
15227
100
AcDbEntity
  8
YODOROGO
100
AcDbLine
 10
15010.80217064596
 20
1013.874748214644
 30
0.0
 11
15010.80217064596
 21
913.8747482146435
 31
0.0
  0
LINE
  5
15508
330
15227
100
AcDbEntity
  8
YODOROGO
100
AcDbLine
 10
15080.80217064596
 20
1013.874748214644
 30
0.0
 11
15108.80217064596
 21
1013.874748214644
 31
0.0
  0
LINE
  5
15509
330
15227
100
AcDbEntity
  8
YODOROGO
100
AcDbLine
 10
15080.80217064596
 20
905.8747482146443
 30
0.0
 11
15080.80217064596
 21
1013.874748214644
 31
0.0
  0
ARC
  5
1550A
330
15227
100
AcDbEntity
  8
YODOROGO
100
AcDbCircle
 10
15060.80217064596
 20
905.8747482146443
 30
0.0
 40
20.0
100
AcDbArc
 50
270.0
 51
0.0
  0
LINE
  5
1550B
330
15227
100
AcDbEntity
  8
YODOROGO
100
AcDbLine
 10
15010.80217064596
 20
885.8747482146441
 30
0.0
 11
15060.80217064596
 21
885.8747482146441
 31
0.0
  0
LINE
  5
1550C
330
15227
100
AcDbEntity
  8
YODOROGO
100
AcDbLine
 10
15010.80217064596
 20
853.874748214644
 30
0.0
 11
15010.80217064596
 21
885.8747482146441
 31
0.0
  0
LINE
  5
1550D
330
15227
100
AcDbEntity
  8
YODOROGO
100
AcDbLine
 10
15068.80217064596
 20
853.874748214644
 30
0.0
 11
15010.80217064596
 21
853.874748214644
 31
0.0
  0
ARC
  5
1550E
330
15227
100
AcDbEntity
  8
YODOROGO
100
AcDbCircle
 10
15068.80217064596
 20
893.8747482146439
 30
0.0
 40
40.0
100
AcDbArc
 50
270.0
 51
0.0
  0
LINE
  5
1550F
330
15227
100
AcDbEntity
  8
YODOROGO
100
AcDbLine
 10
15108.80217064596
 20
1013.874748214644
 30
0.0
 11
15108.80217064596
 21
893.8747482146439
 31
0.0
  0
LINE
  5
15510
330
15227
100
AcDbEntity
  8
YODOROGO
100
AcDbLine
 10
14988.80217064596
 20
973.8747482146434
 30
0.0
 11
14988.80217064596
 21
997.8747482146435
 31
0.0
1001
AUTOCAD_POSTSCRIPT_FIGURE
1002
{
1000
PSFILL
1000
Grayscale
1000
Grayscale
1070
    25
1002
}
  0
LINE
  5
15511
330
15227
100
AcDbEntity
  8
YODOROGO
100
AcDbLine
 10
14988.80217064596
 20
929.874748214644
 30
0.0
 11
14988.80217064596
 21
953.874748214644
 31
0.0
1001
AUTOCAD_POSTSCRIPT_FIGURE
1002
{
1000
PSFILL
1000
Grayscale
1000
Grayscale
1070
    25
1002
}
  0
LINE
  5
15512
330
15227
100
AcDbEntity
  8
YODOROGO
100
AcDbLine
 10
14988.80217064596
 20
853.874748214644
 30
0.0
 11
14988.80217064596
 21
909.8747482146439
 31
0.0
1001
AUTOCAD_POSTSCRIPT_FIGURE
1002
{
1000
PSFILL
1000
Grayscale
1000
Grayscale
1070
    25
1002
}
  0
LINE
  5
15513
330
15227
100
AcDbEntity
  8
YODOROGO
100
AcDbLine
 10
15190.80217064596
 20
953.874748214644
 30
0.0
 11
15248.80217064596
 21
1013.874748214644
 31
0.0
  0
LINE
  5
15514
330
15227
100
AcDbEntity
  8
YODOROGO
100
AcDbLine
 10
15190.80217064596
 20
909.8747482146439
 30
0.0
 11
15190.80217064596
 21
953.874748214644
 31
0.0
  0
LINE
  5
15515
330
15227
100
AcDbEntity
  8
YODOROGO
100
AcDbLine
 10
15248.80217064596
 20
969.8747482146441
 30
0.0
 11
15190.80217064596
 21
909.8747482146439
 31
0.0
  0
LINE
  5
15516
330
15227
100
AcDbEntity
  8
YODOROGO
100
AcDbLine
 10
15232.80217064596
 20
839.8747482146442
 30
0.0
 11
15232.80217064596
 21
867.8747482146436
 31
0.0
  0
LINE
  5
15517
330
15227
100
AcDbEntity
  8
YODOROGO
100
AcDbLine
 10
15190.80217064596
 20
839.8747482146442
 30
0.0
 11
15232.80217064596
 21
839.8747482146442
 31
0.0
  0
LINE
  5
15518
330
15227
100
AcDbEntity
  8
YODOROGO
100
AcDbLine
 10
15264.80217064596
 20
867.8747482146436
 30
0.0
 11
15264.80217064596
 21
839.8747482146442
 31
0.0
  0
LINE
  5
15519
330
15227
100
AcDbEntity
  8
YODOROGO
100
AcDbLine
 10
15190.80217064596
 20
867.8747482146436
 30
0.0
 11
15190.80217064596
 21
897.8747482146435
 31
0.0
  0
LINE
  5
1551A
330
15227
100
AcDbEntity
  8
YODOROGO
100
AcDbLine
 10
15232.80217064596
 20
867.8747482146436
 30
0.0
 11
15190.80217064596
 21
867.8747482146436
 31
0.0
  0
LINE
  5
1551B
330
15227
100
AcDbEntity
  8
YODOROGO
100
AcDbLine
 10
15322.80217064596
 20
1013.874748214644
 30
0.0
 11
15486.80217064596
 21
1013.874748214644
 31
0.0
  0
LINE
  5
1551C
330
15227
100
AcDbEntity
  8
YODOROGO
100
AcDbLine
 10
15462.80217064596
 20
981.8747482146434
 30
0.0
 11
15348.80217064596
 21
981.8747482146434
 31
0.0
  0
LINE
  5
1551D
330
15227
100
AcDbEntity
  8
YODOROGO
100
AcDbLine
 10
15436.80217064595
 20
909.8747482146439
 30
0.0
 11
15449.80217064596
 21
909.8747482146439
 31
0.0
  0
LINE
  5
1551E
330
15227
100
AcDbEntity
  8
YODOROGO
100
AcDbLine
 10
15449.80217064596
 20
969.8747482146441
 30
0.0
 11
15436.80217064595
 21
909.8747482146439
 31
0.0
  0
LINE
  5
1551F
330
15227
100
AcDbEntity
  8
YODOROGO
100
AcDbLine
 10
15425.80217064596
 20
969.8747482146441
 30
0.0
 11
15449.80217064596
 21
969.8747482146441
 31
0.0
  0
LINE
  5
15520
330
15227
100
AcDbEntity
  8
YODOROGO
100
AcDbLine
 10
15412.80217064596
 20
909.8747482146439
 30
0.0
 11
15425.80217064596
 21
969.8747482146441
 31
0.0
  0
LINE
  5
15521
330
15227
100
AcDbEntity
  8
YODOROGO
100
AcDbLine
 10
15398.80217064596
 20
909.8747482146439
 30
0.0
 11
15412.80217064596
 21
909.8747482146439
 31
0.0
  0
LINE
  5
15522
330
15227
100
AcDbEntity
  8
YODOROGO
100
AcDbLine
 10
15385.80217064596
 20
969.8747482146441
 30
0.0
 11
15398.80217064596
 21
909.8747482146439
 31
0.0
  0
LINE
  5
15523
330
15227
100
AcDbEntity
  8
YODOROGO
100
AcDbLine
 10
15361.80217064596
 20
969.8747482146441
 30
0.0
 11
15385.80217064596
 21
969.8747482146441
 31
0.0
  0
LINE
  5
15524
330
15227
100
AcDbEntity
  8
YODOROGO
100
AcDbLine
 10
15374.80217064596
 20
909.8747482146439
 30
0.0
 11
15361.80217064596
 21
969.8747482146441
 31
0.0
  0
LINE
  5
15525
330
15227
100
AcDbEntity
  8
YODOROGO
100
AcDbLine
 10
15361.80217064596
 20
909.8747482146439
 30
0.0
 11
15374.80217064596
 21
909.8747482146439
 31
0.0
  0
LINE
  5
15526
330
15227
100
AcDbEntity
  8
YODOROGO
100
AcDbLine
 10
15361.80217064596
 20
877.8747482146435
 30
0.0
 11
15361.80217064596
 21
909.8747482146439
 31
0.0
  0
LINE
  5
15527
330
15227
100
AcDbEntity
  8
YODOROGO
100
AcDbLine
 10
15449.80217064596
 20
877.8747482146435
 30
0.0
 11
15361.80217064596
 21
877.8747482146435
 31
0.0
  0
LINE
  5
15528
330
15227
100
AcDbEntity
  8
YODOROGO
100
AcDbLine
 10
15449.80217064596
 20
909.8747482146439
 30
0.0
 11
15449.80217064596
 21
877.8747482146435
 31
0.0
  0
LINE
  5
15529
330
15227
100
AcDbEntity
  8
YODOROGO
100
AcDbLine
 10
15308.80217064596
 20
973.8747482146434
 30
0.0
 11
15308.80217064596
 21
929.874748214644
 31
0.0
  0
LINE
  5
1552A
330
15227
100
AcDbEntity
  8
YODOROGO
100
AcDbLine
 10
15395.80217064596
 20
877.8747482146435
 30
0.0
 11
15415.80217064596
 21
877.8747482146435
 31
0.0
  0
LINE
  5
1552B
330
15227
100
AcDbEntity
  8
YODOROGO
100
AcDbLine
 10
15361.80217064596
 20
845.8747482146444
 30
0.0
 11
15381.80217064596
 21
845.8747482146444
 31
0.0
  0
LINE
  5
1552C
330
15227
100
AcDbEntity
  8
YODOROGO
100
AcDbLine
 10
15429.80217064596
 20
845.8747482146444
 30
0.0
 11
15449.80217064596
 21
845.8747482146444
 31
0.0
  0
LINE
  5
1552D
330
15227
100
AcDbEntity
  8
YODOROGO
100
AcDbLine
 10
15308.80217064596
 20
897.8747482146435
 30
0.0
 11
15308.80217064596
 21
867.8747482146436
 31
0.0
  0
LINE
  5
1552E
330
15227
100
AcDbEntity
  8
YODOROGO
100
AcDbLine
 10
15582.80217064596
 20
1013.874748214644
 30
0.0
 11
15582.80217064596
 21
981.8747482146434
 31
0.0
  0
LINE
  5
1552F
330
15227
100
AcDbEntity
  8
YODOROGO
100
AcDbLine
 10
15766.80217064596
 20
797.8747482146435
 30
0.0
 11
15766.80217064594
 21
905.8747482146443
 31
0.0
  0
LINE
  5
15530
330
15227
100
AcDbEntity
  8
YODOROGO
100
AcDbLine
 10
15730.80217064594
 20
993.8747482146439
 30
0.0
 11
15730.80217064594
 21
817.8747482146436
 31
0.0
  0
LINE
  5
15531
330
15227
100
AcDbEntity
  8
YODOROGO
100
AcDbLine
 10
15826.80217064596
 20
713.8747482146436
 30
0.0
 11
15826.80217064594
 21
905.8747482146443
 31
0.0
  0
LINE
  5
15532
330
15227
100
AcDbEntity
  8
YODOROGO
100
AcDbLine
 10
15794.80217064596
 20
905.8747482146443
 30
0.0
 11
15794.80217064596
 21
713.8747482146436
 31
0.0
  0
LINE
  5
15533
330
15227
100
AcDbEntity
  8
YODOROGO
100
AcDbLine
 10
15618.80217064596
 20
797.8747482146435
 30
0.0
 11
15618.80217064596
 21
853.874748214644
 31
0.0
  0
ARC
  5
15534
330
15227
100
AcDbEntity
  8
YODOROGO
100
AcDbCircle
 10
15676.95743255803
 20
803.8951756442788
 30
0.0
 40
90.04622428799429
100
AcDbArc
 50
268.6284910216979
 51
356.1663845733032
  0
LINE
  5
15535
330
15227
100
AcDbEntity
  8
YODOROGO
100
AcDbLine
 10
15674.80217064596
 20
763.8747482146435
 30
0.0
 11
15674.80217064596
 21
713.8747482146436
 31
0.0
  0
ARC
  5
15536
330
15227
100
AcDbEntity
  8
YODOROGO
100
AcDbCircle
 10
15675.75903786228
 20
818.9194785088275
 30
0.0
 40
55.05304649180608
100
AcDbArc
 50
269.0041020930593
 51
358.9126445549248
  0
LINE
  5
15537
330
15227
100
AcDbEntity
  8
YODOROGO
100
AcDbLine
 10
15794.80217064596
 20
713.8747482146436
 30
0.0
 11
15826.80217064596
 21
713.8747482146436
 31
0.0
  0
LINE
  5
15538
330
15227
100
AcDbEntity
  8
YODOROGO
100
AcDbLine
 10
15766.80217064594
 20
905.8747482146443
 30
0.0
 11
15794.80217064596
 21
905.8747482146443
 31
0.0
  0
LINE
  5
15539
330
15227
100
AcDbEntity
  8
YODOROGO
100
AcDbLine
 10
15810.80217064596
 20
993.8747482146439
 30
0.0
 11
15730.80217064594
 21
993.8747482146439
 31
0.0
  0
LINE
  5
1553A
330
15227
100
AcDbEntity
  8
YODOROGO
100
AcDbLine
 10
15766.80217064594
 20
957.8747482146436
 30
0.0
 11
15830.80217064596
 21
957.8747482146436
 31
0.0
  0
LINE
  5
1553B
330
15227
100
AcDbEntity
  8
YODOROGO
100
AcDbLine
 10
15850.80217064596
 20
937.8747482146435
 30
0.0
 11
15766.80217064594
 21
937.8747482146435
 31
0.0
  0
LINE
  5
1553C
330
15227
100
AcDbEntity
  8
YODOROGO
100
AcDbLine
 10
15618.80217064596
 20
889.8747482146442
 30
0.0
 11
15674.80217064596
 21
889.8747482146442
 31
0.0
  0
LINE
  5
1553D
330
15227
100
AcDbEntity
  8
YODOROGO
100
AcDbLine
 10
15618.80217064596
 20
917.8747482146436
 30
0.0
 11
15618.80217064596
 21
889.8747482146442
 31
0.0
  0
LINE
  5
1553E
330
15227
100
AcDbEntity
  8
YODOROGO
100
AcDbLine
 10
15674.80217064596
 20
917.8747482146436
 30
0.0
 11
15618.80217064596
 21
917.8747482146436
 31
0.0
  0
LINE
  5
1553F
330
15227
100
AcDbEntity
  8
YODOROGO
100
AcDbLine
 10
15674.80217064596
 20
889.8747482146442
 30
0.0
 11
15674.80217064596
 21
917.8747482146436
 31
0.0
  0
LINE
  5
15540
330
15227
100
AcDbEntity
  8
YODOROGO
100
AcDbLine
 10
15766.80217064594
 20
937.8747482146435
 30
0.0
 11
15766.80217064594
 21
957.8747482146436
 31
0.0
  0
LINE
  5
15541
330
15227
100
AcDbEntity
  8
YODOROGO
100
AcDbLine
 10
15706.80217064596
 20
853.874748214644
 30
0.0
 11
15706.80217064596
 21
953.874748214644
 31
0.0
  0
LINE
  5
15542
330
15227
100
AcDbEntity
  8
YODOROGO
100
AcDbLine
 10
15618.80217064596
 20
853.874748214644
 30
0.0
 11
15706.80217064596
 21
853.874748214644
 31
0.0
  0
LINE
  5
15543
330
15227
100
AcDbEntity
  8
YODOROGO
100
AcDbLine
 10
15706.80217064596
 20
981.8747482146434
 30
0.0
 11
15706.80217064596
 21
1013.874748214644
 31
0.0
  0
ARC
  5
15544
330
15227
100
AcDbEntity
  8
YODOROGO
100
AcDbCircle
 10
15810.80217064596
 20
1001.874748214642
 30
0.0
 40
7.99999999999727
100
AcDbArc
 50
270.0
 51
0.0000000000081422
  0
LINE
  5
15545
330
15227
100
AcDbEntity
  8
YODOROGO
100
AcDbLine
 10
15818.80217064596
 20
1013.874748214644
 30
0.0
 11
15818.80217064596
 21
1001.874748214643
 31
0.0
  0
LINE
  5
15546
330
15227
100
AcDbEntity
  8
YODOROGO
100
AcDbLine
 10
15850.80217064596
 20
1013.874748214644
 30
0.0
 11
15818.80217064596
 21
1013.874748214644
 31
0.0
  0
LINE
  5
15547
330
15227
100
AcDbEntity
  8
YODOROGO
100
AcDbLine
 10
15850.80217064596
 20
977.8747482146435
 30
0.0
 11
15850.80217064596
 21
1013.874748214644
 31
0.0
  0
ARC
  5
15548
330
15227
100
AcDbEntity
  8
YODOROGO
100
AcDbCircle
 10
15830.80217064596
 20
977.8747482146435
 30
0.0
 40
20.0
100
AcDbArc
 50
270.0
 51
0.0
  0
LINE
  5
15549
330
15227
100
AcDbEntity
  8
YODOROGO
100
AcDbLine
 10
15850.80217064596
 20
905.8747482146443
 30
0.0
 11
15850.80217064596
 21
937.8747482146435
 31
0.0
  0
LINE
  5
1554A
330
15227
100
AcDbEntity
  8
YODOROGO
100
AcDbLine
 10
15826.80217064594
 20
905.8747482146443
 30
0.0
 11
15850.80217064596
 21
905.8747482146443
 31
0.0
  0
LINE
  5
1554B
330
15227
100
AcDbEntity
  8
SUNPOU
100
AcDbLine
 10
4419.127507899649
 20
6803.693182432329
 30
0.0
 11
4419.127507899649
 21
6138.693182432328
 31
0.0
  0
LINE
  5
1554C
330
15227
100
AcDbEntity
  8
SUNPOU
100
AcDbLine
 10
12419.12750789964
 20
6803.693182432329
 30
0.0
 11
12419.12750789964
 21
6138.693182432328
 31
0.0
  0
LINE
  5
1554D
330
15227
100
AcDbEntity
  8
SUNPOU
100
AcDbLine
 10
4439.127507899647
 20
6183.693182432328
 30
0.0
 11
12399.12750789964
 21
6183.693182432328
 31
0.0
  0
LINE
  5
1554E
330
15227
100
AcDbEntity
  8
SUNPOU
100
AcDbLine
 10
12178.67750789964
 20
8843.69318243233
 30
0.0
 11
12914.12750789964
 21
8843.69318243233
 31
0.0
  0
LINE
  5
1554F
330
15227
100
AcDbEntity
  8
SUNPOU
100
AcDbLine
 10
12459.12750789964
 20
9143.693182432331
 30
0.0
 11
12914.12750789964
 21
9143.693182432331
 31
0.0
  0
LINE
  5
15550
330
15227
100
AcDbEntity
  8
SUNPOU
100
AcDbLine
 10
12869.12750789964
 20
8863.693182432331
 30
0.0
 11
12869.12750789964
 21
9123.693182432331
 31
0.0
  0
LINE
  5
15551
330
15227
100
AcDbEntity
  8
SUNPOU
100
AcDbLine
 10
12459.12750789964
 20
7993.69318243233
 30
0.0
 11
12914.12750789964
 21
7993.69318243233
 31
0.0
  0
LINE
  5
15552
330
15227
100
AcDbEntity
  8
SUNPOU
100
AcDbLine
 10
12178.67750789964
 20
8843.69318243233
 30
0.0
 11
12914.12750789964
 21
8843.69318243233
 31
0.0
  0
LINE
  5
15553
330
15227
100
AcDbEntity
  8
SUNPOU
100
AcDbLine
 10
12869.12750789964
 20
8013.693182432332
 30
0.0
 11
12869.12750789964
 21
8823.693182432331
 31
0.0
  0
LINE
  5
15554
330
15227
100
AcDbEntity
  8
SUNPOU
100
AcDbLine
 10
12459.12750789964
 20
9143.693182432331
 30
0.0
 11
13124.12750789964
 21
9143.693182432331
 31
0.0
  0
LINE
  5
15555
330
15227
100
AcDbEntity
  8
SUNPOU
100
AcDbLine
 10
12459.12750789964
 20
7993.69318243233
 30
0.0
 11
13124.12750789964
 21
7993.69318243233
 31
0.0
  0
LINE
  5
15556
330
15227
100
AcDbEntity
  8
SUNPOU
100
AcDbLine
 10
13079.12750789964
 20
9123.693182432331
 30
0.0
 11
13079.12750789964
 21
8013.693182432332
 31
0.0
  0
LINE
  5
15557
330
15227
100
AcDbEntity
  8
SUNPOU
100
AcDbLine
 10
11619.12750789964
 20
9183.693182432332
 30
0.0
 11
11619.12750789964
 21
9488.693182432331
 31
0.0
  0
LINE
  5
15558
330
15227
100
AcDbEntity
  8
SUNPOU
100
AcDbLine
 10
12419.12750789964
 20
9183.693182432332
 30
0.0
 11
12419.12750789964
 21
9488.693182432331
 31
0.0
  0
LINE
  5
15559
330
15227
100
AcDbEntity
  8
SUNPOU
100
AcDbLine
 10
11639.12750789964
 20
9443.693182432332
 30
0.0
 11
12399.12750789964
 21
9443.693182432332
 31
0.0
  0
LINE
  5
1555A
330
15227
100
AcDbEntity
  8
SUNPOU
100
AcDbLine
 10
4659.57750789965
 20
8843.69318243233
 30
0.0
 11
3924.127507899648
 21
8843.693182432332
 31
0.0
  0
LINE
  5
1555B
330
15227
100
AcDbEntity
  8
SUNPOU
100
AcDbLine
 10
4379.127507899648
 20
9083.693182432327
 30
0.0
 11
3924.127507899648
 21
9083.693182432327
 31
0.0
  0
LINE
  5
1555C
330
15227
100
AcDbEntity
  8
SUNPOU
100
AcDbLine
 10
3969.127507899647
 20
8823.693182432334
 30
0.0
 11
3969.127507899647
 21
8803.693182432333
 31
0.0
  0
LINE
  5
1555D
330
15227
100
AcDbEntity
  8
SUNPOU
100
AcDbLine
 10
3969.127507899647
 20
9103.693182432328
 30
0.0
 11
3969.127507899647
 21
9123.693182432328
 31
0.0
  0
LINE
  5
1555E
330
15227
100
AcDbEntity
  8
SUNPOU
100
AcDbLine
 10
3969.127507899647
 20
8843.693182432332
 30
0.0
 11
3969.127507899647
 21
9083.693182432327
 31
0.0
  0
LINE
  5
1555F
330
15227
100
AcDbEntity
  8
SUNPOU
100
AcDbLine
 10
4379.127507899648
 20
6843.693182432328
 30
0.0
 11
3924.127507899648
 21
6843.693182432328
 31
0.0
  0
LINE
  5
15560
330
15227
100
AcDbEntity
  8
SUNPOU
100
AcDbLine
 10
4659.57750789965
 20
8843.69318243233
 30
0.0
 11
3924.127507899648
 21
8843.693182432332
 31
0.0
  0
LINE
  5
15561
330
15227
100
AcDbEntity
  8
SUNPOU
100
AcDbLine
 10
3969.127507899647
 20
6863.693182432328
 30
0.0
 11
3969.127507899647
 21
8823.693182432334
 31
0.0
  0
LINE
  5
15562
330
15227
100
AcDbEntity
  8
SUNPOU
100
AcDbLine
 10
12019.12750789964
 20
7886.693182432328
 30
0.0
 11
12019.12750789964
 21
6348.693182432328
 31
0.0
  0
LINE
  5
15563
330
15227
100
AcDbEntity
  8
SUNPOU
100
AcDbLine
 10
12419.12750789964
 20
6803.693182432329
 30
0.0
 11
12419.12750789964
 21
6348.693182432328
 31
0.0
  0
LINE
  5
15564
330
15227
100
AcDbEntity
  8
SUNPOU
100
AcDbLine
 10
12039.12750789964
 20
6393.693182432328
 30
0.0
 11
12399.12750789964
 21
6393.693182432328
 31
0.0
  0
LINE
  5
15565
330
15227
100
AcDbEntity
  8
SUNPOU
100
AcDbLine
 10
9619.127507899644
 20
7886.693182432328
 30
0.0
 11
9619.127507899644
 21
6348.693182432328
 31
0.0
  0
LINE
  5
15566
330
15227
100
AcDbEntity
  8
SUNPOU
100
AcDbLine
 10
12019.12750789964
 20
7886.693182432328
 30
0.0
 11
12019.12750789964
 21
6348.693182432328
 31
0.0
  0
LINE
  5
15567
330
15227
100
AcDbEntity
  8
SUNPOU
100
AcDbLine
 10
9639.127507899644
 20
6393.693182432328
 30
0.0
 11
11999.12750789964
 21
6393.693182432328
 31
0.0
  0
LINE
  5
15568
330
15227
100
AcDbEntity
  8
SUNPOU
100
AcDbLine
 10
7219.127507899648
 20
7886.693182432328
 30
0.0
 11
7219.127507899648
 21
6348.693182432328
 31
0.0
  0
LINE
  5
15569
330
15227
100
AcDbEntity
  8
SUNPOU
100
AcDbLine
 10
9619.127507899644
 20
7886.693182432328
 30
0.0
 11
9619.127507899644
 21
6348.693182432328
 31
0.0
  0
LINE
  5
1556A
330
15227
100
AcDbEntity
  8
SUNPOU
100
AcDbLine
 10
7239.127507899649
 20
6393.693182432328
 30
0.0
 11
9599.127507899643
 21
6393.693182432328
 31
0.0
  0
LINE
  5
1556B
330
15227
100
AcDbEntity
  8
SUNPOU
100
AcDbLine
 10
4819.127507899647
 20
7886.693182432328
 30
0.0
 11
4819.127507899647
 21
6348.693182432328
 31
0.0
  0
LINE
  5
1556C
330
15227
100
AcDbEntity
  8
SUNPOU
100
AcDbLine
 10
7219.127507899648
 20
7886.693182432328
 30
0.0
 11
7219.127507899648
 21
6348.693182432328
 31
0.0
  0
LINE
  5
1556D
330
15227
100
AcDbEntity
  8
SUNPOU
100
AcDbLine
 10
4839.127507899648
 20
6393.693182432328
 30
0.0
 11
7199.127507899646
 21
6393.693182432328
 31
0.0
  0
LINE
  5
1556E
330
15227
100
AcDbEntity
  8
SUNPOU
100
AcDbLine
 10
4419.127507899649
 20
6803.693182432329
 30
0.0
 11
4419.127507899649
 21
6348.693182432328
 31
0.0
  0
LINE
  5
1556F
330
15227
100
AcDbEntity
  8
SUNPOU
100
AcDbLine
 10
4819.127507899647
 20
7886.693182432328
 30
0.0
 11
4819.127507899647
 21
6348.693182432328
 31
0.0
  0
LINE
  5
15570
330
15227
100
AcDbEntity
  8
SUNPOU
100
AcDbLine
 10
4439.127507899647
 20
6393.693182432328
 30
0.0
 11
4799.127507899648
 21
6393.693182432328
 31
0.0
  0
LINE
  5
15571
330
15227
100
AcDbEntity
  8
SUNPOU
100
AcDbLine
 10
7990.9823961452
 20
3131.333194070897
 30
0.0
 11
8656.848304711026
 21
3131.333194070897
 31
0.0
  0
LINE
  5
15572
330
15227
100
AcDbEntity
  8
SUNPOU
100
AcDbLine
 10
7990.9823961452
 20
1851.333194070897
 30
0.0
 11
8656.848304711026
 21
1851.333194070897
 31
0.0
  0
LINE
  5
15573
330
15227
100
AcDbEntity
  8
SUNPOU
100
AcDbLine
 10
8611.848304711026
 20
3111.333194070898
 30
0.0
 11
8611.848304711026
 21
1871.333194070897
 31
0.0
  0
LINE
  5
15574
330
15227
100
AcDbEntity
  8
SUNPOU
100
AcDbLine
 10
7823.982396145201
 20
3402.7112783133
 30
0.0
 11
7808.9823961452
 21
3402.7112783133
 31
0.0
  0
LINE
  5
15575
330
15227
100
AcDbEntity
  8
SUNPOU
100
AcDbLine
 10
6237.9823961452
 20
3402.7112783133
 30
0.0
 11
6252.9823961452
 21
3402.7112783133
 31
0.0
  0
LINE
  5
15576
330
15227
100
AcDbEntity
  8
SUNPOU
100
AcDbLine
 10
6110.9823961452
 20
1811.333194070897
 30
0.0
 11
6110.9823961452
 21
1315.898498232149
 31
0.0
  0
LINE
  5
15577
330
15227
100
AcDbEntity
  8
SUNPOU
100
AcDbLine
 10
7950.982396145197
 20
1811.333194070897
 30
0.0
 11
7950.982396145197
 21
1315.898498232149
 31
0.0
  0
LINE
  5
15578
330
15227
100
AcDbEntity
  8
SUNPOU
100
AcDbLine
 10
6130.9823961452
 20
1360.898498232149
 30
0.0
 11
7930.982396145201
 21
1360.898498232149
 31
0.0
  0
LINE
  5
15579
330
15227
100
AcDbEntity
  8
SUNPOU
100
AcDbLine
 10
5697.721313588933
 20
1978.333194070896
 30
0.0
 11
5697.721313588933
 21
1993.333194070896
 31
0.0
  0
LINE
  5
1557A
330
15227
100
AcDbEntity
  8
SUNPOU
100
AcDbLine
 10
5697.721313588933
 20
3004.333194070897
 30
0.0
 11
5697.721313588933
 21
2989.333194070897
 31
0.0
  0
LINE
  5
1557B
330
15227
100
AcDbEntity
  8
SUNPOU
100
AcDbLine
 10
3398.88357640366
 20
1610.898498232149
 30
0.0
 11
3398.88357640366
 21
1615.898498232149
 31
0.0
  0
LINE
  5
1557C
330
15227
100
AcDbEntity
  8
SUNPOU
100
AcDbLine
 10
3878.88357640366
 20
1909.885413258392
 30
0.0
 11
3878.88357640366
 21
1525.898498232149
 31
0.0
  0
LINE
  5
1557D
330
15227
100
AcDbEntity
  8
SUNPOU
100
AcDbLine
 10
3418.88357640366
 20
1570.89849823215
 30
0.0
 11
3858.883576403661
 21
1570.89849823215
 31
0.0
  0
LINE
  5
1557E
330
15227
100
AcDbEntity
  8
SUNPOU
100
AcDbLine
 10
2038.883576403661
 20
1909.885413258392
 30
0.0
 11
2038.883576403661
 21
1525.898498232149
 31
0.0
  0
LINE
  5
1557F
330
15227
100
AcDbEntity
  8
SUNPOU
100
AcDbLine
 10
3398.88357640366
 20
1610.898498232149
 30
0.0
 11
3398.88357640366
 21
1615.898498232149
 31
0.0
  0
LINE
  5
15580
330
15227
100
AcDbEntity
  8
SUNPOU
100
AcDbLine
 10
2058.88357640366
 20
1570.89849823215
 30
0.0
 11
3378.883576403659
 21
1570.89849823215
 31
0.0
  0
LINE
  5
15581
330
15227
100
AcDbEntity
  8
SUNPOU
100
AcDbLine
 10
2038.883576403661
 20
1909.885413258392
 30
0.0
 11
2038.883576403661
 21
1315.898498232149
 31
0.0
  0
LINE
  5
15582
330
15227
100
AcDbEntity
  8
SUNPOU
100
AcDbLine
 10
3878.88357640366
 20
1909.885413258392
 30
0.0
 11
3878.88357640366
 21
1315.898498232149
 31
0.0
  0
LINE
  5
15583
330
15227
100
AcDbEntity
  8
SUNPOU
100
AcDbLine
 10
2058.88357640366
 20
1360.898498232149
 30
0.0
 11
3858.883576403661
 21
1360.898498232149
 31
0.0
  0
LINE
  5
15584
330
15227
100
AcDbEntity
  8
SUNPOU
100
AcDbLine
 10
3918.883576403658
 20
3069.885413258399
 30
0.0
 11
4565.461558243987
 21
3069.885413258399
 31
0.0
  0
LINE
  5
15585
330
15227
100
AcDbEntity
  8
SUNPOU
100
AcDbLine
 10
3510.163576403654
 20
2269.885413258396
 30
0.0
 11
4565.461558243987
 21
2269.885413258396
 31
0.0
  0
LINE
  5
15586
330
15227
100
AcDbEntity
  8
SUNPOU
100
AcDbLine
 10
4520.461558243986
 20
3049.885413258397
 30
0.0
 11
4520.461558243986
 21
2289.885413258395
 31
0.0
  0
LINE
  5
15587
330
15227
100
AcDbEntity
  8
SUNPOU
100
AcDbLine
 10
4078.883576403661
 20
2109.885413258393
 30
0.0
 11
4775.461558243988
 21
2109.885413258393
 31
0.0
  0
LINE
  5
15588
330
15227
100
AcDbEntity
  8
SUNPOU
100
AcDbLine
 10
4078.883576403661
 20
1949.885413258393
 30
0.0
 11
4775.461558243986
 21
1949.885413258393
 31
0.0
  0
LINE
  5
15589
330
15227
100
AcDbEntity
  8
SUNPOU
100
AcDbLine
 10
4730.461558243988
 20
2089.885413258393
 30
0.0
 11
4730.461558243987
 21
1969.885413258394
 31
0.0
  0
LINE
  5
1558A
330
15227
100
AcDbEntity
  8
SUNPOU
100
AcDbLine
 10
4730.461558243987
 20
1949.885413258393
 30
0.0
 11
4730.461558243987
 21
1694.171127544108
 31
0.0
  0
LINE
  5
1558B
330
15227
100
AcDbEntity
  8
SUNPOU
100
AcDbLine
 10
3918.883576403658
 20
3069.885413258399
 30
0.0
 11
4775.461558243986
 21
3069.885413258399
 31
0.0
  0
LINE
  5
1558C
330
15227
100
AcDbEntity
  8
SUNPOU
100
AcDbLine
 10
4078.883576403661
 20
2109.885413258397
 30
0.0
 11
4775.461558243986
 21
2109.885413258397
 31
0.0
  0
LINE
  5
1558D
330
15227
100
AcDbEntity
  8
SUNPOU
100
AcDbLine
 10
4730.461558243987
 20
3049.885413258397
 30
0.0
 11
4730.461558243987
 21
2129.885413258397
 31
0.0
  0
TEXT
  5
1558E
330
15227
100
AcDbEntity
  8
SUNPOU
100
AcDbText
 10
7943.698936471074
 20
6228.693182432328
 30
0.0
 40
90.0
  1
L = 2400 × N + 800
 41
0.6666666666666666
  7
00
100
AcDbText
  0
LINE
  5
1558F
330
15227
100
AcDbEntity
  8
SUNPOU
100
AcDbLine
 10
12404.12750789964
 20
6183.693182432328
 30
0.0
 11
12389.12750789964
 21
6183.693182432328
 31
0.0
  0
LINE
  5
15590
330
15227
100
AcDbEntity
  8
SUNPOU
100
AcDbLine
 10
4434.127507899648
 20
6183.693182432328
 30
0.0
 11
4449.127507899649
 21
6183.693182432328
 31
0.0
  0
TEXT
  5
15591
330
15227
100
AcDbEntity
  8
SUNPOU
100
AcDbText
 10
12824.12750789964
 20
8907.978896718045
 30
0.0
 40
90.0
  1
300
 50
90.0
 41
0.6666666666666666
  7
00
100
AcDbText
  0
LINE
  5
15592
330
15227
100
AcDbEntity
  8
SUNPOU
100
AcDbLine
 10
12869.12750789964
 20
9128.693182432332
 30
0.0
 11
12869.12750789964
 21
9113.693182432331
 31
0.0
  0
LINE
  5
15593
330
15227
100
AcDbEntity
  8
SUNPOU
100
AcDbLine
 10
12869.12750789964
 20
8858.693182432331
 30
0.0
 11
12869.12750789964
 21
8873.693182432331
 31
0.0
  0
TEXT
  5
15594
330
15227
100
AcDbEntity
  8
SUNPOU
100
AcDbText
 10
12824.12750789964
 20
8332.978896718044
 30
0.0
 40
90.0
  1
850
 50
90.0
 41
0.6666666666666666
  7
00
100
AcDbText
  0
LINE
  5
15595
330
15227
100
AcDbEntity
  8
SUNPOU
100
AcDbLine
 10
12869.12750789964
 20
8828.693182432331
 30
0.0
 11
12869.12750789964
 21
8813.693182432331
 31
0.0
  0
LINE
  5
15596
330
15227
100
AcDbEntity
  8
SUNPOU
100
AcDbLine
 10
12869.12750789964
 20
8008.693182432331
 30
0.0
 11
12869.12750789964
 21
8023.69318243233
 31
0.0
  0
TEXT
  5
15597
330
15227
100
AcDbEntity
  8
SUNPOU
100
AcDbText
 10
13034.12750789964
 20
8450.121753860907
 30
0.0
 40
90.0
  1
1150
 50
90.0
 41
0.6666666666666666
  7
00
100
AcDbText
  0
LINE
  5
15598
330
15227
100
AcDbEntity
  8
SUNPOU
100
AcDbLine
 10
13079.12750789964
 20
8008.693182432331
 30
0.0
 11
13079.12750789964
 21
8023.69318243233
 31
0.0
  0
LINE
  5
15599
330
15227
100
AcDbEntity
  8
SUNPOU
100
AcDbLine
 10
13079.12750789964
 20
9128.693182432332
 30
0.0
 11
13079.12750789964
 21
9113.693182432331
 31
0.0
  0
TEXT
  5
1559A
330
15227
100
AcDbEntity
  8
SUNPOU
100
AcDbText
 10
11933.41322218536
 20
9488.693182432331
 30
0.0
 40
90.0
  1
800
 41
0.6666666666666666
  7
00
100
AcDbText
  0
LINE
  5
1559B
330
15227
100
AcDbEntity
  8
SUNPOU
100
AcDbLine
 10
12404.12750789964
 20
9443.693182432332
 30
0.0
 11
12389.12750789964
 21
9443.693182432332
 31
0.0
  0
LINE
  5
1559C
330
15227
100
AcDbEntity
  8
SUNPOU
100
AcDbLine
 10
11634.12750789964
 20
9443.693182432332
 30
0.0
 11
11649.12750789964
 21
9443.693182432332
 31
0.0
  0
TEXT
  5
1559D
330
15227
100
AcDbEntity
  8
SUNPOU
100
AcDbText
 10
3924.127507899647
 20
8877.978896718046
 30
0.0
 40
90.0
  1
240
 50
90.0
 41
0.6666666666666666
  7
00
100
AcDbText
  0
LINE
  5
1559E
330
15227
100
AcDbEntity
  8
SUNPOU
100
AcDbLine
 10
3969.127507899647
 20
9098.693182432327
 30
0.0
 11
3969.127507899647
 21
9113.693182432326
 31
0.0
  0
LINE
  5
1559F
330
15227
100
AcDbEntity
  8
SUNPOU
100
AcDbLine
 10
3969.127507899647
 20
8828.693182432333
 30
0.0
 11
3969.127507899647
 21
8813.693182432333
 31
0.0
  0
TEXT
  5
155A0
330
15227
100
AcDbEntity
  8
SUNPOU
100
AcDbText
 10
3924.127507899647
 20
7729.407468146617
 30
0.0
 40
90.0
  1
2000
 50
90.0
 41
0.6666666666666666
  7
00
100
AcDbText
  0
LINE
  5
155A1
330
15227
100
AcDbEntity
  8
SUNPOU
100
AcDbLine
 10
3969.127507899647
 20
8828.693182432333
 30
0.0
 11
3969.127507899647
 21
8813.693182432333
 31
0.0
  0
LINE
  5
155A2
330
15227
100
AcDbEntity
  8
SUNPOU
100
AcDbLine
 10
3969.127507899647
 20
6858.693182432329
 30
0.0
 11
3969.127507899647
 21
6873.693182432328
 31
0.0
  0
TEXT
  5
155A3
330
15227
100
AcDbEntity
  8
SUNPOU
100
AcDbText
 10
12133.41322218536
 20
6438.693182432328
 30
0.0
 40
90.0
  1
400
 41
0.6666666666666666
  7
00
100
AcDbText
  0
LINE
  5
155A4
330
15227
100
AcDbEntity
  8
SUNPOU
100
AcDbLine
 10
12404.12750789964
 20
6393.693182432328
 30
0.0
 11
12389.12750789964
 21
6393.693182432328
 31
0.0
  0
LINE
  5
155A5
330
15227
100
AcDbEntity
  8
SUNPOU
100
AcDbLine
 10
12034.12750789964
 20
6393.693182432328
 30
0.0
 11
12049.12750789964
 21
6393.693182432328
 31
0.0
  0
TEXT
  5
155A6
330
15227
100
AcDbEntity
  8
SUNPOU
100
AcDbText
 10
10704.84179361393
 20
6438.693182432328
 30
0.0
 40
90.0
  1
2400
 41
0.6666666666666666
  7
00
100
AcDbText
  0
LINE
  5
155A7
330
15227
100
AcDbEntity
  8
SUNPOU
100
AcDbLine
 10
12004.12750789964
 20
6393.693182432328
 30
0.0
 11
11989.12750789964
 21
6393.693182432328
 31
0.0
  0
LINE
  5
155A8
330
15227
100
AcDbEntity
  8
SUNPOU
100
AcDbLine
 10
9634.127507899645
 20
6393.693182432328
 30
0.0
 11
9649.127507899644
 21
6393.693182432328
 31
0.0
  0
TEXT
  5
155A9
330
15227
100
AcDbEntity
  8
SUNPOU
100
AcDbText
 10
8023.127507899646
 20
6438.693182432328
 30
0.0
 40
90.0
  1
2400 x （ N - 2 ）
 41
0.6666666666666666
  7
00
100
AcDbText
  0
LINE
  5
155AA
330
15227
100
AcDbEntity
  8
SUNPOU
100
AcDbLine
 10
9604.127507899645
 20
6393.693182432328
 30
0.0
 11
9589.127507899645
 21
6393.693182432328
 31
0.0
  0
LINE
  5
155AB
330
15227
100
AcDbEntity
  8
SUNPOU
100
AcDbLine
 10
7234.127507899649
 20
6393.693182432328
 30
0.0
 11
7249.127507899649
 21
6393.693182432328
 31
0.0
  0
TEXT
  5
155AC
330
15227
100
AcDbEntity
  8
SUNPOU
100
AcDbText
 10
5904.841793613934
 20
6438.693182432328
 30
0.0
 40
90.0
  1
2400
 41
0.6666666666666666
  7
00
100
AcDbText
  0
LINE
  5
155AD
330
15227
100
AcDbEntity
  8
SUNPOU
100
AcDbLine
 10
7204.127507899646
 20
6393.693182432328
 30
0.0
 11
7189.127507899647
 21
6393.693182432328
 31
0.0
  0
LINE
  5
155AE
330
15227
100
AcDbEntity
  8
SUNPOU
100
AcDbLine
 10
4834.127507899648
 20
6393.693182432328
 30
0.0
 11
4849.127507899648
 21
6393.693182432328
 31
0.0
  0
TEXT
  5
155AF
330
15227
100
AcDbEntity
  8
SUNPOU
100
AcDbText
 10
4533.413222185362
 20
6438.693182432328
 30
0.0
 40
90.0
  1
400
 41
0.6666666666666666
  7
00
100
AcDbText
  0
LINE
  5
155B0
330
15227
100
AcDbEntity
  8
SUNPOU
100
AcDbLine
 10
4804.127507899647
 20
6393.693182432328
 30
0.0
 11
4789.127507899648
 21
6393.693182432328
 31
0.0
  0
LINE
  5
155B1
330
15227
100
AcDbEntity
  8
SUNPOU
100
AcDbLine
 10
4434.127507899648
 20
6393.693182432328
 30
0.0
 11
4449.127507899649
 21
6393.693182432328
 31
0.0
  0
TEXT
  5
155B2
330
15227
100
AcDbEntity
  8
SUNPOU
100
AcDbText
 10
8566.848304711026
 20
2405.618908356614
 30
0.0
 40
90.0
  1
800
 50
90.0
 41
0.6666666666666666
  7
00
100
AcDbText
  0
LINE
  5
155B3
330
15227
100
AcDbEntity
  8
SUNPOU
100
AcDbLine
 10
8611.848304711026
 20
1866.333194070897
 30
0.0
 11
8611.848304711026
 21
1881.333194070897
 31
0.0
  0
LINE
  5
155B4
330
15227
100
AcDbEntity
  8
SUNPOU
100
AcDbLine
 10
8611.848304711026
 20
3116.333194070898
 30
0.0
 11
8611.848304711026
 21
3101.333194070897
 31
0.0
  0
ARC
  5
155B5
330
15227
100
AcDbEntity
  8
SUNPOU
100
AcDbCircle
 10
7838.982396145201
 20
3402.7112783133
 30
0.0
 40
7.5
100
AcDbArc
 50
180.0
 51
0.0
  0
ARC
  5
155B6
330
15227
100
AcDbEntity
  8
SUNPOU
100
AcDbCircle
 10
7838.982396145201
 20
3402.7112783133
 30
0.0
 40
7.5
100
AcDbArc
 50
0.0
 51
180.0
  0
ARC
  5
155B7
330
15227
100
AcDbEntity
  8
SUNPOU
100
AcDbCircle
 10
6222.982396145201
 20
3402.7112783133
 30
0.0
 40
7.5
100
AcDbArc
 50
0.0
 51
180.0
  0
ARC
  5
155B8
330
15227
100
AcDbEntity
  8
SUNPOU
100
AcDbCircle
 10
6222.982396145201
 20
3402.7112783133
 30
0.0
 40
7.5
100
AcDbArc
 50
180.0
 51
0.0
  0
TEXT
  5
155B9
330
15227
100
AcDbEntity
  8
SUNPOU
100
AcDbText
 10
6912.410967573769
 20
1405.89849823215
 30
0.0
 40
90.0
  1
1150
 41
0.6666666666666666
  7
00
100
AcDbText
  0
LINE
  5
155BA
330
15227
100
AcDbEntity
  8
SUNPOU
100
AcDbLine
 10
7935.982396145201
 20
1360.898498232149
 30
0.0
 11
7920.9823961452
 21
1360.898498232149
 31
0.0
  0
LINE
  5
155BB
330
15227
100
AcDbEntity
  8
SUNPOU
100
AcDbLine
 10
6125.9823961452
 20
1360.898498232149
 30
0.0
 11
6140.982396145201
 21
1360.898498232149
 31
0.0
  0
ARC
  5
155BC
330
15227
100
AcDbEntity
  8
SUNPOU
100
AcDbCircle
 10
5697.721313588933
 20
1963.333194070895
 30
0.0
 40
7.5
100
AcDbArc
 50
90.0
 51
270.0
  0
ARC
  5
155BD
330
15227
100
AcDbEntity
  8
SUNPOU
100
AcDbCircle
 10
5697.721313588933
 20
1963.333194070895
 30
0.0
 40
7.5
100
AcDbArc
 50
270.0
 51
90.0
  0
ARC
  5
155BE
330
15227
100
AcDbEntity
  8
SUNPOU
100
AcDbCircle
 10
5697.721313588933
 20
3019.333194070897
 30
0.0
 40
7.5
100
AcDbArc
 50
270.0
 51
90.0
  0
ARC
  5
155BF
330
15227
100
AcDbEntity
  8
SUNPOU
100
AcDbCircle
 10
5697.721313588933
 20
3019.333194070897
 30
0.0
 40
7.5
100
AcDbArc
 50
90.0
 51
270.0
  0
TEXT
  5
155C0
330
15227
100
AcDbEntity
  8
SUNPOU
100
AcDbText
 10
3553.169290689375
 20
1615.898498232149
 30
0.0
 40
90.0
  1
300
 41
0.6666666666666666
  7
00
100
AcDbText
  0
LINE
  5
155C1
330
15227
100
AcDbEntity
  8
SUNPOU
100
AcDbLine
 10
3863.883576403662
 20
1570.89849823215
 30
0.0
 11
3848.883576403661
 21
1570.89849823215
 31
0.0
  0
LINE
  5
155C2
330
15227
100
AcDbEntity
  8
SUNPOU
100
AcDbLine
 10
3413.883576403659
 20
1570.89849823215
 30
0.0
 11
3428.88357640366
 21
1570.89849823215
 31
0.0
  0
TEXT
  5
155C3
330
15227
100
AcDbEntity
  8
SUNPOU
100
AcDbText
 10
2633.169290689374
 20
1615.898498232149
 30
0.0
 40
90.0
  1
850
 41
0.6666666666666666
  7
00
100
AcDbText
  0
LINE
  5
155C4
330
15227
100
AcDbEntity
  8
SUNPOU
100
AcDbLine
 10
3383.88357640366
 20
1570.89849823215
 30
0.0
 11
3368.88357640366
 21
1570.89849823215
 31
0.0
  0
LINE
  5
155C5
330
15227
100
AcDbEntity
  8
SUNPOU
100
AcDbLine
 10
2053.883576403659
 20
1570.89849823215
 30
0.0
 11
2068.883576403659
 21
1570.89849823215
 31
0.0
  0
TEXT
  5
155C6
330
15227
100
AcDbEntity
  8
SUNPOU
100
AcDbText
 10
2840.312147832232
 20
1405.89849823215
 30
0.0
 40
90.0
  1
1150
 41
0.6666666666666666
  7
00
100
AcDbText
  0
LINE
  5
155C7
330
15227
100
AcDbEntity
  8
SUNPOU
100
AcDbLine
 10
3863.883576403662
 20
1360.898498232149
 30
0.0
 11
3848.883576403661
 21
1360.898498232149
 31
0.0
  0
LINE
  5
155C8
330
15227
100
AcDbEntity
  8
SUNPOU
100
AcDbLine
 10
2053.883576403659
 20
1360.898498232149
 30
0.0
 11
2068.883576403659
 21
1360.898498232149
 31
0.0
  0
TEXT
  5
155C9
330
15227
100
AcDbEntity
  8
SUNPOU
100
AcDbText
 10
4475.461558243987
 20
2584.171127544112
 30
0.0
 40
90.0
  1
500
 50
90.0
 41
0.6666666666666666
  7
00
100
AcDbText
  0
LINE
  5
155CA
330
15227
100
AcDbEntity
  8
SUNPOU
100
AcDbLine
 10
4520.461558243986
 20
2284.885413258396
 30
0.0
 11
4520.461558243986
 21
2299.885413258396
 31
0.0
  0
LINE
  5
155CB
330
15227
100
AcDbEntity
  8
SUNPOU
100
AcDbLine
 10
4520.461558243986
 20
3054.885413258399
 30
0.0
 11
4520.461558243986
 21
3039.885413258399
 31
0.0
  0
TEXT
  5
155CC
330
15227
100
AcDbEntity
  8
SUNPOU
100
AcDbText
 10
4685.461558243988
 20
1722.028270401252
 30
0.0
 40
90.0
  1
100
 50
90.0
 41
0.6666666666666666
  7
00
100
AcDbText
  0
LINE
  5
155CD
330
15227
100
AcDbEntity
  8
SUNPOU
100
AcDbLine
 10
4730.461558243987
 20
1964.885413258393
 30
0.0
 11
4730.461558243987
 21
1979.885413258393
 31
0.0
  0
LINE
  5
155CE
330
15227
100
AcDbEntity
  8
SUNPOU
100
AcDbLine
 10
4730.461558243988
 20
2094.885413258393
 30
0.0
 11
4730.461558243988
 21
2079.885413258393
 31
0.0
  0
TEXT
  5
155CF
330
15227
100
AcDbEntity
  8
SUNPOU
100
AcDbText
 10
4685.461558243986
 20
2502.742556115541
 30
0.0
 40
90.0
  1
600
 50
90.0
 41
0.6666666666666666
  7
00
100
AcDbText
  0
LINE
  5
155D0
330
15227
100
AcDbEntity
  8
SUNPOU
100
AcDbLine
 10
4730.461558243987
 20
2124.885413258397
 30
0.0
 11
4730.461558243987
 21
2139.885413258397
 31
0.0
  0
LINE
  5
155D1
330
15227
100
AcDbEntity
  8
SUNPOU
100
AcDbLine
 10
4730.461558243987
 20
3054.885413258399
 30
0.0
 11
4730.461558243987
 21
3039.885413258399
 31
0.0
  0
ARC
  5
155D2
330
15227
100
AcDbEntity
  8
SUNPOU
100
AcDbCircle
 10
12419.12750789964
 20
6183.693182432328
 30
0.0
 40
7.5
100
AcDbArc
 50
180.0
 51
0.0
  0
ARC
  5
155D3
330
15227
100
AcDbEntity
  8
SUNPOU
100
AcDbCircle
 10
12419.12750789964
 20
6183.693182432328
 30
0.0
 40
7.5
100
AcDbArc
 50
0.0
 51
180.0
  0
ARC
  5
155D4
330
15227
100
AcDbEntity
  8
SUNPOU
100
AcDbCircle
 10
4419.127507899649
 20
6183.693182432328
 30
0.0
 40
7.5
100
AcDbArc
 50
0.0
 51
180.0
  0
ARC
  5
155D5
330
15227
100
AcDbEntity
  8
SUNPOU
100
AcDbCircle
 10
4419.127507899649
 20
6183.693182432328
 30
0.0
 40
7.5
100
AcDbArc
 50
180.0
 51
0.0
  0
ARC
  5
155D6
330
15227
100
AcDbEntity
  8
SUNPOU
100
AcDbCircle
 10
12869.12750789964
 20
9143.693182432331
 30
0.0
 40
7.5
100
AcDbArc
 50
270.0
 51
90.0
  0
ARC
  5
155D7
330
15227
100
AcDbEntity
  8
SUNPOU
100
AcDbCircle
 10
12869.12750789964
 20
9143.693182432331
 30
0.0
 40
7.5
100
AcDbArc
 50
90.0
 51
270.0
  0
ARC
  5
155D8
330
15227
100
AcDbEntity
  8
SUNPOU
100
AcDbCircle
 10
12869.12750789964
 20
8843.69318243233
 30
0.0
 40
7.5
100
AcDbArc
 50
90.0
 51
270.0
  0
ARC
  5
155D9
330
15227
100
AcDbEntity
  8
SUNPOU
100
AcDbCircle
 10
12869.12750789964
 20
8843.69318243233
 30
0.0
 40
7.5
100
AcDbArc
 50
270.0
 51
90.0
  0
ARC
  5
155DA
330
15227
100
AcDbEntity
  8
SUNPOU
100
AcDbCircle
 10
12869.12750789964
 20
8843.69318243233
 30
0.0
 40
7.5
100
AcDbArc
 50
270.0
 51
90.0
  0
ARC
  5
155DB
330
15227
100
AcDbEntity
  8
SUNPOU
100
AcDbCircle
 10
12869.12750789964
 20
8843.69318243233
 30
0.0
 40
7.5
100
AcDbArc
 50
90.0
 51
270.0
  0
ARC
  5
155DC
330
15227
100
AcDbEntity
  8
SUNPOU
100
AcDbCircle
 10
12869.12750789964
 20
7993.69318243233
 30
0.0
 40
7.5
100
AcDbArc
 50
90.0
 51
270.0
  0
ARC
  5
155DD
330
15227
100
AcDbEntity
  8
SUNPOU
100
AcDbCircle
 10
12869.12750789964
 20
7993.69318243233
 30
0.0
 40
7.5
100
AcDbArc
 50
270.0
 51
90.0
  0
ARC
  5
155DE
330
15227
100
AcDbEntity
  8
SUNPOU
100
AcDbCircle
 10
13079.12750789964
 20
7993.69318243233
 30
0.0
 40
7.5
100
AcDbArc
 50
90.0
 51
270.0
  0
ARC
  5
155DF
330
15227
100
AcDbEntity
  8
SUNPOU
100
AcDbCircle
 10
13079.12750789964
 20
7993.69318243233
 30
0.0
 40
7.5
100
AcDbArc
 50
270.0
 51
90.0
  0
ARC
  5
155E0
330
15227
100
AcDbEntity
  8
SUNPOU
100
AcDbCircle
 10
13079.12750789964
 20
9143.693182432331
 30
0.0
 40
7.5
100
AcDbArc
 50
270.0
 51
90.0
  0
ARC
  5
155E1
330
15227
100
AcDbEntity
  8
SUNPOU
100
AcDbCircle
 10
13079.12750789964
 20
9143.693182432331
 30
0.0
 40
7.5
100
AcDbArc
 50
90.0
 51
270.0
  0
ARC
  5
155E2
330
15227
100
AcDbEntity
  8
SUNPOU
100
AcDbCircle
 10
12419.12750789964
 20
9443.693182432332
 30
0.0
 40
7.5
100
AcDbArc
 50
180.0
 51
0.0
  0
ARC
  5
155E3
330
15227
100
AcDbEntity
  8
SUNPOU
100
AcDbCircle
 10
12419.12750789964
 20
9443.693182432332
 30
0.0
 40
7.5
100
AcDbArc
 50
0.0
 51
180.0
  0
ARC
  5
155E4
330
15227
100
AcDbEntity
  8
SUNPOU
100
AcDbCircle
 10
11619.12750789964
 20
9443.693182432332
 30
0.0
 40
7.5
100
AcDbArc
 50
0.0
 51
180.0
  0
ARC
  5
155E5
330
15227
100
AcDbEntity
  8
SUNPOU
100
AcDbCircle
 10
11619.12750789964
 20
9443.693182432332
 30
0.0
 40
7.5
100
AcDbArc
 50
180.0
 51
0.0
  0
ARC
  5
155E6
330
15227
100
AcDbEntity
  8
SUNPOU
100
AcDbCircle
 10
3969.127507899647
 20
9083.693182432327
 30
0.0
 40
7.5
100
AcDbArc
 50
90.0
 51
270.0
  0
ARC
  5
155E7
330
15227
100
AcDbEntity
  8
SUNPOU
100
AcDbCircle
 10
3969.127507899647
 20
9083.693182432327
 30
0.0
 40
7.5
100
AcDbArc
 50
270.0
 51
90.0
  0
ARC
  5
155E8
330
15227
100
AcDbEntity
  8
SUNPOU
100
AcDbCircle
 10
3969.127507899647
 20
8843.693182432332
 30
0.0
 40
7.5
100
AcDbArc
 50
270.0
 51
90.0
  0
ARC
  5
155E9
330
15227
100
AcDbEntity
  8
SUNPOU
100
AcDbCircle
 10
3969.127507899647
 20
8843.693182432332
 30
0.0
 40
7.5
100
AcDbArc
 50
90.0
 51
270.0
  0
ARC
  5
155EA
330
15227
100
AcDbEntity
  8
SUNPOU
100
AcDbCircle
 10
3969.127507899647
 20
8843.693182432332
 30
0.0
 40
7.5
100
AcDbArc
 50
270.0
 51
90.0
  0
ARC
  5
155EB
330
15227
100
AcDbEntity
  8
SUNPOU
100
AcDbCircle
 10
3969.127507899647
 20
8843.693182432332
 30
0.0
 40
7.5
100
AcDbArc
 50
90.0
 51
270.0
  0
ARC
  5
155EC
330
15227
100
AcDbEntity
  8
SUNPOU
100
AcDbCircle
 10
3969.127507899647
 20
6843.693182432328
 30
0.0
 40
7.5
100
AcDbArc
 50
90.0
 51
270.0
  0
ARC
  5
155ED
330
15227
100
AcDbEntity
  8
SUNPOU
100
AcDbCircle
 10
3969.127507899647
 20
6843.693182432328
 30
0.0
 40
7.5
100
AcDbArc
 50
270.0
 51
90.0
  0
ARC
  5
155EE
330
15227
100
AcDbEntity
  8
SUNPOU
100
AcDbCircle
 10
12419.12750789964
 20
6393.693182432328
 30
0.0
 40
7.5
100
AcDbArc
 50
180.0
 51
0.0
  0
ARC
  5
155EF
330
15227
100
AcDbEntity
  8
SUNPOU
100
AcDbCircle
 10
12419.12750789964
 20
6393.693182432328
 30
0.0
 40
7.5
100
AcDbArc
 50
0.0
 51
180.0
  0
ARC
  5
155F0
330
15227
100
AcDbEntity
  8
SUNPOU
100
AcDbCircle
 10
12019.12750789964
 20
6393.693182432328
 30
0.0
 40
7.5
100
AcDbArc
 50
0.0
 51
180.0
  0
ARC
  5
155F1
330
15227
100
AcDbEntity
  8
SUNPOU
100
AcDbCircle
 10
12019.12750789964
 20
6393.693182432328
 30
0.0
 40
7.5
100
AcDbArc
 50
180.0
 51
0.0
  0
ARC
  5
155F2
330
15227
100
AcDbEntity
  8
SUNPOU
100
AcDbCircle
 10
12019.12750789964
 20
6393.693182432328
 30
0.0
 40
7.5
100
AcDbArc
 50
180.0
 51
0.0
  0
ARC
  5
155F3
330
15227
100
AcDbEntity
  8
SUNPOU
100
AcDbCircle
 10
12019.12750789964
 20
6393.693182432328
 30
0.0
 40
7.5
100
AcDbArc
 50
0.0
 51
180.0
  0
ARC
  5
155F4
330
15227
100
AcDbEntity
  8
SUNPOU
100
AcDbCircle
 10
9619.127507899644
 20
6393.693182432328
 30
0.0
 40
7.5
100
AcDbArc
 50
0.0
 51
180.0
  0
ARC
  5
155F5
330
15227
100
AcDbEntity
  8
SUNPOU
100
AcDbCircle
 10
9619.127507899644
 20
6393.693182432328
 30
0.0
 40
7.5
100
AcDbArc
 50
180.0
 51
0.0
  0
ARC
  5
155F6
330
15227
100
AcDbEntity
  8
SUNPOU
100
AcDbCircle
 10
9619.127507899644
 20
6393.693182432328
 30
0.0
 40
7.5
100
AcDbArc
 50
180.0
 51
0.0
  0
ARC
  5
155F7
330
15227
100
AcDbEntity
  8
SUNPOU
100
AcDbCircle
 10
9619.127507899644
 20
6393.693182432328
 30
0.0
 40
7.5
100
AcDbArc
 50
0.0
 51
180.0
  0
ARC
  5
155F8
330
15227
100
AcDbEntity
  8
SUNPOU
100
AcDbCircle
 10
7219.127507899648
 20
6393.693182432328
 30
0.0
 40
7.5
100
AcDbArc
 50
0.0
 51
180.0
  0
ARC
  5
155F9
330
15227
100
AcDbEntity
  8
SUNPOU
100
AcDbCircle
 10
7219.127507899648
 20
6393.693182432328
 30
0.0
 40
7.5
100
AcDbArc
 50
180.0
 51
0.0
  0
ARC
  5
155FA
330
15227
100
AcDbEntity
  8
SUNPOU
100
AcDbCircle
 10
7219.127507899648
 20
6393.693182432328
 30
0.0
 40
7.5
100
AcDbArc
 50
180.0
 51
0.0
  0
ARC
  5
155FB
330
15227
100
AcDbEntity
  8
SUNPOU
100
AcDbCircle
 10
7219.127507899648
 20
6393.693182432328
 30
0.0
 40
7.5
100
AcDbArc
 50
0.0
 51
180.0
  0
ARC
  5
155FC
330
15227
100
AcDbEntity
  8
SUNPOU
100
AcDbCircle
 10
4819.127507899647
 20
6393.693182432328
 30
0.0
 40
7.5
100
AcDbArc
 50
0.0
 51
180.0
  0
ARC
  5
155FD
330
15227
100
AcDbEntity
  8
SUNPOU
100
AcDbCircle
 10
4819.127507899647
 20
6393.693182432328
 30
0.0
 40
7.5
100
AcDbArc
 50
180.0
 51
0.0
  0
ARC
  5
155FE
330
15227
100
AcDbEntity
  8
SUNPOU
100
AcDbCircle
 10
4819.127507899647
 20
6393.693182432328
 30
0.0
 40
7.5
100
AcDbArc
 50
180.0
 51
0.0
  0
ARC
  5
155FF
330
15227
100
AcDbEntity
  8
SUNPOU
100
AcDbCircle
 10
4819.127507899647
 20
6393.693182432328
 30
0.0
 40
7.5
100
AcDbArc
 50
0.0
 51
180.0
  0
ARC
  5
15600
330
15227
100
AcDbEntity
  8
SUNPOU
100
AcDbCircle
 10
4419.127507899649
 20
6393.693182432328
 30
0.0
 40
7.5
100
AcDbArc
 50
0.0
 51
180.0
  0
ARC
  5
15601
330
15227
100
AcDbEntity
  8
SUNPOU
100
AcDbCircle
 10
4419.127507899649
 20
6393.693182432328
 30
0.0
 40
7.5
100
AcDbArc
 50
180.0
 51
0.0
  0
ARC
  5
15602
330
15227
100
AcDbEntity
  8
SUNPOU
100
AcDbCircle
 10
8611.848304711026
 20
1851.333194070897
 30
0.0
 40
7.5
100
AcDbArc
 50
90.0
 51
270.0
  0
ARC
  5
15603
330
15227
100
AcDbEntity
  8
SUNPOU
100
AcDbCircle
 10
8611.848304711026
 20
1851.333194070897
 30
0.0
 40
7.5
100
AcDbArc
 50
270.0
 51
90.0
  0
ARC
  5
15604
330
15227
100
AcDbEntity
  8
SUNPOU
100
AcDbCircle
 10
8611.848304711026
 20
3131.333194070897
 30
0.0
 40
7.5
100
AcDbArc
 50
270.0
 51
90.0
  0
ARC
  5
15605
330
15227
100
AcDbEntity
  8
SUNPOU
100
AcDbCircle
 10
8611.848304711026
 20
3131.333194070897
 30
0.0
 40
7.5
100
AcDbArc
 50
90.0
 51
270.0
  0
ARC
  5
15606
330
15227
100
AcDbEntity
  8
SUNPOU
100
AcDbCircle
 10
7950.982396145197
 20
1360.898498232149
 30
0.0
 40
7.5
100
AcDbArc
 50
180.0
 51
0.0
  0
ARC
  5
15607
330
15227
100
AcDbEntity
  8
SUNPOU
100
AcDbCircle
 10
7950.982396145197
 20
1360.898498232149
 30
0.0
 40
7.5
100
AcDbArc
 50
0.0
 51
180.0
  0
ARC
  5
15608
330
15227
100
AcDbEntity
  8
SUNPOU
100
AcDbCircle
 10
6110.9823961452
 20
1360.898498232149
 30
0.0
 40
7.5
100
AcDbArc
 50
0.0
 51
180.0
  0
ARC
  5
15609
330
15227
100
AcDbEntity
  8
SUNPOU
100
AcDbCircle
 10
6110.9823961452
 20
1360.898498232149
 30
0.0
 40
7.5
100
AcDbArc
 50
180.0
 51
0.0
  0
ARC
  5
1560A
330
15227
100
AcDbEntity
  8
SUNPOU
100
AcDbCircle
 10
3878.88357640366
 20
1570.89849823215
 30
0.0
 40
7.5
100
AcDbArc
 50
180.0
 51
0.0
  0
ARC
  5
1560B
330
15227
100
AcDbEntity
  8
SUNPOU
100
AcDbCircle
 10
3878.88357640366
 20
1570.89849823215
 30
0.0
 40
7.5
100
AcDbArc
 50
0.0
 51
180.0
  0
ARC
  5
1560C
330
15227
100
AcDbEntity
  8
SUNPOU
100
AcDbCircle
 10
3398.88357640366
 20
1570.89849823215
 30
0.0
 40
7.5
100
AcDbArc
 50
0.0
 51
180.0
  0
ARC
  5
1560D
330
15227
100
AcDbEntity
  8
SUNPOU
100
AcDbCircle
 10
3398.88357640366
 20
1570.89849823215
 30
0.0
 40
7.5
100
AcDbArc
 50
180.0
 51
0.0
  0
ARC
  5
1560E
330
15227
100
AcDbEntity
  8
SUNPOU
100
AcDbCircle
 10
3398.88357640366
 20
1570.89849823215
 30
0.0
 40
7.5
100
AcDbArc
 50
180.0
 51
0.0
  0
ARC
  5
1560F
330
15227
100
AcDbEntity
  8
SUNPOU
100
AcDbCircle
 10
3398.88357640366
 20
1570.89849823215
 30
0.0
 40
7.5
100
AcDbArc
 50
0.0
 51
180.0
  0
ARC
  5
15610
330
15227
100
AcDbEntity
  8
SUNPOU
100
AcDbCircle
 10
2038.883576403661
 20
1570.89849823215
 30
0.0
 40
7.5
100
AcDbArc
 50
0.0
 51
180.0
  0
ARC
  5
15611
330
15227
100
AcDbEntity
  8
SUNPOU
100
AcDbCircle
 10
2038.883576403661
 20
1570.89849823215
 30
0.0
 40
7.5
100
AcDbArc
 50
180.0
 51
0.0
  0
ARC
  5
15612
330
15227
100
AcDbEntity
  8
SUNPOU
100
AcDbCircle
 10
3878.88357640366
 20
1360.898498232149
 30
0.0
 40
7.5
100
AcDbArc
 50
180.0
 51
0.0
  0
ARC
  5
15613
330
15227
100
AcDbEntity
  8
SUNPOU
100
AcDbCircle
 10
3878.88357640366
 20
1360.898498232149
 30
0.0
 40
7.5
100
AcDbArc
 50
0.0
 51
180.0
  0
ARC
  5
15614
330
15227
100
AcDbEntity
  8
SUNPOU
100
AcDbCircle
 10
2038.883576403661
 20
1360.898498232149
 30
0.0
 40
7.5
100
AcDbArc
 50
0.0
 51
180.0
  0
ARC
  5
15615
330
15227
100
AcDbEntity
  8
SUNPOU
100
AcDbCircle
 10
2038.883576403661
 20
1360.898498232149
 30
0.0
 40
7.5
100
AcDbArc
 50
180.0
 51
0.0
  0
ARC
  5
15616
330
15227
100
AcDbEntity
  8
SUNPOU
100
AcDbCircle
 10
4520.461558243986
 20
2269.885413258396
 30
0.0
 40
7.5
100
AcDbArc
 50
90.0
 51
270.0
  0
ARC
  5
15617
330
15227
100
AcDbEntity
  8
SUNPOU
100
AcDbCircle
 10
4520.461558243986
 20
2269.885413258396
 30
0.0
 40
7.5
100
AcDbArc
 50
270.0
 51
90.0
  0
ARC
  5
15618
330
15227
100
AcDbEntity
  8
SUNPOU
100
AcDbCircle
 10
4520.461558243986
 20
3069.885413258399
 30
0.0
 40
7.5
100
AcDbArc
 50
270.0
 51
90.0
  0
ARC
  5
15619
330
15227
100
AcDbEntity
  8
SUNPOU
100
AcDbCircle
 10
4520.461558243986
 20
3069.885413258399
 30
0.0
 40
7.5
100
AcDbArc
 50
90.0
 51
270.0
  0
ARC
  5
1561A
330
15227
100
AcDbEntity
  8
SUNPOU
100
AcDbCircle
 10
4730.461558243987
 20
1949.885413258393
 30
0.0
 40
7.5
100
AcDbArc
 50
90.0
 51
270.0
  0
ARC
  5
1561B
330
15227
100
AcDbEntity
  8
SUNPOU
100
AcDbCircle
 10
4730.461558243987
 20
1949.885413258393
 30
0.0
 40
7.5
100
AcDbArc
 50
270.0
 51
90.0
  0
ARC
  5
1561C
330
15227
100
AcDbEntity
  8
SUNPOU
100
AcDbCircle
 10
4730.461558243988
 20
2109.885413258393
 30
0.0
 40
7.5
100
AcDbArc
 50
270.0
 51
90.0
  0
ARC
  5
1561D
330
15227
100
AcDbEntity
  8
SUNPOU
100
AcDbCircle
 10
4730.461558243988
 20
2109.885413258393
 30
0.0
 40
7.5
100
AcDbArc
 50
90.0
 51
270.0
  0
ARC
  5
1561E
330
15227
100
AcDbEntity
  8
SUNPOU
100
AcDbCircle
 10
4730.461558243987
 20
2109.885413258397
 30
0.0
 40
7.5
100
AcDbArc
 50
90.0
 51
270.0
  0
ARC
  5
1561F
330
15227
100
AcDbEntity
  8
SUNPOU
100
AcDbCircle
 10
4730.461558243987
 20
2109.885413258397
 30
0.0
 40
7.5
100
AcDbArc
 50
270.0
 51
90.0
  0
ARC
  5
15620
330
15227
100
AcDbEntity
  8
SUNPOU
100
AcDbCircle
 10
4730.461558243987
 20
3069.885413258399
 30
0.0
 40
7.5
100
AcDbArc
 50
270.0
 51
90.0
  0
ARC
  5
15621
330
15227
100
AcDbEntity
  8
SUNPOU
100
AcDbCircle
 10
4730.461558243987
 20
3069.885413258399
 30
0.0
 40
7.5
100
AcDbArc
 50
90.0
 51
270.0
  0
ARC
  5
15622
330
15227
100
AcDbEntity
  8
HIKIDASHI
100
AcDbCircle
 10
1758.665039113483
 20
1678.887791038416
 30
0.0
 40
75.00000000001334
100
AcDbArc
 50
301.7712278330566
 51
15.14038701489555
  0
ARC
  5
15623
330
15227
100
AcDbEntity
  8
HIKIDASHI
100
AcDbCircle
 10
1822.374097600764
 20
1696.12600053555
 30
0.0
 40
8.999999999992393
100
AcDbArc
 50
15.14038701505989
 51
164.8596129849878
  0
ARC
  5
15624
330
15227
100
AcDbEntity
  8
HIKIDASHI
100
AcDbCircle
 10
1886.083156088022
 20
1678.887791038392
 30
0.0
 40
74.9999999999988
100
AcDbArc
 50
164.8596129850878
 51
238.2287721669167
  0
LINE
  5
15625
330
15227
100
AcDbEntity
  8
HIKIDASHI
100
AcDbLine
 10
12078.48719050568
 20
8930.336881458343
 30
0.0
 11
12047.6913740713
 21
8877.881017247176
 31
0.0
  0
LINE
  5
15626
330
15227
100
AcDbEntity
  8
HIKIDASHI
100
AcDbLine
 10
12047.6913740713
 20
8877.881017247176
 30
0.0
 11
12093.83526449663
 21
8917.513596981725
 31
0.0
  0
SOLID
  5
15627
330
15227
100
AcDbEntity
  8
HIKIDASHI
100
AcDbTrace
 10
12078.48719050568
 20
8930.336881458343
 30
0.0
 11
12093.83526449663
 21
8917.513596981725
 31
0.0
 12
12047.6913740713
 22
8877.881017247176
 32
0.0
 13
12047.6913740713
 23
8877.881017247176
 33
0.0
  0
LINE
  5
15628
330
15227
100
AcDbEntity
  8
HIKIDASHI
100
AcDbLine
 10
12093.83526449663
 20
8917.513596981725
 30
0.0
 11
12078.48719050568
 21
8930.336881458343
 31
0.0
  0
LINE
  5
15629
330
15227
100
AcDbEntity
  8
HIKIDASHI
100
AcDbLine
 10
3172.41160272911
 20
2398.008925805258
 30
0.0
 11
1853.456509507222
 21
1570.89849823215
 31
0.0
1001
ACAD
1000
DSTYLE
1002
{
1070
   147
1040
1.125
1070
    77
1070
     0
1002
}
  0
LINE
  5
1562A
330
15227
100
AcDbEntity
  8
HIKIDASHI
100
AcDbLine
 10
3177.724350637967
 20
2389.536930192833
 30
0.0
 11
3223.243576403659
 21
2429.885413258396
 31
0.0
  0
LINE
  5
1562B
330
15227
100
AcDbEntity
  8
HIKIDASHI
100
AcDbLine
 10
3223.243576403659
 20
2429.885413258396
 30
0.0
 11
3167.098854820254
 21
2406.480921417682
 31
0.0
  0
SOLID
  5
1562C
330
15227
100
AcDbEntity
  8
HIKIDASHI
100
AcDbTrace
 10
3177.724350637967
 20
2389.536930192833
 30
0.0
 11
3167.098854820254
 21
2406.480921417682
 31
0.0
 12
3223.243576403659
 22
2429.885413258396
 32
0.0
 13
3223.243576403659
 23
2429.885413258396
 33
0.0
  0
LINE
  5
1562D
330
15227
100
AcDbEntity
  8
HIKIDASHI
100
AcDbLine
 10
3167.098854820254
 20
2406.480921417682
 30
0.0
 11
3177.724350637967
 21
2389.536930192833
 31
0.0
  0
LINE
  5
1562E
330
15227
100
AcDbEntity
  8
HIKIDASHI
100
AcDbLine
 10
3593.67613593
 20
2439.970209002413
 30
0.0
 11
4180.954574982387
 21
1237.31409672427
 31
0.0
1001
ACAD
1000
DSTYLE
1002
{
1070
   147
1040
1.125
1070
    77
1070
     0
1002
}
  0
LINE
  5
1562F
330
15227
100
AcDbEntity
  8
HIKIDASHI
100
AcDbLine
 10
3602.662003305997
 20
2444.358168380188
 30
0.0
 11
3567.348379663359
 21
2493.885413258396
 31
0.0
  0
LINE
  5
15630
330
15227
100
AcDbEntity
  8
HIKIDASHI
100
AcDbLine
 10
3567.348379663359
 20
2493.885413258396
 30
0.0
 11
3584.690268554003
 21
2435.582249624641
 31
0.0
  0
SOLID
  5
15631
330
15227
100
AcDbEntity
  8
HIKIDASHI
100
AcDbTrace
 10
3602.662003305997
 20
2444.358168380188
 30
0.0
 11
3584.690268554003
 21
2435.582249624641
 31
0.0
 12
3567.348379663359
 22
2493.885413258396
 32
0.0
 13
3567.348379663359
 23
2493.885413258396
 33
0.0
  0
LINE
  5
15632
330
15227
100
AcDbEntity
  8
HIKIDASHI
100
AcDbLine
 10
3584.690268554003
 20
2435.582249624641
 30
0.0
 11
3602.662003305997
 21
2444.358168380188
 31
0.0
  0
LINE
  5
15633
330
15227
100
AcDbEntity
  8
HIKIDASHI
100
AcDbLine
 10
3744.737756506792
 20
2522.121452936647
 30
0.0
 11
4257.870183818879
 21
1447.518112960122
 31
0.0
1001
ACAD
1000
DSTYLE
1002
{
1070
   147
1040
1.125
1070
    77
1070
     0
1002
}
  0
LINE
  5
15634
330
15227
100
AcDbEntity
  8
HIKIDASHI
100
AcDbLine
 10
3753.76173901514
 20
2526.430482953836
 30
0.0
 11
3718.883576403658
 21
2576.265347986733
 31
0.0
  0
LINE
  5
15635
330
15227
100
AcDbEntity
  8
HIKIDASHI
100
AcDbLine
 10
3718.883576403658
 20
2576.265347986733
 30
0.0
 11
3735.713773998442
 21
2517.812422919458
 31
0.0
  0
SOLID
  5
15636
330
15227
100
AcDbEntity
  8
HIKIDASHI
100
AcDbTrace
 10
3753.76173901514
 20
2526.430482953836
 30
0.0
 11
3735.713773998442
 21
2517.812422919458
 31
0.0
 12
3718.883576403658
 22
2576.265347986733
 32
0.0
 13
3718.883576403658
 23
2576.265347986733
 33
0.0
  0
LINE
  5
15637
330
15227
100
AcDbEntity
  8
HIKIDASHI
100
AcDbLine
 10
3735.713773998442
 20
2517.812422919458
 30
0.0
 11
3753.76173901514
 21
2526.430482953836
 31
0.0
  0
LINE
  5
15638
330
15227
100
AcDbEntity
  8
HATCH
100
AcDbLine
 10
1959.370171192319
 20
1949.885413258392
 30
0.0
 11
2051.746214262655
 21
2109.885413258382
 31
0.0
  0
LINE
  5
15639
330
15227
100
AcDbEntity
  8
HATCH
100
AcDbLine
 10
1987.746214262658
 20
2109.885413258381
 30
0.0
 11
2019.746214262656
 21
2054.459787416185
 31
0.0
  0
LINE
  5
1563A
330
15227
100
AcDbEntity
  8
HATCH
100
AcDbLine
 10
1991.370171192317
 20
2005.311039100595
 30
0.0
 11
2023.370171192316
 21
1949.885413258392
 31
0.0
  0
LINE
  5
1563B
330
15227
100
AcDbEntity
  8
HATCH
100
AcDbLine
 10
3623.386624277169
 20
1949.885413258392
 30
0.0
 11
3715.762667347505
 21
2109.885413258382
 31
0.0
  0
LINE
  5
1563C
330
15227
100
AcDbEntity
  8
HATCH
100
AcDbLine
 10
3651.762667347508
 20
2109.885413258381
 30
0.0
 11
3683.762667347506
 21
2054.459787416185
 31
0.0
  0
LINE
  5
1563D
330
15227
100
AcDbEntity
  8
HATCH
100
AcDbLine
 10
3655.386624277169
 20
2005.311039100595
 30
0.0
 11
3687.386624277166
 21
1949.885413258392
 31
0.0
  0
LINE
  5
1563E
330
15227
100
AcDbEntity
  8
HATCH
100
AcDbLine
 10
3415.384567641563
 20
1949.885413258392
 30
0.0
 11
3507.760610711899
 21
2109.885413258382
 31
0.0
  0
LINE
  5
1563F
330
15227
100
AcDbEntity
  8
HATCH
100
AcDbLine
 10
3443.760610711903
 20
2109.885413258381
 30
0.0
 11
3475.760610711901
 21
2054.459787416185
 31
0.0
  0
LINE
  5
15640
330
15227
100
AcDbEntity
  8
HATCH
100
AcDbLine
 10
3447.384567641563
 20
2005.311039100595
 30
0.0
 11
3479.384567641561
 21
1949.885413258392
 31
0.0
  0
LINE
  5
15641
330
15227
100
AcDbEntity
  8
HATCH
100
AcDbLine
 10
3831.388680912777
 20
1949.885413258392
 30
0.0
 11
3923.764723983111
 21
2109.885413258382
 31
0.0
  0
LINE
  5
15642
330
15227
100
AcDbEntity
  8
HATCH
100
AcDbLine
 10
3859.764723983115
 20
2109.885413258381
 30
0.0
 11
3891.764723983114
 21
2054.459787416185
 31
0.0
  0
LINE
  5
15643
330
15227
100
AcDbEntity
  8
HATCH
100
AcDbLine
 10
3863.388680912775
 20
2005.311039100595
 30
0.0
 11
3895.388680912772
 21
1949.885413258392
 31
0.0
  0
LINE
  5
15644
330
15227
100
AcDbEntity
  8
HATCH
100
AcDbLine
 10
2583.376341099139
 20
1949.885413258392
 30
0.0
 11
2675.752384169475
 21
2109.885413258382
 31
0.0
  0
LINE
  5
15645
330
15227
100
AcDbEntity
  8
HATCH
100
AcDbLine
 10
2611.752384169477
 20
2109.885413258381
 30
0.0
 11
2643.752384169476
 21
2054.459787416185
 31
0.0
  0
LINE
  5
15646
330
15227
100
AcDbEntity
  8
HATCH
100
AcDbLine
 10
2615.376341099137
 20
2005.311039100595
 30
0.0
 11
2647.376341099135
 21
1949.885413258392
 31
0.0
  0
LINE
  5
15647
330
15227
100
AcDbEntity
  8
HATCH
100
AcDbLine
 10
2791.378397734743
 20
1949.885413258392
 30
0.0
 11
2883.754440805078
 21
2109.885413258382
 31
0.0
  0
LINE
  5
15648
330
15227
100
AcDbEntity
  8
HATCH
100
AcDbLine
 10
2819.754440805081
 20
2109.885413258381
 30
0.0
 11
2851.75444080508
 21
2054.459787416185
 31
0.0
  0
LINE
  5
15649
330
15227
100
AcDbEntity
  8
HATCH
100
AcDbLine
 10
2823.378397734741
 20
2005.311039100595
 30
0.0
 11
2855.378397734739
 21
1949.885413258392
 31
0.0
  0
LINE
  5
1564A
330
15227
100
AcDbEntity
  8
HATCH
100
AcDbLine
 10
2999.380454370349
 20
1949.885413258392
 30
0.0
 11
3091.756497440684
 21
2109.885413258382
 31
0.0
  0
LINE
  5
1564B
330
15227
100
AcDbEntity
  8
HATCH
100
AcDbLine
 10
3027.756497440689
 20
2109.885413258381
 30
0.0
 11
3059.756497440687
 21
2054.459787416185
 31
0.0
  0
LINE
  5
1564C
330
15227
100
AcDbEntity
  8
HATCH
100
AcDbLine
 10
3031.380454370347
 20
2005.311039100595
 30
0.0
 11
3063.380454370345
 21
1949.885413258392
 31
0.0
  0
LINE
  5
1564D
330
15227
100
AcDbEntity
  8
HATCH
100
AcDbLine
 10
3207.382511005956
 20
1949.885413258392
 30
0.0
 11
3299.75855407629
 21
2109.885413258382
 31
0.0
  0
LINE
  5
1564E
330
15227
100
AcDbEntity
  8
HATCH
100
AcDbLine
 10
3235.758554076295
 20
2109.885413258381
 30
0.0
 11
3267.758554076293
 21
2054.459787416185
 31
0.0
  0
LINE
  5
1564F
330
15227
100
AcDbEntity
  8
HATCH
100
AcDbLine
 10
3239.382511005955
 20
2005.311039100595
 30
0.0
 11
3271.382511005953
 21
1949.885413258392
 31
0.0
  0
LINE
  5
15650
330
15227
100
AcDbEntity
  8
HATCH
100
AcDbLine
 10
1926.883576403661
 20
2829.885413258395
 30
0.0
 11
1982.309202245868
 21
2925.885413258399
 31
0.0
  0
LINE
  5
15651
330
15227
100
AcDbEntity
  8
HATCH
100
AcDbLine
 10
1943.909202245866
 20
2925.885413258399
 30
0.0
 11
1963.109202245868
 21
2892.630037753077
 31
0.0
  0
LINE
  5
15652
330
15227
100
AcDbEntity
  8
HATCH
100
AcDbLine
 10
1946.083576403663
 20
2863.14078876372
 30
0.0
 11
1965.283576403664
 21
2829.885413258395
 31
0.0
  0
LINE
  5
15653
330
15227
100
AcDbEntity
  8
HATCH
100
AcDbLine
 10
1782.883576403663
 20
2829.885413258395
 30
0.0
 11
1838.309202245869
 21
2925.885413258399
 31
0.0
  0
LINE
  5
15654
330
15227
100
AcDbEntity
  8
HATCH
100
AcDbLine
 10
1799.909202245868
 20
2925.885413258399
 30
0.0
 11
1819.109202245869
 21
2892.630037753077
 31
0.0
  0
LINE
  5
15655
330
15227
100
AcDbEntity
  8
HATCH
100
AcDbLine
 10
1802.083576403664
 20
2863.14078876372
 30
0.0
 11
1821.283576403664
 21
2829.885413258395
 31
0.0
  0
LINE
  5
15656
330
15227
100
AcDbEntity
  8
HATCH
100
AcDbLine
 10
1494.883576403662
 20
2829.885413258395
 30
0.0
 11
1550.309202245869
 21
2925.885413258399
 31
0.0
  0
LINE
  5
15657
330
15227
100
AcDbEntity
  8
HATCH
100
AcDbLine
 10
1511.909202245866
 20
2925.885413258399
 30
0.0
 11
1531.109202245867
 21
2892.630037753077
 31
0.0
  0
LINE
  5
15658
330
15227
100
AcDbEntity
  8
HATCH
100
AcDbLine
 10
1514.083576403663
 20
2863.14078876372
 30
0.0
 11
1533.283576403664
 21
2829.885413258395
 31
0.0
  0
LINE
  5
15659
330
15227
100
AcDbEntity
  8
HATCH
100
AcDbLine
 10
1638.883576403662
 20
2829.885413258395
 30
0.0
 11
1694.309202245869
 21
2925.885413258399
 31
0.0
  0
LINE
  5
1565A
330
15227
100
AcDbEntity
  8
HATCH
100
AcDbLine
 10
1655.909202245866
 20
2925.885413258399
 30
0.0
 11
1675.109202245868
 21
2892.630037753077
 31
0.0
  0
LINE
  5
1565B
330
15227
100
AcDbEntity
  8
HATCH
100
AcDbLine
 10
1658.083576403663
 20
2863.14078876372
 30
0.0
 11
1677.283576403663
 21
2829.885413258395
 31
0.0
  0
LINE
  5
1565C
330
15227
100
AcDbEntity
  8
HATCH
100
AcDbLine
 10
2167.372227827927
 20
1949.885413258392
 30
0.0
 11
2259.748270898262
 21
2109.885413258382
 31
0.0
  0
LINE
  5
1565D
330
15227
100
AcDbEntity
  8
HATCH
100
AcDbLine
 10
2195.748270898265
 20
2109.885413258381
 30
0.0
 11
2227.748270898262
 21
2054.459787416185
 31
0.0
  0
LINE
  5
1565E
330
15227
100
AcDbEntity
  8
HATCH
100
AcDbLine
 10
2199.372227827924
 20
2005.311039100595
 30
0.0
 11
2231.372227827923
 21
1949.885413258392
 31
0.0
  0
LINE
  5
1565F
330
15227
100
AcDbEntity
  8
HATCH
100
AcDbLine
 10
2375.37428446353
 20
1949.885413258392
 30
0.0
 11
2467.750327533865
 21
2109.885413258382
 31
0.0
  0
LINE
  5
15660
330
15227
100
AcDbEntity
  8
HATCH
100
AcDbLine
 10
2403.750327533869
 20
2109.885413258381
 30
0.0
 11
2435.750327533868
 21
2054.459787416185
 31
0.0
  0
LINE
  5
15661
330
15227
100
AcDbEntity
  8
HATCH
100
AcDbLine
 10
2407.374284463529
 20
2005.311039100595
 30
0.0
 11
2439.374284463526
 21
1949.885413258392
 31
0.0
  0
LINE
  5
15662
330
15227
100
AcDbEntity
  8
KISO
100
AcDbLine
 10
6110.9823961452
 20
1851.333194070897
 30
0.0
 11
7950.982396145197
 21
1851.333194070897
 31
0.0
  0
LINE
  5
15663
330
15227
100
AcDbEntity
  8
KISO
100
AcDbLine
 10
7950.982396145197
 20
1851.333194070897
 30
0.0
 11
7950.982396145197
 21
3131.333194070897
 31
0.0
  0
LINE
  5
15664
330
15227
100
AcDbEntity
  8
KISO
100
AcDbLine
 10
7950.982396145197
 20
3131.333194070897
 30
0.0
 11
6110.9823961452
 21
3131.333194070897
 31
0.0
  0
LINE
  5
15665
330
15227
100
AcDbEntity
  8
KISO
100
AcDbLine
 10
6110.9823961452
 20
3131.333194070897
 30
0.0
 11
6110.9823961452
 21
1851.333194070897
 31
0.0
  0
LINE
  5
15666
330
15227
100
AcDbEntity
  8
1PL-M1
100
AcDbLine
 10
3398.88357640366
 20
1525.898498232149
 30
0.0
 11
3398.88357640366
 21
3497.085413258395
 31
0.0
  0
LINE
  5
15667
330
15227
100
AcDbEntity
  8
KISO-1
100
AcDbLine
 10
10019.12750789964
 20
7993.69318243233
 30
0.0
 11
9219.127507899646
 21
7993.69318243233
 31
0.0
  0
LINE
  5
15668
330
15227
100
AcDbEntity
  8
KISO-1
100
AcDbLine
 10
9219.127507899646
 20
7993.69318243233
 30
0.0
 11
9219.127507899646
 21
9143.693182432331
 31
0.0
  0
LINE
  5
15669
330
15227
100
AcDbEntity
  8
KISO-1
100
AcDbLine
 10
9219.127507899646
 20
9143.693182432331
 30
0.0
 11
10019.12750789964
 21
9143.693182432331
 31
0.0
  0
LINE
  5
1566A
330
15227
100
AcDbEntity
  8
KISO-1
100
AcDbLine
 10
10019.12750789964
 20
9143.693182432331
 30
0.0
 11
10019.12750789964
 21
7993.69318243233
 31
0.0
  0
LINE
  5
1566B
330
15227
100
AcDbEntity
  8
DOMAKON
100
AcDbLine
 10
8569.127507899649
 20
9083.693182432327
 30
0.0
 11
12419.12750789964
 21
9083.693182432327
 31
0.0
  0
LINE
  5
1566C
330
15227
100
AcDbEntity
  8
DOMAKON
100
AcDbLine
 10
12419.12750789964
 20
9083.693182432327
 30
0.0
 11
12419.12750789964
 21
6843.693182432328
 31
0.0
  0
LINE
  5
1566D
330
15227
100
AcDbEntity
  8
DOMAKON
100
AcDbLine
 10
12419.12750789964
 20
6843.693182432328
 30
0.0
 11
8569.127507899649
 21
6843.693182432328
 31
0.0
  0
LINE
  5
1566E
330
15227
100
AcDbEntity
  8
KISO-1
100
AcDbLine
 10
7619.127507899648
 20
7993.69318243233
 30
0.0
 11
6819.127507899647
 21
7993.69318243233
 31
0.0
  0
LINE
  5
1566F
330
15227
100
AcDbEntity
  8
KISO-1
100
AcDbLine
 10
6819.127507899647
 20
7993.69318243233
 30
0.0
 11
6819.127507899647
 21
9143.693182432331
 31
0.0
  0
LINE
  5
15670
330
15227
100
AcDbEntity
  8
KISO-1
100
AcDbLine
 10
6819.127507899647
 20
9143.693182432331
 30
0.0
 11
7619.127507899648
 21
9143.693182432331
 31
0.0
  0
LINE
  5
15671
330
15227
100
AcDbEntity
  8
KISO-1
100
AcDbLine
 10
7619.127507899648
 20
9143.693182432331
 30
0.0
 11
7619.127507899648
 21
7993.69318243233
 31
0.0
  0
LINE
  5
15672
330
15227
100
AcDbEntity
  8
DOMAKON
100
AcDbLine
 10
4419.127507899649
 20
9083.693182432327
 30
0.0
 11
8269.127507899645
 21
9083.693182432327
 31
0.0
  0
LINE
  5
15673
330
15227
100
AcDbEntity
  8
DOMAKON
100
AcDbLine
 10
8269.127507899645
 20
6843.693182432328
 30
0.0
 11
4419.127507899649
 21
6843.693182432328
 31
0.0
  0
LINE
  5
15674
330
15227
100
AcDbEntity
  8
DOMAKON
100
AcDbLine
 10
4419.127507899649
 20
6843.693182432328
 30
0.0
 11
4419.127507899649
 21
9083.693182432327
 31
0.0
  0
LINE
  5
15675
330
15227
100
AcDbEntity
  8
YANE
  6
2PL-M
100
AcDbLine
 10
12240.92816095087
 20
6970.143910050989
 30
0.0
 11
4597.326854848408
 21
6970.143910050989
 31
0.0
  0
LINE
  5
15676
330
15227
100
AcDbEntity
  8
YANE
  6
2PL-M
100
AcDbLine
 10
4597.326854848408
 20
6970.143910050989
 30
0.0
 11
4597.326854848408
 21
8958.243182432324
 31
0.0
  0
LINE
  5
15677
330
15227
100
AcDbEntity
  8
YANE
  6
2PL-M
100
AcDbLine
 10
4597.326854848408
 20
8958.243182432324
 30
0.0
 11
12240.92816095087
 21
8958.243182432324
 31
0.0
  0
LINE
  5
15678
330
15227
100
AcDbEntity
  8
YANE
  6
2PL-M
100
AcDbLine
 10
12240.92816095087
 20
8958.243182432324
 30
0.0
 11
12240.92816095087
 21
6970.143910050989
 31
0.0
  0
TEXT
  5
1569F
330
15227
100
AcDbEntity
  8
SUNPOU
100
AcDbText
 10
9635.348774177705
 20
4011.313490970926
 30
0.0
 40
119.9991666724536
  1
地耐力   　　　 以上,コンクリート設計基準強度   　　　 以上
  7
01
100
AcDbText
  0
TEXT
  5
156A0
330
15227
100
AcDbEntity
  8
SUNPOU
100
AcDbText
 10
10135.28976763021
 20
3505.599205256643
 30
0.0
 40
120.0
  1
寒冷地の場合、凍結深度等を考慮し、実情に
  7
01
100
AcDbText
  0
TEXT
  5
156A1
330
15227
100
AcDbEntity
  8
SUNPOU
100
AcDbText
 10
10135.28976763021
 20
3094.170633828071
 30
0.0
 40
120.0
  1
その他現地の実情にあわせて設計して下さい。
  7
01
100
AcDbText
  0
TEXT
  5
156A2
330
15227
100
AcDbEntity
  8
SUNPOU
100
AcDbText
 10
10135.28976763021
 20
2477.027776685211
 30
0.0
 40
120.0
  1
所もありますので、ご注意願います。
  7
01
100
AcDbText
  0
TEXT
  5
156A3
330
15227
100
AcDbEntity
  8
SUNPOU
100
AcDbText
 10
10135.28976763021
 20
2682.742062399499
 30
0.0
 40
120.0
  1
地域によっては、フックをつける様指導している
  7
01
100
AcDbText
  0
TEXT
  5
156A4
330
15227
100
AcDbEntity
  8
SUNPOU
100
AcDbText
 10
10135.28976763021
 20
2888.456348113785
 30
0.0
 40
120.0
  1
異形鉄筋の場合、原則としてフックは不要ですが、
  7
01
100
AcDbText
  0
TEXT
  5
156A5
330
15227
100
AcDbEntity
  8
SUNPOU
100
AcDbText
 10
9635.348774177705
 20
3805.599205256643
 30
0.0
 40
119.9991666724536
  1
基準風速   　　 , 地表面粗度区分
  7
01
100
AcDbText
  0
TEXT
  5
156A6
330
15227
100
AcDbEntity
  8
SUNPOU
100
AcDbText
 10
9628.406793032242
 20
4473.652160898866
 30
0.0
 40
160.0
  1
基礎断面図
  7
01
 72
     4
 11
10081.74012636557
 21
4553.652160898866
 31
0.0
100
AcDbText
  0
TEXT
  5
156A7
330
15227
100
AcDbEntity
  8
SUNPOU
100
AcDbText
 10
9461.263935889375
 20
4263.652160898866
 30
0.0
 40
120.0
  1
<下記条件での参考図>
  7
01
 72
     4
 11
10246.40679303223
 21
4323.652160898865
 31
0.0
100
AcDbText
  0
ARC
  5
156A8
330
15227
100
AcDbEntity
  8
SUNPOU
100
AcDbCircle
 10
9839.293139387315
 20
3963.030055560034
 30
0.0
 40
300.0
100
AcDbArc
 50
148.3472725282539
 51
211.652727471746
  0
TEXT
  5
156A9
330
15227
100
AcDbEntity
  8
SUNPOU
100
AcDbText
 10
10135.28976763021
 20
3299.884919542353
 30
0.0
 40
120.0
  1
あわせて設計して下さい。
  7
01
100
AcDbText
  0
TEXT
  5
156AA
330
15227
100
AcDbEntity
  8
SUNPOU
100
AcDbText
 10
9712.836880560715
 20
3094.170633828071
 30
0.0
 40
120.0
  1
注　）
  7
01
100
AcDbText
  0
TEXT
  5
156AB
330
15227
100
AcDbEntity
  8
SUNPOU
100
AcDbText
 10
9712.836880560715
 20
2888.456348113785
 30
0.0
 40
120.0
  1
注　）
  7
01
100
AcDbText
  0
TEXT
  5
156AC
330
15227
100
AcDbEntity
  8
SUNPOU
100
AcDbText
 10
9860.348774177705
 20
2888.456348113785
 30
0.0
 40
120.0
  1
3
 41
0.6700000000000001
  7
01
100
AcDbText
  0
TEXT
  5
156AD
330
15227
100
AcDbEntity
  8
SUNPOU
100
AcDbText
 10
9860.348774177705
 20
3094.170633828071
 30
0.0
 40
120.0
  1
2
 41
0.6700000000000001
  7
01
100
AcDbText
  0
TEXT
  5
156AE
330
15227
100
AcDbEntity
  8
SUNPOU
100
AcDbText
 10
10280.36667906458
 20
3805.599205256643
 30
0.0
 40
119.9991666724536
  1
34 m/s
 41
0.6700000000000001
  7
01
100
AcDbText
  0
TEXT
  5
156AF
330
15227
100
AcDbEntity
  8
SUNPOU
100
AcDbText
 10
10134.3599840778
 20
4011.313490970926
 30
0.0
 40
119.9991666724536
  1
50  N/m
 41
0.6700000000000001
  7
01
100
AcDbText
  0
TEXT
  5
156B0
330
15227
100
AcDbEntity
  8
SUNPOU
100
AcDbText
 10
10315.47525445907
 20
4011.313490970926
 30
0.0
 40
95.99933333796291
  1
K
 41
0.6700000000000001
  7
01
100
AcDbText
  0
TEXT
  5
156B1
330
15227
100
AcDbEntity
  8
SUNPOU
100
AcDbText
 10
9712.836880560715
 20
3505.599205256643
 30
0.0
 40
120.0
  1
注　）
  7
01
100
AcDbText
  0
TEXT
  5
156B2
330
15227
100
AcDbEntity
  8
SUNPOU
100
AcDbText
 10
9860.348774177705
 20
3505.599205256643
 30
0.0
 40
120.0
  1
1
 41
0.6700000000000001
  7
01
100
AcDbText
  0
TEXT
  5
156B3
330
15227
100
AcDbEntity
  8
SUNPOU
100
AcDbText
 10
10672.32879676359
 20
4078.231392780909
 30
0.0
 40
61.7138571458333
  1
2
 41
0.6700000000000001
  7
00
100
AcDbText
  0
LINE
  5
156B4
330
15227
100
AcDbEntity
  8
SUNPOU
100
AcDbLine
 10
12024.43618959986
 20
3916.922356855017
 30
0.0
 11
12099.43618959985
 21
3916.922356855017
 31
0.0
  0
LINE
  5
156B5
330
15227
100
AcDbEntity
  8
SUNPOU
100
AcDbLine
 10
12024.43618959986
 20
3805.59920525664
 30
0.0
 11
12099.43618959985
 21
3805.59920525664
 31
0.0
  0
LINE
  5
156B6
330
15227
100
AcDbEntity
  8
SUNPOU
100
AcDbLine
 10
12039.43618959985
 20
3805.599205256643
 30
0.0
 11
12039.43618959985
 21
3916.922356855017
 31
0.0
  0
LINE
  5
156B7
330
15227
100
AcDbEntity
  8
SUNPOU
100
AcDbLine
 10
12061.93618959985
 20
3805.599205256643
 30
0.0
 11
12061.93618959985
 21
3916.922356855017
 31
0.0
  0
LINE
  5
156B8
330
15227
100
AcDbEntity
  8
SUNPOU
100
AcDbLine
 10
12084.43618959986
 20
3805.599205256643
 30
0.0
 11
12084.43618959986
 21
3916.922356855017
 31
0.0
  0
TEXT
  5
156B9
330
15227
100
AcDbEntity
  8
SUNPOU
100
AcDbText
 10
10584.20724284953
 20
4490.062417309123
 30
0.0
 40
123.076923076923
  1
（ S = 　　  ）
 41
0.6700000000000001
  7
00
 11
10584.20724284953
 21
4473.652160898866
 31
0.0
100
AcDbText
 73
     1
  0
TEXT
  5
156BA
330
15227
100
AcDbEntity
  8
SUNPOU
100
AcDbText
 10
11010.47751198699
 20
4511.395750642455
 30
0.0
 40
98.46153846153846
  1
1
 41
0.6700000000000001
  7
00
 11
11010.47751198699
 21
4498.26754551425
 31
0.0
100
AcDbText
 73
     1
  0
TEXT
  5
156BB
330
15227
100
AcDbEntity
  8
SUNPOU
100
AcDbText
 10
11075.01901507413
 20
4486.780366027071
 30
0.0
 40
98.46153846153846
  1
/
 41
0.6700000000000001
  7
00
 11
11075.01901507413
 21
4473.652160898866
 31
0.0
100
AcDbText
 73
     1
  0
TEXT
  5
156BC
330
15227
100
AcDbEntity
  8
SUNPOU
100
AcDbText
 10
11160.2849390133
 20
4462.164981411686
 30
0.0
 40
98.46153846153846
  1
25
 41
0.6700000000000001
  7
00
 11
11160.2849390133
 21
4449.036776283481
 31
0.0
100
AcDbText
 73
     1
  0
TEXT
  5
156BD
330
15227
100
AcDbEntity
  8
SUNPOU
100
AcDbText
 10
12886.1442712199
 20
4011.313490970926
 30
0.0
 40
119.9991666724536
  1
18
 41
0.6700000000000001
  7
01
100
AcDbText
  0
TEXT
  5
156BE
330
15227
100
AcDbEntity
  8
SUNPOU
100
AcDbText
 10
13067.25954160117
 20
4011.313490970926
 30
0.0
 40
119.9991666724536
  1
N/mm
 41
0.6700000000000001
  7
01
100
AcDbText
  0
TEXT
  5
156BF
330
15227
100
AcDbEntity
  8
SUNPOU
100
AcDbText
 10
13473.21218430971
 20
4078.231392780909
 30
0.0
 40
61.7138571458333
  1
2
 41
0.6700000000000001
  7
00
100
AcDbText
  0
ARC
  5
156C0
330
15227
100
AcDbEntity
  8
SUNPOU
100
AcDbCircle
 10
13652.96571162519
 20
3963.030055560034
 30
0.0
 40
300.0
100
AcDbArc
 50
328.3472725282539
 51
31.65272747174605
  0
ENDSEC
  0
SECTION
  2
OBJECTS
  0
DICTIONARY
  5
15215
330
0
100
AcDbDictionary
281
     1
  3
ACAD_GROUP
350
15216
  3
ACAD_LAYOUT
350
15222
  3
ACAD_MLINESTYLE
350
1521F
  3
ACAD_PLOTSETTINGS
350
15221
  3
ACAD_PLOTSTYLENAME
350
15217
  3
AcDbVariableDictionary
350
156C1
  0
DICTIONARY
  5
15216
102
{ACAD_REACTORS
330
15215
102
}
330
15215
100
AcDbDictionary
281
     1
  0
DICTIONARY
  5
15222
102
{ACAD_REACTORS
330
15215
102
}
330
15215
100
AcDbDictionary
281
     1
  3
Model
350
1522A
  3
ﾚｲｱｳﾄ1
350
15226
  0
DICTIONARY
  5
1521F
102
{ACAD_REACTORS
330
15215
102
}
330
15215
100
AcDbDictionary
281
     1
  3
Standard
350
15220
  0
DICTIONARY
  5
15221
102
{ACAD_REACTORS
330
15215
102
}
330
15215
100
AcDbDictionary
281
     1
  0
ACDBDICTIONARYWDFLT
  5
15217
102
{ACAD_REACTORS
330
15215
102
}
330
15215
100
AcDbDictionary
281
     1
  3
Normal
350
15218
100
AcDbDictionaryWithDefault
340
15218
  0
DICTIONARY
  5
156C1
102
{ACAD_REACTORS
330
15215
102
}
330
15215
100
AcDbDictionary
281
     1
  3
DIMASSOC
350
156C2
  0
LAYOUT
  5
1522A
102
{ACAD_REACTORS
330
15222
102
}
330
15222
100
AcDbPlotSettings
  1

  2
Muratec V-1200 Is@Web Printer
  4

  6

 40
0.0
 41
0.0
 42
0.0
 43
0.0
 44
0.0
 45
0.0
 46
0.0
 47
0.0
 48
0.0
 49
0.0
140
0.0
141
0.0
142
1.0
143
1.0
 70
  1712
 72
     0
 73
     0
 74
     0
  7

 75
     0
147
1.0
148
0.0
149
0.0
100
AcDbLayout
  1
Model
 70
     1
 71
     0
 10
0.0
 20
0.0
 11
12.0
 21
9.0
 12
0.0
 22
0.0
 32
0.0
 14
0.0
 24
0.0
 34
0.0
 15
0.0
 25
0.0
 35
0.0
146
0.0
 13
0.0
 23
0.0
 33
0.0
 16
1.0
 26
0.0
 36
0.0
 17
0.0
 27
1.0
 37
0.0
 76
     0
330
15227
  0
LAYOUT
  5
15226
102
{ACAD_REACTORS
330
15222
102
}
330
15222
100
AcDbPlotSettings
  1

  2
Muratec V-1200 Is@Web Printer
  4

  6

 40
0.0
 41
0.0
 42
0.0
 43
0.0
 44
0.0
 45
0.0
 46
0.0
 47
0.0
 48
0.0
 49
0.0
140
0.0
141
0.0
142
1.0
143
1.0
 70
   688
 72
     0
 73
     0
 74
     5
  7

 75
    16
147
1.0
148
0.0
149
0.0
100
AcDbLayout
  1
ﾚｲｱｳﾄ1
 70
     0
 71
     1
 10
0.0
 20
0.0
 11
12.0
 21
9.0
 12
0.0
 22
0.0
 32
0.0
 14
1.000000000000000E+20
 24
1.000000000000000E+20
 34
1.000000000000000E+20
 15
-1.000000000000000E+20
 25
-1.000000000000000E+20
 35
-1.000000000000000E+20
146
0.0
 13
0.0
 23
0.0
 33
0.0
 16
1.0
 26
0.0
 36
0.0
 17
0.0
 27
1.0
 37
0.0
 76
     0
330
15223
  0
MLINESTYLE
  5
15220
102
{ACAD_REACTORS
330
1521F
102
}
330
1521F
100
AcDbMlineStyle
  2
STANDARD
 70
     0
  3

 62
   256
 51
90.0
 52
90.0
 71
     2
 49
0.5
 62
   256
  6
BYLAYER
 49
-0.5
 62
   256
  6
BYLAYER
  0
ACDBPLACEHOLDER
  5
15218
102
{ACAD_REACTORS
330
15217
102
}
330
15217
  0
DICTIONARYVAR
  5
156C2
102
{ACAD_REACTORS
330
156C1
102
}
330
156C1
100
DictionaryVariables
280
     0
  1
1
  0
ENDSEC
  0
EOF
