  0
SECTION
  2
HEADER
  9
$ACADVER
  1
AC1015
  9
$ACADMAINTVER
 70
    13
  9
$DWGCODEPAGE
  3
ANSI_932
  9
$INSBASE
 10
267.0
 20
194.8999999999998
 30
0.0
  9
$EXTMIN
 10
433.9966216520333
 20
163.6908237492789
 30
-0.0000000000000053
  9
$EXTMAX
 10
16382.6660542547
 20
11242.27663824599
 30
0.0000000000000099
  9
$LIMMIN
 10
0.0
 20
0.0
  9
$LIMMAX
 10
16800.0
 20
11880.0
  9
$ORTHOMODE
 70
     0
  9
$REGENMODE
 70
     1
  9
$FILLMODE
 70
     1
  9
$QTEXTMODE
 70
     0
  9
$MIRRTEXT
 70
     0
  9
$LTSCALE
 40
40.0
  9
$ATTMODE
 70
     1
  9
$TEXTSIZE
 40
0.2
  9
$TRACEWID
 40
0.05
  9
$TEXTSTYLE
  7
00
  9
$CLAYER
  8
SUNPOU
  9
$CELTYPE
  6
ByLayer
  9
$CECOLOR
 62
   256
  9
$CELTSCALE
 40
1.0
  9
$DISPSILH
 70
     0
  9
$DIMSCALE
 40
30.0
  9
$DIMASZ
 40
0.5
  9
$DIMEXO
 40
1.0
  9
$DIMDLI
 40
7.0
  9
$DIMRND
 40
0.0
  9
$DIMDLE
 40
3.0
  9
$DIMEXE
 40
1.5
  9
$DIMTP
 40
0.0
  9
$DIMTM
 40
0.0
  9
$DIMTXT
 40
3.0
  9
$DIMCEN
 40
0.0
  9
$DIMTSZ
 40
0.0
  9
$DIMTOL
 70
     0
  9
$DIMLIM
 70
     0
  9
$DIMTIH
 70
     0
  9
$DIMTOH
 70
     0
  9
$DIMSE1
 70
     0
  9
$DIMSE2
 70
     0
  9
$DIMTAD
 70
     1
  9
$DIMZIN
 70
     8
  9
$DIMBLK
  1
DOT
  9
$DIMASO
 70
     1
  9
$DIMSHO
 70
     0
  9
$DIMPOST
  1

  9
$DIMAPOST
  1

  9
$DIMALT
 70
     0
  9
$DIMALTD
 70
     2
  9
$DIMALTF
 40
25.4
  9
$DIMLFAC
 40
1.0
  9
$DIMTOFL
 70
     1
  9
$DIMTVP
 40
0.0
  9
$DIMTIX
 70
     0
  9
$DIMSOXD
 70
     0
  9
$DIMSAH
 70
     1
  9
$DIMBLK1
  1
DOT
  9
$DIMBLK2
  1
DOT
  9
$DIMSTYLE
  2
SUNPOU_図面名
  9
$DIMCLRD
 70
   256
  9
$DIMCLRE
 70
   256
  9
$DIMCLRT
 70
   256
  9
$DIMTFAC
 40
1.0
  9
$DIMGAP
 40
1.5
  9
$DIMJUST
 70
     0
  9
$DIMSD1
 70
     0
  9
$DIMSD2
 70
     0
  9
$DIMTOLJ
 70
     1
  9
$DIMTZIN
 70
     0
  9
$DIMALTZ
 70
     0
  9
$DIMALTTZ
 70
     0
  9
$DIMUPT
 70
     0
  9
$DIMDEC
 70
     4
  9
$DIMTDEC
 70
     4
  9
$DIMALTU
 70
     2
  9
$DIMALTTD
 70
     2
  9
$DIMTXSTY
  7
STANDARD
  9
$DIMAUNIT
 70
     0
  9
$DIMADEC
 70
     0
  9
$DIMALTRND
 40
0.0
  9
$DIMAZIN
 70
     0
  9
$DIMDSEP
 70
    46
  9
$DIMATFIT
 70
     3
  9
$DIMFRAC
 70
     0
  9
$DIMLDRBLK
  1
DOT
  9
$DIMLUNIT
 70
     2
  9
$DIMLWD
 70
    -2
  9
$DIMLWE
 70
    -2
  9
$DIMTMOVE
 70
     0
  9
$LUNITS
 70
     2
  9
$LUPREC
 70
     2
  9
$SKETCHINC
 40
0.1
  9
$FILLETRAD
 40
0.0
  9
$AUNITS
 70
     0
  9
$AUPREC
 70
     0
  9
$MENU
  1
A:\TIGER\MENU\TIGER
  9
$ELEVATION
 40
0.0
  9
$PELEVATION
 40
0.0
  9
$THICKNESS
 40
0.0
  9
$LIMCHECK
 70
     0
  9
$CHAMFERA
 40
0.0
  9
$CHAMFERB
 40
0.0
  9
$CHAMFERC
 40
0.0
  9
$CHAMFERD
 40
0.0
  9
$SKPOLY
 70
     0
  9
$TDCREATE
 40
2450266.571064815
  9
$TDUCREATE
 40
2450266.196064815
  9
$TDUPDATE
 40
2456330.660091863
  9
$TDUUPDATE
 40
2456330.285091863
  9
$TDINDWG
 40
0.1486697338
  9
$TDUSRTIMER
 40
0.1486693750
  9
$USRTIMER
 70
     1
  9
$ANGBASE
 50
0.0
  9
$ANGDIR
 70
     0
  9
$PDMODE
 70
     0
  9
$PDSIZE
 40
0.0
  9
$PLINEWID
 40
0.0
  9
$SPLFRAME
 70
     0
  9
$SPLINETYPE
 70
     6
  9
$SPLINESEGS
 70
     8
  9
$HANDSEED
  5
1894C
  9
$SURFTAB1
 70
     6
  9
$SURFTAB2
 70
     6
  9
$SURFTYPE
 70
     6
  9
$SURFU
 70
     6
  9
$SURFV
 70
     6
  9
$UCSBASE
  2

  9
$UCSNAME
  2

  9
$UCSORG
 10
0.0
 20
0.0
 30
0.0
  9
$UCSXDIR
 10
1.0
 20
0.0
 30
0.0
  9
$UCSYDIR
 10
0.0
 20
1.0
 30
0.0
  9
$UCSORTHOREF
  2

  9
$UCSORTHOVIEW
 70
     0
  9
$UCSORGTOP
 10
0.0
 20
0.0
 30
0.0
  9
$UCSORGBOTTOM
 10
0.0
 20
0.0
 30
0.0
  9
$UCSORGLEFT
 10
0.0
 20
0.0
 30
0.0
  9
$UCSORGRIGHT
 10
0.0
 20
0.0
 30
0.0
  9
$UCSORGFRONT
 10
0.0
 20
0.0
 30
0.0
  9
$UCSORGBACK
 10
0.0
 20
0.0
 30
0.0
  9
$PUCSBASE
  2

  9
$PUCSNAME
  2

  9
$PUCSORG
 10
0.0
 20
0.0
 30
0.0
  9
$PUCSXDIR
 10
1.0
 20
0.0
 30
0.0
  9
$PUCSYDIR
 10
0.0
 20
1.0
 30
0.0
  9
$PUCSORTHOREF
  2

  9
$PUCSORTHOVIEW
 70
     0
  9
$PUCSORGTOP
 10
0.0
 20
0.0
 30
0.0
  9
$PUCSORGBOTTOM
 10
0.0
 20
0.0
 30
0.0
  9
$PUCSORGLEFT
 10
0.0
 20
0.0
 30
0.0
  9
$PUCSORGRIGHT
 10
0.0
 20
0.0
 30
0.0
  9
$PUCSORGFRONT
 10
0.0
 20
0.0
 30
0.0
  9
$PUCSORGBACK
 10
0.0
 20
0.0
 30
0.0
  9
$USERI1
 70
     3
  9
$USERI2
 70
     0
  9
$USERI3
 70
     0
  9
$USERI4
 70
     0
  9
$USERI5
 70
  1103
  9
$USERR1
 40
0.0
  9
$USERR2
 40
1.0
  9
$USERR3
 40
0.0
  9
$USERR4
 40
0.0
  9
$USERR5
 40
0.0
  9
$WORLDVIEW
 70
     1
  9
$SHADEDGE
 70
     3
  9
$SHADEDIF
 70
    70
  9
$TILEMODE
 70
     1
  9
$MAXACTVP
 70
    16
  9
$PINSBASE
 10
0.0
 20
0.0
 30
0.0
  9
$PLIMCHECK
 70
     0
  9
$PEXTMIN
 10
1.000000000000000E+20
 20
1.000000000000000E+20
 30
1.000000000000000E+20
  9
$PEXTMAX
 10
-1.000000000000000E+20
 20
-1.000000000000000E+20
 30
-1.000000000000000E+20
  9
$PLIMMIN
 10
0.0
 20
0.0
  9
$PLIMMAX
 10
12.0
 20
9.0
  9
$UNITMODE
 70
     0
  9
$VISRETAIN
 70
     0
  9
$PLINEGEN
 70
     1
  9
$PSLTSCALE
 70
     0
  9
$TREEDEPTH
 70
  3020
  9
$CMLSTYLE
  2
Standard
  9
$CMLJUST
 70
     0
  9
$CMLSCALE
 40
1.0
  9
$PROXYGRAPHICS
 70
     1
  9
$MEASUREMENT
 70
     0
  9
$CELWEIGHT
370
    -1
  9
$ENDCAPS
280
     0
  9
$JOINSTYLE
280
     0
  9
$LWDISPLAY
290
     0
  9
$INSUNITS
 70
     0
  9
$HYPERLINKBASE
  1

  9
$STYLESHEET
  1

  9
$XEDIT
290
     1
  9
$CEPSNTYPE
380
     0
  9
$PSTYLEMODE
290
     1
  9
$FINGERPRINTGUID
  2
{224CD162-45DB-4EEA-ABDA-54ADDECBF6CF}
  9
$VERSIONGUID
  2
{EB74FAF2-2134-4DE3-8FDA-36D974EA218C}
  9
$EXTNAMES
290
     1
  9
$PSVPSCALE
 40
0.0
  9
$OLESTARTUP
290
     0
  0
ENDSEC
  0
SECTION
  2
CLASSES
  0
CLASS
  1
ACDBDICTIONARYWDFLT
  2
AcDbDictionaryWithDefault
  3
AutoCAD 2000
 90
        0
280
     0
281
     0
  0
CLASS
  1
ACDBPLACEHOLDER
  2
AcDbPlaceHolder
  3
AutoCAD 2000
 90
        0
280
     0
281
     0
  0
CLASS
  1
LAYOUT
  2
AcDbLayout
  3
AutoCAD 2000
 90
        0
280
     0
281
     0
  0
CLASS
  1
DICTIONARYVAR
  2
AcDbDictionaryVar
  3
AutoCAD 2000
 90
        0
280
     0
281
     0
  0
ENDSEC
  0
SECTION
  2
TABLES
  0
TABLE
  2
VPORT
  5
180BB
330
0
100
AcDbSymbolTable
 70
     2
  0
VPORT
  5
1894B
330
180BB
100
AcDbSymbolTableRecord
100
AcDbViewportTableRecord
  2
*Active
 70
     0
 10
0.0
 20
0.0
 11
1.0
 21
1.0
 12
8408.331337953367
 22
5702.983730997637
 13
0.0
 23
0.0
 14
1.0
 24
1.0
 15
0.0
 25
0.0
 16
0.0
 26
0.0
 36
1.0
 17
0.0
 27
0.0
 37
0.0
 40
11162.83361536741
 41
1.527918781725888
 42
50.0
 43
0.0
 44
0.0
 50
0.0
 51
0.0
 71
     0
 72
 10000
 73
     1
 74
     0
 75
     0
 76
     0
 77
     0
 78
     0
281
     0
 65
     1
110
0.0
120
0.0
130
0.0
111
1.0
121
0.0
131
0.0
112
0.0
122
1.0
132
0.0
 79
     0
146
0.0
  0
ENDTAB
  0
TABLE
  2
LTYPE
  5
180B8
330
0
100
AcDbSymbolTable
 70
     6
  0
LTYPE
  5
180C6
330
180B8
100
AcDbSymbolTableRecord
100
AcDbLinetypeTableRecord
  2
ByBlock
 70
     0
  3

 72
    65
 73
     0
 40
0.0
  0
LTYPE
  5
180C7
330
180B8
100
AcDbSymbolTableRecord
100
AcDbLinetypeTableRecord
  2
ByLayer
 70
     0
  3

 72
    65
 73
     0
 40
0.0
  0
LTYPE
  5
180C8
330
180B8
100
AcDbSymbolTableRecord
100
AcDbLinetypeTableRecord
  2
CONTINUOUS
 70
     0
  3
実線
 72
    65
 73
     0
 40
0.0
  0
LTYPE
  5
180D8
330
180B8
100
AcDbSymbolTableRecord
100
AcDbLinetypeTableRecord
  2
1PL-L
 70
     0
  3

 72
    65
 73
     4
 40
56.0
 49
50.0
 74
     0
 49
-2.0
 74
     0
 49
2.0
 74
     0
 49
-2.0
 74
     0
  0
LTYPE
  5
180D9
330
180B8
100
AcDbSymbolTableRecord
100
AcDbLinetypeTableRecord
  2
1PL-M
 70
     0
  3

 72
    65
 73
     4
 40
15.0
 49
12.0
 74
     0
 49
-1.0
 74
     0
 49
1.0
 74
     0
 49
-1.0
 74
     0
  0
LTYPE
  5
180DA
330
180B8
100
AcDbSymbolTableRecord
100
AcDbLinetypeTableRecord
  2
1PL-S
 70
     0
  3

 72
    65
 73
     4
 40
4.0
 49
2.5
 74
     0
 49
-0.5
 74
     0
 49
0.5
 74
     0
 49
-0.5
 74
     0
  0
LTYPE
  5
180DB
330
180B8
100
AcDbSymbolTableRecord
100
AcDbLinetypeTableRecord
  2
2PL-M
 70
     0
  3

 72
    65
 73
     6
 40
17.0
 49
12.0
 74
     0
 49
-1.0
 74
     0
 49
1.0
 74
     0
 49
-1.0
 74
     0
 49
1.0
 74
     0
 49
-1.0
 74
     0
  0
LTYPE
  5
180DC
330
180B8
100
AcDbSymbolTableRecord
100
AcDbLinetypeTableRecord
  2
KAKURE-05
 70
     0
  3

 72
    65
 73
     2
 40
1.0
 49
0.5
 74
     0
 49
-0.5
 74
     0
  0
ENDTAB
  0
TABLE
  2
LAYER
  5
180B5
330
0
100
AcDbSymbolTable
 70
    34
  0
LAYER
  5
180C3
330
180B5
100
AcDbSymbolTableRecord
100
AcDbLayerTableRecord
  2
0
 70
     0
 62
     7
  6
CONTINUOUS
370
    -3
390
180C2
  0
LAYER
  5
180D5
330
180B5
100
AcDbSymbolTableRecord
100
AcDbLayerTableRecord
  2
SUNPOU
 70
     0
 62
     4
  6
CONTINUOUS
370
    -3
390
180C2
  0
LAYER
  5
180DD
330
180B5
100
AcDbSymbolTableRecord
100
AcDbLayerTableRecord
  2
HIKIDASHI
 70
     0
 62
     6
  6
CONTINUOUS
370
    -3
390
180C2
  0
LAYER
  5
180DE
330
180B5
100
AcDbSymbolTableRecord
100
AcDbLayerTableRecord
  2
1PL-M1
 70
     0
 62
     6
  6
1PL-M
370
    -3
390
180C2
  0
LAYER
  5
180DF
330
180B5
100
AcDbSymbolTableRecord
100
AcDbLayerTableRecord
  2
1PL-L1
 70
     0
 62
     6
  6
1PL-L
370
    -3
390
180C2
  0
LAYER
  5
180E0
330
180B5
100
AcDbSymbolTableRecord
100
AcDbLayerTableRecord
  2
2PL-M1
 70
     0
 62
     6
  6
2PL-M
370
    -3
390
180C2
  0
LAYER
  5
180E1
330
180B5
100
AcDbSymbolTableRecord
100
AcDbLayerTableRecord
  2
NAME
 70
     0
 62
    20
  6
CONTINUOUS
370
    -3
390
180C2
  0
LAYER
  5
180E2
330
180B5
100
AcDbSymbolTableRecord
100
AcDbLayerTableRecord
  2
FILENAME
 70
     0
 62
     7
  6
CONTINUOUS
370
    -3
390
180C2
  0
LAYER
  5
180E3
330
180B5
100
AcDbSymbolTableRecord
100
AcDbLayerTableRecord
  2
KISO
 70
     0
 62
     2
  6
CONTINUOUS
370
    -3
390
180C2
  0
LAYER
  5
180E4
330
180B5
100
AcDbSymbolTableRecord
100
AcDbLayerTableRecord
  2
KERABA
 70
     0
 62
     2
  6
CONTINUOUS
370
    -3
390
180C2
  0
LAYER
  5
180E5
330
180B5
100
AcDbSymbolTableRecord
100
AcDbLayerTableRecord
  2
HANAKAKUSI
 70
     0
 62
     4
  6
CONTINUOUS
370
    -3
390
180C2
  0
LAYER
  5
180E6
330
180B5
100
AcDbSymbolTableRecord
100
AcDbLayerTableRecord
  2
TATEDOISIJIKANAGU
 70
     0
 62
     2
  6
CONTINUOUS
370
    -3
390
180C2
  0
LAYER
  5
180E7
330
180B5
100
AcDbSymbolTableRecord
100
AcDbLayerTableRecord
  2
HATCH
 70
     0
 62
     1
  6
CONTINUOUS
370
    -3
390
180C2
  0
LAYER
  5
180E8
330
180B5
100
AcDbSymbolTableRecord
100
AcDbLayerTableRecord
  2
HANA_KONA
 70
     0
 62
     3
  6
CONTINUOUS
370
    -3
390
180C2
  0
LAYER
  5
180E9
330
180B5
100
AcDbSymbolTableRecord
100
AcDbLayerTableRecord
  2
BOYA_KANAGU
 70
     0
 62
     3
  6
CONTINUOUS
370
    -3
390
180C2
  0
LAYER
  5
180EA
330
180B5
100
AcDbSymbolTableRecord
100
AcDbLayerTableRecord
  2
KYAPU
 70
     0
 62
     3
  6
CONTINUOUS
370
    -3
390
180C2
  0
LAYER
  5
180EB
330
180B5
100
AcDbSymbolTableRecord
100
AcDbLayerTableRecord
  2
CF-401
 70
     0
 62
     3
  6
CONTINUOUS
370
    -3
390
180C2
  0
LAYER
  5
180EC
330
180B5
100
AcDbSymbolTableRecord
100
AcDbLayerTableRecord
  2
CF-101
 70
     0
 62
     3
  6
CONTINUOUS
370
    -3
390
180C2
  0
LAYER
  5
180ED
330
180B5
100
AcDbSymbolTableRecord
100
AcDbLayerTableRecord
  2
CF-102
 70
     0
 62
     3
  6
CONTINUOUS
370
    -3
390
180C2
  0
LAYER
  5
180EE
330
180B5
100
AcDbSymbolTableRecord
100
AcDbLayerTableRecord
  2
CF-201
 70
     0
 62
     3
  6
CONTINUOUS
370
    -3
390
180C2
  0
LAYER
  5
180EF
330
180B5
100
AcDbSymbolTableRecord
100
AcDbLayerTableRecord
  2
CF-501
 70
     0
 62
     3
  6
CONTINUOUS
370
    -3
390
180C2
  0
LAYER
  5
180F0
330
180B5
100
AcDbSymbolTableRecord
100
AcDbLayerTableRecord
  2
AF-23
 70
     0
 62
     3
  6
CONTINUOUS
370
    -3
390
180C2
  0
LAYER
  5
180F1
330
180B5
100
AcDbSymbolTableRecord
100
AcDbLayerTableRecord
  2
AF-19
 70
     0
 62
     3
  6
CONTINUOUS
370
    -3
390
180C2
  0
LAYER
  5
180F2
330
180B5
100
AcDbSymbolTableRecord
100
AcDbLayerTableRecord
  2
CF-301
 70
     0
 62
     3
  6
CONTINUOUS
370
    -3
390
180C2
  0
LAYER
  5
180F3
330
180B5
100
AcDbSymbolTableRecord
100
AcDbLayerTableRecord
  2
AF-21
 70
     0
 62
     3
  6
CONTINUOUS
370
    -3
390
180C2
  0
LAYER
  5
180F4
330
180B5
100
AcDbSymbolTableRecord
100
AcDbLayerTableRecord
  2
AF-22
 70
     0
 62
     3
  6
CONTINUOUS
370
    -3
390
180C2
  0
LAYER
  5
180F5
330
180B5
100
AcDbSymbolTableRecord
100
AcDbLayerTableRecord
  2
NJ-022
 70
     0
 62
     3
  6
CONTINUOUS
370
    -3
390
180C2
  0
LAYER
  5
180F6
330
180B5
100
AcDbSymbolTableRecord
100
AcDbLayerTableRecord
  2
CF-202
 70
     0
 62
     3
  6
CONTINUOUS
370
    -3
390
180C2
  0
LAYER
  5
180F7
330
180B5
100
AcDbSymbolTableRecord
100
AcDbLayerTableRecord
  2
CF-205
 70
     0
 62
     3
  6
CONTINUOUS
370
    -3
390
180C2
  0
LAYER
  5
180F8
330
180B5
100
AcDbSymbolTableRecord
100
AcDbLayerTableRecord
  2
CF-504
 70
     0
 62
     3
  6
CONTINUOUS
370
    -3
390
180C2
  0
LAYER
  5
180F9
330
180B5
100
AcDbSymbolTableRecord
100
AcDbLayerTableRecord
  2
YODOROGO
 70
     0
 62
   130
  6
CONTINUOUS
370
    -3
390
180C2
  0
LAYER
  5
180FA
330
180B5
100
AcDbSymbolTableRecord
100
AcDbLayerTableRecord
  2
WAKUSEN-01
 70
     0
 62
    50
  6
CONTINUOUS
370
    -3
390
180C2
  0
LAYER
  5
180FB
330
180B5
100
AcDbSymbolTableRecord
100
AcDbLayerTableRecord
  2
WAKUSEN-02
 70
     0
 62
   130
  6
CONTINUOUS
370
    -3
390
180C2
  0
LAYER
  5
180FC
330
180B5
100
AcDbSymbolTableRecord
100
AcDbLayerTableRecord
  2
WAKUMOJI-01
 70
     0
 62
   130
  6
CONTINUOUS
370
    -3
390
180C2
  0
ENDTAB
  0
TABLE
  2
STYLE
  5
180B6
330
0
100
AcDbSymbolTable
 70
     6
  0
STYLE
  5
180C4
330
180B6
100
AcDbSymbolTableRecord
100
AcDbTextStyleTableRecord
  2
STANDARD
 70
     0
 40
3.0
 41
1.0
 50
0.0
 71
     0
 42
0.2
  3
ROMANS
  4
EXTFONT
  0
STYLE
  5
180D6
330
180B6
100
AcDbSymbolTableRecord
100
AcDbTextStyleTableRecord
  2
00
 70
     0
 40
0.0
 41
0.6666666666666666
 50
0.0
 71
     0
 42
0.2
  3
ROMANS
  4
BIGFONT
  0
STYLE
  5
180FD
330
180B6
100
AcDbSymbolTableRecord
100
AcDbTextStyleTableRecord
  2
01
 70
     0
 40
3.0
 41
1.0
 50
0.0
 71
     0
 42
0.2
  3
ROMANS
  4
BIGFONT
  0
STYLE
  5
180FE
330
180B6
100
AcDbSymbolTableRecord
100
AcDbTextStyleTableRecord
  2
02
 70
     0
 40
3.0
 41
1.0
 50
0.0
 71
     0
 42
2.5
  3
ROMANS
  4
EXTFONT
  0
STYLE
  5
180FF
330
180B6
100
AcDbSymbolTableRecord
100
AcDbTextStyleTableRecord
  2
WAKUMOJI
 70
     0
 40
3.0
 41
1.0
 50
0.0
 71
     0
 42
3.0
  3
SIMPLEX
  4
BIGFONT
  0
STYLE
  5
18100
330
180B6
100
AcDbSymbolTableRecord
100
AcDbTextStyleTableRecord
  2
FILENAME
 70
     0
 40
100.0
 41
1.0
 50
0.0
 71
     0
 42
100.0
  3
romans
  4
bigfont
  0
ENDTAB
  0
TABLE
  2
VIEW
  5
180B9
330
0
100
AcDbSymbolTable
 70
     0
  0
ENDTAB
  0
TABLE
  2
UCS
  5
180BA
330
0
100
AcDbSymbolTable
 70
     0
  0
ENDTAB
  0
TABLE
  2
APPID
  5
180BC
330
0
100
AcDbSymbolTable
 70
     6
  0
APPID
  5
180C5
330
180BC
100
AcDbSymbolTableRecord
100
AcDbRegAppTableRecord
  2
ACAD
 70
     0
  0
APPID
  5
18101
330
180BC
100
AcDbSymbolTableRecord
100
AcDbRegAppTableRecord
  2
ACADANNOTATIVE
 70
     0
  0
APPID
  5
18102
330
180BC
100
AcDbSymbolTableRecord
100
AcDbRegAppTableRecord
  2
AUTOCAD_POSTSCRIPT_FIGURE
 70
     0
  0
APPID
  5
18103
330
180BC
100
AcDbSymbolTableRecord
100
AcDbRegAppTableRecord
  2
ACAD_PSEXT
 70
     0
  0
APPID
  5
18104
330
180BC
100
AcDbSymbolTableRecord
100
AcDbRegAppTableRecord
  2
ACAD_EXEMPT_FROM_CAD_STANDARDS
 70
     0
  0
APPID
  5
18105
330
180BC
100
AcDbSymbolTableRecord
100
AcDbRegAppTableRecord
  2
ACAD_MLEADERVER
 70
     0
  0
ENDTAB
  0
TABLE
  2
DIMSTYLE
  5
180BD
330
0
100
AcDbSymbolTable
 70
     1
100
AcDbDimStyleTable
 71
     0
  0
DIMSTYLE
105
18106
330
180BD
100
AcDbSymbolTableRecord
100
AcDbDimStyleTableRecord
  2
SUNPOU_図面名
 70
     0
 40
30.0
 41
0.5
 42
1.0
 43
7.0
 44
1.5
 46
3.0
 73
     0
 74
     0
 77
     1
 78
     8
140
3.0
141
0.0
147
1.5
172
     1
173
     1
176
   256
177
   256
178
   256
271
     2
272
     2
279
     2
284
     8
285
     8
286
     8
340
180D6
  0
ENDTAB
  0
TABLE
  2
BLOCK_RECORD
  5
180B4
330
0
100
AcDbSymbolTable
 70
     3
  0
BLOCK_RECORD
  5
180D1
330
180B4
100
AcDbSymbolTableRecord
100
AcDbBlockTableRecord
  2
*Model_Space
340
180D4
  0
BLOCK_RECORD
  5
180CD
330
180B4
100
AcDbSymbolTableRecord
100
AcDbBlockTableRecord
  2
*Paper_Space
340
180D0
  0
BLOCK_RECORD
  5
1810B
330
180B4
100
AcDbSymbolTableRecord
100
AcDbBlockTableRecord
  2
$MODEL_SPACE
340
0
  0
BLOCK_RECORD
  5
1810E
330
180B4
100
AcDbSymbolTableRecord
100
AcDbBlockTableRecord
  2
$PAPER_SPACE
340
0
  0
BLOCK_RECORD
  5
18111
330
180B4
100
AcDbSymbolTableRecord
100
AcDbBlockTableRecord
  2
DOT
340
0
  0
ENDTAB
  0
ENDSEC
  0
SECTION
  2
BLOCKS
  0
BLOCK
  5
180D2
330
180D1
100
AcDbEntity
  8
0
100
AcDbBlockBegin
  2
*Model_Space
 70
     0
 10
0.0
 20
0.0
 30
0.0
  3
*Model_Space
  1

  0
ENDBLK
  5
180D3
330
180D1
100
AcDbEntity
  8
0
100
AcDbBlockEnd
  0
BLOCK
  5
180CE
330
180CD
100
AcDbEntity
 67
     1
  8
0
100
AcDbBlockBegin
  2
*Paper_Space
 70
     0
 10
0.0
 20
0.0
 30
0.0
  3
*Paper_Space
  1

  0
ENDBLK
  5
180CF
330
180CD
100
AcDbEntity
 67
     1
  8
0
100
AcDbBlockEnd
  0
BLOCK
  5
1810C
330
1810B
100
AcDbEntity
  8
0
100
AcDbBlockBegin
  2
$MODEL_SPACE
 70
     0
 10
0.0
 20
0.0
 30
0.0
  3
$MODEL_SPACE
  1

  0
ENDBLK
  5
1810D
330
1810B
100
AcDbEntity
  8
0
100
AcDbBlockEnd
  0
BLOCK
  5
1810F
330
1810E
100
AcDbEntity
  8
0
100
AcDbBlockBegin
  2
$PAPER_SPACE
 70
     0
 10
0.0
 20
0.0
 30
0.0
  3
$PAPER_SPACE
  1

  0
ENDBLK
  5
18110
330
1810E
100
AcDbEntity
  8
0
100
AcDbBlockEnd
  0
BLOCK
  5
18112
330
18111
100
AcDbEntity
  8
0
100
AcDbBlockBegin
  2
DOT
 70
     0
 10
0.0
 20
0.0
 30
0.0
  3
DOT
  1

  0
LWPOLYLINE
  5
18113
330
18111
100
AcDbEntity
  8
0
  6
ByBlock
 62
     0
100
AcDbPolyline
 90
        2
 70
     1
 43
0.75
 10
-0.375
 20
0.0
 42
1.0
 10
0.375
 20
0.0
 42
1.0
  0
LINE
  5
18117
330
18111
100
AcDbEntity
  8
0
  6
ByBlock
 62
     0
100
AcDbLine
 10
-0.75
 20
0.0
 30
0.0
 11
-1.5
 21
0.0
 31
0.0
  0
ENDBLK
  5
18118
330
18111
100
AcDbEntity
  8
0
100
AcDbBlockEnd
  0
ENDSEC
  0
SECTION
  2
ENTITIES
  0
LINE
  5
18119
330
180D1
100
AcDbEntity
  8
KISO
100
AcDbLine
 10
12383.8509022893
 20
2554.546798568535
 30
0.0
 11
9843.850902289309
 21
2554.546798568535
 31
0.0
  0
LINE
  5
1811A
330
180D1
100
AcDbEntity
  8
CF-101
100
AcDbLine
 10
11955.80090228931
 20
2584.546798568535
 30
0.0
 11
11955.80090228931
 21
4320.546798568534
 31
0.0
  0
LINE
  5
1811B
330
180D1
100
AcDbEntity
  8
KISO
100
AcDbLine
 10
12233.8509022893
 20
2584.546798568535
 30
0.0
 11
9993.85090228931
 21
2584.546798568533
 31
0.0
  0
TEXT
  5
1811C
330
180D1
100
AcDbEntity
  8
SUNPOU
100
AcDbText
 10
10042.25247225078
 20
2689.546798568532
 30
0.0
 40
90.0
  1
F.L
 41
0.6666666666666666
  7
00
 72
     4
 11
10110.82390082221
 21
2734.546798568532
 31
0.0
100
AcDbText
  0
LINE
  5
1811D
330
180D1
100
AcDbEntity
  8
SUNPOU
100
AcDbLine
 10
10162.78542504928
 20
2644.546798568532
 30
0.0
 11
10058.86237659515
 21
2644.546798568532
 31
0.0
  0
LINE
  5
1811E
330
180D1
100
AcDbEntity
  8
SUNPOU
100
AcDbLine
 10
10110.82390082221
 20
2554.546798568532
 30
0.0
 11
10162.78542504928
 21
2644.546798568532
 31
0.0
  0
LINE
  5
1811F
330
180D1
100
AcDbEntity
  8
KISO
100
AcDbLine
 10
9993.85090228931
 20
2554.546798568535
 30
0.0
 11
9993.85090228931
 21
2584.546798568533
 31
0.0
  0
LINE
  5
18120
330
180D1
100
AcDbEntity
  8
SUNPOU
100
AcDbLine
 10
10058.86237659515
 20
2644.546798568532
 30
0.0
 11
10110.82390082221
 21
2554.546798568532
 31
0.0
  0
LINE
  5
18121
330
180D1
100
AcDbEntity
  8
KISO
100
AcDbLine
 10
12233.8509022893
 20
2584.546798568535
 30
0.0
 11
12233.8509022893
 21
2554.546798568535
 31
0.0
  0
ARC
  5
18122
330
180D1
100
AcDbEntity
  8
CF-301
100
AcDbCircle
 10
11729.99743343643
 20
4305.093257627301
 30
0.0
 40
320.0
100
AcDbArc
 50
359.999999999974
 51
85.39999999993245
  0
ARC
  5
18123
330
180D1
100
AcDbEntity
  8
CF-301
100
AcDbCircle
 10
11729.99743343643
 20
4305.093257627301
 30
0.0
 40
395.0
100
AcDbArc
 50
359.999999999974
 51
85.39999999993245
  0
ARC
  5
18124
330
180D1
100
AcDbEntity
  8
CF-101
100
AcDbCircle
 10
11749.90090228931
 20
4320.546798568535
 30
0.0
 40
295.0
100
AcDbArc
 50
1.748278110770162
 51
85.39999999993245
  0
ARC
  5
18125
330
180D1
100
AcDbEntity
  8
CF-101
100
AcDbCircle
 10
11749.90090228931
 20
4320.546798568535
 30
0.0
 40
205.9
100
AcDbArc
 50
0.0
 51
85.39999999993245
  0
LINE
  5
18126
330
180D1
100
AcDbEntity
  8
SUNPOU
100
AcDbLine
 10
10155.3509022893
 20
5106.590926579783
 30
0.0
 11
11985.3509022893
 21
5106.590926579783
 31
0.0
  0
LINE
  5
18127
330
180D1
100
AcDbEntity
  8
SUNPOU
100
AcDbLine
 10
10155.3509022893
 20
5316.590926579785
 30
0.0
 11
12125.3509022893
 21
5316.590926579785
 31
0.0
  0
LINE
  5
18128
330
180D1
100
AcDbEntity
  8
CF-301
100
AcDbLine
 10
10192.71180780239
 20
4749.814412081383
 30
0.0
 11
11755.66108922176
 21
4624.062498733294
 31
0.0
  0
LINE
  5
18129
330
180D1
100
AcDbEntity
  8
CF-301
100
AcDbLine
 10
10161.8459086242
 20
4827.54018816578
 30
0.0
 11
11761.67600854644
 21
4698.820914617511
 31
0.0
  0
LINE
  5
1812A
330
180D1
100
AcDbEntity
  8
CF-102
100
AcDbLine
 10
11519.21269895153
 20
4545.672902876298
 30
0.0
 11
10193.49679060475
 21
4652.337472234054
 31
0.0
  0
LINE
  5
1812B
330
180D1
100
AcDbEntity
  8
CF-102
100
AcDbLine
 10
10717.97075268126
 20
4699.527228577681
 30
0.0
 11
11118.67586182067
 21
4667.287260997365
 31
0.0
  0
LINE
  5
1812C
330
180D1
100
AcDbEntity
  8
SUNPOU
100
AcDbLine
 10
10140.35090228931
 20
4864.546798568532
 30
0.0
 11
10140.35090228931
 21
5361.590926579782
 31
0.0
  0
LINE
  5
1812D
330
180D1
100
AcDbEntity
  8
CF-102
100
AcDbLine
 10
10285.36871943127
 20
4734.333561736527
 30
0.0
 11
10633.24454801249
 21
4706.344137145658
 31
0.0
  0
ARC
  5
1812E
330
180D1
100
AcDbEntity
  8
AF-21
100
AcDbCircle
 10
10192.53984886985
 20
4810.022139410405
 30
0.0
 40
60.0
100
AcDbArc
 50
175.3999999999843
 51
265.3999999999324
  0
ARC
  5
1812F
330
180D1
100
AcDbEntity
  8
AF-21
100
AcDbCircle
 10
10192.53984886985
 20
4810.022139410405
 30
0.0
 40
41.49999999999996
100
AcDbArc
 50
184.2498830984137
 51
256.550116901655
  0
ARC
  5
18130
330
180D1
100
AcDbEntity
  8
AF-21
100
AcDbCircle
 10
10192.53984886985
 20
4810.022139410405
 30
0.0
 40
43.49999999999996
100
AcDbArc
 50
184.2498830984137
 51
256.550116901655
  0
ARC
  5
18131
330
180D1
100
AcDbEntity
  8
AF-21
100
AcDbCircle
 10
10192.53984886985
 20
4810.022139410405
 30
0.0
 40
45.0
100
AcDbArc
 50
184.2498830984137
 51
256.550116901655
  0
ARC
  5
18132
330
180D1
100
AcDbEntity
  8
AF-21
100
AcDbCircle
 10
10183.46865409242
 20
4772.091763386565
 30
0.0
 40
6.0
100
AcDbArc
 50
256.550116901655
 51
355.3999999999843
  0
CIRCLE
  5
18133
330
180D1
100
AcDbEntity
  8
CF-301
100
AcDbCircle
 10
10199.09918337043
 20
4766.857047832724
 30
0.0
 40
2.5
  0
LINE
  5
18134
330
180D1
100
AcDbEntity
  8
AF-21
100
AcDbLine
 10
10198.72672712708
 20
4824.572827965601
 30
0.0
 11
10192.71180780239
 21
4749.814412081383
 31
0.0
  0
LINE
  5
18135
330
180D1
100
AcDbEntity
  8
CF-301
100
AcDbLine
 10
10198.72672712708
 20
4824.572827965601
 30
0.0
 11
10192.71180780239
 21
4749.814412081383
 31
0.0
  0
LINE
  5
18136
330
180D1
100
AcDbEntity
  8
AF-19
100
AcDbLine
 10
10284.48733325289
 20
4723.378961862294
 30
0.0
 11
10202.95082099516
 21
4729.939233872415
 31
0.0
  0
LINE
  5
18137
330
180D1
100
AcDbEntity
  8
AF-19
100
AcDbLine
 10
10284.35821298472
 20
4721.774147867979
 30
0.0
 11
10202.821700727
 21
4728.334419878101
 31
0.0
  0
ARC
  5
18138
330
180D1
100
AcDbEntity
  8
AF-19
100
AcDbCircle
 10
10260.43394147158
 20
4757.617770416469
 30
0.0
 40
22.08217602588873
100
AcDbArc
 50
230.0433341117019
 51
288.5145131353776
  0
LINE
  5
18139
330
180D1
100
AcDbEntity
  8
CF-102
100
AcDbLine
 10
10193.49679060475
 20
4652.337472234054
 30
0.0
 11
10200.64251476249
 21
4741.150470304503
 31
0.0
  0
LINE
  5
1813A
330
180D1
100
AcDbEntity
  8
AF-23
100
AcDbLine
 10
10200.67860427844
 20
4741.599020799809
 30
0.0
 11
10193.46070108881
 21
4651.888921738748
 31
0.0
  0
ARC
  5
1813B
330
180D1
100
AcDbEntity
  8
AF-23
100
AcDbCircle
 10
10261.86027978328
 20
4691.531041187885
 30
0.0
 40
80.0
100
AcDbArc
 50
141.9449884266721
 51
208.8550115733448
  0
LINE
  5
1813C
330
180D1
100
AcDbEntity
  8
AF-23
100
AcDbLine
 10
10193.46070108881
 20
4651.888921738748
 30
0.0
 11
10193.38407110686
 21
4651.895087240705
 31
0.0
  0
ARC
  5
1813D
330
180D1
100
AcDbEntity
  8
AF-23
100
AcDbCircle
 10
10193.54446895552
 20
4653.888644997618
 30
0.0
 40
2.0
100
AcDbArc
 50
208.8550115733448
 51
265.3999999999324
  0
LINE
  5
1813E
330
180D1
100
AcDbEntity
  8
AF-19
100
AcDbLine
 10
10204.47379856818
 20
4748.868064774302
 30
0.0
 11
10202.821700727
 21
4728.334419878101
 31
0.0
  0
LINE
  5
1813F
330
180D1
100
AcDbEntity
  8
AF-19
100
AcDbLine
 10
10199.7611285841
 20
4730.195870430269
 30
0.0
 11
10201.28410615712
 21
4749.124701332152
 31
0.0
  0
LINE
  5
18140
330
180D1
100
AcDbEntity
  8
AF-21
100
AcDbLine
 10
10192.71180780239
 20
4749.814412081383
 30
0.0
 11
10187.72791341012
 21
4750.21540670303
 31
0.0
  0
LINE
  5
18141
330
180D1
100
AcDbEntity
  8
AF-23
100
AcDbLine
 10
10200.67860427844
 20
4741.599020799809
 30
0.0
 11
10200.60197429648
 21
4741.605186301764
 31
0.0
  0
ARC
  5
18142
330
180D1
100
AcDbEntity
  8
AF-23
100
AcDbCircle
 10
10200.44157644782
 20
4739.611628544849
 30
0.0
 40
2.0
100
AcDbArc
 50
85.39999999993245
 51
141.9449884266721
  0
LINE
  5
18143
330
180D1
100
AcDbEntity
  8
AF-19
100
AcDbLine
 10
10219.83795001101
 20
4742.816383153308
 30
0.0
 11
10204.0888437314
 21
4744.083526157711
 31
0.0
  0
ARC
  5
18144
330
180D1
100
AcDbEntity
  8
AF-19
100
AcDbCircle
 10
10226.24458733289
 20
4747.629424819661
 30
0.0
 40
8.013137453975742
100
AcDbArc
 50
216.9160233581432
 51
313.8839766418488
  0
LINE
  5
18145
330
180D1
100
AcDbEntity
  8
AF-19
100
AcDbLine
 10
10246.25259029009
 20
4740.691111658588
 30
0.0
 11
10231.79929655248
 21
4741.85399606136
 31
0.0
  0
LINE
  5
18146
330
180D1
100
AcDbEntity
  8
AF-19
100
AcDbLine
 10
10202.95082099516
 20
4729.939233872415
 30
0.0
 11
10199.7611285841
 21
4730.195870430269
 31
0.0
  0
LINE
  5
18147
330
180D1
100
AcDbEntity
  8
AF-19
100
AcDbLine
 10
10272.97562276192
 20
4736.233594996582
 30
0.0
 11
10267.44602293304
 21
4736.678496035151
 31
0.0
  0
LINE
  5
18148
330
180D1
100
AcDbEntity
  8
CF-102
100
AcDbLine
 10
10252.60613177729
 20
4736.969576950007
 30
0.0
 11
10264.85979860177
 21
4735.983670326532
 31
0.0
  0
ARC
  5
18149
330
180D1
100
AcDbEntity
  8
AF-19
100
AcDbCircle
 10
10276.08353125571
 20
4743.619478603202
 30
0.0
 40
8.013137453975742
100
AcDbArc
 50
247.1791120194345
 51
313.8839766418488
  0
LINE
  5
1814A
330
180D1
100
AcDbEntity
  8
AF-19
100
AcDbLine
 10
10285.62535598912
 20
4737.523254147587
 30
0.0
 11
10284.35821298472
 21
4721.774147867979
 31
0.0
  0
LINE
  5
1814B
330
180D1
100
AcDbEntity
  8
AF-19
100
AcDbLine
 10
10285.62535598912
 20
4737.523254147587
 30
0.0
 11
10281.6382404753
 21
4737.844049844906
 31
0.0
  0
LINE
  5
1814C
330
180D1
100
AcDbEntity
  8
AF-21
100
AcDbLine
 10
10135.92965778434
 20
4829.625360198337
 30
0.0
 11
10198.72672712708
 21
4824.572827965601
 31
0.0
  0
LINE
  5
1814D
330
180D1
100
AcDbEntity
  8
AF-21
100
AcDbLine
 10
10153.72728467839
 20
4808.128766524821
 30
0.0
 11
10186.15818097748
 21
4805.519438564097
 31
0.0
  0
LINE
  5
1814E
330
180D1
100
AcDbEntity
  8
AF-21
100
AcDbLine
 10
10153.8475830649
 20
4809.623934842505
 30
0.0
 11
10186.27847936397
 21
4807.014606881781
 31
0.0
  0
LINE
  5
1814F
330
180D1
100
AcDbEntity
  8
AF-21
100
AcDbLine
 10
10154.00798091356
 20
4811.617492599419
 30
0.0
 11
10186.43887721264
 21
4809.008164638695
 31
0.0
  0
LINE
  5
18150
330
180D1
100
AcDbEntity
  8
AF-21
100
AcDbLine
 10
10154.12827930004
 20
4813.112660917103
 30
0.0
 11
10186.55917559913
 21
4810.503332956375
 31
0.0
  0
ARC
  5
18151
330
180D1
100
AcDbEntity
  8
AF-21
100
AcDbCircle
 10
10192.53984886985
 20
4810.022139410405
 30
0.0
 40
39.99999999999996
100
AcDbArc
 50
184.2498830984137
 51
256.550116901655
  0
ARC
  5
18152
330
180D1
100
AcDbEntity
  8
AF-21
100
AcDbCircle
 10
10135.76925993568
 20
4827.631802441425
 30
0.0
 40
2.0
100
AcDbArc
 50
85.39999999993245
 51
175.3999999999843
  0
ARC
  5
18153
330
180D1
100
AcDbEntity
  8
AF-21
100
AcDbCircle
 10
10153.64708575407
 20
4807.131987646366
 30
0.0
 40
4.5
100
AcDbArc
 50
85.39999999993245
 51
184.2498830984137
  0
ARC
  5
18154
330
180D1
100
AcDbEntity
  8
AF-21
100
AcDbCircle
 10
10153.64708575407
 20
4807.131987646366
 30
0.0
 40
2.5
100
AcDbArc
 50
85.39999999993245
 51
184.2498830984137
  0
ARC
  5
18155
330
180D1
100
AcDbEntity
  8
AF-21
100
AcDbCircle
 10
10153.64708575407
 20
4807.131987646366
 30
0.0
 40
1.0
100
AcDbArc
 50
85.39999999993245
 51
184.2498830984137
  0
ARC
  5
18156
330
180D1
100
AcDbEntity
  8
AF-21
100
AcDbCircle
 10
10153.64708575407
 20
4807.131987646366
 30
0.0
 40
6.0
100
AcDbArc
 50
85.39999999993245
 51
184.2498830984137
  0
LINE
  5
18157
330
180D1
100
AcDbEntity
  8
AF-21
100
AcDbLine
 10
10132.73311616249
 20
4814.834074870152
 30
0.0
 11
10133.77570217876
 21
4827.792200290081
 31
0.0
  0
ARC
  5
18158
330
180D1
100
AcDbEntity
  8
AF-21
100
AcDbCircle
 10
10186.07798205314
 20
4804.52265968564
 30
0.0
 40
1.0
100
AcDbArc
 50
355.3999999999843
 51
85.39999999993245
  0
ARC
  5
18159
330
180D1
100
AcDbEntity
  8
AF-21
100
AcDbCircle
 10
10186.07798205314
 20
4804.52265968564
 30
0.0
 40
6.0
100
AcDbArc
 50
355.3999999999843
 51
85.39999999993245
  0
ARC
  5
1815A
330
180D1
100
AcDbEntity
  8
AF-21
100
AcDbCircle
 10
10186.07798205314
 20
4804.52265968564
 30
0.0
 40
4.5
100
AcDbArc
 50
355.3999999999843
 51
85.39999999993245
  0
ARC
  5
1815B
330
180D1
100
AcDbEntity
  8
AF-21
100
AcDbCircle
 10
10186.07798205314
 20
4804.52265968564
 30
0.0
 40
2.5
100
AcDbArc
 50
355.3999999999843
 51
85.39999999993245
  0
CIRCLE
  5
1815C
330
180D1
100
AcDbEntity
  8
CF-301
100
AcDbCircle
 10
10202.3071403436
 20
4806.728202970973
 30
0.0
 40
2.5
  0
ARC
  5
1815D
330
180D1
100
AcDbEntity
  8
AF-21
100
AcDbCircle
 10
10183.46865409242
 20
4772.091763386565
 30
0.0
 40
1.0
100
AcDbArc
 50
256.550116901655
 51
355.3999999999843
  0
ARC
  5
1815E
330
180D1
100
AcDbEntity
  8
AF-21
100
AcDbCircle
 10
10183.46865409242
 20
4772.091763386565
 30
0.0
 40
4.5
100
AcDbArc
 50
256.550116901655
 51
355.3999999999843
  0
ARC
  5
1815F
330
180D1
100
AcDbEntity
  8
AF-21
100
AcDbCircle
 10
10183.46865409242
 20
4772.091763386565
 30
0.0
 40
2.5
100
AcDbArc
 50
256.550116901655
 51
355.3999999999843
  0
LINE
  5
18160
330
180D1
100
AcDbEntity
  8
AF-21
100
AcDbLine
 10
10188.56992924929
 20
4804.322162374818
 30
0.0
 11
10185.96060128857
 21
4771.89126607574
 31
0.0
  0
LINE
  5
18161
330
180D1
100
AcDbEntity
  8
AF-21
100
AcDbLine
 10
10190.5634870062
 20
4804.16176452616
 30
0.0
 11
10187.95415904548
 21
4771.730868227083
 31
0.0
  0
LINE
  5
18162
330
180D1
100
AcDbEntity
  8
AF-21
100
AcDbLine
 10
10192.05865532389
 20
4804.041466139666
 30
0.0
 11
10189.44932736316
 21
4771.610569840588
 31
0.0
  0
LINE
  5
18163
330
180D1
100
AcDbEntity
  8
AF-21
100
AcDbLine
 10
10187.0747609316
 20
4804.442460761311
 30
0.0
 11
10184.46543297088
 21
4772.011564462234
 31
0.0
  0
LINE
  5
18164
330
180D1
100
AcDbEntity
  8
CF-201
100
AcDbLine
 10
10604.91654890082
 20
4709.626585367494
 30
0.0
 11
10625.64954957269
 21
4707.958447741449
 31
0.0
  0
LINE
  5
18165
330
180D1
100
AcDbEntity
  8
CF-201
100
AcDbLine
 10
10605.04486717974
 20
4711.221431573024
 30
0.0
 11
10625.77786785163
 21
4709.553293946977
 31
0.0
  0
LINE
  5
18166
330
180D1
100
AcDbEntity
  8
CF-201
100
AcDbLine
 10
10599.39759021254
 20
4717.093250955095
 30
0.0
 11
10599.32541118064
 21
4716.196149964487
 31
0.0
  0
LINE
  5
18167
330
180D1
100
AcDbEntity
  8
CF-201
100
AcDbLine
 10
10600.99243641807
 20
4716.964932676169
 30
0.0
 11
10600.92025738616
 21
4716.067831685559
 31
0.0
  0
ARC
  5
18168
330
180D1
100
AcDbEntity
  8
CF-201
100
AcDbCircle
 10
10605.40576233921
 20
4715.706936526076
 30
0.0
 40
6.099999999999997
100
AcDbArc
 50
175.3999999999843
 51
265.3999999999324
  0
ARC
  5
18169
330
180D1
100
AcDbEntity
  8
CF-201
100
AcDbCircle
 10
10605.40576233921
 20
4715.706936526076
 30
0.0
 40
4.5
100
AcDbArc
 50
175.3999999999843
 51
265.3999999999324
  0
LINE
  5
1816A
330
180D1
100
AcDbEntity
  8
CF-501
100
AcDbLine
 10
10633.88613940712
 20
4714.318368173306
 30
0.0
 11
10632.35341276498
 21
4695.268367738604
 31
0.0
  0
LINE
  5
1816B
330
180D1
100
AcDbEntity
  8
CF-501
100
AcDbLine
 10
10637.07583181818
 20
4714.061731615453
 30
0.0
 11
10635.36266923597
 21
4692.769123371724
 31
0.0
  0
LINE
  5
1816C
330
180D1
100
AcDbEntity
  8
CF-501
100
AcDbLine
 10
10718.22738923912
 20
4702.71692098874
 30
0.0
 11
10716.89918149369
 21
4686.2088513616
 31
0.0
  0
LINE
  5
1816D
330
180D1
100
AcDbEntity
  8
CF-501
100
AcDbLine
 10
10716.89918149369
 20
4686.2088513616
 30
0.0
 11
10635.36266923597
 21
4692.769123371724
 31
0.0
  0
LINE
  5
1816E
330
180D1
100
AcDbEntity
  8
CF-501
100
AcDbLine
 10
10717.07961743376
 20
4688.451459170629
 30
0.0
 11
10632.35341276498
 21
4695.268367738604
 31
0.0
  0
ARC
  5
1816F
330
180D1
100
AcDbEntity
  8
AF-19
100
AcDbCircle
 10
10658.8466205829
 20
4712.823091660816
 30
0.0
 40
8.013137453975742
100
AcDbArc
 50
216.9160233581432
 51
313.8839766418488
  0
LINE
  5
18170
330
180D1
100
AcDbEntity
  8
CF-201
100
AcDbLine
 10
10630.62426796416
 20
4713.677903740546
 30
0.0
 11
10630.69644699606
 21
4714.57500473116
 31
0.0
  0
LINE
  5
18171
330
180D1
100
AcDbEntity
  8
CF-201
100
AcDbLine
 10
10632.21911416968
 20
4713.549585461623
 30
0.0
 11
10632.29129320159
 21
4714.446686452233
 31
0.0
  0
LINE
  5
18172
330
180D1
100
AcDbEntity
  8
AF-19
100
AcDbLine
 10
10652.43998326101
 20
4708.010049994465
 30
0.0
 11
10636.6908769814
 21
4709.277192998864
 31
0.0
  0
ARC
  5
18173
330
180D1
100
AcDbEntity
  8
CF-201
100
AcDbCircle
 10
10626.1387630111
 20
4714.03879890003
 30
0.0
 40
6.099999999999997
100
AcDbArc
 50
265.3999999999324
 51
355.3999999999843
  0
ARC
  5
18174
330
180D1
100
AcDbEntity
  8
CF-201
100
AcDbCircle
 10
10626.1387630111
 20
4714.03879890003
 30
0.0
 40
4.5
100
AcDbArc
 50
265.3999999999324
 51
355.3999999999843
  0
ARC
  5
18175
330
180D1
100
AcDbEntity
  8
AF-19
100
AcDbCircle
 10
10693.03597472157
 20
4722.811437257622
 30
0.0
 40
22.08217602588873
100
AcDbArc
 50
230.0433341117019
 51
288.5145131353776
  0
ARC
  5
18176
330
180D1
100
AcDbEntity
  8
AF-19
100
AcDbCircle
 10
10708.68556450571
 20
4708.813145444358
 30
0.0
 40
8.013137453975742
100
AcDbArc
 50
247.1791120194345
 51
313.8839766418488
  0
LINE
  5
18177
330
180D1
100
AcDbEntity
  8
AF-19
100
AcDbLine
 10
10718.22738923912
 20
4702.71692098874
 30
0.0
 11
10714.24027372529
 21
4703.037716686057
 31
0.0
  0
LINE
  5
18178
330
180D1
100
AcDbEntity
  8
AF-19
100
AcDbLine
 10
10705.57765601193
 20
4701.427261837736
 30
0.0
 11
10700.04805618304
 21
4701.872162876303
 31
0.0
  0
LINE
  5
18179
330
180D1
100
AcDbEntity
  8
CF-102
100
AcDbLine
 10
10685.2081650273
 20
4702.163243791161
 30
0.0
 11
10697.46183185178
 21
4701.177337167687
 31
0.0
  0
LINE
  5
1817A
330
180D1
100
AcDbEntity
  8
AF-19
100
AcDbLine
 10
10678.8546235401
 20
4705.884778499743
 30
0.0
 11
10664.40132980248
 21
4707.047662902514
 31
0.0
  0
LINE
  5
1817B
330
180D1
100
AcDbEntity
  8
CF-102
100
AcDbLine
 10
11203.40206648945
 20
4660.470352429388
 30
0.0
 11
11526.35842310927
 21
4634.485900946748
 31
0.0
  0
LINE
  5
1817C
330
180D1
100
AcDbEntity
  8
CF-201
100
AcDbLine
 10
11090.347862709
 20
4670.569709219203
 30
0.0
 11
11111.08086338089
 21
4668.901571593158
 31
0.0
  0
LINE
  5
1817D
330
180D1
100
AcDbEntity
  8
CF-201
100
AcDbLine
 10
11090.47618098792
 20
4672.164555424735
 30
0.0
 11
11111.2091816598
 21
4670.496417798687
 31
0.0
  0
LINE
  5
1817E
330
180D1
100
AcDbEntity
  8
CF-201
100
AcDbLine
 10
11084.82890402072
 20
4678.036374806803
 30
0.0
 11
11084.75672498882
 21
4677.139273816193
 31
0.0
  0
LINE
  5
1817F
330
180D1
100
AcDbEntity
  8
CF-201
100
AcDbLine
 10
11086.42375022624
 20
4677.908056527878
 30
0.0
 11
11086.35157119434
 21
4677.010955537268
 31
0.0
  0
ARC
  5
18180
330
180D1
100
AcDbEntity
  8
CF-201
100
AcDbCircle
 10
11090.83707614741
 20
4676.650060377784
 30
0.0
 40
4.5
100
AcDbArc
 50
175.3999999999843
 51
265.3999999999324
  0
ARC
  5
18181
330
180D1
100
AcDbEntity
  8
CF-201
100
AcDbCircle
 10
11090.83707614741
 20
4676.650060377784
 30
0.0
 40
6.099999999999997
100
AcDbArc
 50
175.3999999999843
 51
265.3999999999324
  0
LINE
  5
18182
330
180D1
100
AcDbEntity
  8
AF-19
100
AcDbLine
 10
11164.28593734827
 20
4666.82790235145
 30
0.0
 11
11149.83264361067
 21
4667.990786754223
 31
0.0
  0
LINE
  5
18183
330
180D1
100
AcDbEntity
  8
CF-501
100
AcDbLine
 10
11202.51093124195
 20
4649.394583022337
 30
0.0
 11
11117.78472657316
 21
4656.211491590313
 31
0.0
  0
LINE
  5
18184
330
180D1
100
AcDbEntity
  8
CF-501
100
AcDbLine
 10
11202.33049530187
 20
4647.15197521331
 30
0.0
 11
11120.79398304415
 21
4653.712247223432
 31
0.0
  0
LINE
  5
18185
330
180D1
100
AcDbEntity
  8
CF-501
100
AcDbLine
 10
11119.3174532153
 20
4675.261492025016
 30
0.0
 11
11117.78472657316
 21
4656.211491590313
 31
0.0
  0
LINE
  5
18186
330
180D1
100
AcDbEntity
  8
CF-501
100
AcDbLine
 10
11122.50714562635
 20
4675.004855467161
 30
0.0
 11
11120.79398304415
 21
4653.712247223432
 31
0.0
  0
LINE
  5
18187
330
180D1
100
AcDbEntity
  8
CF-201
100
AcDbLine
 10
11116.05558177235
 20
4674.621027592261
 30
0.0
 11
11116.12776080423
 21
4675.518128582869
 31
0.0
  0
LINE
  5
18188
330
180D1
100
AcDbEntity
  8
CF-201
100
AcDbLine
 10
11117.65042797788
 20
4674.492709313332
 30
0.0
 11
11117.72260700978
 21
4675.389810303942
 31
0.0
  0
LINE
  5
18189
330
180D1
100
AcDbEntity
  8
AF-19
100
AcDbLine
 10
11137.87129706918
 20
4668.953173846174
 30
0.0
 11
11122.12219078958
 21
4670.220316850573
 31
0.0
  0
ARC
  5
1818A
330
180D1
100
AcDbEntity
  8
CF-201
100
AcDbCircle
 10
11111.57007681928
 20
4674.981922751739
 30
0.0
 40
4.5
100
AcDbArc
 50
265.3999999999324
 51
355.3999999999843
  0
ARC
  5
1818B
330
180D1
100
AcDbEntity
  8
CF-201
100
AcDbCircle
 10
11111.57007681928
 20
4674.981922751739
 30
0.0
 40
6.099999999999997
100
AcDbArc
 50
265.3999999999324
 51
355.3999999999843
  0
ARC
  5
1818C
330
180D1
100
AcDbEntity
  8
AF-19
100
AcDbCircle
 10
11144.27793439108
 20
4673.766215512522
 30
0.0
 40
8.013137453975742
100
AcDbArc
 50
216.9160233581432
 51
313.8839766418488
  0
LINE
  5
1818D
330
180D1
100
AcDbEntity
  8
AF-19
100
AcDbLine
 10
11203.6587030473
 20
4663.660044840447
 30
0.0
 11
11199.67158753347
 21
4663.980840537766
 31
0.0
  0
LINE
  5
1818E
330
180D1
100
AcDbEntity
  8
AF-19
100
AcDbLine
 10
11191.00896982011
 20
4662.370385689444
 30
0.0
 11
11185.47936999122
 21
4662.815286728012
 31
0.0
  0
ARC
  5
1818F
330
180D1
100
AcDbEntity
  8
AF-19
100
AcDbCircle
 10
11194.11687831389
 20
4669.756269296067
 30
0.0
 40
8.013137453975742
100
AcDbArc
 50
247.1791120194345
 51
313.8839766418488
  0
LINE
  5
18190
330
180D1
100
AcDbEntity
  8
CF-501
100
AcDbLine
 10
11203.6587030473
 20
4663.660044840447
 30
0.0
 11
11202.33049530187
 21
4647.15197521331
 31
0.0
  0
LINE
  5
18191
330
180D1
100
AcDbEntity
  8
CF-102
100
AcDbLine
 10
11170.63947883548
 20
4663.10636764287
 30
0.0
 11
11182.89314565996
 21
4662.120461019394
 31
0.0
  0
ARC
  5
18192
330
180D1
100
AcDbEntity
  8
AF-19
100
AcDbCircle
 10
11178.46728852975
 20
4683.754561109334
 30
0.0
 40
22.08217602588873
100
AcDbArc
 50
230.0433341117019
 51
288.5145131353776
  0
CIRCLE
  5
18193
330
180D1
100
AcDbEntity
  8
CF-102
100
AcDbCircle
 10
11502.84998346128
 20
4591.683380398106
 30
0.0
 40
6.0
  0
CIRCLE
  5
18194
330
180D1
100
AcDbEntity
  8
CF-101
100
AcDbCircle
 10
11542.72113859953
 20
4588.475423424937
 30
0.0
 40
6.0
  0
LINE
  5
18195
330
180D1
100
AcDbEntity
  8
CF-101
100
AcDbLine
 10
11526.35842310927
 20
4634.485900946748
 30
0.0
 11
11519.21269895153
 21
4545.672902876298
 31
0.0
  0
LINE
  5
18196
330
180D1
100
AcDbEntity
  8
CF-102
100
AcDbLine
 10
11526.35842310927
 20
4634.485900946748
 30
0.0
 11
11519.21269895153
 21
4545.672902876298
 31
0.0
  0
LINE
  5
18197
330
180D1
100
AcDbEntity
  8
CF-101
100
AcDbLine
 10
11766.41386080867
 20
4525.783569642674
 30
0.0
 11
11519.21269895153
 21
4545.672902876298
 31
0.0
  0
ARC
  5
18198
330
180D1
100
AcDbEntity
  8
CF-201
100
AcDbCircle
 10
11597.00139062747
 20
4635.92504660345
 30
0.0
 40
6.099999999999997
100
AcDbArc
 50
265.3999999999324
 51
355.3999999999843
  0
ARC
  5
18199
330
180D1
100
AcDbEntity
  8
CF-201
100
AcDbCircle
 10
11597.00139062747
 20
4635.92504660345
 30
0.0
 40
4.5
100
AcDbArc
 50
265.3999999999324
 51
355.3999999999843
  0
LINE
  5
1819A
330
180D1
100
AcDbEntity
  8
CF-101
100
AcDbLine
 10
11604.10717562884
 20
4628.230384849074
 30
0.0
 11
11526.35842310927
 21
4634.485900946748
 31
0.0
  0
LINE
  5
1819B
330
180D1
100
AcDbEntity
  8
CF-201
100
AcDbLine
 10
11571.85506403443
 20
4638.851180379586
 30
0.0
 11
11571.78288500253
 21
4637.954079388975
 31
0.0
  0
LINE
  5
1819C
330
180D1
100
AcDbEntity
  8
CF-201
100
AcDbLine
 10
11570.26021782889
 20
4638.979498658513
 30
0.0
 11
11570.188038797
 21
4638.082397667903
 31
0.0
  0
ARC
  5
1819D
330
180D1
100
AcDbEntity
  8
CF-201
100
AcDbCircle
 10
11576.26838995559
 20
4637.593184229495
 30
0.0
 40
6.099999999999997
100
AcDbArc
 50
175.3999999999843
 51
265.3999999999324
  0
ARC
  5
1819E
330
180D1
100
AcDbEntity
  8
CF-201
100
AcDbCircle
 10
11576.26838995559
 20
4637.593184229495
 30
0.0
 40
4.5
100
AcDbArc
 50
175.3999999999843
 51
265.3999999999324
  0
LINE
  5
1819F
330
180D1
100
AcDbEntity
  8
CF-201
100
AcDbLine
 10
11575.77917651718
 20
4631.512833070914
 30
0.0
 11
11596.51217718907
 21
4629.844695444867
 31
0.0
  0
LINE
  5
181A0
330
180D1
100
AcDbEntity
  8
CF-201
100
AcDbLine
 10
11575.90749479611
 20
4633.107679276442
 30
0.0
 11
11596.640495468
 21
4631.439541650395
 31
0.0
  0
LINE
  5
181A1
330
180D1
100
AcDbEntity
  8
CF-101
100
AcDbLine
 10
11773.5595849664
 20
4614.59656771312
 30
0.0
 11
11688.83338029762
 21
4621.413476281097
 31
0.0
  0
LINE
  5
181A2
330
180D1
100
AcDbEntity
  8
AF-19
100
AcDbLine
 10
11649.71725115647
 20
4627.771026203157
 30
0.0
 11
11635.26395741885
 21
4628.933910605931
 31
0.0
  0
LINE
  5
181A3
330
180D1
100
AcDbEntity
  8
CF-501
100
AcDbLine
 10
11687.76180911004
 20
4608.09509906502
 30
0.0
 11
11606.22529685233
 21
4614.655371075143
 31
0.0
  0
LINE
  5
181A4
330
180D1
100
AcDbEntity
  8
CF-501
100
AcDbLine
 10
11687.94224505012
 20
4610.337706874044
 30
0.0
 11
11603.21604038135
 21
4617.154615442024
 31
0.0
  0
LINE
  5
181A5
330
180D1
100
AcDbEntity
  8
CF-201
100
AcDbLine
 10
11601.48689558053
 20
4635.564151443969
 30
0.0
 11
11601.55907461243
 21
4636.461252434578
 31
0.0
  0
LINE
  5
181A6
330
180D1
100
AcDbEntity
  8
CF-201
100
AcDbLine
 10
11603.08174178606
 20
4635.435833165042
 30
0.0
 11
11603.15392081795
 21
4636.332934155652
 31
0.0
  0
LINE
  5
181A7
330
180D1
100
AcDbEntity
  8
CF-501
100
AcDbLine
 10
11604.74876702347
 20
4636.204615876725
 30
0.0
 11
11603.21604038135
 21
4617.154615442024
 31
0.0
  0
LINE
  5
181A8
330
180D1
100
AcDbEntity
  8
CF-501
100
AcDbLine
 10
11607.93845943455
 20
4635.947979318871
 30
0.0
 11
11606.22529685233
 21
4614.655371075143
 31
0.0
  0
LINE
  5
181A9
330
180D1
100
AcDbEntity
  8
AF-19
100
AcDbLine
 10
11623.30261087737
 20
4629.896297697881
 30
0.0
 11
11607.55350459776
 21
4631.163440702282
 31
0.0
  0
ARC
  5
181AA
330
180D1
100
AcDbEntity
  8
AF-19
100
AcDbCircle
 10
11629.70924819926
 20
4634.70933936423
 30
0.0
 40
8.013137453975742
100
AcDbArc
 50
216.9160233581432
 51
313.8839766418488
  0
LINE
  5
181AB
330
180D1
100
AcDbEntity
  8
CF-501
100
AcDbLine
 10
11689.09001685549
 20
4624.603168692156
 30
0.0
 11
11687.76180911004
 21
4608.09509906502
 31
0.0
  0
ARC
  5
181AC
330
180D1
100
AcDbEntity
  8
AF-19
100
AcDbCircle
 10
11679.54819212208
 20
4630.699393147775
 30
0.0
 40
8.013137453975742
100
AcDbArc
 50
247.1791120194345
 51
313.8839766418488
  0
LINE
  5
181AD
330
180D1
100
AcDbEntity
  8
AF-19
100
AcDbLine
 10
11676.44028362829
 20
4623.313509541154
 30
0.0
 11
11670.9106837994
 21
4623.758410579722
 31
0.0
  0
LINE
  5
181AE
330
180D1
100
AcDbEntity
  8
AF-19
100
AcDbLine
 10
11689.09001685549
 20
4624.603168692156
 30
0.0
 11
11685.10290134166
 21
4624.923964389475
 31
0.0
  0
ARC
  5
181AF
330
180D1
100
AcDbEntity
  8
AF-19
100
AcDbCircle
 10
11663.89860233794
 20
4644.697684961042
 30
0.0
 40
22.08217602588873
100
AcDbArc
 50
230.0433341117019
 51
288.5145131353776
  0
LINE
  5
181B0
330
180D1
100
AcDbEntity
  8
CF-101
100
AcDbLine
 10
11668.32445946814
 20
4623.063584871102
 30
0.0
 11
11656.07079264367
 21
4624.049491494581
 31
0.0
  0
TEXT
  5
181B1
330
180D1
100
AcDbEntity
  8
SUNPOU
100
AcDbText
 10
10951.77947371787
 20
5151.590926579783
 30
0.0
 40
90.0
  1
1860
 41
0.6666666666666666
  7
00
 72
     1
 11
11070.3509022893
 21
5196.590926579783
 31
0.0
100
AcDbText
 73
     2
  0
TEXT
  5
181B2
330
180D1
100
AcDbEntity
  8
SUNPOU
100
AcDbText
 10
11026.06518800359
 20
5361.590926579784
 30
0.0
 40
90.0
  1
2000
 41
0.6666666666666666
  7
00
 72
     1
 11
11140.3509022893
 21
5406.590926579784
 31
0.0
100
AcDbText
 73
     2
  0
LINE
  5
181B3
330
180D1
100
AcDbEntity
  8
CF-101
100
AcDbLine
 10
12044.90090228929
 20
2584.546798568535
 30
0.0
 11
12044.90090228931
 21
4244.546798568534
 31
0.0
  0
ARC
  5
181B4
330
180D1
100
AcDbEntity
  8
AF-22
100
AcDbCircle
 10
12140.99780994557
 20
4250.093257627113
 30
0.0
 40
15.0
100
AcDbArc
 50
179.9999999999739
 51
270.0
  0
LINE
  5
181B5
330
180D1
100
AcDbEntity
  8
AF-22
100
AcDbLine
 10
12116.9974334364
 20
4238.093257627124
 30
0.0
 11
12116.99743343641
 21
4250.093257627125
 31
0.0
  0
CIRCLE
  5
181B6
330
180D1
100
AcDbEntity
  8
CF-301
100
AcDbCircle
 10
12107.4974334364
 20
4242.59325762713
 30
0.0
 40
2.5
  0
LINE
  5
181B7
330
180D1
100
AcDbEntity
  8
CF-301
100
AcDbLine
 10
12116.99743343641
 20
4247.093257627125
 30
0.0
 11
12116.9974334364
 21
4238.093257627124
 31
0.0
  0
CIRCLE
  5
181B8
330
180D1
100
AcDbEntity
  8
CF-301
100
AcDbCircle
 10
12067.4974334364
 20
4242.593257627148
 30
0.0
 40
2.5
  0
LINE
  5
181B9
330
180D1
100
AcDbEntity
  8
CF-301
100
AcDbLine
 10
12049.99743343643
 20
4305.093257627156
 30
0.0
 11
12049.9974334364
 21
4235.093257627156
 31
0.0
  0
LINE
  5
181BA
330
180D1
100
AcDbEntity
  8
AF-22
100
AcDbLine
 10
12143.99743343637
 20
4194.093257627112
 30
0.0
 11
12091.11875377994
 21
4194.093257627137
 31
0.0
  0
ARC
  5
181BB
330
180D1
100
AcDbEntity
  8
AF-22
100
AcDbCircle
 10
12097.95327755911
 20
4212.593257627134
 30
0.0
 40
8.5
100
AcDbArc
 50
224.9999999998787
 51
270.0
  0
LINE
  5
181BC
330
180D1
100
AcDbEntity
  8
AF-22
100
AcDbLine
 10
12094.41774365317
 20
4209.057723721204
 30
0.0
 11
12081.1499767002
 21
4222.325490674175
 31
0.0
  0
LINE
  5
181BD
330
180D1
100
AcDbEntity
  8
AF-22
100
AcDbLine
 10
12095.47840382495
 20
4210.118383892981
 30
0.0
 11
12082.21063687199
 21
4223.386150845954
 31
0.0
  0
LINE
  5
181BE
330
180D1
100
AcDbEntity
  8
AF-22
100
AcDbLine
 10
12093.0035300908
 20
4207.64351015883
 30
0.0
 11
12079.73576313784
 21
4220.911277111802
 31
0.0
  0
LINE
  5
181BF
330
180D1
100
AcDbEntity
  8
AF-22
100
AcDbLine
 10
12054.03296734232
 20
4235.093257627155
 30
0.0
 11
12113.9974334364
 21
4235.093257627126
 31
0.0
  0
LINE
  5
181C0
330
180D1
100
AcDbEntity
  8
AF-22
100
AcDbLine
 10
12129.99743343639
 20
4230.093257627117
 30
0.0
 11
12082.91774365318
 21
4230.093257627141
 31
0.0
  0
LINE
  5
181C1
330
180D1
100
AcDbEntity
  8
AF-22
100
AcDbLine
 10
12129.99743343639
 20
4228.593257627117
 30
0.0
 11
12082.91774365318
 21
4228.59325762714
 31
0.0
  0
LINE
  5
181C2
330
180D1
100
AcDbEntity
  8
AF-22
100
AcDbLine
 10
12129.99743343639
 20
4226.593257627119
 30
0.0
 11
12082.91774365318
 21
4226.593257627141
 31
0.0
  0
LINE
  5
181C3
330
180D1
100
AcDbEntity
  8
AF-22
100
AcDbLine
 10
12129.99743343639
 20
4225.093257627118
 30
0.0
 11
12082.91774365318
 21
4225.093257627142
 31
0.0
  0
LINE
  5
181C4
330
180D1
100
AcDbEntity
  8
CF-301
100
AcDbLine
 10
12049.9974334364
 20
4235.093257627156
 30
0.0
 11
12113.9974334364
 21
4235.093257627126
 31
0.0
  0
ARC
  5
181C5
330
180D1
100
AcDbEntity
  8
AF-22
100
AcDbCircle
 10
12082.91774365318
 20
4224.093257627139
 30
0.0
 40
6.0
100
AcDbArc
 50
90.0
 51
224.9999999998787
  0
ARC
  5
181C6
330
180D1
100
AcDbEntity
  8
AF-22
100
AcDbCircle
 10
12082.91774365318
 20
4224.093257627139
 30
0.0
 40
4.5
100
AcDbArc
 50
90.0
 51
224.9999999998787
  0
LINE
  5
181C7
330
180D1
100
AcDbEntity
  8
AF-22
100
AcDbLine
 10
12089.70454021756
 20
4194.679044064764
 30
0.0
 11
12050.14388004581
 21
4234.239704236561
 31
0.0
  0
ARC
  5
181C8
330
180D1
100
AcDbEntity
  8
AF-22
100
AcDbCircle
 10
12050.4974334364
 20
4234.593257627156
 30
0.0
 40
0.499999999999894
100
AcDbArc
 50
90.0
 51
224.9999999998787
  0
LINE
  5
181C9
330
180D1
100
AcDbEntity
  8
AF-22
100
AcDbLine
 10
12054.03296734232
 20
4235.093257627155
 30
0.0
 11
12050.4974334364
 21
4235.093257627156
 31
0.0
  0
ARC
  5
181CA
330
180D1
100
AcDbEntity
  8
AF-22
100
AcDbCircle
 10
12082.91774365318
 20
4224.093257627139
 30
0.0
 40
1.0
100
AcDbArc
 50
90.0
 51
224.9999999998787
  0
ARC
  5
181CB
330
180D1
100
AcDbEntity
  8
AF-22
100
AcDbCircle
 10
12082.91774365318
 20
4224.093257627139
 30
0.0
 40
2.5
100
AcDbArc
 50
90.0
 51
224.9999999998787
  0
ARC
  5
181CC
330
180D1
100
AcDbEntity
  8
AF-22
100
AcDbCircle
 10
12091.11875377994
 20
4196.093257627135
 30
0.0
 40
2.0
100
AcDbArc
 50
224.9999999998787
 51
270.0
  0
LINE
  5
181CD
330
180D1
100
AcDbEntity
  8
AF-22
100
AcDbLine
 10
12091.94286991902
 20
4206.582849987049
 30
0.0
 11
12078.67510296605
 21
4219.85061694002
 31
0.0
  0
LINE
  5
181CE
330
180D1
100
AcDbEntity
  8
TATEDOISIJIKANAGU
100
AcDbLine
 10
12141.05809360815
 20
4180.093257627125
 30
0.0
 11
12141.05809360815
 21
4168.093257627125
 31
0.0
  0
ARC
  5
181CF
330
180D1
100
AcDbEntity
  8
TATEDOISIJIKANAGU
100
AcDbCircle
 10
12140.55809360816
 20
4168.093257627125
 30
0.0
 40
0.5
100
AcDbArc
 50
270.0
 51
0.0
  0
LINE
  5
181D0
330
180D1
100
AcDbEntity
  8
TATEDOISIJIKANAGU
100
AcDbLine
 10
12139.05809360815
 20
4167.093257627125
 30
0.0
 11
12139.05809360815
 21
4160.945911588543
 31
0.0
  0
ARC
  5
181D1
330
180D1
100
AcDbEntity
  8
TATEDOISIJIKANAGU
100
AcDbCircle
 10
12139.55809360816
 20
4167.093257627125
 30
0.0
 40
0.5
100
AcDbArc
 50
90.0
 51
180.0
  0
LINE
  5
181D2
330
180D1
100
AcDbEntity
  8
TATEDOISIJIKANAGU
100
AcDbLine
 10
12094.05809360815
 20
4180.093257627125
 30
0.0
 11
12094.05809360815
 21
4168.093257627125
 31
0.0
  0
ARC
  5
181D3
330
180D1
100
AcDbEntity
  8
TATEDOISIJIKANAGU
100
AcDbCircle
 10
12094.55809360815
 20
4168.093257627125
 30
0.0
 40
0.5
100
AcDbArc
 50
180.0
 51
270.0
  0
LINE
  5
181D4
330
180D1
100
AcDbEntity
  8
TATEDOISIJIKANAGU
100
AcDbLine
 10
12096.05809360815
 20
4167.093257627125
 30
0.0
 11
12096.05809360815
 21
4160.945911588543
 31
0.0
  0
ARC
  5
181D5
330
180D1
100
AcDbEntity
  8
TATEDOISIJIKANAGU
100
AcDbCircle
 10
12095.55809360815
 20
4167.093257627125
 30
0.0
 40
0.5
100
AcDbArc
 50
0.0
 51
90.0
  0
LINE
  5
181D6
330
180D1
100
AcDbEntity
  8
TATEDOISIJIKANAGU
100
AcDbLine
 10
12094.55809360815
 20
4167.593257627125
 30
0.0
 11
12140.55809360816
 21
4167.593257627125
 31
0.0
  0
LINE
  5
181D7
330
180D1
100
AcDbEntity
  8
TATEDOISIJIKANAGU
100
AcDbLine
 10
12094.55809360815
 20
4192.093257627125
 30
0.0
 11
12094.55809360815
 21
4180.593257627125
 31
0.0
  0
LINE
  5
181D8
330
180D1
100
AcDbEntity
  8
TATEDOISIJIKANAGU
100
AcDbLine
 10
12140.55809360816
 20
4180.593257627125
 30
0.0
 11
12094.55809360815
 21
4180.593257627125
 31
0.0
  0
LINE
  5
181D9
330
180D1
100
AcDbEntity
  8
TATEDOISIJIKANAGU
100
AcDbLine
 10
12094.55809360815
 20
4192.093257627125
 30
0.0
 11
12112.05809360816
 21
4192.093257627125
 31
0.0
  0
LINE
  5
181DA
330
180D1
100
AcDbEntity
  8
TATEDOISIJIKANAGU
100
AcDbLine
 10
12112.05809360816
 20
4186.093257627125
 30
0.0
 11
12112.05809360816
 21
4192.093257627125
 31
0.0
  0
LINE
  5
181DB
330
180D1
100
AcDbEntity
  8
TATEDOISIJIKANAGU
100
AcDbLine
 10
12123.05809360815
 20
4192.093257627125
 30
0.0
 11
12123.05809360815
 21
4186.093257627125
 31
0.0
  0
LINE
  5
181DC
330
180D1
100
AcDbEntity
  8
TATEDOISIJIKANAGU
100
AcDbLine
 10
12123.05809360815
 20
4186.093257627125
 30
0.0
 11
12112.05809360816
 21
4186.093257627125
 31
0.0
  0
ARC
  5
181DD
330
180D1
100
AcDbEntity
  8
TATEDOISIJIKANAGU
100
AcDbCircle
 10
12094.55809360815
 20
4180.093257627125
 30
0.0
 40
0.5
100
AcDbArc
 50
90.0
 51
180.0
  0
ARC
  5
181DE
330
180D1
100
AcDbEntity
  8
TATEDOISIJIKANAGU
100
AcDbCircle
 10
12140.55809360816
 20
4180.093257627125
 30
0.0
 40
0.5
100
AcDbArc
 50
0.0
 51
90.0
  0
ARC
  5
181DF
330
180D1
100
AcDbEntity
  8
AF-22
100
AcDbCircle
 10
12129.99743343639
 20
4210.093257627119
 30
0.0
 40
6.0
100
AcDbArc
 50
270.0
 51
359.999999999974
  0
ARC
  5
181E0
330
180D1
100
AcDbEntity
  8
AF-22
100
AcDbCircle
 10
12129.99743343639
 20
4210.093257627119
 30
0.0
 40
4.5
100
AcDbArc
 50
270.0
 51
359.999999999974
  0
ARC
  5
181E1
330
180D1
100
AcDbEntity
  8
AF-22
100
AcDbCircle
 10
12129.99743343639
 20
4224.09325762712
 30
0.0
 40
6.0
100
AcDbArc
 50
359.999999999974
 51
90.0
  0
ARC
  5
181E2
330
180D1
100
AcDbEntity
  8
AF-22
100
AcDbCircle
 10
12129.99743343639
 20
4224.09325762712
 30
0.0
 40
4.5
100
AcDbArc
 50
359.999999999974
 51
90.0
  0
LINE
  5
181E3
330
180D1
100
AcDbEntity
  8
AF-22
100
AcDbLine
 10
12132.49743343639
 20
4210.093257627119
 30
0.0
 11
12132.49743343639
 21
4224.093257627119
 31
0.0
  0
LINE
  5
181E4
330
180D1
100
AcDbEntity
  8
AF-22
100
AcDbLine
 10
12130.99743343639
 20
4210.093257627119
 30
0.0
 11
12130.9974334364
 21
4224.093257627119
 31
0.0
  0
ARC
  5
181E5
330
180D1
100
AcDbEntity
  8
AF-22
100
AcDbCircle
 10
12097.95327755911
 20
4212.593257627134
 30
0.0
 40
7.0
100
AcDbArc
 50
224.9999999998787
 51
270.0
  0
ARC
  5
181E6
330
180D1
100
AcDbEntity
  8
AF-22
100
AcDbCircle
 10
12097.95327755911
 20
4212.593257627134
 30
0.0
 40
5.0
100
AcDbArc
 50
224.9999999998787
 51
270.0
  0
ARC
  5
181E7
330
180D1
100
AcDbEntity
  8
AF-22
100
AcDbCircle
 10
12097.95327755911
 20
4212.593257627134
 30
0.0
 40
3.5
100
AcDbArc
 50
224.9999999998787
 51
270.0
  0
ARC
  5
181E8
330
180D1
100
AcDbEntity
  8
AF-22
100
AcDbCircle
 10
12129.99743343639
 20
4210.093257627119
 30
0.0
 40
1.0
100
AcDbArc
 50
270.0
 51
359.999999999974
  0
ARC
  5
181E9
330
180D1
100
AcDbEntity
  8
AF-22
100
AcDbCircle
 10
12129.99743343639
 20
4210.093257627119
 30
0.0
 40
2.5
100
AcDbArc
 50
270.0
 51
359.999999999974
  0
LINE
  5
181EA
330
180D1
100
AcDbEntity
  8
AF-22
100
AcDbLine
 10
12129.99743343639
 20
4204.093257627119
 30
0.0
 11
12097.95327755909
 21
4204.093257627135
 31
0.0
  0
LINE
  5
181EB
330
180D1
100
AcDbEntity
  8
AF-22
100
AcDbLine
 10
12129.99743343639
 20
4205.593257627119
 30
0.0
 11
12097.95327755909
 21
4205.593257627135
 31
0.0
  0
LINE
  5
181EC
330
180D1
100
AcDbEntity
  8
AF-22
100
AcDbLine
 10
12129.99743343639
 20
4207.593257627119
 30
0.0
 11
12097.95327755909
 21
4207.593257627133
 31
0.0
  0
LINE
  5
181ED
330
180D1
100
AcDbEntity
  8
AF-22
100
AcDbLine
 10
12129.99743343639
 20
4209.093257627119
 30
0.0
 11
12097.95327755911
 21
4209.093257627134
 31
0.0
  0
ARC
  5
181EE
330
180D1
100
AcDbEntity
  8
AF-22
100
AcDbCircle
 10
12113.9974334364
 20
4238.093257627126
 30
0.0
 40
3.0
100
AcDbArc
 50
270.0
 51
359.999999999974
  0
ARC
  5
181EF
330
180D1
100
AcDbEntity
  8
AF-22
100
AcDbCircle
 10
12129.99743343639
 20
4224.09325762712
 30
0.0
 40
1.0
100
AcDbArc
 50
359.999999999974
 51
90.0
  0
ARC
  5
181F0
330
180D1
100
AcDbEntity
  8
AF-22
100
AcDbCircle
 10
12129.99743343639
 20
4224.09325762712
 30
0.0
 40
2.5
100
AcDbArc
 50
359.999999999974
 51
90.0
  0
ARC
  5
181F1
330
180D1
100
AcDbEntity
  8
CF-301
100
AcDbCircle
 10
12113.9974334364
 20
4238.093257627126
 30
0.0
 40
3.0
100
AcDbArc
 50
270.0
 51
359.999999999974
  0
LINE
  5
181F2
330
180D1
100
AcDbEntity
  8
AF-22
100
AcDbLine
 10
12145.99743343639
 20
4233.093257627111
 30
0.0
 11
12145.99743343637
 21
4196.093257627111
 31
0.0
  0
LINE
  5
181F3
330
180D1
100
AcDbEntity
  8
AF-22
100
AcDbLine
 10
12135.9974334364
 20
4224.093257627116
 30
0.0
 11
12135.99743343639
 21
4210.093257627117
 31
0.0
  0
LINE
  5
181F4
330
180D1
100
AcDbEntity
  8
AF-22
100
AcDbLine
 10
12134.49743343639
 20
4210.093257627117
 30
0.0
 11
12134.49743343639
 21
4224.093257627116
 31
0.0
  0
ARC
  5
181F5
330
180D1
100
AcDbEntity
  8
AF-22
100
AcDbCircle
 10
12143.99743343637
 20
4196.093257627113
 30
0.0
 40
2.0
100
AcDbArc
 50
270.0
 51
359.999999999974
  0
LINE
  5
181F6
330
180D1
100
AcDbEntity
  8
AF-22
100
AcDbLine
 10
12143.99743343639
 20
4235.093257627112
 30
0.0
 11
12140.99780994557
 21
4235.093257627113
 31
0.0
  0
ARC
  5
181F7
330
180D1
100
AcDbEntity
  8
AF-22
100
AcDbCircle
 10
12143.99743343639
 20
4233.093257627113
 30
0.0
 40
2.0
100
AcDbArc
 50
359.999999999974
 51
90.0
  0
LINE
  5
181F8
330
180D1
100
AcDbEntity
  8
SUNPOU
100
AcDbLine
 10
12000.3509022893
 20
4834.546798568534
 30
0.0
 11
12000.3509022893
 21
5151.590926579784
 31
0.0
  0
LINE
  5
181F9
330
180D1
100
AcDbEntity
  8
SUNPOU
100
AcDbLine
 10
12140.3509022893
 20
4834.546798568535
 30
0.0
 11
12140.3509022893
 21
5361.590926579782
 31
0.0
  0
LINE
  5
181FA
330
180D1
100
AcDbEntity
  8
AF-19
100
AcDbLine
 10
12033.91090228931
 20
4244.546798568535
 30
0.0
 11
12049.99743343641
 21
4244.546798568535
 31
0.0
  0
LINE
  5
181FB
330
180D1
100
AcDbEntity
  8
AF-19
100
AcDbLine
 10
12049.99743343641
 20
4247.746798568534
 30
0.0
 11
12032.30090228931
 21
4247.746798568534
 31
0.0
  0
LINE
  5
181FC
330
180D1
100
AcDbEntity
  8
AF-19
100
AcDbLine
 10
12048.1009022893
 20
4329.546798568535
 30
0.0
 11
12048.1009022893
 21
4325.546798568535
 31
0.0
  0
LINE
  5
181FD
330
180D1
100
AcDbEntity
  8
AF-19
100
AcDbLine
 10
12048.1009022893
 20
4329.546798568535
 30
0.0
 11
12032.30090228931
 21
4329.546798568535
 31
0.0
  0
ARC
  5
181FE
330
180D1
100
AcDbEntity
  8
AF-19
100
AcDbCircle
 10
12066.1103673323
 20
4302.824970069337
 30
0.0
 40
22.08217602588873
100
AcDbArc
 50
156.8854868646706
 51
215.3566658881422
  0
LINE
  5
181FF
330
180D1
100
AcDbEntity
  8
AF-19
100
AcDbLine
 10
12048.1009022893
 20
4290.046798568534
 30
0.0
 11
12048.1009022893
 21
4275.546798568536
 31
0.0
  0
LINE
  5
18200
330
180D1
100
AcDbEntity
  8
AF-19
100
AcDbLine
 10
12033.91090228931
 20
4247.746798568534
 30
0.0
 11
12033.91090228931
 21
4244.546798568535
 31
0.0
  0
LINE
  5
18201
330
180D1
100
AcDbEntity
  8
AF-19
100
AcDbLine
 10
12048.1009022893
 20
4263.546798568535
 30
0.0
 11
12048.1009022893
 21
4247.746798568534
 31
0.0
  0
ARC
  5
18202
330
180D1
100
AcDbEntity
  8
AF-19
100
AcDbCircle
 10
12053.41224598525
 20
4269.546798568535
 30
0.0
 40
8.013137453975742
100
AcDbArc
 50
131.5160233580855
 51
228.4839766419143
  0
LINE
  5
18203
330
180D1
100
AcDbEntity
  8
AF-19
100
AcDbLine
 10
12045.8009022893
 20
4317.041240946224
 30
0.0
 11
12045.8009022893
 21
4311.493772045749
 31
0.0
  0
LINE
  5
18204
330
180D1
100
AcDbEntity
  8
AF-19
100
AcDbLine
 10
12033.91090228931
 20
4329.546798568531
 30
0.0
 11
12033.91090228931
 21
4247.746798568534
 31
0.0
  0
LINE
  5
18205
330
180D1
100
AcDbEntity
  8
AF-19
100
AcDbLine
 10
12032.30090228931
 20
4329.546798568535
 30
0.0
 11
12032.30090228931
 21
4247.746798568534
 31
0.0
  0
ARC
  5
18206
330
180D1
100
AcDbEntity
  8
AF-19
100
AcDbCircle
 10
12053.41224598525
 20
4319.546798568535
 30
0.0
 40
8.013137453975742
100
AcDbArc
 50
131.5160233580855
 51
198.2208879804396
  0
LINE
  5
18207
330
180D1
100
AcDbEntity
  8
AF-22
100
AcDbLine
 10
12125.99780994557
 20
4250.093257627121
 30
0.0
 11
12116.99743343641
 21
4250.093257627125
 31
0.0
  0
ARC
  5
18208
330
180D1
100
AcDbEntity
  8
CF-301
100
AcDbCircle
 10
12119.99743343641
 20
4247.093257627121
 30
0.0
 40
3.0
100
AcDbArc
 50
90.0
 51
179.9999999999739
  0
LINE
  5
18209
330
180D1
100
AcDbEntity
  8
CF-301
100
AcDbLine
 10
12119.99743343641
 20
4250.093257627124
 30
0.0
 11
12124.99743343641
 21
4250.093257627121
 31
0.0
  0
LINE
  5
1820A
330
180D1
100
AcDbEntity
  8
CF-301
100
AcDbLine
 10
12124.99743343643
 20
4305.093257627123
 30
0.0
 11
12124.99743343641
 21
4250.093257627121
 31
0.0
  0
LINE
  5
1820B
330
180D1
100
AcDbEntity
  8
SUNPOU
100
AcDbLine
 10
12145.00594164534
 20
5106.590926579783
 30
0.0
 11
12367.86308450247
 21
5106.590926579783
 31
0.0
  0
LINE
  5
1820C
330
180D1
100
AcDbEntity
  8
SUNPOU
100
AcDbLine
 10
12015.35090228931
 20
5106.590926579783
 30
0.0
 11
12125.3509022893
 21
5106.590926579783
 31
0.0
  0
TEXT
  5
1820D
330
180D1
100
AcDbEntity
  8
SUNPOU
100
AcDbText
 10
12175.00594164534
 20
5151.590926579783
 30
0.0
 40
90.0
  1
140
 41
0.6666666666666666
  7
00
 72
     4
 11
12265.00594164534
 21
5196.590926579783
 31
0.0
100
AcDbText
  0
LINE
  5
1820E
330
180D1
100
AcDbEntity
  8
SUNPOU
100
AcDbLine
 10
10151.6009022893
 20
5106.590926579783
 30
0.0
 11
10162.8509022893
 21
5106.590926579783
 31
0.0
  0
LINE
  5
1820F
330
180D1
100
AcDbEntity
  8
SUNPOU
100
AcDbLine
 10
10151.6009022893
 20
5316.590926579785
 30
0.0
 11
10162.8509022893
 21
5316.590926579785
 31
0.0
  0
LINE
  5
18210
330
180D1
100
AcDbEntity
  8
SUNPOU
100
AcDbLine
 10
12011.6009022893
 20
5106.590926579783
 30
0.0
 11
12022.8509022893
 21
5106.590926579783
 31
0.0
  0
LINE
  5
18211
330
180D1
100
AcDbEntity
  8
SUNPOU
100
AcDbLine
 10
11989.1009022893
 20
5106.590926579783
 30
0.0
 11
11977.8509022893
 21
5106.590926579783
 31
0.0
  0
LINE
  5
18212
330
180D1
100
AcDbEntity
  8
SUNPOU
100
AcDbLine
 10
12129.1009022893
 20
5106.590926579783
 30
0.0
 11
12117.8509022893
 21
5106.590926579783
 31
0.0
  0
LINE
  5
18213
330
180D1
100
AcDbEntity
  8
SUNPOU
100
AcDbLine
 10
12129.1009022893
 20
5316.590926579785
 30
0.0
 11
12117.8509022893
 21
5316.590926579785
 31
0.0
  0
TEXT
  5
18214
330
180D1
100
AcDbEntity
  8
HIKIDASHI
100
AcDbText
 10
10320.61786854589
 20
2120.776809996083
 30
0.0
 40
120.0
  1
側 面 立 面 図
  7
01
 72
     2
 11
11288.61786854589
 21
2120.776809996083
 31
0.0
100
AcDbText
  0
TEXT
  5
18215
330
180D1
100
AcDbEntity
  8
HIKIDASHI
100
AcDbText
 10
11559.32578448355
 20
2160.154729575247
 30
0.0
 40
80.0
  1
1
 41
0.6700000000000001
  7
00
100
AcDbText
  0
TEXT
  5
18216
330
180D1
100
AcDbEntity
  8
HIKIDASHI
100
AcDbText
 10
11592.46292234787
 20
2144.593251827051
 30
0.0
 40
80.0
  1
/
 41
0.6700000000000001
  7
00
100
AcDbText
  0
TEXT
  5
18217
330
180D1
100
AcDbEntity
  8
HIKIDASHI
100
AcDbText
 10
11760.18453317295
 20
2144.593251827051
 30
0.0
 40
80.0
  1
)
 41
0.6700000000000001
  7
00
100
AcDbText
  0
TEXT
  5
18218
330
180D1
100
AcDbEntity
  8
HIKIDASHI
100
AcDbText
 10
11378.61786854589
 20
2144.593251827051
 30
0.0
 40
80.0
  1
(S=
 41
0.6700000000000001
  7
00
100
AcDbText
  0
TEXT
  5
18219
330
180D1
100
AcDbEntity
  8
HIKIDASHI
100
AcDbText
 10
11638.7580771105
 20
2118.425420626775
 30
0.0
 40
80.0
  1
40
 41
0.6700000000000001
  7
00
100
AcDbText
  0
LINE
  5
1821A
330
180D1
100
AcDbEntity
  8
HANAKAKUSI
100
AcDbLine
 10
4092.003547453696
 20
4759.546798568535
 30
0.0
 11
6908.003547453699
 21
4759.546798568535
 31
0.0
  0
LINE
  5
1821B
330
180D1
100
AcDbEntity
  8
HANAKAKUSI
100
AcDbLine
 10
4077.003547453696
 20
4834.546798568533
 30
0.0
 11
6908.003547453699
 21
4834.546798568533
 31
0.0
  0
LINE
  5
1821C
330
180D1
100
AcDbEntity
  8
KISO
100
AcDbLine
 10
3900.003547453696
 20
2584.546798568535
 30
0.0
 11
7100.003547453707
 21
2584.546798568535
 31
0.0
  0
LINE
  5
1821D
330
180D1
100
AcDbEntity
  8
KISO
100
AcDbLine
 10
7250.003547453707
 20
2554.546798568535
 30
0.0
 11
3750.003547453697
 21
2554.546798568535
 31
0.0
  0
LINE
  5
1821E
330
180D1
100
AcDbEntity
  8
HANAKAKUSI
100
AcDbLine
 10
6655.4535474537
 20
4174.546798568536
 30
0.0
 11
4344.553547453701
 21
4174.546798568536
 31
0.0
  0
LINE
  5
1821F
330
180D1
100
AcDbEntity
  8
HANAKAKUSI
100
AcDbLine
 10
6655.4535474537
 20
4209.546798568529
 30
0.0
 11
4344.553547453701
 21
4209.54679856853
 31
0.0
  0
LINE
  5
18220
330
180D1
100
AcDbEntity
  8
HANAKAKUSI
100
AcDbLine
 10
6655.4535474537
 20
4239.546798568535
 30
0.0
 11
4344.553547453701
 21
4239.546798568535
 31
0.0
  0
LINE
  5
18221
330
180D1
100
AcDbEntity
  8
CF-401
100
AcDbLine
 10
4246.980965518545
 20
4239.546798568532
 30
0.0
 11
4246.980965518545
 21
4759.546798568538
 31
0.0
  0
LINE
  5
18222
330
180D1
100
AcDbEntity
  8
CF-401
100
AcDbLine
 10
4219.658884967008
 20
4759.546798568538
 30
0.0
 11
4219.658884967008
 21
4239.546798568532
 31
0.0
  0
CIRCLE
  5
18223
330
180D1
100
AcDbEntity
  8
KYAPU
100
AcDbCircle
 10
4300.003547453697
 20
4709.43549022967
 30
0.0
 40
45.0
  0
LINE
  5
18224
330
180D1
100
AcDbEntity
  8
CF-401
100
AcDbLine
 10
4396.930965518547
 20
4759.546798568535
 30
0.0
 11
4396.930965518547
 21
4239.546798568535
 31
0.0
  0
LINE
  5
18225
330
180D1
100
AcDbEntity
  8
CF-401
100
AcDbLine
 10
4380.28096551855
 20
4239.546798568532
 30
0.0
 11
4380.280965518548
 21
4759.546798568538
 31
0.0
  0
LINE
  5
18226
330
180D1
100
AcDbEntity
  8
CF-401
100
AcDbLine
 10
4352.958884967002
 20
4759.546798568538
 30
0.0
 11
4352.958884967002
 21
4239.546798568532
 31
0.0
  0
LINE
  5
18227
330
180D1
100
AcDbEntity
  8
CF-401
100
AcDbLine
 10
4113.68096551855
 20
4239.546798568532
 30
0.0
 11
4113.68096551855
 21
4759.546798568538
 31
0.0
  0
LINE
  5
18228
330
180D1
100
AcDbEntity
  8
CF-401
100
AcDbLine
 10
4130.33096551855
 20
4759.546798568535
 30
0.0
 11
4130.33096551855
 21
4239.546798568535
 31
0.0
  0
LINE
  5
18229
330
180D1
100
AcDbEntity
  8
CF-401
100
AcDbLine
 10
4203.008884967006
 20
4239.546798568535
 30
0.0
 11
4203.008884967008
 21
4759.546798568535
 31
0.0
  0
LINE
  5
1822A
330
180D1
100
AcDbEntity
  8
KERABA
100
AcDbLine
 10
4078.003547453696
 20
4174.546798568534
 30
0.0
 11
4078.003547453696
 21
4759.331270140994
 31
0.0
  0
LINE
  5
1822B
330
180D1
100
AcDbEntity
  8
KERABA
100
AcDbLine
 10
4062.003547453696
 20
4174.546798568534
 30
0.0
 11
4062.003547453696
 21
4828.804015093274
 31
0.0
  0
LINE
  5
1822C
330
180D1
100
AcDbEntity
  8
CF-101
100
AcDbLine
 10
4344.553547453697
 20
2584.546798568535
 30
0.0
 11
4344.553547453697
 21
4709.43549022967
 31
0.0
  0
LINE
  5
1822D
330
180D1
100
AcDbEntity
  8
CF-101
100
AcDbLine
 10
4255.453547453695
 20
2584.546798568535
 30
0.0
 11
4255.453547453695
 21
4709.43549022967
 31
0.0
  0
LINE
  5
1822E
330
180D1
100
AcDbEntity
  8
1PL-L1
100
AcDbLine
 10
4300.003547453694
 20
2554.546798568535
 30
0.0
 11
4300.003547453697
 21
4909.546798568538
 31
0.0
  0
LINE
  5
1822F
330
180D1
100
AcDbEntity
  8
SUNPOU
100
AcDbLine
 10
3986.144700235865
 20
2674.546798568535
 30
0.0
 11
4038.106224462929
 21
2584.546798568535
 31
0.0
  0
LINE
  5
18230
330
180D1
100
AcDbEntity
  8
SUNPOU
100
AcDbLine
 10
4038.106224462929
 20
2584.546798568535
 30
0.0
 11
4090.067748689994
 21
2674.546798568535
 31
0.0
  0
LINE
  5
18231
330
180D1
100
AcDbEntity
  8
KISO
100
AcDbLine
 10
3900.003547453696
 20
2554.546798568535
 30
0.0
 11
3900.003547453696
 21
2584.546798568535
 31
0.0
  0
TEXT
  5
18232
330
180D1
100
AcDbEntity
  8
SUNPOU
100
AcDbText
 10
3969.534795891501
 20
2719.546798568535
 30
0.0
 40
90.0
  1
F.L
 41
0.6666666666666666
  7
00
 72
     4
 11
4038.106224462929
 21
2764.546798568535
 31
0.0
100
AcDbText
  0
LINE
  5
18233
330
180D1
100
AcDbEntity
  8
SUNPOU
100
AcDbLine
 10
4090.067748689994
 20
2674.546798568535
 30
0.0
 11
3986.144700235865
 21
2674.546798568535
 31
0.0
  0
LINE
  5
18234
330
180D1
100
AcDbEntity
  8
HANAKAKUSI
100
AcDbLine
 10
4255.453547453699
 20
4209.54679856853
 30
0.0
 11
4078.003547453699
 21
4209.54679856853
 31
0.0
  0
LINE
  5
18235
330
180D1
100
AcDbEntity
  8
HANAKAKUSI
100
AcDbLine
 10
4255.453547453699
 20
4239.546798568535
 30
0.0
 11
4078.003547453699
 21
4239.546798568535
 31
0.0
  0
LINE
  5
18236
330
180D1
100
AcDbEntity
  8
HANAKAKUSI
100
AcDbLine
 10
4255.453547453699
 20
4174.546798568536
 30
0.0
 11
4078.003547453698
 21
4174.546798568536
 31
0.0
  0
LINE
  5
18237
330
180D1
100
AcDbEntity
  8
HANAKAKUSI
100
AcDbLine
 10
4078.003547453699
 20
4239.546798568535
 30
0.0
 11
4078.003547453699
 21
4174.546798568536
 31
0.0
  0
LINE
  5
18238
330
180D1
100
AcDbEntity
  8
HANAKAKUSI
100
AcDbLine
 10
4078.003547453701
 20
4239.546798568535
 30
0.0
 11
4078.003547453701
 21
4174.546798568536
 31
0.0
  0
LINE
  5
18239
330
180D1
100
AcDbEntity
  8
KERABA
100
AcDbLine
 10
4078.003547453699
 20
4174.546798568536
 30
0.0
 11
4062.003547453696
 21
4174.546798568536
 31
0.0
  0
ARC
  5
1823A
330
180D1
100
AcDbEntity
  8
CF-101
100
AcDbCircle
 10
4300.003547453697
 20
4607.045274701264
 30
0.0
 40
45.0
100
AcDbArc
 50
180.0
 51
0.0
  0
LINE
  5
1823B
330
180D1
100
AcDbEntity
  8
KERABA
100
AcDbLine
 10
4092.003547453696
 20
4759.331270140994
 30
0.0
 11
4078.003547453696
 21
4759.331270140994
 31
0.0
  0
LINE
  5
1823C
330
180D1
100
AcDbEntity
  8
KERABA
100
AcDbLine
 10
4092.003547453696
 20
4759.331270140994
 30
0.0
 11
4092.003547453696
 21
4834.331270140997
 31
0.0
  0
LINE
  5
1823D
330
180D1
100
AcDbEntity
  8
KERABA
100
AcDbLine
 10
4092.003547453696
 20
4834.331270140997
 30
0.0
 11
4077.003547453698
 21
4834.331270140994
 31
0.0
  0
ARC
  5
1823E
330
180D1
100
AcDbEntity
  8
HANA_KONA
100
AcDbCircle
 10
4066.003547453695
 20
4758.517349027039
 30
0.0
 40
4.0
100
AcDbArc
 50
180.0
 51
270.0
  0
ARC
  5
1823F
330
180D1
100
AcDbEntity
  8
HANA_KONA
100
AcDbCircle
 10
4066.003547453695
 20
4830.546798568537
 30
0.0
 40
4.0
100
AcDbArc
 50
90.0
 51
180.0
  0
LINE
  5
18240
330
180D1
100
AcDbEntity
  8
HANA_KONA
100
AcDbLine
 10
4066.003547453695
 20
4834.546798568533
 30
0.0
 11
4077.003547453695
 21
4834.546798568533
 31
0.0
  0
LINE
  5
18241
330
180D1
100
AcDbEntity
  8
HANA_KONA
100
AcDbLine
 10
4062.003547453696
 20
4758.517349027039
 30
0.0
 11
4062.003547453696
 21
4830.546798568537
 31
0.0
  0
LINE
  5
18242
330
180D1
100
AcDbEntity
  8
HANA_KONA
100
AcDbLine
 10
4077.003547453695
 20
4754.517349027039
 30
0.0
 11
4066.003547453695
 21
4754.517349027039
 31
0.0
  0
LINE
  5
18243
330
180D1
100
AcDbEntity
  8
HANA_KONA
100
AcDbLine
 10
4077.003547453695
 20
4834.546798568533
 30
0.0
 11
4077.003547453695
 21
4754.517349027039
 31
0.0
  0
ARC
  5
18244
330
180D1
100
AcDbEntity
  8
BOYA_KANAGU
100
AcDbCircle
 10
4300.003547453697
 20
4708.570104885916
 30
0.0
 40
47.29999999999999
100
AcDbArc
 50
44.37377466594072
 51
135.5729959991817
  0
ARC
  5
18245
330
180D1
100
AcDbEntity
  8
BOYA_KANAGU
100
AcDbCircle
 10
4300.003547453697
 20
4708.570104885916
 30
0.0
 40
45.0
100
AcDbArc
 50
44.42700400079984
 51
135.5729959991817
  0
ARC
  5
18246
330
180D1
100
AcDbEntity
  8
BOYA_KANAGU
100
AcDbCircle
 10
4246.22459098669
 20
4740.54016268408
 30
0.0
 40
20.0
100
AcDbArc
 50
3.177379699023918
 51
71.86610843670871
  0
LINE
  5
18247
330
180D1
100
AcDbEntity
  8
BOYA_KANAGU
100
AcDbLine
 10
4267.867119525255
 20
4740.070104885914
 30
0.0
 11
4266.22459098669
 21
4741.680104885916
 31
0.0
  0
LINE
  5
18248
330
180D1
100
AcDbEntity
  8
BOYA_KANAGU
100
AcDbLine
 10
4267.867119525255
 20
4740.070104885914
 30
0.0
 11
4266.22459098669
 21
4741.680104885916
 31
0.0
  0
ARC
  5
18249
330
180D1
100
AcDbEntity
  8
BOYA_KANAGU
100
AcDbCircle
 10
4353.782503920705
 20
4740.54016268408
 30
0.0
 40
20.0
100
AcDbArc
 50
108.1338915632912
 51
176.8226203009759
  0
LINE
  5
1824A
330
180D1
100
AcDbEntity
  8
BOYA_KANAGU
100
AcDbLine
 10
4332.139975382141
 20
4740.070104885914
 30
0.0
 11
4333.782503920704
 21
4741.680104885916
 31
0.0
  0
LINE
  5
1824B
330
180D1
100
AcDbEntity
  8
1PL-M1
100
AcDbLine
 10
4300.003547453697
 20
4746.788743729045
 30
0.0
 11
4300.003547453697
 21
4762.312585461713
 31
0.0
  0
LINE
  5
1824C
330
180D1
100
AcDbEntity
  8
CF-401
100
AcDbLine
 10
6647.180965518541
 20
4239.546798568535
 30
0.0
 11
6647.180965518541
 21
4759.546798568538
 31
0.0
  0
LINE
  5
1824D
330
180D1
100
AcDbEntity
  8
CF-401
100
AcDbLine
 10
6619.858884967001
 20
4759.546798568538
 30
0.0
 11
6619.858884967001
 21
4239.546798568535
 31
0.0
  0
LINE
  5
1824E
330
180D1
100
AcDbEntity
  8
CF-401
100
AcDbLine
 10
6603.208884966997
 20
4239.546798568535
 30
0.0
 11
6603.208884967
 21
4759.546798568535
 31
0.0
  0
CIRCLE
  5
1824F
330
180D1
100
AcDbEntity
  8
KYAPU
100
AcDbCircle
 10
6700.003547453697
 20
4709.43549022967
 30
0.0
 40
45.0
  0
LINE
  5
18250
330
180D1
100
AcDbEntity
  8
1PL-L1
100
AcDbLine
 10
6700.003547453693
 20
2554.546798568535
 30
0.0
 11
6700.003547453697
 21
4909.546798568538
 31
0.0
  0
LINE
  5
18251
330
180D1
100
AcDbEntity
  8
CF-101
100
AcDbLine
 10
6655.453547453695
 20
2584.546798568535
 30
0.0
 11
6655.453547453695
 21
4709.43549022967
 31
0.0
  0
LINE
  5
18252
330
180D1
100
AcDbEntity
  8
CF-101
100
AcDbLine
 10
6744.553547453697
 20
2584.546798568535
 30
0.0
 11
6744.553547453697
 21
4709.43549022967
 31
0.0
  0
ARC
  5
18253
330
180D1
100
AcDbEntity
  8
CF-101
100
AcDbCircle
 10
6700.003547453697
 20
4607.045274701264
 30
0.0
 40
45.0
100
AcDbArc
 50
180.0
 51
0.0
  0
ARC
  5
18254
330
180D1
100
AcDbEntity
  8
BOYA_KANAGU
100
AcDbCircle
 10
6700.003547453697
 20
4708.570104885916
 30
0.0
 40
45.0
100
AcDbArc
 50
44.42700400079984
 51
135.5729959991817
  0
ARC
  5
18255
330
180D1
100
AcDbEntity
  8
BOYA_KANAGU
100
AcDbCircle
 10
6700.003547453697
 20
4708.570104885916
 30
0.0
 40
47.29999999999999
100
AcDbArc
 50
44.37377466594072
 51
135.5729959991817
  0
ARC
  5
18256
330
180D1
100
AcDbEntity
  8
BOYA_KANAGU
100
AcDbCircle
 10
6646.224590986694
 20
4740.54016268408
 30
0.0
 40
20.0
100
AcDbArc
 50
3.177379699023918
 51
71.86610843670871
  0
LINE
  5
18257
330
180D1
100
AcDbEntity
  8
BOYA_KANAGU
100
AcDbLine
 10
6667.867119525256
 20
4740.070104885914
 30
0.0
 11
6666.22459098669
 21
4741.680104885916
 31
0.0
  0
LINE
  5
18258
330
180D1
100
AcDbEntity
  8
BOYA_KANAGU
100
AcDbLine
 10
6667.867119525256
 20
4740.070104885914
 30
0.0
 11
6666.22459098669
 21
4741.680104885916
 31
0.0
  0
LINE
  5
18259
330
180D1
100
AcDbEntity
  8
1PL-M1
100
AcDbLine
 10
6700.003547453697
 20
4746.788743729045
 30
0.0
 11
6700.003547453697
 21
4762.312585461713
 31
0.0
  0
LINE
  5
1825A
330
180D1
100
AcDbEntity
  8
BOYA_KANAGU
100
AcDbLine
 10
6732.139975382141
 20
4740.070104885914
 30
0.0
 11
6733.782503920706
 21
4741.680104885916
 31
0.0
  0
ARC
  5
1825B
330
180D1
100
AcDbEntity
  8
BOYA_KANAGU
100
AcDbCircle
 10
6753.782503920708
 20
4740.54016268408
 30
0.0
 40
20.0
100
AcDbArc
 50
108.1338915632912
 51
176.8226203009759
  0
LINE
  5
1825C
330
180D1
100
AcDbEntity
  8
1PL-L1
100
AcDbLine
 10
3882.003547453695
 20
9992.253322994079
 30
0.0
 11
7283.003547453699
 21
9992.253322994079
 31
0.0
  0
LINE
  5
1825D
330
180D1
100
AcDbEntity
  8
CF-205
100
AcDbLine
 10
4080.003547453702
 20
10132.30332299408
 30
0.0
 11
4809.856529369142
 21
10132.30332299407
 31
0.0
  0
LINE
  5
1825E
330
180D1
100
AcDbEntity
  8
CF-205
100
AcDbLine
 10
4080.003547453702
 20
10037.30332299408
 30
0.0
 11
4866.394056978962
 21
10037.30332299408
 31
0.0
  0
LINE
  5
1825F
330
180D1
100
AcDbEntity
  8
CF-205
100
AcDbLine
 10
4067.003547453702
 20
10091.30332299406
 30
0.0
 11
4834.256936021802
 21
10091.30332299406
 31
0.0
  0
LINE
  5
18260
330
180D1
100
AcDbEntity
  8
CF-205
100
AcDbLine
 10
4080.003547453702
 20
10122.30332299407
 30
0.0
 11
4815.807848064911
 21
10122.30332299407
 31
0.0
  0
LINE
  5
18261
330
180D1
100
AcDbEntity
  8
CF-202
100
AcDbLine
 10
4067.0035474537
 20
8206.353322994077
 30
0.0
 11
5956.050753581108
 21
8206.353322994077
 31
0.0
  0
LINE
  5
18262
330
180D1
100
AcDbEntity
  8
CF-202
100
AcDbLine
 10
4067.0035474537
 20
8232.553322994077
 30
0.0
 11
5940.458298598191
 21
8232.553322994077
 31
0.0
  0
LINE
  5
18263
330
180D1
100
AcDbEntity
  8
CF-202
100
AcDbLine
 10
4080.003547453698
 20
8160.753322994077
 30
0.0
 11
5983.188766833824
 21
8160.753322994077
 31
0.0
  0
LINE
  5
18264
330
180D1
100
AcDbEntity
  8
CF-202
100
AcDbLine
 10
4080.003547453698
 20
8133.753322994079
 30
0.0
 11
5999.257327312404
 21
8133.753322994079
 31
0.0
  0
LINE
  5
18265
330
180D1
100
AcDbEntity
  8
2PL-M1
100
AcDbLine
 10
4062.003547453698
 20
8199.753322994078
 30
0.0
 11
4062.003547453698
 21
10132.30332299408
 31
0.0
  0
LINE
  5
18266
330
180D1
100
AcDbEntity
  8
1PL-M1
100
AcDbLine
 10
4300.003547453697
 20
10286.15332299408
 30
0.0
 11
4300.003547453697
 21
7981.353322994078
 31
0.0
  0
LINE
  5
18267
330
180D1
100
AcDbEntity
  8
CF-102
100
AcDbLine
 10
4255.453547453699
 20
9127.753322994079
 30
0.0
 11
4255.453547453699
 21
9581.753322994078
 31
0.0
  0
LINE
  5
18268
330
180D1
100
AcDbEntity
  8
CF-102
100
AcDbLine
 10
4344.5535474537
 20
9127.753322994079
 30
0.0
 11
4344.553547453697
 21
9581.753322994078
 31
0.0
  0
LINE
  5
18269
330
180D1
100
AcDbEntity
  8
CF-102
100
AcDbLine
 10
4255.453547453699
 20
8640.753322994077
 30
0.0
 11
4255.453547453699
 21
9094.753322994073
 31
0.0
  0
LINE
  5
1826A
330
180D1
100
AcDbEntity
  8
CF-102
100
AcDbLine
 10
4344.553547453701
 20
8640.753322994077
 30
0.0
 11
4344.5535474537
 21
9094.753322994073
 31
0.0
  0
LINE
  5
1826B
330
180D1
100
AcDbEntity
  8
CF-202
100
AcDbLine
 10
4080.003547453698
 20
8133.753322994079
 30
0.0
 11
4080.003547453698
 21
8206.353322994077
 31
0.0
  0
LINE
  5
1826C
330
180D1
100
AcDbEntity
  8
CF-202
100
AcDbLine
 10
4067.0035474537
 20
8206.353322994077
 30
0.0
 11
4067.0035474537
 21
8232.553322994077
 31
0.0
  0
LINE
  5
1826D
330
180D1
100
AcDbEntity
  8
CF-102
100
AcDbLine
 10
4344.5535474537
 20
8232.553322994077
 30
0.0
 11
4344.5535474537
 21
8607.753322994078
 31
0.0
  0
LINE
  5
1826E
330
180D1
100
AcDbEntity
  8
CF-102
100
AcDbLine
 10
4255.453547453699
 20
8232.553322994077
 30
0.0
 11
4255.453547453699
 21
8607.753322994078
 31
0.0
  0
LINE
  5
1826F
330
180D1
100
AcDbEntity
  8
AF-19
100
AcDbLine
 10
4332.003547453697
 20
8292.553322994079
 30
0.0
 11
4332.003547453697
 21
8232.553322994077
 31
0.0
  0
LINE
  5
18270
330
180D1
100
AcDbEntity
  8
AF-19
100
AcDbLine
 10
4268.003547453697
 20
8292.553322994079
 30
0.0
 11
4268.003547453697
 21
8232.553322994077
 31
0.0
  0
ARC
  5
18271
330
180D1
100
AcDbEntity
  8
AF-19
100
AcDbCircle
 10
4300.003547453697
 20
8232.553322994077
 30
0.0
 40
6.0
100
AcDbArc
 50
0.0
 51
180.0
  0
LINE
  5
18272
330
180D1
100
AcDbEntity
  8
AF-19
100
AcDbLine
 10
4268.003547453697
 20
8292.553322994079
 30
0.0
 11
4332.003547453697
 21
8292.553322994079
 31
0.0
  0
ARC
  5
18273
330
180D1
100
AcDbEntity
  8
AF-19
100
AcDbCircle
 10
4300.003547453697
 20
8265.553322994078
 30
0.0
 40
12.5
100
AcDbArc
 50
118.6854020140905
 51
61.3145979859095
  0
ARC
  5
18274
330
180D1
100
AcDbEntity
  8
AF-19
100
AcDbCircle
 10
4300.003547453697
 20
8282.553322994077
 30
0.0
 40
6.0
100
AcDbArc
 50
0.0
 51
180.0
  0
LINE
  5
18275
330
180D1
100
AcDbEntity
  8
AF-19
100
AcDbLine
 10
4294.003547453698
 20
8282.553322994077
 30
0.0
 11
4294.003547453698
 21
8276.519179093808
 31
0.0
  0
LINE
  5
18276
330
180D1
100
AcDbEntity
  8
AF-19
100
AcDbLine
 10
4306.003547453697
 20
8282.553322994077
 30
0.0
 11
4306.003547453697
 21
8276.519179093808
 31
0.0
  0
LINE
  5
18277
330
180D1
100
AcDbEntity
  8
CF-501
100
AcDbLine
 10
4268.0035474537
 20
8727.353322994076
 30
0.0
 11
4332.0035474537
 21
8727.353322994076
 31
0.0
  0
ARC
  5
18278
330
180D1
100
AcDbEntity
  8
CF-501
100
AcDbCircle
 10
4300.0035474537
 20
8700.353322994077
 30
0.0
 40
12.5
100
AcDbArc
 50
118.6854020140905
 51
61.3145979859095
  0
LINE
  5
18279
330
180D1
100
AcDbEntity
  8
CF-501
100
AcDbLine
 10
4268.0035474537
 20
8727.353322994076
 30
0.0
 11
4268.0035474537
 21
8640.753322994077
 31
0.0
  0
ARC
  5
1827A
330
180D1
100
AcDbEntity
  8
CF-501
100
AcDbCircle
 10
4300.0035474537
 20
8717.353322994078
 30
0.0
 40
6.0
100
AcDbArc
 50
0.0
 51
180.0
  0
LINE
  5
1827B
330
180D1
100
AcDbEntity
  8
CF-501
100
AcDbLine
 10
4306.003547453697
 20
8717.353322994078
 30
0.0
 11
4306.003547453697
 21
8711.319179093806
 31
0.0
  0
LINE
  5
1827C
330
180D1
100
AcDbEntity
  8
CF-501
100
AcDbLine
 10
4294.003547453699
 20
8717.353322994078
 30
0.0
 11
4294.003547453699
 21
8711.319179093806
 31
0.0
  0
CIRCLE
  5
1827D
330
180D1
100
AcDbEntity
  8
CF-501
100
AcDbCircle
 10
4300.0035474537
 20
8667.353322994079
 30
0.0
 40
6.0
  0
LINE
  5
1827E
330
180D1
100
AcDbEntity
  8
CF-501
100
AcDbLine
 10
4332.0035474537
 20
8727.353322994076
 30
0.0
 11
4332.0035474537
 21
8640.753322994077
 31
0.0
  0
LINE
  5
1827F
330
180D1
100
AcDbEntity
  8
CF-501
100
AcDbLine
 10
4268.0035474537
 20
9214.353322994076
 30
0.0
 11
4332.0035474537
 21
9214.353322994076
 31
0.0
  0
ARC
  5
18280
330
180D1
100
AcDbEntity
  8
CF-501
100
AcDbCircle
 10
4300.0035474537
 20
9187.353322994077
 30
0.0
 40
12.5
100
AcDbArc
 50
118.6854020140905
 51
61.3145979859095
  0
LINE
  5
18281
330
180D1
100
AcDbEntity
  8
CF-501
100
AcDbLine
 10
4268.0035474537
 20
9214.353322994076
 30
0.0
 11
4268.0035474537
 21
9127.753322994079
 31
0.0
  0
CIRCLE
  5
18282
330
180D1
100
AcDbEntity
  8
CF-501
100
AcDbCircle
 10
4300.0035474537
 20
9154.353322994076
 30
0.0
 40
6.0
  0
LINE
  5
18283
330
180D1
100
AcDbEntity
  8
CF-501
100
AcDbLine
 10
4294.003547453699
 20
9204.353322994077
 30
0.0
 11
4294.003547453699
 21
9198.319179093809
 31
0.0
  0
LINE
  5
18284
330
180D1
100
AcDbEntity
  8
CF-501
100
AcDbLine
 10
4306.003547453697
 20
9204.353322994077
 30
0.0
 11
4306.003547453697
 21
9198.319179093809
 31
0.0
  0
ARC
  5
18285
330
180D1
100
AcDbEntity
  8
CF-501
100
AcDbCircle
 10
4300.0035474537
 20
9204.353322994077
 30
0.0
 40
6.0
100
AcDbArc
 50
0.0
 51
180.0
  0
LINE
  5
18286
330
180D1
100
AcDbEntity
  8
CF-501
100
AcDbLine
 10
4332.0035474537
 20
9214.353322994076
 30
0.0
 11
4332.0035474537
 21
9127.753322994079
 31
0.0
  0
LINE
  5
18287
330
180D1
100
AcDbEntity
  8
CF-205
100
AcDbLine
 10
4080.003547453702
 20
10132.30332299408
 30
0.0
 11
4080.003547453702
 21
10100.43211087285
 31
0.0
  0
LINE
  5
18288
330
180D1
100
AcDbEntity
  8
CF-205
100
AcDbLine
 10
4080.003547453702
 20
10091.30332299406
 30
0.0
 11
4080.003547453702
 21
10037.30332299408
 31
0.0
  0
LINE
  5
18289
330
180D1
100
AcDbEntity
  8
CF-102
100
AcDbLine
 10
4255.453547453699
 20
9614.753322994079
 30
0.0
 11
4255.453547453699
 21
9992.253322994079
 31
0.0
  0
LINE
  5
1828A
330
180D1
100
AcDbEntity
  8
CF-102
100
AcDbLine
 10
4344.553547453697
 20
9614.753322994079
 30
0.0
 11
4344.553547453697
 21
9992.253322994079
 31
0.0
  0
CIRCLE
  5
1828B
330
180D1
100
AcDbEntity
  8
CF-501
100
AcDbCircle
 10
4300.0035474537
 20
9641.353322994078
 30
0.0
 40
6.0
  0
LINE
  5
1828C
330
180D1
100
AcDbEntity
  8
CF-501
100
AcDbLine
 10
4268.0035474537
 20
9701.35332299408
 30
0.0
 11
4268.0035474537
 21
9614.753322994079
 31
0.0
  0
LINE
  5
1828D
330
180D1
100
AcDbEntity
  8
CF-501
100
AcDbLine
 10
4332.0035474537
 20
9701.35332299408
 30
0.0
 11
4332.0035474537
 21
9614.753322994079
 31
0.0
  0
LINE
  5
1828E
330
180D1
100
AcDbEntity
  8
CF-102
100
AcDbLine
 10
4255.453547453696
 20
9524.753322994078
 30
0.0
 11
4344.553547453697
 21
9524.753322994078
 31
0.0
  0
LINE
  5
1828F
330
180D1
100
AcDbEntity
  8
CF-501
100
AcDbLine
 10
4268.0035474537
 20
9701.35332299408
 30
0.0
 11
4332.0035474537
 21
9701.35332299408
 31
0.0
  0
ARC
  5
18290
330
180D1
100
AcDbEntity
  8
CF-501
100
AcDbCircle
 10
4300.0035474537
 20
9674.353322994079
 30
0.0
 40
12.5
100
AcDbArc
 50
118.6854020140905
 51
61.3145979859095
  0
ARC
  5
18291
330
180D1
100
AcDbEntity
  8
CF-501
100
AcDbCircle
 10
4300.0035474537
 20
9691.353322994078
 30
0.0
 40
6.0
100
AcDbArc
 50
0.0
 51
180.0
  0
LINE
  5
18292
330
180D1
100
AcDbEntity
  8
CF-501
100
AcDbLine
 10
4306.003547453697
 20
9691.353322994078
 30
0.0
 11
4306.003547453697
 21
9685.319179093809
 31
0.0
  0
LINE
  5
18293
330
180D1
100
AcDbEntity
  8
CF-501
100
AcDbLine
 10
4294.003547453699
 20
9691.353322994078
 30
0.0
 11
4294.003547453699
 21
9685.319179093809
 31
0.0
  0
ARC
  5
18294
330
180D1
100
AcDbEntity
  8
CF-102
  6
KAKURE-05
100
AcDbCircle
 10
4300.003547453697
 20
9992.253322994079
 30
0.0
 40
44.54999999999927
100
AcDbArc
 50
180.0
 51
0.0
  0
LINE
  5
18295
330
180D1
100
AcDbEntity
  8
AF-19
  6
Continuous
100
AcDbLine
 10
4247.003547453699
 20
10086.80332299408
 30
0.0
 11
4353.003547453698
 21
10086.80332299408
 31
0.0
  0
ARC
  5
18296
330
180D1
100
AcDbEntity
  8
CF-102
  6
Continuous
100
AcDbCircle
 10
4300.003547453697
 20
9992.253322994079
 30
0.0
 40
44.54999999999927
100
AcDbArc
 50
0.0
 51
180.0
  0
ARC
  5
18297
330
180D1
100
AcDbEntity
  8
AF-19
  6
Continuous
100
AcDbCircle
 10
4300.003547453697
 20
9991.803322994076
 30
0.0
 40
45.0
100
AcDbArc
 50
44.42700400080904
 51
135.5729959991909
  0
ARC
  5
18298
330
180D1
100
AcDbEntity
  8
AF-19
  6
Continuous
100
AcDbCircle
 10
4300.003547453697
 20
9991.803322994076
 30
0.0
 40
47.29999999999999
100
AcDbArc
 50
44.42700400080904
 51
135.626225334058
  0
LINE
  5
18299
330
180D1
100
AcDbEntity
  8
AF-19
  6
Continuous
100
AcDbLine
 10
4267.867119525255
 20
10023.30332299407
 30
0.0
 11
4266.22459098669
 21
10024.91332299408
 31
0.0
  0
ARC
  5
1829A
330
180D1
100
AcDbEntity
  8
AF-19
  6
Continuous
100
AcDbCircle
 10
4246.224590986691
 20
10023.77338079224
 30
0.0
 40
20.0
100
AcDbArc
 50
3.177379699023377
 51
87.97089779054863
  0
CIRCLE
  5
1829B
330
180D1
100
AcDbEntity
  8
AF-19
  6
Continuous
100
AcDbCircle
 10
4265.003547453699
 20
10063.80332299408
 30
0.0
 40
6.0
  0
LINE
  5
1829C
330
180D1
100
AcDbEntity
  8
AF-19
  6
Continuous
100
AcDbLine
 10
4245.003547453698
 20
10045.75958616794
 30
0.0
 11
4245.003547453698
 21
10084.80332299408
 31
0.0
  0
ARC
  5
1829D
330
180D1
100
AcDbEntity
  8
AF-19
  6
Continuous
100
AcDbCircle
 10
4247.003547453699
 20
10045.75958616794
 30
0.0
 40
2.0
100
AcDbArc
 50
180.0
 51
267.9708977905487
  0
ARC
  5
1829E
330
180D1
100
AcDbEntity
  8
AF-19
  6
Continuous
100
AcDbCircle
 10
4247.003547453699
 20
10084.80332299408
 30
0.0
 40
2.0
100
AcDbArc
 50
90.0
 51
180.0
  0
LINE
  5
1829F
330
180D1
100
AcDbEntity
  8
1PL-M1
100
AcDbLine
 10
4300.003547453697
 20
10030.0219618372
 30
0.0
 11
4300.003547453697
 21
10045.54580356987
 31
0.0
  0
ARC
  5
182A0
330
180D1
100
AcDbEntity
  8
AF-19
  6
Continuous
100
AcDbCircle
 10
4353.782503920704
 20
10023.77338079224
 30
0.0
 40
20.0
100
AcDbArc
 50
92.02910220945131
 51
176.8226203009766
  0
CIRCLE
  5
182A1
330
180D1
100
AcDbEntity
  8
AF-19
  6
Continuous
100
AcDbCircle
 10
4335.003547453697
 20
10063.80332299408
 30
0.0
 40
6.0
  0
LINE
  5
182A2
330
180D1
100
AcDbEntity
  8
AF-19
  6
Continuous
100
AcDbLine
 10
4332.139975382141
 20
10023.30332299407
 30
0.0
 11
4333.782503920707
 21
10024.91332299408
 31
0.0
  0
LINE
  5
182A3
330
180D1
100
AcDbEntity
  8
AF-19
  6
Continuous
100
AcDbLine
 10
4332.139975382141
 20
10023.30332299407
 30
0.0
 11
4333.782503920707
 21
10024.91332299408
 31
0.0
  0
LINE
  5
182A4
330
180D1
100
AcDbEntity
  8
AF-19
  6
Continuous
100
AcDbLine
 10
4355.003547453698
 20
10045.7704596018
 30
0.0
 11
4355.003547453698
 21
10084.80332299408
 31
0.0
  0
ARC
  5
182A5
330
180D1
100
AcDbEntity
  8
AF-19
  6
Continuous
100
AcDbCircle
 10
4353.003547453698
 20
10045.75958616794
 30
0.0
 40
2.0
100
AcDbArc
 50
272.0291022094514
 51
0.0
  0
ARC
  5
182A6
330
180D1
100
AcDbEntity
  8
AF-19
  6
Continuous
100
AcDbCircle
 10
4353.003547453698
 20
10084.80332299408
 30
0.0
 40
2.0
100
AcDbArc
 50
0.0
 51
90.0
  0
LINE
  5
182A7
330
180D1
100
AcDbEntity
  8
CF-205
100
AcDbLine
 10
4815.807848064913
 20
10122.30332299407
 30
0.0
 11
6913.003547453697
 21
10122.30332299407
 31
0.0
  0
LINE
  5
182A8
330
180D1
100
AcDbEntity
  8
CF-205
100
AcDbLine
 10
4809.85652936914
 20
10132.30332299408
 30
0.0
 11
6920.003547453699
 21
10132.30332299408
 31
0.0
  0
LINE
  5
182A9
330
180D1
100
AcDbEntity
  8
CF-202
100
AcDbLine
 10
6920.003547453699
 20
8133.753322994079
 30
0.0
 11
5999.257327312404
 21
8133.753322994079
 31
0.0
  0
LINE
  5
182AA
330
180D1
100
AcDbEntity
  8
CF-202
100
AcDbLine
 10
6920.003547453699
 20
8160.753322994077
 30
0.0
 11
5983.188766833824
 21
8160.753322994077
 31
0.0
  0
LINE
  5
182AB
330
180D1
100
AcDbEntity
  8
CF-401
100
AcDbLine
 10
6530.39820994039
 20
10092.20332299407
 30
0.0
 11
6603.076129388846
 21
10092.20332299407
 31
0.0
  0
LINE
  5
182AC
330
180D1
100
AcDbEntity
  8
CF-401
100
AcDbLine
 10
4869.676129388852
 20
10092.20332299407
 30
0.0
 11
4869.676129388852
 21
10031.7884571674
 31
0.0
  0
LINE
  5
182AD
330
180D1
100
AcDbEntity
  8
CF-401
100
AcDbLine
 10
5269.676129388852
 20
10092.20332299407
 30
0.0
 11
5269.676129388854
 21
9359.668511239702
 31
0.0
  0
LINE
  5
182AE
330
180D1
100
AcDbEntity
  8
CF-401
100
AcDbLine
 10
4886.926129388854
 20
10107.80332299408
 30
0.0
 11
4886.926129388855
 21
10002.80328449927
 31
0.0
  0
LINE
  5
182AF
330
180D1
100
AcDbEntity
  8
CF-401
100
AcDbLine
 10
4913.748209940393
 20
9957.734146174354
 30
0.0
 11
4913.748209940393
 21
10107.80332299408
 31
0.0
  0
LINE
  5
182B0
330
180D1
100
AcDbEntity
  8
CF-401
100
AcDbLine
 10
4930.398209940393
 20
10092.20332299407
 30
0.0
 11
4930.398209940393
 21
9929.757153425114
 31
0.0
  0
LINE
  5
182B1
330
180D1
100
AcDbEntity
  8
CF-401
100
AcDbLine
 10
5063.698209940393
 20
9705.773181444705
 30
0.0
 11
5063.698209940394
 21
10092.20332299407
 31
0.0
  0
LINE
  5
182B2
330
180D1
100
AcDbEntity
  8
CF-401
100
AcDbLine
 10
5047.048209940392
 20
10107.80332299408
 30
0.0
 11
5047.048209940392
 21
9733.75017419395
 31
0.0
  0
LINE
  5
182B3
330
180D1
100
AcDbEntity
  8
CF-401
100
AcDbLine
 10
5019.726129388851
 20
9779.659462451284
 30
0.0
 11
5019.726129388851
 21
10107.80332299408
 31
0.0
  0
LINE
  5
182B4
330
180D1
100
AcDbEntity
  8
CF-401
100
AcDbLine
 10
5003.07612938885
 20
10092.20332299407
 30
0.0
 11
5003.076129388854
 21
9807.636455200523
 31
0.0
  0
LINE
  5
182B5
330
180D1
100
AcDbEntity
  8
CF-401
100
AcDbLine
 10
5136.376129388855
 20
10092.20332299407
 30
0.0
 11
5136.376129388855
 21
9583.652483220111
 31
0.0
  0
LINE
  5
182B6
330
180D1
100
AcDbEntity
  8
CF-401
100
AcDbLine
 10
5153.02612938885
 20
9555.675490470877
 30
0.0
 11
5153.026129388848
 21
10107.80332299408
 31
0.0
  0
LINE
  5
182B7
330
180D1
100
AcDbEntity
  8
CF-401
100
AcDbLine
 10
5180.348209940394
 20
10107.80332299408
 30
0.0
 11
5180.348209940394
 21
9509.766202213535
 31
0.0
  0
LINE
  5
182B8
330
180D1
100
AcDbEntity
  8
CF-401
100
AcDbLine
 10
5196.998209940394
 20
9481.789209464295
 30
0.0
 11
5196.998209940393
 21
10092.20332299407
 31
0.0
  0
LINE
  5
182B9
330
180D1
100
AcDbEntity
  8
CF-401
100
AcDbLine
 10
5286.926129388854
 20
10107.80332299408
 30
0.0
 11
5286.926129388854
 21
9330.683338571569
 31
0.0
  0
LINE
  5
182BA
330
180D1
100
AcDbEntity
  8
CF-401
100
AcDbLine
 10
5313.748209940394
 20
9285.614200246644
 30
0.0
 11
5313.748209940393
 21
10107.80332299408
 31
0.0
  0
LINE
  5
182BB
330
180D1
100
AcDbEntity
  8
CF-401
100
AcDbLine
 10
5330.398209940397
 20
10092.20332299407
 30
0.0
 11
5330.398209940398
 21
9257.637207497397
 31
0.0
  0
LINE
  5
182BC
330
180D1
100
AcDbEntity
  8
CF-401
100
AcDbLine
 10
5669.67612938885
 20
10092.20332299407
 30
0.0
 11
5669.67612938885
 21
8687.548565312001
 31
0.0
  0
LINE
  5
182BD
330
180D1
100
AcDbEntity
  8
CF-401
100
AcDbLine
 10
5463.698209940393
 20
9033.653235517002
 30
0.0
 11
5463.69820994039
 21
10092.20332299407
 31
0.0
  0
LINE
  5
182BE
330
180D1
100
AcDbEntity
  8
CF-401
100
AcDbLine
 10
5447.048209940394
 20
10107.80332299408
 30
0.0
 11
5447.048209940395
 21
9061.630228266235
 31
0.0
  0
LINE
  5
182BF
330
180D1
100
AcDbEntity
  8
CF-401
100
AcDbLine
 10
5419.726129388848
 20
9107.539516523578
 30
0.0
 11
5419.726129388848
 21
10107.80332299408
 31
0.0
  0
LINE
  5
182C0
330
180D1
100
AcDbEntity
  8
CF-401
100
AcDbLine
 10
5403.076129388853
 20
10092.20332299407
 30
0.0
 11
5403.076129388853
 21
9135.516509272813
 31
0.0
  0
LINE
  5
182C1
330
180D1
100
AcDbEntity
  8
CF-401
100
AcDbLine
 10
5536.376129388851
 20
10092.20332299407
 30
0.0
 11
5536.376129388851
 21
8911.532537292409
 31
0.0
  0
LINE
  5
182C2
330
180D1
100
AcDbEntity
  8
CF-401
100
AcDbLine
 10
5553.026129388853
 20
8883.55554454317
 30
0.0
 11
5553.026129388853
 21
10107.80332299408
 31
0.0
  0
LINE
  5
182C3
330
180D1
100
AcDbEntity
  8
CF-401
100
AcDbLine
 10
5580.348209940392
 20
10107.80332299408
 30
0.0
 11
5580.348209940392
 21
8837.646256285827
 31
0.0
  0
LINE
  5
182C4
330
180D1
100
AcDbEntity
  8
CF-401
100
AcDbLine
 10
5596.998209940394
 20
8809.669263536582
 30
0.0
 11
5596.998209940397
 21
10092.20332299407
 31
0.0
  0
LINE
  5
182C5
330
180D1
100
AcDbEntity
  8
CF-401
100
AcDbLine
 10
6069.676129388851
 20
10092.20332299407
 30
0.0
 11
6069.676129388851
 21
8160.75332299407
 31
0.0
  0
LINE
  5
182C6
330
180D1
100
AcDbEntity
  8
CF-401
100
AcDbLine
 10
5686.926129388854
 20
10107.80332299408
 30
0.0
 11
5686.926129388854
 21
8658.563392643857
 31
0.0
  0
LINE
  5
182C7
330
180D1
100
AcDbEntity
  8
CF-401
100
AcDbLine
 10
5713.748209940392
 20
8613.494254318945
 30
0.0
 11
5713.748209940392
 21
10107.80332299408
 31
0.0
  0
LINE
  5
182C8
330
180D1
100
AcDbEntity
  8
CF-401
100
AcDbLine
 10
5730.398209940396
 20
10092.20332299407
 30
0.0
 11
5730.398209940396
 21
8585.517261569695
 31
0.0
  0
LINE
  5
182C9
330
180D1
100
AcDbEntity
  8
CF-401
100
AcDbLine
 10
5863.698209940389
 20
8361.533289589294
 30
0.0
 11
5863.698209940389
 21
10092.20332299407
 31
0.0
  0
LINE
  5
182CA
330
180D1
100
AcDbEntity
  8
CF-401
100
AcDbLine
 10
5847.048209940394
 20
10107.80332299408
 30
0.0
 11
5847.048209940394
 21
8389.51028233853
 31
0.0
  0
LINE
  5
182CB
330
180D1
100
AcDbEntity
  8
CF-401
100
AcDbLine
 10
5819.726129388851
 20
8435.41957059587
 30
0.0
 11
5819.726129388851
 21
10107.80332299408
 31
0.0
  0
LINE
  5
182CC
330
180D1
100
AcDbEntity
  8
CF-401
100
AcDbLine
 10
5803.076129388853
 20
10092.20332299407
 30
0.0
 11
5803.076129388853
 21
8463.396563345106
 31
0.0
  0
LINE
  5
182CD
330
180D1
100
AcDbEntity
  8
CF-401
100
AcDbLine
 10
5936.37612938885
 20
10092.20332299407
 30
0.0
 11
5936.37612938885
 21
8239.412591364699
 31
0.0
  0
LINE
  5
182CE
330
180D1
100
AcDbEntity
  8
CF-401
100
AcDbLine
 10
5953.026129388852
 20
8211.435598615457
 30
0.0
 11
5953.026129388852
 21
10107.80332299408
 31
0.0
  0
LINE
  5
182CF
330
180D1
100
AcDbEntity
  8
CF-401
100
AcDbLine
 10
5980.348209940396
 20
10107.80332299408
 30
0.0
 11
5980.348209940396
 21
8165.526310358114
 31
0.0
  0
LINE
  5
182D0
330
180D1
100
AcDbEntity
  8
CF-401
100
AcDbLine
 10
5996.99820994039
 20
8160.75332299407
 30
0.0
 11
5996.998209940397
 21
10092.20332299407
 31
0.0
  0
LINE
  5
182D1
330
180D1
100
AcDbEntity
  8
CF-401
100
AcDbLine
 10
6469.676129388847
 20
10092.20332299407
 30
0.0
 11
6469.676129388847
 21
8160.75332299407
 31
0.0
  0
LINE
  5
182D2
330
180D1
100
AcDbEntity
  8
CF-401
100
AcDbLine
 10
6086.926129388854
 20
10107.80332299408
 30
0.0
 11
6086.926129388854
 21
8160.753322994077
 31
0.0
  0
LINE
  5
182D3
330
180D1
100
AcDbEntity
  8
CF-401
100
AcDbLine
 10
6113.748209940395
 20
8160.753322994077
 30
0.0
 11
6113.748209940395
 21
10107.80332299408
 31
0.0
  0
LINE
  5
182D4
330
180D1
100
AcDbEntity
  8
CF-401
100
AcDbLine
 10
6130.398209940397
 20
10092.20332299407
 30
0.0
 11
6130.398209940397
 21
8160.75332299407
 31
0.0
  0
LINE
  5
182D5
330
180D1
100
AcDbEntity
  8
CF-401
100
AcDbLine
 10
6263.69820994039
 20
8160.75332299407
 30
0.0
 11
6263.69820994039
 21
10092.20332299407
 31
0.0
  0
LINE
  5
182D6
330
180D1
100
AcDbEntity
  8
CF-401
100
AcDbLine
 10
6247.048209940395
 20
10107.80332299408
 30
0.0
 11
6247.048209940395
 21
8160.753322994077
 31
0.0
  0
LINE
  5
182D7
330
180D1
100
AcDbEntity
  8
CF-401
100
AcDbLine
 10
6219.726129388855
 20
8160.753322994077
 30
0.0
 11
6219.726129388853
 21
10107.80332299408
 31
0.0
  0
LINE
  5
182D8
330
180D1
100
AcDbEntity
  8
CF-401
100
AcDbLine
 10
6203.076129388851
 20
10092.20332299407
 30
0.0
 11
6203.076129388851
 21
8160.75332299407
 31
0.0
  0
LINE
  5
182D9
330
180D1
100
AcDbEntity
  8
CF-401
100
AcDbLine
 10
6336.376129388847
 20
10092.20332299407
 30
0.0
 11
6336.376129388847
 21
8160.75332299407
 31
0.0
  0
LINE
  5
182DA
330
180D1
100
AcDbEntity
  8
CF-401
100
AcDbLine
 10
6353.026129388847
 20
8160.753322994077
 30
0.0
 11
6353.026129388847
 21
10107.80332299408
 31
0.0
  0
LINE
  5
182DB
330
180D1
100
AcDbEntity
  8
CF-401
100
AcDbLine
 10
6380.34820994039
 20
10107.80332299408
 30
0.0
 11
6380.348209940397
 21
8160.753322994077
 31
0.0
  0
LINE
  5
182DC
330
180D1
100
AcDbEntity
  8
CF-401
100
AcDbLine
 10
6396.99820994039
 20
8160.75332299407
 30
0.0
 11
6396.99820994039
 21
10092.20332299407
 31
0.0
  0
LINE
  5
182DD
330
180D1
100
AcDbEntity
  8
CF-401
100
AcDbLine
 10
6486.926129388847
 20
10107.80332299408
 30
0.0
 11
6486.926129388847
 21
8160.753322994077
 31
0.0
  0
LINE
  5
182DE
330
180D1
100
AcDbEntity
  8
CF-401
100
AcDbLine
 10
6513.74820994039
 20
8160.753322994077
 30
0.0
 11
6513.74820994039
 21
10107.80332299408
 31
0.0
  0
LINE
  5
182DF
330
180D1
100
AcDbEntity
  8
CF-401
100
AcDbLine
 10
6530.39820994039
 20
10092.20332299407
 30
0.0
 11
6530.39820994039
 21
8160.75332299407
 31
0.0
  0
LINE
  5
182E0
330
180D1
100
AcDbEntity
  8
SUNPOU
100
AcDbLine
 10
5300.003547453703
 20
8101.353322994077
 30
0.0
 11
5300.003547453703
 21
7576.353322994079
 31
0.0
  0
LINE
  5
182E1
330
180D1
100
AcDbEntity
  8
SUNPOU
100
AcDbLine
 10
5700.003547453704
 20
8101.353322994077
 30
0.0
 11
5700.003547453704
 21
7576.353322994079
 31
0.0
  0
LINE
  5
182E2
330
180D1
100
AcDbEntity
  8
SUNPOU
100
AcDbLine
 10
6100.003547453702
 20
8101.353322994077
 30
0.0
 11
6100.003547453702
 21
7576.353322994079
 31
0.0
  0
LINE
  5
182E3
330
180D1
100
AcDbEntity
  8
SUNPOU
100
AcDbLine
 10
6500.003547453697
 20
8101.353322994077
 30
0.0
 11
6500.003547453697
 21
7576.353322994079
 31
0.0
  0
LINE
  5
182E4
330
180D1
100
AcDbEntity
  8
SUNPOU
100
AcDbLine
 10
5685.003547453707
 20
7621.353322994076
 30
0.0
 11
5315.003547453702
 21
7621.353322994076
 31
0.0
  0
TEXT
  5
182E5
330
180D1
100
AcDbEntity
  8
SUNPOU
100
AcDbText
 10
5414.289261739418
 20
7666.353322994076
 30
0.0
 40
90.0
  1
400
 41
0.6666666666666666
  7
00
 72
     1
 11
5500.003547453704
 21
7711.353322994077
 31
0.0
100
AcDbText
 73
     2
  0
LINE
  5
182E6
330
180D1
100
AcDbEntity
  8
SUNPOU
100
AcDbLine
 10
6085.003547453707
 20
7621.353322994076
 30
0.0
 11
5715.003547453703
 21
7621.353322994076
 31
0.0
  0
TEXT
  5
182E7
330
180D1
100
AcDbEntity
  8
SUNPOU
100
AcDbText
 10
5721.503547453703
 20
7816.353322994077
 30
0.0
 40
90.0
  1
屋根ピッチ
 41
0.7
  7
01
 72
     4
 11
5900.003547453703
 21
7861.353322994077
 31
0.0
100
AcDbText
  0
TEXT
  5
182E8
330
180D1
100
AcDbEntity
  8
SUNPOU
100
AcDbText
 10
5814.289261739418
 20
7666.353322994076
 30
0.0
 40
90.0
  1
400
 41
0.6666666666666666
  7
00
 72
     1
 11
5900.003547453703
 21
7711.353322994077
 31
0.0
100
AcDbText
 73
     2
  0
TEXT
  5
182E9
330
180D1
100
AcDbEntity
  8
SUNPOU
100
AcDbText
 10
6214.289261739417
 20
7666.353322994076
 30
0.0
 40
90.0
  1
400
 41
0.6666666666666666
  7
00
 72
     1
 11
6300.003547453703
 21
7711.353322994077
 31
0.0
100
AcDbText
 73
     2
  0
LINE
  5
182EA
330
180D1
100
AcDbEntity
  8
SUNPOU
100
AcDbLine
 10
6485.003547453697
 20
7621.353322994076
 30
0.0
 11
6115.003547453707
 21
7621.353322994076
 31
0.0
  0
ARC
  5
182EB
330
180D1
100
AcDbEntity
  8
CF-401
100
AcDbCircle
 10
6100.003547453702
 20
8219.053322994078
 30
0.0
 40
5.5
100
AcDbArc
 50
180.0
 51
0.0
  0
ARC
  5
182EC
330
180D1
100
AcDbEntity
  8
CF-401
100
AcDbCircle
 10
6100.003547453702
 20
8221.053322994078
 30
0.0
 40
5.5
100
AcDbArc
 50
0.0
 51
180.0
  0
LINE
  5
182ED
330
180D1
100
AcDbEntity
  8
CF-401
100
AcDbLine
 10
6094.503547453707
 20
8221.053322994078
 30
0.0
 11
6094.503547453707
 21
8219.053322994078
 31
0.0
  0
LINE
  5
182EE
330
180D1
100
AcDbEntity
  8
CF-401
100
AcDbLine
 10
6105.503547453704
 20
8219.053322994078
 30
0.0
 11
6105.503547453704
 21
8221.053322994078
 31
0.0
  0
ARC
  5
182EF
330
180D1
100
AcDbEntity
  8
CF-401
100
AcDbCircle
 10
6500.003547453697
 20
8219.053322994078
 30
0.0
 40
5.5
100
AcDbArc
 50
180.0
 51
0.0
  0
ARC
  5
182F0
330
180D1
100
AcDbEntity
  8
CF-401
100
AcDbCircle
 10
6500.003547453697
 20
8221.053322994078
 30
0.0
 40
5.5
100
AcDbArc
 50
0.0
 51
180.0
  0
LINE
  5
182F1
330
180D1
100
AcDbEntity
  8
CF-401
100
AcDbLine
 10
6494.503547453698
 20
8221.053322994078
 30
0.0
 11
6494.503547453698
 21
8219.053322994078
 31
0.0
  0
LINE
  5
182F2
330
180D1
100
AcDbEntity
  8
CF-401
100
AcDbLine
 10
6505.503547453698
 20
8219.053322994078
 30
0.0
 11
6505.503547453698
 21
8221.053322994078
 31
0.0
  0
LINE
  5
182F3
330
180D1
100
AcDbEntity
  8
CF-401
100
AcDbLine
 10
6105.503547453704
 20
8622.753322994078
 30
0.0
 11
6105.503547453704
 21
8624.753322994079
 31
0.0
  0
LINE
  5
182F4
330
180D1
100
AcDbEntity
  8
CF-401
100
AcDbLine
 10
6094.503547453707
 20
8624.753322994079
 30
0.0
 11
6094.503547453707
 21
8622.753322994078
 31
0.0
  0
ARC
  5
182F5
330
180D1
100
AcDbEntity
  8
CF-401
100
AcDbCircle
 10
6100.003547453702
 20
8624.753322994079
 30
0.0
 40
5.5
100
AcDbArc
 50
0.0
 51
180.0
  0
ARC
  5
182F6
330
180D1
100
AcDbEntity
  8
CF-401
100
AcDbCircle
 10
6100.003547453702
 20
8622.753322994078
 30
0.0
 40
5.5
100
AcDbArc
 50
180.0
 51
0.0
  0
LINE
  5
182F7
330
180D1
100
AcDbEntity
  8
CF-401
100
AcDbLine
 10
6505.503547453698
 20
8622.753322994078
 30
0.0
 11
6505.503547453698
 21
8624.753322994079
 31
0.0
  0
LINE
  5
182F8
330
180D1
100
AcDbEntity
  8
CF-401
100
AcDbLine
 10
6494.503547453698
 20
8624.753322994079
 30
0.0
 11
6494.503547453698
 21
8622.753322994078
 31
0.0
  0
ARC
  5
182F9
330
180D1
100
AcDbEntity
  8
CF-401
100
AcDbCircle
 10
6500.003547453697
 20
8624.753322994079
 30
0.0
 40
5.5
100
AcDbArc
 50
0.0
 51
180.0
  0
ARC
  5
182FA
330
180D1
100
AcDbEntity
  8
CF-401
100
AcDbCircle
 10
6500.003547453697
 20
8622.753322994078
 30
0.0
 40
5.5
100
AcDbArc
 50
180.0
 51
0.0
  0
LINE
  5
182FB
330
180D1
100
AcDbEntity
  8
CF-401
100
AcDbLine
 10
5705.503547453703
 20
9111.753322994079
 30
0.0
 11
5705.503547453703
 21
9109.753322994079
 31
0.0
  0
LINE
  5
182FC
330
180D1
100
AcDbEntity
  8
CF-401
100
AcDbLine
 10
5694.503547453702
 20
9109.753322994079
 30
0.0
 11
5694.503547453702
 21
9111.753322994079
 31
0.0
  0
ARC
  5
182FD
330
180D1
100
AcDbEntity
  8
CF-401
100
AcDbCircle
 10
5700.003547453704
 20
9109.753322994079
 30
0.0
 40
5.5
100
AcDbArc
 50
180.0
 51
0.0
  0
ARC
  5
182FE
330
180D1
100
AcDbEntity
  8
CF-401
100
AcDbCircle
 10
5700.003547453704
 20
9111.753322994079
 30
0.0
 40
5.5
100
AcDbArc
 50
0.0
 51
180.0
  0
LINE
  5
182FF
330
180D1
100
AcDbEntity
  8
CF-401
100
AcDbLine
 10
6105.503547453704
 20
9111.753322994079
 30
0.0
 11
6105.503547453704
 21
9109.753322994079
 31
0.0
  0
LINE
  5
18300
330
180D1
100
AcDbEntity
  8
CF-401
100
AcDbLine
 10
6094.503547453707
 20
9109.753322994079
 30
0.0
 11
6094.503547453707
 21
9111.753322994079
 31
0.0
  0
ARC
  5
18301
330
180D1
100
AcDbEntity
  8
CF-401
100
AcDbCircle
 10
6100.003547453702
 20
9109.753322994079
 30
0.0
 40
5.5
100
AcDbArc
 50
180.0
 51
0.0
  0
ARC
  5
18302
330
180D1
100
AcDbEntity
  8
CF-401
100
AcDbCircle
 10
6100.003547453702
 20
9111.753322994079
 30
0.0
 40
5.5
100
AcDbArc
 50
0.0
 51
180.0
  0
LINE
  5
18303
330
180D1
100
AcDbEntity
  8
CF-401
100
AcDbLine
 10
6505.503547453698
 20
9111.753322994079
 30
0.0
 11
6505.503547453698
 21
9109.753322994079
 31
0.0
  0
LINE
  5
18304
330
180D1
100
AcDbEntity
  8
CF-401
100
AcDbLine
 10
6494.503547453698
 20
9109.753322994079
 30
0.0
 11
6494.503547453698
 21
9111.753322994079
 31
0.0
  0
ARC
  5
18305
330
180D1
100
AcDbEntity
  8
CF-401
100
AcDbCircle
 10
6500.003547453697
 20
9109.753322994079
 30
0.0
 40
5.5
100
AcDbArc
 50
180.0
 51
0.0
  0
ARC
  5
18306
330
180D1
100
AcDbEntity
  8
CF-401
100
AcDbCircle
 10
6500.003547453697
 20
9111.753322994079
 30
0.0
 40
5.5
100
AcDbArc
 50
0.0
 51
180.0
  0
LINE
  5
18307
330
180D1
100
AcDbEntity
  8
CF-401
100
AcDbLine
 10
5580.348209940392
 20
10107.80332299408
 30
0.0
 11
5553.026129388853
 21
10107.80332299408
 31
0.0
  0
LINE
  5
18308
330
180D1
100
AcDbEntity
  8
CF-401
100
AcDbLine
 10
5136.376129388855
 20
10092.20332299407
 30
0.0
 11
5063.698209940394
 21
10092.20332299407
 31
0.0
  0
LINE
  5
18309
330
180D1
100
AcDbEntity
  8
CF-401
100
AcDbLine
 10
4833.721317339183
 20
10092.20332299407
 30
0.0
 11
4869.676129388852
 21
10092.20332299407
 31
0.0
  0
LINE
  5
1830A
330
180D1
100
AcDbEntity
  8
CF-401
100
AcDbLine
 10
4930.398209940393
 20
10092.20332299407
 30
0.0
 11
5003.07612938885
 21
10092.20332299407
 31
0.0
  0
LINE
  5
1830B
330
180D1
100
AcDbEntity
  8
CF-401
100
AcDbLine
 10
4930.398209940393
 20
10092.20332299407
 30
0.0
 11
4913.748209940392
 21
10107.80332299408
 31
0.0
  0
LINE
  5
1830C
330
180D1
100
AcDbEntity
  8
CF-401
100
AcDbLine
 10
4869.676129388852
 20
10092.20332299407
 30
0.0
 11
4886.326129388852
 21
10107.80332299408
 31
0.0
  0
LINE
  5
1830D
330
180D1
100
AcDbEntity
  8
CF-401
100
AcDbLine
 10
4913.748209940392
 20
10107.80332299408
 30
0.0
 11
4886.92612938885
 21
10107.80332299408
 31
0.0
  0
LINE
  5
1830E
330
180D1
100
AcDbEntity
  8
CF-401
100
AcDbLine
 10
5063.698209940394
 20
10092.20332299407
 30
0.0
 11
5047.048209940392
 21
10107.80332299408
 31
0.0
  0
LINE
  5
1830F
330
180D1
100
AcDbEntity
  8
CF-401
100
AcDbLine
 10
5003.07612938885
 20
10092.20332299407
 30
0.0
 11
5019.726129388851
 21
10107.80332299408
 31
0.0
  0
LINE
  5
18310
330
180D1
100
AcDbEntity
  8
CF-401
100
AcDbLine
 10
5019.726129388851
 20
10107.80332299408
 30
0.0
 11
5047.048209940392
 21
10107.80332299408
 31
0.0
  0
ARC
  5
18311
330
180D1
100
AcDbEntity
  8
CF-401
100
AcDbCircle
 10
5300.003547453703
 20
9598.753322994078
 30
0.0
 40
5.5
100
AcDbArc
 50
0.0
 51
180.0
  0
ARC
  5
18312
330
180D1
100
AcDbEntity
  8
CF-401
100
AcDbCircle
 10
5300.003547453703
 20
9596.753322994079
 30
0.0
 40
5.5
100
AcDbArc
 50
180.0
 51
0.0
  0
LINE
  5
18313
330
180D1
100
AcDbEntity
  8
CF-401
100
AcDbLine
 10
5294.503547453704
 20
9596.753322994079
 30
0.0
 11
5294.503547453704
 21
9598.753322994078
 31
0.0
  0
LINE
  5
18314
330
180D1
100
AcDbEntity
  8
CF-401
100
AcDbLine
 10
5305.503547453707
 20
9598.753322994078
 30
0.0
 11
5305.503547453707
 21
9596.753322994079
 31
0.0
  0
LINE
  5
18315
330
180D1
100
AcDbEntity
  8
CF-401
100
AcDbLine
 10
5330.398209940391
 20
10092.20332299407
 30
0.0
 11
5313.748209940392
 21
10107.80332299408
 31
0.0
  0
LINE
  5
18316
330
180D1
100
AcDbEntity
  8
CF-401
100
AcDbLine
 10
5196.998209940393
 20
10092.20332299407
 30
0.0
 11
5269.676129388852
 21
10092.20332299407
 31
0.0
  0
LINE
  5
18317
330
180D1
100
AcDbEntity
  8
CF-401
100
AcDbLine
 10
5136.376129388855
 20
10092.20332299407
 30
0.0
 11
5153.026129388848
 21
10107.80332299408
 31
0.0
  0
LINE
  5
18318
330
180D1
100
AcDbEntity
  8
CF-401
100
AcDbLine
 10
5196.998209940393
 20
10092.20332299407
 30
0.0
 11
5180.348209940394
 21
10107.80332299408
 31
0.0
  0
LINE
  5
18319
330
180D1
100
AcDbEntity
  8
CF-401
100
AcDbLine
 10
5180.348209940394
 20
10107.80332299408
 30
0.0
 11
5153.026129388848
 21
10107.80332299408
 31
0.0
  0
LINE
  5
1831A
330
180D1
100
AcDbEntity
  8
CF-401
100
AcDbLine
 10
5269.676129388852
 20
10092.20332299407
 30
0.0
 11
5286.326129388852
 21
10107.80332299408
 31
0.0
  0
LINE
  5
1831B
330
180D1
100
AcDbEntity
  8
CF-401
100
AcDbLine
 10
5313.748209940392
 20
10107.80332299408
 30
0.0
 11
5286.92612938885
 21
10107.80332299408
 31
0.0
  0
LINE
  5
1831C
330
180D1
100
AcDbEntity
  8
CF-401
100
AcDbLine
 10
5419.726129388848
 20
10107.80332299408
 30
0.0
 11
5447.048209940394
 21
10107.80332299408
 31
0.0
  0
LINE
  5
1831D
330
180D1
100
AcDbEntity
  8
CF-401
100
AcDbLine
 10
5330.398209940391
 20
10092.20332299407
 30
0.0
 11
5403.076129388853
 21
10092.20332299407
 31
0.0
  0
LINE
  5
1831E
330
180D1
100
AcDbEntity
  8
CF-401
100
AcDbLine
 10
5403.076129388853
 20
10092.20332299407
 30
0.0
 11
5419.726129388848
 21
10107.80332299408
 31
0.0
  0
LINE
  5
1831F
330
180D1
100
AcDbEntity
  8
CF-401
100
AcDbLine
 10
5536.376129388851
 20
10092.20332299407
 30
0.0
 11
5463.698209940396
 21
10092.20332299407
 31
0.0
  0
LINE
  5
18320
330
180D1
100
AcDbEntity
  8
CF-401
100
AcDbLine
 10
5463.698209940396
 20
10092.20332299407
 30
0.0
 11
5447.048209940394
 21
10107.80332299408
 31
0.0
  0
LINE
  5
18321
330
180D1
100
AcDbEntity
  8
CF-401
100
AcDbLine
 10
5536.376129388851
 20
10092.20332299407
 30
0.0
 11
5553.026129388853
 21
10107.80332299408
 31
0.0
  0
LINE
  5
18322
330
180D1
100
AcDbEntity
  8
CF-401
100
AcDbLine
 10
5996.998209940397
 20
10092.20332299407
 30
0.0
 11
6069.676129388851
 21
10092.20332299407
 31
0.0
  0
ARC
  5
18323
330
180D1
100
AcDbEntity
  8
CF-401
100
AcDbCircle
 10
5700.003547453704
 20
9598.753322994078
 30
0.0
 40
5.5
100
AcDbArc
 50
0.0
 51
180.0
  0
ARC
  5
18324
330
180D1
100
AcDbEntity
  8
CF-401
100
AcDbCircle
 10
5700.003547453704
 20
9596.753322994079
 30
0.0
 40
5.5
100
AcDbArc
 50
180.0
 51
0.0
  0
LINE
  5
18325
330
180D1
100
AcDbEntity
  8
CF-401
100
AcDbLine
 10
5694.503547453702
 20
9596.753322994079
 30
0.0
 11
5694.503547453702
 21
9598.753322994078
 31
0.0
  0
LINE
  5
18326
330
180D1
100
AcDbEntity
  8
CF-401
100
AcDbLine
 10
5705.503547453703
 20
9598.753322994078
 30
0.0
 11
5705.503547453703
 21
9596.753322994079
 31
0.0
  0
LINE
  5
18327
330
180D1
100
AcDbEntity
  8
CF-401
100
AcDbLine
 10
5803.076129388853
 20
10092.20332299407
 30
0.0
 11
5819.726129388851
 21
10107.80332299408
 31
0.0
  0
LINE
  5
18328
330
180D1
100
AcDbEntity
  8
CF-401
100
AcDbLine
 10
5713.748209940392
 20
10107.80332299408
 30
0.0
 11
5686.926129388851
 21
10107.80332299408
 31
0.0
  0
LINE
  5
18329
330
180D1
100
AcDbEntity
  8
CF-401
100
AcDbLine
 10
5596.998209940397
 20
10092.20332299407
 30
0.0
 11
5669.67612938885
 21
10092.20332299407
 31
0.0
  0
LINE
  5
1832A
330
180D1
100
AcDbEntity
  8
CF-401
100
AcDbLine
 10
5596.998209940397
 20
10092.20332299407
 30
0.0
 11
5580.348209940392
 21
10107.80332299408
 31
0.0
  0
LINE
  5
1832B
330
180D1
100
AcDbEntity
  8
CF-401
100
AcDbLine
 10
5669.67612938885
 20
10092.20332299407
 30
0.0
 11
5686.326129388852
 21
10107.80332299408
 31
0.0
  0
LINE
  5
1832C
330
180D1
100
AcDbEntity
  8
CF-401
100
AcDbLine
 10
5730.398209940389
 20
10092.20332299407
 30
0.0
 11
5713.748209940392
 21
10107.80332299408
 31
0.0
  0
LINE
  5
1832D
330
180D1
100
AcDbEntity
  8
CF-401
100
AcDbLine
 10
5730.398209940389
 20
10092.20332299407
 30
0.0
 11
5803.076129388853
 21
10092.20332299407
 31
0.0
  0
LINE
  5
1832E
330
180D1
100
AcDbEntity
  8
CF-401
100
AcDbLine
 10
5936.37612938885
 20
10092.20332299407
 30
0.0
 11
5863.698209940396
 21
10092.20332299407
 31
0.0
  0
LINE
  5
1832F
330
180D1
100
AcDbEntity
  8
CF-401
100
AcDbLine
 10
5819.726129388851
 20
10107.80332299408
 30
0.0
 11
5847.048209940394
 21
10107.80332299408
 31
0.0
  0
LINE
  5
18330
330
180D1
100
AcDbEntity
  8
CF-401
100
AcDbLine
 10
5863.698209940396
 20
10092.20332299407
 30
0.0
 11
5847.048209940394
 21
10107.80332299408
 31
0.0
  0
LINE
  5
18331
330
180D1
100
AcDbEntity
  8
CF-401
100
AcDbLine
 10
5980.348209940396
 20
10107.80332299408
 30
0.0
 11
5953.026129388852
 21
10107.80332299408
 31
0.0
  0
LINE
  5
18332
330
180D1
100
AcDbEntity
  8
CF-401
100
AcDbLine
 10
5936.37612938885
 20
10092.20332299407
 30
0.0
 11
5953.026129388852
 21
10107.80332299408
 31
0.0
  0
LINE
  5
18333
330
180D1
100
AcDbEntity
  8
CF-401
100
AcDbLine
 10
5996.998209940397
 20
10092.20332299407
 30
0.0
 11
5980.348209940396
 21
10107.80332299408
 31
0.0
  0
LINE
  5
18334
330
180D1
100
AcDbEntity
  8
CF-401
100
AcDbLine
 10
6105.503547453704
 20
9598.753322994078
 30
0.0
 11
6105.503547453704
 21
9596.753322994079
 31
0.0
  0
LINE
  5
18335
330
180D1
100
AcDbEntity
  8
CF-401
100
AcDbLine
 10
6094.503547453707
 20
9596.753322994079
 30
0.0
 11
6094.503547453707
 21
9598.753322994078
 31
0.0
  0
ARC
  5
18336
330
180D1
100
AcDbEntity
  8
CF-401
100
AcDbCircle
 10
6100.003547453702
 20
9598.753322994078
 30
0.0
 40
5.5
100
AcDbArc
 50
0.0
 51
180.0
  0
ARC
  5
18337
330
180D1
100
AcDbEntity
  8
CF-401
100
AcDbCircle
 10
6100.003547453702
 20
9596.753322994079
 30
0.0
 40
5.5
100
AcDbArc
 50
180.0
 51
0.0
  0
LINE
  5
18338
330
180D1
100
AcDbEntity
  8
CF-401
100
AcDbLine
 10
6505.503547453698
 20
9598.753322994078
 30
0.0
 11
6505.503547453698
 21
9596.753322994079
 31
0.0
  0
LINE
  5
18339
330
180D1
100
AcDbEntity
  8
CF-401
100
AcDbLine
 10
6494.503547453698
 20
9596.753322994079
 30
0.0
 11
6494.503547453698
 21
9598.753322994078
 31
0.0
  0
ARC
  5
1833A
330
180D1
100
AcDbEntity
  8
CF-401
100
AcDbCircle
 10
6500.003547453697
 20
9596.753322994079
 30
0.0
 40
5.5
100
AcDbArc
 50
180.0
 51
0.0
  0
ARC
  5
1833B
330
180D1
100
AcDbEntity
  8
CF-401
100
AcDbCircle
 10
6500.003547453697
 20
9598.753322994078
 30
0.0
 40
5.5
100
AcDbArc
 50
0.0
 51
180.0
  0
LINE
  5
1833C
330
180D1
100
AcDbEntity
  8
CF-401
100
AcDbLine
 10
6336.376129388847
 20
10092.20332299407
 30
0.0
 11
6263.698209940396
 21
10092.20332299407
 31
0.0
  0
LINE
  5
1833D
330
180D1
100
AcDbEntity
  8
CF-401
100
AcDbLine
 10
6130.398209940389
 20
10092.20332299407
 30
0.0
 11
6203.076129388851
 21
10092.20332299407
 31
0.0
  0
LINE
  5
1833E
330
180D1
100
AcDbEntity
  8
CF-401
100
AcDbLine
 10
6113.748209940392
 20
10107.80332299408
 30
0.0
 11
6086.92612938885
 21
10107.80332299408
 31
0.0
  0
LINE
  5
1833F
330
180D1
100
AcDbEntity
  8
CF-401
100
AcDbLine
 10
6069.676129388851
 20
10092.20332299407
 30
0.0
 11
6086.326129388853
 21
10107.80332299408
 31
0.0
  0
LINE
  5
18340
330
180D1
100
AcDbEntity
  8
CF-401
100
AcDbLine
 10
6130.398209940389
 20
10092.20332299407
 30
0.0
 11
6113.748209940392
 21
10107.80332299408
 31
0.0
  0
LINE
  5
18341
330
180D1
100
AcDbEntity
  8
CF-401
100
AcDbLine
 10
6203.076129388851
 20
10092.20332299407
 30
0.0
 11
6219.726129388853
 21
10107.80332299408
 31
0.0
  0
LINE
  5
18342
330
180D1
100
AcDbEntity
  8
CF-401
100
AcDbLine
 10
6263.698209940396
 20
10092.20332299407
 30
0.0
 11
6247.048209940395
 21
10107.80332299408
 31
0.0
  0
LINE
  5
18343
330
180D1
100
AcDbEntity
  8
CF-401
100
AcDbLine
 10
6219.726129388853
 20
10107.80332299408
 30
0.0
 11
6247.048209940395
 21
10107.80332299408
 31
0.0
  0
LINE
  5
18344
330
180D1
100
AcDbEntity
  8
CF-401
100
AcDbLine
 10
6396.99820994039
 20
10092.20332299407
 30
0.0
 11
6469.676129388847
 21
10092.20332299407
 31
0.0
  0
LINE
  5
18345
330
180D1
100
AcDbEntity
  8
CF-401
100
AcDbLine
 10
6396.99820994039
 20
10092.20332299407
 30
0.0
 11
6380.34820994039
 21
10107.80332299408
 31
0.0
  0
LINE
  5
18346
330
180D1
100
AcDbEntity
  8
CF-401
100
AcDbLine
 10
6336.376129388847
 20
10092.20332299407
 30
0.0
 11
6353.026129388847
 21
10107.80332299408
 31
0.0
  0
LINE
  5
18347
330
180D1
100
AcDbEntity
  8
CF-401
100
AcDbLine
 10
6380.34820994039
 20
10107.80332299408
 30
0.0
 11
6353.026129388847
 21
10107.80332299408
 31
0.0
  0
LINE
  5
18348
330
180D1
100
AcDbEntity
  8
CF-401
100
AcDbLine
 10
6530.39820994039
 20
10092.20332299407
 30
0.0
 11
6513.74820994039
 21
10107.80332299408
 31
0.0
  0
LINE
  5
18349
330
180D1
100
AcDbEntity
  8
CF-401
100
AcDbLine
 10
6469.676129388847
 20
10092.20332299407
 30
0.0
 11
6486.326129388847
 21
10107.80332299408
 31
0.0
  0
LINE
  5
1834A
330
180D1
100
AcDbEntity
  8
CF-401
100
AcDbLine
 10
6513.74820994039
 20
10107.80332299408
 30
0.0
 11
6486.926129388847
 21
10107.80332299408
 31
0.0
  0
LINE
  5
1834B
330
180D1
100
AcDbEntity
  8
CF-401
100
AcDbLine
 10
6663.698209940386
 20
8160.75332299407
 30
0.0
 11
6663.698209940386
 21
10092.20332299407
 31
0.0
  0
LINE
  5
1834C
330
180D1
100
AcDbEntity
  8
CF-401
100
AcDbLine
 10
6647.048209940386
 20
10107.80332299408
 30
0.0
 11
6647.048209940386
 21
8160.753322994077
 31
0.0
  0
LINE
  5
1834D
330
180D1
100
AcDbEntity
  8
CF-401
100
AcDbLine
 10
6619.726129388848
 20
8160.753322994077
 30
0.0
 11
6619.726129388848
 21
10107.80332299408
 31
0.0
  0
LINE
  5
1834E
330
180D1
100
AcDbEntity
  8
CF-401
100
AcDbLine
 10
6603.076129388846
 20
10092.20332299407
 30
0.0
 11
6603.076129388846
 21
8160.75332299407
 31
0.0
  0
LINE
  5
1834F
330
180D1
100
AcDbEntity
  8
CF-401
100
AcDbLine
 10
6736.376129388847
 20
10092.20332299407
 30
0.0
 11
6736.376129388847
 21
8160.75332299407
 31
0.0
  0
LINE
  5
18350
330
180D1
100
AcDbEntity
  8
CF-401
100
AcDbLine
 10
6753.026129388846
 20
8160.753322994077
 30
0.0
 11
6753.026129388846
 21
10107.80332299408
 31
0.0
  0
LINE
  5
18351
330
180D1
100
AcDbEntity
  8
CF-401
100
AcDbLine
 10
6780.348209940388
 20
10107.80332299408
 30
0.0
 11
6780.348209940388
 21
8160.753322994077
 31
0.0
  0
LINE
  5
18352
330
180D1
100
AcDbEntity
  8
CF-401
100
AcDbLine
 10
6796.998209940389
 20
8160.75332299407
 30
0.0
 11
6796.998209940389
 21
10092.20332299407
 31
0.0
  0
LINE
  5
18353
330
180D1
100
AcDbEntity
  8
CF-401
100
AcDbLine
 10
6869.676129388847
 20
10092.20332299407
 30
0.0
 11
6869.676129388847
 21
8160.75332299407
 31
0.0
  0
LINE
  5
18354
330
180D1
100
AcDbEntity
  8
CF-401
100
AcDbLine
 10
6886.326129388847
 20
8160.753322994077
 30
0.0
 11
6886.326129388847
 21
10107.80332299408
 31
0.0
  0
LINE
  5
18355
330
180D1
100
AcDbEntity
  8
1PL-M1
100
AcDbLine
 10
6700.003547453697
 20
10286.15332299407
 30
0.0
 11
6700.003547453697
 21
7981.353322994078
 31
0.0
  0
LINE
  5
18356
330
180D1
100
AcDbEntity
  8
CF-301
100
AcDbLine
 10
6938.003547453696
 20
8199.753322994078
 30
0.0
 11
6938.003547453696
 21
10132.30332299408
 31
0.0
  0
LINE
  5
18357
330
180D1
100
AcDbEntity
  8
CF-301
100
AcDbLine
 10
6892.003547453699
 20
9609.753322994079
 30
0.0
 11
6892.003547453699
 21
8162.753322994078
 31
0.0
  0
LINE
  5
18358
330
180D1
100
AcDbEntity
  8
SUNPOU
100
AcDbLine
 10
7238.003547453697
 20
9977.753322994079
 30
0.0
 11
7238.003547453697
 21
8148.753322994078
 31
0.0
  0
LINE
  5
18359
330
180D1
100
AcDbEntity
  8
SUNPOU
100
AcDbLine
 10
7448.003547453698
 20
10118.75332299408
 30
0.0
 11
7448.003547453698
 21
8148.753322994078
 31
0.0
  0
LINE
  5
1835A
330
180D1
100
AcDbEntity
  8
SUNPOU
100
AcDbLine
 10
6968.037169664618
 20
8133.753322994079
 30
0.0
 11
7493.003547453698
 21
8133.753322994079
 31
0.0
  0
LINE
  5
1835B
330
180D1
100
AcDbEntity
  8
CF-301
100
AcDbLine
 10
6892.003547453699
 20
8162.753322994078
 30
0.0
 11
6923.003547453697
 21
8162.753322994078
 31
0.0
  0
LINE
  5
1835C
330
180D1
100
AcDbEntity
  8
CF-202
100
AcDbLine
 10
6920.003547453699
 20
8133.753322994079
 30
0.0
 11
6920.003547453699
 21
8160.753322994077
 31
0.0
  0
LINE
  5
1835D
330
180D1
100
AcDbEntity
  8
CF-401
100
AcDbLine
 10
6905.503547453697
 20
8219.053322994078
 30
0.0
 11
6905.503547453697
 21
8221.053322994078
 31
0.0
  0
LINE
  5
1835E
330
180D1
100
AcDbEntity
  8
CF-401
100
AcDbLine
 10
6894.503547453698
 20
8221.053322994078
 30
0.0
 11
6894.503547453698
 21
8219.053322994078
 31
0.0
  0
ARC
  5
1835F
330
180D1
100
AcDbEntity
  8
CF-401
100
AcDbCircle
 10
6900.003547453699
 20
8219.053322994078
 30
0.0
 40
5.5
100
AcDbArc
 50
180.0
 51
0.0
  0
ARC
  5
18360
330
180D1
100
AcDbEntity
  8
CF-401
100
AcDbCircle
 10
6900.003547453699
 20
8221.053322994078
 30
0.0
 40
5.5
100
AcDbArc
 50
0.0
 51
180.0
  0
LINE
  5
18361
330
180D1
100
AcDbEntity
  8
CF-301
100
AcDbLine
 10
6923.003547453697
 20
8162.753322994078
 30
0.0
 11
6923.003547453697
 21
8199.753322994078
 31
0.0
  0
LINE
  5
18362
330
180D1
100
AcDbEntity
  8
CF-301
100
AcDbLine
 10
6923.003547453697
 20
8199.753322994078
 30
0.0
 11
6938.003547453696
 21
8199.753322994078
 31
0.0
  0
ARC
  5
18363
330
180D1
100
AcDbEntity
  8
CF-401
100
AcDbCircle
 10
6900.003547453699
 20
8624.753322994079
 30
0.0
 40
5.5
100
AcDbArc
 50
0.0
 51
180.0
  0
ARC
  5
18364
330
180D1
100
AcDbEntity
  8
CF-401
100
AcDbCircle
 10
6900.003547453699
 20
8622.753322994078
 30
0.0
 40
5.5
100
AcDbArc
 50
180.0
 51
0.0
  0
LINE
  5
18365
330
180D1
100
AcDbEntity
  8
CF-401
100
AcDbLine
 10
6894.503547453698
 20
8624.753322994079
 30
0.0
 11
6894.503547453698
 21
8622.753322994078
 31
0.0
  0
LINE
  5
18366
330
180D1
100
AcDbEntity
  8
CF-401
100
AcDbLine
 10
6905.503547453697
 20
8622.753322994078
 30
0.0
 11
6905.503547453697
 21
8624.753322994079
 31
0.0
  0
ARC
  5
18367
330
180D1
100
AcDbEntity
  8
CF-401
100
AcDbCircle
 10
6900.003547453699
 20
9109.753322994079
 30
0.0
 40
5.5
100
AcDbArc
 50
180.0
 51
0.0
  0
ARC
  5
18368
330
180D1
100
AcDbEntity
  8
CF-401
100
AcDbCircle
 10
6900.003547453699
 20
9111.753322994079
 30
0.0
 40
5.5
100
AcDbArc
 50
0.0
 51
180.0
  0
LINE
  5
18369
330
180D1
100
AcDbEntity
  8
CF-401
100
AcDbLine
 10
6894.503547453698
 20
9109.753322994079
 30
0.0
 11
6894.503547453698
 21
9111.753322994079
 31
0.0
  0
LINE
  5
1836A
330
180D1
100
AcDbEntity
  8
CF-401
100
AcDbLine
 10
6905.503547453697
 20
9111.753322994079
 30
0.0
 11
6905.503547453697
 21
9109.753322994079
 31
0.0
  0
TEXT
  5
1836B
330
180D1
100
AcDbEntity
  8
SUNPOU
100
AcDbText
 10
7193.003547453698
 20
8944.681894422648
 30
0.0
 40
90.0
  1
1860
 50
90.0
 41
0.6666666666666666
  7
00
 72
     4
 11
7148.003547453697
 21
9063.253322994079
 31
0.0
100
AcDbText
  0
TEXT
  5
1836C
330
180D1
100
AcDbEntity
  8
SUNPOU
100
AcDbText
 10
7403.003547453697
 20
9019.467608708366
 30
0.0
 40
90.0
  1
2000
 50
90.0
 41
0.6666666666666666
  7
00
 72
     4
 11
7358.003547453697
 21
9133.753322994079
 31
0.0
100
AcDbText
  0
LINE
  5
1836D
330
180D1
100
AcDbEntity
  8
SUNPOU
100
AcDbLine
 10
7238.003547453697
 20
10163.75332299408
 30
0.0
 11
7238.003547453697
 21
10397.88189442264
 31
0.0
  0
LINE
  5
1836E
330
180D1
100
AcDbEntity
  8
SUNPOU
100
AcDbLine
 10
6968.037169664618
 20
10133.75332299408
 30
0.0
 11
7493.003547453698
 21
10133.75332299408
 31
0.0
  0
LINE
  5
1836F
330
180D1
100
AcDbEntity
  8
CF-301
100
AcDbLine
 10
6913.003547453697
 20
9770.753322994075
 30
0.0
 11
6913.003547453697
 21
10132.30332299408
 31
0.0
  0
LINE
  5
18370
330
180D1
100
AcDbEntity
  8
CF-301
100
AcDbLine
 10
6892.003547453699
 20
9764.753322994081
 30
0.0
 11
6892.003547453699
 21
9611.753322994079
 31
0.0
  0
LINE
  5
18371
330
180D1
100
AcDbEntity
  8
CF-301
100
AcDbLine
 10
6892.003547453699
 20
9611.753322994079
 30
0.0
 11
6923.003547453697
 21
9611.753322994079
 31
0.0
  0
LINE
  5
18372
330
180D1
100
AcDbEntity
  8
CF-301
100
AcDbLine
 10
6892.003547453699
 20
9609.753322994079
 30
0.0
 11
6923.003547453697
 21
9609.753322994073
 31
0.0
  0
ARC
  5
18373
330
180D1
100
AcDbEntity
  8
CF-401
100
AcDbCircle
 10
6900.003547453699
 20
9596.753322994079
 30
0.0
 40
5.5
100
AcDbArc
 50
180.0
 51
0.0
  0
ARC
  5
18374
330
180D1
100
AcDbEntity
  8
CF-401
100
AcDbCircle
 10
6900.003547453699
 20
9598.753322994078
 30
0.0
 40
5.5
100
AcDbArc
 50
0.0
 51
180.0
  0
LINE
  5
18375
330
180D1
100
AcDbEntity
  8
CF-401
100
AcDbLine
 10
6894.503547453698
 20
9596.753322994079
 30
0.0
 11
6894.503547453698
 21
9598.753322994078
 31
0.0
  0
LINE
  5
18376
330
180D1
100
AcDbEntity
  8
CF-401
100
AcDbLine
 10
6905.503547453697
 20
9598.753322994078
 30
0.0
 11
6905.503547453697
 21
9596.753322994079
 31
0.0
  0
LINE
  5
18377
330
180D1
100
AcDbEntity
  8
CF-301
100
AcDbLine
 10
6923.003547453697
 20
9611.753322994079
 30
0.0
 11
6923.003547453697
 21
9609.753322994079
 31
0.0
  0
LINE
  5
18378
330
180D1
100
AcDbEntity
  8
CF-301
100
AcDbLine
 10
6895.003547453699
 20
9767.753322994078
 30
0.0
 11
6910.003547453697
 21
9767.753322994078
 31
0.0
  0
ARC
  5
18379
330
180D1
100
AcDbEntity
  8
CF-301
100
AcDbCircle
 10
6895.003547453699
 20
9764.753322994081
 30
0.0
 40
3.0
100
AcDbArc
 50
90.0
 51
180.0
  0
ARC
  5
1837A
330
180D1
100
AcDbEntity
  8
CF-301
100
AcDbCircle
 10
6910.003547453697
 20
9770.753322994075
 30
0.0
 40
3.0
100
AcDbArc
 50
270.0
 51
0.0
  0
LINE
  5
1837B
330
180D1
100
AcDbEntity
  8
CF-401
100
AcDbLine
 10
6796.998209940389
 20
10092.20332299407
 30
0.0
 11
6869.676129388847
 21
10092.20332299407
 31
0.0
  0
LINE
  5
1837C
330
180D1
100
AcDbEntity
  8
CF-401
100
AcDbLine
 10
6736.376129388847
 20
10092.20332299407
 30
0.0
 11
6663.698209940386
 21
10092.20332299407
 31
0.0
  0
LINE
  5
1837D
330
180D1
100
AcDbEntity
  8
CF-401
100
AcDbLine
 10
6663.698209940386
 20
10092.20332299407
 30
0.0
 11
6647.048209940386
 21
10107.80332299408
 31
0.0
  0
LINE
  5
1837E
330
180D1
100
AcDbEntity
  8
CF-401
100
AcDbLine
 10
6603.076129388846
 20
10092.20332299407
 30
0.0
 11
6619.726129388848
 21
10107.80332299408
 31
0.0
  0
LINE
  5
1837F
330
180D1
100
AcDbEntity
  8
CF-401
100
AcDbLine
 10
6619.726129388848
 20
10107.80332299408
 30
0.0
 11
6647.048209940386
 21
10107.80332299408
 31
0.0
  0
LINE
  5
18380
330
180D1
100
AcDbEntity
  8
CF-401
100
AcDbLine
 10
6736.376129388847
 20
10092.20332299407
 30
0.0
 11
6753.026129388846
 21
10107.80332299408
 31
0.0
  0
LINE
  5
18381
330
180D1
100
AcDbEntity
  8
CF-401
100
AcDbLine
 10
6796.998209940389
 20
10092.20332299407
 30
0.0
 11
6780.348209940388
 21
10107.80332299408
 31
0.0
  0
LINE
  5
18382
330
180D1
100
AcDbEntity
  8
CF-401
100
AcDbLine
 10
6780.348209940388
 20
10107.80332299408
 30
0.0
 11
6753.026129388846
 21
10107.80332299408
 31
0.0
  0
LINE
  5
18383
330
180D1
100
AcDbEntity
  8
CF-301
100
AcDbLine
 10
6938.003547453696
 20
10132.30332299408
 30
0.0
 11
6892.003547453699
 21
10132.30332299408
 31
0.0
  0
LINE
  5
18384
330
180D1
100
AcDbEntity
  8
CF-401
100
AcDbLine
 10
6869.676129388847
 20
10092.20332299407
 30
0.0
 11
6886.326129388847
 21
10107.80332299408
 31
0.0
  0
LINE
  5
18385
330
180D1
100
AcDbEntity
  8
CF-401
100
AcDbLine
 10
6888.037169664618
 20
10107.80332299408
 30
0.0
 11
6886.326129388847
 21
10107.80332299408
 31
0.0
  0
LINE
  5
18386
330
180D1
100
AcDbEntity
  8
CF-301
100
AcDbLine
 10
6913.003547453697
 20
10131.50332299406
 30
0.0
 11
6892.003547453699
 21
10131.50332299406
 31
0.0
  0
LINE
  5
18387
330
180D1
100
AcDbEntity
  8
CF-301
100
AcDbLine
 10
6892.003547453699
 20
10132.30332299408
 30
0.0
 11
6892.003547453699
 21
10131.50332299406
 31
0.0
  0
LINE
  5
18388
330
180D1
100
AcDbEntity
  8
CF-401
100
AcDbLine
 10
6886.326129388847
 20
10107.80332299408
 30
0.0
 11
6913.003547453697
 21
10107.80332299408
 31
0.0
  0
LINE
  5
18389
330
180D1
100
AcDbEntity
  8
SUNPOU
100
AcDbLine
 10
7238.003547453697
 20
9992.753322994078
 30
0.0
 11
7238.003547453697
 21
10133.75332299408
 31
0.0
  0
LINE
  5
1838A
330
180D1
100
AcDbEntity
  8
SUNPOU
100
AcDbLine
 10
7238.003547453697
 20
10148.75332299407
 30
0.0
 11
7238.003547453697
 21
10163.75332299408
 31
0.0
  0
TEXT
  5
1838B
330
180D1
100
AcDbEntity
  8
SUNPOU
100
AcDbText
 10
7193.003547453698
 20
10192.16760870836
 30
0.0
 40
90.0
  1
140
 50
90.0
 41
0.6666666666666666
  7
00
 72
     4
 11
7148.003547453697
 21
10282.16760870835
 31
0.0
100
AcDbText
  0
LINE
  5
1838C
330
180D1
100
AcDbEntity
  8
SUNPOU
100
AcDbLine
 10
5311.253547453702
 20
7621.353322994076
 30
0.0
 11
5322.503547453703
 21
7621.353322994076
 31
0.0
  0
LINE
  5
1838D
330
180D1
100
AcDbEntity
  8
SUNPOU
100
AcDbLine
 10
5711.253547453702
 20
7621.353322994076
 30
0.0
 11
5722.503547453707
 21
7621.353322994076
 31
0.0
  0
LINE
  5
1838E
330
180D1
100
AcDbEntity
  8
SUNPOU
100
AcDbLine
 10
5688.753547453702
 20
7621.353322994076
 30
0.0
 11
5677.503547453707
 21
7621.353322994076
 31
0.0
  0
LINE
  5
1838F
330
180D1
100
AcDbEntity
  8
SUNPOU
100
AcDbLine
 10
6111.253547453703
 20
7621.353322994076
 30
0.0
 11
6122.503547453707
 21
7621.353322994076
 31
0.0
  0
LINE
  5
18390
330
180D1
100
AcDbEntity
  8
SUNPOU
100
AcDbLine
 10
6088.753547453704
 20
7621.353322994076
 30
0.0
 11
6077.503547453707
 21
7621.353322994076
 31
0.0
  0
LINE
  5
18391
330
180D1
100
AcDbEntity
  8
SUNPOU
100
AcDbLine
 10
6488.753547453697
 20
7621.353322994076
 30
0.0
 11
6477.503547453697
 21
7621.353322994076
 31
0.0
  0
LINE
  5
18392
330
180D1
100
AcDbEntity
  8
SUNPOU
100
AcDbLine
 10
7238.003547453697
 20
8145.003322994076
 30
0.0
 11
7238.003547453697
 21
8156.253322994077
 31
0.0
  0
LINE
  5
18393
330
180D1
100
AcDbEntity
  8
SUNPOU
100
AcDbLine
 10
7448.003547453698
 20
8145.003322994076
 30
0.0
 11
7448.003547453698
 21
8156.253322994077
 31
0.0
  0
LINE
  5
18394
330
180D1
100
AcDbEntity
  8
SUNPOU
100
AcDbLine
 10
7238.003547453697
 20
9981.503322994079
 30
0.0
 11
7238.003547453697
 21
9970.253322994079
 31
0.0
  0
LINE
  5
18395
330
180D1
100
AcDbEntity
  8
SUNPOU
100
AcDbLine
 10
7238.003547453697
 20
10145.00332299407
 30
0.0
 11
7238.003547453697
 21
10156.25332299406
 31
0.0
  0
LINE
  5
18396
330
180D1
100
AcDbEntity
  8
SUNPOU
100
AcDbLine
 10
7448.003547453698
 20
10122.50332299408
 30
0.0
 11
7448.003547453698
 21
10111.25332299408
 31
0.0
  0
LINE
  5
18397
330
180D1
100
AcDbEntity
  8
TATEDOISIJIKANAGU
100
AcDbLine
 10
12103.30069413384
 20
3900.296798568535
 30
0.0
 11
12103.30069413384
 21
2914.796798568534
 31
0.0
  0
LINE
  5
18398
330
180D1
100
AcDbEntity
  8
TATEDOISIJIKANAGU
100
AcDbLine
 10
12103.30069413384
 20
2902.296798568534
 30
0.0
 11
12103.30069413384
 21
2703.958650873475
 31
0.0
  0
ARC
  5
18399
330
180D1
100
AcDbEntity
  8
TATEDOISIJIKANAGU
100
AcDbCircle
 10
12157.50090228931
 20
2703.958650873475
 30
0.0
 40
98.19979184451604
100
AcDbArc
 50
180.0
 51
270.0
  0
LINE
  5
1839A
330
180D1
100
AcDbEntity
  8
TATEDOISIJIKANAGU
100
AcDbLine
 10
12059.3011104448
 20
2703.958650873475
 30
0.0
 11
12103.30069413384
 21
2703.958650873475
 31
0.0
  0
LINE
  5
1839B
330
180D1
100
AcDbEntity
  8
TATEDOISIJIKANAGU
100
AcDbLine
 10
12059.3011104448
 20
2902.296798568534
 30
0.0
 11
12059.3011104448
 21
2703.958650873475
 31
0.0
  0
ARC
  5
1839C
330
180D1
100
AcDbEntity
  8
TATEDOISIJIKANAGU
100
AcDbCircle
 10
12157.50090228931
 20
2703.958650873475
 30
0.0
 40
54.20020815548396
100
AcDbArc
 50
180.0
 51
270.0
  0
LINE
  5
1839D
330
180D1
100
AcDbEntity
  8
TATEDOISIJIKANAGU
100
AcDbLine
 10
12157.50090228931
 20
2649.75844271799
 30
0.0
 11
12157.50090228931
 21
2605.758859028957
 31
0.0
  0
LINE
  5
1839E
330
180D1
100
AcDbEntity
  8
TATEDOISIJIKANAGU
100
AcDbLine
 10
12059.3011104448
 20
3900.296798568535
 30
0.0
 11
12059.30111044481
 21
2914.796798568534
 31
0.0
  0
LINE
  5
1839F
330
180D1
100
AcDbEntity
  8
TATEDOISIJIKANAGU
100
AcDbLine
 10
12103.30069413384
 20
4040.04068337858
 30
0.0
 11
12103.30069413384
 21
3900.296798568535
 31
0.0
  0
LINE
  5
183A0
330
180D1
100
AcDbEntity
  8
TATEDOISIJIKANAGU
100
AcDbLine
 10
12047.50090228931
 20
3944.796798568535
 30
0.0
 11
12047.50090228931
 21
3918.896798568538
 31
0.0
  0
LINE
  5
183A1
330
180D1
100
AcDbEntity
  8
TATEDOISIJIKANAGU
100
AcDbLine
 10
12049.00090228931
 20
3917.396798568537
 30
0.0
 11
12055.20111044479
 21
3917.396798568537
 31
0.0
  0
ARC
  5
183A2
330
180D1
100
AcDbEntity
  8
TATEDOISIJIKANAGU
100
AcDbCircle
 10
12049.00090228931
 20
3918.896798568538
 30
0.0
 40
1.5
100
AcDbArc
 50
180.0
 51
270.0
  0
ARC
  5
183A3
330
180D1
100
AcDbEntity
  8
TATEDOISIJIKANAGU
100
AcDbCircle
 10
12049.00090228931
 20
3918.896798568538
 30
0.0
 40
4.099999999999997
100
AcDbArc
 50
180.0
 51
270.0
  0
LINE
  5
183A4
330
180D1
100
AcDbEntity
  8
TATEDOISIJIKANAGU
100
AcDbLine
 10
12059.3011104448
 20
3913.296798568534
 30
0.0
 11
12059.3011104448
 21
3898.296798568535
 31
0.0
  0
LINE
  5
183A5
330
180D1
100
AcDbEntity
  8
TATEDOISIJIKANAGU
100
AcDbLine
 10
12059.3011104448
 20
3898.296798568535
 30
0.0
 11
12056.7011104448
 21
3898.296798568535
 31
0.0
  0
LINE
  5
183A6
330
180D1
100
AcDbEntity
  8
TATEDOISIJIKANAGU
100
AcDbLine
 10
12056.7011104448
 20
3898.296798568535
 30
0.0
 11
12056.7011104448
 21
3913.296798568534
 31
0.0
  0
LINE
  5
183A7
330
180D1
100
AcDbEntity
  8
TATEDOISIJIKANAGU
100
AcDbLine
 10
12055.20111044479
 20
3914.796798568534
 30
0.0
 11
12049.00090228931
 21
3914.796798568534
 31
0.0
  0
ARC
  5
183A8
330
180D1
100
AcDbEntity
  8
TATEDOISIJIKANAGU
100
AcDbCircle
 10
12055.20111044479
 20
3913.296798568534
 30
0.0
 40
1.5
100
AcDbArc
 50
0.0
 51
90.0
  0
ARC
  5
183A9
330
180D1
100
AcDbEntity
  8
TATEDOISIJIKANAGU
100
AcDbCircle
 10
12055.20111044479
 20
3913.296798568534
 30
0.0
 40
4.099999999999997
100
AcDbArc
 50
0.0
 51
90.0
  0
LINE
  5
183AA
330
180D1
100
AcDbEntity
  8
TATEDOISIJIKANAGU
100
AcDbLine
 10
12044.90090228931
 20
3918.896798568538
 30
0.0
 11
12044.90090228931
 21
3944.796798568535
 31
0.0
  0
LINE
  5
183AB
330
180D1
100
AcDbEntity
  8
TATEDOISIJIKANAGU
100
AcDbLine
 10
12044.90090228931
 20
3944.796798568535
 30
0.0
 11
12047.50090228931
 21
3944.796798568535
 31
0.0
  0
LINE
  5
183AC
330
180D1
100
AcDbEntity
  8
TATEDOISIJIKANAGU
  6
1PL-S
 62
     6
100
AcDbLine
 10
12038.29090228932
 20
3929.796798568535
 30
0.0
 11
12054.11090228932
 21
3929.796798568535
 31
0.0
  0
LINE
  5
183AD
330
180D1
100
AcDbEntity
  8
TATEDOISIJIKANAGU
100
AcDbLine
 10
12082.90090228931
 20
3912.796798568535
 30
0.0
 11
12082.90090228931
 21
3900.296798568535
 31
0.0
  0
ARC
  5
183AE
330
180D1
100
AcDbEntity
  8
TATEDOISIJIKANAGU
100
AcDbCircle
 10
12087.60386238469
 20
3906.546798568534
 30
0.0
 40
12.84038832877559
100
AcDbArc
 50
150.8731100751251
 51
209.1268899248748
  0
LINE
  5
183AF
330
180D1
100
AcDbEntity
  8
TATEDOISIJIKANAGU
100
AcDbLine
 10
12047.50090228931
 20
2946.796798568534
 30
0.0
 11
12047.50090228931
 21
2920.896798568536
 31
0.0
  0
LINE
  5
183B0
330
180D1
100
AcDbEntity
  8
TATEDOISIJIKANAGU
100
AcDbLine
 10
12049.00090228931
 20
2919.396798568536
 30
0.0
 11
12055.20111044479
 21
2919.396798568536
 31
0.0
  0
ARC
  5
183B1
330
180D1
100
AcDbEntity
  8
TATEDOISIJIKANAGU
100
AcDbCircle
 10
12049.00090228931
 20
2920.896798568536
 30
0.0
 40
1.5
100
AcDbArc
 50
180.0
 51
270.0
  0
ARC
  5
183B2
330
180D1
100
AcDbEntity
  8
TATEDOISIJIKANAGU
100
AcDbCircle
 10
12049.00090228931
 20
2920.896798568536
 30
0.0
 40
4.099999999999997
100
AcDbArc
 50
180.0
 51
270.0
  0
LINE
  5
183B3
330
180D1
100
AcDbEntity
  8
TATEDOISIJIKANAGU
100
AcDbLine
 10
12059.3011104448
 20
2915.296798568533
 30
0.0
 11
12059.3011104448
 21
2900.296798568534
 31
0.0
  0
LINE
  5
183B4
330
180D1
100
AcDbEntity
  8
TATEDOISIJIKANAGU
100
AcDbLine
 10
12059.3011104448
 20
2900.296798568534
 30
0.0
 11
12056.7011104448
 21
2900.296798568534
 31
0.0
  0
LINE
  5
183B5
330
180D1
100
AcDbEntity
  8
TATEDOISIJIKANAGU
100
AcDbLine
 10
12056.7011104448
 20
2900.296798568534
 30
0.0
 11
12056.7011104448
 21
2915.296798568533
 31
0.0
  0
LINE
  5
183B6
330
180D1
100
AcDbEntity
  8
TATEDOISIJIKANAGU
100
AcDbLine
 10
12055.20111044479
 20
2916.796798568534
 30
0.0
 11
12049.00090228931
 21
2916.796798568534
 31
0.0
  0
ARC
  5
183B7
330
180D1
100
AcDbEntity
  8
TATEDOISIJIKANAGU
100
AcDbCircle
 10
12055.20111044479
 20
2915.296798568533
 30
0.0
 40
1.5
100
AcDbArc
 50
0.0
 51
90.0
  0
ARC
  5
183B8
330
180D1
100
AcDbEntity
  8
TATEDOISIJIKANAGU
100
AcDbCircle
 10
12055.20111044479
 20
2915.296798568533
 30
0.0
 40
4.099999999999997
100
AcDbArc
 50
0.0
 51
90.0
  0
LINE
  5
183B9
330
180D1
100
AcDbEntity
  8
TATEDOISIJIKANAGU
100
AcDbLine
 10
12044.90090228931
 20
2920.896798568536
 30
0.0
 11
12044.90090228931
 21
2946.796798568534
 31
0.0
  0
LINE
  5
183BA
330
180D1
100
AcDbEntity
  8
TATEDOISIJIKANAGU
100
AcDbLine
 10
12044.90090228931
 20
2946.796798568534
 30
0.0
 11
12047.50090228931
 21
2946.796798568534
 31
0.0
  0
LINE
  5
183BB
330
180D1
100
AcDbEntity
  8
TATEDOISIJIKANAGU
  6
1PL-S
 62
     6
100
AcDbLine
 10
12038.29090228932
 20
2931.796798568534
 30
0.0
 11
12054.11090228932
 21
2931.796798568534
 31
0.0
  0
LINE
  5
183BC
330
180D1
100
AcDbEntity
  8
TATEDOISIJIKANAGU
100
AcDbLine
 10
12082.90090228931
 20
2914.796798568534
 30
0.0
 11
12082.90090228931
 21
2902.296798568534
 31
0.0
  0
ARC
  5
183BD
330
180D1
100
AcDbEntity
  8
TATEDOISIJIKANAGU
100
AcDbCircle
 10
12087.60386238471
 20
2908.546798568534
 30
0.0
 40
12.84038832877559
100
AcDbArc
 50
150.8731100751251
 51
209.1268899248748
  0
LINE
  5
183BE
330
180D1
100
AcDbEntity
  8
TATEDOISIJIKANAGU
100
AcDbLine
 10
12059.30111044481
 20
4040.04068337858
 30
0.0
 11
12059.3011104448
 21
3900.296798568535
 31
0.0
  0
LINE
  5
183BF
330
180D1
100
AcDbEntity
  8
CF-401
 62
     6
100
AcDbLine
 10
6064.881943997881
 20
8023.484288448656
 30
0.0
 11
4740.63935908883
 21
10248.60892485925
 31
0.0
  0
LINE
  5
183C0
330
180D1
100
AcDbEntity
  8
NJ-022
100
AcDbLine
 10
5669.253547453699
 20
8626.253322994079
 30
0.0
 11
5669.253547453699
 21
8621.253322994078
 31
0.0
  0
LINE
  5
183C1
330
180D1
100
AcDbEntity
  8
NJ-022
100
AcDbLine
 10
5669.253547453699
 20
8621.253322994078
 30
0.0
 11
5670.753547453699
 21
8621.253322994078
 31
0.0
  0
LINE
  5
183C2
330
180D1
100
AcDbEntity
  8
NJ-022
100
AcDbLine
 10
5670.753547453699
 20
8626.253322994079
 30
0.0
 11
5669.253547453699
 21
8626.253322994079
 31
0.0
  0
CIRCLE
  5
183C3
330
180D1
100
AcDbEntity
  8
NJ-022
100
AcDbCircle
 10
5700.003547453699
 20
8623.753322994078
 30
0.0
 40
4.75
  0
ARC
  5
183C4
330
180D1
100
AcDbEntity
  8
NJ-022
100
AcDbCircle
 10
5700.003547453699
 20
8623.753322994078
 30
0.0
 40
8.0
100
AcDbArc
 50
65.61601166093526
 51
355.900438958163
  0
LINE
  5
183C5
330
180D1
100
AcDbEntity
  8
NJ-022
100
AcDbLine
 10
5700.203562849925
 20
8636.253322994077
 30
0.0
 11
5670.753547453699
 21
8636.253322994077
 31
0.0
  0
LINE
  5
183C6
330
180D1
100
AcDbEntity
  8
NJ-022
100
AcDbLine
 10
5670.753547453699
 20
8611.253322994079
 30
0.0
 11
5715.08185958935
 21
8611.253322994079
 31
0.0
  0
LINE
  5
183C7
330
180D1
100
AcDbEntity
  8
NJ-022
100
AcDbLine
 10
5670.753547453699
 20
8636.253322994077
 30
0.0
 11
5670.753547453699
 21
8611.253322994079
 31
0.0
  0
LINE
  5
183C8
330
180D1
100
AcDbEntity
  8
NJ-022
100
AcDbLine
 10
5687.253547453699
 20
8636.253322994077
 30
0.0
 11
5687.253547453699
 21
8611.253322994079
 31
0.0
  0
LINE
  5
183C9
330
180D1
100
AcDbEntity
  8
NJ-022
100
AcDbLine
 10
5712.753547453699
 20
8615.165585560873
 30
0.0
 11
5712.753547453699
 21
8611.253322994079
 31
0.0
  0
TEXT
  5
183CA
330
180D1
100
AcDbEntity
  8
HIKIDASHI
100
AcDbText
 10
4972.879035921841
 20
6862.247205079722
 30
0.0
 40
120.0
  1
小 屋 伏 図
  7
01
 72
     2
 11
5724.879035921841
 21
6862.247205079722
 31
0.0
100
AcDbText
  0
TEXT
  5
183CB
330
180D1
100
AcDbEntity
  8
HIKIDASHI
100
AcDbText
 10
5814.87903592184
 20
6886.063646910689
 30
0.0
 40
80.0
  1
(S=
 41
0.6700000000000001
  7
00
100
AcDbText
  0
TEXT
  5
183CC
330
180D1
100
AcDbEntity
  8
HIKIDASHI
100
AcDbText
 10
6075.019244486462
 20
6859.895815710412
 30
0.0
 40
80.0
  1
40
 41
0.6700000000000001
  7
00
100
AcDbText
  0
TEXT
  5
183CD
330
180D1
100
AcDbEntity
  8
HIKIDASHI
100
AcDbText
 10
6196.445700548895
 20
6886.063646910689
 30
0.0
 40
80.0
  1
)
 41
0.6700000000000001
  7
00
100
AcDbText
  0
TEXT
  5
183CE
330
180D1
100
AcDbEntity
  8
HIKIDASHI
100
AcDbText
 10
6028.724089723824
 20
6886.063646910689
 30
0.0
 40
80.0
  1
/
 41
0.6700000000000001
  7
00
100
AcDbText
  0
TEXT
  5
183CF
330
180D1
100
AcDbEntity
  8
HIKIDASHI
100
AcDbText
 10
5995.586951859515
 20
6901.625124658885
 30
0.0
 40
80.0
  1
1
 41
0.6700000000000001
  7
00
100
AcDbText
  0
LINE
  5
183D0
330
180D1
100
AcDbEntity
  8
KERABA
100
AcDbLine
 10
6938.003547453696
 20
4174.762326996073
 30
0.0
 11
6938.003547453696
 21
4829.019543520815
 31
0.0
  0
LINE
  5
183D1
330
180D1
100
AcDbEntity
  8
KERABA
100
AcDbLine
 10
6922.003547453697
 20
4174.762326996073
 30
0.0
 11
6922.003547453697
 21
4759.54679856853
 31
0.0
  0
LINE
  5
183D2
330
180D1
100
AcDbEntity
  8
CF-401
100
AcDbLine
 10
6753.026129388849
 20
4239.76232699607
 30
0.0
 11
6753.026129388849
 21
4759.762326996077
 31
0.0
  0
LINE
  5
183D3
330
180D1
100
AcDbEntity
  8
CF-401
100
AcDbLine
 10
6780.348209940388
 20
4759.762326996077
 30
0.0
 11
6780.348209940388
 21
4239.76232699607
 31
0.0
  0
LINE
  5
183D4
330
180D1
100
AcDbEntity
  8
CF-401
100
AcDbLine
 10
6796.998209940388
 20
4239.762326996073
 30
0.0
 11
6796.998209940388
 21
4759.762326996074
 31
0.0
  0
LINE
  5
183D5
330
180D1
100
AcDbEntity
  8
CF-401
100
AcDbLine
 10
6869.676129388849
 20
4759.762326996074
 30
0.0
 11
6869.676129388849
 21
4239.762326996073
 31
0.0
  0
LINE
  5
183D6
330
180D1
100
AcDbEntity
  8
CF-401
100
AcDbLine
 10
6886.326129388847
 20
4239.76232699607
 30
0.0
 11
6886.326129388847
 21
4759.762326996077
 31
0.0
  0
LINE
  5
183D7
330
180D1
100
AcDbEntity
  8
HANAKAKUSI
100
AcDbLine
 10
6744.553547453699
 20
4174.762326996073
 30
0.0
 11
6922.003547453697
 21
4174.762326996073
 31
0.0
  0
LINE
  5
183D8
330
180D1
100
AcDbEntity
  8
HANAKAKUSI
100
AcDbLine
 10
6744.553547453699
 20
4239.762326996073
 30
0.0
 11
6922.003547453697
 21
4239.762326996073
 31
0.0
  0
LINE
  5
183D9
330
180D1
100
AcDbEntity
  8
HANAKAKUSI
100
AcDbLine
 10
6744.553547453699
 20
4209.76232699607
 30
0.0
 11
6922.003547453697
 21
4209.76232699607
 31
0.0
  0
LINE
  5
183DA
330
180D1
100
AcDbEntity
  8
HANAKAKUSI
100
AcDbLine
 10
6922.003547453697
 20
4239.762326996073
 30
0.0
 11
6922.003547453697
 21
4174.762326996073
 31
0.0
  0
LINE
  5
183DB
330
180D1
100
AcDbEntity
  8
KERABA
100
AcDbLine
 10
6922.003547453697
 20
4174.762326996073
 30
0.0
 11
6938.003547453696
 21
4174.762326996073
 31
0.0
  0
LINE
  5
183DC
330
180D1
100
AcDbEntity
  8
HANA_KONA
100
AcDbLine
 10
6923.003547453697
 20
4834.762326996071
 30
0.0
 11
6923.003547453697
 21
4754.732877454578
 31
0.0
  0
LINE
  5
183DD
330
180D1
100
AcDbEntity
  8
HANA_KONA
100
AcDbLine
 10
6923.003547453697
 20
4754.732877454578
 30
0.0
 11
6934.003547453698
 21
4754.732877454578
 31
0.0
  0
LINE
  5
183DE
330
180D1
100
AcDbEntity
  8
HANA_KONA
100
AcDbLine
 10
6938.003547453696
 20
4758.732877454575
 30
0.0
 11
6938.003547453696
 21
4830.762326996075
 31
0.0
  0
LINE
  5
183DF
330
180D1
100
AcDbEntity
  8
HANA_KONA
100
AcDbLine
 10
6934.003547453698
 20
4834.762326996071
 30
0.0
 11
6923.003547453697
 21
4834.762326996071
 31
0.0
  0
ARC
  5
183E0
330
180D1
100
AcDbEntity
  8
HANA_KONA
100
AcDbCircle
 10
6934.003547453698
 20
4830.762326996075
 30
0.0
 40
4.0
100
AcDbArc
 50
0.0
 51
90.0
  0
ARC
  5
183E1
330
180D1
100
AcDbEntity
  8
HANA_KONA
100
AcDbCircle
 10
6934.003547453698
 20
4758.732877454575
 30
0.0
 40
4.0
100
AcDbArc
 50
270.0
 51
0.0
  0
LINE
  5
183E2
330
180D1
100
AcDbEntity
  8
KERABA
100
AcDbLine
 10
6908.003547453699
 20
4834.546798568535
 30
0.0
 11
6923.003547453697
 21
4834.546798568533
 31
0.0
  0
LINE
  5
183E3
330
180D1
100
AcDbEntity
  8
KERABA
100
AcDbLine
 10
6908.003547453699
 20
4759.54679856853
 30
0.0
 11
6908.003547453699
 21
4834.546798568535
 31
0.0
  0
LINE
  5
183E4
330
180D1
100
AcDbEntity
  8
KERABA
100
AcDbLine
 10
6908.003547453699
 20
4759.54679856853
 30
0.0
 11
6922.003547453697
 21
4759.54679856853
 31
0.0
  0
LINE
  5
183E5
330
180D1
100
AcDbEntity
  8
KISO
100
AcDbLine
 10
7100.003547453706
 20
2554.546798568535
 30
0.0
 11
7100.003547453706
 21
2584.546798568535
 31
0.0
  0
TEXT
  5
183E6
330
180D1
100
AcDbEntity
  8
HIKIDASHI
100
AcDbText
 10
4767.863709458375
 20
2124.538731784598
 30
0.0
 40
120.0
  1
正 面 立 面 図
  7
01
 72
     2
 11
5735.863709458375
 21
2124.538731784598
 31
0.0
100
AcDbText
  0
TEXT
  5
183E7
330
180D1
100
AcDbEntity
  8
HIKIDASHI
100
AcDbText
 10
6086.003918022996
 20
2122.187342415291
 30
0.0
 40
80.0
  1
40
 41
0.6700000000000001
  7
00
100
AcDbText
  0
TEXT
  5
183E8
330
180D1
100
AcDbEntity
  8
HIKIDASHI
100
AcDbText
 10
6039.708763260358
 20
2148.355173615565
 30
0.0
 40
80.0
  1
/
 41
0.6700000000000001
  7
00
100
AcDbText
  0
TEXT
  5
183E9
330
180D1
100
AcDbEntity
  8
HIKIDASHI
100
AcDbText
 10
5825.863709458375
 20
2148.355173615565
 30
0.0
 40
80.0
  1
(S=
 41
0.6700000000000001
  7
00
100
AcDbText
  0
TEXT
  5
183EA
330
180D1
100
AcDbEntity
  8
HIKIDASHI
100
AcDbText
 10
6006.571625396048
 20
2163.916651363762
 30
0.0
 40
80.0
  1
1
 41
0.6700000000000001
  7
00
100
AcDbText
  0
TEXT
  5
183EB
330
180D1
100
AcDbEntity
  8
HIKIDASHI
100
AcDbText
 10
6207.430374085428
 20
2148.355173615565
 30
0.0
 40
80.0
  1
)
 41
0.6700000000000001
  7
00
100
AcDbText
  0
LINE
  5
183EC
330
180D1
100
AcDbEntity
  8
CF-401
100
AcDbLine
 10
4469.608884967003
 20
4759.546798568535
 30
0.0
 11
4469.608884967001
 21
4239.546798568535
 31
0.0
  0
LINE
  5
183ED
330
180D1
100
AcDbEntity
  8
CF-401
100
AcDbLine
 10
4486.258884967006
 20
4239.546798568532
 30
0.0
 11
4486.258884967006
 21
4759.546798568538
 31
0.0
  0
LINE
  5
183EE
330
180D1
100
AcDbEntity
  8
CF-401
100
AcDbLine
 10
4513.080965518548
 20
4759.546798568538
 30
0.0
 11
4513.080965518548
 21
4239.546798568532
 31
0.0
  0
LINE
  5
183EF
330
180D1
100
AcDbEntity
  8
CF-401
100
AcDbLine
 10
4603.008884967006
 20
4239.546798568535
 30
0.0
 11
4603.008884967006
 21
4759.546798568535
 31
0.0
  0
LINE
  5
183F0
330
180D1
100
AcDbEntity
  8
CF-401
100
AcDbLine
 10
4619.658884967003
 20
4759.546798568538
 30
0.0
 11
4619.658884967003
 21
4239.546798568532
 31
0.0
  0
LINE
  5
183F1
330
180D1
100
AcDbEntity
  8
CF-401
100
AcDbLine
 10
4646.980965518547
 20
4239.546798568532
 30
0.0
 11
4646.980965518547
 21
4759.546798568538
 31
0.0
  0
LINE
  5
183F2
330
180D1
100
AcDbEntity
  8
CF-401
100
AcDbLine
 10
4663.630965518546
 20
4759.546798568535
 30
0.0
 11
4663.630965518546
 21
4239.546798568535
 31
0.0
  0
LINE
  5
183F3
330
180D1
100
AcDbEntity
  8
CF-401
100
AcDbLine
 10
4530.330965518549
 20
4759.546798568535
 30
0.0
 11
4530.330965518549
 21
4239.546798568535
 31
0.0
  0
LINE
  5
183F4
330
180D1
100
AcDbEntity
  8
CF-401
100
AcDbLine
 10
4736.308884967002
 20
4759.546798568535
 30
0.0
 11
4736.308884967001
 21
4239.546798568535
 31
0.0
  0
LINE
  5
183F5
330
180D1
100
AcDbEntity
  8
CF-401
100
AcDbLine
 10
4752.958884967006
 20
4239.546798568532
 30
0.0
 11
4752.958884967006
 21
4759.546798568538
 31
0.0
  0
LINE
  5
183F6
330
180D1
100
AcDbEntity
  8
CF-401
100
AcDbLine
 10
4779.780965518546
 20
4759.546798568538
 30
0.0
 11
4779.780965518546
 21
4239.546798568532
 31
0.0
  0
LINE
  5
183F7
330
180D1
100
AcDbEntity
  8
CF-401
100
AcDbLine
 10
4869.708884967007
 20
4239.546798568535
 30
0.0
 11
4869.708884967007
 21
4759.546798568535
 31
0.0
  0
LINE
  5
183F8
330
180D1
100
AcDbEntity
  8
CF-401
100
AcDbLine
 10
4886.358884967004
 20
4759.546798568538
 30
0.0
 11
4886.358884967004
 21
4239.546798568532
 31
0.0
  0
LINE
  5
183F9
330
180D1
100
AcDbEntity
  8
CF-401
100
AcDbLine
 10
4913.680965518548
 20
4239.546798568532
 30
0.0
 11
4913.680965518548
 21
4759.546798568538
 31
0.0
  0
LINE
  5
183FA
330
180D1
100
AcDbEntity
  8
CF-401
100
AcDbLine
 10
4930.330965518546
 20
4759.546798568535
 30
0.0
 11
4930.330965518546
 21
4239.546798568535
 31
0.0
  0
LINE
  5
183FB
330
180D1
100
AcDbEntity
  8
CF-401
100
AcDbLine
 10
4797.030965518549
 20
4759.546798568535
 30
0.0
 11
4797.030965518549
 21
4239.546798568535
 31
0.0
  0
LINE
  5
183FC
330
180D1
100
AcDbEntity
  8
CF-401
100
AcDbLine
 10
5003.008884967002
 20
4759.546798568535
 30
0.0
 11
5003.008884967001
 21
4239.546798568535
 31
0.0
  0
LINE
  5
183FD
330
180D1
100
AcDbEntity
  8
CF-401
100
AcDbLine
 10
5019.658884967006
 20
4239.546798568532
 30
0.0
 11
5019.658884967006
 21
4759.546798568538
 31
0.0
  0
LINE
  5
183FE
330
180D1
100
AcDbEntity
  8
CF-401
100
AcDbLine
 10
5046.480965518546
 20
4759.546798568538
 30
0.0
 11
5046.480965518546
 21
4239.546798568532
 31
0.0
  0
LINE
  5
183FF
330
180D1
100
AcDbEntity
  8
CF-401
100
AcDbLine
 10
5136.408884967006
 20
4239.546798568535
 30
0.0
 11
5136.408884967006
 21
4759.546798568535
 31
0.0
  0
LINE
  5
18400
330
180D1
100
AcDbEntity
  8
CF-401
100
AcDbLine
 10
5153.058884967004
 20
4759.546798568538
 30
0.0
 11
5153.058884967004
 21
4239.546798568532
 31
0.0
  0
LINE
  5
18401
330
180D1
100
AcDbEntity
  8
CF-401
100
AcDbLine
 10
5180.380965518546
 20
4239.546798568532
 30
0.0
 11
5180.380965518546
 21
4759.546798568538
 31
0.0
  0
LINE
  5
18402
330
180D1
100
AcDbEntity
  8
CF-401
100
AcDbLine
 10
5197.030965518546
 20
4759.546798568535
 30
0.0
 11
5197.030965518546
 21
4239.546798568535
 31
0.0
  0
LINE
  5
18403
330
180D1
100
AcDbEntity
  8
CF-401
100
AcDbLine
 10
5063.730965518549
 20
4759.546798568535
 30
0.0
 11
5063.730965518549
 21
4239.546798568535
 31
0.0
  0
LINE
  5
18404
330
180D1
100
AcDbEntity
  8
CF-401
100
AcDbLine
 10
5269.708884967002
 20
4759.546798568535
 30
0.0
 11
5269.708884967001
 21
4239.546798568535
 31
0.0
  0
LINE
  5
18405
330
180D1
100
AcDbEntity
  8
CF-401
100
AcDbLine
 10
5286.358884967006
 20
4239.546798568532
 30
0.0
 11
5286.358884967006
 21
4759.546798568538
 31
0.0
  0
LINE
  5
18406
330
180D1
100
AcDbEntity
  8
CF-401
100
AcDbLine
 10
5313.180965518547
 20
4759.546798568538
 30
0.0
 11
5313.180965518547
 21
4239.546798568532
 31
0.0
  0
LINE
  5
18407
330
180D1
100
AcDbEntity
  8
CF-401
100
AcDbLine
 10
5403.108884967006
 20
4239.546798568535
 30
0.0
 11
5403.108884967006
 21
4759.546798568535
 31
0.0
  0
LINE
  5
18408
330
180D1
100
AcDbEntity
  8
CF-401
100
AcDbLine
 10
5419.758884967004
 20
4759.546798568538
 30
0.0
 11
5419.758884967004
 21
4239.546798568532
 31
0.0
  0
LINE
  5
18409
330
180D1
100
AcDbEntity
  8
CF-401
100
AcDbLine
 10
5447.080965518546
 20
4239.546798568532
 30
0.0
 11
5447.080965518546
 21
4759.546798568538
 31
0.0
  0
LINE
  5
1840A
330
180D1
100
AcDbEntity
  8
CF-401
100
AcDbLine
 10
5463.730965518546
 20
4759.546798568535
 30
0.0
 11
5463.730965518546
 21
4239.546798568535
 31
0.0
  0
LINE
  5
1840B
330
180D1
100
AcDbEntity
  8
CF-401
100
AcDbLine
 10
5330.430965518549
 20
4759.546798568535
 30
0.0
 11
5330.430965518549
 21
4239.546798568535
 31
0.0
  0
LINE
  5
1840C
330
180D1
100
AcDbEntity
  8
CF-401
100
AcDbLine
 10
5536.408884967002
 20
4759.546798568535
 30
0.0
 11
5536.408884966999
 21
4239.546798568535
 31
0.0
  0
LINE
  5
1840D
330
180D1
100
AcDbEntity
  8
CF-401
100
AcDbLine
 10
5553.058884967006
 20
4239.546798568532
 30
0.0
 11
5553.058884967006
 21
4759.546798568538
 31
0.0
  0
LINE
  5
1840E
330
180D1
100
AcDbEntity
  8
CF-401
100
AcDbLine
 10
5579.880965518546
 20
4759.546798568538
 30
0.0
 11
5579.880965518546
 21
4239.546798568532
 31
0.0
  0
LINE
  5
1840F
330
180D1
100
AcDbEntity
  8
CF-401
100
AcDbLine
 10
5669.808884967006
 20
4239.546798568535
 30
0.0
 11
5669.808884967006
 21
4759.546798568535
 31
0.0
  0
LINE
  5
18410
330
180D1
100
AcDbEntity
  8
CF-401
100
AcDbLine
 10
5686.458884967002
 20
4759.546798568538
 30
0.0
 11
5686.458884967002
 21
4239.546798568532
 31
0.0
  0
LINE
  5
18411
330
180D1
100
AcDbEntity
  8
CF-401
100
AcDbLine
 10
5713.780965518546
 20
4239.546798568532
 30
0.0
 11
5713.780965518546
 21
4759.546798568538
 31
0.0
  0
LINE
  5
18412
330
180D1
100
AcDbEntity
  8
CF-401
100
AcDbLine
 10
5730.430965518547
 20
4759.546798568535
 30
0.0
 11
5730.430965518547
 21
4239.546798568535
 31
0.0
  0
LINE
  5
18413
330
180D1
100
AcDbEntity
  8
CF-401
100
AcDbLine
 10
5597.130965518548
 20
4759.546798568535
 30
0.0
 11
5597.130965518548
 21
4239.546798568535
 31
0.0
  0
LINE
  5
18414
330
180D1
100
AcDbEntity
  8
CF-401
100
AcDbLine
 10
5803.108884967002
 20
4759.546798568535
 30
0.0
 11
5803.108884967
 21
4239.546798568535
 31
0.0
  0
LINE
  5
18415
330
180D1
100
AcDbEntity
  8
CF-401
100
AcDbLine
 10
5819.758884967004
 20
4239.546798568532
 30
0.0
 11
5819.758884967004
 21
4759.546798568538
 31
0.0
  0
LINE
  5
18416
330
180D1
100
AcDbEntity
  8
CF-401
100
AcDbLine
 10
5846.580965518546
 20
4759.546798568538
 30
0.0
 11
5846.580965518546
 21
4239.546798568532
 31
0.0
  0
LINE
  5
18417
330
180D1
100
AcDbEntity
  8
CF-401
100
AcDbLine
 10
5936.508884967008
 20
4239.546798568535
 30
0.0
 11
5936.508884967008
 21
4759.546798568535
 31
0.0
  0
LINE
  5
18418
330
180D1
100
AcDbEntity
  8
CF-401
100
AcDbLine
 10
5953.158884967003
 20
4759.546798568538
 30
0.0
 11
5953.158884967003
 21
4239.546798568532
 31
0.0
  0
LINE
  5
18419
330
180D1
100
AcDbEntity
  8
CF-401
100
AcDbLine
 10
5980.480965518546
 20
4239.546798568532
 30
0.0
 11
5980.480965518546
 21
4759.546798568538
 31
0.0
  0
LINE
  5
1841A
330
180D1
100
AcDbEntity
  8
CF-401
100
AcDbLine
 10
5997.130965518546
 20
4759.546798568535
 30
0.0
 11
5997.130965518546
 21
4239.546798568535
 31
0.0
  0
LINE
  5
1841B
330
180D1
100
AcDbEntity
  8
CF-401
100
AcDbLine
 10
5863.830965518548
 20
4759.546798568535
 30
0.0
 11
5863.830965518548
 21
4239.546798568535
 31
0.0
  0
LINE
  5
1841C
330
180D1
100
AcDbEntity
  8
CF-401
100
AcDbLine
 10
6069.808884967002
 20
4759.546798568535
 30
0.0
 11
6069.808884966999
 21
4239.546798568535
 31
0.0
  0
LINE
  5
1841D
330
180D1
100
AcDbEntity
  8
CF-401
100
AcDbLine
 10
6086.458884967004
 20
4239.546798568532
 30
0.0
 11
6086.458884967004
 21
4759.546798568538
 31
0.0
  0
LINE
  5
1841E
330
180D1
100
AcDbEntity
  8
CF-401
100
AcDbLine
 10
6113.280965518548
 20
4759.546798568538
 30
0.0
 11
6113.280965518548
 21
4239.546798568532
 31
0.0
  0
LINE
  5
1841F
330
180D1
100
AcDbEntity
  8
CF-401
100
AcDbLine
 10
6203.208884967004
 20
4239.546798568535
 30
0.0
 11
6203.208884967004
 21
4759.546798568535
 31
0.0
  0
LINE
  5
18420
330
180D1
100
AcDbEntity
  8
CF-401
100
AcDbLine
 10
6219.858884967003
 20
4759.546798568538
 30
0.0
 11
6219.858884967003
 21
4239.546798568532
 31
0.0
  0
LINE
  5
18421
330
180D1
100
AcDbEntity
  8
CF-401
100
AcDbLine
 10
6247.180965518546
 20
4239.546798568532
 30
0.0
 11
6247.180965518546
 21
4759.546798568538
 31
0.0
  0
LINE
  5
18422
330
180D1
100
AcDbEntity
  8
CF-401
100
AcDbLine
 10
6263.830965518546
 20
4759.546798568535
 30
0.0
 11
6263.830965518546
 21
4239.546798568535
 31
0.0
  0
LINE
  5
18423
330
180D1
100
AcDbEntity
  8
CF-401
100
AcDbLine
 10
6130.530965518548
 20
4759.546798568535
 30
0.0
 11
6130.530965518548
 21
4239.546798568535
 31
0.0
  0
LINE
  5
18424
330
180D1
100
AcDbEntity
  8
CF-401
100
AcDbLine
 10
6336.508884967003
 20
4759.546798568535
 30
0.0
 11
6336.508884966999
 21
4239.546798568535
 31
0.0
  0
LINE
  5
18425
330
180D1
100
AcDbEntity
  8
CF-401
100
AcDbLine
 10
6353.158884967005
 20
4239.546798568532
 30
0.0
 11
6353.158884967005
 21
4759.546798568538
 31
0.0
  0
LINE
  5
18426
330
180D1
100
AcDbEntity
  8
CF-401
100
AcDbLine
 10
6379.980965518546
 20
4759.546798568538
 30
0.0
 11
6379.980965518546
 21
4239.546798568532
 31
0.0
  0
LINE
  5
18427
330
180D1
100
AcDbEntity
  8
CF-401
100
AcDbLine
 10
6469.908884967004
 20
4239.546798568535
 30
0.0
 11
6469.908884967004
 21
4759.546798568535
 31
0.0
  0
LINE
  5
18428
330
180D1
100
AcDbEntity
  8
CF-401
100
AcDbLine
 10
6486.558884967003
 20
4759.546798568538
 30
0.0
 11
6486.558884967003
 21
4239.546798568532
 31
0.0
  0
LINE
  5
18429
330
180D1
100
AcDbEntity
  8
CF-401
100
AcDbLine
 10
6513.880965518545
 20
4239.546798568532
 30
0.0
 11
6513.880965518545
 21
4759.546798568538
 31
0.0
  0
LINE
  5
1842A
330
180D1
100
AcDbEntity
  8
CF-401
100
AcDbLine
 10
6530.530965518545
 20
4759.546798568535
 30
0.0
 11
6530.530965518545
 21
4239.546798568535
 31
0.0
  0
LINE
  5
1842B
330
180D1
100
AcDbEntity
  8
CF-401
100
AcDbLine
 10
6397.230965518549
 20
4759.546798568535
 30
0.0
 11
6397.230965518549
 21
4239.546798568535
 31
0.0
  0
TEXT
  5
1842C
330
180D1
100
AcDbEntity
  8
HIKIDASHI
100
AcDbText
 10
3372.189910816102
 20
9909.677917757592
 30
0.0
 40
90.0
  1
（CF）
 41
0.6666666666666666
  7
00
100
AcDbText
  0
TEXT
  5
1842D
330
180D1
100
AcDbEntity
  8
HIKIDASHI
100
AcDbText
 10
3052.717678454138
 20
9909.677917757592
 30
0.0
 40
90.0
  1
端母屋
  7
01
100
AcDbText
  0
TEXT
  5
1842E
330
180D1
100
AcDbEntity
  8
HIKIDASHI
100
AcDbText
 10
3796.369308708714
 20
9909.677917757592
 30
0.0
 40
90.0
  1
1.6
 41
0.6700000000000001
  7
00
100
AcDbText
  0
TEXT
  5
1842F
330
180D1
100
AcDbEntity
  8
HIKIDASHI
100
AcDbText
 10
3645.397131892073
 20
9917.177917757591
 30
0.0
 40
75.0
  1
ア
  7
01
 72
     1
 11
3677.897131892072
 21
9954.677917757592
 31
0.0
100
AcDbText
 73
     2
  0
CIRCLE
  5
18430
330
180D1
100
AcDbEntity
  8
HIKIDASHI
100
AcDbCircle
 10
3677.897131892072
 20
9954.677917757592
 30
0.0
 40
60.0
  0
CIRCLE
  5
18431
330
180D1
100
AcDbEntity
  8
HIKIDASHI
100
AcDbCircle
 10
3647.806080652673
 20
8582.944302231132
 30
0.0
 40
60.0
  0
LINE
  5
18432
330
180D1
100
AcDbEntity
  8
HIKIDASHI
100
AcDbLine
 10
2905.023597758538
 20
8492.944302231133
 30
0.0
 11
3958.436181948103
 21
8492.944302231133
 31
0.0
  0
LINE
  5
18433
330
180D1
100
AcDbEntity
  8
HIKIDASHI
100
AcDbLine
 10
2905.023597758539
 20
8927.744302231133
 30
0.0
 11
3958.436181948103
 21
8927.744302231136
 31
0.0
  0
LINE
  5
18434
330
180D1
100
AcDbEntity
  8
HIKIDASHI
100
AcDbLine
 10
3038.078391761457
 20
9864.677917757592
 30
0.0
 11
3958.436181948103
 21
9864.677917757592
 31
0.0
  0
CIRCLE
  5
18435
330
180D1
100
AcDbEntity
  8
HIKIDASHI
100
AcDbCircle
 10
3647.806080652673
 20
9017.744302231134
 30
0.0
 40
60.0
  0
TEXT
  5
18436
330
180D1
100
AcDbEntity
  8
HIKIDASHI
100
AcDbText
 10
2919.337056941279
 20
8537.944302231133
 30
0.0
 40
90.0
  1
母屋金具
  7
01
100
AcDbText
  0
TEXT
  5
18437
330
180D1
100
AcDbEntity
  8
HIKIDASHI
100
AcDbText
 10
3334.285149409711
 20
8537.944302231133
 30
0.0
 40
90.0
  1
（AF）
 41
0.6666666666666666
  7
00
100
AcDbText
  0
TEXT
  5
18438
330
180D1
100
AcDbEntity
  8
HIKIDASHI
100
AcDbText
 10
3615.306080652673
 20
8545.444302231132
 30
0.0
 40
75.0
  1
ア
  7
01
 72
     1
 11
3647.806080652673
 21
8582.944302231132
 31
0.0
100
AcDbText
 73
     2
  0
TEXT
  5
18439
330
180D1
100
AcDbEntity
  8
HIKIDASHI
100
AcDbText
 10
2919.337056941279
 20
8972.744302231134
 30
0.0
 40
90.0
  1
母屋金具
  7
01
100
AcDbText
  0
TEXT
  5
1843A
330
180D1
100
AcDbEntity
  8
HIKIDASHI
100
AcDbText
 10
3334.285149409711
 20
8972.744302231136
 30
0.0
 40
90.0
  1
（CF）
 41
0.6666666666666666
  7
00
100
AcDbText
  0
TEXT
  5
1843B
330
180D1
100
AcDbEntity
  8
HIKIDASHI
100
AcDbText
 10
3615.306080652673
 20
8980.244302231135
 30
0.0
 40
75.0
  1
ア
  7
01
 72
     1
 11
3647.806080652673
 21
9017.744302231134
 31
0.0
100
AcDbText
 73
     2
  0
TEXT
  5
1843C
330
180D1
100
AcDbEntity
  8
HIKIDASHI
100
AcDbText
 10
3766.27825746931
 20
8537.944302231133
 30
0.0
 40
90.0
  1
3.2
 41
0.6700000000000001
  7
00
100
AcDbText
  0
TEXT
  5
1843D
330
180D1
100
AcDbEntity
  8
HIKIDASHI
100
AcDbText
 10
3766.278257469311
 20
8972.744302231134
 30
0.0
 40
90.0
  1
3.2
 41
0.6700000000000001
  7
00
100
AcDbText
  0
LINE
  5
1843E
330
180D1
100
AcDbEntity
  8
HIKIDASHI
100
AcDbLine
 10
2912.010700647454
 20
7621.353322994076
 30
0.0
 11
3827.06168081575
 21
7621.353322994076
 31
0.0
  0
CIRCLE
  5
1843F
330
180D1
100
AcDbEntity
  8
HIKIDASHI
100
AcDbCircle
 10
3548.525380948595
 20
7711.353322994077
 30
0.0
 40
60.0
  0
TEXT
  5
18440
330
180D1
100
AcDbEntity
  8
HIKIDASHI
100
AcDbText
 10
3516.025380948595
 20
7673.853322994077
 30
0.0
 40
75.0
  1
ア
  7
01
 72
     1
 11
3548.525380948595
 21
7711.353322994077
 31
0.0
100
AcDbText
 73
     2
  0
TEXT
  5
18441
330
180D1
100
AcDbEntity
  8
HIKIDASHI
100
AcDbText
 10
2922.010700647454
 20
7666.353322994076
 30
0.0
 40
90.0
  1
鼻隠し
  7
01
100
AcDbText
  0
TEXT
  5
18442
330
180D1
100
AcDbEntity
  8
HIKIDASHI
100
AcDbText
 10
3221.419267257024
 20
7666.353322994076
 30
0.0
 40
90.0
  1
（CF）
 41
0.6666666666666666
  7
00
100
AcDbText
  0
LINE
  5
18443
330
180D1
100
AcDbEntity
  8
HIKIDASHI
100
AcDbLine
 10
4693.626269517052
 20
8804.896898117092
 30
0.0
 11
5122.545146856289
 21
8804.896898117092
 31
0.0
  0
TEXT
  5
18444
330
180D1
100
AcDbEntity
  8
HIKIDASHI
100
AcDbText
 10
4703.626269517052
 20
8849.896898117092
 30
0.0
 40
90.0
  1
屋根受け
  7
01
100
AcDbText
  0
TEXT
  5
18445
330
180D1
100
AcDbEntity
  8
HIKIDASHI
100
AcDbText
 10
3666.997557765233
 20
7666.353322994076
 30
0.0
 40
90.0
  1
1.2
 41
0.6700000000000001
  7
00
100
AcDbText
  0
LINE
  5
18446
330
180D1
100
AcDbEntity
  8
HIKIDASHI
100
AcDbLine
 10
4566.89150768862
 20
10355.132282271
 30
0.0
 11
5367.563096736599
 21
10355.132282271
 31
0.0
  0
TEXT
  5
18447
330
180D1
100
AcDbEntity
  8
HIKIDASHI
100
AcDbText
 10
5218.392232558277
 20
10400.13228227099
 30
0.0
 40
90.0
  1
0.8
 41
0.6700000000000001
  7
00
100
AcDbText
  0
TEXT
  5
18448
330
180D1
100
AcDbEntity
  8
HIKIDASHI
100
AcDbText
 10
4576.891507688618
 20
10400.13228227099
 30
0.0
 40
90.0
  1
トイ
  7
01
100
AcDbText
  0
TEXT
  5
18449
330
180D1
100
AcDbEntity
  8
HIKIDASHI
100
AcDbText
 10
4770.928506459529
 20
10400.13228227099
 30
0.0
 40
90.0
  1
（CF）
 41
0.6666666666666666
  7
00
100
AcDbText
  0
CIRCLE
  5
1844A
330
180D1
100
AcDbEntity
  8
HIKIDASHI
100
AcDbCircle
 10
5099.920055741637
 20
10445.13228227099
 30
0.0
 40
60.0
  0
TEXT
  5
1844B
330
180D1
100
AcDbEntity
  8
HIKIDASHI
100
AcDbText
 10
5067.420055741637
 20
10407.63228227099
 30
0.0
 40
75.0
  1
ア
  7
01
 72
     1
 11
5099.920055741637
 21
10445.13228227099
 31
0.0
100
AcDbText
 73
     2
  0
LINE
  5
1844C
330
180D1
100
AcDbEntity
  8
HIKIDASHI
100
AcDbLine
 10
3001.959728881447
 20
10355.132282271
 30
0.0
 11
3958.436181948103
 21
10355.132282271
 31
0.0
  0
TEXT
  5
1844D
330
180D1
100
AcDbEntity
  8
HIKIDASHI
100
AcDbText
 10
3128.094264195328
 20
10400.13228227099
 30
0.0
 40
90.0
  1
（CF）
 41
0.6666666666666666
  7
00
100
AcDbText
  0
TEXT
  5
1844E
330
180D1
100
AcDbEntity
  8
HIKIDASHI
100
AcDbText
 10
3011.959728881447
 20
10400.13228227099
 30
0.0
 40
90.0
  1
柱
  7
01
100
AcDbText
  0
TEXT
  5
1844F
330
180D1
100
AcDbEntity
  8
HIKIDASHI
100
AcDbText
 10
3412.333830563819
 20
10400.13228227099
 30
0.0
 40
90.0
  1
89.1%%C x 4.2
 41
0.6700000000000001
  7
00
100
AcDbText
  0
LINE
  5
18450
330
180D1
100
AcDbEntity
  8
HIKIDASHI
100
AcDbLine
 10
5932.528633502482
 20
10419.74590900422
 30
0.0
 11
6800.962084885579
 21
10419.74590900422
 31
0.0
  0
TEXT
  5
18451
330
180D1
100
AcDbEntity
  8
HIKIDASHI
100
AcDbText
 10
5942.52863350248
 20
10464.74590900423
 30
0.0
 40
90.0
  1
トイコーナー樹脂
  7
01
100
AcDbText
  0
TEXT
  5
18452
330
180D1
100
AcDbEntity
  8
HIKIDASHI
100
AcDbText
 10
7223.415866697256
 20
7701.104068830495
 30
0.0
 40
90.0
  1
鼻隠しコーナー樹脂
  7
01
100
AcDbText
  0
LINE
  5
18453
330
180D1
100
AcDbEntity
  8
HIKIDASHI
100
AcDbLine
 10
7213.415866697258
 20
7656.104068830498
 30
0.0
 11
8162.37982588872
 21
7656.104068830498
 31
0.0
  0
LINE
  5
18454
330
180D1
100
AcDbEntity
  8
HIKIDASHI
100
AcDbLine
 10
7197.811168589009
 20
7866.104068830495
 30
0.0
 11
8146.775127780463
 21
7866.104068830495
 31
0.0
  0
TEXT
  5
18455
330
180D1
100
AcDbEntity
  8
HIKIDASHI
100
AcDbText
 10
7207.811168589009
 20
7911.104068830495
 30
0.0
 40
90.0
  1
けらば
  7
01
100
AcDbText
  0
TEXT
  5
18456
330
180D1
100
AcDbEntity
  8
HIKIDASHI
100
AcDbText
 10
7970.330275928636
 20
7911.104068830495
 30
0.0
 40
90.0
  1
0.8
 41
0.6700000000000001
  7
00
100
AcDbText
  0
TEXT
  5
18457
330
180D1
100
AcDbEntity
  8
HIKIDASHI
100
AcDbText
 10
7512.175120197082
 20
7911.104068830495
 30
0.0
 40
90.0
  1
（CF）
 41
0.6666666666666666
  7
00
100
AcDbText
  0
CIRCLE
  5
18458
330
180D1
100
AcDbEntity
  8
HIKIDASHI
100
AcDbCircle
 10
7851.858099112011
 20
7956.104068830498
 30
0.0
 40
60.0
  0
TEXT
  5
18459
330
180D1
100
AcDbEntity
  8
HIKIDASHI
100
AcDbText
 10
7819.358099112012
 20
7918.604068830498
 30
0.0
 40
75.0
  1
ア
  7
01
 72
     1
 11
7851.858099112011
 21
7956.104068830498
 31
0.0
100
AcDbText
 73
     2
  0
LINE
  5
1845A
330
180D1
100
AcDbEntity
  8
HIKIDASHI
100
AcDbLine
 10
4118.776973276619
 20
10782.20356916861
 30
0.0
 11
5446.022721769288
 21
10782.20356916861
 31
0.0
  0
TEXT
  5
1845B
330
180D1
100
AcDbEntity
  8
HIKIDASHI
100
AcDbText
 10
4148.776973276619
 20
10647.20356916861
 30
0.0
 40
90.0
  1
ヨド角波サイディング
  7
02
100
AcDbText
  0
TEXT
  5
1845C
330
180D1
100
AcDbEntity
  8
HIKIDASHI
100
AcDbText
 10
4148.776973276619
 20
10827.20356916861
 30
0.0
 40
90.0
  1
屋根
  7
02
100
AcDbText
  0
TEXT
  5
1845D
330
180D1
100
AcDbEntity
  8
HIKIDASHI
100
AcDbText
 10
4360.309040794921
 20
10827.20356916861
 30
0.0
 40
90.0
  1
（CF）
 41
0.6666666666666666
  7
00
100
AcDbText
  0
TEXT
  5
1845E
330
180D1
100
AcDbEntity
  8
HIKIDASHI
100
AcDbText
 10
5243.737007483573
 20
10647.20356916861
 30
0.0
 40
90.0
  1
0.4t
 41
0.6700000000000001
  7
01
100
AcDbText
  0
LINE
  5
1845F
330
180D1
100
AcDbEntity
  8
HIKIDASHI
100
AcDbLine
 10
3001.959728881447
 20
9394.42786850874
 30
0.0
 11
3958.436181948103
 21
9394.42786850874
 31
0.0
  0
TEXT
  5
18460
330
180D1
100
AcDbEntity
  8
HIKIDASHI
100
AcDbText
 10
3128.094264195328
 20
9439.427868508744
 30
0.0
 40
90.0
  1
（CF）
 41
0.6666666666666666
  7
00
100
AcDbText
  0
TEXT
  5
18461
330
180D1
100
AcDbEntity
  8
HIKIDASHI
100
AcDbText
 10
3011.959728881447
 20
9439.427868508744
 30
0.0
 40
90.0
  1
梁
  7
01
100
AcDbText
  0
TEXT
  5
18462
330
180D1
100
AcDbEntity
  8
HIKIDASHI
100
AcDbText
 10
3412.333830563819
 20
9439.427868508744
 30
0.0
 40
90.0
  1
89.1%%C x 4.2
 41
0.6700000000000001
  7
00
100
AcDbText
  0
LINE
  5
18463
330
180D1
100
AcDbEntity
  8
HIKIDASHI
100
AcDbLine
 10
4736.146375674826
 20
8365.031635279924
 30
0.0
 11
5564.784010045396
 21
8365.031635279924
 31
0.0
  0
TEXT
  5
18464
330
180D1
100
AcDbEntity
  8
HIKIDASHI
100
AcDbText
 10
4746.146375674827
 20
8410.031635279926
 30
0.0
 40
90.0
  1
母屋
  7
01
100
AcDbText
  0
TEXT
  5
18465
330
180D1
100
AcDbEntity
  8
HIKIDASHI
100
AcDbText
 10
4953.419317520969
 20
8410.031635279926
 30
0.0
 40
90.0
  1
（CF）
 41
0.6666666666666666
  7
00
100
AcDbText
  0
TEXT
  5
18466
330
180D1
100
AcDbEntity
  8
HIKIDASHI
100
AcDbText
 10
5251.744959989369
 20
8417.531635279926
 30
0.0
 40
75.0
  1
ア
  7
01
 72
     1
 11
5284.244959989369
 21
8455.031635279926
 31
0.0
100
AcDbText
 73
     2
  0
CIRCLE
  5
18467
330
180D1
100
AcDbEntity
  8
HIKIDASHI
100
AcDbCircle
 10
5284.244959989369
 20
8455.031635279926
 30
0.0
 40
60.0
  0
TEXT
  5
18468
330
180D1
100
AcDbEntity
  8
HIKIDASHI
100
AcDbText
 10
5402.717136806008
 20
8410.031635279926
 30
0.0
 40
90.0
  1
1.6
 41
0.6700000000000001
  7
00
100
AcDbText
  0
TEXT
  5
18469
330
180D1
100
AcDbEntity
  8
NAME
100
AcDbText
 10
12536.92663601099
 20
954.9999999999991
 30
0.0
 40
160.0
  1
YOCF
 41
0.7
  7
01
100
AcDbText
  0
TEXT
  5
1846A
330
180D1
100
AcDbEntity
  8
NAME
100
AcDbText
 10
11103.68799031879
 20
954.9999999999991
 30
0.0
 40
160.0
  1
ヨド自転車置場      型
  7
01
100
AcDbText
  0
TEXT
  5
1846B
330
180D1
100
AcDbEntity
  8
NAME
100
AcDbText
 10
11816.04264730429
 20
541.0000000000001
 30
0.0
 40
160.0
  1
型（一般地用）
 41
0.8
  7
01
100
AcDbText
  0
TEXT
  5
1846C
330
180D1
100
AcDbEntity
  8
NAME
100
AcDbText
 10
10912.04264730428
 20
541.0000000000001
 30
0.0
 40
160.0
  1
YOCF-240
 41
0.7
  7
01
 72
     2
 11
11776.04264730429
 21
541.0000000000001
 31
0.0
100
AcDbText
  0
TEXT
  5
1846D
330
180D1
100
AcDbEntity
  8
NAME
100
AcDbText
 10
12854.79999999999
 20
541.0000000000003
 30
0.0
 40
160.0
  1
<1／3>
 41
0.6
  7
01
 72
     2
 11
13354.0
 21
541.0000000000003
 31
0.0
100
AcDbText
  0
TEXT
  5
1846E
330
180D1
100
AcDbEntity
  8
FILENAME
100
AcDbText
 10
13868.66666666666
 20
174.0
 30
0.0
 40
100.0
  1
＜YOCF-240-U1_1_JIS_GL.DXF ＞
  7
FILENAME
 72
     2
 11
16382.0
 21
174.0
 31
0.0
100
AcDbText
  0
LINE
  5
1846F
330
180D1
100
AcDbEntity
  8
WAKUSEN-01
100
AcDbLine
 10
434.0000000000008
 20
413.9999999999997
 30
0.0
 11
16382.0
 21
413.9999999999997
 31
0.0
  0
LINE
  5
18470
330
180D1
100
AcDbEntity
  8
WAKUSEN-01
100
AcDbLine
 10
434.0000000000008
 20
11242.0
 30
0.0
 11
16382.0
 21
11242.0
 31
0.0
  0
LINE
  5
18471
330
180D1
100
AcDbEntity
  8
WAKUSEN-01
100
AcDbLine
 10
434.0000000000008
 20
413.9999999999997
 30
0.0
 11
434.0000000000008
 21
11242.0
 31
0.0
  0
LINE
  5
18472
330
180D1
100
AcDbEntity
  8
WAKUSEN-01
100
AcDbLine
 10
16382.0
 20
413.9999999999997
 30
0.0
 11
16382.0
 21
11242.0
 31
0.0
  0
LINE
  5
18473
330
180D1
100
AcDbEntity
  8
WAKUSEN-01
100
AcDbLine
 10
10280.0
 20
1242.0
 30
0.0
 11
16382.0
 21
1242.0
 31
0.0
  0
LINE
  5
18474
330
180D1
100
AcDbEntity
  8
WAKUSEN-02
100
AcDbLine
 10
10280.0
 20
827.9999999999997
 30
0.0
 11
13434.0
 21
827.9999999999997
 31
0.0
  0
TEXT
  5
18475
330
180D1
100
AcDbEntity
  8
WAKUMOJI-01
100
AcDbText
 10
10335.13012998137
 20
1062.951504669661
 30
0.0
 40
120.0
  1
名　称
  7
WAKUMOJI
100
AcDbText
  0
TEXT
  5
18476
330
180D1
100
AcDbEntity
  8
WAKUMOJI-01
100
AcDbText
 10
10328.25274254596
 20
659.5644874899107
 30
0.0
 40
120.0
  1
機種名
  7
WAKUMOJI
100
AcDbText
  0
LINE
  5
18477
330
180D1
100
AcDbEntity
  8
WAKUSEN-01
100
AcDbLine
 10
10280.0
 20
413.9999999999984
 30
0.0
 11
10280.0
 21
1242.0
 31
0.0
  0
LINE
  5
18478
330
180D1
100
AcDbEntity
  8
WAKUSEN-02
100
AcDbLine
 10
13434.0
 20
413.9999999999963
 30
0.0
 11
13434.0
 21
1242.0
 31
0.0
  0
LINE
  5
18479
330
180D1
100
AcDbEntity
  8
YODOROGO
100
AcDbLine
 10
14988.80217064596
 20
997.8747482146435
 30
0.0
 11
14914.80217064596
 21
997.8747482146435
 31
0.0
1001
AUTOCAD_POSTSCRIPT_FIGURE
1002
{
1000
PSFILL
1000
Grayscale
1000
Grayscale
1070
    25
1002
}
  0
LINE
  5
1847A
330
180D1
100
AcDbEntity
  8
YODOROGO
100
AcDbLine
 10
14914.80217064596
 20
973.8747482146434
 30
0.0
 11
14988.80217064596
 21
973.8747482146434
 31
0.0
1001
AUTOCAD_POSTSCRIPT_FIGURE
1002
{
1000
PSFILL
1000
Grayscale
1000
Grayscale
1070
    25
1002
}
  0
LINE
  5
1847B
330
180D1
100
AcDbEntity
  8
YODOROGO
100
AcDbLine
 10
14988.80217064596
 20
953.874748214644
 30
0.0
 11
14914.80217064596
 21
953.874748214644
 31
0.0
1001
AUTOCAD_POSTSCRIPT_FIGURE
1002
{
1000
PSFILL
1000
Grayscale
1000
Grayscale
1070
    25
1002
}
  0
LINE
  5
1847C
330
180D1
100
AcDbEntity
  8
YODOROGO
100
AcDbLine
 10
14914.80217064596
 20
929.874748214644
 30
0.0
 11
14988.80217064596
 21
929.874748214644
 31
0.0
1001
AUTOCAD_POSTSCRIPT_FIGURE
1002
{
1000
PSFILL
1000
Grayscale
1000
Grayscale
1070
    25
1002
}
  0
LINE
  5
1847D
330
180D1
100
AcDbEntity
  8
YODOROGO
100
AcDbLine
 10
14988.80217064596
 20
909.8747482146439
 30
0.0
 11
14914.80217064596
 21
909.8747482146439
 31
0.0
1001
AUTOCAD_POSTSCRIPT_FIGURE
1002
{
1000
PSFILL
1000
Grayscale
1000
Grayscale
1070
    25
1002
}
  0
LINE
  5
1847E
330
180D1
100
AcDbEntity
  8
YODOROGO
100
AcDbLine
 10
14960.80217064594
 20
853.874748214644
 30
0.0
 11
14988.80217064596
 21
853.874748214644
 31
0.0
1001
AUTOCAD_POSTSCRIPT_FIGURE
1002
{
1000
PSFILL
1000
Grayscale
1000
Grayscale
1070
    25
1002
}
  0
LINE
  5
1847F
330
180D1
100
AcDbEntity
  8
YODOROGO
100
AcDbLine
 10
14868.80217064596
 20
713.8747482146435
 30
0.0
 11
14968.80217064596
 21
740.6696674577553
 31
0.0
  0
LINE
  5
18480
330
180D1
100
AcDbEntity
  8
YODOROGO
100
AcDbLine
 10
14974.80217064595
 20
853.874748214644
 30
0.0
 11
14942.80217064596
 21
853.874748214644
 31
0.0
  0
ARC
  5
18481
330
180D1
100
AcDbEntity
  8
YODOROGO
100
AcDbCircle
 10
15127.17387491394
 20
903.9323046166312
 30
0.0
 40
190.9434321028236
100
AcDbArc
 50
213.9611167766784
 51
264.4787207431779
  0
ARC
  5
18482
330
180D1
100
AcDbEntity
  8
YODOROGO
100
AcDbCircle
 10
15127.17387491396
 20
903.9323046166513
 30
0.0
 40
190.9434321028408
100
AcDbArc
 50
208.141144204866
 51
212.9210361185994
  0
LINE
  5
18483
330
180D1
100
AcDbEntity
  8
YODOROGO
100
AcDbLine
 10
14885.70493649264
 20
778.403830673117
 30
0.0
 11
14966.89206625426
 21
800.1578565285436
 31
0.0
  0
LINE
  5
18484
330
180D1
100
AcDbEntity
  8
YODOROGO
100
AcDbLine
 10
14868.80217064596
 20
713.8747482146435
 30
0.0
 11
14968.80217064596
 21
740.6696674577553
 31
0.0
  0
LINE
  5
18485
330
180D1
100
AcDbEntity
  8
YODOROGO
100
AcDbLine
 10
14974.80217064595
 20
853.874748214644
 30
0.0
 11
14942.80217064596
 21
853.874748214644
 31
0.0
  0
ARC
  5
18486
330
180D1
100
AcDbEntity
  8
YODOROGO
100
AcDbCircle
 10
15127.17387491394
 20
903.9323046166312
 30
0.0
 40
190.9434321028236
100
AcDbArc
 50
213.9611167766784
 51
264.4787207431779
  0
LINE
  5
18487
330
180D1
100
AcDbEntity
  8
YODOROGO
100
AcDbLine
 10
14396.80217064594
 20
909.8747482146439
 30
0.0
 11
14216.80217064594
 21
909.8747482146439
 31
0.0
  0
LINE
  5
18488
330
180D1
100
AcDbEntity
  8
YODOROGO
100
AcDbLine
 10
14256.80217064594
 20
713.8747482146435
 30
0.0
 11
14396.80217064594
 21
713.8747482146435
 31
0.0
  0
LINE
  5
18489
330
180D1
100
AcDbEntity
  8
YODOROGO
100
AcDbLine
 10
14364.80217064596
 20
961.8747482146432
 30
0.0
 11
14248.80217064594
 21
961.8747482146432
 31
0.0
  0
LINE
  5
1848A
330
180D1
100
AcDbEntity
  8
YODOROGO
100
AcDbLine
 10
14292.80217064596
 20
1013.874748214644
 30
0.0
 11
14328.80217064596
 21
1013.874748214644
 31
0.0
  0
LINE
  5
1848B
330
180D1
100
AcDbEntity
  8
YODOROGO
100
AcDbLine
 10
14216.80217064594
 20
853.874748214644
 30
0.0
 11
14216.80217064594
 21
753.8747482146439
 31
0.0
  0
LINE
  5
1848C
330
180D1
100
AcDbEntity
  8
YODOROGO
100
AcDbLine
 10
14248.80217064594
 20
781.8747482146434
 30
0.0
 11
14248.80217064594
 21
853.874748214644
 31
0.0
  0
LINE
  5
1848D
330
180D1
100
AcDbEntity
  8
YODOROGO
100
AcDbLine
 10
14292.80217064596
 20
873.8747482146449
 30
0.0
 11
14292.80217064596
 21
773.874748214644
 31
0.0
  0
LINE
  5
1848E
330
180D1
100
AcDbEntity
  8
YODOROGO
100
AcDbLine
 10
13928.80217064596
 20
841.8747482146445
 30
0.0
 11
13888.80217064596
 21
809.9862070222856
 31
0.0
  0
LINE
  5
1848F
330
180D1
100
AcDbEntity
  8
YODOROGO
100
AcDbLine
 10
13968.80217064596
 20
809.9862070222856
 30
0.0
 11
13928.80217064596
 21
841.8747482146445
 31
0.0
  0
LINE
  5
18490
330
180D1
100
AcDbEntity
  8
YODOROGO
100
AcDbLine
 10
13928.80217064596
 20
853.874748214644
 30
0.0
 11
13968.80217064596
 21
821.986207022285
 31
0.0
  0
LINE
  5
18491
330
180D1
100
AcDbEntity
  8
YODOROGO
100
AcDbLine
 10
13888.80217064596
 20
821.986207022285
 30
0.0
 11
13928.80217064596
 21
853.874748214644
 31
0.0
  0
LINE
  5
18492
330
180D1
100
AcDbEntity
  8
YODOROGO
100
AcDbLine
 10
14020.45660200844
 20
829.874748214644
 30
0.0
 11
14020.45660200844
 21
841.8747482146434
 31
0.0
  0
LINE
  5
18493
330
180D1
100
AcDbEntity
  8
YODOROGO
100
AcDbLine
 10
13988.80217064596
 20
841.8747482146434
 30
0.0
 11
13988.80217064596
 21
833.8747482146427
 31
0.0
  0
LINE
  5
18494
330
180D1
100
AcDbEntity
  8
YODOROGO
100
AcDbLine
 10
14049.06776011545
 20
853.874748214644
 30
0.0
 11
14049.06776011545
 21
827.751818637328
 31
0.0
1001
AUTOCAD_POSTSCRIPT_FIGURE
1002
{
1000
PSFILL
1000
Grayscale
1000
Grayscale
1070
   100
1002
}
  0
LINE
  5
18495
330
180D1
100
AcDbEntity
  8
YODOROGO
100
AcDbLine
 10
14041.06776011546
 20
827.751818637328
 30
0.0
 11
14041.06776011546
 21
853.874748214644
 31
0.0
1001
AUTOCAD_POSTSCRIPT_FIGURE
1002
{
1000
PSFILL
1000
Grayscale
1000
Grayscale
1070
   100
1002
}
  0
LINE
  5
18496
330
180D1
100
AcDbEntity
  8
YODOROGO
100
AcDbLine
 10
13904.80217064596
 20
804.3859520216292
 30
0.0
 11
13904.80217064596
 21
816.3859520216298
 31
0.0
  0
LINE
  5
18497
330
180D1
100
AcDbEntity
  8
YODOROGO
100
AcDbLine
 10
13952.80217064596
 20
804.3859520216292
 30
0.0
 11
13904.80217064596
 21
804.3859520216292
 31
0.0
  0
LINE
  5
18498
330
180D1
100
AcDbEntity
  8
YODOROGO
100
AcDbLine
 10
13952.80217064596
 20
816.3859520216298
 30
0.0
 11
13952.80217064596
 21
804.3859520216292
 31
0.0
  0
LINE
  5
18499
330
180D1
100
AcDbEntity
  8
YODOROGO
100
AcDbLine
 10
13904.80217064596
 20
816.3859520216298
 30
0.0
 11
13952.80217064596
 21
816.3859520216298
 31
0.0
  0
LINE
  5
1849A
330
180D1
100
AcDbEntity
  8
YODOROGO
100
AcDbLine
 10
13912.25479445787
 20
784.2514286852374
 30
0.0
 11
13892.80217064596
 21
737.8747482146435
 31
0.0
1001
AUTOCAD_POSTSCRIPT_FIGURE
1002
{
1000
PSFILL
1000
Grayscale
1000
Grayscale
1070
   100
1002
}
  0
LINE
  5
1849B
330
180D1
100
AcDbEntity
  8
YODOROGO
100
AcDbLine
 10
13888.80217064596
 20
784.2514286852374
 30
0.0
 11
13912.25479445787
 21
784.2514286852374
 31
0.0
1001
AUTOCAD_POSTSCRIPT_FIGURE
1002
{
1000
PSFILL
1000
Grayscale
1000
Grayscale
1070
   100
1002
}
  0
LINE
  5
1849C
330
180D1
100
AcDbEntity
  8
YODOROGO
100
AcDbLine
 10
13888.80217064596
 20
794.2514286852374
 30
0.0
 11
13888.80217064596
 21
784.2514286852374
 31
0.0
1001
AUTOCAD_POSTSCRIPT_FIGURE
1002
{
1000
PSFILL
1000
Grayscale
1000
Grayscale
1070
   100
1002
}
  0
LINE
  5
1849D
330
180D1
100
AcDbEntity
  8
YODOROGO
100
AcDbLine
 10
13968.80217064596
 20
794.2514286852374
 30
0.0
 11
13888.80217064596
 21
794.2514286852374
 31
0.0
1001
AUTOCAD_POSTSCRIPT_FIGURE
1002
{
1000
PSFILL
1000
Grayscale
1000
Grayscale
1070
   100
1002
}
  0
LINE
  5
1849E
330
180D1
100
AcDbEntity
  8
YODOROGO
100
AcDbLine
 10
13968.80217064596
 20
784.2514286852374
 30
0.0
 11
13968.80217064596
 21
794.2514286852374
 31
0.0
1001
AUTOCAD_POSTSCRIPT_FIGURE
1002
{
1000
PSFILL
1000
Grayscale
1000
Grayscale
1070
   100
1002
}
  0
LINE
  5
1849F
330
180D1
100
AcDbEntity
  8
YODOROGO
100
AcDbLine
 10
13922.25479445786
 20
784.2514286852374
 30
0.0
 11
13968.80217064596
 21
784.2514286852374
 31
0.0
1001
AUTOCAD_POSTSCRIPT_FIGURE
1002
{
1000
PSFILL
1000
Grayscale
1000
Grayscale
1070
   100
1002
}
  0
LINE
  5
184A0
330
180D1
100
AcDbEntity
  8
YODOROGO
100
AcDbLine
 10
13907.77335914238
 20
747.8747482146435
 30
0.0
 11
13922.25479445786
 21
784.2514286852374
 31
0.0
1001
AUTOCAD_POSTSCRIPT_FIGURE
1002
{
1000
PSFILL
1000
Grayscale
1000
Grayscale
1070
   100
1002
}
  0
LINE
  5
184A1
330
180D1
100
AcDbEntity
  8
YODOROGO
100
AcDbLine
 10
13951.02739540432
 20
747.8747482146435
 30
0.0
 11
13907.77335914238
 21
747.8747482146435
 31
0.0
1001
AUTOCAD_POSTSCRIPT_FIGURE
1002
{
1000
PSFILL
1000
Grayscale
1000
Grayscale
1070
   100
1002
}
  0
LINE
  5
184A2
330
180D1
100
AcDbEntity
  8
YODOROGO
100
AcDbLine
 10
13942.53250239547
 20
768.1169053488464
 30
0.0
 11
13951.02739540432
 21
747.8747482146435
 31
0.0
1001
AUTOCAD_POSTSCRIPT_FIGURE
1002
{
1000
PSFILL
1000
Grayscale
1000
Grayscale
1070
   100
1002
}
  0
LINE
  5
184A3
330
180D1
100
AcDbEntity
  8
YODOROGO
100
AcDbLine
 10
13950.53250239547
 20
768.1169053488464
 30
0.0
 11
13942.53250239547
 21
768.1169053488464
 31
0.0
1001
AUTOCAD_POSTSCRIPT_FIGURE
1002
{
1000
PSFILL
1000
Grayscale
1000
Grayscale
1070
   100
1002
}
  0
LINE
  5
184A4
330
180D1
100
AcDbEntity
  8
YODOROGO
100
AcDbLine
 10
13964.80217064596
 20
737.8747482146435
 30
0.0
 11
13950.53250239547
 21
768.1169053488464
 31
0.0
1001
AUTOCAD_POSTSCRIPT_FIGURE
1002
{
1000
PSFILL
1000
Grayscale
1000
Grayscale
1070
   100
1002
}
  0
LINE
  5
184A5
330
180D1
100
AcDbEntity
  8
YODOROGO
100
AcDbLine
 10
13892.80217064596
 20
737.8747482146435
 30
0.0
 11
13964.80217064596
 21
737.8747482146435
 31
0.0
1001
AUTOCAD_POSTSCRIPT_FIGURE
1002
{
1000
PSFILL
1000
Grayscale
1000
Grayscale
1070
   100
1002
}
  0
LINE
  5
184A6
330
180D1
100
AcDbEntity
  8
YODOROGO
100
AcDbLine
 10
13888.80217064596
 20
809.9862070222856
 30
0.0
 11
13888.80217064596
 21
821.986207022285
 31
0.0
  0
LINE
  5
184A7
330
180D1
100
AcDbEntity
  8
YODOROGO
100
AcDbLine
 10
13968.80217064596
 20
821.986207022285
 30
0.0
 11
13968.80217064596
 21
809.9862070222856
 31
0.0
  0
ARC
  5
184A8
330
180D1
100
AcDbEntity
  8
YODOROGO
100
AcDbCircle
 10
14112.97022107348
 20
800.438882662663
 30
0.0
 40
87.99999999999995
100
AcDbArc
 50
280.3644312771313
 51
3.541483659218056
  0
ARC
  5
184A9
330
180D1
100
AcDbEntity
  8
YODOROGO
100
AcDbCircle
 10
14117.87801537965
 20
816.798903480952
 30
0.0
 40
55.99999999999914
100
AcDbArc
 50
281.2490582504155
 51
348.7509417495832
  0
LINE
  5
184AA
330
180D1
100
AcDbEntity
  8
YODOROGO
100
AcDbLine
 10
14128.80217064596
 20
761.8747482146434
 30
0.0
 11
14128.80217064596
 21
713.8747482146435
 31
0.0
  0
LINE
  5
184AB
330
180D1
100
AcDbEntity
  8
YODOROGO
100
AcDbLine
 10
14010.04445186845
 20
805.3252825309574
 30
0.0
 11
14020.45660200844
 21
829.874748214644
 31
0.0
  0
LINE
  5
184AC
330
180D1
100
AcDbEntity
  8
YODOROGO
100
AcDbLine
 10
14020.80217064596
 20
791.5602449742006
 30
0.0
 11
14010.04445186845
 21
805.3252825309574
 31
0.0
  0
LINE
  5
184AD
330
180D1
100
AcDbEntity
  8
YODOROGO
100
AcDbLine
 10
14020.80217064596
 20
781.5602449741994
 30
0.0
 11
14020.80217064596
 21
791.5602449742006
 31
0.0
  0
LINE
  5
184AE
330
180D1
100
AcDbEntity
  8
YODOROGO
100
AcDbLine
 10
14008.80217064596
 20
792.6185318747651
 30
0.0
 11
14020.80217064596
 21
781.5602449741994
 31
0.0
  0
LINE
  5
184AF
330
180D1
100
AcDbEntity
  8
YODOROGO
100
AcDbLine
 10
14008.80217064596
 20
737.8747482146435
 30
0.0
 11
14008.80217064596
 21
792.6185318747651
 31
0.0
  0
LINE
  5
184B0
330
180D1
100
AcDbEntity
  8
YODOROGO
100
AcDbLine
 10
14000.80217064596
 20
737.8747482146435
 30
0.0
 11
14008.80217064596
 21
737.8747482146435
 31
0.0
  0
LINE
  5
184B1
330
180D1
100
AcDbEntity
  8
YODOROGO
100
AcDbLine
 10
14000.80217064596
 20
790.0026748448738
 30
0.0
 11
14000.80217064596
 21
737.8747482146435
 31
0.0
  0
LINE
  5
184B2
330
180D1
100
AcDbEntity
  8
YODOROGO
100
AcDbLine
 10
13988.80217064596
 20
766.3840395167142
 30
0.0
 11
14000.80217064596
 21
790.0026748448738
 31
0.0
  0
LINE
  5
184B3
330
180D1
100
AcDbEntity
  8
YODOROGO
100
AcDbLine
 10
13988.80217064596
 20
778.3840395167149
 30
0.0
 11
13988.80217064596
 21
766.3840395167142
 31
0.0
  0
LINE
  5
184B4
330
180D1
100
AcDbEntity
  8
YODOROGO
100
AcDbLine
 10
14012.91438714567
 20
833.8747482146427
 30
0.0
 11
13988.80217064596
 21
778.3840395167149
 31
0.0
  0
LINE
  5
184B5
330
180D1
100
AcDbEntity
  8
YODOROGO
100
AcDbLine
 10
13988.80217064596
 20
833.8747482146427
 30
0.0
 11
14012.91438714567
 21
833.8747482146427
 31
0.0
  0
LINE
  5
184B6
330
180D1
100
AcDbEntity
  8
YODOROGO
100
AcDbLine
 10
14025.06776011545
 20
827.751818637328
 30
0.0
 11
14041.06776011546
 21
827.751818637328
 31
0.0
1001
AUTOCAD_POSTSCRIPT_FIGURE
1002
{
1000
PSFILL
1000
Grayscale
1000
Grayscale
1070
   100
1002
}
  0
LINE
  5
184B7
330
180D1
100
AcDbEntity
  8
YODOROGO
100
AcDbLine
 10
14025.06776011545
 20
815.7518186373286
 30
0.0
 11
14025.06776011545
 21
827.751818637328
 31
0.0
1001
AUTOCAD_POSTSCRIPT_FIGURE
1002
{
1000
PSFILL
1000
Grayscale
1000
Grayscale
1070
   100
1002
}
  0
LINE
  5
184B8
330
180D1
100
AcDbEntity
  8
YODOROGO
100
AcDbLine
 10
14041.06776011546
 20
815.7518186373286
 30
0.0
 11
14025.06776011545
 21
815.7518186373286
 31
0.0
1001
AUTOCAD_POSTSCRIPT_FIGURE
1002
{
1000
PSFILL
1000
Grayscale
1000
Grayscale
1070
   100
1002
}
  0
LINE
  5
184B9
330
180D1
100
AcDbEntity
  8
YODOROGO
100
AcDbLine
 10
14041.06776011546
 20
749.8747482146441
 30
0.0
 11
14041.06776011546
 21
815.7518186373286
 31
0.0
1001
AUTOCAD_POSTSCRIPT_FIGURE
1002
{
1000
PSFILL
1000
Grayscale
1000
Grayscale
1070
   100
1002
}
  0
LINE
  5
184BA
330
180D1
100
AcDbEntity
  8
YODOROGO
100
AcDbLine
 10
14025.06776011545
 20
749.8747482146441
 30
0.0
 11
14041.06776011546
 21
749.8747482146441
 31
0.0
1001
AUTOCAD_POSTSCRIPT_FIGURE
1002
{
1000
PSFILL
1000
Grayscale
1000
Grayscale
1070
   100
1002
}
  0
LINE
  5
184BB
330
180D1
100
AcDbEntity
  8
YODOROGO
100
AcDbLine
 10
14025.06776011545
 20
737.8747482146435
 30
0.0
 11
14025.06776011545
 21
749.8747482146441
 31
0.0
1001
AUTOCAD_POSTSCRIPT_FIGURE
1002
{
1000
PSFILL
1000
Grayscale
1000
Grayscale
1070
   100
1002
}
  0
LINE
  5
184BC
330
180D1
100
AcDbEntity
  8
YODOROGO
100
AcDbLine
 10
14068.80217064596
 20
737.8747482146435
 30
0.0
 11
14025.06776011545
 21
737.8747482146435
 31
0.0
1001
AUTOCAD_POSTSCRIPT_FIGURE
1002
{
1000
PSFILL
1000
Grayscale
1000
Grayscale
1070
   100
1002
}
  0
LINE
  5
184BD
330
180D1
100
AcDbEntity
  8
YODOROGO
100
AcDbLine
 10
14068.80217064596
 20
749.8747482146441
 30
0.0
 11
14068.80217064596
 21
737.8747482146435
 31
0.0
1001
AUTOCAD_POSTSCRIPT_FIGURE
1002
{
1000
PSFILL
1000
Grayscale
1000
Grayscale
1070
   100
1002
}
  0
LINE
  5
184BE
330
180D1
100
AcDbEntity
  8
YODOROGO
100
AcDbLine
 10
14049.06776011545
 20
749.8747482146441
 30
0.0
 11
14068.80217064596
 21
749.8747482146441
 31
0.0
1001
AUTOCAD_POSTSCRIPT_FIGURE
1002
{
1000
PSFILL
1000
Grayscale
1000
Grayscale
1070
   100
1002
}
  0
LINE
  5
184BF
330
180D1
100
AcDbEntity
  8
YODOROGO
100
AcDbLine
 10
14049.06776011545
 20
815.7518186373286
 30
0.0
 11
14049.06776011545
 21
749.8747482146441
 31
0.0
1001
AUTOCAD_POSTSCRIPT_FIGURE
1002
{
1000
PSFILL
1000
Grayscale
1000
Grayscale
1070
   100
1002
}
  0
LINE
  5
184C0
330
180D1
100
AcDbEntity
  8
YODOROGO
100
AcDbLine
 10
14068.80217064596
 20
815.7518186373286
 30
0.0
 11
14049.06776011545
 21
815.7518186373286
 31
0.0
1001
AUTOCAD_POSTSCRIPT_FIGURE
1002
{
1000
PSFILL
1000
Grayscale
1000
Grayscale
1070
   100
1002
}
  0
LINE
  5
184C1
330
180D1
100
AcDbEntity
  8
YODOROGO
100
AcDbLine
 10
14068.80217064596
 20
827.751818637328
 30
0.0
 11
14068.80217064596
 21
815.7518186373286
 31
0.0
1001
AUTOCAD_POSTSCRIPT_FIGURE
1002
{
1000
PSFILL
1000
Grayscale
1000
Grayscale
1070
   100
1002
}
  0
LINE
  5
184C2
330
180D1
100
AcDbEntity
  8
YODOROGO
100
AcDbLine
 10
14049.06776011545
 20
827.751818637328
 30
0.0
 11
14068.80217064596
 21
827.751818637328
 31
0.0
1001
AUTOCAD_POSTSCRIPT_FIGURE
1002
{
1000
PSFILL
1000
Grayscale
1000
Grayscale
1070
   100
1002
}
  0
LINE
  5
184C3
330
180D1
100
AcDbEntity
  8
YODOROGO
100
AcDbLine
 10
14200.80217064594
 20
833.8747482146439
 30
0.0
 11
14172.80217064596
 21
833.8747482146439
 31
0.0
  0
LINE
  5
184C4
330
180D1
100
AcDbEntity
  8
YODOROGO
100
AcDbLine
 10
14200.80217064594
 20
805.8747482146443
 30
0.0
 11
14200.80217064594
 21
833.8747482146439
 31
0.0
  0
LINE
  5
184C5
330
180D1
100
AcDbEntity
  8
YODOROGO
100
AcDbLine
 10
14172.80217064596
 20
833.8747482146439
 30
0.0
 11
14172.80217064596
 21
805.8747482146443
 31
0.0
  0
ARC
  5
184C6
330
180D1
100
AcDbEntity
  8
YODOROGO
100
AcDbCircle
 10
14256.80217064594
 20
753.8747482146439
 30
0.0
 40
40.0
100
AcDbArc
 50
180.0
 51
270.0
  0
ARC
  5
184C7
330
180D1
100
AcDbEntity
  8
YODOROGO
100
AcDbCircle
 10
14268.80217064594
 20
781.8747482146434
 30
0.0
 40
20.0
100
AcDbArc
 50
180.0
 51
270.0
  0
LINE
  5
184C8
330
180D1
100
AcDbEntity
  8
YODOROGO
100
AcDbLine
 10
14280.80217064596
 20
761.8747482146434
 30
0.0
 11
14268.80217064594
 21
761.8747482146434
 31
0.0
  0
ARC
  5
184C9
330
180D1
100
AcDbEntity
  8
YODOROGO
100
AcDbCircle
 10
14280.80217064596
 20
773.8747482146427
 30
0.0
 40
11.99999999999818
100
AcDbArc
 50
270.0
 51
0.0000000000054281
  0
LINE
  5
184CA
330
180D1
100
AcDbEntity
  8
YODOROGO
100
AcDbLine
 10
13900.80217064596
 20
945.3932903968532
 30
0.0
 11
13888.80217064596
 21
921.8883739758362
 31
0.0
1001
AUTOCAD_POSTSCRIPT_FIGURE
1002
{
1000
PSFILL
1000
Grayscale
1000
Grayscale
1070
   100
1002
}
  0
LINE
  5
184CB
330
180D1
100
AcDbEntity
  8
YODOROGO
100
AcDbLine
 10
13900.80217064596
 20
873.8747482146434
 30
0.0
 11
13900.80217064596
 21
945.3932903968532
 31
0.0
1001
AUTOCAD_POSTSCRIPT_FIGURE
1002
{
1000
PSFILL
1000
Grayscale
1000
Grayscale
1070
   100
1002
}
  0
LINE
  5
184CC
330
180D1
100
AcDbEntity
  8
YODOROGO
100
AcDbLine
 10
13908.80217064596
 20
873.8747482146434
 30
0.0
 11
13900.80217064596
 21
873.8747482146434
 31
0.0
1001
AUTOCAD_POSTSCRIPT_FIGURE
1002
{
1000
PSFILL
1000
Grayscale
1000
Grayscale
1070
   100
1002
}
  0
LINE
  5
184CD
330
180D1
100
AcDbEntity
  8
YODOROGO
100
AcDbLine
 10
13908.80217064596
 20
946.8856660426332
 30
0.0
 11
13908.80217064596
 21
873.8747482146434
 31
0.0
1001
AUTOCAD_POSTSCRIPT_FIGURE
1002
{
1000
PSFILL
1000
Grayscale
1000
Grayscale
1070
   100
1002
}
  0
LINE
  5
184CE
330
180D1
100
AcDbEntity
  8
YODOROGO
100
AcDbLine
 10
13920.80217064596
 20
933.8273791420684
 30
0.0
 11
13908.80217064596
 21
946.8856660426332
 31
0.0
1001
AUTOCAD_POSTSCRIPT_FIGURE
1002
{
1000
PSFILL
1000
Grayscale
1000
Grayscale
1070
   100
1002
}
  0
LINE
  5
184CF
330
180D1
100
AcDbEntity
  8
YODOROGO
100
AcDbLine
 10
13920.80217064596
 20
941.8273791420681
 30
0.0
 11
13920.80217064596
 21
933.8273791420684
 31
0.0
1001
AUTOCAD_POSTSCRIPT_FIGURE
1002
{
1000
PSFILL
1000
Grayscale
1000
Grayscale
1070
   100
1002
}
  0
LINE
  5
184D0
330
180D1
100
AcDbEntity
  8
YODOROGO
100
AcDbLine
 10
13908.80217064596
 20
958.8856660426325
 30
0.0
 11
13920.80217064596
 21
941.8273791420681
 31
0.0
1001
AUTOCAD_POSTSCRIPT_FIGURE
1002
{
1000
PSFILL
1000
Grayscale
1000
Grayscale
1070
   100
1002
}
  0
LINE
  5
184D1
330
180D1
100
AcDbEntity
  8
YODOROGO
100
AcDbLine
 10
13908.80217064596
 20
969.8747482146441
 30
0.0
 11
13908.80217064596
 21
958.8856660426325
 31
0.0
1001
AUTOCAD_POSTSCRIPT_FIGURE
1002
{
1000
PSFILL
1000
Grayscale
1000
Grayscale
1070
   100
1002
}
  0
LINE
  5
184D2
330
180D1
100
AcDbEntity
  8
YODOROGO
100
AcDbLine
 10
13944.80217064596
 20
969.8747482146441
 30
0.0
 11
13908.80217064596
 21
969.8747482146441
 31
0.0
1001
AUTOCAD_POSTSCRIPT_FIGURE
1002
{
1000
PSFILL
1000
Grayscale
1000
Grayscale
1070
   100
1002
}
  0
LINE
  5
184D3
330
180D1
100
AcDbEntity
  8
YODOROGO
100
AcDbLine
 10
13944.80217064596
 20
950.2841744681495
 30
0.0
 11
13944.80217064596
 21
969.8747482146441
 31
0.0
1001
AUTOCAD_POSTSCRIPT_FIGURE
1002
{
1000
PSFILL
1000
Grayscale
1000
Grayscale
1070
   100
1002
}
  0
LINE
  5
184D4
330
180D1
100
AcDbEntity
  8
YODOROGO
100
AcDbLine
 10
13928.80217064596
 20
950.2841744681495
 30
0.0
 11
13944.80217064596
 21
950.2841744681495
 31
0.0
1001
AUTOCAD_POSTSCRIPT_FIGURE
1002
{
1000
PSFILL
1000
Grayscale
1000
Grayscale
1070
   100
1002
}
  0
LINE
  5
184D5
330
180D1
100
AcDbEntity
  8
YODOROGO
100
AcDbLine
 10
13928.80217064596
 20
942.2841744681491
 30
0.0
 11
13928.80217064596
 21
950.2841744681495
 31
0.0
1001
AUTOCAD_POSTSCRIPT_FIGURE
1002
{
1000
PSFILL
1000
Grayscale
1000
Grayscale
1070
   100
1002
}
  0
LINE
  5
184D6
330
180D1
100
AcDbEntity
  8
YODOROGO
100
AcDbLine
 10
13944.80217064596
 20
942.2841744681491
 30
0.0
 11
13928.80217064596
 21
942.2841744681491
 31
0.0
1001
AUTOCAD_POSTSCRIPT_FIGURE
1002
{
1000
PSFILL
1000
Grayscale
1000
Grayscale
1070
   100
1002
}
  0
LINE
  5
184D7
330
180D1
100
AcDbEntity
  8
YODOROGO
100
AcDbLine
 10
13944.80217064596
 20
939.8095889822196
 30
0.0
 11
13944.80217064596
 21
942.2841744681491
 31
0.0
1001
AUTOCAD_POSTSCRIPT_FIGURE
1002
{
1000
PSFILL
1000
Grayscale
1000
Grayscale
1070
   100
1002
}
  0
LINE
  5
184D8
330
180D1
100
AcDbEntity
  8
YODOROGO
100
AcDbLine
 10
13924.80217064596
 20
906.4874905807087
 30
0.0
 11
13944.80217064596
 21
939.8095889822196
 31
0.0
1001
AUTOCAD_POSTSCRIPT_FIGURE
1002
{
1000
PSFILL
1000
Grayscale
1000
Grayscale
1070
   100
1002
}
  0
LINE
  5
184D9
330
180D1
100
AcDbEntity
  8
YODOROGO
100
AcDbLine
 10
13924.80217064596
 20
898.487490580708
 30
0.0
 11
13924.80217064596
 21
906.4874905807087
 31
0.0
1001
AUTOCAD_POSTSCRIPT_FIGURE
1002
{
1000
PSFILL
1000
Grayscale
1000
Grayscale
1070
   100
1002
}
  0
LINE
  5
184DA
330
180D1
100
AcDbEntity
  8
YODOROGO
100
AcDbLine
 10
13944.80217064596
 20
923.8095889822183
 30
0.0
 11
13924.80217064596
 21
898.487490580708
 31
0.0
1001
AUTOCAD_POSTSCRIPT_FIGURE
1002
{
1000
PSFILL
1000
Grayscale
1000
Grayscale
1070
   100
1002
}
  0
LINE
  5
184DB
330
180D1
100
AcDbEntity
  8
YODOROGO
100
AcDbLine
 10
13944.80217064596
 20
873.8747482146434
 30
0.0
 11
13944.80217064596
 21
923.8095889822183
 31
0.0
1001
AUTOCAD_POSTSCRIPT_FIGURE
1002
{
1000
PSFILL
1000
Grayscale
1000
Grayscale
1070
   100
1002
}
  0
LINE
  5
184DC
330
180D1
100
AcDbEntity
  8
YODOROGO
100
AcDbLine
 10
13952.80217064596
 20
873.8747482146434
 30
0.0
 11
13944.80217064596
 21
873.8747482146434
 31
0.0
1001
AUTOCAD_POSTSCRIPT_FIGURE
1002
{
1000
PSFILL
1000
Grayscale
1000
Grayscale
1070
   100
1002
}
  0
LINE
  5
184DD
330
180D1
100
AcDbEntity
  8
YODOROGO
100
AcDbLine
 10
13952.80217064596
 20
924.7045060794032
 30
0.0
 11
13952.80217064596
 21
873.8747482146434
 31
0.0
1001
AUTOCAD_POSTSCRIPT_FIGURE
1002
{
1000
PSFILL
1000
Grayscale
1000
Grayscale
1070
   100
1002
}
  0
LINE
  5
184DE
330
180D1
100
AcDbEntity
  8
YODOROGO
100
AcDbLine
 10
13968.80217064596
 20
898.487490580708
 30
0.0
 11
13952.80217064596
 21
924.7045060794032
 31
0.0
1001
AUTOCAD_POSTSCRIPT_FIGURE
1002
{
1000
PSFILL
1000
Grayscale
1000
Grayscale
1070
   100
1002
}
  0
LINE
  5
184DF
330
180D1
100
AcDbEntity
  8
YODOROGO
100
AcDbLine
 10
13968.80217064596
 20
906.4874905807087
 30
0.0
 11
13968.80217064596
 21
898.487490580708
 31
0.0
1001
AUTOCAD_POSTSCRIPT_FIGURE
1002
{
1000
PSFILL
1000
Grayscale
1000
Grayscale
1070
   100
1002
}
  0
LINE
  5
184E0
330
180D1
100
AcDbEntity
  8
YODOROGO
100
AcDbLine
 10
13952.80217064596
 20
940.704506079404
 30
0.0
 11
13968.80217064596
 21
906.4874905807087
 31
0.0
1001
AUTOCAD_POSTSCRIPT_FIGURE
1002
{
1000
PSFILL
1000
Grayscale
1000
Grayscale
1070
   100
1002
}
  0
LINE
  5
184E1
330
180D1
100
AcDbEntity
  8
YODOROGO
100
AcDbLine
 10
13952.80217064596
 20
942.2841744681502
 30
0.0
 11
13952.80217064596
 21
940.704506079404
 31
0.0
1001
AUTOCAD_POSTSCRIPT_FIGURE
1002
{
1000
PSFILL
1000
Grayscale
1000
Grayscale
1070
   100
1002
}
  0
LINE
  5
184E2
330
180D1
100
AcDbEntity
  8
YODOROGO
100
AcDbLine
 10
13968.80217064596
 20
942.2841744681491
 30
0.0
 11
13952.80217064596
 21
942.2841744681502
 31
0.0
1001
AUTOCAD_POSTSCRIPT_FIGURE
1002
{
1000
PSFILL
1000
Grayscale
1000
Grayscale
1070
   100
1002
}
  0
LINE
  5
184E3
330
180D1
100
AcDbEntity
  8
YODOROGO
100
AcDbLine
 10
13968.80217064596
 20
950.2841744681495
 30
0.0
 11
13968.80217064596
 21
942.2841744681491
 31
0.0
1001
AUTOCAD_POSTSCRIPT_FIGURE
1002
{
1000
PSFILL
1000
Grayscale
1000
Grayscale
1070
   100
1002
}
  0
LINE
  5
184E4
330
180D1
100
AcDbEntity
  8
YODOROGO
100
AcDbLine
 10
13952.80217064596
 20
950.2841744681495
 30
0.0
 11
13968.80217064596
 21
950.2841744681495
 31
0.0
1001
AUTOCAD_POSTSCRIPT_FIGURE
1002
{
1000
PSFILL
1000
Grayscale
1000
Grayscale
1070
   100
1002
}
  0
LINE
  5
184E5
330
180D1
100
AcDbEntity
  8
YODOROGO
100
AcDbLine
 10
13952.80217064596
 20
969.8747482146441
 30
0.0
 11
13952.80217064596
 21
950.2841744681495
 31
0.0
1001
AUTOCAD_POSTSCRIPT_FIGURE
1002
{
1000
PSFILL
1000
Grayscale
1000
Grayscale
1070
   100
1002
}
  0
LINE
  5
184E6
330
180D1
100
AcDbEntity
  8
YODOROGO
100
AcDbLine
 10
13968.80217064596
 20
969.8747482146441
 30
0.0
 11
13952.80217064596
 21
969.8747482146441
 31
0.0
1001
AUTOCAD_POSTSCRIPT_FIGURE
1002
{
1000
PSFILL
1000
Grayscale
1000
Grayscale
1070
   100
1002
}
  0
LINE
  5
184E7
330
180D1
100
AcDbEntity
  8
YODOROGO
100
AcDbLine
 10
13968.80217064596
 20
977.8747482146435
 30
0.0
 11
13968.80217064596
 21
969.8747482146441
 31
0.0
1001
AUTOCAD_POSTSCRIPT_FIGURE
1002
{
1000
PSFILL
1000
Grayscale
1000
Grayscale
1070
   100
1002
}
  0
LINE
  5
184E8
330
180D1
100
AcDbEntity
  8
YODOROGO
100
AcDbLine
 10
13952.80217064596
 20
977.8747482146435
 30
0.0
 11
13968.80217064596
 21
977.8747482146435
 31
0.0
1001
AUTOCAD_POSTSCRIPT_FIGURE
1002
{
1000
PSFILL
1000
Grayscale
1000
Grayscale
1070
   100
1002
}
  0
LINE
  5
184E9
330
180D1
100
AcDbEntity
  8
YODOROGO
100
AcDbLine
 10
13952.80217064596
 20
989.8747482146442
 30
0.0
 11
13952.80217064596
 21
977.8747482146435
 31
0.0
1001
AUTOCAD_POSTSCRIPT_FIGURE
1002
{
1000
PSFILL
1000
Grayscale
1000
Grayscale
1070
   100
1002
}
  0
LINE
  5
184EA
330
180D1
100
AcDbEntity
  8
YODOROGO
100
AcDbLine
 10
13944.80217064596
 20
989.8747482146442
 30
0.0
 11
13952.80217064596
 21
989.8747482146442
 31
0.0
1001
AUTOCAD_POSTSCRIPT_FIGURE
1002
{
1000
PSFILL
1000
Grayscale
1000
Grayscale
1070
   100
1002
}
  0
LINE
  5
184EB
330
180D1
100
AcDbEntity
  8
YODOROGO
100
AcDbLine
 10
13944.80217064596
 20
977.8747482146435
 30
0.0
 11
13944.80217064596
 21
989.8747482146442
 31
0.0
1001
AUTOCAD_POSTSCRIPT_FIGURE
1002
{
1000
PSFILL
1000
Grayscale
1000
Grayscale
1070
   100
1002
}
  0
LINE
  5
184EC
330
180D1
100
AcDbEntity
  8
YODOROGO
100
AcDbLine
 10
13932.80217064596
 20
977.8747482146435
 30
0.0
 11
13944.80217064596
 21
977.8747482146435
 31
0.0
1001
AUTOCAD_POSTSCRIPT_FIGURE
1002
{
1000
PSFILL
1000
Grayscale
1000
Grayscale
1070
   100
1002
}
  0
LINE
  5
184ED
330
180D1
100
AcDbEntity
  8
YODOROGO
100
AcDbLine
 10
13932.80217064596
 20
989.8747482146442
 30
0.0
 11
13932.80217064596
 21
977.8747482146435
 31
0.0
1001
AUTOCAD_POSTSCRIPT_FIGURE
1002
{
1000
PSFILL
1000
Grayscale
1000
Grayscale
1070
   100
1002
}
  0
LINE
  5
184EE
330
180D1
100
AcDbEntity
  8
YODOROGO
100
AcDbLine
 10
13924.80217064596
 20
989.8747482146442
 30
0.0
 11
13932.80217064596
 21
989.8747482146442
 31
0.0
1001
AUTOCAD_POSTSCRIPT_FIGURE
1002
{
1000
PSFILL
1000
Grayscale
1000
Grayscale
1070
   100
1002
}
  0
LINE
  5
184EF
330
180D1
100
AcDbEntity
  8
YODOROGO
100
AcDbLine
 10
13924.80217064596
 20
977.8747482146435
 30
0.0
 11
13924.80217064596
 21
989.8747482146442
 31
0.0
1001
AUTOCAD_POSTSCRIPT_FIGURE
1002
{
1000
PSFILL
1000
Grayscale
1000
Grayscale
1070
   100
1002
}
  0
LINE
  5
184F0
330
180D1
100
AcDbEntity
  8
YODOROGO
100
AcDbLine
 10
13908.80217064596
 20
977.8747482146435
 30
0.0
 11
13924.80217064596
 21
977.8747482146435
 31
0.0
1001
AUTOCAD_POSTSCRIPT_FIGURE
1002
{
1000
PSFILL
1000
Grayscale
1000
Grayscale
1070
   100
1002
}
  0
LINE
  5
184F1
330
180D1
100
AcDbEntity
  8
YODOROGO
100
AcDbLine
 10
13908.80217064596
 20
989.8747482146442
 30
0.0
 11
13908.80217064596
 21
977.8747482146435
 31
0.0
1001
AUTOCAD_POSTSCRIPT_FIGURE
1002
{
1000
PSFILL
1000
Grayscale
1000
Grayscale
1070
   100
1002
}
  0
LINE
  5
184F2
330
180D1
100
AcDbEntity
  8
YODOROGO
100
AcDbLine
 10
13900.80217064596
 20
989.8747482146442
 30
0.0
 11
13908.80217064596
 21
989.8747482146442
 31
0.0
1001
AUTOCAD_POSTSCRIPT_FIGURE
1002
{
1000
PSFILL
1000
Grayscale
1000
Grayscale
1070
   100
1002
}
  0
LINE
  5
184F3
330
180D1
100
AcDbEntity
  8
YODOROGO
100
AcDbLine
 10
13900.80217064596
 20
977.8747482146435
 30
0.0
 11
13900.80217064596
 21
989.8747482146442
 31
0.0
1001
AUTOCAD_POSTSCRIPT_FIGURE
1002
{
1000
PSFILL
1000
Grayscale
1000
Grayscale
1070
   100
1002
}
  0
LINE
  5
184F4
330
180D1
100
AcDbEntity
  8
YODOROGO
100
AcDbLine
 10
13888.80217064596
 20
977.8747482146435
 30
0.0
 11
13900.80217064596
 21
977.8747482146435
 31
0.0
1001
AUTOCAD_POSTSCRIPT_FIGURE
1002
{
1000
PSFILL
1000
Grayscale
1000
Grayscale
1070
   100
1002
}
  0
LINE
  5
184F5
330
180D1
100
AcDbEntity
  8
YODOROGO
100
AcDbLine
 10
13888.80217064596
 20
969.8747482146441
 30
0.0
 11
13888.80217064596
 21
977.8747482146435
 31
0.0
1001
AUTOCAD_POSTSCRIPT_FIGURE
1002
{
1000
PSFILL
1000
Grayscale
1000
Grayscale
1070
   100
1002
}
  0
LINE
  5
184F6
330
180D1
100
AcDbEntity
  8
YODOROGO
100
AcDbLine
 10
13900.80217064596
 20
969.8747482146441
 30
0.0
 11
13888.80217064596
 21
969.8747482146441
 31
0.0
1001
AUTOCAD_POSTSCRIPT_FIGURE
1002
{
1000
PSFILL
1000
Grayscale
1000
Grayscale
1070
   100
1002
}
  0
LINE
  5
184F7
330
180D1
100
AcDbEntity
  8
YODOROGO
100
AcDbLine
 10
13900.80217064596
 20
957.3932903968525
 30
0.0
 11
13900.80217064596
 21
969.8747482146441
 31
0.0
1001
AUTOCAD_POSTSCRIPT_FIGURE
1002
{
1000
PSFILL
1000
Grayscale
1000
Grayscale
1070
   100
1002
}
  0
LINE
  5
184F8
330
180D1
100
AcDbEntity
  8
YODOROGO
100
AcDbLine
 10
13888.80217064596
 20
929.8883739758355
 30
0.0
 11
13900.80217064596
 21
957.3932903968525
 31
0.0
1001
AUTOCAD_POSTSCRIPT_FIGURE
1002
{
1000
PSFILL
1000
Grayscale
1000
Grayscale
1070
   100
1002
}
  0
LINE
  5
184F9
330
180D1
100
AcDbEntity
  8
YODOROGO
100
AcDbLine
 10
13888.80217064596
 20
921.8883739758362
 30
0.0
 11
13888.80217064596
 21
929.8883739758355
 31
0.0
1001
AUTOCAD_POSTSCRIPT_FIGURE
1002
{
1000
PSFILL
1000
Grayscale
1000
Grayscale
1070
   100
1002
}
  0
LINE
  5
184FA
330
180D1
100
AcDbEntity
  8
YODOROGO
100
AcDbLine
 10
14128.80217064596
 20
933.8747482146439
 30
0.0
 11
14200.80217064594
 21
912.4388128201532
 31
0.0
1001
AUTOCAD_POSTSCRIPT_FIGURE
1002
{
1000
PSFILL
1000
Grayscale
1000
Grayscale
1070
   100
1002
}
  0
LINE
  5
184FB
330
180D1
100
AcDbEntity
  8
YODOROGO
100
AcDbLine
 10
14200.80217064594
 20
876.4388128201531
 30
0.0
 11
14128.80217064596
 21
897.8747482146435
 31
0.0
1001
AUTOCAD_POSTSCRIPT_FIGURE
1002
{
1000
PSFILL
1000
Grayscale
1000
Grayscale
1070
   100
1002
}
  0
LINE
  5
184FC
330
180D1
100
AcDbEntity
  8
YODOROGO
100
AcDbLine
 10
14200.80217064594
 20
992.4388128201531
 30
0.0
 11
14128.80217064596
 21
1013.874748214644
 31
0.0
1001
AUTOCAD_POSTSCRIPT_FIGURE
1002
{
1000
PSFILL
1000
Grayscale
1000
Grayscale
1070
   100
1002
}
  0
LINE
  5
184FD
330
180D1
100
AcDbEntity
  8
YODOROGO
100
AcDbLine
 10
14128.80217064596
 20
979.874748214644
 30
0.0
 11
14200.80217064594
 21
958.4388128201537
 31
0.0
1001
AUTOCAD_POSTSCRIPT_FIGURE
1002
{
1000
PSFILL
1000
Grayscale
1000
Grayscale
1070
   100
1002
}
  0
LINE
  5
184FE
330
180D1
100
AcDbEntity
  8
YODOROGO
100
AcDbLine
 10
14128.80217064596
 20
897.8747482146435
 30
0.0
 11
14128.80217064596
 21
933.8747482146439
 31
0.0
1001
AUTOCAD_POSTSCRIPT_FIGURE
1002
{
1000
PSFILL
1000
Grayscale
1000
Grayscale
1070
   100
1002
}
  0
LINE
  5
184FF
330
180D1
100
AcDbEntity
  8
YODOROGO
100
AcDbLine
 10
14128.80217064596
 20
1013.874748214644
 30
0.0
 11
14128.80217064596
 21
979.874748214644
 31
0.0
1001
AUTOCAD_POSTSCRIPT_FIGURE
1002
{
1000
PSFILL
1000
Grayscale
1000
Grayscale
1070
   100
1002
}
  0
LINE
  5
18500
330
180D1
100
AcDbEntity
  8
YODOROGO
100
AcDbLine
 10
14040.11816010337
 20
969.8747482146441
 30
0.0
 11
14064.80217064595
 21
873.8747482146434
 31
0.0
1001
AUTOCAD_POSTSCRIPT_FIGURE
1002
{
1000
PSFILL
1000
Grayscale
1000
Grayscale
1070
   100
1002
}
  0
LINE
  5
18501
330
180D1
100
AcDbEntity
  8
YODOROGO
100
AcDbLine
 10
13988.80217064596
 20
969.8747482146441
 30
0.0
 11
14040.11816010337
 21
969.8747482146441
 31
0.0
1001
AUTOCAD_POSTSCRIPT_FIGURE
1002
{
1000
PSFILL
1000
Grayscale
1000
Grayscale
1070
   100
1002
}
  0
LINE
  5
18502
330
180D1
100
AcDbEntity
  8
YODOROGO
100
AcDbLine
 10
13988.80217064596
 20
977.8747482146435
 30
0.0
 11
13988.80217064596
 21
969.8747482146441
 31
0.0
1001
AUTOCAD_POSTSCRIPT_FIGURE
1002
{
1000
PSFILL
1000
Grayscale
1000
Grayscale
1070
   100
1002
}
  0
LINE
  5
18503
330
180D1
100
AcDbEntity
  8
YODOROGO
100
AcDbLine
 10
14038.30343925995
 20
977.8747482146435
 30
0.0
 11
13988.80217064596
 21
977.8747482146435
 31
0.0
1001
AUTOCAD_POSTSCRIPT_FIGURE
1002
{
1000
PSFILL
1000
Grayscale
1000
Grayscale
1070
   100
1002
}
  0
LINE
  5
18504
330
180D1
100
AcDbEntity
  8
YODOROGO
100
AcDbLine
 10
14035.58135799485
 20
989.8747482146442
 30
0.0
 11
14038.30343925995
 21
977.8747482146435
 31
0.0
1001
AUTOCAD_POSTSCRIPT_FIGURE
1002
{
1000
PSFILL
1000
Grayscale
1000
Grayscale
1070
   100
1002
}
  0
LINE
  5
18505
330
180D1
100
AcDbEntity
  8
YODOROGO
100
AcDbLine
 10
14045.58135799485
 20
989.8747482146442
 30
0.0
 11
14035.58135799485
 21
989.8747482146442
 31
0.0
1001
AUTOCAD_POSTSCRIPT_FIGURE
1002
{
1000
PSFILL
1000
Grayscale
1000
Grayscale
1070
   100
1002
}
  0
LINE
  5
18506
330
180D1
100
AcDbEntity
  8
YODOROGO
100
AcDbLine
 10
14047.90343925997
 20
977.8747482146435
 30
0.0
 11
14045.58135799485
 21
989.8747482146442
 31
0.0
1001
AUTOCAD_POSTSCRIPT_FIGURE
1002
{
1000
PSFILL
1000
Grayscale
1000
Grayscale
1070
   100
1002
}
  0
LINE
  5
18507
330
180D1
100
AcDbEntity
  8
YODOROGO
100
AcDbLine
 10
14060.80217064596
 20
977.8747482146435
 30
0.0
 11
14047.90343925997
 21
977.8747482146435
 31
0.0
1001
AUTOCAD_POSTSCRIPT_FIGURE
1002
{
1000
PSFILL
1000
Grayscale
1000
Grayscale
1070
   100
1002
}
  0
LINE
  5
18508
330
180D1
100
AcDbEntity
  8
YODOROGO
100
AcDbLine
 10
14060.80217064596
 20
989.8747482146442
 30
0.0
 11
14060.80217064596
 21
977.8747482146435
 31
0.0
1001
AUTOCAD_POSTSCRIPT_FIGURE
1002
{
1000
PSFILL
1000
Grayscale
1000
Grayscale
1070
   100
1002
}
  0
LINE
  5
18509
330
180D1
100
AcDbEntity
  8
YODOROGO
100
AcDbLine
 10
14068.80217064596
 20
989.8747482146442
 30
0.0
 11
14060.80217064596
 21
989.8747482146442
 31
0.0
1001
AUTOCAD_POSTSCRIPT_FIGURE
1002
{
1000
PSFILL
1000
Grayscale
1000
Grayscale
1070
   100
1002
}
  0
LINE
  5
1850A
330
180D1
100
AcDbEntity
  8
YODOROGO
100
AcDbLine
 10
14068.80217064596
 20
977.8747482146435
 30
0.0
 11
14068.80217064596
 21
989.8747482146442
 31
0.0
1001
AUTOCAD_POSTSCRIPT_FIGURE
1002
{
1000
PSFILL
1000
Grayscale
1000
Grayscale
1070
   100
1002
}
  0
LINE
  5
1850B
330
180D1
100
AcDbEntity
  8
YODOROGO
100
AcDbLine
 10
14068.80217064596
 20
969.8747482146441
 30
0.0
 11
14068.80217064596
 21
977.8747482146435
 31
0.0
1001
AUTOCAD_POSTSCRIPT_FIGURE
1002
{
1000
PSFILL
1000
Grayscale
1000
Grayscale
1070
   100
1002
}
  0
LINE
  5
1850C
330
180D1
100
AcDbEntity
  8
YODOROGO
100
AcDbLine
 10
14049.45149343671
 20
969.8747482146441
 30
0.0
 11
14068.80217064596
 21
969.8747482146441
 31
0.0
1001
AUTOCAD_POSTSCRIPT_FIGURE
1002
{
1000
PSFILL
1000
Grayscale
1000
Grayscale
1070
   100
1002
}
  0
LINE
  5
1850D
330
180D1
100
AcDbEntity
  8
YODOROGO
100
AcDbLine
 10
14068.80217064596
 20
873.8747482146434
 30
0.0
 11
14049.45149343671
 21
969.8747482146441
 31
0.0
1001
AUTOCAD_POSTSCRIPT_FIGURE
1002
{
1000
PSFILL
1000
Grayscale
1000
Grayscale
1070
   100
1002
}
  0
LINE
  5
1850E
330
180D1
100
AcDbEntity
  8
YODOROGO
100
AcDbLine
 10
14064.80217064595
 20
873.8747482146434
 30
0.0
 11
14068.80217064596
 21
873.8747482146434
 31
0.0
1001
AUTOCAD_POSTSCRIPT_FIGURE
1002
{
1000
PSFILL
1000
Grayscale
1000
Grayscale
1070
   100
1002
}
  0
LINE
  5
1850F
330
180D1
100
AcDbEntity
  8
YODOROGO
100
AcDbLine
 10
14039.03460996689
 20
887.8703881493972
 30
0.0
 11
13988.80217064596
 21
873.8747482146434
 31
0.0
  0
LINE
  5
18510
330
180D1
100
AcDbEntity
  8
YODOROGO
100
AcDbLine
 10
14039.03460996689
 20
899.3344897645364
 30
0.0
 11
14039.03460996689
 21
887.8703881493972
 31
0.0
  0
LINE
  5
18511
330
180D1
100
AcDbEntity
  8
YODOROGO
100
AcDbLine
 10
14016.91839030643
 20
893.4084665668834
 30
0.0
 11
14039.03460996689
 21
899.3344897645364
 31
0.0
  0
LINE
  5
18512
330
180D1
100
AcDbEntity
  8
YODOROGO
100
AcDbLine
 10
14016.91839030643
 20
936.2841744681499
 30
0.0
 11
14016.91839030643
 21
893.4084665668834
 31
0.0
  0
LINE
  5
18513
330
180D1
100
AcDbEntity
  8
YODOROGO
100
AcDbLine
 10
14039.03460996689
 20
936.2841744681499
 30
0.0
 11
14016.91839030643
 21
936.2841744681499
 31
0.0
  0
LINE
  5
18514
330
180D1
100
AcDbEntity
  8
YODOROGO
100
AcDbLine
 10
14039.03460996689
 20
946.2841744681487
 30
0.0
 11
14039.03460996689
 21
936.2841744681499
 31
0.0
  0
LINE
  5
18515
330
180D1
100
AcDbEntity
  8
YODOROGO
100
AcDbLine
 10
13988.80217064596
 20
946.2841744681487
 30
0.0
 11
14039.03460996689
 21
946.2841744681487
 31
0.0
  0
LINE
  5
18516
330
180D1
100
AcDbEntity
  8
YODOROGO
100
AcDbLine
 10
13988.80217064596
 20
936.2841744681499
 30
0.0
 11
13988.80217064596
 21
946.2841744681487
 31
0.0
  0
LINE
  5
18517
330
180D1
100
AcDbEntity
  8
YODOROGO
100
AcDbLine
 10
14010.91839030643
 20
936.2841744681499
 30
0.0
 11
13988.80217064596
 21
936.2841744681499
 31
0.0
  0
LINE
  5
18518
330
180D1
100
AcDbEntity
  8
YODOROGO
100
AcDbLine
 10
14010.91839030643
 20
892.3366697971587
 30
0.0
 11
14010.91839030643
 21
936.2841744681499
 31
0.0
  0
LINE
  5
18519
330
180D1
100
AcDbEntity
  8
YODOROGO
100
AcDbLine
 10
13988.80217064596
 20
885.8747482146432
 30
0.0
 11
14010.91839030643
 21
892.3366697971587
 31
0.0
  0
LINE
  5
1851A
330
180D1
100
AcDbEntity
  8
YODOROGO
100
AcDbLine
 10
13988.80217064596
 20
873.8747482146434
 30
0.0
 11
13988.80217064596
 21
885.8747482146432
 31
0.0
  0
LINE
  5
1851B
330
180D1
100
AcDbEntity
  8
YODOROGO
100
AcDbLine
 10
14000.80217064596
 20
853.874748214644
 30
0.0
 11
14000.80217064596
 21
841.8747482146434
 31
0.0
  0
LINE
  5
1851C
330
180D1
100
AcDbEntity
  8
YODOROGO
100
AcDbLine
 10
14008.80217064596
 20
853.874748214644
 30
0.0
 11
14000.80217064596
 21
853.874748214644
 31
0.0
  0
LINE
  5
1851D
330
180D1
100
AcDbEntity
  8
YODOROGO
100
AcDbLine
 10
14008.80217064596
 20
841.8747482146434
 30
0.0
 11
14008.80217064596
 21
853.874748214644
 31
0.0
  0
LINE
  5
1851E
330
180D1
100
AcDbEntity
  8
YODOROGO
100
AcDbLine
 10
14020.45660200844
 20
841.8747482146434
 30
0.0
 11
14008.80217064596
 21
841.8747482146434
 31
0.0
  0
LINE
  5
1851F
330
180D1
100
AcDbEntity
  8
YODOROGO
100
AcDbLine
 10
14000.80217064596
 20
841.8747482146434
 30
0.0
 11
13988.80217064596
 21
841.8747482146434
 31
0.0
  0
LINE
  5
18520
330
180D1
100
AcDbEntity
  8
YODOROGO
100
AcDbLine
 10
14041.06776011546
 20
853.874748214644
 30
0.0
 11
14049.06776011545
 21
853.874748214644
 31
0.0
1001
AUTOCAD_POSTSCRIPT_FIGURE
1002
{
1000
PSFILL
1000
Grayscale
1000
Grayscale
1070
   100
1002
}
  0
LINE
  5
18521
330
180D1
100
AcDbEntity
  8
YODOROGO
100
AcDbLine
 10
14200.80217064594
 20
912.4388128201532
 30
0.0
 11
14200.80217064594
 21
876.4388128201531
 31
0.0
1001
AUTOCAD_POSTSCRIPT_FIGURE
1002
{
1000
PSFILL
1000
Grayscale
1000
Grayscale
1070
   100
1002
}
  0
LINE
  5
18522
330
180D1
100
AcDbEntity
  8
YODOROGO
100
AcDbLine
 10
14200.80217064594
 20
958.4388128201537
 30
0.0
 11
14200.80217064594
 21
992.4388128201531
 31
0.0
1001
AUTOCAD_POSTSCRIPT_FIGURE
1002
{
1000
PSFILL
1000
Grayscale
1000
Grayscale
1070
   100
1002
}
  0
LINE
  5
18523
330
180D1
100
AcDbEntity
  8
YODOROGO
100
AcDbLine
 10
14216.80217064594
 20
909.8747482146439
 30
0.0
 11
14216.80217064594
 21
873.8747482146449
 31
0.0
  0
LINE
  5
18524
330
180D1
100
AcDbEntity
  8
YODOROGO
100
AcDbLine
 10
14248.80217064594
 20
853.874748214644
 30
0.0
 11
14216.80217064594
 21
853.874748214644
 31
0.0
  0
LINE
  5
18525
330
180D1
100
AcDbEntity
  8
YODOROGO
100
AcDbLine
 10
14216.80217064594
 20
873.8747482146449
 30
0.0
 11
14292.80217064596
 21
873.8747482146449
 31
0.0
  0
LINE
  5
18526
330
180D1
100
AcDbEntity
  8
YODOROGO
100
AcDbLine
 10
14248.80217064594
 20
933.8747482146439
 30
0.0
 11
14216.80217064594
 21
933.8747482146439
 31
0.0
  0
LINE
  5
18527
330
180D1
100
AcDbEntity
  8
YODOROGO
100
AcDbLine
 10
14248.80217064594
 20
961.8747482146432
 30
0.0
 11
14248.80217064594
 21
933.8747482146439
 31
0.0
  0
LINE
  5
18528
330
180D1
100
AcDbEntity
  8
YODOROGO
100
AcDbLine
 10
14292.80217064596
 20
993.8747482146439
 30
0.0
 11
14292.80217064596
 21
1013.874748214644
 31
0.0
  0
LINE
  5
18529
330
180D1
100
AcDbEntity
  8
YODOROGO
100
AcDbLine
 10
14216.80217064594
 20
993.8747482146439
 30
0.0
 11
14292.80217064596
 21
993.8747482146439
 31
0.0
  0
LINE
  5
1852A
330
180D1
100
AcDbEntity
  8
YODOROGO
100
AcDbLine
 10
14216.80217064594
 20
933.8747482146439
 30
0.0
 11
14216.80217064594
 21
993.8747482146439
 31
0.0
  0
LINE
  5
1852B
330
180D1
100
AcDbEntity
  8
YODOROGO
100
AcDbLine
 10
14500.80217064594
 20
1013.874748214644
 30
0.0
 11
14500.80217064594
 21
809.8747482146441
 31
0.0
  0
LINE
  5
1852C
330
180D1
100
AcDbEntity
  8
YODOROGO
100
AcDbLine
 10
14536.80217064596
 20
789.8747482146441
 30
0.0
 11
14536.80217064596
 21
1013.874748214644
 31
0.0
  0
LINE
  5
1852D
330
180D1
100
AcDbEntity
  8
YODOROGO
100
AcDbLine
 10
14630.80217064596
 20
745.8747482146431
 30
0.0
 11
14630.80217064596
 21
1003.874748214644
 31
0.0
  0
LINE
  5
1852E
330
180D1
100
AcDbEntity
  8
YODOROGO
100
AcDbLine
 10
14598.80217064596
 20
1003.874748214644
 30
0.0
 11
14598.80217064596
 21
745.8747482146431
 31
0.0
  0
LINE
  5
1852F
330
180D1
100
AcDbEntity
  8
YODOROGO
100
AcDbLine
 10
14692.80217064596
 20
1013.874748214644
 30
0.0
 11
14692.80217064596
 21
713.8747482146435
 31
0.0
  0
LINE
  5
18530
330
180D1
100
AcDbEntity
  8
YODOROGO
100
AcDbLine
 10
14728.80217064596
 20
713.8747482146435
 30
0.0
 11
14728.80217064596
 21
1013.874748214644
 31
0.0
  0
LINE
  5
18531
330
180D1
100
AcDbEntity
  8
YODOROGO
100
AcDbLine
 10
14328.80217064594
 20
833.8747482146439
 30
0.0
 11
14328.80217064594
 21
873.8747482146449
 31
0.0
  0
LINE
  5
18532
330
180D1
100
AcDbEntity
  8
YODOROGO
100
AcDbLine
 10
14942.80217064596
 20
853.874748214644
 30
0.0
 11
14942.80217064596
 21
833.8747482146439
 31
0.0
  0
LINE
  5
18533
330
180D1
100
AcDbEntity
  8
YODOROGO
100
AcDbLine
 10
14942.80217064596
 20
853.874748214644
 30
0.0
 11
14942.80217064596
 21
833.8747482146439
 31
0.0
  0
ARC
  5
18534
330
180D1
100
AcDbEntity
  8
YODOROGO
100
AcDbCircle
 10
14453.45578809342
 20
809.1089322211363
 30
0.0
 40
47.35257558937082
100
AcDbArc
 50
274.052441629071
 51
0.9266642149310712
  0
ARC
  5
18535
330
180D1
100
AcDbEntity
  8
YODOROGO
100
AcDbCircle
 10
14454.5930853599
 20
796.30536430522
 30
0.0
 40
82.46021178042756
100
AcDbArc
 50
271.5351210653776
 51
355.5272775058505
  0
LINE
  5
18536
330
180D1
100
AcDbEntity
  8
YODOROGO
100
AcDbLine
 10
14456.80217064596
 20
761.8747482146434
 30
0.0
 11
14456.80217064596
 21
713.8747482146435
 31
0.0
  0
LINE
  5
18537
330
180D1
100
AcDbEntity
  8
YODOROGO
100
AcDbLine
 10
14396.80217064594
 20
833.8747482146439
 30
0.0
 11
14328.80217064594
 21
833.8747482146439
 31
0.0
  0
LINE
  5
18538
330
180D1
100
AcDbEntity
  8
YODOROGO
100
AcDbLine
 10
14396.80217064594
 20
801.8747482146444
 30
0.0
 11
14396.80217064594
 21
833.8747482146439
 31
0.0
  0
LINE
  5
18539
330
180D1
100
AcDbEntity
  8
YODOROGO
100
AcDbLine
 10
14328.80217064594
 20
801.8747482146444
 30
0.0
 11
14396.80217064594
 21
801.8747482146444
 31
0.0
  0
LINE
  5
1853A
330
180D1
100
AcDbEntity
  8
YODOROGO
100
AcDbLine
 10
14328.80217064594
 20
761.8747482146434
 30
0.0
 11
14328.80217064594
 21
801.8747482146444
 31
0.0
  0
LINE
  5
1853B
330
180D1
100
AcDbEntity
  8
YODOROGO
100
AcDbLine
 10
14396.80217064594
 20
761.8747482146434
 30
0.0
 11
14328.80217064594
 21
761.8747482146434
 31
0.0
  0
LINE
  5
1853C
330
180D1
100
AcDbEntity
  8
YODOROGO
100
AcDbLine
 10
14396.80217064594
 20
713.8747482146435
 30
0.0
 11
14396.80217064594
 21
761.8747482146434
 31
0.0
  0
LINE
  5
1853D
330
180D1
100
AcDbEntity
  8
YODOROGO
100
AcDbLine
 10
14598.80217064596
 20
745.8747482146431
 30
0.0
 11
14630.80217064596
 21
745.8747482146431
 31
0.0
  0
LINE
  5
1853E
330
180D1
100
AcDbEntity
  8
YODOROGO
100
AcDbLine
 10
14692.80217064596
 20
713.8747482146435
 30
0.0
 11
14728.80217064596
 21
713.8747482146435
 31
0.0
  0
LINE
  5
1853F
330
180D1
100
AcDbEntity
  8
YODOROGO
100
AcDbLine
 10
14868.80217064596
 20
764.2207260852816
 30
0.0
 11
14868.80217064596
 21
713.8747482146435
 31
0.0
  0
LINE
  5
18540
330
180D1
100
AcDbEntity
  8
YODOROGO
100
AcDbLine
 10
14808.80217064596
 20
713.8747482146435
 30
0.0
 11
14868.80217064596
 21
764.2207260852816
 31
0.0
  0
LINE
  5
18541
330
180D1
100
AcDbEntity
  8
YODOROGO
100
AcDbLine
 10
14808.80217064596
 20
773.874748214644
 30
0.0
 11
14808.80217064596
 21
713.8747482146435
 31
0.0
  0
LINE
  5
18542
330
180D1
100
AcDbEntity
  8
YODOROGO
100
AcDbLine
 10
14856.47231434973
 20
813.8747482146435
 30
0.0
 11
14808.80217064596
 21
773.874748214644
 31
0.0
  0
LINE
  5
18543
330
180D1
100
AcDbEntity
  8
YODOROGO
100
AcDbLine
 10
14808.80217064596
 20
813.8747482146435
 30
0.0
 11
14856.47231434973
 21
813.8747482146435
 31
0.0
  0
LINE
  5
18544
330
180D1
100
AcDbEntity
  8
YODOROGO
100
AcDbLine
 10
14808.80217064596
 20
833.8747482146439
 30
0.0
 11
14808.80217064596
 21
813.8747482146435
 31
0.0
  0
LINE
  5
18545
330
180D1
100
AcDbEntity
  8
YODOROGO
100
AcDbLine
 10
14942.80217064596
 20
833.8747482146439
 30
0.0
 11
14808.80217064596
 21
833.8747482146439
 31
0.0
  0
LINE
  5
18546
330
180D1
100
AcDbEntity
  8
YODOROGO
100
AcDbLine
 10
14958.80217064596
 20
813.8747482146435
 30
0.0
 11
14888.80217064596
 21
813.8747482146435
 31
0.0
  0
LINE
  5
18547
330
180D1
100
AcDbEntity
  8
YODOROGO
100
AcDbLine
 10
14888.80217064596
 20
781.0027187088283
 30
0.0
 11
14885.70493649264
 21
778.403830673117
 31
0.0
  0
LINE
  5
18548
330
180D1
100
AcDbEntity
  8
YODOROGO
100
AcDbLine
 10
14888.80217064596
 20
813.8747482146435
 30
0.0
 11
14888.80217064596
 21
781.0027187088283
 31
0.0
  0
LINE
  5
18549
330
180D1
100
AcDbEntity
  8
YODOROGO
100
AcDbLine
 10
14868.80217064596
 20
764.2207260852816
 30
0.0
 11
14868.80217064596
 21
713.8747482146435
 31
0.0
  0
LINE
  5
1854A
330
180D1
100
AcDbEntity
  8
YODOROGO
100
AcDbLine
 10
14808.80217064596
 20
713.8747482146435
 30
0.0
 11
14868.80217064596
 21
764.2207260852816
 31
0.0
  0
LINE
  5
1854B
330
180D1
100
AcDbEntity
  8
YODOROGO
100
AcDbLine
 10
14808.80217064596
 20
773.874748214644
 30
0.0
 11
14808.80217064596
 21
713.8747482146435
 31
0.0
  0
LINE
  5
1854C
330
180D1
100
AcDbEntity
  8
YODOROGO
100
AcDbLine
 10
14856.47231434973
 20
813.8747482146435
 30
0.0
 11
14808.80217064596
 21
773.874748214644
 31
0.0
  0
LINE
  5
1854D
330
180D1
100
AcDbEntity
  8
YODOROGO
100
AcDbLine
 10
14808.80217064596
 20
813.8747482146435
 30
0.0
 11
14856.47231434973
 21
813.8747482146435
 31
0.0
  0
LINE
  5
1854E
330
180D1
100
AcDbEntity
  8
YODOROGO
100
AcDbLine
 10
14808.80217064596
 20
833.8747482146439
 30
0.0
 11
14808.80217064596
 21
813.8747482146435
 31
0.0
  0
LINE
  5
1854F
330
180D1
100
AcDbEntity
  8
YODOROGO
100
AcDbLine
 10
14942.80217064596
 20
833.8747482146439
 30
0.0
 11
14808.80217064596
 21
833.8747482146439
 31
0.0
  0
LINE
  5
18550
330
180D1
100
AcDbEntity
  8
YODOROGO
100
AcDbLine
 10
14396.80217064594
 20
873.8747482146449
 30
0.0
 11
14396.80217064594
 21
909.8747482146439
 31
0.0
  0
LINE
  5
18551
330
180D1
100
AcDbEntity
  8
YODOROGO
100
AcDbLine
 10
14328.80217064594
 20
873.8747482146449
 30
0.0
 11
14396.80217064594
 21
873.8747482146449
 31
0.0
  0
LINE
  5
18552
330
180D1
100
AcDbEntity
  8
YODOROGO
100
AcDbLine
 10
14364.80217064596
 20
933.8747482146439
 30
0.0
 11
14364.80217064596
 21
961.8747482146432
 31
0.0
  0
LINE
  5
18553
330
180D1
100
AcDbEntity
  8
YODOROGO
100
AcDbLine
 10
14396.80217064594
 20
933.8747482146439
 30
0.0
 11
14364.80217064596
 21
933.8747482146439
 31
0.0
  0
LINE
  5
18554
330
180D1
100
AcDbEntity
  8
YODOROGO
100
AcDbLine
 10
14396.80217064594
 20
973.8747482146434
 30
0.0
 11
14396.80217064594
 21
933.8747482146439
 31
0.0
  0
ARC
  5
18555
330
180D1
100
AcDbEntity
  8
YODOROGO
100
AcDbCircle
 10
14376.80217064594
 20
973.8747482146434
 30
0.0
 40
20.0
100
AcDbArc
 50
0.0
 51
90.0
  0
LINE
  5
18556
330
180D1
100
AcDbEntity
  8
YODOROGO
100
AcDbLine
 10
14328.80217064596
 20
993.8747482146439
 30
0.0
 11
14376.80217064594
 21
993.8747482146439
 31
0.0
  0
LINE
  5
18557
330
180D1
100
AcDbEntity
  8
YODOROGO
100
AcDbLine
 10
14328.80217064596
 20
1013.874748214644
 30
0.0
 11
14328.80217064596
 21
993.8747482146439
 31
0.0
  0
LINE
  5
18558
330
180D1
100
AcDbEntity
  8
YODOROGO
100
AcDbLine
 10
14536.80217064596
 20
1013.874748214644
 30
0.0
 11
14500.80217064594
 21
1013.874748214644
 31
0.0
  0
LINE
  5
18559
330
180D1
100
AcDbEntity
  8
YODOROGO
100
AcDbLine
 10
14630.80217064596
 20
1003.874748214644
 30
0.0
 11
14598.80217064596
 21
1003.874748214644
 31
0.0
  0
LINE
  5
1855A
330
180D1
100
AcDbEntity
  8
YODOROGO
100
AcDbLine
 10
14728.80217064596
 20
1013.874748214644
 30
0.0
 11
14692.80217064596
 21
1013.874748214644
 31
0.0
  0
LINE
  5
1855B
330
180D1
100
AcDbEntity
  8
YODOROGO
100
AcDbLine
 10
14836.80217064596
 20
853.874748214644
 30
0.0
 11
14836.80217064596
 21
885.8747482146441
 31
0.0
1001
AUTOCAD_POSTSCRIPT_FIGURE
1002
{
1000
PSFILL
1000
Grayscale
1000
Grayscale
1070
    25
1002
}
  0
LINE
  5
1855C
330
180D1
100
AcDbEntity
  8
YODOROGO
100
AcDbLine
 10
14808.80217064596
 20
853.874748214644
 30
0.0
 11
14836.80217064596
 21
853.874748214644
 31
0.0
1001
AUTOCAD_POSTSCRIPT_FIGURE
1002
{
1000
PSFILL
1000
Grayscale
1000
Grayscale
1070
    25
1002
}
  0
LINE
  5
1855D
330
180D1
100
AcDbEntity
  8
YODOROGO
100
AcDbLine
 10
14808.80217064596
 20
909.8747482146439
 30
0.0
 11
14808.80217064596
 21
853.874748214644
 31
0.0
1001
AUTOCAD_POSTSCRIPT_FIGURE
1002
{
1000
PSFILL
1000
Grayscale
1000
Grayscale
1070
    25
1002
}
  0
LINE
  5
1855E
330
180D1
100
AcDbEntity
  8
YODOROGO
100
AcDbLine
 10
14882.80217064596
 20
909.8747482146439
 30
0.0
 11
14808.80217064596
 21
909.8747482146439
 31
0.0
1001
AUTOCAD_POSTSCRIPT_FIGURE
1002
{
1000
PSFILL
1000
Grayscale
1000
Grayscale
1070
    25
1002
}
  0
LINE
  5
1855F
330
180D1
100
AcDbEntity
  8
YODOROGO
100
AcDbLine
 10
14882.80217064596
 20
929.874748214644
 30
0.0
 11
14882.80217064596
 21
909.8747482146439
 31
0.0
1001
AUTOCAD_POSTSCRIPT_FIGURE
1002
{
1000
PSFILL
1000
Grayscale
1000
Grayscale
1070
    25
1002
}
  0
LINE
  5
18560
330
180D1
100
AcDbEntity
  8
YODOROGO
100
AcDbLine
 10
14808.80217064596
 20
929.874748214644
 30
0.0
 11
14882.80217064596
 21
929.874748214644
 31
0.0
1001
AUTOCAD_POSTSCRIPT_FIGURE
1002
{
1000
PSFILL
1000
Grayscale
1000
Grayscale
1070
    25
1002
}
  0
LINE
  5
18561
330
180D1
100
AcDbEntity
  8
YODOROGO
100
AcDbLine
 10
14808.80217064596
 20
953.874748214644
 30
0.0
 11
14808.80217064596
 21
929.874748214644
 31
0.0
1001
AUTOCAD_POSTSCRIPT_FIGURE
1002
{
1000
PSFILL
1000
Grayscale
1000
Grayscale
1070
    25
1002
}
  0
LINE
  5
18562
330
180D1
100
AcDbEntity
  8
YODOROGO
100
AcDbLine
 10
14882.80217064596
 20
953.874748214644
 30
0.0
 11
14808.80217064596
 21
953.874748214644
 31
0.0
1001
AUTOCAD_POSTSCRIPT_FIGURE
1002
{
1000
PSFILL
1000
Grayscale
1000
Grayscale
1070
    25
1002
}
  0
LINE
  5
18563
330
180D1
100
AcDbEntity
  8
YODOROGO
100
AcDbLine
 10
14882.80217064596
 20
973.8747482146434
 30
0.0
 11
14882.80217064596
 21
953.874748214644
 31
0.0
1001
AUTOCAD_POSTSCRIPT_FIGURE
1002
{
1000
PSFILL
1000
Grayscale
1000
Grayscale
1070
    25
1002
}
  0
LINE
  5
18564
330
180D1
100
AcDbEntity
  8
YODOROGO
100
AcDbLine
 10
14808.80217064596
 20
973.8747482146434
 30
0.0
 11
14882.80217064596
 21
973.8747482146434
 31
0.0
1001
AUTOCAD_POSTSCRIPT_FIGURE
1002
{
1000
PSFILL
1000
Grayscale
1000
Grayscale
1070
    25
1002
}
  0
LINE
  5
18565
330
180D1
100
AcDbEntity
  8
YODOROGO
100
AcDbLine
 10
14808.80217064596
 20
1013.874748214644
 30
0.0
 11
14808.80217064596
 21
973.8747482146434
 31
0.0
1001
AUTOCAD_POSTSCRIPT_FIGURE
1002
{
1000
PSFILL
1000
Grayscale
1000
Grayscale
1070
    25
1002
}
  0
LINE
  5
18566
330
180D1
100
AcDbEntity
  8
YODOROGO
100
AcDbLine
 10
14832.80217064596
 20
1013.874748214644
 30
0.0
 11
14808.80217064596
 21
1013.874748214644
 31
0.0
1001
AUTOCAD_POSTSCRIPT_FIGURE
1002
{
1000
PSFILL
1000
Grayscale
1000
Grayscale
1070
    25
1002
}
  0
LINE
  5
18567
330
180D1
100
AcDbEntity
  8
YODOROGO
100
AcDbLine
 10
14832.80217064596
 20
997.8747482146435
 30
0.0
 11
14832.80217064596
 21
1013.874748214644
 31
0.0
1001
AUTOCAD_POSTSCRIPT_FIGURE
1002
{
1000
PSFILL
1000
Grayscale
1000
Grayscale
1070
    25
1002
}
  0
LINE
  5
18568
330
180D1
100
AcDbEntity
  8
YODOROGO
100
AcDbLine
 10
14882.80217064596
 20
997.8747482146435
 30
0.0
 11
14832.80217064596
 21
997.8747482146435
 31
0.0
1001
AUTOCAD_POSTSCRIPT_FIGURE
1002
{
1000
PSFILL
1000
Grayscale
1000
Grayscale
1070
    25
1002
}
  0
LINE
  5
18569
330
180D1
100
AcDbEntity
  8
YODOROGO
100
AcDbLine
 10
14882.80217064596
 20
1013.874748214644
 30
0.0
 11
14882.80217064596
 21
997.8747482146435
 31
0.0
1001
AUTOCAD_POSTSCRIPT_FIGURE
1002
{
1000
PSFILL
1000
Grayscale
1000
Grayscale
1070
    25
1002
}
  0
LINE
  5
1856A
330
180D1
100
AcDbEntity
  8
YODOROGO
100
AcDbLine
 10
14914.80217064596
 20
1013.874748214644
 30
0.0
 11
14882.80217064596
 21
1013.874748214644
 31
0.0
1001
AUTOCAD_POSTSCRIPT_FIGURE
1002
{
1000
PSFILL
1000
Grayscale
1000
Grayscale
1070
    25
1002
}
  0
LINE
  5
1856B
330
180D1
100
AcDbEntity
  8
YODOROGO
100
AcDbLine
 10
14914.80217064596
 20
997.8747482146435
 30
0.0
 11
14914.80217064596
 21
1013.874748214644
 31
0.0
1001
AUTOCAD_POSTSCRIPT_FIGURE
1002
{
1000
PSFILL
1000
Grayscale
1000
Grayscale
1070
    25
1002
}
  0
LINE
  5
1856C
330
180D1
100
AcDbEntity
  8
YODOROGO
100
AcDbLine
 10
14914.80217064596
 20
953.874748214644
 30
0.0
 11
14914.80217064596
 21
973.8747482146434
 31
0.0
1001
AUTOCAD_POSTSCRIPT_FIGURE
1002
{
1000
PSFILL
1000
Grayscale
1000
Grayscale
1070
    25
1002
}
  0
LINE
  5
1856D
330
180D1
100
AcDbEntity
  8
YODOROGO
100
AcDbLine
 10
14914.80217064596
 20
909.8747482146439
 30
0.0
 11
14914.80217064596
 21
929.874748214644
 31
0.0
1001
AUTOCAD_POSTSCRIPT_FIGURE
1002
{
1000
PSFILL
1000
Grayscale
1000
Grayscale
1070
    25
1002
}
  0
LINE
  5
1856E
330
180D1
100
AcDbEntity
  8
YODOROGO
100
AcDbLine
 10
14960.80217064594
 20
885.8747482146441
 30
0.0
 11
14960.80217064594
 21
853.874748214644
 31
0.0
1001
AUTOCAD_POSTSCRIPT_FIGURE
1002
{
1000
PSFILL
1000
Grayscale
1000
Grayscale
1070
    25
1002
}
  0
LINE
  5
1856F
330
180D1
100
AcDbEntity
  8
YODOROGO
100
AcDbLine
 10
14914.80217064596
 20
885.8747482146441
 30
0.0
 11
14960.80217064594
 21
885.8747482146441
 31
0.0
1001
AUTOCAD_POSTSCRIPT_FIGURE
1002
{
1000
PSFILL
1000
Grayscale
1000
Grayscale
1070
    25
1002
}
  0
LINE
  5
18570
330
180D1
100
AcDbEntity
  8
YODOROGO
100
AcDbLine
 10
14914.80217064596
 20
853.874748214644
 30
0.0
 11
14914.80217064596
 21
885.8747482146441
 31
0.0
1001
AUTOCAD_POSTSCRIPT_FIGURE
1002
{
1000
PSFILL
1000
Grayscale
1000
Grayscale
1070
    25
1002
}
  0
LINE
  5
18571
330
180D1
100
AcDbEntity
  8
YODOROGO
100
AcDbLine
 10
14882.80217064596
 20
853.874748214644
 30
0.0
 11
14914.80217064596
 21
853.874748214644
 31
0.0
1001
AUTOCAD_POSTSCRIPT_FIGURE
1002
{
1000
PSFILL
1000
Grayscale
1000
Grayscale
1070
    25
1002
}
  0
LINE
  5
18572
330
180D1
100
AcDbEntity
  8
YODOROGO
100
AcDbLine
 10
14882.80217064596
 20
885.8747482146441
 30
0.0
 11
14882.80217064596
 21
853.874748214644
 31
0.0
1001
AUTOCAD_POSTSCRIPT_FIGURE
1002
{
1000
PSFILL
1000
Grayscale
1000
Grayscale
1070
    25
1002
}
  0
LINE
  5
18573
330
180D1
100
AcDbEntity
  8
YODOROGO
100
AcDbLine
 10
14836.80217064596
 20
885.8747482146441
 30
0.0
 11
14882.80217064596
 21
885.8747482146441
 31
0.0
1001
AUTOCAD_POSTSCRIPT_FIGURE
1002
{
1000
PSFILL
1000
Grayscale
1000
Grayscale
1070
    25
1002
}
  0
ARC
  5
18574
330
180D1
100
AcDbEntity
  8
YODOROGO
100
AcDbCircle
 10
15529.75894667896
 20
801.3403687577881
 30
0.0
 40
89.11064055536078
100
AcDbArc
 50
281.0262749542534
 51
357.771135755738
  0
LINE
  5
18575
330
180D1
100
AcDbEntity
  8
YODOROGO
100
AcDbLine
 10
15706.80217064596
 20
953.874748214644
 30
0.0
 11
15582.80217064596
 21
953.874748214644
 31
0.0
  0
LINE
  5
18576
330
180D1
100
AcDbEntity
  8
YODOROGO
100
AcDbLine
 10
15706.80217064596
 20
1013.874748214644
 30
0.0
 11
15582.80217064596
 21
1013.874748214644
 31
0.0
  0
LINE
  5
18577
330
180D1
100
AcDbEntity
  8
YODOROGO
100
AcDbLine
 10
15582.80217064596
 20
981.8747482146434
 30
0.0
 11
15706.80217064596
 21
981.8747482146434
 31
0.0
  0
LINE
  5
18578
330
180D1
100
AcDbEntity
  8
YODOROGO
100
AcDbLine
 10
15395.80217064596
 20
781.8747482146434
 30
0.0
 11
15395.80217064596
 21
877.8747482146435
 31
0.0
  0
LINE
  5
18579
330
180D1
100
AcDbEntity
  8
YODOROGO
100
AcDbLine
 10
15381.80217064596
 20
845.8747482146444
 30
0.0
 11
15381.80217064596
 21
781.8747482146434
 31
0.0
  0
LINE
  5
1857A
330
180D1
100
AcDbEntity
  8
YODOROGO
100
AcDbLine
 10
15361.80217064596
 20
745.8747482146443
 30
0.0
 11
15361.80217064596
 21
845.8747482146444
 31
0.0
  0
LINE
  5
1857B
330
180D1
100
AcDbEntity
  8
YODOROGO
100
AcDbLine
 10
15449.80217064596
 20
845.8747482146444
 30
0.0
 11
15449.80217064596
 21
745.8747482146443
 31
0.0
  0
LINE
  5
1857C
330
180D1
100
AcDbEntity
  8
YODOROGO
100
AcDbLine
 10
15429.80217064596
 20
781.8747482146434
 30
0.0
 11
15429.80217064596
 21
845.8747482146444
 31
0.0
  0
LINE
  5
1857D
330
180D1
100
AcDbEntity
  8
YODOROGO
100
AcDbLine
 10
15415.80217064596
 20
877.8747482146435
 30
0.0
 11
15415.80217064596
 21
781.8747482146434
 31
0.0
  0
LINE
  5
1857E
330
180D1
100
AcDbEntity
  8
YODOROGO
100
AcDbLine
 10
15486.80217064596
 20
1013.874748214644
 30
0.0
 11
15486.80217064596
 21
733.8747482146435
 31
0.0
  0
LINE
  5
1857F
330
180D1
100
AcDbEntity
  8
YODOROGO
100
AcDbLine
 10
15322.80217064596
 20
713.8747482146435
 30
0.0
 11
15322.80217064596
 21
1013.874748214644
 31
0.0
  0
LINE
  5
18580
330
180D1
100
AcDbEntity
  8
YODOROGO
100
AcDbLine
 10
15348.80217064596
 20
981.8747482146434
 30
0.0
 11
15348.80217064596
 21
713.8747482146435
 31
0.0
  0
LINE
  5
18581
330
180D1
100
AcDbEntity
  8
YODOROGO
100
AcDbLine
 10
15462.80217064596
 20
773.874748214644
 30
0.0
 11
15462.80217064596
 21
981.8747482146434
 31
0.0
  0
LINE
  5
18582
330
180D1
100
AcDbEntity
  8
YODOROGO
100
AcDbLine
 10
15190.80217064596
 20
813.8747482146435
 30
0.0
 11
15190.80217064596
 21
839.8747482146442
 31
0.0
  0
LINE
  5
18583
330
180D1
100
AcDbEntity
  8
YODOROGO
100
AcDbLine
 10
15308.80217064596
 20
839.8747482146442
 30
0.0
 11
15308.80217064596
 21
813.8747482146435
 31
0.0
  0
LINE
  5
18584
330
180D1
100
AcDbEntity
  8
YODOROGO
100
AcDbLine
 10
15582.80217064596
 20
953.874748214644
 30
0.0
 11
15582.80217064596
 21
817.8747482146436
 31
0.0
  0
LINE
  5
18585
330
180D1
100
AcDbEntity
  8
YODOROGO
100
AcDbLine
 10
14974.80217064595
 20
833.8747482146439
 30
0.0
 11
14974.80217064595
 21
853.874748214644
 31
0.0
  0
LINE
  5
18586
330
180D1
100
AcDbEntity
  8
YODOROGO
100
AcDbLine
 10
14974.80217064595
 20
833.8747482146439
 30
0.0
 11
14974.80217064595
 21
853.874748214644
 31
0.0
  0
ARC
  5
18587
330
180D1
100
AcDbEntity
  8
YODOROGO
100
AcDbCircle
 10
15268.80217064596
 20
753.8747482146439
 30
0.0
 40
40.0
100
AcDbArc
 50
270.0
 51
0.0
  0
LINE
  5
18588
330
180D1
100
AcDbEntity
  8
YODOROGO
100
AcDbLine
 10
15284.80217064596
 20
799.8747482146441
 30
0.0
 11
15308.80217064596
 21
799.8747482146441
 31
0.0
  0
LINE
  5
18589
330
180D1
100
AcDbEntity
  8
YODOROGO
100
AcDbLine
 10
15308.80217064596
 20
813.8747482146435
 30
0.0
 11
15264.80217064596
 21
813.8747482146435
 31
0.0
  0
LINE
  5
1858A
330
180D1
100
AcDbEntity
  8
YODOROGO
100
AcDbLine
 10
15108.80217064596
 20
833.8747482146439
 30
0.0
 11
14974.80217064595
 21
833.8747482146439
 31
0.0
  0
LINE
  5
1858B
330
180D1
100
AcDbEntity
  8
YODOROGO
100
AcDbLine
 10
15108.80217064596
 20
813.8747482146435
 30
0.0
 11
15108.80217064596
 21
833.8747482146439
 31
0.0
  0
LINE
  5
1858C
330
180D1
100
AcDbEntity
  8
YODOROGO
100
AcDbLine
 10
15008.80217064596
 20
813.8747482146435
 30
0.0
 11
15108.80217064596
 21
813.8747482146435
 31
0.0
  0
ARC
  5
1858D
330
180D1
100
AcDbEntity
  8
YODOROGO
100
AcDbCircle
 10
15115.02941435068
 20
934.4428574764513
 30
0.0
 40
160.6888181426141
100
AcDbArc
 50
228.6181454618993
 51
245.660289248906
  0
LINE
  5
1858E
330
180D1
100
AcDbEntity
  8
YODOROGO
100
AcDbLine
 10
15052.80217064596
 20
801.8747482146444
 30
0.0
 11
15048.80217064598
 21
788.0364079349501
 31
0.0
  0
LINE
  5
1858F
330
180D1
100
AcDbEntity
  8
YODOROGO
100
AcDbLine
 10
15094.80217064596
 20
801.8747482146444
 30
0.0
 11
15052.80217064596
 21
801.8747482146444
 31
0.0
  0
LINE
  5
18590
330
180D1
100
AcDbEntity
  8
YODOROGO
100
AcDbLine
 10
15088.80217064596
 20
775.9088612367134
 30
0.0
 11
15094.80217064596
 21
801.8747482146444
 31
0.0
  0
ARC
  5
18591
330
180D1
100
AcDbEntity
  8
YODOROGO
100
AcDbCircle
 10
15115.02941435023
 20
934.4428574765014
 30
0.0
 40
160.6888181426453
100
AcDbArc
 50
260.6062929796992
 51
267.7790355655586
  0
LINE
  5
18592
330
180D1
100
AcDbEntity
  8
YODOROGO
100
AcDbLine
 10
15108.80217064596
 20
713.8747482146428
 30
0.0
 11
15108.80217064596
 21
773.874748214644
 31
0.0
  0
LINE
  5
18593
330
180D1
100
AcDbEntity
  8
YODOROGO
100
AcDbLine
 10
14968.80217064596
 20
740.6696674577553
 30
0.0
 11
14968.80217064596
 21
797.2655452655705
 31
0.0
  0
LINE
  5
18594
330
180D1
100
AcDbEntity
  8
YODOROGO
100
AcDbLine
 10
15108.80217064596
 20
833.8747482146439
 30
0.0
 11
14974.80217064595
 21
833.8747482146439
 31
0.0
  0
LINE
  5
18595
330
180D1
100
AcDbEntity
  8
YODOROGO
100
AcDbLine
 10
15108.80217064596
 20
813.8747482146435
 30
0.0
 11
15108.80217064596
 21
833.8747482146439
 31
0.0
  0
LINE
  5
18596
330
180D1
100
AcDbEntity
  8
YODOROGO
100
AcDbLine
 10
15008.80217064596
 20
813.8747482146435
 30
0.0
 11
15108.80217064596
 21
813.8747482146435
 31
0.0
  0
ARC
  5
18597
330
180D1
100
AcDbEntity
  8
YODOROGO
100
AcDbCircle
 10
15115.02941435068
 20
934.4428574764513
 30
0.0
 40
160.6888181426141
100
AcDbArc
 50
228.6181454618993
 51
245.660289248906
  0
LINE
  5
18598
330
180D1
100
AcDbEntity
  8
YODOROGO
100
AcDbLine
 10
15052.80217064596
 20
801.8747482146444
 30
0.0
 11
15048.80217064598
 21
788.0364079349501
 31
0.0
  0
LINE
  5
18599
330
180D1
100
AcDbEntity
  8
YODOROGO
100
AcDbLine
 10
15094.80217064596
 20
801.8747482146444
 30
0.0
 11
15052.80217064596
 21
801.8747482146444
 31
0.0
  0
LINE
  5
1859A
330
180D1
100
AcDbEntity
  8
YODOROGO
100
AcDbLine
 10
15088.80217064596
 20
775.9088612367134
 30
0.0
 11
15094.80217064596
 21
801.8747482146444
 31
0.0
  0
ARC
  5
1859B
330
180D1
100
AcDbEntity
  8
YODOROGO
100
AcDbCircle
 10
15115.02941435023
 20
934.4428574765014
 30
0.0
 40
160.6888181426453
100
AcDbArc
 50
260.6062929796992
 51
267.7790355655586
  0
LINE
  5
1859C
330
180D1
100
AcDbEntity
  8
YODOROGO
100
AcDbLine
 10
15108.80217064596
 20
713.8747482146428
 30
0.0
 11
15108.80217064596
 21
773.874748214644
 31
0.0
  0
LINE
  5
1859D
330
180D1
100
AcDbEntity
  8
YODOROGO
100
AcDbLine
 10
14968.80217064596
 20
740.6696674577553
 30
0.0
 11
14968.80217064596
 21
797.2655452655705
 31
0.0
  0
LINE
  5
1859E
330
180D1
100
AcDbEntity
  8
YODOROGO
100
AcDbLine
 10
15216.80217064596
 20
786.8747482146444
 30
0.0
 11
15190.80217064596
 21
786.8747482146444
 31
0.0
  0
LINE
  5
1859F
330
180D1
100
AcDbEntity
  8
YODOROGO
100
AcDbLine
 10
15216.80217064596
 20
800.8747482146432
 30
0.0
 11
15216.80217064596
 21
786.8747482146444
 31
0.0
  0
LINE
  5
185A0
330
180D1
100
AcDbEntity
  8
YODOROGO
100
AcDbLine
 10
15190.80217064596
 20
800.8747482146432
 30
0.0
 11
15216.80217064596
 21
800.8747482146432
 31
0.0
  0
LINE
  5
185A1
330
180D1
100
AcDbEntity
  8
YODOROGO
100
AcDbLine
 10
15190.80217064596
 20
786.8747482146444
 30
0.0
 11
15190.80217064596
 21
800.8747482146432
 31
0.0
  0
LINE
  5
185A2
330
180D1
100
AcDbEntity
  8
YODOROGO
100
AcDbLine
 10
15214.80217064596
 20
788.8747482146436
 30
0.0
 11
15192.80217064595
 21
788.8747482146436
 31
0.0
  0
LINE
  5
185A3
330
180D1
100
AcDbEntity
  8
YODOROGO
100
AcDbLine
 10
15214.80217064596
 20
798.874748214644
 30
0.0
 11
15214.80217064596
 21
788.8747482146436
 31
0.0
  0
LINE
  5
185A4
330
180D1
100
AcDbEntity
  8
YODOROGO
100
AcDbLine
 10
15192.80217064595
 20
798.874748214644
 30
0.0
 11
15214.80217064596
 21
798.874748214644
 31
0.0
  0
LINE
  5
185A5
330
180D1
100
AcDbEntity
  8
YODOROGO
100
AcDbLine
 10
15192.80217064595
 20
788.8747482146436
 30
0.0
 11
15192.80217064595
 21
798.874748214644
 31
0.0
  0
LINE
  5
185A6
330
180D1
100
AcDbEntity
  8
YODOROGO
100
AcDbLine
 10
15212.80217064596
 20
790.8747482146432
 30
0.0
 11
15194.80217064596
 21
790.8747482146432
 31
0.0
  0
LINE
  5
185A7
330
180D1
100
AcDbEntity
  8
YODOROGO
100
AcDbLine
 10
15212.80217064596
 20
796.8747482146445
 30
0.0
 11
15212.80217064596
 21
790.8747482146432
 31
0.0
  0
LINE
  5
185A8
330
180D1
100
AcDbEntity
  8
YODOROGO
100
AcDbLine
 10
15194.80217064596
 20
796.8747482146445
 30
0.0
 11
15212.80217064596
 21
796.8747482146445
 31
0.0
  0
LINE
  5
185A9
330
180D1
100
AcDbEntity
  8
YODOROGO
100
AcDbLine
 10
15194.80217064596
 20
790.8747482146432
 30
0.0
 11
15194.80217064596
 21
796.8747482146445
 31
0.0
  0
LINE
  5
185AA
330
180D1
100
AcDbEntity
  8
YODOROGO
100
AcDbLine
 10
15210.80217064596
 20
792.8747482146435
 30
0.0
 11
15196.80217064596
 21
792.8747482146435
 31
0.0
  0
LINE
  5
185AB
330
180D1
100
AcDbEntity
  8
YODOROGO
100
AcDbLine
 10
15210.80217064596
 20
794.8747482146441
 30
0.0
 11
15210.80217064596
 21
792.8747482146435
 31
0.0
  0
LINE
  5
185AC
330
180D1
100
AcDbEntity
  8
YODOROGO
100
AcDbLine
 10
15196.80217064596
 20
794.8747482146441
 30
0.0
 11
15210.80217064596
 21
794.8747482146441
 31
0.0
  0
LINE
  5
185AD
330
180D1
100
AcDbEntity
  8
YODOROGO
100
AcDbLine
 10
15196.80217064596
 20
792.8747482146435
 30
0.0
 11
15196.80217064596
 21
794.8747482146441
 31
0.0
  0
LINE
  5
185AE
330
180D1
100
AcDbEntity
  8
YODOROGO
100
AcDbLine
 10
15232.80217064596
 20
813.8747482146435
 30
0.0
 11
15190.80217064596
 21
813.8747482146435
 31
0.0
  0
LINE
  5
185AF
330
180D1
100
AcDbEntity
  8
YODOROGO
100
AcDbLine
 10
15232.80217064596
 20
773.874748214644
 30
0.0
 11
15232.80217064596
 21
813.8747482146435
 31
0.0
  0
LINE
  5
185B0
330
180D1
100
AcDbEntity
  8
YODOROGO
100
AcDbLine
 10
15190.80217064596
 20
773.874748214644
 30
0.0
 11
15232.80217064596
 21
773.874748214644
 31
0.0
  0
LINE
  5
185B1
330
180D1
100
AcDbEntity
  8
YODOROGO
100
AcDbLine
 10
15190.80217064596
 20
713.8747482146435
 30
0.0
 11
15190.80217064596
 21
773.874748214644
 31
0.0
  0
LINE
  5
185B2
330
180D1
100
AcDbEntity
  8
YODOROGO
100
AcDbLine
 10
15268.80217064596
 20
713.8747482146435
 30
0.0
 11
15190.80217064596
 21
713.8747482146435
 31
0.0
  0
LINE
  5
185B3
330
180D1
100
AcDbEntity
  8
YODOROGO
100
AcDbLine
 10
15284.80217064596
 20
785.8747482146432
 30
0.0
 11
15284.80217064596
 21
799.8747482146441
 31
0.0
  0
ARC
  5
185B4
330
180D1
100
AcDbEntity
  8
YODOROGO
100
AcDbCircle
 10
15272.80217064594
 20
785.8747482146457
 30
0.0
 40
12.00000000000187
100
AcDbArc
 50
270.0
 51
359.9999999999877
  0
LINE
  5
185B5
330
180D1
100
AcDbEntity
  8
YODOROGO
100
AcDbLine
 10
15264.80217064596
 20
773.874748214644
 30
0.0
 11
15272.80217064594
 21
773.874748214644
 31
0.0
  0
LINE
  5
185B6
330
180D1
100
AcDbEntity
  8
YODOROGO
100
AcDbLine
 10
15264.80217064596
 20
813.8747482146435
 30
0.0
 11
15264.80217064596
 21
773.874748214644
 31
0.0
  0
LINE
  5
185B7
330
180D1
100
AcDbEntity
  8
YODOROGO
100
AcDbLine
 10
15449.80217064596
 20
773.874748214644
 30
0.0
 11
15462.80217064596
 21
773.874748214644
 31
0.0
  0
LINE
  5
185B8
330
180D1
100
AcDbEntity
  8
YODOROGO
100
AcDbLine
 10
15466.80217064596
 20
713.8747482146435
 30
0.0
 11
15449.80217064596
 21
713.8747482146435
 31
0.0
  0
LINE
  5
185B9
330
180D1
100
AcDbEntity
  8
YODOROGO
100
AcDbLine
 10
15381.80217064596
 20
781.8747482146434
 30
0.0
 11
15395.80217064596
 21
781.8747482146434
 31
0.0
  0
LINE
  5
185BA
330
180D1
100
AcDbEntity
  8
YODOROGO
100
AcDbLine
 10
15449.80217064596
 20
745.8747482146443
 30
0.0
 11
15361.80217064596
 21
745.8747482146443
 31
0.0
  0
LINE
  5
185BB
330
180D1
100
AcDbEntity
  8
YODOROGO
100
AcDbLine
 10
15415.80217064596
 20
781.8747482146434
 30
0.0
 11
15429.80217064596
 21
781.8747482146434
 31
0.0
  0
LINE
  5
185BC
330
180D1
100
AcDbEntity
  8
YODOROGO
100
AcDbLine
 10
15449.80217064596
 20
713.8747482146435
 30
0.0
 11
15449.80217064596
 21
773.874748214644
 31
0.0
  0
LINE
  5
185BD
330
180D1
100
AcDbEntity
  8
YODOROGO
100
AcDbLine
 10
15348.80217064596
 20
713.8747482146435
 30
0.0
 11
15322.80217064596
 21
713.8747482146435
 31
0.0
  0
LINE
  5
185BE
330
180D1
100
AcDbEntity
  8
YODOROGO
100
AcDbLine
 10
15308.80217064596
 20
799.8747482146441
 30
0.0
 11
15308.80217064596
 21
753.8747482146439
 31
0.0
  0
ARC
  5
185BF
330
180D1
100
AcDbEntity
  8
YODOROGO
100
AcDbCircle
 10
15466.80217064596
 20
733.8747482146435
 30
0.0
 40
20.0
100
AcDbArc
 50
270.0
 51
0.0
  0
LINE
  5
185C0
330
180D1
100
AcDbEntity
  8
YODOROGO
100
AcDbLine
 10
15546.80217064596
 20
761.8747482146434
 30
0.0
 11
15546.80217064596
 21
713.8747482146435
 31
0.0
  0
ARC
  5
185C1
330
180D1
100
AcDbEntity
  8
YODOROGO
100
AcDbCircle
 10
15519.86069778339
 20
818.7656950548664
 30
0.0
 40
62.94777829583771
100
AcDbArc
 50
295.3405244216011
 51
359.1890230341868
  0
LINE
  5
185C2
330
180D1
100
AcDbEntity
  8
YODOROGO
100
AcDbLine
 10
15308.80217064596
 20
929.874748214644
 30
0.0
 11
15248.80217064596
 21
969.8747482146441
 31
0.0
  0
LINE
  5
185C3
330
180D1
100
AcDbEntity
  8
YODOROGO
100
AcDbLine
 10
15248.80217064596
 20
1013.874748214644
 30
0.0
 11
15308.80217064596
 21
973.8747482146434
 31
0.0
  0
LINE
  5
185C4
330
180D1
100
AcDbEntity
  8
YODOROGO
100
AcDbLine
 10
15264.80217064596
 20
839.8747482146442
 30
0.0
 11
15308.80217064596
 21
839.8747482146442
 31
0.0
  0
LINE
  5
185C5
330
180D1
100
AcDbEntity
  8
YODOROGO
100
AcDbLine
 10
15308.80217064596
 20
867.8747482146436
 30
0.0
 11
15264.80217064596
 21
867.8747482146436
 31
0.0
  0
LINE
  5
185C6
330
180D1
100
AcDbEntity
  8
YODOROGO
100
AcDbLine
 10
15190.80217064596
 20
897.8747482146435
 30
0.0
 11
15308.80217064596
 21
897.8747482146435
 31
0.0
  0
LINE
  5
185C7
330
180D1
100
AcDbEntity
  8
YODOROGO
100
AcDbLine
 10
15040.80217064596
 20
1013.874748214644
 30
0.0
 11
15010.80217064596
 21
1013.874748214644
 31
0.0
  0
LINE
  5
185C8
330
180D1
100
AcDbEntity
  8
YODOROGO
100
AcDbLine
 10
15040.80217064596
 20
913.8747482146435
 30
0.0
 11
15040.80217064596
 21
1013.874748214644
 31
0.0
  0
LINE
  5
185C9
330
180D1
100
AcDbEntity
  8
YODOROGO
100
AcDbLine
 10
15010.80217064596
 20
913.8747482146435
 30
0.0
 11
15040.80217064596
 21
913.8747482146435
 31
0.0
  0
LINE
  5
185CA
330
180D1
100
AcDbEntity
  8
YODOROGO
100
AcDbLine
 10
15010.80217064596
 20
1013.874748214644
 30
0.0
 11
15010.80217064596
 21
913.8747482146435
 31
0.0
  0
LINE
  5
185CB
330
180D1
100
AcDbEntity
  8
YODOROGO
100
AcDbLine
 10
15080.80217064596
 20
1013.874748214644
 30
0.0
 11
15108.80217064596
 21
1013.874748214644
 31
0.0
  0
LINE
  5
185CC
330
180D1
100
AcDbEntity
  8
YODOROGO
100
AcDbLine
 10
15080.80217064596
 20
905.8747482146443
 30
0.0
 11
15080.80217064596
 21
1013.874748214644
 31
0.0
  0
ARC
  5
185CD
330
180D1
100
AcDbEntity
  8
YODOROGO
100
AcDbCircle
 10
15060.80217064596
 20
905.8747482146443
 30
0.0
 40
20.0
100
AcDbArc
 50
270.0
 51
0.0
  0
LINE
  5
185CE
330
180D1
100
AcDbEntity
  8
YODOROGO
100
AcDbLine
 10
15010.80217064596
 20
885.8747482146441
 30
0.0
 11
15060.80217064596
 21
885.8747482146441
 31
0.0
  0
LINE
  5
185CF
330
180D1
100
AcDbEntity
  8
YODOROGO
100
AcDbLine
 10
15010.80217064596
 20
853.874748214644
 30
0.0
 11
15010.80217064596
 21
885.8747482146441
 31
0.0
  0
LINE
  5
185D0
330
180D1
100
AcDbEntity
  8
YODOROGO
100
AcDbLine
 10
15068.80217064596
 20
853.874748214644
 30
0.0
 11
15010.80217064596
 21
853.874748214644
 31
0.0
  0
ARC
  5
185D1
330
180D1
100
AcDbEntity
  8
YODOROGO
100
AcDbCircle
 10
15068.80217064596
 20
893.8747482146439
 30
0.0
 40
40.0
100
AcDbArc
 50
270.0
 51
0.0
  0
LINE
  5
185D2
330
180D1
100
AcDbEntity
  8
YODOROGO
100
AcDbLine
 10
15108.80217064596
 20
1013.874748214644
 30
0.0
 11
15108.80217064596
 21
893.8747482146439
 31
0.0
  0
LINE
  5
185D3
330
180D1
100
AcDbEntity
  8
YODOROGO
100
AcDbLine
 10
14988.80217064596
 20
973.8747482146434
 30
0.0
 11
14988.80217064596
 21
997.8747482146435
 31
0.0
1001
AUTOCAD_POSTSCRIPT_FIGURE
1002
{
1000
PSFILL
1000
Grayscale
1000
Grayscale
1070
    25
1002
}
  0
LINE
  5
185D4
330
180D1
100
AcDbEntity
  8
YODOROGO
100
AcDbLine
 10
14988.80217064596
 20
929.874748214644
 30
0.0
 11
14988.80217064596
 21
953.874748214644
 31
0.0
1001
AUTOCAD_POSTSCRIPT_FIGURE
1002
{
1000
PSFILL
1000
Grayscale
1000
Grayscale
1070
    25
1002
}
  0
LINE
  5
185D5
330
180D1
100
AcDbEntity
  8
YODOROGO
100
AcDbLine
 10
14988.80217064596
 20
853.874748214644
 30
0.0
 11
14988.80217064596
 21
909.8747482146439
 31
0.0
1001
AUTOCAD_POSTSCRIPT_FIGURE
1002
{
1000
PSFILL
1000
Grayscale
1000
Grayscale
1070
    25
1002
}
  0
LINE
  5
185D6
330
180D1
100
AcDbEntity
  8
YODOROGO
100
AcDbLine
 10
15190.80217064596
 20
953.874748214644
 30
0.0
 11
15248.80217064596
 21
1013.874748214644
 31
0.0
  0
LINE
  5
185D7
330
180D1
100
AcDbEntity
  8
YODOROGO
100
AcDbLine
 10
15190.80217064596
 20
909.8747482146439
 30
0.0
 11
15190.80217064596
 21
953.874748214644
 31
0.0
  0
LINE
  5
185D8
330
180D1
100
AcDbEntity
  8
YODOROGO
100
AcDbLine
 10
15248.80217064596
 20
969.8747482146441
 30
0.0
 11
15190.80217064596
 21
909.8747482146439
 31
0.0
  0
LINE
  5
185D9
330
180D1
100
AcDbEntity
  8
YODOROGO
100
AcDbLine
 10
15232.80217064596
 20
839.8747482146442
 30
0.0
 11
15232.80217064596
 21
867.8747482146436
 31
0.0
  0
LINE
  5
185DA
330
180D1
100
AcDbEntity
  8
YODOROGO
100
AcDbLine
 10
15190.80217064596
 20
839.8747482146442
 30
0.0
 11
15232.80217064596
 21
839.8747482146442
 31
0.0
  0
LINE
  5
185DB
330
180D1
100
AcDbEntity
  8
YODOROGO
100
AcDbLine
 10
15264.80217064596
 20
867.8747482146436
 30
0.0
 11
15264.80217064596
 21
839.8747482146442
 31
0.0
  0
LINE
  5
185DC
330
180D1
100
AcDbEntity
  8
YODOROGO
100
AcDbLine
 10
15190.80217064596
 20
867.8747482146436
 30
0.0
 11
15190.80217064596
 21
897.8747482146435
 31
0.0
  0
LINE
  5
185DD
330
180D1
100
AcDbEntity
  8
YODOROGO
100
AcDbLine
 10
15232.80217064596
 20
867.8747482146436
 30
0.0
 11
15190.80217064596
 21
867.8747482146436
 31
0.0
  0
LINE
  5
185DE
330
180D1
100
AcDbEntity
  8
YODOROGO
100
AcDbLine
 10
15322.80217064596
 20
1013.874748214644
 30
0.0
 11
15486.80217064596
 21
1013.874748214644
 31
0.0
  0
LINE
  5
185DF
330
180D1
100
AcDbEntity
  8
YODOROGO
100
AcDbLine
 10
15462.80217064596
 20
981.8747482146434
 30
0.0
 11
15348.80217064596
 21
981.8747482146434
 31
0.0
  0
LINE
  5
185E0
330
180D1
100
AcDbEntity
  8
YODOROGO
100
AcDbLine
 10
15436.80217064595
 20
909.8747482146439
 30
0.0
 11
15449.80217064596
 21
909.8747482146439
 31
0.0
  0
LINE
  5
185E1
330
180D1
100
AcDbEntity
  8
YODOROGO
100
AcDbLine
 10
15449.80217064596
 20
969.8747482146441
 30
0.0
 11
15436.80217064595
 21
909.8747482146439
 31
0.0
  0
LINE
  5
185E2
330
180D1
100
AcDbEntity
  8
YODOROGO
100
AcDbLine
 10
15425.80217064596
 20
969.8747482146441
 30
0.0
 11
15449.80217064596
 21
969.8747482146441
 31
0.0
  0
LINE
  5
185E3
330
180D1
100
AcDbEntity
  8
YODOROGO
100
AcDbLine
 10
15412.80217064596
 20
909.8747482146439
 30
0.0
 11
15425.80217064596
 21
969.8747482146441
 31
0.0
  0
LINE
  5
185E4
330
180D1
100
AcDbEntity
  8
YODOROGO
100
AcDbLine
 10
15398.80217064596
 20
909.8747482146439
 30
0.0
 11
15412.80217064596
 21
909.8747482146439
 31
0.0
  0
LINE
  5
185E5
330
180D1
100
AcDbEntity
  8
YODOROGO
100
AcDbLine
 10
15385.80217064596
 20
969.8747482146441
 30
0.0
 11
15398.80217064596
 21
909.8747482146439
 31
0.0
  0
LINE
  5
185E6
330
180D1
100
AcDbEntity
  8
YODOROGO
100
AcDbLine
 10
15361.80217064596
 20
969.8747482146441
 30
0.0
 11
15385.80217064596
 21
969.8747482146441
 31
0.0
  0
LINE
  5
185E7
330
180D1
100
AcDbEntity
  8
YODOROGO
100
AcDbLine
 10
15374.80217064596
 20
909.8747482146439
 30
0.0
 11
15361.80217064596
 21
969.8747482146441
 31
0.0
  0
LINE
  5
185E8
330
180D1
100
AcDbEntity
  8
YODOROGO
100
AcDbLine
 10
15361.80217064596
 20
909.8747482146439
 30
0.0
 11
15374.80217064596
 21
909.8747482146439
 31
0.0
  0
LINE
  5
185E9
330
180D1
100
AcDbEntity
  8
YODOROGO
100
AcDbLine
 10
15361.80217064596
 20
877.8747482146435
 30
0.0
 11
15361.80217064596
 21
909.8747482146439
 31
0.0
  0
LINE
  5
185EA
330
180D1
100
AcDbEntity
  8
YODOROGO
100
AcDbLine
 10
15449.80217064596
 20
877.8747482146435
 30
0.0
 11
15361.80217064596
 21
877.8747482146435
 31
0.0
  0
LINE
  5
185EB
330
180D1
100
AcDbEntity
  8
YODOROGO
100
AcDbLine
 10
15449.80217064596
 20
909.8747482146439
 30
0.0
 11
15449.80217064596
 21
877.8747482146435
 31
0.0
  0
LINE
  5
185EC
330
180D1
100
AcDbEntity
  8
YODOROGO
100
AcDbLine
 10
15308.80217064596
 20
973.8747482146434
 30
0.0
 11
15308.80217064596
 21
929.874748214644
 31
0.0
  0
LINE
  5
185ED
330
180D1
100
AcDbEntity
  8
YODOROGO
100
AcDbLine
 10
15395.80217064596
 20
877.8747482146435
 30
0.0
 11
15415.80217064596
 21
877.8747482146435
 31
0.0
  0
LINE
  5
185EE
330
180D1
100
AcDbEntity
  8
YODOROGO
100
AcDbLine
 10
15361.80217064596
 20
845.8747482146444
 30
0.0
 11
15381.80217064596
 21
845.8747482146444
 31
0.0
  0
LINE
  5
185EF
330
180D1
100
AcDbEntity
  8
YODOROGO
100
AcDbLine
 10
15429.80217064596
 20
845.8747482146444
 30
0.0
 11
15449.80217064596
 21
845.8747482146444
 31
0.0
  0
LINE
  5
185F0
330
180D1
100
AcDbEntity
  8
YODOROGO
100
AcDbLine
 10
15308.80217064596
 20
897.8747482146435
 30
0.0
 11
15308.80217064596
 21
867.8747482146436
 31
0.0
  0
LINE
  5
185F1
330
180D1
100
AcDbEntity
  8
YODOROGO
100
AcDbLine
 10
15582.80217064596
 20
1013.874748214644
 30
0.0
 11
15582.80217064596
 21
981.8747482146434
 31
0.0
  0
LINE
  5
185F2
330
180D1
100
AcDbEntity
  8
YODOROGO
100
AcDbLine
 10
15766.80217064596
 20
797.8747482146435
 30
0.0
 11
15766.80217064594
 21
905.8747482146443
 31
0.0
  0
LINE
  5
185F3
330
180D1
100
AcDbEntity
  8
YODOROGO
100
AcDbLine
 10
15730.80217064594
 20
993.8747482146439
 30
0.0
 11
15730.80217064594
 21
817.8747482146436
 31
0.0
  0
LINE
  5
185F4
330
180D1
100
AcDbEntity
  8
YODOROGO
100
AcDbLine
 10
15826.80217064596
 20
713.8747482146435
 30
0.0
 11
15826.80217064594
 21
905.8747482146443
 31
0.0
  0
LINE
  5
185F5
330
180D1
100
AcDbEntity
  8
YODOROGO
100
AcDbLine
 10
15794.80217064596
 20
905.8747482146443
 30
0.0
 11
15794.80217064596
 21
713.8747482146435
 31
0.0
  0
LINE
  5
185F6
330
180D1
100
AcDbEntity
  8
YODOROGO
100
AcDbLine
 10
15618.80217064596
 20
797.8747482146435
 30
0.0
 11
15618.80217064596
 21
853.874748214644
 31
0.0
  0
ARC
  5
185F7
330
180D1
100
AcDbEntity
  8
YODOROGO
100
AcDbCircle
 10
15676.95743255803
 20
803.8951756442788
 30
0.0
 40
90.04622428799429
100
AcDbArc
 50
268.6284910216979
 51
356.1663845733032
  0
LINE
  5
185F8
330
180D1
100
AcDbEntity
  8
YODOROGO
100
AcDbLine
 10
15674.80217064596
 20
763.8747482146435
 30
0.0
 11
15674.80217064596
 21
713.8747482146435
 31
0.0
  0
ARC
  5
185F9
330
180D1
100
AcDbEntity
  8
YODOROGO
100
AcDbCircle
 10
15675.75903786228
 20
818.9194785088275
 30
0.0
 40
55.05304649180608
100
AcDbArc
 50
269.0041020930593
 51
358.9126445549248
  0
LINE
  5
185FA
330
180D1
100
AcDbEntity
  8
YODOROGO
100
AcDbLine
 10
15794.80217064596
 20
713.8747482146435
 30
0.0
 11
15826.80217064596
 21
713.8747482146435
 31
0.0
  0
LINE
  5
185FB
330
180D1
100
AcDbEntity
  8
YODOROGO
100
AcDbLine
 10
15766.80217064594
 20
905.8747482146443
 30
0.0
 11
15794.80217064596
 21
905.8747482146443
 31
0.0
  0
LINE
  5
185FC
330
180D1
100
AcDbEntity
  8
YODOROGO
100
AcDbLine
 10
15810.80217064596
 20
993.8747482146439
 30
0.0
 11
15730.80217064594
 21
993.8747482146439
 31
0.0
  0
LINE
  5
185FD
330
180D1
100
AcDbEntity
  8
YODOROGO
100
AcDbLine
 10
15766.80217064594
 20
957.8747482146436
 30
0.0
 11
15830.80217064596
 21
957.8747482146436
 31
0.0
  0
LINE
  5
185FE
330
180D1
100
AcDbEntity
  8
YODOROGO
100
AcDbLine
 10
15850.80217064596
 20
937.8747482146435
 30
0.0
 11
15766.80217064594
 21
937.8747482146435
 31
0.0
  0
LINE
  5
185FF
330
180D1
100
AcDbEntity
  8
YODOROGO
100
AcDbLine
 10
15618.80217064596
 20
889.8747482146442
 30
0.0
 11
15674.80217064596
 21
889.8747482146442
 31
0.0
  0
LINE
  5
18600
330
180D1
100
AcDbEntity
  8
YODOROGO
100
AcDbLine
 10
15618.80217064596
 20
917.8747482146436
 30
0.0
 11
15618.80217064596
 21
889.8747482146442
 31
0.0
  0
LINE
  5
18601
330
180D1
100
AcDbEntity
  8
YODOROGO
100
AcDbLine
 10
15674.80217064596
 20
917.8747482146436
 30
0.0
 11
15618.80217064596
 21
917.8747482146436
 31
0.0
  0
LINE
  5
18602
330
180D1
100
AcDbEntity
  8
YODOROGO
100
AcDbLine
 10
15674.80217064596
 20
889.8747482146442
 30
0.0
 11
15674.80217064596
 21
917.8747482146436
 31
0.0
  0
LINE
  5
18603
330
180D1
100
AcDbEntity
  8
YODOROGO
100
AcDbLine
 10
15766.80217064594
 20
937.8747482146435
 30
0.0
 11
15766.80217064594
 21
957.8747482146436
 31
0.0
  0
LINE
  5
18604
330
180D1
100
AcDbEntity
  8
YODOROGO
100
AcDbLine
 10
15706.80217064596
 20
853.874748214644
 30
0.0
 11
15706.80217064596
 21
953.874748214644
 31
0.0
  0
LINE
  5
18605
330
180D1
100
AcDbEntity
  8
YODOROGO
100
AcDbLine
 10
15618.80217064596
 20
853.874748214644
 30
0.0
 11
15706.80217064596
 21
853.874748214644
 31
0.0
  0
LINE
  5
18606
330
180D1
100
AcDbEntity
  8
YODOROGO
100
AcDbLine
 10
15706.80217064596
 20
981.8747482146434
 30
0.0
 11
15706.80217064596
 21
1013.874748214644
 31
0.0
  0
ARC
  5
18607
330
180D1
100
AcDbEntity
  8
YODOROGO
100
AcDbCircle
 10
15810.80217064596
 20
1001.874748214642
 30
0.0
 40
7.999999999997268
100
AcDbArc
 50
270.0
 51
0.0000000000081422
  0
LINE
  5
18608
330
180D1
100
AcDbEntity
  8
YODOROGO
100
AcDbLine
 10
15818.80217064596
 20
1013.874748214644
 30
0.0
 11
15818.80217064596
 21
1001.874748214643
 31
0.0
  0
LINE
  5
18609
330
180D1
100
AcDbEntity
  8
YODOROGO
100
AcDbLine
 10
15850.80217064596
 20
1013.874748214644
 30
0.0
 11
15818.80217064596
 21
1013.874748214644
 31
0.0
  0
LINE
  5
1860A
330
180D1
100
AcDbEntity
  8
YODOROGO
100
AcDbLine
 10
15850.80217064596
 20
977.8747482146435
 30
0.0
 11
15850.80217064596
 21
1013.874748214644
 31
0.0
  0
ARC
  5
1860B
330
180D1
100
AcDbEntity
  8
YODOROGO
100
AcDbCircle
 10
15830.80217064596
 20
977.8747482146435
 30
0.0
 40
20.0
100
AcDbArc
 50
270.0
 51
0.0
  0
LINE
  5
1860C
330
180D1
100
AcDbEntity
  8
YODOROGO
100
AcDbLine
 10
15850.80217064596
 20
905.8747482146443
 30
0.0
 11
15850.80217064596
 21
937.8747482146435
 31
0.0
  0
LINE
  5
1860D
330
180D1
100
AcDbEntity
  8
YODOROGO
100
AcDbLine
 10
15826.80217064594
 20
905.8747482146443
 30
0.0
 11
15850.80217064596
 21
905.8747482146443
 31
0.0
  0
LINE
  5
1860E
330
180D1
100
AcDbEntity
  8
SUNPOU
100
AcDbLine
 10
6700.003547453697
 20
4939.546798568535
 30
0.0
 11
6700.003547453697
 21
5337.546798568535
 31
0.0
  0
LINE
  5
1860F
330
180D1
100
AcDbEntity
  8
SUNPOU
100
AcDbLine
 10
6938.003547453696
 20
4859.019543520815
 30
0.0
 11
6938.003547453696
 21
5337.546798568535
 31
0.0
  0
LINE
  5
18610
330
180D1
100
AcDbEntity
  8
SUNPOU
100
AcDbLine
 10
6715.003547453697
 20
5292.546798568536
 30
0.0
 11
6923.003547453697
 21
5292.546798568536
 31
0.0
  0
LINE
  5
18611
330
180D1
100
AcDbEntity
  8
SUNPOU
100
AcDbLine
 10
6938.003547453696
 20
5292.546798568536
 30
0.0
 11
7197.289261739412
 21
5292.546798568536
 31
0.0
  0
LINE
  5
18612
330
180D1
100
AcDbEntity
  8
SUNPOU
100
AcDbLine
 10
4300.003547453697
 20
4939.546798568535
 30
0.0
 11
4300.003547453697
 21
5337.546798568535
 31
0.0
  0
LINE
  5
18613
330
180D1
100
AcDbEntity
  8
SUNPOU
100
AcDbLine
 10
6700.003547453697
 20
4939.546798568535
 30
0.0
 11
6700.003547453697
 21
5337.546798568535
 31
0.0
  0
LINE
  5
18614
330
180D1
100
AcDbEntity
  8
SUNPOU
100
AcDbLine
 10
4315.003547453698
 20
5292.546798568536
 30
0.0
 11
6685.003547453696
 21
5292.546798568536
 31
0.0
  0
LINE
  5
18615
330
180D1
100
AcDbEntity
  8
SUNPOU
100
AcDbLine
 10
4300.003547453697
 20
4939.546798568535
 30
0.0
 11
4300.003547453697
 21
5337.546798568535
 31
0.0
  0
LINE
  5
18616
330
180D1
100
AcDbEntity
  8
SUNPOU
100
AcDbLine
 10
4062.003547453696
 20
4858.804015093276
 30
0.0
 11
4062.003547453696
 21
5337.546798568535
 31
0.0
  0
LINE
  5
18617
330
180D1
100
AcDbEntity
  8
SUNPOU
100
AcDbLine
 10
4285.003547453698
 20
5292.546798568536
 30
0.0
 11
4077.003547453696
 21
5292.546798568536
 31
0.0
  0
LINE
  5
18618
330
180D1
100
AcDbEntity
  8
SUNPOU
100
AcDbLine
 10
4062.003547453696
 20
5292.546798568536
 30
0.0
 11
3802.717833167982
 21
5292.546798568536
 31
0.0
  0
LINE
  5
18619
330
180D1
100
AcDbEntity
  8
SUNPOU
100
AcDbLine
 10
6938.003547453696
 20
8108.753322994077
 30
0.0
 11
6938.003547453696
 21
7156.35332299408
 31
0.0
  0
LINE
  5
1861A
330
180D1
100
AcDbEntity
  8
SUNPOU
100
AcDbLine
 10
4062.003547453698
 20
8108.753322994079
 30
0.0
 11
4062.003547453698
 21
7156.35332299408
 31
0.0
  0
LINE
  5
1861B
330
180D1
100
AcDbEntity
  8
SUNPOU
100
AcDbLine
 10
6923.003547453697
 20
7201.353322994079
 30
0.0
 11
4077.003547453698
 21
7201.353322994079
 31
0.0
  0
LINE
  5
1861C
330
180D1
100
AcDbEntity
  8
SUNPOU
100
AcDbLine
 10
6700.003547453697
 20
7951.353322994076
 30
0.0
 11
6700.003547453697
 21
7366.353322994076
 31
0.0
  0
LINE
  5
1861D
330
180D1
100
AcDbEntity
  8
SUNPOU
100
AcDbLine
 10
6938.003547453696
 20
8108.753322994077
 30
0.0
 11
6938.003547453696
 21
7366.353322994076
 31
0.0
  0
LINE
  5
1861E
330
180D1
100
AcDbEntity
  8
SUNPOU
100
AcDbLine
 10
6715.003547453697
 20
7411.353322994077
 30
0.0
 11
6923.003547453697
 21
7411.353322994077
 31
0.0
  0
LINE
  5
1861F
330
180D1
100
AcDbEntity
  8
SUNPOU
100
AcDbLine
 10
6938.003547453696
 20
7411.353322994077
 30
0.0
 11
7197.289261739412
 21
7411.353322994077
 31
0.0
  0
LINE
  5
18620
330
180D1
100
AcDbEntity
  8
SUNPOU
100
AcDbLine
 10
4300.003547453697
 20
7951.353322994079
 30
0.0
 11
4300.003547453697
 21
7366.353322994076
 31
0.0
  0
LINE
  5
18621
330
180D1
100
AcDbEntity
  8
SUNPOU
100
AcDbLine
 10
6700.003547453697
 20
7951.353322994076
 30
0.0
 11
6700.003547453697
 21
7366.353322994076
 31
0.0
  0
LINE
  5
18622
330
180D1
100
AcDbEntity
  8
SUNPOU
100
AcDbLine
 10
4315.003547453698
 20
7411.353322994077
 30
0.0
 11
6685.003547453696
 21
7411.353322994077
 31
0.0
  0
LINE
  5
18623
330
180D1
100
AcDbEntity
  8
SUNPOU
100
AcDbLine
 10
4300.003547453697
 20
7951.353322994079
 30
0.0
 11
4300.003547453697
 21
7366.353322994076
 31
0.0
  0
LINE
  5
18624
330
180D1
100
AcDbEntity
  8
SUNPOU
100
AcDbLine
 10
4062.003547453698
 20
8108.753322994079
 30
0.0
 11
4062.003547453698
 21
7366.353322994076
 31
0.0
  0
LINE
  5
18625
330
180D1
100
AcDbEntity
  8
SUNPOU
100
AcDbLine
 10
4285.003547453698
 20
7411.353322994077
 30
0.0
 11
4077.003547453698
 21
7411.353322994077
 31
0.0
  0
LINE
  5
18626
330
180D1
100
AcDbEntity
  8
SUNPOU
100
AcDbLine
 10
4062.003547453698
 20
7411.353322994077
 30
0.0
 11
3802.717833167984
 21
7411.353322994077
 31
0.0
  0
ARC
  5
18627
330
180D1
100
AcDbEntity
  8
SUNPOU
100
AcDbCircle
 10
7448.003547453698
 20
10133.75332299408
 30
0.0
 40
5.625
100
AcDbArc
 50
270.0
 51
90.0
  0
ARC
  5
18628
330
180D1
100
AcDbEntity
  8
SUNPOU
100
AcDbCircle
 10
7448.003547453698
 20
10133.75332299408
 30
0.0
 40
5.625
100
AcDbArc
 50
90.0
 51
270.0
  0
ARC
  5
18629
330
180D1
100
AcDbEntity
  8
SUNPOU
100
AcDbCircle
 10
7238.003547453697
 20
10133.75332299408
 30
0.0
 40
5.625
100
AcDbArc
 50
270.0
 51
90.0
  0
ARC
  5
1862A
330
180D1
100
AcDbEntity
  8
SUNPOU
100
AcDbCircle
 10
7238.003547453697
 20
10133.75332299408
 30
0.0
 40
5.625
100
AcDbArc
 50
90.0
 51
270.0
  0
ARC
  5
1862B
330
180D1
100
AcDbEntity
  8
SUNPOU
100
AcDbCircle
 10
7238.003547453697
 20
9992.753322994078
 30
0.0
 40
5.625
100
AcDbArc
 50
270.0
 51
90.0
  0
ARC
  5
1862C
330
180D1
100
AcDbEntity
  8
SUNPOU
100
AcDbCircle
 10
7238.003547453697
 20
9992.753322994078
 30
0.0
 40
5.625
100
AcDbArc
 50
90.0
 51
270.0
  0
ARC
  5
1862D
330
180D1
100
AcDbEntity
  8
SUNPOU
100
AcDbCircle
 10
7448.003547453698
 20
8133.753322994079
 30
0.0
 40
5.625
100
AcDbArc
 50
90.0
 51
270.0
  0
ARC
  5
1862E
330
180D1
100
AcDbEntity
  8
SUNPOU
100
AcDbCircle
 10
7448.003547453698
 20
8133.753322994079
 30
0.0
 40
5.624999999999088
100
AcDbArc
 50
270.0
 51
90.0
  0
ARC
  5
1862F
330
180D1
100
AcDbEntity
  8
SUNPOU
100
AcDbCircle
 10
7238.003547453697
 20
8133.753322994079
 30
0.0
 40
5.625
100
AcDbArc
 50
90.0
 51
270.0
  0
ARC
  5
18630
330
180D1
100
AcDbEntity
  8
SUNPOU
100
AcDbCircle
 10
7238.003547453697
 20
8133.753322994079
 30
0.0
 40
5.624999999999088
100
AcDbArc
 50
270.0
 51
90.0
  0
ARC
  5
18631
330
180D1
100
AcDbEntity
  8
SUNPOU
100
AcDbCircle
 10
6500.003547453697
 20
7621.353322994076
 30
0.0
 40
5.625
100
AcDbArc
 50
180.0
 51
0.0
  0
ARC
  5
18632
330
180D1
100
AcDbEntity
  8
SUNPOU
100
AcDbCircle
 10
6500.003547453697
 20
7621.353322994076
 30
0.0
 40
5.625
100
AcDbArc
 50
0.0
 51
180.0
  0
ARC
  5
18633
330
180D1
100
AcDbEntity
  8
SUNPOU
100
AcDbCircle
 10
6100.003547453702
 20
7621.353322994076
 30
0.0
 40
5.625
100
AcDbArc
 50
180.0
 51
0.0
  0
ARC
  5
18634
330
180D1
100
AcDbEntity
  8
SUNPOU
100
AcDbCircle
 10
6100.003547453702
 20
7621.353322994076
 30
0.0
 40
5.625
100
AcDbArc
 50
0.0
 51
180.0
  0
ARC
  5
18635
330
180D1
100
AcDbEntity
  8
SUNPOU
100
AcDbCircle
 10
6100.003547453702
 20
7621.353322994076
 30
0.0
 40
5.625
100
AcDbArc
 50
0.0
 51
180.0
  0
ARC
  5
18636
330
180D1
100
AcDbEntity
  8
SUNPOU
100
AcDbCircle
 10
6100.003547453702
 20
7621.353322994076
 30
0.0
 40
5.625
100
AcDbArc
 50
180.0
 51
0.0
  0
ARC
  5
18637
330
180D1
100
AcDbEntity
  8
SUNPOU
100
AcDbCircle
 10
5700.003547453704
 20
7621.353322994076
 30
0.0
 40
5.625
100
AcDbArc
 50
180.0
 51
0.0
  0
ARC
  5
18638
330
180D1
100
AcDbEntity
  8
SUNPOU
100
AcDbCircle
 10
5700.003547453704
 20
7621.353322994076
 30
0.0
 40
5.625
100
AcDbArc
 50
0.0
 51
180.0
  0
ARC
  5
18639
330
180D1
100
AcDbEntity
  8
SUNPOU
100
AcDbCircle
 10
5700.003547453704
 20
7621.353322994076
 30
0.0
 40
5.625
100
AcDbArc
 50
0.0
 51
180.0
  0
ARC
  5
1863A
330
180D1
100
AcDbEntity
  8
SUNPOU
100
AcDbCircle
 10
5700.003547453704
 20
7621.353322994076
 30
0.0
 40
5.625
100
AcDbArc
 50
180.0
 51
0.0
  0
ARC
  5
1863B
330
180D1
100
AcDbEntity
  8
SUNPOU
100
AcDbCircle
 10
5300.003547453704
 20
7621.353322994076
 30
0.0
 40
5.624999999999088
100
AcDbArc
 50
0.0
 51
180.0
  0
ARC
  5
1863C
330
180D1
100
AcDbEntity
  8
SUNPOU
100
AcDbCircle
 10
5300.003547453704
 20
7621.353322994076
 30
0.0
 40
5.624999999999088
100
AcDbArc
 50
180.0
 51
0.0
  0
LINE
  5
1863D
330
180D1
100
AcDbEntity
  8
SUNPOU
100
AcDbLine
 10
9963.850902289308
 20
2584.546798568533
 30
0.0
 11
9505.351769154637
 21
2584.546798568533
 31
0.0
  0
LINE
  5
1863E
330
180D1
100
AcDbEntity
  8
SUNPOU
100
AcDbLine
 10
10110.3509022893
 20
4834.54679856853
 30
0.0
 11
9505.351769154637
 21
4834.54679856853
 31
0.0
  0
LINE
  5
1863F
330
180D1
100
AcDbEntity
  8
SUNPOU
100
AcDbLine
 10
9550.351769154636
 20
2599.546798568532
 30
0.0
 11
9550.351769154636
 21
4819.546798568532
 31
0.0
  0
LINE
  5
18640
330
180D1
100
AcDbEntity
  8
SUNPOU
100
AcDbLine
 10
12175.99743343639
 20
4734.546798568532
 30
0.0
 11
12739.90176915463
 21
4734.546798568532
 31
0.0
  0
LINE
  5
18641
330
180D1
100
AcDbEntity
  8
SUNPOU
100
AcDbLine
 10
12170.3509022893
 20
4834.546798568535
 30
0.0
 11
12739.90176915463
 21
4834.546798568535
 31
0.0
  0
LINE
  5
18642
330
180D1
100
AcDbEntity
  8
SUNPOU
100
AcDbLine
 10
12694.90176915463
 20
4719.546798568534
 30
0.0
 11
12694.90176915463
 21
4704.546798568531
 31
0.0
  0
LINE
  5
18643
330
180D1
100
AcDbEntity
  8
SUNPOU
100
AcDbLine
 10
12694.90176915463
 20
4849.546798568535
 30
0.0
 11
12694.90176915463
 21
5100.261084282821
 31
0.0
  0
LINE
  5
18644
330
180D1
100
AcDbEntity
  8
SUNPOU
100
AcDbLine
 10
12694.90176915463
 20
4734.546798568532
 30
0.0
 11
12694.90176915463
 21
4834.546798568535
 31
0.0
  0
LINE
  5
18645
330
180D1
100
AcDbEntity
  8
SUNPOU
100
AcDbLine
 10
12175.99743343639
 20
4224.546798568576
 30
0.0
 11
12739.90176915463
 21
4224.546798568576
 31
0.0
  0
LINE
  5
18646
330
180D1
100
AcDbEntity
  8
SUNPOU
100
AcDbLine
 10
12175.99743343639
 20
4734.546798568532
 30
0.0
 11
12739.90176915463
 21
4734.546798568532
 31
0.0
  0
LINE
  5
18647
330
180D1
100
AcDbEntity
  8
SUNPOU
100
AcDbLine
 10
12694.90176915463
 20
4239.546798568576
 30
0.0
 11
12694.90176915463
 21
4719.546798568534
 31
0.0
  0
LINE
  5
18648
330
180D1
100
AcDbEntity
  8
SUNPOU
100
AcDbLine
 10
12175.99743343639
 20
4224.546798568576
 30
0.0
 11
12949.90176915463
 21
4224.546798568576
 31
0.0
  0
LINE
  5
18649
330
180D1
100
AcDbEntity
  8
SUNPOU
100
AcDbLine
 10
12170.3509022893
 20
4834.546798568535
 30
0.0
 11
12949.90176915463
 21
4834.546798568535
 31
0.0
  0
LINE
  5
1864A
330
180D1
100
AcDbEntity
  8
SUNPOU
100
AcDbLine
 10
12904.90176915463
 20
4239.546798568576
 30
0.0
 11
12904.90176915463
 21
4819.546798568535
 31
0.0
  0
LINE
  5
1864B
330
180D1
100
AcDbEntity
  8
SUNPOU
100
AcDbLine
 10
12263.8509022893
 20
2584.546798568535
 30
0.0
 11
12949.90176915463
 21
2584.546798568535
 31
0.0
  0
LINE
  5
1864C
330
180D1
100
AcDbEntity
  8
SUNPOU
100
AcDbLine
 10
12175.99743343639
 20
4224.546798568576
 30
0.0
 11
12949.90176915463
 21
4224.546798568576
 31
0.0
  0
LINE
  5
1864D
330
180D1
100
AcDbEntity
  8
SUNPOU
100
AcDbLine
 10
12904.90176915463
 20
2599.546798568534
 30
0.0
 11
12904.90176915463
 21
4209.546798568577
 31
0.0
  0
ARC
  5
1864E
330
180D1
100
AcDbEntity
  8
SUNPOU
100
AcDbCircle
 10
12140.3509022893
 20
5316.590926579785
 30
0.0
 40
5.625
100
AcDbArc
 50
180.0
 51
0.0
  0
ARC
  5
1864F
330
180D1
100
AcDbEntity
  8
SUNPOU
100
AcDbCircle
 10
12140.3509022893
 20
5316.590926579785
 30
0.0
 40
5.625
100
AcDbArc
 50
0.0
 51
180.0
  0
ARC
  5
18650
330
180D1
100
AcDbEntity
  8
SUNPOU
100
AcDbCircle
 10
12140.3509022893
 20
5106.590926579783
 30
0.0
 40
5.625
100
AcDbArc
 50
180.0
 51
0.0
  0
ARC
  5
18651
330
180D1
100
AcDbEntity
  8
SUNPOU
100
AcDbCircle
 10
12140.3509022893
 20
5106.590926579783
 30
0.0
 40
5.625
100
AcDbArc
 50
0.0
 51
180.0
  0
ARC
  5
18652
330
180D1
100
AcDbEntity
  8
SUNPOU
100
AcDbCircle
 10
12000.3509022893
 20
5106.590926579783
 30
0.0
 40
5.625
100
AcDbArc
 50
180.0
 51
0.0
  0
ARC
  5
18653
330
180D1
100
AcDbEntity
  8
SUNPOU
100
AcDbCircle
 10
12000.3509022893
 20
5106.590926579783
 30
0.0
 40
5.625
100
AcDbArc
 50
0.0
 51
180.0
  0
ARC
  5
18654
330
180D1
100
AcDbEntity
  8
SUNPOU
100
AcDbCircle
 10
12000.3509022893
 20
5106.590926579783
 30
0.0
 40
5.625
100
AcDbArc
 50
0.0
 51
180.0
  0
ARC
  5
18655
330
180D1
100
AcDbEntity
  8
SUNPOU
100
AcDbCircle
 10
12000.3509022893
 20
5106.590926579783
 30
0.0
 40
5.625
100
AcDbArc
 50
180.0
 51
0.0
  0
ARC
  5
18656
330
180D1
100
AcDbEntity
  8
SUNPOU
100
AcDbCircle
 10
10140.35090228931
 20
5316.590926579785
 30
0.0
 40
5.625
100
AcDbArc
 50
0.0
 51
180.0
  0
ARC
  5
18657
330
180D1
100
AcDbEntity
  8
SUNPOU
100
AcDbCircle
 10
10140.35090228931
 20
5316.590926579785
 30
0.0
 40
5.625
100
AcDbArc
 50
180.0
 51
0.0
  0
ARC
  5
18658
330
180D1
100
AcDbEntity
  8
SUNPOU
100
AcDbCircle
 10
10140.35090228931
 20
5106.590926579783
 30
0.0
 40
5.625
100
AcDbArc
 50
0.0
 51
180.0
  0
ARC
  5
18659
330
180D1
100
AcDbEntity
  8
SUNPOU
100
AcDbCircle
 10
10140.35090228931
 20
5106.590926579783
 30
0.0
 40
5.625
100
AcDbArc
 50
180.0
 51
0.0
  0
TEXT
  5
1865A
330
180D1
100
AcDbEntity
  8
SUNPOU
100
AcDbText
 10
6989.43211888227
 20
5337.546798568535
 30
0.0
 40
90.0
  1
238
 41
0.6666666666666666
  7
00
100
AcDbText
  0
LINE
  5
1865B
330
180D1
100
AcDbEntity
  8
SUNPOU
100
AcDbLine
 10
6926.753547453697
 20
5292.546798568536
 30
0.0
 11
6915.503547453699
 21
5292.546798568536
 31
0.0
  0
LINE
  5
1865C
330
180D1
100
AcDbEntity
  8
SUNPOU
100
AcDbLine
 10
6711.253547453697
 20
5292.546798568536
 30
0.0
 11
6722.503547453697
 21
5292.546798568536
 31
0.0
  0
TEXT
  5
1865D
330
180D1
100
AcDbEntity
  8
SUNPOU
100
AcDbText
 10
5385.717833167984
 20
5337.546798568535
 30
0.0
 40
90.0
  1
2400
 41
0.6666666666666666
  7
00
100
AcDbText
  0
LINE
  5
1865E
330
180D1
100
AcDbEntity
  8
SUNPOU
100
AcDbLine
 10
6688.753547453697
 20
5292.546798568536
 30
0.0
 11
6677.503547453698
 21
5292.546798568536
 31
0.0
  0
LINE
  5
1865F
330
180D1
100
AcDbEntity
  8
SUNPOU
100
AcDbLine
 10
4311.253547453698
 20
5292.546798568536
 30
0.0
 11
4322.503547453698
 21
5292.546798568536
 31
0.0
  0
TEXT
  5
18660
330
180D1
100
AcDbEntity
  8
SUNPOU
100
AcDbText
 10
3839.146404596553
 20
5337.546798568535
 30
0.0
 40
90.0
  1
238
 41
0.6666666666666666
  7
00
100
AcDbText
  0
LINE
  5
18661
330
180D1
100
AcDbEntity
  8
SUNPOU
100
AcDbLine
 10
4073.253547453696
 20
5292.546798568536
 30
0.0
 11
4084.503547453696
 21
5292.546798568536
 31
0.0
  0
LINE
  5
18662
330
180D1
100
AcDbEntity
  8
SUNPOU
100
AcDbLine
 10
4288.753547453698
 20
5292.546798568536
 30
0.0
 11
4277.503547453698
 21
5292.546798568536
 31
0.0
  0
TEXT
  5
18663
330
180D1
100
AcDbEntity
  8
SUNPOU
100
AcDbText
 10
5385.717833167984
 20
7246.353322994082
 30
0.0
 40
90.0
  1
2876
 41
0.6666666666666666
  7
00
100
AcDbText
  0
LINE
  5
18664
330
180D1
100
AcDbEntity
  8
SUNPOU
100
AcDbLine
 10
4073.253547453698
 20
7201.353322994079
 30
0.0
 11
4084.503547453698
 21
7201.353322994079
 31
0.0
  0
LINE
  5
18665
330
180D1
100
AcDbEntity
  8
SUNPOU
100
AcDbLine
 10
6926.753547453697
 20
7201.353322994079
 30
0.0
 11
6915.503547453699
 21
7201.353322994079
 31
0.0
  0
TEXT
  5
18666
330
180D1
100
AcDbEntity
  8
SUNPOU
100
AcDbText
 10
6989.43211888227
 20
7456.353322994077
 30
0.0
 40
90.0
  1
238
 41
0.6666666666666666
  7
00
100
AcDbText
  0
LINE
  5
18667
330
180D1
100
AcDbEntity
  8
SUNPOU
100
AcDbLine
 10
6926.753547453697
 20
7411.353322994077
 30
0.0
 11
6915.503547453699
 21
7411.353322994077
 31
0.0
  0
LINE
  5
18668
330
180D1
100
AcDbEntity
  8
SUNPOU
100
AcDbLine
 10
6711.253547453697
 20
7411.353322994077
 30
0.0
 11
6722.503547453697
 21
7411.353322994077
 31
0.0
  0
TEXT
  5
18669
330
180D1
100
AcDbEntity
  8
SUNPOU
100
AcDbText
 10
5385.717833167984
 20
7456.353322994079
 30
0.0
 40
90.0
  1
2400
 41
0.6666666666666666
  7
00
100
AcDbText
  0
LINE
  5
1866A
330
180D1
100
AcDbEntity
  8
SUNPOU
100
AcDbLine
 10
6688.753547453697
 20
7411.353322994077
 30
0.0
 11
6677.503547453698
 21
7411.353322994077
 31
0.0
  0
LINE
  5
1866B
330
180D1
100
AcDbEntity
  8
SUNPOU
100
AcDbLine
 10
4311.253547453698
 20
7411.353322994077
 30
0.0
 11
4322.503547453698
 21
7411.353322994077
 31
0.0
  0
TEXT
  5
1866C
330
180D1
100
AcDbEntity
  8
SUNPOU
100
AcDbText
 10
3839.146404596555
 20
7456.353322994079
 30
0.0
 40
90.0
  1
238
 41
0.6666666666666666
  7
00
100
AcDbText
  0
LINE
  5
1866D
330
180D1
100
AcDbEntity
  8
SUNPOU
100
AcDbLine
 10
4073.253547453698
 20
7411.353322994077
 30
0.0
 11
4084.503547453698
 21
7411.353322994077
 31
0.0
  0
LINE
  5
1866E
330
180D1
100
AcDbEntity
  8
SUNPOU
100
AcDbLine
 10
4288.753547453698
 20
7411.353322994077
 30
0.0
 11
4277.503547453698
 21
7411.353322994077
 31
0.0
  0
TEXT
  5
1866F
330
180D1
100
AcDbEntity
  8
SUNPOU
100
AcDbText
 10
9505.351769154637
 20
3595.26108428282
 30
0.0
 40
90.0
  1
2250
 50
90.0
 41
0.6666666666666666
  7
00
100
AcDbText
  0
LINE
  5
18670
330
180D1
100
AcDbEntity
  8
SUNPOU
100
AcDbLine
 10
9550.351769154636
 20
4823.296798568532
 30
0.0
 11
9550.351769154636
 21
4812.04679856853
 31
0.0
  0
LINE
  5
18671
330
180D1
100
AcDbEntity
  8
SUNPOU
100
AcDbLine
 10
9550.351769154636
 20
2595.796798568532
 30
0.0
 11
9550.351769154636
 21
2607.046798568533
 31
0.0
  0
TEXT
  5
18672
330
180D1
100
AcDbEntity
  8
SUNPOU
100
AcDbText
 10
12649.90176915463
 20
4892.40394142568
 30
0.0
 40
90.0
  1
100
 50
90.0
 41
0.6666666666666666
  7
00
100
AcDbText
  0
LINE
  5
18673
330
180D1
100
AcDbEntity
  8
SUNPOU
100
AcDbLine
 10
12694.90176915463
 20
4845.796798568535
 30
0.0
 11
12694.90176915463
 21
4857.046798568536
 31
0.0
  0
LINE
  5
18674
330
180D1
100
AcDbEntity
  8
SUNPOU
100
AcDbLine
 10
12694.90176915463
 20
4723.296798568532
 30
0.0
 11
12694.90176915463
 21
4712.046798568533
 31
0.0
  0
TEXT
  5
18675
330
180D1
100
AcDbEntity
  8
SUNPOU
100
AcDbText
 10
12649.90176915463
 20
4393.83251285427
 30
0.0
 40
90.0
  1
510
 50
90.0
 41
0.6666666666666666
  7
00
100
AcDbText
  0
LINE
  5
18676
330
180D1
100
AcDbEntity
  8
SUNPOU
100
AcDbLine
 10
12694.90176915463
 20
4723.296798568532
 30
0.0
 11
12694.90176915463
 21
4712.046798568533
 31
0.0
  0
LINE
  5
18677
330
180D1
100
AcDbEntity
  8
SUNPOU
100
AcDbLine
 10
12694.90176915463
 20
4235.796798568578
 30
0.0
 11
12694.90176915463
 21
4247.046798568576
 31
0.0
  0
TEXT
  5
18678
330
180D1
100
AcDbEntity
  8
SUNPOU
100
AcDbText
 10
12859.90176915462
 20
4442.403941425701
 30
0.0
 40
90.0
  1
610
 50
90.0
 41
0.6666666666666666
  7
00
100
AcDbText
  0
LINE
  5
18679
330
180D1
100
AcDbEntity
  8
SUNPOU
100
AcDbLine
 10
12904.90176915463
 20
4823.296798568535
 30
0.0
 11
12904.90176915463
 21
4812.046798568536
 31
0.0
  0
LINE
  5
1867A
330
180D1
100
AcDbEntity
  8
SUNPOU
100
AcDbLine
 10
12904.90176915463
 20
4235.796798568578
 30
0.0
 11
12904.90176915463
 21
4247.046798568576
 31
0.0
  0
TEXT
  5
1867B
330
180D1
100
AcDbEntity
  8
SUNPOU
100
AcDbText
 10
12859.90176915463
 20
3285.975369997128
 30
0.0
 40
90.0
  1
1640
 50
90.0
 41
0.6666666666666666
  7
00
100
AcDbText
  0
LINE
  5
1867C
330
180D1
100
AcDbEntity
  8
SUNPOU
100
AcDbLine
 10
12904.90176915463
 20
4213.296798568577
 30
0.0
 11
12904.90176915463
 21
4202.046798568576
 31
0.0
  0
LINE
  5
1867D
330
180D1
100
AcDbEntity
  8
SUNPOU
100
AcDbLine
 10
12904.90176915463
 20
2595.796798568535
 30
0.0
 11
12904.90176915463
 21
2607.046798568535
 31
0.0
  0
ARC
  5
1867E
330
180D1
100
AcDbEntity
  8
SUNPOU
100
AcDbCircle
 10
6938.003547453696
 20
5292.546798568536
 30
0.0
 40
5.625
100
AcDbArc
 50
180.0
 51
0.0
  0
ARC
  5
1867F
330
180D1
100
AcDbEntity
  8
SUNPOU
100
AcDbCircle
 10
6938.003547453696
 20
5292.546798568536
 30
0.0
 40
5.625
100
AcDbArc
 50
0.0
 51
180.0
  0
ARC
  5
18680
330
180D1
100
AcDbEntity
  8
SUNPOU
100
AcDbCircle
 10
6700.003547453697
 20
5292.546798568536
 30
0.0
 40
5.625
100
AcDbArc
 50
0.0
 51
180.0
  0
ARC
  5
18681
330
180D1
100
AcDbEntity
  8
SUNPOU
100
AcDbCircle
 10
6700.003547453697
 20
5292.546798568536
 30
0.0
 40
5.625
100
AcDbArc
 50
180.0
 51
0.0
  0
ARC
  5
18682
330
180D1
100
AcDbEntity
  8
SUNPOU
100
AcDbCircle
 10
6700.003547453697
 20
5292.546798568536
 30
0.0
 40
5.625
100
AcDbArc
 50
180.0
 51
0.0
  0
ARC
  5
18683
330
180D1
100
AcDbEntity
  8
SUNPOU
100
AcDbCircle
 10
6700.003547453697
 20
5292.546798568536
 30
0.0
 40
5.625
100
AcDbArc
 50
0.0
 51
180.0
  0
ARC
  5
18684
330
180D1
100
AcDbEntity
  8
SUNPOU
100
AcDbCircle
 10
4300.003547453697
 20
5292.546798568536
 30
0.0
 40
5.625
100
AcDbArc
 50
0.0
 51
180.0
  0
ARC
  5
18685
330
180D1
100
AcDbEntity
  8
SUNPOU
100
AcDbCircle
 10
4300.003547453697
 20
5292.546798568536
 30
0.0
 40
5.625
100
AcDbArc
 50
180.0
 51
0.0
  0
ARC
  5
18686
330
180D1
100
AcDbEntity
  8
SUNPOU
100
AcDbCircle
 10
4062.003547453696
 20
5292.546798568536
 30
0.0
 40
5.625
100
AcDbArc
 50
0.0
 51
180.0
  0
ARC
  5
18687
330
180D1
100
AcDbEntity
  8
SUNPOU
100
AcDbCircle
 10
4062.003547453696
 20
5292.546798568536
 30
0.0
 40
5.625
100
AcDbArc
 50
180.0
 51
0.0
  0
ARC
  5
18688
330
180D1
100
AcDbEntity
  8
SUNPOU
100
AcDbCircle
 10
4300.003547453697
 20
5292.546798568536
 30
0.0
 40
5.625
100
AcDbArc
 50
180.0
 51
0.0
  0
ARC
  5
18689
330
180D1
100
AcDbEntity
  8
SUNPOU
100
AcDbCircle
 10
4300.003547453697
 20
5292.546798568536
 30
0.0
 40
5.625
100
AcDbArc
 50
0.0
 51
180.0
  0
ARC
  5
1868A
330
180D1
100
AcDbEntity
  8
SUNPOU
100
AcDbCircle
 10
4062.003547453698
 20
7201.353322994079
 30
0.0
 40
5.625
100
AcDbArc
 50
0.0
 51
180.0
  0
ARC
  5
1868B
330
180D1
100
AcDbEntity
  8
SUNPOU
100
AcDbCircle
 10
4062.003547453698
 20
7201.353322994079
 30
0.0
 40
5.625
100
AcDbArc
 50
180.0
 51
0.0
  0
ARC
  5
1868C
330
180D1
100
AcDbEntity
  8
SUNPOU
100
AcDbCircle
 10
6938.003547453696
 20
7201.353322994079
 30
0.0
 40
5.625
100
AcDbArc
 50
180.0
 51
0.0
  0
ARC
  5
1868D
330
180D1
100
AcDbEntity
  8
SUNPOU
100
AcDbCircle
 10
6938.003547453696
 20
7201.353322994079
 30
0.0
 40
5.625
100
AcDbArc
 50
0.0
 51
180.0
  0
ARC
  5
1868E
330
180D1
100
AcDbEntity
  8
SUNPOU
100
AcDbCircle
 10
6938.003547453696
 20
7411.353322994077
 30
0.0
 40
5.625
100
AcDbArc
 50
180.0
 51
0.0
  0
ARC
  5
1868F
330
180D1
100
AcDbEntity
  8
SUNPOU
100
AcDbCircle
 10
6938.003547453696
 20
7411.353322994077
 30
0.0
 40
5.625
100
AcDbArc
 50
0.0
 51
180.0
  0
ARC
  5
18690
330
180D1
100
AcDbEntity
  8
SUNPOU
100
AcDbCircle
 10
6700.003547453697
 20
7411.353322994077
 30
0.0
 40
5.625
100
AcDbArc
 50
0.0
 51
180.0
  0
ARC
  5
18691
330
180D1
100
AcDbEntity
  8
SUNPOU
100
AcDbCircle
 10
6700.003547453697
 20
7411.353322994077
 30
0.0
 40
5.625
100
AcDbArc
 50
180.0
 51
0.0
  0
ARC
  5
18692
330
180D1
100
AcDbEntity
  8
SUNPOU
100
AcDbCircle
 10
6700.003547453697
 20
7411.353322994077
 30
0.0
 40
5.625
100
AcDbArc
 50
180.0
 51
0.0
  0
ARC
  5
18693
330
180D1
100
AcDbEntity
  8
SUNPOU
100
AcDbCircle
 10
6700.003547453697
 20
7411.353322994077
 30
0.0
 40
5.625
100
AcDbArc
 50
0.0
 51
180.0
  0
ARC
  5
18694
330
180D1
100
AcDbEntity
  8
SUNPOU
100
AcDbCircle
 10
4300.003547453697
 20
7411.353322994077
 30
0.0
 40
5.625
100
AcDbArc
 50
0.0
 51
180.0
  0
ARC
  5
18695
330
180D1
100
AcDbEntity
  8
SUNPOU
100
AcDbCircle
 10
4300.003547453697
 20
7411.353322994077
 30
0.0
 40
5.625
100
AcDbArc
 50
180.0
 51
0.0
  0
ARC
  5
18696
330
180D1
100
AcDbEntity
  8
SUNPOU
100
AcDbCircle
 10
4062.003547453698
 20
7411.353322994077
 30
0.0
 40
5.625
100
AcDbArc
 50
0.0
 51
180.0
  0
ARC
  5
18697
330
180D1
100
AcDbEntity
  8
SUNPOU
100
AcDbCircle
 10
4062.003547453698
 20
7411.353322994077
 30
0.0
 40
5.625
100
AcDbArc
 50
180.0
 51
0.0
  0
ARC
  5
18698
330
180D1
100
AcDbEntity
  8
SUNPOU
100
AcDbCircle
 10
4300.003547453697
 20
7411.353322994077
 30
0.0
 40
5.625
100
AcDbArc
 50
180.0
 51
0.0
  0
ARC
  5
18699
330
180D1
100
AcDbEntity
  8
SUNPOU
100
AcDbCircle
 10
4300.003547453697
 20
7411.353322994077
 30
0.0
 40
5.625
100
AcDbArc
 50
0.0
 51
180.0
  0
ARC
  5
1869A
330
180D1
100
AcDbEntity
  8
SUNPOU
100
AcDbCircle
 10
9550.351769154636
 20
4834.54679856853
 30
0.0
 40
5.625
100
AcDbArc
 50
270.0
 51
90.0
  0
ARC
  5
1869B
330
180D1
100
AcDbEntity
  8
SUNPOU
100
AcDbCircle
 10
9550.351769154636
 20
4834.54679856853
 30
0.0
 40
5.625
100
AcDbArc
 50
90.0
 51
270.0
  0
ARC
  5
1869C
330
180D1
100
AcDbEntity
  8
SUNPOU
100
AcDbCircle
 10
9550.351769154636
 20
2584.546798568533
 30
0.0
 40
5.625
100
AcDbArc
 50
90.0
 51
270.0
  0
ARC
  5
1869D
330
180D1
100
AcDbEntity
  8
SUNPOU
100
AcDbCircle
 10
9550.351769154636
 20
2584.546798568533
 30
0.0
 40
5.625
100
AcDbArc
 50
270.0
 51
90.0
  0
ARC
  5
1869E
330
180D1
100
AcDbEntity
  8
SUNPOU
100
AcDbCircle
 10
12694.90176915463
 20
4834.546798568535
 30
0.0
 40
5.625
100
AcDbArc
 50
90.0
 51
270.0
  0
ARC
  5
1869F
330
180D1
100
AcDbEntity
  8
SUNPOU
100
AcDbCircle
 10
12694.90176915463
 20
4834.546798568535
 30
0.0
 40
5.625
100
AcDbArc
 50
270.0
 51
90.0
  0
ARC
  5
186A0
330
180D1
100
AcDbEntity
  8
SUNPOU
100
AcDbCircle
 10
12694.90176915463
 20
4734.546798568532
 30
0.0
 40
5.625
100
AcDbArc
 50
270.0
 51
90.0
  0
ARC
  5
186A1
330
180D1
100
AcDbEntity
  8
SUNPOU
100
AcDbCircle
 10
12694.90176915463
 20
4734.546798568532
 30
0.0
 40
5.625
100
AcDbArc
 50
90.0
 51
270.0
  0
ARC
  5
186A2
330
180D1
100
AcDbEntity
  8
SUNPOU
100
AcDbCircle
 10
12694.90176915463
 20
4734.546798568532
 30
0.0
 40
5.625
100
AcDbArc
 50
270.0
 51
90.0
  0
ARC
  5
186A3
330
180D1
100
AcDbEntity
  8
SUNPOU
100
AcDbCircle
 10
12694.90176915463
 20
4734.546798568532
 30
0.0
 40
5.625
100
AcDbArc
 50
90.0
 51
270.0
  0
ARC
  5
186A4
330
180D1
100
AcDbEntity
  8
SUNPOU
100
AcDbCircle
 10
12694.90176915463
 20
4224.546798568576
 30
0.0
 40
5.625
100
AcDbArc
 50
90.0
 51
270.0
  0
ARC
  5
186A5
330
180D1
100
AcDbEntity
  8
SUNPOU
100
AcDbCircle
 10
12694.90176915463
 20
4224.546798568576
 30
0.0
 40
5.625
100
AcDbArc
 50
270.0
 51
90.0
  0
ARC
  5
186A6
330
180D1
100
AcDbEntity
  8
SUNPOU
100
AcDbCircle
 10
12904.90176915463
 20
4834.546798568535
 30
0.0
 40
5.625
100
AcDbArc
 50
270.0
 51
90.0
  0
ARC
  5
186A7
330
180D1
100
AcDbEntity
  8
SUNPOU
100
AcDbCircle
 10
12904.90176915463
 20
4834.546798568535
 30
0.0
 40
5.625
100
AcDbArc
 50
90.0
 51
270.0
  0
ARC
  5
186A8
330
180D1
100
AcDbEntity
  8
SUNPOU
100
AcDbCircle
 10
12904.90176915463
 20
4224.546798568576
 30
0.0
 40
5.625
100
AcDbArc
 50
90.0
 51
270.0
  0
ARC
  5
186A9
330
180D1
100
AcDbEntity
  8
SUNPOU
100
AcDbCircle
 10
12904.90176915463
 20
4224.546798568576
 30
0.0
 40
5.625
100
AcDbArc
 50
270.0
 51
90.0
  0
ARC
  5
186AA
330
180D1
100
AcDbEntity
  8
SUNPOU
100
AcDbCircle
 10
12904.90176915463
 20
4224.546798568576
 30
0.0
 40
5.625
100
AcDbArc
 50
270.0
 51
90.0
  0
ARC
  5
186AB
330
180D1
100
AcDbEntity
  8
SUNPOU
100
AcDbCircle
 10
12904.90176915463
 20
4224.546798568576
 30
0.0
 40
5.625
100
AcDbArc
 50
90.0
 51
270.0
  0
ARC
  5
186AC
330
180D1
100
AcDbEntity
  8
SUNPOU
100
AcDbCircle
 10
12904.90176915463
 20
2584.546798568535
 30
0.0
 40
5.625
100
AcDbArc
 50
90.0
 51
270.0
  0
ARC
  5
186AD
330
180D1
100
AcDbEntity
  8
SUNPOU
100
AcDbCircle
 10
12904.90176915463
 20
2584.546798568535
 30
0.0
 40
5.625
100
AcDbArc
 50
270.0
 51
90.0
  0
LINE
  5
186AE
330
180D1
100
AcDbEntity
  8
HIKIDASHI
100
AcDbLine
 10
4647.267692098385
 20
8553.485784997709
 30
0.0
 11
4736.146375674826
 21
8365.031635279924
 31
0.0
1001
ACAD
1000
DSTYLE
1002
{
1070
   147
1040
1.5
1070
    77
1070
     0
1002
}
  0
LINE
  5
186AF
330
180D1
100
AcDbEntity
  8
HIKIDASHI
100
AcDbLine
 10
4656.312281764447
 20
8557.751391375772
 30
0.0
 11
4621.674053830006
 21
8607.753322994078
 31
0.0
  0
LINE
  5
186B0
330
180D1
100
AcDbEntity
  8
HIKIDASHI
100
AcDbLine
 10
4621.674053830006
 20
8607.753322994078
 30
0.0
 11
4638.223102432322
 21
8549.220178619647
 31
0.0
  0
SOLID
  5
186B1
330
180D1
100
AcDbEntity
  8
HIKIDASHI
100
AcDbTrace
 10
4656.312281764447
 20
8557.751391375772
 30
0.0
 11
4638.223102432322
 21
8549.220178619647
 31
0.0
 12
4621.674053830006
 22
8607.753322994078
 32
0.0
 13
4621.674053830006
 23
8607.753322994078
 33
0.0
  0
LINE
  5
186B2
330
180D1
100
AcDbEntity
  8
HIKIDASHI
100
AcDbLine
 10
4638.223102432322
 20
8549.220178619647
 30
0.0
 11
4656.312281764447
 21
8557.751391375772
 31
0.0
  0
LINE
  5
186B3
330
180D1
100
AcDbEntity
  8
HIKIDASHI
100
AcDbLine
 10
5747.484019788764
 20
9767.715362221146
 30
0.0
 11
5446.022721769288
 21
10782.20356916861
 31
0.0
1001
ACAD
1000
DSTYLE
1002
{
1070
   147
1040
1.5
1070
    77
1070
     0
1070
   173
1070
     0
1070
   341
1005
125B0
1002
}
  0
ARC
  5
186B4
330
180D1
100
AcDbEntity
  8
HIKIDASHI
100
AcDbCircle
 10
5781.78755165803
 20
9704.935965713834
 30
0.0
 40
18.0
100
AcDbArc
 50
50.10694464724227
 51
162.992325123401
  0
ARC
  5
186B5
330
180D1
100
AcDbEntity
  8
HIKIDASHI
100
AcDbCircle
 10
5747.361990646699
 20
9715.465958546456
 30
0.0
 40
18.0
100
AcDbArc
 50
230.1069446472423
 51
342.9923251234009
  0
LINE
  5
186B6
330
180D1
100
AcDbEntity
  8
HIKIDASHI
100
AcDbLine
 10
5764.574771152364
 20
9710.200962130144
 30
0.0
 11
5747.48401978876
 21
9767.715362221156
 31
0.0
  0
LINE
  5
186B7
330
180D1
100
AcDbEntity
  8
HIKIDASHI
100
AcDbLine
 10
4200.47808637368
 20
9288.606745003164
 30
0.0
 11
3958.436181948103
 21
9394.42786850874
 31
0.0
1001
ACAD
1000
DSTYLE
1002
{
1070
   147
1040
1.5
1070
    77
1070
     0
1002
}
  0
LINE
  5
186B8
330
180D1
100
AcDbEntity
  8
HIKIDASHI
100
AcDbLine
 10
4196.472192524752
 20
9279.444168156492
 30
0.0
 11
4255.453547453699
 21
9264.5713819096
 31
0.0
  0
LINE
  5
186B9
330
180D1
100
AcDbEntity
  8
HIKIDASHI
100
AcDbLine
 10
4255.453547453699
 20
9264.5713819096
 30
0.0
 11
4204.483980222605
 21
9297.769321849832
 31
0.0
  0
SOLID
  5
186BA
330
180D1
100
AcDbEntity
  8
HIKIDASHI
100
AcDbTrace
 10
4196.472192524752
 20
9279.444168156492
 30
0.0
 11
4204.483980222605
 21
9297.769321849832
 31
0.0
 12
4255.453547453699
 22
9264.5713819096
 32
0.0
 13
4255.453547453699
 23
9264.5713819096
 33
0.0
  0
LINE
  5
186BB
330
180D1
100
AcDbEntity
  8
HIKIDASHI
100
AcDbLine
 10
4204.483980222605
 20
9297.769321849832
 30
0.0
 11
4196.472192524752
 21
9279.444168156492
 31
0.0
  0
LINE
  5
186BC
330
180D1
100
AcDbEntity
  8
HIKIDASHI
100
AcDbLine
 10
4476.06983587207
 20
10185.21848795078
 30
0.0
 11
4566.89150768862
 21
10355.132282271
 31
0.0
  0
LINE
  5
186BD
330
180D1
100
AcDbEntity
  8
HIKIDASHI
100
AcDbLine
 10
4467.250641712617
 20
10189.93248990007
 30
0.0
 11
4447.785824176348
 21
10132.30332299408
 31
0.0
  0
LINE
  5
186BE
330
180D1
100
AcDbEntity
  8
HIKIDASHI
100
AcDbLine
 10
4447.785824176348
 20
10132.30332299408
 30
0.0
 11
4484.889030031522
 21
10180.5044860015
 31
0.0
  0
SOLID
  5
186BF
330
180D1
100
AcDbEntity
  8
HIKIDASHI
100
AcDbTrace
 10
4467.250641712617
 20
10189.93248990007
 30
0.0
 11
4484.889030031522
 21
10180.5044860015
 31
0.0
 12
4447.785824176348
 22
10132.30332299408
 32
0.0
 13
4447.785824176348
 23
10132.30332299408
 33
0.0
  0
LINE
  5
186C0
330
180D1
100
AcDbEntity
  8
HIKIDASHI
100
AcDbLine
 10
4484.889030031522
 20
10180.5044860015
 30
0.0
 11
4467.250641712617
 21
10189.93248990007
 31
0.0
  0
LINE
  5
186C1
330
180D1
100
AcDbEntity
  8
HIKIDASHI
100
AcDbLine
 10
4225.045566501329
 20
9901.630986869696
 30
0.0
 11
3958.436181948103
 21
10355.132282271
 31
0.0
1001
ACAD
1000
DSTYLE
1002
{
1070
   147
1040
1.5
1070
    77
1070
     0
1002
}
  0
LINE
  5
186C2
330
180D1
100
AcDbEntity
  8
HIKIDASHI
100
AcDbLine
 10
4216.424927999582
 20
9896.562990044301
 30
0.0
 11
4255.453547453699
 21
9849.90715585922
 31
0.0
  0
LINE
  5
186C3
330
180D1
100
AcDbEntity
  8
HIKIDASHI
100
AcDbLine
 10
4255.453547453699
 20
9849.90715585922
 30
0.0
 11
4233.666205003074
 21
9906.698983695092
 31
0.0
  0
SOLID
  5
186C4
330
180D1
100
AcDbEntity
  8
HIKIDASHI
100
AcDbTrace
 10
4216.424927999582
 20
9896.562990044301
 30
0.0
 11
4233.666205003074
 21
9906.698983695092
 31
0.0
 12
4255.453547453699
 22
9849.90715585922
 32
0.0
 13
4255.453547453699
 23
9849.90715585922
 33
0.0
  0
LINE
  5
186C5
330
180D1
100
AcDbEntity
  8
HIKIDASHI
100
AcDbLine
 10
4233.666205003074
 20
9906.698983695092
 30
0.0
 11
4216.424927999582
 21
9896.562990044301
 31
0.0
  0
LINE
  5
186C6
330
180D1
100
AcDbEntity
  8
HIKIDASHI
100
AcDbLine
 10
6966.542654087348
 20
8083.701016098661
 30
0.0
 11
7213.415866697258
 21
7656.104068830498
 31
0.0
1001
ACAD
1000
DSTYLE
1002
{
1070
   147
1040
1.5
1070
    77
1070
     0
1002
}
  0
LINE
  5
186C7
330
180D1
100
AcDbEntity
  8
HIKIDASHI
100
AcDbLine
 10
6975.202908125194
 20
8088.701016098658
 30
0.0
 11
6936.54265408735
 21
8135.662540325727
 31
0.0
  0
LINE
  5
186C8
330
180D1
100
AcDbEntity
  8
HIKIDASHI
100
AcDbLine
 10
6936.54265408735
 20
8135.662540325727
 30
0.0
 11
6957.882400049503
 21
8078.701016098658
 31
0.0
  0
SOLID
  5
186C9
330
180D1
100
AcDbEntity
  8
HIKIDASHI
100
AcDbTrace
 10
6975.202908125194
 20
8088.701016098658
 30
0.0
 11
6957.882400049503
 21
8078.701016098658
 31
0.0
 12
6936.54265408735
 22
8135.662540325727
 32
0.0
 13
6936.54265408735
 23
8135.662540325727
 33
0.0
  0
LINE
  5
186CA
330
180D1
100
AcDbEntity
  8
HIKIDASHI
100
AcDbLine
 10
6957.882400049503
 20
8078.701016098658
 30
0.0
 11
6975.202908125194
 21
8088.701016098658
 31
0.0
  0
LINE
  5
186CB
330
180D1
100
AcDbEntity
  8
HIKIDASHI
100
AcDbLine
 10
6968.003547453696
 20
8264.14254460343
 30
0.0
 11
7197.811168589009
 21
7866.104068830495
 31
0.0
1001
ACAD
1000
DSTYLE
1002
{
1070
   147
1040
1.5
1070
    77
1070
     0
1002
}
  0
LINE
  5
186CC
330
180D1
100
AcDbEntity
  8
HIKIDASHI
100
AcDbLine
 10
6976.663801491541
 20
8269.142544603424
 30
0.0
 11
6938.003547453696
 21
8316.104068830496
 31
0.0
  0
LINE
  5
186CD
330
180D1
100
AcDbEntity
  8
HIKIDASHI
100
AcDbLine
 10
6938.003547453696
 20
8316.104068830496
 30
0.0
 11
6959.343293415852
 21
8259.142544603431
 31
0.0
  0
SOLID
  5
186CE
330
180D1
100
AcDbEntity
  8
HIKIDASHI
100
AcDbTrace
 10
6976.663801491541
 20
8269.142544603424
 30
0.0
 11
6959.343293415852
 21
8259.142544603431
 31
0.0
 12
6938.003547453696
 22
8316.104068830496
 32
0.0
 13
6938.003547453696
 23
8316.104068830496
 33
0.0
  0
LINE
  5
186CF
330
180D1
100
AcDbEntity
  8
HIKIDASHI
100
AcDbLine
 10
6959.343293415852
 20
8259.142544603431
 30
0.0
 11
6976.663801491541
 21
8269.142544603424
 31
0.0
  0
LINE
  5
186D0
330
180D1
100
AcDbEntity
  8
HIKIDASHI
100
AcDbLine
 10
6912.18234024481
 20
10186.4629505618
 30
0.0
 11
6800.962084885579
 21
10419.74590900422
 31
0.0
1001
ACAD
1000
DSTYLE
1002
{
1070
   147
1040
1.5
1070
    77
1070
     0
1002
}
  0
LINE
  5
186D1
330
180D1
100
AcDbEntity
  8
HIKIDASHI
100
AcDbLine
 10
6903.155735650187
 20
10182.15941602699
 30
0.0
 11
6938.003547453696
 21
10132.30332299408
 31
0.0
  0
LINE
  5
186D2
330
180D1
100
AcDbEntity
  8
HIKIDASHI
100
AcDbLine
 10
6938.003547453696
 20
10132.30332299408
 30
0.0
 11
6921.208944839432
 21
10190.76648509662
 31
0.0
  0
SOLID
  5
186D3
330
180D1
100
AcDbEntity
  8
HIKIDASHI
100
AcDbTrace
 10
6903.155735650187
 20
10182.15941602699
 30
0.0
 11
6921.208944839432
 21
10190.76648509662
 31
0.0
 12
6938.003547453696
 22
10132.30332299408
 32
0.0
 13
6938.003547453696
 23
10132.30332299408
 33
0.0
  0
LINE
  5
186D4
330
180D1
100
AcDbEntity
  8
HIKIDASHI
100
AcDbLine
 10
6921.208944839432
 20
10190.76648509662
 30
0.0
 11
6903.155735650187
 21
10182.15941602699
 31
0.0
  0
LINE
  5
186D5
330
180D1
100
AcDbEntity
  8
HIKIDASHI
100
AcDbLine
 10
4220.926650102392
 20
8285.530816004195
 30
0.0
 11
3958.436181948103
 21
8492.944302231133
 31
0.0
1001
ACAD
1000
DSTYLE
1002
{
1070
   147
1040
1.5
1070
    77
1070
     0
1002
}
  0
LINE
  5
186D6
330
180D1
100
AcDbEntity
  8
HIKIDASHI
100
AcDbLine
 10
4214.726816467136
 20
8277.684666445642
 30
0.0
 11
4268.003547453697
 21
8248.331814192658
 31
0.0
  0
LINE
  5
186D7
330
180D1
100
AcDbEntity
  8
HIKIDASHI
100
AcDbLine
 10
4268.003547453697
 20
8248.331814192658
 30
0.0
 11
4227.126483737648
 21
8293.376965562744
 31
0.0
  0
SOLID
  5
186D8
330
180D1
100
AcDbEntity
  8
HIKIDASHI
100
AcDbTrace
 10
4214.726816467136
 20
8277.684666445642
 30
0.0
 11
4227.126483737648
 21
8293.376965562744
 31
0.0
 12
4268.003547453697
 22
8248.331814192658
 32
0.0
 13
4268.003547453697
 23
8248.331814192658
 33
0.0
  0
LINE
  5
186D9
330
180D1
100
AcDbEntity
  8
HIKIDASHI
100
AcDbLine
 10
4227.126483737648
 20
8293.376965562744
 30
0.0
 11
4214.726816467136
 21
8277.684666445642
 31
0.0
  0
LINE
  5
186DA
330
180D1
100
AcDbEntity
  8
HIKIDASHI
100
AcDbLine
 10
4220.926650102396
 20
8720.330816004192
 30
0.0
 11
3958.436181948103
 21
8927.744302231136
 31
0.0
1001
ACAD
1000
DSTYLE
1002
{
1070
   147
1040
1.5
1070
    77
1070
     0
1002
}
  0
LINE
  5
186DB
330
180D1
100
AcDbEntity
  8
HIKIDASHI
100
AcDbLine
 10
4214.726816467138
 20
8712.484666445641
 30
0.0
 11
4268.003547453701
 21
8683.131814192657
 31
0.0
  0
LINE
  5
186DC
330
180D1
100
AcDbEntity
  8
HIKIDASHI
100
AcDbLine
 10
4268.003547453701
 20
8683.131814192657
 30
0.0
 11
4227.126483737651
 21
8728.176965562742
 31
0.0
  0
SOLID
  5
186DD
330
180D1
100
AcDbEntity
  8
HIKIDASHI
100
AcDbTrace
 10
4214.726816467138
 20
8712.484666445641
 30
0.0
 11
4227.126483737651
 21
8728.176965562742
 31
0.0
 12
4268.003547453701
 22
8683.131814192657
 32
0.0
 13
4268.003547453701
 23
8683.131814192657
 33
0.0
  0
LINE
  5
186DE
330
180D1
100
AcDbEntity
  8
HIKIDASHI
100
AcDbLine
 10
4227.126483737651
 20
8728.176965562742
 30
0.0
 11
4214.726816467138
 21
8712.484666445641
 31
0.0
  0
LINE
  5
186DF
330
180D1
100
AcDbEntity
  8
HIKIDASHI
100
AcDbLine
 10
4160.743340586875
 20
9657.66468261259
 30
0.0
 11
3958.436181948103
 21
9864.677917757592
 31
0.0
1001
ACAD
1000
DSTYLE
1002
{
1070
   147
1040
1.5
1070
    77
1070
     0
1002
}
  0
LINE
  5
186E0
330
180D1
100
AcDbEntity
  8
HIKIDASHI
100
AcDbLine
 10
4153.591447317121
 20
9650.675374874474
 30
0.0
 11
4202.679187015567
 21
9614.753322994079
 31
0.0
  0
LINE
  5
186E1
330
180D1
100
AcDbEntity
  8
HIKIDASHI
100
AcDbLine
 10
4202.679187015567
 20
9614.753322994079
 30
0.0
 11
4167.895233856627
 21
9664.653990350707
 31
0.0
  0
SOLID
  5
186E2
330
180D1
100
AcDbEntity
  8
HIKIDASHI
100
AcDbTrace
 10
4153.591447317121
 20
9650.675374874474
 30
0.0
 11
4167.895233856627
 21
9664.653990350707
 31
0.0
 12
4202.679187015567
 22
9614.753322994079
 32
0.0
 13
4202.679187015567
 23
9614.753322994079
 33
0.0
  0
LINE
  5
186E3
330
180D1
100
AcDbEntity
  8
HIKIDASHI
100
AcDbLine
 10
4167.895233856627
 20
9664.653990350707
 30
0.0
 11
4153.591447317121
 21
9650.675374874474
 31
0.0
  0
LINE
  5
186E4
330
180D1
100
AcDbEntity
  8
HIKIDASHI
100
AcDbLine
 10
4546.06310926838
 20
8100.48123355309
 30
0.0
 11
3827.06168081575
 21
7621.353322994076
 31
0.0
1001
ACAD
1000
DSTYLE
1002
{
1070
   147
1040
1.5
1070
    77
1070
     0
1002
}
  0
LINE
  5
186E5
330
180D1
100
AcDbEntity
  8
HIKIDASHI
100
AcDbLine
 10
4551.608457508546
 20
8092.159628365669
 30
0.0
 11
4595.992740392904
 21
8133.753322994079
 31
0.0
  0
LINE
  5
186E6
330
180D1
100
AcDbEntity
  8
HIKIDASHI
100
AcDbLine
 10
4595.992740392904
 20
8133.753322994079
 30
0.0
 11
4540.517761028216
 21
8108.80283874051
 31
0.0
  0
SOLID
  5
186E7
330
180D1
100
AcDbEntity
  8
HIKIDASHI
100
AcDbTrace
 10
4551.608457508546
 20
8092.159628365669
 30
0.0
 11
4540.517761028216
 21
8108.80283874051
 31
0.0
 12
4595.992740392904
 22
8133.753322994079
 32
0.0
 13
4595.992740392904
 23
8133.753322994079
 33
0.0
  0
LINE
  5
186E8
330
180D1
100
AcDbEntity
  8
HIKIDASHI
100
AcDbLine
 10
4540.517761028216
 20
8108.80283874051
 30
0.0
 11
4551.608457508546
 21
8092.159628365669
 31
0.0
  0
LINE
  5
186E9
330
180D1
100
AcDbEntity
  8
HIKIDASHI
100
AcDbLine
 10
4558.582397972689
 20
9045.910047139059
 30
0.0
 11
4693.626269517052
 21
8804.896898117092
 31
0.0
1001
ACAD
1000
DSTYLE
1002
{
1070
   147
1040
1.5
1070
    77
1070
     0
1002
}
  0
LINE
  5
186EA
330
180D1
100
AcDbEntity
  8
HIKIDASHI
100
AcDbLine
 10
4567.30627728186
 20
9050.798188892224
 30
0.0
 11
4529.253547453698
 21
9098.253322994079
 31
0.0
  0
LINE
  5
186EB
330
180D1
100
AcDbEntity
  8
HIKIDASHI
100
AcDbLine
 10
4529.253547453698
 20
9098.253322994079
 30
0.0
 11
4549.858518663518
 21
9041.021905385893
 31
0.0
  0
SOLID
  5
186EC
330
180D1
100
AcDbEntity
  8
HIKIDASHI
100
AcDbTrace
 10
4567.30627728186
 20
9050.798188892224
 30
0.0
 11
4549.858518663518
 21
9041.021905385893
 31
0.0
 12
4529.253547453698
 22
9098.253322994079
 32
0.0
 13
4529.253547453698
 23
9098.253322994079
 33
0.0
  0
LINE
  5
186ED
330
180D1
100
AcDbEntity
  8
HIKIDASHI
100
AcDbLine
 10
4549.858518663518
 20
9041.021905385893
 30
0.0
 11
4567.30627728186
 21
9050.798188892224
 31
0.0
  0
CIRCLE
  5
186EE
330
180D1
100
AcDbEntity
  8
HATCH
100
AcDbCircle
 10
6952.78704086263
 20
2567.792802042403
 30
0.0
 40
3.75
  0
CIRCLE
  5
186EF
330
180D1
100
AcDbEntity
  8
HATCH
100
AcDbCircle
 10
6802.78704086263
 20
2567.792802042403
 30
0.0
 40
3.75
  0
CIRCLE
  5
186F0
330
180D1
100
AcDbEntity
  8
HATCH
100
AcDbCircle
 10
6652.78704086263
 20
2567.792802042403
 30
0.0
 40
3.75
  0
CIRCLE
  5
186F1
330
180D1
100
AcDbEntity
  8
HATCH
100
AcDbCircle
 10
6502.78704086263
 20
2567.792802042403
 30
0.0
 40
3.75
  0
CIRCLE
  5
186F2
330
180D1
100
AcDbEntity
  8
HATCH
100
AcDbCircle
 10
6352.787040862629
 20
2567.792802042403
 30
0.0
 40
3.75
  0
CIRCLE
  5
186F3
330
180D1
100
AcDbEntity
  8
HATCH
100
AcDbCircle
 10
6202.787040862628
 20
2567.792802042403
 30
0.0
 40
3.75
  0
CIRCLE
  5
186F4
330
180D1
100
AcDbEntity
  8
HATCH
100
AcDbCircle
 10
6052.78704086263
 20
2567.792802042403
 30
0.0
 40
3.75
  0
CIRCLE
  5
186F5
330
180D1
100
AcDbEntity
  8
HATCH
100
AcDbCircle
 10
5902.787040862626
 20
2567.792802042403
 30
0.0
 40
3.75
  0
CIRCLE
  5
186F6
330
180D1
100
AcDbEntity
  8
HATCH
100
AcDbCircle
 10
5752.78704086263
 20
2567.792802042403
 30
0.0
 40
3.75
  0
CIRCLE
  5
186F7
330
180D1
100
AcDbEntity
  8
HATCH
100
AcDbCircle
 10
5602.787040862629
 20
2567.792802042403
 30
0.0
 40
3.75
  0
CIRCLE
  5
186F8
330
180D1
100
AcDbEntity
  8
HATCH
100
AcDbCircle
 10
5452.787040862631
 20
2567.792802042403
 30
0.0
 40
3.75
  0
CIRCLE
  5
186F9
330
180D1
100
AcDbEntity
  8
HATCH
100
AcDbCircle
 10
5302.78704086263
 20
2567.792802042403
 30
0.0
 40
3.75
  0
CIRCLE
  5
186FA
330
180D1
100
AcDbEntity
  8
HATCH
100
AcDbCircle
 10
5152.78704086263
 20
2567.792802042403
 30
0.0
 40
3.75
  0
CIRCLE
  5
186FB
330
180D1
100
AcDbEntity
  8
HATCH
100
AcDbCircle
 10
5002.787040862632
 20
2567.792802042403
 30
0.0
 40
3.75
  0
CIRCLE
  5
186FC
330
180D1
100
AcDbEntity
  8
HATCH
100
AcDbCircle
 10
4852.787040862629
 20
2567.792802042403
 30
0.0
 40
3.75
  0
CIRCLE
  5
186FD
330
180D1
100
AcDbEntity
  8
HATCH
100
AcDbCircle
 10
4702.78704086263
 20
2567.792802042403
 30
0.0
 40
3.75
  0
CIRCLE
  5
186FE
330
180D1
100
AcDbEntity
  8
HATCH
100
AcDbCircle
 10
4552.78704086263
 20
2567.792802042403
 30
0.0
 40
3.75
  0
CIRCLE
  5
186FF
330
180D1
100
AcDbEntity
  8
HATCH
100
AcDbCircle
 10
4402.787040862628
 20
2567.792802042403
 30
0.0
 40
3.75
  0
CIRCLE
  5
18700
330
180D1
100
AcDbEntity
  8
HATCH
100
AcDbCircle
 10
4252.787040862631
 20
2567.792802042403
 30
0.0
 40
3.75
  0
CIRCLE
  5
18701
330
180D1
100
AcDbEntity
  8
HATCH
100
AcDbCircle
 10
4102.787040862629
 20
2567.792802042403
 30
0.0
 40
3.75
  0
CIRCLE
  5
18702
330
180D1
100
AcDbEntity
  8
HATCH
100
AcDbCircle
 10
3952.787040862629
 20
2567.792802042403
 30
0.0
 40
3.75
  0
CIRCLE
  5
18703
330
180D1
100
AcDbEntity
  8
HATCH
100
AcDbCircle
 10
12198.96274259858
 20
2567.792802042401
 30
0.0
 40
3.75
  0
CIRCLE
  5
18704
330
180D1
100
AcDbEntity
  8
HATCH
100
AcDbCircle
 10
12086.14558590005
 20
2573.036693338606
 30
0.0
 40
3.75
  0
CIRCLE
  5
18705
330
180D1
100
AcDbEntity
  8
HATCH
100
AcDbCircle
 10
12015.30691716915
 20
2567.792802042401
 30
0.0
 40
3.75
  0
CIRCLE
  5
18706
330
180D1
100
AcDbEntity
  8
HATCH
100
AcDbCircle
 10
11878.87688221344
 20
2567.792802042401
 30
0.0
 40
3.75
  0
CIRCLE
  5
18707
330
180D1
100
AcDbEntity
  8
HATCH
100
AcDbCircle
 10
11747.69421768261
 20
2567.792802042401
 30
0.0
 40
3.75
  0
CIRCLE
  5
18708
330
180D1
100
AcDbEntity
  8
HATCH
100
AcDbCircle
 10
11629.62979243736
 20
2573.036693338606
 30
0.0
 40
3.75
  0
CIRCLE
  5
18709
330
180D1
100
AcDbEntity
  8
HATCH
100
AcDbCircle
 10
11558.79112370645
 20
2567.792802042401
 30
0.0
 40
3.75
  0
CIRCLE
  5
1870A
330
180D1
100
AcDbEntity
  8
HATCH
100
AcDbCircle
 10
11362.01702503205
 20
2567.792802042401
 30
0.0
 40
3.75
  0
CIRCLE
  5
1870B
330
180D1
100
AcDbEntity
  8
HATCH
100
AcDbCircle
 10
11112.76993525596
 20
2573.036693338606
 30
0.0
 40
3.75
  0
CIRCLE
  5
1870C
330
180D1
100
AcDbEntity
  8
HATCH
100
AcDbCircle
 10
11230.83436050123
 20
2567.792802042401
 30
0.0
 40
3.75
  0
CIRCLE
  5
1870D
330
180D1
100
AcDbEntity
  8
HATCH
100
AcDbCircle
 10
10955.35069027584
 20
2567.792802042401
 30
0.0
 40
3.75
  0
CIRCLE
  5
1870E
330
180D1
100
AcDbEntity
  8
HATCH
100
AcDbCircle
 10
10758.57659160144
 20
2567.792802042401
 30
0.0
 40
3.75
  0
CIRCLE
  5
1870F
330
180D1
100
AcDbEntity
  8
HATCH
100
AcDbCircle
 10
10640.51216635618
 20
2573.036693338606
 30
0.0
 40
3.75
  0
CIRCLE
  5
18710
330
180D1
100
AcDbEntity
  8
HATCH
100
AcDbCircle
 10
10483.09292137605
 20
2567.792802042401
 30
0.0
 40
3.75
  0
CIRCLE
  5
18711
330
180D1
100
AcDbEntity
  8
HATCH
100
AcDbCircle
 10
10349.28655465308
 20
2567.792802042401
 30
0.0
 40
3.75
  0
CIRCLE
  5
18712
330
180D1
100
AcDbEntity
  8
HATCH
100
AcDbCircle
 10
10231.22212940783
 20
2573.036693338606
 30
0.0
 40
3.75
  0
CIRCLE
  5
18713
330
180D1
100
AcDbEntity
  8
HATCH
100
AcDbCircle
 10
10073.8028844277
 20
2567.792802042401
 30
0.0
 40
3.75
  0
ARC
  5
18714
330
180D1
100
AcDbEntity
  8
HATCH
100
AcDbCircle
 10
6952.78704086263
 20
2567.792802042403
 30
0.0
 40
1.875
100
AcDbArc
 50
180.0
 51
0.0
  0
ARC
  5
18715
330
180D1
100
AcDbEntity
  8
HATCH
100
AcDbCircle
 10
6952.78704086263
 20
2567.792802042403
 30
0.0
 40
1.875
100
AcDbArc
 50
0.0
 51
180.0
  0
ARC
  5
18716
330
180D1
100
AcDbEntity
  8
HATCH
100
AcDbCircle
 10
6802.78704086263
 20
2567.792802042403
 30
0.0
 40
1.875
100
AcDbArc
 50
180.0
 51
0.0
  0
ARC
  5
18717
330
180D1
100
AcDbEntity
  8
HATCH
100
AcDbCircle
 10
6802.78704086263
 20
2567.792802042403
 30
0.0
 40
1.875
100
AcDbArc
 50
0.0
 51
180.0
  0
ARC
  5
18718
330
180D1
100
AcDbEntity
  8
HATCH
100
AcDbCircle
 10
6652.78704086263
 20
2567.792802042403
 30
0.0
 40
1.875
100
AcDbArc
 50
180.0
 51
0.0
  0
ARC
  5
18719
330
180D1
100
AcDbEntity
  8
HATCH
100
AcDbCircle
 10
6652.78704086263
 20
2567.792802042403
 30
0.0
 40
1.875
100
AcDbArc
 50
0.0
 51
180.0
  0
ARC
  5
1871A
330
180D1
100
AcDbEntity
  8
HATCH
100
AcDbCircle
 10
6502.78704086263
 20
2567.792802042403
 30
0.0
 40
1.875
100
AcDbArc
 50
180.0
 51
0.0
  0
ARC
  5
1871B
330
180D1
100
AcDbEntity
  8
HATCH
100
AcDbCircle
 10
6502.78704086263
 20
2567.792802042403
 30
0.0
 40
1.875
100
AcDbArc
 50
0.0
 51
180.0
  0
ARC
  5
1871C
330
180D1
100
AcDbEntity
  8
HATCH
100
AcDbCircle
 10
6352.787040862629
 20
2567.792802042403
 30
0.0
 40
1.875
100
AcDbArc
 50
180.0
 51
0.0
  0
ARC
  5
1871D
330
180D1
100
AcDbEntity
  8
HATCH
100
AcDbCircle
 10
6352.787040862629
 20
2567.792802042403
 30
0.0
 40
1.875
100
AcDbArc
 50
0.0
 51
180.0
  0
ARC
  5
1871E
330
180D1
100
AcDbEntity
  8
HATCH
100
AcDbCircle
 10
6202.787040862628
 20
2567.792802042403
 30
0.0
 40
1.875
100
AcDbArc
 50
180.0
 51
0.0
  0
ARC
  5
1871F
330
180D1
100
AcDbEntity
  8
HATCH
100
AcDbCircle
 10
6202.787040862628
 20
2567.792802042403
 30
0.0
 40
1.875
100
AcDbArc
 50
0.0
 51
180.0
  0
ARC
  5
18720
330
180D1
100
AcDbEntity
  8
HATCH
100
AcDbCircle
 10
6052.78704086263
 20
2567.792802042403
 30
0.0
 40
1.875
100
AcDbArc
 50
180.0
 51
0.0
  0
ARC
  5
18721
330
180D1
100
AcDbEntity
  8
HATCH
100
AcDbCircle
 10
6052.78704086263
 20
2567.792802042403
 30
0.0
 40
1.875
100
AcDbArc
 50
0.0
 51
180.0
  0
ARC
  5
18722
330
180D1
100
AcDbEntity
  8
HATCH
100
AcDbCircle
 10
5902.787040862626
 20
2567.792802042403
 30
0.0
 40
1.875
100
AcDbArc
 50
180.0
 51
0.0
  0
ARC
  5
18723
330
180D1
100
AcDbEntity
  8
HATCH
100
AcDbCircle
 10
5902.787040862626
 20
2567.792802042403
 30
0.0
 40
1.875
100
AcDbArc
 50
0.0
 51
180.0
  0
ARC
  5
18724
330
180D1
100
AcDbEntity
  8
HATCH
100
AcDbCircle
 10
5752.78704086263
 20
2567.792802042403
 30
0.0
 40
1.875
100
AcDbArc
 50
180.0
 51
0.0
  0
ARC
  5
18725
330
180D1
100
AcDbEntity
  8
HATCH
100
AcDbCircle
 10
5752.78704086263
 20
2567.792802042403
 30
0.0
 40
1.875
100
AcDbArc
 50
0.0
 51
180.0
  0
ARC
  5
18726
330
180D1
100
AcDbEntity
  8
HATCH
100
AcDbCircle
 10
5602.787040862629
 20
2567.792802042403
 30
0.0
 40
1.875
100
AcDbArc
 50
180.0
 51
0.0
  0
ARC
  5
18727
330
180D1
100
AcDbEntity
  8
HATCH
100
AcDbCircle
 10
5602.787040862629
 20
2567.792802042403
 30
0.0
 40
1.875
100
AcDbArc
 50
0.0
 51
180.0
  0
ARC
  5
18728
330
180D1
100
AcDbEntity
  8
HATCH
100
AcDbCircle
 10
5452.787040862631
 20
2567.792802042403
 30
0.0
 40
1.875
100
AcDbArc
 50
180.0
 51
0.0
  0
ARC
  5
18729
330
180D1
100
AcDbEntity
  8
HATCH
100
AcDbCircle
 10
5452.787040862631
 20
2567.792802042403
 30
0.0
 40
1.875
100
AcDbArc
 50
0.0
 51
180.0
  0
ARC
  5
1872A
330
180D1
100
AcDbEntity
  8
HATCH
100
AcDbCircle
 10
5302.78704086263
 20
2567.792802042403
 30
0.0
 40
1.875
100
AcDbArc
 50
180.0
 51
0.0
  0
ARC
  5
1872B
330
180D1
100
AcDbEntity
  8
HATCH
100
AcDbCircle
 10
5302.78704086263
 20
2567.792802042403
 30
0.0
 40
1.875
100
AcDbArc
 50
0.0
 51
180.0
  0
ARC
  5
1872C
330
180D1
100
AcDbEntity
  8
HATCH
100
AcDbCircle
 10
5152.78704086263
 20
2567.792802042403
 30
0.0
 40
1.875
100
AcDbArc
 50
180.0
 51
0.0
  0
ARC
  5
1872D
330
180D1
100
AcDbEntity
  8
HATCH
100
AcDbCircle
 10
5152.78704086263
 20
2567.792802042403
 30
0.0
 40
1.875
100
AcDbArc
 50
0.0
 51
180.0
  0
ARC
  5
1872E
330
180D1
100
AcDbEntity
  8
HATCH
100
AcDbCircle
 10
5002.787040862632
 20
2567.792802042403
 30
0.0
 40
1.875
100
AcDbArc
 50
180.0
 51
0.0
  0
ARC
  5
1872F
330
180D1
100
AcDbEntity
  8
HATCH
100
AcDbCircle
 10
5002.787040862632
 20
2567.792802042403
 30
0.0
 40
1.875
100
AcDbArc
 50
0.0
 51
180.0
  0
ARC
  5
18730
330
180D1
100
AcDbEntity
  8
HATCH
100
AcDbCircle
 10
4852.787040862629
 20
2567.792802042403
 30
0.0
 40
1.875
100
AcDbArc
 50
180.0
 51
0.0
  0
ARC
  5
18731
330
180D1
100
AcDbEntity
  8
HATCH
100
AcDbCircle
 10
4852.787040862629
 20
2567.792802042403
 30
0.0
 40
1.875
100
AcDbArc
 50
0.0
 51
180.0
  0
ARC
  5
18732
330
180D1
100
AcDbEntity
  8
HATCH
100
AcDbCircle
 10
4702.78704086263
 20
2567.792802042403
 30
0.0
 40
1.875
100
AcDbArc
 50
180.0
 51
0.0
  0
ARC
  5
18733
330
180D1
100
AcDbEntity
  8
HATCH
100
AcDbCircle
 10
4702.78704086263
 20
2567.792802042403
 30
0.0
 40
1.875
100
AcDbArc
 50
0.0
 51
180.0
  0
ARC
  5
18734
330
180D1
100
AcDbEntity
  8
HATCH
100
AcDbCircle
 10
4552.78704086263
 20
2567.792802042403
 30
0.0
 40
1.875
100
AcDbArc
 50
180.0
 51
0.0
  0
ARC
  5
18735
330
180D1
100
AcDbEntity
  8
HATCH
100
AcDbCircle
 10
4552.78704086263
 20
2567.792802042403
 30
0.0
 40
1.875
100
AcDbArc
 50
0.0
 51
180.0
  0
ARC
  5
18736
330
180D1
100
AcDbEntity
  8
HATCH
100
AcDbCircle
 10
4402.787040862628
 20
2567.792802042403
 30
0.0
 40
1.875
100
AcDbArc
 50
180.0
 51
0.0
  0
ARC
  5
18737
330
180D1
100
AcDbEntity
  8
HATCH
100
AcDbCircle
 10
4402.787040862628
 20
2567.792802042403
 30
0.0
 40
1.875
100
AcDbArc
 50
0.0
 51
180.0
  0
ARC
  5
18738
330
180D1
100
AcDbEntity
  8
HATCH
100
AcDbCircle
 10
4252.787040862631
 20
2567.792802042403
 30
0.0
 40
1.875
100
AcDbArc
 50
180.0
 51
0.0
  0
ARC
  5
18739
330
180D1
100
AcDbEntity
  8
HATCH
100
AcDbCircle
 10
4252.787040862631
 20
2567.792802042403
 30
0.0
 40
1.875
100
AcDbArc
 50
0.0
 51
180.0
  0
ARC
  5
1873A
330
180D1
100
AcDbEntity
  8
HATCH
100
AcDbCircle
 10
4102.787040862629
 20
2567.792802042403
 30
0.0
 40
1.875
100
AcDbArc
 50
180.0
 51
0.0
  0
ARC
  5
1873B
330
180D1
100
AcDbEntity
  8
HATCH
100
AcDbCircle
 10
4102.787040862629
 20
2567.792802042403
 30
0.0
 40
1.875
100
AcDbArc
 50
0.0
 51
180.0
  0
ARC
  5
1873C
330
180D1
100
AcDbEntity
  8
HATCH
100
AcDbCircle
 10
3952.787040862629
 20
2567.792802042403
 30
0.0
 40
1.875
100
AcDbArc
 50
180.0
 51
0.0
  0
ARC
  5
1873D
330
180D1
100
AcDbEntity
  8
HATCH
100
AcDbCircle
 10
3952.787040862629
 20
2567.792802042403
 30
0.0
 40
1.875
100
AcDbArc
 50
0.0
 51
180.0
  0
ARC
  5
1873E
330
180D1
100
AcDbEntity
  8
HATCH
100
AcDbCircle
 10
12198.96274259858
 20
2567.792802042401
 30
0.0
 40
1.875
100
AcDbArc
 50
180.0
 51
0.0
  0
ARC
  5
1873F
330
180D1
100
AcDbEntity
  8
HATCH
100
AcDbCircle
 10
12198.96274259858
 20
2567.792802042401
 30
0.0
 40
1.875
100
AcDbArc
 50
0.0
 51
180.0
  0
ARC
  5
18740
330
180D1
100
AcDbEntity
  8
HATCH
100
AcDbCircle
 10
12086.14558590005
 20
2573.036693338606
 30
0.0
 40
1.875
100
AcDbArc
 50
180.0
 51
0.0
  0
ARC
  5
18741
330
180D1
100
AcDbEntity
  8
HATCH
100
AcDbCircle
 10
12086.14558590005
 20
2573.036693338606
 30
0.0
 40
1.875
100
AcDbArc
 50
0.0
 51
180.0
  0
ARC
  5
18742
330
180D1
100
AcDbEntity
  8
HATCH
100
AcDbCircle
 10
12015.30691716915
 20
2567.792802042401
 30
0.0
 40
1.875
100
AcDbArc
 50
180.0
 51
0.0
  0
ARC
  5
18743
330
180D1
100
AcDbEntity
  8
HATCH
100
AcDbCircle
 10
12015.30691716915
 20
2567.792802042401
 30
0.0
 40
1.875
100
AcDbArc
 50
0.0
 51
180.0
  0
ARC
  5
18744
330
180D1
100
AcDbEntity
  8
HATCH
100
AcDbCircle
 10
11878.87688221344
 20
2567.792802042401
 30
0.0
 40
1.875
100
AcDbArc
 50
180.0
 51
0.0
  0
ARC
  5
18745
330
180D1
100
AcDbEntity
  8
HATCH
100
AcDbCircle
 10
11878.87688221344
 20
2567.792802042401
 30
0.0
 40
1.875
100
AcDbArc
 50
0.0
 51
180.0
  0
ARC
  5
18746
330
180D1
100
AcDbEntity
  8
HATCH
100
AcDbCircle
 10
11747.69421768261
 20
2567.792802042401
 30
0.0
 40
1.875
100
AcDbArc
 50
180.0
 51
0.0
  0
ARC
  5
18747
330
180D1
100
AcDbEntity
  8
HATCH
100
AcDbCircle
 10
11747.69421768261
 20
2567.792802042401
 30
0.0
 40
1.875
100
AcDbArc
 50
0.0
 51
180.0
  0
ARC
  5
18748
330
180D1
100
AcDbEntity
  8
HATCH
100
AcDbCircle
 10
11629.62979243736
 20
2573.036693338606
 30
0.0
 40
1.875
100
AcDbArc
 50
180.0
 51
0.0
  0
ARC
  5
18749
330
180D1
100
AcDbEntity
  8
HATCH
100
AcDbCircle
 10
11629.62979243736
 20
2573.036693338606
 30
0.0
 40
1.875
100
AcDbArc
 50
0.0
 51
180.0
  0
ARC
  5
1874A
330
180D1
100
AcDbEntity
  8
HATCH
100
AcDbCircle
 10
11558.79112370645
 20
2567.792802042401
 30
0.0
 40
1.875
100
AcDbArc
 50
180.0
 51
0.0
  0
ARC
  5
1874B
330
180D1
100
AcDbEntity
  8
HATCH
100
AcDbCircle
 10
11558.79112370645
 20
2567.792802042401
 30
0.0
 40
1.875
100
AcDbArc
 50
0.0
 51
180.0
  0
ARC
  5
1874C
330
180D1
100
AcDbEntity
  8
HATCH
100
AcDbCircle
 10
11362.01702503205
 20
2567.792802042401
 30
0.0
 40
1.875
100
AcDbArc
 50
180.0
 51
0.0
  0
ARC
  5
1874D
330
180D1
100
AcDbEntity
  8
HATCH
100
AcDbCircle
 10
11362.01702503205
 20
2567.792802042401
 30
0.0
 40
1.875
100
AcDbArc
 50
0.0
 51
180.0
  0
ARC
  5
1874E
330
180D1
100
AcDbEntity
  8
HATCH
100
AcDbCircle
 10
11112.76993525596
 20
2573.036693338606
 30
0.0
 40
1.875
100
AcDbArc
 50
180.0
 51
0.0
  0
ARC
  5
1874F
330
180D1
100
AcDbEntity
  8
HATCH
100
AcDbCircle
 10
11112.76993525596
 20
2573.036693338606
 30
0.0
 40
1.875
100
AcDbArc
 50
0.0
 51
180.0
  0
ARC
  5
18750
330
180D1
100
AcDbEntity
  8
HATCH
100
AcDbCircle
 10
11230.83436050123
 20
2567.792802042401
 30
0.0
 40
1.875
100
AcDbArc
 50
180.0
 51
0.0
  0
ARC
  5
18751
330
180D1
100
AcDbEntity
  8
HATCH
100
AcDbCircle
 10
11230.83436050123
 20
2567.792802042401
 30
0.0
 40
1.875
100
AcDbArc
 50
0.0
 51
180.0
  0
ARC
  5
18752
330
180D1
100
AcDbEntity
  8
HATCH
100
AcDbCircle
 10
10955.35069027584
 20
2567.792802042401
 30
0.0
 40
1.875
100
AcDbArc
 50
180.0
 51
0.0
  0
ARC
  5
18753
330
180D1
100
AcDbEntity
  8
HATCH
100
AcDbCircle
 10
10955.35069027584
 20
2567.792802042401
 30
0.0
 40
1.875
100
AcDbArc
 50
0.0
 51
180.0
  0
ARC
  5
18754
330
180D1
100
AcDbEntity
  8
HATCH
100
AcDbCircle
 10
10758.57659160144
 20
2567.792802042401
 30
0.0
 40
1.875
100
AcDbArc
 50
180.0
 51
0.0
  0
ARC
  5
18755
330
180D1
100
AcDbEntity
  8
HATCH
100
AcDbCircle
 10
10758.57659160144
 20
2567.792802042401
 30
0.0
 40
1.875
100
AcDbArc
 50
0.0
 51
180.0
  0
ARC
  5
18756
330
180D1
100
AcDbEntity
  8
HATCH
100
AcDbCircle
 10
10640.51216635618
 20
2573.036693338606
 30
0.0
 40
1.875
100
AcDbArc
 50
180.0
 51
0.0
  0
ARC
  5
18757
330
180D1
100
AcDbEntity
  8
HATCH
100
AcDbCircle
 10
10640.51216635618
 20
2573.036693338606
 30
0.0
 40
1.875
100
AcDbArc
 50
0.0
 51
180.0
  0
ARC
  5
18758
330
180D1
100
AcDbEntity
  8
HATCH
100
AcDbCircle
 10
10483.09292137605
 20
2567.792802042401
 30
0.0
 40
1.875
100
AcDbArc
 50
180.0
 51
0.0
  0
ARC
  5
18759
330
180D1
100
AcDbEntity
  8
HATCH
100
AcDbCircle
 10
10483.09292137605
 20
2567.792802042401
 30
0.0
 40
1.875
100
AcDbArc
 50
0.0
 51
180.0
  0
ARC
  5
1875A
330
180D1
100
AcDbEntity
  8
HATCH
100
AcDbCircle
 10
10349.28655465308
 20
2567.792802042401
 30
0.0
 40
1.875
100
AcDbArc
 50
180.0
 51
0.0
  0
ARC
  5
1875B
330
180D1
100
AcDbEntity
  8
HATCH
100
AcDbCircle
 10
10349.28655465308
 20
2567.792802042401
 30
0.0
 40
1.875
100
AcDbArc
 50
0.0
 51
180.0
  0
ARC
  5
1875C
330
180D1
100
AcDbEntity
  8
HATCH
100
AcDbCircle
 10
10231.22212940783
 20
2573.036693338606
 30
0.0
 40
1.875
100
AcDbArc
 50
180.0
 51
0.0
  0
ARC
  5
1875D
330
180D1
100
AcDbEntity
  8
HATCH
100
AcDbCircle
 10
10231.22212940783
 20
2573.036693338606
 30
0.0
 40
1.875
100
AcDbArc
 50
0.0
 51
180.0
  0
ARC
  5
1875E
330
180D1
100
AcDbEntity
  8
HATCH
100
AcDbCircle
 10
10073.8028844277
 20
2567.792802042401
 30
0.0
 40
1.875
100
AcDbArc
 50
180.0
 51
0.0
  0
ARC
  5
1875F
330
180D1
100
AcDbEntity
  8
HATCH
100
AcDbCircle
 10
10073.8028844277
 20
2567.792802042401
 30
0.0
 40
1.875
100
AcDbArc
 50
0.0
 51
180.0
  0
LINE
  5
18760
330
180D1
100
AcDbEntity
  8
TATEDOISIJIKANAGU
100
AcDbLine
 10
12106.50069413383
 20
2914.796798568534
 30
0.0
 11
12059.30111044481
 21
2914.796798568534
 31
0.0
  0
LINE
  5
18761
330
180D1
100
AcDbEntity
  8
TATEDOISIJIKANAGU
100
AcDbLine
 10
12059.30111044481
 20
2914.796798568534
 30
0.0
 11
12059.30111044481
 21
2902.296798568534
 31
0.0
  0
LINE
  5
18762
330
180D1
100
AcDbEntity
  8
TATEDOISIJIKANAGU
100
AcDbLine
 10
12059.30111044481
 20
2902.296798568534
 30
0.0
 11
12106.50069413383
 21
2902.296798568534
 31
0.0
  0
LINE
  5
18763
330
180D1
100
AcDbEntity
  8
TATEDOISIJIKANAGU
100
AcDbLine
 10
12106.50069413383
 20
2902.296798568534
 30
0.0
 11
12106.50069413383
 21
2914.796798568534
 31
0.0
  0
LINE
  5
18764
330
180D1
100
AcDbEntity
  8
TATEDOISIJIKANAGU
100
AcDbLine
 10
12106.50069413383
 20
3912.796798568535
 30
0.0
 11
12059.3011104448
 21
3912.796798568535
 31
0.0
  0
LINE
  5
18765
330
180D1
100
AcDbEntity
  8
TATEDOISIJIKANAGU
100
AcDbLine
 10
12059.3011104448
 20
3912.796798568535
 30
0.0
 11
12059.3011104448
 21
3900.296798568535
 31
0.0
  0
LINE
  5
18766
330
180D1
100
AcDbEntity
  8
TATEDOISIJIKANAGU
100
AcDbLine
 10
12059.3011104448
 20
3900.296798568535
 30
0.0
 11
12106.50069413383
 21
3900.296798568535
 31
0.0
  0
LINE
  5
18767
330
180D1
100
AcDbEntity
  8
TATEDOISIJIKANAGU
100
AcDbLine
 10
12106.50069413383
 20
3900.296798568535
 30
0.0
 11
12106.50069413383
 21
3912.796798568535
 31
0.0
  0
ARC
  5
18768
330
180D1
100
AcDbEntity
  8
CF-301
100
AcDbCircle
 10
6900.003547453699
 20
9598.753322994078
 30
0.0
 40
5.0
100
AcDbArc
 50
0.0
 51
180.0
  0
LINE
  5
18769
330
180D1
100
AcDbEntity
  8
CF-301
100
AcDbLine
 10
6895.003547453699
 20
9598.753322994078
 30
0.0
 11
6895.003547453699
 21
9596.753322994079
 31
0.0
  0
ARC
  5
1876A
330
180D1
100
AcDbEntity
  8
CF-301
100
AcDbCircle
 10
6900.003547453699
 20
9596.753322994079
 30
0.0
 40
5.0
100
AcDbArc
 50
180.0
 51
0.0
  0
LINE
  5
1876B
330
180D1
100
AcDbEntity
  8
CF-301
100
AcDbLine
 10
6905.003547453699
 20
9596.753322994079
 30
0.0
 11
6905.003547453699
 21
9598.753322994078
 31
0.0
  0
ARC
  5
1876C
330
180D1
100
AcDbEntity
  8
CF-301
100
AcDbCircle
 10
6900.003547453699
 20
9111.753322994079
 30
0.0
 40
5.0
100
AcDbArc
 50
0.0
 51
180.0
  0
LINE
  5
1876D
330
180D1
100
AcDbEntity
  8
CF-301
100
AcDbLine
 10
6895.003547453699
 20
9111.753322994079
 30
0.0
 11
6895.003547453699
 21
9109.753322994079
 31
0.0
  0
ARC
  5
1876E
330
180D1
100
AcDbEntity
  8
CF-301
100
AcDbCircle
 10
6900.003547453699
 20
9109.753322994079
 30
0.0
 40
5.0
100
AcDbArc
 50
180.0
 51
0.0
  0
LINE
  5
1876F
330
180D1
100
AcDbEntity
  8
CF-301
100
AcDbLine
 10
6905.003547453699
 20
9109.753322994079
 30
0.0
 11
6905.003547453699
 21
9111.753322994079
 31
0.0
  0
ARC
  5
18770
330
180D1
100
AcDbEntity
  8
CF-301
100
AcDbCircle
 10
6900.003547453699
 20
8624.753322994079
 30
0.0
 40
5.0
100
AcDbArc
 50
0.0
 51
180.0
  0
LINE
  5
18771
330
180D1
100
AcDbEntity
  8
CF-301
100
AcDbLine
 10
6895.003547453699
 20
8624.753322994079
 30
0.0
 11
6895.003547453699
 21
8622.753322994078
 31
0.0
  0
ARC
  5
18772
330
180D1
100
AcDbEntity
  8
CF-301
100
AcDbCircle
 10
6900.003547453699
 20
8622.753322994078
 30
0.0
 40
5.0
100
AcDbArc
 50
180.0
 51
0.0
  0
LINE
  5
18773
330
180D1
100
AcDbEntity
  8
CF-301
100
AcDbLine
 10
6905.003547453699
 20
8622.753322994078
 30
0.0
 11
6905.003547453699
 21
8624.753322994079
 31
0.0
  0
LINE
  5
18774
330
180D1
100
AcDbEntity
  8
AF-21
100
AcDbLine
 10
6923.003547453697
 20
8199.753322994078
 30
0.0
 11
6938.003547453696
 21
8199.753322994078
 31
0.0
  0
LINE
  5
18775
330
180D1
100
AcDbEntity
  8
AF-21
100
AcDbLine
 10
6938.003547453696
 20
8199.753322994078
 30
0.0
 11
6938.003547453696
 21
8138.753322994077
 31
0.0
  0
ARC
  5
18776
330
180D1
100
AcDbEntity
  8
AF-21
100
AcDbCircle
 10
6934.003547453698
 20
8138.753322994077
 30
0.0
 40
4.0
100
AcDbArc
 50
270.0
 51
0.0
  0
LINE
  5
18777
330
180D1
100
AcDbEntity
  8
AF-21
100
AcDbLine
 10
6934.003547453698
 20
8134.753322994077
 30
0.0
 11
6923.003547453697
 21
8134.753322994077
 31
0.0
  0
LINE
  5
18778
330
180D1
100
AcDbEntity
  8
AF-21
100
AcDbLine
 10
6923.003547453697
 20
8134.753322994077
 30
0.0
 11
6923.003547453697
 21
8199.753322994078
 31
0.0
  0
ARC
  5
18779
330
180D1
100
AcDbEntity
  8
CF-301
100
AcDbCircle
 10
6900.003547453699
 20
8220.753322994076
 30
0.0
 40
5.0
100
AcDbArc
 50
0.0
 51
180.0
  0
LINE
  5
1877A
330
180D1
100
AcDbEntity
  8
CF-301
100
AcDbLine
 10
6895.003547453699
 20
8220.753322994076
 30
0.0
 11
6895.003547453699
 21
8218.753322994079
 31
0.0
  0
ARC
  5
1877B
330
180D1
100
AcDbEntity
  8
CF-301
100
AcDbCircle
 10
6900.003547453699
 20
8218.753322994079
 30
0.0
 40
5.0
100
AcDbArc
 50
180.0
 51
0.0
  0
LINE
  5
1877C
330
180D1
100
AcDbEntity
  8
CF-301
100
AcDbLine
 10
6905.003547453699
 20
8218.753322994079
 30
0.0
 11
6905.003547453699
 21
8220.753322994076
 31
0.0
  0
LINE
  5
1877D
330
180D1
100
AcDbEntity
  8
NJ-022
100
AcDbLine
 10
4869.253547453698
 20
9600.253322994078
 30
0.0
 11
4869.253547453698
 21
9595.253322994079
 31
0.0
  0
LINE
  5
1877E
330
180D1
100
AcDbEntity
  8
NJ-022
100
AcDbLine
 10
4869.253547453698
 20
9595.253322994079
 30
0.0
 11
4870.753547453698
 21
9595.253322994079
 31
0.0
  0
LINE
  5
1877F
330
180D1
100
AcDbEntity
  8
NJ-022
100
AcDbLine
 10
4870.753547453698
 20
9600.253322994078
 30
0.0
 11
4869.253547453698
 21
9600.253322994078
 31
0.0
  0
CIRCLE
  5
18780
330
180D1
100
AcDbEntity
  8
NJ-022
100
AcDbCircle
 10
4900.003547453698
 20
9597.753322994078
 30
0.0
 40
4.75
  0
CIRCLE
  5
18781
330
180D1
100
AcDbEntity
  8
NJ-022
100
AcDbCircle
 10
4900.003547453698
 20
9597.753322994078
 30
0.0
 40
8.0
  0
LINE
  5
18782
330
180D1
100
AcDbEntity
  8
NJ-022
100
AcDbLine
 10
4930.753547453698
 20
9600.253322994078
 30
0.0
 11
4930.753547453698
 21
9595.253322994079
 31
0.0
  0
LINE
  5
18783
330
180D1
100
AcDbEntity
  8
NJ-022
100
AcDbLine
 10
4930.753547453698
 20
9595.253322994079
 30
0.0
 11
4929.253547453698
 21
9595.253322994079
 31
0.0
  0
LINE
  5
18784
330
180D1
100
AcDbEntity
  8
NJ-022
100
AcDbLine
 10
4929.253547453698
 20
9600.253322994078
 30
0.0
 11
4930.753547453698
 21
9600.253322994078
 31
0.0
  0
LINE
  5
18785
330
180D1
100
AcDbEntity
  8
NJ-022
100
AcDbLine
 10
4929.253547453698
 20
9610.253322994079
 30
0.0
 11
4870.753547453698
 21
9610.253322994079
 31
0.0
  0
LINE
  5
18786
330
180D1
100
AcDbEntity
  8
NJ-022
100
AcDbLine
 10
4870.753547453698
 20
9585.253322994079
 30
0.0
 11
4929.253547453698
 21
9585.253322994079
 31
0.0
  0
LINE
  5
18787
330
180D1
100
AcDbEntity
  8
NJ-022
100
AcDbLine
 10
4870.753547453698
 20
9610.253322994079
 30
0.0
 11
4870.753547453698
 21
9585.253322994079
 31
0.0
  0
LINE
  5
18788
330
180D1
100
AcDbEntity
  8
NJ-022
100
AcDbLine
 10
4887.253547453698
 20
9610.253322994079
 30
0.0
 11
4887.253547453698
 21
9585.253322994079
 31
0.0
  0
LINE
  5
18789
330
180D1
100
AcDbEntity
  8
NJ-022
100
AcDbLine
 10
4912.753547453698
 20
9610.253322994079
 30
0.0
 11
4912.753547453698
 21
9585.253322994079
 31
0.0
  0
LINE
  5
1878A
330
180D1
100
AcDbEntity
  8
NJ-022
100
AcDbLine
 10
4929.253547453698
 20
9610.253322994079
 30
0.0
 11
4929.253547453698
 21
9585.253322994079
 31
0.0
  0
LINE
  5
1878B
330
180D1
100
AcDbEntity
  8
NJ-022
100
AcDbLine
 10
5669.253547453699
 20
8222.553322994079
 30
0.0
 11
5669.253547453699
 21
8217.553322994078
 31
0.0
  0
LINE
  5
1878C
330
180D1
100
AcDbEntity
  8
NJ-022
100
AcDbLine
 10
5669.253547453699
 20
8217.553322994078
 30
0.0
 11
5670.753547453699
 21
8217.553322994078
 31
0.0
  0
LINE
  5
1878D
330
180D1
100
AcDbEntity
  8
NJ-022
100
AcDbLine
 10
5670.753547453699
 20
8222.553322994079
 30
0.0
 11
5669.253547453699
 21
8222.553322994079
 31
0.0
  0
CIRCLE
  5
1878E
330
180D1
100
AcDbEntity
  8
NJ-022
100
AcDbCircle
 10
5700.003547453699
 20
8220.053322994077
 30
0.0
 40
4.75
  0
CIRCLE
  5
1878F
330
180D1
100
AcDbEntity
  8
NJ-022
100
AcDbCircle
 10
5700.003547453699
 20
8220.053322994077
 30
0.0
 40
8.0
  0
LINE
  5
18790
330
180D1
100
AcDbEntity
  8
NJ-022
100
AcDbLine
 10
5730.753547453699
 20
8222.553322994079
 30
0.0
 11
5730.753547453699
 21
8217.553322994078
 31
0.0
  0
LINE
  5
18791
330
180D1
100
AcDbEntity
  8
NJ-022
100
AcDbLine
 10
5730.753547453699
 20
8217.553322994078
 30
0.0
 11
5729.253547453699
 21
8217.553322994078
 31
0.0
  0
LINE
  5
18792
330
180D1
100
AcDbEntity
  8
NJ-022
100
AcDbLine
 10
5729.253547453699
 20
8222.553322994079
 30
0.0
 11
5730.753547453699
 21
8222.553322994079
 31
0.0
  0
LINE
  5
18793
330
180D1
100
AcDbEntity
  8
NJ-022
100
AcDbLine
 10
5729.253547453699
 20
8232.553322994077
 30
0.0
 11
5670.753547453699
 21
8232.553322994077
 31
0.0
  0
LINE
  5
18794
330
180D1
100
AcDbEntity
  8
NJ-022
100
AcDbLine
 10
5670.753547453699
 20
8207.553322994078
 30
0.0
 11
5729.253547453699
 21
8207.553322994078
 31
0.0
  0
LINE
  5
18795
330
180D1
100
AcDbEntity
  8
NJ-022
100
AcDbLine
 10
5670.753547453699
 20
8232.553322994077
 30
0.0
 11
5670.753547453699
 21
8207.553322994078
 31
0.0
  0
LINE
  5
18796
330
180D1
100
AcDbEntity
  8
NJ-022
100
AcDbLine
 10
5687.253547453699
 20
8232.553322994077
 30
0.0
 11
5687.253547453699
 21
8207.553322994078
 31
0.0
  0
LINE
  5
18797
330
180D1
100
AcDbEntity
  8
NJ-022
100
AcDbLine
 10
5712.753547453699
 20
8232.553322994077
 30
0.0
 11
5712.753547453699
 21
8207.553322994078
 31
0.0
  0
LINE
  5
18798
330
180D1
100
AcDbEntity
  8
NJ-022
100
AcDbLine
 10
5729.253547453699
 20
8232.553322994077
 30
0.0
 11
5729.253547453699
 21
8207.553322994078
 31
0.0
  0
LINE
  5
18799
330
180D1
100
AcDbEntity
  8
NJ-022
100
AcDbLine
 10
5269.253547453699
 20
9113.253322994079
 30
0.0
 11
5269.253547453699
 21
9108.253322994078
 31
0.0
  0
LINE
  5
1879A
330
180D1
100
AcDbEntity
  8
NJ-022
100
AcDbLine
 10
5269.253547453699
 20
9108.253322994078
 30
0.0
 11
5270.753547453699
 21
9108.253322994078
 31
0.0
  0
LINE
  5
1879B
330
180D1
100
AcDbEntity
  8
NJ-022
100
AcDbLine
 10
5270.753547453699
 20
9113.253322994079
 30
0.0
 11
5269.253547453699
 21
9113.253322994079
 31
0.0
  0
CIRCLE
  5
1879C
330
180D1
100
AcDbEntity
  8
NJ-022
100
AcDbCircle
 10
5300.003547453699
 20
9110.753322994078
 30
0.0
 40
4.75
  0
CIRCLE
  5
1879D
330
180D1
100
AcDbEntity
  8
NJ-022
100
AcDbCircle
 10
5300.003547453699
 20
9110.753322994078
 30
0.0
 40
8.0
  0
LINE
  5
1879E
330
180D1
100
AcDbEntity
  8
NJ-022
100
AcDbLine
 10
5330.753547453699
 20
9113.253322994079
 30
0.0
 11
5330.753547453699
 21
9108.253322994078
 31
0.0
  0
LINE
  5
1879F
330
180D1
100
AcDbEntity
  8
NJ-022
100
AcDbLine
 10
5330.753547453699
 20
9108.253322994078
 30
0.0
 11
5329.253547453699
 21
9108.253322994078
 31
0.0
  0
LINE
  5
187A0
330
180D1
100
AcDbEntity
  8
NJ-022
100
AcDbLine
 10
5329.253547453699
 20
9113.253322994079
 30
0.0
 11
5330.753547453699
 21
9113.253322994079
 31
0.0
  0
LINE
  5
187A1
330
180D1
100
AcDbEntity
  8
NJ-022
100
AcDbLine
 10
5329.253547453699
 20
9123.253322994079
 30
0.0
 11
5270.753547453699
 21
9123.253322994079
 31
0.0
  0
LINE
  5
187A2
330
180D1
100
AcDbEntity
  8
NJ-022
100
AcDbLine
 10
5270.753547453699
 20
9098.253322994079
 30
0.0
 11
5329.253547453699
 21
9098.253322994079
 31
0.0
  0
LINE
  5
187A3
330
180D1
100
AcDbEntity
  8
NJ-022
100
AcDbLine
 10
5270.753547453699
 20
9123.253322994079
 30
0.0
 11
5270.753547453699
 21
9098.253322994079
 31
0.0
  0
LINE
  5
187A4
330
180D1
100
AcDbEntity
  8
NJ-022
100
AcDbLine
 10
5287.253547453699
 20
9123.253322994079
 30
0.0
 11
5287.253547453699
 21
9098.253322994079
 31
0.0
  0
LINE
  5
187A5
330
180D1
100
AcDbEntity
  8
NJ-022
100
AcDbLine
 10
5312.753547453699
 20
9123.253322994079
 30
0.0
 11
5312.753547453699
 21
9098.253322994079
 31
0.0
  0
LINE
  5
187A6
330
180D1
100
AcDbEntity
  8
NJ-022
100
AcDbLine
 10
5329.253547453699
 20
9123.253322994079
 30
0.0
 11
5329.253547453699
 21
9098.253322994079
 31
0.0
  0
LINE
  5
187A7
330
180D1
100
AcDbEntity
  8
NJ-022
100
AcDbLine
 10
4869.253547453698
 20
9113.253322994079
 30
0.0
 11
4869.253547453698
 21
9108.253322994078
 31
0.0
  0
LINE
  5
187A8
330
180D1
100
AcDbEntity
  8
NJ-022
100
AcDbLine
 10
4869.253547453698
 20
9108.253322994078
 30
0.0
 11
4870.753547453698
 21
9108.253322994078
 31
0.0
  0
LINE
  5
187A9
330
180D1
100
AcDbEntity
  8
NJ-022
100
AcDbLine
 10
4870.753547453698
 20
9113.253322994079
 30
0.0
 11
4869.253547453698
 21
9113.253322994079
 31
0.0
  0
CIRCLE
  5
187AA
330
180D1
100
AcDbEntity
  8
NJ-022
100
AcDbCircle
 10
4900.003547453698
 20
9110.753322994078
 30
0.0
 40
4.75
  0
CIRCLE
  5
187AB
330
180D1
100
AcDbEntity
  8
NJ-022
100
AcDbCircle
 10
4900.003547453698
 20
9110.753322994078
 30
0.0
 40
8.0
  0
LINE
  5
187AC
330
180D1
100
AcDbEntity
  8
NJ-022
100
AcDbLine
 10
4930.753547453698
 20
9113.253322994079
 30
0.0
 11
4930.753547453698
 21
9108.253322994078
 31
0.0
  0
LINE
  5
187AD
330
180D1
100
AcDbEntity
  8
NJ-022
100
AcDbLine
 10
4930.753547453698
 20
9108.253322994078
 30
0.0
 11
4929.253547453698
 21
9108.253322994078
 31
0.0
  0
LINE
  5
187AE
330
180D1
100
AcDbEntity
  8
NJ-022
100
AcDbLine
 10
4929.253547453698
 20
9113.253322994079
 30
0.0
 11
4930.753547453698
 21
9113.253322994079
 31
0.0
  0
LINE
  5
187AF
330
180D1
100
AcDbEntity
  8
NJ-022
100
AcDbLine
 10
4929.253547453698
 20
9123.253322994079
 30
0.0
 11
4870.753547453698
 21
9123.253322994079
 31
0.0
  0
LINE
  5
187B0
330
180D1
100
AcDbEntity
  8
NJ-022
100
AcDbLine
 10
4870.753547453698
 20
9098.253322994079
 30
0.0
 11
4929.253547453698
 21
9098.253322994079
 31
0.0
  0
LINE
  5
187B1
330
180D1
100
AcDbEntity
  8
NJ-022
100
AcDbLine
 10
4870.753547453698
 20
9123.253322994079
 30
0.0
 11
4870.753547453698
 21
9098.253322994079
 31
0.0
  0
LINE
  5
187B2
330
180D1
100
AcDbEntity
  8
NJ-022
100
AcDbLine
 10
4887.253547453698
 20
9123.253322994079
 30
0.0
 11
4887.253547453698
 21
9098.253322994079
 31
0.0
  0
LINE
  5
187B3
330
180D1
100
AcDbEntity
  8
NJ-022
100
AcDbLine
 10
4912.753547453698
 20
9123.253322994079
 30
0.0
 11
4912.753547453698
 21
9098.253322994079
 31
0.0
  0
LINE
  5
187B4
330
180D1
100
AcDbEntity
  8
NJ-022
100
AcDbLine
 10
4929.253547453698
 20
9123.253322994079
 30
0.0
 11
4929.253547453698
 21
9098.253322994079
 31
0.0
  0
LINE
  5
187B5
330
180D1
100
AcDbEntity
  8
NJ-022
100
AcDbLine
 10
5269.253547453699
 20
8626.253322994079
 30
0.0
 11
5269.253547453699
 21
8621.253322994078
 31
0.0
  0
LINE
  5
187B6
330
180D1
100
AcDbEntity
  8
NJ-022
100
AcDbLine
 10
5269.253547453699
 20
8621.253322994078
 30
0.0
 11
5270.753547453699
 21
8621.253322994078
 31
0.0
  0
LINE
  5
187B7
330
180D1
100
AcDbEntity
  8
NJ-022
100
AcDbLine
 10
5270.753547453699
 20
8626.253322994079
 30
0.0
 11
5269.253547453699
 21
8626.253322994079
 31
0.0
  0
CIRCLE
  5
187B8
330
180D1
100
AcDbEntity
  8
NJ-022
100
AcDbCircle
 10
5300.003547453699
 20
8623.753322994078
 30
0.0
 40
4.75
  0
CIRCLE
  5
187B9
330
180D1
100
AcDbEntity
  8
NJ-022
100
AcDbCircle
 10
5300.003547453699
 20
8623.753322994078
 30
0.0
 40
8.0
  0
LINE
  5
187BA
330
180D1
100
AcDbEntity
  8
NJ-022
100
AcDbLine
 10
5330.753547453699
 20
8626.253322994079
 30
0.0
 11
5330.753547453699
 21
8621.253322994078
 31
0.0
  0
LINE
  5
187BB
330
180D1
100
AcDbEntity
  8
NJ-022
100
AcDbLine
 10
5330.753547453699
 20
8621.253322994078
 30
0.0
 11
5329.253547453699
 21
8621.253322994078
 31
0.0
  0
LINE
  5
187BC
330
180D1
100
AcDbEntity
  8
NJ-022
100
AcDbLine
 10
5329.253547453699
 20
8626.253322994079
 30
0.0
 11
5330.753547453699
 21
8626.253322994079
 31
0.0
  0
LINE
  5
187BD
330
180D1
100
AcDbEntity
  8
NJ-022
100
AcDbLine
 10
5329.253547453699
 20
8636.253322994077
 30
0.0
 11
5270.753547453699
 21
8636.253322994077
 31
0.0
  0
LINE
  5
187BE
330
180D1
100
AcDbEntity
  8
NJ-022
100
AcDbLine
 10
5270.753547453699
 20
8611.253322994079
 30
0.0
 11
5329.253547453699
 21
8611.253322994079
 31
0.0
  0
LINE
  5
187BF
330
180D1
100
AcDbEntity
  8
NJ-022
100
AcDbLine
 10
5270.753547453699
 20
8636.253322994077
 30
0.0
 11
5270.753547453699
 21
8611.253322994079
 31
0.0
  0
LINE
  5
187C0
330
180D1
100
AcDbEntity
  8
NJ-022
100
AcDbLine
 10
5287.253547453699
 20
8636.253322994077
 30
0.0
 11
5287.253547453699
 21
8611.253322994079
 31
0.0
  0
LINE
  5
187C1
330
180D1
100
AcDbEntity
  8
NJ-022
100
AcDbLine
 10
5312.753547453699
 20
8636.253322994077
 30
0.0
 11
5312.753547453699
 21
8611.253322994079
 31
0.0
  0
LINE
  5
187C2
330
180D1
100
AcDbEntity
  8
NJ-022
100
AcDbLine
 10
5329.253547453699
 20
8636.253322994077
 30
0.0
 11
5329.253547453699
 21
8611.253322994079
 31
0.0
  0
LINE
  5
187C3
330
180D1
100
AcDbEntity
  8
NJ-022
100
AcDbLine
 10
5269.253547453699
 20
8222.553322994079
 30
0.0
 11
5269.253547453699
 21
8217.553322994078
 31
0.0
  0
LINE
  5
187C4
330
180D1
100
AcDbEntity
  8
NJ-022
100
AcDbLine
 10
5269.253547453699
 20
8217.553322994078
 30
0.0
 11
5270.753547453699
 21
8217.553322994078
 31
0.0
  0
LINE
  5
187C5
330
180D1
100
AcDbEntity
  8
NJ-022
100
AcDbLine
 10
5270.753547453699
 20
8222.553322994079
 30
0.0
 11
5269.253547453699
 21
8222.553322994079
 31
0.0
  0
CIRCLE
  5
187C6
330
180D1
100
AcDbEntity
  8
NJ-022
100
AcDbCircle
 10
5300.003547453699
 20
8220.053322994077
 30
0.0
 40
4.75
  0
CIRCLE
  5
187C7
330
180D1
100
AcDbEntity
  8
NJ-022
100
AcDbCircle
 10
5300.003547453699
 20
8220.053322994077
 30
0.0
 40
8.0
  0
LINE
  5
187C8
330
180D1
100
AcDbEntity
  8
NJ-022
100
AcDbLine
 10
5330.753547453699
 20
8222.553322994079
 30
0.0
 11
5330.753547453699
 21
8217.553322994078
 31
0.0
  0
LINE
  5
187C9
330
180D1
100
AcDbEntity
  8
NJ-022
100
AcDbLine
 10
5330.753547453699
 20
8217.553322994078
 30
0.0
 11
5329.253547453699
 21
8217.553322994078
 31
0.0
  0
LINE
  5
187CA
330
180D1
100
AcDbEntity
  8
NJ-022
100
AcDbLine
 10
5329.253547453699
 20
8222.553322994079
 30
0.0
 11
5330.753547453699
 21
8222.553322994079
 31
0.0
  0
LINE
  5
187CB
330
180D1
100
AcDbEntity
  8
NJ-022
100
AcDbLine
 10
5329.253547453699
 20
8232.553322994077
 30
0.0
 11
5270.753547453699
 21
8232.553322994077
 31
0.0
  0
LINE
  5
187CC
330
180D1
100
AcDbEntity
  8
NJ-022
100
AcDbLine
 10
5270.753547453699
 20
8207.553322994078
 30
0.0
 11
5329.253547453699
 21
8207.553322994078
 31
0.0
  0
LINE
  5
187CD
330
180D1
100
AcDbEntity
  8
NJ-022
100
AcDbLine
 10
5270.753547453699
 20
8232.553322994077
 30
0.0
 11
5270.753547453699
 21
8207.553322994078
 31
0.0
  0
LINE
  5
187CE
330
180D1
100
AcDbEntity
  8
NJ-022
100
AcDbLine
 10
5287.253547453699
 20
8232.553322994077
 30
0.0
 11
5287.253547453699
 21
8207.553322994078
 31
0.0
  0
LINE
  5
187CF
330
180D1
100
AcDbEntity
  8
NJ-022
100
AcDbLine
 10
5312.753547453699
 20
8232.553322994077
 30
0.0
 11
5312.753547453699
 21
8207.553322994078
 31
0.0
  0
LINE
  5
187D0
330
180D1
100
AcDbEntity
  8
NJ-022
100
AcDbLine
 10
5329.253547453699
 20
8232.553322994077
 30
0.0
 11
5329.253547453699
 21
8207.553322994078
 31
0.0
  0
LINE
  5
187D1
330
180D1
100
AcDbEntity
  8
NJ-022
100
AcDbLine
 10
4869.253547453698
 20
8626.253322994079
 30
0.0
 11
4869.253547453698
 21
8621.253322994078
 31
0.0
  0
LINE
  5
187D2
330
180D1
100
AcDbEntity
  8
NJ-022
100
AcDbLine
 10
4869.253547453698
 20
8621.253322994078
 30
0.0
 11
4870.753547453698
 21
8621.253322994078
 31
0.0
  0
LINE
  5
187D3
330
180D1
100
AcDbEntity
  8
NJ-022
100
AcDbLine
 10
4870.753547453698
 20
8626.253322994079
 30
0.0
 11
4869.253547453698
 21
8626.253322994079
 31
0.0
  0
CIRCLE
  5
187D4
330
180D1
100
AcDbEntity
  8
NJ-022
100
AcDbCircle
 10
4900.003547453698
 20
8623.753322994078
 30
0.0
 40
4.75
  0
CIRCLE
  5
187D5
330
180D1
100
AcDbEntity
  8
NJ-022
100
AcDbCircle
 10
4900.003547453698
 20
8623.753322994078
 30
0.0
 40
8.0
  0
LINE
  5
187D6
330
180D1
100
AcDbEntity
  8
NJ-022
100
AcDbLine
 10
4930.753547453698
 20
8626.253322994079
 30
0.0
 11
4930.753547453698
 21
8621.253322994078
 31
0.0
  0
LINE
  5
187D7
330
180D1
100
AcDbEntity
  8
NJ-022
100
AcDbLine
 10
4930.753547453698
 20
8621.253322994078
 30
0.0
 11
4929.253547453698
 21
8621.253322994078
 31
0.0
  0
LINE
  5
187D8
330
180D1
100
AcDbEntity
  8
NJ-022
100
AcDbLine
 10
4929.253547453698
 20
8626.253322994079
 30
0.0
 11
4930.753547453698
 21
8626.253322994079
 31
0.0
  0
LINE
  5
187D9
330
180D1
100
AcDbEntity
  8
NJ-022
100
AcDbLine
 10
4929.253547453698
 20
8636.253322994077
 30
0.0
 11
4870.753547453698
 21
8636.253322994077
 31
0.0
  0
LINE
  5
187DA
330
180D1
100
AcDbEntity
  8
NJ-022
100
AcDbLine
 10
4870.753547453698
 20
8611.253322994079
 30
0.0
 11
4929.253547453698
 21
8611.253322994079
 31
0.0
  0
LINE
  5
187DB
330
180D1
100
AcDbEntity
  8
NJ-022
100
AcDbLine
 10
4870.753547453698
 20
8636.253322994077
 30
0.0
 11
4870.753547453698
 21
8611.253322994079
 31
0.0
  0
LINE
  5
187DC
330
180D1
100
AcDbEntity
  8
NJ-022
100
AcDbLine
 10
4887.253547453698
 20
8636.253322994077
 30
0.0
 11
4887.253547453698
 21
8611.253322994079
 31
0.0
  0
LINE
  5
187DD
330
180D1
100
AcDbEntity
  8
NJ-022
100
AcDbLine
 10
4912.753547453698
 20
8636.253322994077
 30
0.0
 11
4912.753547453698
 21
8611.253322994079
 31
0.0
  0
LINE
  5
187DE
330
180D1
100
AcDbEntity
  8
NJ-022
100
AcDbLine
 10
4929.253547453698
 20
8636.253322994077
 30
0.0
 11
4929.253547453698
 21
8611.253322994079
 31
0.0
  0
LINE
  5
187DF
330
180D1
100
AcDbEntity
  8
NJ-022
100
AcDbLine
 10
4869.253547453698
 20
8222.553322994079
 30
0.0
 11
4869.253547453698
 21
8217.553322994078
 31
0.0
  0
LINE
  5
187E0
330
180D1
100
AcDbEntity
  8
NJ-022
100
AcDbLine
 10
4869.253547453698
 20
8217.553322994078
 30
0.0
 11
4870.753547453698
 21
8217.553322994078
 31
0.0
  0
LINE
  5
187E1
330
180D1
100
AcDbEntity
  8
NJ-022
100
AcDbLine
 10
4870.753547453698
 20
8222.553322994079
 30
0.0
 11
4869.253547453698
 21
8222.553322994079
 31
0.0
  0
CIRCLE
  5
187E2
330
180D1
100
AcDbEntity
  8
NJ-022
100
AcDbCircle
 10
4900.003547453698
 20
8220.053322994077
 30
0.0
 40
4.75
  0
CIRCLE
  5
187E3
330
180D1
100
AcDbEntity
  8
NJ-022
100
AcDbCircle
 10
4900.003547453698
 20
8220.053322994077
 30
0.0
 40
8.0
  0
LINE
  5
187E4
330
180D1
100
AcDbEntity
  8
NJ-022
100
AcDbLine
 10
4930.753547453698
 20
8222.553322994079
 30
0.0
 11
4930.753547453698
 21
8217.553322994078
 31
0.0
  0
LINE
  5
187E5
330
180D1
100
AcDbEntity
  8
NJ-022
100
AcDbLine
 10
4930.753547453698
 20
8217.553322994078
 30
0.0
 11
4929.253547453698
 21
8217.553322994078
 31
0.0
  0
LINE
  5
187E6
330
180D1
100
AcDbEntity
  8
NJ-022
100
AcDbLine
 10
4929.253547453698
 20
8222.553322994079
 30
0.0
 11
4930.753547453698
 21
8222.553322994079
 31
0.0
  0
LINE
  5
187E7
330
180D1
100
AcDbEntity
  8
NJ-022
100
AcDbLine
 10
4929.253547453698
 20
8232.553322994077
 30
0.0
 11
4870.753547453698
 21
8232.553322994077
 31
0.0
  0
LINE
  5
187E8
330
180D1
100
AcDbEntity
  8
NJ-022
100
AcDbLine
 10
4870.753547453698
 20
8207.553322994078
 30
0.0
 11
4929.253547453698
 21
8207.553322994078
 31
0.0
  0
LINE
  5
187E9
330
180D1
100
AcDbEntity
  8
NJ-022
100
AcDbLine
 10
4870.753547453698
 20
8232.553322994077
 30
0.0
 11
4870.753547453698
 21
8207.553322994078
 31
0.0
  0
LINE
  5
187EA
330
180D1
100
AcDbEntity
  8
NJ-022
100
AcDbLine
 10
4887.253547453698
 20
8232.553322994077
 30
0.0
 11
4887.253547453698
 21
8207.553322994078
 31
0.0
  0
LINE
  5
187EB
330
180D1
100
AcDbEntity
  8
NJ-022
100
AcDbLine
 10
4912.753547453698
 20
8232.553322994077
 30
0.0
 11
4912.753547453698
 21
8207.553322994078
 31
0.0
  0
LINE
  5
187EC
330
180D1
100
AcDbEntity
  8
NJ-022
100
AcDbLine
 10
4929.253547453698
 20
8232.553322994077
 30
0.0
 11
4929.253547453698
 21
8207.553322994078
 31
0.0
  0
LINE
  5
187ED
330
180D1
100
AcDbEntity
  8
NJ-022
100
AcDbLine
 10
4512.753547453698
 20
10106.80332299407
 30
0.0
 11
4487.253547453698
 21
10106.80332299407
 31
0.0
  0
LINE
  5
187EE
330
180D1
100
AcDbEntity
  8
NJ-022
100
AcDbLine
 10
4470.753547453698
 20
10091.30332299406
 30
0.0
 11
4529.253547453698
 21
10091.30332299406
 31
0.0
  0
LINE
  5
187EF
330
180D1
100
AcDbEntity
  8
NJ-022
100
AcDbLine
 10
4470.753547453698
 20
10091.30332299406
 30
0.0
 11
4470.753547453698
 21
10092.30332299407
 31
0.0
  0
LINE
  5
187F0
330
180D1
100
AcDbEntity
  8
NJ-022
100
AcDbLine
 10
4470.753547453698
 20
10092.30332299407
 30
0.0
 11
4487.253547453698
 21
10106.80332299407
 31
0.0
  0
LINE
  5
187F1
330
180D1
100
AcDbEntity
  8
NJ-022
100
AcDbLine
 10
4529.253547453698
 20
10091.30332299406
 30
0.0
 11
4529.253547453698
 21
10092.30332299407
 31
0.0
  0
LINE
  5
187F2
330
180D1
100
AcDbEntity
  8
NJ-022
100
AcDbLine
 10
4529.253547453698
 20
10092.30332299407
 30
0.0
 11
4512.753547453698
 21
10106.80332299407
 31
0.0
  0
LINE
  5
187F3
330
180D1
100
AcDbEntity
  8
NJ-022
100
AcDbLine
 10
4469.253547453698
 20
9600.253322994078
 30
0.0
 11
4469.253547453698
 21
9595.253322994079
 31
0.0
  0
LINE
  5
187F4
330
180D1
100
AcDbEntity
  8
NJ-022
100
AcDbLine
 10
4469.253547453698
 20
9595.253322994079
 30
0.0
 11
4470.753547453698
 21
9595.253322994079
 31
0.0
  0
LINE
  5
187F5
330
180D1
100
AcDbEntity
  8
NJ-022
100
AcDbLine
 10
4470.753547453698
 20
9600.253322994078
 30
0.0
 11
4469.253547453698
 21
9600.253322994078
 31
0.0
  0
CIRCLE
  5
187F6
330
180D1
100
AcDbEntity
  8
NJ-022
100
AcDbCircle
 10
4500.003547453697
 20
9597.753322994078
 30
0.0
 40
4.75
  0
CIRCLE
  5
187F7
330
180D1
100
AcDbEntity
  8
NJ-022
100
AcDbCircle
 10
4500.003547453697
 20
9597.753322994078
 30
0.0
 40
8.0
  0
LINE
  5
187F8
330
180D1
100
AcDbEntity
  8
NJ-022
100
AcDbLine
 10
4530.753547453698
 20
9600.253322994078
 30
0.0
 11
4530.753547453698
 21
9595.253322994079
 31
0.0
  0
LINE
  5
187F9
330
180D1
100
AcDbEntity
  8
NJ-022
100
AcDbLine
 10
4530.753547453698
 20
9595.253322994079
 30
0.0
 11
4529.253547453698
 21
9595.253322994079
 31
0.0
  0
LINE
  5
187FA
330
180D1
100
AcDbEntity
  8
NJ-022
100
AcDbLine
 10
4529.253547453698
 20
9600.253322994078
 30
0.0
 11
4530.753547453698
 21
9600.253322994078
 31
0.0
  0
LINE
  5
187FB
330
180D1
100
AcDbEntity
  8
NJ-022
100
AcDbLine
 10
4529.253547453698
 20
9610.253322994079
 30
0.0
 11
4470.753547453698
 21
9610.253322994079
 31
0.0
  0
LINE
  5
187FC
330
180D1
100
AcDbEntity
  8
NJ-022
100
AcDbLine
 10
4470.753547453698
 20
9585.253322994079
 30
0.0
 11
4529.253547453698
 21
9585.253322994079
 31
0.0
  0
LINE
  5
187FD
330
180D1
100
AcDbEntity
  8
NJ-022
100
AcDbLine
 10
4470.753547453698
 20
9610.253322994079
 30
0.0
 11
4470.753547453698
 21
9585.253322994079
 31
0.0
  0
LINE
  5
187FE
330
180D1
100
AcDbEntity
  8
NJ-022
100
AcDbLine
 10
4487.253547453698
 20
9610.253322994079
 30
0.0
 11
4487.253547453698
 21
9585.253322994079
 31
0.0
  0
LINE
  5
187FF
330
180D1
100
AcDbEntity
  8
NJ-022
100
AcDbLine
 10
4512.753547453698
 20
9610.253322994079
 30
0.0
 11
4512.753547453698
 21
9585.253322994079
 31
0.0
  0
LINE
  5
18800
330
180D1
100
AcDbEntity
  8
NJ-022
100
AcDbLine
 10
4529.253547453698
 20
9610.253322994079
 30
0.0
 11
4529.253547453698
 21
9585.253322994079
 31
0.0
  0
LINE
  5
18801
330
180D1
100
AcDbEntity
  8
NJ-022
100
AcDbLine
 10
4112.753547453698
 20
10106.80332299407
 30
0.0
 11
4087.253547453697
 21
10106.80332299407
 31
0.0
  0
LINE
  5
18802
330
180D1
100
AcDbEntity
  8
NJ-022
100
AcDbLine
 10
4070.753547453698
 20
10091.30332299406
 30
0.0
 11
4129.253547453698
 21
10091.30332299406
 31
0.0
  0
LINE
  5
18803
330
180D1
100
AcDbEntity
  8
NJ-022
100
AcDbLine
 10
4070.753547453698
 20
10091.30332299406
 30
0.0
 11
4070.753547453698
 21
10092.30332299407
 31
0.0
  0
LINE
  5
18804
330
180D1
100
AcDbEntity
  8
NJ-022
100
AcDbLine
 10
4070.753547453698
 20
10092.30332299407
 30
0.0
 11
4087.253547453697
 21
10106.80332299407
 31
0.0
  0
LINE
  5
18805
330
180D1
100
AcDbEntity
  8
NJ-022
100
AcDbLine
 10
4129.253547453698
 20
10091.30332299406
 30
0.0
 11
4129.253547453698
 21
10092.30332299407
 31
0.0
  0
LINE
  5
18806
330
180D1
100
AcDbEntity
  8
NJ-022
100
AcDbLine
 10
4129.253547453698
 20
10092.30332299407
 30
0.0
 11
4112.753547453698
 21
10106.80332299407
 31
0.0
  0
LINE
  5
18807
330
180D1
100
AcDbEntity
  8
NJ-022
100
AcDbLine
 10
4069.253547453698
 20
9600.253322994078
 30
0.0
 11
4069.253547453698
 21
9595.253322994079
 31
0.0
  0
LINE
  5
18808
330
180D1
100
AcDbEntity
  8
NJ-022
100
AcDbLine
 10
4069.253547453698
 20
9595.253322994079
 30
0.0
 11
4070.753547453698
 21
9595.253322994079
 31
0.0
  0
LINE
  5
18809
330
180D1
100
AcDbEntity
  8
NJ-022
100
AcDbLine
 10
4070.753547453698
 20
9600.253322994078
 30
0.0
 11
4069.253547453698
 21
9600.253322994078
 31
0.0
  0
CIRCLE
  5
1880A
330
180D1
100
AcDbEntity
  8
NJ-022
100
AcDbCircle
 10
4100.003547453698
 20
9597.753322994078
 30
0.0
 40
4.75
  0
CIRCLE
  5
1880B
330
180D1
100
AcDbEntity
  8
NJ-022
100
AcDbCircle
 10
4100.003547453698
 20
9597.753322994078
 30
0.0
 40
8.0
  0
LINE
  5
1880C
330
180D1
100
AcDbEntity
  8
NJ-022
100
AcDbLine
 10
4130.753547453698
 20
9600.253322994078
 30
0.0
 11
4130.753547453698
 21
9595.253322994079
 31
0.0
  0
LINE
  5
1880D
330
180D1
100
AcDbEntity
  8
NJ-022
100
AcDbLine
 10
4130.753547453698
 20
9595.253322994079
 30
0.0
 11
4129.253547453698
 21
9595.253322994079
 31
0.0
  0
LINE
  5
1880E
330
180D1
100
AcDbEntity
  8
NJ-022
100
AcDbLine
 10
4129.253547453698
 20
9600.253322994078
 30
0.0
 11
4130.753547453698
 21
9600.253322994078
 31
0.0
  0
LINE
  5
1880F
330
180D1
100
AcDbEntity
  8
NJ-022
100
AcDbLine
 10
4129.253547453698
 20
9610.253322994079
 30
0.0
 11
4070.753547453698
 21
9610.253322994079
 31
0.0
  0
LINE
  5
18810
330
180D1
100
AcDbEntity
  8
NJ-022
100
AcDbLine
 10
4070.753547453698
 20
9585.253322994079
 30
0.0
 11
4129.253547453698
 21
9585.253322994079
 31
0.0
  0
LINE
  5
18811
330
180D1
100
AcDbEntity
  8
NJ-022
100
AcDbLine
 10
4070.753547453698
 20
9610.253322994079
 30
0.0
 11
4070.753547453698
 21
9585.253322994079
 31
0.0
  0
LINE
  5
18812
330
180D1
100
AcDbEntity
  8
NJ-022
100
AcDbLine
 10
4087.253547453697
 20
9610.253322994079
 30
0.0
 11
4087.253547453697
 21
9585.253322994079
 31
0.0
  0
LINE
  5
18813
330
180D1
100
AcDbEntity
  8
NJ-022
100
AcDbLine
 10
4112.753547453698
 20
9610.253322994079
 30
0.0
 11
4112.753547453698
 21
9585.253322994079
 31
0.0
  0
LINE
  5
18814
330
180D1
100
AcDbEntity
  8
NJ-022
100
AcDbLine
 10
4129.253547453698
 20
9610.253322994079
 30
0.0
 11
4129.253547453698
 21
9585.253322994079
 31
0.0
  0
LINE
  5
18815
330
180D1
100
AcDbEntity
  8
CF-504
100
AcDbLine
 10
4300.003547453697
 20
9581.753322994078
 30
0.0
 11
4065.003547453699
 21
9581.753322994078
 31
0.0
  0
LINE
  5
18816
330
180D1
100
AcDbEntity
  8
CF-504
100
AcDbLine
 10
4065.003547453699
 20
9581.753322994078
 30
0.0
 11
4065.003547453699
 21
9614.753322994079
 31
0.0
  0
LINE
  5
18817
330
180D1
100
AcDbEntity
  8
CF-504
100
AcDbLine
 10
4065.003547453699
 20
9614.753322994079
 30
0.0
 11
4300.003547453697
 21
9614.753322994079
 31
0.0
  0
LINE
  5
18818
330
180D1
100
AcDbEntity
  8
CF-504
100
AcDbLine
 10
4300.003547453697
 20
9614.753322994079
 30
0.0
 11
4300.003547453697
 21
9581.753322994078
 31
0.0
  0
LINE
  5
18819
330
180D1
100
AcDbEntity
  8
NJ-022
100
AcDbLine
 10
4469.253547453698
 20
9113.253322994079
 30
0.0
 11
4469.253547453698
 21
9108.253322994078
 31
0.0
  0
LINE
  5
1881A
330
180D1
100
AcDbEntity
  8
NJ-022
100
AcDbLine
 10
4469.253547453698
 20
9108.253322994078
 30
0.0
 11
4470.753547453698
 21
9108.253322994078
 31
0.0
  0
LINE
  5
1881B
330
180D1
100
AcDbEntity
  8
NJ-022
100
AcDbLine
 10
4470.753547453698
 20
9113.253322994079
 30
0.0
 11
4469.253547453698
 21
9113.253322994079
 31
0.0
  0
CIRCLE
  5
1881C
330
180D1
100
AcDbEntity
  8
NJ-022
100
AcDbCircle
 10
4500.003547453697
 20
9110.753322994078
 30
0.0
 40
4.75
  0
CIRCLE
  5
1881D
330
180D1
100
AcDbEntity
  8
NJ-022
100
AcDbCircle
 10
4500.003547453697
 20
9110.753322994078
 30
0.0
 40
8.0
  0
LINE
  5
1881E
330
180D1
100
AcDbEntity
  8
NJ-022
100
AcDbLine
 10
4530.753547453698
 20
9113.253322994079
 30
0.0
 11
4530.753547453698
 21
9108.253322994078
 31
0.0
  0
LINE
  5
1881F
330
180D1
100
AcDbEntity
  8
NJ-022
100
AcDbLine
 10
4530.753547453698
 20
9108.253322994078
 30
0.0
 11
4529.253547453698
 21
9108.253322994078
 31
0.0
  0
LINE
  5
18820
330
180D1
100
AcDbEntity
  8
NJ-022
100
AcDbLine
 10
4529.253547453698
 20
9113.253322994079
 30
0.0
 11
4530.753547453698
 21
9113.253322994079
 31
0.0
  0
LINE
  5
18821
330
180D1
100
AcDbEntity
  8
NJ-022
100
AcDbLine
 10
4529.253547453698
 20
9123.253322994079
 30
0.0
 11
4470.753547453698
 21
9123.253322994079
 31
0.0
  0
LINE
  5
18822
330
180D1
100
AcDbEntity
  8
NJ-022
100
AcDbLine
 10
4470.753547453698
 20
9098.253322994079
 30
0.0
 11
4529.253547453698
 21
9098.253322994079
 31
0.0
  0
LINE
  5
18823
330
180D1
100
AcDbEntity
  8
NJ-022
100
AcDbLine
 10
4470.753547453698
 20
9123.253322994079
 30
0.0
 11
4470.753547453698
 21
9098.253322994079
 31
0.0
  0
LINE
  5
18824
330
180D1
100
AcDbEntity
  8
NJ-022
100
AcDbLine
 10
4487.253547453698
 20
9123.253322994079
 30
0.0
 11
4487.253547453698
 21
9098.253322994079
 31
0.0
  0
LINE
  5
18825
330
180D1
100
AcDbEntity
  8
NJ-022
100
AcDbLine
 10
4512.753547453698
 20
9123.253322994079
 30
0.0
 11
4512.753547453698
 21
9098.253322994079
 31
0.0
  0
LINE
  5
18826
330
180D1
100
AcDbEntity
  8
NJ-022
100
AcDbLine
 10
4529.253547453698
 20
9123.253322994079
 30
0.0
 11
4529.253547453698
 21
9098.253322994079
 31
0.0
  0
LINE
  5
18827
330
180D1
100
AcDbEntity
  8
NJ-022
100
AcDbLine
 10
4069.253547453698
 20
9113.253322994079
 30
0.0
 11
4069.253547453698
 21
9108.253322994078
 31
0.0
  0
LINE
  5
18828
330
180D1
100
AcDbEntity
  8
NJ-022
100
AcDbLine
 10
4069.253547453698
 20
9108.253322994078
 30
0.0
 11
4070.753547453698
 21
9108.253322994078
 31
0.0
  0
LINE
  5
18829
330
180D1
100
AcDbEntity
  8
NJ-022
100
AcDbLine
 10
4070.753547453698
 20
9113.253322994079
 30
0.0
 11
4069.253547453698
 21
9113.253322994079
 31
0.0
  0
CIRCLE
  5
1882A
330
180D1
100
AcDbEntity
  8
NJ-022
100
AcDbCircle
 10
4100.003547453698
 20
9110.753322994078
 30
0.0
 40
4.75
  0
CIRCLE
  5
1882B
330
180D1
100
AcDbEntity
  8
NJ-022
100
AcDbCircle
 10
4100.003547453698
 20
9110.753322994078
 30
0.0
 40
8.0
  0
LINE
  5
1882C
330
180D1
100
AcDbEntity
  8
NJ-022
100
AcDbLine
 10
4130.753547453698
 20
9113.253322994079
 30
0.0
 11
4130.753547453698
 21
9108.253322994078
 31
0.0
  0
LINE
  5
1882D
330
180D1
100
AcDbEntity
  8
NJ-022
100
AcDbLine
 10
4130.753547453698
 20
9108.253322994078
 30
0.0
 11
4129.253547453698
 21
9108.253322994078
 31
0.0
  0
LINE
  5
1882E
330
180D1
100
AcDbEntity
  8
NJ-022
100
AcDbLine
 10
4129.253547453698
 20
9113.253322994079
 30
0.0
 11
4130.753547453698
 21
9113.253322994079
 31
0.0
  0
LINE
  5
1882F
330
180D1
100
AcDbEntity
  8
NJ-022
100
AcDbLine
 10
4129.253547453698
 20
9123.253322994079
 30
0.0
 11
4070.753547453698
 21
9123.253322994079
 31
0.0
  0
LINE
  5
18830
330
180D1
100
AcDbEntity
  8
NJ-022
100
AcDbLine
 10
4070.753547453698
 20
9098.253322994079
 30
0.0
 11
4129.253547453698
 21
9098.253322994079
 31
0.0
  0
LINE
  5
18831
330
180D1
100
AcDbEntity
  8
NJ-022
100
AcDbLine
 10
4070.753547453698
 20
9123.253322994079
 30
0.0
 11
4070.753547453698
 21
9098.253322994079
 31
0.0
  0
LINE
  5
18832
330
180D1
100
AcDbEntity
  8
NJ-022
100
AcDbLine
 10
4087.253547453697
 20
9123.253322994079
 30
0.0
 11
4087.253547453697
 21
9098.253322994079
 31
0.0
  0
LINE
  5
18833
330
180D1
100
AcDbEntity
  8
NJ-022
100
AcDbLine
 10
4112.753547453698
 20
9123.253322994079
 30
0.0
 11
4112.753547453698
 21
9098.253322994079
 31
0.0
  0
LINE
  5
18834
330
180D1
100
AcDbEntity
  8
NJ-022
100
AcDbLine
 10
4129.253547453698
 20
9123.253322994079
 30
0.0
 11
4129.253547453698
 21
9098.253322994079
 31
0.0
  0
LINE
  5
18835
330
180D1
100
AcDbEntity
  8
CF-504
100
AcDbLine
 10
4300.003547453697
 20
9094.753322994073
 30
0.0
 11
4065.003547453699
 21
9094.753322994073
 31
0.0
  0
LINE
  5
18836
330
180D1
100
AcDbEntity
  8
CF-504
100
AcDbLine
 10
4065.003547453699
 20
9094.753322994073
 30
0.0
 11
4065.003547453699
 21
9127.753322994079
 31
0.0
  0
LINE
  5
18837
330
180D1
100
AcDbEntity
  8
CF-504
100
AcDbLine
 10
4065.003547453699
 20
9127.753322994079
 30
0.0
 11
4300.003547453697
 21
9127.753322994079
 31
0.0
  0
LINE
  5
18838
330
180D1
100
AcDbEntity
  8
CF-504
100
AcDbLine
 10
4300.003547453697
 20
9127.753322994079
 30
0.0
 11
4300.003547453697
 21
9094.753322994073
 31
0.0
  0
LINE
  5
18839
330
180D1
100
AcDbEntity
  8
NJ-022
100
AcDbLine
 10
4469.253547453698
 20
8626.253322994079
 30
0.0
 11
4469.253547453698
 21
8621.253322994078
 31
0.0
  0
LINE
  5
1883A
330
180D1
100
AcDbEntity
  8
NJ-022
100
AcDbLine
 10
4469.253547453698
 20
8621.253322994078
 30
0.0
 11
4470.753547453698
 21
8621.253322994078
 31
0.0
  0
LINE
  5
1883B
330
180D1
100
AcDbEntity
  8
NJ-022
100
AcDbLine
 10
4470.753547453698
 20
8626.253322994079
 30
0.0
 11
4469.253547453698
 21
8626.253322994079
 31
0.0
  0
CIRCLE
  5
1883C
330
180D1
100
AcDbEntity
  8
NJ-022
100
AcDbCircle
 10
4500.003547453697
 20
8623.753322994078
 30
0.0
 40
4.75
  0
CIRCLE
  5
1883D
330
180D1
100
AcDbEntity
  8
NJ-022
100
AcDbCircle
 10
4500.003547453697
 20
8623.753322994078
 30
0.0
 40
8.0
  0
LINE
  5
1883E
330
180D1
100
AcDbEntity
  8
NJ-022
100
AcDbLine
 10
4530.753547453698
 20
8626.253322994079
 30
0.0
 11
4530.753547453698
 21
8621.253322994078
 31
0.0
  0
LINE
  5
1883F
330
180D1
100
AcDbEntity
  8
NJ-022
100
AcDbLine
 10
4530.753547453698
 20
8621.253322994078
 30
0.0
 11
4529.253547453698
 21
8621.253322994078
 31
0.0
  0
LINE
  5
18840
330
180D1
100
AcDbEntity
  8
NJ-022
100
AcDbLine
 10
4529.253547453698
 20
8626.253322994079
 30
0.0
 11
4530.753547453698
 21
8626.253322994079
 31
0.0
  0
LINE
  5
18841
330
180D1
100
AcDbEntity
  8
NJ-022
100
AcDbLine
 10
4529.253547453698
 20
8636.253322994077
 30
0.0
 11
4470.753547453698
 21
8636.253322994077
 31
0.0
  0
LINE
  5
18842
330
180D1
100
AcDbEntity
  8
NJ-022
100
AcDbLine
 10
4470.753547453698
 20
8611.253322994079
 30
0.0
 11
4529.253547453698
 21
8611.253322994079
 31
0.0
  0
LINE
  5
18843
330
180D1
100
AcDbEntity
  8
NJ-022
100
AcDbLine
 10
4470.753547453698
 20
8636.253322994077
 30
0.0
 11
4470.753547453698
 21
8611.253322994079
 31
0.0
  0
LINE
  5
18844
330
180D1
100
AcDbEntity
  8
NJ-022
100
AcDbLine
 10
4487.253547453698
 20
8636.253322994077
 30
0.0
 11
4487.253547453698
 21
8611.253322994079
 31
0.0
  0
LINE
  5
18845
330
180D1
100
AcDbEntity
  8
NJ-022
100
AcDbLine
 10
4512.753547453698
 20
8636.253322994077
 30
0.0
 11
4512.753547453698
 21
8611.253322994079
 31
0.0
  0
LINE
  5
18846
330
180D1
100
AcDbEntity
  8
NJ-022
100
AcDbLine
 10
4529.253547453698
 20
8636.253322994077
 30
0.0
 11
4529.253547453698
 21
8611.253322994079
 31
0.0
  0
LINE
  5
18847
330
180D1
100
AcDbEntity
  8
NJ-022
100
AcDbLine
 10
4469.253547453698
 20
8222.553322994079
 30
0.0
 11
4469.253547453698
 21
8217.553322994078
 31
0.0
  0
LINE
  5
18848
330
180D1
100
AcDbEntity
  8
NJ-022
100
AcDbLine
 10
4469.253547453698
 20
8217.553322994078
 30
0.0
 11
4470.753547453698
 21
8217.553322994078
 31
0.0
  0
LINE
  5
18849
330
180D1
100
AcDbEntity
  8
NJ-022
100
AcDbLine
 10
4470.753547453698
 20
8222.553322994079
 30
0.0
 11
4469.253547453698
 21
8222.553322994079
 31
0.0
  0
CIRCLE
  5
1884A
330
180D1
100
AcDbEntity
  8
NJ-022
100
AcDbCircle
 10
4500.003547453697
 20
8220.053322994077
 30
0.0
 40
4.75
  0
CIRCLE
  5
1884B
330
180D1
100
AcDbEntity
  8
NJ-022
100
AcDbCircle
 10
4500.003547453697
 20
8220.053322994077
 30
0.0
 40
8.0
  0
LINE
  5
1884C
330
180D1
100
AcDbEntity
  8
NJ-022
100
AcDbLine
 10
4530.753547453698
 20
8222.553322994079
 30
0.0
 11
4530.753547453698
 21
8217.553322994078
 31
0.0
  0
LINE
  5
1884D
330
180D1
100
AcDbEntity
  8
NJ-022
100
AcDbLine
 10
4530.753547453698
 20
8217.553322994078
 30
0.0
 11
4529.253547453698
 21
8217.553322994078
 31
0.0
  0
LINE
  5
1884E
330
180D1
100
AcDbEntity
  8
NJ-022
100
AcDbLine
 10
4529.253547453698
 20
8222.553322994079
 30
0.0
 11
4530.753547453698
 21
8222.553322994079
 31
0.0
  0
LINE
  5
1884F
330
180D1
100
AcDbEntity
  8
NJ-022
100
AcDbLine
 10
4529.253547453698
 20
8232.553322994077
 30
0.0
 11
4470.753547453698
 21
8232.553322994077
 31
0.0
  0
LINE
  5
18850
330
180D1
100
AcDbEntity
  8
NJ-022
100
AcDbLine
 10
4470.753547453698
 20
8207.553322994078
 30
0.0
 11
4529.253547453698
 21
8207.553322994078
 31
0.0
  0
LINE
  5
18851
330
180D1
100
AcDbEntity
  8
NJ-022
100
AcDbLine
 10
4470.753547453698
 20
8232.553322994077
 30
0.0
 11
4470.753547453698
 21
8207.553322994078
 31
0.0
  0
LINE
  5
18852
330
180D1
100
AcDbEntity
  8
NJ-022
100
AcDbLine
 10
4487.253547453698
 20
8232.553322994077
 30
0.0
 11
4487.253547453698
 21
8207.553322994078
 31
0.0
  0
LINE
  5
18853
330
180D1
100
AcDbEntity
  8
NJ-022
100
AcDbLine
 10
4512.753547453698
 20
8232.553322994077
 30
0.0
 11
4512.753547453698
 21
8207.553322994078
 31
0.0
  0
LINE
  5
18854
330
180D1
100
AcDbEntity
  8
NJ-022
100
AcDbLine
 10
4529.253547453698
 20
8232.553322994077
 30
0.0
 11
4529.253547453698
 21
8207.553322994078
 31
0.0
  0
LINE
  5
18855
330
180D1
100
AcDbEntity
  8
NJ-022
100
AcDbLine
 10
4069.253547453698
 20
8626.253322994079
 30
0.0
 11
4069.253547453698
 21
8621.253322994078
 31
0.0
  0
LINE
  5
18856
330
180D1
100
AcDbEntity
  8
NJ-022
100
AcDbLine
 10
4069.253547453698
 20
8621.253322994078
 30
0.0
 11
4070.753547453698
 21
8621.253322994078
 31
0.0
  0
LINE
  5
18857
330
180D1
100
AcDbEntity
  8
NJ-022
100
AcDbLine
 10
4070.753547453698
 20
8626.253322994079
 30
0.0
 11
4069.253547453698
 21
8626.253322994079
 31
0.0
  0
CIRCLE
  5
18858
330
180D1
100
AcDbEntity
  8
NJ-022
100
AcDbCircle
 10
4100.003547453698
 20
8623.753322994078
 30
0.0
 40
4.75
  0
CIRCLE
  5
18859
330
180D1
100
AcDbEntity
  8
NJ-022
100
AcDbCircle
 10
4100.003547453698
 20
8623.753322994078
 30
0.0
 40
8.0
  0
LINE
  5
1885A
330
180D1
100
AcDbEntity
  8
NJ-022
100
AcDbLine
 10
4130.753547453698
 20
8626.253322994079
 30
0.0
 11
4130.753547453698
 21
8621.253322994078
 31
0.0
  0
LINE
  5
1885B
330
180D1
100
AcDbEntity
  8
NJ-022
100
AcDbLine
 10
4130.753547453698
 20
8621.253322994078
 30
0.0
 11
4129.253547453698
 21
8621.253322994078
 31
0.0
  0
LINE
  5
1885C
330
180D1
100
AcDbEntity
  8
NJ-022
100
AcDbLine
 10
4129.253547453698
 20
8626.253322994079
 30
0.0
 11
4130.753547453698
 21
8626.253322994079
 31
0.0
  0
LINE
  5
1885D
330
180D1
100
AcDbEntity
  8
NJ-022
100
AcDbLine
 10
4129.253547453698
 20
8636.253322994077
 30
0.0
 11
4070.753547453698
 21
8636.253322994077
 31
0.0
  0
LINE
  5
1885E
330
180D1
100
AcDbEntity
  8
NJ-022
100
AcDbLine
 10
4070.753547453698
 20
8611.253322994079
 30
0.0
 11
4129.253547453698
 21
8611.253322994079
 31
0.0
  0
LINE
  5
1885F
330
180D1
100
AcDbEntity
  8
NJ-022
100
AcDbLine
 10
4070.753547453698
 20
8636.253322994077
 30
0.0
 11
4070.753547453698
 21
8611.253322994079
 31
0.0
  0
LINE
  5
18860
330
180D1
100
AcDbEntity
  8
NJ-022
100
AcDbLine
 10
4087.253547453697
 20
8636.253322994077
 30
0.0
 11
4087.253547453697
 21
8611.253322994079
 31
0.0
  0
LINE
  5
18861
330
180D1
100
AcDbEntity
  8
NJ-022
100
AcDbLine
 10
4112.753547453698
 20
8636.253322994077
 30
0.0
 11
4112.753547453698
 21
8611.253322994079
 31
0.0
  0
LINE
  5
18862
330
180D1
100
AcDbEntity
  8
NJ-022
100
AcDbLine
 10
4129.253547453698
 20
8636.253322994077
 30
0.0
 11
4129.253547453698
 21
8611.253322994079
 31
0.0
  0
LINE
  5
18863
330
180D1
100
AcDbEntity
  8
NJ-022
100
AcDbLine
 10
4069.253547453698
 20
8222.553322994079
 30
0.0
 11
4069.253547453698
 21
8217.553322994078
 31
0.0
  0
LINE
  5
18864
330
180D1
100
AcDbEntity
  8
NJ-022
100
AcDbLine
 10
4069.253547453698
 20
8217.553322994078
 30
0.0
 11
4070.753547453698
 21
8217.553322994078
 31
0.0
  0
LINE
  5
18865
330
180D1
100
AcDbEntity
  8
NJ-022
100
AcDbLine
 10
4070.753547453698
 20
8222.553322994079
 30
0.0
 11
4069.253547453698
 21
8222.553322994079
 31
0.0
  0
CIRCLE
  5
18866
330
180D1
100
AcDbEntity
  8
NJ-022
100
AcDbCircle
 10
4100.003547453698
 20
8220.053322994077
 30
0.0
 40
4.75
  0
CIRCLE
  5
18867
330
180D1
100
AcDbEntity
  8
NJ-022
100
AcDbCircle
 10
4100.003547453698
 20
8220.053322994077
 30
0.0
 40
8.0
  0
LINE
  5
18868
330
180D1
100
AcDbEntity
  8
NJ-022
100
AcDbLine
 10
4130.753547453698
 20
8222.553322994079
 30
0.0
 11
4130.753547453698
 21
8217.553322994078
 31
0.0
  0
LINE
  5
18869
330
180D1
100
AcDbEntity
  8
NJ-022
100
AcDbLine
 10
4130.753547453698
 20
8217.553322994078
 30
0.0
 11
4129.253547453698
 21
8217.553322994078
 31
0.0
  0
LINE
  5
1886A
330
180D1
100
AcDbEntity
  8
NJ-022
100
AcDbLine
 10
4129.253547453698
 20
8222.553322994079
 30
0.0
 11
4130.753547453698
 21
8222.553322994079
 31
0.0
  0
LINE
  5
1886B
330
180D1
100
AcDbEntity
  8
NJ-022
100
AcDbLine
 10
4129.253547453698
 20
8232.553322994077
 30
0.0
 11
4070.753547453698
 21
8232.553322994077
 31
0.0
  0
LINE
  5
1886C
330
180D1
100
AcDbEntity
  8
NJ-022
100
AcDbLine
 10
4070.753547453698
 20
8207.553322994078
 30
0.0
 11
4129.253547453698
 21
8207.553322994078
 31
0.0
  0
LINE
  5
1886D
330
180D1
100
AcDbEntity
  8
NJ-022
100
AcDbLine
 10
4070.753547453698
 20
8232.553322994077
 30
0.0
 11
4070.753547453698
 21
8207.553322994078
 31
0.0
  0
LINE
  5
1886E
330
180D1
100
AcDbEntity
  8
NJ-022
100
AcDbLine
 10
4087.253547453697
 20
8232.553322994077
 30
0.0
 11
4087.253547453697
 21
8207.553322994078
 31
0.0
  0
LINE
  5
1886F
330
180D1
100
AcDbEntity
  8
NJ-022
100
AcDbLine
 10
4112.753547453698
 20
8232.553322994077
 30
0.0
 11
4112.753547453698
 21
8207.553322994078
 31
0.0
  0
LINE
  5
18870
330
180D1
100
AcDbEntity
  8
NJ-022
100
AcDbLine
 10
4129.253547453698
 20
8232.553322994077
 30
0.0
 11
4129.253547453698
 21
8207.553322994078
 31
0.0
  0
LINE
  5
18871
330
180D1
100
AcDbEntity
  8
AF-21
100
AcDbLine
 10
4077.003547453698
 20
8199.753322994078
 30
0.0
 11
4062.003547453698
 21
8199.753322994078
 31
0.0
  0
LINE
  5
18872
330
180D1
100
AcDbEntity
  8
AF-21
100
AcDbLine
 10
4062.003547453698
 20
8199.753322994078
 30
0.0
 11
4062.003547453698
 21
8138.753322994077
 31
0.0
  0
ARC
  5
18873
330
180D1
100
AcDbEntity
  8
AF-21
100
AcDbCircle
 10
4066.003547453698
 20
8138.753322994077
 30
0.0
 40
4.0
100
AcDbArc
 50
180.0
 51
270.0
  0
LINE
  5
18874
330
180D1
100
AcDbEntity
  8
AF-21
100
AcDbLine
 10
4066.003547453698
 20
8134.753322994077
 30
0.0
 11
4077.003547453698
 21
8134.753322994077
 31
0.0
  0
LINE
  5
18875
330
180D1
100
AcDbEntity
  8
AF-21
100
AcDbLine
 10
4077.003547453698
 20
8134.753322994077
 30
0.0
 11
4077.003547453698
 21
8199.753322994078
 31
0.0
  0
LINE
  5
18876
330
180D1
100
AcDbEntity
  8
CF-504
100
AcDbLine
 10
4300.003547453697
 20
8607.753322994078
 30
0.0
 11
4065.003547453699
 21
8607.753322994078
 31
0.0
  0
LINE
  5
18877
330
180D1
100
AcDbEntity
  8
CF-504
100
AcDbLine
 10
4065.003547453699
 20
8607.753322994078
 30
0.0
 11
4065.003547453699
 21
8640.753322994077
 31
0.0
  0
LINE
  5
18878
330
180D1
100
AcDbEntity
  8
CF-504
100
AcDbLine
 10
4065.003547453699
 20
8640.753322994077
 30
0.0
 11
4300.003547453697
 21
8640.753322994077
 31
0.0
  0
LINE
  5
18879
330
180D1
100
AcDbEntity
  8
CF-504
100
AcDbLine
 10
4300.003547453697
 20
8640.753322994077
 30
0.0
 11
4300.003547453697
 21
8607.753322994078
 31
0.0
  0
LINE
  5
1887A
330
180D1
100
AcDbEntity
  8
CF-201
100
AcDbLine
 10
5117.867028468756
 20
9614.753322994079
 30
0.0
 11
4300.003547453697
 21
9614.753322994079
 31
0.0
  0
LINE
  5
1887B
330
180D1
100
AcDbEntity
  8
CF-201
100
AcDbLine
 10
4300.003547453697
 20
9614.753322994079
 30
0.0
 11
4300.003547453697
 21
9581.753322994078
 31
0.0
  0
LINE
  5
1887C
330
180D1
100
AcDbEntity
  8
CF-201
100
AcDbLine
 10
4300.003547453697
 20
9581.753322994078
 30
0.0
 11
5137.506380164801
 21
9581.753322994078
 31
0.0
  0
LINE
  5
1887D
330
180D1
100
AcDbEntity
  8
CF-201
100
AcDbLine
 10
5407.696248952792
 20
9127.753322994079
 30
0.0
 11
4300.003547453697
 21
9127.753322994079
 31
0.0
  0
LINE
  5
1887E
330
180D1
100
AcDbEntity
  8
CF-201
100
AcDbLine
 10
4300.003547453697
 20
9127.753322994079
 30
0.0
 11
4300.003547453697
 21
9094.753322994073
 31
0.0
  0
LINE
  5
1887F
330
180D1
100
AcDbEntity
  8
CF-201
100
AcDbLine
 10
4300.003547453697
 20
9094.753322994073
 30
0.0
 11
5427.335600648838
 21
9094.753322994073
 31
0.0
  0
LINE
  5
18880
330
180D1
100
AcDbEntity
  8
CF-201
100
AcDbLine
 10
5697.525469436828
 20
8640.753322994077
 30
0.0
 11
4300.003547453697
 21
8640.753322994077
 31
0.0
  0
LINE
  5
18881
330
180D1
100
AcDbEntity
  8
CF-201
100
AcDbLine
 10
4300.003547453697
 20
8640.753322994077
 30
0.0
 11
4300.003547453697
 21
8607.753322994078
 31
0.0
  0
LINE
  5
18882
330
180D1
100
AcDbEntity
  8
CF-201
100
AcDbLine
 10
4300.003547453697
 20
8607.753322994078
 30
0.0
 11
5717.164821132872
 21
8607.753322994078
 31
0.0
  0
LINE
  5
18883
330
180D1
100
AcDbEntity
  8
TATEDOISIJIKANAGU
100
AcDbLine
 10
12123.05809360815
 20
4192.093257627125
 30
0.0
 11
12140.55809360816
 21
4192.093257627125
 31
0.0
  0
LINE
  5
18884
330
180D1
100
AcDbEntity
  8
TATEDOISIJIKANAGU
100
AcDbLine
 10
12140.55809360816
 20
4192.093257627125
 30
0.0
 11
12140.55809360816
 21
4180.593257627125
 31
0.0
  0
LINE
  5
18885
330
180D1
100
AcDbEntity
  8
TATEDOISIJIKANAGU
100
AcDbLine
 10
12140.05809360815
 20
4194.093257627125
 30
0.0
 11
12140.05809360815
 21
4192.093257627125
 31
0.0
  0
LINE
  5
18886
330
180D1
100
AcDbEntity
  8
TATEDOISIJIKANAGU
100
AcDbLine
 10
12140.05809360815
 20
4192.093257627125
 30
0.0
 11
12138.85809360816
 21
4192.093257627125
 31
0.0
  0
LINE
  5
18887
330
180D1
100
AcDbEntity
  8
TATEDOISIJIKANAGU
100
AcDbLine
 10
12136.55809360815
 20
4192.093257627125
 30
0.0
 11
12098.55809360815
 21
4192.093257627125
 31
0.0
  0
LINE
  5
18888
330
180D1
100
AcDbEntity
  8
TATEDOISIJIKANAGU
100
AcDbLine
 10
12096.25809360816
 20
4192.093257627125
 30
0.0
 11
12095.05809360815
 21
4192.093257627125
 31
0.0
  0
LINE
  5
18889
330
180D1
100
AcDbEntity
  8
TATEDOISIJIKANAGU
100
AcDbLine
 10
12095.05809360815
 20
4192.093257627125
 30
0.0
 11
12095.05809360815
 21
4194.093257627125
 31
0.0
  0
LINE
  5
1888A
330
180D1
100
AcDbEntity
  8
TATEDOISIJIKANAGU
100
AcDbLine
 10
12095.05809360815
 20
4194.093257627125
 30
0.0
 11
12140.05809360815
 21
4194.093257627125
 31
0.0
  0
ARC
  5
1888B
330
180D1
100
AcDbEntity
  8
CF-501
100
AcDbCircle
 10
11606.58906250733
 20
4619.176552931993
 30
0.0
 40
4.535792194808902
100
AcDbArc
 50
249.1631131570391
 51
265.4000000000144
  0
ARC
  5
1888C
330
180D1
100
AcDbEntity
  8
CF-501
100
AcDbCircle
 10
11606.17259080734
 20
4618.0823061046
 30
0.0
 40
3.36496992129373
100
AcDbArc
 50
230.2897277836819
 51
249.1631131569222
  0
ARC
  5
1888D
330
180D1
100
AcDbEntity
  8
CF-501
100
AcDbCircle
 10
11605.61676708969
 20
4617.413057374392
 30
0.0
 40
2.49500792902868
100
AcDbArc
 50
205.904113929185
 51
230.2897277838844
  0
ARC
  5
1888E
330
180D1
100
AcDbEntity
  8
CF-501
100
AcDbCircle
 10
11604.81905771487
 20
4617.025639729744
 30
0.0
 40
1.608197533243203
100
AcDbArc
 50
175.3999999998516
 51
205.9041139288491
  0
ARC
  5
1888F
330
180D1
100
AcDbEntity
  8
CF-501
100
AcDbCircle
 10
11121.15774869916
 20
4658.233429080298
 30
0.0
 40
4.535792194822644
100
AcDbArc
 50
249.163113157032
 51
265.4000000000052
  0
ARC
  5
18890
330
180D1
100
AcDbEntity
  8
CF-501
100
AcDbCircle
 10
11120.74127699916
 20
4657.13918225289
 30
0.0
 40
3.364969921293083
100
AcDbArc
 50
230.2897277837157
 51
249.1631131569511
  0
ARC
  5
18891
330
180D1
100
AcDbEntity
  8
CF-501
100
AcDbCircle
 10
11120.18545328152
 20
4656.46993352268
 30
0.0
 40
2.495007929032865
100
AcDbArc
 50
205.9041139291115
 51
230.2897277838012
  0
ARC
  5
18892
330
180D1
100
AcDbEntity
  8
CF-501
100
AcDbCircle
 10
11119.38774390668
 20
4656.082515878035
 30
0.0
 40
1.608197533241567
100
AcDbArc
 50
175.3999999998788
 51
205.9041139288775
  0
ARC
  5
18893
330
180D1
100
AcDbEntity
  8
CF-501
100
AcDbCircle
 10
10635.72643489097
 20
4697.290305228576
 30
0.0
 40
4.535792194807703
100
AcDbArc
 50
249.163113157082
 51
265.4000000000592
  0
ARC
  5
18894
330
180D1
100
AcDbEntity
  8
CF-501
100
AcDbCircle
 10
10635.30996319098
 20
4696.196058401181
 30
0.0
 40
3.364969921295874
100
AcDbArc
 50
230.2897277836343
 51
249.1631131568698
  0
ARC
  5
18895
330
180D1
100
AcDbEntity
  8
CF-501
100
AcDbCircle
 10
10634.75413947333
 20
4695.526809670973
 30
0.0
 40
2.49500792902868
100
AcDbArc
 50
205.904113929185
 51
230.2897277838844
  0
ARC
  5
18896
330
180D1
100
AcDbEntity
  8
CF-501
100
AcDbCircle
 10
10633.9564300985
 20
4695.139392026326
 30
0.0
 40
1.608197533243601
100
AcDbArc
 50
175.3999999998839
 51
205.9041139288783
  0
LINE
  5
18897
330
180D1
100
AcDbEntity
  8
1PL-M1
100
AcDbLine
 10
12000.3509022893
 20
2479.546798568536
 30
0.0
 11
12000.3509022893
 21
4320.546798568534
 31
0.0
  0
ARC
  5
18898
330
180D1
100
AcDbEntity
  8
1PL-M1
100
AcDbCircle
 10
11749.9009022893
 20
4320.546798568543
 30
0.0
 40
250.449999999997
100
AcDbArc
 50
359.9999999999977
 51
85.39999999998212
  0
LINE
  5
18899
330
180D1
100
AcDbEntity
  8
1PL-M1
100
AcDbLine
 10
11769.98672288754
 20
4570.190068677901
 30
0.0
 11
11522.78556103039
 21
4590.079401911527
 31
0.0
  0
LINE
  5
1889A
330
180D1
100
AcDbEntity
  8
1PL-M1
100
AcDbLine
 10
11522.78556103039
 20
4590.079401911527
 30
0.0
 11
10122.31123679941
 21
4702.758890593968
 31
0.0
  0
ARC
  5
1889B
330
180D1
100
AcDbEntity
  8
TATEDOISIJIKANAGU
100
AcDbCircle
 10
6625.990119415487
 20
4078.40687772892
 30
0.0
 40
19.50000000000022
100
AcDbArc
 50
75.83851648790345
 51
255.8385164879034
  0
LINE
  5
1889C
330
180D1
100
AcDbEntity
  8
TATEDOISIJIKANAGU
100
AcDbLine
 10
6522.285483158249
 20
4084.46284147048
 30
0.0
 11
6655.453547453695
 21
4050.861377391114
 31
0.0
  0
LINE
  5
1889D
330
180D1
100
AcDbEntity
  8
TATEDOISIJIKANAGU
100
AcDbLine
 10
6546.503547453697
 20
4118.574404846032
 30
0.0
 11
6652.745177229505
 21
4091.767119439189
 31
0.0
  0
ARC
  5
1889E
330
180D1
100
AcDbEntity
  8
TATEDOISIJIKANAGU
100
AcDbCircle
 10
6647.974300165365
 20
4072.859747013386
 30
0.0
 40
19.50000000000022
100
AcDbArc
 50
67.44617714050211
 51
75.83851648801725
  0
LINE
  5
1889F
330
180D1
100
AcDbEntity
  8
TATEDOISIJIKANAGU
100
AcDbLine
 10
6532.503547453697
 20
4166.546798568535
 30
0.0
 11
6521.503547453686
 21
4166.546798568535
 31
0.0
  0
LINE
  5
188A0
330
180D1
100
AcDbEntity
  8
TATEDOISIJIKANAGU
100
AcDbLine
 10
6550.003547453686
 20
4161.046798568532
 30
0.0
 11
6504.941135980788
 21
4161.046798568532
 31
0.0
  0
LINE
  5
188A1
330
180D1
100
AcDbEntity
  8
TATEDOISIJIKANAGU
100
AcDbLine
 10
6505.503547453698
 20
4141.399452529952
 30
0.0
 11
6548.503547453697
 21
4141.399452529952
 31
0.0
  0
LINE
  5
188A2
330
180D1
100
AcDbEntity
  8
TATEDOISIJIKANAGU
100
AcDbLine
 10
6504.003547453698
 20
4148.046798568532
 30
0.0
 11
6550.003547453686
 21
4148.046798568532
 31
0.0
  0
ARC
  5
188A3
330
180D1
100
AcDbEntity
  8
TATEDOISIJIKANAGU
100
AcDbCircle
 10
6512.003547453686
 20
4127.796798568535
 30
0.0
 40
0.5000000000000285
100
AcDbArc
 50
305.9487523471967
 51
54.05124765280327
  0
ARC
  5
188A4
330
180D1
100
AcDbEntity
  8
TATEDOISIJIKANAGU
100
AcDbCircle
 10
6512.003547453686
 20
4121.796798568532
 30
0.0
 40
0.5000000000000285
100
AcDbArc
 50
305.9487523471967
 51
54.05124765280327
  0
ARC
  5
188A5
330
180D1
100
AcDbEntity
  8
TATEDOISIJIKANAGU
100
AcDbCircle
 10
6512.003547453686
 20
4139.796798568535
 30
0.0
 40
0.5000000000000285
100
AcDbArc
 50
305.9487523471967
 51
54.05124765280327
  0
ARC
  5
188A6
330
180D1
100
AcDbEntity
  8
TATEDOISIJIKANAGU
100
AcDbCircle
 10
6512.003547453686
 20
4133.796798568535
 30
0.0
 40
0.5000000000000285
100
AcDbArc
 50
305.9487523471967
 51
54.05124765280327
  0
LINE
  5
188A7
330
180D1
100
AcDbEntity
  8
TATEDOISIJIKANAGU
100
AcDbLine
 10
6527.003547453697
 20
4161.046798568532
 30
0.0
 11
6522.003547453699
 21
4161.046798568532
 31
0.0
  0
LINE
  5
188A8
330
180D1
100
AcDbEntity
  8
TATEDOISIJIKANAGU
100
AcDbLine
 10
6521.503547453686
 20
4166.546798568535
 30
0.0
 11
6521.503547453686
 21
4172.546798568535
 31
0.0
  0
LINE
  5
188A9
330
180D1
100
AcDbEntity
  8
TATEDOISIJIKANAGU
100
AcDbLine
 10
6507.503547453698
 20
4129.718078273477
 30
0.0
 11
6507.503547453698
 21
4131.875518863592
 31
0.0
  0
ARC
  5
188AA
330
180D1
100
AcDbEntity
  8
TATEDOISIJIKANAGU
100
AcDbCircle
 10
6508.303547453697
 20
4129.718078273477
 30
0.0
 40
0.8
100
AcDbArc
 50
180.0
 51
260.0000000000475
  0
ARC
  5
188AB
330
180D1
100
AcDbEntity
  8
TATEDOISIJIKANAGU
100
AcDbCircle
 10
6508.303547453697
 20
4123.718078273475
 30
0.0
 40
0.8
100
AcDbArc
 50
180.0
 51
260.0000000000475
  0
ARC
  5
188AC
330
180D1
100
AcDbEntity
  8
TATEDOISIJIKANAGU
100
AcDbCircle
 10
6508.303547453697
 20
4125.875518863592
 30
0.0
 40
0.8
100
AcDbArc
 50
100.0000000000552
 51
180.0
  0
LINE
  5
188AD
330
180D1
100
AcDbEntity
  8
TATEDOISIJIKANAGU
100
AcDbLine
 10
6507.503547453698
 20
4125.875518863592
 30
0.0
 11
6507.503547453698
 21
4123.718078273475
 31
0.0
  0
ARC
  5
188AE
330
180D1
100
AcDbEntity
  8
TATEDOISIJIKANAGU
100
AcDbCircle
 10
6508.303547453697
 20
4117.718078273475
 30
0.0
 40
0.8
100
AcDbArc
 50
180.0
 51
260.0000000000475
  0
LINE
  5
188AF
330
180D1
100
AcDbEntity
  8
TATEDOISIJIKANAGU
100
AcDbLine
 10
6507.503547453698
 20
4117.718078273475
 30
0.0
 11
6507.503547453698
 21
4119.875518863592
 31
0.0
  0
ARC
  5
188B0
330
180D1
100
AcDbEntity
  8
TATEDOISIJIKANAGU
100
AcDbCircle
 10
6508.303547453697
 20
4119.875518863592
 30
0.0
 40
0.8
100
AcDbArc
 50
100.0000000000552
 51
180.0
  0
LINE
  5
188B1
330
180D1
100
AcDbEntity
  8
TATEDOISIJIKANAGU
100
AcDbLine
 10
6504.003547453698
 20
4172.546798568535
 30
0.0
 11
6504.003547453698
 21
4161.046798568532
 31
0.0
  0
ARC
  5
188B2
330
180D1
100
AcDbEntity
  8
TATEDOISIJIKANAGU
100
AcDbCircle
 10
6505.003547453696
 20
4147.546798568535
 30
0.0
 40
0.5
100
AcDbArc
 50
0.0
 51
90.0
  0
LINE
  5
188B3
330
180D1
100
AcDbEntity
  8
TATEDOISIJIKANAGU
100
AcDbLine
 10
6505.503547453698
 20
4147.546798568535
 30
0.0
 11
6505.503547453698
 21
4141.399452529952
 31
0.0
  0
ARC
  5
188B4
330
180D1
100
AcDbEntity
  8
TATEDOISIJIKANAGU
100
AcDbCircle
 10
6508.303547453697
 20
4135.718078273476
 30
0.0
 40
0.8
100
AcDbArc
 50
180.0
 51
260.0000000000475
  0
LINE
  5
188B5
330
180D1
100
AcDbEntity
  8
TATEDOISIJIKANAGU
100
AcDbLine
 10
6507.503547453698
 20
4137.875518863592
 30
0.0
 11
6507.503547453698
 21
4135.718078273476
 31
0.0
  0
ARC
  5
188B6
330
180D1
100
AcDbEntity
  8
TATEDOISIJIKANAGU
100
AcDbCircle
 10
6508.303547453697
 20
4131.875518863592
 30
0.0
 40
0.8
100
AcDbArc
 50
100.0000000000552
 51
180.0
  0
ARC
  5
188B7
330
180D1
100
AcDbEntity
  8
TATEDOISIJIKANAGU
100
AcDbCircle
 10
6508.303547453697
 20
4137.875518863592
 30
0.0
 40
0.8
100
AcDbArc
 50
100.0000000000552
 51
180.0
  0
ARC
  5
188B8
330
180D1
100
AcDbEntity
  8
TATEDOISIJIKANAGU
100
AcDbCircle
 10
6504.003547453698
 20
4160.546798568535
 30
0.0
 40
0.5
100
AcDbArc
 50
90.0
 51
180.0
  0
ARC
  5
188B9
330
180D1
100
AcDbEntity
  8
TATEDOISIJIKANAGU
100
AcDbCircle
 10
6504.003547453698
 20
4148.546798568534
 30
0.0
 40
0.5
100
AcDbArc
 50
180.0
 51
270.0
  0
LINE
  5
188BA
330
180D1
100
AcDbEntity
  8
TATEDOISIJIKANAGU
100
AcDbLine
 10
6503.503547453696
 20
4160.546798568535
 30
0.0
 11
6503.503547453696
 21
4148.546798568534
 31
0.0
  0
LINE
  5
188BB
330
180D1
100
AcDbEntity
  8
TATEDOISIJIKANAGU
100
AcDbLine
 10
6508.164628911558
 20
4128.930232071065
 30
0.0
 11
6512.297078153636
 21
4128.20156977328
 31
0.0
  0
LINE
  5
188BC
330
180D1
100
AcDbEntity
  8
TATEDOISIJIKANAGU
100
AcDbLine
 10
6508.164628911558
 20
4122.930232071065
 30
0.0
 11
6512.297078153636
 21
4122.201569773277
 31
0.0
  0
LINE
  5
188BD
330
180D1
100
AcDbEntity
  8
TATEDOISIJIKANAGU
100
AcDbLine
 10
6508.164628911558
 20
4120.663365066
 30
0.0
 11
6512.297078153636
 21
4121.392027363786
 31
0.0
  0
LINE
  5
188BE
330
180D1
100
AcDbEntity
  8
TATEDOISIJIKANAGU
100
AcDbLine
 10
6508.164628911558
 20
4126.663365066002
 30
0.0
 11
6512.297078153636
 21
4127.392027363788
 31
0.0
  0
LINE
  5
188BF
330
180D1
100
AcDbEntity
  8
TATEDOISIJIKANAGU
100
AcDbLine
 10
6508.164628911558
 20
4138.663365066
 30
0.0
 11
6512.297078153636
 21
4139.392027363788
 31
0.0
  0
LINE
  5
188C0
330
180D1
100
AcDbEntity
  8
TATEDOISIJIKANAGU
100
AcDbLine
 10
6505.503547453698
 20
4141.399452529952
 30
0.0
 11
6512.297078153636
 21
4140.201569773281
 31
0.0
  0
LINE
  5
188C1
330
180D1
100
AcDbEntity
  8
TATEDOISIJIKANAGU
100
AcDbLine
 10
6508.164628911558
 20
4132.663365066
 30
0.0
 11
6512.297078153636
 21
4133.392027363788
 31
0.0
  0
LINE
  5
188C2
330
180D1
100
AcDbEntity
  8
TATEDOISIJIKANAGU
100
AcDbLine
 10
6508.164628911558
 20
4134.930232071065
 30
0.0
 11
6512.297078153636
 21
4134.201569773281
 31
0.0
  0
LINE
  5
188C3
330
180D1
100
AcDbEntity
  8
TATEDOISIJIKANAGU
100
AcDbLine
 10
6527.003547453697
 20
4161.046798568532
 30
0.0
 11
6504.003547453698
 21
4161.046798568532
 31
0.0
  0
LINE
  5
188C4
330
180D1
100
AcDbEntity
  8
TATEDOISIJIKANAGU
100
AcDbLine
 10
6504.003547453698
 20
4172.546798568535
 30
0.0
 11
6521.503547453686
 21
4172.546798568535
 31
0.0
  0
LINE
  5
188C5
330
180D1
100
AcDbEntity
  8
TATEDOISIJIKANAGU
100
AcDbLine
 10
6546.503547453697
 20
4129.718078273477
 30
0.0
 11
6546.503547453697
 21
4131.875518863592
 31
0.0
  0
ARC
  5
188C6
330
180D1
100
AcDbEntity
  8
TATEDOISIJIKANAGU
100
AcDbCircle
 10
6545.703547453697
 20
4129.718078273477
 30
0.0
 40
0.8
100
AcDbArc
 50
280.0000000000551
 51
0.0
  0
ARC
  5
188C7
330
180D1
100
AcDbEntity
  8
TATEDOISIJIKANAGU
100
AcDbCircle
 10
6545.703547453697
 20
4123.718078273475
 30
0.0
 40
0.8
100
AcDbArc
 50
280.0000000000551
 51
0.0
  0
ARC
  5
188C8
330
180D1
100
AcDbEntity
  8
TATEDOISIJIKANAGU
100
AcDbCircle
 10
6545.703547453697
 20
4125.875518863592
 30
0.0
 40
0.8
100
AcDbArc
 50
0.0
 51
79.99999999994479
  0
ARC
  5
188C9
330
180D1
100
AcDbEntity
  8
TATEDOISIJIKANAGU
100
AcDbCircle
 10
6545.703547453697
 20
4117.718078273475
 30
0.0
 40
0.8
100
AcDbArc
 50
280.0000000000551
 51
0.0
  0
ARC
  5
188CA
330
180D1
100
AcDbEntity
  8
TATEDOISIJIKANAGU
100
AcDbCircle
 10
6545.703547453697
 20
4119.875518863592
 30
0.0
 40
0.8
100
AcDbArc
 50
0.0
 51
79.99999999994479
  0
ARC
  5
188CB
330
180D1
100
AcDbEntity
  8
TATEDOISIJIKANAGU
100
AcDbCircle
 10
6542.003547453699
 20
4127.796798568535
 30
0.0
 40
0.5000000000000285
100
AcDbArc
 50
125.9487523471967
 51
234.0512476528032
  0
LINE
  5
188CC
330
180D1
100
AcDbEntity
  8
TATEDOISIJIKANAGU
100
AcDbLine
 10
6545.842465995829
 20
4128.930232071065
 30
0.0
 11
6541.710016753746
 21
4128.20156977328
 31
0.0
  0
ARC
  5
188CD
330
180D1
100
AcDbEntity
  8
TATEDOISIJIKANAGU
100
AcDbCircle
 10
6542.003547453699
 20
4121.796798568532
 30
0.0
 40
0.5000000000000285
100
AcDbArc
 50
125.9487523471967
 51
234.0512476528032
  0
LINE
  5
188CE
330
180D1
100
AcDbEntity
  8
TATEDOISIJIKANAGU
100
AcDbLine
 10
6545.842465995829
 20
4122.930232071065
 30
0.0
 11
6541.710016753746
 21
4122.201569773277
 31
0.0
  0
LINE
  5
188CF
330
180D1
100
AcDbEntity
  8
TATEDOISIJIKANAGU
100
AcDbLine
 10
6545.842465995829
 20
4120.663365066
 30
0.0
 11
6541.710016753746
 21
4121.392027363786
 31
0.0
  0
LINE
  5
188D0
330
180D1
100
AcDbEntity
  8
TATEDOISIJIKANAGU
100
AcDbLine
 10
6545.842465995829
 20
4126.663365066002
 30
0.0
 11
6541.710016753746
 21
4127.392027363788
 31
0.0
  0
LINE
  5
188D1
330
180D1
100
AcDbEntity
  8
TATEDOISIJIKANAGU
100
AcDbLine
 10
6546.503547453697
 20
4125.875518863592
 30
0.0
 11
6546.503547453697
 21
4123.718078273475
 31
0.0
  0
LINE
  5
188D2
330
180D1
100
AcDbEntity
  8
TATEDOISIJIKANAGU
100
AcDbLine
 10
6546.503547453697
 20
4117.718078273475
 30
0.0
 11
6546.503547453697
 21
4119.875518863592
 31
0.0
  0
ARC
  5
188D3
330
180D1
100
AcDbEntity
  8
TATEDOISIJIKANAGU
100
AcDbCircle
 10
6549.003547453697
 20
4147.546798568535
 30
0.0
 40
0.5
100
AcDbArc
 50
90.0
 51
180.0
  0
LINE
  5
188D4
330
180D1
100
AcDbEntity
  8
TATEDOISIJIKANAGU
100
AcDbLine
 10
6548.503547453697
 20
4141.399452529952
 30
0.0
 11
6541.710016753746
 21
4140.201569773281
 31
0.0
  0
ARC
  5
188D5
330
180D1
100
AcDbEntity
  8
TATEDOISIJIKANAGU
100
AcDbCircle
 10
6545.703547453697
 20
4135.718078273476
 30
0.0
 40
0.8
100
AcDbArc
 50
280.0000000000551
 51
0.0
  0
ARC
  5
188D6
330
180D1
100
AcDbEntity
  8
TATEDOISIJIKANAGU
100
AcDbCircle
 10
6545.703547453697
 20
4131.875518863592
 30
0.0
 40
0.8
100
AcDbArc
 50
0.0
 51
79.99999999994479
  0
ARC
  5
188D7
330
180D1
100
AcDbEntity
  8
TATEDOISIJIKANAGU
100
AcDbCircle
 10
6545.703547453697
 20
4137.875518863592
 30
0.0
 40
0.8
100
AcDbArc
 50
0.0
 51
79.99999999994479
  0
ARC
  5
188D8
330
180D1
100
AcDbEntity
  8
TATEDOISIJIKANAGU
100
AcDbCircle
 10
6542.003547453699
 20
4139.796798568535
 30
0.0
 40
0.5000000000000285
100
AcDbArc
 50
125.9487523471967
 51
234.0512476528032
  0
LINE
  5
188D9
330
180D1
100
AcDbEntity
  8
TATEDOISIJIKANAGU
100
AcDbLine
 10
6545.842465995829
 20
4138.663365066
 30
0.0
 11
6541.710016753746
 21
4139.392027363788
 31
0.0
  0
ARC
  5
188DA
330
180D1
100
AcDbEntity
  8
TATEDOISIJIKANAGU
100
AcDbCircle
 10
6542.003547453699
 20
4133.796798568535
 30
0.0
 40
0.5000000000000285
100
AcDbArc
 50
125.9487523471967
 51
234.0512476528032
  0
LINE
  5
188DB
330
180D1
100
AcDbEntity
  8
TATEDOISIJIKANAGU
100
AcDbLine
 10
6545.842465995829
 20
4132.663365066
 30
0.0
 11
6541.710016753746
 21
4133.392027363788
 31
0.0
  0
LINE
  5
188DC
330
180D1
100
AcDbEntity
  8
TATEDOISIJIKANAGU
100
AcDbLine
 10
6545.842465995829
 20
4134.930232071065
 30
0.0
 11
6541.710016753746
 21
4134.201569773281
 31
0.0
  0
LINE
  5
188DD
330
180D1
100
AcDbEntity
  8
TATEDOISIJIKANAGU
100
AcDbLine
 10
6548.503547453697
 20
4147.546798568535
 30
0.0
 11
6548.503547453697
 21
4141.399452529952
 31
0.0
  0
LINE
  5
188DE
330
180D1
100
AcDbEntity
  8
TATEDOISIJIKANAGU
100
AcDbLine
 10
6546.503547453697
 20
4137.875518863592
 30
0.0
 11
6546.503547453697
 21
4135.718078273476
 31
0.0
  0
LINE
  5
188DF
330
180D1
100
AcDbEntity
  8
TATEDOISIJIKANAGU
100
AcDbLine
 10
6532.503547453697
 20
4172.546798568535
 30
0.0
 11
6532.503547453697
 21
4166.546798568535
 31
0.0
  0
LINE
  5
188E0
330
180D1
100
AcDbEntity
  8
TATEDOISIJIKANAGU
100
AcDbLine
 10
6550.503547453697
 20
4160.546798568535
 30
0.0
 11
6550.503547453697
 21
4148.546798568534
 31
0.0
  0
ARC
  5
188E1
330
180D1
100
AcDbEntity
  8
TATEDOISIJIKANAGU
100
AcDbCircle
 10
6550.003547453686
 20
4160.546798568535
 30
0.0
 40
0.5
100
AcDbArc
 50
0.0
 51
90.0
  0
ARC
  5
188E2
330
180D1
100
AcDbEntity
  8
TATEDOISIJIKANAGU
100
AcDbCircle
 10
6550.003547453686
 20
4148.546798568534
 30
0.0
 40
0.5
100
AcDbArc
 50
270.0
 51
0.0
  0
ARC
  5
188E3
330
180D1
100
AcDbEntity
  8
TATEDOISIJIKANAGU
100
AcDbCircle
 10
6601.256656552362
 20
4084.647717590569
 30
0.0
 40
19.50000000000022
100
AcDbArc
 50
75.83851648801725
 51
255.8385164880171
  0
ARC
  5
188E4
330
180D1
100
AcDbEntity
  8
TATEDOISIJIKANAGU
100
AcDbCircle
 10
6650.72358227858
 20
4072.166037867281
 30
0.0
 40
19.50000000000022
100
AcDbArc
 50
75.83851648790345
 51
255.8385164879034
  0
ARC
  5
188E5
330
180D1
100
AcDbEntity
  8
TATEDOISIJIKANAGU
100
AcDbCircle
 10
6576.523193689229
 20
4090.888557452185
 30
0.0
 40
19.50000000000022
100
AcDbArc
 50
75.83851648801725
 51
255.8385164880171
  0
ARC
  5
188E6
330
180D1
100
AcDbEntity
  8
TATEDOISIJIKANAGU
100
AcDbCircle
 10
6551.789730826097
 20
4097.129397313801
 30
0.0
 40
19.50000000000022
100
AcDbArc
 50
75.83851648801725
 51
255.8385164880171
  0
ARC
  5
188E7
330
180D1
100
AcDbEntity
  8
TATEDOISIJIKANAGU
100
AcDbCircle
 10
6527.056267962961
 20
4103.370237175417
 30
0.0
 40
19.50000000000022
100
AcDbArc
 50
145.2297232858311
 51
255.8385164880171
  0
LINE
  5
188E8
330
180D1
100
AcDbEntity
  8
TATEDOISIJIKANAGU
100
AcDbLine
 10
6507.503547453698
 20
4117.718078273475
 30
0.0
 11
6507.556398949174
 21
4103.298763788798
 31
0.0
  0
LINE
  5
188E9
330
180D1
100
AcDbEntity
  8
TATEDOISIJIKANAGU
100
AcDbLine
 10
6508.164628911564
 20
4116.930232071065
 30
0.0
 11
6545.842465995831
 21
4116.930232071065
 31
0.0
  0
LINE
  5
188EA
330
180D1
100
AcDbEntity
  8
TATEDOISIJIKANAGU
100
AcDbLine
 10
6549.503547453698
 20
4174.546798568536
 30
0.0
 11
6549.503547453698
 21
4172.546798568535
 31
0.0
  0
LINE
  5
188EB
330
180D1
100
AcDbEntity
  8
TATEDOISIJIKANAGU
100
AcDbLine
 10
6549.503547453698
 20
4172.546798568535
 30
0.0
 11
6548.303547453688
 21
4172.546798568535
 31
0.0
  0
LINE
  5
188EC
330
180D1
100
AcDbEntity
  8
TATEDOISIJIKANAGU
100
AcDbLine
 10
6532.503547453697
 20
4172.546798568535
 30
0.0
 11
6550.003547453686
 21
4172.546798568535
 31
0.0
  0
LINE
  5
188ED
330
180D1
100
AcDbEntity
  8
TATEDOISIJIKANAGU
100
AcDbLine
 10
6550.003547453686
 20
4172.546798568535
 30
0.0
 11
6550.003547453686
 21
4161.046798568532
 31
0.0
  0
LINE
  5
188EE
330
180D1
100
AcDbEntity
  8
TATEDOISIJIKANAGU
100
AcDbLine
 10
6546.003547453697
 20
4172.546798568535
 30
0.0
 11
6508.003547453697
 21
4172.546798568535
 31
0.0
  0
LINE
  5
188EF
330
180D1
100
AcDbEntity
  8
TATEDOISIJIKANAGU
100
AcDbLine
 10
6505.703547453697
 20
4172.546798568535
 30
0.0
 11
6504.503547453698
 21
4172.546798568535
 31
0.0
  0
LINE
  5
188F0
330
180D1
100
AcDbEntity
  8
TATEDOISIJIKANAGU
100
AcDbLine
 10
6504.503547453698
 20
4172.546798568535
 30
0.0
 11
6504.503547453698
 21
4174.546798568536
 31
0.0
  0
LINE
  5
188F1
330
180D1
100
AcDbEntity
  8
TATEDOISIJIKANAGU
100
AcDbLine
 10
6504.503547453698
 20
4174.546798568536
 30
0.0
 11
6549.503547453698
 21
4174.546798568536
 31
0.0
  0
LINE
  5
188F2
330
180D1
100
AcDbEntity
  8
TATEDOISIJIKANAGU
100
AcDbLine
 10
12096.05809360815
 20
4160.945911588542
 30
0.0
 11
12139.05809360815
 21
4160.945911588542
 31
0.0
  0
LINE
  5
188F3
330
180D1
100
AcDbEntity
  8
TATEDOISIJIKANAGU
100
AcDbLine
 10
12059.3011104448
 20
4040.040683378579
 30
0.0
 11
12103.30069413384
 21
4040.040683378583
 31
0.0
  0
ARC
  5
188F4
330
180D1
100
AcDbEntity
  8
TATEDOISIJIKANAGU
100
AcDbCircle
 10
12081.30090228932
 20
4083.893337339999
 30
0.0
 40
19.50000000000022
100
AcDbArc
 50
0.0
 51
180.0
  0
ARC
  5
188F5
330
180D1
100
AcDbEntity
  8
TATEDOISIJIKANAGU
100
AcDbCircle
 10
12081.30090228932
 20
4068.289727286398
 30
0.0
 40
19.50000000000022
100
AcDbArc
 50
348.4738667093586
 51
191.5261332906409
  0
ARC
  5
188F6
330
180D1
100
AcDbEntity
  8
TATEDOISIJIKANAGU
100
AcDbCircle
 10
12096.30090228932
 20
4053.643337339998
 30
0.0
 40
0.5000000000000285
100
AcDbArc
 50
125.9487523471963
 51
234.0512476528036
  0
ARC
  5
188F7
330
180D1
100
AcDbEntity
  8
TATEDOISIJIKANAGU
100
AcDbCircle
 10
12066.30090228932
 20
4053.643337339998
 30
0.0
 40
0.5000000000000285
100
AcDbArc
 50
305.9487523471963
 51
54.05124765280366
  0
ARC
  5
188F8
330
180D1
100
AcDbEntity
  8
TATEDOISIJIKANAGU
100
AcDbCircle
 10
12081.30090228932
 20
4045.230828041673
 30
0.0
 40
26.95528919112273
100
AcDbArc
 50
45.66157814940276
 51
134.3384218505972
  0
ARC
  5
188F9
330
180D1
100
AcDbEntity
  8
TATEDOISIJIKANAGU
100
AcDbCircle
 10
12096.30090228932
 20
4059.643337339998
 30
0.0
 40
0.5000000000000285
100
AcDbArc
 50
125.9487523471963
 51
234.0512476528036
  0
ARC
  5
188FA
330
180D1
100
AcDbEntity
  8
TATEDOISIJIKANAGU
100
AcDbCircle
 10
12100.00090228932
 20
4057.722057635056
 30
0.0
 40
0.8
100
AcDbArc
 50
0.0
 51
80.00000000015855
  0
ARC
  5
188FB
330
180D1
100
AcDbEntity
  8
TATEDOISIJIKANAGU
100
AcDbCircle
 10
12100.00090228932
 20
4055.56461704494
 30
0.0
 40
0.8
100
AcDbArc
 50
279.9999999998413
 51
0.0
  0
LINE
  5
188FC
330
180D1
100
AcDbEntity
  8
TATEDOISIJIKANAGU
100
AcDbLine
 10
12100.80090228932
 20
4055.56461704494
 30
0.0
 11
12100.80090228932
 21
4057.722057635056
 31
0.0
  0
ARC
  5
188FD
330
180D1
100
AcDbEntity
  8
TATEDOISIJIKANAGU
100
AcDbCircle
 10
12100.00090228932
 20
4063.722057635057
 30
0.0
 40
0.8
100
AcDbArc
 50
0.0
 51
80.00000000015855
  0
LINE
  5
188FE
330
180D1
100
AcDbEntity
  8
TATEDOISIJIKANAGU
100
AcDbLine
 10
12100.80090228932
 20
4063.722057635057
 30
0.0
 11
12100.80090228932
 21
4061.564617044941
 31
0.0
  0
ARC
  5
188FF
330
180D1
100
AcDbEntity
  8
TATEDOISIJIKANAGU
100
AcDbCircle
 10
12100.00090228932
 20
4061.564617044941
 30
0.0
 40
0.8
100
AcDbArc
 50
279.9999999998413
 51
0.0
  0
LINE
  5
18900
330
180D1
100
AcDbEntity
  8
TATEDOISIJIKANAGU
100
AcDbLine
 10
12100.80090228932
 20
4068.289727286398
 30
0.0
 11
12100.80090228932
 21
4083.893337339999
 31
0.0
  0
LINE
  5
18901
330
180D1
100
AcDbEntity
  8
TATEDOISIJIKANAGU
100
AcDbLine
 10
12100.13982083144
 20
4058.509903837466
 30
0.0
 11
12096.00737158938
 21
4059.238566135252
 31
0.0
  0
LINE
  5
18902
330
180D1
100
AcDbEntity
  8
TATEDOISIJIKANAGU
100
AcDbLine
 10
12100.13982083144
 20
4060.776770842529
 30
0.0
 11
12096.00737158938
 21
4060.048108544743
 31
0.0
  0
LINE
  5
18903
330
180D1
100
AcDbEntity
  8
TATEDOISIJIKANAGU
100
AcDbLine
 10
12100.13982083144
 20
4054.776770842529
 30
0.0
 11
12096.00737158938
 21
4054.048108544743
 31
0.0
  0
ARC
  5
18904
330
180D1
100
AcDbEntity
  8
TATEDOISIJIKANAGU
100
AcDbCircle
 10
12062.60090228931
 20
4057.722057635056
 30
0.0
 40
0.8
100
AcDbArc
 50
99.99999999984147
 51
180.0
  0
ARC
  5
18905
330
180D1
100
AcDbEntity
  8
TATEDOISIJIKANAGU
100
AcDbCircle
 10
12062.60090228931
 20
4055.56461704494
 30
0.0
 40
0.8
100
AcDbArc
 50
180.0
 51
260.0000000001585
  0
ARC
  5
18906
330
180D1
100
AcDbEntity
  8
TATEDOISIJIKANAGU
100
AcDbCircle
 10
12062.60090228931
 20
4063.722057635057
 30
0.0
 40
0.8
100
AcDbArc
 50
99.99999999984147
 51
180.0
  0
ARC
  5
18907
330
180D1
100
AcDbEntity
  8
TATEDOISIJIKANAGU
100
AcDbCircle
 10
12062.60090228931
 20
4061.564617044941
 30
0.0
 40
0.8
100
AcDbArc
 50
180.0
 51
260.0000000001585
  0
ARC
  5
18908
330
180D1
100
AcDbEntity
  8
TATEDOISIJIKANAGU
100
AcDbCircle
 10
12066.30090228932
 20
4059.643337339998
 30
0.0
 40
0.5000000000000285
100
AcDbArc
 50
305.9487523471963
 51
54.05124765280366
  0
LINE
  5
18909
330
180D1
100
AcDbEntity
  8
TATEDOISIJIKANAGU
100
AcDbLine
 10
12062.46198374718
 20
4058.509903837466
 30
0.0
 11
12066.59443298926
 21
4059.238566135252
 31
0.0
  0
LINE
  5
1890A
330
180D1
100
AcDbEntity
  8
TATEDOISIJIKANAGU
100
AcDbLine
 10
12062.46198374718
 20
4060.776770842529
 30
0.0
 11
12066.59443298926
 21
4060.048108544743
 31
0.0
  0
LINE
  5
1890B
330
180D1
100
AcDbEntity
  8
TATEDOISIJIKANAGU
100
AcDbLine
 10
12062.46198374718
 20
4054.776770842529
 30
0.0
 11
12066.59443298926
 21
4054.048108544743
 31
0.0
  0
LINE
  5
1890C
330
180D1
100
AcDbEntity
  8
TATEDOISIJIKANAGU
100
AcDbLine
 10
12061.80090228932
 20
4055.56461704494
 30
0.0
 11
12061.80090228932
 21
4057.722057635056
 31
0.0
  0
LINE
  5
1890D
330
180D1
100
AcDbEntity
  8
TATEDOISIJIKANAGU
100
AcDbLine
 10
12061.80090228932
 20
4063.722057635057
 30
0.0
 11
12061.80090228932
 21
4061.564617044941
 31
0.0
  0
LINE
  5
1890E
330
180D1
100
AcDbEntity
  8
TATEDOISIJIKANAGU
100
AcDbLine
 10
12061.80090228932
 20
4068.289727286398
 30
0.0
 11
12061.80090228932
 21
4083.893337339999
 31
0.0
  0
ARC
  5
1890F
330
180D1
100
AcDbEntity
  8
TATEDOISIJIKANAGU
100
AcDbCircle
 10
12096.30090228932
 20
4041.643337339999
 30
0.0
 40
0.5000000000000285
100
AcDbArc
 50
125.9487523471963
 51
234.0512476528036
  0
ARC
  5
18910
330
180D1
100
AcDbEntity
  8
TATEDOISIJIKANAGU
100
AcDbCircle
 10
12096.30090228932
 20
4047.643337339998
 30
0.0
 40
0.5000000000000285
100
AcDbArc
 50
125.9487523471963
 51
234.0512476528036
  0
LINE
  5
18911
330
180D1
100
AcDbEntity
  8
TATEDOISIJIKANAGU
100
AcDbLine
 10
12100.80090228932
 20
4051.722057635056
 30
0.0
 11
12100.80090228932
 21
4049.564617044941
 31
0.0
  0
ARC
  5
18912
330
180D1
100
AcDbEntity
  8
TATEDOISIJIKANAGU
100
AcDbCircle
 10
12100.00090228932
 20
4051.722057635056
 30
0.0
 40
0.8
100
AcDbArc
 50
0.0
 51
80.00000000015855
  0
ARC
  5
18913
330
180D1
100
AcDbEntity
  8
TATEDOISIJIKANAGU
100
AcDbCircle
 10
12100.00090228932
 20
4045.722057635057
 30
0.0
 40
0.8
100
AcDbArc
 50
0.0
 51
80.00000000015855
  0
LINE
  5
18914
330
180D1
100
AcDbEntity
  8
TATEDOISIJIKANAGU
100
AcDbLine
 10
12100.80090228932
 20
4043.564617044943
 30
0.0
 11
12100.80090228932
 21
4045.722057635057
 31
0.0
  0
ARC
  5
18915
330
180D1
100
AcDbEntity
  8
TATEDOISIJIKANAGU
100
AcDbCircle
 10
12100.00090228932
 20
4049.564617044941
 30
0.0
 40
0.8
100
AcDbArc
 50
279.9999999998413
 51
0.0
  0
ARC
  5
18916
330
180D1
100
AcDbEntity
  8
TATEDOISIJIKANAGU
100
AcDbCircle
 10
12100.00090228932
 20
4043.564617044943
 30
0.0
 40
0.8
100
AcDbArc
 50
279.9999999998413
 51
0.0
  0
LINE
  5
18917
330
180D1
100
AcDbEntity
  8
TATEDOISIJIKANAGU
100
AcDbLine
 10
12100.13982083144
 20
4052.509903837466
 30
0.0
 11
12096.00737158938
 21
4053.23856613525
 31
0.0
  0
LINE
  5
18918
330
180D1
100
AcDbEntity
  8
TATEDOISIJIKANAGU
100
AcDbLine
 10
12100.13982083144
 20
4042.776770842531
 30
0.0
 11
12096.00737158938
 21
4042.048108544744
 31
0.0
  0
LINE
  5
18919
330
180D1
100
AcDbEntity
  8
TATEDOISIJIKANAGU
100
AcDbLine
 10
12102.80090228932
 20
4040.04068337858
 30
0.0
 11
12096.00737158938
 21
4041.238566135251
 31
0.0
  0
LINE
  5
1891A
330
180D1
100
AcDbEntity
  8
TATEDOISIJIKANAGU
100
AcDbLine
 10
12100.13982083144
 20
4048.776770842529
 30
0.0
 11
12096.00737158938
 21
4048.048108544744
 31
0.0
  0
LINE
  5
1891B
330
180D1
100
AcDbEntity
  8
TATEDOISIJIKANAGU
100
AcDbLine
 10
12100.13982083144
 20
4046.509903837466
 30
0.0
 11
12096.00737158938
 21
4047.238566135251
 31
0.0
  0
LINE
  5
1891C
330
180D1
100
AcDbEntity
  8
TATEDOISIJIKANAGU
100
AcDbLine
 10
12061.80090228932
 20
4051.722057635056
 30
0.0
 11
12061.80090228932
 21
4049.564617044941
 31
0.0
  0
ARC
  5
1891D
330
180D1
100
AcDbEntity
  8
TATEDOISIJIKANAGU
100
AcDbCircle
 10
12062.60090228931
 20
4051.722057635056
 30
0.0
 40
0.8
100
AcDbArc
 50
99.99999999984147
 51
180.0
  0
LINE
  5
1891E
330
180D1
100
AcDbEntity
  8
TATEDOISIJIKANAGU
100
AcDbLine
 10
12062.46198374718
 20
4052.509903837466
 30
0.0
 11
12066.59443298926
 21
4053.23856613525
 31
0.0
  0
LINE
  5
1891F
330
180D1
100
AcDbEntity
  8
TATEDOISIJIKANAGU
100
AcDbLine
 10
12059.80090228932
 20
4040.04068337858
 30
0.0
 11
12066.59443298926
 21
4041.238566135251
 31
0.0
  0
ARC
  5
18920
330
180D1
100
AcDbEntity
  8
TATEDOISIJIKANAGU
100
AcDbCircle
 10
12062.60090228931
 20
4045.722057635057
 30
0.0
 40
0.8
100
AcDbArc
 50
99.99999999984147
 51
180.0
  0
ARC
  5
18921
330
180D1
100
AcDbEntity
  8
TATEDOISIJIKANAGU
100
AcDbCircle
 10
12062.60090228931
 20
4049.564617044941
 30
0.0
 40
0.8
100
AcDbArc
 50
180.0
 51
260.0000000001585
  0
ARC
  5
18922
330
180D1
100
AcDbEntity
  8
TATEDOISIJIKANAGU
100
AcDbCircle
 10
12062.60090228931
 20
4043.564617044943
 30
0.0
 40
0.8
100
AcDbArc
 50
180.0
 51
260.0000000001585
  0
ARC
  5
18923
330
180D1
100
AcDbEntity
  8
TATEDOISIJIKANAGU
100
AcDbCircle
 10
12066.30090228932
 20
4041.643337339999
 30
0.0
 40
0.5000000000000285
100
AcDbArc
 50
305.9487523471963
 51
54.05124765280366
  0
LINE
  5
18924
330
180D1
100
AcDbEntity
  8
TATEDOISIJIKANAGU
100
AcDbLine
 10
12062.46198374718
 20
4042.776770842531
 30
0.0
 11
12066.59443298926
 21
4042.048108544744
 31
0.0
  0
ARC
  5
18925
330
180D1
100
AcDbEntity
  8
TATEDOISIJIKANAGU
100
AcDbCircle
 10
12066.30090228932
 20
4047.643337339998
 30
0.0
 40
0.5000000000000285
100
AcDbArc
 50
305.9487523471963
 51
54.05124765280366
  0
LINE
  5
18926
330
180D1
100
AcDbEntity
  8
TATEDOISIJIKANAGU
100
AcDbLine
 10
12062.46198374718
 20
4048.776770842529
 30
0.0
 11
12066.59443298926
 21
4048.048108544744
 31
0.0
  0
LINE
  5
18927
330
180D1
100
AcDbEntity
  8
TATEDOISIJIKANAGU
100
AcDbLine
 10
12062.46198374718
 20
4046.509903837466
 30
0.0
 11
12066.59443298926
 21
4047.238566135251
 31
0.0
  0
LINE
  5
18928
330
180D1
100
AcDbEntity
  8
TATEDOISIJIKANAGU
100
AcDbLine
 10
12061.80090228932
 20
4043.564617044943
 30
0.0
 11
12061.80090228932
 21
4045.722057635057
 31
0.0
  0
ARC
  5
18929
330
180D1
100
AcDbEntity
  8
TATEDOISIJIKANAGU
100
AcDbCircle
 10
12096.5509022893
 20
4105.946744996759
 30
0.0
 40
19.50000000000022
100
AcDbArc
 50
322.5048867985568
 51
142.5048867985567
  0
LINE
  5
1892A
330
180D1
100
AcDbEntity
  8
TATEDOISIJIKANAGU
100
AcDbLine
 10
12127.82715509095
 20
4114.678136375535
 30
0.0
 11
12100.80090228931
 21
4079.450617257069
 31
0.0
  0
ARC
  5
1892B
330
180D1
100
AcDbEntity
  8
TATEDOISIJIKANAGU
100
AcDbCircle
 10
12088.01323931214
 20
4094.818280834055
 30
0.0
 40
19.50000000000022
100
AcDbArc
 50
322.5048867985568
 51
142.5048867985567
  0
LINE
  5
1892C
330
180D1
100
AcDbEntity
  8
TATEDOISIJIKANAGU
100
AcDbLine
 10
12096.8843499857
 20
4138.417193058951
 30
0.0
 11
12072.54183675952
 21
4106.687809175773
 31
0.0
  0
ARC
  5
1892D
330
180D1
100
AcDbEntity
  8
TATEDOISIJIKANAGU
100
AcDbCircle
 10
12105.08856526646
 20
4117.075209159465
 30
0.0
 40
19.50000000000022
100
AcDbArc
 50
322.5048867985568
 51
142.5048867985567
  0
ARC
  5
1892E
330
180D1
100
AcDbEntity
  8
TATEDOISIJIKANAGU
100
AcDbCircle
 10
12112.35575253832
 20
4126.547664717241
 30
0.0
 40
19.50000000000022
100
AcDbArc
 50
322.5048867985568
 51
142.5048867985567
  0
LINE
  5
1892F
330
180D1
100
AcDbEntity
  8
TATEDOISIJIKANAGU
100
AcDbLine
 10
12136.84083938084
 20
4153.933681208633
 30
0.0
 11
12136.84083938084
 21
4150.433681208634
 31
0.0
  0
LINE
  5
18930
330
180D1
100
AcDbEntity
  8
TATEDOISIJIKANAGU
100
AcDbLine
 10
12139.05809360815
 20
4160.945911588542
 30
0.0
 11
12133.64134067557
 21
4157.655304476812
 31
0.0
  0
ARC
  5
18931
330
180D1
100
AcDbEntity
  8
TATEDOISIJIKANAGU
100
AcDbCircle
 10
12134.37207750704
 20
4156.927653438791
 30
0.0
 40
1.031238260528155
100
AcDbArc
 50
135.1212315872968
 51
226.0450372727151
  0
LINE
  5
18932
330
180D1
100
AcDbEntity
  8
TATEDOISIJIKANAGU
100
AcDbLine
 10
12136.84083938084
 20
4153.933681208633
 30
0.0
 11
12133.65630253802
 21
4156.185279851093
 31
0.0
  0
ARC
  5
18933
330
180D1
100
AcDbEntity
  8
TATEDOISIJIKANAGU
100
AcDbCircle
 10
12132.34083938085
 20
4149.183681208635
 30
0.0
 40
0.5000000000000285
100
AcDbArc
 50
125.9487523471963
 51
234.0512476528036
  0
LINE
  5
18934
330
180D1
100
AcDbEntity
  8
TATEDOISIJIKANAGU
100
AcDbLine
 10
12136.84083938084
 20
4144.433681208634
 30
0.0
 11
12136.84083938084
 21
4147.933681208635
 31
0.0
  0
LINE
  5
18935
330
180D1
100
AcDbEntity
  8
TATEDOISIJIKANAGU
100
AcDbLine
 10
12136.84083938084
 20
4150.433681208634
 30
0.0
 11
12132.0473086809
 21
4149.58845241338
 31
0.0
  0
LINE
  5
18936
330
180D1
100
AcDbEntity
  8
TATEDOISIJIKANAGU
100
AcDbLine
 10
12136.84083938084
 20
4147.933681208635
 30
0.0
 11
12132.0473086809
 21
4148.778910003888
 31
0.0
  0
LINE
  5
18937
330
180D1
100
AcDbEntity
  8
TATEDOISIJIKANAGU
100
AcDbLine
 10
12097.84083938084
 20
4153.933681208633
 30
0.0
 11
12097.84083938084
 21
4150.433681208634
 31
0.0
  0
LINE
  5
18938
330
180D1
100
AcDbEntity
  8
TATEDOISIJIKANAGU
100
AcDbLine
 10
12097.84083938084
 20
4153.933681208633
 30
0.0
 11
12101.02537622367
 21
4156.185279851093
 31
0.0
  0
ARC
  5
18939
330
180D1
100
AcDbEntity
  8
TATEDOISIJIKANAGU
100
AcDbCircle
 10
12100.30960125465
 20
4156.927653438791
 30
0.0
 40
1.031238260528155
100
AcDbArc
 50
313.9549627272848
 51
44.87876841270302
  0
LINE
  5
1893A
330
180D1
100
AcDbEntity
  8
TATEDOISIJIKANAGU
100
AcDbLine
 10
12096.05809360815
 20
4160.945911588542
 30
0.0
 11
12101.0403380861
 21
4157.655304476812
 31
0.0
  0
ARC
  5
1893B
330
180D1
100
AcDbEntity
  8
TATEDOISIJIKANAGU
100
AcDbCircle
 10
12102.34083938084
 20
4149.183681208635
 30
0.0
 40
0.5000000000000285
100
AcDbArc
 50
305.9487523471963
 51
54.05124765280366
  0
LINE
  5
1893C
330
180D1
100
AcDbEntity
  8
TATEDOISIJIKANAGU
100
AcDbLine
 10
12097.84083938084
 20
4150.433681208634
 30
0.0
 11
12102.63437008079
 21
4149.58845241338
 31
0.0
  0
LINE
  5
1893D
330
180D1
100
AcDbEntity
  8
TATEDOISIJIKANAGU
100
AcDbLine
 10
12097.84083938084
 20
4147.933681208635
 30
0.0
 11
12102.63437008079
 21
4148.778910003888
 31
0.0
  0
LINE
  5
1893E
330
180D1
100
AcDbEntity
  8
TATEDOISIJIKANAGU
100
AcDbLine
 10
12097.84083938084
 20
4144.433681208634
 30
0.0
 11
12097.84083938084
 21
4147.933681208635
 31
0.0
  0
LINE
  5
1893F
330
180D1
100
AcDbEntity
  8
TATEDOISIJIKANAGU
100
AcDbLine
 10
12072.5418367595
 20
4106.687809175764
 30
0.0
 11
12064.75880570658
 21
4094.218502745326
 31
0.0
  0
ARC
  5
18940
330
180D1
100
AcDbEntity
  8
TATEDOISIJIKANAGU
100
AcDbCircle
 10
12132.34083938085
 20
4143.183681208635
 30
0.0
 40
0.5000000000000285
100
AcDbArc
 50
125.948752347188
 51
234.051247652812
  0
LINE
  5
18941
330
180D1
100
AcDbEntity
  8
TATEDOISIJIKANAGU
100
AcDbLine
 10
12136.84083938084
 20
4141.933681208635
 30
0.0
 11
12132.0473086809
 21
4142.778910003889
 31
0.0
  0
LINE
  5
18942
330
180D1
100
AcDbEntity
  8
TATEDOISIJIKANAGU
100
AcDbLine
 10
12136.84083938084
 20
4144.433681208634
 30
0.0
 11
12132.0473086809
 21
4143.588452413381
 31
0.0
  0
LINE
  5
18943
330
180D1
100
AcDbEntity
  8
TATEDOISIJIKANAGU
100
AcDbLine
 10
12097.84083938084
 20
4144.433681208634
 30
0.0
 11
12102.63437008079
 21
4143.588452413381
 31
0.0
  0
LINE
  5
18944
330
180D1
100
AcDbEntity
  8
TATEDOISIJIKANAGU
100
AcDbLine
 10
12136.84083938084
 20
4138.433681208635
 30
0.0
 11
12136.84083938084
 21
4141.933681208635
 31
0.0
  0
ARC
  5
18945
330
180D1
100
AcDbEntity
  8
TATEDOISIJIKANAGU
100
AcDbCircle
 10
12132.34083938085
 20
4137.183681208635
 30
0.0
 40
0.5000000000000285
100
AcDbArc
 50
125.948752347188
 51
234.051247652812
  0
LINE
  5
18946
330
180D1
100
AcDbEntity
  8
TATEDOISIJIKANAGU
100
AcDbLine
 10
12136.84083938084
 20
4135.933681208634
 30
0.0
 11
12132.0473086809
 21
4136.778910003889
 31
0.0
  0
LINE
  5
18947
330
180D1
100
AcDbEntity
  8
TATEDOISIJIKANAGU
100
AcDbLine
 10
12136.84083938084
 20
4138.433681208635
 30
0.0
 11
12132.0473086809
 21
4137.588452413381
 31
0.0
  0
LINE
  5
18948
330
180D1
100
AcDbEntity
  8
TATEDOISIJIKANAGU
100
AcDbLine
 10
12136.84083938084
 20
4132.433681208635
 30
0.0
 11
12136.84083938084
 21
4135.933681208634
 31
0.0
  0
ENDSEC
  0
SECTION
  2
OBJECTS
  0
DICTIONARY
  5
180BF
330
0
100
AcDbDictionary
281
     1
  3
ACAD_GROUP
350
180C0
  3
ACAD_LAYOUT
350
180CC
  3
ACAD_MLINESTYLE
350
180C9
  3
ACAD_PLOTSETTINGS
350
180CB
  3
ACAD_PLOTSTYLENAME
350
180C1
  3
AcDbVariableDictionary
350
18949
  0
DICTIONARY
  5
180C0
102
{ACAD_REACTORS
330
180BF
102
}
330
180BF
100
AcDbDictionary
281
     1
  0
DICTIONARY
  5
180CC
102
{ACAD_REACTORS
330
180BF
102
}
330
180BF
100
AcDbDictionary
281
     1
  3
Model
350
180D4
  3
ﾚｲｱｳﾄ1
350
180D0
  0
DICTIONARY
  5
180C9
102
{ACAD_REACTORS
330
180BF
102
}
330
180BF
100
AcDbDictionary
281
     1
  3
Standard
350
180CA
  0
DICTIONARY
  5
180CB
102
{ACAD_REACTORS
330
180BF
102
}
330
180BF
100
AcDbDictionary
281
     1
  0
ACDBDICTIONARYWDFLT
  5
180C1
102
{ACAD_REACTORS
330
180BF
102
}
330
180BF
100
AcDbDictionary
281
     1
  3
Normal
350
180C2
100
AcDbDictionaryWithDefault
340
180C2
  0
DICTIONARY
  5
18949
102
{ACAD_REACTORS
330
180BF
102
}
330
180BF
100
AcDbDictionary
281
     1
  3
DIMASSOC
350
1894A
  0
LAYOUT
  5
180D4
102
{ACAD_REACTORS
330
180CC
102
}
330
180CC
100
AcDbPlotSettings
  1

  2
Muratec V-1200 Is@Web Printer
  4

  6

 40
0.0
 41
0.0
 42
0.0
 43
0.0
 44
0.0
 45
0.0
 46
0.0
 47
0.0
 48
0.0
 49
0.0
140
0.0
141
0.0
142
1.0
143
1.0
 70
  1712
 72
     0
 73
     0
 74
     0
  7

 75
     0
147
1.0
148
0.0
149
0.0
100
AcDbLayout
  1
Model
 70
     1
 71
     0
 10
0.0
 20
0.0
 11
12.0
 21
9.0
 12
0.0
 22
0.0
 32
0.0
 14
0.0
 24
0.0
 34
0.0
 15
0.0
 25
0.0
 35
0.0
146
0.0
 13
0.0
 23
0.0
 33
0.0
 16
1.0
 26
0.0
 36
0.0
 17
0.0
 27
1.0
 37
0.0
 76
     0
330
180D1
  0
LAYOUT
  5
180D0
102
{ACAD_REACTORS
330
180CC
102
}
330
180CC
100
AcDbPlotSettings
  1

  2
Muratec V-1200 Is@Web Printer
  4

  6

 40
0.0
 41
0.0
 42
0.0
 43
0.0
 44
0.0
 45
0.0
 46
0.0
 47
0.0
 48
0.0
 49
0.0
140
0.0
141
0.0
142
1.0
143
1.0
 70
   688
 72
     0
 73
     0
 74
     5
  7

 75
    16
147
1.0
148
0.0
149
0.0
100
AcDbLayout
  1
ﾚｲｱｳﾄ1
 70
     0
 71
     1
 10
0.0
 20
0.0
 11
12.0
 21
9.0
 12
0.0
 22
0.0
 32
0.0
 14
1.000000000000000E+20
 24
1.000000000000000E+20
 34
1.000000000000000E+20
 15
-1.000000000000000E+20
 25
-1.000000000000000E+20
 35
-1.000000000000000E+20
146
0.0
 13
0.0
 23
0.0
 33
0.0
 16
1.0
 26
0.0
 36
0.0
 17
0.0
 27
1.0
 37
0.0
 76
     0
330
180CD
  0
MLINESTYLE
  5
180CA
102
{ACAD_REACTORS
330
180C9
102
}
330
180C9
100
AcDbMlineStyle
  2
STANDARD
 70
     0
  3

 62
   256
 51
90.0
 52
90.0
 71
     2
 49
0.5
 62
   256
  6
BYLAYER
 49
-0.5
 62
   256
  6
BYLAYER
  0
ACDBPLACEHOLDER
  5
180C2
102
{ACAD_REACTORS
330
180C1
102
}
330
180C1
  0
DICTIONARYVAR
  5
1894A
102
{ACAD_REACTORS
330
18949
102
}
330
18949
100
DictionaryVariables
280
     0
  1
1
  0
ENDSEC
  0
EOF
