  0
SECTION
  2
HEADER
  9
$ACADVER
  1
AC1015
  9
$ACADMAINTVER
 70
    13
  9
$DWGCODEPAGE
  3
ANSI_932
  9
$INSBASE
 10
267.0
 20
194.8999999999998
 30
0.0
  9
$EXTMIN
 10
433.9966216520333
 20
163.6908237492789
 30
-0.000000000000013
  9
$EXTMAX
 10
16382.6660542547
 20
11242.27663824599
 30
0.0000000000000023
  9
$LIMMIN
 10
0.0
 20
0.0
  9
$LIMMAX
 10
16800.0
 20
11880.0
  9
$ORTHOMODE
 70
     0
  9
$REGENMODE
 70
     1
  9
$FILLMODE
 70
     1
  9
$QTEXTMODE
 70
     0
  9
$MIRRTEXT
 70
     0
  9
$LTSCALE
 40
40.0
  9
$ATTMODE
 70
     1
  9
$TEXTSIZE
 40
0.2
  9
$TRACEWID
 40
0.05
  9
$TEXTSTYLE
  7
00
  9
$CLAYER
  8
SUNPOU
  9
$CELTYPE
  6
ByLayer
  9
$CECOLOR
 62
   256
  9
$CELTSCALE
 40
1.0
  9
$DISPSILH
 70
     0
  9
$DIMSCALE
 40
40.0
  9
$DIMASZ
 40
0.5
  9
$DIMEXO
 40
1.0
  9
$DIMDLI
 40
7.0
  9
$DIMRND
 40
0.0
  9
$DIMDLE
 40
3.0
  9
$DIMEXE
 40
1.125
  9
$DIMTP
 40
0.0
  9
$DIMTM
 40
0.0
  9
$DIMTXT
 40
2.25
  9
$DIMCEN
 40
0.0
  9
$DIMTSZ
 40
0.0
  9
$DIMTOL
 70
     0
  9
$DIMLIM
 70
     0
  9
$DIMTIH
 70
     0
  9
$DIMTOH
 70
     0
  9
$DIMSE1
 70
     0
  9
$DIMSE2
 70
     0
  9
$DIMTAD
 70
     1
  9
$DIMZIN
 70
     8
  9
$DIMBLK
  1
DOT
  9
$DIMASO
 70
     1
  9
$DIMSHO
 70
     0
  9
$DIMPOST
  1

  9
$DIMAPOST
  1

  9
$DIMALT
 70
     0
  9
$DIMALTD
 70
     2
  9
$DIMALTF
 40
25.4
  9
$DIMLFAC
 40
1.0
  9
$DIMTOFL
 70
     1
  9
$DIMTVP
 40
0.0
  9
$DIMTIX
 70
     0
  9
$DIMSOXD
 70
     0
  9
$DIMSAH
 70
     1
  9
$DIMBLK1
  1
DOT
  9
$DIMBLK2
  1
DOT
  9
$DIMSTYLE
  2
SUNPOU_図面名
  9
$DIMCLRD
 70
   256
  9
$DIMCLRE
 70
   256
  9
$DIMCLRT
 70
   256
  9
$DIMTFAC
 40
1.0
  9
$DIMGAP
 40
1.125
  9
$DIMJUST
 70
     0
  9
$DIMSD1
 70
     0
  9
$DIMSD2
 70
     0
  9
$DIMTOLJ
 70
     1
  9
$DIMTZIN
 70
     0
  9
$DIMALTZ
 70
     0
  9
$DIMALTTZ
 70
     0
  9
$DIMUPT
 70
     0
  9
$DIMDEC
 70
     4
  9
$DIMTDEC
 70
     4
  9
$DIMALTU
 70
     2
  9
$DIMALTTD
 70
     2
  9
$DIMTXSTY
  7
STANDARD
  9
$DIMAUNIT
 70
     0
  9
$DIMADEC
 70
     0
  9
$DIMALTRND
 40
0.0
  9
$DIMAZIN
 70
     0
  9
$DIMDSEP
 70
    46
  9
$DIMATFIT
 70
     3
  9
$DIMFRAC
 70
     0
  9
$DIMLDRBLK
  1
DOT
  9
$DIMLUNIT
 70
     2
  9
$DIMLWD
 70
    -2
  9
$DIMLWE
 70
    -2
  9
$DIMTMOVE
 70
     0
  9
$LUNITS
 70
     2
  9
$LUPREC
 70
     2
  9
$SKETCHINC
 40
0.1
  9
$FILLETRAD
 40
0.0
  9
$AUNITS
 70
     0
  9
$AUPREC
 70
     0
  9
$MENU
  1
A:\TIGER\MENU\TIGER
  9
$ELEVATION
 40
0.0
  9
$PELEVATION
 40
0.0
  9
$THICKNESS
 40
0.0
  9
$LIMCHECK
 70
     0
  9
$CHAMFERA
 40
0.0
  9
$CHAMFERB
 40
0.0
  9
$CHAMFERC
 40
0.0
  9
$CHAMFERD
 40
0.0
  9
$SKPOLY
 70
     0
  9
$TDCREATE
 40
2450266.571064815
  9
$TDUCREATE
 40
2450266.196064815
  9
$TDUPDATE
 40
2456330.813724675
  9
$TDUUPDATE
 40
2456330.438724676
  9
$TDINDWG
 40
0.1289321875
  9
$TDUSRTIMER
 40
0.1289321875
  9
$USRTIMER
 70
     1
  9
$ANGBASE
 50
0.0
  9
$ANGDIR
 70
     0
  9
$PDMODE
 70
     0
  9
$PDSIZE
 40
0.0
  9
$PLINEWID
 40
0.0
  9
$SPLFRAME
 70
     0
  9
$SPLINETYPE
 70
     6
  9
$SPLINESEGS
 70
     8
  9
$HANDSEED
  5
16C4C
  9
$SURFTAB1
 70
     6
  9
$SURFTAB2
 70
     6
  9
$SURFTYPE
 70
     6
  9
$SURFU
 70
     6
  9
$SURFV
 70
     6
  9
$UCSBASE
  2

  9
$UCSNAME
  2

  9
$UCSORG
 10
0.0
 20
0.0
 30
0.0
  9
$UCSXDIR
 10
1.0
 20
0.0
 30
0.0
  9
$UCSYDIR
 10
0.0
 20
1.0
 30
0.0
  9
$UCSORTHOREF
  2

  9
$UCSORTHOVIEW
 70
     0
  9
$UCSORGTOP
 10
0.0
 20
0.0
 30
0.0
  9
$UCSORGBOTTOM
 10
0.0
 20
0.0
 30
0.0
  9
$UCSORGLEFT
 10
0.0
 20
0.0
 30
0.0
  9
$UCSORGRIGHT
 10
0.0
 20
0.0
 30
0.0
  9
$UCSORGFRONT
 10
0.0
 20
0.0
 30
0.0
  9
$UCSORGBACK
 10
0.0
 20
0.0
 30
0.0
  9
$PUCSBASE
  2

  9
$PUCSNAME
  2

  9
$PUCSORG
 10
0.0
 20
0.0
 30
0.0
  9
$PUCSXDIR
 10
1.0
 20
0.0
 30
0.0
  9
$PUCSYDIR
 10
0.0
 20
1.0
 30
0.0
  9
$PUCSORTHOREF
  2

  9
$PUCSORTHOVIEW
 70
     0
  9
$PUCSORGTOP
 10
0.0
 20
0.0
 30
0.0
  9
$PUCSORGBOTTOM
 10
0.0
 20
0.0
 30
0.0
  9
$PUCSORGLEFT
 10
0.0
 20
0.0
 30
0.0
  9
$PUCSORGRIGHT
 10
0.0
 20
0.0
 30
0.0
  9
$PUCSORGFRONT
 10
0.0
 20
0.0
 30
0.0
  9
$PUCSORGBACK
 10
0.0
 20
0.0
 30
0.0
  9
$USERI1
 70
     3
  9
$USERI2
 70
     0
  9
$USERI3
 70
     0
  9
$USERI4
 70
     0
  9
$USERI5
 70
  1103
  9
$USERR1
 40
0.0
  9
$USERR2
 40
1.0
  9
$USERR3
 40
0.0
  9
$USERR4
 40
0.0
  9
$USERR5
 40
0.0
  9
$WORLDVIEW
 70
     1
  9
$SHADEDGE
 70
     3
  9
$SHADEDIF
 70
    70
  9
$TILEMODE
 70
     1
  9
$MAXACTVP
 70
    16
  9
$PINSBASE
 10
0.0
 20
0.0
 30
0.0
  9
$PLIMCHECK
 70
     0
  9
$PEXTMIN
 10
1.000000000000000E+20
 20
1.000000000000000E+20
 30
1.000000000000000E+20
  9
$PEXTMAX
 10
-1.000000000000000E+20
 20
-1.000000000000000E+20
 30
-1.000000000000000E+20
  9
$PLIMMIN
 10
0.0
 20
0.0
  9
$PLIMMAX
 10
12.0
 20
9.0
  9
$UNITMODE
 70
     0
  9
$VISRETAIN
 70
     0
  9
$PLINEGEN
 70
     1
  9
$PSLTSCALE
 70
     0
  9
$TREEDEPTH
 70
  3020
  9
$CMLSTYLE
  2
Standard
  9
$CMLJUST
 70
     0
  9
$CMLSCALE
 40
1.0
  9
$PROXYGRAPHICS
 70
     1
  9
$MEASUREMENT
 70
     0
  9
$CELWEIGHT
370
    -1
  9
$ENDCAPS
280
     0
  9
$JOINSTYLE
280
     0
  9
$LWDISPLAY
290
     0
  9
$INSUNITS
 70
     0
  9
$HYPERLINKBASE
  1

  9
$STYLESHEET
  1

  9
$XEDIT
290
     1
  9
$CEPSNTYPE
380
     0
  9
$PSTYLEMODE
290
     1
  9
$FINGERPRINTGUID
  2
{7BC59C99-98EA-4850-884A-E535A607A75A}
  9
$VERSIONGUID
  2
{59D56C06-5ADA-4B12-A2B2-3E21BFE1C88C}
  9
$EXTNAMES
290
     1
  9
$PSVPSCALE
 40
0.0
  9
$OLESTARTUP
290
     0
  0
ENDSEC
  0
SECTION
  2
CLASSES
  0
CLASS
  1
ACDBDICTIONARYWDFLT
  2
AcDbDictionaryWithDefault
  3
AutoCAD 2000
 90
        0
280
     0
281
     0
  0
CLASS
  1
ACDBPLACEHOLDER
  2
AcDbPlaceHolder
  3
AutoCAD 2000
 90
        0
280
     0
281
     0
  0
CLASS
  1
LAYOUT
  2
AcDbLayout
  3
AutoCAD 2000
 90
        0
280
     0
281
     0
  0
CLASS
  1
DICTIONARYVAR
  2
AcDbDictionaryVar
  3
AutoCAD 2000
 90
        0
280
     0
281
     0
  0
ENDSEC
  0
SECTION
  2
TABLES
  0
TABLE
  2
VPORT
  5
16655
330
0
100
AcDbSymbolTable
 70
     2
  0
VPORT
  5
16C4B
330
16655
100
AcDbSymbolTableRecord
100
AcDbViewportTableRecord
  2
*Active
 70
     0
 10
0.0
 20
0.0
 11
1.0
 21
1.0
 12
8408.331337953367
 22
5702.983730997637
 13
0.0
 23
0.0
 14
1.0
 24
1.0
 15
0.0
 25
0.0
 16
0.0
 26
0.0
 36
1.0
 17
0.0
 27
0.0
 37
0.0
 40
11162.83361536741
 41
1.527918781725888
 42
50.0
 43
0.0
 44
0.0
 50
0.0
 51
0.0
 71
     0
 72
 10000
 73
     1
 74
     0
 75
     0
 76
     0
 77
     0
 78
     0
281
     0
 65
     1
110
0.0
120
0.0
130
0.0
111
1.0
121
0.0
131
0.0
112
0.0
122
1.0
132
0.0
 79
     0
146
0.0
  0
ENDTAB
  0
TABLE
  2
LTYPE
  5
16652
330
0
100
AcDbSymbolTable
 70
    10
  0
LTYPE
  5
16660
330
16652
100
AcDbSymbolTableRecord
100
AcDbLinetypeTableRecord
  2
ByBlock
 70
     0
  3

 72
    65
 73
     0
 40
0.0
  0
LTYPE
  5
16661
330
16652
100
AcDbSymbolTableRecord
100
AcDbLinetypeTableRecord
  2
ByLayer
 70
     0
  3

 72
    65
 73
     0
 40
0.0
  0
LTYPE
  5
16662
330
16652
100
AcDbSymbolTableRecord
100
AcDbLinetypeTableRecord
  2
CONTINUOUS
 70
     0
  3
実線
 72
    65
 73
     0
 40
0.0
  0
LTYPE
  5
16672
330
16652
100
AcDbSymbolTableRecord
100
AcDbLinetypeTableRecord
  2
HIDE-M
 70
     0
  3

 72
    65
 73
     2
 40
2.0
 49
1.0
 74
     0
 49
-1.0
 74
     0
  0
LTYPE
  5
16673
330
16652
100
AcDbSymbolTableRecord
100
AcDbLinetypeTableRecord
  2
HIDE-S
 70
     0
  3

 72
    65
 73
     2
 40
1.0
 49
0.5
 74
     0
 49
-0.5
 74
     0
  0
LTYPE
  5
16674
330
16652
100
AcDbSymbolTableRecord
100
AcDbLinetypeTableRecord
  2
TENSEN-
 70
     0
  3

 72
    65
 73
     2
 40
0.6000000000000001
 49
0.2
 74
     0
 49
-0.4
 74
     0
  0
LTYPE
  5
16675
330
16652
100
AcDbSymbolTableRecord
100
AcDbLinetypeTableRecord
  2
1PL-M
 70
     0
  3

 72
    65
 73
     4
 40
15.0
 49
12.0
 74
     0
 49
-1.0
 74
     0
 49
1.0
 74
     0
 49
-1.0
 74
     0
  0
LTYPE
  5
16676
330
16652
100
AcDbSymbolTableRecord
100
AcDbLinetypeTableRecord
  2
2PL-M
 70
     0
  3

 72
    65
 73
     6
 40
17.0
 49
12.0
 74
     0
 49
-1.0
 74
     0
 49
1.0
 74
     0
 49
-1.0
 74
     0
 49
1.0
 74
     0
 49
-1.0
 74
     0
  0
LTYPE
  5
16677
330
16652
100
AcDbSymbolTableRecord
100
AcDbLinetypeTableRecord
  2
1PL-12
 70
     0
  3

 72
    65
 73
     4
 40
15.0
 49
12.0
 74
     0
 49
-1.0
 74
     0
 49
1.0
 74
     0
 49
-1.0
 74
     0
  0
LTYPE
  5
16678
330
16652
100
AcDbSymbolTableRecord
100
AcDbLinetypeTableRecord
  2
KAKURE-1
 70
     0
  3

 72
    65
 73
     2
 40
2.0
 49
1.0
 74
     0
 49
-1.0
 74
     0
  0
LTYPE
  5
16679
330
16652
100
AcDbSymbolTableRecord
100
AcDbLinetypeTableRecord
  2
2PL-12
 70
     0
  3

 72
    65
 73
     6
 40
17.0
 49
12.0
 74
     0
 49
-1.0
 74
     0
 49
1.0
 74
     0
 49
-1.0
 74
     0
 49
1.0
 74
     0
 49
-1.0
 74
     0
  0
LTYPE
  5
1667A
330
16652
100
AcDbSymbolTableRecord
100
AcDbLinetypeTableRecord
  2
2PL-5
 70
     0
  3

 72
    65
 73
     6
 40
7.5
 49
5.0
 74
     0
 49
-0.5
 74
     0
 49
0.5
 74
     0
 49
-0.5
 74
     0
 49
0.5
 74
     0
 49
-0.5
 74
     0
  0
ENDTAB
  0
TABLE
  2
LAYER
  5
1664F
330
0
100
AcDbSymbolTable
 70
    26
  0
LAYER
  5
1665D
330
1664F
100
AcDbSymbolTableRecord
100
AcDbLayerTableRecord
  2
0
 70
     0
 62
     7
  6
CONTINUOUS
370
    -3
390
1665C
  0
LAYER
  5
1666F
330
1664F
100
AcDbSymbolTableRecord
100
AcDbLayerTableRecord
  2
SUNPOU
 70
     0
 62
     4
  6
CONTINUOUS
370
    -3
390
1665C
  0
LAYER
  5
1667B
330
1664F
100
AcDbSymbolTableRecord
100
AcDbLayerTableRecord
  2
U1
 70
     0
 62
     3
  6
CONTINUOUS
370
    -3
390
1665C
  0
LAYER
  5
1667C
330
1664F
100
AcDbSymbolTableRecord
100
AcDbLayerTableRecord
  2
U7
 70
     0
 62
     2
  6
CONTINUOUS
370
    -3
390
1665C
  0
LAYER
  5
1667D
330
1664F
100
AcDbSymbolTableRecord
100
AcDbLayerTableRecord
  2
HIKIDASHI
 70
     0
 62
     6
  6
CONTINUOUS
370
    -3
390
1665C
  0
LAYER
  5
1667E
330
1664F
100
AcDbSymbolTableRecord
100
AcDbLayerTableRecord
  2
TENSEN-1
 70
     0
 62
     6
  6
TENSEN-
370
    -3
390
1665C
  0
LAYER
  5
1667F
330
1664F
100
AcDbSymbolTableRecord
100
AcDbLayerTableRecord
  2
HIDE-S1
 70
     0
 62
     6
  6
HIDE-S
370
    -3
390
1665C
  0
LAYER
  5
16680
330
1664F
100
AcDbSymbolTableRecord
100
AcDbLayerTableRecord
  2
HIDE-M1
 70
     0
 62
     6
  6
HIDE-M
370
    -3
390
1665C
  0
LAYER
  5
16681
330
1664F
100
AcDbSymbolTableRecord
100
AcDbLayerTableRecord
  2
1PL-M1
 70
     0
 62
     6
  6
1PL-M
370
    -3
390
1665C
  0
LAYER
  5
16682
330
1664F
100
AcDbSymbolTableRecord
100
AcDbLayerTableRecord
  2
NAME
 70
     0
 62
    20
  6
CONTINUOUS
370
    -3
390
1665C
  0
LAYER
  5
16683
330
1664F
100
AcDbSymbolTableRecord
100
AcDbLayerTableRecord
  2
FILENAME
 70
     0
 62
     7
  6
CONTINUOUS
370
    -3
390
1665C
  0
LAYER
  5
16684
330
1664F
100
AcDbSymbolTableRecord
100
AcDbLayerTableRecord
  2
KISO
 70
     0
 62
     2
  6
CONTINUOUS
370
    -3
390
1665C
  0
LAYER
  5
16685
330
1664F
100
AcDbSymbolTableRecord
100
AcDbLayerTableRecord
  2
YANE
 70
     0
 62
     1
  6
1PL-12
370
    -3
390
1665C
  0
LAYER
  5
16686
330
1664F
100
AcDbSymbolTableRecord
100
AcDbLayerTableRecord
  2
HATCH
 70
     0
 62
     1
  6
CONTINUOUS
370
    -3
390
1665C
  0
LAYER
  5
16687
330
1664F
100
AcDbSymbolTableRecord
100
AcDbLayerTableRecord
  2
DOMAKON
 70
     0
 62
     2
  6
CONTINUOUS
370
    -3
390
1665C
  0
LAYER
  5
16688
330
1664F
100
AcDbSymbolTableRecord
100
AcDbLayerTableRecord
  2
KISO-1
 70
     0
 62
     6
  6
2PL-12
370
    -3
390
1665C
  0
LAYER
  5
16689
330
1664F
100
AcDbSymbolTableRecord
100
AcDbLayerTableRecord
  2
KISO-2
 70
     0
 62
     1
  6
KAKURE-1
370
    -3
390
1665C
  0
LAYER
  5
1668A
330
1664F
100
AcDbSymbolTableRecord
100
AcDbLayerTableRecord
  2
SIN
 70
     0
 62
     6
  6
1PL-12
370
    -3
390
1665C
  0
LAYER
  5
1668B
330
1664F
100
AcDbSymbolTableRecord
100
AcDbLayerTableRecord
  2
AQU_HOKYOU
 70
     0
 62
     2
  6
CONTINUOUS
370
    -3
390
1665C
  0
LAYER
  5
1668C
330
1664F
100
AcDbSymbolTableRecord
100
AcDbLayerTableRecord
  2
BOLT
 70
     0
 62
     1
  6
CONTINUOUS
370
    -3
390
1665C
  0
LAYER
  5
1668D
330
1664F
100
AcDbSymbolTableRecord
100
AcDbLayerTableRecord
  2
KISO-3
 70
     0
 62
     1
  6
2PL-5
370
    -3
390
1665C
  0
LAYER
  5
1668E
330
1664F
100
AcDbSymbolTableRecord
100
AcDbLayerTableRecord
  2
HASIRA
 70
     0
 62
     3
  6
CONTINUOUS
370
    -3
390
1665C
  0
LAYER
  5
1668F
330
1664F
100
AcDbSymbolTableRecord
100
AcDbLayerTableRecord
  2
YODOROGO
 70
     0
 62
   130
  6
CONTINUOUS
370
    -3
390
1665C
  0
LAYER
  5
16690
330
1664F
100
AcDbSymbolTableRecord
100
AcDbLayerTableRecord
  2
WAKUSEN-01
 70
     0
 62
    50
  6
CONTINUOUS
370
    -3
390
1665C
  0
LAYER
  5
16691
330
1664F
100
AcDbSymbolTableRecord
100
AcDbLayerTableRecord
  2
WAKUSEN-02
 70
     0
 62
   130
  6
CONTINUOUS
370
    -3
390
1665C
  0
LAYER
  5
16692
330
1664F
100
AcDbSymbolTableRecord
100
AcDbLayerTableRecord
  2
WAKUMOJI-01
 70
     0
 62
   130
  6
CONTINUOUS
370
    -3
390
1665C
  0
ENDTAB
  0
TABLE
  2
STYLE
  5
16650
330
0
100
AcDbSymbolTable
 70
     5
  0
STYLE
  5
1665E
330
16650
100
AcDbSymbolTableRecord
100
AcDbTextStyleTableRecord
  2
STANDARD
 70
     0
 40
3.0
 41
1.0
 50
0.0
 71
     0
 42
0.2
  3
ROMANS
  4
EXTFONT
  0
STYLE
  5
16670
330
16650
100
AcDbSymbolTableRecord
100
AcDbTextStyleTableRecord
  2
00
 70
     0
 40
0.0
 41
0.6666666666666666
 50
0.0
 71
     0
 42
0.2
  3
ROMANS
  4
BIGFONT
  0
STYLE
  5
16693
330
16650
100
AcDbSymbolTableRecord
100
AcDbTextStyleTableRecord
  2
01
 70
     0
 40
3.0
 41
1.0
 50
0.0
 71
     0
 42
0.2
  3
ROMANS
  4
BIGFONT
  0
STYLE
  5
16694
330
16650
100
AcDbSymbolTableRecord
100
AcDbTextStyleTableRecord
  2
WAKUMOJI
 70
     0
 40
3.0
 41
1.0
 50
0.0
 71
     0
 42
3.0
  3
SIMPLEX
  4
BIGFONT
  0
STYLE
  5
16695
330
16650
100
AcDbSymbolTableRecord
100
AcDbTextStyleTableRecord
  2
FILENAME
 70
     0
 40
75.0
 41
1.0
 50
0.0
 71
     0
 42
75.0
  3
romans
  4
bigfont
  0
ENDTAB
  0
TABLE
  2
VIEW
  5
16653
330
0
100
AcDbSymbolTable
 70
     0
  0
ENDTAB
  0
TABLE
  2
UCS
  5
16654
330
0
100
AcDbSymbolTable
 70
     0
  0
ENDTAB
  0
TABLE
  2
APPID
  5
16656
330
0
100
AcDbSymbolTable
 70
     5
  0
APPID
  5
1665F
330
16656
100
AcDbSymbolTableRecord
100
AcDbRegAppTableRecord
  2
ACAD
 70
     0
  0
APPID
  5
16696
330
16656
100
AcDbSymbolTableRecord
100
AcDbRegAppTableRecord
  2
AUTOCAD_POSTSCRIPT_FIGURE
 70
     0
  0
APPID
  5
16697
330
16656
100
AcDbSymbolTableRecord
100
AcDbRegAppTableRecord
  2
ACAD_PSEXT
 70
     0
  0
APPID
  5
16698
330
16656
100
AcDbSymbolTableRecord
100
AcDbRegAppTableRecord
  2
ACAD_EXEMPT_FROM_CAD_STANDARDS
 70
     0
  0
APPID
  5
16699
330
16656
100
AcDbSymbolTableRecord
100
AcDbRegAppTableRecord
  2
ACAD_MLEADERVER
 70
     0
  0
ENDTAB
  0
TABLE
  2
DIMSTYLE
  5
16657
330
0
100
AcDbSymbolTable
 70
     1
100
AcDbDimStyleTable
 71
     0
  0
DIMSTYLE
105
1669A
330
16657
100
AcDbSymbolTableRecord
100
AcDbDimStyleTableRecord
  2
SUNPOU_図面名
 70
     0
 40
40.0
 41
0.5
 42
1.0
 43
7.0
 44
1.125
 46
3.0
 73
     0
 74
     0
 77
     1
 78
     8
140
2.25
141
0.0
147
1.125
172
     1
173
     1
176
   256
177
   256
178
   256
271
     2
272
     2
279
     2
284
     8
285
     8
286
     8
340
16670
  0
ENDTAB
  0
TABLE
  2
BLOCK_RECORD
  5
1664E
330
0
100
AcDbSymbolTable
 70
    56
  0
BLOCK_RECORD
  5
1666B
330
1664E
100
AcDbSymbolTableRecord
100
AcDbBlockTableRecord
  2
*Model_Space
340
1666E
  0
BLOCK_RECORD
  5
16667
330
1664E
100
AcDbSymbolTableRecord
100
AcDbBlockTableRecord
  2
*Paper_Space
340
1666A
  0
BLOCK_RECORD
  5
1669F
330
1664E
100
AcDbSymbolTableRecord
100
AcDbBlockTableRecord
  2
$MODEL_SPACE
340
0
  0
BLOCK_RECORD
  5
166A2
330
1664E
100
AcDbSymbolTableRecord
100
AcDbBlockTableRecord
  2
$PAPER_SPACE
340
0
  0
BLOCK_RECORD
  5
166A5
330
1664E
100
AcDbSymbolTableRecord
100
AcDbBlockTableRecord
  2
DOT
340
0
  0
BLOCK_RECORD
  5
166AD
330
1664E
100
AcDbSymbolTableRecord
100
AcDbBlockTableRecord
  2
*U3
340
0
  0
BLOCK_RECORD
  5
166B1
330
1664E
100
AcDbSymbolTableRecord
100
AcDbBlockTableRecord
  2
*U4
340
0
  0
BLOCK_RECORD
  5
166B5
330
1664E
100
AcDbSymbolTableRecord
100
AcDbBlockTableRecord
  2
*U5
340
0
  0
BLOCK_RECORD
  5
166B9
330
1664E
100
AcDbSymbolTableRecord
100
AcDbBlockTableRecord
  2
*U6
340
0
  0
BLOCK_RECORD
  5
166BD
330
1664E
100
AcDbSymbolTableRecord
100
AcDbBlockTableRecord
  2
*U7
340
0
  0
BLOCK_RECORD
  5
166C1
330
1664E
100
AcDbSymbolTableRecord
100
AcDbBlockTableRecord
  2
*U8
340
0
  0
BLOCK_RECORD
  5
166C5
330
1664E
100
AcDbSymbolTableRecord
100
AcDbBlockTableRecord
  2
*U9
340
0
  0
BLOCK_RECORD
  5
166C9
330
1664E
100
AcDbSymbolTableRecord
100
AcDbBlockTableRecord
  2
*U10
340
0
  0
BLOCK_RECORD
  5
166CD
330
1664E
100
AcDbSymbolTableRecord
100
AcDbBlockTableRecord
  2
*U11
340
0
  0
BLOCK_RECORD
  5
166D1
330
1664E
100
AcDbSymbolTableRecord
100
AcDbBlockTableRecord
  2
*U12
340
0
  0
BLOCK_RECORD
  5
166D5
330
1664E
100
AcDbSymbolTableRecord
100
AcDbBlockTableRecord
  2
*U13
340
0
  0
BLOCK_RECORD
  5
166D9
330
1664E
100
AcDbSymbolTableRecord
100
AcDbBlockTableRecord
  2
*U14
340
0
  0
BLOCK_RECORD
  5
166DD
330
1664E
100
AcDbSymbolTableRecord
100
AcDbBlockTableRecord
  2
*U15
340
0
  0
BLOCK_RECORD
  5
166E1
330
1664E
100
AcDbSymbolTableRecord
100
AcDbBlockTableRecord
  2
*U16
340
0
  0
BLOCK_RECORD
  5
166E5
330
1664E
100
AcDbSymbolTableRecord
100
AcDbBlockTableRecord
  2
*U17
340
0
  0
BLOCK_RECORD
  5
166E9
330
1664E
100
AcDbSymbolTableRecord
100
AcDbBlockTableRecord
  2
*U18
340
0
  0
BLOCK_RECORD
  5
166ED
330
1664E
100
AcDbSymbolTableRecord
100
AcDbBlockTableRecord
  2
*U19
340
0
  0
BLOCK_RECORD
  5
166F1
330
1664E
100
AcDbSymbolTableRecord
100
AcDbBlockTableRecord
  2
*U20
340
0
  0
BLOCK_RECORD
  5
166F5
330
1664E
100
AcDbSymbolTableRecord
100
AcDbBlockTableRecord
  2
*U21
340
0
  0
BLOCK_RECORD
  5
166F9
330
1664E
100
AcDbSymbolTableRecord
100
AcDbBlockTableRecord
  2
*U22
340
0
  0
BLOCK_RECORD
  5
166FD
330
1664E
100
AcDbSymbolTableRecord
100
AcDbBlockTableRecord
  2
*U23
340
0
  0
BLOCK_RECORD
  5
16701
330
1664E
100
AcDbSymbolTableRecord
100
AcDbBlockTableRecord
  2
*U24
340
0
  0
BLOCK_RECORD
  5
16705
330
1664E
100
AcDbSymbolTableRecord
100
AcDbBlockTableRecord
  2
*U25
340
0
  0
BLOCK_RECORD
  5
16709
330
1664E
100
AcDbSymbolTableRecord
100
AcDbBlockTableRecord
  2
*U26
340
0
  0
BLOCK_RECORD
  5
1670D
330
1664E
100
AcDbSymbolTableRecord
100
AcDbBlockTableRecord
  2
*U27
340
0
  0
BLOCK_RECORD
  5
16711
330
1664E
100
AcDbSymbolTableRecord
100
AcDbBlockTableRecord
  2
*U28
340
0
  0
BLOCK_RECORD
  5
16715
330
1664E
100
AcDbSymbolTableRecord
100
AcDbBlockTableRecord
  2
*U29
340
0
  0
BLOCK_RECORD
  5
16719
330
1664E
100
AcDbSymbolTableRecord
100
AcDbBlockTableRecord
  2
*U30
340
0
  0
BLOCK_RECORD
  5
1671D
330
1664E
100
AcDbSymbolTableRecord
100
AcDbBlockTableRecord
  2
*U31
340
0
  0
BLOCK_RECORD
  5
16721
330
1664E
100
AcDbSymbolTableRecord
100
AcDbBlockTableRecord
  2
*U32
340
0
  0
BLOCK_RECORD
  5
16725
330
1664E
100
AcDbSymbolTableRecord
100
AcDbBlockTableRecord
  2
*U33
340
0
  0
BLOCK_RECORD
  5
16729
330
1664E
100
AcDbSymbolTableRecord
100
AcDbBlockTableRecord
  2
*U34
340
0
  0
BLOCK_RECORD
  5
1672D
330
1664E
100
AcDbSymbolTableRecord
100
AcDbBlockTableRecord
  2
*U35
340
0
  0
BLOCK_RECORD
  5
16731
330
1664E
100
AcDbSymbolTableRecord
100
AcDbBlockTableRecord
  2
*U36
340
0
  0
BLOCK_RECORD
  5
16735
330
1664E
100
AcDbSymbolTableRecord
100
AcDbBlockTableRecord
  2
*U37
340
0
  0
BLOCK_RECORD
  5
16739
330
1664E
100
AcDbSymbolTableRecord
100
AcDbBlockTableRecord
  2
*U38
340
0
  0
BLOCK_RECORD
  5
1673D
330
1664E
100
AcDbSymbolTableRecord
100
AcDbBlockTableRecord
  2
*U39
340
0
  0
BLOCK_RECORD
  5
16741
330
1664E
100
AcDbSymbolTableRecord
100
AcDbBlockTableRecord
  2
*U40
340
0
  0
BLOCK_RECORD
  5
16745
330
1664E
100
AcDbSymbolTableRecord
100
AcDbBlockTableRecord
  2
*U41
340
0
  0
BLOCK_RECORD
  5
16749
330
1664E
100
AcDbSymbolTableRecord
100
AcDbBlockTableRecord
  2
*U42
340
0
  0
BLOCK_RECORD
  5
1674D
330
1664E
100
AcDbSymbolTableRecord
100
AcDbBlockTableRecord
  2
*U43
340
0
  0
BLOCK_RECORD
  5
16751
330
1664E
100
AcDbSymbolTableRecord
100
AcDbBlockTableRecord
  2
*U44
340
0
  0
BLOCK_RECORD
  5
16755
330
1664E
100
AcDbSymbolTableRecord
100
AcDbBlockTableRecord
  2
*U45
340
0
  0
BLOCK_RECORD
  5
16759
330
1664E
100
AcDbSymbolTableRecord
100
AcDbBlockTableRecord
  2
*U46
340
0
  0
BLOCK_RECORD
  5
1675D
330
1664E
100
AcDbSymbolTableRecord
100
AcDbBlockTableRecord
  2
*U47
340
0
  0
BLOCK_RECORD
  5
16761
330
1664E
100
AcDbSymbolTableRecord
100
AcDbBlockTableRecord
  2
*U48
340
0
  0
BLOCK_RECORD
  5
16765
330
1664E
100
AcDbSymbolTableRecord
100
AcDbBlockTableRecord
  2
*U49
340
0
  0
BLOCK_RECORD
  5
16769
330
1664E
100
AcDbSymbolTableRecord
100
AcDbBlockTableRecord
  2
*U50
340
0
  0
BLOCK_RECORD
  5
1676D
330
1664E
100
AcDbSymbolTableRecord
100
AcDbBlockTableRecord
  2
*U51
340
0
  0
BLOCK_RECORD
  5
16771
330
1664E
100
AcDbSymbolTableRecord
100
AcDbBlockTableRecord
  2
*U52
340
0
  0
BLOCK_RECORD
  5
16775
330
1664E
100
AcDbSymbolTableRecord
100
AcDbBlockTableRecord
  2
*U53
340
0
  0
BLOCK_RECORD
  5
16779
330
1664E
100
AcDbSymbolTableRecord
100
AcDbBlockTableRecord
  2
*U54
340
0
  0
ENDTAB
  0
ENDSEC
  0
SECTION
  2
BLOCKS
  0
BLOCK
  5
1666C
330
1666B
100
AcDbEntity
  8
0
100
AcDbBlockBegin
  2
*Model_Space
 70
     0
 10
0.0
 20
0.0
 30
0.0
  3
*Model_Space
  1

  0
ENDBLK
  5
1666D
330
1666B
100
AcDbEntity
  8
0
100
AcDbBlockEnd
  0
BLOCK
  5
16668
330
16667
100
AcDbEntity
 67
     1
  8
0
100
AcDbBlockBegin
  2
*Paper_Space
 70
     0
 10
0.0
 20
0.0
 30
0.0
  3
*Paper_Space
  1

  0
ENDBLK
  5
16669
330
16667
100
AcDbEntity
 67
     1
  8
0
100
AcDbBlockEnd
  0
BLOCK
  5
166A0
330
1669F
100
AcDbEntity
  8
0
100
AcDbBlockBegin
  2
$MODEL_SPACE
 70
     0
 10
0.0
 20
0.0
 30
0.0
  3
$MODEL_SPACE
  1

  0
ENDBLK
  5
166A1
330
1669F
100
AcDbEntity
  8
0
100
AcDbBlockEnd
  0
BLOCK
  5
166A3
330
166A2
100
AcDbEntity
  8
0
100
AcDbBlockBegin
  2
$PAPER_SPACE
 70
     0
 10
0.0
 20
0.0
 30
0.0
  3
$PAPER_SPACE
  1

  0
ENDBLK
  5
166A4
330
166A2
100
AcDbEntity
  8
0
100
AcDbBlockEnd
  0
BLOCK
  5
166A6
330
166A5
100
AcDbEntity
  8
0
100
AcDbBlockBegin
  2
DOT
 70
     0
 10
0.0
 20
0.0
 30
0.0
  3
DOT
  1

  0
LWPOLYLINE
  5
166A7
330
166A5
100
AcDbEntity
  8
0
  6
ByBlock
 62
     0
100
AcDbPolyline
 90
        2
 70
     1
 43
0.75
 10
-0.375
 20
0.0
 42
1.0
 10
0.375
 20
0.0
 42
1.0
  0
LINE
  5
166AB
330
166A5
100
AcDbEntity
  8
0
  6
ByBlock
 62
     0
100
AcDbLine
 10
-0.75
 20
0.0
 30
0.0
 11
-1.5
 21
0.0
 31
0.0
  0
ENDBLK
  5
166AC
330
166A5
100
AcDbEntity
  8
0
100
AcDbBlockEnd
  0
BLOCK
  5
166AE
330
166AD
100
AcDbEntity
  8
0
100
AcDbBlockBegin
  2
*U3
 70
     1
 10
0.0
 20
0.0
 30
0.0
  3
*U3
  1

  0
TEXT
  5
166AF
330
166AD
100
AcDbEntity
  8
SUNPOU
100
AcDbText
 10
4533.413222185362
 20
6438.693182432328
 30
0.0
 40
90.0
  1
400
 41
0.6666666666666666
  7
00
100
AcDbText
  0
ENDBLK
  5
166B0
330
166AD
100
AcDbEntity
  8
0
100
AcDbBlockEnd
  0
BLOCK
  5
166B2
330
166B1
100
AcDbEntity
  8
0
100
AcDbBlockBegin
  2
*U4
 70
     1
 10
0.0
 20
0.0
 30
0.0
  3
*U4
  1

  0
TEXT
  5
166B3
330
166B1
100
AcDbEntity
  8
SUNPOU
100
AcDbText
 10
5904.841793613934
 20
6438.693182432328
 30
0.0
 40
90.0
  1
2400
 41
0.6666666666666666
  7
00
100
AcDbText
  0
ENDBLK
  5
166B4
330
166B1
100
AcDbEntity
  8
0
100
AcDbBlockEnd
  0
BLOCK
  5
166B6
330
166B5
100
AcDbEntity
  8
0
100
AcDbBlockBegin
  2
*U5
 70
     1
 10
0.0
 20
0.0
 30
0.0
  3
*U5
  1

  0
TEXT
  5
166B7
330
166B5
100
AcDbEntity
  8
SUNPOU
100
AcDbText
 10
8029.413222185363
 20
6438.693182432328
 30
0.0
 40
90.0
  1
2400 ×（ N - 2 ）
 41
0.6666666666666666
  7
00
100
AcDbText
  0
ENDBLK
  5
166B8
330
166B5
100
AcDbEntity
  8
0
100
AcDbBlockEnd
  0
BLOCK
  5
166BA
330
166B9
100
AcDbEntity
  8
0
100
AcDbBlockBegin
  2
*U6
 70
     1
 10
0.0
 20
0.0
 30
0.0
  3
*U6
  1

  0
TEXT
  5
166BB
330
166B9
100
AcDbEntity
  8
SUNPOU
100
AcDbText
 10
10704.84179361393
 20
6438.693182432328
 30
0.0
 40
90.0
  1
2400
 41
0.6666666666666666
  7
00
100
AcDbText
  0
ENDBLK
  5
166BC
330
166B9
100
AcDbEntity
  8
0
100
AcDbBlockEnd
  0
BLOCK
  5
166BE
330
166BD
100
AcDbEntity
  8
0
100
AcDbBlockBegin
  2
*U7
 70
     1
 10
0.0
 20
0.0
 30
0.0
  3
*U7
  1

  0
TEXT
  5
166BF
330
166BD
100
AcDbEntity
  8
SUNPOU
100
AcDbText
 10
12133.41322218536
 20
6438.693182432328
 30
0.0
 40
90.0
  1
400
 41
0.6666666666666666
  7
00
100
AcDbText
  0
ENDBLK
  5
166C0
330
166BD
100
AcDbEntity
  8
0
100
AcDbBlockEnd
  0
BLOCK
  5
166C2
330
166C1
100
AcDbEntity
  8
0
100
AcDbBlockBegin
  2
*U8
 70
     1
 10
0.0
 20
0.0
 30
0.0
  3
*U8
  1

  0
TEXT
  5
166C3
330
166C1
100
AcDbEntity
  8
SUNPOU
100
AcDbText
 10
3924.127507899647
 20
7729.407468146617
 30
0.0
 40
90.0
  1
2000
 50
90.0
 41
0.6666666666666666
  7
00
100
AcDbText
  0
ENDBLK
  5
166C4
330
166C1
100
AcDbEntity
  8
0
100
AcDbBlockEnd
  0
BLOCK
  5
166C6
330
166C5
100
AcDbEntity
  8
0
100
AcDbBlockBegin
  2
*U9
 70
     1
 10
0.0
 20
0.0
 30
0.0
  3
*U9
  1

  0
TEXT
  5
166C7
330
166C5
100
AcDbEntity
  8
SUNPOU
100
AcDbText
 10
3924.127507899647
 20
8877.978896718046
 30
0.0
 40
90.0
  1
240
 50
90.0
 41
0.6666666666666666
  7
00
100
AcDbText
  0
ENDBLK
  5
166C8
330
166C5
100
AcDbEntity
  8
0
100
AcDbBlockEnd
  0
BLOCK
  5
166CA
330
166C9
100
AcDbEntity
  8
0
100
AcDbBlockBegin
  2
*U10
 70
     1
 10
0.0
 20
0.0
 30
0.0
  3
*U10
  1

  0
TEXT
  5
166CB
330
166C9
100
AcDbEntity
  8
SUNPOU
100
AcDbText
 10
7955.413222185359
 20
6160.530812336173
 30
0.0
 40
90.0
  1
L = 2400 x N + 800
 41
0.6666666666666666
  7
00
100
AcDbText
  0
ENDBLK
  5
166CC
330
166C9
100
AcDbEntity
  8
0
100
AcDbBlockEnd
  0
BLOCK
  5
166CE
330
166CD
100
AcDbEntity
  8
0
100
AcDbBlockBegin
  2
*U11
 70
     1
 10
0.0
 20
0.0
 30
0.0
  3
*U11
  1

  0
TEXT
  5
166CF
330
166CD
100
AcDbEntity
  8
SUNPOU
100
AcDbText
 10
2763.947515651121
 20
1405.89849823215
 30
0.0
 40
90.0
  1
1000
 41
0.6666666666666666
  7
00
100
AcDbText
  0
ENDBLK
  5
166D0
330
166CD
100
AcDbEntity
  8
0
100
AcDbBlockEnd
  0
BLOCK
  5
166D2
330
166D1
100
AcDbEntity
  8
0
100
AcDbBlockBegin
  2
*U12
 70
     1
 10
0.0
 20
0.0
 30
0.0
  3
*U12
  1

  0
TEXT
  5
166D3
330
166D1
100
AcDbEntity
  8
SUNPOU
100
AcDbText
 10
2556.804658508263
 20
1615.89849823215
 30
0.0
 40
90.0
  1
700
 41
0.6666666666666666
  7
00
100
AcDbText
  0
ENDBLK
  5
166D4
330
166D1
100
AcDbEntity
  8
0
100
AcDbBlockEnd
  0
BLOCK
  5
166D6
330
166D5
100
AcDbEntity
  8
0
100
AcDbBlockBegin
  2
*U13
 70
     1
 10
0.0
 20
0.0
 30
0.0
  3
*U13
  1

  0
TEXT
  5
166D7
330
166D5
100
AcDbEntity
  8
SUNPOU
100
AcDbText
 10
3356.804658508266
 20
1615.89849823215
 30
0.0
 40
90.0
  1
300
 41
0.6666666666666666
  7
00
100
AcDbText
  0
ENDBLK
  5
166D8
330
166D5
100
AcDbEntity
  8
0
100
AcDbBlockEnd
  0
BLOCK
  5
166DA
330
166D9
100
AcDbEntity
  8
0
100
AcDbBlockBegin
  2
*U14
 70
     1
 10
0.0
 20
0.0
 30
0.0
  3
*U14
  1

  0
TEXT
  5
166DB
330
166D9
100
AcDbEntity
  8
SUNPOU
100
AcDbText
 10
4279.096926062876
 20
2408.171127544113
 30
0.0
 40
90.0
  1
480
 50
90.0
 41
0.6666666666666666
  7
00
100
AcDbText
  0
ENDBLK
  5
166DC
330
166D9
100
AcDbEntity
  8
0
100
AcDbBlockEnd
  0
BLOCK
  5
166DE
330
166DD
100
AcDbEntity
  8
0
100
AcDbBlockBegin
  2
*U15
 70
     1
 10
0.0
 20
0.0
 30
0.0
  3
*U15
  1

  0
TEXT
  5
166DF
330
166DD
100
AcDbEntity
  8
SUNPOU
100
AcDbText
 10
4279.096926062877
 20
1642.028270401256
 30
0.0
 40
90.0
  1
100
 50
90.0
 41
0.6666666666666666
  7
00
100
AcDbText
  0
ENDBLK
  5
166E0
330
166DD
100
AcDbEntity
  8
0
100
AcDbBlockEnd
  0
BLOCK
  5
166E2
330
166E1
100
AcDbEntity
  8
0
100
AcDbBlockBegin
  2
*U16
 70
     1
 10
0.0
 20
0.0
 30
0.0
  3
*U16
  1

  0
TEXT
  5
166E3
330
166E1
100
AcDbEntity
  8
SUNPOU
100
AcDbText
 10
4496.720090518002
 20
2016.742556115541
 30
0.0
 40
90.0
  1
50
 50
90.0
 41
0.6666666666666666
  7
00
100
AcDbText
  0
ENDBLK
  5
166E4
330
166E1
100
AcDbEntity
  8
0
100
AcDbBlockEnd
  0
BLOCK
  5
166E6
330
166E5
100
AcDbEntity
  8
0
100
AcDbBlockBegin
  2
*U17
 70
     1
 10
0.0
 20
0.0
 30
0.0
  3
*U17
  1

  0
TEXT
  5
166E7
330
166E5
100
AcDbEntity
  8
SUNPOU
100
AcDbText
 10
4279.096926062877
 20
3165.742556115545
 30
0.0
 40
90.0
  1
150
 50
90.0
 41
0.6666666666666666
  7
00
100
AcDbText
  0
ENDBLK
  5
166E8
330
166E5
100
AcDbEntity
  8
0
100
AcDbBlockEnd
  0
BLOCK
  5
166EA
330
166E9
100
AcDbEntity
  8
0
100
AcDbBlockBegin
  2
*U18
 70
     1
 10
0.0
 20
0.0
 30
0.0
  3
*U18
  1

  0
TEXT
  5
166EB
330
166E9
100
AcDbEntity
  8
SUNPOU
100
AcDbText
 10
3116.80465850826
 20
3665.351685441335
 30
0.0
 40
90.0
  1
480
 41
0.6666666666666666
  7
00
100
AcDbText
  0
ENDBLK
  5
166EC
330
166E9
100
AcDbEntity
  8
0
100
AcDbBlockEnd
  0
BLOCK
  5
166EE
330
166ED
100
AcDbEntity
  8
0
100
AcDbBlockBegin
  2
*U19
 70
     1
 10
0.0
 20
0.0
 30
0.0
  3
*U19
  1

  0
TEXT
  5
166EF
330
166ED
100
AcDbEntity
  8
SUNPOU
100
AcDbText
 10
7032.410967573771
 20
1405.89849823215
 30
0.0
 40
90.0
  1
1000
 41
0.6666666666666666
  7
00
100
AcDbText
  0
ENDBLK
  5
166F0
330
166ED
100
AcDbEntity
  8
0
100
AcDbBlockEnd
  0
BLOCK
  5
166F2
330
166F1
100
AcDbEntity
  8
0
100
AcDbBlockBegin
  2
*U20
 70
     1
 10
0.0
 20
0.0
 30
0.0
  3
*U20
  1

  0
TEXT
  5
166F3
330
166F1
100
AcDbEntity
  8
SUNPOU
100
AcDbText
 10
7385.268110430914
 20
1615.89849823215
 30
0.0
 40
90.0
  1
480
 41
0.6666666666666666
  7
00
100
AcDbText
  0
ENDBLK
  5
166F4
330
166F1
100
AcDbEntity
  8
0
100
AcDbBlockEnd
  0
BLOCK
  5
166F6
330
166F5
100
AcDbEntity
  8
0
100
AcDbBlockBegin
  2
*U21
 70
     1
 10
0.0
 20
0.0
 30
0.0
  3
*U21
  1

  0
TEXT
  5
166F7
330
166F5
100
AcDbEntity
  8
SUNPOU
100
AcDbText
 10
8566.848304711026
 20
2405.618908356614
 30
0.0
 40
90.0
  1
800
 50
90.0
 41
0.6666666666666666
  7
00
100
AcDbText
  0
ENDBLK
  5
166F8
330
166F5
100
AcDbEntity
  8
0
100
AcDbBlockEnd
  0
BLOCK
  5
166FA
330
166F9
100
AcDbEntity
  8
0
100
AcDbBlockBegin
  2
*U22
 70
     1
 10
0.0
 20
0.0
 30
0.0
  3
*U22
  1

  0
TEXT
  5
166FB
330
166F9
100
AcDbEntity
  8
SUNPOU
100
AcDbText
 10
8356.848304711027
 20
2405.618908356613
 30
0.0
 40
90.0
  1
480
 50
90.0
 41
0.6666666666666666
  7
00
100
AcDbText
  0
ENDBLK
  5
166FC
330
166F9
100
AcDbEntity
  8
0
100
AcDbBlockEnd
  0
BLOCK
  5
166FE
330
166FD
100
AcDbEntity
  8
0
100
AcDbBlockBegin
  2
*U23
 70
     1
 10
0.0
 20
0.0
 30
0.0
  3
*U23
  1

  0
TEXT
  5
166FF
330
166FD
100
AcDbEntity
  8
SUNPOU
100
AcDbText
 10
20481.41322218536
 20
6438.693182432328
 30
0.0
 40
90.0
  1
400
 41
0.6666666666666666
  7
00
100
AcDbText
  0
ENDBLK
  5
16700
330
166FD
100
AcDbEntity
  8
0
100
AcDbBlockEnd
  0
BLOCK
  5
16702
330
16701
100
AcDbEntity
  8
0
100
AcDbBlockBegin
  2
*U24
 70
     1
 10
0.0
 20
0.0
 30
0.0
  3
*U24
  1

  0
TEXT
  5
16703
330
16701
100
AcDbEntity
  8
SUNPOU
100
AcDbText
 10
21852.84179361394
 20
6438.693182432328
 30
0.0
 40
90.0
  1
2400
 41
0.6666666666666666
  7
00
100
AcDbText
  0
ENDBLK
  5
16704
330
16701
100
AcDbEntity
  8
0
100
AcDbBlockEnd
  0
BLOCK
  5
16706
330
16705
100
AcDbEntity
  8
0
100
AcDbBlockBegin
  2
*U25
 70
     1
 10
0.0
 20
0.0
 30
0.0
  3
*U25
  1

  0
TEXT
  5
16707
330
16705
100
AcDbEntity
  8
SUNPOU
100
AcDbText
 10
23977.41322218536
 20
6438.693182432328
 30
0.0
 40
90.0
  1
2400 ×（ N - 2 ）
 41
0.6666666666666666
  7
00
100
AcDbText
  0
ENDBLK
  5
16708
330
16705
100
AcDbEntity
  8
0
100
AcDbBlockEnd
  0
BLOCK
  5
1670A
330
16709
100
AcDbEntity
  8
0
100
AcDbBlockBegin
  2
*U26
 70
     1
 10
0.0
 20
0.0
 30
0.0
  3
*U26
  1

  0
TEXT
  5
1670B
330
16709
100
AcDbEntity
  8
SUNPOU
100
AcDbText
 10
26652.84179361394
 20
6438.693182432328
 30
0.0
 40
90.0
  1
2400
 41
0.6666666666666666
  7
00
100
AcDbText
  0
ENDBLK
  5
1670C
330
16709
100
AcDbEntity
  8
0
100
AcDbBlockEnd
  0
BLOCK
  5
1670E
330
1670D
100
AcDbEntity
  8
0
100
AcDbBlockBegin
  2
*U27
 70
     1
 10
0.0
 20
0.0
 30
0.0
  3
*U27
  1

  0
TEXT
  5
1670F
330
1670D
100
AcDbEntity
  8
SUNPOU
100
AcDbText
 10
28081.41322218536
 20
6438.693182432328
 30
0.0
 40
90.0
  1
400
 41
0.6666666666666666
  7
00
100
AcDbText
  0
ENDBLK
  5
16710
330
1670D
100
AcDbEntity
  8
0
100
AcDbBlockEnd
  0
BLOCK
  5
16712
330
16711
100
AcDbEntity
  8
0
100
AcDbBlockBegin
  2
*U28
 70
     1
 10
0.0
 20
0.0
 30
0.0
  3
*U28
  1

  0
TEXT
  5
16713
330
16711
100
AcDbEntity
  8
SUNPOU
100
AcDbText
 10
19872.12750789964
 20
7729.40746814662
 30
0.0
 40
90.0
  1
2000
 50
90.0
 41
0.6666666666666666
  7
00
100
AcDbText
  0
ENDBLK
  5
16714
330
16711
100
AcDbEntity
  8
0
100
AcDbBlockEnd
  0
BLOCK
  5
16716
330
16715
100
AcDbEntity
  8
0
100
AcDbBlockBegin
  2
*U29
 70
     1
 10
0.0
 20
0.0
 30
0.0
  3
*U29
  1

  0
TEXT
  5
16717
330
16715
100
AcDbEntity
  8
SUNPOU
100
AcDbText
 10
19872.12750789964
 20
8877.978896718046
 30
0.0
 40
90.0
  1
240
 50
90.0
 41
0.6666666666666666
  7
00
100
AcDbText
  0
ENDBLK
  5
16718
330
16715
100
AcDbEntity
  8
0
100
AcDbBlockEnd
  0
BLOCK
  5
1671A
330
16719
100
AcDbEntity
  8
0
100
AcDbBlockBegin
  2
*U30
 70
     1
 10
0.0
 20
0.0
 30
0.0
  3
*U30
  1

  0
TEXT
  5
1671B
330
16719
100
AcDbEntity
  8
SUNPOU
100
AcDbText
 10
23903.41322218536
 20
6160.530812336173
 30
0.0
 40
90.0
  1
L = 2400 x N + 800
 41
0.6666666666666666
  7
00
100
AcDbText
  0
ENDBLK
  5
1671C
330
16719
100
AcDbEntity
  8
0
100
AcDbBlockEnd
  0
BLOCK
  5
1671E
330
1671D
100
AcDbEntity
  8
0
100
AcDbBlockBegin
  2
*U31
 70
     1
 10
0.0
 20
0.0
 30
0.0
  3
*U31
  1

  0
TEXT
  5
1671F
330
1671D
100
AcDbEntity
  8
SUNPOU
100
AcDbText
 10
18711.94751565112
 20
1405.898498232149
 30
0.0
 40
90.0
  1
1000
 41
0.6666666666666666
  7
00
100
AcDbText
  0
ENDBLK
  5
16720
330
1671D
100
AcDbEntity
  8
0
100
AcDbBlockEnd
  0
BLOCK
  5
16722
330
16721
100
AcDbEntity
  8
0
100
AcDbBlockBegin
  2
*U32
 70
     1
 10
0.0
 20
0.0
 30
0.0
  3
*U32
  1

  0
TEXT
  5
16723
330
16721
100
AcDbEntity
  8
SUNPOU
100
AcDbText
 10
18504.80465850827
 20
1615.898498232149
 30
0.0
 40
90.0
  1
700
 41
0.6666666666666666
  7
00
100
AcDbText
  0
ENDBLK
  5
16724
330
16721
100
AcDbEntity
  8
0
100
AcDbBlockEnd
  0
BLOCK
  5
16726
330
16725
100
AcDbEntity
  8
0
100
AcDbBlockBegin
  2
*U33
 70
     1
 10
0.0
 20
0.0
 30
0.0
  3
*U33
  1

  0
TEXT
  5
16727
330
16725
100
AcDbEntity
  8
SUNPOU
100
AcDbText
 10
19304.80465850827
 20
1615.898498232149
 30
0.0
 40
90.0
  1
300
 41
0.6666666666666666
  7
00
100
AcDbText
  0
ENDBLK
  5
16728
330
16725
100
AcDbEntity
  8
0
100
AcDbBlockEnd
  0
BLOCK
  5
1672A
330
16729
100
AcDbEntity
  8
0
100
AcDbBlockBegin
  2
*U34
 70
     1
 10
0.0
 20
0.0
 30
0.0
  3
*U34
  1

  0
TEXT
  5
1672B
330
16729
100
AcDbEntity
  8
SUNPOU
100
AcDbText
 10
20227.09692606288
 20
2408.171127544115
 30
0.0
 40
90.0
  1
480
 50
90.0
 41
0.6666666666666666
  7
00
100
AcDbText
  0
ENDBLK
  5
1672C
330
16729
100
AcDbEntity
  8
0
100
AcDbBlockEnd
  0
BLOCK
  5
1672E
330
1672D
100
AcDbEntity
  8
0
100
AcDbBlockBegin
  2
*U35
 70
     1
 10
0.0
 20
0.0
 30
0.0
  3
*U35
  1

  0
TEXT
  5
1672F
330
1672D
100
AcDbEntity
  8
SUNPOU
100
AcDbText
 10
20227.09692606288
 20
1642.028270401257
 30
0.0
 40
90.0
  1
100
 50
90.0
 41
0.6666666666666666
  7
00
100
AcDbText
  0
ENDBLK
  5
16730
330
1672D
100
AcDbEntity
  8
0
100
AcDbBlockEnd
  0
BLOCK
  5
16732
330
16731
100
AcDbEntity
  8
0
100
AcDbBlockBegin
  2
*U36
 70
     1
 10
0.0
 20
0.0
 30
0.0
  3
*U36
  1

  0
TEXT
  5
16733
330
16731
100
AcDbEntity
  8
SUNPOU
100
AcDbText
 10
20444.720090518
 20
2016.742556115541
 30
0.0
 40
90.0
  1
50
 50
90.0
 41
0.6666666666666666
  7
00
100
AcDbText
  0
ENDBLK
  5
16734
330
16731
100
AcDbEntity
  8
0
100
AcDbBlockEnd
  0
BLOCK
  5
16736
330
16735
100
AcDbEntity
  8
0
100
AcDbBlockBegin
  2
*U37
 70
     1
 10
0.0
 20
0.0
 30
0.0
  3
*U37
  1

  0
TEXT
  5
16737
330
16735
100
AcDbEntity
  8
SUNPOU
100
AcDbText
 10
20227.09692606288
 20
3165.742556115545
 30
0.0
 40
90.0
  1
150
 50
90.0
 41
0.6666666666666666
  7
00
100
AcDbText
  0
ENDBLK
  5
16738
330
16735
100
AcDbEntity
  8
0
100
AcDbBlockEnd
  0
BLOCK
  5
1673A
330
16739
100
AcDbEntity
  8
0
100
AcDbBlockBegin
  2
*U38
 70
     1
 10
0.0
 20
0.0
 30
0.0
  3
*U38
  1

  0
TEXT
  5
1673B
330
16739
100
AcDbEntity
  8
SUNPOU
100
AcDbText
 10
19064.80465850825
 20
3665.351685441335
 30
0.0
 40
90.0
  1
480
 41
0.6666666666666666
  7
00
100
AcDbText
  0
ENDBLK
  5
1673C
330
16739
100
AcDbEntity
  8
0
100
AcDbBlockEnd
  0
BLOCK
  5
1673E
330
1673D
100
AcDbEntity
  8
0
100
AcDbBlockBegin
  2
*U39
 70
     1
 10
0.0
 20
0.0
 30
0.0
  3
*U39
  1

  0
TEXT
  5
1673F
330
1673D
100
AcDbEntity
  8
SUNPOU
100
AcDbText
 10
22980.41096757377
 20
1405.898498232149
 30
0.0
 40
90.0
  1
1000
 41
0.6666666666666666
  7
00
100
AcDbText
  0
ENDBLK
  5
16740
330
1673D
100
AcDbEntity
  8
0
100
AcDbBlockEnd
  0
BLOCK
  5
16742
330
16741
100
AcDbEntity
  8
0
100
AcDbBlockBegin
  2
*U40
 70
     1
 10
0.0
 20
0.0
 30
0.0
  3
*U40
  1

  0
TEXT
  5
16743
330
16741
100
AcDbEntity
  8
SUNPOU
100
AcDbText
 10
23333.26811043092
 20
1615.898498232149
 30
0.0
 40
90.0
  1
480
 41
0.6666666666666666
  7
00
100
AcDbText
  0
ENDBLK
  5
16744
330
16741
100
AcDbEntity
  8
0
100
AcDbBlockEnd
  0
BLOCK
  5
16746
330
16745
100
AcDbEntity
  8
0
100
AcDbBlockBegin
  2
*U41
 70
     1
 10
0.0
 20
0.0
 30
0.0
  3
*U41
  1

  0
TEXT
  5
16747
330
16745
100
AcDbEntity
  8
SUNPOU
100
AcDbText
 10
24514.84830471103
 20
2405.618908356617
 30
0.0
 40
90.0
  1
800
 50
90.0
 41
0.6666666666666666
  7
00
100
AcDbText
  0
ENDBLK
  5
16748
330
16745
100
AcDbEntity
  8
0
100
AcDbBlockEnd
  0
BLOCK
  5
1674A
330
16749
100
AcDbEntity
  8
0
100
AcDbBlockBegin
  2
*U42
 70
     1
 10
0.0
 20
0.0
 30
0.0
  3
*U42
  1

  0
TEXT
  5
1674B
330
16749
100
AcDbEntity
  8
SUNPOU
100
AcDbText
 10
24304.84830471103
 20
2405.618908356616
 30
0.0
 40
90.0
  1
480
 50
90.0
 41
0.6666666666666666
  7
00
100
AcDbText
  0
ENDBLK
  5
1674C
330
16749
100
AcDbEntity
  8
0
100
AcDbBlockEnd
  0
BLOCK
  5
1674E
330
1674D
100
AcDbEntity
  8
0
100
AcDbBlockBegin
  2
*U43
 70
     1
 10
0.0
 20
0.0
 30
0.0
  3
*U43
  1

  0
TEXT
  5
1674F
330
1674D
100
AcDbEntity
  8
SUNPOU
100
AcDbText
 10
10171.96981489397
 20
3293.45219862106
 30
0.0
 40
90.0
  1
800
 50
90.0
 41
0.6666666666666666
  7
00
100
AcDbText
  0
ENDBLK
  5
16750
330
1674D
100
AcDbEntity
  8
0
100
AcDbBlockEnd
  0
BLOCK
  5
16752
330
16751
100
AcDbEntity
  8
0
100
AcDbBlockBegin
  2
*U44
 70
     1
 10
0.0
 20
0.0
 30
0.0
  3
*U44
  1

  0
TEXT
  5
16753
330
16751
100
AcDbEntity
  8
SUNPOU
100
AcDbText
 10
8517.532477756718
 20
2293.731788496597
 30
0.0
 40
90.0
  1
1150
 41
0.6666666666666666
  7
00
100
AcDbText
  0
ENDBLK
  5
16754
330
16751
100
AcDbEntity
  8
0
100
AcDbBlockEnd
  0
BLOCK
  5
16756
330
16755
100
AcDbEntity
  8
0
100
AcDbBlockBegin
  2
*U45
 70
     1
 10
0.0
 20
0.0
 30
0.0
  3
*U45
  1

  0
TEXT
  5
16757
330
16755
100
AcDbEntity
  8
SUNPOU
100
AcDbText
 10
5158.290800872318
 20
2503.731788496597
 30
0.0
 40
90.0
  1
300
 41
0.6666666666666666
  7
00
100
AcDbText
  0
ENDBLK
  5
16758
330
16755
100
AcDbEntity
  8
0
100
AcDbBlockEnd
  0
BLOCK
  5
1675A
330
16759
100
AcDbEntity
  8
0
100
AcDbBlockBegin
  2
*U46
 70
     1
 10
0.0
 20
0.0
 30
0.0
  3
*U46
  1

  0
TEXT
  5
1675B
330
16759
100
AcDbEntity
  8
SUNPOU
100
AcDbText
 10
4238.290800872317
 20
2503.731788496597
 30
0.0
 40
90.0
  1
850
 41
0.6666666666666666
  7
00
100
AcDbText
  0
ENDBLK
  5
1675C
330
16759
100
AcDbEntity
  8
0
100
AcDbBlockEnd
  0
BLOCK
  5
1675E
330
1675D
100
AcDbEntity
  8
0
100
AcDbBlockBegin
  2
*U47
 70
     1
 10
0.0
 20
0.0
 30
0.0
  3
*U47
  1

  0
TEXT
  5
1675F
330
1675D
100
AcDbEntity
  8
SUNPOU
100
AcDbText
 10
4445.433658015176
 20
2293.731788496597
 30
0.0
 40
90.0
  1
1150
 41
0.6666666666666666
  7
00
100
AcDbText
  0
ENDBLK
  5
16760
330
1675D
100
AcDbEntity
  8
0
100
AcDbBlockEnd
  0
BLOCK
  5
16762
330
16761
100
AcDbEntity
  8
0
100
AcDbBlockBegin
  2
*U48
 70
     1
 10
0.0
 20
0.0
 30
0.0
  3
*U48
  1

  0
TEXT
  5
16763
330
16761
100
AcDbEntity
  8
SUNPOU
100
AcDbText
 10
6080.58306842693
 20
3472.004417808559
 30
0.0
 40
90.0
  1
500
 50
90.0
 41
0.6666666666666666
  7
00
100
AcDbText
  0
ENDBLK
  5
16764
330
16761
100
AcDbEntity
  8
0
100
AcDbBlockEnd
  0
BLOCK
  5
16766
330
16765
100
AcDbEntity
  8
0
100
AcDbBlockBegin
  2
*U49
 70
     1
 10
0.0
 20
0.0
 30
0.0
  3
*U49
  1

  0
TEXT
  5
16767
330
16765
100
AcDbEntity
  8
SUNPOU
100
AcDbText
 10
6290.58306842693
 20
2609.861560665699
 30
0.0
 40
90.0
  1
100
 50
90.0
 41
0.6666666666666666
  7
00
100
AcDbText
  0
ENDBLK
  5
16768
330
16765
100
AcDbEntity
  8
0
100
AcDbBlockEnd
  0
BLOCK
  5
1676A
330
16769
100
AcDbEntity
  8
0
100
AcDbBlockBegin
  2
*U50
 70
     1
 10
0.0
 20
0.0
 30
0.0
  3
*U50
  1

  0
TEXT
  5
1676B
330
16769
100
AcDbEntity
  8
SUNPOU
100
AcDbText
 10
6290.58306842693
 20
3390.575846379987
 30
0.0
 40
90.0
  1
600
 50
90.0
 41
0.6666666666666666
  7
00
100
AcDbText
  0
ENDBLK
  5
1676C
330
16769
100
AcDbEntity
  8
0
100
AcDbBlockEnd
  0
BLOCK
  5
1676E
330
1676D
100
AcDbEntity
  8
0
100
AcDbBlockBegin
  2
*U51
 70
     1
 10
0.0
 20
0.0
 30
0.0
  3
*U51
  1

  0
TEXT
  5
1676F
330
1676D
100
AcDbEntity
  8
SUNPOU
100
AcDbText
 10
10424.12750789964
 20
8907.978896718045
 30
0.0
 40
90.0
  1
300
 50
90.0
 41
0.6666666666666666
  7
00
100
AcDbText
  0
ENDBLK
  5
16770
330
1676D
100
AcDbEntity
  8
0
100
AcDbBlockEnd
  0
BLOCK
  5
16772
330
16771
100
AcDbEntity
  8
0
100
AcDbBlockBegin
  2
*U52
 70
     1
 10
0.0
 20
0.0
 30
0.0
  3
*U52
  1

  0
TEXT
  5
16773
330
16771
100
AcDbEntity
  8
SUNPOU
100
AcDbText
 10
10424.12750789964
 20
8332.978896718044
 30
0.0
 40
90.0
  1
850
 50
90.0
 41
0.6666666666666666
  7
00
100
AcDbText
  0
ENDBLK
  5
16774
330
16771
100
AcDbEntity
  8
0
100
AcDbBlockEnd
  0
BLOCK
  5
16776
330
16775
100
AcDbEntity
  8
0
100
AcDbBlockBegin
  2
*U53
 70
     1
 10
0.0
 20
0.0
 30
0.0
  3
*U53
  1

  0
TEXT
  5
16777
330
16775
100
AcDbEntity
  8
SUNPOU
100
AcDbText
 10
10634.12750789964
 20
8450.121753860905
 30
0.0
 40
90.0
  1
1150
 50
90.0
 41
0.6666666666666666
  7
00
100
AcDbText
  0
ENDBLK
  5
16778
330
16775
100
AcDbEntity
  8
0
100
AcDbBlockEnd
  0
BLOCK
  5
1677A
330
16779
100
AcDbEntity
  8
0
100
AcDbBlockBegin
  2
*U54
 70
     1
 10
0.0
 20
0.0
 30
0.0
  3
*U54
  1

  0
TEXT
  5
1677B
330
16779
100
AcDbEntity
  8
SUNPOU
100
AcDbText
 10
9533.413222185359
 20
9488.693182432331
 30
0.0
 40
90.0
  1
800
 41
0.6666666666666666
  7
00
100
AcDbText
  0
ENDBLK
  5
1677C
330
16779
100
AcDbEntity
  8
0
100
AcDbBlockEnd
  0
ENDSEC
  0
SECTION
  2
ENTITIES
  0
TEXT
  5
1677D
330
1666B
100
AcDbEntity
  8
HIKIDASHI
100
AcDbText
 10
7437.050177551384
 20
5782.138246625836
 30
0.0
 40
135.0
  1
基 礎 平 面 図　縮尺
  7
01
 72
     4
 11
8229.050177551384
 21
5849.638246625836
 31
0.0
100
AcDbText
  0
TEXT
  5
1677E
330
1666B
100
AcDbEntity
  8
HIKIDASHI
100
AcDbText
 10
6774.127507899644
 20
6928.168187707528
 30
0.0
 40
90.0
  1
（土間コン側面位置）
 50
90.0
  7
01
100
AcDbText
  0
TEXT
  5
1677F
330
1666B
100
AcDbEntity
  8
HIKIDASHI
100
AcDbText
 10
7491.376235857834
 20
9128.693182432334
 30
0.0
 40
90.0
  1
（土間コン後面位置）
  7
01
100
AcDbText
  0
TEXT
  5
16780
330
1666B
100
AcDbEntity
  8
HIKIDASHI
100
AcDbText
 10
7132.326854848416
 20
7036.814277369064
 30
0.0
 40
90.0
  1
（ケラバ外面）
 50
90.0
  7
01
100
AcDbText
  0
TEXT
  5
16781
330
1666B
100
AcDbEntity
  8
HIKIDASHI
100
AcDbText
 10
7926.575500939491
 20
6708.693182432321
 30
0.0
 40
90.0
  1
（土間コン前面位置）
  7
01
100
AcDbText
  0
TEXT
  5
16782
330
1666B
100
AcDbEntity
  8
HIKIDASHI
100
AcDbText
 10
8035.221590601031
 20
7000.143910050988
 30
0.0
 40
90.0
  1
（鼻隠し外面）
  7
01
100
AcDbText
  0
TEXT
  5
16783
330
1666B
100
AcDbEntity
  8
HIKIDASHI
100
AcDbText
 10
7600.022325519373
 20
8837.242454813669
 30
0.0
 40
90.0
  1
（屋根後面位置）
  7
01
100
AcDbText
  0
LINE
  5
16784
330
1666B
100
AcDbEntity
  8
HIKIDASHI
100
AcDbLine
 10
9362.771711688244
 20
5917.138246625839
 30
0.0
 11
9227.771711688246
 21
5782.138246625836
 31
0.0
  0
TEXT
  5
16785
330
1666B
100
AcDbEntity
  8
HIKIDASHI
100
AcDbText
 10
9083.536143415292
 20
5791.781103768693
 30
0.0
 40
135.0
  1
=
 41
0.6666666666666666
  7
00
 72
     4
 11
9139.250429129578
 21
5849.638246625836
 31
0.0
100
AcDbText
  0
TEXT
  5
16786
330
1666B
100
AcDbEntity
  8
HIKIDASHI
100
AcDbText
 10
9313.923774851756
 20
5782.138246625838
 30
0.0
 40
67.5
  1
40
 41
0.6666666666666666
  7
00
 72
     4
 11
9356.780917708901
 21
5815.888246625839
 31
0.0
100
AcDbText
  0
TEXT
  5
16787
330
1666B
100
AcDbEntity
  8
HIKIDASHI
100
AcDbText
 10
9230.181807712936
 20
5849.552103177039
 30
0.0
 40
67.5
  1
1
 41
0.6666666666666666
  7
00
 72
     4
 11
9248.396093427222
 21
5883.302103177039
 31
0.0
100
AcDbText
  0
TEXT
  5
16788
330
1666B
100
AcDbEntity
  8
HIKIDASHI
100
AcDbText
 10
9795.928160950884
 20
7036.814277369064
 30
0.0
 40
90.0
  1
（ケラバ外面）
 50
90.0
  7
01
100
AcDbText
  0
TEXT
  5
16789
330
1666B
100
AcDbEntity
  8
HIKIDASHI
100
AcDbText
 10
10154.12750789964
 20
6928.168187707528
 30
0.0
 40
90.0
  1
（土間コン側面位置）
 50
90.0
  7
01
100
AcDbText
  0
TEXT
  5
167AC
330
1666B
100
AcDbEntity
  8
FILENAME
100
AcDbText
 10
13947.71428571428
 20
173.9999999999996
 30
0.0
 40
100.0
  1
＜YOCF-240-A1_3_JIS_GL.DXF＞
  7
FILENAME
 72
     2
 11
16382.0
 21
173.9999999999996
 31
0.0
100
AcDbText
  0
TEXT
  5
167AD
330
1666B
100
AcDbEntity
  8
NAME
100
AcDbText
 10
12536.92663601099
 20
954.9999999999991
 30
0.0
 40
160.0
  1
YOCF
 41
0.7
  7
01
100
AcDbText
  0
TEXT
  5
167AE
330
1666B
100
AcDbEntity
  8
NAME
100
AcDbText
 10
11103.68799031879
 20
954.9999999999991
 30
0.0
 40
160.0
  1
ヨド自転車置場      型
  7
01
100
AcDbText
  0
TEXT
  5
167AF
330
1666B
100
AcDbEntity
  8
NAME
100
AcDbText
 10
11816.04264730429
 20
541.0000000000001
 30
0.0
 40
160.0
  1
型（一般地用）
 41
0.8
  7
01
100
AcDbText
  0
TEXT
  5
167B0
330
1666B
100
AcDbEntity
  8
NAME
100
AcDbText
 10
10912.04264730428
 20
541.0000000000001
 30
0.0
 40
160.0
  1
YOCF-240
 41
0.7
  7
01
 72
     2
 11
11776.04264730429
 21
541.0000000000001
 31
0.0
100
AcDbText
  0
TEXT
  5
167B1
330
1666B
100
AcDbEntity
  8
NAME
100
AcDbText
 10
12854.79999999999
 20
541.0000000000003
 30
0.0
 40
160.0
  1
<3／3>
 41
0.6
  7
01
 72
     2
 11
13354.0
 21
541.0000000000003
 31
0.0
100
AcDbText
  0
LINE
  5
167B2
330
1666B
100
AcDbEntity
  8
U7
100
AcDbLine
 10
3799.640454405496
 20
3077.718703522844
 30
0.0
 11
5175.640454405495
 21
3077.718703522847
 31
0.0
  0
LINE
  5
167B3
330
1666B
100
AcDbEntity
  8
KISO
100
AcDbLine
 10
3527.640454405497
 20
2917.718703522842
 30
0.0
 11
5447.640454405497
 21
2917.718703522846
 31
0.0
  0
LINE
  5
167B4
330
1666B
100
AcDbEntity
  8
KISO
100
AcDbLine
 10
3527.640454405497
 20
2757.718703522841
 30
0.0
 11
5447.640454405497
 21
2757.718703522846
 31
0.0
  0
LINE
  5
167B5
330
1666B
100
AcDbEntity
  8
KISO
100
AcDbLine
 10
3527.640454405497
 20
2997.718703522842
 30
0.0
 11
5447.640454405497
 21
2997.718703522846
 31
0.0
  0
LINE
  5
167B6
330
1666B
100
AcDbEntity
  8
HIDE-S1
100
AcDbLine
 10
5191.640454405494
 20
3765.718703522844
 30
0.0
 11
4423.640454405493
 21
3765.718703522844
 31
0.0
  0
LINE
  5
167B7
330
1666B
100
AcDbEntity
  8
U7
100
AcDbLine
 10
4487.640454405497
 20
3622.518703522842
 30
0.0
 11
5127.640454405497
 21
3622.518703522845
 31
0.0
  0
LINE
  5
167B8
330
1666B
100
AcDbEntity
  8
U7
100
AcDbLine
 10
4487.640454405497
 20
3462.518703522843
 30
0.0
 11
5127.640454405497
 21
3462.518703522843
 31
0.0
  0
LINE
  5
167B9
330
1666B
100
AcDbEntity
  8
U7
100
AcDbLine
 10
4487.640454405497
 20
3302.518703522844
 30
0.0
 11
5127.640454405494
 21
3302.518703522844
 31
0.0
  0
LINE
  5
167BA
330
1666B
100
AcDbEntity
  8
U7
100
AcDbLine
 10
4487.640454405497
 20
3142.518703522845
 30
0.0
 11
5127.640454405497
 21
3142.518703522845
 31
0.0
  0
LINE
  5
167BB
330
1666B
100
AcDbEntity
  8
U7
100
AcDbLine
 10
4487.640454405497
 20
3942.518703522843
 30
0.0
 11
5127.640454405494
 21
3942.518703522845
 31
0.0
  0
LINE
  5
167BC
330
1666B
100
AcDbEntity
  8
U7
100
AcDbLine
 10
4487.640454405497
 20
3782.518703522843
 30
0.0
 11
5127.640454405494
 21
3782.518703522845
 31
0.0
  0
LINE
  5
167BD
330
1666B
100
AcDbEntity
  8
KISO
100
AcDbLine
 10
4736.360454405487
 20
4005.718703522845
 30
0.0
 11
2825.847219716703
 21
4005.718703522841
 31
0.0
  0
LINE
  5
167BE
330
1666B
100
AcDbEntity
  8
KISO
100
AcDbLine
 10
2825.847219716699
 20
3765.718703522841
 30
0.0
 11
3687.640454405492
 21
3765.718703522841
 31
0.0
  0
LINE
  5
167BF
330
1666B
100
AcDbEntity
  8
KISO
100
AcDbLine
 10
2825.847219716699
 20
3861.718703522843
 30
0.0
 11
3687.640454405497
 21
3861.718703522845
 31
0.0
  0
LINE
  5
167C0
330
1666B
100
AcDbEntity
  8
U1
100
AcDbLine
 10
4487.640454405497
 20
3942.518703522843
 30
0.0
 11
4487.640454405497
 21
3135.318703522844
 31
0.0
  0
LINE
  5
167C1
330
1666B
100
AcDbEntity
  8
KISO
100
AcDbLine
 10
3687.640454405497
 20
3861.718703522845
 30
0.0
 11
3687.640454405497
 21
2997.718703522842
 31
0.0
  0
LINE
  5
167C2
330
1666B
100
AcDbEntity
  8
HATCH
100
AcDbLine
 10
4439.158030101237
 20
3765.718703522844
 30
0.0
 11
3687.640454405492
 21
3014.201127827105
 31
0.0
  0
LINE
  5
167C3
330
1666B
100
AcDbEntity
  8
HATCH
100
AcDbLine
 10
4439.640454405493
 20
3381.718703522844
 30
0.0
 11
4210.040454405493
 21
3152.118703522843
 31
0.0
  0
LINE
  5
167C4
330
1666B
100
AcDbEntity
  8
HATCH
100
AcDbLine
 10
4439.640454405493
 20
3334.201127827107
 30
0.0
 11
4257.558030101233
 21
3152.118703522843
 31
0.0
  0
LINE
  5
167C5
330
1666B
100
AcDbEntity
  8
HATCH
100
AcDbLine
 10
4391.640454405499
 20
3765.718703522844
 30
0.0
 11
3687.640454405497
 21
3061.718703522838
 31
0.0
  0
LINE
  5
167C6
330
1666B
100
AcDbEntity
  8
HATCH
100
AcDbLine
 10
4344.122878709764
 20
3765.718703522844
 30
0.0
 11
3687.640454405492
 21
3109.236279218575
 31
0.0
  0
CIRCLE
  5
167C7
330
1666B
100
AcDbEntity
  8
U7
100
AcDbCircle
 10
4480.440454405496
 20
3302.518703522844
 30
0.0
 40
7.2
  0
LINE
  5
167C8
330
1666B
100
AcDbEntity
  8
KISO
100
AcDbLine
 10
3527.640454405497
 20
2757.718703522841
 30
0.0
 11
3527.640454405497
 21
2997.718703522842
 31
0.0
  0
CIRCLE
  5
167C9
330
1666B
100
AcDbEntity
  8
U7
100
AcDbCircle
 10
3799.640454405493
 20
3088.118703522843
 30
0.0
 40
10.4
  0
LINE
  5
167CA
330
1666B
100
AcDbEntity
  8
U1
100
AcDbLine
 10
4167.640454405493
 20
3114.518703522845
 30
0.0
 11
4466.840454405497
 21
3114.518703522845
 31
0.0
  0
LINE
  5
167CB
330
1666B
100
AcDbEntity
  8
HATCH
100
AcDbLine
 10
4439.640454405497
 20
3286.683552131373
 30
0.0
 11
4305.075605796965
 21
3152.118703522843
 31
0.0
  0
LINE
  5
167CC
330
1666B
100
AcDbEntity
  8
HATCH
100
AcDbLine
 10
4172.275605796964
 20
3019.318703522844
 30
0.0
 11
4150.675605796965
 21
2997.718703522842
 31
0.0
  0
LINE
  5
167CD
330
1666B
100
AcDbEntity
  8
HATCH
100
AcDbLine
 10
4077.240454405495
 20
3019.318703522844
 30
0.0
 11
4055.640454405497
 21
2997.718703522842
 31
0.0
  0
LINE
  5
167CE
330
1666B
100
AcDbEntity
  8
HATCH
100
AcDbLine
 10
4124.758030101235
 20
3019.318703522844
 30
0.0
 11
4103.158030101233
 21
2997.718703522844
 31
0.0
  0
LINE
  5
167CF
330
1666B
100
AcDbEntity
  8
HATCH
100
AcDbLine
 10
4556.758030101225
 20
3019.318703522844
 30
0.0
 11
4535.158030101226
 21
2997.718703522844
 31
0.0
  0
LINE
  5
167D0
330
1666B
100
AcDbEntity
  8
HATCH
100
AcDbLine
 10
4604.275605796964
 20
3019.318703522844
 30
0.0
 11
4582.675605796965
 21
2997.718703522844
 31
0.0
  0
LINE
  5
167D1
330
1666B
100
AcDbEntity
  8
HATCH
100
AcDbLine
 10
4651.793181492696
 20
3019.318703522844
 30
0.0
 11
4630.193181492697
 21
2997.718703522844
 31
0.0
  0
ARC
  5
167D2
330
1666B
100
AcDbEntity
  8
U1
100
AcDbCircle
 10
4466.840454405497
 20
3135.318703522844
 30
0.0
 40
20.8
100
AcDbArc
 50
270.0
 51
0.0
  0
CIRCLE
  5
167D3
330
1666B
100
AcDbEntity
  8
U7
100
AcDbCircle
 10
4480.440454405496
 20
3142.518703522845
 30
0.0
 40
7.2
  0
LINE
  5
167D4
330
1666B
100
AcDbEntity
  8
KISO
100
AcDbLine
 10
4423.640454405493
 20
3765.718703522844
 30
0.0
 11
3687.640454405492
 21
3765.718703522841
 31
0.0
  0
LINE
  5
167D5
330
1666B
100
AcDbEntity
  8
HATCH
100
AcDbLine
 10
3912.122878709764
 20
3765.718703522841
 30
0.0
 11
3687.640454405492
 21
3541.236279218569
 31
0.0
  0
LINE
  5
167D6
330
1666B
100
AcDbEntity
  8
HATCH
100
AcDbLine
 10
3959.640454405504
 20
3765.718703522841
 30
0.0
 11
3687.640454405497
 21
3493.718703522838
 31
0.0
  0
LINE
  5
167D7
330
1666B
100
AcDbEntity
  8
HATCH
100
AcDbLine
 10
3864.605303014029
 20
3765.718703522841
 30
0.0
 11
3687.640454405492
 21
3588.75385491431
 31
0.0
  0
LINE
  5
167D8
330
1666B
100
AcDbEntity
  8
KISO
100
AcDbLine
 10
4423.640454405493
 20
4005.718703522841
 30
0.0
 11
4423.640454405493
 21
3765.718703522844
 31
0.0
  0
LINE
  5
167D9
330
1666B
100
AcDbEntity
  8
KISO
100
AcDbLine
 10
4736.360454405487
 20
3976.918703522846
 30
0.0
 11
4583.640454405496
 21
3784.918703522846
 31
0.0
  0
CIRCLE
  5
167DA
330
1666B
100
AcDbEntity
  8
U7
100
AcDbCircle
 10
4480.440454405496
 20
3462.518703522845
 30
0.0
 40
7.2
  0
CIRCLE
  5
167DB
330
1666B
100
AcDbEntity
  8
U7
100
AcDbCircle
 10
4480.440454405496
 20
3622.518703522842
 30
0.0
 40
7.2
  0
CIRCLE
  5
167DC
330
1666B
100
AcDbEntity
  8
U7
100
AcDbCircle
 10
4480.440454405496
 20
3782.518703522843
 30
0.0
 40
7.2
  0
LINE
  5
167DD
330
1666B
100
AcDbEntity
  8
HATCH
100
AcDbLine
 10
4568.275605796968
 20
3956.118703522843
 30
0.0
 11
4518.675605796965
 21
4005.718703522841
 31
0.0
  0
LINE
  5
167DE
330
1666B
100
AcDbEntity
  8
HATCH
100
AcDbLine
 10
4520.758030101234
 20
3956.118703522843
 30
0.0
 11
4471.158030101232
 21
4005.718703522845
 31
0.0
  0
LINE
  5
167DF
330
1666B
100
AcDbEntity
  8
HATCH
100
AcDbLine
 10
4473.240454405497
 20
3956.118703522843
 30
0.0
 11
4423.640454405493
 21
4005.718703522841
 31
0.0
  0
CIRCLE
  5
167E0
330
1666B
100
AcDbEntity
  8
U7
100
AcDbCircle
 10
4480.440454405496
 20
3942.518703522843
 30
0.0
 40
7.2
  0
LINE
  5
167E1
330
1666B
100
AcDbEntity
  8
U1
100
AcDbLine
 10
5127.640454405494
 20
3942.518703522845
 30
0.0
 11
5127.640454405497
 21
3135.318703522844
 31
0.0
  0
CIRCLE
  5
167E2
330
1666B
100
AcDbEntity
  8
U7
100
AcDbCircle
 10
5134.840454405498
 20
3302.518703522844
 30
0.0
 40
7.2
  0
LINE
  5
167E3
330
1666B
100
AcDbEntity
  8
KISO
100
AcDbLine
 10
5287.640454405497
 20
2997.718703522844
 30
0.0
 11
5287.640454405494
 21
3765.718703522844
 31
0.0
  0
LINE
  5
167E4
330
1666B
100
AcDbEntity
  8
U1
100
AcDbLine
 10
5148.440454405496
 20
3114.518703522845
 30
0.0
 11
5202.040454405494
 21
3114.518703522845
 31
0.0
  0
LINE
  5
167E5
330
1666B
100
AcDbEntity
  8
HATCH
100
AcDbLine
 10
5131.310757188437
 20
3019.318703522844
 30
0.0
 11
5109.710757188437
 21
2997.718703522846
 31
0.0
  0
LINE
  5
167E6
330
1666B
100
AcDbEntity
  8
HATCH
100
AcDbLine
 10
5083.793181492698
 20
3019.318703522844
 30
0.0
 11
5062.193181492697
 21
2997.718703522846
 31
0.0
  0
LINE
  5
167E7
330
1666B
100
AcDbEntity
  8
HATCH
100
AcDbLine
 10
5036.275605796965
 20
3019.318703522844
 30
0.0
 11
5014.675605796963
 21
2997.718703522846
 31
0.0
  0
ARC
  5
167E8
330
1666B
100
AcDbEntity
  8
U1
100
AcDbCircle
 10
5148.440454405496
 20
3135.318703522844
 30
0.0
 40
20.8
100
AcDbArc
 50
180.0
 51
270.0
  0
CIRCLE
  5
167E9
330
1666B
100
AcDbEntity
  8
U7
100
AcDbCircle
 10
5134.840454405498
 20
3142.518703522845
 30
0.0
 40
7.2
  0
LINE
  5
167EA
330
1666B
100
AcDbEntity
  8
KISO
100
AcDbLine
 10
5447.640454405497
 20
2757.718703522846
 30
0.0
 11
5447.640454405497
 21
2997.718703522846
 31
0.0
  0
CIRCLE
  5
167EB
330
1666B
100
AcDbEntity
  8
U7
100
AcDbCircle
 10
5175.640454405495
 20
3088.118703522845
 30
0.0
 40
10.4
  0
LINE
  5
167EC
330
1666B
100
AcDbEntity
  8
HATCH
100
AcDbLine
 10
5287.640454405497
 20
3270.683552131381
 30
0.0
 11
5175.640454405499
 21
3158.68355213138
 31
0.0
  0
LINE
  5
167ED
330
1666B
100
AcDbEntity
  8
HATCH
100
AcDbLine
 10
5287.640454405497
 20
3223.165976435641
 30
0.0
 11
5216.593181492697
 21
3152.118703522845
 31
0.0
  0
LINE
  5
167EE
330
1666B
100
AcDbEntity
  8
HATCH
100
AcDbLine
 10
5287.640454405497
 20
3175.648400739905
 30
0.0
 11
5264.110757188434
 21
3152.118703522845
 31
0.0
  0
LINE
  5
167EF
330
1666B
100
AcDbEntity
  8
AQU_HOKYOU
100
AcDbLine
 10
5762.191305444506
 20
3957.718703522846
 30
0.0
 11
5191.640454405494
 21
3957.718703522846
 31
0.0
  0
LINE
  5
167F0
330
1666B
100
AcDbEntity
  8
AQU_HOKYOU
100
AcDbLine
 10
5527.640454405497
 20
3789.718703522849
 30
0.0
 11
5695.640454405497
 21
3957.718703522846
 31
0.0
  0
LINE
  5
167F1
330
1666B
100
AcDbEntity
  8
AQU_HOKYOU
100
AcDbLine
 10
5476.728766160064
 20
3840.630391768279
 30
0.0
 11
5593.817077914634
 21
3957.718703522846
 31
0.0
  0
LINE
  5
167F2
330
1666B
100
AcDbEntity
  8
KISO
100
AcDbLine
 10
5191.640454405494
 20
3765.718703522844
 30
0.0
 11
5191.640454405494
 21
4005.718703522845
 31
0.0
  0
LINE
  5
167F3
330
1666B
100
AcDbEntity
  8
KISO
100
AcDbLine
 10
4878.920454405495
 20
3976.918703522846
 30
0.0
 11
5031.640454405497
 21
3784.918703522846
 31
0.0
  0
LINE
  5
167F4
330
1666B
100
AcDbEntity
  8
AQU_HOKYOU
100
AcDbLine
 10
5308.728766160064
 20
3906.807015277415
 30
0.0
 11
5425.81707791463
 21
3789.718703522847
 31
0.0
  0
LINE
  5
167F5
330
1666B
100
AcDbEntity
  8
AQU_HOKYOU
100
AcDbLine
 10
5191.640454405494
 20
3789.718703522849
 30
0.0
 11
5359.640454405493
 21
3957.718703522846
 31
0.0
  0
LINE
  5
167F6
330
1666B
100
AcDbEntity
  8
AQU_HOKYOU
100
AcDbLine
 10
5359.640454405493
 20
3957.718703522846
 30
0.0
 11
5527.640454405497
 21
3789.718703522849
 31
0.0
  0
CIRCLE
  5
167F7
330
1666B
100
AcDbEntity
  8
U7
100
AcDbCircle
 10
5134.840454405498
 20
3462.518703522845
 30
0.0
 40
7.2
  0
CIRCLE
  5
167F8
330
1666B
100
AcDbEntity
  8
U7
100
AcDbCircle
 10
5134.840454405498
 20
3622.518703522842
 30
0.0
 40
7.2
  0
CIRCLE
  5
167F9
330
1666B
100
AcDbEntity
  8
U7
100
AcDbCircle
 10
5134.840454405498
 20
3782.518703522845
 30
0.0
 40
7.2
  0
LINE
  5
167FA
330
1666B
100
AcDbEntity
  8
HATCH
100
AcDbLine
 10
5287.640454405497
 20
3655.165976435636
 30
0.0
 11
5175.640454405495
 21
3543.165976435639
 31
0.0
  0
LINE
  5
167FB
330
1666B
100
AcDbEntity
  8
HATCH
100
AcDbLine
 10
5287.640454405494
 20
3702.683552131372
 30
0.0
 11
5175.640454405495
 21
3590.683552131377
 31
0.0
  0
LINE
  5
167FC
330
1666B
100
AcDbEntity
  8
HATCH
100
AcDbLine
 10
5287.640454405494
 20
3750.201127827107
 30
0.0
 11
5175.640454405495
 21
3638.201127827112
 31
0.0
  0
LINE
  5
167FD
330
1666B
100
AcDbEntity
  8
KISO
100
AcDbLine
 10
5287.640454405494
 20
3765.718703522844
 30
0.0
 11
5191.640454405494
 21
3765.718703522844
 31
0.0
  0
LINE
  5
167FE
330
1666B
100
AcDbEntity
  8
AQU_HOKYOU
100
AcDbLine
 10
5257.81707791463
 20
3855.895327031984
 30
0.0
 11
5323.99370142377
 21
3789.718703522847
 31
0.0
  0
LINE
  5
167FF
330
1666B
100
AcDbEntity
  8
KISO
100
AcDbLine
 10
5191.640454405494
 20
4005.718703522845
 30
0.0
 11
4878.920454405491
 21
4005.718703522845
 31
0.0
  0
LINE
  5
16800
330
1666B
100
AcDbEntity
  8
HATCH
100
AcDbLine
 10
5000.27560579697
 20
3956.118703522847
 30
0.0
 11
4950.675605796965
 21
4005.718703522845
 31
0.0
  0
LINE
  5
16801
330
1666B
100
AcDbEntity
  8
HATCH
100
AcDbLine
 10
4952.758030101224
 20
3956.118703522843
 30
0.0
 11
4903.158030101226
 21
4005.718703522845
 31
0.0
  0
LINE
  5
16802
330
1666B
100
AcDbEntity
  8
HATCH
100
AcDbLine
 10
5047.793181492711
 20
3956.118703522847
 30
0.0
 11
4998.193181492697
 21
4005.718703522845
 31
0.0
  0
CIRCLE
  5
16803
330
1666B
100
AcDbEntity
  8
U7
100
AcDbCircle
 10
5134.840454405498
 20
3942.518703522845
 30
0.0
 40
7.2
  0
LINE
  5
16804
330
1666B
100
AcDbEntity
  8
AQU_HOKYOU
100
AcDbLine
 10
5191.640454405497
 20
3891.542080013707
 30
0.0
 11
5257.817077914634
 21
3957.718703522846
 31
0.0
  0
LINE
  5
16805
330
1666B
100
AcDbEntity
  8
AQU_HOKYOU
100
AcDbLine
 10
5425.81707791463
 20
3891.542080013712
 30
0.0
 11
5491.993701423766
 21
3957.718703522846
 31
0.0
  0
LINE
  5
16806
330
1666B
100
AcDbEntity
  8
AQU_HOKYOU
100
AcDbLine
 10
5695.640454405497
 20
3957.718703522846
 30
0.0
 11
5762.191305444506
 21
3891.167852483834
 31
0.0
  0
LINE
  5
16807
330
1666B
100
AcDbEntity
  8
AQU_HOKYOU
100
AcDbLine
 10
5644.728766160064
 20
3906.807015277415
 30
0.0
 11
5761.817077914631
 21
3789.718703522847
 31
0.0
  0
LINE
  5
16808
330
1666B
100
AcDbEntity
  8
AQU_HOKYOU
100
AcDbLine
 10
5593.817077914634
 20
3855.895327031984
 30
0.0
 11
5659.993701423769
 21
3789.718703522847
 31
0.0
  0
LINE
  5
16809
330
1666B
100
AcDbEntity
  8
HATCH
100
AcDbLine
 10
3783.467384730339
 20
4005.718703522841
 30
0.0
 11
3639.467384730342
 21
3861.718703522841
 31
0.0
  0
LINE
  5
1680A
330
1666B
100
AcDbEntity
  8
HATCH
100
AcDbLine
 10
3830.984960426132
 20
4005.718703522841
 30
0.0
 11
3686.984960426121
 21
3861.718703522845
 31
0.0
  0
LINE
  5
1680B
330
1666B
100
AcDbEntity
  8
HATCH
100
AcDbLine
 10
3303.949809034614
 20
4005.718703522841
 30
0.0
 11
3159.949809034614
 21
3861.718703522841
 31
0.0
  0
LINE
  5
1680C
330
1666B
100
AcDbEntity
  8
HATCH
100
AcDbLine
 10
3256.432233338887
 20
4005.718703522841
 30
0.0
 11
3112.432233338881
 21
3861.718703522841
 31
0.0
  0
LINE
  5
1680D
330
1666B
100
AcDbEntity
  8
HATCH
100
AcDbLine
 10
3351.467384730357
 20
4005.718703522841
 30
0.0
 11
3207.467384730353
 21
3861.718703522841
 31
0.0
  0
LINE
  5
1680E
330
1666B
100
AcDbEntity
  8
HATCH
100
AcDbLine
 10
3735.949809034599
 20
4005.718703522841
 30
0.0
 11
3591.949809034602
 21
3861.718703522845
 31
0.0
  0
LINE
  5
1680F
330
1666B
100
AcDbEntity
  8
HATCH
100
AcDbLine
 10
4310.502536121908
 20
4005.718703522845
 30
0.0
 11
4070.502536121894
 21
3765.718703522844
 31
0.0
  0
LINE
  5
16810
330
1666B
100
AcDbEntity
  8
HATCH
100
AcDbLine
 10
4215.467384730374
 20
4005.718703522845
 30
0.0
 11
3975.467384730378
 21
3765.718703522841
 31
0.0
  0
LINE
  5
16811
330
1666B
100
AcDbEntity
  8
HATCH
100
AcDbLine
 10
4262.984960426114
 20
4005.718703522841
 30
0.0
 11
4022.984960426119
 21
3765.718703522841
 31
0.0
  0
CIRCLE
  5
16812
330
1666B
100
AcDbEntity
  8
U7
100
AcDbCircle
 10
4074.840454405494
 20
3088.118703522843
 30
0.0
 40
10.4
  0
CIRCLE
  5
16813
330
1666B
100
AcDbEntity
  8
U7
100
AcDbCircle
 10
4350.040454405493
 20
3088.118703522843
 30
0.0
 40
10.4
  0
CIRCLE
  5
16814
330
1666B
100
AcDbEntity
  8
U7
100
AcDbCircle
 10
4625.240454405489
 20
3088.118703522843
 30
0.0
 40
10.4
  0
CIRCLE
  5
16815
330
1666B
100
AcDbEntity
  8
U7
100
AcDbCircle
 10
4900.440454405496
 20
3088.118703522843
 30
0.0
 40
10.4
  0
LINE
  5
16816
330
1666B
100
AcDbEntity
  8
SUNPOU
100
AcDbLine
 10
5576.877404152063
 20
4047.718703522845
 30
0.0
 11
5472.954355697931
 21
4047.718703522845
 31
0.0
  0
TEXT
  5
16817
330
1666B
100
AcDbEntity
  8
SUNPOU
100
AcDbText
 10
5453.487308496428
 20
4092.718703522843
 30
0.0
 40
90.0
  1
G.L
 41
0.6666666666666666
  7
00
 72
     4
 11
5524.915879925
 21
4137.718703522842
 31
0.0
100
AcDbText
  0
LINE
  5
16818
330
1666B
100
AcDbEntity
  8
SUNPOU
100
AcDbLine
 10
5524.915879925
 20
3957.718703522845
 30
0.0
 11
5576.877404152063
 21
4047.718703522845
 31
0.0
  0
LINE
  5
16819
330
1666B
100
AcDbEntity
  8
SUNPOU
100
AcDbLine
 10
5472.954355697931
 20
4047.718703522845
 30
0.0
 11
5524.915879925
 21
3957.718703522845
 31
0.0
  0
LINE
  5
1681A
330
1666B
100
AcDbEntity
  8
SUNPOU
100
AcDbLine
 10
2932.519976483371
 20
4095.718703522843
 30
0.0
 11
2984.481500710437
 21
4005.718703522841
 31
0.0
  0
LINE
  5
1681B
330
1666B
100
AcDbEntity
  8
SUNPOU
100
AcDbLine
 10
3036.443024937504
 20
4095.718703522843
 30
0.0
 11
2932.519976483371
 21
4095.718703522843
 31
0.0
  0
TEXT
  5
1681C
330
1666B
100
AcDbEntity
  8
SUNPOU
100
AcDbText
 10
2915.910072139008
 20
4140.718703522842
 30
0.0
 40
90.0
  1
F.L
 41
0.6666666666666666
  7
00
 72
     4
 11
2984.481500710437
 21
4185.718703522842
 31
0.0
100
AcDbText
  0
LINE
  5
1681D
330
1666B
100
AcDbEntity
  8
SUNPOU
100
AcDbLine
 10
2984.481500710437
 20
4005.718703522841
 30
0.0
 11
3036.443024937504
 21
4095.718703522843
 31
0.0
  0
TEXT
  5
1681E
330
1666B
100
AcDbEntity
  8
HIKIDASHI
100
AcDbText
 10
5866.911289114407
 20
2135.908092218655
 30
0.0
 40
90.0
  1
帯筋
  7
01
100
AcDbText
  0
LINE
  5
1681F
330
1666B
100
AcDbEntity
  8
HIKIDASHI
100
AcDbLine
 10
5856.911289114407
 20
2090.908092218655
 30
0.0
 11
6614.632590323456
 21
2090.908092218655
 31
0.0
  0
LINE
  5
16820
330
1666B
100
AcDbEntity
  8
HIKIDASHI
100
AcDbLine
 10
5929.366237063103
 20
2313.731980127317
 30
0.0
 11
6537.271324472293
 21
2313.731980127317
 31
0.0
  0
TEXT
  5
16821
330
1666B
100
AcDbEntity
  8
HIKIDASHI
100
AcDbText
 10
6415.074282839532
 20
2135.908092218655
 30
0.0
 40
90.0
  1
100
 41
0.6700000000000001
  7
00
100
AcDbText
  0
TEXT
  5
16822
330
1666B
100
AcDbEntity
  8
HIKIDASHI
100
AcDbText
 10
6193.964276612434
 20
2135.908092218655
 30
0.0
 40
90.0
  1
%%C
 41
0.6700000000000001
  7
00
100
AcDbText
  0
TEXT
  5
16823
330
1666B
100
AcDbEntity
  8
HIKIDASHI
100
AcDbText
 10
6116.175242148191
 20
2135.908092218655
 30
0.0
 40
90.0
  1
9
 41
0.6700000000000001
  7
00
100
AcDbText
  0
TEXT
  5
16824
330
1666B
100
AcDbEntity
  8
HIKIDASHI
100
AcDbText
 10
6305.589609182163
 20
2143.408092218656
 30
0.0
 40
75.0
  1
ア
  7
01
 72
     1
 11
6338.089609182163
 21
2180.908092218656
 31
0.0
100
AcDbText
 73
     2
  0
CIRCLE
  5
16825
330
1666B
100
AcDbEntity
  8
HIKIDASHI
100
AcDbCircle
 10
6338.089609182163
 20
2180.908092218656
 30
0.0
 40
60.0
  0
TEXT
  5
16826
330
1666B
100
AcDbEntity
  8
HIKIDASHI
100
AcDbText
 10
5939.366237063103
 20
2358.731980127318
 30
0.0
 40
90.0
  1
主筋
  7
01
100
AcDbText
  0
TEXT
  5
16827
330
1666B
100
AcDbEntity
  8
HIKIDASHI
100
AcDbText
 10
6188.63019009689
 20
2358.731980127318
 30
0.0
 40
90.0
  1
4-D13
 41
0.6700000000000001
  7
00
100
AcDbText
  0
TEXT
  5
16828
330
1666B
100
AcDbEntity
  8
HIKIDASHI
100
AcDbText
 10
6680.16110531769
 20
4553.18497570578
 30
0.0
 40
90.00009018009018
  1
（別途）
  7
01
100
AcDbText
  0
LINE
  5
16829
330
1666B
100
AcDbEntity
  8
HIKIDASHI
100
AcDbLine
 10
5328.363048116615
 20
4508.184975705781
 30
0.0
 11
7072.590287272039
 21
4508.184975705781
 31
0.0
  0
TEXT
  5
1682A
330
1666B
100
AcDbEntity
  8
HIKIDASHI
100
AcDbText
 10
5362.640733065147
 20
4553.18497570578
 30
0.0
 40
90.00009018009018
  1
アンカーボルト
  7
01
100
AcDbText
  0
TEXT
  5
1682B
330
1666B
100
AcDbEntity
  8
HIKIDASHI
100
AcDbText
 10
6438.440951256187
 20
4552.975989505692
 30
0.0
 40
89.55223880597012
  1
400
 41
0.6700000000000001
  7
00
100
AcDbText
  0
TEXT
  5
1682C
330
1666B
100
AcDbEntity
  8
HIKIDASHI
100
AcDbText
 10
6122.977787670532
 20
4553.18497570578
 30
0.0
 40
89.55223880597012
  1
W ／
 41
0.6700000000000001
  7
00
100
AcDbText
  0
TEXT
  5
1682D
330
1666B
100
AcDbEntity
  8
HIKIDASHI
100
AcDbText
 10
6197.578598353754
 20
4579.614585344677
 30
0.0
 40
67.16417910447761
  1
1
 41
0.6700000000000001
  7
00
100
AcDbText
  0
TEXT
  5
1682E
330
1666B
100
AcDbEntity
  8
HIKIDASHI
100
AcDbText
 10
6285.470634912679
 20
4552.588530314116
 30
0.0
 40
67.16417910447761
  1
2
 41
0.6700000000000001
  7
00
100
AcDbText
  0
TEXT
  5
1682F
330
1666B
100
AcDbEntity
  8
HIKIDASHI
100
AcDbText
 10
6357.305572103054
 20
4564.37900555653
 30
0.0
 40
89.55223880597012
  1
x
 41
0.6700000000000001
  7
00
100
AcDbText
  0
LINE
  5
16830
330
1666B
100
AcDbEntity
  8
HIKIDASHI
100
AcDbLine
 10
4229.88222494885
 20
1774.430061310486
 30
0.0
 11
5157.385362596277
 21
1774.430061310486
 31
0.0
  0
LINE
  5
16831
330
1666B
100
AcDbEntity
  8
HIKIDASHI
100
AcDbLine
 10
4229.88222494885
 20
1814.430061310486
 30
0.0
 11
5157.385362596277
 21
1814.430061310486
 31
0.0
  0
TEXT
  5
16832
330
1666B
100
AcDbEntity
  8
HIKIDASHI
100
AcDbText
 10
4269.88222494885
 20
1874.430061310486
 30
0.0
 40
120.0
  1
A  ~  A'
 41
0.6700000000000001
  7
00
100
AcDbText
  0
TEXT
  5
16833
330
1666B
100
AcDbEntity
  8
HIKIDASHI
100
AcDbText
 10
4755.238597610932
 20
1874.430061310486
 30
0.0
 40
120.0
  1
断  面
  7
01
100
AcDbText
  0
LINE
  5
16834
330
1666B
100
AcDbEntity
  8
1PL-M1
100
AcDbLine
 10
9076.103906328146
 20
4139.166484335344
 30
0.0
 11
9076.103906328146
 21
2619.166484335343
 31
0.0
  0
LINE
  5
16835
330
1666B
100
AcDbEntity
  8
U7
100
AcDbLine
 10
8068.103906328145
 20
3379.166484335347
 30
0.0
 11
9444.103906328146
 21
3379.166484335343
 31
0.0
  0
LINE
  5
16836
330
1666B
100
AcDbEntity
  8
U7
100
AcDbLine
 10
8068.103906328145
 20
3643.166484335343
 30
0.0
 11
9444.103906328146
 21
3643.166484335343
 31
0.0
  0
LINE
  5
16837
330
1666B
100
AcDbEntity
  8
HIDE-M1
100
AcDbLine
 10
8692.103906328146
 20
3763.166484335346
 30
0.0
 11
9460.103906328146
 21
3763.166484335346
 31
0.0
  0
LINE
  5
16838
330
1666B
100
AcDbEntity
  8
U7
100
AcDbLine
 10
9460.103906328146
 20
2995.166484335342
 30
0.0
 11
8692.103906328146
 21
2995.166484335342
 31
0.0
  0
LINE
  5
16839
330
1666B
100
AcDbEntity
  8
U7
100
AcDbLine
 10
8078.503906328148
 20
3907.166484335343
 30
0.0
 11
9433.703906328148
 21
3907.166484335343
 31
0.0
  0
LINE
  5
1683A
330
1666B
100
AcDbEntity
  8
HATCH
100
AcDbLine
 10
9063.390303915204
 20
4019.166484335346
 30
0.0
 11
8423.390303915207
 21
3379.166484335343
 31
0.0
  0
LINE
  5
1683B
330
1666B
100
AcDbEntity
  8
HATCH
100
AcDbLine
 10
9110.907879610943
 20
4019.166484335346
 30
0.0
 11
8470.907879610937
 21
3379.166484335343
 31
0.0
  0
LINE
  5
1683C
330
1666B
100
AcDbEntity
  8
HATCH
100
AcDbLine
 10
9015.87272821947
 20
4019.166484335346
 30
0.0
 11
8375.872728219471
 21
3379.166484335343
 31
0.0
  0
LINE
  5
1683D
330
1666B
100
AcDbEntity
  8
1PL-M1
100
AcDbLine
 10
9676.103906328146
 20
3379.166484335343
 30
0.0
 11
7836.103906328147
 21
3379.166484335343
 31
0.0
  0
LINE
  5
1683E
330
1666B
100
AcDbEntity
  8
U7
100
AcDbLine
 10
8618.503906328149
 20
3379.166484335343
 30
0.0
 11
8618.503906328149
 21
3907.166484335343
 31
0.0
  0
LINE
  5
1683F
330
1666B
100
AcDbEntity
  8
U7
100
AcDbLine
 10
8343.303906328145
 20
3379.166484335343
 30
0.0
 11
8343.303906328145
 21
3907.166484335343
 31
0.0
  0
LINE
  5
16840
330
1666B
100
AcDbEntity
  8
U7
100
AcDbLine
 10
8692.103906328146
 20
2995.166484335342
 30
0.0
 11
8692.103906328146
 21
3379.166484335343
 31
0.0
  0
LINE
  5
16841
330
1666B
100
AcDbEntity
  8
HATCH
100
AcDbLine
 10
8627.621482023887
 20
4015.397662444024
 30
0.0
 11
7991.39030391521
 21
3379.166484335343
 31
0.0
  0
LINE
  5
16842
330
1666B
100
AcDbEntity
  8
HATCH
100
AcDbLine
 10
8536.355152523737
 20
4019.166484335346
 30
0.0
 11
7956.103906328145
 21
3438.915238139751
 31
0.0
  0
LINE
  5
16843
330
1666B
100
AcDbEntity
  8
HATCH
100
AcDbLine
 10
8583.872728219473
 20
4019.166484335346
 30
0.0
 11
7956.103906328145
 21
3391.397662444014
 31
0.0
  0
LINE
  5
16844
330
1666B
100
AcDbEntity
  8
HATCH
100
AcDbLine
 10
8151.872728219478
 20
4019.166484335346
 30
0.0
 11
7956.103906328145
 21
3823.397662444017
 31
0.0
  0
LINE
  5
16845
330
1666B
100
AcDbEntity
  8
HATCH
100
AcDbLine
 10
8104.355152523746
 20
4019.166484335346
 30
0.0
 11
7956.103906328145
 21
3870.915238139749
 31
0.0
  0
LINE
  5
16846
330
1666B
100
AcDbEntity
  8
HATCH
100
AcDbLine
 10
8056.837576828007
 20
4019.166484335346
 30
0.0
 11
7956.103906328145
 21
3918.432813835492
 31
0.0
  0
LINE
  5
16847
330
1666B
100
AcDbEntity
  8
HIDE-M1
100
AcDbLine
 10
8692.103906328146
 20
3379.166484335343
 30
0.0
 11
8692.103906328146
 21
3763.166484335346
 31
0.0
  0
LINE
  5
16848
330
1666B
100
AcDbEntity
  8
U7
100
AcDbLine
 10
8068.103906328145
 20
3379.166484335347
 30
0.0
 11
8068.103906328145
 21
3896.766484335343
 31
0.0
  0
ARC
  5
16849
330
1666B
100
AcDbEntity
  8
U7
100
AcDbCircle
 10
8078.503906328148
 20
3896.766484335343
 30
0.0
 40
10.4
100
AcDbArc
 50
90.0
 51
180.0
  0
LINE
  5
1684A
330
1666B
100
AcDbEntity
  8
U7
100
AcDbLine
 10
9168.903906328148
 20
3379.166484335343
 30
0.0
 11
9168.903906328148
 21
3907.166484335343
 31
0.0
  0
LINE
  5
1684B
330
1666B
100
AcDbEntity
  8
U7
100
AcDbLine
 10
8893.703906328145
 20
3379.166484335343
 30
0.0
 11
8893.703906328145
 21
3907.166484335343
 31
0.0
  0
LINE
  5
1684C
330
1666B
100
AcDbEntity
  8
U7
100
AcDbLine
 10
9460.103906328146
 20
3379.166484335343
 30
0.0
 11
9460.103906328146
 21
2995.166484335342
 31
0.0
  0
LINE
  5
1684D
330
1666B
100
AcDbEntity
  8
HATCH
100
AcDbLine
 10
9495.390303915201
 20
4019.166484335346
 30
0.0
 11
8855.390303915198
 21
3379.166484335343
 31
0.0
  0
LINE
  5
1684E
330
1666B
100
AcDbEntity
  8
U7
100
AcDbLine
 10
9444.103906328146
 20
3896.766484335343
 30
0.0
 11
9444.103906328146
 21
3379.166484335343
 31
0.0
  0
LINE
  5
1684F
330
1666B
100
AcDbEntity
  8
HIDE-M1
100
AcDbLine
 10
9460.103906328146
 20
3379.166484335343
 30
0.0
 11
9460.103906328146
 21
3763.166484335346
 31
0.0
  0
LINE
  5
16850
330
1666B
100
AcDbEntity
  8
HATCH
100
AcDbLine
 10
9542.907879610941
 20
4019.166484335346
 30
0.0
 11
8902.907879610943
 21
3379.166484335343
 31
0.0
  0
LINE
  5
16851
330
1666B
100
AcDbEntity
  8
HATCH
100
AcDbLine
 10
9556.103906328152
 20
3984.844935356818
 30
0.0
 11
8950.425455306675
 21
3379.166484335343
 31
0.0
  0
LINE
  5
16852
330
1666B
100
AcDbEntity
  8
HATCH
100
AcDbLine
 10
9556.103906328152
 20
3600.362511052558
 30
0.0
 11
9334.907879610931
 21
3379.166484335343
 31
0.0
  0
LINE
  5
16853
330
1666B
100
AcDbEntity
  8
HATCH
100
AcDbLine
 10
9556.103906328152
 20
3552.844935356822
 30
0.0
 11
9382.425455306677
 21
3379.166484335343
 31
0.0
  0
LINE
  5
16854
330
1666B
100
AcDbEntity
  8
HATCH
100
AcDbLine
 10
9556.103906328152
 20
3505.327359661088
 30
0.0
 11
9429.943031002403
 21
3379.166484335343
 31
0.0
  0
ARC
  5
16855
330
1666B
100
AcDbEntity
  8
U7
100
AcDbCircle
 10
9433.703906328148
 20
3896.766484335343
 30
0.0
 40
10.4
100
AcDbArc
 50
0.0
 51
90.0
  0
LINE
  5
16856
330
1666B
100
AcDbEntity
  8
SUNPOU
100
AcDbLine
 10
8038.503906328148
 20
3907.166484335344
 30
0.0
 11
7497.84282377188
 21
3907.166484335344
 31
0.0
  0
LINE
  5
16857
330
1666B
100
AcDbEntity
  8
SUNPOU
100
AcDbLine
 10
8038.503906328148
 20
2851.166484335342
 30
0.0
 11
7497.84282377188
 21
2851.166484335342
 31
0.0
  0
LINE
  5
16858
330
1666B
100
AcDbEntity
  8
SUNPOU
100
AcDbLine
 10
7542.842823771883
 20
3887.166484335345
 30
0.0
 11
7542.842823771883
 21
2871.166484335343
 31
0.0
  0
TEXT
  5
16859
330
1666B
100
AcDbEntity
  8
SUNPOU
100
AcDbText
 10
7497.84282377188
 20
3473.165146684181
 30
0.0
 40
90.0
  1
5-D13
 50
90.0
 41
0.6666666666666666
  7
00
 72
     4
 11
7452.84282377188
 21
3626.022289541324
 31
0.0
100
AcDbText
  0
TEXT
  5
1685A
330
1666B
100
AcDbEntity
  8
SUNPOU
100
AcDbText
 10
7497.84282377188
 20
3010.530109148717
 30
0.0
 40
90.0
  1
ベース筋
 50
90.0
  7
01
 72
     4
 11
7452.84282377188
 21
3214.530109148717
 31
0.0
100
AcDbText
  0
LINE
  5
1685B
330
1666B
100
AcDbEntity
  8
SUNPOU
100
AcDbLine
 10
8068.103906328145
 20
3936.766484335345
 30
0.0
 11
8068.103906328145
 21
4335.544568577748
 31
0.0
  0
LINE
  5
1685C
330
1666B
100
AcDbEntity
  8
SUNPOU
100
AcDbLine
 10
9444.103906328146
 20
3936.766484335345
 30
0.0
 11
9444.103906328146
 21
4335.544568577748
 31
0.0
  0
LINE
  5
1685D
330
1666B
100
AcDbEntity
  8
SUNPOU
100
AcDbLine
 10
8088.103906328148
 20
4290.544568577749
 30
0.0
 11
9424.103906328147
 21
4290.544568577749
 31
0.0
  0
TEXT
  5
1685E
330
1666B
100
AcDbEntity
  8
SUNPOU
100
AcDbText
 10
8391.382523415897
 20
4335.544568577748
 30
0.0
 40
90.0
  1
ベース筋
  7
01
 72
     4
 11
8595.382523415898
 21
4380.544568577748
 31
0.0
100
AcDbText
  0
TEXT
  5
1685F
330
1666B
100
AcDbEntity
  8
SUNPOU
100
AcDbText
 10
8844.756437170245
 20
4335.544568577748
 30
0.0
 40
90.0
  1
6-D13
 41
0.6666666666666666
  7
00
 72
     4
 11
8999.042151455958
 21
4380.544568577748
 31
0.0
100
AcDbText
  0
LINE
  5
16860
330
1666B
100
AcDbEntity
  8
HATCH
100
AcDbLine
 10
3829.427373944298
 20
2997.718703522846
 30
0.0
 11
3909.427373944297
 21
2917.718703522844
 31
0.0
  0
LINE
  5
16861
330
1666B
100
AcDbEntity
  8
HATCH
100
AcDbLine
 10
3781.909798248566
 20
2997.718703522846
 30
0.0
 11
3861.909798248561
 21
2917.718703522842
 31
0.0
  0
LINE
  5
16862
330
1666B
100
AcDbEntity
  8
HATCH
100
AcDbLine
 10
3876.944949640033
 20
2997.718703522846
 30
0.0
 11
3956.944949640034
 21
2917.718703522844
 31
0.0
  0
LINE
  5
16863
330
1666B
100
AcDbEntity
  8
HATCH
100
AcDbLine
 10
4261.427373944298
 20
2997.718703522844
 30
0.0
 11
4341.427373944298
 21
2917.718703522844
 31
0.0
  0
LINE
  5
16864
330
1666B
100
AcDbEntity
  8
HATCH
100
AcDbLine
 10
4308.944949640034
 20
2997.718703522844
 30
0.0
 11
4388.94494964003
 21
2917.718703522844
 31
0.0
  0
LINE
  5
16865
330
1666B
100
AcDbEntity
  8
HATCH
100
AcDbLine
 10
4356.462525335766
 20
2997.718703522844
 30
0.0
 11
4436.46252533577
 21
2917.718703522844
 31
0.0
  0
LINE
  5
16866
330
1666B
100
AcDbEntity
  8
HATCH
100
AcDbLine
 10
4740.94494964003
 20
2997.718703522846
 30
0.0
 11
4820.94494964003
 21
2917.718703522844
 31
0.0
  0
LINE
  5
16867
330
1666B
100
AcDbEntity
  8
HATCH
100
AcDbLine
 10
4788.462525335769
 20
2997.718703522846
 30
0.0
 11
4868.462525335766
 21
2917.718703522844
 31
0.0
  0
LINE
  5
16868
330
1666B
100
AcDbEntity
  8
HATCH
100
AcDbLine
 10
4835.980101031502
 20
2997.718703522846
 30
0.0
 11
4915.980101031502
 21
2917.718703522844
 31
0.0
  0
LINE
  5
16869
330
1666B
100
AcDbEntity
  8
HATCH
100
AcDbLine
 10
5220.462525335766
 20
2997.718703522846
 30
0.0
 11
5300.462525335767
 21
2917.718703522846
 31
0.0
  0
LINE
  5
1686A
330
1666B
100
AcDbEntity
  8
HATCH
100
AcDbLine
 10
5267.980101031502
 20
2997.718703522846
 30
0.0
 11
5347.980101031502
 21
2917.718703522846
 31
0.0
  0
LINE
  5
1686B
330
1666B
100
AcDbEntity
  8
HATCH
100
AcDbLine
 10
5315.497676727233
 20
2997.718703522846
 30
0.0
 11
5395.497676727238
 21
2917.718703522846
 31
0.0
  0
LINE
  5
1686C
330
1666B
100
AcDbEntity
  8
KISO-1
100
AcDbLine
 10
6819.127507899648
 20
8143.693182432325
 30
0.0
 11
7619.127507899648
 21
8143.693182432325
 31
0.0
  0
LINE
  5
1686D
330
1666B
100
AcDbEntity
  8
KISO-1
100
AcDbLine
 10
7619.127507899648
 20
9143.693182432331
 30
0.0
 11
6819.127507899648
 21
9143.693182432331
 31
0.0
  0
LINE
  5
1686E
330
1666B
100
AcDbEntity
  8
KISO-1
100
AcDbLine
 10
6819.127507899648
 20
9143.693182432331
 30
0.0
 11
6819.127507899648
 21
9083.693182432327
 31
0.0
  0
LINE
  5
1686F
330
1666B
100
AcDbEntity
  8
SIN
100
AcDbLine
 10
7219.127507899648
 20
9210.693182432331
 30
0.0
 11
7219.127507899648
 21
8076.693182432325
 31
0.0
  0
LINE
  5
16870
330
1666B
100
AcDbEntity
  8
KISO-1
100
AcDbLine
 10
7619.127507899648
 20
8143.693182432325
 30
0.0
 11
7619.127507899648
 21
9143.693182432331
 31
0.0
  0
CIRCLE
  5
16871
330
1666B
100
AcDbEntity
  8
KISO-2
100
AcDbCircle
 10
7219.127507899648
 20
8843.69318243233
 30
0.0
 40
44.55
  0
LINE
  5
16872
330
1666B
100
AcDbEntity
  8
BOLT
100
AcDbLine
 10
7089.127507899648
 20
8743.69318243233
 30
0.0
 11
7149.127507899649
 21
8743.69318243233
 31
0.0
  0
LINE
  5
16873
330
1666B
100
AcDbEntity
  8
BOLT
100
AcDbLine
 10
7119.127507899648
 20
8713.693182432331
 30
0.0
 11
7119.127507899648
 21
8773.69318243233
 31
0.0
  0
LINE
  5
16874
330
1666B
100
AcDbEntity
  8
BOLT
100
AcDbLine
 10
7349.127507899649
 20
8743.69318243233
 30
0.0
 11
7289.127507899649
 21
8743.69318243233
 31
0.0
  0
LINE
  5
16875
330
1666B
100
AcDbEntity
  8
BOLT
100
AcDbLine
 10
7319.127507899648
 20
8713.693182432331
 30
0.0
 11
7319.127507899648
 21
8773.69318243233
 31
0.0
  0
LINE
  5
16876
330
1666B
100
AcDbEntity
  8
SIN
100
AcDbLine
 10
7338.67750789965
 20
8843.69318243233
 30
0.0
 11
7099.57750789965
 21
8843.69318243233
 31
0.0
  0
LINE
  5
16877
330
1666B
100
AcDbEntity
  8
BOLT
100
AcDbLine
 10
7089.127507899648
 20
8943.693182432332
 30
0.0
 11
7149.127507899649
 21
8943.693182432332
 31
0.0
  0
LINE
  5
16878
330
1666B
100
AcDbEntity
  8
BOLT
100
AcDbLine
 10
7119.127507899648
 20
8973.693182432331
 30
0.0
 11
7119.127507899648
 21
8913.693182432325
 31
0.0
  0
LINE
  5
16879
330
1666B
100
AcDbEntity
  8
BOLT
100
AcDbLine
 10
7349.127507899649
 20
8943.693182432332
 30
0.0
 11
7289.127507899649
 21
8943.693182432332
 31
0.0
  0
LINE
  5
1687A
330
1666B
100
AcDbEntity
  8
BOLT
100
AcDbLine
 10
7319.127507899648
 20
8973.693182432331
 30
0.0
 11
7319.127507899648
 21
8913.693182432325
 31
0.0
  0
LINE
  5
1687B
330
1666B
100
AcDbEntity
  8
SUNPOU
100
AcDbLine
 10
10049.12750789964
 20
9143.693182432331
 30
0.0
 11
10304.12750789962
 21
9143.693182432331
 31
0.0
  0
LINE
  5
1687C
330
1666B
100
AcDbEntity
  8
SUNPOU
100
AcDbLine
 10
9779.127507899644
 20
8943.693182432332
 30
0.0
 11
10514.12750789963
 21
8943.693182432332
 31
0.0
  0
LINE
  5
1687D
330
1666B
100
AcDbEntity
  8
SUNPOU
100
AcDbLine
 10
9779.127507899644
 20
8743.69318243233
 30
0.0
 11
10514.12750789963
 21
8743.69318243233
 31
0.0
  0
LINE
  5
1687E
330
1666B
100
AcDbEntity
  8
SUNPOU
100
AcDbLine
 10
10049.12750789964
 20
8143.693182432325
 30
0.0
 11
10724.12750789963
 21
8143.693182432325
 31
0.0
  0
LINE
  5
1687F
330
1666B
100
AcDbEntity
  8
SUNPOU
100
AcDbLine
 10
10049.12750789964
 20
9083.693182432327
 30
0.0
 11
10724.12750789963
 21
9083.693182432327
 31
0.0
  0
LINE
  5
16880
330
1666B
100
AcDbEntity
  8
SUNPOU
100
AcDbLine
 10
9889.127507899637
 20
8603.693182432333
 30
0.0
 11
10724.12750789963
 21
8603.693182432333
 31
0.0
  0
LINE
  5
16881
330
1666B
100
AcDbEntity
  8
SIN
100
AcDbLine
 10
9619.127507899644
 20
9210.693182432331
 30
0.0
 11
9619.127507899644
 21
8076.693182432325
 31
0.0
  0
LINE
  5
16882
330
1666B
100
AcDbEntity
  8
SUNPOU
100
AcDbLine
 10
9219.127507899644
 20
9173.693182432328
 30
0.0
 11
9219.127507899644
 21
10058.69318243232
 31
0.0
  0
LINE
  5
16883
330
1666B
100
AcDbEntity
  8
SUNPOU
100
AcDbLine
 10
9859.127507899637
 20
9113.693182432324
 30
0.0
 11
9859.127507899637
 21
9848.693182432331
 31
0.0
  0
LINE
  5
16884
330
1666B
100
AcDbEntity
  8
SUNPOU
100
AcDbLine
 10
9379.127507899644
 20
9113.693182432324
 30
0.0
 11
9379.127507899644
 21
9848.693182432331
 31
0.0
  0
LINE
  5
16885
330
1666B
100
AcDbEntity
  8
SUNPOU
100
AcDbLine
 10
9759.127507899645
 20
9013.693182432325
 30
0.0
 11
9759.127507899645
 21
9638.693182432325
 31
0.0
  0
LINE
  5
16886
330
1666B
100
AcDbEntity
  8
SUNPOU
100
AcDbLine
 10
9479.127507899645
 20
9013.693182432325
 30
0.0
 11
9479.127507899645
 21
9638.693182432325
 31
0.0
  0
LINE
  5
16887
330
1666B
100
AcDbEntity
  8
SUNPOU
100
AcDbLine
 10
9719.127507899644
 20
9003.693182432327
 30
0.0
 11
9719.127507899644
 21
9428.693182432327
 31
0.0
  0
LINE
  5
16888
330
1666B
100
AcDbEntity
  8
SUNPOU
100
AcDbLine
 10
9519.127507899645
 20
9003.693182432327
 30
0.0
 11
9519.127507899645
 21
9428.693182432327
 31
0.0
  0
LINE
  5
16889
330
1666B
100
AcDbEntity
  8
HIKIDASHI
100
AcDbLine
 10
9476.811727078544
 20
8986.229927647503
 30
0.0
 11
9081.413163111404
 21
9383.693182432327
 31
0.0
  0
LINE
  5
1688A
330
1666B
100
AcDbEntity
  8
HIKIDASHI
100
AcDbLine
 10
9669.741872077906
 20
8977.767497898419
 30
0.0
 11
9081.413163111404
 21
9383.693182432331
 31
0.0
  0
LINE
  5
1688B
330
1666B
100
AcDbEntity
  8
SUNPOU
100
AcDbLine
 10
10019.12750789963
 20
9173.693182432328
 30
0.0
 11
10019.12750789963
 21
10058.69318243232
 31
0.0
  0
LINE
  5
1688C
330
1666B
100
AcDbEntity
  8
SUNPOU
100
AcDbLine
 10
9469.577507899643
 20
8843.69318243233
 30
0.0
 11
8724.127507899643
 21
8843.69318243233
 31
0.0
  0
LINE
  5
1688D
330
1666B
100
AcDbEntity
  8
HIKIDASHI
100
AcDbLine
 10
8965.728054863346
 20
8200.107713759622
 30
0.0
 11
9081.413163111411
 21
8200.107713759622
 31
0.0
  0
LINE
  5
1688E
330
1666B
100
AcDbEntity
  8
SUNPOU
100
AcDbLine
 10
9189.127507899645
 20
8143.693182432325
 30
0.0
 11
8514.127507899644
 21
8143.693182432325
 31
0.0
  0
LINE
  5
1688F
330
1666B
100
AcDbEntity
  8
SUNPOU
100
AcDbLine
 10
9189.127507899645
 20
9143.693182432331
 30
0.0
 11
8514.127507899644
 21
9143.693182432331
 31
0.0
  0
LINE
  5
16890
330
1666B
100
AcDbEntity
  8
SUNPOU
100
AcDbLine
 10
8559.127507899644
 20
8158.693182432331
 30
0.0
 11
8559.127507899644
 21
9128.693182432327
 31
0.0
  0
LINE
  5
16891
330
1666B
100
AcDbEntity
  8
SUNPOU
100
AcDbLine
 10
8769.127507899645
 20
8158.693182432331
 30
0.0
 11
8769.127507899645
 21
8828.693182432331
 31
0.0
  0
TEXT
  5
16892
330
1666B
100
AcDbEntity
  8
SUNPOU
100
AcDbText
 10
8724.127507899643
 20
8407.978896718045
 30
0.0
 40
90.0
  1
700
 50
90.0
 41
0.6666666666666666
  7
00
 72
     1
 11
8679.127507899645
 21
8493.69318243233
 31
0.0
100
AcDbText
 73
     2
  0
TEXT
  5
16893
330
1666B
100
AcDbEntity
  8
HIKIDASHI
100
AcDbText
 10
8975.728054863346
 20
8245.107713759622
 30
0.0
 40
90.0
  1
柱
  7
01
100
AcDbText
  0
TEXT
  5
16894
330
1666B
100
AcDbEntity
  8
SUNPOU
100
AcDbText
 10
8514.127507899644
 20
8525.121753860901
 30
0.0
 40
90.0
  1
1000
 50
90.0
 41
0.6666666666666666
  7
00
 72
     1
 11
8469.127507899644
 21
8643.693182432331
 31
0.0
100
AcDbText
 73
     2
  0
TEXT
  5
16895
330
1666B
100
AcDbEntity
  8
SUNPOU
100
AcDbText
 10
8724.127507899643
 20
8900.541137189696
 30
0.0
 40
90.0
  1
300
 50
90.0
 41
0.6666666666666666
  7
00
 72
     1
 11
8679.127507899645
 21
8986.255422903981
 31
0.0
100
AcDbText
 73
     2
  0
LINE
  5
16896
330
1666B
100
AcDbEntity
  8
SUNPOU
100
AcDbLine
 10
8769.127507899645
 20
8858.693182432325
 30
0.0
 11
8769.127507899645
 21
9128.693182432327
 31
0.0
  0
LINE
  5
16897
330
1666B
100
AcDbEntity
  8
KISO-1
100
AcDbLine
 10
9219.127507899644
 20
8143.693182432325
 30
0.0
 11
9219.127507899644
 21
9143.693182432331
 31
0.0
  0
LINE
  5
16898
330
1666B
100
AcDbEntity
  8
HIKIDASHI
100
AcDbLine
 10
9552.093788298131
 20
8763.461125644624
 30
0.0
 11
9081.413163111411
 21
8200.107713759622
 31
0.0
  0
LINE
  5
16899
330
1666B
100
AcDbEntity
  8
KISO-1
100
AcDbLine
 10
10019.12750789963
 20
8143.693182432325
 30
0.0
 11
9219.127507899644
 21
8143.693182432325
 31
0.0
  0
LINE
  5
1689A
330
1666B
100
AcDbEntity
  8
KISO-1
100
AcDbLine
 10
9219.127507899644
 20
9143.693182432331
 30
0.0
 11
10019.12750789963
 21
9143.693182432331
 31
0.0
  0
LINE
  5
1689B
330
1666B
100
AcDbEntity
  8
SIN
100
AcDbLine
 10
9738.67750789965
 20
8843.69318243233
 30
0.0
 11
9499.577507899642
 21
8843.69318243233
 31
0.0
  0
LINE
  5
1689C
330
1666B
100
AcDbEntity
  8
BOLT
100
AcDbLine
 10
9519.127507899645
 20
8713.693182432331
 30
0.0
 11
9519.127507899645
 21
8773.69318243233
 31
0.0
  0
LINE
  5
1689D
330
1666B
100
AcDbEntity
  8
BOLT
100
AcDbLine
 10
9489.127507899649
 20
8743.69318243233
 30
0.0
 11
9549.127507899644
 21
8743.69318243233
 31
0.0
  0
LINE
  5
1689E
330
1666B
100
AcDbEntity
  8
BOLT
100
AcDbLine
 10
9519.127507899645
 20
8973.693182432331
 30
0.0
 11
9519.127507899645
 21
8913.693182432325
 31
0.0
  0
LINE
  5
1689F
330
1666B
100
AcDbEntity
  8
BOLT
100
AcDbLine
 10
9489.127507899649
 20
8943.693182432332
 30
0.0
 11
9549.127507899644
 21
8943.693182432332
 31
0.0
  0
CIRCLE
  5
168A0
330
1666B
100
AcDbEntity
  8
KISO-2
100
AcDbCircle
 10
9619.127507899644
 20
8843.69318243233
 30
0.0
 40
44.55
  0
LINE
  5
168A1
330
1666B
100
AcDbEntity
  8
BOLT
100
AcDbLine
 10
9749.127507899643
 20
8743.69318243233
 30
0.0
 11
9689.127507899645
 21
8743.69318243233
 31
0.0
  0
LINE
  5
168A2
330
1666B
100
AcDbEntity
  8
BOLT
100
AcDbLine
 10
9719.127507899644
 20
8713.693182432331
 30
0.0
 11
9719.127507899644
 21
8773.69318243233
 31
0.0
  0
LINE
  5
168A3
330
1666B
100
AcDbEntity
  8
BOLT
100
AcDbLine
 10
9749.127507899643
 20
8943.693182432332
 30
0.0
 11
9689.127507899645
 21
8943.693182432332
 31
0.0
  0
LINE
  5
168A4
330
1666B
100
AcDbEntity
  8
BOLT
100
AcDbLine
 10
9719.127507899644
 20
8973.693182432331
 30
0.0
 11
9719.127507899644
 21
8913.693182432325
 31
0.0
  0
LINE
  5
168A5
330
1666B
100
AcDbEntity
  8
KISO-1
100
AcDbLine
 10
10019.12750789963
 20
9143.693182432331
 30
0.0
 11
10019.12750789963
 21
9083.693182432327
 31
0.0
  0
TEXT
  5
168A6
330
1666B
100
AcDbEntity
  8
SUNPOU
100
AcDbText
 10
9533.413222185357
 20
9848.693182432331
 30
0.0
 40
90.0
  1
480
 41
0.6666666666666666
  7
00
 72
     1
 11
9619.127507899644
 21
9893.693182432331
 31
0.0
100
AcDbText
 73
     2
  0
TEXT
  5
168A7
330
1666B
100
AcDbEntity
  8
SUNPOU
100
AcDbText
 10
9849.127507899638
 20
9848.693182432331
 30
0.0
 40
90.0
  1
160
 41
0.6666666666666666
  7
00
 72
     4
 11
9939.127507899637
 21
9893.693182432331
 31
0.0
100
AcDbText
  0
TEXT
  5
168A8
330
1666B
100
AcDbEntity
  8
SUNPOU
100
AcDbText
 10
9209.127507899644
 20
9848.693182432331
 30
0.0
 40
90.0
  1
160
 41
0.6666666666666666
  7
00
 72
     4
 11
9299.127507899644
 21
9893.693182432331
 31
0.0
100
AcDbText
  0
TEXT
  5
168A9
330
1666B
100
AcDbEntity
  8
SUNPOU
100
AcDbText
 10
9533.413222185357
 20
9638.693182432326
 30
0.0
 40
90.0
  1
280
 41
0.6666666666666666
  7
00
 72
     1
 11
9619.127507899644
 21
9683.693182432328
 31
0.0
100
AcDbText
 73
     2
  0
TEXT
  5
168AA
330
1666B
100
AcDbEntity
  8
SUNPOU
100
AcDbText
 10
9533.413222185357
 20
9428.693182432331
 30
0.0
 40
90.0
  1
200
 41
0.6666666666666666
  7
00
 72
     1
 11
9619.127507899644
 21
9473.693182432331
 31
0.0
100
AcDbText
 73
     2
  0
LINE
  5
168AB
330
1666B
100
AcDbEntity
  8
SUNPOU
100
AcDbLine
 10
9704.127507899645
 20
9383.693182432327
 30
0.0
 11
9534.127507899645
 21
9383.693182432327
 31
0.0
  0
LINE
  5
168AC
330
1666B
100
AcDbEntity
  8
SUNPOU
100
AcDbLine
 10
9844.127507899637
 20
9803.693182432327
 30
0.0
 11
9394.127507899645
 21
9803.693182432327
 31
0.0
  0
LINE
  5
168AD
330
1666B
100
AcDbEntity
  8
SUNPOU
100
AcDbLine
 10
9744.127507899644
 20
9593.693182432328
 30
0.0
 11
9494.127507899644
 21
9593.693182432328
 31
0.0
  0
LINE
  5
168AE
330
1666B
100
AcDbEntity
  8
SUNPOU
100
AcDbLine
 10
9364.127507899643
 20
9803.693182432327
 30
0.0
 11
9234.127507899644
 21
9803.693182432327
 31
0.0
  0
LINE
  5
168AF
330
1666B
100
AcDbEntity
  8
SUNPOU
100
AcDbLine
 10
10004.12750789964
 20
9803.693182432327
 30
0.0
 11
9874.127507899636
 21
9803.693182432327
 31
0.0
  0
TEXT
  5
168B0
330
1666B
100
AcDbEntity
  8
SUNPOU
100
AcDbText
 10
9533.413222185357
 20
10058.69318243232
 30
0.0
 40
90.0
  1
800
 41
0.6666666666666666
  7
00
 72
     1
 11
9619.127507899644
 21
10103.69318243232
 31
0.0
100
AcDbText
 73
     2
  0
LINE
  5
168B1
330
1666B
100
AcDbEntity
  8
SUNPOU
100
AcDbLine
 10
10004.12750789964
 20
10013.69318243232
 30
0.0
 11
9234.127507899644
 21
10013.69318243232
 31
0.0
  0
TEXT
  5
168B2
330
1666B
100
AcDbEntity
  8
SUNPOU
100
AcDbText
 10
10634.12750789964
 20
9166.484739998395
 30
0.0
 40
90.0
  1
60
 50
90.0
 41
0.6666666666666666
  7
00
 72
     4
 11
10589.12750789964
 21
9225.056168569825
 31
0.0
100
AcDbText
  0
LINE
  5
168B3
330
1666B
100
AcDbEntity
  8
SUNPOU
100
AcDbLine
 10
10679.12750789963
 20
9143.693182432331
 30
0.0
 11
10679.12750789963
 21
9288.712578282012
 31
0.0
  0
TEXT
  5
168B4
330
1666B
100
AcDbEntity
  8
SUNPOU
100
AcDbText
 10
10424.12750789962
 20
9094.004202463258
 30
0.0
 40
90.0
  1
140
 50
90.0
 41
0.6666666666666666
  7
00
 72
     4
 11
10379.12750789963
 21
9184.004202463258
 31
0.0
100
AcDbText
  0
LINE
  5
168B5
330
1666B
100
AcDbEntity
  8
SUNPOU
100
AcDbLine
 10
10469.12750789964
 20
9083.693182432327
 30
0.0
 11
10469.12750789964
 21
9268.677953603893
 31
0.0
  0
LINE
  5
168B6
330
1666B
100
AcDbEntity
  8
SUNPOU
100
AcDbLine
 10
10679.12750789963
 20
8588.693182432326
 30
0.0
 11
10679.12750789963
 21
8158.693182432331
 31
0.0
  0
TEXT
  5
168B7
330
1666B
100
AcDbEntity
  8
SUNPOU
100
AcDbText
 10
10424.12750789962
 20
8418.543114346546
 30
0.0
 40
90.0
  1
140
 50
90.0
 41
0.6666666666666666
  7
00
 72
     4
 11
10379.12750789963
 21
8508.543114346547
 31
0.0
100
AcDbText
  0
LINE
  5
168B8
330
1666B
100
AcDbEntity
  8
SUNPOU
100
AcDbLine
 10
10469.12750789964
 20
8603.693182432333
 30
0.0
 11
10469.12750789964
 21
8425.724440024493
 31
0.0
  0
TEXT
  5
168B9
330
1666B
100
AcDbEntity
  8
SUNPOU
100
AcDbText
 10
10634.12750789964
 20
8287.978896718039
 30
0.0
 40
90.0
  1
460
 50
90.0
 41
0.6666666666666666
  7
00
 72
     1
 11
10589.12750789964
 21
8373.693182432326
 31
0.0
100
AcDbText
 73
     2
  0
TEXT
  5
168BA
330
1666B
100
AcDbEntity
  8
SUNPOU
100
AcDbText
 10
10634.12750789964
 20
8757.978896718045
 30
0.0
 40
90.0
  1
480
 50
90.0
 41
0.6666666666666666
  7
00
 72
     1
 11
10589.12750789964
 21
8843.69318243233
 31
0.0
100
AcDbText
 73
     2
  0
LINE
  5
168BB
330
1666B
100
AcDbEntity
  8
SUNPOU
100
AcDbLine
 10
10499.12750789963
 20
9143.693182432331
 30
0.0
 11
10724.12750789963
 21
9143.693182432331
 31
0.0
  0
TEXT
  5
168BC
330
1666B
100
AcDbEntity
  8
SUNPOU
100
AcDbText
 10
10424.12750789962
 20
8757.978896718045
 30
0.0
 40
90.0
  1
200
 50
90.0
 41
0.6666666666666666
  7
00
 72
     4
 11
10379.12750789963
 21
8843.69318243233
 31
0.0
100
AcDbText
  0
LINE
  5
168BD
330
1666B
100
AcDbEntity
  8
SUNPOU
100
AcDbLine
 10
10469.12750789964
 20
8928.693182432326
 30
0.0
 11
10469.12750789964
 21
8758.693182432331
 31
0.0
  0
LINE
  5
168BE
330
1666B
100
AcDbEntity
  8
SUNPOU
100
AcDbLine
 10
10469.12750789964
 20
8728.693182432333
 30
0.0
 11
10469.12750789964
 21
8618.69318243233
 31
0.0
  0
LINE
  5
168BF
330
1666B
100
AcDbEntity
  8
SUNPOU
100
AcDbLine
 10
10469.12750789964
 20
9068.693182432332
 30
0.0
 11
10469.12750789964
 21
8958.693182432325
 31
0.0
  0
LINE
  5
168C0
330
1666B
100
AcDbEntity
  8
SUNPOU
100
AcDbLine
 10
10679.12750789963
 20
9068.693182432332
 30
0.0
 11
10679.12750789963
 21
8618.69318243233
 31
0.0
  0
LINE
  5
168C1
330
1666B
100
AcDbEntity
  8
SUNPOU
100
AcDbLine
 10
10679.12750789963
 20
9128.693182432327
 30
0.0
 11
10679.12750789963
 21
9098.693182432331
 31
0.0
  0
TEXT
  5
168C2
330
1666B
100
AcDbEntity
  8
HIKIDASHI
100
AcDbText
 10
7371.463608904512
 20
9428.693182432331
 30
0.0
 40
90.00009018009018
  1
アンカーボルト
  7
01
100
AcDbText
  0
LINE
  5
168C3
330
1666B
100
AcDbEntity
  8
HIKIDASHI
100
AcDbLine
 10
7337.185923955978
 20
9383.693182432331
 30
0.0
 11
9081.413163111399
 21
9383.693182432331
 31
0.0
  0
TEXT
  5
168C4
330
1666B
100
AcDbEntity
  8
HIKIDASHI
100
AcDbText
 10
8131.800663509892
 20
9428.693182432331
 30
0.0
 40
89.55223880597012
  1
W ／
 41
0.6700000000000001
  7
00
100
AcDbText
  0
TEXT
  5
168C5
330
1666B
100
AcDbEntity
  8
HIKIDASHI
100
AcDbText
 10
8206.401474193118
 20
9455.122792071227
 30
0.0
 40
67.16417910447761
  1
1
 41
0.6700000000000001
  7
00
100
AcDbText
  0
TEXT
  5
168C6
330
1666B
100
AcDbEntity
  8
HIKIDASHI
100
AcDbText
 10
8447.263827095545
 20
9428.48419623224
 30
0.0
 40
89.55223880597012
  1
400
 41
0.6700000000000001
  7
00
100
AcDbText
  0
TEXT
  5
168C7
330
1666B
100
AcDbEntity
  8
HIKIDASHI
100
AcDbText
 10
8294.293510752041
 20
9428.096737040663
 30
0.0
 40
67.16417910447761
  1
2
 41
0.6700000000000001
  7
00
100
AcDbText
  0
TEXT
  5
168C8
330
1666B
100
AcDbEntity
  8
HIKIDASHI
100
AcDbText
 10
8366.128447942413
 20
9439.887212283082
 30
0.0
 40
89.55223880597012
  1
x
 41
0.6700000000000001
  7
00
100
AcDbText
  0
TEXT
  5
168C9
330
1666B
100
AcDbEntity
  8
HIKIDASHI
100
AcDbText
 10
8688.983981157052
 20
9428.693182432331
 30
0.0
 40
90.00009018009018
  1
（別途）
  7
01
100
AcDbText
  0
LINE
  5
168CA
330
1666B
100
AcDbEntity
  8
SUNPOU
100
AcDbLine
 10
8559.127507899644
 20
8154.943182432328
 30
0.0
 11
8559.127507899644
 21
8166.193182432333
 31
0.0
  0
LINE
  5
168CB
330
1666B
100
AcDbEntity
  8
SUNPOU
100
AcDbLine
 10
8769.127507899645
 20
8154.943182432328
 30
0.0
 11
8769.127507899645
 21
8166.193182432333
 31
0.0
  0
LINE
  5
168CC
330
1666B
100
AcDbEntity
  8
SUNPOU
100
AcDbLine
 10
8559.127507899644
 20
9132.443182432327
 30
0.0
 11
8559.127507899644
 21
9121.193182432325
 31
0.0
  0
LINE
  5
168CD
330
1666B
100
AcDbEntity
  8
SUNPOU
100
AcDbLine
 10
8769.127507899645
 20
8854.943182432331
 30
0.0
 11
8769.127507899645
 21
8866.193182432326
 31
0.0
  0
LINE
  5
168CE
330
1666B
100
AcDbEntity
  8
SUNPOU
100
AcDbLine
 10
8769.127507899645
 20
8832.443182432326
 30
0.0
 11
8769.127507899645
 21
8821.193182432326
 31
0.0
  0
LINE
  5
168CF
330
1666B
100
AcDbEntity
  8
SUNPOU
100
AcDbLine
 10
8769.127507899645
 20
9132.443182432327
 30
0.0
 11
8769.127507899645
 21
9121.193182432325
 31
0.0
  0
LINE
  5
168D0
330
1666B
100
AcDbEntity
  8
SUNPOU
100
AcDbLine
 10
9530.377507899641
 20
9383.693182432327
 30
0.0
 11
9541.627507899645
 21
9383.693182432327
 31
0.0
  0
LINE
  5
168D1
330
1666B
100
AcDbEntity
  8
SUNPOU
100
AcDbLine
 10
9230.377507899644
 20
9803.693182432327
 30
0.0
 11
9241.627507899645
 21
9803.693182432327
 31
0.0
  0
LINE
  5
168D2
330
1666B
100
AcDbEntity
  8
SUNPOU
100
AcDbLine
 10
9490.377507899644
 20
9593.693182432328
 30
0.0
 11
9501.627507899645
 21
9593.693182432328
 31
0.0
  0
LINE
  5
168D3
330
1666B
100
AcDbEntity
  8
SUNPOU
100
AcDbLine
 10
9367.877507899644
 20
9803.693182432327
 30
0.0
 11
9356.627507899643
 21
9803.693182432327
 31
0.0
  0
LINE
  5
168D4
330
1666B
100
AcDbEntity
  8
SUNPOU
100
AcDbLine
 10
9390.377507899644
 20
9803.693182432327
 30
0.0
 11
9401.627507899648
 21
9803.693182432327
 31
0.0
  0
LINE
  5
168D5
330
1666B
100
AcDbEntity
  8
SUNPOU
100
AcDbLine
 10
9707.877507899649
 20
9383.693182432327
 30
0.0
 11
9696.627507899645
 21
9383.693182432327
 31
0.0
  0
LINE
  5
168D6
330
1666B
100
AcDbEntity
  8
SUNPOU
100
AcDbLine
 10
9747.877507899644
 20
9593.693182432328
 30
0.0
 11
9736.627507899644
 21
9593.693182432328
 31
0.0
  0
LINE
  5
168D7
330
1666B
100
AcDbEntity
  8
SUNPOU
100
AcDbLine
 10
9847.877507899637
 20
9803.693182432327
 30
0.0
 11
9836.627507899637
 21
9803.693182432327
 31
0.0
  0
LINE
  5
168D8
330
1666B
100
AcDbEntity
  8
SUNPOU
100
AcDbLine
 10
9870.377507899638
 20
9803.693182432327
 30
0.0
 11
9881.627507899636
 21
9803.693182432327
 31
0.0
  0
LINE
  5
168D9
330
1666B
100
AcDbEntity
  8
SUNPOU
100
AcDbLine
 10
10007.87750789962
 20
9803.693182432327
 30
0.0
 11
9996.627507899638
 21
9803.693182432327
 31
0.0
  0
LINE
  5
168DA
330
1666B
100
AcDbEntity
  8
SUNPOU
100
AcDbLine
 10
9230.377507899644
 20
10013.69318243232
 30
0.0
 11
9241.627507899645
 21
10013.69318243232
 31
0.0
  0
LINE
  5
168DB
330
1666B
100
AcDbEntity
  8
SUNPOU
100
AcDbLine
 10
10007.87750789962
 20
10013.69318243232
 30
0.0
 11
9996.627507899638
 21
10013.69318243232
 31
0.0
  0
LINE
  5
168DC
330
1666B
100
AcDbEntity
  8
SUNPOU
100
AcDbLine
 10
10679.12750789963
 20
8154.943182432328
 30
0.0
 11
10679.12750789963
 21
8166.193182432333
 31
0.0
  0
LINE
  5
168DD
330
1666B
100
AcDbEntity
  8
SUNPOU
100
AcDbLine
 10
10469.12750789964
 20
8614.943182432325
 30
0.0
 11
10469.12750789964
 21
8626.193182432325
 31
0.0
  0
LINE
  5
168DE
330
1666B
100
AcDbEntity
  8
SUNPOU
100
AcDbLine
 10
10469.12750789964
 20
8732.443182432332
 30
0.0
 11
10469.12750789964
 21
8721.193182432331
 31
0.0
  0
LINE
  5
168DF
330
1666B
100
AcDbEntity
  8
SUNPOU
100
AcDbLine
 10
10469.12750789964
 20
8754.943182432331
 30
0.0
 11
10469.12750789964
 21
8766.193182432331
 31
0.0
  0
LINE
  5
168E0
330
1666B
100
AcDbEntity
  8
SUNPOU
100
AcDbLine
 10
10469.12750789964
 20
8932.443182432326
 30
0.0
 11
10469.12750789964
 21
8921.193182432325
 31
0.0
  0
LINE
  5
168E1
330
1666B
100
AcDbEntity
  8
SUNPOU
100
AcDbLine
 10
10469.12750789964
 20
8954.94318243233
 30
0.0
 11
10469.12750789964
 21
8966.193182432332
 31
0.0
  0
LINE
  5
168E2
330
1666B
100
AcDbEntity
  8
SUNPOU
100
AcDbLine
 10
10469.12750789964
 20
9072.443182432332
 30
0.0
 11
10469.12750789964
 21
9061.193182432328
 31
0.0
  0
LINE
  5
168E3
330
1666B
100
AcDbEntity
  8
SUNPOU
100
AcDbLine
 10
10679.12750789963
 20
8592.443182432326
 30
0.0
 11
10679.12750789963
 21
8581.193182432331
 31
0.0
  0
LINE
  5
168E4
330
1666B
100
AcDbEntity
  8
SUNPOU
100
AcDbLine
 10
10679.12750789963
 20
8614.943182432325
 30
0.0
 11
10679.12750789963
 21
8626.193182432325
 31
0.0
  0
LINE
  5
168E5
330
1666B
100
AcDbEntity
  8
SUNPOU
100
AcDbLine
 10
10679.12750789963
 20
9072.443182432332
 30
0.0
 11
10679.12750789963
 21
9061.193182432328
 31
0.0
  0
LINE
  5
168E6
330
1666B
100
AcDbEntity
  8
SUNPOU
100
AcDbLine
 10
10679.12750789963
 20
9094.943182432327
 30
0.0
 11
10679.12750789963
 21
9106.193182432331
 31
0.0
  0
LINE
  5
168E7
330
1666B
100
AcDbEntity
  8
SUNPOU
100
AcDbLine
 10
10679.12750789963
 20
9132.443182432327
 30
0.0
 11
10679.12750789963
 21
9121.193182432325
 31
0.0
  0
LINE
  5
168E8
330
1666B
100
AcDbEntity
  8
WAKUSEN-01
100
AcDbLine
 10
434.0000000000008
 20
413.9999999999997
 30
0.0
 11
16382.0
 21
413.9999999999997
 31
0.0
  0
LINE
  5
168E9
330
1666B
100
AcDbEntity
  8
WAKUSEN-01
100
AcDbLine
 10
434.0000000000008
 20
11242.0
 30
0.0
 11
16382.0
 21
11242.0
 31
0.0
  0
LINE
  5
168EA
330
1666B
100
AcDbEntity
  8
WAKUSEN-01
100
AcDbLine
 10
434.0000000000008
 20
413.9999999999997
 30
0.0
 11
434.0000000000008
 21
11242.0
 31
0.0
  0
LINE
  5
168EB
330
1666B
100
AcDbEntity
  8
WAKUSEN-01
100
AcDbLine
 10
16382.0
 20
413.9999999999997
 30
0.0
 11
16382.0
 21
11242.0
 31
0.0
  0
LINE
  5
168EC
330
1666B
100
AcDbEntity
  8
WAKUSEN-01
100
AcDbLine
 10
10280.0
 20
1242.0
 30
0.0
 11
16382.0
 21
1242.0
 31
0.0
  0
LINE
  5
168ED
330
1666B
100
AcDbEntity
  8
WAKUSEN-02
100
AcDbLine
 10
10280.0
 20
827.9999999999997
 30
0.0
 11
13434.0
 21
827.9999999999997
 31
0.0
  0
TEXT
  5
168EE
330
1666B
100
AcDbEntity
  8
WAKUMOJI-01
100
AcDbText
 10
10335.13012998137
 20
1062.951504669661
 30
0.0
 40
120.0
  1
名　称
  7
WAKUMOJI
100
AcDbText
  0
TEXT
  5
168EF
330
1666B
100
AcDbEntity
  8
WAKUMOJI-01
100
AcDbText
 10
10328.25274254596
 20
659.5644874899107
 30
0.0
 40
120.0
  1
図面名
  7
WAKUMOJI
100
AcDbText
  0
LINE
  5
168F0
330
1666B
100
AcDbEntity
  8
WAKUSEN-01
100
AcDbLine
 10
10280.0
 20
413.9999999999985
 30
0.0
 11
10280.0
 21
1242.0
 31
0.0
  0
LINE
  5
168F1
330
1666B
100
AcDbEntity
  8
WAKUSEN-02
100
AcDbLine
 10
13434.0
 20
413.9999999999963
 30
0.0
 11
13434.0
 21
1242.0
 31
0.0
  0
ARC
  5
168F2
330
1666B
100
AcDbEntity
  8
SUNPOU
100
AcDbCircle
 10
10679.12750789963
 20
9143.693182432327
 30
0.0
 40
5.624999999998181
100
AcDbArc
 50
270.0
 51
90.0
  0
ARC
  5
168F3
330
1666B
100
AcDbEntity
  8
SUNPOU
100
AcDbCircle
 10
10679.12750789963
 20
9143.693182432327
 30
0.0
 40
5.624999999998181
100
AcDbArc
 50
90.0
 51
270.0
  0
ARC
  5
168F4
330
1666B
100
AcDbEntity
  8
SUNPOU
100
AcDbCircle
 10
10679.12750789963
 20
9083.693182432332
 30
0.0
 40
5.625
100
AcDbArc
 50
90.0
 51
270.0
  0
ARC
  5
168F5
330
1666B
100
AcDbEntity
  8
SUNPOU
100
AcDbCircle
 10
10679.12750789963
 20
9083.693182432332
 30
0.0
 40
5.625
100
AcDbArc
 50
270.0
 51
90.0
  0
ARC
  5
168F6
330
1666B
100
AcDbEntity
  8
SUNPOU
100
AcDbCircle
 10
10679.12750789963
 20
9083.693182432332
 30
0.0
 40
5.625
100
AcDbArc
 50
270.0
 51
90.0
  0
ARC
  5
168F7
330
1666B
100
AcDbEntity
  8
SUNPOU
100
AcDbCircle
 10
10679.12750789963
 20
9083.693182432332
 30
0.0
 40
5.625
100
AcDbArc
 50
90.0
 51
270.0
  0
ARC
  5
168F8
330
1666B
100
AcDbEntity
  8
SUNPOU
100
AcDbCircle
 10
10679.12750789963
 20
8603.693182432326
 30
0.0
 40
5.625000000001817
100
AcDbArc
 50
90.0
 51
270.0
  0
ARC
  5
168F9
330
1666B
100
AcDbEntity
  8
SUNPOU
100
AcDbCircle
 10
10679.12750789963
 20
8603.693182432326
 30
0.0
 40
5.625000000001817
100
AcDbArc
 50
270.0
 51
90.0
  0
ARC
  5
168FA
330
1666B
100
AcDbEntity
  8
SUNPOU
100
AcDbCircle
 10
10679.12750789963
 20
8603.693182432326
 30
0.0
 40
5.625000000001817
100
AcDbArc
 50
270.0
 51
90.0
  0
ARC
  5
168FB
330
1666B
100
AcDbEntity
  8
SUNPOU
100
AcDbCircle
 10
10679.12750789963
 20
8603.693182432326
 30
0.0
 40
5.625000000001817
100
AcDbArc
 50
90.0
 51
270.0
  0
ARC
  5
168FC
330
1666B
100
AcDbEntity
  8
SUNPOU
100
AcDbCircle
 10
10469.12750789964
 20
9083.693182432332
 30
0.0
 40
5.625
100
AcDbArc
 50
270.0
 51
90.0
  0
ARC
  5
168FD
330
1666B
100
AcDbEntity
  8
SUNPOU
100
AcDbCircle
 10
10469.12750789964
 20
9083.693182432332
 30
0.0
 40
5.625
100
AcDbArc
 50
90.0
 51
270.0
  0
ARC
  5
168FE
330
1666B
100
AcDbEntity
  8
SUNPOU
100
AcDbCircle
 10
10469.12750789964
 20
8943.693182432332
 30
0.0
 40
5.624999999998181
100
AcDbArc
 50
90.0
 51
270.0
  0
ARC
  5
168FF
330
1666B
100
AcDbEntity
  8
SUNPOU
100
AcDbCircle
 10
10469.12750789964
 20
8943.693182432332
 30
0.0
 40
5.624999999998181
100
AcDbArc
 50
270.0
 51
90.0
  0
ARC
  5
16900
330
1666B
100
AcDbEntity
  8
SUNPOU
100
AcDbCircle
 10
10469.12750789964
 20
8943.693182432332
 30
0.0
 40
5.624999999998181
100
AcDbArc
 50
270.0
 51
90.0
  0
ARC
  5
16901
330
1666B
100
AcDbEntity
  8
SUNPOU
100
AcDbCircle
 10
10469.12750789964
 20
8943.693182432332
 30
0.0
 40
5.624999999998181
100
AcDbArc
 50
90.0
 51
270.0
  0
ARC
  5
16902
330
1666B
100
AcDbEntity
  8
SUNPOU
100
AcDbCircle
 10
10469.12750789964
 20
8743.69318243233
 30
0.0
 40
5.625
100
AcDbArc
 50
90.0
 51
270.0
  0
ARC
  5
16903
330
1666B
100
AcDbEntity
  8
SUNPOU
100
AcDbCircle
 10
10469.12750789964
 20
8743.69318243233
 30
0.0
 40
5.625
100
AcDbArc
 50
270.0
 51
90.0
  0
ARC
  5
16904
330
1666B
100
AcDbEntity
  8
SUNPOU
100
AcDbCircle
 10
10469.12750789964
 20
8743.69318243233
 30
0.0
 40
5.625
100
AcDbArc
 50
270.0
 51
90.0
  0
ARC
  5
16905
330
1666B
100
AcDbEntity
  8
SUNPOU
100
AcDbCircle
 10
10469.12750789964
 20
8743.69318243233
 30
0.0
 40
5.625
100
AcDbArc
 50
90.0
 51
270.0
  0
ARC
  5
16906
330
1666B
100
AcDbEntity
  8
SUNPOU
100
AcDbCircle
 10
10469.12750789964
 20
8603.693182432326
 30
0.0
 40
5.625000000001817
100
AcDbArc
 50
90.0
 51
270.0
  0
ARC
  5
16907
330
1666B
100
AcDbEntity
  8
SUNPOU
100
AcDbCircle
 10
10469.12750789964
 20
8603.693182432326
 30
0.0
 40
5.625000000001817
100
AcDbArc
 50
270.0
 51
90.0
  0
ARC
  5
16908
330
1666B
100
AcDbEntity
  8
SUNPOU
100
AcDbCircle
 10
10679.12750789963
 20
8143.693182432331
 30
0.0
 40
5.624999999998181
100
AcDbArc
 50
90.0
 51
270.0
  0
ARC
  5
16909
330
1666B
100
AcDbEntity
  8
SUNPOU
100
AcDbCircle
 10
10679.12750789963
 20
8143.693182432331
 30
0.0
 40
5.624999999998181
100
AcDbArc
 50
270.0
 51
90.0
  0
ARC
  5
1690A
330
1666B
100
AcDbEntity
  8
SUNPOU
100
AcDbCircle
 10
10019.12750789963
 20
10013.69318243232
 30
0.0
 40
5.625
100
AcDbArc
 50
180.0
 51
0.0
  0
ARC
  5
1690B
330
1666B
100
AcDbEntity
  8
SUNPOU
100
AcDbCircle
 10
10019.12750789963
 20
10013.69318243232
 30
0.0
 40
5.625
100
AcDbArc
 50
0.0
 51
180.0
  0
ARC
  5
1690C
330
1666B
100
AcDbEntity
  8
SUNPOU
100
AcDbCircle
 10
9219.127507899644
 20
10013.69318243232
 30
0.0
 40
5.625
100
AcDbArc
 50
0.0
 51
180.0
  0
ARC
  5
1690D
330
1666B
100
AcDbEntity
  8
SUNPOU
100
AcDbCircle
 10
9219.127507899644
 20
10013.69318243232
 30
0.0
 40
5.625
100
AcDbArc
 50
180.0
 51
0.0
  0
ARC
  5
1690E
330
1666B
100
AcDbEntity
  8
SUNPOU
100
AcDbCircle
 10
10019.12750789963
 20
9803.693182432327
 30
0.0
 40
5.625
100
AcDbArc
 50
180.0
 51
0.0
  0
ARC
  5
1690F
330
1666B
100
AcDbEntity
  8
SUNPOU
100
AcDbCircle
 10
10019.12750789963
 20
9803.693182432327
 30
0.0
 40
5.625
100
AcDbArc
 50
0.0
 51
180.0
  0
ARC
  5
16910
330
1666B
100
AcDbEntity
  8
SUNPOU
100
AcDbCircle
 10
9859.127507899637
 20
9803.693182432327
 30
0.0
 40
5.625
100
AcDbArc
 50
0.0
 51
180.0
  0
ARC
  5
16911
330
1666B
100
AcDbEntity
  8
SUNPOU
100
AcDbCircle
 10
9859.127507899637
 20
9803.693182432327
 30
0.0
 40
5.625
100
AcDbArc
 50
180.0
 51
0.0
  0
ARC
  5
16912
330
1666B
100
AcDbEntity
  8
SUNPOU
100
AcDbCircle
 10
9859.127507899637
 20
9803.693182432327
 30
0.0
 40
5.625
100
AcDbArc
 50
180.0
 51
0.0
  0
ARC
  5
16913
330
1666B
100
AcDbEntity
  8
SUNPOU
100
AcDbCircle
 10
9859.127507899637
 20
9803.693182432327
 30
0.0
 40
5.625
100
AcDbArc
 50
0.0
 51
180.0
  0
ARC
  5
16914
330
1666B
100
AcDbEntity
  8
SUNPOU
100
AcDbCircle
 10
9759.127507899645
 20
9593.693182432328
 30
0.0
 40
5.625
100
AcDbArc
 50
180.0
 51
0.0
  0
ARC
  5
16915
330
1666B
100
AcDbEntity
  8
SUNPOU
100
AcDbCircle
 10
9759.127507899645
 20
9593.693182432328
 30
0.0
 40
5.625
100
AcDbArc
 50
0.0
 51
180.0
  0
ARC
  5
16916
330
1666B
100
AcDbEntity
  8
SUNPOU
100
AcDbCircle
 10
9719.127507899644
 20
9383.693182432327
 30
0.0
 40
5.625
100
AcDbArc
 50
180.0
 51
0.0
  0
ARC
  5
16917
330
1666B
100
AcDbEntity
  8
SUNPOU
100
AcDbCircle
 10
9719.127507899644
 20
9383.693182432327
 30
0.0
 40
5.625
100
AcDbArc
 50
0.0
 51
180.0
  0
ARC
  5
16918
330
1666B
100
AcDbEntity
  8
SUNPOU
100
AcDbCircle
 10
9379.127507899644
 20
9803.693182432327
 30
0.0
 40
5.625
100
AcDbArc
 50
0.0
 51
180.0
  0
ARC
  5
16919
330
1666B
100
AcDbEntity
  8
SUNPOU
100
AcDbCircle
 10
9379.127507899644
 20
9803.693182432327
 30
0.0
 40
5.625
100
AcDbArc
 50
180.0
 51
0.0
  0
ARC
  5
1691A
330
1666B
100
AcDbEntity
  8
SUNPOU
100
AcDbCircle
 10
9379.127507899644
 20
9803.693182432327
 30
0.0
 40
5.625
100
AcDbArc
 50
180.0
 51
0.0
  0
ARC
  5
1691B
330
1666B
100
AcDbEntity
  8
SUNPOU
100
AcDbCircle
 10
9379.127507899644
 20
9803.693182432327
 30
0.0
 40
5.625
100
AcDbArc
 50
0.0
 51
180.0
  0
ARC
  5
1691C
330
1666B
100
AcDbEntity
  8
SUNPOU
100
AcDbCircle
 10
9479.127507899645
 20
9593.693182432328
 30
0.0
 40
5.624999999998181
100
AcDbArc
 50
0.0
 51
180.0
  0
ARC
  5
1691D
330
1666B
100
AcDbEntity
  8
SUNPOU
100
AcDbCircle
 10
9479.127507899645
 20
9593.693182432328
 30
0.0
 40
5.624999999998181
100
AcDbArc
 50
180.0
 51
0.0
  0
ARC
  5
1691E
330
1666B
100
AcDbEntity
  8
SUNPOU
100
AcDbCircle
 10
9219.127507899644
 20
9803.693182432327
 30
0.0
 40
5.625
100
AcDbArc
 50
0.0
 51
180.0
  0
ARC
  5
1691F
330
1666B
100
AcDbEntity
  8
SUNPOU
100
AcDbCircle
 10
9219.127507899644
 20
9803.693182432327
 30
0.0
 40
5.625
100
AcDbArc
 50
180.0
 51
0.0
  0
ARC
  5
16920
330
1666B
100
AcDbEntity
  8
SUNPOU
100
AcDbCircle
 10
9519.127507899645
 20
9383.693182432327
 30
0.0
 40
5.625
100
AcDbArc
 50
0.0
 51
180.0
  0
ARC
  5
16921
330
1666B
100
AcDbEntity
  8
SUNPOU
100
AcDbCircle
 10
9519.127507899645
 20
9383.693182432327
 30
0.0
 40
5.625
100
AcDbArc
 50
180.0
 51
0.0
  0
ARC
  5
16922
330
1666B
100
AcDbEntity
  8
SUNPOU
100
AcDbCircle
 10
8769.127507899645
 20
9143.693182432327
 30
0.0
 40
5.624999999998181
100
AcDbArc
 50
270.0
 51
90.0
  0
ARC
  5
16923
330
1666B
100
AcDbEntity
  8
SUNPOU
100
AcDbCircle
 10
8769.127507899645
 20
9143.693182432327
 30
0.0
 40
5.624999999998181
100
AcDbArc
 50
90.0
 51
270.0
  0
ARC
  5
16924
330
1666B
100
AcDbEntity
  8
SUNPOU
100
AcDbCircle
 10
8769.127507899645
 20
8843.69318243233
 30
0.0
 40
5.624999999998181
100
AcDbArc
 50
270.0
 51
90.0
  0
ARC
  5
16925
330
1666B
100
AcDbEntity
  8
SUNPOU
100
AcDbCircle
 10
8769.127507899645
 20
8843.69318243233
 30
0.0
 40
5.624999999998181
100
AcDbArc
 50
90.0
 51
270.0
  0
ARC
  5
16926
330
1666B
100
AcDbEntity
  8
SUNPOU
100
AcDbCircle
 10
8769.127507899645
 20
8843.69318243233
 30
0.0
 40
5.624999999998181
100
AcDbArc
 50
90.0
 51
270.0
  0
ARC
  5
16927
330
1666B
100
AcDbEntity
  8
SUNPOU
100
AcDbCircle
 10
8769.127507899645
 20
8843.69318243233
 30
0.0
 40
5.624999999998181
100
AcDbArc
 50
270.0
 51
90.0
  0
ARC
  5
16928
330
1666B
100
AcDbEntity
  8
SUNPOU
100
AcDbCircle
 10
8559.127507899644
 20
9143.693182432327
 30
0.0
 40
5.624999999998181
100
AcDbArc
 50
270.0
 51
90.0
  0
ARC
  5
16929
330
1666B
100
AcDbEntity
  8
SUNPOU
100
AcDbCircle
 10
8559.127507899644
 20
9143.693182432327
 30
0.0
 40
5.624999999998181
100
AcDbArc
 50
90.0
 51
270.0
  0
ARC
  5
1692A
330
1666B
100
AcDbEntity
  8
SUNPOU
100
AcDbCircle
 10
8769.127507899645
 20
8143.693182432331
 30
0.0
 40
5.624999999998181
100
AcDbArc
 50
90.0
 51
270.0
  0
ARC
  5
1692B
330
1666B
100
AcDbEntity
  8
SUNPOU
100
AcDbCircle
 10
8769.127507899645
 20
8143.693182432331
 30
0.0
 40
5.624999999998181
100
AcDbArc
 50
270.0
 51
90.0
  0
ARC
  5
1692C
330
1666B
100
AcDbEntity
  8
SUNPOU
100
AcDbCircle
 10
8559.127507899644
 20
8143.693182432331
 30
0.0
 40
5.624999999998181
100
AcDbArc
 50
90.0
 51
270.0
  0
ARC
  5
1692D
330
1666B
100
AcDbEntity
  8
SUNPOU
100
AcDbCircle
 10
8559.127507899644
 20
8143.693182432331
 30
0.0
 40
5.624999999998181
100
AcDbArc
 50
270.0
 51
90.0
  0
LINE
  5
1692E
330
1666B
100
AcDbEntity
  8
SUNPOU
100
AcDbLine
 10
9500.103906328147
 20
2995.166484335344
 30
0.0
 11
10051.96981489397
 21
2995.166484335344
 31
0.0
  0
LINE
  5
1692F
330
1666B
100
AcDbEntity
  8
SUNPOU
100
AcDbLine
 10
9500.103906328147
 20
3763.166484335345
 30
0.0
 11
10051.96981489397
 21
3763.166484335345
 31
0.0
  0
LINE
  5
16930
330
1666B
100
AcDbEntity
  8
SUNPOU
100
AcDbLine
 10
10006.96981489397
 20
3015.166484335344
 30
0.0
 11
10006.96981489397
 21
3743.166484335344
 31
0.0
  0
LINE
  5
16931
330
1666B
100
AcDbEntity
  8
SUNPOU
100
AcDbLine
 10
9596.103906328146
 20
4019.166484335345
 30
0.0
 11
10261.96981489396
 21
4019.166484335345
 31
0.0
  0
LINE
  5
16932
330
1666B
100
AcDbEntity
  8
SUNPOU
100
AcDbLine
 10
9596.103906328146
 20
2739.166484335346
 30
0.0
 11
10261.96981489396
 21
2739.166484335346
 31
0.0
  0
LINE
  5
16933
330
1666B
100
AcDbEntity
  8
SUNPOU
100
AcDbLine
 10
10216.96981489397
 20
3999.166484335344
 30
0.0
 11
10216.96981489397
 21
2759.166484335347
 31
0.0
  0
LINE
  5
16934
330
1666B
100
AcDbEntity
  8
SUNPOU
  6
ByBlock
100
AcDbLine
 10
9429.103906328146
 20
4290.544568577749
 30
0.0
 11
9414.103906328149
 21
4290.544568577749
 31
0.0
  0
LINE
  5
16935
330
1666B
100
AcDbEntity
  8
SUNPOU
  6
ByBlock
100
AcDbLine
 10
8083.103906328146
 20
4290.544568577749
 30
0.0
 11
8098.103906328146
 21
4290.544568577749
 31
0.0
  0
LINE
  5
16936
330
1666B
100
AcDbEntity
  8
SUNPOU
  6
ByBlock
100
AcDbLine
 10
7542.842823771883
 20
2866.166484335343
 30
0.0
 11
7542.842823771883
 21
2881.166484335343
 31
0.0
  0
LINE
  5
16937
330
1666B
100
AcDbEntity
  8
SUNPOU
  6
ByBlock
100
AcDbLine
 10
7542.842823771883
 20
3892.166484335344
 30
0.0
 11
7542.842823771883
 21
3877.166484335345
 31
0.0
  0
LINE
  5
16938
330
1666B
100
AcDbEntity
  8
SUNPOU
100
AcDbLine
 10
9460.103906328146
 20
2955.166484335343
 30
0.0
 11
9460.103906328146
 21
2413.731788496596
 31
0.0
  0
LINE
  5
16939
330
1666B
100
AcDbEntity
  8
SUNPOU
100
AcDbLine
 10
8692.103906328146
 20
2955.166484335343
 30
0.0
 11
8692.103906328146
 21
2413.731788496596
 31
0.0
  0
LINE
  5
1693A
330
1666B
100
AcDbEntity
  8
SUNPOU
100
AcDbLine
 10
9440.103906328145
 20
2458.731788496596
 30
0.0
 11
8712.103906328144
 21
2458.731788496596
 31
0.0
  0
LINE
  5
1693B
330
1666B
100
AcDbEntity
  8
SUNPOU
100
AcDbLine
 10
7956.103906328145
 20
2699.166484335345
 30
0.0
 11
7956.103906328145
 21
2203.731788496596
 31
0.0
  0
LINE
  5
1693C
330
1666B
100
AcDbEntity
  8
SUNPOU
100
AcDbLine
 10
9556.103906328145
 20
2699.166484335345
 30
0.0
 11
9556.103906328145
 21
2203.731788496596
 31
0.0
  0
LINE
  5
1693D
330
1666B
100
AcDbEntity
  8
SUNPOU
100
AcDbLine
 10
7976.103906328146
 20
2248.731788496596
 30
0.0
 11
9536.103906328149
 21
2248.731788496596
 31
0.0
  0
LINE
  5
1693E
330
1666B
100
AcDbEntity
  8
SUNPOU
100
AcDbLine
 10
4423.640454405493
 20
4045.718703522843
 30
0.0
 11
4423.640454405493
 21
4553.184975705781
 31
0.0
  0
LINE
  5
1693F
330
1666B
100
AcDbEntity
  8
SUNPOU
100
AcDbLine
 10
5191.640454405494
 20
4045.718703522845
 30
0.0
 11
5191.640454405494
 21
4553.184975705781
 31
0.0
  0
LINE
  5
16940
330
1666B
100
AcDbEntity
  8
SUNPOU
100
AcDbLine
 10
4443.640454405493
 20
4508.184975705781
 30
0.0
 11
5171.640454405493
 21
4508.184975705781
 31
0.0
  0
LINE
  5
16941
330
1666B
100
AcDbEntity
  8
SUNPOU
100
AcDbLine
 10
5327.640454405493
 20
3765.718703522844
 30
0.0
 11
5974.218436245827
 21
3765.718703522844
 31
0.0
  0
LINE
  5
16942
330
1666B
100
AcDbEntity
  8
SUNPOU
100
AcDbLine
 10
5231.640454405493
 20
4005.718703522845
 30
0.0
 11
5974.218436245827
 21
4005.718703522845
 31
0.0
  0
LINE
  5
16943
330
1666B
100
AcDbEntity
  8
SUNPOU
100
AcDbLine
 10
5929.218436245825
 20
3785.718703522847
 30
0.0
 11
5929.218436245825
 21
3985.718703522845
 31
0.0
  0
LINE
  5
16944
330
1666B
100
AcDbEntity
  8
SUNPOU
100
AcDbLine
 10
5929.218436245825
 20
4005.718703522845
 30
0.0
 11
5929.218436245825
 21
4261.432989237134
 31
0.0
  0
LINE
  5
16945
330
1666B
100
AcDbEntity
  8
SUNPOU
100
AcDbLine
 10
5487.640454405497
 20
2917.718703522846
 30
0.0
 11
5974.218436245823
 21
2917.718703522846
 31
0.0
  0
LINE
  5
16946
330
1666B
100
AcDbEntity
  8
SUNPOU
100
AcDbLine
 10
5487.640454405497
 20
2997.718703522846
 30
0.0
 11
5974.218436245823
 21
2997.718703522846
 31
0.0
  0
LINE
  5
16947
330
1666B
100
AcDbEntity
  8
SUNPOU
100
AcDbLine
 10
5929.218436245825
 20
2897.718703522846
 30
0.0
 11
5929.218436245825
 21
2877.718703522845
 31
0.0
  0
LINE
  5
16948
330
1666B
100
AcDbEntity
  8
SUNPOU
100
AcDbLine
 10
5929.218436245825
 20
3017.718703522846
 30
0.0
 11
5929.218436245825
 21
3037.718703522845
 31
0.0
  0
LINE
  5
16949
330
1666B
100
AcDbEntity
  8
SUNPOU
100
AcDbLine
 10
5929.218436245825
 20
2917.718703522846
 30
0.0
 11
5929.218436245825
 21
2997.718703522846
 31
0.0
  0
LINE
  5
1694A
330
1666B
100
AcDbEntity
  8
SUNPOU
100
AcDbLine
 10
5487.640454405497
 20
2917.718703522846
 30
0.0
 11
5974.218436245823
 21
2917.718703522846
 31
0.0
  0
LINE
  5
1694B
330
1666B
100
AcDbEntity
  8
SUNPOU
100
AcDbLine
 10
5487.640454405497
 20
2757.718703522846
 30
0.0
 11
5974.218436245823
 21
2757.718703522846
 31
0.0
  0
LINE
  5
1694C
330
1666B
100
AcDbEntity
  8
SUNPOU
100
AcDbLine
 10
5929.218436245825
 20
2897.718703522846
 30
0.0
 11
5929.218436245825
 21
2777.718703522845
 31
0.0
  0
LINE
  5
1694D
330
1666B
100
AcDbEntity
  8
SUNPOU
100
AcDbLine
 10
5929.218436245825
 20
2757.718703522846
 30
0.0
 11
5929.218436245825
 21
2502.00441780856
 31
0.0
  0
LINE
  5
1694E
330
1666B
100
AcDbEntity
  8
SUNPOU
100
AcDbLine
 10
5327.640454405493
 20
3765.718703522844
 30
0.0
 11
5974.218436245823
 21
3765.718703522844
 31
0.0
  0
LINE
  5
1694F
330
1666B
100
AcDbEntity
  8
SUNPOU
100
AcDbLine
 10
5487.640454405497
 20
2997.718703522846
 30
0.0
 11
5974.218436245823
 21
2997.718703522846
 31
0.0
  0
LINE
  5
16950
330
1666B
100
AcDbEntity
  8
SUNPOU
100
AcDbLine
 10
5929.218436245825
 20
3745.718703522845
 30
0.0
 11
5929.218436245825
 21
3017.718703522846
 31
0.0
  0
LINE
  5
16951
330
1666B
100
AcDbEntity
  8
SUNPOU
100
AcDbLine
 10
4807.640454405497
 20
2498.731788496596
 30
0.0
 11
4807.640454405497
 21
2503.731788496596
 31
0.0
  0
LINE
  5
16952
330
1666B
100
AcDbEntity
  8
SUNPOU
100
AcDbLine
 10
5287.640454405501
 20
2717.718703522844
 30
0.0
 11
5287.640454405501
 21
2413.731788496596
 31
0.0
  0
LINE
  5
16953
330
1666B
100
AcDbEntity
  8
SUNPOU
100
AcDbLine
 10
4827.640454405496
 20
2458.731788496596
 30
0.0
 11
5267.640454405499
 21
2458.731788496596
 31
0.0
  0
LINE
  5
16954
330
1666B
100
AcDbEntity
  8
SUNPOU
100
AcDbLine
 10
3687.640454405497
 20
2717.718703522842
 30
0.0
 11
3687.640454405497
 21
2413.731788496596
 31
0.0
  0
LINE
  5
16955
330
1666B
100
AcDbEntity
  8
SUNPOU
100
AcDbLine
 10
4807.640454405497
 20
2498.731788496596
 30
0.0
 11
4807.640454405497
 21
2503.731788496596
 31
0.0
  0
LINE
  5
16956
330
1666B
100
AcDbEntity
  8
SUNPOU
100
AcDbLine
 10
3707.640454405496
 20
2458.731788496596
 30
0.0
 11
4787.640454405496
 21
2458.731788496596
 31
0.0
  0
LINE
  5
16957
330
1666B
100
AcDbEntity
  8
SUNPOU
100
AcDbLine
 10
3687.640454405497
 20
2717.718703522842
 30
0.0
 11
3687.640454405497
 21
2203.731788496596
 31
0.0
  0
LINE
  5
16958
330
1666B
100
AcDbEntity
  8
SUNPOU
100
AcDbLine
 10
5287.640454405501
 20
2717.718703522844
 30
0.0
 11
5287.640454405501
 21
2203.731788496596
 31
0.0
  0
LINE
  5
16959
330
1666B
100
AcDbEntity
  8
SUNPOU
100
AcDbLine
 10
3707.640454405496
 20
2248.731788496596
 30
0.0
 11
5267.640454405499
 21
2248.731788496596
 31
0.0
  0
LINE
  5
1695A
330
1666B
100
AcDbEntity
  8
SUNPOU
100
AcDbLine
 10
6819.127507899648
 20
6803.693182432329
 30
0.0
 11
6819.127507899648
 21
6138.693182432328
 31
0.0
  0
LINE
  5
1695B
330
1666B
100
AcDbEntity
  8
SUNPOU
100
AcDbLine
 10
10019.12750789964
 20
6803.693182432329
 30
0.0
 11
10019.12750789964
 21
6138.693182432328
 31
0.0
  0
LINE
  5
1695C
330
1666B
100
AcDbEntity
  8
SUNPOU
100
AcDbLine
 10
6839.127507899648
 20
6183.693182432328
 30
0.0
 11
9999.127507899649
 21
6183.693182432328
 31
0.0
  0
LINE
  5
1695D
330
1666B
100
AcDbEntity
  8
SUNPOU
100
AcDbLine
 10
7059.577507899648
 20
8843.69318243233
 30
0.0
 11
6324.127507899649
 21
8843.69318243233
 31
0.0
  0
LINE
  5
1695E
330
1666B
100
AcDbEntity
  8
SUNPOU
100
AcDbLine
 10
6779.127507899649
 20
9083.693182432327
 30
0.0
 11
6324.127507899649
 21
9083.693182432327
 31
0.0
  0
LINE
  5
1695F
330
1666B
100
AcDbEntity
  8
SUNPOU
100
AcDbLine
 10
6369.127507899649
 20
8823.693182432331
 30
0.0
 11
6369.127507899649
 21
8803.693182432331
 31
0.0
  0
LINE
  5
16960
330
1666B
100
AcDbEntity
  8
SUNPOU
100
AcDbLine
 10
6369.127507899649
 20
9103.693182432328
 30
0.0
 11
6369.127507899649
 21
9123.693182432328
 31
0.0
  0
LINE
  5
16961
330
1666B
100
AcDbEntity
  8
SUNPOU
100
AcDbLine
 10
6369.127507899649
 20
8843.69318243233
 30
0.0
 11
6369.127507899649
 21
9083.693182432327
 31
0.0
  0
LINE
  5
16962
330
1666B
100
AcDbEntity
  8
SUNPOU
100
AcDbLine
 10
6779.127507899649
 20
6843.693182432328
 30
0.0
 11
6324.127507899649
 21
6843.693182432328
 31
0.0
  0
LINE
  5
16963
330
1666B
100
AcDbEntity
  8
SUNPOU
100
AcDbLine
 10
7059.577507899648
 20
8843.69318243233
 30
0.0
 11
6324.127507899649
 21
8843.69318243233
 31
0.0
  0
LINE
  5
16964
330
1666B
100
AcDbEntity
  8
SUNPOU
100
AcDbLine
 10
6369.127507899649
 20
6863.693182432328
 30
0.0
 11
6369.127507899649
 21
8823.693182432331
 31
0.0
  0
LINE
  5
16965
330
1666B
100
AcDbEntity
  8
SUNPOU
100
AcDbLine
 10
9619.127507899644
 20
8036.693182432328
 30
0.0
 11
9619.127507899644
 21
6348.693182432328
 31
0.0
  0
LINE
  5
16966
330
1666B
100
AcDbEntity
  8
SUNPOU
100
AcDbLine
 10
10019.12750789964
 20
6803.693182432329
 30
0.0
 11
10019.12750789964
 21
6348.693182432328
 31
0.0
  0
LINE
  5
16967
330
1666B
100
AcDbEntity
  8
SUNPOU
100
AcDbLine
 10
9639.127507899644
 20
6393.693182432328
 30
0.0
 11
9999.127507899649
 21
6393.693182432328
 31
0.0
  0
LINE
  5
16968
330
1666B
100
AcDbEntity
  8
SUNPOU
100
AcDbLine
 10
7219.127507899648
 20
8036.693182432328
 30
0.0
 11
7219.127507899648
 21
6348.693182432328
 31
0.0
  0
LINE
  5
16969
330
1666B
100
AcDbEntity
  8
SUNPOU
100
AcDbLine
 10
9619.127507899644
 20
8036.693182432328
 30
0.0
 11
9619.127507899644
 21
6348.693182432328
 31
0.0
  0
LINE
  5
1696A
330
1666B
100
AcDbEntity
  8
SUNPOU
100
AcDbLine
 10
7239.127507899649
 20
6393.693182432328
 30
0.0
 11
9599.127507899643
 21
6393.693182432328
 31
0.0
  0
LINE
  5
1696B
330
1666B
100
AcDbEntity
  8
SUNPOU
100
AcDbLine
 10
6819.127507899648
 20
6803.693182432329
 30
0.0
 11
6819.127507899648
 21
6348.693182432328
 31
0.0
  0
LINE
  5
1696C
330
1666B
100
AcDbEntity
  8
SUNPOU
100
AcDbLine
 10
7219.127507899648
 20
8036.693182432328
 30
0.0
 11
7219.127507899648
 21
6348.693182432328
 31
0.0
  0
LINE
  5
1696D
330
1666B
100
AcDbEntity
  8
SUNPOU
100
AcDbLine
 10
6839.127507899648
 20
6393.693182432328
 30
0.0
 11
7199.12750789965
 21
6393.693182432328
 31
0.0
  0
TEXT
  5
1696E
330
1666B
100
AcDbEntity
  8
SUNPOU
100
AcDbText
 10
9961.969814893976
 20
3293.45219862106
 30
0.0
 40
90.0
  1
480
 50
90.0
 41
0.6666666666666666
  7
00
100
AcDbText
  0
LINE
  5
1696F
330
1666B
100
AcDbEntity
  8
SUNPOU
  6
ByBlock
100
AcDbLine
 10
10006.96981489397
 20
3748.166484335345
 30
0.0
 11
10006.96981489397
 21
3733.166484335344
 31
0.0
  0
LINE
  5
16970
330
1666B
100
AcDbEntity
  8
SUNPOU
  6
ByBlock
100
AcDbLine
 10
10006.96981489397
 20
3010.166484335345
 30
0.0
 11
10006.96981489397
 21
3025.166484335344
 31
0.0
  0
TEXT
  5
16971
330
1666B
100
AcDbEntity
  8
SUNPOU
100
AcDbText
 10
10171.96981489397
 20
3293.452198621062
 30
0.0
 40
90.0
  1
800
 50
90.0
 41
0.6666666666666666
  7
00
100
AcDbText
  0
LINE
  5
16972
330
1666B
100
AcDbEntity
  8
SUNPOU
  6
ByBlock
100
AcDbLine
 10
10216.96981489397
 20
2754.166484335347
 30
0.0
 11
10216.96981489397
 21
2769.166484335347
 31
0.0
  0
LINE
  5
16973
330
1666B
100
AcDbEntity
  8
SUNPOU
  6
ByBlock
100
AcDbLine
 10
10216.96981489397
 20
4004.166484335344
 30
0.0
 11
10216.96981489397
 21
3989.166484335344
 31
0.0
  0
ARC
  5
16974
330
1666B
100
AcDbEntity
  8
SUNPOU
  6
ByBlock
100
AcDbCircle
 10
9444.103906328146
 20
4290.544568577749
 30
0.0
 40
7.5
100
AcDbArc
 50
180.0
 51
0.0
  0
ARC
  5
16975
330
1666B
100
AcDbEntity
  8
SUNPOU
  6
ByBlock
100
AcDbCircle
 10
9444.103906328146
 20
4290.544568577749
 30
0.0
 40
7.5
100
AcDbArc
 50
0.0
 51
180.0
  0
ARC
  5
16976
330
1666B
100
AcDbEntity
  8
SUNPOU
  6
ByBlock
100
AcDbCircle
 10
8068.103906328145
 20
4290.544568577749
 30
0.0
 40
7.5
100
AcDbArc
 50
0.0
 51
180.0
  0
ARC
  5
16977
330
1666B
100
AcDbEntity
  8
SUNPOU
  6
ByBlock
100
AcDbCircle
 10
8068.103906328145
 20
4290.544568577749
 30
0.0
 40
7.5
100
AcDbArc
 50
180.0
 51
0.0
  0
ARC
  5
16978
330
1666B
100
AcDbEntity
  8
SUNPOU
  6
ByBlock
100
AcDbCircle
 10
7542.842823771883
 20
2851.166484335342
 30
0.0
 40
7.5
100
AcDbArc
 50
90.0
 51
270.0
  0
ARC
  5
16979
330
1666B
100
AcDbEntity
  8
SUNPOU
  6
ByBlock
100
AcDbCircle
 10
7542.842823771883
 20
2851.166484335342
 30
0.0
 40
7.5
100
AcDbArc
 50
270.0
 51
90.0
  0
ARC
  5
1697A
330
1666B
100
AcDbEntity
  8
SUNPOU
  6
ByBlock
100
AcDbCircle
 10
7542.842823771883
 20
3907.166484335344
 30
0.0
 40
7.5
100
AcDbArc
 50
270.0
 51
90.0
  0
ARC
  5
1697B
330
1666B
100
AcDbEntity
  8
SUNPOU
  6
ByBlock
100
AcDbCircle
 10
7542.842823771883
 20
3907.166484335344
 30
0.0
 40
7.5
100
AcDbArc
 50
90.0
 51
270.0
  0
TEXT
  5
1697C
330
1666B
100
AcDbEntity
  8
SUNPOU
100
AcDbText
 10
8990.389620613859
 20
2503.731788496596
 30
0.0
 40
90.0
  1
480
 41
0.6666666666666666
  7
00
100
AcDbText
  0
LINE
  5
1697D
330
1666B
100
AcDbEntity
  8
SUNPOU
  6
ByBlock
100
AcDbLine
 10
8707.103906328146
 20
2458.731788496596
 30
0.0
 11
8722.103906328149
 21
2458.731788496596
 31
0.0
  0
LINE
  5
1697E
330
1666B
100
AcDbEntity
  8
SUNPOU
  6
ByBlock
100
AcDbLine
 10
9445.103906328146
 20
2458.731788496596
 30
0.0
 11
9430.103906328147
 21
2458.731788496596
 31
0.0
  0
TEXT
  5
1697F
330
1666B
100
AcDbEntity
  8
SUNPOU
100
AcDbText
 10
8637.532477756719
 20
2293.731788496596
 30
0.0
 40
90.0
  1
1000
 41
0.6666666666666666
  7
00
100
AcDbText
  0
LINE
  5
16980
330
1666B
100
AcDbEntity
  8
SUNPOU
  6
ByBlock
100
AcDbLine
 10
9541.103906328146
 20
2248.731788496596
 30
0.0
 11
9526.103906328144
 21
2248.731788496596
 31
0.0
  0
LINE
  5
16981
330
1666B
100
AcDbEntity
  8
SUNPOU
  6
ByBlock
100
AcDbLine
 10
7971.103906328146
 20
2248.731788496596
 30
0.0
 11
7986.103906328146
 21
2248.731788496596
 31
0.0
  0
TEXT
  5
16982
330
1666B
100
AcDbEntity
  8
SUNPOU
100
AcDbText
 10
4721.926168691207
 20
4553.184975705781
 30
0.0
 40
90.0
  1
480
 41
0.6666666666666666
  7
00
100
AcDbText
  0
LINE
  5
16983
330
1666B
100
AcDbEntity
  8
SUNPOU
  6
ByBlock
100
AcDbLine
 10
5176.640454405493
 20
4508.184975705781
 30
0.0
 11
5161.640454405493
 21
4508.184975705781
 31
0.0
  0
LINE
  5
16984
330
1666B
100
AcDbEntity
  8
SUNPOU
  6
ByBlock
100
AcDbLine
 10
4438.640454405493
 20
4508.184975705781
 30
0.0
 11
4453.640454405493
 21
4508.184975705781
 31
0.0
  0
TEXT
  5
16985
330
1666B
100
AcDbEntity
  8
SUNPOU
100
AcDbText
 10
5884.218436245824
 20
4053.575846379991
 30
0.0
 40
90.0
  1
150
 50
90.0
 41
0.6666666666666666
  7
00
100
AcDbText
  0
LINE
  5
16986
330
1666B
100
AcDbEntity
  8
SUNPOU
  6
ByBlock
100
AcDbLine
 10
5929.218436245825
 20
3990.718703522846
 30
0.0
 11
5929.218436245825
 21
3975.718703522847
 31
0.0
  0
LINE
  5
16987
330
1666B
100
AcDbEntity
  8
SUNPOU
  6
ByBlock
100
AcDbLine
 10
5929.218436245825
 20
3780.718703522846
 30
0.0
 11
5929.218436245825
 21
3795.718703522845
 31
0.0
  0
LINE
  5
16988
330
1666B
100
AcDbEntity
  8
SUNPOU
  6
ByBlock
100
AcDbLine
 10
5929.218436245825
 20
3012.718703522844
 30
0.0
 11
5929.218436245825
 21
3027.718703522845
 31
0.0
  0
LINE
  5
16989
330
1666B
100
AcDbEntity
  8
SUNPOU
  6
ByBlock
100
AcDbLine
 10
5929.218436245825
 20
2902.718703522845
 30
0.0
 11
5929.218436245825
 21
2887.718703522844
 31
0.0
  0
TEXT
  5
1698A
330
1666B
100
AcDbEntity
  8
SUNPOU
100
AcDbText
 10
6101.841600700951
 20
2904.575846379989
 30
0.0
 40
90.0
  1
50
 50
90.0
 41
0.6666666666666666
  7
00
100
AcDbText
  0
TEXT
  5
1698B
330
1666B
100
AcDbEntity
  8
SUNPOU
100
AcDbText
 10
5884.218436245824
 20
2529.861560665704
 30
0.0
 40
90.0
  1
100
 50
90.0
 41
0.6666666666666666
  7
00
100
AcDbText
  0
LINE
  5
1698C
330
1666B
100
AcDbEntity
  8
SUNPOU
  6
ByBlock
100
AcDbLine
 10
5929.218436245825
 20
2772.718703522845
 30
0.0
 11
5929.218436245825
 21
2787.718703522845
 31
0.0
  0
LINE
  5
1698D
330
1666B
100
AcDbEntity
  8
SUNPOU
  6
ByBlock
100
AcDbLine
 10
5929.218436245825
 20
2902.718703522845
 30
0.0
 11
5929.218436245825
 21
2887.718703522844
 31
0.0
  0
TEXT
  5
1698E
330
1666B
100
AcDbEntity
  8
SUNPOU
100
AcDbText
 10
5884.218436245824
 20
3296.004417808561
 30
0.0
 40
90.0
  1
480
 50
90.0
 41
0.6666666666666666
  7
00
100
AcDbText
  0
LINE
  5
1698F
330
1666B
100
AcDbEntity
  8
SUNPOU
  6
ByBlock
100
AcDbLine
 10
5929.218436245825
 20
3012.718703522844
 30
0.0
 11
5929.218436245825
 21
3027.718703522845
 31
0.0
  0
LINE
  5
16990
330
1666B
100
AcDbEntity
  8
SUNPOU
  6
ByBlock
100
AcDbLine
 10
5929.218436245825
 20
3750.718703522847
 30
0.0
 11
5929.218436245825
 21
3735.718703522847
 31
0.0
  0
TEXT
  5
16991
330
1666B
100
AcDbEntity
  8
SUNPOU
100
AcDbText
 10
4961.926168691213
 20
2503.731788496596
 30
0.0
 40
90.0
  1
300
 41
0.6666666666666666
  7
00
100
AcDbText
  0
LINE
  5
16992
330
1666B
100
AcDbEntity
  8
SUNPOU
  6
ByBlock
100
AcDbLine
 10
5272.640454405499
 20
2458.731788496596
 30
0.0
 11
5257.6404544055
 21
2458.731788496596
 31
0.0
  0
LINE
  5
16993
330
1666B
100
AcDbEntity
  8
SUNPOU
  6
ByBlock
100
AcDbLine
 10
4822.640454405497
 20
2458.731788496596
 30
0.0
 11
4837.640454405497
 21
2458.731788496596
 31
0.0
  0
TEXT
  5
16994
330
1666B
100
AcDbEntity
  8
SUNPOU
100
AcDbText
 10
4161.926168691212
 20
2503.731788496596
 30
0.0
 40
90.0
  1
700
 41
0.6666666666666666
  7
00
100
AcDbText
  0
LINE
  5
16995
330
1666B
100
AcDbEntity
  8
SUNPOU
  6
ByBlock
100
AcDbLine
 10
4792.640454405495
 20
2458.731788496596
 30
0.0
 11
4777.640454405497
 21
2458.731788496596
 31
0.0
  0
LINE
  5
16996
330
1666B
100
AcDbEntity
  8
SUNPOU
  6
ByBlock
100
AcDbLine
 10
3702.640454405496
 20
2458.731788496596
 30
0.0
 11
3717.640454405497
 21
2458.731788496596
 31
0.0
  0
TEXT
  5
16997
330
1666B
100
AcDbEntity
  8
SUNPOU
100
AcDbText
 10
4369.06902583407
 20
2293.731788496596
 30
0.0
 40
90.0
  1
1000
 41
0.6666666666666666
  7
00
100
AcDbText
  0
LINE
  5
16998
330
1666B
100
AcDbEntity
  8
SUNPOU
  6
ByBlock
100
AcDbLine
 10
5272.640454405499
 20
2248.731788496596
 30
0.0
 11
5257.6404544055
 21
2248.731788496596
 31
0.0
  0
LINE
  5
16999
330
1666B
100
AcDbEntity
  8
SUNPOU
  6
ByBlock
100
AcDbLine
 10
3702.640454405496
 20
2248.731788496596
 30
0.0
 11
3717.640454405497
 21
2248.731788496596
 31
0.0
  0
TEXT
  5
1699A
330
1666B
100
AcDbEntity
  8
SUNPOU
100
AcDbText
 10
8304.841793613935
 20
6228.693182432328
 30
0.0
 40
90.0
  1
3200
 41
0.6666666666666666
  7
00
100
AcDbText
  0
LINE
  5
1699B
330
1666B
100
AcDbEntity
  8
SUNPOU
  6
ByBlock
100
AcDbLine
 10
10004.12750789964
 20
6183.693182432328
 30
0.0
 11
9989.127507899645
 21
6183.693182432328
 31
0.0
  0
LINE
  5
1699C
330
1666B
100
AcDbEntity
  8
SUNPOU
  6
ByBlock
100
AcDbLine
 10
6834.127507899649
 20
6183.693182432328
 30
0.0
 11
6849.127507899649
 21
6183.693182432328
 31
0.0
  0
TEXT
  5
1699D
330
1666B
100
AcDbEntity
  8
SUNPOU
100
AcDbText
 10
6324.127507899647
 20
8877.978896718046
 30
0.0
 40
90.0
  1
240
 50
90.0
 41
0.6666666666666666
  7
00
100
AcDbText
  0
LINE
  5
1699E
330
1666B
100
AcDbEntity
  8
SUNPOU
  6
ByBlock
100
AcDbLine
 10
6369.127507899649
 20
9098.693182432327
 30
0.0
 11
6369.127507899649
 21
9113.693182432324
 31
0.0
  0
LINE
  5
1699F
330
1666B
100
AcDbEntity
  8
SUNPOU
  6
ByBlock
100
AcDbLine
 10
6369.127507899649
 20
8828.693182432331
 30
0.0
 11
6369.127507899649
 21
8813.693182432331
 31
0.0
  0
TEXT
  5
169A0
330
1666B
100
AcDbEntity
  8
SUNPOU
100
AcDbText
 10
6324.127507899647
 20
7729.407468146617
 30
0.0
 40
90.0
  1
2000
 50
90.0
 41
0.6666666666666666
  7
00
100
AcDbText
  0
LINE
  5
169A1
330
1666B
100
AcDbEntity
  8
SUNPOU
  6
ByBlock
100
AcDbLine
 10
6369.127507899649
 20
8828.693182432331
 30
0.0
 11
6369.127507899649
 21
8813.693182432331
 31
0.0
  0
LINE
  5
169A2
330
1666B
100
AcDbEntity
  8
SUNPOU
  6
ByBlock
100
AcDbLine
 10
6369.127507899649
 20
6858.693182432329
 30
0.0
 11
6369.127507899649
 21
6873.693182432328
 31
0.0
  0
TEXT
  5
169A3
330
1666B
100
AcDbEntity
  8
SUNPOU
100
AcDbText
 10
9733.413222185358
 20
6438.693182432328
 30
0.0
 40
90.0
  1
400
 41
0.6666666666666666
  7
00
100
AcDbText
  0
LINE
  5
169A4
330
1666B
100
AcDbEntity
  8
SUNPOU
  6
ByBlock
100
AcDbLine
 10
10004.12750789964
 20
6393.693182432328
 30
0.0
 11
9989.127507899645
 21
6393.693182432328
 31
0.0
  0
LINE
  5
169A5
330
1666B
100
AcDbEntity
  8
SUNPOU
  6
ByBlock
100
AcDbLine
 10
9634.127507899645
 20
6393.693182432328
 30
0.0
 11
9649.127507899644
 21
6393.693182432328
 31
0.0
  0
TEXT
  5
169A6
330
1666B
100
AcDbEntity
  8
SUNPOU
100
AcDbText
 10
8304.841793613929
 20
6438.693182432328
 30
0.0
 40
90.0
  1
2400
 41
0.6666666666666666
  7
00
100
AcDbText
  0
LINE
  5
169A7
330
1666B
100
AcDbEntity
  8
SUNPOU
  6
ByBlock
100
AcDbLine
 10
9604.127507899645
 20
6393.693182432328
 30
0.0
 11
9589.127507899645
 21
6393.693182432328
 31
0.0
  0
LINE
  5
169A8
330
1666B
100
AcDbEntity
  8
SUNPOU
  6
ByBlock
100
AcDbLine
 10
7234.127507899649
 20
6393.693182432328
 30
0.0
 11
7249.127507899649
 21
6393.693182432328
 31
0.0
  0
TEXT
  5
169A9
330
1666B
100
AcDbEntity
  8
SUNPOU
100
AcDbText
 10
6933.413222185362
 20
6438.693182432328
 30
0.0
 40
90.0
  1
400
 41
0.6666666666666666
  7
00
100
AcDbText
  0
LINE
  5
169AA
330
1666B
100
AcDbEntity
  8
SUNPOU
  6
ByBlock
100
AcDbLine
 10
7204.127507899649
 20
6393.693182432328
 30
0.0
 11
7189.127507899648
 21
6393.693182432328
 31
0.0
  0
LINE
  5
169AB
330
1666B
100
AcDbEntity
  8
SUNPOU
  6
ByBlock
100
AcDbLine
 10
6834.127507899649
 20
6393.693182432328
 30
0.0
 11
6849.127507899649
 21
6393.693182432328
 31
0.0
  0
ARC
  5
169AC
330
1666B
100
AcDbEntity
  8
SUNPOU
  6
ByBlock
100
AcDbCircle
 10
10006.96981489397
 20
3763.166484335345
 30
0.0
 40
7.5
100
AcDbArc
 50
270.0
 51
90.0
  0
ARC
  5
169AD
330
1666B
100
AcDbEntity
  8
SUNPOU
  6
ByBlock
100
AcDbCircle
 10
10006.96981489397
 20
3763.166484335345
 30
0.0
 40
7.5
100
AcDbArc
 50
90.0
 51
270.0
  0
ARC
  5
169AE
330
1666B
100
AcDbEntity
  8
SUNPOU
  6
ByBlock
100
AcDbCircle
 10
10006.96981489397
 20
2995.166484335344
 30
0.0
 40
7.5
100
AcDbArc
 50
90.0
 51
270.0
  0
ARC
  5
169AF
330
1666B
100
AcDbEntity
  8
SUNPOU
  6
ByBlock
100
AcDbCircle
 10
10006.96981489397
 20
2995.166484335344
 30
0.0
 40
7.5
100
AcDbArc
 50
270.0
 51
90.0
  0
ARC
  5
169B0
330
1666B
100
AcDbEntity
  8
SUNPOU
  6
ByBlock
100
AcDbCircle
 10
10216.96981489397
 20
2739.166484335346
 30
0.0
 40
7.5
100
AcDbArc
 50
90.0
 51
270.0
  0
ARC
  5
169B1
330
1666B
100
AcDbEntity
  8
SUNPOU
  6
ByBlock
100
AcDbCircle
 10
10216.96981489397
 20
2739.166484335346
 30
0.0
 40
7.5
100
AcDbArc
 50
270.0
 51
90.0
  0
ARC
  5
169B2
330
1666B
100
AcDbEntity
  8
SUNPOU
  6
ByBlock
100
AcDbCircle
 10
10216.96981489397
 20
4019.166484335345
 30
0.0
 40
7.5
100
AcDbArc
 50
270.0
 51
90.0
  0
ARC
  5
169B3
330
1666B
100
AcDbEntity
  8
SUNPOU
  6
ByBlock
100
AcDbCircle
 10
10216.96981489397
 20
4019.166484335345
 30
0.0
 40
7.5
100
AcDbArc
 50
90.0
 51
270.0
  0
ARC
  5
169B4
330
1666B
100
AcDbEntity
  8
SUNPOU
  6
ByBlock
100
AcDbCircle
 10
8692.103906328146
 20
2458.731788496596
 30
0.0
 40
7.5
100
AcDbArc
 50
0.0
 51
180.0
  0
ARC
  5
169B5
330
1666B
100
AcDbEntity
  8
SUNPOU
  6
ByBlock
100
AcDbCircle
 10
8692.103906328146
 20
2458.731788496596
 30
0.0
 40
7.5
100
AcDbArc
 50
180.0
 51
0.0
  0
ARC
  5
169B6
330
1666B
100
AcDbEntity
  8
SUNPOU
  6
ByBlock
100
AcDbCircle
 10
9460.103906328146
 20
2458.731788496596
 30
0.0
 40
7.5
100
AcDbArc
 50
180.0
 51
0.0
  0
ARC
  5
169B7
330
1666B
100
AcDbEntity
  8
SUNPOU
  6
ByBlock
100
AcDbCircle
 10
9460.103906328146
 20
2458.731788496596
 30
0.0
 40
7.5
100
AcDbArc
 50
0.0
 51
180.0
  0
ARC
  5
169B8
330
1666B
100
AcDbEntity
  8
SUNPOU
  6
ByBlock
100
AcDbCircle
 10
9556.103906328145
 20
2248.731788496596
 30
0.0
 40
7.5
100
AcDbArc
 50
180.0
 51
0.0
  0
ARC
  5
169B9
330
1666B
100
AcDbEntity
  8
SUNPOU
  6
ByBlock
100
AcDbCircle
 10
9556.103906328145
 20
2248.731788496596
 30
0.0
 40
7.5
100
AcDbArc
 50
0.0
 51
180.0
  0
ARC
  5
169BA
330
1666B
100
AcDbEntity
  8
SUNPOU
  6
ByBlock
100
AcDbCircle
 10
7956.103906328145
 20
2248.731788496596
 30
0.0
 40
7.5
100
AcDbArc
 50
0.0
 51
180.0
  0
ARC
  5
169BB
330
1666B
100
AcDbEntity
  8
SUNPOU
  6
ByBlock
100
AcDbCircle
 10
7956.103906328145
 20
2248.731788496596
 30
0.0
 40
7.5
100
AcDbArc
 50
180.0
 51
0.0
  0
ARC
  5
169BC
330
1666B
100
AcDbEntity
  8
SUNPOU
  6
ByBlock
100
AcDbCircle
 10
5191.640454405494
 20
4508.184975705781
 30
0.0
 40
7.5
100
AcDbArc
 50
180.0
 51
0.0
  0
ARC
  5
169BD
330
1666B
100
AcDbEntity
  8
SUNPOU
  6
ByBlock
100
AcDbCircle
 10
5191.640454405494
 20
4508.184975705781
 30
0.0
 40
7.5
100
AcDbArc
 50
0.0
 51
180.0
  0
ARC
  5
169BE
330
1666B
100
AcDbEntity
  8
SUNPOU
  6
ByBlock
100
AcDbCircle
 10
4423.640454405493
 20
4508.184975705781
 30
0.0
 40
7.5
100
AcDbArc
 50
0.0
 51
180.0
  0
ARC
  5
169BF
330
1666B
100
AcDbEntity
  8
SUNPOU
  6
ByBlock
100
AcDbCircle
 10
4423.640454405493
 20
4508.184975705781
 30
0.0
 40
7.5
100
AcDbArc
 50
180.0
 51
0.0
  0
ARC
  5
169C0
330
1666B
100
AcDbEntity
  8
SUNPOU
  6
ByBlock
100
AcDbCircle
 10
5929.218436245825
 20
4005.718703522845
 30
0.0
 40
7.5
100
AcDbArc
 50
270.0
 51
90.0
  0
ARC
  5
169C1
330
1666B
100
AcDbEntity
  8
SUNPOU
  6
ByBlock
100
AcDbCircle
 10
5929.218436245825
 20
4005.718703522845
 30
0.0
 40
7.5
100
AcDbArc
 50
90.0
 51
270.0
  0
ARC
  5
169C2
330
1666B
100
AcDbEntity
  8
SUNPOU
  6
ByBlock
100
AcDbCircle
 10
5929.218436245825
 20
3765.718703522844
 30
0.0
 40
7.5
100
AcDbArc
 50
90.0
 51
270.0
  0
ARC
  5
169C3
330
1666B
100
AcDbEntity
  8
SUNPOU
  6
ByBlock
100
AcDbCircle
 10
5929.218436245825
 20
3765.718703522844
 30
0.0
 40
7.5
100
AcDbArc
 50
270.0
 51
90.0
  0
ARC
  5
169C4
330
1666B
100
AcDbEntity
  8
SUNPOU
  6
ByBlock
100
AcDbCircle
 10
5929.218436245825
 20
2997.718703522846
 30
0.0
 40
7.5
100
AcDbArc
 50
90.0
 51
270.0
  0
ARC
  5
169C5
330
1666B
100
AcDbEntity
  8
SUNPOU
  6
ByBlock
100
AcDbCircle
 10
5929.218436245825
 20
2997.718703522846
 30
0.0
 40
7.5
100
AcDbArc
 50
270.0
 51
90.0
  0
ARC
  5
169C6
330
1666B
100
AcDbEntity
  8
SUNPOU
  6
ByBlock
100
AcDbCircle
 10
5929.218436245825
 20
2917.718703522846
 30
0.0
 40
7.5
100
AcDbArc
 50
270.0
 51
90.0
  0
ARC
  5
169C7
330
1666B
100
AcDbEntity
  8
SUNPOU
  6
ByBlock
100
AcDbCircle
 10
5929.218436245825
 20
2917.718703522846
 30
0.0
 40
7.5
100
AcDbArc
 50
90.0
 51
270.0
  0
ARC
  5
169C8
330
1666B
100
AcDbEntity
  8
SUNPOU
  6
ByBlock
100
AcDbCircle
 10
5929.218436245825
 20
2757.718703522846
 30
0.0
 40
7.5
100
AcDbArc
 50
90.0
 51
270.0
  0
ARC
  5
169C9
330
1666B
100
AcDbEntity
  8
SUNPOU
  6
ByBlock
100
AcDbCircle
 10
5929.218436245825
 20
2757.718703522846
 30
0.0
 40
7.5
100
AcDbArc
 50
270.0
 51
90.0
  0
ARC
  5
169CA
330
1666B
100
AcDbEntity
  8
SUNPOU
  6
ByBlock
100
AcDbCircle
 10
5929.218436245825
 20
2917.718703522846
 30
0.0
 40
7.5
100
AcDbArc
 50
270.0
 51
90.0
  0
ARC
  5
169CB
330
1666B
100
AcDbEntity
  8
SUNPOU
  6
ByBlock
100
AcDbCircle
 10
5929.218436245825
 20
2917.718703522846
 30
0.0
 40
7.5
100
AcDbArc
 50
90.0
 51
270.0
  0
ARC
  5
169CC
330
1666B
100
AcDbEntity
  8
SUNPOU
  6
ByBlock
100
AcDbCircle
 10
5929.218436245825
 20
2997.718703522846
 30
0.0
 40
7.5
100
AcDbArc
 50
90.0
 51
270.0
  0
ARC
  5
169CD
330
1666B
100
AcDbEntity
  8
SUNPOU
  6
ByBlock
100
AcDbCircle
 10
5929.218436245825
 20
2997.718703522846
 30
0.0
 40
7.5
100
AcDbArc
 50
270.0
 51
90.0
  0
ARC
  5
169CE
330
1666B
100
AcDbEntity
  8
SUNPOU
  6
ByBlock
100
AcDbCircle
 10
5929.218436245825
 20
3765.718703522844
 30
0.0
 40
7.5
100
AcDbArc
 50
270.0
 51
90.0
  0
ARC
  5
169CF
330
1666B
100
AcDbEntity
  8
SUNPOU
  6
ByBlock
100
AcDbCircle
 10
5929.218436245825
 20
3765.718703522844
 30
0.0
 40
7.5
100
AcDbArc
 50
90.0
 51
270.0
  0
ARC
  5
169D0
330
1666B
100
AcDbEntity
  8
SUNPOU
  6
ByBlock
100
AcDbCircle
 10
5287.640454405501
 20
2458.731788496596
 30
0.0
 40
7.5
100
AcDbArc
 50
180.0
 51
0.0
  0
ARC
  5
169D1
330
1666B
100
AcDbEntity
  8
SUNPOU
  6
ByBlock
100
AcDbCircle
 10
5287.640454405501
 20
2458.731788496596
 30
0.0
 40
7.5
100
AcDbArc
 50
0.0
 51
180.0
  0
ARC
  5
169D2
330
1666B
100
AcDbEntity
  8
SUNPOU
  6
ByBlock
100
AcDbCircle
 10
4807.640454405497
 20
2458.731788496596
 30
0.0
 40
7.5
100
AcDbArc
 50
0.0
 51
180.0
  0
ARC
  5
169D3
330
1666B
100
AcDbEntity
  8
SUNPOU
  6
ByBlock
100
AcDbCircle
 10
4807.640454405497
 20
2458.731788496596
 30
0.0
 40
7.5
100
AcDbArc
 50
180.0
 51
0.0
  0
ARC
  5
169D4
330
1666B
100
AcDbEntity
  8
SUNPOU
  6
ByBlock
100
AcDbCircle
 10
4807.640454405497
 20
2458.731788496596
 30
0.0
 40
7.5
100
AcDbArc
 50
180.0
 51
0.0
  0
ARC
  5
169D5
330
1666B
100
AcDbEntity
  8
SUNPOU
  6
ByBlock
100
AcDbCircle
 10
4807.640454405497
 20
2458.731788496596
 30
0.0
 40
7.5
100
AcDbArc
 50
0.0
 51
180.0
  0
ARC
  5
169D6
330
1666B
100
AcDbEntity
  8
SUNPOU
  6
ByBlock
100
AcDbCircle
 10
3687.640454405497
 20
2458.731788496596
 30
0.0
 40
7.5
100
AcDbArc
 50
0.0
 51
180.0
  0
ARC
  5
169D7
330
1666B
100
AcDbEntity
  8
SUNPOU
  6
ByBlock
100
AcDbCircle
 10
3687.640454405497
 20
2458.731788496596
 30
0.0
 40
7.5
100
AcDbArc
 50
180.0
 51
0.0
  0
ARC
  5
169D8
330
1666B
100
AcDbEntity
  8
SUNPOU
  6
ByBlock
100
AcDbCircle
 10
5287.640454405501
 20
2248.731788496596
 30
0.0
 40
7.5
100
AcDbArc
 50
180.0
 51
0.0
  0
ARC
  5
169D9
330
1666B
100
AcDbEntity
  8
SUNPOU
  6
ByBlock
100
AcDbCircle
 10
5287.640454405501
 20
2248.731788496596
 30
0.0
 40
7.5
100
AcDbArc
 50
0.0
 51
180.0
  0
ARC
  5
169DA
330
1666B
100
AcDbEntity
  8
SUNPOU
  6
ByBlock
100
AcDbCircle
 10
3687.640454405497
 20
2248.731788496596
 30
0.0
 40
7.5
100
AcDbArc
 50
0.0
 51
180.0
  0
ARC
  5
169DB
330
1666B
100
AcDbEntity
  8
SUNPOU
  6
ByBlock
100
AcDbCircle
 10
3687.640454405497
 20
2248.731788496596
 30
0.0
 40
7.5
100
AcDbArc
 50
180.0
 51
0.0
  0
ARC
  5
169DC
330
1666B
100
AcDbEntity
  8
SUNPOU
  6
ByBlock
100
AcDbCircle
 10
10019.12750789964
 20
6183.693182432328
 30
0.0
 40
7.5
100
AcDbArc
 50
180.0
 51
0.0
  0
ARC
  5
169DD
330
1666B
100
AcDbEntity
  8
SUNPOU
  6
ByBlock
100
AcDbCircle
 10
10019.12750789964
 20
6183.693182432328
 30
0.0
 40
7.5
100
AcDbArc
 50
0.0
 51
180.0
  0
ARC
  5
169DE
330
1666B
100
AcDbEntity
  8
SUNPOU
  6
ByBlock
100
AcDbCircle
 10
6819.127507899648
 20
6183.693182432328
 30
0.0
 40
7.5
100
AcDbArc
 50
0.0
 51
180.0
  0
ARC
  5
169DF
330
1666B
100
AcDbEntity
  8
SUNPOU
  6
ByBlock
100
AcDbCircle
 10
6819.127507899648
 20
6183.693182432328
 30
0.0
 40
7.5
100
AcDbArc
 50
180.0
 51
0.0
  0
ARC
  5
169E0
330
1666B
100
AcDbEntity
  8
SUNPOU
  6
ByBlock
100
AcDbCircle
 10
6369.127507899649
 20
9083.693182432327
 30
0.0
 40
7.5
100
AcDbArc
 50
90.0
 51
270.0
  0
ARC
  5
169E1
330
1666B
100
AcDbEntity
  8
SUNPOU
  6
ByBlock
100
AcDbCircle
 10
6369.127507899649
 20
9083.693182432327
 30
0.0
 40
7.5
100
AcDbArc
 50
270.0
 51
90.0
  0
ARC
  5
169E2
330
1666B
100
AcDbEntity
  8
SUNPOU
  6
ByBlock
100
AcDbCircle
 10
6369.127507899649
 20
8843.69318243233
 30
0.0
 40
7.5
100
AcDbArc
 50
270.0
 51
90.0
  0
ARC
  5
169E3
330
1666B
100
AcDbEntity
  8
SUNPOU
  6
ByBlock
100
AcDbCircle
 10
6369.127507899649
 20
8843.69318243233
 30
0.0
 40
7.5
100
AcDbArc
 50
90.0
 51
270.0
  0
ARC
  5
169E4
330
1666B
100
AcDbEntity
  8
SUNPOU
  6
ByBlock
100
AcDbCircle
 10
6369.127507899649
 20
8843.69318243233
 30
0.0
 40
7.5
100
AcDbArc
 50
270.0
 51
90.0
  0
ARC
  5
169E5
330
1666B
100
AcDbEntity
  8
SUNPOU
  6
ByBlock
100
AcDbCircle
 10
6369.127507899649
 20
8843.69318243233
 30
0.0
 40
7.5
100
AcDbArc
 50
90.0
 51
270.0
  0
ARC
  5
169E6
330
1666B
100
AcDbEntity
  8
SUNPOU
  6
ByBlock
100
AcDbCircle
 10
6369.127507899649
 20
6843.693182432328
 30
0.0
 40
7.5
100
AcDbArc
 50
90.0
 51
270.0
  0
ARC
  5
169E7
330
1666B
100
AcDbEntity
  8
SUNPOU
  6
ByBlock
100
AcDbCircle
 10
6369.127507899649
 20
6843.693182432328
 30
0.0
 40
7.5
100
AcDbArc
 50
270.0
 51
90.0
  0
ARC
  5
169E8
330
1666B
100
AcDbEntity
  8
SUNPOU
  6
ByBlock
100
AcDbCircle
 10
10019.12750789964
 20
6393.693182432328
 30
0.0
 40
7.5
100
AcDbArc
 50
180.0
 51
0.0
  0
ARC
  5
169E9
330
1666B
100
AcDbEntity
  8
SUNPOU
  6
ByBlock
100
AcDbCircle
 10
10019.12750789964
 20
6393.693182432328
 30
0.0
 40
7.5
100
AcDbArc
 50
0.0
 51
180.0
  0
ARC
  5
169EA
330
1666B
100
AcDbEntity
  8
SUNPOU
  6
ByBlock
100
AcDbCircle
 10
9619.127507899644
 20
6393.693182432328
 30
0.0
 40
7.5
100
AcDbArc
 50
0.0
 51
180.0
  0
ARC
  5
169EB
330
1666B
100
AcDbEntity
  8
SUNPOU
  6
ByBlock
100
AcDbCircle
 10
9619.127507899644
 20
6393.693182432328
 30
0.0
 40
7.5
100
AcDbArc
 50
180.0
 51
0.0
  0
ARC
  5
169EC
330
1666B
100
AcDbEntity
  8
SUNPOU
  6
ByBlock
100
AcDbCircle
 10
9619.127507899644
 20
6393.693182432328
 30
0.0
 40
7.5
100
AcDbArc
 50
180.0
 51
0.0
  0
ARC
  5
169ED
330
1666B
100
AcDbEntity
  8
SUNPOU
  6
ByBlock
100
AcDbCircle
 10
9619.127507899644
 20
6393.693182432328
 30
0.0
 40
7.5
100
AcDbArc
 50
0.0
 51
180.0
  0
ARC
  5
169EE
330
1666B
100
AcDbEntity
  8
SUNPOU
  6
ByBlock
100
AcDbCircle
 10
7219.127507899648
 20
6393.693182432328
 30
0.0
 40
7.5
100
AcDbArc
 50
0.0
 51
180.0
  0
ARC
  5
169EF
330
1666B
100
AcDbEntity
  8
SUNPOU
  6
ByBlock
100
AcDbCircle
 10
7219.127507899648
 20
6393.693182432328
 30
0.0
 40
7.5
100
AcDbArc
 50
180.0
 51
0.0
  0
ARC
  5
169F0
330
1666B
100
AcDbEntity
  8
SUNPOU
  6
ByBlock
100
AcDbCircle
 10
7219.127507899648
 20
6393.693182432328
 30
0.0
 40
7.5
100
AcDbArc
 50
180.0
 51
0.0
  0
ARC
  5
169F1
330
1666B
100
AcDbEntity
  8
SUNPOU
  6
ByBlock
100
AcDbCircle
 10
7219.127507899648
 20
6393.693182432328
 30
0.0
 40
7.5
100
AcDbArc
 50
0.0
 51
180.0
  0
ARC
  5
169F2
330
1666B
100
AcDbEntity
  8
SUNPOU
  6
ByBlock
100
AcDbCircle
 10
6819.127507899648
 20
6393.693182432328
 30
0.0
 40
7.5
100
AcDbArc
 50
0.0
 51
180.0
  0
ARC
  5
169F3
330
1666B
100
AcDbEntity
  8
SUNPOU
  6
ByBlock
100
AcDbCircle
 10
6819.127507899648
 20
6393.693182432328
 30
0.0
 40
7.5
100
AcDbArc
 50
180.0
 51
0.0
  0
ARC
  5
169F4
330
1666B
100
AcDbEntity
  8
HIKIDASHI
100
AcDbCircle
 10
8723.454847333078
 20
9514.077910955192
 30
0.0
 40
74.66417910452284
100
AcDbArc
 50
164.8596129850635
 51
237.5045002941574
  0
ARC
  5
169F5
330
1666B
100
AcDbEntity
  8
HIKIDASHI
100
AcDbCircle
 10
8660.031053286774
 20
9531.238934439677
 30
0.0
 40
8.959701492542745
100
AcDbArc
 50
15.14038701504827
 51
164.8596129849517
  0
LINE
  5
169F6
330
1666B
100
AcDbEntity
  8
HIKIDASHI
100
AcDbLine
 10
9664.062819500225
 20
8969.536558594796
 30
0.0
 11
9719.127507899644
 21
8943.693182432332
 31
0.0
  0
LINE
  5
169F7
330
1666B
100
AcDbEntity
  8
HIKIDASHI
100
AcDbLine
 10
9719.127507899644
 20
8943.693182432332
 30
0.0
 11
9675.42092465559
 21
8985.998437202043
 31
0.0
  0
SOLID
  5
169F8
330
1666B
100
AcDbEntity
  8
HIKIDASHI
100
AcDbTrace
 10
9664.062819500225
 20
8969.536558594796
 30
0.0
 11
9675.42092465559
 21
8985.998437202043
 31
0.0
 12
9719.127507899644
 22
8943.693182432332
 32
0.0
 13
9719.127507899644
 23
8943.693182432332
 33
0.0
  0
LINE
  5
169F9
330
1666B
100
AcDbEntity
  8
HIKIDASHI
100
AcDbLine
 10
9675.42092465559
 20
8985.998437202043
 30
0.0
 11
9664.062819500225
 21
8969.536558594796
 31
0.0
  0
LINE
  5
169FA
330
1666B
100
AcDbEntity
  8
HIKIDASHI
100
AcDbLine
 10
9469.722269542684
 20
8979.177297510659
 30
0.0
 11
9519.127507899645
 21
8943.693182432332
 31
0.0
  0
LINE
  5
169FB
330
1666B
100
AcDbEntity
  8
HIKIDASHI
100
AcDbLine
 10
9519.127507899645
 20
8943.693182432332
 30
0.0
 11
9483.901184614408
 21
8993.282557784356
 31
0.0
  0
SOLID
  5
169FC
330
1666B
100
AcDbEntity
  8
HIKIDASHI
100
AcDbTrace
 10
9469.722269542684
 20
8979.177297510659
 30
0.0
 11
9483.901184614408
 21
8993.282557784356
 31
0.0
 12
9519.127507899645
 22
8943.693182432332
 32
0.0
 13
9519.127507899645
 23
8943.693182432332
 33
0.0
  0
LINE
  5
169FD
330
1666B
100
AcDbEntity
  8
HIKIDASHI
100
AcDbLine
 10
9483.901184614408
 20
8993.282557784356
 30
0.0
 11
9469.722269542684
 21
8979.177297510659
 31
0.0
  0
LINE
  5
169FE
330
1666B
100
AcDbEntity
  8
HIKIDASHI
100
AcDbLine
 10
9559.767825293612
 20
8757.049483406314
 30
0.0
 11
9590.563641727982
 21
8809.505347617481
 31
0.0
  0
LINE
  5
169FF
330
1666B
100
AcDbEntity
  8
HIKIDASHI
100
AcDbLine
 10
9590.563641727982
 20
8809.505347617481
 30
0.0
 11
9544.419751302655
 21
8769.872767882931
 31
0.0
  0
SOLID
  5
16A00
330
1666B
100
AcDbEntity
  8
HIKIDASHI
100
AcDbTrace
 10
9559.767825293612
 20
8757.049483406314
 30
0.0
 11
9544.419751302655
 21
8769.872767882931
 31
0.0
 12
9590.563641727982
 22
8809.505347617481
 32
0.0
 13
9590.563641727982
 23
8809.505347617481
 33
0.0
  0
LINE
  5
16A01
330
1666B
100
AcDbEntity
  8
HIKIDASHI
100
AcDbLine
 10
9544.419751302655
 20
8769.872767882931
 30
0.0
 11
9559.767825293612
 21
8757.049483406314
 31
0.0
  0
ARC
  5
16A02
330
1666B
100
AcDbEntity
  8
HIKIDASHI
100
AcDbCircle
 10
6714.631971494
 20
4638.569704228731
 30
0.0
 40
74.66417910459829
100
AcDbArc
 50
164.8596129850786
 51
237.5045002941396
  0
ARC
  5
16A03
330
1666B
100
AcDbEntity
  8
HIKIDASHI
100
AcDbCircle
 10
6651.208177447628
 20
4655.730727713232
 30
0.0
 40
8.959701492551799
100
AcDbArc
 50
15.14038701503315
 51
164.8596129849669
  0
ARC
  5
16A04
330
1666B
100
AcDbEntity
  8
HIKIDASHI
100
AcDbCircle
 10
8597.786785776209
 20
9515.258038314783
 30
0.0
 40
74.6641791045229
100
AcDbArc
 50
301.7712278330701
 51
15.14038701490968
  0
LINE
  5
16A05
330
1666B
100
AcDbEntity
  8
HIKIDASHI
100
AcDbLine
 10
5005.163333043938
 20
3870.438320994987
 30
0.0
 11
5328.363048116615
 21
4508.184975705781
 31
0.0
1001
ACAD
1000
DSTYLE
1002
{
1070
   147
1040
1.125
1070
    77
1070
     0
1070
   144
1040
0.625
1002
}
  0
LINE
  5
16A06
330
1666B
100
AcDbEntity
  8
HIKIDASHI
100
AcDbLine
 10
4996.243396798583
 20
3874.958800768061
 30
0.0
 11
4978.040454405494
 21
3816.918703522846
 31
0.0
  0
LINE
  5
16A07
330
1666B
100
AcDbEntity
  8
HIKIDASHI
100
AcDbLine
 10
4978.040454405494
 20
3816.918703522846
 30
0.0
 11
5014.083269289296
 21
3865.917841221913
 31
0.0
  0
SOLID
  5
16A08
330
1666B
100
AcDbEntity
  8
HIKIDASHI
100
AcDbTrace
 10
4996.243396798583
 20
3874.958800768061
 30
0.0
 11
5014.083269289296
 21
3865.917841221913
 31
0.0
 12
4978.040454405494
 22
3816.918703522846
 32
0.0
 13
4978.040454405494
 23
3816.918703522846
 33
0.0
  0
LINE
  5
16A09
330
1666B
100
AcDbEntity
  8
HIKIDASHI
100
AcDbLine
 10
5014.083269289296
 20
3865.917841221913
 30
0.0
 11
4996.243396798583
 21
3874.958800768061
 31
0.0
  0
ARC
  5
16A0A
330
1666B
100
AcDbEntity
  8
HIKIDASHI
100
AcDbCircle
 10
6588.963909937
 20
4639.749831588322
 30
0.0
 40
74.66417910459857
100
AcDbArc
 50
301.7712278330711
 51
15.14038701490973
  0
LINE
  5
16A0B
330
1666B
100
AcDbEntity
  8
HIKIDASHI
100
AcDbLine
 10
4896.21994032961
 20
3099.08174633719
 30
0.0
 11
5856.911289114407
 21
2090.908092218655
 31
0.0
1001
ACAD
1000
DSTYLE
1002
{
1070
   147
1040
1.125
1070
    77
1070
     0
1002
}
  0
LINE
  5
16A0C
330
1666B
100
AcDbEntity
  8
HIKIDASHI
100
AcDbLine
 10
4903.459433193887
 20
3105.980278287403
 30
0.0
 11
4854.828748628337
 21
3142.518703522845
 31
0.0
  0
LINE
  5
16A0D
330
1666B
100
AcDbEntity
  8
HIKIDASHI
100
AcDbLine
 10
4854.828748628337
 20
3142.518703522845
 30
0.0
 11
4888.980447465335
 21
3092.183214386977
 31
0.0
  0
SOLID
  5
16A0E
330
1666B
100
AcDbEntity
  8
HIKIDASHI
100
AcDbTrace
 10
4903.459433193887
 20
3105.980278287403
 30
0.0
 11
4888.980447465335
 21
3092.183214386977
 31
0.0
 12
4854.828748628337
 22
3142.518703522845
 32
0.0
 13
4854.828748628337
 23
3142.518703522845
 33
0.0
  0
LINE
  5
16A0F
330
1666B
100
AcDbEntity
  8
HIKIDASHI
100
AcDbLine
 10
4888.980447465335
 20
3092.183214386977
 30
0.0
 11
4903.459433193887
 21
3105.980278287403
 31
0.0
  0
LINE
  5
16A10
330
1666B
100
AcDbEntity
  8
HIKIDASHI
100
AcDbLine
 10
5163.680007472644
 20
3332.895717093136
 30
0.0
 11
5929.366237063103
 21
2313.731980127317
 31
0.0
1001
ACAD
1000
DSTYLE
1002
{
1070
   147
1040
1.125
1070
    77
1070
     0
1002
}
  0
LINE
  5
16A11
330
1666B
100
AcDbEntity
  8
HIKIDASHI
100
AcDbLine
 10
5171.675059092797
 20
3338.902309270995
 30
0.0
 11
5127.640454405497
 21
3380.866026814049
 31
0.0
  0
LINE
  5
16A12
330
1666B
100
AcDbEntity
  8
HIKIDASHI
100
AcDbLine
 10
5127.640454405497
 20
3380.866026814049
 30
0.0
 11
5155.684955852492
 21
3326.889124915277
 31
0.0
  0
SOLID
  5
16A13
330
1666B
100
AcDbEntity
  8
HIKIDASHI
100
AcDbTrace
 10
5171.675059092797
 20
3338.902309270995
 30
0.0
 11
5155.684955852492
 21
3326.889124915277
 31
0.0
 12
5127.640454405497
 22
3380.866026814049
 32
0.0
 13
5127.640454405497
 23
3380.866026814049
 33
0.0
  0
LINE
  5
16A14
330
1666B
100
AcDbEntity
  8
HIKIDASHI
100
AcDbLine
 10
5155.684955852492
 20
3326.889124915277
 30
0.0
 11
5171.675059092797
 21
3338.902309270995
 31
0.0
  0
LINE
  5
16A15
330
1666B
100
AcDbEntity
  8
KISO-3
100
AcDbLine
 10
9859.127507899637
 20
9083.693182432327
 30
0.0
 11
9859.127507899637
 21
8603.693182432333
 31
0.0
  0
LINE
  5
16A16
330
1666B
100
AcDbEntity
  8
KISO-3
100
AcDbLine
 10
9859.127507899637
 20
8603.693182432333
 30
0.0
 11
9379.127507899644
 21
8603.693182432333
 31
0.0
  0
LINE
  5
16A17
330
1666B
100
AcDbEntity
  8
KISO-3
100
AcDbLine
 10
9379.127507899644
 20
8603.693182432333
 30
0.0
 11
9379.127507899644
 21
9083.693182432327
 31
0.0
  0
LINE
  5
16A18
330
1666B
100
AcDbEntity
  8
KISO-2
100
AcDbLine
 10
9479.127507899645
 20
8703.693182432331
 30
0.0
 11
9759.127507899645
 21
8703.693182432331
 31
0.0
  0
LINE
  5
16A19
330
1666B
100
AcDbEntity
  8
KISO-2
100
AcDbLine
 10
9759.127507899645
 20
8703.693182432331
 30
0.0
 11
9759.127507899645
 21
8983.693182432325
 31
0.0
  0
LINE
  5
16A1A
330
1666B
100
AcDbEntity
  8
KISO-2
100
AcDbLine
 10
9759.127507899645
 20
8983.693182432325
 30
0.0
 11
9479.127507899645
 21
8983.693182432325
 31
0.0
  0
LINE
  5
16A1B
330
1666B
100
AcDbEntity
  8
KISO-2
100
AcDbLine
 10
9479.127507899645
 20
8983.693182432325
 30
0.0
 11
9479.127507899645
 21
8703.693182432331
 31
0.0
  0
LINE
  5
16A1C
330
1666B
100
AcDbEntity
  8
KISO-2
100
AcDbLine
 10
7359.127507899649
 20
8703.693182432331
 30
0.0
 11
7079.127507899649
 21
8703.693182432331
 31
0.0
  0
LINE
  5
16A1D
330
1666B
100
AcDbEntity
  8
KISO-2
100
AcDbLine
 10
7079.127507899649
 20
8703.693182432331
 30
0.0
 11
7079.127507899649
 21
8983.693182432325
 31
0.0
  0
LINE
  5
16A1E
330
1666B
100
AcDbEntity
  8
KISO-2
100
AcDbLine
 10
7079.127507899649
 20
8983.693182432325
 30
0.0
 11
7359.127507899649
 21
8983.693182432325
 31
0.0
  0
LINE
  5
16A1F
330
1666B
100
AcDbEntity
  8
KISO-2
100
AcDbLine
 10
7359.127507899649
 20
8983.693182432325
 30
0.0
 11
7359.127507899649
 21
8703.693182432331
 31
0.0
  0
LINE
  5
16A20
330
1666B
100
AcDbEntity
  8
KISO-3
100
AcDbLine
 10
6979.127507899646
 20
9083.693182432327
 30
0.0
 11
6979.127507899646
 21
8603.693182432333
 31
0.0
  0
LINE
  5
16A21
330
1666B
100
AcDbEntity
  8
KISO-3
100
AcDbLine
 10
6979.127507899646
 20
8603.693182432333
 30
0.0
 11
7459.127507899649
 21
8603.693182432333
 31
0.0
  0
LINE
  5
16A22
330
1666B
100
AcDbEntity
  8
KISO-3
100
AcDbLine
 10
7459.127507899649
 20
8603.693182432333
 30
0.0
 11
7459.127507899649
 21
9083.693182432327
 31
0.0
  0
LINE
  5
16A23
330
1666B
100
AcDbEntity
  8
KISO
100
AcDbLine
 10
7956.103906328145
 20
2739.166484335344
 30
0.0
 11
9556.103906328145
 21
2739.166484335344
 31
0.0
  0
LINE
  5
16A24
330
1666B
100
AcDbEntity
  8
KISO
100
AcDbLine
 10
9556.103906328145
 20
2739.166484335344
 30
0.0
 11
9556.103906328145
 21
4019.166484335346
 31
0.0
  0
LINE
  5
16A25
330
1666B
100
AcDbEntity
  8
KISO
100
AcDbLine
 10
9556.103906328145
 20
4019.166484335346
 30
0.0
 11
7956.103906328145
 21
4019.166484335346
 31
0.0
  0
LINE
  5
16A26
330
1666B
100
AcDbEntity
  8
KISO
100
AcDbLine
 10
7956.103906328145
 20
4019.166484335346
 30
0.0
 11
7956.103906328145
 21
2739.166484335344
 31
0.0
  0
LINE
  5
16A27
330
1666B
100
AcDbEntity
  8
HATCH
100
AcDbLine
 10
5288.145558914543
 20
2757.718703522844
 30
0.0
 11
5380.521601984852
 21
2917.718703522788
 31
0.0
  0
LINE
  5
16A28
330
1666B
100
AcDbEntity
  8
HATCH
100
AcDbLine
 10
5316.521601984874
 20
2917.718703522788
 30
0.0
 11
5348.521601984862
 21
2862.293077680607
 31
0.0
  0
LINE
  5
16A29
330
1666B
100
AcDbEntity
  8
HATCH
100
AcDbLine
 10
5320.145558914532
 20
2813.144329365031
 30
0.0
 11
5352.145558914521
 21
2757.718703522844
 31
0.0
  0
LINE
  5
16A2A
330
1666B
100
AcDbEntity
  8
HATCH
100
AcDbLine
 10
5048.145558914542
 20
2757.718703522844
 30
0.0
 11
5140.521601984851
 21
2917.718703522788
 31
0.0
  0
LINE
  5
16A2B
330
1666B
100
AcDbEntity
  8
HATCH
100
AcDbLine
 10
5076.521601984873
 20
2917.718703522788
 30
0.0
 11
5108.521601984862
 21
2862.293077680607
 31
0.0
  0
LINE
  5
16A2C
330
1666B
100
AcDbEntity
  8
HATCH
100
AcDbLine
 10
5080.145558914532
 20
2813.144329365031
 30
0.0
 11
5112.145558914519
 21
2757.718703522844
 31
0.0
  0
LINE
  5
16A2D
330
1666B
100
AcDbEntity
  8
HATCH
100
AcDbLine
 10
4808.145558914542
 20
2757.718703522844
 30
0.0
 11
4900.521601984851
 21
2917.718703522788
 31
0.0
  0
LINE
  5
16A2E
330
1666B
100
AcDbEntity
  8
HATCH
100
AcDbLine
 10
4836.521601984873
 20
2917.718703522788
 30
0.0
 11
4868.521601984863
 21
2862.293077680607
 31
0.0
  0
LINE
  5
16A2F
330
1666B
100
AcDbEntity
  8
HATCH
100
AcDbLine
 10
4840.145558914532
 20
2813.144329365031
 30
0.0
 11
4872.145558914521
 21
2757.718703522844
 31
0.0
  0
LINE
  5
16A30
330
1666B
100
AcDbEntity
  8
TENSEN-1
100
AcDbLine
 10
5026.040454405496
 20
3165.718703522844
 30
0.0
 11
4978.040454405494
 21
3165.718703522845
 31
0.0
  0
LINE
  5
16A31
330
1666B
100
AcDbEntity
  8
TENSEN-1
100
AcDbLine
 10
4978.040454405494
 20
3165.718703522845
 30
0.0
 11
4978.040454405494
 21
3816.918703522846
 31
0.0
  0
LINE
  5
16A32
330
1666B
100
AcDbEntity
  8
TENSEN-1
100
AcDbLine
 10
4978.040454405494
 20
3816.918703522846
 30
0.0
 11
4957.240454405492
 21
3816.918703522842
 31
0.0
  0
LINE
  5
16A33
330
1666B
100
AcDbEntity
  8
TENSEN-1
100
AcDbLine
 10
4957.240454405492
 20
3816.918703522842
 30
0.0
 11
4957.240454405492
 21
3144.918703522842
 31
0.0
  0
LINE
  5
16A34
330
1666B
100
AcDbEntity
  8
TENSEN-1
100
AcDbLine
 10
4957.240454405492
 20
3144.918703522842
 30
0.0
 11
5026.040454405496
 21
3144.918703522846
 31
0.0
  0
LINE
  5
16A35
330
1666B
100
AcDbEntity
  8
TENSEN-1
100
AcDbLine
 10
5026.040454405496
 20
3144.918703522846
 30
0.0
 11
5026.040454405496
 21
3165.718703522844
 31
0.0
  0
LINE
  5
16A36
330
1666B
100
AcDbEntity
  8
HASIRA
100
AcDbLine
 10
4878.920454405495
 20
3784.918703522842
 30
0.0
 11
4878.920454405491
 21
4439.941176311282
 31
0.0
  0
LINE
  5
16A37
330
1666B
100
AcDbEntity
  8
HATCH
100
AcDbLine
 10
3191.640454405363
 20
3765.718703522841
 30
0.0
 11
3247.066080247515
 21
3861.718703522754
 31
0.0
  0
LINE
  5
16A38
330
1666B
100
AcDbEntity
  8
HATCH
100
AcDbLine
 10
3208.666080247551
 20
3861.718703522754
 30
0.0
 11
3227.866080247533
 21
3828.463328017464
 31
0.0
  0
LINE
  5
16A39
330
1666B
100
AcDbEntity
  8
HATCH
100
AcDbLine
 10
3210.840454405345
 20
3798.974079028135
 30
0.0
 11
3230.040454405327
 21
3765.718703522841
 31
0.0
  0
LINE
  5
16A3A
330
1666B
100
AcDbEntity
  8
HATCH
100
AcDbLine
 10
3335.640454405363
 20
3765.718703522841
 30
0.0
 11
3391.066080247515
 21
3861.718703522754
 31
0.0
  0
LINE
  5
16A3B
330
1666B
100
AcDbEntity
  8
HATCH
100
AcDbLine
 10
3352.666080247551
 20
3861.718703522754
 30
0.0
 11
3371.866080247534
 21
3828.463328017464
 31
0.0
  0
LINE
  5
16A3C
330
1666B
100
AcDbEntity
  8
HATCH
100
AcDbLine
 10
3354.840454405344
 20
3798.974079028135
 30
0.0
 11
3374.040454405327
 21
3765.718703522841
 31
0.0
  0
LINE
  5
16A3D
330
1666B
100
AcDbEntity
  8
HATCH
100
AcDbLine
 10
3623.640454405361
 20
3765.718703522841
 30
0.0
 11
3679.066080247515
 21
3861.718703522754
 31
0.0
  0
LINE
  5
16A3E
330
1666B
100
AcDbEntity
  8
HATCH
100
AcDbLine
 10
3640.666080247551
 20
3861.718703522754
 30
0.0
 11
3659.866080247534
 21
3828.463328017464
 31
0.0
  0
LINE
  5
16A3F
330
1666B
100
AcDbEntity
  8
HATCH
100
AcDbLine
 10
3642.840454405344
 20
3798.974079028135
 30
0.0
 11
3662.040454405327
 21
3765.718703522841
 31
0.0
  0
LINE
  5
16A40
330
1666B
100
AcDbEntity
  8
HATCH
100
AcDbLine
 10
3479.640454405362
 20
3765.718703522841
 30
0.0
 11
3535.066080247516
 21
3861.718703522754
 31
0.0
  0
LINE
  5
16A41
330
1666B
100
AcDbEntity
  8
HATCH
100
AcDbLine
 10
3496.666080247551
 20
3861.718703522754
 30
0.0
 11
3515.866080247533
 21
3828.463328017464
 31
0.0
  0
LINE
  5
16A42
330
1666B
100
AcDbEntity
  8
HATCH
100
AcDbLine
 10
3498.840454405344
 20
3798.974079028135
 30
0.0
 11
3518.040454405327
 21
3765.718703522841
 31
0.0
  0
LINE
  5
16A43
330
1666B
100
AcDbEntity
  8
HATCH
100
AcDbLine
 10
4568.145558914543
 20
2757.718703522841
 30
0.0
 11
4660.521601984851
 21
2917.718703522787
 31
0.0
  0
LINE
  5
16A44
330
1666B
100
AcDbEntity
  8
HATCH
100
AcDbLine
 10
4596.521601984873
 20
2917.718703522786
 30
0.0
 11
4628.521601984862
 21
2862.293077680604
 31
0.0
  0
LINE
  5
16A45
330
1666B
100
AcDbEntity
  8
HATCH
100
AcDbLine
 10
4600.14555891453
 20
2813.144329365029
 30
0.0
 11
4632.145558914521
 21
2757.718703522841
 31
0.0
  0
LINE
  5
16A46
330
1666B
100
AcDbEntity
  8
HATCH
100
AcDbLine
 10
4088.145558914543
 20
2757.718703522841
 30
0.0
 11
4180.521601984851
 21
2917.718703522787
 31
0.0
  0
LINE
  5
16A47
330
1666B
100
AcDbEntity
  8
HATCH
100
AcDbLine
 10
4116.521601984874
 20
2917.718703522786
 30
0.0
 11
4148.521601984863
 21
2862.293077680604
 31
0.0
  0
LINE
  5
16A48
330
1666B
100
AcDbEntity
  8
HATCH
100
AcDbLine
 10
4120.145558914532
 20
2813.144329365029
 30
0.0
 11
4152.145558914519
 21
2757.718703522841
 31
0.0
  0
LINE
  5
16A49
330
1666B
100
AcDbEntity
  8
HATCH
100
AcDbLine
 10
4328.145558914541
 20
2757.718703522841
 30
0.0
 11
4420.521601984851
 21
2917.718703522787
 31
0.0
  0
LINE
  5
16A4A
330
1666B
100
AcDbEntity
  8
HATCH
100
AcDbLine
 10
4356.521601984873
 20
2917.718703522786
 30
0.0
 11
4388.521601984861
 21
2862.293077680604
 31
0.0
  0
LINE
  5
16A4B
330
1666B
100
AcDbEntity
  8
HATCH
100
AcDbLine
 10
4360.14555891453
 20
2813.144329365029
 30
0.0
 11
4392.145558914521
 21
2757.718703522841
 31
0.0
  0
LINE
  5
16A4C
330
1666B
100
AcDbEntity
  8
HATCH
100
AcDbLine
 10
3848.145558914538
 20
2757.718703522841
 30
0.0
 11
3940.521601984848
 21
2917.718703522787
 31
0.0
  0
LINE
  5
16A4D
330
1666B
100
AcDbEntity
  8
HATCH
100
AcDbLine
 10
3876.521601984869
 20
2917.718703522786
 30
0.0
 11
3908.521601984858
 21
2862.293077680604
 31
0.0
  0
LINE
  5
16A4E
330
1666B
100
AcDbEntity
  8
HATCH
100
AcDbLine
 10
3880.145558914529
 20
2813.144329365029
 30
0.0
 11
3912.145558914517
 21
2757.718703522841
 31
0.0
  0
LINE
  5
16A4F
330
1666B
100
AcDbEntity
  8
HATCH
100
AcDbLine
 10
3608.145558914543
 20
2757.718703522841
 30
0.0
 11
3700.521601984852
 21
2917.718703522787
 31
0.0
  0
LINE
  5
16A50
330
1666B
100
AcDbEntity
  8
HATCH
100
AcDbLine
 10
3636.521601984874
 20
2917.718703522786
 30
0.0
 11
3668.521601984862
 21
2862.293077680604
 31
0.0
  0
LINE
  5
16A51
330
1666B
100
AcDbEntity
  8
HATCH
100
AcDbLine
 10
3640.145558914531
 20
2813.144329365029
 30
0.0
 11
3672.14555891452
 21
2757.718703522841
 31
0.0
  0
LINE
  5
16A52
330
1666B
100
AcDbEntity
  8
TENSEN-1
100
AcDbLine
 10
4589.240454405495
 20
3165.718703522844
 30
0.0
 11
4637.240454405492
 21
3165.718703522844
 31
0.0
  0
LINE
  5
16A53
330
1666B
100
AcDbEntity
  8
TENSEN-1
100
AcDbLine
 10
4637.240454405492
 20
3165.718703522844
 30
0.0
 11
4637.240454405492
 21
3816.918703522842
 31
0.0
  0
LINE
  5
16A54
330
1666B
100
AcDbEntity
  8
TENSEN-1
100
AcDbLine
 10
4637.240454405492
 20
3816.918703522842
 30
0.0
 11
4658.040454405493
 21
3816.918703522842
 31
0.0
  0
LINE
  5
16A55
330
1666B
100
AcDbEntity
  8
TENSEN-1
100
AcDbLine
 10
4658.040454405493
 20
3816.918703522842
 30
0.0
 11
4658.040454405493
 21
3144.918703522842
 31
0.0
  0
LINE
  5
16A56
330
1666B
100
AcDbEntity
  8
TENSEN-1
100
AcDbLine
 10
4658.040454405493
 20
3144.918703522842
 30
0.0
 11
4589.240454405495
 21
3144.918703522846
 31
0.0
  0
LINE
  5
16A57
330
1666B
100
AcDbEntity
  8
TENSEN-1
100
AcDbLine
 10
4589.240454405495
 20
3144.918703522846
 30
0.0
 11
4589.240454405495
 21
3165.718703522844
 31
0.0
  0
LINE
  5
16A58
330
1666B
100
AcDbEntity
  8
HATCH
100
AcDbLine
 10
3047.640454405363
 20
3765.718703522841
 30
0.0
 11
3103.066080247515
 21
3861.718703522754
 31
0.0
  0
LINE
  5
16A59
330
1666B
100
AcDbEntity
  8
HATCH
100
AcDbLine
 10
3064.666080247551
 20
3861.718703522754
 30
0.0
 11
3083.866080247533
 21
3828.463328017464
 31
0.0
  0
LINE
  5
16A5A
330
1666B
100
AcDbEntity
  8
HATCH
100
AcDbLine
 10
3066.840454405344
 20
3798.974079028135
 30
0.0
 11
3086.040454405327
 21
3765.718703522841
 31
0.0
  0
LINE
  5
16A5B
330
1666B
100
AcDbEntity
  8
HATCH
100
AcDbLine
 10
2903.640454405362
 20
3765.718703522841
 30
0.0
 11
2959.066080247516
 21
3861.718703522754
 31
0.0
  0
LINE
  5
16A5C
330
1666B
100
AcDbEntity
  8
HATCH
100
AcDbLine
 10
2920.666080247551
 20
3861.718703522754
 30
0.0
 11
2939.866080247533
 21
3828.463328017464
 31
0.0
  0
LINE
  5
16A5D
330
1666B
100
AcDbEntity
  8
HATCH
100
AcDbLine
 10
2922.840454405344
 20
3798.974079028135
 30
0.0
 11
2942.040454405328
 21
3765.718703522841
 31
0.0
  0
LINE
  5
16A5E
330
1666B
100
AcDbEntity
  8
HASIRA
100
AcDbLine
 10
4736.360454405487
 20
3784.918703522842
 30
0.0
 11
4736.36045440549
 21
4439.941176311282
 31
0.0
  0
LINE
  5
16A5F
330
1666B
100
AcDbEntity
  8
KISO
100
AcDbLine
 10
4583.640454405496
 20
3765.718703522841
 30
0.0
 11
5031.640454405497
 21
3765.718703522844
 31
0.0
  0
LINE
  5
16A60
330
1666B
100
AcDbEntity
  8
KISO
100
AcDbLine
 10
5031.640454405497
 20
3765.718703522844
 30
0.0
 11
5031.640454405497
 21
3784.918703522842
 31
0.0
  0
LINE
  5
16A61
330
1666B
100
AcDbEntity
  8
KISO
100
AcDbLine
 10
5031.640454405497
 20
3784.918703522842
 30
0.0
 11
4583.640454405496
 21
3784.918703522842
 31
0.0
  0
LINE
  5
16A62
330
1666B
100
AcDbEntity
  8
KISO
100
AcDbLine
 10
4583.640454405496
 20
3784.918703522842
 30
0.0
 11
4583.640454405496
 21
3765.718703522841
 31
0.0
  0
LINE
  5
16A63
330
1666B
100
AcDbEntity
  8
1PL-M1
100
AcDbLine
 10
4807.640454405497
 20
2413.731788496596
 30
0.0
 11
4807.640454405493
 21
4439.941176311282
 31
0.0
  0
LINE
  5
16A64
330
1666B
100
AcDbEntity
  8
DOMAKON
100
AcDbLine
 10
6819.127507899648
 20
6843.693182432328
 30
0.0
 11
10019.12750789964
 21
6843.693182432328
 31
0.0
  0
LINE
  5
16A65
330
1666B
100
AcDbEntity
  8
DOMAKON
100
AcDbLine
 10
10019.12750789964
 20
6843.693182432328
 30
0.0
 11
10019.12750789964
 21
9083.693182432327
 31
0.0
  0
LINE
  5
16A66
330
1666B
100
AcDbEntity
  8
DOMAKON
100
AcDbLine
 10
10019.12750789964
 20
9083.693182432327
 30
0.0
 11
6819.127507899648
 21
9083.693182432327
 31
0.0
  0
LINE
  5
16A67
330
1666B
100
AcDbEntity
  8
DOMAKON
100
AcDbLine
 10
6819.127507899648
 20
9083.693182432327
 30
0.0
 11
6819.127507899648
 21
6843.693182432328
 31
0.0
  0
LINE
  5
16A68
330
1666B
100
AcDbEntity
  8
YANE
  6
2PL-M
100
AcDbLine
 10
9840.928160950877
 20
6970.143910050989
 30
0.0
 11
6997.326854848409
 21
6970.143910050989
 31
0.0
  0
LINE
  5
16A69
330
1666B
100
AcDbEntity
  8
YANE
  6
2PL-M
100
AcDbLine
 10
6997.326854848409
 20
6970.143910050989
 30
0.0
 11
6997.326854848409
 21
8958.243182432324
 31
0.0
  0
LINE
  5
16A6A
330
1666B
100
AcDbEntity
  8
YANE
  6
2PL-M
100
AcDbLine
 10
6997.326854848409
 20
8958.243182432324
 30
0.0
 11
9840.928160950877
 21
8958.243182432324
 31
0.0
  0
LINE
  5
16A6B
330
1666B
100
AcDbEntity
  8
YANE
  6
2PL-M
100
AcDbLine
 10
9840.928160950877
 20
8958.243182432324
 30
0.0
 11
9840.928160950877
 21
6970.143910050989
 31
0.0
  0
LINE
  5
16A6C
330
1666B
100
AcDbEntity
  8
YODOROGO
100
AcDbLine
 10
15674.80217064596
 20
889.8747482146442
 30
0.0
 11
15674.80217064596
 21
917.8747482146436
 31
0.0
  0
LINE
  5
16A6D
330
1666B
100
AcDbEntity
  8
YODOROGO
100
AcDbLine
 10
15674.80217064596
 20
917.8747482146436
 30
0.0
 11
15618.80217064596
 21
917.8747482146436
 31
0.0
  0
LINE
  5
16A6E
330
1666B
100
AcDbEntity
  8
YODOROGO
100
AcDbLine
 10
15618.80217064596
 20
917.8747482146436
 30
0.0
 11
15618.80217064596
 21
889.8747482146442
 31
0.0
  0
LINE
  5
16A6F
330
1666B
100
AcDbEntity
  8
YODOROGO
100
AcDbLine
 10
15618.80217064596
 20
889.8747482146442
 30
0.0
 11
15674.80217064596
 21
889.8747482146442
 31
0.0
  0
LINE
  5
16A70
330
1666B
100
AcDbEntity
  8
YODOROGO
100
AcDbLine
 10
15794.80217064596
 20
905.8747482146443
 30
0.0
 11
15794.80217064596
 21
713.8747482146436
 31
0.0
  0
LINE
  5
16A71
330
1666B
100
AcDbEntity
  8
YODOROGO
100
AcDbLine
 10
15794.80217064596
 20
713.8747482146436
 30
0.0
 11
15826.80217064596
 21
713.8747482146436
 31
0.0
  0
LINE
  5
16A72
330
1666B
100
AcDbEntity
  8
YODOROGO
100
AcDbLine
 10
15826.80217064596
 20
713.8747482146436
 30
0.0
 11
15826.80217064594
 21
905.8747482146443
 31
0.0
  0
LINE
  5
16A73
330
1666B
100
AcDbEntity
  8
YODOROGO
100
AcDbLine
 10
15826.80217064594
 20
905.8747482146443
 30
0.0
 11
15850.80217064596
 21
905.8747482146443
 31
0.0
  0
LINE
  5
16A74
330
1666B
100
AcDbEntity
  8
YODOROGO
100
AcDbLine
 10
15850.80217064596
 20
905.8747482146443
 30
0.0
 11
15850.80217064596
 21
937.8747482146435
 31
0.0
  0
LINE
  5
16A75
330
1666B
100
AcDbEntity
  8
YODOROGO
100
AcDbLine
 10
15850.80217064596
 20
937.8747482146435
 30
0.0
 11
15766.80217064594
 21
937.8747482146435
 31
0.0
  0
LINE
  5
16A76
330
1666B
100
AcDbEntity
  8
YODOROGO
100
AcDbLine
 10
15766.80217064594
 20
937.8747482146435
 30
0.0
 11
15766.80217064594
 21
957.8747482146436
 31
0.0
  0
LINE
  5
16A77
330
1666B
100
AcDbEntity
  8
YODOROGO
100
AcDbLine
 10
15766.80217064594
 20
957.8747482146436
 30
0.0
 11
15830.80217064596
 21
957.8747482146436
 31
0.0
  0
ARC
  5
16A78
330
1666B
100
AcDbEntity
  8
YODOROGO
100
AcDbCircle
 10
15830.80217064596
 20
977.8747482146435
 30
0.0
 40
20.0
100
AcDbArc
 50
270.0
 51
0.0
  0
LINE
  5
16A79
330
1666B
100
AcDbEntity
  8
YODOROGO
100
AcDbLine
 10
15850.80217064596
 20
977.8747482146435
 30
0.0
 11
15850.80217064596
 21
1013.874748214644
 31
0.0
  0
LINE
  5
16A7A
330
1666B
100
AcDbEntity
  8
YODOROGO
100
AcDbLine
 10
15850.80217064596
 20
1013.874748214644
 30
0.0
 11
15818.80217064596
 21
1013.874748214644
 31
0.0
  0
LINE
  5
16A7B
330
1666B
100
AcDbEntity
  8
YODOROGO
100
AcDbLine
 10
15818.80217064596
 20
1013.874748214644
 30
0.0
 11
15818.80217064596
 21
1001.874748214643
 31
0.0
  0
ARC
  5
16A7C
330
1666B
100
AcDbEntity
  8
YODOROGO
100
AcDbCircle
 10
15810.80217064596
 20
1001.874748214642
 30
0.0
 40
7.999999999998181
100
AcDbArc
 50
270.000000000013
 51
0.0000000000113991
  0
LINE
  5
16A7D
330
1666B
100
AcDbEntity
  8
YODOROGO
100
AcDbLine
 10
15810.80217064596
 20
993.8747482146439
 30
0.0
 11
15730.80217064594
 21
993.8747482146439
 31
0.0
  0
LINE
  5
16A7E
330
1666B
100
AcDbEntity
  8
YODOROGO
100
AcDbLine
 10
15730.80217064594
 20
993.8747482146439
 30
0.0
 11
15730.80217064594
 21
817.8747482146436
 31
0.0
  0
ARC
  5
16A7F
330
1666B
100
AcDbEntity
  8
YODOROGO
100
AcDbCircle
 10
15675.75903786228
 20
818.9194785088274
 30
0.0
 40
55.05304649180789
100
AcDbArc
 50
269.0041020930613
 51
358.912644554925
  0
LINE
  5
16A80
330
1666B
100
AcDbEntity
  8
YODOROGO
100
AcDbLine
 10
15674.80217064596
 20
763.8747482146435
 30
0.0
 11
15674.80217064596
 21
713.8747482146436
 31
0.0
  0
ARC
  5
16A81
330
1666B
100
AcDbEntity
  8
YODOROGO
100
AcDbCircle
 10
15676.95743255803
 20
803.8951756442784
 30
0.0
 40
90.04622428799427
100
AcDbArc
 50
268.6284910216973
 51
356.1663845733032
  0
LINE
  5
16A82
330
1666B
100
AcDbEntity
  8
YODOROGO
100
AcDbLine
 10
15766.80217064596
 20
797.8747482146435
 30
0.0
 11
15766.80217064594
 21
905.8747482146443
 31
0.0
  0
LINE
  5
16A83
330
1666B
100
AcDbEntity
  8
YODOROGO
100
AcDbLine
 10
15766.80217064594
 20
905.8747482146443
 30
0.0
 11
15794.80217064596
 21
905.8747482146443
 31
0.0
  0
LINE
  5
16A84
330
1666B
100
AcDbEntity
  8
YODOROGO
100
AcDbLine
 10
15449.80217064596
 20
909.8747482146439
 30
0.0
 11
15449.80217064596
 21
877.8747482146435
 31
0.0
  0
LINE
  5
16A85
330
1666B
100
AcDbEntity
  8
YODOROGO
100
AcDbLine
 10
15449.80217064596
 20
877.8747482146435
 30
0.0
 11
15361.80217064596
 21
877.8747482146435
 31
0.0
  0
LINE
  5
16A86
330
1666B
100
AcDbEntity
  8
YODOROGO
100
AcDbLine
 10
15361.80217064596
 20
877.8747482146435
 30
0.0
 11
15361.80217064596
 21
909.8747482146439
 31
0.0
  0
LINE
  5
16A87
330
1666B
100
AcDbEntity
  8
YODOROGO
100
AcDbLine
 10
15361.80217064596
 20
909.8747482146439
 30
0.0
 11
15374.80217064596
 21
909.8747482146439
 31
0.0
  0
LINE
  5
16A88
330
1666B
100
AcDbEntity
  8
YODOROGO
100
AcDbLine
 10
15374.80217064596
 20
909.8747482146439
 30
0.0
 11
15361.80217064596
 21
969.8747482146441
 31
0.0
  0
LINE
  5
16A89
330
1666B
100
AcDbEntity
  8
YODOROGO
100
AcDbLine
 10
15361.80217064596
 20
969.8747482146441
 30
0.0
 11
15385.80217064596
 21
969.8747482146441
 31
0.0
  0
LINE
  5
16A8A
330
1666B
100
AcDbEntity
  8
YODOROGO
100
AcDbLine
 10
15385.80217064596
 20
969.8747482146441
 30
0.0
 11
15398.80217064596
 21
909.8747482146439
 31
0.0
  0
LINE
  5
16A8B
330
1666B
100
AcDbEntity
  8
YODOROGO
100
AcDbLine
 10
15398.80217064596
 20
909.8747482146439
 30
0.0
 11
15412.80217064596
 21
909.8747482146439
 31
0.0
  0
LINE
  5
16A8C
330
1666B
100
AcDbEntity
  8
YODOROGO
100
AcDbLine
 10
15412.80217064596
 20
909.8747482146439
 30
0.0
 11
15425.80217064596
 21
969.8747482146441
 31
0.0
  0
LINE
  5
16A8D
330
1666B
100
AcDbEntity
  8
YODOROGO
100
AcDbLine
 10
15425.80217064596
 20
969.8747482146441
 30
0.0
 11
15449.80217064596
 21
969.8747482146441
 31
0.0
  0
LINE
  5
16A8E
330
1666B
100
AcDbEntity
  8
YODOROGO
100
AcDbLine
 10
15449.80217064596
 20
969.8747482146441
 30
0.0
 11
15436.80217064595
 21
909.8747482146439
 31
0.0
  0
LINE
  5
16A8F
330
1666B
100
AcDbEntity
  8
YODOROGO
100
AcDbLine
 10
15436.80217064595
 20
909.8747482146439
 30
0.0
 11
15449.80217064596
 21
909.8747482146439
 31
0.0
  0
LINE
  5
16A90
330
1666B
100
AcDbEntity
  8
YODOROGO
100
AcDbLine
 10
15010.80217064596
 20
1013.874748214644
 30
0.0
 11
15010.80217064596
 21
913.8747482146435
 31
0.0
  0
LINE
  5
16A91
330
1666B
100
AcDbEntity
  8
YODOROGO
100
AcDbLine
 10
15010.80217064596
 20
913.8747482146435
 30
0.0
 11
15040.80217064596
 21
913.8747482146435
 31
0.0
  0
LINE
  5
16A92
330
1666B
100
AcDbEntity
  8
YODOROGO
100
AcDbLine
 10
15040.80217064596
 20
913.8747482146435
 30
0.0
 11
15040.80217064596
 21
1013.874748214644
 31
0.0
  0
LINE
  5
16A93
330
1666B
100
AcDbEntity
  8
YODOROGO
100
AcDbLine
 10
15040.80217064596
 20
1013.874748214644
 30
0.0
 11
15010.80217064596
 21
1013.874748214644
 31
0.0
  0
LINE
  5
16A94
330
1666B
100
AcDbEntity
  8
YODOROGO
100
AcDbLine
 10
15108.80217064596
 20
1013.874748214644
 30
0.0
 11
15108.80217064596
 21
893.8747482146439
 31
0.0
  0
ARC
  5
16A95
330
1666B
100
AcDbEntity
  8
YODOROGO
100
AcDbCircle
 10
15068.80217064596
 20
893.8747482146439
 30
0.0
 40
40.0
100
AcDbArc
 50
270.0
 51
0.0
  0
LINE
  5
16A96
330
1666B
100
AcDbEntity
  8
YODOROGO
100
AcDbLine
 10
15068.80217064596
 20
853.874748214644
 30
0.0
 11
15010.80217064596
 21
853.874748214644
 31
0.0
  0
LINE
  5
16A97
330
1666B
100
AcDbEntity
  8
YODOROGO
100
AcDbLine
 10
15010.80217064596
 20
853.874748214644
 30
0.0
 11
15010.80217064596
 21
885.8747482146441
 31
0.0
  0
LINE
  5
16A98
330
1666B
100
AcDbEntity
  8
YODOROGO
100
AcDbLine
 10
15010.80217064596
 20
885.8747482146441
 30
0.0
 11
15060.80217064596
 21
885.8747482146441
 31
0.0
  0
ARC
  5
16A99
330
1666B
100
AcDbEntity
  8
YODOROGO
100
AcDbCircle
 10
15060.80217064596
 20
905.8747482146443
 30
0.0
 40
20.0
100
AcDbArc
 50
270.0
 51
0.0
  0
LINE
  5
16A9A
330
1666B
100
AcDbEntity
  8
YODOROGO
100
AcDbLine
 10
15080.80217064596
 20
905.8747482146443
 30
0.0
 11
15080.80217064596
 21
1013.874748214644
 31
0.0
  0
LINE
  5
16A9B
330
1666B
100
AcDbEntity
  8
YODOROGO
100
AcDbLine
 10
15080.80217064596
 20
1013.874748214644
 30
0.0
 11
15108.80217064596
 21
1013.874748214644
 31
0.0
  0
LINE
  5
16A9C
330
1666B
100
AcDbEntity
  8
YODOROGO
100
AcDbLine
 10
15248.80217064596
 20
969.8747482146441
 30
0.0
 11
15190.80217064596
 21
909.8747482146439
 31
0.0
  0
LINE
  5
16A9D
330
1666B
100
AcDbEntity
  8
YODOROGO
100
AcDbLine
 10
15190.80217064596
 20
909.8747482146439
 30
0.0
 11
15190.80217064596
 21
953.874748214644
 31
0.0
  0
LINE
  5
16A9E
330
1666B
100
AcDbEntity
  8
YODOROGO
100
AcDbLine
 10
15190.80217064596
 20
953.874748214644
 30
0.0
 11
15248.80217064596
 21
1013.874748214644
 31
0.0
  0
LINE
  5
16A9F
330
1666B
100
AcDbEntity
  8
YODOROGO
100
AcDbLine
 10
15248.80217064596
 20
1013.874748214644
 30
0.0
 11
15308.80217064596
 21
973.8747482146434
 31
0.0
  0
LINE
  5
16AA0
330
1666B
100
AcDbEntity
  8
YODOROGO
100
AcDbLine
 10
15308.80217064596
 20
973.8747482146434
 30
0.0
 11
15308.80217064596
 21
929.874748214644
 31
0.0
  0
LINE
  5
16AA1
330
1666B
100
AcDbEntity
  8
YODOROGO
100
AcDbLine
 10
15308.80217064596
 20
929.874748214644
 30
0.0
 11
15248.80217064596
 21
969.8747482146441
 31
0.0
  0
LINE
  5
16AA2
330
1666B
100
AcDbEntity
  8
YODOROGO
100
AcDbLine
 10
15190.80217064596
 20
786.8747482146444
 30
0.0
 11
15190.80217064596
 21
800.8747482146432
 31
0.0
  0
LINE
  5
16AA3
330
1666B
100
AcDbEntity
  8
YODOROGO
100
AcDbLine
 10
15190.80217064596
 20
800.8747482146432
 30
0.0
 11
15216.80217064596
 21
800.8747482146432
 31
0.0
  0
LINE
  5
16AA4
330
1666B
100
AcDbEntity
  8
YODOROGO
100
AcDbLine
 10
15216.80217064596
 20
800.8747482146432
 30
0.0
 11
15216.80217064596
 21
786.8747482146444
 31
0.0
  0
LINE
  5
16AA5
330
1666B
100
AcDbEntity
  8
YODOROGO
100
AcDbLine
 10
15216.80217064596
 20
786.8747482146444
 30
0.0
 11
15190.80217064596
 21
786.8747482146444
 31
0.0
  0
LINE
  5
16AA6
330
1666B
100
AcDbEntity
  8
YODOROGO
100
AcDbLine
 10
15192.80217064595
 20
788.8747482146436
 30
0.0
 11
15192.80217064595
 21
798.874748214644
 31
0.0
  0
LINE
  5
16AA7
330
1666B
100
AcDbEntity
  8
YODOROGO
100
AcDbLine
 10
15192.80217064595
 20
798.874748214644
 30
0.0
 11
15214.80217064596
 21
798.874748214644
 31
0.0
  0
LINE
  5
16AA8
330
1666B
100
AcDbEntity
  8
YODOROGO
100
AcDbLine
 10
15214.80217064596
 20
798.874748214644
 30
0.0
 11
15214.80217064596
 21
788.8747482146436
 31
0.0
  0
LINE
  5
16AA9
330
1666B
100
AcDbEntity
  8
YODOROGO
100
AcDbLine
 10
15214.80217064596
 20
788.8747482146436
 30
0.0
 11
15192.80217064595
 21
788.8747482146436
 31
0.0
  0
LINE
  5
16AAA
330
1666B
100
AcDbEntity
  8
YODOROGO
100
AcDbLine
 10
15194.80217064596
 20
790.8747482146432
 30
0.0
 11
15194.80217064596
 21
796.8747482146445
 31
0.0
  0
LINE
  5
16AAB
330
1666B
100
AcDbEntity
  8
YODOROGO
100
AcDbLine
 10
15194.80217064596
 20
796.8747482146445
 30
0.0
 11
15212.80217064596
 21
796.8747482146445
 31
0.0
  0
LINE
  5
16AAC
330
1666B
100
AcDbEntity
  8
YODOROGO
100
AcDbLine
 10
15212.80217064596
 20
796.8747482146445
 30
0.0
 11
15212.80217064596
 21
790.8747482146432
 31
0.0
  0
LINE
  5
16AAD
330
1666B
100
AcDbEntity
  8
YODOROGO
100
AcDbLine
 10
15212.80217064596
 20
790.8747482146432
 30
0.0
 11
15194.80217064596
 21
790.8747482146432
 31
0.0
  0
LINE
  5
16AAE
330
1666B
100
AcDbEntity
  8
YODOROGO
100
AcDbLine
 10
15196.80217064596
 20
792.8747482146435
 30
0.0
 11
15196.80217064596
 21
794.8747482146441
 31
0.0
  0
LINE
  5
16AAF
330
1666B
100
AcDbEntity
  8
YODOROGO
100
AcDbLine
 10
15196.80217064596
 20
794.8747482146441
 30
0.0
 11
15210.80217064596
 21
794.8747482146441
 31
0.0
  0
LINE
  5
16AB0
330
1666B
100
AcDbEntity
  8
YODOROGO
100
AcDbLine
 10
15210.80217064596
 20
794.8747482146441
 30
0.0
 11
15210.80217064596
 21
792.8747482146435
 31
0.0
  0
LINE
  5
16AB1
330
1666B
100
AcDbEntity
  8
YODOROGO
100
AcDbLine
 10
15210.80217064596
 20
792.8747482146435
 30
0.0
 11
15196.80217064596
 21
792.8747482146435
 31
0.0
  0
LINE
  5
16AB2
330
1666B
100
AcDbEntity
  8
YODOROGO
100
AcDbLine
 10
15415.80217064596
 20
877.8747482146435
 30
0.0
 11
15415.80217064596
 21
781.8747482146434
 31
0.0
  0
LINE
  5
16AB3
330
1666B
100
AcDbEntity
  8
YODOROGO
100
AcDbLine
 10
15415.80217064596
 20
781.8747482146434
 30
0.0
 11
15429.80217064596
 21
781.8747482146434
 31
0.0
  0
LINE
  5
16AB4
330
1666B
100
AcDbEntity
  8
YODOROGO
100
AcDbLine
 10
15429.80217064596
 20
781.8747482146434
 30
0.0
 11
15429.80217064596
 21
845.8747482146444
 31
0.0
  0
LINE
  5
16AB5
330
1666B
100
AcDbEntity
  8
YODOROGO
100
AcDbLine
 10
15429.80217064596
 20
845.8747482146444
 30
0.0
 11
15449.80217064596
 21
845.8747482146444
 31
0.0
  0
LINE
  5
16AB6
330
1666B
100
AcDbEntity
  8
YODOROGO
100
AcDbLine
 10
15449.80217064596
 20
845.8747482146444
 30
0.0
 11
15449.80217064596
 21
745.8747482146443
 31
0.0
  0
LINE
  5
16AB7
330
1666B
100
AcDbEntity
  8
YODOROGO
100
AcDbLine
 10
15449.80217064596
 20
745.8747482146443
 30
0.0
 11
15361.80217064596
 21
745.8747482146443
 31
0.0
  0
LINE
  5
16AB8
330
1666B
100
AcDbEntity
  8
YODOROGO
100
AcDbLine
 10
15361.80217064596
 20
745.8747482146443
 30
0.0
 11
15361.80217064596
 21
845.8747482146444
 31
0.0
  0
LINE
  5
16AB9
330
1666B
100
AcDbEntity
  8
YODOROGO
100
AcDbLine
 10
15361.80217064596
 20
845.8747482146444
 30
0.0
 11
15381.80217064596
 21
845.8747482146444
 31
0.0
  0
LINE
  5
16ABA
330
1666B
100
AcDbEntity
  8
YODOROGO
100
AcDbLine
 10
15381.80217064596
 20
845.8747482146444
 30
0.0
 11
15381.80217064596
 21
781.8747482146434
 31
0.0
  0
LINE
  5
16ABB
330
1666B
100
AcDbEntity
  8
YODOROGO
100
AcDbLine
 10
15381.80217064596
 20
781.8747482146434
 30
0.0
 11
15395.80217064596
 21
781.8747482146434
 31
0.0
  0
LINE
  5
16ABC
330
1666B
100
AcDbEntity
  8
YODOROGO
100
AcDbLine
 10
15395.80217064596
 20
781.8747482146434
 30
0.0
 11
15395.80217064596
 21
877.8747482146435
 31
0.0
  0
LINE
  5
16ABD
330
1666B
100
AcDbEntity
  8
YODOROGO
100
AcDbLine
 10
15395.80217064596
 20
877.8747482146435
 30
0.0
 11
15415.80217064596
 21
877.8747482146435
 31
0.0
  0
LINE
  5
16ABE
330
1666B
100
AcDbEntity
  8
YODOROGO
100
AcDbLine
 10
15462.80217064596
 20
773.874748214644
 30
0.0
 11
15462.80217064596
 21
981.8747482146434
 31
0.0
  0
LINE
  5
16ABF
330
1666B
100
AcDbEntity
  8
YODOROGO
100
AcDbLine
 10
15462.80217064596
 20
981.8747482146434
 30
0.0
 11
15348.80217064596
 21
981.8747482146434
 31
0.0
  0
LINE
  5
16AC0
330
1666B
100
AcDbEntity
  8
YODOROGO
100
AcDbLine
 10
15348.80217064596
 20
981.8747482146434
 30
0.0
 11
15348.80217064596
 21
713.8747482146436
 31
0.0
  0
LINE
  5
16AC1
330
1666B
100
AcDbEntity
  8
YODOROGO
100
AcDbLine
 10
15348.80217064596
 20
713.8747482146436
 30
0.0
 11
15322.80217064596
 21
713.8747482146436
 31
0.0
  0
LINE
  5
16AC2
330
1666B
100
AcDbEntity
  8
YODOROGO
100
AcDbLine
 10
15322.80217064596
 20
713.8747482146436
 30
0.0
 11
15322.80217064596
 21
1013.874748214644
 31
0.0
  0
LINE
  5
16AC3
330
1666B
100
AcDbEntity
  8
YODOROGO
100
AcDbLine
 10
15322.80217064596
 20
1013.874748214644
 30
0.0
 11
15486.80217064596
 21
1013.874748214644
 31
0.0
  0
LINE
  5
16AC4
330
1666B
100
AcDbEntity
  8
YODOROGO
100
AcDbLine
 10
15486.80217064596
 20
1013.874748214644
 30
0.0
 11
15486.80217064596
 21
733.8747482146435
 31
0.0
  0
ARC
  5
16AC5
330
1666B
100
AcDbEntity
  8
YODOROGO
100
AcDbCircle
 10
15466.80217064596
 20
733.8747482146435
 30
0.0
 40
20.0
100
AcDbArc
 50
270.0
 51
0.0
  0
LINE
  5
16AC6
330
1666B
100
AcDbEntity
  8
YODOROGO
100
AcDbLine
 10
15466.80217064596
 20
713.8747482146436
 30
0.0
 11
15449.80217064596
 21
713.8747482146436
 31
0.0
  0
LINE
  5
16AC7
330
1666B
100
AcDbEntity
  8
YODOROGO
100
AcDbLine
 10
15449.80217064596
 20
713.8747482146436
 30
0.0
 11
15449.80217064596
 21
773.874748214644
 31
0.0
  0
LINE
  5
16AC8
330
1666B
100
AcDbEntity
  8
YODOROGO
100
AcDbLine
 10
15449.80217064596
 20
773.874748214644
 30
0.0
 11
15462.80217064596
 21
773.874748214644
 31
0.0
  0
LINE
  5
16AC9
330
1666B
100
AcDbEntity
  8
YODOROGO
100
AcDbLine
 10
15232.80217064596
 20
867.8747482146436
 30
0.0
 11
15190.80217064596
 21
867.8747482146436
 31
0.0
  0
LINE
  5
16ACA
330
1666B
100
AcDbEntity
  8
YODOROGO
100
AcDbLine
 10
15190.80217064596
 20
867.8747482146436
 30
0.0
 11
15190.80217064596
 21
897.8747482146435
 31
0.0
  0
LINE
  5
16ACB
330
1666B
100
AcDbEntity
  8
YODOROGO
100
AcDbLine
 10
15190.80217064596
 20
897.8747482146435
 30
0.0
 11
15308.80217064596
 21
897.8747482146435
 31
0.0
  0
LINE
  5
16ACC
330
1666B
100
AcDbEntity
  8
YODOROGO
100
AcDbLine
 10
15308.80217064596
 20
897.8747482146435
 30
0.0
 11
15308.80217064596
 21
867.8747482146436
 31
0.0
  0
LINE
  5
16ACD
330
1666B
100
AcDbEntity
  8
YODOROGO
100
AcDbLine
 10
15308.80217064596
 20
867.8747482146436
 30
0.0
 11
15264.80217064596
 21
867.8747482146436
 31
0.0
  0
LINE
  5
16ACE
330
1666B
100
AcDbEntity
  8
YODOROGO
100
AcDbLine
 10
15264.80217064596
 20
867.8747482146436
 30
0.0
 11
15264.80217064596
 21
839.8747482146442
 31
0.0
  0
LINE
  5
16ACF
330
1666B
100
AcDbEntity
  8
YODOROGO
100
AcDbLine
 10
15264.80217064596
 20
839.8747482146442
 30
0.0
 11
15308.80217064596
 21
839.8747482146442
 31
0.0
  0
LINE
  5
16AD0
330
1666B
100
AcDbEntity
  8
YODOROGO
100
AcDbLine
 10
15308.80217064596
 20
839.8747482146442
 30
0.0
 11
15308.80217064596
 21
813.8747482146435
 31
0.0
  0
LINE
  5
16AD1
330
1666B
100
AcDbEntity
  8
YODOROGO
100
AcDbLine
 10
15308.80217064596
 20
813.8747482146435
 30
0.0
 11
15264.80217064596
 21
813.8747482146435
 31
0.0
  0
LINE
  5
16AD2
330
1666B
100
AcDbEntity
  8
YODOROGO
100
AcDbLine
 10
15264.80217064596
 20
813.8747482146435
 30
0.0
 11
15264.80217064596
 21
773.874748214644
 31
0.0
  0
LINE
  5
16AD3
330
1666B
100
AcDbEntity
  8
YODOROGO
100
AcDbLine
 10
15264.80217064596
 20
773.874748214644
 30
0.0
 11
15272.80217064594
 21
773.874748214644
 31
0.0
  0
ARC
  5
16AD4
330
1666B
100
AcDbEntity
  8
YODOROGO
100
AcDbCircle
 10
15272.80217064596
 20
785.8747482146461
 30
0.0
 40
12.00000000000227
100
AcDbArc
 50
269.9999999999914
 51
359.9999999999859
  0
LINE
  5
16AD5
330
1666B
100
AcDbEntity
  8
YODOROGO
100
AcDbLine
 10
15284.80217064596
 20
785.8747482146432
 30
0.0
 11
15284.80217064596
 21
799.8747482146441
 31
0.0
  0
LINE
  5
16AD6
330
1666B
100
AcDbEntity
  8
YODOROGO
100
AcDbLine
 10
15284.80217064596
 20
799.8747482146441
 30
0.0
 11
15308.80217064596
 21
799.8747482146441
 31
0.0
  0
LINE
  5
16AD7
330
1666B
100
AcDbEntity
  8
YODOROGO
100
AcDbLine
 10
15308.80217064596
 20
799.8747482146441
 30
0.0
 11
15308.80217064596
 21
753.8747482146439
 31
0.0
  0
ARC
  5
16AD8
330
1666B
100
AcDbEntity
  8
YODOROGO
100
AcDbCircle
 10
15268.80217064596
 20
753.8747482146439
 30
0.0
 40
40.0
100
AcDbArc
 50
270.0
 51
0.0
  0
LINE
  5
16AD9
330
1666B
100
AcDbEntity
  8
YODOROGO
100
AcDbLine
 10
15268.80217064596
 20
713.8747482146436
 30
0.0
 11
15190.80217064596
 21
713.8747482146436
 31
0.0
  0
LINE
  5
16ADA
330
1666B
100
AcDbEntity
  8
YODOROGO
100
AcDbLine
 10
15190.80217064596
 20
713.8747482146436
 30
0.0
 11
15190.80217064596
 21
773.874748214644
 31
0.0
  0
LINE
  5
16ADB
330
1666B
100
AcDbEntity
  8
YODOROGO
100
AcDbLine
 10
15190.80217064596
 20
773.874748214644
 30
0.0
 11
15232.80217064596
 21
773.874748214644
 31
0.0
  0
LINE
  5
16ADC
330
1666B
100
AcDbEntity
  8
YODOROGO
100
AcDbLine
 10
15232.80217064596
 20
773.874748214644
 30
0.0
 11
15232.80217064596
 21
813.8747482146435
 31
0.0
  0
LINE
  5
16ADD
330
1666B
100
AcDbEntity
  8
YODOROGO
100
AcDbLine
 10
15232.80217064596
 20
813.8747482146435
 30
0.0
 11
15190.80217064596
 21
813.8747482146435
 31
0.0
  0
LINE
  5
16ADE
330
1666B
100
AcDbEntity
  8
YODOROGO
100
AcDbLine
 10
15190.80217064596
 20
813.8747482146435
 30
0.0
 11
15190.80217064596
 21
839.8747482146442
 31
0.0
  0
LINE
  5
16ADF
330
1666B
100
AcDbEntity
  8
YODOROGO
100
AcDbLine
 10
15190.80217064596
 20
839.8747482146442
 30
0.0
 11
15232.80217064596
 21
839.8747482146442
 31
0.0
  0
LINE
  5
16AE0
330
1666B
100
AcDbEntity
  8
YODOROGO
100
AcDbLine
 10
15232.80217064596
 20
839.8747482146442
 30
0.0
 11
15232.80217064596
 21
867.8747482146436
 31
0.0
  0
LINE
  5
16AE1
330
1666B
100
AcDbEntity
  8
YODOROGO
100
AcDbLine
 10
15618.80217064596
 20
797.8747482146435
 30
0.0
 11
15618.80217064596
 21
853.874748214644
 31
0.0
  0
LINE
  5
16AE2
330
1666B
100
AcDbEntity
  8
YODOROGO
100
AcDbLine
 10
15618.80217064596
 20
853.874748214644
 30
0.0
 11
15706.80217064596
 21
853.874748214644
 31
0.0
  0
LINE
  5
16AE3
330
1666B
100
AcDbEntity
  8
YODOROGO
100
AcDbLine
 10
15706.80217064596
 20
853.874748214644
 30
0.0
 11
15706.80217064596
 21
953.874748214644
 31
0.0
  0
LINE
  5
16AE4
330
1666B
100
AcDbEntity
  8
YODOROGO
100
AcDbLine
 10
15706.80217064596
 20
953.874748214644
 30
0.0
 11
15582.80217064596
 21
953.874748214644
 31
0.0
  0
LINE
  5
16AE5
330
1666B
100
AcDbEntity
  8
YODOROGO
100
AcDbLine
 10
15582.80217064596
 20
953.874748214644
 30
0.0
 11
15582.80217064596
 21
817.8747482146436
 31
0.0
  0
ARC
  5
16AE6
330
1666B
100
AcDbEntity
  8
YODOROGO
100
AcDbCircle
 10
15519.86069778339
 20
818.7656950548657
 30
0.0
 40
62.94777829583679
100
AcDbArc
 50
295.3405244216012
 51
359.1890230341872
  0
LINE
  5
16AE7
330
1666B
100
AcDbEntity
  8
YODOROGO
100
AcDbLine
 10
15546.80217064596
 20
761.8747482146434
 30
0.0
 11
15546.80217064596
 21
713.8747482146436
 31
0.0
  0
ARC
  5
16AE8
330
1666B
100
AcDbEntity
  8
YODOROGO
100
AcDbCircle
 10
15529.75894667896
 20
801.3403687577881
 30
0.0
 40
89.11064055536114
100
AcDbArc
 50
281.0262749542548
 51
357.771135755738
  0
LINE
  5
16AE9
330
1666B
100
AcDbEntity
  8
YODOROGO
100
AcDbLine
 10
15582.80217064596
 20
1013.874748214644
 30
0.0
 11
15582.80217064596
 21
981.8747482146434
 31
0.0
  0
LINE
  5
16AEA
330
1666B
100
AcDbEntity
  8
YODOROGO
100
AcDbLine
 10
15582.80217064596
 20
981.8747482146434
 30
0.0
 11
15706.80217064596
 21
981.8747482146434
 31
0.0
  0
LINE
  5
16AEB
330
1666B
100
AcDbEntity
  8
YODOROGO
100
AcDbLine
 10
15706.80217064596
 20
981.8747482146434
 30
0.0
 11
15706.80217064596
 21
1013.874748214644
 31
0.0
  0
LINE
  5
16AEC
330
1666B
100
AcDbEntity
  8
YODOROGO
100
AcDbLine
 10
15706.80217064596
 20
1013.874748214644
 30
0.0
 11
15582.80217064596
 21
1013.874748214644
 31
0.0
  0
ARC
  5
16AED
330
1666B
100
AcDbEntity
  8
YODOROGO
100
AcDbCircle
 10
14454.5930853599
 20
796.3053643052199
 30
0.0
 40
82.46021178042751
100
AcDbArc
 50
271.5351210653781
 51
355.5272775058505
  0
LINE
  5
16AEE
330
1666B
100
AcDbEntity
  8
YODOROGO
100
AcDbLine
 10
14536.80217064596
 20
789.8747482146441
 30
0.0
 11
14536.80217064596
 21
1013.874748214644
 31
0.0
  0
LINE
  5
16AEF
330
1666B
100
AcDbEntity
  8
YODOROGO
100
AcDbLine
 10
14536.80217064596
 20
1013.874748214644
 30
0.0
 11
14500.80217064594
 21
1013.874748214644
 31
0.0
  0
LINE
  5
16AF0
330
1666B
100
AcDbEntity
  8
YODOROGO
100
AcDbLine
 10
14500.80217064594
 20
1013.874748214644
 30
0.0
 11
14500.80217064594
 21
809.8747482146441
 31
0.0
  0
ARC
  5
16AF1
330
1666B
100
AcDbEntity
  8
YODOROGO
100
AcDbCircle
 10
14453.45578809342
 20
809.1089322211363
 30
0.0
 40
47.35257558937173
100
AcDbArc
 50
274.0524416290722
 51
0.9266642149309848
  0
LINE
  5
16AF2
330
1666B
100
AcDbEntity
  8
YODOROGO
100
AcDbLine
 10
14456.80217064596
 20
761.8747482146434
 30
0.0
 11
14456.80217064596
 21
713.8747482146436
 31
0.0
  0
LINE
  5
16AF3
330
1666B
100
AcDbEntity
  8
YODOROGO
100
AcDbLine
 10
14630.80217064596
 20
1003.874748214644
 30
0.0
 11
14598.80217064596
 21
1003.874748214644
 31
0.0
  0
LINE
  5
16AF4
330
1666B
100
AcDbEntity
  8
YODOROGO
100
AcDbLine
 10
14598.80217064596
 20
1003.874748214644
 30
0.0
 11
14598.80217064596
 21
745.8747482146431
 31
0.0
  0
LINE
  5
16AF5
330
1666B
100
AcDbEntity
  8
YODOROGO
100
AcDbLine
 10
14598.80217064596
 20
745.8747482146431
 30
0.0
 11
14630.80217064596
 21
745.8747482146431
 31
0.0
  0
LINE
  5
16AF6
330
1666B
100
AcDbEntity
  8
YODOROGO
100
AcDbLine
 10
14630.80217064596
 20
745.8747482146431
 30
0.0
 11
14630.80217064596
 21
1003.874748214644
 31
0.0
  0
LINE
  5
16AF7
330
1666B
100
AcDbEntity
  8
YODOROGO
100
AcDbLine
 10
14728.80217064596
 20
713.8747482146436
 30
0.0
 11
14728.80217064596
 21
1013.874748214644
 31
0.0
  0
LINE
  5
16AF8
330
1666B
100
AcDbEntity
  8
YODOROGO
100
AcDbLine
 10
14728.80217064596
 20
1013.874748214644
 30
0.0
 11
14692.80217064596
 21
1013.874748214644
 31
0.0
  0
LINE
  5
16AF9
330
1666B
100
AcDbEntity
  8
YODOROGO
100
AcDbLine
 10
14692.80217064596
 20
1013.874748214644
 30
0.0
 11
14692.80217064596
 21
713.8747482146436
 31
0.0
  0
LINE
  5
16AFA
330
1666B
100
AcDbEntity
  8
YODOROGO
100
AcDbLine
 10
14692.80217064596
 20
713.8747482146436
 30
0.0
 11
14728.80217064596
 21
713.8747482146436
 31
0.0
  0
LINE
  5
16AFB
330
1666B
100
AcDbEntity
  8
YODOROGO
100
AcDbLine
 10
14064.80217064595
 20
873.8747482146434
 30
0.0
 11
14068.80217064596
 21
873.8747482146434
 31
0.0
1001
AUTOCAD_POSTSCRIPT_FIGURE
1002
{
1000
PSFILL
1000
Grayscale
1000
Grayscale
1070
   100
1002
}
  0
LINE
  5
16AFC
330
1666B
100
AcDbEntity
  8
YODOROGO
100
AcDbLine
 10
14068.80217064596
 20
873.8747482146434
 30
0.0
 11
14049.45149343671
 21
969.8747482146441
 31
0.0
1001
AUTOCAD_POSTSCRIPT_FIGURE
1002
{
1000
PSFILL
1000
Grayscale
1000
Grayscale
1070
   100
1002
}
  0
LINE
  5
16AFD
330
1666B
100
AcDbEntity
  8
YODOROGO
100
AcDbLine
 10
14049.45149343671
 20
969.8747482146441
 30
0.0
 11
14068.80217064596
 21
969.8747482146441
 31
0.0
1001
AUTOCAD_POSTSCRIPT_FIGURE
1002
{
1000
PSFILL
1000
Grayscale
1000
Grayscale
1070
   100
1002
}
  0
LINE
  5
16AFE
330
1666B
100
AcDbEntity
  8
YODOROGO
100
AcDbLine
 10
14068.80217064596
 20
969.8747482146441
 30
0.0
 11
14068.80217064596
 21
977.8747482146435
 31
0.0
1001
AUTOCAD_POSTSCRIPT_FIGURE
1002
{
1000
PSFILL
1000
Grayscale
1000
Grayscale
1070
   100
1002
}
  0
LINE
  5
16AFF
330
1666B
100
AcDbEntity
  8
YODOROGO
100
AcDbLine
 10
14068.80217064596
 20
977.8747482146435
 30
0.0
 11
14068.80217064596
 21
989.8747482146442
 31
0.0
1001
AUTOCAD_POSTSCRIPT_FIGURE
1002
{
1000
PSFILL
1000
Grayscale
1000
Grayscale
1070
   100
1002
}
  0
LINE
  5
16B00
330
1666B
100
AcDbEntity
  8
YODOROGO
100
AcDbLine
 10
14068.80217064596
 20
989.8747482146442
 30
0.0
 11
14060.80217064596
 21
989.8747482146442
 31
0.0
1001
AUTOCAD_POSTSCRIPT_FIGURE
1002
{
1000
PSFILL
1000
Grayscale
1000
Grayscale
1070
   100
1002
}
  0
LINE
  5
16B01
330
1666B
100
AcDbEntity
  8
YODOROGO
100
AcDbLine
 10
14060.80217064596
 20
989.8747482146442
 30
0.0
 11
14060.80217064596
 21
977.8747482146435
 31
0.0
1001
AUTOCAD_POSTSCRIPT_FIGURE
1002
{
1000
PSFILL
1000
Grayscale
1000
Grayscale
1070
   100
1002
}
  0
LINE
  5
16B02
330
1666B
100
AcDbEntity
  8
YODOROGO
100
AcDbLine
 10
14060.80217064596
 20
977.8747482146435
 30
0.0
 11
14047.90343925997
 21
977.8747482146435
 31
0.0
1001
AUTOCAD_POSTSCRIPT_FIGURE
1002
{
1000
PSFILL
1000
Grayscale
1000
Grayscale
1070
   100
1002
}
  0
LINE
  5
16B03
330
1666B
100
AcDbEntity
  8
YODOROGO
100
AcDbLine
 10
14047.90343925997
 20
977.8747482146435
 30
0.0
 11
14045.58135799485
 21
989.8747482146442
 31
0.0
1001
AUTOCAD_POSTSCRIPT_FIGURE
1002
{
1000
PSFILL
1000
Grayscale
1000
Grayscale
1070
   100
1002
}
  0
LINE
  5
16B04
330
1666B
100
AcDbEntity
  8
YODOROGO
100
AcDbLine
 10
14045.58135799485
 20
989.8747482146442
 30
0.0
 11
14035.58135799485
 21
989.8747482146442
 31
0.0
1001
AUTOCAD_POSTSCRIPT_FIGURE
1002
{
1000
PSFILL
1000
Grayscale
1000
Grayscale
1070
   100
1002
}
  0
LINE
  5
16B05
330
1666B
100
AcDbEntity
  8
YODOROGO
100
AcDbLine
 10
14035.58135799485
 20
989.8747482146442
 30
0.0
 11
14038.30343925995
 21
977.8747482146435
 31
0.0
1001
AUTOCAD_POSTSCRIPT_FIGURE
1002
{
1000
PSFILL
1000
Grayscale
1000
Grayscale
1070
   100
1002
}
  0
LINE
  5
16B06
330
1666B
100
AcDbEntity
  8
YODOROGO
100
AcDbLine
 10
14038.30343925995
 20
977.8747482146435
 30
0.0
 11
13988.80217064596
 21
977.8747482146435
 31
0.0
1001
AUTOCAD_POSTSCRIPT_FIGURE
1002
{
1000
PSFILL
1000
Grayscale
1000
Grayscale
1070
   100
1002
}
  0
LINE
  5
16B07
330
1666B
100
AcDbEntity
  8
YODOROGO
100
AcDbLine
 10
13988.80217064596
 20
977.8747482146435
 30
0.0
 11
13988.80217064596
 21
969.8747482146441
 31
0.0
1001
AUTOCAD_POSTSCRIPT_FIGURE
1002
{
1000
PSFILL
1000
Grayscale
1000
Grayscale
1070
   100
1002
}
  0
LINE
  5
16B08
330
1666B
100
AcDbEntity
  8
YODOROGO
100
AcDbLine
 10
13988.80217064596
 20
969.8747482146441
 30
0.0
 11
14040.11816010337
 21
969.8747482146441
 31
0.0
1001
AUTOCAD_POSTSCRIPT_FIGURE
1002
{
1000
PSFILL
1000
Grayscale
1000
Grayscale
1070
   100
1002
}
  0
LINE
  5
16B09
330
1666B
100
AcDbEntity
  8
YODOROGO
100
AcDbLine
 10
14040.11816010337
 20
969.8747482146441
 30
0.0
 11
14064.80217064595
 21
873.8747482146434
 31
0.0
1001
AUTOCAD_POSTSCRIPT_FIGURE
1002
{
1000
PSFILL
1000
Grayscale
1000
Grayscale
1070
   100
1002
}
  0
LINE
  5
16B0A
330
1666B
100
AcDbEntity
  8
YODOROGO
100
AcDbLine
 10
13988.80217064596
 20
873.8747482146434
 30
0.0
 11
13988.80217064596
 21
885.8747482146432
 31
0.0
  0
LINE
  5
16B0B
330
1666B
100
AcDbEntity
  8
YODOROGO
100
AcDbLine
 10
13988.80217064596
 20
885.8747482146432
 30
0.0
 11
14010.91839030643
 21
892.3366697971587
 31
0.0
  0
LINE
  5
16B0C
330
1666B
100
AcDbEntity
  8
YODOROGO
100
AcDbLine
 10
14010.91839030643
 20
892.3366697971587
 30
0.0
 11
14010.91839030643
 21
936.2841744681499
 31
0.0
  0
LINE
  5
16B0D
330
1666B
100
AcDbEntity
  8
YODOROGO
100
AcDbLine
 10
14010.91839030643
 20
936.2841744681499
 30
0.0
 11
13988.80217064596
 21
936.2841744681499
 31
0.0
  0
LINE
  5
16B0E
330
1666B
100
AcDbEntity
  8
YODOROGO
100
AcDbLine
 10
13988.80217064596
 20
936.2841744681499
 30
0.0
 11
13988.80217064596
 21
946.2841744681487
 31
0.0
  0
LINE
  5
16B0F
330
1666B
100
AcDbEntity
  8
YODOROGO
100
AcDbLine
 10
13988.80217064596
 20
946.2841744681487
 30
0.0
 11
14039.03460996689
 21
946.2841744681487
 31
0.0
  0
LINE
  5
16B10
330
1666B
100
AcDbEntity
  8
YODOROGO
100
AcDbLine
 10
14039.03460996689
 20
946.2841744681487
 30
0.0
 11
14039.03460996689
 21
936.2841744681499
 31
0.0
  0
LINE
  5
16B11
330
1666B
100
AcDbEntity
  8
YODOROGO
100
AcDbLine
 10
14039.03460996689
 20
936.2841744681499
 30
0.0
 11
14016.91839030643
 21
936.2841744681499
 31
0.0
  0
LINE
  5
16B12
330
1666B
100
AcDbEntity
  8
YODOROGO
100
AcDbLine
 10
14016.91839030643
 20
936.2841744681499
 30
0.0
 11
14016.91839030643
 21
893.4084665668834
 31
0.0
  0
LINE
  5
16B13
330
1666B
100
AcDbEntity
  8
YODOROGO
100
AcDbLine
 10
14016.91839030643
 20
893.4084665668834
 30
0.0
 11
14039.03460996689
 21
899.3344897645364
 31
0.0
  0
LINE
  5
16B14
330
1666B
100
AcDbEntity
  8
YODOROGO
100
AcDbLine
 10
14039.03460996689
 20
899.3344897645364
 30
0.0
 11
14039.03460996689
 21
887.8703881493972
 31
0.0
  0
LINE
  5
16B15
330
1666B
100
AcDbEntity
  8
YODOROGO
100
AcDbLine
 10
14039.03460996689
 20
887.8703881493972
 30
0.0
 11
13988.80217064596
 21
873.8747482146434
 31
0.0
  0
LINE
  5
16B16
330
1666B
100
AcDbEntity
  8
YODOROGO
100
AcDbLine
 10
14200.80217064594
 20
912.4388128201532
 30
0.0
 11
14200.80217064594
 21
876.4388128201531
 31
0.0
1001
AUTOCAD_POSTSCRIPT_FIGURE
1002
{
1000
PSFILL
1000
Grayscale
1000
Grayscale
1070
   100
1002
}
  0
LINE
  5
16B17
330
1666B
100
AcDbEntity
  8
YODOROGO
100
AcDbLine
 10
14200.80217064594
 20
876.4388128201531
 30
0.0
 11
14128.80217064596
 21
897.8747482146435
 31
0.0
1001
AUTOCAD_POSTSCRIPT_FIGURE
1002
{
1000
PSFILL
1000
Grayscale
1000
Grayscale
1070
   100
1002
}
  0
LINE
  5
16B18
330
1666B
100
AcDbEntity
  8
YODOROGO
100
AcDbLine
 10
14128.80217064596
 20
897.8747482146435
 30
0.0
 11
14128.80217064596
 21
933.8747482146439
 31
0.0
1001
AUTOCAD_POSTSCRIPT_FIGURE
1002
{
1000
PSFILL
1000
Grayscale
1000
Grayscale
1070
   100
1002
}
  0
LINE
  5
16B19
330
1666B
100
AcDbEntity
  8
YODOROGO
100
AcDbLine
 10
14128.80217064596
 20
933.8747482146439
 30
0.0
 11
14200.80217064594
 21
912.4388128201532
 31
0.0
1001
AUTOCAD_POSTSCRIPT_FIGURE
1002
{
1000
PSFILL
1000
Grayscale
1000
Grayscale
1070
   100
1002
}
  0
LINE
  5
16B1A
330
1666B
100
AcDbEntity
  8
YODOROGO
100
AcDbLine
 10
14128.80217064596
 20
1013.874748214644
 30
0.0
 11
14128.80217064596
 21
979.874748214644
 31
0.0
1001
AUTOCAD_POSTSCRIPT_FIGURE
1002
{
1000
PSFILL
1000
Grayscale
1000
Grayscale
1070
   100
1002
}
  0
LINE
  5
16B1B
330
1666B
100
AcDbEntity
  8
YODOROGO
100
AcDbLine
 10
14128.80217064596
 20
979.874748214644
 30
0.0
 11
14200.80217064594
 21
958.4388128201537
 31
0.0
1001
AUTOCAD_POSTSCRIPT_FIGURE
1002
{
1000
PSFILL
1000
Grayscale
1000
Grayscale
1070
   100
1002
}
  0
LINE
  5
16B1C
330
1666B
100
AcDbEntity
  8
YODOROGO
100
AcDbLine
 10
14200.80217064594
 20
958.4388128201537
 30
0.0
 11
14200.80217064594
 21
992.4388128201531
 31
0.0
1001
AUTOCAD_POSTSCRIPT_FIGURE
1002
{
1000
PSFILL
1000
Grayscale
1000
Grayscale
1070
   100
1002
}
  0
LINE
  5
16B1D
330
1666B
100
AcDbEntity
  8
YODOROGO
100
AcDbLine
 10
14200.80217064594
 20
992.4388128201531
 30
0.0
 11
14128.80217064596
 21
1013.874748214644
 31
0.0
1001
AUTOCAD_POSTSCRIPT_FIGURE
1002
{
1000
PSFILL
1000
Grayscale
1000
Grayscale
1070
   100
1002
}
  0
LINE
  5
16B1E
330
1666B
100
AcDbEntity
  8
YODOROGO
100
AcDbLine
 10
13888.80217064596
 20
921.8883739758362
 30
0.0
 11
13888.80217064596
 21
929.8883739758355
 31
0.0
1001
AUTOCAD_POSTSCRIPT_FIGURE
1002
{
1000
PSFILL
1000
Grayscale
1000
Grayscale
1070
   100
1002
}
  0
LINE
  5
16B1F
330
1666B
100
AcDbEntity
  8
YODOROGO
100
AcDbLine
 10
13888.80217064596
 20
929.8883739758355
 30
0.0
 11
13900.80217064596
 21
957.3932903968525
 31
0.0
1001
AUTOCAD_POSTSCRIPT_FIGURE
1002
{
1000
PSFILL
1000
Grayscale
1000
Grayscale
1070
   100
1002
}
  0
LINE
  5
16B20
330
1666B
100
AcDbEntity
  8
YODOROGO
100
AcDbLine
 10
13900.80217064596
 20
957.3932903968525
 30
0.0
 11
13900.80217064596
 21
969.8747482146441
 31
0.0
1001
AUTOCAD_POSTSCRIPT_FIGURE
1002
{
1000
PSFILL
1000
Grayscale
1000
Grayscale
1070
   100
1002
}
  0
LINE
  5
16B21
330
1666B
100
AcDbEntity
  8
YODOROGO
100
AcDbLine
 10
13900.80217064596
 20
969.8747482146441
 30
0.0
 11
13888.80217064596
 21
969.8747482146441
 31
0.0
1001
AUTOCAD_POSTSCRIPT_FIGURE
1002
{
1000
PSFILL
1000
Grayscale
1000
Grayscale
1070
   100
1002
}
  0
LINE
  5
16B22
330
1666B
100
AcDbEntity
  8
YODOROGO
100
AcDbLine
 10
13888.80217064596
 20
969.8747482146441
 30
0.0
 11
13888.80217064596
 21
977.8747482146435
 31
0.0
1001
AUTOCAD_POSTSCRIPT_FIGURE
1002
{
1000
PSFILL
1000
Grayscale
1000
Grayscale
1070
   100
1002
}
  0
LINE
  5
16B23
330
1666B
100
AcDbEntity
  8
YODOROGO
100
AcDbLine
 10
13888.80217064596
 20
977.8747482146435
 30
0.0
 11
13900.80217064596
 21
977.8747482146435
 31
0.0
1001
AUTOCAD_POSTSCRIPT_FIGURE
1002
{
1000
PSFILL
1000
Grayscale
1000
Grayscale
1070
   100
1002
}
  0
LINE
  5
16B24
330
1666B
100
AcDbEntity
  8
YODOROGO
100
AcDbLine
 10
13900.80217064596
 20
977.8747482146435
 30
0.0
 11
13900.80217064596
 21
989.8747482146442
 31
0.0
1001
AUTOCAD_POSTSCRIPT_FIGURE
1002
{
1000
PSFILL
1000
Grayscale
1000
Grayscale
1070
   100
1002
}
  0
LINE
  5
16B25
330
1666B
100
AcDbEntity
  8
YODOROGO
100
AcDbLine
 10
13900.80217064596
 20
989.8747482146442
 30
0.0
 11
13908.80217064596
 21
989.8747482146442
 31
0.0
1001
AUTOCAD_POSTSCRIPT_FIGURE
1002
{
1000
PSFILL
1000
Grayscale
1000
Grayscale
1070
   100
1002
}
  0
LINE
  5
16B26
330
1666B
100
AcDbEntity
  8
YODOROGO
100
AcDbLine
 10
13908.80217064596
 20
989.8747482146442
 30
0.0
 11
13908.80217064596
 21
977.8747482146435
 31
0.0
1001
AUTOCAD_POSTSCRIPT_FIGURE
1002
{
1000
PSFILL
1000
Grayscale
1000
Grayscale
1070
   100
1002
}
  0
LINE
  5
16B27
330
1666B
100
AcDbEntity
  8
YODOROGO
100
AcDbLine
 10
13908.80217064596
 20
977.8747482146435
 30
0.0
 11
13924.80217064596
 21
977.8747482146435
 31
0.0
1001
AUTOCAD_POSTSCRIPT_FIGURE
1002
{
1000
PSFILL
1000
Grayscale
1000
Grayscale
1070
   100
1002
}
  0
LINE
  5
16B28
330
1666B
100
AcDbEntity
  8
YODOROGO
100
AcDbLine
 10
13924.80217064596
 20
977.8747482146435
 30
0.0
 11
13924.80217064596
 21
989.8747482146442
 31
0.0
1001
AUTOCAD_POSTSCRIPT_FIGURE
1002
{
1000
PSFILL
1000
Grayscale
1000
Grayscale
1070
   100
1002
}
  0
LINE
  5
16B29
330
1666B
100
AcDbEntity
  8
YODOROGO
100
AcDbLine
 10
13924.80217064596
 20
989.8747482146442
 30
0.0
 11
13932.80217064596
 21
989.8747482146442
 31
0.0
1001
AUTOCAD_POSTSCRIPT_FIGURE
1002
{
1000
PSFILL
1000
Grayscale
1000
Grayscale
1070
   100
1002
}
  0
LINE
  5
16B2A
330
1666B
100
AcDbEntity
  8
YODOROGO
100
AcDbLine
 10
13932.80217064596
 20
989.8747482146442
 30
0.0
 11
13932.80217064596
 21
977.8747482146435
 31
0.0
1001
AUTOCAD_POSTSCRIPT_FIGURE
1002
{
1000
PSFILL
1000
Grayscale
1000
Grayscale
1070
   100
1002
}
  0
LINE
  5
16B2B
330
1666B
100
AcDbEntity
  8
YODOROGO
100
AcDbLine
 10
13932.80217064596
 20
977.8747482146435
 30
0.0
 11
13944.80217064596
 21
977.8747482146435
 31
0.0
1001
AUTOCAD_POSTSCRIPT_FIGURE
1002
{
1000
PSFILL
1000
Grayscale
1000
Grayscale
1070
   100
1002
}
  0
LINE
  5
16B2C
330
1666B
100
AcDbEntity
  8
YODOROGO
100
AcDbLine
 10
13944.80217064596
 20
977.8747482146435
 30
0.0
 11
13944.80217064596
 21
989.8747482146442
 31
0.0
1001
AUTOCAD_POSTSCRIPT_FIGURE
1002
{
1000
PSFILL
1000
Grayscale
1000
Grayscale
1070
   100
1002
}
  0
LINE
  5
16B2D
330
1666B
100
AcDbEntity
  8
YODOROGO
100
AcDbLine
 10
13944.80217064596
 20
989.8747482146442
 30
0.0
 11
13952.80217064596
 21
989.8747482146442
 31
0.0
1001
AUTOCAD_POSTSCRIPT_FIGURE
1002
{
1000
PSFILL
1000
Grayscale
1000
Grayscale
1070
   100
1002
}
  0
LINE
  5
16B2E
330
1666B
100
AcDbEntity
  8
YODOROGO
100
AcDbLine
 10
13952.80217064596
 20
989.8747482146442
 30
0.0
 11
13952.80217064596
 21
977.8747482146435
 31
0.0
1001
AUTOCAD_POSTSCRIPT_FIGURE
1002
{
1000
PSFILL
1000
Grayscale
1000
Grayscale
1070
   100
1002
}
  0
LINE
  5
16B2F
330
1666B
100
AcDbEntity
  8
YODOROGO
100
AcDbLine
 10
13952.80217064596
 20
977.8747482146435
 30
0.0
 11
13968.80217064596
 21
977.8747482146435
 31
0.0
1001
AUTOCAD_POSTSCRIPT_FIGURE
1002
{
1000
PSFILL
1000
Grayscale
1000
Grayscale
1070
   100
1002
}
  0
LINE
  5
16B30
330
1666B
100
AcDbEntity
  8
YODOROGO
100
AcDbLine
 10
13968.80217064596
 20
977.8747482146435
 30
0.0
 11
13968.80217064596
 21
969.8747482146441
 31
0.0
1001
AUTOCAD_POSTSCRIPT_FIGURE
1002
{
1000
PSFILL
1000
Grayscale
1000
Grayscale
1070
   100
1002
}
  0
LINE
  5
16B31
330
1666B
100
AcDbEntity
  8
YODOROGO
100
AcDbLine
 10
13968.80217064596
 20
969.8747482146441
 30
0.0
 11
13952.80217064596
 21
969.8747482146441
 31
0.0
1001
AUTOCAD_POSTSCRIPT_FIGURE
1002
{
1000
PSFILL
1000
Grayscale
1000
Grayscale
1070
   100
1002
}
  0
LINE
  5
16B32
330
1666B
100
AcDbEntity
  8
YODOROGO
100
AcDbLine
 10
13952.80217064596
 20
969.8747482146441
 30
0.0
 11
13952.80217064596
 21
950.2841744681497
 31
0.0
1001
AUTOCAD_POSTSCRIPT_FIGURE
1002
{
1000
PSFILL
1000
Grayscale
1000
Grayscale
1070
   100
1002
}
  0
LINE
  5
16B33
330
1666B
100
AcDbEntity
  8
YODOROGO
100
AcDbLine
 10
13952.80217064596
 20
950.2841744681497
 30
0.0
 11
13968.80217064596
 21
950.2841744681497
 31
0.0
1001
AUTOCAD_POSTSCRIPT_FIGURE
1002
{
1000
PSFILL
1000
Grayscale
1000
Grayscale
1070
   100
1002
}
  0
LINE
  5
16B34
330
1666B
100
AcDbEntity
  8
YODOROGO
100
AcDbLine
 10
13968.80217064596
 20
950.2841744681497
 30
0.0
 11
13968.80217064596
 21
942.2841744681491
 31
0.0
1001
AUTOCAD_POSTSCRIPT_FIGURE
1002
{
1000
PSFILL
1000
Grayscale
1000
Grayscale
1070
   100
1002
}
  0
LINE
  5
16B35
330
1666B
100
AcDbEntity
  8
YODOROGO
100
AcDbLine
 10
13968.80217064596
 20
942.2841744681491
 30
0.0
 11
13952.80217064596
 21
942.2841744681502
 31
0.0
1001
AUTOCAD_POSTSCRIPT_FIGURE
1002
{
1000
PSFILL
1000
Grayscale
1000
Grayscale
1070
   100
1002
}
  0
LINE
  5
16B36
330
1666B
100
AcDbEntity
  8
YODOROGO
100
AcDbLine
 10
13952.80217064596
 20
942.2841744681502
 30
0.0
 11
13952.80217064596
 21
940.7045060794041
 31
0.0
1001
AUTOCAD_POSTSCRIPT_FIGURE
1002
{
1000
PSFILL
1000
Grayscale
1000
Grayscale
1070
   100
1002
}
  0
LINE
  5
16B37
330
1666B
100
AcDbEntity
  8
YODOROGO
100
AcDbLine
 10
13952.80217064596
 20
940.7045060794041
 30
0.0
 11
13968.80217064596
 21
906.4874905807087
 31
0.0
1001
AUTOCAD_POSTSCRIPT_FIGURE
1002
{
1000
PSFILL
1000
Grayscale
1000
Grayscale
1070
   100
1002
}
  0
LINE
  5
16B38
330
1666B
100
AcDbEntity
  8
YODOROGO
100
AcDbLine
 10
13968.80217064596
 20
906.4874905807087
 30
0.0
 11
13968.80217064596
 21
898.487490580708
 31
0.0
1001
AUTOCAD_POSTSCRIPT_FIGURE
1002
{
1000
PSFILL
1000
Grayscale
1000
Grayscale
1070
   100
1002
}
  0
LINE
  5
16B39
330
1666B
100
AcDbEntity
  8
YODOROGO
100
AcDbLine
 10
13968.80217064596
 20
898.487490580708
 30
0.0
 11
13952.80217064596
 21
924.7045060794032
 31
0.0
1001
AUTOCAD_POSTSCRIPT_FIGURE
1002
{
1000
PSFILL
1000
Grayscale
1000
Grayscale
1070
   100
1002
}
  0
LINE
  5
16B3A
330
1666B
100
AcDbEntity
  8
YODOROGO
100
AcDbLine
 10
13952.80217064596
 20
924.7045060794032
 30
0.0
 11
13952.80217064596
 21
873.8747482146434
 31
0.0
1001
AUTOCAD_POSTSCRIPT_FIGURE
1002
{
1000
PSFILL
1000
Grayscale
1000
Grayscale
1070
   100
1002
}
  0
LINE
  5
16B3B
330
1666B
100
AcDbEntity
  8
YODOROGO
100
AcDbLine
 10
13952.80217064596
 20
873.8747482146434
 30
0.0
 11
13944.80217064596
 21
873.8747482146434
 31
0.0
1001
AUTOCAD_POSTSCRIPT_FIGURE
1002
{
1000
PSFILL
1000
Grayscale
1000
Grayscale
1070
   100
1002
}
  0
LINE
  5
16B3C
330
1666B
100
AcDbEntity
  8
YODOROGO
100
AcDbLine
 10
13944.80217064596
 20
873.8747482146434
 30
0.0
 11
13944.80217064596
 21
923.8095889822183
 31
0.0
1001
AUTOCAD_POSTSCRIPT_FIGURE
1002
{
1000
PSFILL
1000
Grayscale
1000
Grayscale
1070
   100
1002
}
  0
LINE
  5
16B3D
330
1666B
100
AcDbEntity
  8
YODOROGO
100
AcDbLine
 10
13944.80217064596
 20
923.8095889822183
 30
0.0
 11
13924.80217064596
 21
898.487490580708
 31
0.0
1001
AUTOCAD_POSTSCRIPT_FIGURE
1002
{
1000
PSFILL
1000
Grayscale
1000
Grayscale
1070
   100
1002
}
  0
LINE
  5
16B3E
330
1666B
100
AcDbEntity
  8
YODOROGO
100
AcDbLine
 10
13924.80217064596
 20
898.487490580708
 30
0.0
 11
13924.80217064596
 21
906.4874905807087
 31
0.0
1001
AUTOCAD_POSTSCRIPT_FIGURE
1002
{
1000
PSFILL
1000
Grayscale
1000
Grayscale
1070
   100
1002
}
  0
LINE
  5
16B3F
330
1666B
100
AcDbEntity
  8
YODOROGO
100
AcDbLine
 10
13924.80217064596
 20
906.4874905807087
 30
0.0
 11
13944.80217064596
 21
939.8095889822196
 31
0.0
1001
AUTOCAD_POSTSCRIPT_FIGURE
1002
{
1000
PSFILL
1000
Grayscale
1000
Grayscale
1070
   100
1002
}
  0
LINE
  5
16B40
330
1666B
100
AcDbEntity
  8
YODOROGO
100
AcDbLine
 10
13944.80217064596
 20
939.8095889822196
 30
0.0
 11
13944.80217064596
 21
942.2841744681491
 31
0.0
1001
AUTOCAD_POSTSCRIPT_FIGURE
1002
{
1000
PSFILL
1000
Grayscale
1000
Grayscale
1070
   100
1002
}
  0
LINE
  5
16B41
330
1666B
100
AcDbEntity
  8
YODOROGO
100
AcDbLine
 10
13944.80217064596
 20
942.2841744681491
 30
0.0
 11
13928.80217064596
 21
942.2841744681491
 31
0.0
1001
AUTOCAD_POSTSCRIPT_FIGURE
1002
{
1000
PSFILL
1000
Grayscale
1000
Grayscale
1070
   100
1002
}
  0
LINE
  5
16B42
330
1666B
100
AcDbEntity
  8
YODOROGO
100
AcDbLine
 10
13928.80217064596
 20
942.2841744681491
 30
0.0
 11
13928.80217064596
 21
950.2841744681497
 31
0.0
1001
AUTOCAD_POSTSCRIPT_FIGURE
1002
{
1000
PSFILL
1000
Grayscale
1000
Grayscale
1070
   100
1002
}
  0
LINE
  5
16B43
330
1666B
100
AcDbEntity
  8
YODOROGO
100
AcDbLine
 10
13928.80217064596
 20
950.2841744681497
 30
0.0
 11
13944.80217064596
 21
950.2841744681497
 31
0.0
1001
AUTOCAD_POSTSCRIPT_FIGURE
1002
{
1000
PSFILL
1000
Grayscale
1000
Grayscale
1070
   100
1002
}
  0
LINE
  5
16B44
330
1666B
100
AcDbEntity
  8
YODOROGO
100
AcDbLine
 10
13944.80217064596
 20
950.2841744681497
 30
0.0
 11
13944.80217064596
 21
969.8747482146441
 31
0.0
1001
AUTOCAD_POSTSCRIPT_FIGURE
1002
{
1000
PSFILL
1000
Grayscale
1000
Grayscale
1070
   100
1002
}
  0
LINE
  5
16B45
330
1666B
100
AcDbEntity
  8
YODOROGO
100
AcDbLine
 10
13944.80217064596
 20
969.8747482146441
 30
0.0
 11
13908.80217064596
 21
969.8747482146441
 31
0.0
1001
AUTOCAD_POSTSCRIPT_FIGURE
1002
{
1000
PSFILL
1000
Grayscale
1000
Grayscale
1070
   100
1002
}
  0
LINE
  5
16B46
330
1666B
100
AcDbEntity
  8
YODOROGO
100
AcDbLine
 10
13908.80217064596
 20
969.8747482146441
 30
0.0
 11
13908.80217064596
 21
958.8856660426325
 31
0.0
1001
AUTOCAD_POSTSCRIPT_FIGURE
1002
{
1000
PSFILL
1000
Grayscale
1000
Grayscale
1070
   100
1002
}
  0
LINE
  5
16B47
330
1666B
100
AcDbEntity
  8
YODOROGO
100
AcDbLine
 10
13908.80217064596
 20
958.8856660426325
 30
0.0
 11
13920.80217064596
 21
941.8273791420681
 31
0.0
1001
AUTOCAD_POSTSCRIPT_FIGURE
1002
{
1000
PSFILL
1000
Grayscale
1000
Grayscale
1070
   100
1002
}
  0
LINE
  5
16B48
330
1666B
100
AcDbEntity
  8
YODOROGO
100
AcDbLine
 10
13920.80217064596
 20
941.8273791420681
 30
0.0
 11
13920.80217064596
 21
933.8273791420684
 31
0.0
1001
AUTOCAD_POSTSCRIPT_FIGURE
1002
{
1000
PSFILL
1000
Grayscale
1000
Grayscale
1070
   100
1002
}
  0
LINE
  5
16B49
330
1666B
100
AcDbEntity
  8
YODOROGO
100
AcDbLine
 10
13920.80217064596
 20
933.8273791420684
 30
0.0
 11
13908.80217064596
 21
946.8856660426332
 31
0.0
1001
AUTOCAD_POSTSCRIPT_FIGURE
1002
{
1000
PSFILL
1000
Grayscale
1000
Grayscale
1070
   100
1002
}
  0
LINE
  5
16B4A
330
1666B
100
AcDbEntity
  8
YODOROGO
100
AcDbLine
 10
13908.80217064596
 20
946.8856660426332
 30
0.0
 11
13908.80217064596
 21
873.8747482146434
 31
0.0
1001
AUTOCAD_POSTSCRIPT_FIGURE
1002
{
1000
PSFILL
1000
Grayscale
1000
Grayscale
1070
   100
1002
}
  0
LINE
  5
16B4B
330
1666B
100
AcDbEntity
  8
YODOROGO
100
AcDbLine
 10
13908.80217064596
 20
873.8747482146434
 30
0.0
 11
13900.80217064596
 21
873.8747482146434
 31
0.0
1001
AUTOCAD_POSTSCRIPT_FIGURE
1002
{
1000
PSFILL
1000
Grayscale
1000
Grayscale
1070
   100
1002
}
  0
LINE
  5
16B4C
330
1666B
100
AcDbEntity
  8
YODOROGO
100
AcDbLine
 10
13900.80217064596
 20
873.8747482146434
 30
0.0
 11
13900.80217064596
 21
945.3932903968532
 31
0.0
1001
AUTOCAD_POSTSCRIPT_FIGURE
1002
{
1000
PSFILL
1000
Grayscale
1000
Grayscale
1070
   100
1002
}
  0
LINE
  5
16B4D
330
1666B
100
AcDbEntity
  8
YODOROGO
100
AcDbLine
 10
13900.80217064596
 20
945.3932903968532
 30
0.0
 11
13888.80217064596
 21
921.8883739758362
 31
0.0
1001
AUTOCAD_POSTSCRIPT_FIGURE
1002
{
1000
PSFILL
1000
Grayscale
1000
Grayscale
1070
   100
1002
}
  0
LINE
  5
16B4E
330
1666B
100
AcDbEntity
  8
YODOROGO
100
AcDbLine
 10
14172.80217064596
 20
833.8747482146439
 30
0.0
 11
14172.80217064596
 21
805.8747482146443
 31
0.0
  0
ARC
  5
16B4F
330
1666B
100
AcDbEntity
  8
YODOROGO
100
AcDbCircle
 10
14117.87801537965
 20
816.7989034809513
 30
0.0
 40
55.99999999999901
100
AcDbArc
 50
281.2490582504167
 51
348.7509417495839
  0
LINE
  5
16B50
330
1666B
100
AcDbEntity
  8
YODOROGO
100
AcDbLine
 10
14128.80217064596
 20
761.8747482146434
 30
0.0
 11
14128.80217064596
 21
713.8747482146436
 31
0.0
  0
ARC
  5
16B51
330
1666B
100
AcDbEntity
  8
YODOROGO
100
AcDbCircle
 10
14112.97022107349
 20
800.438882662663
 30
0.0
 40
87.99999999999979
100
AcDbArc
 50
280.3644312771306
 51
3.541483659218113
  0
LINE
  5
16B52
330
1666B
100
AcDbEntity
  8
YODOROGO
100
AcDbLine
 10
14200.80217064594
 20
805.8747482146443
 30
0.0
 11
14200.80217064594
 21
833.8747482146439
 31
0.0
  0
LINE
  5
16B53
330
1666B
100
AcDbEntity
  8
YODOROGO
100
AcDbLine
 10
14200.80217064594
 20
833.8747482146439
 30
0.0
 11
14172.80217064596
 21
833.8747482146439
 31
0.0
  0
LINE
  5
16B54
330
1666B
100
AcDbEntity
  8
YODOROGO
100
AcDbLine
 10
13904.80217064596
 20
816.3859520216298
 30
0.0
 11
13952.80217064596
 21
816.3859520216298
 31
0.0
  0
LINE
  5
16B55
330
1666B
100
AcDbEntity
  8
YODOROGO
100
AcDbLine
 10
13952.80217064596
 20
816.3859520216298
 30
0.0
 11
13952.80217064596
 21
804.3859520216292
 31
0.0
  0
LINE
  5
16B56
330
1666B
100
AcDbEntity
  8
YODOROGO
100
AcDbLine
 10
13952.80217064596
 20
804.3859520216292
 30
0.0
 11
13904.80217064596
 21
804.3859520216292
 31
0.0
  0
LINE
  5
16B57
330
1666B
100
AcDbEntity
  8
YODOROGO
100
AcDbLine
 10
13904.80217064596
 20
804.3859520216292
 30
0.0
 11
13904.80217064596
 21
816.3859520216298
 31
0.0
  0
LINE
  5
16B58
330
1666B
100
AcDbEntity
  8
YODOROGO
100
AcDbLine
 10
13892.80217064596
 20
737.8747482146435
 30
0.0
 11
13964.80217064596
 21
737.8747482146435
 31
0.0
1001
AUTOCAD_POSTSCRIPT_FIGURE
1002
{
1000
PSFILL
1000
Grayscale
1000
Grayscale
1070
   100
1002
}
  0
LINE
  5
16B59
330
1666B
100
AcDbEntity
  8
YODOROGO
100
AcDbLine
 10
13964.80217064596
 20
737.8747482146435
 30
0.0
 11
13950.53250239547
 21
768.1169053488464
 31
0.0
1001
AUTOCAD_POSTSCRIPT_FIGURE
1002
{
1000
PSFILL
1000
Grayscale
1000
Grayscale
1070
   100
1002
}
  0
LINE
  5
16B5A
330
1666B
100
AcDbEntity
  8
YODOROGO
100
AcDbLine
 10
13950.53250239547
 20
768.1169053488464
 30
0.0
 11
13942.53250239547
 21
768.1169053488464
 31
0.0
1001
AUTOCAD_POSTSCRIPT_FIGURE
1002
{
1000
PSFILL
1000
Grayscale
1000
Grayscale
1070
   100
1002
}
  0
LINE
  5
16B5B
330
1666B
100
AcDbEntity
  8
YODOROGO
100
AcDbLine
 10
13942.53250239547
 20
768.1169053488464
 30
0.0
 11
13951.02739540432
 21
747.8747482146435
 31
0.0
1001
AUTOCAD_POSTSCRIPT_FIGURE
1002
{
1000
PSFILL
1000
Grayscale
1000
Grayscale
1070
   100
1002
}
  0
LINE
  5
16B5C
330
1666B
100
AcDbEntity
  8
YODOROGO
100
AcDbLine
 10
13951.02739540432
 20
747.8747482146435
 30
0.0
 11
13907.77335914238
 21
747.8747482146435
 31
0.0
1001
AUTOCAD_POSTSCRIPT_FIGURE
1002
{
1000
PSFILL
1000
Grayscale
1000
Grayscale
1070
   100
1002
}
  0
LINE
  5
16B5D
330
1666B
100
AcDbEntity
  8
YODOROGO
100
AcDbLine
 10
13907.77335914238
 20
747.8747482146435
 30
0.0
 11
13922.25479445786
 21
784.2514286852374
 31
0.0
1001
AUTOCAD_POSTSCRIPT_FIGURE
1002
{
1000
PSFILL
1000
Grayscale
1000
Grayscale
1070
   100
1002
}
  0
LINE
  5
16B5E
330
1666B
100
AcDbEntity
  8
YODOROGO
100
AcDbLine
 10
13922.25479445786
 20
784.2514286852374
 30
0.0
 11
13968.80217064596
 21
784.2514286852374
 31
0.0
1001
AUTOCAD_POSTSCRIPT_FIGURE
1002
{
1000
PSFILL
1000
Grayscale
1000
Grayscale
1070
   100
1002
}
  0
LINE
  5
16B5F
330
1666B
100
AcDbEntity
  8
YODOROGO
100
AcDbLine
 10
13968.80217064596
 20
784.2514286852374
 30
0.0
 11
13968.80217064596
 21
794.2514286852374
 31
0.0
1001
AUTOCAD_POSTSCRIPT_FIGURE
1002
{
1000
PSFILL
1000
Grayscale
1000
Grayscale
1070
   100
1002
}
  0
LINE
  5
16B60
330
1666B
100
AcDbEntity
  8
YODOROGO
100
AcDbLine
 10
13968.80217064596
 20
794.2514286852374
 30
0.0
 11
13888.80217064596
 21
794.2514286852374
 31
0.0
1001
AUTOCAD_POSTSCRIPT_FIGURE
1002
{
1000
PSFILL
1000
Grayscale
1000
Grayscale
1070
   100
1002
}
  0
LINE
  5
16B61
330
1666B
100
AcDbEntity
  8
YODOROGO
100
AcDbLine
 10
13888.80217064596
 20
794.2514286852374
 30
0.0
 11
13888.80217064596
 21
784.2514286852374
 31
0.0
1001
AUTOCAD_POSTSCRIPT_FIGURE
1002
{
1000
PSFILL
1000
Grayscale
1000
Grayscale
1070
   100
1002
}
  0
LINE
  5
16B62
330
1666B
100
AcDbEntity
  8
YODOROGO
100
AcDbLine
 10
13888.80217064596
 20
784.2514286852374
 30
0.0
 11
13912.25479445787
 21
784.2514286852374
 31
0.0
1001
AUTOCAD_POSTSCRIPT_FIGURE
1002
{
1000
PSFILL
1000
Grayscale
1000
Grayscale
1070
   100
1002
}
  0
LINE
  5
16B63
330
1666B
100
AcDbEntity
  8
YODOROGO
100
AcDbLine
 10
13912.25479445787
 20
784.2514286852374
 30
0.0
 11
13892.80217064596
 21
737.8747482146435
 31
0.0
1001
AUTOCAD_POSTSCRIPT_FIGURE
1002
{
1000
PSFILL
1000
Grayscale
1000
Grayscale
1070
   100
1002
}
  0
LINE
  5
16B64
330
1666B
100
AcDbEntity
  8
YODOROGO
100
AcDbLine
 10
13888.80217064596
 20
821.986207022285
 30
0.0
 11
13928.80217064596
 21
853.874748214644
 31
0.0
  0
LINE
  5
16B65
330
1666B
100
AcDbEntity
  8
YODOROGO
100
AcDbLine
 10
13928.80217064596
 20
853.874748214644
 30
0.0
 11
13968.80217064596
 21
821.986207022285
 31
0.0
  0
LINE
  5
16B66
330
1666B
100
AcDbEntity
  8
YODOROGO
100
AcDbLine
 10
13968.80217064596
 20
821.986207022285
 30
0.0
 11
13968.80217064596
 21
809.9862070222856
 31
0.0
  0
LINE
  5
16B67
330
1666B
100
AcDbEntity
  8
YODOROGO
100
AcDbLine
 10
13968.80217064596
 20
809.9862070222856
 30
0.0
 11
13928.80217064596
 21
841.8747482146445
 31
0.0
  0
LINE
  5
16B68
330
1666B
100
AcDbEntity
  8
YODOROGO
100
AcDbLine
 10
13928.80217064596
 20
841.8747482146445
 30
0.0
 11
13888.80217064596
 21
809.9862070222856
 31
0.0
  0
LINE
  5
16B69
330
1666B
100
AcDbEntity
  8
YODOROGO
100
AcDbLine
 10
13888.80217064596
 20
809.9862070222856
 30
0.0
 11
13888.80217064596
 21
821.986207022285
 31
0.0
  0
LINE
  5
16B6A
330
1666B
100
AcDbEntity
  8
YODOROGO
100
AcDbLine
 10
14000.80217064596
 20
841.8747482146434
 30
0.0
 11
13988.80217064596
 21
841.8747482146434
 31
0.0
  0
LINE
  5
16B6B
330
1666B
100
AcDbEntity
  8
YODOROGO
100
AcDbLine
 10
13988.80217064596
 20
841.8747482146434
 30
0.0
 11
13988.80217064596
 21
833.8747482146427
 31
0.0
  0
LINE
  5
16B6C
330
1666B
100
AcDbEntity
  8
YODOROGO
100
AcDbLine
 10
13988.80217064596
 20
833.8747482146427
 30
0.0
 11
14012.91438714567
 21
833.8747482146427
 31
0.0
  0
LINE
  5
16B6D
330
1666B
100
AcDbEntity
  8
YODOROGO
100
AcDbLine
 10
14012.91438714567
 20
833.8747482146427
 30
0.0
 11
13988.80217064596
 21
778.3840395167149
 31
0.0
  0
LINE
  5
16B6E
330
1666B
100
AcDbEntity
  8
YODOROGO
100
AcDbLine
 10
13988.80217064596
 20
778.3840395167149
 30
0.0
 11
13988.80217064596
 21
766.3840395167142
 31
0.0
  0
LINE
  5
16B6F
330
1666B
100
AcDbEntity
  8
YODOROGO
100
AcDbLine
 10
13988.80217064596
 20
766.3840395167142
 30
0.0
 11
14000.80217064596
 21
790.0026748448738
 31
0.0
  0
LINE
  5
16B70
330
1666B
100
AcDbEntity
  8
YODOROGO
100
AcDbLine
 10
14000.80217064596
 20
790.0026748448738
 30
0.0
 11
14000.80217064596
 21
737.8747482146435
 31
0.0
  0
LINE
  5
16B71
330
1666B
100
AcDbEntity
  8
YODOROGO
100
AcDbLine
 10
14000.80217064596
 20
737.8747482146435
 30
0.0
 11
14008.80217064596
 21
737.8747482146435
 31
0.0
  0
LINE
  5
16B72
330
1666B
100
AcDbEntity
  8
YODOROGO
100
AcDbLine
 10
14008.80217064596
 20
737.8747482146435
 30
0.0
 11
14008.80217064596
 21
792.6185318747651
 31
0.0
  0
LINE
  5
16B73
330
1666B
100
AcDbEntity
  8
YODOROGO
100
AcDbLine
 10
14008.80217064596
 20
792.6185318747651
 30
0.0
 11
14020.80217064596
 21
781.5602449741994
 31
0.0
  0
LINE
  5
16B74
330
1666B
100
AcDbEntity
  8
YODOROGO
100
AcDbLine
 10
14020.80217064596
 20
781.5602449741994
 30
0.0
 11
14020.80217064596
 21
791.5602449742006
 31
0.0
  0
LINE
  5
16B75
330
1666B
100
AcDbEntity
  8
YODOROGO
100
AcDbLine
 10
14020.80217064596
 20
791.5602449742006
 30
0.0
 11
14010.04445186845
 21
805.3252825309574
 31
0.0
  0
LINE
  5
16B76
330
1666B
100
AcDbEntity
  8
YODOROGO
100
AcDbLine
 10
14010.04445186845
 20
805.3252825309574
 30
0.0
 11
14020.45660200844
 21
829.874748214644
 31
0.0
  0
LINE
  5
16B77
330
1666B
100
AcDbEntity
  8
YODOROGO
100
AcDbLine
 10
14020.45660200844
 20
829.874748214644
 30
0.0
 11
14020.45660200844
 21
841.8747482146434
 31
0.0
  0
LINE
  5
16B78
330
1666B
100
AcDbEntity
  8
YODOROGO
100
AcDbLine
 10
14020.45660200844
 20
841.8747482146434
 30
0.0
 11
14008.80217064596
 21
841.8747482146434
 31
0.0
  0
LINE
  5
16B79
330
1666B
100
AcDbEntity
  8
YODOROGO
100
AcDbLine
 10
14008.80217064596
 20
841.8747482146434
 30
0.0
 11
14008.80217064596
 21
853.874748214644
 31
0.0
  0
LINE
  5
16B7A
330
1666B
100
AcDbEntity
  8
YODOROGO
100
AcDbLine
 10
14008.80217064596
 20
853.874748214644
 30
0.0
 11
14000.80217064596
 21
853.874748214644
 31
0.0
  0
LINE
  5
16B7B
330
1666B
100
AcDbEntity
  8
YODOROGO
100
AcDbLine
 10
14000.80217064596
 20
853.874748214644
 30
0.0
 11
14000.80217064596
 21
841.8747482146434
 31
0.0
  0
LINE
  5
16B7C
330
1666B
100
AcDbEntity
  8
YODOROGO
100
AcDbLine
 10
14041.06776011546
 20
827.751818637328
 30
0.0
 11
14041.06776011546
 21
853.874748214644
 31
0.0
1001
AUTOCAD_POSTSCRIPT_FIGURE
1002
{
1000
PSFILL
1000
Grayscale
1000
Grayscale
1070
   100
1002
}
  0
LINE
  5
16B7D
330
1666B
100
AcDbEntity
  8
YODOROGO
100
AcDbLine
 10
14041.06776011546
 20
853.874748214644
 30
0.0
 11
14049.06776011545
 21
853.874748214644
 31
0.0
1001
AUTOCAD_POSTSCRIPT_FIGURE
1002
{
1000
PSFILL
1000
Grayscale
1000
Grayscale
1070
   100
1002
}
  0
LINE
  5
16B7E
330
1666B
100
AcDbEntity
  8
YODOROGO
100
AcDbLine
 10
14049.06776011545
 20
853.874748214644
 30
0.0
 11
14049.06776011545
 21
827.751818637328
 31
0.0
1001
AUTOCAD_POSTSCRIPT_FIGURE
1002
{
1000
PSFILL
1000
Grayscale
1000
Grayscale
1070
   100
1002
}
  0
LINE
  5
16B7F
330
1666B
100
AcDbEntity
  8
YODOROGO
100
AcDbLine
 10
14049.06776011545
 20
827.751818637328
 30
0.0
 11
14068.80217064596
 21
827.751818637328
 31
0.0
1001
AUTOCAD_POSTSCRIPT_FIGURE
1002
{
1000
PSFILL
1000
Grayscale
1000
Grayscale
1070
   100
1002
}
  0
LINE
  5
16B80
330
1666B
100
AcDbEntity
  8
YODOROGO
100
AcDbLine
 10
14068.80217064596
 20
827.751818637328
 30
0.0
 11
14068.80217064596
 21
815.7518186373286
 31
0.0
1001
AUTOCAD_POSTSCRIPT_FIGURE
1002
{
1000
PSFILL
1000
Grayscale
1000
Grayscale
1070
   100
1002
}
  0
LINE
  5
16B81
330
1666B
100
AcDbEntity
  8
YODOROGO
100
AcDbLine
 10
14068.80217064596
 20
815.7518186373286
 30
0.0
 11
14049.06776011545
 21
815.7518186373286
 31
0.0
1001
AUTOCAD_POSTSCRIPT_FIGURE
1002
{
1000
PSFILL
1000
Grayscale
1000
Grayscale
1070
   100
1002
}
  0
LINE
  5
16B82
330
1666B
100
AcDbEntity
  8
YODOROGO
100
AcDbLine
 10
14049.06776011545
 20
815.7518186373286
 30
0.0
 11
14049.06776011545
 21
749.8747482146441
 31
0.0
1001
AUTOCAD_POSTSCRIPT_FIGURE
1002
{
1000
PSFILL
1000
Grayscale
1000
Grayscale
1070
   100
1002
}
  0
LINE
  5
16B83
330
1666B
100
AcDbEntity
  8
YODOROGO
100
AcDbLine
 10
14049.06776011545
 20
749.8747482146441
 30
0.0
 11
14068.80217064596
 21
749.8747482146441
 31
0.0
1001
AUTOCAD_POSTSCRIPT_FIGURE
1002
{
1000
PSFILL
1000
Grayscale
1000
Grayscale
1070
   100
1002
}
  0
LINE
  5
16B84
330
1666B
100
AcDbEntity
  8
YODOROGO
100
AcDbLine
 10
14068.80217064596
 20
749.8747482146441
 30
0.0
 11
14068.80217064596
 21
737.8747482146435
 31
0.0
1001
AUTOCAD_POSTSCRIPT_FIGURE
1002
{
1000
PSFILL
1000
Grayscale
1000
Grayscale
1070
   100
1002
}
  0
LINE
  5
16B85
330
1666B
100
AcDbEntity
  8
YODOROGO
100
AcDbLine
 10
14068.80217064596
 20
737.8747482146435
 30
0.0
 11
14025.06776011545
 21
737.8747482146435
 31
0.0
1001
AUTOCAD_POSTSCRIPT_FIGURE
1002
{
1000
PSFILL
1000
Grayscale
1000
Grayscale
1070
   100
1002
}
  0
LINE
  5
16B86
330
1666B
100
AcDbEntity
  8
YODOROGO
100
AcDbLine
 10
14025.06776011545
 20
737.8747482146435
 30
0.0
 11
14025.06776011545
 21
749.8747482146441
 31
0.0
1001
AUTOCAD_POSTSCRIPT_FIGURE
1002
{
1000
PSFILL
1000
Grayscale
1000
Grayscale
1070
   100
1002
}
  0
LINE
  5
16B87
330
1666B
100
AcDbEntity
  8
YODOROGO
100
AcDbLine
 10
14025.06776011545
 20
749.8747482146441
 30
0.0
 11
14041.06776011546
 21
749.8747482146441
 31
0.0
1001
AUTOCAD_POSTSCRIPT_FIGURE
1002
{
1000
PSFILL
1000
Grayscale
1000
Grayscale
1070
   100
1002
}
  0
LINE
  5
16B88
330
1666B
100
AcDbEntity
  8
YODOROGO
100
AcDbLine
 10
14041.06776011546
 20
749.8747482146441
 30
0.0
 11
14041.06776011546
 21
815.7518186373286
 31
0.0
1001
AUTOCAD_POSTSCRIPT_FIGURE
1002
{
1000
PSFILL
1000
Grayscale
1000
Grayscale
1070
   100
1002
}
  0
LINE
  5
16B89
330
1666B
100
AcDbEntity
  8
YODOROGO
100
AcDbLine
 10
14041.06776011546
 20
815.7518186373286
 30
0.0
 11
14025.06776011545
 21
815.7518186373286
 31
0.0
1001
AUTOCAD_POSTSCRIPT_FIGURE
1002
{
1000
PSFILL
1000
Grayscale
1000
Grayscale
1070
   100
1002
}
  0
LINE
  5
16B8A
330
1666B
100
AcDbEntity
  8
YODOROGO
100
AcDbLine
 10
14025.06776011545
 20
815.7518186373286
 30
0.0
 11
14025.06776011545
 21
827.751818637328
 31
0.0
1001
AUTOCAD_POSTSCRIPT_FIGURE
1002
{
1000
PSFILL
1000
Grayscale
1000
Grayscale
1070
   100
1002
}
  0
LINE
  5
16B8B
330
1666B
100
AcDbEntity
  8
YODOROGO
100
AcDbLine
 10
14025.06776011545
 20
827.751818637328
 30
0.0
 11
14041.06776011546
 21
827.751818637328
 31
0.0
1001
AUTOCAD_POSTSCRIPT_FIGURE
1002
{
1000
PSFILL
1000
Grayscale
1000
Grayscale
1070
   100
1002
}
  0
LINE
  5
16B8C
330
1666B
100
AcDbEntity
  8
YODOROGO
100
AcDbLine
 10
14216.80217064594
 20
873.8747482146449
 30
0.0
 11
14292.80217064596
 21
873.8747482146449
 31
0.0
  0
LINE
  5
16B8D
330
1666B
100
AcDbEntity
  8
YODOROGO
100
AcDbLine
 10
14292.80217064596
 20
873.8747482146449
 30
0.0
 11
14292.80217064596
 21
773.874748214644
 31
0.0
  0
ARC
  5
16B8E
330
1666B
100
AcDbEntity
  8
YODOROGO
100
AcDbCircle
 10
14280.80217064596
 20
773.8747482146417
 30
0.0
 40
11.99999999999818
100
AcDbArc
 50
270.0000000000085
 51
0.0000000000097707
  0
LINE
  5
16B8F
330
1666B
100
AcDbEntity
  8
YODOROGO
100
AcDbLine
 10
14280.80217064596
 20
761.8747482146434
 30
0.0
 11
14268.80217064594
 21
761.8747482146434
 31
0.0
  0
ARC
  5
16B90
330
1666B
100
AcDbEntity
  8
YODOROGO
100
AcDbCircle
 10
14268.80217064594
 20
781.8747482146434
 30
0.0
 40
20.0
100
AcDbArc
 50
180.0
 51
270.0
  0
LINE
  5
16B91
330
1666B
100
AcDbEntity
  8
YODOROGO
100
AcDbLine
 10
14248.80217064594
 20
781.8747482146434
 30
0.0
 11
14248.80217064594
 21
853.874748214644
 31
0.0
  0
LINE
  5
16B92
330
1666B
100
AcDbEntity
  8
YODOROGO
100
AcDbLine
 10
14248.80217064594
 20
853.874748214644
 30
0.0
 11
14216.80217064594
 21
853.874748214644
 31
0.0
  0
LINE
  5
16B93
330
1666B
100
AcDbEntity
  8
YODOROGO
100
AcDbLine
 10
14216.80217064594
 20
853.874748214644
 30
0.0
 11
14216.80217064594
 21
753.8747482146439
 31
0.0
  0
ARC
  5
16B94
330
1666B
100
AcDbEntity
  8
YODOROGO
100
AcDbCircle
 10
14256.80217064594
 20
753.8747482146439
 30
0.0
 40
40.0
100
AcDbArc
 50
180.0
 51
270.0
  0
LINE
  5
16B95
330
1666B
100
AcDbEntity
  8
YODOROGO
100
AcDbLine
 10
14256.80217064594
 20
713.8747482146436
 30
0.0
 11
14396.80217064594
 21
713.8747482146436
 31
0.0
  0
LINE
  5
16B96
330
1666B
100
AcDbEntity
  8
YODOROGO
100
AcDbLine
 10
14396.80217064594
 20
713.8747482146436
 30
0.0
 11
14396.80217064594
 21
761.8747482146434
 31
0.0
  0
LINE
  5
16B97
330
1666B
100
AcDbEntity
  8
YODOROGO
100
AcDbLine
 10
14396.80217064594
 20
761.8747482146434
 30
0.0
 11
14328.80217064594
 21
761.8747482146434
 31
0.0
  0
LINE
  5
16B98
330
1666B
100
AcDbEntity
  8
YODOROGO
100
AcDbLine
 10
14328.80217064594
 20
761.8747482146434
 30
0.0
 11
14328.80217064594
 21
801.8747482146444
 31
0.0
  0
LINE
  5
16B99
330
1666B
100
AcDbEntity
  8
YODOROGO
100
AcDbLine
 10
14328.80217064594
 20
801.8747482146444
 30
0.0
 11
14396.80217064594
 21
801.8747482146444
 31
0.0
  0
LINE
  5
16B9A
330
1666B
100
AcDbEntity
  8
YODOROGO
100
AcDbLine
 10
14396.80217064594
 20
801.8747482146444
 30
0.0
 11
14396.80217064594
 21
833.8747482146439
 31
0.0
  0
LINE
  5
16B9B
330
1666B
100
AcDbEntity
  8
YODOROGO
100
AcDbLine
 10
14396.80217064594
 20
833.8747482146439
 30
0.0
 11
14328.80217064594
 21
833.8747482146439
 31
0.0
  0
LINE
  5
16B9C
330
1666B
100
AcDbEntity
  8
YODOROGO
100
AcDbLine
 10
14328.80217064594
 20
833.8747482146439
 30
0.0
 11
14328.80217064594
 21
873.8747482146449
 31
0.0
  0
LINE
  5
16B9D
330
1666B
100
AcDbEntity
  8
YODOROGO
100
AcDbLine
 10
14328.80217064594
 20
873.8747482146449
 30
0.0
 11
14396.80217064594
 21
873.8747482146449
 31
0.0
  0
LINE
  5
16B9E
330
1666B
100
AcDbEntity
  8
YODOROGO
100
AcDbLine
 10
14396.80217064594
 20
873.8747482146449
 30
0.0
 11
14396.80217064594
 21
909.8747482146439
 31
0.0
  0
LINE
  5
16B9F
330
1666B
100
AcDbEntity
  8
YODOROGO
100
AcDbLine
 10
14396.80217064594
 20
909.8747482146439
 30
0.0
 11
14216.80217064594
 21
909.8747482146439
 31
0.0
  0
LINE
  5
16BA0
330
1666B
100
AcDbEntity
  8
YODOROGO
100
AcDbLine
 10
14216.80217064594
 20
909.8747482146439
 30
0.0
 11
14216.80217064594
 21
873.8747482146449
 31
0.0
  0
LINE
  5
16BA1
330
1666B
100
AcDbEntity
  8
YODOROGO
100
AcDbLine
 10
14216.80217064594
 20
933.8747482146439
 30
0.0
 11
14216.80217064594
 21
993.8747482146439
 31
0.0
  0
LINE
  5
16BA2
330
1666B
100
AcDbEntity
  8
YODOROGO
100
AcDbLine
 10
14216.80217064594
 20
993.8747482146439
 30
0.0
 11
14292.80217064596
 21
993.8747482146439
 31
0.0
  0
LINE
  5
16BA3
330
1666B
100
AcDbEntity
  8
YODOROGO
100
AcDbLine
 10
14292.80217064596
 20
993.8747482146439
 30
0.0
 11
14292.80217064596
 21
1013.874748214644
 31
0.0
  0
LINE
  5
16BA4
330
1666B
100
AcDbEntity
  8
YODOROGO
100
AcDbLine
 10
14292.80217064596
 20
1013.874748214644
 30
0.0
 11
14328.80217064596
 21
1013.874748214644
 31
0.0
  0
LINE
  5
16BA5
330
1666B
100
AcDbEntity
  8
YODOROGO
100
AcDbLine
 10
14328.80217064596
 20
1013.874748214644
 30
0.0
 11
14328.80217064596
 21
993.8747482146439
 31
0.0
  0
LINE
  5
16BA6
330
1666B
100
AcDbEntity
  8
YODOROGO
100
AcDbLine
 10
14328.80217064596
 20
993.8747482146439
 30
0.0
 11
14376.80217064594
 21
993.8747482146439
 31
0.0
  0
ARC
  5
16BA7
330
1666B
100
AcDbEntity
  8
YODOROGO
100
AcDbCircle
 10
14376.80217064594
 20
973.8747482146434
 30
0.0
 40
20.0
100
AcDbArc
 50
0.0
 51
90.0
  0
LINE
  5
16BA8
330
1666B
100
AcDbEntity
  8
YODOROGO
100
AcDbLine
 10
14396.80217064594
 20
973.8747482146434
 30
0.0
 11
14396.80217064594
 21
933.8747482146439
 31
0.0
  0
LINE
  5
16BA9
330
1666B
100
AcDbEntity
  8
YODOROGO
100
AcDbLine
 10
14396.80217064594
 20
933.8747482146439
 30
0.0
 11
14364.80217064596
 21
933.8747482146439
 31
0.0
  0
LINE
  5
16BAA
330
1666B
100
AcDbEntity
  8
YODOROGO
100
AcDbLine
 10
14364.80217064596
 20
933.8747482146439
 30
0.0
 11
14364.80217064596
 21
961.8747482146432
 31
0.0
  0
LINE
  5
16BAB
330
1666B
100
AcDbEntity
  8
YODOROGO
100
AcDbLine
 10
14364.80217064596
 20
961.8747482146432
 30
0.0
 11
14248.80217064594
 21
961.8747482146432
 31
0.0
  0
LINE
  5
16BAC
330
1666B
100
AcDbEntity
  8
YODOROGO
100
AcDbLine
 10
14248.80217064594
 20
961.8747482146432
 30
0.0
 11
14248.80217064594
 21
933.8747482146439
 31
0.0
  0
LINE
  5
16BAD
330
1666B
100
AcDbEntity
  8
YODOROGO
100
AcDbLine
 10
14248.80217064594
 20
933.8747482146439
 30
0.0
 11
14216.80217064594
 21
933.8747482146439
 31
0.0
  0
LINE
  5
16BAE
330
1666B
100
AcDbEntity
  8
YODOROGO
100
AcDbLine
 10
14836.80217064596
 20
885.8747482146441
 30
0.0
 11
14882.80217064596
 21
885.8747482146441
 31
0.0
1001
AUTOCAD_POSTSCRIPT_FIGURE
1002
{
1000
PSFILL
1000
Grayscale
1000
Grayscale
1070
    25
1002
}
  0
LINE
  5
16BAF
330
1666B
100
AcDbEntity
  8
YODOROGO
100
AcDbLine
 10
14882.80217064596
 20
885.8747482146441
 30
0.0
 11
14882.80217064596
 21
853.874748214644
 31
0.0
1001
AUTOCAD_POSTSCRIPT_FIGURE
1002
{
1000
PSFILL
1000
Grayscale
1000
Grayscale
1070
    25
1002
}
  0
LINE
  5
16BB0
330
1666B
100
AcDbEntity
  8
YODOROGO
100
AcDbLine
 10
14882.80217064596
 20
853.874748214644
 30
0.0
 11
14914.80217064596
 21
853.874748214644
 31
0.0
1001
AUTOCAD_POSTSCRIPT_FIGURE
1002
{
1000
PSFILL
1000
Grayscale
1000
Grayscale
1070
    25
1002
}
  0
LINE
  5
16BB1
330
1666B
100
AcDbEntity
  8
YODOROGO
100
AcDbLine
 10
14914.80217064596
 20
853.874748214644
 30
0.0
 11
14914.80217064596
 21
885.8747482146441
 31
0.0
1001
AUTOCAD_POSTSCRIPT_FIGURE
1002
{
1000
PSFILL
1000
Grayscale
1000
Grayscale
1070
    25
1002
}
  0
LINE
  5
16BB2
330
1666B
100
AcDbEntity
  8
YODOROGO
100
AcDbLine
 10
14914.80217064596
 20
885.8747482146441
 30
0.0
 11
14960.80217064594
 21
885.8747482146441
 31
0.0
1001
AUTOCAD_POSTSCRIPT_FIGURE
1002
{
1000
PSFILL
1000
Grayscale
1000
Grayscale
1070
    25
1002
}
  0
LINE
  5
16BB3
330
1666B
100
AcDbEntity
  8
YODOROGO
100
AcDbLine
 10
14960.80217064594
 20
885.8747482146441
 30
0.0
 11
14960.80217064594
 21
853.874748214644
 31
0.0
1001
AUTOCAD_POSTSCRIPT_FIGURE
1002
{
1000
PSFILL
1000
Grayscale
1000
Grayscale
1070
    25
1002
}
  0
LINE
  5
16BB4
330
1666B
100
AcDbEntity
  8
YODOROGO
100
AcDbLine
 10
14960.80217064594
 20
853.874748214644
 30
0.0
 11
14988.80217064596
 21
853.874748214644
 31
0.0
1001
AUTOCAD_POSTSCRIPT_FIGURE
1002
{
1000
PSFILL
1000
Grayscale
1000
Grayscale
1070
    25
1002
}
  0
LINE
  5
16BB5
330
1666B
100
AcDbEntity
  8
YODOROGO
100
AcDbLine
 10
14988.80217064596
 20
853.874748214644
 30
0.0
 11
14988.80217064596
 21
909.8747482146439
 31
0.0
1001
AUTOCAD_POSTSCRIPT_FIGURE
1002
{
1000
PSFILL
1000
Grayscale
1000
Grayscale
1070
    25
1002
}
  0
LINE
  5
16BB6
330
1666B
100
AcDbEntity
  8
YODOROGO
100
AcDbLine
 10
14988.80217064596
 20
909.8747482146439
 30
0.0
 11
14914.80217064596
 21
909.8747482146439
 31
0.0
1001
AUTOCAD_POSTSCRIPT_FIGURE
1002
{
1000
PSFILL
1000
Grayscale
1000
Grayscale
1070
    25
1002
}
  0
LINE
  5
16BB7
330
1666B
100
AcDbEntity
  8
YODOROGO
100
AcDbLine
 10
14914.80217064596
 20
909.8747482146439
 30
0.0
 11
14914.80217064596
 21
929.874748214644
 31
0.0
1001
AUTOCAD_POSTSCRIPT_FIGURE
1002
{
1000
PSFILL
1000
Grayscale
1000
Grayscale
1070
    25
1002
}
  0
LINE
  5
16BB8
330
1666B
100
AcDbEntity
  8
YODOROGO
100
AcDbLine
 10
14914.80217064596
 20
929.874748214644
 30
0.0
 11
14988.80217064596
 21
929.874748214644
 31
0.0
1001
AUTOCAD_POSTSCRIPT_FIGURE
1002
{
1000
PSFILL
1000
Grayscale
1000
Grayscale
1070
    25
1002
}
  0
LINE
  5
16BB9
330
1666B
100
AcDbEntity
  8
YODOROGO
100
AcDbLine
 10
14988.80217064596
 20
929.874748214644
 30
0.0
 11
14988.80217064596
 21
953.874748214644
 31
0.0
1001
AUTOCAD_POSTSCRIPT_FIGURE
1002
{
1000
PSFILL
1000
Grayscale
1000
Grayscale
1070
    25
1002
}
  0
LINE
  5
16BBA
330
1666B
100
AcDbEntity
  8
YODOROGO
100
AcDbLine
 10
14988.80217064596
 20
953.874748214644
 30
0.0
 11
14914.80217064596
 21
953.874748214644
 31
0.0
1001
AUTOCAD_POSTSCRIPT_FIGURE
1002
{
1000
PSFILL
1000
Grayscale
1000
Grayscale
1070
    25
1002
}
  0
LINE
  5
16BBB
330
1666B
100
AcDbEntity
  8
YODOROGO
100
AcDbLine
 10
14914.80217064596
 20
953.874748214644
 30
0.0
 11
14914.80217064596
 21
973.8747482146434
 31
0.0
1001
AUTOCAD_POSTSCRIPT_FIGURE
1002
{
1000
PSFILL
1000
Grayscale
1000
Grayscale
1070
    25
1002
}
  0
LINE
  5
16BBC
330
1666B
100
AcDbEntity
  8
YODOROGO
100
AcDbLine
 10
14914.80217064596
 20
973.8747482146434
 30
0.0
 11
14988.80217064596
 21
973.8747482146434
 31
0.0
1001
AUTOCAD_POSTSCRIPT_FIGURE
1002
{
1000
PSFILL
1000
Grayscale
1000
Grayscale
1070
    25
1002
}
  0
LINE
  5
16BBD
330
1666B
100
AcDbEntity
  8
YODOROGO
100
AcDbLine
 10
14988.80217064596
 20
973.8747482146434
 30
0.0
 11
14988.80217064596
 21
997.8747482146435
 31
0.0
1001
AUTOCAD_POSTSCRIPT_FIGURE
1002
{
1000
PSFILL
1000
Grayscale
1000
Grayscale
1070
    25
1002
}
  0
LINE
  5
16BBE
330
1666B
100
AcDbEntity
  8
YODOROGO
100
AcDbLine
 10
14988.80217064596
 20
997.8747482146435
 30
0.0
 11
14914.80217064596
 21
997.8747482146435
 31
0.0
1001
AUTOCAD_POSTSCRIPT_FIGURE
1002
{
1000
PSFILL
1000
Grayscale
1000
Grayscale
1070
    25
1002
}
  0
LINE
  5
16BBF
330
1666B
100
AcDbEntity
  8
YODOROGO
100
AcDbLine
 10
14914.80217064596
 20
997.8747482146435
 30
0.0
 11
14914.80217064596
 21
1013.874748214644
 31
0.0
1001
AUTOCAD_POSTSCRIPT_FIGURE
1002
{
1000
PSFILL
1000
Grayscale
1000
Grayscale
1070
    25
1002
}
  0
LINE
  5
16BC0
330
1666B
100
AcDbEntity
  8
YODOROGO
100
AcDbLine
 10
14914.80217064596
 20
1013.874748214644
 30
0.0
 11
14882.80217064596
 21
1013.874748214644
 31
0.0
1001
AUTOCAD_POSTSCRIPT_FIGURE
1002
{
1000
PSFILL
1000
Grayscale
1000
Grayscale
1070
    25
1002
}
  0
LINE
  5
16BC1
330
1666B
100
AcDbEntity
  8
YODOROGO
100
AcDbLine
 10
14882.80217064596
 20
1013.874748214644
 30
0.0
 11
14882.80217064596
 21
997.8747482146435
 31
0.0
1001
AUTOCAD_POSTSCRIPT_FIGURE
1002
{
1000
PSFILL
1000
Grayscale
1000
Grayscale
1070
    25
1002
}
  0
LINE
  5
16BC2
330
1666B
100
AcDbEntity
  8
YODOROGO
100
AcDbLine
 10
14882.80217064596
 20
997.8747482146435
 30
0.0
 11
14832.80217064596
 21
997.8747482146435
 31
0.0
1001
AUTOCAD_POSTSCRIPT_FIGURE
1002
{
1000
PSFILL
1000
Grayscale
1000
Grayscale
1070
    25
1002
}
  0
LINE
  5
16BC3
330
1666B
100
AcDbEntity
  8
YODOROGO
100
AcDbLine
 10
14832.80217064596
 20
997.8747482146435
 30
0.0
 11
14832.80217064596
 21
1013.874748214644
 31
0.0
1001
AUTOCAD_POSTSCRIPT_FIGURE
1002
{
1000
PSFILL
1000
Grayscale
1000
Grayscale
1070
    25
1002
}
  0
LINE
  5
16BC4
330
1666B
100
AcDbEntity
  8
YODOROGO
100
AcDbLine
 10
14832.80217064596
 20
1013.874748214644
 30
0.0
 11
14808.80217064596
 21
1013.874748214644
 31
0.0
1001
AUTOCAD_POSTSCRIPT_FIGURE
1002
{
1000
PSFILL
1000
Grayscale
1000
Grayscale
1070
    25
1002
}
  0
LINE
  5
16BC5
330
1666B
100
AcDbEntity
  8
YODOROGO
100
AcDbLine
 10
14808.80217064596
 20
1013.874748214644
 30
0.0
 11
14808.80217064596
 21
973.8747482146434
 31
0.0
1001
AUTOCAD_POSTSCRIPT_FIGURE
1002
{
1000
PSFILL
1000
Grayscale
1000
Grayscale
1070
    25
1002
}
  0
LINE
  5
16BC6
330
1666B
100
AcDbEntity
  8
YODOROGO
100
AcDbLine
 10
14808.80217064596
 20
973.8747482146434
 30
0.0
 11
14882.80217064596
 21
973.8747482146434
 31
0.0
1001
AUTOCAD_POSTSCRIPT_FIGURE
1002
{
1000
PSFILL
1000
Grayscale
1000
Grayscale
1070
    25
1002
}
  0
LINE
  5
16BC7
330
1666B
100
AcDbEntity
  8
YODOROGO
100
AcDbLine
 10
14882.80217064596
 20
973.8747482146434
 30
0.0
 11
14882.80217064596
 21
953.874748214644
 31
0.0
1001
AUTOCAD_POSTSCRIPT_FIGURE
1002
{
1000
PSFILL
1000
Grayscale
1000
Grayscale
1070
    25
1002
}
  0
LINE
  5
16BC8
330
1666B
100
AcDbEntity
  8
YODOROGO
100
AcDbLine
 10
14882.80217064596
 20
953.874748214644
 30
0.0
 11
14808.80217064596
 21
953.874748214644
 31
0.0
1001
AUTOCAD_POSTSCRIPT_FIGURE
1002
{
1000
PSFILL
1000
Grayscale
1000
Grayscale
1070
    25
1002
}
  0
LINE
  5
16BC9
330
1666B
100
AcDbEntity
  8
YODOROGO
100
AcDbLine
 10
14808.80217064596
 20
953.874748214644
 30
0.0
 11
14808.80217064596
 21
929.874748214644
 31
0.0
1001
AUTOCAD_POSTSCRIPT_FIGURE
1002
{
1000
PSFILL
1000
Grayscale
1000
Grayscale
1070
    25
1002
}
  0
LINE
  5
16BCA
330
1666B
100
AcDbEntity
  8
YODOROGO
100
AcDbLine
 10
14808.80217064596
 20
929.874748214644
 30
0.0
 11
14882.80217064596
 21
929.874748214644
 31
0.0
1001
AUTOCAD_POSTSCRIPT_FIGURE
1002
{
1000
PSFILL
1000
Grayscale
1000
Grayscale
1070
    25
1002
}
  0
LINE
  5
16BCB
330
1666B
100
AcDbEntity
  8
YODOROGO
100
AcDbLine
 10
14882.80217064596
 20
929.874748214644
 30
0.0
 11
14882.80217064596
 21
909.8747482146439
 31
0.0
1001
AUTOCAD_POSTSCRIPT_FIGURE
1002
{
1000
PSFILL
1000
Grayscale
1000
Grayscale
1070
    25
1002
}
  0
LINE
  5
16BCC
330
1666B
100
AcDbEntity
  8
YODOROGO
100
AcDbLine
 10
14882.80217064596
 20
909.8747482146439
 30
0.0
 11
14808.80217064596
 21
909.8747482146439
 31
0.0
1001
AUTOCAD_POSTSCRIPT_FIGURE
1002
{
1000
PSFILL
1000
Grayscale
1000
Grayscale
1070
    25
1002
}
  0
LINE
  5
16BCD
330
1666B
100
AcDbEntity
  8
YODOROGO
100
AcDbLine
 10
14808.80217064596
 20
909.8747482146439
 30
0.0
 11
14808.80217064596
 21
853.874748214644
 31
0.0
1001
AUTOCAD_POSTSCRIPT_FIGURE
1002
{
1000
PSFILL
1000
Grayscale
1000
Grayscale
1070
    25
1002
}
  0
LINE
  5
16BCE
330
1666B
100
AcDbEntity
  8
YODOROGO
100
AcDbLine
 10
14808.80217064596
 20
853.874748214644
 30
0.0
 11
14836.80217064596
 21
853.874748214644
 31
0.0
1001
AUTOCAD_POSTSCRIPT_FIGURE
1002
{
1000
PSFILL
1000
Grayscale
1000
Grayscale
1070
    25
1002
}
  0
LINE
  5
16BCF
330
1666B
100
AcDbEntity
  8
YODOROGO
100
AcDbLine
 10
14836.80217064596
 20
853.874748214644
 30
0.0
 11
14836.80217064596
 21
885.8747482146441
 31
0.0
1001
AUTOCAD_POSTSCRIPT_FIGURE
1002
{
1000
PSFILL
1000
Grayscale
1000
Grayscale
1070
    25
1002
}
  0
LINE
  5
16BD0
330
1666B
100
AcDbEntity
  8
YODOROGO
100
AcDbLine
 10
14968.80217064596
 20
740.6696674577553
 30
0.0
 11
14968.80217064596
 21
797.2655452655705
 31
0.0
  0
ARC
  5
16BD1
330
1666B
100
AcDbEntity
  8
YODOROGO
100
AcDbCircle
 10
15127.17387491394
 20
903.9323046166312
 30
0.0
 40
190.9434321028236
100
AcDbArc
 50
213.9611167766784
 51
264.4787207431779
  0
LINE
  5
16BD2
330
1666B
100
AcDbEntity
  8
YODOROGO
100
AcDbLine
 10
15108.80217064596
 20
713.8747482146428
 30
0.0
 11
15108.80217064596
 21
773.874748214644
 31
0.0
  0
ARC
  5
16BD3
330
1666B
100
AcDbEntity
  8
YODOROGO
100
AcDbCircle
 10
15115.02941435022
 20
934.4428574765011
 30
0.0
 40
160.6888181426452
100
AcDbArc
 50
260.6062929797
 51
267.7790355655591
  0
LINE
  5
16BD4
330
1666B
100
AcDbEntity
  8
YODOROGO
100
AcDbLine
 10
15088.80217064596
 20
775.9088612367134
 30
0.0
 11
15094.80217064596
 21
801.8747482146444
 31
0.0
  0
LINE
  5
16BD5
330
1666B
100
AcDbEntity
  8
YODOROGO
100
AcDbLine
 10
15094.80217064596
 20
801.8747482146444
 30
0.0
 11
15052.80217064596
 21
801.8747482146444
 31
0.0
  0
LINE
  5
16BD6
330
1666B
100
AcDbEntity
  8
YODOROGO
100
AcDbLine
 10
15052.80217064596
 20
801.8747482146444
 30
0.0
 11
15048.80217064598
 21
788.0364079349501
 31
0.0
  0
ARC
  5
16BD7
330
1666B
100
AcDbEntity
  8
YODOROGO
100
AcDbCircle
 10
15115.02941435068
 20
934.442857476448
 30
0.0
 40
160.6888181426116
100
AcDbArc
 50
228.6181454618984
 51
245.6602892489051
  0
LINE
  5
16BD8
330
1666B
100
AcDbEntity
  8
YODOROGO
100
AcDbLine
 10
15008.80217064596
 20
813.8747482146435
 30
0.0
 11
15108.80217064596
 21
813.8747482146435
 31
0.0
  0
LINE
  5
16BD9
330
1666B
100
AcDbEntity
  8
YODOROGO
100
AcDbLine
 10
15108.80217064596
 20
813.8747482146435
 30
0.0
 11
15108.80217064596
 21
833.8747482146439
 31
0.0
  0
LINE
  5
16BDA
330
1666B
100
AcDbEntity
  8
YODOROGO
100
AcDbLine
 10
15108.80217064596
 20
833.8747482146439
 30
0.0
 11
14974.80217064595
 21
833.8747482146439
 31
0.0
  0
LINE
  5
16BDB
330
1666B
100
AcDbEntity
  8
YODOROGO
100
AcDbLine
 10
14974.80217064595
 20
833.8747482146439
 30
0.0
 11
14974.80217064595
 21
853.874748214644
 31
0.0
  0
LINE
  5
16BDC
330
1666B
100
AcDbEntity
  8
YODOROGO
100
AcDbLine
 10
14974.80217064595
 20
853.874748214644
 30
0.0
 11
14942.80217064596
 21
853.874748214644
 31
0.0
  0
LINE
  5
16BDD
330
1666B
100
AcDbEntity
  8
YODOROGO
100
AcDbLine
 10
14942.80217064596
 20
853.874748214644
 30
0.0
 11
14942.80217064596
 21
833.8747482146439
 31
0.0
  0
LINE
  5
16BDE
330
1666B
100
AcDbEntity
  8
YODOROGO
100
AcDbLine
 10
14942.80217064596
 20
833.8747482146439
 30
0.0
 11
14808.80217064596
 21
833.8747482146439
 31
0.0
  0
LINE
  5
16BDF
330
1666B
100
AcDbEntity
  8
YODOROGO
100
AcDbLine
 10
14808.80217064596
 20
833.8747482146439
 30
0.0
 11
14808.80217064596
 21
813.8747482146435
 31
0.0
  0
LINE
  5
16BE0
330
1666B
100
AcDbEntity
  8
YODOROGO
100
AcDbLine
 10
14808.80217064596
 20
813.8747482146435
 30
0.0
 11
14856.47231434973
 21
813.8747482146435
 31
0.0
  0
LINE
  5
16BE1
330
1666B
100
AcDbEntity
  8
YODOROGO
100
AcDbLine
 10
14856.47231434973
 20
813.8747482146435
 30
0.0
 11
14808.80217064596
 21
773.874748214644
 31
0.0
  0
LINE
  5
16BE2
330
1666B
100
AcDbEntity
  8
YODOROGO
100
AcDbLine
 10
14808.80217064596
 20
773.874748214644
 30
0.0
 11
14808.80217064596
 21
713.8747482146436
 31
0.0
  0
LINE
  5
16BE3
330
1666B
100
AcDbEntity
  8
YODOROGO
100
AcDbLine
 10
14808.80217064596
 20
713.8747482146436
 30
0.0
 11
14868.80217064596
 21
764.2207260852818
 31
0.0
  0
LINE
  5
16BE4
330
1666B
100
AcDbEntity
  8
YODOROGO
100
AcDbLine
 10
14868.80217064596
 20
764.2207260852818
 30
0.0
 11
14868.80217064596
 21
713.8747482146436
 31
0.0
  0
LINE
  5
16BE5
330
1666B
100
AcDbEntity
  8
YODOROGO
100
AcDbLine
 10
14868.80217064596
 20
713.8747482146436
 30
0.0
 11
14968.80217064596
 21
740.6696674577553
 31
0.0
  0
LINE
  5
16BE6
330
1666B
100
AcDbEntity
  8
YODOROGO
100
AcDbLine
 10
14888.80217064596
 20
813.8747482146435
 30
0.0
 11
14888.80217064596
 21
781.0027187088283
 31
0.0
  0
LINE
  5
16BE7
330
1666B
100
AcDbEntity
  8
YODOROGO
100
AcDbLine
 10
14888.80217064596
 20
781.0027187088283
 30
0.0
 11
14885.70493649264
 21
778.403830673117
 31
0.0
  0
LINE
  5
16BE8
330
1666B
100
AcDbEntity
  8
YODOROGO
100
AcDbLine
 10
14885.70493649264
 20
778.403830673117
 30
0.0
 11
14966.89206625426
 21
800.1578565285436
 31
0.0
  0
ARC
  5
16BE9
330
1666B
100
AcDbEntity
  8
YODOROGO
100
AcDbCircle
 10
15127.17387491396
 20
903.9323046166616
 30
0.0
 40
190.9434321028459
100
AcDbArc
 50
208.1411442048688
 51
212.9210361186024
  0
LINE
  5
16BEA
330
1666B
100
AcDbEntity
  8
YODOROGO
100
AcDbLine
 10
14958.80217064596
 20
813.8747482146435
 30
0.0
 11
14888.80217064596
 21
813.8747482146435
 31
0.0
  0
LINE
  5
16BEB
330
1666B
100
AcDbEntity
  8
YODOROGO
100
AcDbLine
 10
14968.80217064596
 20
740.6696674577553
 30
0.0
 11
14968.80217064596
 21
797.2655452655705
 31
0.0
  0
ARC
  5
16BEC
330
1666B
100
AcDbEntity
  8
YODOROGO
100
AcDbCircle
 10
15127.17387491394
 20
903.9323046166312
 30
0.0
 40
190.9434321028236
100
AcDbArc
 50
213.9611167766784
 51
264.4787207431779
  0
LINE
  5
16BED
330
1666B
100
AcDbEntity
  8
YODOROGO
100
AcDbLine
 10
15108.80217064596
 20
713.8747482146428
 30
0.0
 11
15108.80217064596
 21
773.874748214644
 31
0.0
  0
ARC
  5
16BEE
330
1666B
100
AcDbEntity
  8
YODOROGO
100
AcDbCircle
 10
15115.02941435022
 20
934.4428574765011
 30
0.0
 40
160.6888181426452
100
AcDbArc
 50
260.6062929797
 51
267.7790355655591
  0
LINE
  5
16BEF
330
1666B
100
AcDbEntity
  8
YODOROGO
100
AcDbLine
 10
15088.80217064596
 20
775.9088612367134
 30
0.0
 11
15094.80217064596
 21
801.8747482146444
 31
0.0
  0
LINE
  5
16BF0
330
1666B
100
AcDbEntity
  8
YODOROGO
100
AcDbLine
 10
15094.80217064596
 20
801.8747482146444
 30
0.0
 11
15052.80217064596
 21
801.8747482146444
 31
0.0
  0
LINE
  5
16BF1
330
1666B
100
AcDbEntity
  8
YODOROGO
100
AcDbLine
 10
15052.80217064596
 20
801.8747482146444
 30
0.0
 11
15048.80217064598
 21
788.0364079349501
 31
0.0
  0
ARC
  5
16BF2
330
1666B
100
AcDbEntity
  8
YODOROGO
100
AcDbCircle
 10
15115.02941435068
 20
934.442857476448
 30
0.0
 40
160.6888181426116
100
AcDbArc
 50
228.6181454618984
 51
245.6602892489051
  0
LINE
  5
16BF3
330
1666B
100
AcDbEntity
  8
YODOROGO
100
AcDbLine
 10
15008.80217064596
 20
813.8747482146435
 30
0.0
 11
15108.80217064596
 21
813.8747482146435
 31
0.0
  0
LINE
  5
16BF4
330
1666B
100
AcDbEntity
  8
YODOROGO
100
AcDbLine
 10
15108.80217064596
 20
813.8747482146435
 30
0.0
 11
15108.80217064596
 21
833.8747482146439
 31
0.0
  0
LINE
  5
16BF5
330
1666B
100
AcDbEntity
  8
YODOROGO
100
AcDbLine
 10
15108.80217064596
 20
833.8747482146439
 30
0.0
 11
14974.80217064595
 21
833.8747482146439
 31
0.0
  0
LINE
  5
16BF6
330
1666B
100
AcDbEntity
  8
YODOROGO
100
AcDbLine
 10
14974.80217064595
 20
833.8747482146439
 30
0.0
 11
14974.80217064595
 21
853.874748214644
 31
0.0
  0
LINE
  5
16BF7
330
1666B
100
AcDbEntity
  8
YODOROGO
100
AcDbLine
 10
14974.80217064595
 20
853.874748214644
 30
0.0
 11
14942.80217064596
 21
853.874748214644
 31
0.0
  0
LINE
  5
16BF8
330
1666B
100
AcDbEntity
  8
YODOROGO
100
AcDbLine
 10
14942.80217064596
 20
853.874748214644
 30
0.0
 11
14942.80217064596
 21
833.8747482146439
 31
0.0
  0
LINE
  5
16BF9
330
1666B
100
AcDbEntity
  8
YODOROGO
100
AcDbLine
 10
14942.80217064596
 20
833.8747482146439
 30
0.0
 11
14808.80217064596
 21
833.8747482146439
 31
0.0
  0
LINE
  5
16BFA
330
1666B
100
AcDbEntity
  8
YODOROGO
100
AcDbLine
 10
14808.80217064596
 20
833.8747482146439
 30
0.0
 11
14808.80217064596
 21
813.8747482146435
 31
0.0
  0
LINE
  5
16BFB
330
1666B
100
AcDbEntity
  8
YODOROGO
100
AcDbLine
 10
14808.80217064596
 20
813.8747482146435
 30
0.0
 11
14856.47231434973
 21
813.8747482146435
 31
0.0
  0
LINE
  5
16BFC
330
1666B
100
AcDbEntity
  8
YODOROGO
100
AcDbLine
 10
14856.47231434973
 20
813.8747482146435
 30
0.0
 11
14808.80217064596
 21
773.874748214644
 31
0.0
  0
LINE
  5
16BFD
330
1666B
100
AcDbEntity
  8
YODOROGO
100
AcDbLine
 10
14808.80217064596
 20
773.874748214644
 30
0.0
 11
14808.80217064596
 21
713.8747482146436
 31
0.0
  0
LINE
  5
16BFE
330
1666B
100
AcDbEntity
  8
YODOROGO
100
AcDbLine
 10
14808.80217064596
 20
713.8747482146436
 30
0.0
 11
14868.80217064596
 21
764.2207260852818
 31
0.0
  0
LINE
  5
16BFF
330
1666B
100
AcDbEntity
  8
YODOROGO
100
AcDbLine
 10
14868.80217064596
 20
764.2207260852818
 30
0.0
 11
14868.80217064596
 21
713.8747482146436
 31
0.0
  0
LINE
  5
16C00
330
1666B
100
AcDbEntity
  8
YODOROGO
100
AcDbLine
 10
14868.80217064596
 20
713.8747482146436
 30
0.0
 11
14968.80217064596
 21
740.6696674577553
 31
0.0
  0
TEXT
  5
16C27
330
1666B
100
AcDbEntity
  8
SUNPOU
100
AcDbText
 10
11806.6182959071
 20
2762.30174440284
 30
0.0
 40
90.0
  1
所もありますので、ご注意願います。
  7
01
100
AcDbText
  0
TEXT
  5
16C28
330
1666B
100
AcDbEntity
  8
SUNPOU
100
AcDbText
 10
12575.36467444442
 20
4251.154647947696
 30
0.0
 40
73.84615384615384
  1
25
 41
0.6700000000000001
  7
00
 11
12575.36467444442
 21
4241.308494101541
 31
0.0
100
AcDbText
 73
     1
  0
TEXT
  5
16C29
330
1666B
100
AcDbEntity
  8
SUNPOU
100
AcDbText
 10
12143.3064023216
 20
4272.077724870775
 30
0.0
 40
92.30769230769228
  1
（ S = 　　  ）
 41
0.6700000000000001
  7
00
 11
12143.3064023216
 21
4259.770032563082
 31
0.0
100
AcDbText
 73
     1
  0
TEXT
  5
16C2A
330
1666B
100
AcDbEntity
  8
SUNPOU
100
AcDbText
 10
11806.6182959071
 20
3070.87317297427
 30
0.0
 40
90.0
  1
異形鉄筋の場合、原則としてフックは不要ですが、
  7
01
100
AcDbText
  0
TEXT
  5
16C2B
330
1666B
100
AcDbEntity
  8
SUNPOU
100
AcDbText
 10
11431.66255081771
 20
3758.730315831413
 30
0.0
 40
89.9993750043402
  1
基準風速   　　 , 地表面粗度区分
  7
01
100
AcDbText
  0
TEXT
  5
16C2C
330
1666B
100
AcDbEntity
  8
SUNPOU
100
AcDbText
 10
11431.66255081771
 20
3913.016030117126
 30
0.0
 40
89.9993750043402
  1
地耐力   　　　 以上,コンクリート設計基準強度　　　　　以上
  7
01
100
AcDbText
  0
TEXT
  5
16C2D
330
1666B
100
AcDbEntity
  8
SUNPOU
100
AcDbText
 10
11806.6182959071
 20
3379.444601545698
 30
0.0
 40
90.0
  1
あわせて設計して下さい。
  7
01
100
AcDbText
  0
TEXT
  5
16C2E
330
1666B
100
AcDbEntity
  8
SUNPOU
100
AcDbText
 10
11806.6182959071
 20
3225.158887259986
 30
0.0
 40
90.0
  1
その他現地の実情にあわせて設計して下さい。
  7
01
100
AcDbText
  0
TEXT
  5
16C2F
330
1666B
100
AcDbEntity
  8
SUNPOU
100
AcDbText
 10
11806.6182959071
 20
3533.730315831413
 30
0.0
 40
90.0
  1
寒冷地の場合、凍結深度等を考慮し、実情に
  7
01
100
AcDbText
  0
TEXT
  5
16C30
330
1666B
100
AcDbEntity
  8
SUNPOU
100
AcDbText
 10
11806.6182959071
 20
2916.587458688556
 30
0.0
 40
90.0
  1
地域によっては、フックをつける様指導している
  7
01
100
AcDbText
  0
TEXT
  5
16C31
330
1666B
100
AcDbEntity
  8
SUNPOU
100
AcDbText
 10
11301.09892210148
 20
4102.270032563082
 30
0.0
 40
90.0
  1
<下記条件での参考図>
  7
01
 72
     4
 11
11889.95606495862
 21
4147.270032563082
 31
0.0
100
AcDbText
  0
ARC
  5
16C32
330
1666B
100
AcDbEntity
  8
SUNPOU
100
AcDbCircle
 10
11584.62082472491
 20
3876.803453558958
 30
0.0
 40
225.0
100
AcDbArc
 50
148.3472725282761
 51
211.6527274717238
  0
TEXT
  5
16C33
330
1666B
100
AcDbEntity
  8
SUNPOU
100
AcDbText
 10
11915.42597948288
 20
3758.730315831413
 30
0.0
 40
89.9993750043402
  1
34 m/s
 41
0.6700000000000001
  7
01
100
AcDbText
  0
TEXT
  5
16C34
330
1666B
100
AcDbEntity
  8
SUNPOU
100
AcDbText
 10
11600.41255081771
 20
3225.158887259986
 30
0.0
 40
90.0
  1
2
 41
0.6700000000000001
  7
01
100
AcDbText
  0
TEXT
  5
16C35
330
1666B
100
AcDbEntity
  8
SUNPOU
100
AcDbText
 10
11489.77863060498
 20
3225.158887259986
 30
0.0
 40
90.0
  1
注　）
  7
01
100
AcDbText
  0
TEXT
  5
16C36
330
1666B
100
AcDbEntity
  8
SUNPOU
100
AcDbText
 10
11489.77863060498
 20
3070.87317297427
 30
0.0
 40
90.0
  1
注　）
  7
01
100
AcDbText
  0
TEXT
  5
16C37
330
1666B
100
AcDbEntity
  8
SUNPOU
100
AcDbText
 10
11600.41255081771
 20
3070.87317297427
 30
0.0
 40
90.0
  1
3
 41
0.6700000000000001
  7
01
100
AcDbText
  0
TEXT
  5
16C38
330
1666B
100
AcDbEntity
  8
SUNPOU
100
AcDbText
 10
11489.77863060498
 20
3533.730315831413
 30
0.0
 40
90.0
  1
注　）
  7
01
100
AcDbText
  0
TEXT
  5
16C39
330
1666B
100
AcDbEntity
  8
SUNPOU
100
AcDbText
 10
11600.41255081771
 20
3533.730315831413
 30
0.0
 40
90.0
  1
1
 41
0.6700000000000001
  7
01
100
AcDbText
  0
TEXT
  5
16C3A
330
1666B
100
AcDbEntity
  8
SUNPOU
100
AcDbText
 10
11805.92095824279
 20
3913.016030117126
 30
0.0
 40
89.9993750043402
  1
50  N/m
 41
0.6700000000000001
  7
01
100
AcDbText
  0
TEXT
  5
16C3B
330
1666B
100
AcDbEntity
  8
SUNPOU
100
AcDbText
 10
11426.45606495862
 20
4259.770032563083
 30
0.0
 40
120.0
  1
基礎断面図
  7
01
 72
     4
 11
11766.45606495863
 21
4319.770032563083
 31
0.0
100
AcDbText
  0
TEXT
  5
16C3C
330
1666B
100
AcDbEntity
  8
SUNPOU
100
AcDbText
 10
11941.75741102874
 20
3913.016030117126
 30
0.0
 40
71.99950000347218
  1
K
 41
0.6700000000000001
  7
01
100
AcDbText
  0
TEXT
  5
16C3D
330
1666B
100
AcDbEntity
  8
SUNPOU
100
AcDbText
 10
12209.39756775714
 20
3963.204456474613
 30
0.0
 40
46.28539285937498
  1
2
 41
0.6700000000000001
  7
00
100
AcDbText
  0
TEXT
  5
16C3E
330
1666B
100
AcDbEntity
  8
SUNPOU
100
AcDbText
 10
12463.00910417466
 20
4288.077724870777
 30
0.0
 40
73.84615384615384
  1
1
 41
0.6700000000000001
  7
00
 11
12463.00910417466
 21
4278.231571024622
 31
0.0
100
AcDbText
 73
     1
  0
TEXT
  5
16C3F
330
1666B
100
AcDbEntity
  8
SUNPOU
100
AcDbText
 10
12511.41523149004
 20
4269.616186409236
 30
0.0
 40
73.84615384615384
  1
/
 41
0.6700000000000001
  7
00
 11
12511.41523149004
 21
4259.770032563082
 31
0.0
100
AcDbText
 73
     1
  0
LINE
  5
16C40
330
1666B
100
AcDbEntity
  8
SUNPOU
100
AcDbLine
 10
13268.47811238432
 20
3758.730315831413
 30
0.0
 11
13268.47811238432
 21
3842.222679530193
 31
0.0
  0
LINE
  5
16C41
330
1666B
100
AcDbEntity
  8
SUNPOU
100
AcDbLine
 10
13251.60311238432
 20
3758.730315831413
 30
0.0
 11
13251.60311238432
 21
3842.222679530193
 31
0.0
  0
LINE
  5
16C42
330
1666B
100
AcDbEntity
  8
SUNPOU
100
AcDbLine
 10
13234.72811238432
 20
3758.730315831413
 30
0.0
 11
13234.72811238432
 21
3842.222679530193
 31
0.0
  0
LINE
  5
16C43
330
1666B
100
AcDbEntity
  8
SUNPOU
100
AcDbLine
 10
13223.47811238432
 20
3758.730315831411
 30
0.0
 11
13279.72811238432
 21
3758.730315831411
 31
0.0
  0
LINE
  5
16C44
330
1666B
100
AcDbEntity
  8
SUNPOU
100
AcDbLine
 10
13223.47811238432
 20
3842.222679530193
 30
0.0
 11
13279.72811238432
 21
3842.222679530193
 31
0.0
  0
TEXT
  5
16C45
330
1666B
100
AcDbEntity
  8
SUNPOU
100
AcDbText
 10
13850.67302910442
 20
3913.016030117126
 30
0.0
 40
89.9993750043402
  1
18
 41
0.6700000000000001
  7
01
100
AcDbText
  0
ARC
  5
16C46
330
1666B
100
AcDbEntity
  8
SUNPOU
100
AcDbCircle
 10
14439.85122845539
 20
3876.803453558958
 30
0.0
 40
225.0
100
AcDbArc
 50
328.3472725282761
 51
31.65272747172387
  0
TEXT
  5
16C47
330
1666B
100
AcDbEntity
  8
SUNPOU
100
AcDbText
 10
14290.97396392178
 20
3963.204456474613
 30
0.0
 40
46.28539285937498
  1
2
 41
0.6700000000000001
  7
00
100
AcDbText
  0
TEXT
  5
16C48
330
1666B
100
AcDbEntity
  8
SUNPOU
100
AcDbText
 10
13986.50948189038
 20
3913.016030117126
 30
0.0
 40
89.9993750043402
  1
N/mm
 41
0.6700000000000001
  7
01
100
AcDbText
  0
ENDSEC
  0
SECTION
  2
OBJECTS
  0
DICTIONARY
  5
16659
330
0
100
AcDbDictionary
281
     1
  3
ACAD_GROUP
350
1665A
  3
ACAD_LAYOUT
350
16666
  3
ACAD_MLINESTYLE
350
16663
  3
ACAD_PLOTSETTINGS
350
16665
  3
ACAD_PLOTSTYLENAME
350
1665B
  3
AcDbVariableDictionary
350
16C49
  0
DICTIONARY
  5
1665A
102
{ACAD_REACTORS
330
16659
102
}
330
16659
100
AcDbDictionary
281
     1
  0
DICTIONARY
  5
16666
102
{ACAD_REACTORS
330
16659
102
}
330
16659
100
AcDbDictionary
281
     1
  3
Model
350
1666E
  3
ﾚｲｱｳﾄ1
350
1666A
  0
DICTIONARY
  5
16663
102
{ACAD_REACTORS
330
16659
102
}
330
16659
100
AcDbDictionary
281
     1
  3
Standard
350
16664
  0
DICTIONARY
  5
16665
102
{ACAD_REACTORS
330
16659
102
}
330
16659
100
AcDbDictionary
281
     1
  0
ACDBDICTIONARYWDFLT
  5
1665B
102
{ACAD_REACTORS
330
16659
102
}
330
16659
100
AcDbDictionary
281
     1
  3
Normal
350
1665C
100
AcDbDictionaryWithDefault
340
1665C
  0
DICTIONARY
  5
16C49
102
{ACAD_REACTORS
330
16659
102
}
330
16659
100
AcDbDictionary
281
     1
  3
DIMASSOC
350
16C4A
  0
LAYOUT
  5
1666E
102
{ACAD_REACTORS
330
16666
102
}
330
16666
100
AcDbPlotSettings
  1

  2
Muratec V-1200 Is@Web Printer
  4

  6

 40
0.0
 41
0.0
 42
0.0
 43
0.0
 44
0.0
 45
0.0
 46
0.0
 47
0.0
 48
0.0
 49
0.0
140
0.0
141
0.0
142
1.0
143
1.0
 70
  1712
 72
     0
 73
     0
 74
     0
  7

 75
     0
147
1.0
148
0.0
149
0.0
100
AcDbLayout
  1
Model
 70
     1
 71
     0
 10
0.0
 20
0.0
 11
12.0
 21
9.0
 12
0.0
 22
0.0
 32
0.0
 14
0.0
 24
0.0
 34
0.0
 15
0.0
 25
0.0
 35
0.0
146
0.0
 13
0.0
 23
0.0
 33
0.0
 16
1.0
 26
0.0
 36
0.0
 17
0.0
 27
1.0
 37
0.0
 76
     0
330
1666B
  0
LAYOUT
  5
1666A
102
{ACAD_REACTORS
330
16666
102
}
330
16666
100
AcDbPlotSettings
  1

  2
Muratec V-1200 Is@Web Printer
  4

  6

 40
0.0
 41
0.0
 42
0.0
 43
0.0
 44
0.0
 45
0.0
 46
0.0
 47
0.0
 48
0.0
 49
0.0
140
0.0
141
0.0
142
1.0
143
1.0
 70
   688
 72
     0
 73
     0
 74
     5
  7

 75
    16
147
1.0
148
0.0
149
0.0
100
AcDbLayout
  1
ﾚｲｱｳﾄ1
 70
     0
 71
     1
 10
0.0
 20
0.0
 11
12.0
 21
9.0
 12
0.0
 22
0.0
 32
0.0
 14
1.000000000000000E+20
 24
1.000000000000000E+20
 34
1.000000000000000E+20
 15
-1.000000000000000E+20
 25
-1.000000000000000E+20
 35
-1.000000000000000E+20
146
0.0
 13
0.0
 23
0.0
 33
0.0
 16
1.0
 26
0.0
 36
0.0
 17
0.0
 27
1.0
 37
0.0
 76
     0
330
16667
  0
MLINESTYLE
  5
16664
102
{ACAD_REACTORS
330
16663
102
}
330
16663
100
AcDbMlineStyle
  2
STANDARD
 70
     0
  3

 62
   256
 51
90.0
 52
90.0
 71
     2
 49
0.5
 62
   256
  6
BYLAYER
 49
-0.5
 62
   256
  6
BYLAYER
  0
ACDBPLACEHOLDER
  5
1665C
102
{ACAD_REACTORS
330
1665B
102
}
330
1665B
  0
DICTIONARYVAR
  5
16C4A
102
{ACAD_REACTORS
330
16C49
102
}
330
16C49
100
DictionaryVariables
280
     0
  1
1
  0
ENDSEC
  0
EOF
