  0
SECTION
  2
HEADER
  9
$ACADVER
  1
AC1015
  9
$ACADMAINTVER
 70
    13
  9
$DWGCODEPAGE
  3
ANSI_932
  9
$INSBASE
 10
267.0
 20
194.8999999999998
 30
0.0
  9
$EXTMIN
 10
433.9966216520333
 20
163.6908237492789
 30
-0.000000000000013
  9
$EXTMAX
 10
16382.6660542547
 20
11242.27663824599
 30
0.0000000000000023
  9
$LIMMIN
 10
0.0
 20
0.0
  9
$LIMMAX
 10
16800.0
 20
11880.0
  9
$ORTHOMODE
 70
     0
  9
$REGENMODE
 70
     1
  9
$FILLMODE
 70
     1
  9
$QTEXTMODE
 70
     0
  9
$MIRRTEXT
 70
     0
  9
$LTSCALE
 40
40.0
  9
$ATTMODE
 70
     1
  9
$TEXTSIZE
 40
0.2
  9
$TRACEWID
 40
0.05
  9
$TEXTSTYLE
  7
00
  9
$CLAYER
  8
SUNPOU
  9
$CELTYPE
  6
ByLayer
  9
$CECOLOR
 62
   256
  9
$CELTSCALE
 40
1.0
  9
$DISPSILH
 70
     0
  9
$DIMSCALE
 40
40.0
  9
$DIMASZ
 40
0.5
  9
$DIMEXO
 40
1.0
  9
$DIMDLI
 40
7.0
  9
$DIMRND
 40
0.0
  9
$DIMDLE
 40
3.0
  9
$DIMEXE
 40
1.125
  9
$DIMTP
 40
0.0
  9
$DIMTM
 40
0.0
  9
$DIMTXT
 40
2.25
  9
$DIMCEN
 40
0.0
  9
$DIMTSZ
 40
0.0
  9
$DIMTOL
 70
     0
  9
$DIMLIM
 70
     0
  9
$DIMTIH
 70
     0
  9
$DIMTOH
 70
     0
  9
$DIMSE1
 70
     0
  9
$DIMSE2
 70
     0
  9
$DIMTAD
 70
     1
  9
$DIMZIN
 70
     8
  9
$DIMBLK
  1
DOT
  9
$DIMASO
 70
     1
  9
$DIMSHO
 70
     0
  9
$DIMPOST
  1

  9
$DIMAPOST
  1

  9
$DIMALT
 70
     0
  9
$DIMALTD
 70
     2
  9
$DIMALTF
 40
25.4
  9
$DIMLFAC
 40
1.0
  9
$DIMTOFL
 70
     1
  9
$DIMTVP
 40
0.0
  9
$DIMTIX
 70
     0
  9
$DIMSOXD
 70
     0
  9
$DIMSAH
 70
     1
  9
$DIMBLK1
  1
DOT
  9
$DIMBLK2
  1
DOT
  9
$DIMSTYLE
  2
SUNPOU_図面名
  9
$DIMCLRD
 70
   256
  9
$DIMCLRE
 70
   256
  9
$DIMCLRT
 70
   256
  9
$DIMTFAC
 40
1.0
  9
$DIMGAP
 40
1.125
  9
$DIMJUST
 70
     0
  9
$DIMSD1
 70
     0
  9
$DIMSD2
 70
     0
  9
$DIMTOLJ
 70
     1
  9
$DIMTZIN
 70
     0
  9
$DIMALTZ
 70
     0
  9
$DIMALTTZ
 70
     0
  9
$DIMUPT
 70
     0
  9
$DIMDEC
 70
     4
  9
$DIMTDEC
 70
     4
  9
$DIMALTU
 70
     2
  9
$DIMALTTD
 70
     2
  9
$DIMTXSTY
  7
STANDARD
  9
$DIMAUNIT
 70
     0
  9
$DIMADEC
 70
     0
  9
$DIMALTRND
 40
0.0
  9
$DIMAZIN
 70
     0
  9
$DIMDSEP
 70
    46
  9
$DIMATFIT
 70
     3
  9
$DIMFRAC
 70
     0
  9
$DIMLDRBLK
  1
DOT
  9
$DIMLUNIT
 70
     2
  9
$DIMLWD
 70
    -2
  9
$DIMLWE
 70
    -2
  9
$DIMTMOVE
 70
     0
  9
$LUNITS
 70
     2
  9
$LUPREC
 70
     2
  9
$SKETCHINC
 40
0.1
  9
$FILLETRAD
 40
0.0
  9
$AUNITS
 70
     0
  9
$AUPREC
 70
     0
  9
$MENU
  1
A:\TIGER\MENU\TIGER
  9
$ELEVATION
 40
0.0
  9
$PELEVATION
 40
0.0
  9
$THICKNESS
 40
0.0
  9
$LIMCHECK
 70
     0
  9
$CHAMFERA
 40
0.0
  9
$CHAMFERB
 40
0.0
  9
$CHAMFERC
 40
0.0
  9
$CHAMFERD
 40
0.0
  9
$SKPOLY
 70
     0
  9
$TDCREATE
 40
2450266.571064815
  9
$TDUCREATE
 40
2450266.196064815
  9
$TDUPDATE
 40
2456330.649711006
  9
$TDUUPDATE
 40
2456330.274711006
  9
$TDINDWG
 40
0.1603512269
  9
$TDUSRTIMER
 40
0.1603512269
  9
$USRTIMER
 70
     1
  9
$ANGBASE
 50
0.0
  9
$ANGDIR
 70
     0
  9
$PDMODE
 70
     0
  9
$PDSIZE
 40
0.0
  9
$PLINEWID
 40
0.0
  9
$SPLFRAME
 70
     0
  9
$SPLINETYPE
 70
     6
  9
$SPLINESEGS
 70
     8
  9
$HANDSEED
  5
1649A
  9
$SURFTAB1
 70
     6
  9
$SURFTAB2
 70
     6
  9
$SURFTYPE
 70
     6
  9
$SURFU
 70
     6
  9
$SURFV
 70
     6
  9
$UCSBASE
  2

  9
$UCSNAME
  2

  9
$UCSORG
 10
0.0
 20
0.0
 30
0.0
  9
$UCSXDIR
 10
1.0
 20
0.0
 30
0.0
  9
$UCSYDIR
 10
0.0
 20
1.0
 30
0.0
  9
$UCSORTHOREF
  2

  9
$UCSORTHOVIEW
 70
     0
  9
$UCSORGTOP
 10
0.0
 20
0.0
 30
0.0
  9
$UCSORGBOTTOM
 10
0.0
 20
0.0
 30
0.0
  9
$UCSORGLEFT
 10
0.0
 20
0.0
 30
0.0
  9
$UCSORGRIGHT
 10
0.0
 20
0.0
 30
0.0
  9
$UCSORGFRONT
 10
0.0
 20
0.0
 30
0.0
  9
$UCSORGBACK
 10
0.0
 20
0.0
 30
0.0
  9
$PUCSBASE
  2

  9
$PUCSNAME
  2

  9
$PUCSORG
 10
0.0
 20
0.0
 30
0.0
  9
$PUCSXDIR
 10
1.0
 20
0.0
 30
0.0
  9
$PUCSYDIR
 10
0.0
 20
1.0
 30
0.0
  9
$PUCSORTHOREF
  2

  9
$PUCSORTHOVIEW
 70
     0
  9
$PUCSORGTOP
 10
0.0
 20
0.0
 30
0.0
  9
$PUCSORGBOTTOM
 10
0.0
 20
0.0
 30
0.0
  9
$PUCSORGLEFT
 10
0.0
 20
0.0
 30
0.0
  9
$PUCSORGRIGHT
 10
0.0
 20
0.0
 30
0.0
  9
$PUCSORGFRONT
 10
0.0
 20
0.0
 30
0.0
  9
$PUCSORGBACK
 10
0.0
 20
0.0
 30
0.0
  9
$USERI1
 70
     3
  9
$USERI2
 70
     0
  9
$USERI3
 70
     0
  9
$USERI4
 70
     0
  9
$USERI5
 70
  1103
  9
$USERR1
 40
0.0
  9
$USERR2
 40
1.0
  9
$USERR3
 40
0.0
  9
$USERR4
 40
0.0
  9
$USERR5
 40
0.0
  9
$WORLDVIEW
 70
     1
  9
$SHADEDGE
 70
     3
  9
$SHADEDIF
 70
    70
  9
$TILEMODE
 70
     1
  9
$MAXACTVP
 70
    16
  9
$PINSBASE
 10
0.0
 20
0.0
 30
0.0
  9
$PLIMCHECK
 70
     0
  9
$PEXTMIN
 10
1.000000000000000E+20
 20
1.000000000000000E+20
 30
1.000000000000000E+20
  9
$PEXTMAX
 10
-1.000000000000000E+20
 20
-1.000000000000000E+20
 30
-1.000000000000000E+20
  9
$PLIMMIN
 10
0.0
 20
0.0
  9
$PLIMMAX
 10
12.0
 20
9.0
  9
$UNITMODE
 70
     0
  9
$VISRETAIN
 70
     0
  9
$PLINEGEN
 70
     1
  9
$PSLTSCALE
 70
     0
  9
$TREEDEPTH
 70
  3020
  9
$CMLSTYLE
  2
Standard
  9
$CMLJUST
 70
     0
  9
$CMLSCALE
 40
1.0
  9
$PROXYGRAPHICS
 70
     1
  9
$MEASUREMENT
 70
     0
  9
$CELWEIGHT
370
    -1
  9
$ENDCAPS
280
     0
  9
$JOINSTYLE
280
     0
  9
$LWDISPLAY
290
     0
  9
$INSUNITS
 70
     0
  9
$HYPERLINKBASE
  1

  9
$STYLESHEET
  1

  9
$XEDIT
290
     1
  9
$CEPSNTYPE
380
     0
  9
$PSTYLEMODE
290
     1
  9
$FINGERPRINTGUID
  2
{B3D62E2A-7F95-41F7-9C4B-C9EF4A75F691}
  9
$VERSIONGUID
  2
{345DD195-5EFD-4501-A2EE-88EFEDEB9A4A}
  9
$EXTNAMES
290
     1
  9
$PSVPSCALE
 40
0.0
  9
$OLESTARTUP
290
     0
  0
ENDSEC
  0
SECTION
  2
CLASSES
  0
CLASS
  1
ACDBDICTIONARYWDFLT
  2
AcDbDictionaryWithDefault
  3
AutoCAD 2000
 90
        0
280
     0
281
     0
  0
CLASS
  1
ACDBPLACEHOLDER
  2
AcDbPlaceHolder
  3
AutoCAD 2000
 90
        0
280
     0
281
     0
  0
CLASS
  1
LAYOUT
  2
AcDbLayout
  3
AutoCAD 2000
 90
        0
280
     0
281
     0
  0
CLASS
  1
DICTIONARYVAR
  2
AcDbDictionaryVar
  3
AutoCAD 2000
 90
        0
280
     0
281
     0
  0
ENDSEC
  0
SECTION
  2
TABLES
  0
TABLE
  2
VPORT
  5
15FAB
330
0
100
AcDbSymbolTable
 70
     2
  0
VPORT
  5
16499
330
15FAB
100
AcDbSymbolTableRecord
100
AcDbViewportTableRecord
  2
*Active
 70
     0
 10
0.0
 20
0.0
 11
1.0
 21
1.0
 12
8408.331337953367
 22
5702.983730997637
 13
0.0
 23
0.0
 14
1.0
 24
1.0
 15
0.0
 25
0.0
 16
0.0
 26
0.0
 36
1.0
 17
0.0
 27
0.0
 37
0.0
 40
11162.83361536741
 41
1.527918781725888
 42
50.0
 43
0.0
 44
0.0
 50
0.0
 51
0.0
 71
     0
 72
 10000
 73
     1
 74
     0
 75
     0
 76
     0
 77
     0
 78
     0
281
     0
 65
     1
110
0.0
120
0.0
130
0.0
111
1.0
121
0.0
131
0.0
112
0.0
122
1.0
132
0.0
 79
     0
146
0.0
  0
ENDTAB
  0
TABLE
  2
LTYPE
  5
15FA8
330
0
100
AcDbSymbolTable
 70
     7
  0
LTYPE
  5
15FB6
330
15FA8
100
AcDbSymbolTableRecord
100
AcDbLinetypeTableRecord
  2
ByBlock
 70
     0
  3

 72
    65
 73
     0
 40
0.0
  0
LTYPE
  5
15FB7
330
15FA8
100
AcDbSymbolTableRecord
100
AcDbLinetypeTableRecord
  2
ByLayer
 70
     0
  3

 72
    65
 73
     0
 40
0.0
  0
LTYPE
  5
15FB8
330
15FA8
100
AcDbSymbolTableRecord
100
AcDbLinetypeTableRecord
  2
CONTINUOUS
 70
     0
  3
実線
 72
    65
 73
     0
 40
0.0
  0
LTYPE
  5
15FC8
330
15FA8
100
AcDbSymbolTableRecord
100
AcDbLinetypeTableRecord
  2
1PL-L
 70
     0
  3

 72
    65
 73
     4
 40
56.0
 49
50.0
 74
     0
 49
-2.0
 74
     0
 49
2.0
 74
     0
 49
-2.0
 74
     0
  0
LTYPE
  5
15FC9
330
15FA8
100
AcDbSymbolTableRecord
100
AcDbLinetypeTableRecord
  2
1PL-M
 70
     0
  3

 72
    65
 73
     4
 40
15.0
 49
12.0
 74
     0
 49
-1.0
 74
     0
 49
1.0
 74
     0
 49
-1.0
 74
     0
  0
LTYPE
  5
15FCA
330
15FA8
100
AcDbSymbolTableRecord
100
AcDbLinetypeTableRecord
  2
2PL-M
 70
     0
  3

 72
    65
 73
     6
 40
17.0
 49
12.0
 74
     0
 49
-1.0
 74
     0
 49
1.0
 74
     0
 49
-1.0
 74
     0
 49
1.0
 74
     0
 49
-1.0
 74
     0
  0
LTYPE
  5
15FCB
330
15FA8
100
AcDbSymbolTableRecord
100
AcDbLinetypeTableRecord
  2
1PL-12
 70
     0
  3

 72
    65
 73
     4
 40
15.0
 49
12.0
 74
     0
 49
-1.0
 74
     0
 49
1.0
 74
     0
 49
-1.0
 74
     0
  0
LTYPE
  5
15FCC
330
15FA8
100
AcDbSymbolTableRecord
100
AcDbLinetypeTableRecord
  2
KAKURE-1
 70
     0
  3

 72
    65
 73
     2
 40
2.0
 49
1.0
 74
     0
 49
-1.0
 74
     0
  0
LTYPE
  5
15FCD
330
15FA8
100
AcDbSymbolTableRecord
100
AcDbLinetypeTableRecord
  2
2PL-12
 70
     0
  3

 72
    65
 73
     6
 40
17.0
 49
12.0
 74
     0
 49
-1.0
 74
     0
 49
1.0
 74
     0
 49
-1.0
 74
     0
 49
1.0
 74
     0
 49
-1.0
 74
     0
  0
ENDTAB
  0
TABLE
  2
LAYER
  5
15FA5
330
0
100
AcDbSymbolTable
 70
    22
  0
LAYER
  5
15FB3
330
15FA5
100
AcDbSymbolTableRecord
100
AcDbLayerTableRecord
  2
0
 70
     0
 62
     7
  6
CONTINUOUS
370
    -3
390
15FB2
  0
LAYER
  5
15FC5
330
15FA5
100
AcDbSymbolTableRecord
100
AcDbLayerTableRecord
  2
SUNPOU
 70
     0
 62
     4
  6
CONTINUOUS
370
    -3
390
15FB2
  0
LAYER
  5
15FCE
330
15FA5
100
AcDbSymbolTableRecord
100
AcDbLayerTableRecord
  2
U2
 70
     0
 62
     4
  6
CONTINUOUS
370
    -3
390
15FB2
  0
LAYER
  5
15FCF
330
15FA5
100
AcDbSymbolTableRecord
100
AcDbLayerTableRecord
  2
HIKIDASHI
 70
     0
 62
     6
  6
CONTINUOUS
370
    -3
390
15FB2
  0
LAYER
  5
15FD0
330
15FA5
100
AcDbSymbolTableRecord
100
AcDbLayerTableRecord
  2
1PL-M1
 70
     0
 62
     6
  6
1PL-M
370
    -3
390
15FB2
  0
LAYER
  5
15FD1
330
15FA5
100
AcDbSymbolTableRecord
100
AcDbLayerTableRecord
  2
1PL-L1
 70
     0
 62
     6
  6
1PL-L
370
    -3
390
15FB2
  0
LAYER
  5
15FD2
330
15FA5
100
AcDbSymbolTableRecord
100
AcDbLayerTableRecord
  2
NAME
 70
     0
 62
    20
  6
CONTINUOUS
370
    -3
390
15FB2
  0
LAYER
  5
15FD3
330
15FA5
100
AcDbSymbolTableRecord
100
AcDbLayerTableRecord
  2
FILENAME
 70
     0
 62
     7
  6
CONTINUOUS
370
    -3
390
15FB2
  0
LAYER
  5
15FD4
330
15FA5
100
AcDbSymbolTableRecord
100
AcDbLayerTableRecord
  2
KISO
 70
     0
 62
     2
  6
CONTINUOUS
370
    -3
390
15FB2
  0
LAYER
  5
15FD5
330
15FA5
100
AcDbSymbolTableRecord
100
AcDbLayerTableRecord
  2
YANE
 70
     0
 62
     1
  6
1PL-12
370
    -3
390
15FB2
  0
LAYER
  5
15FD6
330
15FA5
100
AcDbSymbolTableRecord
100
AcDbLayerTableRecord
  2
HATCH
 70
     0
 62
     1
  6
CONTINUOUS
370
    -3
390
15FB2
  0
LAYER
  5
15FD7
330
15FA5
100
AcDbSymbolTableRecord
100
AcDbLayerTableRecord
  2
DOMAKON
 70
     0
 62
     2
  6
CONTINUOUS
370
    -3
390
15FB2
  0
LAYER
  5
15FD8
330
15FA5
100
AcDbSymbolTableRecord
100
AcDbLayerTableRecord
  2
KISO-1
 70
     0
 62
     6
  6
2PL-12
370
    -3
390
15FB2
  0
LAYER
  5
15FD9
330
15FA5
100
AcDbSymbolTableRecord
100
AcDbLayerTableRecord
  2
KISO-2
 70
     0
 62
     1
  6
KAKURE-1
370
    -3
390
15FB2
  0
LAYER
  5
15FDA
330
15FA5
100
AcDbSymbolTableRecord
100
AcDbLayerTableRecord
  2
SIN
 70
     0
 62
     6
  6
1PL-12
370
    -3
390
15FB2
  0
LAYER
  5
15FDB
330
15FA5
100
AcDbSymbolTableRecord
100
AcDbLayerTableRecord
  2
CF-101
 70
     0
 62
     3
  6
CONTINUOUS
370
    -3
390
15FB2
  0
LAYER
  5
15FDC
330
15FA5
100
AcDbSymbolTableRecord
100
AcDbLayerTableRecord
  2
KIN
 70
     0
 62
     7
  6
CONTINUOUS
370
    -3
390
15FB2
  0
LAYER
  5
15FDD
330
15FA5
100
AcDbSymbolTableRecord
100
AcDbLayerTableRecord
  2
KIN-T
 70
     0
 62
     3
  6
CONTINUOUS
370
    -3
390
15FB2
  0
LAYER
  5
15FDE
330
15FA5
100
AcDbSymbolTableRecord
100
AcDbLayerTableRecord
  2
YODOROGO
 70
     0
 62
   130
  6
CONTINUOUS
370
    -3
390
15FB2
  0
LAYER
  5
15FDF
330
15FA5
100
AcDbSymbolTableRecord
100
AcDbLayerTableRecord
  2
WAKUSEN-01
 70
     0
 62
    50
  6
CONTINUOUS
370
    -3
390
15FB2
  0
LAYER
  5
15FE0
330
15FA5
100
AcDbSymbolTableRecord
100
AcDbLayerTableRecord
  2
WAKUSEN-02
 70
     0
 62
   130
  6
CONTINUOUS
370
    -3
390
15FB2
  0
LAYER
  5
15FE1
330
15FA5
100
AcDbSymbolTableRecord
100
AcDbLayerTableRecord
  2
WAKUMOJI-01
 70
     0
 62
   130
  6
CONTINUOUS
370
    -3
390
15FB2
  0
ENDTAB
  0
TABLE
  2
STYLE
  5
15FA6
330
0
100
AcDbSymbolTable
 70
     5
  0
STYLE
  5
15FB4
330
15FA6
100
AcDbSymbolTableRecord
100
AcDbTextStyleTableRecord
  2
STANDARD
 70
     0
 40
3.0
 41
1.0
 50
0.0
 71
     0
 42
0.2
  3
ROMANS
  4
EXTFONT
  0
STYLE
  5
15FC6
330
15FA6
100
AcDbSymbolTableRecord
100
AcDbTextStyleTableRecord
  2
00
 70
     0
 40
0.0
 41
0.6666666666666666
 50
0.0
 71
     0
 42
0.2
  3
ROMANS
  4
BIGFONT
  0
STYLE
  5
15FE2
330
15FA6
100
AcDbSymbolTableRecord
100
AcDbTextStyleTableRecord
  2
01
 70
     0
 40
3.0
 41
1.0
 50
0.0
 71
     0
 42
0.2
  3
ROMANS
  4
BIGFONT
  0
STYLE
  5
15FE3
330
15FA6
100
AcDbSymbolTableRecord
100
AcDbTextStyleTableRecord
  2
WAKUMOJI
 70
     0
 40
3.0
 41
1.0
 50
0.0
 71
     0
 42
3.0
  3
SIMPLEX
  4
BIGFONT
  0
STYLE
  5
15FE4
330
15FA6
100
AcDbSymbolTableRecord
100
AcDbTextStyleTableRecord
  2
FILENAME
 70
     0
 40
100.0
 41
1.0
 50
0.0
 71
     0
 42
100.0
  3
romans
  4
bigfont
  0
ENDTAB
  0
TABLE
  2
VIEW
  5
15FA9
330
0
100
AcDbSymbolTable
 70
     0
  0
ENDTAB
  0
TABLE
  2
UCS
  5
15FAA
330
0
100
AcDbSymbolTable
 70
     0
  0
ENDTAB
  0
TABLE
  2
APPID
  5
15FAC
330
0
100
AcDbSymbolTable
 70
     3
  0
APPID
  5
15FB5
330
15FAC
100
AcDbSymbolTableRecord
100
AcDbRegAppTableRecord
  2
ACAD
 70
     0
  0
APPID
  5
15FE5
330
15FAC
100
AcDbSymbolTableRecord
100
AcDbRegAppTableRecord
  2
AUTOCAD_POSTSCRIPT_FIGURE
 70
     0
  0
APPID
  5
15FE6
330
15FAC
100
AcDbSymbolTableRecord
100
AcDbRegAppTableRecord
  2
ACAD_PSEXT
 70
     0
  0
ENDTAB
  0
TABLE
  2
DIMSTYLE
  5
15FAD
330
0
100
AcDbSymbolTable
 70
     1
100
AcDbDimStyleTable
 71
     0
  0
DIMSTYLE
105
15FE7
330
15FAD
100
AcDbSymbolTableRecord
100
AcDbDimStyleTableRecord
  2
SUNPOU_図面名
 70
     0
 40
40.0
 41
0.5
 42
1.0
 43
7.0
 44
1.125
 46
3.0
 73
     0
 74
     0
 77
     1
 78
     8
140
2.25
141
0.0
147
1.125
172
     1
173
     1
176
   256
177
   256
178
   256
271
     2
272
     2
279
     2
284
     8
285
     8
286
     8
340
15FC6
  0
ENDTAB
  0
TABLE
  2
BLOCK_RECORD
  5
15FA4
330
0
100
AcDbSymbolTable
 70
    19
  0
BLOCK_RECORD
  5
15FC1
330
15FA4
100
AcDbSymbolTableRecord
100
AcDbBlockTableRecord
  2
*Model_Space
340
15FC4
  0
BLOCK_RECORD
  5
15FBD
330
15FA4
100
AcDbSymbolTableRecord
100
AcDbBlockTableRecord
  2
*Paper_Space
340
15FC0
  0
BLOCK_RECORD
  5
15FEC
330
15FA4
100
AcDbSymbolTableRecord
100
AcDbBlockTableRecord
  2
$MODEL_SPACE
340
0
  0
BLOCK_RECORD
  5
15FEF
330
15FA4
100
AcDbSymbolTableRecord
100
AcDbBlockTableRecord
  2
$PAPER_SPACE
340
0
  0
BLOCK_RECORD
  5
15FF2
330
15FA4
100
AcDbSymbolTableRecord
100
AcDbBlockTableRecord
  2
DOT
340
0
  0
BLOCK_RECORD
  5
15FFA
330
15FA4
100
AcDbSymbolTableRecord
100
AcDbBlockTableRecord
  2
*U3
340
0
  0
BLOCK_RECORD
  5
15FFE
330
15FA4
100
AcDbSymbolTableRecord
100
AcDbBlockTableRecord
  2
*U4
340
0
  0
BLOCK_RECORD
  5
16002
330
15FA4
100
AcDbSymbolTableRecord
100
AcDbBlockTableRecord
  2
*U5
340
0
  0
BLOCK_RECORD
  5
16006
330
15FA4
100
AcDbSymbolTableRecord
100
AcDbBlockTableRecord
  2
*U6
340
0
  0
BLOCK_RECORD
  5
1600A
330
15FA4
100
AcDbSymbolTableRecord
100
AcDbBlockTableRecord
  2
*U7
340
0
  0
BLOCK_RECORD
  5
1600E
330
15FA4
100
AcDbSymbolTableRecord
100
AcDbBlockTableRecord
  2
*U8
340
0
  0
BLOCK_RECORD
  5
16012
330
15FA4
100
AcDbSymbolTableRecord
100
AcDbBlockTableRecord
  2
*U9
340
0
  0
BLOCK_RECORD
  5
16016
330
15FA4
100
AcDbSymbolTableRecord
100
AcDbBlockTableRecord
  2
*U10
340
0
  0
BLOCK_RECORD
  5
1601A
330
15FA4
100
AcDbSymbolTableRecord
100
AcDbBlockTableRecord
  2
*U11
340
0
  0
BLOCK_RECORD
  5
1601E
330
15FA4
100
AcDbSymbolTableRecord
100
AcDbBlockTableRecord
  2
*U12
340
0
  0
BLOCK_RECORD
  5
16022
330
15FA4
100
AcDbSymbolTableRecord
100
AcDbBlockTableRecord
  2
*U13
340
0
  0
BLOCK_RECORD
  5
16026
330
15FA4
100
AcDbSymbolTableRecord
100
AcDbBlockTableRecord
  2
*U14
340
0
  0
BLOCK_RECORD
  5
1602A
330
15FA4
100
AcDbSymbolTableRecord
100
AcDbBlockTableRecord
  2
*U15
340
0
  0
BLOCK_RECORD
  5
1602E
330
15FA4
100
AcDbSymbolTableRecord
100
AcDbBlockTableRecord
  2
*U16
340
0
  0
BLOCK_RECORD
  5
16032
330
15FA4
100
AcDbSymbolTableRecord
100
AcDbBlockTableRecord
  2
*U17
340
0
  0
ENDTAB
  0
ENDSEC
  0
SECTION
  2
BLOCKS
  0
BLOCK
  5
15FC2
330
15FC1
100
AcDbEntity
  8
0
100
AcDbBlockBegin
  2
*Model_Space
 70
     0
 10
0.0
 20
0.0
 30
0.0
  3
*Model_Space
  1

  0
ENDBLK
  5
15FC3
330
15FC1
100
AcDbEntity
  8
0
100
AcDbBlockEnd
  0
BLOCK
  5
15FBE
330
15FBD
100
AcDbEntity
 67
     1
  8
0
100
AcDbBlockBegin
  2
*Paper_Space
 70
     0
 10
0.0
 20
0.0
 30
0.0
  3
*Paper_Space
  1

  0
ENDBLK
  5
15FBF
330
15FBD
100
AcDbEntity
 67
     1
  8
0
100
AcDbBlockEnd
  0
BLOCK
  5
15FED
330
15FEC
100
AcDbEntity
  8
0
100
AcDbBlockBegin
  2
$MODEL_SPACE
 70
     0
 10
0.0
 20
0.0
 30
0.0
  3
$MODEL_SPACE
  1

  0
ENDBLK
  5
15FEE
330
15FEC
100
AcDbEntity
  8
0
100
AcDbBlockEnd
  0
BLOCK
  5
15FF0
330
15FEF
100
AcDbEntity
  8
0
100
AcDbBlockBegin
  2
$PAPER_SPACE
 70
     0
 10
0.0
 20
0.0
 30
0.0
  3
$PAPER_SPACE
  1

  0
ENDBLK
  5
15FF1
330
15FEF
100
AcDbEntity
  8
0
100
AcDbBlockEnd
  0
BLOCK
  5
15FF3
330
15FF2
100
AcDbEntity
  8
0
100
AcDbBlockBegin
  2
DOT
 70
     0
 10
0.0
 20
0.0
 30
0.0
  3
DOT
  1

  0
LWPOLYLINE
  5
15FF4
330
15FF2
100
AcDbEntity
  8
0
  6
ByBlock
 62
     0
100
AcDbPolyline
 90
        2
 70
     1
 43
0.75
 10
-0.375
 20
0.0
 42
1.0
 10
0.375
 20
0.0
 42
1.0
  0
LINE
  5
15FF8
330
15FF2
100
AcDbEntity
  8
0
  6
ByBlock
 62
     0
100
AcDbLine
 10
-0.75
 20
0.0
 30
0.0
 11
-1.5
 21
0.0
 31
0.0
  0
ENDBLK
  5
15FF9
330
15FF2
100
AcDbEntity
  8
0
100
AcDbBlockEnd
  0
BLOCK
  5
15FFB
330
15FFA
100
AcDbEntity
  8
0
100
AcDbBlockBegin
  2
*U3
 70
     1
 10
0.0
 20
0.0
 30
0.0
  3
*U3
  1

  0
TEXT
  5
15FFC
330
15FFA
100
AcDbEntity
  8
SUNPOU
100
AcDbText
 10
5279.007034603488
 20
2502.74255611554
 30
0.0
 40
90.0
  1
600
 50
90.0
 41
0.6666666666666666
  7
00
100
AcDbText
  0
ENDBLK
  5
15FFD
330
15FFA
100
AcDbEntity
  8
0
100
AcDbBlockEnd
  0
BLOCK
  5
15FFF
330
15FFE
100
AcDbEntity
  8
0
100
AcDbBlockBegin
  2
*U4
 70
     1
 10
0.0
 20
0.0
 30
0.0
  3
*U4
  1

  0
TEXT
  5
16000
330
15FFE
100
AcDbEntity
  8
SUNPOU
100
AcDbText
 10
5069.007034603488
 20
2584.171127544109
 30
0.0
 40
90.0
  1
500
 50
90.0
 41
0.6666666666666666
  7
00
100
AcDbText
  0
ENDBLK
  5
16001
330
15FFE
100
AcDbEntity
  8
0
100
AcDbBlockEnd
  0
BLOCK
  5
16003
330
16002
100
AcDbEntity
  8
0
100
AcDbBlockBegin
  2
*U5
 70
     1
 10
0.0
 20
0.0
 30
0.0
  3
*U5
  1

  0
TEXT
  5
16004
330
16002
100
AcDbEntity
  8
SUNPOU
100
AcDbText
 10
7631.328771441364
 20
1405.89849823215
 30
0.0
 40
90.0
  1
1490
 41
0.6666666666666666
  7
00
100
AcDbText
  0
ENDBLK
  5
16005
330
16002
100
AcDbEntity
  8
0
100
AcDbBlockEnd
  0
BLOCK
  5
16007
330
16006
100
AcDbEntity
  8
0
100
AcDbBlockBegin
  2
*U6
 70
     1
 10
0.0
 20
0.0
 30
0.0
  3
*U6
  1

  0
TEXT
  5
16008
330
16006
100
AcDbEntity
  8
SUNPOU
100
AcDbText
 10
9557.766108578618
 20
2405.618908356616
 30
0.0
 40
90.0
  1
800
 50
90.0
 41
0.6666666666666666
  7
00
100
AcDbText
  0
ENDBLK
  5
16009
330
16006
100
AcDbEntity
  8
0
100
AcDbBlockEnd
  0
BLOCK
  5
1600B
330
1600A
100
AcDbEntity
  8
0
100
AcDbBlockBegin
  2
*U7
 70
     1
 10
0.0
 20
0.0
 30
0.0
  3
*U7
  1

  0
TEXT
  5
1600C
330
1600A
100
AcDbEntity
  8
SUNPOU
100
AcDbText
 10
7829.413222185358
 20
5431.279066364539
 30
0.0
 40
90.0
  1
2400 ×（ N - 2 ）
 41
0.6666666666666666
  7
00
100
AcDbText
  0
ENDBLK
  5
1600D
330
1600A
100
AcDbEntity
  8
0
100
AcDbBlockEnd
  0
BLOCK
  5
1600F
330
1600E
100
AcDbEntity
  8
0
100
AcDbBlockBegin
  2
*U8
 70
     1
 10
0.0
 20
0.0
 30
0.0
  3
*U8
  1

  0
TEXT
  5
16010
330
1600E
100
AcDbEntity
  8
SUNPOU
100
AcDbText
 10
11933.41322218535
 20
5431.279066364539
 30
0.0
 40
90.0
  1
400
 41
0.6666666666666666
  7
00
100
AcDbText
  0
ENDBLK
  5
16011
330
1600E
100
AcDbEntity
  8
0
100
AcDbBlockEnd
  0
BLOCK
  5
16013
330
16012
100
AcDbEntity
  8
0
100
AcDbBlockBegin
  2
*U9
 70
     1
 10
0.0
 20
0.0
 30
0.0
  3
*U9
  1

  0
TEXT
  5
16014
330
16012
100
AcDbEntity
  8
SUNPOU
100
AcDbText
 10
10504.84179361391
 20
5431.279066364539
 30
0.0
 40
90.0
  1
2400
 41
0.6666666666666666
  7
00
100
AcDbText
  0
ENDBLK
  5
16015
330
16012
100
AcDbEntity
  8
0
100
AcDbBlockEnd
  0
BLOCK
  5
16017
330
16016
100
AcDbEntity
  8
0
100
AcDbBlockBegin
  2
*U10
 70
     1
 10
0.0
 20
0.0
 30
0.0
  3
*U10
  1

  0
TEXT
  5
16018
330
16016
100
AcDbEntity
  8
SUNPOU
100
AcDbText
 10
5704.84179361393
 20
5431.279066364539
 30
0.0
 40
90.0
  1
2400
 41
0.6666666666666666
  7
00
100
AcDbText
  0
ENDBLK
  5
16019
330
16016
100
AcDbEntity
  8
0
100
AcDbBlockEnd
  0
BLOCK
  5
1601B
330
1601A
100
AcDbEntity
  8
0
100
AcDbBlockBegin
  2
*U11
 70
     1
 10
0.0
 20
0.0
 30
0.0
  3
*U11
  1

  0
TEXT
  5
1601C
330
1601A
100
AcDbEntity
  8
SUNPOU
100
AcDbText
 10
4333.413222185359
 20
5431.279066364539
 30
0.0
 40
90.0
  1
400
 41
0.6666666666666666
  7
00
100
AcDbText
  0
ENDBLK
  5
1601D
330
1601A
100
AcDbEntity
  8
0
100
AcDbBlockEnd
  0
BLOCK
  5
1601F
330
1601E
100
AcDbEntity
  8
0
100
AcDbBlockBegin
  2
*U12
 70
     1
 10
0.0
 20
0.0
 30
0.0
  3
*U12
  1

  0
TEXT
  5
16020
330
1601E
100
AcDbEntity
  8
SUNPOU
100
AcDbText
 10
7743.675165042498
 20
5221.279066364539
 30
0.0
 40
90.0
  1
L = 2400 × N + 800
 41
0.6667
  7
00
100
AcDbText
  0
ENDBLK
  5
16021
330
1601E
100
AcDbEntity
  8
0
100
AcDbBlockEnd
  0
BLOCK
  5
16023
330
16022
100
AcDbEntity
  8
0
100
AcDbBlockBegin
  2
*U13
 70
     1
 10
0.0
 20
0.0
 30
0.0
  3
*U13
  1

  0
TEXT
  5
16024
330
16022
100
AcDbEntity
  8
SUNPOU
100
AcDbText
 10
5279.007034603489
 20
1722.028270401254
 30
0.0
 40
90.0
  1
100
 50
90.0
 41
0.6666666666666666
  7
00
100
AcDbText
  0
ENDBLK
  5
16025
330
16022
100
AcDbEntity
  8
0
100
AcDbBlockEnd
  0
BLOCK
  5
16027
330
16026
100
AcDbEntity
  8
0
100
AcDbBlockBegin
  2
*U14
 70
     1
 10
0.0
 20
0.0
 30
0.0
  3
*U14
  1

  0
TEXT
  5
16028
330
16026
100
AcDbEntity
  8
SUNPOU
100
AcDbText
 10
3194.714767048877
 20
1695.898498232148
 30
0.0
 40
90.0
  1
290
 41
0.6666666666666666
  7
00
100
AcDbText
  0
ENDBLK
  5
16029
330
16026
100
AcDbEntity
  8
0
100
AcDbBlockEnd
  0
BLOCK
  5
1602B
330
1602A
100
AcDbEntity
  8
0
100
AcDbBlockBegin
  2
*U15
 70
     1
 10
0.0
 20
0.0
 30
0.0
  3
*U15
  1

  0
TEXT
  5
1602C
330
1602A
100
AcDbEntity
  8
SUNPOU
100
AcDbText
 10
3905.286195620303
 20
1695.898498232148
 30
0.0
 40
90.0
  1
600
 41
0.6666666666666666
  7
00
100
AcDbText
  0
ENDBLK
  5
1602D
330
1602A
100
AcDbEntity
  8
0
100
AcDbBlockEnd
  0
BLOCK
  5
1602F
330
1602E
100
AcDbEntity
  8
0
100
AcDbBlockBegin
  2
*U16
 70
     1
 10
0.0
 20
0.0
 30
0.0
  3
*U16
  1

  0
TEXT
  5
16030
330
1602E
100
AcDbEntity
  8
SUNPOU
100
AcDbText
 10
2481.286195620306
 20
1695.898498232148
 30
0.0
 40
90.0
  1
600
 41
0.6666666666666666
  7
00
100
AcDbText
  0
ENDBLK
  5
16031
330
1602E
100
AcDbEntity
  8
0
100
AcDbBlockEnd
  0
BLOCK
  5
16033
330
16032
100
AcDbEntity
  8
0
100
AcDbBlockBegin
  2
*U17
 70
     1
 10
0.0
 20
0.0
 30
0.0
  3
*U17
  1

  0
TEXT
  5
16034
330
16032
100
AcDbEntity
  8
SUNPOU
100
AcDbText
 10
3161.857624191732
 20
1485.898498232148
 30
0.0
 40
90.0
  1
1490
 41
0.6666666666666666
  7
00
100
AcDbText
  0
ENDBLK
  5
16035
330
16032
100
AcDbEntity
  8
0
100
AcDbBlockEnd
  0
ENDSEC
  0
SECTION
  2
ENTITIES
  0
TEXT
  5
16036
330
15FC1
100
AcDbEntity
  8
NAME
100
AcDbText
 10
12303.32857318295
 20
1055.0
 30
0.0
 40
120.0
  1
Y O C F
 41
0.6666666666666666
  7
00
100
AcDbText
  0
TEXT
  5
16037
330
15FC1
100
AcDbEntity
  8
NAME
100
AcDbText
 10
11227.73587134625
 20
1055.0
 30
0.0
 40
120.0
  1
ヨド自転車置場　　　  型
  7
01
100
AcDbText
  0
TEXT
  5
16038
330
15FC1
100
AcDbEntity
  8
NAME
100
AcDbText
 10
11656.07508082364
 20
875.0
 30
0.0
 40
120.0
  1
背合せタイプ
  7
01
 72
     4
 11
12072.07508082364
 21
935.0
 31
0.0
100
AcDbText
  0
LINE
  5
1605B
330
15FC1
100
AcDbEntity
  8
KIN
100
AcDbLine
 10
11819.12750789964
 20
8301.279066364539
 30
0.0
 11
11819.12750789964
 21
7661.279066364541
 31
0.0
  0
LINE
  5
1605C
330
15FC1
100
AcDbEntity
  8
SIN
100
AcDbLine
 10
4738.677507899644
 20
7836.279066364538
 30
0.0
 11
4499.577507899645
 21
7836.279066364538
 31
0.0
  0
LINE
  5
1605D
330
15FC1
100
AcDbEntity
  8
SIN
100
AcDbLine
 10
4738.677507899644
 20
8126.279066364539
 30
0.0
 11
4499.577507899645
 21
8126.279066364539
 31
0.0
  0
CIRCLE
  5
1605E
330
15FC1
100
AcDbEntity
  8
KISO-2
100
AcDbCircle
 10
4619.127507899643
 20
8126.279066364539
 30
0.0
 40
44.55
  0
CIRCLE
  5
1605F
330
15FC1
100
AcDbEntity
  8
KISO-2
100
AcDbCircle
 10
4619.127507899643
 20
7836.279066364538
 30
0.0
 40
44.55
  0
CIRCLE
  5
16060
330
15FC1
100
AcDbEntity
  8
KISO-2
100
AcDbCircle
 10
7019.127507899644
 20
8126.279066364539
 30
0.0
 40
44.55
  0
LINE
  5
16061
330
15FC1
100
AcDbEntity
  8
SIN
100
AcDbLine
 10
7138.677507899642
 20
8126.279066364539
 30
0.0
 11
6899.577507899644
 21
8126.279066364539
 31
0.0
  0
LINE
  5
16062
330
15FC1
100
AcDbEntity
  8
SIN
100
AcDbLine
 10
7138.677507899642
 20
7836.279066364538
 30
0.0
 11
6899.577507899644
 21
7836.279066364538
 31
0.0
  0
CIRCLE
  5
16063
330
15FC1
100
AcDbEntity
  8
KISO-2
100
AcDbCircle
 10
7019.127507899644
 20
7836.279066364538
 30
0.0
 40
44.55
  0
LINE
  5
16064
330
15FC1
100
AcDbEntity
  8
SIN
100
AcDbLine
 10
9538.677507899643
 20
7836.279066364538
 30
0.0
 11
9299.577507899643
 21
7836.279066364538
 31
0.0
  0
LINE
  5
16065
330
15FC1
100
AcDbEntity
  8
SIN
100
AcDbLine
 10
9538.677507899643
 20
8126.279066364539
 30
0.0
 11
9299.577507899643
 21
8126.279066364539
 31
0.0
  0
CIRCLE
  5
16066
330
15FC1
100
AcDbEntity
  8
KISO-2
100
AcDbCircle
 10
9419.127507899643
 20
8126.279066364539
 30
0.0
 40
44.55
  0
CIRCLE
  5
16067
330
15FC1
100
AcDbEntity
  8
KISO-2
100
AcDbCircle
 10
9419.127507899643
 20
7836.279066364538
 30
0.0
 40
44.55
  0
TEXT
  5
16068
330
15FC1
100
AcDbEntity
  8
HIKIDASHI
100
AcDbText
 10
8259.599034404274
 20
4680.01570763025
 30
0.0
 40
135.0
  1
N
 41
0.6666666666666666
  7
00
 72
     4
 11
8306.741891547131
 21
4747.51570763025
 31
0.0
100
AcDbText
  0
TEXT
  5
16069
330
15FC1
100
AcDbEntity
  8
HIKIDASHI
100
AcDbText
 10
7156.58988462631
 20
4882.515707630251
 30
0.0
 40
135.0
  1
基 礎 平 面 図　 縮尺
  7
01
 72
     4
 11
7989.089884626308
 21
4950.01570763025
 31
0.0
100
AcDbText
  0
TEXT
  5
1606A
330
15FC1
100
AcDbEntity
  8
HIKIDASHI
100
AcDbText
 10
8058.685640680186
 20
4680.01570763025
 30
0.0
 40
135.0
  1
（  ：スパン数）
  7
01
 72
     4
 11
8684.185640680187
 21
4747.51570763025
 31
0.0
100
AcDbText
  0
LINE
  5
1606B
330
15FC1
100
AcDbEntity
  8
SUNPOU
100
AcDbLine
 10
3769.127507899644
 20
7821.279066364538
 30
0.0
 11
3769.127507899644
 21
5851.279066364538
 31
0.0
  0
LINE
  5
1606C
330
15FC1
100
AcDbEntity
  8
U2
100
AcDbLine
 10
8069.127507899645
 20
10201.27906636453
 30
0.0
 11
8069.127507899645
 21
5761.279066364538
 31
0.0
  0
LINE
  5
1606D
330
15FC1
100
AcDbEntity
  8
U2
100
AcDbLine
 10
8369.127507899648
 20
10201.27906636453
 30
0.0
 11
8369.127507899648
 21
5761.279066364538
 31
0.0
  0
LINE
  5
1606E
330
15FC1
100
AcDbEntity
  8
SUNPOU
100
AcDbLine
 10
4189.127507899644
 20
5836.279066364538
 30
0.0
 11
3739.127507899644
 21
5836.279066364538
 31
0.0
  0
TEXT
  5
1606F
330
15FC1
100
AcDbEntity
  8
HIKIDASHI
100
AcDbText
 10
5294.907558109866
 20
5701.279066364532
 30
0.0
 40
90.0
  1
（土間コン前面位置）
  7
01
100
AcDbText
  0
TEXT
  5
16070
330
15FC1
100
AcDbEntity
  8
HIKIDASHI
100
AcDbText
 10
5403.553647771403
 20
5992.729793983198
 30
0.0
 40
90.0
  1
（鼻隠し外面）
  7
01
100
AcDbText
  0
LINE
  5
16071
330
15FC1
100
AcDbEntity
  8
SUNPOU
100
AcDbLine
 10
4469.577507899645
 20
7836.279066364538
 30
0.0
 11
3739.127507899644
 21
7836.279066364538
 31
0.0
  0
LINE
  5
16072
330
15FC1
100
AcDbEntity
  8
SUNPOU
100
AcDbLine
 10
4469.577507899645
 20
7836.279066364538
 30
0.0
 11
3739.127507899644
 21
7836.279066364538
 31
0.0
  0
LINE
  5
16073
330
15FC1
100
AcDbEntity
  8
SUNPOU
100
AcDbLine
 10
4469.577507899645
 20
8126.279066364539
 30
0.0
 11
3739.127507899644
 21
8126.279066364539
 31
0.0
  0
LINE
  5
16074
330
15FC1
100
AcDbEntity
  8
SUNPOU
100
AcDbLine
 10
4469.577507899645
 20
8126.279066364539
 30
0.0
 11
3739.127507899644
 21
8126.279066364539
 31
0.0
  0
TEXT
  5
16075
330
15FC1
100
AcDbEntity
  8
SUNPOU
100
AcDbText
 10
3724.127507899643
 20
9011.993352078825
 30
0.0
 40
90.0
  1
2000
 50
90.0
 41
0.6666666666666666
  7
00
 72
     1
 11
3679.127507899643
 21
9126.279066364539
 31
0.0
100
AcDbText
 73
     2
  0
LINE
  5
16076
330
15FC1
100
AcDbEntity
  8
SUNPOU
100
AcDbLine
 10
3769.127507899644
 20
10111.27906636454
 30
0.0
 11
3769.127507899644
 21
8141.279066364537
 31
0.0
  0
TEXT
  5
16077
330
15FC1
100
AcDbEntity
  8
HIKIDASHI
100
AcDbText
 10
4174.12750789964
 20
8838.462240836198
 30
0.0
 40
90.0
  1
（土間コン側面位置）
 50
90.0
  7
01
100
AcDbText
  0
TEXT
  5
16078
330
15FC1
100
AcDbEntity
  8
SUNPOU
100
AcDbText
 10
3724.127507899643
 20
6721.993352078823
 30
0.0
 40
90.0
  1
2000
 50
90.0
 41
0.6666666666666666
  7
00
 72
     1
 11
3679.127507899643
 21
6836.279066364538
 31
0.0
100
AcDbText
 73
     2
  0
TEXT
  5
16079
330
15FC1
100
AcDbEntity
  8
SUNPOU
100
AcDbText
 10
3724.127507899643
 20
7895.564780650253
 30
0.0
 40
90.0
  1
290
 50
90.0
 41
0.6666666666666666
  7
00
 72
     1
 11
3679.127507899643
 21
7981.279066364539
 31
0.0
100
AcDbText
 73
     2
  0
LINE
  5
1607A
330
15FC1
100
AcDbEntity
  8
SUNPOU
100
AcDbLine
 10
3769.127507899644
 20
8111.279066364541
 30
0.0
 11
3769.127507899644
 21
7851.279066364539
 31
0.0
  0
LINE
  5
1607B
330
15FC1
100
AcDbEntity
  8
SUNPOU
100
AcDbLine
 10
4189.127507899644
 20
10126.27906636453
 30
0.0
 11
3739.127507899644
 21
10126.27906636453
 31
0.0
  0
TEXT
  5
1607C
330
15FC1
100
AcDbEntity
  8
HIKIDASHI
100
AcDbText
 10
4532.32685484841
 20
8947.108330497737
 30
0.0
 40
90.0
  1
（けらば外面）
 50
90.0
  7
01
100
AcDbText
  0
LINE
  5
1607D
330
15FC1
100
AcDbEntity
  8
SIN
100
AcDbLine
 10
4619.12750789964
 20
8793.279066364538
 30
0.0
 11
4619.127507899643
 21
7169.27906636454
 31
0.0
  0
LINE
  5
1607E
330
15FC1
100
AcDbEntity
  8
SIN
100
AcDbLine
 10
7019.127507899643
 20
8793.279066364538
 30
0.0
 11
7019.127507899644
 21
7169.27906636454
 31
0.0
  0
TEXT
  5
1607F
330
15FC1
100
AcDbEntity
  8
HIKIDASHI
100
AcDbText
 10
5294.907558109866
 20
10171.27906636454
 30
0.0
 40
90.0
  1
（土間コン後面位置）
  7
01
100
AcDbText
  0
TEXT
  5
16080
330
15FC1
100
AcDbEntity
  8
HIKIDASHI
100
AcDbText
 10
5403.553647771403
 20
9879.828338745877
 30
0.0
 40
90.0
  1
（鼻隠し外面）
  7
01
100
AcDbText
  0
TEXT
  5
16081
330
15FC1
100
AcDbEntity
  8
HIKIDASHI
100
AcDbText
 10
8894.580645725838
 20
4892.158564773107
 30
0.0
 40
135.0
  1
=
 41
0.6666666666666666
  7
00
 72
     4
 11
8950.294931440124
 21
4950.01570763025
 31
0.0
100
AcDbText
  0
LINE
  5
16082
330
15FC1
100
AcDbEntity
  8
HIKIDASHI
100
AcDbLine
 10
9212.819617758427
 20
5017.51570763025
 30
0.0
 11
9077.81961775843
 21
4882.515707630251
 31
0.0
  0
TEXT
  5
16083
330
15FC1
100
AcDbEntity
  8
HIKIDASHI
100
AcDbText
 10
9080.229713783124
 20
4949.929564181453
 30
0.0
 40
67.5
  1
1
 41
0.6666666666666666
  7
00
 72
     4
 11
9098.44399949741
 21
4983.679564181453
 31
0.0
100
AcDbText
  0
TEXT
  5
16084
330
15FC1
100
AcDbEntity
  8
HIKIDASHI
100
AcDbText
 10
9163.971680921944
 20
4882.515707630251
 30
0.0
 40
67.5
  1
40
 41
0.6666666666666666
  7
00
 72
     4
 11
9206.828823779089
 21
4916.26570763025
 31
0.0
100
AcDbText
  0
TEXT
  5
16085
330
15FC1
100
AcDbEntity
  8
HIKIDASHI
100
AcDbText
 10
11995.92816095085
 20
8947.108330497737
 30
0.0
 40
90.0
  1
（けらば外面）
 50
90.0
  7
01
100
AcDbText
  0
LINE
  5
16086
330
15FC1
100
AcDbEntity
  8
SIN
100
AcDbLine
 10
9419.127507899641
 20
8793.279066364538
 30
0.0
 11
9419.127507899643
 21
7169.27906636454
 31
0.0
  0
LINE
  5
16087
330
15FC1
100
AcDbEntity
  8
HIKIDASHI
100
AcDbLine
 10
11904.67355367812
 20
8022.425435943331
 30
0.0
 11
12271.36353963538
 21
7577.260660246182
 31
0.0
  0
LINE
  5
16088
330
15FC1
100
AcDbEntity
  8
SUNPOU
100
AcDbLine
 10
12669.12750789964
 20
7251.279066364539
 30
0.0
 11
12669.12750789964
 21
7821.279066364538
 31
0.0
  0
LINE
  5
16089
330
15FC1
100
AcDbEntity
  8
SUNPOU
100
AcDbLine
 10
12879.12750789963
 20
7251.279066364539
 30
0.0
 11
12879.12750789963
 21
8711.279066364539
 31
0.0
  0
LINE
  5
1608A
330
15FC1
100
AcDbEntity
  8
KISO-1
100
AcDbLine
 10
12219.12750789962
 20
8726.279066364538
 30
0.0
 11
12219.12750789964
 21
7236.279066364541
 31
0.0
  0
CIRCLE
  5
1608B
330
15FC1
100
AcDbEntity
  8
KISO-2
100
AcDbCircle
 10
11819.12750789964
 20
7836.279066364538
 30
0.0
 40
44.55
  0
LINE
  5
1608C
330
15FC1
100
AcDbEntity
  8
KISO-1
100
AcDbLine
 10
11419.12750789964
 20
7236.279066364541
 30
0.0
 11
11419.12750789964
 21
8726.279066364538
 31
0.0
  0
LINE
  5
1608D
330
15FC1
100
AcDbEntity
  8
SIN
100
AcDbLine
 10
11819.12750789964
 20
8793.279066364538
 30
0.0
 11
11819.12750789964
 21
7169.27906636454
 31
0.0
  0
LINE
  5
1608E
330
15FC1
100
AcDbEntity
  8
SUNPOU
100
AcDbLine
 10
12249.12750789963
 20
7236.279066364541
 30
0.0
 11
12909.12750789964
 21
7236.279066364541
 31
0.0
  0
TEXT
  5
1608F
330
15FC1
100
AcDbEntity
  8
HIKIDASHI
100
AcDbText
 10
12293.04864788343
 20
7622.260660246183
 30
0.0
 40
90.0
  1
柱
  7
01
100
AcDbText
  0
LINE
  5
16090
330
15FC1
100
AcDbEntity
  8
HIKIDASHI
100
AcDbLine
 10
12387.04864788344
 20
7577.260660246182
 30
0.0
 11
12271.36353963538
 21
7577.260660246182
 31
0.0
  0
LINE
  5
16091
330
15FC1
100
AcDbEntity
  8
SUNPOU
100
AcDbLine
 10
12699.12750789963
 20
7236.279066364541
 30
0.0
 11
12699.12750789963
 21
7236.279066364541
 31
0.0
  0
TEXT
  5
16092
330
15FC1
100
AcDbEntity
  8
SUNPOU
100
AcDbText
 10
12624.12750789962
 20
7449.136209221684
 30
0.0
 40
90.0
  1
600
 50
90.0
 41
0.6666666666666666
  7
00
 72
     1
 11
12579.12750789963
 21
7536.279066364541
 31
0.0
100
AcDbText
 73
     2
  0
LINE
  5
16093
330
15FC1
100
AcDbEntity
  8
SUNPOU
100
AcDbLine
 10
11419.12750789964
 20
7201.702201810381
 30
0.0
 11
11419.12750789964
 21
6941.27906636454
 31
0.0
  0
TEXT
  5
16094
330
15FC1
100
AcDbEntity
  8
SUNPOU
100
AcDbText
 10
11733.41322218535
 20
7031.279066364544
 30
0.0
 40
90.0
  1
800
 41
0.6666666666666666
  7
00
 72
     1
 11
11819.12750789964
 21
7076.279066364543
 31
0.0
100
AcDbText
 73
     2
  0
LINE
  5
16095
330
15FC1
100
AcDbEntity
  8
SUNPOU
100
AcDbLine
 10
12204.12750789964
 20
6986.27906636454
 30
0.0
 11
11434.12750789962
 21
6986.27906636454
 31
0.0
  0
LINE
  5
16096
330
15FC1
100
AcDbEntity
  8
KISO-1
100
AcDbLine
 10
12219.12750789962
 20
7236.279066364541
 30
0.0
 11
11419.12750789964
 21
7236.279066364541
 31
0.0
  0
LINE
  5
16097
330
15FC1
100
AcDbEntity
  8
HIKIDASHI
100
AcDbLine
 10
11936.88430747624
 20
7771.317749469698
 30
0.0
 11
12271.36353963538
 21
7577.260660246183
 31
0.0
  0
LINE
  5
16098
330
15FC1
100
AcDbEntity
  8
SUNPOU
100
AcDbLine
 10
11968.67750789964
 20
8126.279066364539
 30
0.0
 11
12699.12750789963
 21
8126.279066364539
 31
0.0
  0
LINE
  5
16099
330
15FC1
100
AcDbEntity
  8
SUNPOU
100
AcDbLine
 10
11968.67750789964
 20
8126.279066364539
 30
0.0
 11
12699.12750789963
 21
8126.279066364539
 31
0.0
  0
LINE
  5
1609A
330
15FC1
100
AcDbEntity
  8
SUNPOU
100
AcDbLine
 10
11968.67750789964
 20
7836.279066364538
 30
0.0
 11
12699.12750789963
 21
7836.279066364538
 31
0.0
  0
LINE
  5
1609B
330
15FC1
100
AcDbEntity
  8
SUNPOU
100
AcDbLine
 10
11968.67750789964
 20
7836.279066364538
 30
0.0
 11
12699.12750789963
 21
7836.279066364538
 31
0.0
  0
LINE
  5
1609C
330
15FC1
100
AcDbEntity
  8
SUNPOU
100
AcDbLine
 10
12249.12750789965
 20
8726.279066364538
 30
0.0
 11
12909.12750789964
 21
8726.279066364538
 31
0.0
  0
LINE
  5
1609D
330
15FC1
100
AcDbEntity
  8
SUNPOU
100
AcDbLine
 10
12669.12750789964
 20
8141.279066364537
 30
0.0
 11
12669.12750789964
 21
8711.279066364539
 31
0.0
  0
TEXT
  5
1609E
330
15FC1
100
AcDbEntity
  8
SUNPOU
100
AcDbText
 10
12834.12750789964
 20
7862.707637793111
 30
0.0
 40
90.0
  1
1490
 50
90.0
 41
0.6666666666666666
  7
00
 72
     1
 11
12789.12750789964
 21
7981.279066364539
 31
0.0
100
AcDbText
 73
     2
  0
TEXT
  5
1609F
330
15FC1
100
AcDbEntity
  8
SUNPOU
100
AcDbText
 10
12624.12750789962
 20
7895.564780650253
 30
0.0
 40
90.0
  1
290
 50
90.0
 41
0.6666666666666666
  7
00
 72
     1
 11
12579.12750789963
 21
7981.279066364539
 31
0.0
100
AcDbText
 73
     2
  0
LINE
  5
160A0
330
15FC1
100
AcDbEntity
  8
SUNPOU
100
AcDbLine
 10
12669.12750789964
 20
7851.279066364539
 30
0.0
 11
12669.12750789964
 21
8111.279066364541
 31
0.0
  0
TEXT
  5
160A1
330
15FC1
100
AcDbEntity
  8
SUNPOU
100
AcDbText
 10
12624.12750789962
 20
8339.136209221683
 30
0.0
 40
90.0
  1
600
 50
90.0
 41
0.6666666666666666
  7
00
 72
     1
 11
12579.12750789963
 21
8426.279066364539
 31
0.0
100
AcDbText
 73
     2
  0
LINE
  5
160A2
330
15FC1
100
AcDbEntity
  8
SUNPOU
100
AcDbLine
 10
12699.12750789963
 20
8726.279066364538
 30
0.0
 11
12699.12750789963
 21
8726.279066364538
 31
0.0
  0
LINE
  5
160A3
330
15FC1
100
AcDbEntity
  8
SIN
100
AcDbLine
 10
11938.67750789963
 20
8126.279066364539
 30
0.0
 11
11699.57750789964
 21
8126.279066364539
 31
0.0
  0
LINE
  5
160A4
330
15FC1
100
AcDbEntity
  8
SIN
100
AcDbLine
 10
11938.67750789963
 20
7836.279066364538
 30
0.0
 11
11699.57750789964
 21
7836.279066364538
 31
0.0
  0
CIRCLE
  5
160A5
330
15FC1
100
AcDbEntity
  8
KISO-2
100
AcDbCircle
 10
11819.12750789964
 20
8126.279066364539
 30
0.0
 40
44.55
  0
LINE
  5
160A6
330
15FC1
100
AcDbEntity
  8
KISO-1
100
AcDbLine
 10
11419.12750789964
 20
8726.279066364538
 30
0.0
 11
12219.12750789962
 21
8726.279066364538
 31
0.0
  0
TEXT
  5
160A7
330
15FC1
100
AcDbEntity
  8
HIKIDASHI
100
AcDbText
 10
12354.12750789965
 20
8838.462240836198
 30
0.0
 40
90.0
  1
（土間コン側面位置）
 50
90.0
  7
01
100
AcDbText
  0
LINE
  5
160A8
330
15FC1
100
AcDbEntity
  8
SUNPOU
100
AcDbLine
 10
9209.127507899644
 20
8976.279066364538
 30
0.0
 11
9419.127507899643
 21
8976.279066364538
 31
0.0
  0
TEXT
  5
160A9
330
15FC1
100
AcDbEntity
  8
SUNPOU
100
AcDbText
 10
8993.234650756784
 20
8922.707637793109
 30
0.0
 40
90.0
  1
A'
 41
0.6700000000000001
  7
00
 72
     4
 11
9029.127507899641
 21
8976.279066364538
 31
0.0
100
AcDbText
  0
LINE
  5
160AA
330
15FC1
100
AcDbEntity
  8
SUNPOU
100
AcDbLine
 10
9419.127507899643
 20
8976.279066364538
 30
0.0
 11
9419.127507899643
 21
8826.27906636454
 31
0.0
  0
TEXT
  5
160AB
330
15FC1
100
AcDbEntity
  8
SUNPOU
100
AcDbText
 10
9003.284650756787
 20
6941.27906636454
 30
0.0
 40
90.0
  1
A
 41
0.6700000000000001
  7
00
 72
     4
 11
9029.127507899644
 21
6986.27906636454
 31
0.0
100
AcDbText
  0
LINE
  5
160AC
330
15FC1
100
AcDbEntity
  8
SUNPOU
100
AcDbLine
 10
9419.127507899643
 20
6986.27906636454
 30
0.0
 11
9419.127507899643
 21
7136.27906636454
 31
0.0
  0
LINE
  5
160AD
330
15FC1
100
AcDbEntity
  8
SUNPOU
100
AcDbLine
 10
9209.127507899644
 20
6986.27906636454
 30
0.0
 11
9419.127507899643
 21
6986.27906636454
 31
0.0
  0
LINE
  5
160AE
330
15FC1
100
AcDbEntity
  8
SUNPOU
100
AcDbLine
 10
3769.127507899644
 20
5847.52906636454
 30
0.0
 11
3769.127507899644
 21
5858.779066364538
 31
0.0
  0
LINE
  5
160AF
330
15FC1
100
AcDbEntity
  8
SUNPOU
100
AcDbLine
 10
3769.127507899644
 20
8137.529066364539
 30
0.0
 11
3769.127507899644
 21
8148.779066364538
 31
0.0
  0
LINE
  5
160B0
330
15FC1
100
AcDbEntity
  8
SUNPOU
100
AcDbLine
 10
3769.127507899644
 20
7847.529066364541
 30
0.0
 11
3769.127507899644
 21
7858.779066364538
 31
0.0
  0
LINE
  5
160B1
330
15FC1
100
AcDbEntity
  8
SUNPOU
100
AcDbLine
 10
3769.127507899644
 20
7825.029066364539
 30
0.0
 11
3769.127507899644
 21
7813.779066364539
 31
0.0
  0
LINE
  5
160B2
330
15FC1
100
AcDbEntity
  8
SUNPOU
100
AcDbLine
 10
3769.127507899644
 20
8115.02906636454
 30
0.0
 11
3769.127507899644
 21
8103.779066364538
 31
0.0
  0
LINE
  5
160B3
330
15FC1
100
AcDbEntity
  8
SUNPOU
100
AcDbLine
 10
3769.127507899644
 20
10115.02906636454
 30
0.0
 11
3769.127507899644
 21
10103.77906636453
 31
0.0
  0
LINE
  5
160B4
330
15FC1
100
AcDbEntity
  8
SUNPOU
100
AcDbLine
 10
9209.127507899644
 20
6971.279066364537
 30
0.0
 11
9119.127507899644
 21
6986.27906636454
 31
0.0
  0
LINE
  5
160B5
330
15FC1
100
AcDbEntity
  8
SUNPOU
100
AcDbLine
 10
9119.127507899644
 20
6986.27906636454
 30
0.0
 11
9209.127507899644
 21
7001.279066364539
 31
0.0
  0
SOLID
  5
160B6
330
15FC1
100
AcDbEntity
  8
SUNPOU
100
AcDbTrace
 10
9209.127507899644
 20
6971.279066364537
 30
0.0
 11
9209.127507899644
 21
7001.279066364539
 31
0.0
 12
9119.127507899644
 22
6986.27906636454
 32
0.0
 13
9119.127507899644
 23
6986.27906636454
 33
0.0
  0
LINE
  5
160B7
330
15FC1
100
AcDbEntity
  8
SUNPOU
100
AcDbLine
 10
9209.127507899644
 20
7001.279066364539
 30
0.0
 11
9209.127507899644
 21
6971.279066364537
 31
0.0
  0
LINE
  5
160B8
330
15FC1
100
AcDbEntity
  8
SUNPOU
100
AcDbLine
 10
9209.127507899644
 20
8991.279066364539
 30
0.0
 11
9119.127507899641
 21
8976.279066364538
 31
0.0
  0
LINE
  5
160B9
330
15FC1
100
AcDbEntity
  8
SUNPOU
100
AcDbLine
 10
9119.127507899641
 20
8976.279066364538
 30
0.0
 11
9209.127507899644
 21
8961.279066364539
 31
0.0
  0
SOLID
  5
160BA
330
15FC1
100
AcDbEntity
  8
SUNPOU
100
AcDbTrace
 10
9209.127507899644
 20
8991.279066364539
 30
0.0
 11
9209.127507899644
 21
8961.279066364539
 31
0.0
 12
9119.127507899641
 22
8976.279066364538
 32
0.0
 13
9119.127507899641
 23
8976.279066364538
 33
0.0
  0
LINE
  5
160BB
330
15FC1
100
AcDbEntity
  8
SUNPOU
100
AcDbLine
 10
9209.127507899644
 20
8961.279066364539
 30
0.0
 11
9209.127507899644
 21
8991.279066364539
 31
0.0
  0
LINE
  5
160BC
330
15FC1
100
AcDbEntity
  8
SUNPOU
100
AcDbLine
 10
11430.37750789964
 20
6986.27906636454
 30
0.0
 11
11441.62750789962
 21
6986.27906636454
 31
0.0
  0
LINE
  5
160BD
330
15FC1
100
AcDbEntity
  8
SUNPOU
100
AcDbLine
 10
12207.87750789964
 20
6986.27906636454
 30
0.0
 11
12196.62750789964
 21
6986.27906636454
 31
0.0
  0
LINE
  5
160BE
330
15FC1
100
AcDbEntity
  8
SUNPOU
100
AcDbLine
 10
12669.12750789964
 20
7247.529066364538
 30
0.0
 11
12669.12750789964
 21
7258.779066364538
 31
0.0
  0
LINE
  5
160BF
330
15FC1
100
AcDbEntity
  8
SUNPOU
100
AcDbLine
 10
12879.12750789963
 20
7247.529066364538
 30
0.0
 11
12879.12750789963
 21
7258.779066364538
 31
0.0
  0
LINE
  5
160C0
330
15FC1
100
AcDbEntity
  8
SUNPOU
100
AcDbLine
 10
12669.12750789964
 20
8137.529066364539
 30
0.0
 11
12669.12750789964
 21
8148.779066364538
 31
0.0
  0
LINE
  5
160C1
330
15FC1
100
AcDbEntity
  8
SUNPOU
100
AcDbLine
 10
12669.12750789964
 20
7825.029066364539
 30
0.0
 11
12669.12750789964
 21
7813.779066364539
 31
0.0
  0
LINE
  5
160C2
330
15FC1
100
AcDbEntity
  8
SUNPOU
100
AcDbLine
 10
12669.12750789964
 20
7847.529066364541
 30
0.0
 11
12669.12750789964
 21
7858.779066364538
 31
0.0
  0
LINE
  5
160C3
330
15FC1
100
AcDbEntity
  8
SUNPOU
100
AcDbLine
 10
12669.12750789964
 20
8115.02906636454
 30
0.0
 11
12669.12750789964
 21
8103.779066364538
 31
0.0
  0
LINE
  5
160C4
330
15FC1
100
AcDbEntity
  8
SUNPOU
100
AcDbLine
 10
12669.12750789964
 20
8715.02906636454
 30
0.0
 11
12669.12750789964
 21
8703.779066364539
 31
0.0
  0
LINE
  5
160C5
330
15FC1
100
AcDbEntity
  8
SUNPOU
100
AcDbLine
 10
12879.12750789963
 20
8715.02906636454
 30
0.0
 11
12879.12750789963
 21
8703.779066364539
 31
0.0
  0
LINE
  5
160C6
330
15FC1
100
AcDbEntity
  8
KIN
100
AcDbLine
 10
2776.429052763162
 20
2429.885413258392
 30
0.0
 11
2977.149052763162
 21
2429.885413258392
 31
0.0
  0
LINE
  5
160C7
330
15FC1
100
AcDbEntity
  8
KIN
100
AcDbLine
 10
3784.429052763191
 20
2429.885413258392
 30
0.0
 11
3583.709052763194
 21
2429.885413258392
 31
0.0
  0
LINE
  5
160C8
330
15FC1
100
AcDbEntity
  8
KIN
100
AcDbLine
 10
3441.149052763162
 20
2429.885413258392
 30
0.0
 11
3328.429052763161
 21
2429.885413258392
 31
0.0
  0
LINE
  5
160C9
330
15FC1
100
AcDbEntity
  8
KIN
100
AcDbLine
 10
3119.709052763161
 20
2429.885413258392
 30
0.0
 11
3232.42905276319
 21
2429.885413258392
 31
0.0
  0
CIRCLE
  5
160CA
330
15FC1
100
AcDbEntity
  8
KIN
100
AcDbCircle
 10
2200.429052763164
 20
2200.285413258393
 30
0.0
 40
10.39999999999998
  0
LINE
  5
160CB
330
15FC1
100
AcDbEntity
  8
HATCH
100
AcDbLine
 10
4167.744651721142
 20
2144.095558041985
 30
0.0
 11
4133.534506937553
 21
2109.885413258396
 31
0.0
  0
LINE
  5
160CC
330
15FC1
100
AcDbEntity
  8
HATCH
100
AcDbLine
 10
4072.709500329676
 20
2144.095558041985
 30
0.0
 11
4038.499355546088
 21
2109.885413258397
 31
0.0
  0
LINE
  5
160CD
330
15FC1
100
AcDbEntity
  8
HATCH
100
AcDbLine
 10
4120.227076025414
 20
2144.095558041985
 30
0.0
 11
4086.016931241824
 21
2109.885413258396
 31
0.0
  0
LINE
  5
160CE
330
15FC1
100
AcDbEntity
  8
KIN-T
100
AcDbLine
 10
4113.14905276316
 20
2389.885413258391
 30
0.0
 11
3880.42905276316
 21
2389.885413258391
 31
0.0
  0
LINE
  5
160CF
330
15FC1
100
AcDbEntity
  8
KIN-T
100
AcDbLine
 10
2447.709052763158
 20
2389.885413258391
 30
0.0
 11
2680.42905276316
 21
2389.885413258391
 31
0.0
  0
CIRCLE
  5
160D0
330
15FC1
100
AcDbEntity
  8
KIN
100
AcDbCircle
 10
3839.629052763159
 20
2973.885413258391
 30
0.0
 40
7.199999999999987
  0
CIRCLE
  5
160D1
330
15FC1
100
AcDbEntity
  8
KIN
100
AcDbCircle
 10
3839.629052763159
 20
2653.885413258391
 30
0.0
 40
7.199999999999987
  0
CIRCLE
  5
160D2
330
15FC1
100
AcDbEntity
  8
KIN
100
AcDbCircle
 10
3839.629052763159
 20
2813.88541325839
 30
0.0
 40
7.199999999999987
  0
ARC
  5
160D3
330
15FC1
100
AcDbEntity
  8
KIN-T
100
AcDbCircle
 10
3880.42905276316
 20
2437.885413258392
 30
0.0
 40
47.99999999999992
100
AcDbArc
 50
180.0
 51
270.0
  0
CIRCLE
  5
160D4
330
15FC1
100
AcDbEntity
  8
KIN
100
AcDbCircle
 10
3839.629052763159
 20
2493.885413258391
 30
0.0
 40
7.199999999999987
  0
LINE
  5
160D5
330
15FC1
100
AcDbEntity
  8
KIN-T
100
AcDbLine
 10
3832.429052763156
 20
2973.885413258391
 30
0.0
 11
3832.42905276316
 21
2437.885413258392
 31
0.0
  0
LINE
  5
160D6
330
15FC1
100
AcDbEntity
  8
KISO
100
AcDbLine
 10
3441.149052763162
 20
3069.885413258397
 30
0.0
 11
3119.709052763161
 21
3069.885413258393
 31
0.0
  0
LINE
  5
160D7
330
15FC1
100
AcDbEntity
  8
CF-101
100
AcDbLine
 10
3441.149052763164
 20
2269.885413258392
 30
0.0
 11
3583.709052763165
 21
2269.885413258392
 31
0.0
  0
LINE
  5
160D8
330
15FC1
100
AcDbEntity
  8
CF-101
100
AcDbLine
 10
3119.709052763159
 20
2269.885413258392
 30
0.0
 11
2977.149052763162
 21
2269.885413258392
 31
0.0
  0
LINE
  5
160D9
330
15FC1
100
AcDbEntity
  8
KIN
100
AcDbLine
 10
3832.429052763156
 20
2493.885413258391
 30
0.0
 11
3192.429052763157
 21
2493.885413258391
 31
0.0
  0
LINE
  5
160DA
330
15FC1
100
AcDbEntity
  8
KIN
100
AcDbLine
 10
3832.42905276316
 20
2653.885413258391
 30
0.0
 11
3192.429052763157
 21
2653.885413258391
 31
0.0
  0
LINE
  5
160DB
330
15FC1
100
AcDbEntity
  8
KIN
100
AcDbLine
 10
3832.42905276316
 20
2813.88541325839
 30
0.0
 11
3192.429052763159
 21
2813.88541325839
 31
0.0
  0
LINE
  5
160DC
330
15FC1
100
AcDbEntity
  8
KIN
100
AcDbLine
 10
3832.429052763156
 20
2973.885413258391
 30
0.0
 11
3192.429052763159
 21
2973.885413258391
 31
0.0
  0
CIRCLE
  5
160DD
330
15FC1
100
AcDbEntity
  8
KIN
100
AcDbCircle
 10
2721.229052763161
 20
2973.885413258391
 30
0.0
 40
7.199999999999987
  0
CIRCLE
  5
160DE
330
15FC1
100
AcDbEntity
  8
KIN
100
AcDbCircle
 10
2721.229052763161
 20
2653.885413258391
 30
0.0
 40
7.199999999999987
  0
CIRCLE
  5
160DF
330
15FC1
100
AcDbEntity
  8
KIN
100
AcDbCircle
 10
2721.229052763161
 20
2813.88541325839
 30
0.0
 40
7.199999999999987
  0
ARC
  5
160E0
330
15FC1
100
AcDbEntity
  8
KIN-T
100
AcDbCircle
 10
2680.42905276316
 20
2437.885413258392
 30
0.0
 40
47.99999999999992
100
AcDbArc
 50
270.0
 51
0.0
  0
CIRCLE
  5
160E1
330
15FC1
100
AcDbEntity
  8
KIN
100
AcDbCircle
 10
2721.229052763161
 20
2493.885413258391
 30
0.0
 40
7.199999999999987
  0
LINE
  5
160E2
330
15FC1
100
AcDbEntity
  8
KIN-T
100
AcDbLine
 10
2728.429052763164
 20
2973.885413258391
 30
0.0
 11
2728.429052763162
 21
2437.885413258392
 31
0.0
  0
LINE
  5
160E3
330
15FC1
100
AcDbEntity
  8
KIN
100
AcDbLine
 10
2728.429052763164
 20
2973.885413258391
 30
0.0
 11
3368.429052763159
 21
2973.885413258391
 31
0.0
  0
LINE
  5
160E4
330
15FC1
100
AcDbEntity
  8
KIN
100
AcDbLine
 10
2728.429052763162
 20
2813.88541325839
 30
0.0
 11
3368.429052763159
 21
2813.88541325839
 31
0.0
  0
LINE
  5
160E5
330
15FC1
100
AcDbEntity
  8
KIN
100
AcDbLine
 10
2728.429052763162
 20
2653.885413258391
 30
0.0
 11
3368.429052763162
 21
2653.885413258391
 31
0.0
  0
LINE
  5
160E6
330
15FC1
100
AcDbEntity
  8
KIN
100
AcDbLine
 10
2728.429052763164
 20
2493.885413258391
 30
0.0
 11
3368.429052763162
 21
2493.885413258391
 31
0.0
  0
LINE
  5
160E7
330
15FC1
100
AcDbEntity
  8
KISO
100
AcDbLine
 10
3583.709052763188
 20
3069.885413258397
 30
0.0
 11
5511.710439747678
 21
3069.885413258393
 31
0.0
  0
LINE
  5
160E8
330
15FC1
100
AcDbEntity
  8
KISO
100
AcDbLine
 10
5511.710439747678
 20
2925.885413258393
 30
0.0
 11
4472.429052763187
 21
2925.885413258393
 31
0.0
  0
LINE
  5
160E9
330
15FC1
100
AcDbEntity
  8
KISO
100
AcDbLine
 10
5511.710439747678
 20
2829.885413258393
 30
0.0
 11
4472.429052763187
 21
2829.885413258395
 31
0.0
  0
LINE
  5
160EA
330
15FC1
100
AcDbEntity
  8
KISO
100
AcDbLine
 10
1049.147665778674
 20
2925.885413258391
 30
0.0
 11
2088.429052763165
 21
2925.885413258393
 31
0.0
  0
LINE
  5
160EB
330
15FC1
100
AcDbEntity
  8
KISO
100
AcDbLine
 10
1049.147665778674
 20
2829.885413258393
 30
0.0
 11
2088.429052763165
 21
2829.885413258395
 31
0.0
  0
LINE
  5
160EC
330
15FC1
100
AcDbEntity
  8
KISO
100
AcDbLine
 10
2977.149052763163
 20
3069.885413258397
 30
0.0
 11
1049.147665778674
 21
3069.885413258393
 31
0.0
  0
LINE
  5
160ED
330
15FC1
100
AcDbEntity
  8
KISO
100
AcDbLine
 10
4472.42905276316
 20
3069.885413258393
 30
0.0
 11
3583.709052763161
 21
3069.885413258393
 31
0.0
  0
LINE
  5
160EE
330
15FC1
100
AcDbEntity
  8
HATCH
100
AcDbLine
 10
4039.46420415462
 20
3069.885413258393
 30
0.0
 11
3879.666180892399
 21
2910.087389996173
 31
0.0
  0
LINE
  5
160EF
330
15FC1
100
AcDbEntity
  8
HATCH
100
AcDbLine
 10
4134.499355546092
 20
3069.885413258397
 30
0.0
 11
3879.666180892399
 21
2815.052238604703
 31
0.0
  0
LINE
  5
160F0
330
15FC1
100
AcDbEntity
  8
HATCH
100
AcDbLine
 10
4086.98177985036
 20
3069.885413258397
 30
0.0
 11
3879.666180892399
 21
2862.569814300432
 31
0.0
  0
LINE
  5
160F1
330
15FC1
100
AcDbEntity
  8
HATCH
100
AcDbLine
 10
2600.911477067432
 20
3069.885413258393
 30
0.0
 11
2088.429052763165
 21
2557.402988954125
 31
0.0
  0
LINE
  5
160F2
330
15FC1
100
AcDbEntity
  8
HATCH
100
AcDbLine
 10
2648.429052763171
 20
3069.885413258393
 30
0.0
 11
2088.429052763165
 21
2509.885413258387
 31
0.0
  0
LINE
  5
160F3
330
15FC1
100
AcDbEntity
  8
KISO
100
AcDbLine
 10
3441.149052763162
 20
3069.885413258393
 30
0.0
 11
3119.709052763165
 21
3069.885413258393
 31
0.0
  0
LINE
  5
160F4
330
15FC1
100
AcDbEntity
  8
KISO
100
AcDbLine
 10
4568.42905276316
 20
1949.885413258392
 30
0.0
 11
4568.42905276316
 21
2109.885413258395
 31
0.0
  0
LINE
  5
160F5
330
15FC1
100
AcDbEntity
  8
HATCH
100
AcDbLine
 10
4472.42905276316
 20
2543.81511047547
 30
0.0
 11
4241.826902511879
 21
2313.212960224193
 31
0.0
  0
LINE
  5
160F6
330
15FC1
100
AcDbEntity
  8
HATCH
100
AcDbLine
 10
4472.42905276316
 20
2496.297534779735
 30
0.0
 11
4289.344478207619
 21
2313.212960224193
 31
0.0
  0
LINE
  5
160F7
330
15FC1
100
AcDbEntity
  8
HATCH
100
AcDbLine
 10
4472.42905276316
 20
2448.779959084001
 30
0.0
 11
4336.862053903351
 21
2313.212960224193
 31
0.0
  0
LINE
  5
160F8
330
15FC1
100
AcDbEntity
  8
CF-101
100
AcDbLine
 10
3441.149052763164
 20
2269.885413258396
 30
0.0
 11
3583.709052763165
 21
2269.885413258396
 31
0.0
  0
LINE
  5
160F9
330
15FC1
100
AcDbEntity
  8
KISO
100
AcDbLine
 10
4472.42905276316
 20
3069.885413258393
 30
0.0
 11
4472.42905276316
 21
2109.885413258395
 31
0.0
  0
LINE
  5
160FA
330
15FC1
100
AcDbEntity
  8
HATCH
100
AcDbLine
 10
4472.42905276316
 20
3023.332686171205
 30
0.0
 11
3879.666180892399
 21
2430.569814300441
 31
0.0
  0
LINE
  5
160FB
330
15FC1
100
AcDbEntity
  8
HATCH
100
AcDbLine
 10
4472.42905276316
 20
2975.815110475462
 30
0.0
 11
3927.183756588136
 21
2430.569814300441
 31
0.0
  0
LINE
  5
160FC
330
15FC1
100
AcDbEntity
  8
HATCH
100
AcDbLine
 10
4472.42905276316
 20
2928.297534779732
 30
0.0
 11
3974.701332283867
 21
2430.569814300441
 31
0.0
  0
LINE
  5
160FD
330
15FC1
100
AcDbEntity
  8
1PL-L1
100
AcDbLine
 10
3280.429052763177
 20
3406.742322023877
 30
0.0
 11
3280.429052763177
 21
1829.885413258392
 31
0.0
  0
LINE
  5
160FE
330
15FC1
100
AcDbEntity
  8
CF-101
100
AcDbLine
 10
3441.149052763164
 20
2269.885413258393
 30
0.0
 11
3441.149052763158
 21
3406.742322023877
 31
0.0
  0
LINE
  5
160FF
330
15FC1
100
AcDbEntity
  8
CF-101
100
AcDbLine
 10
3583.709052763165
 20
2269.885413258396
 30
0.0
 11
3583.709052763158
 21
3406.742322023877
 31
0.0
  0
LINE
  5
16100
330
15FC1
100
AcDbEntity
  8
CF-101
100
AcDbLine
 10
3119.709052763161
 20
2269.885413258396
 30
0.0
 11
2977.149052763162
 21
2269.885413258396
 31
0.0
  0
LINE
  5
16101
330
15FC1
100
AcDbEntity
  8
HATCH
100
AcDbLine
 10
2681.191924633953
 20
2143.613133737718
 30
0.0
 11
2647.464204154629
 21
2109.885413258395
 31
0.0
  0
LINE
  5
16102
330
15FC1
100
AcDbEntity
  8
HATCH
100
AcDbLine
 10
2729.191924633955
 20
2144.095558041985
 30
0.0
 11
2694.981779850362
 21
2109.885413258395
 31
0.0
  0
LINE
  5
16103
330
15FC1
100
AcDbEntity
  8
HATCH
100
AcDbLine
 10
2634.156773242485
 20
2144.095558041985
 30
0.0
 11
2599.946628458894
 21
2109.885413258395
 31
0.0
  0
LINE
  5
16104
330
15FC1
100
AcDbEntity
  8
KISO
100
AcDbLine
 10
1992.429052763164
 20
1949.885413258392
 30
0.0
 11
1992.429052763164
 21
2109.885413258395
 31
0.0
  0
LINE
  5
16105
330
15FC1
100
AcDbEntity
  8
HATCH
100
AcDbLine
 10
2681.191924633953
 20
2623.130709433447
 30
0.0
 11
2371.274175424701
 21
2313.212960224193
 31
0.0
  0
LINE
  5
16106
330
15FC1
100
AcDbEntity
  8
HATCH
100
AcDbLine
 10
2681.191924633953
 20
2670.648285129186
 30
0.0
 11
2323.756599728962
 21
2313.212960224193
 31
0.0
  0
LINE
  5
16107
330
15FC1
100
AcDbEntity
  8
HATCH
100
AcDbLine
 10
2681.191924633953
 20
2575.613133737717
 30
0.0
 11
2418.791751120432
 21
2313.212960224193
 31
0.0
  0
LINE
  5
16108
330
15FC1
100
AcDbEntity
  8
KISO
100
AcDbLine
 10
2088.429052763165
 20
3069.885413258393
 30
0.0
 11
2088.429052763165
 21
2109.885413258395
 31
0.0
  0
LINE
  5
16109
330
15FC1
100
AcDbEntity
  8
HATCH
100
AcDbLine
 10
2695.9466284589
 20
3069.885413258393
 30
0.0
 11
2088.429052763165
 21
2462.367837562656
 31
0.0
  0
LINE
  5
1610A
330
15FC1
100
AcDbEntity
  8
CF-101
100
AcDbLine
 10
2977.149052763162
 20
2269.885413258396
 30
0.0
 11
2977.149052763163
 21
3406.742322023877
 31
0.0
  0
LINE
  5
1610B
330
15FC1
100
AcDbEntity
  8
CF-101
100
AcDbLine
 10
3119.709052763161
 20
2269.885413258396
 30
0.0
 11
3119.709052763167
 21
3406.742322023877
 31
0.0
  0
LINE
  5
1610C
330
15FC1
100
AcDbEntity
  8
1PL-M1
100
AcDbLine
 10
3048.429052763162
 20
1605.898498232147
 30
0.0
 11
3048.429052763162
 21
3502.742322023877
 31
0.0
  0
LINE
  5
1610D
330
15FC1
100
AcDbEntity
  8
KISO
100
AcDbLine
 10
1992.429052763164
 20
2109.885413258395
 30
0.0
 11
4568.42905276316
 21
2109.885413258397
 31
0.0
  0
LINE
  5
1610E
330
15FC1
100
AcDbEntity
  8
KISO
100
AcDbLine
 10
1992.429052763164
 20
1949.885413258392
 30
0.0
 11
4568.42905276316
 21
1949.885413258396
 31
0.0
  0
LINE
  5
1610F
330
15FC1
100
AcDbEntity
  8
HATCH
100
AcDbLine
 10
1836.774542651933
 20
3069.885413258393
 30
0.0
 11
1692.774542651933
 21
2925.885413258393
 31
0.0
  0
LINE
  5
16110
330
15FC1
100
AcDbEntity
  8
HATCH
100
AcDbLine
 10
1931.809694043401
 20
3069.885413258393
 30
0.0
 11
1787.809694043405
 21
2925.885413258393
 31
0.0
  0
LINE
  5
16111
330
15FC1
100
AcDbEntity
  8
HATCH
100
AcDbLine
 10
1884.292118347676
 20
3069.885413258393
 30
0.0
 11
1740.292118347676
 21
2925.885413258393
 31
0.0
  0
LINE
  5
16112
330
15FC1
100
AcDbEntity
  8
HATCH
100
AcDbLine
 10
1357.256966956204
 20
3069.885413258393
 30
0.0
 11
1213.256966956204
 21
2925.885413258393
 31
0.0
  0
LINE
  5
16113
330
15FC1
100
AcDbEntity
  8
HATCH
100
AcDbLine
 10
1452.292118347676
 20
3069.885413258393
 30
0.0
 11
1308.292118347673
 21
2925.885413258393
 31
0.0
  0
LINE
  5
16114
330
15FC1
100
AcDbEntity
  8
HATCH
100
AcDbLine
 10
1404.774542651944
 20
3069.885413258393
 30
0.0
 11
1260.774542651944
 21
2925.885413258393
 31
0.0
  0
LINE
  5
16115
330
15FC1
100
AcDbEntity
  8
HATCH
100
AcDbLine
 10
4827.001137229506
 20
3069.885413258393
 30
0.0
 11
4683.001137229508
 21
2925.885413258393
 31
0.0
  0
LINE
  5
16116
330
15FC1
100
AcDbEntity
  8
HATCH
100
AcDbLine
 10
4779.483561533766
 20
3069.885413258393
 30
0.0
 11
4635.483561533766
 21
2925.885413258393
 31
0.0
  0
LINE
  5
16117
330
15FC1
100
AcDbEntity
  8
HATCH
100
AcDbLine
 10
4874.518712925238
 20
3069.885413258393
 30
0.0
 11
4730.518712925234
 21
2925.885413258393
 31
0.0
  0
LINE
  5
16118
330
15FC1
100
AcDbEntity
  8
HATCH
100
AcDbLine
 10
5259.001137229496
 20
3069.885413258393
 30
0.0
 11
5115.001137229494
 21
2925.885413258393
 31
0.0
  0
LINE
  5
16119
330
15FC1
100
AcDbEntity
  8
HATCH
100
AcDbLine
 10
5354.036288620966
 20
3069.885413258393
 30
0.0
 11
5210.036288620965
 21
2925.885413258393
 31
0.0
  0
LINE
  5
1611A
330
15FC1
100
AcDbEntity
  8
HATCH
100
AcDbLine
 10
5306.518712925235
 20
3069.885413258393
 30
0.0
 11
5162.518712925235
 21
2925.885413258393
 31
0.0
  0
LINE
  5
1611B
330
15FC1
100
AcDbEntity
  8
HATCH
100
AcDbLine
 10
2154.639197546753
 20
2144.095558041985
 30
0.0
 11
2120.429052763165
 21
2109.885413258395
 31
0.0
  0
LINE
  5
1611C
330
15FC1
100
AcDbEntity
  8
HATCH
100
AcDbLine
 10
2202.156773242492
 20
2144.095558041985
 30
0.0
 11
2167.946628458901
 21
2109.885413258395
 31
0.0
  0
LINE
  5
1611D
330
15FC1
100
AcDbEntity
  8
HATCH
100
AcDbLine
 10
2249.674348938226
 20
2144.095558041985
 30
0.0
 11
2215.464204154632
 21
2109.885413258395
 31
0.0
  0
LINE
  5
1611E
330
15FC1
100
AcDbEntity
  8
KIN
100
AcDbLine
 10
2200.429052763164
 20
2189.885413258393
 30
0.0
 11
4360.42905276316
 21
2189.885413258393
 31
0.0
  0
LINE
  5
1611F
330
15FC1
100
AcDbEntity
  8
KIN
100
AcDbLine
 10
6669.900200012796
 20
2491.333194070898
 30
0.0
 11
8829.900200012792
 21
2491.333194070898
 31
0.0
  0
LINE
  5
16120
330
15FC1
100
AcDbEntity
  8
KIN
100
AcDbLine
 10
6669.900200012796
 20
2755.333194070899
 30
0.0
 11
8829.900200012792
 21
2755.333194070899
 31
0.0
  0
LINE
  5
16121
330
15FC1
100
AcDbEntity
  8
HATCH
100
AcDbLine
 10
8622.417262531065
 20
2491.333194070895
 30
0.0
 11
8941.900200012792
 21
2810.816131552625
 31
0.0
  0
LINE
  5
16122
330
15FC1
100
AcDbEntity
  8
HATCH
100
AcDbLine
 10
8551.706584412412
 20
2491.333194070895
 30
0.0
 11
8941.900200012792
 21
2881.526809671277
 31
0.0
  0
LINE
  5
16123
330
15FC1
100
AcDbEntity
  8
1PL-M1
100
AcDbLine
 10
9061.900200012791
 20
2491.333194070898
 30
0.0
 11
6437.900200012794
 21
2491.333194070898
 31
0.0
  0
LINE
  5
16124
330
15FC1
100
AcDbEntity
  8
KIN
100
AcDbLine
 10
6680.300200012796
 20
3019.333194070897
 30
0.0
 11
8819.50020001279
 21
3019.333194070897
 31
0.0
  0
LINE
  5
16125
330
15FC1
100
AcDbEntity
  8
HATCH
100
AcDbLine
 10
8127.442515700485
 20
2491.333194070895
 30
0.0
 11
8767.442515700484
 21
3131.333194070895
 31
0.0
  0
LINE
  5
16126
330
15FC1
100
AcDbEntity
  8
HATCH
100
AcDbLine
 10
8056.73183758183
 20
2491.333194070895
 30
0.0
 11
8696.731837581827
 21
3131.333194070895
 31
0.0
  0
LINE
  5
16127
330
15FC1
100
AcDbEntity
  8
HATCH
100
AcDbLine
 10
6557.900200012794
 20
2618.84715323092
 30
0.0
 11
7070.386240852774
 21
3131.333194070895
 31
0.0
  0
LINE
  5
16128
330
15FC1
100
AcDbEntity
  8
HATCH
100
AcDbLine
 10
6996.071665802012
 20
2491.333194070895
 30
0.0
 11
7636.071665802011
 21
3131.333194070895
 31
0.0
  0
LINE
  5
16129
330
15FC1
100
AcDbEntity
  8
HATCH
100
AcDbLine
 10
6925.360987683359
 20
2491.333194070895
 30
0.0
 11
7565.360987683354
 21
3131.333194070895
 31
0.0
  0
LINE
  5
1612A
330
15FC1
100
AcDbEntity
  8
HATCH
100
AcDbLine
 10
6854.650309564701
 20
2491.333194070895
 30
0.0
 11
7494.650309564704
 21
3131.333194070895
 31
0.0
  0
LINE
  5
1612B
330
15FC1
100
AcDbEntity
  8
KIN
100
AcDbLine
 10
6939.900200012793
 20
2491.333194070898
 30
0.0
 11
6939.900200012793
 21
3019.333194070897
 31
0.0
  0
LINE
  5
1612C
330
15FC1
100
AcDbEntity
  8
KIN
100
AcDbLine
 10
6669.900200012796
 20
2491.333194070898
 30
0.0
 11
6669.900200012796
 21
3008.933194070898
 31
0.0
  0
LINE
  5
1612D
330
15FC1
100
AcDbEntity
  8
HATCH
100
AcDbLine
 10
6557.900200012794
 20
2689.557831349573
 30
0.0
 11
6999.675562734117
 21
3131.333194070895
 31
0.0
  0
LINE
  5
1612E
330
15FC1
100
AcDbEntity
  8
HATCH
100
AcDbLine
 10
6557.900200012794
 20
2760.268509468227
 30
0.0
 11
6928.964884615465
 21
3131.333194070895
 31
0.0
  0
ARC
  5
1612F
330
15FC1
100
AcDbEntity
  8
KIN
100
AcDbCircle
 10
6680.300200012796
 20
3008.933194070898
 30
0.0
 40
10.39999999999998
100
AcDbArc
 50
90.0
 51
180.0
  0
LINE
  5
16130
330
15FC1
100
AcDbEntity
  8
KIN
100
AcDbLine
 10
7209.900200012793
 20
2491.333194070898
 30
0.0
 11
7209.900200012793
 21
3019.333194070897
 31
0.0
  0
LINE
  5
16131
330
15FC1
100
AcDbEntity
  8
KIN
100
AcDbLine
 10
7479.900200012792
 20
2491.333194070898
 30
0.0
 11
7479.900200012792
 21
3019.333194070897
 31
0.0
  0
LINE
  5
16132
330
15FC1
100
AcDbEntity
  8
KIN
100
AcDbLine
 10
7749.900200012797
 20
2491.333194070898
 30
0.0
 11
7749.900200012797
 21
3019.333194070897
 31
0.0
  0
LINE
  5
16133
330
15FC1
100
AcDbEntity
  8
KIN
100
AcDbLine
 10
8019.900200012793
 20
2491.333194070898
 30
0.0
 11
8019.900200012793
 21
3019.333194070897
 31
0.0
  0
LINE
  5
16134
330
15FC1
100
AcDbEntity
  8
KIN
100
AcDbLine
 10
8289.900200012793
 20
2491.333194070898
 30
0.0
 11
8289.900200012793
 21
3019.333194070897
 31
0.0
  0
LINE
  5
16135
330
15FC1
100
AcDbEntity
  8
KIN
100
AcDbLine
 10
8559.900200012796
 20
2491.333194070898
 30
0.0
 11
8559.900200012796
 21
3019.333194070897
 31
0.0
  0
LINE
  5
16136
330
15FC1
100
AcDbEntity
  8
HATCH
100
AcDbLine
 10
7420.33573451394
 20
2491.333194070895
 30
0.0
 11
8060.335734513939
 21
3131.333194070895
 31
0.0
  0
LINE
  5
16137
330
15FC1
100
AcDbEntity
  8
1PL-M1
100
AcDbLine
 10
7749.900200012797
 20
3251.333194070898
 30
0.0
 11
7749.900200012797
 21
1731.333194070899
 31
0.0
  0
LINE
  5
16138
330
15FC1
100
AcDbEntity
  8
HATCH
100
AcDbLine
 10
7561.75709075125
 20
2491.333194070895
 30
0.0
 11
8201.757090751248
 21
3131.333194070895
 31
0.0
  0
LINE
  5
16139
330
15FC1
100
AcDbEntity
  8
HATCH
100
AcDbLine
 10
7491.046412632595
 20
2491.333194070895
 30
0.0
 11
8131.046412632588
 21
3131.333194070895
 31
0.0
  0
LINE
  5
1613A
330
15FC1
100
AcDbEntity
  8
HATCH
100
AcDbLine
 10
7986.021159463174
 20
2491.333194070895
 30
0.0
 11
8626.021159463171
 21
3131.333194070895
 31
0.0
  0
LINE
  5
1613B
330
15FC1
100
AcDbEntity
  8
KIN
100
AcDbLine
 10
8829.900200012792
 20
2491.333194070898
 30
0.0
 11
8829.900200012792
 21
3008.933194070898
 31
0.0
  0
LINE
  5
1613C
330
15FC1
100
AcDbEntity
  8
KIN
100
AcDbLine
 10
8829.900200012792
 20
3008.933194070898
 30
0.0
 11
8829.900200012792
 21
2491.333194070898
 31
0.0
  0
LINE
  5
1613D
330
15FC1
100
AcDbEntity
  8
KIN
100
AcDbLine
 10
8693.127940649718
 20
2491.333194070895
 30
0.0
 11
8829.900200012792
 21
2628.105453433969
 31
0.0
  0
ARC
  5
1613E
330
15FC1
100
AcDbEntity
  8
KIN
100
AcDbCircle
 10
8819.50020001279
 20
3008.933194070898
 30
0.0
 40
10.39999999999998
100
AcDbArc
 50
0.0
 51
90.0
  0
CIRCLE
  5
1613F
330
15FC1
100
AcDbEntity
  8
KIN
100
AcDbCircle
 10
2470.429052763164
 20
2200.285413258393
 30
0.0
 40
10.39999999999998
  0
CIRCLE
  5
16140
330
15FC1
100
AcDbEntity
  8
KIN
100
AcDbCircle
 10
2740.429052763166
 20
2200.285413258393
 30
0.0
 40
10.39999999999998
  0
CIRCLE
  5
16141
330
15FC1
100
AcDbEntity
  8
KIN
100
AcDbCircle
 10
3010.429052763164
 20
2200.285413258393
 30
0.0
 40
10.39999999999998
  0
CIRCLE
  5
16142
330
15FC1
100
AcDbEntity
  8
KIN
100
AcDbCircle
 10
3280.429052763164
 20
2200.285413258393
 30
0.0
 40
10.39999999999998
  0
CIRCLE
  5
16143
330
15FC1
100
AcDbEntity
  8
KIN
100
AcDbCircle
 10
3550.429052763164
 20
2200.285413258393
 30
0.0
 40
10.39999999999998
  0
CIRCLE
  5
16144
330
15FC1
100
AcDbEntity
  8
KIN
100
AcDbCircle
 10
3820.429052763163
 20
2200.285413258393
 30
0.0
 40
10.39999999999998
  0
CIRCLE
  5
16145
330
15FC1
100
AcDbEntity
  8
KIN
100
AcDbCircle
 10
4090.429052763162
 20
2200.285413258393
 30
0.0
 40
10.39999999999998
  0
CIRCLE
  5
16146
330
15FC1
100
AcDbEntity
  8
KIN
100
AcDbCircle
 10
4360.429052763161
 20
2200.285413258393
 30
0.0
 40
10.39999999999998
  0
TEXT
  5
16147
330
15FC1
100
AcDbEntity
  8
HIKIDASHI
100
AcDbText
 10
4924.44727284037
 20
1556.127712164684
 30
0.0
 40
90.0
  1
主筋
  7
01
100
AcDbText
  0
TEXT
  5
16148
330
15FC1
100
AcDbEntity
  8
HIKIDASHI
100
AcDbText
 10
5173.711225874159
 20
1556.127712164684
 30
0.0
 40
90.0
  1
6-D13
 41
0.6700000000000001
  7
00
100
AcDbText
  0
LINE
  5
16149
330
15FC1
100
AcDbEntity
  8
HIKIDASHI
100
AcDbLine
 10
4874.029897198553
 20
1511.127712164684
 30
0.0
 11
5524.162654445586
 21
1511.127712164684
 31
0.0
  0
TEXT
  5
1614A
330
15FC1
100
AcDbEntity
  8
HIKIDASHI
100
AcDbText
 10
5494.923030539631
 20
1346.127712164684
 30
0.0
 40
90.0
  1
100
 41
0.6700000000000001
  7
00
100
AcDbText
  0
TEXT
  5
1614B
330
15FC1
100
AcDbEntity
  8
HIKIDASHI
100
AcDbText
 10
5118.5643274726
 20
1346.127712164684
 30
0.0
 40
90.0
  1
9 %%c
 41
0.6700000000000001
  7
00
100
AcDbText
  0
TEXT
  5
1614C
330
15FC1
100
AcDbEntity
  8
HIKIDASHI
100
AcDbText
 10
4869.300374438813
 20
1346.127712164684
 30
0.0
 40
90.0
  1
帯筋
  7
01
100
AcDbText
  0
TEXT
  5
1614D
330
15FC1
100
AcDbEntity
  8
HIKIDASHI
100
AcDbText
 10
5343.95085372299
 20
1353.627712164684
 30
0.0
 40
75.0
  1
ア
  7
01
 72
     1
 11
5376.450853722991
 21
1391.127712164684
 31
0.0
100
AcDbText
 73
     2
  0
CIRCLE
  5
1614E
330
15FC1
100
AcDbEntity
  8
HIKIDASHI
100
AcDbCircle
 10
5376.450853722991
 20
1391.127712164684
 30
0.0
 40
60.0
  0
LINE
  5
1614F
330
15FC1
100
AcDbEntity
  8
HIKIDASHI
100
AcDbLine
 10
4839.300374438813
 20
1301.127712164684
 30
0.0
 11
5688.594459111058
 21
1301.127712164684
 31
0.0
  0
LINE
  5
16150
330
15FC1
100
AcDbEntity
  8
SUNPOU
100
AcDbLine
 10
1207.78194677241
 20
3069.885413258393
 30
0.0
 11
1259.743470999477
 21
3159.885413258393
 31
0.0
  0
TEXT
  5
16151
330
15FC1
100
AcDbEntity
  8
SUNPOU
100
AcDbText
 10
1139.210518200981
 20
3204.885413258393
 30
0.0
 40
90.0
  1
F.L
 41
0.6666666666666666
  7
00
 72
     4
 11
1207.78194677241
 21
3249.885413258393
 31
0.0
100
AcDbText
  0
LINE
  5
16152
330
15FC1
100
AcDbEntity
  8
SUNPOU
100
AcDbLine
 10
1259.743470999477
 20
3159.885413258393
 30
0.0
 11
1155.820422545343
 21
3159.885413258393
 31
0.0
  0
LINE
  5
16153
330
15FC1
100
AcDbEntity
  8
SUNPOU
100
AcDbLine
 10
1155.820422545343
 20
3159.885413258393
 30
0.0
 11
1207.78194677241
 21
3069.885413258393
 31
0.0
  0
LINE
  5
16154
330
15FC1
100
AcDbEntity
  8
SUNPOU
100
AcDbLine
 10
6669.900200012796
 20
3171.333194070897
 30
0.0
 11
6669.900200012796
 21
3447.711278313302
 31
0.0
  0
LINE
  5
16155
330
15FC1
100
AcDbEntity
  8
SUNPOU
100
AcDbLine
 10
8829.900200012792
 20
3171.333194070897
 30
0.0
 11
8829.900200012792
 21
3447.711278313302
 31
0.0
  0
LINE
  5
16156
330
15FC1
100
AcDbEntity
  8
SUNPOU
100
AcDbLine
 10
6689.900200012797
 20
3402.7112783133
 30
0.0
 11
8809.900200012791
 21
3402.7112783133
 31
0.0
  0
TEXT
  5
16157
330
15FC1
100
AcDbEntity
  8
SUNPOU
100
AcDbText
 10
7835.964374050014
 20
3447.711278313303
 30
0.0
 40
90.0
  1
9-D13
 41
0.6666666666666666
  7
00
 72
     4
 11
7988.821516907157
 21
3492.711278313303
 31
0.0
100
AcDbText
  0
TEXT
  5
16158
330
15FC1
100
AcDbEntity
  8
SUNPOU
100
AcDbText
 10
7381.161888867094
 20
3447.711278313303
 30
0.0
 40
90.0
  1
ベース筋
  7
01
 72
     4
 11
7585.161888867094
 21
3492.711278313303
 31
0.0
100
AcDbText
  0
LINE
  5
16159
330
15FC1
100
AcDbEntity
  8
SUNPOU
100
AcDbLine
 10
6517.900200012793
 20
3019.333194070897
 30
0.0
 11
6099.639117456529
 21
3019.333194070897
 31
0.0
  0
LINE
  5
1615A
330
15FC1
100
AcDbEntity
  8
SUNPOU
100
AcDbLine
 10
6517.900200012793
 20
1963.333194070899
 30
0.0
 11
6099.639117456529
 21
1963.333194070899
 31
0.0
  0
LINE
  5
1615B
330
15FC1
100
AcDbEntity
  8
SUNPOU
100
AcDbLine
 10
6144.639117456527
 20
2999.333194070898
 30
0.0
 11
6144.639117456527
 21
1983.333194070899
 31
0.0
  0
TEXT
  5
1615C
330
15FC1
100
AcDbEntity
  8
SUNPOU
100
AcDbText
 10
6099.639117456526
 20
2570.331856419735
 30
0.0
 40
90.0
  1
5-D13
 50
90.0
 41
0.6666666666666666
  7
00
 72
     4
 11
6054.639117456527
 21
2723.188999276877
 31
0.0
100
AcDbText
  0
TEXT
  5
1615D
330
15FC1
100
AcDbEntity
  8
SUNPOU
100
AcDbText
 10
6099.639117456526
 20
2107.696818884271
 30
0.0
 40
90.0
  1
ベース筋
 50
90.0
  7
01
 72
     4
 11
6054.639117456527
 21
2311.696818884271
 31
0.0
100
AcDbText
  0
LINE
  5
1615E
330
15FC1
100
AcDbEntity
  8
HIKIDASHI
100
AcDbLine
 10
2946.306191125407
 20
966.5967710460376
 30
0.0
 11
3873.809328772832
 21
966.5967710460376
 31
0.0
  0
LINE
  5
1615F
330
15FC1
100
AcDbEntity
  8
HIKIDASHI
100
AcDbLine
 10
2946.306191125407
 20
1006.596771046037
 30
0.0
 11
3873.809328772832
 21
1006.596771046037
 31
0.0
  0
TEXT
  5
16160
330
15FC1
100
AcDbEntity
  8
HIKIDASHI
100
AcDbText
 10
2986.306191125407
 20
1066.596771046038
 30
0.0
 40
120.0
  1
A  ~  A'
 41
0.6700000000000001
  7
00
100
AcDbText
  0
TEXT
  5
16161
330
15FC1
100
AcDbEntity
  8
HIKIDASHI
100
AcDbText
 10
3471.662563787485
 20
1066.596771046038
 30
0.0
 40
120.0
  1
断  面
  7
01
100
AcDbText
  0
TEXT
  5
16162
330
15FC1
100
AcDbEntity
  8
HIKIDASHI
100
AcDbText
 10
1282.680380784511
 20
1695.898498232148
 30
0.0
 40
90.0
  1
10 %%c x 350
 41
0.6700000000000001
  7
00
100
AcDbText
  0
LINE
  5
16163
330
15FC1
100
AcDbEntity
  8
HIKIDASHI
100
AcDbLine
 10
991.7276786742759
 20
1650.898498232148
 30
0.0
 11
1853.456509507224
 21
1650.898498232148
 31
0.0
  0
TEXT
  5
16164
330
15FC1
100
AcDbEntity
  8
HIKIDASHI
100
AcDbText
 10
1022.125378438447
 20
1695.898498232148
 30
0.0
 40
90.0
  1
鉄筋
  7
01
100
AcDbText
  0
TEXT
  5
16165
330
15FC1
100
AcDbEntity
  8
FILENAME
100
AcDbText
 10
13659.14285714285
 20
174.0
 30
0.0
 40
100.0
  1
＜YOCF-240-SA-U_3_JIS_GL.DXF ＞
  7
FILENAME
 72
     2
 11
16382.0
 21
174.0
 31
0.0
100
AcDbText
  0
LINE
  5
16166
330
15FC1
100
AcDbEntity
  8
WAKUSEN-01
100
AcDbLine
 10
434.0000000000008
 20
413.9999999999997
 30
0.0
 11
16382.0
 21
413.9999999999997
 31
0.0
  0
LINE
  5
16167
330
15FC1
100
AcDbEntity
  8
WAKUSEN-01
100
AcDbLine
 10
434.0000000000008
 20
11242.0
 30
0.0
 11
16382.0
 21
11242.0
 31
0.0
  0
LINE
  5
16168
330
15FC1
100
AcDbEntity
  8
WAKUSEN-01
100
AcDbLine
 10
434.0000000000008
 20
413.9999999999997
 30
0.0
 11
434.0000000000008
 21
11242.0
 31
0.0
  0
LINE
  5
16169
330
15FC1
100
AcDbEntity
  8
WAKUSEN-01
100
AcDbLine
 10
16382.0
 20
413.9999999999997
 30
0.0
 11
16382.0
 21
11242.0
 31
0.0
  0
LINE
  5
1616A
330
15FC1
100
AcDbEntity
  8
WAKUSEN-01
100
AcDbLine
 10
10280.0
 20
1242.0
 30
0.0
 11
16382.0
 21
1242.0
 31
0.0
  0
LINE
  5
1616B
330
15FC1
100
AcDbEntity
  8
WAKUSEN-02
100
AcDbLine
 10
10280.0
 20
827.9999999999997
 30
0.0
 11
13434.0
 21
827.9999999999997
 31
0.0
  0
TEXT
  5
1616C
330
15FC1
100
AcDbEntity
  8
WAKUMOJI-01
100
AcDbText
 10
10335.13012998137
 20
1062.951504669661
 30
0.0
 40
120.0
  1
名　称
  7
WAKUMOJI
100
AcDbText
  0
TEXT
  5
1616D
330
15FC1
100
AcDbEntity
  8
WAKUMOJI-01
100
AcDbText
 10
10328.25274254596
 20
659.5644874899107
 30
0.0
 40
120.0
  1
機種名
  7
WAKUMOJI
100
AcDbText
  0
LINE
  5
1616E
330
15FC1
100
AcDbEntity
  8
WAKUSEN-01
100
AcDbLine
 10
10280.0
 20
413.9999999999985
 30
0.0
 11
10280.0
 21
1242.0
 31
0.0
  0
LINE
  5
1616F
330
15FC1
100
AcDbEntity
  8
WAKUSEN-02
100
AcDbLine
 10
13434.0
 20
413.9999999999963
 30
0.0
 11
13434.0
 21
1242.0
 31
0.0
  0
LINE
  5
16170
330
15FC1
100
AcDbEntity
  8
YODOROGO
100
AcDbLine
 10
14988.80217064596
 20
997.8747482146435
 30
0.0
 11
14914.80217064596
 21
997.8747482146435
 31
0.0
1001
AUTOCAD_POSTSCRIPT_FIGURE
1002
{
1000
PSFILL
1000
Grayscale
1000
Grayscale
1070
    25
1002
}
  0
LINE
  5
16171
330
15FC1
100
AcDbEntity
  8
YODOROGO
100
AcDbLine
 10
14914.80217064596
 20
973.8747482146434
 30
0.0
 11
14988.80217064596
 21
973.8747482146434
 31
0.0
1001
AUTOCAD_POSTSCRIPT_FIGURE
1002
{
1000
PSFILL
1000
Grayscale
1000
Grayscale
1070
    25
1002
}
  0
LINE
  5
16172
330
15FC1
100
AcDbEntity
  8
YODOROGO
100
AcDbLine
 10
14988.80217064596
 20
953.874748214644
 30
0.0
 11
14914.80217064596
 21
953.874748214644
 31
0.0
1001
AUTOCAD_POSTSCRIPT_FIGURE
1002
{
1000
PSFILL
1000
Grayscale
1000
Grayscale
1070
    25
1002
}
  0
LINE
  5
16173
330
15FC1
100
AcDbEntity
  8
YODOROGO
100
AcDbLine
 10
14914.80217064596
 20
929.874748214644
 30
0.0
 11
14988.80217064596
 21
929.874748214644
 31
0.0
1001
AUTOCAD_POSTSCRIPT_FIGURE
1002
{
1000
PSFILL
1000
Grayscale
1000
Grayscale
1070
    25
1002
}
  0
LINE
  5
16174
330
15FC1
100
AcDbEntity
  8
YODOROGO
100
AcDbLine
 10
14988.80217064596
 20
909.8747482146439
 30
0.0
 11
14914.80217064596
 21
909.8747482146439
 31
0.0
1001
AUTOCAD_POSTSCRIPT_FIGURE
1002
{
1000
PSFILL
1000
Grayscale
1000
Grayscale
1070
    25
1002
}
  0
LINE
  5
16175
330
15FC1
100
AcDbEntity
  8
YODOROGO
100
AcDbLine
 10
14960.80217064594
 20
853.874748214644
 30
0.0
 11
14988.80217064596
 21
853.874748214644
 31
0.0
1001
AUTOCAD_POSTSCRIPT_FIGURE
1002
{
1000
PSFILL
1000
Grayscale
1000
Grayscale
1070
    25
1002
}
  0
LINE
  5
16176
330
15FC1
100
AcDbEntity
  8
YODOROGO
100
AcDbLine
 10
14868.80217064596
 20
713.8747482146436
 30
0.0
 11
14968.80217064596
 21
740.6696674577553
 31
0.0
  0
LINE
  5
16177
330
15FC1
100
AcDbEntity
  8
YODOROGO
100
AcDbLine
 10
14974.80217064595
 20
853.874748214644
 30
0.0
 11
14942.80217064596
 21
853.874748214644
 31
0.0
  0
ARC
  5
16178
330
15FC1
100
AcDbEntity
  8
YODOROGO
100
AcDbCircle
 10
15127.17387491394
 20
903.9323046166312
 30
0.0
 40
190.9434321028236
100
AcDbArc
 50
213.9611167766784
 51
264.4787207431779
  0
ARC
  5
16179
330
15FC1
100
AcDbEntity
  8
YODOROGO
100
AcDbCircle
 10
15127.17387491396
 20
903.9323046166513
 30
0.0
 40
190.9434321028408
100
AcDbArc
 50
208.141144204866
 51
212.9210361185994
  0
LINE
  5
1617A
330
15FC1
100
AcDbEntity
  8
YODOROGO
100
AcDbLine
 10
14885.70493649264
 20
778.403830673117
 30
0.0
 11
14966.89206625426
 21
800.1578565285436
 31
0.0
  0
LINE
  5
1617B
330
15FC1
100
AcDbEntity
  8
YODOROGO
100
AcDbLine
 10
14868.80217064596
 20
713.8747482146436
 30
0.0
 11
14968.80217064596
 21
740.6696674577553
 31
0.0
  0
LINE
  5
1617C
330
15FC1
100
AcDbEntity
  8
YODOROGO
100
AcDbLine
 10
14974.80217064595
 20
853.874748214644
 30
0.0
 11
14942.80217064596
 21
853.874748214644
 31
0.0
  0
ARC
  5
1617D
330
15FC1
100
AcDbEntity
  8
YODOROGO
100
AcDbCircle
 10
15127.17387491394
 20
903.9323046166312
 30
0.0
 40
190.9434321028236
100
AcDbArc
 50
213.9611167766784
 51
264.4787207431779
  0
LINE
  5
1617E
330
15FC1
100
AcDbEntity
  8
YODOROGO
100
AcDbLine
 10
14396.80217064594
 20
909.8747482146439
 30
0.0
 11
14216.80217064594
 21
909.8747482146439
 31
0.0
  0
LINE
  5
1617F
330
15FC1
100
AcDbEntity
  8
YODOROGO
100
AcDbLine
 10
14256.80217064594
 20
713.8747482146436
 30
0.0
 11
14396.80217064594
 21
713.8747482146436
 31
0.0
  0
LINE
  5
16180
330
15FC1
100
AcDbEntity
  8
YODOROGO
100
AcDbLine
 10
14364.80217064596
 20
961.8747482146432
 30
0.0
 11
14248.80217064594
 21
961.8747482146432
 31
0.0
  0
LINE
  5
16181
330
15FC1
100
AcDbEntity
  8
YODOROGO
100
AcDbLine
 10
14292.80217064596
 20
1013.874748214644
 30
0.0
 11
14328.80217064596
 21
1013.874748214644
 31
0.0
  0
LINE
  5
16182
330
15FC1
100
AcDbEntity
  8
YODOROGO
100
AcDbLine
 10
14216.80217064594
 20
853.874748214644
 30
0.0
 11
14216.80217064594
 21
753.8747482146439
 31
0.0
  0
LINE
  5
16183
330
15FC1
100
AcDbEntity
  8
YODOROGO
100
AcDbLine
 10
14248.80217064594
 20
781.8747482146434
 30
0.0
 11
14248.80217064594
 21
853.874748214644
 31
0.0
  0
LINE
  5
16184
330
15FC1
100
AcDbEntity
  8
YODOROGO
100
AcDbLine
 10
14292.80217064596
 20
873.8747482146449
 30
0.0
 11
14292.80217064596
 21
773.874748214644
 31
0.0
  0
LINE
  5
16185
330
15FC1
100
AcDbEntity
  8
YODOROGO
100
AcDbLine
 10
13928.80217064596
 20
841.8747482146445
 30
0.0
 11
13888.80217064596
 21
809.9862070222856
 31
0.0
  0
LINE
  5
16186
330
15FC1
100
AcDbEntity
  8
YODOROGO
100
AcDbLine
 10
13968.80217064596
 20
809.9862070222856
 30
0.0
 11
13928.80217064596
 21
841.8747482146445
 31
0.0
  0
LINE
  5
16187
330
15FC1
100
AcDbEntity
  8
YODOROGO
100
AcDbLine
 10
13928.80217064596
 20
853.874748214644
 30
0.0
 11
13968.80217064596
 21
821.986207022285
 31
0.0
  0
LINE
  5
16188
330
15FC1
100
AcDbEntity
  8
YODOROGO
100
AcDbLine
 10
13888.80217064596
 20
821.986207022285
 30
0.0
 11
13928.80217064596
 21
853.874748214644
 31
0.0
  0
LINE
  5
16189
330
15FC1
100
AcDbEntity
  8
YODOROGO
100
AcDbLine
 10
14020.45660200844
 20
829.874748214644
 30
0.0
 11
14020.45660200844
 21
841.8747482146434
 31
0.0
  0
LINE
  5
1618A
330
15FC1
100
AcDbEntity
  8
YODOROGO
100
AcDbLine
 10
13988.80217064596
 20
841.8747482146434
 30
0.0
 11
13988.80217064596
 21
833.8747482146427
 31
0.0
  0
LINE
  5
1618B
330
15FC1
100
AcDbEntity
  8
YODOROGO
100
AcDbLine
 10
14049.06776011545
 20
853.874748214644
 30
0.0
 11
14049.06776011545
 21
827.751818637328
 31
0.0
1001
AUTOCAD_POSTSCRIPT_FIGURE
1002
{
1000
PSFILL
1000
Grayscale
1000
Grayscale
1070
   100
1002
}
  0
LINE
  5
1618C
330
15FC1
100
AcDbEntity
  8
YODOROGO
100
AcDbLine
 10
14041.06776011546
 20
827.751818637328
 30
0.0
 11
14041.06776011546
 21
853.874748214644
 31
0.0
1001
AUTOCAD_POSTSCRIPT_FIGURE
1002
{
1000
PSFILL
1000
Grayscale
1000
Grayscale
1070
   100
1002
}
  0
LINE
  5
1618D
330
15FC1
100
AcDbEntity
  8
YODOROGO
100
AcDbLine
 10
13904.80217064596
 20
804.3859520216292
 30
0.0
 11
13904.80217064596
 21
816.3859520216298
 31
0.0
  0
LINE
  5
1618E
330
15FC1
100
AcDbEntity
  8
YODOROGO
100
AcDbLine
 10
13952.80217064596
 20
804.3859520216292
 30
0.0
 11
13904.80217064596
 21
804.3859520216292
 31
0.0
  0
LINE
  5
1618F
330
15FC1
100
AcDbEntity
  8
YODOROGO
100
AcDbLine
 10
13952.80217064596
 20
816.3859520216298
 30
0.0
 11
13952.80217064596
 21
804.3859520216292
 31
0.0
  0
LINE
  5
16190
330
15FC1
100
AcDbEntity
  8
YODOROGO
100
AcDbLine
 10
13904.80217064596
 20
816.3859520216298
 30
0.0
 11
13952.80217064596
 21
816.3859520216298
 31
0.0
  0
LINE
  5
16191
330
15FC1
100
AcDbEntity
  8
YODOROGO
100
AcDbLine
 10
13912.25479445787
 20
784.2514286852374
 30
0.0
 11
13892.80217064596
 21
737.8747482146435
 31
0.0
1001
AUTOCAD_POSTSCRIPT_FIGURE
1002
{
1000
PSFILL
1000
Grayscale
1000
Grayscale
1070
   100
1002
}
  0
LINE
  5
16192
330
15FC1
100
AcDbEntity
  8
YODOROGO
100
AcDbLine
 10
13888.80217064596
 20
784.2514286852374
 30
0.0
 11
13912.25479445787
 21
784.2514286852374
 31
0.0
1001
AUTOCAD_POSTSCRIPT_FIGURE
1002
{
1000
PSFILL
1000
Grayscale
1000
Grayscale
1070
   100
1002
}
  0
LINE
  5
16193
330
15FC1
100
AcDbEntity
  8
YODOROGO
100
AcDbLine
 10
13888.80217064596
 20
794.2514286852374
 30
0.0
 11
13888.80217064596
 21
784.2514286852374
 31
0.0
1001
AUTOCAD_POSTSCRIPT_FIGURE
1002
{
1000
PSFILL
1000
Grayscale
1000
Grayscale
1070
   100
1002
}
  0
LINE
  5
16194
330
15FC1
100
AcDbEntity
  8
YODOROGO
100
AcDbLine
 10
13968.80217064596
 20
794.2514286852374
 30
0.0
 11
13888.80217064596
 21
794.2514286852374
 31
0.0
1001
AUTOCAD_POSTSCRIPT_FIGURE
1002
{
1000
PSFILL
1000
Grayscale
1000
Grayscale
1070
   100
1002
}
  0
LINE
  5
16195
330
15FC1
100
AcDbEntity
  8
YODOROGO
100
AcDbLine
 10
13968.80217064596
 20
784.2514286852374
 30
0.0
 11
13968.80217064596
 21
794.2514286852374
 31
0.0
1001
AUTOCAD_POSTSCRIPT_FIGURE
1002
{
1000
PSFILL
1000
Grayscale
1000
Grayscale
1070
   100
1002
}
  0
LINE
  5
16196
330
15FC1
100
AcDbEntity
  8
YODOROGO
100
AcDbLine
 10
13922.25479445786
 20
784.2514286852374
 30
0.0
 11
13968.80217064596
 21
784.2514286852374
 31
0.0
1001
AUTOCAD_POSTSCRIPT_FIGURE
1002
{
1000
PSFILL
1000
Grayscale
1000
Grayscale
1070
   100
1002
}
  0
LINE
  5
16197
330
15FC1
100
AcDbEntity
  8
YODOROGO
100
AcDbLine
 10
13907.77335914238
 20
747.8747482146435
 30
0.0
 11
13922.25479445786
 21
784.2514286852374
 31
0.0
1001
AUTOCAD_POSTSCRIPT_FIGURE
1002
{
1000
PSFILL
1000
Grayscale
1000
Grayscale
1070
   100
1002
}
  0
LINE
  5
16198
330
15FC1
100
AcDbEntity
  8
YODOROGO
100
AcDbLine
 10
13951.02739540432
 20
747.8747482146435
 30
0.0
 11
13907.77335914238
 21
747.8747482146435
 31
0.0
1001
AUTOCAD_POSTSCRIPT_FIGURE
1002
{
1000
PSFILL
1000
Grayscale
1000
Grayscale
1070
   100
1002
}
  0
LINE
  5
16199
330
15FC1
100
AcDbEntity
  8
YODOROGO
100
AcDbLine
 10
13942.53250239547
 20
768.1169053488464
 30
0.0
 11
13951.02739540432
 21
747.8747482146435
 31
0.0
1001
AUTOCAD_POSTSCRIPT_FIGURE
1002
{
1000
PSFILL
1000
Grayscale
1000
Grayscale
1070
   100
1002
}
  0
LINE
  5
1619A
330
15FC1
100
AcDbEntity
  8
YODOROGO
100
AcDbLine
 10
13950.53250239547
 20
768.1169053488464
 30
0.0
 11
13942.53250239547
 21
768.1169053488464
 31
0.0
1001
AUTOCAD_POSTSCRIPT_FIGURE
1002
{
1000
PSFILL
1000
Grayscale
1000
Grayscale
1070
   100
1002
}
  0
LINE
  5
1619B
330
15FC1
100
AcDbEntity
  8
YODOROGO
100
AcDbLine
 10
13964.80217064596
 20
737.8747482146435
 30
0.0
 11
13950.53250239547
 21
768.1169053488464
 31
0.0
1001
AUTOCAD_POSTSCRIPT_FIGURE
1002
{
1000
PSFILL
1000
Grayscale
1000
Grayscale
1070
   100
1002
}
  0
LINE
  5
1619C
330
15FC1
100
AcDbEntity
  8
YODOROGO
100
AcDbLine
 10
13892.80217064596
 20
737.8747482146435
 30
0.0
 11
13964.80217064596
 21
737.8747482146435
 31
0.0
1001
AUTOCAD_POSTSCRIPT_FIGURE
1002
{
1000
PSFILL
1000
Grayscale
1000
Grayscale
1070
   100
1002
}
  0
LINE
  5
1619D
330
15FC1
100
AcDbEntity
  8
YODOROGO
100
AcDbLine
 10
13888.80217064596
 20
809.9862070222856
 30
0.0
 11
13888.80217064596
 21
821.986207022285
 31
0.0
  0
LINE
  5
1619E
330
15FC1
100
AcDbEntity
  8
YODOROGO
100
AcDbLine
 10
13968.80217064596
 20
821.986207022285
 30
0.0
 11
13968.80217064596
 21
809.9862070222856
 31
0.0
  0
ARC
  5
1619F
330
15FC1
100
AcDbEntity
  8
YODOROGO
100
AcDbCircle
 10
14112.97022107348
 20
800.438882662663
 30
0.0
 40
87.99999999999995
100
AcDbArc
 50
280.3644312771313
 51
3.541483659218056
  0
ARC
  5
161A0
330
15FC1
100
AcDbEntity
  8
YODOROGO
100
AcDbCircle
 10
14117.87801537965
 20
816.798903480952
 30
0.0
 40
55.99999999999914
100
AcDbArc
 50
281.2490582504155
 51
348.7509417495832
  0
LINE
  5
161A1
330
15FC1
100
AcDbEntity
  8
YODOROGO
100
AcDbLine
 10
14128.80217064596
 20
761.8747482146434
 30
0.0
 11
14128.80217064596
 21
713.8747482146436
 31
0.0
  0
LINE
  5
161A2
330
15FC1
100
AcDbEntity
  8
YODOROGO
100
AcDbLine
 10
14010.04445186845
 20
805.3252825309574
 30
0.0
 11
14020.45660200844
 21
829.874748214644
 31
0.0
  0
LINE
  5
161A3
330
15FC1
100
AcDbEntity
  8
YODOROGO
100
AcDbLine
 10
14020.80217064596
 20
791.5602449742006
 30
0.0
 11
14010.04445186845
 21
805.3252825309574
 31
0.0
  0
LINE
  5
161A4
330
15FC1
100
AcDbEntity
  8
YODOROGO
100
AcDbLine
 10
14020.80217064596
 20
781.5602449741994
 30
0.0
 11
14020.80217064596
 21
791.5602449742006
 31
0.0
  0
LINE
  5
161A5
330
15FC1
100
AcDbEntity
  8
YODOROGO
100
AcDbLine
 10
14008.80217064596
 20
792.6185318747651
 30
0.0
 11
14020.80217064596
 21
781.5602449741994
 31
0.0
  0
LINE
  5
161A6
330
15FC1
100
AcDbEntity
  8
YODOROGO
100
AcDbLine
 10
14008.80217064596
 20
737.8747482146435
 30
0.0
 11
14008.80217064596
 21
792.6185318747651
 31
0.0
  0
LINE
  5
161A7
330
15FC1
100
AcDbEntity
  8
YODOROGO
100
AcDbLine
 10
14000.80217064596
 20
737.8747482146435
 30
0.0
 11
14008.80217064596
 21
737.8747482146435
 31
0.0
  0
LINE
  5
161A8
330
15FC1
100
AcDbEntity
  8
YODOROGO
100
AcDbLine
 10
14000.80217064596
 20
790.0026748448738
 30
0.0
 11
14000.80217064596
 21
737.8747482146435
 31
0.0
  0
LINE
  5
161A9
330
15FC1
100
AcDbEntity
  8
YODOROGO
100
AcDbLine
 10
13988.80217064596
 20
766.3840395167142
 30
0.0
 11
14000.80217064596
 21
790.0026748448738
 31
0.0
  0
LINE
  5
161AA
330
15FC1
100
AcDbEntity
  8
YODOROGO
100
AcDbLine
 10
13988.80217064596
 20
778.3840395167149
 30
0.0
 11
13988.80217064596
 21
766.3840395167142
 31
0.0
  0
LINE
  5
161AB
330
15FC1
100
AcDbEntity
  8
YODOROGO
100
AcDbLine
 10
14012.91438714567
 20
833.8747482146427
 30
0.0
 11
13988.80217064596
 21
778.3840395167149
 31
0.0
  0
LINE
  5
161AC
330
15FC1
100
AcDbEntity
  8
YODOROGO
100
AcDbLine
 10
13988.80217064596
 20
833.8747482146427
 30
0.0
 11
14012.91438714567
 21
833.8747482146427
 31
0.0
  0
LINE
  5
161AD
330
15FC1
100
AcDbEntity
  8
YODOROGO
100
AcDbLine
 10
14025.06776011545
 20
827.751818637328
 30
0.0
 11
14041.06776011546
 21
827.751818637328
 31
0.0
1001
AUTOCAD_POSTSCRIPT_FIGURE
1002
{
1000
PSFILL
1000
Grayscale
1000
Grayscale
1070
   100
1002
}
  0
LINE
  5
161AE
330
15FC1
100
AcDbEntity
  8
YODOROGO
100
AcDbLine
 10
14025.06776011545
 20
815.7518186373286
 30
0.0
 11
14025.06776011545
 21
827.751818637328
 31
0.0
1001
AUTOCAD_POSTSCRIPT_FIGURE
1002
{
1000
PSFILL
1000
Grayscale
1000
Grayscale
1070
   100
1002
}
  0
LINE
  5
161AF
330
15FC1
100
AcDbEntity
  8
YODOROGO
100
AcDbLine
 10
14041.06776011546
 20
815.7518186373286
 30
0.0
 11
14025.06776011545
 21
815.7518186373286
 31
0.0
1001
AUTOCAD_POSTSCRIPT_FIGURE
1002
{
1000
PSFILL
1000
Grayscale
1000
Grayscale
1070
   100
1002
}
  0
LINE
  5
161B0
330
15FC1
100
AcDbEntity
  8
YODOROGO
100
AcDbLine
 10
14041.06776011546
 20
749.8747482146441
 30
0.0
 11
14041.06776011546
 21
815.7518186373286
 31
0.0
1001
AUTOCAD_POSTSCRIPT_FIGURE
1002
{
1000
PSFILL
1000
Grayscale
1000
Grayscale
1070
   100
1002
}
  0
LINE
  5
161B1
330
15FC1
100
AcDbEntity
  8
YODOROGO
100
AcDbLine
 10
14025.06776011545
 20
749.8747482146441
 30
0.0
 11
14041.06776011546
 21
749.8747482146441
 31
0.0
1001
AUTOCAD_POSTSCRIPT_FIGURE
1002
{
1000
PSFILL
1000
Grayscale
1000
Grayscale
1070
   100
1002
}
  0
LINE
  5
161B2
330
15FC1
100
AcDbEntity
  8
YODOROGO
100
AcDbLine
 10
14025.06776011545
 20
737.8747482146435
 30
0.0
 11
14025.06776011545
 21
749.8747482146441
 31
0.0
1001
AUTOCAD_POSTSCRIPT_FIGURE
1002
{
1000
PSFILL
1000
Grayscale
1000
Grayscale
1070
   100
1002
}
  0
LINE
  5
161B3
330
15FC1
100
AcDbEntity
  8
YODOROGO
100
AcDbLine
 10
14068.80217064596
 20
737.8747482146435
 30
0.0
 11
14025.06776011545
 21
737.8747482146435
 31
0.0
1001
AUTOCAD_POSTSCRIPT_FIGURE
1002
{
1000
PSFILL
1000
Grayscale
1000
Grayscale
1070
   100
1002
}
  0
LINE
  5
161B4
330
15FC1
100
AcDbEntity
  8
YODOROGO
100
AcDbLine
 10
14068.80217064596
 20
749.8747482146441
 30
0.0
 11
14068.80217064596
 21
737.8747482146435
 31
0.0
1001
AUTOCAD_POSTSCRIPT_FIGURE
1002
{
1000
PSFILL
1000
Grayscale
1000
Grayscale
1070
   100
1002
}
  0
LINE
  5
161B5
330
15FC1
100
AcDbEntity
  8
YODOROGO
100
AcDbLine
 10
14049.06776011545
 20
749.8747482146441
 30
0.0
 11
14068.80217064596
 21
749.8747482146441
 31
0.0
1001
AUTOCAD_POSTSCRIPT_FIGURE
1002
{
1000
PSFILL
1000
Grayscale
1000
Grayscale
1070
   100
1002
}
  0
LINE
  5
161B6
330
15FC1
100
AcDbEntity
  8
YODOROGO
100
AcDbLine
 10
14049.06776011545
 20
815.7518186373286
 30
0.0
 11
14049.06776011545
 21
749.8747482146441
 31
0.0
1001
AUTOCAD_POSTSCRIPT_FIGURE
1002
{
1000
PSFILL
1000
Grayscale
1000
Grayscale
1070
   100
1002
}
  0
LINE
  5
161B7
330
15FC1
100
AcDbEntity
  8
YODOROGO
100
AcDbLine
 10
14068.80217064596
 20
815.7518186373286
 30
0.0
 11
14049.06776011545
 21
815.7518186373286
 31
0.0
1001
AUTOCAD_POSTSCRIPT_FIGURE
1002
{
1000
PSFILL
1000
Grayscale
1000
Grayscale
1070
   100
1002
}
  0
LINE
  5
161B8
330
15FC1
100
AcDbEntity
  8
YODOROGO
100
AcDbLine
 10
14068.80217064596
 20
827.751818637328
 30
0.0
 11
14068.80217064596
 21
815.7518186373286
 31
0.0
1001
AUTOCAD_POSTSCRIPT_FIGURE
1002
{
1000
PSFILL
1000
Grayscale
1000
Grayscale
1070
   100
1002
}
  0
LINE
  5
161B9
330
15FC1
100
AcDbEntity
  8
YODOROGO
100
AcDbLine
 10
14049.06776011545
 20
827.751818637328
 30
0.0
 11
14068.80217064596
 21
827.751818637328
 31
0.0
1001
AUTOCAD_POSTSCRIPT_FIGURE
1002
{
1000
PSFILL
1000
Grayscale
1000
Grayscale
1070
   100
1002
}
  0
LINE
  5
161BA
330
15FC1
100
AcDbEntity
  8
YODOROGO
100
AcDbLine
 10
14200.80217064594
 20
833.8747482146439
 30
0.0
 11
14172.80217064596
 21
833.8747482146439
 31
0.0
  0
LINE
  5
161BB
330
15FC1
100
AcDbEntity
  8
YODOROGO
100
AcDbLine
 10
14200.80217064594
 20
805.8747482146443
 30
0.0
 11
14200.80217064594
 21
833.8747482146439
 31
0.0
  0
LINE
  5
161BC
330
15FC1
100
AcDbEntity
  8
YODOROGO
100
AcDbLine
 10
14172.80217064596
 20
833.8747482146439
 30
0.0
 11
14172.80217064596
 21
805.8747482146443
 31
0.0
  0
ARC
  5
161BD
330
15FC1
100
AcDbEntity
  8
YODOROGO
100
AcDbCircle
 10
14256.80217064594
 20
753.8747482146439
 30
0.0
 40
40.0
100
AcDbArc
 50
180.0
 51
270.0
  0
ARC
  5
161BE
330
15FC1
100
AcDbEntity
  8
YODOROGO
100
AcDbCircle
 10
14268.80217064594
 20
781.8747482146434
 30
0.0
 40
20.0
100
AcDbArc
 50
180.0
 51
270.0
  0
LINE
  5
161BF
330
15FC1
100
AcDbEntity
  8
YODOROGO
100
AcDbLine
 10
14280.80217064596
 20
761.8747482146434
 30
0.0
 11
14268.80217064594
 21
761.8747482146434
 31
0.0
  0
ARC
  5
161C0
330
15FC1
100
AcDbEntity
  8
YODOROGO
100
AcDbCircle
 10
14280.80217064596
 20
773.8747482146427
 30
0.0
 40
11.99999999999818
100
AcDbArc
 50
270.0
 51
0.0000000000054281
  0
LINE
  5
161C1
330
15FC1
100
AcDbEntity
  8
YODOROGO
100
AcDbLine
 10
13900.80217064596
 20
945.3932903968532
 30
0.0
 11
13888.80217064596
 21
921.8883739758362
 31
0.0
1001
AUTOCAD_POSTSCRIPT_FIGURE
1002
{
1000
PSFILL
1000
Grayscale
1000
Grayscale
1070
   100
1002
}
  0
LINE
  5
161C2
330
15FC1
100
AcDbEntity
  8
YODOROGO
100
AcDbLine
 10
13900.80217064596
 20
873.8747482146434
 30
0.0
 11
13900.80217064596
 21
945.3932903968532
 31
0.0
1001
AUTOCAD_POSTSCRIPT_FIGURE
1002
{
1000
PSFILL
1000
Grayscale
1000
Grayscale
1070
   100
1002
}
  0
LINE
  5
161C3
330
15FC1
100
AcDbEntity
  8
YODOROGO
100
AcDbLine
 10
13908.80217064596
 20
873.8747482146434
 30
0.0
 11
13900.80217064596
 21
873.8747482146434
 31
0.0
1001
AUTOCAD_POSTSCRIPT_FIGURE
1002
{
1000
PSFILL
1000
Grayscale
1000
Grayscale
1070
   100
1002
}
  0
LINE
  5
161C4
330
15FC1
100
AcDbEntity
  8
YODOROGO
100
AcDbLine
 10
13908.80217064596
 20
946.8856660426332
 30
0.0
 11
13908.80217064596
 21
873.8747482146434
 31
0.0
1001
AUTOCAD_POSTSCRIPT_FIGURE
1002
{
1000
PSFILL
1000
Grayscale
1000
Grayscale
1070
   100
1002
}
  0
LINE
  5
161C5
330
15FC1
100
AcDbEntity
  8
YODOROGO
100
AcDbLine
 10
13920.80217064596
 20
933.8273791420684
 30
0.0
 11
13908.80217064596
 21
946.8856660426332
 31
0.0
1001
AUTOCAD_POSTSCRIPT_FIGURE
1002
{
1000
PSFILL
1000
Grayscale
1000
Grayscale
1070
   100
1002
}
  0
LINE
  5
161C6
330
15FC1
100
AcDbEntity
  8
YODOROGO
100
AcDbLine
 10
13920.80217064596
 20
941.8273791420681
 30
0.0
 11
13920.80217064596
 21
933.8273791420684
 31
0.0
1001
AUTOCAD_POSTSCRIPT_FIGURE
1002
{
1000
PSFILL
1000
Grayscale
1000
Grayscale
1070
   100
1002
}
  0
LINE
  5
161C7
330
15FC1
100
AcDbEntity
  8
YODOROGO
100
AcDbLine
 10
13908.80217064596
 20
958.8856660426325
 30
0.0
 11
13920.80217064596
 21
941.8273791420681
 31
0.0
1001
AUTOCAD_POSTSCRIPT_FIGURE
1002
{
1000
PSFILL
1000
Grayscale
1000
Grayscale
1070
   100
1002
}
  0
LINE
  5
161C8
330
15FC1
100
AcDbEntity
  8
YODOROGO
100
AcDbLine
 10
13908.80217064596
 20
969.8747482146441
 30
0.0
 11
13908.80217064596
 21
958.8856660426325
 31
0.0
1001
AUTOCAD_POSTSCRIPT_FIGURE
1002
{
1000
PSFILL
1000
Grayscale
1000
Grayscale
1070
   100
1002
}
  0
LINE
  5
161C9
330
15FC1
100
AcDbEntity
  8
YODOROGO
100
AcDbLine
 10
13944.80217064596
 20
969.8747482146441
 30
0.0
 11
13908.80217064596
 21
969.8747482146441
 31
0.0
1001
AUTOCAD_POSTSCRIPT_FIGURE
1002
{
1000
PSFILL
1000
Grayscale
1000
Grayscale
1070
   100
1002
}
  0
LINE
  5
161CA
330
15FC1
100
AcDbEntity
  8
YODOROGO
100
AcDbLine
 10
13944.80217064596
 20
950.2841744681497
 30
0.0
 11
13944.80217064596
 21
969.8747482146441
 31
0.0
1001
AUTOCAD_POSTSCRIPT_FIGURE
1002
{
1000
PSFILL
1000
Grayscale
1000
Grayscale
1070
   100
1002
}
  0
LINE
  5
161CB
330
15FC1
100
AcDbEntity
  8
YODOROGO
100
AcDbLine
 10
13928.80217064596
 20
950.2841744681497
 30
0.0
 11
13944.80217064596
 21
950.2841744681497
 31
0.0
1001
AUTOCAD_POSTSCRIPT_FIGURE
1002
{
1000
PSFILL
1000
Grayscale
1000
Grayscale
1070
   100
1002
}
  0
LINE
  5
161CC
330
15FC1
100
AcDbEntity
  8
YODOROGO
100
AcDbLine
 10
13928.80217064596
 20
942.2841744681491
 30
0.0
 11
13928.80217064596
 21
950.2841744681497
 31
0.0
1001
AUTOCAD_POSTSCRIPT_FIGURE
1002
{
1000
PSFILL
1000
Grayscale
1000
Grayscale
1070
   100
1002
}
  0
LINE
  5
161CD
330
15FC1
100
AcDbEntity
  8
YODOROGO
100
AcDbLine
 10
13944.80217064596
 20
942.2841744681491
 30
0.0
 11
13928.80217064596
 21
942.2841744681491
 31
0.0
1001
AUTOCAD_POSTSCRIPT_FIGURE
1002
{
1000
PSFILL
1000
Grayscale
1000
Grayscale
1070
   100
1002
}
  0
LINE
  5
161CE
330
15FC1
100
AcDbEntity
  8
YODOROGO
100
AcDbLine
 10
13944.80217064596
 20
939.8095889822196
 30
0.0
 11
13944.80217064596
 21
942.2841744681491
 31
0.0
1001
AUTOCAD_POSTSCRIPT_FIGURE
1002
{
1000
PSFILL
1000
Grayscale
1000
Grayscale
1070
   100
1002
}
  0
LINE
  5
161CF
330
15FC1
100
AcDbEntity
  8
YODOROGO
100
AcDbLine
 10
13924.80217064596
 20
906.4874905807087
 30
0.0
 11
13944.80217064596
 21
939.8095889822196
 31
0.0
1001
AUTOCAD_POSTSCRIPT_FIGURE
1002
{
1000
PSFILL
1000
Grayscale
1000
Grayscale
1070
   100
1002
}
  0
LINE
  5
161D0
330
15FC1
100
AcDbEntity
  8
YODOROGO
100
AcDbLine
 10
13924.80217064596
 20
898.487490580708
 30
0.0
 11
13924.80217064596
 21
906.4874905807087
 31
0.0
1001
AUTOCAD_POSTSCRIPT_FIGURE
1002
{
1000
PSFILL
1000
Grayscale
1000
Grayscale
1070
   100
1002
}
  0
LINE
  5
161D1
330
15FC1
100
AcDbEntity
  8
YODOROGO
100
AcDbLine
 10
13944.80217064596
 20
923.8095889822183
 30
0.0
 11
13924.80217064596
 21
898.487490580708
 31
0.0
1001
AUTOCAD_POSTSCRIPT_FIGURE
1002
{
1000
PSFILL
1000
Grayscale
1000
Grayscale
1070
   100
1002
}
  0
LINE
  5
161D2
330
15FC1
100
AcDbEntity
  8
YODOROGO
100
AcDbLine
 10
13944.80217064596
 20
873.8747482146434
 30
0.0
 11
13944.80217064596
 21
923.8095889822183
 31
0.0
1001
AUTOCAD_POSTSCRIPT_FIGURE
1002
{
1000
PSFILL
1000
Grayscale
1000
Grayscale
1070
   100
1002
}
  0
LINE
  5
161D3
330
15FC1
100
AcDbEntity
  8
YODOROGO
100
AcDbLine
 10
13952.80217064596
 20
873.8747482146434
 30
0.0
 11
13944.80217064596
 21
873.8747482146434
 31
0.0
1001
AUTOCAD_POSTSCRIPT_FIGURE
1002
{
1000
PSFILL
1000
Grayscale
1000
Grayscale
1070
   100
1002
}
  0
LINE
  5
161D4
330
15FC1
100
AcDbEntity
  8
YODOROGO
100
AcDbLine
 10
13952.80217064596
 20
924.7045060794032
 30
0.0
 11
13952.80217064596
 21
873.8747482146434
 31
0.0
1001
AUTOCAD_POSTSCRIPT_FIGURE
1002
{
1000
PSFILL
1000
Grayscale
1000
Grayscale
1070
   100
1002
}
  0
LINE
  5
161D5
330
15FC1
100
AcDbEntity
  8
YODOROGO
100
AcDbLine
 10
13968.80217064596
 20
898.487490580708
 30
0.0
 11
13952.80217064596
 21
924.7045060794032
 31
0.0
1001
AUTOCAD_POSTSCRIPT_FIGURE
1002
{
1000
PSFILL
1000
Grayscale
1000
Grayscale
1070
   100
1002
}
  0
LINE
  5
161D6
330
15FC1
100
AcDbEntity
  8
YODOROGO
100
AcDbLine
 10
13968.80217064596
 20
906.4874905807087
 30
0.0
 11
13968.80217064596
 21
898.487490580708
 31
0.0
1001
AUTOCAD_POSTSCRIPT_FIGURE
1002
{
1000
PSFILL
1000
Grayscale
1000
Grayscale
1070
   100
1002
}
  0
LINE
  5
161D7
330
15FC1
100
AcDbEntity
  8
YODOROGO
100
AcDbLine
 10
13952.80217064596
 20
940.7045060794041
 30
0.0
 11
13968.80217064596
 21
906.4874905807087
 31
0.0
1001
AUTOCAD_POSTSCRIPT_FIGURE
1002
{
1000
PSFILL
1000
Grayscale
1000
Grayscale
1070
   100
1002
}
  0
LINE
  5
161D8
330
15FC1
100
AcDbEntity
  8
YODOROGO
100
AcDbLine
 10
13952.80217064596
 20
942.2841744681502
 30
0.0
 11
13952.80217064596
 21
940.7045060794041
 31
0.0
1001
AUTOCAD_POSTSCRIPT_FIGURE
1002
{
1000
PSFILL
1000
Grayscale
1000
Grayscale
1070
   100
1002
}
  0
LINE
  5
161D9
330
15FC1
100
AcDbEntity
  8
YODOROGO
100
AcDbLine
 10
13968.80217064596
 20
942.2841744681491
 30
0.0
 11
13952.80217064596
 21
942.2841744681502
 31
0.0
1001
AUTOCAD_POSTSCRIPT_FIGURE
1002
{
1000
PSFILL
1000
Grayscale
1000
Grayscale
1070
   100
1002
}
  0
LINE
  5
161DA
330
15FC1
100
AcDbEntity
  8
YODOROGO
100
AcDbLine
 10
13968.80217064596
 20
950.2841744681497
 30
0.0
 11
13968.80217064596
 21
942.2841744681491
 31
0.0
1001
AUTOCAD_POSTSCRIPT_FIGURE
1002
{
1000
PSFILL
1000
Grayscale
1000
Grayscale
1070
   100
1002
}
  0
LINE
  5
161DB
330
15FC1
100
AcDbEntity
  8
YODOROGO
100
AcDbLine
 10
13952.80217064596
 20
950.2841744681497
 30
0.0
 11
13968.80217064596
 21
950.2841744681497
 31
0.0
1001
AUTOCAD_POSTSCRIPT_FIGURE
1002
{
1000
PSFILL
1000
Grayscale
1000
Grayscale
1070
   100
1002
}
  0
LINE
  5
161DC
330
15FC1
100
AcDbEntity
  8
YODOROGO
100
AcDbLine
 10
13952.80217064596
 20
969.8747482146441
 30
0.0
 11
13952.80217064596
 21
950.2841744681497
 31
0.0
1001
AUTOCAD_POSTSCRIPT_FIGURE
1002
{
1000
PSFILL
1000
Grayscale
1000
Grayscale
1070
   100
1002
}
  0
LINE
  5
161DD
330
15FC1
100
AcDbEntity
  8
YODOROGO
100
AcDbLine
 10
13968.80217064596
 20
969.8747482146441
 30
0.0
 11
13952.80217064596
 21
969.8747482146441
 31
0.0
1001
AUTOCAD_POSTSCRIPT_FIGURE
1002
{
1000
PSFILL
1000
Grayscale
1000
Grayscale
1070
   100
1002
}
  0
LINE
  5
161DE
330
15FC1
100
AcDbEntity
  8
YODOROGO
100
AcDbLine
 10
13968.80217064596
 20
977.8747482146435
 30
0.0
 11
13968.80217064596
 21
969.8747482146441
 31
0.0
1001
AUTOCAD_POSTSCRIPT_FIGURE
1002
{
1000
PSFILL
1000
Grayscale
1000
Grayscale
1070
   100
1002
}
  0
LINE
  5
161DF
330
15FC1
100
AcDbEntity
  8
YODOROGO
100
AcDbLine
 10
13952.80217064596
 20
977.8747482146435
 30
0.0
 11
13968.80217064596
 21
977.8747482146435
 31
0.0
1001
AUTOCAD_POSTSCRIPT_FIGURE
1002
{
1000
PSFILL
1000
Grayscale
1000
Grayscale
1070
   100
1002
}
  0
LINE
  5
161E0
330
15FC1
100
AcDbEntity
  8
YODOROGO
100
AcDbLine
 10
13952.80217064596
 20
989.8747482146442
 30
0.0
 11
13952.80217064596
 21
977.8747482146435
 31
0.0
1001
AUTOCAD_POSTSCRIPT_FIGURE
1002
{
1000
PSFILL
1000
Grayscale
1000
Grayscale
1070
   100
1002
}
  0
LINE
  5
161E1
330
15FC1
100
AcDbEntity
  8
YODOROGO
100
AcDbLine
 10
13944.80217064596
 20
989.8747482146442
 30
0.0
 11
13952.80217064596
 21
989.8747482146442
 31
0.0
1001
AUTOCAD_POSTSCRIPT_FIGURE
1002
{
1000
PSFILL
1000
Grayscale
1000
Grayscale
1070
   100
1002
}
  0
LINE
  5
161E2
330
15FC1
100
AcDbEntity
  8
YODOROGO
100
AcDbLine
 10
13944.80217064596
 20
977.8747482146435
 30
0.0
 11
13944.80217064596
 21
989.8747482146442
 31
0.0
1001
AUTOCAD_POSTSCRIPT_FIGURE
1002
{
1000
PSFILL
1000
Grayscale
1000
Grayscale
1070
   100
1002
}
  0
LINE
  5
161E3
330
15FC1
100
AcDbEntity
  8
YODOROGO
100
AcDbLine
 10
13932.80217064596
 20
977.8747482146435
 30
0.0
 11
13944.80217064596
 21
977.8747482146435
 31
0.0
1001
AUTOCAD_POSTSCRIPT_FIGURE
1002
{
1000
PSFILL
1000
Grayscale
1000
Grayscale
1070
   100
1002
}
  0
LINE
  5
161E4
330
15FC1
100
AcDbEntity
  8
YODOROGO
100
AcDbLine
 10
13932.80217064596
 20
989.8747482146442
 30
0.0
 11
13932.80217064596
 21
977.8747482146435
 31
0.0
1001
AUTOCAD_POSTSCRIPT_FIGURE
1002
{
1000
PSFILL
1000
Grayscale
1000
Grayscale
1070
   100
1002
}
  0
LINE
  5
161E5
330
15FC1
100
AcDbEntity
  8
YODOROGO
100
AcDbLine
 10
13924.80217064596
 20
989.8747482146442
 30
0.0
 11
13932.80217064596
 21
989.8747482146442
 31
0.0
1001
AUTOCAD_POSTSCRIPT_FIGURE
1002
{
1000
PSFILL
1000
Grayscale
1000
Grayscale
1070
   100
1002
}
  0
LINE
  5
161E6
330
15FC1
100
AcDbEntity
  8
YODOROGO
100
AcDbLine
 10
13924.80217064596
 20
977.8747482146435
 30
0.0
 11
13924.80217064596
 21
989.8747482146442
 31
0.0
1001
AUTOCAD_POSTSCRIPT_FIGURE
1002
{
1000
PSFILL
1000
Grayscale
1000
Grayscale
1070
   100
1002
}
  0
LINE
  5
161E7
330
15FC1
100
AcDbEntity
  8
YODOROGO
100
AcDbLine
 10
13908.80217064596
 20
977.8747482146435
 30
0.0
 11
13924.80217064596
 21
977.8747482146435
 31
0.0
1001
AUTOCAD_POSTSCRIPT_FIGURE
1002
{
1000
PSFILL
1000
Grayscale
1000
Grayscale
1070
   100
1002
}
  0
LINE
  5
161E8
330
15FC1
100
AcDbEntity
  8
YODOROGO
100
AcDbLine
 10
13908.80217064596
 20
989.8747482146442
 30
0.0
 11
13908.80217064596
 21
977.8747482146435
 31
0.0
1001
AUTOCAD_POSTSCRIPT_FIGURE
1002
{
1000
PSFILL
1000
Grayscale
1000
Grayscale
1070
   100
1002
}
  0
LINE
  5
161E9
330
15FC1
100
AcDbEntity
  8
YODOROGO
100
AcDbLine
 10
13900.80217064596
 20
989.8747482146442
 30
0.0
 11
13908.80217064596
 21
989.8747482146442
 31
0.0
1001
AUTOCAD_POSTSCRIPT_FIGURE
1002
{
1000
PSFILL
1000
Grayscale
1000
Grayscale
1070
   100
1002
}
  0
LINE
  5
161EA
330
15FC1
100
AcDbEntity
  8
YODOROGO
100
AcDbLine
 10
13900.80217064596
 20
977.8747482146435
 30
0.0
 11
13900.80217064596
 21
989.8747482146442
 31
0.0
1001
AUTOCAD_POSTSCRIPT_FIGURE
1002
{
1000
PSFILL
1000
Grayscale
1000
Grayscale
1070
   100
1002
}
  0
LINE
  5
161EB
330
15FC1
100
AcDbEntity
  8
YODOROGO
100
AcDbLine
 10
13888.80217064596
 20
977.8747482146435
 30
0.0
 11
13900.80217064596
 21
977.8747482146435
 31
0.0
1001
AUTOCAD_POSTSCRIPT_FIGURE
1002
{
1000
PSFILL
1000
Grayscale
1000
Grayscale
1070
   100
1002
}
  0
LINE
  5
161EC
330
15FC1
100
AcDbEntity
  8
YODOROGO
100
AcDbLine
 10
13888.80217064596
 20
969.8747482146441
 30
0.0
 11
13888.80217064596
 21
977.8747482146435
 31
0.0
1001
AUTOCAD_POSTSCRIPT_FIGURE
1002
{
1000
PSFILL
1000
Grayscale
1000
Grayscale
1070
   100
1002
}
  0
LINE
  5
161ED
330
15FC1
100
AcDbEntity
  8
YODOROGO
100
AcDbLine
 10
13900.80217064596
 20
969.8747482146441
 30
0.0
 11
13888.80217064596
 21
969.8747482146441
 31
0.0
1001
AUTOCAD_POSTSCRIPT_FIGURE
1002
{
1000
PSFILL
1000
Grayscale
1000
Grayscale
1070
   100
1002
}
  0
LINE
  5
161EE
330
15FC1
100
AcDbEntity
  8
YODOROGO
100
AcDbLine
 10
13900.80217064596
 20
957.3932903968525
 30
0.0
 11
13900.80217064596
 21
969.8747482146441
 31
0.0
1001
AUTOCAD_POSTSCRIPT_FIGURE
1002
{
1000
PSFILL
1000
Grayscale
1000
Grayscale
1070
   100
1002
}
  0
LINE
  5
161EF
330
15FC1
100
AcDbEntity
  8
YODOROGO
100
AcDbLine
 10
13888.80217064596
 20
929.8883739758355
 30
0.0
 11
13900.80217064596
 21
957.3932903968525
 31
0.0
1001
AUTOCAD_POSTSCRIPT_FIGURE
1002
{
1000
PSFILL
1000
Grayscale
1000
Grayscale
1070
   100
1002
}
  0
LINE
  5
161F0
330
15FC1
100
AcDbEntity
  8
YODOROGO
100
AcDbLine
 10
13888.80217064596
 20
921.8883739758362
 30
0.0
 11
13888.80217064596
 21
929.8883739758355
 31
0.0
1001
AUTOCAD_POSTSCRIPT_FIGURE
1002
{
1000
PSFILL
1000
Grayscale
1000
Grayscale
1070
   100
1002
}
  0
LINE
  5
161F1
330
15FC1
100
AcDbEntity
  8
YODOROGO
100
AcDbLine
 10
14128.80217064596
 20
933.8747482146439
 30
0.0
 11
14200.80217064594
 21
912.4388128201532
 31
0.0
1001
AUTOCAD_POSTSCRIPT_FIGURE
1002
{
1000
PSFILL
1000
Grayscale
1000
Grayscale
1070
   100
1002
}
  0
LINE
  5
161F2
330
15FC1
100
AcDbEntity
  8
YODOROGO
100
AcDbLine
 10
14200.80217064594
 20
876.4388128201531
 30
0.0
 11
14128.80217064596
 21
897.8747482146435
 31
0.0
1001
AUTOCAD_POSTSCRIPT_FIGURE
1002
{
1000
PSFILL
1000
Grayscale
1000
Grayscale
1070
   100
1002
}
  0
LINE
  5
161F3
330
15FC1
100
AcDbEntity
  8
YODOROGO
100
AcDbLine
 10
14200.80217064594
 20
992.4388128201531
 30
0.0
 11
14128.80217064596
 21
1013.874748214644
 31
0.0
1001
AUTOCAD_POSTSCRIPT_FIGURE
1002
{
1000
PSFILL
1000
Grayscale
1000
Grayscale
1070
   100
1002
}
  0
LINE
  5
161F4
330
15FC1
100
AcDbEntity
  8
YODOROGO
100
AcDbLine
 10
14128.80217064596
 20
979.874748214644
 30
0.0
 11
14200.80217064594
 21
958.4388128201537
 31
0.0
1001
AUTOCAD_POSTSCRIPT_FIGURE
1002
{
1000
PSFILL
1000
Grayscale
1000
Grayscale
1070
   100
1002
}
  0
LINE
  5
161F5
330
15FC1
100
AcDbEntity
  8
YODOROGO
100
AcDbLine
 10
14128.80217064596
 20
897.8747482146435
 30
0.0
 11
14128.80217064596
 21
933.8747482146439
 31
0.0
1001
AUTOCAD_POSTSCRIPT_FIGURE
1002
{
1000
PSFILL
1000
Grayscale
1000
Grayscale
1070
   100
1002
}
  0
LINE
  5
161F6
330
15FC1
100
AcDbEntity
  8
YODOROGO
100
AcDbLine
 10
14128.80217064596
 20
1013.874748214644
 30
0.0
 11
14128.80217064596
 21
979.874748214644
 31
0.0
1001
AUTOCAD_POSTSCRIPT_FIGURE
1002
{
1000
PSFILL
1000
Grayscale
1000
Grayscale
1070
   100
1002
}
  0
LINE
  5
161F7
330
15FC1
100
AcDbEntity
  8
YODOROGO
100
AcDbLine
 10
14040.11816010337
 20
969.8747482146441
 30
0.0
 11
14064.80217064595
 21
873.8747482146434
 31
0.0
1001
AUTOCAD_POSTSCRIPT_FIGURE
1002
{
1000
PSFILL
1000
Grayscale
1000
Grayscale
1070
   100
1002
}
  0
LINE
  5
161F8
330
15FC1
100
AcDbEntity
  8
YODOROGO
100
AcDbLine
 10
13988.80217064596
 20
969.8747482146441
 30
0.0
 11
14040.11816010337
 21
969.8747482146441
 31
0.0
1001
AUTOCAD_POSTSCRIPT_FIGURE
1002
{
1000
PSFILL
1000
Grayscale
1000
Grayscale
1070
   100
1002
}
  0
LINE
  5
161F9
330
15FC1
100
AcDbEntity
  8
YODOROGO
100
AcDbLine
 10
13988.80217064596
 20
977.8747482146435
 30
0.0
 11
13988.80217064596
 21
969.8747482146441
 31
0.0
1001
AUTOCAD_POSTSCRIPT_FIGURE
1002
{
1000
PSFILL
1000
Grayscale
1000
Grayscale
1070
   100
1002
}
  0
LINE
  5
161FA
330
15FC1
100
AcDbEntity
  8
YODOROGO
100
AcDbLine
 10
14038.30343925995
 20
977.8747482146435
 30
0.0
 11
13988.80217064596
 21
977.8747482146435
 31
0.0
1001
AUTOCAD_POSTSCRIPT_FIGURE
1002
{
1000
PSFILL
1000
Grayscale
1000
Grayscale
1070
   100
1002
}
  0
LINE
  5
161FB
330
15FC1
100
AcDbEntity
  8
YODOROGO
100
AcDbLine
 10
14035.58135799485
 20
989.8747482146442
 30
0.0
 11
14038.30343925995
 21
977.8747482146435
 31
0.0
1001
AUTOCAD_POSTSCRIPT_FIGURE
1002
{
1000
PSFILL
1000
Grayscale
1000
Grayscale
1070
   100
1002
}
  0
LINE
  5
161FC
330
15FC1
100
AcDbEntity
  8
YODOROGO
100
AcDbLine
 10
14045.58135799485
 20
989.8747482146442
 30
0.0
 11
14035.58135799485
 21
989.8747482146442
 31
0.0
1001
AUTOCAD_POSTSCRIPT_FIGURE
1002
{
1000
PSFILL
1000
Grayscale
1000
Grayscale
1070
   100
1002
}
  0
LINE
  5
161FD
330
15FC1
100
AcDbEntity
  8
YODOROGO
100
AcDbLine
 10
14047.90343925997
 20
977.8747482146435
 30
0.0
 11
14045.58135799485
 21
989.8747482146442
 31
0.0
1001
AUTOCAD_POSTSCRIPT_FIGURE
1002
{
1000
PSFILL
1000
Grayscale
1000
Grayscale
1070
   100
1002
}
  0
LINE
  5
161FE
330
15FC1
100
AcDbEntity
  8
YODOROGO
100
AcDbLine
 10
14060.80217064596
 20
977.8747482146435
 30
0.0
 11
14047.90343925997
 21
977.8747482146435
 31
0.0
1001
AUTOCAD_POSTSCRIPT_FIGURE
1002
{
1000
PSFILL
1000
Grayscale
1000
Grayscale
1070
   100
1002
}
  0
LINE
  5
161FF
330
15FC1
100
AcDbEntity
  8
YODOROGO
100
AcDbLine
 10
14060.80217064596
 20
989.8747482146442
 30
0.0
 11
14060.80217064596
 21
977.8747482146435
 31
0.0
1001
AUTOCAD_POSTSCRIPT_FIGURE
1002
{
1000
PSFILL
1000
Grayscale
1000
Grayscale
1070
   100
1002
}
  0
LINE
  5
16200
330
15FC1
100
AcDbEntity
  8
YODOROGO
100
AcDbLine
 10
14068.80217064596
 20
989.8747482146442
 30
0.0
 11
14060.80217064596
 21
989.8747482146442
 31
0.0
1001
AUTOCAD_POSTSCRIPT_FIGURE
1002
{
1000
PSFILL
1000
Grayscale
1000
Grayscale
1070
   100
1002
}
  0
LINE
  5
16201
330
15FC1
100
AcDbEntity
  8
YODOROGO
100
AcDbLine
 10
14068.80217064596
 20
977.8747482146435
 30
0.0
 11
14068.80217064596
 21
989.8747482146442
 31
0.0
1001
AUTOCAD_POSTSCRIPT_FIGURE
1002
{
1000
PSFILL
1000
Grayscale
1000
Grayscale
1070
   100
1002
}
  0
LINE
  5
16202
330
15FC1
100
AcDbEntity
  8
YODOROGO
100
AcDbLine
 10
14068.80217064596
 20
969.8747482146441
 30
0.0
 11
14068.80217064596
 21
977.8747482146435
 31
0.0
1001
AUTOCAD_POSTSCRIPT_FIGURE
1002
{
1000
PSFILL
1000
Grayscale
1000
Grayscale
1070
   100
1002
}
  0
LINE
  5
16203
330
15FC1
100
AcDbEntity
  8
YODOROGO
100
AcDbLine
 10
14049.45149343671
 20
969.8747482146441
 30
0.0
 11
14068.80217064596
 21
969.8747482146441
 31
0.0
1001
AUTOCAD_POSTSCRIPT_FIGURE
1002
{
1000
PSFILL
1000
Grayscale
1000
Grayscale
1070
   100
1002
}
  0
LINE
  5
16204
330
15FC1
100
AcDbEntity
  8
YODOROGO
100
AcDbLine
 10
14068.80217064596
 20
873.8747482146434
 30
0.0
 11
14049.45149343671
 21
969.8747482146441
 31
0.0
1001
AUTOCAD_POSTSCRIPT_FIGURE
1002
{
1000
PSFILL
1000
Grayscale
1000
Grayscale
1070
   100
1002
}
  0
LINE
  5
16205
330
15FC1
100
AcDbEntity
  8
YODOROGO
100
AcDbLine
 10
14064.80217064595
 20
873.8747482146434
 30
0.0
 11
14068.80217064596
 21
873.8747482146434
 31
0.0
1001
AUTOCAD_POSTSCRIPT_FIGURE
1002
{
1000
PSFILL
1000
Grayscale
1000
Grayscale
1070
   100
1002
}
  0
LINE
  5
16206
330
15FC1
100
AcDbEntity
  8
YODOROGO
100
AcDbLine
 10
14039.03460996689
 20
887.8703881493972
 30
0.0
 11
13988.80217064596
 21
873.8747482146434
 31
0.0
  0
LINE
  5
16207
330
15FC1
100
AcDbEntity
  8
YODOROGO
100
AcDbLine
 10
14039.03460996689
 20
899.3344897645364
 30
0.0
 11
14039.03460996689
 21
887.8703881493972
 31
0.0
  0
LINE
  5
16208
330
15FC1
100
AcDbEntity
  8
YODOROGO
100
AcDbLine
 10
14016.91839030643
 20
893.4084665668834
 30
0.0
 11
14039.03460996689
 21
899.3344897645364
 31
0.0
  0
LINE
  5
16209
330
15FC1
100
AcDbEntity
  8
YODOROGO
100
AcDbLine
 10
14016.91839030643
 20
936.2841744681499
 30
0.0
 11
14016.91839030643
 21
893.4084665668834
 31
0.0
  0
LINE
  5
1620A
330
15FC1
100
AcDbEntity
  8
YODOROGO
100
AcDbLine
 10
14039.03460996689
 20
936.2841744681499
 30
0.0
 11
14016.91839030643
 21
936.2841744681499
 31
0.0
  0
LINE
  5
1620B
330
15FC1
100
AcDbEntity
  8
YODOROGO
100
AcDbLine
 10
14039.03460996689
 20
946.2841744681487
 30
0.0
 11
14039.03460996689
 21
936.2841744681499
 31
0.0
  0
LINE
  5
1620C
330
15FC1
100
AcDbEntity
  8
YODOROGO
100
AcDbLine
 10
13988.80217064596
 20
946.2841744681487
 30
0.0
 11
14039.03460996689
 21
946.2841744681487
 31
0.0
  0
LINE
  5
1620D
330
15FC1
100
AcDbEntity
  8
YODOROGO
100
AcDbLine
 10
13988.80217064596
 20
936.2841744681499
 30
0.0
 11
13988.80217064596
 21
946.2841744681487
 31
0.0
  0
LINE
  5
1620E
330
15FC1
100
AcDbEntity
  8
YODOROGO
100
AcDbLine
 10
14010.91839030643
 20
936.2841744681499
 30
0.0
 11
13988.80217064596
 21
936.2841744681499
 31
0.0
  0
LINE
  5
1620F
330
15FC1
100
AcDbEntity
  8
YODOROGO
100
AcDbLine
 10
14010.91839030643
 20
892.3366697971587
 30
0.0
 11
14010.91839030643
 21
936.2841744681499
 31
0.0
  0
LINE
  5
16210
330
15FC1
100
AcDbEntity
  8
YODOROGO
100
AcDbLine
 10
13988.80217064596
 20
885.8747482146432
 30
0.0
 11
14010.91839030643
 21
892.3366697971587
 31
0.0
  0
LINE
  5
16211
330
15FC1
100
AcDbEntity
  8
YODOROGO
100
AcDbLine
 10
13988.80217064596
 20
873.8747482146434
 30
0.0
 11
13988.80217064596
 21
885.8747482146432
 31
0.0
  0
LINE
  5
16212
330
15FC1
100
AcDbEntity
  8
YODOROGO
100
AcDbLine
 10
14000.80217064596
 20
853.874748214644
 30
0.0
 11
14000.80217064596
 21
841.8747482146434
 31
0.0
  0
LINE
  5
16213
330
15FC1
100
AcDbEntity
  8
YODOROGO
100
AcDbLine
 10
14000.80217064596
 20
853.874748214644
 30
0.0
 11
14000.80217064596
 21
853.874748214644
 31
0.0
  0
LINE
  5
16214
330
15FC1
100
AcDbEntity
  8
YODOROGO
100
AcDbLine
 10
14008.80217064596
 20
853.874748214644
 30
0.0
 11
14000.80217064596
 21
853.874748214644
 31
0.0
  0
LINE
  5
16215
330
15FC1
100
AcDbEntity
  8
YODOROGO
100
AcDbLine
 10
14008.80217064596
 20
841.8747482146434
 30
0.0
 11
14008.80217064596
 21
853.874748214644
 31
0.0
  0
LINE
  5
16216
330
15FC1
100
AcDbEntity
  8
YODOROGO
100
AcDbLine
 10
14020.45660200844
 20
841.8747482146434
 30
0.0
 11
14008.80217064596
 21
841.8747482146434
 31
0.0
  0
LINE
  5
16217
330
15FC1
100
AcDbEntity
  8
YODOROGO
100
AcDbLine
 10
14000.80217064596
 20
841.8747482146434
 30
0.0
 11
13988.80217064596
 21
841.8747482146434
 31
0.0
  0
LINE
  5
16218
330
15FC1
100
AcDbEntity
  8
YODOROGO
100
AcDbLine
 10
14041.06776011546
 20
853.874748214644
 30
0.0
 11
14049.06776011545
 21
853.874748214644
 31
0.0
1001
AUTOCAD_POSTSCRIPT_FIGURE
1002
{
1000
PSFILL
1000
Grayscale
1000
Grayscale
1070
   100
1002
}
  0
LINE
  5
16219
330
15FC1
100
AcDbEntity
  8
YODOROGO
100
AcDbLine
 10
14200.80217064594
 20
912.4388128201532
 30
0.0
 11
14200.80217064594
 21
876.4388128201531
 31
0.0
1001
AUTOCAD_POSTSCRIPT_FIGURE
1002
{
1000
PSFILL
1000
Grayscale
1000
Grayscale
1070
   100
1002
}
  0
LINE
  5
1621A
330
15FC1
100
AcDbEntity
  8
YODOROGO
100
AcDbLine
 10
14200.80217064594
 20
958.4388128201537
 30
0.0
 11
14200.80217064594
 21
992.4388128201531
 31
0.0
1001
AUTOCAD_POSTSCRIPT_FIGURE
1002
{
1000
PSFILL
1000
Grayscale
1000
Grayscale
1070
   100
1002
}
  0
LINE
  5
1621B
330
15FC1
100
AcDbEntity
  8
YODOROGO
100
AcDbLine
 10
14216.80217064594
 20
909.8747482146439
 30
0.0
 11
14216.80217064594
 21
873.8747482146449
 31
0.0
  0
LINE
  5
1621C
330
15FC1
100
AcDbEntity
  8
YODOROGO
100
AcDbLine
 10
14248.80217064594
 20
853.874748214644
 30
0.0
 11
14216.80217064594
 21
853.874748214644
 31
0.0
  0
LINE
  5
1621D
330
15FC1
100
AcDbEntity
  8
YODOROGO
100
AcDbLine
 10
14216.80217064594
 20
873.8747482146449
 30
0.0
 11
14292.80217064596
 21
873.8747482146449
 31
0.0
  0
LINE
  5
1621E
330
15FC1
100
AcDbEntity
  8
YODOROGO
100
AcDbLine
 10
14248.80217064594
 20
933.8747482146439
 30
0.0
 11
14216.80217064594
 21
933.8747482146439
 31
0.0
  0
LINE
  5
1621F
330
15FC1
100
AcDbEntity
  8
YODOROGO
100
AcDbLine
 10
14248.80217064594
 20
961.8747482146432
 30
0.0
 11
14248.80217064594
 21
933.8747482146439
 31
0.0
  0
LINE
  5
16220
330
15FC1
100
AcDbEntity
  8
YODOROGO
100
AcDbLine
 10
14292.80217064596
 20
993.8747482146439
 30
0.0
 11
14292.80217064596
 21
1013.874748214644
 31
0.0
  0
LINE
  5
16221
330
15FC1
100
AcDbEntity
  8
YODOROGO
100
AcDbLine
 10
14216.80217064594
 20
993.8747482146439
 30
0.0
 11
14292.80217064596
 21
993.8747482146439
 31
0.0
  0
LINE
  5
16222
330
15FC1
100
AcDbEntity
  8
YODOROGO
100
AcDbLine
 10
14216.80217064594
 20
933.8747482146439
 30
0.0
 11
14216.80217064594
 21
993.8747482146439
 31
0.0
  0
LINE
  5
16223
330
15FC1
100
AcDbEntity
  8
YODOROGO
100
AcDbLine
 10
14500.80217064594
 20
1013.874748214644
 30
0.0
 11
14500.80217064594
 21
809.8747482146441
 31
0.0
  0
LINE
  5
16224
330
15FC1
100
AcDbEntity
  8
YODOROGO
100
AcDbLine
 10
14536.80217064596
 20
789.8747482146441
 30
0.0
 11
14536.80217064596
 21
1013.874748214644
 31
0.0
  0
LINE
  5
16225
330
15FC1
100
AcDbEntity
  8
YODOROGO
100
AcDbLine
 10
14630.80217064596
 20
745.8747482146431
 30
0.0
 11
14630.80217064596
 21
1003.874748214644
 31
0.0
  0
LINE
  5
16226
330
15FC1
100
AcDbEntity
  8
YODOROGO
100
AcDbLine
 10
14598.80217064596
 20
1003.874748214644
 30
0.0
 11
14598.80217064596
 21
745.8747482146431
 31
0.0
  0
LINE
  5
16227
330
15FC1
100
AcDbEntity
  8
YODOROGO
100
AcDbLine
 10
14692.80217064596
 20
1013.874748214644
 30
0.0
 11
14692.80217064596
 21
713.8747482146436
 31
0.0
  0
LINE
  5
16228
330
15FC1
100
AcDbEntity
  8
YODOROGO
100
AcDbLine
 10
14728.80217064596
 20
713.8747482146436
 30
0.0
 11
14728.80217064596
 21
1013.874748214644
 31
0.0
  0
LINE
  5
16229
330
15FC1
100
AcDbEntity
  8
YODOROGO
100
AcDbLine
 10
14328.80217064594
 20
833.8747482146439
 30
0.0
 11
14328.80217064594
 21
873.8747482146449
 31
0.0
  0
LINE
  5
1622A
330
15FC1
100
AcDbEntity
  8
YODOROGO
100
AcDbLine
 10
14942.80217064596
 20
853.874748214644
 30
0.0
 11
14942.80217064596
 21
833.8747482146439
 31
0.0
  0
LINE
  5
1622B
330
15FC1
100
AcDbEntity
  8
YODOROGO
100
AcDbLine
 10
14942.80217064596
 20
853.874748214644
 30
0.0
 11
14942.80217064596
 21
833.8747482146439
 31
0.0
  0
ARC
  5
1622C
330
15FC1
100
AcDbEntity
  8
YODOROGO
100
AcDbCircle
 10
14453.45578809342
 20
809.1089322211363
 30
0.0
 40
47.35257558937082
100
AcDbArc
 50
274.052441629071
 51
0.9266642149310712
  0
ARC
  5
1622D
330
15FC1
100
AcDbEntity
  8
YODOROGO
100
AcDbCircle
 10
14454.5930853599
 20
796.30536430522
 30
0.0
 40
82.46021178042756
100
AcDbArc
 50
271.5351210653777
 51
355.5272775058505
  0
LINE
  5
1622E
330
15FC1
100
AcDbEntity
  8
YODOROGO
100
AcDbLine
 10
14456.80217064596
 20
761.8747482146434
 30
0.0
 11
14456.80217064596
 21
713.8747482146436
 31
0.0
  0
LINE
  5
1622F
330
15FC1
100
AcDbEntity
  8
YODOROGO
100
AcDbLine
 10
14396.80217064594
 20
833.8747482146439
 30
0.0
 11
14328.80217064594
 21
833.8747482146439
 31
0.0
  0
LINE
  5
16230
330
15FC1
100
AcDbEntity
  8
YODOROGO
100
AcDbLine
 10
14396.80217064594
 20
801.8747482146444
 30
0.0
 11
14396.80217064594
 21
833.8747482146439
 31
0.0
  0
LINE
  5
16231
330
15FC1
100
AcDbEntity
  8
YODOROGO
100
AcDbLine
 10
14328.80217064594
 20
801.8747482146444
 30
0.0
 11
14396.80217064594
 21
801.8747482146444
 31
0.0
  0
LINE
  5
16232
330
15FC1
100
AcDbEntity
  8
YODOROGO
100
AcDbLine
 10
14328.80217064594
 20
761.8747482146434
 30
0.0
 11
14328.80217064594
 21
801.8747482146444
 31
0.0
  0
LINE
  5
16233
330
15FC1
100
AcDbEntity
  8
YODOROGO
100
AcDbLine
 10
14396.80217064594
 20
761.8747482146434
 30
0.0
 11
14328.80217064594
 21
761.8747482146434
 31
0.0
  0
LINE
  5
16234
330
15FC1
100
AcDbEntity
  8
YODOROGO
100
AcDbLine
 10
14396.80217064594
 20
713.8747482146436
 30
0.0
 11
14396.80217064594
 21
761.8747482146434
 31
0.0
  0
LINE
  5
16235
330
15FC1
100
AcDbEntity
  8
YODOROGO
100
AcDbLine
 10
14598.80217064596
 20
745.8747482146431
 30
0.0
 11
14630.80217064596
 21
745.8747482146431
 31
0.0
  0
LINE
  5
16236
330
15FC1
100
AcDbEntity
  8
YODOROGO
100
AcDbLine
 10
14692.80217064596
 20
713.8747482146436
 30
0.0
 11
14728.80217064596
 21
713.8747482146436
 31
0.0
  0
LINE
  5
16237
330
15FC1
100
AcDbEntity
  8
YODOROGO
100
AcDbLine
 10
14868.80217064596
 20
764.2207260852818
 30
0.0
 11
14868.80217064596
 21
713.8747482146436
 31
0.0
  0
LINE
  5
16238
330
15FC1
100
AcDbEntity
  8
YODOROGO
100
AcDbLine
 10
14808.80217064596
 20
713.8747482146436
 30
0.0
 11
14868.80217064596
 21
764.2207260852818
 31
0.0
  0
LINE
  5
16239
330
15FC1
100
AcDbEntity
  8
YODOROGO
100
AcDbLine
 10
14808.80217064596
 20
773.874748214644
 30
0.0
 11
14808.80217064596
 21
713.8747482146436
 31
0.0
  0
LINE
  5
1623A
330
15FC1
100
AcDbEntity
  8
YODOROGO
100
AcDbLine
 10
14856.47231434973
 20
813.8747482146435
 30
0.0
 11
14808.80217064596
 21
773.874748214644
 31
0.0
  0
LINE
  5
1623B
330
15FC1
100
AcDbEntity
  8
YODOROGO
100
AcDbLine
 10
14808.80217064596
 20
813.8747482146435
 30
0.0
 11
14856.47231434973
 21
813.8747482146435
 31
0.0
  0
LINE
  5
1623C
330
15FC1
100
AcDbEntity
  8
YODOROGO
100
AcDbLine
 10
14808.80217064596
 20
833.8747482146439
 30
0.0
 11
14808.80217064596
 21
813.8747482146435
 31
0.0
  0
LINE
  5
1623D
330
15FC1
100
AcDbEntity
  8
YODOROGO
100
AcDbLine
 10
14942.80217064596
 20
833.8747482146439
 30
0.0
 11
14808.80217064596
 21
833.8747482146439
 31
0.0
  0
LINE
  5
1623E
330
15FC1
100
AcDbEntity
  8
YODOROGO
100
AcDbLine
 10
14958.80217064596
 20
813.8747482146435
 30
0.0
 11
14888.80217064596
 21
813.8747482146435
 31
0.0
  0
LINE
  5
1623F
330
15FC1
100
AcDbEntity
  8
YODOROGO
100
AcDbLine
 10
14888.80217064596
 20
781.0027187088283
 30
0.0
 11
14885.70493649264
 21
778.403830673117
 31
0.0
  0
LINE
  5
16240
330
15FC1
100
AcDbEntity
  8
YODOROGO
100
AcDbLine
 10
14888.80217064596
 20
813.8747482146435
 30
0.0
 11
14888.80217064596
 21
781.0027187088283
 31
0.0
  0
LINE
  5
16241
330
15FC1
100
AcDbEntity
  8
YODOROGO
100
AcDbLine
 10
14868.80217064596
 20
764.2207260852818
 30
0.0
 11
14868.80217064596
 21
713.8747482146436
 31
0.0
  0
LINE
  5
16242
330
15FC1
100
AcDbEntity
  8
YODOROGO
100
AcDbLine
 10
14808.80217064596
 20
713.8747482146436
 30
0.0
 11
14868.80217064596
 21
764.2207260852818
 31
0.0
  0
LINE
  5
16243
330
15FC1
100
AcDbEntity
  8
YODOROGO
100
AcDbLine
 10
14808.80217064596
 20
773.874748214644
 30
0.0
 11
14808.80217064596
 21
713.8747482146436
 31
0.0
  0
LINE
  5
16244
330
15FC1
100
AcDbEntity
  8
YODOROGO
100
AcDbLine
 10
14856.47231434973
 20
813.8747482146435
 30
0.0
 11
14808.80217064596
 21
773.874748214644
 31
0.0
  0
LINE
  5
16245
330
15FC1
100
AcDbEntity
  8
YODOROGO
100
AcDbLine
 10
14808.80217064596
 20
813.8747482146435
 30
0.0
 11
14856.47231434973
 21
813.8747482146435
 31
0.0
  0
LINE
  5
16246
330
15FC1
100
AcDbEntity
  8
YODOROGO
100
AcDbLine
 10
14808.80217064596
 20
833.8747482146439
 30
0.0
 11
14808.80217064596
 21
813.8747482146435
 31
0.0
  0
LINE
  5
16247
330
15FC1
100
AcDbEntity
  8
YODOROGO
100
AcDbLine
 10
14942.80217064596
 20
833.8747482146439
 30
0.0
 11
14808.80217064596
 21
833.8747482146439
 31
0.0
  0
LINE
  5
16248
330
15FC1
100
AcDbEntity
  8
YODOROGO
100
AcDbLine
 10
14396.80217064594
 20
873.8747482146449
 30
0.0
 11
14396.80217064594
 21
909.8747482146439
 31
0.0
  0
LINE
  5
16249
330
15FC1
100
AcDbEntity
  8
YODOROGO
100
AcDbLine
 10
14328.80217064594
 20
873.8747482146449
 30
0.0
 11
14396.80217064594
 21
873.8747482146449
 31
0.0
  0
LINE
  5
1624A
330
15FC1
100
AcDbEntity
  8
YODOROGO
100
AcDbLine
 10
14364.80217064596
 20
933.8747482146439
 30
0.0
 11
14364.80217064596
 21
961.8747482146432
 31
0.0
  0
LINE
  5
1624B
330
15FC1
100
AcDbEntity
  8
YODOROGO
100
AcDbLine
 10
14396.80217064594
 20
933.8747482146439
 30
0.0
 11
14364.80217064596
 21
933.8747482146439
 31
0.0
  0
LINE
  5
1624C
330
15FC1
100
AcDbEntity
  8
YODOROGO
100
AcDbLine
 10
14396.80217064594
 20
973.8747482146434
 30
0.0
 11
14396.80217064594
 21
933.8747482146439
 31
0.0
  0
ARC
  5
1624D
330
15FC1
100
AcDbEntity
  8
YODOROGO
100
AcDbCircle
 10
14376.80217064594
 20
973.8747482146434
 30
0.0
 40
20.0
100
AcDbArc
 50
0.0
 51
90.0
  0
LINE
  5
1624E
330
15FC1
100
AcDbEntity
  8
YODOROGO
100
AcDbLine
 10
14328.80217064596
 20
993.8747482146439
 30
0.0
 11
14376.80217064594
 21
993.8747482146439
 31
0.0
  0
LINE
  5
1624F
330
15FC1
100
AcDbEntity
  8
YODOROGO
100
AcDbLine
 10
14328.80217064596
 20
1013.874748214644
 30
0.0
 11
14328.80217064596
 21
993.8747482146439
 31
0.0
  0
LINE
  5
16250
330
15FC1
100
AcDbEntity
  8
YODOROGO
100
AcDbLine
 10
14536.80217064596
 20
1013.874748214644
 30
0.0
 11
14500.80217064594
 21
1013.874748214644
 31
0.0
  0
LINE
  5
16251
330
15FC1
100
AcDbEntity
  8
YODOROGO
100
AcDbLine
 10
14630.80217064596
 20
1003.874748214644
 30
0.0
 11
14598.80217064596
 21
1003.874748214644
 31
0.0
  0
LINE
  5
16252
330
15FC1
100
AcDbEntity
  8
YODOROGO
100
AcDbLine
 10
14728.80217064596
 20
1013.874748214644
 30
0.0
 11
14692.80217064596
 21
1013.874748214644
 31
0.0
  0
LINE
  5
16253
330
15FC1
100
AcDbEntity
  8
YODOROGO
100
AcDbLine
 10
14836.80217064596
 20
853.874748214644
 30
0.0
 11
14836.80217064596
 21
885.8747482146441
 31
0.0
1001
AUTOCAD_POSTSCRIPT_FIGURE
1002
{
1000
PSFILL
1000
Grayscale
1000
Grayscale
1070
    25
1002
}
  0
LINE
  5
16254
330
15FC1
100
AcDbEntity
  8
YODOROGO
100
AcDbLine
 10
14808.80217064596
 20
853.874748214644
 30
0.0
 11
14836.80217064596
 21
853.874748214644
 31
0.0
1001
AUTOCAD_POSTSCRIPT_FIGURE
1002
{
1000
PSFILL
1000
Grayscale
1000
Grayscale
1070
    25
1002
}
  0
LINE
  5
16255
330
15FC1
100
AcDbEntity
  8
YODOROGO
100
AcDbLine
 10
14808.80217064596
 20
909.8747482146439
 30
0.0
 11
14808.80217064596
 21
853.874748214644
 31
0.0
1001
AUTOCAD_POSTSCRIPT_FIGURE
1002
{
1000
PSFILL
1000
Grayscale
1000
Grayscale
1070
    25
1002
}
  0
LINE
  5
16256
330
15FC1
100
AcDbEntity
  8
YODOROGO
100
AcDbLine
 10
14882.80217064596
 20
909.8747482146439
 30
0.0
 11
14808.80217064596
 21
909.8747482146439
 31
0.0
1001
AUTOCAD_POSTSCRIPT_FIGURE
1002
{
1000
PSFILL
1000
Grayscale
1000
Grayscale
1070
    25
1002
}
  0
LINE
  5
16257
330
15FC1
100
AcDbEntity
  8
YODOROGO
100
AcDbLine
 10
14882.80217064596
 20
929.874748214644
 30
0.0
 11
14882.80217064596
 21
909.8747482146439
 31
0.0
1001
AUTOCAD_POSTSCRIPT_FIGURE
1002
{
1000
PSFILL
1000
Grayscale
1000
Grayscale
1070
    25
1002
}
  0
LINE
  5
16258
330
15FC1
100
AcDbEntity
  8
YODOROGO
100
AcDbLine
 10
14808.80217064596
 20
929.874748214644
 30
0.0
 11
14882.80217064596
 21
929.874748214644
 31
0.0
1001
AUTOCAD_POSTSCRIPT_FIGURE
1002
{
1000
PSFILL
1000
Grayscale
1000
Grayscale
1070
    25
1002
}
  0
LINE
  5
16259
330
15FC1
100
AcDbEntity
  8
YODOROGO
100
AcDbLine
 10
14808.80217064596
 20
953.874748214644
 30
0.0
 11
14808.80217064596
 21
929.874748214644
 31
0.0
1001
AUTOCAD_POSTSCRIPT_FIGURE
1002
{
1000
PSFILL
1000
Grayscale
1000
Grayscale
1070
    25
1002
}
  0
LINE
  5
1625A
330
15FC1
100
AcDbEntity
  8
YODOROGO
100
AcDbLine
 10
14882.80217064596
 20
953.874748214644
 30
0.0
 11
14808.80217064596
 21
953.874748214644
 31
0.0
1001
AUTOCAD_POSTSCRIPT_FIGURE
1002
{
1000
PSFILL
1000
Grayscale
1000
Grayscale
1070
    25
1002
}
  0
LINE
  5
1625B
330
15FC1
100
AcDbEntity
  8
YODOROGO
100
AcDbLine
 10
14882.80217064596
 20
973.8747482146434
 30
0.0
 11
14882.80217064596
 21
953.874748214644
 31
0.0
1001
AUTOCAD_POSTSCRIPT_FIGURE
1002
{
1000
PSFILL
1000
Grayscale
1000
Grayscale
1070
    25
1002
}
  0
LINE
  5
1625C
330
15FC1
100
AcDbEntity
  8
YODOROGO
100
AcDbLine
 10
14808.80217064596
 20
973.8747482146434
 30
0.0
 11
14882.80217064596
 21
973.8747482146434
 31
0.0
1001
AUTOCAD_POSTSCRIPT_FIGURE
1002
{
1000
PSFILL
1000
Grayscale
1000
Grayscale
1070
    25
1002
}
  0
LINE
  5
1625D
330
15FC1
100
AcDbEntity
  8
YODOROGO
100
AcDbLine
 10
14808.80217064596
 20
1013.874748214644
 30
0.0
 11
14808.80217064596
 21
973.8747482146434
 31
0.0
1001
AUTOCAD_POSTSCRIPT_FIGURE
1002
{
1000
PSFILL
1000
Grayscale
1000
Grayscale
1070
    25
1002
}
  0
LINE
  5
1625E
330
15FC1
100
AcDbEntity
  8
YODOROGO
100
AcDbLine
 10
14832.80217064596
 20
1013.874748214644
 30
0.0
 11
14808.80217064596
 21
1013.874748214644
 31
0.0
1001
AUTOCAD_POSTSCRIPT_FIGURE
1002
{
1000
PSFILL
1000
Grayscale
1000
Grayscale
1070
    25
1002
}
  0
LINE
  5
1625F
330
15FC1
100
AcDbEntity
  8
YODOROGO
100
AcDbLine
 10
14832.80217064596
 20
997.8747482146435
 30
0.0
 11
14832.80217064596
 21
1013.874748214644
 31
0.0
1001
AUTOCAD_POSTSCRIPT_FIGURE
1002
{
1000
PSFILL
1000
Grayscale
1000
Grayscale
1070
    25
1002
}
  0
LINE
  5
16260
330
15FC1
100
AcDbEntity
  8
YODOROGO
100
AcDbLine
 10
14882.80217064596
 20
997.8747482146435
 30
0.0
 11
14832.80217064596
 21
997.8747482146435
 31
0.0
1001
AUTOCAD_POSTSCRIPT_FIGURE
1002
{
1000
PSFILL
1000
Grayscale
1000
Grayscale
1070
    25
1002
}
  0
LINE
  5
16261
330
15FC1
100
AcDbEntity
  8
YODOROGO
100
AcDbLine
 10
14882.80217064596
 20
1013.874748214644
 30
0.0
 11
14882.80217064596
 21
997.8747482146435
 31
0.0
1001
AUTOCAD_POSTSCRIPT_FIGURE
1002
{
1000
PSFILL
1000
Grayscale
1000
Grayscale
1070
    25
1002
}
  0
LINE
  5
16262
330
15FC1
100
AcDbEntity
  8
YODOROGO
100
AcDbLine
 10
14914.80217064596
 20
1013.874748214644
 30
0.0
 11
14882.80217064596
 21
1013.874748214644
 31
0.0
1001
AUTOCAD_POSTSCRIPT_FIGURE
1002
{
1000
PSFILL
1000
Grayscale
1000
Grayscale
1070
    25
1002
}
  0
LINE
  5
16263
330
15FC1
100
AcDbEntity
  8
YODOROGO
100
AcDbLine
 10
14914.80217064596
 20
997.8747482146435
 30
0.0
 11
14914.80217064596
 21
1013.874748214644
 31
0.0
1001
AUTOCAD_POSTSCRIPT_FIGURE
1002
{
1000
PSFILL
1000
Grayscale
1000
Grayscale
1070
    25
1002
}
  0
LINE
  5
16264
330
15FC1
100
AcDbEntity
  8
YODOROGO
100
AcDbLine
 10
14914.80217064596
 20
953.874748214644
 30
0.0
 11
14914.80217064596
 21
973.8747482146434
 31
0.0
1001
AUTOCAD_POSTSCRIPT_FIGURE
1002
{
1000
PSFILL
1000
Grayscale
1000
Grayscale
1070
    25
1002
}
  0
LINE
  5
16265
330
15FC1
100
AcDbEntity
  8
YODOROGO
100
AcDbLine
 10
14914.80217064596
 20
909.8747482146439
 30
0.0
 11
14914.80217064596
 21
929.874748214644
 31
0.0
1001
AUTOCAD_POSTSCRIPT_FIGURE
1002
{
1000
PSFILL
1000
Grayscale
1000
Grayscale
1070
    25
1002
}
  0
LINE
  5
16266
330
15FC1
100
AcDbEntity
  8
YODOROGO
100
AcDbLine
 10
14960.80217064594
 20
885.8747482146441
 30
0.0
 11
14960.80217064594
 21
853.874748214644
 31
0.0
1001
AUTOCAD_POSTSCRIPT_FIGURE
1002
{
1000
PSFILL
1000
Grayscale
1000
Grayscale
1070
    25
1002
}
  0
LINE
  5
16267
330
15FC1
100
AcDbEntity
  8
YODOROGO
100
AcDbLine
 10
14914.80217064596
 20
885.8747482146441
 30
0.0
 11
14960.80217064594
 21
885.8747482146441
 31
0.0
1001
AUTOCAD_POSTSCRIPT_FIGURE
1002
{
1000
PSFILL
1000
Grayscale
1000
Grayscale
1070
    25
1002
}
  0
LINE
  5
16268
330
15FC1
100
AcDbEntity
  8
YODOROGO
100
AcDbLine
 10
14914.80217064596
 20
853.874748214644
 30
0.0
 11
14914.80217064596
 21
885.8747482146441
 31
0.0
1001
AUTOCAD_POSTSCRIPT_FIGURE
1002
{
1000
PSFILL
1000
Grayscale
1000
Grayscale
1070
    25
1002
}
  0
LINE
  5
16269
330
15FC1
100
AcDbEntity
  8
YODOROGO
100
AcDbLine
 10
14882.80217064596
 20
853.874748214644
 30
0.0
 11
14914.80217064596
 21
853.874748214644
 31
0.0
1001
AUTOCAD_POSTSCRIPT_FIGURE
1002
{
1000
PSFILL
1000
Grayscale
1000
Grayscale
1070
    25
1002
}
  0
LINE
  5
1626A
330
15FC1
100
AcDbEntity
  8
YODOROGO
100
AcDbLine
 10
14882.80217064596
 20
885.8747482146441
 30
0.0
 11
14882.80217064596
 21
853.874748214644
 31
0.0
1001
AUTOCAD_POSTSCRIPT_FIGURE
1002
{
1000
PSFILL
1000
Grayscale
1000
Grayscale
1070
    25
1002
}
  0
LINE
  5
1626B
330
15FC1
100
AcDbEntity
  8
YODOROGO
100
AcDbLine
 10
14836.80217064596
 20
885.8747482146441
 30
0.0
 11
14882.80217064596
 21
885.8747482146441
 31
0.0
1001
AUTOCAD_POSTSCRIPT_FIGURE
1002
{
1000
PSFILL
1000
Grayscale
1000
Grayscale
1070
    25
1002
}
  0
ARC
  5
1626C
330
15FC1
100
AcDbEntity
  8
YODOROGO
100
AcDbCircle
 10
15529.75894667896
 20
801.3403687577881
 30
0.0
 40
89.11064055536078
100
AcDbArc
 50
281.0262749542535
 51
357.771135755738
  0
LINE
  5
1626D
330
15FC1
100
AcDbEntity
  8
YODOROGO
100
AcDbLine
 10
15706.80217064596
 20
953.874748214644
 30
0.0
 11
15582.80217064596
 21
953.874748214644
 31
0.0
  0
LINE
  5
1626E
330
15FC1
100
AcDbEntity
  8
YODOROGO
100
AcDbLine
 10
15706.80217064596
 20
1013.874748214644
 30
0.0
 11
15582.80217064596
 21
1013.874748214644
 31
0.0
  0
LINE
  5
1626F
330
15FC1
100
AcDbEntity
  8
YODOROGO
100
AcDbLine
 10
15582.80217064596
 20
981.8747482146434
 30
0.0
 11
15706.80217064596
 21
981.8747482146434
 31
0.0
  0
LINE
  5
16270
330
15FC1
100
AcDbEntity
  8
YODOROGO
100
AcDbLine
 10
15395.80217064596
 20
781.8747482146434
 30
0.0
 11
15395.80217064596
 21
877.8747482146435
 31
0.0
  0
LINE
  5
16271
330
15FC1
100
AcDbEntity
  8
YODOROGO
100
AcDbLine
 10
15381.80217064596
 20
845.8747482146444
 30
0.0
 11
15381.80217064596
 21
781.8747482146434
 31
0.0
  0
LINE
  5
16272
330
15FC1
100
AcDbEntity
  8
YODOROGO
100
AcDbLine
 10
15361.80217064596
 20
745.8747482146443
 30
0.0
 11
15361.80217064596
 21
845.8747482146444
 31
0.0
  0
LINE
  5
16273
330
15FC1
100
AcDbEntity
  8
YODOROGO
100
AcDbLine
 10
15449.80217064596
 20
845.8747482146444
 30
0.0
 11
15449.80217064596
 21
745.8747482146443
 31
0.0
  0
LINE
  5
16274
330
15FC1
100
AcDbEntity
  8
YODOROGO
100
AcDbLine
 10
15429.80217064596
 20
781.8747482146434
 30
0.0
 11
15429.80217064596
 21
845.8747482146444
 31
0.0
  0
LINE
  5
16275
330
15FC1
100
AcDbEntity
  8
YODOROGO
100
AcDbLine
 10
15415.80217064596
 20
877.8747482146435
 30
0.0
 11
15415.80217064596
 21
781.8747482146434
 31
0.0
  0
LINE
  5
16276
330
15FC1
100
AcDbEntity
  8
YODOROGO
100
AcDbLine
 10
15486.80217064596
 20
1013.874748214644
 30
0.0
 11
15486.80217064596
 21
733.8747482146435
 31
0.0
  0
LINE
  5
16277
330
15FC1
100
AcDbEntity
  8
YODOROGO
100
AcDbLine
 10
15322.80217064596
 20
713.8747482146436
 30
0.0
 11
15322.80217064596
 21
1013.874748214644
 31
0.0
  0
LINE
  5
16278
330
15FC1
100
AcDbEntity
  8
YODOROGO
100
AcDbLine
 10
15348.80217064596
 20
981.8747482146434
 30
0.0
 11
15348.80217064596
 21
713.8747482146436
 31
0.0
  0
LINE
  5
16279
330
15FC1
100
AcDbEntity
  8
YODOROGO
100
AcDbLine
 10
15462.80217064596
 20
773.874748214644
 30
0.0
 11
15462.80217064596
 21
981.8747482146434
 31
0.0
  0
LINE
  5
1627A
330
15FC1
100
AcDbEntity
  8
YODOROGO
100
AcDbLine
 10
15190.80217064596
 20
813.8747482146435
 30
0.0
 11
15190.80217064596
 21
839.8747482146442
 31
0.0
  0
LINE
  5
1627B
330
15FC1
100
AcDbEntity
  8
YODOROGO
100
AcDbLine
 10
15308.80217064596
 20
839.8747482146442
 30
0.0
 11
15308.80217064596
 21
813.8747482146435
 31
0.0
  0
LINE
  5
1627C
330
15FC1
100
AcDbEntity
  8
YODOROGO
100
AcDbLine
 10
15582.80217064596
 20
953.874748214644
 30
0.0
 11
15582.80217064596
 21
817.8747482146436
 31
0.0
  0
LINE
  5
1627D
330
15FC1
100
AcDbEntity
  8
YODOROGO
100
AcDbLine
 10
14974.80217064595
 20
833.8747482146439
 30
0.0
 11
14974.80217064595
 21
853.874748214644
 31
0.0
  0
LINE
  5
1627E
330
15FC1
100
AcDbEntity
  8
YODOROGO
100
AcDbLine
 10
14974.80217064595
 20
833.8747482146439
 30
0.0
 11
14974.80217064595
 21
853.874748214644
 31
0.0
  0
ARC
  5
1627F
330
15FC1
100
AcDbEntity
  8
YODOROGO
100
AcDbCircle
 10
15268.80217064596
 20
753.8747482146439
 30
0.0
 40
40.0
100
AcDbArc
 50
270.0
 51
0.0
  0
LINE
  5
16280
330
15FC1
100
AcDbEntity
  8
YODOROGO
100
AcDbLine
 10
15284.80217064596
 20
799.8747482146441
 30
0.0
 11
15308.80217064596
 21
799.8747482146441
 31
0.0
  0
LINE
  5
16281
330
15FC1
100
AcDbEntity
  8
YODOROGO
100
AcDbLine
 10
15308.80217064596
 20
813.8747482146435
 30
0.0
 11
15264.80217064596
 21
813.8747482146435
 31
0.0
  0
LINE
  5
16282
330
15FC1
100
AcDbEntity
  8
YODOROGO
100
AcDbLine
 10
15108.80217064596
 20
833.8747482146439
 30
0.0
 11
14974.80217064595
 21
833.8747482146439
 31
0.0
  0
LINE
  5
16283
330
15FC1
100
AcDbEntity
  8
YODOROGO
100
AcDbLine
 10
15108.80217064596
 20
813.8747482146435
 30
0.0
 11
15108.80217064596
 21
833.8747482146439
 31
0.0
  0
LINE
  5
16284
330
15FC1
100
AcDbEntity
  8
YODOROGO
100
AcDbLine
 10
15008.80217064596
 20
813.8747482146435
 30
0.0
 11
15108.80217064596
 21
813.8747482146435
 31
0.0
  0
ARC
  5
16285
330
15FC1
100
AcDbEntity
  8
YODOROGO
100
AcDbCircle
 10
15115.02941435068
 20
934.4428574764513
 30
0.0
 40
160.6888181426141
100
AcDbArc
 50
228.6181454618993
 51
245.660289248906
  0
LINE
  5
16286
330
15FC1
100
AcDbEntity
  8
YODOROGO
100
AcDbLine
 10
15052.80217064596
 20
801.8747482146444
 30
0.0
 11
15048.80217064598
 21
788.0364079349501
 31
0.0
  0
LINE
  5
16287
330
15FC1
100
AcDbEntity
  8
YODOROGO
100
AcDbLine
 10
15094.80217064596
 20
801.8747482146444
 30
0.0
 11
15052.80217064596
 21
801.8747482146444
 31
0.0
  0
LINE
  5
16288
330
15FC1
100
AcDbEntity
  8
YODOROGO
100
AcDbLine
 10
15088.80217064596
 20
775.9088612367134
 30
0.0
 11
15094.80217064596
 21
801.8747482146444
 31
0.0
  0
ARC
  5
16289
330
15FC1
100
AcDbEntity
  8
YODOROGO
100
AcDbCircle
 10
15115.02941435023
 20
934.4428574765014
 30
0.0
 40
160.6888181426453
100
AcDbArc
 50
260.6062929796992
 51
267.7790355655586
  0
LINE
  5
1628A
330
15FC1
100
AcDbEntity
  8
YODOROGO
100
AcDbLine
 10
15108.80217064596
 20
713.8747482146428
 30
0.0
 11
15108.80217064596
 21
773.874748214644
 31
0.0
  0
LINE
  5
1628B
330
15FC1
100
AcDbEntity
  8
YODOROGO
100
AcDbLine
 10
14968.80217064596
 20
740.6696674577553
 30
0.0
 11
14968.80217064596
 21
797.2655452655705
 31
0.0
  0
LINE
  5
1628C
330
15FC1
100
AcDbEntity
  8
YODOROGO
100
AcDbLine
 10
15108.80217064596
 20
833.8747482146439
 30
0.0
 11
14974.80217064595
 21
833.8747482146439
 31
0.0
  0
LINE
  5
1628D
330
15FC1
100
AcDbEntity
  8
YODOROGO
100
AcDbLine
 10
15108.80217064596
 20
813.8747482146435
 30
0.0
 11
15108.80217064596
 21
833.8747482146439
 31
0.0
  0
LINE
  5
1628E
330
15FC1
100
AcDbEntity
  8
YODOROGO
100
AcDbLine
 10
15008.80217064596
 20
813.8747482146435
 30
0.0
 11
15108.80217064596
 21
813.8747482146435
 31
0.0
  0
ARC
  5
1628F
330
15FC1
100
AcDbEntity
  8
YODOROGO
100
AcDbCircle
 10
15115.02941435068
 20
934.4428574764513
 30
0.0
 40
160.6888181426141
100
AcDbArc
 50
228.6181454618993
 51
245.660289248906
  0
LINE
  5
16290
330
15FC1
100
AcDbEntity
  8
YODOROGO
100
AcDbLine
 10
15052.80217064596
 20
801.8747482146444
 30
0.0
 11
15048.80217064598
 21
788.0364079349501
 31
0.0
  0
LINE
  5
16291
330
15FC1
100
AcDbEntity
  8
YODOROGO
100
AcDbLine
 10
15094.80217064596
 20
801.8747482146444
 30
0.0
 11
15052.80217064596
 21
801.8747482146444
 31
0.0
  0
LINE
  5
16292
330
15FC1
100
AcDbEntity
  8
YODOROGO
100
AcDbLine
 10
15088.80217064596
 20
775.9088612367134
 30
0.0
 11
15094.80217064596
 21
801.8747482146444
 31
0.0
  0
ARC
  5
16293
330
15FC1
100
AcDbEntity
  8
YODOROGO
100
AcDbCircle
 10
15115.02941435023
 20
934.4428574765014
 30
0.0
 40
160.6888181426453
100
AcDbArc
 50
260.6062929796992
 51
267.7790355655586
  0
LINE
  5
16294
330
15FC1
100
AcDbEntity
  8
YODOROGO
100
AcDbLine
 10
15108.80217064596
 20
713.8747482146428
 30
0.0
 11
15108.80217064596
 21
773.874748214644
 31
0.0
  0
LINE
  5
16295
330
15FC1
100
AcDbEntity
  8
YODOROGO
100
AcDbLine
 10
14968.80217064596
 20
740.6696674577553
 30
0.0
 11
14968.80217064596
 21
797.2655452655705
 31
0.0
  0
LINE
  5
16296
330
15FC1
100
AcDbEntity
  8
YODOROGO
100
AcDbLine
 10
15216.80217064596
 20
786.8747482146444
 30
0.0
 11
15190.80217064596
 21
786.8747482146444
 31
0.0
  0
LINE
  5
16297
330
15FC1
100
AcDbEntity
  8
YODOROGO
100
AcDbLine
 10
15216.80217064596
 20
800.8747482146432
 30
0.0
 11
15216.80217064596
 21
786.8747482146444
 31
0.0
  0
LINE
  5
16298
330
15FC1
100
AcDbEntity
  8
YODOROGO
100
AcDbLine
 10
15190.80217064596
 20
800.8747482146432
 30
0.0
 11
15216.80217064596
 21
800.8747482146432
 31
0.0
  0
LINE
  5
16299
330
15FC1
100
AcDbEntity
  8
YODOROGO
100
AcDbLine
 10
15190.80217064596
 20
786.8747482146444
 30
0.0
 11
15190.80217064596
 21
800.8747482146432
 31
0.0
  0
LINE
  5
1629A
330
15FC1
100
AcDbEntity
  8
YODOROGO
100
AcDbLine
 10
15214.80217064596
 20
788.8747482146436
 30
0.0
 11
15192.80217064595
 21
788.8747482146436
 31
0.0
  0
LINE
  5
1629B
330
15FC1
100
AcDbEntity
  8
YODOROGO
100
AcDbLine
 10
15214.80217064596
 20
798.874748214644
 30
0.0
 11
15214.80217064596
 21
788.8747482146436
 31
0.0
  0
LINE
  5
1629C
330
15FC1
100
AcDbEntity
  8
YODOROGO
100
AcDbLine
 10
15192.80217064595
 20
798.874748214644
 30
0.0
 11
15214.80217064596
 21
798.874748214644
 31
0.0
  0
LINE
  5
1629D
330
15FC1
100
AcDbEntity
  8
YODOROGO
100
AcDbLine
 10
15192.80217064595
 20
788.8747482146436
 30
0.0
 11
15192.80217064595
 21
798.874748214644
 31
0.0
  0
LINE
  5
1629E
330
15FC1
100
AcDbEntity
  8
YODOROGO
100
AcDbLine
 10
15212.80217064596
 20
790.8747482146432
 30
0.0
 11
15194.80217064596
 21
790.8747482146432
 31
0.0
  0
LINE
  5
1629F
330
15FC1
100
AcDbEntity
  8
YODOROGO
100
AcDbLine
 10
15212.80217064596
 20
796.8747482146445
 30
0.0
 11
15212.80217064596
 21
790.8747482146432
 31
0.0
  0
LINE
  5
162A0
330
15FC1
100
AcDbEntity
  8
YODOROGO
100
AcDbLine
 10
15194.80217064596
 20
796.8747482146445
 30
0.0
 11
15212.80217064596
 21
796.8747482146445
 31
0.0
  0
LINE
  5
162A1
330
15FC1
100
AcDbEntity
  8
YODOROGO
100
AcDbLine
 10
15194.80217064596
 20
790.8747482146432
 30
0.0
 11
15194.80217064596
 21
796.8747482146445
 31
0.0
  0
LINE
  5
162A2
330
15FC1
100
AcDbEntity
  8
YODOROGO
100
AcDbLine
 10
15210.80217064596
 20
792.8747482146435
 30
0.0
 11
15196.80217064596
 21
792.8747482146435
 31
0.0
  0
LINE
  5
162A3
330
15FC1
100
AcDbEntity
  8
YODOROGO
100
AcDbLine
 10
15210.80217064596
 20
794.8747482146441
 30
0.0
 11
15210.80217064596
 21
792.8747482146435
 31
0.0
  0
LINE
  5
162A4
330
15FC1
100
AcDbEntity
  8
YODOROGO
100
AcDbLine
 10
15196.80217064596
 20
794.8747482146441
 30
0.0
 11
15210.80217064596
 21
794.8747482146441
 31
0.0
  0
LINE
  5
162A5
330
15FC1
100
AcDbEntity
  8
YODOROGO
100
AcDbLine
 10
15196.80217064596
 20
792.8747482146435
 30
0.0
 11
15196.80217064596
 21
794.8747482146441
 31
0.0
  0
LINE
  5
162A6
330
15FC1
100
AcDbEntity
  8
YODOROGO
100
AcDbLine
 10
15232.80217064596
 20
813.8747482146435
 30
0.0
 11
15190.80217064596
 21
813.8747482146435
 31
0.0
  0
LINE
  5
162A7
330
15FC1
100
AcDbEntity
  8
YODOROGO
100
AcDbLine
 10
15232.80217064596
 20
773.874748214644
 30
0.0
 11
15232.80217064596
 21
813.8747482146435
 31
0.0
  0
LINE
  5
162A8
330
15FC1
100
AcDbEntity
  8
YODOROGO
100
AcDbLine
 10
15190.80217064596
 20
773.874748214644
 30
0.0
 11
15232.80217064596
 21
773.874748214644
 31
0.0
  0
LINE
  5
162A9
330
15FC1
100
AcDbEntity
  8
YODOROGO
100
AcDbLine
 10
15190.80217064596
 20
713.8747482146436
 30
0.0
 11
15190.80217064596
 21
773.874748214644
 31
0.0
  0
LINE
  5
162AA
330
15FC1
100
AcDbEntity
  8
YODOROGO
100
AcDbLine
 10
15268.80217064596
 20
713.8747482146436
 30
0.0
 11
15190.80217064596
 21
713.8747482146436
 31
0.0
  0
LINE
  5
162AB
330
15FC1
100
AcDbEntity
  8
YODOROGO
100
AcDbLine
 10
15284.80217064596
 20
785.8747482146432
 30
0.0
 11
15284.80217064596
 21
799.8747482146441
 31
0.0
  0
ARC
  5
162AC
330
15FC1
100
AcDbEntity
  8
YODOROGO
100
AcDbCircle
 10
15272.80217064594
 20
785.8747482146457
 30
0.0
 40
12.00000000000187
100
AcDbArc
 50
270.0
 51
359.9999999999877
  0
LINE
  5
162AD
330
15FC1
100
AcDbEntity
  8
YODOROGO
100
AcDbLine
 10
15264.80217064596
 20
773.874748214644
 30
0.0
 11
15272.80217064594
 21
773.874748214644
 31
0.0
  0
LINE
  5
162AE
330
15FC1
100
AcDbEntity
  8
YODOROGO
100
AcDbLine
 10
15264.80217064596
 20
813.8747482146435
 30
0.0
 11
15264.80217064596
 21
773.874748214644
 31
0.0
  0
LINE
  5
162AF
330
15FC1
100
AcDbEntity
  8
YODOROGO
100
AcDbLine
 10
15449.80217064596
 20
773.874748214644
 30
0.0
 11
15462.80217064596
 21
773.874748214644
 31
0.0
  0
LINE
  5
162B0
330
15FC1
100
AcDbEntity
  8
YODOROGO
100
AcDbLine
 10
15466.80217064596
 20
713.8747482146436
 30
0.0
 11
15449.80217064596
 21
713.8747482146436
 31
0.0
  0
LINE
  5
162B1
330
15FC1
100
AcDbEntity
  8
YODOROGO
100
AcDbLine
 10
15381.80217064596
 20
781.8747482146434
 30
0.0
 11
15395.80217064596
 21
781.8747482146434
 31
0.0
  0
LINE
  5
162B2
330
15FC1
100
AcDbEntity
  8
YODOROGO
100
AcDbLine
 10
15449.80217064596
 20
745.8747482146443
 30
0.0
 11
15361.80217064596
 21
745.8747482146443
 31
0.0
  0
LINE
  5
162B3
330
15FC1
100
AcDbEntity
  8
YODOROGO
100
AcDbLine
 10
15415.80217064596
 20
781.8747482146434
 30
0.0
 11
15429.80217064596
 21
781.8747482146434
 31
0.0
  0
LINE
  5
162B4
330
15FC1
100
AcDbEntity
  8
YODOROGO
100
AcDbLine
 10
15449.80217064596
 20
713.8747482146436
 30
0.0
 11
15449.80217064596
 21
773.874748214644
 31
0.0
  0
LINE
  5
162B5
330
15FC1
100
AcDbEntity
  8
YODOROGO
100
AcDbLine
 10
15348.80217064596
 20
713.8747482146436
 30
0.0
 11
15322.80217064596
 21
713.8747482146436
 31
0.0
  0
LINE
  5
162B6
330
15FC1
100
AcDbEntity
  8
YODOROGO
100
AcDbLine
 10
15308.80217064596
 20
799.8747482146441
 30
0.0
 11
15308.80217064596
 21
753.8747482146439
 31
0.0
  0
ARC
  5
162B7
330
15FC1
100
AcDbEntity
  8
YODOROGO
100
AcDbCircle
 10
15466.80217064596
 20
733.8747482146435
 30
0.0
 40
20.0
100
AcDbArc
 50
270.0
 51
0.0
  0
LINE
  5
162B8
330
15FC1
100
AcDbEntity
  8
YODOROGO
100
AcDbLine
 10
15546.80217064596
 20
761.8747482146434
 30
0.0
 11
15546.80217064596
 21
713.8747482146436
 31
0.0
  0
ARC
  5
162B9
330
15FC1
100
AcDbEntity
  8
YODOROGO
100
AcDbCircle
 10
15519.86069778339
 20
818.7656950548664
 30
0.0
 40
62.94777829583771
100
AcDbArc
 50
295.3405244216011
 51
359.1890230341867
  0
LINE
  5
162BA
330
15FC1
100
AcDbEntity
  8
YODOROGO
100
AcDbLine
 10
15308.80217064596
 20
929.874748214644
 30
0.0
 11
15248.80217064596
 21
969.8747482146441
 31
0.0
  0
LINE
  5
162BB
330
15FC1
100
AcDbEntity
  8
YODOROGO
100
AcDbLine
 10
15248.80217064596
 20
1013.874748214644
 30
0.0
 11
15308.80217064596
 21
973.8747482146434
 31
0.0
  0
LINE
  5
162BC
330
15FC1
100
AcDbEntity
  8
YODOROGO
100
AcDbLine
 10
15264.80217064596
 20
839.8747482146442
 30
0.0
 11
15308.80217064596
 21
839.8747482146442
 31
0.0
  0
LINE
  5
162BD
330
15FC1
100
AcDbEntity
  8
YODOROGO
100
AcDbLine
 10
15308.80217064596
 20
867.8747482146436
 30
0.0
 11
15264.80217064596
 21
867.8747482146436
 31
0.0
  0
LINE
  5
162BE
330
15FC1
100
AcDbEntity
  8
YODOROGO
100
AcDbLine
 10
15190.80217064596
 20
897.8747482146435
 30
0.0
 11
15308.80217064596
 21
897.8747482146435
 31
0.0
  0
LINE
  5
162BF
330
15FC1
100
AcDbEntity
  8
YODOROGO
100
AcDbLine
 10
15040.80217064596
 20
1013.874748214644
 30
0.0
 11
15010.80217064596
 21
1013.874748214644
 31
0.0
  0
LINE
  5
162C0
330
15FC1
100
AcDbEntity
  8
YODOROGO
100
AcDbLine
 10
15040.80217064596
 20
913.8747482146435
 30
0.0
 11
15040.80217064596
 21
1013.874748214644
 31
0.0
  0
LINE
  5
162C1
330
15FC1
100
AcDbEntity
  8
YODOROGO
100
AcDbLine
 10
15010.80217064596
 20
913.8747482146435
 30
0.0
 11
15040.80217064596
 21
913.8747482146435
 31
0.0
  0
LINE
  5
162C2
330
15FC1
100
AcDbEntity
  8
YODOROGO
100
AcDbLine
 10
15010.80217064596
 20
1013.874748214644
 30
0.0
 11
15010.80217064596
 21
913.8747482146435
 31
0.0
  0
LINE
  5
162C3
330
15FC1
100
AcDbEntity
  8
YODOROGO
100
AcDbLine
 10
15080.80217064596
 20
1013.874748214644
 30
0.0
 11
15108.80217064596
 21
1013.874748214644
 31
0.0
  0
LINE
  5
162C4
330
15FC1
100
AcDbEntity
  8
YODOROGO
100
AcDbLine
 10
15080.80217064596
 20
905.8747482146443
 30
0.0
 11
15080.80217064596
 21
1013.874748214644
 31
0.0
  0
ARC
  5
162C5
330
15FC1
100
AcDbEntity
  8
YODOROGO
100
AcDbCircle
 10
15060.80217064596
 20
905.8747482146443
 30
0.0
 40
20.0
100
AcDbArc
 50
270.0
 51
0.0
  0
LINE
  5
162C6
330
15FC1
100
AcDbEntity
  8
YODOROGO
100
AcDbLine
 10
15010.80217064596
 20
885.8747482146441
 30
0.0
 11
15060.80217064596
 21
885.8747482146441
 31
0.0
  0
LINE
  5
162C7
330
15FC1
100
AcDbEntity
  8
YODOROGO
100
AcDbLine
 10
15010.80217064596
 20
853.874748214644
 30
0.0
 11
15010.80217064596
 21
885.8747482146441
 31
0.0
  0
LINE
  5
162C8
330
15FC1
100
AcDbEntity
  8
YODOROGO
100
AcDbLine
 10
15068.80217064596
 20
853.874748214644
 30
0.0
 11
15010.80217064596
 21
853.874748214644
 31
0.0
  0
ARC
  5
162C9
330
15FC1
100
AcDbEntity
  8
YODOROGO
100
AcDbCircle
 10
15068.80217064596
 20
893.8747482146439
 30
0.0
 40
40.0
100
AcDbArc
 50
270.0
 51
0.0
  0
LINE
  5
162CA
330
15FC1
100
AcDbEntity
  8
YODOROGO
100
AcDbLine
 10
15108.80217064596
 20
1013.874748214644
 30
0.0
 11
15108.80217064596
 21
893.8747482146439
 31
0.0
  0
LINE
  5
162CB
330
15FC1
100
AcDbEntity
  8
YODOROGO
100
AcDbLine
 10
14988.80217064596
 20
973.8747482146434
 30
0.0
 11
14988.80217064596
 21
997.8747482146435
 31
0.0
1001
AUTOCAD_POSTSCRIPT_FIGURE
1002
{
1000
PSFILL
1000
Grayscale
1000
Grayscale
1070
    25
1002
}
  0
LINE
  5
162CC
330
15FC1
100
AcDbEntity
  8
YODOROGO
100
AcDbLine
 10
14988.80217064596
 20
929.874748214644
 30
0.0
 11
14988.80217064596
 21
953.874748214644
 31
0.0
1001
AUTOCAD_POSTSCRIPT_FIGURE
1002
{
1000
PSFILL
1000
Grayscale
1000
Grayscale
1070
    25
1002
}
  0
LINE
  5
162CD
330
15FC1
100
AcDbEntity
  8
YODOROGO
100
AcDbLine
 10
14988.80217064596
 20
853.874748214644
 30
0.0
 11
14988.80217064596
 21
909.8747482146439
 31
0.0
1001
AUTOCAD_POSTSCRIPT_FIGURE
1002
{
1000
PSFILL
1000
Grayscale
1000
Grayscale
1070
    25
1002
}
  0
LINE
  5
162CE
330
15FC1
100
AcDbEntity
  8
YODOROGO
100
AcDbLine
 10
15190.80217064596
 20
953.874748214644
 30
0.0
 11
15248.80217064596
 21
1013.874748214644
 31
0.0
  0
LINE
  5
162CF
330
15FC1
100
AcDbEntity
  8
YODOROGO
100
AcDbLine
 10
15190.80217064596
 20
909.8747482146439
 30
0.0
 11
15190.80217064596
 21
953.874748214644
 31
0.0
  0
LINE
  5
162D0
330
15FC1
100
AcDbEntity
  8
YODOROGO
100
AcDbLine
 10
15248.80217064596
 20
969.8747482146441
 30
0.0
 11
15190.80217064596
 21
909.8747482146439
 31
0.0
  0
LINE
  5
162D1
330
15FC1
100
AcDbEntity
  8
YODOROGO
100
AcDbLine
 10
15232.80217064596
 20
839.8747482146442
 30
0.0
 11
15232.80217064596
 21
867.8747482146436
 31
0.0
  0
LINE
  5
162D2
330
15FC1
100
AcDbEntity
  8
YODOROGO
100
AcDbLine
 10
15190.80217064596
 20
839.8747482146442
 30
0.0
 11
15232.80217064596
 21
839.8747482146442
 31
0.0
  0
LINE
  5
162D3
330
15FC1
100
AcDbEntity
  8
YODOROGO
100
AcDbLine
 10
15264.80217064596
 20
867.8747482146436
 30
0.0
 11
15264.80217064596
 21
839.8747482146442
 31
0.0
  0
LINE
  5
162D4
330
15FC1
100
AcDbEntity
  8
YODOROGO
100
AcDbLine
 10
15190.80217064596
 20
867.8747482146436
 30
0.0
 11
15190.80217064596
 21
897.8747482146435
 31
0.0
  0
LINE
  5
162D5
330
15FC1
100
AcDbEntity
  8
YODOROGO
100
AcDbLine
 10
15232.80217064596
 20
867.8747482146436
 30
0.0
 11
15190.80217064596
 21
867.8747482146436
 31
0.0
  0
LINE
  5
162D6
330
15FC1
100
AcDbEntity
  8
YODOROGO
100
AcDbLine
 10
15322.80217064596
 20
1013.874748214644
 30
0.0
 11
15486.80217064596
 21
1013.874748214644
 31
0.0
  0
LINE
  5
162D7
330
15FC1
100
AcDbEntity
  8
YODOROGO
100
AcDbLine
 10
15462.80217064596
 20
981.8747482146434
 30
0.0
 11
15348.80217064596
 21
981.8747482146434
 31
0.0
  0
LINE
  5
162D8
330
15FC1
100
AcDbEntity
  8
YODOROGO
100
AcDbLine
 10
15436.80217064595
 20
909.8747482146439
 30
0.0
 11
15449.80217064596
 21
909.8747482146439
 31
0.0
  0
LINE
  5
162D9
330
15FC1
100
AcDbEntity
  8
YODOROGO
100
AcDbLine
 10
15449.80217064596
 20
969.8747482146441
 30
0.0
 11
15436.80217064595
 21
909.8747482146439
 31
0.0
  0
LINE
  5
162DA
330
15FC1
100
AcDbEntity
  8
YODOROGO
100
AcDbLine
 10
15425.80217064596
 20
969.8747482146441
 30
0.0
 11
15449.80217064596
 21
969.8747482146441
 31
0.0
  0
LINE
  5
162DB
330
15FC1
100
AcDbEntity
  8
YODOROGO
100
AcDbLine
 10
15412.80217064596
 20
909.8747482146439
 30
0.0
 11
15425.80217064596
 21
969.8747482146441
 31
0.0
  0
LINE
  5
162DC
330
15FC1
100
AcDbEntity
  8
YODOROGO
100
AcDbLine
 10
15398.80217064596
 20
909.8747482146439
 30
0.0
 11
15412.80217064596
 21
909.8747482146439
 31
0.0
  0
LINE
  5
162DD
330
15FC1
100
AcDbEntity
  8
YODOROGO
100
AcDbLine
 10
15385.80217064596
 20
969.8747482146441
 30
0.0
 11
15398.80217064596
 21
909.8747482146439
 31
0.0
  0
LINE
  5
162DE
330
15FC1
100
AcDbEntity
  8
YODOROGO
100
AcDbLine
 10
15361.80217064596
 20
969.8747482146441
 30
0.0
 11
15385.80217064596
 21
969.8747482146441
 31
0.0
  0
LINE
  5
162DF
330
15FC1
100
AcDbEntity
  8
YODOROGO
100
AcDbLine
 10
15374.80217064596
 20
909.8747482146439
 30
0.0
 11
15361.80217064596
 21
969.8747482146441
 31
0.0
  0
LINE
  5
162E0
330
15FC1
100
AcDbEntity
  8
YODOROGO
100
AcDbLine
 10
15361.80217064596
 20
909.8747482146439
 30
0.0
 11
15374.80217064596
 21
909.8747482146439
 31
0.0
  0
LINE
  5
162E1
330
15FC1
100
AcDbEntity
  8
YODOROGO
100
AcDbLine
 10
15361.80217064596
 20
877.8747482146435
 30
0.0
 11
15361.80217064596
 21
909.8747482146439
 31
0.0
  0
LINE
  5
162E2
330
15FC1
100
AcDbEntity
  8
YODOROGO
100
AcDbLine
 10
15449.80217064596
 20
877.8747482146435
 30
0.0
 11
15361.80217064596
 21
877.8747482146435
 31
0.0
  0
LINE
  5
162E3
330
15FC1
100
AcDbEntity
  8
YODOROGO
100
AcDbLine
 10
15449.80217064596
 20
909.8747482146439
 30
0.0
 11
15449.80217064596
 21
877.8747482146435
 31
0.0
  0
LINE
  5
162E4
330
15FC1
100
AcDbEntity
  8
YODOROGO
100
AcDbLine
 10
15308.80217064596
 20
973.8747482146434
 30
0.0
 11
15308.80217064596
 21
929.874748214644
 31
0.0
  0
LINE
  5
162E5
330
15FC1
100
AcDbEntity
  8
YODOROGO
100
AcDbLine
 10
15395.80217064596
 20
877.8747482146435
 30
0.0
 11
15415.80217064596
 21
877.8747482146435
 31
0.0
  0
LINE
  5
162E6
330
15FC1
100
AcDbEntity
  8
YODOROGO
100
AcDbLine
 10
15361.80217064596
 20
845.8747482146444
 30
0.0
 11
15381.80217064596
 21
845.8747482146444
 31
0.0
  0
LINE
  5
162E7
330
15FC1
100
AcDbEntity
  8
YODOROGO
100
AcDbLine
 10
15429.80217064596
 20
845.8747482146444
 30
0.0
 11
15449.80217064596
 21
845.8747482146444
 31
0.0
  0
LINE
  5
162E8
330
15FC1
100
AcDbEntity
  8
YODOROGO
100
AcDbLine
 10
15308.80217064596
 20
897.8747482146435
 30
0.0
 11
15308.80217064596
 21
867.8747482146436
 31
0.0
  0
LINE
  5
162E9
330
15FC1
100
AcDbEntity
  8
YODOROGO
100
AcDbLine
 10
15582.80217064596
 20
1013.874748214644
 30
0.0
 11
15582.80217064596
 21
981.8747482146434
 31
0.0
  0
LINE
  5
162EA
330
15FC1
100
AcDbEntity
  8
YODOROGO
100
AcDbLine
 10
15766.80217064596
 20
797.8747482146435
 30
0.0
 11
15766.80217064594
 21
905.8747482146443
 31
0.0
  0
LINE
  5
162EB
330
15FC1
100
AcDbEntity
  8
YODOROGO
100
AcDbLine
 10
15730.80217064594
 20
993.8747482146439
 30
0.0
 11
15730.80217064594
 21
817.8747482146436
 31
0.0
  0
LINE
  5
162EC
330
15FC1
100
AcDbEntity
  8
YODOROGO
100
AcDbLine
 10
15826.80217064596
 20
713.8747482146436
 30
0.0
 11
15826.80217064594
 21
905.8747482146443
 31
0.0
  0
LINE
  5
162ED
330
15FC1
100
AcDbEntity
  8
YODOROGO
100
AcDbLine
 10
15794.80217064596
 20
905.8747482146443
 30
0.0
 11
15794.80217064596
 21
713.8747482146436
 31
0.0
  0
LINE
  5
162EE
330
15FC1
100
AcDbEntity
  8
YODOROGO
100
AcDbLine
 10
15618.80217064596
 20
797.8747482146435
 30
0.0
 11
15618.80217064596
 21
853.874748214644
 31
0.0
  0
ARC
  5
162EF
330
15FC1
100
AcDbEntity
  8
YODOROGO
100
AcDbCircle
 10
15676.95743255803
 20
803.8951756442788
 30
0.0
 40
90.04622428799429
100
AcDbArc
 50
268.6284910216979
 51
356.1663845733032
  0
LINE
  5
162F0
330
15FC1
100
AcDbEntity
  8
YODOROGO
100
AcDbLine
 10
15674.80217064596
 20
763.8747482146435
 30
0.0
 11
15674.80217064596
 21
713.8747482146436
 31
0.0
  0
ARC
  5
162F1
330
15FC1
100
AcDbEntity
  8
YODOROGO
100
AcDbCircle
 10
15675.75903786228
 20
818.9194785088275
 30
0.0
 40
55.05304649180608
100
AcDbArc
 50
269.0041020930593
 51
358.9126445549248
  0
LINE
  5
162F2
330
15FC1
100
AcDbEntity
  8
YODOROGO
100
AcDbLine
 10
15794.80217064596
 20
713.8747482146436
 30
0.0
 11
15826.80217064596
 21
713.8747482146436
 31
0.0
  0
LINE
  5
162F3
330
15FC1
100
AcDbEntity
  8
YODOROGO
100
AcDbLine
 10
15766.80217064594
 20
905.8747482146443
 30
0.0
 11
15794.80217064596
 21
905.8747482146443
 31
0.0
  0
LINE
  5
162F4
330
15FC1
100
AcDbEntity
  8
YODOROGO
100
AcDbLine
 10
15810.80217064596
 20
993.8747482146439
 30
0.0
 11
15730.80217064594
 21
993.8747482146439
 31
0.0
  0
LINE
  5
162F5
330
15FC1
100
AcDbEntity
  8
YODOROGO
100
AcDbLine
 10
15766.80217064594
 20
957.8747482146436
 30
0.0
 11
15830.80217064596
 21
957.8747482146436
 31
0.0
  0
LINE
  5
162F6
330
15FC1
100
AcDbEntity
  8
YODOROGO
100
AcDbLine
 10
15850.80217064596
 20
937.8747482146435
 30
0.0
 11
15766.80217064594
 21
937.8747482146435
 31
0.0
  0
LINE
  5
162F7
330
15FC1
100
AcDbEntity
  8
YODOROGO
100
AcDbLine
 10
15618.80217064596
 20
889.8747482146442
 30
0.0
 11
15674.80217064596
 21
889.8747482146442
 31
0.0
  0
LINE
  5
162F8
330
15FC1
100
AcDbEntity
  8
YODOROGO
100
AcDbLine
 10
15618.80217064596
 20
917.8747482146436
 30
0.0
 11
15618.80217064596
 21
889.8747482146442
 31
0.0
  0
LINE
  5
162F9
330
15FC1
100
AcDbEntity
  8
YODOROGO
100
AcDbLine
 10
15674.80217064596
 20
917.8747482146436
 30
0.0
 11
15618.80217064596
 21
917.8747482146436
 31
0.0
  0
LINE
  5
162FA
330
15FC1
100
AcDbEntity
  8
YODOROGO
100
AcDbLine
 10
15674.80217064596
 20
889.8747482146442
 30
0.0
 11
15674.80217064596
 21
917.8747482146436
 31
0.0
  0
LINE
  5
162FB
330
15FC1
100
AcDbEntity
  8
YODOROGO
100
AcDbLine
 10
15766.80217064594
 20
937.8747482146435
 30
0.0
 11
15766.80217064594
 21
957.8747482146436
 31
0.0
  0
LINE
  5
162FC
330
15FC1
100
AcDbEntity
  8
YODOROGO
100
AcDbLine
 10
15706.80217064596
 20
853.874748214644
 30
0.0
 11
15706.80217064596
 21
953.874748214644
 31
0.0
  0
LINE
  5
162FD
330
15FC1
100
AcDbEntity
  8
YODOROGO
100
AcDbLine
 10
15618.80217064596
 20
853.874748214644
 30
0.0
 11
15706.80217064596
 21
853.874748214644
 31
0.0
  0
LINE
  5
162FE
330
15FC1
100
AcDbEntity
  8
YODOROGO
100
AcDbLine
 10
15706.80217064596
 20
981.8747482146434
 30
0.0
 11
15706.80217064596
 21
1013.874748214644
 31
0.0
  0
ARC
  5
162FF
330
15FC1
100
AcDbEntity
  8
YODOROGO
100
AcDbCircle
 10
15810.80217064596
 20
1001.874748214642
 30
0.0
 40
7.99999999999727
100
AcDbArc
 50
270.0
 51
0.0000000000081422
  0
LINE
  5
16300
330
15FC1
100
AcDbEntity
  8
YODOROGO
100
AcDbLine
 10
15818.80217064596
 20
1013.874748214644
 30
0.0
 11
15818.80217064596
 21
1001.874748214643
 31
0.0
  0
LINE
  5
16301
330
15FC1
100
AcDbEntity
  8
YODOROGO
100
AcDbLine
 10
15850.80217064596
 20
1013.874748214644
 30
0.0
 11
15818.80217064596
 21
1013.874748214644
 31
0.0
  0
LINE
  5
16302
330
15FC1
100
AcDbEntity
  8
YODOROGO
100
AcDbLine
 10
15850.80217064596
 20
977.8747482146435
 30
0.0
 11
15850.80217064596
 21
1013.874748214644
 31
0.0
  0
ARC
  5
16303
330
15FC1
100
AcDbEntity
  8
YODOROGO
100
AcDbCircle
 10
15830.80217064596
 20
977.8747482146435
 30
0.0
 40
20.0
100
AcDbArc
 50
270.0
 51
0.0
  0
LINE
  5
16304
330
15FC1
100
AcDbEntity
  8
YODOROGO
100
AcDbLine
 10
15850.80217064596
 20
905.8747482146443
 30
0.0
 11
15850.80217064596
 21
937.8747482146435
 31
0.0
  0
LINE
  5
16305
330
15FC1
100
AcDbEntity
  8
YODOROGO
100
AcDbLine
 10
15826.80217064594
 20
905.8747482146443
 30
0.0
 11
15850.80217064596
 21
905.8747482146443
 31
0.0
  0
LINE
  5
16306
330
15FC1
100
AcDbEntity
  8
SUNPOU
100
AcDbLine
 10
4219.127507899644
 20
5796.279066364538
 30
0.0
 11
4219.127507899644
 21
5131.279066364539
 31
0.0
  0
LINE
  5
16307
330
15FC1
100
AcDbEntity
  8
SUNPOU
100
AcDbLine
 10
12219.12750789962
 20
5796.279066364538
 30
0.0
 11
12219.12750789962
 21
5131.279066364539
 31
0.0
  0
LINE
  5
16308
330
15FC1
100
AcDbEntity
  8
SUNPOU
100
AcDbLine
 10
4239.127507899644
 20
5176.279066364539
 30
0.0
 11
12199.12750789962
 21
5176.279066364539
 31
0.0
  0
LINE
  5
16309
330
15FC1
100
AcDbEntity
  8
SUNPOU
100
AcDbLine
 10
8981.900200012791
 20
3131.333194070899
 30
0.0
 11
9647.766108578618
 21
3131.333194070899
 31
0.0
  0
LINE
  5
1630A
330
15FC1
100
AcDbEntity
  8
SUNPOU
100
AcDbLine
 10
8981.900200012791
 20
1851.3331940709
 30
0.0
 11
9647.766108578618
 21
1851.3331940709
 31
0.0
  0
LINE
  5
1630B
330
15FC1
100
AcDbEntity
  8
SUNPOU
100
AcDbLine
 10
9602.76610857862
 20
3111.333194070899
 30
0.0
 11
9602.76610857862
 21
1871.3331940709
 31
0.0
  0
LINE
  5
1630C
330
15FC1
100
AcDbEntity
  8
SUNPOU
100
AcDbLine
 10
6557.900200012794
 20
1811.333194070899
 30
0.0
 11
6557.900200012794
 21
1315.898498232149
 31
0.0
  0
LINE
  5
1630D
330
15FC1
100
AcDbEntity
  8
SUNPOU
100
AcDbLine
 10
8941.900200012792
 20
1811.333194070899
 30
0.0
 11
8941.900200012792
 21
1315.898498232149
 31
0.0
  0
LINE
  5
1630E
330
15FC1
100
AcDbEntity
  8
SUNPOU
100
AcDbLine
 10
6577.900200012796
 20
1360.89849823215
 30
0.0
 11
8921.900200012791
 21
1360.89849823215
 31
0.0
  0
LINE
  5
1630F
330
15FC1
100
AcDbEntity
  8
SUNPOU
100
AcDbLine
 10
6144.639117456527
 20
1978.333194070899
 30
0.0
 11
6144.639117456527
 21
1993.333194070899
 31
0.0
  0
LINE
  5
16310
330
15FC1
100
AcDbEntity
  8
SUNPOU
100
AcDbLine
 10
6144.639117456527
 20
3004.333194070897
 30
0.0
 11
6144.639117456527
 21
2989.333194070897
 31
0.0
  0
LINE
  5
16311
330
15FC1
100
AcDbEntity
  8
SUNPOU
100
AcDbLine
 10
8814.900200012791
 20
3402.7112783133
 30
0.0
 11
8799.900200012791
 21
3402.7112783133
 31
0.0
  0
LINE
  5
16312
330
15FC1
100
AcDbEntity
  8
SUNPOU
100
AcDbLine
 10
6684.900200012794
 20
3402.7112783133
 30
0.0
 11
6699.900200012796
 21
3402.7112783133
 31
0.0
  0
LINE
  5
16313
330
15FC1
100
AcDbEntity
  8
SUNPOU
100
AcDbLine
 10
4512.429052763159
 20
3069.885413258396
 30
0.0
 11
5159.007034603489
 21
3069.885413258394
 31
0.0
  0
LINE
  5
16314
330
15FC1
100
AcDbEntity
  8
SUNPOU
100
AcDbLine
 10
3623.709052763164
 20
2269.885413258392
 30
0.0
 11
5159.007034603489
 21
2269.885413258392
 31
0.0
  0
LINE
  5
16315
330
15FC1
100
AcDbEntity
  8
SUNPOU
100
AcDbLine
 10
5114.007034603488
 20
3049.885413258394
 30
0.0
 11
5114.007034603488
 21
2289.885413258392
 31
0.0
  0
LINE
  5
16316
330
15FC1
100
AcDbEntity
  8
SUNPOU
100
AcDbLine
 10
4608.429052763159
 20
2109.885413258396
 30
0.0
 11
5369.00703460349
 21
2109.885413258396
 31
0.0
  0
LINE
  5
16317
330
15FC1
100
AcDbEntity
  8
SUNPOU
100
AcDbLine
 10
4608.429052763159
 20
1949.885413258396
 30
0.0
 11
5369.007034603489
 21
1949.885413258396
 31
0.0
  0
LINE
  5
16318
330
15FC1
100
AcDbEntity
  8
SUNPOU
100
AcDbLine
 10
5324.007034603489
 20
2089.885413258396
 30
0.0
 11
5324.007034603489
 21
1969.885413258396
 31
0.0
  0
LINE
  5
16319
330
15FC1
100
AcDbEntity
  8
SUNPOU
100
AcDbLine
 10
5324.007034603489
 20
1949.885413258396
 30
0.0
 11
5324.007034603489
 21
1694.17112754411
 31
0.0
  0
LINE
  5
1631A
330
15FC1
100
AcDbEntity
  8
SUNPOU
100
AcDbLine
 10
4512.429052763159
 20
3069.885413258396
 30
0.0
 11
5369.007034603489
 21
3069.885413258394
 31
0.0
  0
LINE
  5
1631B
330
15FC1
100
AcDbEntity
  8
SUNPOU
100
AcDbLine
 10
4608.429052763159
 20
2109.885413258397
 30
0.0
 11
5369.007034603489
 21
2109.885413258397
 31
0.0
  0
LINE
  5
1631C
330
15FC1
100
AcDbEntity
  8
SUNPOU
100
AcDbLine
 10
5324.007034603489
 20
3049.885413258394
 30
0.0
 11
5324.007034603489
 21
2129.885413258397
 31
0.0
  0
LINE
  5
1631D
330
15FC1
100
AcDbEntity
  8
SUNPOU
100
AcDbLine
 10
3048.429052763162
 20
1690.898498232148
 30
0.0
 11
3048.429052763162
 21
1695.898498232148
 31
0.0
  0
LINE
  5
1631E
330
15FC1
100
AcDbEntity
  8
SUNPOU
100
AcDbLine
 10
3512.429052763162
 20
1690.898498232148
 30
0.0
 11
3512.429052763162
 21
1695.898498232148
 31
0.0
  0
LINE
  5
1631F
330
15FC1
100
AcDbEntity
  8
SUNPOU
100
AcDbLine
 10
3068.429052763162
 20
1650.898498232148
 30
0.0
 11
3492.429052763162
 21
1650.898498232148
 31
0.0
  0
LINE
  5
16320
330
15FC1
100
AcDbEntity
  8
SUNPOU
100
AcDbLine
 10
3512.429052763162
 20
1690.898498232148
 30
0.0
 11
3512.429052763162
 21
1695.898498232148
 31
0.0
  0
LINE
  5
16321
330
15FC1
100
AcDbEntity
  8
SUNPOU
100
AcDbLine
 10
4472.42905276316
 20
1909.885413258396
 30
0.0
 11
4472.42905276316
 21
1605.898498232147
 31
0.0
  0
LINE
  5
16322
330
15FC1
100
AcDbEntity
  8
SUNPOU
100
AcDbLine
 10
3532.429052763162
 20
1650.898498232148
 30
0.0
 11
4452.429052763159
 21
1650.898498232148
 31
0.0
  0
LINE
  5
16323
330
15FC1
100
AcDbEntity
  8
SUNPOU
100
AcDbLine
 10
2088.429052763165
 20
1909.885413258392
 30
0.0
 11
2088.429052763165
 21
1605.898498232147
 31
0.0
  0
LINE
  5
16324
330
15FC1
100
AcDbEntity
  8
SUNPOU
100
AcDbLine
 10
3048.429052763162
 20
1690.898498232148
 30
0.0
 11
3048.429052763162
 21
1695.898498232148
 31
0.0
  0
LINE
  5
16325
330
15FC1
100
AcDbEntity
  8
SUNPOU
100
AcDbLine
 10
2108.429052763165
 20
1650.898498232148
 30
0.0
 11
3028.429052763162
 21
1650.898498232148
 31
0.0
  0
LINE
  5
16326
330
15FC1
100
AcDbEntity
  8
SUNPOU
100
AcDbLine
 10
2088.429052763165
 20
1909.885413258392
 30
0.0
 11
2088.429052763165
 21
1395.898498232148
 31
0.0
  0
LINE
  5
16327
330
15FC1
100
AcDbEntity
  8
SUNPOU
100
AcDbLine
 10
4472.42905276316
 20
1909.885413258396
 30
0.0
 11
4472.42905276316
 21
1395.898498232148
 31
0.0
  0
LINE
  5
16328
330
15FC1
100
AcDbEntity
  8
SUNPOU
100
AcDbLine
 10
2108.429052763165
 20
1440.898498232148
 30
0.0
 11
4452.429052763159
 21
1440.898498232148
 31
0.0
  0
LINE
  5
16329
330
15FC1
100
AcDbEntity
  8
SUNPOU
100
AcDbLine
 10
11819.12750789964
 20
6946.279066364538
 30
0.0
 11
11819.12750789964
 21
5341.279066364539
 31
0.0
  0
LINE
  5
1632A
330
15FC1
100
AcDbEntity
  8
SUNPOU
100
AcDbLine
 10
12219.12750789962
 20
5796.279066364538
 30
0.0
 11
12219.12750789962
 21
5341.279066364539
 31
0.0
  0
LINE
  5
1632B
330
15FC1
100
AcDbEntity
  8
SUNPOU
100
AcDbLine
 10
11839.12750789964
 20
5386.279066364539
 30
0.0
 11
12199.12750789962
 21
5386.279066364539
 31
0.0
  0
LINE
  5
1632C
330
15FC1
100
AcDbEntity
  8
SUNPOU
100
AcDbLine
 10
9419.127507899643
 20
7129.279066364539
 30
0.0
 11
9419.127507899643
 21
5341.279066364539
 31
0.0
  0
LINE
  5
1632D
330
15FC1
100
AcDbEntity
  8
SUNPOU
100
AcDbLine
 10
11819.12750789964
 20
6946.279066364538
 30
0.0
 11
11819.12750789964
 21
5341.279066364539
 31
0.0
  0
LINE
  5
1632E
330
15FC1
100
AcDbEntity
  8
SUNPOU
100
AcDbLine
 10
9439.127507899645
 20
5386.279066364539
 30
0.0
 11
11799.12750789964
 21
5386.279066364539
 31
0.0
  0
LINE
  5
1632F
330
15FC1
100
AcDbEntity
  8
SUNPOU
100
AcDbLine
 10
7019.127507899644
 20
7129.279066364539
 30
0.0
 11
7019.127507899644
 21
5341.279066364539
 31
0.0
  0
LINE
  5
16330
330
15FC1
100
AcDbEntity
  8
SUNPOU
100
AcDbLine
 10
9419.127507899643
 20
7129.279066364539
 30
0.0
 11
9419.127507899643
 21
5341.279066364539
 31
0.0
  0
LINE
  5
16331
330
15FC1
100
AcDbEntity
  8
SUNPOU
100
AcDbLine
 10
7039.127507899642
 20
5386.279066364539
 30
0.0
 11
9399.127507899644
 21
5386.279066364539
 31
0.0
  0
LINE
  5
16332
330
15FC1
100
AcDbEntity
  8
SUNPOU
100
AcDbLine
 10
4619.127507899643
 20
7129.279066364539
 30
0.0
 11
4619.127507899643
 21
5341.279066364539
 31
0.0
  0
LINE
  5
16333
330
15FC1
100
AcDbEntity
  8
SUNPOU
100
AcDbLine
 10
7019.127507899644
 20
7129.279066364539
 30
0.0
 11
7019.127507899644
 21
5341.279066364539
 31
0.0
  0
LINE
  5
16334
330
15FC1
100
AcDbEntity
  8
SUNPOU
100
AcDbLine
 10
4639.127507899644
 20
5386.279066364539
 30
0.0
 11
6999.127507899643
 21
5386.279066364539
 31
0.0
  0
LINE
  5
16335
330
15FC1
100
AcDbEntity
  8
SUNPOU
100
AcDbLine
 10
4219.127507899644
 20
5796.279066364538
 30
0.0
 11
4219.127507899644
 21
5341.279066364539
 31
0.0
  0
LINE
  5
16336
330
15FC1
100
AcDbEntity
  8
SUNPOU
100
AcDbLine
 10
4619.127507899643
 20
7129.279066364539
 30
0.0
 11
4619.127507899643
 21
5341.279066364539
 31
0.0
  0
LINE
  5
16337
330
15FC1
100
AcDbEntity
  8
SUNPOU
100
AcDbLine
 10
4239.127507899644
 20
5386.279066364539
 30
0.0
 11
4599.127507899644
 21
5386.279066364539
 31
0.0
  0
ARC
  5
16338
330
15FC1
100
AcDbEntity
  8
SUNPOU
100
AcDbCircle
 10
12879.12750789963
 20
8726.279066364538
 30
0.0
 40
5.625
100
AcDbArc
 50
90.0
 51
270.0
  0
ARC
  5
16339
330
15FC1
100
AcDbEntity
  8
SUNPOU
100
AcDbCircle
 10
12879.12750789963
 20
8726.279066364538
 30
0.0
 40
5.625
100
AcDbArc
 50
270.0
 51
90.0
  0
ARC
  5
1633A
330
15FC1
100
AcDbEntity
  8
SUNPOU
100
AcDbCircle
 10
12669.12750789964
 20
8726.279066364538
 30
0.0
 40
5.625
100
AcDbArc
 50
90.0
 51
270.0
  0
ARC
  5
1633B
330
15FC1
100
AcDbEntity
  8
SUNPOU
100
AcDbCircle
 10
12669.12750789964
 20
8726.279066364538
 30
0.0
 40
5.625
100
AcDbArc
 50
270.0
 51
90.0
  0
ARC
  5
1633C
330
15FC1
100
AcDbEntity
  8
SUNPOU
100
AcDbCircle
 10
12669.12750789964
 20
8126.279066364539
 30
0.0
 40
5.625
100
AcDbArc
 50
90.0
 51
270.0
  0
ARC
  5
1633D
330
15FC1
100
AcDbEntity
  8
SUNPOU
100
AcDbCircle
 10
12669.12750789964
 20
8126.279066364539
 30
0.0
 40
5.625
100
AcDbArc
 50
270.0
 51
90.0
  0
ARC
  5
1633E
330
15FC1
100
AcDbEntity
  8
SUNPOU
100
AcDbCircle
 10
12669.12750789964
 20
7836.279066364538
 30
0.0
 40
5.625
100
AcDbArc
 50
270.0
 51
90.0
  0
ARC
  5
1633F
330
15FC1
100
AcDbEntity
  8
SUNPOU
100
AcDbCircle
 10
12669.12750789964
 20
7836.279066364538
 30
0.0
 40
5.625
100
AcDbArc
 50
90.0
 51
270.0
  0
ARC
  5
16340
330
15FC1
100
AcDbEntity
  8
SUNPOU
100
AcDbCircle
 10
12669.12750789964
 20
7836.279066364538
 30
0.0
 40
5.625
100
AcDbArc
 50
90.0
 51
270.0
  0
ARC
  5
16341
330
15FC1
100
AcDbEntity
  8
SUNPOU
100
AcDbCircle
 10
12669.12750789964
 20
7836.279066364538
 30
0.0
 40
5.625
100
AcDbArc
 50
270.0
 51
90.0
  0
ARC
  5
16342
330
15FC1
100
AcDbEntity
  8
SUNPOU
100
AcDbCircle
 10
12669.12750789964
 20
8126.279066364539
 30
0.0
 40
5.625
100
AcDbArc
 50
270.0
 51
90.0
  0
ARC
  5
16343
330
15FC1
100
AcDbEntity
  8
SUNPOU
100
AcDbCircle
 10
12669.12750789964
 20
8126.279066364539
 30
0.0
 40
5.625
100
AcDbArc
 50
90.0
 51
270.0
  0
ARC
  5
16344
330
15FC1
100
AcDbEntity
  8
SUNPOU
100
AcDbCircle
 10
12879.12750789963
 20
7236.279066364541
 30
0.0
 40
5.625
100
AcDbArc
 50
270.0
 51
90.0
  0
ARC
  5
16345
330
15FC1
100
AcDbEntity
  8
SUNPOU
100
AcDbCircle
 10
12879.12750789963
 20
7236.279066364541
 30
0.0
 40
5.625
100
AcDbArc
 50
90.0
 51
270.0
  0
ARC
  5
16346
330
15FC1
100
AcDbEntity
  8
SUNPOU
100
AcDbCircle
 10
12669.12750789964
 20
7236.279066364541
 30
0.0
 40
5.625
100
AcDbArc
 50
270.0
 51
90.0
  0
ARC
  5
16347
330
15FC1
100
AcDbEntity
  8
SUNPOU
100
AcDbCircle
 10
12669.12750789964
 20
7236.279066364541
 30
0.0
 40
5.625
100
AcDbArc
 50
90.0
 51
270.0
  0
ARC
  5
16348
330
15FC1
100
AcDbEntity
  8
SUNPOU
100
AcDbCircle
 10
12219.12750789962
 20
6986.27906636454
 30
0.0
 40
5.625
100
AcDbArc
 50
0.0
 51
180.0
  0
ARC
  5
16349
330
15FC1
100
AcDbEntity
  8
SUNPOU
100
AcDbCircle
 10
12219.12750789962
 20
6986.27906636454
 30
0.0
 40
5.625
100
AcDbArc
 50
180.0
 51
0.0
  0
ARC
  5
1634A
330
15FC1
100
AcDbEntity
  8
SUNPOU
100
AcDbCircle
 10
11419.12750789964
 20
6986.27906636454
 30
0.0
 40
5.624999999996362
100
AcDbArc
 50
180.0
 51
0.0
  0
ARC
  5
1634B
330
15FC1
100
AcDbEntity
  8
SUNPOU
100
AcDbCircle
 10
11419.12750789964
 20
6986.27906636454
 30
0.0
 40
5.624999999996362
100
AcDbArc
 50
0.0
 51
180.0
  0
ARC
  5
1634C
330
15FC1
100
AcDbEntity
  8
SUNPOU
100
AcDbCircle
 10
3769.127507899644
 20
10126.27906636453
 30
0.0
 40
5.625
100
AcDbArc
 50
270.0
 51
90.0
  0
ARC
  5
1634D
330
15FC1
100
AcDbEntity
  8
SUNPOU
100
AcDbCircle
 10
3769.127507899644
 20
10126.27906636453
 30
0.0
 40
5.625
100
AcDbArc
 50
90.0
 51
270.0
  0
ARC
  5
1634E
330
15FC1
100
AcDbEntity
  8
SUNPOU
100
AcDbCircle
 10
3769.127507899644
 20
8126.279066364539
 30
0.0
 40
5.625
100
AcDbArc
 50
270.0
 51
90.0
  0
ARC
  5
1634F
330
15FC1
100
AcDbEntity
  8
SUNPOU
100
AcDbCircle
 10
3769.127507899644
 20
8126.279066364539
 30
0.0
 40
5.625
100
AcDbArc
 50
90.0
 51
270.0
  0
ARC
  5
16350
330
15FC1
100
AcDbEntity
  8
SUNPOU
100
AcDbCircle
 10
3769.127507899644
 20
7836.279066364538
 30
0.0
 40
5.625
100
AcDbArc
 50
270.0
 51
90.0
  0
ARC
  5
16351
330
15FC1
100
AcDbEntity
  8
SUNPOU
100
AcDbCircle
 10
3769.127507899644
 20
7836.279066364538
 30
0.0
 40
5.625
100
AcDbArc
 50
90.0
 51
270.0
  0
ARC
  5
16352
330
15FC1
100
AcDbEntity
  8
SUNPOU
100
AcDbCircle
 10
3769.127507899644
 20
7836.279066364538
 30
0.0
 40
5.625
100
AcDbArc
 50
90.0
 51
270.0
  0
ARC
  5
16353
330
15FC1
100
AcDbEntity
  8
SUNPOU
100
AcDbCircle
 10
3769.127507899644
 20
7836.279066364538
 30
0.0
 40
5.625
100
AcDbArc
 50
270.0
 51
90.0
  0
ARC
  5
16354
330
15FC1
100
AcDbEntity
  8
SUNPOU
100
AcDbCircle
 10
3769.127507899644
 20
8126.279066364539
 30
0.0
 40
5.625
100
AcDbArc
 50
90.0
 51
270.0
  0
ARC
  5
16355
330
15FC1
100
AcDbEntity
  8
SUNPOU
100
AcDbCircle
 10
3769.127507899644
 20
8126.279066364539
 30
0.0
 40
5.625
100
AcDbArc
 50
270.0
 51
90.0
  0
ARC
  5
16356
330
15FC1
100
AcDbEntity
  8
SUNPOU
100
AcDbCircle
 10
3769.127507899644
 20
5836.279066364538
 30
0.0
 40
5.625
100
AcDbArc
 50
90.0
 51
270.0
  0
ARC
  5
16357
330
15FC1
100
AcDbEntity
  8
SUNPOU
100
AcDbCircle
 10
3769.127507899644
 20
5836.279066364538
 30
0.0
 40
5.625
100
AcDbArc
 50
270.0
 51
90.0
  0
TEXT
  5
16358
330
15FC1
100
AcDbEntity
  8
SUNPOU
100
AcDbText
 10
7743.675165042498
 20
5221.279066364539
 30
0.0
 40
90.0
  1
L = 2400 × N + 800
 41
0.6667
  7
00
100
AcDbText
  0
LINE
  5
16359
330
15FC1
100
AcDbEntity
  8
SUNPOU
100
AcDbLine
 10
12204.12750789964
 20
5176.279066364539
 30
0.0
 11
12189.12750789963
 21
5176.279066364539
 31
0.0
  0
LINE
  5
1635A
330
15FC1
100
AcDbEntity
  8
SUNPOU
100
AcDbLine
 10
4234.127507899644
 20
5176.279066364539
 30
0.0
 11
4249.127507899644
 21
5176.279066364539
 31
0.0
  0
TEXT
  5
1635B
330
15FC1
100
AcDbEntity
  8
SUNPOU
100
AcDbText
 10
9557.766108578618
 20
2405.618908356616
 30
0.0
 40
90.0
  1
800
 50
90.0
 41
0.6666666666666666
  7
00
100
AcDbText
  0
LINE
  5
1635C
330
15FC1
100
AcDbEntity
  8
SUNPOU
100
AcDbLine
 10
9602.76610857862
 20
1866.333194070899
 30
0.0
 11
9602.76610857862
 21
1881.333194070899
 31
0.0
  0
LINE
  5
1635D
330
15FC1
100
AcDbEntity
  8
SUNPOU
100
AcDbLine
 10
9602.76610857862
 20
3116.333194070898
 30
0.0
 11
9602.76610857862
 21
3101.333194070899
 31
0.0
  0
TEXT
  5
1635E
330
15FC1
100
AcDbEntity
  8
SUNPOU
100
AcDbText
 10
7631.328771441364
 20
1405.89849823215
 30
0.0
 40
90.0
  1
1490
 41
0.6666666666666666
  7
00
100
AcDbText
  0
LINE
  5
1635F
330
15FC1
100
AcDbEntity
  8
SUNPOU
100
AcDbLine
 10
8926.900200012791
 20
1360.89849823215
 30
0.0
 11
8911.900200012791
 21
1360.89849823215
 31
0.0
  0
LINE
  5
16360
330
15FC1
100
AcDbEntity
  8
SUNPOU
100
AcDbLine
 10
6572.900200012796
 20
1360.89849823215
 30
0.0
 11
6587.900200012794
 21
1360.89849823215
 31
0.0
  0
ARC
  5
16361
330
15FC1
100
AcDbEntity
  8
SUNPOU
100
AcDbCircle
 10
6144.639117456527
 20
1963.333194070899
 30
0.0
 40
7.5
100
AcDbArc
 50
90.0
 51
270.0
  0
ARC
  5
16362
330
15FC1
100
AcDbEntity
  8
SUNPOU
100
AcDbCircle
 10
6144.639117456527
 20
1963.333194070899
 30
0.0
 40
7.5
100
AcDbArc
 50
270.0
 51
90.0
  0
ARC
  5
16363
330
15FC1
100
AcDbEntity
  8
SUNPOU
100
AcDbCircle
 10
6144.639117456527
 20
3019.333194070897
 30
0.0
 40
7.5
100
AcDbArc
 50
270.0
 51
90.0
  0
ARC
  5
16364
330
15FC1
100
AcDbEntity
  8
SUNPOU
100
AcDbCircle
 10
6144.639117456527
 20
3019.333194070897
 30
0.0
 40
7.5
100
AcDbArc
 50
90.0
 51
270.0
  0
ARC
  5
16365
330
15FC1
100
AcDbEntity
  8
SUNPOU
100
AcDbCircle
 10
8829.900200012792
 20
3402.7112783133
 30
0.0
 40
7.5
100
AcDbArc
 50
180.0
 51
0.0
  0
ARC
  5
16366
330
15FC1
100
AcDbEntity
  8
SUNPOU
100
AcDbCircle
 10
8829.900200012792
 20
3402.7112783133
 30
0.0
 40
7.5
100
AcDbArc
 50
0.0
 51
180.0
  0
ARC
  5
16367
330
15FC1
100
AcDbEntity
  8
SUNPOU
100
AcDbCircle
 10
6669.900200012796
 20
3402.7112783133
 30
0.0
 40
7.5
100
AcDbArc
 50
0.0
 51
180.0
  0
ARC
  5
16368
330
15FC1
100
AcDbEntity
  8
SUNPOU
100
AcDbCircle
 10
6669.900200012796
 20
3402.7112783133
 30
0.0
 40
7.5
100
AcDbArc
 50
180.0
 51
0.0
  0
TEXT
  5
16369
330
15FC1
100
AcDbEntity
  8
SUNPOU
100
AcDbText
 10
5069.007034603488
 20
2584.171127544109
 30
0.0
 40
90.0
  1
500
 50
90.0
 41
0.6666666666666666
  7
00
100
AcDbText
  0
LINE
  5
1636A
330
15FC1
100
AcDbEntity
  8
SUNPOU
100
AcDbLine
 10
5114.007034603488
 20
2284.885413258392
 30
0.0
 11
5114.007034603488
 21
2299.885413258393
 31
0.0
  0
LINE
  5
1636B
330
15FC1
100
AcDbEntity
  8
SUNPOU
100
AcDbLine
 10
5114.007034603488
 20
3054.885413258395
 30
0.0
 11
5114.007034603488
 21
3039.885413258395
 31
0.0
  0
TEXT
  5
1636C
330
15FC1
100
AcDbEntity
  8
SUNPOU
100
AcDbText
 10
5279.007034603489
 20
1722.028270401254
 30
0.0
 40
90.0
  1
100
 50
90.0
 41
0.6666666666666666
  7
00
100
AcDbText
  0
LINE
  5
1636D
330
15FC1
100
AcDbEntity
  8
SUNPOU
100
AcDbLine
 10
5324.007034603489
 20
1964.885413258396
 30
0.0
 11
5324.007034603489
 21
1979.885413258396
 31
0.0
  0
LINE
  5
1636E
330
15FC1
100
AcDbEntity
  8
SUNPOU
100
AcDbLine
 10
5324.007034603489
 20
2094.885413258396
 30
0.0
 11
5324.007034603489
 21
2079.885413258395
 31
0.0
  0
TEXT
  5
1636F
330
15FC1
100
AcDbEntity
  8
SUNPOU
100
AcDbText
 10
5279.007034603488
 20
2502.74255611554
 30
0.0
 40
90.0
  1
600
 50
90.0
 41
0.6666666666666666
  7
00
100
AcDbText
  0
LINE
  5
16370
330
15FC1
100
AcDbEntity
  8
SUNPOU
100
AcDbLine
 10
5324.007034603489
 20
2124.885413258396
 30
0.0
 11
5324.007034603489
 21
2139.885413258397
 31
0.0
  0
LINE
  5
16371
330
15FC1
100
AcDbEntity
  8
SUNPOU
100
AcDbLine
 10
5324.007034603489
 20
3054.885413258395
 30
0.0
 11
5324.007034603489
 21
3039.885413258395
 31
0.0
  0
TEXT
  5
16372
330
15FC1
100
AcDbEntity
  8
SUNPOU
100
AcDbText
 10
3194.714767048877
 20
1695.898498232148
 30
0.0
 40
90.0
  1
290
 41
0.6666666666666666
  7
00
100
AcDbText
  0
LINE
  5
16373
330
15FC1
100
AcDbEntity
  8
SUNPOU
100
AcDbLine
 10
3497.429052763163
 20
1650.898498232148
 30
0.0
 11
3482.429052763162
 21
1650.898498232148
 31
0.0
  0
LINE
  5
16374
330
15FC1
100
AcDbEntity
  8
SUNPOU
100
AcDbLine
 10
3063.429052763162
 20
1650.898498232148
 30
0.0
 11
3078.429052763162
 21
1650.898498232148
 31
0.0
  0
TEXT
  5
16375
330
15FC1
100
AcDbEntity
  8
SUNPOU
100
AcDbText
 10
3905.286195620303
 20
1695.898498232148
 30
0.0
 40
90.0
  1
600
 41
0.6666666666666666
  7
00
100
AcDbText
  0
LINE
  5
16376
330
15FC1
100
AcDbEntity
  8
SUNPOU
100
AcDbLine
 10
4457.429052763159
 20
1650.898498232148
 30
0.0
 11
4442.429052763158
 21
1650.898498232148
 31
0.0
  0
LINE
  5
16377
330
15FC1
100
AcDbEntity
  8
SUNPOU
100
AcDbLine
 10
3527.429052763162
 20
1650.898498232148
 30
0.0
 11
3542.429052763162
 21
1650.898498232148
 31
0.0
  0
TEXT
  5
16378
330
15FC1
100
AcDbEntity
  8
SUNPOU
100
AcDbText
 10
2481.286195620306
 20
1695.898498232148
 30
0.0
 40
90.0
  1
600
 41
0.6666666666666666
  7
00
100
AcDbText
  0
LINE
  5
16379
330
15FC1
100
AcDbEntity
  8
SUNPOU
100
AcDbLine
 10
3033.429052763162
 20
1650.898498232148
 30
0.0
 11
3018.429052763162
 21
1650.898498232148
 31
0.0
  0
LINE
  5
1637A
330
15FC1
100
AcDbEntity
  8
SUNPOU
100
AcDbLine
 10
2103.429052763164
 20
1650.898498232148
 30
0.0
 11
2118.429052763164
 21
1650.898498232148
 31
0.0
  0
TEXT
  5
1637B
330
15FC1
100
AcDbEntity
  8
SUNPOU
100
AcDbText
 10
3161.857624191732
 20
1485.898498232148
 30
0.0
 40
90.0
  1
1490
 41
0.6666666666666666
  7
00
100
AcDbText
  0
LINE
  5
1637C
330
15FC1
100
AcDbEntity
  8
SUNPOU
100
AcDbLine
 10
4457.429052763159
 20
1440.898498232148
 30
0.0
 11
4442.429052763158
 21
1440.898498232148
 31
0.0
  0
LINE
  5
1637D
330
15FC1
100
AcDbEntity
  8
SUNPOU
100
AcDbLine
 10
2103.429052763164
 20
1440.898498232148
 30
0.0
 11
2118.429052763164
 21
1440.898498232148
 31
0.0
  0
TEXT
  5
1637E
330
15FC1
100
AcDbEntity
  8
SUNPOU
100
AcDbText
 10
11933.41322218535
 20
5431.279066364539
 30
0.0
 40
90.0
  1
400
 41
0.6666666666666666
  7
00
100
AcDbText
  0
LINE
  5
1637F
330
15FC1
100
AcDbEntity
  8
SUNPOU
100
AcDbLine
 10
12204.12750789964
 20
5386.279066364539
 30
0.0
 11
12189.12750789963
 21
5386.279066364539
 31
0.0
  0
LINE
  5
16380
330
15FC1
100
AcDbEntity
  8
SUNPOU
100
AcDbLine
 10
11834.12750789963
 20
5386.279066364539
 30
0.0
 11
11849.12750789963
 21
5386.279066364539
 31
0.0
  0
TEXT
  5
16381
330
15FC1
100
AcDbEntity
  8
SUNPOU
100
AcDbText
 10
10504.84179361391
 20
5431.279066364539
 30
0.0
 40
90.0
  1
2400
 41
0.6666666666666666
  7
00
100
AcDbText
  0
LINE
  5
16382
330
15FC1
100
AcDbEntity
  8
SUNPOU
100
AcDbLine
 10
11804.12750789963
 20
5386.279066364539
 30
0.0
 11
11789.12750789963
 21
5386.279066364539
 31
0.0
  0
LINE
  5
16383
330
15FC1
100
AcDbEntity
  8
SUNPOU
100
AcDbLine
 10
9434.127507899644
 20
5386.279066364539
 30
0.0
 11
9449.127507899644
 21
5386.279066364539
 31
0.0
  0
TEXT
  5
16384
330
15FC1
100
AcDbEntity
  8
SUNPOU
100
AcDbText
 10
7829.413222185358
 20
5431.279066364539
 30
0.0
 40
90.0
  1
2400 ×（ N - 2 ）
 41
0.6666666666666666
  7
00
100
AcDbText
  0
LINE
  5
16385
330
15FC1
100
AcDbEntity
  8
SUNPOU
100
AcDbLine
 10
9404.127507899644
 20
5386.279066364539
 30
0.0
 11
9389.127507899644
 21
5386.279066364539
 31
0.0
  0
LINE
  5
16386
330
15FC1
100
AcDbEntity
  8
SUNPOU
100
AcDbLine
 10
7034.127507899643
 20
5386.279066364539
 30
0.0
 11
7049.127507899644
 21
5386.279066364539
 31
0.0
  0
TEXT
  5
16387
330
15FC1
100
AcDbEntity
  8
SUNPOU
100
AcDbText
 10
5704.84179361393
 20
5431.279066364539
 30
0.0
 40
90.0
  1
2400
 41
0.6666666666666666
  7
00
100
AcDbText
  0
LINE
  5
16388
330
15FC1
100
AcDbEntity
  8
SUNPOU
100
AcDbLine
 10
7004.127507899643
 20
5386.279066364539
 30
0.0
 11
6989.127507899643
 21
5386.279066364539
 31
0.0
  0
LINE
  5
16389
330
15FC1
100
AcDbEntity
  8
SUNPOU
100
AcDbLine
 10
4634.127507899644
 20
5386.279066364539
 30
0.0
 11
4649.127507899645
 21
5386.279066364539
 31
0.0
  0
TEXT
  5
1638A
330
15FC1
100
AcDbEntity
  8
SUNPOU
100
AcDbText
 10
4333.413222185359
 20
5431.279066364539
 30
0.0
 40
90.0
  1
400
 41
0.6666666666666666
  7
00
100
AcDbText
  0
LINE
  5
1638B
330
15FC1
100
AcDbEntity
  8
SUNPOU
100
AcDbLine
 10
4604.127507899644
 20
5386.279066364539
 30
0.0
 11
4589.127507899644
 21
5386.279066364539
 31
0.0
  0
LINE
  5
1638C
330
15FC1
100
AcDbEntity
  8
SUNPOU
100
AcDbLine
 10
4234.127507899644
 20
5386.279066364539
 30
0.0
 11
4249.127507899644
 21
5386.279066364539
 31
0.0
  0
ARC
  5
1638D
330
15FC1
100
AcDbEntity
  8
SUNPOU
100
AcDbCircle
 10
12219.12750789962
 20
5176.279066364539
 30
0.0
 40
7.5
100
AcDbArc
 50
180.0
 51
0.0
  0
ARC
  5
1638E
330
15FC1
100
AcDbEntity
  8
SUNPOU
100
AcDbCircle
 10
12219.12750789962
 20
5176.279066364539
 30
0.0
 40
7.5
100
AcDbArc
 50
0.0
 51
180.0
  0
ARC
  5
1638F
330
15FC1
100
AcDbEntity
  8
SUNPOU
100
AcDbCircle
 10
4219.127507899644
 20
5176.279066364539
 30
0.0
 40
7.5
100
AcDbArc
 50
0.0
 51
180.0
  0
ARC
  5
16390
330
15FC1
100
AcDbEntity
  8
SUNPOU
100
AcDbCircle
 10
4219.127507899644
 20
5176.279066364539
 30
0.0
 40
7.5
100
AcDbArc
 50
180.0
 51
0.0
  0
ARC
  5
16391
330
15FC1
100
AcDbEntity
  8
SUNPOU
100
AcDbCircle
 10
9602.76610857862
 20
1851.3331940709
 30
0.0
 40
7.5
100
AcDbArc
 50
90.0
 51
270.0
  0
ARC
  5
16392
330
15FC1
100
AcDbEntity
  8
SUNPOU
100
AcDbCircle
 10
9602.76610857862
 20
1851.3331940709
 30
0.0
 40
7.5
100
AcDbArc
 50
270.0
 51
90.0
  0
ARC
  5
16393
330
15FC1
100
AcDbEntity
  8
SUNPOU
100
AcDbCircle
 10
9602.76610857862
 20
3131.333194070899
 30
0.0
 40
7.5
100
AcDbArc
 50
270.0
 51
90.0
  0
ARC
  5
16394
330
15FC1
100
AcDbEntity
  8
SUNPOU
100
AcDbCircle
 10
9602.76610857862
 20
3131.333194070899
 30
0.0
 40
7.5
100
AcDbArc
 50
90.0
 51
270.0
  0
ARC
  5
16395
330
15FC1
100
AcDbEntity
  8
SUNPOU
100
AcDbCircle
 10
8941.900200012792
 20
1360.89849823215
 30
0.0
 40
7.5
100
AcDbArc
 50
180.0
 51
0.0
  0
ARC
  5
16396
330
15FC1
100
AcDbEntity
  8
SUNPOU
100
AcDbCircle
 10
8941.900200012792
 20
1360.89849823215
 30
0.0
 40
7.5
100
AcDbArc
 50
0.0
 51
180.0
  0
ARC
  5
16397
330
15FC1
100
AcDbEntity
  8
SUNPOU
100
AcDbCircle
 10
6557.900200012794
 20
1360.89849823215
 30
0.0
 40
7.5
100
AcDbArc
 50
0.0
 51
180.0
  0
ARC
  5
16398
330
15FC1
100
AcDbEntity
  8
SUNPOU
100
AcDbCircle
 10
6557.900200012794
 20
1360.89849823215
 30
0.0
 40
7.5
100
AcDbArc
 50
180.0
 51
0.0
  0
ARC
  5
16399
330
15FC1
100
AcDbEntity
  8
SUNPOU
100
AcDbCircle
 10
5114.007034603488
 20
2269.885413258392
 30
0.0
 40
7.5
100
AcDbArc
 50
90.0
 51
270.0
  0
ARC
  5
1639A
330
15FC1
100
AcDbEntity
  8
SUNPOU
100
AcDbCircle
 10
5114.007034603488
 20
2269.885413258392
 30
0.0
 40
7.5
100
AcDbArc
 50
270.0
 51
90.0
  0
ARC
  5
1639B
330
15FC1
100
AcDbEntity
  8
SUNPOU
100
AcDbCircle
 10
5114.007034603488
 20
3069.885413258396
 30
0.0
 40
7.5
100
AcDbArc
 50
270.0
 51
90.0
  0
ARC
  5
1639C
330
15FC1
100
AcDbEntity
  8
SUNPOU
100
AcDbCircle
 10
5114.007034603488
 20
3069.885413258396
 30
0.0
 40
7.5
100
AcDbArc
 50
90.0
 51
270.0
  0
ARC
  5
1639D
330
15FC1
100
AcDbEntity
  8
SUNPOU
100
AcDbCircle
 10
5324.007034603489
 20
1949.885413258396
 30
0.0
 40
7.5
100
AcDbArc
 50
90.0
 51
270.0
  0
ARC
  5
1639E
330
15FC1
100
AcDbEntity
  8
SUNPOU
100
AcDbCircle
 10
5324.007034603489
 20
1949.885413258396
 30
0.0
 40
7.5
100
AcDbArc
 50
270.0
 51
90.0
  0
ARC
  5
1639F
330
15FC1
100
AcDbEntity
  8
SUNPOU
100
AcDbCircle
 10
5324.007034603489
 20
2109.885413258396
 30
0.0
 40
7.5
100
AcDbArc
 50
270.0
 51
90.0
  0
ARC
  5
163A0
330
15FC1
100
AcDbEntity
  8
SUNPOU
100
AcDbCircle
 10
5324.007034603489
 20
2109.885413258396
 30
0.0
 40
7.5
100
AcDbArc
 50
90.0
 51
270.0
  0
ARC
  5
163A1
330
15FC1
100
AcDbEntity
  8
SUNPOU
100
AcDbCircle
 10
5324.007034603489
 20
2109.885413258397
 30
0.0
 40
7.5
100
AcDbArc
 50
90.0
 51
270.0
  0
ARC
  5
163A2
330
15FC1
100
AcDbEntity
  8
SUNPOU
100
AcDbCircle
 10
5324.007034603489
 20
2109.885413258397
 30
0.0
 40
7.5
100
AcDbArc
 50
270.0
 51
90.0
  0
ARC
  5
163A3
330
15FC1
100
AcDbEntity
  8
SUNPOU
100
AcDbCircle
 10
5324.007034603489
 20
3069.885413258394
 30
0.0
 40
7.5
100
AcDbArc
 50
270.0
 51
90.0
  0
ARC
  5
163A4
330
15FC1
100
AcDbEntity
  8
SUNPOU
100
AcDbCircle
 10
5324.007034603489
 20
3069.885413258394
 30
0.0
 40
7.5
100
AcDbArc
 50
90.0
 51
270.0
  0
ARC
  5
163A5
330
15FC1
100
AcDbEntity
  8
SUNPOU
100
AcDbCircle
 10
3512.429052763162
 20
1650.898498232148
 30
0.0
 40
7.5
100
AcDbArc
 50
180.0
 51
0.0
  0
ARC
  5
163A6
330
15FC1
100
AcDbEntity
  8
SUNPOU
100
AcDbCircle
 10
3512.429052763162
 20
1650.898498232148
 30
0.0
 40
7.5
100
AcDbArc
 50
0.0
 51
180.0
  0
ARC
  5
163A7
330
15FC1
100
AcDbEntity
  8
SUNPOU
100
AcDbCircle
 10
3048.429052763162
 20
1650.898498232148
 30
0.0
 40
7.5
100
AcDbArc
 50
0.0
 51
180.0
  0
ARC
  5
163A8
330
15FC1
100
AcDbEntity
  8
SUNPOU
100
AcDbCircle
 10
3048.429052763162
 20
1650.898498232148
 30
0.0
 40
7.5
100
AcDbArc
 50
180.0
 51
0.0
  0
ARC
  5
163A9
330
15FC1
100
AcDbEntity
  8
SUNPOU
100
AcDbCircle
 10
4472.42905276316
 20
1650.898498232148
 30
0.0
 40
7.5
100
AcDbArc
 50
180.0
 51
0.0
  0
ARC
  5
163AA
330
15FC1
100
AcDbEntity
  8
SUNPOU
100
AcDbCircle
 10
4472.42905276316
 20
1650.898498232148
 30
0.0
 40
7.5
100
AcDbArc
 50
0.0
 51
180.0
  0
ARC
  5
163AB
330
15FC1
100
AcDbEntity
  8
SUNPOU
100
AcDbCircle
 10
3512.429052763162
 20
1650.898498232148
 30
0.0
 40
7.5
100
AcDbArc
 50
0.0
 51
180.0
  0
ARC
  5
163AC
330
15FC1
100
AcDbEntity
  8
SUNPOU
100
AcDbCircle
 10
3512.429052763162
 20
1650.898498232148
 30
0.0
 40
7.5
100
AcDbArc
 50
180.0
 51
0.0
  0
ARC
  5
163AD
330
15FC1
100
AcDbEntity
  8
SUNPOU
100
AcDbCircle
 10
3048.429052763162
 20
1650.898498232148
 30
0.0
 40
7.5
100
AcDbArc
 50
180.0
 51
0.0
  0
ARC
  5
163AE
330
15FC1
100
AcDbEntity
  8
SUNPOU
100
AcDbCircle
 10
3048.429052763162
 20
1650.898498232148
 30
0.0
 40
7.5
100
AcDbArc
 50
0.0
 51
180.0
  0
ARC
  5
163AF
330
15FC1
100
AcDbEntity
  8
SUNPOU
100
AcDbCircle
 10
2088.429052763165
 20
1650.898498232148
 30
0.0
 40
7.5
100
AcDbArc
 50
0.0
 51
180.0
  0
ARC
  5
163B0
330
15FC1
100
AcDbEntity
  8
SUNPOU
100
AcDbCircle
 10
2088.429052763165
 20
1650.898498232148
 30
0.0
 40
7.5
100
AcDbArc
 50
180.0
 51
0.0
  0
ARC
  5
163B1
330
15FC1
100
AcDbEntity
  8
SUNPOU
100
AcDbCircle
 10
4472.42905276316
 20
1440.898498232148
 30
0.0
 40
7.5
100
AcDbArc
 50
180.0
 51
0.0
  0
ARC
  5
163B2
330
15FC1
100
AcDbEntity
  8
SUNPOU
100
AcDbCircle
 10
4472.42905276316
 20
1440.898498232148
 30
0.0
 40
7.5
100
AcDbArc
 50
0.0
 51
180.0
  0
ARC
  5
163B3
330
15FC1
100
AcDbEntity
  8
SUNPOU
100
AcDbCircle
 10
2088.429052763165
 20
1440.898498232148
 30
0.0
 40
7.5
100
AcDbArc
 50
0.0
 51
180.0
  0
ARC
  5
163B4
330
15FC1
100
AcDbEntity
  8
SUNPOU
100
AcDbCircle
 10
2088.429052763165
 20
1440.898498232148
 30
0.0
 40
7.5
100
AcDbArc
 50
180.0
 51
0.0
  0
ARC
  5
163B5
330
15FC1
100
AcDbEntity
  8
SUNPOU
100
AcDbCircle
 10
12219.12750789962
 20
5386.279066364539
 30
0.0
 40
7.5
100
AcDbArc
 50
180.0
 51
0.0
  0
ARC
  5
163B6
330
15FC1
100
AcDbEntity
  8
SUNPOU
100
AcDbCircle
 10
12219.12750789962
 20
5386.279066364539
 30
0.0
 40
7.5
100
AcDbArc
 50
0.0
 51
180.0
  0
ARC
  5
163B7
330
15FC1
100
AcDbEntity
  8
SUNPOU
100
AcDbCircle
 10
11819.12750789964
 20
5386.279066364539
 30
0.0
 40
7.5
100
AcDbArc
 50
0.0
 51
180.0
  0
ARC
  5
163B8
330
15FC1
100
AcDbEntity
  8
SUNPOU
100
AcDbCircle
 10
11819.12750789964
 20
5386.279066364539
 30
0.0
 40
7.5
100
AcDbArc
 50
180.0
 51
0.0
  0
ARC
  5
163B9
330
15FC1
100
AcDbEntity
  8
SUNPOU
100
AcDbCircle
 10
11819.12750789964
 20
5386.279066364539
 30
0.0
 40
7.5
100
AcDbArc
 50
180.0
 51
0.0
  0
ARC
  5
163BA
330
15FC1
100
AcDbEntity
  8
SUNPOU
100
AcDbCircle
 10
11819.12750789964
 20
5386.279066364539
 30
0.0
 40
7.5
100
AcDbArc
 50
0.0
 51
180.0
  0
ARC
  5
163BB
330
15FC1
100
AcDbEntity
  8
SUNPOU
100
AcDbCircle
 10
9419.127507899643
 20
5386.279066364539
 30
0.0
 40
7.5
100
AcDbArc
 50
0.0
 51
180.0
  0
ARC
  5
163BC
330
15FC1
100
AcDbEntity
  8
SUNPOU
100
AcDbCircle
 10
9419.127507899643
 20
5386.279066364539
 30
0.0
 40
7.5
100
AcDbArc
 50
180.0
 51
0.0
  0
ARC
  5
163BD
330
15FC1
100
AcDbEntity
  8
SUNPOU
100
AcDbCircle
 10
9419.127507899643
 20
5386.279066364539
 30
0.0
 40
7.5
100
AcDbArc
 50
180.0
 51
0.0
  0
ARC
  5
163BE
330
15FC1
100
AcDbEntity
  8
SUNPOU
100
AcDbCircle
 10
9419.127507899643
 20
5386.279066364539
 30
0.0
 40
7.5
100
AcDbArc
 50
0.0
 51
180.0
  0
ARC
  5
163BF
330
15FC1
100
AcDbEntity
  8
SUNPOU
100
AcDbCircle
 10
7019.127507899644
 20
5386.279066364539
 30
0.0
 40
7.5
100
AcDbArc
 50
0.0
 51
180.0
  0
ARC
  5
163C0
330
15FC1
100
AcDbEntity
  8
SUNPOU
100
AcDbCircle
 10
7019.127507899644
 20
5386.279066364539
 30
0.0
 40
7.5
100
AcDbArc
 50
180.0
 51
0.0
  0
ARC
  5
163C1
330
15FC1
100
AcDbEntity
  8
SUNPOU
100
AcDbCircle
 10
7019.127507899644
 20
5386.279066364539
 30
0.0
 40
7.5
100
AcDbArc
 50
180.0
 51
0.0
  0
ARC
  5
163C2
330
15FC1
100
AcDbEntity
  8
SUNPOU
100
AcDbCircle
 10
7019.127507899644
 20
5386.279066364539
 30
0.0
 40
7.5
100
AcDbArc
 50
0.0
 51
180.0
  0
ARC
  5
163C3
330
15FC1
100
AcDbEntity
  8
SUNPOU
100
AcDbCircle
 10
4619.127507899643
 20
5386.279066364539
 30
0.0
 40
7.5
100
AcDbArc
 50
0.0
 51
180.0
  0
ARC
  5
163C4
330
15FC1
100
AcDbEntity
  8
SUNPOU
100
AcDbCircle
 10
4619.127507899643
 20
5386.279066364539
 30
0.0
 40
7.5
100
AcDbArc
 50
180.0
 51
0.0
  0
ARC
  5
163C5
330
15FC1
100
AcDbEntity
  8
SUNPOU
100
AcDbCircle
 10
4619.127507899643
 20
5386.279066364539
 30
0.0
 40
7.5
100
AcDbArc
 50
180.0
 51
0.0
  0
ARC
  5
163C6
330
15FC1
100
AcDbEntity
  8
SUNPOU
100
AcDbCircle
 10
4619.127507899643
 20
5386.279066364539
 30
0.0
 40
7.5
100
AcDbArc
 50
0.0
 51
180.0
  0
ARC
  5
163C7
330
15FC1
100
AcDbEntity
  8
SUNPOU
100
AcDbCircle
 10
4219.127507899644
 20
5386.279066364539
 30
0.0
 40
7.5
100
AcDbArc
 50
0.0
 51
180.0
  0
ARC
  5
163C8
330
15FC1
100
AcDbEntity
  8
SUNPOU
100
AcDbCircle
 10
4219.127507899644
 20
5386.279066364539
 30
0.0
 40
7.5
100
AcDbArc
 50
180.0
 51
0.0
  0
ARC
  5
163C9
330
15FC1
100
AcDbEntity
  8
HIKIDASHI
100
AcDbCircle
 10
1758.665039113485
 20
1758.887791038414
 30
0.0
 40
75.00000000001334
100
AcDbArc
 50
301.7712278330566
 51
15.14038701489555
  0
ARC
  5
163CA
330
15FC1
100
AcDbEntity
  8
HIKIDASHI
100
AcDbCircle
 10
1822.374097600765
 20
1776.126000535549
 30
0.0
 40
8.999999999992393
100
AcDbArc
 50
15.14038701505989
 51
164.8596129849878
  0
ARC
  5
163CB
330
15FC1
100
AcDbEntity
  8
HIKIDASHI
100
AcDbCircle
 10
1886.083156088023
 20
1758.887791038391
 30
0.0
 40
74.9999999999988
100
AcDbArc
 50
164.8596129850878
 51
238.2287721669167
  0
LINE
  5
163CC
330
15FC1
100
AcDbEntity
  8
HIKIDASHI
100
AcDbLine
 10
11893.09566845837
 20
8012.88853005944
 30
0.0
 11
11847.45211837478
 21
8091.892747261859
 31
0.0
  0
LINE
  5
163CD
330
15FC1
100
AcDbEntity
  8
HIKIDASHI
100
AcDbLine
 10
11847.45211837478
 20
8091.892747261859
 30
0.0
 11
11916.25143889788
 21
8031.96234182722
 31
0.0
  0
SOLID
  5
163CE
330
15FC1
100
AcDbEntity
  8
HIKIDASHI
100
AcDbTrace
 10
11893.09566845837
 20
8012.88853005944
 30
0.0
 11
11916.25143889788
 21
8031.96234182722
 31
0.0
 12
11847.45211837478
 22
8091.892747261859
 32
0.0
 13
11847.45211837478
 23
8091.892747261859
 33
0.0
  0
LINE
  5
163CF
330
15FC1
100
AcDbEntity
  8
HIKIDASHI
100
AcDbLine
 10
11916.25143889788
 20
8031.96234182722
 30
0.0
 11
11893.09566845837
 21
8012.88853005944
 31
0.0
  0
LINE
  5
163D0
330
15FC1
100
AcDbEntity
  8
HIKIDASHI
100
AcDbLine
 10
11929.35681976774
 20
7758.343277272387
 30
0.0
 11
11859.03747429239
 21
7816.482675720592
 31
0.0
  0
LINE
  5
163D1
330
15FC1
100
AcDbEntity
  8
HIKIDASHI
100
AcDbLine
 10
11859.03747429239
 20
7816.482675720592
 30
0.0
 11
11944.41179518471
 21
7784.292221666999
 31
0.0
  0
SOLID
  5
163D2
330
15FC1
100
AcDbEntity
  8
HIKIDASHI
100
AcDbTrace
 10
11929.35681976774
 20
7758.343277272387
 30
0.0
 11
11944.41179518471
 21
7784.292221666999
 31
0.0
 12
11859.03747429239
 22
7816.482675720592
 32
0.0
 13
11859.03747429239
 23
7816.482675720592
 33
0.0
  0
LINE
  5
163D3
330
15FC1
100
AcDbEntity
  8
HIKIDASHI
100
AcDbLine
 10
11944.41179518471
 20
7784.292221666999
 30
0.0
 11
11929.35681976774
 21
7758.343277272387
 31
0.0
  0
LINE
  5
163D4
330
15FC1
100
AcDbEntity
  8
HIKIDASHI
100
AcDbLine
 10
2797.219836546355
 20
2369.315290007377
 30
0.0
 11
1853.456509507224
 21
1650.898498232148
 31
0.0
1001
ACAD
1000
DSTYLE
1002
{
1070
   147
1040
1.125
1070
    77
1070
     0
1002
}
  0
LINE
  5
163D5
330
15FC1
100
AcDbEntity
  8
HIKIDASHI
100
AcDbLine
 10
2807.31485708819
 20
2356.053753971241
 30
0.0
 11
2876.789052763162
 21
2429.885413258392
 31
0.0
  0
LINE
  5
163D6
330
15FC1
100
AcDbEntity
  8
HIKIDASHI
100
AcDbLine
 10
2876.789052763162
 20
2429.885413258392
 30
0.0
 11
2787.124816004519
 21
2382.576826043512
 31
0.0
  0
SOLID
  5
163D7
330
15FC1
100
AcDbEntity
  8
HIKIDASHI
100
AcDbTrace
 10
2807.31485708819
 20
2356.053753971241
 30
0.0
 11
2787.124816004519
 21
2382.576826043512
 31
0.0
 12
2876.789052763162
 22
2429.885413258392
 32
0.0
 13
2876.789052763162
 23
2429.885413258392
 33
0.0
  0
LINE
  5
163D8
330
15FC1
100
AcDbEntity
  8
HIKIDASHI
100
AcDbLine
 10
2787.124816004519
 20
2382.576826043512
 30
0.0
 11
2807.31485708819
 21
2356.053753971241
 31
0.0
  0
LINE
  5
163D9
330
15FC1
100
AcDbEntity
  8
HIKIDASHI
100
AcDbLine
 10
3737.516119918543
 20
2422.552827880684
 30
0.0
 11
4839.300374438813
 21
1301.127712164684
 31
0.0
1001
ACAD
1000
DSTYLE
1002
{
1070
   147
1040
1.125
1070
    77
1070
     0
1002
}
  0
LINE
  5
163DA
330
15FC1
100
AcDbEntity
  8
HIKIDASHI
100
AcDbLine
 10
3749.404884148162
 20
2434.233369943034
 30
0.0
 11
3667.43286754444
 21
2493.885413258391
 31
0.0
  0
LINE
  5
163DB
330
15FC1
100
AcDbEntity
  8
HIKIDASHI
100
AcDbLine
 10
3667.43286754444
 20
2493.885413258391
 30
0.0
 11
3725.627355688924
 21
2410.872285818332
 31
0.0
  0
SOLID
  5
163DC
330
15FC1
100
AcDbEntity
  8
HIKIDASHI
100
AcDbTrace
 10
3749.404884148162
 20
2434.233369943034
 30
0.0
 11
3725.627355688924
 21
2410.872285818332
 31
0.0
 12
3667.43286754444
 22
2493.885413258391
 32
0.0
 13
3667.43286754444
 23
2493.885413258391
 33
0.0
  0
LINE
  5
163DD
330
15FC1
100
AcDbEntity
  8
HIKIDASHI
100
AcDbLine
 10
3725.627355688924
 20
2410.872285818332
 30
0.0
 11
3749.404884148162
 21
2434.233369943034
 31
0.0
  0
LINE
  5
163DE
330
15FC1
100
AcDbEntity
  8
HIKIDASHI
100
AcDbLine
 10
3901.717160073245
 20
2522.972251675042
 30
0.0
 11
4874.029897198553
 21
1511.127712164684
 31
0.0
1001
ACAD
1000
DSTYLE
1002
{
1070
   147
1040
1.125
1070
    77
1070
     0
1002
}
  0
LINE
  5
163DF
330
15FC1
100
AcDbEntity
  8
HIKIDASHI
100
AcDbLine
 10
3913.73469146306
 20
2534.520269560057
 30
0.0
 11
3832.42905276316
 21
2595.077440013927
 31
0.0
  0
LINE
  5
163E0
330
15FC1
100
AcDbEntity
  8
HIKIDASHI
100
AcDbLine
 10
3832.42905276316
 20
2595.077440013927
 30
0.0
 11
3889.69962868343
 21
2511.424233790027
 31
0.0
  0
SOLID
  5
163E1
330
15FC1
100
AcDbEntity
  8
HIKIDASHI
100
AcDbTrace
 10
3913.73469146306
 20
2534.520269560057
 30
0.0
 11
3889.69962868343
 21
2511.424233790027
 31
0.0
 12
3832.42905276316
 22
2595.077440013927
 32
0.0
 13
3832.42905276316
 23
2595.077440013927
 33
0.0
  0
LINE
  5
163E2
330
15FC1
100
AcDbEntity
  8
HIKIDASHI
100
AcDbLine
 10
3889.69962868343
 20
2511.424233790027
 30
0.0
 11
3913.73469146306
 21
2534.520269560057
 31
0.0
  0
LINE
  5
163E3
330
15FC1
100
AcDbEntity
  8
HATCH
100
AcDbLine
 10
2115.69812066088
 20
1949.885413258394
 30
0.0
 11
2208.074163731214
 21
2109.885413258385
 31
0.0
  0
LINE
  5
163E4
330
15FC1
100
AcDbEntity
  8
HATCH
100
AcDbLine
 10
2144.074163731219
 20
2109.885413258384
 30
0.0
 11
2176.074163731216
 21
2054.459787416188
 31
0.0
  0
LINE
  5
163E5
330
15FC1
100
AcDbEntity
  8
HATCH
100
AcDbLine
 10
2147.698120660878
 20
2005.311039100598
 30
0.0
 11
2179.698120660876
 21
1949.885413258394
 31
0.0
  0
LINE
  5
163E6
330
15FC1
100
AcDbEntity
  8
HATCH
100
AcDbLine
 10
4403.720743652552
 20
1949.885413258394
 30
0.0
 11
4496.096786722888
 21
2109.885413258385
 31
0.0
  0
LINE
  5
163E7
330
15FC1
100
AcDbEntity
  8
HATCH
100
AcDbLine
 10
4432.096786722889
 20
2109.885413258385
 30
0.0
 11
4464.09678672289
 21
2054.459787416188
 31
0.0
  0
LINE
  5
163E8
330
15FC1
100
AcDbEntity
  8
HATCH
100
AcDbLine
 10
4435.72074365255
 20
2005.311039100598
 30
0.0
 11
4467.720743652548
 21
1949.885413258394
 31
0.0
  0
LINE
  5
163E9
330
15FC1
100
AcDbEntity
  8
HATCH
100
AcDbLine
 10
2323.700177296489
 20
1949.885413258394
 30
0.0
 11
2416.076220366824
 21
2109.885413258385
 31
0.0
  0
LINE
  5
163EA
330
15FC1
100
AcDbEntity
  8
HATCH
100
AcDbLine
 10
2352.076220366826
 20
2109.885413258385
 30
0.0
 11
2384.076220366825
 21
2054.459787416188
 31
0.0
  0
LINE
  5
163EB
330
15FC1
100
AcDbEntity
  8
HATCH
100
AcDbLine
 10
2355.700177296487
 20
2005.311039100598
 30
0.0
 11
2387.700177296485
 21
1949.885413258394
 31
0.0
  0
LINE
  5
163EC
330
15FC1
100
AcDbEntity
  8
HATCH
100
AcDbLine
 10
2531.702233932099
 20
1949.885413258394
 30
0.0
 11
2624.078277002433
 21
2109.885413258385
 31
0.0
  0
LINE
  5
163ED
330
15FC1
100
AcDbEntity
  8
HATCH
100
AcDbLine
 10
2560.078277002437
 20
2109.885413258385
 30
0.0
 11
2592.078277002435
 21
2054.459787416188
 31
0.0
  0
LINE
  5
163EE
330
15FC1
100
AcDbEntity
  8
HATCH
100
AcDbLine
 10
2563.702233932096
 20
2005.311039100598
 30
0.0
 11
2595.702233932095
 21
1949.885413258394
 31
0.0
  0
LINE
  5
163EF
330
15FC1
100
AcDbEntity
  8
HATCH
100
AcDbLine
 10
2739.704290567704
 20
1949.885413258394
 30
0.0
 11
2832.080333638039
 21
2109.885413258385
 31
0.0
  0
LINE
  5
163F0
330
15FC1
100
AcDbEntity
  8
HATCH
100
AcDbLine
 10
2768.080333638041
 20
2109.885413258385
 30
0.0
 11
2800.080333638041
 21
2054.459787416188
 31
0.0
  0
LINE
  5
163F1
330
15FC1
100
AcDbEntity
  8
HATCH
100
AcDbLine
 10
2771.704290567702
 20
2005.311039100598
 30
0.0
 11
2803.7042905677
 21
1949.885413258394
 31
0.0
  0
LINE
  5
163F2
330
15FC1
100
AcDbEntity
  8
HATCH
100
AcDbLine
 10
2947.706347203308
 20
1949.885413258394
 30
0.0
 11
3040.082390273644
 21
2109.885413258385
 31
0.0
  0
LINE
  5
163F3
330
15FC1
100
AcDbEntity
  8
HATCH
100
AcDbLine
 10
2976.082390273647
 20
2109.885413258385
 30
0.0
 11
3008.082390273646
 21
2054.459787416188
 31
0.0
  0
LINE
  5
163F4
330
15FC1
100
AcDbEntity
  8
HATCH
100
AcDbLine
 10
2979.706347203307
 20
2005.311039100598
 30
0.0
 11
3011.706347203305
 21
1949.885413258394
 31
0.0
  0
LINE
  5
163F5
330
15FC1
100
AcDbEntity
  8
HATCH
100
AcDbLine
 10
3779.714573745735
 20
1949.885413258394
 30
0.0
 11
3872.09061681607
 21
2109.885413258385
 31
0.0
  0
LINE
  5
163F6
330
15FC1
100
AcDbEntity
  8
HATCH
100
AcDbLine
 10
3808.090616816073
 20
2109.885413258385
 30
0.0
 11
3840.090616816072
 21
2054.459787416188
 31
0.0
  0
LINE
  5
163F7
330
15FC1
100
AcDbEntity
  8
HATCH
100
AcDbLine
 10
3811.714573745734
 20
2005.311039100598
 30
0.0
 11
3843.714573745732
 21
1949.885413258394
 31
0.0
  0
LINE
  5
163F8
330
15FC1
100
AcDbEntity
  8
HATCH
100
AcDbLine
 10
3363.710460474519
 20
1949.885413258394
 30
0.0
 11
3456.086503544855
 21
2109.885413258385
 31
0.0
  0
LINE
  5
163F9
330
15FC1
100
AcDbEntity
  8
HATCH
100
AcDbLine
 10
3392.086503544858
 20
2109.885413258385
 30
0.0
 11
3424.086503544855
 21
2054.459787416188
 31
0.0
  0
LINE
  5
163FA
330
15FC1
100
AcDbEntity
  8
HATCH
100
AcDbLine
 10
3395.710460474519
 20
2005.311039100598
 30
0.0
 11
3427.710460474516
 21
1949.885413258394
 31
0.0
  0
LINE
  5
163FB
330
15FC1
100
AcDbEntity
  8
HATCH
100
AcDbLine
 10
3155.708403838916
 20
1949.885413258394
 30
0.0
 11
3248.084446909251
 21
2109.885413258385
 31
0.0
  0
LINE
  5
163FC
330
15FC1
100
AcDbEntity
  8
HATCH
100
AcDbLine
 10
3184.084446909254
 20
2109.885413258385
 30
0.0
 11
3216.084446909253
 21
2054.459787416188
 31
0.0
  0
LINE
  5
163FD
330
15FC1
100
AcDbEntity
  8
HATCH
100
AcDbLine
 10
3187.708403838913
 20
2005.311039100598
 30
0.0
 11
3219.708403838911
 21
1949.885413258394
 31
0.0
  0
LINE
  5
163FE
330
15FC1
100
AcDbEntity
  8
HATCH
100
AcDbLine
 10
3571.712517110128
 20
1949.885413258394
 30
0.0
 11
3664.088560180463
 21
2109.885413258385
 31
0.0
  0
LINE
  5
163FF
330
15FC1
100
AcDbEntity
  8
HATCH
100
AcDbLine
 10
3600.088560180466
 20
2109.885413258385
 30
0.0
 11
3632.088560180465
 21
2054.459787416188
 31
0.0
  0
LINE
  5
16400
330
15FC1
100
AcDbEntity
  8
HATCH
100
AcDbLine
 10
3603.712517110126
 20
2005.311039100598
 30
0.0
 11
3635.712517110125
 21
1949.885413258394
 31
0.0
  0
LINE
  5
16401
330
15FC1
100
AcDbEntity
  8
HATCH
100
AcDbLine
 10
4195.718687016944
 20
1949.885413258394
 30
0.0
 11
4288.09473008728
 21
2109.885413258385
 31
0.0
  0
LINE
  5
16402
330
15FC1
100
AcDbEntity
  8
HATCH
100
AcDbLine
 10
4224.094730087283
 20
2109.885413258385
 30
0.0
 11
4256.094730087283
 21
2054.459787416188
 31
0.0
  0
LINE
  5
16403
330
15FC1
100
AcDbEntity
  8
HATCH
100
AcDbLine
 10
4227.718687016944
 20
2005.311039100598
 30
0.0
 11
4259.718687016941
 21
1949.885413258394
 31
0.0
  0
LINE
  5
16404
330
15FC1
100
AcDbEntity
  8
HATCH
100
AcDbLine
 10
3987.716630381337
 20
1949.885413258394
 30
0.0
 11
4080.092673451672
 21
2109.885413258385
 31
0.0
  0
LINE
  5
16405
330
15FC1
100
AcDbEntity
  8
HATCH
100
AcDbLine
 10
4016.092673451677
 20
2109.885413258385
 30
0.0
 11
4048.092673451675
 21
2054.459787416188
 31
0.0
  0
LINE
  5
16406
330
15FC1
100
AcDbEntity
  8
HATCH
100
AcDbLine
 10
4019.716630381338
 20
2005.311039100598
 30
0.0
 11
4051.716630381334
 21
1949.885413258394
 31
0.0
  0
LINE
  5
16407
330
15FC1
100
AcDbEntity
  8
HATCH
100
AcDbLine
 10
1560.429052763238
 20
2829.885413258395
 30
0.0
 11
1615.85467860547
 21
2925.885413258443
 31
0.0
  0
LINE
  5
16408
330
15FC1
100
AcDbEntity
  8
HATCH
100
AcDbLine
 10
1577.454678605452
 20
2925.885413258443
 30
0.0
 11
1596.654678605461
 21
2892.630037753106
 31
0.0
  0
LINE
  5
16409
330
15FC1
100
AcDbEntity
  8
HATCH
100
AcDbLine
 10
1579.629052763248
 20
2863.140788763734
 30
0.0
 11
1598.829052763258
 21
2829.885413258395
 31
0.0
  0
LINE
  5
1640A
330
15FC1
100
AcDbEntity
  8
HATCH
100
AcDbLine
 10
1704.429052763239
 20
2829.885413258395
 30
0.0
 11
1759.854678605471
 21
2925.885413258443
 31
0.0
  0
LINE
  5
1640B
330
15FC1
100
AcDbEntity
  8
HATCH
100
AcDbLine
 10
1721.45467860545
 20
2925.885413258443
 30
0.0
 11
1740.654678605461
 21
2892.630037753106
 31
0.0
  0
LINE
  5
1640C
330
15FC1
100
AcDbEntity
  8
HATCH
100
AcDbLine
 10
1723.629052763248
 20
2863.140788763734
 30
0.0
 11
1742.829052763258
 21
2829.885413258395
 31
0.0
  0
LINE
  5
1640D
330
15FC1
100
AcDbEntity
  8
HATCH
100
AcDbLine
 10
1848.429052763237
 20
2829.885413258395
 30
0.0
 11
1903.854678605471
 21
2925.885413258443
 31
0.0
  0
LINE
  5
1640E
330
15FC1
100
AcDbEntity
  8
HATCH
100
AcDbLine
 10
1865.454678605452
 20
2925.885413258443
 30
0.0
 11
1884.654678605461
 21
2892.630037753106
 31
0.0
  0
LINE
  5
1640F
330
15FC1
100
AcDbEntity
  8
HATCH
100
AcDbLine
 10
1867.629052763248
 20
2863.140788763734
 30
0.0
 11
1886.829052763258
 21
2829.885413258395
 31
0.0
  0
LINE
  5
16410
330
15FC1
100
AcDbEntity
  8
HATCH
100
AcDbLine
 10
1992.429052763237
 20
2829.885413258395
 30
0.0
 11
2047.85467860547
 21
2925.885413258443
 31
0.0
  0
LINE
  5
16411
330
15FC1
100
AcDbEntity
  8
HATCH
100
AcDbLine
 10
2009.454678605452
 20
2925.885413258443
 30
0.0
 11
2028.654678605462
 21
2892.630037753106
 31
0.0
  0
LINE
  5
16412
330
15FC1
100
AcDbEntity
  8
HATCH
100
AcDbLine
 10
2011.629052763248
 20
2863.140788763734
 30
0.0
 11
2030.829052763257
 21
2829.885413258395
 31
0.0
  0
LINE
  5
16413
330
15FC1
100
AcDbEntity
  8
HATCH
100
AcDbLine
 10
1272.429052763234
 20
2829.885413258395
 30
0.0
 11
1327.854678605466
 21
2925.885413258443
 31
0.0
  0
LINE
  5
16414
330
15FC1
100
AcDbEntity
  8
HATCH
100
AcDbLine
 10
1289.454678605448
 20
2925.885413258443
 30
0.0
 11
1308.654678605458
 21
2892.630037753106
 31
0.0
  0
LINE
  5
16415
330
15FC1
100
AcDbEntity
  8
HATCH
100
AcDbLine
 10
1291.629052763245
 20
2863.140788763734
 30
0.0
 11
1310.829052763254
 21
2829.885413258395
 31
0.0
  0
LINE
  5
16416
330
15FC1
100
AcDbEntity
  8
HATCH
100
AcDbLine
 10
1416.429052763239
 20
2829.885413258395
 30
0.0
 11
1471.85467860547
 21
2925.885413258443
 31
0.0
  0
LINE
  5
16417
330
15FC1
100
AcDbEntity
  8
HATCH
100
AcDbLine
 10
1433.454678605452
 20
2925.885413258443
 30
0.0
 11
1452.654678605461
 21
2892.630037753106
 31
0.0
  0
LINE
  5
16418
330
15FC1
100
AcDbEntity
  8
HATCH
100
AcDbLine
 10
1435.629052763248
 20
2863.140788763734
 30
0.0
 11
1454.829052763258
 21
2829.885413258395
 31
0.0
  0
LINE
  5
16419
330
15FC1
100
AcDbEntity
  8
HATCH
100
AcDbLine
 10
4519.710439747719
 20
2829.885413258395
 30
0.0
 11
4575.136065589954
 21
2925.885413258443
 31
0.0
  0
LINE
  5
1641A
330
15FC1
100
AcDbEntity
  8
HATCH
100
AcDbLine
 10
4536.736065589933
 20
2925.885413258443
 30
0.0
 11
4555.936065589944
 21
2892.630037753106
 31
0.0
  0
LINE
  5
1641B
330
15FC1
100
AcDbEntity
  8
HATCH
100
AcDbLine
 10
4538.91043974773
 20
2863.140788763734
 30
0.0
 11
4558.11043974774
 21
2829.885413258395
 31
0.0
  0
LINE
  5
1641C
330
15FC1
100
AcDbEntity
  8
HATCH
100
AcDbLine
 10
4663.71043974772
 20
2829.885413258395
 30
0.0
 11
4719.136065589954
 21
2925.885413258443
 31
0.0
  0
LINE
  5
1641D
330
15FC1
100
AcDbEntity
  8
HATCH
100
AcDbLine
 10
4680.736065589933
 20
2925.885413258443
 30
0.0
 11
4699.936065589944
 21
2892.630037753106
 31
0.0
  0
LINE
  5
1641E
330
15FC1
100
AcDbEntity
  8
HATCH
100
AcDbLine
 10
4682.91043974773
 20
2863.140788763734
 30
0.0
 11
4702.11043974774
 21
2829.885413258395
 31
0.0
  0
LINE
  5
1641F
330
15FC1
100
AcDbEntity
  8
HATCH
100
AcDbLine
 10
5095.710439747719
 20
2829.885413258395
 30
0.0
 11
5151.136065589952
 21
2925.885413258443
 31
0.0
  0
LINE
  5
16420
330
15FC1
100
AcDbEntity
  8
HATCH
100
AcDbLine
 10
5112.736065589932
 20
2925.885413258443
 30
0.0
 11
5131.936065589941
 21
2892.630037753106
 31
0.0
  0
LINE
  5
16421
330
15FC1
100
AcDbEntity
  8
HATCH
100
AcDbLine
 10
5114.910439747728
 20
2863.140788763734
 30
0.0
 11
5134.11043974774
 21
2829.885413258395
 31
0.0
  0
LINE
  5
16422
330
15FC1
100
AcDbEntity
  8
HATCH
100
AcDbLine
 10
4951.710439747719
 20
2829.885413258395
 30
0.0
 11
5007.136065589952
 21
2925.885413258443
 31
0.0
  0
LINE
  5
16423
330
15FC1
100
AcDbEntity
  8
HATCH
100
AcDbLine
 10
4968.736065589932
 20
2925.885413258443
 30
0.0
 11
4987.936065589941
 21
2892.630037753106
 31
0.0
  0
LINE
  5
16424
330
15FC1
100
AcDbEntity
  8
HATCH
100
AcDbLine
 10
4970.910439747729
 20
2863.140788763734
 30
0.0
 11
4990.110439747738
 21
2829.885413258395
 31
0.0
  0
LINE
  5
16425
330
15FC1
100
AcDbEntity
  8
HATCH
100
AcDbLine
 10
4807.710439747721
 20
2829.885413258395
 30
0.0
 11
4863.136065589954
 21
2925.885413258443
 31
0.0
  0
LINE
  5
16426
330
15FC1
100
AcDbEntity
  8
HATCH
100
AcDbLine
 10
4824.736065589934
 20
2925.885413258443
 30
0.0
 11
4843.936065589943
 21
2892.630037753106
 31
0.0
  0
LINE
  5
16427
330
15FC1
100
AcDbEntity
  8
HATCH
100
AcDbLine
 10
4826.910439747731
 20
2863.140788763734
 30
0.0
 11
4846.11043974774
 21
2829.885413258395
 31
0.0
  0
LINE
  5
16428
330
15FC1
100
AcDbEntity
  8
HATCH
100
AcDbLine
 10
5239.710439747717
 20
2829.885413258395
 30
0.0
 11
5295.136065589952
 21
2925.885413258443
 31
0.0
  0
LINE
  5
16429
330
15FC1
100
AcDbEntity
  8
HATCH
100
AcDbLine
 10
5256.736065589932
 20
2925.885413258443
 30
0.0
 11
5275.936065589942
 21
2892.630037753106
 31
0.0
  0
LINE
  5
1642A
330
15FC1
100
AcDbEntity
  8
HATCH
100
AcDbLine
 10
5258.910439747729
 20
2863.140788763734
 30
0.0
 11
5278.110439747738
 21
2829.885413258395
 31
0.0
  0
TEXT
  5
1642B
330
15FC1
100
AcDbEntity
  8
NAME
100
AcDbText
 10
10822.33595536074
 20
541.0
 30
0.0
 40
160.0
  1
YOCF-240SA
 41
0.6
  7
01
100
AcDbText
  0
TEXT
  5
1642C
330
15FC1
100
AcDbEntity
  8
NAME
100
AcDbText
 10
11750.33595536074
 20
541.0
 30
0.0
 40
160.0
  1
 
 41
0.6667
  7
01
100
AcDbText
  0
TEXT
  5
1642D
330
15FC1
100
AcDbEntity
  8
NAME
100
AcDbText
 10
11814.33915536074
 20
541.0
 30
0.0
 40
160.0
  1
型
 41
0.8
  7
01
100
AcDbText
  0
TEXT
  5
1642E
330
15FC1
100
AcDbEntity
  8
NAME
100
AcDbText
 10
11967.93915536074
 20
541.0
 30
0.0
 40
160.0
  1
（
 41
0.6667
  7
01
100
AcDbText
  0
TEXT
  5
1642F
330
15FC1
100
AcDbEntity
  8
NAME
100
AcDbText
 10
12095.94555536074
 20
541.0
 30
0.0
 40
160.0
  1
一般地用
 41
0.8
  7
01
100
AcDbText
  0
TEXT
  5
16430
330
15FC1
100
AcDbEntity
  8
NAME
100
AcDbText
 10
12710.34555536074
 20
541.0
 30
0.0
 40
160.0
  1
）
 41
0.6667
  7
01
100
AcDbText
  0
TEXT
  5
16431
330
15FC1
100
AcDbEntity
  8
NAME
100
AcDbText
 10
12838.35195536074
 20
541.0
 30
0.0
 40
160.0
  1
<3／3>
 41
0.6
  7
01
100
AcDbText
  0
LINE
  5
16432
330
15FC1
100
AcDbEntity
  8
KISO
100
AcDbLine
 10
6557.900200012794
 20
1851.333194070899
 30
0.0
 11
8941.900200012792
 21
1851.333194070899
 31
0.0
  0
LINE
  5
16433
330
15FC1
100
AcDbEntity
  8
KISO
100
AcDbLine
 10
8941.900200012792
 20
1851.333194070899
 30
0.0
 11
8941.900200012792
 21
3131.333194070897
 31
0.0
  0
LINE
  5
16434
330
15FC1
100
AcDbEntity
  8
KISO
100
AcDbLine
 10
8941.900200012792
 20
3131.333194070897
 30
0.0
 11
6557.900200012794
 21
3131.333194070897
 31
0.0
  0
LINE
  5
16435
330
15FC1
100
AcDbEntity
  8
KISO
100
AcDbLine
 10
6557.900200012794
 20
3131.333194070897
 30
0.0
 11
6557.900200012794
 21
1851.333194070899
 31
0.0
  0
LINE
  5
16436
330
15FC1
100
AcDbEntity
  8
1PL-M1
100
AcDbLine
 10
3512.429052763162
 20
1605.898498232147
 30
0.0
 11
3512.429052763162
 21
3502.742322023877
 31
0.0
  0
LINE
  5
16437
330
15FC1
100
AcDbEntity
  8
DOMAKON
100
AcDbLine
 10
4219.127507899644
 20
10126.27906636453
 30
0.0
 11
8069.127507899645
 21
10126.27906636453
 31
0.0
  0
LINE
  5
16438
330
15FC1
100
AcDbEntity
  8
DOMAKON
100
AcDbLine
 10
8069.127507899645
 20
5836.279066364538
 30
0.0
 11
4219.127507899644
 21
5836.279066364538
 31
0.0
  0
LINE
  5
16439
330
15FC1
100
AcDbEntity
  8
DOMAKON
100
AcDbLine
 10
4219.127507899644
 20
5836.279066364538
 30
0.0
 11
4219.127507899644
 21
10126.27906636453
 31
0.0
  0
LINE
  5
1643A
330
15FC1
100
AcDbEntity
  8
YANE
  6
2PL-M
100
AcDbLine
 10
8069.127507899645
 20
5962.729793983196
 30
0.0
 11
4397.326854848405
 21
5962.729793983196
 31
0.0
  0
LINE
  5
1643B
330
15FC1
100
AcDbEntity
  8
YANE
  6
2PL-M
100
AcDbLine
 10
4397.326854848405
 20
5962.729793983196
 30
0.0
 11
4397.326854848405
 21
10000.82906636454
 31
0.0
  0
LINE
  5
1643C
330
15FC1
100
AcDbEntity
  8
YANE
  6
2PL-M
100
AcDbLine
 10
4397.326854848405
 20
10000.82906636454
 30
0.0
 11
8069.127507899645
 21
10000.82906636454
 31
0.0
  0
LINE
  5
1643D
330
15FC1
100
AcDbEntity
  8
DOMAKON
100
AcDbLine
 10
8369.127507899648
 20
10126.27906636453
 30
0.0
 11
12219.12750789962
 21
10126.27906636453
 31
0.0
  0
LINE
  5
1643E
330
15FC1
100
AcDbEntity
  8
DOMAKON
100
AcDbLine
 10
12219.12750789962
 20
10126.27906636453
 30
0.0
 11
12219.12750789962
 21
5836.279066364538
 31
0.0
  0
LINE
  5
1643F
330
15FC1
100
AcDbEntity
  8
DOMAKON
100
AcDbLine
 10
12219.12750789962
 20
5836.279066364538
 30
0.0
 11
8369.127507899648
 21
5836.279066364538
 31
0.0
  0
LINE
  5
16440
330
15FC1
100
AcDbEntity
  8
YANE
  6
2PL-M
100
AcDbLine
 10
8369.127507899648
 20
10000.82906636454
 30
0.0
 11
12040.92816095086
 21
10000.82906636454
 31
0.0
  0
LINE
  5
16441
330
15FC1
100
AcDbEntity
  8
YANE
  6
2PL-M
100
AcDbLine
 10
12040.92816095086
 20
10000.82906636454
 30
0.0
 11
12040.92816095086
 21
5962.729793983196
 31
0.0
  0
LINE
  5
16442
330
15FC1
100
AcDbEntity
  8
YANE
  6
2PL-M
100
AcDbLine
 10
12040.92816095086
 20
5962.729793983196
 30
0.0
 11
8369.127507899648
 21
5962.729793983196
 31
0.0
  0
LINE
  5
16443
330
15FC1
100
AcDbEntity
  8
KISO-1
100
AcDbLine
 10
9019.127507899641
 20
8726.279066364538
 30
0.0
 11
9819.127507899644
 21
8726.279066364538
 31
0.0
  0
LINE
  5
16444
330
15FC1
100
AcDbEntity
  8
KISO-1
100
AcDbLine
 10
9819.127507899644
 20
8726.279066364538
 30
0.0
 11
9819.127507899651
 21
7236.279066364541
 31
0.0
  0
LINE
  5
16445
330
15FC1
100
AcDbEntity
  8
KISO-1
100
AcDbLine
 10
9819.127507899651
 20
7236.279066364541
 30
0.0
 11
9019.127507899645
 21
7236.279066364541
 31
0.0
  0
LINE
  5
16446
330
15FC1
100
AcDbEntity
  8
KISO-1
100
AcDbLine
 10
9019.127507899645
 20
7236.279066364541
 30
0.0
 11
9019.127507899641
 21
8726.279066364538
 31
0.0
  0
LINE
  5
16447
330
15FC1
100
AcDbEntity
  8
KISO-1
100
AcDbLine
 10
6619.127507899642
 20
8726.279066364538
 30
0.0
 11
7419.127507899642
 21
8726.279066364538
 31
0.0
  0
LINE
  5
16448
330
15FC1
100
AcDbEntity
  8
KISO-1
100
AcDbLine
 10
7419.127507899642
 20
8726.279066364538
 30
0.0
 11
7419.127507899649
 21
7236.279066364541
 31
0.0
  0
LINE
  5
16449
330
15FC1
100
AcDbEntity
  8
KISO-1
100
AcDbLine
 10
7419.127507899649
 20
7236.279066364541
 30
0.0
 11
6619.127507899642
 21
7236.279066364541
 31
0.0
  0
LINE
  5
1644A
330
15FC1
100
AcDbEntity
  8
KISO-1
100
AcDbLine
 10
6619.127507899642
 20
7236.279066364541
 30
0.0
 11
6619.127507899642
 21
8726.279066364538
 31
0.0
  0
LINE
  5
1644B
330
15FC1
100
AcDbEntity
  8
KISO-1
100
AcDbLine
 10
5019.127507899639
 20
8726.279066364538
 30
0.0
 11
5019.127507899644
 21
7236.279066364541
 31
0.0
  0
LINE
  5
1644C
330
15FC1
100
AcDbEntity
  8
KISO-1
100
AcDbLine
 10
5019.127507899644
 20
7236.279066364541
 30
0.0
 11
4219.127507899644
 21
7236.279066364541
 31
0.0
  0
LINE
  5
1644D
330
15FC1
100
AcDbEntity
  8
KISO-1
100
AcDbLine
 10
4219.127507899644
 20
7236.279066364541
 30
0.0
 11
4219.127507899639
 21
8726.279066364538
 31
0.0
  0
LINE
  5
1644E
330
15FC1
100
AcDbEntity
  8
KISO-1
100
AcDbLine
 10
4219.127507899639
 20
8726.279066364538
 30
0.0
 11
5019.127507899639
 21
8726.279066364538
 31
0.0
  0
TEXT
  5
16475
330
15FC1
100
AcDbEntity
  8
SUNPOU
100
AcDbText
 10
10824.37954650968
 20
3487.803096389063
 30
0.0
 40
119.9991666724536
  1
地耐力   　　　 以上,コンクリート設計基準強度   　　　 以上
  7
01
100
AcDbText
  0
TEXT
  5
16476
330
15FC1
100
AcDbEntity
  8
SUNPOU
100
AcDbText
 10
11324.32053996221
 20
2982.088810674779
 30
0.0
 40
120.0
  1
寒冷地の場合、凍結深度等を考慮し、実情に
  7
01
100
AcDbText
  0
TEXT
  5
16477
330
15FC1
100
AcDbEntity
  8
SUNPOU
100
AcDbText
 10
11324.32053996221
 20
2570.660239246208
 30
0.0
 40
120.0
  1
その他現地の実情にあわせて設計して下さい。
  7
01
100
AcDbText
  0
TEXT
  5
16478
330
15FC1
100
AcDbEntity
  8
SUNPOU
100
AcDbText
 10
11324.32053996221
 20
1953.517382103347
 30
0.0
 40
120.0
  1
所もありますので、ご注意願います。
  7
01
100
AcDbText
  0
TEXT
  5
16479
330
15FC1
100
AcDbEntity
  8
SUNPOU
100
AcDbText
 10
11324.32053996221
 20
2159.231667817636
 30
0.0
 40
120.0
  1
地域によっては、フックをつける様指導している
  7
01
100
AcDbText
  0
TEXT
  5
1647A
330
15FC1
100
AcDbEntity
  8
SUNPOU
100
AcDbText
 10
11324.32053996221
 20
2364.945953531921
 30
0.0
 40
120.0
  1
異形鉄筋の場合、原則としてフックは不要ですが、
  7
01
100
AcDbText
  0
TEXT
  5
1647B
330
15FC1
100
AcDbEntity
  8
SUNPOU
100
AcDbText
 10
10824.37954650968
 20
3282.088810674779
 30
0.0
 40
119.9991666724536
  1
基準風速   　　 , 地表面粗度区分
  7
01
100
AcDbText
  0
TEXT
  5
1647C
330
15FC1
100
AcDbEntity
  8
SUNPOU
100
AcDbText
 10
10817.43756536424
 20
3950.141766317003
 30
0.0
 40
160.0
  1
基礎断面図
  7
01
 72
     4
 11
11270.77089869757
 21
4030.141766317004
 31
0.0
100
AcDbText
  0
TEXT
  5
1647D
330
15FC1
100
AcDbEntity
  8
SUNPOU
100
AcDbText
 10
10650.29470822137
 20
3740.141766317003
 30
0.0
 40
120.0
  1
<下記条件での参考図>
  7
01
 72
     4
 11
11435.43756536423
 21
3800.141766317003
 31
0.0
100
AcDbText
  0
ARC
  5
1647E
330
15FC1
100
AcDbEntity
  8
SUNPOU
100
AcDbCircle
 10
11028.3239117193
 20
3439.51966097817
 30
0.0
 40
300.0
100
AcDbArc
 50
148.347272528265
 51
211.6527274717349
  0
TEXT
  5
1647F
330
15FC1
100
AcDbEntity
  8
SUNPOU
100
AcDbText
 10
11773.23801518153
 20
3966.552022727259
 30
0.0
 40
123.076923076923
  1
（ S = 　　  ）
 41
0.6700000000000001
  7
00
 11
11773.23801518153
 21
3950.141766317003
 31
0.0
100
AcDbText
 73
     1
  0
TEXT
  5
16480
330
15FC1
100
AcDbEntity
  8
SUNPOU
100
AcDbText
 10
11324.32053996221
 20
2776.374524960491
 30
0.0
 40
120.0
  1
あわせて設計して下さい。
  7
01
100
AcDbText
  0
TEXT
  5
16481
330
15FC1
100
AcDbEntity
  8
SUNPOU
100
AcDbText
 10
10901.8676528927
 20
2570.660239246208
 30
0.0
 40
120.0
  1
注　）
  7
01
100
AcDbText
  0
TEXT
  5
16482
330
15FC1
100
AcDbEntity
  8
SUNPOU
100
AcDbText
 10
10901.8676528927
 20
2364.945953531921
 30
0.0
 40
120.0
  1
注　）
  7
01
100
AcDbText
  0
TEXT
  5
16483
330
15FC1
100
AcDbEntity
  8
SUNPOU
100
AcDbText
 10
11049.37954650968
 20
2364.945953531921
 30
0.0
 40
120.0
  1
3
 41
0.6700000000000001
  7
01
100
AcDbText
  0
TEXT
  5
16484
330
15FC1
100
AcDbEntity
  8
SUNPOU
100
AcDbText
 10
11049.37954650968
 20
2570.660239246208
 30
0.0
 40
120.0
  1
2
 41
0.6700000000000001
  7
01
100
AcDbText
  0
TEXT
  5
16485
330
15FC1
100
AcDbEntity
  8
SUNPOU
100
AcDbText
 10
10901.8676528927
 20
2982.088810674779
 30
0.0
 40
120.0
  1
注　）
  7
01
100
AcDbText
  0
TEXT
  5
16486
330
15FC1
100
AcDbEntity
  8
SUNPOU
100
AcDbText
 10
11049.37954650968
 20
2982.088810674779
 30
0.0
 40
120.0
  1
1
 41
0.6700000000000001
  7
01
100
AcDbText
  0
TEXT
  5
16487
330
15FC1
100
AcDbEntity
  8
SUNPOU
100
AcDbText
 10
11469.39745139658
 20
3282.088810674779
 30
0.0
 40
119.9991666724536
  1
34 m/s
 41
0.6700000000000001
  7
01
100
AcDbText
  0
TEXT
  5
16488
330
15FC1
100
AcDbEntity
  8
SUNPOU
100
AcDbText
 10
11323.3907564098
 20
3487.803096389063
 30
0.0
 40
119.9991666724536
  1
50  N/m
 41
0.6700000000000001
  7
01
100
AcDbText
  0
TEXT
  5
16489
330
15FC1
100
AcDbEntity
  8
SUNPOU
100
AcDbText
 10
11504.50602679107
 20
3487.803096389063
 30
0.0
 40
95.99933333796291
  1
K
 41
0.6700000000000001
  7
01
100
AcDbText
  0
TEXT
  5
1648A
330
15FC1
100
AcDbEntity
  8
SUNPOU
100
AcDbText
 10
11861.35956909559
 20
3554.720998199047
 30
0.0
 40
61.7138571458333
  1
2
 41
0.6700000000000001
  7
00
100
AcDbText
  0
TEXT
  5
1648B
330
15FC1
100
AcDbEntity
  8
SUNPOU
100
AcDbText
 10
12199.50828431897
 20
3987.885356060594
 30
0.0
 40
98.46153846153846
  1
1
 41
0.6700000000000001
  7
00
 11
12199.50828431897
 21
3974.757150932389
 31
0.0
100
AcDbText
 73
     1
  0
TEXT
  5
1648C
330
15FC1
100
AcDbEntity
  8
SUNPOU
100
AcDbText
 10
12264.04978740613
 20
3963.269971445208
 30
0.0
 40
98.46153846153846
  1
/
 41
0.6700000000000001
  7
00
 11
12264.04978740613
 21
3950.141766317003
 31
0.0
100
AcDbText
 73
     1
  0
TEXT
  5
1648D
330
15FC1
100
AcDbEntity
  8
SUNPOU
100
AcDbText
 10
12349.3157113453
 20
3938.654586829823
 30
0.0
 40
98.46153846153846
  1
25
 41
0.6700000000000001
  7
00
 11
12349.3157113453
 21
3925.526381701617
 31
0.0
100
AcDbText
 73
     1
  0
LINE
  5
1648E
330
15FC1
100
AcDbEntity
  8
SUNPOU
100
AcDbLine
 10
13213.46696193184
 20
3393.411962273153
 30
0.0
 11
13288.46696193185
 21
3393.411962273153
 31
0.0
  0
LINE
  5
1648F
330
15FC1
100
AcDbEntity
  8
SUNPOU
100
AcDbLine
 10
13213.46696193184
 20
3282.088810674778
 30
0.0
 11
13288.46696193185
 21
3282.088810674778
 31
0.0
  0
LINE
  5
16490
330
15FC1
100
AcDbEntity
  8
SUNPOU
100
AcDbLine
 10
13228.46696193184
 20
3282.088810674779
 30
0.0
 11
13228.46696193184
 21
3393.411962273153
 31
0.0
  0
LINE
  5
16491
330
15FC1
100
AcDbEntity
  8
SUNPOU
100
AcDbLine
 10
13250.96696193184
 20
3282.088810674779
 30
0.0
 11
13250.96696193184
 21
3393.411962273153
 31
0.0
  0
LINE
  5
16492
330
15FC1
100
AcDbEntity
  8
SUNPOU
100
AcDbLine
 10
13273.46696193184
 20
3282.088810674779
 30
0.0
 11
13273.46696193184
 21
3393.411962273153
 31
0.0
  0
TEXT
  5
16493
330
15FC1
100
AcDbEntity
  8
SUNPOU
100
AcDbText
 10
14075.1750435519
 20
3487.803096389063
 30
0.0
 40
119.9991666724536
  1
18
 41
0.6700000000000001
  7
01
100
AcDbText
  0
TEXT
  5
16494
330
15FC1
100
AcDbEntity
  8
SUNPOU
100
AcDbText
 10
14256.29031393317
 20
3487.803096389063
 30
0.0
 40
119.9991666724536
  1
N/mm
 41
0.6700000000000001
  7
01
100
AcDbText
  0
TEXT
  5
16495
330
15FC1
100
AcDbEntity
  8
SUNPOU
100
AcDbText
 10
14662.24295664171
 20
3554.720998199047
 30
0.0
 40
61.7138571458333
  1
2
 41
0.6700000000000001
  7
00
100
AcDbText
  0
ARC
  5
16496
330
15FC1
100
AcDbEntity
  8
SUNPOU
100
AcDbCircle
 10
14833.30372081361
 20
3443.864125918815
 30
0.0
 40
300.0
100
AcDbArc
 50
328.347272528265
 51
31.65272747173496
  0
ENDSEC
  0
SECTION
  2
OBJECTS
  0
DICTIONARY
  5
15FAF
330
0
100
AcDbDictionary
281
     1
  3
ACAD_GROUP
350
15FB0
  3
ACAD_LAYOUT
350
15FBC
  3
ACAD_MLINESTYLE
350
15FB9
  3
ACAD_PLOTSETTINGS
350
15FBB
  3
ACAD_PLOTSTYLENAME
350
15FB1
  3
AcDbVariableDictionary
350
16497
  0
DICTIONARY
  5
15FB0
102
{ACAD_REACTORS
330
15FAF
102
}
330
15FAF
100
AcDbDictionary
281
     1
  0
DICTIONARY
  5
15FBC
102
{ACAD_REACTORS
330
15FAF
102
}
330
15FAF
100
AcDbDictionary
281
     1
  3
Model
350
15FC4
  3
ﾚｲｱｳﾄ1
350
15FC0
  0
DICTIONARY
  5
15FB9
102
{ACAD_REACTORS
330
15FAF
102
}
330
15FAF
100
AcDbDictionary
281
     1
  3
Standard
350
15FBA
  0
DICTIONARY
  5
15FBB
102
{ACAD_REACTORS
330
15FAF
102
}
330
15FAF
100
AcDbDictionary
281
     1
  0
ACDBDICTIONARYWDFLT
  5
15FB1
102
{ACAD_REACTORS
330
15FAF
102
}
330
15FAF
100
AcDbDictionary
281
     1
  3
Normal
350
15FB2
100
AcDbDictionaryWithDefault
340
15FB2
  0
DICTIONARY
  5
16497
102
{ACAD_REACTORS
330
15FAF
102
}
330
15FAF
100
AcDbDictionary
281
     1
  3
DIMASSOC
350
16498
  0
LAYOUT
  5
15FC4
102
{ACAD_REACTORS
330
15FBC
102
}
330
15FBC
100
AcDbPlotSettings
  1

  2
Muratec V-1200 Is@Web Printer
  4

  6

 40
0.0
 41
0.0
 42
0.0
 43
0.0
 44
0.0
 45
0.0
 46
0.0
 47
0.0
 48
0.0
 49
0.0
140
0.0
141
0.0
142
1.0
143
1.0
 70
  1712
 72
     0
 73
     0
 74
     0
  7

 75
     0
147
1.0
148
0.0
149
0.0
100
AcDbLayout
  1
Model
 70
     1
 71
     0
 10
0.0
 20
0.0
 11
12.0
 21
9.0
 12
0.0
 22
0.0
 32
0.0
 14
0.0
 24
0.0
 34
0.0
 15
0.0
 25
0.0
 35
0.0
146
0.0
 13
0.0
 23
0.0
 33
0.0
 16
1.0
 26
0.0
 36
0.0
 17
0.0
 27
1.0
 37
0.0
 76
     0
330
15FC1
  0
LAYOUT
  5
15FC0
102
{ACAD_REACTORS
330
15FBC
102
}
330
15FBC
100
AcDbPlotSettings
  1

  2
Muratec V-1200 Is@Web Printer
  4

  6

 40
0.0
 41
0.0
 42
0.0
 43
0.0
 44
0.0
 45
0.0
 46
0.0
 47
0.0
 48
0.0
 49
0.0
140
0.0
141
0.0
142
1.0
143
1.0
 70
   688
 72
     0
 73
     0
 74
     5
  7

 75
    16
147
1.0
148
0.0
149
0.0
100
AcDbLayout
  1
ﾚｲｱｳﾄ1
 70
     0
 71
     1
 10
0.0
 20
0.0
 11
12.0
 21
9.0
 12
0.0
 22
0.0
 32
0.0
 14
1.000000000000000E+20
 24
1.000000000000000E+20
 34
1.000000000000000E+20
 15
-1.000000000000000E+20
 25
-1.000000000000000E+20
 35
-1.000000000000000E+20
146
0.0
 13
0.0
 23
0.0
 33
0.0
 16
1.0
 26
0.0
 36
0.0
 17
0.0
 27
1.0
 37
0.0
 76
     0
330
15FBD
  0
MLINESTYLE
  5
15FBA
102
{ACAD_REACTORS
330
15FB9
102
}
330
15FB9
100
AcDbMlineStyle
  2
STANDARD
 70
     0
  3

 62
   256
 51
90.0
 52
90.0
 71
     2
 49
0.5
 62
   256
  6
BYLAYER
 49
-0.5
 62
   256
  6
BYLAYER
  0
ACDBPLACEHOLDER
  5
15FB2
102
{ACAD_REACTORS
330
15FB1
102
}
330
15FB1
  0
DICTIONARYVAR
  5
16498
102
{ACAD_REACTORS
330
16497
102
}
330
16497
100
DictionaryVariables
280
     0
  1
1
  0
ENDSEC
  0
EOF
