  0
SECTION
  2
HEADER
  9
$ACADVER
  1
AC1015
  9
$ACADMAINTVER
 70
    13
  9
$DWGCODEPAGE
  3
ANSI_932
  9
$INSBASE
 10
267.0
 20
194.8999999999998
 30
0.0
  9
$EXTMIN
 10
433.9966216520333
 20
163.6908237492789
 30
-0.0000000000112498
  9
$EXTMAX
 10
16382.6660542547
 20
11242.27663824599
 30
0.0000000000002956
  9
$LIMMIN
 10
0.0
 20
0.0
  9
$LIMMAX
 10
16800.0
 20
11880.0
  9
$ORTHOMODE
 70
     0
  9
$REGENMODE
 70
     1
  9
$FILLMODE
 70
     1
  9
$QTEXTMODE
 70
     0
  9
$MIRRTEXT
 70
     0
  9
$LTSCALE
 40
40.0
  9
$ATTMODE
 70
     1
  9
$TEXTSIZE
 40
0.2
  9
$TRACEWID
 40
0.05
  9
$TEXTSTYLE
  7
00
  9
$CLAYER
  8
SUNPOU
  9
$CELTYPE
  6
ByLayer
  9
$CECOLOR
 62
   256
  9
$CELTSCALE
 40
1.0
  9
$DISPSILH
 70
     0
  9
$DIMSCALE
 40
40.0
  9
$DIMASZ
 40
0.5
  9
$DIMEXO
 40
1.0
  9
$DIMDLI
 40
7.0
  9
$DIMRND
 40
0.0
  9
$DIMDLE
 40
3.0
  9
$DIMEXE
 40
1.125
  9
$DIMTP
 40
0.0
  9
$DIMTM
 40
0.0
  9
$DIMTXT
 40
2.25
  9
$DIMCEN
 40
0.0
  9
$DIMTSZ
 40
0.0
  9
$DIMTOL
 70
     0
  9
$DIMLIM
 70
     0
  9
$DIMTIH
 70
     0
  9
$DIMTOH
 70
     0
  9
$DIMSE1
 70
     0
  9
$DIMSE2
 70
     0
  9
$DIMTAD
 70
     1
  9
$DIMZIN
 70
     8
  9
$DIMBLK
  1
DOT
  9
$DIMASO
 70
     1
  9
$DIMSHO
 70
     0
  9
$DIMPOST
  1

  9
$DIMAPOST
  1

  9
$DIMALT
 70
     0
  9
$DIMALTD
 70
     2
  9
$DIMALTF
 40
25.4
  9
$DIMLFAC
 40
1.0
  9
$DIMTOFL
 70
     1
  9
$DIMTVP
 40
0.0
  9
$DIMTIX
 70
     0
  9
$DIMSOXD
 70
     0
  9
$DIMSAH
 70
     1
  9
$DIMBLK1
  1
DOT
  9
$DIMBLK2
  1
DOT
  9
$DIMSTYLE
  2
SUNPOU_図面名
  9
$DIMCLRD
 70
   256
  9
$DIMCLRE
 70
   256
  9
$DIMCLRT
 70
   256
  9
$DIMTFAC
 40
1.0
  9
$DIMGAP
 40
1.125
  9
$DIMJUST
 70
     0
  9
$DIMSD1
 70
     0
  9
$DIMSD2
 70
     0
  9
$DIMTOLJ
 70
     1
  9
$DIMTZIN
 70
     0
  9
$DIMALTZ
 70
     0
  9
$DIMALTTZ
 70
     0
  9
$DIMUPT
 70
     0
  9
$DIMDEC
 70
     4
  9
$DIMTDEC
 70
     4
  9
$DIMALTU
 70
     2
  9
$DIMALTTD
 70
     2
  9
$DIMTXSTY
  7
STANDARD
  9
$DIMAUNIT
 70
     0
  9
$DIMADEC
 70
     0
  9
$DIMALTRND
 40
0.0
  9
$DIMAZIN
 70
     0
  9
$DIMDSEP
 70
    46
  9
$DIMATFIT
 70
     3
  9
$DIMFRAC
 70
     0
  9
$DIMLDRBLK
  1
DOT
  9
$DIMLUNIT
 70
     2
  9
$DIMLWD
 70
    -2
  9
$DIMLWE
 70
    -2
  9
$DIMTMOVE
 70
     0
  9
$LUNITS
 70
     2
  9
$LUPREC
 70
     2
  9
$SKETCHINC
 40
0.1
  9
$FILLETRAD
 40
0.0
  9
$AUNITS
 70
     0
  9
$AUPREC
 70
     0
  9
$MENU
  1
A:\TIGER\MENU\TIGER
  9
$ELEVATION
 40
0.0
  9
$PELEVATION
 40
0.0
  9
$THICKNESS
 40
0.0
  9
$LIMCHECK
 70
     0
  9
$CHAMFERA
 40
0.0
  9
$CHAMFERB
 40
0.0
  9
$CHAMFERC
 40
0.0
  9
$CHAMFERD
 40
0.0
  9
$SKPOLY
 70
     0
  9
$TDCREATE
 40
2450266.571064815
  9
$TDUCREATE
 40
2450266.196064815
  9
$TDUPDATE
 40
2456330.678085023
  9
$TDUUPDATE
 40
2456330.303085023
  9
$TDINDWG
 40
0.2024787731
  9
$TDUSRTIMER
 40
0.2024787731
  9
$USRTIMER
 70
     1
  9
$ANGBASE
 50
0.0
  9
$ANGDIR
 70
     0
  9
$PDMODE
 70
     0
  9
$PDSIZE
 40
0.0
  9
$PLINEWID
 40
0.0
  9
$SPLFRAME
 70
     0
  9
$SPLINETYPE
 70
     6
  9
$SPLINESEGS
 70
     8
  9
$HANDSEED
  5
160CF
  9
$SURFTAB1
 70
     6
  9
$SURFTAB2
 70
     6
  9
$SURFTYPE
 70
     6
  9
$SURFU
 70
     6
  9
$SURFV
 70
     6
  9
$UCSBASE
  2

  9
$UCSNAME
  2

  9
$UCSORG
 10
0.0
 20
0.0
 30
0.0
  9
$UCSXDIR
 10
1.0
 20
0.0
 30
0.0
  9
$UCSYDIR
 10
0.0
 20
1.0
 30
0.0
  9
$UCSORTHOREF
  2

  9
$UCSORTHOVIEW
 70
     0
  9
$UCSORGTOP
 10
0.0
 20
0.0
 30
0.0
  9
$UCSORGBOTTOM
 10
0.0
 20
0.0
 30
0.0
  9
$UCSORGLEFT
 10
0.0
 20
0.0
 30
0.0
  9
$UCSORGRIGHT
 10
0.0
 20
0.0
 30
0.0
  9
$UCSORGFRONT
 10
0.0
 20
0.0
 30
0.0
  9
$UCSORGBACK
 10
0.0
 20
0.0
 30
0.0
  9
$PUCSBASE
  2

  9
$PUCSNAME
  2

  9
$PUCSORG
 10
0.0
 20
0.0
 30
0.0
  9
$PUCSXDIR
 10
1.0
 20
0.0
 30
0.0
  9
$PUCSYDIR
 10
0.0
 20
1.0
 30
0.0
  9
$PUCSORTHOREF
  2

  9
$PUCSORTHOVIEW
 70
     0
  9
$PUCSORGTOP
 10
0.0
 20
0.0
 30
0.0
  9
$PUCSORGBOTTOM
 10
0.0
 20
0.0
 30
0.0
  9
$PUCSORGLEFT
 10
0.0
 20
0.0
 30
0.0
  9
$PUCSORGRIGHT
 10
0.0
 20
0.0
 30
0.0
  9
$PUCSORGFRONT
 10
0.0
 20
0.0
 30
0.0
  9
$PUCSORGBACK
 10
0.0
 20
0.0
 30
0.0
  9
$USERI1
 70
     3
  9
$USERI2
 70
     0
  9
$USERI3
 70
     0
  9
$USERI4
 70
     0
  9
$USERI5
 70
  1103
  9
$USERR1
 40
0.0
  9
$USERR2
 40
1.0
  9
$USERR3
 40
0.0
  9
$USERR4
 40
0.0
  9
$USERR5
 40
0.0
  9
$WORLDVIEW
 70
     1
  9
$SHADEDGE
 70
     3
  9
$SHADEDIF
 70
    70
  9
$TILEMODE
 70
     1
  9
$MAXACTVP
 70
    16
  9
$PINSBASE
 10
0.0
 20
0.0
 30
0.0
  9
$PLIMCHECK
 70
     0
  9
$PEXTMIN
 10
1.000000000000000E+20
 20
1.000000000000000E+20
 30
1.000000000000000E+20
  9
$PEXTMAX
 10
-1.000000000000000E+20
 20
-1.000000000000000E+20
 30
-1.000000000000000E+20
  9
$PLIMMIN
 10
0.0
 20
0.0
  9
$PLIMMAX
 10
12.0
 20
9.0
  9
$UNITMODE
 70
     0
  9
$VISRETAIN
 70
     0
  9
$PLINEGEN
 70
     1
  9
$PSLTSCALE
 70
     0
  9
$TREEDEPTH
 70
  3020
  9
$CMLSTYLE
  2
Standard
  9
$CMLJUST
 70
     0
  9
$CMLSCALE
 40
1.0
  9
$PROXYGRAPHICS
 70
     1
  9
$MEASUREMENT
 70
     0
  9
$CELWEIGHT
370
    -1
  9
$ENDCAPS
280
     0
  9
$JOINSTYLE
280
     0
  9
$LWDISPLAY
290
     0
  9
$INSUNITS
 70
     0
  9
$HYPERLINKBASE
  1

  9
$STYLESHEET
  1

  9
$XEDIT
290
     1
  9
$CEPSNTYPE
380
     0
  9
$PSTYLEMODE
290
     1
  9
$FINGERPRINTGUID
  2
{407AF348-A72B-4278-A2EC-F26D40FECE30}
  9
$VERSIONGUID
  2
{3A7373EA-E6D8-4030-8488-E2F24C4C9F8D}
  9
$EXTNAMES
290
     1
  9
$PSVPSCALE
 40
0.0
  9
$OLESTARTUP
290
     0
  0
ENDSEC
  0
SECTION
  2
CLASSES
  0
CLASS
  1
ACDBDICTIONARYWDFLT
  2
AcDbDictionaryWithDefault
  3
AutoCAD 2000
 90
        0
280
     0
281
     0
  0
CLASS
  1
ACDBPLACEHOLDER
  2
AcDbPlaceHolder
  3
AutoCAD 2000
 90
        0
280
     0
281
     0
  0
CLASS
  1
LAYOUT
  2
AcDbLayout
  3
AutoCAD 2000
 90
        0
280
     0
281
     0
  0
CLASS
  1
DICTIONARYVAR
  2
AcDbDictionaryVar
  3
AutoCAD 2000
 90
        0
280
     0
281
     0
  0
ENDSEC
  0
SECTION
  2
TABLES
  0
TABLE
  2
VPORT
  5
15CBD
330
0
100
AcDbSymbolTable
 70
     2
  0
VPORT
  5
160CE
330
15CBD
100
AcDbSymbolTableRecord
100
AcDbViewportTableRecord
  2
*Active
 70
     0
 10
0.0
 20
0.0
 11
1.0
 21
1.0
 12
8408.331337953367
 22
5702.983730997637
 13
0.0
 23
0.0
 14
1.0
 24
1.0
 15
0.0
 25
0.0
 16
0.0
 26
0.0
 36
1.0
 17
0.0
 27
0.0
 37
0.0
 40
11162.83361536741
 41
1.527918781725888
 42
50.0
 43
0.0
 44
0.0
 50
0.0
 51
0.0
 71
     0
 72
 10000
 73
     1
 74
     0
 75
     0
 76
     0
 77
     0
 78
     0
281
     0
 65
     1
110
0.0
120
0.0
130
0.0
111
1.0
121
0.0
131
0.0
112
0.0
122
1.0
132
0.0
 79
     0
146
0.0
  0
ENDTAB
  0
TABLE
  2
LTYPE
  5
15CBA
330
0
100
AcDbSymbolTable
 70
     6
  0
LTYPE
  5
15CC8
330
15CBA
100
AcDbSymbolTableRecord
100
AcDbLinetypeTableRecord
  2
ByBlock
 70
     0
  3

 72
    65
 73
     0
 40
0.0
  0
LTYPE
  5
15CC9
330
15CBA
100
AcDbSymbolTableRecord
100
AcDbLinetypeTableRecord
  2
ByLayer
 70
     0
  3

 72
    65
 73
     0
 40
0.0
  0
LTYPE
  5
15CCA
330
15CBA
100
AcDbSymbolTableRecord
100
AcDbLinetypeTableRecord
  2
CONTINUOUS
 70
     0
  3
実線
 72
    65
 73
     0
 40
0.0
  0
LTYPE
  5
15CDA
330
15CBA
100
AcDbSymbolTableRecord
100
AcDbLinetypeTableRecord
  2
1PL-M
 70
     0
  3

 72
    65
 73
     4
 40
15.0
 49
12.0
 74
     0
 49
-1.0
 74
     0
 49
1.0
 74
     0
 49
-1.0
 74
     0
  0
LTYPE
  5
15CDB
330
15CBA
100
AcDbSymbolTableRecord
100
AcDbLinetypeTableRecord
  2
2PL-M
 70
     0
  3

 72
    65
 73
     6
 40
17.0
 49
12.0
 74
     0
 49
-1.0
 74
     0
 49
1.0
 74
     0
 49
-1.0
 74
     0
 49
1.0
 74
     0
 49
-1.0
 74
     0
  0
LTYPE
  5
15CDC
330
15CBA
100
AcDbSymbolTableRecord
100
AcDbLinetypeTableRecord
  2
1PL-12
 70
     0
  3

 72
    65
 73
     4
 40
15.0
 49
12.0
 74
     0
 49
-1.0
 74
     0
 49
1.0
 74
     0
 49
-1.0
 74
     0
  0
LTYPE
  5
15CDD
330
15CBA
100
AcDbSymbolTableRecord
100
AcDbLinetypeTableRecord
  2
KAKURE-1
 70
     0
  3

 72
    65
 73
     2
 40
2.0
 49
1.0
 74
     0
 49
-1.0
 74
     0
  0
LTYPE
  5
15CDE
330
15CBA
100
AcDbSymbolTableRecord
100
AcDbLinetypeTableRecord
  2
2PL-12
 70
     0
  3

 72
    65
 73
     6
 40
17.0
 49
12.0
 74
     0
 49
-1.0
 74
     0
 49
1.0
 74
     0
 49
-1.0
 74
     0
 49
1.0
 74
     0
 49
-1.0
 74
     0
  0
ENDTAB
  0
TABLE
  2
LAYER
  5
15CB7
330
0
100
AcDbSymbolTable
 70
    22
  0
LAYER
  5
15CC5
330
15CB7
100
AcDbSymbolTableRecord
100
AcDbLayerTableRecord
  2
0
 70
     0
 62
     7
  6
CONTINUOUS
370
    -3
390
15CC4
  0
LAYER
  5
15CD7
330
15CB7
100
AcDbSymbolTableRecord
100
AcDbLayerTableRecord
  2
SUNPOU
 70
     0
 62
     4
  6
CONTINUOUS
370
    -3
390
15CC4
  0
LAYER
  5
15CDF
330
15CB7
100
AcDbSymbolTableRecord
100
AcDbLayerTableRecord
  2
U2
 70
     0
 62
     4
  6
CONTINUOUS
370
    -3
390
15CC4
  0
LAYER
  5
15CE0
330
15CB7
100
AcDbSymbolTableRecord
100
AcDbLayerTableRecord
  2
HIKIDASHI
 70
     0
 62
     6
  6
CONTINUOUS
370
    -3
390
15CC4
  0
LAYER
  5
15CE1
330
15CB7
100
AcDbSymbolTableRecord
100
AcDbLayerTableRecord
  2
1PL-M1
 70
     0
 62
     6
  6
1PL-M
370
    -3
390
15CC4
  0
LAYER
  5
15CE2
330
15CB7
100
AcDbSymbolTableRecord
100
AcDbLayerTableRecord
  2
NAME
 70
     0
 62
    20
  6
CONTINUOUS
370
    -3
390
15CC4
  0
LAYER
  5
15CE3
330
15CB7
100
AcDbSymbolTableRecord
100
AcDbLayerTableRecord
  2
FILENAME
 70
     0
 62
     7
  6
CONTINUOUS
370
    -3
390
15CC4
  0
LAYER
  5
15CE4
330
15CB7
100
AcDbSymbolTableRecord
100
AcDbLayerTableRecord
  2
KISO
 70
     0
 62
     2
  6
CONTINUOUS
370
    -3
390
15CC4
  0
LAYER
  5
15CE5
330
15CB7
100
AcDbSymbolTableRecord
100
AcDbLayerTableRecord
  2
YANE
 70
     0
 62
     1
  6
1PL-12
370
    -3
390
15CC4
  0
LAYER
  5
15CE6
330
15CB7
100
AcDbSymbolTableRecord
100
AcDbLayerTableRecord
  2
HATCH
 70
     0
 62
     1
  6
CONTINUOUS
370
    -3
390
15CC4
  0
LAYER
  5
15CE7
330
15CB7
100
AcDbSymbolTableRecord
100
AcDbLayerTableRecord
  2
DOMAKON
 70
     0
 62
     2
  6
CONTINUOUS
370
    -3
390
15CC4
  0
LAYER
  5
15CE8
330
15CB7
100
AcDbSymbolTableRecord
100
AcDbLayerTableRecord
  2
KISO-1
 70
     0
 62
     6
  6
2PL-12
370
    -3
390
15CC4
  0
LAYER
  5
15CE9
330
15CB7
100
AcDbSymbolTableRecord
100
AcDbLayerTableRecord
  2
KISO-2
 70
     0
 62
     1
  6
KAKURE-1
370
    -3
390
15CC4
  0
LAYER
  5
15CEA
330
15CB7
100
AcDbSymbolTableRecord
100
AcDbLayerTableRecord
  2
SIN
 70
     0
 62
     6
  6
1PL-12
370
    -3
390
15CC4
  0
LAYER
  5
15CEB
330
15CB7
100
AcDbSymbolTableRecord
100
AcDbLayerTableRecord
  2
AQU_HOKYOU
 70
     0
 62
     2
  6
CONTINUOUS
370
    -3
390
15CC4
  0
LAYER
  5
15CEC
330
15CB7
100
AcDbSymbolTableRecord
100
AcDbLayerTableRecord
  2
CF-101
 70
     0
 62
     3
  6
CONTINUOUS
370
    -3
390
15CC4
  0
LAYER
  5
15CED
330
15CB7
100
AcDbSymbolTableRecord
100
AcDbLayerTableRecord
  2
KIN
 70
     0
 62
     7
  6
CONTINUOUS
370
    -3
390
15CC4
  0
LAYER
  5
15CEE
330
15CB7
100
AcDbSymbolTableRecord
100
AcDbLayerTableRecord
  2
KIN-T
 70
     0
 62
     3
  6
CONTINUOUS
370
    -3
390
15CC4
  0
LAYER
  5
15CEF
330
15CB7
100
AcDbSymbolTableRecord
100
AcDbLayerTableRecord
  2
YODOROGO
 70
     0
 62
   130
  6
CONTINUOUS
370
    -3
390
15CC4
  0
LAYER
  5
15CF0
330
15CB7
100
AcDbSymbolTableRecord
100
AcDbLayerTableRecord
  2
WAKUSEN-01
 70
     0
 62
    50
  6
CONTINUOUS
370
    -3
390
15CC4
  0
LAYER
  5
15CF1
330
15CB7
100
AcDbSymbolTableRecord
100
AcDbLayerTableRecord
  2
WAKUSEN-02
 70
     0
 62
   130
  6
CONTINUOUS
370
    -3
390
15CC4
  0
LAYER
  5
15CF2
330
15CB7
100
AcDbSymbolTableRecord
100
AcDbLayerTableRecord
  2
WAKUMOJI-01
 70
     0
 62
   130
  6
CONTINUOUS
370
    -3
390
15CC4
  0
ENDTAB
  0
TABLE
  2
STYLE
  5
15CB8
330
0
100
AcDbSymbolTable
 70
     5
  0
STYLE
  5
15CC6
330
15CB8
100
AcDbSymbolTableRecord
100
AcDbTextStyleTableRecord
  2
STANDARD
 70
     0
 40
3.0
 41
1.0
 50
0.0
 71
     0
 42
0.2
  3
ROMANS
  4
EXTFONT
  0
STYLE
  5
15CD8
330
15CB8
100
AcDbSymbolTableRecord
100
AcDbTextStyleTableRecord
  2
00
 70
     0
 40
0.0
 41
0.6666666666666666
 50
0.0
 71
     0
 42
0.2
  3
ROMANS
  4
BIGFONT
  0
STYLE
  5
15CF3
330
15CB8
100
AcDbSymbolTableRecord
100
AcDbTextStyleTableRecord
  2
01
 70
     0
 40
3.0
 41
1.0
 50
0.0
 71
     0
 42
0.2
  3
ROMANS
  4
BIGFONT
  0
STYLE
  5
15CF4
330
15CB8
100
AcDbSymbolTableRecord
100
AcDbTextStyleTableRecord
  2
WAKUMOJI
 70
     0
 40
3.0
 41
1.0
 50
0.0
 71
     0
 42
3.0
  3
SIMPLEX
  4
BIGFONT
  0
STYLE
  5
15CF5
330
15CB8
100
AcDbSymbolTableRecord
100
AcDbTextStyleTableRecord
  2
FILENAME
 70
     0
 40
100.0
 41
1.0
 50
0.0
 71
     0
 42
100.0
  3
romans
  4
bigfont
  0
ENDTAB
  0
TABLE
  2
VIEW
  5
15CBB
330
0
100
AcDbSymbolTable
 70
     0
  0
ENDTAB
  0
TABLE
  2
UCS
  5
15CBC
330
0
100
AcDbSymbolTable
 70
     0
  0
ENDTAB
  0
TABLE
  2
APPID
  5
15CBE
330
0
100
AcDbSymbolTable
 70
     7
  0
APPID
  5
15CC7
330
15CBE
100
AcDbSymbolTableRecord
100
AcDbRegAppTableRecord
  2
ACAD
 70
     0
  0
APPID
  5
15CF6
330
15CBE
100
AcDbSymbolTableRecord
100
AcDbRegAppTableRecord
  2
AUTOCAD_POSTSCRIPT_FIGURE
 70
     0
  0
APPID
  5
15CF7
330
15CBE
100
AcDbSymbolTableRecord
100
AcDbRegAppTableRecord
  2
ACAD_PSEXT
 70
     0
  0
APPID
  5
15CF8
330
15CBE
100
AcDbSymbolTableRecord
100
AcDbRegAppTableRecord
  2
ACAD_NAV_VCDISPLAY
 70
     0
  0
APPID
  5
15CF9
330
15CBE
100
AcDbSymbolTableRecord
100
AcDbRegAppTableRecord
  2
AEC_XDATA_BOUND_SPACE
 70
     0
  0
APPID
  5
15CFA
330
15CBE
100
AcDbSymbolTableRecord
100
AcDbRegAppTableRecord
  2
ACAD_EXEMPT_FROM_CAD_STANDARDS
 70
     0
  0
APPID
  5
15CFB
330
15CBE
100
AcDbSymbolTableRecord
100
AcDbRegAppTableRecord
  2
ACAD_MLEADERVER
 70
     0
  0
ENDTAB
  0
TABLE
  2
DIMSTYLE
  5
15CBF
330
0
100
AcDbSymbolTable
 70
     1
100
AcDbDimStyleTable
 71
     0
  0
DIMSTYLE
105
15CFC
330
15CBF
100
AcDbSymbolTableRecord
100
AcDbDimStyleTableRecord
  2
SUNPOU_図面名
 70
     0
 40
40.0
 41
0.5
 42
1.0
 43
7.0
 44
1.125
 46
3.0
 73
     0
 74
     0
 77
     1
 78
     8
140
2.25
141
0.0
147
1.125
172
     1
173
     1
176
   256
177
   256
178
   256
271
     2
272
     2
279
     2
284
     8
285
     8
286
     8
340
15CD8
  0
ENDTAB
  0
TABLE
  2
BLOCK_RECORD
  5
15CB6
330
0
100
AcDbSymbolTable
 70
     3
  0
BLOCK_RECORD
  5
15CD3
330
15CB6
100
AcDbSymbolTableRecord
100
AcDbBlockTableRecord
  2
*Model_Space
340
15CD6
  0
BLOCK_RECORD
  5
15CCF
330
15CB6
100
AcDbSymbolTableRecord
100
AcDbBlockTableRecord
  2
*Paper_Space
340
15CD2
  0
BLOCK_RECORD
  5
15D01
330
15CB6
100
AcDbSymbolTableRecord
100
AcDbBlockTableRecord
  2
$MODEL_SPACE
340
0
  0
BLOCK_RECORD
  5
15D04
330
15CB6
100
AcDbSymbolTableRecord
100
AcDbBlockTableRecord
  2
$PAPER_SPACE
340
0
  0
BLOCK_RECORD
  5
15D07
330
15CB6
100
AcDbSymbolTableRecord
100
AcDbBlockTableRecord
  2
DOT
340
0
  0
ENDTAB
  0
ENDSEC
  0
SECTION
  2
BLOCKS
  0
BLOCK
  5
15CD4
330
15CD3
100
AcDbEntity
  8
0
100
AcDbBlockBegin
  2
*Model_Space
 70
     0
 10
0.0
 20
0.0
 30
0.0
  3
*Model_Space
  1

  0
ENDBLK
  5
15CD5
330
15CD3
100
AcDbEntity
  8
0
100
AcDbBlockEnd
  0
BLOCK
  5
15CD0
330
15CCF
100
AcDbEntity
 67
     1
  8
0
100
AcDbBlockBegin
  2
*Paper_Space
 70
     0
 10
0.0
 20
0.0
 30
0.0
  3
*Paper_Space
  1

  0
ENDBLK
  5
15CD1
330
15CCF
100
AcDbEntity
 67
     1
  8
0
100
AcDbBlockEnd
  0
BLOCK
  5
15D02
330
15D01
100
AcDbEntity
  8
0
100
AcDbBlockBegin
  2
$MODEL_SPACE
 70
     0
 10
0.0
 20
0.0
 30
0.0
  3
$MODEL_SPACE
  1

  0
ENDBLK
  5
15D03
330
15D01
100
AcDbEntity
  8
0
100
AcDbBlockEnd
  0
BLOCK
  5
15D05
330
15D04
100
AcDbEntity
  8
0
100
AcDbBlockBegin
  2
$PAPER_SPACE
 70
     0
 10
0.0
 20
0.0
 30
0.0
  3
$PAPER_SPACE
  1

  0
ENDBLK
  5
15D06
330
15D04
100
AcDbEntity
  8
0
100
AcDbBlockEnd
  0
BLOCK
  5
15D08
330
15D07
100
AcDbEntity
  8
0
100
AcDbBlockBegin
  2
DOT
 70
     0
 10
0.0
 20
0.0
 30
0.0
  3
DOT
  1

  0
LWPOLYLINE
  5
15D09
330
15D07
100
AcDbEntity
  8
0
  6
ByBlock
 62
     0
100
AcDbPolyline
 90
        2
 70
     1
 43
0.75
 10
-0.375
 20
0.0
 42
1.0
 10
0.375
 20
0.0
 42
1.0
  0
LINE
  5
15D0D
330
15D07
100
AcDbEntity
  8
0
  6
ByBlock
 62
     0
100
AcDbLine
 10
-0.75
 20
0.0
 30
0.0
 11
-1.5
 21
0.0
 31
0.0
  0
ENDBLK
  5
15D0E
330
15D07
100
AcDbEntity
  8
0
100
AcDbBlockEnd
  0
ENDSEC
  0
SECTION
  2
ENTITIES
  0
TEXT
  5
15D0F
330
15CD3
100
AcDbEntity
  8
NAME
100
AcDbText
 10
12854.79999999999
 20
541.0000000000001
 30
0.0
 40
160.0
  1
<3／3>
 41
0.6
  7
01
 72
     2
 11
13354.0
 21
541.0000000000001
 31
0.0
100
AcDbText
  0
TEXT
  5
15D10
330
15CD3
100
AcDbEntity
  8
NAME
100
AcDbText
 10
10912.04264730428
 20
541.0
 30
0.0
 40
160.0
  1
YOCF-200
 41
0.7
  7
01
 72
     2
 11
11776.04264730429
 21
541.0
 31
0.0
100
AcDbText
  0
TEXT
  5
15D11
330
15CD3
100
AcDbEntity
  8
NAME
100
AcDbText
 10
11816.04264730429
 20
541.0
 30
0.0
 40
160.0
  1
型（一般地用）
 41
0.8
  7
01
100
AcDbText
  0
TEXT
  5
15D12
330
15CD3
100
AcDbEntity
  8
HIKIDASHI
100
AcDbText
 10
7437.050177551384
 20
5782.138246625836
 30
0.0
 40
135.0
  1
基 礎 平 面 図　縮尺
  7
01
 72
     4
 11
8229.050177551384
 21
5849.638246625836
 31
0.0
100
AcDbText
  0
TEXT
  5
15D13
330
15CD3
100
AcDbEntity
  8
HIKIDASHI
100
AcDbText
 10
7782.174322717491
 20
5567.138246625837
 30
0.0
 40
135.0
  1
（  ：スパン数）
  7
01
 11
7782.174322717491
 21
5634.638246625836
 31
0.0
100
AcDbText
 73
     2
  0
TEXT
  5
15D14
330
15CD3
100
AcDbEntity
  8
HIKIDASHI
100
AcDbText
 10
7960.598235376822
 20
5567.138246625837
 30
0.0
 40
135.0
  1
N
 41
0.6666666666666666
  7
00
 72
     4
 11
8007.74109251968
 21
5634.638246625836
 31
0.0
100
AcDbText
  0
LINE
  5
15D15
330
15CD3
100
AcDbEntity
  8
KISO-1
100
AcDbLine
 10
5619.127507899647
 20
9143.693182432331
 30
0.0
 11
4819.127507899647
 21
9143.693182432331
 31
0.0
  0
LINE
  5
15D16
330
15CD3
100
AcDbEntity
  8
KISO-1
100
AcDbLine
 10
4819.127507899647
 20
7993.69318243233
 30
0.0
 11
5619.127507899647
 21
7993.69318243233
 31
0.0
  0
TEXT
  5
15D17
330
15CD3
100
AcDbEntity
  8
HIKIDASHI
100
AcDbText
 10
4774.127507899645
 20
6928.168187707528
 30
0.0
 40
90.0
  1
（土間コン側面位置）
 50
90.0
  7
01
100
AcDbText
  0
LINE
  5
15D18
330
15CD3
100
AcDbEntity
  8
KISO-1
100
AcDbLine
 10
4819.127507899647
 20
9143.693182432331
 30
0.0
 11
4819.127507899647
 21
9083.693182432327
 31
0.0
  0
TEXT
  5
15D19
330
15CD3
100
AcDbEntity
  8
HIKIDASHI
100
AcDbText
 10
5708.666308047362
 20
9128.693182432334
 30
0.0
 40
90.0
  1
（土間コン後面位置）
  7
01
100
AcDbText
  0
LINE
  5
15D1A
330
15CD3
100
AcDbEntity
  8
SIN
100
AcDbLine
 10
5219.127507899647
 20
9210.693182432331
 30
0.0
 11
5219.127507899647
 21
7926.693182432328
 31
0.0
  0
LINE
  5
15D1B
330
15CD3
100
AcDbEntity
  8
SIN
100
AcDbLine
 10
7219.127507899648
 20
9210.693182432331
 30
0.0
 11
7219.127507899648
 21
7926.693182432328
 31
0.0
  0
TEXT
  5
15D1C
330
15CD3
100
AcDbEntity
  8
HIKIDASHI
100
AcDbText
 10
5132.326854848415
 20
7036.814277369064
 30
0.0
 40
90.0
  1
（けらば外面）
 50
90.0
  7
01
100
AcDbText
  0
TEXT
  5
15D1D
330
15CD3
100
AcDbEntity
  8
HIKIDASHI
100
AcDbText
 10
5726.575500939492
 20
6708.693182432321
 30
0.0
 40
90.0
  1
（土間コン前面位置）
  7
01
100
AcDbText
  0
TEXT
  5
15D1E
330
15CD3
100
AcDbEntity
  8
HIKIDASHI
100
AcDbText
 10
5835.22159060103
 20
7000.143910050988
 30
0.0
 40
90.0
  1
（鼻隠し外面）
  7
01
100
AcDbText
  0
LINE
  5
15D1F
330
15CD3
100
AcDbEntity
  8
KISO-1
100
AcDbLine
 10
5619.127507899647
 20
7993.69318243233
 30
0.0
 11
5619.127507899647
 21
9143.693182432331
 31
0.0
  0
CIRCLE
  5
15D20
330
15CD3
100
AcDbEntity
  8
KISO-2
100
AcDbCircle
 10
5219.127507899647
 20
8843.69318243233
 30
0.0
 40
44.55
  0
LINE
  5
15D21
330
15CD3
100
AcDbEntity
  8
SIN
100
AcDbLine
 10
5338.677507899647
 20
8843.69318243233
 30
0.0
 11
5099.57750789965
 21
8843.69318243233
 31
0.0
  0
TEXT
  5
15D22
330
15CD3
100
AcDbEntity
  8
HIKIDASHI
100
AcDbText
 10
5817.312397708899
 20
8837.242454813669
 30
0.0
 40
90.0
  1
（屋根後面位置）
  7
01
100
AcDbText
  0
LINE
  5
15D23
330
15CD3
100
AcDbEntity
  8
U2
100
AcDbLine
 10
8269.127507899645
 20
9158.693182432331
 30
0.0
 11
8269.127507899645
 21
6768.693182432328
 31
0.0
  0
CIRCLE
  5
15D24
330
15CD3
100
AcDbEntity
  8
KISO-2
100
AcDbCircle
 10
7219.127507899648
 20
8843.69318243233
 30
0.0
 40
44.55
  0
LINE
  5
15D25
330
15CD3
100
AcDbEntity
  8
SIN
100
AcDbLine
 10
7338.67750789965
 20
8843.69318243233
 30
0.0
 11
7099.57750789965
 21
8843.69318243233
 31
0.0
  0
LINE
  5
15D26
330
15CD3
100
AcDbEntity
  8
HIKIDASHI
100
AcDbLine
 10
9362.771711688244
 20
5917.138246625839
 30
0.0
 11
9227.771711688246
 21
5782.138246625836
 31
0.0
  0
TEXT
  5
15D27
330
15CD3
100
AcDbEntity
  8
HIKIDASHI
100
AcDbText
 10
9083.536143415292
 20
5791.781103768693
 30
0.0
 40
135.0
  1
=
 41
0.6666666666666666
  7
00
 72
     4
 11
9139.250429129578
 21
5849.638246625836
 31
0.0
100
AcDbText
  0
TEXT
  5
15D28
330
15CD3
100
AcDbEntity
  8
HIKIDASHI
100
AcDbText
 10
9313.923774851756
 20
5782.138246625838
 30
0.0
 40
67.5
  1
40
 41
0.6666666666666666
  7
00
 72
     4
 11
9356.780917708901
 21
5815.888246625839
 31
0.0
100
AcDbText
  0
TEXT
  5
15D29
330
15CD3
100
AcDbEntity
  8
HIKIDASHI
100
AcDbText
 10
9230.181807712936
 20
5849.552103177039
 30
0.0
 40
67.5
  1
1
 41
0.6666666666666666
  7
00
 72
     4
 11
9248.396093427222
 21
5883.302103177039
 31
0.0
100
AcDbText
  0
LINE
  5
15D2A
330
15CD3
100
AcDbEntity
  8
HIKIDASHI
100
AcDbLine
 10
11686.16122750115
 20
8923.925239220036
 30
0.0
 11
12120.42628261919
 21
9443.693182432332
 31
0.0
  0
LINE
  5
15D2B
330
15CD3
100
AcDbEntity
  8
SIN
100
AcDbLine
 10
11619.12750789964
 20
9210.693182432331
 30
0.0
 11
11619.12750789964
 21
7926.693182432328
 31
0.0
  0
LINE
  5
15D2C
330
15CD3
100
AcDbEntity
  8
SIN
100
AcDbLine
 10
9619.127507899644
 20
9210.693182432331
 30
0.0
 11
9619.127507899644
 21
7926.693182432328
 31
0.0
  0
LINE
  5
15D2D
330
15CD3
100
AcDbEntity
  8
U2
100
AcDbLine
 10
8569.127507899649
 20
9158.693182432331
 30
0.0
 11
8569.127507899649
 21
6768.693182432328
 31
0.0
  0
LINE
  5
15D2E
330
15CD3
100
AcDbEntity
  8
SIN
100
AcDbLine
 10
9738.677507899645
 20
8843.69318243233
 30
0.0
 11
9499.577507899649
 21
8843.69318243233
 31
0.0
  0
CIRCLE
  5
15D2F
330
15CD3
100
AcDbEntity
  8
KISO-2
100
AcDbCircle
 10
9619.127507899644
 20
8843.69318243233
 30
0.0
 40
44.55
  0
TEXT
  5
15D30
330
15CD3
100
AcDbEntity
  8
HIKIDASHI
100
AcDbText
 10
11795.92816095087
 20
7036.814277369064
 30
0.0
 40
90.0
  1
（けらば外面）
 50
90.0
  7
01
100
AcDbText
  0
LINE
  5
15D31
330
15CD3
100
AcDbEntity
  8
KISO-1
100
AcDbLine
 10
11219.12750789963
 20
7993.69318243233
 30
0.0
 11
11219.12750789963
 21
9143.693182432331
 31
0.0
  0
LINE
  5
15D32
330
15CD3
100
AcDbEntity
  8
KISO-1
100
AcDbLine
 10
12019.12750789964
 20
7993.69318243233
 30
0.0
 11
11219.12750789963
 21
7993.69318243233
 31
0.0
  0
LINE
  5
15D33
330
15CD3
100
AcDbEntity
  8
KISO-1
100
AcDbLine
 10
11219.12750789963
 20
9143.693182432331
 30
0.0
 11
12019.12750789964
 21
9143.693182432331
 31
0.0
  0
LINE
  5
15D34
330
15CD3
100
AcDbEntity
  8
SIN
100
AcDbLine
 10
11738.67750789965
 20
8843.69318243233
 30
0.0
 11
11499.57750789964
 21
8843.69318243233
 31
0.0
  0
CIRCLE
  5
15D35
330
15CD3
100
AcDbEntity
  8
KISO-2
100
AcDbCircle
 10
11619.12750789964
 20
8843.69318243233
 30
0.0
 40
44.55
  0
LINE
  5
15D36
330
15CD3
100
AcDbEntity
  8
KISO-1
100
AcDbLine
 10
12019.12750789964
 20
9143.693182432331
 30
0.0
 11
12019.12750789964
 21
9083.693182432327
 31
0.0
  0
TEXT
  5
15D37
330
15CD3
100
AcDbEntity
  8
HIKIDASHI
100
AcDbText
 10
12154.12750789964
 20
6928.168187707528
 30
0.0
 40
90.0
  1
（土間コン側面位置）
 50
90.0
  7
01
100
AcDbText
  0
TEXT
  5
15D38
330
15CD3
100
AcDbEntity
  8
HIKIDASHI
100
AcDbText
 10
12130.42628261919
 20
9488.693182432324
 30
0.0
 40
90.0
  1
柱
  7
01
100
AcDbText
  0
LINE
  5
15D39
330
15CD3
100
AcDbEntity
  8
HIKIDASHI
100
AcDbLine
 10
12120.42628261919
 20
9443.693182432332
 30
0.0
 11
12236.11139086725
 21
9443.693182432332
 31
0.0
  0
LINE
  5
15D3A
330
15CD3
100
AcDbEntity
  8
SUNPOU
100
AcDbLine
 10
9409.127507899645
 20
9353.693182432332
 30
0.0
 11
9619.127507899644
 21
9353.693182432332
 31
0.0
  0
LINE
  5
15D3B
330
15CD3
100
AcDbEntity
  8
SUNPOU
100
AcDbLine
 10
9619.127507899644
 20
9353.693182432332
 30
0.0
 11
9619.127507899644
 21
9203.693182432331
 31
0.0
  0
TEXT
  5
15D3C
330
15CD3
100
AcDbEntity
  8
SUNPOU
100
AcDbText
 10
9193.234650756787
 20
9300.121753860901
 30
0.0
 40
90.0
  1
A'
 41
0.6700000000000001
  7
00
 72
     4
 11
9229.127507899645
 21
9353.693182432332
 31
0.0
100
AcDbText
  0
LINE
  5
15D3D
330
15CD3
100
AcDbEntity
  8
SUNPOU
100
AcDbLine
 10
9409.127507899645
 20
7783.693182432331
 30
0.0
 11
9619.127507899644
 21
7783.693182432331
 31
0.0
  0
LINE
  5
15D3E
330
15CD3
100
AcDbEntity
  8
SUNPOU
100
AcDbLine
 10
9619.127507899644
 20
7783.693182432331
 30
0.0
 11
9619.127507899644
 21
7933.693182432326
 31
0.0
  0
TEXT
  5
15D3F
330
15CD3
100
AcDbEntity
  8
SUNPOU
100
AcDbText
 10
9203.284650756787
 20
7738.693182432325
 30
0.0
 40
90.0
  1
A
 41
0.6700000000000001
  7
00
 72
     4
 11
9229.127507899645
 21
7783.693182432326
 31
0.0
100
AcDbText
  0
LINE
  5
15D40
330
15CD3
100
AcDbEntity
  8
SUNPOU
100
AcDbLine
 10
9409.127507899645
 20
7768.693182432328
 30
0.0
 11
9319.127507899644
 21
7783.693182432326
 31
0.0
  0
LINE
  5
15D41
330
15CD3
100
AcDbEntity
  8
SUNPOU
100
AcDbLine
 10
9319.127507899644
 20
7783.693182432326
 30
0.0
 11
9409.127507899645
 21
7798.693182432328
 31
0.0
  0
SOLID
  5
15D42
330
15CD3
100
AcDbEntity
  8
SUNPOU
100
AcDbTrace
 10
9409.127507899645
 20
7768.693182432328
 30
0.0
 11
9409.127507899645
 21
7798.693182432328
 31
0.0
 12
9319.127507899644
 22
7783.693182432326
 32
0.0
 13
9319.127507899644
 23
7783.693182432326
 33
0.0
  0
LINE
  5
15D43
330
15CD3
100
AcDbEntity
  8
SUNPOU
100
AcDbLine
 10
9409.127507899645
 20
7798.693182432328
 30
0.0
 11
9409.127507899645
 21
7768.693182432328
 31
0.0
  0
LINE
  5
15D44
330
15CD3
100
AcDbEntity
  8
SUNPOU
100
AcDbLine
 10
9409.127507899645
 20
9368.693182432329
 30
0.0
 11
9319.127507899644
 21
9353.693182432332
 31
0.0
  0
LINE
  5
15D45
330
15CD3
100
AcDbEntity
  8
SUNPOU
100
AcDbLine
 10
9319.127507899644
 20
9353.693182432332
 30
0.0
 11
9409.127507899645
 21
9338.693182432331
 31
0.0
  0
SOLID
  5
15D46
330
15CD3
100
AcDbEntity
  8
SUNPOU
100
AcDbTrace
 10
9409.127507899645
 20
9368.693182432329
 30
0.0
 11
9409.127507899645
 21
9338.693182432331
 31
0.0
 12
9319.127507899644
 22
9353.693182432332
 32
0.0
 13
9319.127507899644
 23
9353.693182432332
 33
0.0
  0
LINE
  5
15D47
330
15CD3
100
AcDbEntity
  8
SUNPOU
100
AcDbLine
 10
9409.127507899645
 20
9338.693182432331
 30
0.0
 11
9409.127507899645
 21
9368.693182432329
 31
0.0
  0
LINE
  5
15D48
330
15CD3
100
AcDbEntity
  8
AQU_HOKYOU
100
AcDbLine
 10
5286.173461308464
 20
3960.87009897731
 30
0.0
 11
5403.261773063036
 21
3843.781787222741
 31
0.0
  0
LINE
  5
15D49
330
15CD3
100
AcDbEntity
  8
AQU_HOKYOU
100
AcDbLine
 10
5169.085149553897
 20
3843.781787222744
 30
0.0
 11
5337.085149553897
 21
4011.781787222743
 31
0.0
  0
LINE
  5
15D4A
330
15CD3
100
AcDbEntity
  8
AQU_HOKYOU
100
AcDbLine
 10
5643.636000592909
 20
4011.781787222743
 30
0.0
 11
5169.085149553897
 21
4011.781787222743
 31
0.0
  0
LINE
  5
15D4B
330
15CD3
100
AcDbEntity
  8
KISO
100
AcDbLine
 10
5329.0851495539
 20
3099.781787222737
 30
0.0
 11
3169.0851495539
 21
3099.781787222737
 31
0.0
  0
LINE
  5
15D4C
330
15CD3
100
AcDbEntity
  8
KISO
100
AcDbLine
 10
3169.0851495539
 20
2939.781787222736
 30
0.0
 11
5329.0851495539
 21
2939.781787222737
 31
0.0
  0
LINE
  5
15D4D
330
15CD3
100
AcDbEntity
  8
HATCH
100
AcDbLine
 10
3809.567573858167
 20
4059.781787222741
 30
0.0
 11
3329.085149553897
 21
3579.299362918463
 31
0.0
  0
LINE
  5
15D4E
330
15CD3
100
AcDbEntity
  8
HATCH
100
AcDbLine
 10
3762.049998162429
 20
4059.781787222741
 30
0.0
 11
3329.085149553897
 21
3626.816938614199
 31
0.0
  0
LINE
  5
15D4F
330
15CD3
100
AcDbEntity
  8
HATCH
100
AcDbLine
 10
3857.085149553904
 20
4059.781787222741
 30
0.0
 11
3329.085149553897
 21
3531.781787222728
 31
0.0
  0
LINE
  5
15D50
330
15CD3
100
AcDbEntity
  8
HATCH
100
AcDbLine
 10
3793.085149553881
 20
3131.781787222741
 30
0.0
 11
3761.085149553876
 21
3099.781787222737
 31
0.0
  0
LINE
  5
15D51
330
15CD3
100
AcDbEntity
  8
KIN
100
AcDbLine
 10
3441.085149553901
 20
3179.78178722274
 30
0.0
 11
5057.085149553904
 21
3179.781787222741
 31
0.0
  0
LINE
  5
15D52
330
15CD3
100
AcDbEntity
  8
HATCH
100
AcDbLine
 10
4289.085149553905
 20
4059.781787222742
 30
0.0
 11
3457.085149553908
 21
3227.781787222741
 31
0.0
  0
LINE
  5
15D53
330
15CD3
100
AcDbEntity
  8
HATCH
100
AcDbLine
 10
4241.567573858165
 20
4059.781787222741
 30
0.0
 11
3409.567573858171
 21
3227.781787222741
 31
0.0
  0
LINE
  5
15D54
330
15CD3
100
AcDbEntity
  8
HATCH
100
AcDbLine
 10
4336.602725249635
 20
4059.781787222742
 30
0.0
 11
3504.602725249637
 21
3227.781787222739
 31
0.0
  0
LINE
  5
15D55
330
15CD3
100
AcDbEntity
  8
KISO
100
AcDbLine
 10
4617.805149553894
 20
4059.781787222742
 30
0.0
 11
2707.291914865106
 21
4059.781787222739
 31
0.0
  0
LINE
  5
15D56
330
15CD3
100
AcDbEntity
  8
KISO
100
AcDbLine
 10
3329.0851495539
 20
4059.781787222741
 30
0.0
 11
3329.0851495539
 21
3099.781787222737
 31
0.0
  0
LINE
  5
15D57
330
15CD3
100
AcDbEntity
  8
KISO
100
AcDbLine
 10
3169.0851495539
 20
2939.781787222736
 30
0.0
 11
3169.0851495539
 21
3099.781787222737
 31
0.0
  0
CIRCLE
  5
15D58
330
15CD3
100
AcDbEntity
  8
KIN
100
AcDbCircle
 10
3441.0851495539
 20
3190.181787222738
 30
0.0
 40
10.4
  0
LINE
  5
15D59
330
15CD3
100
AcDbEntity
  8
KISO
100
AcDbLine
 10
2707.291914865106
 20
3819.781787222741
 30
0.0
 11
3329.085149553897
 21
3819.781787222741
 31
0.0
  0
LINE
  5
15D5A
330
15CD3
100
AcDbEntity
  8
KISO
100
AcDbLine
 10
2707.291914865106
 20
3915.781787222739
 30
0.0
 11
3329.085149553897
 21
3915.781787222739
 31
0.0
  0
LINE
  5
15D5B
330
15CD3
100
AcDbEntity
  8
CF-101
100
AcDbLine
 10
4617.805149553896
 20
3259.781787222739
 30
0.0
 11
4617.805149553903
 21
4486.981787222738
 31
0.0
  0
LINE
  5
15D5C
330
15CD3
100
AcDbEntity
  8
CF-101
100
AcDbLine
 10
4760.365149553893
 20
3259.781787222739
 30
0.0
 11
4760.365149553903
 21
4486.981787222738
 31
0.0
  0
LINE
  5
15D5D
330
15CD3
100
AcDbEntity
  8
HATCH
100
AcDbLine
 10
5169.0851495539
 20
3548.746635831276
 30
0.0
 11
5057.085149553897
 21
3436.746635831273
 31
0.0
  0
LINE
  5
15D5E
330
15CD3
100
AcDbEntity
  8
HATCH
100
AcDbLine
 10
5169.085149553897
 20
3501.229060135537
 30
0.0
 11
5057.085149553901
 21
3389.229060135537
 31
0.0
  0
LINE
  5
15D5F
330
15CD3
100
AcDbEntity
  8
KIN-T
100
AcDbLine
 10
4369.0851495539
 20
3963.781787222741
 30
0.0
 11
4369.085149553899
 21
3427.781787222741
 31
0.0
  0
LINE
  5
15D60
330
15CD3
100
AcDbEntity
  8
KIN-T
100
AcDbLine
 10
5009.085149553899
 20
3963.781787222741
 30
0.0
 11
5009.085149553897
 21
3427.781787222739
 31
0.0
  0
LINE
  5
15D61
330
15CD3
100
AcDbEntity
  8
KISO
100
AcDbLine
 10
5169.0851495539
 20
3099.781787222741
 30
0.0
 11
5169.085149553897
 21
4059.781787222742
 31
0.0
  0
LINE
  5
15D62
330
15CD3
100
AcDbEntity
  8
KIN
100
AcDbLine
 10
4409.085149553897
 20
3419.781787222739
 30
0.0
 11
4617.805149553897
 21
3419.781787222739
 31
0.0
  0
LINE
  5
15D63
330
15CD3
100
AcDbEntity
  8
KIN-T
100
AcDbLine
 10
4088.365149553895
 20
3379.781787222741
 30
0.0
 11
4321.085149553897
 21
3379.781787222741
 31
0.0
  0
LINE
  5
15D64
330
15CD3
100
AcDbEntity
  8
HATCH
100
AcDbLine
 10
3888.120300945369
 20
3131.781787222741
 30
0.0
 11
3856.120300945367
 21
3099.781787222737
 31
0.0
  0
LINE
  5
15D65
330
15CD3
100
AcDbEntity
  8
HATCH
100
AcDbLine
 10
3840.602725249637
 20
3131.781787222741
 30
0.0
 11
3808.602725249633
 21
3099.781787222737
 31
0.0
  0
LINE
  5
15D66
330
15CD3
100
AcDbEntity
  8
HATCH
100
AcDbLine
 10
4319.637876641097
 20
3131.781787222741
 30
0.0
 11
4287.637876641097
 21
3099.78178722274
 31
0.0
  0
LINE
  5
15D67
330
15CD3
100
AcDbEntity
  8
HATCH
100
AcDbLine
 10
4272.120300945366
 20
3131.781787222741
 30
0.0
 11
4240.120300945362
 21
3099.78178722274
 31
0.0
  0
LINE
  5
15D68
330
15CD3
100
AcDbEntity
  8
HATCH
100
AcDbLine
 10
4224.602725249609
 20
3131.781787222741
 30
0.0
 11
4192.602725249606
 21
3099.78178722274
 31
0.0
  0
ARC
  5
15D69
330
15CD3
100
AcDbEntity
  8
KIN-T
100
AcDbCircle
 10
4321.085149553897
 20
3427.781787222741
 30
0.0
 40
48.0
100
AcDbArc
 50
270.0
 51
0.0
  0
LINE
  5
15D6A
330
15CD3
100
AcDbEntity
  8
KIN
100
AcDbLine
 10
4760.365149553896
 20
3419.781787222739
 30
0.0
 11
4969.085149553899
 21
3419.781787222739
 31
0.0
  0
LINE
  5
15D6B
330
15CD3
100
AcDbEntity
  8
KIN-T
100
AcDbLine
 10
4728.365149553896
 20
3379.781787222739
 30
0.0
 11
4961.085149553897
 21
3379.781787222739
 31
0.0
  0
LINE
  5
15D6C
330
15CD3
100
AcDbEntity
  8
HATCH
100
AcDbLine
 10
4751.63787664111
 20
3131.781787222741
 30
0.0
 11
4719.637876641111
 21
3099.78178722274
 31
0.0
  0
LINE
  5
15D6D
330
15CD3
100
AcDbEntity
  8
HATCH
100
AcDbLine
 10
4704.120300945379
 20
3131.781787222741
 30
0.0
 11
4672.120300945379
 21
3099.78178722274
 31
0.0
  0
LINE
  5
15D6E
330
15CD3
100
AcDbEntity
  8
HATCH
100
AcDbLine
 10
4799.155452336829
 20
3131.781787222741
 30
0.0
 11
4767.155452336828
 21
3099.781787222741
 31
0.0
  0
LINE
  5
15D6F
330
15CD3
100
AcDbEntity
  8
CF-101
100
AcDbLine
 10
4760.365149553893
 20
3259.781787222739
 30
0.0
 11
4617.805149553896
 21
3259.781787222739
 31
0.0
  0
CIRCLE
  5
15D70
330
15CD3
100
AcDbEntity
  8
KIN
100
AcDbCircle
 10
5057.085149553901
 20
3190.181787222741
 30
0.0
 40
10.4
  0
LINE
  5
15D71
330
15CD3
100
AcDbEntity
  8
HATCH
100
AcDbLine
 10
5169.0851495539
 20
3453.7114844398
 30
0.0
 11
5057.085149553901
 21
3341.711484439805
 31
0.0
  0
ARC
  5
15D72
330
15CD3
100
AcDbEntity
  8
KIN-T
100
AcDbCircle
 10
4961.085149553897
 20
3427.781787222739
 30
0.0
 40
48.0
100
AcDbArc
 50
270.0
 51
0.0
  0
LINE
  5
15D73
330
15CD3
100
AcDbEntity
  8
KIN
100
AcDbLine
 10
4369.0851495539
 20
3963.781787222741
 30
0.0
 11
5009.085149553899
 21
3963.781787222741
 31
0.0
  0
LINE
  5
15D74
330
15CD3
100
AcDbEntity
  8
KIN
100
AcDbLine
 10
4369.085149553899
 20
3803.781787222737
 30
0.0
 11
5009.085149553899
 21
3803.78178722274
 31
0.0
  0
LINE
  5
15D75
330
15CD3
100
AcDbEntity
  8
KIN
100
AcDbLine
 10
4369.085149553899
 20
3643.78178722274
 30
0.0
 11
5009.085149553901
 21
3643.78178722274
 31
0.0
  0
LINE
  5
15D76
330
15CD3
100
AcDbEntity
  8
KIN
100
AcDbLine
 10
4369.0851495539
 20
3483.781787222742
 30
0.0
 11
5009.085149553901
 21
3483.781787222742
 31
0.0
  0
CIRCLE
  5
15D77
330
15CD3
100
AcDbEntity
  8
KIN
100
AcDbCircle
 10
4361.885149553898
 20
3643.78178722274
 30
0.0
 40
7.2
  0
CIRCLE
  5
15D78
330
15CD3
100
AcDbEntity
  8
KIN
100
AcDbCircle
 10
4361.885149553898
 20
3483.781787222742
 30
0.0
 40
7.2
  0
CIRCLE
  5
15D79
330
15CD3
100
AcDbEntity
  8
KIN
100
AcDbCircle
 10
4361.885149553898
 20
3963.781787222741
 30
0.0
 40
7.2
  0
CIRCLE
  5
15D7A
330
15CD3
100
AcDbEntity
  8
KIN
100
AcDbCircle
 10
4361.885149553898
 20
3803.781787222737
 30
0.0
 40
7.2
  0
LINE
  5
15D7B
330
15CD3
100
AcDbEntity
  8
HATCH
100
AcDbLine
 10
5169.085149553897
 20
4028.264211527003
 30
0.0
 11
5057.085149553901
 21
3916.26421152701
 31
0.0
  0
CIRCLE
  5
15D7C
330
15CD3
100
AcDbEntity
  8
KIN
100
AcDbCircle
 10
5016.285149553898
 20
3643.78178722274
 30
0.0
 40
7.2
  0
CIRCLE
  5
15D7D
330
15CD3
100
AcDbEntity
  8
KIN
100
AcDbCircle
 10
5016.285149553898
 20
3483.781787222742
 30
0.0
 40
7.2
  0
LINE
  5
15D7E
330
15CD3
100
AcDbEntity
  8
HATCH
100
AcDbLine
 10
5169.085149553897
 20
3933.229060135532
 30
0.0
 11
5057.085149553901
 21
3821.229060135533
 31
0.0
  0
LINE
  5
15D7F
330
15CD3
100
AcDbEntity
  8
HATCH
100
AcDbLine
 10
5169.085149553897
 20
3980.746635831269
 30
0.0
 11
5057.085149553901
 21
3868.74663583127
 31
0.0
  0
CIRCLE
  5
15D80
330
15CD3
100
AcDbEntity
  8
KIN
100
AcDbCircle
 10
5016.285149553898
 20
3963.781787222741
 30
0.0
 40
7.2
  0
CIRCLE
  5
15D81
330
15CD3
100
AcDbEntity
  8
KIN
100
AcDbCircle
 10
5016.285149553898
 20
3803.78178722274
 30
0.0
 40
7.2
  0
LINE
  5
15D82
330
15CD3
100
AcDbEntity
  8
AQU_HOKYOU
100
AcDbLine
 10
5235.261773063036
 20
3909.95841073188
 30
0.0
 11
5301.438396572173
 21
3843.781787222741
 31
0.0
  0
LINE
  5
15D83
330
15CD3
100
AcDbEntity
  8
AQU_HOKYOU
100
AcDbLine
 10
5169.0851495539
 20
3945.605163713601
 30
0.0
 11
5235.261773063041
 21
4011.781787222743
 31
0.0
  0
LINE
  5
15D84
330
15CD3
100
AcDbEntity
  8
KISO
100
AcDbLine
 10
5169.085149553897
 20
4059.781787222742
 30
0.0
 11
4760.365149553896
 21
4059.781787222742
 31
0.0
  0
LINE
  5
15D85
330
15CD3
100
AcDbEntity
  8
KISO
100
AcDbLine
 10
5329.0851495539
 20
2939.781787222737
 30
0.0
 11
5329.0851495539
 21
3099.781787222741
 31
0.0
  0
LINE
  5
15D86
330
15CD3
100
AcDbEntity
  8
AQU_HOKYOU
100
AcDbLine
 10
5622.173461308467
 20
3960.87009897731
 30
0.0
 11
5643.636000592909
 21
3939.407559692868
 31
0.0
  0
LINE
  5
15D87
330
15CD3
100
AcDbEntity
  8
AQU_HOKYOU
100
AcDbLine
 10
5505.085149553899
 20
3843.781787222744
 30
0.0
 11
5643.636000592909
 21
3982.332638261754
 31
0.0
  0
LINE
  5
15D88
330
15CD3
100
AcDbEntity
  8
AQU_HOKYOU
100
AcDbLine
 10
5454.173461308466
 20
3894.693475468177
 30
0.0
 11
5571.261773063035
 21
4011.781787222743
 31
0.0
  0
LINE
  5
15D89
330
15CD3
100
AcDbEntity
  8
AQU_HOKYOU
100
AcDbLine
 10
5337.085149553897
 20
4011.781787222743
 30
0.0
 11
5505.085149553899
 21
3843.781787222744
 31
0.0
  0
LINE
  5
15D8A
330
15CD3
100
AcDbEntity
  8
AQU_HOKYOU
100
AcDbLine
 10
5403.261773063036
 20
3945.605163713607
 30
0.0
 11
5469.438396572166
 21
4011.781787222743
 31
0.0
  0
LINE
  5
15D8B
330
15CD3
100
AcDbEntity
  8
AQU_HOKYOU
100
AcDbLine
 10
5571.261773063035
 20
3909.95841073188
 30
0.0
 11
5637.438396572171
 21
3843.781787222741
 31
0.0
  0
LINE
  5
15D8C
330
15CD3
100
AcDbEntity
  8
HATCH
100
AcDbLine
 10
3073.842108897361
 20
4059.781787222738
 30
0.0
 11
2929.842108897365
 21
3915.781787222739
 31
0.0
  0
LINE
  5
15D8D
330
15CD3
100
AcDbEntity
  8
HATCH
100
AcDbLine
 10
3121.359684593153
 20
4059.781787222741
 30
0.0
 11
2977.359684593146
 21
3915.781787222739
 31
0.0
  0
LINE
  5
15D8E
330
15CD3
100
AcDbEntity
  8
HATCH
100
AcDbLine
 10
3026.324533201622
 20
4059.781787222741
 30
0.0
 11
2882.324533201623
 21
3915.781787222739
 31
0.0
  0
LINE
  5
15D8F
330
15CD3
100
AcDbEntity
  8
HATCH
100
AcDbLine
 10
4321.085149553897
 20
3612.264211527004
 30
0.0
 11
3936.602725249636
 21
3227.781787222741
 31
0.0
  0
LINE
  5
15D90
330
15CD3
100
AcDbEntity
  8
HATCH
100
AcDbLine
 10
4321.085149553897
 20
3659.78178722274
 30
0.0
 11
3889.085149553897
 21
3227.781787222741
 31
0.0
  0
LINE
  5
15D91
330
15CD3
100
AcDbEntity
  8
HATCH
100
AcDbLine
 10
4321.085149553897
 20
3564.746635831273
 30
0.0
 11
3984.120300945369
 21
3227.781787222741
 31
0.0
  0
LINE
  5
15D92
330
15CD3
100
AcDbEntity
  8
HATCH
100
AcDbLine
 10
3408.60272524964
 20
3131.781787222741
 30
0.0
 11
3376.602725249637
 21
3099.78178722274
 31
0.0
  0
LINE
  5
15D93
330
15CD3
100
AcDbEntity
  8
HATCH
100
AcDbLine
 10
3361.085149553908
 20
3131.781787222741
 30
0.0
 11
3329.0851495539
 21
3099.781787222732
 31
0.0
  0
LINE
  5
15D94
330
15CD3
100
AcDbEntity
  8
KIN
100
AcDbLine
 10
7513.183969295441
 20
3481.229568035241
 30
0.0
 11
9128.863969295439
 21
3481.229568035241
 31
0.0
  0
LINE
  5
15D95
330
15CD3
100
AcDbEntity
  8
KIN
100
AcDbLine
 10
7513.183969295441
 20
3745.229568035241
 30
0.0
 11
9128.863969295439
 21
3745.229568035241
 31
0.0
  0
LINE
  5
15D96
330
15CD3
100
AcDbEntity
  8
HATCH
100
AcDbLine
 10
8748.470366882497
 20
4121.229568035242
 30
0.0
 11
8108.470366882498
 21
3481.229568035241
 31
0.0
  0
LINE
  5
15D97
330
15CD3
100
AcDbEntity
  8
HATCH
100
AcDbLine
 10
8795.987942578236
 20
4121.229568035242
 30
0.0
 11
8155.987942578233
 21
3481.229568035241
 31
0.0
  0
LINE
  5
15D98
330
15CD3
100
AcDbEntity
  8
1PL-M1
100
AcDbLine
 10
9361.183969295437
 20
3481.229568035241
 30
0.0
 11
7281.18396929544
 21
3481.229568035241
 31
0.0
  0
LINE
  5
15D99
330
15CD3
100
AcDbEntity
  8
KIN
100
AcDbLine
 10
7523.583969295438
 20
4009.229568035242
 30
0.0
 11
9118.78396929544
 21
4009.229568035242
 31
0.0
  0
LINE
  5
15D9A
330
15CD3
100
AcDbEntity
  8
HATCH
100
AcDbLine
 10
9180.470366882492
 20
4121.229568035242
 30
0.0
 11
8540.470366882493
 21
3481.229568035241
 31
0.0
  0
LINE
  5
15D9B
330
15CD3
100
AcDbEntity
  8
HATCH
100
AcDbLine
 10
9227.987942578232
 20
4121.229568035242
 30
0.0
 11
8587.987942578234
 21
3481.229568035241
 31
0.0
  0
LINE
  5
15D9C
330
15CD3
100
AcDbEntity
  8
HATCH
100
AcDbLine
 10
9241.183969295445
 20
4086.908019056713
 30
0.0
 11
8635.505518273962
 21
3481.229568035241
 31
0.0
  0
LINE
  5
15D9D
330
15CD3
100
AcDbEntity
  8
KIN
100
AcDbLine
 10
7782.463969295439
 20
3481.229568035241
 30
0.0
 11
7782.463969295439
 21
4009.229568035242
 31
0.0
  0
LINE
  5
15D9E
330
15CD3
100
AcDbEntity
  8
KIN
100
AcDbLine
 10
8051.743969295442
 20
3481.229568035241
 30
0.0
 11
8051.743969295442
 21
4009.229568035242
 31
0.0
  0
LINE
  5
15D9F
330
15CD3
100
AcDbEntity
  8
KIN
100
AcDbLine
 10
8321.023969295438
 20
3481.229568035241
 30
0.0
 11
8321.023969295438
 21
4009.229568035242
 31
0.0
  0
LINE
  5
15DA0
330
15CD3
100
AcDbEntity
  8
KIN
100
AcDbLine
 10
8590.303969295439
 20
3481.229568035241
 30
0.0
 11
8590.303969295439
 21
4009.229568035242
 31
0.0
  0
LINE
  5
15DA1
330
15CD3
100
AcDbEntity
  8
HATCH
100
AcDbLine
 10
8221.43521549103
 20
4121.229568035242
 30
0.0
 11
7581.435215491031
 21
3481.229568035241
 31
0.0
  0
LINE
  5
15DA2
330
15CD3
100
AcDbEntity
  8
HATCH
100
AcDbLine
 10
8268.952791186768
 20
4121.229568035242
 30
0.0
 11
7628.952791186771
 21
3481.229568035241
 31
0.0
  0
LINE
  5
15DA3
330
15CD3
100
AcDbEntity
  8
HATCH
100
AcDbLine
 10
8312.701544991176
 20
4117.46074614392
 30
0.0
 11
7676.470366882504
 21
3481.229568035241
 31
0.0
  0
LINE
  5
15DA4
330
15CD3
100
AcDbEntity
  8
HATCH
100
AcDbLine
 10
8700.952791186761
 20
4121.229568035242
 30
0.0
 11
8060.952791186762
 21
3481.229568035241
 31
0.0
  0
LINE
  5
15DA5
330
15CD3
100
AcDbEntity
  8
KIN
100
AcDbLine
 10
7513.183969295441
 20
3481.229568035241
 30
0.0
 11
7513.183969295441
 21
3998.829568035241
 31
0.0
  0
LINE
  5
15DA6
330
15CD3
100
AcDbEntity
  8
HATCH
100
AcDbLine
 10
7836.952791186766
 20
4121.229568035242
 30
0.0
 11
7401.183969295438
 21
3685.46074614391
 31
0.0
  0
LINE
  5
15DA7
330
15CD3
100
AcDbEntity
  8
HATCH
100
AcDbLine
 10
7789.435215491035
 20
4121.229568035242
 30
0.0
 11
7401.183969295438
 21
3732.978321839642
 31
0.0
  0
LINE
  5
15DA8
330
15CD3
100
AcDbEntity
  8
HATCH
100
AcDbLine
 10
7741.917639795295
 20
4121.229568035242
 30
0.0
 11
7401.183969295438
 21
3780.495897535391
 31
0.0
  0
ARC
  5
15DA9
330
15CD3
100
AcDbEntity
  8
KIN
100
AcDbCircle
 10
7523.583969295438
 20
3998.829568035241
 30
0.0
 40
10.4
100
AcDbArc
 50
90.0
 51
180.0
  0
LINE
  5
15DAA
330
15CD3
100
AcDbEntity
  8
KIN
100
AcDbLine
 10
8859.583969295441
 20
3481.229568035241
 30
0.0
 11
8859.583969295441
 21
4009.229568035242
 31
0.0
  0
LINE
  5
15DAB
330
15CD3
100
AcDbEntity
  8
KIN
100
AcDbLine
 10
9128.863969295439
 20
3481.229568035241
 30
0.0
 11
9128.863969295439
 21
3998.829568035241
 31
0.0
  0
LINE
  5
15DAC
330
15CD3
100
AcDbEntity
  8
KIN
100
AcDbLine
 10
9129.183969295437
 20
3998.829568035241
 30
0.0
 11
9129.183969295437
 21
3481.229568035241
 31
0.0
  0
LINE
  5
15DAD
330
15CD3
100
AcDbEntity
  8
1PL-M1
100
AcDbLine
 10
8761.183969295435
 20
4241.229568035242
 30
0.0
 11
8761.183969295435
 21
2721.229568035243
 31
0.0
  0
LINE
  5
15DAE
330
15CD3
100
AcDbEntity
  8
HATCH
100
AcDbLine
 10
9241.183969295445
 20
3607.390443360985
 30
0.0
 11
9115.023093969695
 21
3481.229568035241
 31
0.0
  0
LINE
  5
15DAF
330
15CD3
100
AcDbEntity
  8
HATCH
100
AcDbLine
 10
9241.183969295445
 20
3654.90801905672
 30
0.0
 11
9067.505518273964
 21
3481.229568035241
 31
0.0
  0
LINE
  5
15DB0
330
15CD3
100
AcDbEntity
  8
HATCH
100
AcDbLine
 10
9241.183969295445
 20
3702.425594752457
 30
0.0
 11
9019.987942578223
 21
3481.229568035241
 31
0.0
  0
ARC
  5
15DB1
330
15CD3
100
AcDbEntity
  8
KIN
100
AcDbCircle
 10
9118.78396929544
 20
3998.829568035241
 30
0.0
 40
10.4
100
AcDbArc
 50
0.0
 51
90.0
  0
CIRCLE
  5
15DB2
330
15CD3
100
AcDbEntity
  8
KIN
100
AcDbCircle
 10
3710.3651495539
 20
3190.181787222738
 30
0.0
 40
10.4
  0
CIRCLE
  5
15DB3
330
15CD3
100
AcDbEntity
  8
KIN
100
AcDbCircle
 10
3979.645149553899
 20
3190.181787222738
 30
0.0
 40
10.4
  0
CIRCLE
  5
15DB4
330
15CD3
100
AcDbEntity
  8
KIN
100
AcDbCircle
 10
4248.925149553899
 20
3190.181787222738
 30
0.0
 40
10.4
  0
CIRCLE
  5
15DB5
330
15CD3
100
AcDbEntity
  8
KIN
100
AcDbCircle
 10
4518.205149553899
 20
3190.181787222738
 30
0.0
 40
10.4
  0
CIRCLE
  5
15DB6
330
15CD3
100
AcDbEntity
  8
KIN
100
AcDbCircle
 10
4787.485149553901
 20
3190.181787222738
 30
0.0
 40
10.4
  0
CIRCLE
  5
15DB7
330
15CD3
100
AcDbEntity
  8
KIN
100
AcDbCircle
 10
5056.7651495539
 20
3190.181787222738
 30
0.0
 40
10.4
  0
LINE
  5
15DB8
330
15CD3
100
AcDbEntity
  8
SUNPOU
100
AcDbLine
 10
5458.322099300469
 20
4101.781787222742
 30
0.0
 11
5354.399050846335
 21
4101.781787222742
 31
0.0
  0
TEXT
  5
15DB9
330
15CD3
100
AcDbEntity
  8
SUNPOU
100
AcDbText
 10
5334.932003644831
 20
4146.78178722274
 30
0.0
 40
90.0
  1
G.L
 41
0.6666666666666666
  7
00
 72
     4
 11
5406.360575073403
 21
4191.78178722274
 31
0.0
100
AcDbText
  0
LINE
  5
15DBA
330
15CD3
100
AcDbEntity
  8
SUNPOU
100
AcDbLine
 10
5406.360575073403
 20
4011.781787222743
 30
0.0
 11
5458.322099300469
 21
4101.781787222742
 31
0.0
  0
LINE
  5
15DBB
330
15CD3
100
AcDbEntity
  8
SUNPOU
100
AcDbLine
 10
5354.399050846335
 20
4101.781787222742
 30
0.0
 11
5406.360575073403
 21
4011.781787222743
 31
0.0
  0
LINE
  5
15DBC
330
15CD3
100
AcDbEntity
  8
SUNPOU
100
AcDbLine
 10
2813.964671631774
 20
4149.781787222742
 30
0.0
 11
2865.926195858842
 21
4059.781787222739
 31
0.0
  0
LINE
  5
15DBD
330
15CD3
100
AcDbEntity
  8
SUNPOU
100
AcDbLine
 10
2917.887720085908
 20
4149.781787222742
 30
0.0
 11
2813.964671631774
 21
4149.781787222742
 31
0.0
  0
TEXT
  5
15DBE
330
15CD3
100
AcDbEntity
  8
SUNPOU
100
AcDbText
 10
2797.354767287414
 20
4194.781787222738
 30
0.0
 40
90.0
  1
F.L
 41
0.6666666666666666
  7
00
 72
     4
 11
2865.926195858842
 21
4239.781787222738
 31
0.0
100
AcDbText
  0
LINE
  5
15DBF
330
15CD3
100
AcDbEntity
  8
SUNPOU
100
AcDbLine
 10
2865.926195858842
 20
4059.781787222739
 30
0.0
 11
2917.887720085908
 21
4149.781787222742
 31
0.0
  0
LINE
  5
15DC0
330
15CD3
100
AcDbEntity
  8
HIKIDASHI
100
AcDbLine
 10
5471.156148132628
 20
2227.210470688615
 30
0.0
 11
6320.450232804874
 21
2227.210470688615
 31
0.0
  0
CIRCLE
  5
15DC1
330
15CD3
100
AcDbEntity
  8
HIKIDASHI
100
AcDbCircle
 10
6008.306627416805
 20
2317.210470688615
 30
0.0
 40
60.0
  0
TEXT
  5
15DC2
330
15CD3
100
AcDbEntity
  8
HIKIDASHI
100
AcDbText
 10
5975.806627416805
 20
2279.710470688615
 30
0.0
 40
75.0
  1
ア
  7
01
 72
     1
 11
6008.306627416805
 21
2317.210470688615
 31
0.0
100
AcDbText
 73
     2
  0
TEXT
  5
15DC3
330
15CD3
100
AcDbEntity
  8
HIKIDASHI
100
AcDbText
 10
5501.156148132628
 20
2272.210470688615
 30
0.0
 40
90.0
  1
帯筋
  7
01
100
AcDbText
  0
TEXT
  5
15DC4
330
15CD3
100
AcDbEntity
  8
HIKIDASHI
100
AcDbText
 10
5750.420101166416
 20
2272.210470688615
 30
0.0
 40
90.0
  1
9 %%c
 41
0.6700000000000001
  7
00
100
AcDbText
  0
TEXT
  5
15DC5
330
15CD3
100
AcDbEntity
  8
HIKIDASHI
100
AcDbText
 10
6126.778804233445
 20
2272.210470688615
 30
0.0
 40
90.0
  1
100
 41
0.6700000000000001
  7
00
100
AcDbText
  0
TEXT
  5
15DC6
330
15CD3
100
AcDbEntity
  8
HIKIDASHI
100
AcDbText
 10
5837.335710002906
 20
2477.414486924466
 30
0.0
 40
90.0
  1
4-D13
 41
0.6700000000000001
  7
00
100
AcDbText
  0
TEXT
  5
15DC7
330
15CD3
100
AcDbEntity
  8
HIKIDASHI
100
AcDbText
 10
5588.07175696912
 20
2477.414486924466
 30
0.0
 40
90.0
  1
主筋
  7
01
100
AcDbText
  0
LINE
  5
15DC8
330
15CD3
100
AcDbEntity
  8
HIKIDASHI
100
AcDbLine
 10
5548.071756969118
 20
2437.414486924467
 30
0.0
 11
6192.186897536274
 21
2437.414486924467
 31
0.0
  0
LINE
  5
15DC9
330
15CD3
100
AcDbEntity
  8
HIKIDASHI
100
AcDbLine
 10
3914.962287916145
 20
1876.493145010382
 30
0.0
 11
4842.465425563569
 21
1876.493145010382
 31
0.0
  0
LINE
  5
15DCA
330
15CD3
100
AcDbEntity
  8
HIKIDASHI
100
AcDbLine
 10
3914.962287916145
 20
1916.493145010383
 30
0.0
 11
4842.465425563569
 21
1916.493145010383
 31
0.0
  0
TEXT
  5
15DCB
330
15CD3
100
AcDbEntity
  8
HIKIDASHI
100
AcDbText
 10
3954.962287916145
 20
1976.493145010382
 30
0.0
 40
120.0
  1
A  ~  A'
 41
0.6700000000000001
  7
00
100
AcDbText
  0
TEXT
  5
15DCC
330
15CD3
100
AcDbEntity
  8
HIKIDASHI
100
AcDbText
 10
4440.318660578223
 20
1976.493145010382
 30
0.0
 40
120.0
  1
断  面
  7
01
100
AcDbText
  0
LINE
  5
15DCD
330
15CD3
100
AcDbEntity
  8
SUNPOU
100
AcDbLine
 10
7513.183969295441
 20
4038.829568035241
 30
0.0
 11
7513.183969295441
 21
4437.607652277645
 31
0.0
  0
LINE
  5
15DCE
330
15CD3
100
AcDbEntity
  8
SUNPOU
100
AcDbLine
 10
9129.183969295437
 20
4038.829568035241
 30
0.0
 11
9129.183969295437
 21
4437.607652277645
 31
0.0
  0
LINE
  5
15DCF
330
15CD3
100
AcDbEntity
  8
SUNPOU
100
AcDbLine
 10
7533.18396929544
 20
4392.607652277646
 30
0.0
 11
9109.18396929544
 21
4392.607652277646
 31
0.0
  0
LINE
  5
15DD0
330
15CD3
100
AcDbEntity
  8
SUNPOU
100
AcDbLine
 10
7483.583969295438
 20
4009.229568035242
 30
0.0
 11
6942.922886739174
 21
4009.229568035242
 31
0.0
  0
LINE
  5
15DD1
330
15CD3
100
AcDbEntity
  8
SUNPOU
100
AcDbLine
 10
7483.583969295438
 20
2953.22956803524
 30
0.0
 11
6942.922886739174
 21
2953.22956803524
 31
0.0
  0
LINE
  5
15DD2
330
15CD3
100
AcDbEntity
  8
SUNPOU
100
AcDbLine
 10
6987.922886739174
 20
3989.229568035241
 30
0.0
 11
6987.922886739172
 21
2973.22956803524
 31
0.0
  0
TEXT
  5
15DD3
330
15CD3
100
AcDbEntity
  8
SUNPOU
100
AcDbText
 10
8416.265071566106
 20
4437.607652277645
 30
0.0
 40
90.0
  1
7-D13
 41
0.6666666666666666
  7
00
 72
     4
 11
8569.12221442325
 21
4482.607652277645
 31
0.0
100
AcDbText
  0
TEXT
  5
15DD4
330
15CD3
100
AcDbEntity
  8
SUNPOU
100
AcDbText
 10
7961.46258638319
 20
4437.607652277645
 30
0.0
 40
90.0
  1
ベース筋
  7
01
 72
     4
 11
8165.46258638319
 21
4482.607652277645
 31
0.0
100
AcDbText
  0
TEXT
  5
15DD5
330
15CD3
100
AcDbEntity
  8
SUNPOU
100
AcDbText
 10
6942.922886739174
 20
3575.228230384079
 30
0.0
 40
90.0
  1
5-D13
 50
90.0
 41
0.6666666666666666
  7
00
 72
     4
 11
6897.922886739173
 21
3728.085373241222
 31
0.0
100
AcDbText
  0
TEXT
  5
15DD6
330
15CD3
100
AcDbEntity
  8
SUNPOU
100
AcDbText
 10
6942.922886739174
 20
3112.593192848613
 30
0.0
 40
90.0
  1
ベース筋
 50
90.0
  7
01
 72
     4
 11
6897.922886739173
 21
3316.593192848613
 31
0.0
100
AcDbText
  0
TEXT
  5
15DD7
330
15CD3
100
AcDbEntity
  8
HIKIDASHI
100
AcDbText
 10
2572.881953934749
 20
2605.794872196494
 30
0.0
 40
90.0
  1
10 %%c x 350
 41
0.6700000000000001
  7
00
100
AcDbText
  0
LINE
  5
15DD8
330
15CD3
100
AcDbEntity
  8
HIKIDASHI
100
AcDbLine
 10
2281.929251824513
 20
2560.794872196494
 30
0.0
 11
3143.658082657461
 21
2560.794872196494
 31
0.0
  0
TEXT
  5
15DD9
330
15CD3
100
AcDbEntity
  8
HIKIDASHI
100
AcDbText
 10
2312.326951588685
 20
2605.794872196494
 30
0.0
 40
90.0
  1
鉄筋
  7
01
100
AcDbText
  0
TEXT
  5
15DDA
330
15CD3
100
AcDbEntity
  8
SUNPOU
100
AcDbText
 10
11469.51429914458
 20
2773.630017750111
 30
0.0
 40
120.0
  1
異形鉄筋の場合、原則としてフックは不要ですが、
  7
01
100
AcDbText
  0
TEXT
  5
15DDB
330
15CD3
100
AcDbEntity
  8
SUNPOU
100
AcDbText
 10
11469.51429914458
 20
2567.915732035825
 30
0.0
 40
120.0
  1
地域によっては、フックをつける様指導している
  7
01
100
AcDbText
  0
TEXT
  5
15DDC
330
15CD3
100
AcDbEntity
  8
SUNPOU
100
AcDbText
 10
11469.51429914458
 20
2362.201446321537
 30
0.0
 40
120.0
  1
所もありますので、ご注意願います。
  7
01
100
AcDbText
  0
TEXT
  5
15DDD
330
15CD3
100
AcDbEntity
  8
SUNPOU
100
AcDbText
 10
11047.06141207508
 20
2773.630017750111
 30
0.0
 40
120.0
  1
注　）
  7
01
100
AcDbText
  0
TEXT
  5
15DDE
330
15CD3
100
AcDbEntity
  8
SUNPOU
100
AcDbText
 10
11194.57330569207
 20
2773.630017750111
 30
0.0
 40
120.0
  1
3
 41
0.6700000000000001
  7
01
100
AcDbText
  0
TEXT
  5
15DDF
330
15CD3
100
AcDbEntity
  8
SUNPOU
100
AcDbText
 10
11194.57330569207
 20
2979.344303464397
 30
0.0
 40
120.0
  1
2
 41
0.6700000000000001
  7
01
100
AcDbText
  0
TEXT
  5
15DE0
330
15CD3
100
AcDbEntity
  8
SUNPOU
100
AcDbText
 10
11047.06141207508
 20
2979.344303464397
 30
0.0
 40
120.0
  1
注　）
  7
01
100
AcDbText
  0
TEXT
  5
15DE1
330
15CD3
100
AcDbEntity
  8
SUNPOU
100
AcDbText
 10
11047.06141207508
 20
3390.772874892969
 30
0.0
 40
120.0
  1
注　）
  7
01
100
AcDbText
  0
TEXT
  5
15DE2
330
15CD3
100
AcDbEntity
  8
SUNPOU
100
AcDbText
 10
11194.57330569207
 20
3390.772874892969
 30
0.0
 40
120.0
  1
1
 41
0.6700000000000001
  7
01
100
AcDbText
  0
TEXT
  5
15DE3
330
15CD3
100
AcDbEntity
  8
SUNPOU
100
AcDbText
 10
11469.51429914458
 20
3185.05858917868
 30
0.0
 40
120.0
  1
あわせて設計して下さい。
  7
01
100
AcDbText
  0
TEXT
  5
15DE4
330
15CD3
100
AcDbEntity
  8
SUNPOU
100
AcDbText
 10
11469.51429914458
 20
2979.344303464397
 30
0.0
 40
120.0
  1
その他現地の実情にあわせて設計して下さい。
  7
01
100
AcDbText
  0
TEXT
  5
15DE5
330
15CD3
100
AcDbEntity
  8
SUNPOU
100
AcDbText
 10
11469.51429914458
 20
3390.772874892969
 30
0.0
 40
120.0
  1
寒冷地の場合、凍結深度等を考慮し、実情に
  7
01
100
AcDbText
  0
TEXT
  5
15DE6
330
15CD3
100
AcDbEntity
  8
SUNPOU
100
AcDbText
 10
10795.48846740375
 20
4148.825830535192
 30
0.0
 40
120.0
  1
<下記条件での参考図>
  7
01
 72
     4
 11
11580.6313245466
 21
4208.825830535192
 31
0.0
100
AcDbText
  0
TEXT
  5
15DE7
330
15CD3
100
AcDbEntity
  8
SUNPOU
100
AcDbText
 10
12409.2435465885
 20
4371.954035663397
 30
0.0
 40
98.46153846153846
  1
/
 41
0.6700000000000001
  7
00
 11
12409.2435465885
 21
4358.825830535192
 31
0.0
100
AcDbText
 73
     1
  0
TEXT
  5
15DE8
330
15CD3
100
AcDbEntity
  8
SUNPOU
100
AcDbText
 10
12494.50947052767
 20
4347.338651048012
 30
0.0
 40
98.46153846153846
  1
25
 41
0.6700000000000001
  7
00
 11
12494.50947052767
 21
4334.210445919807
 31
0.0
100
AcDbText
 73
     1
  0
TEXT
  5
15DE9
330
15CD3
100
AcDbEntity
  8
SUNPOU
100
AcDbText
 10
12344.70204350136
 20
4396.569420278781
 30
0.0
 40
98.46153846153846
  1
1
 41
0.6700000000000001
  7
00
 11
12344.70204350136
 21
4383.441215150576
 31
0.0
100
AcDbText
 73
     1
  0
TEXT
  5
15DEA
330
15CD3
100
AcDbEntity
  8
SUNPOU
100
AcDbText
 10
11918.4317743639
 20
4375.236086945448
 30
0.0
 40
123.076923076923
  1
（ S = 　　  ）
 41
0.6700000000000001
  7
00
 11
11918.4317743639
 21
4358.825830535192
 31
0.0
100
AcDbText
 73
     1
  0
TEXT
  5
15DEB
330
15CD3
100
AcDbEntity
  8
SUNPOU
100
AcDbText
 10
10962.63132454661
 20
4358.825830535192
 30
0.0
 40
160.0
  1
基礎断面図
  7
01
 72
     4
 11
11415.96465787994
 21
4438.825830535192
 31
0.0
100
AcDbText
  0
TEXT
  5
15DEC
330
15CD3
100
AcDbEntity
  8
SUNPOU
100
AcDbText
 10
14807.43671582408
 20
3963.405062417235
 30
0.0
 40
61.7138571458333
  1
2
 41
0.6700000000000001
  7
00
100
AcDbText
  0
TEXT
  5
15DED
330
15CD3
100
AcDbEntity
  8
SUNPOU
100
AcDbText
 10
14401.48407311554
 20
3896.487160607252
 30
0.0
 40
119.9991666724536
  1
N/mm
 41
0.6700000000000001
  7
01
100
AcDbText
  0
TEXT
  5
15DEE
330
15CD3
100
AcDbEntity
  8
SUNPOU
100
AcDbText
 10
14220.36880273427
 20
3896.487160607252
 30
0.0
 40
119.9991666724536
  1
18
 41
0.6700000000000001
  7
01
100
AcDbText
  0
LINE
  5
15DEF
330
15CD3
100
AcDbEntity
  8
SUNPOU
100
AcDbLine
 10
13418.66072111423
 20
3690.772874892969
 30
0.0
 11
13418.66072111423
 21
3802.096026491343
 31
0.0
  0
LINE
  5
15DF0
330
15CD3
100
AcDbEntity
  8
SUNPOU
100
AcDbLine
 10
13396.16072111422
 20
3690.772874892969
 30
0.0
 11
13396.16072111422
 21
3802.096026491343
 31
0.0
  0
LINE
  5
15DF1
330
15CD3
100
AcDbEntity
  8
SUNPOU
100
AcDbLine
 10
13373.66072111422
 20
3690.772874892969
 30
0.0
 11
13373.66072111422
 21
3802.096026491343
 31
0.0
  0
LINE
  5
15DF2
330
15CD3
100
AcDbEntity
  8
SUNPOU
100
AcDbLine
 10
13358.66072111423
 20
3690.772874892966
 30
0.0
 11
13433.66072111422
 21
3690.772874892966
 31
0.0
  0
LINE
  5
15DF3
330
15CD3
100
AcDbEntity
  8
SUNPOU
100
AcDbLine
 10
13358.66072111423
 20
3802.096026491343
 30
0.0
 11
13433.66072111422
 21
3802.096026491343
 31
0.0
  0
ARC
  5
15DF4
330
15CD3
100
AcDbEntity
  8
SUNPOU
100
AcDbCircle
 10
14987.19024313956
 20
3848.203725196361
 30
0.0
 40
300.0
100
AcDbArc
 50
328.3472725282539
 51
31.65272747174605
  0
TEXT
  5
15DF5
330
15CD3
100
AcDbEntity
  8
SUNPOU
100
AcDbText
 10
12006.55332827796
 20
3963.405062417235
 30
0.0
 40
61.7138571458333
  1
2
 41
0.6700000000000001
  7
00
100
AcDbText
  0
TEXT
  5
15DF6
330
15CD3
100
AcDbEntity
  8
SUNPOU
100
AcDbText
 10
11649.69978597344
 20
3896.487160607252
 30
0.0
 40
95.99933333796291
  1
K
 41
0.6700000000000001
  7
01
100
AcDbText
  0
TEXT
  5
15DF7
330
15CD3
100
AcDbEntity
  8
SUNPOU
100
AcDbText
 10
11468.58451559217
 20
3896.487160607252
 30
0.0
 40
119.9991666724536
  1
50  N/m
 41
0.6700000000000001
  7
01
100
AcDbText
  0
ARC
  5
15DF8
330
15CD3
100
AcDbEntity
  8
SUNPOU
100
AcDbCircle
 10
11173.51767090168
 20
3848.203725196361
 30
0.0
 40
300.0
100
AcDbArc
 50
148.3472725282538
 51
211.652727471746
  0
TEXT
  5
15DF9
330
15CD3
100
AcDbEntity
  8
SUNPOU
100
AcDbText
 10
11614.59121057895
 20
3690.772874892969
 30
0.0
 40
119.9991666724536
  1
34 m/s
 41
0.6700000000000001
  7
01
100
AcDbText
  0
TEXT
  5
15DFA
330
15CD3
100
AcDbEntity
  8
SUNPOU
100
AcDbText
 10
10969.57330569207
 20
3690.772874892969
 30
0.0
 40
119.9991666724536
  1
基準風速   　　 , 地表面粗度区分
  7
01
100
AcDbText
  0
TEXT
  5
15DFB
330
15CD3
100
AcDbEntity
  8
SUNPOU
100
AcDbText
 10
10969.57330569207
 20
3896.487160607252
 30
0.0
 40
119.9991666724536
  1
地耐力   　　　 以上,コンクリート設計基準強度   　　　 以上
  7
01
100
AcDbText
  0
TEXT
  5
15DFC
330
15CD3
100
AcDbEntity
  8
NAME
100
AcDbText
 10
12336.92663601099
 20
954.9999999999991
 30
0.0
 40
160.0
  1
YOCF
 41
0.7
  7
01
100
AcDbText
  0
TEXT
  5
15DFD
330
15CD3
100
AcDbEntity
  8
NAME
100
AcDbText
 10
10903.6879903188
 20
954.9999999999991
 30
0.0
 40
160.0
  1
ヨド自転車置場      タイプ
  7
01
100
AcDbText
  0
TEXT
  5
15DFE
330
15CD3
100
AcDbEntity
  8
FILENAME
100
AcDbText
 10
13963.90476190475
 20
174.0
 30
0.0
 40
100.0
  1
＜YOCF-200-U_3_JIS_GL.DXF ＞
  7
FILENAME
 72
     2
 11
16382.0
 21
174.0
 31
0.0
100
AcDbText
  0
LINE
  5
15DFF
330
15CD3
100
AcDbEntity
  8
WAKUSEN-01
100
AcDbLine
 10
434.0000000000008
 20
413.9999999999997
 30
0.0
 11
16382.0
 21
413.9999999999997
 31
0.0
  0
LINE
  5
15E00
330
15CD3
100
AcDbEntity
  8
WAKUSEN-01
100
AcDbLine
 10
434.0000000000008
 20
11242.0
 30
0.0
 11
16382.0
 21
11242.0
 31
0.0
  0
LINE
  5
15E01
330
15CD3
100
AcDbEntity
  8
WAKUSEN-01
100
AcDbLine
 10
434.0000000000008
 20
413.9999999999997
 30
0.0
 11
434.0000000000008
 21
11242.0
 31
0.0
  0
LINE
  5
15E02
330
15CD3
100
AcDbEntity
  8
WAKUSEN-01
100
AcDbLine
 10
16382.0
 20
413.9999999999997
 30
0.0
 11
16382.0
 21
11242.0
 31
0.0
  0
LINE
  5
15E03
330
15CD3
100
AcDbEntity
  8
WAKUSEN-01
100
AcDbLine
 10
10280.0
 20
1242.0
 30
0.0
 11
16382.0
 21
1242.0
 31
0.0
  0
LINE
  5
15E04
330
15CD3
100
AcDbEntity
  8
WAKUSEN-02
100
AcDbLine
 10
10280.0
 20
827.9999999999997
 30
0.0
 11
13434.0
 21
827.9999999999997
 31
0.0
  0
TEXT
  5
15E05
330
15CD3
100
AcDbEntity
  8
WAKUMOJI-01
100
AcDbText
 10
10335.13012998137
 20
1062.951504669661
 30
0.0
 40
120.0
  1
名　称
  7
WAKUMOJI
100
AcDbText
  0
TEXT
  5
15E06
330
15CD3
100
AcDbEntity
  8
WAKUMOJI-01
100
AcDbText
 10
10328.25274254596
 20
659.5644874899107
 30
0.0
 40
120.0
  1
機種名
  7
WAKUMOJI
100
AcDbText
  0
LINE
  5
15E07
330
15CD3
100
AcDbEntity
  8
WAKUSEN-01
100
AcDbLine
 10
10280.0
 20
413.9999999999985
 30
0.0
 11
10280.0
 21
1242.0
 31
0.0
  0
LINE
  5
15E08
330
15CD3
100
AcDbEntity
  8
WAKUSEN-02
100
AcDbLine
 10
13434.0
 20
413.9999999999963
 30
0.0
 11
13434.0
 21
1242.0
 31
0.0
  0
LINE
  5
15E09
330
15CD3
100
AcDbEntity
  8
YODOROGO
100
AcDbLine
 10
14988.80217064596
 20
997.8747482146435
 30
0.0
 11
14914.80217064596
 21
997.8747482146435
 31
0.0
1001
AUTOCAD_POSTSCRIPT_FIGURE
1002
{
1000
PSFILL
1000
Grayscale
1000
Grayscale
1070
    25
1002
}
  0
LINE
  5
15E0A
330
15CD3
100
AcDbEntity
  8
YODOROGO
100
AcDbLine
 10
14914.80217064596
 20
973.8747482146434
 30
0.0
 11
14988.80217064596
 21
973.8747482146434
 31
0.0
1001
AUTOCAD_POSTSCRIPT_FIGURE
1002
{
1000
PSFILL
1000
Grayscale
1000
Grayscale
1070
    25
1002
}
  0
LINE
  5
15E0B
330
15CD3
100
AcDbEntity
  8
YODOROGO
100
AcDbLine
 10
14988.80217064596
 20
953.874748214644
 30
0.0
 11
14914.80217064596
 21
953.874748214644
 31
0.0
1001
AUTOCAD_POSTSCRIPT_FIGURE
1002
{
1000
PSFILL
1000
Grayscale
1000
Grayscale
1070
    25
1002
}
  0
LINE
  5
15E0C
330
15CD3
100
AcDbEntity
  8
YODOROGO
100
AcDbLine
 10
14914.80217064596
 20
929.874748214644
 30
0.0
 11
14988.80217064596
 21
929.874748214644
 31
0.0
1001
AUTOCAD_POSTSCRIPT_FIGURE
1002
{
1000
PSFILL
1000
Grayscale
1000
Grayscale
1070
    25
1002
}
  0
LINE
  5
15E0D
330
15CD3
100
AcDbEntity
  8
YODOROGO
100
AcDbLine
 10
14988.80217064596
 20
909.8747482146439
 30
0.0
 11
14914.80217064596
 21
909.8747482146439
 31
0.0
1001
AUTOCAD_POSTSCRIPT_FIGURE
1002
{
1000
PSFILL
1000
Grayscale
1000
Grayscale
1070
    25
1002
}
  0
LINE
  5
15E0E
330
15CD3
100
AcDbEntity
  8
YODOROGO
100
AcDbLine
 10
14960.80217064594
 20
853.874748214644
 30
0.0
 11
14988.80217064596
 21
853.874748214644
 31
0.0
1001
AUTOCAD_POSTSCRIPT_FIGURE
1002
{
1000
PSFILL
1000
Grayscale
1000
Grayscale
1070
    25
1002
}
  0
LINE
  5
15E0F
330
15CD3
100
AcDbEntity
  8
YODOROGO
100
AcDbLine
 10
14868.80217064596
 20
713.8747482146436
 30
0.0
 11
14968.80217064596
 21
740.6696674577553
 31
0.0
  0
LINE
  5
15E10
330
15CD3
100
AcDbEntity
  8
YODOROGO
100
AcDbLine
 10
14974.80217064595
 20
853.874748214644
 30
0.0
 11
14942.80217064596
 21
853.874748214644
 31
0.0
  0
ARC
  5
15E11
330
15CD3
100
AcDbEntity
  8
YODOROGO
100
AcDbCircle
 10
15127.17387491394
 20
903.9323046166312
 30
0.0
 40
190.9434321028236
100
AcDbArc
 50
213.9611167766784
 51
264.4787207431779
  0
ARC
  5
15E12
330
15CD3
100
AcDbEntity
  8
YODOROGO
100
AcDbCircle
 10
15127.17387491396
 20
903.9323046166513
 30
0.0
 40
190.9434321028408
100
AcDbArc
 50
208.141144204866
 51
212.9210361185994
  0
LINE
  5
15E13
330
15CD3
100
AcDbEntity
  8
YODOROGO
100
AcDbLine
 10
14885.70493649264
 20
778.403830673117
 30
0.0
 11
14966.89206625426
 21
800.1578565285436
 31
0.0
  0
LINE
  5
15E14
330
15CD3
100
AcDbEntity
  8
YODOROGO
100
AcDbLine
 10
14868.80217064596
 20
713.8747482146436
 30
0.0
 11
14968.80217064596
 21
740.6696674577553
 31
0.0
  0
LINE
  5
15E15
330
15CD3
100
AcDbEntity
  8
YODOROGO
100
AcDbLine
 10
14974.80217064595
 20
853.874748214644
 30
0.0
 11
14942.80217064596
 21
853.874748214644
 31
0.0
  0
ARC
  5
15E16
330
15CD3
100
AcDbEntity
  8
YODOROGO
100
AcDbCircle
 10
15127.17387491394
 20
903.9323046166312
 30
0.0
 40
190.9434321028236
100
AcDbArc
 50
213.9611167766784
 51
264.4787207431779
  0
LINE
  5
15E17
330
15CD3
100
AcDbEntity
  8
YODOROGO
100
AcDbLine
 10
14396.80217064594
 20
909.8747482146439
 30
0.0
 11
14216.80217064594
 21
909.8747482146439
 31
0.0
  0
LINE
  5
15E18
330
15CD3
100
AcDbEntity
  8
YODOROGO
100
AcDbLine
 10
14256.80217064594
 20
713.8747482146436
 30
0.0
 11
14396.80217064594
 21
713.8747482146436
 31
0.0
  0
LINE
  5
15E19
330
15CD3
100
AcDbEntity
  8
YODOROGO
100
AcDbLine
 10
14364.80217064596
 20
961.8747482146432
 30
0.0
 11
14248.80217064594
 21
961.8747482146432
 31
0.0
  0
LINE
  5
15E1A
330
15CD3
100
AcDbEntity
  8
YODOROGO
100
AcDbLine
 10
14292.80217064596
 20
1013.874748214644
 30
0.0
 11
14328.80217064596
 21
1013.874748214644
 31
0.0
  0
LINE
  5
15E1B
330
15CD3
100
AcDbEntity
  8
YODOROGO
100
AcDbLine
 10
14216.80217064594
 20
853.874748214644
 30
0.0
 11
14216.80217064594
 21
753.8747482146439
 31
0.0
  0
LINE
  5
15E1C
330
15CD3
100
AcDbEntity
  8
YODOROGO
100
AcDbLine
 10
14248.80217064594
 20
781.8747482146434
 30
0.0
 11
14248.80217064594
 21
853.874748214644
 31
0.0
  0
LINE
  5
15E1D
330
15CD3
100
AcDbEntity
  8
YODOROGO
100
AcDbLine
 10
14292.80217064596
 20
873.8747482146449
 30
0.0
 11
14292.80217064596
 21
773.874748214644
 31
0.0
  0
LINE
  5
15E1E
330
15CD3
100
AcDbEntity
  8
YODOROGO
100
AcDbLine
 10
13928.80217064596
 20
841.8747482146445
 30
0.0
 11
13888.80217064596
 21
809.9862070222856
 31
0.0
  0
LINE
  5
15E1F
330
15CD3
100
AcDbEntity
  8
YODOROGO
100
AcDbLine
 10
13968.80217064596
 20
809.9862070222856
 30
0.0
 11
13928.80217064596
 21
841.8747482146445
 31
0.0
  0
LINE
  5
15E20
330
15CD3
100
AcDbEntity
  8
YODOROGO
100
AcDbLine
 10
13928.80217064596
 20
853.874748214644
 30
0.0
 11
13968.80217064596
 21
821.986207022285
 31
0.0
  0
LINE
  5
15E21
330
15CD3
100
AcDbEntity
  8
YODOROGO
100
AcDbLine
 10
13888.80217064596
 20
821.986207022285
 30
0.0
 11
13928.80217064596
 21
853.874748214644
 31
0.0
  0
LINE
  5
15E22
330
15CD3
100
AcDbEntity
  8
YODOROGO
100
AcDbLine
 10
14020.45660200844
 20
829.874748214644
 30
0.0
 11
14020.45660200844
 21
841.8747482146434
 31
0.0
  0
LINE
  5
15E23
330
15CD3
100
AcDbEntity
  8
YODOROGO
100
AcDbLine
 10
13988.80217064596
 20
841.8747482146434
 30
0.0
 11
13988.80217064596
 21
833.8747482146427
 31
0.0
  0
LINE
  5
15E24
330
15CD3
100
AcDbEntity
  8
YODOROGO
100
AcDbLine
 10
14049.06776011545
 20
853.874748214644
 30
0.0
 11
14049.06776011545
 21
827.751818637328
 31
0.0
1001
AUTOCAD_POSTSCRIPT_FIGURE
1002
{
1000
PSFILL
1000
Grayscale
1000
Grayscale
1070
   100
1002
}
  0
LINE
  5
15E25
330
15CD3
100
AcDbEntity
  8
YODOROGO
100
AcDbLine
 10
14041.06776011546
 20
827.751818637328
 30
0.0
 11
14041.06776011546
 21
853.874748214644
 31
0.0
1001
AUTOCAD_POSTSCRIPT_FIGURE
1002
{
1000
PSFILL
1000
Grayscale
1000
Grayscale
1070
   100
1002
}
  0
LINE
  5
15E26
330
15CD3
100
AcDbEntity
  8
YODOROGO
100
AcDbLine
 10
13904.80217064596
 20
804.3859520216292
 30
0.0
 11
13904.80217064596
 21
816.3859520216298
 31
0.0
  0
LINE
  5
15E27
330
15CD3
100
AcDbEntity
  8
YODOROGO
100
AcDbLine
 10
13952.80217064596
 20
804.3859520216292
 30
0.0
 11
13904.80217064596
 21
804.3859520216292
 31
0.0
  0
LINE
  5
15E28
330
15CD3
100
AcDbEntity
  8
YODOROGO
100
AcDbLine
 10
13952.80217064596
 20
816.3859520216298
 30
0.0
 11
13952.80217064596
 21
804.3859520216292
 31
0.0
  0
LINE
  5
15E29
330
15CD3
100
AcDbEntity
  8
YODOROGO
100
AcDbLine
 10
13904.80217064596
 20
816.3859520216298
 30
0.0
 11
13952.80217064596
 21
816.3859520216298
 31
0.0
  0
LINE
  5
15E2A
330
15CD3
100
AcDbEntity
  8
YODOROGO
100
AcDbLine
 10
13912.25479445787
 20
784.2514286852374
 30
0.0
 11
13892.80217064596
 21
737.8747482146435
 31
0.0
1001
AUTOCAD_POSTSCRIPT_FIGURE
1002
{
1000
PSFILL
1000
Grayscale
1000
Grayscale
1070
   100
1002
}
  0
LINE
  5
15E2B
330
15CD3
100
AcDbEntity
  8
YODOROGO
100
AcDbLine
 10
13888.80217064596
 20
784.2514286852374
 30
0.0
 11
13912.25479445787
 21
784.2514286852374
 31
0.0
1001
AUTOCAD_POSTSCRIPT_FIGURE
1002
{
1000
PSFILL
1000
Grayscale
1000
Grayscale
1070
   100
1002
}
  0
LINE
  5
15E2C
330
15CD3
100
AcDbEntity
  8
YODOROGO
100
AcDbLine
 10
13888.80217064596
 20
794.2514286852374
 30
0.0
 11
13888.80217064596
 21
784.2514286852374
 31
0.0
1001
AUTOCAD_POSTSCRIPT_FIGURE
1002
{
1000
PSFILL
1000
Grayscale
1000
Grayscale
1070
   100
1002
}
  0
LINE
  5
15E2D
330
15CD3
100
AcDbEntity
  8
YODOROGO
100
AcDbLine
 10
13968.80217064596
 20
794.2514286852374
 30
0.0
 11
13888.80217064596
 21
794.2514286852374
 31
0.0
1001
AUTOCAD_POSTSCRIPT_FIGURE
1002
{
1000
PSFILL
1000
Grayscale
1000
Grayscale
1070
   100
1002
}
  0
LINE
  5
15E2E
330
15CD3
100
AcDbEntity
  8
YODOROGO
100
AcDbLine
 10
13968.80217064596
 20
784.2514286852374
 30
0.0
 11
13968.80217064596
 21
794.2514286852374
 31
0.0
1001
AUTOCAD_POSTSCRIPT_FIGURE
1002
{
1000
PSFILL
1000
Grayscale
1000
Grayscale
1070
   100
1002
}
  0
LINE
  5
15E2F
330
15CD3
100
AcDbEntity
  8
YODOROGO
100
AcDbLine
 10
13922.25479445786
 20
784.2514286852374
 30
0.0
 11
13968.80217064596
 21
784.2514286852374
 31
0.0
1001
AUTOCAD_POSTSCRIPT_FIGURE
1002
{
1000
PSFILL
1000
Grayscale
1000
Grayscale
1070
   100
1002
}
  0
LINE
  5
15E30
330
15CD3
100
AcDbEntity
  8
YODOROGO
100
AcDbLine
 10
13907.77335914238
 20
747.8747482146435
 30
0.0
 11
13922.25479445786
 21
784.2514286852374
 31
0.0
1001
AUTOCAD_POSTSCRIPT_FIGURE
1002
{
1000
PSFILL
1000
Grayscale
1000
Grayscale
1070
   100
1002
}
  0
LINE
  5
15E31
330
15CD3
100
AcDbEntity
  8
YODOROGO
100
AcDbLine
 10
13951.02739540432
 20
747.8747482146435
 30
0.0
 11
13907.77335914238
 21
747.8747482146435
 31
0.0
1001
AUTOCAD_POSTSCRIPT_FIGURE
1002
{
1000
PSFILL
1000
Grayscale
1000
Grayscale
1070
   100
1002
}
  0
LINE
  5
15E32
330
15CD3
100
AcDbEntity
  8
YODOROGO
100
AcDbLine
 10
13942.53250239547
 20
768.1169053488464
 30
0.0
 11
13951.02739540432
 21
747.8747482146435
 31
0.0
1001
AUTOCAD_POSTSCRIPT_FIGURE
1002
{
1000
PSFILL
1000
Grayscale
1000
Grayscale
1070
   100
1002
}
  0
LINE
  5
15E33
330
15CD3
100
AcDbEntity
  8
YODOROGO
100
AcDbLine
 10
13950.53250239547
 20
768.1169053488464
 30
0.0
 11
13942.53250239547
 21
768.1169053488464
 31
0.0
1001
AUTOCAD_POSTSCRIPT_FIGURE
1002
{
1000
PSFILL
1000
Grayscale
1000
Grayscale
1070
   100
1002
}
  0
LINE
  5
15E34
330
15CD3
100
AcDbEntity
  8
YODOROGO
100
AcDbLine
 10
13964.80217064596
 20
737.8747482146435
 30
0.0
 11
13950.53250239547
 21
768.1169053488464
 31
0.0
1001
AUTOCAD_POSTSCRIPT_FIGURE
1002
{
1000
PSFILL
1000
Grayscale
1000
Grayscale
1070
   100
1002
}
  0
LINE
  5
15E35
330
15CD3
100
AcDbEntity
  8
YODOROGO
100
AcDbLine
 10
13892.80217064596
 20
737.8747482146435
 30
0.0
 11
13964.80217064596
 21
737.8747482146435
 31
0.0
1001
AUTOCAD_POSTSCRIPT_FIGURE
1002
{
1000
PSFILL
1000
Grayscale
1000
Grayscale
1070
   100
1002
}
  0
LINE
  5
15E36
330
15CD3
100
AcDbEntity
  8
YODOROGO
100
AcDbLine
 10
13888.80217064596
 20
809.9862070222856
 30
0.0
 11
13888.80217064596
 21
821.986207022285
 31
0.0
  0
LINE
  5
15E37
330
15CD3
100
AcDbEntity
  8
YODOROGO
100
AcDbLine
 10
13968.80217064596
 20
821.986207022285
 30
0.0
 11
13968.80217064596
 21
809.9862070222856
 31
0.0
  0
ARC
  5
15E38
330
15CD3
100
AcDbEntity
  8
YODOROGO
100
AcDbCircle
 10
14112.97022107348
 20
800.438882662663
 30
0.0
 40
87.99999999999995
100
AcDbArc
 50
280.3644312771313
 51
3.541483659218056
  0
ARC
  5
15E39
330
15CD3
100
AcDbEntity
  8
YODOROGO
100
AcDbCircle
 10
14117.87801537965
 20
816.798903480952
 30
0.0
 40
55.99999999999914
100
AcDbArc
 50
281.2490582504155
 51
348.7509417495832
  0
LINE
  5
15E3A
330
15CD3
100
AcDbEntity
  8
YODOROGO
100
AcDbLine
 10
14128.80217064596
 20
761.8747482146434
 30
0.0
 11
14128.80217064596
 21
713.8747482146436
 31
0.0
  0
LINE
  5
15E3B
330
15CD3
100
AcDbEntity
  8
YODOROGO
100
AcDbLine
 10
14010.04445186845
 20
805.3252825309574
 30
0.0
 11
14020.45660200844
 21
829.874748214644
 31
0.0
  0
LINE
  5
15E3C
330
15CD3
100
AcDbEntity
  8
YODOROGO
100
AcDbLine
 10
14020.80217064596
 20
791.5602449742006
 30
0.0
 11
14010.04445186845
 21
805.3252825309574
 31
0.0
  0
LINE
  5
15E3D
330
15CD3
100
AcDbEntity
  8
YODOROGO
100
AcDbLine
 10
14020.80217064596
 20
781.5602449741994
 30
0.0
 11
14020.80217064596
 21
791.5602449742006
 31
0.0
  0
LINE
  5
15E3E
330
15CD3
100
AcDbEntity
  8
YODOROGO
100
AcDbLine
 10
14008.80217064596
 20
792.6185318747651
 30
0.0
 11
14020.80217064596
 21
781.5602449741994
 31
0.0
  0
LINE
  5
15E3F
330
15CD3
100
AcDbEntity
  8
YODOROGO
100
AcDbLine
 10
14008.80217064596
 20
737.8747482146435
 30
0.0
 11
14008.80217064596
 21
792.6185318747651
 31
0.0
  0
LINE
  5
15E40
330
15CD3
100
AcDbEntity
  8
YODOROGO
100
AcDbLine
 10
14000.80217064596
 20
737.8747482146435
 30
0.0
 11
14008.80217064596
 21
737.8747482146435
 31
0.0
  0
LINE
  5
15E41
330
15CD3
100
AcDbEntity
  8
YODOROGO
100
AcDbLine
 10
14000.80217064596
 20
790.0026748448738
 30
0.0
 11
14000.80217064596
 21
737.8747482146435
 31
0.0
  0
LINE
  5
15E42
330
15CD3
100
AcDbEntity
  8
YODOROGO
100
AcDbLine
 10
13988.80217064596
 20
766.3840395167142
 30
0.0
 11
14000.80217064596
 21
790.0026748448738
 31
0.0
  0
LINE
  5
15E43
330
15CD3
100
AcDbEntity
  8
YODOROGO
100
AcDbLine
 10
13988.80217064596
 20
778.3840395167149
 30
0.0
 11
13988.80217064596
 21
766.3840395167142
 31
0.0
  0
LINE
  5
15E44
330
15CD3
100
AcDbEntity
  8
YODOROGO
100
AcDbLine
 10
14012.91438714567
 20
833.8747482146427
 30
0.0
 11
13988.80217064596
 21
778.3840395167149
 31
0.0
  0
LINE
  5
15E45
330
15CD3
100
AcDbEntity
  8
YODOROGO
100
AcDbLine
 10
13988.80217064596
 20
833.8747482146427
 30
0.0
 11
14012.91438714567
 21
833.8747482146427
 31
0.0
  0
LINE
  5
15E46
330
15CD3
100
AcDbEntity
  8
YODOROGO
100
AcDbLine
 10
14025.06776011545
 20
827.751818637328
 30
0.0
 11
14041.06776011546
 21
827.751818637328
 31
0.0
1001
AUTOCAD_POSTSCRIPT_FIGURE
1002
{
1000
PSFILL
1000
Grayscale
1000
Grayscale
1070
   100
1002
}
  0
LINE
  5
15E47
330
15CD3
100
AcDbEntity
  8
YODOROGO
100
AcDbLine
 10
14025.06776011545
 20
815.7518186373286
 30
0.0
 11
14025.06776011545
 21
827.751818637328
 31
0.0
1001
AUTOCAD_POSTSCRIPT_FIGURE
1002
{
1000
PSFILL
1000
Grayscale
1000
Grayscale
1070
   100
1002
}
  0
LINE
  5
15E48
330
15CD3
100
AcDbEntity
  8
YODOROGO
100
AcDbLine
 10
14041.06776011546
 20
815.7518186373286
 30
0.0
 11
14025.06776011545
 21
815.7518186373286
 31
0.0
1001
AUTOCAD_POSTSCRIPT_FIGURE
1002
{
1000
PSFILL
1000
Grayscale
1000
Grayscale
1070
   100
1002
}
  0
LINE
  5
15E49
330
15CD3
100
AcDbEntity
  8
YODOROGO
100
AcDbLine
 10
14041.06776011546
 20
749.8747482146441
 30
0.0
 11
14041.06776011546
 21
815.7518186373286
 31
0.0
1001
AUTOCAD_POSTSCRIPT_FIGURE
1002
{
1000
PSFILL
1000
Grayscale
1000
Grayscale
1070
   100
1002
}
  0
LINE
  5
15E4A
330
15CD3
100
AcDbEntity
  8
YODOROGO
100
AcDbLine
 10
14025.06776011545
 20
749.8747482146441
 30
0.0
 11
14041.06776011546
 21
749.8747482146441
 31
0.0
1001
AUTOCAD_POSTSCRIPT_FIGURE
1002
{
1000
PSFILL
1000
Grayscale
1000
Grayscale
1070
   100
1002
}
  0
LINE
  5
15E4B
330
15CD3
100
AcDbEntity
  8
YODOROGO
100
AcDbLine
 10
14025.06776011545
 20
737.8747482146435
 30
0.0
 11
14025.06776011545
 21
749.8747482146441
 31
0.0
1001
AUTOCAD_POSTSCRIPT_FIGURE
1002
{
1000
PSFILL
1000
Grayscale
1000
Grayscale
1070
   100
1002
}
  0
LINE
  5
15E4C
330
15CD3
100
AcDbEntity
  8
YODOROGO
100
AcDbLine
 10
14068.80217064596
 20
737.8747482146435
 30
0.0
 11
14025.06776011545
 21
737.8747482146435
 31
0.0
1001
AUTOCAD_POSTSCRIPT_FIGURE
1002
{
1000
PSFILL
1000
Grayscale
1000
Grayscale
1070
   100
1002
}
  0
LINE
  5
15E4D
330
15CD3
100
AcDbEntity
  8
YODOROGO
100
AcDbLine
 10
14068.80217064596
 20
749.8747482146441
 30
0.0
 11
14068.80217064596
 21
737.8747482146435
 31
0.0
1001
AUTOCAD_POSTSCRIPT_FIGURE
1002
{
1000
PSFILL
1000
Grayscale
1000
Grayscale
1070
   100
1002
}
  0
LINE
  5
15E4E
330
15CD3
100
AcDbEntity
  8
YODOROGO
100
AcDbLine
 10
14049.06776011545
 20
749.8747482146441
 30
0.0
 11
14068.80217064596
 21
749.8747482146441
 31
0.0
1001
AUTOCAD_POSTSCRIPT_FIGURE
1002
{
1000
PSFILL
1000
Grayscale
1000
Grayscale
1070
   100
1002
}
  0
LINE
  5
15E4F
330
15CD3
100
AcDbEntity
  8
YODOROGO
100
AcDbLine
 10
14049.06776011545
 20
815.7518186373286
 30
0.0
 11
14049.06776011545
 21
749.8747482146441
 31
0.0
1001
AUTOCAD_POSTSCRIPT_FIGURE
1002
{
1000
PSFILL
1000
Grayscale
1000
Grayscale
1070
   100
1002
}
  0
LINE
  5
15E50
330
15CD3
100
AcDbEntity
  8
YODOROGO
100
AcDbLine
 10
14068.80217064596
 20
815.7518186373286
 30
0.0
 11
14049.06776011545
 21
815.7518186373286
 31
0.0
1001
AUTOCAD_POSTSCRIPT_FIGURE
1002
{
1000
PSFILL
1000
Grayscale
1000
Grayscale
1070
   100
1002
}
  0
LINE
  5
15E51
330
15CD3
100
AcDbEntity
  8
YODOROGO
100
AcDbLine
 10
14068.80217064596
 20
827.751818637328
 30
0.0
 11
14068.80217064596
 21
815.7518186373286
 31
0.0
1001
AUTOCAD_POSTSCRIPT_FIGURE
1002
{
1000
PSFILL
1000
Grayscale
1000
Grayscale
1070
   100
1002
}
  0
LINE
  5
15E52
330
15CD3
100
AcDbEntity
  8
YODOROGO
100
AcDbLine
 10
14049.06776011545
 20
827.751818637328
 30
0.0
 11
14068.80217064596
 21
827.751818637328
 31
0.0
1001
AUTOCAD_POSTSCRIPT_FIGURE
1002
{
1000
PSFILL
1000
Grayscale
1000
Grayscale
1070
   100
1002
}
  0
LINE
  5
15E53
330
15CD3
100
AcDbEntity
  8
YODOROGO
100
AcDbLine
 10
14200.80217064594
 20
833.8747482146439
 30
0.0
 11
14172.80217064596
 21
833.8747482146439
 31
0.0
  0
LINE
  5
15E54
330
15CD3
100
AcDbEntity
  8
YODOROGO
100
AcDbLine
 10
14200.80217064594
 20
805.8747482146443
 30
0.0
 11
14200.80217064594
 21
833.8747482146439
 31
0.0
  0
LINE
  5
15E55
330
15CD3
100
AcDbEntity
  8
YODOROGO
100
AcDbLine
 10
14172.80217064596
 20
833.8747482146439
 30
0.0
 11
14172.80217064596
 21
805.8747482146443
 31
0.0
  0
ARC
  5
15E56
330
15CD3
100
AcDbEntity
  8
YODOROGO
100
AcDbCircle
 10
14256.80217064594
 20
753.8747482146439
 30
0.0
 40
40.0
100
AcDbArc
 50
180.0
 51
270.0
  0
ARC
  5
15E57
330
15CD3
100
AcDbEntity
  8
YODOROGO
100
AcDbCircle
 10
14268.80217064594
 20
781.8747482146434
 30
0.0
 40
20.0
100
AcDbArc
 50
180.0
 51
270.0
  0
LINE
  5
15E58
330
15CD3
100
AcDbEntity
  8
YODOROGO
100
AcDbLine
 10
14280.80217064596
 20
761.8747482146434
 30
0.0
 11
14268.80217064594
 21
761.8747482146434
 31
0.0
  0
ARC
  5
15E59
330
15CD3
100
AcDbEntity
  8
YODOROGO
100
AcDbCircle
 10
14280.80217064596
 20
773.8747482146427
 30
0.0
 40
11.99999999999818
100
AcDbArc
 50
270.0
 51
0.0000000000054281
  0
LINE
  5
15E5A
330
15CD3
100
AcDbEntity
  8
YODOROGO
100
AcDbLine
 10
13900.80217064596
 20
945.3932903968532
 30
0.0
 11
13888.80217064596
 21
921.8883739758362
 31
0.0
1001
AUTOCAD_POSTSCRIPT_FIGURE
1002
{
1000
PSFILL
1000
Grayscale
1000
Grayscale
1070
   100
1002
}
  0
LINE
  5
15E5B
330
15CD3
100
AcDbEntity
  8
YODOROGO
100
AcDbLine
 10
13900.80217064596
 20
873.8747482146434
 30
0.0
 11
13900.80217064596
 21
945.3932903968532
 31
0.0
1001
AUTOCAD_POSTSCRIPT_FIGURE
1002
{
1000
PSFILL
1000
Grayscale
1000
Grayscale
1070
   100
1002
}
  0
LINE
  5
15E5C
330
15CD3
100
AcDbEntity
  8
YODOROGO
100
AcDbLine
 10
13908.80217064596
 20
873.8747482146434
 30
0.0
 11
13900.80217064596
 21
873.8747482146434
 31
0.0
1001
AUTOCAD_POSTSCRIPT_FIGURE
1002
{
1000
PSFILL
1000
Grayscale
1000
Grayscale
1070
   100
1002
}
  0
LINE
  5
15E5D
330
15CD3
100
AcDbEntity
  8
YODOROGO
100
AcDbLine
 10
13908.80217064596
 20
946.8856660426332
 30
0.0
 11
13908.80217064596
 21
873.8747482146434
 31
0.0
1001
AUTOCAD_POSTSCRIPT_FIGURE
1002
{
1000
PSFILL
1000
Grayscale
1000
Grayscale
1070
   100
1002
}
  0
LINE
  5
15E5E
330
15CD3
100
AcDbEntity
  8
YODOROGO
100
AcDbLine
 10
13920.80217064596
 20
933.8273791420684
 30
0.0
 11
13908.80217064596
 21
946.8856660426332
 31
0.0
1001
AUTOCAD_POSTSCRIPT_FIGURE
1002
{
1000
PSFILL
1000
Grayscale
1000
Grayscale
1070
   100
1002
}
  0
LINE
  5
15E5F
330
15CD3
100
AcDbEntity
  8
YODOROGO
100
AcDbLine
 10
13920.80217064596
 20
941.8273791420681
 30
0.0
 11
13920.80217064596
 21
933.8273791420684
 31
0.0
1001
AUTOCAD_POSTSCRIPT_FIGURE
1002
{
1000
PSFILL
1000
Grayscale
1000
Grayscale
1070
   100
1002
}
  0
LINE
  5
15E60
330
15CD3
100
AcDbEntity
  8
YODOROGO
100
AcDbLine
 10
13908.80217064596
 20
958.8856660426325
 30
0.0
 11
13920.80217064596
 21
941.8273791420681
 31
0.0
1001
AUTOCAD_POSTSCRIPT_FIGURE
1002
{
1000
PSFILL
1000
Grayscale
1000
Grayscale
1070
   100
1002
}
  0
LINE
  5
15E61
330
15CD3
100
AcDbEntity
  8
YODOROGO
100
AcDbLine
 10
13908.80217064596
 20
969.8747482146441
 30
0.0
 11
13908.80217064596
 21
958.8856660426325
 31
0.0
1001
AUTOCAD_POSTSCRIPT_FIGURE
1002
{
1000
PSFILL
1000
Grayscale
1000
Grayscale
1070
   100
1002
}
  0
LINE
  5
15E62
330
15CD3
100
AcDbEntity
  8
YODOROGO
100
AcDbLine
 10
13944.80217064596
 20
969.8747482146441
 30
0.0
 11
13908.80217064596
 21
969.8747482146441
 31
0.0
1001
AUTOCAD_POSTSCRIPT_FIGURE
1002
{
1000
PSFILL
1000
Grayscale
1000
Grayscale
1070
   100
1002
}
  0
LINE
  5
15E63
330
15CD3
100
AcDbEntity
  8
YODOROGO
100
AcDbLine
 10
13944.80217064596
 20
950.2841744681497
 30
0.0
 11
13944.80217064596
 21
969.8747482146441
 31
0.0
1001
AUTOCAD_POSTSCRIPT_FIGURE
1002
{
1000
PSFILL
1000
Grayscale
1000
Grayscale
1070
   100
1002
}
  0
LINE
  5
15E64
330
15CD3
100
AcDbEntity
  8
YODOROGO
100
AcDbLine
 10
13928.80217064596
 20
950.2841744681497
 30
0.0
 11
13944.80217064596
 21
950.2841744681497
 31
0.0
1001
AUTOCAD_POSTSCRIPT_FIGURE
1002
{
1000
PSFILL
1000
Grayscale
1000
Grayscale
1070
   100
1002
}
  0
LINE
  5
15E65
330
15CD3
100
AcDbEntity
  8
YODOROGO
100
AcDbLine
 10
13928.80217064596
 20
942.2841744681491
 30
0.0
 11
13928.80217064596
 21
950.2841744681497
 31
0.0
1001
AUTOCAD_POSTSCRIPT_FIGURE
1002
{
1000
PSFILL
1000
Grayscale
1000
Grayscale
1070
   100
1002
}
  0
LINE
  5
15E66
330
15CD3
100
AcDbEntity
  8
YODOROGO
100
AcDbLine
 10
13944.80217064596
 20
942.2841744681491
 30
0.0
 11
13928.80217064596
 21
942.2841744681491
 31
0.0
1001
AUTOCAD_POSTSCRIPT_FIGURE
1002
{
1000
PSFILL
1000
Grayscale
1000
Grayscale
1070
   100
1002
}
  0
LINE
  5
15E67
330
15CD3
100
AcDbEntity
  8
YODOROGO
100
AcDbLine
 10
13944.80217064596
 20
939.8095889822196
 30
0.0
 11
13944.80217064596
 21
942.2841744681491
 31
0.0
1001
AUTOCAD_POSTSCRIPT_FIGURE
1002
{
1000
PSFILL
1000
Grayscale
1000
Grayscale
1070
   100
1002
}
  0
LINE
  5
15E68
330
15CD3
100
AcDbEntity
  8
YODOROGO
100
AcDbLine
 10
13924.80217064596
 20
906.4874905807087
 30
0.0
 11
13944.80217064596
 21
939.8095889822196
 31
0.0
1001
AUTOCAD_POSTSCRIPT_FIGURE
1002
{
1000
PSFILL
1000
Grayscale
1000
Grayscale
1070
   100
1002
}
  0
LINE
  5
15E69
330
15CD3
100
AcDbEntity
  8
YODOROGO
100
AcDbLine
 10
13924.80217064596
 20
898.487490580708
 30
0.0
 11
13924.80217064596
 21
906.4874905807087
 31
0.0
1001
AUTOCAD_POSTSCRIPT_FIGURE
1002
{
1000
PSFILL
1000
Grayscale
1000
Grayscale
1070
   100
1002
}
  0
LINE
  5
15E6A
330
15CD3
100
AcDbEntity
  8
YODOROGO
100
AcDbLine
 10
13944.80217064596
 20
923.8095889822183
 30
0.0
 11
13924.80217064596
 21
898.487490580708
 31
0.0
1001
AUTOCAD_POSTSCRIPT_FIGURE
1002
{
1000
PSFILL
1000
Grayscale
1000
Grayscale
1070
   100
1002
}
  0
LINE
  5
15E6B
330
15CD3
100
AcDbEntity
  8
YODOROGO
100
AcDbLine
 10
13944.80217064596
 20
873.8747482146434
 30
0.0
 11
13944.80217064596
 21
923.8095889822183
 31
0.0
1001
AUTOCAD_POSTSCRIPT_FIGURE
1002
{
1000
PSFILL
1000
Grayscale
1000
Grayscale
1070
   100
1002
}
  0
LINE
  5
15E6C
330
15CD3
100
AcDbEntity
  8
YODOROGO
100
AcDbLine
 10
13952.80217064596
 20
873.8747482146434
 30
0.0
 11
13944.80217064596
 21
873.8747482146434
 31
0.0
1001
AUTOCAD_POSTSCRIPT_FIGURE
1002
{
1000
PSFILL
1000
Grayscale
1000
Grayscale
1070
   100
1002
}
  0
LINE
  5
15E6D
330
15CD3
100
AcDbEntity
  8
YODOROGO
100
AcDbLine
 10
13952.80217064596
 20
924.7045060794032
 30
0.0
 11
13952.80217064596
 21
873.8747482146434
 31
0.0
1001
AUTOCAD_POSTSCRIPT_FIGURE
1002
{
1000
PSFILL
1000
Grayscale
1000
Grayscale
1070
   100
1002
}
  0
LINE
  5
15E6E
330
15CD3
100
AcDbEntity
  8
YODOROGO
100
AcDbLine
 10
13968.80217064596
 20
898.487490580708
 30
0.0
 11
13952.80217064596
 21
924.7045060794032
 31
0.0
1001
AUTOCAD_POSTSCRIPT_FIGURE
1002
{
1000
PSFILL
1000
Grayscale
1000
Grayscale
1070
   100
1002
}
  0
LINE
  5
15E6F
330
15CD3
100
AcDbEntity
  8
YODOROGO
100
AcDbLine
 10
13968.80217064596
 20
906.4874905807087
 30
0.0
 11
13968.80217064596
 21
898.487490580708
 31
0.0
1001
AUTOCAD_POSTSCRIPT_FIGURE
1002
{
1000
PSFILL
1000
Grayscale
1000
Grayscale
1070
   100
1002
}
  0
LINE
  5
15E70
330
15CD3
100
AcDbEntity
  8
YODOROGO
100
AcDbLine
 10
13952.80217064596
 20
940.7045060794041
 30
0.0
 11
13968.80217064596
 21
906.4874905807087
 31
0.0
1001
AUTOCAD_POSTSCRIPT_FIGURE
1002
{
1000
PSFILL
1000
Grayscale
1000
Grayscale
1070
   100
1002
}
  0
LINE
  5
15E71
330
15CD3
100
AcDbEntity
  8
YODOROGO
100
AcDbLine
 10
13952.80217064596
 20
942.2841744681502
 30
0.0
 11
13952.80217064596
 21
940.7045060794041
 31
0.0
1001
AUTOCAD_POSTSCRIPT_FIGURE
1002
{
1000
PSFILL
1000
Grayscale
1000
Grayscale
1070
   100
1002
}
  0
LINE
  5
15E72
330
15CD3
100
AcDbEntity
  8
YODOROGO
100
AcDbLine
 10
13968.80217064596
 20
942.2841744681491
 30
0.0
 11
13952.80217064596
 21
942.2841744681502
 31
0.0
1001
AUTOCAD_POSTSCRIPT_FIGURE
1002
{
1000
PSFILL
1000
Grayscale
1000
Grayscale
1070
   100
1002
}
  0
LINE
  5
15E73
330
15CD3
100
AcDbEntity
  8
YODOROGO
100
AcDbLine
 10
13968.80217064596
 20
950.2841744681497
 30
0.0
 11
13968.80217064596
 21
942.2841744681491
 31
0.0
1001
AUTOCAD_POSTSCRIPT_FIGURE
1002
{
1000
PSFILL
1000
Grayscale
1000
Grayscale
1070
   100
1002
}
  0
LINE
  5
15E74
330
15CD3
100
AcDbEntity
  8
YODOROGO
100
AcDbLine
 10
13952.80217064596
 20
950.2841744681497
 30
0.0
 11
13968.80217064596
 21
950.2841744681497
 31
0.0
1001
AUTOCAD_POSTSCRIPT_FIGURE
1002
{
1000
PSFILL
1000
Grayscale
1000
Grayscale
1070
   100
1002
}
  0
LINE
  5
15E75
330
15CD3
100
AcDbEntity
  8
YODOROGO
100
AcDbLine
 10
13952.80217064596
 20
969.8747482146441
 30
0.0
 11
13952.80217064596
 21
950.2841744681497
 31
0.0
1001
AUTOCAD_POSTSCRIPT_FIGURE
1002
{
1000
PSFILL
1000
Grayscale
1000
Grayscale
1070
   100
1002
}
  0
LINE
  5
15E76
330
15CD3
100
AcDbEntity
  8
YODOROGO
100
AcDbLine
 10
13968.80217064596
 20
969.8747482146441
 30
0.0
 11
13952.80217064596
 21
969.8747482146441
 31
0.0
1001
AUTOCAD_POSTSCRIPT_FIGURE
1002
{
1000
PSFILL
1000
Grayscale
1000
Grayscale
1070
   100
1002
}
  0
LINE
  5
15E77
330
15CD3
100
AcDbEntity
  8
YODOROGO
100
AcDbLine
 10
13968.80217064596
 20
977.8747482146435
 30
0.0
 11
13968.80217064596
 21
969.8747482146441
 31
0.0
1001
AUTOCAD_POSTSCRIPT_FIGURE
1002
{
1000
PSFILL
1000
Grayscale
1000
Grayscale
1070
   100
1002
}
  0
LINE
  5
15E78
330
15CD3
100
AcDbEntity
  8
YODOROGO
100
AcDbLine
 10
13952.80217064596
 20
977.8747482146435
 30
0.0
 11
13968.80217064596
 21
977.8747482146435
 31
0.0
1001
AUTOCAD_POSTSCRIPT_FIGURE
1002
{
1000
PSFILL
1000
Grayscale
1000
Grayscale
1070
   100
1002
}
  0
LINE
  5
15E79
330
15CD3
100
AcDbEntity
  8
YODOROGO
100
AcDbLine
 10
13952.80217064596
 20
989.8747482146442
 30
0.0
 11
13952.80217064596
 21
977.8747482146435
 31
0.0
1001
AUTOCAD_POSTSCRIPT_FIGURE
1002
{
1000
PSFILL
1000
Grayscale
1000
Grayscale
1070
   100
1002
}
  0
LINE
  5
15E7A
330
15CD3
100
AcDbEntity
  8
YODOROGO
100
AcDbLine
 10
13944.80217064596
 20
989.8747482146442
 30
0.0
 11
13952.80217064596
 21
989.8747482146442
 31
0.0
1001
AUTOCAD_POSTSCRIPT_FIGURE
1002
{
1000
PSFILL
1000
Grayscale
1000
Grayscale
1070
   100
1002
}
  0
LINE
  5
15E7B
330
15CD3
100
AcDbEntity
  8
YODOROGO
100
AcDbLine
 10
13944.80217064596
 20
977.8747482146435
 30
0.0
 11
13944.80217064596
 21
989.8747482146442
 31
0.0
1001
AUTOCAD_POSTSCRIPT_FIGURE
1002
{
1000
PSFILL
1000
Grayscale
1000
Grayscale
1070
   100
1002
}
  0
LINE
  5
15E7C
330
15CD3
100
AcDbEntity
  8
YODOROGO
100
AcDbLine
 10
13932.80217064596
 20
977.8747482146435
 30
0.0
 11
13944.80217064596
 21
977.8747482146435
 31
0.0
1001
AUTOCAD_POSTSCRIPT_FIGURE
1002
{
1000
PSFILL
1000
Grayscale
1000
Grayscale
1070
   100
1002
}
  0
LINE
  5
15E7D
330
15CD3
100
AcDbEntity
  8
YODOROGO
100
AcDbLine
 10
13932.80217064596
 20
989.8747482146442
 30
0.0
 11
13932.80217064596
 21
977.8747482146435
 31
0.0
1001
AUTOCAD_POSTSCRIPT_FIGURE
1002
{
1000
PSFILL
1000
Grayscale
1000
Grayscale
1070
   100
1002
}
  0
LINE
  5
15E7E
330
15CD3
100
AcDbEntity
  8
YODOROGO
100
AcDbLine
 10
13924.80217064596
 20
989.8747482146442
 30
0.0
 11
13932.80217064596
 21
989.8747482146442
 31
0.0
1001
AUTOCAD_POSTSCRIPT_FIGURE
1002
{
1000
PSFILL
1000
Grayscale
1000
Grayscale
1070
   100
1002
}
  0
LINE
  5
15E7F
330
15CD3
100
AcDbEntity
  8
YODOROGO
100
AcDbLine
 10
13924.80217064596
 20
977.8747482146435
 30
0.0
 11
13924.80217064596
 21
989.8747482146442
 31
0.0
1001
AUTOCAD_POSTSCRIPT_FIGURE
1002
{
1000
PSFILL
1000
Grayscale
1000
Grayscale
1070
   100
1002
}
  0
LINE
  5
15E80
330
15CD3
100
AcDbEntity
  8
YODOROGO
100
AcDbLine
 10
13908.80217064596
 20
977.8747482146435
 30
0.0
 11
13924.80217064596
 21
977.8747482146435
 31
0.0
1001
AUTOCAD_POSTSCRIPT_FIGURE
1002
{
1000
PSFILL
1000
Grayscale
1000
Grayscale
1070
   100
1002
}
  0
LINE
  5
15E81
330
15CD3
100
AcDbEntity
  8
YODOROGO
100
AcDbLine
 10
13908.80217064596
 20
989.8747482146442
 30
0.0
 11
13908.80217064596
 21
977.8747482146435
 31
0.0
1001
AUTOCAD_POSTSCRIPT_FIGURE
1002
{
1000
PSFILL
1000
Grayscale
1000
Grayscale
1070
   100
1002
}
  0
LINE
  5
15E82
330
15CD3
100
AcDbEntity
  8
YODOROGO
100
AcDbLine
 10
13900.80217064596
 20
989.8747482146442
 30
0.0
 11
13908.80217064596
 21
989.8747482146442
 31
0.0
1001
AUTOCAD_POSTSCRIPT_FIGURE
1002
{
1000
PSFILL
1000
Grayscale
1000
Grayscale
1070
   100
1002
}
  0
LINE
  5
15E83
330
15CD3
100
AcDbEntity
  8
YODOROGO
100
AcDbLine
 10
13900.80217064596
 20
977.8747482146435
 30
0.0
 11
13900.80217064596
 21
989.8747482146442
 31
0.0
1001
AUTOCAD_POSTSCRIPT_FIGURE
1002
{
1000
PSFILL
1000
Grayscale
1000
Grayscale
1070
   100
1002
}
  0
LINE
  5
15E84
330
15CD3
100
AcDbEntity
  8
YODOROGO
100
AcDbLine
 10
13888.80217064596
 20
977.8747482146435
 30
0.0
 11
13900.80217064596
 21
977.8747482146435
 31
0.0
1001
AUTOCAD_POSTSCRIPT_FIGURE
1002
{
1000
PSFILL
1000
Grayscale
1000
Grayscale
1070
   100
1002
}
  0
LINE
  5
15E85
330
15CD3
100
AcDbEntity
  8
YODOROGO
100
AcDbLine
 10
13888.80217064596
 20
969.8747482146441
 30
0.0
 11
13888.80217064596
 21
977.8747482146435
 31
0.0
1001
AUTOCAD_POSTSCRIPT_FIGURE
1002
{
1000
PSFILL
1000
Grayscale
1000
Grayscale
1070
   100
1002
}
  0
LINE
  5
15E86
330
15CD3
100
AcDbEntity
  8
YODOROGO
100
AcDbLine
 10
13900.80217064596
 20
969.8747482146441
 30
0.0
 11
13888.80217064596
 21
969.8747482146441
 31
0.0
1001
AUTOCAD_POSTSCRIPT_FIGURE
1002
{
1000
PSFILL
1000
Grayscale
1000
Grayscale
1070
   100
1002
}
  0
LINE
  5
15E87
330
15CD3
100
AcDbEntity
  8
YODOROGO
100
AcDbLine
 10
13900.80217064596
 20
957.3932903968525
 30
0.0
 11
13900.80217064596
 21
969.8747482146441
 31
0.0
1001
AUTOCAD_POSTSCRIPT_FIGURE
1002
{
1000
PSFILL
1000
Grayscale
1000
Grayscale
1070
   100
1002
}
  0
LINE
  5
15E88
330
15CD3
100
AcDbEntity
  8
YODOROGO
100
AcDbLine
 10
13888.80217064596
 20
929.8883739758355
 30
0.0
 11
13900.80217064596
 21
957.3932903968525
 31
0.0
1001
AUTOCAD_POSTSCRIPT_FIGURE
1002
{
1000
PSFILL
1000
Grayscale
1000
Grayscale
1070
   100
1002
}
  0
LINE
  5
15E89
330
15CD3
100
AcDbEntity
  8
YODOROGO
100
AcDbLine
 10
13888.80217064596
 20
921.8883739758362
 30
0.0
 11
13888.80217064596
 21
929.8883739758355
 31
0.0
1001
AUTOCAD_POSTSCRIPT_FIGURE
1002
{
1000
PSFILL
1000
Grayscale
1000
Grayscale
1070
   100
1002
}
  0
LINE
  5
15E8A
330
15CD3
100
AcDbEntity
  8
YODOROGO
100
AcDbLine
 10
14128.80217064596
 20
933.8747482146439
 30
0.0
 11
14200.80217064594
 21
912.4388128201532
 31
0.0
1001
AUTOCAD_POSTSCRIPT_FIGURE
1002
{
1000
PSFILL
1000
Grayscale
1000
Grayscale
1070
   100
1002
}
  0
LINE
  5
15E8B
330
15CD3
100
AcDbEntity
  8
YODOROGO
100
AcDbLine
 10
14200.80217064594
 20
876.4388128201531
 30
0.0
 11
14128.80217064596
 21
897.8747482146435
 31
0.0
1001
AUTOCAD_POSTSCRIPT_FIGURE
1002
{
1000
PSFILL
1000
Grayscale
1000
Grayscale
1070
   100
1002
}
  0
LINE
  5
15E8C
330
15CD3
100
AcDbEntity
  8
YODOROGO
100
AcDbLine
 10
14200.80217064594
 20
992.4388128201531
 30
0.0
 11
14128.80217064596
 21
1013.874748214644
 31
0.0
1001
AUTOCAD_POSTSCRIPT_FIGURE
1002
{
1000
PSFILL
1000
Grayscale
1000
Grayscale
1070
   100
1002
}
  0
LINE
  5
15E8D
330
15CD3
100
AcDbEntity
  8
YODOROGO
100
AcDbLine
 10
14128.80217064596
 20
979.874748214644
 30
0.0
 11
14200.80217064594
 21
958.4388128201537
 31
0.0
1001
AUTOCAD_POSTSCRIPT_FIGURE
1002
{
1000
PSFILL
1000
Grayscale
1000
Grayscale
1070
   100
1002
}
  0
LINE
  5
15E8E
330
15CD3
100
AcDbEntity
  8
YODOROGO
100
AcDbLine
 10
14128.80217064596
 20
897.8747482146435
 30
0.0
 11
14128.80217064596
 21
933.8747482146439
 31
0.0
1001
AUTOCAD_POSTSCRIPT_FIGURE
1002
{
1000
PSFILL
1000
Grayscale
1000
Grayscale
1070
   100
1002
}
  0
LINE
  5
15E8F
330
15CD3
100
AcDbEntity
  8
YODOROGO
100
AcDbLine
 10
14128.80217064596
 20
1013.874748214644
 30
0.0
 11
14128.80217064596
 21
979.874748214644
 31
0.0
1001
AUTOCAD_POSTSCRIPT_FIGURE
1002
{
1000
PSFILL
1000
Grayscale
1000
Grayscale
1070
   100
1002
}
  0
LINE
  5
15E90
330
15CD3
100
AcDbEntity
  8
YODOROGO
100
AcDbLine
 10
14040.11816010337
 20
969.8747482146441
 30
0.0
 11
14064.80217064595
 21
873.8747482146434
 31
0.0
1001
AUTOCAD_POSTSCRIPT_FIGURE
1002
{
1000
PSFILL
1000
Grayscale
1000
Grayscale
1070
   100
1002
}
  0
LINE
  5
15E91
330
15CD3
100
AcDbEntity
  8
YODOROGO
100
AcDbLine
 10
13988.80217064596
 20
969.8747482146441
 30
0.0
 11
14040.11816010337
 21
969.8747482146441
 31
0.0
1001
AUTOCAD_POSTSCRIPT_FIGURE
1002
{
1000
PSFILL
1000
Grayscale
1000
Grayscale
1070
   100
1002
}
  0
LINE
  5
15E92
330
15CD3
100
AcDbEntity
  8
YODOROGO
100
AcDbLine
 10
13988.80217064596
 20
977.8747482146435
 30
0.0
 11
13988.80217064596
 21
969.8747482146441
 31
0.0
1001
AUTOCAD_POSTSCRIPT_FIGURE
1002
{
1000
PSFILL
1000
Grayscale
1000
Grayscale
1070
   100
1002
}
  0
LINE
  5
15E93
330
15CD3
100
AcDbEntity
  8
YODOROGO
100
AcDbLine
 10
14038.30343925995
 20
977.8747482146435
 30
0.0
 11
13988.80217064596
 21
977.8747482146435
 31
0.0
1001
AUTOCAD_POSTSCRIPT_FIGURE
1002
{
1000
PSFILL
1000
Grayscale
1000
Grayscale
1070
   100
1002
}
  0
LINE
  5
15E94
330
15CD3
100
AcDbEntity
  8
YODOROGO
100
AcDbLine
 10
14035.58135799485
 20
989.8747482146442
 30
0.0
 11
14038.30343925995
 21
977.8747482146435
 31
0.0
1001
AUTOCAD_POSTSCRIPT_FIGURE
1002
{
1000
PSFILL
1000
Grayscale
1000
Grayscale
1070
   100
1002
}
  0
LINE
  5
15E95
330
15CD3
100
AcDbEntity
  8
YODOROGO
100
AcDbLine
 10
14045.58135799485
 20
989.8747482146442
 30
0.0
 11
14035.58135799485
 21
989.8747482146442
 31
0.0
1001
AUTOCAD_POSTSCRIPT_FIGURE
1002
{
1000
PSFILL
1000
Grayscale
1000
Grayscale
1070
   100
1002
}
  0
LINE
  5
15E96
330
15CD3
100
AcDbEntity
  8
YODOROGO
100
AcDbLine
 10
14047.90343925997
 20
977.8747482146435
 30
0.0
 11
14045.58135799485
 21
989.8747482146442
 31
0.0
1001
AUTOCAD_POSTSCRIPT_FIGURE
1002
{
1000
PSFILL
1000
Grayscale
1000
Grayscale
1070
   100
1002
}
  0
LINE
  5
15E97
330
15CD3
100
AcDbEntity
  8
YODOROGO
100
AcDbLine
 10
14060.80217064596
 20
977.8747482146435
 30
0.0
 11
14047.90343925997
 21
977.8747482146435
 31
0.0
1001
AUTOCAD_POSTSCRIPT_FIGURE
1002
{
1000
PSFILL
1000
Grayscale
1000
Grayscale
1070
   100
1002
}
  0
LINE
  5
15E98
330
15CD3
100
AcDbEntity
  8
YODOROGO
100
AcDbLine
 10
14060.80217064596
 20
989.8747482146442
 30
0.0
 11
14060.80217064596
 21
977.8747482146435
 31
0.0
1001
AUTOCAD_POSTSCRIPT_FIGURE
1002
{
1000
PSFILL
1000
Grayscale
1000
Grayscale
1070
   100
1002
}
  0
LINE
  5
15E99
330
15CD3
100
AcDbEntity
  8
YODOROGO
100
AcDbLine
 10
14068.80217064596
 20
989.8747482146442
 30
0.0
 11
14060.80217064596
 21
989.8747482146442
 31
0.0
1001
AUTOCAD_POSTSCRIPT_FIGURE
1002
{
1000
PSFILL
1000
Grayscale
1000
Grayscale
1070
   100
1002
}
  0
LINE
  5
15E9A
330
15CD3
100
AcDbEntity
  8
YODOROGO
100
AcDbLine
 10
14068.80217064596
 20
977.8747482146435
 30
0.0
 11
14068.80217064596
 21
989.8747482146442
 31
0.0
1001
AUTOCAD_POSTSCRIPT_FIGURE
1002
{
1000
PSFILL
1000
Grayscale
1000
Grayscale
1070
   100
1002
}
  0
LINE
  5
15E9B
330
15CD3
100
AcDbEntity
  8
YODOROGO
100
AcDbLine
 10
14068.80217064596
 20
969.8747482146441
 30
0.0
 11
14068.80217064596
 21
977.8747482146435
 31
0.0
1001
AUTOCAD_POSTSCRIPT_FIGURE
1002
{
1000
PSFILL
1000
Grayscale
1000
Grayscale
1070
   100
1002
}
  0
LINE
  5
15E9C
330
15CD3
100
AcDbEntity
  8
YODOROGO
100
AcDbLine
 10
14049.45149343671
 20
969.8747482146441
 30
0.0
 11
14068.80217064596
 21
969.8747482146441
 31
0.0
1001
AUTOCAD_POSTSCRIPT_FIGURE
1002
{
1000
PSFILL
1000
Grayscale
1000
Grayscale
1070
   100
1002
}
  0
LINE
  5
15E9D
330
15CD3
100
AcDbEntity
  8
YODOROGO
100
AcDbLine
 10
14068.80217064596
 20
873.8747482146434
 30
0.0
 11
14049.45149343671
 21
969.8747482146441
 31
0.0
1001
AUTOCAD_POSTSCRIPT_FIGURE
1002
{
1000
PSFILL
1000
Grayscale
1000
Grayscale
1070
   100
1002
}
  0
LINE
  5
15E9E
330
15CD3
100
AcDbEntity
  8
YODOROGO
100
AcDbLine
 10
14064.80217064595
 20
873.8747482146434
 30
0.0
 11
14068.80217064596
 21
873.8747482146434
 31
0.0
1001
AUTOCAD_POSTSCRIPT_FIGURE
1002
{
1000
PSFILL
1000
Grayscale
1000
Grayscale
1070
   100
1002
}
  0
LINE
  5
15E9F
330
15CD3
100
AcDbEntity
  8
YODOROGO
100
AcDbLine
 10
14039.03460996689
 20
887.8703881493972
 30
0.0
 11
13988.80217064596
 21
873.8747482146434
 31
0.0
  0
LINE
  5
15EA0
330
15CD3
100
AcDbEntity
  8
YODOROGO
100
AcDbLine
 10
14039.03460996689
 20
899.3344897645364
 30
0.0
 11
14039.03460996689
 21
887.8703881493972
 31
0.0
  0
LINE
  5
15EA1
330
15CD3
100
AcDbEntity
  8
YODOROGO
100
AcDbLine
 10
14016.91839030643
 20
893.4084665668834
 30
0.0
 11
14039.03460996689
 21
899.3344897645364
 31
0.0
  0
LINE
  5
15EA2
330
15CD3
100
AcDbEntity
  8
YODOROGO
100
AcDbLine
 10
14016.91839030643
 20
936.2841744681499
 30
0.0
 11
14016.91839030643
 21
893.4084665668834
 31
0.0
  0
LINE
  5
15EA3
330
15CD3
100
AcDbEntity
  8
YODOROGO
100
AcDbLine
 10
14039.03460996689
 20
936.2841744681499
 30
0.0
 11
14016.91839030643
 21
936.2841744681499
 31
0.0
  0
LINE
  5
15EA4
330
15CD3
100
AcDbEntity
  8
YODOROGO
100
AcDbLine
 10
14039.03460996689
 20
946.2841744681487
 30
0.0
 11
14039.03460996689
 21
936.2841744681499
 31
0.0
  0
LINE
  5
15EA5
330
15CD3
100
AcDbEntity
  8
YODOROGO
100
AcDbLine
 10
13988.80217064596
 20
946.2841744681487
 30
0.0
 11
14039.03460996689
 21
946.2841744681487
 31
0.0
  0
LINE
  5
15EA6
330
15CD3
100
AcDbEntity
  8
YODOROGO
100
AcDbLine
 10
13988.80217064596
 20
936.2841744681499
 30
0.0
 11
13988.80217064596
 21
946.2841744681487
 31
0.0
  0
LINE
  5
15EA7
330
15CD3
100
AcDbEntity
  8
YODOROGO
100
AcDbLine
 10
14010.91839030643
 20
936.2841744681499
 30
0.0
 11
13988.80217064596
 21
936.2841744681499
 31
0.0
  0
LINE
  5
15EA8
330
15CD3
100
AcDbEntity
  8
YODOROGO
100
AcDbLine
 10
14010.91839030643
 20
892.3366697971587
 30
0.0
 11
14010.91839030643
 21
936.2841744681499
 31
0.0
  0
LINE
  5
15EA9
330
15CD3
100
AcDbEntity
  8
YODOROGO
100
AcDbLine
 10
13988.80217064596
 20
885.8747482146432
 30
0.0
 11
14010.91839030643
 21
892.3366697971587
 31
0.0
  0
LINE
  5
15EAA
330
15CD3
100
AcDbEntity
  8
YODOROGO
100
AcDbLine
 10
13988.80217064596
 20
873.8747482146434
 30
0.0
 11
13988.80217064596
 21
885.8747482146432
 31
0.0
  0
LINE
  5
15EAB
330
15CD3
100
AcDbEntity
  8
YODOROGO
100
AcDbLine
 10
14000.80217064596
 20
853.874748214644
 30
0.0
 11
14000.80217064596
 21
841.8747482146434
 31
0.0
  0
LINE
  5
15EAC
330
15CD3
100
AcDbEntity
  8
YODOROGO
100
AcDbLine
 10
14008.80217064596
 20
853.874748214644
 30
0.0
 11
14000.80217064596
 21
853.874748214644
 31
0.0
  0
LINE
  5
15EAD
330
15CD3
100
AcDbEntity
  8
YODOROGO
100
AcDbLine
 10
14008.80217064596
 20
841.8747482146434
 30
0.0
 11
14008.80217064596
 21
853.874748214644
 31
0.0
  0
LINE
  5
15EAE
330
15CD3
100
AcDbEntity
  8
YODOROGO
100
AcDbLine
 10
14020.45660200844
 20
841.8747482146434
 30
0.0
 11
14008.80217064596
 21
841.8747482146434
 31
0.0
  0
LINE
  5
15EAF
330
15CD3
100
AcDbEntity
  8
YODOROGO
100
AcDbLine
 10
14000.80217064596
 20
841.8747482146434
 30
0.0
 11
13988.80217064596
 21
841.8747482146434
 31
0.0
  0
LINE
  5
15EB0
330
15CD3
100
AcDbEntity
  8
YODOROGO
100
AcDbLine
 10
14041.06776011546
 20
853.874748214644
 30
0.0
 11
14049.06776011545
 21
853.874748214644
 31
0.0
1001
AUTOCAD_POSTSCRIPT_FIGURE
1002
{
1000
PSFILL
1000
Grayscale
1000
Grayscale
1070
   100
1002
}
  0
LINE
  5
15EB1
330
15CD3
100
AcDbEntity
  8
YODOROGO
100
AcDbLine
 10
14200.80217064594
 20
912.4388128201532
 30
0.0
 11
14200.80217064594
 21
876.4388128201531
 31
0.0
1001
AUTOCAD_POSTSCRIPT_FIGURE
1002
{
1000
PSFILL
1000
Grayscale
1000
Grayscale
1070
   100
1002
}
  0
LINE
  5
15EB2
330
15CD3
100
AcDbEntity
  8
YODOROGO
100
AcDbLine
 10
14200.80217064594
 20
958.4388128201537
 30
0.0
 11
14200.80217064594
 21
992.4388128201531
 31
0.0
1001
AUTOCAD_POSTSCRIPT_FIGURE
1002
{
1000
PSFILL
1000
Grayscale
1000
Grayscale
1070
   100
1002
}
  0
LINE
  5
15EB3
330
15CD3
100
AcDbEntity
  8
YODOROGO
100
AcDbLine
 10
14216.80217064594
 20
909.8747482146439
 30
0.0
 11
14216.80217064594
 21
873.8747482146449
 31
0.0
  0
LINE
  5
15EB4
330
15CD3
100
AcDbEntity
  8
YODOROGO
100
AcDbLine
 10
14248.80217064594
 20
853.874748214644
 30
0.0
 11
14216.80217064594
 21
853.874748214644
 31
0.0
  0
LINE
  5
15EB5
330
15CD3
100
AcDbEntity
  8
YODOROGO
100
AcDbLine
 10
14216.80217064594
 20
873.8747482146449
 30
0.0
 11
14292.80217064596
 21
873.8747482146449
 31
0.0
  0
LINE
  5
15EB6
330
15CD3
100
AcDbEntity
  8
YODOROGO
100
AcDbLine
 10
14248.80217064594
 20
933.8747482146439
 30
0.0
 11
14216.80217064594
 21
933.8747482146439
 31
0.0
  0
LINE
  5
15EB7
330
15CD3
100
AcDbEntity
  8
YODOROGO
100
AcDbLine
 10
14248.80217064594
 20
961.8747482146432
 30
0.0
 11
14248.80217064594
 21
933.8747482146439
 31
0.0
  0
LINE
  5
15EB8
330
15CD3
100
AcDbEntity
  8
YODOROGO
100
AcDbLine
 10
14292.80217064596
 20
993.8747482146439
 30
0.0
 11
14292.80217064596
 21
1013.874748214644
 31
0.0
  0
LINE
  5
15EB9
330
15CD3
100
AcDbEntity
  8
YODOROGO
100
AcDbLine
 10
14216.80217064594
 20
993.8747482146439
 30
0.0
 11
14292.80217064596
 21
993.8747482146439
 31
0.0
  0
LINE
  5
15EBA
330
15CD3
100
AcDbEntity
  8
YODOROGO
100
AcDbLine
 10
14216.80217064594
 20
933.8747482146439
 30
0.0
 11
14216.80217064594
 21
993.8747482146439
 31
0.0
  0
LINE
  5
15EBB
330
15CD3
100
AcDbEntity
  8
YODOROGO
100
AcDbLine
 10
14500.80217064594
 20
1013.874748214644
 30
0.0
 11
14500.80217064594
 21
809.8747482146441
 31
0.0
  0
LINE
  5
15EBC
330
15CD3
100
AcDbEntity
  8
YODOROGO
100
AcDbLine
 10
14536.80217064596
 20
789.8747482146441
 30
0.0
 11
14536.80217064596
 21
1013.874748214644
 31
0.0
  0
LINE
  5
15EBD
330
15CD3
100
AcDbEntity
  8
YODOROGO
100
AcDbLine
 10
14630.80217064596
 20
745.8747482146431
 30
0.0
 11
14630.80217064596
 21
1003.874748214644
 31
0.0
  0
LINE
  5
15EBE
330
15CD3
100
AcDbEntity
  8
YODOROGO
100
AcDbLine
 10
14598.80217064596
 20
1003.874748214644
 30
0.0
 11
14598.80217064596
 21
745.8747482146431
 31
0.0
  0
LINE
  5
15EBF
330
15CD3
100
AcDbEntity
  8
YODOROGO
100
AcDbLine
 10
14692.80217064596
 20
1013.874748214644
 30
0.0
 11
14692.80217064596
 21
713.8747482146436
 31
0.0
  0
LINE
  5
15EC0
330
15CD3
100
AcDbEntity
  8
YODOROGO
100
AcDbLine
 10
14728.80217064596
 20
713.8747482146436
 30
0.0
 11
14728.80217064596
 21
1013.874748214644
 31
0.0
  0
LINE
  5
15EC1
330
15CD3
100
AcDbEntity
  8
YODOROGO
100
AcDbLine
 10
14328.80217064594
 20
833.8747482146439
 30
0.0
 11
14328.80217064594
 21
873.8747482146449
 31
0.0
  0
LINE
  5
15EC2
330
15CD3
100
AcDbEntity
  8
YODOROGO
100
AcDbLine
 10
14942.80217064596
 20
853.874748214644
 30
0.0
 11
14942.80217064596
 21
833.8747482146439
 31
0.0
  0
LINE
  5
15EC3
330
15CD3
100
AcDbEntity
  8
YODOROGO
100
AcDbLine
 10
14942.80217064596
 20
853.874748214644
 30
0.0
 11
14942.80217064596
 21
833.8747482146439
 31
0.0
  0
ARC
  5
15EC4
330
15CD3
100
AcDbEntity
  8
YODOROGO
100
AcDbCircle
 10
14453.45578809342
 20
809.1089322211363
 30
0.0
 40
47.35257558937082
100
AcDbArc
 50
274.052441629071
 51
0.9266642149310712
  0
ARC
  5
15EC5
330
15CD3
100
AcDbEntity
  8
YODOROGO
100
AcDbCircle
 10
14454.5930853599
 20
796.30536430522
 30
0.0
 40
82.46021178042756
100
AcDbArc
 50
271.5351210653777
 51
355.5272775058505
  0
LINE
  5
15EC6
330
15CD3
100
AcDbEntity
  8
YODOROGO
100
AcDbLine
 10
14456.80217064596
 20
761.8747482146434
 30
0.0
 11
14456.80217064596
 21
713.8747482146436
 31
0.0
  0
LINE
  5
15EC7
330
15CD3
100
AcDbEntity
  8
YODOROGO
100
AcDbLine
 10
14396.80217064594
 20
833.8747482146439
 30
0.0
 11
14328.80217064594
 21
833.8747482146439
 31
0.0
  0
LINE
  5
15EC8
330
15CD3
100
AcDbEntity
  8
YODOROGO
100
AcDbLine
 10
14396.80217064594
 20
801.8747482146444
 30
0.0
 11
14396.80217064594
 21
833.8747482146439
 31
0.0
  0
LINE
  5
15EC9
330
15CD3
100
AcDbEntity
  8
YODOROGO
100
AcDbLine
 10
14328.80217064594
 20
801.8747482146444
 30
0.0
 11
14396.80217064594
 21
801.8747482146444
 31
0.0
  0
LINE
  5
15ECA
330
15CD3
100
AcDbEntity
  8
YODOROGO
100
AcDbLine
 10
14328.80217064594
 20
761.8747482146434
 30
0.0
 11
14328.80217064594
 21
801.8747482146444
 31
0.0
  0
LINE
  5
15ECB
330
15CD3
100
AcDbEntity
  8
YODOROGO
100
AcDbLine
 10
14396.80217064594
 20
761.8747482146434
 30
0.0
 11
14328.80217064594
 21
761.8747482146434
 31
0.0
  0
LINE
  5
15ECC
330
15CD3
100
AcDbEntity
  8
YODOROGO
100
AcDbLine
 10
14396.80217064594
 20
713.8747482146436
 30
0.0
 11
14396.80217064594
 21
761.8747482146434
 31
0.0
  0
LINE
  5
15ECD
330
15CD3
100
AcDbEntity
  8
YODOROGO
100
AcDbLine
 10
14598.80217064596
 20
745.8747482146431
 30
0.0
 11
14630.80217064596
 21
745.8747482146431
 31
0.0
  0
LINE
  5
15ECE
330
15CD3
100
AcDbEntity
  8
YODOROGO
100
AcDbLine
 10
14692.80217064596
 20
713.8747482146436
 30
0.0
 11
14728.80217064596
 21
713.8747482146436
 31
0.0
  0
LINE
  5
15ECF
330
15CD3
100
AcDbEntity
  8
YODOROGO
100
AcDbLine
 10
14868.80217064596
 20
764.2207260852818
 30
0.0
 11
14868.80217064596
 21
713.8747482146436
 31
0.0
  0
LINE
  5
15ED0
330
15CD3
100
AcDbEntity
  8
YODOROGO
100
AcDbLine
 10
14808.80217064596
 20
713.8747482146436
 30
0.0
 11
14868.80217064596
 21
764.2207260852818
 31
0.0
  0
LINE
  5
15ED1
330
15CD3
100
AcDbEntity
  8
YODOROGO
100
AcDbLine
 10
14808.80217064596
 20
773.874748214644
 30
0.0
 11
14808.80217064596
 21
713.8747482146436
 31
0.0
  0
LINE
  5
15ED2
330
15CD3
100
AcDbEntity
  8
YODOROGO
100
AcDbLine
 10
14856.47231434973
 20
813.8747482146435
 30
0.0
 11
14808.80217064596
 21
773.874748214644
 31
0.0
  0
LINE
  5
15ED3
330
15CD3
100
AcDbEntity
  8
YODOROGO
100
AcDbLine
 10
14808.80217064596
 20
813.8747482146435
 30
0.0
 11
14856.47231434973
 21
813.8747482146435
 31
0.0
  0
LINE
  5
15ED4
330
15CD3
100
AcDbEntity
  8
YODOROGO
100
AcDbLine
 10
14808.80217064596
 20
833.8747482146439
 30
0.0
 11
14808.80217064596
 21
813.8747482146435
 31
0.0
  0
LINE
  5
15ED5
330
15CD3
100
AcDbEntity
  8
YODOROGO
100
AcDbLine
 10
14942.80217064596
 20
833.8747482146439
 30
0.0
 11
14808.80217064596
 21
833.8747482146439
 31
0.0
  0
LINE
  5
15ED6
330
15CD3
100
AcDbEntity
  8
YODOROGO
100
AcDbLine
 10
14958.80217064596
 20
813.8747482146435
 30
0.0
 11
14888.80217064596
 21
813.8747482146435
 31
0.0
  0
LINE
  5
15ED7
330
15CD3
100
AcDbEntity
  8
YODOROGO
100
AcDbLine
 10
14888.80217064596
 20
781.0027187088283
 30
0.0
 11
14885.70493649264
 21
778.403830673117
 31
0.0
  0
LINE
  5
15ED8
330
15CD3
100
AcDbEntity
  8
YODOROGO
100
AcDbLine
 10
14888.80217064596
 20
813.8747482146435
 30
0.0
 11
14888.80217064596
 21
781.0027187088283
 31
0.0
  0
LINE
  5
15ED9
330
15CD3
100
AcDbEntity
  8
YODOROGO
100
AcDbLine
 10
14868.80217064596
 20
764.2207260852818
 30
0.0
 11
14868.80217064596
 21
713.8747482146436
 31
0.0
  0
LINE
  5
15EDA
330
15CD3
100
AcDbEntity
  8
YODOROGO
100
AcDbLine
 10
14808.80217064596
 20
713.8747482146436
 30
0.0
 11
14868.80217064596
 21
764.2207260852818
 31
0.0
  0
LINE
  5
15EDB
330
15CD3
100
AcDbEntity
  8
YODOROGO
100
AcDbLine
 10
14808.80217064596
 20
773.874748214644
 30
0.0
 11
14808.80217064596
 21
713.8747482146436
 31
0.0
  0
LINE
  5
15EDC
330
15CD3
100
AcDbEntity
  8
YODOROGO
100
AcDbLine
 10
14856.47231434973
 20
813.8747482146435
 30
0.0
 11
14808.80217064596
 21
773.874748214644
 31
0.0
  0
LINE
  5
15EDD
330
15CD3
100
AcDbEntity
  8
YODOROGO
100
AcDbLine
 10
14808.80217064596
 20
813.8747482146435
 30
0.0
 11
14856.47231434973
 21
813.8747482146435
 31
0.0
  0
LINE
  5
15EDE
330
15CD3
100
AcDbEntity
  8
YODOROGO
100
AcDbLine
 10
14808.80217064596
 20
833.8747482146439
 30
0.0
 11
14808.80217064596
 21
813.8747482146435
 31
0.0
  0
LINE
  5
15EDF
330
15CD3
100
AcDbEntity
  8
YODOROGO
100
AcDbLine
 10
14942.80217064596
 20
833.8747482146439
 30
0.0
 11
14808.80217064596
 21
833.8747482146439
 31
0.0
  0
LINE
  5
15EE0
330
15CD3
100
AcDbEntity
  8
YODOROGO
100
AcDbLine
 10
14396.80217064594
 20
873.8747482146449
 30
0.0
 11
14396.80217064594
 21
909.8747482146439
 31
0.0
  0
LINE
  5
15EE1
330
15CD3
100
AcDbEntity
  8
YODOROGO
100
AcDbLine
 10
14328.80217064594
 20
873.8747482146449
 30
0.0
 11
14396.80217064594
 21
873.8747482146449
 31
0.0
  0
LINE
  5
15EE2
330
15CD3
100
AcDbEntity
  8
YODOROGO
100
AcDbLine
 10
14364.80217064596
 20
933.8747482146439
 30
0.0
 11
14364.80217064596
 21
961.8747482146432
 31
0.0
  0
LINE
  5
15EE3
330
15CD3
100
AcDbEntity
  8
YODOROGO
100
AcDbLine
 10
14396.80217064594
 20
933.8747482146439
 30
0.0
 11
14364.80217064596
 21
933.8747482146439
 31
0.0
  0
LINE
  5
15EE4
330
15CD3
100
AcDbEntity
  8
YODOROGO
100
AcDbLine
 10
14396.80217064594
 20
973.8747482146434
 30
0.0
 11
14396.80217064594
 21
933.8747482146439
 31
0.0
  0
ARC
  5
15EE5
330
15CD3
100
AcDbEntity
  8
YODOROGO
100
AcDbCircle
 10
14376.80217064594
 20
973.8747482146434
 30
0.0
 40
20.0
100
AcDbArc
 50
0.0
 51
90.0
  0
LINE
  5
15EE6
330
15CD3
100
AcDbEntity
  8
YODOROGO
100
AcDbLine
 10
14328.80217064596
 20
993.8747482146439
 30
0.0
 11
14376.80217064594
 21
993.8747482146439
 31
0.0
  0
LINE
  5
15EE7
330
15CD3
100
AcDbEntity
  8
YODOROGO
100
AcDbLine
 10
14328.80217064596
 20
1013.874748214644
 30
0.0
 11
14328.80217064596
 21
993.8747482146439
 31
0.0
  0
LINE
  5
15EE8
330
15CD3
100
AcDbEntity
  8
YODOROGO
100
AcDbLine
 10
14536.80217064596
 20
1013.874748214644
 30
0.0
 11
14500.80217064594
 21
1013.874748214644
 31
0.0
  0
LINE
  5
15EE9
330
15CD3
100
AcDbEntity
  8
YODOROGO
100
AcDbLine
 10
14630.80217064596
 20
1003.874748214644
 30
0.0
 11
14598.80217064596
 21
1003.874748214644
 31
0.0
  0
LINE
  5
15EEA
330
15CD3
100
AcDbEntity
  8
YODOROGO
100
AcDbLine
 10
14728.80217064596
 20
1013.874748214644
 30
0.0
 11
14692.80217064596
 21
1013.874748214644
 31
0.0
  0
LINE
  5
15EEB
330
15CD3
100
AcDbEntity
  8
YODOROGO
100
AcDbLine
 10
14836.80217064596
 20
853.874748214644
 30
0.0
 11
14836.80217064596
 21
885.8747482146441
 31
0.0
1001
AUTOCAD_POSTSCRIPT_FIGURE
1002
{
1000
PSFILL
1000
Grayscale
1000
Grayscale
1070
    25
1002
}
  0
LINE
  5
15EEC
330
15CD3
100
AcDbEntity
  8
YODOROGO
100
AcDbLine
 10
14808.80217064596
 20
853.874748214644
 30
0.0
 11
14836.80217064596
 21
853.874748214644
 31
0.0
1001
AUTOCAD_POSTSCRIPT_FIGURE
1002
{
1000
PSFILL
1000
Grayscale
1000
Grayscale
1070
    25
1002
}
  0
LINE
  5
15EED
330
15CD3
100
AcDbEntity
  8
YODOROGO
100
AcDbLine
 10
14808.80217064596
 20
909.8747482146439
 30
0.0
 11
14808.80217064596
 21
853.874748214644
 31
0.0
1001
AUTOCAD_POSTSCRIPT_FIGURE
1002
{
1000
PSFILL
1000
Grayscale
1000
Grayscale
1070
    25
1002
}
  0
LINE
  5
15EEE
330
15CD3
100
AcDbEntity
  8
YODOROGO
100
AcDbLine
 10
14882.80217064596
 20
909.8747482146439
 30
0.0
 11
14808.80217064596
 21
909.8747482146439
 31
0.0
1001
AUTOCAD_POSTSCRIPT_FIGURE
1002
{
1000
PSFILL
1000
Grayscale
1000
Grayscale
1070
    25
1002
}
  0
LINE
  5
15EEF
330
15CD3
100
AcDbEntity
  8
YODOROGO
100
AcDbLine
 10
14882.80217064596
 20
929.874748214644
 30
0.0
 11
14882.80217064596
 21
909.8747482146439
 31
0.0
1001
AUTOCAD_POSTSCRIPT_FIGURE
1002
{
1000
PSFILL
1000
Grayscale
1000
Grayscale
1070
    25
1002
}
  0
LINE
  5
15EF0
330
15CD3
100
AcDbEntity
  8
YODOROGO
100
AcDbLine
 10
14808.80217064596
 20
929.874748214644
 30
0.0
 11
14882.80217064596
 21
929.874748214644
 31
0.0
1001
AUTOCAD_POSTSCRIPT_FIGURE
1002
{
1000
PSFILL
1000
Grayscale
1000
Grayscale
1070
    25
1002
}
  0
LINE
  5
15EF1
330
15CD3
100
AcDbEntity
  8
YODOROGO
100
AcDbLine
 10
14808.80217064596
 20
953.874748214644
 30
0.0
 11
14808.80217064596
 21
929.874748214644
 31
0.0
1001
AUTOCAD_POSTSCRIPT_FIGURE
1002
{
1000
PSFILL
1000
Grayscale
1000
Grayscale
1070
    25
1002
}
  0
LINE
  5
15EF2
330
15CD3
100
AcDbEntity
  8
YODOROGO
100
AcDbLine
 10
14882.80217064596
 20
953.874748214644
 30
0.0
 11
14808.80217064596
 21
953.874748214644
 31
0.0
1001
AUTOCAD_POSTSCRIPT_FIGURE
1002
{
1000
PSFILL
1000
Grayscale
1000
Grayscale
1070
    25
1002
}
  0
LINE
  5
15EF3
330
15CD3
100
AcDbEntity
  8
YODOROGO
100
AcDbLine
 10
14882.80217064596
 20
973.8747482146434
 30
0.0
 11
14882.80217064596
 21
953.874748214644
 31
0.0
1001
AUTOCAD_POSTSCRIPT_FIGURE
1002
{
1000
PSFILL
1000
Grayscale
1000
Grayscale
1070
    25
1002
}
  0
LINE
  5
15EF4
330
15CD3
100
AcDbEntity
  8
YODOROGO
100
AcDbLine
 10
14808.80217064596
 20
973.8747482146434
 30
0.0
 11
14882.80217064596
 21
973.8747482146434
 31
0.0
1001
AUTOCAD_POSTSCRIPT_FIGURE
1002
{
1000
PSFILL
1000
Grayscale
1000
Grayscale
1070
    25
1002
}
  0
LINE
  5
15EF5
330
15CD3
100
AcDbEntity
  8
YODOROGO
100
AcDbLine
 10
14808.80217064596
 20
1013.874748214644
 30
0.0
 11
14808.80217064596
 21
973.8747482146434
 31
0.0
1001
AUTOCAD_POSTSCRIPT_FIGURE
1002
{
1000
PSFILL
1000
Grayscale
1000
Grayscale
1070
    25
1002
}
  0
LINE
  5
15EF6
330
15CD3
100
AcDbEntity
  8
YODOROGO
100
AcDbLine
 10
14832.80217064596
 20
1013.874748214644
 30
0.0
 11
14808.80217064596
 21
1013.874748214644
 31
0.0
1001
AUTOCAD_POSTSCRIPT_FIGURE
1002
{
1000
PSFILL
1000
Grayscale
1000
Grayscale
1070
    25
1002
}
  0
LINE
  5
15EF7
330
15CD3
100
AcDbEntity
  8
YODOROGO
100
AcDbLine
 10
14832.80217064596
 20
997.8747482146435
 30
0.0
 11
14832.80217064596
 21
1013.874748214644
 31
0.0
1001
AUTOCAD_POSTSCRIPT_FIGURE
1002
{
1000
PSFILL
1000
Grayscale
1000
Grayscale
1070
    25
1002
}
  0
LINE
  5
15EF8
330
15CD3
100
AcDbEntity
  8
YODOROGO
100
AcDbLine
 10
14882.80217064596
 20
997.8747482146435
 30
0.0
 11
14832.80217064596
 21
997.8747482146435
 31
0.0
1001
AUTOCAD_POSTSCRIPT_FIGURE
1002
{
1000
PSFILL
1000
Grayscale
1000
Grayscale
1070
    25
1002
}
  0
LINE
  5
15EF9
330
15CD3
100
AcDbEntity
  8
YODOROGO
100
AcDbLine
 10
14882.80217064596
 20
1013.874748214644
 30
0.0
 11
14882.80217064596
 21
997.8747482146435
 31
0.0
1001
AUTOCAD_POSTSCRIPT_FIGURE
1002
{
1000
PSFILL
1000
Grayscale
1000
Grayscale
1070
    25
1002
}
  0
LINE
  5
15EFA
330
15CD3
100
AcDbEntity
  8
YODOROGO
100
AcDbLine
 10
14914.80217064596
 20
1013.874748214644
 30
0.0
 11
14882.80217064596
 21
1013.874748214644
 31
0.0
1001
AUTOCAD_POSTSCRIPT_FIGURE
1002
{
1000
PSFILL
1000
Grayscale
1000
Grayscale
1070
    25
1002
}
  0
LINE
  5
15EFB
330
15CD3
100
AcDbEntity
  8
YODOROGO
100
AcDbLine
 10
14914.80217064596
 20
997.8747482146435
 30
0.0
 11
14914.80217064596
 21
1013.874748214644
 31
0.0
1001
AUTOCAD_POSTSCRIPT_FIGURE
1002
{
1000
PSFILL
1000
Grayscale
1000
Grayscale
1070
    25
1002
}
  0
LINE
  5
15EFC
330
15CD3
100
AcDbEntity
  8
YODOROGO
100
AcDbLine
 10
14914.80217064596
 20
953.874748214644
 30
0.0
 11
14914.80217064596
 21
973.8747482146434
 31
0.0
1001
AUTOCAD_POSTSCRIPT_FIGURE
1002
{
1000
PSFILL
1000
Grayscale
1000
Grayscale
1070
    25
1002
}
  0
LINE
  5
15EFD
330
15CD3
100
AcDbEntity
  8
YODOROGO
100
AcDbLine
 10
14914.80217064596
 20
909.8747482146439
 30
0.0
 11
14914.80217064596
 21
929.874748214644
 31
0.0
1001
AUTOCAD_POSTSCRIPT_FIGURE
1002
{
1000
PSFILL
1000
Grayscale
1000
Grayscale
1070
    25
1002
}
  0
LINE
  5
15EFE
330
15CD3
100
AcDbEntity
  8
YODOROGO
100
AcDbLine
 10
14960.80217064594
 20
885.8747482146441
 30
0.0
 11
14960.80217064594
 21
853.874748214644
 31
0.0
1001
AUTOCAD_POSTSCRIPT_FIGURE
1002
{
1000
PSFILL
1000
Grayscale
1000
Grayscale
1070
    25
1002
}
  0
LINE
  5
15EFF
330
15CD3
100
AcDbEntity
  8
YODOROGO
100
AcDbLine
 10
14914.80217064596
 20
885.8747482146441
 30
0.0
 11
14960.80217064594
 21
885.8747482146441
 31
0.0
1001
AUTOCAD_POSTSCRIPT_FIGURE
1002
{
1000
PSFILL
1000
Grayscale
1000
Grayscale
1070
    25
1002
}
  0
LINE
  5
15F00
330
15CD3
100
AcDbEntity
  8
YODOROGO
100
AcDbLine
 10
14914.80217064596
 20
853.874748214644
 30
0.0
 11
14914.80217064596
 21
885.8747482146441
 31
0.0
1001
AUTOCAD_POSTSCRIPT_FIGURE
1002
{
1000
PSFILL
1000
Grayscale
1000
Grayscale
1070
    25
1002
}
  0
LINE
  5
15F01
330
15CD3
100
AcDbEntity
  8
YODOROGO
100
AcDbLine
 10
14882.80217064596
 20
853.874748214644
 30
0.0
 11
14914.80217064596
 21
853.874748214644
 31
0.0
1001
AUTOCAD_POSTSCRIPT_FIGURE
1002
{
1000
PSFILL
1000
Grayscale
1000
Grayscale
1070
    25
1002
}
  0
LINE
  5
15F02
330
15CD3
100
AcDbEntity
  8
YODOROGO
100
AcDbLine
 10
14882.80217064596
 20
885.8747482146441
 30
0.0
 11
14882.80217064596
 21
853.874748214644
 31
0.0
1001
AUTOCAD_POSTSCRIPT_FIGURE
1002
{
1000
PSFILL
1000
Grayscale
1000
Grayscale
1070
    25
1002
}
  0
LINE
  5
15F03
330
15CD3
100
AcDbEntity
  8
YODOROGO
100
AcDbLine
 10
14836.80217064596
 20
885.8747482146441
 30
0.0
 11
14882.80217064596
 21
885.8747482146441
 31
0.0
1001
AUTOCAD_POSTSCRIPT_FIGURE
1002
{
1000
PSFILL
1000
Grayscale
1000
Grayscale
1070
    25
1002
}
  0
ARC
  5
15F04
330
15CD3
100
AcDbEntity
  8
YODOROGO
100
AcDbCircle
 10
15529.75894667896
 20
801.3403687577881
 30
0.0
 40
89.11064055536078
100
AcDbArc
 50
281.0262749542535
 51
357.771135755738
  0
LINE
  5
15F05
330
15CD3
100
AcDbEntity
  8
YODOROGO
100
AcDbLine
 10
15706.80217064596
 20
953.874748214644
 30
0.0
 11
15582.80217064596
 21
953.874748214644
 31
0.0
  0
LINE
  5
15F06
330
15CD3
100
AcDbEntity
  8
YODOROGO
100
AcDbLine
 10
15706.80217064596
 20
1013.874748214644
 30
0.0
 11
15582.80217064596
 21
1013.874748214644
 31
0.0
  0
LINE
  5
15F07
330
15CD3
100
AcDbEntity
  8
YODOROGO
100
AcDbLine
 10
15582.80217064596
 20
981.8747482146434
 30
0.0
 11
15706.80217064596
 21
981.8747482146434
 31
0.0
  0
LINE
  5
15F08
330
15CD3
100
AcDbEntity
  8
YODOROGO
100
AcDbLine
 10
15395.80217064596
 20
781.8747482146434
 30
0.0
 11
15395.80217064596
 21
877.8747482146435
 31
0.0
  0
LINE
  5
15F09
330
15CD3
100
AcDbEntity
  8
YODOROGO
100
AcDbLine
 10
15381.80217064596
 20
845.8747482146444
 30
0.0
 11
15381.80217064596
 21
781.8747482146434
 31
0.0
  0
LINE
  5
15F0A
330
15CD3
100
AcDbEntity
  8
YODOROGO
100
AcDbLine
 10
15361.80217064596
 20
745.8747482146443
 30
0.0
 11
15361.80217064596
 21
845.8747482146444
 31
0.0
  0
LINE
  5
15F0B
330
15CD3
100
AcDbEntity
  8
YODOROGO
100
AcDbLine
 10
15449.80217064596
 20
845.8747482146444
 30
0.0
 11
15449.80217064596
 21
745.8747482146443
 31
0.0
  0
LINE
  5
15F0C
330
15CD3
100
AcDbEntity
  8
YODOROGO
100
AcDbLine
 10
15429.80217064596
 20
781.8747482146434
 30
0.0
 11
15429.80217064596
 21
845.8747482146444
 31
0.0
  0
LINE
  5
15F0D
330
15CD3
100
AcDbEntity
  8
YODOROGO
100
AcDbLine
 10
15415.80217064596
 20
877.8747482146435
 30
0.0
 11
15415.80217064596
 21
781.8747482146434
 31
0.0
  0
LINE
  5
15F0E
330
15CD3
100
AcDbEntity
  8
YODOROGO
100
AcDbLine
 10
15486.80217064596
 20
1013.874748214644
 30
0.0
 11
15486.80217064596
 21
733.8747482146435
 31
0.0
  0
LINE
  5
15F0F
330
15CD3
100
AcDbEntity
  8
YODOROGO
100
AcDbLine
 10
15322.80217064596
 20
713.8747482146436
 30
0.0
 11
15322.80217064596
 21
1013.874748214644
 31
0.0
  0
LINE
  5
15F10
330
15CD3
100
AcDbEntity
  8
YODOROGO
100
AcDbLine
 10
15348.80217064596
 20
981.8747482146434
 30
0.0
 11
15348.80217064596
 21
713.8747482146436
 31
0.0
  0
LINE
  5
15F11
330
15CD3
100
AcDbEntity
  8
YODOROGO
100
AcDbLine
 10
15462.80217064596
 20
773.874748214644
 30
0.0
 11
15462.80217064596
 21
981.8747482146434
 31
0.0
  0
LINE
  5
15F12
330
15CD3
100
AcDbEntity
  8
YODOROGO
100
AcDbLine
 10
15190.80217064596
 20
813.8747482146435
 30
0.0
 11
15190.80217064596
 21
839.8747482146442
 31
0.0
  0
LINE
  5
15F13
330
15CD3
100
AcDbEntity
  8
YODOROGO
100
AcDbLine
 10
15308.80217064596
 20
839.8747482146442
 30
0.0
 11
15308.80217064596
 21
813.8747482146435
 31
0.0
  0
LINE
  5
15F14
330
15CD3
100
AcDbEntity
  8
YODOROGO
100
AcDbLine
 10
15582.80217064596
 20
953.874748214644
 30
0.0
 11
15582.80217064596
 21
817.8747482146436
 31
0.0
  0
LINE
  5
15F15
330
15CD3
100
AcDbEntity
  8
YODOROGO
100
AcDbLine
 10
14974.80217064595
 20
833.8747482146439
 30
0.0
 11
14974.80217064595
 21
853.874748214644
 31
0.0
  0
LINE
  5
15F16
330
15CD3
100
AcDbEntity
  8
YODOROGO
100
AcDbLine
 10
14974.80217064595
 20
833.8747482146439
 30
0.0
 11
14974.80217064595
 21
853.874748214644
 31
0.0
  0
ARC
  5
15F17
330
15CD3
100
AcDbEntity
  8
YODOROGO
100
AcDbCircle
 10
15268.80217064596
 20
753.8747482146439
 30
0.0
 40
40.0
100
AcDbArc
 50
270.0
 51
0.0
  0
LINE
  5
15F18
330
15CD3
100
AcDbEntity
  8
YODOROGO
100
AcDbLine
 10
15284.80217064596
 20
799.8747482146441
 30
0.0
 11
15308.80217064596
 21
799.8747482146441
 31
0.0
  0
LINE
  5
15F19
330
15CD3
100
AcDbEntity
  8
YODOROGO
100
AcDbLine
 10
15308.80217064596
 20
813.8747482146435
 30
0.0
 11
15264.80217064596
 21
813.8747482146435
 31
0.0
  0
LINE
  5
15F1A
330
15CD3
100
AcDbEntity
  8
YODOROGO
100
AcDbLine
 10
15108.80217064596
 20
833.8747482146439
 30
0.0
 11
14974.80217064595
 21
833.8747482146439
 31
0.0
  0
LINE
  5
15F1B
330
15CD3
100
AcDbEntity
  8
YODOROGO
100
AcDbLine
 10
15108.80217064596
 20
813.8747482146435
 30
0.0
 11
15108.80217064596
 21
833.8747482146439
 31
0.0
  0
LINE
  5
15F1C
330
15CD3
100
AcDbEntity
  8
YODOROGO
100
AcDbLine
 10
15008.80217064596
 20
813.8747482146435
 30
0.0
 11
15108.80217064596
 21
813.8747482146435
 31
0.0
  0
ARC
  5
15F1D
330
15CD3
100
AcDbEntity
  8
YODOROGO
100
AcDbCircle
 10
15115.02941435068
 20
934.4428574764513
 30
0.0
 40
160.6888181426141
100
AcDbArc
 50
228.6181454618993
 51
245.660289248906
  0
LINE
  5
15F1E
330
15CD3
100
AcDbEntity
  8
YODOROGO
100
AcDbLine
 10
15052.80217064596
 20
801.8747482146444
 30
0.0
 11
15048.80217064598
 21
788.0364079349501
 31
0.0
  0
LINE
  5
15F1F
330
15CD3
100
AcDbEntity
  8
YODOROGO
100
AcDbLine
 10
15094.80217064596
 20
801.8747482146444
 30
0.0
 11
15052.80217064596
 21
801.8747482146444
 31
0.0
  0
LINE
  5
15F20
330
15CD3
100
AcDbEntity
  8
YODOROGO
100
AcDbLine
 10
15088.80217064596
 20
775.9088612367134
 30
0.0
 11
15094.80217064596
 21
801.8747482146444
 31
0.0
  0
ARC
  5
15F21
330
15CD3
100
AcDbEntity
  8
YODOROGO
100
AcDbCircle
 10
15115.02941435023
 20
934.4428574765014
 30
0.0
 40
160.6888181426453
100
AcDbArc
 50
260.6062929796992
 51
267.7790355655586
  0
LINE
  5
15F22
330
15CD3
100
AcDbEntity
  8
YODOROGO
100
AcDbLine
 10
15108.80217064596
 20
713.8747482146428
 30
0.0
 11
15108.80217064596
 21
773.874748214644
 31
0.0
  0
LINE
  5
15F23
330
15CD3
100
AcDbEntity
  8
YODOROGO
100
AcDbLine
 10
14968.80217064596
 20
740.6696674577553
 30
0.0
 11
14968.80217064596
 21
797.2655452655705
 31
0.0
  0
LINE
  5
15F24
330
15CD3
100
AcDbEntity
  8
YODOROGO
100
AcDbLine
 10
15108.80217064596
 20
833.8747482146439
 30
0.0
 11
14974.80217064595
 21
833.8747482146439
 31
0.0
  0
LINE
  5
15F25
330
15CD3
100
AcDbEntity
  8
YODOROGO
100
AcDbLine
 10
15108.80217064596
 20
813.8747482146435
 30
0.0
 11
15108.80217064596
 21
833.8747482146439
 31
0.0
  0
LINE
  5
15F26
330
15CD3
100
AcDbEntity
  8
YODOROGO
100
AcDbLine
 10
15008.80217064596
 20
813.8747482146435
 30
0.0
 11
15108.80217064596
 21
813.8747482146435
 31
0.0
  0
ARC
  5
15F27
330
15CD3
100
AcDbEntity
  8
YODOROGO
100
AcDbCircle
 10
15115.02941435068
 20
934.4428574764513
 30
0.0
 40
160.6888181426141
100
AcDbArc
 50
228.6181454618993
 51
245.660289248906
  0
LINE
  5
15F28
330
15CD3
100
AcDbEntity
  8
YODOROGO
100
AcDbLine
 10
15052.80217064596
 20
801.8747482146444
 30
0.0
 11
15048.80217064598
 21
788.0364079349501
 31
0.0
  0
LINE
  5
15F29
330
15CD3
100
AcDbEntity
  8
YODOROGO
100
AcDbLine
 10
15094.80217064596
 20
801.8747482146444
 30
0.0
 11
15052.80217064596
 21
801.8747482146444
 31
0.0
  0
LINE
  5
15F2A
330
15CD3
100
AcDbEntity
  8
YODOROGO
100
AcDbLine
 10
15088.80217064596
 20
775.9088612367134
 30
0.0
 11
15094.80217064596
 21
801.8747482146444
 31
0.0
  0
ARC
  5
15F2B
330
15CD3
100
AcDbEntity
  8
YODOROGO
100
AcDbCircle
 10
15115.02941435023
 20
934.4428574765014
 30
0.0
 40
160.6888181426453
100
AcDbArc
 50
260.6062929796992
 51
267.7790355655586
  0
LINE
  5
15F2C
330
15CD3
100
AcDbEntity
  8
YODOROGO
100
AcDbLine
 10
15108.80217064596
 20
713.8747482146428
 30
0.0
 11
15108.80217064596
 21
773.874748214644
 31
0.0
  0
LINE
  5
15F2D
330
15CD3
100
AcDbEntity
  8
YODOROGO
100
AcDbLine
 10
14968.80217064596
 20
740.6696674577553
 30
0.0
 11
14968.80217064596
 21
797.2655452655705
 31
0.0
  0
LINE
  5
15F2E
330
15CD3
100
AcDbEntity
  8
YODOROGO
100
AcDbLine
 10
15216.80217064596
 20
786.8747482146444
 30
0.0
 11
15190.80217064596
 21
786.8747482146444
 31
0.0
  0
LINE
  5
15F2F
330
15CD3
100
AcDbEntity
  8
YODOROGO
100
AcDbLine
 10
15216.80217064596
 20
800.8747482146432
 30
0.0
 11
15216.80217064596
 21
786.8747482146444
 31
0.0
  0
LINE
  5
15F30
330
15CD3
100
AcDbEntity
  8
YODOROGO
100
AcDbLine
 10
15190.80217064596
 20
800.8747482146432
 30
0.0
 11
15216.80217064596
 21
800.8747482146432
 31
0.0
  0
LINE
  5
15F31
330
15CD3
100
AcDbEntity
  8
YODOROGO
100
AcDbLine
 10
15190.80217064596
 20
786.8747482146444
 30
0.0
 11
15190.80217064596
 21
800.8747482146432
 31
0.0
  0
LINE
  5
15F32
330
15CD3
100
AcDbEntity
  8
YODOROGO
100
AcDbLine
 10
15214.80217064596
 20
788.8747482146436
 30
0.0
 11
15192.80217064595
 21
788.8747482146436
 31
0.0
  0
LINE
  5
15F33
330
15CD3
100
AcDbEntity
  8
YODOROGO
100
AcDbLine
 10
15214.80217064596
 20
798.874748214644
 30
0.0
 11
15214.80217064596
 21
788.8747482146436
 31
0.0
  0
LINE
  5
15F34
330
15CD3
100
AcDbEntity
  8
YODOROGO
100
AcDbLine
 10
15192.80217064595
 20
798.874748214644
 30
0.0
 11
15214.80217064596
 21
798.874748214644
 31
0.0
  0
LINE
  5
15F35
330
15CD3
100
AcDbEntity
  8
YODOROGO
100
AcDbLine
 10
15192.80217064595
 20
788.8747482146436
 30
0.0
 11
15192.80217064595
 21
798.874748214644
 31
0.0
  0
LINE
  5
15F36
330
15CD3
100
AcDbEntity
  8
YODOROGO
100
AcDbLine
 10
15212.80217064596
 20
790.8747482146432
 30
0.0
 11
15194.80217064596
 21
790.8747482146432
 31
0.0
  0
LINE
  5
15F37
330
15CD3
100
AcDbEntity
  8
YODOROGO
100
AcDbLine
 10
15212.80217064596
 20
796.8747482146445
 30
0.0
 11
15212.80217064596
 21
790.8747482146432
 31
0.0
  0
LINE
  5
15F38
330
15CD3
100
AcDbEntity
  8
YODOROGO
100
AcDbLine
 10
15194.80217064596
 20
796.8747482146445
 30
0.0
 11
15212.80217064596
 21
796.8747482146445
 31
0.0
  0
LINE
  5
15F39
330
15CD3
100
AcDbEntity
  8
YODOROGO
100
AcDbLine
 10
15194.80217064596
 20
790.8747482146432
 30
0.0
 11
15194.80217064596
 21
796.8747482146445
 31
0.0
  0
LINE
  5
15F3A
330
15CD3
100
AcDbEntity
  8
YODOROGO
100
AcDbLine
 10
15210.80217064596
 20
792.8747482146435
 30
0.0
 11
15196.80217064596
 21
792.8747482146435
 31
0.0
  0
LINE
  5
15F3B
330
15CD3
100
AcDbEntity
  8
YODOROGO
100
AcDbLine
 10
15210.80217064596
 20
794.8747482146441
 30
0.0
 11
15210.80217064596
 21
792.8747482146435
 31
0.0
  0
LINE
  5
15F3C
330
15CD3
100
AcDbEntity
  8
YODOROGO
100
AcDbLine
 10
15196.80217064596
 20
794.8747482146441
 30
0.0
 11
15210.80217064596
 21
794.8747482146441
 31
0.0
  0
LINE
  5
15F3D
330
15CD3
100
AcDbEntity
  8
YODOROGO
100
AcDbLine
 10
15196.80217064596
 20
792.8747482146435
 30
0.0
 11
15196.80217064596
 21
794.8747482146441
 31
0.0
  0
LINE
  5
15F3E
330
15CD3
100
AcDbEntity
  8
YODOROGO
100
AcDbLine
 10
15232.80217064596
 20
813.8747482146435
 30
0.0
 11
15190.80217064596
 21
813.8747482146435
 31
0.0
  0
LINE
  5
15F3F
330
15CD3
100
AcDbEntity
  8
YODOROGO
100
AcDbLine
 10
15232.80217064596
 20
773.874748214644
 30
0.0
 11
15232.80217064596
 21
813.8747482146435
 31
0.0
  0
LINE
  5
15F40
330
15CD3
100
AcDbEntity
  8
YODOROGO
100
AcDbLine
 10
15190.80217064596
 20
773.874748214644
 30
0.0
 11
15232.80217064596
 21
773.874748214644
 31
0.0
  0
LINE
  5
15F41
330
15CD3
100
AcDbEntity
  8
YODOROGO
100
AcDbLine
 10
15190.80217064596
 20
713.8747482146436
 30
0.0
 11
15190.80217064596
 21
773.874748214644
 31
0.0
  0
LINE
  5
15F42
330
15CD3
100
AcDbEntity
  8
YODOROGO
100
AcDbLine
 10
15268.80217064596
 20
713.8747482146436
 30
0.0
 11
15190.80217064596
 21
713.8747482146436
 31
0.0
  0
LINE
  5
15F43
330
15CD3
100
AcDbEntity
  8
YODOROGO
100
AcDbLine
 10
15284.80217064596
 20
785.8747482146432
 30
0.0
 11
15284.80217064596
 21
799.8747482146441
 31
0.0
  0
ARC
  5
15F44
330
15CD3
100
AcDbEntity
  8
YODOROGO
100
AcDbCircle
 10
15272.80217064594
 20
785.8747482146457
 30
0.0
 40
12.00000000000187
100
AcDbArc
 50
270.0
 51
359.9999999999877
  0
LINE
  5
15F45
330
15CD3
100
AcDbEntity
  8
YODOROGO
100
AcDbLine
 10
15264.80217064596
 20
773.874748214644
 30
0.0
 11
15272.80217064594
 21
773.874748214644
 31
0.0
  0
LINE
  5
15F46
330
15CD3
100
AcDbEntity
  8
YODOROGO
100
AcDbLine
 10
15264.80217064596
 20
813.8747482146435
 30
0.0
 11
15264.80217064596
 21
773.874748214644
 31
0.0
  0
LINE
  5
15F47
330
15CD3
100
AcDbEntity
  8
YODOROGO
100
AcDbLine
 10
15449.80217064596
 20
773.874748214644
 30
0.0
 11
15462.80217064596
 21
773.874748214644
 31
0.0
  0
LINE
  5
15F48
330
15CD3
100
AcDbEntity
  8
YODOROGO
100
AcDbLine
 10
15466.80217064596
 20
713.8747482146436
 30
0.0
 11
15449.80217064596
 21
713.8747482146436
 31
0.0
  0
LINE
  5
15F49
330
15CD3
100
AcDbEntity
  8
YODOROGO
100
AcDbLine
 10
15381.80217064596
 20
781.8747482146434
 30
0.0
 11
15395.80217064596
 21
781.8747482146434
 31
0.0
  0
LINE
  5
15F4A
330
15CD3
100
AcDbEntity
  8
YODOROGO
100
AcDbLine
 10
15449.80217064596
 20
745.8747482146443
 30
0.0
 11
15361.80217064596
 21
745.8747482146443
 31
0.0
  0
LINE
  5
15F4B
330
15CD3
100
AcDbEntity
  8
YODOROGO
100
AcDbLine
 10
15415.80217064596
 20
781.8747482146434
 30
0.0
 11
15429.80217064596
 21
781.8747482146434
 31
0.0
  0
LINE
  5
15F4C
330
15CD3
100
AcDbEntity
  8
YODOROGO
100
AcDbLine
 10
15449.80217064596
 20
713.8747482146436
 30
0.0
 11
15449.80217064596
 21
773.874748214644
 31
0.0
  0
LINE
  5
15F4D
330
15CD3
100
AcDbEntity
  8
YODOROGO
100
AcDbLine
 10
15348.80217064596
 20
713.8747482146436
 30
0.0
 11
15322.80217064596
 21
713.8747482146436
 31
0.0
  0
LINE
  5
15F4E
330
15CD3
100
AcDbEntity
  8
YODOROGO
100
AcDbLine
 10
15308.80217064596
 20
799.8747482146441
 30
0.0
 11
15308.80217064596
 21
753.8747482146439
 31
0.0
  0
ARC
  5
15F4F
330
15CD3
100
AcDbEntity
  8
YODOROGO
100
AcDbCircle
 10
15466.80217064596
 20
733.8747482146435
 30
0.0
 40
20.0
100
AcDbArc
 50
270.0
 51
0.0
  0
LINE
  5
15F50
330
15CD3
100
AcDbEntity
  8
YODOROGO
100
AcDbLine
 10
15546.80217064596
 20
761.8747482146434
 30
0.0
 11
15546.80217064596
 21
713.8747482146436
 31
0.0
  0
ARC
  5
15F51
330
15CD3
100
AcDbEntity
  8
YODOROGO
100
AcDbCircle
 10
15519.86069778339
 20
818.7656950548664
 30
0.0
 40
62.94777829583771
100
AcDbArc
 50
295.3405244216011
 51
359.1890230341867
  0
LINE
  5
15F52
330
15CD3
100
AcDbEntity
  8
YODOROGO
100
AcDbLine
 10
15308.80217064596
 20
929.874748214644
 30
0.0
 11
15248.80217064596
 21
969.8747482146441
 31
0.0
  0
LINE
  5
15F53
330
15CD3
100
AcDbEntity
  8
YODOROGO
100
AcDbLine
 10
15248.80217064596
 20
1013.874748214644
 30
0.0
 11
15308.80217064596
 21
973.8747482146434
 31
0.0
  0
LINE
  5
15F54
330
15CD3
100
AcDbEntity
  8
YODOROGO
100
AcDbLine
 10
15264.80217064596
 20
839.8747482146442
 30
0.0
 11
15308.80217064596
 21
839.8747482146442
 31
0.0
  0
LINE
  5
15F55
330
15CD3
100
AcDbEntity
  8
YODOROGO
100
AcDbLine
 10
15308.80217064596
 20
867.8747482146436
 30
0.0
 11
15264.80217064596
 21
867.8747482146436
 31
0.0
  0
LINE
  5
15F56
330
15CD3
100
AcDbEntity
  8
YODOROGO
100
AcDbLine
 10
15190.80217064596
 20
897.8747482146435
 30
0.0
 11
15308.80217064596
 21
897.8747482146435
 31
0.0
  0
LINE
  5
15F57
330
15CD3
100
AcDbEntity
  8
YODOROGO
100
AcDbLine
 10
15040.80217064596
 20
1013.874748214644
 30
0.0
 11
15010.80217064596
 21
1013.874748214644
 31
0.0
  0
LINE
  5
15F58
330
15CD3
100
AcDbEntity
  8
YODOROGO
100
AcDbLine
 10
15040.80217064596
 20
913.8747482146435
 30
0.0
 11
15040.80217064596
 21
1013.874748214644
 31
0.0
  0
LINE
  5
15F59
330
15CD3
100
AcDbEntity
  8
YODOROGO
100
AcDbLine
 10
15010.80217064596
 20
913.8747482146435
 30
0.0
 11
15040.80217064596
 21
913.8747482146435
 31
0.0
  0
LINE
  5
15F5A
330
15CD3
100
AcDbEntity
  8
YODOROGO
100
AcDbLine
 10
15010.80217064596
 20
1013.874748214644
 30
0.0
 11
15010.80217064596
 21
913.8747482146435
 31
0.0
  0
LINE
  5
15F5B
330
15CD3
100
AcDbEntity
  8
YODOROGO
100
AcDbLine
 10
15080.80217064596
 20
1013.874748214644
 30
0.0
 11
15108.80217064596
 21
1013.874748214644
 31
0.0
  0
LINE
  5
15F5C
330
15CD3
100
AcDbEntity
  8
YODOROGO
100
AcDbLine
 10
15080.80217064596
 20
905.8747482146443
 30
0.0
 11
15080.80217064596
 21
1013.874748214644
 31
0.0
  0
ARC
  5
15F5D
330
15CD3
100
AcDbEntity
  8
YODOROGO
100
AcDbCircle
 10
15060.80217064596
 20
905.8747482146443
 30
0.0
 40
20.0
100
AcDbArc
 50
270.0
 51
0.0
  0
LINE
  5
15F5E
330
15CD3
100
AcDbEntity
  8
YODOROGO
100
AcDbLine
 10
15010.80217064596
 20
885.8747482146441
 30
0.0
 11
15060.80217064596
 21
885.8747482146441
 31
0.0
  0
LINE
  5
15F5F
330
15CD3
100
AcDbEntity
  8
YODOROGO
100
AcDbLine
 10
15010.80217064596
 20
853.874748214644
 30
0.0
 11
15010.80217064596
 21
885.8747482146441
 31
0.0
  0
LINE
  5
15F60
330
15CD3
100
AcDbEntity
  8
YODOROGO
100
AcDbLine
 10
15068.80217064596
 20
853.874748214644
 30
0.0
 11
15010.80217064596
 21
853.874748214644
 31
0.0
  0
ARC
  5
15F61
330
15CD3
100
AcDbEntity
  8
YODOROGO
100
AcDbCircle
 10
15068.80217064596
 20
893.8747482146439
 30
0.0
 40
40.0
100
AcDbArc
 50
270.0
 51
0.0
  0
LINE
  5
15F62
330
15CD3
100
AcDbEntity
  8
YODOROGO
100
AcDbLine
 10
15108.80217064596
 20
1013.874748214644
 30
0.0
 11
15108.80217064596
 21
893.8747482146439
 31
0.0
  0
LINE
  5
15F63
330
15CD3
100
AcDbEntity
  8
YODOROGO
100
AcDbLine
 10
14988.80217064596
 20
973.8747482146434
 30
0.0
 11
14988.80217064596
 21
997.8747482146435
 31
0.0
1001
AUTOCAD_POSTSCRIPT_FIGURE
1002
{
1000
PSFILL
1000
Grayscale
1000
Grayscale
1070
    25
1002
}
  0
LINE
  5
15F64
330
15CD3
100
AcDbEntity
  8
YODOROGO
100
AcDbLine
 10
14988.80217064596
 20
929.874748214644
 30
0.0
 11
14988.80217064596
 21
953.874748214644
 31
0.0
1001
AUTOCAD_POSTSCRIPT_FIGURE
1002
{
1000
PSFILL
1000
Grayscale
1000
Grayscale
1070
    25
1002
}
  0
LINE
  5
15F65
330
15CD3
100
AcDbEntity
  8
YODOROGO
100
AcDbLine
 10
14988.80217064596
 20
853.874748214644
 30
0.0
 11
14988.80217064596
 21
909.8747482146439
 31
0.0
1001
AUTOCAD_POSTSCRIPT_FIGURE
1002
{
1000
PSFILL
1000
Grayscale
1000
Grayscale
1070
    25
1002
}
  0
LINE
  5
15F66
330
15CD3
100
AcDbEntity
  8
YODOROGO
100
AcDbLine
 10
15190.80217064596
 20
953.874748214644
 30
0.0
 11
15248.80217064596
 21
1013.874748214644
 31
0.0
  0
LINE
  5
15F67
330
15CD3
100
AcDbEntity
  8
YODOROGO
100
AcDbLine
 10
15190.80217064596
 20
909.8747482146439
 30
0.0
 11
15190.80217064596
 21
953.874748214644
 31
0.0
  0
LINE
  5
15F68
330
15CD3
100
AcDbEntity
  8
YODOROGO
100
AcDbLine
 10
15248.80217064596
 20
969.8747482146441
 30
0.0
 11
15190.80217064596
 21
909.8747482146439
 31
0.0
  0
LINE
  5
15F69
330
15CD3
100
AcDbEntity
  8
YODOROGO
100
AcDbLine
 10
15232.80217064596
 20
839.8747482146442
 30
0.0
 11
15232.80217064596
 21
867.8747482146436
 31
0.0
  0
LINE
  5
15F6A
330
15CD3
100
AcDbEntity
  8
YODOROGO
100
AcDbLine
 10
15190.80217064596
 20
839.8747482146442
 30
0.0
 11
15232.80217064596
 21
839.8747482146442
 31
0.0
  0
LINE
  5
15F6B
330
15CD3
100
AcDbEntity
  8
YODOROGO
100
AcDbLine
 10
15264.80217064596
 20
867.8747482146436
 30
0.0
 11
15264.80217064596
 21
839.8747482146442
 31
0.0
  0
LINE
  5
15F6C
330
15CD3
100
AcDbEntity
  8
YODOROGO
100
AcDbLine
 10
15190.80217064596
 20
867.8747482146436
 30
0.0
 11
15190.80217064596
 21
897.8747482146435
 31
0.0
  0
LINE
  5
15F6D
330
15CD3
100
AcDbEntity
  8
YODOROGO
100
AcDbLine
 10
15232.80217064596
 20
867.8747482146436
 30
0.0
 11
15190.80217064596
 21
867.8747482146436
 31
0.0
  0
LINE
  5
15F6E
330
15CD3
100
AcDbEntity
  8
YODOROGO
100
AcDbLine
 10
15322.80217064596
 20
1013.874748214644
 30
0.0
 11
15486.80217064596
 21
1013.874748214644
 31
0.0
  0
LINE
  5
15F6F
330
15CD3
100
AcDbEntity
  8
YODOROGO
100
AcDbLine
 10
15462.80217064596
 20
981.8747482146434
 30
0.0
 11
15348.80217064596
 21
981.8747482146434
 31
0.0
  0
LINE
  5
15F70
330
15CD3
100
AcDbEntity
  8
YODOROGO
100
AcDbLine
 10
15436.80217064595
 20
909.8747482146439
 30
0.0
 11
15449.80217064596
 21
909.8747482146439
 31
0.0
  0
LINE
  5
15F71
330
15CD3
100
AcDbEntity
  8
YODOROGO
100
AcDbLine
 10
15449.80217064596
 20
969.8747482146441
 30
0.0
 11
15436.80217064595
 21
909.8747482146439
 31
0.0
  0
LINE
  5
15F72
330
15CD3
100
AcDbEntity
  8
YODOROGO
100
AcDbLine
 10
15425.80217064596
 20
969.8747482146441
 30
0.0
 11
15449.80217064596
 21
969.8747482146441
 31
0.0
  0
LINE
  5
15F73
330
15CD3
100
AcDbEntity
  8
YODOROGO
100
AcDbLine
 10
15412.80217064596
 20
909.8747482146439
 30
0.0
 11
15425.80217064596
 21
969.8747482146441
 31
0.0
  0
LINE
  5
15F74
330
15CD3
100
AcDbEntity
  8
YODOROGO
100
AcDbLine
 10
15398.80217064596
 20
909.8747482146439
 30
0.0
 11
15412.80217064596
 21
909.8747482146439
 31
0.0
  0
LINE
  5
15F75
330
15CD3
100
AcDbEntity
  8
YODOROGO
100
AcDbLine
 10
15385.80217064596
 20
969.8747482146441
 30
0.0
 11
15398.80217064596
 21
909.8747482146439
 31
0.0
  0
LINE
  5
15F76
330
15CD3
100
AcDbEntity
  8
YODOROGO
100
AcDbLine
 10
15361.80217064596
 20
969.8747482146441
 30
0.0
 11
15385.80217064596
 21
969.8747482146441
 31
0.0
  0
LINE
  5
15F77
330
15CD3
100
AcDbEntity
  8
YODOROGO
100
AcDbLine
 10
15374.80217064596
 20
909.8747482146439
 30
0.0
 11
15361.80217064596
 21
969.8747482146441
 31
0.0
  0
LINE
  5
15F78
330
15CD3
100
AcDbEntity
  8
YODOROGO
100
AcDbLine
 10
15361.80217064596
 20
909.8747482146439
 30
0.0
 11
15374.80217064596
 21
909.8747482146439
 31
0.0
  0
LINE
  5
15F79
330
15CD3
100
AcDbEntity
  8
YODOROGO
100
AcDbLine
 10
15361.80217064596
 20
877.8747482146435
 30
0.0
 11
15361.80217064596
 21
909.8747482146439
 31
0.0
  0
LINE
  5
15F7A
330
15CD3
100
AcDbEntity
  8
YODOROGO
100
AcDbLine
 10
15449.80217064596
 20
877.8747482146435
 30
0.0
 11
15361.80217064596
 21
877.8747482146435
 31
0.0
  0
LINE
  5
15F7B
330
15CD3
100
AcDbEntity
  8
YODOROGO
100
AcDbLine
 10
15449.80217064596
 20
909.8747482146439
 30
0.0
 11
15449.80217064596
 21
877.8747482146435
 31
0.0
  0
LINE
  5
15F7C
330
15CD3
100
AcDbEntity
  8
YODOROGO
100
AcDbLine
 10
15308.80217064596
 20
973.8747482146434
 30
0.0
 11
15308.80217064596
 21
929.874748214644
 31
0.0
  0
LINE
  5
15F7D
330
15CD3
100
AcDbEntity
  8
YODOROGO
100
AcDbLine
 10
15395.80217064596
 20
877.8747482146435
 30
0.0
 11
15415.80217064596
 21
877.8747482146435
 31
0.0
  0
LINE
  5
15F7E
330
15CD3
100
AcDbEntity
  8
YODOROGO
100
AcDbLine
 10
15361.80217064596
 20
845.8747482146444
 30
0.0
 11
15381.80217064596
 21
845.8747482146444
 31
0.0
  0
LINE
  5
15F7F
330
15CD3
100
AcDbEntity
  8
YODOROGO
100
AcDbLine
 10
15429.80217064596
 20
845.8747482146444
 30
0.0
 11
15449.80217064596
 21
845.8747482146444
 31
0.0
  0
LINE
  5
15F80
330
15CD3
100
AcDbEntity
  8
YODOROGO
100
AcDbLine
 10
15308.80217064596
 20
897.8747482146435
 30
0.0
 11
15308.80217064596
 21
867.8747482146436
 31
0.0
  0
LINE
  5
15F81
330
15CD3
100
AcDbEntity
  8
YODOROGO
100
AcDbLine
 10
15582.80217064596
 20
1013.874748214644
 30
0.0
 11
15582.80217064596
 21
981.8747482146434
 31
0.0
  0
LINE
  5
15F82
330
15CD3
100
AcDbEntity
  8
YODOROGO
100
AcDbLine
 10
15766.80217064596
 20
797.8747482146435
 30
0.0
 11
15766.80217064594
 21
905.8747482146443
 31
0.0
  0
LINE
  5
15F83
330
15CD3
100
AcDbEntity
  8
YODOROGO
100
AcDbLine
 10
15730.80217064594
 20
993.8747482146439
 30
0.0
 11
15730.80217064594
 21
817.8747482146436
 31
0.0
  0
LINE
  5
15F84
330
15CD3
100
AcDbEntity
  8
YODOROGO
100
AcDbLine
 10
15826.80217064596
 20
713.8747482146436
 30
0.0
 11
15826.80217064594
 21
905.8747482146443
 31
0.0
  0
LINE
  5
15F85
330
15CD3
100
AcDbEntity
  8
YODOROGO
100
AcDbLine
 10
15794.80217064596
 20
905.8747482146443
 30
0.0
 11
15794.80217064596
 21
713.8747482146436
 31
0.0
  0
LINE
  5
15F86
330
15CD3
100
AcDbEntity
  8
YODOROGO
100
AcDbLine
 10
15618.80217064596
 20
797.8747482146435
 30
0.0
 11
15618.80217064596
 21
853.874748214644
 31
0.0
  0
ARC
  5
15F87
330
15CD3
100
AcDbEntity
  8
YODOROGO
100
AcDbCircle
 10
15676.95743255803
 20
803.8951756442788
 30
0.0
 40
90.04622428799429
100
AcDbArc
 50
268.6284910216979
 51
356.1663845733032
  0
LINE
  5
15F88
330
15CD3
100
AcDbEntity
  8
YODOROGO
100
AcDbLine
 10
15674.80217064596
 20
763.8747482146435
 30
0.0
 11
15674.80217064596
 21
713.8747482146436
 31
0.0
  0
ARC
  5
15F89
330
15CD3
100
AcDbEntity
  8
YODOROGO
100
AcDbCircle
 10
15675.75903786228
 20
818.9194785088275
 30
0.0
 40
55.05304649180608
100
AcDbArc
 50
269.0041020930593
 51
358.9126445549248
  0
LINE
  5
15F8A
330
15CD3
100
AcDbEntity
  8
YODOROGO
100
AcDbLine
 10
15794.80217064596
 20
713.8747482146436
 30
0.0
 11
15826.80217064596
 21
713.8747482146436
 31
0.0
  0
LINE
  5
15F8B
330
15CD3
100
AcDbEntity
  8
YODOROGO
100
AcDbLine
 10
15766.80217064594
 20
905.8747482146443
 30
0.0
 11
15794.80217064596
 21
905.8747482146443
 31
0.0
  0
LINE
  5
15F8C
330
15CD3
100
AcDbEntity
  8
YODOROGO
100
AcDbLine
 10
15810.80217064596
 20
993.8747482146439
 30
0.0
 11
15730.80217064594
 21
993.8747482146439
 31
0.0
  0
LINE
  5
15F8D
330
15CD3
100
AcDbEntity
  8
YODOROGO
100
AcDbLine
 10
15766.80217064594
 20
957.8747482146436
 30
0.0
 11
15830.80217064596
 21
957.8747482146436
 31
0.0
  0
LINE
  5
15F8E
330
15CD3
100
AcDbEntity
  8
YODOROGO
100
AcDbLine
 10
15850.80217064596
 20
937.8747482146435
 30
0.0
 11
15766.80217064594
 21
937.8747482146435
 31
0.0
  0
LINE
  5
15F8F
330
15CD3
100
AcDbEntity
  8
YODOROGO
100
AcDbLine
 10
15618.80217064596
 20
889.8747482146442
 30
0.0
 11
15674.80217064596
 21
889.8747482146442
 31
0.0
  0
LINE
  5
15F90
330
15CD3
100
AcDbEntity
  8
YODOROGO
100
AcDbLine
 10
15618.80217064596
 20
917.8747482146436
 30
0.0
 11
15618.80217064596
 21
889.8747482146442
 31
0.0
  0
LINE
  5
15F91
330
15CD3
100
AcDbEntity
  8
YODOROGO
100
AcDbLine
 10
15674.80217064596
 20
917.8747482146436
 30
0.0
 11
15618.80217064596
 21
917.8747482146436
 31
0.0
  0
LINE
  5
15F92
330
15CD3
100
AcDbEntity
  8
YODOROGO
100
AcDbLine
 10
15674.80217064596
 20
889.8747482146442
 30
0.0
 11
15674.80217064596
 21
917.8747482146436
 31
0.0
  0
LINE
  5
15F93
330
15CD3
100
AcDbEntity
  8
YODOROGO
100
AcDbLine
 10
15766.80217064594
 20
937.8747482146435
 30
0.0
 11
15766.80217064594
 21
957.8747482146436
 31
0.0
  0
LINE
  5
15F94
330
15CD3
100
AcDbEntity
  8
YODOROGO
100
AcDbLine
 10
15706.80217064596
 20
853.874748214644
 30
0.0
 11
15706.80217064596
 21
953.874748214644
 31
0.0
  0
LINE
  5
15F95
330
15CD3
100
AcDbEntity
  8
YODOROGO
100
AcDbLine
 10
15618.80217064596
 20
853.874748214644
 30
0.0
 11
15706.80217064596
 21
853.874748214644
 31
0.0
  0
LINE
  5
15F96
330
15CD3
100
AcDbEntity
  8
YODOROGO
100
AcDbLine
 10
15706.80217064596
 20
981.8747482146434
 30
0.0
 11
15706.80217064596
 21
1013.874748214644
 31
0.0
  0
ARC
  5
15F97
330
15CD3
100
AcDbEntity
  8
YODOROGO
100
AcDbCircle
 10
15810.80217064596
 20
1001.874748214642
 30
0.0
 40
7.99999999999727
100
AcDbArc
 50
270.0
 51
0.0000000000081422
  0
LINE
  5
15F98
330
15CD3
100
AcDbEntity
  8
YODOROGO
100
AcDbLine
 10
15818.80217064596
 20
1013.874748214644
 30
0.0
 11
15818.80217064596
 21
1001.874748214643
 31
0.0
  0
LINE
  5
15F99
330
15CD3
100
AcDbEntity
  8
YODOROGO
100
AcDbLine
 10
15850.80217064596
 20
1013.874748214644
 30
0.0
 11
15818.80217064596
 21
1013.874748214644
 31
0.0
  0
LINE
  5
15F9A
330
15CD3
100
AcDbEntity
  8
YODOROGO
100
AcDbLine
 10
15850.80217064596
 20
977.8747482146435
 30
0.0
 11
15850.80217064596
 21
1013.874748214644
 31
0.0
  0
ARC
  5
15F9B
330
15CD3
100
AcDbEntity
  8
YODOROGO
100
AcDbCircle
 10
15830.80217064596
 20
977.8747482146435
 30
0.0
 40
20.0
100
AcDbArc
 50
270.0
 51
0.0
  0
LINE
  5
15F9C
330
15CD3
100
AcDbEntity
  8
YODOROGO
100
AcDbLine
 10
15850.80217064596
 20
905.8747482146443
 30
0.0
 11
15850.80217064596
 21
937.8747482146435
 31
0.0
  0
LINE
  5
15F9D
330
15CD3
100
AcDbEntity
  8
YODOROGO
100
AcDbLine
 10
15826.80217064594
 20
905.8747482146443
 30
0.0
 11
15850.80217064596
 21
905.8747482146443
 31
0.0
  0
LINE
  5
15F9E
330
15CD3
100
AcDbEntity
  8
SUNPOU
100
AcDbLine
 10
4819.127507899649
 20
6803.693182432329
 30
0.0
 11
4819.127507899649
 21
6138.693182432328
 31
0.0
  0
LINE
  5
15F9F
330
15CD3
100
AcDbEntity
  8
SUNPOU
100
AcDbLine
 10
12019.12750789964
 20
6803.693182432329
 30
0.0
 11
12019.12750789964
 21
6138.693182432328
 31
0.0
  0
LINE
  5
15FA0
330
15CD3
100
AcDbEntity
  8
SUNPOU
100
AcDbLine
 10
4839.127507899648
 20
6183.693182432328
 30
0.0
 11
11999.12750789964
 21
6183.693182432328
 31
0.0
  0
LINE
  5
15FA1
330
15CD3
100
AcDbEntity
  8
SUNPOU
100
AcDbLine
 10
11778.67750789965
 20
8843.69318243233
 30
0.0
 11
12514.12750789964
 21
8843.69318243233
 31
0.0
  0
LINE
  5
15FA2
330
15CD3
100
AcDbEntity
  8
SUNPOU
100
AcDbLine
 10
12059.12750789964
 20
9143.693182432331
 30
0.0
 11
12514.12750789964
 21
9143.693182432327
 31
0.0
  0
LINE
  5
15FA3
330
15CD3
100
AcDbEntity
  8
SUNPOU
100
AcDbLine
 10
12469.12750789963
 20
8863.693182432331
 30
0.0
 11
12469.12750789963
 21
9123.693182432328
 31
0.0
  0
LINE
  5
15FA4
330
15CD3
100
AcDbEntity
  8
SUNPOU
100
AcDbLine
 10
12059.12750789964
 20
7993.69318243233
 30
0.0
 11
12514.12750789964
 21
7993.69318243233
 31
0.0
  0
LINE
  5
15FA5
330
15CD3
100
AcDbEntity
  8
SUNPOU
100
AcDbLine
 10
11778.67750789965
 20
8843.69318243233
 30
0.0
 11
12514.12750789964
 21
8843.69318243233
 31
0.0
  0
LINE
  5
15FA6
330
15CD3
100
AcDbEntity
  8
SUNPOU
100
AcDbLine
 10
12469.12750789963
 20
8013.693182432332
 30
0.0
 11
12469.12750789963
 21
8823.693182432331
 31
0.0
  0
LINE
  5
15FA7
330
15CD3
100
AcDbEntity
  8
SUNPOU
100
AcDbLine
 10
12059.12750789964
 20
9143.693182432331
 30
0.0
 11
12724.12750789964
 21
9143.693182432327
 31
0.0
  0
LINE
  5
15FA8
330
15CD3
100
AcDbEntity
  8
SUNPOU
100
AcDbLine
 10
12059.12750789964
 20
7993.69318243233
 30
0.0
 11
12724.12750789964
 21
7993.69318243233
 31
0.0
  0
LINE
  5
15FA9
330
15CD3
100
AcDbEntity
  8
SUNPOU
100
AcDbLine
 10
12679.12750789964
 20
9123.693182432328
 30
0.0
 11
12679.12750789964
 21
8013.693182432332
 31
0.0
  0
LINE
  5
15FAA
330
15CD3
100
AcDbEntity
  8
SUNPOU
100
AcDbLine
 10
11219.12750789963
 20
9183.693182432332
 30
0.0
 11
11219.12750789963
 21
9488.693182432331
 31
0.0
  0
LINE
  5
15FAB
330
15CD3
100
AcDbEntity
  8
SUNPOU
100
AcDbLine
 10
12019.12750789964
 20
9183.693182432332
 30
0.0
 11
12019.12750789964
 21
9488.693182432331
 31
0.0
  0
LINE
  5
15FAC
330
15CD3
100
AcDbEntity
  8
SUNPOU
100
AcDbLine
 10
11239.12750789963
 20
9443.693182432332
 30
0.0
 11
11999.12750789964
 21
9443.693182432332
 31
0.0
  0
LINE
  5
15FAD
330
15CD3
100
AcDbEntity
  8
SUNPOU
100
AcDbLine
 10
5059.57750789965
 20
8843.69318243233
 30
0.0
 11
4324.127507899648
 21
8843.69318243233
 31
0.0
  0
LINE
  5
15FAE
330
15CD3
100
AcDbEntity
  8
SUNPOU
100
AcDbLine
 10
4779.127507899647
 20
9083.693182432327
 30
0.0
 11
4324.127507899648
 21
9083.693182432327
 31
0.0
  0
LINE
  5
15FAF
330
15CD3
100
AcDbEntity
  8
SUNPOU
100
AcDbLine
 10
4369.127507899647
 20
8823.693182432331
 30
0.0
 11
4369.127507899647
 21
8803.693182432331
 31
0.0
  0
LINE
  5
15FB0
330
15CD3
100
AcDbEntity
  8
SUNPOU
100
AcDbLine
 10
4369.127507899647
 20
9103.693182432328
 30
0.0
 11
4369.127507899647
 21
9123.693182432328
 31
0.0
  0
LINE
  5
15FB1
330
15CD3
100
AcDbEntity
  8
SUNPOU
100
AcDbLine
 10
4369.127507899647
 20
8843.69318243233
 30
0.0
 11
4369.127507899647
 21
9083.693182432327
 31
0.0
  0
LINE
  5
15FB2
330
15CD3
100
AcDbEntity
  8
SUNPOU
100
AcDbLine
 10
4779.127507899647
 20
6843.693182432328
 30
0.0
 11
4324.127507899648
 21
6843.693182432328
 31
0.0
  0
LINE
  5
15FB3
330
15CD3
100
AcDbEntity
  8
SUNPOU
100
AcDbLine
 10
5059.57750789965
 20
8843.69318243233
 30
0.0
 11
4324.127507899648
 21
8843.69318243233
 31
0.0
  0
LINE
  5
15FB4
330
15CD3
100
AcDbEntity
  8
SUNPOU
100
AcDbLine
 10
4369.127507899647
 20
6863.693182432328
 30
0.0
 11
4369.127507899647
 21
8823.693182432331
 31
0.0
  0
LINE
  5
15FB5
330
15CD3
100
AcDbEntity
  8
SUNPOU
100
AcDbLine
 10
11619.12750789964
 20
7886.693182432328
 30
0.0
 11
11619.12750789964
 21
6348.693182432328
 31
0.0
  0
LINE
  5
15FB6
330
15CD3
100
AcDbEntity
  8
SUNPOU
100
AcDbLine
 10
12019.12750789964
 20
6803.693182432329
 30
0.0
 11
12019.12750789964
 21
6348.693182432328
 31
0.0
  0
LINE
  5
15FB7
330
15CD3
100
AcDbEntity
  8
SUNPOU
100
AcDbLine
 10
11639.12750789964
 20
6393.693182432328
 30
0.0
 11
11999.12750789964
 21
6393.693182432328
 31
0.0
  0
LINE
  5
15FB8
330
15CD3
100
AcDbEntity
  8
SUNPOU
100
AcDbLine
 10
9619.127507899644
 20
7886.693182432328
 30
0.0
 11
9619.127507899644
 21
6348.693182432328
 31
0.0
  0
LINE
  5
15FB9
330
15CD3
100
AcDbEntity
  8
SUNPOU
100
AcDbLine
 10
11619.12750789964
 20
7886.693182432328
 30
0.0
 11
11619.12750789964
 21
6348.693182432328
 31
0.0
  0
LINE
  5
15FBA
330
15CD3
100
AcDbEntity
  8
SUNPOU
100
AcDbLine
 10
9639.127507899644
 20
6393.693182432328
 30
0.0
 11
11599.12750789964
 21
6393.693182432328
 31
0.0
  0
LINE
  5
15FBB
330
15CD3
100
AcDbEntity
  8
SUNPOU
100
AcDbLine
 10
7219.127507899648
 20
7886.693182432328
 30
0.0
 11
7219.127507899648
 21
6348.693182432328
 31
0.0
  0
LINE
  5
15FBC
330
15CD3
100
AcDbEntity
  8
SUNPOU
100
AcDbLine
 10
9619.127507899644
 20
7886.693182432328
 30
0.0
 11
9619.127507899644
 21
6348.693182432328
 31
0.0
  0
LINE
  5
15FBD
330
15CD3
100
AcDbEntity
  8
SUNPOU
100
AcDbLine
 10
7239.127507899649
 20
6393.693182432328
 30
0.0
 11
9599.127507899643
 21
6393.693182432328
 31
0.0
  0
LINE
  5
15FBE
330
15CD3
100
AcDbEntity
  8
SUNPOU
100
AcDbLine
 10
5219.127507899647
 20
7886.693182432328
 30
0.0
 11
5219.127507899647
 21
6348.693182432328
 31
0.0
  0
LINE
  5
15FBF
330
15CD3
100
AcDbEntity
  8
SUNPOU
100
AcDbLine
 10
7219.127507899648
 20
7886.693182432328
 30
0.0
 11
7219.127507899648
 21
6348.693182432328
 31
0.0
  0
LINE
  5
15FC0
330
15CD3
100
AcDbEntity
  8
SUNPOU
100
AcDbLine
 10
5239.127507899648
 20
6393.693182432328
 30
0.0
 11
7199.127507899646
 21
6393.693182432328
 31
0.0
  0
LINE
  5
15FC1
330
15CD3
100
AcDbEntity
  8
SUNPOU
100
AcDbLine
 10
4819.127507899649
 20
6803.693182432329
 30
0.0
 11
4819.127507899649
 21
6348.693182432328
 31
0.0
  0
LINE
  5
15FC2
330
15CD3
100
AcDbEntity
  8
SUNPOU
100
AcDbLine
 10
5219.127507899647
 20
7886.693182432328
 30
0.0
 11
5219.127507899647
 21
6348.693182432328
 31
0.0
  0
LINE
  5
15FC3
330
15CD3
100
AcDbEntity
  8
SUNPOU
100
AcDbLine
 10
4839.127507899648
 20
6393.693182432328
 30
0.0
 11
5199.127507899648
 21
6393.693182432328
 31
0.0
  0
LINE
  5
15FC4
330
15CD3
100
AcDbEntity
  8
SUNPOU
100
AcDbLine
 10
9281.18396929544
 20
4121.229568035242
 30
0.0
 11
9947.049877861269
 21
4121.229568035242
 31
0.0
  0
LINE
  5
15FC5
330
15CD3
100
AcDbEntity
  8
SUNPOU
100
AcDbLine
 10
9281.18396929544
 20
2841.229568035243
 30
0.0
 11
9947.049877861269
 21
2841.229568035243
 31
0.0
  0
LINE
  5
15FC6
330
15CD3
100
AcDbEntity
  8
SUNPOU
100
AcDbLine
 10
9902.049877861269
 20
4101.229568035241
 30
0.0
 11
9902.049877861269
 21
2861.229568035243
 31
0.0
  0
LINE
  5
15FC7
330
15CD3
100
AcDbEntity
  8
SUNPOU
100
AcDbLine
 10
9114.18396929544
 20
4392.607652277646
 30
0.0
 11
9099.18396929544
 21
4392.607652277646
 31
0.0
  0
LINE
  5
15FC8
330
15CD3
100
AcDbEntity
  8
SUNPOU
100
AcDbLine
 10
7528.18396929544
 20
4392.607652277646
 30
0.0
 11
7543.183969295441
 21
4392.607652277646
 31
0.0
  0
LINE
  5
15FC9
330
15CD3
100
AcDbEntity
  8
SUNPOU
100
AcDbLine
 10
7401.183969295438
 20
2801.229568035243
 30
0.0
 11
7401.183969295438
 21
2305.794872196494
 31
0.0
  0
LINE
  5
15FCA
330
15CD3
100
AcDbEntity
  8
SUNPOU
100
AcDbLine
 10
9241.183969295439
 20
2801.229568035243
 30
0.0
 11
9241.183969295439
 21
2305.794872196494
 31
0.0
  0
LINE
  5
15FCB
330
15CD3
100
AcDbEntity
  8
SUNPOU
100
AcDbLine
 10
7421.183969295441
 20
2350.794872196494
 30
0.0
 11
9221.18396929544
 21
2350.794872196494
 31
0.0
  0
LINE
  5
15FCC
330
15CD3
100
AcDbEntity
  8
SUNPOU
100
AcDbLine
 10
6987.922886739172
 20
2968.22956803524
 30
0.0
 11
6987.922886739172
 21
2983.229568035239
 31
0.0
  0
LINE
  5
15FCD
330
15CD3
100
AcDbEntity
  8
SUNPOU
100
AcDbLine
 10
6987.922886739174
 20
3994.229568035241
 30
0.0
 11
6987.922886739174
 21
3979.229568035242
 31
0.0
  0
LINE
  5
15FCE
330
15CD3
100
AcDbEntity
  8
SUNPOU
100
AcDbLine
 10
4689.085149553899
 20
2600.794872196494
 30
0.0
 11
4689.085149553899
 21
2605.794872196494
 31
0.0
  0
LINE
  5
15FCF
330
15CD3
100
AcDbEntity
  8
SUNPOU
100
AcDbLine
 10
5169.0851495539
 20
2899.781787222737
 30
0.0
 11
5169.0851495539
 21
2515.794872196494
 31
0.0
  0
LINE
  5
15FD0
330
15CD3
100
AcDbEntity
  8
SUNPOU
100
AcDbLine
 10
4709.085149553899
 20
2560.794872196494
 30
0.0
 11
5149.085149553901
 21
2560.794872196494
 31
0.0
  0
LINE
  5
15FD1
330
15CD3
100
AcDbEntity
  8
SUNPOU
100
AcDbLine
 10
3329.0851495539
 20
2899.781787222736
 30
0.0
 11
3329.0851495539
 21
2515.794872196494
 31
0.0
  0
LINE
  5
15FD2
330
15CD3
100
AcDbEntity
  8
SUNPOU
100
AcDbLine
 10
4689.085149553899
 20
2600.794872196494
 30
0.0
 11
4689.085149553899
 21
2605.794872196494
 31
0.0
  0
LINE
  5
15FD3
330
15CD3
100
AcDbEntity
  8
SUNPOU
100
AcDbLine
 10
3349.0851495539
 20
2560.794872196494
 30
0.0
 11
4669.085149553899
 21
2560.794872196494
 31
0.0
  0
LINE
  5
15FD4
330
15CD3
100
AcDbEntity
  8
SUNPOU
100
AcDbLine
 10
3329.0851495539
 20
2899.781787222736
 30
0.0
 11
3329.0851495539
 21
2305.794872196494
 31
0.0
  0
LINE
  5
15FD5
330
15CD3
100
AcDbEntity
  8
SUNPOU
100
AcDbLine
 10
5169.0851495539
 20
2899.781787222737
 30
0.0
 11
5169.0851495539
 21
2305.794872196494
 31
0.0
  0
LINE
  5
15FD6
330
15CD3
100
AcDbEntity
  8
SUNPOU
100
AcDbLine
 10
3349.0851495539
 20
2350.794872196494
 30
0.0
 11
5149.085149553901
 21
2350.794872196494
 31
0.0
  0
LINE
  5
15FD7
330
15CD3
100
AcDbEntity
  8
SUNPOU
100
AcDbLine
 10
5209.085149553897
 20
4059.781787222742
 30
0.0
 11
5855.663131394226
 21
4059.781787222742
 31
0.0
  0
LINE
  5
15FD8
330
15CD3
100
AcDbEntity
  8
SUNPOU
100
AcDbLine
 10
4800.365149553894
 20
3259.781787222739
 30
0.0
 11
5855.663131394226
 21
3259.781787222739
 31
0.0
  0
LINE
  5
15FD9
330
15CD3
100
AcDbEntity
  8
SUNPOU
100
AcDbLine
 10
5810.663131394227
 20
4039.781787222741
 30
0.0
 11
5810.663131394227
 21
3279.781787222739
 31
0.0
  0
LINE
  5
15FDA
330
15CD3
100
AcDbEntity
  8
SUNPOU
100
AcDbLine
 10
5369.0851495539
 20
3099.781787222737
 30
0.0
 11
6065.663131394227
 21
3099.781787222737
 31
0.0
  0
LINE
  5
15FDB
330
15CD3
100
AcDbEntity
  8
SUNPOU
100
AcDbLine
 10
5369.0851495539
 20
2939.781787222737
 30
0.0
 11
6065.663131394227
 21
2939.781787222737
 31
0.0
  0
LINE
  5
15FDC
330
15CD3
100
AcDbEntity
  8
SUNPOU
100
AcDbLine
 10
6020.663131394227
 20
3079.781787222737
 30
0.0
 11
6020.663131394227
 21
2959.781787222737
 31
0.0
  0
LINE
  5
15FDD
330
15CD3
100
AcDbEntity
  8
SUNPOU
100
AcDbLine
 10
6020.663131394227
 20
2939.781787222737
 30
0.0
 11
6020.663131394227
 21
2684.067501508452
 31
0.0
  0
LINE
  5
15FDE
330
15CD3
100
AcDbEntity
  8
SUNPOU
100
AcDbLine
 10
5209.085149553897
 20
4059.781787222742
 30
0.0
 11
6065.663131394227
 21
4059.781787222742
 31
0.0
  0
LINE
  5
15FDF
330
15CD3
100
AcDbEntity
  8
SUNPOU
100
AcDbLine
 10
5369.0851495539
 20
3099.781787222741
 30
0.0
 11
6065.663131394227
 21
3099.781787222741
 31
0.0
  0
LINE
  5
15FE0
330
15CD3
100
AcDbEntity
  8
SUNPOU
100
AcDbLine
 10
6020.663131394227
 20
4039.781787222741
 30
0.0
 11
6020.663131394227
 21
3119.781787222741
 31
0.0
  0
TEXT
  5
15FE1
330
15CD3
100
AcDbEntity
  8
SUNPOU
100
AcDbText
 10
7943.698936471074
 20
6228.693182432328
 30
0.0
 40
90.0
  1
L = 2000 × N + 800
 41
0.6666666666666666
  7
00
100
AcDbText
  0
LINE
  5
15FE2
330
15CD3
100
AcDbEntity
  8
SUNPOU
100
AcDbLine
 10
12004.12750789964
 20
6183.693182432328
 30
0.0
 11
11989.12750789964
 21
6183.693182432328
 31
0.0
  0
LINE
  5
15FE3
330
15CD3
100
AcDbEntity
  8
SUNPOU
100
AcDbLine
 10
4834.127507899649
 20
6183.693182432328
 30
0.0
 11
4849.127507899648
 21
6183.693182432328
 31
0.0
  0
TEXT
  5
15FE4
330
15CD3
100
AcDbEntity
  8
SUNPOU
100
AcDbText
 10
12424.12750789964
 20
8907.978896718045
 30
0.0
 40
90.0
  1
300
 50
90.0
 41
0.6666666666666666
  7
00
100
AcDbText
  0
LINE
  5
15FE5
330
15CD3
100
AcDbEntity
  8
SUNPOU
100
AcDbLine
 10
12469.12750789963
 20
9128.693182432327
 30
0.0
 11
12469.12750789963
 21
9113.693182432326
 31
0.0
  0
LINE
  5
15FE6
330
15CD3
100
AcDbEntity
  8
SUNPOU
100
AcDbLine
 10
12469.12750789963
 20
8858.693182432331
 30
0.0
 11
12469.12750789963
 21
8873.693182432331
 31
0.0
  0
TEXT
  5
15FE7
330
15CD3
100
AcDbEntity
  8
SUNPOU
100
AcDbText
 10
12424.12750789964
 20
8332.978896718044
 30
0.0
 40
90.0
  1
850
 50
90.0
 41
0.6666666666666666
  7
00
100
AcDbText
  0
LINE
  5
15FE8
330
15CD3
100
AcDbEntity
  8
SUNPOU
100
AcDbLine
 10
12469.12750789963
 20
8828.693182432331
 30
0.0
 11
12469.12750789963
 21
8813.693182432331
 31
0.0
  0
LINE
  5
15FE9
330
15CD3
100
AcDbEntity
  8
SUNPOU
100
AcDbLine
 10
12469.12750789963
 20
8008.693182432331
 30
0.0
 11
12469.12750789963
 21
8023.69318243233
 31
0.0
  0
TEXT
  5
15FEA
330
15CD3
100
AcDbEntity
  8
SUNPOU
100
AcDbText
 10
12634.12750789964
 20
8450.121753860905
 30
0.0
 40
90.0
  1
1150
 50
90.0
 41
0.6666666666666666
  7
00
100
AcDbText
  0
LINE
  5
15FEB
330
15CD3
100
AcDbEntity
  8
SUNPOU
100
AcDbLine
 10
12679.12750789964
 20
8008.693182432331
 30
0.0
 11
12679.12750789964
 21
8023.69318243233
 31
0.0
  0
LINE
  5
15FEC
330
15CD3
100
AcDbEntity
  8
SUNPOU
100
AcDbLine
 10
12679.12750789964
 20
9128.693182432327
 30
0.0
 11
12679.12750789964
 21
9113.693182432326
 31
0.0
  0
TEXT
  5
15FED
330
15CD3
100
AcDbEntity
  8
SUNPOU
100
AcDbText
 10
11533.41322218536
 20
9488.693182432331
 30
0.0
 40
90.0
  1
800
 41
0.6666666666666666
  7
00
100
AcDbText
  0
LINE
  5
15FEE
330
15CD3
100
AcDbEntity
  8
SUNPOU
100
AcDbLine
 10
12004.12750789964
 20
9443.693182432332
 30
0.0
 11
11989.12750789964
 21
9443.693182432332
 31
0.0
  0
LINE
  5
15FEF
330
15CD3
100
AcDbEntity
  8
SUNPOU
100
AcDbLine
 10
11234.12750789964
 20
9443.693182432332
 30
0.0
 11
11249.12750789964
 21
9443.693182432332
 31
0.0
  0
TEXT
  5
15FF0
330
15CD3
100
AcDbEntity
  8
SUNPOU
100
AcDbText
 10
4324.127507899645
 20
8877.978896718046
 30
0.0
 40
90.0
  1
240
 50
90.0
 41
0.6666666666666666
  7
00
100
AcDbText
  0
LINE
  5
15FF1
330
15CD3
100
AcDbEntity
  8
SUNPOU
100
AcDbLine
 10
4369.127507899647
 20
9098.693182432327
 30
0.0
 11
4369.127507899647
 21
9113.693182432324
 31
0.0
  0
LINE
  5
15FF2
330
15CD3
100
AcDbEntity
  8
SUNPOU
100
AcDbLine
 10
4369.127507899647
 20
8828.693182432331
 30
0.0
 11
4369.127507899647
 21
8813.693182432331
 31
0.0
  0
TEXT
  5
15FF3
330
15CD3
100
AcDbEntity
  8
SUNPOU
100
AcDbText
 10
4324.127507899645
 20
7729.407468146617
 30
0.0
 40
90.0
  1
2000
 50
90.0
 41
0.6666666666666666
  7
00
100
AcDbText
  0
LINE
  5
15FF4
330
15CD3
100
AcDbEntity
  8
SUNPOU
100
AcDbLine
 10
4369.127507899647
 20
8828.693182432331
 30
0.0
 11
4369.127507899647
 21
8813.693182432331
 31
0.0
  0
LINE
  5
15FF5
330
15CD3
100
AcDbEntity
  8
SUNPOU
100
AcDbLine
 10
4369.127507899647
 20
6858.693182432329
 30
0.0
 11
4369.127507899647
 21
6873.693182432328
 31
0.0
  0
TEXT
  5
15FF6
330
15CD3
100
AcDbEntity
  8
SUNPOU
100
AcDbText
 10
11733.41322218536
 20
6438.693182432328
 30
0.0
 40
90.0
  1
400
 41
0.6666666666666666
  7
00
100
AcDbText
  0
LINE
  5
15FF7
330
15CD3
100
AcDbEntity
  8
SUNPOU
100
AcDbLine
 10
12004.12750789964
 20
6393.693182432328
 30
0.0
 11
11989.12750789964
 21
6393.693182432328
 31
0.0
  0
LINE
  5
15FF8
330
15CD3
100
AcDbEntity
  8
SUNPOU
100
AcDbLine
 10
11634.12750789964
 20
6393.693182432328
 30
0.0
 11
11649.12750789964
 21
6393.693182432328
 31
0.0
  0
TEXT
  5
15FF9
330
15CD3
100
AcDbEntity
  8
SUNPOU
100
AcDbText
 10
10504.84179361393
 20
6438.693182432328
 30
0.0
 40
90.0
  1
2000
 41
0.6666666666666666
  7
00
100
AcDbText
  0
LINE
  5
15FFA
330
15CD3
100
AcDbEntity
  8
SUNPOU
100
AcDbLine
 10
11604.12750789964
 20
6393.693182432328
 30
0.0
 11
11589.12750789964
 21
6393.693182432328
 31
0.0
  0
LINE
  5
15FFB
330
15CD3
100
AcDbEntity
  8
SUNPOU
100
AcDbLine
 10
9634.127507899645
 20
6393.693182432328
 30
0.0
 11
9649.127507899644
 21
6393.693182432328
 31
0.0
  0
TEXT
  5
15FFC
330
15CD3
100
AcDbEntity
  8
SUNPOU
100
AcDbText
 10
8023.127507899646
 20
6438.693182432328
 30
0.0
 40
90.0
  1
2000 x （ N - 2 ）
 41
0.6666666666666666
  7
00
100
AcDbText
  0
LINE
  5
15FFD
330
15CD3
100
AcDbEntity
  8
SUNPOU
100
AcDbLine
 10
9604.127507899645
 20
6393.693182432328
 30
0.0
 11
9589.127507899645
 21
6393.693182432328
 31
0.0
  0
LINE
  5
15FFE
330
15CD3
100
AcDbEntity
  8
SUNPOU
100
AcDbLine
 10
7234.127507899649
 20
6393.693182432328
 30
0.0
 11
7249.127507899649
 21
6393.693182432328
 31
0.0
  0
TEXT
  5
15FFF
330
15CD3
100
AcDbEntity
  8
SUNPOU
100
AcDbText
 10
6104.841793613934
 20
6438.693182432328
 30
0.0
 40
90.0
  1
2000
 41
0.6666666666666666
  7
00
100
AcDbText
  0
LINE
  5
16000
330
15CD3
100
AcDbEntity
  8
SUNPOU
100
AcDbLine
 10
7204.127507899646
 20
6393.693182432328
 30
0.0
 11
7189.127507899647
 21
6393.693182432328
 31
0.0
  0
LINE
  5
16001
330
15CD3
100
AcDbEntity
  8
SUNPOU
100
AcDbLine
 10
5234.127507899648
 20
6393.693182432328
 30
0.0
 11
5249.127507899648
 21
6393.693182432328
 31
0.0
  0
TEXT
  5
16002
330
15CD3
100
AcDbEntity
  8
SUNPOU
100
AcDbText
 10
4933.413222185361
 20
6438.693182432328
 30
0.0
 40
90.0
  1
400
 41
0.6666666666666666
  7
00
100
AcDbText
  0
LINE
  5
16003
330
15CD3
100
AcDbEntity
  8
SUNPOU
100
AcDbLine
 10
5204.127507899648
 20
6393.693182432328
 30
0.0
 11
5189.127507899648
 21
6393.693182432328
 31
0.0
  0
LINE
  5
16004
330
15CD3
100
AcDbEntity
  8
SUNPOU
100
AcDbLine
 10
4834.127507899649
 20
6393.693182432328
 30
0.0
 11
4849.127507899648
 21
6393.693182432328
 31
0.0
  0
TEXT
  5
16005
330
15CD3
100
AcDbEntity
  8
SUNPOU
100
AcDbText
 10
9857.049877861269
 20
3395.515282320958
 30
0.0
 40
90.0
  1
800
 50
90.0
 41
0.6666666666666666
  7
00
100
AcDbText
  0
LINE
  5
16006
330
15CD3
100
AcDbEntity
  8
SUNPOU
100
AcDbLine
 10
9902.049877861269
 20
2856.229568035243
 30
0.0
 11
9902.049877861269
 21
2871.229568035243
 31
0.0
  0
LINE
  5
16007
330
15CD3
100
AcDbEntity
  8
SUNPOU
100
AcDbLine
 10
9902.049877861269
 20
4106.22956803524
 30
0.0
 11
9902.049877861269
 21
4091.229568035242
 31
0.0
  0
ARC
  5
16008
330
15CD3
100
AcDbEntity
  8
SUNPOU
100
AcDbCircle
 10
9129.183969295437
 20
4392.607652277646
 30
0.0
 40
7.5
100
AcDbArc
 50
180.0
 51
0.0
  0
ARC
  5
16009
330
15CD3
100
AcDbEntity
  8
SUNPOU
100
AcDbCircle
 10
9129.183969295437
 20
4392.607652277646
 30
0.0
 40
7.5
100
AcDbArc
 50
0.0
 51
180.0
  0
ARC
  5
1600A
330
15CD3
100
AcDbEntity
  8
SUNPOU
100
AcDbCircle
 10
7513.183969295441
 20
4392.607652277646
 30
0.0
 40
7.5
100
AcDbArc
 50
0.0
 51
180.0
  0
ARC
  5
1600B
330
15CD3
100
AcDbEntity
  8
SUNPOU
100
AcDbCircle
 10
7513.183969295441
 20
4392.607652277646
 30
0.0
 40
7.5
100
AcDbArc
 50
180.0
 51
0.0
  0
TEXT
  5
1600C
330
15CD3
100
AcDbEntity
  8
SUNPOU
100
AcDbText
 10
8202.612540724013
 20
2395.794872196494
 30
0.0
 40
90.0
  1
1150
 41
0.6666666666666666
  7
00
100
AcDbText
  0
LINE
  5
1600D
330
15CD3
100
AcDbEntity
  8
SUNPOU
100
AcDbLine
 10
9226.183969295439
 20
2350.794872196494
 30
0.0
 11
9211.18396929544
 21
2350.794872196494
 31
0.0
  0
LINE
  5
1600E
330
15CD3
100
AcDbEntity
  8
SUNPOU
100
AcDbLine
 10
7416.183969295442
 20
2350.794872196494
 30
0.0
 11
7431.183969295442
 21
2350.794872196494
 31
0.0
  0
ARC
  5
1600F
330
15CD3
100
AcDbEntity
  8
SUNPOU
100
AcDbCircle
 10
6987.922886739172
 20
2953.22956803524
 30
0.0
 40
7.5
100
AcDbArc
 50
90.0
 51
270.0
  0
ARC
  5
16010
330
15CD3
100
AcDbEntity
  8
SUNPOU
100
AcDbCircle
 10
6987.922886739172
 20
2953.22956803524
 30
0.0
 40
7.5
100
AcDbArc
 50
270.0
 51
90.0
  0
ARC
  5
16011
330
15CD3
100
AcDbEntity
  8
SUNPOU
100
AcDbCircle
 10
6987.922886739174
 20
4009.229568035242
 30
0.0
 40
7.5
100
AcDbArc
 50
270.0
 51
90.0
  0
ARC
  5
16012
330
15CD3
100
AcDbEntity
  8
SUNPOU
100
AcDbCircle
 10
6987.922886739174
 20
4009.229568035242
 30
0.0
 40
7.5
100
AcDbArc
 50
90.0
 51
270.0
  0
TEXT
  5
16013
330
15CD3
100
AcDbEntity
  8
SUNPOU
100
AcDbText
 10
4843.370863839615
 20
2605.794872196494
 30
0.0
 40
90.0
  1
300
 41
0.6666666666666666
  7
00
100
AcDbText
  0
LINE
  5
16014
330
15CD3
100
AcDbEntity
  8
SUNPOU
100
AcDbLine
 10
5154.085149553901
 20
2560.794872196494
 30
0.0
 11
5139.085149553901
 21
2560.794872196494
 31
0.0
  0
LINE
  5
16015
330
15CD3
100
AcDbEntity
  8
SUNPOU
100
AcDbLine
 10
4704.0851495539
 20
2560.794872196494
 30
0.0
 11
4719.085149553899
 21
2560.794872196494
 31
0.0
  0
TEXT
  5
16016
330
15CD3
100
AcDbEntity
  8
SUNPOU
100
AcDbText
 10
3923.370863839613
 20
2605.794872196494
 30
0.0
 40
90.0
  1
850
 41
0.6666666666666666
  7
00
100
AcDbText
  0
LINE
  5
16017
330
15CD3
100
AcDbEntity
  8
SUNPOU
100
AcDbLine
 10
4674.085149553897
 20
2560.794872196494
 30
0.0
 11
4659.085149553899
 21
2560.794872196494
 31
0.0
  0
LINE
  5
16018
330
15CD3
100
AcDbEntity
  8
SUNPOU
100
AcDbLine
 10
3344.0851495539
 20
2560.794872196494
 30
0.0
 11
3359.0851495539
 21
2560.794872196494
 31
0.0
  0
TEXT
  5
16019
330
15CD3
100
AcDbEntity
  8
SUNPOU
100
AcDbText
 10
4130.513720982473
 20
2395.794872196494
 30
0.0
 40
90.0
  1
1150
 41
0.6666666666666666
  7
00
100
AcDbText
  0
LINE
  5
1601A
330
15CD3
100
AcDbEntity
  8
SUNPOU
100
AcDbLine
 10
5154.085149553901
 20
2350.794872196494
 30
0.0
 11
5139.085149553901
 21
2350.794872196494
 31
0.0
  0
LINE
  5
1601B
330
15CD3
100
AcDbEntity
  8
SUNPOU
100
AcDbLine
 10
3344.0851495539
 20
2350.794872196494
 30
0.0
 11
3359.0851495539
 21
2350.794872196494
 31
0.0
  0
TEXT
  5
1601C
330
15CD3
100
AcDbEntity
  8
SUNPOU
100
AcDbText
 10
5765.663131394227
 20
3574.067501508455
 30
0.0
 40
90.0
  1
500
 50
90.0
 41
0.6666666666666666
  7
00
100
AcDbText
  0
LINE
  5
1601D
330
15CD3
100
AcDbEntity
  8
SUNPOU
100
AcDbLine
 10
5810.663131394227
 20
3274.781787222739
 30
0.0
 11
5810.663131394227
 21
3289.781787222739
 31
0.0
  0
LINE
  5
1601E
330
15CD3
100
AcDbEntity
  8
SUNPOU
100
AcDbLine
 10
5810.663131394227
 20
4044.781787222741
 30
0.0
 11
5810.663131394227
 21
4029.781787222741
 31
0.0
  0
TEXT
  5
1601F
330
15CD3
100
AcDbEntity
  8
SUNPOU
100
AcDbText
 10
5975.663131394227
 20
2711.924644365596
 30
0.0
 40
90.0
  1
100
 50
90.0
 41
0.6666666666666666
  7
00
100
AcDbText
  0
LINE
  5
16020
330
15CD3
100
AcDbEntity
  8
SUNPOU
100
AcDbLine
 10
6020.663131394227
 20
2954.781787222737
 30
0.0
 11
6020.663131394227
 21
2969.781787222737
 31
0.0
  0
LINE
  5
16021
330
15CD3
100
AcDbEntity
  8
SUNPOU
100
AcDbLine
 10
6020.663131394227
 20
3084.781787222737
 30
0.0
 11
6020.663131394227
 21
3069.781787222737
 31
0.0
  0
TEXT
  5
16022
330
15CD3
100
AcDbEntity
  8
SUNPOU
100
AcDbText
 10
5975.663131394227
 20
3492.638930079885
 30
0.0
 40
90.0
  1
600
 50
90.0
 41
0.6666666666666666
  7
00
100
AcDbText
  0
LINE
  5
16023
330
15CD3
100
AcDbEntity
  8
SUNPOU
100
AcDbLine
 10
6020.663131394227
 20
3114.781787222741
 30
0.0
 11
6020.663131394227
 21
3129.781787222741
 31
0.0
  0
LINE
  5
16024
330
15CD3
100
AcDbEntity
  8
SUNPOU
100
AcDbLine
 10
6020.663131394227
 20
4044.781787222741
 30
0.0
 11
6020.663131394227
 21
4029.781787222741
 31
0.0
  0
ARC
  5
16025
330
15CD3
100
AcDbEntity
  8
SUNPOU
100
AcDbCircle
 10
12019.12750789964
 20
6183.693182432328
 30
0.0
 40
7.5
100
AcDbArc
 50
180.0
 51
0.0
  0
ARC
  5
16026
330
15CD3
100
AcDbEntity
  8
SUNPOU
100
AcDbCircle
 10
12019.12750789964
 20
6183.693182432328
 30
0.0
 40
7.5
100
AcDbArc
 50
0.0
 51
180.0
  0
ARC
  5
16027
330
15CD3
100
AcDbEntity
  8
SUNPOU
100
AcDbCircle
 10
4819.127507899649
 20
6183.693182432328
 30
0.0
 40
7.5
100
AcDbArc
 50
0.0
 51
180.0
  0
ARC
  5
16028
330
15CD3
100
AcDbEntity
  8
SUNPOU
100
AcDbCircle
 10
4819.127507899649
 20
6183.693182432328
 30
0.0
 40
7.5
100
AcDbArc
 50
180.0
 51
0.0
  0
ARC
  5
16029
330
15CD3
100
AcDbEntity
  8
SUNPOU
100
AcDbCircle
 10
12469.12750789963
 20
9143.693182432327
 30
0.0
 40
7.5
100
AcDbArc
 50
270.0
 51
90.0
  0
ARC
  5
1602A
330
15CD3
100
AcDbEntity
  8
SUNPOU
100
AcDbCircle
 10
12469.12750789963
 20
9143.693182432327
 30
0.0
 40
7.5
100
AcDbArc
 50
90.0
 51
270.0
  0
ARC
  5
1602B
330
15CD3
100
AcDbEntity
  8
SUNPOU
100
AcDbCircle
 10
12469.12750789963
 20
8843.69318243233
 30
0.0
 40
7.5
100
AcDbArc
 50
90.0
 51
270.0
  0
ARC
  5
1602C
330
15CD3
100
AcDbEntity
  8
SUNPOU
100
AcDbCircle
 10
12469.12750789963
 20
8843.69318243233
 30
0.0
 40
7.5
100
AcDbArc
 50
270.0
 51
90.0
  0
ARC
  5
1602D
330
15CD3
100
AcDbEntity
  8
SUNPOU
100
AcDbCircle
 10
12469.12750789963
 20
8843.69318243233
 30
0.0
 40
7.5
100
AcDbArc
 50
270.0
 51
90.0
  0
ARC
  5
1602E
330
15CD3
100
AcDbEntity
  8
SUNPOU
100
AcDbCircle
 10
12469.12750789963
 20
8843.69318243233
 30
0.0
 40
7.5
100
AcDbArc
 50
90.0
 51
270.0
  0
ARC
  5
1602F
330
15CD3
100
AcDbEntity
  8
SUNPOU
100
AcDbCircle
 10
12469.12750789963
 20
7993.69318243233
 30
0.0
 40
7.5
100
AcDbArc
 50
90.0
 51
270.0
  0
ARC
  5
16030
330
15CD3
100
AcDbEntity
  8
SUNPOU
100
AcDbCircle
 10
12469.12750789963
 20
7993.69318243233
 30
0.0
 40
7.5
100
AcDbArc
 50
270.0
 51
90.0
  0
ARC
  5
16031
330
15CD3
100
AcDbEntity
  8
SUNPOU
100
AcDbCircle
 10
12679.12750789964
 20
7993.69318243233
 30
0.0
 40
7.5
100
AcDbArc
 50
90.0
 51
270.0
  0
ARC
  5
16032
330
15CD3
100
AcDbEntity
  8
SUNPOU
100
AcDbCircle
 10
12679.12750789964
 20
7993.69318243233
 30
0.0
 40
7.5
100
AcDbArc
 50
270.0
 51
90.0
  0
ARC
  5
16033
330
15CD3
100
AcDbEntity
  8
SUNPOU
100
AcDbCircle
 10
12679.12750789964
 20
9143.693182432327
 30
0.0
 40
7.5
100
AcDbArc
 50
270.0
 51
90.0
  0
ARC
  5
16034
330
15CD3
100
AcDbEntity
  8
SUNPOU
100
AcDbCircle
 10
12679.12750789964
 20
9143.693182432327
 30
0.0
 40
7.5
100
AcDbArc
 50
90.0
 51
270.0
  0
ARC
  5
16035
330
15CD3
100
AcDbEntity
  8
SUNPOU
100
AcDbCircle
 10
12019.12750789964
 20
9443.693182432332
 30
0.0
 40
7.5
100
AcDbArc
 50
180.0
 51
0.0
  0
ARC
  5
16036
330
15CD3
100
AcDbEntity
  8
SUNPOU
100
AcDbCircle
 10
12019.12750789964
 20
9443.693182432332
 30
0.0
 40
7.5
100
AcDbArc
 50
0.0
 51
180.0
  0
ARC
  5
16037
330
15CD3
100
AcDbEntity
  8
SUNPOU
100
AcDbCircle
 10
11219.12750789963
 20
9443.693182432332
 30
0.0
 40
7.5
100
AcDbArc
 50
0.0
 51
180.0
  0
ARC
  5
16038
330
15CD3
100
AcDbEntity
  8
SUNPOU
100
AcDbCircle
 10
11219.12750789963
 20
9443.693182432332
 30
0.0
 40
7.5
100
AcDbArc
 50
180.0
 51
0.0
  0
ARC
  5
16039
330
15CD3
100
AcDbEntity
  8
SUNPOU
100
AcDbCircle
 10
4369.127507899647
 20
9083.693182432327
 30
0.0
 40
7.5
100
AcDbArc
 50
90.0
 51
270.0
  0
ARC
  5
1603A
330
15CD3
100
AcDbEntity
  8
SUNPOU
100
AcDbCircle
 10
4369.127507899647
 20
9083.693182432327
 30
0.0
 40
7.5
100
AcDbArc
 50
270.0
 51
90.0
  0
ARC
  5
1603B
330
15CD3
100
AcDbEntity
  8
SUNPOU
100
AcDbCircle
 10
4369.127507899647
 20
8843.69318243233
 30
0.0
 40
7.5
100
AcDbArc
 50
270.0
 51
90.0
  0
ARC
  5
1603C
330
15CD3
100
AcDbEntity
  8
SUNPOU
100
AcDbCircle
 10
4369.127507899647
 20
8843.69318243233
 30
0.0
 40
7.5
100
AcDbArc
 50
90.0
 51
270.0
  0
ARC
  5
1603D
330
15CD3
100
AcDbEntity
  8
SUNPOU
100
AcDbCircle
 10
4369.127507899647
 20
8843.69318243233
 30
0.0
 40
7.5
100
AcDbArc
 50
270.0
 51
90.0
  0
ARC
  5
1603E
330
15CD3
100
AcDbEntity
  8
SUNPOU
100
AcDbCircle
 10
4369.127507899647
 20
8843.69318243233
 30
0.0
 40
7.5
100
AcDbArc
 50
90.0
 51
270.0
  0
ARC
  5
1603F
330
15CD3
100
AcDbEntity
  8
SUNPOU
100
AcDbCircle
 10
4369.127507899647
 20
6843.693182432328
 30
0.0
 40
7.5
100
AcDbArc
 50
90.0
 51
270.0
  0
ARC
  5
16040
330
15CD3
100
AcDbEntity
  8
SUNPOU
100
AcDbCircle
 10
4369.127507899647
 20
6843.693182432328
 30
0.0
 40
7.5
100
AcDbArc
 50
270.0
 51
90.0
  0
ARC
  5
16041
330
15CD3
100
AcDbEntity
  8
SUNPOU
100
AcDbCircle
 10
12019.12750789964
 20
6393.693182432328
 30
0.0
 40
7.5
100
AcDbArc
 50
180.0
 51
0.0
  0
ARC
  5
16042
330
15CD3
100
AcDbEntity
  8
SUNPOU
100
AcDbCircle
 10
12019.12750789964
 20
6393.693182432328
 30
0.0
 40
7.5
100
AcDbArc
 50
0.0
 51
180.0
  0
ARC
  5
16043
330
15CD3
100
AcDbEntity
  8
SUNPOU
100
AcDbCircle
 10
11619.12750789964
 20
6393.693182432328
 30
0.0
 40
7.5
100
AcDbArc
 50
0.0
 51
180.0
  0
ARC
  5
16044
330
15CD3
100
AcDbEntity
  8
SUNPOU
100
AcDbCircle
 10
11619.12750789964
 20
6393.693182432328
 30
0.0
 40
7.5
100
AcDbArc
 50
180.0
 51
0.0
  0
ARC
  5
16045
330
15CD3
100
AcDbEntity
  8
SUNPOU
100
AcDbCircle
 10
11619.12750789964
 20
6393.693182432328
 30
0.0
 40
7.5
100
AcDbArc
 50
180.0
 51
0.0
  0
ARC
  5
16046
330
15CD3
100
AcDbEntity
  8
SUNPOU
100
AcDbCircle
 10
11619.12750789964
 20
6393.693182432328
 30
0.0
 40
7.5
100
AcDbArc
 50
0.0
 51
180.0
  0
ARC
  5
16047
330
15CD3
100
AcDbEntity
  8
SUNPOU
100
AcDbCircle
 10
9619.127507899644
 20
6393.693182432328
 30
0.0
 40
7.5
100
AcDbArc
 50
0.0
 51
180.0
  0
ARC
  5
16048
330
15CD3
100
AcDbEntity
  8
SUNPOU
100
AcDbCircle
 10
9619.127507899644
 20
6393.693182432328
 30
0.0
 40
7.5
100
AcDbArc
 50
180.0
 51
0.0
  0
ARC
  5
16049
330
15CD3
100
AcDbEntity
  8
SUNPOU
100
AcDbCircle
 10
9619.127507899644
 20
6393.693182432328
 30
0.0
 40
7.5
100
AcDbArc
 50
180.0
 51
0.0
  0
ARC
  5
1604A
330
15CD3
100
AcDbEntity
  8
SUNPOU
100
AcDbCircle
 10
9619.127507899644
 20
6393.693182432328
 30
0.0
 40
7.5
100
AcDbArc
 50
0.0
 51
180.0
  0
ARC
  5
1604B
330
15CD3
100
AcDbEntity
  8
SUNPOU
100
AcDbCircle
 10
7219.127507899648
 20
6393.693182432328
 30
0.0
 40
7.5
100
AcDbArc
 50
0.0
 51
180.0
  0
ARC
  5
1604C
330
15CD3
100
AcDbEntity
  8
SUNPOU
100
AcDbCircle
 10
7219.127507899648
 20
6393.693182432328
 30
0.0
 40
7.5
100
AcDbArc
 50
180.0
 51
0.0
  0
ARC
  5
1604D
330
15CD3
100
AcDbEntity
  8
SUNPOU
100
AcDbCircle
 10
7219.127507899648
 20
6393.693182432328
 30
0.0
 40
7.5
100
AcDbArc
 50
180.0
 51
0.0
  0
ARC
  5
1604E
330
15CD3
100
AcDbEntity
  8
SUNPOU
100
AcDbCircle
 10
7219.127507899648
 20
6393.693182432328
 30
0.0
 40
7.5
100
AcDbArc
 50
0.0
 51
180.0
  0
ARC
  5
1604F
330
15CD3
100
AcDbEntity
  8
SUNPOU
100
AcDbCircle
 10
5219.127507899647
 20
6393.693182432328
 30
0.0
 40
7.5
100
AcDbArc
 50
0.0
 51
180.0
  0
ARC
  5
16050
330
15CD3
100
AcDbEntity
  8
SUNPOU
100
AcDbCircle
 10
5219.127507899647
 20
6393.693182432328
 30
0.0
 40
7.5
100
AcDbArc
 50
180.0
 51
0.0
  0
ARC
  5
16051
330
15CD3
100
AcDbEntity
  8
SUNPOU
100
AcDbCircle
 10
5219.127507899647
 20
6393.693182432328
 30
0.0
 40
7.5
100
AcDbArc
 50
180.0
 51
0.0
  0
ARC
  5
16052
330
15CD3
100
AcDbEntity
  8
SUNPOU
100
AcDbCircle
 10
5219.127507899647
 20
6393.693182432328
 30
0.0
 40
7.5
100
AcDbArc
 50
0.0
 51
180.0
  0
ARC
  5
16053
330
15CD3
100
AcDbEntity
  8
SUNPOU
100
AcDbCircle
 10
4819.127507899649
 20
6393.693182432328
 30
0.0
 40
7.5
100
AcDbArc
 50
0.0
 51
180.0
  0
ARC
  5
16054
330
15CD3
100
AcDbEntity
  8
SUNPOU
100
AcDbCircle
 10
4819.127507899649
 20
6393.693182432328
 30
0.0
 40
7.5
100
AcDbArc
 50
180.0
 51
0.0
  0
ARC
  5
16055
330
15CD3
100
AcDbEntity
  8
SUNPOU
100
AcDbCircle
 10
9902.049877861269
 20
2841.229568035243
 30
0.0
 40
7.5
100
AcDbArc
 50
90.0
 51
270.0
  0
ARC
  5
16056
330
15CD3
100
AcDbEntity
  8
SUNPOU
100
AcDbCircle
 10
9902.049877861269
 20
2841.229568035243
 30
0.0
 40
7.5
100
AcDbArc
 50
270.0
 51
90.0
  0
ARC
  5
16057
330
15CD3
100
AcDbEntity
  8
SUNPOU
100
AcDbCircle
 10
9902.049877861269
 20
4121.229568035242
 30
0.0
 40
7.5
100
AcDbArc
 50
270.0
 51
90.0
  0
ARC
  5
16058
330
15CD3
100
AcDbEntity
  8
SUNPOU
100
AcDbCircle
 10
9902.049877861269
 20
4121.229568035242
 30
0.0
 40
7.5
100
AcDbArc
 50
90.0
 51
270.0
  0
ARC
  5
16059
330
15CD3
100
AcDbEntity
  8
SUNPOU
100
AcDbCircle
 10
9241.183969295439
 20
2350.794872196494
 30
0.0
 40
7.5
100
AcDbArc
 50
180.0
 51
0.0
  0
ARC
  5
1605A
330
15CD3
100
AcDbEntity
  8
SUNPOU
100
AcDbCircle
 10
9241.183969295439
 20
2350.794872196494
 30
0.0
 40
7.5
100
AcDbArc
 50
0.0
 51
180.0
  0
ARC
  5
1605B
330
15CD3
100
AcDbEntity
  8
SUNPOU
100
AcDbCircle
 10
7401.183969295438
 20
2350.794872196494
 30
0.0
 40
7.5
100
AcDbArc
 50
0.0
 51
180.0
  0
ARC
  5
1605C
330
15CD3
100
AcDbEntity
  8
SUNPOU
100
AcDbCircle
 10
7401.183969295438
 20
2350.794872196494
 30
0.0
 40
7.5
100
AcDbArc
 50
180.0
 51
0.0
  0
ARC
  5
1605D
330
15CD3
100
AcDbEntity
  8
SUNPOU
100
AcDbCircle
 10
5169.0851495539
 20
2560.794872196494
 30
0.0
 40
7.5
100
AcDbArc
 50
180.0
 51
0.0
  0
ARC
  5
1605E
330
15CD3
100
AcDbEntity
  8
SUNPOU
100
AcDbCircle
 10
5169.0851495539
 20
2560.794872196494
 30
0.0
 40
7.5
100
AcDbArc
 50
0.0
 51
180.0
  0
ARC
  5
1605F
330
15CD3
100
AcDbEntity
  8
SUNPOU
100
AcDbCircle
 10
4689.085149553899
 20
2560.794872196494
 30
0.0
 40
7.5
100
AcDbArc
 50
0.0
 51
180.0
  0
ARC
  5
16060
330
15CD3
100
AcDbEntity
  8
SUNPOU
100
AcDbCircle
 10
4689.085149553899
 20
2560.794872196494
 30
0.0
 40
7.5
100
AcDbArc
 50
180.0
 51
0.0
  0
ARC
  5
16061
330
15CD3
100
AcDbEntity
  8
SUNPOU
100
AcDbCircle
 10
4689.085149553899
 20
2560.794872196494
 30
0.0
 40
7.5
100
AcDbArc
 50
180.0
 51
0.0
  0
ARC
  5
16062
330
15CD3
100
AcDbEntity
  8
SUNPOU
100
AcDbCircle
 10
4689.085149553899
 20
2560.794872196494
 30
0.0
 40
7.5
100
AcDbArc
 50
0.0
 51
180.0
  0
ARC
  5
16063
330
15CD3
100
AcDbEntity
  8
SUNPOU
100
AcDbCircle
 10
3329.0851495539
 20
2560.794872196494
 30
0.0
 40
7.5
100
AcDbArc
 50
0.0
 51
180.0
  0
ARC
  5
16064
330
15CD3
100
AcDbEntity
  8
SUNPOU
100
AcDbCircle
 10
3329.0851495539
 20
2560.794872196494
 30
0.0
 40
7.5
100
AcDbArc
 50
180.0
 51
0.0
  0
ARC
  5
16065
330
15CD3
100
AcDbEntity
  8
SUNPOU
100
AcDbCircle
 10
5169.0851495539
 20
2350.794872196494
 30
0.0
 40
7.5
100
AcDbArc
 50
180.0
 51
0.0
  0
ARC
  5
16066
330
15CD3
100
AcDbEntity
  8
SUNPOU
100
AcDbCircle
 10
5169.0851495539
 20
2350.794872196494
 30
0.0
 40
7.5
100
AcDbArc
 50
0.0
 51
180.0
  0
ARC
  5
16067
330
15CD3
100
AcDbEntity
  8
SUNPOU
100
AcDbCircle
 10
3329.0851495539
 20
2350.794872196494
 30
0.0
 40
7.5
100
AcDbArc
 50
0.0
 51
180.0
  0
ARC
  5
16068
330
15CD3
100
AcDbEntity
  8
SUNPOU
100
AcDbCircle
 10
3329.0851495539
 20
2350.794872196494
 30
0.0
 40
7.5
100
AcDbArc
 50
180.0
 51
0.0
  0
ARC
  5
16069
330
15CD3
100
AcDbEntity
  8
SUNPOU
100
AcDbCircle
 10
5810.663131394227
 20
3259.781787222739
 30
0.0
 40
7.5
100
AcDbArc
 50
90.0
 51
270.0
  0
ARC
  5
1606A
330
15CD3
100
AcDbEntity
  8
SUNPOU
100
AcDbCircle
 10
5810.663131394227
 20
3259.781787222739
 30
0.0
 40
7.5
100
AcDbArc
 50
270.0
 51
90.0
  0
ARC
  5
1606B
330
15CD3
100
AcDbEntity
  8
SUNPOU
100
AcDbCircle
 10
5810.663131394227
 20
4059.781787222742
 30
0.0
 40
7.5
100
AcDbArc
 50
270.0
 51
90.0
  0
ARC
  5
1606C
330
15CD3
100
AcDbEntity
  8
SUNPOU
100
AcDbCircle
 10
5810.663131394227
 20
4059.781787222742
 30
0.0
 40
7.5
100
AcDbArc
 50
90.0
 51
270.0
  0
ARC
  5
1606D
330
15CD3
100
AcDbEntity
  8
SUNPOU
100
AcDbCircle
 10
6020.663131394227
 20
2939.781787222737
 30
0.0
 40
7.5
100
AcDbArc
 50
90.0
 51
270.0
  0
ARC
  5
1606E
330
15CD3
100
AcDbEntity
  8
SUNPOU
100
AcDbCircle
 10
6020.663131394227
 20
2939.781787222737
 30
0.0
 40
7.5
100
AcDbArc
 50
270.0
 51
90.0
  0
ARC
  5
1606F
330
15CD3
100
AcDbEntity
  8
SUNPOU
100
AcDbCircle
 10
6020.663131394227
 20
3099.781787222737
 30
0.0
 40
7.5
100
AcDbArc
 50
270.0
 51
90.0
  0
ARC
  5
16070
330
15CD3
100
AcDbEntity
  8
SUNPOU
100
AcDbCircle
 10
6020.663131394227
 20
3099.781787222737
 30
0.0
 40
7.5
100
AcDbArc
 50
90.0
 51
270.0
  0
ARC
  5
16071
330
15CD3
100
AcDbEntity
  8
SUNPOU
100
AcDbCircle
 10
6020.663131394227
 20
3099.781787222741
 30
0.0
 40
7.5
100
AcDbArc
 50
90.0
 51
270.0
  0
ARC
  5
16072
330
15CD3
100
AcDbEntity
  8
SUNPOU
100
AcDbCircle
 10
6020.663131394227
 20
3099.781787222741
 30
0.0
 40
7.5
100
AcDbArc
 50
270.0
 51
90.0
  0
ARC
  5
16073
330
15CD3
100
AcDbEntity
  8
SUNPOU
100
AcDbCircle
 10
6020.663131394227
 20
4059.781787222742
 30
0.0
 40
7.5
100
AcDbArc
 50
270.0
 51
90.0
  0
ARC
  5
16074
330
15CD3
100
AcDbEntity
  8
SUNPOU
100
AcDbCircle
 10
6020.663131394227
 20
4059.781787222742
 30
0.0
 40
7.5
100
AcDbArc
 50
90.0
 51
270.0
  0
ARC
  5
16075
330
15CD3
100
AcDbEntity
  8
HIKIDASHI
100
AcDbCircle
 10
3048.866612263724
 20
2668.78416500276
 30
0.0
 40
75.00000000001334
100
AcDbArc
 50
301.7712278330566
 51
15.14038701489555
  0
ARC
  5
16076
330
15CD3
100
AcDbEntity
  8
HIKIDASHI
100
AcDbCircle
 10
3112.575670751004
 20
2686.022374499893
 30
0.0
 40
8.999999999992452
100
AcDbArc
 50
15.14038701506128
 51
164.8596129849863
  0
ARC
  5
16077
330
15CD3
100
AcDbEntity
  8
HIKIDASHI
100
AcDbCircle
 10
3176.284729238263
 20
2668.784165002735
 30
0.0
 40
74.99999999999909
100
AcDbArc
 50
164.8596129850878
 51
238.2287721669164
  0
LINE
  5
16078
330
15CD3
100
AcDbEntity
  8
HIKIDASHI
100
AcDbLine
 10
11678.48719050568
 20
8930.336881458343
 30
0.0
 11
11647.6913740713
 21
8877.881017247176
 31
0.0
  0
LINE
  5
16079
330
15CD3
100
AcDbEntity
  8
HIKIDASHI
100
AcDbLine
 10
11647.6913740713
 20
8877.881017247176
 30
0.0
 11
11693.83526449663
 21
8917.513596981725
 31
0.0
  0
SOLID
  5
1607A
330
15CD3
100
AcDbEntity
  8
HIKIDASHI
100
AcDbTrace
 10
11678.48719050568
 20
8930.336881458343
 30
0.0
 11
11693.83526449663
 21
8917.513596981725
 31
0.0
 12
11647.6913740713
 22
8877.881017247176
 32
0.0
 13
11647.6913740713
 23
8877.881017247176
 33
0.0
  0
LINE
  5
1607B
330
15CD3
100
AcDbEntity
  8
HIKIDASHI
100
AcDbLine
 10
11693.83526449663
 20
8917.513596981725
 30
0.0
 11
11678.48719050568
 21
8930.336881458343
 31
0.0
  0
LINE
  5
1607C
330
15CD3
100
AcDbEntity
  8
HIKIDASHI
100
AcDbLine
 10
4462.613175879349
 20
3387.905299769601
 30
0.0
 11
3143.658082657461
 21
2560.794872196494
 31
0.0
1001
ACAD
1000
DSTYLE
1002
{
1070
   147
1040
1.125
1070
    77
1070
     0
1002
}
  0
LINE
  5
1607D
330
15CD3
100
AcDbEntity
  8
HIKIDASHI
100
AcDbLine
 10
4467.925923788206
 20
3379.433304157177
 30
0.0
 11
4513.445149553898
 21
3419.781787222739
 31
0.0
  0
LINE
  5
1607E
330
15CD3
100
AcDbEntity
  8
HIKIDASHI
100
AcDbLine
 10
4513.445149553898
 20
3419.781787222739
 30
0.0
 11
4457.300427970493
 21
3396.377295382026
 31
0.0
  0
SOLID
  5
1607F
330
15CD3
100
AcDbEntity
  8
HIKIDASHI
100
AcDbTrace
 10
4467.925923788206
 20
3379.433304157177
 30
0.0
 11
4457.300427970493
 21
3396.377295382026
 31
0.0
 12
4513.445149553898
 22
3419.781787222739
 32
0.0
 13
4513.445149553898
 23
3419.781787222739
 33
0.0
  0
LINE
  5
16080
330
15CD3
100
AcDbEntity
  8
HIKIDASHI
100
AcDbLine
 10
4457.300427970493
 20
3396.377295382026
 30
0.0
 11
4467.925923788206
 21
3379.433304157177
 31
0.0
  0
LINE
  5
16081
330
15CD3
100
AcDbEntity
  8
HIKIDASHI
100
AcDbLine
 10
4883.877709080239
 20
3429.866582966758
 30
0.0
 11
5471.156148132628
 21
2227.210470688615
 31
0.0
1001
ACAD
1000
DSTYLE
1002
{
1070
   147
1040
1.125
1070
    77
1070
     0
1002
}
  0
LINE
  5
16082
330
15CD3
100
AcDbEntity
  8
HIKIDASHI
100
AcDbLine
 10
4892.863576456237
 20
3434.254542344531
 30
0.0
 11
4857.549952813599
 21
3483.781787222742
 31
0.0
  0
LINE
  5
16083
330
15CD3
100
AcDbEntity
  8
HIKIDASHI
100
AcDbLine
 10
4857.549952813599
 20
3483.781787222742
 30
0.0
 11
4874.891841704243
 21
3425.478623588985
 31
0.0
  0
SOLID
  5
16084
330
15CD3
100
AcDbEntity
  8
HIKIDASHI
100
AcDbTrace
 10
4892.863576456237
 20
3434.254542344531
 30
0.0
 11
4874.891841704243
 21
3425.478623588985
 31
0.0
 12
4857.549952813599
 22
3483.781787222742
 32
0.0
 13
4857.549952813599
 23
3483.781787222742
 33
0.0
  0
LINE
  5
16085
330
15CD3
100
AcDbEntity
  8
HIKIDASHI
100
AcDbLine
 10
4874.891841704243
 20
3425.478623588985
 30
0.0
 11
4892.863576456237
 21
3434.254542344531
 31
0.0
  0
LINE
  5
16086
330
15CD3
100
AcDbEntity
  8
HIKIDASHI
100
AcDbLine
 10
5034.939329657031
 20
3512.017826900991
 30
0.0
 11
5548.071756969118
 21
2437.414486924467
 31
0.0
1001
ACAD
1000
DSTYLE
1002
{
1070
   147
1040
1.125
1070
    77
1070
     0
1002
}
  0
LINE
  5
16087
330
15CD3
100
AcDbEntity
  8
HIKIDASHI
100
AcDbLine
 10
5043.963312165377
 20
3516.32685691818
 30
0.0
 11
5009.085149553897
 21
3566.161721951078
 31
0.0
  0
LINE
  5
16088
330
15CD3
100
AcDbEntity
  8
HIKIDASHI
100
AcDbLine
 10
5009.085149553897
 20
3566.161721951078
 30
0.0
 11
5025.915347148682
 21
3507.708796883801
 31
0.0
  0
SOLID
  5
16089
330
15CD3
100
AcDbEntity
  8
HIKIDASHI
100
AcDbTrace
 10
5043.963312165377
 20
3516.32685691818
 30
0.0
 11
5025.915347148682
 21
3507.708796883801
 31
0.0
 12
5009.085149553897
 22
3566.161721951078
 32
0.0
 13
5009.085149553897
 23
3566.161721951078
 33
0.0
  0
LINE
  5
1608A
330
15CD3
100
AcDbEntity
  8
HIKIDASHI
100
AcDbLine
 10
5025.915347148682
 20
3507.708796883801
 30
0.0
 11
5043.963312165377
 21
3516.32685691818
 31
0.0
  0
LINE
  5
1608B
330
15CD3
100
AcDbEntity
  8
KISO
100
AcDbLine
 10
7401.183969295438
 20
2841.229568035243
 30
0.0
 11
9241.183969295439
 21
2841.229568035243
 31
0.0
  0
LINE
  5
1608C
330
15CD3
100
AcDbEntity
  8
KISO
100
AcDbLine
 10
9241.183969295439
 20
2841.229568035243
 30
0.0
 11
9241.183969295439
 21
4121.229568035242
 31
0.0
  0
LINE
  5
1608D
330
15CD3
100
AcDbEntity
  8
KISO
100
AcDbLine
 10
9241.183969295439
 20
4121.229568035242
 30
0.0
 11
7401.183969295438
 21
4121.229568035242
 31
0.0
  0
LINE
  5
1608E
330
15CD3
100
AcDbEntity
  8
KISO
100
AcDbLine
 10
7401.183969295438
 20
4121.229568035242
 30
0.0
 11
7401.183969295438
 21
2841.229568035243
 31
0.0
  0
LINE
  5
1608F
330
15CD3
100
AcDbEntity
  8
HATCH
100
AcDbLine
 10
3249.571744342559
 20
2939.781787222736
 30
0.0
 11
3341.947787412895
 21
3099.781787222727
 31
0.0
  0
LINE
  5
16090
330
15CD3
100
AcDbEntity
  8
HATCH
100
AcDbLine
 10
3277.947787412897
 20
3099.781787222726
 30
0.0
 11
3309.947787412896
 21
3044.356161380529
 31
0.0
  0
LINE
  5
16091
330
15CD3
100
AcDbEntity
  8
HATCH
100
AcDbLine
 10
3281.571744342557
 20
2995.207413064939
 30
0.0
 11
3313.571744342556
 21
2939.781787222736
 31
0.0
  0
LINE
  5
16092
330
15CD3
100
AcDbEntity
  8
HATCH
100
AcDbLine
 10
4913.588197427411
 20
2939.781787222736
 30
0.0
 11
5005.964240497745
 21
3099.781787222727
 31
0.0
  0
LINE
  5
16093
330
15CD3
100
AcDbEntity
  8
HATCH
100
AcDbLine
 10
4941.96424049775
 20
3099.781787222726
 30
0.0
 11
4973.964240497746
 21
3044.356161380529
 31
0.0
  0
LINE
  5
16094
330
15CD3
100
AcDbEntity
  8
HATCH
100
AcDbLine
 10
4945.588197427408
 20
2995.207413064939
 30
0.0
 11
4977.588197427406
 21
2939.781787222736
 31
0.0
  0
LINE
  5
16095
330
15CD3
100
AcDbEntity
  8
HATCH
100
AcDbLine
 10
4705.586140791804
 20
2939.781787222736
 30
0.0
 11
4797.962183862138
 21
3099.781787222727
 31
0.0
  0
LINE
  5
16096
330
15CD3
100
AcDbEntity
  8
HATCH
100
AcDbLine
 10
4733.962183862142
 20
3099.781787222726
 30
0.0
 11
4765.962183862139
 21
3044.356161380529
 31
0.0
  0
LINE
  5
16097
330
15CD3
100
AcDbEntity
  8
HATCH
100
AcDbLine
 10
4737.5861407918
 20
2995.207413064939
 30
0.0
 11
4769.5861407918
 21
2939.781787222736
 31
0.0
  0
LINE
  5
16098
330
15CD3
100
AcDbEntity
  8
HATCH
100
AcDbLine
 10
5121.590254063016
 20
2939.781787222736
 30
0.0
 11
5213.96629713335
 21
3099.781787222727
 31
0.0
  0
LINE
  5
16099
330
15CD3
100
AcDbEntity
  8
HATCH
100
AcDbLine
 10
5149.966297133353
 20
3099.781787222726
 30
0.0
 11
5181.966297133353
 21
3044.356161380529
 31
0.0
  0
LINE
  5
1609A
330
15CD3
100
AcDbEntity
  8
HATCH
100
AcDbLine
 10
5153.590254063014
 20
2995.207413064939
 30
0.0
 11
5185.590254063012
 21
2939.781787222736
 31
0.0
  0
LINE
  5
1609B
330
15CD3
100
AcDbEntity
  8
HATCH
100
AcDbLine
 10
3873.577914249379
 20
2939.781787222736
 30
0.0
 11
3965.953957319714
 21
3099.781787222727
 31
0.0
  0
LINE
  5
1609C
330
15CD3
100
AcDbEntity
  8
HATCH
100
AcDbLine
 10
3901.953957319716
 20
3099.781787222726
 30
0.0
 11
3933.953957319714
 21
3044.356161380529
 31
0.0
  0
LINE
  5
1609D
330
15CD3
100
AcDbEntity
  8
HATCH
100
AcDbLine
 10
3905.577914249377
 20
2995.207413064939
 30
0.0
 11
3937.577914249375
 21
2939.781787222736
 31
0.0
  0
LINE
  5
1609E
330
15CD3
100
AcDbEntity
  8
HATCH
100
AcDbLine
 10
4081.579970884983
 20
2939.781787222736
 30
0.0
 11
4173.956013955318
 21
3099.781787222727
 31
0.0
  0
LINE
  5
1609F
330
15CD3
100
AcDbEntity
  8
HATCH
100
AcDbLine
 10
4109.956013955321
 20
3099.781787222726
 30
0.0
 11
4141.956013955319
 21
3044.356161380529
 31
0.0
  0
LINE
  5
160A0
330
15CD3
100
AcDbEntity
  8
HATCH
100
AcDbLine
 10
4113.57997088498
 20
2995.207413064939
 30
0.0
 11
4145.579970884979
 21
2939.781787222736
 31
0.0
  0
LINE
  5
160A1
330
15CD3
100
AcDbEntity
  8
HATCH
100
AcDbLine
 10
4289.58202752059
 20
2939.781787222736
 30
0.0
 11
4381.958070590926
 21
3099.781787222727
 31
0.0
  0
LINE
  5
160A2
330
15CD3
100
AcDbEntity
  8
HATCH
100
AcDbLine
 10
4317.958070590927
 20
3099.781787222726
 30
0.0
 11
4349.958070590925
 21
3044.356161380529
 31
0.0
  0
LINE
  5
160A3
330
15CD3
100
AcDbEntity
  8
HATCH
100
AcDbLine
 10
4321.582027520586
 20
2995.207413064939
 30
0.0
 11
4353.582027520585
 21
2939.781787222736
 31
0.0
  0
LINE
  5
160A4
330
15CD3
100
AcDbEntity
  8
HATCH
100
AcDbLine
 10
4497.584084156197
 20
2939.781787222736
 30
0.0
 11
4589.96012722653
 21
3099.781787222727
 31
0.0
  0
LINE
  5
160A5
330
15CD3
100
AcDbEntity
  8
HATCH
100
AcDbLine
 10
4525.960127226533
 20
3099.781787222726
 30
0.0
 11
4557.960127226531
 21
3044.356161380529
 31
0.0
  0
LINE
  5
160A6
330
15CD3
100
AcDbEntity
  8
HATCH
100
AcDbLine
 10
4529.584084156193
 20
2995.207413064939
 30
0.0
 11
4561.584084156192
 21
2939.781787222736
 31
0.0
  0
LINE
  5
160A7
330
15CD3
100
AcDbEntity
  8
HATCH
100
AcDbLine
 10
3217.085149553903
 20
3819.781787222739
 30
0.0
 11
3272.510775396109
 21
3915.781787222743
 31
0.0
  0
LINE
  5
160A8
330
15CD3
100
AcDbEntity
  8
HATCH
100
AcDbLine
 10
3234.110775396107
 20
3915.781787222743
 30
0.0
 11
3253.310775396109
 21
3882.526411717421
 31
0.0
  0
LINE
  5
160A9
330
15CD3
100
AcDbEntity
  8
HATCH
100
AcDbLine
 10
3236.285149553904
 20
3853.037162728064
 30
0.0
 11
3255.485149553904
 21
3819.781787222739
 31
0.0
  0
LINE
  5
160AA
330
15CD3
100
AcDbEntity
  8
HATCH
100
AcDbLine
 10
3073.085149553903
 20
3819.781787222739
 30
0.0
 11
3128.510775396109
 21
3915.781787222743
 31
0.0
  0
LINE
  5
160AB
330
15CD3
100
AcDbEntity
  8
HATCH
100
AcDbLine
 10
3090.110775396107
 20
3915.781787222743
 30
0.0
 11
3109.310775396108
 21
3882.526411717421
 31
0.0
  0
LINE
  5
160AC
330
15CD3
100
AcDbEntity
  8
HATCH
100
AcDbLine
 10
3092.285149553903
 20
3853.037162728064
 30
0.0
 11
3111.485149553903
 21
3819.781787222739
 31
0.0
  0
LINE
  5
160AD
330
15CD3
100
AcDbEntity
  8
HATCH
100
AcDbLine
 10
2785.085149553901
 20
3819.781787222739
 30
0.0
 11
2840.510775396108
 21
3915.781787222743
 31
0.0
  0
LINE
  5
160AE
330
15CD3
100
AcDbEntity
  8
HATCH
100
AcDbLine
 10
2802.110775396107
 20
3915.781787222743
 30
0.0
 11
2821.310775396107
 21
3882.526411717421
 31
0.0
  0
LINE
  5
160AF
330
15CD3
100
AcDbEntity
  8
HATCH
100
AcDbLine
 10
2804.285149553903
 20
3853.037162728064
 30
0.0
 11
2823.485149553903
 21
3819.781787222739
 31
0.0
  0
LINE
  5
160B0
330
15CD3
100
AcDbEntity
  8
HATCH
100
AcDbLine
 10
2929.085149553901
 20
3819.781787222739
 30
0.0
 11
2984.510775396108
 21
3915.781787222743
 31
0.0
  0
LINE
  5
160B1
330
15CD3
100
AcDbEntity
  8
HATCH
100
AcDbLine
 10
2946.110775396107
 20
3915.781787222743
 30
0.0
 11
2965.310775396107
 21
3882.526411717421
 31
0.0
  0
LINE
  5
160B2
330
15CD3
100
AcDbEntity
  8
HATCH
100
AcDbLine
 10
2948.285149553903
 20
3853.037162728064
 30
0.0
 11
2967.485149553903
 21
3819.781787222739
 31
0.0
  0
LINE
  5
160B3
330
15CD3
100
AcDbEntity
  8
HATCH
100
AcDbLine
 10
3457.573800978167
 20
2939.781787222736
 30
0.0
 11
3549.949844048502
 21
3099.781787222727
 31
0.0
  0
LINE
  5
160B4
330
15CD3
100
AcDbEntity
  8
HATCH
100
AcDbLine
 10
3485.949844048505
 20
3099.781787222726
 30
0.0
 11
3517.949844048504
 21
3044.356161380529
 31
0.0
  0
LINE
  5
160B5
330
15CD3
100
AcDbEntity
  8
HATCH
100
AcDbLine
 10
3489.573800978165
 20
2995.207413064939
 30
0.0
 11
3521.573800978162
 21
2939.781787222736
 31
0.0
  0
LINE
  5
160B6
330
15CD3
100
AcDbEntity
  8
HATCH
100
AcDbLine
 10
3665.57585761377
 20
2939.781787222736
 30
0.0
 11
3757.951900684105
 21
3099.781787222727
 31
0.0
  0
LINE
  5
160B7
330
15CD3
100
AcDbEntity
  8
HATCH
100
AcDbLine
 10
3693.951900684111
 20
3099.781787222726
 30
0.0
 11
3725.951900684107
 21
3044.356161380529
 31
0.0
  0
LINE
  5
160B8
330
15CD3
100
AcDbEntity
  8
HATCH
100
AcDbLine
 10
3697.575857613769
 20
2995.207413064939
 30
0.0
 11
3729.575857613767
 21
2939.781787222736
 31
0.0
  0
LINE
  5
160B9
330
15CD3
100
AcDbEntity
  8
1PL-M1
100
AcDbLine
 10
4689.085149553899
 20
2515.794872196494
 30
0.0
 11
4689.085149553899
 21
4486.981787222738
 31
0.0
  0
LINE
  5
160BA
330
15CD3
100
AcDbEntity
  8
KISO-1
100
AcDbLine
 10
10019.12750789964
 20
7993.69318243233
 30
0.0
 11
9219.127507899646
 21
7993.69318243233
 31
0.0
  0
LINE
  5
160BB
330
15CD3
100
AcDbEntity
  8
KISO-1
100
AcDbLine
 10
9219.127507899646
 20
7993.69318243233
 30
0.0
 11
9219.127507899646
 21
9143.693182432331
 31
0.0
  0
LINE
  5
160BC
330
15CD3
100
AcDbEntity
  8
KISO-1
100
AcDbLine
 10
9219.127507899646
 20
9143.693182432331
 30
0.0
 11
10019.12750789964
 21
9143.693182432331
 31
0.0
  0
LINE
  5
160BD
330
15CD3
100
AcDbEntity
  8
KISO-1
100
AcDbLine
 10
10019.12750789964
 20
9143.693182432331
 30
0.0
 11
10019.12750789964
 21
7993.69318243233
 31
0.0
  0
LINE
  5
160BE
330
15CD3
100
AcDbEntity
  8
DOMAKON
100
AcDbLine
 10
8569.127507899649
 20
9083.693182432327
 30
0.0
 11
12019.12750789964
 21
9083.693182432327
 31
0.0
  0
LINE
  5
160BF
330
15CD3
100
AcDbEntity
  8
DOMAKON
100
AcDbLine
 10
12019.12750789964
 20
9083.693182432327
 30
0.0
 11
12019.12750789964
 21
6843.693182432328
 31
0.0
  0
LINE
  5
160C0
330
15CD3
100
AcDbEntity
  8
DOMAKON
100
AcDbLine
 10
12019.12750789964
 20
6843.693182432328
 30
0.0
 11
8569.127507899649
 21
6843.693182432328
 31
0.0
  0
LINE
  5
160C1
330
15CD3
100
AcDbEntity
  8
KISO-1
100
AcDbLine
 10
7619.127507899648
 20
7993.69318243233
 30
0.0
 11
6819.127507899647
 21
7993.69318243233
 31
0.0
  0
LINE
  5
160C2
330
15CD3
100
AcDbEntity
  8
KISO-1
100
AcDbLine
 10
6819.127507899647
 20
7993.69318243233
 30
0.0
 11
6819.127507899647
 21
9143.693182432331
 31
0.0
  0
LINE
  5
160C3
330
15CD3
100
AcDbEntity
  8
KISO-1
100
AcDbLine
 10
6819.127507899647
 20
9143.693182432331
 30
0.0
 11
7619.127507899648
 21
9143.693182432331
 31
0.0
  0
LINE
  5
160C4
330
15CD3
100
AcDbEntity
  8
KISO-1
100
AcDbLine
 10
7619.127507899648
 20
9143.693182432331
 30
0.0
 11
7619.127507899648
 21
7993.69318243233
 31
0.0
  0
LINE
  5
160C5
330
15CD3
100
AcDbEntity
  8
DOMAKON
100
AcDbLine
 10
4819.127507899649
 20
9083.693182432327
 30
0.0
 11
8269.127507899645
 21
9083.693182432327
 31
0.0
  0
LINE
  5
160C6
330
15CD3
100
AcDbEntity
  8
DOMAKON
100
AcDbLine
 10
8269.127507899645
 20
6843.693182432328
 30
0.0
 11
4819.127507899649
 21
6843.693182432328
 31
0.0
  0
LINE
  5
160C7
330
15CD3
100
AcDbEntity
  8
DOMAKON
100
AcDbLine
 10
4819.127507899649
 20
6843.693182432328
 30
0.0
 11
4819.127507899649
 21
9083.693182432327
 31
0.0
  0
LINE
  5
160C8
330
15CD3
100
AcDbEntity
  8
YANE
  6
2PL-M
100
AcDbLine
 10
11840.92816095087
 20
6970.143910050989
 30
0.0
 11
4997.326854848409
 21
6970.143910050989
 31
0.0
  0
LINE
  5
160C9
330
15CD3
100
AcDbEntity
  8
YANE
  6
2PL-M
100
AcDbLine
 10
4997.326854848409
 20
6970.143910050989
 30
0.0
 11
4997.326854848409
 21
8958.243182432324
 31
0.0
  0
LINE
  5
160CA
330
15CD3
100
AcDbEntity
  8
YANE
  6
2PL-M
100
AcDbLine
 10
4997.326854848409
 20
8958.243182432324
 30
0.0
 11
11840.92816095087
 21
8958.243182432324
 31
0.0
  0
LINE
  5
160CB
330
15CD3
100
AcDbEntity
  8
YANE
  6
2PL-M
100
AcDbLine
 10
11840.92816095087
 20
8958.243182432324
 30
0.0
 11
11840.92816095087
 21
6970.143910050989
 31
0.0
  0
ENDSEC
  0
SECTION
  2
OBJECTS
  0
DICTIONARY
  5
15CC1
330
0
100
AcDbDictionary
281
     1
  3
ACAD_GROUP
350
15CC2
  3
ACAD_LAYOUT
350
15CCE
  3
ACAD_MLINESTYLE
350
15CCB
  3
ACAD_PLOTSETTINGS
350
15CCD
  3
ACAD_PLOTSTYLENAME
350
15CC3
  3
AcDbVariableDictionary
350
160CC
  0
DICTIONARY
  5
15CC2
102
{ACAD_REACTORS
330
15CC1
102
}
330
15CC1
100
AcDbDictionary
281
     1
  0
DICTIONARY
  5
15CCE
102
{ACAD_REACTORS
330
15CC1
102
}
330
15CC1
100
AcDbDictionary
281
     1
  3
Model
350
15CD6
  3
ﾚｲｱｳﾄ1
350
15CD2
  0
DICTIONARY
  5
15CCB
102
{ACAD_REACTORS
330
15CC1
102
}
330
15CC1
100
AcDbDictionary
281
     1
  3
Standard
350
15CCC
  0
DICTIONARY
  5
15CCD
102
{ACAD_REACTORS
330
15CC1
102
}
330
15CC1
100
AcDbDictionary
281
     1
  0
ACDBDICTIONARYWDFLT
  5
15CC3
102
{ACAD_REACTORS
330
15CC1
102
}
330
15CC1
100
AcDbDictionary
281
     1
  3
Normal
350
15CC4
100
AcDbDictionaryWithDefault
340
15CC4
  0
DICTIONARY
  5
160CC
102
{ACAD_REACTORS
330
15CC1
102
}
330
15CC1
100
AcDbDictionary
281
     1
  3
DIMASSOC
350
160CD
  0
LAYOUT
  5
15CD6
102
{ACAD_REACTORS
330
15CCE
102
}
330
15CCE
100
AcDbPlotSettings
  1

  2
Muratec V-1200 Is@Web Printer
  4

  6

 40
0.0
 41
0.0
 42
0.0
 43
0.0
 44
0.0
 45
0.0
 46
0.0
 47
0.0
 48
0.0
 49
0.0
140
0.0
141
0.0
142
1.0
143
1.0
 70
  1712
 72
     0
 73
     0
 74
     0
  7

 75
     0
147
1.0
148
0.0
149
0.0
100
AcDbLayout
  1
Model
 70
     1
 71
     0
 10
0.0
 20
0.0
 11
12.0
 21
9.0
 12
0.0
 22
0.0
 32
0.0
 14
0.0
 24
0.0
 34
0.0
 15
0.0
 25
0.0
 35
0.0
146
0.0
 13
0.0
 23
0.0
 33
0.0
 16
1.0
 26
0.0
 36
0.0
 17
0.0
 27
1.0
 37
0.0
 76
     0
330
15CD3
  0
LAYOUT
  5
15CD2
102
{ACAD_REACTORS
330
15CCE
102
}
330
15CCE
100
AcDbPlotSettings
  1

  2
Muratec V-1200 Is@Web Printer
  4

  6

 40
0.0
 41
0.0
 42
0.0
 43
0.0
 44
0.0
 45
0.0
 46
0.0
 47
0.0
 48
0.0
 49
0.0
140
0.0
141
0.0
142
1.0
143
1.0
 70
   688
 72
     0
 73
     0
 74
     5
  7

 75
    16
147
1.0
148
0.0
149
0.0
100
AcDbLayout
  1
ﾚｲｱｳﾄ1
 70
     0
 71
     1
 10
0.0
 20
0.0
 11
12.0
 21
9.0
 12
0.0
 22
0.0
 32
0.0
 14
1.000000000000000E+20
 24
1.000000000000000E+20
 34
1.000000000000000E+20
 15
-1.000000000000000E+20
 25
-1.000000000000000E+20
 35
-1.000000000000000E+20
146
0.0
 13
0.0
 23
0.0
 33
0.0
 16
1.0
 26
0.0
 36
0.0
 17
0.0
 27
1.0
 37
0.0
 76
     0
330
15CCF
  0
MLINESTYLE
  5
15CCC
102
{ACAD_REACTORS
330
15CCB
102
}
330
15CCB
100
AcDbMlineStyle
  2
STANDARD
 70
     0
  3

 62
   256
 51
90.0
 52
90.0
 71
     2
 49
0.5
 62
   256
  6
BYLAYER
 49
-0.5
 62
   256
  6
BYLAYER
  0
ACDBPLACEHOLDER
  5
15CC4
102
{ACAD_REACTORS
330
15CC3
102
}
330
15CC3
  0
DICTIONARYVAR
  5
160CD
102
{ACAD_REACTORS
330
160CC
102
}
330
160CC
100
DictionaryVariables
280
     0
  1
1
  0
ENDSEC
  0
EOF
