  0
SECTION
  2
HEADER
  9
$ACADVER
  1
AC1015
  9
$ACADMAINTVER
 70
    13
  9
$DWGCODEPAGE
  3
ANSI_932
  9
$INSBASE
 10
267.0
 20
194.8999999999998
 30
0.0
  9
$EXTMIN
 10
433.9966216520333
 20
163.6908237492789
 30
-0.0000000349181948
  9
$EXTMAX
 10
16382.6660542547
 20
11242.27663824599
 30
0.0000000814935747
  9
$LIMMIN
 10
0.0
 20
0.0
  9
$LIMMAX
 10
16800.0
 20
11880.0
  9
$ORTHOMODE
 70
     0
  9
$REGENMODE
 70
     1
  9
$FILLMODE
 70
     1
  9
$QTEXTMODE
 70
     0
  9
$MIRRTEXT
 70
     0
  9
$LTSCALE
 40
40.0
  9
$ATTMODE
 70
     1
  9
$TEXTSIZE
 40
0.2
  9
$TRACEWID
 40
0.05
  9
$TEXTSTYLE
  7
00
  9
$CLAYER
  8
SUNPOU
  9
$CELTYPE
  6
ByLayer
  9
$CECOLOR
 62
   256
  9
$CELTSCALE
 40
1.0
  9
$DISPSILH
 70
     0
  9
$DIMSCALE
 40
40.0
  9
$DIMASZ
 40
0.5
  9
$DIMEXO
 40
1.0
  9
$DIMDLI
 40
7.0
  9
$DIMRND
 40
0.0
  9
$DIMDLE
 40
3.0
  9
$DIMEXE
 40
1.125
  9
$DIMTP
 40
0.0
  9
$DIMTM
 40
0.0
  9
$DIMTXT
 40
2.25
  9
$DIMCEN
 40
0.0
  9
$DIMTSZ
 40
0.0
  9
$DIMTOL
 70
     0
  9
$DIMLIM
 70
     0
  9
$DIMTIH
 70
     0
  9
$DIMTOH
 70
     0
  9
$DIMSE1
 70
     0
  9
$DIMSE2
 70
     0
  9
$DIMTAD
 70
     1
  9
$DIMZIN
 70
     8
  9
$DIMBLK
  1
DOT
  9
$DIMASO
 70
     1
  9
$DIMSHO
 70
     0
  9
$DIMPOST
  1

  9
$DIMAPOST
  1

  9
$DIMALT
 70
     0
  9
$DIMALTD
 70
     2
  9
$DIMALTF
 40
25.4
  9
$DIMLFAC
 40
1.0
  9
$DIMTOFL
 70
     1
  9
$DIMTVP
 40
0.0
  9
$DIMTIX
 70
     0
  9
$DIMSOXD
 70
     0
  9
$DIMSAH
 70
     1
  9
$DIMBLK1
  1
DOT
  9
$DIMBLK2
  1
DOT
  9
$DIMSTYLE
  2
SUNPOU_図面名
  9
$DIMCLRD
 70
   256
  9
$DIMCLRE
 70
   256
  9
$DIMCLRT
 70
   256
  9
$DIMTFAC
 40
1.0
  9
$DIMGAP
 40
1.125
  9
$DIMJUST
 70
     0
  9
$DIMSD1
 70
     0
  9
$DIMSD2
 70
     0
  9
$DIMTOLJ
 70
     1
  9
$DIMTZIN
 70
     0
  9
$DIMALTZ
 70
     0
  9
$DIMALTTZ
 70
     0
  9
$DIMUPT
 70
     0
  9
$DIMDEC
 70
     4
  9
$DIMTDEC
 70
     4
  9
$DIMALTU
 70
     2
  9
$DIMALTTD
 70
     2
  9
$DIMTXSTY
  7
STANDARD
  9
$DIMAUNIT
 70
     0
  9
$DIMADEC
 70
     0
  9
$DIMALTRND
 40
0.0
  9
$DIMAZIN
 70
     0
  9
$DIMDSEP
 70
    46
  9
$DIMATFIT
 70
     3
  9
$DIMFRAC
 70
     0
  9
$DIMLDRBLK
  1
DOT
  9
$DIMLUNIT
 70
     2
  9
$DIMLWD
 70
    -2
  9
$DIMLWE
 70
    -2
  9
$DIMTMOVE
 70
     0
  9
$LUNITS
 70
     2
  9
$LUPREC
 70
     2
  9
$SKETCHINC
 40
0.1
  9
$FILLETRAD
 40
0.0
  9
$AUNITS
 70
     0
  9
$AUPREC
 70
     0
  9
$MENU
  1
A:\TIGER\MENU\TIGER
  9
$ELEVATION
 40
0.0
  9
$PELEVATION
 40
0.0
  9
$THICKNESS
 40
0.0
  9
$LIMCHECK
 70
     0
  9
$CHAMFERA
 40
0.0
  9
$CHAMFERB
 40
0.0
  9
$CHAMFERC
 40
0.0
  9
$CHAMFERD
 40
0.0
  9
$SKPOLY
 70
     0
  9
$TDCREATE
 40
2450266.571064815
  9
$TDUCREATE
 40
2450266.196064815
  9
$TDUPDATE
 40
2456330.659564340
  9
$TDUUPDATE
 40
2456330.284564340
  9
$TDINDWG
 40
0.1598429051
  9
$TDUSRTIMER
 40
0.1598427315
  9
$USRTIMER
 70
     1
  9
$ANGBASE
 50
0.0
  9
$ANGDIR
 70
     0
  9
$PDMODE
 70
     0
  9
$PDSIZE
 40
0.0
  9
$PLINEWID
 40
0.0
  9
$SPLFRAME
 70
     0
  9
$SPLINETYPE
 70
     6
  9
$SPLINESEGS
 70
     8
  9
$HANDSEED
  5
15F6C
  9
$SURFTAB1
 70
     6
  9
$SURFTAB2
 70
     6
  9
$SURFTYPE
 70
     6
  9
$SURFU
 70
     6
  9
$SURFV
 70
     6
  9
$UCSBASE
  2

  9
$UCSNAME
  2

  9
$UCSORG
 10
0.0
 20
0.0
 30
0.0
  9
$UCSXDIR
 10
1.0
 20
0.0
 30
0.0
  9
$UCSYDIR
 10
0.0
 20
1.0
 30
0.0
  9
$UCSORTHOREF
  2

  9
$UCSORTHOVIEW
 70
     0
  9
$UCSORGTOP
 10
0.0
 20
0.0
 30
0.0
  9
$UCSORGBOTTOM
 10
0.0
 20
0.0
 30
0.0
  9
$UCSORGLEFT
 10
0.0
 20
0.0
 30
0.0
  9
$UCSORGRIGHT
 10
0.0
 20
0.0
 30
0.0
  9
$UCSORGFRONT
 10
0.0
 20
0.0
 30
0.0
  9
$UCSORGBACK
 10
0.0
 20
0.0
 30
0.0
  9
$PUCSBASE
  2

  9
$PUCSNAME
  2

  9
$PUCSORG
 10
0.0
 20
0.0
 30
0.0
  9
$PUCSXDIR
 10
1.0
 20
0.0
 30
0.0
  9
$PUCSYDIR
 10
0.0
 20
1.0
 30
0.0
  9
$PUCSORTHOREF
  2

  9
$PUCSORTHOVIEW
 70
     0
  9
$PUCSORGTOP
 10
0.0
 20
0.0
 30
0.0
  9
$PUCSORGBOTTOM
 10
0.0
 20
0.0
 30
0.0
  9
$PUCSORGLEFT
 10
0.0
 20
0.0
 30
0.0
  9
$PUCSORGRIGHT
 10
0.0
 20
0.0
 30
0.0
  9
$PUCSORGFRONT
 10
0.0
 20
0.0
 30
0.0
  9
$PUCSORGBACK
 10
0.0
 20
0.0
 30
0.0
  9
$USERI1
 70
     3
  9
$USERI2
 70
     0
  9
$USERI3
 70
     0
  9
$USERI4
 70
     0
  9
$USERI5
 70
  1103
  9
$USERR1
 40
0.0
  9
$USERR2
 40
1.0
  9
$USERR3
 40
0.0
  9
$USERR4
 40
0.0
  9
$USERR5
 40
0.0
  9
$WORLDVIEW
 70
     1
  9
$SHADEDGE
 70
     3
  9
$SHADEDIF
 70
    70
  9
$TILEMODE
 70
     1
  9
$MAXACTVP
 70
    16
  9
$PINSBASE
 10
0.0
 20
0.0
 30
0.0
  9
$PLIMCHECK
 70
     0
  9
$PEXTMIN
 10
1.000000000000000E+20
 20
1.000000000000000E+20
 30
1.000000000000000E+20
  9
$PEXTMAX
 10
-1.000000000000000E+20
 20
-1.000000000000000E+20
 30
-1.000000000000000E+20
  9
$PLIMMIN
 10
0.0
 20
0.0
  9
$PLIMMAX
 10
12.0
 20
9.0
  9
$UNITMODE
 70
     0
  9
$VISRETAIN
 70
     0
  9
$PLINEGEN
 70
     1
  9
$PSLTSCALE
 70
     0
  9
$TREEDEPTH
 70
  3020
  9
$CMLSTYLE
  2
Standard
  9
$CMLJUST
 70
     0
  9
$CMLSCALE
 40
1.0
  9
$PROXYGRAPHICS
 70
     1
  9
$MEASUREMENT
 70
     0
  9
$CELWEIGHT
370
    -1
  9
$ENDCAPS
280
     0
  9
$JOINSTYLE
280
     0
  9
$LWDISPLAY
290
     0
  9
$INSUNITS
 70
     0
  9
$HYPERLINKBASE
  1

  9
$STYLESHEET
  1

  9
$XEDIT
290
     1
  9
$CEPSNTYPE
380
     0
  9
$PSTYLEMODE
290
     1
  9
$FINGERPRINTGUID
  2
{1FFB9D7F-302E-40AD-98FA-535C1D0B94D1}
  9
$VERSIONGUID
  2
{EB834420-A9CC-4186-A960-FB1C712B2463}
  9
$EXTNAMES
290
     1
  9
$PSVPSCALE
 40
0.0
  9
$OLESTARTUP
290
     0
  0
ENDSEC
  0
SECTION
  2
CLASSES
  0
CLASS
  1
ACDBDICTIONARYWDFLT
  2
AcDbDictionaryWithDefault
  3
AutoCAD 2000
 90
        0
280
     0
281
     0
  0
CLASS
  1
ACDBPLACEHOLDER
  2
AcDbPlaceHolder
  3
AutoCAD 2000
 90
        0
280
     0
281
     0
  0
CLASS
  1
LAYOUT
  2
AcDbLayout
  3
AutoCAD 2000
 90
        0
280
     0
281
     0
  0
CLASS
  1
DICTIONARYVAR
  2
AcDbDictionaryVar
  3
AutoCAD 2000
 90
        0
280
     0
281
     0
  0
ENDSEC
  0
SECTION
  2
TABLES
  0
TABLE
  2
VPORT
  5
15B85
330
0
100
AcDbSymbolTable
 70
     2
  0
VPORT
  5
15F6B
330
15B85
100
AcDbSymbolTableRecord
100
AcDbViewportTableRecord
  2
*Active
 70
     0
 10
0.0
 20
0.0
 11
1.0
 21
1.0
 12
8408.331337953367
 22
5702.983730997637
 13
0.0
 23
0.0
 14
1.0
 24
1.0
 15
0.0
 25
0.0
 16
0.0
 26
0.0
 36
1.0
 17
0.0
 27
0.0
 37
0.0
 40
11162.83361536741
 41
1.527918781725888
 42
50.0
 43
0.0
 44
0.0
 50
0.0
 51
0.0
 71
     0
 72
 10000
 73
     1
 74
     0
 75
     0
 76
     0
 77
     0
 78
     0
281
     0
 65
     1
110
0.0
120
0.0
130
0.0
111
1.0
121
0.0
131
0.0
112
0.0
122
1.0
132
0.0
 79
     0
146
0.0
  0
ENDTAB
  0
TABLE
  2
LTYPE
  5
15B82
330
0
100
AcDbSymbolTable
 70
     6
  0
LTYPE
  5
15B90
330
15B82
100
AcDbSymbolTableRecord
100
AcDbLinetypeTableRecord
  2
ByBlock
 70
     0
  3

 72
    65
 73
     0
 40
0.0
  0
LTYPE
  5
15B91
330
15B82
100
AcDbSymbolTableRecord
100
AcDbLinetypeTableRecord
  2
ByLayer
 70
     0
  3

 72
    65
 73
     0
 40
0.0
  0
LTYPE
  5
15B92
330
15B82
100
AcDbSymbolTableRecord
100
AcDbLinetypeTableRecord
  2
CONTINUOUS
 70
     0
  3
実線
 72
    65
 73
     0
 40
0.0
  0
LTYPE
  5
15BA2
330
15B82
100
AcDbSymbolTableRecord
100
AcDbLinetypeTableRecord
  2
1PL-M
 70
     0
  3

 72
    65
 73
     4
 40
15.0
 49
12.0
 74
     0
 49
-1.0
 74
     0
 49
1.0
 74
     0
 49
-1.0
 74
     0
  0
LTYPE
  5
15BA3
330
15B82
100
AcDbSymbolTableRecord
100
AcDbLinetypeTableRecord
  2
2PL-M
 70
     0
  3

 72
    65
 73
     6
 40
17.0
 49
12.0
 74
     0
 49
-1.0
 74
     0
 49
1.0
 74
     0
 49
-1.0
 74
     0
 49
1.0
 74
     0
 49
-1.0
 74
     0
  0
LTYPE
  5
15BA4
330
15B82
100
AcDbSymbolTableRecord
100
AcDbLinetypeTableRecord
  2
1PL-12
 70
     0
  3

 72
    65
 73
     4
 40
15.0
 49
12.0
 74
     0
 49
-1.0
 74
     0
 49
1.0
 74
     0
 49
-1.0
 74
     0
  0
LTYPE
  5
15BA5
330
15B82
100
AcDbSymbolTableRecord
100
AcDbLinetypeTableRecord
  2
KAKURE-1
 70
     0
  3

 72
    65
 73
     2
 40
2.0
 49
1.0
 74
     0
 49
-1.0
 74
     0
  0
LTYPE
  5
15BA6
330
15B82
100
AcDbSymbolTableRecord
100
AcDbLinetypeTableRecord
  2
2PL-12
 70
     0
  3

 72
    65
 73
     6
 40
17.0
 49
12.0
 74
     0
 49
-1.0
 74
     0
 49
1.0
 74
     0
 49
-1.0
 74
     0
 49
1.0
 74
     0
 49
-1.0
 74
     0
  0
ENDTAB
  0
TABLE
  2
LAYER
  5
15B7F
330
0
100
AcDbSymbolTable
 70
    21
  0
LAYER
  5
15B8D
330
15B7F
100
AcDbSymbolTableRecord
100
AcDbLayerTableRecord
  2
0
 70
     0
 62
     7
  6
CONTINUOUS
370
    -3
390
15B8C
  0
LAYER
  5
15B9F
330
15B7F
100
AcDbSymbolTableRecord
100
AcDbLayerTableRecord
  2
SUNPOU
 70
     0
 62
     4
  6
CONTINUOUS
370
    -3
390
15B8C
  0
LAYER
  5
15BA7
330
15B7F
100
AcDbSymbolTableRecord
100
AcDbLayerTableRecord
  2
HIKIDASHI
 70
     0
 62
     6
  6
CONTINUOUS
370
    -3
390
15B8C
  0
LAYER
  5
15BA8
330
15B7F
100
AcDbSymbolTableRecord
100
AcDbLayerTableRecord
  2
1PL-M1
 70
     0
 62
     6
  6
1PL-M
370
    -3
390
15B8C
  0
LAYER
  5
15BA9
330
15B7F
100
AcDbSymbolTableRecord
100
AcDbLayerTableRecord
  2
NAME
 70
     0
 62
    20
  6
CONTINUOUS
370
    -3
390
15B8C
  0
LAYER
  5
15BAA
330
15B7F
100
AcDbSymbolTableRecord
100
AcDbLayerTableRecord
  2
FILENAME
 70
     0
 62
     7
  6
CONTINUOUS
370
    -3
390
15B8C
  0
LAYER
  5
15BAB
330
15B7F
100
AcDbSymbolTableRecord
100
AcDbLayerTableRecord
  2
KISO
 70
     0
 62
     2
  6
CONTINUOUS
370
    -3
390
15B8C
  0
LAYER
  5
15BAC
330
15B7F
100
AcDbSymbolTableRecord
100
AcDbLayerTableRecord
  2
YANE
 70
     0
 62
     1
  6
1PL-12
370
    -3
390
15B8C
  0
LAYER
  5
15BAD
330
15B7F
100
AcDbSymbolTableRecord
100
AcDbLayerTableRecord
  2
HATCH
 70
     0
 62
     1
  6
CONTINUOUS
370
    -3
390
15B8C
  0
LAYER
  5
15BAE
330
15B7F
100
AcDbSymbolTableRecord
100
AcDbLayerTableRecord
  2
DOMAKON
 70
     0
 62
     2
  6
CONTINUOUS
370
    -3
390
15B8C
  0
LAYER
  5
15BAF
330
15B7F
100
AcDbSymbolTableRecord
100
AcDbLayerTableRecord
  2
KISO-1
 70
     0
 62
     6
  6
2PL-12
370
    -3
390
15B8C
  0
LAYER
  5
15BB0
330
15B7F
100
AcDbSymbolTableRecord
100
AcDbLayerTableRecord
  2
KISO-2
 70
     0
 62
     1
  6
KAKURE-1
370
    -3
390
15B8C
  0
LAYER
  5
15BB1
330
15B7F
100
AcDbSymbolTableRecord
100
AcDbLayerTableRecord
  2
SIN
 70
     0
 62
     6
  6
1PL-12
370
    -3
390
15B8C
  0
LAYER
  5
15BB2
330
15B7F
100
AcDbSymbolTableRecord
100
AcDbLayerTableRecord
  2
AQU_HOKYOU
 70
     0
 62
     2
  6
CONTINUOUS
370
    -3
390
15B8C
  0
LAYER
  5
15BB3
330
15B7F
100
AcDbSymbolTableRecord
100
AcDbLayerTableRecord
  2
CF-101
 70
     0
 62
     3
  6
CONTINUOUS
370
    -3
390
15B8C
  0
LAYER
  5
15BB4
330
15B7F
100
AcDbSymbolTableRecord
100
AcDbLayerTableRecord
  2
KIN
 70
     0
 62
     7
  6
CONTINUOUS
370
    -3
390
15B8C
  0
LAYER
  5
15BB5
330
15B7F
100
AcDbSymbolTableRecord
100
AcDbLayerTableRecord
  2
KIN-T
 70
     0
 62
     3
  6
CONTINUOUS
370
    -3
390
15B8C
  0
LAYER
  5
15BB6
330
15B7F
100
AcDbSymbolTableRecord
100
AcDbLayerTableRecord
  2
YODOROGO
 70
     0
 62
   130
  6
CONTINUOUS
370
    -3
390
15B8C
  0
LAYER
  5
15BB7
330
15B7F
100
AcDbSymbolTableRecord
100
AcDbLayerTableRecord
  2
WAKUSEN-01
 70
     0
 62
    50
  6
CONTINUOUS
370
    -3
390
15B8C
  0
LAYER
  5
15BB8
330
15B7F
100
AcDbSymbolTableRecord
100
AcDbLayerTableRecord
  2
WAKUSEN-02
 70
     0
 62
   130
  6
CONTINUOUS
370
    -3
390
15B8C
  0
LAYER
  5
15BB9
330
15B7F
100
AcDbSymbolTableRecord
100
AcDbLayerTableRecord
  2
WAKUMOJI-01
 70
     0
 62
   130
  6
CONTINUOUS
370
    -3
390
15B8C
  0
ENDTAB
  0
TABLE
  2
STYLE
  5
15B80
330
0
100
AcDbSymbolTable
 70
     5
  0
STYLE
  5
15B8E
330
15B80
100
AcDbSymbolTableRecord
100
AcDbTextStyleTableRecord
  2
STANDARD
 70
     0
 40
3.0
 41
1.0
 50
0.0
 71
     0
 42
0.2
  3
ROMANS
  4
EXTFONT
  0
STYLE
  5
15BA0
330
15B80
100
AcDbSymbolTableRecord
100
AcDbTextStyleTableRecord
  2
00
 70
     0
 40
0.0
 41
0.6666666666666666
 50
0.0
 71
     0
 42
0.2
  3
ROMANS
  4
BIGFONT
  0
STYLE
  5
15BBA
330
15B80
100
AcDbSymbolTableRecord
100
AcDbTextStyleTableRecord
  2
01
 70
     0
 40
3.0
 41
1.0
 50
0.0
 71
     0
 42
0.2
  3
ROMANS
  4
BIGFONT
  0
STYLE
  5
15BBB
330
15B80
100
AcDbSymbolTableRecord
100
AcDbTextStyleTableRecord
  2
WAKUMOJI
 70
     0
 40
3.0
 41
1.0
 50
0.0
 71
     0
 42
3.0
  3
SIMPLEX
  4
BIGFONT
  0
STYLE
  5
15BBC
330
15B80
100
AcDbSymbolTableRecord
100
AcDbTextStyleTableRecord
  2
FILENAME
 70
     0
 40
100.0
 41
1.0
 50
0.0
 71
     0
 42
100.0
  3
romans
  4
bigfont
  0
ENDTAB
  0
TABLE
  2
VIEW
  5
15B83
330
0
100
AcDbSymbolTable
 70
     0
  0
ENDTAB
  0
TABLE
  2
UCS
  5
15B84
330
0
100
AcDbSymbolTable
 70
     0
  0
ENDTAB
  0
TABLE
  2
APPID
  5
15B86
330
0
100
AcDbSymbolTable
 70
     6
  0
APPID
  5
15B8F
330
15B86
100
AcDbSymbolTableRecord
100
AcDbRegAppTableRecord
  2
ACAD
 70
     0
  0
APPID
  5
15BBD
330
15B86
100
AcDbSymbolTableRecord
100
AcDbRegAppTableRecord
  2
AUTOCAD_POSTSCRIPT_FIGURE
 70
     0
  0
APPID
  5
15BBE
330
15B86
100
AcDbSymbolTableRecord
100
AcDbRegAppTableRecord
  2
ACAD_PSEXT
 70
     0
  0
APPID
  5
15BBF
330
15B86
100
AcDbSymbolTableRecord
100
AcDbRegAppTableRecord
  2
ACAD_NAV_VCDISPLAY
 70
     0
  0
APPID
  5
15BC0
330
15B86
100
AcDbSymbolTableRecord
100
AcDbRegAppTableRecord
  2
ACAD_MLEADERVER
 70
     0
  0
APPID
  5
15BC1
330
15B86
100
AcDbSymbolTableRecord
100
AcDbRegAppTableRecord
  2
ACAD_EXEMPT_FROM_CAD_STANDARDS
 70
     0
  0
ENDTAB
  0
TABLE
  2
DIMSTYLE
  5
15B87
330
0
100
AcDbSymbolTable
 70
     1
100
AcDbDimStyleTable
 71
     0
  0
DIMSTYLE
105
15BC2
330
15B87
100
AcDbSymbolTableRecord
100
AcDbDimStyleTableRecord
  2
SUNPOU_図面名
 70
     0
 40
40.0
 41
0.5
 42
1.0
 43
7.0
 44
1.125
 46
3.0
 73
     0
 74
     0
 77
     1
 78
     8
140
2.25
141
0.0
147
1.125
172
     1
173
     1
176
   256
177
   256
178
   256
271
     2
272
     2
279
     2
284
     8
285
     8
286
     8
340
15BA0
  0
ENDTAB
  0
TABLE
  2
BLOCK_RECORD
  5
15B7E
330
0
100
AcDbSymbolTable
 70
     3
  0
BLOCK_RECORD
  5
15B9B
330
15B7E
100
AcDbSymbolTableRecord
100
AcDbBlockTableRecord
  2
*Model_Space
340
15B9E
  0
BLOCK_RECORD
  5
15B97
330
15B7E
100
AcDbSymbolTableRecord
100
AcDbBlockTableRecord
  2
*Paper_Space
340
15B9A
  0
BLOCK_RECORD
  5
15BC7
330
15B7E
100
AcDbSymbolTableRecord
100
AcDbBlockTableRecord
  2
$MODEL_SPACE
340
0
  0
BLOCK_RECORD
  5
15BCA
330
15B7E
100
AcDbSymbolTableRecord
100
AcDbBlockTableRecord
  2
$PAPER_SPACE
340
0
  0
BLOCK_RECORD
  5
15BCD
330
15B7E
100
AcDbSymbolTableRecord
100
AcDbBlockTableRecord
  2
DOT
340
0
  0
ENDTAB
  0
ENDSEC
  0
SECTION
  2
BLOCKS
  0
BLOCK
  5
15B9C
330
15B9B
100
AcDbEntity
  8
0
100
AcDbBlockBegin
  2
*Model_Space
 70
     0
 10
0.0
 20
0.0
 30
0.0
  3
*Model_Space
  1

  0
ENDBLK
  5
15B9D
330
15B9B
100
AcDbEntity
  8
0
100
AcDbBlockEnd
  0
BLOCK
  5
15B98
330
15B97
100
AcDbEntity
 67
     1
  8
0
100
AcDbBlockBegin
  2
*Paper_Space
 70
     0
 10
0.0
 20
0.0
 30
0.0
  3
*Paper_Space
  1

  0
ENDBLK
  5
15B99
330
15B97
100
AcDbEntity
 67
     1
  8
0
100
AcDbBlockEnd
  0
BLOCK
  5
15BC8
330
15BC7
100
AcDbEntity
  8
0
100
AcDbBlockBegin
  2
$MODEL_SPACE
 70
     0
 10
0.0
 20
0.0
 30
0.0
  3
$MODEL_SPACE
  1

  0
ENDBLK
  5
15BC9
330
15BC7
100
AcDbEntity
  8
0
100
AcDbBlockEnd
  0
BLOCK
  5
15BCB
330
15BCA
100
AcDbEntity
  8
0
100
AcDbBlockBegin
  2
$PAPER_SPACE
 70
     0
 10
0.0
 20
0.0
 30
0.0
  3
$PAPER_SPACE
  1

  0
ENDBLK
  5
15BCC
330
15BCA
100
AcDbEntity
  8
0
100
AcDbBlockEnd
  0
BLOCK
  5
15BCE
330
15BCD
100
AcDbEntity
  8
0
100
AcDbBlockBegin
  2
DOT
 70
     0
 10
0.0
 20
0.0
 30
0.0
  3
DOT
  1

  0
LWPOLYLINE
  5
15BCF
330
15BCD
100
AcDbEntity
  8
0
  6
ByBlock
 62
     0
100
AcDbPolyline
 90
        2
 70
     1
 43
0.75
 10
-0.375
 20
0.0
 42
1.0
 10
0.375
 20
0.0
 42
1.0
  0
LINE
  5
15BD3
330
15BCD
100
AcDbEntity
  8
0
  6
ByBlock
 62
     0
100
AcDbLine
 10
-0.75
 20
0.0
 30
0.0
 11
-1.5
 21
0.0
 31
0.0
  0
ENDBLK
  5
15BD4
330
15BCD
100
AcDbEntity
  8
0
100
AcDbBlockEnd
  0
ENDSEC
  0
SECTION
  2
ENTITIES
  0
TEXT
  5
15BD5
330
15B9B
100
AcDbEntity
  8
HIKIDASHI
100
AcDbText
 10
7237.050177551385
 20
5782.138246625836
 30
0.0
 40
135.0
  1
基 礎 平 面 図　縮尺
  7
01
 72
     4
 11
8029.050177551384
 21
5849.638246625836
 31
0.0
100
AcDbText
  0
LINE
  5
15BD6
330
15B9B
100
AcDbEntity
  8
KISO-1
100
AcDbLine
 10
7619.127507899648
 20
9143.693182432331
 30
0.0
 11
6819.127507899647
 21
9143.693182432331
 31
0.0
  0
LINE
  5
15BD7
330
15B9B
100
AcDbEntity
  8
KISO-1
100
AcDbLine
 10
6819.127507899647
 20
7993.69318243233
 30
0.0
 11
7619.127507899648
 21
7993.69318243233
 31
0.0
  0
TEXT
  5
15BD8
330
15B9B
100
AcDbEntity
  8
HIKIDASHI
100
AcDbText
 10
6774.127507899644
 20
6928.168187707528
 30
0.0
 40
90.0
  1
（土間コン側面位置）
 50
90.0
  7
01
100
AcDbText
  0
LINE
  5
15BD9
330
15B9B
100
AcDbEntity
  8
KISO-1
100
AcDbLine
 10
6819.127507899647
 20
9143.693182432331
 30
0.0
 11
6819.127507899647
 21
9083.693182432327
 31
0.0
  0
TEXT
  5
15BDA
330
15B9B
100
AcDbEntity
  8
HIKIDASHI
100
AcDbText
 10
7708.666308047364
 20
9128.693182432334
 30
0.0
 40
90.0
  1
（土間コン後面位置）
  7
01
100
AcDbText
  0
LINE
  5
15BDB
330
15B9B
100
AcDbEntity
  8
SIN
100
AcDbLine
 10
7219.127507899648
 20
9210.693182432331
 30
0.0
 11
7219.127507899648
 21
7926.693182432328
 31
0.0
  0
TEXT
  5
15BDC
330
15B9B
100
AcDbEntity
  8
HIKIDASHI
100
AcDbText
 10
7132.326854848416
 20
7036.814277369064
 30
0.0
 40
90.0
  1
（ケラバ外面）
 50
90.0
  7
01
100
AcDbText
  0
TEXT
  5
15BDD
330
15B9B
100
AcDbEntity
  8
HIKIDASHI
100
AcDbText
 10
7726.575500939491
 20
6708.693182432321
 30
0.0
 40
90.0
  1
（土間コン前面位置）
  7
01
100
AcDbText
  0
TEXT
  5
15BDE
330
15B9B
100
AcDbEntity
  8
HIKIDASHI
100
AcDbText
 10
7835.221590601029
 20
7000.143910050988
 30
0.0
 40
90.0
  1
（鼻隠し外面）
  7
01
100
AcDbText
  0
LINE
  5
15BDF
330
15B9B
100
AcDbEntity
  8
KISO-1
100
AcDbLine
 10
7619.127507899648
 20
7993.69318243233
 30
0.0
 11
7619.127507899648
 21
9143.693182432331
 31
0.0
  0
CIRCLE
  5
15BE0
330
15B9B
100
AcDbEntity
  8
KISO-2
100
AcDbCircle
 10
7219.127507899648
 20
8843.69318243233
 30
0.0
 40
44.55
  0
LINE
  5
15BE1
330
15B9B
100
AcDbEntity
  8
SIN
100
AcDbLine
 10
7338.67750789965
 20
8843.69318243233
 30
0.0
 11
7099.57750789965
 21
8843.69318243233
 31
0.0
  0
TEXT
  5
15BE2
330
15B9B
100
AcDbEntity
  8
HIKIDASHI
100
AcDbText
 10
7817.312397708899
 20
8837.242454813669
 30
0.0
 40
90.0
  1
（屋根後面位置）
  7
01
100
AcDbText
  0
LINE
  5
15BE3
330
15B9B
100
AcDbEntity
  8
HIKIDASHI
100
AcDbLine
 10
9162.771711688243
 20
5917.138246625839
 30
0.0
 11
9027.771711688243
 21
5782.138246625836
 31
0.0
  0
TEXT
  5
15BE4
330
15B9B
100
AcDbEntity
  8
HIKIDASHI
100
AcDbText
 10
8883.536143415291
 20
5791.781103768693
 30
0.0
 40
135.0
  1
=
 41
0.6666666666666666
  7
00
 72
     4
 11
8939.250429129577
 21
5849.638246625836
 31
0.0
100
AcDbText
  0
TEXT
  5
15BE5
330
15B9B
100
AcDbEntity
  8
HIKIDASHI
100
AcDbText
 10
9113.923774851757
 20
5782.138246625838
 30
0.0
 40
67.5
  1
40
 41
0.6666666666666666
  7
00
 72
     4
 11
9156.7809177089
 21
5815.888246625839
 31
0.0
100
AcDbText
  0
TEXT
  5
15BE6
330
15B9B
100
AcDbEntity
  8
HIKIDASHI
100
AcDbText
 10
9030.18180771294
 20
5849.552103177039
 30
0.0
 40
67.5
  1
1
 41
0.6666666666666666
  7
00
 72
     4
 11
9048.396093427227
 21
5883.302103177039
 31
0.0
100
AcDbText
  0
LINE
  5
15BE7
330
15B9B
100
AcDbEntity
  8
HIKIDASHI
100
AcDbLine
 10
9286.161227501166
 20
8923.925239220036
 30
0.0
 11
9720.426282619207
 21
9443.693182432332
 31
0.0
  0
LINE
  5
15BE8
330
15B9B
100
AcDbEntity
  8
SIN
100
AcDbLine
 10
9219.127507899647
 20
9210.693182432331
 30
0.0
 11
9219.127507899647
 21
7926.693182432328
 31
0.0
  0
TEXT
  5
15BE9
330
15B9B
100
AcDbEntity
  8
HIKIDASHI
100
AcDbText
 10
9395.928160950884
 20
7036.814277369064
 30
0.0
 40
90.0
  1
（ケラバ外面）
 50
90.0
  7
01
100
AcDbText
  0
LINE
  5
15BEA
330
15B9B
100
AcDbEntity
  8
KISO-1
100
AcDbLine
 10
8819.127507899649
 20
7993.69318243233
 30
0.0
 11
8819.127507899649
 21
9143.693182432331
 31
0.0
  0
LINE
  5
15BEB
330
15B9B
100
AcDbEntity
  8
KISO-1
100
AcDbLine
 10
9619.127507899646
 20
7993.69318243233
 30
0.0
 11
8819.127507899649
 21
7993.69318243233
 31
0.0
  0
LINE
  5
15BEC
330
15B9B
100
AcDbEntity
  8
KISO-1
100
AcDbLine
 10
8819.127507899649
 20
9143.693182432331
 30
0.0
 11
9619.127507899646
 21
9143.693182432331
 31
0.0
  0
LINE
  5
15BED
330
15B9B
100
AcDbEntity
  8
SIN
100
AcDbLine
 10
9338.67750789965
 20
8843.69318243233
 30
0.0
 11
9099.577507899651
 21
8843.69318243233
 31
0.0
  0
CIRCLE
  5
15BEE
330
15B9B
100
AcDbEntity
  8
KISO-2
100
AcDbCircle
 10
9219.127507899647
 20
8843.69318243233
 30
0.0
 40
44.55
  0
LINE
  5
15BEF
330
15B9B
100
AcDbEntity
  8
KISO-1
100
AcDbLine
 10
9619.127507899646
 20
9143.693182432331
 30
0.0
 11
9619.127507899646
 21
9083.693182432327
 31
0.0
  0
TEXT
  5
15BF0
330
15B9B
100
AcDbEntity
  8
HIKIDASHI
100
AcDbText
 10
9754.127507899646
 20
6928.168187707528
 30
0.0
 40
90.0
  1
（土間コン側面位置）
 50
90.0
  7
01
100
AcDbText
  0
TEXT
  5
15BF1
330
15B9B
100
AcDbEntity
  8
HIKIDASHI
100
AcDbText
 10
9730.426282619205
 20
9488.693182432324
 30
0.0
 40
90.0
  1
柱
  7
01
100
AcDbText
  0
LINE
  5
15BF2
330
15B9B
100
AcDbEntity
  8
HIKIDASHI
100
AcDbLine
 10
9720.426282619207
 20
9443.693182432332
 30
0.0
 11
9836.111390867266
 21
9443.693182432332
 31
0.0
  0
LINE
  5
15BF3
330
15B9B
100
AcDbEntity
  8
SUNPOU
100
AcDbLine
 10
9096.763321353305
 20
9306.243960487019
 30
0.0
 11
9219.127507899644
 21
9306.243960487019
 31
0.0
  0
LINE
  5
15BF4
330
15B9B
100
AcDbEntity
  8
SUNPOU
100
AcDbLine
 10
9219.127507899644
 20
9306.243960487019
 30
0.0
 11
9219.127507899644
 21
9203.693182432331
 31
0.0
  0
TEXT
  5
15BF5
330
15B9B
100
AcDbEntity
  8
SUNPOU
100
AcDbText
 10
8880.870464210445
 20
9252.672531915591
 30
0.0
 40
90.0
  1
A'
 41
0.6700000000000001
  7
00
 72
     4
 11
8916.763321353302
 21
9306.243960487019
 31
0.0
100
AcDbText
  0
LINE
  5
15BF6
330
15B9B
100
AcDbEntity
  8
SUNPOU
100
AcDbLine
 10
9096.763321353305
 20
7831.142404377641
 30
0.0
 11
9219.127507899644
 21
7831.142404377641
 31
0.0
  0
TEXT
  5
15BF7
330
15B9B
100
AcDbEntity
  8
SUNPOU
100
AcDbText
 10
8890.920464210445
 20
7786.142404377635
 30
0.0
 40
90.0
  1
A
 41
0.6700000000000001
  7
00
 72
     4
 11
8916.763321353302
 21
7831.142404377636
 31
0.0
100
AcDbText
  0
LINE
  5
15BF8
330
15B9B
100
AcDbEntity
  8
SUNPOU
100
AcDbLine
 10
9096.763321353305
 20
7816.142404377635
 30
0.0
 11
9006.763321353302
 21
7831.142404377636
 31
0.0
  0
LINE
  5
15BF9
330
15B9B
100
AcDbEntity
  8
SUNPOU
100
AcDbLine
 10
9006.763321353302
 20
7831.142404377636
 30
0.0
 11
9096.763321353305
 21
7846.142404377637
 31
0.0
  0
SOLID
  5
15BFA
330
15B9B
100
AcDbEntity
  8
SUNPOU
100
AcDbTrace
 10
9096.763321353305
 20
7816.142404377635
 30
0.0
 11
9096.763321353305
 21
7846.142404377637
 31
0.0
 12
9006.763321353302
 22
7831.142404377636
 32
0.0
 13
9006.763321353302
 23
7831.142404377636
 33
0.0
  0
LINE
  5
15BFB
330
15B9B
100
AcDbEntity
  8
SUNPOU
100
AcDbLine
 10
9096.763321353305
 20
7846.142404377637
 30
0.0
 11
9096.763321353305
 21
7816.142404377635
 31
0.0
  0
LINE
  5
15BFC
330
15B9B
100
AcDbEntity
  8
SUNPOU
100
AcDbLine
 10
9096.763321353305
 20
9321.24396048702
 30
0.0
 11
9006.763321353302
 21
9306.243960487019
 31
0.0
  0
LINE
  5
15BFD
330
15B9B
100
AcDbEntity
  8
SUNPOU
100
AcDbLine
 10
9006.763321353302
 20
9306.243960487019
 30
0.0
 11
9096.763321353305
 21
9291.243960487021
 31
0.0
  0
SOLID
  5
15BFE
330
15B9B
100
AcDbEntity
  8
SUNPOU
100
AcDbTrace
 10
9096.763321353305
 20
9321.24396048702
 30
0.0
 11
9096.763321353305
 21
9291.243960487021
 31
0.0
 12
9006.763321353302
 22
9306.243960487019
 32
0.0
 13
9006.763321353302
 23
9306.243960487019
 33
0.0
  0
LINE
  5
15BFF
330
15B9B
100
AcDbEntity
  8
SUNPOU
100
AcDbLine
 10
9096.763321353305
 20
9291.243960487021
 30
0.0
 11
9096.763321353305
 21
9321.24396048702
 31
0.0
  0
LINE
  5
15C00
330
15B9B
100
AcDbEntity
  8
AQU_HOKYOU
100
AcDbLine
 10
5601.09339834117
 20
3858.807015277413
 30
0.0
 11
5718.181710095739
 21
3741.718703522844
 31
0.0
  0
LINE
  5
15C01
330
15B9B
100
AcDbEntity
  8
AQU_HOKYOU
100
AcDbLine
 10
5484.005086586602
 20
3741.718703522848
 30
0.0
 11
5652.005086586601
 21
3909.718703522845
 31
0.0
  0
LINE
  5
15C02
330
15B9B
100
AcDbEntity
  8
AQU_HOKYOU
100
AcDbLine
 10
5958.555937625614
 20
3909.718703522846
 30
0.0
 11
5484.005086586602
 21
3909.718703522845
 31
0.0
  0
LINE
  5
15C03
330
15B9B
100
AcDbEntity
  8
KISO
100
AcDbLine
 10
5644.005086586606
 20
2997.718703522841
 30
0.0
 11
3484.005086586604
 21
2997.718703522841
 31
0.0
  0
LINE
  5
15C04
330
15B9B
100
AcDbEntity
  8
KISO
100
AcDbLine
 10
3484.005086586604
 20
2837.718703522838
 30
0.0
 11
5644.005086586606
 21
2837.718703522841
 31
0.0
  0
LINE
  5
15C05
330
15B9B
100
AcDbEntity
  8
HATCH
100
AcDbLine
 10
4124.487510890872
 20
3957.718703522843
 30
0.0
 11
3644.005086586601
 21
3477.236279218566
 31
0.0
  0
LINE
  5
15C06
330
15B9B
100
AcDbEntity
  8
HATCH
100
AcDbLine
 10
4076.969935195132
 20
3957.718703522843
 30
0.0
 11
3644.005086586601
 21
3524.753854914303
 31
0.0
  0
LINE
  5
15C07
330
15B9B
100
AcDbEntity
  8
HATCH
100
AcDbLine
 10
4172.005086586607
 20
3957.718703522843
 30
0.0
 11
3644.005086586601
 21
3429.718703522832
 31
0.0
  0
LINE
  5
15C08
330
15B9B
100
AcDbEntity
  8
HATCH
100
AcDbLine
 10
4108.005086586585
 20
3029.718703522844
 30
0.0
 11
4076.00508658658
 21
2997.718703522841
 31
0.0
  0
LINE
  5
15C09
330
15B9B
100
AcDbEntity
  8
KIN
100
AcDbLine
 10
3756.005086586605
 20
3077.718703522843
 30
0.0
 11
5372.005086586607
 21
3077.718703522844
 31
0.0
  0
LINE
  5
15C0A
330
15B9B
100
AcDbEntity
  8
HATCH
100
AcDbLine
 10
4604.005086586608
 20
3957.718703522846
 30
0.0
 11
3772.005086586613
 21
3125.718703522844
 31
0.0
  0
LINE
  5
15C0B
330
15B9B
100
AcDbEntity
  8
HATCH
100
AcDbLine
 10
4556.48751089087
 20
3957.718703522843
 30
0.0
 11
3724.487510890873
 21
3125.718703522844
 31
0.0
  0
LINE
  5
15C0C
330
15B9B
100
AcDbEntity
  8
HATCH
100
AcDbLine
 10
4651.522662282339
 20
3957.718703522846
 30
0.0
 11
3819.52266228234
 21
3125.718703522843
 31
0.0
  0
LINE
  5
15C0D
330
15B9B
100
AcDbEntity
  8
KISO
100
AcDbLine
 10
4932.725086586598
 20
3957.718703522846
 30
0.0
 11
3022.21185189781
 21
3957.718703522843
 31
0.0
  0
LINE
  5
15C0E
330
15B9B
100
AcDbEntity
  8
KISO
100
AcDbLine
 10
3644.005086586604
 20
3957.718703522843
 30
0.0
 11
3644.005086586604
 21
2997.718703522841
 31
0.0
  0
LINE
  5
15C0F
330
15B9B
100
AcDbEntity
  8
KISO
100
AcDbLine
 10
3484.005086586604
 20
2837.718703522838
 30
0.0
 11
3484.005086586604
 21
2997.718703522841
 31
0.0
  0
CIRCLE
  5
15C10
330
15B9B
100
AcDbEntity
  8
KIN
100
AcDbCircle
 10
3756.005086586605
 20
3088.118703522841
 30
0.0
 40
10.4
  0
LINE
  5
15C11
330
15B9B
100
AcDbEntity
  8
KISO
100
AcDbLine
 10
3022.21185189781
 20
3717.718703522843
 30
0.0
 11
3644.005086586601
 21
3717.718703522844
 31
0.0
  0
LINE
  5
15C12
330
15B9B
100
AcDbEntity
  8
KISO
100
AcDbLine
 10
3022.21185189781
 20
3813.718703522841
 30
0.0
 11
3644.005086586601
 21
3813.718703522843
 31
0.0
  0
LINE
  5
15C13
330
15B9B
100
AcDbEntity
  8
CF-101
100
AcDbLine
 10
4932.725086586599
 20
3157.718703522843
 30
0.0
 11
4932.725086586607
 21
4384.918703522841
 31
0.0
  0
LINE
  5
15C14
330
15B9B
100
AcDbEntity
  8
CF-101
100
AcDbLine
 10
5075.2850865866
 20
3157.718703522843
 30
0.0
 11
5075.285086586609
 21
4384.918703522841
 31
0.0
  0
LINE
  5
15C15
330
15B9B
100
AcDbEntity
  8
HATCH
100
AcDbLine
 10
5484.005086586606
 20
3446.683552131379
 30
0.0
 11
5372.005086586604
 21
3334.683552131377
 31
0.0
  0
LINE
  5
15C16
330
15B9B
100
AcDbEntity
  8
HATCH
100
AcDbLine
 10
5484.005086586602
 20
3399.165976435639
 30
0.0
 11
5372.005086586605
 21
3287.165976435639
 31
0.0
  0
LINE
  5
15C17
330
15B9B
100
AcDbEntity
  8
KIN-T
100
AcDbLine
 10
4684.005086586604
 20
3861.718703522843
 30
0.0
 11
4684.005086586602
 21
3325.718703522845
 31
0.0
  0
LINE
  5
15C18
330
15B9B
100
AcDbEntity
  8
KIN-T
100
AcDbLine
 10
5324.005086586602
 20
3861.718703522843
 30
0.0
 11
5324.005086586602
 21
3325.718703522843
 31
0.0
  0
LINE
  5
15C19
330
15B9B
100
AcDbEntity
  8
KISO
100
AcDbLine
 10
5484.005086586606
 20
2997.718703522844
 30
0.0
 11
5484.005086586602
 21
3957.718703522846
 31
0.0
  0
LINE
  5
15C1A
330
15B9B
100
AcDbEntity
  8
KIN
100
AcDbLine
 10
4724.005086586602
 20
3317.718703522842
 30
0.0
 11
4932.725086586602
 21
3317.718703522842
 31
0.0
  0
LINE
  5
15C1B
330
15B9B
100
AcDbEntity
  8
KIN-T
100
AcDbLine
 10
4403.285086586601
 20
3277.718703522845
 30
0.0
 11
4636.005086586602
 21
3277.718703522845
 31
0.0
  0
LINE
  5
15C1C
330
15B9B
100
AcDbEntity
  8
HATCH
100
AcDbLine
 10
4203.040237978071
 20
3029.718703522844
 30
0.0
 11
4171.040237978071
 21
2997.718703522841
 31
0.0
  0
LINE
  5
15C1D
330
15B9B
100
AcDbEntity
  8
HATCH
100
AcDbLine
 10
4155.522662282341
 20
3029.718703522844
 30
0.0
 11
4123.522662282337
 21
2997.718703522841
 31
0.0
  0
LINE
  5
15C1E
330
15B9B
100
AcDbEntity
  8
HATCH
100
AcDbLine
 10
4634.557813673801
 20
3029.718703522844
 30
0.0
 11
4602.557813673801
 21
2997.718703522842
 31
0.0
  0
LINE
  5
15C1F
330
15B9B
100
AcDbEntity
  8
HATCH
100
AcDbLine
 10
4587.04023797807
 20
3029.718703522844
 30
0.0
 11
4555.040237978067
 21
2997.718703522842
 31
0.0
  0
LINE
  5
15C20
330
15B9B
100
AcDbEntity
  8
HATCH
100
AcDbLine
 10
4539.522662282313
 20
3029.718703522844
 30
0.0
 11
4507.522662282311
 21
2997.718703522842
 31
0.0
  0
ARC
  5
15C21
330
15B9B
100
AcDbEntity
  8
KIN-T
100
AcDbCircle
 10
4636.005086586602
 20
3325.718703522845
 30
0.0
 40
48.0
100
AcDbArc
 50
270.0
 51
0.0
  0
LINE
  5
15C22
330
15B9B
100
AcDbEntity
  8
KIN
100
AcDbLine
 10
5075.2850865866
 20
3317.718703522842
 30
0.0
 11
5284.005086586603
 21
3317.718703522842
 31
0.0
  0
LINE
  5
15C23
330
15B9B
100
AcDbEntity
  8
KIN-T
100
AcDbLine
 10
5043.2850865866
 20
3277.718703522843
 30
0.0
 11
5276.0050865866
 21
3277.718703522843
 31
0.0
  0
LINE
  5
15C24
330
15B9B
100
AcDbEntity
  8
HATCH
100
AcDbLine
 10
5066.557813673814
 20
3029.718703522844
 30
0.0
 11
5034.557813673816
 21
2997.718703522842
 31
0.0
  0
LINE
  5
15C25
330
15B9B
100
AcDbEntity
  8
HATCH
100
AcDbLine
 10
5019.040237978082
 20
3029.718703522844
 30
0.0
 11
4987.040237978082
 21
2997.718703522842
 31
0.0
  0
LINE
  5
15C26
330
15B9B
100
AcDbEntity
  8
HATCH
100
AcDbLine
 10
5114.075389369535
 20
3029.718703522844
 30
0.0
 11
5082.075389369531
 21
2997.718703522844
 31
0.0
  0
LINE
  5
15C27
330
15B9B
100
AcDbEntity
  8
CF-101
100
AcDbLine
 10
5075.2850865866
 20
3157.718703522843
 30
0.0
 11
4932.725086586599
 21
3157.718703522843
 31
0.0
  0
CIRCLE
  5
15C28
330
15B9B
100
AcDbEntity
  8
KIN
100
AcDbCircle
 10
5372.005086586605
 20
3088.118703522844
 30
0.0
 40
10.4
  0
LINE
  5
15C29
330
15B9B
100
AcDbEntity
  8
HATCH
100
AcDbLine
 10
5484.005086586606
 20
3351.648400739902
 30
0.0
 11
5372.005086586605
 21
3239.648400739907
 31
0.0
  0
ARC
  5
15C2A
330
15B9B
100
AcDbEntity
  8
KIN-T
100
AcDbCircle
 10
5276.0050865866
 20
3325.718703522843
 30
0.0
 40
48.0
100
AcDbArc
 50
270.0
 51
0.0
  0
LINE
  5
15C2B
330
15B9B
100
AcDbEntity
  8
KIN
100
AcDbLine
 10
4684.005086586604
 20
3861.718703522843
 30
0.0
 11
5324.005086586602
 21
3861.718703522843
 31
0.0
  0
LINE
  5
15C2C
330
15B9B
100
AcDbEntity
  8
KIN
100
AcDbLine
 10
4684.005086586602
 20
3701.718703522841
 30
0.0
 11
5324.005086586602
 21
3701.718703522843
 31
0.0
  0
LINE
  5
15C2D
330
15B9B
100
AcDbEntity
  8
KIN
100
AcDbLine
 10
4684.005086586602
 20
3541.718703522843
 30
0.0
 11
5324.005086586605
 21
3541.718703522843
 31
0.0
  0
LINE
  5
15C2E
330
15B9B
100
AcDbEntity
  8
KIN
100
AcDbLine
 10
4684.005086586604
 20
3381.718703522845
 30
0.0
 11
5324.005086586605
 21
3381.718703522845
 31
0.0
  0
CIRCLE
  5
15C2F
330
15B9B
100
AcDbEntity
  8
KIN
100
AcDbCircle
 10
4676.805086586602
 20
3541.718703522843
 30
0.0
 40
7.2
  0
CIRCLE
  5
15C30
330
15B9B
100
AcDbEntity
  8
KIN
100
AcDbCircle
 10
4676.805086586602
 20
3381.718703522845
 30
0.0
 40
7.2
  0
CIRCLE
  5
15C31
330
15B9B
100
AcDbEntity
  8
KIN
100
AcDbCircle
 10
4676.805086586602
 20
3861.718703522843
 30
0.0
 40
7.2
  0
CIRCLE
  5
15C32
330
15B9B
100
AcDbEntity
  8
KIN
100
AcDbCircle
 10
4676.805086586602
 20
3701.718703522841
 30
0.0
 40
7.2
  0
LINE
  5
15C33
330
15B9B
100
AcDbEntity
  8
HATCH
100
AcDbLine
 10
5484.005086586602
 20
3926.201127827106
 30
0.0
 11
5372.005086586605
 21
3814.201127827113
 31
0.0
  0
CIRCLE
  5
15C34
330
15B9B
100
AcDbEntity
  8
KIN
100
AcDbCircle
 10
5331.205086586603
 20
3541.718703522843
 30
0.0
 40
7.2
  0
CIRCLE
  5
15C35
330
15B9B
100
AcDbEntity
  8
KIN
100
AcDbCircle
 10
5331.205086586603
 20
3381.718703522845
 30
0.0
 40
7.2
  0
LINE
  5
15C36
330
15B9B
100
AcDbEntity
  8
HATCH
100
AcDbLine
 10
5484.005086586602
 20
3831.165976435634
 30
0.0
 11
5372.005086586605
 21
3719.165976435637
 31
0.0
  0
LINE
  5
15C37
330
15B9B
100
AcDbEntity
  8
HATCH
100
AcDbLine
 10
5484.005086586602
 20
3878.683552131373
 30
0.0
 11
5372.005086586605
 21
3766.683552131375
 31
0.0
  0
CIRCLE
  5
15C38
330
15B9B
100
AcDbEntity
  8
KIN
100
AcDbCircle
 10
5331.205086586603
 20
3861.718703522843
 30
0.0
 40
7.2
  0
CIRCLE
  5
15C39
330
15B9B
100
AcDbEntity
  8
KIN
100
AcDbCircle
 10
5331.205086586603
 20
3701.718703522843
 30
0.0
 40
7.2
  0
LINE
  5
15C3A
330
15B9B
100
AcDbEntity
  8
AQU_HOKYOU
100
AcDbLine
 10
5550.181710095738
 20
3807.895327031983
 30
0.0
 11
5616.358333604875
 21
3741.718703522844
 31
0.0
  0
LINE
  5
15C3B
330
15B9B
100
AcDbEntity
  8
AQU_HOKYOU
100
AcDbLine
 10
5484.005086586606
 20
3843.542080013704
 30
0.0
 11
5550.181710095746
 21
3909.718703522845
 31
0.0
  0
LINE
  5
15C3C
330
15B9B
100
AcDbEntity
  8
KISO
100
AcDbLine
 10
5484.005086586602
 20
3957.718703522846
 30
0.0
 11
5075.2850865866
 21
3957.718703522846
 31
0.0
  0
LINE
  5
15C3D
330
15B9B
100
AcDbEntity
  8
KISO
100
AcDbLine
 10
5644.005086586606
 20
2837.718703522841
 30
0.0
 11
5644.005086586606
 21
2997.718703522844
 31
0.0
  0
LINE
  5
15C3E
330
15B9B
100
AcDbEntity
  8
AQU_HOKYOU
100
AcDbLine
 10
5937.093398341169
 20
3858.807015277413
 30
0.0
 11
5958.555937625614
 21
3837.344475992971
 31
0.0
  0
LINE
  5
15C3F
330
15B9B
100
AcDbEntity
  8
AQU_HOKYOU
100
AcDbLine
 10
5820.005086586601
 20
3741.718703522848
 30
0.0
 11
5958.555937625614
 21
3880.269554561857
 31
0.0
  0
LINE
  5
15C40
330
15B9B
100
AcDbEntity
  8
AQU_HOKYOU
100
AcDbLine
 10
5769.093398341169
 20
3792.63039176828
 30
0.0
 11
5886.18171009574
 21
3909.718703522845
 31
0.0
  0
LINE
  5
15C41
330
15B9B
100
AcDbEntity
  8
AQU_HOKYOU
100
AcDbLine
 10
5652.005086586601
 20
3909.718703522845
 30
0.0
 11
5820.005086586601
 21
3741.718703522848
 31
0.0
  0
LINE
  5
15C42
330
15B9B
100
AcDbEntity
  8
AQU_HOKYOU
100
AcDbLine
 10
5718.181710095739
 20
3843.54208001371
 30
0.0
 11
5784.35833360487
 21
3909.718703522845
 31
0.0
  0
LINE
  5
15C43
330
15B9B
100
AcDbEntity
  8
AQU_HOKYOU
100
AcDbLine
 10
5886.181710095739
 20
3807.895327031983
 30
0.0
 11
5952.358333604875
 21
3741.718703522844
 31
0.0
  0
LINE
  5
15C44
330
15B9B
100
AcDbEntity
  8
HATCH
100
AcDbLine
 10
3388.762045930064
 20
3957.718703522843
 30
0.0
 11
3244.762045930068
 21
3813.718703522843
 31
0.0
  0
LINE
  5
15C45
330
15B9B
100
AcDbEntity
  8
HATCH
100
AcDbLine
 10
3436.279621625857
 20
3957.718703522843
 30
0.0
 11
3292.27962162585
 21
3813.718703522843
 31
0.0
  0
LINE
  5
15C46
330
15B9B
100
AcDbEntity
  8
HATCH
100
AcDbLine
 10
3341.244470234325
 20
3957.718703522843
 30
0.0
 11
3197.244470234327
 21
3813.718703522843
 31
0.0
  0
LINE
  5
15C47
330
15B9B
100
AcDbEntity
  8
HATCH
100
AcDbLine
 10
4636.005086586602
 20
3510.201127827107
 30
0.0
 11
4251.52266228234
 21
3125.718703522844
 31
0.0
  0
LINE
  5
15C48
330
15B9B
100
AcDbEntity
  8
HATCH
100
AcDbLine
 10
4636.0050865866
 20
3557.718703522843
 30
0.0
 11
4204.005086586601
 21
3125.718703522844
 31
0.0
  0
LINE
  5
15C49
330
15B9B
100
AcDbEntity
  8
HATCH
100
AcDbLine
 10
4636.005086586602
 20
3462.683552131375
 30
0.0
 11
4299.040237978071
 21
3125.718703522844
 31
0.0
  0
LINE
  5
15C4A
330
15B9B
100
AcDbEntity
  8
HATCH
100
AcDbLine
 10
3723.522662282344
 20
3029.718703522844
 30
0.0
 11
3691.52266228234
 21
2997.718703522842
 31
0.0
  0
LINE
  5
15C4B
330
15B9B
100
AcDbEntity
  8
HATCH
100
AcDbLine
 10
3676.005086586613
 20
3029.718703522844
 30
0.0
 11
3644.005086586604
 21
2997.718703522835
 31
0.0
  0
CIRCLE
  5
15C4C
330
15B9B
100
AcDbEntity
  8
KIN
100
AcDbCircle
 10
4025.285086586603
 20
3088.118703522841
 30
0.0
 40
10.4
  0
CIRCLE
  5
15C4D
330
15B9B
100
AcDbEntity
  8
KIN
100
AcDbCircle
 10
4294.565086586603
 20
3088.118703522841
 30
0.0
 40
10.4
  0
CIRCLE
  5
15C4E
330
15B9B
100
AcDbEntity
  8
KIN
100
AcDbCircle
 10
4563.845086586602
 20
3088.118703522841
 30
0.0
 40
10.4
  0
CIRCLE
  5
15C4F
330
15B9B
100
AcDbEntity
  8
KIN
100
AcDbCircle
 10
4833.125086586604
 20
3088.118703522841
 30
0.0
 40
10.4
  0
CIRCLE
  5
15C50
330
15B9B
100
AcDbEntity
  8
KIN
100
AcDbCircle
 10
5102.405086586606
 20
3088.118703522841
 30
0.0
 40
10.4
  0
CIRCLE
  5
15C51
330
15B9B
100
AcDbEntity
  8
KIN
100
AcDbCircle
 10
5371.685086586603
 20
3088.118703522841
 30
0.0
 40
10.4
  0
LINE
  5
15C52
330
15B9B
100
AcDbEntity
  8
SUNPOU
100
AcDbLine
 10
5773.242036333173
 20
3999.718703522847
 30
0.0
 11
5669.318987879041
 21
3999.718703522847
 31
0.0
  0
TEXT
  5
15C53
330
15B9B
100
AcDbEntity
  8
SUNPOU
100
AcDbText
 10
5649.851940677535
 20
4044.718703522843
 30
0.0
 40
90.0
  1
G.L
 41
0.6666666666666666
  7
00
 72
     4
 11
5721.280512106107
 21
4089.718703522843
 31
0.0
100
AcDbText
  0
LINE
  5
15C54
330
15B9B
100
AcDbEntity
  8
SUNPOU
100
AcDbLine
 10
5721.280512106107
 20
3909.718703522845
 30
0.0
 11
5773.242036333173
 21
3999.718703522847
 31
0.0
  0
LINE
  5
15C55
330
15B9B
100
AcDbEntity
  8
SUNPOU
100
AcDbLine
 10
5669.318987879041
 20
3999.718703522847
 30
0.0
 11
5721.280512106107
 21
3909.718703522845
 31
0.0
  0
LINE
  5
15C56
330
15B9B
100
AcDbEntity
  8
SUNPOU
100
AcDbLine
 10
3128.884608664479
 20
4047.718703522843
 30
0.0
 11
3180.846132891545
 21
3957.718703522843
 31
0.0
  0
LINE
  5
15C57
330
15B9B
100
AcDbEntity
  8
SUNPOU
100
AcDbLine
 10
3232.807657118613
 20
4047.718703522843
 30
0.0
 11
3128.884608664479
 21
4047.718703522843
 31
0.0
  0
TEXT
  5
15C58
330
15B9B
100
AcDbEntity
  8
SUNPOU
100
AcDbText
 10
3112.274704320117
 20
4092.718703522842
 30
0.0
 40
90.0
  1
F.L
 41
0.6666666666666666
  7
00
 72
     4
 11
3180.846132891545
 21
4137.718703522842
 31
0.0
100
AcDbText
  0
LINE
  5
15C59
330
15B9B
100
AcDbEntity
  8
SUNPOU
100
AcDbLine
 10
3180.846132891545
 20
3957.718703522843
 30
0.0
 11
3232.807657118613
 21
4047.718703522843
 31
0.0
  0
LINE
  5
15C5A
330
15B9B
100
AcDbEntity
  8
HIKIDASHI
100
AcDbLine
 10
5786.076085165333
 20
2125.147386988718
 30
0.0
 11
6635.370169837578
 21
2125.147386988718
 31
0.0
  0
CIRCLE
  5
15C5B
330
15B9B
100
AcDbEntity
  8
HIKIDASHI
100
AcDbCircle
 10
6323.22656444951
 20
2215.147386988718
 30
0.0
 40
60.0
  0
TEXT
  5
15C5C
330
15B9B
100
AcDbEntity
  8
HIKIDASHI
100
AcDbText
 10
6290.72656444951
 20
2177.647386988718
 30
0.0
 40
75.0
  1
ア
  7
01
 72
     1
 11
6323.22656444951
 21
2215.147386988718
 31
0.0
100
AcDbText
 73
     2
  0
TEXT
  5
15C5D
330
15B9B
100
AcDbEntity
  8
HIKIDASHI
100
AcDbText
 10
5816.076085165332
 20
2170.147386988718
 30
0.0
 40
90.0
  1
帯筋
  7
01
100
AcDbText
  0
TEXT
  5
15C5E
330
15B9B
100
AcDbEntity
  8
HIKIDASHI
100
AcDbText
 10
6065.34003819912
 20
2170.147386988718
 30
0.0
 40
90.0
  1
9 %%c
 41
0.6700000000000001
  7
00
100
AcDbText
  0
TEXT
  5
15C5F
330
15B9B
100
AcDbEntity
  8
HIKIDASHI
100
AcDbText
 10
6441.69874126615
 20
2170.147386988718
 30
0.0
 40
90.0
  1
100
 41
0.6700000000000001
  7
00
100
AcDbText
  0
TEXT
  5
15C60
330
15B9B
100
AcDbEntity
  8
HIKIDASHI
100
AcDbText
 10
6152.255647035612
 20
2375.351403224569
 30
0.0
 40
90.0
  1
4-D13
 41
0.6700000000000001
  7
00
100
AcDbText
  0
TEXT
  5
15C61
330
15B9B
100
AcDbEntity
  8
HIKIDASHI
100
AcDbText
 10
5902.991694001824
 20
2375.351403224569
 30
0.0
 40
90.0
  1
主筋
  7
01
100
AcDbText
  0
LINE
  5
15C62
330
15B9B
100
AcDbEntity
  8
HIKIDASHI
100
AcDbLine
 10
5862.991694001824
 20
2335.351403224569
 30
0.0
 11
6507.106834568978
 21
2335.351403224569
 31
0.0
  0
LINE
  5
15C63
330
15B9B
100
AcDbEntity
  8
HIKIDASHI
100
AcDbLine
 10
4229.882224948849
 20
1774.430061310486
 30
0.0
 11
5157.385362596274
 21
1774.430061310486
 31
0.0
  0
LINE
  5
15C64
330
15B9B
100
AcDbEntity
  8
HIKIDASHI
100
AcDbLine
 10
4229.882224948849
 20
1814.430061310486
 30
0.0
 11
5157.385362596274
 21
1814.430061310486
 31
0.0
  0
TEXT
  5
15C65
330
15B9B
100
AcDbEntity
  8
HIKIDASHI
100
AcDbText
 10
4269.882224948849
 20
1874.430061310486
 30
0.0
 40
120.0
  1
A  ~  A'
 41
0.6700000000000001
  7
00
100
AcDbText
  0
TEXT
  5
15C66
330
15B9B
100
AcDbEntity
  8
HIKIDASHI
100
AcDbText
 10
4755.238597610929
 20
1874.430061310486
 30
0.0
 40
120.0
  1
断  面
  7
01
100
AcDbText
  0
TEXT
  5
15C67
330
15B9B
100
AcDbEntity
  8
HIKIDASHI
100
AcDbText
 10
2887.801890967452
 20
2503.731788496597
 30
0.0
 40
90.0
  1
10 %%c x 350
 41
0.6700000000000001
  7
00
100
AcDbText
  0
LINE
  5
15C68
330
15B9B
100
AcDbEntity
  8
HIKIDASHI
100
AcDbLine
 10
2650.580494997001
 20
2458.731788496597
 30
0.0
 11
3458.578019690164
 21
2458.731788496597
 31
0.0
  0
TEXT
  5
15C69
330
15B9B
100
AcDbEntity
  8
HIKIDASHI
100
AcDbText
 10
2672.610962982009
 20
2503.731788496597
 30
0.0
 40
90.0
  1
鉄筋
  7
01
100
AcDbText
  0
LINE
  5
15C6A
330
15B9B
100
AcDbEntity
  8
KIN
100
AcDbLine
 10
7828.103906328145
 20
3379.166484335344
 30
0.0
 11
9443.783906328143
 21
3379.166484335344
 31
0.0
  0
LINE
  5
15C6B
330
15B9B
100
AcDbEntity
  8
KIN
100
AcDbLine
 10
7828.103906328145
 20
3643.166484335344
 30
0.0
 11
9443.783906328143
 21
3643.166484335344
 31
0.0
  0
LINE
  5
15C6C
330
15B9B
100
AcDbEntity
  8
HATCH
100
AcDbLine
 10
9063.390303915204
 20
4019.166484335345
 30
0.0
 11
8423.390303915203
 21
3379.166484335344
 31
0.0
  0
LINE
  5
15C6D
330
15B9B
100
AcDbEntity
  8
HATCH
100
AcDbLine
 10
9110.907879610941
 20
4019.166484335345
 30
0.0
 11
8470.907879610933
 21
3379.166484335344
 31
0.0
  0
LINE
  5
15C6E
330
15B9B
100
AcDbEntity
  8
1PL-M1
100
AcDbLine
 10
9676.103906328144
 20
3379.166484335344
 30
0.0
 11
7596.103906328146
 21
3379.166484335344
 31
0.0
  0
LINE
  5
15C6F
330
15B9B
100
AcDbEntity
  8
KIN
100
AcDbLine
 10
7838.503906328146
 20
3907.166484335344
 30
0.0
 11
9433.703906328146
 21
3907.166484335344
 31
0.0
  0
LINE
  5
15C70
330
15B9B
100
AcDbEntity
  8
HATCH
100
AcDbLine
 10
9495.390303915201
 20
4019.166484335345
 30
0.0
 11
8855.390303915198
 21
3379.166484335344
 31
0.0
  0
LINE
  5
15C71
330
15B9B
100
AcDbEntity
  8
HATCH
100
AcDbLine
 10
9542.907879610936
 20
4019.166484335345
 30
0.0
 11
8902.907879610937
 21
3379.166484335344
 31
0.0
  0
LINE
  5
15C72
330
15B9B
100
AcDbEntity
  8
HATCH
100
AcDbLine
 10
9556.103906328148
 20
3984.844935356815
 30
0.0
 11
8950.425455306669
 21
3379.166484335344
 31
0.0
  0
LINE
  5
15C73
330
15B9B
100
AcDbEntity
  8
KIN
100
AcDbLine
 10
8097.383906328145
 20
3379.166484335344
 30
0.0
 11
8097.383906328145
 21
3907.166484335344
 31
0.0
  0
LINE
  5
15C74
330
15B9B
100
AcDbEntity
  8
KIN
100
AcDbLine
 10
8366.663906328145
 20
3379.166484335344
 30
0.0
 11
8366.663906328145
 21
3907.166484335344
 31
0.0
  0
LINE
  5
15C75
330
15B9B
100
AcDbEntity
  8
KIN
100
AcDbLine
 10
8635.943906328142
 20
3379.166484335344
 30
0.0
 11
8635.943906328142
 21
3907.166484335344
 31
0.0
  0
LINE
  5
15C76
330
15B9B
100
AcDbEntity
  8
KIN
100
AcDbLine
 10
8905.223906328142
 20
3379.166484335344
 30
0.0
 11
8905.223906328142
 21
3907.166484335344
 31
0.0
  0
LINE
  5
15C77
330
15B9B
100
AcDbEntity
  8
HATCH
100
AcDbLine
 10
8536.355152523734
 20
4019.166484335345
 30
0.0
 11
7896.355152523735
 21
3379.166484335344
 31
0.0
  0
LINE
  5
15C78
330
15B9B
100
AcDbEntity
  8
HATCH
100
AcDbLine
 10
8583.872728219471
 20
4019.166484335345
 30
0.0
 11
7943.872728219478
 21
3379.166484335344
 31
0.0
  0
LINE
  5
15C79
330
15B9B
100
AcDbEntity
  8
HATCH
100
AcDbLine
 10
8627.621482023881
 20
4015.397662444023
 30
0.0
 11
7991.39030391521
 21
3379.166484335344
 31
0.0
  0
LINE
  5
15C7A
330
15B9B
100
AcDbEntity
  8
HATCH
100
AcDbLine
 10
9015.872728219468
 20
4019.166484335345
 30
0.0
 11
8375.872728219468
 21
3379.166484335344
 31
0.0
  0
LINE
  5
15C7B
330
15B9B
100
AcDbEntity
  8
KIN
100
AcDbLine
 10
7828.103906328144
 20
3379.166484335344
 30
0.0
 11
7828.103906328144
 21
3896.766484335344
 31
0.0
  0
LINE
  5
15C7C
330
15B9B
100
AcDbEntity
  8
HATCH
100
AcDbLine
 10
8151.872728219471
 20
4019.166484335346
 30
0.0
 11
7716.103906328147
 21
3583.397662444012
 31
0.0
  0
LINE
  5
15C7D
330
15B9B
100
AcDbEntity
  8
HATCH
100
AcDbLine
 10
8104.355152523737
 20
4019.166484335346
 30
0.0
 11
7716.103906328147
 21
3630.915238139744
 31
0.0
  0
LINE
  5
15C7E
330
15B9B
100
AcDbEntity
  8
HATCH
100
AcDbLine
 10
8056.837576828
 20
4019.166484335345
 30
0.0
 11
7716.103906328147
 21
3678.432813835494
 31
0.0
  0
ARC
  5
15C7F
330
15B9B
100
AcDbEntity
  8
KIN
100
AcDbCircle
 10
7838.503906328146
 20
3896.766484335344
 30
0.0
 40
10.4
100
AcDbArc
 50
90.0
 51
180.0
  0
LINE
  5
15C80
330
15B9B
100
AcDbEntity
  8
KIN
100
AcDbLine
 10
9174.503906328144
 20
3379.166484335344
 30
0.0
 11
9174.503906328144
 21
3907.166484335344
 31
0.0
  0
LINE
  5
15C81
330
15B9B
100
AcDbEntity
  8
KIN
100
AcDbLine
 10
9443.783906328143
 20
3379.166484335344
 30
0.0
 11
9443.783906328143
 21
3896.766484335344
 31
0.0
  0
LINE
  5
15C82
330
15B9B
100
AcDbEntity
  8
KIN
100
AcDbLine
 10
9444.103906328143
 20
3896.766484335344
 30
0.0
 11
9444.103906328143
 21
3379.166484335344
 31
0.0
  0
LINE
  5
15C83
330
15B9B
100
AcDbEntity
  8
1PL-M1
100
AcDbLine
 10
9076.103906328143
 20
4139.166484335344
 30
0.0
 11
9076.103906328143
 21
2619.166484335346
 31
0.0
  0
LINE
  5
15C84
330
15B9B
100
AcDbEntity
  8
HATCH
100
AcDbLine
 10
9556.103906328148
 20
3505.327359661088
 30
0.0
 11
9429.943031002402
 21
3379.166484335344
 31
0.0
  0
LINE
  5
15C85
330
15B9B
100
AcDbEntity
  8
HATCH
100
AcDbLine
 10
9556.103906328148
 20
3552.844935356822
 30
0.0
 11
9382.425455306668
 21
3379.166484335344
 31
0.0
  0
LINE
  5
15C86
330
15B9B
100
AcDbEntity
  8
HATCH
100
AcDbLine
 10
9556.103906328148
 20
3600.362511052559
 30
0.0
 11
9334.907879610929
 21
3379.166484335344
 31
0.0
  0
ARC
  5
15C87
330
15B9B
100
AcDbEntity
  8
KIN
100
AcDbCircle
 10
9433.703906328146
 20
3896.766484335344
 30
0.0
 40
10.4
100
AcDbArc
 50
0.0
 51
90.0
  0
LINE
  5
15C88
330
15B9B
100
AcDbEntity
  8
SUNPOU
100
AcDbLine
 10
7798.503906328145
 20
3907.166484335344
 30
0.0
 11
7257.842823771877
 21
3907.166484335344
 31
0.0
  0
LINE
  5
15C89
330
15B9B
100
AcDbEntity
  8
SUNPOU
100
AcDbLine
 10
7798.503906328145
 20
2851.166484335342
 30
0.0
 11
7257.842823771877
 21
2851.166484335342
 31
0.0
  0
LINE
  5
15C8A
330
15B9B
100
AcDbEntity
  8
SUNPOU
100
AcDbLine
 10
7302.842823771877
 20
3887.166484335345
 30
0.0
 11
7302.842823771877
 21
2871.166484335343
 31
0.0
  0
LINE
  5
15C8B
330
15B9B
100
AcDbEntity
  8
SUNPOU
100
AcDbLine
 10
7828.103906328144
 20
3936.766484335345
 30
0.0
 11
7828.103906328144
 21
4335.544568577748
 31
0.0
  0
LINE
  5
15C8C
330
15B9B
100
AcDbEntity
  8
SUNPOU
100
AcDbLine
 10
9444.103906328143
 20
3936.766484335345
 30
0.0
 11
9444.103906328143
 21
4335.544568577748
 31
0.0
  0
LINE
  5
15C8D
330
15B9B
100
AcDbEntity
  8
SUNPOU
100
AcDbLine
 10
7848.103906328145
 20
4290.544568577749
 30
0.0
 11
9424.103906328145
 21
4290.544568577749
 31
0.0
  0
TEXT
  5
15C8E
330
15B9B
100
AcDbEntity
  8
SUNPOU
100
AcDbText
 10
8731.185008598812
 20
4335.544568577748
 30
0.0
 40
90.0
  1
7-D13
 41
0.6666666666666666
  7
00
 72
     4
 11
8884.042151455956
 21
4380.544568577747
 31
0.0
100
AcDbText
  0
TEXT
  5
15C8F
330
15B9B
100
AcDbEntity
  8
SUNPOU
100
AcDbText
 10
8276.382523415895
 20
4335.544568577748
 30
0.0
 40
90.0
  1
ベース筋
  7
01
 72
     4
 11
8480.382523415894
 21
4380.544568577747
 31
0.0
100
AcDbText
  0
TEXT
  5
15C90
330
15B9B
100
AcDbEntity
  8
SUNPOU
100
AcDbText
 10
7257.842823771875
 20
3473.165146684181
 30
0.0
 40
90.0
  1
5-D13
 50
90.0
 41
0.6666666666666666
  7
00
 72
     4
 11
7212.842823771875
 21
3626.022289541324
 31
0.0
100
AcDbText
  0
TEXT
  5
15C91
330
15B9B
100
AcDbEntity
  8
SUNPOU
100
AcDbText
 10
7257.842823771875
 20
3010.530109148717
 30
0.0
 40
90.0
  1
ベース筋
 50
90.0
  7
01
 72
     4
 11
7212.842823771875
 21
3214.530109148717
 31
0.0
100
AcDbText
  0
TEXT
  5
15C92
330
15B9B
100
AcDbEntity
  8
NAME
100
AcDbText
 10
12336.92663601099
 20
954.9999999999991
 30
0.0
 40
160.0
  1
YOCF
 41
0.7
  7
01
100
AcDbText
  0
TEXT
  5
15C93
330
15B9B
100
AcDbEntity
  8
NAME
100
AcDbText
 10
10903.6879903188
 20
954.9999999999991
 30
0.0
 40
160.0
  1
ヨド自転車置場      タイプ
  7
01
100
AcDbText
  0
TEXT
  5
15C94
330
15B9B
100
AcDbEntity
  8
NAME
100
AcDbText
 10
11816.04264730429
 20
541.0000000000001
 30
0.0
 40
160.0
  1
型（一般地用）
 41
0.8
  7
01
100
AcDbText
  0
TEXT
  5
15C95
330
15B9B
100
AcDbEntity
  8
NAME
100
AcDbText
 10
10912.04264730428
 20
541.0000000000001
 30
0.0
 40
160.0
  1
YOCF-200
 41
0.7
  7
01
 72
     2
 11
11776.04264730429
 21
541.0000000000001
 31
0.0
100
AcDbText
  0
TEXT
  5
15C96
330
15B9B
100
AcDbEntity
  8
NAME
100
AcDbText
 10
12854.79999999999
 20
541.0000000000003
 30
0.0
 40
160.0
  1
<3／3>
 41
0.6
  7
01
 72
     2
 11
13354.0
 21
541.0000000000003
 31
0.0
100
AcDbText
  0
TEXT
  5
15C97
330
15B9B
100
AcDbEntity
  8
SUNPOU
100
AcDbText
 10
11469.51429914458
 20
2773.630017750111
 30
0.0
 40
120.0
  1
異形鉄筋の場合、原則としてフックは不要ですが、
  7
01
100
AcDbText
  0
TEXT
  5
15C98
330
15B9B
100
AcDbEntity
  8
SUNPOU
100
AcDbText
 10
11469.51429914458
 20
2567.915732035825
 30
0.0
 40
120.0
  1
地域によっては、フックをつける様指導している
  7
01
100
AcDbText
  0
TEXT
  5
15C99
330
15B9B
100
AcDbEntity
  8
SUNPOU
100
AcDbText
 10
11469.51429914458
 20
2362.201446321537
 30
0.0
 40
120.0
  1
所もありますので、ご注意願います。
  7
01
100
AcDbText
  0
TEXT
  5
15C9A
330
15B9B
100
AcDbEntity
  8
SUNPOU
100
AcDbText
 10
11047.06141207507
 20
2773.630017750111
 30
0.0
 40
120.0
  1
注　）
  7
01
100
AcDbText
  0
TEXT
  5
15C9B
330
15B9B
100
AcDbEntity
  8
SUNPOU
100
AcDbText
 10
11194.57330569205
 20
2773.630017750111
 30
0.0
 40
120.0
  1
3
 41
0.6700000000000001
  7
01
100
AcDbText
  0
TEXT
  5
15C9C
330
15B9B
100
AcDbEntity
  8
SUNPOU
100
AcDbText
 10
11194.57330569205
 20
2979.344303464397
 30
0.0
 40
120.0
  1
2
 41
0.6700000000000001
  7
01
100
AcDbText
  0
TEXT
  5
15C9D
330
15B9B
100
AcDbEntity
  8
SUNPOU
100
AcDbText
 10
11047.06141207507
 20
2979.344303464397
 30
0.0
 40
120.0
  1
注　）
  7
01
100
AcDbText
  0
TEXT
  5
15C9E
330
15B9B
100
AcDbEntity
  8
SUNPOU
100
AcDbText
 10
11047.06141207507
 20
3390.772874892967
 30
0.0
 40
120.0
  1
注　）
  7
01
100
AcDbText
  0
TEXT
  5
15C9F
330
15B9B
100
AcDbEntity
  8
SUNPOU
100
AcDbText
 10
11194.57330569205
 20
3390.772874892967
 30
0.0
 40
120.0
  1
1
 41
0.6700000000000001
  7
01
100
AcDbText
  0
TEXT
  5
15CA0
330
15B9B
100
AcDbEntity
  8
SUNPOU
100
AcDbText
 10
11469.51429914458
 20
3185.05858917868
 30
0.0
 40
120.0
  1
あわせて設計して下さい。
  7
01
100
AcDbText
  0
TEXT
  5
15CA1
330
15B9B
100
AcDbEntity
  8
SUNPOU
100
AcDbText
 10
11469.51429914458
 20
2979.344303464397
 30
0.0
 40
120.0
  1
その他現地の実情にあわせて設計して下さい。
  7
01
100
AcDbText
  0
TEXT
  5
15CA2
330
15B9B
100
AcDbEntity
  8
SUNPOU
100
AcDbText
 10
11469.51429914458
 20
3390.772874892967
 30
0.0
 40
120.0
  1
寒冷地の場合、凍結深度等を考慮し、実情に
  7
01
100
AcDbText
  0
TEXT
  5
15CA3
330
15B9B
100
AcDbEntity
  8
SUNPOU
100
AcDbText
 10
10795.48846740375
 20
4148.825830535192
 30
0.0
 40
120.0
  1
<下記条件での参考図>
  7
01
 72
     4
 11
11580.6313245466
 21
4208.825830535192
 31
0.0
100
AcDbText
  0
TEXT
  5
15CA4
330
15B9B
100
AcDbEntity
  8
SUNPOU
100
AcDbText
 10
12409.2435465885
 20
4371.954035663397
 30
0.0
 40
98.46153846153846
  1
/
 41
0.6700000000000001
  7
00
 11
12409.2435465885
 21
4358.825830535192
 31
0.0
100
AcDbText
 73
     1
  0
TEXT
  5
15CA5
330
15B9B
100
AcDbEntity
  8
SUNPOU
100
AcDbText
 10
12494.50947052767
 20
4347.338651048012
 30
0.0
 40
98.46153846153846
  1
25
 41
0.6700000000000001
  7
00
 11
12494.50947052767
 21
4334.210445919807
 31
0.0
100
AcDbText
 73
     1
  0
TEXT
  5
15CA6
330
15B9B
100
AcDbEntity
  8
SUNPOU
100
AcDbText
 10
12344.70204350134
 20
4396.569420278781
 30
0.0
 40
98.46153846153846
  1
1
 41
0.6700000000000001
  7
00
 11
12344.70204350134
 21
4383.441215150576
 31
0.0
100
AcDbText
 73
     1
  0
TEXT
  5
15CA7
330
15B9B
100
AcDbEntity
  8
SUNPOU
100
AcDbText
 10
11918.4317743639
 20
4375.236086945448
 30
0.0
 40
123.076923076923
  1
（ S = 　　  ）
 41
0.6700000000000001
  7
00
 11
11918.4317743639
 21
4358.825830535192
 31
0.0
100
AcDbText
 73
     1
  0
TEXT
  5
15CA8
330
15B9B
100
AcDbEntity
  8
SUNPOU
100
AcDbText
 10
10962.6313245466
 20
4358.825830535192
 30
0.0
 40
160.0
  1
基礎断面図
  7
01
 72
     4
 11
11415.96465787994
 21
4438.825830535192
 31
0.0
100
AcDbText
  0
TEXT
  5
15CA9
330
15B9B
100
AcDbEntity
  8
SUNPOU
100
AcDbText
 10
14807.43671582408
 20
3963.405062417235
 30
0.0
 40
61.7138571458333
  1
2
 41
0.6700000000000001
  7
00
100
AcDbText
  0
TEXT
  5
15CAA
330
15B9B
100
AcDbEntity
  8
SUNPOU
100
AcDbText
 10
14401.48407311554
 20
3896.487160607252
 30
0.0
 40
119.9991666724536
  1
N/mm
 41
0.6700000000000001
  7
01
100
AcDbText
  0
TEXT
  5
15CAB
330
15B9B
100
AcDbEntity
  8
SUNPOU
100
AcDbText
 10
14220.36880273427
 20
3896.487160607252
 30
0.0
 40
119.9991666724536
  1
18
 41
0.6700000000000001
  7
01
100
AcDbText
  0
LINE
  5
15CAC
330
15B9B
100
AcDbEntity
  8
SUNPOU
100
AcDbLine
 10
13418.66072111421
 20
3690.772874892967
 30
0.0
 11
13418.66072111421
 21
3802.096026491341
 31
0.0
  0
LINE
  5
15CAD
330
15B9B
100
AcDbEntity
  8
SUNPOU
100
AcDbLine
 10
13396.16072111421
 20
3690.772874892967
 30
0.0
 11
13396.16072111421
 21
3802.096026491341
 31
0.0
  0
LINE
  5
15CAE
330
15B9B
100
AcDbEntity
  8
SUNPOU
100
AcDbLine
 10
13373.66072111421
 20
3690.772874892967
 30
0.0
 11
13373.66072111421
 21
3802.096026491341
 31
0.0
  0
LINE
  5
15CAF
330
15B9B
100
AcDbEntity
  8
SUNPOU
100
AcDbLine
 10
13358.66072111421
 20
3690.772874892967
 30
0.0
 11
13433.66072111421
 21
3690.772874892967
 31
0.0
  0
LINE
  5
15CB0
330
15B9B
100
AcDbEntity
  8
SUNPOU
100
AcDbLine
 10
13358.66072111421
 20
3802.096026491341
 30
0.0
 11
13433.66072111421
 21
3802.096026491341
 31
0.0
  0
ARC
  5
15CB1
330
15B9B
100
AcDbEntity
  8
SUNPOU
100
AcDbCircle
 10
14987.19024313956
 20
3848.203725196361
 30
0.0
 40
300.0
100
AcDbArc
 50
328.3472725282628
 51
31.65272747173709
  0
TEXT
  5
15CB2
330
15B9B
100
AcDbEntity
  8
SUNPOU
100
AcDbText
 10
12006.55332827795
 20
3963.405062417235
 30
0.0
 40
61.7138571458333
  1
2
 41
0.6700000000000001
  7
00
100
AcDbText
  0
TEXT
  5
15CB3
330
15B9B
100
AcDbEntity
  8
SUNPOU
100
AcDbText
 10
11649.69978597343
 20
3896.487160607252
 30
0.0
 40
95.99933333796291
  1
K
 41
0.6700000000000001
  7
01
100
AcDbText
  0
TEXT
  5
15CB4
330
15B9B
100
AcDbEntity
  8
SUNPOU
100
AcDbText
 10
11468.58451559217
 20
3896.487160607252
 30
0.0
 40
119.9991666724536
  1
50  N/m
 41
0.6700000000000001
  7
01
100
AcDbText
  0
ARC
  5
15CB5
330
15B9B
100
AcDbEntity
  8
SUNPOU
100
AcDbCircle
 10
11173.51767090167
 20
3848.203725196361
 30
0.0
 40
300.0
100
AcDbArc
 50
148.3472725282628
 51
211.6527274717371
  0
TEXT
  5
15CB6
330
15B9B
100
AcDbEntity
  8
SUNPOU
100
AcDbText
 10
11614.59121057895
 20
3690.772874892967
 30
0.0
 40
119.9991666724536
  1
34 m/s
 41
0.6700000000000001
  7
01
100
AcDbText
  0
TEXT
  5
15CB7
330
15B9B
100
AcDbEntity
  8
SUNPOU
100
AcDbText
 10
10969.57330569205
 20
3690.772874892967
 30
0.0
 40
119.9991666724536
  1
基準風速   　　 , 地表面粗度区分
  7
01
100
AcDbText
  0
TEXT
  5
15CB8
330
15B9B
100
AcDbEntity
  8
SUNPOU
100
AcDbText
 10
10969.57330569205
 20
3896.487160607252
 30
0.0
 40
119.9991666724536
  1
地耐力   　　　 以上,コンクリート設計基準強度   　　　 以上
  7
01
100
AcDbText
  0
TEXT
  5
15CB9
330
15B9B
100
AcDbEntity
  8
FILENAME
100
AcDbText
 10
13868.66666666666
 20
174.0
 30
0.0
 40
100.0
  1
＜YOCF-200-U1_3_JIS_GL.DXF ＞
  7
FILENAME
 72
     2
 11
16382.0
 21
174.0
 31
0.0
100
AcDbText
  0
LINE
  5
15CBA
330
15B9B
100
AcDbEntity
  8
WAKUSEN-01
100
AcDbLine
 10
434.0000000000008
 20
413.9999999999997
 30
0.0
 11
16382.0
 21
413.9999999999997
 31
0.0
  0
LINE
  5
15CBB
330
15B9B
100
AcDbEntity
  8
WAKUSEN-01
100
AcDbLine
 10
434.0000000000008
 20
11242.0
 30
0.0
 11
16382.0
 21
11242.0
 31
0.0
  0
LINE
  5
15CBC
330
15B9B
100
AcDbEntity
  8
WAKUSEN-01
100
AcDbLine
 10
434.0000000000008
 20
413.9999999999997
 30
0.0
 11
434.0000000000008
 21
11242.0
 31
0.0
  0
LINE
  5
15CBD
330
15B9B
100
AcDbEntity
  8
WAKUSEN-01
100
AcDbLine
 10
16382.0
 20
413.9999999999997
 30
0.0
 11
16382.0
 21
11242.0
 31
0.0
  0
LINE
  5
15CBE
330
15B9B
100
AcDbEntity
  8
WAKUSEN-01
100
AcDbLine
 10
10280.0
 20
1242.0
 30
0.0
 11
16382.0
 21
1242.0
 31
0.0
  0
LINE
  5
15CBF
330
15B9B
100
AcDbEntity
  8
WAKUSEN-02
100
AcDbLine
 10
10280.0
 20
827.9999999999997
 30
0.0
 11
13434.0
 21
827.9999999999997
 31
0.0
  0
TEXT
  5
15CC0
330
15B9B
100
AcDbEntity
  8
WAKUMOJI-01
100
AcDbText
 10
10335.13012998137
 20
1062.951504669661
 30
0.0
 40
120.0
  1
名　称
  7
WAKUMOJI
100
AcDbText
  0
TEXT
  5
15CC1
330
15B9B
100
AcDbEntity
  8
WAKUMOJI-01
100
AcDbText
 10
10328.25274254596
 20
659.5644874899107
 30
0.0
 40
120.0
  1
機種名
  7
WAKUMOJI
100
AcDbText
  0
LINE
  5
15CC2
330
15B9B
100
AcDbEntity
  8
WAKUSEN-01
100
AcDbLine
 10
10280.0
 20
413.9999999999985
 30
0.0
 11
10280.0
 21
1242.0
 31
0.0
  0
LINE
  5
15CC3
330
15B9B
100
AcDbEntity
  8
WAKUSEN-02
100
AcDbLine
 10
13434.0
 20
413.9999999999963
 30
0.0
 11
13434.0
 21
1242.0
 31
0.0
  0
LINE
  5
15CC4
330
15B9B
100
AcDbEntity
  8
YODOROGO
100
AcDbLine
 10
14988.80217064596
 20
997.8747482146435
 30
0.0
 11
14914.80217064596
 21
997.8747482146435
 31
0.0
1001
AUTOCAD_POSTSCRIPT_FIGURE
1002
{
1000
PSFILL
1000
Grayscale
1000
Grayscale
1070
    25
1002
}
  0
LINE
  5
15CC5
330
15B9B
100
AcDbEntity
  8
YODOROGO
100
AcDbLine
 10
14914.80217064596
 20
973.8747482146434
 30
0.0
 11
14988.80217064596
 21
973.8747482146434
 31
0.0
1001
AUTOCAD_POSTSCRIPT_FIGURE
1002
{
1000
PSFILL
1000
Grayscale
1000
Grayscale
1070
    25
1002
}
  0
LINE
  5
15CC6
330
15B9B
100
AcDbEntity
  8
YODOROGO
100
AcDbLine
 10
14988.80217064596
 20
953.874748214644
 30
0.0
 11
14914.80217064596
 21
953.874748214644
 31
0.0
1001
AUTOCAD_POSTSCRIPT_FIGURE
1002
{
1000
PSFILL
1000
Grayscale
1000
Grayscale
1070
    25
1002
}
  0
LINE
  5
15CC7
330
15B9B
100
AcDbEntity
  8
YODOROGO
100
AcDbLine
 10
14914.80217064596
 20
929.874748214644
 30
0.0
 11
14988.80217064596
 21
929.874748214644
 31
0.0
1001
AUTOCAD_POSTSCRIPT_FIGURE
1002
{
1000
PSFILL
1000
Grayscale
1000
Grayscale
1070
    25
1002
}
  0
LINE
  5
15CC8
330
15B9B
100
AcDbEntity
  8
YODOROGO
100
AcDbLine
 10
14988.80217064596
 20
909.8747482146439
 30
0.0
 11
14914.80217064596
 21
909.8747482146439
 31
0.0
1001
AUTOCAD_POSTSCRIPT_FIGURE
1002
{
1000
PSFILL
1000
Grayscale
1000
Grayscale
1070
    25
1002
}
  0
LINE
  5
15CC9
330
15B9B
100
AcDbEntity
  8
YODOROGO
100
AcDbLine
 10
14960.80217064594
 20
853.874748214644
 30
0.0
 11
14988.80217064596
 21
853.874748214644
 31
0.0
1001
AUTOCAD_POSTSCRIPT_FIGURE
1002
{
1000
PSFILL
1000
Grayscale
1000
Grayscale
1070
    25
1002
}
  0
LINE
  5
15CCA
330
15B9B
100
AcDbEntity
  8
YODOROGO
100
AcDbLine
 10
14868.80217064596
 20
713.8747482146436
 30
0.0
 11
14968.80217064596
 21
740.6696674577553
 31
0.0
  0
LINE
  5
15CCB
330
15B9B
100
AcDbEntity
  8
YODOROGO
100
AcDbLine
 10
14974.80217064595
 20
853.874748214644
 30
0.0
 11
14942.80217064596
 21
853.874748214644
 31
0.0
  0
ARC
  5
15CCC
330
15B9B
100
AcDbEntity
  8
YODOROGO
100
AcDbCircle
 10
15127.17387491394
 20
903.9323046166312
 30
0.0
 40
190.9434321028236
100
AcDbArc
 50
213.9611167766784
 51
264.4787207431779
  0
ARC
  5
15CCD
330
15B9B
100
AcDbEntity
  8
YODOROGO
100
AcDbCircle
 10
15127.17387491396
 20
903.9323046166513
 30
0.0
 40
190.9434321028408
100
AcDbArc
 50
208.141144204866
 51
212.9210361185994
  0
LINE
  5
15CCE
330
15B9B
100
AcDbEntity
  8
YODOROGO
100
AcDbLine
 10
14885.70493649264
 20
778.403830673117
 30
0.0
 11
14966.89206625426
 21
800.1578565285436
 31
0.0
  0
LINE
  5
15CCF
330
15B9B
100
AcDbEntity
  8
YODOROGO
100
AcDbLine
 10
14868.80217064596
 20
713.8747482146436
 30
0.0
 11
14968.80217064596
 21
740.6696674577553
 31
0.0
  0
LINE
  5
15CD0
330
15B9B
100
AcDbEntity
  8
YODOROGO
100
AcDbLine
 10
14974.80217064595
 20
853.874748214644
 30
0.0
 11
14942.80217064596
 21
853.874748214644
 31
0.0
  0
ARC
  5
15CD1
330
15B9B
100
AcDbEntity
  8
YODOROGO
100
AcDbCircle
 10
15127.17387491394
 20
903.9323046166312
 30
0.0
 40
190.9434321028236
100
AcDbArc
 50
213.9611167766784
 51
264.4787207431779
  0
LINE
  5
15CD2
330
15B9B
100
AcDbEntity
  8
YODOROGO
100
AcDbLine
 10
14396.80217064594
 20
909.8747482146439
 30
0.0
 11
14216.80217064594
 21
909.8747482146439
 31
0.0
  0
LINE
  5
15CD3
330
15B9B
100
AcDbEntity
  8
YODOROGO
100
AcDbLine
 10
14256.80217064594
 20
713.8747482146436
 30
0.0
 11
14396.80217064594
 21
713.8747482146436
 31
0.0
  0
LINE
  5
15CD4
330
15B9B
100
AcDbEntity
  8
YODOROGO
100
AcDbLine
 10
14364.80217064596
 20
961.8747482146432
 30
0.0
 11
14248.80217064594
 21
961.8747482146432
 31
0.0
  0
LINE
  5
15CD5
330
15B9B
100
AcDbEntity
  8
YODOROGO
100
AcDbLine
 10
14292.80217064596
 20
1013.874748214644
 30
0.0
 11
14328.80217064596
 21
1013.874748214644
 31
0.0
  0
LINE
  5
15CD6
330
15B9B
100
AcDbEntity
  8
YODOROGO
100
AcDbLine
 10
14216.80217064594
 20
853.874748214644
 30
0.0
 11
14216.80217064594
 21
753.8747482146439
 31
0.0
  0
LINE
  5
15CD7
330
15B9B
100
AcDbEntity
  8
YODOROGO
100
AcDbLine
 10
14248.80217064594
 20
781.8747482146434
 30
0.0
 11
14248.80217064594
 21
853.874748214644
 31
0.0
  0
LINE
  5
15CD8
330
15B9B
100
AcDbEntity
  8
YODOROGO
100
AcDbLine
 10
14292.80217064596
 20
873.8747482146449
 30
0.0
 11
14292.80217064596
 21
773.874748214644
 31
0.0
  0
LINE
  5
15CD9
330
15B9B
100
AcDbEntity
  8
YODOROGO
100
AcDbLine
 10
13928.80217064596
 20
841.8747482146445
 30
0.0
 11
13888.80217064596
 21
809.9862070222856
 31
0.0
  0
LINE
  5
15CDA
330
15B9B
100
AcDbEntity
  8
YODOROGO
100
AcDbLine
 10
13968.80217064596
 20
809.9862070222856
 30
0.0
 11
13928.80217064596
 21
841.8747482146445
 31
0.0
  0
LINE
  5
15CDB
330
15B9B
100
AcDbEntity
  8
YODOROGO
100
AcDbLine
 10
13928.80217064596
 20
853.874748214644
 30
0.0
 11
13968.80217064596
 21
821.986207022285
 31
0.0
  0
LINE
  5
15CDC
330
15B9B
100
AcDbEntity
  8
YODOROGO
100
AcDbLine
 10
13888.80217064596
 20
821.986207022285
 30
0.0
 11
13928.80217064596
 21
853.874748214644
 31
0.0
  0
LINE
  5
15CDD
330
15B9B
100
AcDbEntity
  8
YODOROGO
100
AcDbLine
 10
14020.45660200844
 20
829.874748214644
 30
0.0
 11
14020.45660200844
 21
841.8747482146434
 31
0.0
  0
LINE
  5
15CDE
330
15B9B
100
AcDbEntity
  8
YODOROGO
100
AcDbLine
 10
13988.80217064596
 20
841.8747482146434
 30
0.0
 11
13988.80217064596
 21
833.8747482146427
 31
0.0
  0
LINE
  5
15CDF
330
15B9B
100
AcDbEntity
  8
YODOROGO
100
AcDbLine
 10
14049.06776011545
 20
853.874748214644
 30
0.0
 11
14049.06776011545
 21
827.751818637328
 31
0.0
1001
AUTOCAD_POSTSCRIPT_FIGURE
1002
{
1000
PSFILL
1000
Grayscale
1000
Grayscale
1070
   100
1002
}
  0
LINE
  5
15CE0
330
15B9B
100
AcDbEntity
  8
YODOROGO
100
AcDbLine
 10
14041.06776011546
 20
827.751818637328
 30
0.0
 11
14041.06776011546
 21
853.874748214644
 31
0.0
1001
AUTOCAD_POSTSCRIPT_FIGURE
1002
{
1000
PSFILL
1000
Grayscale
1000
Grayscale
1070
   100
1002
}
  0
LINE
  5
15CE1
330
15B9B
100
AcDbEntity
  8
YODOROGO
100
AcDbLine
 10
13904.80217064596
 20
804.3859520216292
 30
0.0
 11
13904.80217064596
 21
816.3859520216298
 31
0.0
  0
LINE
  5
15CE2
330
15B9B
100
AcDbEntity
  8
YODOROGO
100
AcDbLine
 10
13952.80217064596
 20
804.3859520216292
 30
0.0
 11
13904.80217064596
 21
804.3859520216292
 31
0.0
  0
LINE
  5
15CE3
330
15B9B
100
AcDbEntity
  8
YODOROGO
100
AcDbLine
 10
13952.80217064596
 20
816.3859520216298
 30
0.0
 11
13952.80217064596
 21
804.3859520216292
 31
0.0
  0
LINE
  5
15CE4
330
15B9B
100
AcDbEntity
  8
YODOROGO
100
AcDbLine
 10
13904.80217064596
 20
816.3859520216298
 30
0.0
 11
13952.80217064596
 21
816.3859520216298
 31
0.0
  0
LINE
  5
15CE5
330
15B9B
100
AcDbEntity
  8
YODOROGO
100
AcDbLine
 10
13912.25479445787
 20
784.2514286852374
 30
0.0
 11
13892.80217064596
 21
737.8747482146435
 31
0.0
1001
AUTOCAD_POSTSCRIPT_FIGURE
1002
{
1000
PSFILL
1000
Grayscale
1000
Grayscale
1070
   100
1002
}
  0
LINE
  5
15CE6
330
15B9B
100
AcDbEntity
  8
YODOROGO
100
AcDbLine
 10
13888.80217064596
 20
784.2514286852374
 30
0.0
 11
13912.25479445787
 21
784.2514286852374
 31
0.0
1001
AUTOCAD_POSTSCRIPT_FIGURE
1002
{
1000
PSFILL
1000
Grayscale
1000
Grayscale
1070
   100
1002
}
  0
LINE
  5
15CE7
330
15B9B
100
AcDbEntity
  8
YODOROGO
100
AcDbLine
 10
13888.80217064596
 20
794.2514286852374
 30
0.0
 11
13888.80217064596
 21
784.2514286852374
 31
0.0
1001
AUTOCAD_POSTSCRIPT_FIGURE
1002
{
1000
PSFILL
1000
Grayscale
1000
Grayscale
1070
   100
1002
}
  0
LINE
  5
15CE8
330
15B9B
100
AcDbEntity
  8
YODOROGO
100
AcDbLine
 10
13968.80217064596
 20
794.2514286852374
 30
0.0
 11
13888.80217064596
 21
794.2514286852374
 31
0.0
1001
AUTOCAD_POSTSCRIPT_FIGURE
1002
{
1000
PSFILL
1000
Grayscale
1000
Grayscale
1070
   100
1002
}
  0
LINE
  5
15CE9
330
15B9B
100
AcDbEntity
  8
YODOROGO
100
AcDbLine
 10
13968.80217064596
 20
784.2514286852374
 30
0.0
 11
13968.80217064596
 21
794.2514286852374
 31
0.0
1001
AUTOCAD_POSTSCRIPT_FIGURE
1002
{
1000
PSFILL
1000
Grayscale
1000
Grayscale
1070
   100
1002
}
  0
LINE
  5
15CEA
330
15B9B
100
AcDbEntity
  8
YODOROGO
100
AcDbLine
 10
13922.25479445786
 20
784.2514286852374
 30
0.0
 11
13968.80217064596
 21
784.2514286852374
 31
0.0
1001
AUTOCAD_POSTSCRIPT_FIGURE
1002
{
1000
PSFILL
1000
Grayscale
1000
Grayscale
1070
   100
1002
}
  0
LINE
  5
15CEB
330
15B9B
100
AcDbEntity
  8
YODOROGO
100
AcDbLine
 10
13907.77335914238
 20
747.8747482146435
 30
0.0
 11
13922.25479445786
 21
784.2514286852374
 31
0.0
1001
AUTOCAD_POSTSCRIPT_FIGURE
1002
{
1000
PSFILL
1000
Grayscale
1000
Grayscale
1070
   100
1002
}
  0
LINE
  5
15CEC
330
15B9B
100
AcDbEntity
  8
YODOROGO
100
AcDbLine
 10
13951.02739540432
 20
747.8747482146435
 30
0.0
 11
13907.77335914238
 21
747.8747482146435
 31
0.0
1001
AUTOCAD_POSTSCRIPT_FIGURE
1002
{
1000
PSFILL
1000
Grayscale
1000
Grayscale
1070
   100
1002
}
  0
LINE
  5
15CED
330
15B9B
100
AcDbEntity
  8
YODOROGO
100
AcDbLine
 10
13942.53250239547
 20
768.1169053488464
 30
0.0
 11
13951.02739540432
 21
747.8747482146435
 31
0.0
1001
AUTOCAD_POSTSCRIPT_FIGURE
1002
{
1000
PSFILL
1000
Grayscale
1000
Grayscale
1070
   100
1002
}
  0
LINE
  5
15CEE
330
15B9B
100
AcDbEntity
  8
YODOROGO
100
AcDbLine
 10
13950.53250239547
 20
768.1169053488464
 30
0.0
 11
13942.53250239547
 21
768.1169053488464
 31
0.0
1001
AUTOCAD_POSTSCRIPT_FIGURE
1002
{
1000
PSFILL
1000
Grayscale
1000
Grayscale
1070
   100
1002
}
  0
LINE
  5
15CEF
330
15B9B
100
AcDbEntity
  8
YODOROGO
100
AcDbLine
 10
13964.80217064596
 20
737.8747482146435
 30
0.0
 11
13950.53250239547
 21
768.1169053488464
 31
0.0
1001
AUTOCAD_POSTSCRIPT_FIGURE
1002
{
1000
PSFILL
1000
Grayscale
1000
Grayscale
1070
   100
1002
}
  0
LINE
  5
15CF0
330
15B9B
100
AcDbEntity
  8
YODOROGO
100
AcDbLine
 10
13892.80217064596
 20
737.8747482146435
 30
0.0
 11
13964.80217064596
 21
737.8747482146435
 31
0.0
1001
AUTOCAD_POSTSCRIPT_FIGURE
1002
{
1000
PSFILL
1000
Grayscale
1000
Grayscale
1070
   100
1002
}
  0
LINE
  5
15CF1
330
15B9B
100
AcDbEntity
  8
YODOROGO
100
AcDbLine
 10
13888.80217064596
 20
809.9862070222856
 30
0.0
 11
13888.80217064596
 21
821.986207022285
 31
0.0
  0
LINE
  5
15CF2
330
15B9B
100
AcDbEntity
  8
YODOROGO
100
AcDbLine
 10
13968.80217064596
 20
821.986207022285
 30
0.0
 11
13968.80217064596
 21
809.9862070222856
 31
0.0
  0
ARC
  5
15CF3
330
15B9B
100
AcDbEntity
  8
YODOROGO
100
AcDbCircle
 10
14112.97022107348
 20
800.438882662663
 30
0.0
 40
87.99999999999995
100
AcDbArc
 50
280.3644312771313
 51
3.541483659218056
  0
ARC
  5
15CF4
330
15B9B
100
AcDbEntity
  8
YODOROGO
100
AcDbCircle
 10
14117.87801537965
 20
816.798903480952
 30
0.0
 40
55.99999999999914
100
AcDbArc
 50
281.2490582504155
 51
348.7509417495832
  0
LINE
  5
15CF5
330
15B9B
100
AcDbEntity
  8
YODOROGO
100
AcDbLine
 10
14128.80217064596
 20
761.8747482146434
 30
0.0
 11
14128.80217064596
 21
713.8747482146436
 31
0.0
  0
LINE
  5
15CF6
330
15B9B
100
AcDbEntity
  8
YODOROGO
100
AcDbLine
 10
14010.04445186845
 20
805.3252825309574
 30
0.0
 11
14020.45660200844
 21
829.874748214644
 31
0.0
  0
LINE
  5
15CF7
330
15B9B
100
AcDbEntity
  8
YODOROGO
100
AcDbLine
 10
14020.80217064596
 20
791.5602449742006
 30
0.0
 11
14010.04445186845
 21
805.3252825309574
 31
0.0
  0
LINE
  5
15CF8
330
15B9B
100
AcDbEntity
  8
YODOROGO
100
AcDbLine
 10
14020.80217064596
 20
781.5602449741994
 30
0.0
 11
14020.80217064596
 21
791.5602449742006
 31
0.0
  0
LINE
  5
15CF9
330
15B9B
100
AcDbEntity
  8
YODOROGO
100
AcDbLine
 10
14008.80217064596
 20
792.6185318747651
 30
0.0
 11
14020.80217064596
 21
781.5602449741994
 31
0.0
  0
LINE
  5
15CFA
330
15B9B
100
AcDbEntity
  8
YODOROGO
100
AcDbLine
 10
14008.80217064596
 20
737.8747482146435
 30
0.0
 11
14008.80217064596
 21
792.6185318747651
 31
0.0
  0
LINE
  5
15CFB
330
15B9B
100
AcDbEntity
  8
YODOROGO
100
AcDbLine
 10
14000.80217064596
 20
737.8747482146435
 30
0.0
 11
14008.80217064596
 21
737.8747482146435
 31
0.0
  0
LINE
  5
15CFC
330
15B9B
100
AcDbEntity
  8
YODOROGO
100
AcDbLine
 10
14000.80217064596
 20
790.0026748448738
 30
0.0
 11
14000.80217064596
 21
737.8747482146435
 31
0.0
  0
LINE
  5
15CFD
330
15B9B
100
AcDbEntity
  8
YODOROGO
100
AcDbLine
 10
13988.80217064596
 20
766.3840395167142
 30
0.0
 11
14000.80217064596
 21
790.0026748448738
 31
0.0
  0
LINE
  5
15CFE
330
15B9B
100
AcDbEntity
  8
YODOROGO
100
AcDbLine
 10
13988.80217064596
 20
778.3840395167149
 30
0.0
 11
13988.80217064596
 21
766.3840395167142
 31
0.0
  0
LINE
  5
15CFF
330
15B9B
100
AcDbEntity
  8
YODOROGO
100
AcDbLine
 10
14012.91438714567
 20
833.8747482146427
 30
0.0
 11
13988.80217064596
 21
778.3840395167149
 31
0.0
  0
LINE
  5
15D00
330
15B9B
100
AcDbEntity
  8
YODOROGO
100
AcDbLine
 10
13988.80217064596
 20
833.8747482146427
 30
0.0
 11
14012.91438714567
 21
833.8747482146427
 31
0.0
  0
LINE
  5
15D01
330
15B9B
100
AcDbEntity
  8
YODOROGO
100
AcDbLine
 10
14025.06776011545
 20
827.751818637328
 30
0.0
 11
14041.06776011546
 21
827.751818637328
 31
0.0
1001
AUTOCAD_POSTSCRIPT_FIGURE
1002
{
1000
PSFILL
1000
Grayscale
1000
Grayscale
1070
   100
1002
}
  0
LINE
  5
15D02
330
15B9B
100
AcDbEntity
  8
YODOROGO
100
AcDbLine
 10
14025.06776011545
 20
815.7518186373286
 30
0.0
 11
14025.06776011545
 21
827.751818637328
 31
0.0
1001
AUTOCAD_POSTSCRIPT_FIGURE
1002
{
1000
PSFILL
1000
Grayscale
1000
Grayscale
1070
   100
1002
}
  0
LINE
  5
15D03
330
15B9B
100
AcDbEntity
  8
YODOROGO
100
AcDbLine
 10
14041.06776011546
 20
815.7518186373286
 30
0.0
 11
14025.06776011545
 21
815.7518186373286
 31
0.0
1001
AUTOCAD_POSTSCRIPT_FIGURE
1002
{
1000
PSFILL
1000
Grayscale
1000
Grayscale
1070
   100
1002
}
  0
LINE
  5
15D04
330
15B9B
100
AcDbEntity
  8
YODOROGO
100
AcDbLine
 10
14041.06776011546
 20
749.8747482146441
 30
0.0
 11
14041.06776011546
 21
815.7518186373286
 31
0.0
1001
AUTOCAD_POSTSCRIPT_FIGURE
1002
{
1000
PSFILL
1000
Grayscale
1000
Grayscale
1070
   100
1002
}
  0
LINE
  5
15D05
330
15B9B
100
AcDbEntity
  8
YODOROGO
100
AcDbLine
 10
14025.06776011545
 20
749.8747482146441
 30
0.0
 11
14041.06776011546
 21
749.8747482146441
 31
0.0
1001
AUTOCAD_POSTSCRIPT_FIGURE
1002
{
1000
PSFILL
1000
Grayscale
1000
Grayscale
1070
   100
1002
}
  0
LINE
  5
15D06
330
15B9B
100
AcDbEntity
  8
YODOROGO
100
AcDbLine
 10
14025.06776011545
 20
737.8747482146435
 30
0.0
 11
14025.06776011545
 21
749.8747482146441
 31
0.0
1001
AUTOCAD_POSTSCRIPT_FIGURE
1002
{
1000
PSFILL
1000
Grayscale
1000
Grayscale
1070
   100
1002
}
  0
LINE
  5
15D07
330
15B9B
100
AcDbEntity
  8
YODOROGO
100
AcDbLine
 10
14068.80217064596
 20
737.8747482146435
 30
0.0
 11
14025.06776011545
 21
737.8747482146435
 31
0.0
1001
AUTOCAD_POSTSCRIPT_FIGURE
1002
{
1000
PSFILL
1000
Grayscale
1000
Grayscale
1070
   100
1002
}
  0
LINE
  5
15D08
330
15B9B
100
AcDbEntity
  8
YODOROGO
100
AcDbLine
 10
14068.80217064596
 20
749.8747482146441
 30
0.0
 11
14068.80217064596
 21
737.8747482146435
 31
0.0
1001
AUTOCAD_POSTSCRIPT_FIGURE
1002
{
1000
PSFILL
1000
Grayscale
1000
Grayscale
1070
   100
1002
}
  0
LINE
  5
15D09
330
15B9B
100
AcDbEntity
  8
YODOROGO
100
AcDbLine
 10
14049.06776011545
 20
749.8747482146441
 30
0.0
 11
14068.80217064596
 21
749.8747482146441
 31
0.0
1001
AUTOCAD_POSTSCRIPT_FIGURE
1002
{
1000
PSFILL
1000
Grayscale
1000
Grayscale
1070
   100
1002
}
  0
LINE
  5
15D0A
330
15B9B
100
AcDbEntity
  8
YODOROGO
100
AcDbLine
 10
14049.06776011545
 20
815.7518186373286
 30
0.0
 11
14049.06776011545
 21
749.8747482146441
 31
0.0
1001
AUTOCAD_POSTSCRIPT_FIGURE
1002
{
1000
PSFILL
1000
Grayscale
1000
Grayscale
1070
   100
1002
}
  0
LINE
  5
15D0B
330
15B9B
100
AcDbEntity
  8
YODOROGO
100
AcDbLine
 10
14068.80217064596
 20
815.7518186373286
 30
0.0
 11
14049.06776011545
 21
815.7518186373286
 31
0.0
1001
AUTOCAD_POSTSCRIPT_FIGURE
1002
{
1000
PSFILL
1000
Grayscale
1000
Grayscale
1070
   100
1002
}
  0
LINE
  5
15D0C
330
15B9B
100
AcDbEntity
  8
YODOROGO
100
AcDbLine
 10
14068.80217064596
 20
827.751818637328
 30
0.0
 11
14068.80217064596
 21
815.7518186373286
 31
0.0
1001
AUTOCAD_POSTSCRIPT_FIGURE
1002
{
1000
PSFILL
1000
Grayscale
1000
Grayscale
1070
   100
1002
}
  0
LINE
  5
15D0D
330
15B9B
100
AcDbEntity
  8
YODOROGO
100
AcDbLine
 10
14049.06776011545
 20
827.751818637328
 30
0.0
 11
14068.80217064596
 21
827.751818637328
 31
0.0
1001
AUTOCAD_POSTSCRIPT_FIGURE
1002
{
1000
PSFILL
1000
Grayscale
1000
Grayscale
1070
   100
1002
}
  0
LINE
  5
15D0E
330
15B9B
100
AcDbEntity
  8
YODOROGO
100
AcDbLine
 10
14200.80217064594
 20
833.8747482146439
 30
0.0
 11
14172.80217064596
 21
833.8747482146439
 31
0.0
  0
LINE
  5
15D0F
330
15B9B
100
AcDbEntity
  8
YODOROGO
100
AcDbLine
 10
14200.80217064594
 20
805.8747482146443
 30
0.0
 11
14200.80217064594
 21
833.8747482146439
 31
0.0
  0
LINE
  5
15D10
330
15B9B
100
AcDbEntity
  8
YODOROGO
100
AcDbLine
 10
14172.80217064596
 20
833.8747482146439
 30
0.0
 11
14172.80217064596
 21
805.8747482146443
 31
0.0
  0
ARC
  5
15D11
330
15B9B
100
AcDbEntity
  8
YODOROGO
100
AcDbCircle
 10
14256.80217064594
 20
753.8747482146439
 30
0.0
 40
40.0
100
AcDbArc
 50
180.0
 51
270.0
  0
ARC
  5
15D12
330
15B9B
100
AcDbEntity
  8
YODOROGO
100
AcDbCircle
 10
14268.80217064594
 20
781.8747482146434
 30
0.0
 40
20.0
100
AcDbArc
 50
180.0
 51
270.0
  0
LINE
  5
15D13
330
15B9B
100
AcDbEntity
  8
YODOROGO
100
AcDbLine
 10
14280.80217064596
 20
761.8747482146434
 30
0.0
 11
14268.80217064594
 21
761.8747482146434
 31
0.0
  0
ARC
  5
15D14
330
15B9B
100
AcDbEntity
  8
YODOROGO
100
AcDbCircle
 10
14280.80217064596
 20
773.8747482146427
 30
0.0
 40
11.99999999999818
100
AcDbArc
 50
270.0
 51
0.0000000000054281
  0
LINE
  5
15D15
330
15B9B
100
AcDbEntity
  8
YODOROGO
100
AcDbLine
 10
13900.80217064596
 20
945.3932903968532
 30
0.0
 11
13888.80217064596
 21
921.8883739758362
 31
0.0
1001
AUTOCAD_POSTSCRIPT_FIGURE
1002
{
1000
PSFILL
1000
Grayscale
1000
Grayscale
1070
   100
1002
}
  0
LINE
  5
15D16
330
15B9B
100
AcDbEntity
  8
YODOROGO
100
AcDbLine
 10
13900.80217064596
 20
873.8747482146434
 30
0.0
 11
13900.80217064596
 21
945.3932903968532
 31
0.0
1001
AUTOCAD_POSTSCRIPT_FIGURE
1002
{
1000
PSFILL
1000
Grayscale
1000
Grayscale
1070
   100
1002
}
  0
LINE
  5
15D17
330
15B9B
100
AcDbEntity
  8
YODOROGO
100
AcDbLine
 10
13908.80217064596
 20
873.8747482146434
 30
0.0
 11
13900.80217064596
 21
873.8747482146434
 31
0.0
1001
AUTOCAD_POSTSCRIPT_FIGURE
1002
{
1000
PSFILL
1000
Grayscale
1000
Grayscale
1070
   100
1002
}
  0
LINE
  5
15D18
330
15B9B
100
AcDbEntity
  8
YODOROGO
100
AcDbLine
 10
13908.80217064596
 20
946.8856660426332
 30
0.0
 11
13908.80217064596
 21
873.8747482146434
 31
0.0
1001
AUTOCAD_POSTSCRIPT_FIGURE
1002
{
1000
PSFILL
1000
Grayscale
1000
Grayscale
1070
   100
1002
}
  0
LINE
  5
15D19
330
15B9B
100
AcDbEntity
  8
YODOROGO
100
AcDbLine
 10
13920.80217064596
 20
933.8273791420684
 30
0.0
 11
13908.80217064596
 21
946.8856660426332
 31
0.0
1001
AUTOCAD_POSTSCRIPT_FIGURE
1002
{
1000
PSFILL
1000
Grayscale
1000
Grayscale
1070
   100
1002
}
  0
LINE
  5
15D1A
330
15B9B
100
AcDbEntity
  8
YODOROGO
100
AcDbLine
 10
13920.80217064596
 20
941.8273791420681
 30
0.0
 11
13920.80217064596
 21
933.8273791420684
 31
0.0
1001
AUTOCAD_POSTSCRIPT_FIGURE
1002
{
1000
PSFILL
1000
Grayscale
1000
Grayscale
1070
   100
1002
}
  0
LINE
  5
15D1B
330
15B9B
100
AcDbEntity
  8
YODOROGO
100
AcDbLine
 10
13908.80217064596
 20
958.8856660426325
 30
0.0
 11
13920.80217064596
 21
941.8273791420681
 31
0.0
1001
AUTOCAD_POSTSCRIPT_FIGURE
1002
{
1000
PSFILL
1000
Grayscale
1000
Grayscale
1070
   100
1002
}
  0
LINE
  5
15D1C
330
15B9B
100
AcDbEntity
  8
YODOROGO
100
AcDbLine
 10
13908.80217064596
 20
969.8747482146441
 30
0.0
 11
13908.80217064596
 21
958.8856660426325
 31
0.0
1001
AUTOCAD_POSTSCRIPT_FIGURE
1002
{
1000
PSFILL
1000
Grayscale
1000
Grayscale
1070
   100
1002
}
  0
LINE
  5
15D1D
330
15B9B
100
AcDbEntity
  8
YODOROGO
100
AcDbLine
 10
13944.80217064596
 20
969.8747482146441
 30
0.0
 11
13908.80217064596
 21
969.8747482146441
 31
0.0
1001
AUTOCAD_POSTSCRIPT_FIGURE
1002
{
1000
PSFILL
1000
Grayscale
1000
Grayscale
1070
   100
1002
}
  0
LINE
  5
15D1E
330
15B9B
100
AcDbEntity
  8
YODOROGO
100
AcDbLine
 10
13944.80217064596
 20
950.2841744681497
 30
0.0
 11
13944.80217064596
 21
969.8747482146441
 31
0.0
1001
AUTOCAD_POSTSCRIPT_FIGURE
1002
{
1000
PSFILL
1000
Grayscale
1000
Grayscale
1070
   100
1002
}
  0
LINE
  5
15D1F
330
15B9B
100
AcDbEntity
  8
YODOROGO
100
AcDbLine
 10
13928.80217064596
 20
950.2841744681497
 30
0.0
 11
13944.80217064596
 21
950.2841744681497
 31
0.0
1001
AUTOCAD_POSTSCRIPT_FIGURE
1002
{
1000
PSFILL
1000
Grayscale
1000
Grayscale
1070
   100
1002
}
  0
LINE
  5
15D20
330
15B9B
100
AcDbEntity
  8
YODOROGO
100
AcDbLine
 10
13928.80217064596
 20
942.2841744681491
 30
0.0
 11
13928.80217064596
 21
950.2841744681497
 31
0.0
1001
AUTOCAD_POSTSCRIPT_FIGURE
1002
{
1000
PSFILL
1000
Grayscale
1000
Grayscale
1070
   100
1002
}
  0
LINE
  5
15D21
330
15B9B
100
AcDbEntity
  8
YODOROGO
100
AcDbLine
 10
13944.80217064596
 20
942.2841744681491
 30
0.0
 11
13928.80217064596
 21
942.2841744681491
 31
0.0
1001
AUTOCAD_POSTSCRIPT_FIGURE
1002
{
1000
PSFILL
1000
Grayscale
1000
Grayscale
1070
   100
1002
}
  0
LINE
  5
15D22
330
15B9B
100
AcDbEntity
  8
YODOROGO
100
AcDbLine
 10
13944.80217064596
 20
939.8095889822196
 30
0.0
 11
13944.80217064596
 21
942.2841744681491
 31
0.0
1001
AUTOCAD_POSTSCRIPT_FIGURE
1002
{
1000
PSFILL
1000
Grayscale
1000
Grayscale
1070
   100
1002
}
  0
LINE
  5
15D23
330
15B9B
100
AcDbEntity
  8
YODOROGO
100
AcDbLine
 10
13924.80217064596
 20
906.4874905807087
 30
0.0
 11
13944.80217064596
 21
939.8095889822196
 31
0.0
1001
AUTOCAD_POSTSCRIPT_FIGURE
1002
{
1000
PSFILL
1000
Grayscale
1000
Grayscale
1070
   100
1002
}
  0
LINE
  5
15D24
330
15B9B
100
AcDbEntity
  8
YODOROGO
100
AcDbLine
 10
13924.80217064596
 20
898.487490580708
 30
0.0
 11
13924.80217064596
 21
906.4874905807087
 31
0.0
1001
AUTOCAD_POSTSCRIPT_FIGURE
1002
{
1000
PSFILL
1000
Grayscale
1000
Grayscale
1070
   100
1002
}
  0
LINE
  5
15D25
330
15B9B
100
AcDbEntity
  8
YODOROGO
100
AcDbLine
 10
13944.80217064596
 20
923.8095889822183
 30
0.0
 11
13924.80217064596
 21
898.487490580708
 31
0.0
1001
AUTOCAD_POSTSCRIPT_FIGURE
1002
{
1000
PSFILL
1000
Grayscale
1000
Grayscale
1070
   100
1002
}
  0
LINE
  5
15D26
330
15B9B
100
AcDbEntity
  8
YODOROGO
100
AcDbLine
 10
13944.80217064596
 20
873.8747482146434
 30
0.0
 11
13944.80217064596
 21
923.8095889822183
 31
0.0
1001
AUTOCAD_POSTSCRIPT_FIGURE
1002
{
1000
PSFILL
1000
Grayscale
1000
Grayscale
1070
   100
1002
}
  0
LINE
  5
15D27
330
15B9B
100
AcDbEntity
  8
YODOROGO
100
AcDbLine
 10
13952.80217064596
 20
873.8747482146434
 30
0.0
 11
13944.80217064596
 21
873.8747482146434
 31
0.0
1001
AUTOCAD_POSTSCRIPT_FIGURE
1002
{
1000
PSFILL
1000
Grayscale
1000
Grayscale
1070
   100
1002
}
  0
LINE
  5
15D28
330
15B9B
100
AcDbEntity
  8
YODOROGO
100
AcDbLine
 10
13952.80217064596
 20
924.7045060794032
 30
0.0
 11
13952.80217064596
 21
873.8747482146434
 31
0.0
1001
AUTOCAD_POSTSCRIPT_FIGURE
1002
{
1000
PSFILL
1000
Grayscale
1000
Grayscale
1070
   100
1002
}
  0
LINE
  5
15D29
330
15B9B
100
AcDbEntity
  8
YODOROGO
100
AcDbLine
 10
13968.80217064596
 20
898.487490580708
 30
0.0
 11
13952.80217064596
 21
924.7045060794032
 31
0.0
1001
AUTOCAD_POSTSCRIPT_FIGURE
1002
{
1000
PSFILL
1000
Grayscale
1000
Grayscale
1070
   100
1002
}
  0
LINE
  5
15D2A
330
15B9B
100
AcDbEntity
  8
YODOROGO
100
AcDbLine
 10
13968.80217064596
 20
906.4874905807087
 30
0.0
 11
13968.80217064596
 21
898.487490580708
 31
0.0
1001
AUTOCAD_POSTSCRIPT_FIGURE
1002
{
1000
PSFILL
1000
Grayscale
1000
Grayscale
1070
   100
1002
}
  0
LINE
  5
15D2B
330
15B9B
100
AcDbEntity
  8
YODOROGO
100
AcDbLine
 10
13952.80217064596
 20
940.7045060794041
 30
0.0
 11
13968.80217064596
 21
906.4874905807087
 31
0.0
1001
AUTOCAD_POSTSCRIPT_FIGURE
1002
{
1000
PSFILL
1000
Grayscale
1000
Grayscale
1070
   100
1002
}
  0
LINE
  5
15D2C
330
15B9B
100
AcDbEntity
  8
YODOROGO
100
AcDbLine
 10
13952.80217064596
 20
942.2841744681502
 30
0.0
 11
13952.80217064596
 21
940.7045060794041
 31
0.0
1001
AUTOCAD_POSTSCRIPT_FIGURE
1002
{
1000
PSFILL
1000
Grayscale
1000
Grayscale
1070
   100
1002
}
  0
LINE
  5
15D2D
330
15B9B
100
AcDbEntity
  8
YODOROGO
100
AcDbLine
 10
13968.80217064596
 20
942.2841744681491
 30
0.0
 11
13952.80217064596
 21
942.2841744681502
 31
0.0
1001
AUTOCAD_POSTSCRIPT_FIGURE
1002
{
1000
PSFILL
1000
Grayscale
1000
Grayscale
1070
   100
1002
}
  0
LINE
  5
15D2E
330
15B9B
100
AcDbEntity
  8
YODOROGO
100
AcDbLine
 10
13968.80217064596
 20
950.2841744681497
 30
0.0
 11
13968.80217064596
 21
942.2841744681491
 31
0.0
1001
AUTOCAD_POSTSCRIPT_FIGURE
1002
{
1000
PSFILL
1000
Grayscale
1000
Grayscale
1070
   100
1002
}
  0
LINE
  5
15D2F
330
15B9B
100
AcDbEntity
  8
YODOROGO
100
AcDbLine
 10
13952.80217064596
 20
950.2841744681497
 30
0.0
 11
13968.80217064596
 21
950.2841744681497
 31
0.0
1001
AUTOCAD_POSTSCRIPT_FIGURE
1002
{
1000
PSFILL
1000
Grayscale
1000
Grayscale
1070
   100
1002
}
  0
LINE
  5
15D30
330
15B9B
100
AcDbEntity
  8
YODOROGO
100
AcDbLine
 10
13952.80217064596
 20
969.8747482146441
 30
0.0
 11
13952.80217064596
 21
950.2841744681497
 31
0.0
1001
AUTOCAD_POSTSCRIPT_FIGURE
1002
{
1000
PSFILL
1000
Grayscale
1000
Grayscale
1070
   100
1002
}
  0
LINE
  5
15D31
330
15B9B
100
AcDbEntity
  8
YODOROGO
100
AcDbLine
 10
13968.80217064596
 20
969.8747482146441
 30
0.0
 11
13952.80217064596
 21
969.8747482146441
 31
0.0
1001
AUTOCAD_POSTSCRIPT_FIGURE
1002
{
1000
PSFILL
1000
Grayscale
1000
Grayscale
1070
   100
1002
}
  0
LINE
  5
15D32
330
15B9B
100
AcDbEntity
  8
YODOROGO
100
AcDbLine
 10
13968.80217064596
 20
977.8747482146435
 30
0.0
 11
13968.80217064596
 21
969.8747482146441
 31
0.0
1001
AUTOCAD_POSTSCRIPT_FIGURE
1002
{
1000
PSFILL
1000
Grayscale
1000
Grayscale
1070
   100
1002
}
  0
LINE
  5
15D33
330
15B9B
100
AcDbEntity
  8
YODOROGO
100
AcDbLine
 10
13952.80217064596
 20
977.8747482146435
 30
0.0
 11
13968.80217064596
 21
977.8747482146435
 31
0.0
1001
AUTOCAD_POSTSCRIPT_FIGURE
1002
{
1000
PSFILL
1000
Grayscale
1000
Grayscale
1070
   100
1002
}
  0
LINE
  5
15D34
330
15B9B
100
AcDbEntity
  8
YODOROGO
100
AcDbLine
 10
13952.80217064596
 20
989.8747482146442
 30
0.0
 11
13952.80217064596
 21
977.8747482146435
 31
0.0
1001
AUTOCAD_POSTSCRIPT_FIGURE
1002
{
1000
PSFILL
1000
Grayscale
1000
Grayscale
1070
   100
1002
}
  0
LINE
  5
15D35
330
15B9B
100
AcDbEntity
  8
YODOROGO
100
AcDbLine
 10
13944.80217064596
 20
989.8747482146442
 30
0.0
 11
13952.80217064596
 21
989.8747482146442
 31
0.0
1001
AUTOCAD_POSTSCRIPT_FIGURE
1002
{
1000
PSFILL
1000
Grayscale
1000
Grayscale
1070
   100
1002
}
  0
LINE
  5
15D36
330
15B9B
100
AcDbEntity
  8
YODOROGO
100
AcDbLine
 10
13944.80217064596
 20
977.8747482146435
 30
0.0
 11
13944.80217064596
 21
989.8747482146442
 31
0.0
1001
AUTOCAD_POSTSCRIPT_FIGURE
1002
{
1000
PSFILL
1000
Grayscale
1000
Grayscale
1070
   100
1002
}
  0
LINE
  5
15D37
330
15B9B
100
AcDbEntity
  8
YODOROGO
100
AcDbLine
 10
13932.80217064596
 20
977.8747482146435
 30
0.0
 11
13944.80217064596
 21
977.8747482146435
 31
0.0
1001
AUTOCAD_POSTSCRIPT_FIGURE
1002
{
1000
PSFILL
1000
Grayscale
1000
Grayscale
1070
   100
1002
}
  0
LINE
  5
15D38
330
15B9B
100
AcDbEntity
  8
YODOROGO
100
AcDbLine
 10
13932.80217064596
 20
989.8747482146442
 30
0.0
 11
13932.80217064596
 21
977.8747482146435
 31
0.0
1001
AUTOCAD_POSTSCRIPT_FIGURE
1002
{
1000
PSFILL
1000
Grayscale
1000
Grayscale
1070
   100
1002
}
  0
LINE
  5
15D39
330
15B9B
100
AcDbEntity
  8
YODOROGO
100
AcDbLine
 10
13924.80217064596
 20
989.8747482146442
 30
0.0
 11
13932.80217064596
 21
989.8747482146442
 31
0.0
1001
AUTOCAD_POSTSCRIPT_FIGURE
1002
{
1000
PSFILL
1000
Grayscale
1000
Grayscale
1070
   100
1002
}
  0
LINE
  5
15D3A
330
15B9B
100
AcDbEntity
  8
YODOROGO
100
AcDbLine
 10
13924.80217064596
 20
977.8747482146435
 30
0.0
 11
13924.80217064596
 21
989.8747482146442
 31
0.0
1001
AUTOCAD_POSTSCRIPT_FIGURE
1002
{
1000
PSFILL
1000
Grayscale
1000
Grayscale
1070
   100
1002
}
  0
LINE
  5
15D3B
330
15B9B
100
AcDbEntity
  8
YODOROGO
100
AcDbLine
 10
13908.80217064596
 20
977.8747482146435
 30
0.0
 11
13924.80217064596
 21
977.8747482146435
 31
0.0
1001
AUTOCAD_POSTSCRIPT_FIGURE
1002
{
1000
PSFILL
1000
Grayscale
1000
Grayscale
1070
   100
1002
}
  0
LINE
  5
15D3C
330
15B9B
100
AcDbEntity
  8
YODOROGO
100
AcDbLine
 10
13908.80217064596
 20
989.8747482146442
 30
0.0
 11
13908.80217064596
 21
977.8747482146435
 31
0.0
1001
AUTOCAD_POSTSCRIPT_FIGURE
1002
{
1000
PSFILL
1000
Grayscale
1000
Grayscale
1070
   100
1002
}
  0
LINE
  5
15D3D
330
15B9B
100
AcDbEntity
  8
YODOROGO
100
AcDbLine
 10
13900.80217064596
 20
989.8747482146442
 30
0.0
 11
13908.80217064596
 21
989.8747482146442
 31
0.0
1001
AUTOCAD_POSTSCRIPT_FIGURE
1002
{
1000
PSFILL
1000
Grayscale
1000
Grayscale
1070
   100
1002
}
  0
LINE
  5
15D3E
330
15B9B
100
AcDbEntity
  8
YODOROGO
100
AcDbLine
 10
13900.80217064596
 20
977.8747482146435
 30
0.0
 11
13900.80217064596
 21
989.8747482146442
 31
0.0
1001
AUTOCAD_POSTSCRIPT_FIGURE
1002
{
1000
PSFILL
1000
Grayscale
1000
Grayscale
1070
   100
1002
}
  0
LINE
  5
15D3F
330
15B9B
100
AcDbEntity
  8
YODOROGO
100
AcDbLine
 10
13888.80217064596
 20
977.8747482146435
 30
0.0
 11
13900.80217064596
 21
977.8747482146435
 31
0.0
1001
AUTOCAD_POSTSCRIPT_FIGURE
1002
{
1000
PSFILL
1000
Grayscale
1000
Grayscale
1070
   100
1002
}
  0
LINE
  5
15D40
330
15B9B
100
AcDbEntity
  8
YODOROGO
100
AcDbLine
 10
13888.80217064596
 20
969.8747482146441
 30
0.0
 11
13888.80217064596
 21
977.8747482146435
 31
0.0
1001
AUTOCAD_POSTSCRIPT_FIGURE
1002
{
1000
PSFILL
1000
Grayscale
1000
Grayscale
1070
   100
1002
}
  0
LINE
  5
15D41
330
15B9B
100
AcDbEntity
  8
YODOROGO
100
AcDbLine
 10
13900.80217064596
 20
969.8747482146441
 30
0.0
 11
13888.80217064596
 21
969.8747482146441
 31
0.0
1001
AUTOCAD_POSTSCRIPT_FIGURE
1002
{
1000
PSFILL
1000
Grayscale
1000
Grayscale
1070
   100
1002
}
  0
LINE
  5
15D42
330
15B9B
100
AcDbEntity
  8
YODOROGO
100
AcDbLine
 10
13900.80217064596
 20
957.3932903968525
 30
0.0
 11
13900.80217064596
 21
969.8747482146441
 31
0.0
1001
AUTOCAD_POSTSCRIPT_FIGURE
1002
{
1000
PSFILL
1000
Grayscale
1000
Grayscale
1070
   100
1002
}
  0
LINE
  5
15D43
330
15B9B
100
AcDbEntity
  8
YODOROGO
100
AcDbLine
 10
13888.80217064596
 20
929.8883739758355
 30
0.0
 11
13900.80217064596
 21
957.3932903968525
 31
0.0
1001
AUTOCAD_POSTSCRIPT_FIGURE
1002
{
1000
PSFILL
1000
Grayscale
1000
Grayscale
1070
   100
1002
}
  0
LINE
  5
15D44
330
15B9B
100
AcDbEntity
  8
YODOROGO
100
AcDbLine
 10
13888.80217064596
 20
921.8883739758362
 30
0.0
 11
13888.80217064596
 21
929.8883739758355
 31
0.0
1001
AUTOCAD_POSTSCRIPT_FIGURE
1002
{
1000
PSFILL
1000
Grayscale
1000
Grayscale
1070
   100
1002
}
  0
LINE
  5
15D45
330
15B9B
100
AcDbEntity
  8
YODOROGO
100
AcDbLine
 10
14128.80217064596
 20
933.8747482146439
 30
0.0
 11
14200.80217064594
 21
912.4388128201532
 31
0.0
1001
AUTOCAD_POSTSCRIPT_FIGURE
1002
{
1000
PSFILL
1000
Grayscale
1000
Grayscale
1070
   100
1002
}
  0
LINE
  5
15D46
330
15B9B
100
AcDbEntity
  8
YODOROGO
100
AcDbLine
 10
14200.80217064594
 20
876.4388128201531
 30
0.0
 11
14128.80217064596
 21
897.8747482146435
 31
0.0
1001
AUTOCAD_POSTSCRIPT_FIGURE
1002
{
1000
PSFILL
1000
Grayscale
1000
Grayscale
1070
   100
1002
}
  0
LINE
  5
15D47
330
15B9B
100
AcDbEntity
  8
YODOROGO
100
AcDbLine
 10
14200.80217064594
 20
992.4388128201531
 30
0.0
 11
14128.80217064596
 21
1013.874748214644
 31
0.0
1001
AUTOCAD_POSTSCRIPT_FIGURE
1002
{
1000
PSFILL
1000
Grayscale
1000
Grayscale
1070
   100
1002
}
  0
LINE
  5
15D48
330
15B9B
100
AcDbEntity
  8
YODOROGO
100
AcDbLine
 10
14128.80217064596
 20
979.874748214644
 30
0.0
 11
14200.80217064594
 21
958.4388128201537
 31
0.0
1001
AUTOCAD_POSTSCRIPT_FIGURE
1002
{
1000
PSFILL
1000
Grayscale
1000
Grayscale
1070
   100
1002
}
  0
LINE
  5
15D49
330
15B9B
100
AcDbEntity
  8
YODOROGO
100
AcDbLine
 10
14128.80217064596
 20
897.8747482146435
 30
0.0
 11
14128.80217064596
 21
933.8747482146439
 31
0.0
1001
AUTOCAD_POSTSCRIPT_FIGURE
1002
{
1000
PSFILL
1000
Grayscale
1000
Grayscale
1070
   100
1002
}
  0
LINE
  5
15D4A
330
15B9B
100
AcDbEntity
  8
YODOROGO
100
AcDbLine
 10
14128.80217064596
 20
1013.874748214644
 30
0.0
 11
14128.80217064596
 21
979.874748214644
 31
0.0
1001
AUTOCAD_POSTSCRIPT_FIGURE
1002
{
1000
PSFILL
1000
Grayscale
1000
Grayscale
1070
   100
1002
}
  0
LINE
  5
15D4B
330
15B9B
100
AcDbEntity
  8
YODOROGO
100
AcDbLine
 10
14040.11816010337
 20
969.8747482146441
 30
0.0
 11
14064.80217064595
 21
873.8747482146434
 31
0.0
1001
AUTOCAD_POSTSCRIPT_FIGURE
1002
{
1000
PSFILL
1000
Grayscale
1000
Grayscale
1070
   100
1002
}
  0
LINE
  5
15D4C
330
15B9B
100
AcDbEntity
  8
YODOROGO
100
AcDbLine
 10
13988.80217064596
 20
969.8747482146441
 30
0.0
 11
14040.11816010337
 21
969.8747482146441
 31
0.0
1001
AUTOCAD_POSTSCRIPT_FIGURE
1002
{
1000
PSFILL
1000
Grayscale
1000
Grayscale
1070
   100
1002
}
  0
LINE
  5
15D4D
330
15B9B
100
AcDbEntity
  8
YODOROGO
100
AcDbLine
 10
13988.80217064596
 20
977.8747482146435
 30
0.0
 11
13988.80217064596
 21
969.8747482146441
 31
0.0
1001
AUTOCAD_POSTSCRIPT_FIGURE
1002
{
1000
PSFILL
1000
Grayscale
1000
Grayscale
1070
   100
1002
}
  0
LINE
  5
15D4E
330
15B9B
100
AcDbEntity
  8
YODOROGO
100
AcDbLine
 10
14038.30343925995
 20
977.8747482146435
 30
0.0
 11
13988.80217064596
 21
977.8747482146435
 31
0.0
1001
AUTOCAD_POSTSCRIPT_FIGURE
1002
{
1000
PSFILL
1000
Grayscale
1000
Grayscale
1070
   100
1002
}
  0
LINE
  5
15D4F
330
15B9B
100
AcDbEntity
  8
YODOROGO
100
AcDbLine
 10
14035.58135799485
 20
989.8747482146442
 30
0.0
 11
14038.30343925995
 21
977.8747482146435
 31
0.0
1001
AUTOCAD_POSTSCRIPT_FIGURE
1002
{
1000
PSFILL
1000
Grayscale
1000
Grayscale
1070
   100
1002
}
  0
LINE
  5
15D50
330
15B9B
100
AcDbEntity
  8
YODOROGO
100
AcDbLine
 10
14045.58135799485
 20
989.8747482146442
 30
0.0
 11
14035.58135799485
 21
989.8747482146442
 31
0.0
1001
AUTOCAD_POSTSCRIPT_FIGURE
1002
{
1000
PSFILL
1000
Grayscale
1000
Grayscale
1070
   100
1002
}
  0
LINE
  5
15D51
330
15B9B
100
AcDbEntity
  8
YODOROGO
100
AcDbLine
 10
14047.90343925997
 20
977.8747482146435
 30
0.0
 11
14045.58135799485
 21
989.8747482146442
 31
0.0
1001
AUTOCAD_POSTSCRIPT_FIGURE
1002
{
1000
PSFILL
1000
Grayscale
1000
Grayscale
1070
   100
1002
}
  0
LINE
  5
15D52
330
15B9B
100
AcDbEntity
  8
YODOROGO
100
AcDbLine
 10
14060.80217064596
 20
977.8747482146435
 30
0.0
 11
14047.90343925997
 21
977.8747482146435
 31
0.0
1001
AUTOCAD_POSTSCRIPT_FIGURE
1002
{
1000
PSFILL
1000
Grayscale
1000
Grayscale
1070
   100
1002
}
  0
LINE
  5
15D53
330
15B9B
100
AcDbEntity
  8
YODOROGO
100
AcDbLine
 10
14060.80217064596
 20
989.8747482146442
 30
0.0
 11
14060.80217064596
 21
977.8747482146435
 31
0.0
1001
AUTOCAD_POSTSCRIPT_FIGURE
1002
{
1000
PSFILL
1000
Grayscale
1000
Grayscale
1070
   100
1002
}
  0
LINE
  5
15D54
330
15B9B
100
AcDbEntity
  8
YODOROGO
100
AcDbLine
 10
14068.80217064596
 20
989.8747482146442
 30
0.0
 11
14060.80217064596
 21
989.8747482146442
 31
0.0
1001
AUTOCAD_POSTSCRIPT_FIGURE
1002
{
1000
PSFILL
1000
Grayscale
1000
Grayscale
1070
   100
1002
}
  0
LINE
  5
15D55
330
15B9B
100
AcDbEntity
  8
YODOROGO
100
AcDbLine
 10
14068.80217064596
 20
977.8747482146435
 30
0.0
 11
14068.80217064596
 21
989.8747482146442
 31
0.0
1001
AUTOCAD_POSTSCRIPT_FIGURE
1002
{
1000
PSFILL
1000
Grayscale
1000
Grayscale
1070
   100
1002
}
  0
LINE
  5
15D56
330
15B9B
100
AcDbEntity
  8
YODOROGO
100
AcDbLine
 10
14068.80217064596
 20
969.8747482146441
 30
0.0
 11
14068.80217064596
 21
977.8747482146435
 31
0.0
1001
AUTOCAD_POSTSCRIPT_FIGURE
1002
{
1000
PSFILL
1000
Grayscale
1000
Grayscale
1070
   100
1002
}
  0
LINE
  5
15D57
330
15B9B
100
AcDbEntity
  8
YODOROGO
100
AcDbLine
 10
14049.45149343671
 20
969.8747482146441
 30
0.0
 11
14068.80217064596
 21
969.8747482146441
 31
0.0
1001
AUTOCAD_POSTSCRIPT_FIGURE
1002
{
1000
PSFILL
1000
Grayscale
1000
Grayscale
1070
   100
1002
}
  0
LINE
  5
15D58
330
15B9B
100
AcDbEntity
  8
YODOROGO
100
AcDbLine
 10
14068.80217064596
 20
873.8747482146434
 30
0.0
 11
14049.45149343671
 21
969.8747482146441
 31
0.0
1001
AUTOCAD_POSTSCRIPT_FIGURE
1002
{
1000
PSFILL
1000
Grayscale
1000
Grayscale
1070
   100
1002
}
  0
LINE
  5
15D59
330
15B9B
100
AcDbEntity
  8
YODOROGO
100
AcDbLine
 10
14064.80217064595
 20
873.8747482146434
 30
0.0
 11
14068.80217064596
 21
873.8747482146434
 31
0.0
1001
AUTOCAD_POSTSCRIPT_FIGURE
1002
{
1000
PSFILL
1000
Grayscale
1000
Grayscale
1070
   100
1002
}
  0
LINE
  5
15D5A
330
15B9B
100
AcDbEntity
  8
YODOROGO
100
AcDbLine
 10
14039.03460996689
 20
887.8703881493972
 30
0.0
 11
13988.80217064596
 21
873.8747482146434
 31
0.0
  0
LINE
  5
15D5B
330
15B9B
100
AcDbEntity
  8
YODOROGO
100
AcDbLine
 10
14039.03460996689
 20
899.3344897645364
 30
0.0
 11
14039.03460996689
 21
887.8703881493972
 31
0.0
  0
LINE
  5
15D5C
330
15B9B
100
AcDbEntity
  8
YODOROGO
100
AcDbLine
 10
14016.91839030643
 20
893.4084665668834
 30
0.0
 11
14039.03460996689
 21
899.3344897645364
 31
0.0
  0
LINE
  5
15D5D
330
15B9B
100
AcDbEntity
  8
YODOROGO
100
AcDbLine
 10
14016.91839030643
 20
936.2841744681499
 30
0.0
 11
14016.91839030643
 21
893.4084665668834
 31
0.0
  0
LINE
  5
15D5E
330
15B9B
100
AcDbEntity
  8
YODOROGO
100
AcDbLine
 10
14039.03460996689
 20
936.2841744681499
 30
0.0
 11
14016.91839030643
 21
936.2841744681499
 31
0.0
  0
LINE
  5
15D5F
330
15B9B
100
AcDbEntity
  8
YODOROGO
100
AcDbLine
 10
14039.03460996689
 20
946.2841744681487
 30
0.0
 11
14039.03460996689
 21
936.2841744681499
 31
0.0
  0
LINE
  5
15D60
330
15B9B
100
AcDbEntity
  8
YODOROGO
100
AcDbLine
 10
13988.80217064596
 20
946.2841744681487
 30
0.0
 11
14039.03460996689
 21
946.2841744681487
 31
0.0
  0
LINE
  5
15D61
330
15B9B
100
AcDbEntity
  8
YODOROGO
100
AcDbLine
 10
13988.80217064596
 20
936.2841744681499
 30
0.0
 11
13988.80217064596
 21
946.2841744681487
 31
0.0
  0
LINE
  5
15D62
330
15B9B
100
AcDbEntity
  8
YODOROGO
100
AcDbLine
 10
14010.91839030643
 20
936.2841744681499
 30
0.0
 11
13988.80217064596
 21
936.2841744681499
 31
0.0
  0
LINE
  5
15D63
330
15B9B
100
AcDbEntity
  8
YODOROGO
100
AcDbLine
 10
14010.91839030643
 20
892.3366697971587
 30
0.0
 11
14010.91839030643
 21
936.2841744681499
 31
0.0
  0
LINE
  5
15D64
330
15B9B
100
AcDbEntity
  8
YODOROGO
100
AcDbLine
 10
13988.80217064596
 20
885.8747482146432
 30
0.0
 11
14010.91839030643
 21
892.3366697971587
 31
0.0
  0
LINE
  5
15D65
330
15B9B
100
AcDbEntity
  8
YODOROGO
100
AcDbLine
 10
13988.80217064596
 20
873.8747482146434
 30
0.0
 11
13988.80217064596
 21
885.8747482146432
 31
0.0
  0
LINE
  5
15D66
330
15B9B
100
AcDbEntity
  8
YODOROGO
100
AcDbLine
 10
14000.80217064596
 20
853.874748214644
 30
0.0
 11
14000.80217064596
 21
841.8747482146434
 31
0.0
  0
LINE
  5
15D67
330
15B9B
100
AcDbEntity
  8
YODOROGO
100
AcDbLine
 10
14008.80217064596
 20
853.874748214644
 30
0.0
 11
14000.80217064596
 21
853.874748214644
 31
0.0
  0
LINE
  5
15D68
330
15B9B
100
AcDbEntity
  8
YODOROGO
100
AcDbLine
 10
14008.80217064596
 20
841.8747482146434
 30
0.0
 11
14008.80217064596
 21
853.874748214644
 31
0.0
  0
LINE
  5
15D69
330
15B9B
100
AcDbEntity
  8
YODOROGO
100
AcDbLine
 10
14020.45660200844
 20
841.8747482146434
 30
0.0
 11
14008.80217064596
 21
841.8747482146434
 31
0.0
  0
LINE
  5
15D6A
330
15B9B
100
AcDbEntity
  8
YODOROGO
100
AcDbLine
 10
14000.80217064596
 20
841.8747482146434
 30
0.0
 11
13988.80217064596
 21
841.8747482146434
 31
0.0
  0
LINE
  5
15D6B
330
15B9B
100
AcDbEntity
  8
YODOROGO
100
AcDbLine
 10
14041.06776011546
 20
853.874748214644
 30
0.0
 11
14049.06776011545
 21
853.874748214644
 31
0.0
1001
AUTOCAD_POSTSCRIPT_FIGURE
1002
{
1000
PSFILL
1000
Grayscale
1000
Grayscale
1070
   100
1002
}
  0
LINE
  5
15D6C
330
15B9B
100
AcDbEntity
  8
YODOROGO
100
AcDbLine
 10
14200.80217064594
 20
912.4388128201532
 30
0.0
 11
14200.80217064594
 21
876.4388128201531
 31
0.0
1001
AUTOCAD_POSTSCRIPT_FIGURE
1002
{
1000
PSFILL
1000
Grayscale
1000
Grayscale
1070
   100
1002
}
  0
LINE
  5
15D6D
330
15B9B
100
AcDbEntity
  8
YODOROGO
100
AcDbLine
 10
14200.80217064594
 20
958.4388128201537
 30
0.0
 11
14200.80217064594
 21
992.4388128201531
 31
0.0
1001
AUTOCAD_POSTSCRIPT_FIGURE
1002
{
1000
PSFILL
1000
Grayscale
1000
Grayscale
1070
   100
1002
}
  0
LINE
  5
15D6E
330
15B9B
100
AcDbEntity
  8
YODOROGO
100
AcDbLine
 10
14216.80217064594
 20
909.8747482146439
 30
0.0
 11
14216.80217064594
 21
873.8747482146449
 31
0.0
  0
LINE
  5
15D6F
330
15B9B
100
AcDbEntity
  8
YODOROGO
100
AcDbLine
 10
14248.80217064594
 20
853.874748214644
 30
0.0
 11
14216.80217064594
 21
853.874748214644
 31
0.0
  0
LINE
  5
15D70
330
15B9B
100
AcDbEntity
  8
YODOROGO
100
AcDbLine
 10
14216.80217064594
 20
873.8747482146449
 30
0.0
 11
14292.80217064596
 21
873.8747482146449
 31
0.0
  0
LINE
  5
15D71
330
15B9B
100
AcDbEntity
  8
YODOROGO
100
AcDbLine
 10
14248.80217064594
 20
933.8747482146439
 30
0.0
 11
14216.80217064594
 21
933.8747482146439
 31
0.0
  0
LINE
  5
15D72
330
15B9B
100
AcDbEntity
  8
YODOROGO
100
AcDbLine
 10
14248.80217064594
 20
961.8747482146432
 30
0.0
 11
14248.80217064594
 21
933.8747482146439
 31
0.0
  0
LINE
  5
15D73
330
15B9B
100
AcDbEntity
  8
YODOROGO
100
AcDbLine
 10
14292.80217064596
 20
993.8747482146439
 30
0.0
 11
14292.80217064596
 21
1013.874748214644
 31
0.0
  0
LINE
  5
15D74
330
15B9B
100
AcDbEntity
  8
YODOROGO
100
AcDbLine
 10
14216.80217064594
 20
993.8747482146439
 30
0.0
 11
14292.80217064596
 21
993.8747482146439
 31
0.0
  0
LINE
  5
15D75
330
15B9B
100
AcDbEntity
  8
YODOROGO
100
AcDbLine
 10
14216.80217064594
 20
933.8747482146439
 30
0.0
 11
14216.80217064594
 21
993.8747482146439
 31
0.0
  0
LINE
  5
15D76
330
15B9B
100
AcDbEntity
  8
YODOROGO
100
AcDbLine
 10
14500.80217064594
 20
1013.874748214644
 30
0.0
 11
14500.80217064594
 21
809.8747482146441
 31
0.0
  0
LINE
  5
15D77
330
15B9B
100
AcDbEntity
  8
YODOROGO
100
AcDbLine
 10
14536.80217064596
 20
789.8747482146441
 30
0.0
 11
14536.80217064596
 21
1013.874748214644
 31
0.0
  0
LINE
  5
15D78
330
15B9B
100
AcDbEntity
  8
YODOROGO
100
AcDbLine
 10
14630.80217064596
 20
745.8747482146431
 30
0.0
 11
14630.80217064596
 21
1003.874748214644
 31
0.0
  0
LINE
  5
15D79
330
15B9B
100
AcDbEntity
  8
YODOROGO
100
AcDbLine
 10
14598.80217064596
 20
1003.874748214644
 30
0.0
 11
14598.80217064596
 21
745.8747482146431
 31
0.0
  0
LINE
  5
15D7A
330
15B9B
100
AcDbEntity
  8
YODOROGO
100
AcDbLine
 10
14692.80217064596
 20
1013.874748214644
 30
0.0
 11
14692.80217064596
 21
713.8747482146436
 31
0.0
  0
LINE
  5
15D7B
330
15B9B
100
AcDbEntity
  8
YODOROGO
100
AcDbLine
 10
14728.80217064596
 20
713.8747482146436
 30
0.0
 11
14728.80217064596
 21
1013.874748214644
 31
0.0
  0
LINE
  5
15D7C
330
15B9B
100
AcDbEntity
  8
YODOROGO
100
AcDbLine
 10
14328.80217064594
 20
833.8747482146439
 30
0.0
 11
14328.80217064594
 21
873.8747482146449
 31
0.0
  0
LINE
  5
15D7D
330
15B9B
100
AcDbEntity
  8
YODOROGO
100
AcDbLine
 10
14942.80217064596
 20
853.874748214644
 30
0.0
 11
14942.80217064596
 21
833.8747482146439
 31
0.0
  0
LINE
  5
15D7E
330
15B9B
100
AcDbEntity
  8
YODOROGO
100
AcDbLine
 10
14942.80217064596
 20
853.874748214644
 30
0.0
 11
14942.80217064596
 21
833.8747482146439
 31
0.0
  0
ARC
  5
15D7F
330
15B9B
100
AcDbEntity
  8
YODOROGO
100
AcDbCircle
 10
14453.45578809342
 20
809.1089322211363
 30
0.0
 40
47.35257558937082
100
AcDbArc
 50
274.052441629071
 51
0.9266642149310712
  0
ARC
  5
15D80
330
15B9B
100
AcDbEntity
  8
YODOROGO
100
AcDbCircle
 10
14454.5930853599
 20
796.30536430522
 30
0.0
 40
82.46021178042756
100
AcDbArc
 50
271.5351210653777
 51
355.5272775058505
  0
LINE
  5
15D81
330
15B9B
100
AcDbEntity
  8
YODOROGO
100
AcDbLine
 10
14456.80217064596
 20
761.8747482146434
 30
0.0
 11
14456.80217064596
 21
713.8747482146436
 31
0.0
  0
LINE
  5
15D82
330
15B9B
100
AcDbEntity
  8
YODOROGO
100
AcDbLine
 10
14396.80217064594
 20
833.8747482146439
 30
0.0
 11
14328.80217064594
 21
833.8747482146439
 31
0.0
  0
LINE
  5
15D83
330
15B9B
100
AcDbEntity
  8
YODOROGO
100
AcDbLine
 10
14396.80217064594
 20
801.8747482146444
 30
0.0
 11
14396.80217064594
 21
833.8747482146439
 31
0.0
  0
LINE
  5
15D84
330
15B9B
100
AcDbEntity
  8
YODOROGO
100
AcDbLine
 10
14328.80217064594
 20
801.8747482146444
 30
0.0
 11
14396.80217064594
 21
801.8747482146444
 31
0.0
  0
LINE
  5
15D85
330
15B9B
100
AcDbEntity
  8
YODOROGO
100
AcDbLine
 10
14328.80217064594
 20
761.8747482146434
 30
0.0
 11
14328.80217064594
 21
801.8747482146444
 31
0.0
  0
LINE
  5
15D86
330
15B9B
100
AcDbEntity
  8
YODOROGO
100
AcDbLine
 10
14396.80217064594
 20
761.8747482146434
 30
0.0
 11
14328.80217064594
 21
761.8747482146434
 31
0.0
  0
LINE
  5
15D87
330
15B9B
100
AcDbEntity
  8
YODOROGO
100
AcDbLine
 10
14396.80217064594
 20
713.8747482146436
 30
0.0
 11
14396.80217064594
 21
761.8747482146434
 31
0.0
  0
LINE
  5
15D88
330
15B9B
100
AcDbEntity
  8
YODOROGO
100
AcDbLine
 10
14598.80217064596
 20
745.8747482146431
 30
0.0
 11
14630.80217064596
 21
745.8747482146431
 31
0.0
  0
LINE
  5
15D89
330
15B9B
100
AcDbEntity
  8
YODOROGO
100
AcDbLine
 10
14692.80217064596
 20
713.8747482146436
 30
0.0
 11
14728.80217064596
 21
713.8747482146436
 31
0.0
  0
LINE
  5
15D8A
330
15B9B
100
AcDbEntity
  8
YODOROGO
100
AcDbLine
 10
14868.80217064596
 20
764.2207260852818
 30
0.0
 11
14868.80217064596
 21
713.8747482146436
 31
0.0
  0
LINE
  5
15D8B
330
15B9B
100
AcDbEntity
  8
YODOROGO
100
AcDbLine
 10
14808.80217064596
 20
713.8747482146436
 30
0.0
 11
14868.80217064596
 21
764.2207260852818
 31
0.0
  0
LINE
  5
15D8C
330
15B9B
100
AcDbEntity
  8
YODOROGO
100
AcDbLine
 10
14808.80217064596
 20
773.874748214644
 30
0.0
 11
14808.80217064596
 21
713.8747482146436
 31
0.0
  0
LINE
  5
15D8D
330
15B9B
100
AcDbEntity
  8
YODOROGO
100
AcDbLine
 10
14856.47231434973
 20
813.8747482146435
 30
0.0
 11
14808.80217064596
 21
773.874748214644
 31
0.0
  0
LINE
  5
15D8E
330
15B9B
100
AcDbEntity
  8
YODOROGO
100
AcDbLine
 10
14808.80217064596
 20
813.8747482146435
 30
0.0
 11
14856.47231434973
 21
813.8747482146435
 31
0.0
  0
LINE
  5
15D8F
330
15B9B
100
AcDbEntity
  8
YODOROGO
100
AcDbLine
 10
14808.80217064596
 20
833.8747482146439
 30
0.0
 11
14808.80217064596
 21
813.8747482146435
 31
0.0
  0
LINE
  5
15D90
330
15B9B
100
AcDbEntity
  8
YODOROGO
100
AcDbLine
 10
14942.80217064596
 20
833.8747482146439
 30
0.0
 11
14808.80217064596
 21
833.8747482146439
 31
0.0
  0
LINE
  5
15D91
330
15B9B
100
AcDbEntity
  8
YODOROGO
100
AcDbLine
 10
14958.80217064596
 20
813.8747482146435
 30
0.0
 11
14888.80217064596
 21
813.8747482146435
 31
0.0
  0
LINE
  5
15D92
330
15B9B
100
AcDbEntity
  8
YODOROGO
100
AcDbLine
 10
14888.80217064596
 20
781.0027187088283
 30
0.0
 11
14885.70493649264
 21
778.403830673117
 31
0.0
  0
LINE
  5
15D93
330
15B9B
100
AcDbEntity
  8
YODOROGO
100
AcDbLine
 10
14888.80217064596
 20
813.8747482146435
 30
0.0
 11
14888.80217064596
 21
781.0027187088283
 31
0.0
  0
LINE
  5
15D94
330
15B9B
100
AcDbEntity
  8
YODOROGO
100
AcDbLine
 10
14868.80217064596
 20
764.2207260852818
 30
0.0
 11
14868.80217064596
 21
713.8747482146436
 31
0.0
  0
LINE
  5
15D95
330
15B9B
100
AcDbEntity
  8
YODOROGO
100
AcDbLine
 10
14808.80217064596
 20
713.8747482146436
 30
0.0
 11
14868.80217064596
 21
764.2207260852818
 31
0.0
  0
LINE
  5
15D96
330
15B9B
100
AcDbEntity
  8
YODOROGO
100
AcDbLine
 10
14808.80217064596
 20
773.874748214644
 30
0.0
 11
14808.80217064596
 21
713.8747482146436
 31
0.0
  0
LINE
  5
15D97
330
15B9B
100
AcDbEntity
  8
YODOROGO
100
AcDbLine
 10
14856.47231434973
 20
813.8747482146435
 30
0.0
 11
14808.80217064596
 21
773.874748214644
 31
0.0
  0
LINE
  5
15D98
330
15B9B
100
AcDbEntity
  8
YODOROGO
100
AcDbLine
 10
14808.80217064596
 20
813.8747482146435
 30
0.0
 11
14856.47231434973
 21
813.8747482146435
 31
0.0
  0
LINE
  5
15D99
330
15B9B
100
AcDbEntity
  8
YODOROGO
100
AcDbLine
 10
14808.80217064596
 20
833.8747482146439
 30
0.0
 11
14808.80217064596
 21
813.8747482146435
 31
0.0
  0
LINE
  5
15D9A
330
15B9B
100
AcDbEntity
  8
YODOROGO
100
AcDbLine
 10
14942.80217064596
 20
833.8747482146439
 30
0.0
 11
14808.80217064596
 21
833.8747482146439
 31
0.0
  0
LINE
  5
15D9B
330
15B9B
100
AcDbEntity
  8
YODOROGO
100
AcDbLine
 10
14396.80217064594
 20
873.8747482146449
 30
0.0
 11
14396.80217064594
 21
909.8747482146439
 31
0.0
  0
LINE
  5
15D9C
330
15B9B
100
AcDbEntity
  8
YODOROGO
100
AcDbLine
 10
14328.80217064594
 20
873.8747482146449
 30
0.0
 11
14396.80217064594
 21
873.8747482146449
 31
0.0
  0
LINE
  5
15D9D
330
15B9B
100
AcDbEntity
  8
YODOROGO
100
AcDbLine
 10
14364.80217064596
 20
933.8747482146439
 30
0.0
 11
14364.80217064596
 21
961.8747482146432
 31
0.0
  0
LINE
  5
15D9E
330
15B9B
100
AcDbEntity
  8
YODOROGO
100
AcDbLine
 10
14396.80217064594
 20
933.8747482146439
 30
0.0
 11
14364.80217064596
 21
933.8747482146439
 31
0.0
  0
LINE
  5
15D9F
330
15B9B
100
AcDbEntity
  8
YODOROGO
100
AcDbLine
 10
14396.80217064594
 20
973.8747482146434
 30
0.0
 11
14396.80217064594
 21
933.8747482146439
 31
0.0
  0
ARC
  5
15DA0
330
15B9B
100
AcDbEntity
  8
YODOROGO
100
AcDbCircle
 10
14376.80217064594
 20
973.8747482146434
 30
0.0
 40
20.0
100
AcDbArc
 50
0.0
 51
90.0
  0
LINE
  5
15DA1
330
15B9B
100
AcDbEntity
  8
YODOROGO
100
AcDbLine
 10
14328.80217064596
 20
993.8747482146439
 30
0.0
 11
14376.80217064594
 21
993.8747482146439
 31
0.0
  0
LINE
  5
15DA2
330
15B9B
100
AcDbEntity
  8
YODOROGO
100
AcDbLine
 10
14328.80217064596
 20
1013.874748214644
 30
0.0
 11
14328.80217064596
 21
993.8747482146439
 31
0.0
  0
LINE
  5
15DA3
330
15B9B
100
AcDbEntity
  8
YODOROGO
100
AcDbLine
 10
14536.80217064596
 20
1013.874748214644
 30
0.0
 11
14500.80217064594
 21
1013.874748214644
 31
0.0
  0
LINE
  5
15DA4
330
15B9B
100
AcDbEntity
  8
YODOROGO
100
AcDbLine
 10
14630.80217064596
 20
1003.874748214644
 30
0.0
 11
14598.80217064596
 21
1003.874748214644
 31
0.0
  0
LINE
  5
15DA5
330
15B9B
100
AcDbEntity
  8
YODOROGO
100
AcDbLine
 10
14728.80217064596
 20
1013.874748214644
 30
0.0
 11
14692.80217064596
 21
1013.874748214644
 31
0.0
  0
LINE
  5
15DA6
330
15B9B
100
AcDbEntity
  8
YODOROGO
100
AcDbLine
 10
14836.80217064596
 20
853.874748214644
 30
0.0
 11
14836.80217064596
 21
885.8747482146441
 31
0.0
1001
AUTOCAD_POSTSCRIPT_FIGURE
1002
{
1000
PSFILL
1000
Grayscale
1000
Grayscale
1070
    25
1002
}
  0
LINE
  5
15DA7
330
15B9B
100
AcDbEntity
  8
YODOROGO
100
AcDbLine
 10
14808.80217064596
 20
853.874748214644
 30
0.0
 11
14836.80217064596
 21
853.874748214644
 31
0.0
1001
AUTOCAD_POSTSCRIPT_FIGURE
1002
{
1000
PSFILL
1000
Grayscale
1000
Grayscale
1070
    25
1002
}
  0
LINE
  5
15DA8
330
15B9B
100
AcDbEntity
  8
YODOROGO
100
AcDbLine
 10
14808.80217064596
 20
909.8747482146439
 30
0.0
 11
14808.80217064596
 21
853.874748214644
 31
0.0
1001
AUTOCAD_POSTSCRIPT_FIGURE
1002
{
1000
PSFILL
1000
Grayscale
1000
Grayscale
1070
    25
1002
}
  0
LINE
  5
15DA9
330
15B9B
100
AcDbEntity
  8
YODOROGO
100
AcDbLine
 10
14882.80217064596
 20
909.8747482146439
 30
0.0
 11
14808.80217064596
 21
909.8747482146439
 31
0.0
1001
AUTOCAD_POSTSCRIPT_FIGURE
1002
{
1000
PSFILL
1000
Grayscale
1000
Grayscale
1070
    25
1002
}
  0
LINE
  5
15DAA
330
15B9B
100
AcDbEntity
  8
YODOROGO
100
AcDbLine
 10
14882.80217064596
 20
929.874748214644
 30
0.0
 11
14882.80217064596
 21
909.8747482146439
 31
0.0
1001
AUTOCAD_POSTSCRIPT_FIGURE
1002
{
1000
PSFILL
1000
Grayscale
1000
Grayscale
1070
    25
1002
}
  0
LINE
  5
15DAB
330
15B9B
100
AcDbEntity
  8
YODOROGO
100
AcDbLine
 10
14808.80217064596
 20
929.874748214644
 30
0.0
 11
14882.80217064596
 21
929.874748214644
 31
0.0
1001
AUTOCAD_POSTSCRIPT_FIGURE
1002
{
1000
PSFILL
1000
Grayscale
1000
Grayscale
1070
    25
1002
}
  0
LINE
  5
15DAC
330
15B9B
100
AcDbEntity
  8
YODOROGO
100
AcDbLine
 10
14808.80217064596
 20
953.874748214644
 30
0.0
 11
14808.80217064596
 21
929.874748214644
 31
0.0
1001
AUTOCAD_POSTSCRIPT_FIGURE
1002
{
1000
PSFILL
1000
Grayscale
1000
Grayscale
1070
    25
1002
}
  0
LINE
  5
15DAD
330
15B9B
100
AcDbEntity
  8
YODOROGO
100
AcDbLine
 10
14882.80217064596
 20
953.874748214644
 30
0.0
 11
14808.80217064596
 21
953.874748214644
 31
0.0
1001
AUTOCAD_POSTSCRIPT_FIGURE
1002
{
1000
PSFILL
1000
Grayscale
1000
Grayscale
1070
    25
1002
}
  0
LINE
  5
15DAE
330
15B9B
100
AcDbEntity
  8
YODOROGO
100
AcDbLine
 10
14882.80217064596
 20
973.8747482146434
 30
0.0
 11
14882.80217064596
 21
953.874748214644
 31
0.0
1001
AUTOCAD_POSTSCRIPT_FIGURE
1002
{
1000
PSFILL
1000
Grayscale
1000
Grayscale
1070
    25
1002
}
  0
LINE
  5
15DAF
330
15B9B
100
AcDbEntity
  8
YODOROGO
100
AcDbLine
 10
14808.80217064596
 20
973.8747482146434
 30
0.0
 11
14882.80217064596
 21
973.8747482146434
 31
0.0
1001
AUTOCAD_POSTSCRIPT_FIGURE
1002
{
1000
PSFILL
1000
Grayscale
1000
Grayscale
1070
    25
1002
}
  0
LINE
  5
15DB0
330
15B9B
100
AcDbEntity
  8
YODOROGO
100
AcDbLine
 10
14808.80217064596
 20
1013.874748214644
 30
0.0
 11
14808.80217064596
 21
973.8747482146434
 31
0.0
1001
AUTOCAD_POSTSCRIPT_FIGURE
1002
{
1000
PSFILL
1000
Grayscale
1000
Grayscale
1070
    25
1002
}
  0
LINE
  5
15DB1
330
15B9B
100
AcDbEntity
  8
YODOROGO
100
AcDbLine
 10
14832.80217064596
 20
1013.874748214644
 30
0.0
 11
14808.80217064596
 21
1013.874748214644
 31
0.0
1001
AUTOCAD_POSTSCRIPT_FIGURE
1002
{
1000
PSFILL
1000
Grayscale
1000
Grayscale
1070
    25
1002
}
  0
LINE
  5
15DB2
330
15B9B
100
AcDbEntity
  8
YODOROGO
100
AcDbLine
 10
14832.80217064596
 20
997.8747482146435
 30
0.0
 11
14832.80217064596
 21
1013.874748214644
 31
0.0
1001
AUTOCAD_POSTSCRIPT_FIGURE
1002
{
1000
PSFILL
1000
Grayscale
1000
Grayscale
1070
    25
1002
}
  0
LINE
  5
15DB3
330
15B9B
100
AcDbEntity
  8
YODOROGO
100
AcDbLine
 10
14882.80217064596
 20
997.8747482146435
 30
0.0
 11
14832.80217064596
 21
997.8747482146435
 31
0.0
1001
AUTOCAD_POSTSCRIPT_FIGURE
1002
{
1000
PSFILL
1000
Grayscale
1000
Grayscale
1070
    25
1002
}
  0
LINE
  5
15DB4
330
15B9B
100
AcDbEntity
  8
YODOROGO
100
AcDbLine
 10
14882.80217064596
 20
1013.874748214644
 30
0.0
 11
14882.80217064596
 21
997.8747482146435
 31
0.0
1001
AUTOCAD_POSTSCRIPT_FIGURE
1002
{
1000
PSFILL
1000
Grayscale
1000
Grayscale
1070
    25
1002
}
  0
LINE
  5
15DB5
330
15B9B
100
AcDbEntity
  8
YODOROGO
100
AcDbLine
 10
14914.80217064596
 20
1013.874748214644
 30
0.0
 11
14882.80217064596
 21
1013.874748214644
 31
0.0
1001
AUTOCAD_POSTSCRIPT_FIGURE
1002
{
1000
PSFILL
1000
Grayscale
1000
Grayscale
1070
    25
1002
}
  0
LINE
  5
15DB6
330
15B9B
100
AcDbEntity
  8
YODOROGO
100
AcDbLine
 10
14914.80217064596
 20
997.8747482146435
 30
0.0
 11
14914.80217064596
 21
1013.874748214644
 31
0.0
1001
AUTOCAD_POSTSCRIPT_FIGURE
1002
{
1000
PSFILL
1000
Grayscale
1000
Grayscale
1070
    25
1002
}
  0
LINE
  5
15DB7
330
15B9B
100
AcDbEntity
  8
YODOROGO
100
AcDbLine
 10
14914.80217064596
 20
953.874748214644
 30
0.0
 11
14914.80217064596
 21
973.8747482146434
 31
0.0
1001
AUTOCAD_POSTSCRIPT_FIGURE
1002
{
1000
PSFILL
1000
Grayscale
1000
Grayscale
1070
    25
1002
}
  0
LINE
  5
15DB8
330
15B9B
100
AcDbEntity
  8
YODOROGO
100
AcDbLine
 10
14914.80217064596
 20
909.8747482146439
 30
0.0
 11
14914.80217064596
 21
929.874748214644
 31
0.0
1001
AUTOCAD_POSTSCRIPT_FIGURE
1002
{
1000
PSFILL
1000
Grayscale
1000
Grayscale
1070
    25
1002
}
  0
LINE
  5
15DB9
330
15B9B
100
AcDbEntity
  8
YODOROGO
100
AcDbLine
 10
14960.80217064594
 20
885.8747482146441
 30
0.0
 11
14960.80217064594
 21
853.874748214644
 31
0.0
1001
AUTOCAD_POSTSCRIPT_FIGURE
1002
{
1000
PSFILL
1000
Grayscale
1000
Grayscale
1070
    25
1002
}
  0
LINE
  5
15DBA
330
15B9B
100
AcDbEntity
  8
YODOROGO
100
AcDbLine
 10
14914.80217064596
 20
885.8747482146441
 30
0.0
 11
14960.80217064594
 21
885.8747482146441
 31
0.0
1001
AUTOCAD_POSTSCRIPT_FIGURE
1002
{
1000
PSFILL
1000
Grayscale
1000
Grayscale
1070
    25
1002
}
  0
LINE
  5
15DBB
330
15B9B
100
AcDbEntity
  8
YODOROGO
100
AcDbLine
 10
14914.80217064596
 20
853.874748214644
 30
0.0
 11
14914.80217064596
 21
885.8747482146441
 31
0.0
1001
AUTOCAD_POSTSCRIPT_FIGURE
1002
{
1000
PSFILL
1000
Grayscale
1000
Grayscale
1070
    25
1002
}
  0
LINE
  5
15DBC
330
15B9B
100
AcDbEntity
  8
YODOROGO
100
AcDbLine
 10
14882.80217064596
 20
853.874748214644
 30
0.0
 11
14914.80217064596
 21
853.874748214644
 31
0.0
1001
AUTOCAD_POSTSCRIPT_FIGURE
1002
{
1000
PSFILL
1000
Grayscale
1000
Grayscale
1070
    25
1002
}
  0
LINE
  5
15DBD
330
15B9B
100
AcDbEntity
  8
YODOROGO
100
AcDbLine
 10
14882.80217064596
 20
885.8747482146441
 30
0.0
 11
14882.80217064596
 21
853.874748214644
 31
0.0
1001
AUTOCAD_POSTSCRIPT_FIGURE
1002
{
1000
PSFILL
1000
Grayscale
1000
Grayscale
1070
    25
1002
}
  0
LINE
  5
15DBE
330
15B9B
100
AcDbEntity
  8
YODOROGO
100
AcDbLine
 10
14836.80217064596
 20
885.8747482146441
 30
0.0
 11
14882.80217064596
 21
885.8747482146441
 31
0.0
1001
AUTOCAD_POSTSCRIPT_FIGURE
1002
{
1000
PSFILL
1000
Grayscale
1000
Grayscale
1070
    25
1002
}
  0
ARC
  5
15DBF
330
15B9B
100
AcDbEntity
  8
YODOROGO
100
AcDbCircle
 10
15529.75894667896
 20
801.3403687577881
 30
0.0
 40
89.11064055536078
100
AcDbArc
 50
281.0262749542535
 51
357.771135755738
  0
LINE
  5
15DC0
330
15B9B
100
AcDbEntity
  8
YODOROGO
100
AcDbLine
 10
15706.80217064596
 20
953.874748214644
 30
0.0
 11
15582.80217064596
 21
953.874748214644
 31
0.0
  0
LINE
  5
15DC1
330
15B9B
100
AcDbEntity
  8
YODOROGO
100
AcDbLine
 10
15706.80217064596
 20
1013.874748214644
 30
0.0
 11
15582.80217064596
 21
1013.874748214644
 31
0.0
  0
LINE
  5
15DC2
330
15B9B
100
AcDbEntity
  8
YODOROGO
100
AcDbLine
 10
15582.80217064596
 20
981.8747482146434
 30
0.0
 11
15706.80217064596
 21
981.8747482146434
 31
0.0
  0
LINE
  5
15DC3
330
15B9B
100
AcDbEntity
  8
YODOROGO
100
AcDbLine
 10
15395.80217064596
 20
781.8747482146434
 30
0.0
 11
15395.80217064596
 21
877.8747482146435
 31
0.0
  0
LINE
  5
15DC4
330
15B9B
100
AcDbEntity
  8
YODOROGO
100
AcDbLine
 10
15381.80217064596
 20
845.8747482146444
 30
0.0
 11
15381.80217064596
 21
781.8747482146434
 31
0.0
  0
LINE
  5
15DC5
330
15B9B
100
AcDbEntity
  8
YODOROGO
100
AcDbLine
 10
15361.80217064596
 20
745.8747482146443
 30
0.0
 11
15361.80217064596
 21
845.8747482146444
 31
0.0
  0
LINE
  5
15DC6
330
15B9B
100
AcDbEntity
  8
YODOROGO
100
AcDbLine
 10
15449.80217064596
 20
845.8747482146444
 30
0.0
 11
15449.80217064596
 21
745.8747482146443
 31
0.0
  0
LINE
  5
15DC7
330
15B9B
100
AcDbEntity
  8
YODOROGO
100
AcDbLine
 10
15429.80217064596
 20
781.8747482146434
 30
0.0
 11
15429.80217064596
 21
845.8747482146444
 31
0.0
  0
LINE
  5
15DC8
330
15B9B
100
AcDbEntity
  8
YODOROGO
100
AcDbLine
 10
15415.80217064596
 20
877.8747482146435
 30
0.0
 11
15415.80217064596
 21
781.8747482146434
 31
0.0
  0
LINE
  5
15DC9
330
15B9B
100
AcDbEntity
  8
YODOROGO
100
AcDbLine
 10
15486.80217064596
 20
1013.874748214644
 30
0.0
 11
15486.80217064596
 21
733.8747482146435
 31
0.0
  0
LINE
  5
15DCA
330
15B9B
100
AcDbEntity
  8
YODOROGO
100
AcDbLine
 10
15322.80217064596
 20
713.8747482146436
 30
0.0
 11
15322.80217064596
 21
1013.874748214644
 31
0.0
  0
LINE
  5
15DCB
330
15B9B
100
AcDbEntity
  8
YODOROGO
100
AcDbLine
 10
15348.80217064596
 20
981.8747482146434
 30
0.0
 11
15348.80217064596
 21
713.8747482146436
 31
0.0
  0
LINE
  5
15DCC
330
15B9B
100
AcDbEntity
  8
YODOROGO
100
AcDbLine
 10
15462.80217064596
 20
773.874748214644
 30
0.0
 11
15462.80217064596
 21
981.8747482146434
 31
0.0
  0
LINE
  5
15DCD
330
15B9B
100
AcDbEntity
  8
YODOROGO
100
AcDbLine
 10
15190.80217064596
 20
813.8747482146435
 30
0.0
 11
15190.80217064596
 21
839.8747482146442
 31
0.0
  0
LINE
  5
15DCE
330
15B9B
100
AcDbEntity
  8
YODOROGO
100
AcDbLine
 10
15308.80217064596
 20
839.8747482146442
 30
0.0
 11
15308.80217064596
 21
813.8747482146435
 31
0.0
  0
LINE
  5
15DCF
330
15B9B
100
AcDbEntity
  8
YODOROGO
100
AcDbLine
 10
15582.80217064596
 20
953.874748214644
 30
0.0
 11
15582.80217064596
 21
817.8747482146436
 31
0.0
  0
LINE
  5
15DD0
330
15B9B
100
AcDbEntity
  8
YODOROGO
100
AcDbLine
 10
14974.80217064595
 20
833.8747482146439
 30
0.0
 11
14974.80217064595
 21
853.874748214644
 31
0.0
  0
LINE
  5
15DD1
330
15B9B
100
AcDbEntity
  8
YODOROGO
100
AcDbLine
 10
14974.80217064595
 20
833.8747482146439
 30
0.0
 11
14974.80217064595
 21
853.874748214644
 31
0.0
  0
ARC
  5
15DD2
330
15B9B
100
AcDbEntity
  8
YODOROGO
100
AcDbCircle
 10
15268.80217064596
 20
753.8747482146439
 30
0.0
 40
40.0
100
AcDbArc
 50
270.0
 51
0.0
  0
LINE
  5
15DD3
330
15B9B
100
AcDbEntity
  8
YODOROGO
100
AcDbLine
 10
15284.80217064596
 20
799.8747482146441
 30
0.0
 11
15308.80217064596
 21
799.8747482146441
 31
0.0
  0
LINE
  5
15DD4
330
15B9B
100
AcDbEntity
  8
YODOROGO
100
AcDbLine
 10
15308.80217064596
 20
813.8747482146435
 30
0.0
 11
15264.80217064596
 21
813.8747482146435
 31
0.0
  0
LINE
  5
15DD5
330
15B9B
100
AcDbEntity
  8
YODOROGO
100
AcDbLine
 10
15108.80217064596
 20
833.8747482146439
 30
0.0
 11
14974.80217064595
 21
833.8747482146439
 31
0.0
  0
LINE
  5
15DD6
330
15B9B
100
AcDbEntity
  8
YODOROGO
100
AcDbLine
 10
15108.80217064596
 20
813.8747482146435
 30
0.0
 11
15108.80217064596
 21
833.8747482146439
 31
0.0
  0
LINE
  5
15DD7
330
15B9B
100
AcDbEntity
  8
YODOROGO
100
AcDbLine
 10
15008.80217064596
 20
813.8747482146435
 30
0.0
 11
15108.80217064596
 21
813.8747482146435
 31
0.0
  0
ARC
  5
15DD8
330
15B9B
100
AcDbEntity
  8
YODOROGO
100
AcDbCircle
 10
15115.02941435068
 20
934.4428574764513
 30
0.0
 40
160.6888181426141
100
AcDbArc
 50
228.6181454618993
 51
245.660289248906
  0
LINE
  5
15DD9
330
15B9B
100
AcDbEntity
  8
YODOROGO
100
AcDbLine
 10
15052.80217064596
 20
801.8747482146444
 30
0.0
 11
15048.80217064598
 21
788.0364079349501
 31
0.0
  0
LINE
  5
15DDA
330
15B9B
100
AcDbEntity
  8
YODOROGO
100
AcDbLine
 10
15094.80217064596
 20
801.8747482146444
 30
0.0
 11
15052.80217064596
 21
801.8747482146444
 31
0.0
  0
LINE
  5
15DDB
330
15B9B
100
AcDbEntity
  8
YODOROGO
100
AcDbLine
 10
15088.80217064596
 20
775.9088612367134
 30
0.0
 11
15094.80217064596
 21
801.8747482146444
 31
0.0
  0
ARC
  5
15DDC
330
15B9B
100
AcDbEntity
  8
YODOROGO
100
AcDbCircle
 10
15115.02941435023
 20
934.4428574765014
 30
0.0
 40
160.6888181426453
100
AcDbArc
 50
260.6062929796992
 51
267.7790355655586
  0
LINE
  5
15DDD
330
15B9B
100
AcDbEntity
  8
YODOROGO
100
AcDbLine
 10
15108.80217064596
 20
713.8747482146428
 30
0.0
 11
15108.80217064596
 21
773.874748214644
 31
0.0
  0
LINE
  5
15DDE
330
15B9B
100
AcDbEntity
  8
YODOROGO
100
AcDbLine
 10
14968.80217064596
 20
740.6696674577553
 30
0.0
 11
14968.80217064596
 21
797.2655452655705
 31
0.0
  0
LINE
  5
15DDF
330
15B9B
100
AcDbEntity
  8
YODOROGO
100
AcDbLine
 10
15108.80217064596
 20
833.8747482146439
 30
0.0
 11
14974.80217064595
 21
833.8747482146439
 31
0.0
  0
LINE
  5
15DE0
330
15B9B
100
AcDbEntity
  8
YODOROGO
100
AcDbLine
 10
15108.80217064596
 20
813.8747482146435
 30
0.0
 11
15108.80217064596
 21
833.8747482146439
 31
0.0
  0
LINE
  5
15DE1
330
15B9B
100
AcDbEntity
  8
YODOROGO
100
AcDbLine
 10
15008.80217064596
 20
813.8747482146435
 30
0.0
 11
15108.80217064596
 21
813.8747482146435
 31
0.0
  0
ARC
  5
15DE2
330
15B9B
100
AcDbEntity
  8
YODOROGO
100
AcDbCircle
 10
15115.02941435068
 20
934.4428574764513
 30
0.0
 40
160.6888181426141
100
AcDbArc
 50
228.6181454618993
 51
245.660289248906
  0
LINE
  5
15DE3
330
15B9B
100
AcDbEntity
  8
YODOROGO
100
AcDbLine
 10
15052.80217064596
 20
801.8747482146444
 30
0.0
 11
15048.80217064598
 21
788.0364079349501
 31
0.0
  0
LINE
  5
15DE4
330
15B9B
100
AcDbEntity
  8
YODOROGO
100
AcDbLine
 10
15094.80217064596
 20
801.8747482146444
 30
0.0
 11
15052.80217064596
 21
801.8747482146444
 31
0.0
  0
LINE
  5
15DE5
330
15B9B
100
AcDbEntity
  8
YODOROGO
100
AcDbLine
 10
15088.80217064596
 20
775.9088612367134
 30
0.0
 11
15094.80217064596
 21
801.8747482146444
 31
0.0
  0
ARC
  5
15DE6
330
15B9B
100
AcDbEntity
  8
YODOROGO
100
AcDbCircle
 10
15115.02941435023
 20
934.4428574765014
 30
0.0
 40
160.6888181426453
100
AcDbArc
 50
260.6062929796992
 51
267.7790355655586
  0
LINE
  5
15DE7
330
15B9B
100
AcDbEntity
  8
YODOROGO
100
AcDbLine
 10
15108.80217064596
 20
713.8747482146428
 30
0.0
 11
15108.80217064596
 21
773.874748214644
 31
0.0
  0
LINE
  5
15DE8
330
15B9B
100
AcDbEntity
  8
YODOROGO
100
AcDbLine
 10
14968.80217064596
 20
740.6696674577553
 30
0.0
 11
14968.80217064596
 21
797.2655452655705
 31
0.0
  0
LINE
  5
15DE9
330
15B9B
100
AcDbEntity
  8
YODOROGO
100
AcDbLine
 10
15216.80217064596
 20
786.8747482146444
 30
0.0
 11
15190.80217064596
 21
786.8747482146444
 31
0.0
  0
LINE
  5
15DEA
330
15B9B
100
AcDbEntity
  8
YODOROGO
100
AcDbLine
 10
15216.80217064596
 20
800.8747482146432
 30
0.0
 11
15216.80217064596
 21
786.8747482146444
 31
0.0
  0
LINE
  5
15DEB
330
15B9B
100
AcDbEntity
  8
YODOROGO
100
AcDbLine
 10
15190.80217064596
 20
800.8747482146432
 30
0.0
 11
15216.80217064596
 21
800.8747482146432
 31
0.0
  0
LINE
  5
15DEC
330
15B9B
100
AcDbEntity
  8
YODOROGO
100
AcDbLine
 10
15190.80217064596
 20
786.8747482146444
 30
0.0
 11
15190.80217064596
 21
800.8747482146432
 31
0.0
  0
LINE
  5
15DED
330
15B9B
100
AcDbEntity
  8
YODOROGO
100
AcDbLine
 10
15214.80217064596
 20
788.8747482146436
 30
0.0
 11
15192.80217064595
 21
788.8747482146436
 31
0.0
  0
LINE
  5
15DEE
330
15B9B
100
AcDbEntity
  8
YODOROGO
100
AcDbLine
 10
15214.80217064596
 20
798.874748214644
 30
0.0
 11
15214.80217064596
 21
788.8747482146436
 31
0.0
  0
LINE
  5
15DEF
330
15B9B
100
AcDbEntity
  8
YODOROGO
100
AcDbLine
 10
15192.80217064595
 20
798.874748214644
 30
0.0
 11
15214.80217064596
 21
798.874748214644
 31
0.0
  0
LINE
  5
15DF0
330
15B9B
100
AcDbEntity
  8
YODOROGO
100
AcDbLine
 10
15192.80217064595
 20
788.8747482146436
 30
0.0
 11
15192.80217064595
 21
798.874748214644
 31
0.0
  0
LINE
  5
15DF1
330
15B9B
100
AcDbEntity
  8
YODOROGO
100
AcDbLine
 10
15212.80217064596
 20
790.8747482146432
 30
0.0
 11
15194.80217064596
 21
790.8747482146432
 31
0.0
  0
LINE
  5
15DF2
330
15B9B
100
AcDbEntity
  8
YODOROGO
100
AcDbLine
 10
15212.80217064596
 20
796.8747482146445
 30
0.0
 11
15212.80217064596
 21
790.8747482146432
 31
0.0
  0
LINE
  5
15DF3
330
15B9B
100
AcDbEntity
  8
YODOROGO
100
AcDbLine
 10
15194.80217064596
 20
796.8747482146445
 30
0.0
 11
15212.80217064596
 21
796.8747482146445
 31
0.0
  0
LINE
  5
15DF4
330
15B9B
100
AcDbEntity
  8
YODOROGO
100
AcDbLine
 10
15194.80217064596
 20
790.8747482146432
 30
0.0
 11
15194.80217064596
 21
796.8747482146445
 31
0.0
  0
LINE
  5
15DF5
330
15B9B
100
AcDbEntity
  8
YODOROGO
100
AcDbLine
 10
15210.80217064596
 20
792.8747482146435
 30
0.0
 11
15196.80217064596
 21
792.8747482146435
 31
0.0
  0
LINE
  5
15DF6
330
15B9B
100
AcDbEntity
  8
YODOROGO
100
AcDbLine
 10
15210.80217064596
 20
794.8747482146441
 30
0.0
 11
15210.80217064596
 21
792.8747482146435
 31
0.0
  0
LINE
  5
15DF7
330
15B9B
100
AcDbEntity
  8
YODOROGO
100
AcDbLine
 10
15196.80217064596
 20
794.8747482146441
 30
0.0
 11
15210.80217064596
 21
794.8747482146441
 31
0.0
  0
LINE
  5
15DF8
330
15B9B
100
AcDbEntity
  8
YODOROGO
100
AcDbLine
 10
15196.80217064596
 20
792.8747482146435
 30
0.0
 11
15196.80217064596
 21
794.8747482146441
 31
0.0
  0
LINE
  5
15DF9
330
15B9B
100
AcDbEntity
  8
YODOROGO
100
AcDbLine
 10
15232.80217064596
 20
813.8747482146435
 30
0.0
 11
15190.80217064596
 21
813.8747482146435
 31
0.0
  0
LINE
  5
15DFA
330
15B9B
100
AcDbEntity
  8
YODOROGO
100
AcDbLine
 10
15232.80217064596
 20
773.874748214644
 30
0.0
 11
15232.80217064596
 21
813.8747482146435
 31
0.0
  0
LINE
  5
15DFB
330
15B9B
100
AcDbEntity
  8
YODOROGO
100
AcDbLine
 10
15190.80217064596
 20
773.874748214644
 30
0.0
 11
15232.80217064596
 21
773.874748214644
 31
0.0
  0
LINE
  5
15DFC
330
15B9B
100
AcDbEntity
  8
YODOROGO
100
AcDbLine
 10
15190.80217064596
 20
713.8747482146436
 30
0.0
 11
15190.80217064596
 21
773.874748214644
 31
0.0
  0
LINE
  5
15DFD
330
15B9B
100
AcDbEntity
  8
YODOROGO
100
AcDbLine
 10
15268.80217064596
 20
713.8747482146436
 30
0.0
 11
15190.80217064596
 21
713.8747482146436
 31
0.0
  0
LINE
  5
15DFE
330
15B9B
100
AcDbEntity
  8
YODOROGO
100
AcDbLine
 10
15284.80217064596
 20
785.8747482146432
 30
0.0
 11
15284.80217064596
 21
799.8747482146441
 31
0.0
  0
ARC
  5
15DFF
330
15B9B
100
AcDbEntity
  8
YODOROGO
100
AcDbCircle
 10
15272.80217064594
 20
785.8747482146457
 30
0.0
 40
12.00000000000187
100
AcDbArc
 50
270.0
 51
359.9999999999877
  0
LINE
  5
15E00
330
15B9B
100
AcDbEntity
  8
YODOROGO
100
AcDbLine
 10
15264.80217064596
 20
773.874748214644
 30
0.0
 11
15272.80217064594
 21
773.874748214644
 31
0.0
  0
LINE
  5
15E01
330
15B9B
100
AcDbEntity
  8
YODOROGO
100
AcDbLine
 10
15264.80217064596
 20
813.8747482146435
 30
0.0
 11
15264.80217064596
 21
773.874748214644
 31
0.0
  0
LINE
  5
15E02
330
15B9B
100
AcDbEntity
  8
YODOROGO
100
AcDbLine
 10
15449.80217064596
 20
773.874748214644
 30
0.0
 11
15462.80217064596
 21
773.874748214644
 31
0.0
  0
LINE
  5
15E03
330
15B9B
100
AcDbEntity
  8
YODOROGO
100
AcDbLine
 10
15466.80217064596
 20
713.8747482146436
 30
0.0
 11
15449.80217064596
 21
713.8747482146436
 31
0.0
  0
LINE
  5
15E04
330
15B9B
100
AcDbEntity
  8
YODOROGO
100
AcDbLine
 10
15381.80217064596
 20
781.8747482146434
 30
0.0
 11
15395.80217064596
 21
781.8747482146434
 31
0.0
  0
LINE
  5
15E05
330
15B9B
100
AcDbEntity
  8
YODOROGO
100
AcDbLine
 10
15449.80217064596
 20
745.8747482146443
 30
0.0
 11
15361.80217064596
 21
745.8747482146443
 31
0.0
  0
LINE
  5
15E06
330
15B9B
100
AcDbEntity
  8
YODOROGO
100
AcDbLine
 10
15415.80217064596
 20
781.8747482146434
 30
0.0
 11
15429.80217064596
 21
781.8747482146434
 31
0.0
  0
LINE
  5
15E07
330
15B9B
100
AcDbEntity
  8
YODOROGO
100
AcDbLine
 10
15449.80217064596
 20
713.8747482146436
 30
0.0
 11
15449.80217064596
 21
773.874748214644
 31
0.0
  0
LINE
  5
15E08
330
15B9B
100
AcDbEntity
  8
YODOROGO
100
AcDbLine
 10
15348.80217064596
 20
713.8747482146436
 30
0.0
 11
15322.80217064596
 21
713.8747482146436
 31
0.0
  0
LINE
  5
15E09
330
15B9B
100
AcDbEntity
  8
YODOROGO
100
AcDbLine
 10
15308.80217064596
 20
799.8747482146441
 30
0.0
 11
15308.80217064596
 21
753.8747482146439
 31
0.0
  0
ARC
  5
15E0A
330
15B9B
100
AcDbEntity
  8
YODOROGO
100
AcDbCircle
 10
15466.80217064596
 20
733.8747482146435
 30
0.0
 40
20.0
100
AcDbArc
 50
270.0
 51
0.0
  0
LINE
  5
15E0B
330
15B9B
100
AcDbEntity
  8
YODOROGO
100
AcDbLine
 10
15546.80217064596
 20
761.8747482146434
 30
0.0
 11
15546.80217064596
 21
713.8747482146436
 31
0.0
  0
ARC
  5
15E0C
330
15B9B
100
AcDbEntity
  8
YODOROGO
100
AcDbCircle
 10
15519.86069778339
 20
818.7656950548664
 30
0.0
 40
62.94777829583771
100
AcDbArc
 50
295.3405244216011
 51
359.1890230341867
  0
LINE
  5
15E0D
330
15B9B
100
AcDbEntity
  8
YODOROGO
100
AcDbLine
 10
15308.80217064596
 20
929.874748214644
 30
0.0
 11
15248.80217064596
 21
969.8747482146441
 31
0.0
  0
LINE
  5
15E0E
330
15B9B
100
AcDbEntity
  8
YODOROGO
100
AcDbLine
 10
15248.80217064596
 20
1013.874748214644
 30
0.0
 11
15308.80217064596
 21
973.8747482146434
 31
0.0
  0
LINE
  5
15E0F
330
15B9B
100
AcDbEntity
  8
YODOROGO
100
AcDbLine
 10
15264.80217064596
 20
839.8747482146442
 30
0.0
 11
15308.80217064596
 21
839.8747482146442
 31
0.0
  0
LINE
  5
15E10
330
15B9B
100
AcDbEntity
  8
YODOROGO
100
AcDbLine
 10
15308.80217064596
 20
867.8747482146436
 30
0.0
 11
15264.80217064596
 21
867.8747482146436
 31
0.0
  0
LINE
  5
15E11
330
15B9B
100
AcDbEntity
  8
YODOROGO
100
AcDbLine
 10
15190.80217064596
 20
897.8747482146435
 30
0.0
 11
15308.80217064596
 21
897.8747482146435
 31
0.0
  0
LINE
  5
15E12
330
15B9B
100
AcDbEntity
  8
YODOROGO
100
AcDbLine
 10
15040.80217064596
 20
1013.874748214644
 30
0.0
 11
15010.80217064596
 21
1013.874748214644
 31
0.0
  0
LINE
  5
15E13
330
15B9B
100
AcDbEntity
  8
YODOROGO
100
AcDbLine
 10
15040.80217064596
 20
913.8747482146435
 30
0.0
 11
15040.80217064596
 21
1013.874748214644
 31
0.0
  0
LINE
  5
15E14
330
15B9B
100
AcDbEntity
  8
YODOROGO
100
AcDbLine
 10
15010.80217064596
 20
913.8747482146435
 30
0.0
 11
15040.80217064596
 21
913.8747482146435
 31
0.0
  0
LINE
  5
15E15
330
15B9B
100
AcDbEntity
  8
YODOROGO
100
AcDbLine
 10
15010.80217064596
 20
1013.874748214644
 30
0.0
 11
15010.80217064596
 21
913.8747482146435
 31
0.0
  0
LINE
  5
15E16
330
15B9B
100
AcDbEntity
  8
YODOROGO
100
AcDbLine
 10
15080.80217064596
 20
1013.874748214644
 30
0.0
 11
15108.80217064596
 21
1013.874748214644
 31
0.0
  0
LINE
  5
15E17
330
15B9B
100
AcDbEntity
  8
YODOROGO
100
AcDbLine
 10
15080.80217064596
 20
905.8747482146443
 30
0.0
 11
15080.80217064596
 21
1013.874748214644
 31
0.0
  0
ARC
  5
15E18
330
15B9B
100
AcDbEntity
  8
YODOROGO
100
AcDbCircle
 10
15060.80217064596
 20
905.8747482146443
 30
0.0
 40
20.0
100
AcDbArc
 50
270.0
 51
0.0
  0
LINE
  5
15E19
330
15B9B
100
AcDbEntity
  8
YODOROGO
100
AcDbLine
 10
15010.80217064596
 20
885.8747482146441
 30
0.0
 11
15060.80217064596
 21
885.8747482146441
 31
0.0
  0
LINE
  5
15E1A
330
15B9B
100
AcDbEntity
  8
YODOROGO
100
AcDbLine
 10
15010.80217064596
 20
853.874748214644
 30
0.0
 11
15010.80217064596
 21
885.8747482146441
 31
0.0
  0
LINE
  5
15E1B
330
15B9B
100
AcDbEntity
  8
YODOROGO
100
AcDbLine
 10
15068.80217064596
 20
853.874748214644
 30
0.0
 11
15010.80217064596
 21
853.874748214644
 31
0.0
  0
ARC
  5
15E1C
330
15B9B
100
AcDbEntity
  8
YODOROGO
100
AcDbCircle
 10
15068.80217064596
 20
893.8747482146439
 30
0.0
 40
40.0
100
AcDbArc
 50
270.0
 51
0.0
  0
LINE
  5
15E1D
330
15B9B
100
AcDbEntity
  8
YODOROGO
100
AcDbLine
 10
15108.80217064596
 20
1013.874748214644
 30
0.0
 11
15108.80217064596
 21
893.8747482146439
 31
0.0
  0
LINE
  5
15E1E
330
15B9B
100
AcDbEntity
  8
YODOROGO
100
AcDbLine
 10
14988.80217064596
 20
973.8747482146434
 30
0.0
 11
14988.80217064596
 21
997.8747482146435
 31
0.0
1001
AUTOCAD_POSTSCRIPT_FIGURE
1002
{
1000
PSFILL
1000
Grayscale
1000
Grayscale
1070
    25
1002
}
  0
LINE
  5
15E1F
330
15B9B
100
AcDbEntity
  8
YODOROGO
100
AcDbLine
 10
14988.80217064596
 20
929.874748214644
 30
0.0
 11
14988.80217064596
 21
953.874748214644
 31
0.0
1001
AUTOCAD_POSTSCRIPT_FIGURE
1002
{
1000
PSFILL
1000
Grayscale
1000
Grayscale
1070
    25
1002
}
  0
LINE
  5
15E20
330
15B9B
100
AcDbEntity
  8
YODOROGO
100
AcDbLine
 10
14988.80217064596
 20
853.874748214644
 30
0.0
 11
14988.80217064596
 21
909.8747482146439
 31
0.0
1001
AUTOCAD_POSTSCRIPT_FIGURE
1002
{
1000
PSFILL
1000
Grayscale
1000
Grayscale
1070
    25
1002
}
  0
LINE
  5
15E21
330
15B9B
100
AcDbEntity
  8
YODOROGO
100
AcDbLine
 10
15190.80217064596
 20
953.874748214644
 30
0.0
 11
15248.80217064596
 21
1013.874748214644
 31
0.0
  0
LINE
  5
15E22
330
15B9B
100
AcDbEntity
  8
YODOROGO
100
AcDbLine
 10
15190.80217064596
 20
909.8747482146439
 30
0.0
 11
15190.80217064596
 21
953.874748214644
 31
0.0
  0
LINE
  5
15E23
330
15B9B
100
AcDbEntity
  8
YODOROGO
100
AcDbLine
 10
15248.80217064596
 20
969.8747482146441
 30
0.0
 11
15190.80217064596
 21
909.8747482146439
 31
0.0
  0
LINE
  5
15E24
330
15B9B
100
AcDbEntity
  8
YODOROGO
100
AcDbLine
 10
15232.80217064596
 20
839.8747482146442
 30
0.0
 11
15232.80217064596
 21
867.8747482146436
 31
0.0
  0
LINE
  5
15E25
330
15B9B
100
AcDbEntity
  8
YODOROGO
100
AcDbLine
 10
15190.80217064596
 20
839.8747482146442
 30
0.0
 11
15232.80217064596
 21
839.8747482146442
 31
0.0
  0
LINE
  5
15E26
330
15B9B
100
AcDbEntity
  8
YODOROGO
100
AcDbLine
 10
15264.80217064596
 20
867.8747482146436
 30
0.0
 11
15264.80217064596
 21
839.8747482146442
 31
0.0
  0
LINE
  5
15E27
330
15B9B
100
AcDbEntity
  8
YODOROGO
100
AcDbLine
 10
15190.80217064596
 20
867.8747482146436
 30
0.0
 11
15190.80217064596
 21
897.8747482146435
 31
0.0
  0
LINE
  5
15E28
330
15B9B
100
AcDbEntity
  8
YODOROGO
100
AcDbLine
 10
15232.80217064596
 20
867.8747482146436
 30
0.0
 11
15190.80217064596
 21
867.8747482146436
 31
0.0
  0
LINE
  5
15E29
330
15B9B
100
AcDbEntity
  8
YODOROGO
100
AcDbLine
 10
15322.80217064596
 20
1013.874748214644
 30
0.0
 11
15486.80217064596
 21
1013.874748214644
 31
0.0
  0
LINE
  5
15E2A
330
15B9B
100
AcDbEntity
  8
YODOROGO
100
AcDbLine
 10
15462.80217064596
 20
981.8747482146434
 30
0.0
 11
15348.80217064596
 21
981.8747482146434
 31
0.0
  0
LINE
  5
15E2B
330
15B9B
100
AcDbEntity
  8
YODOROGO
100
AcDbLine
 10
15436.80217064595
 20
909.8747482146439
 30
0.0
 11
15449.80217064596
 21
909.8747482146439
 31
0.0
  0
LINE
  5
15E2C
330
15B9B
100
AcDbEntity
  8
YODOROGO
100
AcDbLine
 10
15449.80217064596
 20
969.8747482146441
 30
0.0
 11
15436.80217064595
 21
909.8747482146439
 31
0.0
  0
LINE
  5
15E2D
330
15B9B
100
AcDbEntity
  8
YODOROGO
100
AcDbLine
 10
15425.80217064596
 20
969.8747482146441
 30
0.0
 11
15449.80217064596
 21
969.8747482146441
 31
0.0
  0
LINE
  5
15E2E
330
15B9B
100
AcDbEntity
  8
YODOROGO
100
AcDbLine
 10
15412.80217064596
 20
909.8747482146439
 30
0.0
 11
15425.80217064596
 21
969.8747482146441
 31
0.0
  0
LINE
  5
15E2F
330
15B9B
100
AcDbEntity
  8
YODOROGO
100
AcDbLine
 10
15398.80217064596
 20
909.8747482146439
 30
0.0
 11
15412.80217064596
 21
909.8747482146439
 31
0.0
  0
LINE
  5
15E30
330
15B9B
100
AcDbEntity
  8
YODOROGO
100
AcDbLine
 10
15385.80217064596
 20
969.8747482146441
 30
0.0
 11
15398.80217064596
 21
909.8747482146439
 31
0.0
  0
LINE
  5
15E31
330
15B9B
100
AcDbEntity
  8
YODOROGO
100
AcDbLine
 10
15361.80217064596
 20
969.8747482146441
 30
0.0
 11
15385.80217064596
 21
969.8747482146441
 31
0.0
  0
LINE
  5
15E32
330
15B9B
100
AcDbEntity
  8
YODOROGO
100
AcDbLine
 10
15374.80217064596
 20
909.8747482146439
 30
0.0
 11
15361.80217064596
 21
969.8747482146441
 31
0.0
  0
LINE
  5
15E33
330
15B9B
100
AcDbEntity
  8
YODOROGO
100
AcDbLine
 10
15361.80217064596
 20
909.8747482146439
 30
0.0
 11
15374.80217064596
 21
909.8747482146439
 31
0.0
  0
LINE
  5
15E34
330
15B9B
100
AcDbEntity
  8
YODOROGO
100
AcDbLine
 10
15361.80217064596
 20
877.8747482146435
 30
0.0
 11
15361.80217064596
 21
909.8747482146439
 31
0.0
  0
LINE
  5
15E35
330
15B9B
100
AcDbEntity
  8
YODOROGO
100
AcDbLine
 10
15449.80217064596
 20
877.8747482146435
 30
0.0
 11
15361.80217064596
 21
877.8747482146435
 31
0.0
  0
LINE
  5
15E36
330
15B9B
100
AcDbEntity
  8
YODOROGO
100
AcDbLine
 10
15449.80217064596
 20
909.8747482146439
 30
0.0
 11
15449.80217064596
 21
877.8747482146435
 31
0.0
  0
LINE
  5
15E37
330
15B9B
100
AcDbEntity
  8
YODOROGO
100
AcDbLine
 10
15308.80217064596
 20
973.8747482146434
 30
0.0
 11
15308.80217064596
 21
929.874748214644
 31
0.0
  0
LINE
  5
15E38
330
15B9B
100
AcDbEntity
  8
YODOROGO
100
AcDbLine
 10
15395.80217064596
 20
877.8747482146435
 30
0.0
 11
15415.80217064596
 21
877.8747482146435
 31
0.0
  0
LINE
  5
15E39
330
15B9B
100
AcDbEntity
  8
YODOROGO
100
AcDbLine
 10
15361.80217064596
 20
845.8747482146444
 30
0.0
 11
15381.80217064596
 21
845.8747482146444
 31
0.0
  0
LINE
  5
15E3A
330
15B9B
100
AcDbEntity
  8
YODOROGO
100
AcDbLine
 10
15429.80217064596
 20
845.8747482146444
 30
0.0
 11
15449.80217064596
 21
845.8747482146444
 31
0.0
  0
LINE
  5
15E3B
330
15B9B
100
AcDbEntity
  8
YODOROGO
100
AcDbLine
 10
15308.80217064596
 20
897.8747482146435
 30
0.0
 11
15308.80217064596
 21
867.8747482146436
 31
0.0
  0
LINE
  5
15E3C
330
15B9B
100
AcDbEntity
  8
YODOROGO
100
AcDbLine
 10
15582.80217064596
 20
1013.874748214644
 30
0.0
 11
15582.80217064596
 21
981.8747482146434
 31
0.0
  0
LINE
  5
15E3D
330
15B9B
100
AcDbEntity
  8
YODOROGO
100
AcDbLine
 10
15766.80217064596
 20
797.8747482146435
 30
0.0
 11
15766.80217064594
 21
905.8747482146443
 31
0.0
  0
LINE
  5
15E3E
330
15B9B
100
AcDbEntity
  8
YODOROGO
100
AcDbLine
 10
15730.80217064594
 20
993.8747482146439
 30
0.0
 11
15730.80217064594
 21
817.8747482146436
 31
0.0
  0
LINE
  5
15E3F
330
15B9B
100
AcDbEntity
  8
YODOROGO
100
AcDbLine
 10
15826.80217064596
 20
713.8747482146436
 30
0.0
 11
15826.80217064594
 21
905.8747482146443
 31
0.0
  0
LINE
  5
15E40
330
15B9B
100
AcDbEntity
  8
YODOROGO
100
AcDbLine
 10
15794.80217064596
 20
905.8747482146443
 30
0.0
 11
15794.80217064596
 21
713.8747482146436
 31
0.0
  0
LINE
  5
15E41
330
15B9B
100
AcDbEntity
  8
YODOROGO
100
AcDbLine
 10
15618.80217064596
 20
797.8747482146435
 30
0.0
 11
15618.80217064596
 21
853.874748214644
 31
0.0
  0
ARC
  5
15E42
330
15B9B
100
AcDbEntity
  8
YODOROGO
100
AcDbCircle
 10
15676.95743255803
 20
803.8951756442788
 30
0.0
 40
90.04622428799429
100
AcDbArc
 50
268.6284910216979
 51
356.1663845733032
  0
LINE
  5
15E43
330
15B9B
100
AcDbEntity
  8
YODOROGO
100
AcDbLine
 10
15674.80217064596
 20
763.8747482146435
 30
0.0
 11
15674.80217064596
 21
713.8747482146436
 31
0.0
  0
ARC
  5
15E44
330
15B9B
100
AcDbEntity
  8
YODOROGO
100
AcDbCircle
 10
15675.75903786228
 20
818.9194785088275
 30
0.0
 40
55.05304649180608
100
AcDbArc
 50
269.0041020930593
 51
358.9126445549248
  0
LINE
  5
15E45
330
15B9B
100
AcDbEntity
  8
YODOROGO
100
AcDbLine
 10
15794.80217064596
 20
713.8747482146436
 30
0.0
 11
15826.80217064596
 21
713.8747482146436
 31
0.0
  0
LINE
  5
15E46
330
15B9B
100
AcDbEntity
  8
YODOROGO
100
AcDbLine
 10
15766.80217064594
 20
905.8747482146443
 30
0.0
 11
15794.80217064596
 21
905.8747482146443
 31
0.0
  0
LINE
  5
15E47
330
15B9B
100
AcDbEntity
  8
YODOROGO
100
AcDbLine
 10
15810.80217064596
 20
993.8747482146439
 30
0.0
 11
15730.80217064594
 21
993.8747482146439
 31
0.0
  0
LINE
  5
15E48
330
15B9B
100
AcDbEntity
  8
YODOROGO
100
AcDbLine
 10
15766.80217064594
 20
957.8747482146436
 30
0.0
 11
15830.80217064596
 21
957.8747482146436
 31
0.0
  0
LINE
  5
15E49
330
15B9B
100
AcDbEntity
  8
YODOROGO
100
AcDbLine
 10
15850.80217064596
 20
937.8747482146435
 30
0.0
 11
15766.80217064594
 21
937.8747482146435
 31
0.0
  0
LINE
  5
15E4A
330
15B9B
100
AcDbEntity
  8
YODOROGO
100
AcDbLine
 10
15618.80217064596
 20
889.8747482146442
 30
0.0
 11
15674.80217064596
 21
889.8747482146442
 31
0.0
  0
LINE
  5
15E4B
330
15B9B
100
AcDbEntity
  8
YODOROGO
100
AcDbLine
 10
15618.80217064596
 20
917.8747482146436
 30
0.0
 11
15618.80217064596
 21
889.8747482146442
 31
0.0
  0
LINE
  5
15E4C
330
15B9B
100
AcDbEntity
  8
YODOROGO
100
AcDbLine
 10
15674.80217064596
 20
917.8747482146436
 30
0.0
 11
15618.80217064596
 21
917.8747482146436
 31
0.0
  0
LINE
  5
15E4D
330
15B9B
100
AcDbEntity
  8
YODOROGO
100
AcDbLine
 10
15674.80217064596
 20
889.8747482146442
 30
0.0
 11
15674.80217064596
 21
917.8747482146436
 31
0.0
  0
LINE
  5
15E4E
330
15B9B
100
AcDbEntity
  8
YODOROGO
100
AcDbLine
 10
15766.80217064594
 20
937.8747482146435
 30
0.0
 11
15766.80217064594
 21
957.8747482146436
 31
0.0
  0
LINE
  5
15E4F
330
15B9B
100
AcDbEntity
  8
YODOROGO
100
AcDbLine
 10
15706.80217064596
 20
853.874748214644
 30
0.0
 11
15706.80217064596
 21
953.874748214644
 31
0.0
  0
LINE
  5
15E50
330
15B9B
100
AcDbEntity
  8
YODOROGO
100
AcDbLine
 10
15618.80217064596
 20
853.874748214644
 30
0.0
 11
15706.80217064596
 21
853.874748214644
 31
0.0
  0
LINE
  5
15E51
330
15B9B
100
AcDbEntity
  8
YODOROGO
100
AcDbLine
 10
15706.80217064596
 20
981.8747482146434
 30
0.0
 11
15706.80217064596
 21
1013.874748214644
 31
0.0
  0
ARC
  5
15E52
330
15B9B
100
AcDbEntity
  8
YODOROGO
100
AcDbCircle
 10
15810.80217064596
 20
1001.874748214642
 30
0.0
 40
7.99999999999727
100
AcDbArc
 50
270.0
 51
0.0000000000081422
  0
LINE
  5
15E53
330
15B9B
100
AcDbEntity
  8
YODOROGO
100
AcDbLine
 10
15818.80217064596
 20
1013.874748214644
 30
0.0
 11
15818.80217064596
 21
1001.874748214643
 31
0.0
  0
LINE
  5
15E54
330
15B9B
100
AcDbEntity
  8
YODOROGO
100
AcDbLine
 10
15850.80217064596
 20
1013.874748214644
 30
0.0
 11
15818.80217064596
 21
1013.874748214644
 31
0.0
  0
LINE
  5
15E55
330
15B9B
100
AcDbEntity
  8
YODOROGO
100
AcDbLine
 10
15850.80217064596
 20
977.8747482146435
 30
0.0
 11
15850.80217064596
 21
1013.874748214644
 31
0.0
  0
ARC
  5
15E56
330
15B9B
100
AcDbEntity
  8
YODOROGO
100
AcDbCircle
 10
15830.80217064596
 20
977.8747482146435
 30
0.0
 40
20.0
100
AcDbArc
 50
270.0
 51
0.0
  0
LINE
  5
15E57
330
15B9B
100
AcDbEntity
  8
YODOROGO
100
AcDbLine
 10
15850.80217064596
 20
905.8747482146443
 30
0.0
 11
15850.80217064596
 21
937.8747482146435
 31
0.0
  0
LINE
  5
15E58
330
15B9B
100
AcDbEntity
  8
YODOROGO
100
AcDbLine
 10
15826.80217064594
 20
905.8747482146443
 30
0.0
 11
15850.80217064596
 21
905.8747482146443
 31
0.0
  0
LINE
  5
15E59
330
15B9B
100
AcDbEntity
  8
SUNPOU
100
AcDbLine
 10
6819.127507899648
 20
6803.693182432329
 30
0.0
 11
6819.127507899648
 21
6138.693182432328
 31
0.0
  0
LINE
  5
15E5A
330
15B9B
100
AcDbEntity
  8
SUNPOU
100
AcDbLine
 10
9619.127507899646
 20
6803.693182432329
 30
0.0
 11
9619.127507899646
 21
6138.693182432328
 31
0.0
  0
LINE
  5
15E5B
330
15B9B
100
AcDbEntity
  8
SUNPOU
100
AcDbLine
 10
6839.127507899648
 20
6183.693182432328
 30
0.0
 11
9599.127507899646
 21
6183.693182432328
 31
0.0
  0
LINE
  5
15E5C
330
15B9B
100
AcDbEntity
  8
SUNPOU
100
AcDbLine
 10
9596.103906328144
 20
4019.166484335345
 30
0.0
 11
10261.96981489396
 21
4019.166484335345
 31
0.0
  0
LINE
  5
15E5D
330
15B9B
100
AcDbEntity
  8
SUNPOU
100
AcDbLine
 10
9596.103906328144
 20
2739.166484335346
 30
0.0
 11
10261.96981489396
 21
2739.166484335346
 31
0.0
  0
LINE
  5
15E5E
330
15B9B
100
AcDbEntity
  8
SUNPOU
100
AcDbLine
 10
10216.96981489397
 20
3999.166484335344
 30
0.0
 11
10216.96981489397
 21
2759.166484335346
 31
0.0
  0
LINE
  5
15E5F
330
15B9B
100
AcDbEntity
  8
SUNPOU
100
AcDbLine
 10
9429.103906328144
 20
4290.544568577749
 30
0.0
 11
9414.103906328142
 21
4290.544568577749
 31
0.0
  0
LINE
  5
15E60
330
15B9B
100
AcDbEntity
  8
SUNPOU
100
AcDbLine
 10
7843.103906328146
 20
4290.544568577749
 30
0.0
 11
7858.103906328143
 21
4290.544568577749
 31
0.0
  0
LINE
  5
15E61
330
15B9B
100
AcDbEntity
  8
SUNPOU
100
AcDbLine
 10
7716.103906328147
 20
2699.166484335346
 30
0.0
 11
7716.103906328147
 21
2203.731788496596
 31
0.0
  0
LINE
  5
15E62
330
15B9B
100
AcDbEntity
  8
SUNPOU
100
AcDbLine
 10
9556.103906328145
 20
2699.166484335346
 30
0.0
 11
9556.103906328145
 21
2203.731788496596
 31
0.0
  0
LINE
  5
15E63
330
15B9B
100
AcDbEntity
  8
SUNPOU
100
AcDbLine
 10
7736.103906328144
 20
2248.731788496596
 30
0.0
 11
9536.103906328142
 21
2248.731788496596
 31
0.0
  0
LINE
  5
15E64
330
15B9B
100
AcDbEntity
  8
SUNPOU
100
AcDbLine
 10
7302.842823771877
 20
2866.166484335343
 30
0.0
 11
7302.842823771877
 21
2881.166484335343
 31
0.0
  0
LINE
  5
15E65
330
15B9B
100
AcDbEntity
  8
SUNPOU
100
AcDbLine
 10
7302.842823771877
 20
3892.166484335344
 30
0.0
 11
7302.842823771877
 21
3877.166484335345
 31
0.0
  0
LINE
  5
15E66
330
15B9B
100
AcDbEntity
  8
SUNPOU
100
AcDbLine
 10
9378.677507899649
 20
8843.69318243233
 30
0.0
 11
10114.12750789964
 21
8843.69318243233
 31
0.0
  0
LINE
  5
15E67
330
15B9B
100
AcDbEntity
  8
SUNPOU
100
AcDbLine
 10
9659.127507899647
 20
9143.693182432331
 30
0.0
 11
10114.12750789964
 21
9143.693182432331
 31
0.0
  0
LINE
  5
15E68
330
15B9B
100
AcDbEntity
  8
SUNPOU
100
AcDbLine
 10
10069.12750789964
 20
8863.693182432331
 30
0.0
 11
10069.12750789964
 21
9123.693182432331
 31
0.0
  0
LINE
  5
15E69
330
15B9B
100
AcDbEntity
  8
SUNPOU
100
AcDbLine
 10
9659.127507899647
 20
7993.69318243233
 30
0.0
 11
10114.12750789964
 21
7993.69318243233
 31
0.0
  0
LINE
  5
15E6A
330
15B9B
100
AcDbEntity
  8
SUNPOU
100
AcDbLine
 10
9378.677507899649
 20
8843.69318243233
 30
0.0
 11
10114.12750789964
 21
8843.69318243233
 31
0.0
  0
LINE
  5
15E6B
330
15B9B
100
AcDbEntity
  8
SUNPOU
100
AcDbLine
 10
10069.12750789964
 20
8013.693182432332
 30
0.0
 11
10069.12750789964
 21
8823.693182432331
 31
0.0
  0
LINE
  5
15E6C
330
15B9B
100
AcDbEntity
  8
SUNPOU
100
AcDbLine
 10
9659.127507899647
 20
9143.693182432331
 30
0.0
 11
10324.12750789964
 21
9143.693182432331
 31
0.0
  0
LINE
  5
15E6D
330
15B9B
100
AcDbEntity
  8
SUNPOU
100
AcDbLine
 10
9659.127507899647
 20
7993.69318243233
 30
0.0
 11
10324.12750789964
 21
7993.69318243233
 31
0.0
  0
LINE
  5
15E6E
330
15B9B
100
AcDbEntity
  8
SUNPOU
100
AcDbLine
 10
10279.12750789964
 20
9123.693182432331
 30
0.0
 11
10279.12750789964
 21
8013.69318243233
 31
0.0
  0
LINE
  5
15E6F
330
15B9B
100
AcDbEntity
  8
SUNPOU
100
AcDbLine
 10
8819.127507899649
 20
9183.693182432332
 30
0.0
 11
8819.127507899649
 21
9488.693182432331
 31
0.0
  0
LINE
  5
15E70
330
15B9B
100
AcDbEntity
  8
SUNPOU
100
AcDbLine
 10
9619.127507899646
 20
9183.693182432332
 30
0.0
 11
9619.127507899646
 21
9488.693182432331
 31
0.0
  0
LINE
  5
15E71
330
15B9B
100
AcDbEntity
  8
SUNPOU
100
AcDbLine
 10
8839.127507899648
 20
9443.693182432332
 30
0.0
 11
9599.127507899646
 21
9443.693182432332
 31
0.0
  0
LINE
  5
15E72
330
15B9B
100
AcDbEntity
  8
SUNPOU
100
AcDbLine
 10
7059.577507899648
 20
8843.69318243233
 30
0.0
 11
6324.127507899649
 21
8843.69318243233
 31
0.0
  0
LINE
  5
15E73
330
15B9B
100
AcDbEntity
  8
SUNPOU
100
AcDbLine
 10
6779.127507899649
 20
9083.693182432327
 30
0.0
 11
6324.127507899649
 21
9083.693182432327
 31
0.0
  0
LINE
  5
15E74
330
15B9B
100
AcDbEntity
  8
SUNPOU
100
AcDbLine
 10
6369.127507899649
 20
8823.693182432331
 30
0.0
 11
6369.127507899649
 21
8803.693182432331
 31
0.0
  0
LINE
  5
15E75
330
15B9B
100
AcDbEntity
  8
SUNPOU
100
AcDbLine
 10
6369.127507899649
 20
9103.693182432328
 30
0.0
 11
6369.127507899649
 21
9123.693182432328
 31
0.0
  0
LINE
  5
15E76
330
15B9B
100
AcDbEntity
  8
SUNPOU
100
AcDbLine
 10
6369.127507899649
 20
8843.69318243233
 30
0.0
 11
6369.127507899649
 21
9083.693182432327
 31
0.0
  0
LINE
  5
15E77
330
15B9B
100
AcDbEntity
  8
SUNPOU
100
AcDbLine
 10
6779.127507899649
 20
6843.693182432328
 30
0.0
 11
6324.127507899649
 21
6843.693182432328
 31
0.0
  0
LINE
  5
15E78
330
15B9B
100
AcDbEntity
  8
SUNPOU
100
AcDbLine
 10
7059.577507899648
 20
8843.69318243233
 30
0.0
 11
6324.127507899649
 21
8843.69318243233
 31
0.0
  0
LINE
  5
15E79
330
15B9B
100
AcDbEntity
  8
SUNPOU
100
AcDbLine
 10
6369.127507899649
 20
6863.693182432328
 30
0.0
 11
6369.127507899649
 21
8823.693182432331
 31
0.0
  0
LINE
  5
15E7A
330
15B9B
100
AcDbEntity
  8
SUNPOU
100
AcDbLine
 10
9219.127507899647
 20
7886.693182432328
 30
0.0
 11
9219.127507899647
 21
6348.693182432328
 31
0.0
  0
LINE
  5
15E7B
330
15B9B
100
AcDbEntity
  8
SUNPOU
100
AcDbLine
 10
9619.127507899646
 20
6803.693182432329
 30
0.0
 11
9619.127507899646
 21
6348.693182432328
 31
0.0
  0
LINE
  5
15E7C
330
15B9B
100
AcDbEntity
  8
SUNPOU
100
AcDbLine
 10
9239.127507899649
 20
6393.693182432328
 30
0.0
 11
9599.127507899646
 21
6393.693182432328
 31
0.0
  0
LINE
  5
15E7D
330
15B9B
100
AcDbEntity
  8
SUNPOU
100
AcDbLine
 10
7219.127507899648
 20
7886.693182432328
 30
0.0
 11
7219.127507899648
 21
6348.693182432328
 31
0.0
  0
LINE
  5
15E7E
330
15B9B
100
AcDbEntity
  8
SUNPOU
100
AcDbLine
 10
9219.127507899647
 20
7886.693182432328
 30
0.0
 11
9219.127507899647
 21
6348.693182432328
 31
0.0
  0
LINE
  5
15E7F
330
15B9B
100
AcDbEntity
  8
SUNPOU
100
AcDbLine
 10
7239.127507899649
 20
6393.693182432328
 30
0.0
 11
9199.127507899648
 21
6393.693182432328
 31
0.0
  0
LINE
  5
15E80
330
15B9B
100
AcDbEntity
  8
SUNPOU
100
AcDbLine
 10
6819.127507899648
 20
6803.693182432329
 30
0.0
 11
6819.127507899648
 21
6348.693182432328
 31
0.0
  0
LINE
  5
15E81
330
15B9B
100
AcDbEntity
  8
SUNPOU
100
AcDbLine
 10
7219.127507899648
 20
7886.693182432328
 30
0.0
 11
7219.127507899648
 21
6348.693182432328
 31
0.0
  0
LINE
  5
15E82
330
15B9B
100
AcDbEntity
  8
SUNPOU
100
AcDbLine
 10
6839.127507899648
 20
6393.693182432328
 30
0.0
 11
7199.12750789965
 21
6393.693182432328
 31
0.0
  0
LINE
  5
15E83
330
15B9B
100
AcDbEntity
  8
SUNPOU
100
AcDbLine
 10
5004.005086586602
 20
2498.731788496597
 30
0.0
 11
5004.005086586602
 21
2503.731788496597
 31
0.0
  0
LINE
  5
15E84
330
15B9B
100
AcDbEntity
  8
SUNPOU
100
AcDbLine
 10
5484.005086586606
 20
2797.718703522841
 30
0.0
 11
5484.005086586606
 21
2413.731788496597
 31
0.0
  0
LINE
  5
15E85
330
15B9B
100
AcDbEntity
  8
SUNPOU
100
AcDbLine
 10
5024.005086586602
 20
2458.731788496597
 30
0.0
 11
5464.005086586605
 21
2458.731788496597
 31
0.0
  0
LINE
  5
15E86
330
15B9B
100
AcDbEntity
  8
SUNPOU
100
AcDbLine
 10
3644.005086586604
 20
2797.718703522839
 30
0.0
 11
3644.005086586604
 21
2413.731788496597
 31
0.0
  0
LINE
  5
15E87
330
15B9B
100
AcDbEntity
  8
SUNPOU
100
AcDbLine
 10
5004.005086586602
 20
2498.731788496597
 30
0.0
 11
5004.005086586602
 21
2503.731788496597
 31
0.0
  0
LINE
  5
15E88
330
15B9B
100
AcDbEntity
  8
SUNPOU
100
AcDbLine
 10
3664.005086586604
 20
2458.731788496597
 30
0.0
 11
4984.005086586602
 21
2458.731788496597
 31
0.0
  0
LINE
  5
15E89
330
15B9B
100
AcDbEntity
  8
SUNPOU
100
AcDbLine
 10
3644.005086586604
 20
2797.718703522839
 30
0.0
 11
3644.005086586604
 21
2203.731788496596
 31
0.0
  0
LINE
  5
15E8A
330
15B9B
100
AcDbEntity
  8
SUNPOU
100
AcDbLine
 10
5484.005086586606
 20
2797.718703522841
 30
0.0
 11
5484.005086586606
 21
2203.731788496596
 31
0.0
  0
LINE
  5
15E8B
330
15B9B
100
AcDbEntity
  8
SUNPOU
100
AcDbLine
 10
3664.005086586604
 20
2248.731788496596
 30
0.0
 11
5464.005086586605
 21
2248.731788496596
 31
0.0
  0
LINE
  5
15E8C
330
15B9B
100
AcDbEntity
  8
SUNPOU
100
AcDbLine
 10
5524.005086586601
 20
3957.718703522846
 30
0.0
 11
6170.583068426932
 21
3957.718703522846
 31
0.0
  0
LINE
  5
15E8D
330
15B9B
100
AcDbEntity
  8
SUNPOU
100
AcDbLine
 10
5115.285086586599
 20
3157.718703522843
 30
0.0
 11
6170.583068426932
 21
3157.718703522843
 31
0.0
  0
LINE
  5
15E8E
330
15B9B
100
AcDbEntity
  8
SUNPOU
100
AcDbLine
 10
6125.583068426931
 20
3937.718703522845
 30
0.0
 11
6125.583068426931
 21
3177.718703522842
 31
0.0
  0
LINE
  5
15E8F
330
15B9B
100
AcDbEntity
  8
SUNPOU
100
AcDbLine
 10
5684.005086586605
 20
2997.718703522841
 30
0.0
 11
6380.583068426933
 21
2997.718703522841
 31
0.0
  0
LINE
  5
15E90
330
15B9B
100
AcDbEntity
  8
SUNPOU
100
AcDbLine
 10
5684.005086586605
 20
2837.718703522841
 30
0.0
 11
6380.583068426933
 21
2837.718703522841
 31
0.0
  0
LINE
  5
15E91
330
15B9B
100
AcDbEntity
  8
SUNPOU
100
AcDbLine
 10
6335.583068426931
 20
2977.718703522841
 30
0.0
 11
6335.583068426931
 21
2857.718703522841
 31
0.0
  0
LINE
  5
15E92
330
15B9B
100
AcDbEntity
  8
SUNPOU
100
AcDbLine
 10
6335.583068426931
 20
2837.718703522841
 30
0.0
 11
6335.583068426931
 21
2582.004417808555
 31
0.0
  0
LINE
  5
15E93
330
15B9B
100
AcDbEntity
  8
SUNPOU
100
AcDbLine
 10
5524.005086586601
 20
3957.718703522846
 30
0.0
 11
6380.583068426933
 21
3957.718703522846
 31
0.0
  0
LINE
  5
15E94
330
15B9B
100
AcDbEntity
  8
SUNPOU
100
AcDbLine
 10
5684.005086586605
 20
2997.718703522844
 30
0.0
 11
6380.583068426933
 21
2997.718703522844
 31
0.0
  0
LINE
  5
15E95
330
15B9B
100
AcDbEntity
  8
SUNPOU
100
AcDbLine
 10
6335.583068426931
 20
3937.718703522845
 30
0.0
 11
6335.583068426931
 21
3017.718703522845
 31
0.0
  0
TEXT
  5
15E96
330
15B9B
100
AcDbEntity
  8
SUNPOU
100
AcDbText
 10
8104.841793613934
 20
6228.693182432328
 30
0.0
 40
90.0
  1
2800
 41
0.6666666666666666
  7
00
100
AcDbText
  0
LINE
  5
15E97
330
15B9B
100
AcDbEntity
  8
SUNPOU
100
AcDbLine
 10
9604.127507899647
 20
6183.693182432328
 30
0.0
 11
9589.127507899645
 21
6183.693182432328
 31
0.0
  0
LINE
  5
15E98
330
15B9B
100
AcDbEntity
  8
SUNPOU
100
AcDbLine
 10
6834.127507899649
 20
6183.693182432328
 30
0.0
 11
6849.127507899649
 21
6183.693182432328
 31
0.0
  0
TEXT
  5
15E99
330
15B9B
100
AcDbEntity
  8
SUNPOU
100
AcDbText
 10
10171.96981489397
 20
3293.45219862106
 30
0.0
 40
90.0
  1
800
 50
90.0
 41
0.6666666666666666
  7
00
100
AcDbText
  0
LINE
  5
15E9A
330
15B9B
100
AcDbEntity
  8
SUNPOU
100
AcDbLine
 10
10216.96981489397
 20
2754.166484335346
 30
0.0
 11
10216.96981489397
 21
2769.166484335346
 31
0.0
  0
LINE
  5
15E9B
330
15B9B
100
AcDbEntity
  8
SUNPOU
100
AcDbLine
 10
10216.96981489397
 20
4004.166484335344
 30
0.0
 11
10216.96981489397
 21
3989.166484335344
 31
0.0
  0
ARC
  5
15E9C
330
15B9B
100
AcDbEntity
  8
SUNPOU
100
AcDbCircle
 10
9444.103906328143
 20
4290.544568577749
 30
0.0
 40
7.5
100
AcDbArc
 50
180.0
 51
0.0
  0
ARC
  5
15E9D
330
15B9B
100
AcDbEntity
  8
SUNPOU
100
AcDbCircle
 10
9444.103906328143
 20
4290.544568577749
 30
0.0
 40
7.5
100
AcDbArc
 50
0.0
 51
180.0
  0
ARC
  5
15E9E
330
15B9B
100
AcDbEntity
  8
SUNPOU
100
AcDbCircle
 10
7828.103906328144
 20
4290.544568577749
 30
0.0
 40
7.5
100
AcDbArc
 50
0.0
 51
180.0
  0
ARC
  5
15E9F
330
15B9B
100
AcDbEntity
  8
SUNPOU
100
AcDbCircle
 10
7828.103906328144
 20
4290.544568577749
 30
0.0
 40
7.5
100
AcDbArc
 50
180.0
 51
0.0
  0
TEXT
  5
15EA0
330
15B9B
100
AcDbEntity
  8
SUNPOU
100
AcDbText
 10
8517.532477756718
 20
2293.731788496597
 30
0.0
 40
90.0
  1
1150
 41
0.6666666666666666
  7
00
100
AcDbText
  0
LINE
  5
15EA1
330
15B9B
100
AcDbEntity
  8
SUNPOU
100
AcDbLine
 10
9541.103906328144
 20
2248.731788496596
 30
0.0
 11
9526.103906328144
 21
2248.731788496596
 31
0.0
  0
LINE
  5
15EA2
330
15B9B
100
AcDbEntity
  8
SUNPOU
100
AcDbLine
 10
7731.103906328144
 20
2248.731788496596
 30
0.0
 11
7746.103906328144
 21
2248.731788496596
 31
0.0
  0
ARC
  5
15EA3
330
15B9B
100
AcDbEntity
  8
SUNPOU
100
AcDbCircle
 10
7302.842823771877
 20
2851.166484335342
 30
0.0
 40
7.5
100
AcDbArc
 50
90.0
 51
270.0
  0
ARC
  5
15EA4
330
15B9B
100
AcDbEntity
  8
SUNPOU
100
AcDbCircle
 10
7302.842823771877
 20
2851.166484335342
 30
0.0
 40
7.5
100
AcDbArc
 50
270.0
 51
90.0
  0
ARC
  5
15EA5
330
15B9B
100
AcDbEntity
  8
SUNPOU
100
AcDbCircle
 10
7302.842823771877
 20
3907.166484335344
 30
0.0
 40
7.5
100
AcDbArc
 50
270.0
 51
90.0
  0
ARC
  5
15EA6
330
15B9B
100
AcDbEntity
  8
SUNPOU
100
AcDbCircle
 10
7302.842823771877
 20
3907.166484335344
 30
0.0
 40
7.5
100
AcDbArc
 50
90.0
 51
270.0
  0
TEXT
  5
15EA7
330
15B9B
100
AcDbEntity
  8
SUNPOU
100
AcDbText
 10
10024.12750789964
 20
8907.978896718045
 30
0.0
 40
90.0
  1
300
 50
90.0
 41
0.6666666666666666
  7
00
100
AcDbText
  0
LINE
  5
15EA8
330
15B9B
100
AcDbEntity
  8
SUNPOU
100
AcDbLine
 10
10069.12750789964
 20
9128.693182432332
 30
0.0
 11
10069.12750789964
 21
9113.693182432331
 31
0.0
  0
LINE
  5
15EA9
330
15B9B
100
AcDbEntity
  8
SUNPOU
100
AcDbLine
 10
10069.12750789964
 20
8858.693182432331
 30
0.0
 11
10069.12750789964
 21
8873.693182432331
 31
0.0
  0
TEXT
  5
15EAA
330
15B9B
100
AcDbEntity
  8
SUNPOU
100
AcDbText
 10
10024.12750789964
 20
8332.978896718044
 30
0.0
 40
90.0
  1
850
 50
90.0
 41
0.6666666666666666
  7
00
100
AcDbText
  0
LINE
  5
15EAB
330
15B9B
100
AcDbEntity
  8
SUNPOU
100
AcDbLine
 10
10069.12750789964
 20
8828.693182432331
 30
0.0
 11
10069.12750789964
 21
8813.693182432331
 31
0.0
  0
LINE
  5
15EAC
330
15B9B
100
AcDbEntity
  8
SUNPOU
100
AcDbLine
 10
10069.12750789964
 20
8008.693182432331
 30
0.0
 11
10069.12750789964
 21
8023.69318243233
 31
0.0
  0
TEXT
  5
15EAD
330
15B9B
100
AcDbEntity
  8
SUNPOU
100
AcDbText
 10
10234.12750789964
 20
8450.121753860905
 30
0.0
 40
90.0
  1
1150
 50
90.0
 41
0.6666666666666666
  7
00
100
AcDbText
  0
LINE
  5
15EAE
330
15B9B
100
AcDbEntity
  8
SUNPOU
100
AcDbLine
 10
10279.12750789964
 20
8008.693182432329
 30
0.0
 11
10279.12750789964
 21
8023.69318243233
 31
0.0
  0
LINE
  5
15EAF
330
15B9B
100
AcDbEntity
  8
SUNPOU
100
AcDbLine
 10
10279.12750789964
 20
9128.693182432332
 30
0.0
 11
10279.12750789964
 21
9113.693182432331
 31
0.0
  0
TEXT
  5
15EB0
330
15B9B
100
AcDbEntity
  8
SUNPOU
100
AcDbText
 10
9133.413222185359
 20
9488.693182432331
 30
0.0
 40
90.0
  1
800
 41
0.6666666666666666
  7
00
100
AcDbText
  0
LINE
  5
15EB1
330
15B9B
100
AcDbEntity
  8
SUNPOU
100
AcDbLine
 10
9604.127507899647
 20
9443.693182432332
 30
0.0
 11
9589.127507899645
 21
9443.693182432332
 31
0.0
  0
LINE
  5
15EB2
330
15B9B
100
AcDbEntity
  8
SUNPOU
100
AcDbLine
 10
8834.127507899648
 20
9443.693182432332
 30
0.0
 11
8849.127507899648
 21
9443.693182432332
 31
0.0
  0
TEXT
  5
15EB3
330
15B9B
100
AcDbEntity
  8
SUNPOU
100
AcDbText
 10
6324.127507899647
 20
8877.978896718046
 30
0.0
 40
90.0
  1
240
 50
90.0
 41
0.6666666666666666
  7
00
100
AcDbText
  0
LINE
  5
15EB4
330
15B9B
100
AcDbEntity
  8
SUNPOU
100
AcDbLine
 10
6369.127507899649
 20
9098.693182432327
 30
0.0
 11
6369.127507899649
 21
9113.693182432324
 31
0.0
  0
LINE
  5
15EB5
330
15B9B
100
AcDbEntity
  8
SUNPOU
100
AcDbLine
 10
6369.127507899649
 20
8828.693182432331
 30
0.0
 11
6369.127507899649
 21
8813.693182432331
 31
0.0
  0
TEXT
  5
15EB6
330
15B9B
100
AcDbEntity
  8
SUNPOU
100
AcDbText
 10
6324.127507899647
 20
7729.407468146617
 30
0.0
 40
90.0
  1
2000
 50
90.0
 41
0.6666666666666666
  7
00
100
AcDbText
  0
LINE
  5
15EB7
330
15B9B
100
AcDbEntity
  8
SUNPOU
100
AcDbLine
 10
6369.127507899649
 20
8828.693182432331
 30
0.0
 11
6369.127507899649
 21
8813.693182432331
 31
0.0
  0
LINE
  5
15EB8
330
15B9B
100
AcDbEntity
  8
SUNPOU
100
AcDbLine
 10
6369.127507899649
 20
6858.693182432329
 30
0.0
 11
6369.127507899649
 21
6873.693182432328
 31
0.0
  0
TEXT
  5
15EB9
330
15B9B
100
AcDbEntity
  8
SUNPOU
100
AcDbText
 10
9333.41322218536
 20
6438.693182432328
 30
0.0
 40
90.0
  1
400
 41
0.6666666666666666
  7
00
100
AcDbText
  0
LINE
  5
15EBA
330
15B9B
100
AcDbEntity
  8
SUNPOU
100
AcDbLine
 10
9604.127507899647
 20
6393.693182432328
 30
0.0
 11
9589.127507899645
 21
6393.693182432328
 31
0.0
  0
LINE
  5
15EBB
330
15B9B
100
AcDbEntity
  8
SUNPOU
100
AcDbLine
 10
9234.127507899648
 20
6393.693182432328
 30
0.0
 11
9249.127507899649
 21
6393.693182432328
 31
0.0
  0
TEXT
  5
15EBC
330
15B9B
100
AcDbEntity
  8
SUNPOU
100
AcDbText
 10
8104.841793613934
 20
6438.693182432328
 30
0.0
 40
90.0
  1
2000
 41
0.6666666666666666
  7
00
100
AcDbText
  0
LINE
  5
15EBD
330
15B9B
100
AcDbEntity
  8
SUNPOU
100
AcDbLine
 10
9204.127507899647
 20
6393.693182432328
 30
0.0
 11
9189.127507899648
 21
6393.693182432328
 31
0.0
  0
LINE
  5
15EBE
330
15B9B
100
AcDbEntity
  8
SUNPOU
100
AcDbLine
 10
7234.127507899649
 20
6393.693182432328
 30
0.0
 11
7249.127507899649
 21
6393.693182432328
 31
0.0
  0
TEXT
  5
15EBF
330
15B9B
100
AcDbEntity
  8
SUNPOU
100
AcDbText
 10
6933.413222185362
 20
6438.693182432328
 30
0.0
 40
90.0
  1
400
 41
0.6666666666666666
  7
00
100
AcDbText
  0
LINE
  5
15EC0
330
15B9B
100
AcDbEntity
  8
SUNPOU
100
AcDbLine
 10
7204.127507899649
 20
6393.693182432328
 30
0.0
 11
7189.127507899648
 21
6393.693182432328
 31
0.0
  0
LINE
  5
15EC1
330
15B9B
100
AcDbEntity
  8
SUNPOU
100
AcDbLine
 10
6834.127507899649
 20
6393.693182432328
 30
0.0
 11
6849.127507899649
 21
6393.693182432328
 31
0.0
  0
TEXT
  5
15EC2
330
15B9B
100
AcDbEntity
  8
SUNPOU
100
AcDbText
 10
5158.290800872318
 20
2503.731788496597
 30
0.0
 40
90.0
  1
300
 41
0.6666666666666666
  7
00
100
AcDbText
  0
LINE
  5
15EC3
330
15B9B
100
AcDbEntity
  8
SUNPOU
100
AcDbLine
 10
5469.005086586605
 20
2458.731788496597
 30
0.0
 11
5454.005086586604
 21
2458.731788496597
 31
0.0
  0
LINE
  5
15EC4
330
15B9B
100
AcDbEntity
  8
SUNPOU
100
AcDbLine
 10
5019.005086586602
 20
2458.731788496597
 30
0.0
 11
5034.005086586603
 21
2458.731788496597
 31
0.0
  0
TEXT
  5
15EC5
330
15B9B
100
AcDbEntity
  8
SUNPOU
100
AcDbText
 10
4238.290800872317
 20
2503.731788496597
 30
0.0
 40
90.0
  1
850
 41
0.6666666666666666
  7
00
100
AcDbText
  0
LINE
  5
15EC6
330
15B9B
100
AcDbEntity
  8
SUNPOU
100
AcDbLine
 10
4989.005086586605
 20
2458.731788496597
 30
0.0
 11
4974.005086586602
 21
2458.731788496597
 31
0.0
  0
LINE
  5
15EC7
330
15B9B
100
AcDbEntity
  8
SUNPOU
100
AcDbLine
 10
3659.005086586604
 20
2458.731788496597
 30
0.0
 11
3674.005086586605
 21
2458.731788496597
 31
0.0
  0
TEXT
  5
15EC8
330
15B9B
100
AcDbEntity
  8
SUNPOU
100
AcDbText
 10
4445.433658015176
 20
2293.731788496597
 30
0.0
 40
90.0
  1
1150
 41
0.6666666666666666
  7
00
100
AcDbText
  0
LINE
  5
15EC9
330
15B9B
100
AcDbEntity
  8
SUNPOU
100
AcDbLine
 10
5469.005086586605
 20
2248.731788496596
 30
0.0
 11
5454.005086586604
 21
2248.731788496596
 31
0.0
  0
LINE
  5
15ECA
330
15B9B
100
AcDbEntity
  8
SUNPOU
100
AcDbLine
 10
3659.005086586604
 20
2248.731788496596
 30
0.0
 11
3674.005086586605
 21
2248.731788496596
 31
0.0
  0
TEXT
  5
15ECB
330
15B9B
100
AcDbEntity
  8
SUNPOU
100
AcDbText
 10
6080.58306842693
 20
3472.004417808559
 30
0.0
 40
90.0
  1
500
 50
90.0
 41
0.6666666666666666
  7
00
100
AcDbText
  0
LINE
  5
15ECC
330
15B9B
100
AcDbEntity
  8
SUNPOU
100
AcDbLine
 10
6125.583068426931
 20
3172.718703522841
 30
0.0
 11
6125.583068426931
 21
3187.718703522842
 31
0.0
  0
LINE
  5
15ECD
330
15B9B
100
AcDbEntity
  8
SUNPOU
100
AcDbLine
 10
6125.583068426931
 20
3942.718703522847
 30
0.0
 11
6125.583068426931
 21
3927.718703522845
 31
0.0
  0
TEXT
  5
15ECE
330
15B9B
100
AcDbEntity
  8
SUNPOU
100
AcDbText
 10
6290.58306842693
 20
2609.861560665699
 30
0.0
 40
90.0
  1
100
 50
90.0
 41
0.6666666666666666
  7
00
100
AcDbText
  0
LINE
  5
15ECF
330
15B9B
100
AcDbEntity
  8
SUNPOU
100
AcDbLine
 10
6335.583068426931
 20
2852.718703522841
 30
0.0
 11
6335.583068426931
 21
2867.718703522841
 31
0.0
  0
LINE
  5
15ED0
330
15B9B
100
AcDbEntity
  8
SUNPOU
100
AcDbLine
 10
6335.583068426931
 20
2982.718703522841
 30
0.0
 11
6335.583068426931
 21
2967.718703522841
 31
0.0
  0
TEXT
  5
15ED1
330
15B9B
100
AcDbEntity
  8
SUNPOU
100
AcDbText
 10
6290.58306842693
 20
3390.575846379987
 30
0.0
 40
90.0
  1
600
 50
90.0
 41
0.6666666666666666
  7
00
100
AcDbText
  0
LINE
  5
15ED2
330
15B9B
100
AcDbEntity
  8
SUNPOU
100
AcDbLine
 10
6335.583068426931
 20
3012.718703522844
 30
0.0
 11
6335.583068426931
 21
3027.718703522845
 31
0.0
  0
LINE
  5
15ED3
330
15B9B
100
AcDbEntity
  8
SUNPOU
100
AcDbLine
 10
6335.583068426931
 20
3942.718703522847
 30
0.0
 11
6335.583068426931
 21
3927.718703522845
 31
0.0
  0
ARC
  5
15ED4
330
15B9B
100
AcDbEntity
  8
SUNPOU
100
AcDbCircle
 10
9619.127507899646
 20
6183.693182432328
 30
0.0
 40
7.5
100
AcDbArc
 50
180.0
 51
0.0
  0
ARC
  5
15ED5
330
15B9B
100
AcDbEntity
  8
SUNPOU
100
AcDbCircle
 10
9619.127507899646
 20
6183.693182432328
 30
0.0
 40
7.5
100
AcDbArc
 50
0.0
 51
180.0
  0
ARC
  5
15ED6
330
15B9B
100
AcDbEntity
  8
SUNPOU
100
AcDbCircle
 10
6819.127507899648
 20
6183.693182432328
 30
0.0
 40
7.5
100
AcDbArc
 50
0.0
 51
180.0
  0
ARC
  5
15ED7
330
15B9B
100
AcDbEntity
  8
SUNPOU
100
AcDbCircle
 10
6819.127507899648
 20
6183.693182432328
 30
0.0
 40
7.5
100
AcDbArc
 50
180.0
 51
0.0
  0
ARC
  5
15ED8
330
15B9B
100
AcDbEntity
  8
SUNPOU
100
AcDbCircle
 10
10216.96981489397
 20
2739.166484335346
 30
0.0
 40
7.5
100
AcDbArc
 50
90.0
 51
270.0
  0
ARC
  5
15ED9
330
15B9B
100
AcDbEntity
  8
SUNPOU
100
AcDbCircle
 10
10216.96981489397
 20
2739.166484335346
 30
0.0
 40
7.5
100
AcDbArc
 50
270.0
 51
90.0
  0
ARC
  5
15EDA
330
15B9B
100
AcDbEntity
  8
SUNPOU
100
AcDbCircle
 10
10216.96981489397
 20
4019.166484335345
 30
0.0
 40
7.5
100
AcDbArc
 50
270.0
 51
90.0
  0
ARC
  5
15EDB
330
15B9B
100
AcDbEntity
  8
SUNPOU
100
AcDbCircle
 10
10216.96981489397
 20
4019.166484335345
 30
0.0
 40
7.5
100
AcDbArc
 50
90.0
 51
270.0
  0
ARC
  5
15EDC
330
15B9B
100
AcDbEntity
  8
SUNPOU
100
AcDbCircle
 10
9556.103906328145
 20
2248.731788496596
 30
0.0
 40
7.5
100
AcDbArc
 50
180.0
 51
0.0
  0
ARC
  5
15EDD
330
15B9B
100
AcDbEntity
  8
SUNPOU
100
AcDbCircle
 10
9556.103906328145
 20
2248.731788496596
 30
0.0
 40
7.5
100
AcDbArc
 50
0.0
 51
180.0
  0
ARC
  5
15EDE
330
15B9B
100
AcDbEntity
  8
SUNPOU
100
AcDbCircle
 10
7716.103906328147
 20
2248.731788496596
 30
0.0
 40
7.5
100
AcDbArc
 50
0.0
 51
180.0
  0
ARC
  5
15EDF
330
15B9B
100
AcDbEntity
  8
SUNPOU
100
AcDbCircle
 10
7716.103906328147
 20
2248.731788496596
 30
0.0
 40
7.5
100
AcDbArc
 50
180.0
 51
0.0
  0
ARC
  5
15EE0
330
15B9B
100
AcDbEntity
  8
SUNPOU
100
AcDbCircle
 10
10069.12750789964
 20
9143.693182432331
 30
0.0
 40
7.5
100
AcDbArc
 50
270.0
 51
90.0
  0
ARC
  5
15EE1
330
15B9B
100
AcDbEntity
  8
SUNPOU
100
AcDbCircle
 10
10069.12750789964
 20
9143.693182432331
 30
0.0
 40
7.5
100
AcDbArc
 50
90.0
 51
270.0
  0
ARC
  5
15EE2
330
15B9B
100
AcDbEntity
  8
SUNPOU
100
AcDbCircle
 10
10069.12750789964
 20
8843.69318243233
 30
0.0
 40
7.5
100
AcDbArc
 50
90.0
 51
270.0
  0
ARC
  5
15EE3
330
15B9B
100
AcDbEntity
  8
SUNPOU
100
AcDbCircle
 10
10069.12750789964
 20
8843.69318243233
 30
0.0
 40
7.5
100
AcDbArc
 50
270.0
 51
90.0
  0
ARC
  5
15EE4
330
15B9B
100
AcDbEntity
  8
SUNPOU
100
AcDbCircle
 10
10069.12750789964
 20
8843.69318243233
 30
0.0
 40
7.5
100
AcDbArc
 50
270.0
 51
90.0
  0
ARC
  5
15EE5
330
15B9B
100
AcDbEntity
  8
SUNPOU
100
AcDbCircle
 10
10069.12750789964
 20
8843.69318243233
 30
0.0
 40
7.5
100
AcDbArc
 50
90.0
 51
270.0
  0
ARC
  5
15EE6
330
15B9B
100
AcDbEntity
  8
SUNPOU
100
AcDbCircle
 10
10069.12750789964
 20
7993.69318243233
 30
0.0
 40
7.5
100
AcDbArc
 50
90.0
 51
270.0
  0
ARC
  5
15EE7
330
15B9B
100
AcDbEntity
  8
SUNPOU
100
AcDbCircle
 10
10069.12750789964
 20
7993.69318243233
 30
0.0
 40
7.5
100
AcDbArc
 50
270.0
 51
90.0
  0
ARC
  5
15EE8
330
15B9B
100
AcDbEntity
  8
SUNPOU
100
AcDbCircle
 10
10279.12750789964
 20
7993.69318243233
 30
0.0
 40
7.5
100
AcDbArc
 50
90.0
 51
270.0
  0
ARC
  5
15EE9
330
15B9B
100
AcDbEntity
  8
SUNPOU
100
AcDbCircle
 10
10279.12750789964
 20
7993.69318243233
 30
0.0
 40
7.5
100
AcDbArc
 50
270.0
 51
90.0
  0
ARC
  5
15EEA
330
15B9B
100
AcDbEntity
  8
SUNPOU
100
AcDbCircle
 10
10279.12750789964
 20
9143.693182432331
 30
0.0
 40
7.5
100
AcDbArc
 50
270.0
 51
90.0
  0
ARC
  5
15EEB
330
15B9B
100
AcDbEntity
  8
SUNPOU
100
AcDbCircle
 10
10279.12750789964
 20
9143.693182432331
 30
0.0
 40
7.5
100
AcDbArc
 50
90.0
 51
270.0
  0
ARC
  5
15EEC
330
15B9B
100
AcDbEntity
  8
SUNPOU
100
AcDbCircle
 10
9619.127507899646
 20
9443.693182432332
 30
0.0
 40
7.5
100
AcDbArc
 50
180.0
 51
0.0
  0
ARC
  5
15EED
330
15B9B
100
AcDbEntity
  8
SUNPOU
100
AcDbCircle
 10
9619.127507899646
 20
9443.693182432332
 30
0.0
 40
7.5
100
AcDbArc
 50
0.0
 51
180.0
  0
ARC
  5
15EEE
330
15B9B
100
AcDbEntity
  8
SUNPOU
100
AcDbCircle
 10
8819.127507899649
 20
9443.693182432332
 30
0.0
 40
7.5
100
AcDbArc
 50
0.0
 51
180.0
  0
ARC
  5
15EEF
330
15B9B
100
AcDbEntity
  8
SUNPOU
100
AcDbCircle
 10
8819.127507899649
 20
9443.693182432332
 30
0.0
 40
7.5
100
AcDbArc
 50
180.0
 51
0.0
  0
ARC
  5
15EF0
330
15B9B
100
AcDbEntity
  8
SUNPOU
100
AcDbCircle
 10
6369.127507899649
 20
9083.693182432327
 30
0.0
 40
7.5
100
AcDbArc
 50
90.0
 51
270.0
  0
ARC
  5
15EF1
330
15B9B
100
AcDbEntity
  8
SUNPOU
100
AcDbCircle
 10
6369.127507899649
 20
9083.693182432327
 30
0.0
 40
7.5
100
AcDbArc
 50
270.0
 51
90.0
  0
ARC
  5
15EF2
330
15B9B
100
AcDbEntity
  8
SUNPOU
100
AcDbCircle
 10
6369.127507899649
 20
8843.69318243233
 30
0.0
 40
7.5
100
AcDbArc
 50
270.0
 51
90.0
  0
ARC
  5
15EF3
330
15B9B
100
AcDbEntity
  8
SUNPOU
100
AcDbCircle
 10
6369.127507899649
 20
8843.69318243233
 30
0.0
 40
7.5
100
AcDbArc
 50
90.0
 51
270.0
  0
ARC
  5
15EF4
330
15B9B
100
AcDbEntity
  8
SUNPOU
100
AcDbCircle
 10
6369.127507899649
 20
8843.69318243233
 30
0.0
 40
7.5
100
AcDbArc
 50
270.0
 51
90.0
  0
ARC
  5
15EF5
330
15B9B
100
AcDbEntity
  8
SUNPOU
100
AcDbCircle
 10
6369.127507899649
 20
8843.69318243233
 30
0.0
 40
7.5
100
AcDbArc
 50
90.0
 51
270.0
  0
ARC
  5
15EF6
330
15B9B
100
AcDbEntity
  8
SUNPOU
100
AcDbCircle
 10
6369.127507899649
 20
6843.693182432328
 30
0.0
 40
7.5
100
AcDbArc
 50
90.0
 51
270.0
  0
ARC
  5
15EF7
330
15B9B
100
AcDbEntity
  8
SUNPOU
100
AcDbCircle
 10
6369.127507899649
 20
6843.693182432328
 30
0.0
 40
7.5
100
AcDbArc
 50
270.0
 51
90.0
  0
ARC
  5
15EF8
330
15B9B
100
AcDbEntity
  8
SUNPOU
100
AcDbCircle
 10
9619.127507899646
 20
6393.693182432328
 30
0.0
 40
7.5
100
AcDbArc
 50
180.0
 51
0.0
  0
ARC
  5
15EF9
330
15B9B
100
AcDbEntity
  8
SUNPOU
100
AcDbCircle
 10
9619.127507899646
 20
6393.693182432328
 30
0.0
 40
7.5
100
AcDbArc
 50
0.0
 51
180.0
  0
ARC
  5
15EFA
330
15B9B
100
AcDbEntity
  8
SUNPOU
100
AcDbCircle
 10
9219.127507899647
 20
6393.693182432328
 30
0.0
 40
7.5
100
AcDbArc
 50
0.0
 51
180.0
  0
ARC
  5
15EFB
330
15B9B
100
AcDbEntity
  8
SUNPOU
100
AcDbCircle
 10
9219.127507899647
 20
6393.693182432328
 30
0.0
 40
7.5
100
AcDbArc
 50
180.0
 51
0.0
  0
ARC
  5
15EFC
330
15B9B
100
AcDbEntity
  8
SUNPOU
100
AcDbCircle
 10
9219.127507899647
 20
6393.693182432328
 30
0.0
 40
7.5
100
AcDbArc
 50
180.0
 51
0.0
  0
ARC
  5
15EFD
330
15B9B
100
AcDbEntity
  8
SUNPOU
100
AcDbCircle
 10
9219.127507899647
 20
6393.693182432328
 30
0.0
 40
7.5
100
AcDbArc
 50
0.0
 51
180.0
  0
ARC
  5
15EFE
330
15B9B
100
AcDbEntity
  8
SUNPOU
100
AcDbCircle
 10
7219.127507899648
 20
6393.693182432328
 30
0.0
 40
7.5
100
AcDbArc
 50
0.0
 51
180.0
  0
ARC
  5
15EFF
330
15B9B
100
AcDbEntity
  8
SUNPOU
100
AcDbCircle
 10
7219.127507899648
 20
6393.693182432328
 30
0.0
 40
7.5
100
AcDbArc
 50
180.0
 51
0.0
  0
ARC
  5
15F00
330
15B9B
100
AcDbEntity
  8
SUNPOU
100
AcDbCircle
 10
7219.127507899648
 20
6393.693182432328
 30
0.0
 40
7.5
100
AcDbArc
 50
180.0
 51
0.0
  0
ARC
  5
15F01
330
15B9B
100
AcDbEntity
  8
SUNPOU
100
AcDbCircle
 10
7219.127507899648
 20
6393.693182432328
 30
0.0
 40
7.5
100
AcDbArc
 50
0.0
 51
180.0
  0
ARC
  5
15F02
330
15B9B
100
AcDbEntity
  8
SUNPOU
100
AcDbCircle
 10
6819.127507899648
 20
6393.693182432328
 30
0.0
 40
7.5
100
AcDbArc
 50
0.0
 51
180.0
  0
ARC
  5
15F03
330
15B9B
100
AcDbEntity
  8
SUNPOU
100
AcDbCircle
 10
6819.127507899648
 20
6393.693182432328
 30
0.0
 40
7.5
100
AcDbArc
 50
180.0
 51
0.0
  0
ARC
  5
15F04
330
15B9B
100
AcDbEntity
  8
SUNPOU
100
AcDbCircle
 10
5484.005086586606
 20
2458.731788496597
 30
0.0
 40
7.5
100
AcDbArc
 50
180.0
 51
0.0
  0
ARC
  5
15F05
330
15B9B
100
AcDbEntity
  8
SUNPOU
100
AcDbCircle
 10
5484.005086586606
 20
2458.731788496597
 30
0.0
 40
7.5
100
AcDbArc
 50
0.0
 51
180.0
  0
ARC
  5
15F06
330
15B9B
100
AcDbEntity
  8
SUNPOU
100
AcDbCircle
 10
5004.005086586602
 20
2458.731788496597
 30
0.0
 40
7.5
100
AcDbArc
 50
0.0
 51
180.0
  0
ARC
  5
15F07
330
15B9B
100
AcDbEntity
  8
SUNPOU
100
AcDbCircle
 10
5004.005086586602
 20
2458.731788496597
 30
0.0
 40
7.5
100
AcDbArc
 50
180.0
 51
0.0
  0
ARC
  5
15F08
330
15B9B
100
AcDbEntity
  8
SUNPOU
100
AcDbCircle
 10
5004.005086586602
 20
2458.731788496597
 30
0.0
 40
7.5
100
AcDbArc
 50
180.0
 51
0.0
  0
ARC
  5
15F09
330
15B9B
100
AcDbEntity
  8
SUNPOU
100
AcDbCircle
 10
5004.005086586602
 20
2458.731788496597
 30
0.0
 40
7.5
100
AcDbArc
 50
0.0
 51
180.0
  0
ARC
  5
15F0A
330
15B9B
100
AcDbEntity
  8
SUNPOU
100
AcDbCircle
 10
3644.005086586604
 20
2458.731788496597
 30
0.0
 40
7.5
100
AcDbArc
 50
0.0
 51
180.0
  0
ARC
  5
15F0B
330
15B9B
100
AcDbEntity
  8
SUNPOU
100
AcDbCircle
 10
3644.005086586604
 20
2458.731788496597
 30
0.0
 40
7.5
100
AcDbArc
 50
180.0
 51
0.0
  0
ARC
  5
15F0C
330
15B9B
100
AcDbEntity
  8
SUNPOU
100
AcDbCircle
 10
5484.005086586606
 20
2248.731788496596
 30
0.0
 40
7.5
100
AcDbArc
 50
180.0
 51
0.0
  0
ARC
  5
15F0D
330
15B9B
100
AcDbEntity
  8
SUNPOU
100
AcDbCircle
 10
5484.005086586606
 20
2248.731788496596
 30
0.0
 40
7.5
100
AcDbArc
 50
0.0
 51
180.0
  0
ARC
  5
15F0E
330
15B9B
100
AcDbEntity
  8
SUNPOU
100
AcDbCircle
 10
3644.005086586604
 20
2248.731788496596
 30
0.0
 40
7.5
100
AcDbArc
 50
0.0
 51
180.0
  0
ARC
  5
15F0F
330
15B9B
100
AcDbEntity
  8
SUNPOU
100
AcDbCircle
 10
3644.005086586604
 20
2248.731788496596
 30
0.0
 40
7.5
100
AcDbArc
 50
180.0
 51
0.0
  0
ARC
  5
15F10
330
15B9B
100
AcDbEntity
  8
SUNPOU
100
AcDbCircle
 10
6125.583068426931
 20
3157.718703522843
 30
0.0
 40
7.5
100
AcDbArc
 50
90.0
 51
270.0
  0
ARC
  5
15F11
330
15B9B
100
AcDbEntity
  8
SUNPOU
100
AcDbCircle
 10
6125.583068426931
 20
3157.718703522843
 30
0.0
 40
7.5
100
AcDbArc
 50
270.0
 51
90.0
  0
ARC
  5
15F12
330
15B9B
100
AcDbEntity
  8
SUNPOU
100
AcDbCircle
 10
6125.583068426931
 20
3957.718703522846
 30
0.0
 40
7.5
100
AcDbArc
 50
270.0
 51
90.0
  0
ARC
  5
15F13
330
15B9B
100
AcDbEntity
  8
SUNPOU
100
AcDbCircle
 10
6125.583068426931
 20
3957.718703522846
 30
0.0
 40
7.5
100
AcDbArc
 50
90.0
 51
270.0
  0
ARC
  5
15F14
330
15B9B
100
AcDbEntity
  8
SUNPOU
100
AcDbCircle
 10
6335.583068426931
 20
2837.718703522841
 30
0.0
 40
7.5
100
AcDbArc
 50
90.0
 51
270.0
  0
ARC
  5
15F15
330
15B9B
100
AcDbEntity
  8
SUNPOU
100
AcDbCircle
 10
6335.583068426931
 20
2837.718703522841
 30
0.0
 40
7.5
100
AcDbArc
 50
270.0
 51
90.0
  0
ARC
  5
15F16
330
15B9B
100
AcDbEntity
  8
SUNPOU
100
AcDbCircle
 10
6335.583068426931
 20
2997.718703522841
 30
0.0
 40
7.5
100
AcDbArc
 50
270.0
 51
90.0
  0
ARC
  5
15F17
330
15B9B
100
AcDbEntity
  8
SUNPOU
100
AcDbCircle
 10
6335.583068426931
 20
2997.718703522841
 30
0.0
 40
7.5
100
AcDbArc
 50
90.0
 51
270.0
  0
ARC
  5
15F18
330
15B9B
100
AcDbEntity
  8
SUNPOU
100
AcDbCircle
 10
6335.583068426931
 20
2997.718703522844
 30
0.0
 40
7.5
100
AcDbArc
 50
90.0
 51
270.0
  0
ARC
  5
15F19
330
15B9B
100
AcDbEntity
  8
SUNPOU
100
AcDbCircle
 10
6335.583068426931
 20
2997.718703522844
 30
0.0
 40
7.5
100
AcDbArc
 50
270.0
 51
90.0
  0
ARC
  5
15F1A
330
15B9B
100
AcDbEntity
  8
SUNPOU
100
AcDbCircle
 10
6335.583068426931
 20
3957.718703522846
 30
0.0
 40
7.5
100
AcDbArc
 50
270.0
 51
90.0
  0
ARC
  5
15F1B
330
15B9B
100
AcDbEntity
  8
SUNPOU
100
AcDbCircle
 10
6335.583068426931
 20
3957.718703522846
 30
0.0
 40
7.5
100
AcDbArc
 50
90.0
 51
270.0
  0
ARC
  5
15F1C
330
15B9B
100
AcDbEntity
  8
HIKIDASHI
100
AcDbCircle
 10
3363.786549296427
 20
2566.721081302862
 30
0.0
 40
75.00000000001334
100
AcDbArc
 50
301.7712278330566
 51
15.14038701489555
  0
ARC
  5
15F1D
330
15B9B
100
AcDbEntity
  8
HIKIDASHI
100
AcDbCircle
 10
3427.495607783707
 20
2583.959290799997
 30
0.0
 40
8.999999999992452
100
AcDbArc
 50
15.14038701506128
 51
164.8596129849863
  0
ARC
  5
15F1E
330
15B9B
100
AcDbEntity
  8
HIKIDASHI
100
AcDbCircle
 10
3491.204666270965
 20
2566.721081302839
 30
0.0
 40
74.99999999999909
100
AcDbArc
 50
164.8596129850878
 51
238.2287721669164
  0
LINE
  5
15F1F
330
15B9B
100
AcDbEntity
  8
HIKIDASHI
100
AcDbLine
 10
9278.487190505684
 20
8930.336881458343
 30
0.0
 11
9247.691374071312
 21
8877.881017247176
 31
0.0
  0
LINE
  5
15F20
330
15B9B
100
AcDbEntity
  8
HIKIDASHI
100
AcDbLine
 10
9247.691374071312
 20
8877.881017247176
 30
0.0
 11
9293.835264496641
 21
8917.513596981725
 31
0.0
  0
SOLID
  5
15F21
330
15B9B
100
AcDbEntity
  8
HIKIDASHI
100
AcDbTrace
 10
9278.487190505684
 20
8930.336881458343
 30
0.0
 11
9293.835264496641
 21
8917.513596981725
 31
0.0
 12
9247.691374071312
 22
8877.881017247176
 32
0.0
 13
9247.691374071312
 23
8877.881017247176
 33
0.0
  0
LINE
  5
15F22
330
15B9B
100
AcDbEntity
  8
HIKIDASHI
100
AcDbLine
 10
9293.835264496641
 20
8917.513596981725
 30
0.0
 11
9278.487190505684
 21
8930.336881458343
 31
0.0
  0
LINE
  5
15F23
330
15B9B
100
AcDbEntity
  8
HIKIDASHI
100
AcDbLine
 10
4777.533112912054
 20
3285.842216069705
 30
0.0
 11
3458.578019690166
 21
2458.731788496597
 31
0.0
1001
ACAD
1000
DSTYLE
1002
{
1070
   147
1040
1.125
1070
    77
1070
     0
1002
}
  0
LINE
  5
15F24
330
15B9B
100
AcDbEntity
  8
HIKIDASHI
100
AcDbLine
 10
4782.84586082091
 20
3277.37022045728
 30
0.0
 11
4828.365086586602
 21
3317.718703522842
 31
0.0
  0
LINE
  5
15F25
330
15B9B
100
AcDbEntity
  8
HIKIDASHI
100
AcDbLine
 10
4828.365086586602
 20
3317.718703522842
 30
0.0
 11
4772.220365003198
 21
3294.31421168213
 31
0.0
  0
SOLID
  5
15F26
330
15B9B
100
AcDbEntity
  8
HIKIDASHI
100
AcDbTrace
 10
4782.84586082091
 20
3277.37022045728
 30
0.0
 11
4772.220365003198
 21
3294.31421168213
 31
0.0
 12
4828.365086586602
 22
3317.718703522842
 32
0.0
 13
4828.365086586602
 23
3317.718703522842
 33
0.0
  0
LINE
  5
15F27
330
15B9B
100
AcDbEntity
  8
HIKIDASHI
100
AcDbLine
 10
4772.220365003198
 20
3294.31421168213
 30
0.0
 11
4782.84586082091
 21
3277.37022045728
 31
0.0
  0
LINE
  5
15F28
330
15B9B
100
AcDbEntity
  8
HIKIDASHI
100
AcDbLine
 10
5198.797646112944
 20
3327.803499266863
 30
0.0
 11
5786.076085165333
 21
2125.147386988718
 31
0.0
1001
ACAD
1000
DSTYLE
1002
{
1070
   147
1040
1.125
1070
    77
1070
     0
1002
}
  0
LINE
  5
15F29
330
15B9B
100
AcDbEntity
  8
HIKIDASHI
100
AcDbLine
 10
5207.783513488941
 20
3332.191458644635
 30
0.0
 11
5172.469889846303
 21
3381.718703522845
 31
0.0
  0
LINE
  5
15F2A
330
15B9B
100
AcDbEntity
  8
HIKIDASHI
100
AcDbLine
 10
5172.469889846303
 20
3381.718703522845
 30
0.0
 11
5189.811778736945
 21
3323.415539889087
 31
0.0
  0
SOLID
  5
15F2B
330
15B9B
100
AcDbEntity
  8
HIKIDASHI
100
AcDbTrace
 10
5207.783513488941
 20
3332.191458644635
 30
0.0
 11
5189.811778736945
 21
3323.415539889087
 31
0.0
 12
5172.469889846303
 22
3381.718703522845
 32
0.0
 13
5172.469889846303
 23
3381.718703522845
 33
0.0
  0
LINE
  5
15F2C
330
15B9B
100
AcDbEntity
  8
HIKIDASHI
100
AcDbLine
 10
5189.811778736945
 20
3323.415539889087
 30
0.0
 11
5207.783513488941
 21
3332.191458644635
 31
0.0
  0
LINE
  5
15F2D
330
15B9B
100
AcDbEntity
  8
HIKIDASHI
100
AcDbLine
 10
5349.859266689735
 20
3409.954743201093
 30
0.0
 11
5862.991694001824
 21
2335.351403224569
 31
0.0
1001
ACAD
1000
DSTYLE
1002
{
1070
   147
1040
1.125
1070
    77
1070
     0
1002
}
  0
LINE
  5
15F2E
330
15B9B
100
AcDbEntity
  8
HIKIDASHI
100
AcDbLine
 10
5358.883249198083
 20
3414.263773218282
 30
0.0
 11
5324.005086586602
 21
3464.098638251181
 31
0.0
  0
LINE
  5
15F2F
330
15B9B
100
AcDbEntity
  8
HIKIDASHI
100
AcDbLine
 10
5324.005086586602
 20
3464.098638251181
 30
0.0
 11
5340.835284181386
 21
3405.645713183905
 31
0.0
  0
SOLID
  5
15F30
330
15B9B
100
AcDbEntity
  8
HIKIDASHI
100
AcDbTrace
 10
5358.883249198083
 20
3414.263773218282
 30
0.0
 11
5340.835284181386
 21
3405.645713183905
 31
0.0
 12
5324.005086586602
 22
3464.098638251181
 32
0.0
 13
5324.005086586602
 23
3464.098638251181
 33
0.0
  0
LINE
  5
15F31
330
15B9B
100
AcDbEntity
  8
HIKIDASHI
100
AcDbLine
 10
5340.835284181386
 20
3405.645713183905
 30
0.0
 11
5358.883249198083
 21
3414.263773218282
 31
0.0
  0
LINE
  5
15F32
330
15B9B
100
AcDbEntity
  8
KISO
100
AcDbLine
 10
7716.103906328147
 20
2739.166484335346
 30
0.0
 11
9556.103906328145
 21
2739.166484335346
 31
0.0
  0
LINE
  5
15F33
330
15B9B
100
AcDbEntity
  8
KISO
100
AcDbLine
 10
9556.103906328145
 20
2739.166484335346
 30
0.0
 11
9556.103906328145
 21
4019.166484335345
 31
0.0
  0
LINE
  5
15F34
330
15B9B
100
AcDbEntity
  8
KISO
100
AcDbLine
 10
9556.103906328145
 20
4019.166484335345
 30
0.0
 11
7716.103906328147
 21
4019.166484335345
 31
0.0
  0
LINE
  5
15F35
330
15B9B
100
AcDbEntity
  8
KISO
100
AcDbLine
 10
7716.103906328147
 20
4019.166484335345
 30
0.0
 11
7716.103906328147
 21
2739.166484335346
 31
0.0
  0
LINE
  5
15F36
330
15B9B
100
AcDbEntity
  8
DOMAKON
100
AcDbLine
 10
6819.127507899648
 20
6843.693182432328
 30
0.0
 11
9619.127507899646
 21
6843.693182432328
 31
0.0
  0
LINE
  5
15F37
330
15B9B
100
AcDbEntity
  8
DOMAKON
100
AcDbLine
 10
9619.127507899646
 20
6843.693182432328
 30
0.0
 11
9619.127507899646
 21
9083.693182432327
 31
0.0
  0
LINE
  5
15F38
330
15B9B
100
AcDbEntity
  8
DOMAKON
100
AcDbLine
 10
9619.127507899646
 20
9083.693182432327
 30
0.0
 11
6819.127507899648
 21
9083.693182432327
 31
0.0
  0
LINE
  5
15F39
330
15B9B
100
AcDbEntity
  8
DOMAKON
100
AcDbLine
 10
6819.127507899648
 20
9083.693182432327
 30
0.0
 11
6819.127507899648
 21
6843.693182432328
 31
0.0
  0
LINE
  5
15F3A
330
15B9B
100
AcDbEntity
  8
HATCH
100
AcDbLine
 10
3564.491681375264
 20
2837.718703522838
 30
0.0
 11
3656.867724445599
 21
2997.718703522829
 31
0.0
  0
LINE
  5
15F3B
330
15B9B
100
AcDbEntity
  8
HATCH
100
AcDbLine
 10
3592.867724445602
 20
2997.718703522829
 30
0.0
 11
3624.8677244456
 21
2942.293077680631
 31
0.0
  0
LINE
  5
15F3C
330
15B9B
100
AcDbEntity
  8
HATCH
100
AcDbLine
 10
3596.491681375262
 20
2893.144329365041
 30
0.0
 11
3628.49168137526
 21
2837.718703522838
 31
0.0
  0
LINE
  5
15F3D
330
15B9B
100
AcDbEntity
  8
HATCH
100
AcDbLine
 10
5228.508134460113
 20
2837.718703522838
 30
0.0
 11
5320.884177530449
 21
2997.718703522829
 31
0.0
  0
LINE
  5
15F3E
330
15B9B
100
AcDbEntity
  8
HATCH
100
AcDbLine
 10
5256.884177530452
 20
2997.718703522829
 30
0.0
 11
5288.884177530452
 21
2942.293077680631
 31
0.0
  0
LINE
  5
15F3F
330
15B9B
100
AcDbEntity
  8
HATCH
100
AcDbLine
 10
5260.508134460113
 20
2893.144329365041
 30
0.0
 11
5292.50813446011
 21
2837.718703522838
 31
0.0
  0
LINE
  5
15F40
330
15B9B
100
AcDbEntity
  8
HATCH
100
AcDbLine
 10
5020.506077824506
 20
2837.718703522838
 30
0.0
 11
5112.882120894843
 21
2997.718703522829
 31
0.0
  0
LINE
  5
15F41
330
15B9B
100
AcDbEntity
  8
HATCH
100
AcDbLine
 10
5048.882120894846
 20
2997.718703522829
 30
0.0
 11
5080.882120894845
 21
2942.293077680631
 31
0.0
  0
LINE
  5
15F42
330
15B9B
100
AcDbEntity
  8
HATCH
100
AcDbLine
 10
5052.506077824507
 20
2893.144329365041
 30
0.0
 11
5084.506077824503
 21
2837.718703522838
 31
0.0
  0
LINE
  5
15F43
330
15B9B
100
AcDbEntity
  8
HATCH
100
AcDbLine
 10
5436.51019109572
 20
2837.718703522838
 30
0.0
 11
5528.886234166055
 21
2997.718703522829
 31
0.0
  0
LINE
  5
15F44
330
15B9B
100
AcDbEntity
  8
HATCH
100
AcDbLine
 10
5464.886234166058
 20
2997.718703522829
 30
0.0
 11
5496.886234166057
 21
2942.293077680631
 31
0.0
  0
LINE
  5
15F45
330
15B9B
100
AcDbEntity
  8
HATCH
100
AcDbLine
 10
5468.510191095719
 20
2893.144329365041
 30
0.0
 11
5500.510191095717
 21
2837.718703522838
 31
0.0
  0
LINE
  5
15F46
330
15B9B
100
AcDbEntity
  8
HATCH
100
AcDbLine
 10
4188.497851282082
 20
2837.718703522838
 30
0.0
 11
4280.873894352416
 21
2997.718703522829
 31
0.0
  0
LINE
  5
15F47
330
15B9B
100
AcDbEntity
  8
HATCH
100
AcDbLine
 10
4216.873894352421
 20
2997.718703522829
 30
0.0
 11
4248.873894352421
 21
2942.293077680631
 31
0.0
  0
LINE
  5
15F48
330
15B9B
100
AcDbEntity
  8
HATCH
100
AcDbLine
 10
4220.497851282082
 20
2893.144329365041
 30
0.0
 11
4252.497851282078
 21
2837.718703522838
 31
0.0
  0
LINE
  5
15F49
330
15B9B
100
AcDbEntity
  8
HATCH
100
AcDbLine
 10
4396.499907917687
 20
2837.718703522838
 30
0.0
 11
4488.87595098802
 21
2997.718703522829
 31
0.0
  0
LINE
  5
15F4A
330
15B9B
100
AcDbEntity
  8
HATCH
100
AcDbLine
 10
4424.875950988026
 20
2997.718703522829
 30
0.0
 11
4456.875950988023
 21
2942.293077680631
 31
0.0
  0
LINE
  5
15F4B
330
15B9B
100
AcDbEntity
  8
HATCH
100
AcDbLine
 10
4428.499907917685
 20
2893.144329365041
 30
0.0
 11
4460.499907917683
 21
2837.718703522838
 31
0.0
  0
LINE
  5
15F4C
330
15B9B
100
AcDbEntity
  8
HATCH
100
AcDbLine
 10
4604.501964553294
 20
2837.718703522838
 30
0.0
 11
4696.878007623629
 21
2997.718703522829
 31
0.0
  0
LINE
  5
15F4D
330
15B9B
100
AcDbEntity
  8
HATCH
100
AcDbLine
 10
4632.878007623633
 20
2997.718703522829
 30
0.0
 11
4664.87800762363
 21
2942.293077680631
 31
0.0
  0
LINE
  5
15F4E
330
15B9B
100
AcDbEntity
  8
HATCH
100
AcDbLine
 10
4636.501964553292
 20
2893.144329365041
 30
0.0
 11
4668.50196455329
 21
2837.718703522838
 31
0.0
  0
LINE
  5
15F4F
330
15B9B
100
AcDbEntity
  8
HATCH
100
AcDbLine
 10
4812.5040211889
 20
2837.718703522838
 30
0.0
 11
4904.880064259235
 21
2997.718703522829
 31
0.0
  0
LINE
  5
15F50
330
15B9B
100
AcDbEntity
  8
HATCH
100
AcDbLine
 10
4840.880064259239
 20
2997.718703522829
 30
0.0
 11
4872.880064259237
 21
2942.293077680631
 31
0.0
  0
LINE
  5
15F51
330
15B9B
100
AcDbEntity
  8
HATCH
100
AcDbLine
 10
4844.504021188898
 20
2893.144329365041
 30
0.0
 11
4876.504021188896
 21
2837.718703522838
 31
0.0
  0
LINE
  5
15F52
330
15B9B
100
AcDbEntity
  8
HATCH
100
AcDbLine
 10
3532.005086586607
 20
3717.718703522843
 30
0.0
 11
3587.430712428814
 21
3813.718703522847
 31
0.0
  0
LINE
  5
15F53
330
15B9B
100
AcDbEntity
  8
HATCH
100
AcDbLine
 10
3549.030712428812
 20
3813.718703522846
 30
0.0
 11
3568.230712428813
 21
3780.463328017523
 31
0.0
  0
LINE
  5
15F54
330
15B9B
100
AcDbEntity
  8
HATCH
100
AcDbLine
 10
3551.205086586608
 20
3750.974079028167
 30
0.0
 11
3570.405086586609
 21
3717.718703522843
 31
0.0
  0
LINE
  5
15F55
330
15B9B
100
AcDbEntity
  8
HATCH
100
AcDbLine
 10
3388.005086586606
 20
3717.718703522843
 30
0.0
 11
3443.430712428813
 21
3813.718703522847
 31
0.0
  0
LINE
  5
15F56
330
15B9B
100
AcDbEntity
  8
HATCH
100
AcDbLine
 10
3405.030712428812
 20
3813.718703522846
 30
0.0
 11
3424.230712428812
 21
3780.463328017523
 31
0.0
  0
LINE
  5
15F57
330
15B9B
100
AcDbEntity
  8
HATCH
100
AcDbLine
 10
3407.205086586607
 20
3750.974079028167
 30
0.0
 11
3426.405086586608
 21
3717.718703522843
 31
0.0
  0
LINE
  5
15F58
330
15B9B
100
AcDbEntity
  8
HATCH
100
AcDbLine
 10
3100.005086586606
 20
3717.718703522843
 30
0.0
 11
3155.430712428813
 21
3813.718703522847
 31
0.0
  0
LINE
  5
15F59
330
15B9B
100
AcDbEntity
  8
HATCH
100
AcDbLine
 10
3117.030712428811
 20
3813.718703522846
 30
0.0
 11
3136.230712428812
 21
3780.463328017523
 31
0.0
  0
LINE
  5
15F5A
330
15B9B
100
AcDbEntity
  8
HATCH
100
AcDbLine
 10
3119.205086586607
 20
3750.974079028167
 30
0.0
 11
3138.405086586608
 21
3717.718703522843
 31
0.0
  0
LINE
  5
15F5B
330
15B9B
100
AcDbEntity
  8
HATCH
100
AcDbLine
 10
3244.005086586606
 20
3717.718703522843
 30
0.0
 11
3299.430712428812
 21
3813.718703522847
 31
0.0
  0
LINE
  5
15F5C
330
15B9B
100
AcDbEntity
  8
HATCH
100
AcDbLine
 10
3261.030712428811
 20
3813.718703522846
 30
0.0
 11
3280.230712428812
 21
3780.463328017523
 31
0.0
  0
LINE
  5
15F5D
330
15B9B
100
AcDbEntity
  8
HATCH
100
AcDbLine
 10
3263.205086586607
 20
3750.974079028167
 30
0.0
 11
3282.405086586608
 21
3717.718703522843
 31
0.0
  0
LINE
  5
15F5E
330
15B9B
100
AcDbEntity
  8
HATCH
100
AcDbLine
 10
3772.49373801087
 20
2837.718703522838
 30
0.0
 11
3864.869781081205
 21
2997.718703522829
 31
0.0
  0
LINE
  5
15F5F
330
15B9B
100
AcDbEntity
  8
HATCH
100
AcDbLine
 10
3800.869781081209
 20
2997.718703522829
 30
0.0
 11
3832.869781081207
 21
2942.293077680631
 31
0.0
  0
LINE
  5
15F60
330
15B9B
100
AcDbEntity
  8
HATCH
100
AcDbLine
 10
3804.493738010869
 20
2893.144329365041
 30
0.0
 11
3836.493738010867
 21
2837.718703522838
 31
0.0
  0
LINE
  5
15F61
330
15B9B
100
AcDbEntity
  8
HATCH
100
AcDbLine
 10
3980.495794646475
 20
2837.718703522838
 30
0.0
 11
4072.871837716809
 21
2997.718703522829
 31
0.0
  0
LINE
  5
15F62
330
15B9B
100
AcDbEntity
  8
HATCH
100
AcDbLine
 10
4008.871837716813
 20
2997.718703522829
 30
0.0
 11
4040.871837716811
 21
2942.293077680631
 31
0.0
  0
LINE
  5
15F63
330
15B9B
100
AcDbEntity
  8
HATCH
100
AcDbLine
 10
4012.495794646473
 20
2893.144329365041
 30
0.0
 11
4044.495794646471
 21
2837.718703522838
 31
0.0
  0
LINE
  5
15F64
330
15B9B
100
AcDbEntity
  8
1PL-M1
100
AcDbLine
 10
5004.005086586602
 20
2413.731788496597
 30
0.0
 11
5004.005086586602
 21
4384.918703522841
 31
0.0
  0
LINE
  5
15F65
330
15B9B
100
AcDbEntity
  8
YANE
  6
2PL-M
100
AcDbLine
 10
9440.928160950877
 20
6970.143910050989
 30
0.0
 11
6997.326854848409
 21
6970.143910050989
 31
0.0
  0
LINE
  5
15F66
330
15B9B
100
AcDbEntity
  8
YANE
  6
2PL-M
100
AcDbLine
 10
6997.326854848409
 20
6970.143910050989
 30
0.0
 11
6997.326854848409
 21
8958.243182432324
 31
0.0
  0
LINE
  5
15F67
330
15B9B
100
AcDbEntity
  8
YANE
  6
2PL-M
100
AcDbLine
 10
6997.326854848409
 20
8958.243182432324
 30
0.0
 11
9440.928160950877
 21
8958.243182432324
 31
0.0
  0
LINE
  5
15F68
330
15B9B
100
AcDbEntity
  8
YANE
  6
2PL-M
100
AcDbLine
 10
9440.928160950877
 20
8958.243182432324
 30
0.0
 11
9440.928160950877
 21
6970.143910050989
 31
0.0
  0
ENDSEC
  0
SECTION
  2
OBJECTS
  0
DICTIONARY
  5
15B89
330
0
100
AcDbDictionary
281
     1
  3
ACAD_GROUP
350
15B8A
  3
ACAD_LAYOUT
350
15B96
  3
ACAD_MLINESTYLE
350
15B93
  3
ACAD_PLOTSETTINGS
350
15B95
  3
ACAD_PLOTSTYLENAME
350
15B8B
  3
AcDbVariableDictionary
350
15F69
  0
DICTIONARY
  5
15B8A
102
{ACAD_REACTORS
330
15B89
102
}
330
15B89
100
AcDbDictionary
281
     1
  0
DICTIONARY
  5
15B96
102
{ACAD_REACTORS
330
15B89
102
}
330
15B89
100
AcDbDictionary
281
     1
  3
Model
350
15B9E
  3
ﾚｲｱｳﾄ1
350
15B9A
  0
DICTIONARY
  5
15B93
102
{ACAD_REACTORS
330
15B89
102
}
330
15B89
100
AcDbDictionary
281
     1
  3
Standard
350
15B94
  0
DICTIONARY
  5
15B95
102
{ACAD_REACTORS
330
15B89
102
}
330
15B89
100
AcDbDictionary
281
     1
  0
ACDBDICTIONARYWDFLT
  5
15B8B
102
{ACAD_REACTORS
330
15B89
102
}
330
15B89
100
AcDbDictionary
281
     1
  3
Normal
350
15B8C
100
AcDbDictionaryWithDefault
340
15B8C
  0
DICTIONARY
  5
15F69
102
{ACAD_REACTORS
330
15B89
102
}
330
15B89
100
AcDbDictionary
281
     1
  3
DIMASSOC
350
15F6A
  0
LAYOUT
  5
15B9E
102
{ACAD_REACTORS
330
15B96
102
}
330
15B96
100
AcDbPlotSettings
  1

  2
Muratec V-1200 Is@Web Printer
  4

  6

 40
0.0
 41
0.0
 42
0.0
 43
0.0
 44
0.0
 45
0.0
 46
0.0
 47
0.0
 48
0.0
 49
0.0
140
0.0
141
0.0
142
1.0
143
1.0
 70
  1712
 72
     0
 73
     0
 74
     0
  7

 75
     0
147
1.0
148
0.0
149
0.0
100
AcDbLayout
  1
Model
 70
     1
 71
     0
 10
0.0
 20
0.0
 11
12.0
 21
9.0
 12
0.0
 22
0.0
 32
0.0
 14
0.0
 24
0.0
 34
0.0
 15
0.0
 25
0.0
 35
0.0
146
0.0
 13
0.0
 23
0.0
 33
0.0
 16
1.0
 26
0.0
 36
0.0
 17
0.0
 27
1.0
 37
0.0
 76
     0
330
15B9B
  0
LAYOUT
  5
15B9A
102
{ACAD_REACTORS
330
15B96
102
}
330
15B96
100
AcDbPlotSettings
  1

  2
Muratec V-1200 Is@Web Printer
  4

  6

 40
0.0
 41
0.0
 42
0.0
 43
0.0
 44
0.0
 45
0.0
 46
0.0
 47
0.0
 48
0.0
 49
0.0
140
0.0
141
0.0
142
1.0
143
1.0
 70
   688
 72
     0
 73
     0
 74
     5
  7

 75
    16
147
1.0
148
0.0
149
0.0
100
AcDbLayout
  1
ﾚｲｱｳﾄ1
 70
     0
 71
     1
 10
0.0
 20
0.0
 11
12.0
 21
9.0
 12
0.0
 22
0.0
 32
0.0
 14
1.000000000000000E+20
 24
1.000000000000000E+20
 34
1.000000000000000E+20
 15
-1.000000000000000E+20
 25
-1.000000000000000E+20
 35
-1.000000000000000E+20
146
0.0
 13
0.0
 23
0.0
 33
0.0
 16
1.0
 26
0.0
 36
0.0
 17
0.0
 27
1.0
 37
0.0
 76
     0
330
15B97
  0
MLINESTYLE
  5
15B94
102
{ACAD_REACTORS
330
15B93
102
}
330
15B93
100
AcDbMlineStyle
  2
STANDARD
 70
     0
  3

 62
   256
 51
90.0
 52
90.0
 71
     2
 49
0.5
 62
   256
  6
BYLAYER
 49
-0.5
 62
   256
  6
BYLAYER
  0
ACDBPLACEHOLDER
  5
15B8C
102
{ACAD_REACTORS
330
15B8B
102
}
330
15B8B
  0
DICTIONARYVAR
  5
15F6A
102
{ACAD_REACTORS
330
15F69
102
}
330
15F69
100
DictionaryVariables
280
     0
  1
1
  0
ENDSEC
  0
EOF
