  0
SECTION
  2
HEADER
  9
$ACADVER
  1
AC1015
  9
$ACADMAINTVER
 70
    13
  9
$DWGCODEPAGE
  3
ANSI_932
  9
$INSBASE
 10
267.0
 20
194.8999999999998
 30
0.0
  9
$EXTMIN
 10
433.9966216520333
 20
163.6908237492789
 30
-0.0000000349181948
  9
$EXTMAX
 10
16382.6660542547
 20
11242.27663824599
 30
0.0000000814935747
  9
$LIMMIN
 10
0.0
 20
0.0
  9
$LIMMAX
 10
16800.0
 20
11880.0
  9
$ORTHOMODE
 70
     0
  9
$REGENMODE
 70
     1
  9
$FILLMODE
 70
     1
  9
$QTEXTMODE
 70
     0
  9
$MIRRTEXT
 70
     0
  9
$LTSCALE
 40
40.0
  9
$ATTMODE
 70
     1
  9
$TEXTSIZE
 40
0.2
  9
$TRACEWID
 40
0.05
  9
$TEXTSTYLE
  7
00
  9
$CLAYER
  8
SUNPOU
  9
$CELTYPE
  6
ByLayer
  9
$CECOLOR
 62
   256
  9
$CELTSCALE
 40
1.0
  9
$DISPSILH
 70
     0
  9
$DIMSCALE
 40
30.0
  9
$DIMASZ
 40
0.5
  9
$DIMEXO
 40
1.0
  9
$DIMDLI
 40
7.0
  9
$DIMRND
 40
0.0
  9
$DIMDLE
 40
3.0
  9
$DIMEXE
 40
1.5
  9
$DIMTP
 40
0.0
  9
$DIMTM
 40
0.0
  9
$DIMTXT
 40
3.0
  9
$DIMCEN
 40
0.0
  9
$DIMTSZ
 40
0.0
  9
$DIMTOL
 70
     0
  9
$DIMLIM
 70
     0
  9
$DIMTIH
 70
     0
  9
$DIMTOH
 70
     0
  9
$DIMSE1
 70
     0
  9
$DIMSE2
 70
     0
  9
$DIMTAD
 70
     1
  9
$DIMZIN
 70
     8
  9
$DIMBLK
  1
DOT
  9
$DIMASO
 70
     1
  9
$DIMSHO
 70
     0
  9
$DIMPOST
  1

  9
$DIMAPOST
  1

  9
$DIMALT
 70
     0
  9
$DIMALTD
 70
     2
  9
$DIMALTF
 40
25.4
  9
$DIMLFAC
 40
1.0
  9
$DIMTOFL
 70
     1
  9
$DIMTVP
 40
0.0
  9
$DIMTIX
 70
     0
  9
$DIMSOXD
 70
     0
  9
$DIMSAH
 70
     1
  9
$DIMBLK1
  1
DOT
  9
$DIMBLK2
  1
DOT
  9
$DIMSTYLE
  2
SUNPOU_図面名
  9
$DIMCLRD
 70
   256
  9
$DIMCLRE
 70
   256
  9
$DIMCLRT
 70
   256
  9
$DIMTFAC
 40
1.0
  9
$DIMGAP
 40
1.5
  9
$DIMJUST
 70
     0
  9
$DIMSD1
 70
     0
  9
$DIMSD2
 70
     0
  9
$DIMTOLJ
 70
     1
  9
$DIMTZIN
 70
     0
  9
$DIMALTZ
 70
     0
  9
$DIMALTTZ
 70
     0
  9
$DIMUPT
 70
     0
  9
$DIMDEC
 70
     4
  9
$DIMTDEC
 70
     4
  9
$DIMALTU
 70
     2
  9
$DIMALTTD
 70
     2
  9
$DIMTXSTY
  7
STANDARD
  9
$DIMAUNIT
 70
     0
  9
$DIMADEC
 70
     0
  9
$DIMALTRND
 40
0.0
  9
$DIMAZIN
 70
     0
  9
$DIMDSEP
 70
    46
  9
$DIMATFIT
 70
     3
  9
$DIMFRAC
 70
     0
  9
$DIMLDRBLK
  1
DOT
  9
$DIMLUNIT
 70
     2
  9
$DIMLWD
 70
    -2
  9
$DIMLWE
 70
    -2
  9
$DIMTMOVE
 70
     0
  9
$LUNITS
 70
     2
  9
$LUPREC
 70
     2
  9
$SKETCHINC
 40
0.1
  9
$FILLETRAD
 40
0.0
  9
$AUNITS
 70
     0
  9
$AUPREC
 70
     0
  9
$MENU
  1
A:\TIGER\MENU\TIGER
  9
$ELEVATION
 40
0.0
  9
$PELEVATION
 40
0.0
  9
$THICKNESS
 40
0.0
  9
$LIMCHECK
 70
     0
  9
$CHAMFERA
 40
0.0
  9
$CHAMFERB
 40
0.0
  9
$CHAMFERC
 40
0.0
  9
$CHAMFERD
 40
0.0
  9
$SKPOLY
 70
     0
  9
$TDCREATE
 40
2450266.571064815
  9
$TDUCREATE
 40
2450266.196064815
  9
$TDUPDATE
 40
2456330.655564595
  9
$TDUUPDATE
 40
2456330.280564595
  9
$TDINDWG
 40
0.2543627431
  9
$TDUSRTIMER
 40
0.2543625579
  9
$USRTIMER
 70
     1
  9
$ANGBASE
 50
0.0
  9
$ANGDIR
 70
     0
  9
$PDMODE
 70
     0
  9
$PDSIZE
 40
0.0
  9
$PLINEWID
 40
0.0
  9
$SPLFRAME
 70
     0
  9
$SPLINETYPE
 70
     6
  9
$SPLINESEGS
 70
     8
  9
$HANDSEED
  5
1997C
  9
$SURFTAB1
 70
     6
  9
$SURFTAB2
 70
     6
  9
$SURFTYPE
 70
     6
  9
$SURFU
 70
     6
  9
$SURFV
 70
     6
  9
$UCSBASE
  2

  9
$UCSNAME
  2

  9
$UCSORG
 10
0.0
 20
0.0
 30
0.0
  9
$UCSXDIR
 10
1.0
 20
0.0
 30
0.0
  9
$UCSYDIR
 10
0.0
 20
1.0
 30
0.0
  9
$UCSORTHOREF
  2

  9
$UCSORTHOVIEW
 70
     0
  9
$UCSORGTOP
 10
0.0
 20
0.0
 30
0.0
  9
$UCSORGBOTTOM
 10
0.0
 20
0.0
 30
0.0
  9
$UCSORGLEFT
 10
0.0
 20
0.0
 30
0.0
  9
$UCSORGRIGHT
 10
0.0
 20
0.0
 30
0.0
  9
$UCSORGFRONT
 10
0.0
 20
0.0
 30
0.0
  9
$UCSORGBACK
 10
0.0
 20
0.0
 30
0.0
  9
$PUCSBASE
  2

  9
$PUCSNAME
  2

  9
$PUCSORG
 10
0.0
 20
0.0
 30
0.0
  9
$PUCSXDIR
 10
1.0
 20
0.0
 30
0.0
  9
$PUCSYDIR
 10
0.0
 20
1.0
 30
0.0
  9
$PUCSORTHOREF
  2

  9
$PUCSORTHOVIEW
 70
     0
  9
$PUCSORGTOP
 10
0.0
 20
0.0
 30
0.0
  9
$PUCSORGBOTTOM
 10
0.0
 20
0.0
 30
0.0
  9
$PUCSORGLEFT
 10
0.0
 20
0.0
 30
0.0
  9
$PUCSORGRIGHT
 10
0.0
 20
0.0
 30
0.0
  9
$PUCSORGFRONT
 10
0.0
 20
0.0
 30
0.0
  9
$PUCSORGBACK
 10
0.0
 20
0.0
 30
0.0
  9
$USERI1
 70
     3
  9
$USERI2
 70
     0
  9
$USERI3
 70
     0
  9
$USERI4
 70
     0
  9
$USERI5
 70
  1103
  9
$USERR1
 40
0.0
  9
$USERR2
 40
1.0
  9
$USERR3
 40
0.0
  9
$USERR4
 40
0.0
  9
$USERR5
 40
0.0
  9
$WORLDVIEW
 70
     1
  9
$SHADEDGE
 70
     3
  9
$SHADEDIF
 70
    70
  9
$TILEMODE
 70
     1
  9
$MAXACTVP
 70
    16
  9
$PINSBASE
 10
0.0
 20
0.0
 30
0.0
  9
$PLIMCHECK
 70
     0
  9
$PEXTMIN
 10
1.000000000000000E+20
 20
1.000000000000000E+20
 30
1.000000000000000E+20
  9
$PEXTMAX
 10
-1.000000000000000E+20
 20
-1.000000000000000E+20
 30
-1.000000000000000E+20
  9
$PLIMMIN
 10
0.0
 20
0.0
  9
$PLIMMAX
 10
12.0
 20
9.0
  9
$UNITMODE
 70
     0
  9
$VISRETAIN
 70
     0
  9
$PLINEGEN
 70
     1
  9
$PSLTSCALE
 70
     0
  9
$TREEDEPTH
 70
  3020
  9
$CMLSTYLE
  2
Standard
  9
$CMLJUST
 70
     0
  9
$CMLSCALE
 40
1.0
  9
$PROXYGRAPHICS
 70
     1
  9
$MEASUREMENT
 70
     0
  9
$CELWEIGHT
370
    -1
  9
$ENDCAPS
280
     0
  9
$JOINSTYLE
280
     0
  9
$LWDISPLAY
290
     0
  9
$INSUNITS
 70
     0
  9
$HYPERLINKBASE
  1

  9
$STYLESHEET
  1

  9
$XEDIT
290
     1
  9
$CEPSNTYPE
380
     0
  9
$PSTYLEMODE
290
     1
  9
$FINGERPRINTGUID
  2
{A7CBBF8F-A9DF-4734-89F6-11D8681F87E0}
  9
$VERSIONGUID
  2
{87615CA7-9091-4E07-8D76-0EA3AA8EF031}
  9
$EXTNAMES
290
     1
  9
$PSVPSCALE
 40
0.0
  9
$OLESTARTUP
290
     0
  0
ENDSEC
  0
SECTION
  2
CLASSES
  0
CLASS
  1
ACDBDICTIONARYWDFLT
  2
AcDbDictionaryWithDefault
  3
AutoCAD 2000
 90
        0
280
     0
281
     0
  0
CLASS
  1
ACDBPLACEHOLDER
  2
AcDbPlaceHolder
  3
AutoCAD 2000
 90
        0
280
     0
281
     0
  0
CLASS
  1
LAYOUT
  2
AcDbLayout
  3
AutoCAD 2000
 90
        0
280
     0
281
     0
  0
CLASS
  1
DICTIONARYVAR
  2
AcDbDictionaryVar
  3
AutoCAD 2000
 90
        0
280
     0
281
     0
  0
ENDSEC
  0
SECTION
  2
TABLES
  0
TABLE
  2
VPORT
  5
19129
330
0
100
AcDbSymbolTable
 70
     2
  0
VPORT
  5
1997B
330
19129
100
AcDbSymbolTableRecord
100
AcDbViewportTableRecord
  2
*Active
 70
     0
 10
0.0
 20
0.0
 11
1.0
 21
1.0
 12
8408.331337953367
 22
5702.983730997637
 13
0.0
 23
0.0
 14
1.0
 24
1.0
 15
0.0
 25
0.0
 16
0.0
 26
0.0
 36
1.0
 17
0.0
 27
0.0
 37
0.0
 40
11162.83361536741
 41
1.527918781725888
 42
50.0
 43
0.0
 44
0.0
 50
0.0
 51
0.0
 71
     0
 72
 10000
 73
     1
 74
     0
 75
     0
 76
     0
 77
     0
 78
     0
281
     0
 65
     1
110
0.0
120
0.0
130
0.0
111
1.0
121
0.0
131
0.0
112
0.0
122
1.0
132
0.0
 79
     0
146
0.0
  0
ENDTAB
  0
TABLE
  2
LTYPE
  5
19126
330
0
100
AcDbSymbolTable
 70
     6
  0
LTYPE
  5
19134
330
19126
100
AcDbSymbolTableRecord
100
AcDbLinetypeTableRecord
  2
ByBlock
 70
     0
  3

 72
    65
 73
     0
 40
0.0
  0
LTYPE
  5
19135
330
19126
100
AcDbSymbolTableRecord
100
AcDbLinetypeTableRecord
  2
ByLayer
 70
     0
  3

 72
    65
 73
     0
 40
0.0
  0
LTYPE
  5
19136
330
19126
100
AcDbSymbolTableRecord
100
AcDbLinetypeTableRecord
  2
CONTINUOUS
 70
     0
  3
実線
 72
    65
 73
     0
 40
0.0
  0
LTYPE
  5
19146
330
19126
100
AcDbSymbolTableRecord
100
AcDbLinetypeTableRecord
  2
1PL-L
 70
     0
  3

 72
    65
 73
     4
 40
56.0
 49
50.0
 74
     0
 49
-2.0
 74
     0
 49
2.0
 74
     0
 49
-2.0
 74
     0
  0
LTYPE
  5
19147
330
19126
100
AcDbSymbolTableRecord
100
AcDbLinetypeTableRecord
  2
1PL-M
 70
     0
  3

 72
    65
 73
     4
 40
15.0
 49
12.0
 74
     0
 49
-1.0
 74
     0
 49
1.0
 74
     0
 49
-1.0
 74
     0
  0
LTYPE
  5
19148
330
19126
100
AcDbSymbolTableRecord
100
AcDbLinetypeTableRecord
  2
1PL-S
 70
     0
  3

 72
    65
 73
     4
 40
4.0
 49
2.5
 74
     0
 49
-0.5
 74
     0
 49
0.5
 74
     0
 49
-0.5
 74
     0
  0
LTYPE
  5
19149
330
19126
100
AcDbSymbolTableRecord
100
AcDbLinetypeTableRecord
  2
2PL-M
 70
     0
  3

 72
    65
 73
     6
 40
17.0
 49
12.0
 74
     0
 49
-1.0
 74
     0
 49
1.0
 74
     0
 49
-1.0
 74
     0
 49
1.0
 74
     0
 49
-1.0
 74
     0
  0
LTYPE
  5
1914A
330
19126
100
AcDbSymbolTableRecord
100
AcDbLinetypeTableRecord
  2
KAKURE-05
 70
     0
  3

 72
    65
 73
     2
 40
1.0
 49
0.5
 74
     0
 49
-0.5
 74
     0
  0
ENDTAB
  0
TABLE
  2
LAYER
  5
19123
330
0
100
AcDbSymbolTable
 70
    33
  0
LAYER
  5
19131
330
19123
100
AcDbSymbolTableRecord
100
AcDbLayerTableRecord
  2
0
 70
     0
 62
     7
  6
CONTINUOUS
370
    -3
390
19130
  0
LAYER
  5
19143
330
19123
100
AcDbSymbolTableRecord
100
AcDbLayerTableRecord
  2
SUNPOU
 70
     0
 62
     4
  6
CONTINUOUS
370
    -3
390
19130
  0
LAYER
  5
1914B
330
19123
100
AcDbSymbolTableRecord
100
AcDbLayerTableRecord
  2
HIKIDASHI
 70
     0
 62
     6
  6
CONTINUOUS
370
    -3
390
19130
  0
LAYER
  5
1914C
330
19123
100
AcDbSymbolTableRecord
100
AcDbLayerTableRecord
  2
1PL-M1
 70
     0
 62
     6
  6
1PL-M
370
    -3
390
19130
  0
LAYER
  5
1914D
330
19123
100
AcDbSymbolTableRecord
100
AcDbLayerTableRecord
  2
1PL-L1
 70
     0
 62
     6
  6
1PL-L
370
    -3
390
19130
  0
LAYER
  5
1914E
330
19123
100
AcDbSymbolTableRecord
100
AcDbLayerTableRecord
  2
2PL-M1
 70
     0
 62
     6
  6
2PL-M
370
    -3
390
19130
  0
LAYER
  5
1914F
330
19123
100
AcDbSymbolTableRecord
100
AcDbLayerTableRecord
  2
NAME
 70
     0
 62
    20
  6
CONTINUOUS
370
    -3
390
19130
  0
LAYER
  5
19150
330
19123
100
AcDbSymbolTableRecord
100
AcDbLayerTableRecord
  2
FILENAME
 70
     0
 62
     7
  6
CONTINUOUS
370
    -3
390
19130
  0
LAYER
  5
19151
330
19123
100
AcDbSymbolTableRecord
100
AcDbLayerTableRecord
  2
KISO
 70
     0
 62
     2
  6
CONTINUOUS
370
    -3
390
19130
  0
LAYER
  5
19152
330
19123
100
AcDbSymbolTableRecord
100
AcDbLayerTableRecord
  2
KERABA
 70
     0
 62
     2
  6
CONTINUOUS
370
    -3
390
19130
  0
LAYER
  5
19153
330
19123
100
AcDbSymbolTableRecord
100
AcDbLayerTableRecord
  2
HANAKAKUSI
 70
     0
 62
     4
  6
CONTINUOUS
370
    -3
390
19130
  0
LAYER
  5
19154
330
19123
100
AcDbSymbolTableRecord
100
AcDbLayerTableRecord
  2
TATEDOISIJIKANAGU
 70
     0
 62
     2
  6
CONTINUOUS
370
    -3
390
19130
  0
LAYER
  5
19155
330
19123
100
AcDbSymbolTableRecord
100
AcDbLayerTableRecord
  2
HANA_KONA
 70
     0
 62
     3
  6
CONTINUOUS
370
    -3
390
19130
  0
LAYER
  5
19156
330
19123
100
AcDbSymbolTableRecord
100
AcDbLayerTableRecord
  2
BOYA_KANAGU
 70
     0
 62
     3
  6
CONTINUOUS
370
    -3
390
19130
  0
LAYER
  5
19157
330
19123
100
AcDbSymbolTableRecord
100
AcDbLayerTableRecord
  2
KYAPU
 70
     0
 62
     3
  6
CONTINUOUS
370
    -3
390
19130
  0
LAYER
  5
19158
330
19123
100
AcDbSymbolTableRecord
100
AcDbLayerTableRecord
  2
CF-401
 70
     0
 62
     3
  6
CONTINUOUS
370
    -3
390
19130
  0
LAYER
  5
19159
330
19123
100
AcDbSymbolTableRecord
100
AcDbLayerTableRecord
  2
CF-101
 70
     0
 62
     3
  6
CONTINUOUS
370
    -3
390
19130
  0
LAYER
  5
1915A
330
19123
100
AcDbSymbolTableRecord
100
AcDbLayerTableRecord
  2
CF-102
 70
     0
 62
     3
  6
CONTINUOUS
370
    -3
390
19130
  0
LAYER
  5
1915B
330
19123
100
AcDbSymbolTableRecord
100
AcDbLayerTableRecord
  2
CF-201
 70
     0
 62
     3
  6
CONTINUOUS
370
    -3
390
19130
  0
LAYER
  5
1915C
330
19123
100
AcDbSymbolTableRecord
100
AcDbLayerTableRecord
  2
CF-501
 70
     0
 62
     3
  6
CONTINUOUS
370
    -3
390
19130
  0
LAYER
  5
1915D
330
19123
100
AcDbSymbolTableRecord
100
AcDbLayerTableRecord
  2
AF-23
 70
     0
 62
     3
  6
CONTINUOUS
370
    -3
390
19130
  0
LAYER
  5
1915E
330
19123
100
AcDbSymbolTableRecord
100
AcDbLayerTableRecord
  2
AF-19
 70
     0
 62
     3
  6
CONTINUOUS
370
    -3
390
19130
  0
LAYER
  5
1915F
330
19123
100
AcDbSymbolTableRecord
100
AcDbLayerTableRecord
  2
CF-301
 70
     0
 62
     3
  6
CONTINUOUS
370
    -3
390
19130
  0
LAYER
  5
19160
330
19123
100
AcDbSymbolTableRecord
100
AcDbLayerTableRecord
  2
AF-21
 70
     0
 62
     3
  6
CONTINUOUS
370
    -3
390
19130
  0
LAYER
  5
19161
330
19123
100
AcDbSymbolTableRecord
100
AcDbLayerTableRecord
  2
AF-22
 70
     0
 62
     3
  6
CONTINUOUS
370
    -3
390
19130
  0
LAYER
  5
19162
330
19123
100
AcDbSymbolTableRecord
100
AcDbLayerTableRecord
  2
NJ-022
 70
     0
 62
     3
  6
CONTINUOUS
370
    -3
390
19130
  0
LAYER
  5
19163
330
19123
100
AcDbSymbolTableRecord
100
AcDbLayerTableRecord
  2
CF-202
 70
     0
 62
     3
  6
CONTINUOUS
370
    -3
390
19130
  0
LAYER
  5
19164
330
19123
100
AcDbSymbolTableRecord
100
AcDbLayerTableRecord
  2
CF-205
 70
     0
 62
     3
  6
CONTINUOUS
370
    -3
390
19130
  0
LAYER
  5
19165
330
19123
100
AcDbSymbolTableRecord
100
AcDbLayerTableRecord
  2
CF-504
 70
     0
 62
     3
  6
CONTINUOUS
370
    -3
390
19130
  0
LAYER
  5
19166
330
19123
100
AcDbSymbolTableRecord
100
AcDbLayerTableRecord
  2
YODOROGO
 70
     0
 62
   130
  6
CONTINUOUS
370
    -3
390
19130
  0
LAYER
  5
19167
330
19123
100
AcDbSymbolTableRecord
100
AcDbLayerTableRecord
  2
WAKUSEN-01
 70
     0
 62
    50
  6
CONTINUOUS
370
    -3
390
19130
  0
LAYER
  5
19168
330
19123
100
AcDbSymbolTableRecord
100
AcDbLayerTableRecord
  2
WAKUSEN-02
 70
     0
 62
   130
  6
CONTINUOUS
370
    -3
390
19130
  0
LAYER
  5
19169
330
19123
100
AcDbSymbolTableRecord
100
AcDbLayerTableRecord
  2
WAKUMOJI-01
 70
     0
 62
   130
  6
CONTINUOUS
370
    -3
390
19130
  0
ENDTAB
  0
TABLE
  2
STYLE
  5
19124
330
0
100
AcDbSymbolTable
 70
     6
  0
STYLE
  5
19132
330
19124
100
AcDbSymbolTableRecord
100
AcDbTextStyleTableRecord
  2
STANDARD
 70
     0
 40
3.0
 41
1.0
 50
0.0
 71
     0
 42
0.2
  3
ROMANS
  4
EXTFONT
  0
STYLE
  5
19144
330
19124
100
AcDbSymbolTableRecord
100
AcDbTextStyleTableRecord
  2
00
 70
     0
 40
0.0
 41
0.6666666666666666
 50
0.0
 71
     0
 42
0.2
  3
ROMANS
  4
BIGFONT
  0
STYLE
  5
1916A
330
19124
100
AcDbSymbolTableRecord
100
AcDbTextStyleTableRecord
  2
01
 70
     0
 40
3.0
 41
1.0
 50
0.0
 71
     0
 42
0.2
  3
ROMANS
  4
BIGFONT
  0
STYLE
  5
1916B
330
19124
100
AcDbSymbolTableRecord
100
AcDbTextStyleTableRecord
  2
02
 70
     0
 40
3.0
 41
1.0
 50
0.0
 71
     0
 42
2.5
  3
ROMANS
  4
EXTFONT
  0
STYLE
  5
1916C
330
19124
100
AcDbSymbolTableRecord
100
AcDbTextStyleTableRecord
  2
WAKUMOJI
 70
     0
 40
3.0
 41
1.0
 50
0.0
 71
     0
 42
3.0
  3
SIMPLEX
  4
BIGFONT
  0
STYLE
  5
1916D
330
19124
100
AcDbSymbolTableRecord
100
AcDbTextStyleTableRecord
  2
FILENAME
 70
     0
 40
100.0
 41
1.0
 50
0.0
 71
     0
 42
100.0
  3
romans
  4
bigfont
  0
ENDTAB
  0
TABLE
  2
VIEW
  5
19127
330
0
100
AcDbSymbolTable
 70
     0
  0
ENDTAB
  0
TABLE
  2
UCS
  5
19128
330
0
100
AcDbSymbolTable
 70
     0
  0
ENDTAB
  0
TABLE
  2
APPID
  5
1912A
330
0
100
AcDbSymbolTable
 70
     6
  0
APPID
  5
19133
330
1912A
100
AcDbSymbolTableRecord
100
AcDbRegAppTableRecord
  2
ACAD
 70
     0
  0
APPID
  5
1916E
330
1912A
100
AcDbSymbolTableRecord
100
AcDbRegAppTableRecord
  2
AUTOCAD_POSTSCRIPT_FIGURE
 70
     0
  0
APPID
  5
1916F
330
1912A
100
AcDbSymbolTableRecord
100
AcDbRegAppTableRecord
  2
ACAD_PSEXT
 70
     0
  0
APPID
  5
19170
330
1912A
100
AcDbSymbolTableRecord
100
AcDbRegAppTableRecord
  2
ACAD_EXEMPT_FROM_CAD_STANDARDS
 70
     0
  0
APPID
  5
19171
330
1912A
100
AcDbSymbolTableRecord
100
AcDbRegAppTableRecord
  2
ACAD_MLEADERVER
 70
     0
  0
APPID
  5
19172
330
1912A
100
AcDbSymbolTableRecord
100
AcDbRegAppTableRecord
  2
ACAD_NAV_VCDISPLAY
 70
     0
  0
ENDTAB
  0
TABLE
  2
DIMSTYLE
  5
1912B
330
0
100
AcDbSymbolTable
 70
     1
100
AcDbDimStyleTable
 71
     0
  0
DIMSTYLE
105
19173
330
1912B
100
AcDbSymbolTableRecord
100
AcDbDimStyleTableRecord
  2
SUNPOU_図面名
 70
     0
 40
30.0
 41
0.5
 42
1.0
 43
7.0
 44
1.5
 46
3.0
 73
     0
 74
     0
 77
     1
 78
     8
140
3.0
141
0.0
147
1.5
172
     1
173
     1
176
   256
177
   256
178
   256
271
     2
272
     2
279
     2
284
     8
285
     8
286
     8
340
19144
  0
ENDTAB
  0
TABLE
  2
BLOCK_RECORD
  5
19122
330
0
100
AcDbSymbolTable
 70
     3
  0
BLOCK_RECORD
  5
1913F
330
19122
100
AcDbSymbolTableRecord
100
AcDbBlockTableRecord
  2
*Model_Space
340
19142
  0
BLOCK_RECORD
  5
1913B
330
19122
100
AcDbSymbolTableRecord
100
AcDbBlockTableRecord
  2
*Paper_Space
340
1913E
  0
BLOCK_RECORD
  5
19178
330
19122
100
AcDbSymbolTableRecord
100
AcDbBlockTableRecord
  2
$MODEL_SPACE
340
0
  0
BLOCK_RECORD
  5
1917B
330
19122
100
AcDbSymbolTableRecord
100
AcDbBlockTableRecord
  2
$PAPER_SPACE
340
0
  0
BLOCK_RECORD
  5
1917E
330
19122
100
AcDbSymbolTableRecord
100
AcDbBlockTableRecord
  2
DOT
340
0
  0
ENDTAB
  0
ENDSEC
  0
SECTION
  2
BLOCKS
  0
BLOCK
  5
19140
330
1913F
100
AcDbEntity
  8
0
100
AcDbBlockBegin
  2
*Model_Space
 70
     0
 10
0.0
 20
0.0
 30
0.0
  3
*Model_Space
  1

  0
ENDBLK
  5
19141
330
1913F
100
AcDbEntity
  8
0
100
AcDbBlockEnd
  0
BLOCK
  5
1913C
330
1913B
100
AcDbEntity
 67
     1
  8
0
100
AcDbBlockBegin
  2
*Paper_Space
 70
     0
 10
0.0
 20
0.0
 30
0.0
  3
*Paper_Space
  1

  0
ENDBLK
  5
1913D
330
1913B
100
AcDbEntity
 67
     1
  8
0
100
AcDbBlockEnd
  0
BLOCK
  5
19179
330
19178
100
AcDbEntity
  8
0
100
AcDbBlockBegin
  2
$MODEL_SPACE
 70
     0
 10
0.0
 20
0.0
 30
0.0
  3
$MODEL_SPACE
  1

  0
ENDBLK
  5
1917A
330
19178
100
AcDbEntity
  8
0
100
AcDbBlockEnd
  0
BLOCK
  5
1917C
330
1917B
100
AcDbEntity
  8
0
100
AcDbBlockBegin
  2
$PAPER_SPACE
 70
     0
 10
0.0
 20
0.0
 30
0.0
  3
$PAPER_SPACE
  1

  0
ENDBLK
  5
1917D
330
1917B
100
AcDbEntity
  8
0
100
AcDbBlockEnd
  0
BLOCK
  5
1917F
330
1917E
100
AcDbEntity
  8
0
100
AcDbBlockBegin
  2
DOT
 70
     0
 10
0.0
 20
0.0
 30
0.0
  3
DOT
  1

  0
LWPOLYLINE
  5
19180
330
1917E
100
AcDbEntity
  8
0
  6
ByBlock
 62
     0
100
AcDbPolyline
 90
        2
 70
     1
 43
0.75
 10
-0.375
 20
0.0
 42
1.0
 10
0.375
 20
0.0
 42
1.0
  0
LINE
  5
19184
330
1917E
100
AcDbEntity
  8
0
  6
ByBlock
 62
     0
100
AcDbLine
 10
-0.75
 20
0.0
 30
0.0
 11
-1.5
 21
0.0
 31
0.0
  0
ENDBLK
  5
19185
330
1917E
100
AcDbEntity
  8
0
100
AcDbBlockEnd
  0
ENDSEC
  0
SECTION
  2
ENTITIES
  0
LINE
  5
19186
330
1913F
100
AcDbEntity
  8
KISO
100
AcDbLine
 10
12383.8509022893
 20
2554.546798568535
 30
0.0
 11
9843.850902289309
 21
2554.546798568535
 31
0.0
  0
LINE
  5
19187
330
1913F
100
AcDbEntity
  8
CF-101
100
AcDbLine
 10
11955.80090228931
 20
2584.546798568535
 30
0.0
 11
11955.80090228931
 21
4320.546798568534
 31
0.0
  0
LINE
  5
19188
330
1913F
100
AcDbEntity
  8
KISO
100
AcDbLine
 10
12233.8509022893
 20
2584.546798568535
 30
0.0
 11
9993.85090228931
 21
2584.546798568533
 31
0.0
  0
TEXT
  5
19189
330
1913F
100
AcDbEntity
  8
SUNPOU
100
AcDbText
 10
10042.25247225078
 20
2689.546798568532
 30
0.0
 40
90.0
  1
F.L
 41
0.6666666666666666
  7
00
 72
     4
 11
10110.82390082221
 21
2734.546798568532
 31
0.0
100
AcDbText
  0
LINE
  5
1918A
330
1913F
100
AcDbEntity
  8
SUNPOU
100
AcDbLine
 10
10162.78542504928
 20
2644.546798568532
 30
0.0
 11
10058.86237659515
 21
2644.546798568532
 31
0.0
  0
LINE
  5
1918B
330
1913F
100
AcDbEntity
  8
SUNPOU
100
AcDbLine
 10
10110.82390082221
 20
2554.546798568532
 30
0.0
 11
10162.78542504928
 21
2644.546798568532
 31
0.0
  0
LINE
  5
1918C
330
1913F
100
AcDbEntity
  8
KISO
100
AcDbLine
 10
9993.85090228931
 20
2554.546798568535
 30
0.0
 11
9993.85090228931
 21
2584.546798568533
 31
0.0
  0
LINE
  5
1918D
330
1913F
100
AcDbEntity
  8
SUNPOU
100
AcDbLine
 10
10058.86237659515
 20
2644.546798568532
 30
0.0
 11
10110.82390082221
 21
2554.546798568532
 31
0.0
  0
LINE
  5
1918E
330
1913F
100
AcDbEntity
  8
KISO
100
AcDbLine
 10
12233.8509022893
 20
2584.546798568535
 30
0.0
 11
12233.8509022893
 21
2554.546798568535
 31
0.0
  0
ARC
  5
1918F
330
1913F
100
AcDbEntity
  8
CF-301
100
AcDbCircle
 10
11729.99743343643
 20
4305.093257627301
 30
0.0
 40
320.0
100
AcDbArc
 50
359.999999999974
 51
85.39999999993245
  0
ARC
  5
19190
330
1913F
100
AcDbEntity
  8
CF-301
100
AcDbCircle
 10
11729.99743343643
 20
4305.093257627301
 30
0.0
 40
395.0
100
AcDbArc
 50
359.999999999974
 51
85.39999999993245
  0
ARC
  5
19191
330
1913F
100
AcDbEntity
  8
CF-101
100
AcDbCircle
 10
11749.90090228931
 20
4320.546798568535
 30
0.0
 40
295.0
100
AcDbArc
 50
1.748278110770162
 51
85.39999999993245
  0
ARC
  5
19192
330
1913F
100
AcDbEntity
  8
CF-101
100
AcDbCircle
 10
11749.90090228931
 20
4320.546798568535
 30
0.0
 40
205.9
100
AcDbArc
 50
0.0
 51
85.39999999993245
  0
LINE
  5
19193
330
1913F
100
AcDbEntity
  8
SUNPOU
100
AcDbLine
 10
10155.3509022893
 20
5106.590926579783
 30
0.0
 11
11985.3509022893
 21
5106.590926579783
 31
0.0
  0
LINE
  5
19194
330
1913F
100
AcDbEntity
  8
SUNPOU
100
AcDbLine
 10
10155.3509022893
 20
5316.590926579785
 30
0.0
 11
12125.3509022893
 21
5316.590926579785
 31
0.0
  0
LINE
  5
19195
330
1913F
100
AcDbEntity
  8
CF-301
100
AcDbLine
 10
10192.71180780239
 20
4749.814412081383
 30
0.0
 11
11755.66108922176
 21
4624.062498733294
 31
0.0
  0
LINE
  5
19196
330
1913F
100
AcDbEntity
  8
CF-301
100
AcDbLine
 10
10161.8459086242
 20
4827.54018816578
 30
0.0
 11
11761.67600854644
 21
4698.820914617511
 31
0.0
  0
LINE
  5
19197
330
1913F
100
AcDbEntity
  8
CF-102
100
AcDbLine
 10
11519.21269895153
 20
4545.672902876298
 30
0.0
 11
10193.49679060475
 21
4652.337472234054
 31
0.0
  0
LINE
  5
19198
330
1913F
100
AcDbEntity
  8
CF-102
100
AcDbLine
 10
10717.97075268126
 20
4699.527228577681
 30
0.0
 11
11118.67586182067
 21
4667.287260997365
 31
0.0
  0
LINE
  5
19199
330
1913F
100
AcDbEntity
  8
SUNPOU
100
AcDbLine
 10
10140.35090228931
 20
4864.546798568532
 30
0.0
 11
10140.35090228931
 21
5361.590926579782
 31
0.0
  0
LINE
  5
1919A
330
1913F
100
AcDbEntity
  8
CF-102
100
AcDbLine
 10
10285.36871943127
 20
4734.333561736527
 30
0.0
 11
10633.24454801249
 21
4706.344137145658
 31
0.0
  0
ARC
  5
1919B
330
1913F
100
AcDbEntity
  8
AF-21
100
AcDbCircle
 10
10192.53984886985
 20
4810.022139410405
 30
0.0
 40
60.0
100
AcDbArc
 50
175.3999999999843
 51
265.3999999999324
  0
ARC
  5
1919C
330
1913F
100
AcDbEntity
  8
AF-21
100
AcDbCircle
 10
10192.53984886985
 20
4810.022139410405
 30
0.0
 40
41.49999999999996
100
AcDbArc
 50
184.2498830984137
 51
256.550116901655
  0
ARC
  5
1919D
330
1913F
100
AcDbEntity
  8
AF-21
100
AcDbCircle
 10
10192.53984886985
 20
4810.022139410405
 30
0.0
 40
43.49999999999996
100
AcDbArc
 50
184.2498830984137
 51
256.550116901655
  0
ARC
  5
1919E
330
1913F
100
AcDbEntity
  8
AF-21
100
AcDbCircle
 10
10192.53984886985
 20
4810.022139410405
 30
0.0
 40
45.0
100
AcDbArc
 50
184.2498830984137
 51
256.550116901655
  0
ARC
  5
1919F
330
1913F
100
AcDbEntity
  8
AF-21
100
AcDbCircle
 10
10183.46865409242
 20
4772.091763386565
 30
0.0
 40
6.0
100
AcDbArc
 50
256.550116901655
 51
355.3999999999843
  0
CIRCLE
  5
191A0
330
1913F
100
AcDbEntity
  8
CF-301
100
AcDbCircle
 10
10199.09918337043
 20
4766.857047832724
 30
0.0
 40
2.5
  0
LINE
  5
191A1
330
1913F
100
AcDbEntity
  8
AF-21
100
AcDbLine
 10
10198.72672712708
 20
4824.572827965601
 30
0.0
 11
10192.71180780239
 21
4749.814412081383
 31
0.0
  0
LINE
  5
191A2
330
1913F
100
AcDbEntity
  8
CF-301
100
AcDbLine
 10
10198.72672712708
 20
4824.572827965601
 30
0.0
 11
10192.71180780239
 21
4749.814412081383
 31
0.0
  0
LINE
  5
191A3
330
1913F
100
AcDbEntity
  8
AF-19
100
AcDbLine
 10
10284.48733325289
 20
4723.378961862294
 30
0.0
 11
10202.95082099516
 21
4729.939233872415
 31
0.0
  0
LINE
  5
191A4
330
1913F
100
AcDbEntity
  8
AF-19
100
AcDbLine
 10
10284.35821298472
 20
4721.774147867979
 30
0.0
 11
10202.821700727
 21
4728.334419878101
 31
0.0
  0
ARC
  5
191A5
330
1913F
100
AcDbEntity
  8
AF-19
100
AcDbCircle
 10
10260.43394147158
 20
4757.617770416469
 30
0.0
 40
22.08217602588873
100
AcDbArc
 50
230.0433341117019
 51
288.5145131353776
  0
LINE
  5
191A6
330
1913F
100
AcDbEntity
  8
CF-102
100
AcDbLine
 10
10193.49679060475
 20
4652.337472234054
 30
0.0
 11
10200.64251476249
 21
4741.150470304503
 31
0.0
  0
LINE
  5
191A7
330
1913F
100
AcDbEntity
  8
AF-23
100
AcDbLine
 10
10200.67860427844
 20
4741.599020799809
 30
0.0
 11
10193.46070108881
 21
4651.888921738748
 31
0.0
  0
ARC
  5
191A8
330
1913F
100
AcDbEntity
  8
AF-23
100
AcDbCircle
 10
10261.86027978328
 20
4691.531041187885
 30
0.0
 40
80.0
100
AcDbArc
 50
141.9449884266721
 51
208.8550115733448
  0
LINE
  5
191A9
330
1913F
100
AcDbEntity
  8
AF-23
100
AcDbLine
 10
10193.46070108881
 20
4651.888921738748
 30
0.0
 11
10193.38407110686
 21
4651.895087240705
 31
0.0
  0
ARC
  5
191AA
330
1913F
100
AcDbEntity
  8
AF-23
100
AcDbCircle
 10
10193.54446895552
 20
4653.888644997618
 30
0.0
 40
2.0
100
AcDbArc
 50
208.8550115733448
 51
265.3999999999324
  0
LINE
  5
191AB
330
1913F
100
AcDbEntity
  8
AF-19
100
AcDbLine
 10
10204.47379856818
 20
4748.868064774302
 30
0.0
 11
10202.821700727
 21
4728.334419878101
 31
0.0
  0
LINE
  5
191AC
330
1913F
100
AcDbEntity
  8
AF-19
100
AcDbLine
 10
10199.7611285841
 20
4730.195870430269
 30
0.0
 11
10201.28410615712
 21
4749.124701332152
 31
0.0
  0
LINE
  5
191AD
330
1913F
100
AcDbEntity
  8
AF-21
100
AcDbLine
 10
10192.71180780239
 20
4749.814412081383
 30
0.0
 11
10187.72791341012
 21
4750.21540670303
 31
0.0
  0
LINE
  5
191AE
330
1913F
100
AcDbEntity
  8
AF-23
100
AcDbLine
 10
10200.67860427844
 20
4741.599020799809
 30
0.0
 11
10200.60197429648
 21
4741.605186301764
 31
0.0
  0
ARC
  5
191AF
330
1913F
100
AcDbEntity
  8
AF-23
100
AcDbCircle
 10
10200.44157644782
 20
4739.611628544849
 30
0.0
 40
2.0
100
AcDbArc
 50
85.39999999993245
 51
141.9449884266721
  0
LINE
  5
191B0
330
1913F
100
AcDbEntity
  8
AF-19
100
AcDbLine
 10
10219.83795001101
 20
4742.816383153308
 30
0.0
 11
10204.0888437314
 21
4744.083526157711
 31
0.0
  0
ARC
  5
191B1
330
1913F
100
AcDbEntity
  8
AF-19
100
AcDbCircle
 10
10226.24458733289
 20
4747.629424819661
 30
0.0
 40
8.013137453975742
100
AcDbArc
 50
216.9160233581432
 51
313.8839766418488
  0
LINE
  5
191B2
330
1913F
100
AcDbEntity
  8
AF-19
100
AcDbLine
 10
10246.25259029009
 20
4740.691111658588
 30
0.0
 11
10231.79929655248
 21
4741.85399606136
 31
0.0
  0
LINE
  5
191B3
330
1913F
100
AcDbEntity
  8
AF-19
100
AcDbLine
 10
10202.95082099516
 20
4729.939233872415
 30
0.0
 11
10199.7611285841
 21
4730.195870430269
 31
0.0
  0
LINE
  5
191B4
330
1913F
100
AcDbEntity
  8
AF-19
100
AcDbLine
 10
10272.97562276192
 20
4736.233594996582
 30
0.0
 11
10267.44602293304
 21
4736.678496035151
 31
0.0
  0
LINE
  5
191B5
330
1913F
100
AcDbEntity
  8
CF-102
100
AcDbLine
 10
10252.60613177729
 20
4736.969576950007
 30
0.0
 11
10264.85979860177
 21
4735.983670326532
 31
0.0
  0
ARC
  5
191B6
330
1913F
100
AcDbEntity
  8
AF-19
100
AcDbCircle
 10
10276.08353125571
 20
4743.619478603202
 30
0.0
 40
8.013137453975742
100
AcDbArc
 50
247.1791120194345
 51
313.8839766418488
  0
LINE
  5
191B7
330
1913F
100
AcDbEntity
  8
AF-19
100
AcDbLine
 10
10285.62535598912
 20
4737.523254147587
 30
0.0
 11
10284.35821298472
 21
4721.774147867979
 31
0.0
  0
LINE
  5
191B8
330
1913F
100
AcDbEntity
  8
AF-19
100
AcDbLine
 10
10285.62535598912
 20
4737.523254147587
 30
0.0
 11
10281.6382404753
 21
4737.844049844905
 31
0.0
  0
LINE
  5
191B9
330
1913F
100
AcDbEntity
  8
AF-21
100
AcDbLine
 10
10135.92965778434
 20
4829.625360198337
 30
0.0
 11
10198.72672712708
 21
4824.572827965601
 31
0.0
  0
LINE
  5
191BA
330
1913F
100
AcDbEntity
  8
AF-21
100
AcDbLine
 10
10153.72728467839
 20
4808.128766524821
 30
0.0
 11
10186.15818097748
 21
4805.519438564097
 31
0.0
  0
LINE
  5
191BB
330
1913F
100
AcDbEntity
  8
AF-21
100
AcDbLine
 10
10153.8475830649
 20
4809.623934842505
 30
0.0
 11
10186.27847936397
 21
4807.014606881781
 31
0.0
  0
LINE
  5
191BC
330
1913F
100
AcDbEntity
  8
AF-21
100
AcDbLine
 10
10154.00798091356
 20
4811.617492599419
 30
0.0
 11
10186.43887721264
 21
4809.008164638695
 31
0.0
  0
LINE
  5
191BD
330
1913F
100
AcDbEntity
  8
AF-21
100
AcDbLine
 10
10154.12827930004
 20
4813.112660917103
 30
0.0
 11
10186.55917559913
 21
4810.503332956376
 31
0.0
  0
ARC
  5
191BE
330
1913F
100
AcDbEntity
  8
AF-21
100
AcDbCircle
 10
10192.53984886985
 20
4810.022139410405
 30
0.0
 40
39.99999999999996
100
AcDbArc
 50
184.2498830984137
 51
256.550116901655
  0
ARC
  5
191BF
330
1913F
100
AcDbEntity
  8
AF-21
100
AcDbCircle
 10
10135.76925993568
 20
4827.631802441425
 30
0.0
 40
2.0
100
AcDbArc
 50
85.39999999993245
 51
175.3999999999843
  0
ARC
  5
191C0
330
1913F
100
AcDbEntity
  8
AF-21
100
AcDbCircle
 10
10153.64708575407
 20
4807.131987646366
 30
0.0
 40
4.5
100
AcDbArc
 50
85.39999999993245
 51
184.2498830984137
  0
ARC
  5
191C1
330
1913F
100
AcDbEntity
  8
AF-21
100
AcDbCircle
 10
10153.64708575407
 20
4807.131987646366
 30
0.0
 40
2.5
100
AcDbArc
 50
85.39999999993245
 51
184.2498830984137
  0
ARC
  5
191C2
330
1913F
100
AcDbEntity
  8
AF-21
100
AcDbCircle
 10
10153.64708575407
 20
4807.131987646366
 30
0.0
 40
1.0
100
AcDbArc
 50
85.39999999993245
 51
184.2498830984137
  0
ARC
  5
191C3
330
1913F
100
AcDbEntity
  8
AF-21
100
AcDbCircle
 10
10153.64708575407
 20
4807.131987646366
 30
0.0
 40
6.0
100
AcDbArc
 50
85.39999999993245
 51
184.2498830984137
  0
LINE
  5
191C4
330
1913F
100
AcDbEntity
  8
AF-21
100
AcDbLine
 10
10132.73311616249
 20
4814.834074870152
 30
0.0
 11
10133.77570217876
 21
4827.792200290081
 31
0.0
  0
ARC
  5
191C5
330
1913F
100
AcDbEntity
  8
AF-21
100
AcDbCircle
 10
10186.07798205314
 20
4804.52265968564
 30
0.0
 40
1.0
100
AcDbArc
 50
355.3999999999843
 51
85.39999999993245
  0
ARC
  5
191C6
330
1913F
100
AcDbEntity
  8
AF-21
100
AcDbCircle
 10
10186.07798205314
 20
4804.52265968564
 30
0.0
 40
6.0
100
AcDbArc
 50
355.3999999999843
 51
85.39999999993245
  0
ARC
  5
191C7
330
1913F
100
AcDbEntity
  8
AF-21
100
AcDbCircle
 10
10186.07798205314
 20
4804.52265968564
 30
0.0
 40
4.5
100
AcDbArc
 50
355.3999999999843
 51
85.39999999993245
  0
ARC
  5
191C8
330
1913F
100
AcDbEntity
  8
AF-21
100
AcDbCircle
 10
10186.07798205314
 20
4804.52265968564
 30
0.0
 40
2.5
100
AcDbArc
 50
355.3999999999843
 51
85.39999999993245
  0
CIRCLE
  5
191C9
330
1913F
100
AcDbEntity
  8
CF-301
100
AcDbCircle
 10
10202.3071403436
 20
4806.728202970973
 30
0.0
 40
2.5
  0
ARC
  5
191CA
330
1913F
100
AcDbEntity
  8
AF-21
100
AcDbCircle
 10
10183.46865409242
 20
4772.091763386565
 30
0.0
 40
1.0
100
AcDbArc
 50
256.550116901655
 51
355.3999999999843
  0
ARC
  5
191CB
330
1913F
100
AcDbEntity
  8
AF-21
100
AcDbCircle
 10
10183.46865409242
 20
4772.091763386565
 30
0.0
 40
4.5
100
AcDbArc
 50
256.550116901655
 51
355.3999999999843
  0
ARC
  5
191CC
330
1913F
100
AcDbEntity
  8
AF-21
100
AcDbCircle
 10
10183.46865409242
 20
4772.091763386565
 30
0.0
 40
2.5
100
AcDbArc
 50
256.550116901655
 51
355.3999999999843
  0
LINE
  5
191CD
330
1913F
100
AcDbEntity
  8
AF-21
100
AcDbLine
 10
10188.56992924929
 20
4804.322162374818
 30
0.0
 11
10185.96060128857
 21
4771.89126607574
 31
0.0
  0
LINE
  5
191CE
330
1913F
100
AcDbEntity
  8
AF-21
100
AcDbLine
 10
10190.5634870062
 20
4804.16176452616
 30
0.0
 11
10187.95415904548
 21
4771.730868227083
 31
0.0
  0
LINE
  5
191CF
330
1913F
100
AcDbEntity
  8
AF-21
100
AcDbLine
 10
10192.05865532389
 20
4804.041466139666
 30
0.0
 11
10189.44932736316
 21
4771.610569840588
 31
0.0
  0
LINE
  5
191D0
330
1913F
100
AcDbEntity
  8
AF-21
100
AcDbLine
 10
10187.0747609316
 20
4804.442460761311
 30
0.0
 11
10184.46543297088
 21
4772.011564462234
 31
0.0
  0
LINE
  5
191D1
330
1913F
100
AcDbEntity
  8
CF-201
100
AcDbLine
 10
10604.91654890082
 20
4709.626585367494
 30
0.0
 11
10625.64954957269
 21
4707.958447741449
 31
0.0
  0
LINE
  5
191D2
330
1913F
100
AcDbEntity
  8
CF-201
100
AcDbLine
 10
10605.04486717974
 20
4711.221431573024
 30
0.0
 11
10625.77786785163
 21
4709.553293946977
 31
0.0
  0
LINE
  5
191D3
330
1913F
100
AcDbEntity
  8
CF-201
100
AcDbLine
 10
10599.39759021254
 20
4717.093250955095
 30
0.0
 11
10599.32541118064
 21
4716.196149964487
 31
0.0
  0
LINE
  5
191D4
330
1913F
100
AcDbEntity
  8
CF-201
100
AcDbLine
 10
10600.99243641807
 20
4716.964932676169
 30
0.0
 11
10600.92025738616
 21
4716.067831685559
 31
0.0
  0
ARC
  5
191D5
330
1913F
100
AcDbEntity
  8
CF-201
100
AcDbCircle
 10
10605.40576233921
 20
4715.706936526076
 30
0.0
 40
6.099999999999997
100
AcDbArc
 50
175.3999999999843
 51
265.3999999999324
  0
ARC
  5
191D6
330
1913F
100
AcDbEntity
  8
CF-201
100
AcDbCircle
 10
10605.40576233921
 20
4715.706936526076
 30
0.0
 40
4.5
100
AcDbArc
 50
175.3999999999843
 51
265.3999999999324
  0
LINE
  5
191D7
330
1913F
100
AcDbEntity
  8
CF-501
100
AcDbLine
 10
10633.88613940712
 20
4714.318368173306
 30
0.0
 11
10632.35341276498
 21
4695.268367738604
 31
0.0
  0
LINE
  5
191D8
330
1913F
100
AcDbEntity
  8
CF-501
100
AcDbLine
 10
10637.07583181818
 20
4714.061731615453
 30
0.0
 11
10635.36266923597
 21
4692.769123371724
 31
0.0
  0
LINE
  5
191D9
330
1913F
100
AcDbEntity
  8
CF-501
100
AcDbLine
 10
10718.22738923912
 20
4702.71692098874
 30
0.0
 11
10716.89918149369
 21
4686.2088513616
 31
0.0
  0
LINE
  5
191DA
330
1913F
100
AcDbEntity
  8
CF-501
100
AcDbLine
 10
10716.89918149369
 20
4686.2088513616
 30
0.0
 11
10635.36266923597
 21
4692.769123371724
 31
0.0
  0
LINE
  5
191DB
330
1913F
100
AcDbEntity
  8
CF-501
100
AcDbLine
 10
10717.07961743376
 20
4688.451459170629
 30
0.0
 11
10632.35341276498
 21
4695.268367738604
 31
0.0
  0
ARC
  5
191DC
330
1913F
100
AcDbEntity
  8
AF-19
100
AcDbCircle
 10
10658.8466205829
 20
4712.823091660815
 30
0.0
 40
8.013137453975742
100
AcDbArc
 50
216.9160233581432
 51
313.8839766418488
  0
LINE
  5
191DD
330
1913F
100
AcDbEntity
  8
CF-201
100
AcDbLine
 10
10630.62426796416
 20
4713.677903740547
 30
0.0
 11
10630.69644699606
 21
4714.57500473116
 31
0.0
  0
LINE
  5
191DE
330
1913F
100
AcDbEntity
  8
CF-201
100
AcDbLine
 10
10632.21911416968
 20
4713.549585461623
 30
0.0
 11
10632.29129320159
 21
4714.446686452233
 31
0.0
  0
LINE
  5
191DF
330
1913F
100
AcDbEntity
  8
AF-19
100
AcDbLine
 10
10652.43998326101
 20
4708.010049994465
 30
0.0
 11
10636.6908769814
 21
4709.277192998864
 31
0.0
  0
ARC
  5
191E0
330
1913F
100
AcDbEntity
  8
CF-201
100
AcDbCircle
 10
10626.1387630111
 20
4714.03879890003
 30
0.0
 40
6.099999999999997
100
AcDbArc
 50
265.3999999999324
 51
355.3999999999843
  0
ARC
  5
191E1
330
1913F
100
AcDbEntity
  8
CF-201
100
AcDbCircle
 10
10626.1387630111
 20
4714.03879890003
 30
0.0
 40
4.5
100
AcDbArc
 50
265.3999999999324
 51
355.3999999999843
  0
ARC
  5
191E2
330
1913F
100
AcDbEntity
  8
AF-19
100
AcDbCircle
 10
10693.03597472157
 20
4722.811437257622
 30
0.0
 40
22.08217602588873
100
AcDbArc
 50
230.0433341117019
 51
288.5145131353776
  0
ARC
  5
191E3
330
1913F
100
AcDbEntity
  8
AF-19
100
AcDbCircle
 10
10708.68556450571
 20
4708.813145444358
 30
0.0
 40
8.013137453975742
100
AcDbArc
 50
247.1791120194345
 51
313.8839766418488
  0
LINE
  5
191E4
330
1913F
100
AcDbEntity
  8
AF-19
100
AcDbLine
 10
10718.22738923912
 20
4702.71692098874
 30
0.0
 11
10714.24027372529
 21
4703.037716686057
 31
0.0
  0
LINE
  5
191E5
330
1913F
100
AcDbEntity
  8
AF-19
100
AcDbLine
 10
10705.57765601193
 20
4701.427261837736
 30
0.0
 11
10700.04805618304
 21
4701.872162876303
 31
0.0
  0
LINE
  5
191E6
330
1913F
100
AcDbEntity
  8
CF-102
100
AcDbLine
 10
10685.2081650273
 20
4702.163243791161
 30
0.0
 11
10697.46183185178
 21
4701.177337167687
 31
0.0
  0
LINE
  5
191E7
330
1913F
100
AcDbEntity
  8
AF-19
100
AcDbLine
 10
10678.8546235401
 20
4705.884778499743
 30
0.0
 11
10664.40132980248
 21
4707.047662902514
 31
0.0
  0
LINE
  5
191E8
330
1913F
100
AcDbEntity
  8
CF-102
100
AcDbLine
 10
11203.40206648945
 20
4660.470352429388
 30
0.0
 11
11526.35842310927
 21
4634.485900946748
 31
0.0
  0
LINE
  5
191E9
330
1913F
100
AcDbEntity
  8
CF-201
100
AcDbLine
 10
11090.347862709
 20
4670.569709219203
 30
0.0
 11
11111.08086338089
 21
4668.901571593158
 31
0.0
  0
LINE
  5
191EA
330
1913F
100
AcDbEntity
  8
CF-201
100
AcDbLine
 10
11090.47618098792
 20
4672.164555424735
 30
0.0
 11
11111.2091816598
 21
4670.496417798687
 31
0.0
  0
LINE
  5
191EB
330
1913F
100
AcDbEntity
  8
CF-201
100
AcDbLine
 10
11084.82890402072
 20
4678.036374806803
 30
0.0
 11
11084.75672498882
 21
4677.139273816193
 31
0.0
  0
LINE
  5
191EC
330
1913F
100
AcDbEntity
  8
CF-201
100
AcDbLine
 10
11086.42375022624
 20
4677.908056527878
 30
0.0
 11
11086.35157119434
 21
4677.010955537268
 31
0.0
  0
ARC
  5
191ED
330
1913F
100
AcDbEntity
  8
CF-201
100
AcDbCircle
 10
11090.83707614741
 20
4676.650060377785
 30
0.0
 40
4.5
100
AcDbArc
 50
175.3999999999843
 51
265.3999999999324
  0
ARC
  5
191EE
330
1913F
100
AcDbEntity
  8
CF-201
100
AcDbCircle
 10
11090.83707614741
 20
4676.650060377785
 30
0.0
 40
6.099999999999997
100
AcDbArc
 50
175.3999999999843
 51
265.3999999999324
  0
LINE
  5
191EF
330
1913F
100
AcDbEntity
  8
AF-19
100
AcDbLine
 10
11164.28593734827
 20
4666.82790235145
 30
0.0
 11
11149.83264361067
 21
4667.990786754223
 31
0.0
  0
LINE
  5
191F0
330
1913F
100
AcDbEntity
  8
CF-501
100
AcDbLine
 10
11202.51093124195
 20
4649.394583022337
 30
0.0
 11
11117.78472657316
 21
4656.211491590313
 31
0.0
  0
LINE
  5
191F1
330
1913F
100
AcDbEntity
  8
CF-501
100
AcDbLine
 10
11202.33049530187
 20
4647.15197521331
 30
0.0
 11
11120.79398304415
 21
4653.712247223432
 31
0.0
  0
LINE
  5
191F2
330
1913F
100
AcDbEntity
  8
CF-501
100
AcDbLine
 10
11119.3174532153
 20
4675.261492025016
 30
0.0
 11
11117.78472657316
 21
4656.211491590313
 31
0.0
  0
LINE
  5
191F3
330
1913F
100
AcDbEntity
  8
CF-501
100
AcDbLine
 10
11122.50714562635
 20
4675.004855467161
 30
0.0
 11
11120.79398304415
 21
4653.712247223432
 31
0.0
  0
LINE
  5
191F4
330
1913F
100
AcDbEntity
  8
CF-201
100
AcDbLine
 10
11116.05558177235
 20
4674.621027592261
 30
0.0
 11
11116.12776080423
 21
4675.518128582869
 31
0.0
  0
LINE
  5
191F5
330
1913F
100
AcDbEntity
  8
CF-201
100
AcDbLine
 10
11117.65042797788
 20
4674.492709313332
 30
0.0
 11
11117.72260700978
 21
4675.389810303942
 31
0.0
  0
LINE
  5
191F6
330
1913F
100
AcDbEntity
  8
AF-19
100
AcDbLine
 10
11137.87129706918
 20
4668.953173846174
 30
0.0
 11
11122.12219078958
 21
4670.220316850573
 31
0.0
  0
ARC
  5
191F7
330
1913F
100
AcDbEntity
  8
CF-201
100
AcDbCircle
 10
11111.57007681928
 20
4674.981922751739
 30
0.0
 40
4.5
100
AcDbArc
 50
265.3999999999324
 51
355.3999999999843
  0
ARC
  5
191F8
330
1913F
100
AcDbEntity
  8
CF-201
100
AcDbCircle
 10
11111.57007681928
 20
4674.981922751739
 30
0.0
 40
6.099999999999997
100
AcDbArc
 50
265.3999999999324
 51
355.3999999999843
  0
ARC
  5
191F9
330
1913F
100
AcDbEntity
  8
AF-19
100
AcDbCircle
 10
11144.27793439108
 20
4673.766215512522
 30
0.0
 40
8.013137453975742
100
AcDbArc
 50
216.9160233581432
 51
313.8839766418488
  0
LINE
  5
191FA
330
1913F
100
AcDbEntity
  8
AF-19
100
AcDbLine
 10
11203.6587030473
 20
4663.660044840447
 30
0.0
 11
11199.67158753347
 21
4663.980840537766
 31
0.0
  0
LINE
  5
191FB
330
1913F
100
AcDbEntity
  8
AF-19
100
AcDbLine
 10
11191.00896982011
 20
4662.370385689444
 30
0.0
 11
11185.47936999122
 21
4662.815286728012
 31
0.0
  0
ARC
  5
191FC
330
1913F
100
AcDbEntity
  8
AF-19
100
AcDbCircle
 10
11194.11687831389
 20
4669.756269296067
 30
0.0
 40
8.013137453975742
100
AcDbArc
 50
247.1791120194345
 51
313.8839766418488
  0
LINE
  5
191FD
330
1913F
100
AcDbEntity
  8
CF-501
100
AcDbLine
 10
11203.6587030473
 20
4663.660044840447
 30
0.0
 11
11202.33049530187
 21
4647.15197521331
 31
0.0
  0
LINE
  5
191FE
330
1913F
100
AcDbEntity
  8
CF-102
100
AcDbLine
 10
11170.63947883548
 20
4663.10636764287
 30
0.0
 11
11182.89314565996
 21
4662.120461019394
 31
0.0
  0
ARC
  5
191FF
330
1913F
100
AcDbEntity
  8
AF-19
100
AcDbCircle
 10
11178.46728852975
 20
4683.754561109334
 30
0.0
 40
22.08217602588873
100
AcDbArc
 50
230.0433341117019
 51
288.5145131353776
  0
CIRCLE
  5
19200
330
1913F
100
AcDbEntity
  8
CF-102
100
AcDbCircle
 10
11502.84998346128
 20
4591.683380398106
 30
0.0
 40
6.0
  0
CIRCLE
  5
19201
330
1913F
100
AcDbEntity
  8
CF-101
100
AcDbCircle
 10
11542.72113859953
 20
4588.475423424938
 30
0.0
 40
6.0
  0
LINE
  5
19202
330
1913F
100
AcDbEntity
  8
CF-101
100
AcDbLine
 10
11526.35842310927
 20
4634.485900946748
 30
0.0
 11
11519.21269895153
 21
4545.672902876298
 31
0.0
  0
LINE
  5
19203
330
1913F
100
AcDbEntity
  8
CF-102
100
AcDbLine
 10
11526.35842310927
 20
4634.485900946748
 30
0.0
 11
11519.21269895153
 21
4545.672902876298
 31
0.0
  0
LINE
  5
19204
330
1913F
100
AcDbEntity
  8
CF-101
100
AcDbLine
 10
11766.41386080867
 20
4525.783569642674
 30
0.0
 11
11519.21269895153
 21
4545.672902876298
 31
0.0
  0
ARC
  5
19205
330
1913F
100
AcDbEntity
  8
CF-201
100
AcDbCircle
 10
11597.00139062747
 20
4635.92504660345
 30
0.0
 40
6.099999999999997
100
AcDbArc
 50
265.3999999999324
 51
355.3999999999843
  0
ARC
  5
19206
330
1913F
100
AcDbEntity
  8
CF-201
100
AcDbCircle
 10
11597.00139062747
 20
4635.92504660345
 30
0.0
 40
4.5
100
AcDbArc
 50
265.3999999999324
 51
355.3999999999843
  0
LINE
  5
19207
330
1913F
100
AcDbEntity
  8
CF-101
100
AcDbLine
 10
11604.10717562884
 20
4628.230384849074
 30
0.0
 11
11526.35842310927
 21
4634.485900946748
 31
0.0
  0
LINE
  5
19208
330
1913F
100
AcDbEntity
  8
CF-201
100
AcDbLine
 10
11571.85506403443
 20
4638.851180379586
 30
0.0
 11
11571.78288500253
 21
4637.954079388975
 31
0.0
  0
LINE
  5
19209
330
1913F
100
AcDbEntity
  8
CF-201
100
AcDbLine
 10
11570.26021782889
 20
4638.979498658513
 30
0.0
 11
11570.188038797
 21
4638.082397667903
 31
0.0
  0
ARC
  5
1920A
330
1913F
100
AcDbEntity
  8
CF-201
100
AcDbCircle
 10
11576.26838995559
 20
4637.593184229495
 30
0.0
 40
6.099999999999997
100
AcDbArc
 50
175.3999999999843
 51
265.3999999999324
  0
ARC
  5
1920B
330
1913F
100
AcDbEntity
  8
CF-201
100
AcDbCircle
 10
11576.26838995559
 20
4637.593184229495
 30
0.0
 40
4.5
100
AcDbArc
 50
175.3999999999843
 51
265.3999999999324
  0
LINE
  5
1920C
330
1913F
100
AcDbEntity
  8
CF-201
100
AcDbLine
 10
11575.77917651718
 20
4631.512833070914
 30
0.0
 11
11596.51217718907
 21
4629.844695444867
 31
0.0
  0
LINE
  5
1920D
330
1913F
100
AcDbEntity
  8
CF-201
100
AcDbLine
 10
11575.90749479611
 20
4633.107679276442
 30
0.0
 11
11596.640495468
 21
4631.439541650396
 31
0.0
  0
LINE
  5
1920E
330
1913F
100
AcDbEntity
  8
CF-101
100
AcDbLine
 10
11773.5595849664
 20
4614.596567713121
 30
0.0
 11
11688.83338029762
 21
4621.413476281097
 31
0.0
  0
LINE
  5
1920F
330
1913F
100
AcDbEntity
  8
AF-19
100
AcDbLine
 10
11649.71725115647
 20
4627.771026203158
 30
0.0
 11
11635.26395741885
 21
4628.933910605931
 31
0.0
  0
LINE
  5
19210
330
1913F
100
AcDbEntity
  8
CF-501
100
AcDbLine
 10
11687.76180911004
 20
4608.09509906502
 30
0.0
 11
11606.22529685233
 21
4614.655371075143
 31
0.0
  0
LINE
  5
19211
330
1913F
100
AcDbEntity
  8
CF-501
100
AcDbLine
 10
11687.94224505012
 20
4610.337706874045
 30
0.0
 11
11603.21604038135
 21
4617.154615442024
 31
0.0
  0
LINE
  5
19212
330
1913F
100
AcDbEntity
  8
CF-201
100
AcDbLine
 10
11601.48689558053
 20
4635.564151443969
 30
0.0
 11
11601.55907461243
 21
4636.461252434578
 31
0.0
  0
LINE
  5
19213
330
1913F
100
AcDbEntity
  8
CF-201
100
AcDbLine
 10
11603.08174178606
 20
4635.435833165042
 30
0.0
 11
11603.15392081795
 21
4636.332934155652
 31
0.0
  0
LINE
  5
19214
330
1913F
100
AcDbEntity
  8
CF-501
100
AcDbLine
 10
11604.74876702347
 20
4636.204615876725
 30
0.0
 11
11603.21604038135
 21
4617.154615442024
 31
0.0
  0
LINE
  5
19215
330
1913F
100
AcDbEntity
  8
CF-501
100
AcDbLine
 10
11607.93845943455
 20
4635.947979318871
 30
0.0
 11
11606.22529685233
 21
4614.655371075143
 31
0.0
  0
LINE
  5
19216
330
1913F
100
AcDbEntity
  8
AF-19
100
AcDbLine
 10
11623.30261087737
 20
4629.896297697881
 30
0.0
 11
11607.55350459776
 21
4631.163440702282
 31
0.0
  0
ARC
  5
19217
330
1913F
100
AcDbEntity
  8
AF-19
100
AcDbCircle
 10
11629.70924819926
 20
4634.70933936423
 30
0.0
 40
8.013137453975742
100
AcDbArc
 50
216.9160233581432
 51
313.8839766418488
  0
LINE
  5
19218
330
1913F
100
AcDbEntity
  8
CF-501
100
AcDbLine
 10
11689.09001685549
 20
4624.603168692156
 30
0.0
 11
11687.76180911004
 21
4608.09509906502
 31
0.0
  0
ARC
  5
19219
330
1913F
100
AcDbEntity
  8
AF-19
100
AcDbCircle
 10
11679.54819212208
 20
4630.699393147775
 30
0.0
 40
8.013137453975742
100
AcDbArc
 50
247.1791120194345
 51
313.8839766418488
  0
LINE
  5
1921A
330
1913F
100
AcDbEntity
  8
AF-19
100
AcDbLine
 10
11676.44028362829
 20
4623.313509541154
 30
0.0
 11
11670.9106837994
 21
4623.758410579722
 31
0.0
  0
LINE
  5
1921B
330
1913F
100
AcDbEntity
  8
AF-19
100
AcDbLine
 10
11689.09001685549
 20
4624.603168692156
 30
0.0
 11
11685.10290134166
 21
4624.923964389475
 31
0.0
  0
ARC
  5
1921C
330
1913F
100
AcDbEntity
  8
AF-19
100
AcDbCircle
 10
11663.89860233794
 20
4644.697684961042
 30
0.0
 40
22.08217602588873
100
AcDbArc
 50
230.0433341117019
 51
288.5145131353776
  0
LINE
  5
1921D
330
1913F
100
AcDbEntity
  8
CF-101
100
AcDbLine
 10
11668.32445946814
 20
4623.063584871102
 30
0.0
 11
11656.07079264367
 21
4624.049491494581
 31
0.0
  0
TEXT
  5
1921E
330
1913F
100
AcDbEntity
  8
SUNPOU
100
AcDbText
 10
10951.77947371787
 20
5151.590926579783
 30
0.0
 40
90.0
  1
1860
 41
0.6666666666666666
  7
00
 72
     1
 11
11070.3509022893
 21
5196.590926579783
 31
0.0
100
AcDbText
 73
     2
  0
TEXT
  5
1921F
330
1913F
100
AcDbEntity
  8
SUNPOU
100
AcDbText
 10
11026.06518800359
 20
5361.590926579784
 30
0.0
 40
90.0
  1
2000
 41
0.6666666666666666
  7
00
 72
     1
 11
11140.3509022893
 21
5406.590926579784
 31
0.0
100
AcDbText
 73
     2
  0
LINE
  5
19220
330
1913F
100
AcDbEntity
  8
CF-101
100
AcDbLine
 10
12044.90090228929
 20
2584.546798568535
 30
0.0
 11
12044.90090228931
 21
4244.546798568534
 31
0.0
  0
ARC
  5
19221
330
1913F
100
AcDbEntity
  8
AF-22
100
AcDbCircle
 10
12140.99780994557
 20
4250.093257627113
 30
0.0
 40
15.0
100
AcDbArc
 50
179.9999999999739
 51
270.0
  0
LINE
  5
19222
330
1913F
100
AcDbEntity
  8
AF-22
100
AcDbLine
 10
12116.9974334364
 20
4238.093257627124
 30
0.0
 11
12116.99743343641
 21
4250.093257627125
 31
0.0
  0
CIRCLE
  5
19223
330
1913F
100
AcDbEntity
  8
CF-301
100
AcDbCircle
 10
12107.4974334364
 20
4242.59325762713
 30
0.0
 40
2.5
  0
LINE
  5
19224
330
1913F
100
AcDbEntity
  8
CF-301
100
AcDbLine
 10
12116.99743343641
 20
4247.093257627125
 30
0.0
 11
12116.9974334364
 21
4238.093257627124
 31
0.0
  0
CIRCLE
  5
19225
330
1913F
100
AcDbEntity
  8
CF-301
100
AcDbCircle
 10
12067.4974334364
 20
4242.593257627148
 30
0.0
 40
2.5
  0
LINE
  5
19226
330
1913F
100
AcDbEntity
  8
CF-301
100
AcDbLine
 10
12049.99743343643
 20
4305.093257627156
 30
0.0
 11
12049.9974334364
 21
4235.093257627156
 31
0.0
  0
LINE
  5
19227
330
1913F
100
AcDbEntity
  8
AF-22
100
AcDbLine
 10
12143.99743343637
 20
4194.093257627112
 30
0.0
 11
12091.11875377994
 21
4194.093257627137
 31
0.0
  0
ARC
  5
19228
330
1913F
100
AcDbEntity
  8
AF-22
100
AcDbCircle
 10
12097.95327755911
 20
4212.593257627134
 30
0.0
 40
8.5
100
AcDbArc
 50
224.9999999998787
 51
270.0
  0
LINE
  5
19229
330
1913F
100
AcDbEntity
  8
AF-22
100
AcDbLine
 10
12094.41774365317
 20
4209.057723721204
 30
0.0
 11
12081.1499767002
 21
4222.325490674175
 31
0.0
  0
LINE
  5
1922A
330
1913F
100
AcDbEntity
  8
AF-22
100
AcDbLine
 10
12095.47840382495
 20
4210.118383892981
 30
0.0
 11
12082.21063687199
 21
4223.386150845954
 31
0.0
  0
LINE
  5
1922B
330
1913F
100
AcDbEntity
  8
AF-22
100
AcDbLine
 10
12093.0035300908
 20
4207.64351015883
 30
0.0
 11
12079.73576313784
 21
4220.911277111802
 31
0.0
  0
LINE
  5
1922C
330
1913F
100
AcDbEntity
  8
AF-22
100
AcDbLine
 10
12054.03296734232
 20
4235.093257627155
 30
0.0
 11
12113.9974334364
 21
4235.093257627126
 31
0.0
  0
LINE
  5
1922D
330
1913F
100
AcDbEntity
  8
AF-22
100
AcDbLine
 10
12129.99743343639
 20
4230.093257627117
 30
0.0
 11
12082.91774365318
 21
4230.093257627141
 31
0.0
  0
LINE
  5
1922E
330
1913F
100
AcDbEntity
  8
AF-22
100
AcDbLine
 10
12129.99743343639
 20
4228.593257627117
 30
0.0
 11
12082.91774365318
 21
4228.59325762714
 31
0.0
  0
LINE
  5
1922F
330
1913F
100
AcDbEntity
  8
AF-22
100
AcDbLine
 10
12129.99743343639
 20
4226.593257627119
 30
0.0
 11
12082.91774365318
 21
4226.593257627141
 31
0.0
  0
LINE
  5
19230
330
1913F
100
AcDbEntity
  8
AF-22
100
AcDbLine
 10
12129.99743343639
 20
4225.093257627118
 30
0.0
 11
12082.91774365318
 21
4225.093257627142
 31
0.0
  0
LINE
  5
19231
330
1913F
100
AcDbEntity
  8
CF-301
100
AcDbLine
 10
12049.9974334364
 20
4235.093257627156
 30
0.0
 11
12113.9974334364
 21
4235.093257627126
 31
0.0
  0
ARC
  5
19232
330
1913F
100
AcDbEntity
  8
AF-22
100
AcDbCircle
 10
12082.91774365318
 20
4224.09325762714
 30
0.0
 40
6.0
100
AcDbArc
 50
90.0
 51
224.9999999998787
  0
ARC
  5
19233
330
1913F
100
AcDbEntity
  8
AF-22
100
AcDbCircle
 10
12082.91774365318
 20
4224.09325762714
 30
0.0
 40
4.5
100
AcDbArc
 50
90.0
 51
224.9999999998787
  0
LINE
  5
19234
330
1913F
100
AcDbEntity
  8
AF-22
100
AcDbLine
 10
12089.70454021756
 20
4194.679044064764
 30
0.0
 11
12050.14388004581
 21
4234.239704236562
 31
0.0
  0
ARC
  5
19235
330
1913F
100
AcDbEntity
  8
AF-22
100
AcDbCircle
 10
12050.4974334364
 20
4234.593257627156
 30
0.0
 40
0.499999999999894
100
AcDbArc
 50
90.0
 51
224.9999999998787
  0
LINE
  5
19236
330
1913F
100
AcDbEntity
  8
AF-22
100
AcDbLine
 10
12054.03296734232
 20
4235.093257627155
 30
0.0
 11
12050.4974334364
 21
4235.093257627156
 31
0.0
  0
ARC
  5
19237
330
1913F
100
AcDbEntity
  8
AF-22
100
AcDbCircle
 10
12082.91774365318
 20
4224.09325762714
 30
0.0
 40
1.0
100
AcDbArc
 50
90.0
 51
224.9999999998787
  0
ARC
  5
19238
330
1913F
100
AcDbEntity
  8
AF-22
100
AcDbCircle
 10
12082.91774365318
 20
4224.09325762714
 30
0.0
 40
2.5
100
AcDbArc
 50
90.0
 51
224.9999999998787
  0
ARC
  5
19239
330
1913F
100
AcDbEntity
  8
AF-22
100
AcDbCircle
 10
12091.11875377994
 20
4196.093257627135
 30
0.0
 40
2.0
100
AcDbArc
 50
224.9999999998787
 51
270.0
  0
LINE
  5
1923A
330
1913F
100
AcDbEntity
  8
AF-22
100
AcDbLine
 10
12091.94286991902
 20
4206.58284998705
 30
0.0
 11
12078.67510296605
 21
4219.850616940021
 31
0.0
  0
LINE
  5
1923B
330
1913F
100
AcDbEntity
  8
TATEDOISIJIKANAGU
100
AcDbLine
 10
12141.05809360815
 20
4180.093257627125
 30
0.0
 11
12141.05809360815
 21
4168.093257627125
 31
0.0
  0
ARC
  5
1923C
330
1913F
100
AcDbEntity
  8
TATEDOISIJIKANAGU
100
AcDbCircle
 10
12140.55809360816
 20
4168.093257627125
 30
0.0
 40
0.5
100
AcDbArc
 50
270.0
 51
0.0
  0
LINE
  5
1923D
330
1913F
100
AcDbEntity
  8
TATEDOISIJIKANAGU
100
AcDbLine
 10
12139.05809360815
 20
4167.093257627125
 30
0.0
 11
12139.05809360815
 21
4160.945911588543
 31
0.0
  0
ARC
  5
1923E
330
1913F
100
AcDbEntity
  8
TATEDOISIJIKANAGU
100
AcDbCircle
 10
12139.55809360816
 20
4167.093257627125
 30
0.0
 40
0.5
100
AcDbArc
 50
90.0
 51
180.0
  0
LINE
  5
1923F
330
1913F
100
AcDbEntity
  8
TATEDOISIJIKANAGU
100
AcDbLine
 10
12094.05809360815
 20
4180.093257627125
 30
0.0
 11
12094.05809360815
 21
4168.093257627125
 31
0.0
  0
ARC
  5
19240
330
1913F
100
AcDbEntity
  8
TATEDOISIJIKANAGU
100
AcDbCircle
 10
12094.55809360815
 20
4168.093257627125
 30
0.0
 40
0.5
100
AcDbArc
 50
180.0
 51
270.0
  0
LINE
  5
19241
330
1913F
100
AcDbEntity
  8
TATEDOISIJIKANAGU
100
AcDbLine
 10
12096.05809360815
 20
4167.093257627125
 30
0.0
 11
12096.05809360815
 21
4160.945911588543
 31
0.0
  0
ARC
  5
19242
330
1913F
100
AcDbEntity
  8
TATEDOISIJIKANAGU
100
AcDbCircle
 10
12095.55809360815
 20
4167.093257627125
 30
0.0
 40
0.5
100
AcDbArc
 50
0.0
 51
90.0
  0
LINE
  5
19243
330
1913F
100
AcDbEntity
  8
TATEDOISIJIKANAGU
100
AcDbLine
 10
12094.55809360815
 20
4167.593257627125
 30
0.0
 11
12140.55809360816
 21
4167.593257627125
 31
0.0
  0
LINE
  5
19244
330
1913F
100
AcDbEntity
  8
TATEDOISIJIKANAGU
100
AcDbLine
 10
12094.55809360815
 20
4192.093257627125
 30
0.0
 11
12094.55809360815
 21
4180.593257627125
 31
0.0
  0
LINE
  5
19245
330
1913F
100
AcDbEntity
  8
TATEDOISIJIKANAGU
100
AcDbLine
 10
12140.55809360816
 20
4180.593257627125
 30
0.0
 11
12094.55809360815
 21
4180.593257627125
 31
0.0
  0
LINE
  5
19246
330
1913F
100
AcDbEntity
  8
TATEDOISIJIKANAGU
100
AcDbLine
 10
12094.55809360815
 20
4192.093257627125
 30
0.0
 11
12112.05809360816
 21
4192.093257627125
 31
0.0
  0
LINE
  5
19247
330
1913F
100
AcDbEntity
  8
TATEDOISIJIKANAGU
100
AcDbLine
 10
12112.05809360816
 20
4186.093257627125
 30
0.0
 11
12112.05809360816
 21
4192.093257627125
 31
0.0
  0
LINE
  5
19248
330
1913F
100
AcDbEntity
  8
TATEDOISIJIKANAGU
100
AcDbLine
 10
12123.05809360815
 20
4192.093257627125
 30
0.0
 11
12123.05809360815
 21
4186.093257627125
 31
0.0
  0
LINE
  5
19249
330
1913F
100
AcDbEntity
  8
TATEDOISIJIKANAGU
100
AcDbLine
 10
12123.05809360815
 20
4186.093257627125
 30
0.0
 11
12112.05809360816
 21
4186.093257627125
 31
0.0
  0
ARC
  5
1924A
330
1913F
100
AcDbEntity
  8
TATEDOISIJIKANAGU
100
AcDbCircle
 10
12094.55809360815
 20
4180.093257627125
 30
0.0
 40
0.5
100
AcDbArc
 50
90.0
 51
180.0
  0
ARC
  5
1924B
330
1913F
100
AcDbEntity
  8
TATEDOISIJIKANAGU
100
AcDbCircle
 10
12140.55809360816
 20
4180.093257627125
 30
0.0
 40
0.5
100
AcDbArc
 50
0.0
 51
90.0
  0
ARC
  5
1924C
330
1913F
100
AcDbEntity
  8
AF-22
100
AcDbCircle
 10
12129.99743343639
 20
4210.093257627119
 30
0.0
 40
6.0
100
AcDbArc
 50
270.0
 51
359.999999999974
  0
ARC
  5
1924D
330
1913F
100
AcDbEntity
  8
AF-22
100
AcDbCircle
 10
12129.99743343639
 20
4210.093257627119
 30
0.0
 40
4.5
100
AcDbArc
 50
270.0
 51
359.999999999974
  0
ARC
  5
1924E
330
1913F
100
AcDbEntity
  8
AF-22
100
AcDbCircle
 10
12129.99743343639
 20
4224.09325762712
 30
0.0
 40
6.0
100
AcDbArc
 50
359.999999999974
 51
90.0
  0
ARC
  5
1924F
330
1913F
100
AcDbEntity
  8
AF-22
100
AcDbCircle
 10
12129.99743343639
 20
4224.09325762712
 30
0.0
 40
4.5
100
AcDbArc
 50
359.999999999974
 51
90.0
  0
LINE
  5
19250
330
1913F
100
AcDbEntity
  8
AF-22
100
AcDbLine
 10
12132.49743343639
 20
4210.093257627119
 30
0.0
 11
12132.49743343639
 21
4224.093257627119
 31
0.0
  0
LINE
  5
19251
330
1913F
100
AcDbEntity
  8
AF-22
100
AcDbLine
 10
12130.99743343639
 20
4210.093257627119
 30
0.0
 11
12130.9974334364
 21
4224.093257627119
 31
0.0
  0
ARC
  5
19252
330
1913F
100
AcDbEntity
  8
AF-22
100
AcDbCircle
 10
12097.95327755911
 20
4212.593257627134
 30
0.0
 40
7.0
100
AcDbArc
 50
224.9999999998787
 51
270.0
  0
ARC
  5
19253
330
1913F
100
AcDbEntity
  8
AF-22
100
AcDbCircle
 10
12097.95327755911
 20
4212.593257627134
 30
0.0
 40
5.0
100
AcDbArc
 50
224.9999999998787
 51
270.0
  0
ARC
  5
19254
330
1913F
100
AcDbEntity
  8
AF-22
100
AcDbCircle
 10
12097.95327755911
 20
4212.593257627134
 30
0.0
 40
3.5
100
AcDbArc
 50
224.9999999998787
 51
270.0
  0
ARC
  5
19255
330
1913F
100
AcDbEntity
  8
AF-22
100
AcDbCircle
 10
12129.99743343639
 20
4210.093257627119
 30
0.0
 40
1.0
100
AcDbArc
 50
270.0
 51
359.999999999974
  0
ARC
  5
19256
330
1913F
100
AcDbEntity
  8
AF-22
100
AcDbCircle
 10
12129.99743343639
 20
4210.093257627119
 30
0.0
 40
2.5
100
AcDbArc
 50
270.0
 51
359.999999999974
  0
LINE
  5
19257
330
1913F
100
AcDbEntity
  8
AF-22
100
AcDbLine
 10
12129.99743343639
 20
4204.093257627119
 30
0.0
 11
12097.95327755909
 21
4204.093257627135
 31
0.0
  0
LINE
  5
19258
330
1913F
100
AcDbEntity
  8
AF-22
100
AcDbLine
 10
12129.99743343639
 20
4205.593257627119
 30
0.0
 11
12097.95327755909
 21
4205.593257627135
 31
0.0
  0
LINE
  5
19259
330
1913F
100
AcDbEntity
  8
AF-22
100
AcDbLine
 10
12129.99743343639
 20
4207.593257627119
 30
0.0
 11
12097.95327755909
 21
4207.593257627133
 31
0.0
  0
LINE
  5
1925A
330
1913F
100
AcDbEntity
  8
AF-22
100
AcDbLine
 10
12129.99743343639
 20
4209.093257627119
 30
0.0
 11
12097.95327755911
 21
4209.093257627134
 31
0.0
  0
ARC
  5
1925B
330
1913F
100
AcDbEntity
  8
AF-22
100
AcDbCircle
 10
12113.9974334364
 20
4238.093257627126
 30
0.0
 40
3.0
100
AcDbArc
 50
270.0
 51
359.999999999974
  0
ARC
  5
1925C
330
1913F
100
AcDbEntity
  8
AF-22
100
AcDbCircle
 10
12129.99743343639
 20
4224.09325762712
 30
0.0
 40
1.0
100
AcDbArc
 50
359.999999999974
 51
90.0
  0
ARC
  5
1925D
330
1913F
100
AcDbEntity
  8
AF-22
100
AcDbCircle
 10
12129.99743343639
 20
4224.09325762712
 30
0.0
 40
2.5
100
AcDbArc
 50
359.999999999974
 51
90.0
  0
ARC
  5
1925E
330
1913F
100
AcDbEntity
  8
CF-301
100
AcDbCircle
 10
12113.9974334364
 20
4238.093257627126
 30
0.0
 40
3.0
100
AcDbArc
 50
270.0
 51
359.999999999974
  0
LINE
  5
1925F
330
1913F
100
AcDbEntity
  8
AF-22
100
AcDbLine
 10
12145.99743343639
 20
4233.093257627111
 30
0.0
 11
12145.99743343637
 21
4196.093257627111
 31
0.0
  0
LINE
  5
19260
330
1913F
100
AcDbEntity
  8
AF-22
100
AcDbLine
 10
12135.9974334364
 20
4224.093257627116
 30
0.0
 11
12135.99743343639
 21
4210.093257627117
 31
0.0
  0
LINE
  5
19261
330
1913F
100
AcDbEntity
  8
AF-22
100
AcDbLine
 10
12134.49743343639
 20
4210.093257627117
 30
0.0
 11
12134.49743343639
 21
4224.093257627116
 31
0.0
  0
ARC
  5
19262
330
1913F
100
AcDbEntity
  8
AF-22
100
AcDbCircle
 10
12143.99743343637
 20
4196.093257627113
 30
0.0
 40
2.0
100
AcDbArc
 50
270.0
 51
359.999999999974
  0
LINE
  5
19263
330
1913F
100
AcDbEntity
  8
AF-22
100
AcDbLine
 10
12143.99743343639
 20
4235.093257627112
 30
0.0
 11
12140.99780994557
 21
4235.093257627113
 31
0.0
  0
ARC
  5
19264
330
1913F
100
AcDbEntity
  8
AF-22
100
AcDbCircle
 10
12143.99743343639
 20
4233.093257627113
 30
0.0
 40
2.0
100
AcDbArc
 50
359.999999999974
 51
90.0
  0
LINE
  5
19265
330
1913F
100
AcDbEntity
  8
SUNPOU
100
AcDbLine
 10
12000.3509022893
 20
4834.546798568534
 30
0.0
 11
12000.3509022893
 21
5151.590926579784
 31
0.0
  0
LINE
  5
19266
330
1913F
100
AcDbEntity
  8
SUNPOU
100
AcDbLine
 10
12140.3509022893
 20
4834.546798568535
 30
0.0
 11
12140.3509022893
 21
5361.590926579782
 31
0.0
  0
LINE
  5
19267
330
1913F
100
AcDbEntity
  8
AF-19
100
AcDbLine
 10
12033.91090228931
 20
4244.546798568535
 30
0.0
 11
12049.99743343641
 21
4244.546798568535
 31
0.0
  0
LINE
  5
19268
330
1913F
100
AcDbEntity
  8
AF-19
100
AcDbLine
 10
12049.99743343641
 20
4247.746798568534
 30
0.0
 11
12032.30090228931
 21
4247.746798568534
 31
0.0
  0
LINE
  5
19269
330
1913F
100
AcDbEntity
  8
AF-19
100
AcDbLine
 10
12048.1009022893
 20
4329.546798568535
 30
0.0
 11
12048.1009022893
 21
4325.546798568535
 31
0.0
  0
LINE
  5
1926A
330
1913F
100
AcDbEntity
  8
AF-19
100
AcDbLine
 10
12048.1009022893
 20
4329.546798568535
 30
0.0
 11
12032.30090228931
 21
4329.546798568535
 31
0.0
  0
ARC
  5
1926B
330
1913F
100
AcDbEntity
  8
AF-19
100
AcDbCircle
 10
12066.1103673323
 20
4302.824970069337
 30
0.0
 40
22.08217602588873
100
AcDbArc
 50
156.8854868646706
 51
215.3566658881422
  0
LINE
  5
1926C
330
1913F
100
AcDbEntity
  8
AF-19
100
AcDbLine
 10
12048.1009022893
 20
4290.046798568534
 30
0.0
 11
12048.1009022893
 21
4275.546798568536
 31
0.0
  0
LINE
  5
1926D
330
1913F
100
AcDbEntity
  8
AF-19
100
AcDbLine
 10
12033.91090228931
 20
4247.746798568534
 30
0.0
 11
12033.91090228931
 21
4244.546798568535
 31
0.0
  0
LINE
  5
1926E
330
1913F
100
AcDbEntity
  8
AF-19
100
AcDbLine
 10
12048.1009022893
 20
4263.546798568535
 30
0.0
 11
12048.1009022893
 21
4247.746798568534
 31
0.0
  0
ARC
  5
1926F
330
1913F
100
AcDbEntity
  8
AF-19
100
AcDbCircle
 10
12053.41224598525
 20
4269.546798568535
 30
0.0
 40
8.013137453975742
100
AcDbArc
 50
131.5160233580855
 51
228.4839766419143
  0
LINE
  5
19270
330
1913F
100
AcDbEntity
  8
AF-19
100
AcDbLine
 10
12045.8009022893
 20
4317.041240946224
 30
0.0
 11
12045.8009022893
 21
4311.493772045749
 31
0.0
  0
LINE
  5
19271
330
1913F
100
AcDbEntity
  8
AF-19
100
AcDbLine
 10
12033.91090228931
 20
4329.546798568532
 30
0.0
 11
12033.91090228931
 21
4247.746798568534
 31
0.0
  0
LINE
  5
19272
330
1913F
100
AcDbEntity
  8
AF-19
100
AcDbLine
 10
12032.30090228931
 20
4329.546798568535
 30
0.0
 11
12032.30090228931
 21
4247.746798568534
 31
0.0
  0
ARC
  5
19273
330
1913F
100
AcDbEntity
  8
AF-19
100
AcDbCircle
 10
12053.41224598525
 20
4319.546798568535
 30
0.0
 40
8.013137453975742
100
AcDbArc
 50
131.5160233580855
 51
198.2208879804396
  0
LINE
  5
19274
330
1913F
100
AcDbEntity
  8
AF-22
100
AcDbLine
 10
12125.99780994557
 20
4250.093257627121
 30
0.0
 11
12116.99743343641
 21
4250.093257627125
 31
0.0
  0
ARC
  5
19275
330
1913F
100
AcDbEntity
  8
CF-301
100
AcDbCircle
 10
12119.99743343641
 20
4247.093257627122
 30
0.0
 40
3.0
100
AcDbArc
 50
90.0
 51
179.9999999999739
  0
LINE
  5
19276
330
1913F
100
AcDbEntity
  8
CF-301
100
AcDbLine
 10
12119.99743343641
 20
4250.093257627124
 30
0.0
 11
12124.99743343641
 21
4250.093257627121
 31
0.0
  0
LINE
  5
19277
330
1913F
100
AcDbEntity
  8
CF-301
100
AcDbLine
 10
12124.99743343643
 20
4305.093257627123
 30
0.0
 11
12124.99743343641
 21
4250.093257627121
 31
0.0
  0
LINE
  5
19278
330
1913F
100
AcDbEntity
  8
SUNPOU
100
AcDbLine
 10
12145.00594164534
 20
5106.590926579783
 30
0.0
 11
12367.86308450247
 21
5106.590926579783
 31
0.0
  0
LINE
  5
19279
330
1913F
100
AcDbEntity
  8
SUNPOU
100
AcDbLine
 10
12015.35090228931
 20
5106.590926579783
 30
0.0
 11
12125.3509022893
 21
5106.590926579783
 31
0.0
  0
TEXT
  5
1927A
330
1913F
100
AcDbEntity
  8
SUNPOU
100
AcDbText
 10
12175.00594164534
 20
5151.590926579783
 30
0.0
 40
90.0
  1
140
 41
0.6666666666666666
  7
00
 72
     4
 11
12265.00594164534
 21
5196.590926579783
 31
0.0
100
AcDbText
  0
LINE
  5
1927B
330
1913F
100
AcDbEntity
  8
SUNPOU
100
AcDbLine
 10
10151.6009022893
 20
5106.590926579783
 30
0.0
 11
10162.8509022893
 21
5106.590926579783
 31
0.0
  0
LINE
  5
1927C
330
1913F
100
AcDbEntity
  8
SUNPOU
100
AcDbLine
 10
10151.6009022893
 20
5316.590926579785
 30
0.0
 11
10162.8509022893
 21
5316.590926579785
 31
0.0
  0
LINE
  5
1927D
330
1913F
100
AcDbEntity
  8
SUNPOU
100
AcDbLine
 10
12011.6009022893
 20
5106.590926579783
 30
0.0
 11
12022.8509022893
 21
5106.590926579783
 31
0.0
  0
LINE
  5
1927E
330
1913F
100
AcDbEntity
  8
SUNPOU
100
AcDbLine
 10
11989.1009022893
 20
5106.590926579783
 30
0.0
 11
11977.8509022893
 21
5106.590926579783
 31
0.0
  0
LINE
  5
1927F
330
1913F
100
AcDbEntity
  8
SUNPOU
100
AcDbLine
 10
12129.1009022893
 20
5106.590926579783
 30
0.0
 11
12117.8509022893
 21
5106.590926579783
 31
0.0
  0
LINE
  5
19280
330
1913F
100
AcDbEntity
  8
SUNPOU
100
AcDbLine
 10
12129.1009022893
 20
5316.590926579785
 30
0.0
 11
12117.8509022893
 21
5316.590926579785
 31
0.0
  0
TEXT
  5
19281
330
1913F
100
AcDbEntity
  8
HIKIDASHI
100
AcDbText
 10
10320.61786854589
 20
2120.776809996082
 30
0.0
 40
120.0
  1
側 面 立 面 図
  7
01
 72
     2
 11
11288.61786854589
 21
2120.776809996082
 31
0.0
100
AcDbText
  0
TEXT
  5
19282
330
1913F
100
AcDbEntity
  8
HIKIDASHI
100
AcDbText
 10
11559.32578448355
 20
2160.154729575247
 30
0.0
 40
80.0
  1
1
 41
0.6700000000000001
  7
00
100
AcDbText
  0
TEXT
  5
19283
330
1913F
100
AcDbEntity
  8
HIKIDASHI
100
AcDbText
 10
11592.46292234787
 20
2144.59325182705
 30
0.0
 40
80.0
  1
/
 41
0.6700000000000001
  7
00
100
AcDbText
  0
TEXT
  5
19284
330
1913F
100
AcDbEntity
  8
HIKIDASHI
100
AcDbText
 10
11760.18453317295
 20
2144.59325182705
 30
0.0
 40
80.0
  1
)
 41
0.6700000000000001
  7
00
100
AcDbText
  0
TEXT
  5
19285
330
1913F
100
AcDbEntity
  8
HIKIDASHI
100
AcDbText
 10
11378.61786854589
 20
2144.59325182705
 30
0.0
 40
80.0
  1
(S=
 41
0.6700000000000001
  7
00
100
AcDbText
  0
TEXT
  5
19286
330
1913F
100
AcDbEntity
  8
HIKIDASHI
100
AcDbText
 10
11638.7580771105
 20
2118.425420626774
 30
0.0
 40
80.0
  1
40
 41
0.6700000000000001
  7
00
100
AcDbText
  0
LINE
  5
19287
330
1913F
100
AcDbEntity
  8
HANAKAKUSI
100
AcDbLine
 10
4092.003547453696
 20
4759.546798568535
 30
0.0
 11
6508.003547453704
 21
4759.546798568535
 31
0.0
  0
LINE
  5
19288
330
1913F
100
AcDbEntity
  8
HANAKAKUSI
100
AcDbLine
 10
4077.003547453696
 20
4834.546798568533
 30
0.0
 11
6508.003547453704
 21
4834.54679856853
 31
0.0
  0
LINE
  5
19289
330
1913F
100
AcDbEntity
  8
KISO
100
AcDbLine
 10
3900.003547453696
 20
2584.546798568535
 30
0.0
 11
6700.003547453714
 21
2584.546798568533
 31
0.0
  0
LINE
  5
1928A
330
1913F
100
AcDbEntity
  8
KISO
100
AcDbLine
 10
6850.003547453714
 20
2554.546798568534
 30
0.0
 11
3750.003547453697
 21
2554.546798568535
 31
0.0
  0
LINE
  5
1928B
330
1913F
100
AcDbEntity
  8
HANAKAKUSI
100
AcDbLine
 10
6255.453547453705
 20
4174.546798568534
 30
0.0
 11
4344.553547453701
 21
4174.546798568536
 31
0.0
  0
LINE
  5
1928C
330
1913F
100
AcDbEntity
  8
HANAKAKUSI
100
AcDbLine
 10
6255.453547453705
 20
4209.546798568528
 30
0.0
 11
4344.553547453701
 21
4209.54679856853
 31
0.0
  0
LINE
  5
1928D
330
1913F
100
AcDbEntity
  8
HANAKAKUSI
100
AcDbLine
 10
6255.453547453705
 20
4239.546798568533
 30
0.0
 11
4344.553547453701
 21
4239.546798568535
 31
0.0
  0
LINE
  5
1928E
330
1913F
100
AcDbEntity
  8
CF-401
100
AcDbLine
 10
4246.980965518546
 20
4239.546798568532
 30
0.0
 11
4246.980965518546
 21
4759.546798568538
 31
0.0
  0
LINE
  5
1928F
330
1913F
100
AcDbEntity
  8
CF-401
100
AcDbLine
 10
4219.658884967008
 20
4759.546798568538
 30
0.0
 11
4219.658884967008
 21
4239.546798568532
 31
0.0
  0
CIRCLE
  5
19290
330
1913F
100
AcDbEntity
  8
KYAPU
100
AcDbCircle
 10
4300.003547453697
 20
4709.43549022967
 30
0.0
 40
45.0
  0
LINE
  5
19291
330
1913F
100
AcDbEntity
  8
CF-401
100
AcDbLine
 10
4396.930965518547
 20
4759.546798568535
 30
0.0
 11
4396.930965518547
 21
4239.546798568535
 31
0.0
  0
LINE
  5
19292
330
1913F
100
AcDbEntity
  8
CF-401
100
AcDbLine
 10
4380.28096551855
 20
4239.546798568532
 30
0.0
 11
4380.280965518548
 21
4759.546798568538
 31
0.0
  0
LINE
  5
19293
330
1913F
100
AcDbEntity
  8
CF-401
100
AcDbLine
 10
4352.958884967002
 20
4759.546798568538
 30
0.0
 11
4352.958884967002
 21
4239.546798568532
 31
0.0
  0
LINE
  5
19294
330
1913F
100
AcDbEntity
  8
CF-401
100
AcDbLine
 10
4113.68096551855
 20
4239.546798568532
 30
0.0
 11
4113.68096551855
 21
4759.546798568538
 31
0.0
  0
LINE
  5
19295
330
1913F
100
AcDbEntity
  8
CF-401
100
AcDbLine
 10
4130.33096551855
 20
4759.546798568535
 30
0.0
 11
4130.33096551855
 21
4239.546798568535
 31
0.0
  0
LINE
  5
19296
330
1913F
100
AcDbEntity
  8
CF-401
100
AcDbLine
 10
4203.008884967006
 20
4239.546798568535
 30
0.0
 11
4203.008884967008
 21
4759.546798568535
 31
0.0
  0
LINE
  5
19297
330
1913F
100
AcDbEntity
  8
KERABA
100
AcDbLine
 10
4078.003547453696
 20
4174.546798568534
 30
0.0
 11
4078.003547453696
 21
4759.331270140994
 31
0.0
  0
LINE
  5
19298
330
1913F
100
AcDbEntity
  8
KERABA
100
AcDbLine
 10
4062.003547453696
 20
4174.546798568534
 30
0.0
 11
4062.003547453696
 21
4828.804015093275
 31
0.0
  0
LINE
  5
19299
330
1913F
100
AcDbEntity
  8
CF-101
100
AcDbLine
 10
4344.553547453697
 20
2584.546798568535
 30
0.0
 11
4344.553547453697
 21
4709.43549022967
 31
0.0
  0
LINE
  5
1929A
330
1913F
100
AcDbEntity
  8
CF-101
100
AcDbLine
 10
4255.453547453695
 20
2584.546798568535
 30
0.0
 11
4255.453547453695
 21
4709.43549022967
 31
0.0
  0
LINE
  5
1929B
330
1913F
100
AcDbEntity
  8
1PL-L1
100
AcDbLine
 10
4300.003547453694
 20
2554.546798568535
 30
0.0
 11
4300.003547453697
 21
4909.546798568538
 31
0.0
  0
LINE
  5
1929C
330
1913F
100
AcDbEntity
  8
SUNPOU
100
AcDbLine
 10
3986.144700235864
 20
2674.546798568535
 30
0.0
 11
4038.106224462929
 21
2584.546798568535
 31
0.0
  0
LINE
  5
1929D
330
1913F
100
AcDbEntity
  8
SUNPOU
100
AcDbLine
 10
4038.106224462929
 20
2584.546798568535
 30
0.0
 11
4090.067748689995
 21
2674.546798568535
 31
0.0
  0
LINE
  5
1929E
330
1913F
100
AcDbEntity
  8
KISO
100
AcDbLine
 10
3900.003547453696
 20
2554.546798568535
 30
0.0
 11
3900.003547453696
 21
2584.546798568535
 31
0.0
  0
TEXT
  5
1929F
330
1913F
100
AcDbEntity
  8
SUNPOU
100
AcDbText
 10
3969.534795891501
 20
2719.546798568535
 30
0.0
 40
90.0
  1
F.L
 41
0.6666666666666666
  7
00
 72
     4
 11
4038.106224462929
 21
2764.546798568535
 31
0.0
100
AcDbText
  0
LINE
  5
192A0
330
1913F
100
AcDbEntity
  8
SUNPOU
100
AcDbLine
 10
4090.067748689995
 20
2674.546798568535
 30
0.0
 11
3986.144700235864
 21
2674.546798568535
 31
0.0
  0
LINE
  5
192A1
330
1913F
100
AcDbEntity
  8
HANAKAKUSI
100
AcDbLine
 10
4255.453547453699
 20
4209.54679856853
 30
0.0
 11
4078.003547453699
 21
4209.54679856853
 31
0.0
  0
LINE
  5
192A2
330
1913F
100
AcDbEntity
  8
HANAKAKUSI
100
AcDbLine
 10
4255.453547453699
 20
4239.546798568535
 30
0.0
 11
4078.003547453699
 21
4239.546798568535
 31
0.0
  0
LINE
  5
192A3
330
1913F
100
AcDbEntity
  8
HANAKAKUSI
100
AcDbLine
 10
4255.453547453699
 20
4174.546798568536
 30
0.0
 11
4078.003547453698
 21
4174.546798568536
 31
0.0
  0
LINE
  5
192A4
330
1913F
100
AcDbEntity
  8
HANAKAKUSI
100
AcDbLine
 10
4078.003547453699
 20
4239.546798568535
 30
0.0
 11
4078.003547453699
 21
4174.546798568536
 31
0.0
  0
LINE
  5
192A5
330
1913F
100
AcDbEntity
  8
HANAKAKUSI
100
AcDbLine
 10
4078.003547453701
 20
4239.546798568535
 30
0.0
 11
4078.003547453701
 21
4174.546798568536
 31
0.0
  0
LINE
  5
192A6
330
1913F
100
AcDbEntity
  8
KERABA
100
AcDbLine
 10
4078.003547453699
 20
4174.546798568536
 30
0.0
 11
4062.003547453696
 21
4174.546798568536
 31
0.0
  0
ARC
  5
192A7
330
1913F
100
AcDbEntity
  8
CF-101
100
AcDbCircle
 10
4300.003547453697
 20
4607.045274701264
 30
0.0
 40
45.0
100
AcDbArc
 50
180.0
 51
0.0
  0
LINE
  5
192A8
330
1913F
100
AcDbEntity
  8
KERABA
100
AcDbLine
 10
4092.003547453696
 20
4759.331270140994
 30
0.0
 11
4078.003547453696
 21
4759.331270140994
 31
0.0
  0
LINE
  5
192A9
330
1913F
100
AcDbEntity
  8
KERABA
100
AcDbLine
 10
4092.003547453696
 20
4759.331270140994
 30
0.0
 11
4092.003547453696
 21
4834.331270140997
 31
0.0
  0
LINE
  5
192AA
330
1913F
100
AcDbEntity
  8
KERABA
100
AcDbLine
 10
4092.003547453696
 20
4834.331270140997
 30
0.0
 11
4077.003547453698
 21
4834.331270140994
 31
0.0
  0
ARC
  5
192AB
330
1913F
100
AcDbEntity
  8
HANA_KONA
100
AcDbCircle
 10
4066.003547453695
 20
4758.517349027039
 30
0.0
 40
4.0
100
AcDbArc
 50
180.0
 51
270.0
  0
ARC
  5
192AC
330
1913F
100
AcDbEntity
  8
HANA_KONA
100
AcDbCircle
 10
4066.003547453695
 20
4830.546798568537
 30
0.0
 40
4.0
100
AcDbArc
 50
90.0
 51
180.0
  0
LINE
  5
192AD
330
1913F
100
AcDbEntity
  8
HANA_KONA
100
AcDbLine
 10
4066.003547453695
 20
4834.546798568533
 30
0.0
 11
4077.003547453695
 21
4834.546798568533
 31
0.0
  0
LINE
  5
192AE
330
1913F
100
AcDbEntity
  8
HANA_KONA
100
AcDbLine
 10
4062.003547453696
 20
4758.517349027039
 30
0.0
 11
4062.003547453696
 21
4830.546798568537
 31
0.0
  0
LINE
  5
192AF
330
1913F
100
AcDbEntity
  8
HANA_KONA
100
AcDbLine
 10
4077.003547453695
 20
4754.517349027039
 30
0.0
 11
4066.003547453695
 21
4754.517349027039
 31
0.0
  0
LINE
  5
192B0
330
1913F
100
AcDbEntity
  8
HANA_KONA
100
AcDbLine
 10
4077.003547453695
 20
4834.546798568533
 30
0.0
 11
4077.003547453695
 21
4754.517349027039
 31
0.0
  0
ARC
  5
192B1
330
1913F
100
AcDbEntity
  8
BOYA_KANAGU
100
AcDbCircle
 10
4300.003547453697
 20
4708.570104885916
 30
0.0
 40
47.29999999999999
100
AcDbArc
 50
44.37377466594072
 51
135.5729959991817
  0
ARC
  5
192B2
330
1913F
100
AcDbEntity
  8
BOYA_KANAGU
100
AcDbCircle
 10
4300.003547453697
 20
4708.570104885916
 30
0.0
 40
45.0
100
AcDbArc
 50
44.42700400079984
 51
135.5729959991817
  0
ARC
  5
192B3
330
1913F
100
AcDbEntity
  8
BOYA_KANAGU
100
AcDbCircle
 10
4246.22459098669
 20
4740.54016268408
 30
0.0
 40
20.0
100
AcDbArc
 50
3.177379699023918
 51
71.86610843670871
  0
LINE
  5
192B4
330
1913F
100
AcDbEntity
  8
BOYA_KANAGU
100
AcDbLine
 10
4267.867119525255
 20
4740.070104885914
 30
0.0
 11
4266.22459098669
 21
4741.680104885916
 31
0.0
  0
LINE
  5
192B5
330
1913F
100
AcDbEntity
  8
BOYA_KANAGU
100
AcDbLine
 10
4267.867119525255
 20
4740.070104885914
 30
0.0
 11
4266.22459098669
 21
4741.680104885916
 31
0.0
  0
ARC
  5
192B6
330
1913F
100
AcDbEntity
  8
BOYA_KANAGU
100
AcDbCircle
 10
4353.782503920706
 20
4740.54016268408
 30
0.0
 40
20.0
100
AcDbArc
 50
108.1338915632912
 51
176.8226203009759
  0
LINE
  5
192B7
330
1913F
100
AcDbEntity
  8
BOYA_KANAGU
100
AcDbLine
 10
4332.139975382141
 20
4740.070104885914
 30
0.0
 11
4333.782503920704
 21
4741.680104885916
 31
0.0
  0
LINE
  5
192B8
330
1913F
100
AcDbEntity
  8
1PL-M1
100
AcDbLine
 10
4300.003547453697
 20
4746.788743729045
 30
0.0
 11
4300.003547453697
 21
4762.312585461713
 31
0.0
  0
LINE
  5
192B9
330
1913F
100
AcDbEntity
  8
CF-401
100
AcDbLine
 10
6247.180965518547
 20
4239.546798568533
 30
0.0
 11
6247.180965518547
 21
4759.546798568537
 31
0.0
  0
LINE
  5
192BA
330
1913F
100
AcDbEntity
  8
CF-401
100
AcDbLine
 10
6219.858884967006
 20
4759.546798568537
 30
0.0
 11
6219.858884967006
 21
4239.546798568533
 31
0.0
  0
LINE
  5
192BB
330
1913F
100
AcDbEntity
  8
CF-401
100
AcDbLine
 10
6203.208884967001
 20
4239.546798568533
 30
0.0
 11
6203.208884967004
 21
4759.546798568535
 31
0.0
  0
CIRCLE
  5
192BC
330
1913F
100
AcDbEntity
  8
KYAPU
100
AcDbCircle
 10
6300.003547453703
 20
4709.435490229669
 30
0.0
 40
45.0
  0
LINE
  5
192BD
330
1913F
100
AcDbEntity
  8
1PL-L1
100
AcDbLine
 10
6300.0035474537
 20
2554.546798568534
 30
0.0
 11
6300.003547453703
 21
4909.546798568535
 31
0.0
  0
LINE
  5
192BE
330
1913F
100
AcDbEntity
  8
CF-101
100
AcDbLine
 10
6255.453547453702
 20
2584.546798568533
 30
0.0
 11
6255.453547453702
 21
4709.435490229669
 31
0.0
  0
LINE
  5
192BF
330
1913F
100
AcDbEntity
  8
CF-101
100
AcDbLine
 10
6344.553547453703
 20
2584.546798568533
 30
0.0
 11
6344.553547453703
 21
4709.435490229669
 31
0.0
  0
ARC
  5
192C0
330
1913F
100
AcDbEntity
  8
CF-101
100
AcDbCircle
 10
6300.003547453703
 20
4607.045274701262
 30
0.0
 40
45.0
100
AcDbArc
 50
180.0
 51
0.0
  0
ARC
  5
192C1
330
1913F
100
AcDbEntity
  8
BOYA_KANAGU
100
AcDbCircle
 10
6300.003547453703
 20
4708.570104885916
 30
0.0
 40
45.0
100
AcDbArc
 50
44.42700400079984
 51
135.5729959991817
  0
ARC
  5
192C2
330
1913F
100
AcDbEntity
  8
BOYA_KANAGU
100
AcDbCircle
 10
6300.003547453703
 20
4708.570104885916
 30
0.0
 40
47.29999999999999
100
AcDbArc
 50
44.37377466594072
 51
135.5729959991817
  0
ARC
  5
192C3
330
1913F
100
AcDbEntity
  8
BOYA_KANAGU
100
AcDbCircle
 10
6246.224590986697
 20
4740.54016268408
 30
0.0
 40
20.0
100
AcDbArc
 50
3.177379699023918
 51
71.86610843670871
  0
LINE
  5
192C4
330
1913F
100
AcDbEntity
  8
BOYA_KANAGU
100
AcDbLine
 10
6267.867119525261
 20
4740.070104885914
 30
0.0
 11
6266.224590986695
 21
4741.680104885913
 31
0.0
  0
LINE
  5
192C5
330
1913F
100
AcDbEntity
  8
BOYA_KANAGU
100
AcDbLine
 10
6267.867119525261
 20
4740.070104885914
 30
0.0
 11
6266.224590986695
 21
4741.680104885913
 31
0.0
  0
LINE
  5
192C6
330
1913F
100
AcDbEntity
  8
1PL-M1
100
AcDbLine
 10
6300.003547453703
 20
4746.788743729045
 30
0.0
 11
6300.003547453703
 21
4762.312585461713
 31
0.0
  0
LINE
  5
192C7
330
1913F
100
AcDbEntity
  8
BOYA_KANAGU
100
AcDbLine
 10
6332.139975382149
 20
4740.070104885914
 30
0.0
 11
6333.78250392071
 21
4741.680104885913
 31
0.0
  0
ARC
  5
192C8
330
1913F
100
AcDbEntity
  8
BOYA_KANAGU
100
AcDbCircle
 10
6353.782503920712
 20
4740.54016268408
 30
0.0
 40
20.0
100
AcDbArc
 50
108.1338915632912
 51
176.8226203009759
  0
LINE
  5
192C9
330
1913F
100
AcDbEntity
  8
1PL-L1
100
AcDbLine
 10
3882.003547453695
 20
9992.253322994079
 30
0.0
 11
6883.003547453704
 21
9992.253322994079
 31
0.0
  0
LINE
  5
192CA
330
1913F
100
AcDbEntity
  8
CF-205
100
AcDbLine
 10
4080.003547453702
 20
10132.30332299408
 30
0.0
 11
4809.856529369142
 21
10132.30332299407
 31
0.0
  0
LINE
  5
192CB
330
1913F
100
AcDbEntity
  8
CF-205
100
AcDbLine
 10
4080.003547453702
 20
10037.30332299408
 30
0.0
 11
4866.394056978962
 21
10037.30332299408
 31
0.0
  0
LINE
  5
192CC
330
1913F
100
AcDbEntity
  8
CF-205
100
AcDbLine
 10
4067.003547453702
 20
10091.30332299406
 30
0.0
 11
4834.256936021802
 21
10091.30332299406
 31
0.0
  0
LINE
  5
192CD
330
1913F
100
AcDbEntity
  8
CF-205
100
AcDbLine
 10
4080.003547453702
 20
10122.30332299407
 30
0.0
 11
4815.807848064911
 21
10122.30332299407
 31
0.0
  0
LINE
  5
192CE
330
1913F
100
AcDbEntity
  8
CF-202
100
AcDbLine
 10
4067.0035474537
 20
8206.353322994077
 30
0.0
 11
5956.050753581109
 21
8206.353322994077
 31
0.0
  0
LINE
  5
192CF
330
1913F
100
AcDbEntity
  8
CF-202
100
AcDbLine
 10
4067.0035474537
 20
8232.553322994077
 30
0.0
 11
5940.458298598191
 21
8232.553322994077
 31
0.0
  0
LINE
  5
192D0
330
1913F
100
AcDbEntity
  8
CF-202
100
AcDbLine
 10
4080.003547453698
 20
8160.753322994077
 30
0.0
 11
5983.188766833824
 21
8160.753322994077
 31
0.0
  0
LINE
  5
192D1
330
1913F
100
AcDbEntity
  8
CF-202
100
AcDbLine
 10
4080.003547453698
 20
8133.753322994079
 30
0.0
 11
5999.257327312404
 21
8133.753322994079
 31
0.0
  0
LINE
  5
192D2
330
1913F
100
AcDbEntity
  8
2PL-M1
100
AcDbLine
 10
4062.003547453698
 20
8199.753322994078
 30
0.0
 11
4062.003547453698
 21
10132.30332299408
 31
0.0
  0
LINE
  5
192D3
330
1913F
100
AcDbEntity
  8
1PL-M1
100
AcDbLine
 10
4300.003547453697
 20
10286.15332299408
 30
0.0
 11
4300.003547453697
 21
7981.353322994078
 31
0.0
  0
LINE
  5
192D4
330
1913F
100
AcDbEntity
  8
CF-102
100
AcDbLine
 10
4255.453547453699
 20
9127.753322994079
 30
0.0
 11
4255.453547453699
 21
9581.753322994078
 31
0.0
  0
LINE
  5
192D5
330
1913F
100
AcDbEntity
  8
CF-102
100
AcDbLine
 10
4344.5535474537
 20
9127.753322994079
 30
0.0
 11
4344.553547453697
 21
9581.753322994078
 31
0.0
  0
LINE
  5
192D6
330
1913F
100
AcDbEntity
  8
CF-102
100
AcDbLine
 10
4255.453547453699
 20
8640.753322994077
 30
0.0
 11
4255.453547453699
 21
9094.753322994073
 31
0.0
  0
LINE
  5
192D7
330
1913F
100
AcDbEntity
  8
CF-102
100
AcDbLine
 10
4344.553547453701
 20
8640.753322994077
 30
0.0
 11
4344.5535474537
 21
9094.753322994073
 31
0.0
  0
LINE
  5
192D8
330
1913F
100
AcDbEntity
  8
CF-202
100
AcDbLine
 10
4080.003547453698
 20
8133.753322994079
 30
0.0
 11
4080.003547453698
 21
8206.353322994077
 31
0.0
  0
LINE
  5
192D9
330
1913F
100
AcDbEntity
  8
CF-202
100
AcDbLine
 10
4067.0035474537
 20
8206.353322994077
 30
0.0
 11
4067.0035474537
 21
8232.553322994077
 31
0.0
  0
LINE
  5
192DA
330
1913F
100
AcDbEntity
  8
CF-102
100
AcDbLine
 10
4344.5535474537
 20
8232.553322994077
 30
0.0
 11
4344.5535474537
 21
8607.753322994078
 31
0.0
  0
LINE
  5
192DB
330
1913F
100
AcDbEntity
  8
CF-102
100
AcDbLine
 10
4255.453547453699
 20
8232.553322994077
 30
0.0
 11
4255.453547453699
 21
8607.753322994078
 31
0.0
  0
LINE
  5
192DC
330
1913F
100
AcDbEntity
  8
AF-19
100
AcDbLine
 10
4332.003547453697
 20
8292.553322994079
 30
0.0
 11
4332.003547453697
 21
8232.553322994077
 31
0.0
  0
LINE
  5
192DD
330
1913F
100
AcDbEntity
  8
AF-19
100
AcDbLine
 10
4268.003547453697
 20
8292.553322994079
 30
0.0
 11
4268.003547453697
 21
8232.553322994077
 31
0.0
  0
ARC
  5
192DE
330
1913F
100
AcDbEntity
  8
AF-19
100
AcDbCircle
 10
4300.003547453697
 20
8232.553322994077
 30
0.0
 40
6.0
100
AcDbArc
 50
0.0
 51
180.0
  0
LINE
  5
192DF
330
1913F
100
AcDbEntity
  8
AF-19
100
AcDbLine
 10
4268.003547453697
 20
8292.553322994079
 30
0.0
 11
4332.003547453697
 21
8292.553322994079
 31
0.0
  0
ARC
  5
192E0
330
1913F
100
AcDbEntity
  8
AF-19
100
AcDbCircle
 10
4300.003547453697
 20
8265.553322994078
 30
0.0
 40
12.5
100
AcDbArc
 50
118.6854020140905
 51
61.3145979859095
  0
ARC
  5
192E1
330
1913F
100
AcDbEntity
  8
AF-19
100
AcDbCircle
 10
4300.003547453697
 20
8282.553322994077
 30
0.0
 40
6.0
100
AcDbArc
 50
0.0
 51
180.0
  0
LINE
  5
192E2
330
1913F
100
AcDbEntity
  8
AF-19
100
AcDbLine
 10
4294.003547453698
 20
8282.553322994077
 30
0.0
 11
4294.003547453698
 21
8276.519179093808
 31
0.0
  0
LINE
  5
192E3
330
1913F
100
AcDbEntity
  8
AF-19
100
AcDbLine
 10
4306.003547453697
 20
8282.553322994077
 30
0.0
 11
4306.003547453697
 21
8276.519179093808
 31
0.0
  0
LINE
  5
192E4
330
1913F
100
AcDbEntity
  8
CF-501
100
AcDbLine
 10
4268.0035474537
 20
8727.353322994076
 30
0.0
 11
4332.0035474537
 21
8727.353322994076
 31
0.0
  0
ARC
  5
192E5
330
1913F
100
AcDbEntity
  8
CF-501
100
AcDbCircle
 10
4300.0035474537
 20
8700.353322994077
 30
0.0
 40
12.5
100
AcDbArc
 50
118.6854020140905
 51
61.3145979859095
  0
LINE
  5
192E6
330
1913F
100
AcDbEntity
  8
CF-501
100
AcDbLine
 10
4268.0035474537
 20
8727.353322994076
 30
0.0
 11
4268.0035474537
 21
8640.753322994077
 31
0.0
  0
ARC
  5
192E7
330
1913F
100
AcDbEntity
  8
CF-501
100
AcDbCircle
 10
4300.0035474537
 20
8717.353322994078
 30
0.0
 40
6.0
100
AcDbArc
 50
0.0
 51
180.0
  0
LINE
  5
192E8
330
1913F
100
AcDbEntity
  8
CF-501
100
AcDbLine
 10
4306.003547453697
 20
8717.353322994078
 30
0.0
 11
4306.003547453697
 21
8711.319179093806
 31
0.0
  0
LINE
  5
192E9
330
1913F
100
AcDbEntity
  8
CF-501
100
AcDbLine
 10
4294.003547453699
 20
8717.353322994078
 30
0.0
 11
4294.003547453699
 21
8711.319179093806
 31
0.0
  0
CIRCLE
  5
192EA
330
1913F
100
AcDbEntity
  8
CF-501
100
AcDbCircle
 10
4300.0035474537
 20
8667.353322994079
 30
0.0
 40
6.0
  0
LINE
  5
192EB
330
1913F
100
AcDbEntity
  8
CF-501
100
AcDbLine
 10
4332.0035474537
 20
8727.353322994076
 30
0.0
 11
4332.0035474537
 21
8640.753322994077
 31
0.0
  0
LINE
  5
192EC
330
1913F
100
AcDbEntity
  8
CF-501
100
AcDbLine
 10
4268.0035474537
 20
9214.353322994076
 30
0.0
 11
4332.0035474537
 21
9214.353322994076
 31
0.0
  0
ARC
  5
192ED
330
1913F
100
AcDbEntity
  8
CF-501
100
AcDbCircle
 10
4300.0035474537
 20
9187.353322994077
 30
0.0
 40
12.5
100
AcDbArc
 50
118.6854020140905
 51
61.3145979859095
  0
LINE
  5
192EE
330
1913F
100
AcDbEntity
  8
CF-501
100
AcDbLine
 10
4268.0035474537
 20
9214.353322994076
 30
0.0
 11
4268.0035474537
 21
9127.753322994079
 31
0.0
  0
CIRCLE
  5
192EF
330
1913F
100
AcDbEntity
  8
CF-501
100
AcDbCircle
 10
4300.0035474537
 20
9154.353322994076
 30
0.0
 40
6.0
  0
LINE
  5
192F0
330
1913F
100
AcDbEntity
  8
CF-501
100
AcDbLine
 10
4294.003547453699
 20
9204.353322994077
 30
0.0
 11
4294.003547453699
 21
9198.319179093809
 31
0.0
  0
LINE
  5
192F1
330
1913F
100
AcDbEntity
  8
CF-501
100
AcDbLine
 10
4306.003547453697
 20
9204.353322994077
 30
0.0
 11
4306.003547453697
 21
9198.319179093809
 31
0.0
  0
ARC
  5
192F2
330
1913F
100
AcDbEntity
  8
CF-501
100
AcDbCircle
 10
4300.0035474537
 20
9204.353322994077
 30
0.0
 40
6.0
100
AcDbArc
 50
0.0
 51
180.0
  0
LINE
  5
192F3
330
1913F
100
AcDbEntity
  8
CF-501
100
AcDbLine
 10
4332.0035474537
 20
9214.353322994076
 30
0.0
 11
4332.0035474537
 21
9127.753322994079
 31
0.0
  0
LINE
  5
192F4
330
1913F
100
AcDbEntity
  8
CF-205
100
AcDbLine
 10
4080.003547453702
 20
10132.30332299408
 30
0.0
 11
4080.003547453702
 21
10100.43211087285
 31
0.0
  0
LINE
  5
192F5
330
1913F
100
AcDbEntity
  8
CF-205
100
AcDbLine
 10
4080.003547453702
 20
10091.30332299406
 30
0.0
 11
4080.003547453702
 21
10037.30332299408
 31
0.0
  0
LINE
  5
192F6
330
1913F
100
AcDbEntity
  8
CF-102
100
AcDbLine
 10
4255.453547453699
 20
9614.753322994079
 30
0.0
 11
4255.453547453699
 21
9992.253322994079
 31
0.0
  0
LINE
  5
192F7
330
1913F
100
AcDbEntity
  8
CF-102
100
AcDbLine
 10
4344.553547453697
 20
9614.753322994079
 30
0.0
 11
4344.553547453697
 21
9992.253322994079
 31
0.0
  0
CIRCLE
  5
192F8
330
1913F
100
AcDbEntity
  8
CF-501
100
AcDbCircle
 10
4300.0035474537
 20
9641.353322994078
 30
0.0
 40
6.0
  0
LINE
  5
192F9
330
1913F
100
AcDbEntity
  8
CF-501
100
AcDbLine
 10
4268.0035474537
 20
9701.35332299408
 30
0.0
 11
4268.0035474537
 21
9614.753322994079
 31
0.0
  0
LINE
  5
192FA
330
1913F
100
AcDbEntity
  8
CF-501
100
AcDbLine
 10
4332.0035474537
 20
9701.35332299408
 30
0.0
 11
4332.0035474537
 21
9614.753322994079
 31
0.0
  0
LINE
  5
192FB
330
1913F
100
AcDbEntity
  8
CF-102
100
AcDbLine
 10
4255.453547453696
 20
9524.753322994078
 30
0.0
 11
4344.553547453697
 21
9524.753322994078
 31
0.0
  0
LINE
  5
192FC
330
1913F
100
AcDbEntity
  8
CF-501
100
AcDbLine
 10
4268.0035474537
 20
9701.35332299408
 30
0.0
 11
4332.0035474537
 21
9701.35332299408
 31
0.0
  0
ARC
  5
192FD
330
1913F
100
AcDbEntity
  8
CF-501
100
AcDbCircle
 10
4300.0035474537
 20
9674.353322994079
 30
0.0
 40
12.5
100
AcDbArc
 50
118.6854020140905
 51
61.3145979859095
  0
ARC
  5
192FE
330
1913F
100
AcDbEntity
  8
CF-501
100
AcDbCircle
 10
4300.0035474537
 20
9691.353322994078
 30
0.0
 40
6.0
100
AcDbArc
 50
0.0
 51
180.0
  0
LINE
  5
192FF
330
1913F
100
AcDbEntity
  8
CF-501
100
AcDbLine
 10
4306.003547453697
 20
9691.353322994078
 30
0.0
 11
4306.003547453697
 21
9685.319179093809
 31
0.0
  0
LINE
  5
19300
330
1913F
100
AcDbEntity
  8
CF-501
100
AcDbLine
 10
4294.003547453699
 20
9691.353322994078
 30
0.0
 11
4294.003547453699
 21
9685.319179093809
 31
0.0
  0
ARC
  5
19301
330
1913F
100
AcDbEntity
  8
CF-102
  6
KAKURE-05
100
AcDbCircle
 10
4300.003547453697
 20
9992.253322994079
 30
0.0
 40
44.54999999999927
100
AcDbArc
 50
180.0
 51
0.0
  0
LINE
  5
19302
330
1913F
100
AcDbEntity
  8
AF-19
  6
Continuous
100
AcDbLine
 10
4247.003547453699
 20
10086.80332299408
 30
0.0
 11
4353.003547453698
 21
10086.80332299408
 31
0.0
  0
ARC
  5
19303
330
1913F
100
AcDbEntity
  8
CF-102
  6
Continuous
100
AcDbCircle
 10
4300.003547453697
 20
9992.253322994079
 30
0.0
 40
44.54999999999927
100
AcDbArc
 50
0.0
 51
180.0
  0
ARC
  5
19304
330
1913F
100
AcDbEntity
  8
AF-19
  6
Continuous
100
AcDbCircle
 10
4300.003547453697
 20
9991.803322994076
 30
0.0
 40
45.0
100
AcDbArc
 50
44.42700400080904
 51
135.5729959991909
  0
ARC
  5
19305
330
1913F
100
AcDbEntity
  8
AF-19
  6
Continuous
100
AcDbCircle
 10
4300.003547453697
 20
9991.803322994076
 30
0.0
 40
47.29999999999999
100
AcDbArc
 50
44.42700400080904
 51
135.626225334058
  0
LINE
  5
19306
330
1913F
100
AcDbEntity
  8
AF-19
  6
Continuous
100
AcDbLine
 10
4267.867119525255
 20
10023.30332299407
 30
0.0
 11
4266.22459098669
 21
10024.91332299408
 31
0.0
  0
ARC
  5
19307
330
1913F
100
AcDbEntity
  8
AF-19
  6
Continuous
100
AcDbCircle
 10
4246.224590986691
 20
10023.77338079224
 30
0.0
 40
20.0
100
AcDbArc
 50
3.177379699023377
 51
87.97089779054866
  0
CIRCLE
  5
19308
330
1913F
100
AcDbEntity
  8
AF-19
  6
Continuous
100
AcDbCircle
 10
4265.003547453699
 20
10063.80332299408
 30
0.0
 40
6.0
  0
LINE
  5
19309
330
1913F
100
AcDbEntity
  8
AF-19
  6
Continuous
100
AcDbLine
 10
4245.003547453698
 20
10045.75958616794
 30
0.0
 11
4245.003547453698
 21
10084.80332299408
 31
0.0
  0
ARC
  5
1930A
330
1913F
100
AcDbEntity
  8
AF-19
  6
Continuous
100
AcDbCircle
 10
4247.003547453699
 20
10045.75958616794
 30
0.0
 40
2.0
100
AcDbArc
 50
180.0
 51
267.9708977905487
  0
ARC
  5
1930B
330
1913F
100
AcDbEntity
  8
AF-19
  6
Continuous
100
AcDbCircle
 10
4247.003547453699
 20
10084.80332299408
 30
0.0
 40
2.0
100
AcDbArc
 50
90.0
 51
180.0
  0
LINE
  5
1930C
330
1913F
100
AcDbEntity
  8
1PL-M1
100
AcDbLine
 10
4300.003547453697
 20
10030.0219618372
 30
0.0
 11
4300.003547453697
 21
10045.54580356987
 31
0.0
  0
ARC
  5
1930D
330
1913F
100
AcDbEntity
  8
AF-19
  6
Continuous
100
AcDbCircle
 10
4353.782503920705
 20
10023.77338079224
 30
0.0
 40
20.0
100
AcDbArc
 50
92.02910220945131
 51
176.8226203009766
  0
CIRCLE
  5
1930E
330
1913F
100
AcDbEntity
  8
AF-19
  6
Continuous
100
AcDbCircle
 10
4335.003547453697
 20
10063.80332299408
 30
0.0
 40
6.0
  0
LINE
  5
1930F
330
1913F
100
AcDbEntity
  8
AF-19
  6
Continuous
100
AcDbLine
 10
4332.139975382141
 20
10023.30332299407
 30
0.0
 11
4333.782503920707
 21
10024.91332299408
 31
0.0
  0
LINE
  5
19310
330
1913F
100
AcDbEntity
  8
AF-19
  6
Continuous
100
AcDbLine
 10
4332.139975382141
 20
10023.30332299407
 30
0.0
 11
4333.782503920707
 21
10024.91332299408
 31
0.0
  0
LINE
  5
19311
330
1913F
100
AcDbEntity
  8
AF-19
  6
Continuous
100
AcDbLine
 10
4355.003547453698
 20
10045.7704596018
 30
0.0
 11
4355.003547453698
 21
10084.80332299408
 31
0.0
  0
ARC
  5
19312
330
1913F
100
AcDbEntity
  8
AF-19
  6
Continuous
100
AcDbCircle
 10
4353.003547453698
 20
10045.75958616794
 30
0.0
 40
2.0
100
AcDbArc
 50
272.0291022094514
 51
0.0
  0
ARC
  5
19313
330
1913F
100
AcDbEntity
  8
AF-19
  6
Continuous
100
AcDbCircle
 10
4353.003547453698
 20
10084.80332299408
 30
0.0
 40
2.0
100
AcDbArc
 50
0.0
 51
90.0
  0
LINE
  5
19314
330
1913F
100
AcDbEntity
  8
CF-205
100
AcDbLine
 10
4815.807848064913
 20
10122.30332299407
 30
0.0
 11
6513.003547453704
 21
10122.30332299407
 31
0.0
  0
LINE
  5
19315
330
1913F
100
AcDbEntity
  8
CF-205
100
AcDbLine
 10
4809.85652936914
 20
10132.30332299408
 30
0.0
 11
6520.003547453703
 21
10132.30332299408
 31
0.0
  0
LINE
  5
19316
330
1913F
100
AcDbEntity
  8
CF-202
100
AcDbLine
 10
6520.003547453703
 20
8133.753322994079
 30
0.0
 11
5999.257327312404
 21
8133.753322994079
 31
0.0
  0
LINE
  5
19317
330
1913F
100
AcDbEntity
  8
CF-202
100
AcDbLine
 10
6520.003547453703
 20
8160.753322994077
 30
0.0
 11
5983.188766833824
 21
8160.753322994077
 31
0.0
  0
LINE
  5
19318
330
1913F
100
AcDbEntity
  8
CF-401
100
AcDbLine
 10
4869.676129388852
 20
10092.20332299407
 30
0.0
 11
4869.676129388852
 21
10031.7884571674
 31
0.0
  0
LINE
  5
19319
330
1913F
100
AcDbEntity
  8
CF-401
100
AcDbLine
 10
5269.676129388852
 20
10092.20332299407
 30
0.0
 11
5269.676129388854
 21
9359.668511239702
 31
0.0
  0
LINE
  5
1931A
330
1913F
100
AcDbEntity
  8
CF-401
100
AcDbLine
 10
4886.926129388854
 20
10107.80332299408
 30
0.0
 11
4886.926129388855
 21
10002.80328449927
 31
0.0
  0
LINE
  5
1931B
330
1913F
100
AcDbEntity
  8
CF-401
100
AcDbLine
 10
4913.748209940393
 20
9957.734146174354
 30
0.0
 11
4913.748209940393
 21
10107.80332299408
 31
0.0
  0
LINE
  5
1931C
330
1913F
100
AcDbEntity
  8
CF-401
100
AcDbLine
 10
4930.398209940393
 20
10092.20332299407
 30
0.0
 11
4930.398209940393
 21
9929.757153425114
 31
0.0
  0
LINE
  5
1931D
330
1913F
100
AcDbEntity
  8
CF-401
100
AcDbLine
 10
5063.698209940393
 20
9705.773181444705
 30
0.0
 11
5063.698209940394
 21
10092.20332299407
 31
0.0
  0
LINE
  5
1931E
330
1913F
100
AcDbEntity
  8
CF-401
100
AcDbLine
 10
5047.048209940392
 20
10107.80332299408
 30
0.0
 11
5047.048209940392
 21
9733.75017419395
 31
0.0
  0
LINE
  5
1931F
330
1913F
100
AcDbEntity
  8
CF-401
100
AcDbLine
 10
5019.726129388851
 20
9779.659462451284
 30
0.0
 11
5019.726129388851
 21
10107.80332299408
 31
0.0
  0
LINE
  5
19320
330
1913F
100
AcDbEntity
  8
CF-401
100
AcDbLine
 10
5003.07612938885
 20
10092.20332299407
 30
0.0
 11
5003.076129388854
 21
9807.636455200523
 31
0.0
  0
LINE
  5
19321
330
1913F
100
AcDbEntity
  8
CF-401
100
AcDbLine
 10
5136.376129388855
 20
10092.20332299407
 30
0.0
 11
5136.376129388855
 21
9583.652483220111
 31
0.0
  0
LINE
  5
19322
330
1913F
100
AcDbEntity
  8
CF-401
100
AcDbLine
 10
5153.02612938885
 20
9555.675490470877
 30
0.0
 11
5153.026129388848
 21
10107.80332299408
 31
0.0
  0
LINE
  5
19323
330
1913F
100
AcDbEntity
  8
CF-401
100
AcDbLine
 10
5180.348209940394
 20
10107.80332299408
 30
0.0
 11
5180.348209940394
 21
9509.766202213535
 31
0.0
  0
LINE
  5
19324
330
1913F
100
AcDbEntity
  8
CF-401
100
AcDbLine
 10
5196.998209940394
 20
9481.789209464295
 30
0.0
 11
5196.998209940393
 21
10092.20332299407
 31
0.0
  0
LINE
  5
19325
330
1913F
100
AcDbEntity
  8
CF-401
100
AcDbLine
 10
5286.926129388854
 20
10107.80332299408
 30
0.0
 11
5286.926129388854
 21
9330.683338571569
 31
0.0
  0
LINE
  5
19326
330
1913F
100
AcDbEntity
  8
CF-401
100
AcDbLine
 10
5313.748209940394
 20
9285.614200246644
 30
0.0
 11
5313.748209940393
 21
10107.80332299408
 31
0.0
  0
LINE
  5
19327
330
1913F
100
AcDbEntity
  8
CF-401
100
AcDbLine
 10
5330.398209940397
 20
10092.20332299407
 30
0.0
 11
5330.398209940398
 21
9257.637207497397
 31
0.0
  0
LINE
  5
19328
330
1913F
100
AcDbEntity
  8
CF-401
100
AcDbLine
 10
5669.67612938885
 20
10092.20332299407
 30
0.0
 11
5669.67612938885
 21
8687.548565312001
 31
0.0
  0
LINE
  5
19329
330
1913F
100
AcDbEntity
  8
CF-401
100
AcDbLine
 10
5463.698209940393
 20
9033.653235517002
 30
0.0
 11
5463.69820994039
 21
10092.20332299407
 31
0.0
  0
LINE
  5
1932A
330
1913F
100
AcDbEntity
  8
CF-401
100
AcDbLine
 10
5447.048209940394
 20
10107.80332299408
 30
0.0
 11
5447.048209940395
 21
9061.630228266235
 31
0.0
  0
LINE
  5
1932B
330
1913F
100
AcDbEntity
  8
CF-401
100
AcDbLine
 10
5419.726129388848
 20
9107.539516523578
 30
0.0
 11
5419.726129388848
 21
10107.80332299408
 31
0.0
  0
LINE
  5
1932C
330
1913F
100
AcDbEntity
  8
CF-401
100
AcDbLine
 10
5403.076129388853
 20
10092.20332299407
 30
0.0
 11
5403.076129388853
 21
9135.516509272813
 31
0.0
  0
LINE
  5
1932D
330
1913F
100
AcDbEntity
  8
CF-401
100
AcDbLine
 10
5536.376129388851
 20
10092.20332299407
 30
0.0
 11
5536.376129388851
 21
8911.532537292409
 31
0.0
  0
LINE
  5
1932E
330
1913F
100
AcDbEntity
  8
CF-401
100
AcDbLine
 10
5553.026129388853
 20
8883.55554454317
 30
0.0
 11
5553.026129388853
 21
10107.80332299408
 31
0.0
  0
LINE
  5
1932F
330
1913F
100
AcDbEntity
  8
CF-401
100
AcDbLine
 10
5580.348209940392
 20
10107.80332299408
 30
0.0
 11
5580.348209940392
 21
8837.646256285827
 31
0.0
  0
LINE
  5
19330
330
1913F
100
AcDbEntity
  8
CF-401
100
AcDbLine
 10
5596.998209940394
 20
8809.669263536582
 30
0.0
 11
5596.998209940397
 21
10092.20332299407
 31
0.0
  0
LINE
  5
19331
330
1913F
100
AcDbEntity
  8
CF-401
100
AcDbLine
 10
6069.676129388851
 20
10092.20332299407
 30
0.0
 11
6069.676129388851
 21
8160.753322994072
 31
0.0
  0
LINE
  5
19332
330
1913F
100
AcDbEntity
  8
CF-401
100
AcDbLine
 10
5686.926129388854
 20
10107.80332299408
 30
0.0
 11
5686.926129388854
 21
8658.563392643859
 31
0.0
  0
LINE
  5
19333
330
1913F
100
AcDbEntity
  8
CF-401
100
AcDbLine
 10
5713.748209940392
 20
8613.494254318945
 30
0.0
 11
5713.748209940392
 21
10107.80332299408
 31
0.0
  0
LINE
  5
19334
330
1913F
100
AcDbEntity
  8
CF-401
100
AcDbLine
 10
5730.398209940396
 20
10092.20332299407
 30
0.0
 11
5730.398209940396
 21
8585.517261569695
 31
0.0
  0
LINE
  5
19335
330
1913F
100
AcDbEntity
  8
CF-401
100
AcDbLine
 10
5863.698209940389
 20
8361.533289589294
 30
0.0
 11
5863.698209940389
 21
10092.20332299407
 31
0.0
  0
LINE
  5
19336
330
1913F
100
AcDbEntity
  8
CF-401
100
AcDbLine
 10
5847.048209940394
 20
10107.80332299408
 30
0.0
 11
5847.048209940394
 21
8389.51028233853
 31
0.0
  0
LINE
  5
19337
330
1913F
100
AcDbEntity
  8
CF-401
100
AcDbLine
 10
5819.726129388851
 20
8435.41957059587
 30
0.0
 11
5819.726129388851
 21
10107.80332299408
 31
0.0
  0
LINE
  5
19338
330
1913F
100
AcDbEntity
  8
CF-401
100
AcDbLine
 10
5803.076129388853
 20
10092.20332299407
 30
0.0
 11
5803.076129388853
 21
8463.396563345106
 31
0.0
  0
LINE
  5
19339
330
1913F
100
AcDbEntity
  8
CF-401
100
AcDbLine
 10
5936.37612938885
 20
10092.20332299407
 30
0.0
 11
5936.37612938885
 21
8239.412591364699
 31
0.0
  0
LINE
  5
1933A
330
1913F
100
AcDbEntity
  8
CF-401
100
AcDbLine
 10
5953.026129388852
 20
8211.435598615457
 30
0.0
 11
5953.026129388852
 21
10107.80332299408
 31
0.0
  0
LINE
  5
1933B
330
1913F
100
AcDbEntity
  8
CF-401
100
AcDbLine
 10
5980.348209940396
 20
10107.80332299408
 30
0.0
 11
5980.348209940396
 21
8165.526310358114
 31
0.0
  0
LINE
  5
1933C
330
1913F
100
AcDbEntity
  8
CF-401
100
AcDbLine
 10
5996.99820994039
 20
8160.753322994072
 30
0.0
 11
5996.998209940397
 21
10092.20332299407
 31
0.0
  0
LINE
  5
1933D
330
1913F
100
AcDbEntity
  8
CF-401
100
AcDbLine
 10
6086.926129388854
 20
10107.80332299408
 30
0.0
 11
6086.926129388854
 21
8160.753322994077
 31
0.0
  0
LINE
  5
1933E
330
1913F
100
AcDbEntity
  8
CF-401
100
AcDbLine
 10
6113.748209940395
 20
8160.753322994077
 30
0.0
 11
6113.748209940395
 21
10107.80332299408
 31
0.0
  0
LINE
  5
1933F
330
1913F
100
AcDbEntity
  8
CF-401
100
AcDbLine
 10
6130.398209940397
 20
10092.20332299407
 30
0.0
 11
6130.398209940397
 21
8160.753322994072
 31
0.0
  0
LINE
  5
19340
330
1913F
100
AcDbEntity
  8
SUNPOU
100
AcDbLine
 10
4900.003547453709
 20
8101.353322994077
 30
0.0
 11
4900.003547453709
 21
7576.353322994079
 31
0.0
  0
LINE
  5
19341
330
1913F
100
AcDbEntity
  8
SUNPOU
100
AcDbLine
 10
5300.003547453709
 20
8101.353322994077
 30
0.0
 11
5300.003547453709
 21
7576.353322994079
 31
0.0
  0
LINE
  5
19342
330
1913F
100
AcDbEntity
  8
SUNPOU
100
AcDbLine
 10
5700.003547453707
 20
8101.353322994077
 30
0.0
 11
5700.003547453707
 21
7576.353322994079
 31
0.0
  0
LINE
  5
19343
330
1913F
100
AcDbEntity
  8
SUNPOU
100
AcDbLine
 10
6100.003547453702
 20
8101.353322994077
 30
0.0
 11
6100.003547453702
 21
7576.353322994079
 31
0.0
  0
LINE
  5
19344
330
1913F
100
AcDbEntity
  8
SUNPOU
100
AcDbLine
 10
5285.003547453713
 20
7621.353322994076
 30
0.0
 11
4915.003547453709
 21
7621.353322994076
 31
0.0
  0
TEXT
  5
19345
330
1913F
100
AcDbEntity
  8
SUNPOU
100
AcDbText
 10
5014.289261739424
 20
7666.353322994076
 30
0.0
 40
90.0
  1
400
 41
0.6666666666666666
  7
00
 72
     1
 11
5100.003547453709
 21
7711.353322994077
 31
0.0
100
AcDbText
 73
     2
  0
LINE
  5
19346
330
1913F
100
AcDbEntity
  8
SUNPOU
100
AcDbLine
 10
5685.003547453714
 20
7621.353322994076
 30
0.0
 11
5315.003547453709
 21
7621.353322994076
 31
0.0
  0
TEXT
  5
19347
330
1913F
100
AcDbEntity
  8
SUNPOU
100
AcDbText
 10
5321.503547453708
 20
7816.353322994077
 30
0.0
 40
90.0
  1
屋根ピッチ
 41
0.7
  7
01
 72
     4
 11
5500.003547453708
 21
7861.353322994077
 31
0.0
100
AcDbText
  0
TEXT
  5
19348
330
1913F
100
AcDbEntity
  8
SUNPOU
100
AcDbText
 10
5414.289261739423
 20
7666.353322994076
 30
0.0
 40
90.0
  1
400
 41
0.6666666666666666
  7
00
 72
     1
 11
5500.003547453708
 21
7711.353322994077
 31
0.0
100
AcDbText
 73
     2
  0
TEXT
  5
19349
330
1913F
100
AcDbEntity
  8
SUNPOU
100
AcDbText
 10
5814.289261739423
 20
7666.353322994076
 30
0.0
 40
90.0
  1
400
 41
0.6666666666666666
  7
00
 72
     1
 11
5900.003547453708
 21
7711.353322994077
 31
0.0
100
AcDbText
 73
     2
  0
LINE
  5
1934A
330
1913F
100
AcDbEntity
  8
SUNPOU
100
AcDbLine
 10
6085.003547453704
 20
7621.353322994076
 30
0.0
 11
5715.003547453712
 21
7621.353322994076
 31
0.0
  0
ARC
  5
1934B
330
1913F
100
AcDbEntity
  8
CF-401
100
AcDbCircle
 10
6100.003547453702
 20
8219.053322994078
 30
0.0
 40
5.5
100
AcDbArc
 50
180.0
 51
0.0
  0
ARC
  5
1934C
330
1913F
100
AcDbEntity
  8
CF-401
100
AcDbCircle
 10
6100.003547453702
 20
8221.053322994078
 30
0.0
 40
5.5
100
AcDbArc
 50
0.0
 51
180.0
  0
LINE
  5
1934D
330
1913F
100
AcDbEntity
  8
CF-401
100
AcDbLine
 10
6094.503547453707
 20
8221.053322994078
 30
0.0
 11
6094.503547453707
 21
8219.053322994078
 31
0.0
  0
LINE
  5
1934E
330
1913F
100
AcDbEntity
  8
CF-401
100
AcDbLine
 10
6105.503547453704
 20
8219.053322994078
 30
0.0
 11
6105.503547453704
 21
8221.053322994078
 31
0.0
  0
LINE
  5
1934F
330
1913F
100
AcDbEntity
  8
CF-401
100
AcDbLine
 10
6105.503547453704
 20
8622.753322994078
 30
0.0
 11
6105.503547453704
 21
8624.753322994079
 31
0.0
  0
LINE
  5
19350
330
1913F
100
AcDbEntity
  8
CF-401
100
AcDbLine
 10
6094.503547453707
 20
8624.753322994079
 30
0.0
 11
6094.503547453707
 21
8622.753322994078
 31
0.0
  0
ARC
  5
19351
330
1913F
100
AcDbEntity
  8
CF-401
100
AcDbCircle
 10
6100.003547453702
 20
8624.753322994079
 30
0.0
 40
5.5
100
AcDbArc
 50
0.0
 51
180.0
  0
ARC
  5
19352
330
1913F
100
AcDbEntity
  8
CF-401
100
AcDbCircle
 10
6100.003547453702
 20
8622.753322994078
 30
0.0
 40
5.5
100
AcDbArc
 50
180.0
 51
0.0
  0
LINE
  5
19353
330
1913F
100
AcDbEntity
  8
CF-401
100
AcDbLine
 10
5705.503547453703
 20
9111.753322994079
 30
0.0
 11
5705.503547453703
 21
9109.753322994079
 31
0.0
  0
LINE
  5
19354
330
1913F
100
AcDbEntity
  8
CF-401
100
AcDbLine
 10
5694.503547453702
 20
9109.753322994079
 30
0.0
 11
5694.503547453702
 21
9111.753322994079
 31
0.0
  0
ARC
  5
19355
330
1913F
100
AcDbEntity
  8
CF-401
100
AcDbCircle
 10
5700.003547453704
 20
9109.753322994079
 30
0.0
 40
5.5
100
AcDbArc
 50
180.0
 51
0.0
  0
ARC
  5
19356
330
1913F
100
AcDbEntity
  8
CF-401
100
AcDbCircle
 10
5700.003547453704
 20
9111.753322994079
 30
0.0
 40
5.5
100
AcDbArc
 50
0.0
 51
180.0
  0
LINE
  5
19357
330
1913F
100
AcDbEntity
  8
CF-401
100
AcDbLine
 10
6105.503547453704
 20
9111.753322994079
 30
0.0
 11
6105.503547453704
 21
9109.753322994079
 31
0.0
  0
LINE
  5
19358
330
1913F
100
AcDbEntity
  8
CF-401
100
AcDbLine
 10
6094.503547453707
 20
9109.753322994079
 30
0.0
 11
6094.503547453707
 21
9111.753322994079
 31
0.0
  0
ARC
  5
19359
330
1913F
100
AcDbEntity
  8
CF-401
100
AcDbCircle
 10
6100.003547453702
 20
9109.753322994079
 30
0.0
 40
5.5
100
AcDbArc
 50
180.0
 51
0.0
  0
ARC
  5
1935A
330
1913F
100
AcDbEntity
  8
CF-401
100
AcDbCircle
 10
6100.003547453702
 20
9111.753322994079
 30
0.0
 40
5.5
100
AcDbArc
 50
0.0
 51
180.0
  0
LINE
  5
1935B
330
1913F
100
AcDbEntity
  8
CF-401
100
AcDbLine
 10
5580.348209940392
 20
10107.80332299408
 30
0.0
 11
5553.026129388853
 21
10107.80332299408
 31
0.0
  0
LINE
  5
1935C
330
1913F
100
AcDbEntity
  8
CF-401
100
AcDbLine
 10
5136.376129388855
 20
10092.20332299407
 30
0.0
 11
5063.698209940394
 21
10092.20332299407
 31
0.0
  0
LINE
  5
1935D
330
1913F
100
AcDbEntity
  8
CF-401
100
AcDbLine
 10
4833.721317339183
 20
10092.20332299407
 30
0.0
 11
4869.676129388852
 21
10092.20332299407
 31
0.0
  0
LINE
  5
1935E
330
1913F
100
AcDbEntity
  8
CF-401
100
AcDbLine
 10
4930.398209940393
 20
10092.20332299407
 30
0.0
 11
5003.07612938885
 21
10092.20332299407
 31
0.0
  0
LINE
  5
1935F
330
1913F
100
AcDbEntity
  8
CF-401
100
AcDbLine
 10
4930.398209940393
 20
10092.20332299407
 30
0.0
 11
4913.748209940392
 21
10107.80332299408
 31
0.0
  0
LINE
  5
19360
330
1913F
100
AcDbEntity
  8
CF-401
100
AcDbLine
 10
4869.676129388852
 20
10092.20332299407
 30
0.0
 11
4886.326129388852
 21
10107.80332299408
 31
0.0
  0
LINE
  5
19361
330
1913F
100
AcDbEntity
  8
CF-401
100
AcDbLine
 10
4913.748209940392
 20
10107.80332299408
 30
0.0
 11
4886.92612938885
 21
10107.80332299408
 31
0.0
  0
LINE
  5
19362
330
1913F
100
AcDbEntity
  8
CF-401
100
AcDbLine
 10
5063.698209940394
 20
10092.20332299407
 30
0.0
 11
5047.048209940392
 21
10107.80332299408
 31
0.0
  0
LINE
  5
19363
330
1913F
100
AcDbEntity
  8
CF-401
100
AcDbLine
 10
5003.07612938885
 20
10092.20332299407
 30
0.0
 11
5019.726129388851
 21
10107.80332299408
 31
0.0
  0
LINE
  5
19364
330
1913F
100
AcDbEntity
  8
CF-401
100
AcDbLine
 10
5019.726129388851
 20
10107.80332299408
 30
0.0
 11
5047.048209940392
 21
10107.80332299408
 31
0.0
  0
ARC
  5
19365
330
1913F
100
AcDbEntity
  8
CF-401
100
AcDbCircle
 10
5300.003547453703
 20
9598.753322994078
 30
0.0
 40
5.5
100
AcDbArc
 50
0.0
 51
180.0
  0
ARC
  5
19366
330
1913F
100
AcDbEntity
  8
CF-401
100
AcDbCircle
 10
5300.003547453703
 20
9596.753322994079
 30
0.0
 40
5.5
100
AcDbArc
 50
180.0
 51
0.0
  0
LINE
  5
19367
330
1913F
100
AcDbEntity
  8
CF-401
100
AcDbLine
 10
5294.503547453704
 20
9596.753322994079
 30
0.0
 11
5294.503547453704
 21
9598.753322994078
 31
0.0
  0
LINE
  5
19368
330
1913F
100
AcDbEntity
  8
CF-401
100
AcDbLine
 10
5305.503547453707
 20
9598.753322994078
 30
0.0
 11
5305.503547453707
 21
9596.753322994079
 31
0.0
  0
LINE
  5
19369
330
1913F
100
AcDbEntity
  8
CF-401
100
AcDbLine
 10
5330.398209940391
 20
10092.20332299407
 30
0.0
 11
5313.748209940392
 21
10107.80332299408
 31
0.0
  0
LINE
  5
1936A
330
1913F
100
AcDbEntity
  8
CF-401
100
AcDbLine
 10
5196.998209940393
 20
10092.20332299407
 30
0.0
 11
5269.676129388852
 21
10092.20332299407
 31
0.0
  0
LINE
  5
1936B
330
1913F
100
AcDbEntity
  8
CF-401
100
AcDbLine
 10
5136.376129388855
 20
10092.20332299407
 30
0.0
 11
5153.026129388848
 21
10107.80332299408
 31
0.0
  0
LINE
  5
1936C
330
1913F
100
AcDbEntity
  8
CF-401
100
AcDbLine
 10
5196.998209940393
 20
10092.20332299407
 30
0.0
 11
5180.348209940394
 21
10107.80332299408
 31
0.0
  0
LINE
  5
1936D
330
1913F
100
AcDbEntity
  8
CF-401
100
AcDbLine
 10
5180.348209940394
 20
10107.80332299408
 30
0.0
 11
5153.026129388848
 21
10107.80332299408
 31
0.0
  0
LINE
  5
1936E
330
1913F
100
AcDbEntity
  8
CF-401
100
AcDbLine
 10
5269.676129388852
 20
10092.20332299407
 30
0.0
 11
5286.326129388852
 21
10107.80332299408
 31
0.0
  0
LINE
  5
1936F
330
1913F
100
AcDbEntity
  8
CF-401
100
AcDbLine
 10
5313.748209940392
 20
10107.80332299408
 30
0.0
 11
5286.92612938885
 21
10107.80332299408
 31
0.0
  0
LINE
  5
19370
330
1913F
100
AcDbEntity
  8
CF-401
100
AcDbLine
 10
5419.726129388848
 20
10107.80332299408
 30
0.0
 11
5447.048209940394
 21
10107.80332299408
 31
0.0
  0
LINE
  5
19371
330
1913F
100
AcDbEntity
  8
CF-401
100
AcDbLine
 10
5330.398209940391
 20
10092.20332299407
 30
0.0
 11
5403.076129388853
 21
10092.20332299407
 31
0.0
  0
LINE
  5
19372
330
1913F
100
AcDbEntity
  8
CF-401
100
AcDbLine
 10
5403.076129388853
 20
10092.20332299407
 30
0.0
 11
5419.726129388848
 21
10107.80332299408
 31
0.0
  0
LINE
  5
19373
330
1913F
100
AcDbEntity
  8
CF-401
100
AcDbLine
 10
5536.376129388851
 20
10092.20332299407
 30
0.0
 11
5463.698209940396
 21
10092.20332299407
 31
0.0
  0
LINE
  5
19374
330
1913F
100
AcDbEntity
  8
CF-401
100
AcDbLine
 10
5463.698209940396
 20
10092.20332299407
 30
0.0
 11
5447.048209940394
 21
10107.80332299408
 31
0.0
  0
LINE
  5
19375
330
1913F
100
AcDbEntity
  8
CF-401
100
AcDbLine
 10
5536.376129388851
 20
10092.20332299407
 30
0.0
 11
5553.026129388853
 21
10107.80332299408
 31
0.0
  0
LINE
  5
19376
330
1913F
100
AcDbEntity
  8
CF-401
100
AcDbLine
 10
5996.998209940397
 20
10092.20332299407
 30
0.0
 11
6069.676129388851
 21
10092.20332299407
 31
0.0
  0
ARC
  5
19377
330
1913F
100
AcDbEntity
  8
CF-401
100
AcDbCircle
 10
5700.003547453704
 20
9598.753322994078
 30
0.0
 40
5.5
100
AcDbArc
 50
0.0
 51
180.0
  0
ARC
  5
19378
330
1913F
100
AcDbEntity
  8
CF-401
100
AcDbCircle
 10
5700.003547453704
 20
9596.753322994079
 30
0.0
 40
5.5
100
AcDbArc
 50
180.0
 51
0.0
  0
LINE
  5
19379
330
1913F
100
AcDbEntity
  8
CF-401
100
AcDbLine
 10
5694.503547453702
 20
9596.753322994079
 30
0.0
 11
5694.503547453702
 21
9598.753322994078
 31
0.0
  0
LINE
  5
1937A
330
1913F
100
AcDbEntity
  8
CF-401
100
AcDbLine
 10
5705.503547453703
 20
9598.753322994078
 30
0.0
 11
5705.503547453703
 21
9596.753322994079
 31
0.0
  0
LINE
  5
1937B
330
1913F
100
AcDbEntity
  8
CF-401
100
AcDbLine
 10
5803.076129388853
 20
10092.20332299407
 30
0.0
 11
5819.726129388851
 21
10107.80332299408
 31
0.0
  0
LINE
  5
1937C
330
1913F
100
AcDbEntity
  8
CF-401
100
AcDbLine
 10
5713.748209940392
 20
10107.80332299408
 30
0.0
 11
5686.926129388851
 21
10107.80332299408
 31
0.0
  0
LINE
  5
1937D
330
1913F
100
AcDbEntity
  8
CF-401
100
AcDbLine
 10
5596.998209940397
 20
10092.20332299407
 30
0.0
 11
5669.67612938885
 21
10092.20332299407
 31
0.0
  0
LINE
  5
1937E
330
1913F
100
AcDbEntity
  8
CF-401
100
AcDbLine
 10
5596.998209940397
 20
10092.20332299407
 30
0.0
 11
5580.348209940392
 21
10107.80332299408
 31
0.0
  0
LINE
  5
1937F
330
1913F
100
AcDbEntity
  8
CF-401
100
AcDbLine
 10
5669.67612938885
 20
10092.20332299407
 30
0.0
 11
5686.326129388852
 21
10107.80332299408
 31
0.0
  0
LINE
  5
19380
330
1913F
100
AcDbEntity
  8
CF-401
100
AcDbLine
 10
5730.39820994039
 20
10092.20332299407
 30
0.0
 11
5713.748209940392
 21
10107.80332299408
 31
0.0
  0
LINE
  5
19381
330
1913F
100
AcDbEntity
  8
CF-401
100
AcDbLine
 10
5730.39820994039
 20
10092.20332299407
 30
0.0
 11
5803.076129388853
 21
10092.20332299407
 31
0.0
  0
LINE
  5
19382
330
1913F
100
AcDbEntity
  8
CF-401
100
AcDbLine
 10
5936.37612938885
 20
10092.20332299407
 30
0.0
 11
5863.698209940396
 21
10092.20332299407
 31
0.0
  0
LINE
  5
19383
330
1913F
100
AcDbEntity
  8
CF-401
100
AcDbLine
 10
5819.726129388851
 20
10107.80332299408
 30
0.0
 11
5847.048209940394
 21
10107.80332299408
 31
0.0
  0
LINE
  5
19384
330
1913F
100
AcDbEntity
  8
CF-401
100
AcDbLine
 10
5863.698209940396
 20
10092.20332299407
 30
0.0
 11
5847.048209940394
 21
10107.80332299408
 31
0.0
  0
LINE
  5
19385
330
1913F
100
AcDbEntity
  8
CF-401
100
AcDbLine
 10
5980.348209940396
 20
10107.80332299408
 30
0.0
 11
5953.026129388852
 21
10107.80332299408
 31
0.0
  0
LINE
  5
19386
330
1913F
100
AcDbEntity
  8
CF-401
100
AcDbLine
 10
5936.37612938885
 20
10092.20332299407
 30
0.0
 11
5953.026129388852
 21
10107.80332299408
 31
0.0
  0
LINE
  5
19387
330
1913F
100
AcDbEntity
  8
CF-401
100
AcDbLine
 10
5996.998209940397
 20
10092.20332299407
 30
0.0
 11
5980.348209940396
 21
10107.80332299408
 31
0.0
  0
LINE
  5
19388
330
1913F
100
AcDbEntity
  8
CF-401
100
AcDbLine
 10
6105.503547453704
 20
9598.753322994078
 30
0.0
 11
6105.503547453704
 21
9596.753322994079
 31
0.0
  0
LINE
  5
19389
330
1913F
100
AcDbEntity
  8
CF-401
100
AcDbLine
 10
6094.503547453707
 20
9596.753322994079
 30
0.0
 11
6094.503547453707
 21
9598.753322994078
 31
0.0
  0
ARC
  5
1938A
330
1913F
100
AcDbEntity
  8
CF-401
100
AcDbCircle
 10
6100.003547453702
 20
9598.753322994078
 30
0.0
 40
5.5
100
AcDbArc
 50
0.0
 51
180.0
  0
ARC
  5
1938B
330
1913F
100
AcDbEntity
  8
CF-401
100
AcDbCircle
 10
6100.003547453702
 20
9596.753322994079
 30
0.0
 40
5.5
100
AcDbArc
 50
180.0
 51
0.0
  0
LINE
  5
1938C
330
1913F
100
AcDbEntity
  8
CF-401
100
AcDbLine
 10
6130.39820994039
 20
10092.20332299407
 30
0.0
 11
6203.076129388851
 21
10092.20332299407
 31
0.0
  0
LINE
  5
1938D
330
1913F
100
AcDbEntity
  8
CF-401
100
AcDbLine
 10
6113.748209940392
 20
10107.80332299408
 30
0.0
 11
6086.92612938885
 21
10107.80332299408
 31
0.0
  0
LINE
  5
1938E
330
1913F
100
AcDbEntity
  8
CF-401
100
AcDbLine
 10
6069.676129388851
 20
10092.20332299407
 30
0.0
 11
6086.326129388853
 21
10107.80332299408
 31
0.0
  0
LINE
  5
1938F
330
1913F
100
AcDbEntity
  8
CF-401
100
AcDbLine
 10
6130.39820994039
 20
10092.20332299407
 30
0.0
 11
6113.748209940392
 21
10107.80332299408
 31
0.0
  0
LINE
  5
19390
330
1913F
100
AcDbEntity
  8
CF-401
100
AcDbLine
 10
6263.698209940392
 20
8160.753322994072
 30
0.0
 11
6263.698209940392
 21
10092.20332299407
 31
0.0
  0
LINE
  5
19391
330
1913F
100
AcDbEntity
  8
CF-401
100
AcDbLine
 10
6247.048209940391
 20
10107.80332299408
 30
0.0
 11
6247.048209940391
 21
8160.753322994077
 31
0.0
  0
LINE
  5
19392
330
1913F
100
AcDbEntity
  8
CF-401
100
AcDbLine
 10
6219.726129388853
 20
8160.753322994077
 30
0.0
 11
6219.726129388853
 21
10107.80332299408
 31
0.0
  0
LINE
  5
19393
330
1913F
100
AcDbEntity
  8
CF-401
100
AcDbLine
 10
6203.076129388851
 20
10092.20332299407
 30
0.0
 11
6203.076129388851
 21
8160.753322994072
 31
0.0
  0
LINE
  5
19394
330
1913F
100
AcDbEntity
  8
CF-401
100
AcDbLine
 10
6336.376129388852
 20
10092.20332299407
 30
0.0
 11
6336.376129388852
 21
8160.753322994072
 31
0.0
  0
LINE
  5
19395
330
1913F
100
AcDbEntity
  8
CF-401
100
AcDbLine
 10
6353.026129388853
 20
8160.753322994077
 30
0.0
 11
6353.026129388853
 21
10107.80332299408
 31
0.0
  0
LINE
  5
19396
330
1913F
100
AcDbEntity
  8
CF-401
100
AcDbLine
 10
6380.348209940393
 20
10107.80332299408
 30
0.0
 11
6380.348209940393
 21
8160.753322994077
 31
0.0
  0
LINE
  5
19397
330
1913F
100
AcDbEntity
  8
CF-401
100
AcDbLine
 10
6396.998209940395
 20
8160.753322994072
 30
0.0
 11
6396.998209940395
 21
10092.20332299407
 31
0.0
  0
LINE
  5
19398
330
1913F
100
AcDbEntity
  8
CF-401
100
AcDbLine
 10
6469.676129388853
 20
10092.20332299407
 30
0.0
 11
6469.676129388853
 21
8160.753322994072
 31
0.0
  0
LINE
  5
19399
330
1913F
100
AcDbEntity
  8
CF-401
100
AcDbLine
 10
6486.326129388849
 20
8160.753322994077
 30
0.0
 11
6486.326129388849
 21
10107.80332299408
 31
0.0
  0
LINE
  5
1939A
330
1913F
100
AcDbEntity
  8
1PL-M1
100
AcDbLine
 10
6300.003547453703
 20
10286.15332299407
 30
0.0
 11
6300.003547453703
 21
7981.353322994078
 31
0.0
  0
LINE
  5
1939B
330
1913F
100
AcDbEntity
  8
CF-301
100
AcDbLine
 10
6538.003547453704
 20
8199.753322994078
 30
0.0
 11
6538.003547453704
 21
10132.30332299408
 31
0.0
  0
LINE
  5
1939C
330
1913F
100
AcDbEntity
  8
CF-301
100
AcDbLine
 10
6492.003547453703
 20
9609.753322994079
 30
0.0
 11
6492.003547453703
 21
8162.753322994078
 31
0.0
  0
LINE
  5
1939D
330
1913F
100
AcDbEntity
  8
SUNPOU
100
AcDbLine
 10
6838.003547453704
 20
9977.753322994079
 30
0.0
 11
6838.003547453704
 21
8148.753322994078
 31
0.0
  0
LINE
  5
1939E
330
1913F
100
AcDbEntity
  8
SUNPOU
100
AcDbLine
 10
7048.003547453703
 20
10118.75332299408
 30
0.0
 11
7048.003547453703
 21
8148.753322994078
 31
0.0
  0
LINE
  5
1939F
330
1913F
100
AcDbEntity
  8
SUNPOU
100
AcDbLine
 10
6568.037169664624
 20
8133.753322994079
 30
0.0
 11
7093.003547453704
 21
8133.753322994079
 31
0.0
  0
LINE
  5
193A0
330
1913F
100
AcDbEntity
  8
CF-301
100
AcDbLine
 10
6492.003547453703
 20
8162.753322994078
 30
0.0
 11
6523.003547453703
 21
8162.753322994078
 31
0.0
  0
LINE
  5
193A1
330
1913F
100
AcDbEntity
  8
CF-202
100
AcDbLine
 10
6520.003547453703
 20
8133.753322994079
 30
0.0
 11
6520.003547453703
 21
8160.753322994077
 31
0.0
  0
LINE
  5
193A2
330
1913F
100
AcDbEntity
  8
CF-401
100
AcDbLine
 10
6505.503547453702
 20
8219.053322994078
 30
0.0
 11
6505.503547453702
 21
8221.053322994078
 31
0.0
  0
LINE
  5
193A3
330
1913F
100
AcDbEntity
  8
CF-401
100
AcDbLine
 10
6494.503547453702
 20
8221.053322994078
 30
0.0
 11
6494.503547453702
 21
8219.053322994078
 31
0.0
  0
ARC
  5
193A4
330
1913F
100
AcDbEntity
  8
CF-401
100
AcDbCircle
 10
6500.003547453705
 20
8219.053322994078
 30
0.0
 40
5.5
100
AcDbArc
 50
180.0
 51
0.0
  0
ARC
  5
193A5
330
1913F
100
AcDbEntity
  8
CF-401
100
AcDbCircle
 10
6500.003547453705
 20
8221.053322994078
 30
0.0
 40
5.5
100
AcDbArc
 50
0.0
 51
180.0
  0
LINE
  5
193A6
330
1913F
100
AcDbEntity
  8
CF-301
100
AcDbLine
 10
6523.003547453703
 20
8162.753322994078
 30
0.0
 11
6523.003547453703
 21
8199.753322994078
 31
0.0
  0
LINE
  5
193A7
330
1913F
100
AcDbEntity
  8
CF-301
100
AcDbLine
 10
6523.003547453703
 20
8199.753322994078
 30
0.0
 11
6538.003547453704
 21
8199.753322994078
 31
0.0
  0
ARC
  5
193A8
330
1913F
100
AcDbEntity
  8
CF-401
100
AcDbCircle
 10
6500.003547453705
 20
8624.753322994079
 30
0.0
 40
5.5
100
AcDbArc
 50
0.0
 51
180.0
  0
ARC
  5
193A9
330
1913F
100
AcDbEntity
  8
CF-401
100
AcDbCircle
 10
6500.003547453705
 20
8622.753322994078
 30
0.0
 40
5.5
100
AcDbArc
 50
180.0
 51
0.0
  0
LINE
  5
193AA
330
1913F
100
AcDbEntity
  8
CF-401
100
AcDbLine
 10
6494.503547453702
 20
8624.753322994079
 30
0.0
 11
6494.503547453702
 21
8622.753322994078
 31
0.0
  0
LINE
  5
193AB
330
1913F
100
AcDbEntity
  8
CF-401
100
AcDbLine
 10
6505.503547453702
 20
8622.753322994078
 30
0.0
 11
6505.503547453702
 21
8624.753322994079
 31
0.0
  0
ARC
  5
193AC
330
1913F
100
AcDbEntity
  8
CF-401
100
AcDbCircle
 10
6500.003547453705
 20
9109.753322994079
 30
0.0
 40
5.5
100
AcDbArc
 50
180.0
 51
0.0
  0
ARC
  5
193AD
330
1913F
100
AcDbEntity
  8
CF-401
100
AcDbCircle
 10
6500.003547453705
 20
9111.753322994079
 30
0.0
 40
5.5
100
AcDbArc
 50
0.0
 51
180.0
  0
LINE
  5
193AE
330
1913F
100
AcDbEntity
  8
CF-401
100
AcDbLine
 10
6494.503547453702
 20
9109.753322994079
 30
0.0
 11
6494.503547453702
 21
9111.753322994079
 31
0.0
  0
LINE
  5
193AF
330
1913F
100
AcDbEntity
  8
CF-401
100
AcDbLine
 10
6505.503547453702
 20
9111.753322994079
 30
0.0
 11
6505.503547453702
 21
9109.753322994079
 31
0.0
  0
TEXT
  5
193B0
330
1913F
100
AcDbEntity
  8
SUNPOU
100
AcDbText
 10
6793.003547453702
 20
8944.681894422648
 30
0.0
 40
90.0
  1
1860
 50
90.0
 41
0.6666666666666666
  7
00
 72
     4
 11
6748.003547453703
 21
9063.253322994079
 31
0.0
100
AcDbText
  0
TEXT
  5
193B1
330
1913F
100
AcDbEntity
  8
SUNPOU
100
AcDbText
 10
7003.003547453703
 20
9019.467608708366
 30
0.0
 40
90.0
  1
2000
 50
90.0
 41
0.6666666666666666
  7
00
 72
     4
 11
6958.003547453704
 21
9133.753322994079
 31
0.0
100
AcDbText
  0
LINE
  5
193B2
330
1913F
100
AcDbEntity
  8
SUNPOU
100
AcDbLine
 10
6838.003547453704
 20
10163.75332299408
 30
0.0
 11
6838.003547453704
 21
10397.88189442264
 31
0.0
  0
LINE
  5
193B3
330
1913F
100
AcDbEntity
  8
SUNPOU
100
AcDbLine
 10
6568.037169664624
 20
10133.75332299408
 30
0.0
 11
7093.003547453704
 21
10133.75332299408
 31
0.0
  0
LINE
  5
193B4
330
1913F
100
AcDbEntity
  8
CF-301
100
AcDbLine
 10
6513.003547453704
 20
9770.753322994075
 30
0.0
 11
6513.003547453704
 21
10132.30332299408
 31
0.0
  0
LINE
  5
193B5
330
1913F
100
AcDbEntity
  8
CF-301
100
AcDbLine
 10
6492.003547453703
 20
9764.753322994081
 30
0.0
 11
6492.003547453703
 21
9611.753322994079
 31
0.0
  0
LINE
  5
193B6
330
1913F
100
AcDbEntity
  8
CF-301
100
AcDbLine
 10
6492.003547453703
 20
9611.753322994079
 30
0.0
 11
6523.003547453703
 21
9611.753322994079
 31
0.0
  0
LINE
  5
193B7
330
1913F
100
AcDbEntity
  8
CF-301
100
AcDbLine
 10
6492.003547453703
 20
9609.753322994079
 30
0.0
 11
6523.003547453703
 21
9609.753322994073
 31
0.0
  0
ARC
  5
193B8
330
1913F
100
AcDbEntity
  8
CF-401
100
AcDbCircle
 10
6500.003547453705
 20
9596.753322994079
 30
0.0
 40
5.5
100
AcDbArc
 50
180.0
 51
0.0
  0
ARC
  5
193B9
330
1913F
100
AcDbEntity
  8
CF-401
100
AcDbCircle
 10
6500.003547453705
 20
9598.753322994078
 30
0.0
 40
5.5
100
AcDbArc
 50
0.0
 51
180.0
  0
LINE
  5
193BA
330
1913F
100
AcDbEntity
  8
CF-401
100
AcDbLine
 10
6494.503547453702
 20
9596.753322994079
 30
0.0
 11
6494.503547453702
 21
9598.753322994078
 31
0.0
  0
LINE
  5
193BB
330
1913F
100
AcDbEntity
  8
CF-401
100
AcDbLine
 10
6505.503547453702
 20
9598.753322994078
 30
0.0
 11
6505.503547453702
 21
9596.753322994079
 31
0.0
  0
LINE
  5
193BC
330
1913F
100
AcDbEntity
  8
CF-301
100
AcDbLine
 10
6523.003547453703
 20
9611.753322994079
 30
0.0
 11
6523.003547453703
 21
9609.753322994079
 31
0.0
  0
LINE
  5
193BD
330
1913F
100
AcDbEntity
  8
CF-301
100
AcDbLine
 10
6495.003547453703
 20
9767.753322994078
 30
0.0
 11
6510.003547453703
 21
9767.753322994078
 31
0.0
  0
ARC
  5
193BE
330
1913F
100
AcDbEntity
  8
CF-301
100
AcDbCircle
 10
6495.003547453703
 20
9764.753322994081
 30
0.0
 40
3.0
100
AcDbArc
 50
90.0
 51
180.0
  0
ARC
  5
193BF
330
1913F
100
AcDbEntity
  8
CF-301
100
AcDbCircle
 10
6510.003547453703
 20
9770.753322994075
 30
0.0
 40
3.0
100
AcDbArc
 50
270.0
 51
0.0
  0
LINE
  5
193C0
330
1913F
100
AcDbEntity
  8
CF-401
100
AcDbLine
 10
6396.998209940395
 20
10092.20332299407
 30
0.0
 11
6469.676129388853
 21
10092.20332299407
 31
0.0
  0
LINE
  5
193C1
330
1913F
100
AcDbEntity
  8
CF-401
100
AcDbLine
 10
6336.376129388852
 20
10092.20332299407
 30
0.0
 11
6263.698209940392
 21
10092.20332299407
 31
0.0
  0
LINE
  5
193C2
330
1913F
100
AcDbEntity
  8
CF-401
100
AcDbLine
 10
6263.698209940392
 20
10092.20332299407
 30
0.0
 11
6247.048209940391
 21
10107.80332299408
 31
0.0
  0
LINE
  5
193C3
330
1913F
100
AcDbEntity
  8
CF-401
100
AcDbLine
 10
6203.076129388851
 20
10092.20332299407
 30
0.0
 11
6219.726129388853
 21
10107.80332299408
 31
0.0
  0
LINE
  5
193C4
330
1913F
100
AcDbEntity
  8
CF-401
100
AcDbLine
 10
6219.726129388853
 20
10107.80332299408
 30
0.0
 11
6247.048209940391
 21
10107.80332299408
 31
0.0
  0
LINE
  5
193C5
330
1913F
100
AcDbEntity
  8
CF-401
100
AcDbLine
 10
6336.376129388852
 20
10092.20332299407
 30
0.0
 11
6353.026129388853
 21
10107.80332299408
 31
0.0
  0
LINE
  5
193C6
330
1913F
100
AcDbEntity
  8
CF-401
100
AcDbLine
 10
6396.998209940395
 20
10092.20332299407
 30
0.0
 11
6380.348209940393
 21
10107.80332299408
 31
0.0
  0
LINE
  5
193C7
330
1913F
100
AcDbEntity
  8
CF-401
100
AcDbLine
 10
6380.348209940393
 20
10107.80332299408
 30
0.0
 11
6353.026129388853
 21
10107.80332299408
 31
0.0
  0
LINE
  5
193C8
330
1913F
100
AcDbEntity
  8
CF-301
100
AcDbLine
 10
6538.003547453704
 20
10132.30332299408
 30
0.0
 11
6492.003547453703
 21
10132.30332299408
 31
0.0
  0
LINE
  5
193C9
330
1913F
100
AcDbEntity
  8
CF-401
100
AcDbLine
 10
6469.676129388853
 20
10092.20332299407
 30
0.0
 11
6486.326129388849
 21
10107.80332299408
 31
0.0
  0
LINE
  5
193CA
330
1913F
100
AcDbEntity
  8
CF-401
100
AcDbLine
 10
6488.037169664625
 20
10107.80332299408
 30
0.0
 11
6486.326129388849
 21
10107.80332299408
 31
0.0
  0
LINE
  5
193CB
330
1913F
100
AcDbEntity
  8
CF-301
100
AcDbLine
 10
6513.003547453704
 20
10131.50332299406
 30
0.0
 11
6492.003547453703
 21
10131.50332299406
 31
0.0
  0
LINE
  5
193CC
330
1913F
100
AcDbEntity
  8
CF-301
100
AcDbLine
 10
6492.003547453703
 20
10132.30332299408
 30
0.0
 11
6492.003547453703
 21
10131.50332299406
 31
0.0
  0
LINE
  5
193CD
330
1913F
100
AcDbEntity
  8
CF-401
100
AcDbLine
 10
6486.326129388849
 20
10107.80332299408
 30
0.0
 11
6513.003547453704
 21
10107.80332299408
 31
0.0
  0
LINE
  5
193CE
330
1913F
100
AcDbEntity
  8
SUNPOU
100
AcDbLine
 10
6838.003547453704
 20
9992.753322994078
 30
0.0
 11
6838.003547453704
 21
10133.75332299408
 31
0.0
  0
LINE
  5
193CF
330
1913F
100
AcDbEntity
  8
SUNPOU
100
AcDbLine
 10
6838.003547453704
 20
10148.75332299407
 30
0.0
 11
6838.003547453704
 21
10163.75332299408
 31
0.0
  0
TEXT
  5
193D0
330
1913F
100
AcDbEntity
  8
SUNPOU
100
AcDbText
 10
6793.003547453702
 20
10192.16760870836
 30
0.0
 40
90.0
  1
140
 50
90.0
 41
0.6666666666666666
  7
00
 72
     4
 11
6748.003547453703
 21
10282.16760870835
 31
0.0
100
AcDbText
  0
LINE
  5
193D1
330
1913F
100
AcDbEntity
  8
SUNPOU
100
AcDbLine
 10
4911.253547453709
 20
7621.353322994076
 30
0.0
 11
4922.503547453709
 21
7621.353322994076
 31
0.0
  0
LINE
  5
193D2
330
1913F
100
AcDbEntity
  8
SUNPOU
100
AcDbLine
 10
5311.253547453709
 20
7621.353322994076
 30
0.0
 11
5322.503547453713
 21
7621.353322994076
 31
0.0
  0
LINE
  5
193D3
330
1913F
100
AcDbEntity
  8
SUNPOU
100
AcDbLine
 10
5288.753547453708
 20
7621.353322994076
 30
0.0
 11
5277.503547453712
 21
7621.353322994076
 31
0.0
  0
LINE
  5
193D4
330
1913F
100
AcDbEntity
  8
SUNPOU
100
AcDbLine
 10
5711.253547453708
 20
7621.353322994076
 30
0.0
 11
5722.503547453714
 21
7621.353322994076
 31
0.0
  0
LINE
  5
193D5
330
1913F
100
AcDbEntity
  8
SUNPOU
100
AcDbLine
 10
5688.753547453708
 20
7621.353322994076
 30
0.0
 11
5677.503547453714
 21
7621.353322994076
 31
0.0
  0
LINE
  5
193D6
330
1913F
100
AcDbEntity
  8
SUNPOU
100
AcDbLine
 10
6088.753547453704
 20
7621.353322994076
 30
0.0
 11
6077.503547453702
 21
7621.353322994076
 31
0.0
  0
LINE
  5
193D7
330
1913F
100
AcDbEntity
  8
SUNPOU
100
AcDbLine
 10
6838.003547453704
 20
8145.003322994076
 30
0.0
 11
6838.003547453704
 21
8156.253322994077
 31
0.0
  0
LINE
  5
193D8
330
1913F
100
AcDbEntity
  8
SUNPOU
100
AcDbLine
 10
7048.003547453703
 20
8145.003322994076
 30
0.0
 11
7048.003547453703
 21
8156.253322994077
 31
0.0
  0
LINE
  5
193D9
330
1913F
100
AcDbEntity
  8
SUNPOU
100
AcDbLine
 10
6838.003547453704
 20
9981.503322994079
 30
0.0
 11
6838.003547453704
 21
9970.253322994079
 31
0.0
  0
LINE
  5
193DA
330
1913F
100
AcDbEntity
  8
SUNPOU
100
AcDbLine
 10
6838.003547453704
 20
10145.00332299407
 30
0.0
 11
6838.003547453704
 21
10156.25332299406
 31
0.0
  0
LINE
  5
193DB
330
1913F
100
AcDbEntity
  8
SUNPOU
100
AcDbLine
 10
7048.003547453703
 20
10122.50332299408
 30
0.0
 11
7048.003547453703
 21
10111.25332299408
 31
0.0
  0
LINE
  5
193DC
330
1913F
100
AcDbEntity
  8
TATEDOISIJIKANAGU
100
AcDbLine
 10
12103.30069413384
 20
3900.296798568535
 30
0.0
 11
12103.30069413384
 21
2914.796798568534
 31
0.0
  0
LINE
  5
193DD
330
1913F
100
AcDbEntity
  8
TATEDOISIJIKANAGU
100
AcDbLine
 10
12103.30069413384
 20
2902.296798568534
 30
0.0
 11
12103.30069413384
 21
2703.958650873474
 31
0.0
  0
ARC
  5
193DE
330
1913F
100
AcDbEntity
  8
TATEDOISIJIKANAGU
100
AcDbCircle
 10
12157.50090228931
 20
2703.958650873474
 30
0.0
 40
98.19979184451604
100
AcDbArc
 50
180.0
 51
270.0
  0
LINE
  5
193DF
330
1913F
100
AcDbEntity
  8
TATEDOISIJIKANAGU
100
AcDbLine
 10
12059.3011104448
 20
2703.958650873474
 30
0.0
 11
12103.30069413384
 21
2703.958650873474
 31
0.0
  0
LINE
  5
193E0
330
1913F
100
AcDbEntity
  8
TATEDOISIJIKANAGU
100
AcDbLine
 10
12059.3011104448
 20
2902.296798568534
 30
0.0
 11
12059.3011104448
 21
2703.958650873474
 31
0.0
  0
ARC
  5
193E1
330
1913F
100
AcDbEntity
  8
TATEDOISIJIKANAGU
100
AcDbCircle
 10
12157.50090228931
 20
2703.958650873474
 30
0.0
 40
54.20020815548396
100
AcDbArc
 50
180.0
 51
270.0
  0
LINE
  5
193E2
330
1913F
100
AcDbEntity
  8
TATEDOISIJIKANAGU
100
AcDbLine
 10
12157.50090228931
 20
2649.75844271799
 30
0.0
 11
12157.50090228931
 21
2605.758859028957
 31
0.0
  0
LINE
  5
193E3
330
1913F
100
AcDbEntity
  8
TATEDOISIJIKANAGU
100
AcDbLine
 10
12059.3011104448
 20
3900.296798568535
 30
0.0
 11
12059.30111044481
 21
2914.796798568534
 31
0.0
  0
LINE
  5
193E4
330
1913F
100
AcDbEntity
  8
TATEDOISIJIKANAGU
100
AcDbLine
 10
12103.30069413384
 20
4040.040683378581
 30
0.0
 11
12103.30069413384
 21
3900.296798568535
 31
0.0
  0
LINE
  5
193E5
330
1913F
100
AcDbEntity
  8
TATEDOISIJIKANAGU
100
AcDbLine
 10
12047.50090228931
 20
3944.796798568535
 30
0.0
 11
12047.50090228931
 21
3918.896798568537
 31
0.0
  0
LINE
  5
193E6
330
1913F
100
AcDbEntity
  8
TATEDOISIJIKANAGU
100
AcDbLine
 10
12049.00090228931
 20
3917.396798568537
 30
0.0
 11
12055.20111044479
 21
3917.396798568537
 31
0.0
  0
ARC
  5
193E7
330
1913F
100
AcDbEntity
  8
TATEDOISIJIKANAGU
100
AcDbCircle
 10
12049.00090228931
 20
3918.896798568537
 30
0.0
 40
1.5
100
AcDbArc
 50
180.0
 51
270.0
  0
ARC
  5
193E8
330
1913F
100
AcDbEntity
  8
TATEDOISIJIKANAGU
100
AcDbCircle
 10
12049.00090228931
 20
3918.896798568537
 30
0.0
 40
4.099999999999998
100
AcDbArc
 50
180.0
 51
270.0
  0
LINE
  5
193E9
330
1913F
100
AcDbEntity
  8
TATEDOISIJIKANAGU
100
AcDbLine
 10
12059.3011104448
 20
3913.296798568534
 30
0.0
 11
12059.3011104448
 21
3898.296798568535
 31
0.0
  0
LINE
  5
193EA
330
1913F
100
AcDbEntity
  8
TATEDOISIJIKANAGU
100
AcDbLine
 10
12059.3011104448
 20
3898.296798568535
 30
0.0
 11
12056.7011104448
 21
3898.296798568535
 31
0.0
  0
LINE
  5
193EB
330
1913F
100
AcDbEntity
  8
TATEDOISIJIKANAGU
100
AcDbLine
 10
12056.7011104448
 20
3898.296798568535
 30
0.0
 11
12056.7011104448
 21
3913.296798568534
 31
0.0
  0
LINE
  5
193EC
330
1913F
100
AcDbEntity
  8
TATEDOISIJIKANAGU
100
AcDbLine
 10
12055.20111044479
 20
3914.796798568534
 30
0.0
 11
12049.00090228931
 21
3914.796798568534
 31
0.0
  0
ARC
  5
193ED
330
1913F
100
AcDbEntity
  8
TATEDOISIJIKANAGU
100
AcDbCircle
 10
12055.20111044479
 20
3913.296798568534
 30
0.0
 40
1.5
100
AcDbArc
 50
0.0
 51
90.0
  0
ARC
  5
193EE
330
1913F
100
AcDbEntity
  8
TATEDOISIJIKANAGU
100
AcDbCircle
 10
12055.20111044479
 20
3913.296798568534
 30
0.0
 40
4.099999999999998
100
AcDbArc
 50
0.0
 51
90.0
  0
LINE
  5
193EF
330
1913F
100
AcDbEntity
  8
TATEDOISIJIKANAGU
100
AcDbLine
 10
12044.90090228931
 20
3918.896798568537
 30
0.0
 11
12044.90090228931
 21
3944.796798568535
 31
0.0
  0
LINE
  5
193F0
330
1913F
100
AcDbEntity
  8
TATEDOISIJIKANAGU
100
AcDbLine
 10
12044.90090228931
 20
3944.796798568535
 30
0.0
 11
12047.50090228931
 21
3944.796798568535
 31
0.0
  0
LINE
  5
193F1
330
1913F
100
AcDbEntity
  8
TATEDOISIJIKANAGU
  6
1PL-S
 62
     6
100
AcDbLine
 10
12038.29090228932
 20
3929.796798568535
 30
0.0
 11
12054.11090228932
 21
3929.796798568535
 31
0.0
  0
LINE
  5
193F2
330
1913F
100
AcDbEntity
  8
TATEDOISIJIKANAGU
100
AcDbLine
 10
12082.90090228931
 20
3912.796798568535
 30
0.0
 11
12082.90090228931
 21
3900.296798568535
 31
0.0
  0
ARC
  5
193F3
330
1913F
100
AcDbEntity
  8
TATEDOISIJIKANAGU
100
AcDbCircle
 10
12087.60386238469
 20
3906.546798568534
 30
0.0
 40
12.84038832877559
100
AcDbArc
 50
150.8731100751251
 51
209.1268899248748
  0
LINE
  5
193F4
330
1913F
100
AcDbEntity
  8
TATEDOISIJIKANAGU
100
AcDbLine
 10
12047.50090228931
 20
2946.796798568534
 30
0.0
 11
12047.50090228931
 21
2920.896798568536
 31
0.0
  0
LINE
  5
193F5
330
1913F
100
AcDbEntity
  8
TATEDOISIJIKANAGU
100
AcDbLine
 10
12049.00090228931
 20
2919.396798568536
 30
0.0
 11
12055.20111044479
 21
2919.396798568536
 31
0.0
  0
ARC
  5
193F6
330
1913F
100
AcDbEntity
  8
TATEDOISIJIKANAGU
100
AcDbCircle
 10
12049.00090228931
 20
2920.896798568536
 30
0.0
 40
1.5
100
AcDbArc
 50
180.0
 51
270.0
  0
ARC
  5
193F7
330
1913F
100
AcDbEntity
  8
TATEDOISIJIKANAGU
100
AcDbCircle
 10
12049.00090228931
 20
2920.896798568536
 30
0.0
 40
4.099999999999998
100
AcDbArc
 50
180.0
 51
270.0
  0
LINE
  5
193F8
330
1913F
100
AcDbEntity
  8
TATEDOISIJIKANAGU
100
AcDbLine
 10
12059.3011104448
 20
2915.296798568533
 30
0.0
 11
12059.3011104448
 21
2900.296798568534
 31
0.0
  0
LINE
  5
193F9
330
1913F
100
AcDbEntity
  8
TATEDOISIJIKANAGU
100
AcDbLine
 10
12059.3011104448
 20
2900.296798568534
 30
0.0
 11
12056.7011104448
 21
2900.296798568534
 31
0.0
  0
LINE
  5
193FA
330
1913F
100
AcDbEntity
  8
TATEDOISIJIKANAGU
100
AcDbLine
 10
12056.7011104448
 20
2900.296798568534
 30
0.0
 11
12056.7011104448
 21
2915.296798568533
 31
0.0
  0
LINE
  5
193FB
330
1913F
100
AcDbEntity
  8
TATEDOISIJIKANAGU
100
AcDbLine
 10
12055.20111044479
 20
2916.796798568534
 30
0.0
 11
12049.00090228931
 21
2916.796798568534
 31
0.0
  0
ARC
  5
193FC
330
1913F
100
AcDbEntity
  8
TATEDOISIJIKANAGU
100
AcDbCircle
 10
12055.20111044479
 20
2915.296798568533
 30
0.0
 40
1.5
100
AcDbArc
 50
0.0
 51
90.0
  0
ARC
  5
193FD
330
1913F
100
AcDbEntity
  8
TATEDOISIJIKANAGU
100
AcDbCircle
 10
12055.20111044479
 20
2915.296798568533
 30
0.0
 40
4.099999999999998
100
AcDbArc
 50
0.0
 51
90.0
  0
LINE
  5
193FE
330
1913F
100
AcDbEntity
  8
TATEDOISIJIKANAGU
100
AcDbLine
 10
12044.90090228931
 20
2920.896798568536
 30
0.0
 11
12044.90090228931
 21
2946.796798568534
 31
0.0
  0
LINE
  5
193FF
330
1913F
100
AcDbEntity
  8
TATEDOISIJIKANAGU
100
AcDbLine
 10
12044.90090228931
 20
2946.796798568534
 30
0.0
 11
12047.50090228931
 21
2946.796798568534
 31
0.0
  0
LINE
  5
19400
330
1913F
100
AcDbEntity
  8
TATEDOISIJIKANAGU
  6
1PL-S
 62
     6
100
AcDbLine
 10
12038.29090228932
 20
2931.796798568534
 30
0.0
 11
12054.11090228932
 21
2931.796798568534
 31
0.0
  0
LINE
  5
19401
330
1913F
100
AcDbEntity
  8
TATEDOISIJIKANAGU
100
AcDbLine
 10
12082.90090228931
 20
2914.796798568534
 30
0.0
 11
12082.90090228931
 21
2902.296798568534
 31
0.0
  0
ARC
  5
19402
330
1913F
100
AcDbEntity
  8
TATEDOISIJIKANAGU
100
AcDbCircle
 10
12087.60386238471
 20
2908.546798568534
 30
0.0
 40
12.84038832877559
100
AcDbArc
 50
150.8731100751251
 51
209.1268899248748
  0
LINE
  5
19403
330
1913F
100
AcDbEntity
  8
TATEDOISIJIKANAGU
100
AcDbLine
 10
12059.30111044481
 20
4040.040683378581
 30
0.0
 11
12059.3011104448
 21
3900.296798568535
 31
0.0
  0
LINE
  5
19404
330
1913F
100
AcDbEntity
  8
CF-401
 62
     6
100
AcDbLine
 10
6064.881943997881
 20
8023.484288448656
 30
0.0
 11
4740.63935908883
 21
10248.60892485925
 31
0.0
  0
LINE
  5
19405
330
1913F
100
AcDbEntity
  8
NJ-022
100
AcDbLine
 10
5669.253547453699
 20
8626.253322994079
 30
0.0
 11
5669.253547453699
 21
8621.253322994078
 31
0.0
  0
LINE
  5
19406
330
1913F
100
AcDbEntity
  8
NJ-022
100
AcDbLine
 10
5669.253547453699
 20
8621.253322994078
 30
0.0
 11
5670.753547453699
 21
8621.253322994078
 31
0.0
  0
LINE
  5
19407
330
1913F
100
AcDbEntity
  8
NJ-022
100
AcDbLine
 10
5670.753547453699
 20
8626.253322994079
 30
0.0
 11
5669.253547453699
 21
8626.253322994079
 31
0.0
  0
CIRCLE
  5
19408
330
1913F
100
AcDbEntity
  8
NJ-022
100
AcDbCircle
 10
5700.003547453699
 20
8623.753322994078
 30
0.0
 40
4.75
  0
ARC
  5
19409
330
1913F
100
AcDbEntity
  8
NJ-022
100
AcDbCircle
 10
5700.003547453699
 20
8623.753322994078
 30
0.0
 40
8.0
100
AcDbArc
 50
65.61601166093526
 51
355.900438958163
  0
LINE
  5
1940A
330
1913F
100
AcDbEntity
  8
NJ-022
100
AcDbLine
 10
5700.203562849925
 20
8636.253322994077
 30
0.0
 11
5670.753547453699
 21
8636.253322994077
 31
0.0
  0
LINE
  5
1940B
330
1913F
100
AcDbEntity
  8
NJ-022
100
AcDbLine
 10
5670.753547453699
 20
8611.253322994079
 30
0.0
 11
5715.08185958935
 21
8611.253322994079
 31
0.0
  0
LINE
  5
1940C
330
1913F
100
AcDbEntity
  8
NJ-022
100
AcDbLine
 10
5670.753547453699
 20
8636.253322994077
 30
0.0
 11
5670.753547453699
 21
8611.253322994079
 31
0.0
  0
LINE
  5
1940D
330
1913F
100
AcDbEntity
  8
NJ-022
100
AcDbLine
 10
5687.253547453699
 20
8636.253322994077
 30
0.0
 11
5687.253547453699
 21
8611.253322994079
 31
0.0
  0
LINE
  5
1940E
330
1913F
100
AcDbEntity
  8
NJ-022
100
AcDbLine
 10
5712.753547453699
 20
8615.165585560873
 30
0.0
 11
5712.753547453699
 21
8611.253322994079
 31
0.0
  0
TEXT
  5
1940F
330
1913F
100
AcDbEntity
  8
HIKIDASHI
100
AcDbText
 10
4772.879035921841
 20
6862.247205079722
 30
0.0
 40
120.0
  1
小 屋 伏 図
  7
01
 72
     2
 11
5524.879035921841
 21
6862.247205079722
 31
0.0
100
AcDbText
  0
TEXT
  5
19410
330
1913F
100
AcDbEntity
  8
HIKIDASHI
100
AcDbText
 10
5614.879035921841
 20
6886.063646910689
 30
0.0
 40
80.0
  1
(S=
 41
0.6700000000000001
  7
00
100
AcDbText
  0
TEXT
  5
19411
330
1913F
100
AcDbEntity
  8
HIKIDASHI
100
AcDbText
 10
5875.019244486463
 20
6859.895815710412
 30
0.0
 40
80.0
  1
40
 41
0.6700000000000001
  7
00
100
AcDbText
  0
TEXT
  5
19412
330
1913F
100
AcDbEntity
  8
HIKIDASHI
100
AcDbText
 10
5996.445700548896
 20
6886.063646910689
 30
0.0
 40
80.0
  1
)
 41
0.6700000000000001
  7
00
100
AcDbText
  0
TEXT
  5
19413
330
1913F
100
AcDbEntity
  8
HIKIDASHI
100
AcDbText
 10
5828.724089723824
 20
6886.063646910689
 30
0.0
 40
80.0
  1
/
 41
0.6700000000000001
  7
00
100
AcDbText
  0
TEXT
  5
19414
330
1913F
100
AcDbEntity
  8
HIKIDASHI
100
AcDbText
 10
5795.586951859514
 20
6901.625124658885
 30
0.0
 40
80.0
  1
1
 41
0.6700000000000001
  7
00
100
AcDbText
  0
LINE
  5
19415
330
1913F
100
AcDbEntity
  8
KERABA
100
AcDbLine
 10
6538.003547453704
 20
4174.762326996073
 30
0.0
 11
6538.003547453704
 21
4829.019543520814
 31
0.0
  0
LINE
  5
19416
330
1913F
100
AcDbEntity
  8
KERABA
100
AcDbLine
 10
6522.003547453704
 20
4174.762326996073
 30
0.0
 11
6522.003547453704
 21
4759.54679856853
 31
0.0
  0
LINE
  5
19417
330
1913F
100
AcDbEntity
  8
CF-401
100
AcDbLine
 10
6353.026129388855
 20
4239.76232699607
 30
0.0
 11
6353.026129388855
 21
4759.762326996074
 31
0.0
  0
LINE
  5
19418
330
1913F
100
AcDbEntity
  8
CF-401
100
AcDbLine
 10
6380.348209940393
 20
4759.762326996074
 30
0.0
 11
6380.348209940393
 21
4239.76232699607
 31
0.0
  0
LINE
  5
19419
330
1913F
100
AcDbEntity
  8
CF-401
100
AcDbLine
 10
6396.998209940393
 20
4239.762326996073
 30
0.0
 11
6396.998209940393
 21
4759.762326996074
 31
0.0
  0
LINE
  5
1941A
330
1913F
100
AcDbEntity
  8
CF-401
100
AcDbLine
 10
6469.676129388854
 20
4759.762326996074
 30
0.0
 11
6469.676129388854
 21
4239.762326996073
 31
0.0
  0
LINE
  5
1941B
330
1913F
100
AcDbEntity
  8
CF-401
100
AcDbLine
 10
6486.326129388854
 20
4239.76232699607
 30
0.0
 11
6486.326129388854
 21
4759.762326996074
 31
0.0
  0
LINE
  5
1941C
330
1913F
100
AcDbEntity
  8
HANAKAKUSI
100
AcDbLine
 10
6344.553547453704
 20
4174.762326996073
 30
0.0
 11
6522.003547453704
 21
4174.762326996073
 31
0.0
  0
LINE
  5
1941D
330
1913F
100
AcDbEntity
  8
HANAKAKUSI
100
AcDbLine
 10
6344.553547453704
 20
4239.762326996073
 30
0.0
 11
6522.003547453704
 21
4239.762326996073
 31
0.0
  0
LINE
  5
1941E
330
1913F
100
AcDbEntity
  8
HANAKAKUSI
100
AcDbLine
 10
6344.553547453704
 20
4209.762326996068
 30
0.0
 11
6522.003547453704
 21
4209.762326996068
 31
0.0
  0
LINE
  5
1941F
330
1913F
100
AcDbEntity
  8
HANAKAKUSI
100
AcDbLine
 10
6522.003547453704
 20
4239.762326996073
 30
0.0
 11
6522.003547453704
 21
4174.762326996073
 31
0.0
  0
LINE
  5
19420
330
1913F
100
AcDbEntity
  8
KERABA
100
AcDbLine
 10
6522.003547453704
 20
4174.762326996073
 30
0.0
 11
6538.003547453704
 21
4174.762326996073
 31
0.0
  0
LINE
  5
19421
330
1913F
100
AcDbEntity
  8
HANA_KONA
100
AcDbLine
 10
6523.003547453703
 20
4834.76232699607
 30
0.0
 11
6523.003547453703
 21
4754.732877454577
 31
0.0
  0
LINE
  5
19422
330
1913F
100
AcDbEntity
  8
HANA_KONA
100
AcDbLine
 10
6523.003547453703
 20
4754.732877454577
 30
0.0
 11
6534.003547453703
 21
4754.732877454577
 31
0.0
  0
LINE
  5
19423
330
1913F
100
AcDbEntity
  8
HANA_KONA
100
AcDbLine
 10
6538.003547453704
 20
4758.732877454575
 30
0.0
 11
6538.003547453704
 21
4830.762326996074
 31
0.0
  0
LINE
  5
19424
330
1913F
100
AcDbEntity
  8
HANA_KONA
100
AcDbLine
 10
6534.003547453703
 20
4834.76232699607
 30
0.0
 11
6523.003547453703
 21
4834.76232699607
 31
0.0
  0
ARC
  5
19425
330
1913F
100
AcDbEntity
  8
HANA_KONA
100
AcDbCircle
 10
6534.003547453703
 20
4830.762326996074
 30
0.0
 40
4.0
100
AcDbArc
 50
0.0
 51
90.0
  0
ARC
  5
19426
330
1913F
100
AcDbEntity
  8
HANA_KONA
100
AcDbCircle
 10
6534.003547453703
 20
4758.732877454575
 30
0.0
 40
4.0
100
AcDbArc
 50
270.0
 51
0.0
  0
LINE
  5
19427
330
1913F
100
AcDbEntity
  8
KERABA
100
AcDbLine
 10
6508.003547453704
 20
4834.546798568535
 30
0.0
 11
6523.003547453703
 21
4834.54679856853
 31
0.0
  0
LINE
  5
19428
330
1913F
100
AcDbEntity
  8
KERABA
100
AcDbLine
 10
6508.003547453704
 20
4759.54679856853
 30
0.0
 11
6508.003547453704
 21
4834.546798568535
 31
0.0
  0
LINE
  5
19429
330
1913F
100
AcDbEntity
  8
KERABA
100
AcDbLine
 10
6508.003547453704
 20
4759.54679856853
 30
0.0
 11
6522.003547453704
 21
4759.54679856853
 31
0.0
  0
LINE
  5
1942A
330
1913F
100
AcDbEntity
  8
KISO
100
AcDbLine
 10
6700.003547453711
 20
2554.546798568534
 30
0.0
 11
6700.003547453711
 21
2584.546798568533
 31
0.0
  0
TEXT
  5
1942B
330
1913F
100
AcDbEntity
  8
HIKIDASHI
100
AcDbText
 10
4567.863709458375
 20
2124.538731784598
 30
0.0
 40
120.0
  1
正 面 立 面 図
  7
01
 72
     2
 11
5535.863709458375
 21
2124.538731784598
 31
0.0
100
AcDbText
  0
TEXT
  5
1942C
330
1913F
100
AcDbEntity
  8
HIKIDASHI
100
AcDbText
 10
5886.003918022996
 20
2122.187342415291
 30
0.0
 40
80.0
  1
40
 41
0.6700000000000001
  7
00
100
AcDbText
  0
TEXT
  5
1942D
330
1913F
100
AcDbEntity
  8
HIKIDASHI
100
AcDbText
 10
5839.708763260357
 20
2148.355173615565
 30
0.0
 40
80.0
  1
/
 41
0.6700000000000001
  7
00
100
AcDbText
  0
TEXT
  5
1942E
330
1913F
100
AcDbEntity
  8
HIKIDASHI
100
AcDbText
 10
5625.863709458375
 20
2148.355173615565
 30
0.0
 40
80.0
  1
(S=
 41
0.6700000000000001
  7
00
100
AcDbText
  0
TEXT
  5
1942F
330
1913F
100
AcDbEntity
  8
HIKIDASHI
100
AcDbText
 10
5806.571625396048
 20
2163.916651363762
 30
0.0
 40
80.0
  1
1
 41
0.6700000000000001
  7
00
100
AcDbText
  0
TEXT
  5
19430
330
1913F
100
AcDbEntity
  8
HIKIDASHI
100
AcDbText
 10
6007.43037408543
 20
2148.355173615565
 30
0.0
 40
80.0
  1
)
 41
0.6700000000000001
  7
00
100
AcDbText
  0
LINE
  5
19431
330
1913F
100
AcDbEntity
  8
CF-401
100
AcDbLine
 10
4469.608884967003
 20
4759.546798568535
 30
0.0
 11
4469.608884967001
 21
4239.546798568535
 31
0.0
  0
LINE
  5
19432
330
1913F
100
AcDbEntity
  8
CF-401
100
AcDbLine
 10
4486.258884967006
 20
4239.546798568532
 30
0.0
 11
4486.258884967006
 21
4759.546798568538
 31
0.0
  0
LINE
  5
19433
330
1913F
100
AcDbEntity
  8
CF-401
100
AcDbLine
 10
4513.080965518548
 20
4759.546798568538
 30
0.0
 11
4513.080965518548
 21
4239.546798568532
 31
0.0
  0
LINE
  5
19434
330
1913F
100
AcDbEntity
  8
CF-401
100
AcDbLine
 10
4603.008884967006
 20
4239.546798568535
 30
0.0
 11
4603.008884967006
 21
4759.546798568535
 31
0.0
  0
LINE
  5
19435
330
1913F
100
AcDbEntity
  8
CF-401
100
AcDbLine
 10
4619.658884967003
 20
4759.546798568538
 30
0.0
 11
4619.658884967003
 21
4239.546798568532
 31
0.0
  0
LINE
  5
19436
330
1913F
100
AcDbEntity
  8
CF-401
100
AcDbLine
 10
4646.980965518547
 20
4239.546798568532
 30
0.0
 11
4646.980965518547
 21
4759.546798568538
 31
0.0
  0
LINE
  5
19437
330
1913F
100
AcDbEntity
  8
CF-401
100
AcDbLine
 10
4663.630965518546
 20
4759.546798568535
 30
0.0
 11
4663.630965518546
 21
4239.546798568535
 31
0.0
  0
LINE
  5
19438
330
1913F
100
AcDbEntity
  8
CF-401
100
AcDbLine
 10
4530.330965518549
 20
4759.546798568535
 30
0.0
 11
4530.330965518549
 21
4239.546798568535
 31
0.0
  0
LINE
  5
19439
330
1913F
100
AcDbEntity
  8
CF-401
100
AcDbLine
 10
4736.308884967002
 20
4759.546798568535
 30
0.0
 11
4736.308884967001
 21
4239.546798568535
 31
0.0
  0
LINE
  5
1943A
330
1913F
100
AcDbEntity
  8
CF-401
100
AcDbLine
 10
4752.958884967006
 20
4239.546798568532
 30
0.0
 11
4752.958884967006
 21
4759.546798568538
 31
0.0
  0
LINE
  5
1943B
330
1913F
100
AcDbEntity
  8
CF-401
100
AcDbLine
 10
4779.780965518546
 20
4759.546798568538
 30
0.0
 11
4779.780965518546
 21
4239.546798568532
 31
0.0
  0
LINE
  5
1943C
330
1913F
100
AcDbEntity
  8
CF-401
100
AcDbLine
 10
4869.708884967007
 20
4239.546798568535
 30
0.0
 11
4869.708884967007
 21
4759.546798568535
 31
0.0
  0
LINE
  5
1943D
330
1913F
100
AcDbEntity
  8
CF-401
100
AcDbLine
 10
4886.358884967004
 20
4759.546798568538
 30
0.0
 11
4886.358884967004
 21
4239.546798568532
 31
0.0
  0
LINE
  5
1943E
330
1913F
100
AcDbEntity
  8
CF-401
100
AcDbLine
 10
4913.680965518548
 20
4239.546798568532
 30
0.0
 11
4913.680965518548
 21
4759.546798568538
 31
0.0
  0
LINE
  5
1943F
330
1913F
100
AcDbEntity
  8
CF-401
100
AcDbLine
 10
4930.330965518546
 20
4759.546798568535
 30
0.0
 11
4930.330965518546
 21
4239.546798568535
 31
0.0
  0
LINE
  5
19440
330
1913F
100
AcDbEntity
  8
CF-401
100
AcDbLine
 10
4797.030965518549
 20
4759.546798568535
 30
0.0
 11
4797.030965518549
 21
4239.546798568535
 31
0.0
  0
LINE
  5
19441
330
1913F
100
AcDbEntity
  8
CF-401
100
AcDbLine
 10
5003.008884967002
 20
4759.546798568535
 30
0.0
 11
5003.008884967001
 21
4239.546798568535
 31
0.0
  0
LINE
  5
19442
330
1913F
100
AcDbEntity
  8
CF-401
100
AcDbLine
 10
5019.658884967006
 20
4239.546798568532
 30
0.0
 11
5019.658884967006
 21
4759.546798568538
 31
0.0
  0
LINE
  5
19443
330
1913F
100
AcDbEntity
  8
CF-401
100
AcDbLine
 10
5046.480965518546
 20
4759.546798568538
 30
0.0
 11
5046.480965518546
 21
4239.546798568532
 31
0.0
  0
LINE
  5
19444
330
1913F
100
AcDbEntity
  8
CF-401
100
AcDbLine
 10
5136.408884967006
 20
4239.546798568535
 30
0.0
 11
5136.408884967006
 21
4759.546798568535
 31
0.0
  0
LINE
  5
19445
330
1913F
100
AcDbEntity
  8
CF-401
100
AcDbLine
 10
5153.058884967004
 20
4759.546798568538
 30
0.0
 11
5153.058884967004
 21
4239.546798568532
 31
0.0
  0
LINE
  5
19446
330
1913F
100
AcDbEntity
  8
CF-401
100
AcDbLine
 10
5180.380965518546
 20
4239.546798568532
 30
0.0
 11
5180.380965518546
 21
4759.546798568538
 31
0.0
  0
LINE
  5
19447
330
1913F
100
AcDbEntity
  8
CF-401
100
AcDbLine
 10
5197.030965518546
 20
4759.546798568535
 30
0.0
 11
5197.030965518546
 21
4239.546798568535
 31
0.0
  0
LINE
  5
19448
330
1913F
100
AcDbEntity
  8
CF-401
100
AcDbLine
 10
5063.730965518549
 20
4759.546798568535
 30
0.0
 11
5063.730965518549
 21
4239.546798568535
 31
0.0
  0
LINE
  5
19449
330
1913F
100
AcDbEntity
  8
CF-401
100
AcDbLine
 10
5269.708884967002
 20
4759.546798568535
 30
0.0
 11
5269.708884967001
 21
4239.546798568535
 31
0.0
  0
LINE
  5
1944A
330
1913F
100
AcDbEntity
  8
CF-401
100
AcDbLine
 10
5286.358884967006
 20
4239.546798568532
 30
0.0
 11
5286.358884967006
 21
4759.546798568538
 31
0.0
  0
LINE
  5
1944B
330
1913F
100
AcDbEntity
  8
CF-401
100
AcDbLine
 10
5313.180965518547
 20
4759.546798568538
 30
0.0
 11
5313.180965518547
 21
4239.546798568532
 31
0.0
  0
LINE
  5
1944C
330
1913F
100
AcDbEntity
  8
CF-401
100
AcDbLine
 10
5403.108884967006
 20
4239.546798568535
 30
0.0
 11
5403.108884967006
 21
4759.546798568535
 31
0.0
  0
LINE
  5
1944D
330
1913F
100
AcDbEntity
  8
CF-401
100
AcDbLine
 10
5419.758884967004
 20
4759.546798568538
 30
0.0
 11
5419.758884967004
 21
4239.546798568532
 31
0.0
  0
LINE
  5
1944E
330
1913F
100
AcDbEntity
  8
CF-401
100
AcDbLine
 10
5447.080965518546
 20
4239.546798568532
 30
0.0
 11
5447.080965518546
 21
4759.546798568538
 31
0.0
  0
LINE
  5
1944F
330
1913F
100
AcDbEntity
  8
CF-401
100
AcDbLine
 10
5463.730965518546
 20
4759.546798568535
 30
0.0
 11
5463.730965518546
 21
4239.546798568535
 31
0.0
  0
LINE
  5
19450
330
1913F
100
AcDbEntity
  8
CF-401
100
AcDbLine
 10
5330.430965518549
 20
4759.546798568535
 30
0.0
 11
5330.430965518549
 21
4239.546798568535
 31
0.0
  0
LINE
  5
19451
330
1913F
100
AcDbEntity
  8
CF-401
100
AcDbLine
 10
5536.408884967002
 20
4759.546798568535
 30
0.0
 11
5536.408884966999
 21
4239.546798568535
 31
0.0
  0
LINE
  5
19452
330
1913F
100
AcDbEntity
  8
CF-401
100
AcDbLine
 10
5553.058884967006
 20
4239.546798568532
 30
0.0
 11
5553.058884967006
 21
4759.546798568538
 31
0.0
  0
LINE
  5
19453
330
1913F
100
AcDbEntity
  8
CF-401
100
AcDbLine
 10
5579.880965518546
 20
4759.546798568538
 30
0.0
 11
5579.880965518546
 21
4239.546798568532
 31
0.0
  0
LINE
  5
19454
330
1913F
100
AcDbEntity
  8
CF-401
100
AcDbLine
 10
5669.808884967006
 20
4239.546798568535
 30
0.0
 11
5669.808884967006
 21
4759.546798568535
 31
0.0
  0
LINE
  5
19455
330
1913F
100
AcDbEntity
  8
CF-401
100
AcDbLine
 10
5686.458884967002
 20
4759.546798568538
 30
0.0
 11
5686.458884967002
 21
4239.546798568532
 31
0.0
  0
LINE
  5
19456
330
1913F
100
AcDbEntity
  8
CF-401
100
AcDbLine
 10
5713.780965518546
 20
4239.546798568532
 30
0.0
 11
5713.780965518546
 21
4759.546798568538
 31
0.0
  0
LINE
  5
19457
330
1913F
100
AcDbEntity
  8
CF-401
100
AcDbLine
 10
5730.430965518547
 20
4759.546798568535
 30
0.0
 11
5730.430965518547
 21
4239.546798568535
 31
0.0
  0
LINE
  5
19458
330
1913F
100
AcDbEntity
  8
CF-401
100
AcDbLine
 10
5597.130965518548
 20
4759.546798568535
 30
0.0
 11
5597.130965518548
 21
4239.546798568535
 31
0.0
  0
LINE
  5
19459
330
1913F
100
AcDbEntity
  8
CF-401
100
AcDbLine
 10
5803.208884967011
 20
4239.546798568533
 30
0.0
 11
5803.208884967011
 21
4759.546798568535
 31
0.0
  0
LINE
  5
1945A
330
1913F
100
AcDbEntity
  8
CF-401
100
AcDbLine
 10
5819.858884967008
 20
4759.546798568537
 30
0.0
 11
5819.858884967008
 21
4239.546798568532
 31
0.0
  0
LINE
  5
1945B
330
1913F
100
AcDbEntity
  8
CF-401
100
AcDbLine
 10
5847.180965518552
 20
4239.546798568532
 30
0.0
 11
5847.180965518552
 21
4759.546798568537
 31
0.0
  0
LINE
  5
1945C
330
1913F
100
AcDbEntity
  8
CF-401
100
AcDbLine
 10
5863.830965518552
 20
4759.546798568535
 30
0.0
 11
5863.830965518552
 21
4239.546798568533
 31
0.0
  0
LINE
  5
1945D
330
1913F
100
AcDbEntity
  8
CF-401
100
AcDbLine
 10
5936.508884967008
 20
4759.546798568535
 30
0.0
 11
5936.508884967007
 21
4239.546798568533
 31
0.0
  0
LINE
  5
1945E
330
1913F
100
AcDbEntity
  8
CF-401
100
AcDbLine
 10
5953.15888496701
 20
4239.546798568532
 30
0.0
 11
5953.15888496701
 21
4759.546798568537
 31
0.0
  0
LINE
  5
1945F
330
1913F
100
AcDbEntity
  8
CF-401
100
AcDbLine
 10
5979.980965518553
 20
4759.546798568537
 30
0.0
 11
5979.980965518553
 21
4239.546798568532
 31
0.0
  0
LINE
  5
19460
330
1913F
100
AcDbEntity
  8
CF-401
100
AcDbLine
 10
6069.90888496701
 20
4239.546798568533
 30
0.0
 11
6069.90888496701
 21
4759.546798568535
 31
0.0
  0
LINE
  5
19461
330
1913F
100
AcDbEntity
  8
CF-401
100
AcDbLine
 10
6086.55888496701
 20
4759.546798568537
 30
0.0
 11
6086.55888496701
 21
4239.546798568532
 31
0.0
  0
LINE
  5
19462
330
1913F
100
AcDbEntity
  8
CF-401
100
AcDbLine
 10
6113.880965518553
 20
4239.546798568532
 30
0.0
 11
6113.880965518553
 21
4759.546798568537
 31
0.0
  0
LINE
  5
19463
330
1913F
100
AcDbEntity
  8
CF-401
100
AcDbLine
 10
6130.530965518551
 20
4759.546798568535
 30
0.0
 11
6130.530965518551
 21
4239.546798568533
 31
0.0
  0
LINE
  5
19464
330
1913F
100
AcDbEntity
  8
CF-401
100
AcDbLine
 10
5997.230965518554
 20
4759.546798568535
 30
0.0
 11
5997.230965518554
 21
4239.546798568533
 31
0.0
  0
TEXT
  5
19465
330
1913F
100
AcDbEntity
  8
HIKIDASHI
100
AcDbText
 10
3372.189910816102
 20
9909.677917757594
 30
0.0
 40
90.0
  1
（CF）
 41
0.6666666666666666
  7
00
100
AcDbText
  0
TEXT
  5
19466
330
1913F
100
AcDbEntity
  8
HIKIDASHI
100
AcDbText
 10
3052.717678454138
 20
9909.677917757594
 30
0.0
 40
90.0
  1
端母屋
  7
01
100
AcDbText
  0
TEXT
  5
19467
330
1913F
100
AcDbEntity
  8
HIKIDASHI
100
AcDbText
 10
3796.369308708714
 20
9909.677917757594
 30
0.0
 40
90.0
  1
1.6
 41
0.6700000000000001
  7
00
100
AcDbText
  0
TEXT
  5
19468
330
1913F
100
AcDbEntity
  8
HIKIDASHI
100
AcDbText
 10
3645.397131892073
 20
9917.177917757594
 30
0.0
 40
75.0
  1
ア
  7
01
 72
     1
 11
3677.897131892072
 21
9954.677917757594
 31
0.0
100
AcDbText
 73
     2
  0
CIRCLE
  5
19469
330
1913F
100
AcDbEntity
  8
HIKIDASHI
100
AcDbCircle
 10
3677.897131892072
 20
9954.677917757594
 30
0.0
 40
60.0
  0
CIRCLE
  5
1946A
330
1913F
100
AcDbEntity
  8
HIKIDASHI
100
AcDbCircle
 10
3647.806080652673
 20
8582.944302231132
 30
0.0
 40
60.0
  0
LINE
  5
1946B
330
1913F
100
AcDbEntity
  8
HIKIDASHI
100
AcDbLine
 10
2905.023597758538
 20
8492.944302231133
 30
0.0
 11
3958.436181948103
 21
8492.944302231133
 31
0.0
  0
LINE
  5
1946C
330
1913F
100
AcDbEntity
  8
HIKIDASHI
100
AcDbLine
 10
2905.023597758539
 20
8927.744302231133
 30
0.0
 11
3958.436181948103
 21
8927.744302231136
 31
0.0
  0
LINE
  5
1946D
330
1913F
100
AcDbEntity
  8
HIKIDASHI
100
AcDbLine
 10
3038.078391761456
 20
9864.677917757594
 30
0.0
 11
3958.436181948103
 21
9864.677917757594
 31
0.0
  0
CIRCLE
  5
1946E
330
1913F
100
AcDbEntity
  8
HIKIDASHI
100
AcDbCircle
 10
3647.806080652673
 20
9017.744302231134
 30
0.0
 40
60.0
  0
TEXT
  5
1946F
330
1913F
100
AcDbEntity
  8
HIKIDASHI
100
AcDbText
 10
2919.337056941278
 20
8537.944302231133
 30
0.0
 40
90.0
  1
母屋金具
  7
01
100
AcDbText
  0
TEXT
  5
19470
330
1913F
100
AcDbEntity
  8
HIKIDASHI
100
AcDbText
 10
3334.285149409711
 20
8537.944302231133
 30
0.0
 40
90.0
  1
（AF）
 41
0.6666666666666666
  7
00
100
AcDbText
  0
TEXT
  5
19471
330
1913F
100
AcDbEntity
  8
HIKIDASHI
100
AcDbText
 10
3615.306080652672
 20
8545.444302231132
 30
0.0
 40
75.0
  1
ア
  7
01
 72
     1
 11
3647.806080652673
 21
8582.944302231132
 31
0.0
100
AcDbText
 73
     2
  0
TEXT
  5
19472
330
1913F
100
AcDbEntity
  8
HIKIDASHI
100
AcDbText
 10
2919.337056941278
 20
8972.744302231134
 30
0.0
 40
90.0
  1
母屋金具
  7
01
100
AcDbText
  0
TEXT
  5
19473
330
1913F
100
AcDbEntity
  8
HIKIDASHI
100
AcDbText
 10
3334.285149409711
 20
8972.744302231136
 30
0.0
 40
90.0
  1
（CF）
 41
0.6666666666666666
  7
00
100
AcDbText
  0
TEXT
  5
19474
330
1913F
100
AcDbEntity
  8
HIKIDASHI
100
AcDbText
 10
3615.306080652672
 20
8980.244302231135
 30
0.0
 40
75.0
  1
ア
  7
01
 72
     1
 11
3647.806080652673
 21
9017.744302231134
 31
0.0
100
AcDbText
 73
     2
  0
TEXT
  5
19475
330
1913F
100
AcDbEntity
  8
HIKIDASHI
100
AcDbText
 10
3766.27825746931
 20
8537.944302231133
 30
0.0
 40
90.0
  1
3.2
 41
0.6700000000000001
  7
00
100
AcDbText
  0
TEXT
  5
19476
330
1913F
100
AcDbEntity
  8
HIKIDASHI
100
AcDbText
 10
3766.278257469311
 20
8972.744302231134
 30
0.0
 40
90.0
  1
3.2
 41
0.6700000000000001
  7
00
100
AcDbText
  0
LINE
  5
19477
330
1913F
100
AcDbEntity
  8
HIKIDASHI
100
AcDbLine
 10
2912.010700647454
 20
7621.353322994076
 30
0.0
 11
3827.06168081575
 21
7621.353322994076
 31
0.0
  0
CIRCLE
  5
19478
330
1913F
100
AcDbEntity
  8
HIKIDASHI
100
AcDbCircle
 10
3548.525380948595
 20
7711.353322994077
 30
0.0
 40
60.0
  0
TEXT
  5
19479
330
1913F
100
AcDbEntity
  8
HIKIDASHI
100
AcDbText
 10
3516.025380948595
 20
7673.853322994077
 30
0.0
 40
75.0
  1
ア
  7
01
 72
     1
 11
3548.525380948595
 21
7711.353322994077
 31
0.0
100
AcDbText
 73
     2
  0
TEXT
  5
1947A
330
1913F
100
AcDbEntity
  8
HIKIDASHI
100
AcDbText
 10
2922.010700647454
 20
7666.353322994076
 30
0.0
 40
90.0
  1
鼻隠し
  7
01
100
AcDbText
  0
TEXT
  5
1947B
330
1913F
100
AcDbEntity
  8
HIKIDASHI
100
AcDbText
 10
3221.419267257024
 20
7666.353322994076
 30
0.0
 40
90.0
  1
（CF）
 41
0.6666666666666666
  7
00
100
AcDbText
  0
LINE
  5
1947C
330
1913F
100
AcDbEntity
  8
HIKIDASHI
100
AcDbLine
 10
4693.626269517052
 20
8804.896898117092
 30
0.0
 11
5122.545146856289
 21
8804.896898117092
 31
0.0
  0
TEXT
  5
1947D
330
1913F
100
AcDbEntity
  8
HIKIDASHI
100
AcDbText
 10
4703.626269517052
 20
8849.896898117092
 30
0.0
 40
90.0
  1
屋根受け
  7
01
100
AcDbText
  0
TEXT
  5
1947E
330
1913F
100
AcDbEntity
  8
HIKIDASHI
100
AcDbText
 10
3666.997557765233
 20
7666.353322994076
 30
0.0
 40
90.0
  1
1.2
 41
0.6700000000000001
  7
00
100
AcDbText
  0
LINE
  5
1947F
330
1913F
100
AcDbEntity
  8
HIKIDASHI
100
AcDbLine
 10
4566.89150768862
 20
10355.132282271
 30
0.0
 11
5367.563096736599
 21
10355.132282271
 31
0.0
  0
TEXT
  5
19480
330
1913F
100
AcDbEntity
  8
HIKIDASHI
100
AcDbText
 10
5218.392232558277
 20
10400.13228227099
 30
0.0
 40
90.0
  1
0.8
 41
0.6700000000000001
  7
00
100
AcDbText
  0
TEXT
  5
19481
330
1913F
100
AcDbEntity
  8
HIKIDASHI
100
AcDbText
 10
4576.891507688619
 20
10400.13228227099
 30
0.0
 40
90.0
  1
トイ
  7
01
100
AcDbText
  0
TEXT
  5
19482
330
1913F
100
AcDbEntity
  8
HIKIDASHI
100
AcDbText
 10
4770.928506459529
 20
10400.13228227099
 30
0.0
 40
90.0
  1
（CF）
 41
0.6666666666666666
  7
00
100
AcDbText
  0
CIRCLE
  5
19483
330
1913F
100
AcDbEntity
  8
HIKIDASHI
100
AcDbCircle
 10
5099.920055741637
 20
10445.13228227099
 30
0.0
 40
60.0
  0
TEXT
  5
19484
330
1913F
100
AcDbEntity
  8
HIKIDASHI
100
AcDbText
 10
5067.420055741639
 20
10407.63228227099
 30
0.0
 40
75.0
  1
ア
  7
01
 72
     1
 11
5099.920055741637
 21
10445.13228227099
 31
0.0
100
AcDbText
 73
     2
  0
LINE
  5
19485
330
1913F
100
AcDbEntity
  8
HIKIDASHI
100
AcDbLine
 10
3001.959728881447
 20
10355.132282271
 30
0.0
 11
3958.436181948103
 21
10355.132282271
 31
0.0
  0
TEXT
  5
19486
330
1913F
100
AcDbEntity
  8
HIKIDASHI
100
AcDbText
 10
3128.094264195328
 20
10400.13228227099
 30
0.0
 40
90.0
  1
（CF）
 41
0.6666666666666666
  7
00
100
AcDbText
  0
TEXT
  5
19487
330
1913F
100
AcDbEntity
  8
HIKIDASHI
100
AcDbText
 10
3011.959728881446
 20
10400.13228227099
 30
0.0
 40
90.0
  1
柱
  7
01
100
AcDbText
  0
TEXT
  5
19488
330
1913F
100
AcDbEntity
  8
HIKIDASHI
100
AcDbText
 10
3412.333830563819
 20
10400.13228227099
 30
0.0
 40
90.0
  1
89.1%%C x 4.2
 41
0.6700000000000001
  7
00
100
AcDbText
  0
LINE
  5
19489
330
1913F
100
AcDbEntity
  8
HIKIDASHI
100
AcDbLine
 10
6800.962084885579
 20
10561.24590900423
 30
0.0
 11
7669.395536268678
 21
10561.24590900423
 31
0.0
  0
TEXT
  5
1948A
330
1913F
100
AcDbEntity
  8
HIKIDASHI
100
AcDbText
 10
6810.96208488558
 20
10606.24590900423
 30
0.0
 40
90.0
  1
トイコーナー樹脂
  7
01
100
AcDbText
  0
TEXT
  5
1948B
330
1913F
100
AcDbEntity
  8
HIKIDASHI
100
AcDbText
 10
6823.415866697262
 20
7701.104068830495
 30
0.0
 40
90.0
  1
鼻隠しコーナー樹脂
  7
01
100
AcDbText
  0
LINE
  5
1948C
330
1913F
100
AcDbEntity
  8
HIKIDASHI
100
AcDbLine
 10
6813.415866697262
 20
7656.104068830498
 30
0.0
 11
7762.379825888726
 21
7656.104068830498
 31
0.0
  0
LINE
  5
1948D
330
1913F
100
AcDbEntity
  8
HIKIDASHI
100
AcDbLine
 10
6797.811168589014
 20
7866.104068830495
 30
0.0
 11
7746.775127780468
 21
7866.104068830495
 31
0.0
  0
TEXT
  5
1948E
330
1913F
100
AcDbEntity
  8
HIKIDASHI
100
AcDbText
 10
6807.811168589015
 20
7911.104068830495
 30
0.0
 40
90.0
  1
けらば
  7
01
100
AcDbText
  0
TEXT
  5
1948F
330
1913F
100
AcDbEntity
  8
HIKIDASHI
100
AcDbText
 10
7570.33027592864
 20
7911.104068830495
 30
0.0
 40
90.0
  1
0.8
 41
0.6700000000000001
  7
00
100
AcDbText
  0
TEXT
  5
19490
330
1913F
100
AcDbEntity
  8
HIKIDASHI
100
AcDbText
 10
7112.175120197088
 20
7911.104068830495
 30
0.0
 40
90.0
  1
（CF）
 41
0.6666666666666666
  7
00
100
AcDbText
  0
CIRCLE
  5
19491
330
1913F
100
AcDbEntity
  8
HIKIDASHI
100
AcDbCircle
 10
7451.858099112015
 20
7956.104068830498
 30
0.0
 40
60.0
  0
TEXT
  5
19492
330
1913F
100
AcDbEntity
  8
HIKIDASHI
100
AcDbText
 10
7419.358099112014
 20
7918.604068830498
 30
0.0
 40
75.0
  1
ア
  7
01
 72
     1
 11
7451.858099112015
 21
7956.104068830498
 31
0.0
100
AcDbText
 73
     2
  0
LINE
  5
19493
330
1913F
100
AcDbEntity
  8
HIKIDASHI
100
AcDbLine
 10
4118.776973276619
 20
10782.20356916861
 30
0.0
 11
5446.022721769288
 21
10782.20356916861
 31
0.0
  0
TEXT
  5
19494
330
1913F
100
AcDbEntity
  8
HIKIDASHI
100
AcDbText
 10
4148.776973276619
 20
10647.20356916861
 30
0.0
 40
90.0
  1
ヨド角波サイディング
  7
02
100
AcDbText
  0
TEXT
  5
19495
330
1913F
100
AcDbEntity
  8
HIKIDASHI
100
AcDbText
 10
4148.776973276619
 20
10827.20356916861
 30
0.0
 40
90.0
  1
屋根
  7
02
100
AcDbText
  0
TEXT
  5
19496
330
1913F
100
AcDbEntity
  8
HIKIDASHI
100
AcDbText
 10
4360.309040794922
 20
10827.20356916861
 30
0.0
 40
90.0
  1
（CF）
 41
0.6666666666666666
  7
00
100
AcDbText
  0
TEXT
  5
19497
330
1913F
100
AcDbEntity
  8
HIKIDASHI
100
AcDbText
 10
5243.737007483573
 20
10647.20356916861
 30
0.0
 40
90.0
  1
0.4t
 41
0.6700000000000001
  7
01
100
AcDbText
  0
LINE
  5
19498
330
1913F
100
AcDbEntity
  8
HIKIDASHI
100
AcDbLine
 10
3001.959728881447
 20
9394.42786850874
 30
0.0
 11
3958.436181948103
 21
9394.42786850874
 31
0.0
  0
TEXT
  5
19499
330
1913F
100
AcDbEntity
  8
HIKIDASHI
100
AcDbText
 10
3128.094264195328
 20
9439.427868508742
 30
0.0
 40
90.0
  1
（CF）
 41
0.6666666666666666
  7
00
100
AcDbText
  0
TEXT
  5
1949A
330
1913F
100
AcDbEntity
  8
HIKIDASHI
100
AcDbText
 10
3011.959728881446
 20
9439.427868508742
 30
0.0
 40
90.0
  1
梁
  7
01
100
AcDbText
  0
TEXT
  5
1949B
330
1913F
100
AcDbEntity
  8
HIKIDASHI
100
AcDbText
 10
3412.333830563819
 20
9439.427868508742
 30
0.0
 40
90.0
  1
89.1%%C x 4.2
 41
0.6700000000000001
  7
00
100
AcDbText
  0
LINE
  5
1949C
330
1913F
100
AcDbEntity
  8
HIKIDASHI
100
AcDbLine
 10
4736.146375674826
 20
8365.031635279924
 30
0.0
 11
5564.784010045396
 21
8365.031635279924
 31
0.0
  0
TEXT
  5
1949D
330
1913F
100
AcDbEntity
  8
HIKIDASHI
100
AcDbText
 10
4746.146375674827
 20
8410.031635279926
 30
0.0
 40
90.0
  1
母屋
  7
01
100
AcDbText
  0
TEXT
  5
1949E
330
1913F
100
AcDbEntity
  8
HIKIDASHI
100
AcDbText
 10
4953.419317520969
 20
8410.031635279926
 30
0.0
 40
90.0
  1
（CF）
 41
0.6666666666666666
  7
00
100
AcDbText
  0
TEXT
  5
1949F
330
1913F
100
AcDbEntity
  8
HIKIDASHI
100
AcDbText
 10
5251.744959989369
 20
8417.531635279926
 30
0.0
 40
75.0
  1
ア
  7
01
 72
     1
 11
5284.244959989369
 21
8455.031635279926
 31
0.0
100
AcDbText
 73
     2
  0
CIRCLE
  5
194A0
330
1913F
100
AcDbEntity
  8
HIKIDASHI
100
AcDbCircle
 10
5284.244959989369
 20
8455.031635279926
 30
0.0
 40
60.0
  0
TEXT
  5
194A1
330
1913F
100
AcDbEntity
  8
HIKIDASHI
100
AcDbText
 10
5402.717136806008
 20
8410.031635279926
 30
0.0
 40
90.0
  1
1.6
 41
0.6700000000000001
  7
00
100
AcDbText
  0
TEXT
  5
194A2
330
1913F
100
AcDbEntity
  8
NAME
100
AcDbText
 10
12336.92663601099
 20
954.9999999999991
 30
0.0
 40
160.0
  1
YOCF
 41
0.7
  7
01
100
AcDbText
  0
TEXT
  5
194A3
330
1913F
100
AcDbEntity
  8
NAME
100
AcDbText
 10
10903.6879903188
 20
954.9999999999991
 30
0.0
 40
160.0
  1
ヨド自転車置場      タイプ
  7
01
100
AcDbText
  0
TEXT
  5
194A4
330
1913F
100
AcDbEntity
  8
NAME
100
AcDbText
 10
11816.04264730429
 20
541.0000000000001
 30
0.0
 40
160.0
  1
型（一般地用）
 41
0.8
  7
01
100
AcDbText
  0
TEXT
  5
194A5
330
1913F
100
AcDbEntity
  8
NAME
100
AcDbText
 10
10912.04264730428
 20
541.0000000000001
 30
0.0
 40
160.0
  1
YOCF-200
 41
0.7
  7
01
 72
     2
 11
11776.04264730429
 21
541.0000000000001
 31
0.0
100
AcDbText
  0
TEXT
  5
194A6
330
1913F
100
AcDbEntity
  8
NAME
100
AcDbText
 10
12854.79999999999
 20
541.0000000000003
 30
0.0
 40
160.0
  1
<1／3>
 41
0.6
  7
01
 72
     2
 11
13354.0
 21
541.0000000000003
 31
0.0
100
AcDbText
  0
LINE
  5
194A7
330
1913F
100
AcDbEntity
  8
TATEDOISIJIKANAGU
100
AcDbLine
 10
12096.05809360815
 20
4160.945911588543
 30
0.0
 11
12139.05809360815
 21
4160.945911588543
 31
0.0
  0
LINE
  5
194A8
330
1913F
100
AcDbEntity
  8
TATEDOISIJIKANAGU
100
AcDbLine
 10
12059.3011104448
 20
4040.040683378579
 30
0.0
 11
12103.30069413384
 21
4040.040683378584
 31
0.0
  0
ARC
  5
194A9
330
1913F
100
AcDbEntity
  8
TATEDOISIJIKANAGU
100
AcDbCircle
 10
12081.30090228932
 20
4083.893337339999
 30
0.0
 40
19.50000000000022
100
AcDbArc
 50
0.0
 51
180.0
  0
ARC
  5
194AA
330
1913F
100
AcDbEntity
  8
TATEDOISIJIKANAGU
100
AcDbCircle
 10
12081.30090228932
 20
4068.289727286399
 30
0.0
 40
19.50000000000022
100
AcDbArc
 50
348.4738667093586
 51
191.5261332906409
  0
ARC
  5
194AB
330
1913F
100
AcDbEntity
  8
TATEDOISIJIKANAGU
100
AcDbCircle
 10
12096.30090228932
 20
4053.643337339998
 30
0.0
 40
0.5000000000000285
100
AcDbArc
 50
125.9487523471963
 51
234.0512476528036
  0
ARC
  5
194AC
330
1913F
100
AcDbEntity
  8
TATEDOISIJIKANAGU
100
AcDbCircle
 10
12066.30090228932
 20
4053.643337339998
 30
0.0
 40
0.5000000000000285
100
AcDbArc
 50
305.9487523471963
 51
54.05124765280366
  0
ARC
  5
194AD
330
1913F
100
AcDbEntity
  8
TATEDOISIJIKANAGU
100
AcDbCircle
 10
12081.30090228932
 20
4045.230828041673
 30
0.0
 40
26.95528919112273
100
AcDbArc
 50
45.66157814940276
 51
134.3384218505972
  0
ARC
  5
194AE
330
1913F
100
AcDbEntity
  8
TATEDOISIJIKANAGU
100
AcDbCircle
 10
12096.30090228932
 20
4059.643337339998
 30
0.0
 40
0.5000000000000285
100
AcDbArc
 50
125.9487523471963
 51
234.0512476528036
  0
ARC
  5
194AF
330
1913F
100
AcDbEntity
  8
TATEDOISIJIKANAGU
100
AcDbCircle
 10
12100.00090228932
 20
4057.722057635056
 30
0.0
 40
0.8
100
AcDbArc
 50
0.0
 51
80.00000000015855
  0
ARC
  5
194B0
330
1913F
100
AcDbEntity
  8
TATEDOISIJIKANAGU
100
AcDbCircle
 10
12100.00090228932
 20
4055.564617044942
 30
0.0
 40
0.8
100
AcDbArc
 50
279.9999999998413
 51
0.0
  0
LINE
  5
194B1
330
1913F
100
AcDbEntity
  8
TATEDOISIJIKANAGU
100
AcDbLine
 10
12100.80090228932
 20
4055.564617044942
 30
0.0
 11
12100.80090228932
 21
4057.722057635056
 31
0.0
  0
ARC
  5
194B2
330
1913F
100
AcDbEntity
  8
TATEDOISIJIKANAGU
100
AcDbCircle
 10
12100.00090228932
 20
4063.722057635057
 30
0.0
 40
0.8
100
AcDbArc
 50
0.0
 51
80.00000000015855
  0
LINE
  5
194B3
330
1913F
100
AcDbEntity
  8
TATEDOISIJIKANAGU
100
AcDbLine
 10
12100.80090228932
 20
4063.722057635057
 30
0.0
 11
12100.80090228932
 21
4061.564617044941
 31
0.0
  0
ARC
  5
194B4
330
1913F
100
AcDbEntity
  8
TATEDOISIJIKANAGU
100
AcDbCircle
 10
12100.00090228932
 20
4061.564617044941
 30
0.0
 40
0.8
100
AcDbArc
 50
279.9999999998413
 51
0.0
  0
LINE
  5
194B5
330
1913F
100
AcDbEntity
  8
TATEDOISIJIKANAGU
100
AcDbLine
 10
12100.80090228932
 20
4068.289727286399
 30
0.0
 11
12100.80090228932
 21
4083.893337339999
 31
0.0
  0
LINE
  5
194B6
330
1913F
100
AcDbEntity
  8
TATEDOISIJIKANAGU
100
AcDbLine
 10
12100.13982083146
 20
4058.509903837467
 30
0.0
 11
12096.00737158938
 21
4059.238566135253
 31
0.0
  0
LINE
  5
194B7
330
1913F
100
AcDbEntity
  8
TATEDOISIJIKANAGU
100
AcDbLine
 10
12100.13982083146
 20
4060.776770842529
 30
0.0
 11
12096.00737158938
 21
4060.048108544743
 31
0.0
  0
LINE
  5
194B8
330
1913F
100
AcDbEntity
  8
TATEDOISIJIKANAGU
100
AcDbLine
 10
12100.13982083146
 20
4054.77677084253
 30
0.0
 11
12096.00737158938
 21
4054.048108544743
 31
0.0
  0
ARC
  5
194B9
330
1913F
100
AcDbEntity
  8
TATEDOISIJIKANAGU
100
AcDbCircle
 10
12062.60090228931
 20
4057.722057635056
 30
0.0
 40
0.8
100
AcDbArc
 50
99.99999999984147
 51
180.0
  0
ARC
  5
194BA
330
1913F
100
AcDbEntity
  8
TATEDOISIJIKANAGU
100
AcDbCircle
 10
12062.60090228931
 20
4055.564617044942
 30
0.0
 40
0.8
100
AcDbArc
 50
180.0
 51
260.0000000001585
  0
ARC
  5
194BB
330
1913F
100
AcDbEntity
  8
TATEDOISIJIKANAGU
100
AcDbCircle
 10
12062.60090228931
 20
4063.722057635057
 30
0.0
 40
0.8
100
AcDbArc
 50
99.99999999984147
 51
180.0
  0
ARC
  5
194BC
330
1913F
100
AcDbEntity
  8
TATEDOISIJIKANAGU
100
AcDbCircle
 10
12062.60090228931
 20
4061.564617044941
 30
0.0
 40
0.8
100
AcDbArc
 50
180.0
 51
260.0000000001585
  0
ARC
  5
194BD
330
1913F
100
AcDbEntity
  8
TATEDOISIJIKANAGU
100
AcDbCircle
 10
12066.30090228932
 20
4059.643337339998
 30
0.0
 40
0.5000000000000285
100
AcDbArc
 50
305.9487523471963
 51
54.05124765280366
  0
LINE
  5
194BE
330
1913F
100
AcDbEntity
  8
TATEDOISIJIKANAGU
100
AcDbLine
 10
12062.46198374718
 20
4058.509903837467
 30
0.0
 11
12066.59443298926
 21
4059.238566135253
 31
0.0
  0
LINE
  5
194BF
330
1913F
100
AcDbEntity
  8
TATEDOISIJIKANAGU
100
AcDbLine
 10
12062.46198374718
 20
4060.776770842529
 30
0.0
 11
12066.59443298926
 21
4060.048108544743
 31
0.0
  0
LINE
  5
194C0
330
1913F
100
AcDbEntity
  8
TATEDOISIJIKANAGU
100
AcDbLine
 10
12062.46198374718
 20
4054.77677084253
 30
0.0
 11
12066.59443298926
 21
4054.048108544743
 31
0.0
  0
LINE
  5
194C1
330
1913F
100
AcDbEntity
  8
TATEDOISIJIKANAGU
100
AcDbLine
 10
12061.80090228932
 20
4055.564617044942
 30
0.0
 11
12061.80090228932
 21
4057.722057635056
 31
0.0
  0
LINE
  5
194C2
330
1913F
100
AcDbEntity
  8
TATEDOISIJIKANAGU
100
AcDbLine
 10
12061.80090228932
 20
4063.722057635057
 30
0.0
 11
12061.80090228932
 21
4061.564617044941
 31
0.0
  0
LINE
  5
194C3
330
1913F
100
AcDbEntity
  8
TATEDOISIJIKANAGU
100
AcDbLine
 10
12061.80090228932
 20
4068.289727286399
 30
0.0
 11
12061.80090228932
 21
4083.893337339999
 31
0.0
  0
ARC
  5
194C4
330
1913F
100
AcDbEntity
  8
TATEDOISIJIKANAGU
100
AcDbCircle
 10
12096.30090228932
 20
4041.64333734
 30
0.0
 40
0.5000000000000285
100
AcDbArc
 50
125.9487523471963
 51
234.0512476528036
  0
ARC
  5
194C5
330
1913F
100
AcDbEntity
  8
TATEDOISIJIKANAGU
100
AcDbCircle
 10
12096.30090228932
 20
4047.64333734
 30
0.0
 40
0.5000000000000285
100
AcDbArc
 50
125.9487523471963
 51
234.0512476528036
  0
LINE
  5
194C6
330
1913F
100
AcDbEntity
  8
TATEDOISIJIKANAGU
100
AcDbLine
 10
12100.80090228932
 20
4051.722057635056
 30
0.0
 11
12100.80090228932
 21
4049.564617044942
 31
0.0
  0
ARC
  5
194C7
330
1913F
100
AcDbEntity
  8
TATEDOISIJIKANAGU
100
AcDbCircle
 10
12100.00090228932
 20
4051.722057635056
 30
0.0
 40
0.8
100
AcDbArc
 50
0.0
 51
80.00000000015855
  0
ARC
  5
194C8
330
1913F
100
AcDbEntity
  8
TATEDOISIJIKANAGU
100
AcDbCircle
 10
12100.00090228932
 20
4045.722057635057
 30
0.0
 40
0.8
100
AcDbArc
 50
0.0
 51
80.00000000015855
  0
LINE
  5
194C9
330
1913F
100
AcDbEntity
  8
TATEDOISIJIKANAGU
100
AcDbLine
 10
12100.80090228932
 20
4043.564617044943
 30
0.0
 11
12100.80090228932
 21
4045.722057635057
 31
0.0
  0
ARC
  5
194CA
330
1913F
100
AcDbEntity
  8
TATEDOISIJIKANAGU
100
AcDbCircle
 10
12100.00090228932
 20
4049.564617044942
 30
0.0
 40
0.8
100
AcDbArc
 50
279.9999999998413
 51
0.0
  0
ARC
  5
194CB
330
1913F
100
AcDbEntity
  8
TATEDOISIJIKANAGU
100
AcDbCircle
 10
12100.00090228932
 20
4043.564617044943
 30
0.0
 40
0.8
100
AcDbArc
 50
279.9999999998413
 51
0.0
  0
LINE
  5
194CC
330
1913F
100
AcDbEntity
  8
TATEDOISIJIKANAGU
100
AcDbLine
 10
12100.13982083146
 20
4052.509903837466
 30
0.0
 11
12096.00737158938
 21
4053.238566135251
 31
0.0
  0
LINE
  5
194CD
330
1913F
100
AcDbEntity
  8
TATEDOISIJIKANAGU
100
AcDbLine
 10
12100.13982083146
 20
4042.776770842531
 30
0.0
 11
12096.00737158938
 21
4042.048108544745
 31
0.0
  0
LINE
  5
194CE
330
1913F
100
AcDbEntity
  8
TATEDOISIJIKANAGU
100
AcDbLine
 10
12102.80090228932
 20
4040.040683378581
 30
0.0
 11
12096.00737158938
 21
4041.238566135253
 31
0.0
  0
LINE
  5
194CF
330
1913F
100
AcDbEntity
  8
TATEDOISIJIKANAGU
100
AcDbLine
 10
12100.13982083146
 20
4048.77677084253
 30
0.0
 11
12096.00737158938
 21
4048.048108544744
 31
0.0
  0
LINE
  5
194D0
330
1913F
100
AcDbEntity
  8
TATEDOISIJIKANAGU
100
AcDbLine
 10
12100.13982083146
 20
4046.509903837466
 30
0.0
 11
12096.00737158938
 21
4047.238566135251
 31
0.0
  0
LINE
  5
194D1
330
1913F
100
AcDbEntity
  8
TATEDOISIJIKANAGU
100
AcDbLine
 10
12061.80090228932
 20
4051.722057635056
 30
0.0
 11
12061.80090228932
 21
4049.564617044942
 31
0.0
  0
ARC
  5
194D2
330
1913F
100
AcDbEntity
  8
TATEDOISIJIKANAGU
100
AcDbCircle
 10
12062.60090228931
 20
4051.722057635056
 30
0.0
 40
0.8
100
AcDbArc
 50
99.99999999984147
 51
180.0
  0
LINE
  5
194D3
330
1913F
100
AcDbEntity
  8
TATEDOISIJIKANAGU
100
AcDbLine
 10
12062.46198374718
 20
4052.509903837466
 30
0.0
 11
12066.59443298926
 21
4053.238566135251
 31
0.0
  0
LINE
  5
194D4
330
1913F
100
AcDbEntity
  8
TATEDOISIJIKANAGU
100
AcDbLine
 10
12059.80090228932
 20
4040.040683378581
 30
0.0
 11
12066.59443298926
 21
4041.238566135253
 31
0.0
  0
ARC
  5
194D5
330
1913F
100
AcDbEntity
  8
TATEDOISIJIKANAGU
100
AcDbCircle
 10
12062.60090228931
 20
4045.722057635057
 30
0.0
 40
0.8
100
AcDbArc
 50
99.99999999984147
 51
180.0
  0
ARC
  5
194D6
330
1913F
100
AcDbEntity
  8
TATEDOISIJIKANAGU
100
AcDbCircle
 10
12062.60090228931
 20
4049.564617044942
 30
0.0
 40
0.8
100
AcDbArc
 50
180.0
 51
260.0000000001585
  0
ARC
  5
194D7
330
1913F
100
AcDbEntity
  8
TATEDOISIJIKANAGU
100
AcDbCircle
 10
12062.60090228931
 20
4043.564617044943
 30
0.0
 40
0.8
100
AcDbArc
 50
180.0
 51
260.0000000001585
  0
ARC
  5
194D8
330
1913F
100
AcDbEntity
  8
TATEDOISIJIKANAGU
100
AcDbCircle
 10
12066.30090228932
 20
4041.64333734
 30
0.0
 40
0.5000000000000285
100
AcDbArc
 50
305.9487523471963
 51
54.05124765280366
  0
LINE
  5
194D9
330
1913F
100
AcDbEntity
  8
TATEDOISIJIKANAGU
100
AcDbLine
 10
12062.46198374718
 20
4042.776770842531
 30
0.0
 11
12066.59443298926
 21
4042.048108544745
 31
0.0
  0
ARC
  5
194DA
330
1913F
100
AcDbEntity
  8
TATEDOISIJIKANAGU
100
AcDbCircle
 10
12066.30090228932
 20
4047.64333734
 30
0.0
 40
0.5000000000000285
100
AcDbArc
 50
305.9487523471963
 51
54.05124765280366
  0
LINE
  5
194DB
330
1913F
100
AcDbEntity
  8
TATEDOISIJIKANAGU
100
AcDbLine
 10
12062.46198374718
 20
4048.77677084253
 30
0.0
 11
12066.59443298926
 21
4048.048108544744
 31
0.0
  0
LINE
  5
194DC
330
1913F
100
AcDbEntity
  8
TATEDOISIJIKANAGU
100
AcDbLine
 10
12062.46198374718
 20
4046.509903837466
 30
0.0
 11
12066.59443298926
 21
4047.238566135251
 31
0.0
  0
LINE
  5
194DD
330
1913F
100
AcDbEntity
  8
TATEDOISIJIKANAGU
100
AcDbLine
 10
12061.80090228932
 20
4043.564617044943
 30
0.0
 11
12061.80090228932
 21
4045.722057635057
 31
0.0
  0
ARC
  5
194DE
330
1913F
100
AcDbEntity
  8
TATEDOISIJIKANAGU
100
AcDbCircle
 10
12096.5509022893
 20
4105.946744996759
 30
0.0
 40
19.50000000000022
100
AcDbArc
 50
322.5048867985568
 51
142.5048867985567
  0
LINE
  5
194DF
330
1913F
100
AcDbEntity
  8
TATEDOISIJIKANAGU
100
AcDbLine
 10
12127.82715509095
 20
4114.678136375535
 30
0.0
 11
12100.80090228932
 21
4079.450617257069
 31
0.0
  0
ARC
  5
194E0
330
1913F
100
AcDbEntity
  8
TATEDOISIJIKANAGU
100
AcDbCircle
 10
12088.01323931214
 20
4094.818280834057
 30
0.0
 40
19.50000000000022
100
AcDbArc
 50
322.5048867985568
 51
142.5048867985567
  0
LINE
  5
194E1
330
1913F
100
AcDbEntity
  8
TATEDOISIJIKANAGU
100
AcDbLine
 10
12096.88434998571
 20
4138.417193058951
 30
0.0
 11
12072.54183675952
 21
4106.687809175773
 31
0.0
  0
ARC
  5
194E2
330
1913F
100
AcDbEntity
  8
TATEDOISIJIKANAGU
100
AcDbCircle
 10
12105.08856526646
 20
4117.075209159465
 30
0.0
 40
19.50000000000022
100
AcDbArc
 50
322.5048867985568
 51
142.5048867985567
  0
ARC
  5
194E3
330
1913F
100
AcDbEntity
  8
TATEDOISIJIKANAGU
100
AcDbCircle
 10
12112.35575253832
 20
4126.547664717241
 30
0.0
 40
19.50000000000022
100
AcDbArc
 50
322.5048867985568
 51
142.5048867985567
  0
LINE
  5
194E4
330
1913F
100
AcDbEntity
  8
TATEDOISIJIKANAGU
100
AcDbLine
 10
12136.84083938084
 20
4153.933681208636
 30
0.0
 11
12136.84083938084
 21
4150.433681208634
 31
0.0
  0
LINE
  5
194E5
330
1913F
100
AcDbEntity
  8
TATEDOISIJIKANAGU
100
AcDbLine
 10
12139.05809360815
 20
4160.945911588543
 30
0.0
 11
12133.64134067557
 21
4157.655304476814
 31
0.0
  0
ARC
  5
194E6
330
1913F
100
AcDbEntity
  8
TATEDOISIJIKANAGU
100
AcDbCircle
 10
12134.37207750704
 20
4156.927653438793
 30
0.0
 40
1.031238260528155
100
AcDbArc
 50
135.1212315872968
 51
226.0450372727151
  0
LINE
  5
194E7
330
1913F
100
AcDbEntity
  8
TATEDOISIJIKANAGU
100
AcDbLine
 10
12136.84083938084
 20
4153.933681208636
 30
0.0
 11
12133.65630253802
 21
4156.185279851093
 31
0.0
  0
ARC
  5
194E8
330
1913F
100
AcDbEntity
  8
TATEDOISIJIKANAGU
100
AcDbCircle
 10
12132.34083938085
 20
4149.183681208636
 30
0.0
 40
0.5000000000000285
100
AcDbArc
 50
125.9487523471963
 51
234.0512476528036
  0
LINE
  5
194E9
330
1913F
100
AcDbEntity
  8
TATEDOISIJIKANAGU
100
AcDbLine
 10
12136.84083938084
 20
4144.433681208634
 30
0.0
 11
12136.84083938084
 21
4147.933681208636
 31
0.0
  0
LINE
  5
194EA
330
1913F
100
AcDbEntity
  8
TATEDOISIJIKANAGU
100
AcDbLine
 10
12136.84083938084
 20
4150.433681208634
 30
0.0
 11
12132.04730868091
 21
4149.588452413381
 31
0.0
  0
LINE
  5
194EB
330
1913F
100
AcDbEntity
  8
TATEDOISIJIKANAGU
100
AcDbLine
 10
12136.84083938084
 20
4147.933681208636
 30
0.0
 11
12132.04730868091
 21
4148.778910003889
 31
0.0
  0
LINE
  5
194EC
330
1913F
100
AcDbEntity
  8
TATEDOISIJIKANAGU
100
AcDbLine
 10
12097.84083938084
 20
4153.933681208636
 30
0.0
 11
12097.84083938084
 21
4150.433681208634
 31
0.0
  0
LINE
  5
194ED
330
1913F
100
AcDbEntity
  8
TATEDOISIJIKANAGU
100
AcDbLine
 10
12097.84083938084
 20
4153.933681208636
 30
0.0
 11
12101.02537622367
 21
4156.185279851093
 31
0.0
  0
ARC
  5
194EE
330
1913F
100
AcDbEntity
  8
TATEDOISIJIKANAGU
100
AcDbCircle
 10
12100.30960125465
 20
4156.927653438793
 30
0.0
 40
1.031238260528155
100
AcDbArc
 50
313.9549627272848
 51
44.87876841270302
  0
LINE
  5
194EF
330
1913F
100
AcDbEntity
  8
TATEDOISIJIKANAGU
100
AcDbLine
 10
12096.05809360815
 20
4160.945911588543
 30
0.0
 11
12101.0403380861
 21
4157.655304476814
 31
0.0
  0
ARC
  5
194F0
330
1913F
100
AcDbEntity
  8
TATEDOISIJIKANAGU
100
AcDbCircle
 10
12102.34083938084
 20
4149.183681208636
 30
0.0
 40
0.5000000000000285
100
AcDbArc
 50
305.9487523471963
 51
54.05124765280366
  0
LINE
  5
194F1
330
1913F
100
AcDbEntity
  8
TATEDOISIJIKANAGU
100
AcDbLine
 10
12097.84083938084
 20
4150.433681208634
 30
0.0
 11
12102.63437008079
 21
4149.588452413381
 31
0.0
  0
LINE
  5
194F2
330
1913F
100
AcDbEntity
  8
TATEDOISIJIKANAGU
100
AcDbLine
 10
12097.84083938084
 20
4147.933681208636
 30
0.0
 11
12102.63437008079
 21
4148.778910003889
 31
0.0
  0
LINE
  5
194F3
330
1913F
100
AcDbEntity
  8
TATEDOISIJIKANAGU
100
AcDbLine
 10
12097.84083938084
 20
4144.433681208634
 30
0.0
 11
12097.84083938084
 21
4147.933681208636
 31
0.0
  0
LINE
  5
194F4
330
1913F
100
AcDbEntity
  8
TATEDOISIJIKANAGU
100
AcDbLine
 10
12072.5418367595
 20
4106.687809175764
 30
0.0
 11
12064.75880570658
 21
4094.218502745327
 31
0.0
  0
ARC
  5
194F5
330
1913F
100
AcDbEntity
  8
TATEDOISIJIKANAGU
100
AcDbCircle
 10
12132.34083938085
 20
4143.183681208635
 30
0.0
 40
0.5000000000000285
100
AcDbArc
 50
125.948752347188
 51
234.051247652812
  0
LINE
  5
194F6
330
1913F
100
AcDbEntity
  8
TATEDOISIJIKANAGU
100
AcDbLine
 10
12136.84083938084
 20
4141.933681208636
 30
0.0
 11
12132.04730868091
 21
4142.778910003889
 31
0.0
  0
LINE
  5
194F7
330
1913F
100
AcDbEntity
  8
TATEDOISIJIKANAGU
100
AcDbLine
 10
12136.84083938084
 20
4144.433681208634
 30
0.0
 11
12132.04730868091
 21
4143.588452413381
 31
0.0
  0
LINE
  5
194F8
330
1913F
100
AcDbEntity
  8
TATEDOISIJIKANAGU
100
AcDbLine
 10
12097.84083938084
 20
4144.433681208634
 30
0.0
 11
12102.63437008079
 21
4143.588452413381
 31
0.0
  0
LINE
  5
194F9
330
1913F
100
AcDbEntity
  8
TATEDOISIJIKANAGU
100
AcDbLine
 10
12136.84083938084
 20
4138.433681208636
 30
0.0
 11
12136.84083938084
 21
4141.933681208636
 31
0.0
  0
ARC
  5
194FA
330
1913F
100
AcDbEntity
  8
TATEDOISIJIKANAGU
100
AcDbCircle
 10
12132.34083938085
 20
4137.183681208635
 30
0.0
 40
0.5000000000000285
100
AcDbArc
 50
125.948752347188
 51
234.051247652812
  0
LINE
  5
194FB
330
1913F
100
AcDbEntity
  8
TATEDOISIJIKANAGU
100
AcDbLine
 10
12136.84083938084
 20
4135.933681208636
 30
0.0
 11
12132.04730868091
 21
4136.778910003891
 31
0.0
  0
LINE
  5
194FC
330
1913F
100
AcDbEntity
  8
TATEDOISIJIKANAGU
100
AcDbLine
 10
12136.84083938084
 20
4138.433681208636
 30
0.0
 11
12132.04730868091
 21
4137.588452413381
 31
0.0
  0
LINE
  5
194FD
330
1913F
100
AcDbEntity
  8
TATEDOISIJIKANAGU
100
AcDbLine
 10
12136.84083938084
 20
4132.433681208635
 30
0.0
 11
12136.84083938084
 21
4135.933681208636
 31
0.0
  0
ARC
  5
194FE
330
1913F
100
AcDbEntity
  8
TATEDOISIJIKANAGU
100
AcDbCircle
 10
6225.990119415493
 20
4078.406877728919
 30
0.0
 40
19.50000000000022
100
AcDbArc
 50
75.83851648790984
 51
255.8385164879097
  0
LINE
  5
194FF
330
1913F
100
AcDbEntity
  8
TATEDOISIJIKANAGU
100
AcDbLine
 10
6122.285483158255
 20
4084.462841470479
 30
0.0
 11
6255.453547453702
 21
4050.861377391112
 31
0.0
  0
LINE
  5
19500
330
1913F
100
AcDbEntity
  8
TATEDOISIJIKANAGU
100
AcDbLine
 10
6146.503547453702
 20
4118.574404846031
 30
0.0
 11
6252.745177229511
 21
4091.767119439186
 31
0.0
  0
ARC
  5
19501
330
1913F
100
AcDbEntity
  8
TATEDOISIJIKANAGU
100
AcDbCircle
 10
6247.97430016537
 20
4072.859747013385
 30
0.0
 40
19.50000000000022
100
AcDbArc
 50
67.44617714049879
 51
75.8385164880114
  0
LINE
  5
19502
330
1913F
100
AcDbEntity
  8
TATEDOISIJIKANAGU
100
AcDbLine
 10
6132.503547453704
 20
4166.546798568535
 30
0.0
 11
6121.503547453691
 21
4166.546798568535
 31
0.0
  0
LINE
  5
19503
330
1913F
100
AcDbEntity
  8
TATEDOISIJIKANAGU
100
AcDbLine
 10
6150.003547453692
 20
4161.046798568531
 30
0.0
 11
6104.941135980794
 21
4161.046798568531
 31
0.0
  0
LINE
  5
19504
330
1913F
100
AcDbEntity
  8
TATEDOISIJIKANAGU
100
AcDbLine
 10
6105.503547453704
 20
4141.399452529952
 30
0.0
 11
6148.503547453703
 21
4141.399452529952
 31
0.0
  0
LINE
  5
19505
330
1913F
100
AcDbEntity
  8
TATEDOISIJIKANAGU
100
AcDbLine
 10
6104.003547453704
 20
4148.046798568532
 30
0.0
 11
6150.003547453692
 21
4148.046798568532
 31
0.0
  0
ARC
  5
19506
330
1913F
100
AcDbEntity
  8
TATEDOISIJIKANAGU
100
AcDbCircle
 10
6112.003547453692
 20
4127.796798568533
 30
0.0
 40
0.5000000000000285
100
AcDbArc
 50
305.9487523472104
 51
54.05124765278961
  0
ARC
  5
19507
330
1913F
100
AcDbEntity
  8
TATEDOISIJIKANAGU
100
AcDbCircle
 10
6112.003547453692
 20
4121.796798568531
 30
0.0
 40
0.5000000000000285
100
AcDbArc
 50
305.9487523472104
 51
54.05124765278961
  0
ARC
  5
19508
330
1913F
100
AcDbEntity
  8
TATEDOISIJIKANAGU
100
AcDbCircle
 10
6112.003547453692
 20
4139.796798568535
 30
0.0
 40
0.5000000000000285
100
AcDbArc
 50
305.9487523472104
 51
54.05124765278961
  0
ARC
  5
19509
330
1913F
100
AcDbEntity
  8
TATEDOISIJIKANAGU
100
AcDbCircle
 10
6112.003547453692
 20
4133.796798568535
 30
0.0
 40
0.5000000000000285
100
AcDbArc
 50
305.9487523472104
 51
54.05124765278961
  0
LINE
  5
1950A
330
1913F
100
AcDbEntity
  8
TATEDOISIJIKANAGU
100
AcDbLine
 10
6127.003547453703
 20
4161.046798568531
 30
0.0
 11
6122.003547453704
 21
4161.046798568531
 31
0.0
  0
LINE
  5
1950B
330
1913F
100
AcDbEntity
  8
TATEDOISIJIKANAGU
100
AcDbLine
 10
6121.503547453691
 20
4166.546798568535
 30
0.0
 11
6121.503547453691
 21
4172.546798568535
 31
0.0
  0
LINE
  5
1950C
330
1913F
100
AcDbEntity
  8
TATEDOISIJIKANAGU
100
AcDbLine
 10
6107.503547453704
 20
4129.718078273476
 30
0.0
 11
6107.503547453704
 21
4131.875518863592
 31
0.0
  0
ARC
  5
1950D
330
1913F
100
AcDbEntity
  8
TATEDOISIJIKANAGU
100
AcDbCircle
 10
6108.303547453703
 20
4129.718078273476
 30
0.0
 40
0.8
100
AcDbArc
 50
180.0
 51
260.0000000000461
  0
ARC
  5
1950E
330
1913F
100
AcDbEntity
  8
TATEDOISIJIKANAGU
100
AcDbCircle
 10
6108.303547453703
 20
4123.718078273475
 30
0.0
 40
0.8
100
AcDbArc
 50
180.0
 51
260.0000000000461
  0
ARC
  5
1950F
330
1913F
100
AcDbEntity
  8
TATEDOISIJIKANAGU
100
AcDbCircle
 10
6108.303547453703
 20
4125.87551886359
 30
0.0
 40
0.8
100
AcDbArc
 50
100.0000000000563
 51
180.0
  0
LINE
  5
19510
330
1913F
100
AcDbEntity
  8
TATEDOISIJIKANAGU
100
AcDbLine
 10
6107.503547453704
 20
4125.87551886359
 30
0.0
 11
6107.503547453704
 21
4123.718078273475
 31
0.0
  0
ARC
  5
19511
330
1913F
100
AcDbEntity
  8
TATEDOISIJIKANAGU
100
AcDbCircle
 10
6108.303547453703
 20
4117.718078273475
 30
0.0
 40
0.8
100
AcDbArc
 50
180.0
 51
260.0000000000461
  0
LINE
  5
19512
330
1913F
100
AcDbEntity
  8
TATEDOISIJIKANAGU
100
AcDbLine
 10
6107.503547453704
 20
4117.718078273475
 30
0.0
 11
6107.503547453704
 21
4119.875518863589
 31
0.0
  0
ARC
  5
19513
330
1913F
100
AcDbEntity
  8
TATEDOISIJIKANAGU
100
AcDbCircle
 10
6108.303547453703
 20
4119.875518863589
 30
0.0
 40
0.8
100
AcDbArc
 50
100.0000000000563
 51
180.0
  0
LINE
  5
19514
330
1913F
100
AcDbEntity
  8
TATEDOISIJIKANAGU
100
AcDbLine
 10
6104.003547453704
 20
4172.546798568535
 30
0.0
 11
6104.003547453704
 21
4161.046798568531
 31
0.0
  0
ARC
  5
19515
330
1913F
100
AcDbEntity
  8
TATEDOISIJIKANAGU
100
AcDbCircle
 10
6105.003547453702
 20
4147.546798568535
 30
0.0
 40
0.5
100
AcDbArc
 50
0.0000000000000064
 51
90.0
  0
LINE
  5
19516
330
1913F
100
AcDbEntity
  8
TATEDOISIJIKANAGU
100
AcDbLine
 10
6105.503547453704
 20
4147.546798568535
 30
0.0
 11
6105.503547453704
 21
4141.399452529952
 31
0.0
  0
ARC
  5
19517
330
1913F
100
AcDbEntity
  8
TATEDOISIJIKANAGU
100
AcDbCircle
 10
6108.303547453703
 20
4135.718078273475
 30
0.0
 40
0.8
100
AcDbArc
 50
180.0
 51
260.0000000000461
  0
LINE
  5
19518
330
1913F
100
AcDbEntity
  8
TATEDOISIJIKANAGU
100
AcDbLine
 10
6107.503547453704
 20
4137.875518863592
 30
0.0
 11
6107.503547453704
 21
4135.718078273475
 31
0.0
  0
ARC
  5
19519
330
1913F
100
AcDbEntity
  8
TATEDOISIJIKANAGU
100
AcDbCircle
 10
6108.303547453703
 20
4131.875518863592
 30
0.0
 40
0.8
100
AcDbArc
 50
100.0000000000563
 51
180.0
  0
ARC
  5
1951A
330
1913F
100
AcDbEntity
  8
TATEDOISIJIKANAGU
100
AcDbCircle
 10
6108.303547453703
 20
4137.875518863592
 30
0.0
 40
0.8
100
AcDbArc
 50
100.0000000000563
 51
180.0
  0
ARC
  5
1951B
330
1913F
100
AcDbEntity
  8
TATEDOISIJIKANAGU
100
AcDbCircle
 10
6104.003547453704
 20
4160.546798568534
 30
0.0
 40
0.5
100
AcDbArc
 50
90.0
 51
180.0
  0
ARC
  5
1951C
330
1913F
100
AcDbEntity
  8
TATEDOISIJIKANAGU
100
AcDbCircle
 10
6104.003547453704
 20
4148.546798568531
 30
0.0
 40
0.5
100
AcDbArc
 50
180.0
 51
270.0
  0
LINE
  5
1951D
330
1913F
100
AcDbEntity
  8
TATEDOISIJIKANAGU
100
AcDbLine
 10
6103.503547453704
 20
4160.546798568534
 30
0.0
 11
6103.503547453704
 21
4148.546798568531
 31
0.0
  0
LINE
  5
1951E
330
1913F
100
AcDbEntity
  8
TATEDOISIJIKANAGU
100
AcDbLine
 10
6108.164628911563
 20
4128.930232071064
 30
0.0
 11
6112.297078153642
 21
4128.201569773279
 31
0.0
  0
LINE
  5
1951F
330
1913F
100
AcDbEntity
  8
TATEDOISIJIKANAGU
100
AcDbLine
 10
6108.164628911563
 20
4122.930232071063
 30
0.0
 11
6112.297078153642
 21
4122.201569773277
 31
0.0
  0
LINE
  5
19520
330
1913F
100
AcDbEntity
  8
TATEDOISIJIKANAGU
100
AcDbLine
 10
6108.164628911563
 20
4120.663365066
 30
0.0
 11
6112.297078153642
 21
4121.392027363785
 31
0.0
  0
LINE
  5
19521
330
1913F
100
AcDbEntity
  8
TATEDOISIJIKANAGU
100
AcDbLine
 10
6108.164628911563
 20
4126.663365066
 30
0.0
 11
6112.297078153642
 21
4127.392027363787
 31
0.0
  0
LINE
  5
19522
330
1913F
100
AcDbEntity
  8
TATEDOISIJIKANAGU
100
AcDbLine
 10
6108.164628911563
 20
4138.663365065999
 30
0.0
 11
6112.297078153642
 21
4139.392027363785
 31
0.0
  0
LINE
  5
19523
330
1913F
100
AcDbEntity
  8
TATEDOISIJIKANAGU
100
AcDbLine
 10
6105.503547453704
 20
4141.399452529952
 30
0.0
 11
6112.297078153642
 21
4140.201569773278
 31
0.0
  0
LINE
  5
19524
330
1913F
100
AcDbEntity
  8
TATEDOISIJIKANAGU
100
AcDbLine
 10
6108.164628911563
 20
4132.663365066
 30
0.0
 11
6112.297078153642
 21
4133.392027363787
 31
0.0
  0
LINE
  5
19525
330
1913F
100
AcDbEntity
  8
TATEDOISIJIKANAGU
100
AcDbLine
 10
6108.164628911563
 20
4134.930232071064
 30
0.0
 11
6112.297078153642
 21
4134.201569773281
 31
0.0
  0
LINE
  5
19526
330
1913F
100
AcDbEntity
  8
TATEDOISIJIKANAGU
100
AcDbLine
 10
6127.003547453703
 20
4161.046798568531
 30
0.0
 11
6104.003547453704
 21
4161.046798568531
 31
0.0
  0
LINE
  5
19527
330
1913F
100
AcDbEntity
  8
TATEDOISIJIKANAGU
100
AcDbLine
 10
6104.003547453704
 20
4172.546798568535
 30
0.0
 11
6121.503547453691
 21
4172.546798568535
 31
0.0
  0
LINE
  5
19528
330
1913F
100
AcDbEntity
  8
TATEDOISIJIKANAGU
100
AcDbLine
 10
6146.503547453704
 20
4129.718078273476
 30
0.0
 11
6146.503547453704
 21
4131.875518863592
 31
0.0
  0
ARC
  5
19529
330
1913F
100
AcDbEntity
  8
TATEDOISIJIKANAGU
100
AcDbCircle
 10
6145.703547453702
 20
4129.718078273476
 30
0.0
 40
0.8
100
AcDbArc
 50
280.0000000000565
 51
0.0000000000000064
  0
ARC
  5
1952A
330
1913F
100
AcDbEntity
  8
TATEDOISIJIKANAGU
100
AcDbCircle
 10
6145.703547453702
 20
4123.718078273475
 30
0.0
 40
0.8
100
AcDbArc
 50
280.0000000000565
 51
0.0000000000000064
  0
ARC
  5
1952B
330
1913F
100
AcDbEntity
  8
TATEDOISIJIKANAGU
100
AcDbCircle
 10
6145.703547453702
 20
4125.87551886359
 30
0.0
 40
0.8
100
AcDbArc
 50
0.0000000000000064
 51
79.99999999994358
  0
ARC
  5
1952C
330
1913F
100
AcDbEntity
  8
TATEDOISIJIKANAGU
100
AcDbCircle
 10
6145.703547453702
 20
4117.718078273475
 30
0.0
 40
0.8
100
AcDbArc
 50
280.0000000000565
 51
0.0000000000000064
  0
ARC
  5
1952D
330
1913F
100
AcDbEntity
  8
TATEDOISIJIKANAGU
100
AcDbCircle
 10
6145.703547453702
 20
4119.875518863589
 30
0.0
 40
0.8
100
AcDbArc
 50
0.0000000000000064
 51
79.99999999994358
  0
ARC
  5
1952E
330
1913F
100
AcDbEntity
  8
TATEDOISIJIKANAGU
100
AcDbCircle
 10
6142.003547453704
 20
4127.796798568533
 30
0.0
 40
0.5000000000000285
100
AcDbArc
 50
125.9487523472102
 51
234.0512476527896
  0
LINE
  5
1952F
330
1913F
100
AcDbEntity
  8
TATEDOISIJIKANAGU
100
AcDbLine
 10
6145.842465995833
 20
4128.930232071064
 30
0.0
 11
6141.710016753751
 21
4128.201569773279
 31
0.0
  0
ARC
  5
19530
330
1913F
100
AcDbEntity
  8
TATEDOISIJIKANAGU
100
AcDbCircle
 10
6142.003547453704
 20
4121.796798568531
 30
0.0
 40
0.5000000000000285
100
AcDbArc
 50
125.9487523472102
 51
234.0512476527896
  0
LINE
  5
19531
330
1913F
100
AcDbEntity
  8
TATEDOISIJIKANAGU
100
AcDbLine
 10
6145.842465995833
 20
4122.930232071063
 30
0.0
 11
6141.710016753751
 21
4122.201569773277
 31
0.0
  0
LINE
  5
19532
330
1913F
100
AcDbEntity
  8
TATEDOISIJIKANAGU
100
AcDbLine
 10
6145.842465995833
 20
4120.663365066
 30
0.0
 11
6141.710016753751
 21
4121.392027363785
 31
0.0
  0
LINE
  5
19533
330
1913F
100
AcDbEntity
  8
TATEDOISIJIKANAGU
100
AcDbLine
 10
6145.842465995833
 20
4126.663365066
 30
0.0
 11
6141.710016753751
 21
4127.392027363787
 31
0.0
  0
LINE
  5
19534
330
1913F
100
AcDbEntity
  8
TATEDOISIJIKANAGU
100
AcDbLine
 10
6146.503547453704
 20
4125.87551886359
 30
0.0
 11
6146.503547453704
 21
4123.718078273475
 31
0.0
  0
LINE
  5
19535
330
1913F
100
AcDbEntity
  8
TATEDOISIJIKANAGU
100
AcDbLine
 10
6146.503547453704
 20
4117.718078273475
 30
0.0
 11
6146.503547453704
 21
4119.875518863589
 31
0.0
  0
ARC
  5
19536
330
1913F
100
AcDbEntity
  8
TATEDOISIJIKANAGU
100
AcDbCircle
 10
6149.003547453704
 20
4147.546798568535
 30
0.0
 40
0.5
100
AcDbArc
 50
90.0
 51
180.0
  0
LINE
  5
19537
330
1913F
100
AcDbEntity
  8
TATEDOISIJIKANAGU
100
AcDbLine
 10
6148.503547453703
 20
4141.399452529952
 30
0.0
 11
6141.710016753751
 21
4140.201569773278
 31
0.0
  0
ARC
  5
19538
330
1913F
100
AcDbEntity
  8
TATEDOISIJIKANAGU
100
AcDbCircle
 10
6145.703547453702
 20
4135.718078273475
 30
0.0
 40
0.8
100
AcDbArc
 50
280.0000000000565
 51
0.0000000000000064
  0
ARC
  5
19539
330
1913F
100
AcDbEntity
  8
TATEDOISIJIKANAGU
100
AcDbCircle
 10
6145.703547453702
 20
4131.875518863592
 30
0.0
 40
0.8
100
AcDbArc
 50
0.0000000000000064
 51
79.99999999994358
  0
ARC
  5
1953A
330
1913F
100
AcDbEntity
  8
TATEDOISIJIKANAGU
100
AcDbCircle
 10
6145.703547453702
 20
4137.875518863592
 30
0.0
 40
0.8
100
AcDbArc
 50
0.0000000000000064
 51
79.99999999994358
  0
ARC
  5
1953B
330
1913F
100
AcDbEntity
  8
TATEDOISIJIKANAGU
100
AcDbCircle
 10
6142.003547453704
 20
4139.796798568535
 30
0.0
 40
0.5000000000000285
100
AcDbArc
 50
125.9487523472102
 51
234.0512476527896
  0
LINE
  5
1953C
330
1913F
100
AcDbEntity
  8
TATEDOISIJIKANAGU
100
AcDbLine
 10
6145.842465995833
 20
4138.663365065999
 30
0.0
 11
6141.710016753751
 21
4139.392027363785
 31
0.0
  0
ARC
  5
1953D
330
1913F
100
AcDbEntity
  8
TATEDOISIJIKANAGU
100
AcDbCircle
 10
6142.003547453704
 20
4133.796798568535
 30
0.0
 40
0.5000000000000285
100
AcDbArc
 50
125.9487523472102
 51
234.0512476527896
  0
LINE
  5
1953E
330
1913F
100
AcDbEntity
  8
TATEDOISIJIKANAGU
100
AcDbLine
 10
6145.842465995833
 20
4132.663365066
 30
0.0
 11
6141.710016753751
 21
4133.392027363787
 31
0.0
  0
LINE
  5
1953F
330
1913F
100
AcDbEntity
  8
TATEDOISIJIKANAGU
100
AcDbLine
 10
6145.842465995833
 20
4134.930232071064
 30
0.0
 11
6141.710016753751
 21
4134.201569773281
 31
0.0
  0
LINE
  5
19540
330
1913F
100
AcDbEntity
  8
TATEDOISIJIKANAGU
100
AcDbLine
 10
6148.503547453703
 20
4147.546798568535
 30
0.0
 11
6148.503547453703
 21
4141.399452529952
 31
0.0
  0
LINE
  5
19541
330
1913F
100
AcDbEntity
  8
TATEDOISIJIKANAGU
100
AcDbLine
 10
6146.503547453704
 20
4137.875518863592
 30
0.0
 11
6146.503547453704
 21
4135.718078273475
 31
0.0
  0
LINE
  5
19542
330
1913F
100
AcDbEntity
  8
TATEDOISIJIKANAGU
100
AcDbLine
 10
6132.503547453704
 20
4172.546798568535
 30
0.0
 11
6132.503547453704
 21
4166.546798568535
 31
0.0
  0
LINE
  5
19543
330
1913F
100
AcDbEntity
  8
TATEDOISIJIKANAGU
100
AcDbLine
 10
6150.503547453704
 20
4160.546798568534
 30
0.0
 11
6150.503547453704
 21
4148.546798568531
 31
0.0
  0
ARC
  5
19544
330
1913F
100
AcDbEntity
  8
TATEDOISIJIKANAGU
100
AcDbCircle
 10
6150.003547453692
 20
4160.546798568534
 30
0.0
 40
0.5
100
AcDbArc
 50
0.0000000000000064
 51
90.0
  0
ARC
  5
19545
330
1913F
100
AcDbEntity
  8
TATEDOISIJIKANAGU
100
AcDbCircle
 10
6150.003547453692
 20
4148.546798568531
 30
0.0
 40
0.5
100
AcDbArc
 50
270.0
 51
0.0000000000000064
  0
ARC
  5
19546
330
1913F
100
AcDbEntity
  8
TATEDOISIJIKANAGU
100
AcDbCircle
 10
6201.256656552368
 20
4084.647717590569
 30
0.0
 40
19.50000000000022
100
AcDbArc
 50
75.8385164880109
 51
255.8385164880108
  0
ARC
  5
19547
330
1913F
100
AcDbEntity
  8
TATEDOISIJIKANAGU
100
AcDbCircle
 10
6250.723582278585
 20
4072.166037867279
 30
0.0
 40
19.50000000000022
100
AcDbArc
 50
75.83851648790984
 51
255.8385164879097
  0
ARC
  5
19548
330
1913F
100
AcDbEntity
  8
TATEDOISIJIKANAGU
100
AcDbCircle
 10
6176.523193689234
 20
4090.888557452184
 30
0.0
 40
19.50000000000022
100
AcDbArc
 50
75.83851648801081
 51
255.8385164880108
  0
ARC
  5
19549
330
1913F
100
AcDbEntity
  8
TATEDOISIJIKANAGU
100
AcDbCircle
 10
6151.789730826102
 20
4097.129397313801
 30
0.0
 40
19.50000000000022
100
AcDbArc
 50
75.83851648801084
 51
255.8385164880108
  0
ARC
  5
1954A
330
1913F
100
AcDbEntity
  8
TATEDOISIJIKANAGU
100
AcDbCircle
 10
6127.056267962967
 20
4103.370237175416
 30
0.0
 40
19.50000000000022
100
AcDbArc
 50
145.2297232858294
 51
255.8385164880104
  0
LINE
  5
1954B
330
1913F
100
AcDbEntity
  8
TATEDOISIJIKANAGU
100
AcDbLine
 10
6107.503547453703
 20
4117.718078273475
 30
0.0
 11
6107.556398949178
 21
4103.298763788797
 31
0.0
  0
LINE
  5
1954C
330
1913F
100
AcDbEntity
  8
TATEDOISIJIKANAGU
100
AcDbLine
 10
6108.16462891157
 20
4116.930232071065
 30
0.0
 11
6145.842465995837
 21
4116.930232071065
 31
0.0
  0
TEXT
  5
1954D
330
1913F
100
AcDbEntity
  8
FILENAME
100
AcDbText
 10
13868.66666666666
 20
174.0
 30
0.0
 40
100.0
  1
＜YOCF-200-U1_1_JIS_GL.DXF ＞
  7
FILENAME
 72
     2
 11
16382.0
 21
174.0
 31
0.0
100
AcDbText
  0
LINE
  5
1954E
330
1913F
100
AcDbEntity
  8
WAKUSEN-01
100
AcDbLine
 10
434.0000000000008
 20
413.9999999999997
 30
0.0
 11
16382.0
 21
413.9999999999997
 31
0.0
  0
LINE
  5
1954F
330
1913F
100
AcDbEntity
  8
WAKUSEN-01
100
AcDbLine
 10
434.0000000000008
 20
11242.0
 30
0.0
 11
16382.0
 21
11242.0
 31
0.0
  0
LINE
  5
19550
330
1913F
100
AcDbEntity
  8
WAKUSEN-01
100
AcDbLine
 10
434.0000000000008
 20
413.9999999999997
 30
0.0
 11
434.0000000000008
 21
11242.0
 31
0.0
  0
LINE
  5
19551
330
1913F
100
AcDbEntity
  8
WAKUSEN-01
100
AcDbLine
 10
16382.0
 20
413.9999999999997
 30
0.0
 11
16382.0
 21
11242.0
 31
0.0
  0
LINE
  5
19552
330
1913F
100
AcDbEntity
  8
WAKUSEN-01
100
AcDbLine
 10
10280.0
 20
1242.0
 30
0.0
 11
16382.0
 21
1242.0
 31
0.0
  0
LINE
  5
19553
330
1913F
100
AcDbEntity
  8
WAKUSEN-02
100
AcDbLine
 10
10280.0
 20
827.9999999999997
 30
0.0
 11
13434.0
 21
827.9999999999997
 31
0.0
  0
TEXT
  5
19554
330
1913F
100
AcDbEntity
  8
WAKUMOJI-01
100
AcDbText
 10
10335.13012998137
 20
1062.951504669661
 30
0.0
 40
120.0
  1
名　称
  7
WAKUMOJI
100
AcDbText
  0
TEXT
  5
19555
330
1913F
100
AcDbEntity
  8
WAKUMOJI-01
100
AcDbText
 10
10328.25274254596
 20
659.5644874899107
 30
0.0
 40
120.0
  1
機種名
  7
WAKUMOJI
100
AcDbText
  0
LINE
  5
19556
330
1913F
100
AcDbEntity
  8
WAKUSEN-01
100
AcDbLine
 10
10280.0
 20
413.9999999999985
 30
0.0
 11
10280.0
 21
1242.0
 31
0.0
  0
LINE
  5
19557
330
1913F
100
AcDbEntity
  8
WAKUSEN-02
100
AcDbLine
 10
13434.0
 20
413.9999999999963
 30
0.0
 11
13434.0
 21
1242.0
 31
0.0
  0
LINE
  5
19558
330
1913F
100
AcDbEntity
  8
YODOROGO
100
AcDbLine
 10
14988.80217064596
 20
997.8747482146435
 30
0.0
 11
14914.80217064596
 21
997.8747482146435
 31
0.0
1001
AUTOCAD_POSTSCRIPT_FIGURE
1002
{
1000
PSFILL
1000
Grayscale
1000
Grayscale
1070
    25
1002
}
  0
LINE
  5
19559
330
1913F
100
AcDbEntity
  8
YODOROGO
100
AcDbLine
 10
14914.80217064596
 20
973.8747482146434
 30
0.0
 11
14988.80217064596
 21
973.8747482146434
 31
0.0
1001
AUTOCAD_POSTSCRIPT_FIGURE
1002
{
1000
PSFILL
1000
Grayscale
1000
Grayscale
1070
    25
1002
}
  0
LINE
  5
1955A
330
1913F
100
AcDbEntity
  8
YODOROGO
100
AcDbLine
 10
14988.80217064596
 20
953.874748214644
 30
0.0
 11
14914.80217064596
 21
953.874748214644
 31
0.0
1001
AUTOCAD_POSTSCRIPT_FIGURE
1002
{
1000
PSFILL
1000
Grayscale
1000
Grayscale
1070
    25
1002
}
  0
LINE
  5
1955B
330
1913F
100
AcDbEntity
  8
YODOROGO
100
AcDbLine
 10
14914.80217064596
 20
929.874748214644
 30
0.0
 11
14988.80217064596
 21
929.874748214644
 31
0.0
1001
AUTOCAD_POSTSCRIPT_FIGURE
1002
{
1000
PSFILL
1000
Grayscale
1000
Grayscale
1070
    25
1002
}
  0
LINE
  5
1955C
330
1913F
100
AcDbEntity
  8
YODOROGO
100
AcDbLine
 10
14988.80217064596
 20
909.8747482146439
 30
0.0
 11
14914.80217064596
 21
909.8747482146439
 31
0.0
1001
AUTOCAD_POSTSCRIPT_FIGURE
1002
{
1000
PSFILL
1000
Grayscale
1000
Grayscale
1070
    25
1002
}
  0
LINE
  5
1955D
330
1913F
100
AcDbEntity
  8
YODOROGO
100
AcDbLine
 10
14960.80217064594
 20
853.874748214644
 30
0.0
 11
14988.80217064596
 21
853.874748214644
 31
0.0
1001
AUTOCAD_POSTSCRIPT_FIGURE
1002
{
1000
PSFILL
1000
Grayscale
1000
Grayscale
1070
    25
1002
}
  0
LINE
  5
1955E
330
1913F
100
AcDbEntity
  8
YODOROGO
100
AcDbLine
 10
14868.80217064596
 20
713.8747482146436
 30
0.0
 11
14968.80217064596
 21
740.6696674577553
 31
0.0
  0
LINE
  5
1955F
330
1913F
100
AcDbEntity
  8
YODOROGO
100
AcDbLine
 10
14974.80217064595
 20
853.874748214644
 30
0.0
 11
14942.80217064596
 21
853.874748214644
 31
0.0
  0
ARC
  5
19560
330
1913F
100
AcDbEntity
  8
YODOROGO
100
AcDbCircle
 10
15127.17387491394
 20
903.9323046166312
 30
0.0
 40
190.9434321028236
100
AcDbArc
 50
213.9611167766784
 51
264.4787207431779
  0
ARC
  5
19561
330
1913F
100
AcDbEntity
  8
YODOROGO
100
AcDbCircle
 10
15127.17387491396
 20
903.9323046166513
 30
0.0
 40
190.9434321028408
100
AcDbArc
 50
208.141144204866
 51
212.9210361185994
  0
LINE
  5
19562
330
1913F
100
AcDbEntity
  8
YODOROGO
100
AcDbLine
 10
14885.70493649264
 20
778.403830673117
 30
0.0
 11
14966.89206625426
 21
800.1578565285436
 31
0.0
  0
LINE
  5
19563
330
1913F
100
AcDbEntity
  8
YODOROGO
100
AcDbLine
 10
14868.80217064596
 20
713.8747482146436
 30
0.0
 11
14968.80217064596
 21
740.6696674577553
 31
0.0
  0
LINE
  5
19564
330
1913F
100
AcDbEntity
  8
YODOROGO
100
AcDbLine
 10
14974.80217064595
 20
853.874748214644
 30
0.0
 11
14942.80217064596
 21
853.874748214644
 31
0.0
  0
ARC
  5
19565
330
1913F
100
AcDbEntity
  8
YODOROGO
100
AcDbCircle
 10
15127.17387491394
 20
903.9323046166312
 30
0.0
 40
190.9434321028236
100
AcDbArc
 50
213.9611167766784
 51
264.4787207431779
  0
LINE
  5
19566
330
1913F
100
AcDbEntity
  8
YODOROGO
100
AcDbLine
 10
14396.80217064594
 20
909.8747482146439
 30
0.0
 11
14216.80217064594
 21
909.8747482146439
 31
0.0
  0
LINE
  5
19567
330
1913F
100
AcDbEntity
  8
YODOROGO
100
AcDbLine
 10
14256.80217064594
 20
713.8747482146436
 30
0.0
 11
14396.80217064594
 21
713.8747482146436
 31
0.0
  0
LINE
  5
19568
330
1913F
100
AcDbEntity
  8
YODOROGO
100
AcDbLine
 10
14364.80217064596
 20
961.8747482146432
 30
0.0
 11
14248.80217064594
 21
961.8747482146432
 31
0.0
  0
LINE
  5
19569
330
1913F
100
AcDbEntity
  8
YODOROGO
100
AcDbLine
 10
14292.80217064596
 20
1013.874748214644
 30
0.0
 11
14328.80217064596
 21
1013.874748214644
 31
0.0
  0
LINE
  5
1956A
330
1913F
100
AcDbEntity
  8
YODOROGO
100
AcDbLine
 10
14216.80217064594
 20
853.874748214644
 30
0.0
 11
14216.80217064594
 21
753.8747482146439
 31
0.0
  0
LINE
  5
1956B
330
1913F
100
AcDbEntity
  8
YODOROGO
100
AcDbLine
 10
14248.80217064594
 20
781.8747482146434
 30
0.0
 11
14248.80217064594
 21
853.874748214644
 31
0.0
  0
LINE
  5
1956C
330
1913F
100
AcDbEntity
  8
YODOROGO
100
AcDbLine
 10
14292.80217064596
 20
873.8747482146449
 30
0.0
 11
14292.80217064596
 21
773.874748214644
 31
0.0
  0
LINE
  5
1956D
330
1913F
100
AcDbEntity
  8
YODOROGO
100
AcDbLine
 10
13928.80217064596
 20
841.8747482146445
 30
0.0
 11
13888.80217064596
 21
809.9862070222856
 31
0.0
  0
LINE
  5
1956E
330
1913F
100
AcDbEntity
  8
YODOROGO
100
AcDbLine
 10
13968.80217064596
 20
809.9862070222856
 30
0.0
 11
13928.80217064596
 21
841.8747482146445
 31
0.0
  0
LINE
  5
1956F
330
1913F
100
AcDbEntity
  8
YODOROGO
100
AcDbLine
 10
13928.80217064596
 20
853.874748214644
 30
0.0
 11
13968.80217064596
 21
821.986207022285
 31
0.0
  0
LINE
  5
19570
330
1913F
100
AcDbEntity
  8
YODOROGO
100
AcDbLine
 10
13888.80217064596
 20
821.986207022285
 30
0.0
 11
13928.80217064596
 21
853.874748214644
 31
0.0
  0
LINE
  5
19571
330
1913F
100
AcDbEntity
  8
YODOROGO
100
AcDbLine
 10
14020.45660200844
 20
829.874748214644
 30
0.0
 11
14020.45660200844
 21
841.8747482146434
 31
0.0
  0
LINE
  5
19572
330
1913F
100
AcDbEntity
  8
YODOROGO
100
AcDbLine
 10
13988.80217064596
 20
841.8747482146434
 30
0.0
 11
13988.80217064596
 21
833.8747482146427
 31
0.0
  0
LINE
  5
19573
330
1913F
100
AcDbEntity
  8
YODOROGO
100
AcDbLine
 10
14049.06776011545
 20
853.874748214644
 30
0.0
 11
14049.06776011545
 21
827.751818637328
 31
0.0
1001
AUTOCAD_POSTSCRIPT_FIGURE
1002
{
1000
PSFILL
1000
Grayscale
1000
Grayscale
1070
   100
1002
}
  0
LINE
  5
19574
330
1913F
100
AcDbEntity
  8
YODOROGO
100
AcDbLine
 10
14041.06776011546
 20
827.751818637328
 30
0.0
 11
14041.06776011546
 21
853.874748214644
 31
0.0
1001
AUTOCAD_POSTSCRIPT_FIGURE
1002
{
1000
PSFILL
1000
Grayscale
1000
Grayscale
1070
   100
1002
}
  0
LINE
  5
19575
330
1913F
100
AcDbEntity
  8
YODOROGO
100
AcDbLine
 10
13904.80217064596
 20
804.3859520216292
 30
0.0
 11
13904.80217064596
 21
816.3859520216298
 31
0.0
  0
LINE
  5
19576
330
1913F
100
AcDbEntity
  8
YODOROGO
100
AcDbLine
 10
13952.80217064596
 20
804.3859520216292
 30
0.0
 11
13904.80217064596
 21
804.3859520216292
 31
0.0
  0
LINE
  5
19577
330
1913F
100
AcDbEntity
  8
YODOROGO
100
AcDbLine
 10
13952.80217064596
 20
816.3859520216298
 30
0.0
 11
13952.80217064596
 21
804.3859520216292
 31
0.0
  0
LINE
  5
19578
330
1913F
100
AcDbEntity
  8
YODOROGO
100
AcDbLine
 10
13904.80217064596
 20
816.3859520216298
 30
0.0
 11
13952.80217064596
 21
816.3859520216298
 31
0.0
  0
LINE
  5
19579
330
1913F
100
AcDbEntity
  8
YODOROGO
100
AcDbLine
 10
13912.25479445787
 20
784.2514286852374
 30
0.0
 11
13892.80217064596
 21
737.8747482146435
 31
0.0
1001
AUTOCAD_POSTSCRIPT_FIGURE
1002
{
1000
PSFILL
1000
Grayscale
1000
Grayscale
1070
   100
1002
}
  0
LINE
  5
1957A
330
1913F
100
AcDbEntity
  8
YODOROGO
100
AcDbLine
 10
13888.80217064596
 20
784.2514286852374
 30
0.0
 11
13912.25479445787
 21
784.2514286852374
 31
0.0
1001
AUTOCAD_POSTSCRIPT_FIGURE
1002
{
1000
PSFILL
1000
Grayscale
1000
Grayscale
1070
   100
1002
}
  0
LINE
  5
1957B
330
1913F
100
AcDbEntity
  8
YODOROGO
100
AcDbLine
 10
13888.80217064596
 20
794.2514286852374
 30
0.0
 11
13888.80217064596
 21
784.2514286852374
 31
0.0
1001
AUTOCAD_POSTSCRIPT_FIGURE
1002
{
1000
PSFILL
1000
Grayscale
1000
Grayscale
1070
   100
1002
}
  0
LINE
  5
1957C
330
1913F
100
AcDbEntity
  8
YODOROGO
100
AcDbLine
 10
13968.80217064596
 20
794.2514286852374
 30
0.0
 11
13888.80217064596
 21
794.2514286852374
 31
0.0
1001
AUTOCAD_POSTSCRIPT_FIGURE
1002
{
1000
PSFILL
1000
Grayscale
1000
Grayscale
1070
   100
1002
}
  0
LINE
  5
1957D
330
1913F
100
AcDbEntity
  8
YODOROGO
100
AcDbLine
 10
13968.80217064596
 20
784.2514286852374
 30
0.0
 11
13968.80217064596
 21
794.2514286852374
 31
0.0
1001
AUTOCAD_POSTSCRIPT_FIGURE
1002
{
1000
PSFILL
1000
Grayscale
1000
Grayscale
1070
   100
1002
}
  0
LINE
  5
1957E
330
1913F
100
AcDbEntity
  8
YODOROGO
100
AcDbLine
 10
13922.25479445786
 20
784.2514286852374
 30
0.0
 11
13968.80217064596
 21
784.2514286852374
 31
0.0
1001
AUTOCAD_POSTSCRIPT_FIGURE
1002
{
1000
PSFILL
1000
Grayscale
1000
Grayscale
1070
   100
1002
}
  0
LINE
  5
1957F
330
1913F
100
AcDbEntity
  8
YODOROGO
100
AcDbLine
 10
13907.77335914238
 20
747.8747482146435
 30
0.0
 11
13922.25479445786
 21
784.2514286852374
 31
0.0
1001
AUTOCAD_POSTSCRIPT_FIGURE
1002
{
1000
PSFILL
1000
Grayscale
1000
Grayscale
1070
   100
1002
}
  0
LINE
  5
19580
330
1913F
100
AcDbEntity
  8
YODOROGO
100
AcDbLine
 10
13951.02739540432
 20
747.8747482146435
 30
0.0
 11
13907.77335914238
 21
747.8747482146435
 31
0.0
1001
AUTOCAD_POSTSCRIPT_FIGURE
1002
{
1000
PSFILL
1000
Grayscale
1000
Grayscale
1070
   100
1002
}
  0
LINE
  5
19581
330
1913F
100
AcDbEntity
  8
YODOROGO
100
AcDbLine
 10
13942.53250239547
 20
768.1169053488464
 30
0.0
 11
13951.02739540432
 21
747.8747482146435
 31
0.0
1001
AUTOCAD_POSTSCRIPT_FIGURE
1002
{
1000
PSFILL
1000
Grayscale
1000
Grayscale
1070
   100
1002
}
  0
LINE
  5
19582
330
1913F
100
AcDbEntity
  8
YODOROGO
100
AcDbLine
 10
13950.53250239547
 20
768.1169053488464
 30
0.0
 11
13942.53250239547
 21
768.1169053488464
 31
0.0
1001
AUTOCAD_POSTSCRIPT_FIGURE
1002
{
1000
PSFILL
1000
Grayscale
1000
Grayscale
1070
   100
1002
}
  0
LINE
  5
19583
330
1913F
100
AcDbEntity
  8
YODOROGO
100
AcDbLine
 10
13964.80217064596
 20
737.8747482146435
 30
0.0
 11
13950.53250239547
 21
768.1169053488464
 31
0.0
1001
AUTOCAD_POSTSCRIPT_FIGURE
1002
{
1000
PSFILL
1000
Grayscale
1000
Grayscale
1070
   100
1002
}
  0
LINE
  5
19584
330
1913F
100
AcDbEntity
  8
YODOROGO
100
AcDbLine
 10
13892.80217064596
 20
737.8747482146435
 30
0.0
 11
13964.80217064596
 21
737.8747482146435
 31
0.0
1001
AUTOCAD_POSTSCRIPT_FIGURE
1002
{
1000
PSFILL
1000
Grayscale
1000
Grayscale
1070
   100
1002
}
  0
LINE
  5
19585
330
1913F
100
AcDbEntity
  8
YODOROGO
100
AcDbLine
 10
13888.80217064596
 20
809.9862070222856
 30
0.0
 11
13888.80217064596
 21
821.986207022285
 31
0.0
  0
LINE
  5
19586
330
1913F
100
AcDbEntity
  8
YODOROGO
100
AcDbLine
 10
13968.80217064596
 20
821.986207022285
 30
0.0
 11
13968.80217064596
 21
809.9862070222856
 31
0.0
  0
ARC
  5
19587
330
1913F
100
AcDbEntity
  8
YODOROGO
100
AcDbCircle
 10
14112.97022107348
 20
800.438882662663
 30
0.0
 40
87.99999999999995
100
AcDbArc
 50
280.3644312771313
 51
3.541483659218056
  0
ARC
  5
19588
330
1913F
100
AcDbEntity
  8
YODOROGO
100
AcDbCircle
 10
14117.87801537965
 20
816.798903480952
 30
0.0
 40
55.99999999999914
100
AcDbArc
 50
281.2490582504155
 51
348.7509417495832
  0
LINE
  5
19589
330
1913F
100
AcDbEntity
  8
YODOROGO
100
AcDbLine
 10
14128.80217064596
 20
761.8747482146434
 30
0.0
 11
14128.80217064596
 21
713.8747482146436
 31
0.0
  0
LINE
  5
1958A
330
1913F
100
AcDbEntity
  8
YODOROGO
100
AcDbLine
 10
14010.04445186845
 20
805.3252825309574
 30
0.0
 11
14020.45660200844
 21
829.874748214644
 31
0.0
  0
LINE
  5
1958B
330
1913F
100
AcDbEntity
  8
YODOROGO
100
AcDbLine
 10
14020.80217064596
 20
791.5602449742006
 30
0.0
 11
14010.04445186845
 21
805.3252825309574
 31
0.0
  0
LINE
  5
1958C
330
1913F
100
AcDbEntity
  8
YODOROGO
100
AcDbLine
 10
14020.80217064596
 20
781.5602449741994
 30
0.0
 11
14020.80217064596
 21
791.5602449742006
 31
0.0
  0
LINE
  5
1958D
330
1913F
100
AcDbEntity
  8
YODOROGO
100
AcDbLine
 10
14008.80217064596
 20
792.6185318747651
 30
0.0
 11
14020.80217064596
 21
781.5602449741994
 31
0.0
  0
LINE
  5
1958E
330
1913F
100
AcDbEntity
  8
YODOROGO
100
AcDbLine
 10
14008.80217064596
 20
737.8747482146435
 30
0.0
 11
14008.80217064596
 21
792.6185318747651
 31
0.0
  0
LINE
  5
1958F
330
1913F
100
AcDbEntity
  8
YODOROGO
100
AcDbLine
 10
14000.80217064596
 20
737.8747482146435
 30
0.0
 11
14008.80217064596
 21
737.8747482146435
 31
0.0
  0
LINE
  5
19590
330
1913F
100
AcDbEntity
  8
YODOROGO
100
AcDbLine
 10
14000.80217064596
 20
790.0026748448738
 30
0.0
 11
14000.80217064596
 21
737.8747482146435
 31
0.0
  0
LINE
  5
19591
330
1913F
100
AcDbEntity
  8
YODOROGO
100
AcDbLine
 10
13988.80217064596
 20
766.3840395167142
 30
0.0
 11
14000.80217064596
 21
790.0026748448738
 31
0.0
  0
LINE
  5
19592
330
1913F
100
AcDbEntity
  8
YODOROGO
100
AcDbLine
 10
13988.80217064596
 20
778.3840395167149
 30
0.0
 11
13988.80217064596
 21
766.3840395167142
 31
0.0
  0
LINE
  5
19593
330
1913F
100
AcDbEntity
  8
YODOROGO
100
AcDbLine
 10
14012.91438714567
 20
833.8747482146427
 30
0.0
 11
13988.80217064596
 21
778.3840395167149
 31
0.0
  0
LINE
  5
19594
330
1913F
100
AcDbEntity
  8
YODOROGO
100
AcDbLine
 10
13988.80217064596
 20
833.8747482146427
 30
0.0
 11
14012.91438714567
 21
833.8747482146427
 31
0.0
  0
LINE
  5
19595
330
1913F
100
AcDbEntity
  8
YODOROGO
100
AcDbLine
 10
14025.06776011545
 20
827.751818637328
 30
0.0
 11
14041.06776011546
 21
827.751818637328
 31
0.0
1001
AUTOCAD_POSTSCRIPT_FIGURE
1002
{
1000
PSFILL
1000
Grayscale
1000
Grayscale
1070
   100
1002
}
  0
LINE
  5
19596
330
1913F
100
AcDbEntity
  8
YODOROGO
100
AcDbLine
 10
14025.06776011545
 20
815.7518186373286
 30
0.0
 11
14025.06776011545
 21
827.751818637328
 31
0.0
1001
AUTOCAD_POSTSCRIPT_FIGURE
1002
{
1000
PSFILL
1000
Grayscale
1000
Grayscale
1070
   100
1002
}
  0
LINE
  5
19597
330
1913F
100
AcDbEntity
  8
YODOROGO
100
AcDbLine
 10
14041.06776011546
 20
815.7518186373286
 30
0.0
 11
14025.06776011545
 21
815.7518186373286
 31
0.0
1001
AUTOCAD_POSTSCRIPT_FIGURE
1002
{
1000
PSFILL
1000
Grayscale
1000
Grayscale
1070
   100
1002
}
  0
LINE
  5
19598
330
1913F
100
AcDbEntity
  8
YODOROGO
100
AcDbLine
 10
14041.06776011546
 20
749.8747482146441
 30
0.0
 11
14041.06776011546
 21
815.7518186373286
 31
0.0
1001
AUTOCAD_POSTSCRIPT_FIGURE
1002
{
1000
PSFILL
1000
Grayscale
1000
Grayscale
1070
   100
1002
}
  0
LINE
  5
19599
330
1913F
100
AcDbEntity
  8
YODOROGO
100
AcDbLine
 10
14025.06776011545
 20
749.8747482146441
 30
0.0
 11
14041.06776011546
 21
749.8747482146441
 31
0.0
1001
AUTOCAD_POSTSCRIPT_FIGURE
1002
{
1000
PSFILL
1000
Grayscale
1000
Grayscale
1070
   100
1002
}
  0
LINE
  5
1959A
330
1913F
100
AcDbEntity
  8
YODOROGO
100
AcDbLine
 10
14025.06776011545
 20
737.8747482146435
 30
0.0
 11
14025.06776011545
 21
749.8747482146441
 31
0.0
1001
AUTOCAD_POSTSCRIPT_FIGURE
1002
{
1000
PSFILL
1000
Grayscale
1000
Grayscale
1070
   100
1002
}
  0
LINE
  5
1959B
330
1913F
100
AcDbEntity
  8
YODOROGO
100
AcDbLine
 10
14068.80217064596
 20
737.8747482146435
 30
0.0
 11
14025.06776011545
 21
737.8747482146435
 31
0.0
1001
AUTOCAD_POSTSCRIPT_FIGURE
1002
{
1000
PSFILL
1000
Grayscale
1000
Grayscale
1070
   100
1002
}
  0
LINE
  5
1959C
330
1913F
100
AcDbEntity
  8
YODOROGO
100
AcDbLine
 10
14068.80217064596
 20
749.8747482146441
 30
0.0
 11
14068.80217064596
 21
737.8747482146435
 31
0.0
1001
AUTOCAD_POSTSCRIPT_FIGURE
1002
{
1000
PSFILL
1000
Grayscale
1000
Grayscale
1070
   100
1002
}
  0
LINE
  5
1959D
330
1913F
100
AcDbEntity
  8
YODOROGO
100
AcDbLine
 10
14049.06776011545
 20
749.8747482146441
 30
0.0
 11
14068.80217064596
 21
749.8747482146441
 31
0.0
1001
AUTOCAD_POSTSCRIPT_FIGURE
1002
{
1000
PSFILL
1000
Grayscale
1000
Grayscale
1070
   100
1002
}
  0
LINE
  5
1959E
330
1913F
100
AcDbEntity
  8
YODOROGO
100
AcDbLine
 10
14049.06776011545
 20
815.7518186373286
 30
0.0
 11
14049.06776011545
 21
749.8747482146441
 31
0.0
1001
AUTOCAD_POSTSCRIPT_FIGURE
1002
{
1000
PSFILL
1000
Grayscale
1000
Grayscale
1070
   100
1002
}
  0
LINE
  5
1959F
330
1913F
100
AcDbEntity
  8
YODOROGO
100
AcDbLine
 10
14068.80217064596
 20
815.7518186373286
 30
0.0
 11
14049.06776011545
 21
815.7518186373286
 31
0.0
1001
AUTOCAD_POSTSCRIPT_FIGURE
1002
{
1000
PSFILL
1000
Grayscale
1000
Grayscale
1070
   100
1002
}
  0
LINE
  5
195A0
330
1913F
100
AcDbEntity
  8
YODOROGO
100
AcDbLine
 10
14068.80217064596
 20
827.751818637328
 30
0.0
 11
14068.80217064596
 21
815.7518186373286
 31
0.0
1001
AUTOCAD_POSTSCRIPT_FIGURE
1002
{
1000
PSFILL
1000
Grayscale
1000
Grayscale
1070
   100
1002
}
  0
LINE
  5
195A1
330
1913F
100
AcDbEntity
  8
YODOROGO
100
AcDbLine
 10
14049.06776011545
 20
827.751818637328
 30
0.0
 11
14068.80217064596
 21
827.751818637328
 31
0.0
1001
AUTOCAD_POSTSCRIPT_FIGURE
1002
{
1000
PSFILL
1000
Grayscale
1000
Grayscale
1070
   100
1002
}
  0
LINE
  5
195A2
330
1913F
100
AcDbEntity
  8
YODOROGO
100
AcDbLine
 10
14200.80217064594
 20
833.8747482146439
 30
0.0
 11
14172.80217064596
 21
833.8747482146439
 31
0.0
  0
LINE
  5
195A3
330
1913F
100
AcDbEntity
  8
YODOROGO
100
AcDbLine
 10
14200.80217064594
 20
805.8747482146443
 30
0.0
 11
14200.80217064594
 21
833.8747482146439
 31
0.0
  0
LINE
  5
195A4
330
1913F
100
AcDbEntity
  8
YODOROGO
100
AcDbLine
 10
14172.80217064596
 20
833.8747482146439
 30
0.0
 11
14172.80217064596
 21
805.8747482146443
 31
0.0
  0
ARC
  5
195A5
330
1913F
100
AcDbEntity
  8
YODOROGO
100
AcDbCircle
 10
14256.80217064594
 20
753.8747482146439
 30
0.0
 40
40.0
100
AcDbArc
 50
180.0
 51
270.0
  0
ARC
  5
195A6
330
1913F
100
AcDbEntity
  8
YODOROGO
100
AcDbCircle
 10
14268.80217064594
 20
781.8747482146434
 30
0.0
 40
20.0
100
AcDbArc
 50
180.0
 51
270.0
  0
LINE
  5
195A7
330
1913F
100
AcDbEntity
  8
YODOROGO
100
AcDbLine
 10
14280.80217064596
 20
761.8747482146434
 30
0.0
 11
14268.80217064594
 21
761.8747482146434
 31
0.0
  0
ARC
  5
195A8
330
1913F
100
AcDbEntity
  8
YODOROGO
100
AcDbCircle
 10
14280.80217064596
 20
773.8747482146427
 30
0.0
 40
11.99999999999818
100
AcDbArc
 50
270.0
 51
0.0000000000054281
  0
LINE
  5
195A9
330
1913F
100
AcDbEntity
  8
YODOROGO
100
AcDbLine
 10
13900.80217064596
 20
945.3932903968532
 30
0.0
 11
13888.80217064596
 21
921.8883739758362
 31
0.0
1001
AUTOCAD_POSTSCRIPT_FIGURE
1002
{
1000
PSFILL
1000
Grayscale
1000
Grayscale
1070
   100
1002
}
  0
LINE
  5
195AA
330
1913F
100
AcDbEntity
  8
YODOROGO
100
AcDbLine
 10
13900.80217064596
 20
873.8747482146434
 30
0.0
 11
13900.80217064596
 21
945.3932903968532
 31
0.0
1001
AUTOCAD_POSTSCRIPT_FIGURE
1002
{
1000
PSFILL
1000
Grayscale
1000
Grayscale
1070
   100
1002
}
  0
LINE
  5
195AB
330
1913F
100
AcDbEntity
  8
YODOROGO
100
AcDbLine
 10
13908.80217064596
 20
873.8747482146434
 30
0.0
 11
13900.80217064596
 21
873.8747482146434
 31
0.0
1001
AUTOCAD_POSTSCRIPT_FIGURE
1002
{
1000
PSFILL
1000
Grayscale
1000
Grayscale
1070
   100
1002
}
  0
LINE
  5
195AC
330
1913F
100
AcDbEntity
  8
YODOROGO
100
AcDbLine
 10
13908.80217064596
 20
946.8856660426332
 30
0.0
 11
13908.80217064596
 21
873.8747482146434
 31
0.0
1001
AUTOCAD_POSTSCRIPT_FIGURE
1002
{
1000
PSFILL
1000
Grayscale
1000
Grayscale
1070
   100
1002
}
  0
LINE
  5
195AD
330
1913F
100
AcDbEntity
  8
YODOROGO
100
AcDbLine
 10
13920.80217064596
 20
933.8273791420684
 30
0.0
 11
13908.80217064596
 21
946.8856660426332
 31
0.0
1001
AUTOCAD_POSTSCRIPT_FIGURE
1002
{
1000
PSFILL
1000
Grayscale
1000
Grayscale
1070
   100
1002
}
  0
LINE
  5
195AE
330
1913F
100
AcDbEntity
  8
YODOROGO
100
AcDbLine
 10
13920.80217064596
 20
941.8273791420681
 30
0.0
 11
13920.80217064596
 21
933.8273791420684
 31
0.0
1001
AUTOCAD_POSTSCRIPT_FIGURE
1002
{
1000
PSFILL
1000
Grayscale
1000
Grayscale
1070
   100
1002
}
  0
LINE
  5
195AF
330
1913F
100
AcDbEntity
  8
YODOROGO
100
AcDbLine
 10
13908.80217064596
 20
958.8856660426325
 30
0.0
 11
13920.80217064596
 21
941.8273791420681
 31
0.0
1001
AUTOCAD_POSTSCRIPT_FIGURE
1002
{
1000
PSFILL
1000
Grayscale
1000
Grayscale
1070
   100
1002
}
  0
LINE
  5
195B0
330
1913F
100
AcDbEntity
  8
YODOROGO
100
AcDbLine
 10
13908.80217064596
 20
969.8747482146441
 30
0.0
 11
13908.80217064596
 21
958.8856660426325
 31
0.0
1001
AUTOCAD_POSTSCRIPT_FIGURE
1002
{
1000
PSFILL
1000
Grayscale
1000
Grayscale
1070
   100
1002
}
  0
LINE
  5
195B1
330
1913F
100
AcDbEntity
  8
YODOROGO
100
AcDbLine
 10
13944.80217064596
 20
969.8747482146441
 30
0.0
 11
13908.80217064596
 21
969.8747482146441
 31
0.0
1001
AUTOCAD_POSTSCRIPT_FIGURE
1002
{
1000
PSFILL
1000
Grayscale
1000
Grayscale
1070
   100
1002
}
  0
LINE
  5
195B2
330
1913F
100
AcDbEntity
  8
YODOROGO
100
AcDbLine
 10
13944.80217064596
 20
950.2841744681497
 30
0.0
 11
13944.80217064596
 21
969.8747482146441
 31
0.0
1001
AUTOCAD_POSTSCRIPT_FIGURE
1002
{
1000
PSFILL
1000
Grayscale
1000
Grayscale
1070
   100
1002
}
  0
LINE
  5
195B3
330
1913F
100
AcDbEntity
  8
YODOROGO
100
AcDbLine
 10
13928.80217064596
 20
950.2841744681497
 30
0.0
 11
13944.80217064596
 21
950.2841744681497
 31
0.0
1001
AUTOCAD_POSTSCRIPT_FIGURE
1002
{
1000
PSFILL
1000
Grayscale
1000
Grayscale
1070
   100
1002
}
  0
LINE
  5
195B4
330
1913F
100
AcDbEntity
  8
YODOROGO
100
AcDbLine
 10
13928.80217064596
 20
942.2841744681491
 30
0.0
 11
13928.80217064596
 21
950.2841744681497
 31
0.0
1001
AUTOCAD_POSTSCRIPT_FIGURE
1002
{
1000
PSFILL
1000
Grayscale
1000
Grayscale
1070
   100
1002
}
  0
LINE
  5
195B5
330
1913F
100
AcDbEntity
  8
YODOROGO
100
AcDbLine
 10
13944.80217064596
 20
942.2841744681491
 30
0.0
 11
13928.80217064596
 21
942.2841744681491
 31
0.0
1001
AUTOCAD_POSTSCRIPT_FIGURE
1002
{
1000
PSFILL
1000
Grayscale
1000
Grayscale
1070
   100
1002
}
  0
LINE
  5
195B6
330
1913F
100
AcDbEntity
  8
YODOROGO
100
AcDbLine
 10
13944.80217064596
 20
939.8095889822196
 30
0.0
 11
13944.80217064596
 21
942.2841744681491
 31
0.0
1001
AUTOCAD_POSTSCRIPT_FIGURE
1002
{
1000
PSFILL
1000
Grayscale
1000
Grayscale
1070
   100
1002
}
  0
LINE
  5
195B7
330
1913F
100
AcDbEntity
  8
YODOROGO
100
AcDbLine
 10
13924.80217064596
 20
906.4874905807087
 30
0.0
 11
13944.80217064596
 21
939.8095889822196
 31
0.0
1001
AUTOCAD_POSTSCRIPT_FIGURE
1002
{
1000
PSFILL
1000
Grayscale
1000
Grayscale
1070
   100
1002
}
  0
LINE
  5
195B8
330
1913F
100
AcDbEntity
  8
YODOROGO
100
AcDbLine
 10
13924.80217064596
 20
898.487490580708
 30
0.0
 11
13924.80217064596
 21
906.4874905807087
 31
0.0
1001
AUTOCAD_POSTSCRIPT_FIGURE
1002
{
1000
PSFILL
1000
Grayscale
1000
Grayscale
1070
   100
1002
}
  0
LINE
  5
195B9
330
1913F
100
AcDbEntity
  8
YODOROGO
100
AcDbLine
 10
13944.80217064596
 20
923.8095889822183
 30
0.0
 11
13924.80217064596
 21
898.487490580708
 31
0.0
1001
AUTOCAD_POSTSCRIPT_FIGURE
1002
{
1000
PSFILL
1000
Grayscale
1000
Grayscale
1070
   100
1002
}
  0
LINE
  5
195BA
330
1913F
100
AcDbEntity
  8
YODOROGO
100
AcDbLine
 10
13944.80217064596
 20
873.8747482146434
 30
0.0
 11
13944.80217064596
 21
923.8095889822183
 31
0.0
1001
AUTOCAD_POSTSCRIPT_FIGURE
1002
{
1000
PSFILL
1000
Grayscale
1000
Grayscale
1070
   100
1002
}
  0
LINE
  5
195BB
330
1913F
100
AcDbEntity
  8
YODOROGO
100
AcDbLine
 10
13952.80217064596
 20
873.8747482146434
 30
0.0
 11
13944.80217064596
 21
873.8747482146434
 31
0.0
1001
AUTOCAD_POSTSCRIPT_FIGURE
1002
{
1000
PSFILL
1000
Grayscale
1000
Grayscale
1070
   100
1002
}
  0
LINE
  5
195BC
330
1913F
100
AcDbEntity
  8
YODOROGO
100
AcDbLine
 10
13952.80217064596
 20
924.7045060794032
 30
0.0
 11
13952.80217064596
 21
873.8747482146434
 31
0.0
1001
AUTOCAD_POSTSCRIPT_FIGURE
1002
{
1000
PSFILL
1000
Grayscale
1000
Grayscale
1070
   100
1002
}
  0
LINE
  5
195BD
330
1913F
100
AcDbEntity
  8
YODOROGO
100
AcDbLine
 10
13968.80217064596
 20
898.487490580708
 30
0.0
 11
13952.80217064596
 21
924.7045060794032
 31
0.0
1001
AUTOCAD_POSTSCRIPT_FIGURE
1002
{
1000
PSFILL
1000
Grayscale
1000
Grayscale
1070
   100
1002
}
  0
LINE
  5
195BE
330
1913F
100
AcDbEntity
  8
YODOROGO
100
AcDbLine
 10
13968.80217064596
 20
906.4874905807087
 30
0.0
 11
13968.80217064596
 21
898.487490580708
 31
0.0
1001
AUTOCAD_POSTSCRIPT_FIGURE
1002
{
1000
PSFILL
1000
Grayscale
1000
Grayscale
1070
   100
1002
}
  0
LINE
  5
195BF
330
1913F
100
AcDbEntity
  8
YODOROGO
100
AcDbLine
 10
13952.80217064596
 20
940.7045060794041
 30
0.0
 11
13968.80217064596
 21
906.4874905807087
 31
0.0
1001
AUTOCAD_POSTSCRIPT_FIGURE
1002
{
1000
PSFILL
1000
Grayscale
1000
Grayscale
1070
   100
1002
}
  0
LINE
  5
195C0
330
1913F
100
AcDbEntity
  8
YODOROGO
100
AcDbLine
 10
13952.80217064596
 20
942.2841744681502
 30
0.0
 11
13952.80217064596
 21
940.7045060794041
 31
0.0
1001
AUTOCAD_POSTSCRIPT_FIGURE
1002
{
1000
PSFILL
1000
Grayscale
1000
Grayscale
1070
   100
1002
}
  0
LINE
  5
195C1
330
1913F
100
AcDbEntity
  8
YODOROGO
100
AcDbLine
 10
13968.80217064596
 20
942.2841744681491
 30
0.0
 11
13952.80217064596
 21
942.2841744681502
 31
0.0
1001
AUTOCAD_POSTSCRIPT_FIGURE
1002
{
1000
PSFILL
1000
Grayscale
1000
Grayscale
1070
   100
1002
}
  0
LINE
  5
195C2
330
1913F
100
AcDbEntity
  8
YODOROGO
100
AcDbLine
 10
13968.80217064596
 20
950.2841744681497
 30
0.0
 11
13968.80217064596
 21
942.2841744681491
 31
0.0
1001
AUTOCAD_POSTSCRIPT_FIGURE
1002
{
1000
PSFILL
1000
Grayscale
1000
Grayscale
1070
   100
1002
}
  0
LINE
  5
195C3
330
1913F
100
AcDbEntity
  8
YODOROGO
100
AcDbLine
 10
13952.80217064596
 20
950.2841744681497
 30
0.0
 11
13968.80217064596
 21
950.2841744681497
 31
0.0
1001
AUTOCAD_POSTSCRIPT_FIGURE
1002
{
1000
PSFILL
1000
Grayscale
1000
Grayscale
1070
   100
1002
}
  0
LINE
  5
195C4
330
1913F
100
AcDbEntity
  8
YODOROGO
100
AcDbLine
 10
13952.80217064596
 20
969.8747482146441
 30
0.0
 11
13952.80217064596
 21
950.2841744681497
 31
0.0
1001
AUTOCAD_POSTSCRIPT_FIGURE
1002
{
1000
PSFILL
1000
Grayscale
1000
Grayscale
1070
   100
1002
}
  0
LINE
  5
195C5
330
1913F
100
AcDbEntity
  8
YODOROGO
100
AcDbLine
 10
13968.80217064596
 20
969.8747482146441
 30
0.0
 11
13952.80217064596
 21
969.8747482146441
 31
0.0
1001
AUTOCAD_POSTSCRIPT_FIGURE
1002
{
1000
PSFILL
1000
Grayscale
1000
Grayscale
1070
   100
1002
}
  0
LINE
  5
195C6
330
1913F
100
AcDbEntity
  8
YODOROGO
100
AcDbLine
 10
13968.80217064596
 20
977.8747482146435
 30
0.0
 11
13968.80217064596
 21
969.8747482146441
 31
0.0
1001
AUTOCAD_POSTSCRIPT_FIGURE
1002
{
1000
PSFILL
1000
Grayscale
1000
Grayscale
1070
   100
1002
}
  0
LINE
  5
195C7
330
1913F
100
AcDbEntity
  8
YODOROGO
100
AcDbLine
 10
13952.80217064596
 20
977.8747482146435
 30
0.0
 11
13968.80217064596
 21
977.8747482146435
 31
0.0
1001
AUTOCAD_POSTSCRIPT_FIGURE
1002
{
1000
PSFILL
1000
Grayscale
1000
Grayscale
1070
   100
1002
}
  0
LINE
  5
195C8
330
1913F
100
AcDbEntity
  8
YODOROGO
100
AcDbLine
 10
13952.80217064596
 20
989.8747482146442
 30
0.0
 11
13952.80217064596
 21
977.8747482146435
 31
0.0
1001
AUTOCAD_POSTSCRIPT_FIGURE
1002
{
1000
PSFILL
1000
Grayscale
1000
Grayscale
1070
   100
1002
}
  0
LINE
  5
195C9
330
1913F
100
AcDbEntity
  8
YODOROGO
100
AcDbLine
 10
13944.80217064596
 20
989.8747482146442
 30
0.0
 11
13952.80217064596
 21
989.8747482146442
 31
0.0
1001
AUTOCAD_POSTSCRIPT_FIGURE
1002
{
1000
PSFILL
1000
Grayscale
1000
Grayscale
1070
   100
1002
}
  0
LINE
  5
195CA
330
1913F
100
AcDbEntity
  8
YODOROGO
100
AcDbLine
 10
13944.80217064596
 20
977.8747482146435
 30
0.0
 11
13944.80217064596
 21
989.8747482146442
 31
0.0
1001
AUTOCAD_POSTSCRIPT_FIGURE
1002
{
1000
PSFILL
1000
Grayscale
1000
Grayscale
1070
   100
1002
}
  0
LINE
  5
195CB
330
1913F
100
AcDbEntity
  8
YODOROGO
100
AcDbLine
 10
13932.80217064596
 20
977.8747482146435
 30
0.0
 11
13944.80217064596
 21
977.8747482146435
 31
0.0
1001
AUTOCAD_POSTSCRIPT_FIGURE
1002
{
1000
PSFILL
1000
Grayscale
1000
Grayscale
1070
   100
1002
}
  0
LINE
  5
195CC
330
1913F
100
AcDbEntity
  8
YODOROGO
100
AcDbLine
 10
13932.80217064596
 20
989.8747482146442
 30
0.0
 11
13932.80217064596
 21
977.8747482146435
 31
0.0
1001
AUTOCAD_POSTSCRIPT_FIGURE
1002
{
1000
PSFILL
1000
Grayscale
1000
Grayscale
1070
   100
1002
}
  0
LINE
  5
195CD
330
1913F
100
AcDbEntity
  8
YODOROGO
100
AcDbLine
 10
13924.80217064596
 20
989.8747482146442
 30
0.0
 11
13932.80217064596
 21
989.8747482146442
 31
0.0
1001
AUTOCAD_POSTSCRIPT_FIGURE
1002
{
1000
PSFILL
1000
Grayscale
1000
Grayscale
1070
   100
1002
}
  0
LINE
  5
195CE
330
1913F
100
AcDbEntity
  8
YODOROGO
100
AcDbLine
 10
13924.80217064596
 20
977.8747482146435
 30
0.0
 11
13924.80217064596
 21
989.8747482146442
 31
0.0
1001
AUTOCAD_POSTSCRIPT_FIGURE
1002
{
1000
PSFILL
1000
Grayscale
1000
Grayscale
1070
   100
1002
}
  0
LINE
  5
195CF
330
1913F
100
AcDbEntity
  8
YODOROGO
100
AcDbLine
 10
13908.80217064596
 20
977.8747482146435
 30
0.0
 11
13924.80217064596
 21
977.8747482146435
 31
0.0
1001
AUTOCAD_POSTSCRIPT_FIGURE
1002
{
1000
PSFILL
1000
Grayscale
1000
Grayscale
1070
   100
1002
}
  0
LINE
  5
195D0
330
1913F
100
AcDbEntity
  8
YODOROGO
100
AcDbLine
 10
13908.80217064596
 20
989.8747482146442
 30
0.0
 11
13908.80217064596
 21
977.8747482146435
 31
0.0
1001
AUTOCAD_POSTSCRIPT_FIGURE
1002
{
1000
PSFILL
1000
Grayscale
1000
Grayscale
1070
   100
1002
}
  0
LINE
  5
195D1
330
1913F
100
AcDbEntity
  8
YODOROGO
100
AcDbLine
 10
13900.80217064596
 20
989.8747482146442
 30
0.0
 11
13908.80217064596
 21
989.8747482146442
 31
0.0
1001
AUTOCAD_POSTSCRIPT_FIGURE
1002
{
1000
PSFILL
1000
Grayscale
1000
Grayscale
1070
   100
1002
}
  0
LINE
  5
195D2
330
1913F
100
AcDbEntity
  8
YODOROGO
100
AcDbLine
 10
13900.80217064596
 20
977.8747482146435
 30
0.0
 11
13900.80217064596
 21
989.8747482146442
 31
0.0
1001
AUTOCAD_POSTSCRIPT_FIGURE
1002
{
1000
PSFILL
1000
Grayscale
1000
Grayscale
1070
   100
1002
}
  0
LINE
  5
195D3
330
1913F
100
AcDbEntity
  8
YODOROGO
100
AcDbLine
 10
13888.80217064596
 20
977.8747482146435
 30
0.0
 11
13900.80217064596
 21
977.8747482146435
 31
0.0
1001
AUTOCAD_POSTSCRIPT_FIGURE
1002
{
1000
PSFILL
1000
Grayscale
1000
Grayscale
1070
   100
1002
}
  0
LINE
  5
195D4
330
1913F
100
AcDbEntity
  8
YODOROGO
100
AcDbLine
 10
13888.80217064596
 20
969.8747482146441
 30
0.0
 11
13888.80217064596
 21
977.8747482146435
 31
0.0
1001
AUTOCAD_POSTSCRIPT_FIGURE
1002
{
1000
PSFILL
1000
Grayscale
1000
Grayscale
1070
   100
1002
}
  0
LINE
  5
195D5
330
1913F
100
AcDbEntity
  8
YODOROGO
100
AcDbLine
 10
13900.80217064596
 20
969.8747482146441
 30
0.0
 11
13888.80217064596
 21
969.8747482146441
 31
0.0
1001
AUTOCAD_POSTSCRIPT_FIGURE
1002
{
1000
PSFILL
1000
Grayscale
1000
Grayscale
1070
   100
1002
}
  0
LINE
  5
195D6
330
1913F
100
AcDbEntity
  8
YODOROGO
100
AcDbLine
 10
13900.80217064596
 20
957.3932903968525
 30
0.0
 11
13900.80217064596
 21
969.8747482146441
 31
0.0
1001
AUTOCAD_POSTSCRIPT_FIGURE
1002
{
1000
PSFILL
1000
Grayscale
1000
Grayscale
1070
   100
1002
}
  0
LINE
  5
195D7
330
1913F
100
AcDbEntity
  8
YODOROGO
100
AcDbLine
 10
13888.80217064596
 20
929.8883739758355
 30
0.0
 11
13900.80217064596
 21
957.3932903968525
 31
0.0
1001
AUTOCAD_POSTSCRIPT_FIGURE
1002
{
1000
PSFILL
1000
Grayscale
1000
Grayscale
1070
   100
1002
}
  0
LINE
  5
195D8
330
1913F
100
AcDbEntity
  8
YODOROGO
100
AcDbLine
 10
13888.80217064596
 20
921.8883739758362
 30
0.0
 11
13888.80217064596
 21
929.8883739758355
 31
0.0
1001
AUTOCAD_POSTSCRIPT_FIGURE
1002
{
1000
PSFILL
1000
Grayscale
1000
Grayscale
1070
   100
1002
}
  0
LINE
  5
195D9
330
1913F
100
AcDbEntity
  8
YODOROGO
100
AcDbLine
 10
14128.80217064596
 20
933.8747482146439
 30
0.0
 11
14200.80217064594
 21
912.4388128201532
 31
0.0
1001
AUTOCAD_POSTSCRIPT_FIGURE
1002
{
1000
PSFILL
1000
Grayscale
1000
Grayscale
1070
   100
1002
}
  0
LINE
  5
195DA
330
1913F
100
AcDbEntity
  8
YODOROGO
100
AcDbLine
 10
14200.80217064594
 20
876.4388128201531
 30
0.0
 11
14128.80217064596
 21
897.8747482146435
 31
0.0
1001
AUTOCAD_POSTSCRIPT_FIGURE
1002
{
1000
PSFILL
1000
Grayscale
1000
Grayscale
1070
   100
1002
}
  0
LINE
  5
195DB
330
1913F
100
AcDbEntity
  8
YODOROGO
100
AcDbLine
 10
14200.80217064594
 20
992.4388128201531
 30
0.0
 11
14128.80217064596
 21
1013.874748214644
 31
0.0
1001
AUTOCAD_POSTSCRIPT_FIGURE
1002
{
1000
PSFILL
1000
Grayscale
1000
Grayscale
1070
   100
1002
}
  0
LINE
  5
195DC
330
1913F
100
AcDbEntity
  8
YODOROGO
100
AcDbLine
 10
14128.80217064596
 20
979.874748214644
 30
0.0
 11
14200.80217064594
 21
958.4388128201537
 31
0.0
1001
AUTOCAD_POSTSCRIPT_FIGURE
1002
{
1000
PSFILL
1000
Grayscale
1000
Grayscale
1070
   100
1002
}
  0
LINE
  5
195DD
330
1913F
100
AcDbEntity
  8
YODOROGO
100
AcDbLine
 10
14128.80217064596
 20
897.8747482146435
 30
0.0
 11
14128.80217064596
 21
933.8747482146439
 31
0.0
1001
AUTOCAD_POSTSCRIPT_FIGURE
1002
{
1000
PSFILL
1000
Grayscale
1000
Grayscale
1070
   100
1002
}
  0
LINE
  5
195DE
330
1913F
100
AcDbEntity
  8
YODOROGO
100
AcDbLine
 10
14128.80217064596
 20
1013.874748214644
 30
0.0
 11
14128.80217064596
 21
979.874748214644
 31
0.0
1001
AUTOCAD_POSTSCRIPT_FIGURE
1002
{
1000
PSFILL
1000
Grayscale
1000
Grayscale
1070
   100
1002
}
  0
LINE
  5
195DF
330
1913F
100
AcDbEntity
  8
YODOROGO
100
AcDbLine
 10
14040.11816010337
 20
969.8747482146441
 30
0.0
 11
14064.80217064595
 21
873.8747482146434
 31
0.0
1001
AUTOCAD_POSTSCRIPT_FIGURE
1002
{
1000
PSFILL
1000
Grayscale
1000
Grayscale
1070
   100
1002
}
  0
LINE
  5
195E0
330
1913F
100
AcDbEntity
  8
YODOROGO
100
AcDbLine
 10
13988.80217064596
 20
969.8747482146441
 30
0.0
 11
14040.11816010337
 21
969.8747482146441
 31
0.0
1001
AUTOCAD_POSTSCRIPT_FIGURE
1002
{
1000
PSFILL
1000
Grayscale
1000
Grayscale
1070
   100
1002
}
  0
LINE
  5
195E1
330
1913F
100
AcDbEntity
  8
YODOROGO
100
AcDbLine
 10
13988.80217064596
 20
977.8747482146435
 30
0.0
 11
13988.80217064596
 21
969.8747482146441
 31
0.0
1001
AUTOCAD_POSTSCRIPT_FIGURE
1002
{
1000
PSFILL
1000
Grayscale
1000
Grayscale
1070
   100
1002
}
  0
LINE
  5
195E2
330
1913F
100
AcDbEntity
  8
YODOROGO
100
AcDbLine
 10
14038.30343925995
 20
977.8747482146435
 30
0.0
 11
13988.80217064596
 21
977.8747482146435
 31
0.0
1001
AUTOCAD_POSTSCRIPT_FIGURE
1002
{
1000
PSFILL
1000
Grayscale
1000
Grayscale
1070
   100
1002
}
  0
LINE
  5
195E3
330
1913F
100
AcDbEntity
  8
YODOROGO
100
AcDbLine
 10
14035.58135799485
 20
989.8747482146442
 30
0.0
 11
14038.30343925995
 21
977.8747482146435
 31
0.0
1001
AUTOCAD_POSTSCRIPT_FIGURE
1002
{
1000
PSFILL
1000
Grayscale
1000
Grayscale
1070
   100
1002
}
  0
LINE
  5
195E4
330
1913F
100
AcDbEntity
  8
YODOROGO
100
AcDbLine
 10
14045.58135799485
 20
989.8747482146442
 30
0.0
 11
14035.58135799485
 21
989.8747482146442
 31
0.0
1001
AUTOCAD_POSTSCRIPT_FIGURE
1002
{
1000
PSFILL
1000
Grayscale
1000
Grayscale
1070
   100
1002
}
  0
LINE
  5
195E5
330
1913F
100
AcDbEntity
  8
YODOROGO
100
AcDbLine
 10
14047.90343925997
 20
977.8747482146435
 30
0.0
 11
14045.58135799485
 21
989.8747482146442
 31
0.0
1001
AUTOCAD_POSTSCRIPT_FIGURE
1002
{
1000
PSFILL
1000
Grayscale
1000
Grayscale
1070
   100
1002
}
  0
LINE
  5
195E6
330
1913F
100
AcDbEntity
  8
YODOROGO
100
AcDbLine
 10
14060.80217064596
 20
977.8747482146435
 30
0.0
 11
14047.90343925997
 21
977.8747482146435
 31
0.0
1001
AUTOCAD_POSTSCRIPT_FIGURE
1002
{
1000
PSFILL
1000
Grayscale
1000
Grayscale
1070
   100
1002
}
  0
LINE
  5
195E7
330
1913F
100
AcDbEntity
  8
YODOROGO
100
AcDbLine
 10
14060.80217064596
 20
989.8747482146442
 30
0.0
 11
14060.80217064596
 21
977.8747482146435
 31
0.0
1001
AUTOCAD_POSTSCRIPT_FIGURE
1002
{
1000
PSFILL
1000
Grayscale
1000
Grayscale
1070
   100
1002
}
  0
LINE
  5
195E8
330
1913F
100
AcDbEntity
  8
YODOROGO
100
AcDbLine
 10
14068.80217064596
 20
989.8747482146442
 30
0.0
 11
14060.80217064596
 21
989.8747482146442
 31
0.0
1001
AUTOCAD_POSTSCRIPT_FIGURE
1002
{
1000
PSFILL
1000
Grayscale
1000
Grayscale
1070
   100
1002
}
  0
LINE
  5
195E9
330
1913F
100
AcDbEntity
  8
YODOROGO
100
AcDbLine
 10
14068.80217064596
 20
977.8747482146435
 30
0.0
 11
14068.80217064596
 21
989.8747482146442
 31
0.0
1001
AUTOCAD_POSTSCRIPT_FIGURE
1002
{
1000
PSFILL
1000
Grayscale
1000
Grayscale
1070
   100
1002
}
  0
LINE
  5
195EA
330
1913F
100
AcDbEntity
  8
YODOROGO
100
AcDbLine
 10
14068.80217064596
 20
969.8747482146441
 30
0.0
 11
14068.80217064596
 21
977.8747482146435
 31
0.0
1001
AUTOCAD_POSTSCRIPT_FIGURE
1002
{
1000
PSFILL
1000
Grayscale
1000
Grayscale
1070
   100
1002
}
  0
LINE
  5
195EB
330
1913F
100
AcDbEntity
  8
YODOROGO
100
AcDbLine
 10
14049.45149343671
 20
969.8747482146441
 30
0.0
 11
14068.80217064596
 21
969.8747482146441
 31
0.0
1001
AUTOCAD_POSTSCRIPT_FIGURE
1002
{
1000
PSFILL
1000
Grayscale
1000
Grayscale
1070
   100
1002
}
  0
LINE
  5
195EC
330
1913F
100
AcDbEntity
  8
YODOROGO
100
AcDbLine
 10
14068.80217064596
 20
873.8747482146434
 30
0.0
 11
14049.45149343671
 21
969.8747482146441
 31
0.0
1001
AUTOCAD_POSTSCRIPT_FIGURE
1002
{
1000
PSFILL
1000
Grayscale
1000
Grayscale
1070
   100
1002
}
  0
LINE
  5
195ED
330
1913F
100
AcDbEntity
  8
YODOROGO
100
AcDbLine
 10
14064.80217064595
 20
873.8747482146434
 30
0.0
 11
14068.80217064596
 21
873.8747482146434
 31
0.0
1001
AUTOCAD_POSTSCRIPT_FIGURE
1002
{
1000
PSFILL
1000
Grayscale
1000
Grayscale
1070
   100
1002
}
  0
LINE
  5
195EE
330
1913F
100
AcDbEntity
  8
YODOROGO
100
AcDbLine
 10
14039.03460996689
 20
887.8703881493972
 30
0.0
 11
13988.80217064596
 21
873.8747482146434
 31
0.0
  0
LINE
  5
195EF
330
1913F
100
AcDbEntity
  8
YODOROGO
100
AcDbLine
 10
14039.03460996689
 20
899.3344897645364
 30
0.0
 11
14039.03460996689
 21
887.8703881493972
 31
0.0
  0
LINE
  5
195F0
330
1913F
100
AcDbEntity
  8
YODOROGO
100
AcDbLine
 10
14016.91839030643
 20
893.4084665668834
 30
0.0
 11
14039.03460996689
 21
899.3344897645364
 31
0.0
  0
LINE
  5
195F1
330
1913F
100
AcDbEntity
  8
YODOROGO
100
AcDbLine
 10
14016.91839030643
 20
936.2841744681499
 30
0.0
 11
14016.91839030643
 21
893.4084665668834
 31
0.0
  0
LINE
  5
195F2
330
1913F
100
AcDbEntity
  8
YODOROGO
100
AcDbLine
 10
14039.03460996689
 20
936.2841744681499
 30
0.0
 11
14016.91839030643
 21
936.2841744681499
 31
0.0
  0
LINE
  5
195F3
330
1913F
100
AcDbEntity
  8
YODOROGO
100
AcDbLine
 10
14039.03460996689
 20
946.2841744681487
 30
0.0
 11
14039.03460996689
 21
936.2841744681499
 31
0.0
  0
LINE
  5
195F4
330
1913F
100
AcDbEntity
  8
YODOROGO
100
AcDbLine
 10
13988.80217064596
 20
946.2841744681487
 30
0.0
 11
14039.03460996689
 21
946.2841744681487
 31
0.0
  0
LINE
  5
195F5
330
1913F
100
AcDbEntity
  8
YODOROGO
100
AcDbLine
 10
13988.80217064596
 20
936.2841744681499
 30
0.0
 11
13988.80217064596
 21
946.2841744681487
 31
0.0
  0
LINE
  5
195F6
330
1913F
100
AcDbEntity
  8
YODOROGO
100
AcDbLine
 10
14010.91839030643
 20
936.2841744681499
 30
0.0
 11
13988.80217064596
 21
936.2841744681499
 31
0.0
  0
LINE
  5
195F7
330
1913F
100
AcDbEntity
  8
YODOROGO
100
AcDbLine
 10
14010.91839030643
 20
892.3366697971587
 30
0.0
 11
14010.91839030643
 21
936.2841744681499
 31
0.0
  0
LINE
  5
195F8
330
1913F
100
AcDbEntity
  8
YODOROGO
100
AcDbLine
 10
13988.80217064596
 20
885.8747482146432
 30
0.0
 11
14010.91839030643
 21
892.3366697971587
 31
0.0
  0
LINE
  5
195F9
330
1913F
100
AcDbEntity
  8
YODOROGO
100
AcDbLine
 10
13988.80217064596
 20
873.8747482146434
 30
0.0
 11
13988.80217064596
 21
885.8747482146432
 31
0.0
  0
LINE
  5
195FA
330
1913F
100
AcDbEntity
  8
YODOROGO
100
AcDbLine
 10
14000.80217064596
 20
853.874748214644
 30
0.0
 11
14000.80217064596
 21
841.8747482146434
 31
0.0
  0
LINE
  5
195FB
330
1913F
100
AcDbEntity
  8
YODOROGO
100
AcDbLine
 10
14008.80217064596
 20
853.874748214644
 30
0.0
 11
14000.80217064596
 21
853.874748214644
 31
0.0
  0
LINE
  5
195FC
330
1913F
100
AcDbEntity
  8
YODOROGO
100
AcDbLine
 10
14008.80217064596
 20
841.8747482146434
 30
0.0
 11
14008.80217064596
 21
853.874748214644
 31
0.0
  0
LINE
  5
195FD
330
1913F
100
AcDbEntity
  8
YODOROGO
100
AcDbLine
 10
14020.45660200844
 20
841.8747482146434
 30
0.0
 11
14008.80217064596
 21
841.8747482146434
 31
0.0
  0
LINE
  5
195FE
330
1913F
100
AcDbEntity
  8
YODOROGO
100
AcDbLine
 10
14000.80217064596
 20
841.8747482146434
 30
0.0
 11
13988.80217064596
 21
841.8747482146434
 31
0.0
  0
LINE
  5
195FF
330
1913F
100
AcDbEntity
  8
YODOROGO
100
AcDbLine
 10
14041.06776011546
 20
853.874748214644
 30
0.0
 11
14049.06776011545
 21
853.874748214644
 31
0.0
1001
AUTOCAD_POSTSCRIPT_FIGURE
1002
{
1000
PSFILL
1000
Grayscale
1000
Grayscale
1070
   100
1002
}
  0
LINE
  5
19600
330
1913F
100
AcDbEntity
  8
YODOROGO
100
AcDbLine
 10
14200.80217064594
 20
912.4388128201532
 30
0.0
 11
14200.80217064594
 21
876.4388128201531
 31
0.0
1001
AUTOCAD_POSTSCRIPT_FIGURE
1002
{
1000
PSFILL
1000
Grayscale
1000
Grayscale
1070
   100
1002
}
  0
LINE
  5
19601
330
1913F
100
AcDbEntity
  8
YODOROGO
100
AcDbLine
 10
14200.80217064594
 20
958.4388128201537
 30
0.0
 11
14200.80217064594
 21
992.4388128201531
 31
0.0
1001
AUTOCAD_POSTSCRIPT_FIGURE
1002
{
1000
PSFILL
1000
Grayscale
1000
Grayscale
1070
   100
1002
}
  0
LINE
  5
19602
330
1913F
100
AcDbEntity
  8
YODOROGO
100
AcDbLine
 10
14216.80217064594
 20
909.8747482146439
 30
0.0
 11
14216.80217064594
 21
873.8747482146449
 31
0.0
  0
LINE
  5
19603
330
1913F
100
AcDbEntity
  8
YODOROGO
100
AcDbLine
 10
14248.80217064594
 20
853.874748214644
 30
0.0
 11
14216.80217064594
 21
853.874748214644
 31
0.0
  0
LINE
  5
19604
330
1913F
100
AcDbEntity
  8
YODOROGO
100
AcDbLine
 10
14216.80217064594
 20
873.8747482146449
 30
0.0
 11
14292.80217064596
 21
873.8747482146449
 31
0.0
  0
LINE
  5
19605
330
1913F
100
AcDbEntity
  8
YODOROGO
100
AcDbLine
 10
14248.80217064594
 20
933.8747482146439
 30
0.0
 11
14216.80217064594
 21
933.8747482146439
 31
0.0
  0
LINE
  5
19606
330
1913F
100
AcDbEntity
  8
YODOROGO
100
AcDbLine
 10
14248.80217064594
 20
961.8747482146432
 30
0.0
 11
14248.80217064594
 21
933.8747482146439
 31
0.0
  0
LINE
  5
19607
330
1913F
100
AcDbEntity
  8
YODOROGO
100
AcDbLine
 10
14292.80217064596
 20
993.8747482146439
 30
0.0
 11
14292.80217064596
 21
1013.874748214644
 31
0.0
  0
LINE
  5
19608
330
1913F
100
AcDbEntity
  8
YODOROGO
100
AcDbLine
 10
14216.80217064594
 20
993.8747482146439
 30
0.0
 11
14292.80217064596
 21
993.8747482146439
 31
0.0
  0
LINE
  5
19609
330
1913F
100
AcDbEntity
  8
YODOROGO
100
AcDbLine
 10
14216.80217064594
 20
933.8747482146439
 30
0.0
 11
14216.80217064594
 21
993.8747482146439
 31
0.0
  0
LINE
  5
1960A
330
1913F
100
AcDbEntity
  8
YODOROGO
100
AcDbLine
 10
14500.80217064594
 20
1013.874748214644
 30
0.0
 11
14500.80217064594
 21
809.8747482146441
 31
0.0
  0
LINE
  5
1960B
330
1913F
100
AcDbEntity
  8
YODOROGO
100
AcDbLine
 10
14536.80217064596
 20
789.8747482146441
 30
0.0
 11
14536.80217064596
 21
1013.874748214644
 31
0.0
  0
LINE
  5
1960C
330
1913F
100
AcDbEntity
  8
YODOROGO
100
AcDbLine
 10
14630.80217064596
 20
745.8747482146431
 30
0.0
 11
14630.80217064596
 21
1003.874748214644
 31
0.0
  0
LINE
  5
1960D
330
1913F
100
AcDbEntity
  8
YODOROGO
100
AcDbLine
 10
14598.80217064596
 20
1003.874748214644
 30
0.0
 11
14598.80217064596
 21
745.8747482146431
 31
0.0
  0
LINE
  5
1960E
330
1913F
100
AcDbEntity
  8
YODOROGO
100
AcDbLine
 10
14692.80217064596
 20
1013.874748214644
 30
0.0
 11
14692.80217064596
 21
713.8747482146436
 31
0.0
  0
LINE
  5
1960F
330
1913F
100
AcDbEntity
  8
YODOROGO
100
AcDbLine
 10
14728.80217064596
 20
713.8747482146436
 30
0.0
 11
14728.80217064596
 21
1013.874748214644
 31
0.0
  0
LINE
  5
19610
330
1913F
100
AcDbEntity
  8
YODOROGO
100
AcDbLine
 10
14328.80217064594
 20
833.8747482146439
 30
0.0
 11
14328.80217064594
 21
873.8747482146449
 31
0.0
  0
LINE
  5
19611
330
1913F
100
AcDbEntity
  8
YODOROGO
100
AcDbLine
 10
14942.80217064596
 20
853.874748214644
 30
0.0
 11
14942.80217064596
 21
833.8747482146439
 31
0.0
  0
LINE
  5
19612
330
1913F
100
AcDbEntity
  8
YODOROGO
100
AcDbLine
 10
14942.80217064596
 20
853.874748214644
 30
0.0
 11
14942.80217064596
 21
833.8747482146439
 31
0.0
  0
ARC
  5
19613
330
1913F
100
AcDbEntity
  8
YODOROGO
100
AcDbCircle
 10
14453.45578809342
 20
809.1089322211363
 30
0.0
 40
47.35257558937082
100
AcDbArc
 50
274.052441629071
 51
0.9266642149310712
  0
ARC
  5
19614
330
1913F
100
AcDbEntity
  8
YODOROGO
100
AcDbCircle
 10
14454.5930853599
 20
796.30536430522
 30
0.0
 40
82.46021178042756
100
AcDbArc
 50
271.5351210653777
 51
355.5272775058505
  0
LINE
  5
19615
330
1913F
100
AcDbEntity
  8
YODOROGO
100
AcDbLine
 10
14456.80217064596
 20
761.8747482146434
 30
0.0
 11
14456.80217064596
 21
713.8747482146436
 31
0.0
  0
LINE
  5
19616
330
1913F
100
AcDbEntity
  8
YODOROGO
100
AcDbLine
 10
14396.80217064594
 20
833.8747482146439
 30
0.0
 11
14328.80217064594
 21
833.8747482146439
 31
0.0
  0
LINE
  5
19617
330
1913F
100
AcDbEntity
  8
YODOROGO
100
AcDbLine
 10
14396.80217064594
 20
801.8747482146444
 30
0.0
 11
14396.80217064594
 21
833.8747482146439
 31
0.0
  0
LINE
  5
19618
330
1913F
100
AcDbEntity
  8
YODOROGO
100
AcDbLine
 10
14328.80217064594
 20
801.8747482146444
 30
0.0
 11
14396.80217064594
 21
801.8747482146444
 31
0.0
  0
LINE
  5
19619
330
1913F
100
AcDbEntity
  8
YODOROGO
100
AcDbLine
 10
14328.80217064594
 20
761.8747482146434
 30
0.0
 11
14328.80217064594
 21
801.8747482146444
 31
0.0
  0
LINE
  5
1961A
330
1913F
100
AcDbEntity
  8
YODOROGO
100
AcDbLine
 10
14396.80217064594
 20
761.8747482146434
 30
0.0
 11
14328.80217064594
 21
761.8747482146434
 31
0.0
  0
LINE
  5
1961B
330
1913F
100
AcDbEntity
  8
YODOROGO
100
AcDbLine
 10
14396.80217064594
 20
713.8747482146436
 30
0.0
 11
14396.80217064594
 21
761.8747482146434
 31
0.0
  0
LINE
  5
1961C
330
1913F
100
AcDbEntity
  8
YODOROGO
100
AcDbLine
 10
14598.80217064596
 20
745.8747482146431
 30
0.0
 11
14630.80217064596
 21
745.8747482146431
 31
0.0
  0
LINE
  5
1961D
330
1913F
100
AcDbEntity
  8
YODOROGO
100
AcDbLine
 10
14692.80217064596
 20
713.8747482146436
 30
0.0
 11
14728.80217064596
 21
713.8747482146436
 31
0.0
  0
LINE
  5
1961E
330
1913F
100
AcDbEntity
  8
YODOROGO
100
AcDbLine
 10
14868.80217064596
 20
764.2207260852818
 30
0.0
 11
14868.80217064596
 21
713.8747482146436
 31
0.0
  0
LINE
  5
1961F
330
1913F
100
AcDbEntity
  8
YODOROGO
100
AcDbLine
 10
14808.80217064596
 20
713.8747482146436
 30
0.0
 11
14868.80217064596
 21
764.2207260852818
 31
0.0
  0
LINE
  5
19620
330
1913F
100
AcDbEntity
  8
YODOROGO
100
AcDbLine
 10
14808.80217064596
 20
773.874748214644
 30
0.0
 11
14808.80217064596
 21
713.8747482146436
 31
0.0
  0
LINE
  5
19621
330
1913F
100
AcDbEntity
  8
YODOROGO
100
AcDbLine
 10
14856.47231434973
 20
813.8747482146435
 30
0.0
 11
14808.80217064596
 21
773.874748214644
 31
0.0
  0
LINE
  5
19622
330
1913F
100
AcDbEntity
  8
YODOROGO
100
AcDbLine
 10
14808.80217064596
 20
813.8747482146435
 30
0.0
 11
14856.47231434973
 21
813.8747482146435
 31
0.0
  0
LINE
  5
19623
330
1913F
100
AcDbEntity
  8
YODOROGO
100
AcDbLine
 10
14808.80217064596
 20
833.8747482146439
 30
0.0
 11
14808.80217064596
 21
813.8747482146435
 31
0.0
  0
LINE
  5
19624
330
1913F
100
AcDbEntity
  8
YODOROGO
100
AcDbLine
 10
14942.80217064596
 20
833.8747482146439
 30
0.0
 11
14808.80217064596
 21
833.8747482146439
 31
0.0
  0
LINE
  5
19625
330
1913F
100
AcDbEntity
  8
YODOROGO
100
AcDbLine
 10
14958.80217064596
 20
813.8747482146435
 30
0.0
 11
14888.80217064596
 21
813.8747482146435
 31
0.0
  0
LINE
  5
19626
330
1913F
100
AcDbEntity
  8
YODOROGO
100
AcDbLine
 10
14888.80217064596
 20
781.0027187088283
 30
0.0
 11
14885.70493649264
 21
778.403830673117
 31
0.0
  0
LINE
  5
19627
330
1913F
100
AcDbEntity
  8
YODOROGO
100
AcDbLine
 10
14888.80217064596
 20
813.8747482146435
 30
0.0
 11
14888.80217064596
 21
781.0027187088283
 31
0.0
  0
LINE
  5
19628
330
1913F
100
AcDbEntity
  8
YODOROGO
100
AcDbLine
 10
14868.80217064596
 20
764.2207260852818
 30
0.0
 11
14868.80217064596
 21
713.8747482146436
 31
0.0
  0
LINE
  5
19629
330
1913F
100
AcDbEntity
  8
YODOROGO
100
AcDbLine
 10
14808.80217064596
 20
713.8747482146436
 30
0.0
 11
14868.80217064596
 21
764.2207260852818
 31
0.0
  0
LINE
  5
1962A
330
1913F
100
AcDbEntity
  8
YODOROGO
100
AcDbLine
 10
14808.80217064596
 20
773.874748214644
 30
0.0
 11
14808.80217064596
 21
713.8747482146436
 31
0.0
  0
LINE
  5
1962B
330
1913F
100
AcDbEntity
  8
YODOROGO
100
AcDbLine
 10
14856.47231434973
 20
813.8747482146435
 30
0.0
 11
14808.80217064596
 21
773.874748214644
 31
0.0
  0
LINE
  5
1962C
330
1913F
100
AcDbEntity
  8
YODOROGO
100
AcDbLine
 10
14808.80217064596
 20
813.8747482146435
 30
0.0
 11
14856.47231434973
 21
813.8747482146435
 31
0.0
  0
LINE
  5
1962D
330
1913F
100
AcDbEntity
  8
YODOROGO
100
AcDbLine
 10
14808.80217064596
 20
833.8747482146439
 30
0.0
 11
14808.80217064596
 21
813.8747482146435
 31
0.0
  0
LINE
  5
1962E
330
1913F
100
AcDbEntity
  8
YODOROGO
100
AcDbLine
 10
14942.80217064596
 20
833.8747482146439
 30
0.0
 11
14808.80217064596
 21
833.8747482146439
 31
0.0
  0
LINE
  5
1962F
330
1913F
100
AcDbEntity
  8
YODOROGO
100
AcDbLine
 10
14396.80217064594
 20
873.8747482146449
 30
0.0
 11
14396.80217064594
 21
909.8747482146439
 31
0.0
  0
LINE
  5
19630
330
1913F
100
AcDbEntity
  8
YODOROGO
100
AcDbLine
 10
14328.80217064594
 20
873.8747482146449
 30
0.0
 11
14396.80217064594
 21
873.8747482146449
 31
0.0
  0
LINE
  5
19631
330
1913F
100
AcDbEntity
  8
YODOROGO
100
AcDbLine
 10
14364.80217064596
 20
933.8747482146439
 30
0.0
 11
14364.80217064596
 21
961.8747482146432
 31
0.0
  0
LINE
  5
19632
330
1913F
100
AcDbEntity
  8
YODOROGO
100
AcDbLine
 10
14396.80217064594
 20
933.8747482146439
 30
0.0
 11
14364.80217064596
 21
933.8747482146439
 31
0.0
  0
LINE
  5
19633
330
1913F
100
AcDbEntity
  8
YODOROGO
100
AcDbLine
 10
14396.80217064594
 20
973.8747482146434
 30
0.0
 11
14396.80217064594
 21
933.8747482146439
 31
0.0
  0
ARC
  5
19634
330
1913F
100
AcDbEntity
  8
YODOROGO
100
AcDbCircle
 10
14376.80217064594
 20
973.8747482146434
 30
0.0
 40
20.0
100
AcDbArc
 50
0.0
 51
90.0
  0
LINE
  5
19635
330
1913F
100
AcDbEntity
  8
YODOROGO
100
AcDbLine
 10
14328.80217064596
 20
993.8747482146439
 30
0.0
 11
14376.80217064594
 21
993.8747482146439
 31
0.0
  0
LINE
  5
19636
330
1913F
100
AcDbEntity
  8
YODOROGO
100
AcDbLine
 10
14328.80217064596
 20
1013.874748214644
 30
0.0
 11
14328.80217064596
 21
993.8747482146439
 31
0.0
  0
LINE
  5
19637
330
1913F
100
AcDbEntity
  8
YODOROGO
100
AcDbLine
 10
14536.80217064596
 20
1013.874748214644
 30
0.0
 11
14500.80217064594
 21
1013.874748214644
 31
0.0
  0
LINE
  5
19638
330
1913F
100
AcDbEntity
  8
YODOROGO
100
AcDbLine
 10
14630.80217064596
 20
1003.874748214644
 30
0.0
 11
14598.80217064596
 21
1003.874748214644
 31
0.0
  0
LINE
  5
19639
330
1913F
100
AcDbEntity
  8
YODOROGO
100
AcDbLine
 10
14728.80217064596
 20
1013.874748214644
 30
0.0
 11
14692.80217064596
 21
1013.874748214644
 31
0.0
  0
LINE
  5
1963A
330
1913F
100
AcDbEntity
  8
YODOROGO
100
AcDbLine
 10
14836.80217064596
 20
853.874748214644
 30
0.0
 11
14836.80217064596
 21
885.8747482146441
 31
0.0
1001
AUTOCAD_POSTSCRIPT_FIGURE
1002
{
1000
PSFILL
1000
Grayscale
1000
Grayscale
1070
    25
1002
}
  0
LINE
  5
1963B
330
1913F
100
AcDbEntity
  8
YODOROGO
100
AcDbLine
 10
14808.80217064596
 20
853.874748214644
 30
0.0
 11
14836.80217064596
 21
853.874748214644
 31
0.0
1001
AUTOCAD_POSTSCRIPT_FIGURE
1002
{
1000
PSFILL
1000
Grayscale
1000
Grayscale
1070
    25
1002
}
  0
LINE
  5
1963C
330
1913F
100
AcDbEntity
  8
YODOROGO
100
AcDbLine
 10
14808.80217064596
 20
909.8747482146439
 30
0.0
 11
14808.80217064596
 21
853.874748214644
 31
0.0
1001
AUTOCAD_POSTSCRIPT_FIGURE
1002
{
1000
PSFILL
1000
Grayscale
1000
Grayscale
1070
    25
1002
}
  0
LINE
  5
1963D
330
1913F
100
AcDbEntity
  8
YODOROGO
100
AcDbLine
 10
14882.80217064596
 20
909.8747482146439
 30
0.0
 11
14808.80217064596
 21
909.8747482146439
 31
0.0
1001
AUTOCAD_POSTSCRIPT_FIGURE
1002
{
1000
PSFILL
1000
Grayscale
1000
Grayscale
1070
    25
1002
}
  0
LINE
  5
1963E
330
1913F
100
AcDbEntity
  8
YODOROGO
100
AcDbLine
 10
14882.80217064596
 20
929.874748214644
 30
0.0
 11
14882.80217064596
 21
909.8747482146439
 31
0.0
1001
AUTOCAD_POSTSCRIPT_FIGURE
1002
{
1000
PSFILL
1000
Grayscale
1000
Grayscale
1070
    25
1002
}
  0
LINE
  5
1963F
330
1913F
100
AcDbEntity
  8
YODOROGO
100
AcDbLine
 10
14808.80217064596
 20
929.874748214644
 30
0.0
 11
14882.80217064596
 21
929.874748214644
 31
0.0
1001
AUTOCAD_POSTSCRIPT_FIGURE
1002
{
1000
PSFILL
1000
Grayscale
1000
Grayscale
1070
    25
1002
}
  0
LINE
  5
19640
330
1913F
100
AcDbEntity
  8
YODOROGO
100
AcDbLine
 10
14808.80217064596
 20
953.874748214644
 30
0.0
 11
14808.80217064596
 21
929.874748214644
 31
0.0
1001
AUTOCAD_POSTSCRIPT_FIGURE
1002
{
1000
PSFILL
1000
Grayscale
1000
Grayscale
1070
    25
1002
}
  0
LINE
  5
19641
330
1913F
100
AcDbEntity
  8
YODOROGO
100
AcDbLine
 10
14882.80217064596
 20
953.874748214644
 30
0.0
 11
14808.80217064596
 21
953.874748214644
 31
0.0
1001
AUTOCAD_POSTSCRIPT_FIGURE
1002
{
1000
PSFILL
1000
Grayscale
1000
Grayscale
1070
    25
1002
}
  0
LINE
  5
19642
330
1913F
100
AcDbEntity
  8
YODOROGO
100
AcDbLine
 10
14882.80217064596
 20
973.8747482146434
 30
0.0
 11
14882.80217064596
 21
953.874748214644
 31
0.0
1001
AUTOCAD_POSTSCRIPT_FIGURE
1002
{
1000
PSFILL
1000
Grayscale
1000
Grayscale
1070
    25
1002
}
  0
LINE
  5
19643
330
1913F
100
AcDbEntity
  8
YODOROGO
100
AcDbLine
 10
14808.80217064596
 20
973.8747482146434
 30
0.0
 11
14882.80217064596
 21
973.8747482146434
 31
0.0
1001
AUTOCAD_POSTSCRIPT_FIGURE
1002
{
1000
PSFILL
1000
Grayscale
1000
Grayscale
1070
    25
1002
}
  0
LINE
  5
19644
330
1913F
100
AcDbEntity
  8
YODOROGO
100
AcDbLine
 10
14808.80217064596
 20
1013.874748214644
 30
0.0
 11
14808.80217064596
 21
973.8747482146434
 31
0.0
1001
AUTOCAD_POSTSCRIPT_FIGURE
1002
{
1000
PSFILL
1000
Grayscale
1000
Grayscale
1070
    25
1002
}
  0
LINE
  5
19645
330
1913F
100
AcDbEntity
  8
YODOROGO
100
AcDbLine
 10
14832.80217064596
 20
1013.874748214644
 30
0.0
 11
14808.80217064596
 21
1013.874748214644
 31
0.0
1001
AUTOCAD_POSTSCRIPT_FIGURE
1002
{
1000
PSFILL
1000
Grayscale
1000
Grayscale
1070
    25
1002
}
  0
LINE
  5
19646
330
1913F
100
AcDbEntity
  8
YODOROGO
100
AcDbLine
 10
14832.80217064596
 20
997.8747482146435
 30
0.0
 11
14832.80217064596
 21
1013.874748214644
 31
0.0
1001
AUTOCAD_POSTSCRIPT_FIGURE
1002
{
1000
PSFILL
1000
Grayscale
1000
Grayscale
1070
    25
1002
}
  0
LINE
  5
19647
330
1913F
100
AcDbEntity
  8
YODOROGO
100
AcDbLine
 10
14882.80217064596
 20
997.8747482146435
 30
0.0
 11
14832.80217064596
 21
997.8747482146435
 31
0.0
1001
AUTOCAD_POSTSCRIPT_FIGURE
1002
{
1000
PSFILL
1000
Grayscale
1000
Grayscale
1070
    25
1002
}
  0
LINE
  5
19648
330
1913F
100
AcDbEntity
  8
YODOROGO
100
AcDbLine
 10
14882.80217064596
 20
1013.874748214644
 30
0.0
 11
14882.80217064596
 21
997.8747482146435
 31
0.0
1001
AUTOCAD_POSTSCRIPT_FIGURE
1002
{
1000
PSFILL
1000
Grayscale
1000
Grayscale
1070
    25
1002
}
  0
LINE
  5
19649
330
1913F
100
AcDbEntity
  8
YODOROGO
100
AcDbLine
 10
14914.80217064596
 20
1013.874748214644
 30
0.0
 11
14882.80217064596
 21
1013.874748214644
 31
0.0
1001
AUTOCAD_POSTSCRIPT_FIGURE
1002
{
1000
PSFILL
1000
Grayscale
1000
Grayscale
1070
    25
1002
}
  0
LINE
  5
1964A
330
1913F
100
AcDbEntity
  8
YODOROGO
100
AcDbLine
 10
14914.80217064596
 20
997.8747482146435
 30
0.0
 11
14914.80217064596
 21
1013.874748214644
 31
0.0
1001
AUTOCAD_POSTSCRIPT_FIGURE
1002
{
1000
PSFILL
1000
Grayscale
1000
Grayscale
1070
    25
1002
}
  0
LINE
  5
1964B
330
1913F
100
AcDbEntity
  8
YODOROGO
100
AcDbLine
 10
14914.80217064596
 20
953.874748214644
 30
0.0
 11
14914.80217064596
 21
973.8747482146434
 31
0.0
1001
AUTOCAD_POSTSCRIPT_FIGURE
1002
{
1000
PSFILL
1000
Grayscale
1000
Grayscale
1070
    25
1002
}
  0
LINE
  5
1964C
330
1913F
100
AcDbEntity
  8
YODOROGO
100
AcDbLine
 10
14914.80217064596
 20
909.8747482146439
 30
0.0
 11
14914.80217064596
 21
929.874748214644
 31
0.0
1001
AUTOCAD_POSTSCRIPT_FIGURE
1002
{
1000
PSFILL
1000
Grayscale
1000
Grayscale
1070
    25
1002
}
  0
LINE
  5
1964D
330
1913F
100
AcDbEntity
  8
YODOROGO
100
AcDbLine
 10
14960.80217064594
 20
885.8747482146441
 30
0.0
 11
14960.80217064594
 21
853.874748214644
 31
0.0
1001
AUTOCAD_POSTSCRIPT_FIGURE
1002
{
1000
PSFILL
1000
Grayscale
1000
Grayscale
1070
    25
1002
}
  0
LINE
  5
1964E
330
1913F
100
AcDbEntity
  8
YODOROGO
100
AcDbLine
 10
14914.80217064596
 20
885.8747482146441
 30
0.0
 11
14960.80217064594
 21
885.8747482146441
 31
0.0
1001
AUTOCAD_POSTSCRIPT_FIGURE
1002
{
1000
PSFILL
1000
Grayscale
1000
Grayscale
1070
    25
1002
}
  0
LINE
  5
1964F
330
1913F
100
AcDbEntity
  8
YODOROGO
100
AcDbLine
 10
14914.80217064596
 20
853.874748214644
 30
0.0
 11
14914.80217064596
 21
885.8747482146441
 31
0.0
1001
AUTOCAD_POSTSCRIPT_FIGURE
1002
{
1000
PSFILL
1000
Grayscale
1000
Grayscale
1070
    25
1002
}
  0
LINE
  5
19650
330
1913F
100
AcDbEntity
  8
YODOROGO
100
AcDbLine
 10
14882.80217064596
 20
853.874748214644
 30
0.0
 11
14914.80217064596
 21
853.874748214644
 31
0.0
1001
AUTOCAD_POSTSCRIPT_FIGURE
1002
{
1000
PSFILL
1000
Grayscale
1000
Grayscale
1070
    25
1002
}
  0
LINE
  5
19651
330
1913F
100
AcDbEntity
  8
YODOROGO
100
AcDbLine
 10
14882.80217064596
 20
885.8747482146441
 30
0.0
 11
14882.80217064596
 21
853.874748214644
 31
0.0
1001
AUTOCAD_POSTSCRIPT_FIGURE
1002
{
1000
PSFILL
1000
Grayscale
1000
Grayscale
1070
    25
1002
}
  0
LINE
  5
19652
330
1913F
100
AcDbEntity
  8
YODOROGO
100
AcDbLine
 10
14836.80217064596
 20
885.8747482146441
 30
0.0
 11
14882.80217064596
 21
885.8747482146441
 31
0.0
1001
AUTOCAD_POSTSCRIPT_FIGURE
1002
{
1000
PSFILL
1000
Grayscale
1000
Grayscale
1070
    25
1002
}
  0
ARC
  5
19653
330
1913F
100
AcDbEntity
  8
YODOROGO
100
AcDbCircle
 10
15529.75894667896
 20
801.3403687577881
 30
0.0
 40
89.11064055536078
100
AcDbArc
 50
281.0262749542535
 51
357.771135755738
  0
LINE
  5
19654
330
1913F
100
AcDbEntity
  8
YODOROGO
100
AcDbLine
 10
15706.80217064596
 20
953.874748214644
 30
0.0
 11
15582.80217064596
 21
953.874748214644
 31
0.0
  0
LINE
  5
19655
330
1913F
100
AcDbEntity
  8
YODOROGO
100
AcDbLine
 10
15706.80217064596
 20
1013.874748214644
 30
0.0
 11
15582.80217064596
 21
1013.874748214644
 31
0.0
  0
LINE
  5
19656
330
1913F
100
AcDbEntity
  8
YODOROGO
100
AcDbLine
 10
15582.80217064596
 20
981.8747482146434
 30
0.0
 11
15706.80217064596
 21
981.8747482146434
 31
0.0
  0
LINE
  5
19657
330
1913F
100
AcDbEntity
  8
YODOROGO
100
AcDbLine
 10
15395.80217064596
 20
781.8747482146434
 30
0.0
 11
15395.80217064596
 21
877.8747482146435
 31
0.0
  0
LINE
  5
19658
330
1913F
100
AcDbEntity
  8
YODOROGO
100
AcDbLine
 10
15381.80217064596
 20
845.8747482146444
 30
0.0
 11
15381.80217064596
 21
781.8747482146434
 31
0.0
  0
LINE
  5
19659
330
1913F
100
AcDbEntity
  8
YODOROGO
100
AcDbLine
 10
15361.80217064596
 20
745.8747482146443
 30
0.0
 11
15361.80217064596
 21
845.8747482146444
 31
0.0
  0
LINE
  5
1965A
330
1913F
100
AcDbEntity
  8
YODOROGO
100
AcDbLine
 10
15449.80217064596
 20
845.8747482146444
 30
0.0
 11
15449.80217064596
 21
745.8747482146443
 31
0.0
  0
LINE
  5
1965B
330
1913F
100
AcDbEntity
  8
YODOROGO
100
AcDbLine
 10
15429.80217064596
 20
781.8747482146434
 30
0.0
 11
15429.80217064596
 21
845.8747482146444
 31
0.0
  0
LINE
  5
1965C
330
1913F
100
AcDbEntity
  8
YODOROGO
100
AcDbLine
 10
15415.80217064596
 20
877.8747482146435
 30
0.0
 11
15415.80217064596
 21
781.8747482146434
 31
0.0
  0
LINE
  5
1965D
330
1913F
100
AcDbEntity
  8
YODOROGO
100
AcDbLine
 10
15486.80217064596
 20
1013.874748214644
 30
0.0
 11
15486.80217064596
 21
733.8747482146435
 31
0.0
  0
LINE
  5
1965E
330
1913F
100
AcDbEntity
  8
YODOROGO
100
AcDbLine
 10
15322.80217064596
 20
713.8747482146436
 30
0.0
 11
15322.80217064596
 21
1013.874748214644
 31
0.0
  0
LINE
  5
1965F
330
1913F
100
AcDbEntity
  8
YODOROGO
100
AcDbLine
 10
15348.80217064596
 20
981.8747482146434
 30
0.0
 11
15348.80217064596
 21
713.8747482146436
 31
0.0
  0
LINE
  5
19660
330
1913F
100
AcDbEntity
  8
YODOROGO
100
AcDbLine
 10
15462.80217064596
 20
773.874748214644
 30
0.0
 11
15462.80217064596
 21
981.8747482146434
 31
0.0
  0
LINE
  5
19661
330
1913F
100
AcDbEntity
  8
YODOROGO
100
AcDbLine
 10
15190.80217064596
 20
813.8747482146435
 30
0.0
 11
15190.80217064596
 21
839.8747482146442
 31
0.0
  0
LINE
  5
19662
330
1913F
100
AcDbEntity
  8
YODOROGO
100
AcDbLine
 10
15308.80217064596
 20
839.8747482146442
 30
0.0
 11
15308.80217064596
 21
813.8747482146435
 31
0.0
  0
LINE
  5
19663
330
1913F
100
AcDbEntity
  8
YODOROGO
100
AcDbLine
 10
15582.80217064596
 20
953.874748214644
 30
0.0
 11
15582.80217064596
 21
817.8747482146436
 31
0.0
  0
LINE
  5
19664
330
1913F
100
AcDbEntity
  8
YODOROGO
100
AcDbLine
 10
14974.80217064595
 20
833.8747482146439
 30
0.0
 11
14974.80217064595
 21
853.874748214644
 31
0.0
  0
LINE
  5
19665
330
1913F
100
AcDbEntity
  8
YODOROGO
100
AcDbLine
 10
14974.80217064595
 20
833.8747482146439
 30
0.0
 11
14974.80217064595
 21
853.874748214644
 31
0.0
  0
ARC
  5
19666
330
1913F
100
AcDbEntity
  8
YODOROGO
100
AcDbCircle
 10
15268.80217064596
 20
753.8747482146439
 30
0.0
 40
40.0
100
AcDbArc
 50
270.0
 51
0.0
  0
LINE
  5
19667
330
1913F
100
AcDbEntity
  8
YODOROGO
100
AcDbLine
 10
15284.80217064596
 20
799.8747482146441
 30
0.0
 11
15308.80217064596
 21
799.8747482146441
 31
0.0
  0
LINE
  5
19668
330
1913F
100
AcDbEntity
  8
YODOROGO
100
AcDbLine
 10
15308.80217064596
 20
813.8747482146435
 30
0.0
 11
15264.80217064596
 21
813.8747482146435
 31
0.0
  0
LINE
  5
19669
330
1913F
100
AcDbEntity
  8
YODOROGO
100
AcDbLine
 10
15108.80217064596
 20
833.8747482146439
 30
0.0
 11
14974.80217064595
 21
833.8747482146439
 31
0.0
  0
LINE
  5
1966A
330
1913F
100
AcDbEntity
  8
YODOROGO
100
AcDbLine
 10
15108.80217064596
 20
813.8747482146435
 30
0.0
 11
15108.80217064596
 21
833.8747482146439
 31
0.0
  0
LINE
  5
1966B
330
1913F
100
AcDbEntity
  8
YODOROGO
100
AcDbLine
 10
15008.80217064596
 20
813.8747482146435
 30
0.0
 11
15108.80217064596
 21
813.8747482146435
 31
0.0
  0
ARC
  5
1966C
330
1913F
100
AcDbEntity
  8
YODOROGO
100
AcDbCircle
 10
15115.02941435068
 20
934.4428574764513
 30
0.0
 40
160.6888181426141
100
AcDbArc
 50
228.6181454618993
 51
245.660289248906
  0
LINE
  5
1966D
330
1913F
100
AcDbEntity
  8
YODOROGO
100
AcDbLine
 10
15052.80217064596
 20
801.8747482146444
 30
0.0
 11
15048.80217064598
 21
788.0364079349501
 31
0.0
  0
LINE
  5
1966E
330
1913F
100
AcDbEntity
  8
YODOROGO
100
AcDbLine
 10
15094.80217064596
 20
801.8747482146444
 30
0.0
 11
15052.80217064596
 21
801.8747482146444
 31
0.0
  0
LINE
  5
1966F
330
1913F
100
AcDbEntity
  8
YODOROGO
100
AcDbLine
 10
15088.80217064596
 20
775.9088612367134
 30
0.0
 11
15094.80217064596
 21
801.8747482146444
 31
0.0
  0
ARC
  5
19670
330
1913F
100
AcDbEntity
  8
YODOROGO
100
AcDbCircle
 10
15115.02941435023
 20
934.4428574765014
 30
0.0
 40
160.6888181426453
100
AcDbArc
 50
260.6062929796992
 51
267.7790355655586
  0
LINE
  5
19671
330
1913F
100
AcDbEntity
  8
YODOROGO
100
AcDbLine
 10
15108.80217064596
 20
713.8747482146428
 30
0.0
 11
15108.80217064596
 21
773.874748214644
 31
0.0
  0
LINE
  5
19672
330
1913F
100
AcDbEntity
  8
YODOROGO
100
AcDbLine
 10
14968.80217064596
 20
740.6696674577553
 30
0.0
 11
14968.80217064596
 21
797.2655452655705
 31
0.0
  0
LINE
  5
19673
330
1913F
100
AcDbEntity
  8
YODOROGO
100
AcDbLine
 10
15108.80217064596
 20
833.8747482146439
 30
0.0
 11
14974.80217064595
 21
833.8747482146439
 31
0.0
  0
LINE
  5
19674
330
1913F
100
AcDbEntity
  8
YODOROGO
100
AcDbLine
 10
15108.80217064596
 20
813.8747482146435
 30
0.0
 11
15108.80217064596
 21
833.8747482146439
 31
0.0
  0
LINE
  5
19675
330
1913F
100
AcDbEntity
  8
YODOROGO
100
AcDbLine
 10
15008.80217064596
 20
813.8747482146435
 30
0.0
 11
15108.80217064596
 21
813.8747482146435
 31
0.0
  0
ARC
  5
19676
330
1913F
100
AcDbEntity
  8
YODOROGO
100
AcDbCircle
 10
15115.02941435068
 20
934.4428574764513
 30
0.0
 40
160.6888181426141
100
AcDbArc
 50
228.6181454618993
 51
245.660289248906
  0
LINE
  5
19677
330
1913F
100
AcDbEntity
  8
YODOROGO
100
AcDbLine
 10
15052.80217064596
 20
801.8747482146444
 30
0.0
 11
15048.80217064598
 21
788.0364079349501
 31
0.0
  0
LINE
  5
19678
330
1913F
100
AcDbEntity
  8
YODOROGO
100
AcDbLine
 10
15094.80217064596
 20
801.8747482146444
 30
0.0
 11
15052.80217064596
 21
801.8747482146444
 31
0.0
  0
LINE
  5
19679
330
1913F
100
AcDbEntity
  8
YODOROGO
100
AcDbLine
 10
15088.80217064596
 20
775.9088612367134
 30
0.0
 11
15094.80217064596
 21
801.8747482146444
 31
0.0
  0
ARC
  5
1967A
330
1913F
100
AcDbEntity
  8
YODOROGO
100
AcDbCircle
 10
15115.02941435023
 20
934.4428574765014
 30
0.0
 40
160.6888181426453
100
AcDbArc
 50
260.6062929796992
 51
267.7790355655586
  0
LINE
  5
1967B
330
1913F
100
AcDbEntity
  8
YODOROGO
100
AcDbLine
 10
15108.80217064596
 20
713.8747482146428
 30
0.0
 11
15108.80217064596
 21
773.874748214644
 31
0.0
  0
LINE
  5
1967C
330
1913F
100
AcDbEntity
  8
YODOROGO
100
AcDbLine
 10
14968.80217064596
 20
740.6696674577553
 30
0.0
 11
14968.80217064596
 21
797.2655452655705
 31
0.0
  0
LINE
  5
1967D
330
1913F
100
AcDbEntity
  8
YODOROGO
100
AcDbLine
 10
15216.80217064596
 20
786.8747482146444
 30
0.0
 11
15190.80217064596
 21
786.8747482146444
 31
0.0
  0
LINE
  5
1967E
330
1913F
100
AcDbEntity
  8
YODOROGO
100
AcDbLine
 10
15216.80217064596
 20
800.8747482146432
 30
0.0
 11
15216.80217064596
 21
786.8747482146444
 31
0.0
  0
LINE
  5
1967F
330
1913F
100
AcDbEntity
  8
YODOROGO
100
AcDbLine
 10
15190.80217064596
 20
800.8747482146432
 30
0.0
 11
15216.80217064596
 21
800.8747482146432
 31
0.0
  0
LINE
  5
19680
330
1913F
100
AcDbEntity
  8
YODOROGO
100
AcDbLine
 10
15190.80217064596
 20
786.8747482146444
 30
0.0
 11
15190.80217064596
 21
800.8747482146432
 31
0.0
  0
LINE
  5
19681
330
1913F
100
AcDbEntity
  8
YODOROGO
100
AcDbLine
 10
15214.80217064596
 20
788.8747482146436
 30
0.0
 11
15192.80217064595
 21
788.8747482146436
 31
0.0
  0
LINE
  5
19682
330
1913F
100
AcDbEntity
  8
YODOROGO
100
AcDbLine
 10
15214.80217064596
 20
798.874748214644
 30
0.0
 11
15214.80217064596
 21
788.8747482146436
 31
0.0
  0
LINE
  5
19683
330
1913F
100
AcDbEntity
  8
YODOROGO
100
AcDbLine
 10
15192.80217064595
 20
798.874748214644
 30
0.0
 11
15214.80217064596
 21
798.874748214644
 31
0.0
  0
LINE
  5
19684
330
1913F
100
AcDbEntity
  8
YODOROGO
100
AcDbLine
 10
15192.80217064595
 20
788.8747482146436
 30
0.0
 11
15192.80217064595
 21
798.874748214644
 31
0.0
  0
LINE
  5
19685
330
1913F
100
AcDbEntity
  8
YODOROGO
100
AcDbLine
 10
15212.80217064596
 20
790.8747482146432
 30
0.0
 11
15194.80217064596
 21
790.8747482146432
 31
0.0
  0
LINE
  5
19686
330
1913F
100
AcDbEntity
  8
YODOROGO
100
AcDbLine
 10
15212.80217064596
 20
796.8747482146445
 30
0.0
 11
15212.80217064596
 21
790.8747482146432
 31
0.0
  0
LINE
  5
19687
330
1913F
100
AcDbEntity
  8
YODOROGO
100
AcDbLine
 10
15194.80217064596
 20
796.8747482146445
 30
0.0
 11
15212.80217064596
 21
796.8747482146445
 31
0.0
  0
LINE
  5
19688
330
1913F
100
AcDbEntity
  8
YODOROGO
100
AcDbLine
 10
15194.80217064596
 20
790.8747482146432
 30
0.0
 11
15194.80217064596
 21
796.8747482146445
 31
0.0
  0
LINE
  5
19689
330
1913F
100
AcDbEntity
  8
YODOROGO
100
AcDbLine
 10
15210.80217064596
 20
792.8747482146435
 30
0.0
 11
15196.80217064596
 21
792.8747482146435
 31
0.0
  0
LINE
  5
1968A
330
1913F
100
AcDbEntity
  8
YODOROGO
100
AcDbLine
 10
15210.80217064596
 20
794.8747482146441
 30
0.0
 11
15210.80217064596
 21
792.8747482146435
 31
0.0
  0
LINE
  5
1968B
330
1913F
100
AcDbEntity
  8
YODOROGO
100
AcDbLine
 10
15196.80217064596
 20
794.8747482146441
 30
0.0
 11
15210.80217064596
 21
794.8747482146441
 31
0.0
  0
LINE
  5
1968C
330
1913F
100
AcDbEntity
  8
YODOROGO
100
AcDbLine
 10
15196.80217064596
 20
792.8747482146435
 30
0.0
 11
15196.80217064596
 21
794.8747482146441
 31
0.0
  0
LINE
  5
1968D
330
1913F
100
AcDbEntity
  8
YODOROGO
100
AcDbLine
 10
15232.80217064596
 20
813.8747482146435
 30
0.0
 11
15190.80217064596
 21
813.8747482146435
 31
0.0
  0
LINE
  5
1968E
330
1913F
100
AcDbEntity
  8
YODOROGO
100
AcDbLine
 10
15232.80217064596
 20
773.874748214644
 30
0.0
 11
15232.80217064596
 21
813.8747482146435
 31
0.0
  0
LINE
  5
1968F
330
1913F
100
AcDbEntity
  8
YODOROGO
100
AcDbLine
 10
15190.80217064596
 20
773.874748214644
 30
0.0
 11
15232.80217064596
 21
773.874748214644
 31
0.0
  0
LINE
  5
19690
330
1913F
100
AcDbEntity
  8
YODOROGO
100
AcDbLine
 10
15190.80217064596
 20
713.8747482146436
 30
0.0
 11
15190.80217064596
 21
773.874748214644
 31
0.0
  0
LINE
  5
19691
330
1913F
100
AcDbEntity
  8
YODOROGO
100
AcDbLine
 10
15268.80217064596
 20
713.8747482146436
 30
0.0
 11
15190.80217064596
 21
713.8747482146436
 31
0.0
  0
LINE
  5
19692
330
1913F
100
AcDbEntity
  8
YODOROGO
100
AcDbLine
 10
15284.80217064596
 20
785.8747482146432
 30
0.0
 11
15284.80217064596
 21
799.8747482146441
 31
0.0
  0
ARC
  5
19693
330
1913F
100
AcDbEntity
  8
YODOROGO
100
AcDbCircle
 10
15272.80217064594
 20
785.8747482146457
 30
0.0
 40
12.00000000000187
100
AcDbArc
 50
270.0
 51
359.9999999999877
  0
LINE
  5
19694
330
1913F
100
AcDbEntity
  8
YODOROGO
100
AcDbLine
 10
15264.80217064596
 20
773.874748214644
 30
0.0
 11
15272.80217064594
 21
773.874748214644
 31
0.0
  0
LINE
  5
19695
330
1913F
100
AcDbEntity
  8
YODOROGO
100
AcDbLine
 10
15264.80217064596
 20
813.8747482146435
 30
0.0
 11
15264.80217064596
 21
773.874748214644
 31
0.0
  0
LINE
  5
19696
330
1913F
100
AcDbEntity
  8
YODOROGO
100
AcDbLine
 10
15449.80217064596
 20
773.874748214644
 30
0.0
 11
15462.80217064596
 21
773.874748214644
 31
0.0
  0
LINE
  5
19697
330
1913F
100
AcDbEntity
  8
YODOROGO
100
AcDbLine
 10
15466.80217064596
 20
713.8747482146436
 30
0.0
 11
15449.80217064596
 21
713.8747482146436
 31
0.0
  0
LINE
  5
19698
330
1913F
100
AcDbEntity
  8
YODOROGO
100
AcDbLine
 10
15381.80217064596
 20
781.8747482146434
 30
0.0
 11
15395.80217064596
 21
781.8747482146434
 31
0.0
  0
LINE
  5
19699
330
1913F
100
AcDbEntity
  8
YODOROGO
100
AcDbLine
 10
15449.80217064596
 20
745.8747482146443
 30
0.0
 11
15361.80217064596
 21
745.8747482146443
 31
0.0
  0
LINE
  5
1969A
330
1913F
100
AcDbEntity
  8
YODOROGO
100
AcDbLine
 10
15415.80217064596
 20
781.8747482146434
 30
0.0
 11
15429.80217064596
 21
781.8747482146434
 31
0.0
  0
LINE
  5
1969B
330
1913F
100
AcDbEntity
  8
YODOROGO
100
AcDbLine
 10
15449.80217064596
 20
713.8747482146436
 30
0.0
 11
15449.80217064596
 21
773.874748214644
 31
0.0
  0
LINE
  5
1969C
330
1913F
100
AcDbEntity
  8
YODOROGO
100
AcDbLine
 10
15348.80217064596
 20
713.8747482146436
 30
0.0
 11
15322.80217064596
 21
713.8747482146436
 31
0.0
  0
LINE
  5
1969D
330
1913F
100
AcDbEntity
  8
YODOROGO
100
AcDbLine
 10
15308.80217064596
 20
799.8747482146441
 30
0.0
 11
15308.80217064596
 21
753.8747482146439
 31
0.0
  0
ARC
  5
1969E
330
1913F
100
AcDbEntity
  8
YODOROGO
100
AcDbCircle
 10
15466.80217064596
 20
733.8747482146435
 30
0.0
 40
20.0
100
AcDbArc
 50
270.0
 51
0.0
  0
LINE
  5
1969F
330
1913F
100
AcDbEntity
  8
YODOROGO
100
AcDbLine
 10
15546.80217064596
 20
761.8747482146434
 30
0.0
 11
15546.80217064596
 21
713.8747482146436
 31
0.0
  0
ARC
  5
196A0
330
1913F
100
AcDbEntity
  8
YODOROGO
100
AcDbCircle
 10
15519.86069778339
 20
818.7656950548664
 30
0.0
 40
62.94777829583771
100
AcDbArc
 50
295.3405244216011
 51
359.1890230341867
  0
LINE
  5
196A1
330
1913F
100
AcDbEntity
  8
YODOROGO
100
AcDbLine
 10
15308.80217064596
 20
929.874748214644
 30
0.0
 11
15248.80217064596
 21
969.8747482146441
 31
0.0
  0
LINE
  5
196A2
330
1913F
100
AcDbEntity
  8
YODOROGO
100
AcDbLine
 10
15248.80217064596
 20
1013.874748214644
 30
0.0
 11
15308.80217064596
 21
973.8747482146434
 31
0.0
  0
LINE
  5
196A3
330
1913F
100
AcDbEntity
  8
YODOROGO
100
AcDbLine
 10
15264.80217064596
 20
839.8747482146442
 30
0.0
 11
15308.80217064596
 21
839.8747482146442
 31
0.0
  0
LINE
  5
196A4
330
1913F
100
AcDbEntity
  8
YODOROGO
100
AcDbLine
 10
15308.80217064596
 20
867.8747482146436
 30
0.0
 11
15264.80217064596
 21
867.8747482146436
 31
0.0
  0
LINE
  5
196A5
330
1913F
100
AcDbEntity
  8
YODOROGO
100
AcDbLine
 10
15190.80217064596
 20
897.8747482146435
 30
0.0
 11
15308.80217064596
 21
897.8747482146435
 31
0.0
  0
LINE
  5
196A6
330
1913F
100
AcDbEntity
  8
YODOROGO
100
AcDbLine
 10
15040.80217064596
 20
1013.874748214644
 30
0.0
 11
15010.80217064596
 21
1013.874748214644
 31
0.0
  0
LINE
  5
196A7
330
1913F
100
AcDbEntity
  8
YODOROGO
100
AcDbLine
 10
15040.80217064596
 20
913.8747482146435
 30
0.0
 11
15040.80217064596
 21
1013.874748214644
 31
0.0
  0
LINE
  5
196A8
330
1913F
100
AcDbEntity
  8
YODOROGO
100
AcDbLine
 10
15010.80217064596
 20
913.8747482146435
 30
0.0
 11
15040.80217064596
 21
913.8747482146435
 31
0.0
  0
LINE
  5
196A9
330
1913F
100
AcDbEntity
  8
YODOROGO
100
AcDbLine
 10
15010.80217064596
 20
1013.874748214644
 30
0.0
 11
15010.80217064596
 21
913.8747482146435
 31
0.0
  0
LINE
  5
196AA
330
1913F
100
AcDbEntity
  8
YODOROGO
100
AcDbLine
 10
15080.80217064596
 20
1013.874748214644
 30
0.0
 11
15108.80217064596
 21
1013.874748214644
 31
0.0
  0
LINE
  5
196AB
330
1913F
100
AcDbEntity
  8
YODOROGO
100
AcDbLine
 10
15080.80217064596
 20
905.8747482146443
 30
0.0
 11
15080.80217064596
 21
1013.874748214644
 31
0.0
  0
ARC
  5
196AC
330
1913F
100
AcDbEntity
  8
YODOROGO
100
AcDbCircle
 10
15060.80217064596
 20
905.8747482146443
 30
0.0
 40
20.0
100
AcDbArc
 50
270.0
 51
0.0
  0
LINE
  5
196AD
330
1913F
100
AcDbEntity
  8
YODOROGO
100
AcDbLine
 10
15010.80217064596
 20
885.8747482146441
 30
0.0
 11
15060.80217064596
 21
885.8747482146441
 31
0.0
  0
LINE
  5
196AE
330
1913F
100
AcDbEntity
  8
YODOROGO
100
AcDbLine
 10
15010.80217064596
 20
853.874748214644
 30
0.0
 11
15010.80217064596
 21
885.8747482146441
 31
0.0
  0
LINE
  5
196AF
330
1913F
100
AcDbEntity
  8
YODOROGO
100
AcDbLine
 10
15068.80217064596
 20
853.874748214644
 30
0.0
 11
15010.80217064596
 21
853.874748214644
 31
0.0
  0
ARC
  5
196B0
330
1913F
100
AcDbEntity
  8
YODOROGO
100
AcDbCircle
 10
15068.80217064596
 20
893.8747482146439
 30
0.0
 40
40.0
100
AcDbArc
 50
270.0
 51
0.0
  0
LINE
  5
196B1
330
1913F
100
AcDbEntity
  8
YODOROGO
100
AcDbLine
 10
15108.80217064596
 20
1013.874748214644
 30
0.0
 11
15108.80217064596
 21
893.8747482146439
 31
0.0
  0
LINE
  5
196B2
330
1913F
100
AcDbEntity
  8
YODOROGO
100
AcDbLine
 10
14988.80217064596
 20
973.8747482146434
 30
0.0
 11
14988.80217064596
 21
997.8747482146435
 31
0.0
1001
AUTOCAD_POSTSCRIPT_FIGURE
1002
{
1000
PSFILL
1000
Grayscale
1000
Grayscale
1070
    25
1002
}
  0
LINE
  5
196B3
330
1913F
100
AcDbEntity
  8
YODOROGO
100
AcDbLine
 10
14988.80217064596
 20
929.874748214644
 30
0.0
 11
14988.80217064596
 21
953.874748214644
 31
0.0
1001
AUTOCAD_POSTSCRIPT_FIGURE
1002
{
1000
PSFILL
1000
Grayscale
1000
Grayscale
1070
    25
1002
}
  0
LINE
  5
196B4
330
1913F
100
AcDbEntity
  8
YODOROGO
100
AcDbLine
 10
14988.80217064596
 20
853.874748214644
 30
0.0
 11
14988.80217064596
 21
909.8747482146439
 31
0.0
1001
AUTOCAD_POSTSCRIPT_FIGURE
1002
{
1000
PSFILL
1000
Grayscale
1000
Grayscale
1070
    25
1002
}
  0
LINE
  5
196B5
330
1913F
100
AcDbEntity
  8
YODOROGO
100
AcDbLine
 10
15190.80217064596
 20
953.874748214644
 30
0.0
 11
15248.80217064596
 21
1013.874748214644
 31
0.0
  0
LINE
  5
196B6
330
1913F
100
AcDbEntity
  8
YODOROGO
100
AcDbLine
 10
15190.80217064596
 20
909.8747482146439
 30
0.0
 11
15190.80217064596
 21
953.874748214644
 31
0.0
  0
LINE
  5
196B7
330
1913F
100
AcDbEntity
  8
YODOROGO
100
AcDbLine
 10
15248.80217064596
 20
969.8747482146441
 30
0.0
 11
15190.80217064596
 21
909.8747482146439
 31
0.0
  0
LINE
  5
196B8
330
1913F
100
AcDbEntity
  8
YODOROGO
100
AcDbLine
 10
15232.80217064596
 20
839.8747482146442
 30
0.0
 11
15232.80217064596
 21
867.8747482146436
 31
0.0
  0
LINE
  5
196B9
330
1913F
100
AcDbEntity
  8
YODOROGO
100
AcDbLine
 10
15190.80217064596
 20
839.8747482146442
 30
0.0
 11
15232.80217064596
 21
839.8747482146442
 31
0.0
  0
LINE
  5
196BA
330
1913F
100
AcDbEntity
  8
YODOROGO
100
AcDbLine
 10
15264.80217064596
 20
867.8747482146436
 30
0.0
 11
15264.80217064596
 21
839.8747482146442
 31
0.0
  0
LINE
  5
196BB
330
1913F
100
AcDbEntity
  8
YODOROGO
100
AcDbLine
 10
15190.80217064596
 20
867.8747482146436
 30
0.0
 11
15190.80217064596
 21
897.8747482146435
 31
0.0
  0
LINE
  5
196BC
330
1913F
100
AcDbEntity
  8
YODOROGO
100
AcDbLine
 10
15232.80217064596
 20
867.8747482146436
 30
0.0
 11
15190.80217064596
 21
867.8747482146436
 31
0.0
  0
LINE
  5
196BD
330
1913F
100
AcDbEntity
  8
YODOROGO
100
AcDbLine
 10
15322.80217064596
 20
1013.874748214644
 30
0.0
 11
15486.80217064596
 21
1013.874748214644
 31
0.0
  0
LINE
  5
196BE
330
1913F
100
AcDbEntity
  8
YODOROGO
100
AcDbLine
 10
15462.80217064596
 20
981.8747482146434
 30
0.0
 11
15348.80217064596
 21
981.8747482146434
 31
0.0
  0
LINE
  5
196BF
330
1913F
100
AcDbEntity
  8
YODOROGO
100
AcDbLine
 10
15436.80217064595
 20
909.8747482146439
 30
0.0
 11
15449.80217064596
 21
909.8747482146439
 31
0.0
  0
LINE
  5
196C0
330
1913F
100
AcDbEntity
  8
YODOROGO
100
AcDbLine
 10
15449.80217064596
 20
969.8747482146441
 30
0.0
 11
15436.80217064595
 21
909.8747482146439
 31
0.0
  0
LINE
  5
196C1
330
1913F
100
AcDbEntity
  8
YODOROGO
100
AcDbLine
 10
15425.80217064596
 20
969.8747482146441
 30
0.0
 11
15449.80217064596
 21
969.8747482146441
 31
0.0
  0
LINE
  5
196C2
330
1913F
100
AcDbEntity
  8
YODOROGO
100
AcDbLine
 10
15412.80217064596
 20
909.8747482146439
 30
0.0
 11
15425.80217064596
 21
969.8747482146441
 31
0.0
  0
LINE
  5
196C3
330
1913F
100
AcDbEntity
  8
YODOROGO
100
AcDbLine
 10
15398.80217064596
 20
909.8747482146439
 30
0.0
 11
15412.80217064596
 21
909.8747482146439
 31
0.0
  0
LINE
  5
196C4
330
1913F
100
AcDbEntity
  8
YODOROGO
100
AcDbLine
 10
15385.80217064596
 20
969.8747482146441
 30
0.0
 11
15398.80217064596
 21
909.8747482146439
 31
0.0
  0
LINE
  5
196C5
330
1913F
100
AcDbEntity
  8
YODOROGO
100
AcDbLine
 10
15361.80217064596
 20
969.8747482146441
 30
0.0
 11
15385.80217064596
 21
969.8747482146441
 31
0.0
  0
LINE
  5
196C6
330
1913F
100
AcDbEntity
  8
YODOROGO
100
AcDbLine
 10
15374.80217064596
 20
909.8747482146439
 30
0.0
 11
15361.80217064596
 21
969.8747482146441
 31
0.0
  0
LINE
  5
196C7
330
1913F
100
AcDbEntity
  8
YODOROGO
100
AcDbLine
 10
15361.80217064596
 20
909.8747482146439
 30
0.0
 11
15374.80217064596
 21
909.8747482146439
 31
0.0
  0
LINE
  5
196C8
330
1913F
100
AcDbEntity
  8
YODOROGO
100
AcDbLine
 10
15361.80217064596
 20
877.8747482146435
 30
0.0
 11
15361.80217064596
 21
909.8747482146439
 31
0.0
  0
LINE
  5
196C9
330
1913F
100
AcDbEntity
  8
YODOROGO
100
AcDbLine
 10
15449.80217064596
 20
877.8747482146435
 30
0.0
 11
15361.80217064596
 21
877.8747482146435
 31
0.0
  0
LINE
  5
196CA
330
1913F
100
AcDbEntity
  8
YODOROGO
100
AcDbLine
 10
15449.80217064596
 20
909.8747482146439
 30
0.0
 11
15449.80217064596
 21
877.8747482146435
 31
0.0
  0
LINE
  5
196CB
330
1913F
100
AcDbEntity
  8
YODOROGO
100
AcDbLine
 10
15308.80217064596
 20
973.8747482146434
 30
0.0
 11
15308.80217064596
 21
929.874748214644
 31
0.0
  0
LINE
  5
196CC
330
1913F
100
AcDbEntity
  8
YODOROGO
100
AcDbLine
 10
15395.80217064596
 20
877.8747482146435
 30
0.0
 11
15415.80217064596
 21
877.8747482146435
 31
0.0
  0
LINE
  5
196CD
330
1913F
100
AcDbEntity
  8
YODOROGO
100
AcDbLine
 10
15361.80217064596
 20
845.8747482146444
 30
0.0
 11
15381.80217064596
 21
845.8747482146444
 31
0.0
  0
LINE
  5
196CE
330
1913F
100
AcDbEntity
  8
YODOROGO
100
AcDbLine
 10
15429.80217064596
 20
845.8747482146444
 30
0.0
 11
15449.80217064596
 21
845.8747482146444
 31
0.0
  0
LINE
  5
196CF
330
1913F
100
AcDbEntity
  8
YODOROGO
100
AcDbLine
 10
15308.80217064596
 20
897.8747482146435
 30
0.0
 11
15308.80217064596
 21
867.8747482146436
 31
0.0
  0
LINE
  5
196D0
330
1913F
100
AcDbEntity
  8
YODOROGO
100
AcDbLine
 10
15582.80217064596
 20
1013.874748214644
 30
0.0
 11
15582.80217064596
 21
981.8747482146434
 31
0.0
  0
LINE
  5
196D1
330
1913F
100
AcDbEntity
  8
YODOROGO
100
AcDbLine
 10
15766.80217064596
 20
797.8747482146435
 30
0.0
 11
15766.80217064594
 21
905.8747482146443
 31
0.0
  0
LINE
  5
196D2
330
1913F
100
AcDbEntity
  8
YODOROGO
100
AcDbLine
 10
15730.80217064594
 20
993.8747482146439
 30
0.0
 11
15730.80217064594
 21
817.8747482146436
 31
0.0
  0
LINE
  5
196D3
330
1913F
100
AcDbEntity
  8
YODOROGO
100
AcDbLine
 10
15826.80217064596
 20
713.8747482146436
 30
0.0
 11
15826.80217064594
 21
905.8747482146443
 31
0.0
  0
LINE
  5
196D4
330
1913F
100
AcDbEntity
  8
YODOROGO
100
AcDbLine
 10
15794.80217064596
 20
905.8747482146443
 30
0.0
 11
15794.80217064596
 21
713.8747482146436
 31
0.0
  0
LINE
  5
196D5
330
1913F
100
AcDbEntity
  8
YODOROGO
100
AcDbLine
 10
15618.80217064596
 20
797.8747482146435
 30
0.0
 11
15618.80217064596
 21
853.874748214644
 31
0.0
  0
ARC
  5
196D6
330
1913F
100
AcDbEntity
  8
YODOROGO
100
AcDbCircle
 10
15676.95743255803
 20
803.8951756442788
 30
0.0
 40
90.04622428799429
100
AcDbArc
 50
268.6284910216979
 51
356.1663845733032
  0
LINE
  5
196D7
330
1913F
100
AcDbEntity
  8
YODOROGO
100
AcDbLine
 10
15674.80217064596
 20
763.8747482146435
 30
0.0
 11
15674.80217064596
 21
713.8747482146436
 31
0.0
  0
ARC
  5
196D8
330
1913F
100
AcDbEntity
  8
YODOROGO
100
AcDbCircle
 10
15675.75903786228
 20
818.9194785088275
 30
0.0
 40
55.05304649180608
100
AcDbArc
 50
269.0041020930593
 51
358.9126445549248
  0
LINE
  5
196D9
330
1913F
100
AcDbEntity
  8
YODOROGO
100
AcDbLine
 10
15794.80217064596
 20
713.8747482146436
 30
0.0
 11
15826.80217064596
 21
713.8747482146436
 31
0.0
  0
LINE
  5
196DA
330
1913F
100
AcDbEntity
  8
YODOROGO
100
AcDbLine
 10
15766.80217064594
 20
905.8747482146443
 30
0.0
 11
15794.80217064596
 21
905.8747482146443
 31
0.0
  0
LINE
  5
196DB
330
1913F
100
AcDbEntity
  8
YODOROGO
100
AcDbLine
 10
15810.80217064596
 20
993.8747482146439
 30
0.0
 11
15730.80217064594
 21
993.8747482146439
 31
0.0
  0
LINE
  5
196DC
330
1913F
100
AcDbEntity
  8
YODOROGO
100
AcDbLine
 10
15766.80217064594
 20
957.8747482146436
 30
0.0
 11
15830.80217064596
 21
957.8747482146436
 31
0.0
  0
LINE
  5
196DD
330
1913F
100
AcDbEntity
  8
YODOROGO
100
AcDbLine
 10
15850.80217064596
 20
937.8747482146435
 30
0.0
 11
15766.80217064594
 21
937.8747482146435
 31
0.0
  0
LINE
  5
196DE
330
1913F
100
AcDbEntity
  8
YODOROGO
100
AcDbLine
 10
15618.80217064596
 20
889.8747482146442
 30
0.0
 11
15674.80217064596
 21
889.8747482146442
 31
0.0
  0
LINE
  5
196DF
330
1913F
100
AcDbEntity
  8
YODOROGO
100
AcDbLine
 10
15618.80217064596
 20
917.8747482146436
 30
0.0
 11
15618.80217064596
 21
889.8747482146442
 31
0.0
  0
LINE
  5
196E0
330
1913F
100
AcDbEntity
  8
YODOROGO
100
AcDbLine
 10
15674.80217064596
 20
917.8747482146436
 30
0.0
 11
15618.80217064596
 21
917.8747482146436
 31
0.0
  0
LINE
  5
196E1
330
1913F
100
AcDbEntity
  8
YODOROGO
100
AcDbLine
 10
15674.80217064596
 20
889.8747482146442
 30
0.0
 11
15674.80217064596
 21
917.8747482146436
 31
0.0
  0
LINE
  5
196E2
330
1913F
100
AcDbEntity
  8
YODOROGO
100
AcDbLine
 10
15766.80217064594
 20
937.8747482146435
 30
0.0
 11
15766.80217064594
 21
957.8747482146436
 31
0.0
  0
LINE
  5
196E3
330
1913F
100
AcDbEntity
  8
YODOROGO
100
AcDbLine
 10
15706.80217064596
 20
853.874748214644
 30
0.0
 11
15706.80217064596
 21
953.874748214644
 31
0.0
  0
LINE
  5
196E4
330
1913F
100
AcDbEntity
  8
YODOROGO
100
AcDbLine
 10
15618.80217064596
 20
853.874748214644
 30
0.0
 11
15706.80217064596
 21
853.874748214644
 31
0.0
  0
LINE
  5
196E5
330
1913F
100
AcDbEntity
  8
YODOROGO
100
AcDbLine
 10
15706.80217064596
 20
981.8747482146434
 30
0.0
 11
15706.80217064596
 21
1013.874748214644
 31
0.0
  0
ARC
  5
196E6
330
1913F
100
AcDbEntity
  8
YODOROGO
100
AcDbCircle
 10
15810.80217064596
 20
1001.874748214642
 30
0.0
 40
7.99999999999727
100
AcDbArc
 50
270.0
 51
0.0000000000081422
  0
LINE
  5
196E7
330
1913F
100
AcDbEntity
  8
YODOROGO
100
AcDbLine
 10
15818.80217064596
 20
1013.874748214644
 30
0.0
 11
15818.80217064596
 21
1001.874748214643
 31
0.0
  0
LINE
  5
196E8
330
1913F
100
AcDbEntity
  8
YODOROGO
100
AcDbLine
 10
15850.80217064596
 20
1013.874748214644
 30
0.0
 11
15818.80217064596
 21
1013.874748214644
 31
0.0
  0
LINE
  5
196E9
330
1913F
100
AcDbEntity
  8
YODOROGO
100
AcDbLine
 10
15850.80217064596
 20
977.8747482146435
 30
0.0
 11
15850.80217064596
 21
1013.874748214644
 31
0.0
  0
ARC
  5
196EA
330
1913F
100
AcDbEntity
  8
YODOROGO
100
AcDbCircle
 10
15830.80217064596
 20
977.8747482146435
 30
0.0
 40
20.0
100
AcDbArc
 50
270.0
 51
0.0
  0
LINE
  5
196EB
330
1913F
100
AcDbEntity
  8
YODOROGO
100
AcDbLine
 10
15850.80217064596
 20
905.8747482146443
 30
0.0
 11
15850.80217064596
 21
937.8747482146435
 31
0.0
  0
LINE
  5
196EC
330
1913F
100
AcDbEntity
  8
YODOROGO
100
AcDbLine
 10
15826.80217064594
 20
905.8747482146443
 30
0.0
 11
15850.80217064596
 21
905.8747482146443
 31
0.0
  0
LINE
  5
196ED
330
1913F
100
AcDbEntity
  8
SUNPOU
100
AcDbLine
 10
6300.003547453703
 20
4939.546798568535
 30
0.0
 11
6300.003547453703
 21
5337.546798568535
 31
0.0
  0
LINE
  5
196EE
330
1913F
100
AcDbEntity
  8
SUNPOU
100
AcDbLine
 10
6538.003547453704
 20
4859.019543520814
 30
0.0
 11
6538.003547453704
 21
5337.546798568535
 31
0.0
  0
LINE
  5
196EF
330
1913F
100
AcDbEntity
  8
SUNPOU
100
AcDbLine
 10
6315.003547453702
 20
5292.546798568533
 30
0.0
 11
6523.003547453703
 21
5292.546798568533
 31
0.0
  0
LINE
  5
196F0
330
1913F
100
AcDbEntity
  8
SUNPOU
100
AcDbLine
 10
6538.003547453704
 20
5292.546798568533
 30
0.0
 11
6797.289261739418
 21
5292.546798568533
 31
0.0
  0
LINE
  5
196F1
330
1913F
100
AcDbEntity
  8
SUNPOU
100
AcDbLine
 10
4300.003547453697
 20
4939.546798568535
 30
0.0
 11
4300.003547453697
 21
5337.546798568535
 31
0.0
  0
LINE
  5
196F2
330
1913F
100
AcDbEntity
  8
SUNPOU
100
AcDbLine
 10
6300.003547453703
 20
4939.546798568535
 30
0.0
 11
6300.003547453703
 21
5337.546798568535
 31
0.0
  0
LINE
  5
196F3
330
1913F
100
AcDbEntity
  8
SUNPOU
100
AcDbLine
 10
4315.003547453698
 20
5292.546798568533
 30
0.0
 11
6285.003547453704
 21
5292.546798568533
 31
0.0
  0
LINE
  5
196F4
330
1913F
100
AcDbEntity
  8
SUNPOU
100
AcDbLine
 10
4300.003547453697
 20
4939.546798568535
 30
0.0
 11
4300.003547453697
 21
5337.546798568535
 31
0.0
  0
LINE
  5
196F5
330
1913F
100
AcDbEntity
  8
SUNPOU
100
AcDbLine
 10
4062.003547453696
 20
4858.804015093276
 30
0.0
 11
4062.003547453696
 21
5337.546798568535
 31
0.0
  0
LINE
  5
196F6
330
1913F
100
AcDbEntity
  8
SUNPOU
100
AcDbLine
 10
4285.003547453698
 20
5292.546798568536
 30
0.0
 11
4077.003547453696
 21
5292.546798568536
 31
0.0
  0
LINE
  5
196F7
330
1913F
100
AcDbEntity
  8
SUNPOU
100
AcDbLine
 10
4062.003547453696
 20
5292.546798568536
 30
0.0
 11
3802.717833167982
 21
5292.546798568536
 31
0.0
  0
LINE
  5
196F8
330
1913F
100
AcDbEntity
  8
SUNPOU
100
AcDbLine
 10
6538.003547453704
 20
8108.753322994077
 30
0.0
 11
6538.003547453704
 21
7156.35332299408
 31
0.0
  0
LINE
  5
196F9
330
1913F
100
AcDbEntity
  8
SUNPOU
100
AcDbLine
 10
4062.003547453698
 20
8108.753322994079
 30
0.0
 11
4062.003547453698
 21
7156.35332299408
 31
0.0
  0
LINE
  5
196FA
330
1913F
100
AcDbEntity
  8
SUNPOU
100
AcDbLine
 10
6523.003547453703
 20
7201.353322994079
 30
0.0
 11
4077.003547453698
 21
7201.353322994079
 31
0.0
  0
LINE
  5
196FB
330
1913F
100
AcDbEntity
  8
SUNPOU
100
AcDbLine
 10
6300.003547453703
 20
7951.353322994076
 30
0.0
 11
6300.003547453703
 21
7366.353322994076
 31
0.0
  0
LINE
  5
196FC
330
1913F
100
AcDbEntity
  8
SUNPOU
100
AcDbLine
 10
6538.003547453704
 20
8108.753322994077
 30
0.0
 11
6538.003547453704
 21
7366.353322994076
 31
0.0
  0
LINE
  5
196FD
330
1913F
100
AcDbEntity
  8
SUNPOU
100
AcDbLine
 10
6315.003547453702
 20
7411.353322994077
 30
0.0
 11
6523.003547453703
 21
7411.353322994077
 31
0.0
  0
LINE
  5
196FE
330
1913F
100
AcDbEntity
  8
SUNPOU
100
AcDbLine
 10
6538.003547453704
 20
7411.353322994077
 30
0.0
 11
6797.289261739418
 21
7411.353322994077
 31
0.0
  0
LINE
  5
196FF
330
1913F
100
AcDbEntity
  8
SUNPOU
100
AcDbLine
 10
4300.003547453697
 20
7951.353322994079
 30
0.0
 11
4300.003547453697
 21
7366.353322994076
 31
0.0
  0
LINE
  5
19700
330
1913F
100
AcDbEntity
  8
SUNPOU
100
AcDbLine
 10
6300.003547453703
 20
7951.353322994076
 30
0.0
 11
6300.003547453703
 21
7366.353322994076
 31
0.0
  0
LINE
  5
19701
330
1913F
100
AcDbEntity
  8
SUNPOU
100
AcDbLine
 10
4315.003547453698
 20
7411.353322994077
 30
0.0
 11
6285.003547453704
 21
7411.353322994077
 31
0.0
  0
LINE
  5
19702
330
1913F
100
AcDbEntity
  8
SUNPOU
100
AcDbLine
 10
4300.003547453697
 20
7951.353322994079
 30
0.0
 11
4300.003547453697
 21
7366.353322994076
 31
0.0
  0
LINE
  5
19703
330
1913F
100
AcDbEntity
  8
SUNPOU
100
AcDbLine
 10
4062.003547453698
 20
8108.753322994079
 30
0.0
 11
4062.003547453698
 21
7366.353322994076
 31
0.0
  0
LINE
  5
19704
330
1913F
100
AcDbEntity
  8
SUNPOU
100
AcDbLine
 10
4285.003547453698
 20
7411.353322994077
 30
0.0
 11
4077.003547453698
 21
7411.353322994077
 31
0.0
  0
LINE
  5
19705
330
1913F
100
AcDbEntity
  8
SUNPOU
100
AcDbLine
 10
4062.003547453698
 20
7411.353322994077
 30
0.0
 11
3802.717833167984
 21
7411.353322994077
 31
0.0
  0
ARC
  5
19706
330
1913F
100
AcDbEntity
  8
SUNPOU
100
AcDbCircle
 10
7048.003547453703
 20
10133.75332299408
 30
0.0
 40
5.625
100
AcDbArc
 50
270.0
 51
90.0
  0
ARC
  5
19707
330
1913F
100
AcDbEntity
  8
SUNPOU
100
AcDbCircle
 10
7048.003547453703
 20
10133.75332299408
 30
0.0
 40
5.625
100
AcDbArc
 50
90.0
 51
270.0
  0
ARC
  5
19708
330
1913F
100
AcDbEntity
  8
SUNPOU
100
AcDbCircle
 10
6838.003547453704
 20
10133.75332299408
 30
0.0
 40
5.625
100
AcDbArc
 50
270.0
 51
90.0
  0
ARC
  5
19709
330
1913F
100
AcDbEntity
  8
SUNPOU
100
AcDbCircle
 10
6838.003547453704
 20
10133.75332299408
 30
0.0
 40
5.625
100
AcDbArc
 50
90.0
 51
270.0
  0
ARC
  5
1970A
330
1913F
100
AcDbEntity
  8
SUNPOU
100
AcDbCircle
 10
6838.003547453704
 20
9992.753322994078
 30
0.0
 40
5.625
100
AcDbArc
 50
270.0
 51
90.0
  0
ARC
  5
1970B
330
1913F
100
AcDbEntity
  8
SUNPOU
100
AcDbCircle
 10
6838.003547453704
 20
9992.753322994078
 30
0.0
 40
5.625
100
AcDbArc
 50
90.0
 51
270.0
  0
ARC
  5
1970C
330
1913F
100
AcDbEntity
  8
SUNPOU
100
AcDbCircle
 10
7048.003547453703
 20
8133.753322994078
 30
0.0
 40
5.625
100
AcDbArc
 50
90.0
 51
270.0
  0
ARC
  5
1970D
330
1913F
100
AcDbEntity
  8
SUNPOU
100
AcDbCircle
 10
7048.003547453703
 20
8133.753322994078
 30
0.0
 40
5.624999999999089
100
AcDbArc
 50
270.0
 51
90.0
  0
ARC
  5
1970E
330
1913F
100
AcDbEntity
  8
SUNPOU
100
AcDbCircle
 10
6838.003547453704
 20
8133.753322994078
 30
0.0
 40
5.625
100
AcDbArc
 50
90.0
 51
270.0
  0
ARC
  5
1970F
330
1913F
100
AcDbEntity
  8
SUNPOU
100
AcDbCircle
 10
6838.003547453704
 20
8133.753322994078
 30
0.0
 40
5.624999999999089
100
AcDbArc
 50
270.0
 51
90.0
  0
ARC
  5
19710
330
1913F
100
AcDbEntity
  8
SUNPOU
100
AcDbCircle
 10
6100.003547453702
 20
7621.353322994076
 30
0.0
 40
5.625
100
AcDbArc
 50
180.0
 51
0.0
  0
ARC
  5
19711
330
1913F
100
AcDbEntity
  8
SUNPOU
100
AcDbCircle
 10
6100.003547453702
 20
7621.353322994076
 30
0.0
 40
5.625
100
AcDbArc
 50
0.0
 51
180.0
  0
ARC
  5
19712
330
1913F
100
AcDbEntity
  8
SUNPOU
100
AcDbCircle
 10
5700.003547453707
 20
7621.353322994076
 30
0.0
 40
5.625
100
AcDbArc
 50
180.0
 51
0.0
  0
ARC
  5
19713
330
1913F
100
AcDbEntity
  8
SUNPOU
100
AcDbCircle
 10
5700.003547453707
 20
7621.353322994076
 30
0.0
 40
5.625
100
AcDbArc
 50
0.0
 51
180.0
  0
ARC
  5
19714
330
1913F
100
AcDbEntity
  8
SUNPOU
100
AcDbCircle
 10
5700.003547453707
 20
7621.353322994076
 30
0.0
 40
5.625
100
AcDbArc
 50
0.0
 51
180.0
  0
ARC
  5
19715
330
1913F
100
AcDbEntity
  8
SUNPOU
100
AcDbCircle
 10
5700.003547453707
 20
7621.353322994076
 30
0.0
 40
5.625
100
AcDbArc
 50
180.0
 51
0.0
  0
ARC
  5
19716
330
1913F
100
AcDbEntity
  8
SUNPOU
100
AcDbCircle
 10
5300.003547453709
 20
7621.353322994076
 30
0.0
 40
5.625
100
AcDbArc
 50
180.0
 51
0.0
  0
ARC
  5
19717
330
1913F
100
AcDbEntity
  8
SUNPOU
100
AcDbCircle
 10
5300.003547453709
 20
7621.353322994076
 30
0.0
 40
5.625
100
AcDbArc
 50
0.0
 51
180.0
  0
ARC
  5
19718
330
1913F
100
AcDbEntity
  8
SUNPOU
100
AcDbCircle
 10
5300.003547453709
 20
7621.353322994076
 30
0.0
 40
5.625
100
AcDbArc
 50
0.0
 51
180.0
  0
ARC
  5
19719
330
1913F
100
AcDbEntity
  8
SUNPOU
100
AcDbCircle
 10
5300.003547453709
 20
7621.353322994076
 30
0.0
 40
5.625
100
AcDbArc
 50
180.0
 51
0.0
  0
ARC
  5
1971A
330
1913F
100
AcDbEntity
  8
SUNPOU
100
AcDbCircle
 10
4900.00354745371
 20
7621.353322994076
 30
0.0
 40
5.624999999999089
100
AcDbArc
 50
0.0
 51
180.0
  0
ARC
  5
1971B
330
1913F
100
AcDbEntity
  8
SUNPOU
100
AcDbCircle
 10
4900.00354745371
 20
7621.353322994076
 30
0.0
 40
5.624999999999089
100
AcDbArc
 50
180.0
 51
0.0
  0
LINE
  5
1971C
330
1913F
100
AcDbEntity
  8
SUNPOU
100
AcDbLine
 10
9963.850902289308
 20
2584.546798568533
 30
0.0
 11
9505.351769154637
 21
2584.546798568533
 31
0.0
  0
LINE
  5
1971D
330
1913F
100
AcDbEntity
  8
SUNPOU
100
AcDbLine
 10
10110.3509022893
 20
4834.54679856853
 30
0.0
 11
9505.351769154637
 21
4834.54679856853
 31
0.0
  0
LINE
  5
1971E
330
1913F
100
AcDbEntity
  8
SUNPOU
100
AcDbLine
 10
9550.351769154636
 20
2599.546798568532
 30
0.0
 11
9550.351769154636
 21
4819.546798568532
 31
0.0
  0
LINE
  5
1971F
330
1913F
100
AcDbEntity
  8
SUNPOU
100
AcDbLine
 10
12175.99743343639
 20
4734.546798568532
 30
0.0
 11
12739.90176915463
 21
4734.546798568532
 31
0.0
  0
LINE
  5
19720
330
1913F
100
AcDbEntity
  8
SUNPOU
100
AcDbLine
 10
12170.3509022893
 20
4834.546798568535
 30
0.0
 11
12739.90176915463
 21
4834.546798568535
 31
0.0
  0
LINE
  5
19721
330
1913F
100
AcDbEntity
  8
SUNPOU
100
AcDbLine
 10
12694.90176915463
 20
4719.546798568534
 30
0.0
 11
12694.90176915463
 21
4704.546798568532
 31
0.0
  0
LINE
  5
19722
330
1913F
100
AcDbEntity
  8
SUNPOU
100
AcDbLine
 10
12694.90176915463
 20
4849.546798568535
 30
0.0
 11
12694.90176915463
 21
5100.261084282821
 31
0.0
  0
LINE
  5
19723
330
1913F
100
AcDbEntity
  8
SUNPOU
100
AcDbLine
 10
12694.90176915463
 20
4734.546798568532
 30
0.0
 11
12694.90176915463
 21
4834.546798568535
 31
0.0
  0
LINE
  5
19724
330
1913F
100
AcDbEntity
  8
SUNPOU
100
AcDbLine
 10
12175.99743343639
 20
4224.546798568576
 30
0.0
 11
12739.90176915463
 21
4224.546798568576
 31
0.0
  0
LINE
  5
19725
330
1913F
100
AcDbEntity
  8
SUNPOU
100
AcDbLine
 10
12175.99743343639
 20
4734.546798568532
 30
0.0
 11
12739.90176915463
 21
4734.546798568532
 31
0.0
  0
LINE
  5
19726
330
1913F
100
AcDbEntity
  8
SUNPOU
100
AcDbLine
 10
12694.90176915463
 20
4239.546798568576
 30
0.0
 11
12694.90176915463
 21
4719.546798568534
 31
0.0
  0
LINE
  5
19727
330
1913F
100
AcDbEntity
  8
SUNPOU
100
AcDbLine
 10
12175.99743343639
 20
4224.546798568576
 30
0.0
 11
12949.90176915463
 21
4224.546798568576
 31
0.0
  0
LINE
  5
19728
330
1913F
100
AcDbEntity
  8
SUNPOU
100
AcDbLine
 10
12170.3509022893
 20
4834.546798568535
 30
0.0
 11
12949.90176915463
 21
4834.546798568535
 31
0.0
  0
LINE
  5
19729
330
1913F
100
AcDbEntity
  8
SUNPOU
100
AcDbLine
 10
12904.90176915463
 20
4239.546798568576
 30
0.0
 11
12904.90176915463
 21
4819.546798568535
 31
0.0
  0
LINE
  5
1972A
330
1913F
100
AcDbEntity
  8
SUNPOU
100
AcDbLine
 10
12263.8509022893
 20
2584.546798568535
 30
0.0
 11
12949.90176915463
 21
2584.546798568535
 31
0.0
  0
LINE
  5
1972B
330
1913F
100
AcDbEntity
  8
SUNPOU
100
AcDbLine
 10
12175.99743343639
 20
4224.546798568576
 30
0.0
 11
12949.90176915463
 21
4224.546798568576
 31
0.0
  0
LINE
  5
1972C
330
1913F
100
AcDbEntity
  8
SUNPOU
100
AcDbLine
 10
12904.90176915463
 20
2599.546798568534
 30
0.0
 11
12904.90176915463
 21
4209.546798568577
 31
0.0
  0
ARC
  5
1972D
330
1913F
100
AcDbEntity
  8
SUNPOU
100
AcDbCircle
 10
12140.3509022893
 20
5316.590926579785
 30
0.0
 40
5.625
100
AcDbArc
 50
180.0
 51
0.0
  0
ARC
  5
1972E
330
1913F
100
AcDbEntity
  8
SUNPOU
100
AcDbCircle
 10
12140.3509022893
 20
5316.590926579785
 30
0.0
 40
5.625
100
AcDbArc
 50
0.0
 51
180.0
  0
ARC
  5
1972F
330
1913F
100
AcDbEntity
  8
SUNPOU
100
AcDbCircle
 10
12140.3509022893
 20
5106.590926579783
 30
0.0
 40
5.625
100
AcDbArc
 50
180.0
 51
0.0
  0
ARC
  5
19730
330
1913F
100
AcDbEntity
  8
SUNPOU
100
AcDbCircle
 10
12140.3509022893
 20
5106.590926579783
 30
0.0
 40
5.625
100
AcDbArc
 50
0.0
 51
180.0
  0
ARC
  5
19731
330
1913F
100
AcDbEntity
  8
SUNPOU
100
AcDbCircle
 10
12000.3509022893
 20
5106.590926579783
 30
0.0
 40
5.625
100
AcDbArc
 50
180.0
 51
0.0
  0
ARC
  5
19732
330
1913F
100
AcDbEntity
  8
SUNPOU
100
AcDbCircle
 10
12000.3509022893
 20
5106.590926579783
 30
0.0
 40
5.625
100
AcDbArc
 50
0.0
 51
180.0
  0
ARC
  5
19733
330
1913F
100
AcDbEntity
  8
SUNPOU
100
AcDbCircle
 10
12000.3509022893
 20
5106.590926579783
 30
0.0
 40
5.625
100
AcDbArc
 50
0.0
 51
180.0
  0
ARC
  5
19734
330
1913F
100
AcDbEntity
  8
SUNPOU
100
AcDbCircle
 10
12000.3509022893
 20
5106.590926579783
 30
0.0
 40
5.625
100
AcDbArc
 50
180.0
 51
0.0
  0
ARC
  5
19735
330
1913F
100
AcDbEntity
  8
SUNPOU
100
AcDbCircle
 10
10140.35090228931
 20
5316.590926579785
 30
0.0
 40
5.625
100
AcDbArc
 50
0.0
 51
180.0
  0
ARC
  5
19736
330
1913F
100
AcDbEntity
  8
SUNPOU
100
AcDbCircle
 10
10140.35090228931
 20
5316.590926579785
 30
0.0
 40
5.625
100
AcDbArc
 50
180.0
 51
0.0
  0
ARC
  5
19737
330
1913F
100
AcDbEntity
  8
SUNPOU
100
AcDbCircle
 10
10140.35090228931
 20
5106.590926579783
 30
0.0
 40
5.625
100
AcDbArc
 50
0.0
 51
180.0
  0
ARC
  5
19738
330
1913F
100
AcDbEntity
  8
SUNPOU
100
AcDbCircle
 10
10140.35090228931
 20
5106.590926579783
 30
0.0
 40
5.625
100
AcDbArc
 50
180.0
 51
0.0
  0
TEXT
  5
19739
330
1913F
100
AcDbEntity
  8
SUNPOU
100
AcDbText
 10
6589.432118882275
 20
5337.546798568535
 30
0.0
 40
90.0
  1
238
 41
0.6666666666666666
  7
00
100
AcDbText
  0
LINE
  5
1973A
330
1913F
100
AcDbEntity
  8
SUNPOU
100
AcDbLine
 10
6526.753547453704
 20
5292.546798568533
 30
0.0
 11
6515.503547453703
 21
5292.546798568533
 31
0.0
  0
LINE
  5
1973B
330
1913F
100
AcDbEntity
  8
SUNPOU
100
AcDbLine
 10
6311.253547453702
 20
5292.546798568533
 30
0.0
 11
6322.503547453703
 21
5292.546798568533
 31
0.0
  0
TEXT
  5
1973C
330
1913F
100
AcDbEntity
  8
SUNPOU
100
AcDbText
 10
5185.717833167987
 20
5337.546798568535
 30
0.0
 40
90.0
  1
2000
 41
0.6666666666666666
  7
00
100
AcDbText
  0
LINE
  5
1973D
330
1913F
100
AcDbEntity
  8
SUNPOU
100
AcDbLine
 10
6288.753547453704
 20
5292.546798568533
 30
0.0
 11
6277.503547453703
 21
5292.546798568533
 31
0.0
  0
LINE
  5
1973E
330
1913F
100
AcDbEntity
  8
SUNPOU
100
AcDbLine
 10
4311.253547453698
 20
5292.546798568533
 30
0.0
 11
4322.503547453698
 21
5292.546798568533
 31
0.0
  0
TEXT
  5
1973F
330
1913F
100
AcDbEntity
  8
SUNPOU
100
AcDbText
 10
3839.146404596553
 20
5337.546798568535
 30
0.0
 40
90.0
  1
238
 41
0.6666666666666666
  7
00
100
AcDbText
  0
LINE
  5
19740
330
1913F
100
AcDbEntity
  8
SUNPOU
100
AcDbLine
 10
4073.253547453696
 20
5292.546798568536
 30
0.0
 11
4084.503547453696
 21
5292.546798568536
 31
0.0
  0
LINE
  5
19741
330
1913F
100
AcDbEntity
  8
SUNPOU
100
AcDbLine
 10
4288.753547453698
 20
5292.546798568536
 30
0.0
 11
4277.503547453698
 21
5292.546798568536
 31
0.0
  0
TEXT
  5
19742
330
1913F
100
AcDbEntity
  8
SUNPOU
100
AcDbText
 10
5185.717833167987
 20
7246.353322994082
 30
0.0
 40
90.0
  1
2476
 41
0.6666666666666666
  7
00
100
AcDbText
  0
LINE
  5
19743
330
1913F
100
AcDbEntity
  8
SUNPOU
100
AcDbLine
 10
4073.253547453698
 20
7201.353322994079
 30
0.0
 11
4084.503547453698
 21
7201.353322994079
 31
0.0
  0
LINE
  5
19744
330
1913F
100
AcDbEntity
  8
SUNPOU
100
AcDbLine
 10
6526.753547453704
 20
7201.353322994079
 30
0.0
 11
6515.503547453703
 21
7201.353322994079
 31
0.0
  0
TEXT
  5
19745
330
1913F
100
AcDbEntity
  8
SUNPOU
100
AcDbText
 10
6589.432118882275
 20
7456.353322994077
 30
0.0
 40
90.0
  1
238
 41
0.6666666666666666
  7
00
100
AcDbText
  0
LINE
  5
19746
330
1913F
100
AcDbEntity
  8
SUNPOU
100
AcDbLine
 10
6526.753547453704
 20
7411.353322994077
 30
0.0
 11
6515.503547453703
 21
7411.353322994077
 31
0.0
  0
LINE
  5
19747
330
1913F
100
AcDbEntity
  8
SUNPOU
100
AcDbLine
 10
6311.253547453702
 20
7411.353322994077
 30
0.0
 11
6322.503547453703
 21
7411.353322994077
 31
0.0
  0
TEXT
  5
19748
330
1913F
100
AcDbEntity
  8
SUNPOU
100
AcDbText
 10
5185.717833167987
 20
7456.353322994079
 30
0.0
 40
90.0
  1
2000
 41
0.6666666666666666
  7
00
100
AcDbText
  0
LINE
  5
19749
330
1913F
100
AcDbEntity
  8
SUNPOU
100
AcDbLine
 10
6288.753547453704
 20
7411.353322994077
 30
0.0
 11
6277.503547453703
 21
7411.353322994077
 31
0.0
  0
LINE
  5
1974A
330
1913F
100
AcDbEntity
  8
SUNPOU
100
AcDbLine
 10
4311.253547453698
 20
7411.353322994077
 30
0.0
 11
4322.503547453698
 21
7411.353322994077
 31
0.0
  0
TEXT
  5
1974B
330
1913F
100
AcDbEntity
  8
SUNPOU
100
AcDbText
 10
3839.146404596555
 20
7456.353322994079
 30
0.0
 40
90.0
  1
238
 41
0.6666666666666666
  7
00
100
AcDbText
  0
LINE
  5
1974C
330
1913F
100
AcDbEntity
  8
SUNPOU
100
AcDbLine
 10
4073.253547453698
 20
7411.353322994077
 30
0.0
 11
4084.503547453698
 21
7411.353322994077
 31
0.0
  0
LINE
  5
1974D
330
1913F
100
AcDbEntity
  8
SUNPOU
100
AcDbLine
 10
4288.753547453698
 20
7411.353322994077
 30
0.0
 11
4277.503547453698
 21
7411.353322994077
 31
0.0
  0
TEXT
  5
1974E
330
1913F
100
AcDbEntity
  8
SUNPOU
100
AcDbText
 10
9505.351769154637
 20
3595.26108428282
 30
0.0
 40
90.0
  1
2250
 50
90.0
 41
0.6666666666666666
  7
00
100
AcDbText
  0
LINE
  5
1974F
330
1913F
100
AcDbEntity
  8
SUNPOU
100
AcDbLine
 10
9550.351769154636
 20
4823.296798568532
 30
0.0
 11
9550.351769154636
 21
4812.04679856853
 31
0.0
  0
LINE
  5
19750
330
1913F
100
AcDbEntity
  8
SUNPOU
100
AcDbLine
 10
9550.351769154636
 20
2595.796798568532
 30
0.0
 11
9550.351769154636
 21
2607.046798568533
 31
0.0
  0
TEXT
  5
19751
330
1913F
100
AcDbEntity
  8
SUNPOU
100
AcDbText
 10
12649.90176915463
 20
4892.40394142568
 30
0.0
 40
90.0
  1
100
 50
90.0
 41
0.6666666666666666
  7
00
100
AcDbText
  0
LINE
  5
19752
330
1913F
100
AcDbEntity
  8
SUNPOU
100
AcDbLine
 10
12694.90176915463
 20
4845.796798568535
 30
0.0
 11
12694.90176915463
 21
4857.046798568536
 31
0.0
  0
LINE
  5
19753
330
1913F
100
AcDbEntity
  8
SUNPOU
100
AcDbLine
 10
12694.90176915463
 20
4723.296798568532
 30
0.0
 11
12694.90176915463
 21
4712.046798568533
 31
0.0
  0
TEXT
  5
19754
330
1913F
100
AcDbEntity
  8
SUNPOU
100
AcDbText
 10
12649.90176915463
 20
4393.83251285427
 30
0.0
 40
90.0
  1
510
 50
90.0
 41
0.6666666666666666
  7
00
100
AcDbText
  0
LINE
  5
19755
330
1913F
100
AcDbEntity
  8
SUNPOU
100
AcDbLine
 10
12694.90176915463
 20
4723.296798568532
 30
0.0
 11
12694.90176915463
 21
4712.046798568533
 31
0.0
  0
LINE
  5
19756
330
1913F
100
AcDbEntity
  8
SUNPOU
100
AcDbLine
 10
12694.90176915463
 20
4235.796798568578
 30
0.0
 11
12694.90176915463
 21
4247.046798568576
 31
0.0
  0
TEXT
  5
19757
330
1913F
100
AcDbEntity
  8
SUNPOU
100
AcDbText
 10
12859.90176915462
 20
4442.403941425701
 30
0.0
 40
90.0
  1
610
 50
90.0
 41
0.6666666666666666
  7
00
100
AcDbText
  0
LINE
  5
19758
330
1913F
100
AcDbEntity
  8
SUNPOU
100
AcDbLine
 10
12904.90176915463
 20
4823.296798568535
 30
0.0
 11
12904.90176915463
 21
4812.046798568536
 31
0.0
  0
LINE
  5
19759
330
1913F
100
AcDbEntity
  8
SUNPOU
100
AcDbLine
 10
12904.90176915463
 20
4235.796798568578
 30
0.0
 11
12904.90176915463
 21
4247.046798568576
 31
0.0
  0
TEXT
  5
1975A
330
1913F
100
AcDbEntity
  8
SUNPOU
100
AcDbText
 10
12859.90176915463
 20
3285.975369997128
 30
0.0
 40
90.0
  1
1640
 50
90.0
 41
0.6666666666666666
  7
00
100
AcDbText
  0
LINE
  5
1975B
330
1913F
100
AcDbEntity
  8
SUNPOU
100
AcDbLine
 10
12904.90176915463
 20
4213.296798568577
 30
0.0
 11
12904.90176915463
 21
4202.046798568576
 31
0.0
  0
LINE
  5
1975C
330
1913F
100
AcDbEntity
  8
SUNPOU
100
AcDbLine
 10
12904.90176915463
 20
2595.796798568535
 30
0.0
 11
12904.90176915463
 21
2607.046798568535
 31
0.0
  0
ARC
  5
1975D
330
1913F
100
AcDbEntity
  8
SUNPOU
100
AcDbCircle
 10
6538.003547453704
 20
5292.546798568533
 30
0.0
 40
5.625
100
AcDbArc
 50
180.0
 51
0.0
  0
ARC
  5
1975E
330
1913F
100
AcDbEntity
  8
SUNPOU
100
AcDbCircle
 10
6538.003547453704
 20
5292.546798568533
 30
0.0
 40
5.625
100
AcDbArc
 50
0.0
 51
180.0
  0
ARC
  5
1975F
330
1913F
100
AcDbEntity
  8
SUNPOU
100
AcDbCircle
 10
6300.003547453703
 20
5292.546798568533
 30
0.0
 40
5.625
100
AcDbArc
 50
0.0
 51
180.0
  0
ARC
  5
19760
330
1913F
100
AcDbEntity
  8
SUNPOU
100
AcDbCircle
 10
6300.003547453703
 20
5292.546798568533
 30
0.0
 40
5.625
100
AcDbArc
 50
180.0
 51
0.0
  0
ARC
  5
19761
330
1913F
100
AcDbEntity
  8
SUNPOU
100
AcDbCircle
 10
6300.003547453703
 20
5292.546798568533
 30
0.0
 40
5.625
100
AcDbArc
 50
180.0
 51
0.0
  0
ARC
  5
19762
330
1913F
100
AcDbEntity
  8
SUNPOU
100
AcDbCircle
 10
6300.003547453703
 20
5292.546798568533
 30
0.0
 40
5.625
100
AcDbArc
 50
0.0
 51
180.0
  0
ARC
  5
19763
330
1913F
100
AcDbEntity
  8
SUNPOU
100
AcDbCircle
 10
4300.003547453697
 20
5292.546798568533
 30
0.0
 40
5.625
100
AcDbArc
 50
0.0
 51
180.0
  0
ARC
  5
19764
330
1913F
100
AcDbEntity
  8
SUNPOU
100
AcDbCircle
 10
4300.003547453697
 20
5292.546798568533
 30
0.0
 40
5.625
100
AcDbArc
 50
180.0
 51
0.0
  0
ARC
  5
19765
330
1913F
100
AcDbEntity
  8
SUNPOU
100
AcDbCircle
 10
4062.003547453696
 20
5292.546798568536
 30
0.0
 40
5.625
100
AcDbArc
 50
0.0
 51
180.0
  0
ARC
  5
19766
330
1913F
100
AcDbEntity
  8
SUNPOU
100
AcDbCircle
 10
4062.003547453696
 20
5292.546798568536
 30
0.0
 40
5.625
100
AcDbArc
 50
180.0
 51
0.0
  0
ARC
  5
19767
330
1913F
100
AcDbEntity
  8
SUNPOU
100
AcDbCircle
 10
4300.003547453697
 20
5292.546798568536
 30
0.0
 40
5.625
100
AcDbArc
 50
180.0
 51
0.0
  0
ARC
  5
19768
330
1913F
100
AcDbEntity
  8
SUNPOU
100
AcDbCircle
 10
4300.003547453697
 20
5292.546798568536
 30
0.0
 40
5.625
100
AcDbArc
 50
0.0
 51
180.0
  0
ARC
  5
19769
330
1913F
100
AcDbEntity
  8
SUNPOU
100
AcDbCircle
 10
4062.003547453698
 20
7201.353322994079
 30
0.0
 40
5.625
100
AcDbArc
 50
0.0
 51
180.0
  0
ARC
  5
1976A
330
1913F
100
AcDbEntity
  8
SUNPOU
100
AcDbCircle
 10
4062.003547453698
 20
7201.353322994079
 30
0.0
 40
5.625
100
AcDbArc
 50
180.0
 51
0.0
  0
ARC
  5
1976B
330
1913F
100
AcDbEntity
  8
SUNPOU
100
AcDbCircle
 10
6538.003547453704
 20
7201.353322994079
 30
0.0
 40
5.625
100
AcDbArc
 50
180.0
 51
0.0
  0
ARC
  5
1976C
330
1913F
100
AcDbEntity
  8
SUNPOU
100
AcDbCircle
 10
6538.003547453704
 20
7201.353322994079
 30
0.0
 40
5.625
100
AcDbArc
 50
0.0
 51
180.0
  0
ARC
  5
1976D
330
1913F
100
AcDbEntity
  8
SUNPOU
100
AcDbCircle
 10
6538.003547453704
 20
7411.353322994077
 30
0.0
 40
5.625
100
AcDbArc
 50
180.0
 51
0.0
  0
ARC
  5
1976E
330
1913F
100
AcDbEntity
  8
SUNPOU
100
AcDbCircle
 10
6538.003547453704
 20
7411.353322994077
 30
0.0
 40
5.625
100
AcDbArc
 50
0.0
 51
180.0
  0
ARC
  5
1976F
330
1913F
100
AcDbEntity
  8
SUNPOU
100
AcDbCircle
 10
6300.003547453703
 20
7411.353322994077
 30
0.0
 40
5.625
100
AcDbArc
 50
0.0
 51
180.0
  0
ARC
  5
19770
330
1913F
100
AcDbEntity
  8
SUNPOU
100
AcDbCircle
 10
6300.003547453703
 20
7411.353322994077
 30
0.0
 40
5.625
100
AcDbArc
 50
180.0
 51
0.0
  0
ARC
  5
19771
330
1913F
100
AcDbEntity
  8
SUNPOU
100
AcDbCircle
 10
6300.003547453703
 20
7411.353322994077
 30
0.0
 40
5.625
100
AcDbArc
 50
180.0
 51
0.0
  0
ARC
  5
19772
330
1913F
100
AcDbEntity
  8
SUNPOU
100
AcDbCircle
 10
6300.003547453703
 20
7411.353322994077
 30
0.0
 40
5.625
100
AcDbArc
 50
0.0
 51
180.0
  0
ARC
  5
19773
330
1913F
100
AcDbEntity
  8
SUNPOU
100
AcDbCircle
 10
4300.003547453697
 20
7411.353322994077
 30
0.0
 40
5.625
100
AcDbArc
 50
0.0
 51
180.0
  0
ARC
  5
19774
330
1913F
100
AcDbEntity
  8
SUNPOU
100
AcDbCircle
 10
4300.003547453697
 20
7411.353322994077
 30
0.0
 40
5.625
100
AcDbArc
 50
180.0
 51
0.0
  0
ARC
  5
19775
330
1913F
100
AcDbEntity
  8
SUNPOU
100
AcDbCircle
 10
4062.003547453698
 20
7411.353322994077
 30
0.0
 40
5.625
100
AcDbArc
 50
0.0
 51
180.0
  0
ARC
  5
19776
330
1913F
100
AcDbEntity
  8
SUNPOU
100
AcDbCircle
 10
4062.003547453698
 20
7411.353322994077
 30
0.0
 40
5.625
100
AcDbArc
 50
180.0
 51
0.0
  0
ARC
  5
19777
330
1913F
100
AcDbEntity
  8
SUNPOU
100
AcDbCircle
 10
4300.003547453697
 20
7411.353322994077
 30
0.0
 40
5.625
100
AcDbArc
 50
180.0
 51
0.0
  0
ARC
  5
19778
330
1913F
100
AcDbEntity
  8
SUNPOU
100
AcDbCircle
 10
4300.003547453697
 20
7411.353322994077
 30
0.0
 40
5.625
100
AcDbArc
 50
0.0
 51
180.0
  0
ARC
  5
19779
330
1913F
100
AcDbEntity
  8
SUNPOU
100
AcDbCircle
 10
9550.351769154636
 20
4834.54679856853
 30
0.0
 40
5.625
100
AcDbArc
 50
270.0
 51
90.0
  0
ARC
  5
1977A
330
1913F
100
AcDbEntity
  8
SUNPOU
100
AcDbCircle
 10
9550.351769154636
 20
4834.54679856853
 30
0.0
 40
5.625
100
AcDbArc
 50
90.0
 51
270.0
  0
ARC
  5
1977B
330
1913F
100
AcDbEntity
  8
SUNPOU
100
AcDbCircle
 10
9550.351769154636
 20
2584.546798568533
 30
0.0
 40
5.625
100
AcDbArc
 50
90.0
 51
270.0
  0
ARC
  5
1977C
330
1913F
100
AcDbEntity
  8
SUNPOU
100
AcDbCircle
 10
9550.351769154636
 20
2584.546798568533
 30
0.0
 40
5.625
100
AcDbArc
 50
270.0
 51
90.0
  0
ARC
  5
1977D
330
1913F
100
AcDbEntity
  8
SUNPOU
100
AcDbCircle
 10
12694.90176915463
 20
4834.546798568535
 30
0.0
 40
5.625
100
AcDbArc
 50
90.0
 51
270.0
  0
ARC
  5
1977E
330
1913F
100
AcDbEntity
  8
SUNPOU
100
AcDbCircle
 10
12694.90176915463
 20
4834.546798568535
 30
0.0
 40
5.625
100
AcDbArc
 50
270.0
 51
90.0
  0
ARC
  5
1977F
330
1913F
100
AcDbEntity
  8
SUNPOU
100
AcDbCircle
 10
12694.90176915463
 20
4734.546798568532
 30
0.0
 40
5.625
100
AcDbArc
 50
270.0
 51
90.0
  0
ARC
  5
19780
330
1913F
100
AcDbEntity
  8
SUNPOU
100
AcDbCircle
 10
12694.90176915463
 20
4734.546798568532
 30
0.0
 40
5.625
100
AcDbArc
 50
90.0
 51
270.0
  0
ARC
  5
19781
330
1913F
100
AcDbEntity
  8
SUNPOU
100
AcDbCircle
 10
12694.90176915463
 20
4734.546798568532
 30
0.0
 40
5.625
100
AcDbArc
 50
270.0
 51
90.0
  0
ARC
  5
19782
330
1913F
100
AcDbEntity
  8
SUNPOU
100
AcDbCircle
 10
12694.90176915463
 20
4734.546798568532
 30
0.0
 40
5.625
100
AcDbArc
 50
90.0
 51
270.0
  0
ARC
  5
19783
330
1913F
100
AcDbEntity
  8
SUNPOU
100
AcDbCircle
 10
12694.90176915463
 20
4224.546798568576
 30
0.0
 40
5.625
100
AcDbArc
 50
90.0
 51
270.0
  0
ARC
  5
19784
330
1913F
100
AcDbEntity
  8
SUNPOU
100
AcDbCircle
 10
12694.90176915463
 20
4224.546798568576
 30
0.0
 40
5.625
100
AcDbArc
 50
270.0
 51
90.0
  0
ARC
  5
19785
330
1913F
100
AcDbEntity
  8
SUNPOU
100
AcDbCircle
 10
12904.90176915463
 20
4834.546798568535
 30
0.0
 40
5.625
100
AcDbArc
 50
270.0
 51
90.0
  0
ARC
  5
19786
330
1913F
100
AcDbEntity
  8
SUNPOU
100
AcDbCircle
 10
12904.90176915463
 20
4834.546798568535
 30
0.0
 40
5.625
100
AcDbArc
 50
90.0
 51
270.0
  0
ARC
  5
19787
330
1913F
100
AcDbEntity
  8
SUNPOU
100
AcDbCircle
 10
12904.90176915463
 20
4224.546798568576
 30
0.0
 40
5.625
100
AcDbArc
 50
90.0
 51
270.0
  0
ARC
  5
19788
330
1913F
100
AcDbEntity
  8
SUNPOU
100
AcDbCircle
 10
12904.90176915463
 20
4224.546798568576
 30
0.0
 40
5.625
100
AcDbArc
 50
270.0
 51
90.0
  0
ARC
  5
19789
330
1913F
100
AcDbEntity
  8
SUNPOU
100
AcDbCircle
 10
12904.90176915463
 20
4224.546798568576
 30
0.0
 40
5.625
100
AcDbArc
 50
270.0
 51
90.0
  0
ARC
  5
1978A
330
1913F
100
AcDbEntity
  8
SUNPOU
100
AcDbCircle
 10
12904.90176915463
 20
4224.546798568576
 30
0.0
 40
5.625
100
AcDbArc
 50
90.0
 51
270.0
  0
ARC
  5
1978B
330
1913F
100
AcDbEntity
  8
SUNPOU
100
AcDbCircle
 10
12904.90176915463
 20
2584.546798568535
 30
0.0
 40
5.625
100
AcDbArc
 50
90.0
 51
270.0
  0
ARC
  5
1978C
330
1913F
100
AcDbEntity
  8
SUNPOU
100
AcDbCircle
 10
12904.90176915463
 20
2584.546798568535
 30
0.0
 40
5.625
100
AcDbArc
 50
270.0
 51
90.0
  0
LINE
  5
1978D
330
1913F
100
AcDbEntity
  8
HIKIDASHI
100
AcDbLine
 10
4647.267692098385
 20
8553.485784997709
 30
0.0
 11
4736.146375674826
 21
8365.031635279924
 31
0.0
1001
ACAD
1000
DSTYLE
1002
{
1070
   147
1040
1.5
1070
    77
1070
     0
1002
}
  0
LINE
  5
1978E
330
1913F
100
AcDbEntity
  8
HIKIDASHI
100
AcDbLine
 10
4656.312281764447
 20
8557.751391375772
 30
0.0
 11
4621.674053830006
 21
8607.753322994078
 31
0.0
  0
LINE
  5
1978F
330
1913F
100
AcDbEntity
  8
HIKIDASHI
100
AcDbLine
 10
4621.674053830006
 20
8607.753322994078
 30
0.0
 11
4638.223102432322
 21
8549.220178619647
 31
0.0
  0
SOLID
  5
19790
330
1913F
100
AcDbEntity
  8
HIKIDASHI
100
AcDbTrace
 10
4656.312281764447
 20
8557.751391375772
 30
0.0
 11
4638.223102432322
 21
8549.220178619647
 31
0.0
 12
4621.674053830006
 22
8607.753322994078
 32
0.0
 13
4621.674053830006
 23
8607.753322994078
 33
0.0
  0
LINE
  5
19791
330
1913F
100
AcDbEntity
  8
HIKIDASHI
100
AcDbLine
 10
4638.223102432322
 20
8549.220178619647
 30
0.0
 11
4656.312281764447
 21
8557.751391375772
 31
0.0
  0
LINE
  5
19792
330
1913F
100
AcDbEntity
  8
HIKIDASHI
100
AcDbLine
 10
5747.484019788764
 20
9767.715362221146
 30
0.0
 11
5446.022721769288
 21
10782.20356916861
 31
0.0
1001
ACAD
1000
DSTYLE
1002
{
1070
   147
1040
1.5
1070
    77
1070
     0
1070
   173
1070
     0
1070
   341
1005
125B0
1002
}
  0
ARC
  5
19793
330
1913F
100
AcDbEntity
  8
HIKIDASHI
100
AcDbCircle
 10
5781.78755165803
 20
9704.935965713834
 30
0.0
 40
18.0
100
AcDbArc
 50
50.10694464724227
 51
162.992325123401
  0
ARC
  5
19794
330
1913F
100
AcDbEntity
  8
HIKIDASHI
100
AcDbCircle
 10
5747.361990646699
 20
9715.465958546456
 30
0.0
 40
18.0
100
AcDbArc
 50
230.1069446472423
 51
342.9923251234009
  0
LINE
  5
19795
330
1913F
100
AcDbEntity
  8
HIKIDASHI
100
AcDbLine
 10
5764.574771152364
 20
9710.200962130144
 30
0.0
 11
5747.48401978876
 21
9767.715362221156
 31
0.0
  0
LINE
  5
19796
330
1913F
100
AcDbEntity
  8
HIKIDASHI
100
AcDbLine
 10
4200.47808637368
 20
9288.606745003164
 30
0.0
 11
3958.436181948103
 21
9394.42786850874
 31
0.0
1001
ACAD
1000
DSTYLE
1002
{
1070
   147
1040
1.5
1070
    77
1070
     0
1002
}
  0
LINE
  5
19797
330
1913F
100
AcDbEntity
  8
HIKIDASHI
100
AcDbLine
 10
4196.472192524752
 20
9279.444168156492
 30
0.0
 11
4255.453547453699
 21
9264.571381909602
 31
0.0
  0
LINE
  5
19798
330
1913F
100
AcDbEntity
  8
HIKIDASHI
100
AcDbLine
 10
4255.453547453699
 20
9264.571381909602
 30
0.0
 11
4204.483980222605
 21
9297.769321849832
 31
0.0
  0
SOLID
  5
19799
330
1913F
100
AcDbEntity
  8
HIKIDASHI
100
AcDbTrace
 10
4196.472192524752
 20
9279.444168156492
 30
0.0
 11
4204.483980222605
 21
9297.769321849832
 31
0.0
 12
4255.453547453699
 22
9264.571381909602
 32
0.0
 13
4255.453547453699
 23
9264.571381909602
 33
0.0
  0
LINE
  5
1979A
330
1913F
100
AcDbEntity
  8
HIKIDASHI
100
AcDbLine
 10
4204.483980222605
 20
9297.769321849832
 30
0.0
 11
4196.472192524752
 21
9279.444168156492
 31
0.0
  0
LINE
  5
1979B
330
1913F
100
AcDbEntity
  8
HIKIDASHI
100
AcDbLine
 10
4476.06983587207
 20
10185.21848795078
 30
0.0
 11
4566.89150768862
 21
10355.132282271
 31
0.0
  0
LINE
  5
1979C
330
1913F
100
AcDbEntity
  8
HIKIDASHI
100
AcDbLine
 10
4467.250641712617
 20
10189.93248990007
 30
0.0
 11
4447.785824176348
 21
10132.30332299408
 31
0.0
  0
LINE
  5
1979D
330
1913F
100
AcDbEntity
  8
HIKIDASHI
100
AcDbLine
 10
4447.785824176348
 20
10132.30332299408
 30
0.0
 11
4484.889030031522
 21
10180.5044860015
 31
0.0
  0
SOLID
  5
1979E
330
1913F
100
AcDbEntity
  8
HIKIDASHI
100
AcDbTrace
 10
4467.250641712617
 20
10189.93248990007
 30
0.0
 11
4484.889030031522
 21
10180.5044860015
 31
0.0
 12
4447.785824176348
 22
10132.30332299408
 32
0.0
 13
4447.785824176348
 23
10132.30332299408
 33
0.0
  0
LINE
  5
1979F
330
1913F
100
AcDbEntity
  8
HIKIDASHI
100
AcDbLine
 10
4484.889030031522
 20
10180.5044860015
 30
0.0
 11
4467.250641712617
 21
10189.93248990007
 31
0.0
  0
LINE
  5
197A0
330
1913F
100
AcDbEntity
  8
HIKIDASHI
100
AcDbLine
 10
4225.045566501329
 20
9901.630986869696
 30
0.0
 11
3958.436181948103
 21
10355.132282271
 31
0.0
1001
ACAD
1000
DSTYLE
1002
{
1070
   147
1040
1.5
1070
    77
1070
     0
1002
}
  0
LINE
  5
197A1
330
1913F
100
AcDbEntity
  8
HIKIDASHI
100
AcDbLine
 10
4216.424927999582
 20
9896.562990044301
 30
0.0
 11
4255.453547453699
 21
9849.90715585922
 31
0.0
  0
LINE
  5
197A2
330
1913F
100
AcDbEntity
  8
HIKIDASHI
100
AcDbLine
 10
4255.453547453699
 20
9849.90715585922
 30
0.0
 11
4233.666205003074
 21
9906.698983695092
 31
0.0
  0
SOLID
  5
197A3
330
1913F
100
AcDbEntity
  8
HIKIDASHI
100
AcDbTrace
 10
4216.424927999582
 20
9896.562990044301
 30
0.0
 11
4233.666205003074
 21
9906.698983695092
 31
0.0
 12
4255.453547453699
 22
9849.90715585922
 32
0.0
 13
4255.453547453699
 23
9849.90715585922
 33
0.0
  0
LINE
  5
197A4
330
1913F
100
AcDbEntity
  8
HIKIDASHI
100
AcDbLine
 10
4233.666205003074
 20
9906.698983695092
 30
0.0
 11
4216.424927999582
 21
9896.562990044301
 31
0.0
  0
LINE
  5
197A5
330
1913F
100
AcDbEntity
  8
HIKIDASHI
100
AcDbLine
 10
6566.542654087354
 20
8083.701016098661
 30
0.0
 11
6813.415866697262
 21
7656.104068830498
 31
0.0
1001
ACAD
1000
DSTYLE
1002
{
1070
   147
1040
1.5
1070
    77
1070
     0
1002
}
  0
LINE
  5
197A6
330
1913F
100
AcDbEntity
  8
HIKIDASHI
100
AcDbLine
 10
6575.2029081252
 20
8088.701016098658
 30
0.0
 11
6536.542654087355
 21
8135.662540325727
 31
0.0
  0
LINE
  5
197A7
330
1913F
100
AcDbEntity
  8
HIKIDASHI
100
AcDbLine
 10
6536.542654087355
 20
8135.662540325727
 30
0.0
 11
6557.882400049511
 21
8078.701016098658
 31
0.0
  0
SOLID
  5
197A8
330
1913F
100
AcDbEntity
  8
HIKIDASHI
100
AcDbTrace
 10
6575.2029081252
 20
8088.701016098658
 30
0.0
 11
6557.882400049511
 21
8078.701016098658
 31
0.0
 12
6536.542654087355
 22
8135.662540325727
 32
0.0
 13
6536.542654087355
 23
8135.662540325727
 33
0.0
  0
LINE
  5
197A9
330
1913F
100
AcDbEntity
  8
HIKIDASHI
100
AcDbLine
 10
6557.882400049511
 20
8078.701016098658
 30
0.0
 11
6575.2029081252
 21
8088.701016098658
 31
0.0
  0
LINE
  5
197AA
330
1913F
100
AcDbEntity
  8
HIKIDASHI
100
AcDbLine
 10
6568.003547453702
 20
8264.14254460343
 30
0.0
 11
6797.811168589014
 21
7866.104068830495
 31
0.0
1001
ACAD
1000
DSTYLE
1002
{
1070
   147
1040
1.5
1070
    77
1070
     0
1002
}
  0
LINE
  5
197AB
330
1913F
100
AcDbEntity
  8
HIKIDASHI
100
AcDbLine
 10
6576.663801491545
 20
8269.142544603425
 30
0.0
 11
6538.003547453704
 21
8316.104068830496
 31
0.0
  0
LINE
  5
197AC
330
1913F
100
AcDbEntity
  8
HIKIDASHI
100
AcDbLine
 10
6538.003547453704
 20
8316.104068830496
 30
0.0
 11
6559.343293415857
 21
8259.142544603431
 31
0.0
  0
SOLID
  5
197AD
330
1913F
100
AcDbEntity
  8
HIKIDASHI
100
AcDbTrace
 10
6576.663801491545
 20
8269.142544603425
 30
0.0
 11
6559.343293415857
 21
8259.142544603431
 31
0.0
 12
6538.003547453704
 22
8316.104068830496
 32
0.0
 13
6538.003547453704
 23
8316.104068830496
 33
0.0
  0
LINE
  5
197AE
330
1913F
100
AcDbEntity
  8
HIKIDASHI
100
AcDbLine
 10
6559.343293415857
 20
8259.142544603431
 30
0.0
 11
6576.663801491545
 21
8269.142544603425
 31
0.0
  0
LINE
  5
197AF
330
1913F
100
AcDbEntity
  8
HIKIDASHI
100
AcDbLine
 10
6569.362319781841
 20
10183.45630333805
 30
0.0
 11
6800.962084885579
 21
10561.24590900423
 31
0.0
1001
ACAD
1000
DSTYLE
1002
{
1070
   147
1040
1.5
1070
    77
1070
     0
1002
}
  0
LINE
  5
197B0
330
1913F
100
AcDbEntity
  8
HIKIDASHI
100
AcDbLine
 10
6560.836823057845
 20
10188.68276539275
 30
0.0
 11
6538.003547453704
 21
10132.30332299408
 31
0.0
  0
LINE
  5
197B1
330
1913F
100
AcDbEntity
  8
HIKIDASHI
100
AcDbLine
 10
6538.003547453704
 20
10132.30332299408
 30
0.0
 11
6577.88781650584
 21
10178.22984128337
 31
0.0
  0
SOLID
  5
197B2
330
1913F
100
AcDbEntity
  8
HIKIDASHI
100
AcDbTrace
 10
6560.836823057845
 20
10188.68276539275
 30
0.0
 11
6577.88781650584
 21
10178.22984128337
 31
0.0
 12
6538.003547453704
 22
10132.30332299408
 32
0.0
 13
6538.003547453704
 23
10132.30332299408
 33
0.0
  0
LINE
  5
197B3
330
1913F
100
AcDbEntity
  8
HIKIDASHI
100
AcDbLine
 10
6577.88781650584
 20
10178.22984128337
 30
0.0
 11
6560.836823057845
 21
10188.68276539275
 31
0.0
  0
LINE
  5
197B4
330
1913F
100
AcDbEntity
  8
HIKIDASHI
100
AcDbLine
 10
4220.926650102392
 20
8285.530816004195
 30
0.0
 11
3958.436181948103
 21
8492.944302231133
 31
0.0
1001
ACAD
1000
DSTYLE
1002
{
1070
   147
1040
1.5
1070
    77
1070
     0
1002
}
  0
LINE
  5
197B5
330
1913F
100
AcDbEntity
  8
HIKIDASHI
100
AcDbLine
 10
4214.726816467136
 20
8277.684666445642
 30
0.0
 11
4268.003547453697
 21
8248.331814192658
 31
0.0
  0
LINE
  5
197B6
330
1913F
100
AcDbEntity
  8
HIKIDASHI
100
AcDbLine
 10
4268.003547453697
 20
8248.331814192658
 30
0.0
 11
4227.126483737648
 21
8293.376965562744
 31
0.0
  0
SOLID
  5
197B7
330
1913F
100
AcDbEntity
  8
HIKIDASHI
100
AcDbTrace
 10
4214.726816467136
 20
8277.684666445642
 30
0.0
 11
4227.126483737648
 21
8293.376965562744
 31
0.0
 12
4268.003547453697
 22
8248.331814192658
 32
0.0
 13
4268.003547453697
 23
8248.331814192658
 33
0.0
  0
LINE
  5
197B8
330
1913F
100
AcDbEntity
  8
HIKIDASHI
100
AcDbLine
 10
4227.126483737648
 20
8293.376965562744
 30
0.0
 11
4214.726816467136
 21
8277.684666445642
 31
0.0
  0
LINE
  5
197B9
330
1913F
100
AcDbEntity
  8
HIKIDASHI
100
AcDbLine
 10
4220.926650102396
 20
8720.330816004192
 30
0.0
 11
3958.436181948103
 21
8927.744302231136
 31
0.0
1001
ACAD
1000
DSTYLE
1002
{
1070
   147
1040
1.5
1070
    77
1070
     0
1002
}
  0
LINE
  5
197BA
330
1913F
100
AcDbEntity
  8
HIKIDASHI
100
AcDbLine
 10
4214.726816467138
 20
8712.484666445641
 30
0.0
 11
4268.003547453701
 21
8683.131814192657
 31
0.0
  0
LINE
  5
197BB
330
1913F
100
AcDbEntity
  8
HIKIDASHI
100
AcDbLine
 10
4268.003547453701
 20
8683.131814192657
 30
0.0
 11
4227.126483737651
 21
8728.176965562742
 31
0.0
  0
SOLID
  5
197BC
330
1913F
100
AcDbEntity
  8
HIKIDASHI
100
AcDbTrace
 10
4214.726816467138
 20
8712.484666445641
 30
0.0
 11
4227.126483737651
 21
8728.176965562742
 31
0.0
 12
4268.003547453701
 22
8683.131814192657
 32
0.0
 13
4268.003547453701
 23
8683.131814192657
 33
0.0
  0
LINE
  5
197BD
330
1913F
100
AcDbEntity
  8
HIKIDASHI
100
AcDbLine
 10
4227.126483737651
 20
8728.176965562742
 30
0.0
 11
4214.726816467138
 21
8712.484666445641
 31
0.0
  0
LINE
  5
197BE
330
1913F
100
AcDbEntity
  8
HIKIDASHI
100
AcDbLine
 10
4160.743340586875
 20
9657.66468261259
 30
0.0
 11
3958.436181948103
 21
9864.677917757594
 31
0.0
1001
ACAD
1000
DSTYLE
1002
{
1070
   147
1040
1.5
1070
    77
1070
     0
1002
}
  0
LINE
  5
197BF
330
1913F
100
AcDbEntity
  8
HIKIDASHI
100
AcDbLine
 10
4153.591447317122
 20
9650.675374874474
 30
0.0
 11
4202.679187015567
 21
9614.753322994079
 31
0.0
  0
LINE
  5
197C0
330
1913F
100
AcDbEntity
  8
HIKIDASHI
100
AcDbLine
 10
4202.679187015567
 20
9614.753322994079
 30
0.0
 11
4167.895233856627
 21
9664.653990350707
 31
0.0
  0
SOLID
  5
197C1
330
1913F
100
AcDbEntity
  8
HIKIDASHI
100
AcDbTrace
 10
4153.591447317122
 20
9650.675374874474
 30
0.0
 11
4167.895233856627
 21
9664.653990350707
 31
0.0
 12
4202.679187015567
 22
9614.753322994079
 32
0.0
 13
4202.679187015567
 23
9614.753322994079
 33
0.0
  0
LINE
  5
197C2
330
1913F
100
AcDbEntity
  8
HIKIDASHI
100
AcDbLine
 10
4167.895233856627
 20
9664.653990350707
 30
0.0
 11
4153.591447317122
 21
9650.675374874474
 31
0.0
  0
LINE
  5
197C3
330
1913F
100
AcDbEntity
  8
HIKIDASHI
100
AcDbLine
 10
4546.06310926838
 20
8100.48123355309
 30
0.0
 11
3827.06168081575
 21
7621.353322994076
 31
0.0
1001
ACAD
1000
DSTYLE
1002
{
1070
   147
1040
1.5
1070
    77
1070
     0
1002
}
  0
LINE
  5
197C4
330
1913F
100
AcDbEntity
  8
HIKIDASHI
100
AcDbLine
 10
4551.608457508546
 20
8092.159628365669
 30
0.0
 11
4595.992740392904
 21
8133.753322994079
 31
0.0
  0
LINE
  5
197C5
330
1913F
100
AcDbEntity
  8
HIKIDASHI
100
AcDbLine
 10
4595.992740392904
 20
8133.753322994079
 30
0.0
 11
4540.517761028216
 21
8108.80283874051
 31
0.0
  0
SOLID
  5
197C6
330
1913F
100
AcDbEntity
  8
HIKIDASHI
100
AcDbTrace
 10
4551.608457508546
 20
8092.159628365669
 30
0.0
 11
4540.517761028216
 21
8108.80283874051
 31
0.0
 12
4595.992740392904
 22
8133.753322994079
 32
0.0
 13
4595.992740392904
 23
8133.753322994079
 33
0.0
  0
LINE
  5
197C7
330
1913F
100
AcDbEntity
  8
HIKIDASHI
100
AcDbLine
 10
4540.517761028216
 20
8108.80283874051
 30
0.0
 11
4551.608457508546
 21
8092.159628365669
 31
0.0
  0
LINE
  5
197C8
330
1913F
100
AcDbEntity
  8
HIKIDASHI
100
AcDbLine
 10
4558.582397972689
 20
9045.910047139059
 30
0.0
 11
4693.626269517052
 21
8804.896898117092
 31
0.0
1001
ACAD
1000
DSTYLE
1002
{
1070
   147
1040
1.5
1070
    77
1070
     0
1002
}
  0
LINE
  5
197C9
330
1913F
100
AcDbEntity
  8
HIKIDASHI
100
AcDbLine
 10
4567.30627728186
 20
9050.798188892224
 30
0.0
 11
4529.253547453698
 21
9098.253322994079
 31
0.0
  0
LINE
  5
197CA
330
1913F
100
AcDbEntity
  8
HIKIDASHI
100
AcDbLine
 10
4529.253547453698
 20
9098.253322994079
 30
0.0
 11
4549.858518663518
 21
9041.021905385893
 31
0.0
  0
SOLID
  5
197CB
330
1913F
100
AcDbEntity
  8
HIKIDASHI
100
AcDbTrace
 10
4567.30627728186
 20
9050.798188892224
 30
0.0
 11
4549.858518663518
 21
9041.021905385893
 31
0.0
 12
4529.253547453698
 22
9098.253322994079
 32
0.0
 13
4529.253547453698
 23
9098.253322994079
 33
0.0
  0
LINE
  5
197CC
330
1913F
100
AcDbEntity
  8
HIKIDASHI
100
AcDbLine
 10
4549.858518663518
 20
9041.021905385893
 30
0.0
 11
4567.30627728186
 21
9050.798188892224
 31
0.0
  0
LINE
  5
197CD
330
1913F
100
AcDbEntity
  8
TATEDOISIJIKANAGU
100
AcDbLine
 10
6149.503547453702
 20
4174.546798568534
 30
0.0
 11
6149.503547453702
 21
4172.546798568535
 31
0.0
  0
LINE
  5
197CE
330
1913F
100
AcDbEntity
  8
TATEDOISIJIKANAGU
100
AcDbLine
 10
6149.503547453702
 20
4172.546798568535
 30
0.0
 11
6148.303547453694
 21
4172.546798568535
 31
0.0
  0
LINE
  5
197CF
330
1913F
100
AcDbEntity
  8
TATEDOISIJIKANAGU
100
AcDbLine
 10
6132.503547453704
 20
4172.546798568535
 30
0.0
 11
6150.003547453692
 21
4172.546798568535
 31
0.0
  0
LINE
  5
197D0
330
1913F
100
AcDbEntity
  8
TATEDOISIJIKANAGU
100
AcDbLine
 10
6150.003547453692
 20
4172.546798568535
 30
0.0
 11
6150.003547453692
 21
4161.046798568531
 31
0.0
  0
LINE
  5
197D1
330
1913F
100
AcDbEntity
  8
TATEDOISIJIKANAGU
100
AcDbLine
 10
6146.003547453704
 20
4172.546798568535
 30
0.0
 11
6108.003547453702
 21
4172.546798568535
 31
0.0
  0
LINE
  5
197D2
330
1913F
100
AcDbEntity
  8
TATEDOISIJIKANAGU
100
AcDbLine
 10
6105.703547453702
 20
4172.546798568535
 30
0.0
 11
6104.503547453703
 21
4172.546798568535
 31
0.0
  0
LINE
  5
197D3
330
1913F
100
AcDbEntity
  8
TATEDOISIJIKANAGU
100
AcDbLine
 10
6104.503547453703
 20
4172.546798568535
 30
0.0
 11
6104.503547453703
 21
4174.546798568534
 31
0.0
  0
LINE
  5
197D4
330
1913F
100
AcDbEntity
  8
TATEDOISIJIKANAGU
100
AcDbLine
 10
6104.503547453703
 20
4174.546798568534
 30
0.0
 11
6149.503547453702
 21
4174.546798568534
 31
0.0
  0
LINE
  5
197D5
330
1913F
100
AcDbEntity
  8
TATEDOISIJIKANAGU
100
AcDbLine
 10
12106.50069413383
 20
2914.796798568534
 30
0.0
 11
12059.30111044481
 21
2914.796798568534
 31
0.0
  0
LINE
  5
197D6
330
1913F
100
AcDbEntity
  8
TATEDOISIJIKANAGU
100
AcDbLine
 10
12059.30111044481
 20
2914.796798568534
 30
0.0
 11
12059.30111044481
 21
2902.296798568534
 31
0.0
  0
LINE
  5
197D7
330
1913F
100
AcDbEntity
  8
TATEDOISIJIKANAGU
100
AcDbLine
 10
12059.30111044481
 20
2902.296798568534
 30
0.0
 11
12106.50069413383
 21
2902.296798568534
 31
0.0
  0
LINE
  5
197D8
330
1913F
100
AcDbEntity
  8
TATEDOISIJIKANAGU
100
AcDbLine
 10
12106.50069413383
 20
2902.296798568534
 30
0.0
 11
12106.50069413383
 21
2914.796798568534
 31
0.0
  0
LINE
  5
197D9
330
1913F
100
AcDbEntity
  8
TATEDOISIJIKANAGU
100
AcDbLine
 10
12106.50069413383
 20
3912.796798568535
 30
0.0
 11
12059.3011104448
 21
3912.796798568535
 31
0.0
  0
LINE
  5
197DA
330
1913F
100
AcDbEntity
  8
TATEDOISIJIKANAGU
100
AcDbLine
 10
12059.3011104448
 20
3912.796798568535
 30
0.0
 11
12059.3011104448
 21
3900.296798568535
 31
0.0
  0
LINE
  5
197DB
330
1913F
100
AcDbEntity
  8
TATEDOISIJIKANAGU
100
AcDbLine
 10
12059.3011104448
 20
3900.296798568535
 30
0.0
 11
12106.50069413383
 21
3900.296798568535
 31
0.0
  0
LINE
  5
197DC
330
1913F
100
AcDbEntity
  8
TATEDOISIJIKANAGU
100
AcDbLine
 10
12106.50069413383
 20
3900.296798568535
 30
0.0
 11
12106.50069413383
 21
3912.796798568535
 31
0.0
  0
ARC
  5
197DD
330
1913F
100
AcDbEntity
  8
CF-301
100
AcDbCircle
 10
6500.003547453705
 20
9598.753322994078
 30
0.0
 40
5.0
100
AcDbArc
 50
0.0
 51
180.0
  0
LINE
  5
197DE
330
1913F
100
AcDbEntity
  8
CF-301
100
AcDbLine
 10
6495.003547453703
 20
9598.753322994078
 30
0.0
 11
6495.003547453703
 21
9596.753322994079
 31
0.0
  0
ARC
  5
197DF
330
1913F
100
AcDbEntity
  8
CF-301
100
AcDbCircle
 10
6500.003547453705
 20
9596.753322994079
 30
0.0
 40
5.0
100
AcDbArc
 50
180.0
 51
0.0
  0
LINE
  5
197E0
330
1913F
100
AcDbEntity
  8
CF-301
100
AcDbLine
 10
6505.003547453704
 20
9596.753322994079
 30
0.0
 11
6505.003547453704
 21
9598.753322994078
 31
0.0
  0
ARC
  5
197E1
330
1913F
100
AcDbEntity
  8
CF-301
100
AcDbCircle
 10
6500.003547453705
 20
9111.753322994079
 30
0.0
 40
5.0
100
AcDbArc
 50
0.0
 51
180.0
  0
LINE
  5
197E2
330
1913F
100
AcDbEntity
  8
CF-301
100
AcDbLine
 10
6495.003547453703
 20
9111.753322994079
 30
0.0
 11
6495.003547453703
 21
9109.753322994079
 31
0.0
  0
ARC
  5
197E3
330
1913F
100
AcDbEntity
  8
CF-301
100
AcDbCircle
 10
6500.003547453705
 20
9109.753322994079
 30
0.0
 40
5.0
100
AcDbArc
 50
180.0
 51
0.0
  0
LINE
  5
197E4
330
1913F
100
AcDbEntity
  8
CF-301
100
AcDbLine
 10
6505.003547453704
 20
9109.753322994079
 30
0.0
 11
6505.003547453704
 21
9111.753322994079
 31
0.0
  0
ARC
  5
197E5
330
1913F
100
AcDbEntity
  8
CF-301
100
AcDbCircle
 10
6500.003547453705
 20
8624.753322994079
 30
0.0
 40
5.0
100
AcDbArc
 50
0.0
 51
180.0
  0
LINE
  5
197E6
330
1913F
100
AcDbEntity
  8
CF-301
100
AcDbLine
 10
6495.003547453703
 20
8624.753322994079
 30
0.0
 11
6495.003547453703
 21
8622.753322994078
 31
0.0
  0
ARC
  5
197E7
330
1913F
100
AcDbEntity
  8
CF-301
100
AcDbCircle
 10
6500.003547453705
 20
8622.753322994078
 30
0.0
 40
5.0
100
AcDbArc
 50
180.0
 51
0.0
  0
LINE
  5
197E8
330
1913F
100
AcDbEntity
  8
CF-301
100
AcDbLine
 10
6505.003547453704
 20
8622.753322994078
 30
0.0
 11
6505.003547453704
 21
8624.753322994079
 31
0.0
  0
LINE
  5
197E9
330
1913F
100
AcDbEntity
  8
AF-21
100
AcDbLine
 10
6523.003547453703
 20
8199.753322994078
 30
0.0
 11
6538.003547453704
 21
8199.753322994078
 31
0.0
  0
LINE
  5
197EA
330
1913F
100
AcDbEntity
  8
AF-21
100
AcDbLine
 10
6538.003547453704
 20
8199.753322994078
 30
0.0
 11
6538.003547453704
 21
8138.753322994077
 31
0.0
  0
ARC
  5
197EB
330
1913F
100
AcDbEntity
  8
AF-21
100
AcDbCircle
 10
6534.003547453703
 20
8138.753322994077
 30
0.0
 40
4.0
100
AcDbArc
 50
270.0
 51
0.0
  0
LINE
  5
197EC
330
1913F
100
AcDbEntity
  8
AF-21
100
AcDbLine
 10
6534.003547453703
 20
8134.753322994077
 30
0.0
 11
6523.003547453703
 21
8134.753322994077
 31
0.0
  0
LINE
  5
197ED
330
1913F
100
AcDbEntity
  8
AF-21
100
AcDbLine
 10
6523.003547453703
 20
8134.753322994077
 30
0.0
 11
6523.003547453703
 21
8199.753322994078
 31
0.0
  0
ARC
  5
197EE
330
1913F
100
AcDbEntity
  8
CF-301
100
AcDbCircle
 10
6500.003547453705
 20
8220.753322994076
 30
0.0
 40
5.0
100
AcDbArc
 50
0.0
 51
180.0
  0
LINE
  5
197EF
330
1913F
100
AcDbEntity
  8
CF-301
100
AcDbLine
 10
6495.003547453703
 20
8220.753322994076
 30
0.0
 11
6495.003547453703
 21
8218.753322994079
 31
0.0
  0
ARC
  5
197F0
330
1913F
100
AcDbEntity
  8
CF-301
100
AcDbCircle
 10
6500.003547453705
 20
8218.753322994079
 30
0.0
 40
5.0
100
AcDbArc
 50
180.0
 51
0.0
  0
LINE
  5
197F1
330
1913F
100
AcDbEntity
  8
CF-301
100
AcDbLine
 10
6505.003547453704
 20
8218.753322994079
 30
0.0
 11
6505.003547453704
 21
8220.753322994076
 31
0.0
  0
LINE
  5
197F2
330
1913F
100
AcDbEntity
  8
NJ-022
100
AcDbLine
 10
4869.253547453698
 20
9600.253322994078
 30
0.0
 11
4869.253547453698
 21
9595.253322994079
 31
0.0
  0
LINE
  5
197F3
330
1913F
100
AcDbEntity
  8
NJ-022
100
AcDbLine
 10
4869.253547453698
 20
9595.253322994079
 30
0.0
 11
4870.753547453698
 21
9595.253322994079
 31
0.0
  0
LINE
  5
197F4
330
1913F
100
AcDbEntity
  8
NJ-022
100
AcDbLine
 10
4870.753547453698
 20
9600.253322994078
 30
0.0
 11
4869.253547453698
 21
9600.253322994078
 31
0.0
  0
CIRCLE
  5
197F5
330
1913F
100
AcDbEntity
  8
NJ-022
100
AcDbCircle
 10
4900.003547453698
 20
9597.753322994078
 30
0.0
 40
4.75
  0
CIRCLE
  5
197F6
330
1913F
100
AcDbEntity
  8
NJ-022
100
AcDbCircle
 10
4900.003547453698
 20
9597.753322994078
 30
0.0
 40
8.0
  0
LINE
  5
197F7
330
1913F
100
AcDbEntity
  8
NJ-022
100
AcDbLine
 10
4930.753547453698
 20
9600.253322994078
 30
0.0
 11
4930.753547453698
 21
9595.253322994079
 31
0.0
  0
LINE
  5
197F8
330
1913F
100
AcDbEntity
  8
NJ-022
100
AcDbLine
 10
4930.753547453698
 20
9595.253322994079
 30
0.0
 11
4929.253547453698
 21
9595.253322994079
 31
0.0
  0
LINE
  5
197F9
330
1913F
100
AcDbEntity
  8
NJ-022
100
AcDbLine
 10
4929.253547453698
 20
9600.253322994078
 30
0.0
 11
4930.753547453698
 21
9600.253322994078
 31
0.0
  0
LINE
  5
197FA
330
1913F
100
AcDbEntity
  8
NJ-022
100
AcDbLine
 10
4929.253547453698
 20
9610.253322994079
 30
0.0
 11
4870.753547453698
 21
9610.253322994079
 31
0.0
  0
LINE
  5
197FB
330
1913F
100
AcDbEntity
  8
NJ-022
100
AcDbLine
 10
4870.753547453698
 20
9585.253322994079
 30
0.0
 11
4929.253547453698
 21
9585.253322994079
 31
0.0
  0
LINE
  5
197FC
330
1913F
100
AcDbEntity
  8
NJ-022
100
AcDbLine
 10
4870.753547453698
 20
9610.253322994079
 30
0.0
 11
4870.753547453698
 21
9585.253322994079
 31
0.0
  0
LINE
  5
197FD
330
1913F
100
AcDbEntity
  8
NJ-022
100
AcDbLine
 10
4887.253547453698
 20
9610.253322994079
 30
0.0
 11
4887.253547453698
 21
9585.253322994079
 31
0.0
  0
LINE
  5
197FE
330
1913F
100
AcDbEntity
  8
NJ-022
100
AcDbLine
 10
4912.753547453698
 20
9610.253322994079
 30
0.0
 11
4912.753547453698
 21
9585.253322994079
 31
0.0
  0
LINE
  5
197FF
330
1913F
100
AcDbEntity
  8
NJ-022
100
AcDbLine
 10
4929.253547453698
 20
9610.253322994079
 30
0.0
 11
4929.253547453698
 21
9585.253322994079
 31
0.0
  0
LINE
  5
19800
330
1913F
100
AcDbEntity
  8
NJ-022
100
AcDbLine
 10
5669.253547453699
 20
8222.553322994079
 30
0.0
 11
5669.253547453699
 21
8217.553322994078
 31
0.0
  0
LINE
  5
19801
330
1913F
100
AcDbEntity
  8
NJ-022
100
AcDbLine
 10
5669.253547453699
 20
8217.553322994078
 30
0.0
 11
5670.753547453699
 21
8217.553322994078
 31
0.0
  0
LINE
  5
19802
330
1913F
100
AcDbEntity
  8
NJ-022
100
AcDbLine
 10
5670.753547453699
 20
8222.553322994079
 30
0.0
 11
5669.253547453699
 21
8222.553322994079
 31
0.0
  0
CIRCLE
  5
19803
330
1913F
100
AcDbEntity
  8
NJ-022
100
AcDbCircle
 10
5700.003547453699
 20
8220.053322994077
 30
0.0
 40
4.75
  0
CIRCLE
  5
19804
330
1913F
100
AcDbEntity
  8
NJ-022
100
AcDbCircle
 10
5700.003547453699
 20
8220.053322994077
 30
0.0
 40
8.0
  0
LINE
  5
19805
330
1913F
100
AcDbEntity
  8
NJ-022
100
AcDbLine
 10
5730.753547453699
 20
8222.553322994079
 30
0.0
 11
5730.753547453699
 21
8217.553322994078
 31
0.0
  0
LINE
  5
19806
330
1913F
100
AcDbEntity
  8
NJ-022
100
AcDbLine
 10
5730.753547453699
 20
8217.553322994078
 30
0.0
 11
5729.253547453699
 21
8217.553322994078
 31
0.0
  0
LINE
  5
19807
330
1913F
100
AcDbEntity
  8
NJ-022
100
AcDbLine
 10
5729.253547453699
 20
8222.553322994079
 30
0.0
 11
5730.753547453699
 21
8222.553322994079
 31
0.0
  0
LINE
  5
19808
330
1913F
100
AcDbEntity
  8
NJ-022
100
AcDbLine
 10
5729.253547453699
 20
8232.553322994077
 30
0.0
 11
5670.753547453699
 21
8232.553322994077
 31
0.0
  0
LINE
  5
19809
330
1913F
100
AcDbEntity
  8
NJ-022
100
AcDbLine
 10
5670.753547453699
 20
8207.553322994078
 30
0.0
 11
5729.253547453699
 21
8207.553322994078
 31
0.0
  0
LINE
  5
1980A
330
1913F
100
AcDbEntity
  8
NJ-022
100
AcDbLine
 10
5670.753547453699
 20
8232.553322994077
 30
0.0
 11
5670.753547453699
 21
8207.553322994078
 31
0.0
  0
LINE
  5
1980B
330
1913F
100
AcDbEntity
  8
NJ-022
100
AcDbLine
 10
5687.253547453699
 20
8232.553322994077
 30
0.0
 11
5687.253547453699
 21
8207.553322994078
 31
0.0
  0
LINE
  5
1980C
330
1913F
100
AcDbEntity
  8
NJ-022
100
AcDbLine
 10
5712.753547453699
 20
8232.553322994077
 30
0.0
 11
5712.753547453699
 21
8207.553322994078
 31
0.0
  0
LINE
  5
1980D
330
1913F
100
AcDbEntity
  8
NJ-022
100
AcDbLine
 10
5729.253547453699
 20
8232.553322994077
 30
0.0
 11
5729.253547453699
 21
8207.553322994078
 31
0.0
  0
LINE
  5
1980E
330
1913F
100
AcDbEntity
  8
NJ-022
100
AcDbLine
 10
5269.253547453699
 20
9113.253322994079
 30
0.0
 11
5269.253547453699
 21
9108.253322994078
 31
0.0
  0
LINE
  5
1980F
330
1913F
100
AcDbEntity
  8
NJ-022
100
AcDbLine
 10
5269.253547453699
 20
9108.253322994078
 30
0.0
 11
5270.753547453699
 21
9108.253322994078
 31
0.0
  0
LINE
  5
19810
330
1913F
100
AcDbEntity
  8
NJ-022
100
AcDbLine
 10
5270.753547453699
 20
9113.253322994079
 30
0.0
 11
5269.253547453699
 21
9113.253322994079
 31
0.0
  0
CIRCLE
  5
19811
330
1913F
100
AcDbEntity
  8
NJ-022
100
AcDbCircle
 10
5300.003547453699
 20
9110.753322994078
 30
0.0
 40
4.75
  0
CIRCLE
  5
19812
330
1913F
100
AcDbEntity
  8
NJ-022
100
AcDbCircle
 10
5300.003547453699
 20
9110.753322994078
 30
0.0
 40
8.0
  0
LINE
  5
19813
330
1913F
100
AcDbEntity
  8
NJ-022
100
AcDbLine
 10
5330.753547453699
 20
9113.253322994079
 30
0.0
 11
5330.753547453699
 21
9108.253322994078
 31
0.0
  0
LINE
  5
19814
330
1913F
100
AcDbEntity
  8
NJ-022
100
AcDbLine
 10
5330.753547453699
 20
9108.253322994078
 30
0.0
 11
5329.253547453699
 21
9108.253322994078
 31
0.0
  0
LINE
  5
19815
330
1913F
100
AcDbEntity
  8
NJ-022
100
AcDbLine
 10
5329.253547453699
 20
9113.253322994079
 30
0.0
 11
5330.753547453699
 21
9113.253322994079
 31
0.0
  0
LINE
  5
19816
330
1913F
100
AcDbEntity
  8
NJ-022
100
AcDbLine
 10
5329.253547453699
 20
9123.253322994079
 30
0.0
 11
5270.753547453699
 21
9123.253322994079
 31
0.0
  0
LINE
  5
19817
330
1913F
100
AcDbEntity
  8
NJ-022
100
AcDbLine
 10
5270.753547453699
 20
9098.253322994079
 30
0.0
 11
5329.253547453699
 21
9098.253322994079
 31
0.0
  0
LINE
  5
19818
330
1913F
100
AcDbEntity
  8
NJ-022
100
AcDbLine
 10
5270.753547453699
 20
9123.253322994079
 30
0.0
 11
5270.753547453699
 21
9098.253322994079
 31
0.0
  0
LINE
  5
19819
330
1913F
100
AcDbEntity
  8
NJ-022
100
AcDbLine
 10
5287.253547453699
 20
9123.253322994079
 30
0.0
 11
5287.253547453699
 21
9098.253322994079
 31
0.0
  0
LINE
  5
1981A
330
1913F
100
AcDbEntity
  8
NJ-022
100
AcDbLine
 10
5312.753547453699
 20
9123.253322994079
 30
0.0
 11
5312.753547453699
 21
9098.253322994079
 31
0.0
  0
LINE
  5
1981B
330
1913F
100
AcDbEntity
  8
NJ-022
100
AcDbLine
 10
5329.253547453699
 20
9123.253322994079
 30
0.0
 11
5329.253547453699
 21
9098.253322994079
 31
0.0
  0
LINE
  5
1981C
330
1913F
100
AcDbEntity
  8
NJ-022
100
AcDbLine
 10
4869.253547453698
 20
9113.253322994079
 30
0.0
 11
4869.253547453698
 21
9108.253322994078
 31
0.0
  0
LINE
  5
1981D
330
1913F
100
AcDbEntity
  8
NJ-022
100
AcDbLine
 10
4869.253547453698
 20
9108.253322994078
 30
0.0
 11
4870.753547453698
 21
9108.253322994078
 31
0.0
  0
LINE
  5
1981E
330
1913F
100
AcDbEntity
  8
NJ-022
100
AcDbLine
 10
4870.753547453698
 20
9113.253322994079
 30
0.0
 11
4869.253547453698
 21
9113.253322994079
 31
0.0
  0
CIRCLE
  5
1981F
330
1913F
100
AcDbEntity
  8
NJ-022
100
AcDbCircle
 10
4900.003547453698
 20
9110.753322994078
 30
0.0
 40
4.75
  0
CIRCLE
  5
19820
330
1913F
100
AcDbEntity
  8
NJ-022
100
AcDbCircle
 10
4900.003547453698
 20
9110.753322994078
 30
0.0
 40
8.0
  0
LINE
  5
19821
330
1913F
100
AcDbEntity
  8
NJ-022
100
AcDbLine
 10
4930.753547453698
 20
9113.253322994079
 30
0.0
 11
4930.753547453698
 21
9108.253322994078
 31
0.0
  0
LINE
  5
19822
330
1913F
100
AcDbEntity
  8
NJ-022
100
AcDbLine
 10
4930.753547453698
 20
9108.253322994078
 30
0.0
 11
4929.253547453698
 21
9108.253322994078
 31
0.0
  0
LINE
  5
19823
330
1913F
100
AcDbEntity
  8
NJ-022
100
AcDbLine
 10
4929.253547453698
 20
9113.253322994079
 30
0.0
 11
4930.753547453698
 21
9113.253322994079
 31
0.0
  0
LINE
  5
19824
330
1913F
100
AcDbEntity
  8
NJ-022
100
AcDbLine
 10
4929.253547453698
 20
9123.253322994079
 30
0.0
 11
4870.753547453698
 21
9123.253322994079
 31
0.0
  0
LINE
  5
19825
330
1913F
100
AcDbEntity
  8
NJ-022
100
AcDbLine
 10
4870.753547453698
 20
9098.253322994079
 30
0.0
 11
4929.253547453698
 21
9098.253322994079
 31
0.0
  0
LINE
  5
19826
330
1913F
100
AcDbEntity
  8
NJ-022
100
AcDbLine
 10
4870.753547453698
 20
9123.253322994079
 30
0.0
 11
4870.753547453698
 21
9098.253322994079
 31
0.0
  0
LINE
  5
19827
330
1913F
100
AcDbEntity
  8
NJ-022
100
AcDbLine
 10
4887.253547453698
 20
9123.253322994079
 30
0.0
 11
4887.253547453698
 21
9098.253322994079
 31
0.0
  0
LINE
  5
19828
330
1913F
100
AcDbEntity
  8
NJ-022
100
AcDbLine
 10
4912.753547453698
 20
9123.253322994079
 30
0.0
 11
4912.753547453698
 21
9098.253322994079
 31
0.0
  0
LINE
  5
19829
330
1913F
100
AcDbEntity
  8
NJ-022
100
AcDbLine
 10
4929.253547453698
 20
9123.253322994079
 30
0.0
 11
4929.253547453698
 21
9098.253322994079
 31
0.0
  0
LINE
  5
1982A
330
1913F
100
AcDbEntity
  8
NJ-022
100
AcDbLine
 10
5269.253547453699
 20
8626.253322994079
 30
0.0
 11
5269.253547453699
 21
8621.253322994078
 31
0.0
  0
LINE
  5
1982B
330
1913F
100
AcDbEntity
  8
NJ-022
100
AcDbLine
 10
5269.253547453699
 20
8621.253322994078
 30
0.0
 11
5270.753547453699
 21
8621.253322994078
 31
0.0
  0
LINE
  5
1982C
330
1913F
100
AcDbEntity
  8
NJ-022
100
AcDbLine
 10
5270.753547453699
 20
8626.253322994079
 30
0.0
 11
5269.253547453699
 21
8626.253322994079
 31
0.0
  0
CIRCLE
  5
1982D
330
1913F
100
AcDbEntity
  8
NJ-022
100
AcDbCircle
 10
5300.003547453699
 20
8623.753322994078
 30
0.0
 40
4.75
  0
CIRCLE
  5
1982E
330
1913F
100
AcDbEntity
  8
NJ-022
100
AcDbCircle
 10
5300.003547453699
 20
8623.753322994078
 30
0.0
 40
8.0
  0
LINE
  5
1982F
330
1913F
100
AcDbEntity
  8
NJ-022
100
AcDbLine
 10
5330.753547453699
 20
8626.253322994079
 30
0.0
 11
5330.753547453699
 21
8621.253322994078
 31
0.0
  0
LINE
  5
19830
330
1913F
100
AcDbEntity
  8
NJ-022
100
AcDbLine
 10
5330.753547453699
 20
8621.253322994078
 30
0.0
 11
5329.253547453699
 21
8621.253322994078
 31
0.0
  0
LINE
  5
19831
330
1913F
100
AcDbEntity
  8
NJ-022
100
AcDbLine
 10
5329.253547453699
 20
8626.253322994079
 30
0.0
 11
5330.753547453699
 21
8626.253322994079
 31
0.0
  0
LINE
  5
19832
330
1913F
100
AcDbEntity
  8
NJ-022
100
AcDbLine
 10
5329.253547453699
 20
8636.253322994077
 30
0.0
 11
5270.753547453699
 21
8636.253322994077
 31
0.0
  0
LINE
  5
19833
330
1913F
100
AcDbEntity
  8
NJ-022
100
AcDbLine
 10
5270.753547453699
 20
8611.253322994079
 30
0.0
 11
5329.253547453699
 21
8611.253322994079
 31
0.0
  0
LINE
  5
19834
330
1913F
100
AcDbEntity
  8
NJ-022
100
AcDbLine
 10
5270.753547453699
 20
8636.253322994077
 30
0.0
 11
5270.753547453699
 21
8611.253322994079
 31
0.0
  0
LINE
  5
19835
330
1913F
100
AcDbEntity
  8
NJ-022
100
AcDbLine
 10
5287.253547453699
 20
8636.253322994077
 30
0.0
 11
5287.253547453699
 21
8611.253322994079
 31
0.0
  0
LINE
  5
19836
330
1913F
100
AcDbEntity
  8
NJ-022
100
AcDbLine
 10
5312.753547453699
 20
8636.253322994077
 30
0.0
 11
5312.753547453699
 21
8611.253322994079
 31
0.0
  0
LINE
  5
19837
330
1913F
100
AcDbEntity
  8
NJ-022
100
AcDbLine
 10
5329.253547453699
 20
8636.253322994077
 30
0.0
 11
5329.253547453699
 21
8611.253322994079
 31
0.0
  0
LINE
  5
19838
330
1913F
100
AcDbEntity
  8
NJ-022
100
AcDbLine
 10
5269.253547453699
 20
8222.553322994079
 30
0.0
 11
5269.253547453699
 21
8217.553322994078
 31
0.0
  0
LINE
  5
19839
330
1913F
100
AcDbEntity
  8
NJ-022
100
AcDbLine
 10
5269.253547453699
 20
8217.553322994078
 30
0.0
 11
5270.753547453699
 21
8217.553322994078
 31
0.0
  0
LINE
  5
1983A
330
1913F
100
AcDbEntity
  8
NJ-022
100
AcDbLine
 10
5270.753547453699
 20
8222.553322994079
 30
0.0
 11
5269.253547453699
 21
8222.553322994079
 31
0.0
  0
CIRCLE
  5
1983B
330
1913F
100
AcDbEntity
  8
NJ-022
100
AcDbCircle
 10
5300.003547453699
 20
8220.053322994077
 30
0.0
 40
4.75
  0
CIRCLE
  5
1983C
330
1913F
100
AcDbEntity
  8
NJ-022
100
AcDbCircle
 10
5300.003547453699
 20
8220.053322994077
 30
0.0
 40
8.0
  0
LINE
  5
1983D
330
1913F
100
AcDbEntity
  8
NJ-022
100
AcDbLine
 10
5330.753547453699
 20
8222.553322994079
 30
0.0
 11
5330.753547453699
 21
8217.553322994078
 31
0.0
  0
LINE
  5
1983E
330
1913F
100
AcDbEntity
  8
NJ-022
100
AcDbLine
 10
5330.753547453699
 20
8217.553322994078
 30
0.0
 11
5329.253547453699
 21
8217.553322994078
 31
0.0
  0
LINE
  5
1983F
330
1913F
100
AcDbEntity
  8
NJ-022
100
AcDbLine
 10
5329.253547453699
 20
8222.553322994079
 30
0.0
 11
5330.753547453699
 21
8222.553322994079
 31
0.0
  0
LINE
  5
19840
330
1913F
100
AcDbEntity
  8
NJ-022
100
AcDbLine
 10
5329.253547453699
 20
8232.553322994077
 30
0.0
 11
5270.753547453699
 21
8232.553322994077
 31
0.0
  0
LINE
  5
19841
330
1913F
100
AcDbEntity
  8
NJ-022
100
AcDbLine
 10
5270.753547453699
 20
8207.553322994078
 30
0.0
 11
5329.253547453699
 21
8207.553322994078
 31
0.0
  0
LINE
  5
19842
330
1913F
100
AcDbEntity
  8
NJ-022
100
AcDbLine
 10
5270.753547453699
 20
8232.553322994077
 30
0.0
 11
5270.753547453699
 21
8207.553322994078
 31
0.0
  0
LINE
  5
19843
330
1913F
100
AcDbEntity
  8
NJ-022
100
AcDbLine
 10
5287.253547453699
 20
8232.553322994077
 30
0.0
 11
5287.253547453699
 21
8207.553322994078
 31
0.0
  0
LINE
  5
19844
330
1913F
100
AcDbEntity
  8
NJ-022
100
AcDbLine
 10
5312.753547453699
 20
8232.553322994077
 30
0.0
 11
5312.753547453699
 21
8207.553322994078
 31
0.0
  0
LINE
  5
19845
330
1913F
100
AcDbEntity
  8
NJ-022
100
AcDbLine
 10
5329.253547453699
 20
8232.553322994077
 30
0.0
 11
5329.253547453699
 21
8207.553322994078
 31
0.0
  0
LINE
  5
19846
330
1913F
100
AcDbEntity
  8
NJ-022
100
AcDbLine
 10
4869.253547453698
 20
8626.253322994079
 30
0.0
 11
4869.253547453698
 21
8621.253322994078
 31
0.0
  0
LINE
  5
19847
330
1913F
100
AcDbEntity
  8
NJ-022
100
AcDbLine
 10
4869.253547453698
 20
8621.253322994078
 30
0.0
 11
4870.753547453698
 21
8621.253322994078
 31
0.0
  0
LINE
  5
19848
330
1913F
100
AcDbEntity
  8
NJ-022
100
AcDbLine
 10
4870.753547453698
 20
8626.253322994079
 30
0.0
 11
4869.253547453698
 21
8626.253322994079
 31
0.0
  0
CIRCLE
  5
19849
330
1913F
100
AcDbEntity
  8
NJ-022
100
AcDbCircle
 10
4900.003547453698
 20
8623.753322994078
 30
0.0
 40
4.75
  0
CIRCLE
  5
1984A
330
1913F
100
AcDbEntity
  8
NJ-022
100
AcDbCircle
 10
4900.003547453698
 20
8623.753322994078
 30
0.0
 40
8.0
  0
LINE
  5
1984B
330
1913F
100
AcDbEntity
  8
NJ-022
100
AcDbLine
 10
4930.753547453698
 20
8626.253322994079
 30
0.0
 11
4930.753547453698
 21
8621.253322994078
 31
0.0
  0
LINE
  5
1984C
330
1913F
100
AcDbEntity
  8
NJ-022
100
AcDbLine
 10
4930.753547453698
 20
8621.253322994078
 30
0.0
 11
4929.253547453698
 21
8621.253322994078
 31
0.0
  0
LINE
  5
1984D
330
1913F
100
AcDbEntity
  8
NJ-022
100
AcDbLine
 10
4929.253547453698
 20
8626.253322994079
 30
0.0
 11
4930.753547453698
 21
8626.253322994079
 31
0.0
  0
LINE
  5
1984E
330
1913F
100
AcDbEntity
  8
NJ-022
100
AcDbLine
 10
4929.253547453698
 20
8636.253322994077
 30
0.0
 11
4870.753547453698
 21
8636.253322994077
 31
0.0
  0
LINE
  5
1984F
330
1913F
100
AcDbEntity
  8
NJ-022
100
AcDbLine
 10
4870.753547453698
 20
8611.253322994079
 30
0.0
 11
4929.253547453698
 21
8611.253322994079
 31
0.0
  0
LINE
  5
19850
330
1913F
100
AcDbEntity
  8
NJ-022
100
AcDbLine
 10
4870.753547453698
 20
8636.253322994077
 30
0.0
 11
4870.753547453698
 21
8611.253322994079
 31
0.0
  0
LINE
  5
19851
330
1913F
100
AcDbEntity
  8
NJ-022
100
AcDbLine
 10
4887.253547453698
 20
8636.253322994077
 30
0.0
 11
4887.253547453698
 21
8611.253322994079
 31
0.0
  0
LINE
  5
19852
330
1913F
100
AcDbEntity
  8
NJ-022
100
AcDbLine
 10
4912.753547453698
 20
8636.253322994077
 30
0.0
 11
4912.753547453698
 21
8611.253322994079
 31
0.0
  0
LINE
  5
19853
330
1913F
100
AcDbEntity
  8
NJ-022
100
AcDbLine
 10
4929.253547453698
 20
8636.253322994077
 30
0.0
 11
4929.253547453698
 21
8611.253322994079
 31
0.0
  0
LINE
  5
19854
330
1913F
100
AcDbEntity
  8
NJ-022
100
AcDbLine
 10
4869.253547453698
 20
8222.553322994079
 30
0.0
 11
4869.253547453698
 21
8217.553322994078
 31
0.0
  0
LINE
  5
19855
330
1913F
100
AcDbEntity
  8
NJ-022
100
AcDbLine
 10
4869.253547453698
 20
8217.553322994078
 30
0.0
 11
4870.753547453698
 21
8217.553322994078
 31
0.0
  0
LINE
  5
19856
330
1913F
100
AcDbEntity
  8
NJ-022
100
AcDbLine
 10
4870.753547453698
 20
8222.553322994079
 30
0.0
 11
4869.253547453698
 21
8222.553322994079
 31
0.0
  0
CIRCLE
  5
19857
330
1913F
100
AcDbEntity
  8
NJ-022
100
AcDbCircle
 10
4900.003547453698
 20
8220.053322994077
 30
0.0
 40
4.75
  0
CIRCLE
  5
19858
330
1913F
100
AcDbEntity
  8
NJ-022
100
AcDbCircle
 10
4900.003547453698
 20
8220.053322994077
 30
0.0
 40
8.0
  0
LINE
  5
19859
330
1913F
100
AcDbEntity
  8
NJ-022
100
AcDbLine
 10
4930.753547453698
 20
8222.553322994079
 30
0.0
 11
4930.753547453698
 21
8217.553322994078
 31
0.0
  0
LINE
  5
1985A
330
1913F
100
AcDbEntity
  8
NJ-022
100
AcDbLine
 10
4930.753547453698
 20
8217.553322994078
 30
0.0
 11
4929.253547453698
 21
8217.553322994078
 31
0.0
  0
LINE
  5
1985B
330
1913F
100
AcDbEntity
  8
NJ-022
100
AcDbLine
 10
4929.253547453698
 20
8222.553322994079
 30
0.0
 11
4930.753547453698
 21
8222.553322994079
 31
0.0
  0
LINE
  5
1985C
330
1913F
100
AcDbEntity
  8
NJ-022
100
AcDbLine
 10
4929.253547453698
 20
8232.553322994077
 30
0.0
 11
4870.753547453698
 21
8232.553322994077
 31
0.0
  0
LINE
  5
1985D
330
1913F
100
AcDbEntity
  8
NJ-022
100
AcDbLine
 10
4870.753547453698
 20
8207.553322994078
 30
0.0
 11
4929.253547453698
 21
8207.553322994078
 31
0.0
  0
LINE
  5
1985E
330
1913F
100
AcDbEntity
  8
NJ-022
100
AcDbLine
 10
4870.753547453698
 20
8232.553322994077
 30
0.0
 11
4870.753547453698
 21
8207.553322994078
 31
0.0
  0
LINE
  5
1985F
330
1913F
100
AcDbEntity
  8
NJ-022
100
AcDbLine
 10
4887.253547453698
 20
8232.553322994077
 30
0.0
 11
4887.253547453698
 21
8207.553322994078
 31
0.0
  0
LINE
  5
19860
330
1913F
100
AcDbEntity
  8
NJ-022
100
AcDbLine
 10
4912.753547453698
 20
8232.553322994077
 30
0.0
 11
4912.753547453698
 21
8207.553322994078
 31
0.0
  0
LINE
  5
19861
330
1913F
100
AcDbEntity
  8
NJ-022
100
AcDbLine
 10
4929.253547453698
 20
8232.553322994077
 30
0.0
 11
4929.253547453698
 21
8207.553322994078
 31
0.0
  0
LINE
  5
19862
330
1913F
100
AcDbEntity
  8
NJ-022
100
AcDbLine
 10
4512.753547453698
 20
10106.80332299407
 30
0.0
 11
4487.253547453698
 21
10106.80332299407
 31
0.0
  0
LINE
  5
19863
330
1913F
100
AcDbEntity
  8
NJ-022
100
AcDbLine
 10
4470.753547453698
 20
10091.30332299406
 30
0.0
 11
4529.253547453698
 21
10091.30332299406
 31
0.0
  0
LINE
  5
19864
330
1913F
100
AcDbEntity
  8
NJ-022
100
AcDbLine
 10
4470.753547453698
 20
10091.30332299406
 30
0.0
 11
4470.753547453698
 21
10092.30332299407
 31
0.0
  0
LINE
  5
19865
330
1913F
100
AcDbEntity
  8
NJ-022
100
AcDbLine
 10
4470.753547453698
 20
10092.30332299407
 30
0.0
 11
4487.253547453698
 21
10106.80332299407
 31
0.0
  0
LINE
  5
19866
330
1913F
100
AcDbEntity
  8
NJ-022
100
AcDbLine
 10
4529.253547453698
 20
10091.30332299406
 30
0.0
 11
4529.253547453698
 21
10092.30332299407
 31
0.0
  0
LINE
  5
19867
330
1913F
100
AcDbEntity
  8
NJ-022
100
AcDbLine
 10
4529.253547453698
 20
10092.30332299407
 30
0.0
 11
4512.753547453698
 21
10106.80332299407
 31
0.0
  0
LINE
  5
19868
330
1913F
100
AcDbEntity
  8
NJ-022
100
AcDbLine
 10
4469.253547453698
 20
9600.253322994078
 30
0.0
 11
4469.253547453698
 21
9595.253322994079
 31
0.0
  0
LINE
  5
19869
330
1913F
100
AcDbEntity
  8
NJ-022
100
AcDbLine
 10
4469.253547453698
 20
9595.253322994079
 30
0.0
 11
4470.753547453698
 21
9595.253322994079
 31
0.0
  0
LINE
  5
1986A
330
1913F
100
AcDbEntity
  8
NJ-022
100
AcDbLine
 10
4470.753547453698
 20
9600.253322994078
 30
0.0
 11
4469.253547453698
 21
9600.253322994078
 31
0.0
  0
CIRCLE
  5
1986B
330
1913F
100
AcDbEntity
  8
NJ-022
100
AcDbCircle
 10
4500.003547453697
 20
9597.753322994078
 30
0.0
 40
4.75
  0
CIRCLE
  5
1986C
330
1913F
100
AcDbEntity
  8
NJ-022
100
AcDbCircle
 10
4500.003547453697
 20
9597.753322994078
 30
0.0
 40
8.0
  0
LINE
  5
1986D
330
1913F
100
AcDbEntity
  8
NJ-022
100
AcDbLine
 10
4530.753547453698
 20
9600.253322994078
 30
0.0
 11
4530.753547453698
 21
9595.253322994079
 31
0.0
  0
LINE
  5
1986E
330
1913F
100
AcDbEntity
  8
NJ-022
100
AcDbLine
 10
4530.753547453698
 20
9595.253322994079
 30
0.0
 11
4529.253547453698
 21
9595.253322994079
 31
0.0
  0
LINE
  5
1986F
330
1913F
100
AcDbEntity
  8
NJ-022
100
AcDbLine
 10
4529.253547453698
 20
9600.253322994078
 30
0.0
 11
4530.753547453698
 21
9600.253322994078
 31
0.0
  0
LINE
  5
19870
330
1913F
100
AcDbEntity
  8
NJ-022
100
AcDbLine
 10
4529.253547453698
 20
9610.253322994079
 30
0.0
 11
4470.753547453698
 21
9610.253322994079
 31
0.0
  0
LINE
  5
19871
330
1913F
100
AcDbEntity
  8
NJ-022
100
AcDbLine
 10
4470.753547453698
 20
9585.253322994079
 30
0.0
 11
4529.253547453698
 21
9585.253322994079
 31
0.0
  0
LINE
  5
19872
330
1913F
100
AcDbEntity
  8
NJ-022
100
AcDbLine
 10
4470.753547453698
 20
9610.253322994079
 30
0.0
 11
4470.753547453698
 21
9585.253322994079
 31
0.0
  0
LINE
  5
19873
330
1913F
100
AcDbEntity
  8
NJ-022
100
AcDbLine
 10
4487.253547453698
 20
9610.253322994079
 30
0.0
 11
4487.253547453698
 21
9585.253322994079
 31
0.0
  0
LINE
  5
19874
330
1913F
100
AcDbEntity
  8
NJ-022
100
AcDbLine
 10
4512.753547453698
 20
9610.253322994079
 30
0.0
 11
4512.753547453698
 21
9585.253322994079
 31
0.0
  0
LINE
  5
19875
330
1913F
100
AcDbEntity
  8
NJ-022
100
AcDbLine
 10
4529.253547453698
 20
9610.253322994079
 30
0.0
 11
4529.253547453698
 21
9585.253322994079
 31
0.0
  0
LINE
  5
19876
330
1913F
100
AcDbEntity
  8
NJ-022
100
AcDbLine
 10
4112.753547453698
 20
10106.80332299407
 30
0.0
 11
4087.253547453697
 21
10106.80332299407
 31
0.0
  0
LINE
  5
19877
330
1913F
100
AcDbEntity
  8
NJ-022
100
AcDbLine
 10
4070.753547453698
 20
10091.30332299406
 30
0.0
 11
4129.253547453698
 21
10091.30332299406
 31
0.0
  0
LINE
  5
19878
330
1913F
100
AcDbEntity
  8
NJ-022
100
AcDbLine
 10
4070.753547453698
 20
10091.30332299406
 30
0.0
 11
4070.753547453698
 21
10092.30332299407
 31
0.0
  0
LINE
  5
19879
330
1913F
100
AcDbEntity
  8
NJ-022
100
AcDbLine
 10
4070.753547453698
 20
10092.30332299407
 30
0.0
 11
4087.253547453697
 21
10106.80332299407
 31
0.0
  0
LINE
  5
1987A
330
1913F
100
AcDbEntity
  8
NJ-022
100
AcDbLine
 10
4129.253547453698
 20
10091.30332299406
 30
0.0
 11
4129.253547453698
 21
10092.30332299407
 31
0.0
  0
LINE
  5
1987B
330
1913F
100
AcDbEntity
  8
NJ-022
100
AcDbLine
 10
4129.253547453698
 20
10092.30332299407
 30
0.0
 11
4112.753547453698
 21
10106.80332299407
 31
0.0
  0
LINE
  5
1987C
330
1913F
100
AcDbEntity
  8
NJ-022
100
AcDbLine
 10
4069.253547453698
 20
9600.253322994078
 30
0.0
 11
4069.253547453698
 21
9595.253322994079
 31
0.0
  0
LINE
  5
1987D
330
1913F
100
AcDbEntity
  8
NJ-022
100
AcDbLine
 10
4069.253547453698
 20
9595.253322994079
 30
0.0
 11
4070.753547453698
 21
9595.253322994079
 31
0.0
  0
LINE
  5
1987E
330
1913F
100
AcDbEntity
  8
NJ-022
100
AcDbLine
 10
4070.753547453698
 20
9600.253322994078
 30
0.0
 11
4069.253547453698
 21
9600.253322994078
 31
0.0
  0
CIRCLE
  5
1987F
330
1913F
100
AcDbEntity
  8
NJ-022
100
AcDbCircle
 10
4100.003547453698
 20
9597.753322994078
 30
0.0
 40
4.75
  0
CIRCLE
  5
19880
330
1913F
100
AcDbEntity
  8
NJ-022
100
AcDbCircle
 10
4100.003547453698
 20
9597.753322994078
 30
0.0
 40
8.0
  0
LINE
  5
19881
330
1913F
100
AcDbEntity
  8
NJ-022
100
AcDbLine
 10
4130.753547453698
 20
9600.253322994078
 30
0.0
 11
4130.753547453698
 21
9595.253322994079
 31
0.0
  0
LINE
  5
19882
330
1913F
100
AcDbEntity
  8
NJ-022
100
AcDbLine
 10
4130.753547453698
 20
9595.253322994079
 30
0.0
 11
4129.253547453698
 21
9595.253322994079
 31
0.0
  0
LINE
  5
19883
330
1913F
100
AcDbEntity
  8
NJ-022
100
AcDbLine
 10
4129.253547453698
 20
9600.253322994078
 30
0.0
 11
4130.753547453698
 21
9600.253322994078
 31
0.0
  0
LINE
  5
19884
330
1913F
100
AcDbEntity
  8
NJ-022
100
AcDbLine
 10
4129.253547453698
 20
9610.253322994079
 30
0.0
 11
4070.753547453698
 21
9610.253322994079
 31
0.0
  0
LINE
  5
19885
330
1913F
100
AcDbEntity
  8
NJ-022
100
AcDbLine
 10
4070.753547453698
 20
9585.253322994079
 30
0.0
 11
4129.253547453698
 21
9585.253322994079
 31
0.0
  0
LINE
  5
19886
330
1913F
100
AcDbEntity
  8
NJ-022
100
AcDbLine
 10
4070.753547453698
 20
9610.253322994079
 30
0.0
 11
4070.753547453698
 21
9585.253322994079
 31
0.0
  0
LINE
  5
19887
330
1913F
100
AcDbEntity
  8
NJ-022
100
AcDbLine
 10
4087.253547453697
 20
9610.253322994079
 30
0.0
 11
4087.253547453697
 21
9585.253322994079
 31
0.0
  0
LINE
  5
19888
330
1913F
100
AcDbEntity
  8
NJ-022
100
AcDbLine
 10
4112.753547453698
 20
9610.253322994079
 30
0.0
 11
4112.753547453698
 21
9585.253322994079
 31
0.0
  0
LINE
  5
19889
330
1913F
100
AcDbEntity
  8
NJ-022
100
AcDbLine
 10
4129.253547453698
 20
9610.253322994079
 30
0.0
 11
4129.253547453698
 21
9585.253322994079
 31
0.0
  0
LINE
  5
1988A
330
1913F
100
AcDbEntity
  8
CF-504
100
AcDbLine
 10
4300.003547453697
 20
9581.753322994078
 30
0.0
 11
4065.003547453699
 21
9581.753322994078
 31
0.0
  0
LINE
  5
1988B
330
1913F
100
AcDbEntity
  8
CF-504
100
AcDbLine
 10
4065.003547453699
 20
9581.753322994078
 30
0.0
 11
4065.003547453699
 21
9614.753322994079
 31
0.0
  0
LINE
  5
1988C
330
1913F
100
AcDbEntity
  8
CF-504
100
AcDbLine
 10
4065.003547453699
 20
9614.753322994079
 30
0.0
 11
4300.003547453697
 21
9614.753322994079
 31
0.0
  0
LINE
  5
1988D
330
1913F
100
AcDbEntity
  8
CF-504
100
AcDbLine
 10
4300.003547453697
 20
9614.753322994079
 30
0.0
 11
4300.003547453697
 21
9581.753322994078
 31
0.0
  0
LINE
  5
1988E
330
1913F
100
AcDbEntity
  8
NJ-022
100
AcDbLine
 10
4469.253547453698
 20
9113.253322994079
 30
0.0
 11
4469.253547453698
 21
9108.253322994078
 31
0.0
  0
LINE
  5
1988F
330
1913F
100
AcDbEntity
  8
NJ-022
100
AcDbLine
 10
4469.253547453698
 20
9108.253322994078
 30
0.0
 11
4470.753547453698
 21
9108.253322994078
 31
0.0
  0
LINE
  5
19890
330
1913F
100
AcDbEntity
  8
NJ-022
100
AcDbLine
 10
4470.753547453698
 20
9113.253322994079
 30
0.0
 11
4469.253547453698
 21
9113.253322994079
 31
0.0
  0
CIRCLE
  5
19891
330
1913F
100
AcDbEntity
  8
NJ-022
100
AcDbCircle
 10
4500.003547453697
 20
9110.753322994078
 30
0.0
 40
4.75
  0
CIRCLE
  5
19892
330
1913F
100
AcDbEntity
  8
NJ-022
100
AcDbCircle
 10
4500.003547453697
 20
9110.753322994078
 30
0.0
 40
8.0
  0
LINE
  5
19893
330
1913F
100
AcDbEntity
  8
NJ-022
100
AcDbLine
 10
4530.753547453698
 20
9113.253322994079
 30
0.0
 11
4530.753547453698
 21
9108.253322994078
 31
0.0
  0
LINE
  5
19894
330
1913F
100
AcDbEntity
  8
NJ-022
100
AcDbLine
 10
4530.753547453698
 20
9108.253322994078
 30
0.0
 11
4529.253547453698
 21
9108.253322994078
 31
0.0
  0
LINE
  5
19895
330
1913F
100
AcDbEntity
  8
NJ-022
100
AcDbLine
 10
4529.253547453698
 20
9113.253322994079
 30
0.0
 11
4530.753547453698
 21
9113.253322994079
 31
0.0
  0
LINE
  5
19896
330
1913F
100
AcDbEntity
  8
NJ-022
100
AcDbLine
 10
4529.253547453698
 20
9123.253322994079
 30
0.0
 11
4470.753547453698
 21
9123.253322994079
 31
0.0
  0
LINE
  5
19897
330
1913F
100
AcDbEntity
  8
NJ-022
100
AcDbLine
 10
4470.753547453698
 20
9098.253322994079
 30
0.0
 11
4529.253547453698
 21
9098.253322994079
 31
0.0
  0
LINE
  5
19898
330
1913F
100
AcDbEntity
  8
NJ-022
100
AcDbLine
 10
4470.753547453698
 20
9123.253322994079
 30
0.0
 11
4470.753547453698
 21
9098.253322994079
 31
0.0
  0
LINE
  5
19899
330
1913F
100
AcDbEntity
  8
NJ-022
100
AcDbLine
 10
4487.253547453698
 20
9123.253322994079
 30
0.0
 11
4487.253547453698
 21
9098.253322994079
 31
0.0
  0
LINE
  5
1989A
330
1913F
100
AcDbEntity
  8
NJ-022
100
AcDbLine
 10
4512.753547453698
 20
9123.253322994079
 30
0.0
 11
4512.753547453698
 21
9098.253322994079
 31
0.0
  0
LINE
  5
1989B
330
1913F
100
AcDbEntity
  8
NJ-022
100
AcDbLine
 10
4529.253547453698
 20
9123.253322994079
 30
0.0
 11
4529.253547453698
 21
9098.253322994079
 31
0.0
  0
LINE
  5
1989C
330
1913F
100
AcDbEntity
  8
NJ-022
100
AcDbLine
 10
4069.253547453698
 20
9113.253322994079
 30
0.0
 11
4069.253547453698
 21
9108.253322994078
 31
0.0
  0
LINE
  5
1989D
330
1913F
100
AcDbEntity
  8
NJ-022
100
AcDbLine
 10
4069.253547453698
 20
9108.253322994078
 30
0.0
 11
4070.753547453698
 21
9108.253322994078
 31
0.0
  0
LINE
  5
1989E
330
1913F
100
AcDbEntity
  8
NJ-022
100
AcDbLine
 10
4070.753547453698
 20
9113.253322994079
 30
0.0
 11
4069.253547453698
 21
9113.253322994079
 31
0.0
  0
CIRCLE
  5
1989F
330
1913F
100
AcDbEntity
  8
NJ-022
100
AcDbCircle
 10
4100.003547453698
 20
9110.753322994078
 30
0.0
 40
4.75
  0
CIRCLE
  5
198A0
330
1913F
100
AcDbEntity
  8
NJ-022
100
AcDbCircle
 10
4100.003547453698
 20
9110.753322994078
 30
0.0
 40
8.0
  0
LINE
  5
198A1
330
1913F
100
AcDbEntity
  8
NJ-022
100
AcDbLine
 10
4130.753547453698
 20
9113.253322994079
 30
0.0
 11
4130.753547453698
 21
9108.253322994078
 31
0.0
  0
LINE
  5
198A2
330
1913F
100
AcDbEntity
  8
NJ-022
100
AcDbLine
 10
4130.753547453698
 20
9108.253322994078
 30
0.0
 11
4129.253547453698
 21
9108.253322994078
 31
0.0
  0
LINE
  5
198A3
330
1913F
100
AcDbEntity
  8
NJ-022
100
AcDbLine
 10
4129.253547453698
 20
9113.253322994079
 30
0.0
 11
4130.753547453698
 21
9113.253322994079
 31
0.0
  0
LINE
  5
198A4
330
1913F
100
AcDbEntity
  8
NJ-022
100
AcDbLine
 10
4129.253547453698
 20
9123.253322994079
 30
0.0
 11
4070.753547453698
 21
9123.253322994079
 31
0.0
  0
LINE
  5
198A5
330
1913F
100
AcDbEntity
  8
NJ-022
100
AcDbLine
 10
4070.753547453698
 20
9098.253322994079
 30
0.0
 11
4129.253547453698
 21
9098.253322994079
 31
0.0
  0
LINE
  5
198A6
330
1913F
100
AcDbEntity
  8
NJ-022
100
AcDbLine
 10
4070.753547453698
 20
9123.253322994079
 30
0.0
 11
4070.753547453698
 21
9098.253322994079
 31
0.0
  0
LINE
  5
198A7
330
1913F
100
AcDbEntity
  8
NJ-022
100
AcDbLine
 10
4087.253547453697
 20
9123.253322994079
 30
0.0
 11
4087.253547453697
 21
9098.253322994079
 31
0.0
  0
LINE
  5
198A8
330
1913F
100
AcDbEntity
  8
NJ-022
100
AcDbLine
 10
4112.753547453698
 20
9123.253322994079
 30
0.0
 11
4112.753547453698
 21
9098.253322994079
 31
0.0
  0
LINE
  5
198A9
330
1913F
100
AcDbEntity
  8
NJ-022
100
AcDbLine
 10
4129.253547453698
 20
9123.253322994079
 30
0.0
 11
4129.253547453698
 21
9098.253322994079
 31
0.0
  0
LINE
  5
198AA
330
1913F
100
AcDbEntity
  8
CF-504
100
AcDbLine
 10
4300.003547453697
 20
9094.753322994073
 30
0.0
 11
4065.003547453699
 21
9094.753322994073
 31
0.0
  0
LINE
  5
198AB
330
1913F
100
AcDbEntity
  8
CF-504
100
AcDbLine
 10
4065.003547453699
 20
9094.753322994073
 30
0.0
 11
4065.003547453699
 21
9127.753322994079
 31
0.0
  0
LINE
  5
198AC
330
1913F
100
AcDbEntity
  8
CF-504
100
AcDbLine
 10
4065.003547453699
 20
9127.753322994079
 30
0.0
 11
4300.003547453697
 21
9127.753322994079
 31
0.0
  0
LINE
  5
198AD
330
1913F
100
AcDbEntity
  8
CF-504
100
AcDbLine
 10
4300.003547453697
 20
9127.753322994079
 30
0.0
 11
4300.003547453697
 21
9094.753322994073
 31
0.0
  0
LINE
  5
198AE
330
1913F
100
AcDbEntity
  8
NJ-022
100
AcDbLine
 10
4469.253547453698
 20
8626.253322994079
 30
0.0
 11
4469.253547453698
 21
8621.253322994078
 31
0.0
  0
LINE
  5
198AF
330
1913F
100
AcDbEntity
  8
NJ-022
100
AcDbLine
 10
4469.253547453698
 20
8621.253322994078
 30
0.0
 11
4470.753547453698
 21
8621.253322994078
 31
0.0
  0
LINE
  5
198B0
330
1913F
100
AcDbEntity
  8
NJ-022
100
AcDbLine
 10
4470.753547453698
 20
8626.253322994079
 30
0.0
 11
4469.253547453698
 21
8626.253322994079
 31
0.0
  0
CIRCLE
  5
198B1
330
1913F
100
AcDbEntity
  8
NJ-022
100
AcDbCircle
 10
4500.003547453697
 20
8623.753322994078
 30
0.0
 40
4.75
  0
CIRCLE
  5
198B2
330
1913F
100
AcDbEntity
  8
NJ-022
100
AcDbCircle
 10
4500.003547453697
 20
8623.753322994078
 30
0.0
 40
8.0
  0
LINE
  5
198B3
330
1913F
100
AcDbEntity
  8
NJ-022
100
AcDbLine
 10
4530.753547453698
 20
8626.253322994079
 30
0.0
 11
4530.753547453698
 21
8621.253322994078
 31
0.0
  0
LINE
  5
198B4
330
1913F
100
AcDbEntity
  8
NJ-022
100
AcDbLine
 10
4530.753547453698
 20
8621.253322994078
 30
0.0
 11
4529.253547453698
 21
8621.253322994078
 31
0.0
  0
LINE
  5
198B5
330
1913F
100
AcDbEntity
  8
NJ-022
100
AcDbLine
 10
4529.253547453698
 20
8626.253322994079
 30
0.0
 11
4530.753547453698
 21
8626.253322994079
 31
0.0
  0
LINE
  5
198B6
330
1913F
100
AcDbEntity
  8
NJ-022
100
AcDbLine
 10
4529.253547453698
 20
8636.253322994077
 30
0.0
 11
4470.753547453698
 21
8636.253322994077
 31
0.0
  0
LINE
  5
198B7
330
1913F
100
AcDbEntity
  8
NJ-022
100
AcDbLine
 10
4470.753547453698
 20
8611.253322994079
 30
0.0
 11
4529.253547453698
 21
8611.253322994079
 31
0.0
  0
LINE
  5
198B8
330
1913F
100
AcDbEntity
  8
NJ-022
100
AcDbLine
 10
4470.753547453698
 20
8636.253322994077
 30
0.0
 11
4470.753547453698
 21
8611.253322994079
 31
0.0
  0
LINE
  5
198B9
330
1913F
100
AcDbEntity
  8
NJ-022
100
AcDbLine
 10
4487.253547453698
 20
8636.253322994077
 30
0.0
 11
4487.253547453698
 21
8611.253322994079
 31
0.0
  0
LINE
  5
198BA
330
1913F
100
AcDbEntity
  8
NJ-022
100
AcDbLine
 10
4512.753547453698
 20
8636.253322994077
 30
0.0
 11
4512.753547453698
 21
8611.253322994079
 31
0.0
  0
LINE
  5
198BB
330
1913F
100
AcDbEntity
  8
NJ-022
100
AcDbLine
 10
4529.253547453698
 20
8636.253322994077
 30
0.0
 11
4529.253547453698
 21
8611.253322994079
 31
0.0
  0
LINE
  5
198BC
330
1913F
100
AcDbEntity
  8
NJ-022
100
AcDbLine
 10
4469.253547453698
 20
8222.553322994079
 30
0.0
 11
4469.253547453698
 21
8217.553322994078
 31
0.0
  0
LINE
  5
198BD
330
1913F
100
AcDbEntity
  8
NJ-022
100
AcDbLine
 10
4469.253547453698
 20
8217.553322994078
 30
0.0
 11
4470.753547453698
 21
8217.553322994078
 31
0.0
  0
LINE
  5
198BE
330
1913F
100
AcDbEntity
  8
NJ-022
100
AcDbLine
 10
4470.753547453698
 20
8222.553322994079
 30
0.0
 11
4469.253547453698
 21
8222.553322994079
 31
0.0
  0
CIRCLE
  5
198BF
330
1913F
100
AcDbEntity
  8
NJ-022
100
AcDbCircle
 10
4500.003547453697
 20
8220.053322994077
 30
0.0
 40
4.75
  0
CIRCLE
  5
198C0
330
1913F
100
AcDbEntity
  8
NJ-022
100
AcDbCircle
 10
4500.003547453697
 20
8220.053322994077
 30
0.0
 40
8.0
  0
LINE
  5
198C1
330
1913F
100
AcDbEntity
  8
NJ-022
100
AcDbLine
 10
4530.753547453698
 20
8222.553322994079
 30
0.0
 11
4530.753547453698
 21
8217.553322994078
 31
0.0
  0
LINE
  5
198C2
330
1913F
100
AcDbEntity
  8
NJ-022
100
AcDbLine
 10
4530.753547453698
 20
8217.553322994078
 30
0.0
 11
4529.253547453698
 21
8217.553322994078
 31
0.0
  0
LINE
  5
198C3
330
1913F
100
AcDbEntity
  8
NJ-022
100
AcDbLine
 10
4529.253547453698
 20
8222.553322994079
 30
0.0
 11
4530.753547453698
 21
8222.553322994079
 31
0.0
  0
LINE
  5
198C4
330
1913F
100
AcDbEntity
  8
NJ-022
100
AcDbLine
 10
4529.253547453698
 20
8232.553322994077
 30
0.0
 11
4470.753547453698
 21
8232.553322994077
 31
0.0
  0
LINE
  5
198C5
330
1913F
100
AcDbEntity
  8
NJ-022
100
AcDbLine
 10
4470.753547453698
 20
8207.553322994078
 30
0.0
 11
4529.253547453698
 21
8207.553322994078
 31
0.0
  0
LINE
  5
198C6
330
1913F
100
AcDbEntity
  8
NJ-022
100
AcDbLine
 10
4470.753547453698
 20
8232.553322994077
 30
0.0
 11
4470.753547453698
 21
8207.553322994078
 31
0.0
  0
LINE
  5
198C7
330
1913F
100
AcDbEntity
  8
NJ-022
100
AcDbLine
 10
4487.253547453698
 20
8232.553322994077
 30
0.0
 11
4487.253547453698
 21
8207.553322994078
 31
0.0
  0
LINE
  5
198C8
330
1913F
100
AcDbEntity
  8
NJ-022
100
AcDbLine
 10
4512.753547453698
 20
8232.553322994077
 30
0.0
 11
4512.753547453698
 21
8207.553322994078
 31
0.0
  0
LINE
  5
198C9
330
1913F
100
AcDbEntity
  8
NJ-022
100
AcDbLine
 10
4529.253547453698
 20
8232.553322994077
 30
0.0
 11
4529.253547453698
 21
8207.553322994078
 31
0.0
  0
LINE
  5
198CA
330
1913F
100
AcDbEntity
  8
NJ-022
100
AcDbLine
 10
4069.253547453698
 20
8626.253322994079
 30
0.0
 11
4069.253547453698
 21
8621.253322994078
 31
0.0
  0
LINE
  5
198CB
330
1913F
100
AcDbEntity
  8
NJ-022
100
AcDbLine
 10
4069.253547453698
 20
8621.253322994078
 30
0.0
 11
4070.753547453698
 21
8621.253322994078
 31
0.0
  0
LINE
  5
198CC
330
1913F
100
AcDbEntity
  8
NJ-022
100
AcDbLine
 10
4070.753547453698
 20
8626.253322994079
 30
0.0
 11
4069.253547453698
 21
8626.253322994079
 31
0.0
  0
CIRCLE
  5
198CD
330
1913F
100
AcDbEntity
  8
NJ-022
100
AcDbCircle
 10
4100.003547453698
 20
8623.753322994078
 30
0.0
 40
4.75
  0
CIRCLE
  5
198CE
330
1913F
100
AcDbEntity
  8
NJ-022
100
AcDbCircle
 10
4100.003547453698
 20
8623.753322994078
 30
0.0
 40
8.0
  0
LINE
  5
198CF
330
1913F
100
AcDbEntity
  8
NJ-022
100
AcDbLine
 10
4130.753547453698
 20
8626.253322994079
 30
0.0
 11
4130.753547453698
 21
8621.253322994078
 31
0.0
  0
LINE
  5
198D0
330
1913F
100
AcDbEntity
  8
NJ-022
100
AcDbLine
 10
4130.753547453698
 20
8621.253322994078
 30
0.0
 11
4129.253547453698
 21
8621.253322994078
 31
0.0
  0
LINE
  5
198D1
330
1913F
100
AcDbEntity
  8
NJ-022
100
AcDbLine
 10
4129.253547453698
 20
8626.253322994079
 30
0.0
 11
4130.753547453698
 21
8626.253322994079
 31
0.0
  0
LINE
  5
198D2
330
1913F
100
AcDbEntity
  8
NJ-022
100
AcDbLine
 10
4129.253547453698
 20
8636.253322994077
 30
0.0
 11
4070.753547453698
 21
8636.253322994077
 31
0.0
  0
LINE
  5
198D3
330
1913F
100
AcDbEntity
  8
NJ-022
100
AcDbLine
 10
4070.753547453698
 20
8611.253322994079
 30
0.0
 11
4129.253547453698
 21
8611.253322994079
 31
0.0
  0
LINE
  5
198D4
330
1913F
100
AcDbEntity
  8
NJ-022
100
AcDbLine
 10
4070.753547453698
 20
8636.253322994077
 30
0.0
 11
4070.753547453698
 21
8611.253322994079
 31
0.0
  0
LINE
  5
198D5
330
1913F
100
AcDbEntity
  8
NJ-022
100
AcDbLine
 10
4087.253547453697
 20
8636.253322994077
 30
0.0
 11
4087.253547453697
 21
8611.253322994079
 31
0.0
  0
LINE
  5
198D6
330
1913F
100
AcDbEntity
  8
NJ-022
100
AcDbLine
 10
4112.753547453698
 20
8636.253322994077
 30
0.0
 11
4112.753547453698
 21
8611.253322994079
 31
0.0
  0
LINE
  5
198D7
330
1913F
100
AcDbEntity
  8
NJ-022
100
AcDbLine
 10
4129.253547453698
 20
8636.253322994077
 30
0.0
 11
4129.253547453698
 21
8611.253322994079
 31
0.0
  0
LINE
  5
198D8
330
1913F
100
AcDbEntity
  8
NJ-022
100
AcDbLine
 10
4069.253547453698
 20
8222.553322994079
 30
0.0
 11
4069.253547453698
 21
8217.553322994078
 31
0.0
  0
LINE
  5
198D9
330
1913F
100
AcDbEntity
  8
NJ-022
100
AcDbLine
 10
4069.253547453698
 20
8217.553322994078
 30
0.0
 11
4070.753547453698
 21
8217.553322994078
 31
0.0
  0
LINE
  5
198DA
330
1913F
100
AcDbEntity
  8
NJ-022
100
AcDbLine
 10
4070.753547453698
 20
8222.553322994079
 30
0.0
 11
4069.253547453698
 21
8222.553322994079
 31
0.0
  0
CIRCLE
  5
198DB
330
1913F
100
AcDbEntity
  8
NJ-022
100
AcDbCircle
 10
4100.003547453698
 20
8220.053322994077
 30
0.0
 40
4.75
  0
CIRCLE
  5
198DC
330
1913F
100
AcDbEntity
  8
NJ-022
100
AcDbCircle
 10
4100.003547453698
 20
8220.053322994077
 30
0.0
 40
8.0
  0
LINE
  5
198DD
330
1913F
100
AcDbEntity
  8
NJ-022
100
AcDbLine
 10
4130.753547453698
 20
8222.553322994079
 30
0.0
 11
4130.753547453698
 21
8217.553322994078
 31
0.0
  0
LINE
  5
198DE
330
1913F
100
AcDbEntity
  8
NJ-022
100
AcDbLine
 10
4130.753547453698
 20
8217.553322994078
 30
0.0
 11
4129.253547453698
 21
8217.553322994078
 31
0.0
  0
LINE
  5
198DF
330
1913F
100
AcDbEntity
  8
NJ-022
100
AcDbLine
 10
4129.253547453698
 20
8222.553322994079
 30
0.0
 11
4130.753547453698
 21
8222.553322994079
 31
0.0
  0
LINE
  5
198E0
330
1913F
100
AcDbEntity
  8
NJ-022
100
AcDbLine
 10
4129.253547453698
 20
8232.553322994077
 30
0.0
 11
4070.753547453698
 21
8232.553322994077
 31
0.0
  0
LINE
  5
198E1
330
1913F
100
AcDbEntity
  8
NJ-022
100
AcDbLine
 10
4070.753547453698
 20
8207.553322994078
 30
0.0
 11
4129.253547453698
 21
8207.553322994078
 31
0.0
  0
LINE
  5
198E2
330
1913F
100
AcDbEntity
  8
NJ-022
100
AcDbLine
 10
4070.753547453698
 20
8232.553322994077
 30
0.0
 11
4070.753547453698
 21
8207.553322994078
 31
0.0
  0
LINE
  5
198E3
330
1913F
100
AcDbEntity
  8
NJ-022
100
AcDbLine
 10
4087.253547453697
 20
8232.553322994077
 30
0.0
 11
4087.253547453697
 21
8207.553322994078
 31
0.0
  0
LINE
  5
198E4
330
1913F
100
AcDbEntity
  8
NJ-022
100
AcDbLine
 10
4112.753547453698
 20
8232.553322994077
 30
0.0
 11
4112.753547453698
 21
8207.553322994078
 31
0.0
  0
LINE
  5
198E5
330
1913F
100
AcDbEntity
  8
NJ-022
100
AcDbLine
 10
4129.253547453698
 20
8232.553322994077
 30
0.0
 11
4129.253547453698
 21
8207.553322994078
 31
0.0
  0
LINE
  5
198E6
330
1913F
100
AcDbEntity
  8
AF-21
100
AcDbLine
 10
4077.003547453698
 20
8199.753322994078
 30
0.0
 11
4062.003547453698
 21
8199.753322994078
 31
0.0
  0
LINE
  5
198E7
330
1913F
100
AcDbEntity
  8
AF-21
100
AcDbLine
 10
4062.003547453698
 20
8199.753322994078
 30
0.0
 11
4062.003547453698
 21
8138.753322994077
 31
0.0
  0
ARC
  5
198E8
330
1913F
100
AcDbEntity
  8
AF-21
100
AcDbCircle
 10
4066.003547453698
 20
8138.753322994077
 30
0.0
 40
4.0
100
AcDbArc
 50
180.0
 51
270.0
  0
LINE
  5
198E9
330
1913F
100
AcDbEntity
  8
AF-21
100
AcDbLine
 10
4066.003547453698
 20
8134.753322994077
 30
0.0
 11
4077.003547453698
 21
8134.753322994077
 31
0.0
  0
LINE
  5
198EA
330
1913F
100
AcDbEntity
  8
AF-21
100
AcDbLine
 10
4077.003547453698
 20
8134.753322994077
 30
0.0
 11
4077.003547453698
 21
8199.753322994078
 31
0.0
  0
LINE
  5
198EB
330
1913F
100
AcDbEntity
  8
CF-504
100
AcDbLine
 10
4300.003547453697
 20
8607.753322994078
 30
0.0
 11
4065.003547453699
 21
8607.753322994078
 31
0.0
  0
LINE
  5
198EC
330
1913F
100
AcDbEntity
  8
CF-504
100
AcDbLine
 10
4065.003547453699
 20
8607.753322994078
 30
0.0
 11
4065.003547453699
 21
8640.753322994077
 31
0.0
  0
LINE
  5
198ED
330
1913F
100
AcDbEntity
  8
CF-504
100
AcDbLine
 10
4065.003547453699
 20
8640.753322994077
 30
0.0
 11
4300.003547453697
 21
8640.753322994077
 31
0.0
  0
LINE
  5
198EE
330
1913F
100
AcDbEntity
  8
CF-504
100
AcDbLine
 10
4300.003547453697
 20
8640.753322994077
 30
0.0
 11
4300.003547453697
 21
8607.753322994078
 31
0.0
  0
LINE
  5
198EF
330
1913F
100
AcDbEntity
  8
CF-201
100
AcDbLine
 10
5117.867028468756
 20
9614.753322994079
 30
0.0
 11
4300.003547453697
 21
9614.753322994079
 31
0.0
  0
LINE
  5
198F0
330
1913F
100
AcDbEntity
  8
CF-201
100
AcDbLine
 10
4300.003547453697
 20
9614.753322994079
 30
0.0
 11
4300.003547453697
 21
9581.753322994078
 31
0.0
  0
LINE
  5
198F1
330
1913F
100
AcDbEntity
  8
CF-201
100
AcDbLine
 10
4300.003547453697
 20
9581.753322994078
 30
0.0
 11
5137.506380164801
 21
9581.753322994078
 31
0.0
  0
LINE
  5
198F2
330
1913F
100
AcDbEntity
  8
CF-201
100
AcDbLine
 10
5407.696248952792
 20
9127.753322994079
 30
0.0
 11
4300.003547453697
 21
9127.753322994079
 31
0.0
  0
LINE
  5
198F3
330
1913F
100
AcDbEntity
  8
CF-201
100
AcDbLine
 10
4300.003547453697
 20
9127.753322994079
 30
0.0
 11
4300.003547453697
 21
9094.753322994073
 31
0.0
  0
LINE
  5
198F4
330
1913F
100
AcDbEntity
  8
CF-201
100
AcDbLine
 10
4300.003547453697
 20
9094.753322994073
 30
0.0
 11
5427.335600648838
 21
9094.753322994073
 31
0.0
  0
LINE
  5
198F5
330
1913F
100
AcDbEntity
  8
CF-201
100
AcDbLine
 10
5697.525469436828
 20
8640.753322994077
 30
0.0
 11
4300.003547453697
 21
8640.753322994077
 31
0.0
  0
LINE
  5
198F6
330
1913F
100
AcDbEntity
  8
CF-201
100
AcDbLine
 10
4300.003547453697
 20
8640.753322994077
 30
0.0
 11
4300.003547453697
 21
8607.753322994078
 31
0.0
  0
LINE
  5
198F7
330
1913F
100
AcDbEntity
  8
CF-201
100
AcDbLine
 10
4300.003547453697
 20
8607.753322994078
 30
0.0
 11
5717.164821132872
 21
8607.753322994078
 31
0.0
  0
CIRCLE
  5
198F8
330
1913F
100
AcDbEntity
  8
0
  6
ByBlock
 62
     0
100
AcDbCircle
 10
6552.787040862636
 20
2567.792802042403
 30
0.0
 40
3.75
  0
CIRCLE
  5
198F9
330
1913F
100
AcDbEntity
  8
0
  6
ByBlock
 62
     0
100
AcDbCircle
 10
6402.787040862635
 20
2567.792802042403
 30
0.0
 40
3.75
  0
CIRCLE
  5
198FA
330
1913F
100
AcDbEntity
  8
0
  6
ByBlock
 62
     0
100
AcDbCircle
 10
6252.787040862636
 20
2567.792802042403
 30
0.0
 40
3.75
  0
CIRCLE
  5
198FB
330
1913F
100
AcDbEntity
  8
0
  6
ByBlock
 62
     0
100
AcDbCircle
 10
6102.787040862637
 20
2567.792802042403
 30
0.0
 40
3.75
  0
CIRCLE
  5
198FC
330
1913F
100
AcDbEntity
  8
0
  6
ByBlock
 62
     0
100
AcDbCircle
 10
5952.787040862634
 20
2567.792802042403
 30
0.0
 40
3.75
  0
CIRCLE
  5
198FD
330
1913F
100
AcDbEntity
  8
0
  6
ByBlock
 62
     0
100
AcDbCircle
 10
5802.787040862634
 20
2567.792802042403
 30
0.0
 40
3.75
  0
CIRCLE
  5
198FE
330
1913F
100
AcDbEntity
  8
0
  6
ByBlock
 62
     0
100
AcDbCircle
 10
5602.787040862629
 20
2567.792802042403
 30
0.0
 40
3.75
  0
CIRCLE
  5
198FF
330
1913F
100
AcDbEntity
  8
0
  6
ByBlock
 62
     0
100
AcDbCircle
 10
5452.787040862631
 20
2567.792802042403
 30
0.0
 40
3.75
  0
CIRCLE
  5
19900
330
1913F
100
AcDbEntity
  8
0
  6
ByBlock
 62
     0
100
AcDbCircle
 10
5302.78704086263
 20
2567.792802042403
 30
0.0
 40
3.75
  0
CIRCLE
  5
19901
330
1913F
100
AcDbEntity
  8
0
  6
ByBlock
 62
     0
100
AcDbCircle
 10
5152.78704086263
 20
2567.792802042403
 30
0.0
 40
3.75
  0
CIRCLE
  5
19902
330
1913F
100
AcDbEntity
  8
0
  6
ByBlock
 62
     0
100
AcDbCircle
 10
5002.787040862631
 20
2567.792802042403
 30
0.0
 40
3.75
  0
CIRCLE
  5
19903
330
1913F
100
AcDbEntity
  8
0
  6
ByBlock
 62
     0
100
AcDbCircle
 10
4852.787040862629
 20
2567.792802042403
 30
0.0
 40
3.75
  0
CIRCLE
  5
19904
330
1913F
100
AcDbEntity
  8
0
  6
ByBlock
 62
     0
100
AcDbCircle
 10
4702.78704086263
 20
2567.792802042403
 30
0.0
 40
3.75
  0
CIRCLE
  5
19905
330
1913F
100
AcDbEntity
  8
0
  6
ByBlock
 62
     0
100
AcDbCircle
 10
4552.78704086263
 20
2567.792802042403
 30
0.0
 40
3.75
  0
CIRCLE
  5
19906
330
1913F
100
AcDbEntity
  8
0
  6
ByBlock
 62
     0
100
AcDbCircle
 10
4402.787040862628
 20
2567.792802042403
 30
0.0
 40
3.75
  0
CIRCLE
  5
19907
330
1913F
100
AcDbEntity
  8
0
  6
ByBlock
 62
     0
100
AcDbCircle
 10
4252.787040862631
 20
2567.792802042403
 30
0.0
 40
3.75
  0
CIRCLE
  5
19908
330
1913F
100
AcDbEntity
  8
0
  6
ByBlock
 62
     0
100
AcDbCircle
 10
4102.787040862629
 20
2567.792802042403
 30
0.0
 40
3.75
  0
CIRCLE
  5
19909
330
1913F
100
AcDbEntity
  8
0
  6
ByBlock
 62
     0
100
AcDbCircle
 10
3952.787040862629
 20
2567.792802042403
 30
0.0
 40
3.75
  0
LINE
  5
1990A
330
1913F
100
AcDbEntity
  8
TATEDOISIJIKANAGU
100
AcDbLine
 10
12123.05809360815
 20
4192.093257627125
 30
0.0
 11
12140.55809360816
 21
4192.093257627125
 31
0.0
  0
LINE
  5
1990B
330
1913F
100
AcDbEntity
  8
TATEDOISIJIKANAGU
100
AcDbLine
 10
12140.55809360816
 20
4192.093257627125
 30
0.0
 11
12140.55809360816
 21
4180.593257627125
 31
0.0
  0
LINE
  5
1990C
330
1913F
100
AcDbEntity
  8
TATEDOISIJIKANAGU
100
AcDbLine
 10
12140.05809360815
 20
4194.093257627125
 30
0.0
 11
12140.05809360815
 21
4192.093257627125
 31
0.0
  0
LINE
  5
1990D
330
1913F
100
AcDbEntity
  8
TATEDOISIJIKANAGU
100
AcDbLine
 10
12140.05809360815
 20
4192.093257627125
 30
0.0
 11
12138.85809360816
 21
4192.093257627125
 31
0.0
  0
LINE
  5
1990E
330
1913F
100
AcDbEntity
  8
TATEDOISIJIKANAGU
100
AcDbLine
 10
12136.55809360815
 20
4192.093257627125
 30
0.0
 11
12098.55809360815
 21
4192.093257627125
 31
0.0
  0
LINE
  5
1990F
330
1913F
100
AcDbEntity
  8
TATEDOISIJIKANAGU
100
AcDbLine
 10
12096.25809360816
 20
4192.093257627125
 30
0.0
 11
12095.05809360815
 21
4192.093257627125
 31
0.0
  0
LINE
  5
19910
330
1913F
100
AcDbEntity
  8
TATEDOISIJIKANAGU
100
AcDbLine
 10
12095.05809360815
 20
4192.093257627125
 30
0.0
 11
12095.05809360815
 21
4194.093257627125
 31
0.0
  0
LINE
  5
19911
330
1913F
100
AcDbEntity
  8
TATEDOISIJIKANAGU
100
AcDbLine
 10
12095.05809360815
 20
4194.093257627125
 30
0.0
 11
12140.05809360815
 21
4194.093257627125
 31
0.0
  0
ARC
  5
19912
330
1913F
100
AcDbEntity
  8
CF-501
100
AcDbCircle
 10
11606.58906250733
 20
4619.176552931993
 30
0.0
 40
4.535792194808902
100
AcDbArc
 50
249.1631131570391
 51
265.4000000000144
  0
ARC
  5
19913
330
1913F
100
AcDbEntity
  8
CF-501
100
AcDbCircle
 10
11606.17259080734
 20
4618.0823061046
 30
0.0
 40
3.36496992129373
100
AcDbArc
 50
230.2897277836819
 51
249.1631131569222
  0
ARC
  5
19914
330
1913F
100
AcDbEntity
  8
CF-501
100
AcDbCircle
 10
11605.61676708969
 20
4617.413057374392
 30
0.0
 40
2.49500792902868
100
AcDbArc
 50
205.904113929185
 51
230.2897277838844
  0
ARC
  5
19915
330
1913F
100
AcDbEntity
  8
CF-501
100
AcDbCircle
 10
11604.81905771487
 20
4617.025639729744
 30
0.0
 40
1.608197533243204
100
AcDbArc
 50
175.3999999998516
 51
205.9041139288491
  0
ARC
  5
19916
330
1913F
100
AcDbEntity
  8
CF-501
100
AcDbCircle
 10
11121.15774869916
 20
4658.233429080298
 30
0.0
 40
4.535792194822645
100
AcDbArc
 50
249.163113157032
 51
265.4000000000052
  0
ARC
  5
19917
330
1913F
100
AcDbEntity
  8
CF-501
100
AcDbCircle
 10
11120.74127699916
 20
4657.13918225289
 30
0.0
 40
3.364969921293083
100
AcDbArc
 50
230.2897277837157
 51
249.1631131569511
  0
ARC
  5
19918
330
1913F
100
AcDbEntity
  8
CF-501
100
AcDbCircle
 10
11120.18545328152
 20
4656.46993352268
 30
0.0
 40
2.495007929032866
100
AcDbArc
 50
205.9041139291115
 51
230.2897277838012
  0
ARC
  5
19919
330
1913F
100
AcDbEntity
  8
CF-501
100
AcDbCircle
 10
11119.38774390668
 20
4656.082515878035
 30
0.0
 40
1.608197533241568
100
AcDbArc
 50
175.3999999998788
 51
205.9041139288775
  0
ARC
  5
1991A
330
1913F
100
AcDbEntity
  8
CF-501
100
AcDbCircle
 10
10635.72643489097
 20
4697.290305228576
 30
0.0
 40
4.535792194807703
100
AcDbArc
 50
249.163113157082
 51
265.4000000000592
  0
ARC
  5
1991B
330
1913F
100
AcDbEntity
  8
CF-501
100
AcDbCircle
 10
10635.30996319098
 20
4696.196058401181
 30
0.0
 40
3.364969921295874
100
AcDbArc
 50
230.2897277836343
 51
249.1631131568698
  0
ARC
  5
1991C
330
1913F
100
AcDbEntity
  8
CF-501
100
AcDbCircle
 10
10634.75413947333
 20
4695.526809670973
 30
0.0
 40
2.49500792902868
100
AcDbArc
 50
205.904113929185
 51
230.2897277838844
  0
ARC
  5
1991D
330
1913F
100
AcDbEntity
  8
CF-501
100
AcDbCircle
 10
10633.9564300985
 20
4695.139392026326
 30
0.0
 40
1.608197533243602
100
AcDbArc
 50
175.3999999998839
 51
205.9041139288783
  0
CIRCLE
  5
1991E
330
1913F
100
AcDbEntity
  8
0
  6
ByBlock
 62
     0
100
AcDbCircle
 10
12198.96274259858
 20
2567.792802042401
 30
0.0
 40
3.75
  0
CIRCLE
  5
1991F
330
1913F
100
AcDbEntity
  8
0
  6
ByBlock
 62
     0
100
AcDbCircle
 10
12086.14558590005
 20
2573.036693338606
 30
0.0
 40
3.75
  0
CIRCLE
  5
19920
330
1913F
100
AcDbEntity
  8
0
  6
ByBlock
 62
     0
100
AcDbCircle
 10
12015.30691716915
 20
2567.792802042401
 30
0.0
 40
3.75
  0
CIRCLE
  5
19921
330
1913F
100
AcDbEntity
  8
0
  6
ByBlock
 62
     0
100
AcDbCircle
 10
11878.87688221344
 20
2567.792802042401
 30
0.0
 40
3.75
  0
CIRCLE
  5
19922
330
1913F
100
AcDbEntity
  8
0
  6
ByBlock
 62
     0
100
AcDbCircle
 10
11747.69421768261
 20
2567.792802042401
 30
0.0
 40
3.75
  0
CIRCLE
  5
19923
330
1913F
100
AcDbEntity
  8
0
  6
ByBlock
 62
     0
100
AcDbCircle
 10
11629.62979243736
 20
2573.036693338606
 30
0.0
 40
3.75
  0
CIRCLE
  5
19924
330
1913F
100
AcDbEntity
  8
0
  6
ByBlock
 62
     0
100
AcDbCircle
 10
11558.79112370645
 20
2567.792802042401
 30
0.0
 40
3.75
  0
CIRCLE
  5
19925
330
1913F
100
AcDbEntity
  8
0
  6
ByBlock
 62
     0
100
AcDbCircle
 10
11362.01702503205
 20
2567.792802042401
 30
0.0
 40
3.75
  0
CIRCLE
  5
19926
330
1913F
100
AcDbEntity
  8
0
  6
ByBlock
 62
     0
100
AcDbCircle
 10
11112.76993525596
 20
2573.036693338606
 30
0.0
 40
3.75
  0
CIRCLE
  5
19927
330
1913F
100
AcDbEntity
  8
0
  6
ByBlock
 62
     0
100
AcDbCircle
 10
11230.83436050123
 20
2567.792802042401
 30
0.0
 40
3.75
  0
CIRCLE
  5
19928
330
1913F
100
AcDbEntity
  8
0
  6
ByBlock
 62
     0
100
AcDbCircle
 10
10955.35069027584
 20
2567.792802042401
 30
0.0
 40
3.75
  0
CIRCLE
  5
19929
330
1913F
100
AcDbEntity
  8
0
  6
ByBlock
 62
     0
100
AcDbCircle
 10
10758.57659160144
 20
2567.792802042401
 30
0.0
 40
3.75
  0
CIRCLE
  5
1992A
330
1913F
100
AcDbEntity
  8
0
  6
ByBlock
 62
     0
100
AcDbCircle
 10
10640.51216635618
 20
2573.036693338606
 30
0.0
 40
3.75
  0
CIRCLE
  5
1992B
330
1913F
100
AcDbEntity
  8
0
  6
ByBlock
 62
     0
100
AcDbCircle
 10
10483.09292137605
 20
2567.792802042401
 30
0.0
 40
3.75
  0
CIRCLE
  5
1992C
330
1913F
100
AcDbEntity
  8
0
  6
ByBlock
 62
     0
100
AcDbCircle
 10
10349.28655465308
 20
2567.792802042401
 30
0.0
 40
3.75
  0
CIRCLE
  5
1992D
330
1913F
100
AcDbEntity
  8
0
  6
ByBlock
 62
     0
100
AcDbCircle
 10
10231.22212940783
 20
2573.036693338606
 30
0.0
 40
3.75
  0
CIRCLE
  5
1992E
330
1913F
100
AcDbEntity
  8
0
  6
ByBlock
 62
     0
100
AcDbCircle
 10
10073.8028844277
 20
2567.792802042401
 30
0.0
 40
3.75
  0
LINE
  5
1992F
330
1913F
100
AcDbEntity
  8
1PL-M1
100
AcDbLine
 10
12000.3509022893
 20
2479.546798568536
 30
0.0
 11
12000.3509022893
 21
4320.546798568534
 31
0.0
  0
ARC
  5
19930
330
1913F
100
AcDbEntity
  8
1PL-M1
100
AcDbCircle
 10
11749.9009022893
 20
4320.546798568543
 30
0.0
 40
250.449999999997
100
AcDbArc
 50
359.9999999999978
 51
85.39999999998212
  0
LINE
  5
19931
330
1913F
100
AcDbEntity
  8
1PL-M1
100
AcDbLine
 10
11769.98672288754
 20
4570.190068677901
 30
0.0
 11
11522.78556103039
 21
4590.079401911527
 31
0.0
  0
LINE
  5
19932
330
1913F
100
AcDbEntity
  8
1PL-M1
100
AcDbLine
 10
11522.78556103039
 20
4590.079401911527
 30
0.0
 11
10122.31123679941
 21
4702.758890593968
 31
0.0
  0
ARC
  5
19933
330
1913F
100
AcDbEntity
  8
0
  6
ByBlock
 62
     0
100
AcDbCircle
 10
6552.787040862636
 20
2567.792802042403
 30
0.0
 40
1.875
100
AcDbArc
 50
180.0
 51
0.0
  0
ARC
  5
19934
330
1913F
100
AcDbEntity
  8
0
  6
ByBlock
 62
     0
100
AcDbCircle
 10
6552.787040862636
 20
2567.792802042403
 30
0.0
 40
1.875
100
AcDbArc
 50
0.0
 51
180.0
  0
ARC
  5
19935
330
1913F
100
AcDbEntity
  8
0
  6
ByBlock
 62
     0
100
AcDbCircle
 10
6402.787040862635
 20
2567.792802042403
 30
0.0
 40
1.875
100
AcDbArc
 50
180.0
 51
0.0
  0
ARC
  5
19936
330
1913F
100
AcDbEntity
  8
0
  6
ByBlock
 62
     0
100
AcDbCircle
 10
6402.787040862635
 20
2567.792802042403
 30
0.0
 40
1.875
100
AcDbArc
 50
0.0
 51
180.0
  0
ARC
  5
19937
330
1913F
100
AcDbEntity
  8
0
  6
ByBlock
 62
     0
100
AcDbCircle
 10
6252.787040862636
 20
2567.792802042403
 30
0.0
 40
1.875
100
AcDbArc
 50
180.0
 51
0.0
  0
ARC
  5
19938
330
1913F
100
AcDbEntity
  8
0
  6
ByBlock
 62
     0
100
AcDbCircle
 10
6252.787040862636
 20
2567.792802042403
 30
0.0
 40
1.875
100
AcDbArc
 50
0.0
 51
180.0
  0
ARC
  5
19939
330
1913F
100
AcDbEntity
  8
0
  6
ByBlock
 62
     0
100
AcDbCircle
 10
6102.787040862637
 20
2567.792802042403
 30
0.0
 40
1.875
100
AcDbArc
 50
180.0
 51
0.0
  0
ARC
  5
1993A
330
1913F
100
AcDbEntity
  8
0
  6
ByBlock
 62
     0
100
AcDbCircle
 10
6102.787040862637
 20
2567.792802042403
 30
0.0
 40
1.875
100
AcDbArc
 50
0.0
 51
180.0
  0
ARC
  5
1993B
330
1913F
100
AcDbEntity
  8
0
  6
ByBlock
 62
     0
100
AcDbCircle
 10
5952.787040862634
 20
2567.792802042403
 30
0.0
 40
1.875
100
AcDbArc
 50
180.0
 51
0.0
  0
ARC
  5
1993C
330
1913F
100
AcDbEntity
  8
0
  6
ByBlock
 62
     0
100
AcDbCircle
 10
5952.787040862634
 20
2567.792802042403
 30
0.0
 40
1.875
100
AcDbArc
 50
0.0
 51
180.0
  0
ARC
  5
1993D
330
1913F
100
AcDbEntity
  8
0
  6
ByBlock
 62
     0
100
AcDbCircle
 10
5802.787040862634
 20
2567.792802042403
 30
0.0
 40
1.875
100
AcDbArc
 50
180.0
 51
0.0
  0
ARC
  5
1993E
330
1913F
100
AcDbEntity
  8
0
  6
ByBlock
 62
     0
100
AcDbCircle
 10
5802.787040862634
 20
2567.792802042403
 30
0.0
 40
1.875
100
AcDbArc
 50
0.0
 51
180.0
  0
ARC
  5
1993F
330
1913F
100
AcDbEntity
  8
0
  6
ByBlock
 62
     0
100
AcDbCircle
 10
5602.787040862629
 20
2567.792802042403
 30
0.0
 40
1.875
100
AcDbArc
 50
180.0
 51
0.0
  0
ARC
  5
19940
330
1913F
100
AcDbEntity
  8
0
  6
ByBlock
 62
     0
100
AcDbCircle
 10
5602.787040862629
 20
2567.792802042403
 30
0.0
 40
1.875
100
AcDbArc
 50
0.0
 51
180.0
  0
ARC
  5
19941
330
1913F
100
AcDbEntity
  8
0
  6
ByBlock
 62
     0
100
AcDbCircle
 10
5452.787040862631
 20
2567.792802042403
 30
0.0
 40
1.875
100
AcDbArc
 50
180.0
 51
0.0
  0
ARC
  5
19942
330
1913F
100
AcDbEntity
  8
0
  6
ByBlock
 62
     0
100
AcDbCircle
 10
5452.787040862631
 20
2567.792802042403
 30
0.0
 40
1.875
100
AcDbArc
 50
0.0
 51
180.0
  0
ARC
  5
19943
330
1913F
100
AcDbEntity
  8
0
  6
ByBlock
 62
     0
100
AcDbCircle
 10
5302.78704086263
 20
2567.792802042403
 30
0.0
 40
1.875
100
AcDbArc
 50
180.0
 51
0.0
  0
ARC
  5
19944
330
1913F
100
AcDbEntity
  8
0
  6
ByBlock
 62
     0
100
AcDbCircle
 10
5302.78704086263
 20
2567.792802042403
 30
0.0
 40
1.875
100
AcDbArc
 50
0.0
 51
180.0
  0
ARC
  5
19945
330
1913F
100
AcDbEntity
  8
0
  6
ByBlock
 62
     0
100
AcDbCircle
 10
5152.78704086263
 20
2567.792802042403
 30
0.0
 40
1.875
100
AcDbArc
 50
180.0
 51
0.0
  0
ARC
  5
19946
330
1913F
100
AcDbEntity
  8
0
  6
ByBlock
 62
     0
100
AcDbCircle
 10
5152.78704086263
 20
2567.792802042403
 30
0.0
 40
1.875
100
AcDbArc
 50
0.0
 51
180.0
  0
ARC
  5
19947
330
1913F
100
AcDbEntity
  8
0
  6
ByBlock
 62
     0
100
AcDbCircle
 10
5002.787040862631
 20
2567.792802042403
 30
0.0
 40
1.875
100
AcDbArc
 50
180.0
 51
0.0
  0
ARC
  5
19948
330
1913F
100
AcDbEntity
  8
0
  6
ByBlock
 62
     0
100
AcDbCircle
 10
5002.787040862631
 20
2567.792802042403
 30
0.0
 40
1.875
100
AcDbArc
 50
0.0
 51
180.0
  0
ARC
  5
19949
330
1913F
100
AcDbEntity
  8
0
  6
ByBlock
 62
     0
100
AcDbCircle
 10
4852.787040862629
 20
2567.792802042403
 30
0.0
 40
1.875
100
AcDbArc
 50
180.0
 51
0.0
  0
ARC
  5
1994A
330
1913F
100
AcDbEntity
  8
0
  6
ByBlock
 62
     0
100
AcDbCircle
 10
4852.787040862629
 20
2567.792802042403
 30
0.0
 40
1.875
100
AcDbArc
 50
0.0
 51
180.0
  0
ARC
  5
1994B
330
1913F
100
AcDbEntity
  8
0
  6
ByBlock
 62
     0
100
AcDbCircle
 10
4702.78704086263
 20
2567.792802042403
 30
0.0
 40
1.875
100
AcDbArc
 50
180.0
 51
0.0
  0
ARC
  5
1994C
330
1913F
100
AcDbEntity
  8
0
  6
ByBlock
 62
     0
100
AcDbCircle
 10
4702.78704086263
 20
2567.792802042403
 30
0.0
 40
1.875
100
AcDbArc
 50
0.0
 51
180.0
  0
ARC
  5
1994D
330
1913F
100
AcDbEntity
  8
0
  6
ByBlock
 62
     0
100
AcDbCircle
 10
4552.78704086263
 20
2567.792802042403
 30
0.0
 40
1.875
100
AcDbArc
 50
180.0
 51
0.0
  0
ARC
  5
1994E
330
1913F
100
AcDbEntity
  8
0
  6
ByBlock
 62
     0
100
AcDbCircle
 10
4552.78704086263
 20
2567.792802042403
 30
0.0
 40
1.875
100
AcDbArc
 50
0.0
 51
180.0
  0
ARC
  5
1994F
330
1913F
100
AcDbEntity
  8
0
  6
ByBlock
 62
     0
100
AcDbCircle
 10
4402.787040862628
 20
2567.792802042403
 30
0.0
 40
1.875
100
AcDbArc
 50
180.0
 51
0.0
  0
ARC
  5
19950
330
1913F
100
AcDbEntity
  8
0
  6
ByBlock
 62
     0
100
AcDbCircle
 10
4402.787040862628
 20
2567.792802042403
 30
0.0
 40
1.875
100
AcDbArc
 50
0.0
 51
180.0
  0
ARC
  5
19951
330
1913F
100
AcDbEntity
  8
0
  6
ByBlock
 62
     0
100
AcDbCircle
 10
4252.787040862631
 20
2567.792802042403
 30
0.0
 40
1.875
100
AcDbArc
 50
180.0
 51
0.0
  0
ARC
  5
19952
330
1913F
100
AcDbEntity
  8
0
  6
ByBlock
 62
     0
100
AcDbCircle
 10
4252.787040862631
 20
2567.792802042403
 30
0.0
 40
1.875
100
AcDbArc
 50
0.0
 51
180.0
  0
ARC
  5
19953
330
1913F
100
AcDbEntity
  8
0
  6
ByBlock
 62
     0
100
AcDbCircle
 10
4102.787040862629
 20
2567.792802042403
 30
0.0
 40
1.875
100
AcDbArc
 50
180.0
 51
0.0
  0
ARC
  5
19954
330
1913F
100
AcDbEntity
  8
0
  6
ByBlock
 62
     0
100
AcDbCircle
 10
4102.787040862629
 20
2567.792802042403
 30
0.0
 40
1.875
100
AcDbArc
 50
0.0
 51
180.0
  0
ARC
  5
19955
330
1913F
100
AcDbEntity
  8
0
  6
ByBlock
 62
     0
100
AcDbCircle
 10
3952.787040862629
 20
2567.792802042403
 30
0.0
 40
1.875
100
AcDbArc
 50
180.0
 51
0.0
  0
ARC
  5
19956
330
1913F
100
AcDbEntity
  8
0
  6
ByBlock
 62
     0
100
AcDbCircle
 10
3952.787040862629
 20
2567.792802042403
 30
0.0
 40
1.875
100
AcDbArc
 50
0.0
 51
180.0
  0
ARC
  5
19957
330
1913F
100
AcDbEntity
  8
0
  6
ByBlock
 62
     0
100
AcDbCircle
 10
12198.96274259858
 20
2567.792802042401
 30
0.0
 40
1.875
100
AcDbArc
 50
180.0
 51
0.0
  0
ARC
  5
19958
330
1913F
100
AcDbEntity
  8
0
  6
ByBlock
 62
     0
100
AcDbCircle
 10
12198.96274259858
 20
2567.792802042401
 30
0.0
 40
1.875
100
AcDbArc
 50
0.0
 51
180.0
  0
ARC
  5
19959
330
1913F
100
AcDbEntity
  8
0
  6
ByBlock
 62
     0
100
AcDbCircle
 10
12086.14558590005
 20
2573.036693338606
 30
0.0
 40
1.875
100
AcDbArc
 50
180.0
 51
0.0
  0
ARC
  5
1995A
330
1913F
100
AcDbEntity
  8
0
  6
ByBlock
 62
     0
100
AcDbCircle
 10
12086.14558590005
 20
2573.036693338606
 30
0.0
 40
1.875
100
AcDbArc
 50
0.0
 51
180.0
  0
ARC
  5
1995B
330
1913F
100
AcDbEntity
  8
0
  6
ByBlock
 62
     0
100
AcDbCircle
 10
12015.30691716915
 20
2567.792802042401
 30
0.0
 40
1.875
100
AcDbArc
 50
180.0
 51
0.0
  0
ARC
  5
1995C
330
1913F
100
AcDbEntity
  8
0
  6
ByBlock
 62
     0
100
AcDbCircle
 10
12015.30691716915
 20
2567.792802042401
 30
0.0
 40
1.875
100
AcDbArc
 50
0.0
 51
180.0
  0
ARC
  5
1995D
330
1913F
100
AcDbEntity
  8
0
  6
ByBlock
 62
     0
100
AcDbCircle
 10
11878.87688221344
 20
2567.792802042401
 30
0.0
 40
1.875
100
AcDbArc
 50
180.0
 51
0.0
  0
ARC
  5
1995E
330
1913F
100
AcDbEntity
  8
0
  6
ByBlock
 62
     0
100
AcDbCircle
 10
11878.87688221344
 20
2567.792802042401
 30
0.0
 40
1.875
100
AcDbArc
 50
0.0
 51
180.0
  0
ARC
  5
1995F
330
1913F
100
AcDbEntity
  8
0
  6
ByBlock
 62
     0
100
AcDbCircle
 10
11747.69421768261
 20
2567.792802042401
 30
0.0
 40
1.875
100
AcDbArc
 50
180.0
 51
0.0
  0
ARC
  5
19960
330
1913F
100
AcDbEntity
  8
0
  6
ByBlock
 62
     0
100
AcDbCircle
 10
11747.69421768261
 20
2567.792802042401
 30
0.0
 40
1.875
100
AcDbArc
 50
0.0
 51
180.0
  0
ARC
  5
19961
330
1913F
100
AcDbEntity
  8
0
  6
ByBlock
 62
     0
100
AcDbCircle
 10
11629.62979243736
 20
2573.036693338606
 30
0.0
 40
1.875
100
AcDbArc
 50
180.0
 51
0.0
  0
ARC
  5
19962
330
1913F
100
AcDbEntity
  8
0
  6
ByBlock
 62
     0
100
AcDbCircle
 10
11629.62979243736
 20
2573.036693338606
 30
0.0
 40
1.875
100
AcDbArc
 50
0.0
 51
180.0
  0
ARC
  5
19963
330
1913F
100
AcDbEntity
  8
0
  6
ByBlock
 62
     0
100
AcDbCircle
 10
11558.79112370645
 20
2567.792802042401
 30
0.0
 40
1.875
100
AcDbArc
 50
180.0
 51
0.0
  0
ARC
  5
19964
330
1913F
100
AcDbEntity
  8
0
  6
ByBlock
 62
     0
100
AcDbCircle
 10
11558.79112370645
 20
2567.792802042401
 30
0.0
 40
1.875
100
AcDbArc
 50
0.0
 51
180.0
  0
ARC
  5
19965
330
1913F
100
AcDbEntity
  8
0
  6
ByBlock
 62
     0
100
AcDbCircle
 10
11362.01702503205
 20
2567.792802042401
 30
0.0
 40
1.875
100
AcDbArc
 50
180.0
 51
0.0
  0
ARC
  5
19966
330
1913F
100
AcDbEntity
  8
0
  6
ByBlock
 62
     0
100
AcDbCircle
 10
11362.01702503205
 20
2567.792802042401
 30
0.0
 40
1.875
100
AcDbArc
 50
0.0
 51
180.0
  0
ARC
  5
19967
330
1913F
100
AcDbEntity
  8
0
  6
ByBlock
 62
     0
100
AcDbCircle
 10
11112.76993525596
 20
2573.036693338606
 30
0.0
 40
1.875
100
AcDbArc
 50
180.0
 51
0.0
  0
ARC
  5
19968
330
1913F
100
AcDbEntity
  8
0
  6
ByBlock
 62
     0
100
AcDbCircle
 10
11112.76993525596
 20
2573.036693338606
 30
0.0
 40
1.875
100
AcDbArc
 50
0.0
 51
180.0
  0
ARC
  5
19969
330
1913F
100
AcDbEntity
  8
0
  6
ByBlock
 62
     0
100
AcDbCircle
 10
11230.83436050123
 20
2567.792802042401
 30
0.0
 40
1.875
100
AcDbArc
 50
180.0
 51
0.0
  0
ARC
  5
1996A
330
1913F
100
AcDbEntity
  8
0
  6
ByBlock
 62
     0
100
AcDbCircle
 10
11230.83436050123
 20
2567.792802042401
 30
0.0
 40
1.875
100
AcDbArc
 50
0.0
 51
180.0
  0
ARC
  5
1996B
330
1913F
100
AcDbEntity
  8
0
  6
ByBlock
 62
     0
100
AcDbCircle
 10
10955.35069027584
 20
2567.792802042401
 30
0.0
 40
1.875
100
AcDbArc
 50
180.0
 51
0.0
  0
ARC
  5
1996C
330
1913F
100
AcDbEntity
  8
0
  6
ByBlock
 62
     0
100
AcDbCircle
 10
10955.35069027584
 20
2567.792802042401
 30
0.0
 40
1.875
100
AcDbArc
 50
0.0
 51
180.0
  0
ARC
  5
1996D
330
1913F
100
AcDbEntity
  8
0
  6
ByBlock
 62
     0
100
AcDbCircle
 10
10758.57659160144
 20
2567.792802042401
 30
0.0
 40
1.875
100
AcDbArc
 50
180.0
 51
0.0
  0
ARC
  5
1996E
330
1913F
100
AcDbEntity
  8
0
  6
ByBlock
 62
     0
100
AcDbCircle
 10
10758.57659160144
 20
2567.792802042401
 30
0.0
 40
1.875
100
AcDbArc
 50
0.0
 51
180.0
  0
ARC
  5
1996F
330
1913F
100
AcDbEntity
  8
0
  6
ByBlock
 62
     0
100
AcDbCircle
 10
10640.51216635618
 20
2573.036693338606
 30
0.0
 40
1.875
100
AcDbArc
 50
180.0
 51
0.0
  0
ARC
  5
19970
330
1913F
100
AcDbEntity
  8
0
  6
ByBlock
 62
     0
100
AcDbCircle
 10
10640.51216635618
 20
2573.036693338606
 30
0.0
 40
1.875
100
AcDbArc
 50
0.0
 51
180.0
  0
ARC
  5
19971
330
1913F
100
AcDbEntity
  8
0
  6
ByBlock
 62
     0
100
AcDbCircle
 10
10483.09292137605
 20
2567.792802042401
 30
0.0
 40
1.875
100
AcDbArc
 50
180.0
 51
0.0
  0
ARC
  5
19972
330
1913F
100
AcDbEntity
  8
0
  6
ByBlock
 62
     0
100
AcDbCircle
 10
10483.09292137605
 20
2567.792802042401
 30
0.0
 40
1.875
100
AcDbArc
 50
0.0
 51
180.0
  0
ARC
  5
19973
330
1913F
100
AcDbEntity
  8
0
  6
ByBlock
 62
     0
100
AcDbCircle
 10
10349.28655465308
 20
2567.792802042401
 30
0.0
 40
1.875
100
AcDbArc
 50
180.0
 51
0.0
  0
ARC
  5
19974
330
1913F
100
AcDbEntity
  8
0
  6
ByBlock
 62
     0
100
AcDbCircle
 10
10349.28655465308
 20
2567.792802042401
 30
0.0
 40
1.875
100
AcDbArc
 50
0.0
 51
180.0
  0
ARC
  5
19975
330
1913F
100
AcDbEntity
  8
0
  6
ByBlock
 62
     0
100
AcDbCircle
 10
10231.22212940783
 20
2573.036693338606
 30
0.0
 40
1.875
100
AcDbArc
 50
180.0
 51
0.0
  0
ARC
  5
19976
330
1913F
100
AcDbEntity
  8
0
  6
ByBlock
 62
     0
100
AcDbCircle
 10
10231.22212940783
 20
2573.036693338606
 30
0.0
 40
1.875
100
AcDbArc
 50
0.0
 51
180.0
  0
ARC
  5
19977
330
1913F
100
AcDbEntity
  8
0
  6
ByBlock
 62
     0
100
AcDbCircle
 10
10073.8028844277
 20
2567.792802042401
 30
0.0
 40
1.875
100
AcDbArc
 50
180.0
 51
0.0
  0
ARC
  5
19978
330
1913F
100
AcDbEntity
  8
0
  6
ByBlock
 62
     0
100
AcDbCircle
 10
10073.8028844277
 20
2567.792802042401
 30
0.0
 40
1.875
100
AcDbArc
 50
0.0
 51
180.0
  0
ENDSEC
  0
SECTION
  2
OBJECTS
  0
DICTIONARY
  5
1912D
330
0
100
AcDbDictionary
281
     1
  3
ACAD_GROUP
350
1912E
  3
ACAD_LAYOUT
350
1913A
  3
ACAD_MLINESTYLE
350
19137
  3
ACAD_PLOTSETTINGS
350
19139
  3
ACAD_PLOTSTYLENAME
350
1912F
  3
AcDbVariableDictionary
350
19979
  0
DICTIONARY
  5
1912E
102
{ACAD_REACTORS
330
1912D
102
}
330
1912D
100
AcDbDictionary
281
     1
  0
DICTIONARY
  5
1913A
102
{ACAD_REACTORS
330
1912D
102
}
330
1912D
100
AcDbDictionary
281
     1
  3
Model
350
19142
  3
ﾚｲｱｳﾄ1
350
1913E
  0
DICTIONARY
  5
19137
102
{ACAD_REACTORS
330
1912D
102
}
330
1912D
100
AcDbDictionary
281
     1
  3
Standard
350
19138
  0
DICTIONARY
  5
19139
102
{ACAD_REACTORS
330
1912D
102
}
330
1912D
100
AcDbDictionary
281
     1
  0
ACDBDICTIONARYWDFLT
  5
1912F
102
{ACAD_REACTORS
330
1912D
102
}
330
1912D
100
AcDbDictionary
281
     1
  3
Normal
350
19130
100
AcDbDictionaryWithDefault
340
19130
  0
DICTIONARY
  5
19979
102
{ACAD_REACTORS
330
1912D
102
}
330
1912D
100
AcDbDictionary
281
     1
  3
DIMASSOC
350
1997A
  0
LAYOUT
  5
19142
102
{ACAD_REACTORS
330
1913A
102
}
330
1913A
100
AcDbPlotSettings
  1

  2
Muratec V-1200 Is@Web Printer
  4

  6

 40
0.0
 41
0.0
 42
0.0
 43
0.0
 44
0.0
 45
0.0
 46
0.0
 47
0.0
 48
0.0
 49
0.0
140
0.0
141
0.0
142
1.0
143
1.0
 70
  1712
 72
     0
 73
     0
 74
     0
  7

 75
     0
147
1.0
148
0.0
149
0.0
100
AcDbLayout
  1
Model
 70
     1
 71
     0
 10
0.0
 20
0.0
 11
12.0
 21
9.0
 12
0.0
 22
0.0
 32
0.0
 14
0.0
 24
0.0
 34
0.0
 15
0.0
 25
0.0
 35
0.0
146
0.0
 13
0.0
 23
0.0
 33
0.0
 16
1.0
 26
0.0
 36
0.0
 17
0.0
 27
1.0
 37
0.0
 76
     0
330
1913F
  0
LAYOUT
  5
1913E
102
{ACAD_REACTORS
330
1913A
102
}
330
1913A
100
AcDbPlotSettings
  1

  2
Muratec V-1200 Is@Web Printer
  4

  6

 40
0.0
 41
0.0
 42
0.0
 43
0.0
 44
0.0
 45
0.0
 46
0.0
 47
0.0
 48
0.0
 49
0.0
140
0.0
141
0.0
142
1.0
143
1.0
 70
   688
 72
     0
 73
     0
 74
     5
  7

 75
    16
147
1.0
148
0.0
149
0.0
100
AcDbLayout
  1
ﾚｲｱｳﾄ1
 70
     0
 71
     1
 10
0.0
 20
0.0
 11
12.0
 21
9.0
 12
0.0
 22
0.0
 32
0.0
 14
1.000000000000000E+20
 24
1.000000000000000E+20
 34
1.000000000000000E+20
 15
-1.000000000000000E+20
 25
-1.000000000000000E+20
 35
-1.000000000000000E+20
146
0.0
 13
0.0
 23
0.0
 33
0.0
 16
1.0
 26
0.0
 36
0.0
 17
0.0
 27
1.0
 37
0.0
 76
     0
330
1913B
  0
MLINESTYLE
  5
19138
102
{ACAD_REACTORS
330
19137
102
}
330
19137
100
AcDbMlineStyle
  2
STANDARD
 70
     0
  3

 62
   256
 51
90.0
 52
90.0
 71
     2
 49
0.5
 62
   256
  6
BYLAYER
 49
-0.5
 62
   256
  6
BYLAYER
  0
ACDBPLACEHOLDER
  5
19130
102
{ACAD_REACTORS
330
1912F
102
}
330
1912F
  0
DICTIONARYVAR
  5
1997A
102
{ACAD_REACTORS
330
19979
102
}
330
19979
100
DictionaryVariables
280
     0
  1
1
  0
ENDSEC
  0
EOF
