  0
SECTION
  2
HEADER
  9
$ACADVER
  1
AC1015
  9
$ACADMAINTVER
 70
    13
  9
$DWGCODEPAGE
  3
ANSI_932
  9
$INSBASE
 10
267.0
 20
194.8999999999998
 30
0.0
  9
$EXTMIN
 10
433.9966216520333
 20
163.6908237492789
 30
-0.000000000000013
  9
$EXTMAX
 10
16382.6660542547
 20
11242.27663824599
 30
0.0000000000000023
  9
$LIMMIN
 10
0.0
 20
0.0
  9
$LIMMAX
 10
16800.0
 20
11880.0
  9
$ORTHOMODE
 70
     0
  9
$REGENMODE
 70
     1
  9
$FILLMODE
 70
     1
  9
$QTEXTMODE
 70
     0
  9
$MIRRTEXT
 70
     0
  9
$LTSCALE
 40
40.0
  9
$ATTMODE
 70
     1
  9
$TEXTSIZE
 40
0.2
  9
$TRACEWID
 40
0.05
  9
$TEXTSTYLE
  7
00
  9
$CLAYER
  8
SUNPOU
  9
$CELTYPE
  6
ByLayer
  9
$CECOLOR
 62
   256
  9
$CELTSCALE
 40
1.0
  9
$DISPSILH
 70
     0
  9
$DIMSCALE
 40
40.0
  9
$DIMASZ
 40
0.5
  9
$DIMEXO
 40
1.0
  9
$DIMDLI
 40
7.0
  9
$DIMRND
 40
0.0
  9
$DIMDLE
 40
3.0
  9
$DIMEXE
 40
1.125
  9
$DIMTP
 40
0.0
  9
$DIMTM
 40
0.0
  9
$DIMTXT
 40
2.25
  9
$DIMCEN
 40
0.0
  9
$DIMTSZ
 40
0.0
  9
$DIMTOL
 70
     0
  9
$DIMLIM
 70
     0
  9
$DIMTIH
 70
     0
  9
$DIMTOH
 70
     0
  9
$DIMSE1
 70
     0
  9
$DIMSE2
 70
     0
  9
$DIMTAD
 70
     1
  9
$DIMZIN
 70
     8
  9
$DIMBLK
  1
DOT
  9
$DIMASO
 70
     1
  9
$DIMSHO
 70
     0
  9
$DIMPOST
  1

  9
$DIMAPOST
  1

  9
$DIMALT
 70
     0
  9
$DIMALTD
 70
     2
  9
$DIMALTF
 40
25.4
  9
$DIMLFAC
 40
1.0
  9
$DIMTOFL
 70
     1
  9
$DIMTVP
 40
0.0
  9
$DIMTIX
 70
     0
  9
$DIMSOXD
 70
     0
  9
$DIMSAH
 70
     1
  9
$DIMBLK1
  1
DOT
  9
$DIMBLK2
  1
DOT
  9
$DIMSTYLE
  2
SUNPOU_図面名
  9
$DIMCLRD
 70
   256
  9
$DIMCLRE
 70
   256
  9
$DIMCLRT
 70
   256
  9
$DIMTFAC
 40
1.0
  9
$DIMGAP
 40
1.125
  9
$DIMJUST
 70
     0
  9
$DIMSD1
 70
     0
  9
$DIMSD2
 70
     0
  9
$DIMTOLJ
 70
     1
  9
$DIMTZIN
 70
     0
  9
$DIMALTZ
 70
     0
  9
$DIMALTTZ
 70
     0
  9
$DIMUPT
 70
     0
  9
$DIMDEC
 70
     4
  9
$DIMTDEC
 70
     4
  9
$DIMALTU
 70
     2
  9
$DIMALTTD
 70
     2
  9
$DIMTXSTY
  7
STANDARD
  9
$DIMAUNIT
 70
     0
  9
$DIMADEC
 70
     0
  9
$DIMALTRND
 40
0.0
  9
$DIMAZIN
 70
     0
  9
$DIMDSEP
 70
    46
  9
$DIMATFIT
 70
     3
  9
$DIMFRAC
 70
     0
  9
$DIMLDRBLK
  1
DOT
  9
$DIMLUNIT
 70
     2
  9
$DIMLWD
 70
    -2
  9
$DIMLWE
 70
    -2
  9
$DIMTMOVE
 70
     0
  9
$LUNITS
 70
     2
  9
$LUPREC
 70
     2
  9
$SKETCHINC
 40
0.1
  9
$FILLETRAD
 40
0.0
  9
$AUNITS
 70
     0
  9
$AUPREC
 70
     0
  9
$MENU
  1
A:\TIGER\MENU\TIGER
  9
$ELEVATION
 40
0.0
  9
$PELEVATION
 40
0.0
  9
$THICKNESS
 40
0.0
  9
$LIMCHECK
 70
     0
  9
$CHAMFERA
 40
0.0
  9
$CHAMFERB
 40
0.0
  9
$CHAMFERC
 40
0.0
  9
$CHAMFERD
 40
0.0
  9
$SKPOLY
 70
     0
  9
$TDCREATE
 40
2450266.571064815
  9
$TDUCREATE
 40
2450266.196064815
  9
$TDUPDATE
 40
2456330.645289352
  9
$TDUUPDATE
 40
2456330.270289351
  9
$TDINDWG
 40
0.2217025116
  9
$TDUSRTIMER
 40
0.2217025116
  9
$USRTIMER
 70
     1
  9
$ANGBASE
 50
0.0
  9
$ANGDIR
 70
     0
  9
$PDMODE
 70
     0
  9
$PDSIZE
 40
0.0
  9
$PLINEWID
 40
0.0
  9
$SPLFRAME
 70
     0
  9
$SPLINETYPE
 70
     6
  9
$SPLINESEGS
 70
     8
  9
$HANDSEED
  5
169B5
  9
$SURFTAB1
 70
     6
  9
$SURFTAB2
 70
     6
  9
$SURFTYPE
 70
     6
  9
$SURFU
 70
     6
  9
$SURFV
 70
     6
  9
$UCSBASE
  2

  9
$UCSNAME
  2

  9
$UCSORG
 10
0.0
 20
0.0
 30
0.0
  9
$UCSXDIR
 10
1.0
 20
0.0
 30
0.0
  9
$UCSYDIR
 10
0.0
 20
1.0
 30
0.0
  9
$UCSORTHOREF
  2

  9
$UCSORTHOVIEW
 70
     0
  9
$UCSORGTOP
 10
0.0
 20
0.0
 30
0.0
  9
$UCSORGBOTTOM
 10
0.0
 20
0.0
 30
0.0
  9
$UCSORGLEFT
 10
0.0
 20
0.0
 30
0.0
  9
$UCSORGRIGHT
 10
0.0
 20
0.0
 30
0.0
  9
$UCSORGFRONT
 10
0.0
 20
0.0
 30
0.0
  9
$UCSORGBACK
 10
0.0
 20
0.0
 30
0.0
  9
$PUCSBASE
  2

  9
$PUCSNAME
  2

  9
$PUCSORG
 10
0.0
 20
0.0
 30
0.0
  9
$PUCSXDIR
 10
1.0
 20
0.0
 30
0.0
  9
$PUCSYDIR
 10
0.0
 20
1.0
 30
0.0
  9
$PUCSORTHOREF
  2

  9
$PUCSORTHOVIEW
 70
     0
  9
$PUCSORGTOP
 10
0.0
 20
0.0
 30
0.0
  9
$PUCSORGBOTTOM
 10
0.0
 20
0.0
 30
0.0
  9
$PUCSORGLEFT
 10
0.0
 20
0.0
 30
0.0
  9
$PUCSORGRIGHT
 10
0.0
 20
0.0
 30
0.0
  9
$PUCSORGFRONT
 10
0.0
 20
0.0
 30
0.0
  9
$PUCSORGBACK
 10
0.0
 20
0.0
 30
0.0
  9
$USERI1
 70
     3
  9
$USERI2
 70
     0
  9
$USERI3
 70
     0
  9
$USERI4
 70
     0
  9
$USERI5
 70
  1103
  9
$USERR1
 40
0.0
  9
$USERR2
 40
1.0
  9
$USERR3
 40
0.0
  9
$USERR4
 40
0.0
  9
$USERR5
 40
0.0
  9
$WORLDVIEW
 70
     1
  9
$SHADEDGE
 70
     3
  9
$SHADEDIF
 70
    70
  9
$TILEMODE
 70
     1
  9
$MAXACTVP
 70
    16
  9
$PINSBASE
 10
0.0
 20
0.0
 30
0.0
  9
$PLIMCHECK
 70
     0
  9
$PEXTMIN
 10
1.000000000000000E+20
 20
1.000000000000000E+20
 30
1.000000000000000E+20
  9
$PEXTMAX
 10
-1.000000000000000E+20
 20
-1.000000000000000E+20
 30
-1.000000000000000E+20
  9
$PLIMMIN
 10
0.0
 20
0.0
  9
$PLIMMAX
 10
12.0
 20
9.0
  9
$UNITMODE
 70
     0
  9
$VISRETAIN
 70
     0
  9
$PLINEGEN
 70
     1
  9
$PSLTSCALE
 70
     0
  9
$TREEDEPTH
 70
  3020
  9
$CMLSTYLE
  2
Standard
  9
$CMLJUST
 70
     0
  9
$CMLSCALE
 40
1.0
  9
$PROXYGRAPHICS
 70
     1
  9
$MEASUREMENT
 70
     0
  9
$CELWEIGHT
370
    -1
  9
$ENDCAPS
280
     0
  9
$JOINSTYLE
280
     0
  9
$LWDISPLAY
290
     0
  9
$INSUNITS
 70
     0
  9
$HYPERLINKBASE
  1

  9
$STYLESHEET
  1

  9
$XEDIT
290
     1
  9
$CEPSNTYPE
380
     0
  9
$PSTYLEMODE
290
     1
  9
$FINGERPRINTGUID
  2
{9F1DD3F3-C20A-4FD7-B886-291117F222A8}
  9
$VERSIONGUID
  2
{033DC227-A641-4F54-8809-DE3734D2B839}
  9
$EXTNAMES
290
     1
  9
$PSVPSCALE
 40
0.0
  9
$OLESTARTUP
290
     0
  0
ENDSEC
  0
SECTION
  2
CLASSES
  0
CLASS
  1
ACDBDICTIONARYWDFLT
  2
AcDbDictionaryWithDefault
  3
AutoCAD 2000
 90
        0
280
     0
281
     0
  0
CLASS
  1
ACDBPLACEHOLDER
  2
AcDbPlaceHolder
  3
AutoCAD 2000
 90
        0
280
     0
281
     0
  0
CLASS
  1
LAYOUT
  2
AcDbLayout
  3
AutoCAD 2000
 90
        0
280
     0
281
     0
  0
CLASS
  1
DICTIONARYVAR
  2
AcDbDictionaryVar
  3
AutoCAD 2000
 90
        0
280
     0
281
     0
  0
ENDSEC
  0
SECTION
  2
TABLES
  0
TABLE
  2
VPORT
  5
1654B
330
0
100
AcDbSymbolTable
 70
     2
  0
VPORT
  5
169B4
330
1654B
100
AcDbSymbolTableRecord
100
AcDbViewportTableRecord
  2
*Active
 70
     0
 10
0.0
 20
0.0
 11
1.0
 21
1.0
 12
8408.331337953367
 22
5702.983730997637
 13
0.0
 23
0.0
 14
1.0
 24
1.0
 15
0.0
 25
0.0
 16
0.0
 26
0.0
 36
1.0
 17
0.0
 27
0.0
 37
0.0
 40
11162.83361536741
 41
1.527918781725888
 42
50.0
 43
0.0
 44
0.0
 50
0.0
 51
0.0
 71
     0
 72
 10000
 73
     1
 74
     0
 75
     0
 76
     0
 77
     0
 78
     0
281
     0
 65
     1
110
0.0
120
0.0
130
0.0
111
1.0
121
0.0
131
0.0
112
0.0
122
1.0
132
0.0
 79
     0
146
0.0
  0
ENDTAB
  0
TABLE
  2
LTYPE
  5
16548
330
0
100
AcDbSymbolTable
 70
     7
  0
LTYPE
  5
16556
330
16548
100
AcDbSymbolTableRecord
100
AcDbLinetypeTableRecord
  2
ByBlock
 70
     0
  3

 72
    65
 73
     0
 40
0.0
  0
LTYPE
  5
16557
330
16548
100
AcDbSymbolTableRecord
100
AcDbLinetypeTableRecord
  2
ByLayer
 70
     0
  3

 72
    65
 73
     0
 40
0.0
  0
LTYPE
  5
16558
330
16548
100
AcDbSymbolTableRecord
100
AcDbLinetypeTableRecord
  2
CONTINUOUS
 70
     0
  3
実線
 72
    65
 73
     0
 40
0.0
  0
LTYPE
  5
16568
330
16548
100
AcDbSymbolTableRecord
100
AcDbLinetypeTableRecord
  2
1PL-L
 70
     0
  3

 72
    65
 73
     4
 40
56.0
 49
50.0
 74
     0
 49
-2.0
 74
     0
 49
2.0
 74
     0
 49
-2.0
 74
     0
  0
LTYPE
  5
16569
330
16548
100
AcDbSymbolTableRecord
100
AcDbLinetypeTableRecord
  2
1PL-M
 70
     0
  3

 72
    65
 73
     4
 40
15.0
 49
12.0
 74
     0
 49
-1.0
 74
     0
 49
1.0
 74
     0
 49
-1.0
 74
     0
  0
LTYPE
  5
1656A
330
16548
100
AcDbSymbolTableRecord
100
AcDbLinetypeTableRecord
  2
2PL-M
 70
     0
  3

 72
    65
 73
     6
 40
17.0
 49
12.0
 74
     0
 49
-1.0
 74
     0
 49
1.0
 74
     0
 49
-1.0
 74
     0
 49
1.0
 74
     0
 49
-1.0
 74
     0
  0
LTYPE
  5
1656B
330
16548
100
AcDbSymbolTableRecord
100
AcDbLinetypeTableRecord
  2
1PL-12
 70
     0
  3

 72
    65
 73
     4
 40
15.0
 49
12.0
 74
     0
 49
-1.0
 74
     0
 49
1.0
 74
     0
 49
-1.0
 74
     0
  0
LTYPE
  5
1656C
330
16548
100
AcDbSymbolTableRecord
100
AcDbLinetypeTableRecord
  2
KAKURE-1
 70
     0
  3

 72
    65
 73
     2
 40
2.0
 49
1.0
 74
     0
 49
-1.0
 74
     0
  0
LTYPE
  5
1656D
330
16548
100
AcDbSymbolTableRecord
100
AcDbLinetypeTableRecord
  2
2PL-12
 70
     0
  3

 72
    65
 73
     6
 40
17.0
 49
12.0
 74
     0
 49
-1.0
 74
     0
 49
1.0
 74
     0
 49
-1.0
 74
     0
 49
1.0
 74
     0
 49
-1.0
 74
     0
  0
ENDTAB
  0
TABLE
  2
LAYER
  5
16545
330
0
100
AcDbSymbolTable
 70
    22
  0
LAYER
  5
16553
330
16545
100
AcDbSymbolTableRecord
100
AcDbLayerTableRecord
  2
0
 70
     0
 62
     7
  6
CONTINUOUS
370
    -3
390
16552
  0
LAYER
  5
16565
330
16545
100
AcDbSymbolTableRecord
100
AcDbLayerTableRecord
  2
SUNPOU
 70
     0
 62
     4
  6
CONTINUOUS
370
    -3
390
16552
  0
LAYER
  5
1656E
330
16545
100
AcDbSymbolTableRecord
100
AcDbLayerTableRecord
  2
U2
 70
     0
 62
     4
  6
CONTINUOUS
370
    -3
390
16552
  0
LAYER
  5
1656F
330
16545
100
AcDbSymbolTableRecord
100
AcDbLayerTableRecord
  2
HIKIDASHI
 70
     0
 62
     6
  6
CONTINUOUS
370
    -3
390
16552
  0
LAYER
  5
16570
330
16545
100
AcDbSymbolTableRecord
100
AcDbLayerTableRecord
  2
1PL-M1
 70
     0
 62
     6
  6
1PL-M
370
    -3
390
16552
  0
LAYER
  5
16571
330
16545
100
AcDbSymbolTableRecord
100
AcDbLayerTableRecord
  2
1PL-L1
 70
     0
 62
     6
  6
1PL-L
370
    -3
390
16552
  0
LAYER
  5
16572
330
16545
100
AcDbSymbolTableRecord
100
AcDbLayerTableRecord
  2
NAME
 70
     0
 62
    20
  6
CONTINUOUS
370
    -3
390
16552
  0
LAYER
  5
16573
330
16545
100
AcDbSymbolTableRecord
100
AcDbLayerTableRecord
  2
FILENAME
 70
     0
 62
     7
  6
CONTINUOUS
370
    -3
390
16552
  0
LAYER
  5
16574
330
16545
100
AcDbSymbolTableRecord
100
AcDbLayerTableRecord
  2
KISO
 70
     0
 62
     2
  6
CONTINUOUS
370
    -3
390
16552
  0
LAYER
  5
16575
330
16545
100
AcDbSymbolTableRecord
100
AcDbLayerTableRecord
  2
YANE
 70
     0
 62
     1
  6
1PL-12
370
    -3
390
16552
  0
LAYER
  5
16576
330
16545
100
AcDbSymbolTableRecord
100
AcDbLayerTableRecord
  2
HATCH
 70
     0
 62
     1
  6
CONTINUOUS
370
    -3
390
16552
  0
LAYER
  5
16577
330
16545
100
AcDbSymbolTableRecord
100
AcDbLayerTableRecord
  2
DOMAKON
 70
     0
 62
     2
  6
CONTINUOUS
370
    -3
390
16552
  0
LAYER
  5
16578
330
16545
100
AcDbSymbolTableRecord
100
AcDbLayerTableRecord
  2
KISO-1
 70
     0
 62
     6
  6
2PL-12
370
    -3
390
16552
  0
LAYER
  5
16579
330
16545
100
AcDbSymbolTableRecord
100
AcDbLayerTableRecord
  2
KISO-2
 70
     0
 62
     1
  6
KAKURE-1
370
    -3
390
16552
  0
LAYER
  5
1657A
330
16545
100
AcDbSymbolTableRecord
100
AcDbLayerTableRecord
  2
SIN
 70
     0
 62
     6
  6
1PL-12
370
    -3
390
16552
  0
LAYER
  5
1657B
330
16545
100
AcDbSymbolTableRecord
100
AcDbLayerTableRecord
  2
CF-101
 70
     0
 62
     3
  6
CONTINUOUS
370
    -3
390
16552
  0
LAYER
  5
1657C
330
16545
100
AcDbSymbolTableRecord
100
AcDbLayerTableRecord
  2
KIN
 70
     0
 62
     7
  6
CONTINUOUS
370
    -3
390
16552
  0
LAYER
  5
1657D
330
16545
100
AcDbSymbolTableRecord
100
AcDbLayerTableRecord
  2
KIN-T
 70
     0
 62
     3
  6
CONTINUOUS
370
    -3
390
16552
  0
LAYER
  5
1657E
330
16545
100
AcDbSymbolTableRecord
100
AcDbLayerTableRecord
  2
YODOROGO
 70
     0
 62
   130
  6
CONTINUOUS
370
    -3
390
16552
  0
LAYER
  5
1657F
330
16545
100
AcDbSymbolTableRecord
100
AcDbLayerTableRecord
  2
WAKUSEN-01
 70
     0
 62
    50
  6
CONTINUOUS
370
    -3
390
16552
  0
LAYER
  5
16580
330
16545
100
AcDbSymbolTableRecord
100
AcDbLayerTableRecord
  2
WAKUSEN-02
 70
     0
 62
   130
  6
CONTINUOUS
370
    -3
390
16552
  0
LAYER
  5
16581
330
16545
100
AcDbSymbolTableRecord
100
AcDbLayerTableRecord
  2
WAKUMOJI-01
 70
     0
 62
   130
  6
CONTINUOUS
370
    -3
390
16552
  0
ENDTAB
  0
TABLE
  2
STYLE
  5
16546
330
0
100
AcDbSymbolTable
 70
     5
  0
STYLE
  5
16554
330
16546
100
AcDbSymbolTableRecord
100
AcDbTextStyleTableRecord
  2
STANDARD
 70
     0
 40
3.0
 41
1.0
 50
0.0
 71
     0
 42
0.2
  3
ROMANS
  4
EXTFONT
  0
STYLE
  5
16566
330
16546
100
AcDbSymbolTableRecord
100
AcDbTextStyleTableRecord
  2
00
 70
     0
 40
0.0
 41
0.6666666666666666
 50
0.0
 71
     0
 42
0.2
  3
ROMANS
  4
BIGFONT
  0
STYLE
  5
16582
330
16546
100
AcDbSymbolTableRecord
100
AcDbTextStyleTableRecord
  2
01
 70
     0
 40
3.0
 41
1.0
 50
0.0
 71
     0
 42
0.2
  3
ROMANS
  4
BIGFONT
  0
STYLE
  5
16583
330
16546
100
AcDbSymbolTableRecord
100
AcDbTextStyleTableRecord
  2
WAKUMOJI
 70
     0
 40
3.0
 41
1.0
 50
0.0
 71
     0
 42
3.0
  3
SIMPLEX
  4
BIGFONT
  0
STYLE
  5
16584
330
16546
100
AcDbSymbolTableRecord
100
AcDbTextStyleTableRecord
  2
FILENAME
 70
     0
 40
100.0
 41
1.0
 50
0.0
 71
     0
 42
100.0
  3
romans
  4
bigfont
  0
ENDTAB
  0
TABLE
  2
VIEW
  5
16549
330
0
100
AcDbSymbolTable
 70
     0
  0
ENDTAB
  0
TABLE
  2
UCS
  5
1654A
330
0
100
AcDbSymbolTable
 70
     0
  0
ENDTAB
  0
TABLE
  2
APPID
  5
1654C
330
0
100
AcDbSymbolTable
 70
     7
  0
APPID
  5
16555
330
1654C
100
AcDbSymbolTableRecord
100
AcDbRegAppTableRecord
  2
ACAD
 70
     0
  0
APPID
  5
16585
330
1654C
100
AcDbSymbolTableRecord
100
AcDbRegAppTableRecord
  2
AUTOCAD_POSTSCRIPT_FIGURE
 70
     0
  0
APPID
  5
16586
330
1654C
100
AcDbSymbolTableRecord
100
AcDbRegAppTableRecord
  2
ACAD_PSEXT
 70
     0
  0
APPID
  5
16587
330
1654C
100
AcDbSymbolTableRecord
100
AcDbRegAppTableRecord
  2
AEC_XDATA_BOUND_SPACE
 70
     0
  0
APPID
  5
16588
330
1654C
100
AcDbSymbolTableRecord
100
AcDbRegAppTableRecord
  2
ACAD_NAV_VCDISPLAY
 70
     0
  0
APPID
  5
16589
330
1654C
100
AcDbSymbolTableRecord
100
AcDbRegAppTableRecord
  2
ACAD_EXEMPT_FROM_CAD_STANDARDS
 70
     0
  0
APPID
  5
1658A
330
1654C
100
AcDbSymbolTableRecord
100
AcDbRegAppTableRecord
  2
ACAD_MLEADERVER
 70
     0
  0
ENDTAB
  0
TABLE
  2
DIMSTYLE
  5
1654D
330
0
100
AcDbSymbolTable
 70
     1
100
AcDbDimStyleTable
 71
     0
  0
DIMSTYLE
105
1658B
330
1654D
100
AcDbSymbolTableRecord
100
AcDbDimStyleTableRecord
  2
SUNPOU_図面名
 70
     0
 40
40.0
 41
0.5
 42
1.0
 43
7.0
 44
1.125
 46
3.0
 73
     0
 74
     0
 77
     1
 78
     8
140
2.25
141
0.0
147
1.125
172
     1
173
     1
176
   256
177
   256
178
   256
271
     2
272
     2
279
     2
284
     8
285
     8
286
     8
340
16566
  0
ENDTAB
  0
TABLE
  2
BLOCK_RECORD
  5
16544
330
0
100
AcDbSymbolTable
 70
     3
  0
BLOCK_RECORD
  5
16561
330
16544
100
AcDbSymbolTableRecord
100
AcDbBlockTableRecord
  2
*Model_Space
340
16564
  0
BLOCK_RECORD
  5
1655D
330
16544
100
AcDbSymbolTableRecord
100
AcDbBlockTableRecord
  2
*Paper_Space
340
16560
  0
BLOCK_RECORD
  5
16590
330
16544
100
AcDbSymbolTableRecord
100
AcDbBlockTableRecord
  2
$MODEL_SPACE
340
0
  0
BLOCK_RECORD
  5
16593
330
16544
100
AcDbSymbolTableRecord
100
AcDbBlockTableRecord
  2
$PAPER_SPACE
340
0
  0
BLOCK_RECORD
  5
16596
330
16544
100
AcDbSymbolTableRecord
100
AcDbBlockTableRecord
  2
DOT
340
0
  0
ENDTAB
  0
ENDSEC
  0
SECTION
  2
BLOCKS
  0
BLOCK
  5
16562
330
16561
100
AcDbEntity
  8
0
100
AcDbBlockBegin
  2
*Model_Space
 70
     0
 10
0.0
 20
0.0
 30
0.0
  3
*Model_Space
  1

  0
ENDBLK
  5
16563
330
16561
100
AcDbEntity
  8
0
100
AcDbBlockEnd
  0
BLOCK
  5
1655E
330
1655D
100
AcDbEntity
 67
     1
  8
0
100
AcDbBlockBegin
  2
*Paper_Space
 70
     0
 10
0.0
 20
0.0
 30
0.0
  3
*Paper_Space
  1

  0
ENDBLK
  5
1655F
330
1655D
100
AcDbEntity
 67
     1
  8
0
100
AcDbBlockEnd
  0
BLOCK
  5
16591
330
16590
100
AcDbEntity
  8
0
100
AcDbBlockBegin
  2
$MODEL_SPACE
 70
     0
 10
0.0
 20
0.0
 30
0.0
  3
$MODEL_SPACE
  1

  0
ENDBLK
  5
16592
330
16590
100
AcDbEntity
  8
0
100
AcDbBlockEnd
  0
BLOCK
  5
16594
330
16593
100
AcDbEntity
  8
0
100
AcDbBlockBegin
  2
$PAPER_SPACE
 70
     0
 10
0.0
 20
0.0
 30
0.0
  3
$PAPER_SPACE
  1

  0
ENDBLK
  5
16595
330
16593
100
AcDbEntity
  8
0
100
AcDbBlockEnd
  0
BLOCK
  5
16597
330
16596
100
AcDbEntity
  8
0
100
AcDbBlockBegin
  2
DOT
 70
     0
 10
0.0
 20
0.0
 30
0.0
  3
DOT
  1

  0
LWPOLYLINE
  5
16598
330
16596
100
AcDbEntity
  8
0
  6
ByBlock
 62
     0
100
AcDbPolyline
 90
        2
 70
     1
 43
0.75
 10
-0.375
 20
0.0
 42
1.0
 10
0.375
 20
0.0
 42
1.0
  0
LINE
  5
1659C
330
16596
100
AcDbEntity
  8
0
  6
ByBlock
 62
     0
100
AcDbLine
 10
-0.75
 20
0.0
 30
0.0
 11
-1.5
 21
0.0
 31
0.0
  0
ENDBLK
  5
1659D
330
16596
100
AcDbEntity
  8
0
100
AcDbBlockEnd
  0
ENDSEC
  0
SECTION
  2
ENTITIES
  0
LINE
  5
1659E
330
16561
100
AcDbEntity
  8
KIN
100
AcDbLine
 10
11419.12750789964
 20
8301.279066364539
 30
0.0
 11
11419.12750789964
 21
7661.279066364541
 31
0.0
  0
LINE
  5
1659F
330
16561
100
AcDbEntity
  8
SIN
100
AcDbLine
 10
5138.677507899643
 20
7836.279066364538
 30
0.0
 11
4899.577507899645
 21
7836.279066364538
 31
0.0
  0
LINE
  5
165A0
330
16561
100
AcDbEntity
  8
SIN
100
AcDbLine
 10
5138.677507899643
 20
8126.279066364539
 30
0.0
 11
4899.577507899645
 21
8126.279066364539
 31
0.0
  0
CIRCLE
  5
165A1
330
16561
100
AcDbEntity
  8
KISO-2
100
AcDbCircle
 10
5019.127507899644
 20
8126.279066364539
 30
0.0
 40
44.55
  0
CIRCLE
  5
165A2
330
16561
100
AcDbEntity
  8
KISO-2
100
AcDbCircle
 10
5019.127507899644
 20
7836.279066364538
 30
0.0
 40
44.55
  0
CIRCLE
  5
165A3
330
16561
100
AcDbEntity
  8
KISO-2
100
AcDbCircle
 10
7019.127507899644
 20
8126.279066364539
 30
0.0
 40
44.55
  0
LINE
  5
165A4
330
16561
100
AcDbEntity
  8
SIN
100
AcDbLine
 10
7138.677507899642
 20
8126.279066364539
 30
0.0
 11
6899.577507899644
 21
8126.279066364539
 31
0.0
  0
LINE
  5
165A5
330
16561
100
AcDbEntity
  8
SIN
100
AcDbLine
 10
7138.677507899642
 20
7836.279066364538
 30
0.0
 11
6899.577507899644
 21
7836.279066364538
 31
0.0
  0
CIRCLE
  5
165A6
330
16561
100
AcDbEntity
  8
KISO-2
100
AcDbCircle
 10
7019.127507899644
 20
7836.279066364538
 30
0.0
 40
44.55
  0
LINE
  5
165A7
330
16561
100
AcDbEntity
  8
SIN
100
AcDbLine
 10
9538.677507899643
 20
7836.279066364538
 30
0.0
 11
9299.577507899643
 21
7836.279066364538
 31
0.0
  0
LINE
  5
165A8
330
16561
100
AcDbEntity
  8
SIN
100
AcDbLine
 10
9538.677507899643
 20
8126.279066364539
 30
0.0
 11
9299.577507899643
 21
8126.279066364539
 31
0.0
  0
CIRCLE
  5
165A9
330
16561
100
AcDbEntity
  8
KISO-2
100
AcDbCircle
 10
9419.127507899643
 20
8126.279066364539
 30
0.0
 40
44.55
  0
CIRCLE
  5
165AA
330
16561
100
AcDbEntity
  8
KISO-2
100
AcDbCircle
 10
9419.127507899643
 20
7836.279066364538
 30
0.0
 40
44.55
  0
TEXT
  5
165AB
330
16561
100
AcDbEntity
  8
HIKIDASHI
100
AcDbText
 10
8259.599034404274
 20
4680.01570763025
 30
0.0
 40
135.0
  1
N
 41
0.6666666666666666
  7
00
 72
     4
 11
8306.741891547131
 21
4747.51570763025
 31
0.0
100
AcDbText
  0
TEXT
  5
165AC
330
16561
100
AcDbEntity
  8
HIKIDASHI
100
AcDbText
 10
7156.58988462631
 20
4882.515707630251
 30
0.0
 40
135.0
  1
基 礎 平 面 図　 縮尺
  7
01
 72
     4
 11
7989.089884626308
 21
4950.01570763025
 31
0.0
100
AcDbText
  0
TEXT
  5
165AD
330
16561
100
AcDbEntity
  8
HIKIDASHI
100
AcDbText
 10
8058.685640680186
 20
4680.01570763025
 30
0.0
 40
135.0
  1
（  ：スパン数）
  7
01
 72
     4
 11
8684.185640680187
 21
4747.51570763025
 31
0.0
100
AcDbText
  0
LINE
  5
165AE
330
16561
100
AcDbEntity
  8
SUNPOU
100
AcDbLine
 10
4169.127507899644
 20
7821.279066364538
 30
0.0
 11
4169.127507899644
 21
5851.279066364538
 31
0.0
  0
LINE
  5
165AF
330
16561
100
AcDbEntity
  8
U2
100
AcDbLine
 10
8069.127507899645
 20
10201.27906636453
 30
0.0
 11
8069.127507899645
 21
5761.279066364538
 31
0.0
  0
LINE
  5
165B0
330
16561
100
AcDbEntity
  8
U2
100
AcDbLine
 10
8369.127507899648
 20
10201.27906636453
 30
0.0
 11
8369.127507899648
 21
5761.279066364538
 31
0.0
  0
LINE
  5
165B1
330
16561
100
AcDbEntity
  8
SUNPOU
100
AcDbLine
 10
4589.127507899644
 20
5836.279066364538
 30
0.0
 11
4139.127507899644
 21
5836.279066364538
 31
0.0
  0
TEXT
  5
165B2
330
16561
100
AcDbEntity
  8
HIKIDASHI
100
AcDbText
 10
5694.907558109866
 20
5701.279066364532
 30
0.0
 40
90.0
  1
（土間コン前面位置）
  7
01
100
AcDbText
  0
TEXT
  5
165B3
330
16561
100
AcDbEntity
  8
HIKIDASHI
100
AcDbText
 10
5803.553647771402
 20
5992.729793983198
 30
0.0
 40
90.0
  1
（鼻隠し外面）
  7
01
100
AcDbText
  0
LINE
  5
165B4
330
16561
100
AcDbEntity
  8
SUNPOU
100
AcDbLine
 10
4869.577507899645
 20
7836.279066364538
 30
0.0
 11
4139.127507899644
 21
7836.279066364538
 31
0.0
  0
LINE
  5
165B5
330
16561
100
AcDbEntity
  8
SUNPOU
100
AcDbLine
 10
4869.577507899645
 20
7836.279066364538
 30
0.0
 11
4139.127507899644
 21
7836.279066364538
 31
0.0
  0
LINE
  5
165B6
330
16561
100
AcDbEntity
  8
SUNPOU
100
AcDbLine
 10
4869.577507899645
 20
8126.279066364539
 30
0.0
 11
4139.127507899644
 21
8126.279066364539
 31
0.0
  0
LINE
  5
165B7
330
16561
100
AcDbEntity
  8
SUNPOU
100
AcDbLine
 10
4869.577507899645
 20
8126.279066364539
 30
0.0
 11
4139.127507899644
 21
8126.279066364539
 31
0.0
  0
TEXT
  5
165B8
330
16561
100
AcDbEntity
  8
SUNPOU
100
AcDbText
 10
4124.127507899642
 20
9011.993352078825
 30
0.0
 40
90.0
  1
2000
 50
90.0
 41
0.6666666666666666
  7
00
 72
     1
 11
4079.127507899642
 21
9126.279066364539
 31
0.0
100
AcDbText
 73
     2
  0
LINE
  5
165B9
330
16561
100
AcDbEntity
  8
SUNPOU
100
AcDbLine
 10
4169.127507899644
 20
10111.27906636454
 30
0.0
 11
4169.127507899644
 21
8141.279066364537
 31
0.0
  0
TEXT
  5
165BA
330
16561
100
AcDbEntity
  8
HIKIDASHI
100
AcDbText
 10
4574.127507899638
 20
8838.462240836198
 30
0.0
 40
90.0
  1
（土間コン側面位置）
 50
90.0
  7
01
100
AcDbText
  0
TEXT
  5
165BB
330
16561
100
AcDbEntity
  8
SUNPOU
100
AcDbText
 10
4124.127507899642
 20
6721.993352078823
 30
0.0
 40
90.0
  1
2000
 50
90.0
 41
0.6666666666666666
  7
00
 72
     1
 11
4079.127507899642
 21
6836.279066364538
 31
0.0
100
AcDbText
 73
     2
  0
TEXT
  5
165BC
330
16561
100
AcDbEntity
  8
SUNPOU
100
AcDbText
 10
4124.127507899642
 20
7895.564780650253
 30
0.0
 40
90.0
  1
290
 50
90.0
 41
0.6666666666666666
  7
00
 72
     1
 11
4079.127507899642
 21
7981.279066364539
 31
0.0
100
AcDbText
 73
     2
  0
LINE
  5
165BD
330
16561
100
AcDbEntity
  8
SUNPOU
100
AcDbLine
 10
4169.127507899644
 20
8111.279066364541
 30
0.0
 11
4169.127507899644
 21
7851.279066364539
 31
0.0
  0
LINE
  5
165BE
330
16561
100
AcDbEntity
  8
SUNPOU
100
AcDbLine
 10
4589.127507899644
 20
10126.27906636453
 30
0.0
 11
4139.127507899644
 21
10126.27906636453
 31
0.0
  0
TEXT
  5
165BF
330
16561
100
AcDbEntity
  8
HIKIDASHI
100
AcDbText
 10
4932.32685484841
 20
8947.108330497737
 30
0.0
 40
90.0
  1
（けらば外面）
 50
90.0
  7
01
100
AcDbText
  0
LINE
  5
165C0
330
16561
100
AcDbEntity
  8
SIN
100
AcDbLine
 10
5019.127507899639
 20
8793.279066364538
 30
0.0
 11
5019.127507899644
 21
7169.27906636454
 31
0.0
  0
LINE
  5
165C1
330
16561
100
AcDbEntity
  8
SIN
100
AcDbLine
 10
7019.127507899643
 20
8793.279066364538
 30
0.0
 11
7019.127507899644
 21
7169.27906636454
 31
0.0
  0
TEXT
  5
165C2
330
16561
100
AcDbEntity
  8
HIKIDASHI
100
AcDbText
 10
5694.907558109866
 20
10171.27906636454
 30
0.0
 40
90.0
  1
（土間コン後面位置）
  7
01
100
AcDbText
  0
TEXT
  5
165C3
330
16561
100
AcDbEntity
  8
HIKIDASHI
100
AcDbText
 10
5803.553647771402
 20
9879.828338745877
 30
0.0
 40
90.0
  1
（鼻隠し外面）
  7
01
100
AcDbText
  0
TEXT
  5
165C4
330
16561
100
AcDbEntity
  8
HIKIDASHI
100
AcDbText
 10
8894.580645725838
 20
4892.158564773107
 30
0.0
 40
135.0
  1
=
 41
0.6666666666666666
  7
00
 72
     4
 11
8950.294931440124
 21
4950.01570763025
 31
0.0
100
AcDbText
  0
LINE
  5
165C5
330
16561
100
AcDbEntity
  8
HIKIDASHI
100
AcDbLine
 10
9212.819617758427
 20
5017.51570763025
 30
0.0
 11
9077.81961775843
 21
4882.515707630251
 31
0.0
  0
TEXT
  5
165C6
330
16561
100
AcDbEntity
  8
HIKIDASHI
100
AcDbText
 10
9080.229713783124
 20
4949.929564181453
 30
0.0
 40
67.5
  1
1
 41
0.6666666666666666
  7
00
 72
     4
 11
9098.44399949741
 21
4983.679564181453
 31
0.0
100
AcDbText
  0
TEXT
  5
165C7
330
16561
100
AcDbEntity
  8
HIKIDASHI
100
AcDbText
 10
9163.971680921944
 20
4882.515707630251
 30
0.0
 40
67.5
  1
40
 41
0.6666666666666666
  7
00
 72
     4
 11
9206.828823779089
 21
4916.26570763025
 31
0.0
100
AcDbText
  0
TEXT
  5
165C8
330
16561
100
AcDbEntity
  8
HIKIDASHI
100
AcDbText
 10
11595.92816095086
 20
8947.108330497737
 30
0.0
 40
90.0
  1
（けらば外面）
 50
90.0
  7
01
100
AcDbText
  0
LINE
  5
165C9
330
16561
100
AcDbEntity
  8
SIN
100
AcDbLine
 10
9419.127507899641
 20
8793.279066364538
 30
0.0
 11
9419.127507899643
 21
7169.27906636454
 31
0.0
  0
LINE
  5
165CA
330
16561
100
AcDbEntity
  8
HIKIDASHI
100
AcDbLine
 10
11504.67355367811
 20
8022.425435943331
 30
0.0
 11
11871.36353963538
 21
7577.260660246182
 31
0.0
  0
LINE
  5
165CB
330
16561
100
AcDbEntity
  8
SUNPOU
100
AcDbLine
 10
12269.12750789963
 20
7251.279066364539
 30
0.0
 11
12269.12750789963
 21
7821.279066364538
 31
0.0
  0
LINE
  5
165CC
330
16561
100
AcDbEntity
  8
SUNPOU
100
AcDbLine
 10
12479.12750789962
 20
7251.279066364539
 30
0.0
 11
12479.12750789962
 21
8711.279066364539
 31
0.0
  0
LINE
  5
165CD
330
16561
100
AcDbEntity
  8
KISO-1
100
AcDbLine
 10
11819.12750789964
 20
8726.279066364538
 30
0.0
 11
11819.12750789965
 21
7236.279066364541
 31
0.0
  0
CIRCLE
  5
165CE
330
16561
100
AcDbEntity
  8
KISO-2
100
AcDbCircle
 10
11419.12750789964
 20
7836.279066364538
 30
0.0
 40
44.55
  0
LINE
  5
165CF
330
16561
100
AcDbEntity
  8
KISO-1
100
AcDbLine
 10
11019.12750789964
 20
7236.279066364541
 30
0.0
 11
11019.12750789964
 21
8726.279066364538
 31
0.0
  0
LINE
  5
165D0
330
16561
100
AcDbEntity
  8
SIN
100
AcDbLine
 10
11419.12750789964
 20
8793.279066364538
 30
0.0
 11
11419.12750789964
 21
7169.27906636454
 31
0.0
  0
LINE
  5
165D1
330
16561
100
AcDbEntity
  8
SUNPOU
100
AcDbLine
 10
11849.12750789963
 20
7236.279066364541
 30
0.0
 11
12509.12750789964
 21
7236.279066364541
 31
0.0
  0
TEXT
  5
165D2
330
16561
100
AcDbEntity
  8
HIKIDASHI
100
AcDbText
 10
11893.04864788343
 20
7622.260660246183
 30
0.0
 40
90.0
  1
柱
  7
01
100
AcDbText
  0
LINE
  5
165D3
330
16561
100
AcDbEntity
  8
HIKIDASHI
100
AcDbLine
 10
11987.04864788344
 20
7577.260660246182
 30
0.0
 11
11871.36353963538
 21
7577.260660246182
 31
0.0
  0
TEXT
  5
165D4
330
16561
100
AcDbEntity
  8
SUNPOU
100
AcDbText
 10
12224.12750789962
 20
7449.136209221684
 30
0.0
 40
90.0
  1
600
 50
90.0
 41
0.6666666666666666
  7
00
 72
     1
 11
12179.12750789962
 21
7536.279066364541
 31
0.0
100
AcDbText
 73
     2
  0
LINE
  5
165D5
330
16561
100
AcDbEntity
  8
SUNPOU
100
AcDbLine
 10
11019.12750789964
 20
7201.702201810381
 30
0.0
 11
11019.12750789964
 21
6941.27906636454
 31
0.0
  0
TEXT
  5
165D6
330
16561
100
AcDbEntity
  8
SUNPOU
100
AcDbText
 10
11333.41322218535
 20
7031.279066364544
 30
0.0
 40
90.0
  1
800
 41
0.6666666666666666
  7
00
 72
     1
 11
11419.12750789964
 21
7076.279066364543
 31
0.0
100
AcDbText
 73
     2
  0
LINE
  5
165D7
330
16561
100
AcDbEntity
  8
SUNPOU
100
AcDbLine
 10
11804.12750789963
 20
6986.27906636454
 30
0.0
 11
11034.12750789964
 21
6986.27906636454
 31
0.0
  0
LINE
  5
165D8
330
16561
100
AcDbEntity
  8
KISO-1
100
AcDbLine
 10
11819.12750789964
 20
7236.279066364541
 30
0.0
 11
11019.12750789964
 21
7236.279066364541
 31
0.0
  0
LINE
  5
165D9
330
16561
100
AcDbEntity
  8
HIKIDASHI
100
AcDbLine
 10
11536.88430747624
 20
7771.317749469698
 30
0.0
 11
11871.36353963538
 21
7577.260660246183
 31
0.0
  0
LINE
  5
165DA
330
16561
100
AcDbEntity
  8
SUNPOU
100
AcDbLine
 10
11568.67750789964
 20
8126.279066364539
 30
0.0
 11
12299.12750789962
 21
8126.279066364539
 31
0.0
  0
LINE
  5
165DB
330
16561
100
AcDbEntity
  8
SUNPOU
100
AcDbLine
 10
11568.67750789964
 20
8126.279066364539
 30
0.0
 11
12299.12750789962
 21
8126.279066364539
 31
0.0
  0
LINE
  5
165DC
330
16561
100
AcDbEntity
  8
SUNPOU
100
AcDbLine
 10
11568.67750789964
 20
7836.279066364538
 30
0.0
 11
12299.12750789962
 21
7836.279066364538
 31
0.0
  0
LINE
  5
165DD
330
16561
100
AcDbEntity
  8
SUNPOU
100
AcDbLine
 10
11568.67750789964
 20
7836.279066364538
 30
0.0
 11
12299.12750789962
 21
7836.279066364538
 31
0.0
  0
LINE
  5
165DE
330
16561
100
AcDbEntity
  8
SUNPOU
100
AcDbLine
 10
11849.12750789965
 20
8726.279066364538
 30
0.0
 11
12509.12750789964
 21
8726.279066364538
 31
0.0
  0
LINE
  5
165DF
330
16561
100
AcDbEntity
  8
SUNPOU
100
AcDbLine
 10
12269.12750789963
 20
8141.279066364537
 30
0.0
 11
12269.12750789963
 21
8711.279066364539
 31
0.0
  0
TEXT
  5
165E0
330
16561
100
AcDbEntity
  8
SUNPOU
100
AcDbText
 10
12434.12750789963
 20
7862.707637793111
 30
0.0
 40
90.0
  1
1490
 50
90.0
 41
0.6666666666666666
  7
00
 72
     1
 11
12389.12750789963
 21
7981.279066364539
 31
0.0
100
AcDbText
 73
     2
  0
TEXT
  5
165E1
330
16561
100
AcDbEntity
  8
SUNPOU
100
AcDbText
 10
12224.12750789962
 20
7895.564780650253
 30
0.0
 40
90.0
  1
290
 50
90.0
 41
0.6666666666666666
  7
00
 72
     1
 11
12179.12750789962
 21
7981.279066364539
 31
0.0
100
AcDbText
 73
     2
  0
LINE
  5
165E2
330
16561
100
AcDbEntity
  8
SUNPOU
100
AcDbLine
 10
12269.12750789963
 20
7851.279066364539
 30
0.0
 11
12269.12750789963
 21
8111.279066364541
 31
0.0
  0
TEXT
  5
165E3
330
16561
100
AcDbEntity
  8
SUNPOU
100
AcDbText
 10
12224.12750789962
 20
8339.136209221683
 30
0.0
 40
90.0
  1
600
 50
90.0
 41
0.6666666666666666
  7
00
 72
     1
 11
12179.12750789962
 21
8426.279066364539
 31
0.0
100
AcDbText
 73
     2
  0
LINE
  5
165E4
330
16561
100
AcDbEntity
  8
SIN
100
AcDbLine
 10
11538.67750789964
 20
8126.279066364539
 30
0.0
 11
11299.57750789964
 21
8126.279066364539
 31
0.0
  0
LINE
  5
165E5
330
16561
100
AcDbEntity
  8
SIN
100
AcDbLine
 10
11538.67750789964
 20
7836.279066364538
 30
0.0
 11
11299.57750789964
 21
7836.279066364538
 31
0.0
  0
CIRCLE
  5
165E6
330
16561
100
AcDbEntity
  8
KISO-2
100
AcDbCircle
 10
11419.12750789964
 20
8126.279066364539
 30
0.0
 40
44.55
  0
LINE
  5
165E7
330
16561
100
AcDbEntity
  8
KISO-1
100
AcDbLine
 10
11019.12750789964
 20
8726.279066364538
 30
0.0
 11
11819.12750789964
 21
8726.279066364538
 31
0.0
  0
TEXT
  5
165E8
330
16561
100
AcDbEntity
  8
HIKIDASHI
100
AcDbText
 10
11954.12750789965
 20
8838.462240836198
 30
0.0
 40
90.0
  1
（土間コン側面位置）
 50
90.0
  7
01
100
AcDbText
  0
LINE
  5
165E9
330
16561
100
AcDbEntity
  8
SUNPOU
100
AcDbLine
 10
9209.127507899644
 20
8976.279066364538
 30
0.0
 11
9419.127507899643
 21
8976.279066364538
 31
0.0
  0
TEXT
  5
165EA
330
16561
100
AcDbEntity
  8
SUNPOU
100
AcDbText
 10
8993.234650756784
 20
8922.707637793109
 30
0.0
 40
90.0
  1
A'
 41
0.6700000000000001
  7
00
 72
     4
 11
9029.127507899641
 21
8976.279066364538
 31
0.0
100
AcDbText
  0
LINE
  5
165EB
330
16561
100
AcDbEntity
  8
SUNPOU
100
AcDbLine
 10
9419.127507899643
 20
8976.279066364538
 30
0.0
 11
9419.127507899643
 21
8826.27906636454
 31
0.0
  0
TEXT
  5
165EC
330
16561
100
AcDbEntity
  8
SUNPOU
100
AcDbText
 10
9003.284650756787
 20
6941.27906636454
 30
0.0
 40
90.0
  1
A
 41
0.6700000000000001
  7
00
 72
     4
 11
9029.127507899644
 21
6986.27906636454
 31
0.0
100
AcDbText
  0
LINE
  5
165ED
330
16561
100
AcDbEntity
  8
SUNPOU
100
AcDbLine
 10
9419.127507899643
 20
6986.27906636454
 30
0.0
 11
9419.127507899643
 21
7136.27906636454
 31
0.0
  0
LINE
  5
165EE
330
16561
100
AcDbEntity
  8
SUNPOU
100
AcDbLine
 10
9209.127507899644
 20
6986.27906636454
 30
0.0
 11
9419.127507899643
 21
6986.27906636454
 31
0.0
  0
LINE
  5
165EF
330
16561
100
AcDbEntity
  8
SUNPOU
100
AcDbLine
 10
4169.127507899644
 20
5847.52906636454
 30
0.0
 11
4169.127507899644
 21
5858.779066364538
 31
0.0
  0
LINE
  5
165F0
330
16561
100
AcDbEntity
  8
SUNPOU
100
AcDbLine
 10
4169.127507899644
 20
8137.529066364539
 30
0.0
 11
4169.127507899644
 21
8148.779066364538
 31
0.0
  0
LINE
  5
165F1
330
16561
100
AcDbEntity
  8
SUNPOU
100
AcDbLine
 10
4169.127507899644
 20
7847.529066364541
 30
0.0
 11
4169.127507899644
 21
7858.779066364538
 31
0.0
  0
LINE
  5
165F2
330
16561
100
AcDbEntity
  8
SUNPOU
100
AcDbLine
 10
4169.127507899644
 20
7825.029066364539
 30
0.0
 11
4169.127507899644
 21
7813.779066364539
 31
0.0
  0
LINE
  5
165F3
330
16561
100
AcDbEntity
  8
SUNPOU
100
AcDbLine
 10
4169.127507899644
 20
8115.02906636454
 30
0.0
 11
4169.127507899644
 21
8103.779066364538
 31
0.0
  0
LINE
  5
165F4
330
16561
100
AcDbEntity
  8
SUNPOU
100
AcDbLine
 10
4169.127507899644
 20
10115.02906636454
 30
0.0
 11
4169.127507899644
 21
10103.77906636453
 31
0.0
  0
LINE
  5
165F5
330
16561
100
AcDbEntity
  8
SUNPOU
100
AcDbLine
 10
9209.127507899644
 20
6971.279066364537
 30
0.0
 11
9119.127507899644
 21
6986.27906636454
 31
0.0
  0
LINE
  5
165F6
330
16561
100
AcDbEntity
  8
SUNPOU
100
AcDbLine
 10
9119.127507899644
 20
6986.27906636454
 30
0.0
 11
9209.127507899644
 21
7001.279066364539
 31
0.0
  0
SOLID
  5
165F7
330
16561
100
AcDbEntity
  8
SUNPOU
100
AcDbTrace
 10
9209.127507899644
 20
6971.279066364537
 30
0.0
 11
9209.127507899644
 21
7001.279066364539
 31
0.0
 12
9119.127507899644
 22
6986.27906636454
 32
0.0
 13
9119.127507899644
 23
6986.27906636454
 33
0.0
  0
LINE
  5
165F8
330
16561
100
AcDbEntity
  8
SUNPOU
100
AcDbLine
 10
9209.127507899644
 20
7001.279066364539
 30
0.0
 11
9209.127507899644
 21
6971.279066364537
 31
0.0
  0
LINE
  5
165F9
330
16561
100
AcDbEntity
  8
SUNPOU
100
AcDbLine
 10
9209.127507899644
 20
8991.279066364539
 30
0.0
 11
9119.127507899641
 21
8976.279066364538
 31
0.0
  0
LINE
  5
165FA
330
16561
100
AcDbEntity
  8
SUNPOU
100
AcDbLine
 10
9119.127507899641
 20
8976.279066364538
 30
0.0
 11
9209.127507899644
 21
8961.279066364539
 31
0.0
  0
SOLID
  5
165FB
330
16561
100
AcDbEntity
  8
SUNPOU
100
AcDbTrace
 10
9209.127507899644
 20
8991.279066364539
 30
0.0
 11
9209.127507899644
 21
8961.279066364539
 31
0.0
 12
9119.127507899641
 22
8976.279066364538
 32
0.0
 13
9119.127507899641
 23
8976.279066364538
 33
0.0
  0
LINE
  5
165FC
330
16561
100
AcDbEntity
  8
SUNPOU
100
AcDbLine
 10
9209.127507899644
 20
8961.279066364539
 30
0.0
 11
9209.127507899644
 21
8991.279066364539
 31
0.0
  0
LINE
  5
165FD
330
16561
100
AcDbEntity
  8
SUNPOU
100
AcDbLine
 10
11030.37750789964
 20
6986.27906636454
 30
0.0
 11
11041.62750789964
 21
6986.27906636454
 31
0.0
  0
LINE
  5
165FE
330
16561
100
AcDbEntity
  8
SUNPOU
100
AcDbLine
 10
11807.87750789964
 20
6986.27906636454
 30
0.0
 11
11796.62750789963
 21
6986.27906636454
 31
0.0
  0
LINE
  5
165FF
330
16561
100
AcDbEntity
  8
SUNPOU
100
AcDbLine
 10
12269.12750789963
 20
7247.529066364538
 30
0.0
 11
12269.12750789963
 21
7258.779066364538
 31
0.0
  0
LINE
  5
16600
330
16561
100
AcDbEntity
  8
SUNPOU
100
AcDbLine
 10
12479.12750789962
 20
7247.529066364538
 30
0.0
 11
12479.12750789962
 21
7258.779066364538
 31
0.0
  0
LINE
  5
16601
330
16561
100
AcDbEntity
  8
SUNPOU
100
AcDbLine
 10
12269.12750789963
 20
8137.529066364539
 30
0.0
 11
12269.12750789963
 21
8148.779066364538
 31
0.0
  0
LINE
  5
16602
330
16561
100
AcDbEntity
  8
SUNPOU
100
AcDbLine
 10
12269.12750789963
 20
7825.029066364539
 30
0.0
 11
12269.12750789963
 21
7813.779066364539
 31
0.0
  0
LINE
  5
16603
330
16561
100
AcDbEntity
  8
SUNPOU
100
AcDbLine
 10
12269.12750789963
 20
7847.529066364541
 30
0.0
 11
12269.12750789963
 21
7858.779066364538
 31
0.0
  0
LINE
  5
16604
330
16561
100
AcDbEntity
  8
SUNPOU
100
AcDbLine
 10
12269.12750789963
 20
8115.02906636454
 30
0.0
 11
12269.12750789963
 21
8103.779066364538
 31
0.0
  0
LINE
  5
16605
330
16561
100
AcDbEntity
  8
SUNPOU
100
AcDbLine
 10
12269.12750789963
 20
8715.02906636454
 30
0.0
 11
12269.12750789963
 21
8703.779066364539
 31
0.0
  0
LINE
  5
16606
330
16561
100
AcDbEntity
  8
SUNPOU
100
AcDbLine
 10
12479.12750789962
 20
8715.02906636454
 30
0.0
 11
12479.12750789962
 21
8703.779066364539
 31
0.0
  0
LINE
  5
16607
330
16561
100
AcDbEntity
  8
KIN
100
AcDbLine
 10
2776.429052763162
 20
2429.885413258392
 30
0.0
 11
2977.149052763162
 21
2429.885413258392
 31
0.0
  0
LINE
  5
16608
330
16561
100
AcDbEntity
  8
KIN
100
AcDbLine
 10
3784.429052763191
 20
2429.885413258392
 30
0.0
 11
3583.709052763194
 21
2429.885413258392
 31
0.0
  0
LINE
  5
16609
330
16561
100
AcDbEntity
  8
KIN
100
AcDbLine
 10
3441.149052763162
 20
2429.885413258392
 30
0.0
 11
3328.429052763161
 21
2429.885413258392
 31
0.0
  0
LINE
  5
1660A
330
16561
100
AcDbEntity
  8
KIN
100
AcDbLine
 10
3119.709052763161
 20
2429.885413258392
 30
0.0
 11
3232.42905276319
 21
2429.885413258392
 31
0.0
  0
CIRCLE
  5
1660B
330
16561
100
AcDbEntity
  8
KIN
100
AcDbCircle
 10
2200.429052763164
 20
2200.285413258393
 30
0.0
 40
10.39999999999998
  0
LINE
  5
1660C
330
16561
100
AcDbEntity
  8
HATCH
100
AcDbLine
 10
4167.744651721142
 20
2144.095558041985
 30
0.0
 11
4133.534506937553
 21
2109.885413258396
 31
0.0
  0
LINE
  5
1660D
330
16561
100
AcDbEntity
  8
HATCH
100
AcDbLine
 10
4072.709500329676
 20
2144.095558041985
 30
0.0
 11
4038.499355546088
 21
2109.885413258397
 31
0.0
  0
LINE
  5
1660E
330
16561
100
AcDbEntity
  8
HATCH
100
AcDbLine
 10
4120.227076025414
 20
2144.095558041985
 30
0.0
 11
4086.016931241824
 21
2109.885413258396
 31
0.0
  0
LINE
  5
1660F
330
16561
100
AcDbEntity
  8
KIN-T
100
AcDbLine
 10
4113.14905276316
 20
2389.885413258391
 30
0.0
 11
3880.42905276316
 21
2389.885413258391
 31
0.0
  0
LINE
  5
16610
330
16561
100
AcDbEntity
  8
KIN-T
100
AcDbLine
 10
2447.709052763158
 20
2389.885413258391
 30
0.0
 11
2680.42905276316
 21
2389.885413258391
 31
0.0
  0
CIRCLE
  5
16611
330
16561
100
AcDbEntity
  8
KIN
100
AcDbCircle
 10
3839.629052763159
 20
2973.885413258391
 30
0.0
 40
7.199999999999987
  0
CIRCLE
  5
16612
330
16561
100
AcDbEntity
  8
KIN
100
AcDbCircle
 10
3839.629052763159
 20
2653.885413258391
 30
0.0
 40
7.199999999999987
  0
CIRCLE
  5
16613
330
16561
100
AcDbEntity
  8
KIN
100
AcDbCircle
 10
3839.629052763159
 20
2813.88541325839
 30
0.0
 40
7.199999999999987
  0
ARC
  5
16614
330
16561
100
AcDbEntity
  8
KIN-T
100
AcDbCircle
 10
3880.42905276316
 20
2437.885413258392
 30
0.0
 40
47.99999999999992
100
AcDbArc
 50
180.0
 51
270.0
  0
CIRCLE
  5
16615
330
16561
100
AcDbEntity
  8
KIN
100
AcDbCircle
 10
3839.629052763159
 20
2493.885413258391
 30
0.0
 40
7.199999999999987
  0
LINE
  5
16616
330
16561
100
AcDbEntity
  8
KIN-T
100
AcDbLine
 10
3832.429052763156
 20
2973.885413258391
 30
0.0
 11
3832.42905276316
 21
2437.885413258392
 31
0.0
  0
LINE
  5
16617
330
16561
100
AcDbEntity
  8
KISO
100
AcDbLine
 10
3441.149052763162
 20
3069.885413258397
 30
0.0
 11
3119.709052763161
 21
3069.885413258393
 31
0.0
  0
LINE
  5
16618
330
16561
100
AcDbEntity
  8
CF-101
100
AcDbLine
 10
3441.149052763164
 20
2269.885413258392
 30
0.0
 11
3583.709052763165
 21
2269.885413258392
 31
0.0
  0
LINE
  5
16619
330
16561
100
AcDbEntity
  8
CF-101
100
AcDbLine
 10
3119.709052763159
 20
2269.885413258392
 30
0.0
 11
2977.149052763162
 21
2269.885413258392
 31
0.0
  0
LINE
  5
1661A
330
16561
100
AcDbEntity
  8
KIN
100
AcDbLine
 10
3832.429052763156
 20
2493.885413258391
 30
0.0
 11
3192.429052763157
 21
2493.885413258391
 31
0.0
  0
LINE
  5
1661B
330
16561
100
AcDbEntity
  8
KIN
100
AcDbLine
 10
3832.42905276316
 20
2653.885413258391
 30
0.0
 11
3192.429052763157
 21
2653.885413258391
 31
0.0
  0
LINE
  5
1661C
330
16561
100
AcDbEntity
  8
KIN
100
AcDbLine
 10
3832.42905276316
 20
2813.88541325839
 30
0.0
 11
3192.429052763159
 21
2813.88541325839
 31
0.0
  0
LINE
  5
1661D
330
16561
100
AcDbEntity
  8
KIN
100
AcDbLine
 10
3832.429052763156
 20
2973.885413258391
 30
0.0
 11
3192.429052763159
 21
2973.885413258391
 31
0.0
  0
CIRCLE
  5
1661E
330
16561
100
AcDbEntity
  8
KIN
100
AcDbCircle
 10
2721.229052763161
 20
2973.885413258391
 30
0.0
 40
7.199999999999987
  0
CIRCLE
  5
1661F
330
16561
100
AcDbEntity
  8
KIN
100
AcDbCircle
 10
2721.229052763161
 20
2653.885413258391
 30
0.0
 40
7.199999999999987
  0
CIRCLE
  5
16620
330
16561
100
AcDbEntity
  8
KIN
100
AcDbCircle
 10
2721.229052763161
 20
2813.88541325839
 30
0.0
 40
7.199999999999987
  0
ARC
  5
16621
330
16561
100
AcDbEntity
  8
KIN-T
100
AcDbCircle
 10
2680.42905276316
 20
2437.885413258392
 30
0.0
 40
47.99999999999992
100
AcDbArc
 50
270.0
 51
0.0
  0
CIRCLE
  5
16622
330
16561
100
AcDbEntity
  8
KIN
100
AcDbCircle
 10
2721.229052763161
 20
2493.885413258391
 30
0.0
 40
7.199999999999987
  0
LINE
  5
16623
330
16561
100
AcDbEntity
  8
KIN-T
100
AcDbLine
 10
2728.429052763164
 20
2973.885413258391
 30
0.0
 11
2728.429052763162
 21
2437.885413258392
 31
0.0
  0
LINE
  5
16624
330
16561
100
AcDbEntity
  8
KIN
100
AcDbLine
 10
2728.429052763164
 20
2973.885413258391
 30
0.0
 11
3368.429052763159
 21
2973.885413258391
 31
0.0
  0
LINE
  5
16625
330
16561
100
AcDbEntity
  8
KIN
100
AcDbLine
 10
2728.429052763162
 20
2813.88541325839
 30
0.0
 11
3368.429052763159
 21
2813.88541325839
 31
0.0
  0
LINE
  5
16626
330
16561
100
AcDbEntity
  8
KIN
100
AcDbLine
 10
2728.429052763162
 20
2653.885413258391
 30
0.0
 11
3368.429052763162
 21
2653.885413258391
 31
0.0
  0
LINE
  5
16627
330
16561
100
AcDbEntity
  8
KIN
100
AcDbLine
 10
2728.429052763164
 20
2493.885413258391
 30
0.0
 11
3368.429052763162
 21
2493.885413258391
 31
0.0
  0
LINE
  5
16628
330
16561
100
AcDbEntity
  8
KISO
100
AcDbLine
 10
3583.709052763188
 20
3069.885413258397
 30
0.0
 11
5511.710439747678
 21
3069.885413258393
 31
0.0
  0
LINE
  5
16629
330
16561
100
AcDbEntity
  8
KISO
100
AcDbLine
 10
5511.710439747678
 20
2925.885413258393
 30
0.0
 11
4472.429052763187
 21
2925.885413258393
 31
0.0
  0
LINE
  5
1662A
330
16561
100
AcDbEntity
  8
KISO
100
AcDbLine
 10
5511.710439747678
 20
2829.885413258393
 30
0.0
 11
4472.429052763187
 21
2829.885413258395
 31
0.0
  0
LINE
  5
1662B
330
16561
100
AcDbEntity
  8
KISO
100
AcDbLine
 10
1049.147665778674
 20
2925.885413258391
 30
0.0
 11
2088.429052763165
 21
2925.885413258393
 31
0.0
  0
LINE
  5
1662C
330
16561
100
AcDbEntity
  8
KISO
100
AcDbLine
 10
1049.147665778674
 20
2829.885413258393
 30
0.0
 11
2088.429052763165
 21
2829.885413258395
 31
0.0
  0
LINE
  5
1662D
330
16561
100
AcDbEntity
  8
KISO
100
AcDbLine
 10
2977.149052763163
 20
3069.885413258397
 30
0.0
 11
1049.147665778674
 21
3069.885413258393
 31
0.0
  0
LINE
  5
1662E
330
16561
100
AcDbEntity
  8
KISO
100
AcDbLine
 10
4472.42905276316
 20
3069.885413258393
 30
0.0
 11
3583.709052763161
 21
3069.885413258393
 31
0.0
  0
LINE
  5
1662F
330
16561
100
AcDbEntity
  8
HATCH
100
AcDbLine
 10
4039.46420415462
 20
3069.885413258393
 30
0.0
 11
3879.666180892399
 21
2910.087389996173
 31
0.0
  0
LINE
  5
16630
330
16561
100
AcDbEntity
  8
HATCH
100
AcDbLine
 10
4134.499355546092
 20
3069.885413258397
 30
0.0
 11
3879.666180892399
 21
2815.052238604703
 31
0.0
  0
LINE
  5
16631
330
16561
100
AcDbEntity
  8
HATCH
100
AcDbLine
 10
4086.98177985036
 20
3069.885413258397
 30
0.0
 11
3879.666180892399
 21
2862.569814300432
 31
0.0
  0
LINE
  5
16632
330
16561
100
AcDbEntity
  8
HATCH
100
AcDbLine
 10
2600.911477067432
 20
3069.885413258393
 30
0.0
 11
2088.429052763165
 21
2557.402988954125
 31
0.0
  0
LINE
  5
16633
330
16561
100
AcDbEntity
  8
HATCH
100
AcDbLine
 10
2648.429052763171
 20
3069.885413258393
 30
0.0
 11
2088.429052763165
 21
2509.885413258387
 31
0.0
  0
LINE
  5
16634
330
16561
100
AcDbEntity
  8
KISO
100
AcDbLine
 10
3441.149052763162
 20
3069.885413258393
 30
0.0
 11
3119.709052763165
 21
3069.885413258393
 31
0.0
  0
LINE
  5
16635
330
16561
100
AcDbEntity
  8
KISO
100
AcDbLine
 10
4568.42905276316
 20
1949.885413258392
 30
0.0
 11
4568.42905276316
 21
2109.885413258395
 31
0.0
  0
LINE
  5
16636
330
16561
100
AcDbEntity
  8
HATCH
100
AcDbLine
 10
4472.42905276316
 20
2543.81511047547
 30
0.0
 11
4241.826902511879
 21
2313.212960224193
 31
0.0
  0
LINE
  5
16637
330
16561
100
AcDbEntity
  8
HATCH
100
AcDbLine
 10
4472.42905276316
 20
2496.297534779735
 30
0.0
 11
4289.344478207619
 21
2313.212960224193
 31
0.0
  0
LINE
  5
16638
330
16561
100
AcDbEntity
  8
HATCH
100
AcDbLine
 10
4472.42905276316
 20
2448.779959084001
 30
0.0
 11
4336.862053903351
 21
2313.212960224193
 31
0.0
  0
LINE
  5
16639
330
16561
100
AcDbEntity
  8
CF-101
100
AcDbLine
 10
3441.149052763164
 20
2269.885413258396
 30
0.0
 11
3583.709052763165
 21
2269.885413258396
 31
0.0
  0
LINE
  5
1663A
330
16561
100
AcDbEntity
  8
KISO
100
AcDbLine
 10
4472.42905276316
 20
3069.885413258393
 30
0.0
 11
4472.42905276316
 21
2109.885413258395
 31
0.0
  0
LINE
  5
1663B
330
16561
100
AcDbEntity
  8
HATCH
100
AcDbLine
 10
4472.42905276316
 20
3023.332686171205
 30
0.0
 11
3879.666180892399
 21
2430.569814300441
 31
0.0
  0
LINE
  5
1663C
330
16561
100
AcDbEntity
  8
HATCH
100
AcDbLine
 10
4472.42905276316
 20
2975.815110475462
 30
0.0
 11
3927.183756588136
 21
2430.569814300441
 31
0.0
  0
LINE
  5
1663D
330
16561
100
AcDbEntity
  8
HATCH
100
AcDbLine
 10
4472.42905276316
 20
2928.297534779732
 30
0.0
 11
3974.701332283867
 21
2430.569814300441
 31
0.0
  0
LINE
  5
1663E
330
16561
100
AcDbEntity
  8
1PL-L1
100
AcDbLine
 10
3280.429052763177
 20
3406.742322023877
 30
0.0
 11
3280.429052763177
 21
1829.885413258392
 31
0.0
  0
LINE
  5
1663F
330
16561
100
AcDbEntity
  8
CF-101
100
AcDbLine
 10
3441.149052763164
 20
2269.885413258393
 30
0.0
 11
3441.149052763158
 21
3406.742322023877
 31
0.0
  0
LINE
  5
16640
330
16561
100
AcDbEntity
  8
CF-101
100
AcDbLine
 10
3583.709052763165
 20
2269.885413258396
 30
0.0
 11
3583.709052763158
 21
3406.742322023877
 31
0.0
  0
LINE
  5
16641
330
16561
100
AcDbEntity
  8
CF-101
100
AcDbLine
 10
3119.709052763161
 20
2269.885413258396
 30
0.0
 11
2977.149052763162
 21
2269.885413258396
 31
0.0
  0
LINE
  5
16642
330
16561
100
AcDbEntity
  8
HATCH
100
AcDbLine
 10
2681.191924633953
 20
2143.613133737718
 30
0.0
 11
2647.464204154629
 21
2109.885413258395
 31
0.0
  0
LINE
  5
16643
330
16561
100
AcDbEntity
  8
HATCH
100
AcDbLine
 10
2729.191924633955
 20
2144.095558041985
 30
0.0
 11
2694.981779850362
 21
2109.885413258395
 31
0.0
  0
LINE
  5
16644
330
16561
100
AcDbEntity
  8
HATCH
100
AcDbLine
 10
2634.156773242485
 20
2144.095558041985
 30
0.0
 11
2599.946628458894
 21
2109.885413258395
 31
0.0
  0
LINE
  5
16645
330
16561
100
AcDbEntity
  8
KISO
100
AcDbLine
 10
1992.429052763164
 20
1949.885413258392
 30
0.0
 11
1992.429052763164
 21
2109.885413258395
 31
0.0
  0
LINE
  5
16646
330
16561
100
AcDbEntity
  8
HATCH
100
AcDbLine
 10
2681.191924633953
 20
2623.130709433447
 30
0.0
 11
2371.274175424701
 21
2313.212960224193
 31
0.0
  0
LINE
  5
16647
330
16561
100
AcDbEntity
  8
HATCH
100
AcDbLine
 10
2681.191924633953
 20
2670.648285129186
 30
0.0
 11
2323.756599728962
 21
2313.212960224193
 31
0.0
  0
LINE
  5
16648
330
16561
100
AcDbEntity
  8
HATCH
100
AcDbLine
 10
2681.191924633953
 20
2575.613133737717
 30
0.0
 11
2418.791751120432
 21
2313.212960224193
 31
0.0
  0
LINE
  5
16649
330
16561
100
AcDbEntity
  8
KISO
100
AcDbLine
 10
2088.429052763165
 20
3069.885413258393
 30
0.0
 11
2088.429052763165
 21
2109.885413258395
 31
0.0
  0
LINE
  5
1664A
330
16561
100
AcDbEntity
  8
HATCH
100
AcDbLine
 10
2695.9466284589
 20
3069.885413258393
 30
0.0
 11
2088.429052763165
 21
2462.367837562656
 31
0.0
  0
LINE
  5
1664B
330
16561
100
AcDbEntity
  8
CF-101
100
AcDbLine
 10
2977.149052763162
 20
2269.885413258396
 30
0.0
 11
2977.149052763163
 21
3406.742322023877
 31
0.0
  0
LINE
  5
1664C
330
16561
100
AcDbEntity
  8
CF-101
100
AcDbLine
 10
3119.709052763161
 20
2269.885413258396
 30
0.0
 11
3119.709052763167
 21
3406.742322023877
 31
0.0
  0
LINE
  5
1664D
330
16561
100
AcDbEntity
  8
1PL-M1
100
AcDbLine
 10
3048.429052763162
 20
1605.898498232147
 30
0.0
 11
3048.429052763162
 21
3502.742322023877
 31
0.0
  0
LINE
  5
1664E
330
16561
100
AcDbEntity
  8
KISO
100
AcDbLine
 10
1992.429052763164
 20
2109.885413258395
 30
0.0
 11
4568.42905276316
 21
2109.885413258397
 31
0.0
  0
LINE
  5
1664F
330
16561
100
AcDbEntity
  8
KISO
100
AcDbLine
 10
1992.429052763164
 20
1949.885413258392
 30
0.0
 11
4568.42905276316
 21
1949.885413258396
 31
0.0
  0
LINE
  5
16650
330
16561
100
AcDbEntity
  8
HATCH
100
AcDbLine
 10
1836.774542651933
 20
3069.885413258393
 30
0.0
 11
1692.774542651933
 21
2925.885413258393
 31
0.0
  0
LINE
  5
16651
330
16561
100
AcDbEntity
  8
HATCH
100
AcDbLine
 10
1931.809694043401
 20
3069.885413258393
 30
0.0
 11
1787.809694043405
 21
2925.885413258393
 31
0.0
  0
LINE
  5
16652
330
16561
100
AcDbEntity
  8
HATCH
100
AcDbLine
 10
1884.292118347676
 20
3069.885413258393
 30
0.0
 11
1740.292118347676
 21
2925.885413258393
 31
0.0
  0
LINE
  5
16653
330
16561
100
AcDbEntity
  8
HATCH
100
AcDbLine
 10
1357.256966956204
 20
3069.885413258393
 30
0.0
 11
1213.256966956204
 21
2925.885413258393
 31
0.0
  0
LINE
  5
16654
330
16561
100
AcDbEntity
  8
HATCH
100
AcDbLine
 10
1452.292118347676
 20
3069.885413258393
 30
0.0
 11
1308.292118347673
 21
2925.885413258393
 31
0.0
  0
LINE
  5
16655
330
16561
100
AcDbEntity
  8
HATCH
100
AcDbLine
 10
1404.774542651944
 20
3069.885413258393
 30
0.0
 11
1260.774542651944
 21
2925.885413258393
 31
0.0
  0
LINE
  5
16656
330
16561
100
AcDbEntity
  8
HATCH
100
AcDbLine
 10
4827.001137229506
 20
3069.885413258393
 30
0.0
 11
4683.001137229508
 21
2925.885413258393
 31
0.0
  0
LINE
  5
16657
330
16561
100
AcDbEntity
  8
HATCH
100
AcDbLine
 10
4779.483561533766
 20
3069.885413258393
 30
0.0
 11
4635.483561533766
 21
2925.885413258393
 31
0.0
  0
LINE
  5
16658
330
16561
100
AcDbEntity
  8
HATCH
100
AcDbLine
 10
4874.518712925238
 20
3069.885413258393
 30
0.0
 11
4730.518712925234
 21
2925.885413258393
 31
0.0
  0
LINE
  5
16659
330
16561
100
AcDbEntity
  8
HATCH
100
AcDbLine
 10
5259.001137229496
 20
3069.885413258393
 30
0.0
 11
5115.001137229494
 21
2925.885413258393
 31
0.0
  0
LINE
  5
1665A
330
16561
100
AcDbEntity
  8
HATCH
100
AcDbLine
 10
5354.036288620966
 20
3069.885413258393
 30
0.0
 11
5210.036288620965
 21
2925.885413258393
 31
0.0
  0
LINE
  5
1665B
330
16561
100
AcDbEntity
  8
HATCH
100
AcDbLine
 10
5306.518712925235
 20
3069.885413258393
 30
0.0
 11
5162.518712925235
 21
2925.885413258393
 31
0.0
  0
LINE
  5
1665C
330
16561
100
AcDbEntity
  8
HATCH
100
AcDbLine
 10
2154.639197546753
 20
2144.095558041985
 30
0.0
 11
2120.429052763165
 21
2109.885413258395
 31
0.0
  0
LINE
  5
1665D
330
16561
100
AcDbEntity
  8
HATCH
100
AcDbLine
 10
2202.156773242492
 20
2144.095558041985
 30
0.0
 11
2167.946628458901
 21
2109.885413258395
 31
0.0
  0
LINE
  5
1665E
330
16561
100
AcDbEntity
  8
HATCH
100
AcDbLine
 10
2249.674348938226
 20
2144.095558041985
 30
0.0
 11
2215.464204154632
 21
2109.885413258395
 31
0.0
  0
LINE
  5
1665F
330
16561
100
AcDbEntity
  8
KIN
100
AcDbLine
 10
2200.429052763164
 20
2189.885413258393
 30
0.0
 11
4360.42905276316
 21
2189.885413258393
 31
0.0
  0
LINE
  5
16660
330
16561
100
AcDbEntity
  8
KIN
100
AcDbLine
 10
6669.900200012796
 20
2491.333194070898
 30
0.0
 11
8829.900200012792
 21
2491.333194070898
 31
0.0
  0
LINE
  5
16661
330
16561
100
AcDbEntity
  8
KIN
100
AcDbLine
 10
6669.900200012796
 20
2755.333194070899
 30
0.0
 11
8829.900200012792
 21
2755.333194070899
 31
0.0
  0
LINE
  5
16662
330
16561
100
AcDbEntity
  8
HATCH
100
AcDbLine
 10
8622.417262531065
 20
2491.333194070895
 30
0.0
 11
8941.900200012792
 21
2810.816131552625
 31
0.0
  0
LINE
  5
16663
330
16561
100
AcDbEntity
  8
HATCH
100
AcDbLine
 10
8551.706584412412
 20
2491.333194070895
 30
0.0
 11
8941.900200012792
 21
2881.526809671277
 31
0.0
  0
LINE
  5
16664
330
16561
100
AcDbEntity
  8
1PL-M1
100
AcDbLine
 10
9061.900200012791
 20
2491.333194070898
 30
0.0
 11
6437.900200012794
 21
2491.333194070898
 31
0.0
  0
LINE
  5
16665
330
16561
100
AcDbEntity
  8
KIN
100
AcDbLine
 10
6680.300200012796
 20
3019.333194070897
 30
0.0
 11
8819.50020001279
 21
3019.333194070897
 31
0.0
  0
LINE
  5
16666
330
16561
100
AcDbEntity
  8
HATCH
100
AcDbLine
 10
8127.442515700485
 20
2491.333194070895
 30
0.0
 11
8767.442515700484
 21
3131.333194070895
 31
0.0
  0
LINE
  5
16667
330
16561
100
AcDbEntity
  8
HATCH
100
AcDbLine
 10
8056.73183758183
 20
2491.333194070895
 30
0.0
 11
8696.731837581827
 21
3131.333194070895
 31
0.0
  0
LINE
  5
16668
330
16561
100
AcDbEntity
  8
HATCH
100
AcDbLine
 10
6557.900200012794
 20
2618.84715323092
 30
0.0
 11
7070.386240852774
 21
3131.333194070895
 31
0.0
  0
LINE
  5
16669
330
16561
100
AcDbEntity
  8
HATCH
100
AcDbLine
 10
6996.071665802012
 20
2491.333194070895
 30
0.0
 11
7636.071665802011
 21
3131.333194070895
 31
0.0
  0
LINE
  5
1666A
330
16561
100
AcDbEntity
  8
HATCH
100
AcDbLine
 10
6925.360987683359
 20
2491.333194070895
 30
0.0
 11
7565.360987683354
 21
3131.333194070895
 31
0.0
  0
LINE
  5
1666B
330
16561
100
AcDbEntity
  8
HATCH
100
AcDbLine
 10
6854.650309564701
 20
2491.333194070895
 30
0.0
 11
7494.650309564704
 21
3131.333194070895
 31
0.0
  0
LINE
  5
1666C
330
16561
100
AcDbEntity
  8
KIN
100
AcDbLine
 10
6939.900200012793
 20
2491.333194070898
 30
0.0
 11
6939.900200012793
 21
3019.333194070897
 31
0.0
  0
LINE
  5
1666D
330
16561
100
AcDbEntity
  8
KIN
100
AcDbLine
 10
6669.900200012796
 20
2491.333194070898
 30
0.0
 11
6669.900200012796
 21
3008.933194070898
 31
0.0
  0
LINE
  5
1666E
330
16561
100
AcDbEntity
  8
HATCH
100
AcDbLine
 10
6557.900200012794
 20
2689.557831349573
 30
0.0
 11
6999.675562734117
 21
3131.333194070895
 31
0.0
  0
LINE
  5
1666F
330
16561
100
AcDbEntity
  8
HATCH
100
AcDbLine
 10
6557.900200012794
 20
2760.268509468227
 30
0.0
 11
6928.964884615465
 21
3131.333194070895
 31
0.0
  0
ARC
  5
16670
330
16561
100
AcDbEntity
  8
KIN
100
AcDbCircle
 10
6680.300200012796
 20
3008.933194070898
 30
0.0
 40
10.39999999999998
100
AcDbArc
 50
90.0
 51
180.0
  0
LINE
  5
16671
330
16561
100
AcDbEntity
  8
KIN
100
AcDbLine
 10
7209.900200012793
 20
2491.333194070898
 30
0.0
 11
7209.900200012793
 21
3019.333194070897
 31
0.0
  0
LINE
  5
16672
330
16561
100
AcDbEntity
  8
KIN
100
AcDbLine
 10
7479.900200012792
 20
2491.333194070898
 30
0.0
 11
7479.900200012792
 21
3019.333194070897
 31
0.0
  0
LINE
  5
16673
330
16561
100
AcDbEntity
  8
KIN
100
AcDbLine
 10
7749.900200012797
 20
2491.333194070898
 30
0.0
 11
7749.900200012797
 21
3019.333194070897
 31
0.0
  0
LINE
  5
16674
330
16561
100
AcDbEntity
  8
KIN
100
AcDbLine
 10
8019.900200012793
 20
2491.333194070898
 30
0.0
 11
8019.900200012793
 21
3019.333194070897
 31
0.0
  0
LINE
  5
16675
330
16561
100
AcDbEntity
  8
KIN
100
AcDbLine
 10
8289.900200012793
 20
2491.333194070898
 30
0.0
 11
8289.900200012793
 21
3019.333194070897
 31
0.0
  0
LINE
  5
16676
330
16561
100
AcDbEntity
  8
KIN
100
AcDbLine
 10
8559.900200012796
 20
2491.333194070898
 30
0.0
 11
8559.900200012796
 21
3019.333194070897
 31
0.0
  0
LINE
  5
16677
330
16561
100
AcDbEntity
  8
HATCH
100
AcDbLine
 10
7420.33573451394
 20
2491.333194070895
 30
0.0
 11
8060.335734513939
 21
3131.333194070895
 31
0.0
  0
LINE
  5
16678
330
16561
100
AcDbEntity
  8
1PL-M1
100
AcDbLine
 10
7749.900200012797
 20
3251.333194070898
 30
0.0
 11
7749.900200012797
 21
1731.333194070899
 31
0.0
  0
LINE
  5
16679
330
16561
100
AcDbEntity
  8
HATCH
100
AcDbLine
 10
7561.75709075125
 20
2491.333194070895
 30
0.0
 11
8201.757090751248
 21
3131.333194070895
 31
0.0
  0
LINE
  5
1667A
330
16561
100
AcDbEntity
  8
HATCH
100
AcDbLine
 10
7491.046412632595
 20
2491.333194070895
 30
0.0
 11
8131.046412632588
 21
3131.333194070895
 31
0.0
  0
LINE
  5
1667B
330
16561
100
AcDbEntity
  8
HATCH
100
AcDbLine
 10
7986.021159463174
 20
2491.333194070895
 30
0.0
 11
8626.021159463171
 21
3131.333194070895
 31
0.0
  0
LINE
  5
1667C
330
16561
100
AcDbEntity
  8
KIN
100
AcDbLine
 10
8829.900200012792
 20
2491.333194070898
 30
0.0
 11
8829.900200012792
 21
3008.933194070898
 31
0.0
  0
LINE
  5
1667D
330
16561
100
AcDbEntity
  8
KIN
100
AcDbLine
 10
8829.900200012792
 20
3008.933194070898
 30
0.0
 11
8829.900200012792
 21
2491.333194070898
 31
0.0
  0
LINE
  5
1667E
330
16561
100
AcDbEntity
  8
KIN
100
AcDbLine
 10
8693.127940649718
 20
2491.333194070895
 30
0.0
 11
8829.900200012792
 21
2628.105453433969
 31
0.0
  0
ARC
  5
1667F
330
16561
100
AcDbEntity
  8
KIN
100
AcDbCircle
 10
8819.50020001279
 20
3008.933194070898
 30
0.0
 40
10.39999999999998
100
AcDbArc
 50
0.0
 51
90.0
  0
CIRCLE
  5
16680
330
16561
100
AcDbEntity
  8
KIN
100
AcDbCircle
 10
2470.429052763164
 20
2200.285413258393
 30
0.0
 40
10.39999999999998
  0
CIRCLE
  5
16681
330
16561
100
AcDbEntity
  8
KIN
100
AcDbCircle
 10
2740.429052763166
 20
2200.285413258393
 30
0.0
 40
10.39999999999998
  0
CIRCLE
  5
16682
330
16561
100
AcDbEntity
  8
KIN
100
AcDbCircle
 10
3010.429052763164
 20
2200.285413258393
 30
0.0
 40
10.39999999999998
  0
CIRCLE
  5
16683
330
16561
100
AcDbEntity
  8
KIN
100
AcDbCircle
 10
3280.429052763164
 20
2200.285413258393
 30
0.0
 40
10.39999999999998
  0
CIRCLE
  5
16684
330
16561
100
AcDbEntity
  8
KIN
100
AcDbCircle
 10
3550.429052763164
 20
2200.285413258393
 30
0.0
 40
10.39999999999998
  0
CIRCLE
  5
16685
330
16561
100
AcDbEntity
  8
KIN
100
AcDbCircle
 10
3820.429052763163
 20
2200.285413258393
 30
0.0
 40
10.39999999999998
  0
CIRCLE
  5
16686
330
16561
100
AcDbEntity
  8
KIN
100
AcDbCircle
 10
4090.429052763162
 20
2200.285413258393
 30
0.0
 40
10.39999999999998
  0
CIRCLE
  5
16687
330
16561
100
AcDbEntity
  8
KIN
100
AcDbCircle
 10
4360.429052763161
 20
2200.285413258393
 30
0.0
 40
10.39999999999998
  0
TEXT
  5
16688
330
16561
100
AcDbEntity
  8
HIKIDASHI
100
AcDbText
 10
4924.44727284037
 20
1556.127712164684
 30
0.0
 40
90.0
  1
主筋
  7
01
100
AcDbText
  0
TEXT
  5
16689
330
16561
100
AcDbEntity
  8
HIKIDASHI
100
AcDbText
 10
5173.711225874159
 20
1556.127712164684
 30
0.0
 40
90.0
  1
6-D13
 41
0.6700000000000001
  7
00
100
AcDbText
  0
LINE
  5
1668A
330
16561
100
AcDbEntity
  8
HIKIDASHI
100
AcDbLine
 10
4874.029897198553
 20
1511.127712164684
 30
0.0
 11
5524.162654445586
 21
1511.127712164684
 31
0.0
  0
TEXT
  5
1668B
330
16561
100
AcDbEntity
  8
HIKIDASHI
100
AcDbText
 10
5494.923030539631
 20
1346.127712164684
 30
0.0
 40
90.0
  1
100
 41
0.6700000000000001
  7
00
100
AcDbText
  0
TEXT
  5
1668C
330
16561
100
AcDbEntity
  8
HIKIDASHI
100
AcDbText
 10
5118.5643274726
 20
1346.127712164684
 30
0.0
 40
90.0
  1
9 %%c
 41
0.6700000000000001
  7
00
100
AcDbText
  0
TEXT
  5
1668D
330
16561
100
AcDbEntity
  8
HIKIDASHI
100
AcDbText
 10
4869.300374438813
 20
1346.127712164684
 30
0.0
 40
90.0
  1
帯筋
  7
01
100
AcDbText
  0
TEXT
  5
1668E
330
16561
100
AcDbEntity
  8
HIKIDASHI
100
AcDbText
 10
5343.95085372299
 20
1353.627712164684
 30
0.0
 40
75.0
  1
ア
  7
01
 72
     1
 11
5376.450853722991
 21
1391.127712164684
 31
0.0
100
AcDbText
 73
     2
  0
CIRCLE
  5
1668F
330
16561
100
AcDbEntity
  8
HIKIDASHI
100
AcDbCircle
 10
5376.450853722991
 20
1391.127712164684
 30
0.0
 40
60.0
  0
LINE
  5
16690
330
16561
100
AcDbEntity
  8
HIKIDASHI
100
AcDbLine
 10
4839.300374438813
 20
1301.127712164684
 30
0.0
 11
5688.594459111058
 21
1301.127712164684
 31
0.0
  0
LINE
  5
16691
330
16561
100
AcDbEntity
  8
SUNPOU
100
AcDbLine
 10
1207.78194677241
 20
3069.885413258393
 30
0.0
 11
1259.743470999477
 21
3159.885413258393
 31
0.0
  0
TEXT
  5
16692
330
16561
100
AcDbEntity
  8
SUNPOU
100
AcDbText
 10
1139.210518200981
 20
3204.885413258393
 30
0.0
 40
90.0
  1
F.L
 41
0.6666666666666666
  7
00
 72
     4
 11
1207.78194677241
 21
3249.885413258393
 31
0.0
100
AcDbText
  0
LINE
  5
16693
330
16561
100
AcDbEntity
  8
SUNPOU
100
AcDbLine
 10
1259.743470999477
 20
3159.885413258393
 30
0.0
 11
1155.820422545343
 21
3159.885413258393
 31
0.0
  0
LINE
  5
16694
330
16561
100
AcDbEntity
  8
SUNPOU
100
AcDbLine
 10
1155.820422545343
 20
3159.885413258393
 30
0.0
 11
1207.78194677241
 21
3069.885413258393
 31
0.0
  0
LINE
  5
16695
330
16561
100
AcDbEntity
  8
SUNPOU
100
AcDbLine
 10
6669.900200012796
 20
3171.333194070897
 30
0.0
 11
6669.900200012796
 21
3447.711278313302
 31
0.0
  0
LINE
  5
16696
330
16561
100
AcDbEntity
  8
SUNPOU
100
AcDbLine
 10
8829.900200012792
 20
3171.333194070897
 30
0.0
 11
8829.900200012792
 21
3447.711278313302
 31
0.0
  0
LINE
  5
16697
330
16561
100
AcDbEntity
  8
SUNPOU
100
AcDbLine
 10
6689.900200012797
 20
3402.7112783133
 30
0.0
 11
8809.900200012791
 21
3402.7112783133
 31
0.0
  0
TEXT
  5
16698
330
16561
100
AcDbEntity
  8
SUNPOU
100
AcDbText
 10
7835.964374050014
 20
3447.711278313303
 30
0.0
 40
90.0
  1
9-D13
 41
0.6666666666666666
  7
00
 72
     4
 11
7988.821516907157
 21
3492.711278313303
 31
0.0
100
AcDbText
  0
TEXT
  5
16699
330
16561
100
AcDbEntity
  8
SUNPOU
100
AcDbText
 10
7381.161888867094
 20
3447.711278313303
 30
0.0
 40
90.0
  1
ベース筋
  7
01
 72
     4
 11
7585.161888867094
 21
3492.711278313303
 31
0.0
100
AcDbText
  0
LINE
  5
1669A
330
16561
100
AcDbEntity
  8
SUNPOU
100
AcDbLine
 10
6517.900200012793
 20
3019.333194070897
 30
0.0
 11
6099.639117456529
 21
3019.333194070897
 31
0.0
  0
LINE
  5
1669B
330
16561
100
AcDbEntity
  8
SUNPOU
100
AcDbLine
 10
6517.900200012793
 20
1963.333194070899
 30
0.0
 11
6099.639117456529
 21
1963.333194070899
 31
0.0
  0
LINE
  5
1669C
330
16561
100
AcDbEntity
  8
SUNPOU
100
AcDbLine
 10
6144.639117456527
 20
2999.333194070898
 30
0.0
 11
6144.639117456527
 21
1983.333194070899
 31
0.0
  0
TEXT
  5
1669D
330
16561
100
AcDbEntity
  8
SUNPOU
100
AcDbText
 10
6099.639117456526
 20
2570.331856419735
 30
0.0
 40
90.0
  1
5-D13
 50
90.0
 41
0.6666666666666666
  7
00
 72
     4
 11
6054.639117456527
 21
2723.188999276877
 31
0.0
100
AcDbText
  0
TEXT
  5
1669E
330
16561
100
AcDbEntity
  8
SUNPOU
100
AcDbText
 10
6099.639117456526
 20
2107.696818884271
 30
0.0
 40
90.0
  1
ベース筋
 50
90.0
  7
01
 72
     4
 11
6054.639117456527
 21
2311.696818884271
 31
0.0
100
AcDbText
  0
LINE
  5
1669F
330
16561
100
AcDbEntity
  8
HIKIDASHI
100
AcDbLine
 10
2946.306191125407
 20
966.5967710460376
 30
0.0
 11
3873.809328772832
 21
966.5967710460376
 31
0.0
  0
LINE
  5
166A0
330
16561
100
AcDbEntity
  8
HIKIDASHI
100
AcDbLine
 10
2946.306191125407
 20
1006.596771046037
 30
0.0
 11
3873.809328772832
 21
1006.596771046037
 31
0.0
  0
TEXT
  5
166A1
330
16561
100
AcDbEntity
  8
HIKIDASHI
100
AcDbText
 10
2986.306191125407
 20
1066.596771046038
 30
0.0
 40
120.0
  1
A  ~  A'
 41
0.6700000000000001
  7
00
100
AcDbText
  0
TEXT
  5
166A2
330
16561
100
AcDbEntity
  8
HIKIDASHI
100
AcDbText
 10
3471.662563787485
 20
1066.596771046038
 30
0.0
 40
120.0
  1
断  面
  7
01
100
AcDbText
  0
TEXT
  5
166A3
330
16561
100
AcDbEntity
  8
HIKIDASHI
100
AcDbText
 10
1282.680380784511
 20
1695.898498232148
 30
0.0
 40
90.0
  1
10 %%c x 350
 41
0.6700000000000001
  7
00
100
AcDbText
  0
LINE
  5
166A4
330
16561
100
AcDbEntity
  8
HIKIDASHI
100
AcDbLine
 10
991.7276786742759
 20
1650.898498232148
 30
0.0
 11
1853.456509507224
 21
1650.898498232148
 31
0.0
  0
TEXT
  5
166A5
330
16561
100
AcDbEntity
  8
HIKIDASHI
100
AcDbText
 10
1022.125378438447
 20
1695.898498232148
 30
0.0
 40
90.0
  1
鉄筋
  7
01
100
AcDbText
  0
TEXT
  5
166A6
330
16561
100
AcDbEntity
  8
SUNPOU
100
AcDbText
 10
11469.51429914458
 20
2294.75827205288
 30
0.0
 40
120.0
  1
異形鉄筋の場合、原則としてフックは不要ですが、
  7
01
100
AcDbText
  0
TEXT
  5
166A7
330
16561
100
AcDbEntity
  8
SUNPOU
100
AcDbText
 10
11469.51429914458
 20
2089.043986338595
 30
0.0
 40
120.0
  1
地域によっては、フックをつける様指導している
  7
01
100
AcDbText
  0
TEXT
  5
166A8
330
16561
100
AcDbEntity
  8
SUNPOU
100
AcDbText
 10
11469.51429914458
 20
1883.329700624306
 30
0.0
 40
120.0
  1
所もありますので、ご注意願います。
  7
01
100
AcDbText
  0
TEXT
  5
166A9
330
16561
100
AcDbEntity
  8
SUNPOU
100
AcDbText
 10
11047.06141207507
 20
2294.75827205288
 30
0.0
 40
120.0
  1
注　）
  7
01
100
AcDbText
  0
TEXT
  5
166AA
330
16561
100
AcDbEntity
  8
SUNPOU
100
AcDbText
 10
11194.57330569205
 20
2294.75827205288
 30
0.0
 40
120.0
  1
3
 41
0.6700000000000001
  7
01
100
AcDbText
  0
TEXT
  5
166AB
330
16561
100
AcDbEntity
  8
SUNPOU
100
AcDbText
 10
11194.57330569205
 20
2500.472557767167
 30
0.0
 40
120.0
  1
2
 41
0.6700000000000001
  7
01
100
AcDbText
  0
TEXT
  5
166AC
330
16561
100
AcDbEntity
  8
SUNPOU
100
AcDbText
 10
11047.06141207507
 20
2500.472557767167
 30
0.0
 40
120.0
  1
注　）
  7
01
100
AcDbText
  0
TEXT
  5
166AD
330
16561
100
AcDbEntity
  8
SUNPOU
100
AcDbText
 10
11047.06141207507
 20
2911.901129195738
 30
0.0
 40
120.0
  1
注　）
  7
01
100
AcDbText
  0
TEXT
  5
166AE
330
16561
100
AcDbEntity
  8
SUNPOU
100
AcDbText
 10
11194.57330569205
 20
2911.901129195738
 30
0.0
 40
120.0
  1
1
 41
0.6700000000000001
  7
01
100
AcDbText
  0
TEXT
  5
166AF
330
16561
100
AcDbEntity
  8
SUNPOU
100
AcDbText
 10
11469.51429914458
 20
2706.18684348145
 30
0.0
 40
120.0
  1
あわせて設計して下さい。
  7
01
100
AcDbText
  0
TEXT
  5
166B0
330
16561
100
AcDbEntity
  8
SUNPOU
100
AcDbText
 10
11469.51429914458
 20
2500.472557767167
 30
0.0
 40
120.0
  1
その他現地の実情にあわせて設計して下さい。
  7
01
100
AcDbText
  0
TEXT
  5
166B1
330
16561
100
AcDbEntity
  8
SUNPOU
100
AcDbText
 10
11469.51429914458
 20
2911.901129195738
 30
0.0
 40
120.0
  1
寒冷地の場合、凍結深度等を考慮し、実情に
  7
01
100
AcDbText
  0
TEXT
  5
166B2
330
16561
100
AcDbEntity
  8
SUNPOU
100
AcDbText
 10
10795.48846740375
 20
3669.954084837962
 30
0.0
 40
120.0
  1
<下記条件での参考図>
  7
01
 72
     4
 11
11580.6313245466
 21
3729.954084837962
 31
0.0
100
AcDbText
  0
TEXT
  5
166B3
330
16561
100
AcDbEntity
  8
SUNPOU
100
AcDbText
 10
12409.2435465885
 20
3893.082289966167
 30
0.0
 40
98.46153846153846
  1
/
 41
0.6700000000000001
  7
00
 11
12409.2435465885
 21
3879.954084837962
 31
0.0
100
AcDbText
 73
     1
  0
TEXT
  5
166B4
330
16561
100
AcDbEntity
  8
SUNPOU
100
AcDbText
 10
12494.50947052767
 20
3868.466905350782
 30
0.0
 40
98.46153846153846
  1
25
 41
0.6700000000000001
  7
00
 11
12494.50947052767
 21
3855.338700222577
 31
0.0
100
AcDbText
 73
     1
  0
TEXT
  5
166B5
330
16561
100
AcDbEntity
  8
SUNPOU
100
AcDbText
 10
12344.70204350134
 20
3917.697674581553
 30
0.0
 40
98.46153846153846
  1
1
 41
0.6700000000000001
  7
00
 11
12344.70204350134
 21
3904.569469453348
 31
0.0
100
AcDbText
 73
     1
  0
TEXT
  5
166B6
330
16561
100
AcDbEntity
  8
SUNPOU
100
AcDbText
 10
11918.4317743639
 20
3896.364341248218
 30
0.0
 40
123.076923076923
  1
（ S = 　　  ）
 41
0.6700000000000001
  7
00
 11
11918.4317743639
 21
3879.954084837962
 31
0.0
100
AcDbText
 73
     1
  0
TEXT
  5
166B7
330
16561
100
AcDbEntity
  8
SUNPOU
100
AcDbText
 10
10962.6313245466
 20
3879.954084837962
 30
0.0
 40
160.0
  1
基礎断面図
  7
01
 72
     4
 11
11415.96465787994
 21
3959.954084837962
 31
0.0
100
AcDbText
  0
TEXT
  5
166B8
330
16561
100
AcDbEntity
  8
SUNPOU
100
AcDbText
 10
14807.43671582408
 20
3484.533316720006
 30
0.0
 40
61.7138571458333
  1
2
 41
0.6700000000000001
  7
00
100
AcDbText
  0
TEXT
  5
166B9
330
16561
100
AcDbEntity
  8
SUNPOU
100
AcDbText
 10
14401.48407311554
 20
3417.615414910022
 30
0.0
 40
119.9991666724536
  1
N/mm
 41
0.6700000000000001
  7
01
100
AcDbText
  0
TEXT
  5
166BA
330
16561
100
AcDbEntity
  8
SUNPOU
100
AcDbText
 10
14220.36880273427
 20
3417.615414910022
 30
0.0
 40
119.9991666724536
  1
18
 41
0.6700000000000001
  7
01
100
AcDbText
  0
LINE
  5
166BB
330
16561
100
AcDbEntity
  8
SUNPOU
100
AcDbLine
 10
13418.66072111421
 20
3211.901129195738
 30
0.0
 11
13418.66072111421
 21
3323.224280794112
 31
0.0
  0
LINE
  5
166BC
330
16561
100
AcDbEntity
  8
SUNPOU
100
AcDbLine
 10
13396.16072111421
 20
3211.901129195738
 30
0.0
 11
13396.16072111421
 21
3323.224280794112
 31
0.0
  0
LINE
  5
166BD
330
16561
100
AcDbEntity
  8
SUNPOU
100
AcDbLine
 10
13373.66072111421
 20
3211.901129195738
 30
0.0
 11
13373.66072111421
 21
3323.224280794112
 31
0.0
  0
LINE
  5
166BE
330
16561
100
AcDbEntity
  8
SUNPOU
100
AcDbLine
 10
13358.66072111421
 20
3211.901129195737
 30
0.0
 11
13433.66072111422
 21
3211.901129195737
 31
0.0
  0
LINE
  5
166BF
330
16561
100
AcDbEntity
  8
SUNPOU
100
AcDbLine
 10
13358.66072111421
 20
3323.224280794112
 30
0.0
 11
13433.66072111422
 21
3323.224280794112
 31
0.0
  0
ARC
  5
166C0
330
16561
100
AcDbEntity
  8
SUNPOU
100
AcDbCircle
 10
14987.19024313956
 20
3369.331979499129
 30
0.0
 40
300.0
100
AcDbArc
 50
328.347272528265
 51
31.65272747173496
  0
TEXT
  5
166C1
330
16561
100
AcDbEntity
  8
SUNPOU
100
AcDbText
 10
12006.55332827796
 20
3484.533316720006
 30
0.0
 40
61.7138571458333
  1
2
 41
0.6700000000000001
  7
00
100
AcDbText
  0
TEXT
  5
166C2
330
16561
100
AcDbEntity
  8
SUNPOU
100
AcDbText
 10
11649.69978597344
 20
3417.615414910022
 30
0.0
 40
95.99933333796291
  1
K
 41
0.6700000000000001
  7
01
100
AcDbText
  0
TEXT
  5
166C3
330
16561
100
AcDbEntity
  8
SUNPOU
100
AcDbText
 10
11468.58451559217
 20
3417.615414910022
 30
0.0
 40
119.9991666724536
  1
50  N/m
 41
0.6700000000000001
  7
01
100
AcDbText
  0
ARC
  5
166C4
330
16561
100
AcDbEntity
  8
SUNPOU
100
AcDbCircle
 10
11173.51767090167
 20
3369.331979499129
 30
0.0
 40
300.0
100
AcDbArc
 50
148.347272528265
 51
211.652727471735
  0
TEXT
  5
166C5
330
16561
100
AcDbEntity
  8
SUNPOU
100
AcDbText
 10
11614.59121057895
 20
3211.901129195738
 30
0.0
 40
119.9991666724536
  1
34 m/s
 41
0.6700000000000001
  7
01
100
AcDbText
  0
TEXT
  5
166C6
330
16561
100
AcDbEntity
  8
SUNPOU
100
AcDbText
 10
10969.57330569205
 20
3211.901129195738
 30
0.0
 40
119.9991666724536
  1
基準風速   　　 , 地表面粗度区分
  7
01
100
AcDbText
  0
TEXT
  5
166C7
330
16561
100
AcDbEntity
  8
SUNPOU
100
AcDbText
 10
10969.57330569205
 20
3417.615414910022
 30
0.0
 40
119.9991666724536
  1
地耐力   　　　 以上,コンクリート設計基準強度   　　　 以上
  7
01
100
AcDbText
  0
TEXT
  5
166C8
330
16561
100
AcDbEntity
  8
NAME
100
AcDbText
 10
12336.92663601099
 20
954.9999999999982
 30
0.0
 40
160.0
  1
YOCF
 41
0.7
  7
01
100
AcDbText
  0
TEXT
  5
166C9
330
16561
100
AcDbEntity
  8
NAME
100
AcDbText
 10
10903.6879903188
 20
954.9999999999982
 30
0.0
 40
160.0
  1
ヨド自転車置場      タイプ
  7
01
100
AcDbText
  0
TEXT
  5
166CA
330
16561
100
AcDbEntity
  8
FILENAME
100
AcDbText
 10
13659.14285714285
 20
174.0
 30
0.0
 40
100.0
  1
＜YOCF-200-SA-U_3_JIS_GL.DXF ＞
  7
FILENAME
 72
     2
 11
16382.0
 21
174.0
 31
0.0
100
AcDbText
  0
LINE
  5
166CB
330
16561
100
AcDbEntity
  8
WAKUSEN-01
100
AcDbLine
 10
434.0000000000008
 20
413.9999999999997
 30
0.0
 11
16382.0
 21
413.9999999999997
 31
0.0
  0
LINE
  5
166CC
330
16561
100
AcDbEntity
  8
WAKUSEN-01
100
AcDbLine
 10
434.0000000000008
 20
11242.0
 30
0.0
 11
16382.0
 21
11242.0
 31
0.0
  0
LINE
  5
166CD
330
16561
100
AcDbEntity
  8
WAKUSEN-01
100
AcDbLine
 10
434.0000000000008
 20
413.9999999999997
 30
0.0
 11
434.0000000000008
 21
11242.0
 31
0.0
  0
LINE
  5
166CE
330
16561
100
AcDbEntity
  8
WAKUSEN-01
100
AcDbLine
 10
16382.0
 20
413.9999999999997
 30
0.0
 11
16382.0
 21
11242.0
 31
0.0
  0
LINE
  5
166CF
330
16561
100
AcDbEntity
  8
WAKUSEN-01
100
AcDbLine
 10
10280.0
 20
1242.0
 30
0.0
 11
16382.0
 21
1242.0
 31
0.0
  0
LINE
  5
166D0
330
16561
100
AcDbEntity
  8
WAKUSEN-02
100
AcDbLine
 10
10280.0
 20
827.9999999999997
 30
0.0
 11
13434.0
 21
827.9999999999997
 31
0.0
  0
TEXT
  5
166D1
330
16561
100
AcDbEntity
  8
WAKUMOJI-01
100
AcDbText
 10
10335.13012998137
 20
1062.951504669661
 30
0.0
 40
120.0
  1
名　称
  7
WAKUMOJI
100
AcDbText
  0
TEXT
  5
166D2
330
16561
100
AcDbEntity
  8
WAKUMOJI-01
100
AcDbText
 10
10328.25274254596
 20
659.5644874899107
 30
0.0
 40
120.0
  1
機種名
  7
WAKUMOJI
100
AcDbText
  0
LINE
  5
166D3
330
16561
100
AcDbEntity
  8
WAKUSEN-01
100
AcDbLine
 10
10280.0
 20
413.9999999999985
 30
0.0
 11
10280.0
 21
1242.0
 31
0.0
  0
LINE
  5
166D4
330
16561
100
AcDbEntity
  8
WAKUSEN-02
100
AcDbLine
 10
13434.0
 20
413.9999999999963
 30
0.0
 11
13434.0
 21
1242.0
 31
0.0
  0
LINE
  5
166D5
330
16561
100
AcDbEntity
  8
YODOROGO
100
AcDbLine
 10
14988.80217064596
 20
997.8747482146435
 30
0.0
 11
14914.80217064596
 21
997.8747482146435
 31
0.0
1001
AUTOCAD_POSTSCRIPT_FIGURE
1002
{
1000
PSFILL
1000
Grayscale
1000
Grayscale
1070
    25
1002
}
  0
LINE
  5
166D6
330
16561
100
AcDbEntity
  8
YODOROGO
100
AcDbLine
 10
14914.80217064596
 20
973.8747482146434
 30
0.0
 11
14988.80217064596
 21
973.8747482146434
 31
0.0
1001
AUTOCAD_POSTSCRIPT_FIGURE
1002
{
1000
PSFILL
1000
Grayscale
1000
Grayscale
1070
    25
1002
}
  0
LINE
  5
166D7
330
16561
100
AcDbEntity
  8
YODOROGO
100
AcDbLine
 10
14988.80217064596
 20
953.874748214644
 30
0.0
 11
14914.80217064596
 21
953.874748214644
 31
0.0
1001
AUTOCAD_POSTSCRIPT_FIGURE
1002
{
1000
PSFILL
1000
Grayscale
1000
Grayscale
1070
    25
1002
}
  0
LINE
  5
166D8
330
16561
100
AcDbEntity
  8
YODOROGO
100
AcDbLine
 10
14914.80217064596
 20
929.874748214644
 30
0.0
 11
14988.80217064596
 21
929.874748214644
 31
0.0
1001
AUTOCAD_POSTSCRIPT_FIGURE
1002
{
1000
PSFILL
1000
Grayscale
1000
Grayscale
1070
    25
1002
}
  0
LINE
  5
166D9
330
16561
100
AcDbEntity
  8
YODOROGO
100
AcDbLine
 10
14988.80217064596
 20
909.8747482146439
 30
0.0
 11
14914.80217064596
 21
909.8747482146439
 31
0.0
1001
AUTOCAD_POSTSCRIPT_FIGURE
1002
{
1000
PSFILL
1000
Grayscale
1000
Grayscale
1070
    25
1002
}
  0
LINE
  5
166DA
330
16561
100
AcDbEntity
  8
YODOROGO
100
AcDbLine
 10
14960.80217064594
 20
853.874748214644
 30
0.0
 11
14988.80217064596
 21
853.874748214644
 31
0.0
1001
AUTOCAD_POSTSCRIPT_FIGURE
1002
{
1000
PSFILL
1000
Grayscale
1000
Grayscale
1070
    25
1002
}
  0
LINE
  5
166DB
330
16561
100
AcDbEntity
  8
YODOROGO
100
AcDbLine
 10
14868.80217064596
 20
713.8747482146436
 30
0.0
 11
14968.80217064596
 21
740.6696674577553
 31
0.0
  0
LINE
  5
166DC
330
16561
100
AcDbEntity
  8
YODOROGO
100
AcDbLine
 10
14974.80217064595
 20
853.874748214644
 30
0.0
 11
14942.80217064596
 21
853.874748214644
 31
0.0
  0
ARC
  5
166DD
330
16561
100
AcDbEntity
  8
YODOROGO
100
AcDbCircle
 10
15127.17387491394
 20
903.9323046166312
 30
0.0
 40
190.9434321028236
100
AcDbArc
 50
213.9611167766784
 51
264.4787207431779
  0
ARC
  5
166DE
330
16561
100
AcDbEntity
  8
YODOROGO
100
AcDbCircle
 10
15127.17387491396
 20
903.9323046166513
 30
0.0
 40
190.9434321028408
100
AcDbArc
 50
208.141144204866
 51
212.9210361185994
  0
LINE
  5
166DF
330
16561
100
AcDbEntity
  8
YODOROGO
100
AcDbLine
 10
14885.70493649264
 20
778.403830673117
 30
0.0
 11
14966.89206625426
 21
800.1578565285436
 31
0.0
  0
LINE
  5
166E0
330
16561
100
AcDbEntity
  8
YODOROGO
100
AcDbLine
 10
14868.80217064596
 20
713.8747482146436
 30
0.0
 11
14968.80217064596
 21
740.6696674577553
 31
0.0
  0
LINE
  5
166E1
330
16561
100
AcDbEntity
  8
YODOROGO
100
AcDbLine
 10
14974.80217064595
 20
853.874748214644
 30
0.0
 11
14942.80217064596
 21
853.874748214644
 31
0.0
  0
ARC
  5
166E2
330
16561
100
AcDbEntity
  8
YODOROGO
100
AcDbCircle
 10
15127.17387491394
 20
903.9323046166312
 30
0.0
 40
190.9434321028236
100
AcDbArc
 50
213.9611167766784
 51
264.4787207431779
  0
LINE
  5
166E3
330
16561
100
AcDbEntity
  8
YODOROGO
100
AcDbLine
 10
14396.80217064594
 20
909.8747482146439
 30
0.0
 11
14216.80217064594
 21
909.8747482146439
 31
0.0
  0
LINE
  5
166E4
330
16561
100
AcDbEntity
  8
YODOROGO
100
AcDbLine
 10
14256.80217064594
 20
713.8747482146436
 30
0.0
 11
14396.80217064594
 21
713.8747482146436
 31
0.0
  0
LINE
  5
166E5
330
16561
100
AcDbEntity
  8
YODOROGO
100
AcDbLine
 10
14364.80217064596
 20
961.8747482146432
 30
0.0
 11
14248.80217064594
 21
961.8747482146432
 31
0.0
  0
LINE
  5
166E6
330
16561
100
AcDbEntity
  8
YODOROGO
100
AcDbLine
 10
14292.80217064596
 20
1013.874748214644
 30
0.0
 11
14328.80217064596
 21
1013.874748214644
 31
0.0
  0
LINE
  5
166E7
330
16561
100
AcDbEntity
  8
YODOROGO
100
AcDbLine
 10
14216.80217064594
 20
853.874748214644
 30
0.0
 11
14216.80217064594
 21
753.8747482146439
 31
0.0
  0
LINE
  5
166E8
330
16561
100
AcDbEntity
  8
YODOROGO
100
AcDbLine
 10
14248.80217064594
 20
781.8747482146434
 30
0.0
 11
14248.80217064594
 21
853.874748214644
 31
0.0
  0
LINE
  5
166E9
330
16561
100
AcDbEntity
  8
YODOROGO
100
AcDbLine
 10
14292.80217064596
 20
873.8747482146449
 30
0.0
 11
14292.80217064596
 21
773.874748214644
 31
0.0
  0
LINE
  5
166EA
330
16561
100
AcDbEntity
  8
YODOROGO
100
AcDbLine
 10
13928.80217064596
 20
841.8747482146445
 30
0.0
 11
13888.80217064596
 21
809.9862070222856
 31
0.0
  0
LINE
  5
166EB
330
16561
100
AcDbEntity
  8
YODOROGO
100
AcDbLine
 10
13968.80217064596
 20
809.9862070222856
 30
0.0
 11
13928.80217064596
 21
841.8747482146445
 31
0.0
  0
LINE
  5
166EC
330
16561
100
AcDbEntity
  8
YODOROGO
100
AcDbLine
 10
13928.80217064596
 20
853.874748214644
 30
0.0
 11
13968.80217064596
 21
821.986207022285
 31
0.0
  0
LINE
  5
166ED
330
16561
100
AcDbEntity
  8
YODOROGO
100
AcDbLine
 10
13888.80217064596
 20
821.986207022285
 30
0.0
 11
13928.80217064596
 21
853.874748214644
 31
0.0
  0
LINE
  5
166EE
330
16561
100
AcDbEntity
  8
YODOROGO
100
AcDbLine
 10
14020.45660200844
 20
829.874748214644
 30
0.0
 11
14020.45660200844
 21
841.8747482146434
 31
0.0
  0
LINE
  5
166EF
330
16561
100
AcDbEntity
  8
YODOROGO
100
AcDbLine
 10
13988.80217064596
 20
841.8747482146434
 30
0.0
 11
13988.80217064596
 21
833.8747482146427
 31
0.0
  0
LINE
  5
166F0
330
16561
100
AcDbEntity
  8
YODOROGO
100
AcDbLine
 10
14049.06776011545
 20
853.874748214644
 30
0.0
 11
14049.06776011545
 21
827.751818637328
 31
0.0
1001
AUTOCAD_POSTSCRIPT_FIGURE
1002
{
1000
PSFILL
1000
Grayscale
1000
Grayscale
1070
   100
1002
}
  0
LINE
  5
166F1
330
16561
100
AcDbEntity
  8
YODOROGO
100
AcDbLine
 10
14041.06776011546
 20
827.751818637328
 30
0.0
 11
14041.06776011546
 21
853.874748214644
 31
0.0
1001
AUTOCAD_POSTSCRIPT_FIGURE
1002
{
1000
PSFILL
1000
Grayscale
1000
Grayscale
1070
   100
1002
}
  0
LINE
  5
166F2
330
16561
100
AcDbEntity
  8
YODOROGO
100
AcDbLine
 10
13904.80217064596
 20
804.3859520216292
 30
0.0
 11
13904.80217064596
 21
816.3859520216298
 31
0.0
  0
LINE
  5
166F3
330
16561
100
AcDbEntity
  8
YODOROGO
100
AcDbLine
 10
13952.80217064596
 20
804.3859520216292
 30
0.0
 11
13904.80217064596
 21
804.3859520216292
 31
0.0
  0
LINE
  5
166F4
330
16561
100
AcDbEntity
  8
YODOROGO
100
AcDbLine
 10
13952.80217064596
 20
816.3859520216298
 30
0.0
 11
13952.80217064596
 21
804.3859520216292
 31
0.0
  0
LINE
  5
166F5
330
16561
100
AcDbEntity
  8
YODOROGO
100
AcDbLine
 10
13904.80217064596
 20
816.3859520216298
 30
0.0
 11
13952.80217064596
 21
816.3859520216298
 31
0.0
  0
LINE
  5
166F6
330
16561
100
AcDbEntity
  8
YODOROGO
100
AcDbLine
 10
13912.25479445787
 20
784.2514286852374
 30
0.0
 11
13892.80217064596
 21
737.8747482146435
 31
0.0
1001
AUTOCAD_POSTSCRIPT_FIGURE
1002
{
1000
PSFILL
1000
Grayscale
1000
Grayscale
1070
   100
1002
}
  0
LINE
  5
166F7
330
16561
100
AcDbEntity
  8
YODOROGO
100
AcDbLine
 10
13888.80217064596
 20
784.2514286852374
 30
0.0
 11
13912.25479445787
 21
784.2514286852374
 31
0.0
1001
AUTOCAD_POSTSCRIPT_FIGURE
1002
{
1000
PSFILL
1000
Grayscale
1000
Grayscale
1070
   100
1002
}
  0
LINE
  5
166F8
330
16561
100
AcDbEntity
  8
YODOROGO
100
AcDbLine
 10
13888.80217064596
 20
794.2514286852374
 30
0.0
 11
13888.80217064596
 21
784.2514286852374
 31
0.0
1001
AUTOCAD_POSTSCRIPT_FIGURE
1002
{
1000
PSFILL
1000
Grayscale
1000
Grayscale
1070
   100
1002
}
  0
LINE
  5
166F9
330
16561
100
AcDbEntity
  8
YODOROGO
100
AcDbLine
 10
13968.80217064596
 20
794.2514286852374
 30
0.0
 11
13888.80217064596
 21
794.2514286852374
 31
0.0
1001
AUTOCAD_POSTSCRIPT_FIGURE
1002
{
1000
PSFILL
1000
Grayscale
1000
Grayscale
1070
   100
1002
}
  0
LINE
  5
166FA
330
16561
100
AcDbEntity
  8
YODOROGO
100
AcDbLine
 10
13968.80217064596
 20
784.2514286852374
 30
0.0
 11
13968.80217064596
 21
794.2514286852374
 31
0.0
1001
AUTOCAD_POSTSCRIPT_FIGURE
1002
{
1000
PSFILL
1000
Grayscale
1000
Grayscale
1070
   100
1002
}
  0
LINE
  5
166FB
330
16561
100
AcDbEntity
  8
YODOROGO
100
AcDbLine
 10
13922.25479445786
 20
784.2514286852374
 30
0.0
 11
13968.80217064596
 21
784.2514286852374
 31
0.0
1001
AUTOCAD_POSTSCRIPT_FIGURE
1002
{
1000
PSFILL
1000
Grayscale
1000
Grayscale
1070
   100
1002
}
  0
LINE
  5
166FC
330
16561
100
AcDbEntity
  8
YODOROGO
100
AcDbLine
 10
13907.77335914238
 20
747.8747482146435
 30
0.0
 11
13922.25479445786
 21
784.2514286852374
 31
0.0
1001
AUTOCAD_POSTSCRIPT_FIGURE
1002
{
1000
PSFILL
1000
Grayscale
1000
Grayscale
1070
   100
1002
}
  0
LINE
  5
166FD
330
16561
100
AcDbEntity
  8
YODOROGO
100
AcDbLine
 10
13951.02739540432
 20
747.8747482146435
 30
0.0
 11
13907.77335914238
 21
747.8747482146435
 31
0.0
1001
AUTOCAD_POSTSCRIPT_FIGURE
1002
{
1000
PSFILL
1000
Grayscale
1000
Grayscale
1070
   100
1002
}
  0
LINE
  5
166FE
330
16561
100
AcDbEntity
  8
YODOROGO
100
AcDbLine
 10
13942.53250239547
 20
768.1169053488464
 30
0.0
 11
13951.02739540432
 21
747.8747482146435
 31
0.0
1001
AUTOCAD_POSTSCRIPT_FIGURE
1002
{
1000
PSFILL
1000
Grayscale
1000
Grayscale
1070
   100
1002
}
  0
LINE
  5
166FF
330
16561
100
AcDbEntity
  8
YODOROGO
100
AcDbLine
 10
13950.53250239547
 20
768.1169053488464
 30
0.0
 11
13942.53250239547
 21
768.1169053488464
 31
0.0
1001
AUTOCAD_POSTSCRIPT_FIGURE
1002
{
1000
PSFILL
1000
Grayscale
1000
Grayscale
1070
   100
1002
}
  0
LINE
  5
16700
330
16561
100
AcDbEntity
  8
YODOROGO
100
AcDbLine
 10
13964.80217064596
 20
737.8747482146435
 30
0.0
 11
13950.53250239547
 21
768.1169053488464
 31
0.0
1001
AUTOCAD_POSTSCRIPT_FIGURE
1002
{
1000
PSFILL
1000
Grayscale
1000
Grayscale
1070
   100
1002
}
  0
LINE
  5
16701
330
16561
100
AcDbEntity
  8
YODOROGO
100
AcDbLine
 10
13892.80217064596
 20
737.8747482146435
 30
0.0
 11
13964.80217064596
 21
737.8747482146435
 31
0.0
1001
AUTOCAD_POSTSCRIPT_FIGURE
1002
{
1000
PSFILL
1000
Grayscale
1000
Grayscale
1070
   100
1002
}
  0
LINE
  5
16702
330
16561
100
AcDbEntity
  8
YODOROGO
100
AcDbLine
 10
13888.80217064596
 20
809.9862070222856
 30
0.0
 11
13888.80217064596
 21
821.986207022285
 31
0.0
  0
LINE
  5
16703
330
16561
100
AcDbEntity
  8
YODOROGO
100
AcDbLine
 10
13968.80217064596
 20
821.986207022285
 30
0.0
 11
13968.80217064596
 21
809.9862070222856
 31
0.0
  0
ARC
  5
16704
330
16561
100
AcDbEntity
  8
YODOROGO
100
AcDbCircle
 10
14112.97022107348
 20
800.438882662663
 30
0.0
 40
87.99999999999995
100
AcDbArc
 50
280.3644312771313
 51
3.541483659218056
  0
ARC
  5
16705
330
16561
100
AcDbEntity
  8
YODOROGO
100
AcDbCircle
 10
14117.87801537965
 20
816.798903480952
 30
0.0
 40
55.99999999999914
100
AcDbArc
 50
281.2490582504155
 51
348.7509417495832
  0
LINE
  5
16706
330
16561
100
AcDbEntity
  8
YODOROGO
100
AcDbLine
 10
14128.80217064596
 20
761.8747482146434
 30
0.0
 11
14128.80217064596
 21
713.8747482146436
 31
0.0
  0
LINE
  5
16707
330
16561
100
AcDbEntity
  8
YODOROGO
100
AcDbLine
 10
14010.04445186845
 20
805.3252825309574
 30
0.0
 11
14020.45660200844
 21
829.874748214644
 31
0.0
  0
LINE
  5
16708
330
16561
100
AcDbEntity
  8
YODOROGO
100
AcDbLine
 10
14020.80217064596
 20
791.5602449742006
 30
0.0
 11
14010.04445186845
 21
805.3252825309574
 31
0.0
  0
LINE
  5
16709
330
16561
100
AcDbEntity
  8
YODOROGO
100
AcDbLine
 10
14020.80217064596
 20
781.5602449741994
 30
0.0
 11
14020.80217064596
 21
791.5602449742006
 31
0.0
  0
LINE
  5
1670A
330
16561
100
AcDbEntity
  8
YODOROGO
100
AcDbLine
 10
14008.80217064596
 20
792.6185318747651
 30
0.0
 11
14020.80217064596
 21
781.5602449741994
 31
0.0
  0
LINE
  5
1670B
330
16561
100
AcDbEntity
  8
YODOROGO
100
AcDbLine
 10
14008.80217064596
 20
737.8747482146435
 30
0.0
 11
14008.80217064596
 21
792.6185318747651
 31
0.0
  0
LINE
  5
1670C
330
16561
100
AcDbEntity
  8
YODOROGO
100
AcDbLine
 10
14000.80217064596
 20
737.8747482146435
 30
0.0
 11
14008.80217064596
 21
737.8747482146435
 31
0.0
  0
LINE
  5
1670D
330
16561
100
AcDbEntity
  8
YODOROGO
100
AcDbLine
 10
14000.80217064596
 20
790.0026748448738
 30
0.0
 11
14000.80217064596
 21
737.8747482146435
 31
0.0
  0
LINE
  5
1670E
330
16561
100
AcDbEntity
  8
YODOROGO
100
AcDbLine
 10
13988.80217064596
 20
766.3840395167142
 30
0.0
 11
14000.80217064596
 21
790.0026748448738
 31
0.0
  0
LINE
  5
1670F
330
16561
100
AcDbEntity
  8
YODOROGO
100
AcDbLine
 10
13988.80217064596
 20
778.3840395167149
 30
0.0
 11
13988.80217064596
 21
766.3840395167142
 31
0.0
  0
LINE
  5
16710
330
16561
100
AcDbEntity
  8
YODOROGO
100
AcDbLine
 10
14012.91438714567
 20
833.8747482146427
 30
0.0
 11
13988.80217064596
 21
778.3840395167149
 31
0.0
  0
LINE
  5
16711
330
16561
100
AcDbEntity
  8
YODOROGO
100
AcDbLine
 10
13988.80217064596
 20
833.8747482146427
 30
0.0
 11
14012.91438714567
 21
833.8747482146427
 31
0.0
  0
LINE
  5
16712
330
16561
100
AcDbEntity
  8
YODOROGO
100
AcDbLine
 10
14025.06776011545
 20
827.751818637328
 30
0.0
 11
14041.06776011546
 21
827.751818637328
 31
0.0
1001
AUTOCAD_POSTSCRIPT_FIGURE
1002
{
1000
PSFILL
1000
Grayscale
1000
Grayscale
1070
   100
1002
}
  0
LINE
  5
16713
330
16561
100
AcDbEntity
  8
YODOROGO
100
AcDbLine
 10
14025.06776011545
 20
815.7518186373286
 30
0.0
 11
14025.06776011545
 21
827.751818637328
 31
0.0
1001
AUTOCAD_POSTSCRIPT_FIGURE
1002
{
1000
PSFILL
1000
Grayscale
1000
Grayscale
1070
   100
1002
}
  0
LINE
  5
16714
330
16561
100
AcDbEntity
  8
YODOROGO
100
AcDbLine
 10
14041.06776011546
 20
815.7518186373286
 30
0.0
 11
14025.06776011545
 21
815.7518186373286
 31
0.0
1001
AUTOCAD_POSTSCRIPT_FIGURE
1002
{
1000
PSFILL
1000
Grayscale
1000
Grayscale
1070
   100
1002
}
  0
LINE
  5
16715
330
16561
100
AcDbEntity
  8
YODOROGO
100
AcDbLine
 10
14041.06776011546
 20
749.8747482146441
 30
0.0
 11
14041.06776011546
 21
815.7518186373286
 31
0.0
1001
AUTOCAD_POSTSCRIPT_FIGURE
1002
{
1000
PSFILL
1000
Grayscale
1000
Grayscale
1070
   100
1002
}
  0
LINE
  5
16716
330
16561
100
AcDbEntity
  8
YODOROGO
100
AcDbLine
 10
14025.06776011545
 20
749.8747482146441
 30
0.0
 11
14041.06776011546
 21
749.8747482146441
 31
0.0
1001
AUTOCAD_POSTSCRIPT_FIGURE
1002
{
1000
PSFILL
1000
Grayscale
1000
Grayscale
1070
   100
1002
}
  0
LINE
  5
16717
330
16561
100
AcDbEntity
  8
YODOROGO
100
AcDbLine
 10
14025.06776011545
 20
737.8747482146435
 30
0.0
 11
14025.06776011545
 21
749.8747482146441
 31
0.0
1001
AUTOCAD_POSTSCRIPT_FIGURE
1002
{
1000
PSFILL
1000
Grayscale
1000
Grayscale
1070
   100
1002
}
  0
LINE
  5
16718
330
16561
100
AcDbEntity
  8
YODOROGO
100
AcDbLine
 10
14068.80217064596
 20
737.8747482146435
 30
0.0
 11
14025.06776011545
 21
737.8747482146435
 31
0.0
1001
AUTOCAD_POSTSCRIPT_FIGURE
1002
{
1000
PSFILL
1000
Grayscale
1000
Grayscale
1070
   100
1002
}
  0
LINE
  5
16719
330
16561
100
AcDbEntity
  8
YODOROGO
100
AcDbLine
 10
14068.80217064596
 20
749.8747482146441
 30
0.0
 11
14068.80217064596
 21
737.8747482146435
 31
0.0
1001
AUTOCAD_POSTSCRIPT_FIGURE
1002
{
1000
PSFILL
1000
Grayscale
1000
Grayscale
1070
   100
1002
}
  0
LINE
  5
1671A
330
16561
100
AcDbEntity
  8
YODOROGO
100
AcDbLine
 10
14049.06776011545
 20
749.8747482146441
 30
0.0
 11
14068.80217064596
 21
749.8747482146441
 31
0.0
1001
AUTOCAD_POSTSCRIPT_FIGURE
1002
{
1000
PSFILL
1000
Grayscale
1000
Grayscale
1070
   100
1002
}
  0
LINE
  5
1671B
330
16561
100
AcDbEntity
  8
YODOROGO
100
AcDbLine
 10
14049.06776011545
 20
815.7518186373286
 30
0.0
 11
14049.06776011545
 21
749.8747482146441
 31
0.0
1001
AUTOCAD_POSTSCRIPT_FIGURE
1002
{
1000
PSFILL
1000
Grayscale
1000
Grayscale
1070
   100
1002
}
  0
LINE
  5
1671C
330
16561
100
AcDbEntity
  8
YODOROGO
100
AcDbLine
 10
14068.80217064596
 20
815.7518186373286
 30
0.0
 11
14049.06776011545
 21
815.7518186373286
 31
0.0
1001
AUTOCAD_POSTSCRIPT_FIGURE
1002
{
1000
PSFILL
1000
Grayscale
1000
Grayscale
1070
   100
1002
}
  0
LINE
  5
1671D
330
16561
100
AcDbEntity
  8
YODOROGO
100
AcDbLine
 10
14068.80217064596
 20
827.751818637328
 30
0.0
 11
14068.80217064596
 21
815.7518186373286
 31
0.0
1001
AUTOCAD_POSTSCRIPT_FIGURE
1002
{
1000
PSFILL
1000
Grayscale
1000
Grayscale
1070
   100
1002
}
  0
LINE
  5
1671E
330
16561
100
AcDbEntity
  8
YODOROGO
100
AcDbLine
 10
14049.06776011545
 20
827.751818637328
 30
0.0
 11
14068.80217064596
 21
827.751818637328
 31
0.0
1001
AUTOCAD_POSTSCRIPT_FIGURE
1002
{
1000
PSFILL
1000
Grayscale
1000
Grayscale
1070
   100
1002
}
  0
LINE
  5
1671F
330
16561
100
AcDbEntity
  8
YODOROGO
100
AcDbLine
 10
14200.80217064594
 20
833.8747482146439
 30
0.0
 11
14172.80217064596
 21
833.8747482146439
 31
0.0
  0
LINE
  5
16720
330
16561
100
AcDbEntity
  8
YODOROGO
100
AcDbLine
 10
14200.80217064594
 20
805.8747482146443
 30
0.0
 11
14200.80217064594
 21
833.8747482146439
 31
0.0
  0
LINE
  5
16721
330
16561
100
AcDbEntity
  8
YODOROGO
100
AcDbLine
 10
14172.80217064596
 20
833.8747482146439
 30
0.0
 11
14172.80217064596
 21
805.8747482146443
 31
0.0
  0
ARC
  5
16722
330
16561
100
AcDbEntity
  8
YODOROGO
100
AcDbCircle
 10
14256.80217064594
 20
753.8747482146439
 30
0.0
 40
40.0
100
AcDbArc
 50
180.0
 51
270.0
  0
ARC
  5
16723
330
16561
100
AcDbEntity
  8
YODOROGO
100
AcDbCircle
 10
14268.80217064594
 20
781.8747482146434
 30
0.0
 40
20.0
100
AcDbArc
 50
180.0
 51
270.0
  0
LINE
  5
16724
330
16561
100
AcDbEntity
  8
YODOROGO
100
AcDbLine
 10
14280.80217064596
 20
761.8747482146434
 30
0.0
 11
14268.80217064594
 21
761.8747482146434
 31
0.0
  0
ARC
  5
16725
330
16561
100
AcDbEntity
  8
YODOROGO
100
AcDbCircle
 10
14280.80217064596
 20
773.8747482146427
 30
0.0
 40
11.99999999999818
100
AcDbArc
 50
270.0
 51
0.0000000000054281
  0
LINE
  5
16726
330
16561
100
AcDbEntity
  8
YODOROGO
100
AcDbLine
 10
13900.80217064596
 20
945.3932903968532
 30
0.0
 11
13888.80217064596
 21
921.8883739758362
 31
0.0
1001
AUTOCAD_POSTSCRIPT_FIGURE
1002
{
1000
PSFILL
1000
Grayscale
1000
Grayscale
1070
   100
1002
}
  0
LINE
  5
16727
330
16561
100
AcDbEntity
  8
YODOROGO
100
AcDbLine
 10
13900.80217064596
 20
873.8747482146434
 30
0.0
 11
13900.80217064596
 21
945.3932903968532
 31
0.0
1001
AUTOCAD_POSTSCRIPT_FIGURE
1002
{
1000
PSFILL
1000
Grayscale
1000
Grayscale
1070
   100
1002
}
  0
LINE
  5
16728
330
16561
100
AcDbEntity
  8
YODOROGO
100
AcDbLine
 10
13908.80217064596
 20
873.8747482146434
 30
0.0
 11
13900.80217064596
 21
873.8747482146434
 31
0.0
1001
AUTOCAD_POSTSCRIPT_FIGURE
1002
{
1000
PSFILL
1000
Grayscale
1000
Grayscale
1070
   100
1002
}
  0
LINE
  5
16729
330
16561
100
AcDbEntity
  8
YODOROGO
100
AcDbLine
 10
13908.80217064596
 20
946.8856660426332
 30
0.0
 11
13908.80217064596
 21
873.8747482146434
 31
0.0
1001
AUTOCAD_POSTSCRIPT_FIGURE
1002
{
1000
PSFILL
1000
Grayscale
1000
Grayscale
1070
   100
1002
}
  0
LINE
  5
1672A
330
16561
100
AcDbEntity
  8
YODOROGO
100
AcDbLine
 10
13920.80217064596
 20
933.8273791420684
 30
0.0
 11
13908.80217064596
 21
946.8856660426332
 31
0.0
1001
AUTOCAD_POSTSCRIPT_FIGURE
1002
{
1000
PSFILL
1000
Grayscale
1000
Grayscale
1070
   100
1002
}
  0
LINE
  5
1672B
330
16561
100
AcDbEntity
  8
YODOROGO
100
AcDbLine
 10
13920.80217064596
 20
941.8273791420681
 30
0.0
 11
13920.80217064596
 21
933.8273791420684
 31
0.0
1001
AUTOCAD_POSTSCRIPT_FIGURE
1002
{
1000
PSFILL
1000
Grayscale
1000
Grayscale
1070
   100
1002
}
  0
LINE
  5
1672C
330
16561
100
AcDbEntity
  8
YODOROGO
100
AcDbLine
 10
13908.80217064596
 20
958.8856660426325
 30
0.0
 11
13920.80217064596
 21
941.8273791420681
 31
0.0
1001
AUTOCAD_POSTSCRIPT_FIGURE
1002
{
1000
PSFILL
1000
Grayscale
1000
Grayscale
1070
   100
1002
}
  0
LINE
  5
1672D
330
16561
100
AcDbEntity
  8
YODOROGO
100
AcDbLine
 10
13908.80217064596
 20
969.8747482146441
 30
0.0
 11
13908.80217064596
 21
958.8856660426325
 31
0.0
1001
AUTOCAD_POSTSCRIPT_FIGURE
1002
{
1000
PSFILL
1000
Grayscale
1000
Grayscale
1070
   100
1002
}
  0
LINE
  5
1672E
330
16561
100
AcDbEntity
  8
YODOROGO
100
AcDbLine
 10
13944.80217064596
 20
969.8747482146441
 30
0.0
 11
13908.80217064596
 21
969.8747482146441
 31
0.0
1001
AUTOCAD_POSTSCRIPT_FIGURE
1002
{
1000
PSFILL
1000
Grayscale
1000
Grayscale
1070
   100
1002
}
  0
LINE
  5
1672F
330
16561
100
AcDbEntity
  8
YODOROGO
100
AcDbLine
 10
13944.80217064596
 20
950.2841744681497
 30
0.0
 11
13944.80217064596
 21
969.8747482146441
 31
0.0
1001
AUTOCAD_POSTSCRIPT_FIGURE
1002
{
1000
PSFILL
1000
Grayscale
1000
Grayscale
1070
   100
1002
}
  0
LINE
  5
16730
330
16561
100
AcDbEntity
  8
YODOROGO
100
AcDbLine
 10
13928.80217064596
 20
950.2841744681497
 30
0.0
 11
13944.80217064596
 21
950.2841744681497
 31
0.0
1001
AUTOCAD_POSTSCRIPT_FIGURE
1002
{
1000
PSFILL
1000
Grayscale
1000
Grayscale
1070
   100
1002
}
  0
LINE
  5
16731
330
16561
100
AcDbEntity
  8
YODOROGO
100
AcDbLine
 10
13928.80217064596
 20
942.2841744681491
 30
0.0
 11
13928.80217064596
 21
950.2841744681497
 31
0.0
1001
AUTOCAD_POSTSCRIPT_FIGURE
1002
{
1000
PSFILL
1000
Grayscale
1000
Grayscale
1070
   100
1002
}
  0
LINE
  5
16732
330
16561
100
AcDbEntity
  8
YODOROGO
100
AcDbLine
 10
13944.80217064596
 20
942.2841744681491
 30
0.0
 11
13928.80217064596
 21
942.2841744681491
 31
0.0
1001
AUTOCAD_POSTSCRIPT_FIGURE
1002
{
1000
PSFILL
1000
Grayscale
1000
Grayscale
1070
   100
1002
}
  0
LINE
  5
16733
330
16561
100
AcDbEntity
  8
YODOROGO
100
AcDbLine
 10
13944.80217064596
 20
939.8095889822196
 30
0.0
 11
13944.80217064596
 21
942.2841744681491
 31
0.0
1001
AUTOCAD_POSTSCRIPT_FIGURE
1002
{
1000
PSFILL
1000
Grayscale
1000
Grayscale
1070
   100
1002
}
  0
LINE
  5
16734
330
16561
100
AcDbEntity
  8
YODOROGO
100
AcDbLine
 10
13924.80217064596
 20
906.4874905807087
 30
0.0
 11
13944.80217064596
 21
939.8095889822196
 31
0.0
1001
AUTOCAD_POSTSCRIPT_FIGURE
1002
{
1000
PSFILL
1000
Grayscale
1000
Grayscale
1070
   100
1002
}
  0
LINE
  5
16735
330
16561
100
AcDbEntity
  8
YODOROGO
100
AcDbLine
 10
13924.80217064596
 20
898.487490580708
 30
0.0
 11
13924.80217064596
 21
906.4874905807087
 31
0.0
1001
AUTOCAD_POSTSCRIPT_FIGURE
1002
{
1000
PSFILL
1000
Grayscale
1000
Grayscale
1070
   100
1002
}
  0
LINE
  5
16736
330
16561
100
AcDbEntity
  8
YODOROGO
100
AcDbLine
 10
13944.80217064596
 20
923.8095889822183
 30
0.0
 11
13924.80217064596
 21
898.487490580708
 31
0.0
1001
AUTOCAD_POSTSCRIPT_FIGURE
1002
{
1000
PSFILL
1000
Grayscale
1000
Grayscale
1070
   100
1002
}
  0
LINE
  5
16737
330
16561
100
AcDbEntity
  8
YODOROGO
100
AcDbLine
 10
13944.80217064596
 20
873.8747482146434
 30
0.0
 11
13944.80217064596
 21
923.8095889822183
 31
0.0
1001
AUTOCAD_POSTSCRIPT_FIGURE
1002
{
1000
PSFILL
1000
Grayscale
1000
Grayscale
1070
   100
1002
}
  0
LINE
  5
16738
330
16561
100
AcDbEntity
  8
YODOROGO
100
AcDbLine
 10
13952.80217064596
 20
873.8747482146434
 30
0.0
 11
13944.80217064596
 21
873.8747482146434
 31
0.0
1001
AUTOCAD_POSTSCRIPT_FIGURE
1002
{
1000
PSFILL
1000
Grayscale
1000
Grayscale
1070
   100
1002
}
  0
LINE
  5
16739
330
16561
100
AcDbEntity
  8
YODOROGO
100
AcDbLine
 10
13952.80217064596
 20
924.7045060794032
 30
0.0
 11
13952.80217064596
 21
873.8747482146434
 31
0.0
1001
AUTOCAD_POSTSCRIPT_FIGURE
1002
{
1000
PSFILL
1000
Grayscale
1000
Grayscale
1070
   100
1002
}
  0
LINE
  5
1673A
330
16561
100
AcDbEntity
  8
YODOROGO
100
AcDbLine
 10
13968.80217064596
 20
898.487490580708
 30
0.0
 11
13952.80217064596
 21
924.7045060794032
 31
0.0
1001
AUTOCAD_POSTSCRIPT_FIGURE
1002
{
1000
PSFILL
1000
Grayscale
1000
Grayscale
1070
   100
1002
}
  0
LINE
  5
1673B
330
16561
100
AcDbEntity
  8
YODOROGO
100
AcDbLine
 10
13968.80217064596
 20
906.4874905807087
 30
0.0
 11
13968.80217064596
 21
898.487490580708
 31
0.0
1001
AUTOCAD_POSTSCRIPT_FIGURE
1002
{
1000
PSFILL
1000
Grayscale
1000
Grayscale
1070
   100
1002
}
  0
LINE
  5
1673C
330
16561
100
AcDbEntity
  8
YODOROGO
100
AcDbLine
 10
13952.80217064596
 20
940.7045060794041
 30
0.0
 11
13968.80217064596
 21
906.4874905807087
 31
0.0
1001
AUTOCAD_POSTSCRIPT_FIGURE
1002
{
1000
PSFILL
1000
Grayscale
1000
Grayscale
1070
   100
1002
}
  0
LINE
  5
1673D
330
16561
100
AcDbEntity
  8
YODOROGO
100
AcDbLine
 10
13952.80217064596
 20
942.2841744681502
 30
0.0
 11
13952.80217064596
 21
940.7045060794041
 31
0.0
1001
AUTOCAD_POSTSCRIPT_FIGURE
1002
{
1000
PSFILL
1000
Grayscale
1000
Grayscale
1070
   100
1002
}
  0
LINE
  5
1673E
330
16561
100
AcDbEntity
  8
YODOROGO
100
AcDbLine
 10
13968.80217064596
 20
942.2841744681491
 30
0.0
 11
13952.80217064596
 21
942.2841744681502
 31
0.0
1001
AUTOCAD_POSTSCRIPT_FIGURE
1002
{
1000
PSFILL
1000
Grayscale
1000
Grayscale
1070
   100
1002
}
  0
LINE
  5
1673F
330
16561
100
AcDbEntity
  8
YODOROGO
100
AcDbLine
 10
13968.80217064596
 20
950.2841744681497
 30
0.0
 11
13968.80217064596
 21
942.2841744681491
 31
0.0
1001
AUTOCAD_POSTSCRIPT_FIGURE
1002
{
1000
PSFILL
1000
Grayscale
1000
Grayscale
1070
   100
1002
}
  0
LINE
  5
16740
330
16561
100
AcDbEntity
  8
YODOROGO
100
AcDbLine
 10
13952.80217064596
 20
950.2841744681497
 30
0.0
 11
13968.80217064596
 21
950.2841744681497
 31
0.0
1001
AUTOCAD_POSTSCRIPT_FIGURE
1002
{
1000
PSFILL
1000
Grayscale
1000
Grayscale
1070
   100
1002
}
  0
LINE
  5
16741
330
16561
100
AcDbEntity
  8
YODOROGO
100
AcDbLine
 10
13952.80217064596
 20
969.8747482146441
 30
0.0
 11
13952.80217064596
 21
950.2841744681497
 31
0.0
1001
AUTOCAD_POSTSCRIPT_FIGURE
1002
{
1000
PSFILL
1000
Grayscale
1000
Grayscale
1070
   100
1002
}
  0
LINE
  5
16742
330
16561
100
AcDbEntity
  8
YODOROGO
100
AcDbLine
 10
13968.80217064596
 20
969.8747482146441
 30
0.0
 11
13952.80217064596
 21
969.8747482146441
 31
0.0
1001
AUTOCAD_POSTSCRIPT_FIGURE
1002
{
1000
PSFILL
1000
Grayscale
1000
Grayscale
1070
   100
1002
}
  0
LINE
  5
16743
330
16561
100
AcDbEntity
  8
YODOROGO
100
AcDbLine
 10
13968.80217064596
 20
977.8747482146435
 30
0.0
 11
13968.80217064596
 21
969.8747482146441
 31
0.0
1001
AUTOCAD_POSTSCRIPT_FIGURE
1002
{
1000
PSFILL
1000
Grayscale
1000
Grayscale
1070
   100
1002
}
  0
LINE
  5
16744
330
16561
100
AcDbEntity
  8
YODOROGO
100
AcDbLine
 10
13952.80217064596
 20
977.8747482146435
 30
0.0
 11
13968.80217064596
 21
977.8747482146435
 31
0.0
1001
AUTOCAD_POSTSCRIPT_FIGURE
1002
{
1000
PSFILL
1000
Grayscale
1000
Grayscale
1070
   100
1002
}
  0
LINE
  5
16745
330
16561
100
AcDbEntity
  8
YODOROGO
100
AcDbLine
 10
13952.80217064596
 20
989.8747482146442
 30
0.0
 11
13952.80217064596
 21
977.8747482146435
 31
0.0
1001
AUTOCAD_POSTSCRIPT_FIGURE
1002
{
1000
PSFILL
1000
Grayscale
1000
Grayscale
1070
   100
1002
}
  0
LINE
  5
16746
330
16561
100
AcDbEntity
  8
YODOROGO
100
AcDbLine
 10
13944.80217064596
 20
989.8747482146442
 30
0.0
 11
13952.80217064596
 21
989.8747482146442
 31
0.0
1001
AUTOCAD_POSTSCRIPT_FIGURE
1002
{
1000
PSFILL
1000
Grayscale
1000
Grayscale
1070
   100
1002
}
  0
LINE
  5
16747
330
16561
100
AcDbEntity
  8
YODOROGO
100
AcDbLine
 10
13944.80217064596
 20
977.8747482146435
 30
0.0
 11
13944.80217064596
 21
989.8747482146442
 31
0.0
1001
AUTOCAD_POSTSCRIPT_FIGURE
1002
{
1000
PSFILL
1000
Grayscale
1000
Grayscale
1070
   100
1002
}
  0
LINE
  5
16748
330
16561
100
AcDbEntity
  8
YODOROGO
100
AcDbLine
 10
13932.80217064596
 20
977.8747482146435
 30
0.0
 11
13944.80217064596
 21
977.8747482146435
 31
0.0
1001
AUTOCAD_POSTSCRIPT_FIGURE
1002
{
1000
PSFILL
1000
Grayscale
1000
Grayscale
1070
   100
1002
}
  0
LINE
  5
16749
330
16561
100
AcDbEntity
  8
YODOROGO
100
AcDbLine
 10
13932.80217064596
 20
989.8747482146442
 30
0.0
 11
13932.80217064596
 21
977.8747482146435
 31
0.0
1001
AUTOCAD_POSTSCRIPT_FIGURE
1002
{
1000
PSFILL
1000
Grayscale
1000
Grayscale
1070
   100
1002
}
  0
LINE
  5
1674A
330
16561
100
AcDbEntity
  8
YODOROGO
100
AcDbLine
 10
13924.80217064596
 20
989.8747482146442
 30
0.0
 11
13932.80217064596
 21
989.8747482146442
 31
0.0
1001
AUTOCAD_POSTSCRIPT_FIGURE
1002
{
1000
PSFILL
1000
Grayscale
1000
Grayscale
1070
   100
1002
}
  0
LINE
  5
1674B
330
16561
100
AcDbEntity
  8
YODOROGO
100
AcDbLine
 10
13924.80217064596
 20
977.8747482146435
 30
0.0
 11
13924.80217064596
 21
989.8747482146442
 31
0.0
1001
AUTOCAD_POSTSCRIPT_FIGURE
1002
{
1000
PSFILL
1000
Grayscale
1000
Grayscale
1070
   100
1002
}
  0
LINE
  5
1674C
330
16561
100
AcDbEntity
  8
YODOROGO
100
AcDbLine
 10
13908.80217064596
 20
977.8747482146435
 30
0.0
 11
13924.80217064596
 21
977.8747482146435
 31
0.0
1001
AUTOCAD_POSTSCRIPT_FIGURE
1002
{
1000
PSFILL
1000
Grayscale
1000
Grayscale
1070
   100
1002
}
  0
LINE
  5
1674D
330
16561
100
AcDbEntity
  8
YODOROGO
100
AcDbLine
 10
13908.80217064596
 20
989.8747482146442
 30
0.0
 11
13908.80217064596
 21
977.8747482146435
 31
0.0
1001
AUTOCAD_POSTSCRIPT_FIGURE
1002
{
1000
PSFILL
1000
Grayscale
1000
Grayscale
1070
   100
1002
}
  0
LINE
  5
1674E
330
16561
100
AcDbEntity
  8
YODOROGO
100
AcDbLine
 10
13900.80217064596
 20
989.8747482146442
 30
0.0
 11
13908.80217064596
 21
989.8747482146442
 31
0.0
1001
AUTOCAD_POSTSCRIPT_FIGURE
1002
{
1000
PSFILL
1000
Grayscale
1000
Grayscale
1070
   100
1002
}
  0
LINE
  5
1674F
330
16561
100
AcDbEntity
  8
YODOROGO
100
AcDbLine
 10
13900.80217064596
 20
977.8747482146435
 30
0.0
 11
13900.80217064596
 21
989.8747482146442
 31
0.0
1001
AUTOCAD_POSTSCRIPT_FIGURE
1002
{
1000
PSFILL
1000
Grayscale
1000
Grayscale
1070
   100
1002
}
  0
LINE
  5
16750
330
16561
100
AcDbEntity
  8
YODOROGO
100
AcDbLine
 10
13888.80217064596
 20
977.8747482146435
 30
0.0
 11
13900.80217064596
 21
977.8747482146435
 31
0.0
1001
AUTOCAD_POSTSCRIPT_FIGURE
1002
{
1000
PSFILL
1000
Grayscale
1000
Grayscale
1070
   100
1002
}
  0
LINE
  5
16751
330
16561
100
AcDbEntity
  8
YODOROGO
100
AcDbLine
 10
13888.80217064596
 20
969.8747482146441
 30
0.0
 11
13888.80217064596
 21
977.8747482146435
 31
0.0
1001
AUTOCAD_POSTSCRIPT_FIGURE
1002
{
1000
PSFILL
1000
Grayscale
1000
Grayscale
1070
   100
1002
}
  0
LINE
  5
16752
330
16561
100
AcDbEntity
  8
YODOROGO
100
AcDbLine
 10
13900.80217064596
 20
969.8747482146441
 30
0.0
 11
13888.80217064596
 21
969.8747482146441
 31
0.0
1001
AUTOCAD_POSTSCRIPT_FIGURE
1002
{
1000
PSFILL
1000
Grayscale
1000
Grayscale
1070
   100
1002
}
  0
LINE
  5
16753
330
16561
100
AcDbEntity
  8
YODOROGO
100
AcDbLine
 10
13900.80217064596
 20
957.3932903968525
 30
0.0
 11
13900.80217064596
 21
969.8747482146441
 31
0.0
1001
AUTOCAD_POSTSCRIPT_FIGURE
1002
{
1000
PSFILL
1000
Grayscale
1000
Grayscale
1070
   100
1002
}
  0
LINE
  5
16754
330
16561
100
AcDbEntity
  8
YODOROGO
100
AcDbLine
 10
13888.80217064596
 20
929.8883739758355
 30
0.0
 11
13900.80217064596
 21
957.3932903968525
 31
0.0
1001
AUTOCAD_POSTSCRIPT_FIGURE
1002
{
1000
PSFILL
1000
Grayscale
1000
Grayscale
1070
   100
1002
}
  0
LINE
  5
16755
330
16561
100
AcDbEntity
  8
YODOROGO
100
AcDbLine
 10
13888.80217064596
 20
921.8883739758362
 30
0.0
 11
13888.80217064596
 21
929.8883739758355
 31
0.0
1001
AUTOCAD_POSTSCRIPT_FIGURE
1002
{
1000
PSFILL
1000
Grayscale
1000
Grayscale
1070
   100
1002
}
  0
LINE
  5
16756
330
16561
100
AcDbEntity
  8
YODOROGO
100
AcDbLine
 10
14128.80217064596
 20
933.8747482146439
 30
0.0
 11
14200.80217064594
 21
912.4388128201532
 31
0.0
1001
AUTOCAD_POSTSCRIPT_FIGURE
1002
{
1000
PSFILL
1000
Grayscale
1000
Grayscale
1070
   100
1002
}
  0
LINE
  5
16757
330
16561
100
AcDbEntity
  8
YODOROGO
100
AcDbLine
 10
14200.80217064594
 20
876.4388128201531
 30
0.0
 11
14128.80217064596
 21
897.8747482146435
 31
0.0
1001
AUTOCAD_POSTSCRIPT_FIGURE
1002
{
1000
PSFILL
1000
Grayscale
1000
Grayscale
1070
   100
1002
}
  0
LINE
  5
16758
330
16561
100
AcDbEntity
  8
YODOROGO
100
AcDbLine
 10
14200.80217064594
 20
992.4388128201531
 30
0.0
 11
14128.80217064596
 21
1013.874748214644
 31
0.0
1001
AUTOCAD_POSTSCRIPT_FIGURE
1002
{
1000
PSFILL
1000
Grayscale
1000
Grayscale
1070
   100
1002
}
  0
LINE
  5
16759
330
16561
100
AcDbEntity
  8
YODOROGO
100
AcDbLine
 10
14128.80217064596
 20
979.874748214644
 30
0.0
 11
14200.80217064594
 21
958.4388128201537
 31
0.0
1001
AUTOCAD_POSTSCRIPT_FIGURE
1002
{
1000
PSFILL
1000
Grayscale
1000
Grayscale
1070
   100
1002
}
  0
LINE
  5
1675A
330
16561
100
AcDbEntity
  8
YODOROGO
100
AcDbLine
 10
14128.80217064596
 20
897.8747482146435
 30
0.0
 11
14128.80217064596
 21
933.8747482146439
 31
0.0
1001
AUTOCAD_POSTSCRIPT_FIGURE
1002
{
1000
PSFILL
1000
Grayscale
1000
Grayscale
1070
   100
1002
}
  0
LINE
  5
1675B
330
16561
100
AcDbEntity
  8
YODOROGO
100
AcDbLine
 10
14128.80217064596
 20
1013.874748214644
 30
0.0
 11
14128.80217064596
 21
979.874748214644
 31
0.0
1001
AUTOCAD_POSTSCRIPT_FIGURE
1002
{
1000
PSFILL
1000
Grayscale
1000
Grayscale
1070
   100
1002
}
  0
LINE
  5
1675C
330
16561
100
AcDbEntity
  8
YODOROGO
100
AcDbLine
 10
14040.11816010337
 20
969.8747482146441
 30
0.0
 11
14064.80217064595
 21
873.8747482146434
 31
0.0
1001
AUTOCAD_POSTSCRIPT_FIGURE
1002
{
1000
PSFILL
1000
Grayscale
1000
Grayscale
1070
   100
1002
}
  0
LINE
  5
1675D
330
16561
100
AcDbEntity
  8
YODOROGO
100
AcDbLine
 10
13988.80217064596
 20
969.8747482146441
 30
0.0
 11
14040.11816010337
 21
969.8747482146441
 31
0.0
1001
AUTOCAD_POSTSCRIPT_FIGURE
1002
{
1000
PSFILL
1000
Grayscale
1000
Grayscale
1070
   100
1002
}
  0
LINE
  5
1675E
330
16561
100
AcDbEntity
  8
YODOROGO
100
AcDbLine
 10
13988.80217064596
 20
977.8747482146435
 30
0.0
 11
13988.80217064596
 21
969.8747482146441
 31
0.0
1001
AUTOCAD_POSTSCRIPT_FIGURE
1002
{
1000
PSFILL
1000
Grayscale
1000
Grayscale
1070
   100
1002
}
  0
LINE
  5
1675F
330
16561
100
AcDbEntity
  8
YODOROGO
100
AcDbLine
 10
14038.30343925995
 20
977.8747482146435
 30
0.0
 11
13988.80217064596
 21
977.8747482146435
 31
0.0
1001
AUTOCAD_POSTSCRIPT_FIGURE
1002
{
1000
PSFILL
1000
Grayscale
1000
Grayscale
1070
   100
1002
}
  0
LINE
  5
16760
330
16561
100
AcDbEntity
  8
YODOROGO
100
AcDbLine
 10
14035.58135799485
 20
989.8747482146442
 30
0.0
 11
14038.30343925995
 21
977.8747482146435
 31
0.0
1001
AUTOCAD_POSTSCRIPT_FIGURE
1002
{
1000
PSFILL
1000
Grayscale
1000
Grayscale
1070
   100
1002
}
  0
LINE
  5
16761
330
16561
100
AcDbEntity
  8
YODOROGO
100
AcDbLine
 10
14045.58135799485
 20
989.8747482146442
 30
0.0
 11
14035.58135799485
 21
989.8747482146442
 31
0.0
1001
AUTOCAD_POSTSCRIPT_FIGURE
1002
{
1000
PSFILL
1000
Grayscale
1000
Grayscale
1070
   100
1002
}
  0
LINE
  5
16762
330
16561
100
AcDbEntity
  8
YODOROGO
100
AcDbLine
 10
14047.90343925997
 20
977.8747482146435
 30
0.0
 11
14045.58135799485
 21
989.8747482146442
 31
0.0
1001
AUTOCAD_POSTSCRIPT_FIGURE
1002
{
1000
PSFILL
1000
Grayscale
1000
Grayscale
1070
   100
1002
}
  0
LINE
  5
16763
330
16561
100
AcDbEntity
  8
YODOROGO
100
AcDbLine
 10
14060.80217064596
 20
977.8747482146435
 30
0.0
 11
14047.90343925997
 21
977.8747482146435
 31
0.0
1001
AUTOCAD_POSTSCRIPT_FIGURE
1002
{
1000
PSFILL
1000
Grayscale
1000
Grayscale
1070
   100
1002
}
  0
LINE
  5
16764
330
16561
100
AcDbEntity
  8
YODOROGO
100
AcDbLine
 10
14060.80217064596
 20
989.8747482146442
 30
0.0
 11
14060.80217064596
 21
977.8747482146435
 31
0.0
1001
AUTOCAD_POSTSCRIPT_FIGURE
1002
{
1000
PSFILL
1000
Grayscale
1000
Grayscale
1070
   100
1002
}
  0
LINE
  5
16765
330
16561
100
AcDbEntity
  8
YODOROGO
100
AcDbLine
 10
14068.80217064596
 20
989.8747482146442
 30
0.0
 11
14060.80217064596
 21
989.8747482146442
 31
0.0
1001
AUTOCAD_POSTSCRIPT_FIGURE
1002
{
1000
PSFILL
1000
Grayscale
1000
Grayscale
1070
   100
1002
}
  0
LINE
  5
16766
330
16561
100
AcDbEntity
  8
YODOROGO
100
AcDbLine
 10
14068.80217064596
 20
977.8747482146435
 30
0.0
 11
14068.80217064596
 21
989.8747482146442
 31
0.0
1001
AUTOCAD_POSTSCRIPT_FIGURE
1002
{
1000
PSFILL
1000
Grayscale
1000
Grayscale
1070
   100
1002
}
  0
LINE
  5
16767
330
16561
100
AcDbEntity
  8
YODOROGO
100
AcDbLine
 10
14068.80217064596
 20
969.8747482146441
 30
0.0
 11
14068.80217064596
 21
977.8747482146435
 31
0.0
1001
AUTOCAD_POSTSCRIPT_FIGURE
1002
{
1000
PSFILL
1000
Grayscale
1000
Grayscale
1070
   100
1002
}
  0
LINE
  5
16768
330
16561
100
AcDbEntity
  8
YODOROGO
100
AcDbLine
 10
14049.45149343671
 20
969.8747482146441
 30
0.0
 11
14068.80217064596
 21
969.8747482146441
 31
0.0
1001
AUTOCAD_POSTSCRIPT_FIGURE
1002
{
1000
PSFILL
1000
Grayscale
1000
Grayscale
1070
   100
1002
}
  0
LINE
  5
16769
330
16561
100
AcDbEntity
  8
YODOROGO
100
AcDbLine
 10
14068.80217064596
 20
873.8747482146434
 30
0.0
 11
14049.45149343671
 21
969.8747482146441
 31
0.0
1001
AUTOCAD_POSTSCRIPT_FIGURE
1002
{
1000
PSFILL
1000
Grayscale
1000
Grayscale
1070
   100
1002
}
  0
LINE
  5
1676A
330
16561
100
AcDbEntity
  8
YODOROGO
100
AcDbLine
 10
14064.80217064595
 20
873.8747482146434
 30
0.0
 11
14068.80217064596
 21
873.8747482146434
 31
0.0
1001
AUTOCAD_POSTSCRIPT_FIGURE
1002
{
1000
PSFILL
1000
Grayscale
1000
Grayscale
1070
   100
1002
}
  0
LINE
  5
1676B
330
16561
100
AcDbEntity
  8
YODOROGO
100
AcDbLine
 10
14039.03460996689
 20
887.8703881493972
 30
0.0
 11
13988.80217064596
 21
873.8747482146434
 31
0.0
  0
LINE
  5
1676C
330
16561
100
AcDbEntity
  8
YODOROGO
100
AcDbLine
 10
14039.03460996689
 20
899.3344897645364
 30
0.0
 11
14039.03460996689
 21
887.8703881493972
 31
0.0
  0
LINE
  5
1676D
330
16561
100
AcDbEntity
  8
YODOROGO
100
AcDbLine
 10
14016.91839030643
 20
893.4084665668834
 30
0.0
 11
14039.03460996689
 21
899.3344897645364
 31
0.0
  0
LINE
  5
1676E
330
16561
100
AcDbEntity
  8
YODOROGO
100
AcDbLine
 10
14016.91839030643
 20
936.2841744681499
 30
0.0
 11
14016.91839030643
 21
893.4084665668834
 31
0.0
  0
LINE
  5
1676F
330
16561
100
AcDbEntity
  8
YODOROGO
100
AcDbLine
 10
14039.03460996689
 20
936.2841744681499
 30
0.0
 11
14016.91839030643
 21
936.2841744681499
 31
0.0
  0
LINE
  5
16770
330
16561
100
AcDbEntity
  8
YODOROGO
100
AcDbLine
 10
14039.03460996689
 20
946.2841744681487
 30
0.0
 11
14039.03460996689
 21
936.2841744681499
 31
0.0
  0
LINE
  5
16771
330
16561
100
AcDbEntity
  8
YODOROGO
100
AcDbLine
 10
13988.80217064596
 20
946.2841744681487
 30
0.0
 11
14039.03460996689
 21
946.2841744681487
 31
0.0
  0
LINE
  5
16772
330
16561
100
AcDbEntity
  8
YODOROGO
100
AcDbLine
 10
13988.80217064596
 20
936.2841744681499
 30
0.0
 11
13988.80217064596
 21
946.2841744681487
 31
0.0
  0
LINE
  5
16773
330
16561
100
AcDbEntity
  8
YODOROGO
100
AcDbLine
 10
14010.91839030643
 20
936.2841744681499
 30
0.0
 11
13988.80217064596
 21
936.2841744681499
 31
0.0
  0
LINE
  5
16774
330
16561
100
AcDbEntity
  8
YODOROGO
100
AcDbLine
 10
14010.91839030643
 20
892.3366697971587
 30
0.0
 11
14010.91839030643
 21
936.2841744681499
 31
0.0
  0
LINE
  5
16775
330
16561
100
AcDbEntity
  8
YODOROGO
100
AcDbLine
 10
13988.80217064596
 20
885.8747482146432
 30
0.0
 11
14010.91839030643
 21
892.3366697971587
 31
0.0
  0
LINE
  5
16776
330
16561
100
AcDbEntity
  8
YODOROGO
100
AcDbLine
 10
13988.80217064596
 20
873.8747482146434
 30
0.0
 11
13988.80217064596
 21
885.8747482146432
 31
0.0
  0
LINE
  5
16777
330
16561
100
AcDbEntity
  8
YODOROGO
100
AcDbLine
 10
14000.80217064596
 20
853.874748214644
 30
0.0
 11
14000.80217064596
 21
841.8747482146434
 31
0.0
  0
LINE
  5
16778
330
16561
100
AcDbEntity
  8
YODOROGO
100
AcDbLine
 10
14008.80217064596
 20
853.874748214644
 30
0.0
 11
14000.80217064596
 21
853.874748214644
 31
0.0
  0
LINE
  5
16779
330
16561
100
AcDbEntity
  8
YODOROGO
100
AcDbLine
 10
14008.80217064596
 20
841.8747482146434
 30
0.0
 11
14008.80217064596
 21
853.874748214644
 31
0.0
  0
LINE
  5
1677A
330
16561
100
AcDbEntity
  8
YODOROGO
100
AcDbLine
 10
14020.45660200844
 20
841.8747482146434
 30
0.0
 11
14008.80217064596
 21
841.8747482146434
 31
0.0
  0
LINE
  5
1677B
330
16561
100
AcDbEntity
  8
YODOROGO
100
AcDbLine
 10
14000.80217064596
 20
841.8747482146434
 30
0.0
 11
13988.80217064596
 21
841.8747482146434
 31
0.0
  0
LINE
  5
1677C
330
16561
100
AcDbEntity
  8
YODOROGO
100
AcDbLine
 10
14041.06776011546
 20
853.874748214644
 30
0.0
 11
14049.06776011545
 21
853.874748214644
 31
0.0
1001
AUTOCAD_POSTSCRIPT_FIGURE
1002
{
1000
PSFILL
1000
Grayscale
1000
Grayscale
1070
   100
1002
}
  0
LINE
  5
1677D
330
16561
100
AcDbEntity
  8
YODOROGO
100
AcDbLine
 10
14200.80217064594
 20
912.4388128201532
 30
0.0
 11
14200.80217064594
 21
876.4388128201531
 31
0.0
1001
AUTOCAD_POSTSCRIPT_FIGURE
1002
{
1000
PSFILL
1000
Grayscale
1000
Grayscale
1070
   100
1002
}
  0
LINE
  5
1677E
330
16561
100
AcDbEntity
  8
YODOROGO
100
AcDbLine
 10
14200.80217064594
 20
958.4388128201537
 30
0.0
 11
14200.80217064594
 21
992.4388128201531
 31
0.0
1001
AUTOCAD_POSTSCRIPT_FIGURE
1002
{
1000
PSFILL
1000
Grayscale
1000
Grayscale
1070
   100
1002
}
  0
LINE
  5
1677F
330
16561
100
AcDbEntity
  8
YODOROGO
100
AcDbLine
 10
14216.80217064594
 20
909.8747482146439
 30
0.0
 11
14216.80217064594
 21
873.8747482146449
 31
0.0
  0
LINE
  5
16780
330
16561
100
AcDbEntity
  8
YODOROGO
100
AcDbLine
 10
14248.80217064594
 20
853.874748214644
 30
0.0
 11
14216.80217064594
 21
853.874748214644
 31
0.0
  0
LINE
  5
16781
330
16561
100
AcDbEntity
  8
YODOROGO
100
AcDbLine
 10
14216.80217064594
 20
873.8747482146449
 30
0.0
 11
14292.80217064596
 21
873.8747482146449
 31
0.0
  0
LINE
  5
16782
330
16561
100
AcDbEntity
  8
YODOROGO
100
AcDbLine
 10
14248.80217064594
 20
933.8747482146439
 30
0.0
 11
14216.80217064594
 21
933.8747482146439
 31
0.0
  0
LINE
  5
16783
330
16561
100
AcDbEntity
  8
YODOROGO
100
AcDbLine
 10
14248.80217064594
 20
961.8747482146432
 30
0.0
 11
14248.80217064594
 21
933.8747482146439
 31
0.0
  0
LINE
  5
16784
330
16561
100
AcDbEntity
  8
YODOROGO
100
AcDbLine
 10
14292.80217064596
 20
993.8747482146439
 30
0.0
 11
14292.80217064596
 21
1013.874748214644
 31
0.0
  0
LINE
  5
16785
330
16561
100
AcDbEntity
  8
YODOROGO
100
AcDbLine
 10
14216.80217064594
 20
993.8747482146439
 30
0.0
 11
14292.80217064596
 21
993.8747482146439
 31
0.0
  0
LINE
  5
16786
330
16561
100
AcDbEntity
  8
YODOROGO
100
AcDbLine
 10
14216.80217064594
 20
933.8747482146439
 30
0.0
 11
14216.80217064594
 21
993.8747482146439
 31
0.0
  0
LINE
  5
16787
330
16561
100
AcDbEntity
  8
YODOROGO
100
AcDbLine
 10
14500.80217064594
 20
1013.874748214644
 30
0.0
 11
14500.80217064594
 21
809.8747482146441
 31
0.0
  0
LINE
  5
16788
330
16561
100
AcDbEntity
  8
YODOROGO
100
AcDbLine
 10
14536.80217064596
 20
789.8747482146441
 30
0.0
 11
14536.80217064596
 21
1013.874748214644
 31
0.0
  0
LINE
  5
16789
330
16561
100
AcDbEntity
  8
YODOROGO
100
AcDbLine
 10
14630.80217064596
 20
745.8747482146431
 30
0.0
 11
14630.80217064596
 21
1003.874748214644
 31
0.0
  0
LINE
  5
1678A
330
16561
100
AcDbEntity
  8
YODOROGO
100
AcDbLine
 10
14598.80217064596
 20
1003.874748214644
 30
0.0
 11
14598.80217064596
 21
745.8747482146431
 31
0.0
  0
LINE
  5
1678B
330
16561
100
AcDbEntity
  8
YODOROGO
100
AcDbLine
 10
14692.80217064596
 20
1013.874748214644
 30
0.0
 11
14692.80217064596
 21
713.8747482146436
 31
0.0
  0
LINE
  5
1678C
330
16561
100
AcDbEntity
  8
YODOROGO
100
AcDbLine
 10
14728.80217064596
 20
713.8747482146436
 30
0.0
 11
14728.80217064596
 21
1013.874748214644
 31
0.0
  0
LINE
  5
1678D
330
16561
100
AcDbEntity
  8
YODOROGO
100
AcDbLine
 10
14328.80217064594
 20
833.8747482146439
 30
0.0
 11
14328.80217064594
 21
873.8747482146449
 31
0.0
  0
LINE
  5
1678E
330
16561
100
AcDbEntity
  8
YODOROGO
100
AcDbLine
 10
14942.80217064596
 20
853.874748214644
 30
0.0
 11
14942.80217064596
 21
833.8747482146439
 31
0.0
  0
LINE
  5
1678F
330
16561
100
AcDbEntity
  8
YODOROGO
100
AcDbLine
 10
14942.80217064596
 20
853.874748214644
 30
0.0
 11
14942.80217064596
 21
833.8747482146439
 31
0.0
  0
ARC
  5
16790
330
16561
100
AcDbEntity
  8
YODOROGO
100
AcDbCircle
 10
14453.45578809342
 20
809.1089322211363
 30
0.0
 40
47.35257558937082
100
AcDbArc
 50
274.052441629071
 51
0.9266642149310712
  0
ARC
  5
16791
330
16561
100
AcDbEntity
  8
YODOROGO
100
AcDbCircle
 10
14454.5930853599
 20
796.30536430522
 30
0.0
 40
82.46021178042756
100
AcDbArc
 50
271.5351210653777
 51
355.5272775058505
  0
LINE
  5
16792
330
16561
100
AcDbEntity
  8
YODOROGO
100
AcDbLine
 10
14456.80217064596
 20
761.8747482146434
 30
0.0
 11
14456.80217064596
 21
713.8747482146436
 31
0.0
  0
LINE
  5
16793
330
16561
100
AcDbEntity
  8
YODOROGO
100
AcDbLine
 10
14396.80217064594
 20
833.8747482146439
 30
0.0
 11
14328.80217064594
 21
833.8747482146439
 31
0.0
  0
LINE
  5
16794
330
16561
100
AcDbEntity
  8
YODOROGO
100
AcDbLine
 10
14396.80217064594
 20
801.8747482146444
 30
0.0
 11
14396.80217064594
 21
833.8747482146439
 31
0.0
  0
LINE
  5
16795
330
16561
100
AcDbEntity
  8
YODOROGO
100
AcDbLine
 10
14328.80217064594
 20
801.8747482146444
 30
0.0
 11
14396.80217064594
 21
801.8747482146444
 31
0.0
  0
LINE
  5
16796
330
16561
100
AcDbEntity
  8
YODOROGO
100
AcDbLine
 10
14328.80217064594
 20
761.8747482146434
 30
0.0
 11
14328.80217064594
 21
801.8747482146444
 31
0.0
  0
LINE
  5
16797
330
16561
100
AcDbEntity
  8
YODOROGO
100
AcDbLine
 10
14396.80217064594
 20
761.8747482146434
 30
0.0
 11
14328.80217064594
 21
761.8747482146434
 31
0.0
  0
LINE
  5
16798
330
16561
100
AcDbEntity
  8
YODOROGO
100
AcDbLine
 10
14396.80217064594
 20
713.8747482146436
 30
0.0
 11
14396.80217064594
 21
761.8747482146434
 31
0.0
  0
LINE
  5
16799
330
16561
100
AcDbEntity
  8
YODOROGO
100
AcDbLine
 10
14598.80217064596
 20
745.8747482146431
 30
0.0
 11
14630.80217064596
 21
745.8747482146431
 31
0.0
  0
LINE
  5
1679A
330
16561
100
AcDbEntity
  8
YODOROGO
100
AcDbLine
 10
14692.80217064596
 20
713.8747482146436
 30
0.0
 11
14728.80217064596
 21
713.8747482146436
 31
0.0
  0
LINE
  5
1679B
330
16561
100
AcDbEntity
  8
YODOROGO
100
AcDbLine
 10
14868.80217064596
 20
764.2207260852818
 30
0.0
 11
14868.80217064596
 21
713.8747482146436
 31
0.0
  0
LINE
  5
1679C
330
16561
100
AcDbEntity
  8
YODOROGO
100
AcDbLine
 10
14808.80217064596
 20
713.8747482146436
 30
0.0
 11
14868.80217064596
 21
764.2207260852818
 31
0.0
  0
LINE
  5
1679D
330
16561
100
AcDbEntity
  8
YODOROGO
100
AcDbLine
 10
14808.80217064596
 20
773.874748214644
 30
0.0
 11
14808.80217064596
 21
713.8747482146436
 31
0.0
  0
LINE
  5
1679E
330
16561
100
AcDbEntity
  8
YODOROGO
100
AcDbLine
 10
14856.47231434973
 20
813.8747482146435
 30
0.0
 11
14808.80217064596
 21
773.874748214644
 31
0.0
  0
LINE
  5
1679F
330
16561
100
AcDbEntity
  8
YODOROGO
100
AcDbLine
 10
14808.80217064596
 20
813.8747482146435
 30
0.0
 11
14856.47231434973
 21
813.8747482146435
 31
0.0
  0
LINE
  5
167A0
330
16561
100
AcDbEntity
  8
YODOROGO
100
AcDbLine
 10
14808.80217064596
 20
833.8747482146439
 30
0.0
 11
14808.80217064596
 21
813.8747482146435
 31
0.0
  0
LINE
  5
167A1
330
16561
100
AcDbEntity
  8
YODOROGO
100
AcDbLine
 10
14942.80217064596
 20
833.8747482146439
 30
0.0
 11
14808.80217064596
 21
833.8747482146439
 31
0.0
  0
LINE
  5
167A2
330
16561
100
AcDbEntity
  8
YODOROGO
100
AcDbLine
 10
14958.80217064596
 20
813.8747482146435
 30
0.0
 11
14888.80217064596
 21
813.8747482146435
 31
0.0
  0
LINE
  5
167A3
330
16561
100
AcDbEntity
  8
YODOROGO
100
AcDbLine
 10
14888.80217064596
 20
781.0027187088283
 30
0.0
 11
14885.70493649264
 21
778.403830673117
 31
0.0
  0
LINE
  5
167A4
330
16561
100
AcDbEntity
  8
YODOROGO
100
AcDbLine
 10
14888.80217064596
 20
813.8747482146435
 30
0.0
 11
14888.80217064596
 21
781.0027187088283
 31
0.0
  0
LINE
  5
167A5
330
16561
100
AcDbEntity
  8
YODOROGO
100
AcDbLine
 10
14868.80217064596
 20
764.2207260852818
 30
0.0
 11
14868.80217064596
 21
713.8747482146436
 31
0.0
  0
LINE
  5
167A6
330
16561
100
AcDbEntity
  8
YODOROGO
100
AcDbLine
 10
14808.80217064596
 20
713.8747482146436
 30
0.0
 11
14868.80217064596
 21
764.2207260852818
 31
0.0
  0
LINE
  5
167A7
330
16561
100
AcDbEntity
  8
YODOROGO
100
AcDbLine
 10
14808.80217064596
 20
773.874748214644
 30
0.0
 11
14808.80217064596
 21
713.8747482146436
 31
0.0
  0
LINE
  5
167A8
330
16561
100
AcDbEntity
  8
YODOROGO
100
AcDbLine
 10
14856.47231434973
 20
813.8747482146435
 30
0.0
 11
14808.80217064596
 21
773.874748214644
 31
0.0
  0
LINE
  5
167A9
330
16561
100
AcDbEntity
  8
YODOROGO
100
AcDbLine
 10
14808.80217064596
 20
813.8747482146435
 30
0.0
 11
14856.47231434973
 21
813.8747482146435
 31
0.0
  0
LINE
  5
167AA
330
16561
100
AcDbEntity
  8
YODOROGO
100
AcDbLine
 10
14808.80217064596
 20
833.8747482146439
 30
0.0
 11
14808.80217064596
 21
813.8747482146435
 31
0.0
  0
LINE
  5
167AB
330
16561
100
AcDbEntity
  8
YODOROGO
100
AcDbLine
 10
14942.80217064596
 20
833.8747482146439
 30
0.0
 11
14808.80217064596
 21
833.8747482146439
 31
0.0
  0
LINE
  5
167AC
330
16561
100
AcDbEntity
  8
YODOROGO
100
AcDbLine
 10
14396.80217064594
 20
873.8747482146449
 30
0.0
 11
14396.80217064594
 21
909.8747482146439
 31
0.0
  0
LINE
  5
167AD
330
16561
100
AcDbEntity
  8
YODOROGO
100
AcDbLine
 10
14328.80217064594
 20
873.8747482146449
 30
0.0
 11
14396.80217064594
 21
873.8747482146449
 31
0.0
  0
LINE
  5
167AE
330
16561
100
AcDbEntity
  8
YODOROGO
100
AcDbLine
 10
14364.80217064596
 20
933.8747482146439
 30
0.0
 11
14364.80217064596
 21
961.8747482146432
 31
0.0
  0
LINE
  5
167AF
330
16561
100
AcDbEntity
  8
YODOROGO
100
AcDbLine
 10
14396.80217064594
 20
933.8747482146439
 30
0.0
 11
14364.80217064596
 21
933.8747482146439
 31
0.0
  0
LINE
  5
167B0
330
16561
100
AcDbEntity
  8
YODOROGO
100
AcDbLine
 10
14396.80217064594
 20
973.8747482146434
 30
0.0
 11
14396.80217064594
 21
933.8747482146439
 31
0.0
  0
ARC
  5
167B1
330
16561
100
AcDbEntity
  8
YODOROGO
100
AcDbCircle
 10
14376.80217064594
 20
973.8747482146434
 30
0.0
 40
20.0
100
AcDbArc
 50
0.0
 51
90.0
  0
LINE
  5
167B2
330
16561
100
AcDbEntity
  8
YODOROGO
100
AcDbLine
 10
14328.80217064596
 20
993.8747482146439
 30
0.0
 11
14376.80217064594
 21
993.8747482146439
 31
0.0
  0
LINE
  5
167B3
330
16561
100
AcDbEntity
  8
YODOROGO
100
AcDbLine
 10
14328.80217064596
 20
1013.874748214644
 30
0.0
 11
14328.80217064596
 21
993.8747482146439
 31
0.0
  0
LINE
  5
167B4
330
16561
100
AcDbEntity
  8
YODOROGO
100
AcDbLine
 10
14536.80217064596
 20
1013.874748214644
 30
0.0
 11
14500.80217064594
 21
1013.874748214644
 31
0.0
  0
LINE
  5
167B5
330
16561
100
AcDbEntity
  8
YODOROGO
100
AcDbLine
 10
14630.80217064596
 20
1003.874748214644
 30
0.0
 11
14598.80217064596
 21
1003.874748214644
 31
0.0
  0
LINE
  5
167B6
330
16561
100
AcDbEntity
  8
YODOROGO
100
AcDbLine
 10
14728.80217064596
 20
1013.874748214644
 30
0.0
 11
14692.80217064596
 21
1013.874748214644
 31
0.0
  0
LINE
  5
167B7
330
16561
100
AcDbEntity
  8
YODOROGO
100
AcDbLine
 10
14836.80217064596
 20
853.874748214644
 30
0.0
 11
14836.80217064596
 21
885.8747482146441
 31
0.0
1001
AUTOCAD_POSTSCRIPT_FIGURE
1002
{
1000
PSFILL
1000
Grayscale
1000
Grayscale
1070
    25
1002
}
  0
LINE
  5
167B8
330
16561
100
AcDbEntity
  8
YODOROGO
100
AcDbLine
 10
14808.80217064596
 20
853.874748214644
 30
0.0
 11
14836.80217064596
 21
853.874748214644
 31
0.0
1001
AUTOCAD_POSTSCRIPT_FIGURE
1002
{
1000
PSFILL
1000
Grayscale
1000
Grayscale
1070
    25
1002
}
  0
LINE
  5
167B9
330
16561
100
AcDbEntity
  8
YODOROGO
100
AcDbLine
 10
14808.80217064596
 20
909.8747482146439
 30
0.0
 11
14808.80217064596
 21
853.874748214644
 31
0.0
1001
AUTOCAD_POSTSCRIPT_FIGURE
1002
{
1000
PSFILL
1000
Grayscale
1000
Grayscale
1070
    25
1002
}
  0
LINE
  5
167BA
330
16561
100
AcDbEntity
  8
YODOROGO
100
AcDbLine
 10
14882.80217064596
 20
909.8747482146439
 30
0.0
 11
14808.80217064596
 21
909.8747482146439
 31
0.0
1001
AUTOCAD_POSTSCRIPT_FIGURE
1002
{
1000
PSFILL
1000
Grayscale
1000
Grayscale
1070
    25
1002
}
  0
LINE
  5
167BB
330
16561
100
AcDbEntity
  8
YODOROGO
100
AcDbLine
 10
14882.80217064596
 20
929.874748214644
 30
0.0
 11
14882.80217064596
 21
909.8747482146439
 31
0.0
1001
AUTOCAD_POSTSCRIPT_FIGURE
1002
{
1000
PSFILL
1000
Grayscale
1000
Grayscale
1070
    25
1002
}
  0
LINE
  5
167BC
330
16561
100
AcDbEntity
  8
YODOROGO
100
AcDbLine
 10
14808.80217064596
 20
929.874748214644
 30
0.0
 11
14882.80217064596
 21
929.874748214644
 31
0.0
1001
AUTOCAD_POSTSCRIPT_FIGURE
1002
{
1000
PSFILL
1000
Grayscale
1000
Grayscale
1070
    25
1002
}
  0
LINE
  5
167BD
330
16561
100
AcDbEntity
  8
YODOROGO
100
AcDbLine
 10
14808.80217064596
 20
953.874748214644
 30
0.0
 11
14808.80217064596
 21
929.874748214644
 31
0.0
1001
AUTOCAD_POSTSCRIPT_FIGURE
1002
{
1000
PSFILL
1000
Grayscale
1000
Grayscale
1070
    25
1002
}
  0
LINE
  5
167BE
330
16561
100
AcDbEntity
  8
YODOROGO
100
AcDbLine
 10
14882.80217064596
 20
953.874748214644
 30
0.0
 11
14808.80217064596
 21
953.874748214644
 31
0.0
1001
AUTOCAD_POSTSCRIPT_FIGURE
1002
{
1000
PSFILL
1000
Grayscale
1000
Grayscale
1070
    25
1002
}
  0
LINE
  5
167BF
330
16561
100
AcDbEntity
  8
YODOROGO
100
AcDbLine
 10
14882.80217064596
 20
973.8747482146434
 30
0.0
 11
14882.80217064596
 21
953.874748214644
 31
0.0
1001
AUTOCAD_POSTSCRIPT_FIGURE
1002
{
1000
PSFILL
1000
Grayscale
1000
Grayscale
1070
    25
1002
}
  0
LINE
  5
167C0
330
16561
100
AcDbEntity
  8
YODOROGO
100
AcDbLine
 10
14808.80217064596
 20
973.8747482146434
 30
0.0
 11
14882.80217064596
 21
973.8747482146434
 31
0.0
1001
AUTOCAD_POSTSCRIPT_FIGURE
1002
{
1000
PSFILL
1000
Grayscale
1000
Grayscale
1070
    25
1002
}
  0
LINE
  5
167C1
330
16561
100
AcDbEntity
  8
YODOROGO
100
AcDbLine
 10
14808.80217064596
 20
1013.874748214644
 30
0.0
 11
14808.80217064596
 21
973.8747482146434
 31
0.0
1001
AUTOCAD_POSTSCRIPT_FIGURE
1002
{
1000
PSFILL
1000
Grayscale
1000
Grayscale
1070
    25
1002
}
  0
LINE
  5
167C2
330
16561
100
AcDbEntity
  8
YODOROGO
100
AcDbLine
 10
14832.80217064596
 20
1013.874748214644
 30
0.0
 11
14808.80217064596
 21
1013.874748214644
 31
0.0
1001
AUTOCAD_POSTSCRIPT_FIGURE
1002
{
1000
PSFILL
1000
Grayscale
1000
Grayscale
1070
    25
1002
}
  0
LINE
  5
167C3
330
16561
100
AcDbEntity
  8
YODOROGO
100
AcDbLine
 10
14832.80217064596
 20
997.8747482146435
 30
0.0
 11
14832.80217064596
 21
1013.874748214644
 31
0.0
1001
AUTOCAD_POSTSCRIPT_FIGURE
1002
{
1000
PSFILL
1000
Grayscale
1000
Grayscale
1070
    25
1002
}
  0
LINE
  5
167C4
330
16561
100
AcDbEntity
  8
YODOROGO
100
AcDbLine
 10
14882.80217064596
 20
997.8747482146435
 30
0.0
 11
14832.80217064596
 21
997.8747482146435
 31
0.0
1001
AUTOCAD_POSTSCRIPT_FIGURE
1002
{
1000
PSFILL
1000
Grayscale
1000
Grayscale
1070
    25
1002
}
  0
LINE
  5
167C5
330
16561
100
AcDbEntity
  8
YODOROGO
100
AcDbLine
 10
14882.80217064596
 20
1013.874748214644
 30
0.0
 11
14882.80217064596
 21
997.8747482146435
 31
0.0
1001
AUTOCAD_POSTSCRIPT_FIGURE
1002
{
1000
PSFILL
1000
Grayscale
1000
Grayscale
1070
    25
1002
}
  0
LINE
  5
167C6
330
16561
100
AcDbEntity
  8
YODOROGO
100
AcDbLine
 10
14914.80217064596
 20
1013.874748214644
 30
0.0
 11
14882.80217064596
 21
1013.874748214644
 31
0.0
1001
AUTOCAD_POSTSCRIPT_FIGURE
1002
{
1000
PSFILL
1000
Grayscale
1000
Grayscale
1070
    25
1002
}
  0
LINE
  5
167C7
330
16561
100
AcDbEntity
  8
YODOROGO
100
AcDbLine
 10
14914.80217064596
 20
997.8747482146435
 30
0.0
 11
14914.80217064596
 21
1013.874748214644
 31
0.0
1001
AUTOCAD_POSTSCRIPT_FIGURE
1002
{
1000
PSFILL
1000
Grayscale
1000
Grayscale
1070
    25
1002
}
  0
LINE
  5
167C8
330
16561
100
AcDbEntity
  8
YODOROGO
100
AcDbLine
 10
14914.80217064596
 20
953.874748214644
 30
0.0
 11
14914.80217064596
 21
973.8747482146434
 31
0.0
1001
AUTOCAD_POSTSCRIPT_FIGURE
1002
{
1000
PSFILL
1000
Grayscale
1000
Grayscale
1070
    25
1002
}
  0
LINE
  5
167C9
330
16561
100
AcDbEntity
  8
YODOROGO
100
AcDbLine
 10
14914.80217064596
 20
909.8747482146439
 30
0.0
 11
14914.80217064596
 21
929.874748214644
 31
0.0
1001
AUTOCAD_POSTSCRIPT_FIGURE
1002
{
1000
PSFILL
1000
Grayscale
1000
Grayscale
1070
    25
1002
}
  0
LINE
  5
167CA
330
16561
100
AcDbEntity
  8
YODOROGO
100
AcDbLine
 10
14960.80217064594
 20
885.8747482146441
 30
0.0
 11
14960.80217064594
 21
853.874748214644
 31
0.0
1001
AUTOCAD_POSTSCRIPT_FIGURE
1002
{
1000
PSFILL
1000
Grayscale
1000
Grayscale
1070
    25
1002
}
  0
LINE
  5
167CB
330
16561
100
AcDbEntity
  8
YODOROGO
100
AcDbLine
 10
14914.80217064596
 20
885.8747482146441
 30
0.0
 11
14960.80217064594
 21
885.8747482146441
 31
0.0
1001
AUTOCAD_POSTSCRIPT_FIGURE
1002
{
1000
PSFILL
1000
Grayscale
1000
Grayscale
1070
    25
1002
}
  0
LINE
  5
167CC
330
16561
100
AcDbEntity
  8
YODOROGO
100
AcDbLine
 10
14914.80217064596
 20
853.874748214644
 30
0.0
 11
14914.80217064596
 21
885.8747482146441
 31
0.0
1001
AUTOCAD_POSTSCRIPT_FIGURE
1002
{
1000
PSFILL
1000
Grayscale
1000
Grayscale
1070
    25
1002
}
  0
LINE
  5
167CD
330
16561
100
AcDbEntity
  8
YODOROGO
100
AcDbLine
 10
14882.80217064596
 20
853.874748214644
 30
0.0
 11
14914.80217064596
 21
853.874748214644
 31
0.0
1001
AUTOCAD_POSTSCRIPT_FIGURE
1002
{
1000
PSFILL
1000
Grayscale
1000
Grayscale
1070
    25
1002
}
  0
LINE
  5
167CE
330
16561
100
AcDbEntity
  8
YODOROGO
100
AcDbLine
 10
14882.80217064596
 20
885.8747482146441
 30
0.0
 11
14882.80217064596
 21
853.874748214644
 31
0.0
1001
AUTOCAD_POSTSCRIPT_FIGURE
1002
{
1000
PSFILL
1000
Grayscale
1000
Grayscale
1070
    25
1002
}
  0
LINE
  5
167CF
330
16561
100
AcDbEntity
  8
YODOROGO
100
AcDbLine
 10
14836.80217064596
 20
885.8747482146441
 30
0.0
 11
14882.80217064596
 21
885.8747482146441
 31
0.0
1001
AUTOCAD_POSTSCRIPT_FIGURE
1002
{
1000
PSFILL
1000
Grayscale
1000
Grayscale
1070
    25
1002
}
  0
ARC
  5
167D0
330
16561
100
AcDbEntity
  8
YODOROGO
100
AcDbCircle
 10
15529.75894667896
 20
801.3403687577881
 30
0.0
 40
89.11064055536078
100
AcDbArc
 50
281.0262749542535
 51
357.771135755738
  0
LINE
  5
167D1
330
16561
100
AcDbEntity
  8
YODOROGO
100
AcDbLine
 10
15706.80217064596
 20
953.874748214644
 30
0.0
 11
15582.80217064596
 21
953.874748214644
 31
0.0
  0
LINE
  5
167D2
330
16561
100
AcDbEntity
  8
YODOROGO
100
AcDbLine
 10
15706.80217064596
 20
1013.874748214644
 30
0.0
 11
15582.80217064596
 21
1013.874748214644
 31
0.0
  0
LINE
  5
167D3
330
16561
100
AcDbEntity
  8
YODOROGO
100
AcDbLine
 10
15582.80217064596
 20
981.8747482146434
 30
0.0
 11
15706.80217064596
 21
981.8747482146434
 31
0.0
  0
LINE
  5
167D4
330
16561
100
AcDbEntity
  8
YODOROGO
100
AcDbLine
 10
15395.80217064596
 20
781.8747482146434
 30
0.0
 11
15395.80217064596
 21
877.8747482146435
 31
0.0
  0
LINE
  5
167D5
330
16561
100
AcDbEntity
  8
YODOROGO
100
AcDbLine
 10
15381.80217064596
 20
845.8747482146444
 30
0.0
 11
15381.80217064596
 21
781.8747482146434
 31
0.0
  0
LINE
  5
167D6
330
16561
100
AcDbEntity
  8
YODOROGO
100
AcDbLine
 10
15361.80217064596
 20
745.8747482146443
 30
0.0
 11
15361.80217064596
 21
845.8747482146444
 31
0.0
  0
LINE
  5
167D7
330
16561
100
AcDbEntity
  8
YODOROGO
100
AcDbLine
 10
15449.80217064596
 20
845.8747482146444
 30
0.0
 11
15449.80217064596
 21
745.8747482146443
 31
0.0
  0
LINE
  5
167D8
330
16561
100
AcDbEntity
  8
YODOROGO
100
AcDbLine
 10
15429.80217064596
 20
781.8747482146434
 30
0.0
 11
15429.80217064596
 21
845.8747482146444
 31
0.0
  0
LINE
  5
167D9
330
16561
100
AcDbEntity
  8
YODOROGO
100
AcDbLine
 10
15415.80217064596
 20
877.8747482146435
 30
0.0
 11
15415.80217064596
 21
781.8747482146434
 31
0.0
  0
LINE
  5
167DA
330
16561
100
AcDbEntity
  8
YODOROGO
100
AcDbLine
 10
15486.80217064596
 20
1013.874748214644
 30
0.0
 11
15486.80217064596
 21
733.8747482146435
 31
0.0
  0
LINE
  5
167DB
330
16561
100
AcDbEntity
  8
YODOROGO
100
AcDbLine
 10
15322.80217064596
 20
713.8747482146436
 30
0.0
 11
15322.80217064596
 21
1013.874748214644
 31
0.0
  0
LINE
  5
167DC
330
16561
100
AcDbEntity
  8
YODOROGO
100
AcDbLine
 10
15348.80217064596
 20
981.8747482146434
 30
0.0
 11
15348.80217064596
 21
713.8747482146436
 31
0.0
  0
LINE
  5
167DD
330
16561
100
AcDbEntity
  8
YODOROGO
100
AcDbLine
 10
15462.80217064596
 20
773.874748214644
 30
0.0
 11
15462.80217064596
 21
981.8747482146434
 31
0.0
  0
LINE
  5
167DE
330
16561
100
AcDbEntity
  8
YODOROGO
100
AcDbLine
 10
15190.80217064596
 20
813.8747482146435
 30
0.0
 11
15190.80217064596
 21
839.8747482146442
 31
0.0
  0
LINE
  5
167DF
330
16561
100
AcDbEntity
  8
YODOROGO
100
AcDbLine
 10
15308.80217064596
 20
839.8747482146442
 30
0.0
 11
15308.80217064596
 21
813.8747482146435
 31
0.0
  0
LINE
  5
167E0
330
16561
100
AcDbEntity
  8
YODOROGO
100
AcDbLine
 10
15582.80217064596
 20
953.874748214644
 30
0.0
 11
15582.80217064596
 21
817.8747482146436
 31
0.0
  0
LINE
  5
167E1
330
16561
100
AcDbEntity
  8
YODOROGO
100
AcDbLine
 10
14974.80217064595
 20
833.8747482146439
 30
0.0
 11
14974.80217064595
 21
853.874748214644
 31
0.0
  0
LINE
  5
167E2
330
16561
100
AcDbEntity
  8
YODOROGO
100
AcDbLine
 10
14974.80217064595
 20
833.8747482146439
 30
0.0
 11
14974.80217064595
 21
853.874748214644
 31
0.0
  0
ARC
  5
167E3
330
16561
100
AcDbEntity
  8
YODOROGO
100
AcDbCircle
 10
15268.80217064596
 20
753.8747482146439
 30
0.0
 40
40.0
100
AcDbArc
 50
270.0
 51
0.0
  0
LINE
  5
167E4
330
16561
100
AcDbEntity
  8
YODOROGO
100
AcDbLine
 10
15284.80217064596
 20
799.8747482146441
 30
0.0
 11
15308.80217064596
 21
799.8747482146441
 31
0.0
  0
LINE
  5
167E5
330
16561
100
AcDbEntity
  8
YODOROGO
100
AcDbLine
 10
15308.80217064596
 20
813.8747482146435
 30
0.0
 11
15264.80217064596
 21
813.8747482146435
 31
0.0
  0
LINE
  5
167E6
330
16561
100
AcDbEntity
  8
YODOROGO
100
AcDbLine
 10
15108.80217064596
 20
833.8747482146439
 30
0.0
 11
14974.80217064595
 21
833.8747482146439
 31
0.0
  0
LINE
  5
167E7
330
16561
100
AcDbEntity
  8
YODOROGO
100
AcDbLine
 10
15108.80217064596
 20
813.8747482146435
 30
0.0
 11
15108.80217064596
 21
833.8747482146439
 31
0.0
  0
LINE
  5
167E8
330
16561
100
AcDbEntity
  8
YODOROGO
100
AcDbLine
 10
15008.80217064596
 20
813.8747482146435
 30
0.0
 11
15108.80217064596
 21
813.8747482146435
 31
0.0
  0
ARC
  5
167E9
330
16561
100
AcDbEntity
  8
YODOROGO
100
AcDbCircle
 10
15115.02941435068
 20
934.4428574764513
 30
0.0
 40
160.6888181426141
100
AcDbArc
 50
228.6181454618993
 51
245.660289248906
  0
LINE
  5
167EA
330
16561
100
AcDbEntity
  8
YODOROGO
100
AcDbLine
 10
15052.80217064596
 20
801.8747482146444
 30
0.0
 11
15048.80217064598
 21
788.0364079349501
 31
0.0
  0
LINE
  5
167EB
330
16561
100
AcDbEntity
  8
YODOROGO
100
AcDbLine
 10
15094.80217064596
 20
801.8747482146444
 30
0.0
 11
15052.80217064596
 21
801.8747482146444
 31
0.0
  0
LINE
  5
167EC
330
16561
100
AcDbEntity
  8
YODOROGO
100
AcDbLine
 10
15088.80217064596
 20
775.9088612367134
 30
0.0
 11
15094.80217064596
 21
801.8747482146444
 31
0.0
  0
ARC
  5
167ED
330
16561
100
AcDbEntity
  8
YODOROGO
100
AcDbCircle
 10
15115.02941435023
 20
934.4428574765014
 30
0.0
 40
160.6888181426453
100
AcDbArc
 50
260.6062929796992
 51
267.7790355655586
  0
LINE
  5
167EE
330
16561
100
AcDbEntity
  8
YODOROGO
100
AcDbLine
 10
15108.80217064596
 20
713.8747482146428
 30
0.0
 11
15108.80217064596
 21
773.874748214644
 31
0.0
  0
LINE
  5
167EF
330
16561
100
AcDbEntity
  8
YODOROGO
100
AcDbLine
 10
14968.80217064596
 20
740.6696674577553
 30
0.0
 11
14968.80217064596
 21
797.2655452655705
 31
0.0
  0
LINE
  5
167F0
330
16561
100
AcDbEntity
  8
YODOROGO
100
AcDbLine
 10
15108.80217064596
 20
833.8747482146439
 30
0.0
 11
14974.80217064595
 21
833.8747482146439
 31
0.0
  0
LINE
  5
167F1
330
16561
100
AcDbEntity
  8
YODOROGO
100
AcDbLine
 10
15108.80217064596
 20
813.8747482146435
 30
0.0
 11
15108.80217064596
 21
833.8747482146439
 31
0.0
  0
LINE
  5
167F2
330
16561
100
AcDbEntity
  8
YODOROGO
100
AcDbLine
 10
15008.80217064596
 20
813.8747482146435
 30
0.0
 11
15108.80217064596
 21
813.8747482146435
 31
0.0
  0
ARC
  5
167F3
330
16561
100
AcDbEntity
  8
YODOROGO
100
AcDbCircle
 10
15115.02941435068
 20
934.4428574764513
 30
0.0
 40
160.6888181426141
100
AcDbArc
 50
228.6181454618993
 51
245.660289248906
  0
LINE
  5
167F4
330
16561
100
AcDbEntity
  8
YODOROGO
100
AcDbLine
 10
15052.80217064596
 20
801.8747482146444
 30
0.0
 11
15048.80217064598
 21
788.0364079349501
 31
0.0
  0
LINE
  5
167F5
330
16561
100
AcDbEntity
  8
YODOROGO
100
AcDbLine
 10
15094.80217064596
 20
801.8747482146444
 30
0.0
 11
15052.80217064596
 21
801.8747482146444
 31
0.0
  0
LINE
  5
167F6
330
16561
100
AcDbEntity
  8
YODOROGO
100
AcDbLine
 10
15088.80217064596
 20
775.9088612367134
 30
0.0
 11
15094.80217064596
 21
801.8747482146444
 31
0.0
  0
ARC
  5
167F7
330
16561
100
AcDbEntity
  8
YODOROGO
100
AcDbCircle
 10
15115.02941435023
 20
934.4428574765014
 30
0.0
 40
160.6888181426453
100
AcDbArc
 50
260.6062929796992
 51
267.7790355655586
  0
LINE
  5
167F8
330
16561
100
AcDbEntity
  8
YODOROGO
100
AcDbLine
 10
15108.80217064596
 20
713.8747482146428
 30
0.0
 11
15108.80217064596
 21
773.874748214644
 31
0.0
  0
LINE
  5
167F9
330
16561
100
AcDbEntity
  8
YODOROGO
100
AcDbLine
 10
14968.80217064596
 20
740.6696674577553
 30
0.0
 11
14968.80217064596
 21
797.2655452655705
 31
0.0
  0
LINE
  5
167FA
330
16561
100
AcDbEntity
  8
YODOROGO
100
AcDbLine
 10
15216.80217064596
 20
786.8747482146444
 30
0.0
 11
15190.80217064596
 21
786.8747482146444
 31
0.0
  0
LINE
  5
167FB
330
16561
100
AcDbEntity
  8
YODOROGO
100
AcDbLine
 10
15216.80217064596
 20
800.8747482146432
 30
0.0
 11
15216.80217064596
 21
786.8747482146444
 31
0.0
  0
LINE
  5
167FC
330
16561
100
AcDbEntity
  8
YODOROGO
100
AcDbLine
 10
15190.80217064596
 20
800.8747482146432
 30
0.0
 11
15216.80217064596
 21
800.8747482146432
 31
0.0
  0
LINE
  5
167FD
330
16561
100
AcDbEntity
  8
YODOROGO
100
AcDbLine
 10
15190.80217064596
 20
786.8747482146444
 30
0.0
 11
15190.80217064596
 21
800.8747482146432
 31
0.0
  0
LINE
  5
167FE
330
16561
100
AcDbEntity
  8
YODOROGO
100
AcDbLine
 10
15214.80217064596
 20
788.8747482146436
 30
0.0
 11
15192.80217064595
 21
788.8747482146436
 31
0.0
  0
LINE
  5
167FF
330
16561
100
AcDbEntity
  8
YODOROGO
100
AcDbLine
 10
15214.80217064596
 20
798.874748214644
 30
0.0
 11
15214.80217064596
 21
788.8747482146436
 31
0.0
  0
LINE
  5
16800
330
16561
100
AcDbEntity
  8
YODOROGO
100
AcDbLine
 10
15192.80217064595
 20
798.874748214644
 30
0.0
 11
15214.80217064596
 21
798.874748214644
 31
0.0
  0
LINE
  5
16801
330
16561
100
AcDbEntity
  8
YODOROGO
100
AcDbLine
 10
15192.80217064595
 20
788.8747482146436
 30
0.0
 11
15192.80217064595
 21
798.874748214644
 31
0.0
  0
LINE
  5
16802
330
16561
100
AcDbEntity
  8
YODOROGO
100
AcDbLine
 10
15212.80217064596
 20
790.8747482146432
 30
0.0
 11
15194.80217064596
 21
790.8747482146432
 31
0.0
  0
LINE
  5
16803
330
16561
100
AcDbEntity
  8
YODOROGO
100
AcDbLine
 10
15212.80217064596
 20
796.8747482146445
 30
0.0
 11
15212.80217064596
 21
790.8747482146432
 31
0.0
  0
LINE
  5
16804
330
16561
100
AcDbEntity
  8
YODOROGO
100
AcDbLine
 10
15194.80217064596
 20
796.8747482146445
 30
0.0
 11
15212.80217064596
 21
796.8747482146445
 31
0.0
  0
LINE
  5
16805
330
16561
100
AcDbEntity
  8
YODOROGO
100
AcDbLine
 10
15194.80217064596
 20
790.8747482146432
 30
0.0
 11
15194.80217064596
 21
796.8747482146445
 31
0.0
  0
LINE
  5
16806
330
16561
100
AcDbEntity
  8
YODOROGO
100
AcDbLine
 10
15210.80217064596
 20
792.8747482146435
 30
0.0
 11
15196.80217064596
 21
792.8747482146435
 31
0.0
  0
LINE
  5
16807
330
16561
100
AcDbEntity
  8
YODOROGO
100
AcDbLine
 10
15210.80217064596
 20
794.8747482146441
 30
0.0
 11
15210.80217064596
 21
792.8747482146435
 31
0.0
  0
LINE
  5
16808
330
16561
100
AcDbEntity
  8
YODOROGO
100
AcDbLine
 10
15196.80217064596
 20
794.8747482146441
 30
0.0
 11
15210.80217064596
 21
794.8747482146441
 31
0.0
  0
LINE
  5
16809
330
16561
100
AcDbEntity
  8
YODOROGO
100
AcDbLine
 10
15196.80217064596
 20
792.8747482146435
 30
0.0
 11
15196.80217064596
 21
794.8747482146441
 31
0.0
  0
LINE
  5
1680A
330
16561
100
AcDbEntity
  8
YODOROGO
100
AcDbLine
 10
15232.80217064596
 20
813.8747482146435
 30
0.0
 11
15190.80217064596
 21
813.8747482146435
 31
0.0
  0
LINE
  5
1680B
330
16561
100
AcDbEntity
  8
YODOROGO
100
AcDbLine
 10
15232.80217064596
 20
773.874748214644
 30
0.0
 11
15232.80217064596
 21
813.8747482146435
 31
0.0
  0
LINE
  5
1680C
330
16561
100
AcDbEntity
  8
YODOROGO
100
AcDbLine
 10
15190.80217064596
 20
773.874748214644
 30
0.0
 11
15232.80217064596
 21
773.874748214644
 31
0.0
  0
LINE
  5
1680D
330
16561
100
AcDbEntity
  8
YODOROGO
100
AcDbLine
 10
15190.80217064596
 20
713.8747482146436
 30
0.0
 11
15190.80217064596
 21
773.874748214644
 31
0.0
  0
LINE
  5
1680E
330
16561
100
AcDbEntity
  8
YODOROGO
100
AcDbLine
 10
15268.80217064596
 20
713.8747482146436
 30
0.0
 11
15190.80217064596
 21
713.8747482146436
 31
0.0
  0
LINE
  5
1680F
330
16561
100
AcDbEntity
  8
YODOROGO
100
AcDbLine
 10
15284.80217064596
 20
785.8747482146432
 30
0.0
 11
15284.80217064596
 21
799.8747482146441
 31
0.0
  0
ARC
  5
16810
330
16561
100
AcDbEntity
  8
YODOROGO
100
AcDbCircle
 10
15272.80217064594
 20
785.8747482146457
 30
0.0
 40
12.00000000000187
100
AcDbArc
 50
270.0
 51
359.9999999999877
  0
LINE
  5
16811
330
16561
100
AcDbEntity
  8
YODOROGO
100
AcDbLine
 10
15264.80217064596
 20
773.874748214644
 30
0.0
 11
15272.80217064594
 21
773.874748214644
 31
0.0
  0
LINE
  5
16812
330
16561
100
AcDbEntity
  8
YODOROGO
100
AcDbLine
 10
15264.80217064596
 20
813.8747482146435
 30
0.0
 11
15264.80217064596
 21
773.874748214644
 31
0.0
  0
LINE
  5
16813
330
16561
100
AcDbEntity
  8
YODOROGO
100
AcDbLine
 10
15449.80217064596
 20
773.874748214644
 30
0.0
 11
15462.80217064596
 21
773.874748214644
 31
0.0
  0
LINE
  5
16814
330
16561
100
AcDbEntity
  8
YODOROGO
100
AcDbLine
 10
15466.80217064596
 20
713.8747482146436
 30
0.0
 11
15449.80217064596
 21
713.8747482146436
 31
0.0
  0
LINE
  5
16815
330
16561
100
AcDbEntity
  8
YODOROGO
100
AcDbLine
 10
15381.80217064596
 20
781.8747482146434
 30
0.0
 11
15395.80217064596
 21
781.8747482146434
 31
0.0
  0
LINE
  5
16816
330
16561
100
AcDbEntity
  8
YODOROGO
100
AcDbLine
 10
15449.80217064596
 20
745.8747482146443
 30
0.0
 11
15361.80217064596
 21
745.8747482146443
 31
0.0
  0
LINE
  5
16817
330
16561
100
AcDbEntity
  8
YODOROGO
100
AcDbLine
 10
15415.80217064596
 20
781.8747482146434
 30
0.0
 11
15429.80217064596
 21
781.8747482146434
 31
0.0
  0
LINE
  5
16818
330
16561
100
AcDbEntity
  8
YODOROGO
100
AcDbLine
 10
15449.80217064596
 20
713.8747482146436
 30
0.0
 11
15449.80217064596
 21
773.874748214644
 31
0.0
  0
LINE
  5
16819
330
16561
100
AcDbEntity
  8
YODOROGO
100
AcDbLine
 10
15348.80217064596
 20
713.8747482146436
 30
0.0
 11
15322.80217064596
 21
713.8747482146436
 31
0.0
  0
LINE
  5
1681A
330
16561
100
AcDbEntity
  8
YODOROGO
100
AcDbLine
 10
15308.80217064596
 20
799.8747482146441
 30
0.0
 11
15308.80217064596
 21
753.8747482146439
 31
0.0
  0
ARC
  5
1681B
330
16561
100
AcDbEntity
  8
YODOROGO
100
AcDbCircle
 10
15466.80217064596
 20
733.8747482146435
 30
0.0
 40
20.0
100
AcDbArc
 50
270.0
 51
0.0
  0
LINE
  5
1681C
330
16561
100
AcDbEntity
  8
YODOROGO
100
AcDbLine
 10
15546.80217064596
 20
761.8747482146434
 30
0.0
 11
15546.80217064596
 21
713.8747482146436
 31
0.0
  0
ARC
  5
1681D
330
16561
100
AcDbEntity
  8
YODOROGO
100
AcDbCircle
 10
15519.86069778339
 20
818.7656950548664
 30
0.0
 40
62.94777829583771
100
AcDbArc
 50
295.3405244216011
 51
359.1890230341867
  0
LINE
  5
1681E
330
16561
100
AcDbEntity
  8
YODOROGO
100
AcDbLine
 10
15308.80217064596
 20
929.874748214644
 30
0.0
 11
15248.80217064596
 21
969.8747482146441
 31
0.0
  0
LINE
  5
1681F
330
16561
100
AcDbEntity
  8
YODOROGO
100
AcDbLine
 10
15248.80217064596
 20
1013.874748214644
 30
0.0
 11
15308.80217064596
 21
973.8747482146434
 31
0.0
  0
LINE
  5
16820
330
16561
100
AcDbEntity
  8
YODOROGO
100
AcDbLine
 10
15264.80217064596
 20
839.8747482146442
 30
0.0
 11
15308.80217064596
 21
839.8747482146442
 31
0.0
  0
LINE
  5
16821
330
16561
100
AcDbEntity
  8
YODOROGO
100
AcDbLine
 10
15308.80217064596
 20
867.8747482146436
 30
0.0
 11
15264.80217064596
 21
867.8747482146436
 31
0.0
  0
LINE
  5
16822
330
16561
100
AcDbEntity
  8
YODOROGO
100
AcDbLine
 10
15190.80217064596
 20
897.8747482146435
 30
0.0
 11
15308.80217064596
 21
897.8747482146435
 31
0.0
  0
LINE
  5
16823
330
16561
100
AcDbEntity
  8
YODOROGO
100
AcDbLine
 10
15040.80217064596
 20
1013.874748214644
 30
0.0
 11
15010.80217064596
 21
1013.874748214644
 31
0.0
  0
LINE
  5
16824
330
16561
100
AcDbEntity
  8
YODOROGO
100
AcDbLine
 10
15040.80217064596
 20
913.8747482146435
 30
0.0
 11
15040.80217064596
 21
1013.874748214644
 31
0.0
  0
LINE
  5
16825
330
16561
100
AcDbEntity
  8
YODOROGO
100
AcDbLine
 10
15010.80217064596
 20
913.8747482146435
 30
0.0
 11
15040.80217064596
 21
913.8747482146435
 31
0.0
  0
LINE
  5
16826
330
16561
100
AcDbEntity
  8
YODOROGO
100
AcDbLine
 10
15010.80217064596
 20
1013.874748214644
 30
0.0
 11
15010.80217064596
 21
913.8747482146435
 31
0.0
  0
LINE
  5
16827
330
16561
100
AcDbEntity
  8
YODOROGO
100
AcDbLine
 10
15080.80217064596
 20
1013.874748214644
 30
0.0
 11
15108.80217064596
 21
1013.874748214644
 31
0.0
  0
LINE
  5
16828
330
16561
100
AcDbEntity
  8
YODOROGO
100
AcDbLine
 10
15080.80217064596
 20
905.8747482146443
 30
0.0
 11
15080.80217064596
 21
1013.874748214644
 31
0.0
  0
ARC
  5
16829
330
16561
100
AcDbEntity
  8
YODOROGO
100
AcDbCircle
 10
15060.80217064596
 20
905.8747482146443
 30
0.0
 40
20.0
100
AcDbArc
 50
270.0
 51
0.0
  0
LINE
  5
1682A
330
16561
100
AcDbEntity
  8
YODOROGO
100
AcDbLine
 10
15010.80217064596
 20
885.8747482146441
 30
0.0
 11
15060.80217064596
 21
885.8747482146441
 31
0.0
  0
LINE
  5
1682B
330
16561
100
AcDbEntity
  8
YODOROGO
100
AcDbLine
 10
15010.80217064596
 20
853.874748214644
 30
0.0
 11
15010.80217064596
 21
885.8747482146441
 31
0.0
  0
LINE
  5
1682C
330
16561
100
AcDbEntity
  8
YODOROGO
100
AcDbLine
 10
15068.80217064596
 20
853.874748214644
 30
0.0
 11
15010.80217064596
 21
853.874748214644
 31
0.0
  0
ARC
  5
1682D
330
16561
100
AcDbEntity
  8
YODOROGO
100
AcDbCircle
 10
15068.80217064596
 20
893.8747482146439
 30
0.0
 40
40.0
100
AcDbArc
 50
270.0
 51
0.0
  0
LINE
  5
1682E
330
16561
100
AcDbEntity
  8
YODOROGO
100
AcDbLine
 10
15108.80217064596
 20
1013.874748214644
 30
0.0
 11
15108.80217064596
 21
893.8747482146439
 31
0.0
  0
LINE
  5
1682F
330
16561
100
AcDbEntity
  8
YODOROGO
100
AcDbLine
 10
14988.80217064596
 20
973.8747482146434
 30
0.0
 11
14988.80217064596
 21
997.8747482146435
 31
0.0
1001
AUTOCAD_POSTSCRIPT_FIGURE
1002
{
1000
PSFILL
1000
Grayscale
1000
Grayscale
1070
    25
1002
}
  0
LINE
  5
16830
330
16561
100
AcDbEntity
  8
YODOROGO
100
AcDbLine
 10
14988.80217064596
 20
929.874748214644
 30
0.0
 11
14988.80217064596
 21
953.874748214644
 31
0.0
1001
AUTOCAD_POSTSCRIPT_FIGURE
1002
{
1000
PSFILL
1000
Grayscale
1000
Grayscale
1070
    25
1002
}
  0
LINE
  5
16831
330
16561
100
AcDbEntity
  8
YODOROGO
100
AcDbLine
 10
14988.80217064596
 20
853.874748214644
 30
0.0
 11
14988.80217064596
 21
909.8747482146439
 31
0.0
1001
AUTOCAD_POSTSCRIPT_FIGURE
1002
{
1000
PSFILL
1000
Grayscale
1000
Grayscale
1070
    25
1002
}
  0
LINE
  5
16832
330
16561
100
AcDbEntity
  8
YODOROGO
100
AcDbLine
 10
15190.80217064596
 20
953.874748214644
 30
0.0
 11
15248.80217064596
 21
1013.874748214644
 31
0.0
  0
LINE
  5
16833
330
16561
100
AcDbEntity
  8
YODOROGO
100
AcDbLine
 10
15190.80217064596
 20
909.8747482146439
 30
0.0
 11
15190.80217064596
 21
953.874748214644
 31
0.0
  0
LINE
  5
16834
330
16561
100
AcDbEntity
  8
YODOROGO
100
AcDbLine
 10
15248.80217064596
 20
969.8747482146441
 30
0.0
 11
15190.80217064596
 21
909.8747482146439
 31
0.0
  0
LINE
  5
16835
330
16561
100
AcDbEntity
  8
YODOROGO
100
AcDbLine
 10
15232.80217064596
 20
839.8747482146442
 30
0.0
 11
15232.80217064596
 21
867.8747482146436
 31
0.0
  0
LINE
  5
16836
330
16561
100
AcDbEntity
  8
YODOROGO
100
AcDbLine
 10
15190.80217064596
 20
839.8747482146442
 30
0.0
 11
15232.80217064596
 21
839.8747482146442
 31
0.0
  0
LINE
  5
16837
330
16561
100
AcDbEntity
  8
YODOROGO
100
AcDbLine
 10
15264.80217064596
 20
867.8747482146436
 30
0.0
 11
15264.80217064596
 21
839.8747482146442
 31
0.0
  0
LINE
  5
16838
330
16561
100
AcDbEntity
  8
YODOROGO
100
AcDbLine
 10
15190.80217064596
 20
867.8747482146436
 30
0.0
 11
15190.80217064596
 21
897.8747482146435
 31
0.0
  0
LINE
  5
16839
330
16561
100
AcDbEntity
  8
YODOROGO
100
AcDbLine
 10
15232.80217064596
 20
867.8747482146436
 30
0.0
 11
15190.80217064596
 21
867.8747482146436
 31
0.0
  0
LINE
  5
1683A
330
16561
100
AcDbEntity
  8
YODOROGO
100
AcDbLine
 10
15322.80217064596
 20
1013.874748214644
 30
0.0
 11
15486.80217064596
 21
1013.874748214644
 31
0.0
  0
LINE
  5
1683B
330
16561
100
AcDbEntity
  8
YODOROGO
100
AcDbLine
 10
15462.80217064596
 20
981.8747482146434
 30
0.0
 11
15348.80217064596
 21
981.8747482146434
 31
0.0
  0
LINE
  5
1683C
330
16561
100
AcDbEntity
  8
YODOROGO
100
AcDbLine
 10
15436.80217064595
 20
909.8747482146439
 30
0.0
 11
15449.80217064596
 21
909.8747482146439
 31
0.0
  0
LINE
  5
1683D
330
16561
100
AcDbEntity
  8
YODOROGO
100
AcDbLine
 10
15449.80217064596
 20
969.8747482146441
 30
0.0
 11
15436.80217064595
 21
909.8747482146439
 31
0.0
  0
LINE
  5
1683E
330
16561
100
AcDbEntity
  8
YODOROGO
100
AcDbLine
 10
15425.80217064596
 20
969.8747482146441
 30
0.0
 11
15449.80217064596
 21
969.8747482146441
 31
0.0
  0
LINE
  5
1683F
330
16561
100
AcDbEntity
  8
YODOROGO
100
AcDbLine
 10
15412.80217064596
 20
909.8747482146439
 30
0.0
 11
15425.80217064596
 21
969.8747482146441
 31
0.0
  0
LINE
  5
16840
330
16561
100
AcDbEntity
  8
YODOROGO
100
AcDbLine
 10
15398.80217064596
 20
909.8747482146439
 30
0.0
 11
15412.80217064596
 21
909.8747482146439
 31
0.0
  0
LINE
  5
16841
330
16561
100
AcDbEntity
  8
YODOROGO
100
AcDbLine
 10
15385.80217064596
 20
969.8747482146441
 30
0.0
 11
15398.80217064596
 21
909.8747482146439
 31
0.0
  0
LINE
  5
16842
330
16561
100
AcDbEntity
  8
YODOROGO
100
AcDbLine
 10
15361.80217064596
 20
969.8747482146441
 30
0.0
 11
15385.80217064596
 21
969.8747482146441
 31
0.0
  0
LINE
  5
16843
330
16561
100
AcDbEntity
  8
YODOROGO
100
AcDbLine
 10
15374.80217064596
 20
909.8747482146439
 30
0.0
 11
15361.80217064596
 21
969.8747482146441
 31
0.0
  0
LINE
  5
16844
330
16561
100
AcDbEntity
  8
YODOROGO
100
AcDbLine
 10
15361.80217064596
 20
909.8747482146439
 30
0.0
 11
15374.80217064596
 21
909.8747482146439
 31
0.0
  0
LINE
  5
16845
330
16561
100
AcDbEntity
  8
YODOROGO
100
AcDbLine
 10
15361.80217064596
 20
877.8747482146435
 30
0.0
 11
15361.80217064596
 21
909.8747482146439
 31
0.0
  0
LINE
  5
16846
330
16561
100
AcDbEntity
  8
YODOROGO
100
AcDbLine
 10
15449.80217064596
 20
877.8747482146435
 30
0.0
 11
15361.80217064596
 21
877.8747482146435
 31
0.0
  0
LINE
  5
16847
330
16561
100
AcDbEntity
  8
YODOROGO
100
AcDbLine
 10
15449.80217064596
 20
909.8747482146439
 30
0.0
 11
15449.80217064596
 21
877.8747482146435
 31
0.0
  0
LINE
  5
16848
330
16561
100
AcDbEntity
  8
YODOROGO
100
AcDbLine
 10
15308.80217064596
 20
973.8747482146434
 30
0.0
 11
15308.80217064596
 21
929.874748214644
 31
0.0
  0
LINE
  5
16849
330
16561
100
AcDbEntity
  8
YODOROGO
100
AcDbLine
 10
15395.80217064596
 20
877.8747482146435
 30
0.0
 11
15415.80217064596
 21
877.8747482146435
 31
0.0
  0
LINE
  5
1684A
330
16561
100
AcDbEntity
  8
YODOROGO
100
AcDbLine
 10
15361.80217064596
 20
845.8747482146444
 30
0.0
 11
15381.80217064596
 21
845.8747482146444
 31
0.0
  0
LINE
  5
1684B
330
16561
100
AcDbEntity
  8
YODOROGO
100
AcDbLine
 10
15429.80217064596
 20
845.8747482146444
 30
0.0
 11
15449.80217064596
 21
845.8747482146444
 31
0.0
  0
LINE
  5
1684C
330
16561
100
AcDbEntity
  8
YODOROGO
100
AcDbLine
 10
15308.80217064596
 20
897.8747482146435
 30
0.0
 11
15308.80217064596
 21
867.8747482146436
 31
0.0
  0
LINE
  5
1684D
330
16561
100
AcDbEntity
  8
YODOROGO
100
AcDbLine
 10
15582.80217064596
 20
1013.874748214644
 30
0.0
 11
15582.80217064596
 21
981.8747482146434
 31
0.0
  0
LINE
  5
1684E
330
16561
100
AcDbEntity
  8
YODOROGO
100
AcDbLine
 10
15766.80217064596
 20
797.8747482146435
 30
0.0
 11
15766.80217064594
 21
905.8747482146443
 31
0.0
  0
LINE
  5
1684F
330
16561
100
AcDbEntity
  8
YODOROGO
100
AcDbLine
 10
15730.80217064594
 20
993.8747482146439
 30
0.0
 11
15730.80217064594
 21
817.8747482146436
 31
0.0
  0
LINE
  5
16850
330
16561
100
AcDbEntity
  8
YODOROGO
100
AcDbLine
 10
15826.80217064596
 20
713.8747482146436
 30
0.0
 11
15826.80217064594
 21
905.8747482146443
 31
0.0
  0
LINE
  5
16851
330
16561
100
AcDbEntity
  8
YODOROGO
100
AcDbLine
 10
15794.80217064596
 20
905.8747482146443
 30
0.0
 11
15794.80217064596
 21
713.8747482146436
 31
0.0
  0
LINE
  5
16852
330
16561
100
AcDbEntity
  8
YODOROGO
100
AcDbLine
 10
15618.80217064596
 20
797.8747482146435
 30
0.0
 11
15618.80217064596
 21
853.874748214644
 31
0.0
  0
ARC
  5
16853
330
16561
100
AcDbEntity
  8
YODOROGO
100
AcDbCircle
 10
15676.95743255803
 20
803.8951756442788
 30
0.0
 40
90.04622428799429
100
AcDbArc
 50
268.6284910216979
 51
356.1663845733032
  0
LINE
  5
16854
330
16561
100
AcDbEntity
  8
YODOROGO
100
AcDbLine
 10
15674.80217064596
 20
763.8747482146435
 30
0.0
 11
15674.80217064596
 21
713.8747482146436
 31
0.0
  0
ARC
  5
16855
330
16561
100
AcDbEntity
  8
YODOROGO
100
AcDbCircle
 10
15675.75903786228
 20
818.9194785088275
 30
0.0
 40
55.05304649180608
100
AcDbArc
 50
269.0041020930593
 51
358.9126445549248
  0
LINE
  5
16856
330
16561
100
AcDbEntity
  8
YODOROGO
100
AcDbLine
 10
15794.80217064596
 20
713.8747482146436
 30
0.0
 11
15826.80217064596
 21
713.8747482146436
 31
0.0
  0
LINE
  5
16857
330
16561
100
AcDbEntity
  8
YODOROGO
100
AcDbLine
 10
15766.80217064594
 20
905.8747482146443
 30
0.0
 11
15794.80217064596
 21
905.8747482146443
 31
0.0
  0
LINE
  5
16858
330
16561
100
AcDbEntity
  8
YODOROGO
100
AcDbLine
 10
15810.80217064596
 20
993.8747482146439
 30
0.0
 11
15730.80217064594
 21
993.8747482146439
 31
0.0
  0
LINE
  5
16859
330
16561
100
AcDbEntity
  8
YODOROGO
100
AcDbLine
 10
15766.80217064594
 20
957.8747482146436
 30
0.0
 11
15830.80217064596
 21
957.8747482146436
 31
0.0
  0
LINE
  5
1685A
330
16561
100
AcDbEntity
  8
YODOROGO
100
AcDbLine
 10
15850.80217064596
 20
937.8747482146435
 30
0.0
 11
15766.80217064594
 21
937.8747482146435
 31
0.0
  0
LINE
  5
1685B
330
16561
100
AcDbEntity
  8
YODOROGO
100
AcDbLine
 10
15618.80217064596
 20
889.8747482146442
 30
0.0
 11
15674.80217064596
 21
889.8747482146442
 31
0.0
  0
LINE
  5
1685C
330
16561
100
AcDbEntity
  8
YODOROGO
100
AcDbLine
 10
15618.80217064596
 20
917.8747482146436
 30
0.0
 11
15618.80217064596
 21
889.8747482146442
 31
0.0
  0
LINE
  5
1685D
330
16561
100
AcDbEntity
  8
YODOROGO
100
AcDbLine
 10
15674.80217064596
 20
917.8747482146436
 30
0.0
 11
15618.80217064596
 21
917.8747482146436
 31
0.0
  0
LINE
  5
1685E
330
16561
100
AcDbEntity
  8
YODOROGO
100
AcDbLine
 10
15674.80217064596
 20
889.8747482146442
 30
0.0
 11
15674.80217064596
 21
917.8747482146436
 31
0.0
  0
LINE
  5
1685F
330
16561
100
AcDbEntity
  8
YODOROGO
100
AcDbLine
 10
15766.80217064594
 20
937.8747482146435
 30
0.0
 11
15766.80217064594
 21
957.8747482146436
 31
0.0
  0
LINE
  5
16860
330
16561
100
AcDbEntity
  8
YODOROGO
100
AcDbLine
 10
15706.80217064596
 20
853.874748214644
 30
0.0
 11
15706.80217064596
 21
953.874748214644
 31
0.0
  0
LINE
  5
16861
330
16561
100
AcDbEntity
  8
YODOROGO
100
AcDbLine
 10
15618.80217064596
 20
853.874748214644
 30
0.0
 11
15706.80217064596
 21
853.874748214644
 31
0.0
  0
LINE
  5
16862
330
16561
100
AcDbEntity
  8
YODOROGO
100
AcDbLine
 10
15706.80217064596
 20
981.8747482146434
 30
0.0
 11
15706.80217064596
 21
1013.874748214644
 31
0.0
  0
ARC
  5
16863
330
16561
100
AcDbEntity
  8
YODOROGO
100
AcDbCircle
 10
15810.80217064596
 20
1001.874748214642
 30
0.0
 40
7.99999999999727
100
AcDbArc
 50
270.0
 51
0.0000000000081422
  0
LINE
  5
16864
330
16561
100
AcDbEntity
  8
YODOROGO
100
AcDbLine
 10
15818.80217064596
 20
1013.874748214644
 30
0.0
 11
15818.80217064596
 21
1001.874748214643
 31
0.0
  0
LINE
  5
16865
330
16561
100
AcDbEntity
  8
YODOROGO
100
AcDbLine
 10
15850.80217064596
 20
1013.874748214644
 30
0.0
 11
15818.80217064596
 21
1013.874748214644
 31
0.0
  0
LINE
  5
16866
330
16561
100
AcDbEntity
  8
YODOROGO
100
AcDbLine
 10
15850.80217064596
 20
977.8747482146435
 30
0.0
 11
15850.80217064596
 21
1013.874748214644
 31
0.0
  0
ARC
  5
16867
330
16561
100
AcDbEntity
  8
YODOROGO
100
AcDbCircle
 10
15830.80217064596
 20
977.8747482146435
 30
0.0
 40
20.0
100
AcDbArc
 50
270.0
 51
0.0
  0
LINE
  5
16868
330
16561
100
AcDbEntity
  8
YODOROGO
100
AcDbLine
 10
15850.80217064596
 20
905.8747482146443
 30
0.0
 11
15850.80217064596
 21
937.8747482146435
 31
0.0
  0
LINE
  5
16869
330
16561
100
AcDbEntity
  8
YODOROGO
100
AcDbLine
 10
15826.80217064594
 20
905.8747482146443
 30
0.0
 11
15850.80217064596
 21
905.8747482146443
 31
0.0
  0
LINE
  5
1686A
330
16561
100
AcDbEntity
  8
SUNPOU
100
AcDbLine
 10
4619.127507899643
 20
5796.279066364538
 30
0.0
 11
4619.127507899643
 21
5131.279066364539
 31
0.0
  0
LINE
  5
1686B
330
16561
100
AcDbEntity
  8
SUNPOU
100
AcDbLine
 10
11819.12750789964
 20
5796.279066364538
 30
0.0
 11
11819.12750789964
 21
5131.279066364539
 31
0.0
  0
LINE
  5
1686C
330
16561
100
AcDbEntity
  8
SUNPOU
100
AcDbLine
 10
4639.127507899644
 20
5176.279066364539
 30
0.0
 11
11799.12750789964
 21
5176.279066364539
 31
0.0
  0
LINE
  5
1686D
330
16561
100
AcDbEntity
  8
SUNPOU
100
AcDbLine
 10
8981.900200012791
 20
3131.333194070899
 30
0.0
 11
9647.766108578618
 21
3131.333194070899
 31
0.0
  0
LINE
  5
1686E
330
16561
100
AcDbEntity
  8
SUNPOU
100
AcDbLine
 10
8981.900200012791
 20
1851.3331940709
 30
0.0
 11
9647.766108578618
 21
1851.3331940709
 31
0.0
  0
LINE
  5
1686F
330
16561
100
AcDbEntity
  8
SUNPOU
100
AcDbLine
 10
9602.76610857862
 20
3111.333194070899
 30
0.0
 11
9602.76610857862
 21
1871.3331940709
 31
0.0
  0
LINE
  5
16870
330
16561
100
AcDbEntity
  8
SUNPOU
100
AcDbLine
 10
6557.900200012794
 20
1811.333194070899
 30
0.0
 11
6557.900200012794
 21
1315.898498232149
 31
0.0
  0
LINE
  5
16871
330
16561
100
AcDbEntity
  8
SUNPOU
100
AcDbLine
 10
8941.900200012792
 20
1811.333194070899
 30
0.0
 11
8941.900200012792
 21
1315.898498232149
 31
0.0
  0
LINE
  5
16872
330
16561
100
AcDbEntity
  8
SUNPOU
100
AcDbLine
 10
6577.900200012796
 20
1360.89849823215
 30
0.0
 11
8921.900200012791
 21
1360.89849823215
 31
0.0
  0
LINE
  5
16873
330
16561
100
AcDbEntity
  8
SUNPOU
100
AcDbLine
 10
6144.639117456527
 20
1978.333194070899
 30
0.0
 11
6144.639117456527
 21
1993.333194070899
 31
0.0
  0
LINE
  5
16874
330
16561
100
AcDbEntity
  8
SUNPOU
100
AcDbLine
 10
6144.639117456527
 20
3004.333194070897
 30
0.0
 11
6144.639117456527
 21
2989.333194070897
 31
0.0
  0
LINE
  5
16875
330
16561
100
AcDbEntity
  8
SUNPOU
100
AcDbLine
 10
8814.900200012791
 20
3402.7112783133
 30
0.0
 11
8799.900200012791
 21
3402.7112783133
 31
0.0
  0
LINE
  5
16876
330
16561
100
AcDbEntity
  8
SUNPOU
100
AcDbLine
 10
6684.900200012794
 20
3402.7112783133
 30
0.0
 11
6699.900200012796
 21
3402.7112783133
 31
0.0
  0
LINE
  5
16877
330
16561
100
AcDbEntity
  8
SUNPOU
100
AcDbLine
 10
4512.429052763159
 20
3069.885413258396
 30
0.0
 11
5159.007034603489
 21
3069.885413258394
 31
0.0
  0
LINE
  5
16878
330
16561
100
AcDbEntity
  8
SUNPOU
100
AcDbLine
 10
3623.709052763164
 20
2269.885413258392
 30
0.0
 11
5159.007034603489
 21
2269.885413258392
 31
0.0
  0
LINE
  5
16879
330
16561
100
AcDbEntity
  8
SUNPOU
100
AcDbLine
 10
5114.007034603488
 20
3049.885413258394
 30
0.0
 11
5114.007034603488
 21
2289.885413258392
 31
0.0
  0
LINE
  5
1687A
330
16561
100
AcDbEntity
  8
SUNPOU
100
AcDbLine
 10
4608.429052763159
 20
2109.885413258396
 30
0.0
 11
5369.00703460349
 21
2109.885413258396
 31
0.0
  0
LINE
  5
1687B
330
16561
100
AcDbEntity
  8
SUNPOU
100
AcDbLine
 10
4608.429052763159
 20
1949.885413258396
 30
0.0
 11
5369.007034603489
 21
1949.885413258396
 31
0.0
  0
LINE
  5
1687C
330
16561
100
AcDbEntity
  8
SUNPOU
100
AcDbLine
 10
5324.007034603489
 20
2089.885413258396
 30
0.0
 11
5324.007034603489
 21
1969.885413258396
 31
0.0
  0
LINE
  5
1687D
330
16561
100
AcDbEntity
  8
SUNPOU
100
AcDbLine
 10
5324.007034603489
 20
1949.885413258396
 30
0.0
 11
5324.007034603489
 21
1694.17112754411
 31
0.0
  0
LINE
  5
1687E
330
16561
100
AcDbEntity
  8
SUNPOU
100
AcDbLine
 10
4512.429052763159
 20
3069.885413258396
 30
0.0
 11
5369.007034603489
 21
3069.885413258394
 31
0.0
  0
LINE
  5
1687F
330
16561
100
AcDbEntity
  8
SUNPOU
100
AcDbLine
 10
4608.429052763159
 20
2109.885413258397
 30
0.0
 11
5369.007034603489
 21
2109.885413258397
 31
0.0
  0
LINE
  5
16880
330
16561
100
AcDbEntity
  8
SUNPOU
100
AcDbLine
 10
5324.007034603489
 20
3049.885413258394
 30
0.0
 11
5324.007034603489
 21
2129.885413258397
 31
0.0
  0
LINE
  5
16881
330
16561
100
AcDbEntity
  8
SUNPOU
100
AcDbLine
 10
3048.429052763162
 20
1690.898498232148
 30
0.0
 11
3048.429052763162
 21
1695.898498232148
 31
0.0
  0
LINE
  5
16882
330
16561
100
AcDbEntity
  8
SUNPOU
100
AcDbLine
 10
3512.429052763162
 20
1690.898498232148
 30
0.0
 11
3512.429052763162
 21
1695.898498232148
 31
0.0
  0
LINE
  5
16883
330
16561
100
AcDbEntity
  8
SUNPOU
100
AcDbLine
 10
3068.429052763162
 20
1650.898498232148
 30
0.0
 11
3492.429052763162
 21
1650.898498232148
 31
0.0
  0
LINE
  5
16884
330
16561
100
AcDbEntity
  8
SUNPOU
100
AcDbLine
 10
3512.429052763162
 20
1690.898498232148
 30
0.0
 11
3512.429052763162
 21
1695.898498232148
 31
0.0
  0
LINE
  5
16885
330
16561
100
AcDbEntity
  8
SUNPOU
100
AcDbLine
 10
4472.42905276316
 20
1909.885413258396
 30
0.0
 11
4472.42905276316
 21
1605.898498232147
 31
0.0
  0
LINE
  5
16886
330
16561
100
AcDbEntity
  8
SUNPOU
100
AcDbLine
 10
3532.429052763162
 20
1650.898498232148
 30
0.0
 11
4452.429052763159
 21
1650.898498232148
 31
0.0
  0
LINE
  5
16887
330
16561
100
AcDbEntity
  8
SUNPOU
100
AcDbLine
 10
2088.429052763165
 20
1909.885413258392
 30
0.0
 11
2088.429052763165
 21
1605.898498232147
 31
0.0
  0
LINE
  5
16888
330
16561
100
AcDbEntity
  8
SUNPOU
100
AcDbLine
 10
3048.429052763162
 20
1690.898498232148
 30
0.0
 11
3048.429052763162
 21
1695.898498232148
 31
0.0
  0
LINE
  5
16889
330
16561
100
AcDbEntity
  8
SUNPOU
100
AcDbLine
 10
2108.429052763165
 20
1650.898498232148
 30
0.0
 11
3028.429052763162
 21
1650.898498232148
 31
0.0
  0
LINE
  5
1688A
330
16561
100
AcDbEntity
  8
SUNPOU
100
AcDbLine
 10
2088.429052763165
 20
1909.885413258392
 30
0.0
 11
2088.429052763165
 21
1395.898498232148
 31
0.0
  0
LINE
  5
1688B
330
16561
100
AcDbEntity
  8
SUNPOU
100
AcDbLine
 10
4472.42905276316
 20
1909.885413258396
 30
0.0
 11
4472.42905276316
 21
1395.898498232148
 31
0.0
  0
LINE
  5
1688C
330
16561
100
AcDbEntity
  8
SUNPOU
100
AcDbLine
 10
2108.429052763165
 20
1440.898498232148
 30
0.0
 11
4452.429052763159
 21
1440.898498232148
 31
0.0
  0
LINE
  5
1688D
330
16561
100
AcDbEntity
  8
SUNPOU
100
AcDbLine
 10
11419.12750789964
 20
6946.279066364538
 30
0.0
 11
11419.12750789964
 21
5341.279066364539
 31
0.0
  0
LINE
  5
1688E
330
16561
100
AcDbEntity
  8
SUNPOU
100
AcDbLine
 10
11819.12750789964
 20
5796.279066364538
 30
0.0
 11
11819.12750789964
 21
5341.279066364539
 31
0.0
  0
LINE
  5
1688F
330
16561
100
AcDbEntity
  8
SUNPOU
100
AcDbLine
 10
11439.12750789964
 20
5386.279066364539
 30
0.0
 11
11799.12750789964
 21
5386.279066364539
 31
0.0
  0
LINE
  5
16890
330
16561
100
AcDbEntity
  8
SUNPOU
100
AcDbLine
 10
9419.127507899643
 20
7129.279066364539
 30
0.0
 11
9419.127507899643
 21
5341.279066364539
 31
0.0
  0
LINE
  5
16891
330
16561
100
AcDbEntity
  8
SUNPOU
100
AcDbLine
 10
11419.12750789964
 20
6946.279066364538
 30
0.0
 11
11419.12750789964
 21
5341.279066364539
 31
0.0
  0
LINE
  5
16892
330
16561
100
AcDbEntity
  8
SUNPOU
100
AcDbLine
 10
9439.127507899645
 20
5386.279066364539
 30
0.0
 11
11399.12750789964
 21
5386.279066364539
 31
0.0
  0
LINE
  5
16893
330
16561
100
AcDbEntity
  8
SUNPOU
100
AcDbLine
 10
7019.127507899644
 20
7129.279066364539
 30
0.0
 11
7019.127507899644
 21
5341.279066364539
 31
0.0
  0
LINE
  5
16894
330
16561
100
AcDbEntity
  8
SUNPOU
100
AcDbLine
 10
9419.127507899643
 20
7129.279066364539
 30
0.0
 11
9419.127507899643
 21
5341.279066364539
 31
0.0
  0
LINE
  5
16895
330
16561
100
AcDbEntity
  8
SUNPOU
100
AcDbLine
 10
7039.127507899642
 20
5386.279066364539
 30
0.0
 11
9399.127507899644
 21
5386.279066364539
 31
0.0
  0
LINE
  5
16896
330
16561
100
AcDbEntity
  8
SUNPOU
100
AcDbLine
 10
5019.127507899644
 20
7129.279066364539
 30
0.0
 11
5019.127507899644
 21
5341.279066364539
 31
0.0
  0
LINE
  5
16897
330
16561
100
AcDbEntity
  8
SUNPOU
100
AcDbLine
 10
7019.127507899644
 20
7129.279066364539
 30
0.0
 11
7019.127507899644
 21
5341.279066364539
 31
0.0
  0
LINE
  5
16898
330
16561
100
AcDbEntity
  8
SUNPOU
100
AcDbLine
 10
5039.127507899644
 20
5386.279066364539
 30
0.0
 11
6999.127507899643
 21
5386.279066364539
 31
0.0
  0
LINE
  5
16899
330
16561
100
AcDbEntity
  8
SUNPOU
100
AcDbLine
 10
4619.127507899643
 20
5796.279066364538
 30
0.0
 11
4619.127507899643
 21
5341.279066364539
 31
0.0
  0
LINE
  5
1689A
330
16561
100
AcDbEntity
  8
SUNPOU
100
AcDbLine
 10
5019.127507899644
 20
7129.279066364539
 30
0.0
 11
5019.127507899644
 21
5341.279066364539
 31
0.0
  0
LINE
  5
1689B
330
16561
100
AcDbEntity
  8
SUNPOU
100
AcDbLine
 10
4639.127507899644
 20
5386.279066364539
 30
0.0
 11
4999.127507899644
 21
5386.279066364539
 31
0.0
  0
ARC
  5
1689C
330
16561
100
AcDbEntity
  8
SUNPOU
100
AcDbCircle
 10
12479.12750789962
 20
8726.279066364538
 30
0.0
 40
5.625
100
AcDbArc
 50
90.0
 51
270.0
  0
ARC
  5
1689D
330
16561
100
AcDbEntity
  8
SUNPOU
100
AcDbCircle
 10
12479.12750789962
 20
8726.279066364538
 30
0.0
 40
5.625
100
AcDbArc
 50
270.0
 51
90.0
  0
ARC
  5
1689E
330
16561
100
AcDbEntity
  8
SUNPOU
100
AcDbCircle
 10
12269.12750789963
 20
8726.279066364538
 30
0.0
 40
5.625
100
AcDbArc
 50
90.0
 51
270.0
  0
ARC
  5
1689F
330
16561
100
AcDbEntity
  8
SUNPOU
100
AcDbCircle
 10
12269.12750789963
 20
8726.279066364538
 30
0.0
 40
5.625
100
AcDbArc
 50
270.0
 51
90.0
  0
ARC
  5
168A0
330
16561
100
AcDbEntity
  8
SUNPOU
100
AcDbCircle
 10
12269.12750789963
 20
8126.279066364539
 30
0.0
 40
5.625
100
AcDbArc
 50
90.0
 51
270.0
  0
ARC
  5
168A1
330
16561
100
AcDbEntity
  8
SUNPOU
100
AcDbCircle
 10
12269.12750789963
 20
8126.279066364539
 30
0.0
 40
5.625
100
AcDbArc
 50
270.0
 51
90.0
  0
ARC
  5
168A2
330
16561
100
AcDbEntity
  8
SUNPOU
100
AcDbCircle
 10
12269.12750789963
 20
7836.279066364538
 30
0.0
 40
5.625
100
AcDbArc
 50
270.0
 51
90.0
  0
ARC
  5
168A3
330
16561
100
AcDbEntity
  8
SUNPOU
100
AcDbCircle
 10
12269.12750789963
 20
7836.279066364538
 30
0.0
 40
5.625
100
AcDbArc
 50
90.0
 51
270.0
  0
ARC
  5
168A4
330
16561
100
AcDbEntity
  8
SUNPOU
100
AcDbCircle
 10
12269.12750789963
 20
7836.279066364538
 30
0.0
 40
5.625
100
AcDbArc
 50
90.0
 51
270.0
  0
ARC
  5
168A5
330
16561
100
AcDbEntity
  8
SUNPOU
100
AcDbCircle
 10
12269.12750789963
 20
7836.279066364538
 30
0.0
 40
5.625
100
AcDbArc
 50
270.0
 51
90.0
  0
ARC
  5
168A6
330
16561
100
AcDbEntity
  8
SUNPOU
100
AcDbCircle
 10
12269.12750789963
 20
8126.279066364539
 30
0.0
 40
5.625
100
AcDbArc
 50
270.0
 51
90.0
  0
ARC
  5
168A7
330
16561
100
AcDbEntity
  8
SUNPOU
100
AcDbCircle
 10
12269.12750789963
 20
8126.279066364539
 30
0.0
 40
5.625
100
AcDbArc
 50
90.0
 51
270.0
  0
ARC
  5
168A8
330
16561
100
AcDbEntity
  8
SUNPOU
100
AcDbCircle
 10
12479.12750789962
 20
7236.279066364541
 30
0.0
 40
5.625
100
AcDbArc
 50
270.0
 51
90.0
  0
ARC
  5
168A9
330
16561
100
AcDbEntity
  8
SUNPOU
100
AcDbCircle
 10
12479.12750789962
 20
7236.279066364541
 30
0.0
 40
5.625
100
AcDbArc
 50
90.0
 51
270.0
  0
ARC
  5
168AA
330
16561
100
AcDbEntity
  8
SUNPOU
100
AcDbCircle
 10
12269.12750789963
 20
7236.279066364541
 30
0.0
 40
5.625
100
AcDbArc
 50
270.0
 51
90.0
  0
ARC
  5
168AB
330
16561
100
AcDbEntity
  8
SUNPOU
100
AcDbCircle
 10
12269.12750789963
 20
7236.279066364541
 30
0.0
 40
5.625
100
AcDbArc
 50
90.0
 51
270.0
  0
ARC
  5
168AC
330
16561
100
AcDbEntity
  8
SUNPOU
100
AcDbCircle
 10
11819.12750789964
 20
6986.27906636454
 30
0.0
 40
5.625
100
AcDbArc
 50
0.0
 51
180.0
  0
ARC
  5
168AD
330
16561
100
AcDbEntity
  8
SUNPOU
100
AcDbCircle
 10
11819.12750789964
 20
6986.27906636454
 30
0.0
 40
5.625
100
AcDbArc
 50
180.0
 51
0.0
  0
ARC
  5
168AE
330
16561
100
AcDbEntity
  8
SUNPOU
100
AcDbCircle
 10
11019.12750789964
 20
6986.27906636454
 30
0.0
 40
5.624999999996362
100
AcDbArc
 50
180.0
 51
0.0
  0
ARC
  5
168AF
330
16561
100
AcDbEntity
  8
SUNPOU
100
AcDbCircle
 10
11019.12750789964
 20
6986.27906636454
 30
0.0
 40
5.624999999996362
100
AcDbArc
 50
0.0
 51
180.0
  0
ARC
  5
168B0
330
16561
100
AcDbEntity
  8
SUNPOU
100
AcDbCircle
 10
4169.127507899644
 20
10126.27906636453
 30
0.0
 40
5.625
100
AcDbArc
 50
270.0
 51
90.0
  0
ARC
  5
168B1
330
16561
100
AcDbEntity
  8
SUNPOU
100
AcDbCircle
 10
4169.127507899644
 20
10126.27906636453
 30
0.0
 40
5.625
100
AcDbArc
 50
90.0
 51
270.0
  0
ARC
  5
168B2
330
16561
100
AcDbEntity
  8
SUNPOU
100
AcDbCircle
 10
4169.127507899644
 20
8126.279066364539
 30
0.0
 40
5.625
100
AcDbArc
 50
270.0
 51
90.0
  0
ARC
  5
168B3
330
16561
100
AcDbEntity
  8
SUNPOU
100
AcDbCircle
 10
4169.127507899644
 20
8126.279066364539
 30
0.0
 40
5.625
100
AcDbArc
 50
90.0
 51
270.0
  0
ARC
  5
168B4
330
16561
100
AcDbEntity
  8
SUNPOU
100
AcDbCircle
 10
4169.127507899644
 20
7836.279066364538
 30
0.0
 40
5.625
100
AcDbArc
 50
270.0
 51
90.0
  0
ARC
  5
168B5
330
16561
100
AcDbEntity
  8
SUNPOU
100
AcDbCircle
 10
4169.127507899644
 20
7836.279066364538
 30
0.0
 40
5.625
100
AcDbArc
 50
90.0
 51
270.0
  0
ARC
  5
168B6
330
16561
100
AcDbEntity
  8
SUNPOU
100
AcDbCircle
 10
4169.127507899644
 20
7836.279066364538
 30
0.0
 40
5.625
100
AcDbArc
 50
90.0
 51
270.0
  0
ARC
  5
168B7
330
16561
100
AcDbEntity
  8
SUNPOU
100
AcDbCircle
 10
4169.127507899644
 20
7836.279066364538
 30
0.0
 40
5.625
100
AcDbArc
 50
270.0
 51
90.0
  0
ARC
  5
168B8
330
16561
100
AcDbEntity
  8
SUNPOU
100
AcDbCircle
 10
4169.127507899644
 20
8126.279066364539
 30
0.0
 40
5.625
100
AcDbArc
 50
90.0
 51
270.0
  0
ARC
  5
168B9
330
16561
100
AcDbEntity
  8
SUNPOU
100
AcDbCircle
 10
4169.127507899644
 20
8126.279066364539
 30
0.0
 40
5.625
100
AcDbArc
 50
270.0
 51
90.0
  0
ARC
  5
168BA
330
16561
100
AcDbEntity
  8
SUNPOU
100
AcDbCircle
 10
4169.127507899644
 20
5836.279066364538
 30
0.0
 40
5.625
100
AcDbArc
 50
90.0
 51
270.0
  0
ARC
  5
168BB
330
16561
100
AcDbEntity
  8
SUNPOU
100
AcDbCircle
 10
4169.127507899644
 20
5836.279066364538
 30
0.0
 40
5.625
100
AcDbArc
 50
270.0
 51
90.0
  0
TEXT
  5
168BC
330
16561
100
AcDbEntity
  8
SUNPOU
100
AcDbText
 10
7743.675165042498
 20
5221.279066364539
 30
0.0
 40
90.0
  1
L = 2000 × N + 800
 41
0.6667
  7
00
100
AcDbText
  0
LINE
  5
168BD
330
16561
100
AcDbEntity
  8
SUNPOU
100
AcDbLine
 10
11804.12750789963
 20
5176.279066364539
 30
0.0
 11
11789.12750789963
 21
5176.279066364539
 31
0.0
  0
LINE
  5
168BE
330
16561
100
AcDbEntity
  8
SUNPOU
100
AcDbLine
 10
4634.127507899644
 20
5176.279066364539
 30
0.0
 11
4649.127507899645
 21
5176.279066364539
 31
0.0
  0
TEXT
  5
168BF
330
16561
100
AcDbEntity
  8
SUNPOU
100
AcDbText
 10
9557.766108578618
 20
2405.618908356616
 30
0.0
 40
90.0
  1
800
 50
90.0
 41
0.6666666666666666
  7
00
100
AcDbText
  0
LINE
  5
168C0
330
16561
100
AcDbEntity
  8
SUNPOU
100
AcDbLine
 10
9602.76610857862
 20
1866.333194070899
 30
0.0
 11
9602.76610857862
 21
1881.333194070899
 31
0.0
  0
LINE
  5
168C1
330
16561
100
AcDbEntity
  8
SUNPOU
100
AcDbLine
 10
9602.76610857862
 20
3116.333194070898
 30
0.0
 11
9602.76610857862
 21
3101.333194070899
 31
0.0
  0
TEXT
  5
168C2
330
16561
100
AcDbEntity
  8
SUNPOU
100
AcDbText
 10
7631.328771441364
 20
1405.89849823215
 30
0.0
 40
90.0
  1
1490
 41
0.6666666666666666
  7
00
100
AcDbText
  0
LINE
  5
168C3
330
16561
100
AcDbEntity
  8
SUNPOU
100
AcDbLine
 10
8926.900200012791
 20
1360.89849823215
 30
0.0
 11
8911.900200012791
 21
1360.89849823215
 31
0.0
  0
LINE
  5
168C4
330
16561
100
AcDbEntity
  8
SUNPOU
100
AcDbLine
 10
6572.900200012796
 20
1360.89849823215
 30
0.0
 11
6587.900200012794
 21
1360.89849823215
 31
0.0
  0
ARC
  5
168C5
330
16561
100
AcDbEntity
  8
SUNPOU
100
AcDbCircle
 10
6144.639117456527
 20
1963.333194070899
 30
0.0
 40
7.5
100
AcDbArc
 50
90.0
 51
270.0
  0
ARC
  5
168C6
330
16561
100
AcDbEntity
  8
SUNPOU
100
AcDbCircle
 10
6144.639117456527
 20
1963.333194070899
 30
0.0
 40
7.5
100
AcDbArc
 50
270.0
 51
90.0
  0
ARC
  5
168C7
330
16561
100
AcDbEntity
  8
SUNPOU
100
AcDbCircle
 10
6144.639117456527
 20
3019.333194070897
 30
0.0
 40
7.5
100
AcDbArc
 50
270.0
 51
90.0
  0
ARC
  5
168C8
330
16561
100
AcDbEntity
  8
SUNPOU
100
AcDbCircle
 10
6144.639117456527
 20
3019.333194070897
 30
0.0
 40
7.5
100
AcDbArc
 50
90.0
 51
270.0
  0
ARC
  5
168C9
330
16561
100
AcDbEntity
  8
SUNPOU
100
AcDbCircle
 10
8829.900200012792
 20
3402.7112783133
 30
0.0
 40
7.5
100
AcDbArc
 50
180.0
 51
0.0
  0
ARC
  5
168CA
330
16561
100
AcDbEntity
  8
SUNPOU
100
AcDbCircle
 10
8829.900200012792
 20
3402.7112783133
 30
0.0
 40
7.5
100
AcDbArc
 50
0.0
 51
180.0
  0
ARC
  5
168CB
330
16561
100
AcDbEntity
  8
SUNPOU
100
AcDbCircle
 10
6669.900200012796
 20
3402.7112783133
 30
0.0
 40
7.5
100
AcDbArc
 50
0.0
 51
180.0
  0
ARC
  5
168CC
330
16561
100
AcDbEntity
  8
SUNPOU
100
AcDbCircle
 10
6669.900200012796
 20
3402.7112783133
 30
0.0
 40
7.5
100
AcDbArc
 50
180.0
 51
0.0
  0
TEXT
  5
168CD
330
16561
100
AcDbEntity
  8
SUNPOU
100
AcDbText
 10
5069.007034603488
 20
2584.171127544109
 30
0.0
 40
90.0
  1
500
 50
90.0
 41
0.6666666666666666
  7
00
100
AcDbText
  0
LINE
  5
168CE
330
16561
100
AcDbEntity
  8
SUNPOU
100
AcDbLine
 10
5114.007034603488
 20
2284.885413258392
 30
0.0
 11
5114.007034603488
 21
2299.885413258393
 31
0.0
  0
LINE
  5
168CF
330
16561
100
AcDbEntity
  8
SUNPOU
100
AcDbLine
 10
5114.007034603488
 20
3054.885413258395
 30
0.0
 11
5114.007034603488
 21
3039.885413258395
 31
0.0
  0
TEXT
  5
168D0
330
16561
100
AcDbEntity
  8
SUNPOU
100
AcDbText
 10
5279.007034603489
 20
1722.028270401254
 30
0.0
 40
90.0
  1
100
 50
90.0
 41
0.6666666666666666
  7
00
100
AcDbText
  0
LINE
  5
168D1
330
16561
100
AcDbEntity
  8
SUNPOU
100
AcDbLine
 10
5324.007034603489
 20
1964.885413258396
 30
0.0
 11
5324.007034603489
 21
1979.885413258396
 31
0.0
  0
LINE
  5
168D2
330
16561
100
AcDbEntity
  8
SUNPOU
100
AcDbLine
 10
5324.007034603489
 20
2094.885413258396
 30
0.0
 11
5324.007034603489
 21
2079.885413258395
 31
0.0
  0
TEXT
  5
168D3
330
16561
100
AcDbEntity
  8
SUNPOU
100
AcDbText
 10
5279.007034603488
 20
2502.74255611554
 30
0.0
 40
90.0
  1
600
 50
90.0
 41
0.6666666666666666
  7
00
100
AcDbText
  0
LINE
  5
168D4
330
16561
100
AcDbEntity
  8
SUNPOU
100
AcDbLine
 10
5324.007034603489
 20
2124.885413258396
 30
0.0
 11
5324.007034603489
 21
2139.885413258397
 31
0.0
  0
LINE
  5
168D5
330
16561
100
AcDbEntity
  8
SUNPOU
100
AcDbLine
 10
5324.007034603489
 20
3054.885413258395
 30
0.0
 11
5324.007034603489
 21
3039.885413258395
 31
0.0
  0
TEXT
  5
168D6
330
16561
100
AcDbEntity
  8
SUNPOU
100
AcDbText
 10
3194.714767048877
 20
1695.898498232148
 30
0.0
 40
90.0
  1
290
 41
0.6666666666666666
  7
00
100
AcDbText
  0
LINE
  5
168D7
330
16561
100
AcDbEntity
  8
SUNPOU
100
AcDbLine
 10
3497.429052763163
 20
1650.898498232148
 30
0.0
 11
3482.429052763162
 21
1650.898498232148
 31
0.0
  0
LINE
  5
168D8
330
16561
100
AcDbEntity
  8
SUNPOU
100
AcDbLine
 10
3063.429052763162
 20
1650.898498232148
 30
0.0
 11
3078.429052763162
 21
1650.898498232148
 31
0.0
  0
TEXT
  5
168D9
330
16561
100
AcDbEntity
  8
SUNPOU
100
AcDbText
 10
3905.286195620303
 20
1695.898498232148
 30
0.0
 40
90.0
  1
600
 41
0.6666666666666666
  7
00
100
AcDbText
  0
LINE
  5
168DA
330
16561
100
AcDbEntity
  8
SUNPOU
100
AcDbLine
 10
4457.429052763159
 20
1650.898498232148
 30
0.0
 11
4442.429052763158
 21
1650.898498232148
 31
0.0
  0
LINE
  5
168DB
330
16561
100
AcDbEntity
  8
SUNPOU
100
AcDbLine
 10
3527.429052763162
 20
1650.898498232148
 30
0.0
 11
3542.429052763162
 21
1650.898498232148
 31
0.0
  0
TEXT
  5
168DC
330
16561
100
AcDbEntity
  8
SUNPOU
100
AcDbText
 10
2481.286195620306
 20
1695.898498232148
 30
0.0
 40
90.0
  1
600
 41
0.6666666666666666
  7
00
100
AcDbText
  0
LINE
  5
168DD
330
16561
100
AcDbEntity
  8
SUNPOU
100
AcDbLine
 10
3033.429052763162
 20
1650.898498232148
 30
0.0
 11
3018.429052763162
 21
1650.898498232148
 31
0.0
  0
LINE
  5
168DE
330
16561
100
AcDbEntity
  8
SUNPOU
100
AcDbLine
 10
2103.429052763164
 20
1650.898498232148
 30
0.0
 11
2118.429052763164
 21
1650.898498232148
 31
0.0
  0
TEXT
  5
168DF
330
16561
100
AcDbEntity
  8
SUNPOU
100
AcDbText
 10
3161.857624191732
 20
1485.898498232148
 30
0.0
 40
90.0
  1
1490
 41
0.6666666666666666
  7
00
100
AcDbText
  0
LINE
  5
168E0
330
16561
100
AcDbEntity
  8
SUNPOU
100
AcDbLine
 10
4457.429052763159
 20
1440.898498232148
 30
0.0
 11
4442.429052763158
 21
1440.898498232148
 31
0.0
  0
LINE
  5
168E1
330
16561
100
AcDbEntity
  8
SUNPOU
100
AcDbLine
 10
2103.429052763164
 20
1440.898498232148
 30
0.0
 11
2118.429052763164
 21
1440.898498232148
 31
0.0
  0
TEXT
  5
168E2
330
16561
100
AcDbEntity
  8
SUNPOU
100
AcDbText
 10
11533.41322218535
 20
5431.279066364539
 30
0.0
 40
90.0
  1
400
 41
0.6666666666666666
  7
00
100
AcDbText
  0
LINE
  5
168E3
330
16561
100
AcDbEntity
  8
SUNPOU
100
AcDbLine
 10
11804.12750789963
 20
5386.279066364539
 30
0.0
 11
11789.12750789963
 21
5386.279066364539
 31
0.0
  0
LINE
  5
168E4
330
16561
100
AcDbEntity
  8
SUNPOU
100
AcDbLine
 10
11434.12750789962
 20
5386.279066364539
 30
0.0
 11
11449.12750789963
 21
5386.279066364539
 31
0.0
  0
TEXT
  5
168E5
330
16561
100
AcDbEntity
  8
SUNPOU
100
AcDbText
 10
10304.84179361391
 20
5431.279066364539
 30
0.0
 40
90.0
  1
2000
 41
0.6666666666666666
  7
00
100
AcDbText
  0
LINE
  5
168E6
330
16561
100
AcDbEntity
  8
SUNPOU
100
AcDbLine
 10
11404.12750789963
 20
5386.279066364539
 30
0.0
 11
11389.12750789963
 21
5386.279066364539
 31
0.0
  0
LINE
  5
168E7
330
16561
100
AcDbEntity
  8
SUNPOU
100
AcDbLine
 10
9434.127507899644
 20
5386.279066364539
 30
0.0
 11
9449.127507899644
 21
5386.279066364539
 31
0.0
  0
TEXT
  5
168E8
330
16561
100
AcDbEntity
  8
SUNPOU
100
AcDbText
 10
7829.413222185358
 20
5431.279066364539
 30
0.0
 40
90.0
  1
2000 ×（ N - 2 ）
 41
0.6666666666666666
  7
00
100
AcDbText
  0
LINE
  5
168E9
330
16561
100
AcDbEntity
  8
SUNPOU
100
AcDbLine
 10
9404.127507899644
 20
5386.279066364539
 30
0.0
 11
9389.127507899644
 21
5386.279066364539
 31
0.0
  0
LINE
  5
168EA
330
16561
100
AcDbEntity
  8
SUNPOU
100
AcDbLine
 10
7034.127507899643
 20
5386.279066364539
 30
0.0
 11
7049.127507899644
 21
5386.279066364539
 31
0.0
  0
TEXT
  5
168EB
330
16561
100
AcDbEntity
  8
SUNPOU
100
AcDbText
 10
5904.841793613929
 20
5431.279066364539
 30
0.0
 40
90.0
  1
2000
 41
0.6666666666666666
  7
00
100
AcDbText
  0
LINE
  5
168EC
330
16561
100
AcDbEntity
  8
SUNPOU
100
AcDbLine
 10
7004.127507899643
 20
5386.279066364539
 30
0.0
 11
6989.127507899643
 21
5386.279066364539
 31
0.0
  0
LINE
  5
168ED
330
16561
100
AcDbEntity
  8
SUNPOU
100
AcDbLine
 10
5034.127507899643
 20
5386.279066364539
 30
0.0
 11
5049.127507899644
 21
5386.279066364539
 31
0.0
  0
TEXT
  5
168EE
330
16561
100
AcDbEntity
  8
SUNPOU
100
AcDbText
 10
4733.413222185357
 20
5431.279066364539
 30
0.0
 40
90.0
  1
400
 41
0.6666666666666666
  7
00
100
AcDbText
  0
LINE
  5
168EF
330
16561
100
AcDbEntity
  8
SUNPOU
100
AcDbLine
 10
5004.127507899644
 20
5386.279066364539
 30
0.0
 11
4989.127507899644
 21
5386.279066364539
 31
0.0
  0
LINE
  5
168F0
330
16561
100
AcDbEntity
  8
SUNPOU
100
AcDbLine
 10
4634.127507899644
 20
5386.279066364539
 30
0.0
 11
4649.127507899645
 21
5386.279066364539
 31
0.0
  0
ARC
  5
168F1
330
16561
100
AcDbEntity
  8
SUNPOU
100
AcDbCircle
 10
11819.12750789964
 20
5176.279066364539
 30
0.0
 40
7.5
100
AcDbArc
 50
180.0
 51
0.0
  0
ARC
  5
168F2
330
16561
100
AcDbEntity
  8
SUNPOU
100
AcDbCircle
 10
11819.12750789964
 20
5176.279066364539
 30
0.0
 40
7.5
100
AcDbArc
 50
0.0
 51
180.0
  0
ARC
  5
168F3
330
16561
100
AcDbEntity
  8
SUNPOU
100
AcDbCircle
 10
4619.127507899643
 20
5176.279066364539
 30
0.0
 40
7.5
100
AcDbArc
 50
0.0
 51
180.0
  0
ARC
  5
168F4
330
16561
100
AcDbEntity
  8
SUNPOU
100
AcDbCircle
 10
4619.127507899643
 20
5176.279066364539
 30
0.0
 40
7.5
100
AcDbArc
 50
180.0
 51
0.0
  0
ARC
  5
168F5
330
16561
100
AcDbEntity
  8
SUNPOU
100
AcDbCircle
 10
9602.76610857862
 20
1851.3331940709
 30
0.0
 40
7.5
100
AcDbArc
 50
90.0
 51
270.0
  0
ARC
  5
168F6
330
16561
100
AcDbEntity
  8
SUNPOU
100
AcDbCircle
 10
9602.76610857862
 20
1851.3331940709
 30
0.0
 40
7.5
100
AcDbArc
 50
270.0
 51
90.0
  0
ARC
  5
168F7
330
16561
100
AcDbEntity
  8
SUNPOU
100
AcDbCircle
 10
9602.76610857862
 20
3131.333194070899
 30
0.0
 40
7.5
100
AcDbArc
 50
270.0
 51
90.0
  0
ARC
  5
168F8
330
16561
100
AcDbEntity
  8
SUNPOU
100
AcDbCircle
 10
9602.76610857862
 20
3131.333194070899
 30
0.0
 40
7.5
100
AcDbArc
 50
90.0
 51
270.0
  0
ARC
  5
168F9
330
16561
100
AcDbEntity
  8
SUNPOU
100
AcDbCircle
 10
8941.900200012792
 20
1360.89849823215
 30
0.0
 40
7.5
100
AcDbArc
 50
180.0
 51
0.0
  0
ARC
  5
168FA
330
16561
100
AcDbEntity
  8
SUNPOU
100
AcDbCircle
 10
8941.900200012792
 20
1360.89849823215
 30
0.0
 40
7.5
100
AcDbArc
 50
0.0
 51
180.0
  0
ARC
  5
168FB
330
16561
100
AcDbEntity
  8
SUNPOU
100
AcDbCircle
 10
6557.900200012794
 20
1360.89849823215
 30
0.0
 40
7.5
100
AcDbArc
 50
0.0
 51
180.0
  0
ARC
  5
168FC
330
16561
100
AcDbEntity
  8
SUNPOU
100
AcDbCircle
 10
6557.900200012794
 20
1360.89849823215
 30
0.0
 40
7.5
100
AcDbArc
 50
180.0
 51
0.0
  0
ARC
  5
168FD
330
16561
100
AcDbEntity
  8
SUNPOU
100
AcDbCircle
 10
5114.007034603488
 20
2269.885413258392
 30
0.0
 40
7.5
100
AcDbArc
 50
90.0
 51
270.0
  0
ARC
  5
168FE
330
16561
100
AcDbEntity
  8
SUNPOU
100
AcDbCircle
 10
5114.007034603488
 20
2269.885413258392
 30
0.0
 40
7.5
100
AcDbArc
 50
270.0
 51
90.0
  0
ARC
  5
168FF
330
16561
100
AcDbEntity
  8
SUNPOU
100
AcDbCircle
 10
5114.007034603488
 20
3069.885413258396
 30
0.0
 40
7.5
100
AcDbArc
 50
270.0
 51
90.0
  0
ARC
  5
16900
330
16561
100
AcDbEntity
  8
SUNPOU
100
AcDbCircle
 10
5114.007034603488
 20
3069.885413258396
 30
0.0
 40
7.5
100
AcDbArc
 50
90.0
 51
270.0
  0
ARC
  5
16901
330
16561
100
AcDbEntity
  8
SUNPOU
100
AcDbCircle
 10
5324.007034603489
 20
1949.885413258396
 30
0.0
 40
7.5
100
AcDbArc
 50
90.0
 51
270.0
  0
ARC
  5
16902
330
16561
100
AcDbEntity
  8
SUNPOU
100
AcDbCircle
 10
5324.007034603489
 20
1949.885413258396
 30
0.0
 40
7.5
100
AcDbArc
 50
270.0
 51
90.0
  0
ARC
  5
16903
330
16561
100
AcDbEntity
  8
SUNPOU
100
AcDbCircle
 10
5324.007034603489
 20
2109.885413258396
 30
0.0
 40
7.5
100
AcDbArc
 50
270.0
 51
90.0
  0
ARC
  5
16904
330
16561
100
AcDbEntity
  8
SUNPOU
100
AcDbCircle
 10
5324.007034603489
 20
2109.885413258396
 30
0.0
 40
7.5
100
AcDbArc
 50
90.0
 51
270.0
  0
ARC
  5
16905
330
16561
100
AcDbEntity
  8
SUNPOU
100
AcDbCircle
 10
5324.007034603489
 20
2109.885413258397
 30
0.0
 40
7.5
100
AcDbArc
 50
90.0
 51
270.0
  0
ARC
  5
16906
330
16561
100
AcDbEntity
  8
SUNPOU
100
AcDbCircle
 10
5324.007034603489
 20
2109.885413258397
 30
0.0
 40
7.5
100
AcDbArc
 50
270.0
 51
90.0
  0
ARC
  5
16907
330
16561
100
AcDbEntity
  8
SUNPOU
100
AcDbCircle
 10
5324.007034603489
 20
3069.885413258394
 30
0.0
 40
7.5
100
AcDbArc
 50
270.0
 51
90.0
  0
ARC
  5
16908
330
16561
100
AcDbEntity
  8
SUNPOU
100
AcDbCircle
 10
5324.007034603489
 20
3069.885413258394
 30
0.0
 40
7.5
100
AcDbArc
 50
90.0
 51
270.0
  0
ARC
  5
16909
330
16561
100
AcDbEntity
  8
SUNPOU
100
AcDbCircle
 10
3512.429052763162
 20
1650.898498232148
 30
0.0
 40
7.5
100
AcDbArc
 50
180.0
 51
0.0
  0
ARC
  5
1690A
330
16561
100
AcDbEntity
  8
SUNPOU
100
AcDbCircle
 10
3512.429052763162
 20
1650.898498232148
 30
0.0
 40
7.5
100
AcDbArc
 50
0.0
 51
180.0
  0
ARC
  5
1690B
330
16561
100
AcDbEntity
  8
SUNPOU
100
AcDbCircle
 10
3048.429052763162
 20
1650.898498232148
 30
0.0
 40
7.5
100
AcDbArc
 50
0.0
 51
180.0
  0
ARC
  5
1690C
330
16561
100
AcDbEntity
  8
SUNPOU
100
AcDbCircle
 10
3048.429052763162
 20
1650.898498232148
 30
0.0
 40
7.5
100
AcDbArc
 50
180.0
 51
0.0
  0
ARC
  5
1690D
330
16561
100
AcDbEntity
  8
SUNPOU
100
AcDbCircle
 10
4472.42905276316
 20
1650.898498232148
 30
0.0
 40
7.5
100
AcDbArc
 50
180.0
 51
0.0
  0
ARC
  5
1690E
330
16561
100
AcDbEntity
  8
SUNPOU
100
AcDbCircle
 10
4472.42905276316
 20
1650.898498232148
 30
0.0
 40
7.5
100
AcDbArc
 50
0.0
 51
180.0
  0
ARC
  5
1690F
330
16561
100
AcDbEntity
  8
SUNPOU
100
AcDbCircle
 10
3512.429052763162
 20
1650.898498232148
 30
0.0
 40
7.5
100
AcDbArc
 50
0.0
 51
180.0
  0
ARC
  5
16910
330
16561
100
AcDbEntity
  8
SUNPOU
100
AcDbCircle
 10
3512.429052763162
 20
1650.898498232148
 30
0.0
 40
7.5
100
AcDbArc
 50
180.0
 51
0.0
  0
ARC
  5
16911
330
16561
100
AcDbEntity
  8
SUNPOU
100
AcDbCircle
 10
3048.429052763162
 20
1650.898498232148
 30
0.0
 40
7.5
100
AcDbArc
 50
180.0
 51
0.0
  0
ARC
  5
16912
330
16561
100
AcDbEntity
  8
SUNPOU
100
AcDbCircle
 10
3048.429052763162
 20
1650.898498232148
 30
0.0
 40
7.5
100
AcDbArc
 50
0.0
 51
180.0
  0
ARC
  5
16913
330
16561
100
AcDbEntity
  8
SUNPOU
100
AcDbCircle
 10
2088.429052763165
 20
1650.898498232148
 30
0.0
 40
7.5
100
AcDbArc
 50
0.0
 51
180.0
  0
ARC
  5
16914
330
16561
100
AcDbEntity
  8
SUNPOU
100
AcDbCircle
 10
2088.429052763165
 20
1650.898498232148
 30
0.0
 40
7.5
100
AcDbArc
 50
180.0
 51
0.0
  0
ARC
  5
16915
330
16561
100
AcDbEntity
  8
SUNPOU
100
AcDbCircle
 10
4472.42905276316
 20
1440.898498232148
 30
0.0
 40
7.5
100
AcDbArc
 50
180.0
 51
0.0
  0
ARC
  5
16916
330
16561
100
AcDbEntity
  8
SUNPOU
100
AcDbCircle
 10
4472.42905276316
 20
1440.898498232148
 30
0.0
 40
7.5
100
AcDbArc
 50
0.0
 51
180.0
  0
ARC
  5
16917
330
16561
100
AcDbEntity
  8
SUNPOU
100
AcDbCircle
 10
2088.429052763165
 20
1440.898498232148
 30
0.0
 40
7.5
100
AcDbArc
 50
0.0
 51
180.0
  0
ARC
  5
16918
330
16561
100
AcDbEntity
  8
SUNPOU
100
AcDbCircle
 10
2088.429052763165
 20
1440.898498232148
 30
0.0
 40
7.5
100
AcDbArc
 50
180.0
 51
0.0
  0
ARC
  5
16919
330
16561
100
AcDbEntity
  8
SUNPOU
100
AcDbCircle
 10
11819.12750789964
 20
5386.279066364539
 30
0.0
 40
7.5
100
AcDbArc
 50
180.0
 51
0.0
  0
ARC
  5
1691A
330
16561
100
AcDbEntity
  8
SUNPOU
100
AcDbCircle
 10
11819.12750789964
 20
5386.279066364539
 30
0.0
 40
7.5
100
AcDbArc
 50
0.0
 51
180.0
  0
ARC
  5
1691B
330
16561
100
AcDbEntity
  8
SUNPOU
100
AcDbCircle
 10
11419.12750789964
 20
5386.279066364539
 30
0.0
 40
7.5
100
AcDbArc
 50
0.0
 51
180.0
  0
ARC
  5
1691C
330
16561
100
AcDbEntity
  8
SUNPOU
100
AcDbCircle
 10
11419.12750789964
 20
5386.279066364539
 30
0.0
 40
7.5
100
AcDbArc
 50
180.0
 51
0.0
  0
ARC
  5
1691D
330
16561
100
AcDbEntity
  8
SUNPOU
100
AcDbCircle
 10
11419.12750789964
 20
5386.279066364539
 30
0.0
 40
7.5
100
AcDbArc
 50
180.0
 51
0.0
  0
ARC
  5
1691E
330
16561
100
AcDbEntity
  8
SUNPOU
100
AcDbCircle
 10
11419.12750789964
 20
5386.279066364539
 30
0.0
 40
7.5
100
AcDbArc
 50
0.0
 51
180.0
  0
ARC
  5
1691F
330
16561
100
AcDbEntity
  8
SUNPOU
100
AcDbCircle
 10
9419.127507899643
 20
5386.279066364539
 30
0.0
 40
7.5
100
AcDbArc
 50
0.0
 51
180.0
  0
ARC
  5
16920
330
16561
100
AcDbEntity
  8
SUNPOU
100
AcDbCircle
 10
9419.127507899643
 20
5386.279066364539
 30
0.0
 40
7.5
100
AcDbArc
 50
180.0
 51
0.0
  0
ARC
  5
16921
330
16561
100
AcDbEntity
  8
SUNPOU
100
AcDbCircle
 10
9419.127507899643
 20
5386.279066364539
 30
0.0
 40
7.5
100
AcDbArc
 50
180.0
 51
0.0
  0
ARC
  5
16922
330
16561
100
AcDbEntity
  8
SUNPOU
100
AcDbCircle
 10
9419.127507899643
 20
5386.279066364539
 30
0.0
 40
7.5
100
AcDbArc
 50
0.0
 51
180.0
  0
ARC
  5
16923
330
16561
100
AcDbEntity
  8
SUNPOU
100
AcDbCircle
 10
7019.127507899644
 20
5386.279066364539
 30
0.0
 40
7.5
100
AcDbArc
 50
0.0
 51
180.0
  0
ARC
  5
16924
330
16561
100
AcDbEntity
  8
SUNPOU
100
AcDbCircle
 10
7019.127507899644
 20
5386.279066364539
 30
0.0
 40
7.5
100
AcDbArc
 50
180.0
 51
0.0
  0
ARC
  5
16925
330
16561
100
AcDbEntity
  8
SUNPOU
100
AcDbCircle
 10
7019.127507899644
 20
5386.279066364539
 30
0.0
 40
7.5
100
AcDbArc
 50
180.0
 51
0.0
  0
ARC
  5
16926
330
16561
100
AcDbEntity
  8
SUNPOU
100
AcDbCircle
 10
7019.127507899644
 20
5386.279066364539
 30
0.0
 40
7.5
100
AcDbArc
 50
0.0
 51
180.0
  0
ARC
  5
16927
330
16561
100
AcDbEntity
  8
SUNPOU
100
AcDbCircle
 10
5019.127507899644
 20
5386.279066364539
 30
0.0
 40
7.5
100
AcDbArc
 50
0.0
 51
180.0
  0
ARC
  5
16928
330
16561
100
AcDbEntity
  8
SUNPOU
100
AcDbCircle
 10
5019.127507899644
 20
5386.279066364539
 30
0.0
 40
7.5
100
AcDbArc
 50
180.0
 51
0.0
  0
ARC
  5
16929
330
16561
100
AcDbEntity
  8
SUNPOU
100
AcDbCircle
 10
5019.127507899644
 20
5386.279066364539
 30
0.0
 40
7.5
100
AcDbArc
 50
180.0
 51
0.0
  0
ARC
  5
1692A
330
16561
100
AcDbEntity
  8
SUNPOU
100
AcDbCircle
 10
5019.127507899644
 20
5386.279066364539
 30
0.0
 40
7.5
100
AcDbArc
 50
0.0
 51
180.0
  0
ARC
  5
1692B
330
16561
100
AcDbEntity
  8
SUNPOU
100
AcDbCircle
 10
4619.127507899643
 20
5386.279066364539
 30
0.0
 40
7.5
100
AcDbArc
 50
0.0
 51
180.0
  0
ARC
  5
1692C
330
16561
100
AcDbEntity
  8
SUNPOU
100
AcDbCircle
 10
4619.127507899643
 20
5386.279066364539
 30
0.0
 40
7.5
100
AcDbArc
 50
180.0
 51
0.0
  0
ARC
  5
1692D
330
16561
100
AcDbEntity
  8
HIKIDASHI
100
AcDbCircle
 10
1758.665039113485
 20
1758.887791038414
 30
0.0
 40
75.00000000001334
100
AcDbArc
 50
301.7712278330566
 51
15.14038701489555
  0
ARC
  5
1692E
330
16561
100
AcDbEntity
  8
HIKIDASHI
100
AcDbCircle
 10
1822.374097600765
 20
1776.126000535549
 30
0.0
 40
8.999999999992393
100
AcDbArc
 50
15.14038701505989
 51
164.8596129849878
  0
ARC
  5
1692F
330
16561
100
AcDbEntity
  8
HIKIDASHI
100
AcDbCircle
 10
1886.083156088023
 20
1758.887791038391
 30
0.0
 40
74.9999999999988
100
AcDbArc
 50
164.8596129850878
 51
238.2287721669167
  0
LINE
  5
16930
330
16561
100
AcDbEntity
  8
HIKIDASHI
100
AcDbLine
 10
11493.09566845837
 20
8012.88853005944
 30
0.0
 11
11447.45211837478
 21
8091.892747261859
 31
0.0
  0
LINE
  5
16931
330
16561
100
AcDbEntity
  8
HIKIDASHI
100
AcDbLine
 10
11447.45211837478
 20
8091.892747261859
 30
0.0
 11
11516.25143889788
 21
8031.96234182722
 31
0.0
  0
SOLID
  5
16932
330
16561
100
AcDbEntity
  8
HIKIDASHI
100
AcDbTrace
 10
11493.09566845837
 20
8012.88853005944
 30
0.0
 11
11516.25143889788
 21
8031.96234182722
 31
0.0
 12
11447.45211837478
 22
8091.892747261859
 32
0.0
 13
11447.45211837478
 23
8091.892747261859
 33
0.0
  0
LINE
  5
16933
330
16561
100
AcDbEntity
  8
HIKIDASHI
100
AcDbLine
 10
11516.25143889788
 20
8031.96234182722
 30
0.0
 11
11493.09566845837
 21
8012.88853005944
 31
0.0
  0
LINE
  5
16934
330
16561
100
AcDbEntity
  8
HIKIDASHI
100
AcDbLine
 10
11529.35681976774
 20
7758.343277272387
 30
0.0
 11
11459.03747429241
 21
7816.482675720592
 31
0.0
  0
LINE
  5
16935
330
16561
100
AcDbEntity
  8
HIKIDASHI
100
AcDbLine
 10
11459.03747429241
 20
7816.482675720592
 30
0.0
 11
11544.41179518471
 21
7784.292221666999
 31
0.0
  0
SOLID
  5
16936
330
16561
100
AcDbEntity
  8
HIKIDASHI
100
AcDbTrace
 10
11529.35681976774
 20
7758.343277272387
 30
0.0
 11
11544.41179518471
 21
7784.292221666999
 31
0.0
 12
11459.03747429241
 22
7816.482675720592
 32
0.0
 13
11459.03747429241
 23
7816.482675720592
 33
0.0
  0
LINE
  5
16937
330
16561
100
AcDbEntity
  8
HIKIDASHI
100
AcDbLine
 10
11544.41179518471
 20
7784.292221666999
 30
0.0
 11
11529.35681976774
 21
7758.343277272387
 31
0.0
  0
LINE
  5
16938
330
16561
100
AcDbEntity
  8
HIKIDASHI
100
AcDbLine
 10
2797.219836546355
 20
2369.315290007377
 30
0.0
 11
1853.456509507224
 21
1650.898498232148
 31
0.0
1001
ACAD
1000
DSTYLE
1002
{
1070
   147
1040
1.125
1070
    77
1070
     0
1002
}
  0
LINE
  5
16939
330
16561
100
AcDbEntity
  8
HIKIDASHI
100
AcDbLine
 10
2807.31485708819
 20
2356.053753971241
 30
0.0
 11
2876.789052763162
 21
2429.885413258392
 31
0.0
  0
LINE
  5
1693A
330
16561
100
AcDbEntity
  8
HIKIDASHI
100
AcDbLine
 10
2876.789052763162
 20
2429.885413258392
 30
0.0
 11
2787.124816004519
 21
2382.576826043512
 31
0.0
  0
SOLID
  5
1693B
330
16561
100
AcDbEntity
  8
HIKIDASHI
100
AcDbTrace
 10
2807.31485708819
 20
2356.053753971241
 30
0.0
 11
2787.124816004519
 21
2382.576826043512
 31
0.0
 12
2876.789052763162
 22
2429.885413258392
 32
0.0
 13
2876.789052763162
 23
2429.885413258392
 33
0.0
  0
LINE
  5
1693C
330
16561
100
AcDbEntity
  8
HIKIDASHI
100
AcDbLine
 10
2787.124816004519
 20
2382.576826043512
 30
0.0
 11
2807.31485708819
 21
2356.053753971241
 31
0.0
  0
LINE
  5
1693D
330
16561
100
AcDbEntity
  8
HIKIDASHI
100
AcDbLine
 10
3737.516119918543
 20
2422.552827880684
 30
0.0
 11
4839.300374438813
 21
1301.127712164684
 31
0.0
1001
ACAD
1000
DSTYLE
1002
{
1070
   147
1040
1.125
1070
    77
1070
     0
1002
}
  0
LINE
  5
1693E
330
16561
100
AcDbEntity
  8
HIKIDASHI
100
AcDbLine
 10
3749.404884148162
 20
2434.233369943034
 30
0.0
 11
3667.43286754444
 21
2493.885413258391
 31
0.0
  0
LINE
  5
1693F
330
16561
100
AcDbEntity
  8
HIKIDASHI
100
AcDbLine
 10
3667.43286754444
 20
2493.885413258391
 30
0.0
 11
3725.627355688924
 21
2410.872285818332
 31
0.0
  0
SOLID
  5
16940
330
16561
100
AcDbEntity
  8
HIKIDASHI
100
AcDbTrace
 10
3749.404884148162
 20
2434.233369943034
 30
0.0
 11
3725.627355688924
 21
2410.872285818332
 31
0.0
 12
3667.43286754444
 22
2493.885413258391
 32
0.0
 13
3667.43286754444
 23
2493.885413258391
 33
0.0
  0
LINE
  5
16941
330
16561
100
AcDbEntity
  8
HIKIDASHI
100
AcDbLine
 10
3725.627355688924
 20
2410.872285818332
 30
0.0
 11
3749.404884148162
 21
2434.233369943034
 31
0.0
  0
LINE
  5
16942
330
16561
100
AcDbEntity
  8
HIKIDASHI
100
AcDbLine
 10
3901.717160073245
 20
2522.972251675042
 30
0.0
 11
4874.029897198553
 21
1511.127712164684
 31
0.0
1001
ACAD
1000
DSTYLE
1002
{
1070
   147
1040
1.125
1070
    77
1070
     0
1002
}
  0
LINE
  5
16943
330
16561
100
AcDbEntity
  8
HIKIDASHI
100
AcDbLine
 10
3913.73469146306
 20
2534.520269560057
 30
0.0
 11
3832.42905276316
 21
2595.077440013927
 31
0.0
  0
LINE
  5
16944
330
16561
100
AcDbEntity
  8
HIKIDASHI
100
AcDbLine
 10
3832.42905276316
 20
2595.077440013927
 30
0.0
 11
3889.69962868343
 21
2511.424233790027
 31
0.0
  0
SOLID
  5
16945
330
16561
100
AcDbEntity
  8
HIKIDASHI
100
AcDbTrace
 10
3913.73469146306
 20
2534.520269560057
 30
0.0
 11
3889.69962868343
 21
2511.424233790027
 31
0.0
 12
3832.42905276316
 22
2595.077440013927
 32
0.0
 13
3832.42905276316
 23
2595.077440013927
 33
0.0
  0
LINE
  5
16946
330
16561
100
AcDbEntity
  8
HIKIDASHI
100
AcDbLine
 10
3889.69962868343
 20
2511.424233790027
 30
0.0
 11
3913.73469146306
 21
2534.520269560057
 31
0.0
  0
LINE
  5
16947
330
16561
100
AcDbEntity
  8
HATCH
100
AcDbLine
 10
2115.698120660947
 20
1949.885413258394
 30
0.0
 11
2208.074163731308
 21
2109.885413258431
 31
0.0
  0
LINE
  5
16948
330
16561
100
AcDbEntity
  8
HATCH
100
AcDbLine
 10
2144.074163731295
 20
2109.88541325843
 30
0.0
 11
2176.074163731303
 21
2054.459787416218
 31
0.0
  0
LINE
  5
16949
330
16561
100
AcDbEntity
  8
HATCH
100
AcDbLine
 10
2147.698120660954
 20
2005.311039100612
 30
0.0
 11
2179.698120660962
 21
1949.885413258394
 31
0.0
  0
TEXT
  5
1694A
330
16561
100
AcDbEntity
  8
NAME
100
AcDbText
 10
10826.90738393216
 20
541.0
 30
0.0
 40
160.0
  1
YOCF-200SA
 41
0.6
  7
01
100
AcDbText
  0
TEXT
  5
1694B
330
16561
100
AcDbEntity
  8
NAME
100
AcDbText
 10
11818.91058393216
 20
541.0
 30
0.0
 40
160.0
  1
型
 41
0.8
  7
01
100
AcDbText
  0
TEXT
  5
1694C
330
16561
100
AcDbEntity
  8
NAME
100
AcDbText
 10
11972.51058393216
 20
541.0
 30
0.0
 40
160.0
  1
（
 41
0.6667
  7
01
100
AcDbText
  0
TEXT
  5
1694D
330
16561
100
AcDbEntity
  8
NAME
100
AcDbText
 10
12100.51698393217
 20
541.0
 30
0.0
 40
160.0
  1
一般地用
 41
0.8
  7
01
100
AcDbText
  0
TEXT
  5
1694E
330
16561
100
AcDbEntity
  8
NAME
100
AcDbText
 10
12714.91698393216
 20
541.0
 30
0.0
 40
160.0
  1
）
 41
0.6667
  7
01
100
AcDbText
  0
TEXT
  5
1694F
330
16561
100
AcDbEntity
  8
NAME
100
AcDbText
 10
12842.92338393217
 20
541.0
 30
0.0
 40
160.0
  1
<3／3>
 41
0.6
  7
01
100
AcDbText
  0
LINE
  5
16950
330
16561
100
AcDbEntity
  8
HATCH
100
AcDbLine
 10
4403.720743652621
 20
1949.885413258394
 30
0.0
 11
4496.096786722982
 21
2109.885413258432
 31
0.0
  0
LINE
  5
16951
330
16561
100
AcDbEntity
  8
HATCH
100
AcDbLine
 10
4432.096786722968
 20
2109.88541325843
 30
0.0
 11
4464.096786722975
 21
2054.459787416218
 31
0.0
  0
LINE
  5
16952
330
16561
100
AcDbEntity
  8
HATCH
100
AcDbLine
 10
4435.720743652628
 20
2005.311039100613
 30
0.0
 11
4467.720743652635
 21
1949.885413258394
 31
0.0
  0
LINE
  5
16953
330
16561
100
AcDbEntity
  8
KISO
100
AcDbLine
 10
6557.900200012794
 20
1851.333194070899
 30
0.0
 11
8941.900200012792
 21
1851.333194070899
 31
0.0
  0
LINE
  5
16954
330
16561
100
AcDbEntity
  8
KISO
100
AcDbLine
 10
8941.900200012792
 20
1851.333194070899
 30
0.0
 11
8941.900200012792
 21
3131.333194070897
 31
0.0
  0
LINE
  5
16955
330
16561
100
AcDbEntity
  8
KISO
100
AcDbLine
 10
8941.900200012792
 20
3131.333194070897
 30
0.0
 11
6557.900200012794
 21
3131.333194070897
 31
0.0
  0
LINE
  5
16956
330
16561
100
AcDbEntity
  8
KISO
100
AcDbLine
 10
6557.900200012794
 20
3131.333194070897
 30
0.0
 11
6557.900200012794
 21
1851.333194070899
 31
0.0
  0
LINE
  5
16957
330
16561
100
AcDbEntity
  8
HATCH
100
AcDbLine
 10
2323.700177296557
 20
1949.885413258394
 30
0.0
 11
2416.076220366917
 21
2109.885413258432
 31
0.0
  0
LINE
  5
16958
330
16561
100
AcDbEntity
  8
HATCH
100
AcDbLine
 10
2352.076220366904
 20
2109.88541325843
 30
0.0
 11
2384.076220366911
 21
2054.459787416218
 31
0.0
  0
LINE
  5
16959
330
16561
100
AcDbEntity
  8
HATCH
100
AcDbLine
 10
2355.700177296564
 20
2005.311039100613
 30
0.0
 11
2387.70017729657
 21
1949.885413258394
 31
0.0
  0
LINE
  5
1695A
330
16561
100
AcDbEntity
  8
HATCH
100
AcDbLine
 10
2531.702233932167
 20
1949.885413258394
 30
0.0
 11
2624.078277002528
 21
2109.885413258432
 31
0.0
  0
LINE
  5
1695B
330
16561
100
AcDbEntity
  8
HATCH
100
AcDbLine
 10
2560.078277002513
 20
2109.88541325843
 30
0.0
 11
2592.078277002521
 21
2054.459787416218
 31
0.0
  0
LINE
  5
1695C
330
16561
100
AcDbEntity
  8
HATCH
100
AcDbLine
 10
2563.702233932173
 20
2005.311039100613
 30
0.0
 11
2595.702233932181
 21
1949.885413258394
 31
0.0
  0
LINE
  5
1695D
330
16561
100
AcDbEntity
  8
HATCH
100
AcDbLine
 10
2739.704290567772
 20
1949.885413258394
 30
0.0
 11
2832.080333638133
 21
2109.885413258432
 31
0.0
  0
LINE
  5
1695E
330
16561
100
AcDbEntity
  8
HATCH
100
AcDbLine
 10
2768.080333638119
 20
2109.88541325843
 30
0.0
 11
2800.080333638126
 21
2054.459787416218
 31
0.0
  0
LINE
  5
1695F
330
16561
100
AcDbEntity
  8
HATCH
100
AcDbLine
 10
2771.704290567779
 20
2005.311039100613
 30
0.0
 11
2803.704290567786
 21
1949.885413258394
 31
0.0
  0
LINE
  5
16960
330
16561
100
AcDbEntity
  8
HATCH
100
AcDbLine
 10
2947.706347203377
 20
1949.885413258394
 30
0.0
 11
3040.082390273739
 21
2109.885413258432
 31
0.0
  0
LINE
  5
16961
330
16561
100
AcDbEntity
  8
HATCH
100
AcDbLine
 10
2976.082390273724
 20
2109.88541325843
 30
0.0
 11
3008.082390273731
 21
2054.459787416218
 31
0.0
  0
LINE
  5
16962
330
16561
100
AcDbEntity
  8
HATCH
100
AcDbLine
 10
2979.706347203384
 20
2005.311039100613
 30
0.0
 11
3011.706347203392
 21
1949.885413258394
 31
0.0
  0
LINE
  5
16963
330
16561
100
AcDbEntity
  8
1PL-M1
100
AcDbLine
 10
3512.429052763162
 20
1605.898498232147
 30
0.0
 11
3512.429052763162
 21
3502.742322023877
 31
0.0
  0
LINE
  5
16964
330
16561
100
AcDbEntity
  8
HATCH
100
AcDbLine
 10
3779.714573745803
 20
1949.885413258394
 30
0.0
 11
3872.090616816165
 21
2109.885413258432
 31
0.0
  0
LINE
  5
16965
330
16561
100
AcDbEntity
  8
HATCH
100
AcDbLine
 10
3808.09061681615
 20
2109.88541325843
 30
0.0
 11
3840.090616816159
 21
2054.459787416218
 31
0.0
  0
LINE
  5
16966
330
16561
100
AcDbEntity
  8
HATCH
100
AcDbLine
 10
3811.71457374581
 20
2005.311039100613
 30
0.0
 11
3843.714573745817
 21
1949.885413258394
 31
0.0
  0
LINE
  5
16967
330
16561
100
AcDbEntity
  8
HATCH
100
AcDbLine
 10
3363.710460474587
 20
1949.885413258394
 30
0.0
 11
3456.086503544948
 21
2109.885413258432
 31
0.0
  0
LINE
  5
16968
330
16561
100
AcDbEntity
  8
HATCH
100
AcDbLine
 10
3392.086503544935
 20
2109.88541325843
 30
0.0
 11
3424.086503544941
 21
2054.459787416218
 31
0.0
  0
LINE
  5
16969
330
16561
100
AcDbEntity
  8
HATCH
100
AcDbLine
 10
3395.710460474594
 20
2005.311039100613
 30
0.0
 11
3427.710460474601
 21
1949.885413258394
 31
0.0
  0
LINE
  5
1696A
330
16561
100
AcDbEntity
  8
HATCH
100
AcDbLine
 10
3155.708403838984
 20
1949.885413258394
 30
0.0
 11
3248.084446909345
 21
2109.885413258432
 31
0.0
  0
LINE
  5
1696B
330
16561
100
AcDbEntity
  8
HATCH
100
AcDbLine
 10
3184.084446909331
 20
2109.88541325843
 30
0.0
 11
3216.084446909337
 21
2054.459787416218
 31
0.0
  0
LINE
  5
1696C
330
16561
100
AcDbEntity
  8
HATCH
100
AcDbLine
 10
3187.708403838991
 20
2005.311039100613
 30
0.0
 11
3219.708403838998
 21
1949.885413258394
 31
0.0
  0
LINE
  5
1696D
330
16561
100
AcDbEntity
  8
HATCH
100
AcDbLine
 10
3571.712517110196
 20
1949.885413258394
 30
0.0
 11
3664.088560180557
 21
2109.885413258432
 31
0.0
  0
LINE
  5
1696E
330
16561
100
AcDbEntity
  8
HATCH
100
AcDbLine
 10
3600.088560180543
 20
2109.88541325843
 30
0.0
 11
3632.088560180551
 21
2054.459787416218
 31
0.0
  0
LINE
  5
1696F
330
16561
100
AcDbEntity
  8
HATCH
100
AcDbLine
 10
3603.712517110203
 20
2005.311039100613
 30
0.0
 11
3635.712517110209
 21
1949.885413258394
 31
0.0
  0
LINE
  5
16970
330
16561
100
AcDbEntity
  8
HATCH
100
AcDbLine
 10
4195.718687017012
 20
1949.885413258394
 30
0.0
 11
4288.094730087375
 21
2109.885413258432
 31
0.0
  0
LINE
  5
16971
330
16561
100
AcDbEntity
  8
HATCH
100
AcDbLine
 10
4224.094730087361
 20
2109.88541325843
 30
0.0
 11
4256.094730087368
 21
2054.459787416218
 31
0.0
  0
LINE
  5
16972
330
16561
100
AcDbEntity
  8
HATCH
100
AcDbLine
 10
4227.718687017021
 20
2005.311039100613
 30
0.0
 11
4259.718687017028
 21
1949.885413258394
 31
0.0
  0
LINE
  5
16973
330
16561
100
AcDbEntity
  8
HATCH
100
AcDbLine
 10
3987.716630381406
 20
1949.885413258394
 30
0.0
 11
4080.092673451768
 21
2109.885413258432
 31
0.0
  0
LINE
  5
16974
330
16561
100
AcDbEntity
  8
HATCH
100
AcDbLine
 10
4016.092673451754
 20
2109.88541325843
 30
0.0
 11
4048.092673451761
 21
2054.459787416218
 31
0.0
  0
LINE
  5
16975
330
16561
100
AcDbEntity
  8
HATCH
100
AcDbLine
 10
4019.716630381412
 20
2005.311039100613
 30
0.0
 11
4051.716630381421
 21
1949.885413258394
 31
0.0
  0
LINE
  5
16976
330
16561
100
AcDbEntity
  8
HATCH
100
AcDbLine
 10
1560.429052763306
 20
2829.885413258395
 30
0.0
 11
1615.854678605566
 21
2925.885413258489
 31
0.0
  0
LINE
  5
16977
330
16561
100
AcDbEntity
  8
HATCH
100
AcDbLine
 10
1577.454678605528
 20
2925.885413258488
 30
0.0
 11
1596.654678605546
 21
2892.630037753134
 31
0.0
  0
LINE
  5
16978
330
16561
100
AcDbEntity
  8
HATCH
100
AcDbLine
 10
1579.629052763326
 20
2863.140788763751
 30
0.0
 11
1598.829052763345
 21
2829.885413258395
 31
0.0
  0
LINE
  5
16979
330
16561
100
AcDbEntity
  8
HATCH
100
AcDbLine
 10
1704.429052763306
 20
2829.885413258395
 30
0.0
 11
1759.854678605566
 21
2925.885413258489
 31
0.0
  0
LINE
  5
1697A
330
16561
100
AcDbEntity
  8
HATCH
100
AcDbLine
 10
1721.454678605527
 20
2925.885413258488
 30
0.0
 11
1740.654678605547
 21
2892.630037753134
 31
0.0
  0
LINE
  5
1697B
330
16561
100
AcDbEntity
  8
HATCH
100
AcDbLine
 10
1723.629052763326
 20
2863.140788763751
 30
0.0
 11
1742.829052763345
 21
2829.885413258395
 31
0.0
  0
LINE
  5
1697C
330
16561
100
AcDbEntity
  8
HATCH
100
AcDbLine
 10
1848.429052763306
 20
2829.885413258395
 30
0.0
 11
1903.854678605566
 21
2925.885413258489
 31
0.0
  0
LINE
  5
1697D
330
16561
100
AcDbEntity
  8
HATCH
100
AcDbLine
 10
1865.454678605528
 20
2925.885413258488
 30
0.0
 11
1884.654678605547
 21
2892.630037753134
 31
0.0
  0
LINE
  5
1697E
330
16561
100
AcDbEntity
  8
HATCH
100
AcDbLine
 10
1867.629052763325
 20
2863.140788763751
 30
0.0
 11
1886.829052763344
 21
2829.885413258395
 31
0.0
  0
LINE
  5
1697F
330
16561
100
AcDbEntity
  8
HATCH
100
AcDbLine
 10
1992.429052763307
 20
2829.885413258395
 30
0.0
 11
2047.854678605566
 21
2925.885413258489
 31
0.0
  0
LINE
  5
16980
330
16561
100
AcDbEntity
  8
HATCH
100
AcDbLine
 10
2009.454678605528
 20
2925.885413258488
 30
0.0
 11
2028.654678605547
 21
2892.630037753134
 31
0.0
  0
LINE
  5
16981
330
16561
100
AcDbEntity
  8
HATCH
100
AcDbLine
 10
2011.629052763325
 20
2863.140788763751
 30
0.0
 11
2030.829052763344
 21
2829.885413258395
 31
0.0
  0
LINE
  5
16982
330
16561
100
AcDbEntity
  8
HATCH
100
AcDbLine
 10
1272.429052763302
 20
2829.885413258395
 30
0.0
 11
1327.854678605562
 21
2925.885413258489
 31
0.0
  0
LINE
  5
16983
330
16561
100
AcDbEntity
  8
HATCH
100
AcDbLine
 10
1289.454678605523
 20
2925.885413258488
 30
0.0
 11
1308.654678605543
 21
2892.630037753134
 31
0.0
  0
LINE
  5
16984
330
16561
100
AcDbEntity
  8
HATCH
100
AcDbLine
 10
1291.629052763322
 20
2863.140788763751
 30
0.0
 11
1310.829052763341
 21
2829.885413258395
 31
0.0
  0
LINE
  5
16985
330
16561
100
AcDbEntity
  8
HATCH
100
AcDbLine
 10
1416.429052763306
 20
2829.885413258395
 30
0.0
 11
1471.854678605566
 21
2925.885413258489
 31
0.0
  0
LINE
  5
16986
330
16561
100
AcDbEntity
  8
HATCH
100
AcDbLine
 10
1433.454678605528
 20
2925.885413258488
 30
0.0
 11
1452.654678605546
 21
2892.630037753134
 31
0.0
  0
LINE
  5
16987
330
16561
100
AcDbEntity
  8
HATCH
100
AcDbLine
 10
1435.629052763324
 20
2863.140788763751
 30
0.0
 11
1454.829052763344
 21
2829.885413258395
 31
0.0
  0
LINE
  5
16988
330
16561
100
AcDbEntity
  8
HATCH
100
AcDbLine
 10
4519.710439747789
 20
2829.885413258395
 30
0.0
 11
4575.136065590048
 21
2925.885413258489
 31
0.0
  0
LINE
  5
16989
330
16561
100
AcDbEntity
  8
HATCH
100
AcDbLine
 10
4536.73606559001
 20
2925.885413258488
 30
0.0
 11
4555.936065590029
 21
2892.630037753134
 31
0.0
  0
LINE
  5
1698A
330
16561
100
AcDbEntity
  8
HATCH
100
AcDbLine
 10
4538.910439747808
 20
2863.140788763751
 30
0.0
 11
4558.110439747825
 21
2829.885413258395
 31
0.0
  0
LINE
  5
1698B
330
16561
100
AcDbEntity
  8
HATCH
100
AcDbLine
 10
4663.710439747789
 20
2829.885413258395
 30
0.0
 11
4719.136065590048
 21
2925.885413258489
 31
0.0
  0
LINE
  5
1698C
330
16561
100
AcDbEntity
  8
HATCH
100
AcDbLine
 10
4680.73606559001
 20
2925.885413258488
 30
0.0
 11
4699.936065590029
 21
2892.630037753134
 31
0.0
  0
LINE
  5
1698D
330
16561
100
AcDbEntity
  8
HATCH
100
AcDbLine
 10
4682.910439747806
 20
2863.140788763751
 30
0.0
 11
4702.110439747825
 21
2829.885413258395
 31
0.0
  0
LINE
  5
1698E
330
16561
100
AcDbEntity
  8
HATCH
100
AcDbLine
 10
5095.710439747787
 20
2829.885413258395
 30
0.0
 11
5151.136065590046
 21
2925.885413258489
 31
0.0
  0
LINE
  5
1698F
330
16561
100
AcDbEntity
  8
HATCH
100
AcDbLine
 10
5112.736065590008
 20
2925.885413258488
 30
0.0
 11
5131.936065590029
 21
2892.630037753134
 31
0.0
  0
LINE
  5
16990
330
16561
100
AcDbEntity
  8
HATCH
100
AcDbLine
 10
5114.910439747806
 20
2863.140788763751
 30
0.0
 11
5134.110439747825
 21
2829.885413258395
 31
0.0
  0
LINE
  5
16991
330
16561
100
AcDbEntity
  8
HATCH
100
AcDbLine
 10
4951.710439747786
 20
2829.885413258395
 30
0.0
 11
5007.136065590046
 21
2925.885413258489
 31
0.0
  0
LINE
  5
16992
330
16561
100
AcDbEntity
  8
HATCH
100
AcDbLine
 10
4968.736065590008
 20
2925.885413258488
 30
0.0
 11
4987.936065590027
 21
2892.630037753134
 31
0.0
  0
LINE
  5
16993
330
16561
100
AcDbEntity
  8
HATCH
100
AcDbLine
 10
4970.910439747806
 20
2863.140788763751
 30
0.0
 11
4990.110439747825
 21
2829.885413258395
 31
0.0
  0
LINE
  5
16994
330
16561
100
AcDbEntity
  8
HATCH
100
AcDbLine
 10
4807.710439747789
 20
2829.885413258395
 30
0.0
 11
4863.136065590047
 21
2925.885413258489
 31
0.0
  0
LINE
  5
16995
330
16561
100
AcDbEntity
  8
HATCH
100
AcDbLine
 10
4824.73606559001
 20
2925.885413258488
 30
0.0
 11
4843.936065590029
 21
2892.630037753134
 31
0.0
  0
LINE
  5
16996
330
16561
100
AcDbEntity
  8
HATCH
100
AcDbLine
 10
4826.910439747809
 20
2863.140788763751
 30
0.0
 11
4846.110439747826
 21
2829.885413258395
 31
0.0
  0
LINE
  5
16997
330
16561
100
AcDbEntity
  8
HATCH
100
AcDbLine
 10
5239.710439747786
 20
2829.885413258395
 30
0.0
 11
5295.136065590046
 21
2925.885413258489
 31
0.0
  0
LINE
  5
16998
330
16561
100
AcDbEntity
  8
HATCH
100
AcDbLine
 10
5256.736065590008
 20
2925.885413258488
 30
0.0
 11
5275.936065590027
 21
2892.630037753134
 31
0.0
  0
LINE
  5
16999
330
16561
100
AcDbEntity
  8
HATCH
100
AcDbLine
 10
5258.910439747806
 20
2863.140788763751
 30
0.0
 11
5278.110439747825
 21
2829.885413258395
 31
0.0
  0
LINE
  5
1699A
330
16561
100
AcDbEntity
  8
DOMAKON
100
AcDbLine
 10
4619.127507899643
 20
10126.27906636453
 30
0.0
 11
8069.127507899645
 21
10126.27906636453
 31
0.0
  0
LINE
  5
1699B
330
16561
100
AcDbEntity
  8
DOMAKON
100
AcDbLine
 10
8069.127507899645
 20
5836.279066364538
 30
0.0
 11
4619.127507899643
 21
5836.279066364538
 31
0.0
  0
LINE
  5
1699C
330
16561
100
AcDbEntity
  8
DOMAKON
100
AcDbLine
 10
4619.127507899643
 20
5836.279066364538
 30
0.0
 11
4619.127507899643
 21
10126.27906636453
 31
0.0
  0
LINE
  5
1699D
330
16561
100
AcDbEntity
  8
YANE
  6
2PL-M
100
AcDbLine
 10
8069.127507899645
 20
5962.729793983196
 30
0.0
 11
4797.326854848405
 21
5962.729793983196
 31
0.0
  0
LINE
  5
1699E
330
16561
100
AcDbEntity
  8
YANE
  6
2PL-M
100
AcDbLine
 10
4797.326854848405
 20
5962.729793983196
 30
0.0
 11
4797.326854848405
 21
10000.82906636454
 31
0.0
  0
LINE
  5
1699F
330
16561
100
AcDbEntity
  8
YANE
  6
2PL-M
100
AcDbLine
 10
4797.326854848405
 20
10000.82906636454
 30
0.0
 11
8069.127507899645
 21
10000.82906636454
 31
0.0
  0
LINE
  5
169A0
330
16561
100
AcDbEntity
  8
DOMAKON
100
AcDbLine
 10
8369.127507899648
 20
10126.27906636453
 30
0.0
 11
11819.12750789964
 21
10126.27906636453
 31
0.0
  0
LINE
  5
169A1
330
16561
100
AcDbEntity
  8
DOMAKON
100
AcDbLine
 10
11819.12750789964
 20
10126.27906636453
 30
0.0
 11
11819.12750789964
 21
5836.279066364538
 31
0.0
  0
LINE
  5
169A2
330
16561
100
AcDbEntity
  8
DOMAKON
100
AcDbLine
 10
11819.12750789964
 20
5836.279066364538
 30
0.0
 11
8369.127507899648
 21
5836.279066364538
 31
0.0
  0
LINE
  5
169A3
330
16561
100
AcDbEntity
  8
YANE
  6
2PL-M
100
AcDbLine
 10
8369.127507899648
 20
10000.82906636454
 30
0.0
 11
11640.92816095086
 21
10000.82906636454
 31
0.0
  0
LINE
  5
169A4
330
16561
100
AcDbEntity
  8
YANE
  6
2PL-M
100
AcDbLine
 10
11640.92816095086
 20
10000.82906636454
 30
0.0
 11
11640.92816095086
 21
5962.729793983196
 31
0.0
  0
LINE
  5
169A5
330
16561
100
AcDbEntity
  8
YANE
  6
2PL-M
100
AcDbLine
 10
11640.92816095086
 20
5962.729793983196
 30
0.0
 11
8369.127507899648
 21
5962.729793983196
 31
0.0
  0
LINE
  5
169A6
330
16561
100
AcDbEntity
  8
KISO-1
100
AcDbLine
 10
9019.127507899641
 20
8726.279066364538
 30
0.0
 11
9819.127507899644
 21
8726.279066364538
 31
0.0
  0
LINE
  5
169A7
330
16561
100
AcDbEntity
  8
KISO-1
100
AcDbLine
 10
9819.127507899644
 20
8726.279066364538
 30
0.0
 11
9819.127507899651
 21
7236.279066364541
 31
0.0
  0
LINE
  5
169A8
330
16561
100
AcDbEntity
  8
KISO-1
100
AcDbLine
 10
9819.127507899651
 20
7236.279066364541
 30
0.0
 11
9019.127507899645
 21
7236.279066364541
 31
0.0
  0
LINE
  5
169A9
330
16561
100
AcDbEntity
  8
KISO-1
100
AcDbLine
 10
9019.127507899645
 20
7236.279066364541
 30
0.0
 11
9019.127507899641
 21
8726.279066364538
 31
0.0
  0
LINE
  5
169AA
330
16561
100
AcDbEntity
  8
KISO-1
100
AcDbLine
 10
6619.127507899642
 20
8726.279066364538
 30
0.0
 11
7419.127507899642
 21
8726.279066364538
 31
0.0
  0
LINE
  5
169AB
330
16561
100
AcDbEntity
  8
KISO-1
100
AcDbLine
 10
7419.127507899642
 20
8726.279066364538
 30
0.0
 11
7419.127507899649
 21
7236.279066364541
 31
0.0
  0
LINE
  5
169AC
330
16561
100
AcDbEntity
  8
KISO-1
100
AcDbLine
 10
7419.127507899649
 20
7236.279066364541
 30
0.0
 11
6619.127507899642
 21
7236.279066364541
 31
0.0
  0
LINE
  5
169AD
330
16561
100
AcDbEntity
  8
KISO-1
100
AcDbLine
 10
6619.127507899642
 20
7236.279066364541
 30
0.0
 11
6619.127507899642
 21
8726.279066364538
 31
0.0
  0
LINE
  5
169AE
330
16561
100
AcDbEntity
  8
KISO-1
100
AcDbLine
 10
5419.127507899641
 20
8726.279066364538
 30
0.0
 11
5419.127507899644
 21
7236.279066364541
 31
0.0
  0
LINE
  5
169AF
330
16561
100
AcDbEntity
  8
KISO-1
100
AcDbLine
 10
5419.127507899644
 20
7236.279066364541
 30
0.0
 11
4619.127507899643
 21
7236.279066364541
 31
0.0
  0
LINE
  5
169B0
330
16561
100
AcDbEntity
  8
KISO-1
100
AcDbLine
 10
4619.127507899643
 20
7236.279066364541
 30
0.0
 11
4619.12750789964
 21
8726.279066364538
 31
0.0
  0
LINE
  5
169B1
330
16561
100
AcDbEntity
  8
KISO-1
100
AcDbLine
 10
4619.12750789964
 20
8726.279066364538
 30
0.0
 11
5419.127507899641
 21
8726.279066364538
 31
0.0
  0
ENDSEC
  0
SECTION
  2
OBJECTS
  0
DICTIONARY
  5
1654F
330
0
100
AcDbDictionary
281
     1
  3
ACAD_GROUP
350
16550
  3
ACAD_LAYOUT
350
1655C
  3
ACAD_MLINESTYLE
350
16559
  3
ACAD_PLOTSETTINGS
350
1655B
  3
ACAD_PLOTSTYLENAME
350
16551
  3
AcDbVariableDictionary
350
169B2
  0
DICTIONARY
  5
16550
102
{ACAD_REACTORS
330
1654F
102
}
330
1654F
100
AcDbDictionary
281
     1
  0
DICTIONARY
  5
1655C
102
{ACAD_REACTORS
330
1654F
102
}
330
1654F
100
AcDbDictionary
281
     1
  3
Model
350
16564
  3
ﾚｲｱｳﾄ1
350
16560
  0
DICTIONARY
  5
16559
102
{ACAD_REACTORS
330
1654F
102
}
330
1654F
100
AcDbDictionary
281
     1
  3
Standard
350
1655A
  0
DICTIONARY
  5
1655B
102
{ACAD_REACTORS
330
1654F
102
}
330
1654F
100
AcDbDictionary
281
     1
  0
ACDBDICTIONARYWDFLT
  5
16551
102
{ACAD_REACTORS
330
1654F
102
}
330
1654F
100
AcDbDictionary
281
     1
  3
Normal
350
16552
100
AcDbDictionaryWithDefault
340
16552
  0
DICTIONARY
  5
169B2
102
{ACAD_REACTORS
330
1654F
102
}
330
1654F
100
AcDbDictionary
281
     1
  3
DIMASSOC
350
169B3
  0
LAYOUT
  5
16564
102
{ACAD_REACTORS
330
1655C
102
}
330
1655C
100
AcDbPlotSettings
  1

  2
Muratec V-1200 Is@Web Printer
  4

  6

 40
0.0
 41
0.0
 42
0.0
 43
0.0
 44
0.0
 45
0.0
 46
0.0
 47
0.0
 48
0.0
 49
0.0
140
0.0
141
0.0
142
1.0
143
1.0
 70
  1712
 72
     0
 73
     0
 74
     0
  7

 75
     0
147
1.0
148
0.0
149
0.0
100
AcDbLayout
  1
Model
 70
     1
 71
     0
 10
0.0
 20
0.0
 11
12.0
 21
9.0
 12
0.0
 22
0.0
 32
0.0
 14
0.0
 24
0.0
 34
0.0
 15
0.0
 25
0.0
 35
0.0
146
0.0
 13
0.0
 23
0.0
 33
0.0
 16
1.0
 26
0.0
 36
0.0
 17
0.0
 27
1.0
 37
0.0
 76
     0
330
16561
  0
LAYOUT
  5
16560
102
{ACAD_REACTORS
330
1655C
102
}
330
1655C
100
AcDbPlotSettings
  1

  2
Muratec V-1200 Is@Web Printer
  4

  6

 40
0.0
 41
0.0
 42
0.0
 43
0.0
 44
0.0
 45
0.0
 46
0.0
 47
0.0
 48
0.0
 49
0.0
140
0.0
141
0.0
142
1.0
143
1.0
 70
   688
 72
     0
 73
     0
 74
     5
  7

 75
    16
147
1.0
148
0.0
149
0.0
100
AcDbLayout
  1
ﾚｲｱｳﾄ1
 70
     0
 71
     1
 10
0.0
 20
0.0
 11
12.0
 21
9.0
 12
0.0
 22
0.0
 32
0.0
 14
1.000000000000000E+20
 24
1.000000000000000E+20
 34
1.000000000000000E+20
 15
-1.000000000000000E+20
 25
-1.000000000000000E+20
 35
-1.000000000000000E+20
146
0.0
 13
0.0
 23
0.0
 33
0.0
 16
1.0
 26
0.0
 36
0.0
 17
0.0
 27
1.0
 37
0.0
 76
     0
330
1655D
  0
MLINESTYLE
  5
1655A
102
{ACAD_REACTORS
330
16559
102
}
330
16559
100
AcDbMlineStyle
  2
STANDARD
 70
     0
  3

 62
   256
 51
90.0
 52
90.0
 71
     2
 49
0.5
 62
   256
  6
BYLAYER
 49
-0.5
 62
   256
  6
BYLAYER
  0
ACDBPLACEHOLDER
  5
16552
102
{ACAD_REACTORS
330
16551
102
}
330
16551
  0
DICTIONARYVAR
  5
169B3
102
{ACAD_REACTORS
330
169B2
102
}
330
169B2
100
DictionaryVariables
280
     0
  1
1
  0
ENDSEC
  0
EOF
