  0
SECTION
  2
HEADER
  9
$ACADVER
  1
AC1015
  9
$ACADMAINTVER
 70
    13
  9
$DWGCODEPAGE
  3
ANSI_932
  9
$INSBASE
 10
267.0
 20
194.8999999999998
 30
0.0
  9
$EXTMIN
 10
433.9966216520333
 20
163.6908237492789
 30
-0.0012200045890296
  9
$EXTMAX
 10
16382.6660542547
 20
11242.27663824599
 30
40.00122107567676
  9
$LIMMIN
 10
0.0
 20
0.0
  9
$LIMMAX
 10
16800.0
 20
11880.0
  9
$ORTHOMODE
 70
     0
  9
$REGENMODE
 70
     1
  9
$FILLMODE
 70
     1
  9
$QTEXTMODE
 70
     0
  9
$MIRRTEXT
 70
     0
  9
$LTSCALE
 40
40.0
  9
$ATTMODE
 70
     1
  9
$TEXTSIZE
 40
0.2
  9
$TRACEWID
 40
0.05
  9
$TEXTSTYLE
  7
00
  9
$CLAYER
  8
SUNPOU
  9
$CELTYPE
  6
ByLayer
  9
$CECOLOR
 62
   256
  9
$CELTSCALE
 40
1.0
  9
$DISPSILH
 70
     0
  9
$DIMSCALE
 40
40.0
  9
$DIMASZ
 40
0.5
  9
$DIMEXO
 40
1.0
  9
$DIMDLI
 40
7.0
  9
$DIMRND
 40
0.0
  9
$DIMDLE
 40
3.0
  9
$DIMEXE
 40
1.5
  9
$DIMTP
 40
0.0
  9
$DIMTM
 40
0.0
  9
$DIMTXT
 40
3.0
  9
$DIMCEN
 40
0.0
  9
$DIMTSZ
 40
0.0
  9
$DIMTOL
 70
     0
  9
$DIMLIM
 70
     0
  9
$DIMTIH
 70
     0
  9
$DIMTOH
 70
     0
  9
$DIMSE1
 70
     0
  9
$DIMSE2
 70
     0
  9
$DIMTAD
 70
     1
  9
$DIMZIN
 70
     8
  9
$DIMBLK
  1
DOT
  9
$DIMASO
 70
     1
  9
$DIMSHO
 70
     0
  9
$DIMPOST
  1

  9
$DIMAPOST
  1

  9
$DIMALT
 70
     0
  9
$DIMALTD
 70
     2
  9
$DIMALTF
 40
25.4
  9
$DIMLFAC
 40
1.0
  9
$DIMTOFL
 70
     1
  9
$DIMTVP
 40
0.0
  9
$DIMTIX
 70
     0
  9
$DIMSOXD
 70
     0
  9
$DIMSAH
 70
     1
  9
$DIMBLK1
  1
DOT
  9
$DIMBLK2
  1
DOT
  9
$DIMSTYLE
  2
SUNPOU
  9
$DIMCLRD
 70
   256
  9
$DIMCLRE
 70
   256
  9
$DIMCLRT
 70
   256
  9
$DIMTFAC
 40
1.0
  9
$DIMGAP
 40
1.5
  9
$DIMJUST
 70
     0
  9
$DIMSD1
 70
     0
  9
$DIMSD2
 70
     0
  9
$DIMTOLJ
 70
     1
  9
$DIMTZIN
 70
     0
  9
$DIMALTZ
 70
     0
  9
$DIMALTTZ
 70
     0
  9
$DIMUPT
 70
     0
  9
$DIMDEC
 70
     4
  9
$DIMTDEC
 70
     4
  9
$DIMALTU
 70
     2
  9
$DIMALTTD
 70
     2
  9
$DIMTXSTY
  7
STANDARD
  9
$DIMAUNIT
 70
     0
  9
$DIMADEC
 70
     0
  9
$DIMALTRND
 40
0.0
  9
$DIMAZIN
 70
     0
  9
$DIMDSEP
 70
    46
  9
$DIMATFIT
 70
     3
  9
$DIMFRAC
 70
     0
  9
$DIMLDRBLK
  1
DOT
  9
$DIMLUNIT
 70
     2
  9
$DIMLWD
 70
    -2
  9
$DIMLWE
 70
    -2
  9
$DIMTMOVE
 70
     0
  9
$LUNITS
 70
     2
  9
$LUPREC
 70
     2
  9
$SKETCHINC
 40
0.1
  9
$FILLETRAD
 40
0.0
  9
$AUNITS
 70
     0
  9
$AUPREC
 70
     0
  9
$MENU
  1
A:\TIGER\MENU\TIGER
  9
$ELEVATION
 40
0.0
  9
$PELEVATION
 40
0.0
  9
$THICKNESS
 40
0.0
  9
$LIMCHECK
 70
     0
  9
$CHAMFERA
 40
0.0
  9
$CHAMFERB
 40
0.0
  9
$CHAMFERC
 40
0.0
  9
$CHAMFERD
 40
0.0
  9
$SKPOLY
 70
     0
  9
$TDCREATE
 40
2450266.571064815
  9
$TDUCREATE
 40
2450266.196064815
  9
$TDUPDATE
 40
2456331.343378715
  9
$TDUUPDATE
 40
2456330.968378715
  9
$TDINDWG
 40
0.2184379398
  9
$TDUSRTIMER
 40
0.2184375694
  9
$USRTIMER
 70
     1
  9
$ANGBASE
 50
0.0
  9
$ANGDIR
 70
     0
  9
$PDMODE
 70
     0
  9
$PDSIZE
 40
0.0
  9
$PLINEWID
 40
0.0
  9
$SPLFRAME
 70
     0
  9
$SPLINETYPE
 70
     6
  9
$SPLINESEGS
 70
     8
  9
$HANDSEED
  5
1D89A
  9
$SURFTAB1
 70
     6
  9
$SURFTAB2
 70
     6
  9
$SURFTYPE
 70
     6
  9
$SURFU
 70
     6
  9
$SURFV
 70
     6
  9
$UCSBASE
  2

  9
$UCSNAME
  2

  9
$UCSORG
 10
0.0
 20
0.0
 30
0.0
  9
$UCSXDIR
 10
1.0
 20
0.0
 30
0.0
  9
$UCSYDIR
 10
0.0
 20
1.0
 30
0.0
  9
$UCSORTHOREF
  2

  9
$UCSORTHOVIEW
 70
     0
  9
$UCSORGTOP
 10
0.0
 20
0.0
 30
0.0
  9
$UCSORGBOTTOM
 10
0.0
 20
0.0
 30
0.0
  9
$UCSORGLEFT
 10
0.0
 20
0.0
 30
0.0
  9
$UCSORGRIGHT
 10
0.0
 20
0.0
 30
0.0
  9
$UCSORGFRONT
 10
0.0
 20
0.0
 30
0.0
  9
$UCSORGBACK
 10
0.0
 20
0.0
 30
0.0
  9
$PUCSBASE
  2

  9
$PUCSNAME
  2

  9
$PUCSORG
 10
0.0
 20
0.0
 30
0.0
  9
$PUCSXDIR
 10
1.0
 20
0.0
 30
0.0
  9
$PUCSYDIR
 10
0.0
 20
1.0
 30
0.0
  9
$PUCSORTHOREF
  2

  9
$PUCSORTHOVIEW
 70
     0
  9
$PUCSORGTOP
 10
0.0
 20
0.0
 30
0.0
  9
$PUCSORGBOTTOM
 10
0.0
 20
0.0
 30
0.0
  9
$PUCSORGLEFT
 10
0.0
 20
0.0
 30
0.0
  9
$PUCSORGRIGHT
 10
0.0
 20
0.0
 30
0.0
  9
$PUCSORGFRONT
 10
0.0
 20
0.0
 30
0.0
  9
$PUCSORGBACK
 10
0.0
 20
0.0
 30
0.0
  9
$USERI1
 70
     3
  9
$USERI2
 70
     0
  9
$USERI3
 70
     0
  9
$USERI4
 70
     0
  9
$USERI5
 70
  1103
  9
$USERR1
 40
0.0
  9
$USERR2
 40
1.0
  9
$USERR3
 40
0.0
  9
$USERR4
 40
0.0
  9
$USERR5
 40
0.0
  9
$WORLDVIEW
 70
     1
  9
$SHADEDGE
 70
     3
  9
$SHADEDIF
 70
    70
  9
$TILEMODE
 70
     1
  9
$MAXACTVP
 70
    16
  9
$PINSBASE
 10
0.0
 20
0.0
 30
0.0
  9
$PLIMCHECK
 70
     0
  9
$PEXTMIN
 10
1.000000000000000E+20
 20
1.000000000000000E+20
 30
1.000000000000000E+20
  9
$PEXTMAX
 10
-1.000000000000000E+20
 20
-1.000000000000000E+20
 30
-1.000000000000000E+20
  9
$PLIMMIN
 10
0.0
 20
0.0
  9
$PLIMMAX
 10
12.0
 20
9.0
  9
$UNITMODE
 70
     0
  9
$VISRETAIN
 70
     0
  9
$PLINEGEN
 70
     1
  9
$PSLTSCALE
 70
     0
  9
$TREEDEPTH
 70
  3020
  9
$CMLSTYLE
  2
Standard
  9
$CMLJUST
 70
     0
  9
$CMLSCALE
 40
1.0
  9
$PROXYGRAPHICS
 70
     1
  9
$MEASUREMENT
 70
     0
  9
$CELWEIGHT
370
    -1
  9
$ENDCAPS
280
     0
  9
$JOINSTYLE
280
     0
  9
$LWDISPLAY
290
     0
  9
$INSUNITS
 70
     0
  9
$HYPERLINKBASE
  1

  9
$STYLESHEET
  1

  9
$XEDIT
290
     1
  9
$CEPSNTYPE
380
     0
  9
$PSTYLEMODE
290
     1
  9
$FINGERPRINTGUID
  2
{34637F57-18E7-40D7-B959-961117DD0995}
  9
$VERSIONGUID
  2
{2F507C5A-F21E-493B-BF8D-AF770D202CCD}
  9
$EXTNAMES
290
     1
  9
$PSVPSCALE
 40
0.0
  9
$OLESTARTUP
290
     0
  0
ENDSEC
  0
SECTION
  2
CLASSES
  0
CLASS
  1
ACDBDICTIONARYWDFLT
  2
AcDbDictionaryWithDefault
  3
AutoCAD 2000
 90
        0
280
     0
281
     0
  0
CLASS
  1
ACDBPLACEHOLDER
  2
AcDbPlaceHolder
  3
AutoCAD 2000
 90
        0
280
     0
281
     0
  0
CLASS
  1
LAYOUT
  2
AcDbLayout
  3
AutoCAD 2000
 90
        0
280
     0
281
     0
  0
CLASS
  1
DICTIONARYVAR
  2
AcDbDictionaryVar
  3
AutoCAD 2000
 90
        0
280
     0
281
     0
  0
ENDSEC
  0
SECTION
  2
TABLES
  0
TABLE
  2
VPORT
  5
1D255
330
0
100
AcDbSymbolTable
 70
     2
  0
VPORT
  5
1D899
330
1D255
100
AcDbSymbolTableRecord
100
AcDbViewportTableRecord
  2
*Active
 70
     0
 10
0.0
 20
0.0
 11
1.0
 21
1.0
 12
8408.331337953368
 22
5702.983730997637
 13
0.0
 23
0.0
 14
1.0
 24
1.0
 15
0.0
 25
0.0
 16
0.0
 26
0.0
 36
1.0
 17
0.0
 27
0.0
 37
0.0
 40
12982.41434578206
 41
1.236040609137055
 42
50.0
 43
0.0
 44
0.0
 50
0.0
 51
0.0
 71
     0
 72
 10000
 73
     1
 74
     0
 75
     0
 76
     0
 77
     0
 78
     0
281
     0
 65
     1
110
0.0
120
0.0
130
0.0
111
1.0
121
0.0
131
0.0
112
0.0
122
1.0
132
0.0
 79
     0
146
0.0
  0
ENDTAB
  0
TABLE
  2
LTYPE
  5
1D252
330
0
100
AcDbSymbolTable
 70
     7
  0
LTYPE
  5
1D260
330
1D252
100
AcDbSymbolTableRecord
100
AcDbLinetypeTableRecord
  2
ByBlock
 70
     0
  3

 72
    65
 73
     0
 40
0.0
  0
LTYPE
  5
1D261
330
1D252
100
AcDbSymbolTableRecord
100
AcDbLinetypeTableRecord
  2
ByLayer
 70
     0
  3

 72
    65
 73
     0
 40
0.0
  0
LTYPE
  5
1D262
330
1D252
100
AcDbSymbolTableRecord
100
AcDbLinetypeTableRecord
  2
CONTINUOUS
 70
     0
  3
実線
 72
    65
 73
     0
 40
0.0
  0
LTYPE
  5
1D272
330
1D252
100
AcDbSymbolTableRecord
100
AcDbLinetypeTableRecord
  2
HIDE-M
 70
     0
  3

 72
    65
 73
     2
 40
2.0
 49
1.0
 74
     0
 49
-1.0
 74
     0
  0
LTYPE
  5
1D273
330
1D252
100
AcDbSymbolTableRecord
100
AcDbLinetypeTableRecord
  2
HIDE-S
 70
     0
  3

 72
    65
 73
     2
 40
1.0
 49
0.5
 74
     0
 49
-0.5
 74
     0
  0
LTYPE
  5
1D274
330
1D252
100
AcDbSymbolTableRecord
100
AcDbLinetypeTableRecord
  2
1PL-L
 70
     0
  3

 72
    65
 73
     4
 40
56.0
 49
50.0
 74
     0
 49
-2.0
 74
     0
 49
2.0
 74
     0
 49
-2.0
 74
     0
  0
LTYPE
  5
1D275
330
1D252
100
AcDbSymbolTableRecord
100
AcDbLinetypeTableRecord
  2
1PL-SL
 70
     0
  3

 72
    65
 73
     4
 40
6.5
 49
5.0
 74
     0
 49
-0.5
 74
     0
 49
0.5
 74
     0
 49
-0.5
 74
     0
  0
LTYPE
  5
1D276
330
1D252
100
AcDbSymbolTableRecord
100
AcDbLinetypeTableRecord
  2
1PL-S
 70
     0
  3

 72
    65
 73
     4
 40
4.0
 49
2.5
 74
     0
 49
-0.5
 74
     0
 49
0.5
 74
     0
 49
-0.5
 74
     0
  0
LTYPE
  5
1D277
330
1D252
100
AcDbSymbolTableRecord
100
AcDbLinetypeTableRecord
  2
2PL-M
 70
     0
  3

 72
    65
 73
     6
 40
17.0
 49
12.0
 74
     0
 49
-1.0
 74
     0
 49
1.0
 74
     0
 49
-1.0
 74
     0
 49
1.0
 74
     0
 49
-1.0
 74
     0
  0
ENDTAB
  0
TABLE
  2
LAYER
  5
1D24F
330
0
100
AcDbSymbolTable
 70
    19
  0
LAYER
  5
1D25D
330
1D24F
100
AcDbSymbolTableRecord
100
AcDbLayerTableRecord
  2
0
 70
     0
 62
     7
  6
CONTINUOUS
370
    -3
390
1D25C
  0
LAYER
  5
1D26F
330
1D24F
100
AcDbSymbolTableRecord
100
AcDbLayerTableRecord
  2
SUNPOU
 70
     0
 62
     4
  6
CONTINUOUS
370
    -3
390
1D25C
  0
LAYER
  5
1D278
330
1D24F
100
AcDbSymbolTableRecord
100
AcDbLayerTableRecord
  2
U1
 70
     0
 62
     3
  6
CONTINUOUS
370
    -3
390
1D25C
  0
LAYER
  5
1D279
330
1D24F
100
AcDbSymbolTableRecord
100
AcDbLayerTableRecord
  2
U3
 70
     0
 62
     6
  6
CONTINUOUS
370
    -3
390
1D25C
  0
LAYER
  5
1D27A
330
1D24F
100
AcDbSymbolTableRecord
100
AcDbLayerTableRecord
  2
HIKIDASHI
 70
     0
 62
     6
  6
CONTINUOUS
370
    -3
390
1D25C
  0
LAYER
  5
1D27B
330
1D24F
100
AcDbSymbolTableRecord
100
AcDbLayerTableRecord
  2
HIDE-M3
 70
     0
 62
     4
  6
HIDE-M
370
    -3
390
1D25C
  0
LAYER
  5
1D27C
330
1D24F
100
AcDbSymbolTableRecord
100
AcDbLayerTableRecord
  2
1PL-L1
 70
     0
 62
     6
  6
1PL-L
370
    -3
390
1D25C
  0
LAYER
  5
1D27D
330
1D24F
100
AcDbSymbolTableRecord
100
AcDbLayerTableRecord
  2
2PL-M2
 70
     0
 62
     1
  6
2PL-M
370
    -3
390
1D25C
  0
LAYER
  5
1D27E
330
1D24F
100
AcDbSymbolTableRecord
100
AcDbLayerTableRecord
  2
HASHIRA
 70
     0
 62
     2
  6
CONTINUOUS
370
    -3
390
1D25C
  0
LAYER
  5
1D27F
330
1D24F
100
AcDbSymbolTableRecord
100
AcDbLayerTableRecord
  2
HATCH
 70
     0
 62
     2
  6
CONTINUOUS
370
    -3
390
1D25C
  0
LAYER
  5
1D280
330
1D24F
100
AcDbSymbolTableRecord
100
AcDbLayerTableRecord
  2
LM1
 70
     0
 62
     1
  6
CONTINUOUS
370
    -3
390
1D25C
  0
LAYER
  5
1D281
330
1D24F
100
AcDbSymbolTableRecord
100
AcDbLayerTableRecord
  2
FILENAME
 70
     0
 62
     7
  6
CONTINUOUS
370
    -3
390
1D25C
  0
LAYER
  5
1D282
330
1D24F
100
AcDbSymbolTableRecord
100
AcDbLayerTableRecord
  2
NAME
 70
     0
 62
    20
  6
CONTINUOUS
370
    -3
390
1D25C
  0
LAYER
  5
1D283
330
1D24F
100
AcDbSymbolTableRecord
100
AcDbLayerTableRecord
  2
A-PL
 70
     0
 62
     1
  6
CONTINUOUS
370
    -3
390
1D25C
  0
LAYER
  5
1D284
330
1D24F
100
AcDbSymbolTableRecord
100
AcDbLayerTableRecord
  2
BOLT
 70
     0
 62
     4
  6
CONTINUOUS
370
    -3
390
1D25C
  0
LAYER
  5
1D285
330
1D24F
100
AcDbSymbolTableRecord
100
AcDbLayerTableRecord
  2
YODOROGO
 70
     0
 62
   130
  6
CONTINUOUS
370
    -3
390
1D25C
  0
LAYER
  5
1D286
330
1D24F
100
AcDbSymbolTableRecord
100
AcDbLayerTableRecord
  2
WAKUSEN-01
 70
     0
 62
    50
  6
CONTINUOUS
370
    -3
390
1D25C
  0
LAYER
  5
1D287
330
1D24F
100
AcDbSymbolTableRecord
100
AcDbLayerTableRecord
  2
WAKUSEN-02
 70
     0
 62
   130
  6
CONTINUOUS
370
    -3
390
1D25C
  0
LAYER
  5
1D288
330
1D24F
100
AcDbSymbolTableRecord
100
AcDbLayerTableRecord
  2
WAKUMOJI-01
 70
     0
 62
   130
  6
CONTINUOUS
370
    -3
390
1D25C
  0
ENDTAB
  0
TABLE
  2
STYLE
  5
1D250
330
0
100
AcDbSymbolTable
 70
     5
  0
STYLE
  5
1D25E
330
1D250
100
AcDbSymbolTableRecord
100
AcDbTextStyleTableRecord
  2
STANDARD
 70
     0
 40
3.0
 41
1.0
 50
0.0
 71
     0
 42
0.2
  3
ROMANS
  4
EXTFONT
  0
STYLE
  5
1D270
330
1D250
100
AcDbSymbolTableRecord
100
AcDbTextStyleTableRecord
  2
00
 70
     0
 40
0.0
 41
0.6666666666666666
 50
0.0
 71
     0
 42
0.2
  3
ROMANS
  4
BIGFONT
  0
STYLE
  5
1D289
330
1D250
100
AcDbSymbolTableRecord
100
AcDbTextStyleTableRecord
  2
01
 70
     0
 40
3.0
 41
1.0
 50
0.0
 71
     0
 42
0.2
  3
ROMANS
  4
BIGFONT
  0
STYLE
  5
1D28A
330
1D250
100
AcDbSymbolTableRecord
100
AcDbTextStyleTableRecord
  2
WAKUMOJI
 70
     0
 40
3.0
 41
1.0
 50
0.0
 71
     0
 42
3.0
  3
SIMPLEX
  4
BIGFONT
  0
STYLE
  5
1D28B
330
1D250
100
AcDbSymbolTableRecord
100
AcDbTextStyleTableRecord
  2
FILENAME
 70
     0
 40
100.0
 41
1.0
 50
0.0
 71
     0
 42
100.0
  3
romans.shx
  4
bigfont.shx
  0
ENDTAB
  0
TABLE
  2
VIEW
  5
1D253
330
0
100
AcDbSymbolTable
 70
     0
  0
ENDTAB
  0
TABLE
  2
UCS
  5
1D254
330
0
100
AcDbSymbolTable
 70
     0
  0
ENDTAB
  0
TABLE
  2
APPID
  5
1D256
330
0
100
AcDbSymbolTable
 70
     6
  0
APPID
  5
1D25F
330
1D256
100
AcDbSymbolTableRecord
100
AcDbRegAppTableRecord
  2
ACAD
 70
     0
  0
APPID
  5
1D28C
330
1D256
100
AcDbSymbolTableRecord
100
AcDbRegAppTableRecord
  2
ACADANNOTATIVE
 70
     0
  0
APPID
  5
1D28D
330
1D256
100
AcDbSymbolTableRecord
100
AcDbRegAppTableRecord
  2
AUTOCAD_POSTSCRIPT_FIGURE
 70
     0
  0
APPID
  5
1D28E
330
1D256
100
AcDbSymbolTableRecord
100
AcDbRegAppTableRecord
  2
ACAD_PSEXT
 70
     0
  0
APPID
  5
1D28F
330
1D256
100
AcDbSymbolTableRecord
100
AcDbRegAppTableRecord
  2
ACAD_EXEMPT_FROM_CAD_STANDARDS
 70
     0
  0
APPID
  5
1D290
330
1D256
100
AcDbSymbolTableRecord
100
AcDbRegAppTableRecord
  2
ACAD_MLEADERVER
 70
     0
  0
ENDTAB
  0
TABLE
  2
DIMSTYLE
  5
1D257
330
0
100
AcDbSymbolTable
 70
     1
100
AcDbDimStyleTable
 71
     0
  0
DIMSTYLE
105
1D291
330
1D257
100
AcDbSymbolTableRecord
100
AcDbDimStyleTableRecord
  2
SUNPOU
 70
     0
 40
40.0
 41
0.5
 42
1.0
 43
7.0
 44
1.5
 46
3.0
 73
     0
 74
     0
 77
     1
 78
     8
140
3.0
141
0.0
147
1.5
172
     1
173
     1
176
   256
177
   256
178
   256
271
     2
272
     2
279
     2
284
     8
285
     8
286
     8
340
1D270
  0
ENDTAB
  0
TABLE
  2
BLOCK_RECORD
  5
1D24E
330
0
100
AcDbSymbolTable
 70
     3
  0
BLOCK_RECORD
  5
1D26B
330
1D24E
100
AcDbSymbolTableRecord
100
AcDbBlockTableRecord
  2
*Model_Space
340
1D26E
  0
BLOCK_RECORD
  5
1D267
330
1D24E
100
AcDbSymbolTableRecord
100
AcDbBlockTableRecord
  2
*Paper_Space
340
1D26A
  0
BLOCK_RECORD
  5
1D296
330
1D24E
100
AcDbSymbolTableRecord
100
AcDbBlockTableRecord
  2
$MODEL_SPACE
340
0
  0
BLOCK_RECORD
  5
1D299
330
1D24E
100
AcDbSymbolTableRecord
100
AcDbBlockTableRecord
  2
$PAPER_SPACE
340
0
  0
BLOCK_RECORD
  5
1D29C
330
1D24E
100
AcDbSymbolTableRecord
100
AcDbBlockTableRecord
  2
DOT
340
0
  0
ENDTAB
  0
ENDSEC
  0
SECTION
  2
BLOCKS
  0
BLOCK
  5
1D26C
330
1D26B
100
AcDbEntity
  8
0
100
AcDbBlockBegin
  2
*Model_Space
 70
     0
 10
0.0
 20
0.0
 30
0.0
  3
*Model_Space
  1

  0
ENDBLK
  5
1D26D
330
1D26B
100
AcDbEntity
  8
0
100
AcDbBlockEnd
  0
BLOCK
  5
1D268
330
1D267
100
AcDbEntity
 67
     1
  8
0
100
AcDbBlockBegin
  2
*Paper_Space
 70
     0
 10
0.0
 20
0.0
 30
0.0
  3
*Paper_Space
  1

  0
ENDBLK
  5
1D269
330
1D267
100
AcDbEntity
 67
     1
  8
0
100
AcDbBlockEnd
  0
BLOCK
  5
1D297
330
1D296
100
AcDbEntity
  8
0
100
AcDbBlockBegin
  2
$MODEL_SPACE
 70
     0
 10
0.0
 20
0.0
 30
0.0
  3
$MODEL_SPACE
  1

  0
ENDBLK
  5
1D298
330
1D296
100
AcDbEntity
  8
0
100
AcDbBlockEnd
  0
BLOCK
  5
1D29A
330
1D299
100
AcDbEntity
  8
0
100
AcDbBlockBegin
  2
$PAPER_SPACE
 70
     0
 10
0.0
 20
0.0
 30
0.0
  3
$PAPER_SPACE
  1

  0
ENDBLK
  5
1D29B
330
1D299
100
AcDbEntity
  8
0
100
AcDbBlockEnd
  0
BLOCK
  5
1D29D
330
1D29C
100
AcDbEntity
  8
0
100
AcDbBlockBegin
  2
DOT
 70
     0
 10
0.0
 20
0.0
 30
0.0
  3
DOT
  1

  0
LWPOLYLINE
  5
1D29E
330
1D29C
100
AcDbEntity
  8
0
  6
ByBlock
 62
     0
100
AcDbPolyline
 90
        2
 70
     1
 43
0.75
 10
-0.375
 20
0.0
 42
1.0
 10
0.375
 20
0.0
 42
1.0
  0
LINE
  5
1D2A2
330
1D29C
100
AcDbEntity
  8
0
  6
ByBlock
 62
     0
100
AcDbLine
 10
-0.75
 20
0.0
 30
0.0
 11
-1.5
 21
0.0
 31
0.0
  0
ENDBLK
  5
1D2A3
330
1D29C
100
AcDbEntity
  8
0
100
AcDbBlockEnd
  0
ENDSEC
  0
SECTION
  2
ENTITIES
  0
LINE
  5
1D2A4
330
1D26B
100
AcDbEntity
  8
HASHIRA
100
AcDbLine
 10
5500.846566677939
 20
10034.74800501664
 30
0.0
 11
5585.846566677936
 21
10034.74800501664
 31
0.0
  0
LINE
  5
1D2A5
330
1D26B
100
AcDbEntity
  8
HASHIRA
100
AcDbLine
 10
5585.846566677936
 20
10034.74800501664
 30
0.0
 11
5585.846566677936
 21
10119.74800501664
 31
0.0
  0
LINE
  5
1D2A6
330
1D26B
100
AcDbEntity
  8
HASHIRA
100
AcDbLine
 10
5585.846566677936
 20
10119.74800501664
 30
0.0
 11
5500.846566677939
 21
10119.74800501664
 31
0.0
  0
LINE
  5
1D2A7
330
1D26B
100
AcDbEntity
  8
HASHIRA
100
AcDbLine
 10
5500.846566677939
 20
10119.74800501664
 30
0.0
 11
5500.846566677939
 21
10034.74800501664
 31
0.0
  0
LINE
  5
1D2A8
330
1D26B
100
AcDbEntity
  8
HASHIRA
100
AcDbLine
 10
5585.846566677936
 20
8119.748005016647
 30
0.0
 11
5500.846566677939
 21
8119.748005016647
 31
0.0
  0
LINE
  5
1D2A9
330
1D26B
100
AcDbEntity
  8
HASHIRA
100
AcDbLine
 10
5500.846566677939
 20
8034.748005016648
 30
0.0
 11
5585.846566677936
 21
8034.748005016648
 31
0.0
  0
LINE
  5
1D2AA
330
1D26B
100
AcDbEntity
  8
HASHIRA
100
AcDbLine
 10
5500.846566677939
 20
8119.748005016647
 30
0.0
 11
5500.846566677939
 21
8034.748005016648
 31
0.0
  0
LINE
  5
1D2AB
330
1D26B
100
AcDbEntity
  8
HASHIRA
100
AcDbLine
 10
5585.846566677936
 20
8034.748005016648
 30
0.0
 11
5585.846566677936
 21
8119.748005016647
 31
0.0
  0
LINE
  5
1D2AC
330
1D26B
100
AcDbEntity
  8
HASHIRA
100
AcDbLine
 10
8285.846566677937
 20
10119.74800501664
 30
0.0
 11
8200.846566677935
 21
10119.74800501664
 31
0.0
  0
LINE
  5
1D2AD
330
1D26B
100
AcDbEntity
  8
HASHIRA
100
AcDbLine
 10
8200.846566677935
 20
10034.74800501664
 30
0.0
 11
8285.846566677937
 21
10034.74800501664
 31
0.0
  0
LINE
  5
1D2AE
330
1D26B
100
AcDbEntity
  8
HASHIRA
100
AcDbLine
 10
8200.846566677935
 20
10119.74800501664
 30
0.0
 11
8200.846566677935
 21
10034.74800501664
 31
0.0
  0
LINE
  5
1D2AF
330
1D26B
100
AcDbEntity
  8
HASHIRA
100
AcDbLine
 10
8285.846566677937
 20
10034.74800501664
 30
0.0
 11
8285.846566677937
 21
10119.74800501664
 31
0.0
  0
LINE
  5
1D2B0
330
1D26B
100
AcDbEntity
  8
HASHIRA
100
AcDbLine
 10
10900.84656667793
 20
8034.748005016648
 30
0.0
 11
10985.84656667793
 21
8034.748005016648
 31
0.0
  0
LINE
  5
1D2B1
330
1D26B
100
AcDbEntity
  8
HASHIRA
100
AcDbLine
 10
10985.84656667793
 20
8119.748005016647
 30
0.0
 11
10900.84656667793
 21
8119.748005016647
 31
0.0
  0
LINE
  5
1D2B2
330
1D26B
100
AcDbEntity
  8
HASHIRA
100
AcDbLine
 10
10900.84656667793
 20
8119.748005016647
 30
0.0
 11
10900.84656667793
 21
8034.748005016648
 31
0.0
  0
LINE
  5
1D2B3
330
1D26B
100
AcDbEntity
  8
HASHIRA
100
AcDbLine
 10
10985.84656667793
 20
8034.748005016648
 30
0.0
 11
10985.84656667793
 21
8119.748005016647
 31
0.0
  0
LINE
  5
1D2B4
330
1D26B
100
AcDbEntity
  8
HASHIRA
100
AcDbLine
 10
10985.84656667793
 20
10119.74800501664
 30
0.0
 11
10900.84656667793
 21
10119.74800501664
 31
0.0
  0
LINE
  5
1D2B5
330
1D26B
100
AcDbEntity
  8
HASHIRA
100
AcDbLine
 10
10900.84656667793
 20
10034.74800501664
 30
0.0
 11
10985.84656667793
 21
10034.74800501664
 31
0.0
  0
LINE
  5
1D2B6
330
1D26B
100
AcDbEntity
  8
HASHIRA
100
AcDbLine
 10
10900.84656667793
 20
10119.74800501664
 30
0.0
 11
10900.84656667793
 21
10034.74800501664
 31
0.0
  0
LINE
  5
1D2B7
330
1D26B
100
AcDbEntity
  8
HASHIRA
100
AcDbLine
 10
10985.84656667793
 20
10034.74800501664
 30
0.0
 11
10985.84656667793
 21
10119.74800501664
 31
0.0
  0
LINE
  5
1D2B8
330
1D26B
100
AcDbEntity
  8
1PL-L1
100
AcDbLine
 10
4818.346566677938
 20
10077.24800501665
 30
0.0
 11
11668.34656667794
 21
10077.24800501665
 31
0.0
  0
LINE
  5
1D2B9
330
1D26B
100
AcDbEntity
  8
1PL-L1
100
AcDbLine
 10
5543.346566677938
 20
10627.24800501664
 30
0.0
 11
5543.346566677938
 21
7327.248005016646
 31
0.0
  0
LINE
  5
1D2BA
330
1D26B
100
AcDbEntity
  8
1PL-L1
100
AcDbLine
 10
8243.34656667794
 20
10627.24800501664
 30
0.0
 11
8243.34656667794
 21
9527.24800501665
 31
0.0
  0
LINE
  5
1D2BB
330
1D26B
100
AcDbEntity
  8
1PL-L1
100
AcDbLine
 10
10943.34656667794
 20
10627.24800501664
 30
0.0
 11
10943.34656667794
 21
7327.248005016646
 31
0.0
  0
LINE
  5
1D2BC
330
1D26B
100
AcDbEntity
  8
1PL-L1
100
AcDbLine
 10
4818.346566677938
 20
8077.248005016647
 30
0.0
 11
11668.34656667794
 21
8077.248005016647
 31
0.0
  0
LINE
  5
1D2BD
330
1D26B
100
AcDbEntity
  8
2PL-M2
100
AcDbLine
 10
5454.346566677937
 20
7677.248005016647
 30
0.0
 11
5454.346566677937
 21
10317.24800501665
 31
0.0
  0
LINE
  5
1D2BE
330
1D26B
100
AcDbEntity
  8
2PL-M2
100
AcDbLine
 10
5454.346566677937
 20
10317.24800501665
 30
0.0
 11
11032.34656667793
 21
10317.24800501665
 31
0.0
  0
LINE
  5
1D2BF
330
1D26B
100
AcDbEntity
  8
2PL-M2
100
AcDbLine
 10
11032.34656667793
 20
7677.248005016647
 30
0.0
 11
5454.346566677937
 21
7677.248005016647
 31
0.0
  0
TEXT
  5
1D2C0
330
1D26B
100
AcDbEntity
  8
SUNPOU
100
AcDbText
 10
7792.633685812586
 20
7837.267126484686
 30
0.0
 40
120.0
  1
屋根ヨドル－フ
  7
01
 72
     4
 11
8272.633685812587
 21
7897.267126484686
 31
0.0
100
AcDbText
  0
TEXT
  5
1D2C1
330
1D26B
100
AcDbEntity
  8
SUNPOU
100
AcDbText
 10
7792.633685812586
 20
7837.267126484686
 30
0.0
 40
120.0
  1
屋根ヨドル－フ
  7
01
 72
     4
 11
8272.633685812587
 21
7897.267126484686
 31
0.0
100
AcDbText
  0
TEXT
  5
1D2C2
330
1D26B
100
AcDbEntity
  8
SUNPOU
100
AcDbText
 10
8833.510883999634
 20
7837.267126484686
 30
0.0
 40
120.0
  1
88
 41
0.6666666666666666
  7
00
 72
     4
 11
8909.701360190112
 21
7897.267126484686
 31
0.0
100
AcDbText
  0
TEXT
  5
1D2C3
330
1D26B
100
AcDbEntity
  8
SUNPOU
100
AcDbText
 10
8833.510883999634
 20
7837.267126484686
 30
0.0
 40
120.0
  1
88
 41
0.6666666666666666
  7
00
 72
     4
 11
8909.701360190112
 21
7897.267126484686
 31
0.0
100
AcDbText
  0
TEXT
  5
1D2C4
330
1D26B
100
AcDbEntity
  8
SUNPOU
100
AcDbText
 10
8313.738961405865
 20
7359.67147147674
 30
0.0
 40
120.0
  1
鼻隠し外面
  7
01
 72
     4
 11
8657.738961405865
 21
7419.671471476741
 31
0.0
100
AcDbText
  0
TEXT
  5
1D2C5
330
1D26B
100
AcDbEntity
  8
HIKIDASHI
100
AcDbText
 10
6220.489423820794
 20
8525.819433588079
 30
0.0
 40
120.0
  1
A'
 41
0.6700000000000001
  7
00
 72
     4
 11
6268.346566677937
 21
8597.248005016648
 31
0.0
100
AcDbText
  0
LINE
  5
1D2C6
330
1D26B
100
AcDbEntity
  8
HIKIDASHI
100
AcDbLine
 10
6268.346566677937
 20
8357.248005016648
 30
0.0
 11
6268.346566677937
 21
8077.248005016647
 31
0.0
1001
ACAD
1000
DSTYLE
1002
{
1070
   147
1040
1.5
1070
    77
1070
     0
1002
}
  0
LINE
  5
1D2C7
330
1D26B
100
AcDbEntity
  8
HIKIDASHI
100
AcDbLine
 10
6288.346566677939
 20
8357.248005016648
 30
0.0
 11
6268.346566677937
 21
8477.248005016649
 31
0.0
  0
LINE
  5
1D2C8
330
1D26B
100
AcDbEntity
  8
HIKIDASHI
100
AcDbLine
 10
6268.346566677937
 20
8477.248005016649
 30
0.0
 11
6248.346566677938
 21
8357.248005016648
 31
0.0
  0
SOLID
  5
1D2C9
330
1D26B
100
AcDbEntity
  8
HIKIDASHI
100
AcDbTrace
 10
6288.346566677939
 20
8357.248005016648
 30
0.0
 11
6248.346566677938
 21
8357.248005016648
 31
0.0
 12
6268.346566677937
 22
8477.248005016649
 32
0.0
 13
6268.346566677937
 23
8477.248005016649
 33
0.0
  0
LINE
  5
1D2CA
330
1D26B
100
AcDbEntity
  8
HIKIDASHI
100
AcDbLine
 10
6248.346566677938
 20
8357.248005016648
 30
0.0
 11
6288.346566677939
 21
8357.248005016648
 31
0.0
  0
LINE
  5
1D2CB
330
1D26B
100
AcDbEntity
  8
HIKIDASHI
100
AcDbLine
 10
4818.346566677938
 20
8357.248005016648
 30
0.0
 11
4818.346566677938
 21
8077.248005016647
 31
0.0
1001
ACAD
1000
DSTYLE
1002
{
1070
   147
1040
1.5
1070
    77
1070
     0
1002
}
  0
TEXT
  5
1D2CC
330
1D26B
100
AcDbEntity
  8
HIKIDASHI
100
AcDbText
 10
4783.889423820795
 20
8537.248005016648
 30
0.0
 40
120.0
  1
A
 41
0.6700000000000001
  7
00
 72
     4
 11
4818.346566677938
 21
8597.248005016648
 31
0.0
100
AcDbText
  0
SOLID
  5
1D2CD
330
1D26B
100
AcDbEntity
  8
HIKIDASHI
100
AcDbTrace
 10
4838.346566677937
 20
8357.248005016648
 30
0.0
 11
4798.346566677937
 21
8357.248005016648
 31
0.0
 12
4818.346566677938
 22
8477.248005016649
 32
0.0
 13
4818.346566677938
 23
8477.248005016649
 33
0.0
  0
LINE
  5
1D2CE
330
1D26B
100
AcDbEntity
  8
HIKIDASHI
100
AcDbLine
 10
4818.346566677938
 20
8477.248005016649
 30
0.0
 11
4798.346566677937
 21
8357.248005016648
 31
0.0
  0
LINE
  5
1D2CF
330
1D26B
100
AcDbEntity
  8
HIKIDASHI
100
AcDbLine
 10
4838.346566677937
 20
8357.248005016648
 30
0.0
 11
4818.346566677938
 21
8477.248005016649
 31
0.0
  0
LINE
  5
1D2D0
330
1D26B
100
AcDbEntity
  8
HIKIDASHI
100
AcDbLine
 10
4798.346566677937
 20
8357.248005016648
 30
0.0
 11
4838.346566677937
 21
8357.248005016648
 31
0.0
  0
LINE
  5
1D2D1
330
1D26B
100
AcDbEntity
  8
SUNPOU
100
AcDbLine
 10
2318.007042992147
 20
3201.291251548639
 30
0.0
 11
1907.149057017259
 21
3201.291251548639
 31
0.0
  0
TEXT
  5
1D2D2
330
1D26B
100
AcDbEntity
  8
HIKIDASHI
100
AcDbText
 10
1627.310137220892
 20
2773.930740029555
 30
0.0
 40
120.0
  1
10
 41
0.6666666666666666
  7
00
 72
     2
 11
1768.262518173273
 21
2773.930740029555
 31
0.0
100
AcDbText
  0
LINE
  5
1D2D3
330
1D26B
100
AcDbEntity
  8
HIKIDASHI
100
AcDbLine
 10
1299.766705890549
 20
2713.930740029555
 30
0.0
 11
2353.470305496507
 21
2713.930740029555
 31
0.0
  0
TEXT
  5
1D2D4
330
1D26B
100
AcDbEntity
  8
HIKIDASHI
100
AcDbText
 10
1330.134416421954
 20
2773.930740029555
 30
0.0
 40
120.0
  1
鉄筋
  7
01
 72
     2
 11
1586.134416421954
 21
2773.930740029555
 31
0.0
100
AcDbText
  0
TEXT
  5
1D2D5
330
1D26B
100
AcDbEntity
  8
HIKIDASHI
100
AcDbText
 10
1982.814346852833
 20
2773.930740029555
 30
0.0
 40
120.0
  1
350
 41
0.6666666666666666
  7
00
 72
     2
 11
2199.957203995691
 21
2773.930740029555
 31
0.0
100
AcDbText
  0
TEXT
  5
1D2D6
330
1D26B
100
AcDbEntity
  8
HIKIDASHI
100
AcDbText
 10
1893.621354263342
 20
2793.509571745363
 30
0.0
 40
120.0
  1
x
 41
0.6666666666666666
  7
00
 72
     1
 11
1926.002306644295
 21
2853.509571745363
 31
0.0
100
AcDbText
 73
     2
  0
TEXT
  5
1D2D7
330
1D26B
100
AcDbEntity
  8
HIKIDASHI
100
AcDbText
 10
1807.476313453211
 20
2792.578404610832
 30
0.0
 40
119.9999987999998
  1
%%c 
 41
0.6700000000000001
  7
00
100
AcDbText
  0
ARC
  5
1D2D8
330
1D26B
100
AcDbEntity
  8
HIKIDASHI
100
AcDbCircle
 10
2196.568890302442
 20
2858.946460700007
 30
0.0
 40
100.0000000000144
100
AcDbArc
 50
301.7712278331194
 51
15.14038701493228
  0
ARC
  5
1D2D9
330
1D26B
100
AcDbEntity
  8
HIKIDASHI
100
AcDbCircle
 10
2366.45971293519
 20
2858.946460700012
 30
0.0
 40
99.99999999999772
100
AcDbArc
 50
164.8596129850677
 51
238.2287721668805
  0
ARC
  5
1D2DA
330
1D26B
100
AcDbEntity
  8
HIKIDASHI
100
AcDbCircle
 10
2281.514301618823
 20
2881.930740029551
 30
0.0
 40
11.99999999997096
100
AcDbArc
 50
15.14038701513348
 51
164.8596129850677
  0
LINE
  5
1D2DB
330
1D26B
100
AcDbEntity
  8
SUNPOU
100
AcDbLine
 10
1983.844446360308
 20
3339.508905992636
 30
0.0
 11
2063.644446360311
 21
3201.291251548639
 31
0.0
  0
LINE
  5
1D2DC
330
1D26B
100
AcDbEntity
  8
SUNPOU
100
AcDbLine
 10
2143.444446360299
 20
3339.508905992636
 30
0.0
 11
1983.844446360308
 21
3339.508905992636
 31
0.0
  0
LINE
  5
1D2DD
330
1D26B
100
AcDbEntity
  8
SUNPOU
100
AcDbLine
 10
2063.644446360311
 20
3201.291251548639
 30
0.0
 11
2143.444446360299
 21
3339.508905992636
 31
0.0
  0
TEXT
  5
1D2DE
330
1D26B
100
AcDbEntity
  8
SUNPOU
100
AcDbText
 10
1968.406351122215
 20
3395.259116879223
 30
0.0
 40
120.0
  1
G.L
 41
0.6666666666666666
  7
00
 72
     4
 11
2063.644446360311
 21
3455.259116879224
 31
0.0
100
AcDbText
  0
LINE
  5
1D2DF
330
1D26B
100
AcDbEntity
  8
HASHIRA
100
AcDbLine
 10
3753.007042992147
 20
2201.291251548639
 30
0.0
 11
3753.007042992147
 21
3355.538553909656
 31
0.0
  0
LINE
  5
1D2E0
330
1D26B
100
AcDbEntity
  8
HASHIRA
100
AcDbLine
 10
3583.007042992147
 20
2201.291251548639
 30
0.0
 11
3583.007042992147
 21
3357.470330796255
 31
0.0
  0
LINE
  5
1D2E1
330
1D26B
100
AcDbEntity
  8
1PL-L1
100
AcDbLine
 10
3668.007042992147
 20
2061.291251548639
 30
0.0
 11
3668.007042992147
 21
4826.34760353544
 31
0.0
  0
TEXT
  5
1D2E2
330
1D26B
100
AcDbEntity
  8
HIKIDASHI
100
AcDbText
 10
3816.558144854207
 20
991.3418289660839
 30
0.0
 40
180.0
  1
断 面
  7
01
100
AcDbText
  0
TEXT
  5
1D2E3
330
1D26B
100
AcDbEntity
  8
HIKIDASHI
100
AcDbText
 10
2999.897971347645
 20
991.3418289660839
 30
0.0
 40
180.0
  1
A  ~  A'
 41
0.6700000000000001
  7
00
100
AcDbText
  0
LINE
  5
1D2E4
330
1D26B
100
AcDbEntity
  8
HASHIRA
100
AcDbLine
 10
3753.007042992147
 20
3504.555581661191
 30
0.0
 11
3753.007042992147
 21
4766.347603535439
 31
0.0
  0
LINE
  5
1D2E5
330
1D26B
100
AcDbEntity
  8
HASHIRA
100
AcDbLine
 10
3583.007042992147
 20
3507.191860922405
 30
0.0
 11
3583.007042992147
 21
4766.347603535439
 31
0.0
  0
LINE
  5
1D2E6
330
1D26B
100
AcDbEntity
  8
HASHIRA
100
AcDbLine
 10
3583.007042992147
 20
4766.347603535436
 30
0.0
 11
3753.007042992147
 21
4766.347603535439
 31
0.0
  0
LINE
  5
1D2E7
330
1D26B
100
AcDbEntity
  8
HIKIDASHI
100
AcDbLine
 10
3023.035613466563
 20
4356.407073822178
 30
0.0
 11
3236.003257992255
 21
4356.407073822178
 31
0.0
  0
TEXT
  5
1D2E8
330
1D26B
100
AcDbEntity
  8
HIKIDASHI
100
AcDbText
 10
3084.003257992256
 20
4416.407073822178
 30
0.0
 40
120.0
  1
柱
  7
01
 72
     2
 11
3196.003257992256
 21
4416.407073822178
 31
0.0
100
AcDbText
  0
LINE
  5
1D2E9
330
1D26B
100
AcDbEntity
  8
U1
  6
HIDE-M
 62
     6
100
AcDbLine
 10
3583.007042992147
 20
2441.291251548639
 30
0.0
 11
3753.007042992147
 21
2441.291251548639
 31
0.0
  0
LINE
  5
1D2EA
330
1D26B
100
AcDbEntity
  8
U1
  6
HIDE-M
 62
     6
100
AcDbLine
 10
3583.007042992147
 20
2461.291251548639
 30
0.0
 11
3753.007042992147
 21
2461.291251548639
 31
0.0
  0
LINE
  5
1D2EB
330
1D26B
100
AcDbEntity
  8
U1
100
AcDbLine
 10
4818.007042992147
 20
2001.291251548638
 30
0.0
 11
4818.007042992147
 21
2201.291251548639
 31
0.0
  0
LINE
  5
1D2EC
330
1D26B
100
AcDbEntity
  8
U1
100
AcDbLine
 10
2518.007042992147
 20
2201.291251548639
 30
0.0
 11
2518.007042992147
 21
2001.291251548638
 31
0.0
  0
LINE
  5
1D2ED
330
1D26B
100
AcDbEntity
  8
U1
100
AcDbLine
 10
2518.007042992147
 20
2001.291251548638
 30
0.0
 11
4818.007042992147
 21
2001.291251548638
 31
0.0
  0
LINE
  5
1D2EE
330
1D26B
100
AcDbEntity
  8
U3
100
AcDbLine
 10
4704.360027381277
 20
3201.291251548639
 30
0.0
 11
3964.360027381276
 21
2461.291251548639
 31
0.0
  0
LINE
  5
1D2EF
330
1D26B
100
AcDbEntity
  8
U3
100
AcDbLine
 10
4718.007042992147
 20
3158.369724664551
 30
0.0
 11
3760.928569876197
 21
2201.291251548639
 31
0.0
  0
LINE
  5
1D2F0
330
1D26B
100
AcDbEntity
  8
U3
100
AcDbLine
 10
4026.089684551749
 20
3201.291251548639
 30
0.0
 11
3753.007042992147
 21
2928.208609989029
 31
0.0
  0
LINE
  5
1D2F1
330
1D26B
100
AcDbEntity
  8
U3
100
AcDbLine
 10
4082.658227046719
 20
3201.291251548639
 30
0.0
 11
3753.007042992147
 21
2871.640067494081
 31
0.0
  0
LINE
  5
1D2F2
330
1D26B
100
AcDbEntity
  8
U3
100
AcDbLine
 10
4139.226769541638
 20
3201.291251548639
 30
0.0
 11
3753.007042992147
 21
2815.071524999163
 31
0.0
  0
LINE
  5
1D2F3
330
1D26B
100
AcDbEntity
  8
U3
100
AcDbLine
 10
3803.850096760303
 20
3201.291251548639
 30
0.0
 11
3753.007042992147
 21
3150.448197780489
 31
0.0
  0
LINE
  5
1D2F4
330
1D26B
100
AcDbEntity
  8
U3
100
AcDbLine
 10
4368.983354599929
 20
3201.291251548639
 30
0.0
 11
3753.007042992147
 21
2585.314939940851
 31
0.0
  0
LINE
  5
1D2F5
330
1D26B
100
AcDbEntity
  8
U3
100
AcDbLine
 10
4425.55189709489
 20
3201.291251548639
 30
0.0
 11
3753.007042992147
 21
2528.746397445917
 31
0.0
  0
LINE
  5
1D2F6
330
1D26B
100
AcDbEntity
  8
U3
100
AcDbLine
 10
4482.120439589824
 20
3201.291251548639
 30
0.0
 11
3753.007042992147
 21
2472.177854950999
 31
0.0
  0
LINE
  5
1D2F7
330
1D26B
100
AcDbEntity
  8
U1
100
AcDbLine
 10
4818.007042992147
 20
2201.291251548639
 30
0.0
 11
2518.007042992147
 21
2201.291251548639
 31
0.0
  0
LINE
  5
1D2F8
330
1D26B
100
AcDbEntity
  8
U3
100
AcDbLine
 10
3583.007042992147
 20
3093.585282770371
 30
0.0
 11
2690.713011770414
 21
2201.291251548639
 31
0.0
  0
LINE
  5
1D2F9
330
1D26B
100
AcDbEntity
  8
U3
100
AcDbLine
 10
3583.007042992147
 20
3037.01674027542
 30
0.0
 11
2747.281554265326
 21
2201.291251548639
 31
0.0
  0
LINE
  5
1D2FA
330
1D26B
100
AcDbEntity
  8
U3
100
AcDbLine
 10
3583.007042992147
 20
2980.448197780496
 30
0.0
 11
2803.850096760244
 21
2201.291251548639
 31
0.0
  0
LINE
  5
1D2FB
330
1D26B
100
AcDbEntity
  8
U3
100
AcDbLine
 10
3468.473423978953
 20
3201.291251548639
 30
0.0
 11
2618.007042992147
 21
2350.824870561872
 31
0.0
  0
LINE
  5
1D2FC
330
1D26B
100
AcDbEntity
  8
U3
100
AcDbLine
 10
3133.096751197607
 20
3201.291251548639
 30
0.0
 11
2618.007042992147
 21
2686.201543343198
 31
0.0
  0
LINE
  5
1D2FD
330
1D26B
100
AcDbEntity
  8
U3
100
AcDbLine
 10
3076.528208702686
 20
3201.291251548639
 30
0.0
 11
2618.007042992147
 21
2742.770085838122
 31
0.0
  0
LINE
  5
1D2FE
330
1D26B
100
AcDbEntity
  8
U3
100
AcDbLine
 10
3019.959666207723
 20
3201.291251548639
 30
0.0
 11
2618.007042992147
 21
2799.338628333059
 31
0.0
  0
LINE
  5
1D2FF
330
1D26B
100
AcDbEntity
  8
U3
100
AcDbLine
 10
3355.336338989072
 20
3201.291251548639
 30
0.0
 11
2618.007042992147
 21
2463.961955551713
 31
0.0
  0
LINE
  5
1D300
330
1D26B
100
AcDbEntity
  8
U3
100
AcDbLine
 10
3411.904881484029
 20
3201.291251548639
 30
0.0
 11
2618.007042992147
 21
2407.393413056788
 31
0.0
  0
LINE
  5
1D301
330
1D26B
100
AcDbEntity
  8
U1
100
AcDbLine
 10
2618.007042992147
 20
2201.291251548639
 30
0.0
 11
2618.007042992147
 21
3201.291251548639
 31
0.0
  0
LINE
  5
1D302
330
1D26B
100
AcDbEntity
  8
U3
100
AcDbLine
 10
3583.007042992147
 20
2645.071524999169
 30
0.0
 11
3399.226769541609
 21
2461.291251548639
 31
0.0
  0
LINE
  5
1D303
330
1D26B
100
AcDbEntity
  8
U3
100
AcDbLine
 10
3583.007042992147
 20
2701.64006749409
 30
0.0
 11
3082.658227046675
 21
2201.291251548639
 31
0.0
  0
LINE
  5
1D304
330
1D26B
100
AcDbEntity
  8
U3
100
AcDbLine
 10
3583.007042992147
 20
2758.208609989029
 30
0.0
 11
3026.089684551756
 21
2201.291251548639
 31
0.0
  0
LINE
  5
1D305
330
1D26B
100
AcDbEntity
  8
U3
100
AcDbLine
 10
3583.007042992147
 20
2358.746397445925
 30
0.0
 11
3425.551897094855
 21
2201.291251548639
 31
0.0
  0
LINE
  5
1D306
330
1D26B
100
AcDbEntity
  8
U3
100
AcDbLine
 10
3583.007042992147
 20
2415.314939940851
 30
0.0
 11
3368.983354599935
 21
2201.291251548639
 31
0.0
  0
LINE
  5
1D307
330
1D26B
100
AcDbEntity
  8
U3
100
AcDbLine
 10
3583.007042992147
 20
2302.177854951009
 30
0.0
 11
3482.120439589773
 21
2201.291251548639
 31
0.0
  0
LINE
  5
1D308
330
1D26B
100
AcDbEntity
  8
U3
100
AcDbLine
 10
2684.582993426382
 20
3201.291251548639
 30
0.0
 11
2618.007042992147
 21
3134.715301114404
 31
0.0
  0
LINE
  5
1D309
330
1D26B
100
AcDbEntity
  8
U3
100
AcDbLine
 10
2741.151535921337
 20
3201.291251548639
 30
0.0
 11
2618.007042992147
 21
3078.146758619448
 31
0.0
  0
LINE
  5
1D30A
330
1D26B
100
AcDbEntity
  8
U3
100
AcDbLine
 10
2797.72007841627
 20
3201.291251548639
 30
0.0
 11
2618.007042992147
 21
3021.578216124531
 31
0.0
  0
LINE
  5
1D30B
330
1D26B
100
AcDbEntity
  8
U3
100
AcDbLine
 10
4718.007042992147
 20
3101.801182169627
 30
0.0
 11
3817.497112371114
 21
2201.291251548639
 31
0.0
  0
LINE
  5
1D30C
330
1D26B
100
AcDbEntity
  8
U1
100
AcDbLine
 10
4718.007042992147
 20
2201.291251548639
 30
0.0
 11
4718.007042992147
 21
3201.291251548639
 31
0.0
  0
LINE
  5
1D30D
330
1D26B
100
AcDbEntity
  8
U3
100
AcDbLine
 10
4718.007042992147
 20
2544.184921596818
 30
0.0
 11
4375.113372943967
 21
2201.291251548639
 31
0.0
  0
LINE
  5
1D30E
330
1D26B
100
AcDbEntity
  8
U3
100
AcDbLine
 10
4718.007042992147
 20
2487.616379101889
 30
0.0
 11
4431.681915438877
 21
2201.291251548639
 31
0.0
  0
LINE
  5
1D30F
330
1D26B
100
AcDbEntity
  8
U3
100
AcDbLine
 10
4718.007042992147
 20
2766.4245093883
 30
0.0
 11
4152.873785152457
 21
2201.291251548639
 31
0.0
  0
LINE
  5
1D310
330
1D26B
100
AcDbEntity
  8
U3
100
AcDbLine
 10
4718.007042992147
 20
2822.993051883219
 30
0.0
 11
4096.305242657545
 21
2201.291251548639
 31
0.0
  0
LINE
  5
1D311
330
1D26B
100
AcDbEntity
  8
U3
100
AcDbLine
 10
4718.007042992147
 20
2879.561594378163
 30
0.0
 11
4039.736700162626
 21
2201.291251548639
 31
0.0
  0
LINE
  5
1D312
330
1D26B
100
AcDbEntity
  8
U3
100
AcDbLine
 10
4718.007042992147
 20
2431.047836606973
 30
0.0
 11
4488.250457933798
 21
2201.291251548639
 31
0.0
  0
LINE
  5
1D313
330
1D26B
100
AcDbEntity
  8
U1
100
AcDbLine
 10
5018.007042992147
 20
3201.291251548639
 30
0.0
 11
3753.007042992147
 21
3201.291251548639
 31
0.0
  0
LINE
  5
1D314
330
1D26B
100
AcDbEntity
  8
U1
100
AcDbLine
 10
3583.007042992147
 20
3201.291251548639
 30
0.0
 11
2318.007042992147
 21
3201.291251548639
 31
0.0
  0
LINE
  5
1D315
330
1D26B
100
AcDbEntity
  8
U3
100
AcDbLine
 10
3379.226769541609
 20
2441.291251548639
 30
0.0
 11
3139.226769541595
 21
2201.291251548639
 31
0.0
  0
LINE
  5
1D316
330
1D26B
100
AcDbEntity
  8
U3
100
AcDbLine
 10
3944.360027381277
 20
2441.291251548639
 30
0.0
 11
3753.007042992147
 21
2249.938267159504
 31
0.0
  0
LINE
  5
1D317
330
1D26B
100
AcDbEntity
  8
U3
100
AcDbLine
 10
8904.771010768527
 20
3093.585282770371
 30
0.0
 11
8139.771010768534
 21
2328.585282770371
 31
0.0
  0
LINE
  5
1D318
330
1D26B
100
AcDbEntity
  8
U3
100
AcDbLine
 10
8904.771010768527
 20
3037.01674027542
 30
0.0
 11
8139.771010768534
 21
2272.016740275451
 31
0.0
  0
LINE
  5
1D319
330
1D26B
100
AcDbEntity
  8
U3
100
AcDbLine
 10
8904.771010768527
 20
2980.448197780496
 30
0.0
 11
8139.771010768534
 21
2215.448197780534
 31
0.0
  0
LINE
  5
1D31A
330
1D26B
100
AcDbEntity
  8
U3
100
AcDbLine
 10
8790.237391755342
 20
3201.291251548639
 30
0.0
 11
8139.771010768534
 21
2550.824870561864
 31
0.0
  0
LINE
  5
1D31B
330
1D26B
100
AcDbEntity
  8
U3
100
AcDbLine
 10
8677.100306765453
 20
3201.291251548639
 30
0.0
 11
8139.771010768534
 21
2663.961955551716
 31
0.0
  0
LINE
  5
1D31C
330
1D26B
100
AcDbEntity
  8
U3
100
AcDbLine
 10
8733.668849260414
 20
3201.291251548639
 30
0.0
 11
8139.771010768534
 21
2607.393413056783
 31
0.0
  0
LINE
  5
1D31D
330
1D26B
100
AcDbEntity
  8
U1
100
AcDbLine
 10
8904.771010768534
 20
3201.291251548639
 30
0.0
 11
7839.771010768534
 21
3201.291251548639
 31
0.0
  0
LINE
  5
1D31E
330
1D26B
100
AcDbEntity
  8
U3
100
AcDbLine
 10
8454.860718973996
 20
3201.291251548639
 30
0.0
 11
8139.771010768534
 21
2886.201543343192
 31
0.0
  0
LINE
  5
1D31F
330
1D26B
100
AcDbEntity
  8
U3
100
AcDbLine
 10
8398.292176479065
 20
3201.291251548639
 30
0.0
 11
8139.771010768534
 21
2942.770085838114
 31
0.0
  0
LINE
  5
1D320
330
1D26B
100
AcDbEntity
  8
U3
100
AcDbLine
 10
8341.723633984102
 20
3201.291251548639
 30
0.0
 11
8139.771010768534
 21
2999.338628333061
 31
0.0
  0
LINE
  5
1D321
330
1D26B
100
AcDbEntity
  8
U1
100
AcDbLine
 10
8139.771010768534
 20
2201.291251548639
 30
0.0
 11
8139.771010768534
 21
3201.291251548639
 31
0.0
  0
LINE
  5
1D322
330
1D26B
100
AcDbEntity
  8
HIKIDASHI
100
AcDbLine
 10
6821.530673666931
 20
2713.930740029555
 30
0.0
 11
7875.234273272893
 21
2713.930740029555
 31
0.0
  0
TEXT
  5
1D323
330
1D26B
100
AcDbEntity
  8
HIKIDASHI
100
AcDbText
 10
6851.898384198342
 20
2773.930740029555
 30
0.0
 40
120.0
  1
鉄筋
  7
01
 72
     2
 11
7107.898384198342
 21
2773.930740029555
 31
0.0
100
AcDbText
  0
TEXT
  5
1D324
330
1D26B
100
AcDbEntity
  8
HIKIDASHI
100
AcDbText
 10
7504.578314629219
 20
2773.930740029555
 30
0.0
 40
120.0
  1
350
 41
0.6666666666666666
  7
00
 72
     2
 11
7721.721171772077
 21
2773.930740029555
 31
0.0
100
AcDbText
  0
TEXT
  5
1D325
330
1D26B
100
AcDbEntity
  8
HIKIDASHI
100
AcDbText
 10
7329.240281229606
 20
2792.578404610832
 30
0.0
 40
119.9999987999998
  1
%%c 
 41
0.6700000000000001
  7
00
100
AcDbText
  0
TEXT
  5
1D326
330
1D26B
100
AcDbEntity
  8
HIKIDASHI
100
AcDbText
 10
7149.074104997274
 20
2773.930740029555
 30
0.0
 40
120.0
  1
10
 41
0.6666666666666666
  7
00
 72
     2
 11
7290.026485949654
 21
2773.930740029555
 31
0.0
100
AcDbText
  0
TEXT
  5
1D327
330
1D26B
100
AcDbEntity
  8
HIKIDASHI
100
AcDbText
 10
7415.385322039724
 20
2793.509571745363
 30
0.0
 40
120.0
  1
x
 41
0.6666666666666666
  7
00
 72
     1
 11
7447.766274420676
 21
2853.509571745363
 31
0.0
100
AcDbText
 73
     2
  0
ARC
  5
1D328
330
1D26B
100
AcDbEntity
  8
HIKIDASHI
100
AcDbCircle
 10
7803.278269395216
 20
2881.930740029551
 30
0.0
 40
11.99999999997096
100
AcDbArc
 50
15.14038701513348
 51
164.8596129850677
  0
ARC
  5
1D329
330
1D26B
100
AcDbEntity
  8
HIKIDASHI
100
AcDbCircle
 10
7718.332858078835
 20
2858.946460700007
 30
0.0
 40
100.0000000000144
100
AcDbArc
 50
301.7712278331194
 51
15.14038701493228
  0
ARC
  5
1D32A
330
1D26B
100
AcDbEntity
  8
HIKIDASHI
100
AcDbCircle
 10
7888.223680711584
 20
2858.946460700012
 30
0.0
 40
99.99999999999772
100
AcDbArc
 50
164.8596129850677
 51
238.2287721668805
  0
LINE
  5
1D32B
330
1D26B
100
AcDbEntity
  8
SUNPOU
100
AcDbLine
 10
7839.771010768534
 20
3201.291251548639
 30
0.0
 11
7428.913024793647
 21
3201.291251548639
 31
0.0
  0
LINE
  5
1D32C
330
1D26B
100
AcDbEntity
  8
SUNPOU
100
AcDbLine
 10
7665.208414136689
 20
3339.508905992636
 30
0.0
 11
7505.608414136702
 21
3339.508905992636
 31
0.0
  0
LINE
  5
1D32D
330
1D26B
100
AcDbEntity
  8
SUNPOU
100
AcDbLine
 10
7505.608414136702
 20
3339.508905992636
 30
0.0
 11
7585.408414136698
 21
3201.291251548639
 31
0.0
  0
LINE
  5
1D32E
330
1D26B
100
AcDbEntity
  8
SUNPOU
100
AcDbLine
 10
7585.408414136698
 20
3201.291251548639
 30
0.0
 11
7665.208414136689
 21
3339.508905992636
 31
0.0
  0
TEXT
  5
1D32F
330
1D26B
100
AcDbEntity
  8
SUNPOU
100
AcDbText
 10
7490.170318898603
 20
3395.259116879223
 30
0.0
 40
120.0
  1
G.L
 41
0.6666666666666666
  7
00
 72
     4
 11
7585.408414136698
 21
3455.259116879224
 31
0.0
100
AcDbText
  0
LINE
  5
1D330
330
1D26B
100
AcDbEntity
  8
U3
100
AcDbLine
 10
8904.771010768527
 20
2701.64006749409
 30
0.0
 11
8404.422194823053
 21
2201.291251548639
 31
0.0
  0
LINE
  5
1D331
330
1D26B
100
AcDbEntity
  8
U3
100
AcDbLine
 10
8904.771010768527
 20
2758.208609989029
 30
0.0
 11
8347.853652328137
 21
2201.291251548639
 31
0.0
  0
LINE
  5
1D332
330
1D26B
100
AcDbEntity
  8
U3
100
AcDbLine
 10
8700.990737317987
 20
2441.291251548639
 30
0.0
 11
8460.990737317974
 21
2201.291251548639
 31
0.0
  0
LINE
  5
1D333
330
1D26B
100
AcDbEntity
  8
HASHIRA
100
AcDbLine
 10
9074.771010768534
 20
2201.291251548639
 30
0.0
 11
9074.771010768534
 21
3355.538553909656
 31
0.0
  0
LINE
  5
1D334
330
1D26B
100
AcDbEntity
  8
HASHIRA
100
AcDbLine
 10
8904.771010768534
 20
2201.291251548639
 30
0.0
 11
8904.771010768534
 21
3357.470330796255
 31
0.0
  0
LINE
  5
1D335
330
1D26B
100
AcDbEntity
  8
1PL-L1
100
AcDbLine
 10
8989.771010768526
 20
2001.291251548638
 30
0.0
 11
8989.771010768526
 21
4826.34760353544
 31
0.0
  0
LINE
  5
1D336
330
1D26B
100
AcDbEntity
  8
U3
100
AcDbLine
 10
9839.771010768535
 20
2958.36972466456
 30
0.0
 11
9082.69253765259
 21
2201.291251548639
 31
0.0
  0
LINE
  5
1D337
330
1D26B
100
AcDbEntity
  8
U3
100
AcDbLine
 10
8904.771010768527
 20
2358.746397445925
 30
0.0
 11
8747.315864871241
 21
2201.291251548639
 31
0.0
  0
LINE
  5
1D338
330
1D26B
100
AcDbEntity
  8
U3
100
AcDbLine
 10
8904.771010768527
 20
2415.314939940851
 30
0.0
 11
8690.747322376322
 21
2201.291251548639
 31
0.0
  0
LINE
  5
1D339
330
1D26B
100
AcDbEntity
  8
U3
100
AcDbLine
 10
8904.771010768527
 20
2302.177854951009
 30
0.0
 11
8803.88440736616
 21
2201.291251548639
 31
0.0
  0
LINE
  5
1D33A
330
1D26B
100
AcDbEntity
  8
U3
100
AcDbLine
 10
9839.771010768531
 20
2901.801182169639
 30
0.0
 11
9139.261080147512
 21
2201.291251548639
 31
0.0
  0
LINE
  5
1D33B
330
1D26B
100
AcDbEntity
  8
U1
100
AcDbLine
 10
9839.771010768535
 20
2201.291251548639
 30
0.0
 11
9839.771010768535
 21
3201.291251548639
 31
0.0
  0
LINE
  5
1D33C
330
1D26B
100
AcDbEntity
  8
U3
100
AcDbLine
 10
9839.771010768531
 20
2344.184921596818
 30
0.0
 11
9696.877340720357
 21
2201.291251548639
 31
0.0
  0
LINE
  5
1D33D
330
1D26B
100
AcDbEntity
  8
U3
100
AcDbLine
 10
9839.771010768535
 20
2287.616379101899
 30
0.0
 11
9753.445883215274
 21
2201.291251548639
 31
0.0
  0
LINE
  5
1D33E
330
1D26B
100
AcDbEntity
  8
U3
100
AcDbLine
 10
9839.771010768531
 20
2566.424509388308
 30
0.0
 11
9474.637752928844
 21
2201.291251548639
 31
0.0
  0
LINE
  5
1D33F
330
1D26B
100
AcDbEntity
  8
U3
100
AcDbLine
 10
9839.771010768535
 20
2622.993051883226
 30
0.0
 11
9418.069210433925
 21
2201.291251548639
 31
0.0
  0
LINE
  5
1D340
330
1D26B
100
AcDbEntity
  8
U3
100
AcDbLine
 10
9839.771010768535
 20
2679.561594378163
 30
0.0
 11
9361.500667939006
 21
2201.291251548639
 31
0.0
  0
LINE
  5
1D341
330
1D26B
100
AcDbEntity
  8
U3
100
AcDbLine
 10
9839.771010768531
 20
2231.04783660698
 30
0.0
 11
9810.014425710194
 21
2201.291251548639
 31
0.0
  0
TEXT
  5
1D342
330
1D26B
100
AcDbEntity
  8
HIKIDASHI
100
AcDbText
 10
9138.322112630588
 20
991.3418289660839
 30
0.0
 40
180.0
  1
断 面
  7
01
100
AcDbText
  0
TEXT
  5
1D343
330
1D26B
100
AcDbEntity
  8
HIKIDASHI
100
AcDbText
 10
8321.661939124025
 20
991.3418289660839
 30
0.0
 40
180.0
  1
B  ~  B'
 41
0.6700000000000001
  7
00
100
AcDbText
  0
LINE
  5
1D344
330
1D26B
100
AcDbEntity
  8
HASHIRA
100
AcDbLine
 10
9074.771010768534
 20
3504.555581661191
 30
0.0
 11
9074.771010768534
 21
4766.347603535439
 31
0.0
  0
LINE
  5
1D345
330
1D26B
100
AcDbEntity
  8
HASHIRA
100
AcDbLine
 10
8904.771010768534
 20
3507.191860922405
 30
0.0
 11
8904.771010768534
 21
4766.347603535439
 31
0.0
  0
LINE
  5
1D346
330
1D26B
100
AcDbEntity
  8
U1
100
AcDbLine
 10
10139.77101076853
 20
3201.291251548639
 30
0.0
 11
9074.771010768534
 21
3201.291251548639
 31
0.0
  0
LINE
  5
1D347
330
1D26B
100
AcDbEntity
  8
U3
100
AcDbLine
 10
9839.771010768531
 20
3014.938267159505
 30
0.0
 11
9286.123995157671
 21
2461.291251548639
 31
0.0
  0
LINE
  5
1D348
330
1D26B
100
AcDbEntity
  8
U3
100
AcDbLine
 10
9690.747322376324
 20
3201.291251548639
 30
0.0
 11
9074.771010768527
 21
2585.314939940851
 31
0.0
  0
LINE
  5
1D349
330
1D26B
100
AcDbEntity
  8
U3
100
AcDbLine
 10
9747.315864871284
 20
3201.291251548639
 30
0.0
 11
9074.771010768527
 21
2528.746397445917
 31
0.0
  0
LINE
  5
1D34A
330
1D26B
100
AcDbEntity
  8
U3
100
AcDbLine
 10
9803.884407366204
 20
3201.291251548639
 30
0.0
 11
9074.771010768527
 21
2472.177854950999
 31
0.0
  0
LINE
  5
1D34B
330
1D26B
100
AcDbEntity
  8
U3
100
AcDbLine
 10
9347.853652328137
 20
3201.291251548639
 30
0.0
 11
9074.771010768527
 21
2928.208609989029
 31
0.0
  0
LINE
  5
1D34C
330
1D26B
100
AcDbEntity
  8
U3
100
AcDbLine
 10
9404.422194823098
 20
3201.291251548639
 30
0.0
 11
9074.771010768527
 21
2871.640067494081
 31
0.0
  0
LINE
  5
1D34D
330
1D26B
100
AcDbEntity
  8
U3
100
AcDbLine
 10
9460.990737318033
 20
3201.291251548639
 30
0.0
 11
9074.771010768527
 21
2815.071524999163
 31
0.0
  0
LINE
  5
1D34E
330
1D26B
100
AcDbEntity
  8
U3
100
AcDbLine
 10
9125.61406453668
 20
3201.291251548639
 30
0.0
 11
9074.771010768527
 21
3150.448197780489
 31
0.0
  0
LINE
  5
1D34F
330
1D26B
100
AcDbEntity
  8
U3
100
AcDbLine
 10
8904.771010768527
 20
2645.071524999169
 30
0.0
 11
8720.990737317988
 21
2461.291251548639
 31
0.0
  0
LINE
  5
1D350
330
1D26B
100
AcDbEntity
  8
U3
100
AcDbLine
 10
9266.123995157672
 20
2441.291251548639
 30
0.0
 11
9074.771010768527
 21
2249.938267159504
 31
0.0
  0
LINE
  5
1D351
330
1D26B
100
AcDbEntity
  8
U1
  6
HIDE-M
 62
     6
100
AcDbLine
 10
8904.771010768534
 20
2441.291251548639
 30
0.0
 11
9074.771010768534
 21
2441.291251548639
 31
0.0
  0
LINE
  5
1D352
330
1D26B
100
AcDbEntity
  8
U1
  6
HIDE-M
 62
     6
100
AcDbLine
 10
8904.771010768534
 20
2461.291251548639
 30
0.0
 11
9074.771010768534
 21
2461.291251548639
 31
0.0
  0
LINE
  5
1D353
330
1D26B
100
AcDbEntity
  8
HASHIRA
100
AcDbLine
 10
8904.771010768534
 20
4766.347603535436
 30
0.0
 11
9074.771010768534
 21
4766.347603535439
 31
0.0
  0
TEXT
  5
1D354
330
1D26B
100
AcDbEntity
  8
HIKIDASHI
100
AcDbText
 10
8261.767225768641
 20
4416.407073822178
 30
0.0
 40
120.0
  1
支柱
  7
01
 72
     2
 11
8517.767225768642
 21
4416.407073822178
 31
0.0
100
AcDbText
  0
LINE
  5
1D355
330
1D26B
100
AcDbEntity
  8
HIKIDASHI
100
AcDbLine
 10
8221.767225768642
 20
4356.407073822178
 30
0.0
 11
8557.767225768643
 21
4356.407073822178
 31
0.0
  0
LINE
  5
1D356
330
1D26B
100
AcDbEntity
  8
HIKIDASHI
100
AcDbLine
 10
7618.346566677939
 20
10357.24800501665
 30
0.0
 11
7618.346566677939
 21
10077.24800501665
 31
0.0
1001
ACAD
1000
DSTYLE
1002
{
1070
   147
1040
1.5
1070
    77
1070
     0
1002
}
  0
LINE
  5
1D357
330
1D26B
100
AcDbEntity
  8
HIKIDASHI
100
AcDbLine
 10
7598.346566677938
 20
10357.24800501665
 30
0.0
 11
7638.346566677935
 21
10357.24800501665
 31
0.0
  0
LINE
  5
1D358
330
1D26B
100
AcDbEntity
  8
HIKIDASHI
100
AcDbLine
 10
7638.346566677935
 20
10357.24800501665
 30
0.0
 11
7618.346566677939
 21
10477.24800501665
 31
0.0
  0
LINE
  5
1D359
330
1D26B
100
AcDbEntity
  8
HIKIDASHI
100
AcDbLine
 10
7618.346566677939
 20
10477.24800501665
 30
0.0
 11
7598.346566677938
 21
10357.24800501665
 31
0.0
  0
SOLID
  5
1D35A
330
1D26B
100
AcDbEntity
  8
HIKIDASHI
100
AcDbTrace
 10
7638.346566677935
 20
10357.24800501665
 30
0.0
 11
7598.346566677938
 21
10357.24800501665
 31
0.0
 12
7618.346566677939
 22
10477.24800501665
 32
0.0
 13
7618.346566677939
 23
10477.24800501665
 33
0.0
  0
TEXT
  5
1D35B
330
1D26B
100
AcDbEntity
  8
HIKIDASHI
100
AcDbText
 10
7576.232280963653
 20
10537.24800501665
 30
0.0
 40
120.0
  1
B
 41
0.6700000000000001
  7
00
 72
     4
 11
7618.346566677939
 21
10597.24800501665
 31
0.0
100
AcDbText
  0
LINE
  5
1D35C
330
1D26B
100
AcDbEntity
  8
HIKIDASHI
100
AcDbLine
 10
8868.34656667794
 20
10357.24800501665
 30
0.0
 11
8868.34656667794
 21
10077.24800501665
 31
0.0
1001
ACAD
1000
DSTYLE
1002
{
1070
   147
1040
1.5
1070
    77
1070
     0
1002
}
  0
LINE
  5
1D35D
330
1D26B
100
AcDbEntity
  8
HIKIDASHI
100
AcDbLine
 10
8848.346566677937
 20
10357.24800501665
 30
0.0
 11
8888.346566677935
 21
10357.24800501665
 31
0.0
  0
SOLID
  5
1D35E
330
1D26B
100
AcDbEntity
  8
HIKIDASHI
100
AcDbTrace
 10
8888.346566677935
 20
10357.24800501665
 30
0.0
 11
8848.346566677937
 21
10357.24800501665
 31
0.0
 12
8868.34656667794
 22
10477.24800501665
 32
0.0
 13
8868.34656667794
 23
10477.24800501665
 33
0.0
  0
LINE
  5
1D35F
330
1D26B
100
AcDbEntity
  8
HIKIDASHI
100
AcDbLine
 10
8868.34656667794
 20
10477.24800501665
 30
0.0
 11
8848.346566677937
 21
10357.24800501665
 31
0.0
  0
LINE
  5
1D360
330
1D26B
100
AcDbEntity
  8
HIKIDASHI
100
AcDbLine
 10
8888.346566677935
 20
10357.24800501665
 30
0.0
 11
8868.34656667794
 21
10477.24800501665
 31
0.0
  0
TEXT
  5
1D361
330
1D26B
100
AcDbEntity
  8
HIKIDASHI
100
AcDbText
 10
8809.003709535081
 20
10525.81943358807
 30
0.0
 40
120.0
  1
B'
 41
0.6700000000000001
  7
00
 72
     4
 11
8868.34656667794
 21
10597.24800501665
 31
0.0
100
AcDbText
  0
LINE
  5
1D362
330
1D26B
100
AcDbEntity
  8
HIDE-M3
100
AcDbLine
 10
5018.346566677937
 20
7552.248005016647
 30
0.0
 11
6068.346566677938
 21
7552.248005016647
 31
0.0
  0
LINE
  5
1D363
330
1D26B
100
AcDbEntity
  8
HIDE-M3
100
AcDbLine
 10
6068.346566677938
 20
7552.248005016647
 30
0.0
 11
6068.346566677938
 21
8602.248005016649
 31
0.0
  0
LINE
  5
1D364
330
1D26B
100
AcDbEntity
  8
HIDE-M3
100
AcDbLine
 10
6068.346566677938
 20
8602.248005016649
 30
0.0
 11
5018.346566677937
 21
8602.248005016649
 31
0.0
  0
LINE
  5
1D365
330
1D26B
100
AcDbEntity
  8
HIDE-M3
100
AcDbLine
 10
5018.346566677937
 20
8602.248005016649
 30
0.0
 11
5018.346566677937
 21
7552.248005016647
 31
0.0
  0
LINE
  5
1D366
330
1D26B
100
AcDbEntity
  8
HIDE-M3
100
AcDbLine
 10
11468.34656667794
 20
7552.248005016647
 30
0.0
 11
11468.34656667794
 21
8602.248005016649
 31
0.0
  0
LINE
  5
1D367
330
1D26B
100
AcDbEntity
  8
HIDE-M3
100
AcDbLine
 10
11468.34656667794
 20
8602.248005016649
 30
0.0
 11
10418.34656667794
 21
8602.248005016649
 31
0.0
  0
LINE
  5
1D368
330
1D26B
100
AcDbEntity
  8
HIDE-M3
100
AcDbLine
 10
10418.34656667794
 20
8602.248005016649
 30
0.0
 11
10418.34656667794
 21
7552.248005016647
 31
0.0
  0
LINE
  5
1D369
330
1D26B
100
AcDbEntity
  8
HIDE-M3
100
AcDbLine
 10
10418.34656667794
 20
7552.248005016647
 30
0.0
 11
11468.34656667794
 21
7552.248005016647
 31
0.0
  0
LINE
  5
1D36A
330
1D26B
100
AcDbEntity
  8
HIDE-M3
100
AcDbLine
 10
5018.34656667804
 20
10602.24800501691
 30
0.0
 11
5018.34656667804
 21
9552.248005016915
 31
0.0
  0
LINE
  5
1D36B
330
1D26B
100
AcDbEntity
  8
HIDE-M3
100
AcDbLine
 10
6068.346566678039
 20
9552.248005016915
 30
0.0
 11
6068.346566678039
 21
10602.24800501691
 31
0.0
  0
LINE
  5
1D36C
330
1D26B
100
AcDbEntity
  8
HIDE-M3
100
AcDbLine
 10
5018.34656667804
 20
9552.248005016915
 30
0.0
 11
6068.346566678039
 21
9552.248005016915
 31
0.0
  0
LINE
  5
1D36D
330
1D26B
100
AcDbEntity
  8
HIDE-M3
100
AcDbLine
 10
6068.346566678039
 20
10602.24800501691
 30
0.0
 11
5018.34656667804
 21
10602.24800501691
 31
0.0
  0
LINE
  5
1D36E
330
1D26B
100
AcDbEntity
  8
HIDE-M3
100
AcDbLine
 10
10418.34656667794
 20
10602.24800501664
 30
0.0
 11
10418.34656667794
 21
9552.248005016645
 31
0.0
  0
LINE
  5
1D36F
330
1D26B
100
AcDbEntity
  8
HIDE-M3
100
AcDbLine
 10
11468.34656667794
 20
9552.248005016645
 30
0.0
 11
11468.34656667794
 21
10602.24800501664
 31
0.0
  0
LINE
  5
1D370
330
1D26B
100
AcDbEntity
  8
HIDE-M3
100
AcDbLine
 10
10418.34656667794
 20
9552.248005016645
 30
0.0
 11
11468.34656667794
 21
9552.248005016645
 31
0.0
  0
LINE
  5
1D371
330
1D26B
100
AcDbEntity
  8
HIDE-M3
100
AcDbLine
 10
11468.34656667794
 20
10602.24800501664
 30
0.0
 11
10418.34656667794
 21
10602.24800501664
 31
0.0
  0
LINE
  5
1D372
330
1D26B
100
AcDbEntity
  8
HIDE-M3
100
AcDbLine
 10
7818.346566677938
 20
9652.248005016652
 30
0.0
 11
8668.346566677938
 21
9652.248005016652
 31
0.0
  0
LINE
  5
1D373
330
1D26B
100
AcDbEntity
  8
HIDE-M3
100
AcDbLine
 10
8668.346566677938
 20
9652.248005016652
 30
0.0
 11
8668.346566677938
 21
10502.24800501665
 31
0.0
  0
LINE
  5
1D374
330
1D26B
100
AcDbEntity
  8
HIDE-M3
100
AcDbLine
 10
8668.346566677938
 20
10502.24800501665
 30
0.0
 11
7818.346566677938
 21
10502.24800501665
 31
0.0
  0
LINE
  5
1D375
330
1D26B
100
AcDbEntity
  8
HIDE-M3
100
AcDbLine
 10
7818.346566677938
 20
10502.24800501665
 30
0.0
 11
7818.346566677938
 21
9652.248005016652
 31
0.0
  0
TEXT
  5
1D376
330
1D26B
100
AcDbEntity
  8
LM1
100
AcDbText
 10
514.0
 20
514.0
 30
40.0
 40
120.0
  1
※仮組み用のアンカーボルト（    相当）又はオールアンカー（   相当）等は別途。
 41
0.9
  7
01
 11
514.0
 21
574.0
 31
40.0
100
AcDbText
 73
     2
  0
TEXT
  5
1D377
330
1D26B
100
AcDbEntity
  8
LM1
100
AcDbText
 10
2319.374123575362
 20
526.238805970148
 30
40.0
 40
95.52238805970148
  1
W ／
 41
0.6700000000000001
  7
00
100
AcDbText
  0
TEXT
  5
1D378
330
1D26B
100
AcDbEntity
  8
LM1
100
AcDbText
 10
2398.948321637544
 20
554.4303895849877
 30
40.0
 40
71.64179104477613
  1
1
 41
0.6700000000000001
  7
00
100
AcDbText
  0
TEXT
  5
1D379
330
1D26B
100
AcDbEntity
  8
LM1
100
AcDbText
 10
2492.699827300377
 20
525.6025975523806
 30
40.0
 40
71.64179104477613
  1
2
 41
0.6700000000000001
  7
00
100
AcDbText
  0
TEXT
  5
1D37A
330
1D26B
100
AcDbEntity
  8
LM1
100
AcDbText
 10
4250.461970185308
 20
526.238805970148
 30
40.0
 40
95.52238805970148
  1
C12
 41
0.6700000000000001
  7
00
100
AcDbText
  0
LINE
  5
1D37B
330
1D26B
100
AcDbEntity
  8
BOLT
100
AcDbLine
 10
14331.32695428549
 20
3515.403078593561
 30
0.0
 11
14322.9600029817
 21
3611.037769610383
 31
0.0
  0
LINE
  5
1D37C
330
1D26B
100
AcDbEntity
  8
BOLT
100
AcDbLine
 10
14362.20898992637
 20
3518.104906618749
 30
0.0
 11
14353.84203862246
 21
3613.739597635548
 31
0.0
  0
LINE
  5
1D37D
330
1D26B
100
AcDbEntity
  8
BOLT
100
AcDbLine
 10
14306.35712295956
 20
3515.403078593561
 30
0.0
 11
14314.72407426335
 21
3611.037769610383
 31
0.0
  0
LINE
  5
1D37E
330
1D26B
100
AcDbEntity
  8
U3
100
AcDbLine
 10
14358.04444790492
 20
3565.705839740484
 30
0.0
 11
14554.01069000991
 21
3369.739597635568
 31
0.0
  0
LINE
  5
1D37F
330
1D26B
100
AcDbEntity
  8
BOLT
  6
1PL-SL
 62
     6
100
AcDbLine
 10
14318.84203862246
 20
3493.739597635548
 30
0.0
 11
14318.84203862246
 21
3837.739597635561
 31
0.0
  0
LINE
  5
1D380
330
1D26B
100
AcDbEntity
  8
U3
100
AcDbLine
 10
14353.84203862246
 20
3626.476791517751
 30
0.0
 11
14610.57923250471
 21
3369.739597635568
 31
0.0
  0
LINE
  5
1D381
330
1D26B
100
AcDbEntity
  8
U3
100
AcDbLine
 10
14589.38736279111
 20
3669.739597635568
 30
0.0
 11
14728.84203862246
 21
3530.284921804202
 31
0.0
  0
LINE
  5
1D382
330
1D26B
100
AcDbEntity
  8
BOLT
100
AcDbLine
 10
14275.47508731879
 20
3518.104906618749
 30
0.0
 11
14283.84203862246
 21
3613.739597635548
 31
0.0
  0
LINE
  5
1D383
330
1D26B
100
AcDbEntity
  8
BOLT
100
AcDbLine
 10
13862.20898992637
 20
3518.104906618749
 30
0.0
 11
13853.84203862247
 21
3613.739597635548
 31
0.0
  0
LINE
  5
1D384
330
1D26B
100
AcDbEntity
  8
BOLT
100
AcDbLine
 10
13831.3269542855
 20
3515.403078593561
 30
0.0
 11
13822.96000298171
 21
3611.037769610383
 31
0.0
  0
LINE
  5
1D385
330
1D26B
100
AcDbEntity
  8
BOLT
100
AcDbLine
 10
13775.4750873188
 20
3518.104906618749
 30
0.0
 11
13783.84203862247
 21
3613.739597635548
 31
0.0
  0
LINE
  5
1D386
330
1D26B
100
AcDbEntity
  8
BOLT
100
AcDbLine
 10
13806.35712295956
 20
3515.403078593561
 30
0.0
 11
13814.72407426335
 21
3611.037769610383
 31
0.0
  0
LINE
  5
1D387
330
1D26B
100
AcDbEntity
  8
BOLT
  6
1PL-SL
 62
     6
100
AcDbLine
 10
13818.8420386227
 20
3493.739597635548
 30
0.0
 11
13818.8420386227
 21
3837.739597635561
 31
0.0
  0
LINE
  5
1D388
330
1D26B
100
AcDbEntity
  8
U3
100
AcDbLine
 10
13918.6340172285
 20
3669.739597635568
 30
0.0
 11
14218.6340172285
 21
3369.739597635568
 31
0.0
  0
LINE
  5
1D389
330
1D26B
100
AcDbEntity
  8
U3
100
AcDbLine
 10
13975.2025597234
 20
3669.739597635568
 30
0.0
 11
14275.2025597234
 21
3369.739597635568
 31
0.0
  0
LINE
  5
1D38A
330
1D26B
100
AcDbEntity
  8
U1
100
AcDbLine
 10
14728.84203862246
 20
3669.739597635554
 30
0.0
 11
14728.84203862246
 21
3069.739597635555
 31
0.0
  0
LINE
  5
1D38B
330
1D26B
100
AcDbEntity
  8
U3
100
AcDbLine
 10
13408.8420386213
 20
3565.346773174868
 30
0.0
 11
13604.44921416067
 21
3369.739597635568
 31
0.0
  0
LINE
  5
1D38C
330
1D26B
100
AcDbEntity
  8
U1
100
AcDbLine
 10
13408.8420386213
 20
3669.739597635554
 30
0.0
 11
13408.8420386213
 21
3069.739597635555
 31
0.0
  0
LINE
  5
1D38D
330
1D26B
100
AcDbEntity
  8
U3
100
AcDbLine
 10
13639.82588694198
 20
3669.739597635568
 30
0.0
 11
13776.76112298876
 21
3532.80436158894
 31
0.0
  0
LINE
  5
1D38E
330
1D26B
100
AcDbEntity
  8
U3
100
AcDbLine
 10
13583.25734444707
 20
3669.739597635568
 30
0.0
 11
13883.25734444707
 21
3369.739597635568
 31
0.0
  0
LINE
  5
1D38F
330
1D26B
100
AcDbEntity
  8
U1
100
AcDbLine
 10
12270.66757168817
 20
6030.810120419381
 30
0.0
 11
12270.66757168817
 21
2042.000000000006
 31
0.0
  0
LINE
  5
1D390
330
1D26B
100
AcDbEntity
  8
U1
100
AcDbLine
 10
16232.00000000022
 20
2042.000000000006
 30
0.0
 11
16232.00000000022
 21
6030.810120419381
 31
0.0
  0
LINE
  5
1D391
330
1D26B
100
AcDbEntity
  8
BOLT
100
AcDbLine
 10
14331.32695428549
 20
3515.403078593561
 30
0.0
 11
14362.20898992637
 21
3518.104906618749
 31
0.0
  0
LINE
  5
1D392
330
1D26B
100
AcDbEntity
  8
BOLT
100
AcDbLine
 10
14307.96136050425
 20
3533.739597635547
 30
0.0
 11
14329.7227167408
 21
3533.739597635547
 31
0.0
  0
LINE
  5
1D393
330
1D26B
100
AcDbEntity
  8
HATCH
100
AcDbLine
 10
14545.33785423915
 20
3369.739597635568
 30
0.0
 11
14569.2704398029
 21
3328.287143482747
 31
0.0
  0
LINE
  5
1D394
330
1D26B
100
AcDbEntity
  8
HATCH
100
AcDbLine
 10
14345.33785423916
 20
3369.739597635568
 30
0.0
 11
14369.2704398029
 21
3328.287143482747
 31
0.0
  0
LINE
  5
1D395
330
1D26B
100
AcDbEntity
  8
HATCH
100
AcDbLine
 10
14145.33785423916
 20
3369.739597635568
 30
0.0
 11
14169.2704398029
 21
3328.287143482747
 31
0.0
  0
LINE
  5
1D396
330
1D26B
100
AcDbEntity
  8
BOLT
100
AcDbLine
 10
13831.3269542855
 20
3515.403078593561
 30
0.0
 11
13862.20898992637
 21
3518.104906618749
 31
0.0
  0
LINE
  5
1D397
330
1D26B
100
AcDbEntity
  8
BOLT
100
AcDbLine
 10
13806.35712295956
 20
3515.403078593561
 30
0.0
 11
13775.4750873188
 21
3518.104906618749
 31
0.0
  0
LINE
  5
1D398
330
1D26B
100
AcDbEntity
  8
BOLT
100
AcDbLine
 10
13829.72271674079
 20
3533.739597635547
 30
0.0
 11
13807.96136050427
 21
3533.739597635547
 31
0.0
  0
LINE
  5
1D399
330
1D26B
100
AcDbEntity
  8
HATCH
100
AcDbLine
 10
13945.33785423916
 20
3369.739597635568
 30
0.0
 11
13969.2704398029
 21
3328.287143482747
 31
0.0
  0
LINE
  5
1D39A
330
1D26B
100
AcDbEntity
  8
HATCH
100
AcDbLine
 10
13745.33785423916
 20
3369.739597635568
 30
0.0
 11
13769.2704398029
 21
3328.287143482747
 31
0.0
  0
LINE
  5
1D39B
330
1D26B
100
AcDbEntity
  8
U3
100
AcDbLine
 10
13792.99321558862
 20
3516.572268988937
 30
0.0
 11
13939.82588694198
 21
3369.739597635568
 31
0.0
  0
LINE
  5
1D39C
330
1D26B
100
AcDbEntity
  8
BOLT
100
AcDbLine
 10
14306.35712295956
 20
3515.403078593561
 30
0.0
 11
14275.47508731879
 21
3518.104906618749
 31
0.0
  0
LINE
  5
1D39D
330
1D26B
100
AcDbEntity
  8
HATCH
100
AcDbLine
 10
14704.92333539587
 20
3069.739597635555
 30
0.0
 11
14680.99074983224
 21
3111.192051788377
 31
0.0
  0
LINE
  5
1D39E
330
1D26B
100
AcDbEntity
  8
HATCH
100
AcDbLine
 10
14504.92333539586
 20
3069.739597635555
 30
0.0
 11
14480.99074983224
 21
3111.192051788377
 31
0.0
  0
LINE
  5
1D39F
330
1D26B
100
AcDbEntity
  8
HATCH
100
AcDbLine
 10
14304.92333539587
 20
3069.739597635555
 30
0.0
 11
14280.99074983224
 21
3111.192051788377
 31
0.0
  0
LINE
  5
1D3A0
330
1D26B
100
AcDbEntity
  8
HATCH
100
AcDbLine
 10
14104.92333539587
 20
3069.739597635555
 30
0.0
 11
14080.99074983224
 21
3111.192051788377
 31
0.0
  0
LINE
  5
1D3A1
330
1D26B
100
AcDbEntity
  8
HATCH
100
AcDbLine
 10
13904.92333539587
 20
3069.739597635555
 30
0.0
 11
13880.99074983224
 21
3111.192051788377
 31
0.0
  0
LINE
  5
1D3A2
330
1D26B
100
AcDbEntity
  8
HATCH
100
AcDbLine
 10
13704.92333539587
 20
3069.739597635555
 30
0.0
 11
13680.99074983224
 21
3111.192051788377
 31
0.0
  0
LINE
  5
1D3A3
330
1D26B
100
AcDbEntity
  8
HATCH
100
AcDbLine
 10
14385.48149646748
 20
3369.739597635568
 30
0.0
 11
14264.23793993762
 21
3069.739597635555
 31
0.0
  0
LINE
  5
1D3A4
330
1D26B
100
AcDbEntity
  8
HATCH
100
AcDbLine
 10
13985.48149646749
 20
3369.739597635568
 30
0.0
 11
13864.23793993762
 21
3069.739597635555
 31
0.0
  0
LINE
  5
1D3A5
330
1D26B
100
AcDbEntity
  8
HATCH
100
AcDbLine
 10
13785.48149646749
 20
3369.739597635568
 30
0.0
 11
13664.23793993762
 21
3069.739597635555
 31
0.0
  0
LINE
  5
1D3A6
330
1D26B
100
AcDbEntity
  8
HATCH
100
AcDbLine
 10
14185.48149646749
 20
3369.739597635568
 30
0.0
 11
14064.23793993762
 21
3069.739597635555
 31
0.0
  0
LINE
  5
1D3A7
330
1D26B
100
AcDbEntity
  8
HATCH
100
AcDbLine
 10
14585.48149646748
 20
3369.739597635568
 30
0.0
 11
14464.23793993762
 21
3069.739597635555
 31
0.0
  0
LINE
  5
1D3A8
330
1D26B
100
AcDbEntity
  8
HATCH
100
AcDbLine
 10
14728.84203862246
 20
3229.593285206174
 30
0.0
 11
14664.23793993762
 21
3069.739597635555
 31
0.0
  0
LINE
  5
1D3A9
330
1D26B
100
AcDbEntity
  8
HATCH
100
AcDbLine
 10
13545.33785423916
 20
3369.739597635568
 30
0.0
 11
13569.2704398029
 21
3328.287143482747
 31
0.0
  0
LINE
  5
1D3AA
330
1D26B
100
AcDbEntity
  8
U3
100
AcDbLine
 10
13408.8420386213
 20
3508.778230679971
 30
0.0
 11
13547.88067166577
 21
3369.739597635568
 31
0.0
  0
LINE
  5
1D3AB
330
1D26B
100
AcDbEntity
  8
HATCH
100
AcDbLine
 10
13504.92333539587
 20
3069.739597635555
 30
0.0
 11
13480.99074983224
 21
3111.192051788377
 31
0.0
  0
LINE
  5
1D3AC
330
1D26B
100
AcDbEntity
  8
HATCH
100
AcDbLine
 10
13585.48149646749
 20
3369.739597635568
 30
0.0
 11
13464.23793993762
 21
3069.739597635555
 31
0.0
  0
TEXT
  5
1D3AD
330
1D26B
100
AcDbEntity
  8
HIKIDASHI
100
AcDbText
 10
13083.52889891838
 20
2102.000000000006
 30
0.0
 40
120.0
  1
W1,W2
 41
0.6666666666666666
  7
01
 72
     2
 11
13445.43366082314
 21
2102.000000000006
 31
0.0
100
AcDbText
  0
TEXT
  5
1D3AE
330
1D26B
100
AcDbEntity
  8
SUNPOU
100
AcDbText
 10
12662.38932121462
 20
1816.183780607337
 30
0.0
 40
120.0
  1
1
 41
0.6700000000000001
  7
01
100
AcDbText
  0
TEXT
  5
1D3AF
330
1D26B
100
AcDbEntity
  8
SUNPOU
100
AcDbText
 10
12514.87742759753
 20
1816.183780607337
 30
0.0
 40
120.0
  1
注　）
  7
01
100
AcDbText
  0
TEXT
  5
1D3B0
330
1D26B
100
AcDbEntity
  8
SUNPOU
100
AcDbText
 10
12662.38932121462
 20
1404.755209178765
 30
0.0
 40
120.0
  1
2
 41
0.6700000000000001
  7
01
100
AcDbText
  0
TEXT
  5
1D3B1
330
1D26B
100
AcDbEntity
  8
SUNPOU
100
AcDbText
 10
12514.87742759753
 20
1404.755209178765
 30
0.0
 40
120.0
  1
注　）
  7
01
100
AcDbText
  0
TEXT
  5
1D3B2
330
1D26B
100
AcDbEntity
  8
SUNPOU
100
AcDbText
 10
12937.33031466708
 20
1816.183780607337
 30
0.0
 40
120.0
  1
寒冷地の場合、凍結深度等を考慮し、実情に
  7
01
100
AcDbText
  0
TEXT
  5
1D3B3
330
1D26B
100
AcDbEntity
  8
SUNPOU
100
AcDbText
 10
12937.33031466708
 20
1404.755209178765
 30
0.0
 40
120.0
  1
その他現地の実情にあわせて設計して下さい。
  7
01
100
AcDbText
  0
TEXT
  5
1D3B4
330
1D26B
100
AcDbEntity
  8
SUNPOU
100
AcDbText
 10
12937.33031466708
 20
1610.469494893048
 30
0.0
 40
120.0
  1
あわせて設計して下さい。
  7
01
100
AcDbText
  0
TEXT
  5
1D3B5
330
1D26B
100
AcDbEntity
  8
HIKIDASHI
100
AcDbText
 10
12758.66250414054
 20
2307.009241267407
 30
0.0
 40
180.0
  1
・オールアンカーで施工した場合
 41
0.9
  7
01
 72
     4
 11
14222.06250414054
 21
2397.009241267407
 31
0.0
100
AcDbText
  0
LINE
  5
1D3B6
330
1D26B
100
AcDbEntity
  8
U1
100
AcDbLine
 10
14728.84203862246
 20
3369.739597635554
 30
0.0
 11
13408.8420386213
 21
3369.739597635554
 31
0.0
  0
LINE
  5
1D3B7
330
1D26B
100
AcDbEntity
  8
U1
100
AcDbLine
 10
14728.84203862246
 20
3069.739597635555
 30
0.0
 11
13408.8420386213
 21
3069.739597635555
 31
0.0
  0
TEXT
  5
1D3B8
330
1D26B
100
AcDbEntity
  8
HIKIDASHI
100
AcDbText
 10
12931.33378584427
 20
2102.000000000006
 30
0.0
 40
120.0
  1
（　　　寸法は、各断面に準ずること。）
  7
01
100
AcDbText
  0
LINE
  5
1D3B9
330
1D26B
100
AcDbEntity
  8
U1
100
AcDbLine
 10
12270.66757168817
 20
2042.000000000006
 30
0.0
 11
16232.00000000022
 21
2042.000000000006
 31
0.0
  0
LINE
  5
1D3BA
330
1D26B
100
AcDbEntity
  8
U1
100
AcDbLine
 10
16232.00000000022
 20
6030.810120419381
 30
0.0
 11
12270.66757168817
 21
6030.810120419381
 31
0.0
  0
TEXT
  5
1D3BB
330
1D26B
100
AcDbEntity
  8
HIKIDASHI
100
AcDbText
 10
16054.89717245735
 20
5704.216827798816
 30
0.0
 40
120.0
  1
N
 41
0.6666666666666666
  7
00
 72
     2
 11
16123.46860102877
 21
5704.216827798816
 31
0.0
100
AcDbText
  0
ARC
  5
1D3BC
330
1D26B
100
AcDbEntity
  8
HIKIDASHI
100
AcDbCircle
 10
16012.00401321158
 20
4785.159667611448
 30
0.0
 40
11.99999999997096
100
AcDbArc
 50
15.14038701513348
 51
164.8596129848663
  0
ARC
  5
1D3BD
330
1D26B
100
AcDbEntity
  8
HIKIDASHI
100
AcDbCircle
 10
15927.05860189511
 20
4762.175388281895
 30
0.0
 40
100.0000000000144
100
AcDbArc
 50
301.7712278331194
 51
15.14038701493228
  0
ARC
  5
1D3BE
330
1D26B
100
AcDbEntity
  8
HIKIDASHI
100
AcDbCircle
 10
16096.94942452781
 20
4762.175388281909
 30
0.0
 40
99.99999999999772
100
AcDbArc
 50
164.8596129850677
 51
238.2287721668805
  0
TEXT
  5
1D3BF
330
1D26B
100
AcDbEntity
  8
HIKIDASHI
100
AcDbText
 10
15624.11106585593
 20
4696.738499327249
 30
0.0
 40
120.0
  1
x
 41
0.6666666666666666
  7
00
 72
     1
 11
15656.49201823688
 21
4756.73849932725
 31
0.0
100
AcDbText
 73
     2
  0
TEXT
  5
1D3C0
330
1D26B
100
AcDbEntity
  8
HIKIDASHI
100
AcDbText
 10
15713.3040584456
 20
4677.159667611451
 30
0.0
 40
120.0
  1
350
 41
0.6666666666666666
  7
00
 72
     2
 11
15930.44691558846
 21
4677.159667611451
 31
0.0
100
AcDbText
  0
TEXT
  5
1D3C1
330
1D26B
100
AcDbEntity
  8
HIKIDASHI
100
AcDbText
 10
15357.7998488136
 20
4677.159667611451
 30
0.0
 40
120.0
  1
10
 41
0.6666666666666666
  7
00
 72
     2
 11
15498.75222976599
 21
4677.159667611451
 31
0.0
100
AcDbText
  0
TEXT
  5
1D3C2
330
1D26B
100
AcDbEntity
  8
HIKIDASHI
100
AcDbText
 10
15537.96602504594
 20
4695.807332192715
 30
0.0
 40
119.9999987999998
  1
%%c 
 41
0.6700000000000001
  7
00
100
AcDbText
  0
TEXT
  5
1D3C3
330
1D26B
100
AcDbEntity
  8
HIKIDASHI
100
AcDbText
 10
15060.62412801466
 20
4677.159667611451
 30
0.0
 40
120.0
  1
鉄筋
  7
01
 72
     2
 11
15316.62412801466
 21
4677.159667611451
 31
0.0
100
AcDbText
  0
LINE
  5
1D3C4
330
1D26B
100
AcDbEntity
  8
HIKIDASHI
100
AcDbLine
 10
15030.25641748321
 20
4617.159667611447
 30
0.0
 11
16083.96001708915
 21
4617.159667611447
 31
0.0
  0
ARC
  5
1D3C5
330
1D26B
100
AcDbEntity
  8
A-PL
100
AcDbCircle
 10
14388.84203862246
 20
5343.46700206148
 30
0.0
 40
40.0
100
AcDbArc
 50
0.0
 51
90.0
  0
ARC
  5
1D3C6
330
1D26B
100
AcDbEntity
  8
A-PL
100
AcDbCircle
 10
14388.84203862246
 20
5063.46700206148
 30
0.0
 40
40.0
100
AcDbArc
 50
270.0
 51
0.0
  0
LINE
  5
1D3C7
330
1D26B
100
AcDbEntity
  8
BOLT
100
AcDbLine
 10
14340.78134885174
 20
5241.467002061583
 30
0.0
 11
14362.720659081
 21
5203.46700206148
 31
0.0
  0
LINE
  5
1D3C8
330
1D26B
100
AcDbEntity
  8
BOLT
100
AcDbLine
 10
14340.78134885174
 20
5165.467002061385
 30
0.0
 11
14362.720659081
 21
5203.46700206148
 31
0.0
  0
LINE
  5
1D3C9
330
1D26B
100
AcDbEntity
  8
A-PL
100
AcDbLine
 10
14428.84203862246
 20
5343.46700206148
 30
0.0
 11
14428.84203862246
 21
5063.46700206148
 31
0.0
  0
LINE
  5
1D3CA
330
1D26B
100
AcDbEntity
  8
A-PL
  6
1PL-S
 62
     6
100
AcDbLine
 10
14318.84203862246
 20
5123.467002061481
 30
0.0
 11
14318.84203862246
 21
5283.46700206148
 31
0.0
  0
ARC
  5
1D3CB
330
1D26B
100
AcDbEntity
  8
BOLT
100
AcDbCircle
 10
14058.84203862247
 20
5514.60963339563
 30
0.0
 40
11.99999999995384
100
AcDbArc
 50
33.5573097616854
 51
146.4426902383145
  0
ARC
  5
1D3CC
330
1D26B
100
AcDbEntity
  8
BOLT
100
AcDbCircle
 10
14058.84203862247
 20
5527.876132556967
 30
0.0
 40
12.00000000000009
100
AcDbArc
 50
213.557309761859
 51
326.4426902381409
  0
ARC
  5
1D3CD
330
1D26B
100
AcDbEntity
  8
BOLT
100
AcDbCircle
 10
14078.84203862246
 20
5514.609633395543
 30
0.0
 40
12.00000000000009
100
AcDbArc
 50
33.55730976185911
 51
146.4426902381408
  0
LINE
  5
1D3CE
330
1D26B
100
AcDbEntity
  8
A-PL
100
AcDbLine
 10
14212.84203862246
 20
5383.46700206148
 30
0.0
 11
14212.84203862246
 21
5373.467002061481
 31
0.0
  0
ARC
  5
1D3CF
330
1D26B
100
AcDbEntity
  8
HASHIRA
100
AcDbCircle
 10
14218.04203862254
 20
5352.667002061469
 30
0.0
 40
20.8
100
AcDbArc
 50
0.0
 51
90.0
  0
ARC
  5
1D3D0
330
1D26B
100
AcDbEntity
  8
A-PL
100
AcDbCircle
 10
14194.84203862259
 20
5341.467002061481
 30
0.0
 40
18.0
100
AcDbArc
 50
180.0
 51
0.0
  0
LINE
  5
1D3D1
330
1D26B
100
AcDbEntity
  8
A-PL
100
AcDbLine
 10
14212.84203862246
 20
5364.267002061482
 30
0.0
 11
14212.84203862246
 21
5341.467002061481
 31
0.0
  0
ARC
  5
1D3D2
330
1D26B
100
AcDbEntity
  8
HASHIRA
100
AcDbCircle
 10
14218.04203862254
 20
5352.667002061469
 30
0.0
 40
11.59999999999999
100
AcDbArc
 50
0.0
 51
90.0
  0
LINE
  5
1D3D3
330
1D26B
100
AcDbEntity
  8
A-PL
100
AcDbLine
 10
14176.84203862259
 20
5363.46700206148
 30
0.0
 11
14176.84203862259
 21
5341.467002061481
 31
0.0
  0
LINE
  5
1D3D4
330
1D26B
100
AcDbEntity
  8
HASHIRA
100
AcDbLine
 10
14098.84203862246
 20
5364.267002061482
 30
0.0
 11
14098.84203862246
 21
5373.467002061481
 31
0.0
  0
LINE
  5
1D3D5
330
1D26B
100
AcDbEntity
  8
HASHIRA
100
AcDbLine
 10
14038.84203862247
 20
5364.267002061482
 30
0.0
 11
14038.84203862247
 21
5373.467002061481
 31
0.0
  0
LINE
  5
1D3D6
330
1D26B
100
AcDbEntity
  8
A-PL
100
AcDbLine
 10
14088.84203862246
 20
5339.467002061472
 30
0.0
 11
14176.95349480258
 21
5339.467002061472
 31
0.0
  0
LINE
  5
1D3D7
330
1D26B
100
AcDbEntity
  8
A-PL
100
AcDbLine
 10
14088.84203862246
 20
5363.46700206148
 30
0.0
 11
14176.84203862259
 21
5363.46700206148
 31
0.0
  0
LINE
  5
1D3D8
330
1D26B
100
AcDbEntity
  8
HASHIRA
100
AcDbLine
 10
14218.04203862254
 20
5364.267002061482
 30
0.0
 11
14088.84203862246
 21
5364.267002061482
 31
0.0
  0
LINE
  5
1D3D9
330
1D26B
100
AcDbEntity
  8
HASHIRA
100
AcDbLine
 10
14218.04203862254
 20
5373.467002061481
 30
0.0
 11
14088.84203862246
 21
5373.467002061481
 31
0.0
  0
LINE
  5
1D3DA
330
1D26B
100
AcDbEntity
  8
HASHIRA
100
AcDbLine
 10
14238.84203862246
 20
5054.267002061482
 30
0.0
 11
14238.84203862246
 21
5173.467002061481
 31
0.0
  0
LINE
  5
1D3DB
330
1D26B
100
AcDbEntity
  8
HASHIRA
100
AcDbLine
 10
14229.64203862264
 20
5054.267002061482
 30
0.0
 11
14229.64203862264
 21
5173.467002061481
 31
0.0
  0
ARC
  5
1D3DC
330
1D26B
100
AcDbEntity
  8
A-PL
100
AcDbCircle
 10
14194.84203862259
 20
5065.46700206148
 30
0.0
 40
18.0
100
AcDbArc
 50
0.0
 51
180.0
  0
LINE
  5
1D3DD
330
1D26B
100
AcDbEntity
  8
A-PL
100
AcDbLine
 10
14212.84203862246
 20
5023.46700206148
 30
0.0
 11
14212.84203862246
 21
5033.46700206148
 31
0.0
  0
LINE
  5
1D3DE
330
1D26B
100
AcDbEntity
  8
A-PL
100
AcDbLine
 10
14176.84203862259
 20
5043.46700206148
 30
0.0
 11
14176.84203862259
 21
5065.46700206148
 31
0.0
  0
LINE
  5
1D3DF
330
1D26B
100
AcDbEntity
  8
A-PL
100
AcDbLine
 10
14212.84203862246
 20
5042.667002061469
 30
0.0
 11
14212.84203862246
 21
5065.46700206148
 31
0.0
  0
ARC
  5
1D3E0
330
1D26B
100
AcDbEntity
  8
HASHIRA
100
AcDbCircle
 10
14218.04203862254
 20
5054.267002061482
 30
0.0
 40
11.59999999999999
100
AcDbArc
 50
270.0
 51
0.0
  0
ARC
  5
1D3E1
330
1D26B
100
AcDbEntity
  8
HASHIRA
100
AcDbCircle
 10
14218.04203862254
 20
5054.267002061482
 30
0.0
 40
20.8
100
AcDbArc
 50
270.0
 51
0.0
  0
LINE
  5
1D3E2
330
1D26B
100
AcDbEntity
  8
HASHIRA
100
AcDbLine
 10
14202.84203862246
 20
5221.867002061474
 30
0.0
 11
14172.64203862252
 21
5221.867002061474
 31
0.0
  0
LINE
  5
1D3E3
330
1D26B
100
AcDbEntity
  8
HASHIRA
100
AcDbLine
 10
14208.84203862246
 20
5212.667002061469
 30
0.0
 11
14172.64203862252
 21
5212.667002061469
 31
0.0
  0
LINE
  5
1D3E4
330
1D26B
100
AcDbEntity
  8
HASHIRA
100
AcDbLine
 10
14202.84203862246
 20
5221.867002061474
 30
0.0
 11
14202.84203862246
 21
5212.667002061469
 31
0.0
  0
LINE
  5
1D3E5
330
1D26B
100
AcDbEntity
  8
HASHIRA
100
AcDbLine
 10
14208.84203862246
 20
5203.46700206148
 30
0.0
 11
14172.64203862252
 21
5203.46700206148
 31
0.0
  0
ARC
  5
1D3E6
330
1D26B
100
AcDbEntity
  8
HASHIRA
100
AcDbCircle
 10
14172.64203862252
 20
5208.067002061471
 30
0.0
 40
4.600000000000001
100
AcDbArc
 50
90.0
 51
270.0
  0
ARC
  5
1D3E7
330
1D26B
100
AcDbEntity
  8
HASHIRA
100
AcDbCircle
 10
14208.84203862246
 20
5233.46700206148
 30
0.0
 40
20.8
100
AcDbArc
 50
270.0
 51
0.0
  0
LINE
  5
1D3E8
330
1D26B
100
AcDbEntity
  8
HASHIRA
100
AcDbLine
 10
14177.2420386225
 20
5212.667002061469
 30
0.0
 11
14177.2420386225
 21
5203.46700206148
 31
0.0
  0
LINE
  5
1D3E9
330
1D26B
100
AcDbEntity
  8
BOLT
100
AcDbLine
 10
14296.90272839332
 20
5241.467002061583
 30
0.0
 11
14274.96341816417
 21
5203.46700206148
 31
0.0
  0
LINE
  5
1D3EA
330
1D26B
100
AcDbEntity
  8
HASHIRA
100
AcDbLine
 10
14208.84203862246
 20
5194.267002061483
 30
0.0
 11
14172.64203862252
 21
5194.267002061483
 31
0.0
  0
ARC
  5
1D3EB
330
1D26B
100
AcDbEntity
  8
HASHIRA
100
AcDbCircle
 10
14172.64203862252
 20
5208.067002061471
 30
0.0
 40
13.8
100
AcDbArc
 50
90.0
 51
270.0
  0
ARC
  5
1D3EC
330
1D26B
100
AcDbEntity
  8
HASHIRA
100
AcDbCircle
 10
14208.84203862246
 20
5233.46700206148
 30
0.0
 40
30.0
100
AcDbArc
 50
270.0
 51
0.0
  0
LINE
  5
1D3ED
330
1D26B
100
AcDbEntity
  8
BOLT
100
AcDbLine
 10
14296.90272839332
 20
5165.467002061385
 30
0.0
 11
14274.96341816417
 21
5203.46700206148
 31
0.0
  0
ARC
  5
1D3EE
330
1D26B
100
AcDbEntity
  8
HASHIRA
100
AcDbCircle
 10
14208.84203862246
 20
5173.467002061481
 30
0.0
 40
20.8
100
AcDbArc
 50
0.0
 51
90.0
  0
ARC
  5
1D3EF
330
1D26B
100
AcDbEntity
  8
HASHIRA
100
AcDbCircle
 10
14208.84203862246
 20
5173.467002061481
 30
0.0
 40
30.0
100
AcDbArc
 50
0.0
 51
90.0
  0
LINE
  5
1D3F0
330
1D26B
100
AcDbEntity
  8
HASHIRA
100
AcDbLine
 10
14098.84203862246
 20
5033.46700206148
 30
0.0
 11
14098.84203862246
 21
5042.667002061469
 31
0.0
  0
LINE
  5
1D3F1
330
1D26B
100
AcDbEntity
  8
HASHIRA
100
AcDbLine
 10
14038.84203862247
 20
5033.46700206148
 30
0.0
 11
14038.84203862247
 21
5042.667002061469
 31
0.0
  0
LINE
  5
1D3F2
330
1D26B
100
AcDbEntity
  8
A-PL
100
AcDbLine
 10
14088.84203862246
 20
5067.46700206148
 30
0.0
 11
14176.95349480258
 21
5067.46700206148
 31
0.0
  0
LINE
  5
1D3F3
330
1D26B
100
AcDbEntity
  8
A-PL
100
AcDbLine
 10
14088.84203862246
 20
5043.46700206148
 30
0.0
 11
14176.84203862259
 21
5043.46700206148
 31
0.0
  0
LINE
  5
1D3F4
330
1D26B
100
AcDbEntity
  8
HASHIRA
100
AcDbLine
 10
14088.84203862246
 20
5042.667002061469
 30
0.0
 11
14218.04203862254
 21
5042.667002061469
 31
0.0
  0
LINE
  5
1D3F5
330
1D26B
100
AcDbEntity
  8
HASHIRA
100
AcDbLine
 10
14088.84203862246
 20
5033.46700206148
 30
0.0
 11
14218.04203862254
 21
5033.46700206148
 31
0.0
  0
LINE
  5
1D3F6
330
1D26B
100
AcDbEntity
  8
HASHIRA
100
AcDbLine
 10
14238.84203862246
 20
5233.46700206148
 30
0.0
 11
14238.84203862246
 21
5352.667002061469
 31
0.0
  0
LINE
  5
1D3F7
330
1D26B
100
AcDbEntity
  8
HASHIRA
100
AcDbLine
 10
14229.64203862264
 20
5233.46700206148
 30
0.0
 11
14229.64203862264
 21
5352.667002061469
 31
0.0
  0
LINE
  5
1D3F8
330
1D26B
100
AcDbEntity
  8
A-PL
100
AcDbLine
 10
13924.84203862259
 20
5383.46700206148
 30
0.0
 11
13924.84203862259
 21
5373.467002061481
 31
0.0
  0
ARC
  5
1D3F9
330
1D26B
100
AcDbEntity
  8
HASHIRA
100
AcDbCircle
 10
13919.64203862264
 20
5352.667002061469
 30
0.0
 40
20.8
100
AcDbArc
 50
90.0
 51
180.0
  0
ARC
  5
1D3FA
330
1D26B
100
AcDbEntity
  8
A-PL
100
AcDbCircle
 10
13942.84203862247
 20
5341.467002061481
 30
0.0
 40
18.0
100
AcDbArc
 50
180.0
 51
0.0
  0
LINE
  5
1D3FB
330
1D26B
100
AcDbEntity
  8
A-PL
100
AcDbLine
 10
13924.84203862259
 20
5364.267002061482
 30
0.0
 11
13924.84203862259
 21
5341.467002061481
 31
0.0
  0
LINE
  5
1D3FC
330
1D26B
100
AcDbEntity
  8
A-PL
100
AcDbLine
 10
13960.84203862258
 20
5341.467002061481
 30
0.0
 11
13960.84203862258
 21
5363.46700206148
 31
0.0
  0
ARC
  5
1D3FD
330
1D26B
100
AcDbEntity
  8
HASHIRA
100
AcDbCircle
 10
13919.64203862264
 20
5352.667002061469
 30
0.0
 40
11.59999999999999
100
AcDbArc
 50
90.0
 51
180.0
  0
ARC
  5
1D3FE
330
1D26B
100
AcDbEntity
  8
A-PL
100
AcDbCircle
 10
13748.84203862247
 20
5343.46700206148
 30
0.0
 40
40.0
100
AcDbArc
 50
90.0
 51
180.0
  0
LINE
  5
1D3FF
330
1D26B
100
AcDbEntity
  8
A-PL
100
AcDbLine
 10
13748.84203862247
 20
5383.46700206148
 30
0.0
 11
13924.84203862259
 21
5383.46700206148
 31
0.0
  0
ARC
  5
1D400
330
1D26B
100
AcDbEntity
  8
A-PL
100
AcDbCircle
 10
13942.84203862247
 20
5065.46700206148
 30
0.0
 40
18.0
100
AcDbArc
 50
0.0
 51
180.0
  0
LINE
  5
1D401
330
1D26B
100
AcDbEntity
  8
A-PL
100
AcDbLine
 10
13924.84203862259
 20
5023.46700206148
 30
0.0
 11
13924.84203862259
 21
5033.46700206148
 31
0.0
  0
LINE
  5
1D402
330
1D26B
100
AcDbEntity
  8
A-PL
100
AcDbLine
 10
13924.84203862259
 20
5042.667002061469
 30
0.0
 11
13924.84203862259
 21
5065.46700206148
 31
0.0
  0
LINE
  5
1D403
330
1D26B
100
AcDbEntity
  8
A-PL
100
AcDbLine
 10
13960.84203862258
 20
5065.46700206148
 30
0.0
 11
13960.84203862258
 21
5043.46700206148
 31
0.0
  0
ARC
  5
1D404
330
1D26B
100
AcDbEntity
  8
HASHIRA
100
AcDbCircle
 10
13919.64203862264
 20
5054.267002061482
 30
0.0
 40
20.8
100
AcDbArc
 50
180.0
 51
270.0
  0
ARC
  5
1D405
330
1D26B
100
AcDbEntity
  8
HASHIRA
100
AcDbCircle
 10
13919.64203862264
 20
5054.267002061482
 30
0.0
 40
20.8
100
AcDbArc
 50
180.0
 51
270.0
  0
ARC
  5
1D406
330
1D26B
100
AcDbEntity
  8
HASHIRA
100
AcDbCircle
 10
13919.64203862264
 20
5054.267002061482
 30
0.0
 40
11.59999999999999
100
AcDbArc
 50
180.0
 51
270.0
  0
LINE
  5
1D407
330
1D26B
100
AcDbEntity
  8
BOLT
100
AcDbLine
 10
13840.78134885174
 20
5241.467002061583
 30
0.0
 11
13862.720659081
 21
5203.46700206148
 31
0.0
  0
LINE
  5
1D408
330
1D26B
100
AcDbEntity
  8
BOLT
100
AcDbLine
 10
13840.78134885174
 20
5165.467002061385
 30
0.0
 11
13862.720659081
 21
5203.46700206148
 31
0.0
  0
ARC
  5
1D409
330
1D26B
100
AcDbEntity
  8
A-PL
100
AcDbCircle
 10
13748.84203862247
 20
5063.46700206148
 30
0.0
 40
40.0
100
AcDbArc
 50
180.0
 51
270.0
  0
LINE
  5
1D40A
330
1D26B
100
AcDbEntity
  8
BOLT
100
AcDbLine
 10
13796.90272839332
 20
5241.467002061583
 30
0.0
 11
13774.96341816417
 21
5203.46700206148
 31
0.0
  0
LINE
  5
1D40B
330
1D26B
100
AcDbEntity
  8
BOLT
100
AcDbLine
 10
13796.90272839332
 20
5165.467002061385
 30
0.0
 11
13774.96341816417
 21
5203.46700206148
 31
0.0
  0
LINE
  5
1D40C
330
1D26B
100
AcDbEntity
  8
A-PL
100
AcDbLine
 10
13924.84203862259
 20
5023.46700206148
 30
0.0
 11
13748.84203862247
 21
5023.46700206148
 31
0.0
  0
LINE
  5
1D40D
330
1D26B
100
AcDbEntity
  8
BOLT
100
AcDbLine
 10
13796.90272839332
 20
5241.467002061583
 30
0.0
 11
13840.78134885174
 21
5241.467002061583
 31
0.0
  0
LINE
  5
1D40E
330
1D26B
100
AcDbEntity
  8
BOLT
100
AcDbLine
 10
13840.78134885174
 20
5165.467002061385
 30
0.0
 11
13796.90272839332
 21
5165.467002061385
 31
0.0
  0
CIRCLE
  5
1D40F
330
1D26B
100
AcDbEntity
  8
BOLT
100
AcDbCircle
 10
13818.84203862247
 20
5203.46700206148
 30
0.0
 40
38.00000000009453
  0
CIRCLE
  5
1D410
330
1D26B
100
AcDbEntity
  8
BOLT
100
AcDbCircle
 10
13818.84203862247
 20
5203.46700206148
 30
0.0
 40
26.0
  0
LINE
  5
1D411
330
1D26B
100
AcDbEntity
  8
HASHIRA
100
AcDbLine
 10
13908.04203862254
 20
5352.667002061469
 30
0.0
 11
13908.04203862254
 21
5054.267002061482
 31
0.0
  0
LINE
  5
1D412
330
1D26B
100
AcDbEntity
  8
HASHIRA
100
AcDbLine
 10
13898.84203862247
 20
5352.667002061469
 30
0.0
 11
13898.84203862247
 21
5054.267002061482
 31
0.0
  0
LINE
  5
1D413
330
1D26B
100
AcDbEntity
  8
A-PL
100
AcDbLine
 10
13708.84203862247
 20
5063.46700206148
 30
0.0
 11
13708.84203862247
 21
5343.46700206148
 31
0.0
  0
CIRCLE
  5
1D414
330
1D26B
100
AcDbEntity
  8
BOLT
100
AcDbCircle
 10
13818.84203862247
 20
5203.46700206148
 30
0.0
 40
60.0
  0
LINE
  5
1D415
330
1D26B
100
AcDbEntity
  8
A-PL
  6
1PL-S
 62
     6
100
AcDbLine
 10
13818.84203862247
 20
5123.467002061481
 30
0.0
 11
13818.84203862247
 21
5283.46700206148
 31
0.0
  0
LINE
  5
1D416
330
1D26B
100
AcDbEntity
  8
HASHIRA
100
AcDbLine
 10
13919.64203862264
 20
5042.667002061469
 30
0.0
 11
14048.84203862247
 21
5042.667002061469
 31
0.0
  0
LINE
  5
1D417
330
1D26B
100
AcDbEntity
  8
HASHIRA
100
AcDbLine
 10
13919.64203862264
 20
5033.46700206148
 30
0.0
 11
14048.84203862247
 21
5033.46700206148
 31
0.0
  0
LINE
  5
1D418
330
1D26B
100
AcDbEntity
  8
A-PL
100
AcDbLine
 10
13960.84203862258
 20
5043.46700206148
 30
0.0
 11
14048.84203862247
 21
5043.46700206148
 31
0.0
  0
LINE
  5
1D419
330
1D26B
100
AcDbEntity
  8
A-PL
100
AcDbLine
 10
13960.73058244247
 20
5067.46700206148
 30
0.0
 11
14048.84203862247
 21
5067.46700206148
 31
0.0
  0
LINE
  5
1D41A
330
1D26B
100
AcDbEntity
  8
HASHIRA
100
AcDbLine
 10
14048.84203862247
 20
5364.267002061482
 30
0.0
 11
13919.64203862264
 21
5364.267002061482
 31
0.0
  0
LINE
  5
1D41B
330
1D26B
100
AcDbEntity
  8
HASHIRA
100
AcDbLine
 10
14048.84203862247
 20
5373.467002061481
 30
0.0
 11
13919.64203862264
 21
5373.467002061481
 31
0.0
  0
LINE
  5
1D41C
330
1D26B
100
AcDbEntity
  8
A-PL
100
AcDbLine
 10
13960.73058244247
 20
5339.467002061472
 30
0.0
 11
14048.84203862247
 21
5339.467002061472
 31
0.0
  0
LINE
  5
1D41D
330
1D26B
100
AcDbEntity
  8
A-PL
100
AcDbLine
 10
13960.84203862258
 20
5363.46700206148
 30
0.0
 11
14048.84203862247
 21
5363.46700206148
 31
0.0
  0
LINE
  5
1D41E
330
1D26B
100
AcDbEntity
  8
BOLT
100
AcDbLine
 10
14340.78134885174
 20
5241.467002061583
 30
0.0
 11
14296.90272839332
 21
5241.467002061583
 31
0.0
  0
LINE
  5
1D41F
330
1D26B
100
AcDbEntity
  8
A-PL
100
AcDbLine
 10
14212.84203862246
 20
5383.46700206148
 30
0.0
 11
14388.84203862246
 21
5383.46700206148
 31
0.0
  0
LINE
  5
1D420
330
1D26B
100
AcDbEntity
  8
BOLT
100
AcDbLine
 10
14296.90272839332
 20
5165.467002061385
 30
0.0
 11
14340.78134885174
 21
5165.467002061385
 31
0.0
  0
LINE
  5
1D421
330
1D26B
100
AcDbEntity
  8
A-PL
100
AcDbLine
 10
14388.84203862246
 20
5023.46700206148
 30
0.0
 11
14212.84203862246
 21
5023.46700206148
 31
0.0
  0
CIRCLE
  5
1D422
330
1D26B
100
AcDbEntity
  8
BOLT
100
AcDbCircle
 10
14318.84203862246
 20
5203.46700206148
 30
0.0
 40
60.0
  0
CIRCLE
  5
1D423
330
1D26B
100
AcDbEntity
  8
BOLT
100
AcDbCircle
 10
14318.84203862246
 20
5203.46700206148
 30
0.0
 40
26.0
  0
CIRCLE
  5
1D424
330
1D26B
100
AcDbEntity
  8
BOLT
100
AcDbCircle
 10
14318.84203862246
 20
5203.46700206148
 30
0.0
 40
38.00000000009453
  0
ARC
  5
1D425
330
1D26B
100
AcDbEntity
  8
BOLT
100
AcDbCircle
 10
14058.84203862247
 20
4938.040761533565
 30
0.0
 40
12.00000000000009
100
AcDbArc
 50
213.557309761859
 51
326.4426902381409
  0
ARC
  5
1D426
330
1D26B
100
AcDbEntity
  8
BOLT
100
AcDbCircle
 10
14078.84203862246
 20
4938.040761533478
 30
0.0
 40
11.99999999995384
100
AcDbArc
 50
213.5573097616853
 51
326.4426902383145
  0
ARC
  5
1D427
330
1D26B
100
AcDbEntity
  8
BOLT
100
AcDbCircle
 10
14078.84203862246
 20
4924.774262372149
 30
0.0
 40
12.00000000000009
100
AcDbArc
 50
33.55730976185911
 51
146.4426902381408
  0
ARC
  5
1D428
330
1D26B
100
AcDbEntity
  8
HASHIRA
100
AcDbCircle
 10
14153.84203862201
 20
4516.014423121058
 30
0.0
 40
102.0
100
AcDbArc
 50
33.55730976185911
 51
146.4426902381408
  0
LINE
  5
1D429
330
1D26B
100
AcDbEntity
  8
HASHIRA
100
AcDbLine
 10
14074.84203862258
 20
4317.739597635561
 30
0.0
 11
14062.84203862247
 21
4317.739597635561
 31
0.0
  0
LINE
  5
1D42A
330
1D26B
100
AcDbEntity
  8
A-PL
  6
HIDE-M
 62
     6
100
AcDbLine
 10
14000.84203862259
 20
4093.739597635546
 30
0.0
 11
14136.84203862259
 21
4093.739597635546
 31
0.0
  0
LINE
  5
1D42B
330
1D26B
100
AcDbEntity
  8
HASHIRA
  6
1PL-S
 62
     6
100
AcDbLine
 10
13998.84203862247
 20
4293.739597635545
 30
0.0
 11
14138.84203862246
 21
4293.739597635545
 31
0.0
  0
LINE
  5
1D42C
330
1D26B
100
AcDbEntity
  8
HASHIRA
100
AcDbLine
 10
14062.84203862247
 20
4269.739597635569
 30
0.0
 11
14074.84203862258
 21
4269.739597635569
 31
0.0
  0
CIRCLE
  5
1D42D
330
1D26B
100
AcDbEntity
  8
BOLT
100
AcDbCircle
 10
14068.84203862247
 20
4293.739597635545
 30
0.0
 40
20.0
  0
ARC
  5
1D42E
330
1D26B
100
AcDbEntity
  8
HASHIRA
100
AcDbCircle
 10
14062.84203862247
 20
4293.739597635545
 30
0.0
 40
24.0
100
AcDbArc
 50
90.0
 51
270.0
  0
ARC
  5
1D42F
330
1D26B
100
AcDbEntity
  8
HASHIRA
100
AcDbCircle
 10
14074.84203862258
 20
4293.739597635545
 30
0.0
 40
24.0
100
AcDbArc
 50
270.0
 51
90.0
  0
ARC
  5
1D430
330
1D26B
100
AcDbEntity
  8
HASHIRA
100
AcDbCircle
 10
13983.842038622
 20
4628.779665993141
 30
0.0
 40
102.0
100
AcDbArc
 50
213.557309761859
 51
326.4426902381409
  0
LINE
  5
1D431
330
1D26B
100
AcDbEntity
  8
U1
100
AcDbLine
 10
14238.84203862246
 20
4419.739597635554
 30
0.0
 11
14628.84203862246
 21
4419.739597635554
 31
0.0
  0
LINE
  5
1D432
330
1D26B
100
AcDbEntity
  8
U3
100
AcDbLine
 10
14472.66140959039
 20
4419.739597635554
 30
0.0
 11
14238.84203862246
 21
4185.920226667739
 31
0.0
  0
LINE
  5
1D433
330
1D26B
100
AcDbEntity
  8
U3
100
AcDbLine
 10
14529.2299520853
 20
4419.739597635554
 30
0.0
 11
14238.84203862246
 21
4129.351684172791
 31
0.0
  0
LINE
  5
1D434
330
1D26B
100
AcDbEntity
  8
A-PL
  6
1PL-SL
 62
     6
100
AcDbLine
 10
14068.84203862247
 20
4925.617320595431
 30
0.0
 11
14068.84203862247
 21
5621.242882976337
 31
0.0
  0
LINE
  5
1D435
330
1D26B
100
AcDbEntity
  8
BOLT
100
AcDbLine
 10
14048.84203862247
 20
4931.407511952921
 30
0.0
 11
14048.84203862247
 21
5521.242882976191
 31
0.0
  0
LINE
  5
1D436
330
1D26B
100
AcDbEntity
  8
BOLT
100
AcDbLine
 10
14088.84203862246
 20
5521.242882976191
 30
0.0
 11
14088.84203862246
 21
4931.407511952921
 31
0.0
  0
TEXT
  5
1D437
330
1D26B
100
AcDbEntity
  8
HIKIDASHI
100
AcDbText
 10
14878.8971724573
 20
5704.216827798816
 30
0.0
 40
120.0
  1
アンカープレート
  7
01
 72
     2
 11
15974.8971724573
 21
5704.216827798816
 31
0.0
100
AcDbText
  0
LINE
  5
1D438
330
1D26B
100
AcDbEntity
  8
HIKIDASHI
100
AcDbLine
 10
14838.89717245742
 20
5644.216827798818
 30
0.0
 11
16163.46860102877
 21
5644.216827798818
 31
0.0
  0
TEXT
  5
1D439
330
1D26B
100
AcDbEntity
  8
HIKIDASHI
100
AcDbText
 10
14806.50709528359
 20
5464.216827798818
 30
0.0
 40
120.0
  1
（仮組み用）
  7
01
 72
     2
 11
15574.50709528359
 21
5464.216827798818
 31
0.0
100
AcDbText
  0
LINE
  5
1D43A
330
1D26B
100
AcDbEntity
  8
U3
100
AcDbLine
 10
14628.84203862246
 20
3792.029796115232
 30
0.0
 11
14506.55184014281
 21
3669.739597635554
 31
0.0
  0
LINE
  5
1D43B
330
1D26B
100
AcDbEntity
  8
BOLT
100
AcDbLine
 10
14344.84203862258
 20
3737.739597635561
 30
0.0
 11
14344.84203862258
 21
3793.739597635549
 31
0.0
  0
LINE
  5
1D43C
330
1D26B
100
AcDbEntity
  8
BOLT
100
AcDbLine
 10
14362.720659081
 20
3705.739597635555
 30
0.0
 11
14362.720659081
 21
3733.19087399305
 31
0.0
  0
LINE
  5
1D43D
330
1D26B
100
AcDbEntity
  8
BOLT
100
AcDbLine
 10
14340.78134885174
 20
3705.739597635555
 30
0.0
 11
14340.78134885174
 21
3733.19087399305
 31
0.0
  0
LINE
  5
1D43E
330
1D26B
100
AcDbEntity
  8
A-PL
100
AcDbLine
 10
14428.84203862246
 20
3693.739597635548
 30
0.0
 11
14428.84203862246
 21
3669.739597635554
 31
0.0
  0
LINE
  5
1D43F
330
1D26B
100
AcDbEntity
  8
BOLT
100
AcDbLine
 10
14378.84203862246
 20
3693.739597635548
 30
0.0
 11
14378.84203862246
 21
3705.739597635555
 31
0.0
  0
LINE
  5
1D440
330
1D26B
100
AcDbEntity
  8
A-PL
  6
HIDE-S
 62
     6
100
AcDbLine
 10
14368.84203862246
 20
3669.739597635554
 30
0.0
 11
14368.84203862246
 21
3693.739597635548
 31
0.0
  0
LINE
  5
1D441
330
1D26B
100
AcDbEntity
  8
A-PL
100
AcDbLine
 10
14428.84203862246
 20
3669.739597635554
 30
0.0
 11
14353.84203862246
 21
3669.739597635554
 31
0.0
  0
LINE
  5
1D442
330
1D26B
100
AcDbEntity
  8
BOLT
100
AcDbLine
 10
14326.74118847772
 20
3737.739597635561
 30
0.0
 11
14344.84203862258
 21
3742.589705814163
 31
0.0
  0
LINE
  5
1D443
330
1D26B
100
AcDbEntity
  8
BOLT
100
AcDbLine
 10
14362.720659081
 20
3733.19087399305
 30
0.0
 11
14354.84203862259
 21
3737.739597635561
 31
0.0
  0
ARC
  5
1D444
330
1D26B
100
AcDbEntity
  8
BOLT
100
AcDbCircle
 10
14351.75100396643
 20
3717.16064420918
 30
0.0
 40
19.42425288801392
100
AcDbArc
 50
55.61575253198192
 51
124.384247468018
  0
LINE
  5
1D445
330
1D26B
100
AcDbEntity
  8
BOLT
100
AcDbLine
 10
14340.84203862258
 20
3797.739597635561
 30
0.0
 11
14344.84203862258
 21
3793.739597635549
 31
0.0
  0
LINE
  5
1D446
330
1D26B
100
AcDbEntity
  8
U3
100
AcDbLine
 10
14628.84203862246
 20
3848.598338610143
 30
0.0
 11
14449.98329764779
 21
3669.739597635554
 31
0.0
  0
LINE
  5
1D447
330
1D26B
100
AcDbEntity
  8
U3
100
AcDbLine
 10
14628.84203862246
 20
3905.166881105076
 30
0.0
 11
14417.414755153
 21
3693.739597635548
 31
0.0
  0
LINE
  5
1D448
330
1D26B
100
AcDbEntity
  8
U1
100
AcDbLine
 10
14728.84203862246
 20
3669.739597635554
 30
0.0
 11
14353.84203862246
 21
3669.739597635554
 31
0.0
  0
ARC
  5
1D449
330
1D26B
100
AcDbEntity
  8
BOLT
100
AcDbCircle
 10
14318.84203862246
 20
3835.948872924318
 30
0.0
 40
224.9487986728452
100
AcDbArc
 50
271.0489282869711
 51
278.9510717129775
  0
ARC
  5
1D44A
330
1D26B
100
AcDbEntity
  8
BOLT
100
AcDbCircle
 10
14318.84203862246
 20
3609.250506376819
 30
0.0
 40
4.48909125874441
100
AcDbArc
 50
23.46162447304932
 51
156.5383755269506
  0
LINE
  5
1D44B
330
1D26B
100
AcDbEntity
  8
BOLT
100
AcDbLine
 10
14353.84203862246
 20
3613.739597635548
 30
0.0
 11
14353.84203862246
 21
3693.739597635548
 31
0.0
  0
LINE
  5
1D44C
330
1D26B
100
AcDbEntity
  8
U3
100
AcDbLine
 10
14645.95590528612
 20
3669.739597635568
 30
0.0
 11
14728.84203862246
 21
3586.853464299121
 31
0.0
  0
LINE
  5
1D44D
330
1D26B
100
AcDbEntity
  8
BOLT
100
AcDbLine
 10
14102.84203862246
 20
3974.109688483157
 30
0.0
 11
14102.84203862246
 21
4013.369506787967
 31
0.0
  0
LINE
  5
1D44E
330
1D26B
100
AcDbEntity
  8
BOLT
100
AcDbLine
 10
14034.84203862259
 20
4013.369506787967
 30
0.0
 11
14034.84203862259
 21
3974.109688483157
 31
0.0
  0
CIRCLE
  5
1D44F
330
1D26B
100
AcDbEntity
  8
BOLT
100
AcDbCircle
 10
14068.84203862247
 20
3993.739597635548
 30
0.0
 40
34.0
  0
LINE
  5
1D450
330
1D26B
100
AcDbEntity
  8
BOLT
100
AcDbLine
 10
14034.84203862259
 20
3974.109688483157
 30
0.0
 11
14068.84203862247
 21
3954.479779330767
 31
0.0
  0
LINE
  5
1D451
330
1D26B
100
AcDbEntity
  8
BOLT
100
AcDbLine
 10
14102.84203862246
 20
3974.109688483157
 30
0.0
 11
14068.84203862247
 21
3954.479779330767
 31
0.0
  0
LINE
  5
1D452
330
1D26B
100
AcDbEntity
  8
BOLT
100
AcDbLine
 10
14034.84203862259
 20
4013.369506787967
 30
0.0
 11
14068.84203862247
 21
4032.999415940365
 31
0.0
  0
LINE
  5
1D453
330
1D26B
100
AcDbEntity
  8
BOLT
100
AcDbLine
 10
14102.84203862246
 20
4013.369506787967
 30
0.0
 11
14068.84203862247
 21
4032.999415940365
 31
0.0
  0
LINE
  5
1D454
330
1D26B
100
AcDbEntity
  8
U3
100
AcDbLine
 10
14292.84203862246
 20
3791.406468896574
 30
0.0
 11
14238.84203862246
 21
3737.406468896558
 31
0.0
  0
LINE
  5
1D455
330
1D26B
100
AcDbEntity
  8
BOLT
100
AcDbLine
 10
14292.84203862246
 20
3737.739597635561
 30
0.0
 11
14292.84203862246
 21
3793.739597635549
 31
0.0
  0
LINE
  5
1D456
330
1D26B
100
AcDbEntity
  8
BOLT
100
AcDbLine
 10
14274.96341816417
 20
3733.19087399305
 30
0.0
 11
14274.96341816417
 21
3705.739597635555
 31
0.0
  0
LINE
  5
1D457
330
1D26B
100
AcDbEntity
  8
BOLT
100
AcDbLine
 10
14296.90272839332
 20
3705.739597635555
 30
0.0
 11
14296.90272839332
 21
3733.19087399305
 31
0.0
  0
LINE
  5
1D458
330
1D26B
100
AcDbEntity
  8
BOLT
100
AcDbLine
 10
14258.84203862246
 20
3705.739597635555
 30
0.0
 11
14258.84203862246
 21
3693.739597635548
 31
0.0
  0
LINE
  5
1D459
330
1D26B
100
AcDbEntity
  8
A-PL
  6
HIDE-S
 62
     6
100
AcDbLine
 10
14268.84203862246
 20
3669.739597635554
 30
0.0
 11
14268.84203862246
 21
3693.739597635548
 31
0.0
  0
LINE
  5
1D45A
330
1D26B
100
AcDbEntity
  8
A-PL
100
AcDbLine
 10
14212.84203862246
 20
3669.739597635554
 30
0.0
 11
14212.84203862246
 21
3693.739597635548
 31
0.0
  0
LINE
  5
1D45B
330
1D26B
100
AcDbEntity
  8
U3
100
AcDbLine
 10
14254.01069000979
 20
3669.739597635568
 30
0.0
 11
14283.84203862246
 21
3639.908249022854
 31
0.0
  0
ARC
  5
1D45C
330
1D26B
100
AcDbEntity
  8
BOLT
100
AcDbCircle
 10
14285.93307327874
 20
3717.16064420918
 30
0.0
 40
19.42425288800896
100
AcDbArc
 50
55.61575253198192
 51
124.384247468018
  0
LINE
  5
1D45D
330
1D26B
100
AcDbEntity
  8
BOLT
100
AcDbLine
 10
14282.84203862246
 20
3737.739597635561
 30
0.0
 11
14274.96341816417
 21
3733.19087399305
 31
0.0
  0
LINE
  5
1D45E
330
1D26B
100
AcDbEntity
  8
BOLT
100
AcDbLine
 10
14296.84203862259
 20
3797.739597635561
 30
0.0
 11
14292.84203862246
 21
3793.739597635549
 31
0.0
  0
LINE
  5
1D45F
330
1D26B
100
AcDbEntity
  8
BOLT
100
AcDbLine
 10
14102.84203862246
 20
3813.369506787967
 30
0.0
 11
14068.84203862247
 21
3832.999415940365
 31
0.0
  0
LINE
  5
1D460
330
1D26B
100
AcDbEntity
  8
BOLT
100
AcDbLine
 10
14034.84203862259
 20
3813.369506787967
 30
0.0
 11
14068.84203862247
 21
3832.999415940365
 31
0.0
  0
LINE
  5
1D461
330
1D26B
100
AcDbEntity
  8
BOLT
100
AcDbLine
 10
14034.84203862259
 20
3774.109688483157
 30
0.0
 11
14068.84203862247
 21
3754.479779330767
 31
0.0
  0
LINE
  5
1D462
330
1D26B
100
AcDbEntity
  8
BOLT
100
AcDbLine
 10
14102.84203862246
 20
3774.109688483157
 30
0.0
 11
14068.84203862247
 21
3754.479779330767
 31
0.0
  0
LINE
  5
1D463
330
1D26B
100
AcDbEntity
  8
BOLT
100
AcDbLine
 10
14102.84203862246
 20
3774.109688483157
 30
0.0
 11
14102.84203862246
 21
3813.369506787967
 31
0.0
  0
LINE
  5
1D464
330
1D26B
100
AcDbEntity
  8
BOLT
100
AcDbLine
 10
14034.84203862259
 20
3813.369506787967
 30
0.0
 11
14034.84203862259
 21
3774.109688483157
 31
0.0
  0
CIRCLE
  5
1D465
330
1D26B
100
AcDbEntity
  8
BOLT
100
AcDbCircle
 10
14068.84203862247
 20
3793.739597635549
 30
0.0
 40
34.0
  0
LINE
  5
1D466
330
1D26B
100
AcDbEntity
  8
A-PL
  6
HIDE-M
 62
     6
100
AcDbLine
 10
14176.84203862259
 20
4053.739597635546
 30
0.0
 11
14176.84203862259
 21
3669.739597635554
 31
0.0
  0
LINE
  5
1D467
330
1D26B
100
AcDbEntity
  8
U3
100
AcDbLine
 10
13898.84203862247
 20
3789.351684172833
 30
0.0
 11
13847.22995208518
 21
3737.739597635561
 31
0.0
  0
LINE
  5
1D468
330
1D26B
100
AcDbEntity
  8
BOLT
100
AcDbLine
 10
13844.84203862259
 20
3737.739597635561
 30
0.0
 11
13844.84203862259
 21
3793.739597635549
 31
0.0
  0
LINE
  5
1D469
330
1D26B
100
AcDbEntity
  8
BOLT
100
AcDbLine
 10
13862.720659081
 20
3733.19087399305
 30
0.0
 11
13862.720659081
 21
3705.739597635555
 31
0.0
  0
LINE
  5
1D46A
330
1D26B
100
AcDbEntity
  8
BOLT
100
AcDbLine
 10
13840.78134885174
 20
3705.739597635555
 30
0.0
 11
13840.78134885174
 21
3733.19087399305
 31
0.0
  0
LINE
  5
1D46B
330
1D26B
100
AcDbEntity
  8
U3
100
AcDbLine
 10
13898.84203862247
 20
3732.783141677908
 30
0.0
 11
13871.79849458008
 21
3705.739597635555
 31
0.0
  0
LINE
  5
1D46C
330
1D26B
100
AcDbEntity
  8
A-PL
100
AcDbLine
 10
13924.84203862259
 20
3669.739597635554
 30
0.0
 11
13924.84203862259
 21
3693.739597635548
 31
0.0
  0
LINE
  5
1D46D
330
1D26B
100
AcDbEntity
  8
BOLT
100
AcDbLine
 10
13878.84203862247
 20
3705.739597635555
 30
0.0
 11
13878.84203862247
 21
3693.739597635548
 31
0.0
  0
LINE
  5
1D46E
330
1D26B
100
AcDbEntity
  8
A-PL
  6
HIDE-S
 62
     6
100
AcDbLine
 10
13868.84203862247
 20
3669.739597635554
 30
0.0
 11
13868.84203862247
 21
3693.739597635548
 31
0.0
  0
LINE
  5
1D46F
330
1D26B
100
AcDbEntity
  8
A-PL
100
AcDbLine
 10
13853.84203862247
 20
3693.739597635548
 30
0.0
 11
13960.84203862258
 21
3693.739597635548
 31
0.0
  0
LINE
  5
1D470
330
1D26B
100
AcDbEntity
  8
BOLT
100
AcDbLine
 10
13854.84203862259
 20
3737.739597635561
 30
0.0
 11
13862.720659081
 21
3733.19087399305
 31
0.0
  0
ARC
  5
1D471
330
1D26B
100
AcDbEntity
  8
BOLT
100
AcDbCircle
 10
13851.75100396643
 20
3717.16064420918
 30
0.0
 40
19.42425288800896
100
AcDbArc
 50
55.61575253198192
 51
124.384247468018
  0
LINE
  5
1D472
330
1D26B
100
AcDbEntity
  8
BOLT
100
AcDbLine
 10
13840.84203862258
 20
3797.739597635561
 30
0.0
 11
13844.84203862259
 21
3793.739597635549
 31
0.0
  0
LINE
  5
1D473
330
1D26B
100
AcDbEntity
  8
BOLT
100
AcDbLine
 10
13844.84203862259
 20
3790.772918632349
 30
0.0
 11
13818.84203862247
 21
3797.739597635561
 31
0.0
  0
LINE
  5
1D474
330
1D26B
100
AcDbEntity
  8
U3
100
AcDbLine
 10
13898.84203862247
 20
3845.920226667753
 30
0.0
 11
13844.84203862259
 21
3791.92022666776
 31
0.0
  0
LINE
  5
1D475
330
1D26B
100
AcDbEntity
  8
BOLT
100
AcDbLine
 10
13792.84203862247
 20
3737.739597635561
 30
0.0
 11
13792.84203862247
 21
3793.739597635549
 31
0.0
  0
LINE
  5
1D476
330
1D26B
100
AcDbEntity
  8
U3
100
AcDbLine
 10
13774.96341816417
 20
3722.041606209335
 30
0.0
 11
13746.66140959039
 21
3693.739597635548
 31
0.0
  0
LINE
  5
1D477
330
1D26B
100
AcDbEntity
  8
BOLT
100
AcDbLine
 10
13774.96341816417
 20
3705.739597635555
 30
0.0
 11
13774.96341816417
 21
3733.19087399305
 31
0.0
  0
LINE
  5
1D478
330
1D26B
100
AcDbEntity
  8
BOLT
100
AcDbLine
 10
13796.90272839332
 20
3705.739597635555
 30
0.0
 11
13796.90272839332
 21
3733.19087399305
 31
0.0
  0
LINE
  5
1D479
330
1D26B
100
AcDbEntity
  8
BOLT
100
AcDbLine
 10
13758.84203862247
 20
3693.739597635548
 30
0.0
 11
13758.84203862247
 21
3705.739597635555
 31
0.0
  0
LINE
  5
1D47A
330
1D26B
100
AcDbEntity
  8
A-PL
  6
HIDE-S
 62
     6
100
AcDbLine
 10
13768.84203862247
 20
3669.739597635554
 30
0.0
 11
13768.84203862247
 21
3693.739597635548
 31
0.0
  0
LINE
  5
1D47B
330
1D26B
100
AcDbEntity
  8
A-PL
100
AcDbLine
 10
13708.84203862247
 20
3669.739597635554
 30
0.0
 11
13708.84203862247
 21
3693.739597635548
 31
0.0
  0
LINE
  5
1D47C
330
1D26B
100
AcDbEntity
  8
A-PL
100
AcDbLine
 10
13783.84203862247
 20
3669.739597635554
 30
0.0
 11
13708.84203862247
 21
3669.739597635554
 31
0.0
  0
LINE
  5
1D47D
330
1D26B
100
AcDbEntity
  8
A-PL
100
AcDbLine
 10
13708.84203862247
 20
3693.739597635548
 30
0.0
 11
13783.84203862247
 21
3693.739597635548
 31
0.0
  0
ARC
  5
1D47E
330
1D26B
100
AcDbEntity
  8
BOLT
100
AcDbCircle
 10
13785.93307327874
 20
3717.16064420918
 30
0.0
 40
19.42425288801392
100
AcDbArc
 50
55.61575253198192
 51
124.384247468018
  0
LINE
  5
1D47F
330
1D26B
100
AcDbEntity
  8
BOLT
100
AcDbLine
 10
13774.96341816417
 20
3733.19087399305
 30
0.0
 11
13782.84203862247
 21
3737.739597635561
 31
0.0
  0
LINE
  5
1D480
330
1D26B
100
AcDbEntity
  8
U3
100
AcDbLine
 10
13792.84203862247
 20
3739.920226667753
 30
0.0
 11
13790.66140959039
 21
3737.739597635561
 31
0.0
  0
LINE
  5
1D481
330
1D26B
100
AcDbEntity
  8
BOLT
100
AcDbLine
 10
13810.94288876734
 20
3737.739597635561
 30
0.0
 11
13792.84203862247
 21
3742.589705814163
 31
0.0
  0
LINE
  5
1D482
330
1D26B
100
AcDbEntity
  8
BOLT
100
AcDbLine
 10
13796.84203862258
 20
3797.739597635561
 30
0.0
 11
13792.84203862247
 21
3793.739597635549
 31
0.0
  0
LINE
  5
1D483
330
1D26B
100
AcDbEntity
  8
BOLT
100
AcDbLine
 10
13844.84203862259
 20
3749.361871415937
 30
0.0
 11
13792.84203862247
 21
3763.295229422357
 31
0.0
  0
LINE
  5
1D484
330
1D26B
100
AcDbEntity
  8
BOLT
100
AcDbLine
 10
13862.720659081
 20
3705.739597635555
 30
0.0
 11
13774.96341816417
 21
3705.739597635555
 31
0.0
  0
LINE
  5
1D485
330
1D26B
100
AcDbEntity
  8
BOLT
100
AcDbLine
 10
13758.84203862247
 20
3705.739597635555
 30
0.0
 11
13878.84203862247
 21
3705.739597635555
 31
0.0
  0
LINE
  5
1D486
330
1D26B
100
AcDbEntity
  8
BOLT
100
AcDbLine
 10
13878.84203862247
 20
3693.739597635548
 30
0.0
 11
13758.84203862247
 21
3693.739597635548
 31
0.0
  0
LINE
  5
1D487
330
1D26B
100
AcDbEntity
  8
BOLT
100
AcDbLine
 10
13782.84203862247
 20
3737.739597635561
 30
0.0
 11
13854.84203862259
 21
3737.739597635561
 31
0.0
  0
ARC
  5
1D488
330
1D26B
100
AcDbEntity
  8
BOLT
100
AcDbCircle
 10
13818.84203862247
 20
3663.978920201305
 30
0.0
 40
72.6059768958803
100
AcDbArc
 50
72.41204622625078
 51
107.5879537737492
  0
LINE
  5
1D489
330
1D26B
100
AcDbEntity
  8
BOLT
100
AcDbLine
 10
13840.84203862258
 20
3797.739597635561
 30
0.0
 11
13796.84203862258
 21
3797.739597635561
 31
0.0
  0
LINE
  5
1D48A
330
1D26B
100
AcDbEntity
  8
BOLT
100
AcDbLine
 10
13844.84203862259
 20
3770.067395024155
 30
0.0
 11
13792.84203862247
 21
3784.000753030567
 31
0.0
  0
LINE
  5
1D48B
330
1D26B
100
AcDbEntity
  8
A-PL
  6
HIDE-M
 62
     6
100
AcDbLine
 10
13960.84203862258
 20
3669.739597635554
 30
0.0
 11
13960.84203862258
 21
4053.739597635546
 31
0.0
  0
LINE
  5
1D48C
330
1D26B
100
AcDbEntity
  8
HASHIRA
  6
1PL-SL
 62
     6
100
AcDbLine
 10
14162.84203862271
 20
3793.739597635549
 30
0.0
 11
13974.84203862281
 21
3793.739597635549
 31
0.0
  0
LINE
  5
1D48D
330
1D26B
100
AcDbEntity
  8
A-PL
  6
HIDE-S
 62
     6
100
AcDbLine
 10
13960.84203862258
 20
3693.739597635548
 30
0.0
 11
14176.84203862259
 21
3693.739597635548
 31
0.0
  0
LINE
  5
1D48E
330
1D26B
100
AcDbEntity
  8
A-PL
100
AcDbLine
 10
14283.84203862246
 20
3669.739597635554
 30
0.0
 11
13853.84203862247
 21
3669.739597635554
 31
0.0
  0
LINE
  5
1D48F
330
1D26B
100
AcDbEntity
  8
U1
100
AcDbLine
 10
14283.84203862246
 20
3669.739597635554
 30
0.0
 11
13853.84203862247
 21
3669.739597635554
 31
0.0
  0
LINE
  5
1D490
330
1D26B
100
AcDbEntity
  8
HASHIRA
100
AcDbLine
 10
13898.84203862247
 20
3693.739597635548
 30
0.0
 11
14238.84203862246
 21
3693.739597635548
 31
0.0
  0
LINE
  5
1D491
330
1D26B
100
AcDbEntity
  8
HASHIRA
  6
1PL-SL
 62
     6
100
AcDbLine
 10
14162.84203862247
 20
3993.739597635548
 30
0.0
 11
13974.84203862259
 21
3993.739597635548
 31
0.0
  0
ARC
  5
1D492
330
1D26B
100
AcDbEntity
  8
BOLT
100
AcDbCircle
 10
13818.84203862247
 20
3835.948872924318
 30
0.0
 40
224.9487986728452
100
AcDbArc
 50
271.0489282869711
 51
278.9510717129775
  0
ARC
  5
1D493
330
1D26B
100
AcDbEntity
  8
BOLT
100
AcDbCircle
 10
13818.84203862247
 20
3609.250506376819
 30
0.0
 40
4.48909125874441
100
AcDbArc
 50
23.46162447304932
 51
156.5383755269506
  0
ARC
  5
1D494
330
1D26B
100
AcDbEntity
  8
BOLT
100
AcDbCircle
 10
13818.84203862247
 20
3835.948872924318
 30
0.0
 40
224.9487986728452
100
AcDbArc
 50
261.0489282870223
 51
268.9510717130286
  0
LINE
  5
1D495
330
1D26B
100
AcDbEntity
  8
BOLT
100
AcDbLine
 10
13783.84203862247
 20
3613.739597635548
 30
0.0
 11
13783.84203862247
 21
3693.739597635548
 31
0.0
  0
LINE
  5
1D496
330
1D26B
100
AcDbEntity
  8
BOLT
100
AcDbLine
 10
13853.84203862247
 20
3693.739597635548
 30
0.0
 11
13853.84203862247
 21
3613.739597635548
 31
0.0
  0
LINE
  5
1D497
330
1D26B
100
AcDbEntity
  8
BOLT
100
AcDbLine
 10
14283.84203862246
 20
3693.739597635548
 30
0.0
 11
14283.84203862246
 21
3613.739597635548
 31
0.0
  0
ARC
  5
1D498
330
1D26B
100
AcDbEntity
  8
BOLT
100
AcDbCircle
 10
14318.84203862246
 20
3835.948872924318
 30
0.0
 40
224.9487986728452
100
AcDbArc
 50
261.0489282870223
 51
268.9510717130286
  0
LINE
  5
1D499
330
1D26B
100
AcDbEntity
  8
BOLT
100
AcDbLine
 10
14292.84203862246
 20
3770.067395024155
 30
0.0
 11
14344.84203862258
 21
3784.000753030567
 31
0.0
  0
LINE
  5
1D49A
330
1D26B
100
AcDbEntity
  8
BOLT
100
AcDbLine
 10
14354.84203862259
 20
3737.739597635561
 30
0.0
 11
14282.84203862246
 21
3737.739597635561
 31
0.0
  0
LINE
  5
1D49B
330
1D26B
100
AcDbEntity
  8
BOLT
100
AcDbLine
 10
14274.96341816417
 20
3705.739597635555
 30
0.0
 11
14362.720659081
 21
3705.739597635555
 31
0.0
  0
LINE
  5
1D49C
330
1D26B
100
AcDbEntity
  8
BOLT
100
AcDbLine
 10
14378.84203862246
 20
3705.739597635555
 30
0.0
 11
14258.84203862246
 21
3705.739597635555
 31
0.0
  0
LINE
  5
1D49D
330
1D26B
100
AcDbEntity
  8
BOLT
100
AcDbLine
 10
14258.84203862246
 20
3693.739597635548
 30
0.0
 11
14378.84203862246
 21
3693.739597635548
 31
0.0
  0
ARC
  5
1D49E
330
1D26B
100
AcDbEntity
  8
BOLT
100
AcDbCircle
 10
14318.84203862246
 20
3663.978920201305
 30
0.0
 40
72.6059768958803
100
AcDbArc
 50
72.41204622625078
 51
107.5879537737492
  0
LINE
  5
1D49F
330
1D26B
100
AcDbEntity
  8
BOLT
100
AcDbLine
 10
14292.84203862246
 20
3749.361871415937
 30
0.0
 11
14344.84203862258
 21
3763.295229422357
 31
0.0
  0
LINE
  5
1D4A0
330
1D26B
100
AcDbEntity
  8
BOLT
100
AcDbLine
 10
14296.84203862259
 20
3797.739597635561
 30
0.0
 11
14340.84203862258
 21
3797.739597635561
 31
0.0
  0
LINE
  5
1D4A1
330
1D26B
100
AcDbEntity
  8
BOLT
100
AcDbLine
 10
14292.84203862246
 20
3790.772918632349
 30
0.0
 11
14318.84203862246
 21
3797.739597635561
 31
0.0
  0
LINE
  5
1D4A2
330
1D26B
100
AcDbEntity
  8
A-PL
100
AcDbLine
 10
14176.84203862259
 20
3693.739597635548
 30
0.0
 11
14428.84203862246
 21
3693.739597635548
 31
0.0
  0
LINE
  5
1D4A3
330
1D26B
100
AcDbEntity
  8
U1
100
AcDbLine
 10
14628.84203862246
 20
4419.739597635554
 30
0.0
 11
14628.84203862246
 21
3669.739597635554
 31
0.0
  0
LINE
  5
1D4A4
330
1D26B
100
AcDbEntity
  8
U3
100
AcDbLine
 10
14628.84203862246
 20
4240.543553886426
 30
0.0
 11
14238.84203862246
 21
3850.543553886404
 31
0.0
  0
LINE
  5
1D4A5
330
1D26B
100
AcDbEntity
  8
U3
100
AcDbLine
 10
14628.84203862246
 20
4183.975011391485
 30
0.0
 11
14238.84203862246
 21
3793.975011391486
 31
0.0
  0
LINE
  5
1D4A6
330
1D26B
100
AcDbEntity
  8
U3
100
AcDbLine
 10
14628.84203862246
 20
4127.406468896559
 30
0.0
 11
14299.17516736151
 21
3797.739597635561
 31
0.0
  0
LINE
  5
1D4A7
330
1D26B
100
AcDbEntity
  8
HASHIRA
  6
1PL-SL
 62
     6
100
AcDbLine
 10
14068.842038622
 20
4672.397044557111
 30
0.0
 11
14068.84203862247
 21
3569.739597635554
 31
0.0
  0
LINE
  5
1D4A8
330
1D26B
100
AcDbEntity
  8
HASHIRA
  6
HIDE-M
 62
     6
100
AcDbLine
 10
14229.64203862264
 20
3693.739597635548
 30
0.0
 11
14229.64203862264
 21
4584.26660257286
 31
0.0
  0
LINE
  5
1D4A9
330
1D26B
100
AcDbEntity
  8
HASHIRA
  6
HIDE-M
 62
     6
100
AcDbLine
 10
13908.04203862254
 20
3693.739597635548
 30
0.0
 11
13908.04203862254
 21
4560.527486540165
 31
0.0
  0
LINE
  5
1D4AA
330
1D26B
100
AcDbEntity
  8
HASHIRA
100
AcDbLine
 10
14238.84203862246
 20
3693.739597635548
 30
0.0
 11
14238.84203862246
 21
4572.397044557095
 31
0.0
  0
LINE
  5
1D4AB
330
1D26B
100
AcDbEntity
  8
HASHIRA
100
AcDbLine
 10
13898.84203862247
 20
3693.739597635548
 30
0.0
 11
13898.84203862247
 21
4572.397044556317
 31
0.0
  0
LINE
  5
1D4AC
330
1D26B
100
AcDbEntity
  8
U3
100
AcDbLine
 10
14585.79849458019
 20
4419.739597635554
 30
0.0
 11
14238.84203862246
 21
4072.783141677872
 31
0.0
  0
ARC
  5
1D4AD
330
1D26B
100
AcDbEntity
  8
A-PL
  6
HIDE-M
 62
     6
100
AcDbCircle
 10
14000.84203862259
 20
4053.739597635546
 30
0.0
 40
40.0
100
AcDbArc
 50
90.0
 51
180.0
  0
ARC
  5
1D4AE
330
1D26B
100
AcDbEntity
  8
A-PL
  6
HIDE-M
 62
     6
100
AcDbCircle
 10
14136.84203862259
 20
4053.739597635546
 30
0.0
 40
40.0
100
AcDbArc
 50
0.0
 51
90.0
  0
LINE
  5
1D4AF
330
1D26B
100
AcDbEntity
  8
HIKIDASHI
100
AcDbLine
 10
13144.66092651698
 20
5103.46700206148
 30
0.0
 11
13144.66092651698
 21
5303.467002061481
 31
0.0
  0
LINE
  5
1D4B0
330
1D26B
100
AcDbEntity
  8
HIKIDASHI
100
AcDbLine
 10
12952.66092651697
 20
5303.467002061481
 30
0.0
 11
12952.66092651697
 21
5103.46700206148
 31
0.0
  0
LINE
  5
1D4B1
330
1D26B
100
AcDbEntity
  8
HIKIDASHI
100
AcDbLine
 10
13144.66092651698
 20
5303.467002061481
 30
0.0
 11
12952.66092651697
 21
5303.467002061481
 31
0.0
  0
LINE
  5
1D4B2
330
1D26B
100
AcDbEntity
  8
HIKIDASHI
100
AcDbLine
 10
12952.66092651697
 20
5103.46700206148
 30
0.0
 11
13144.66092651698
 21
5103.46700206148
 31
0.0
  0
TEXT
  5
1D4B3
330
1D26B
100
AcDbEntity
  8
HIKIDASHI
100
AcDbText
 10
12992.66092651697
 20
5143.46700206148
 30
0.0
 40
120.0
  1
前
  7
01
 72
     4
 11
13048.66092651697
 21
5203.46700206148
 31
0.0
100
AcDbText
  0
LINE
  5
1D4B4
330
1D26B
100
AcDbEntity
  8
U3
100
AcDbLine
 10
13523.09993374126
 20
4419.739597635554
 30
0.0
 11
13508.84203862247
 21
4405.481702516794
 31
0.0
  0
LINE
  5
1D4B5
330
1D26B
100
AcDbEntity
  8
U3
100
AcDbLine
 10
13579.66847623628
 20
4419.739597635554
 30
0.0
 11
13508.84203862247
 21
4348.913160021875
 31
0.0
  0
TEXT
  5
1D4B6
330
1D26B
100
AcDbEntity
  8
HIKIDASHI
100
AcDbText
 10
12637.78442866122
 20
4475.210032245348
 30
0.0
 40
119.9999999999999
  1
M10
 41
0.6666666666666666
  7
00
100
AcDbText
  0
LINE
  5
1D4B7
330
1D26B
100
AcDbEntity
  8
HIKIDASHI
100
AcDbLine
 10
12597.78442866122
 20
4415.210032245346
 30
0.0
 11
13326.16538104217
 21
4415.210032245346
 31
0.0
  0
TEXT
  5
1D4B8
330
1D26B
100
AcDbEntity
  8
HIKIDASHI
100
AcDbText
 10
12910.16538104217
 20
4475.210032245348
 30
0.0
 40
119.9999999999999
  1
ボルト
  7
01
100
AcDbText
  0
TEXT
  5
1D4B9
330
1D26B
100
AcDbEntity
  8
HIKIDASHI
100
AcDbText
 10
12428.19061942224
 20
3791.590527492044
 30
0.0
 40
120.0
  1
C12-70
 41
0.6666666666666666
  7
00
100
AcDbText
  0
LINE
  5
1D4BA
330
1D26B
100
AcDbEntity
  8
HIKIDASHI
100
AcDbLine
 10
12368.19061942224
 20
3971.590527492045
 30
0.0
 11
13440.19061942224
 21
3971.590527492045
 31
0.0
  0
LINE
  5
1D4BB
330
1D26B
100
AcDbEntity
  8
U1
100
AcDbLine
 10
13508.84203862247
 20
3669.739597635554
 30
0.0
 11
13508.84203862247
 21
4419.739597635554
 31
0.0
  0
TEXT
  5
1D4BC
330
1D26B
100
AcDbEntity
  8
HIKIDASHI
100
AcDbText
 10
12428.19061942224
 20
4031.590527492045
 30
0.0
 40
120.0
  1
オールアンカー
  7
01
100
AcDbText
  0
LINE
  5
1D4BD
330
1D26B
100
AcDbEntity
  8
U3
100
AcDbLine
 10
13915.04514901747
 20
4419.739597635554
 30
0.0
 11
13508.84203862247
 21
4013.536487240553
 31
0.0
  0
LINE
  5
1D4BE
330
1D26B
100
AcDbEntity
  8
U3
100
AcDbLine
 10
13898.84203862247
 20
4181.296899449086
 30
0.0
 11
13508.84203862247
 21
3791.296899449088
 31
0.0
  0
LINE
  5
1D4BF
330
1D26B
100
AcDbEntity
  8
U3
100
AcDbLine
 10
13898.84203862247
 20
4124.728356954139
 30
0.0
 11
13508.84203862247
 21
3734.728356954156
 31
0.0
  0
LINE
  5
1D4C0
330
1D26B
100
AcDbEntity
  8
U3
100
AcDbLine
 10
13898.84203862247
 20
4068.15981445922
 30
0.0
 11
13508.84203862247
 21
3678.159814459234
 31
0.0
  0
LINE
  5
1D4C1
330
1D26B
100
AcDbEntity
  8
U1
100
AcDbLine
 10
13783.84203862247
 20
3669.739597635554
 30
0.0
 11
13408.8420386213
 21
3669.739597635554
 31
0.0
  0
LINE
  5
1D4C2
330
1D26B
100
AcDbEntity
  8
A-PL
  6
1PL-SL
 62
     6
100
AcDbLine
 10
14528.84203862246
 20
5203.46700206148
 30
0.0
 11
13608.84203862247
 21
5203.46700206148
 31
0.0
  0
LINE
  5
1D4C3
330
1D26B
100
AcDbEntity
  8
U3
100
AcDbLine
 10
13801.90806402766
 20
4419.739597635554
 30
0.0
 11
13508.84203862247
 21
4126.673572230422
 31
0.0
  0
LINE
  5
1D4C4
330
1D26B
100
AcDbEntity
  8
U3
100
AcDbLine
 10
13858.47660652268
 20
4419.739597635554
 30
0.0
 11
13508.84203862247
 21
4070.105029735466
 31
0.0
  0
LINE
  5
1D4C5
330
1D26B
100
AcDbEntity
  8
U1
100
AcDbLine
 10
13508.84203862247
 20
4419.739597635554
 30
0.0
 11
13898.84203862247
 21
4419.739597635554
 31
0.0
  0
TEXT
  5
1D4C6
330
1D26B
100
AcDbEntity
  8
HIKIDASHI
100
AcDbText
 10
12915.76016041806
 20
3791.590527492044
 30
0.0
 40
120.0
  1
（別途）
  7
01
100
AcDbText
  0
LINE
  5
1D4C7
330
1D26B
100
AcDbEntity
  8
SUNPOU
100
AcDbLine
 10
5562.101541892509
 20
10070.30171790044
 30
0.0
 11
10924.59159146345
 21
8084.194292133117
 31
0.0
  0
LINE
  5
1D4C8
330
1D26B
100
AcDbEntity
  8
SUNPOU
100
AcDbLine
 10
5557.412798088895
 20
10072.03828967956
 30
0.0
 11
5571.479029499752
 21
10066.8285743422
 31
0.0
  0
TEXT
  5
1D4C9
330
1D26B
100
AcDbEntity
  8
SUNPOU
100
AcDbText
 10
8014.119091834421
 20
9226.130092213171
 30
0.0
 40
120.0
  1
対角 5758
 50
339.6768631703342
 41
0.6666666666666666
  7
00
100
AcDbText
1001
ACAD
1000
MTEXTBEGIN
1070
    73
1070
     1
1070
    44
1040
1.0
1070
    74
1070
     0
1000
MTEXTEND
1000
MTEXTBEGIN
1070
    73
1070
     1
1070
    44
1040
1.0
1070
    74
1070
     0
1000
MTEXTEND
1000
MTEXTBEGIN
1070
    73
1070
     1
1070
    44
1040
1.0
1070
    74
1070
     0
1000
MTEXTEND
1000
MTEXTBEGIN
1070
    73
1070
     1
1070
    44
1040
1.0
1070
    74
1070
     0
1000
MTEXTEND
1000
MTEXTBEGIN
1070
    73
1070
     1
1070
    44
1040
1.0
1070
    74
1070
     0
1000
MTEXTEND
1000
MTEXTBEGIN
1070
    73
1070
     1
1070
    44
1040
1.0
1070
    74
1070
     0
1000
MTEXTEND
1000
MTEXTBEGIN
1070
    73
1070
     1
1070
    44
1040
1.0
1070
    74
1070
     0
1000
MTEXTEND
  0
LINE
  5
1D4CA
330
1D26B
100
AcDbEntity
  8
SUNPOU
100
AcDbLine
 10
10929.28033526707
 20
8082.457720353998
 30
0.0
 11
10915.21410385622
 21
8087.667435691356
 31
0.0
  0
ARC
  5
1D4CB
330
1D26B
100
AcDbEntity
  8
SUNPOU
100
AcDbCircle
 10
5543.346566678039
 20
10077.24800501691
 30
0.0
 40
7.499999999999982
100
AcDbArc
 50
339.6768631704779
 51
159.676863170478
  0
ARC
  5
1D4CC
330
1D26B
100
AcDbEntity
  8
SUNPOU
100
AcDbCircle
 10
5543.346566678039
 20
10077.24800501691
 30
0.0
 40
7.499999999999982
100
AcDbArc
 50
159.676863170478
 51
339.6768631704779
  0
ARC
  5
1D4CD
330
1D26B
100
AcDbEntity
  8
SUNPOU
100
AcDbCircle
 10
10943.34656667794
 20
8077.248005016647
 30
0.0
 40
7.500000000000195
100
AcDbArc
 50
159.676863170478
 51
339.6768631704779
  0
ARC
  5
1D4CE
330
1D26B
100
AcDbEntity
  8
SUNPOU
100
AcDbCircle
 10
10943.34656667794
 20
8077.248005016647
 30
0.0
 40
7.500000000000195
100
AcDbArc
 50
339.6768631704779
 51
159.676863170478
  0
LINE
  5
1D4CF
330
1D26B
100
AcDbEntity
  8
U1
100
AcDbLine
 10
3753.007042992147
 20
2461.291251548639
 30
0.0
 11
3968.007042992147
 21
2461.291251548639
 31
0.0
  0
LINE
  5
1D4D0
330
1D26B
100
AcDbEntity
  8
U1
100
AcDbLine
 10
3968.007042992147
 20
2461.291251548639
 30
0.0
 11
3968.007042992147
 21
2441.291251548639
 31
0.0
  0
LINE
  5
1D4D1
330
1D26B
100
AcDbEntity
  8
U1
100
AcDbLine
 10
3968.007042992147
 20
2441.291251548639
 30
0.0
 11
3753.007042992147
 21
2441.291251548639
 31
0.0
  0
LINE
  5
1D4D2
330
1D26B
100
AcDbEntity
  8
U1
100
AcDbLine
 10
3583.007042992147
 20
2441.291251548639
 30
0.0
 11
3368.007042992147
 21
2441.291251548639
 31
0.0
  0
LINE
  5
1D4D3
330
1D26B
100
AcDbEntity
  8
U1
100
AcDbLine
 10
3368.007042992147
 20
2441.291251548639
 30
0.0
 11
3368.007042992147
 21
2461.291251548639
 31
0.0
  0
LINE
  5
1D4D4
330
1D26B
100
AcDbEntity
  8
U1
100
AcDbLine
 10
3368.007042992147
 20
2461.291251548639
 30
0.0
 11
3583.007042992147
 21
2461.291251548639
 31
0.0
  0
ARC
  5
1D4D5
330
1D26B
100
AcDbEntity
  8
HASHIRA
100
AcDbCircle
 10
3616.598222519046
 20
3198.051284443485
 30
0.0
 40
162.9196111032521
100
AcDbArc
 50
100.2982523470732
 51
101.8987326800792
  0
ARC
  5
1D4D6
330
1D26B
100
AcDbEntity
  8
HASHIRA
100
AcDbCircle
 10
3605.008006538322
 20
3261.839183362859
 30
0.0
 40
98.08729543407403
100
AcDbArc
 50
83.09831943898513
 51
100.2982523470732
  0
ARC
  5
1D4D7
330
1D26B
100
AcDbEntity
  8
HASHIRA
100
AcDbCircle
 10
3604.019508787853
 20
3253.672686506201
 30
0.0
 40
106.3134001448404
100
AcDbArc
 50
65.21271938598575
 51
83.09831943898513
  0
ARC
  5
1D4D8
330
1D26B
100
AcDbEntity
  8
HASHIRA
100
AcDbCircle
 10
3670.713432589094
 20
3398.09575475872
 30
0.0
 40
52.76551774020656
100
AcDbArc
 50
245.2127193859857
 51
270.7072113015335
  0
ARC
  5
1D4D9
330
1D26B
100
AcDbEntity
  8
HASHIRA
100
AcDbCircle
 10
3670.827990000268
 20
3388.815186386958
 30
0.0
 40
43.48424235891135
100
AcDbArc
 50
270.7072113015335
 51
298.3470543554961
  0
ARC
  5
1D4DA
330
1D26B
100
AcDbEntity
  8
HASHIRA
100
AcDbCircle
 10
3728.724763342514
 20
3281.500437566391
 30
0.0
 40
78.4521823790019
100
AcDbArc
 50
97.85922635455875
 51
118.3470543554959
  0
ARC
  5
1D4DB
330
1D26B
100
AcDbEntity
  8
HASHIRA
100
AcDbCircle
 10
3727.847006789473
 20
3287.859324167313
 30
0.0
 40
72.03300054875507
100
AcDbArc
 50
75.97256549848099
 51
97.85922635455875
  0
ARC
  5
1D4DC
330
1D26B
100
AcDbEntity
  8
HASHIRA
100
AcDbCircle
 10
3716.879865860196
 20
3243.962078290897
 30
0.0
 40
117.2795073277021
100
AcDbArc
 50
72.05864435896765
 51
75.97256549848099
  0
ARC
  5
1D4DD
330
1D26B
100
AcDbEntity
  8
HASHIRA
100
AcDbCircle
 10
3616.598222518915
 20
3347.772814569637
 30
0.0
 40
162.9196111032269
100
AcDbArc
 50
100.2982523470732
 51
101.8987326800792
  0
ARC
  5
1D4DE
330
1D26B
100
AcDbEntity
  8
HASHIRA
100
AcDbCircle
 10
3605.008006538322
 20
3411.560713489009
 30
0.0
 40
98.08729543407421
100
AcDbArc
 50
83.09831943898513
 51
100.2982523470732
  0
ARC
  5
1D4DF
330
1D26B
100
AcDbEntity
  8
HASHIRA
100
AcDbCircle
 10
3604.019508787866
 20
3403.394216632352
 30
0.0
 40
106.3134001448385
100
AcDbArc
 50
65.21271938598575
 51
83.09831943898513
  0
ARC
  5
1D4E0
330
1D26B
100
AcDbEntity
  8
HASHIRA
100
AcDbCircle
 10
3670.713432589101
 20
3547.817284884869
 30
0.0
 40
52.76551774020877
100
AcDbArc
 50
245.2127193859857
 51
270.7072113015335
  0
ARC
  5
1D4E1
330
1D26B
100
AcDbEntity
  8
HASHIRA
100
AcDbCircle
 10
3670.82799000026
 20
3538.536716513107
 30
0.0
 40
43.48424235891278
100
AcDbArc
 50
270.7072113015335
 51
298.3470543554961
  0
ARC
  5
1D4E2
330
1D26B
100
AcDbEntity
  8
HASHIRA
100
AcDbCircle
 10
3728.724763342507
 20
3431.221967692542
 30
0.0
 40
78.45218237900098
100
AcDbArc
 50
97.85922635455875
 51
118.3470543554959
  0
ARC
  5
1D4E3
330
1D26B
100
AcDbEntity
  8
HASHIRA
100
AcDbCircle
 10
3727.847006789481
 20
3437.580854293461
 30
0.0
 40
72.03300054875498
100
AcDbArc
 50
75.97256549848099
 51
97.85922635455875
  0
ARC
  5
1D4E4
330
1D26B
100
AcDbEntity
  8
HASHIRA
100
AcDbCircle
 10
3716.879865860137
 20
3393.683608417043
 30
0.0
 40
117.2795073277183
100
AcDbArc
 50
72.05864435896765
 51
75.97256549848099
  0
ARC
  5
1D4E5
330
1D26B
100
AcDbEntity
  8
HASHIRA
100
AcDbCircle
 10
3621.007042992147
 20
4452.347603535439
 30
0.0
 40
12.0
100
AcDbArc
 50
270.0
 51
90.0
  0
LINE
  5
1D4E6
330
1D26B
100
AcDbEntity
  8
HASHIRA
100
AcDbLine
 10
3621.007042992147
 20
4464.347603535439
 30
0.0
 11
3615.007042992147
 21
4464.347603535439
 31
0.0
  0
ARC
  5
1D4E7
330
1D26B
100
AcDbEntity
  8
HASHIRA
100
AcDbCircle
 10
3615.007042992147
 20
4452.347603535439
 30
0.0
 40
12.0
100
AcDbArc
 50
90.0
 51
270.0
  0
LINE
  5
1D4E8
330
1D26B
100
AcDbEntity
  8
HASHIRA
100
AcDbLine
 10
3615.007042992147
 20
4440.347603535438
 30
0.0
 11
3621.007042992147
 21
4440.347603535438
 31
0.0
  0
ARC
  5
1D4E9
330
1D26B
100
AcDbEntity
  8
HASHIRA
100
AcDbCircle
 10
3721.007042992147
 20
4452.347603535439
 30
0.0
 40
12.0
100
AcDbArc
 50
270.0
 51
90.0
  0
LINE
  5
1D4EA
330
1D26B
100
AcDbEntity
  8
HASHIRA
100
AcDbLine
 10
3721.007042992147
 20
4464.347603535439
 30
0.0
 11
3715.007042992147
 21
4464.347603535439
 31
0.0
  0
ARC
  5
1D4EB
330
1D26B
100
AcDbEntity
  8
HASHIRA
100
AcDbCircle
 10
3715.007042992147
 20
4452.347603535439
 30
0.0
 40
12.0
100
AcDbArc
 50
90.0
 51
270.0
  0
LINE
  5
1D4EC
330
1D26B
100
AcDbEntity
  8
HASHIRA
100
AcDbLine
 10
3715.007042992147
 20
4440.347603535438
 30
0.0
 11
3721.007042992147
 21
4440.347603535438
 31
0.0
  0
ARC
  5
1D4ED
330
1D26B
100
AcDbEntity
  8
HASHIRA
100
AcDbCircle
 10
3621.007042992147
 20
4692.34760353544
 30
0.0
 40
12.0
100
AcDbArc
 50
270.0
 51
90.0
  0
LINE
  5
1D4EE
330
1D26B
100
AcDbEntity
  8
HASHIRA
100
AcDbLine
 10
3621.007042992147
 20
4704.347603535437
 30
0.0
 11
3615.007042992147
 21
4704.347603535437
 31
0.0
  0
ARC
  5
1D4EF
330
1D26B
100
AcDbEntity
  8
HASHIRA
100
AcDbCircle
 10
3615.007042992147
 20
4692.34760353544
 30
0.0
 40
12.0
100
AcDbArc
 50
90.0
 51
270.0
  0
LINE
  5
1D4F0
330
1D26B
100
AcDbEntity
  8
HASHIRA
100
AcDbLine
 10
3615.007042992147
 20
4680.34760353544
 30
0.0
 11
3621.007042992147
 21
4680.34760353544
 31
0.0
  0
ARC
  5
1D4F1
330
1D26B
100
AcDbEntity
  8
HASHIRA
100
AcDbCircle
 10
3721.007042992147
 20
4692.34760353544
 30
0.0
 40
12.0
100
AcDbArc
 50
270.0
 51
90.0
  0
LINE
  5
1D4F2
330
1D26B
100
AcDbEntity
  8
HASHIRA
100
AcDbLine
 10
3721.007042992147
 20
4704.347603535437
 30
0.0
 11
3715.007042992147
 21
4704.347603535437
 31
0.0
  0
ARC
  5
1D4F3
330
1D26B
100
AcDbEntity
  8
HASHIRA
100
AcDbCircle
 10
3715.007042992147
 20
4692.34760353544
 30
0.0
 40
12.0
100
AcDbArc
 50
90.0
 51
270.0
  0
LINE
  5
1D4F4
330
1D26B
100
AcDbEntity
  8
HASHIRA
100
AcDbLine
 10
3715.007042992147
 20
4680.34760353544
 30
0.0
 11
3721.007042992147
 21
4680.34760353544
 31
0.0
  0
LINE
  5
1D4F5
330
1D26B
100
AcDbEntity
  8
U1
100
AcDbLine
 10
8904.771010768534
 20
2441.291251548639
 30
0.0
 11
8689.771010768534
 21
2441.291251548639
 31
0.0
  0
LINE
  5
1D4F6
330
1D26B
100
AcDbEntity
  8
U1
100
AcDbLine
 10
8689.771010768534
 20
2441.291251548639
 30
0.0
 11
8689.771010768534
 21
2461.291251548639
 31
0.0
  0
LINE
  5
1D4F7
330
1D26B
100
AcDbEntity
  8
U1
100
AcDbLine
 10
8689.771010768534
 20
2461.291251548639
 30
0.0
 11
8904.771010768534
 21
2461.291251548639
 31
0.0
  0
LINE
  5
1D4F8
330
1D26B
100
AcDbEntity
  8
U1
100
AcDbLine
 10
9074.771010768534
 20
2461.291251548639
 30
0.0
 11
9289.771010768534
 21
2461.291251548639
 31
0.0
  0
LINE
  5
1D4F9
330
1D26B
100
AcDbEntity
  8
U1
100
AcDbLine
 10
9289.771010768534
 20
2461.291251548639
 30
0.0
 11
9289.771010768534
 21
2441.291251548639
 31
0.0
  0
LINE
  5
1D4FA
330
1D26B
100
AcDbEntity
  8
U1
100
AcDbLine
 10
9289.771010768534
 20
2441.291251548639
 30
0.0
 11
9074.771010768534
 21
2441.291251548639
 31
0.0
  0
ARC
  5
1D4FB
330
1D26B
100
AcDbEntity
  8
HASHIRA
100
AcDbCircle
 10
8938.362190295302
 20
3347.772814569637
 30
0.0
 40
162.9196111032271
100
AcDbArc
 50
100.2982523470732
 51
101.8987326800792
  0
ARC
  5
1D4FC
330
1D26B
100
AcDbEntity
  8
HASHIRA
100
AcDbCircle
 10
8926.771974314716
 20
3411.560713489009
 30
0.0
 40
98.08729543407437
100
AcDbArc
 50
83.09831943898513
 51
100.2982523470732
  0
ARC
  5
1D4FD
330
1D26B
100
AcDbEntity
  8
HASHIRA
100
AcDbCircle
 10
8925.783476564246
 20
3403.394216632352
 30
0.0
 40
106.3134001448385
100
AcDbArc
 50
65.21271938598575
 51
83.09831943898513
  0
ARC
  5
1D4FE
330
1D26B
100
AcDbEntity
  8
HASHIRA
100
AcDbCircle
 10
8992.477400365489
 20
3547.817284884869
 30
0.0
 40
52.76551774020858
100
AcDbArc
 50
245.2127193859857
 51
270.7072113015335
  0
ARC
  5
1D4FF
330
1D26B
100
AcDbEntity
  8
HASHIRA
100
AcDbCircle
 10
8992.591957776644
 20
3538.536716513107
 30
0.0
 40
43.48424235891279
100
AcDbArc
 50
270.7072113015335
 51
298.3470543554961
  0
ARC
  5
1D500
330
1D26B
100
AcDbEntity
  8
HASHIRA
100
AcDbCircle
 10
9050.488731118894
 20
3431.221967692542
 30
0.0
 40
78.45218237900056
100
AcDbArc
 50
97.85922635455875
 51
118.3470543554959
  0
ARC
  5
1D501
330
1D26B
100
AcDbEntity
  8
HASHIRA
100
AcDbCircle
 10
9049.610974565869
 20
3437.580854293461
 30
0.0
 40
72.03300054875498
100
AcDbArc
 50
75.97256549848099
 51
97.85922635455875
  0
ARC
  5
1D502
330
1D26B
100
AcDbEntity
  8
HASHIRA
100
AcDbCircle
 10
9038.643833636523
 20
3393.683608417043
 30
0.0
 40
117.2795073277183
100
AcDbArc
 50
72.05864435896765
 51
75.97256549848099
  0
ARC
  5
1D503
330
1D26B
100
AcDbEntity
  8
HASHIRA
100
AcDbCircle
 10
8938.362190295434
 20
3198.051284443485
 30
0.0
 40
162.9196111032521
100
AcDbArc
 50
100.2982523470732
 51
101.8987326800792
  0
ARC
  5
1D504
330
1D26B
100
AcDbEntity
  8
HASHIRA
100
AcDbCircle
 10
8926.771974314702
 20
3261.839183362859
 30
0.0
 40
98.08729543407395
100
AcDbArc
 50
83.09831943898513
 51
100.2982523470732
  0
ARC
  5
1D505
330
1D26B
100
AcDbEntity
  8
HASHIRA
100
AcDbCircle
 10
8925.783476564239
 20
3253.672686506201
 30
0.0
 40
106.3134001448402
100
AcDbArc
 50
65.21271938598575
 51
83.09831943898513
  0
ARC
  5
1D506
330
1D26B
100
AcDbEntity
  8
HASHIRA
100
AcDbCircle
 10
8992.477400365482
 20
3398.09575475872
 30
0.0
 40
52.76551774020678
100
AcDbArc
 50
245.2127193859857
 51
270.7072113015335
  0
ARC
  5
1D507
330
1D26B
100
AcDbEntity
  8
HASHIRA
100
AcDbCircle
 10
8992.591957776644
 20
3388.815186386958
 30
0.0
 40
43.48424235891136
100
AcDbArc
 50
270.7072113015335
 51
298.3470543554961
  0
ARC
  5
1D508
330
1D26B
100
AcDbEntity
  8
HASHIRA
100
AcDbCircle
 10
9050.488731118894
 20
3281.500437566391
 30
0.0
 40
78.45218237900231
100
AcDbArc
 50
97.85922635455875
 51
118.3470543554959
  0
ARC
  5
1D509
330
1D26B
100
AcDbEntity
  8
HASHIRA
100
AcDbCircle
 10
9049.610974565862
 20
3287.859324167313
 30
0.0
 40
72.03300054875514
100
AcDbArc
 50
75.97256549848099
 51
97.85922635455875
  0
ARC
  5
1D50A
330
1D26B
100
AcDbEntity
  8
HASHIRA
100
AcDbCircle
 10
9038.643833636582
 20
3243.962078290897
 30
0.0
 40
117.279507327702
100
AcDbArc
 50
72.05864435896765
 51
75.97256549848099
  0
TEXT
  5
1D50B
330
1D26B
100
AcDbEntity
  8
NAME
100
AcDbText
 10
12145.69452669699
 20
541.0
 30
0.0
 40
160.0
  1
型
  7
01
100
AcDbText
  0
TEXT
  5
1D50C
330
1D26B
100
AcDbEntity
  8
NAME
100
AcDbText
 10
11185.83070689197
 20
541.0
 30
0.0
 40
160.0
  1
KWA-5426
 41
0.7
  7
01
 72
     2
 11
12071.16404022531
 21
541.0
 31
0.0
100
AcDbText
  0
TEXT
  5
1D50D
330
1D26B
100
AcDbEntity
  8
NAME
100
AcDbText
 10
12390.24920917533
 20
541.0
 30
0.0
 40
160.0
  1
<3／3>
 41
0.6
  7
01
 72
     2
 11
12889.44920917533
 21
541.0
 31
0.0
100
AcDbText
  0
TEXT
  5
1D50E
330
1D26B
100
AcDbEntity
  8
NAME
100
AcDbText
 10
12303.32857318295
 20
1055.0
 30
0.0
 40
120.0
  1
K W A
 41
0.6666666666666666
  7
00
100
AcDbText
  0
TEXT
  5
1D50F
330
1D26B
100
AcDbEntity
  8
NAME
100
AcDbText
 10
11227.73587134625
 20
1055.0
 30
0.0
 40
120.0
  1
ヨド自転車置場　　　 型
  7
01
100
AcDbText
  0
TEXT
  5
1D510
330
1D26B
100
AcDbEntity
  8
SUNPOU
100
AcDbText
 10
1896.693384036726
 20
5756.455817075009
 30
0.0
 40
120.0
  1
<下記条件での参考図>
  7
01
 72
     4
 11
2681.836241179583
 21
5816.455817075009
 31
0.0
100
AcDbText
  0
TEXT
  5
1D511
330
1D26B
100
AcDbEntity
  8
SUNPOU
100
AcDbText
 10
3510.448463221474
 20
5979.584022203215
 30
0.0
 40
98.46153846153846
  1
/
 41
0.6700000000000001
  7
00
 11
3510.448463221474
 21
5966.45581707501
 31
0.0
100
AcDbText
 73
     1
  0
TEXT
  5
1D512
330
1D26B
100
AcDbEntity
  8
SUNPOU
100
AcDbText
 10
3595.714387160639
 20
5954.968637587828
 30
0.0
 40
98.46153846153846
  1
20
 41
0.6700000000000001
  7
00
 11
3595.714387160639
 21
5941.840432459623
 31
0.0
100
AcDbText
 73
     1
  0
TEXT
  5
1D513
330
1D26B
100
AcDbEntity
  8
SUNPOU
100
AcDbText
 10
3445.906960134323
 20
6004.1994068186
 30
0.0
 40
98.46153846153846
  1
1
 41
0.6700000000000001
  7
00
 11
3445.906960134323
 21
5991.071201690395
 31
0.0
100
AcDbText
 73
     1
  0
TEXT
  5
1D514
330
1D26B
100
AcDbEntity
  8
SUNPOU
100
AcDbText
 10
3019.636690996879
 20
5982.866073485267
 30
0.0
 40
123.076923076923
  1
（ S = 　　  ）
 41
0.6700000000000001
  7
00
 11
3019.636690996879
 21
5966.45581707501
 31
0.0
100
AcDbText
 73
     1
  0
TEXT
  5
1D515
330
1D26B
100
AcDbEntity
  8
SUNPOU
100
AcDbText
 10
2063.836241179577
 20
5966.45581707501
 30
0.0
 40
160.0
  1
基礎断面図
  7
01
 72
     4
 11
2517.169574512911
 21
6046.45581707501
 31
0.0
100
AcDbText
  0
TEXT
  5
1D516
330
1D26B
100
AcDbEntity
  8
SUNPOU
100
AcDbText
 10
10074.79159401871
 20
1358.020419738543
 30
0.0
 40
119.9991666724536
  1
ベース筋
  7
01
100
AcDbText
  0
TEXT
  5
1D517
330
1D26B
100
AcDbEntity
  8
SUNPOU
100
AcDbText
 10
10733.50143742892
 20
1358.020419738543
 30
0.0
 40
119.9991666724536
  1
5-D13 x 5-D13
 41
0.6666666666666666
  7
01
100
AcDbText
  0
TEXT
  5
1D518
330
1D26B
100
AcDbEntity
  8
SUNPOU
100
AcDbText
 10
4953.027626242327
 20
1358.020419738543
 30
0.0
 40
119.9991666724536
  1
ベース筋
  7
01
100
AcDbText
  0
TEXT
  5
1D519
330
1D26B
100
AcDbEntity
  8
SUNPOU
100
AcDbText
 10
5611.737469652544
 20
1358.020419738543
 30
0.0
 40
119.9991666724536
  1
6-D13 x 6-D13
 41
0.6666666666666666
  7
01
100
AcDbText
  0
TEXT
  5
1D51A
330
1D26B
100
AcDbEntity
  8
HIKIDASHI
100
AcDbText
 10
7402.046117180251
 20
6186.524167366206
 30
0.0
 40
180.0
  1
基 礎 伏 図
  7
01
 72
     2
 11
8530.046117180251
 21
6186.524167366206
 31
0.0
100
AcDbText
  0
TEXT
  5
1D51B
330
1D26B
100
AcDbEntity
  8
HIKIDASHI
100
AcDbText
 10
8665.046117180251
 20
6222.248830112658
 30
0.0
 40
120.0
  1
(S=
 41
0.6700000000000001
  7
00
100
AcDbText
  0
TEXT
  5
1D51C
330
1D26B
100
AcDbEntity
  8
HIKIDASHI
100
AcDbText
 10
9055.256430027181
 20
6182.997083312242
 30
0.0
 40
120.0
  1
40
 41
0.6700000000000001
  7
00
100
AcDbText
  0
TEXT
  5
1D51D
330
1D26B
100
AcDbEntity
  8
HIKIDASHI
100
AcDbText
 10
9237.396114120832
 20
6222.248830112658
 30
0.0
 40
120.0
  1
)
 41
0.6700000000000001
  7
00
100
AcDbText
  0
TEXT
  5
1D51E
330
1D26B
100
AcDbEntity
  8
HIKIDASHI
100
AcDbText
 10
8985.813697883225
 20
6222.248830112658
 30
0.0
 40
120.0
  1
/
 41
0.6700000000000001
  7
00
100
AcDbText
  0
TEXT
  5
1D51F
330
1D26B
100
AcDbEntity
  8
HIKIDASHI
100
AcDbText
 10
8936.107991086762
 20
6245.591046734952
 30
0.0
 40
120.0
  1
1
 41
0.6700000000000001
  7
00
100
AcDbText
  0
TEXT
  5
1D520
330
1D26B
100
AcDbEntity
  8
NAME
100
AcDbText
 10
11279.10966039867
 20
875.0
 30
0.0
 40
120.0
  1
＜壁一段・背低・単棟＞
  7
01
100
AcDbText
  0
LINE
  5
1D521
330
1D26B
100
AcDbEntity
  8
2PL-M2
100
AcDbLine
 10
11032.34656667793
 20
10317.24800501665
 30
0.0
 11
11032.34656667793
 21
7677.248005016647
 31
0.0
  0
TEXT
  5
1D522
330
1D26B
100
AcDbEntity
  8
SUNPOU
100
AcDbText
 10
11348.72310021784
 20
8650.287235501183
 30
0.0
 40
120.0
  1
ケラバ外面
 50
90.0
  7
01
 72
     4
 11
11288.72310021784
 21
8998.287235501182
 31
0.0
100
AcDbText
  0
LINE
  5
1D523
330
1D26B
100
AcDbEntity
  8
U1
100
AcDbLine
 10
9939.771010768534
 20
2001.291251548638
 30
0.0
 11
9939.771010768534
 21
2201.291251548639
 31
0.0
  0
LINE
  5
1D524
330
1D26B
100
AcDbEntity
  8
U1
100
AcDbLine
 10
8039.771010768534
 20
2201.291251548639
 30
0.0
 11
8039.771010768534
 21
2001.291251548638
 31
0.0
  0
LINE
  5
1D525
330
1D26B
100
AcDbEntity
  8
U1
100
AcDbLine
 10
8039.771010768534
 20
2001.291251548638
 30
0.0
 11
9939.771010768534
 21
2001.291251548638
 31
0.0
  0
LINE
  5
1D526
330
1D26B
100
AcDbEntity
  8
U1
100
AcDbLine
 10
9939.771010768534
 20
2201.291251548639
 30
0.0
 11
8039.771010768534
 21
2201.291251548639
 31
0.0
  0
LINE
  5
1D527
330
1D26B
100
AcDbEntity
  8
HATCH
100
AcDbLine
 10
9828.933381788418
 20
2201.291251548639
 30
0.0
 11
9748.10434410187
 21
2001.291251548638
 31
0.0
  0
LINE
  5
1D528
330
1D26B
100
AcDbEntity
  8
HATCH
100
AcDbLine
 10
9788.789739560147
 20
2001.291251548638
 30
0.0
 11
9764.857153996459
 21
2042.743705701461
 31
0.0
  0
LINE
  5
1D529
330
1D26B
100
AcDbEntity
  8
HATCH
100
AcDbLine
 10
9788.789739560147
 20
2201.291251548639
 30
0.0
 11
9812.722325123832
 21
2159.838797395816
 31
0.0
  0
LINE
  5
1D52A
330
1D26B
100
AcDbEntity
  8
HATCH
100
AcDbLine
 10
9628.933381788421
 20
2201.291251548639
 30
0.0
 11
9548.10434410187
 21
2001.291251548638
 31
0.0
  0
LINE
  5
1D52B
330
1D26B
100
AcDbEntity
  8
HATCH
100
AcDbLine
 10
9588.789739560146
 20
2001.291251548638
 30
0.0
 11
9564.857153996459
 21
2042.743705701461
 31
0.0
  0
LINE
  5
1D52C
330
1D26B
100
AcDbEntity
  8
HATCH
100
AcDbLine
 10
9588.789739560146
 20
2201.291251548639
 30
0.0
 11
9612.722325123845
 21
2159.838797395816
 31
0.0
  0
LINE
  5
1D52D
330
1D26B
100
AcDbEntity
  8
HATCH
100
AcDbLine
 10
9428.933381788418
 20
2201.291251548639
 30
0.0
 11
9348.104344101868
 21
2001.291251548638
 31
0.0
  0
LINE
  5
1D52E
330
1D26B
100
AcDbEntity
  8
HATCH
100
AcDbLine
 10
9388.789739560147
 20
2001.291251548638
 30
0.0
 11
9364.857153996458
 21
2042.743705701461
 31
0.0
  0
LINE
  5
1D52F
330
1D26B
100
AcDbEntity
  8
HATCH
100
AcDbLine
 10
9388.789739560147
 20
2201.291251548639
 30
0.0
 11
9412.722325123832
 21
2159.838797395816
 31
0.0
  0
LINE
  5
1D530
330
1D26B
100
AcDbEntity
  8
HATCH
100
AcDbLine
 10
9228.93338178842
 20
2201.291251548639
 30
0.0
 11
9148.10434410187
 21
2001.291251548638
 31
0.0
  0
LINE
  5
1D531
330
1D26B
100
AcDbEntity
  8
HATCH
100
AcDbLine
 10
9188.789739560148
 20
2001.291251548638
 30
0.0
 11
9164.857153996463
 21
2042.743705701461
 31
0.0
  0
LINE
  5
1D532
330
1D26B
100
AcDbEntity
  8
HATCH
100
AcDbLine
 10
9188.789739560148
 20
2201.291251548639
 30
0.0
 11
9212.722325123841
 21
2159.838797395816
 31
0.0
  0
LINE
  5
1D533
330
1D26B
100
AcDbEntity
  8
HATCH
100
AcDbLine
 10
9028.933381788418
 20
2201.291251548639
 30
0.0
 11
8948.104344101869
 21
2001.291251548638
 31
0.0
  0
LINE
  5
1D534
330
1D26B
100
AcDbEntity
  8
HATCH
100
AcDbLine
 10
8988.789739560147
 20
2001.291251548638
 30
0.0
 11
8964.857153996462
 21
2042.743705701461
 31
0.0
  0
LINE
  5
1D535
330
1D26B
100
AcDbEntity
  8
HATCH
100
AcDbLine
 10
8988.789739560147
 20
2201.291251548639
 30
0.0
 11
9012.72232512383
 21
2159.838797395816
 31
0.0
  0
LINE
  5
1D536
330
1D26B
100
AcDbEntity
  8
HATCH
100
AcDbLine
 10
8828.933381788418
 20
2201.291251548639
 30
0.0
 11
8748.10434410187
 21
2001.291251548638
 31
0.0
  0
LINE
  5
1D537
330
1D26B
100
AcDbEntity
  8
HATCH
100
AcDbLine
 10
8788.789739560147
 20
2001.291251548638
 30
0.0
 11
8764.857153996462
 21
2042.743705701461
 31
0.0
  0
LINE
  5
1D538
330
1D26B
100
AcDbEntity
  8
HATCH
100
AcDbLine
 10
8788.789739560147
 20
2201.291251548639
 30
0.0
 11
8812.722325123832
 21
2159.838797395816
 31
0.0
  0
LINE
  5
1D539
330
1D26B
100
AcDbEntity
  8
HATCH
100
AcDbLine
 10
8628.933381788419
 20
2201.291251548639
 30
0.0
 11
8548.10434410187
 21
2001.291251548638
 31
0.0
  0
LINE
  5
1D53A
330
1D26B
100
AcDbEntity
  8
HATCH
100
AcDbLine
 10
8588.789739560146
 20
2001.291251548638
 30
0.0
 11
8564.857153996461
 21
2042.743705701461
 31
0.0
  0
LINE
  5
1D53B
330
1D26B
100
AcDbEntity
  8
HATCH
100
AcDbLine
 10
8588.789739560146
 20
2201.291251548639
 30
0.0
 11
8612.722325123838
 21
2159.838797395816
 31
0.0
  0
LINE
  5
1D53C
330
1D26B
100
AcDbEntity
  8
HATCH
100
AcDbLine
 10
8428.933381788418
 20
2201.291251548639
 30
0.0
 11
8348.104344101868
 21
2001.291251548638
 31
0.0
  0
LINE
  5
1D53D
330
1D26B
100
AcDbEntity
  8
HATCH
100
AcDbLine
 10
8388.789739560147
 20
2001.291251548638
 30
0.0
 11
8364.857153996462
 21
2042.743705701461
 31
0.0
  0
LINE
  5
1D53E
330
1D26B
100
AcDbEntity
  8
HATCH
100
AcDbLine
 10
8388.789739560147
 20
2201.291251548639
 30
0.0
 11
8412.722325123832
 21
2159.838797395816
 31
0.0
  0
LINE
  5
1D53F
330
1D26B
100
AcDbEntity
  8
HATCH
100
AcDbLine
 10
8228.93338178842
 20
2201.291251548639
 30
0.0
 11
8148.10434410187
 21
2001.291251548638
 31
0.0
  0
LINE
  5
1D540
330
1D26B
100
AcDbEntity
  8
HATCH
100
AcDbLine
 10
8188.789739560148
 20
2001.291251548638
 30
0.0
 11
8164.857153996463
 21
2042.743705701461
 31
0.0
  0
LINE
  5
1D541
330
1D26B
100
AcDbEntity
  8
HATCH
100
AcDbLine
 10
8188.789739560148
 20
2201.291251548639
 30
0.0
 11
8212.722325123838
 21
2159.838797395816
 31
0.0
  0
LINE
  5
1D542
330
1D26B
100
AcDbEntity
  8
HATCH
100
AcDbLine
 10
4307.16941401203
 20
2201.291251548639
 30
0.0
 11
4226.340376325483
 21
2001.291251548638
 31
0.0
  0
LINE
  5
1D543
330
1D26B
100
AcDbEntity
  8
HATCH
100
AcDbLine
 10
4267.025771783759
 20
2001.291251548638
 30
0.0
 11
4243.093186220073
 21
2042.743705701461
 31
0.0
  0
LINE
  5
1D544
330
1D26B
100
AcDbEntity
  8
HATCH
100
AcDbLine
 10
4267.025771783759
 20
2201.291251548639
 30
0.0
 11
4290.958357347443
 21
2159.838797395816
 31
0.0
  0
LINE
  5
1D545
330
1D26B
100
AcDbEntity
  8
HATCH
100
AcDbLine
 10
4107.169414012029
 20
2201.291251548639
 30
0.0
 11
4026.340376325483
 21
2001.291251548638
 31
0.0
  0
LINE
  5
1D546
330
1D26B
100
AcDbEntity
  8
HATCH
100
AcDbLine
 10
4067.025771783759
 20
2001.291251548638
 30
0.0
 11
4043.093186220072
 21
2042.743705701461
 31
0.0
  0
LINE
  5
1D547
330
1D26B
100
AcDbEntity
  8
HATCH
100
AcDbLine
 10
4067.025771783759
 20
2201.291251548639
 30
0.0
 11
4090.958357347452
 21
2159.838797395816
 31
0.0
  0
LINE
  5
1D548
330
1D26B
100
AcDbEntity
  8
HATCH
100
AcDbLine
 10
3907.169414012031
 20
2201.291251548639
 30
0.0
 11
3826.340376325482
 21
2001.291251548638
 31
0.0
  0
LINE
  5
1D549
330
1D26B
100
AcDbEntity
  8
HATCH
100
AcDbLine
 10
3867.02577178376
 20
2001.291251548638
 30
0.0
 11
3843.093186220075
 21
2042.743705701461
 31
0.0
  0
LINE
  5
1D54A
330
1D26B
100
AcDbEntity
  8
HATCH
100
AcDbLine
 10
3867.02577178376
 20
2201.291251548639
 30
0.0
 11
3890.958357347445
 21
2159.838797395816
 31
0.0
  0
LINE
  5
1D54B
330
1D26B
100
AcDbEntity
  8
HATCH
100
AcDbLine
 10
3707.169414012031
 20
2201.291251548639
 30
0.0
 11
3626.340376325483
 21
2001.291251548638
 31
0.0
  0
LINE
  5
1D54C
330
1D26B
100
AcDbEntity
  8
HATCH
100
AcDbLine
 10
3667.025771783759
 20
2001.291251548638
 30
0.0
 11
3643.093186220073
 21
2042.743705701461
 31
0.0
  0
LINE
  5
1D54D
330
1D26B
100
AcDbEntity
  8
HATCH
100
AcDbLine
 10
3667.025771783759
 20
2201.291251548639
 30
0.0
 11
3690.958357347452
 21
2159.838797395816
 31
0.0
  0
LINE
  5
1D54E
330
1D26B
100
AcDbEntity
  8
HATCH
100
AcDbLine
 10
3507.169414012031
 20
2201.291251548639
 30
0.0
 11
3426.340376325482
 21
2001.291251548638
 31
0.0
  0
LINE
  5
1D54F
330
1D26B
100
AcDbEntity
  8
HATCH
100
AcDbLine
 10
3467.02577178376
 20
2001.291251548638
 30
0.0
 11
3443.093186220075
 21
2042.743705701461
 31
0.0
  0
LINE
  5
1D550
330
1D26B
100
AcDbEntity
  8
HATCH
100
AcDbLine
 10
3467.02577178376
 20
2201.291251548639
 30
0.0
 11
3490.958357347444
 21
2159.838797395816
 31
0.0
  0
LINE
  5
1D551
330
1D26B
100
AcDbEntity
  8
HATCH
100
AcDbLine
 10
3307.169414012031
 20
2201.291251548639
 30
0.0
 11
3226.340376325483
 21
2001.291251548638
 31
0.0
  0
LINE
  5
1D552
330
1D26B
100
AcDbEntity
  8
HATCH
100
AcDbLine
 10
3267.025771783759
 20
2001.291251548638
 30
0.0
 11
3243.093186220074
 21
2042.743705701461
 31
0.0
  0
LINE
  5
1D553
330
1D26B
100
AcDbEntity
  8
HATCH
100
AcDbLine
 10
3267.025771783759
 20
2201.291251548639
 30
0.0
 11
3290.958357347445
 21
2159.838797395816
 31
0.0
  0
LINE
  5
1D554
330
1D26B
100
AcDbEntity
  8
HATCH
100
AcDbLine
 10
3107.169414012032
 20
2201.291251548639
 30
0.0
 11
3026.340376325483
 21
2001.291251548638
 31
0.0
  0
LINE
  5
1D555
330
1D26B
100
AcDbEntity
  8
HATCH
100
AcDbLine
 10
3067.02577178376
 20
2001.291251548638
 30
0.0
 11
3043.093186220073
 21
2042.743705701461
 31
0.0
  0
LINE
  5
1D556
330
1D26B
100
AcDbEntity
  8
HATCH
100
AcDbLine
 10
3067.02577178376
 20
2201.291251548639
 30
0.0
 11
3090.958357347452
 21
2159.838797395816
 31
0.0
  0
LINE
  5
1D557
330
1D26B
100
AcDbEntity
  8
HATCH
100
AcDbLine
 10
2907.169414012031
 20
2201.291251548639
 30
0.0
 11
2826.340376325482
 21
2001.291251548638
 31
0.0
  0
LINE
  5
1D558
330
1D26B
100
AcDbEntity
  8
HATCH
100
AcDbLine
 10
2867.02577178376
 20
2001.291251548638
 30
0.0
 11
2843.093186220073
 21
2042.743705701461
 31
0.0
  0
LINE
  5
1D559
330
1D26B
100
AcDbEntity
  8
HATCH
100
AcDbLine
 10
2867.02577178376
 20
2201.291251548639
 30
0.0
 11
2890.958357347445
 21
2159.838797395816
 31
0.0
  0
LINE
  5
1D55A
330
1D26B
100
AcDbEntity
  8
HATCH
100
AcDbLine
 10
2707.16941401203
 20
2201.291251548639
 30
0.0
 11
2626.340376325484
 21
2001.291251548638
 31
0.0
  0
LINE
  5
1D55B
330
1D26B
100
AcDbEntity
  8
HATCH
100
AcDbLine
 10
2667.025771783759
 20
2001.291251548638
 30
0.0
 11
2643.093186220073
 21
2042.743705701461
 31
0.0
  0
LINE
  5
1D55C
330
1D26B
100
AcDbEntity
  8
HATCH
100
AcDbLine
 10
2667.025771783759
 20
2201.291251548639
 30
0.0
 11
2690.958357347452
 21
2159.838797395816
 31
0.0
  0
LINE
  5
1D55D
330
1D26B
100
AcDbEntity
  8
HATCH
100
AcDbLine
 10
4707.169414012031
 20
2201.291251548639
 30
0.0
 11
4626.340376325482
 21
2001.291251548638
 31
0.0
  0
LINE
  5
1D55E
330
1D26B
100
AcDbEntity
  8
HATCH
100
AcDbLine
 10
4667.025771783759
 20
2001.291251548638
 30
0.0
 11
4643.093186220074
 21
2042.743705701461
 31
0.0
  0
LINE
  5
1D55F
330
1D26B
100
AcDbEntity
  8
HATCH
100
AcDbLine
 10
4667.025771783759
 20
2201.291251548639
 30
0.0
 11
4690.958357347452
 21
2159.838797395816
 31
0.0
  0
LINE
  5
1D560
330
1D26B
100
AcDbEntity
  8
HATCH
100
AcDbLine
 10
4507.169414012031
 20
2201.291251548639
 30
0.0
 11
4426.340376325483
 21
2001.291251548638
 31
0.0
  0
LINE
  5
1D561
330
1D26B
100
AcDbEntity
  8
HATCH
100
AcDbLine
 10
4467.025771783759
 20
2001.291251548638
 30
0.0
 11
4443.093186220073
 21
2042.743705701461
 31
0.0
  0
LINE
  5
1D562
330
1D26B
100
AcDbEntity
  8
HATCH
100
AcDbLine
 10
4467.025771783759
 20
2201.291251548639
 30
0.0
 11
4490.958357347444
 21
2159.838797395816
 31
0.0
  0
TEXT
  5
1D563
330
1D26B
100
AcDbEntity
  8
FILENAME
100
AcDbText
 10
13954.38095238095
 20
174.0
 30
0.0
 40
100.0
  1
＜KWA-5426-1_3_JIS_GL.DXF ＞
  7
FILENAME
 72
     2
 11
16382.0
 21
174.0
 31
0.0
100
AcDbText
  0
LINE
  5
1D564
330
1D26B
100
AcDbEntity
  8
WAKUSEN-01
100
AcDbLine
 10
434.0000000000008
 20
413.9999999999997
 30
0.0
 11
16382.0
 21
413.9999999999997
 31
0.0
  0
LINE
  5
1D565
330
1D26B
100
AcDbEntity
  8
WAKUSEN-01
100
AcDbLine
 10
434.0000000000008
 20
11242.0
 30
0.0
 11
16382.0
 21
11242.0
 31
0.0
  0
LINE
  5
1D566
330
1D26B
100
AcDbEntity
  8
WAKUSEN-01
100
AcDbLine
 10
434.0000000000008
 20
413.9999999999997
 30
0.0
 11
434.0000000000008
 21
11242.0
 31
0.0
  0
LINE
  5
1D567
330
1D26B
100
AcDbEntity
  8
WAKUSEN-01
100
AcDbLine
 10
16382.0
 20
413.9999999999997
 30
0.0
 11
16382.0
 21
11242.0
 31
0.0
  0
LINE
  5
1D568
330
1D26B
100
AcDbEntity
  8
WAKUSEN-01
100
AcDbLine
 10
10280.0
 20
1242.0
 30
0.0
 11
16382.0
 21
1242.0
 31
0.0
  0
LINE
  5
1D569
330
1D26B
100
AcDbEntity
  8
WAKUSEN-02
100
AcDbLine
 10
10280.0
 20
827.9999999999997
 30
0.0
 11
13434.0
 21
827.9999999999997
 31
0.0
  0
TEXT
  5
1D56A
330
1D26B
100
AcDbEntity
  8
WAKUMOJI-01
100
AcDbText
 10
10335.13012998137
 20
1062.951504669661
 30
0.0
 40
120.0
  1
名　称
  7
WAKUMOJI
100
AcDbText
  0
TEXT
  5
1D56B
330
1D26B
100
AcDbEntity
  8
WAKUMOJI-01
100
AcDbText
 10
10328.25274254596
 20
659.5644874899107
 30
0.0
 40
120.0
  1
機種名
  7
WAKUMOJI
100
AcDbText
  0
LINE
  5
1D56C
330
1D26B
100
AcDbEntity
  8
WAKUSEN-01
100
AcDbLine
 10
10280.0
 20
413.9999999999984
 30
0.0
 11
10280.0
 21
1242.0
 31
0.0
  0
LINE
  5
1D56D
330
1D26B
100
AcDbEntity
  8
WAKUSEN-02
100
AcDbLine
 10
13434.0
 20
413.9999999999963
 30
0.0
 11
13434.0
 21
1242.0
 31
0.0
  0
LINE
  5
1D56E
330
1D26B
100
AcDbEntity
  8
YODOROGO
100
AcDbLine
 10
14988.80217064596
 20
997.8747482146435
 30
0.0
 11
14914.80217064596
 21
997.8747482146435
 31
0.0
1001
AUTOCAD_POSTSCRIPT_FIGURE
1002
{
1000
PSFILL
1000
Grayscale
1000
Grayscale
1070
    25
1002
}
  0
LINE
  5
1D56F
330
1D26B
100
AcDbEntity
  8
YODOROGO
100
AcDbLine
 10
14914.80217064596
 20
973.8747482146434
 30
0.0
 11
14988.80217064596
 21
973.8747482146434
 31
0.0
1001
AUTOCAD_POSTSCRIPT_FIGURE
1002
{
1000
PSFILL
1000
Grayscale
1000
Grayscale
1070
    25
1002
}
  0
LINE
  5
1D570
330
1D26B
100
AcDbEntity
  8
YODOROGO
100
AcDbLine
 10
14988.80217064596
 20
953.874748214644
 30
0.0
 11
14914.80217064596
 21
953.874748214644
 31
0.0
1001
AUTOCAD_POSTSCRIPT_FIGURE
1002
{
1000
PSFILL
1000
Grayscale
1000
Grayscale
1070
    25
1002
}
  0
LINE
  5
1D571
330
1D26B
100
AcDbEntity
  8
YODOROGO
100
AcDbLine
 10
14914.80217064596
 20
929.874748214644
 30
0.0
 11
14988.80217064596
 21
929.874748214644
 31
0.0
1001
AUTOCAD_POSTSCRIPT_FIGURE
1002
{
1000
PSFILL
1000
Grayscale
1000
Grayscale
1070
    25
1002
}
  0
LINE
  5
1D572
330
1D26B
100
AcDbEntity
  8
YODOROGO
100
AcDbLine
 10
14988.80217064596
 20
909.8747482146439
 30
0.0
 11
14914.80217064596
 21
909.8747482146439
 31
0.0
1001
AUTOCAD_POSTSCRIPT_FIGURE
1002
{
1000
PSFILL
1000
Grayscale
1000
Grayscale
1070
    25
1002
}
  0
LINE
  5
1D573
330
1D26B
100
AcDbEntity
  8
YODOROGO
100
AcDbLine
 10
14960.80217064594
 20
853.874748214644
 30
0.0
 11
14988.80217064596
 21
853.874748214644
 31
0.0
1001
AUTOCAD_POSTSCRIPT_FIGURE
1002
{
1000
PSFILL
1000
Grayscale
1000
Grayscale
1070
    25
1002
}
  0
LINE
  5
1D574
330
1D26B
100
AcDbEntity
  8
YODOROGO
100
AcDbLine
 10
14868.80217064596
 20
713.8747482146435
 30
0.0
 11
14968.80217064596
 21
740.6696674577553
 31
0.0
  0
LINE
  5
1D575
330
1D26B
100
AcDbEntity
  8
YODOROGO
100
AcDbLine
 10
14974.80217064595
 20
853.874748214644
 30
0.0
 11
14942.80217064596
 21
853.874748214644
 31
0.0
  0
ARC
  5
1D576
330
1D26B
100
AcDbEntity
  8
YODOROGO
100
AcDbCircle
 10
15127.17387491394
 20
903.9323046166312
 30
0.0
 40
190.9434321028236
100
AcDbArc
 50
213.9611167766784
 51
264.4787207431779
  0
ARC
  5
1D577
330
1D26B
100
AcDbEntity
  8
YODOROGO
100
AcDbCircle
 10
15127.17387491396
 20
903.9323046166513
 30
0.0
 40
190.9434321028408
100
AcDbArc
 50
208.141144204866
 51
212.9210361185994
  0
LINE
  5
1D578
330
1D26B
100
AcDbEntity
  8
YODOROGO
100
AcDbLine
 10
14885.70493649264
 20
778.403830673117
 30
0.0
 11
14966.89206625426
 21
800.1578565285436
 31
0.0
  0
LINE
  5
1D579
330
1D26B
100
AcDbEntity
  8
YODOROGO
100
AcDbLine
 10
14868.80217064596
 20
713.8747482146435
 30
0.0
 11
14968.80217064596
 21
740.6696674577553
 31
0.0
  0
LINE
  5
1D57A
330
1D26B
100
AcDbEntity
  8
YODOROGO
100
AcDbLine
 10
14974.80217064595
 20
853.874748214644
 30
0.0
 11
14942.80217064596
 21
853.874748214644
 31
0.0
  0
ARC
  5
1D57B
330
1D26B
100
AcDbEntity
  8
YODOROGO
100
AcDbCircle
 10
15127.17387491394
 20
903.9323046166312
 30
0.0
 40
190.9434321028236
100
AcDbArc
 50
213.9611167766784
 51
264.4787207431779
  0
LINE
  5
1D57C
330
1D26B
100
AcDbEntity
  8
YODOROGO
100
AcDbLine
 10
14396.80217064594
 20
909.8747482146439
 30
0.0
 11
14216.80217064594
 21
909.8747482146439
 31
0.0
  0
LINE
  5
1D57D
330
1D26B
100
AcDbEntity
  8
YODOROGO
100
AcDbLine
 10
14256.80217064594
 20
713.8747482146435
 30
0.0
 11
14396.80217064594
 21
713.8747482146435
 31
0.0
  0
LINE
  5
1D57E
330
1D26B
100
AcDbEntity
  8
YODOROGO
100
AcDbLine
 10
14364.80217064596
 20
961.8747482146432
 30
0.0
 11
14248.80217064594
 21
961.8747482146432
 31
0.0
  0
LINE
  5
1D57F
330
1D26B
100
AcDbEntity
  8
YODOROGO
100
AcDbLine
 10
14292.80217064596
 20
1013.874748214644
 30
0.0
 11
14328.80217064596
 21
1013.874748214644
 31
0.0
  0
LINE
  5
1D580
330
1D26B
100
AcDbEntity
  8
YODOROGO
100
AcDbLine
 10
14216.80217064594
 20
853.874748214644
 30
0.0
 11
14216.80217064594
 21
753.8747482146439
 31
0.0
  0
LINE
  5
1D581
330
1D26B
100
AcDbEntity
  8
YODOROGO
100
AcDbLine
 10
14248.80217064594
 20
781.8747482146434
 30
0.0
 11
14248.80217064594
 21
853.874748214644
 31
0.0
  0
LINE
  5
1D582
330
1D26B
100
AcDbEntity
  8
YODOROGO
100
AcDbLine
 10
14292.80217064596
 20
873.8747482146449
 30
0.0
 11
14292.80217064596
 21
773.874748214644
 31
0.0
  0
LINE
  5
1D583
330
1D26B
100
AcDbEntity
  8
YODOROGO
100
AcDbLine
 10
13928.80217064596
 20
841.8747482146445
 30
0.0
 11
13888.80217064596
 21
809.9862070222856
 31
0.0
  0
LINE
  5
1D584
330
1D26B
100
AcDbEntity
  8
YODOROGO
100
AcDbLine
 10
13968.80217064596
 20
809.9862070222856
 30
0.0
 11
13928.80217064596
 21
841.8747482146445
 31
0.0
  0
LINE
  5
1D585
330
1D26B
100
AcDbEntity
  8
YODOROGO
100
AcDbLine
 10
13928.80217064596
 20
853.874748214644
 30
0.0
 11
13968.80217064596
 21
821.986207022285
 31
0.0
  0
LINE
  5
1D586
330
1D26B
100
AcDbEntity
  8
YODOROGO
100
AcDbLine
 10
13888.80217064596
 20
821.986207022285
 30
0.0
 11
13928.80217064596
 21
853.874748214644
 31
0.0
  0
LINE
  5
1D587
330
1D26B
100
AcDbEntity
  8
YODOROGO
100
AcDbLine
 10
14020.45660200844
 20
829.874748214644
 30
0.0
 11
14020.45660200844
 21
841.8747482146434
 31
0.0
  0
LINE
  5
1D588
330
1D26B
100
AcDbEntity
  8
YODOROGO
100
AcDbLine
 10
13988.80217064596
 20
841.8747482146434
 30
0.0
 11
13988.80217064596
 21
833.8747482146427
 31
0.0
  0
LINE
  5
1D589
330
1D26B
100
AcDbEntity
  8
YODOROGO
100
AcDbLine
 10
14049.06776011545
 20
853.874748214644
 30
0.0
 11
14049.06776011545
 21
827.751818637328
 31
0.0
1001
AUTOCAD_POSTSCRIPT_FIGURE
1002
{
1000
PSFILL
1000
Grayscale
1000
Grayscale
1070
   100
1002
}
  0
LINE
  5
1D58A
330
1D26B
100
AcDbEntity
  8
YODOROGO
100
AcDbLine
 10
14041.06776011546
 20
827.751818637328
 30
0.0
 11
14041.06776011546
 21
853.874748214644
 31
0.0
1001
AUTOCAD_POSTSCRIPT_FIGURE
1002
{
1000
PSFILL
1000
Grayscale
1000
Grayscale
1070
   100
1002
}
  0
LINE
  5
1D58B
330
1D26B
100
AcDbEntity
  8
YODOROGO
100
AcDbLine
 10
13904.80217064596
 20
804.3859520216292
 30
0.0
 11
13904.80217064596
 21
816.3859520216298
 31
0.0
  0
LINE
  5
1D58C
330
1D26B
100
AcDbEntity
  8
YODOROGO
100
AcDbLine
 10
13952.80217064596
 20
804.3859520216292
 30
0.0
 11
13904.80217064596
 21
804.3859520216292
 31
0.0
  0
LINE
  5
1D58D
330
1D26B
100
AcDbEntity
  8
YODOROGO
100
AcDbLine
 10
13952.80217064596
 20
816.3859520216298
 30
0.0
 11
13952.80217064596
 21
804.3859520216292
 31
0.0
  0
LINE
  5
1D58E
330
1D26B
100
AcDbEntity
  8
YODOROGO
100
AcDbLine
 10
13904.80217064596
 20
816.3859520216298
 30
0.0
 11
13952.80217064596
 21
816.3859520216298
 31
0.0
  0
LINE
  5
1D58F
330
1D26B
100
AcDbEntity
  8
YODOROGO
100
AcDbLine
 10
13912.25479445787
 20
784.2514286852374
 30
0.0
 11
13892.80217064596
 21
737.8747482146435
 31
0.0
1001
AUTOCAD_POSTSCRIPT_FIGURE
1002
{
1000
PSFILL
1000
Grayscale
1000
Grayscale
1070
   100
1002
}
  0
LINE
  5
1D590
330
1D26B
100
AcDbEntity
  8
YODOROGO
100
AcDbLine
 10
13888.80217064596
 20
784.2514286852374
 30
0.0
 11
13912.25479445787
 21
784.2514286852374
 31
0.0
1001
AUTOCAD_POSTSCRIPT_FIGURE
1002
{
1000
PSFILL
1000
Grayscale
1000
Grayscale
1070
   100
1002
}
  0
LINE
  5
1D591
330
1D26B
100
AcDbEntity
  8
YODOROGO
100
AcDbLine
 10
13888.80217064596
 20
794.2514286852374
 30
0.0
 11
13888.80217064596
 21
784.2514286852374
 31
0.0
1001
AUTOCAD_POSTSCRIPT_FIGURE
1002
{
1000
PSFILL
1000
Grayscale
1000
Grayscale
1070
   100
1002
}
  0
LINE
  5
1D592
330
1D26B
100
AcDbEntity
  8
YODOROGO
100
AcDbLine
 10
13968.80217064596
 20
794.2514286852374
 30
0.0
 11
13888.80217064596
 21
794.2514286852374
 31
0.0
1001
AUTOCAD_POSTSCRIPT_FIGURE
1002
{
1000
PSFILL
1000
Grayscale
1000
Grayscale
1070
   100
1002
}
  0
LINE
  5
1D593
330
1D26B
100
AcDbEntity
  8
YODOROGO
100
AcDbLine
 10
13968.80217064596
 20
784.2514286852374
 30
0.0
 11
13968.80217064596
 21
794.2514286852374
 31
0.0
1001
AUTOCAD_POSTSCRIPT_FIGURE
1002
{
1000
PSFILL
1000
Grayscale
1000
Grayscale
1070
   100
1002
}
  0
LINE
  5
1D594
330
1D26B
100
AcDbEntity
  8
YODOROGO
100
AcDbLine
 10
13922.25479445786
 20
784.2514286852374
 30
0.0
 11
13968.80217064596
 21
784.2514286852374
 31
0.0
1001
AUTOCAD_POSTSCRIPT_FIGURE
1002
{
1000
PSFILL
1000
Grayscale
1000
Grayscale
1070
   100
1002
}
  0
LINE
  5
1D595
330
1D26B
100
AcDbEntity
  8
YODOROGO
100
AcDbLine
 10
13907.77335914238
 20
747.8747482146435
 30
0.0
 11
13922.25479445786
 21
784.2514286852374
 31
0.0
1001
AUTOCAD_POSTSCRIPT_FIGURE
1002
{
1000
PSFILL
1000
Grayscale
1000
Grayscale
1070
   100
1002
}
  0
LINE
  5
1D596
330
1D26B
100
AcDbEntity
  8
YODOROGO
100
AcDbLine
 10
13951.02739540432
 20
747.8747482146435
 30
0.0
 11
13907.77335914238
 21
747.8747482146435
 31
0.0
1001
AUTOCAD_POSTSCRIPT_FIGURE
1002
{
1000
PSFILL
1000
Grayscale
1000
Grayscale
1070
   100
1002
}
  0
LINE
  5
1D597
330
1D26B
100
AcDbEntity
  8
YODOROGO
100
AcDbLine
 10
13942.53250239547
 20
768.1169053488464
 30
0.0
 11
13951.02739540432
 21
747.8747482146435
 31
0.0
1001
AUTOCAD_POSTSCRIPT_FIGURE
1002
{
1000
PSFILL
1000
Grayscale
1000
Grayscale
1070
   100
1002
}
  0
LINE
  5
1D598
330
1D26B
100
AcDbEntity
  8
YODOROGO
100
AcDbLine
 10
13950.53250239547
 20
768.1169053488464
 30
0.0
 11
13942.53250239547
 21
768.1169053488464
 31
0.0
1001
AUTOCAD_POSTSCRIPT_FIGURE
1002
{
1000
PSFILL
1000
Grayscale
1000
Grayscale
1070
   100
1002
}
  0
LINE
  5
1D599
330
1D26B
100
AcDbEntity
  8
YODOROGO
100
AcDbLine
 10
13964.80217064596
 20
737.8747482146435
 30
0.0
 11
13950.53250239547
 21
768.1169053488464
 31
0.0
1001
AUTOCAD_POSTSCRIPT_FIGURE
1002
{
1000
PSFILL
1000
Grayscale
1000
Grayscale
1070
   100
1002
}
  0
LINE
  5
1D59A
330
1D26B
100
AcDbEntity
  8
YODOROGO
100
AcDbLine
 10
13892.80217064596
 20
737.8747482146435
 30
0.0
 11
13964.80217064596
 21
737.8747482146435
 31
0.0
1001
AUTOCAD_POSTSCRIPT_FIGURE
1002
{
1000
PSFILL
1000
Grayscale
1000
Grayscale
1070
   100
1002
}
  0
LINE
  5
1D59B
330
1D26B
100
AcDbEntity
  8
YODOROGO
100
AcDbLine
 10
13888.80217064596
 20
809.9862070222856
 30
0.0
 11
13888.80217064596
 21
821.986207022285
 31
0.0
  0
LINE
  5
1D59C
330
1D26B
100
AcDbEntity
  8
YODOROGO
100
AcDbLine
 10
13968.80217064596
 20
821.986207022285
 30
0.0
 11
13968.80217064596
 21
809.9862070222856
 31
0.0
  0
ARC
  5
1D59D
330
1D26B
100
AcDbEntity
  8
YODOROGO
100
AcDbCircle
 10
14112.97022107348
 20
800.438882662663
 30
0.0
 40
87.99999999999995
100
AcDbArc
 50
280.3644312771313
 51
3.541483659218056
  0
ARC
  5
1D59E
330
1D26B
100
AcDbEntity
  8
YODOROGO
100
AcDbCircle
 10
14117.87801537965
 20
816.798903480952
 30
0.0
 40
55.99999999999914
100
AcDbArc
 50
281.2490582504155
 51
348.7509417495832
  0
LINE
  5
1D59F
330
1D26B
100
AcDbEntity
  8
YODOROGO
100
AcDbLine
 10
14128.80217064596
 20
761.8747482146434
 30
0.0
 11
14128.80217064596
 21
713.8747482146435
 31
0.0
  0
LINE
  5
1D5A0
330
1D26B
100
AcDbEntity
  8
YODOROGO
100
AcDbLine
 10
14010.04445186845
 20
805.3252825309574
 30
0.0
 11
14020.45660200844
 21
829.874748214644
 31
0.0
  0
LINE
  5
1D5A1
330
1D26B
100
AcDbEntity
  8
YODOROGO
100
AcDbLine
 10
14020.80217064596
 20
791.5602449742006
 30
0.0
 11
14010.04445186845
 21
805.3252825309574
 31
0.0
  0
LINE
  5
1D5A2
330
1D26B
100
AcDbEntity
  8
YODOROGO
100
AcDbLine
 10
14020.80217064596
 20
781.5602449741994
 30
0.0
 11
14020.80217064596
 21
791.5602449742006
 31
0.0
  0
LINE
  5
1D5A3
330
1D26B
100
AcDbEntity
  8
YODOROGO
100
AcDbLine
 10
14008.80217064596
 20
792.6185318747651
 30
0.0
 11
14020.80217064596
 21
781.5602449741994
 31
0.0
  0
LINE
  5
1D5A4
330
1D26B
100
AcDbEntity
  8
YODOROGO
100
AcDbLine
 10
14008.80217064596
 20
737.8747482146435
 30
0.0
 11
14008.80217064596
 21
792.6185318747651
 31
0.0
  0
LINE
  5
1D5A5
330
1D26B
100
AcDbEntity
  8
YODOROGO
100
AcDbLine
 10
14000.80217064596
 20
737.8747482146435
 30
0.0
 11
14008.80217064596
 21
737.8747482146435
 31
0.0
  0
LINE
  5
1D5A6
330
1D26B
100
AcDbEntity
  8
YODOROGO
100
AcDbLine
 10
14000.80217064596
 20
790.0026748448738
 30
0.0
 11
14000.80217064596
 21
737.8747482146435
 31
0.0
  0
LINE
  5
1D5A7
330
1D26B
100
AcDbEntity
  8
YODOROGO
100
AcDbLine
 10
13988.80217064596
 20
766.3840395167142
 30
0.0
 11
14000.80217064596
 21
790.0026748448738
 31
0.0
  0
LINE
  5
1D5A8
330
1D26B
100
AcDbEntity
  8
YODOROGO
100
AcDbLine
 10
13988.80217064596
 20
778.3840395167149
 30
0.0
 11
13988.80217064596
 21
766.3840395167142
 31
0.0
  0
LINE
  5
1D5A9
330
1D26B
100
AcDbEntity
  8
YODOROGO
100
AcDbLine
 10
14012.91438714567
 20
833.8747482146427
 30
0.0
 11
13988.80217064596
 21
778.3840395167149
 31
0.0
  0
LINE
  5
1D5AA
330
1D26B
100
AcDbEntity
  8
YODOROGO
100
AcDbLine
 10
13988.80217064596
 20
833.8747482146427
 30
0.0
 11
14012.91438714567
 21
833.8747482146427
 31
0.0
  0
LINE
  5
1D5AB
330
1D26B
100
AcDbEntity
  8
YODOROGO
100
AcDbLine
 10
14025.06776011545
 20
827.751818637328
 30
0.0
 11
14041.06776011546
 21
827.751818637328
 31
0.0
1001
AUTOCAD_POSTSCRIPT_FIGURE
1002
{
1000
PSFILL
1000
Grayscale
1000
Grayscale
1070
   100
1002
}
  0
LINE
  5
1D5AC
330
1D26B
100
AcDbEntity
  8
YODOROGO
100
AcDbLine
 10
14025.06776011545
 20
815.7518186373286
 30
0.0
 11
14025.06776011545
 21
827.751818637328
 31
0.0
1001
AUTOCAD_POSTSCRIPT_FIGURE
1002
{
1000
PSFILL
1000
Grayscale
1000
Grayscale
1070
   100
1002
}
  0
LINE
  5
1D5AD
330
1D26B
100
AcDbEntity
  8
YODOROGO
100
AcDbLine
 10
14041.06776011546
 20
815.7518186373286
 30
0.0
 11
14025.06776011545
 21
815.7518186373286
 31
0.0
1001
AUTOCAD_POSTSCRIPT_FIGURE
1002
{
1000
PSFILL
1000
Grayscale
1000
Grayscale
1070
   100
1002
}
  0
LINE
  5
1D5AE
330
1D26B
100
AcDbEntity
  8
YODOROGO
100
AcDbLine
 10
14041.06776011546
 20
749.8747482146441
 30
0.0
 11
14041.06776011546
 21
815.7518186373286
 31
0.0
1001
AUTOCAD_POSTSCRIPT_FIGURE
1002
{
1000
PSFILL
1000
Grayscale
1000
Grayscale
1070
   100
1002
}
  0
LINE
  5
1D5AF
330
1D26B
100
AcDbEntity
  8
YODOROGO
100
AcDbLine
 10
14025.06776011545
 20
749.8747482146441
 30
0.0
 11
14041.06776011546
 21
749.8747482146441
 31
0.0
1001
AUTOCAD_POSTSCRIPT_FIGURE
1002
{
1000
PSFILL
1000
Grayscale
1000
Grayscale
1070
   100
1002
}
  0
LINE
  5
1D5B0
330
1D26B
100
AcDbEntity
  8
YODOROGO
100
AcDbLine
 10
14025.06776011545
 20
737.8747482146435
 30
0.0
 11
14025.06776011545
 21
749.8747482146441
 31
0.0
1001
AUTOCAD_POSTSCRIPT_FIGURE
1002
{
1000
PSFILL
1000
Grayscale
1000
Grayscale
1070
   100
1002
}
  0
LINE
  5
1D5B1
330
1D26B
100
AcDbEntity
  8
YODOROGO
100
AcDbLine
 10
14068.80217064596
 20
737.8747482146435
 30
0.0
 11
14025.06776011545
 21
737.8747482146435
 31
0.0
1001
AUTOCAD_POSTSCRIPT_FIGURE
1002
{
1000
PSFILL
1000
Grayscale
1000
Grayscale
1070
   100
1002
}
  0
LINE
  5
1D5B2
330
1D26B
100
AcDbEntity
  8
YODOROGO
100
AcDbLine
 10
14068.80217064596
 20
749.8747482146441
 30
0.0
 11
14068.80217064596
 21
737.8747482146435
 31
0.0
1001
AUTOCAD_POSTSCRIPT_FIGURE
1002
{
1000
PSFILL
1000
Grayscale
1000
Grayscale
1070
   100
1002
}
  0
LINE
  5
1D5B3
330
1D26B
100
AcDbEntity
  8
YODOROGO
100
AcDbLine
 10
14049.06776011545
 20
749.8747482146441
 30
0.0
 11
14068.80217064596
 21
749.8747482146441
 31
0.0
1001
AUTOCAD_POSTSCRIPT_FIGURE
1002
{
1000
PSFILL
1000
Grayscale
1000
Grayscale
1070
   100
1002
}
  0
LINE
  5
1D5B4
330
1D26B
100
AcDbEntity
  8
YODOROGO
100
AcDbLine
 10
14049.06776011545
 20
815.7518186373286
 30
0.0
 11
14049.06776011545
 21
749.8747482146441
 31
0.0
1001
AUTOCAD_POSTSCRIPT_FIGURE
1002
{
1000
PSFILL
1000
Grayscale
1000
Grayscale
1070
   100
1002
}
  0
LINE
  5
1D5B5
330
1D26B
100
AcDbEntity
  8
YODOROGO
100
AcDbLine
 10
14068.80217064596
 20
815.7518186373286
 30
0.0
 11
14049.06776011545
 21
815.7518186373286
 31
0.0
1001
AUTOCAD_POSTSCRIPT_FIGURE
1002
{
1000
PSFILL
1000
Grayscale
1000
Grayscale
1070
   100
1002
}
  0
LINE
  5
1D5B6
330
1D26B
100
AcDbEntity
  8
YODOROGO
100
AcDbLine
 10
14068.80217064596
 20
827.751818637328
 30
0.0
 11
14068.80217064596
 21
815.7518186373286
 31
0.0
1001
AUTOCAD_POSTSCRIPT_FIGURE
1002
{
1000
PSFILL
1000
Grayscale
1000
Grayscale
1070
   100
1002
}
  0
LINE
  5
1D5B7
330
1D26B
100
AcDbEntity
  8
YODOROGO
100
AcDbLine
 10
14049.06776011545
 20
827.751818637328
 30
0.0
 11
14068.80217064596
 21
827.751818637328
 31
0.0
1001
AUTOCAD_POSTSCRIPT_FIGURE
1002
{
1000
PSFILL
1000
Grayscale
1000
Grayscale
1070
   100
1002
}
  0
LINE
  5
1D5B8
330
1D26B
100
AcDbEntity
  8
YODOROGO
100
AcDbLine
 10
14200.80217064594
 20
833.8747482146439
 30
0.0
 11
14172.80217064596
 21
833.8747482146439
 31
0.0
  0
LINE
  5
1D5B9
330
1D26B
100
AcDbEntity
  8
YODOROGO
100
AcDbLine
 10
14200.80217064594
 20
805.8747482146443
 30
0.0
 11
14200.80217064594
 21
833.8747482146439
 31
0.0
  0
LINE
  5
1D5BA
330
1D26B
100
AcDbEntity
  8
YODOROGO
100
AcDbLine
 10
14172.80217064596
 20
833.8747482146439
 30
0.0
 11
14172.80217064596
 21
805.8747482146443
 31
0.0
  0
ARC
  5
1D5BB
330
1D26B
100
AcDbEntity
  8
YODOROGO
100
AcDbCircle
 10
14256.80217064594
 20
753.8747482146439
 30
0.0
 40
40.0
100
AcDbArc
 50
180.0
 51
270.0
  0
ARC
  5
1D5BC
330
1D26B
100
AcDbEntity
  8
YODOROGO
100
AcDbCircle
 10
14268.80217064594
 20
781.8747482146434
 30
0.0
 40
20.0
100
AcDbArc
 50
180.0
 51
270.0
  0
LINE
  5
1D5BD
330
1D26B
100
AcDbEntity
  8
YODOROGO
100
AcDbLine
 10
14280.80217064596
 20
761.8747482146434
 30
0.0
 11
14268.80217064594
 21
761.8747482146434
 31
0.0
  0
ARC
  5
1D5BE
330
1D26B
100
AcDbEntity
  8
YODOROGO
100
AcDbCircle
 10
14280.80217064596
 20
773.8747482146427
 30
0.0
 40
11.99999999999818
100
AcDbArc
 50
270.0
 51
0.0000000000054281
  0
LINE
  5
1D5BF
330
1D26B
100
AcDbEntity
  8
YODOROGO
100
AcDbLine
 10
13900.80217064596
 20
945.3932903968532
 30
0.0
 11
13888.80217064596
 21
921.8883739758362
 31
0.0
1001
AUTOCAD_POSTSCRIPT_FIGURE
1002
{
1000
PSFILL
1000
Grayscale
1000
Grayscale
1070
   100
1002
}
  0
LINE
  5
1D5C0
330
1D26B
100
AcDbEntity
  8
YODOROGO
100
AcDbLine
 10
13900.80217064596
 20
873.8747482146434
 30
0.0
 11
13900.80217064596
 21
945.3932903968532
 31
0.0
1001
AUTOCAD_POSTSCRIPT_FIGURE
1002
{
1000
PSFILL
1000
Grayscale
1000
Grayscale
1070
   100
1002
}
  0
LINE
  5
1D5C1
330
1D26B
100
AcDbEntity
  8
YODOROGO
100
AcDbLine
 10
13908.80217064596
 20
873.8747482146434
 30
0.0
 11
13900.80217064596
 21
873.8747482146434
 31
0.0
1001
AUTOCAD_POSTSCRIPT_FIGURE
1002
{
1000
PSFILL
1000
Grayscale
1000
Grayscale
1070
   100
1002
}
  0
LINE
  5
1D5C2
330
1D26B
100
AcDbEntity
  8
YODOROGO
100
AcDbLine
 10
13908.80217064596
 20
946.8856660426332
 30
0.0
 11
13908.80217064596
 21
873.8747482146434
 31
0.0
1001
AUTOCAD_POSTSCRIPT_FIGURE
1002
{
1000
PSFILL
1000
Grayscale
1000
Grayscale
1070
   100
1002
}
  0
LINE
  5
1D5C3
330
1D26B
100
AcDbEntity
  8
YODOROGO
100
AcDbLine
 10
13920.80217064596
 20
933.8273791420684
 30
0.0
 11
13908.80217064596
 21
946.8856660426332
 31
0.0
1001
AUTOCAD_POSTSCRIPT_FIGURE
1002
{
1000
PSFILL
1000
Grayscale
1000
Grayscale
1070
   100
1002
}
  0
LINE
  5
1D5C4
330
1D26B
100
AcDbEntity
  8
YODOROGO
100
AcDbLine
 10
13920.80217064596
 20
941.8273791420681
 30
0.0
 11
13920.80217064596
 21
933.8273791420684
 31
0.0
1001
AUTOCAD_POSTSCRIPT_FIGURE
1002
{
1000
PSFILL
1000
Grayscale
1000
Grayscale
1070
   100
1002
}
  0
LINE
  5
1D5C5
330
1D26B
100
AcDbEntity
  8
YODOROGO
100
AcDbLine
 10
13908.80217064596
 20
958.8856660426325
 30
0.0
 11
13920.80217064596
 21
941.8273791420681
 31
0.0
1001
AUTOCAD_POSTSCRIPT_FIGURE
1002
{
1000
PSFILL
1000
Grayscale
1000
Grayscale
1070
   100
1002
}
  0
LINE
  5
1D5C6
330
1D26B
100
AcDbEntity
  8
YODOROGO
100
AcDbLine
 10
13908.80217064596
 20
969.8747482146441
 30
0.0
 11
13908.80217064596
 21
958.8856660426325
 31
0.0
1001
AUTOCAD_POSTSCRIPT_FIGURE
1002
{
1000
PSFILL
1000
Grayscale
1000
Grayscale
1070
   100
1002
}
  0
LINE
  5
1D5C7
330
1D26B
100
AcDbEntity
  8
YODOROGO
100
AcDbLine
 10
13944.80217064596
 20
969.8747482146441
 30
0.0
 11
13908.80217064596
 21
969.8747482146441
 31
0.0
1001
AUTOCAD_POSTSCRIPT_FIGURE
1002
{
1000
PSFILL
1000
Grayscale
1000
Grayscale
1070
   100
1002
}
  0
LINE
  5
1D5C8
330
1D26B
100
AcDbEntity
  8
YODOROGO
100
AcDbLine
 10
13944.80217064596
 20
950.2841744681495
 30
0.0
 11
13944.80217064596
 21
969.8747482146441
 31
0.0
1001
AUTOCAD_POSTSCRIPT_FIGURE
1002
{
1000
PSFILL
1000
Grayscale
1000
Grayscale
1070
   100
1002
}
  0
LINE
  5
1D5C9
330
1D26B
100
AcDbEntity
  8
YODOROGO
100
AcDbLine
 10
13928.80217064596
 20
950.2841744681495
 30
0.0
 11
13944.80217064596
 21
950.2841744681495
 31
0.0
1001
AUTOCAD_POSTSCRIPT_FIGURE
1002
{
1000
PSFILL
1000
Grayscale
1000
Grayscale
1070
   100
1002
}
  0
LINE
  5
1D5CA
330
1D26B
100
AcDbEntity
  8
YODOROGO
100
AcDbLine
 10
13928.80217064596
 20
942.2841744681491
 30
0.0
 11
13928.80217064596
 21
950.2841744681495
 31
0.0
1001
AUTOCAD_POSTSCRIPT_FIGURE
1002
{
1000
PSFILL
1000
Grayscale
1000
Grayscale
1070
   100
1002
}
  0
LINE
  5
1D5CB
330
1D26B
100
AcDbEntity
  8
YODOROGO
100
AcDbLine
 10
13944.80217064596
 20
942.2841744681491
 30
0.0
 11
13928.80217064596
 21
942.2841744681491
 31
0.0
1001
AUTOCAD_POSTSCRIPT_FIGURE
1002
{
1000
PSFILL
1000
Grayscale
1000
Grayscale
1070
   100
1002
}
  0
LINE
  5
1D5CC
330
1D26B
100
AcDbEntity
  8
YODOROGO
100
AcDbLine
 10
13944.80217064596
 20
939.8095889822196
 30
0.0
 11
13944.80217064596
 21
942.2841744681491
 31
0.0
1001
AUTOCAD_POSTSCRIPT_FIGURE
1002
{
1000
PSFILL
1000
Grayscale
1000
Grayscale
1070
   100
1002
}
  0
LINE
  5
1D5CD
330
1D26B
100
AcDbEntity
  8
YODOROGO
100
AcDbLine
 10
13924.80217064596
 20
906.4874905807087
 30
0.0
 11
13944.80217064596
 21
939.8095889822196
 31
0.0
1001
AUTOCAD_POSTSCRIPT_FIGURE
1002
{
1000
PSFILL
1000
Grayscale
1000
Grayscale
1070
   100
1002
}
  0
LINE
  5
1D5CE
330
1D26B
100
AcDbEntity
  8
YODOROGO
100
AcDbLine
 10
13924.80217064596
 20
898.487490580708
 30
0.0
 11
13924.80217064596
 21
906.4874905807087
 31
0.0
1001
AUTOCAD_POSTSCRIPT_FIGURE
1002
{
1000
PSFILL
1000
Grayscale
1000
Grayscale
1070
   100
1002
}
  0
LINE
  5
1D5CF
330
1D26B
100
AcDbEntity
  8
YODOROGO
100
AcDbLine
 10
13944.80217064596
 20
923.8095889822183
 30
0.0
 11
13924.80217064596
 21
898.487490580708
 31
0.0
1001
AUTOCAD_POSTSCRIPT_FIGURE
1002
{
1000
PSFILL
1000
Grayscale
1000
Grayscale
1070
   100
1002
}
  0
LINE
  5
1D5D0
330
1D26B
100
AcDbEntity
  8
YODOROGO
100
AcDbLine
 10
13944.80217064596
 20
873.8747482146434
 30
0.0
 11
13944.80217064596
 21
923.8095889822183
 31
0.0
1001
AUTOCAD_POSTSCRIPT_FIGURE
1002
{
1000
PSFILL
1000
Grayscale
1000
Grayscale
1070
   100
1002
}
  0
LINE
  5
1D5D1
330
1D26B
100
AcDbEntity
  8
YODOROGO
100
AcDbLine
 10
13952.80217064596
 20
873.8747482146434
 30
0.0
 11
13944.80217064596
 21
873.8747482146434
 31
0.0
1001
AUTOCAD_POSTSCRIPT_FIGURE
1002
{
1000
PSFILL
1000
Grayscale
1000
Grayscale
1070
   100
1002
}
  0
LINE
  5
1D5D2
330
1D26B
100
AcDbEntity
  8
YODOROGO
100
AcDbLine
 10
13952.80217064596
 20
924.7045060794032
 30
0.0
 11
13952.80217064596
 21
873.8747482146434
 31
0.0
1001
AUTOCAD_POSTSCRIPT_FIGURE
1002
{
1000
PSFILL
1000
Grayscale
1000
Grayscale
1070
   100
1002
}
  0
LINE
  5
1D5D3
330
1D26B
100
AcDbEntity
  8
YODOROGO
100
AcDbLine
 10
13968.80217064596
 20
898.487490580708
 30
0.0
 11
13952.80217064596
 21
924.7045060794032
 31
0.0
1001
AUTOCAD_POSTSCRIPT_FIGURE
1002
{
1000
PSFILL
1000
Grayscale
1000
Grayscale
1070
   100
1002
}
  0
LINE
  5
1D5D4
330
1D26B
100
AcDbEntity
  8
YODOROGO
100
AcDbLine
 10
13968.80217064596
 20
906.4874905807087
 30
0.0
 11
13968.80217064596
 21
898.487490580708
 31
0.0
1001
AUTOCAD_POSTSCRIPT_FIGURE
1002
{
1000
PSFILL
1000
Grayscale
1000
Grayscale
1070
   100
1002
}
  0
LINE
  5
1D5D5
330
1D26B
100
AcDbEntity
  8
YODOROGO
100
AcDbLine
 10
13952.80217064596
 20
940.704506079404
 30
0.0
 11
13968.80217064596
 21
906.4874905807087
 31
0.0
1001
AUTOCAD_POSTSCRIPT_FIGURE
1002
{
1000
PSFILL
1000
Grayscale
1000
Grayscale
1070
   100
1002
}
  0
LINE
  5
1D5D6
330
1D26B
100
AcDbEntity
  8
YODOROGO
100
AcDbLine
 10
13952.80217064596
 20
942.2841744681502
 30
0.0
 11
13952.80217064596
 21
940.704506079404
 31
0.0
1001
AUTOCAD_POSTSCRIPT_FIGURE
1002
{
1000
PSFILL
1000
Grayscale
1000
Grayscale
1070
   100
1002
}
  0
LINE
  5
1D5D7
330
1D26B
100
AcDbEntity
  8
YODOROGO
100
AcDbLine
 10
13968.80217064596
 20
942.2841744681491
 30
0.0
 11
13952.80217064596
 21
942.2841744681502
 31
0.0
1001
AUTOCAD_POSTSCRIPT_FIGURE
1002
{
1000
PSFILL
1000
Grayscale
1000
Grayscale
1070
   100
1002
}
  0
LINE
  5
1D5D8
330
1D26B
100
AcDbEntity
  8
YODOROGO
100
AcDbLine
 10
13968.80217064596
 20
950.2841744681495
 30
0.0
 11
13968.80217064596
 21
942.2841744681491
 31
0.0
1001
AUTOCAD_POSTSCRIPT_FIGURE
1002
{
1000
PSFILL
1000
Grayscale
1000
Grayscale
1070
   100
1002
}
  0
LINE
  5
1D5D9
330
1D26B
100
AcDbEntity
  8
YODOROGO
100
AcDbLine
 10
13952.80217064596
 20
950.2841744681495
 30
0.0
 11
13968.80217064596
 21
950.2841744681495
 31
0.0
1001
AUTOCAD_POSTSCRIPT_FIGURE
1002
{
1000
PSFILL
1000
Grayscale
1000
Grayscale
1070
   100
1002
}
  0
LINE
  5
1D5DA
330
1D26B
100
AcDbEntity
  8
YODOROGO
100
AcDbLine
 10
13952.80217064596
 20
969.8747482146441
 30
0.0
 11
13952.80217064596
 21
950.2841744681495
 31
0.0
1001
AUTOCAD_POSTSCRIPT_FIGURE
1002
{
1000
PSFILL
1000
Grayscale
1000
Grayscale
1070
   100
1002
}
  0
LINE
  5
1D5DB
330
1D26B
100
AcDbEntity
  8
YODOROGO
100
AcDbLine
 10
13968.80217064596
 20
969.8747482146441
 30
0.0
 11
13952.80217064596
 21
969.8747482146441
 31
0.0
1001
AUTOCAD_POSTSCRIPT_FIGURE
1002
{
1000
PSFILL
1000
Grayscale
1000
Grayscale
1070
   100
1002
}
  0
LINE
  5
1D5DC
330
1D26B
100
AcDbEntity
  8
YODOROGO
100
AcDbLine
 10
13968.80217064596
 20
977.8747482146435
 30
0.0
 11
13968.80217064596
 21
969.8747482146441
 31
0.0
1001
AUTOCAD_POSTSCRIPT_FIGURE
1002
{
1000
PSFILL
1000
Grayscale
1000
Grayscale
1070
   100
1002
}
  0
LINE
  5
1D5DD
330
1D26B
100
AcDbEntity
  8
YODOROGO
100
AcDbLine
 10
13952.80217064596
 20
977.8747482146435
 30
0.0
 11
13968.80217064596
 21
977.8747482146435
 31
0.0
1001
AUTOCAD_POSTSCRIPT_FIGURE
1002
{
1000
PSFILL
1000
Grayscale
1000
Grayscale
1070
   100
1002
}
  0
LINE
  5
1D5DE
330
1D26B
100
AcDbEntity
  8
YODOROGO
100
AcDbLine
 10
13952.80217064596
 20
989.8747482146442
 30
0.0
 11
13952.80217064596
 21
977.8747482146435
 31
0.0
1001
AUTOCAD_POSTSCRIPT_FIGURE
1002
{
1000
PSFILL
1000
Grayscale
1000
Grayscale
1070
   100
1002
}
  0
LINE
  5
1D5DF
330
1D26B
100
AcDbEntity
  8
YODOROGO
100
AcDbLine
 10
13944.80217064596
 20
989.8747482146442
 30
0.0
 11
13952.80217064596
 21
989.8747482146442
 31
0.0
1001
AUTOCAD_POSTSCRIPT_FIGURE
1002
{
1000
PSFILL
1000
Grayscale
1000
Grayscale
1070
   100
1002
}
  0
LINE
  5
1D5E0
330
1D26B
100
AcDbEntity
  8
YODOROGO
100
AcDbLine
 10
13944.80217064596
 20
977.8747482146435
 30
0.0
 11
13944.80217064596
 21
989.8747482146442
 31
0.0
1001
AUTOCAD_POSTSCRIPT_FIGURE
1002
{
1000
PSFILL
1000
Grayscale
1000
Grayscale
1070
   100
1002
}
  0
LINE
  5
1D5E1
330
1D26B
100
AcDbEntity
  8
YODOROGO
100
AcDbLine
 10
13932.80217064596
 20
977.8747482146435
 30
0.0
 11
13944.80217064596
 21
977.8747482146435
 31
0.0
1001
AUTOCAD_POSTSCRIPT_FIGURE
1002
{
1000
PSFILL
1000
Grayscale
1000
Grayscale
1070
   100
1002
}
  0
LINE
  5
1D5E2
330
1D26B
100
AcDbEntity
  8
YODOROGO
100
AcDbLine
 10
13932.80217064596
 20
989.8747482146442
 30
0.0
 11
13932.80217064596
 21
977.8747482146435
 31
0.0
1001
AUTOCAD_POSTSCRIPT_FIGURE
1002
{
1000
PSFILL
1000
Grayscale
1000
Grayscale
1070
   100
1002
}
  0
LINE
  5
1D5E3
330
1D26B
100
AcDbEntity
  8
YODOROGO
100
AcDbLine
 10
13924.80217064596
 20
989.8747482146442
 30
0.0
 11
13932.80217064596
 21
989.8747482146442
 31
0.0
1001
AUTOCAD_POSTSCRIPT_FIGURE
1002
{
1000
PSFILL
1000
Grayscale
1000
Grayscale
1070
   100
1002
}
  0
LINE
  5
1D5E4
330
1D26B
100
AcDbEntity
  8
YODOROGO
100
AcDbLine
 10
13924.80217064596
 20
977.8747482146435
 30
0.0
 11
13924.80217064596
 21
989.8747482146442
 31
0.0
1001
AUTOCAD_POSTSCRIPT_FIGURE
1002
{
1000
PSFILL
1000
Grayscale
1000
Grayscale
1070
   100
1002
}
  0
LINE
  5
1D5E5
330
1D26B
100
AcDbEntity
  8
YODOROGO
100
AcDbLine
 10
13908.80217064596
 20
977.8747482146435
 30
0.0
 11
13924.80217064596
 21
977.8747482146435
 31
0.0
1001
AUTOCAD_POSTSCRIPT_FIGURE
1002
{
1000
PSFILL
1000
Grayscale
1000
Grayscale
1070
   100
1002
}
  0
LINE
  5
1D5E6
330
1D26B
100
AcDbEntity
  8
YODOROGO
100
AcDbLine
 10
13908.80217064596
 20
989.8747482146442
 30
0.0
 11
13908.80217064596
 21
977.8747482146435
 31
0.0
1001
AUTOCAD_POSTSCRIPT_FIGURE
1002
{
1000
PSFILL
1000
Grayscale
1000
Grayscale
1070
   100
1002
}
  0
LINE
  5
1D5E7
330
1D26B
100
AcDbEntity
  8
YODOROGO
100
AcDbLine
 10
13900.80217064596
 20
989.8747482146442
 30
0.0
 11
13908.80217064596
 21
989.8747482146442
 31
0.0
1001
AUTOCAD_POSTSCRIPT_FIGURE
1002
{
1000
PSFILL
1000
Grayscale
1000
Grayscale
1070
   100
1002
}
  0
LINE
  5
1D5E8
330
1D26B
100
AcDbEntity
  8
YODOROGO
100
AcDbLine
 10
13900.80217064596
 20
977.8747482146435
 30
0.0
 11
13900.80217064596
 21
989.8747482146442
 31
0.0
1001
AUTOCAD_POSTSCRIPT_FIGURE
1002
{
1000
PSFILL
1000
Grayscale
1000
Grayscale
1070
   100
1002
}
  0
LINE
  5
1D5E9
330
1D26B
100
AcDbEntity
  8
YODOROGO
100
AcDbLine
 10
13888.80217064596
 20
977.8747482146435
 30
0.0
 11
13900.80217064596
 21
977.8747482146435
 31
0.0
1001
AUTOCAD_POSTSCRIPT_FIGURE
1002
{
1000
PSFILL
1000
Grayscale
1000
Grayscale
1070
   100
1002
}
  0
LINE
  5
1D5EA
330
1D26B
100
AcDbEntity
  8
YODOROGO
100
AcDbLine
 10
13888.80217064596
 20
969.8747482146441
 30
0.0
 11
13888.80217064596
 21
977.8747482146435
 31
0.0
1001
AUTOCAD_POSTSCRIPT_FIGURE
1002
{
1000
PSFILL
1000
Grayscale
1000
Grayscale
1070
   100
1002
}
  0
LINE
  5
1D5EB
330
1D26B
100
AcDbEntity
  8
YODOROGO
100
AcDbLine
 10
13900.80217064596
 20
969.8747482146441
 30
0.0
 11
13888.80217064596
 21
969.8747482146441
 31
0.0
1001
AUTOCAD_POSTSCRIPT_FIGURE
1002
{
1000
PSFILL
1000
Grayscale
1000
Grayscale
1070
   100
1002
}
  0
LINE
  5
1D5EC
330
1D26B
100
AcDbEntity
  8
YODOROGO
100
AcDbLine
 10
13900.80217064596
 20
957.3932903968525
 30
0.0
 11
13900.80217064596
 21
969.8747482146441
 31
0.0
1001
AUTOCAD_POSTSCRIPT_FIGURE
1002
{
1000
PSFILL
1000
Grayscale
1000
Grayscale
1070
   100
1002
}
  0
LINE
  5
1D5ED
330
1D26B
100
AcDbEntity
  8
YODOROGO
100
AcDbLine
 10
13888.80217064596
 20
929.8883739758355
 30
0.0
 11
13900.80217064596
 21
957.3932903968525
 31
0.0
1001
AUTOCAD_POSTSCRIPT_FIGURE
1002
{
1000
PSFILL
1000
Grayscale
1000
Grayscale
1070
   100
1002
}
  0
LINE
  5
1D5EE
330
1D26B
100
AcDbEntity
  8
YODOROGO
100
AcDbLine
 10
13888.80217064596
 20
921.8883739758362
 30
0.0
 11
13888.80217064596
 21
929.8883739758355
 31
0.0
1001
AUTOCAD_POSTSCRIPT_FIGURE
1002
{
1000
PSFILL
1000
Grayscale
1000
Grayscale
1070
   100
1002
}
  0
LINE
  5
1D5EF
330
1D26B
100
AcDbEntity
  8
YODOROGO
100
AcDbLine
 10
14128.80217064596
 20
933.8747482146439
 30
0.0
 11
14200.80217064594
 21
912.4388128201532
 31
0.0
1001
AUTOCAD_POSTSCRIPT_FIGURE
1002
{
1000
PSFILL
1000
Grayscale
1000
Grayscale
1070
   100
1002
}
  0
LINE
  5
1D5F0
330
1D26B
100
AcDbEntity
  8
YODOROGO
100
AcDbLine
 10
14200.80217064594
 20
876.4388128201531
 30
0.0
 11
14128.80217064596
 21
897.8747482146435
 31
0.0
1001
AUTOCAD_POSTSCRIPT_FIGURE
1002
{
1000
PSFILL
1000
Grayscale
1000
Grayscale
1070
   100
1002
}
  0
LINE
  5
1D5F1
330
1D26B
100
AcDbEntity
  8
YODOROGO
100
AcDbLine
 10
14200.80217064594
 20
992.4388128201531
 30
0.0
 11
14128.80217064596
 21
1013.874748214644
 31
0.0
1001
AUTOCAD_POSTSCRIPT_FIGURE
1002
{
1000
PSFILL
1000
Grayscale
1000
Grayscale
1070
   100
1002
}
  0
LINE
  5
1D5F2
330
1D26B
100
AcDbEntity
  8
YODOROGO
100
AcDbLine
 10
14128.80217064596
 20
979.874748214644
 30
0.0
 11
14200.80217064594
 21
958.4388128201537
 31
0.0
1001
AUTOCAD_POSTSCRIPT_FIGURE
1002
{
1000
PSFILL
1000
Grayscale
1000
Grayscale
1070
   100
1002
}
  0
LINE
  5
1D5F3
330
1D26B
100
AcDbEntity
  8
YODOROGO
100
AcDbLine
 10
14128.80217064596
 20
897.8747482146435
 30
0.0
 11
14128.80217064596
 21
933.8747482146439
 31
0.0
1001
AUTOCAD_POSTSCRIPT_FIGURE
1002
{
1000
PSFILL
1000
Grayscale
1000
Grayscale
1070
   100
1002
}
  0
LINE
  5
1D5F4
330
1D26B
100
AcDbEntity
  8
YODOROGO
100
AcDbLine
 10
14128.80217064596
 20
1013.874748214644
 30
0.0
 11
14128.80217064596
 21
979.874748214644
 31
0.0
1001
AUTOCAD_POSTSCRIPT_FIGURE
1002
{
1000
PSFILL
1000
Grayscale
1000
Grayscale
1070
   100
1002
}
  0
LINE
  5
1D5F5
330
1D26B
100
AcDbEntity
  8
YODOROGO
100
AcDbLine
 10
14040.11816010337
 20
969.8747482146441
 30
0.0
 11
14064.80217064595
 21
873.8747482146434
 31
0.0
1001
AUTOCAD_POSTSCRIPT_FIGURE
1002
{
1000
PSFILL
1000
Grayscale
1000
Grayscale
1070
   100
1002
}
  0
LINE
  5
1D5F6
330
1D26B
100
AcDbEntity
  8
YODOROGO
100
AcDbLine
 10
13988.80217064596
 20
969.8747482146441
 30
0.0
 11
14040.11816010337
 21
969.8747482146441
 31
0.0
1001
AUTOCAD_POSTSCRIPT_FIGURE
1002
{
1000
PSFILL
1000
Grayscale
1000
Grayscale
1070
   100
1002
}
  0
LINE
  5
1D5F7
330
1D26B
100
AcDbEntity
  8
YODOROGO
100
AcDbLine
 10
13988.80217064596
 20
977.8747482146435
 30
0.0
 11
13988.80217064596
 21
969.8747482146441
 31
0.0
1001
AUTOCAD_POSTSCRIPT_FIGURE
1002
{
1000
PSFILL
1000
Grayscale
1000
Grayscale
1070
   100
1002
}
  0
LINE
  5
1D5F8
330
1D26B
100
AcDbEntity
  8
YODOROGO
100
AcDbLine
 10
14038.30343925995
 20
977.8747482146435
 30
0.0
 11
13988.80217064596
 21
977.8747482146435
 31
0.0
1001
AUTOCAD_POSTSCRIPT_FIGURE
1002
{
1000
PSFILL
1000
Grayscale
1000
Grayscale
1070
   100
1002
}
  0
LINE
  5
1D5F9
330
1D26B
100
AcDbEntity
  8
YODOROGO
100
AcDbLine
 10
14035.58135799485
 20
989.8747482146442
 30
0.0
 11
14038.30343925995
 21
977.8747482146435
 31
0.0
1001
AUTOCAD_POSTSCRIPT_FIGURE
1002
{
1000
PSFILL
1000
Grayscale
1000
Grayscale
1070
   100
1002
}
  0
LINE
  5
1D5FA
330
1D26B
100
AcDbEntity
  8
YODOROGO
100
AcDbLine
 10
14045.58135799485
 20
989.8747482146442
 30
0.0
 11
14035.58135799485
 21
989.8747482146442
 31
0.0
1001
AUTOCAD_POSTSCRIPT_FIGURE
1002
{
1000
PSFILL
1000
Grayscale
1000
Grayscale
1070
   100
1002
}
  0
LINE
  5
1D5FB
330
1D26B
100
AcDbEntity
  8
YODOROGO
100
AcDbLine
 10
14047.90343925997
 20
977.8747482146435
 30
0.0
 11
14045.58135799485
 21
989.8747482146442
 31
0.0
1001
AUTOCAD_POSTSCRIPT_FIGURE
1002
{
1000
PSFILL
1000
Grayscale
1000
Grayscale
1070
   100
1002
}
  0
LINE
  5
1D5FC
330
1D26B
100
AcDbEntity
  8
YODOROGO
100
AcDbLine
 10
14060.80217064596
 20
977.8747482146435
 30
0.0
 11
14047.90343925997
 21
977.8747482146435
 31
0.0
1001
AUTOCAD_POSTSCRIPT_FIGURE
1002
{
1000
PSFILL
1000
Grayscale
1000
Grayscale
1070
   100
1002
}
  0
LINE
  5
1D5FD
330
1D26B
100
AcDbEntity
  8
YODOROGO
100
AcDbLine
 10
14060.80217064596
 20
989.8747482146442
 30
0.0
 11
14060.80217064596
 21
977.8747482146435
 31
0.0
1001
AUTOCAD_POSTSCRIPT_FIGURE
1002
{
1000
PSFILL
1000
Grayscale
1000
Grayscale
1070
   100
1002
}
  0
LINE
  5
1D5FE
330
1D26B
100
AcDbEntity
  8
YODOROGO
100
AcDbLine
 10
14068.80217064596
 20
989.8747482146442
 30
0.0
 11
14060.80217064596
 21
989.8747482146442
 31
0.0
1001
AUTOCAD_POSTSCRIPT_FIGURE
1002
{
1000
PSFILL
1000
Grayscale
1000
Grayscale
1070
   100
1002
}
  0
LINE
  5
1D5FF
330
1D26B
100
AcDbEntity
  8
YODOROGO
100
AcDbLine
 10
14068.80217064596
 20
977.8747482146435
 30
0.0
 11
14068.80217064596
 21
989.8747482146442
 31
0.0
1001
AUTOCAD_POSTSCRIPT_FIGURE
1002
{
1000
PSFILL
1000
Grayscale
1000
Grayscale
1070
   100
1002
}
  0
LINE
  5
1D600
330
1D26B
100
AcDbEntity
  8
YODOROGO
100
AcDbLine
 10
14068.80217064596
 20
969.8747482146441
 30
0.0
 11
14068.80217064596
 21
977.8747482146435
 31
0.0
1001
AUTOCAD_POSTSCRIPT_FIGURE
1002
{
1000
PSFILL
1000
Grayscale
1000
Grayscale
1070
   100
1002
}
  0
LINE
  5
1D601
330
1D26B
100
AcDbEntity
  8
YODOROGO
100
AcDbLine
 10
14049.45149343671
 20
969.8747482146441
 30
0.0
 11
14068.80217064596
 21
969.8747482146441
 31
0.0
1001
AUTOCAD_POSTSCRIPT_FIGURE
1002
{
1000
PSFILL
1000
Grayscale
1000
Grayscale
1070
   100
1002
}
  0
LINE
  5
1D602
330
1D26B
100
AcDbEntity
  8
YODOROGO
100
AcDbLine
 10
14068.80217064596
 20
873.8747482146434
 30
0.0
 11
14049.45149343671
 21
969.8747482146441
 31
0.0
1001
AUTOCAD_POSTSCRIPT_FIGURE
1002
{
1000
PSFILL
1000
Grayscale
1000
Grayscale
1070
   100
1002
}
  0
LINE
  5
1D603
330
1D26B
100
AcDbEntity
  8
YODOROGO
100
AcDbLine
 10
14064.80217064595
 20
873.8747482146434
 30
0.0
 11
14068.80217064596
 21
873.8747482146434
 31
0.0
1001
AUTOCAD_POSTSCRIPT_FIGURE
1002
{
1000
PSFILL
1000
Grayscale
1000
Grayscale
1070
   100
1002
}
  0
LINE
  5
1D604
330
1D26B
100
AcDbEntity
  8
YODOROGO
100
AcDbLine
 10
14039.03460996689
 20
887.8703881493972
 30
0.0
 11
13988.80217064596
 21
873.8747482146434
 31
0.0
  0
LINE
  5
1D605
330
1D26B
100
AcDbEntity
  8
YODOROGO
100
AcDbLine
 10
14039.03460996689
 20
899.3344897645364
 30
0.0
 11
14039.03460996689
 21
887.8703881493972
 31
0.0
  0
LINE
  5
1D606
330
1D26B
100
AcDbEntity
  8
YODOROGO
100
AcDbLine
 10
14016.91839030643
 20
893.4084665668834
 30
0.0
 11
14039.03460996689
 21
899.3344897645364
 31
0.0
  0
LINE
  5
1D607
330
1D26B
100
AcDbEntity
  8
YODOROGO
100
AcDbLine
 10
14016.91839030643
 20
936.2841744681499
 30
0.0
 11
14016.91839030643
 21
893.4084665668834
 31
0.0
  0
LINE
  5
1D608
330
1D26B
100
AcDbEntity
  8
YODOROGO
100
AcDbLine
 10
14039.03460996689
 20
936.2841744681499
 30
0.0
 11
14016.91839030643
 21
936.2841744681499
 31
0.0
  0
LINE
  5
1D609
330
1D26B
100
AcDbEntity
  8
YODOROGO
100
AcDbLine
 10
14039.03460996689
 20
946.2841744681487
 30
0.0
 11
14039.03460996689
 21
936.2841744681499
 31
0.0
  0
LINE
  5
1D60A
330
1D26B
100
AcDbEntity
  8
YODOROGO
100
AcDbLine
 10
13988.80217064596
 20
946.2841744681487
 30
0.0
 11
14039.03460996689
 21
946.2841744681487
 31
0.0
  0
LINE
  5
1D60B
330
1D26B
100
AcDbEntity
  8
YODOROGO
100
AcDbLine
 10
13988.80217064596
 20
936.2841744681499
 30
0.0
 11
13988.80217064596
 21
946.2841744681487
 31
0.0
  0
LINE
  5
1D60C
330
1D26B
100
AcDbEntity
  8
YODOROGO
100
AcDbLine
 10
14010.91839030643
 20
936.2841744681499
 30
0.0
 11
13988.80217064596
 21
936.2841744681499
 31
0.0
  0
LINE
  5
1D60D
330
1D26B
100
AcDbEntity
  8
YODOROGO
100
AcDbLine
 10
14010.91839030643
 20
892.3366697971587
 30
0.0
 11
14010.91839030643
 21
936.2841744681499
 31
0.0
  0
LINE
  5
1D60E
330
1D26B
100
AcDbEntity
  8
YODOROGO
100
AcDbLine
 10
13988.80217064596
 20
885.8747482146432
 30
0.0
 11
14010.91839030643
 21
892.3366697971587
 31
0.0
  0
LINE
  5
1D60F
330
1D26B
100
AcDbEntity
  8
YODOROGO
100
AcDbLine
 10
13988.80217064596
 20
873.8747482146434
 30
0.0
 11
13988.80217064596
 21
885.8747482146432
 31
0.0
  0
LINE
  5
1D610
330
1D26B
100
AcDbEntity
  8
YODOROGO
100
AcDbLine
 10
14000.80217064596
 20
853.874748214644
 30
0.0
 11
14000.80217064596
 21
841.8747482146434
 31
0.0
  0
LINE
  5
1D611
330
1D26B
100
AcDbEntity
  8
YODOROGO
100
AcDbLine
 10
14008.80217064596
 20
853.874748214644
 30
0.0
 11
14000.80217064596
 21
853.874748214644
 31
0.0
  0
LINE
  5
1D612
330
1D26B
100
AcDbEntity
  8
YODOROGO
100
AcDbLine
 10
14008.80217064596
 20
841.8747482146434
 30
0.0
 11
14008.80217064596
 21
853.874748214644
 31
0.0
  0
LINE
  5
1D613
330
1D26B
100
AcDbEntity
  8
YODOROGO
100
AcDbLine
 10
14020.45660200844
 20
841.8747482146434
 30
0.0
 11
14008.80217064596
 21
841.8747482146434
 31
0.0
  0
LINE
  5
1D614
330
1D26B
100
AcDbEntity
  8
YODOROGO
100
AcDbLine
 10
14000.80217064596
 20
841.8747482146434
 30
0.0
 11
13988.80217064596
 21
841.8747482146434
 31
0.0
  0
LINE
  5
1D615
330
1D26B
100
AcDbEntity
  8
YODOROGO
100
AcDbLine
 10
14041.06776011546
 20
853.874748214644
 30
0.0
 11
14049.06776011545
 21
853.874748214644
 31
0.0
1001
AUTOCAD_POSTSCRIPT_FIGURE
1002
{
1000
PSFILL
1000
Grayscale
1000
Grayscale
1070
   100
1002
}
  0
LINE
  5
1D616
330
1D26B
100
AcDbEntity
  8
YODOROGO
100
AcDbLine
 10
14200.80217064594
 20
912.4388128201532
 30
0.0
 11
14200.80217064594
 21
876.4388128201531
 31
0.0
1001
AUTOCAD_POSTSCRIPT_FIGURE
1002
{
1000
PSFILL
1000
Grayscale
1000
Grayscale
1070
   100
1002
}
  0
LINE
  5
1D617
330
1D26B
100
AcDbEntity
  8
YODOROGO
100
AcDbLine
 10
14200.80217064594
 20
958.4388128201537
 30
0.0
 11
14200.80217064594
 21
992.4388128201531
 31
0.0
1001
AUTOCAD_POSTSCRIPT_FIGURE
1002
{
1000
PSFILL
1000
Grayscale
1000
Grayscale
1070
   100
1002
}
  0
LINE
  5
1D618
330
1D26B
100
AcDbEntity
  8
YODOROGO
100
AcDbLine
 10
14216.80217064594
 20
909.8747482146439
 30
0.0
 11
14216.80217064594
 21
873.8747482146449
 31
0.0
  0
LINE
  5
1D619
330
1D26B
100
AcDbEntity
  8
YODOROGO
100
AcDbLine
 10
14248.80217064594
 20
853.874748214644
 30
0.0
 11
14216.80217064594
 21
853.874748214644
 31
0.0
  0
LINE
  5
1D61A
330
1D26B
100
AcDbEntity
  8
YODOROGO
100
AcDbLine
 10
14216.80217064594
 20
873.8747482146449
 30
0.0
 11
14292.80217064596
 21
873.8747482146449
 31
0.0
  0
LINE
  5
1D61B
330
1D26B
100
AcDbEntity
  8
YODOROGO
100
AcDbLine
 10
14248.80217064594
 20
933.8747482146439
 30
0.0
 11
14216.80217064594
 21
933.8747482146439
 31
0.0
  0
LINE
  5
1D61C
330
1D26B
100
AcDbEntity
  8
YODOROGO
100
AcDbLine
 10
14248.80217064594
 20
961.8747482146432
 30
0.0
 11
14248.80217064594
 21
933.8747482146439
 31
0.0
  0
LINE
  5
1D61D
330
1D26B
100
AcDbEntity
  8
YODOROGO
100
AcDbLine
 10
14292.80217064596
 20
993.8747482146439
 30
0.0
 11
14292.80217064596
 21
1013.874748214644
 31
0.0
  0
LINE
  5
1D61E
330
1D26B
100
AcDbEntity
  8
YODOROGO
100
AcDbLine
 10
14216.80217064594
 20
993.8747482146439
 30
0.0
 11
14292.80217064596
 21
993.8747482146439
 31
0.0
  0
LINE
  5
1D61F
330
1D26B
100
AcDbEntity
  8
YODOROGO
100
AcDbLine
 10
14216.80217064594
 20
933.8747482146439
 30
0.0
 11
14216.80217064594
 21
993.8747482146439
 31
0.0
  0
LINE
  5
1D620
330
1D26B
100
AcDbEntity
  8
YODOROGO
100
AcDbLine
 10
14500.80217064594
 20
1013.874748214644
 30
0.0
 11
14500.80217064594
 21
809.8747482146441
 31
0.0
  0
LINE
  5
1D621
330
1D26B
100
AcDbEntity
  8
YODOROGO
100
AcDbLine
 10
14536.80217064596
 20
789.8747482146441
 30
0.0
 11
14536.80217064596
 21
1013.874748214644
 31
0.0
  0
LINE
  5
1D622
330
1D26B
100
AcDbEntity
  8
YODOROGO
100
AcDbLine
 10
14630.80217064596
 20
745.8747482146431
 30
0.0
 11
14630.80217064596
 21
1003.874748214644
 31
0.0
  0
LINE
  5
1D623
330
1D26B
100
AcDbEntity
  8
YODOROGO
100
AcDbLine
 10
14598.80217064596
 20
1003.874748214644
 30
0.0
 11
14598.80217064596
 21
745.8747482146431
 31
0.0
  0
LINE
  5
1D624
330
1D26B
100
AcDbEntity
  8
YODOROGO
100
AcDbLine
 10
14692.80217064596
 20
1013.874748214644
 30
0.0
 11
14692.80217064596
 21
713.8747482146435
 31
0.0
  0
LINE
  5
1D625
330
1D26B
100
AcDbEntity
  8
YODOROGO
100
AcDbLine
 10
14728.80217064596
 20
713.8747482146435
 30
0.0
 11
14728.80217064596
 21
1013.874748214644
 31
0.0
  0
LINE
  5
1D626
330
1D26B
100
AcDbEntity
  8
YODOROGO
100
AcDbLine
 10
14328.80217064594
 20
833.8747482146439
 30
0.0
 11
14328.80217064594
 21
873.8747482146449
 31
0.0
  0
LINE
  5
1D627
330
1D26B
100
AcDbEntity
  8
YODOROGO
100
AcDbLine
 10
14942.80217064596
 20
853.874748214644
 30
0.0
 11
14942.80217064596
 21
833.8747482146439
 31
0.0
  0
LINE
  5
1D628
330
1D26B
100
AcDbEntity
  8
YODOROGO
100
AcDbLine
 10
14942.80217064596
 20
853.874748214644
 30
0.0
 11
14942.80217064596
 21
833.8747482146439
 31
0.0
  0
ARC
  5
1D629
330
1D26B
100
AcDbEntity
  8
YODOROGO
100
AcDbCircle
 10
14453.45578809342
 20
809.1089322211363
 30
0.0
 40
47.35257558937082
100
AcDbArc
 50
274.052441629071
 51
0.9266642149310712
  0
ARC
  5
1D62A
330
1D26B
100
AcDbEntity
  8
YODOROGO
100
AcDbCircle
 10
14454.5930853599
 20
796.30536430522
 30
0.0
 40
82.46021178042756
100
AcDbArc
 50
271.5351210653776
 51
355.5272775058505
  0
LINE
  5
1D62B
330
1D26B
100
AcDbEntity
  8
YODOROGO
100
AcDbLine
 10
14456.80217064596
 20
761.8747482146434
 30
0.0
 11
14456.80217064596
 21
713.8747482146435
 31
0.0
  0
LINE
  5
1D62C
330
1D26B
100
AcDbEntity
  8
YODOROGO
100
AcDbLine
 10
14396.80217064594
 20
833.8747482146439
 30
0.0
 11
14328.80217064594
 21
833.8747482146439
 31
0.0
  0
LINE
  5
1D62D
330
1D26B
100
AcDbEntity
  8
YODOROGO
100
AcDbLine
 10
14396.80217064594
 20
801.8747482146444
 30
0.0
 11
14396.80217064594
 21
833.8747482146439
 31
0.0
  0
LINE
  5
1D62E
330
1D26B
100
AcDbEntity
  8
YODOROGO
100
AcDbLine
 10
14328.80217064594
 20
801.8747482146444
 30
0.0
 11
14396.80217064594
 21
801.8747482146444
 31
0.0
  0
LINE
  5
1D62F
330
1D26B
100
AcDbEntity
  8
YODOROGO
100
AcDbLine
 10
14328.80217064594
 20
761.8747482146434
 30
0.0
 11
14328.80217064594
 21
801.8747482146444
 31
0.0
  0
LINE
  5
1D630
330
1D26B
100
AcDbEntity
  8
YODOROGO
100
AcDbLine
 10
14396.80217064594
 20
761.8747482146434
 30
0.0
 11
14328.80217064594
 21
761.8747482146434
 31
0.0
  0
LINE
  5
1D631
330
1D26B
100
AcDbEntity
  8
YODOROGO
100
AcDbLine
 10
14396.80217064594
 20
713.8747482146435
 30
0.0
 11
14396.80217064594
 21
761.8747482146434
 31
0.0
  0
LINE
  5
1D632
330
1D26B
100
AcDbEntity
  8
YODOROGO
100
AcDbLine
 10
14598.80217064596
 20
745.8747482146431
 30
0.0
 11
14630.80217064596
 21
745.8747482146431
 31
0.0
  0
LINE
  5
1D633
330
1D26B
100
AcDbEntity
  8
YODOROGO
100
AcDbLine
 10
14692.80217064596
 20
713.8747482146435
 30
0.0
 11
14728.80217064596
 21
713.8747482146435
 31
0.0
  0
LINE
  5
1D634
330
1D26B
100
AcDbEntity
  8
YODOROGO
100
AcDbLine
 10
14868.80217064596
 20
764.2207260852816
 30
0.0
 11
14868.80217064596
 21
713.8747482146435
 31
0.0
  0
LINE
  5
1D635
330
1D26B
100
AcDbEntity
  8
YODOROGO
100
AcDbLine
 10
14808.80217064596
 20
713.8747482146435
 30
0.0
 11
14868.80217064596
 21
764.2207260852816
 31
0.0
  0
LINE
  5
1D636
330
1D26B
100
AcDbEntity
  8
YODOROGO
100
AcDbLine
 10
14808.80217064596
 20
773.874748214644
 30
0.0
 11
14808.80217064596
 21
713.8747482146435
 31
0.0
  0
LINE
  5
1D637
330
1D26B
100
AcDbEntity
  8
YODOROGO
100
AcDbLine
 10
14856.47231434973
 20
813.8747482146435
 30
0.0
 11
14808.80217064596
 21
773.874748214644
 31
0.0
  0
LINE
  5
1D638
330
1D26B
100
AcDbEntity
  8
YODOROGO
100
AcDbLine
 10
14808.80217064596
 20
813.8747482146435
 30
0.0
 11
14856.47231434973
 21
813.8747482146435
 31
0.0
  0
LINE
  5
1D639
330
1D26B
100
AcDbEntity
  8
YODOROGO
100
AcDbLine
 10
14808.80217064596
 20
833.8747482146439
 30
0.0
 11
14808.80217064596
 21
813.8747482146435
 31
0.0
  0
LINE
  5
1D63A
330
1D26B
100
AcDbEntity
  8
YODOROGO
100
AcDbLine
 10
14942.80217064596
 20
833.8747482146439
 30
0.0
 11
14808.80217064596
 21
833.8747482146439
 31
0.0
  0
LINE
  5
1D63B
330
1D26B
100
AcDbEntity
  8
YODOROGO
100
AcDbLine
 10
14958.80217064596
 20
813.8747482146435
 30
0.0
 11
14888.80217064596
 21
813.8747482146435
 31
0.0
  0
LINE
  5
1D63C
330
1D26B
100
AcDbEntity
  8
YODOROGO
100
AcDbLine
 10
14888.80217064596
 20
781.0027187088283
 30
0.0
 11
14885.70493649264
 21
778.403830673117
 31
0.0
  0
LINE
  5
1D63D
330
1D26B
100
AcDbEntity
  8
YODOROGO
100
AcDbLine
 10
14888.80217064596
 20
813.8747482146435
 30
0.0
 11
14888.80217064596
 21
781.0027187088283
 31
0.0
  0
LINE
  5
1D63E
330
1D26B
100
AcDbEntity
  8
YODOROGO
100
AcDbLine
 10
14868.80217064596
 20
764.2207260852816
 30
0.0
 11
14868.80217064596
 21
713.8747482146435
 31
0.0
  0
LINE
  5
1D63F
330
1D26B
100
AcDbEntity
  8
YODOROGO
100
AcDbLine
 10
14808.80217064596
 20
713.8747482146435
 30
0.0
 11
14868.80217064596
 21
764.2207260852816
 31
0.0
  0
LINE
  5
1D640
330
1D26B
100
AcDbEntity
  8
YODOROGO
100
AcDbLine
 10
14808.80217064596
 20
773.874748214644
 30
0.0
 11
14808.80217064596
 21
713.8747482146435
 31
0.0
  0
LINE
  5
1D641
330
1D26B
100
AcDbEntity
  8
YODOROGO
100
AcDbLine
 10
14856.47231434973
 20
813.8747482146435
 30
0.0
 11
14808.80217064596
 21
773.874748214644
 31
0.0
  0
LINE
  5
1D642
330
1D26B
100
AcDbEntity
  8
YODOROGO
100
AcDbLine
 10
14808.80217064596
 20
813.8747482146435
 30
0.0
 11
14856.47231434973
 21
813.8747482146435
 31
0.0
  0
LINE
  5
1D643
330
1D26B
100
AcDbEntity
  8
YODOROGO
100
AcDbLine
 10
14808.80217064596
 20
833.8747482146439
 30
0.0
 11
14808.80217064596
 21
813.8747482146435
 31
0.0
  0
LINE
  5
1D644
330
1D26B
100
AcDbEntity
  8
YODOROGO
100
AcDbLine
 10
14942.80217064596
 20
833.8747482146439
 30
0.0
 11
14808.80217064596
 21
833.8747482146439
 31
0.0
  0
LINE
  5
1D645
330
1D26B
100
AcDbEntity
  8
YODOROGO
100
AcDbLine
 10
14396.80217064594
 20
873.8747482146449
 30
0.0
 11
14396.80217064594
 21
909.8747482146439
 31
0.0
  0
LINE
  5
1D646
330
1D26B
100
AcDbEntity
  8
YODOROGO
100
AcDbLine
 10
14328.80217064594
 20
873.8747482146449
 30
0.0
 11
14396.80217064594
 21
873.8747482146449
 31
0.0
  0
LINE
  5
1D647
330
1D26B
100
AcDbEntity
  8
YODOROGO
100
AcDbLine
 10
14364.80217064596
 20
933.8747482146439
 30
0.0
 11
14364.80217064596
 21
961.8747482146432
 31
0.0
  0
LINE
  5
1D648
330
1D26B
100
AcDbEntity
  8
YODOROGO
100
AcDbLine
 10
14396.80217064594
 20
933.8747482146439
 30
0.0
 11
14364.80217064596
 21
933.8747482146439
 31
0.0
  0
LINE
  5
1D649
330
1D26B
100
AcDbEntity
  8
YODOROGO
100
AcDbLine
 10
14396.80217064594
 20
973.8747482146434
 30
0.0
 11
14396.80217064594
 21
933.8747482146439
 31
0.0
  0
ARC
  5
1D64A
330
1D26B
100
AcDbEntity
  8
YODOROGO
100
AcDbCircle
 10
14376.80217064594
 20
973.8747482146434
 30
0.0
 40
20.0
100
AcDbArc
 50
0.0
 51
90.0
  0
LINE
  5
1D64B
330
1D26B
100
AcDbEntity
  8
YODOROGO
100
AcDbLine
 10
14328.80217064596
 20
993.8747482146439
 30
0.0
 11
14376.80217064594
 21
993.8747482146439
 31
0.0
  0
LINE
  5
1D64C
330
1D26B
100
AcDbEntity
  8
YODOROGO
100
AcDbLine
 10
14328.80217064596
 20
1013.874748214644
 30
0.0
 11
14328.80217064596
 21
993.8747482146439
 31
0.0
  0
LINE
  5
1D64D
330
1D26B
100
AcDbEntity
  8
YODOROGO
100
AcDbLine
 10
14536.80217064596
 20
1013.874748214644
 30
0.0
 11
14500.80217064594
 21
1013.874748214644
 31
0.0
  0
LINE
  5
1D64E
330
1D26B
100
AcDbEntity
  8
YODOROGO
100
AcDbLine
 10
14630.80217064596
 20
1003.874748214644
 30
0.0
 11
14598.80217064596
 21
1003.874748214644
 31
0.0
  0
LINE
  5
1D64F
330
1D26B
100
AcDbEntity
  8
YODOROGO
100
AcDbLine
 10
14728.80217064596
 20
1013.874748214644
 30
0.0
 11
14692.80217064596
 21
1013.874748214644
 31
0.0
  0
LINE
  5
1D650
330
1D26B
100
AcDbEntity
  8
YODOROGO
100
AcDbLine
 10
14836.80217064596
 20
853.874748214644
 30
0.0
 11
14836.80217064596
 21
885.8747482146441
 31
0.0
1001
AUTOCAD_POSTSCRIPT_FIGURE
1002
{
1000
PSFILL
1000
Grayscale
1000
Grayscale
1070
    25
1002
}
  0
LINE
  5
1D651
330
1D26B
100
AcDbEntity
  8
YODOROGO
100
AcDbLine
 10
14808.80217064596
 20
853.874748214644
 30
0.0
 11
14836.80217064596
 21
853.874748214644
 31
0.0
1001
AUTOCAD_POSTSCRIPT_FIGURE
1002
{
1000
PSFILL
1000
Grayscale
1000
Grayscale
1070
    25
1002
}
  0
LINE
  5
1D652
330
1D26B
100
AcDbEntity
  8
YODOROGO
100
AcDbLine
 10
14808.80217064596
 20
909.8747482146439
 30
0.0
 11
14808.80217064596
 21
853.874748214644
 31
0.0
1001
AUTOCAD_POSTSCRIPT_FIGURE
1002
{
1000
PSFILL
1000
Grayscale
1000
Grayscale
1070
    25
1002
}
  0
LINE
  5
1D653
330
1D26B
100
AcDbEntity
  8
YODOROGO
100
AcDbLine
 10
14882.80217064596
 20
909.8747482146439
 30
0.0
 11
14808.80217064596
 21
909.8747482146439
 31
0.0
1001
AUTOCAD_POSTSCRIPT_FIGURE
1002
{
1000
PSFILL
1000
Grayscale
1000
Grayscale
1070
    25
1002
}
  0
LINE
  5
1D654
330
1D26B
100
AcDbEntity
  8
YODOROGO
100
AcDbLine
 10
14882.80217064596
 20
929.874748214644
 30
0.0
 11
14882.80217064596
 21
909.8747482146439
 31
0.0
1001
AUTOCAD_POSTSCRIPT_FIGURE
1002
{
1000
PSFILL
1000
Grayscale
1000
Grayscale
1070
    25
1002
}
  0
LINE
  5
1D655
330
1D26B
100
AcDbEntity
  8
YODOROGO
100
AcDbLine
 10
14808.80217064596
 20
929.874748214644
 30
0.0
 11
14882.80217064596
 21
929.874748214644
 31
0.0
1001
AUTOCAD_POSTSCRIPT_FIGURE
1002
{
1000
PSFILL
1000
Grayscale
1000
Grayscale
1070
    25
1002
}
  0
LINE
  5
1D656
330
1D26B
100
AcDbEntity
  8
YODOROGO
100
AcDbLine
 10
14808.80217064596
 20
953.874748214644
 30
0.0
 11
14808.80217064596
 21
929.874748214644
 31
0.0
1001
AUTOCAD_POSTSCRIPT_FIGURE
1002
{
1000
PSFILL
1000
Grayscale
1000
Grayscale
1070
    25
1002
}
  0
LINE
  5
1D657
330
1D26B
100
AcDbEntity
  8
YODOROGO
100
AcDbLine
 10
14882.80217064596
 20
953.874748214644
 30
0.0
 11
14808.80217064596
 21
953.874748214644
 31
0.0
1001
AUTOCAD_POSTSCRIPT_FIGURE
1002
{
1000
PSFILL
1000
Grayscale
1000
Grayscale
1070
    25
1002
}
  0
LINE
  5
1D658
330
1D26B
100
AcDbEntity
  8
YODOROGO
100
AcDbLine
 10
14882.80217064596
 20
973.8747482146434
 30
0.0
 11
14882.80217064596
 21
953.874748214644
 31
0.0
1001
AUTOCAD_POSTSCRIPT_FIGURE
1002
{
1000
PSFILL
1000
Grayscale
1000
Grayscale
1070
    25
1002
}
  0
LINE
  5
1D659
330
1D26B
100
AcDbEntity
  8
YODOROGO
100
AcDbLine
 10
14808.80217064596
 20
973.8747482146434
 30
0.0
 11
14882.80217064596
 21
973.8747482146434
 31
0.0
1001
AUTOCAD_POSTSCRIPT_FIGURE
1002
{
1000
PSFILL
1000
Grayscale
1000
Grayscale
1070
    25
1002
}
  0
LINE
  5
1D65A
330
1D26B
100
AcDbEntity
  8
YODOROGO
100
AcDbLine
 10
14808.80217064596
 20
1013.874748214644
 30
0.0
 11
14808.80217064596
 21
973.8747482146434
 31
0.0
1001
AUTOCAD_POSTSCRIPT_FIGURE
1002
{
1000
PSFILL
1000
Grayscale
1000
Grayscale
1070
    25
1002
}
  0
LINE
  5
1D65B
330
1D26B
100
AcDbEntity
  8
YODOROGO
100
AcDbLine
 10
14832.80217064596
 20
1013.874748214644
 30
0.0
 11
14808.80217064596
 21
1013.874748214644
 31
0.0
1001
AUTOCAD_POSTSCRIPT_FIGURE
1002
{
1000
PSFILL
1000
Grayscale
1000
Grayscale
1070
    25
1002
}
  0
LINE
  5
1D65C
330
1D26B
100
AcDbEntity
  8
YODOROGO
100
AcDbLine
 10
14832.80217064596
 20
997.8747482146435
 30
0.0
 11
14832.80217064596
 21
1013.874748214644
 31
0.0
1001
AUTOCAD_POSTSCRIPT_FIGURE
1002
{
1000
PSFILL
1000
Grayscale
1000
Grayscale
1070
    25
1002
}
  0
LINE
  5
1D65D
330
1D26B
100
AcDbEntity
  8
YODOROGO
100
AcDbLine
 10
14882.80217064596
 20
997.8747482146435
 30
0.0
 11
14832.80217064596
 21
997.8747482146435
 31
0.0
1001
AUTOCAD_POSTSCRIPT_FIGURE
1002
{
1000
PSFILL
1000
Grayscale
1000
Grayscale
1070
    25
1002
}
  0
LINE
  5
1D65E
330
1D26B
100
AcDbEntity
  8
YODOROGO
100
AcDbLine
 10
14882.80217064596
 20
1013.874748214644
 30
0.0
 11
14882.80217064596
 21
997.8747482146435
 31
0.0
1001
AUTOCAD_POSTSCRIPT_FIGURE
1002
{
1000
PSFILL
1000
Grayscale
1000
Grayscale
1070
    25
1002
}
  0
LINE
  5
1D65F
330
1D26B
100
AcDbEntity
  8
YODOROGO
100
AcDbLine
 10
14914.80217064596
 20
1013.874748214644
 30
0.0
 11
14882.80217064596
 21
1013.874748214644
 31
0.0
1001
AUTOCAD_POSTSCRIPT_FIGURE
1002
{
1000
PSFILL
1000
Grayscale
1000
Grayscale
1070
    25
1002
}
  0
LINE
  5
1D660
330
1D26B
100
AcDbEntity
  8
YODOROGO
100
AcDbLine
 10
14914.80217064596
 20
997.8747482146435
 30
0.0
 11
14914.80217064596
 21
1013.874748214644
 31
0.0
1001
AUTOCAD_POSTSCRIPT_FIGURE
1002
{
1000
PSFILL
1000
Grayscale
1000
Grayscale
1070
    25
1002
}
  0
LINE
  5
1D661
330
1D26B
100
AcDbEntity
  8
YODOROGO
100
AcDbLine
 10
14914.80217064596
 20
953.874748214644
 30
0.0
 11
14914.80217064596
 21
973.8747482146434
 31
0.0
1001
AUTOCAD_POSTSCRIPT_FIGURE
1002
{
1000
PSFILL
1000
Grayscale
1000
Grayscale
1070
    25
1002
}
  0
LINE
  5
1D662
330
1D26B
100
AcDbEntity
  8
YODOROGO
100
AcDbLine
 10
14914.80217064596
 20
909.8747482146439
 30
0.0
 11
14914.80217064596
 21
929.874748214644
 31
0.0
1001
AUTOCAD_POSTSCRIPT_FIGURE
1002
{
1000
PSFILL
1000
Grayscale
1000
Grayscale
1070
    25
1002
}
  0
LINE
  5
1D663
330
1D26B
100
AcDbEntity
  8
YODOROGO
100
AcDbLine
 10
14960.80217064594
 20
885.8747482146441
 30
0.0
 11
14960.80217064594
 21
853.874748214644
 31
0.0
1001
AUTOCAD_POSTSCRIPT_FIGURE
1002
{
1000
PSFILL
1000
Grayscale
1000
Grayscale
1070
    25
1002
}
  0
LINE
  5
1D664
330
1D26B
100
AcDbEntity
  8
YODOROGO
100
AcDbLine
 10
14914.80217064596
 20
885.8747482146441
 30
0.0
 11
14960.80217064594
 21
885.8747482146441
 31
0.0
1001
AUTOCAD_POSTSCRIPT_FIGURE
1002
{
1000
PSFILL
1000
Grayscale
1000
Grayscale
1070
    25
1002
}
  0
LINE
  5
1D665
330
1D26B
100
AcDbEntity
  8
YODOROGO
100
AcDbLine
 10
14914.80217064596
 20
853.874748214644
 30
0.0
 11
14914.80217064596
 21
885.8747482146441
 31
0.0
1001
AUTOCAD_POSTSCRIPT_FIGURE
1002
{
1000
PSFILL
1000
Grayscale
1000
Grayscale
1070
    25
1002
}
  0
LINE
  5
1D666
330
1D26B
100
AcDbEntity
  8
YODOROGO
100
AcDbLine
 10
14882.80217064596
 20
853.874748214644
 30
0.0
 11
14914.80217064596
 21
853.874748214644
 31
0.0
1001
AUTOCAD_POSTSCRIPT_FIGURE
1002
{
1000
PSFILL
1000
Grayscale
1000
Grayscale
1070
    25
1002
}
  0
LINE
  5
1D667
330
1D26B
100
AcDbEntity
  8
YODOROGO
100
AcDbLine
 10
14882.80217064596
 20
885.8747482146441
 30
0.0
 11
14882.80217064596
 21
853.874748214644
 31
0.0
1001
AUTOCAD_POSTSCRIPT_FIGURE
1002
{
1000
PSFILL
1000
Grayscale
1000
Grayscale
1070
    25
1002
}
  0
LINE
  5
1D668
330
1D26B
100
AcDbEntity
  8
YODOROGO
100
AcDbLine
 10
14836.80217064596
 20
885.8747482146441
 30
0.0
 11
14882.80217064596
 21
885.8747482146441
 31
0.0
1001
AUTOCAD_POSTSCRIPT_FIGURE
1002
{
1000
PSFILL
1000
Grayscale
1000
Grayscale
1070
    25
1002
}
  0
ARC
  5
1D669
330
1D26B
100
AcDbEntity
  8
YODOROGO
100
AcDbCircle
 10
15529.75894667896
 20
801.3403687577881
 30
0.0
 40
89.11064055536078
100
AcDbArc
 50
281.0262749542534
 51
357.771135755738
  0
LINE
  5
1D66A
330
1D26B
100
AcDbEntity
  8
YODOROGO
100
AcDbLine
 10
15706.80217064596
 20
953.874748214644
 30
0.0
 11
15582.80217064596
 21
953.874748214644
 31
0.0
  0
LINE
  5
1D66B
330
1D26B
100
AcDbEntity
  8
YODOROGO
100
AcDbLine
 10
15706.80217064596
 20
1013.874748214644
 30
0.0
 11
15582.80217064596
 21
1013.874748214644
 31
0.0
  0
LINE
  5
1D66C
330
1D26B
100
AcDbEntity
  8
YODOROGO
100
AcDbLine
 10
15582.80217064596
 20
981.8747482146434
 30
0.0
 11
15706.80217064596
 21
981.8747482146434
 31
0.0
  0
LINE
  5
1D66D
330
1D26B
100
AcDbEntity
  8
YODOROGO
100
AcDbLine
 10
15395.80217064596
 20
781.8747482146434
 30
0.0
 11
15395.80217064596
 21
877.8747482146435
 31
0.0
  0
LINE
  5
1D66E
330
1D26B
100
AcDbEntity
  8
YODOROGO
100
AcDbLine
 10
15381.80217064596
 20
845.8747482146444
 30
0.0
 11
15381.80217064596
 21
781.8747482146434
 31
0.0
  0
LINE
  5
1D66F
330
1D26B
100
AcDbEntity
  8
YODOROGO
100
AcDbLine
 10
15361.80217064596
 20
745.8747482146443
 30
0.0
 11
15361.80217064596
 21
845.8747482146444
 31
0.0
  0
LINE
  5
1D670
330
1D26B
100
AcDbEntity
  8
YODOROGO
100
AcDbLine
 10
15449.80217064596
 20
845.8747482146444
 30
0.0
 11
15449.80217064596
 21
745.8747482146443
 31
0.0
  0
LINE
  5
1D671
330
1D26B
100
AcDbEntity
  8
YODOROGO
100
AcDbLine
 10
15429.80217064596
 20
781.8747482146434
 30
0.0
 11
15429.80217064596
 21
845.8747482146444
 31
0.0
  0
LINE
  5
1D672
330
1D26B
100
AcDbEntity
  8
YODOROGO
100
AcDbLine
 10
15415.80217064596
 20
877.8747482146435
 30
0.0
 11
15415.80217064596
 21
781.8747482146434
 31
0.0
  0
LINE
  5
1D673
330
1D26B
100
AcDbEntity
  8
YODOROGO
100
AcDbLine
 10
15486.80217064596
 20
1013.874748214644
 30
0.0
 11
15486.80217064596
 21
733.8747482146435
 31
0.0
  0
LINE
  5
1D674
330
1D26B
100
AcDbEntity
  8
YODOROGO
100
AcDbLine
 10
15322.80217064596
 20
713.8747482146435
 30
0.0
 11
15322.80217064596
 21
1013.874748214644
 31
0.0
  0
LINE
  5
1D675
330
1D26B
100
AcDbEntity
  8
YODOROGO
100
AcDbLine
 10
15348.80217064596
 20
981.8747482146434
 30
0.0
 11
15348.80217064596
 21
713.8747482146435
 31
0.0
  0
LINE
  5
1D676
330
1D26B
100
AcDbEntity
  8
YODOROGO
100
AcDbLine
 10
15462.80217064596
 20
773.874748214644
 30
0.0
 11
15462.80217064596
 21
981.8747482146434
 31
0.0
  0
LINE
  5
1D677
330
1D26B
100
AcDbEntity
  8
YODOROGO
100
AcDbLine
 10
15190.80217064596
 20
813.8747482146435
 30
0.0
 11
15190.80217064596
 21
839.8747482146442
 31
0.0
  0
LINE
  5
1D678
330
1D26B
100
AcDbEntity
  8
YODOROGO
100
AcDbLine
 10
15308.80217064596
 20
839.8747482146442
 30
0.0
 11
15308.80217064596
 21
813.8747482146435
 31
0.0
  0
LINE
  5
1D679
330
1D26B
100
AcDbEntity
  8
YODOROGO
100
AcDbLine
 10
15582.80217064596
 20
953.874748214644
 30
0.0
 11
15582.80217064596
 21
817.8747482146436
 31
0.0
  0
LINE
  5
1D67A
330
1D26B
100
AcDbEntity
  8
YODOROGO
100
AcDbLine
 10
14974.80217064595
 20
833.8747482146439
 30
0.0
 11
14974.80217064595
 21
853.874748214644
 31
0.0
  0
LINE
  5
1D67B
330
1D26B
100
AcDbEntity
  8
YODOROGO
100
AcDbLine
 10
14974.80217064595
 20
833.8747482146439
 30
0.0
 11
14974.80217064595
 21
853.874748214644
 31
0.0
  0
ARC
  5
1D67C
330
1D26B
100
AcDbEntity
  8
YODOROGO
100
AcDbCircle
 10
15268.80217064596
 20
753.8747482146439
 30
0.0
 40
40.0
100
AcDbArc
 50
270.0
 51
0.0
  0
LINE
  5
1D67D
330
1D26B
100
AcDbEntity
  8
YODOROGO
100
AcDbLine
 10
15284.80217064596
 20
799.8747482146441
 30
0.0
 11
15308.80217064596
 21
799.8747482146441
 31
0.0
  0
LINE
  5
1D67E
330
1D26B
100
AcDbEntity
  8
YODOROGO
100
AcDbLine
 10
15308.80217064596
 20
813.8747482146435
 30
0.0
 11
15264.80217064596
 21
813.8747482146435
 31
0.0
  0
LINE
  5
1D67F
330
1D26B
100
AcDbEntity
  8
YODOROGO
100
AcDbLine
 10
15108.80217064596
 20
833.8747482146439
 30
0.0
 11
14974.80217064595
 21
833.8747482146439
 31
0.0
  0
LINE
  5
1D680
330
1D26B
100
AcDbEntity
  8
YODOROGO
100
AcDbLine
 10
15108.80217064596
 20
813.8747482146435
 30
0.0
 11
15108.80217064596
 21
833.8747482146439
 31
0.0
  0
LINE
  5
1D681
330
1D26B
100
AcDbEntity
  8
YODOROGO
100
AcDbLine
 10
15008.80217064596
 20
813.8747482146435
 30
0.0
 11
15108.80217064596
 21
813.8747482146435
 31
0.0
  0
ARC
  5
1D682
330
1D26B
100
AcDbEntity
  8
YODOROGO
100
AcDbCircle
 10
15115.02941435068
 20
934.4428574764513
 30
0.0
 40
160.6888181426141
100
AcDbArc
 50
228.6181454618993
 51
245.660289248906
  0
LINE
  5
1D683
330
1D26B
100
AcDbEntity
  8
YODOROGO
100
AcDbLine
 10
15052.80217064596
 20
801.8747482146444
 30
0.0
 11
15048.80217064598
 21
788.0364079349501
 31
0.0
  0
LINE
  5
1D684
330
1D26B
100
AcDbEntity
  8
YODOROGO
100
AcDbLine
 10
15094.80217064596
 20
801.8747482146444
 30
0.0
 11
15052.80217064596
 21
801.8747482146444
 31
0.0
  0
LINE
  5
1D685
330
1D26B
100
AcDbEntity
  8
YODOROGO
100
AcDbLine
 10
15088.80217064596
 20
775.9088612367134
 30
0.0
 11
15094.80217064596
 21
801.8747482146444
 31
0.0
  0
ARC
  5
1D686
330
1D26B
100
AcDbEntity
  8
YODOROGO
100
AcDbCircle
 10
15115.02941435023
 20
934.4428574765014
 30
0.0
 40
160.6888181426453
100
AcDbArc
 50
260.6062929796992
 51
267.7790355655586
  0
LINE
  5
1D687
330
1D26B
100
AcDbEntity
  8
YODOROGO
100
AcDbLine
 10
15108.80217064596
 20
713.8747482146428
 30
0.0
 11
15108.80217064596
 21
773.874748214644
 31
0.0
  0
LINE
  5
1D688
330
1D26B
100
AcDbEntity
  8
YODOROGO
100
AcDbLine
 10
14968.80217064596
 20
740.6696674577553
 30
0.0
 11
14968.80217064596
 21
797.2655452655705
 31
0.0
  0
LINE
  5
1D689
330
1D26B
100
AcDbEntity
  8
YODOROGO
100
AcDbLine
 10
15108.80217064596
 20
833.8747482146439
 30
0.0
 11
14974.80217064595
 21
833.8747482146439
 31
0.0
  0
LINE
  5
1D68A
330
1D26B
100
AcDbEntity
  8
YODOROGO
100
AcDbLine
 10
15108.80217064596
 20
813.8747482146435
 30
0.0
 11
15108.80217064596
 21
833.8747482146439
 31
0.0
  0
LINE
  5
1D68B
330
1D26B
100
AcDbEntity
  8
YODOROGO
100
AcDbLine
 10
15008.80217064596
 20
813.8747482146435
 30
0.0
 11
15108.80217064596
 21
813.8747482146435
 31
0.0
  0
ARC
  5
1D68C
330
1D26B
100
AcDbEntity
  8
YODOROGO
100
AcDbCircle
 10
15115.02941435068
 20
934.4428574764513
 30
0.0
 40
160.6888181426141
100
AcDbArc
 50
228.6181454618993
 51
245.660289248906
  0
LINE
  5
1D68D
330
1D26B
100
AcDbEntity
  8
YODOROGO
100
AcDbLine
 10
15052.80217064596
 20
801.8747482146444
 30
0.0
 11
15048.80217064598
 21
788.0364079349501
 31
0.0
  0
LINE
  5
1D68E
330
1D26B
100
AcDbEntity
  8
YODOROGO
100
AcDbLine
 10
15094.80217064596
 20
801.8747482146444
 30
0.0
 11
15052.80217064596
 21
801.8747482146444
 31
0.0
  0
LINE
  5
1D68F
330
1D26B
100
AcDbEntity
  8
YODOROGO
100
AcDbLine
 10
15088.80217064596
 20
775.9088612367134
 30
0.0
 11
15094.80217064596
 21
801.8747482146444
 31
0.0
  0
ARC
  5
1D690
330
1D26B
100
AcDbEntity
  8
YODOROGO
100
AcDbCircle
 10
15115.02941435023
 20
934.4428574765014
 30
0.0
 40
160.6888181426453
100
AcDbArc
 50
260.6062929796992
 51
267.7790355655586
  0
LINE
  5
1D691
330
1D26B
100
AcDbEntity
  8
YODOROGO
100
AcDbLine
 10
15108.80217064596
 20
713.8747482146428
 30
0.0
 11
15108.80217064596
 21
773.874748214644
 31
0.0
  0
LINE
  5
1D692
330
1D26B
100
AcDbEntity
  8
YODOROGO
100
AcDbLine
 10
14968.80217064596
 20
740.6696674577553
 30
0.0
 11
14968.80217064596
 21
797.2655452655705
 31
0.0
  0
LINE
  5
1D693
330
1D26B
100
AcDbEntity
  8
YODOROGO
100
AcDbLine
 10
15216.80217064596
 20
786.8747482146444
 30
0.0
 11
15190.80217064596
 21
786.8747482146444
 31
0.0
  0
LINE
  5
1D694
330
1D26B
100
AcDbEntity
  8
YODOROGO
100
AcDbLine
 10
15216.80217064596
 20
800.8747482146432
 30
0.0
 11
15216.80217064596
 21
786.8747482146444
 31
0.0
  0
LINE
  5
1D695
330
1D26B
100
AcDbEntity
  8
YODOROGO
100
AcDbLine
 10
15190.80217064596
 20
800.8747482146432
 30
0.0
 11
15216.80217064596
 21
800.8747482146432
 31
0.0
  0
LINE
  5
1D696
330
1D26B
100
AcDbEntity
  8
YODOROGO
100
AcDbLine
 10
15190.80217064596
 20
786.8747482146444
 30
0.0
 11
15190.80217064596
 21
800.8747482146432
 31
0.0
  0
LINE
  5
1D697
330
1D26B
100
AcDbEntity
  8
YODOROGO
100
AcDbLine
 10
15214.80217064596
 20
788.8747482146436
 30
0.0
 11
15192.80217064595
 21
788.8747482146436
 31
0.0
  0
LINE
  5
1D698
330
1D26B
100
AcDbEntity
  8
YODOROGO
100
AcDbLine
 10
15214.80217064596
 20
798.874748214644
 30
0.0
 11
15214.80217064596
 21
788.8747482146436
 31
0.0
  0
LINE
  5
1D699
330
1D26B
100
AcDbEntity
  8
YODOROGO
100
AcDbLine
 10
15192.80217064595
 20
798.874748214644
 30
0.0
 11
15214.80217064596
 21
798.874748214644
 31
0.0
  0
LINE
  5
1D69A
330
1D26B
100
AcDbEntity
  8
YODOROGO
100
AcDbLine
 10
15192.80217064595
 20
788.8747482146436
 30
0.0
 11
15192.80217064595
 21
798.874748214644
 31
0.0
  0
LINE
  5
1D69B
330
1D26B
100
AcDbEntity
  8
YODOROGO
100
AcDbLine
 10
15212.80217064596
 20
790.8747482146432
 30
0.0
 11
15194.80217064596
 21
790.8747482146432
 31
0.0
  0
LINE
  5
1D69C
330
1D26B
100
AcDbEntity
  8
YODOROGO
100
AcDbLine
 10
15212.80217064596
 20
796.8747482146445
 30
0.0
 11
15212.80217064596
 21
790.8747482146432
 31
0.0
  0
LINE
  5
1D69D
330
1D26B
100
AcDbEntity
  8
YODOROGO
100
AcDbLine
 10
15194.80217064596
 20
796.8747482146445
 30
0.0
 11
15212.80217064596
 21
796.8747482146445
 31
0.0
  0
LINE
  5
1D69E
330
1D26B
100
AcDbEntity
  8
YODOROGO
100
AcDbLine
 10
15194.80217064596
 20
790.8747482146432
 30
0.0
 11
15194.80217064596
 21
796.8747482146445
 31
0.0
  0
LINE
  5
1D69F
330
1D26B
100
AcDbEntity
  8
YODOROGO
100
AcDbLine
 10
15210.80217064596
 20
792.8747482146435
 30
0.0
 11
15196.80217064596
 21
792.8747482146435
 31
0.0
  0
LINE
  5
1D6A0
330
1D26B
100
AcDbEntity
  8
YODOROGO
100
AcDbLine
 10
15210.80217064596
 20
794.8747482146441
 30
0.0
 11
15210.80217064596
 21
792.8747482146435
 31
0.0
  0
LINE
  5
1D6A1
330
1D26B
100
AcDbEntity
  8
YODOROGO
100
AcDbLine
 10
15196.80217064596
 20
794.8747482146441
 30
0.0
 11
15210.80217064596
 21
794.8747482146441
 31
0.0
  0
LINE
  5
1D6A2
330
1D26B
100
AcDbEntity
  8
YODOROGO
100
AcDbLine
 10
15196.80217064596
 20
792.8747482146435
 30
0.0
 11
15196.80217064596
 21
794.8747482146441
 31
0.0
  0
LINE
  5
1D6A3
330
1D26B
100
AcDbEntity
  8
YODOROGO
100
AcDbLine
 10
15232.80217064596
 20
813.8747482146435
 30
0.0
 11
15190.80217064596
 21
813.8747482146435
 31
0.0
  0
LINE
  5
1D6A4
330
1D26B
100
AcDbEntity
  8
YODOROGO
100
AcDbLine
 10
15232.80217064596
 20
773.874748214644
 30
0.0
 11
15232.80217064596
 21
813.8747482146435
 31
0.0
  0
LINE
  5
1D6A5
330
1D26B
100
AcDbEntity
  8
YODOROGO
100
AcDbLine
 10
15190.80217064596
 20
773.874748214644
 30
0.0
 11
15232.80217064596
 21
773.874748214644
 31
0.0
  0
LINE
  5
1D6A6
330
1D26B
100
AcDbEntity
  8
YODOROGO
100
AcDbLine
 10
15190.80217064596
 20
713.8747482146435
 30
0.0
 11
15190.80217064596
 21
773.874748214644
 31
0.0
  0
LINE
  5
1D6A7
330
1D26B
100
AcDbEntity
  8
YODOROGO
100
AcDbLine
 10
15268.80217064596
 20
713.8747482146435
 30
0.0
 11
15190.80217064596
 21
713.8747482146435
 31
0.0
  0
LINE
  5
1D6A8
330
1D26B
100
AcDbEntity
  8
YODOROGO
100
AcDbLine
 10
15284.80217064596
 20
785.8747482146432
 30
0.0
 11
15284.80217064596
 21
799.8747482146441
 31
0.0
  0
ARC
  5
1D6A9
330
1D26B
100
AcDbEntity
  8
YODOROGO
100
AcDbCircle
 10
15272.80217064594
 20
785.8747482146457
 30
0.0
 40
12.00000000000187
100
AcDbArc
 50
270.0
 51
359.9999999999877
  0
LINE
  5
1D6AA
330
1D26B
100
AcDbEntity
  8
YODOROGO
100
AcDbLine
 10
15264.80217064596
 20
773.874748214644
 30
0.0
 11
15272.80217064594
 21
773.874748214644
 31
0.0
  0
LINE
  5
1D6AB
330
1D26B
100
AcDbEntity
  8
YODOROGO
100
AcDbLine
 10
15264.80217064596
 20
813.8747482146435
 30
0.0
 11
15264.80217064596
 21
773.874748214644
 31
0.0
  0
LINE
  5
1D6AC
330
1D26B
100
AcDbEntity
  8
YODOROGO
100
AcDbLine
 10
15449.80217064596
 20
773.874748214644
 30
0.0
 11
15462.80217064596
 21
773.874748214644
 31
0.0
  0
LINE
  5
1D6AD
330
1D26B
100
AcDbEntity
  8
YODOROGO
100
AcDbLine
 10
15466.80217064596
 20
713.8747482146435
 30
0.0
 11
15449.80217064596
 21
713.8747482146435
 31
0.0
  0
LINE
  5
1D6AE
330
1D26B
100
AcDbEntity
  8
YODOROGO
100
AcDbLine
 10
15381.80217064596
 20
781.8747482146434
 30
0.0
 11
15395.80217064596
 21
781.8747482146434
 31
0.0
  0
LINE
  5
1D6AF
330
1D26B
100
AcDbEntity
  8
YODOROGO
100
AcDbLine
 10
15449.80217064596
 20
745.8747482146443
 30
0.0
 11
15361.80217064596
 21
745.8747482146443
 31
0.0
  0
LINE
  5
1D6B0
330
1D26B
100
AcDbEntity
  8
YODOROGO
100
AcDbLine
 10
15415.80217064596
 20
781.8747482146434
 30
0.0
 11
15429.80217064596
 21
781.8747482146434
 31
0.0
  0
LINE
  5
1D6B1
330
1D26B
100
AcDbEntity
  8
YODOROGO
100
AcDbLine
 10
15449.80217064596
 20
713.8747482146435
 30
0.0
 11
15449.80217064596
 21
773.874748214644
 31
0.0
  0
LINE
  5
1D6B2
330
1D26B
100
AcDbEntity
  8
YODOROGO
100
AcDbLine
 10
15348.80217064596
 20
713.8747482146435
 30
0.0
 11
15322.80217064596
 21
713.8747482146435
 31
0.0
  0
LINE
  5
1D6B3
330
1D26B
100
AcDbEntity
  8
YODOROGO
100
AcDbLine
 10
15308.80217064596
 20
799.8747482146441
 30
0.0
 11
15308.80217064596
 21
753.8747482146439
 31
0.0
  0
ARC
  5
1D6B4
330
1D26B
100
AcDbEntity
  8
YODOROGO
100
AcDbCircle
 10
15466.80217064596
 20
733.8747482146435
 30
0.0
 40
20.0
100
AcDbArc
 50
270.0
 51
0.0
  0
LINE
  5
1D6B5
330
1D26B
100
AcDbEntity
  8
YODOROGO
100
AcDbLine
 10
15546.80217064596
 20
761.8747482146434
 30
0.0
 11
15546.80217064596
 21
713.8747482146435
 31
0.0
  0
ARC
  5
1D6B6
330
1D26B
100
AcDbEntity
  8
YODOROGO
100
AcDbCircle
 10
15519.86069778339
 20
818.7656950548664
 30
0.0
 40
62.94777829583771
100
AcDbArc
 50
295.3405244216011
 51
359.1890230341868
  0
LINE
  5
1D6B7
330
1D26B
100
AcDbEntity
  8
YODOROGO
100
AcDbLine
 10
15308.80217064596
 20
929.874748214644
 30
0.0
 11
15248.80217064596
 21
969.8747482146441
 31
0.0
  0
LINE
  5
1D6B8
330
1D26B
100
AcDbEntity
  8
YODOROGO
100
AcDbLine
 10
15248.80217064596
 20
1013.874748214644
 30
0.0
 11
15308.80217064596
 21
973.8747482146434
 31
0.0
  0
LINE
  5
1D6B9
330
1D26B
100
AcDbEntity
  8
YODOROGO
100
AcDbLine
 10
15264.80217064596
 20
839.8747482146442
 30
0.0
 11
15308.80217064596
 21
839.8747482146442
 31
0.0
  0
LINE
  5
1D6BA
330
1D26B
100
AcDbEntity
  8
YODOROGO
100
AcDbLine
 10
15308.80217064596
 20
867.8747482146436
 30
0.0
 11
15264.80217064596
 21
867.8747482146436
 31
0.0
  0
LINE
  5
1D6BB
330
1D26B
100
AcDbEntity
  8
YODOROGO
100
AcDbLine
 10
15190.80217064596
 20
897.8747482146435
 30
0.0
 11
15308.80217064596
 21
897.8747482146435
 31
0.0
  0
LINE
  5
1D6BC
330
1D26B
100
AcDbEntity
  8
YODOROGO
100
AcDbLine
 10
15040.80217064596
 20
1013.874748214644
 30
0.0
 11
15010.80217064596
 21
1013.874748214644
 31
0.0
  0
LINE
  5
1D6BD
330
1D26B
100
AcDbEntity
  8
YODOROGO
100
AcDbLine
 10
15040.80217064596
 20
913.8747482146435
 30
0.0
 11
15040.80217064596
 21
1013.874748214644
 31
0.0
  0
LINE
  5
1D6BE
330
1D26B
100
AcDbEntity
  8
YODOROGO
100
AcDbLine
 10
15010.80217064596
 20
913.8747482146435
 30
0.0
 11
15040.80217064596
 21
913.8747482146435
 31
0.0
  0
LINE
  5
1D6BF
330
1D26B
100
AcDbEntity
  8
YODOROGO
100
AcDbLine
 10
15010.80217064596
 20
1013.874748214644
 30
0.0
 11
15010.80217064596
 21
913.8747482146435
 31
0.0
  0
LINE
  5
1D6C0
330
1D26B
100
AcDbEntity
  8
YODOROGO
100
AcDbLine
 10
15080.80217064596
 20
1013.874748214644
 30
0.0
 11
15108.80217064596
 21
1013.874748214644
 31
0.0
  0
LINE
  5
1D6C1
330
1D26B
100
AcDbEntity
  8
YODOROGO
100
AcDbLine
 10
15080.80217064596
 20
905.8747482146443
 30
0.0
 11
15080.80217064596
 21
1013.874748214644
 31
0.0
  0
ARC
  5
1D6C2
330
1D26B
100
AcDbEntity
  8
YODOROGO
100
AcDbCircle
 10
15060.80217064596
 20
905.8747482146443
 30
0.0
 40
20.0
100
AcDbArc
 50
270.0
 51
0.0
  0
LINE
  5
1D6C3
330
1D26B
100
AcDbEntity
  8
YODOROGO
100
AcDbLine
 10
15010.80217064596
 20
885.8747482146441
 30
0.0
 11
15060.80217064596
 21
885.8747482146441
 31
0.0
  0
LINE
  5
1D6C4
330
1D26B
100
AcDbEntity
  8
YODOROGO
100
AcDbLine
 10
15010.80217064596
 20
853.874748214644
 30
0.0
 11
15010.80217064596
 21
885.8747482146441
 31
0.0
  0
LINE
  5
1D6C5
330
1D26B
100
AcDbEntity
  8
YODOROGO
100
AcDbLine
 10
15068.80217064596
 20
853.874748214644
 30
0.0
 11
15010.80217064596
 21
853.874748214644
 31
0.0
  0
ARC
  5
1D6C6
330
1D26B
100
AcDbEntity
  8
YODOROGO
100
AcDbCircle
 10
15068.80217064596
 20
893.8747482146439
 30
0.0
 40
40.0
100
AcDbArc
 50
270.0
 51
0.0
  0
LINE
  5
1D6C7
330
1D26B
100
AcDbEntity
  8
YODOROGO
100
AcDbLine
 10
15108.80217064596
 20
1013.874748214644
 30
0.0
 11
15108.80217064596
 21
893.8747482146439
 31
0.0
  0
LINE
  5
1D6C8
330
1D26B
100
AcDbEntity
  8
YODOROGO
100
AcDbLine
 10
14988.80217064596
 20
973.8747482146434
 30
0.0
 11
14988.80217064596
 21
997.8747482146435
 31
0.0
1001
AUTOCAD_POSTSCRIPT_FIGURE
1002
{
1000
PSFILL
1000
Grayscale
1000
Grayscale
1070
    25
1002
}
  0
LINE
  5
1D6C9
330
1D26B
100
AcDbEntity
  8
YODOROGO
100
AcDbLine
 10
14988.80217064596
 20
929.874748214644
 30
0.0
 11
14988.80217064596
 21
953.874748214644
 31
0.0
1001
AUTOCAD_POSTSCRIPT_FIGURE
1002
{
1000
PSFILL
1000
Grayscale
1000
Grayscale
1070
    25
1002
}
  0
LINE
  5
1D6CA
330
1D26B
100
AcDbEntity
  8
YODOROGO
100
AcDbLine
 10
14988.80217064596
 20
853.874748214644
 30
0.0
 11
14988.80217064596
 21
909.8747482146439
 31
0.0
1001
AUTOCAD_POSTSCRIPT_FIGURE
1002
{
1000
PSFILL
1000
Grayscale
1000
Grayscale
1070
    25
1002
}
  0
LINE
  5
1D6CB
330
1D26B
100
AcDbEntity
  8
YODOROGO
100
AcDbLine
 10
15190.80217064596
 20
953.874748214644
 30
0.0
 11
15248.80217064596
 21
1013.874748214644
 31
0.0
  0
LINE
  5
1D6CC
330
1D26B
100
AcDbEntity
  8
YODOROGO
100
AcDbLine
 10
15190.80217064596
 20
909.8747482146439
 30
0.0
 11
15190.80217064596
 21
953.874748214644
 31
0.0
  0
LINE
  5
1D6CD
330
1D26B
100
AcDbEntity
  8
YODOROGO
100
AcDbLine
 10
15248.80217064596
 20
969.8747482146441
 30
0.0
 11
15190.80217064596
 21
909.8747482146439
 31
0.0
  0
LINE
  5
1D6CE
330
1D26B
100
AcDbEntity
  8
YODOROGO
100
AcDbLine
 10
15232.80217064596
 20
839.8747482146442
 30
0.0
 11
15232.80217064596
 21
867.8747482146436
 31
0.0
  0
LINE
  5
1D6CF
330
1D26B
100
AcDbEntity
  8
YODOROGO
100
AcDbLine
 10
15190.80217064596
 20
839.8747482146442
 30
0.0
 11
15232.80217064596
 21
839.8747482146442
 31
0.0
  0
LINE
  5
1D6D0
330
1D26B
100
AcDbEntity
  8
YODOROGO
100
AcDbLine
 10
15264.80217064596
 20
867.8747482146436
 30
0.0
 11
15264.80217064596
 21
839.8747482146442
 31
0.0
  0
LINE
  5
1D6D1
330
1D26B
100
AcDbEntity
  8
YODOROGO
100
AcDbLine
 10
15190.80217064596
 20
867.8747482146436
 30
0.0
 11
15190.80217064596
 21
897.8747482146435
 31
0.0
  0
LINE
  5
1D6D2
330
1D26B
100
AcDbEntity
  8
YODOROGO
100
AcDbLine
 10
15232.80217064596
 20
867.8747482146436
 30
0.0
 11
15190.80217064596
 21
867.8747482146436
 31
0.0
  0
LINE
  5
1D6D3
330
1D26B
100
AcDbEntity
  8
YODOROGO
100
AcDbLine
 10
15322.80217064596
 20
1013.874748214644
 30
0.0
 11
15486.80217064596
 21
1013.874748214644
 31
0.0
  0
LINE
  5
1D6D4
330
1D26B
100
AcDbEntity
  8
YODOROGO
100
AcDbLine
 10
15462.80217064596
 20
981.8747482146434
 30
0.0
 11
15348.80217064596
 21
981.8747482146434
 31
0.0
  0
LINE
  5
1D6D5
330
1D26B
100
AcDbEntity
  8
YODOROGO
100
AcDbLine
 10
15436.80217064595
 20
909.8747482146439
 30
0.0
 11
15449.80217064596
 21
909.8747482146439
 31
0.0
  0
LINE
  5
1D6D6
330
1D26B
100
AcDbEntity
  8
YODOROGO
100
AcDbLine
 10
15449.80217064596
 20
969.8747482146441
 30
0.0
 11
15436.80217064595
 21
909.8747482146439
 31
0.0
  0
LINE
  5
1D6D7
330
1D26B
100
AcDbEntity
  8
YODOROGO
100
AcDbLine
 10
15425.80217064596
 20
969.8747482146441
 30
0.0
 11
15449.80217064596
 21
969.8747482146441
 31
0.0
  0
LINE
  5
1D6D8
330
1D26B
100
AcDbEntity
  8
YODOROGO
100
AcDbLine
 10
15412.80217064596
 20
909.8747482146439
 30
0.0
 11
15425.80217064596
 21
969.8747482146441
 31
0.0
  0
LINE
  5
1D6D9
330
1D26B
100
AcDbEntity
  8
YODOROGO
100
AcDbLine
 10
15398.80217064596
 20
909.8747482146439
 30
0.0
 11
15412.80217064596
 21
909.8747482146439
 31
0.0
  0
LINE
  5
1D6DA
330
1D26B
100
AcDbEntity
  8
YODOROGO
100
AcDbLine
 10
15385.80217064596
 20
969.8747482146441
 30
0.0
 11
15398.80217064596
 21
909.8747482146439
 31
0.0
  0
LINE
  5
1D6DB
330
1D26B
100
AcDbEntity
  8
YODOROGO
100
AcDbLine
 10
15361.80217064596
 20
969.8747482146441
 30
0.0
 11
15385.80217064596
 21
969.8747482146441
 31
0.0
  0
LINE
  5
1D6DC
330
1D26B
100
AcDbEntity
  8
YODOROGO
100
AcDbLine
 10
15374.80217064596
 20
909.8747482146439
 30
0.0
 11
15361.80217064596
 21
969.8747482146441
 31
0.0
  0
LINE
  5
1D6DD
330
1D26B
100
AcDbEntity
  8
YODOROGO
100
AcDbLine
 10
15361.80217064596
 20
909.8747482146439
 30
0.0
 11
15374.80217064596
 21
909.8747482146439
 31
0.0
  0
LINE
  5
1D6DE
330
1D26B
100
AcDbEntity
  8
YODOROGO
100
AcDbLine
 10
15361.80217064596
 20
877.8747482146435
 30
0.0
 11
15361.80217064596
 21
909.8747482146439
 31
0.0
  0
LINE
  5
1D6DF
330
1D26B
100
AcDbEntity
  8
YODOROGO
100
AcDbLine
 10
15449.80217064596
 20
877.8747482146435
 30
0.0
 11
15361.80217064596
 21
877.8747482146435
 31
0.0
  0
LINE
  5
1D6E0
330
1D26B
100
AcDbEntity
  8
YODOROGO
100
AcDbLine
 10
15449.80217064596
 20
909.8747482146439
 30
0.0
 11
15449.80217064596
 21
877.8747482146435
 31
0.0
  0
LINE
  5
1D6E1
330
1D26B
100
AcDbEntity
  8
YODOROGO
100
AcDbLine
 10
15308.80217064596
 20
973.8747482146434
 30
0.0
 11
15308.80217064596
 21
929.874748214644
 31
0.0
  0
LINE
  5
1D6E2
330
1D26B
100
AcDbEntity
  8
YODOROGO
100
AcDbLine
 10
15395.80217064596
 20
877.8747482146435
 30
0.0
 11
15415.80217064596
 21
877.8747482146435
 31
0.0
  0
LINE
  5
1D6E3
330
1D26B
100
AcDbEntity
  8
YODOROGO
100
AcDbLine
 10
15361.80217064596
 20
845.8747482146444
 30
0.0
 11
15381.80217064596
 21
845.8747482146444
 31
0.0
  0
LINE
  5
1D6E4
330
1D26B
100
AcDbEntity
  8
YODOROGO
100
AcDbLine
 10
15429.80217064596
 20
845.8747482146444
 30
0.0
 11
15449.80217064596
 21
845.8747482146444
 31
0.0
  0
LINE
  5
1D6E5
330
1D26B
100
AcDbEntity
  8
YODOROGO
100
AcDbLine
 10
15308.80217064596
 20
897.8747482146435
 30
0.0
 11
15308.80217064596
 21
867.8747482146436
 31
0.0
  0
LINE
  5
1D6E6
330
1D26B
100
AcDbEntity
  8
YODOROGO
100
AcDbLine
 10
15582.80217064596
 20
1013.874748214644
 30
0.0
 11
15582.80217064596
 21
981.8747482146434
 31
0.0
  0
LINE
  5
1D6E7
330
1D26B
100
AcDbEntity
  8
YODOROGO
100
AcDbLine
 10
15766.80217064596
 20
797.8747482146435
 30
0.0
 11
15766.80217064594
 21
905.8747482146443
 31
0.0
  0
LINE
  5
1D6E8
330
1D26B
100
AcDbEntity
  8
YODOROGO
100
AcDbLine
 10
15730.80217064594
 20
993.8747482146439
 30
0.0
 11
15730.80217064594
 21
817.8747482146436
 31
0.0
  0
LINE
  5
1D6E9
330
1D26B
100
AcDbEntity
  8
YODOROGO
100
AcDbLine
 10
15826.80217064596
 20
713.8747482146435
 30
0.0
 11
15826.80217064594
 21
905.8747482146443
 31
0.0
  0
LINE
  5
1D6EA
330
1D26B
100
AcDbEntity
  8
YODOROGO
100
AcDbLine
 10
15794.80217064596
 20
905.8747482146443
 30
0.0
 11
15794.80217064596
 21
713.8747482146435
 31
0.0
  0
LINE
  5
1D6EB
330
1D26B
100
AcDbEntity
  8
YODOROGO
100
AcDbLine
 10
15618.80217064596
 20
797.8747482146435
 30
0.0
 11
15618.80217064596
 21
853.874748214644
 31
0.0
  0
ARC
  5
1D6EC
330
1D26B
100
AcDbEntity
  8
YODOROGO
100
AcDbCircle
 10
15676.95743255803
 20
803.8951756442788
 30
0.0
 40
90.04622428799429
100
AcDbArc
 50
268.6284910216979
 51
356.1663845733032
  0
LINE
  5
1D6ED
330
1D26B
100
AcDbEntity
  8
YODOROGO
100
AcDbLine
 10
15674.80217064596
 20
763.8747482146435
 30
0.0
 11
15674.80217064596
 21
713.8747482146435
 31
0.0
  0
ARC
  5
1D6EE
330
1D26B
100
AcDbEntity
  8
YODOROGO
100
AcDbCircle
 10
15675.75903786228
 20
818.9194785088275
 30
0.0
 40
55.05304649180608
100
AcDbArc
 50
269.0041020930593
 51
358.9126445549248
  0
LINE
  5
1D6EF
330
1D26B
100
AcDbEntity
  8
YODOROGO
100
AcDbLine
 10
15794.80217064596
 20
713.8747482146435
 30
0.0
 11
15826.80217064596
 21
713.8747482146435
 31
0.0
  0
LINE
  5
1D6F0
330
1D26B
100
AcDbEntity
  8
YODOROGO
100
AcDbLine
 10
15766.80217064594
 20
905.8747482146443
 30
0.0
 11
15794.80217064596
 21
905.8747482146443
 31
0.0
  0
LINE
  5
1D6F1
330
1D26B
100
AcDbEntity
  8
YODOROGO
100
AcDbLine
 10
15810.80217064596
 20
993.8747482146439
 30
0.0
 11
15730.80217064594
 21
993.8747482146439
 31
0.0
  0
LINE
  5
1D6F2
330
1D26B
100
AcDbEntity
  8
YODOROGO
100
AcDbLine
 10
15766.80217064594
 20
957.8747482146436
 30
0.0
 11
15830.80217064596
 21
957.8747482146436
 31
0.0
  0
LINE
  5
1D6F3
330
1D26B
100
AcDbEntity
  8
YODOROGO
100
AcDbLine
 10
15850.80217064596
 20
937.8747482146435
 30
0.0
 11
15766.80217064594
 21
937.8747482146435
 31
0.0
  0
LINE
  5
1D6F4
330
1D26B
100
AcDbEntity
  8
YODOROGO
100
AcDbLine
 10
15618.80217064596
 20
889.8747482146442
 30
0.0
 11
15674.80217064596
 21
889.8747482146442
 31
0.0
  0
LINE
  5
1D6F5
330
1D26B
100
AcDbEntity
  8
YODOROGO
100
AcDbLine
 10
15618.80217064596
 20
917.8747482146436
 30
0.0
 11
15618.80217064596
 21
889.8747482146442
 31
0.0
  0
LINE
  5
1D6F6
330
1D26B
100
AcDbEntity
  8
YODOROGO
100
AcDbLine
 10
15674.80217064596
 20
917.8747482146436
 30
0.0
 11
15618.80217064596
 21
917.8747482146436
 31
0.0
  0
LINE
  5
1D6F7
330
1D26B
100
AcDbEntity
  8
YODOROGO
100
AcDbLine
 10
15674.80217064596
 20
889.8747482146442
 30
0.0
 11
15674.80217064596
 21
917.8747482146436
 31
0.0
  0
LINE
  5
1D6F8
330
1D26B
100
AcDbEntity
  8
YODOROGO
100
AcDbLine
 10
15766.80217064594
 20
937.8747482146435
 30
0.0
 11
15766.80217064594
 21
957.8747482146436
 31
0.0
  0
LINE
  5
1D6F9
330
1D26B
100
AcDbEntity
  8
YODOROGO
100
AcDbLine
 10
15706.80217064596
 20
853.874748214644
 30
0.0
 11
15706.80217064596
 21
953.874748214644
 31
0.0
  0
LINE
  5
1D6FA
330
1D26B
100
AcDbEntity
  8
YODOROGO
100
AcDbLine
 10
15618.80217064596
 20
853.874748214644
 30
0.0
 11
15706.80217064596
 21
853.874748214644
 31
0.0
  0
LINE
  5
1D6FB
330
1D26B
100
AcDbEntity
  8
YODOROGO
100
AcDbLine
 10
15706.80217064596
 20
981.8747482146434
 30
0.0
 11
15706.80217064596
 21
1013.874748214644
 31
0.0
  0
ARC
  5
1D6FC
330
1D26B
100
AcDbEntity
  8
YODOROGO
100
AcDbCircle
 10
15810.80217064596
 20
1001.874748214642
 30
0.0
 40
7.999999999997268
100
AcDbArc
 50
270.0
 51
0.0000000000081422
  0
LINE
  5
1D6FD
330
1D26B
100
AcDbEntity
  8
YODOROGO
100
AcDbLine
 10
15818.80217064596
 20
1013.874748214644
 30
0.0
 11
15818.80217064596
 21
1001.874748214643
 31
0.0
  0
LINE
  5
1D6FE
330
1D26B
100
AcDbEntity
  8
YODOROGO
100
AcDbLine
 10
15850.80217064596
 20
1013.874748214644
 30
0.0
 11
15818.80217064596
 21
1013.874748214644
 31
0.0
  0
LINE
  5
1D6FF
330
1D26B
100
AcDbEntity
  8
YODOROGO
100
AcDbLine
 10
15850.80217064596
 20
977.8747482146435
 30
0.0
 11
15850.80217064596
 21
1013.874748214644
 31
0.0
  0
ARC
  5
1D700
330
1D26B
100
AcDbEntity
  8
YODOROGO
100
AcDbCircle
 10
15830.80217064596
 20
977.8747482146435
 30
0.0
 40
20.0
100
AcDbArc
 50
270.0
 51
0.0
  0
LINE
  5
1D701
330
1D26B
100
AcDbEntity
  8
YODOROGO
100
AcDbLine
 10
15850.80217064596
 20
905.8747482146443
 30
0.0
 11
15850.80217064596
 21
937.8747482146435
 31
0.0
  0
LINE
  5
1D702
330
1D26B
100
AcDbEntity
  8
YODOROGO
100
AcDbLine
 10
15826.80217064594
 20
905.8747482146443
 30
0.0
 11
15850.80217064596
 21
905.8747482146443
 31
0.0
  0
LINE
  5
1D703
330
1D26B
100
AcDbEntity
  8
SUNPOU
100
AcDbLine
 10
10943.34656667794
 20
7287.248005016646
 30
0.0
 11
10943.34656667794
 21
6867.248005016648
 31
0.0
  0
LINE
  5
1D704
330
1D26B
100
AcDbEntity
  8
SUNPOU
100
AcDbLine
 10
11032.34656667793
 20
7637.248005016646
 30
0.0
 11
11032.34656667793
 21
6867.248005016648
 31
0.0
  0
LINE
  5
1D705
330
1D26B
100
AcDbEntity
  8
SUNPOU
100
AcDbLine
 10
10923.34656667794
 20
6927.248005016649
 30
0.0
 11
10903.34656667794
 21
6927.248005016649
 31
0.0
  0
LINE
  5
1D706
330
1D26B
100
AcDbEntity
  8
SUNPOU
100
AcDbLine
 10
11052.34656667793
 20
6927.248005016649
 30
0.0
 11
11318.06085239221
 21
6927.248005016649
 31
0.0
  0
LINE
  5
1D707
330
1D26B
100
AcDbEntity
  8
SUNPOU
100
AcDbLine
 10
10943.34656667794
 20
6927.248005016649
 30
0.0
 11
11032.34656667793
 21
6927.248005016649
 31
0.0
  0
LINE
  5
1D708
330
1D26B
100
AcDbEntity
  8
SUNPOU
100
AcDbLine
 10
5454.346566677937
 20
7637.248005016646
 30
0.0
 11
5454.346566677937
 21
6587.248005016644
 31
0.0
  0
LINE
  5
1D709
330
1D26B
100
AcDbEntity
  8
SUNPOU
100
AcDbLine
 10
11032.34656667793
 20
7637.248005016646
 30
0.0
 11
11032.34656667793
 21
6587.248005016644
 31
0.0
  0
LINE
  5
1D70A
330
1D26B
100
AcDbEntity
  8
SUNPOU
100
AcDbLine
 10
5474.346566677938
 20
6647.248005016646
 30
0.0
 11
11012.34656667793
 21
6647.248005016646
 31
0.0
  0
LINE
  5
1D70B
330
1D26B
100
AcDbEntity
  8
SUNPOU
100
AcDbLine
 10
11169.36422112192
 20
9078.087235501184
 30
0.0
 11
11031.14656667793
 21
8998.287235501193
 31
0.0
  0
LINE
  5
1D70C
330
1D26B
100
AcDbEntity
  8
SUNPOU
100
AcDbLine
 10
11031.14656667793
 20
8998.287235501193
 30
0.0
 11
11169.36422112192
 21
8918.48723550119
 31
0.0
  0
LINE
  5
1D70D
330
1D26B
100
AcDbEntity
  8
SUNPOU
100
AcDbLine
 10
11169.36422112192
 20
8918.48723550119
 30
0.0
 11
11169.36422112192
 21
9078.087235501184
 31
0.0
  0
LINE
  5
1D70E
330
1D26B
100
AcDbEntity
  8
SUNPOU
100
AcDbLine
 10
8657.738961405865
 20
7677.248005016647
 30
0.0
 11
8577.938961405875
 21
7539.030350572648
 31
0.0
  0
LINE
  5
1D70F
330
1D26B
100
AcDbEntity
  8
SUNPOU
100
AcDbLine
 10
8577.938961405875
 20
7539.030350572648
 30
0.0
 11
8737.538961405865
 21
7539.030350572648
 31
0.0
  0
LINE
  5
1D710
330
1D26B
100
AcDbEntity
  8
SUNPOU
100
AcDbLine
 10
8737.538961405865
 20
7539.030350572648
 30
0.0
 11
8657.738961405865
 21
7677.248005016647
 31
0.0
  0
LINE
  5
1D711
330
1D26B
100
AcDbEntity
  8
SUNPOU
100
AcDbLine
 10
14068.84203862247
 20
5661.242882976337
 30
0.0
 11
14068.84203862247
 21
5842.911796040156
 31
0.0
  0
LINE
  5
1D712
330
1D26B
100
AcDbEntity
  8
SUNPOU
100
AcDbLine
 10
14318.84203862246
 20
5323.46700206148
 30
0.0
 11
14318.84203862246
 21
5842.911796040156
 31
0.0
  0
LINE
  5
1D713
330
1D26B
100
AcDbEntity
  8
SUNPOU
100
AcDbLine
 10
14088.84203862246
 20
5782.911796040156
 30
0.0
 11
14298.84203862246
 21
5782.911796040156
 31
0.0
  0
LINE
  5
1D714
330
1D26B
100
AcDbEntity
  8
SUNPOU
100
AcDbLine
 10
14318.84203862246
 20
5782.911796040156
 30
0.0
 11
14698.84203862246
 21
5782.911796040156
 31
0.0
  0
LINE
  5
1D715
330
1D26B
100
AcDbEntity
  8
SUNPOU
100
AcDbLine
 10
14068.84203862247
 20
5661.242882976337
 30
0.0
 11
14068.84203862247
 21
5842.911796040156
 31
0.0
  0
LINE
  5
1D716
330
1D26B
100
AcDbEntity
  8
SUNPOU
100
AcDbLine
 10
13818.84203862247
 20
5323.46700206148
 30
0.0
 11
13818.84203862247
 21
5842.911796040156
 31
0.0
  0
LINE
  5
1D717
330
1D26B
100
AcDbEntity
  8
SUNPOU
100
AcDbLine
 10
14048.84203862247
 20
5782.911796040156
 30
0.0
 11
13838.84203862247
 21
5782.911796040156
 31
0.0
  0
LINE
  5
1D718
330
1D26B
100
AcDbEntity
  8
SUNPOU
100
AcDbLine
 10
13818.84203862247
 20
5782.911796040156
 30
0.0
 11
13438.84203862247
 21
5782.911796040156
 31
0.0
  0
LINE
  5
1D719
330
1D26B
100
AcDbEntity
  8
SUNPOU
100
AcDbLine
 10
13568.84203862247
 20
5203.46700206148
 30
0.0
 11
13366.45858960529
 21
5203.46700206148
 31
0.0
  0
LINE
  5
1D71A
330
1D26B
100
AcDbEntity
  8
SUNPOU
100
AcDbLine
 10
13668.84203862247
 20
5383.46700206148
 30
0.0
 11
13366.45858960529
 21
5383.46700206148
 31
0.0
  0
LINE
  5
1D71B
330
1D26B
100
AcDbEntity
  8
SUNPOU
100
AcDbLine
 10
13426.45858960529
 20
5223.467002061481
 30
0.0
 11
13426.45858960529
 21
5363.46700206148
 31
0.0
  0
LINE
  5
1D71C
330
1D26B
100
AcDbEntity
  8
SUNPOU
100
AcDbLine
 10
13426.45858960529
 20
5383.46700206148
 30
0.0
 11
13426.45858960529
 21
5652.99081158529
 31
0.0
  0
LINE
  5
1D71D
330
1D26B
100
AcDbEntity
  8
SUNPOU
100
AcDbLine
 10
13568.84203862247
 20
5203.46700206148
 30
0.0
 11
13366.45858960529
 21
5203.46700206148
 31
0.0
  0
LINE
  5
1D71E
330
1D26B
100
AcDbEntity
  8
SUNPOU
100
AcDbLine
 10
13668.84203862247
 20
5023.46700206148
 30
0.0
 11
13366.45858960529
 21
5023.46700206148
 31
0.0
  0
LINE
  5
1D71F
330
1D26B
100
AcDbEntity
  8
SUNPOU
100
AcDbLine
 10
13426.45858960529
 20
5183.46700206148
 30
0.0
 11
13426.45858960529
 21
5043.46700206148
 31
0.0
  0
LINE
  5
1D720
330
1D26B
100
AcDbEntity
  8
SUNPOU
100
AcDbLine
 10
13426.45858960529
 20
5023.46700206148
 30
0.0
 11
13426.45858960529
 21
4753.94319253767
 31
0.0
  0
LINE
  5
1D721
330
1D26B
100
AcDbEntity
  8
SUNPOU
100
AcDbLine
 10
14428.84203862246
 20
4983.46700206148
 30
0.0
 11
14428.84203862246
 21
4645.617320595433
 31
0.0
  0
LINE
  5
1D722
330
1D26B
100
AcDbEntity
  8
SUNPOU
100
AcDbLine
 10
13708.84203862247
 20
4983.46700206148
 30
0.0
 11
13708.84203862247
 21
4645.617320595433
 31
0.0
  0
LINE
  5
1D723
330
1D26B
100
AcDbEntity
  8
SUNPOU
100
AcDbLine
 10
14408.84203862246
 20
4705.617320595433
 30
0.0
 11
13728.84203862247
 21
4705.617320595433
 31
0.0
  0
LINE
  5
1D724
330
1D26B
100
AcDbEntity
  8
SUNPOU
100
AcDbLine
 10
14468.84203862246
 20
5383.46700206148
 30
0.0
 11
14892.76599491387
 21
5383.46700206148
 31
0.0
  0
LINE
  5
1D725
330
1D26B
100
AcDbEntity
  8
SUNPOU
100
AcDbLine
 10
14468.84203862246
 20
5023.46700206148
 30
0.0
 11
14892.76599491387
 21
5023.46700206148
 31
0.0
  0
LINE
  5
1D726
330
1D26B
100
AcDbEntity
  8
SUNPOU
100
AcDbLine
 10
14832.76599491387
 20
5363.46700206148
 30
0.0
 11
14832.76599491387
 21
5043.46700206148
 31
0.0
  0
LINE
  5
1D727
330
1D26B
100
AcDbEntity
  8
SUNPOU
100
AcDbLine
 10
13508.84203862247
 20
3629.739597635554
 30
0.0
 11
13508.84203862247
 21
2779.739597635554
 31
0.0
  0
LINE
  5
1D728
330
1D26B
100
AcDbEntity
  8
SUNPOU
100
AcDbLine
 10
14628.84203862246
 20
3629.739597635554
 30
0.0
 11
14628.84203862246
 21
2779.739597635554
 31
0.0
  0
LINE
  5
1D729
330
1D26B
100
AcDbEntity
  8
SUNPOU
100
AcDbLine
 10
13528.84203862247
 20
2839.739597635555
 30
0.0
 11
14608.84203862246
 21
2839.739597635555
 31
0.0
  0
LINE
  5
1D72A
330
1D26B
100
AcDbEntity
  8
SUNPOU
100
AcDbLine
 10
13408.8420386213
 20
3029.739597635554
 30
0.0
 11
13408.8420386213
 21
2549.739597635555
 31
0.0
  0
LINE
  5
1D72B
330
1D26B
100
AcDbEntity
  8
SUNPOU
100
AcDbLine
 10
14728.84203862246
 20
3029.739597635554
 30
0.0
 11
14728.84203862246
 21
2549.739597635555
 31
0.0
  0
LINE
  5
1D72C
330
1D26B
100
AcDbEntity
  8
SUNPOU
100
AcDbLine
 10
13428.8420386213
 20
2609.739597635555
 30
0.0
 11
14708.84203862246
 21
2609.739597635555
 31
0.0
  0
LINE
  5
1D72D
330
1D26B
100
AcDbEntity
  8
SUNPOU
100
AcDbLine
 10
14768.84203862246
 20
3669.739597635554
 30
0.0
 11
15307.91679421776
 21
3669.739597635554
 31
0.0
  0
LINE
  5
1D72E
330
1D26B
100
AcDbEntity
  8
SUNPOU
100
AcDbLine
 10
14668.84203862246
 20
4419.739597635554
 30
0.0
 11
15307.91679421776
 21
4419.739597635554
 31
0.0
  0
LINE
  5
1D72F
330
1D26B
100
AcDbEntity
  8
SUNPOU
100
AcDbLine
 10
15247.91679421776
 20
3689.739597635554
 30
0.0
 11
15247.91679421776
 21
4399.739597635554
 31
0.0
  0
LINE
  5
1D730
330
1D26B
100
AcDbEntity
  8
SUNPOU
100
AcDbLine
 10
14768.84203862246
 20
3369.739597635554
 30
0.0
 11
15307.91679421776
 21
3369.739597635554
 31
0.0
  0
LINE
  5
1D731
330
1D26B
100
AcDbEntity
  8
SUNPOU
100
AcDbLine
 10
14768.84203862246
 20
3669.739597635554
 30
0.0
 11
15307.91679421776
 21
3669.739597635554
 31
0.0
  0
LINE
  5
1D732
330
1D26B
100
AcDbEntity
  8
SUNPOU
100
AcDbLine
 10
15247.91679421776
 20
3389.739597635554
 30
0.0
 11
15247.91679421776
 21
3649.739597635555
 31
0.0
  0
LINE
  5
1D733
330
1D26B
100
AcDbEntity
  8
SUNPOU
100
AcDbLine
 10
14768.84203862246
 20
3069.739597635555
 30
0.0
 11
15307.91679421776
 21
3069.739597635555
 31
0.0
  0
LINE
  5
1D734
330
1D26B
100
AcDbEntity
  8
SUNPOU
100
AcDbLine
 10
14768.84203862246
 20
3369.739597635554
 30
0.0
 11
15307.91679421776
 21
3369.739597635554
 31
0.0
  0
LINE
  5
1D735
330
1D26B
100
AcDbEntity
  8
SUNPOU
100
AcDbLine
 10
15247.91679421776
 20
3089.739597635555
 30
0.0
 11
15247.91679421776
 21
3349.739597635554
 31
0.0
  0
LINE
  5
1D736
330
1D26B
100
AcDbEntity
  8
SUNPOU
100
AcDbLine
 10
8139.771010768534
 20
2161.291251548639
 30
0.0
 11
8139.771010768534
 21
1581.291251548638
 31
0.0
  0
LINE
  5
1D737
330
1D26B
100
AcDbEntity
  8
SUNPOU
100
AcDbLine
 10
9839.771010768535
 20
2161.291251548639
 30
0.0
 11
9839.771010768535
 21
1581.291251548638
 31
0.0
  0
LINE
  5
1D738
330
1D26B
100
AcDbEntity
  8
SUNPOU
100
AcDbLine
 10
8159.771010768535
 20
1641.291251548637
 30
0.0
 11
9819.771010768532
 21
1641.291251548637
 31
0.0
  0
LINE
  5
1D739
330
1D26B
100
AcDbEntity
  8
SUNPOU
100
AcDbLine
 10
8039.771010768534
 20
1961.291251548638
 30
0.0
 11
8039.771010768534
 21
1301.291251548638
 31
0.0
  0
LINE
  5
1D73A
330
1D26B
100
AcDbEntity
  8
SUNPOU
100
AcDbLine
 10
9939.771010768534
 20
1961.291251548638
 30
0.0
 11
9939.771010768534
 21
1301.291251548638
 31
0.0
  0
LINE
  5
1D73B
330
1D26B
100
AcDbEntity
  8
SUNPOU
100
AcDbLine
 10
8059.771010768534
 20
1361.291251548638
 30
0.0
 11
9919.771010768535
 21
1361.291251548638
 31
0.0
  0
LINE
  5
1D73C
330
1D26B
100
AcDbEntity
  8
SUNPOU
100
AcDbLine
 10
10179.77101076853
 20
3201.291251548639
 30
0.0
 11
10564.52250454545
 21
3201.291251548639
 31
0.0
  0
LINE
  5
1D73D
330
1D26B
100
AcDbEntity
  8
SUNPOU
100
AcDbLine
 10
9114.771010768532
 20
4766.347603535439
 30
0.0
 11
10564.52250454545
 21
4766.347603535439
 31
0.0
  0
LINE
  5
1D73E
330
1D26B
100
AcDbEntity
  8
SUNPOU
100
AcDbLine
 10
10504.52250454545
 20
3221.29125154864
 30
0.0
 11
10504.52250454545
 21
4746.347603535439
 31
0.0
  0
LINE
  5
1D73F
330
1D26B
100
AcDbEntity
  8
SUNPOU
100
AcDbLine
 10
9114.771010768532
 20
4766.347603535439
 30
0.0
 11
10844.52250454545
 21
4766.347603535439
 31
0.0
  0
LINE
  5
1D740
330
1D26B
100
AcDbEntity
  8
SUNPOU
100
AcDbLine
 10
9979.771010768535
 20
2201.291251548639
 30
0.0
 11
10844.52250454545
 21
2201.291251548639
 31
0.0
  0
LINE
  5
1D741
330
1D26B
100
AcDbEntity
  8
SUNPOU
100
AcDbLine
 10
10784.52250454545
 20
4746.347603535439
 30
0.0
 11
10784.52250454545
 21
2221.291251548639
 31
0.0
  0
LINE
  5
1D742
330
1D26B
100
AcDbEntity
  8
SUNPOU
100
AcDbLine
 10
9979.771010768535
 20
2201.291251548639
 30
0.0
 11
10564.52250454545
 21
2201.291251548639
 31
0.0
  0
LINE
  5
1D743
330
1D26B
100
AcDbEntity
  8
SUNPOU
100
AcDbLine
 10
10179.77101076853
 20
3201.291251548639
 30
0.0
 11
10564.52250454545
 21
3201.291251548639
 31
0.0
  0
LINE
  5
1D744
330
1D26B
100
AcDbEntity
  8
SUNPOU
100
AcDbLine
 10
10504.52250454545
 20
2221.291251548639
 30
0.0
 11
10504.52250454545
 21
3181.29125154864
 31
0.0
  0
LINE
  5
1D745
330
1D26B
100
AcDbEntity
  8
SUNPOU
100
AcDbLine
 10
9979.771010768535
 20
2201.291251548639
 30
0.0
 11
10564.52250454545
 21
2201.291251548639
 31
0.0
  0
LINE
  5
1D746
330
1D26B
100
AcDbEntity
  8
SUNPOU
100
AcDbLine
 10
9979.771010768535
 20
2001.291251548638
 30
0.0
 11
10564.52250454545
 21
2001.291251548638
 31
0.0
  0
LINE
  5
1D747
330
1D26B
100
AcDbEntity
  8
SUNPOU
100
AcDbLine
 10
10504.52250454545
 20
2181.291251548639
 30
0.0
 11
10504.52250454545
 21
2021.291251548638
 31
0.0
  0
LINE
  5
1D748
330
1D26B
100
AcDbEntity
  8
SUNPOU
100
AcDbLine
 10
10504.52250454545
 20
2001.291251548638
 30
0.0
 11
10504.52250454545
 21
1667.005537262923
 31
0.0
  0
LINE
  5
1D749
330
1D26B
100
AcDbEntity
  8
SUNPOU
100
AcDbLine
 10
2618.007042992147
 20
2161.291251548639
 30
0.0
 11
2618.007042992147
 21
1581.291251548638
 31
0.0
  0
LINE
  5
1D74A
330
1D26B
100
AcDbEntity
  8
SUNPOU
100
AcDbLine
 10
4718.007042992147
 20
2161.291251548639
 30
0.0
 11
4718.007042992147
 21
1581.291251548638
 31
0.0
  0
LINE
  5
1D74B
330
1D26B
100
AcDbEntity
  8
SUNPOU
100
AcDbLine
 10
2638.007042992147
 20
1641.291251548637
 30
0.0
 11
4698.007042992147
 21
1641.291251548637
 31
0.0
  0
LINE
  5
1D74C
330
1D26B
100
AcDbEntity
  8
SUNPOU
100
AcDbLine
 10
2518.007042992147
 20
1961.291251548638
 30
0.0
 11
2518.007042992147
 21
1301.291251548638
 31
0.0
  0
LINE
  5
1D74D
330
1D26B
100
AcDbEntity
  8
SUNPOU
100
AcDbLine
 10
4818.007042992147
 20
1961.291251548638
 30
0.0
 11
4818.007042992147
 21
1301.291251548638
 31
0.0
  0
LINE
  5
1D74E
330
1D26B
100
AcDbEntity
  8
SUNPOU
100
AcDbLine
 10
2538.007042992147
 20
1361.291251548638
 30
0.0
 11
4798.007042992145
 21
1361.291251548638
 31
0.0
  0
LINE
  5
1D74F
330
1D26B
100
AcDbEntity
  8
SUNPOU
100
AcDbLine
 10
3793.007042992147
 20
4766.347603535439
 30
0.0
 11
5722.758536769063
 21
4766.347603535439
 31
0.0
  0
LINE
  5
1D750
330
1D26B
100
AcDbEntity
  8
SUNPOU
100
AcDbLine
 10
4858.007042992147
 20
2201.291251548639
 30
0.0
 11
5722.758536769063
 21
2201.291251548639
 31
0.0
  0
LINE
  5
1D751
330
1D26B
100
AcDbEntity
  8
SUNPOU
100
AcDbLine
 10
5662.758536769063
 20
4746.347603535439
 30
0.0
 11
5662.758536769063
 21
2221.291251548636
 31
0.0
  0
LINE
  5
1D752
330
1D26B
100
AcDbEntity
  8
SUNPOU
100
AcDbLine
 10
5058.007042992147
 20
3201.291251548639
 30
0.0
 11
5442.758536769062
 21
3201.291251548639
 31
0.0
  0
LINE
  5
1D753
330
1D26B
100
AcDbEntity
  8
SUNPOU
100
AcDbLine
 10
3793.007042992147
 20
4766.347603535439
 30
0.0
 11
5442.758536769062
 21
4766.347603535439
 31
0.0
  0
LINE
  5
1D754
330
1D26B
100
AcDbEntity
  8
SUNPOU
100
AcDbLine
 10
5382.758536769063
 20
3221.291251548638
 30
0.0
 11
5382.758536769063
 21
4746.347603535439
 31
0.0
  0
LINE
  5
1D755
330
1D26B
100
AcDbEntity
  8
SUNPOU
100
AcDbLine
 10
4858.007042992147
 20
2201.291251548639
 30
0.0
 11
5442.758536769062
 21
2201.291251548639
 31
0.0
  0
LINE
  5
1D756
330
1D26B
100
AcDbEntity
  8
SUNPOU
100
AcDbLine
 10
5058.007042992147
 20
3201.291251548639
 30
0.0
 11
5442.758536769062
 21
3201.291251548639
 31
0.0
  0
LINE
  5
1D757
330
1D26B
100
AcDbEntity
  8
SUNPOU
100
AcDbLine
 10
5382.758536769063
 20
2221.291251548636
 30
0.0
 11
5382.758536769063
 21
3181.291251548637
 31
0.0
  0
LINE
  5
1D758
330
1D26B
100
AcDbEntity
  8
SUNPOU
100
AcDbLine
 10
4858.007042992147
 20
2201.291251548639
 30
0.0
 11
5442.758536769064
 21
2201.291251548639
 31
0.0
  0
LINE
  5
1D759
330
1D26B
100
AcDbEntity
  8
SUNPOU
100
AcDbLine
 10
4858.007042992147
 20
2001.291251548638
 30
0.0
 11
5442.758536769062
 21
2001.291251548638
 31
0.0
  0
LINE
  5
1D75A
330
1D26B
100
AcDbEntity
  8
SUNPOU
100
AcDbLine
 10
5382.758536769063
 20
2181.291251548637
 30
0.0
 11
5382.758536769063
 21
2021.291251548638
 31
0.0
  0
LINE
  5
1D75B
330
1D26B
100
AcDbEntity
  8
SUNPOU
100
AcDbLine
 10
5382.758536769063
 20
2001.291251548638
 30
0.0
 11
5382.758536769063
 21
1667.005537262923
 31
0.0
  0
LINE
  5
1D75C
330
1D26B
100
AcDbEntity
  8
SUNPOU
100
AcDbLine
 10
11072.34656667793
 20
7677.248005016647
 30
0.0
 11
12272.34656667794
 21
7677.248005016647
 31
0.0
  0
LINE
  5
1D75D
330
1D26B
100
AcDbEntity
  8
SUNPOU
100
AcDbLine
 10
11072.34656667793
 20
10317.24800501665
 30
0.0
 11
12272.34656667794
 21
10317.24800501665
 31
0.0
  0
LINE
  5
1D75E
330
1D26B
100
AcDbEntity
  8
SUNPOU
100
AcDbLine
 10
12212.34656667794
 20
7697.248005016646
 30
0.0
 11
12212.34656667794
 21
10297.24800501665
 31
0.0
  0
LINE
  5
1D75F
330
1D26B
100
AcDbEntity
  8
SUNPOU
100
AcDbLine
 10
11708.34656667794
 20
10077.24800501665
 30
0.0
 11
11992.34656667794
 21
10077.24800501665
 31
0.0
  0
LINE
  5
1D760
330
1D26B
100
AcDbEntity
  8
SUNPOU
100
AcDbLine
 10
11072.34656667793
 20
10317.24800501665
 30
0.0
 11
11992.34656667794
 21
10317.24800501665
 31
0.0
  0
LINE
  5
1D761
330
1D26B
100
AcDbEntity
  8
SUNPOU
100
AcDbLine
 10
11932.34656667794
 20
10097.24800501665
 30
0.0
 11
11932.34656667794
 21
10297.24800501665
 31
0.0
  0
LINE
  5
1D762
330
1D26B
100
AcDbEntity
  8
SUNPOU
100
AcDbLine
 10
11932.34656667794
 20
10317.24800501665
 30
0.0
 11
11932.34656667794
 21
10662.96229073092
 31
0.0
  0
LINE
  5
1D763
330
1D26B
100
AcDbEntity
  8
SUNPOU
100
AcDbLine
 10
11708.34656667794
 20
8077.248005016647
 30
0.0
 11
11992.34656667794
 21
8077.248005016647
 31
0.0
  0
LINE
  5
1D764
330
1D26B
100
AcDbEntity
  8
SUNPOU
100
AcDbLine
 10
11708.34656667794
 20
10077.24800501665
 30
0.0
 11
11992.34656667794
 21
10077.24800501665
 31
0.0
  0
LINE
  5
1D765
330
1D26B
100
AcDbEntity
  8
SUNPOU
100
AcDbLine
 10
11932.34656667794
 20
8097.248005016648
 30
0.0
 11
11932.34656667794
 21
10057.24800501665
 31
0.0
  0
LINE
  5
1D766
330
1D26B
100
AcDbEntity
  8
SUNPOU
100
AcDbLine
 10
11072.34656667793
 20
7677.248005016647
 30
0.0
 11
11992.34656667794
 21
7677.248005016647
 31
0.0
  0
LINE
  5
1D767
330
1D26B
100
AcDbEntity
  8
SUNPOU
100
AcDbLine
 10
11708.34656667794
 20
8077.248005016647
 30
0.0
 11
11992.34656667794
 21
8077.248005016647
 31
0.0
  0
LINE
  5
1D768
330
1D26B
100
AcDbEntity
  8
SUNPOU
100
AcDbLine
 10
11932.34656667794
 20
7697.248005016646
 30
0.0
 11
11932.34656667794
 21
8057.248005016647
 31
0.0
  0
LINE
  5
1D769
330
1D26B
100
AcDbEntity
  8
SUNPOU
100
AcDbLine
 10
5543.346566677938
 20
7287.248005016646
 30
0.0
 11
5543.346566677938
 21
6867.248005016648
 31
0.0
  0
LINE
  5
1D76A
330
1D26B
100
AcDbEntity
  8
SUNPOU
100
AcDbLine
 10
5454.346566677937
 20
7637.248005016646
 30
0.0
 11
5454.346566677937
 21
6867.248005016648
 31
0.0
  0
LINE
  5
1D76B
330
1D26B
100
AcDbEntity
  8
SUNPOU
100
AcDbLine
 10
5563.346566677939
 20
6927.248005016649
 30
0.0
 11
5583.346566677938
 21
6927.248005016649
 31
0.0
  0
LINE
  5
1D76C
330
1D26B
100
AcDbEntity
  8
SUNPOU
100
AcDbLine
 10
5434.346566677938
 20
6927.248005016649
 30
0.0
 11
5168.632280963652
 21
6927.248005016649
 31
0.0
  0
LINE
  5
1D76D
330
1D26B
100
AcDbEntity
  8
SUNPOU
100
AcDbLine
 10
5543.346566677938
 20
6927.248005016649
 30
0.0
 11
5454.346566677937
 21
6927.248005016649
 31
0.0
  0
LINE
  5
1D76E
330
1D26B
100
AcDbEntity
  8
SUNPOU
100
AcDbLine
 10
10943.34656667794
 20
7287.248005016646
 30
0.0
 11
10943.34656667794
 21
6867.248005016648
 31
0.0
  0
LINE
  5
1D76F
330
1D26B
100
AcDbEntity
  8
SUNPOU
100
AcDbLine
 10
5543.346566677938
 20
7287.248005016646
 30
0.0
 11
5543.346566677938
 21
6867.248005016648
 31
0.0
  0
LINE
  5
1D770
330
1D26B
100
AcDbEntity
  8
SUNPOU
100
AcDbLine
 10
10923.34656667794
 20
6927.248005016649
 30
0.0
 11
5563.346566677939
 21
6927.248005016649
 31
0.0
  0
LINE
  5
1D771
330
1D26B
100
AcDbEntity
  8
SUNPOU
100
AcDbLine
 10
8243.34656667794
 20
10667.24800501664
 30
0.0
 11
8243.34656667794
 21
10837.24800501664
 31
0.0
  0
LINE
  5
1D772
330
1D26B
100
AcDbEntity
  8
SUNPOU
100
AcDbLine
 10
10943.34656667794
 20
10667.24800501664
 30
0.0
 11
10943.34656667794
 21
10837.24800501664
 31
0.0
  0
LINE
  5
1D773
330
1D26B
100
AcDbEntity
  8
SUNPOU
100
AcDbLine
 10
8263.346566677935
 20
10777.24800501664
 30
0.0
 11
10923.34656667794
 21
10777.24800501664
 31
0.0
  0
LINE
  5
1D774
330
1D26B
100
AcDbEntity
  8
SUNPOU
100
AcDbLine
 10
5543.346566677938
 20
10667.24800501664
 30
0.0
 11
5543.346566677938
 21
10837.24800501664
 31
0.0
  0
LINE
  5
1D775
330
1D26B
100
AcDbEntity
  8
SUNPOU
100
AcDbLine
 10
8243.34656667794
 20
10667.24800501664
 30
0.0
 11
8243.34656667794
 21
10837.24800501664
 31
0.0
  0
LINE
  5
1D776
330
1D26B
100
AcDbEntity
  8
SUNPOU
100
AcDbLine
 10
5563.346566677939
 20
10777.24800501664
 30
0.0
 11
8223.346566677937
 21
10777.24800501664
 31
0.0
  0
TEXT
  5
1D777
330
1D26B
100
AcDbEntity
  8
SUNPOU
100
AcDbText
 10
11120.91799524935
 20
6987.24800501665
 30
0.0
 40
120.0
  1
89
 41
0.6666666666666666
  7
00
100
AcDbText
  0
LINE
  5
1D778
330
1D26B
100
AcDbEntity
  8
SUNPOU
100
AcDbLine
 10
11047.34656667794
 20
6927.248005016649
 30
0.0
 11
11062.34656667794
 21
6927.248005016649
 31
0.0
  0
LINE
  5
1D779
330
1D26B
100
AcDbEntity
  8
SUNPOU
100
AcDbLine
 10
10928.34656667793
 20
6927.248005016649
 30
0.0
 11
10913.34656667793
 21
6927.248005016649
 31
0.0
  0
TEXT
  5
1D77A
330
1D26B
100
AcDbEntity
  8
SUNPOU
100
AcDbText
 10
8090.965614296987
 20
6707.248005016644
 30
0.0
 40
120.0
  1
5578
 41
0.6666666666666666
  7
00
100
AcDbText
  0
LINE
  5
1D77B
330
1D26B
100
AcDbEntity
  8
SUNPOU
100
AcDbLine
 10
11017.34656667793
 20
6647.248005016646
 30
0.0
 11
11002.34656667794
 21
6647.248005016646
 31
0.0
  0
LINE
  5
1D77C
330
1D26B
100
AcDbEntity
  8
SUNPOU
100
AcDbLine
 10
5469.346566677939
 20
6647.248005016646
 30
0.0
 11
5484.346566677936
 21
6647.248005016646
 31
0.0
  0
TEXT
  5
1D77D
330
1D26B
100
AcDbEntity
  8
SUNPOU
100
AcDbText
 10
14383.60394338438
 20
5842.911796040156
 30
0.0
 40
120.0
  1
62.5
 41
0.6666666666666666
  7
00
100
AcDbText
  0
LINE
  5
1D77E
330
1D26B
100
AcDbEntity
  8
SUNPOU
100
AcDbLine
 10
14303.84203862247
 20
5782.911796040156
 30
0.0
 11
14288.84203862246
 21
5782.911796040156
 31
0.0
  0
LINE
  5
1D77F
330
1D26B
100
AcDbEntity
  8
SUNPOU
100
AcDbLine
 10
14083.84203862246
 20
5782.911796040156
 30
0.0
 11
14098.84203862246
 21
5782.911796040156
 31
0.0
  0
TEXT
  5
1D780
330
1D26B
100
AcDbEntity
  8
SUNPOU
100
AcDbText
 10
13483.60394338438
 20
5842.911796040156
 30
0.0
 40
120.0
  1
62.5
 41
0.6666666666666666
  7
00
100
AcDbText
  0
LINE
  5
1D781
330
1D26B
100
AcDbEntity
  8
SUNPOU
100
AcDbLine
 10
13833.84203862247
 20
5782.911796040156
 30
0.0
 11
13848.84203862247
 21
5782.911796040156
 31
0.0
  0
LINE
  5
1D782
330
1D26B
100
AcDbEntity
  8
SUNPOU
100
AcDbLine
 10
14053.84203862247
 20
5782.911796040156
 30
0.0
 11
14038.84203862247
 21
5782.911796040156
 31
0.0
  0
TEXT
  5
1D783
330
1D26B
100
AcDbEntity
  8
SUNPOU
100
AcDbText
 10
13366.45858960529
 20
5452.03843063291
 30
0.0
 40
120.0
  1
45
 50
90.0
 41
0.6666666666666666
  7
00
100
AcDbText
  0
LINE
  5
1D784
330
1D26B
100
AcDbEntity
  8
SUNPOU
100
AcDbLine
 10
13426.45858960529
 20
5368.46700206148
 30
0.0
 11
13426.45858960529
 21
5353.46700206148
 31
0.0
  0
LINE
  5
1D785
330
1D26B
100
AcDbEntity
  8
SUNPOU
100
AcDbLine
 10
13426.45858960529
 20
5218.46700206148
 30
0.0
 11
13426.45858960529
 21
5233.46700206148
 31
0.0
  0
TEXT
  5
1D786
330
1D26B
100
AcDbEntity
  8
SUNPOU
100
AcDbText
 10
13366.45858960529
 20
4802.5146211091
 30
0.0
 40
120.0
  1
45
 50
90.0
 41
0.6666666666666666
  7
00
100
AcDbText
  0
LINE
  5
1D787
330
1D26B
100
AcDbEntity
  8
SUNPOU
100
AcDbLine
 10
13426.45858960529
 20
5038.46700206148
 30
0.0
 11
13426.45858960529
 21
5053.467002061481
 31
0.0
  0
LINE
  5
1D788
330
1D26B
100
AcDbEntity
  8
SUNPOU
100
AcDbLine
 10
13426.45858960529
 20
5188.46700206148
 30
0.0
 11
13426.45858960529
 21
5173.467002061481
 31
0.0
  0
TEXT
  5
1D789
330
1D26B
100
AcDbEntity
  8
SUNPOU
100
AcDbText
 10
13948.84203862247
 20
4765.617320595433
 30
0.0
 40
120.0
  1
180
 41
0.6666666666666666
  7
00
100
AcDbText
  0
LINE
  5
1D78A
330
1D26B
100
AcDbEntity
  8
SUNPOU
100
AcDbLine
 10
13723.84203862247
 20
4705.617320595433
 30
0.0
 11
13738.84203862247
 21
4705.617320595433
 31
0.0
  0
LINE
  5
1D78B
330
1D26B
100
AcDbEntity
  8
SUNPOU
100
AcDbLine
 10
14413.84203862246
 20
4705.617320595433
 30
0.0
 11
14398.84203862246
 21
4705.617320595433
 31
0.0
  0
TEXT
  5
1D78C
330
1D26B
100
AcDbEntity
  8
SUNPOU
100
AcDbText
 10
14772.76599491387
 20
5127.276525871006
 30
0.0
 40
120.0
  1
90
 50
90.0
 41
0.6666666666666666
  7
00
100
AcDbText
  0
LINE
  5
1D78D
330
1D26B
100
AcDbEntity
  8
SUNPOU
100
AcDbLine
 10
14832.76599491387
 20
5038.46700206148
 30
0.0
 11
14832.76599491387
 21
5053.467002061481
 31
0.0
  0
LINE
  5
1D78E
330
1D26B
100
AcDbEntity
  8
SUNPOU
100
AcDbLine
 10
14832.76599491387
 20
5368.46700206148
 30
0.0
 11
14832.76599491387
 21
5353.46700206148
 31
0.0
  0
TEXT
  5
1D78F
330
1D26B
100
AcDbEntity
  8
SUNPOU
100
AcDbText
 10
13922.55632433676
 20
2899.739597635555
 30
0.0
 40
120.0
  1
W1 □
 41
0.6666666666666666
  7
00
100
AcDbText
  0
LINE
  5
1D790
330
1D26B
100
AcDbEntity
  8
SUNPOU
100
AcDbLine
 10
14613.84203862246
 20
2839.739597635555
 30
0.0
 11
14598.84203862246
 21
2839.739597635555
 31
0.0
  0
LINE
  5
1D791
330
1D26B
100
AcDbEntity
  8
SUNPOU
100
AcDbLine
 10
13523.84203862247
 20
2839.739597635555
 30
0.0
 11
13538.84203862247
 21
2839.739597635555
 31
0.0
  0
TEXT
  5
1D792
330
1D26B
100
AcDbEntity
  8
SUNPOU
100
AcDbText
 10
13922.55632433617
 20
2669.739597635555
 30
0.0
 40
120.0
  1
W2 □
 41
0.6666666666666666
  7
00
100
AcDbText
  0
LINE
  5
1D793
330
1D26B
100
AcDbEntity
  8
SUNPOU
100
AcDbLine
 10
14713.84203862246
 20
2609.739597635555
 30
0.0
 11
14698.84203862246
 21
2609.739597635555
 31
0.0
  0
LINE
  5
1D794
330
1D26B
100
AcDbEntity
  8
SUNPOU
100
AcDbLine
 10
13423.8420386213
 20
2609.739597635555
 30
0.0
 11
13438.84203862131
 21
2609.739597635555
 31
0.0
  0
TEXT
  5
1D795
330
1D26B
100
AcDbEntity
  8
SUNPOU
100
AcDbText
 10
15187.91679421776
 20
3930.453883349843
 30
0.0
 40
120.0
  1
506
 50
90.0
 41
0.6666666666666666
  7
00
100
AcDbText
  0
LINE
  5
1D796
330
1D26B
100
AcDbEntity
  8
SUNPOU
100
AcDbLine
 10
15247.91679421776
 20
4404.739597635553
 30
0.0
 11
15247.91679421776
 21
4389.739597635553
 31
0.0
  0
LINE
  5
1D797
330
1D26B
100
AcDbEntity
  8
SUNPOU
100
AcDbLine
 10
15247.91679421776
 20
3684.739597635555
 30
0.0
 11
15247.91679421776
 21
3699.739597635554
 31
0.0
  0
TEXT
  5
1D798
330
1D26B
100
AcDbEntity
  8
SUNPOU
100
AcDbText
 10
15187.91679421776
 20
3399.739597635557
 30
0.0
 40
120.0
  1
100
 50
90.0
 41
0.6666666666666666
  7
00
100
AcDbText
  0
LINE
  5
1D799
330
1D26B
100
AcDbEntity
  8
SUNPOU
100
AcDbLine
 10
15247.91679421776
 20
3654.739597635554
 30
0.0
 11
15247.91679421776
 21
3639.739597635554
 31
0.0
  0
LINE
  5
1D79A
330
1D26B
100
AcDbEntity
  8
SUNPOU
100
AcDbLine
 10
15247.91679421776
 20
3384.739597635554
 30
0.0
 11
15247.91679421776
 21
3399.739597635555
 31
0.0
  0
TEXT
  5
1D79B
330
1D26B
100
AcDbEntity
  8
SUNPOU
100
AcDbText
 10
15187.91679421776
 20
3099.739597635557
 30
0.0
 40
120.0
  1
100
 50
90.0
 41
0.6666666666666666
  7
00
100
AcDbText
  0
LINE
  5
1D79C
330
1D26B
100
AcDbEntity
  8
SUNPOU
100
AcDbLine
 10
15247.91679421776
 20
3354.739597635554
 30
0.0
 11
15247.91679421776
 21
3339.739597635555
 31
0.0
  0
LINE
  5
1D79D
330
1D26B
100
AcDbEntity
  8
SUNPOU
100
AcDbLine
 10
15247.91679421776
 20
3084.739597635554
 30
0.0
 11
15247.91679421776
 21
3099.739597635554
 31
0.0
  0
TEXT
  5
1D79E
330
1D26B
100
AcDbEntity
  8
SUNPOU
100
AcDbText
 10
8811.104344101869
 20
1701.291251548638
 30
0.0
 40
120.0
  1
850 □
 41
0.6666666666666666
  7
00
100
AcDbText
  0
LINE
  5
1D79F
330
1D26B
100
AcDbEntity
  8
SUNPOU
100
AcDbLine
 10
9824.771010768536
 20
1641.291251548637
 30
0.0
 11
9809.771010768535
 21
1641.291251548637
 31
0.0
  0
LINE
  5
1D7A0
330
1D26B
100
AcDbEntity
  8
SUNPOU
100
AcDbLine
 10
8154.771010768534
 20
1641.291251548637
 30
0.0
 11
8169.771010768533
 21
1641.291251548637
 31
0.0
  0
TEXT
  5
1D7A1
330
1D26B
100
AcDbEntity
  8
SUNPOU
100
AcDbText
 10
8811.104344101869
 20
1421.291251548638
 30
0.0
 40
120.0
  1
950 □
 41
0.6666666666666666
  7
00
100
AcDbText
  0
LINE
  5
1D7A2
330
1D26B
100
AcDbEntity
  8
SUNPOU
100
AcDbLine
 10
9924.771010768537
 20
1361.291251548638
 30
0.0
 11
9909.771010768535
 21
1361.291251548638
 31
0.0
  0
LINE
  5
1D7A3
330
1D26B
100
AcDbEntity
  8
SUNPOU
100
AcDbLine
 10
8054.771010768535
 20
1361.291251548638
 30
0.0
 11
8069.771010768532
 21
1361.291251548638
 31
0.0
  0
TEXT
  5
1D7A4
330
1D26B
100
AcDbEntity
  8
SUNPOU
100
AcDbText
 10
10444.52250454545
 20
3823.819427542041
 30
0.0
 40
120.0
  1
1064
 50
90.0
 41
0.6666666666666666
  7
00
100
AcDbText
  0
LINE
  5
1D7A5
330
1D26B
100
AcDbEntity
  8
SUNPOU
100
AcDbLine
 10
10504.52250454545
 20
4751.347603535438
 30
0.0
 11
10504.52250454545
 21
4736.347603535437
 31
0.0
  0
LINE
  5
1D7A6
330
1D26B
100
AcDbEntity
  8
SUNPOU
100
AcDbLine
 10
10504.52250454545
 20
3216.291251548639
 30
0.0
 11
10504.52250454545
 21
3231.291251548638
 31
0.0
  0
TEXT
  5
1D7A7
330
1D26B
100
AcDbEntity
  8
SUNPOU
100
AcDbText
 10
10724.52250454545
 20
3323.819427542041
 30
0.0
 40
120.0
  1
1564
 50
90.0
 41
0.6666666666666666
  7
00
100
AcDbText
  0
LINE
  5
1D7A8
330
1D26B
100
AcDbEntity
  8
SUNPOU
100
AcDbLine
 10
10784.52250454545
 20
2216.291251548639
 30
0.0
 11
10784.52250454545
 21
2231.291251548639
 31
0.0
  0
LINE
  5
1D7A9
330
1D26B
100
AcDbEntity
  8
SUNPOU
100
AcDbLine
 10
10784.52250454545
 20
4751.347603535438
 30
0.0
 11
10784.52250454545
 21
4736.347603535437
 31
0.0
  0
TEXT
  5
1D7AA
330
1D26B
100
AcDbEntity
  8
SUNPOU
100
AcDbText
 10
10444.52250454545
 20
2587.005537262927
 30
0.0
 40
120.0
  1
500
 50
90.0
 41
0.6666666666666666
  7
00
100
AcDbText
  0
LINE
  5
1D7AB
330
1D26B
100
AcDbEntity
  8
SUNPOU
100
AcDbLine
 10
10504.52250454545
 20
3186.291251548639
 30
0.0
 11
10504.52250454545
 21
3171.291251548639
 31
0.0
  0
LINE
  5
1D7AC
330
1D26B
100
AcDbEntity
  8
SUNPOU
100
AcDbLine
 10
10504.52250454545
 20
2216.291251548639
 30
0.0
 11
10504.52250454545
 21
2231.291251548639
 31
0.0
  0
TEXT
  5
1D7AD
330
1D26B
100
AcDbEntity
  8
SUNPOU
100
AcDbText
 10
10444.52250454545
 20
1704.148394405781
 30
0.0
 40
120.0
  1
100
 50
90.0
 41
0.6666666666666666
  7
00
100
AcDbText
  0
LINE
  5
1D7AE
330
1D26B
100
AcDbEntity
  8
SUNPOU
100
AcDbLine
 10
10504.52250454545
 20
2016.291251548638
 30
0.0
 11
10504.52250454545
 21
2031.291251548638
 31
0.0
  0
LINE
  5
1D7AF
330
1D26B
100
AcDbEntity
  8
SUNPOU
100
AcDbLine
 10
10504.52250454545
 20
2186.291251548639
 30
0.0
 11
10504.52250454545
 21
2171.291251548639
 31
0.0
  0
TEXT
  5
1D7B0
330
1D26B
100
AcDbEntity
  8
SUNPOU
100
AcDbText
 10
3445.530852515958
 20
1701.291251548638
 30
0.0
 40
120.0
  1
1050 □
 41
0.6666666666666666
  7
00
100
AcDbText
  0
LINE
  5
1D7B1
330
1D26B
100
AcDbEntity
  8
SUNPOU
100
AcDbLine
 10
4703.007042992147
 20
1641.291251548637
 30
0.0
 11
4688.007042992147
 21
1641.291251548637
 31
0.0
  0
LINE
  5
1D7B2
330
1D26B
100
AcDbEntity
  8
SUNPOU
100
AcDbLine
 10
2633.007042992147
 20
1641.291251548637
 30
0.0
 11
2648.007042992147
 21
1641.291251548637
 31
0.0
  0
TEXT
  5
1D7B3
330
1D26B
100
AcDbEntity
  8
SUNPOU
100
AcDbText
 10
3445.530852515958
 20
1421.291251548638
 30
0.0
 40
120.0
  1
1150 □
 41
0.6666666666666666
  7
00
100
AcDbText
  0
LINE
  5
1D7B4
330
1D26B
100
AcDbEntity
  8
SUNPOU
100
AcDbLine
 10
4803.007042992147
 20
1361.291251548638
 30
0.0
 11
4788.007042992147
 21
1361.291251548638
 31
0.0
  0
LINE
  5
1D7B5
330
1D26B
100
AcDbEntity
  8
SUNPOU
100
AcDbLine
 10
2533.007042992147
 20
1361.291251548638
 30
0.0
 11
2548.007042992147
 21
1361.291251548638
 31
0.0
  0
TEXT
  5
1D7B6
330
1D26B
100
AcDbEntity
  8
SUNPOU
100
AcDbText
 10
5602.758536769062
 20
2800.77180849442
 30
0.0
 40
120.0
  1
前柱：2865    後柱：2795
 50
90.0
 41
0.6666666666666666
  7
00
100
AcDbText
  0
LINE
  5
1D7B7
330
1D26B
100
AcDbEntity
  8
SUNPOU
100
AcDbLine
 10
5662.758536769063
 20
2216.291251548637
 30
0.0
 11
5662.758536769063
 21
2231.291251548637
 31
0.0
  0
LINE
  5
1D7B8
330
1D26B
100
AcDbEntity
  8
SUNPOU
100
AcDbLine
 10
5662.758536769063
 20
4751.34760353544
 30
0.0
 11
5662.758536769063
 21
4736.347603535437
 31
0.0
  0
TEXT
  5
1D7B9
330
1D26B
100
AcDbEntity
  8
SUNPOU
100
AcDbText
 10
5122.758536769062
 20
3693.152760875373
 30
0.0
 40
120.0
  1
前柱：2365
 50
90.0
 41
0.6666666666666666
  7
00
100
AcDbText
  0
TEXT
  5
1D7BA
330
1D26B
100
AcDbEntity
  8
SUNPOU
100
AcDbText
 10
5322.758536769061
 20
3693.152760875373
 30
0.0
 40
120.0
  1
後柱：2295
 50
90.0
 41
0.6666666666666666
  7
00
100
AcDbText
  0
LINE
  5
1D7BB
330
1D26B
100
AcDbEntity
  8
SUNPOU
100
AcDbLine
 10
5382.758536769063
 20
4751.34760353544
 30
0.0
 11
5382.758536769063
 21
4736.347603535437
 31
0.0
  0
LINE
  5
1D7BC
330
1D26B
100
AcDbEntity
  8
SUNPOU
100
AcDbLine
 10
5382.758536769063
 20
3216.291251548637
 30
0.0
 11
5382.758536769063
 21
3231.291251548638
 31
0.0
  0
TEXT
  5
1D7BD
330
1D26B
100
AcDbEntity
  8
SUNPOU
100
AcDbText
 10
5322.758536769061
 20
2587.005537262925
 30
0.0
 40
120.0
  1
500
 50
90.0
 41
0.6666666666666666
  7
00
100
AcDbText
  0
LINE
  5
1D7BE
330
1D26B
100
AcDbEntity
  8
SUNPOU
100
AcDbLine
 10
5382.758536769063
 20
3186.291251548639
 30
0.0
 11
5382.758536769063
 21
3171.291251548638
 31
0.0
  0
LINE
  5
1D7BF
330
1D26B
100
AcDbEntity
  8
SUNPOU
100
AcDbLine
 10
5382.758536769063
 20
2216.291251548637
 30
0.0
 11
5382.758536769063
 21
2231.291251548637
 31
0.0
  0
TEXT
  5
1D7C0
330
1D26B
100
AcDbEntity
  8
SUNPOU
100
AcDbText
 10
5322.758536769064
 20
1704.148394405781
 30
0.0
 40
120.0
  1
100
 50
90.0
 41
0.6666666666666666
  7
00
100
AcDbText
  0
LINE
  5
1D7C1
330
1D26B
100
AcDbEntity
  8
SUNPOU
100
AcDbLine
 10
5382.758536769063
 20
2016.291251548638
 30
0.0
 11
5382.758536769063
 21
2031.291251548638
 31
0.0
  0
LINE
  5
1D7C2
330
1D26B
100
AcDbEntity
  8
SUNPOU
100
AcDbLine
 10
5382.758536769063
 20
2186.291251548637
 30
0.0
 11
5382.758536769063
 21
2171.291251548637
 31
0.0
  0
TEXT
  5
1D7C3
330
1D26B
100
AcDbEntity
  8
SUNPOU
100
AcDbText
 10
12152.34656667793
 20
8844.867052635697
 30
0.0
 40
120.0
  1
2640
 50
90.0
 41
0.6666666666666666
  7
00
100
AcDbText
  0
LINE
  5
1D7C4
330
1D26B
100
AcDbEntity
  8
SUNPOU
100
AcDbLine
 10
12212.34656667794
 20
10302.24800501665
 30
0.0
 11
12212.34656667794
 21
10287.24800501665
 31
0.0
  0
LINE
  5
1D7C5
330
1D26B
100
AcDbEntity
  8
SUNPOU
100
AcDbLine
 10
12212.34656667794
 20
7692.248005016645
 30
0.0
 11
12212.34656667794
 21
7707.248005016646
 31
0.0
  0
TEXT
  5
1D7C6
330
1D26B
100
AcDbEntity
  8
SUNPOU
100
AcDbText
 10
11872.34656667793
 20
10385.81943358807
 30
0.0
 40
120.0
  1
240
 50
90.0
 41
0.6666666666666666
  7
00
100
AcDbText
  0
LINE
  5
1D7C7
330
1D26B
100
AcDbEntity
  8
SUNPOU
100
AcDbLine
 10
11932.34656667794
 20
10302.24800501665
 30
0.0
 11
11932.34656667794
 21
10287.24800501665
 31
0.0
  0
LINE
  5
1D7C8
330
1D26B
100
AcDbEntity
  8
SUNPOU
100
AcDbLine
 10
11932.34656667794
 20
10092.24800501665
 30
0.0
 11
11932.34656667794
 21
10107.24800501665
 31
0.0
  0
TEXT
  5
1D7C9
330
1D26B
100
AcDbEntity
  8
SUNPOU
100
AcDbText
 10
11872.34656667793
 20
8924.867052635699
 30
0.0
 40
120.0
  1
2000
 50
90.0
 41
0.6666666666666666
  7
00
100
AcDbText
  0
LINE
  5
1D7CA
330
1D26B
100
AcDbEntity
  8
SUNPOU
100
AcDbLine
 10
11932.34656667794
 20
10062.24800501665
 30
0.0
 11
11932.34656667794
 21
10047.24800501665
 31
0.0
  0
LINE
  5
1D7CB
330
1D26B
100
AcDbEntity
  8
SUNPOU
100
AcDbLine
 10
11932.34656667794
 20
8092.248005016646
 30
0.0
 11
11932.34656667794
 21
8107.248005016646
 31
0.0
  0
TEXT
  5
1D7CC
330
1D26B
100
AcDbEntity
  8
SUNPOU
100
AcDbText
 10
11872.34656667793
 20
7762.962290730934
 30
0.0
 40
120.0
  1
400
 50
90.0
 41
0.6666666666666666
  7
00
100
AcDbText
  0
LINE
  5
1D7CD
330
1D26B
100
AcDbEntity
  8
SUNPOU
100
AcDbLine
 10
11932.34656667794
 20
8062.248005016646
 30
0.0
 11
11932.34656667794
 21
8047.248005016646
 31
0.0
  0
LINE
  5
1D7CE
330
1D26B
100
AcDbEntity
  8
SUNPOU
100
AcDbLine
 10
11932.34656667794
 20
7692.248005016645
 30
0.0
 11
11932.34656667794
 21
7707.248005016646
 31
0.0
  0
TEXT
  5
1D7CF
330
1D26B
100
AcDbEntity
  8
SUNPOU
100
AcDbText
 10
5217.20370953508
 20
6987.24800501665
 30
0.0
 40
120.0
  1
89
 41
0.6666666666666666
  7
00
100
AcDbText
  0
LINE
  5
1D7D0
330
1D26B
100
AcDbEntity
  8
SUNPOU
100
AcDbLine
 10
5439.346566677937
 20
6927.248005016649
 30
0.0
 11
5424.346566677939
 21
6927.248005016649
 31
0.0
  0
LINE
  5
1D7D1
330
1D26B
100
AcDbEntity
  8
SUNPOU
100
AcDbLine
 10
5558.346566677936
 20
6927.248005016649
 30
0.0
 11
5573.346566677937
 21
6927.248005016649
 31
0.0
  0
TEXT
  5
1D7D2
330
1D26B
100
AcDbEntity
  8
SUNPOU
100
AcDbText
 10
8090.965614296987
 20
6987.24800501665
 30
0.0
 40
120.0
  1
5400
 41
0.6666666666666666
  7
00
100
AcDbText
  0
LINE
  5
1D7D3
330
1D26B
100
AcDbEntity
  8
SUNPOU
100
AcDbLine
 10
5558.346566677936
 20
6927.248005016649
 30
0.0
 11
5573.346566677937
 21
6927.248005016649
 31
0.0
  0
LINE
  5
1D7D4
330
1D26B
100
AcDbEntity
  8
SUNPOU
100
AcDbLine
 10
10928.34656667793
 20
6927.248005016649
 30
0.0
 11
10913.34656667793
 21
6927.248005016649
 31
0.0
  0
TEXT
  5
1D7D5
330
1D26B
100
AcDbEntity
  8
SUNPOU
100
AcDbText
 10
9440.965614296983
 20
10837.24800501664
 30
0.0
 40
120.0
  1
2700
 41
0.6666666666666666
  7
00
100
AcDbText
  0
LINE
  5
1D7D6
330
1D26B
100
AcDbEntity
  8
SUNPOU
100
AcDbLine
 10
10928.34656667793
 20
10777.24800501664
 30
0.0
 11
10913.34656667793
 21
10777.24800501664
 31
0.0
  0
LINE
  5
1D7D7
330
1D26B
100
AcDbEntity
  8
SUNPOU
100
AcDbLine
 10
8258.346566677937
 20
10777.24800501664
 30
0.0
 11
8273.346566677938
 21
10777.24800501664
 31
0.0
  0
TEXT
  5
1D7D8
330
1D26B
100
AcDbEntity
  8
SUNPOU
100
AcDbText
 10
6740.965614296985
 20
10837.24800501664
 30
0.0
 40
120.0
  1
2700
 41
0.6666666666666666
  7
00
100
AcDbText
  0
LINE
  5
1D7D9
330
1D26B
100
AcDbEntity
  8
SUNPOU
100
AcDbLine
 10
8228.346566677938
 20
10777.24800501664
 30
0.0
 11
8213.346566677937
 21
10777.24800501664
 31
0.0
  0
LINE
  5
1D7DA
330
1D26B
100
AcDbEntity
  8
SUNPOU
100
AcDbLine
 10
5558.346566677936
 20
10777.24800501664
 30
0.0
 11
5573.346566677937
 21
10777.24800501664
 31
0.0
  0
ARC
  5
1D7DB
330
1D26B
100
AcDbEntity
  8
SUNPOU
100
AcDbCircle
 10
11032.34656667793
 20
6927.248005016649
 30
0.0
 40
7.5
100
AcDbArc
 50
0.0
 51
180.0
  0
ARC
  5
1D7DC
330
1D26B
100
AcDbEntity
  8
SUNPOU
100
AcDbCircle
 10
11032.34656667793
 20
6927.248005016649
 30
0.0
 40
7.5
100
AcDbArc
 50
180.0
 51
0.0
  0
ARC
  5
1D7DD
330
1D26B
100
AcDbEntity
  8
SUNPOU
100
AcDbCircle
 10
10943.34656667794
 20
6927.248005016649
 30
0.0
 40
7.5
100
AcDbArc
 50
180.0
 51
0.0
  0
ARC
  5
1D7DE
330
1D26B
100
AcDbEntity
  8
SUNPOU
100
AcDbCircle
 10
10943.34656667794
 20
6927.248005016649
 30
0.0
 40
7.5
100
AcDbArc
 50
0.0
 51
180.0
  0
ARC
  5
1D7DF
330
1D26B
100
AcDbEntity
  8
SUNPOU
100
AcDbCircle
 10
11032.34656667793
 20
6647.248005016646
 30
0.0
 40
7.5
100
AcDbArc
 50
180.0
 51
0.0
  0
ARC
  5
1D7E0
330
1D26B
100
AcDbEntity
  8
SUNPOU
100
AcDbCircle
 10
11032.34656667793
 20
6647.248005016646
 30
0.0
 40
7.5
100
AcDbArc
 50
0.0
 51
180.0
  0
ARC
  5
1D7E1
330
1D26B
100
AcDbEntity
  8
SUNPOU
100
AcDbCircle
 10
5454.346566677937
 20
6647.248005016646
 30
0.0
 40
7.5
100
AcDbArc
 50
0.0
 51
180.0
  0
ARC
  5
1D7E2
330
1D26B
100
AcDbEntity
  8
SUNPOU
100
AcDbCircle
 10
5454.346566677937
 20
6647.248005016646
 30
0.0
 40
7.5
100
AcDbArc
 50
180.0
 51
0.0
  0
ARC
  5
1D7E3
330
1D26B
100
AcDbEntity
  8
SUNPOU
100
AcDbCircle
 10
14318.84203862246
 20
5782.911796040156
 30
0.0
 40
7.5
100
AcDbArc
 50
180.0
 51
0.0
  0
ARC
  5
1D7E4
330
1D26B
100
AcDbEntity
  8
SUNPOU
100
AcDbCircle
 10
14318.84203862246
 20
5782.911796040156
 30
0.0
 40
7.5
100
AcDbArc
 50
0.0
 51
180.0
  0
ARC
  5
1D7E5
330
1D26B
100
AcDbEntity
  8
SUNPOU
100
AcDbCircle
 10
14068.84203862247
 20
5782.911796040156
 30
0.0
 40
7.5
100
AcDbArc
 50
0.0
 51
180.0
  0
ARC
  5
1D7E6
330
1D26B
100
AcDbEntity
  8
SUNPOU
100
AcDbCircle
 10
14068.84203862247
 20
5782.911796040156
 30
0.0
 40
7.5
100
AcDbArc
 50
180.0
 51
0.0
  0
ARC
  5
1D7E7
330
1D26B
100
AcDbEntity
  8
SUNPOU
100
AcDbCircle
 10
13818.84203862247
 20
5782.911796040156
 30
0.0
 40
7.5
100
AcDbArc
 50
0.0
 51
180.0
  0
ARC
  5
1D7E8
330
1D26B
100
AcDbEntity
  8
SUNPOU
100
AcDbCircle
 10
13818.84203862247
 20
5782.911796040156
 30
0.0
 40
7.5
100
AcDbArc
 50
180.0
 51
0.0
  0
ARC
  5
1D7E9
330
1D26B
100
AcDbEntity
  8
SUNPOU
100
AcDbCircle
 10
14068.84203862247
 20
5782.911796040156
 30
0.0
 40
7.5
100
AcDbArc
 50
180.0
 51
0.0
  0
ARC
  5
1D7EA
330
1D26B
100
AcDbEntity
  8
SUNPOU
100
AcDbCircle
 10
14068.84203862247
 20
5782.911796040156
 30
0.0
 40
7.5
100
AcDbArc
 50
0.0
 51
180.0
  0
ARC
  5
1D7EB
330
1D26B
100
AcDbEntity
  8
SUNPOU
100
AcDbCircle
 10
13426.45858960529
 20
5383.46700206148
 30
0.0
 40
7.5
100
AcDbArc
 50
270.0
 51
90.0
  0
ARC
  5
1D7EC
330
1D26B
100
AcDbEntity
  8
SUNPOU
100
AcDbCircle
 10
13426.45858960529
 20
5383.46700206148
 30
0.0
 40
7.5
100
AcDbArc
 50
90.0
 51
270.0
  0
ARC
  5
1D7ED
330
1D26B
100
AcDbEntity
  8
SUNPOU
100
AcDbCircle
 10
13426.45858960529
 20
5203.46700206148
 30
0.0
 40
7.5
100
AcDbArc
 50
90.0
 51
270.0
  0
ARC
  5
1D7EE
330
1D26B
100
AcDbEntity
  8
SUNPOU
100
AcDbCircle
 10
13426.45858960529
 20
5203.46700206148
 30
0.0
 40
7.5
100
AcDbArc
 50
270.0
 51
90.0
  0
ARC
  5
1D7EF
330
1D26B
100
AcDbEntity
  8
SUNPOU
100
AcDbCircle
 10
13426.45858960529
 20
5023.46700206148
 30
0.0
 40
7.5
100
AcDbArc
 50
90.0
 51
270.0
  0
ARC
  5
1D7F0
330
1D26B
100
AcDbEntity
  8
SUNPOU
100
AcDbCircle
 10
13426.45858960529
 20
5023.46700206148
 30
0.0
 40
7.5
100
AcDbArc
 50
270.0
 51
90.0
  0
ARC
  5
1D7F1
330
1D26B
100
AcDbEntity
  8
SUNPOU
100
AcDbCircle
 10
13426.45858960529
 20
5203.46700206148
 30
0.0
 40
7.5
100
AcDbArc
 50
270.0
 51
90.0
  0
ARC
  5
1D7F2
330
1D26B
100
AcDbEntity
  8
SUNPOU
100
AcDbCircle
 10
13426.45858960529
 20
5203.46700206148
 30
0.0
 40
7.5
100
AcDbArc
 50
90.0
 51
270.0
  0
ARC
  5
1D7F3
330
1D26B
100
AcDbEntity
  8
SUNPOU
100
AcDbCircle
 10
13708.84203862247
 20
4705.617320595433
 30
0.0
 40
7.5
100
AcDbArc
 50
0.0
 51
180.0
  0
ARC
  5
1D7F4
330
1D26B
100
AcDbEntity
  8
SUNPOU
100
AcDbCircle
 10
13708.84203862247
 20
4705.617320595433
 30
0.0
 40
7.5
100
AcDbArc
 50
180.0
 51
0.0
  0
ARC
  5
1D7F5
330
1D26B
100
AcDbEntity
  8
SUNPOU
100
AcDbCircle
 10
14428.84203862246
 20
4705.617320595433
 30
0.0
 40
7.5
100
AcDbArc
 50
180.0
 51
0.0
  0
ARC
  5
1D7F6
330
1D26B
100
AcDbEntity
  8
SUNPOU
100
AcDbCircle
 10
14428.84203862246
 20
4705.617320595433
 30
0.0
 40
7.5
100
AcDbArc
 50
0.0
 51
180.0
  0
ARC
  5
1D7F7
330
1D26B
100
AcDbEntity
  8
SUNPOU
100
AcDbCircle
 10
14832.76599491387
 20
5023.46700206148
 30
0.0
 40
7.5
100
AcDbArc
 50
90.0
 51
270.0
  0
ARC
  5
1D7F8
330
1D26B
100
AcDbEntity
  8
SUNPOU
100
AcDbCircle
 10
14832.76599491387
 20
5023.46700206148
 30
0.0
 40
7.5
100
AcDbArc
 50
270.0
 51
90.0
  0
ARC
  5
1D7F9
330
1D26B
100
AcDbEntity
  8
SUNPOU
100
AcDbCircle
 10
14832.76599491387
 20
5383.46700206148
 30
0.0
 40
7.5
100
AcDbArc
 50
270.0
 51
90.0
  0
ARC
  5
1D7FA
330
1D26B
100
AcDbEntity
  8
SUNPOU
100
AcDbCircle
 10
14832.76599491387
 20
5383.46700206148
 30
0.0
 40
7.5
100
AcDbArc
 50
90.0
 51
270.0
  0
ARC
  5
1D7FB
330
1D26B
100
AcDbEntity
  8
SUNPOU
100
AcDbCircle
 10
14628.84203862246
 20
2839.739597635555
 30
0.0
 40
7.5
100
AcDbArc
 50
180.0
 51
0.0
  0
ARC
  5
1D7FC
330
1D26B
100
AcDbEntity
  8
SUNPOU
100
AcDbCircle
 10
14628.84203862246
 20
2839.739597635555
 30
0.0
 40
7.5
100
AcDbArc
 50
0.0
 51
180.0
  0
ARC
  5
1D7FD
330
1D26B
100
AcDbEntity
  8
SUNPOU
100
AcDbCircle
 10
13508.84203862247
 20
2839.739597635555
 30
0.0
 40
7.5
100
AcDbArc
 50
0.0
 51
180.0
  0
ARC
  5
1D7FE
330
1D26B
100
AcDbEntity
  8
SUNPOU
100
AcDbCircle
 10
13508.84203862247
 20
2839.739597635555
 30
0.0
 40
7.5
100
AcDbArc
 50
180.0
 51
0.0
  0
ARC
  5
1D7FF
330
1D26B
100
AcDbEntity
  8
SUNPOU
100
AcDbCircle
 10
14728.84203862246
 20
2609.739597635555
 30
0.0
 40
7.5
100
AcDbArc
 50
180.0
 51
0.0
  0
ARC
  5
1D800
330
1D26B
100
AcDbEntity
  8
SUNPOU
100
AcDbCircle
 10
14728.84203862246
 20
2609.739597635555
 30
0.0
 40
7.5
100
AcDbArc
 50
0.0
 51
180.0
  0
ARC
  5
1D801
330
1D26B
100
AcDbEntity
  8
SUNPOU
100
AcDbCircle
 10
13408.8420386213
 20
2609.739597635555
 30
0.0
 40
7.5
100
AcDbArc
 50
0.0
 51
180.0
  0
ARC
  5
1D802
330
1D26B
100
AcDbEntity
  8
SUNPOU
100
AcDbCircle
 10
13408.8420386213
 20
2609.739597635555
 30
0.0
 40
7.5
100
AcDbArc
 50
180.0
 51
0.0
  0
ARC
  5
1D803
330
1D26B
100
AcDbEntity
  8
SUNPOU
100
AcDbCircle
 10
15247.91679421776
 20
4419.739597635554
 30
0.0
 40
7.5
100
AcDbArc
 50
270.0
 51
90.0
  0
ARC
  5
1D804
330
1D26B
100
AcDbEntity
  8
SUNPOU
100
AcDbCircle
 10
15247.91679421776
 20
4419.739597635554
 30
0.0
 40
7.5
100
AcDbArc
 50
90.0
 51
270.0
  0
ARC
  5
1D805
330
1D26B
100
AcDbEntity
  8
SUNPOU
100
AcDbCircle
 10
15247.91679421776
 20
3669.739597635554
 30
0.0
 40
7.5
100
AcDbArc
 50
90.0
 51
270.0
  0
ARC
  5
1D806
330
1D26B
100
AcDbEntity
  8
SUNPOU
100
AcDbCircle
 10
15247.91679421776
 20
3669.739597635554
 30
0.0
 40
7.5
100
AcDbArc
 50
270.0
 51
90.0
  0
ARC
  5
1D807
330
1D26B
100
AcDbEntity
  8
SUNPOU
100
AcDbCircle
 10
15247.91679421776
 20
3669.739597635554
 30
0.0
 40
7.5
100
AcDbArc
 50
270.0
 51
90.0
  0
ARC
  5
1D808
330
1D26B
100
AcDbEntity
  8
SUNPOU
100
AcDbCircle
 10
15247.91679421776
 20
3669.739597635554
 30
0.0
 40
7.5
100
AcDbArc
 50
90.0
 51
270.0
  0
ARC
  5
1D809
330
1D26B
100
AcDbEntity
  8
SUNPOU
100
AcDbCircle
 10
15247.91679421776
 20
3369.739597635554
 30
0.0
 40
7.5
100
AcDbArc
 50
90.0
 51
270.0
  0
ARC
  5
1D80A
330
1D26B
100
AcDbEntity
  8
SUNPOU
100
AcDbCircle
 10
15247.91679421776
 20
3369.739597635554
 30
0.0
 40
7.5
100
AcDbArc
 50
270.0
 51
90.0
  0
ARC
  5
1D80B
330
1D26B
100
AcDbEntity
  8
SUNPOU
100
AcDbCircle
 10
15247.91679421776
 20
3369.739597635554
 30
0.0
 40
7.5
100
AcDbArc
 50
270.0
 51
90.0
  0
ARC
  5
1D80C
330
1D26B
100
AcDbEntity
  8
SUNPOU
100
AcDbCircle
 10
15247.91679421776
 20
3369.739597635554
 30
0.0
 40
7.5
100
AcDbArc
 50
90.0
 51
270.0
  0
ARC
  5
1D80D
330
1D26B
100
AcDbEntity
  8
SUNPOU
100
AcDbCircle
 10
15247.91679421776
 20
3069.739597635555
 30
0.0
 40
7.5
100
AcDbArc
 50
90.0
 51
270.0
  0
ARC
  5
1D80E
330
1D26B
100
AcDbEntity
  8
SUNPOU
100
AcDbCircle
 10
15247.91679421776
 20
3069.739597635555
 30
0.0
 40
7.5
100
AcDbArc
 50
270.0
 51
90.0
  0
ARC
  5
1D80F
330
1D26B
100
AcDbEntity
  8
SUNPOU
100
AcDbCircle
 10
9839.771010768535
 20
1641.291251548637
 30
0.0
 40
7.5
100
AcDbArc
 50
180.0
 51
0.0
  0
ARC
  5
1D810
330
1D26B
100
AcDbEntity
  8
SUNPOU
100
AcDbCircle
 10
9839.771010768535
 20
1641.291251548637
 30
0.0
 40
7.5
100
AcDbArc
 50
0.0
 51
180.0
  0
ARC
  5
1D811
330
1D26B
100
AcDbEntity
  8
SUNPOU
100
AcDbCircle
 10
8139.771010768534
 20
1641.291251548637
 30
0.0
 40
7.5
100
AcDbArc
 50
0.0
 51
180.0
  0
ARC
  5
1D812
330
1D26B
100
AcDbEntity
  8
SUNPOU
100
AcDbCircle
 10
8139.771010768534
 20
1641.291251548637
 30
0.0
 40
7.5
100
AcDbArc
 50
180.0
 51
0.0
  0
ARC
  5
1D813
330
1D26B
100
AcDbEntity
  8
SUNPOU
100
AcDbCircle
 10
9939.771010768534
 20
1361.291251548638
 30
0.0
 40
7.5
100
AcDbArc
 50
180.0
 51
0.0
  0
ARC
  5
1D814
330
1D26B
100
AcDbEntity
  8
SUNPOU
100
AcDbCircle
 10
9939.771010768534
 20
1361.291251548638
 30
0.0
 40
7.5
100
AcDbArc
 50
0.0
 51
180.0
  0
ARC
  5
1D815
330
1D26B
100
AcDbEntity
  8
SUNPOU
100
AcDbCircle
 10
8039.771010768534
 20
1361.291251548638
 30
0.0
 40
7.5
100
AcDbArc
 50
0.0
 51
180.0
  0
ARC
  5
1D816
330
1D26B
100
AcDbEntity
  8
SUNPOU
100
AcDbCircle
 10
8039.771010768534
 20
1361.291251548638
 30
0.0
 40
7.5
100
AcDbArc
 50
180.0
 51
0.0
  0
ARC
  5
1D817
330
1D26B
100
AcDbEntity
  8
SUNPOU
100
AcDbCircle
 10
10504.52250454545
 20
4766.347603535439
 30
0.0
 40
7.5
100
AcDbArc
 50
270.0
 51
90.0
  0
ARC
  5
1D818
330
1D26B
100
AcDbEntity
  8
SUNPOU
100
AcDbCircle
 10
10504.52250454545
 20
4766.347603535439
 30
0.0
 40
7.5
100
AcDbArc
 50
90.0
 51
270.0
  0
ARC
  5
1D819
330
1D26B
100
AcDbEntity
  8
SUNPOU
100
AcDbCircle
 10
10504.52250454545
 20
3201.291251548639
 30
0.0
 40
7.5
100
AcDbArc
 50
90.0
 51
270.0
  0
ARC
  5
1D81A
330
1D26B
100
AcDbEntity
  8
SUNPOU
100
AcDbCircle
 10
10504.52250454545
 20
3201.291251548639
 30
0.0
 40
7.5
100
AcDbArc
 50
270.0
 51
90.0
  0
ARC
  5
1D81B
330
1D26B
100
AcDbEntity
  8
SUNPOU
100
AcDbCircle
 10
10784.52250454545
 20
2201.291251548639
 30
0.0
 40
7.5
100
AcDbArc
 50
90.0
 51
270.0
  0
ARC
  5
1D81C
330
1D26B
100
AcDbEntity
  8
SUNPOU
100
AcDbCircle
 10
10784.52250454545
 20
2201.291251548639
 30
0.0
 40
7.5
100
AcDbArc
 50
270.0
 51
90.0
  0
ARC
  5
1D81D
330
1D26B
100
AcDbEntity
  8
SUNPOU
100
AcDbCircle
 10
10784.52250454545
 20
4766.347603535439
 30
0.0
 40
7.5
100
AcDbArc
 50
270.0
 51
90.0
  0
ARC
  5
1D81E
330
1D26B
100
AcDbEntity
  8
SUNPOU
100
AcDbCircle
 10
10784.52250454545
 20
4766.347603535439
 30
0.0
 40
7.5
100
AcDbArc
 50
90.0
 51
270.0
  0
ARC
  5
1D81F
330
1D26B
100
AcDbEntity
  8
SUNPOU
100
AcDbCircle
 10
10504.52250454545
 20
3201.291251548639
 30
0.0
 40
7.5
100
AcDbArc
 50
270.0
 51
90.0
  0
ARC
  5
1D820
330
1D26B
100
AcDbEntity
  8
SUNPOU
100
AcDbCircle
 10
10504.52250454545
 20
3201.291251548639
 30
0.0
 40
7.5
100
AcDbArc
 50
90.0
 51
270.0
  0
ARC
  5
1D821
330
1D26B
100
AcDbEntity
  8
SUNPOU
100
AcDbCircle
 10
10504.52250454545
 20
2201.291251548639
 30
0.0
 40
7.5
100
AcDbArc
 50
90.0
 51
270.0
  0
ARC
  5
1D822
330
1D26B
100
AcDbEntity
  8
SUNPOU
100
AcDbCircle
 10
10504.52250454545
 20
2201.291251548639
 30
0.0
 40
7.5
100
AcDbArc
 50
270.0
 51
90.0
  0
ARC
  5
1D823
330
1D26B
100
AcDbEntity
  8
SUNPOU
100
AcDbCircle
 10
10504.52250454545
 20
2001.291251548638
 30
0.0
 40
7.5
100
AcDbArc
 50
90.0
 51
270.0
  0
ARC
  5
1D824
330
1D26B
100
AcDbEntity
  8
SUNPOU
100
AcDbCircle
 10
10504.52250454545
 20
2001.291251548638
 30
0.0
 40
7.5
100
AcDbArc
 50
270.0
 51
90.0
  0
ARC
  5
1D825
330
1D26B
100
AcDbEntity
  8
SUNPOU
100
AcDbCircle
 10
10504.52250454545
 20
2201.291251548639
 30
0.0
 40
7.5
100
AcDbArc
 50
270.0
 51
90.0
  0
ARC
  5
1D826
330
1D26B
100
AcDbEntity
  8
SUNPOU
100
AcDbCircle
 10
10504.52250454545
 20
2201.291251548639
 30
0.0
 40
7.5
100
AcDbArc
 50
90.0
 51
270.0
  0
ARC
  5
1D827
330
1D26B
100
AcDbEntity
  8
SUNPOU
100
AcDbCircle
 10
4718.007042992147
 20
1641.291251548637
 30
0.0
 40
7.5
100
AcDbArc
 50
180.0
 51
0.0
  0
ARC
  5
1D828
330
1D26B
100
AcDbEntity
  8
SUNPOU
100
AcDbCircle
 10
4718.007042992147
 20
1641.291251548637
 30
0.0
 40
7.5
100
AcDbArc
 50
0.0
 51
180.0
  0
ARC
  5
1D829
330
1D26B
100
AcDbEntity
  8
SUNPOU
100
AcDbCircle
 10
2618.007042992147
 20
1641.291251548637
 30
0.0
 40
7.5
100
AcDbArc
 50
0.0
 51
180.0
  0
ARC
  5
1D82A
330
1D26B
100
AcDbEntity
  8
SUNPOU
100
AcDbCircle
 10
2618.007042992147
 20
1641.291251548637
 30
0.0
 40
7.5
100
AcDbArc
 50
180.0
 51
0.0
  0
ARC
  5
1D82B
330
1D26B
100
AcDbEntity
  8
SUNPOU
100
AcDbCircle
 10
4818.007042992147
 20
1361.291251548638
 30
0.0
 40
7.5
100
AcDbArc
 50
180.0
 51
0.0
  0
ARC
  5
1D82C
330
1D26B
100
AcDbEntity
  8
SUNPOU
100
AcDbCircle
 10
4818.007042992147
 20
1361.291251548638
 30
0.0
 40
7.5
100
AcDbArc
 50
0.0
 51
180.0
  0
ARC
  5
1D82D
330
1D26B
100
AcDbEntity
  8
SUNPOU
100
AcDbCircle
 10
2518.007042992147
 20
1361.291251548638
 30
0.0
 40
7.5
100
AcDbArc
 50
0.0
 51
180.0
  0
ARC
  5
1D82E
330
1D26B
100
AcDbEntity
  8
SUNPOU
100
AcDbCircle
 10
2518.007042992147
 20
1361.291251548638
 30
0.0
 40
7.5
100
AcDbArc
 50
180.0
 51
0.0
  0
ARC
  5
1D82F
330
1D26B
100
AcDbEntity
  8
SUNPOU
100
AcDbCircle
 10
5662.758536769063
 20
2201.291251548639
 30
0.0
 40
7.5
100
AcDbArc
 50
90.0
 51
270.0
  0
ARC
  5
1D830
330
1D26B
100
AcDbEntity
  8
SUNPOU
100
AcDbCircle
 10
5662.758536769063
 20
2201.291251548639
 30
0.0
 40
7.5
100
AcDbArc
 50
270.0
 51
90.0
  0
ARC
  5
1D831
330
1D26B
100
AcDbEntity
  8
SUNPOU
100
AcDbCircle
 10
5662.758536769063
 20
4766.347603535439
 30
0.0
 40
7.5
100
AcDbArc
 50
270.0
 51
90.0
  0
ARC
  5
1D832
330
1D26B
100
AcDbEntity
  8
SUNPOU
100
AcDbCircle
 10
5662.758536769063
 20
4766.347603535439
 30
0.0
 40
7.5
100
AcDbArc
 50
90.0
 51
270.0
  0
ARC
  5
1D833
330
1D26B
100
AcDbEntity
  8
SUNPOU
100
AcDbCircle
 10
5382.758536769063
 20
4766.347603535439
 30
0.0
 40
7.5
100
AcDbArc
 50
270.0
 51
90.0
  0
ARC
  5
1D834
330
1D26B
100
AcDbEntity
  8
SUNPOU
100
AcDbCircle
 10
5382.758536769063
 20
4766.347603535439
 30
0.0
 40
7.5
100
AcDbArc
 50
90.0
 51
270.0
  0
ARC
  5
1D835
330
1D26B
100
AcDbEntity
  8
SUNPOU
100
AcDbCircle
 10
5382.758536769063
 20
3201.291251548639
 30
0.0
 40
7.5
100
AcDbArc
 50
90.0
 51
270.0
  0
ARC
  5
1D836
330
1D26B
100
AcDbEntity
  8
SUNPOU
100
AcDbCircle
 10
5382.758536769063
 20
3201.291251548639
 30
0.0
 40
7.5
100
AcDbArc
 50
270.0
 51
90.0
  0
ARC
  5
1D837
330
1D26B
100
AcDbEntity
  8
SUNPOU
100
AcDbCircle
 10
5382.758536769063
 20
3201.291251548639
 30
0.0
 40
7.5
100
AcDbArc
 50
270.0
 51
90.0
  0
ARC
  5
1D838
330
1D26B
100
AcDbEntity
  8
SUNPOU
100
AcDbCircle
 10
5382.758536769063
 20
3201.291251548639
 30
0.0
 40
7.5
100
AcDbArc
 50
90.0
 51
270.0
  0
ARC
  5
1D839
330
1D26B
100
AcDbEntity
  8
SUNPOU
100
AcDbCircle
 10
5382.758536769063
 20
2201.291251548639
 30
0.0
 40
7.5
100
AcDbArc
 50
90.0
 51
270.0
  0
ARC
  5
1D83A
330
1D26B
100
AcDbEntity
  8
SUNPOU
100
AcDbCircle
 10
5382.758536769063
 20
2201.291251548639
 30
0.0
 40
7.5
100
AcDbArc
 50
270.0
 51
90.0
  0
ARC
  5
1D83B
330
1D26B
100
AcDbEntity
  8
SUNPOU
100
AcDbCircle
 10
5382.758536769063
 20
2001.291251548638
 30
0.0
 40
7.5
100
AcDbArc
 50
90.0
 51
270.0
  0
ARC
  5
1D83C
330
1D26B
100
AcDbEntity
  8
SUNPOU
100
AcDbCircle
 10
5382.758536769063
 20
2001.291251548638
 30
0.0
 40
7.5
100
AcDbArc
 50
270.0
 51
90.0
  0
ARC
  5
1D83D
330
1D26B
100
AcDbEntity
  8
SUNPOU
100
AcDbCircle
 10
5382.758536769063
 20
2201.291251548639
 30
0.0
 40
7.5
100
AcDbArc
 50
270.0
 51
90.0
  0
ARC
  5
1D83E
330
1D26B
100
AcDbEntity
  8
SUNPOU
100
AcDbCircle
 10
5382.758536769063
 20
2201.291251548639
 30
0.0
 40
7.5
100
AcDbArc
 50
90.0
 51
270.0
  0
ARC
  5
1D83F
330
1D26B
100
AcDbEntity
  8
SUNPOU
100
AcDbCircle
 10
12212.34656667794
 20
10317.24800501665
 30
0.0
 40
7.5
100
AcDbArc
 50
270.0
 51
90.0
  0
ARC
  5
1D840
330
1D26B
100
AcDbEntity
  8
SUNPOU
100
AcDbCircle
 10
12212.34656667794
 20
10317.24800501665
 30
0.0
 40
7.5
100
AcDbArc
 50
90.0
 51
270.0
  0
ARC
  5
1D841
330
1D26B
100
AcDbEntity
  8
SUNPOU
100
AcDbCircle
 10
12212.34656667794
 20
7677.248005016647
 30
0.0
 40
7.5
100
AcDbArc
 50
90.0
 51
270.0
  0
ARC
  5
1D842
330
1D26B
100
AcDbEntity
  8
SUNPOU
100
AcDbCircle
 10
12212.34656667794
 20
7677.248005016647
 30
0.0
 40
7.5
100
AcDbArc
 50
270.0
 51
90.0
  0
ARC
  5
1D843
330
1D26B
100
AcDbEntity
  8
SUNPOU
100
AcDbCircle
 10
11932.34656667794
 20
10317.24800501665
 30
0.0
 40
7.5
100
AcDbArc
 50
270.0
 51
90.0
  0
ARC
  5
1D844
330
1D26B
100
AcDbEntity
  8
SUNPOU
100
AcDbCircle
 10
11932.34656667794
 20
10317.24800501665
 30
0.0
 40
7.5
100
AcDbArc
 50
90.0
 51
270.0
  0
ARC
  5
1D845
330
1D26B
100
AcDbEntity
  8
SUNPOU
100
AcDbCircle
 10
11932.34656667794
 20
10077.24800501665
 30
0.0
 40
7.5
100
AcDbArc
 50
90.0
 51
270.0
  0
ARC
  5
1D846
330
1D26B
100
AcDbEntity
  8
SUNPOU
100
AcDbCircle
 10
11932.34656667794
 20
10077.24800501665
 30
0.0
 40
7.5
100
AcDbArc
 50
270.0
 51
90.0
  0
ARC
  5
1D847
330
1D26B
100
AcDbEntity
  8
SUNPOU
100
AcDbCircle
 10
11932.34656667794
 20
10077.24800501665
 30
0.0
 40
7.5
100
AcDbArc
 50
270.0
 51
90.0
  0
ARC
  5
1D848
330
1D26B
100
AcDbEntity
  8
SUNPOU
100
AcDbCircle
 10
11932.34656667794
 20
10077.24800501665
 30
0.0
 40
7.5
100
AcDbArc
 50
90.0
 51
270.0
  0
ARC
  5
1D849
330
1D26B
100
AcDbEntity
  8
SUNPOU
100
AcDbCircle
 10
11932.34656667794
 20
8077.248005016647
 30
0.0
 40
7.5
100
AcDbArc
 50
90.0
 51
270.0
  0
ARC
  5
1D84A
330
1D26B
100
AcDbEntity
  8
SUNPOU
100
AcDbCircle
 10
11932.34656667794
 20
8077.248005016647
 30
0.0
 40
7.5
100
AcDbArc
 50
270.0
 51
90.0
  0
ARC
  5
1D84B
330
1D26B
100
AcDbEntity
  8
SUNPOU
100
AcDbCircle
 10
11932.34656667794
 20
8077.248005016647
 30
0.0
 40
7.5
100
AcDbArc
 50
270.0
 51
90.0
  0
ARC
  5
1D84C
330
1D26B
100
AcDbEntity
  8
SUNPOU
100
AcDbCircle
 10
11932.34656667794
 20
8077.248005016647
 30
0.0
 40
7.5
100
AcDbArc
 50
90.0
 51
270.0
  0
ARC
  5
1D84D
330
1D26B
100
AcDbEntity
  8
SUNPOU
100
AcDbCircle
 10
11932.34656667794
 20
7677.248005016647
 30
0.0
 40
7.5
100
AcDbArc
 50
90.0
 51
270.0
  0
ARC
  5
1D84E
330
1D26B
100
AcDbEntity
  8
SUNPOU
100
AcDbCircle
 10
11932.34656667794
 20
7677.248005016647
 30
0.0
 40
7.5
100
AcDbArc
 50
270.0
 51
90.0
  0
ARC
  5
1D84F
330
1D26B
100
AcDbEntity
  8
SUNPOU
100
AcDbCircle
 10
5454.346566677937
 20
6927.248005016649
 30
0.0
 40
7.5
100
AcDbArc
 50
180.0
 51
0.0
  0
ARC
  5
1D850
330
1D26B
100
AcDbEntity
  8
SUNPOU
100
AcDbCircle
 10
5454.346566677937
 20
6927.248005016649
 30
0.0
 40
7.5
100
AcDbArc
 50
0.0
 51
180.0
  0
ARC
  5
1D851
330
1D26B
100
AcDbEntity
  8
SUNPOU
100
AcDbCircle
 10
5543.346566677938
 20
6927.248005016649
 30
0.0
 40
7.5
100
AcDbArc
 50
0.0
 51
180.0
  0
ARC
  5
1D852
330
1D26B
100
AcDbEntity
  8
SUNPOU
100
AcDbCircle
 10
5543.346566677938
 20
6927.248005016649
 30
0.0
 40
7.5
100
AcDbArc
 50
180.0
 51
0.0
  0
ARC
  5
1D853
330
1D26B
100
AcDbEntity
  8
SUNPOU
100
AcDbCircle
 10
5543.346566677938
 20
6927.248005016649
 30
0.0
 40
7.5
100
AcDbArc
 50
0.0
 51
180.0
  0
ARC
  5
1D854
330
1D26B
100
AcDbEntity
  8
SUNPOU
100
AcDbCircle
 10
5543.346566677938
 20
6927.248005016649
 30
0.0
 40
7.5
100
AcDbArc
 50
180.0
 51
0.0
  0
ARC
  5
1D855
330
1D26B
100
AcDbEntity
  8
SUNPOU
100
AcDbCircle
 10
10943.34656667794
 20
6927.248005016649
 30
0.0
 40
7.5
100
AcDbArc
 50
180.0
 51
0.0
  0
ARC
  5
1D856
330
1D26B
100
AcDbEntity
  8
SUNPOU
100
AcDbCircle
 10
10943.34656667794
 20
6927.248005016649
 30
0.0
 40
7.5
100
AcDbArc
 50
0.0
 51
180.0
  0
ARC
  5
1D857
330
1D26B
100
AcDbEntity
  8
SUNPOU
100
AcDbCircle
 10
10943.34656667794
 20
10777.24800501664
 30
0.0
 40
7.5
100
AcDbArc
 50
180.0
 51
0.0
  0
ARC
  5
1D858
330
1D26B
100
AcDbEntity
  8
SUNPOU
100
AcDbCircle
 10
10943.34656667794
 20
10777.24800501664
 30
0.0
 40
7.5
100
AcDbArc
 50
0.0
 51
180.0
  0
ARC
  5
1D859
330
1D26B
100
AcDbEntity
  8
SUNPOU
100
AcDbCircle
 10
8243.34656667794
 20
10777.24800501664
 30
0.0
 40
7.5
100
AcDbArc
 50
0.0
 51
180.0
  0
ARC
  5
1D85A
330
1D26B
100
AcDbEntity
  8
SUNPOU
100
AcDbCircle
 10
8243.34656667794
 20
10777.24800501664
 30
0.0
 40
7.5
100
AcDbArc
 50
180.0
 51
0.0
  0
ARC
  5
1D85B
330
1D26B
100
AcDbEntity
  8
SUNPOU
100
AcDbCircle
 10
8243.34656667794
 20
10777.24800501664
 30
0.0
 40
7.5
100
AcDbArc
 50
180.0
 51
0.0
  0
ARC
  5
1D85C
330
1D26B
100
AcDbEntity
  8
SUNPOU
100
AcDbCircle
 10
8243.34656667794
 20
10777.24800501664
 30
0.0
 40
7.5
100
AcDbArc
 50
0.0
 51
180.0
  0
ARC
  5
1D85D
330
1D26B
100
AcDbEntity
  8
SUNPOU
100
AcDbCircle
 10
5543.346566677938
 20
10777.24800501664
 30
0.0
 40
7.5
100
AcDbArc
 50
0.0
 51
180.0
  0
ARC
  5
1D85E
330
1D26B
100
AcDbEntity
  8
SUNPOU
100
AcDbCircle
 10
5543.346566677938
 20
10777.24800501664
 30
0.0
 40
7.5
100
AcDbArc
 50
180.0
 51
0.0
  0
LINE
  5
1D85F
330
1D26B
100
AcDbEntity
  8
HIKIDASHI
100
AcDbLine
 10
14492.67402130158
 20
5443.624456902274
 30
0.0
 11
14838.89717245742
 21
5644.216827798818
 31
0.0
1001
ACAD
1000
DSTYLE
1002
{
1070
   147
1040
1.5
1070
    77
1070
     0
1002
}
  0
LINE
  5
1D860
330
1D26B
100
AcDbEntity
  8
HIKIDASHI
100
AcDbLine
 10
14482.64777882812
 20
5460.929787348794
 30
0.0
 11
14388.84203862246
 21
5383.46700206148
 31
0.0
  0
LINE
  5
1D861
330
1D26B
100
AcDbEntity
  8
HIKIDASHI
100
AcDbLine
 10
14388.84203862246
 20
5383.46700206148
 30
0.0
 11
14502.70026377506
 21
5426.319126455751
 31
0.0
  0
SOLID
  5
1D862
330
1D26B
100
AcDbEntity
  8
HIKIDASHI
100
AcDbTrace
 10
14482.64777882812
 20
5460.929787348794
 30
0.0
 11
14502.70026377506
 21
5426.319126455751
 31
0.0
 12
14388.84203862246
 22
5383.46700206148
 32
0.0
 13
14388.84203862246
 23
5383.46700206148
 33
0.0
  0
LINE
  5
1D863
330
1D26B
100
AcDbEntity
  8
HIKIDASHI
100
AcDbLine
 10
14502.70026377506
 20
5426.319126455751
 30
0.0
 11
14482.64777882812
 21
5460.929787348794
 31
0.0
  0
LINE
  5
1D864
330
1D26B
100
AcDbEntity
  8
HIKIDASHI
100
AcDbLine
 10
14201.53510639718
 20
4338.377583304002
 30
0.0
 11
15030.25641748321
 21
4617.159667611447
 31
0.0
1001
ACAD
1000
DSTYLE
1002
{
1070
   147
1040
1.5
1070
    77
1070
     0
1002
}
  0
LINE
  5
1D865
330
1D26B
100
AcDbEntity
  8
HIKIDASHI
100
AcDbLine
 10
14195.15825130168
 20
4357.33373584325
 30
0.0
 11
14087.79819116171
 21
4300.116452731061
 31
0.0
  0
LINE
  5
1D866
330
1D26B
100
AcDbEntity
  8
HIKIDASHI
100
AcDbLine
 10
14087.79819116171
 20
4300.116452731061
 30
0.0
 11
14207.91196149265
 21
4319.421430764759
 31
0.0
  0
SOLID
  5
1D867
330
1D26B
100
AcDbEntity
  8
HIKIDASHI
100
AcDbTrace
 10
14195.15825130168
 20
4357.33373584325
 30
0.0
 11
14207.91196149265
 21
4319.421430764759
 31
0.0
 12
14087.79819116171
 22
4300.116452731061
 32
0.0
 13
14087.79819116171
 23
4300.116452731061
 33
0.0
  0
LINE
  5
1D868
330
1D26B
100
AcDbEntity
  8
HIKIDASHI
100
AcDbLine
 10
14207.91196149265
 20
4319.421430764759
 30
0.0
 11
14195.15825130168
 21
4357.33373584325
 31
0.0
  0
LINE
  5
1D869
330
1D26B
100
AcDbEntity
  8
HIKIDASHI
100
AcDbLine
 10
13930.45562312972
 20
4072.559677091416
 30
0.0
 11
13326.16538104217
 21
4415.210032245346
 31
0.0
1001
ACAD
1000
DSTYLE
1002
{
1070
   147
1040
1.5
1070
    77
1070
     0
1002
}
  0
LINE
  5
1D86A
330
1D26B
100
AcDbEntity
  8
HIKIDASHI
100
AcDbLine
 10
13920.59059474582
 20
4055.161941175938
 30
0.0
 11
14034.84203862259
 21
4013.369506787967
 31
0.0
  0
LINE
  5
1D86B
330
1D26B
100
AcDbEntity
  8
HIKIDASHI
100
AcDbLine
 10
14034.84203862259
 20
4013.369506787967
 30
0.0
 11
13940.32065151364
 21
4089.957413006895
 31
0.0
  0
SOLID
  5
1D86C
330
1D26B
100
AcDbEntity
  8
HIKIDASHI
100
AcDbTrace
 10
13920.59059474582
 20
4055.161941175938
 30
0.0
 11
13940.32065151364
 21
4089.957413006895
 31
0.0
 12
14034.84203862259
 22
4013.369506787967
 32
0.0
 13
14034.84203862259
 23
4013.369506787967
 33
0.0
  0
LINE
  5
1D86D
330
1D26B
100
AcDbEntity
  8
HIKIDASHI
100
AcDbLine
 10
13940.32065151364
 20
4089.957413006895
 30
0.0
 11
13920.59059474582
 21
4055.161941175938
 31
0.0
  0
LINE
  5
1D86E
330
1D26B
100
AcDbEntity
  8
HIKIDASHI
100
AcDbLine
 10
13679.33338137823
 20
3803.642274952152
 30
0.0
 11
13440.19061942224
 21
3971.590527492045
 31
0.0
1001
ACAD
1000
DSTYLE
1002
{
1070
   147
1040
1.5
1070
    77
1070
     0
1002
}
  0
LINE
  5
1D86F
330
1D26B
100
AcDbEntity
  8
HIKIDASHI
100
AcDbLine
 10
13667.83896206972
 20
3787.275286079413
 30
0.0
 11
13777.53531461465
 21
3734.675759101127
 31
0.0
  0
LINE
  5
1D870
330
1D26B
100
AcDbEntity
  8
HIKIDASHI
100
AcDbLine
 10
13777.53531461465
 20
3734.675759101127
 30
0.0
 11
13690.82780068674
 21
3820.009263824889
 31
0.0
  0
SOLID
  5
1D871
330
1D26B
100
AcDbEntity
  8
HIKIDASHI
100
AcDbTrace
 10
13667.83896206972
 20
3787.275286079413
 30
0.0
 11
13690.82780068674
 21
3820.009263824889
 31
0.0
 12
13777.53531461465
 22
3734.675759101127
 32
0.0
 13
13777.53531461465
 23
3734.675759101127
 33
0.0
  0
LINE
  5
1D872
330
1D26B
100
AcDbEntity
  8
HIKIDASHI
100
AcDbLine
 10
13690.82780068674
 20
3820.009263824889
 30
0.0
 11
13667.83896206972
 21
3787.275286079413
 31
0.0
  0
LINE
  5
1D873
330
1D26B
100
AcDbEntity
  8
HIKIDASHI
100
AcDbLine
 10
3481.611359455065
 20
4200.94850878354
 30
0.0
 11
3236.003257992255
 21
4356.407073822178
 31
0.0
1001
ACAD
1000
DSTYLE
1002
{
1070
   147
1040
1.5
1070
    77
1070
     0
1002
}
  0
LINE
  5
1D874
330
1D26B
100
AcDbEntity
  8
HIKIDASHI
100
AcDbLine
 10
3470.914896695961
 20
4184.049228194028
 30
0.0
 11
3583.007042992147
 21
4136.76973222892
 31
0.0
  0
LINE
  5
1D875
330
1D26B
100
AcDbEntity
  8
HIKIDASHI
100
AcDbLine
 10
3583.007042992147
 20
4136.76973222892
 30
0.0
 11
3492.307822214169
 21
4217.847789373055
 31
0.0
  0
SOLID
  5
1D876
330
1D26B
100
AcDbEntity
  8
HIKIDASHI
100
AcDbTrace
 10
3470.914896695961
 20
4184.049228194028
 30
0.0
 11
3492.307822214169
 21
4217.847789373055
 31
0.0
 12
3583.007042992147
 22
4136.76973222892
 32
0.0
 13
3583.007042992147
 23
4136.76973222892
 33
0.0
  0
LINE
  5
1D877
330
1D26B
100
AcDbEntity
  8
HIKIDASHI
100
AcDbLine
 10
3492.307822214169
 20
4217.847789373055
 30
0.0
 11
3470.914896695961
 21
4184.049228194028
 31
0.0
  0
LINE
  5
1D878
330
1D26B
100
AcDbEntity
  8
HIKIDASHI
100
AcDbLine
 10
3251.563129816243
 20
2490.288063171345
 30
0.0
 11
2353.470305496507
 21
2713.930740029555
 31
0.0
1001
ACAD
1000
DSTYLE
1002
{
1070
   147
1040
1.5
1070
    77
1070
     0
1002
}
  0
LINE
  5
1D879
330
1D26B
100
AcDbEntity
  8
HIKIDASHI
100
AcDbLine
 10
3246.730327879126
 20
2470.880744308693
 30
0.0
 11
3368.007042992147
 21
2461.291251548639
 31
0.0
  0
LINE
  5
1D87A
330
1D26B
100
AcDbEntity
  8
HIKIDASHI
100
AcDbLine
 10
3368.007042992147
 20
2461.291251548639
 30
0.0
 11
3256.395931753362
 21
2509.695382033996
 31
0.0
  0
SOLID
  5
1D87B
330
1D26B
100
AcDbEntity
  8
HIKIDASHI
100
AcDbTrace
 10
3246.730327879126
 20
2470.880744308693
 30
0.0
 11
3256.395931753362
 21
2509.695382033996
 31
0.0
 12
3368.007042992147
 22
2461.291251548639
 32
0.0
 13
3368.007042992147
 23
2461.291251548639
 33
0.0
  0
LINE
  5
1D87C
330
1D26B
100
AcDbEntity
  8
HIKIDASHI
100
AcDbLine
 10
3256.395931753362
 20
2509.695382033996
 30
0.0
 11
3246.730327879126
 21
2470.880744308693
 31
0.0
  0
LINE
  5
1D87D
330
1D26B
100
AcDbEntity
  8
HIKIDASHI
100
AcDbLine
 10
8803.375327231455
 20
4200.94850878354
 30
0.0
 11
8557.767225768643
 21
4356.407073822178
 31
0.0
1001
ACAD
1000
DSTYLE
1002
{
1070
   147
1040
1.5
1070
    77
1070
     0
1002
}
  0
LINE
  5
1D87E
330
1D26B
100
AcDbEntity
  8
HIKIDASHI
100
AcDbLine
 10
8792.678864472348
 20
4184.049228194028
 30
0.0
 11
8904.771010768534
 21
4136.76973222892
 31
0.0
  0
LINE
  5
1D87F
330
1D26B
100
AcDbEntity
  8
HIKIDASHI
100
AcDbLine
 10
8904.771010768534
 20
4136.76973222892
 30
0.0
 11
8814.071789990554
 21
4217.847789373055
 31
0.0
  0
SOLID
  5
1D880
330
1D26B
100
AcDbEntity
  8
HIKIDASHI
100
AcDbTrace
 10
8792.678864472348
 20
4184.049228194028
 30
0.0
 11
8814.071789990554
 21
4217.847789373055
 31
0.0
 12
8904.771010768534
 22
4136.76973222892
 32
0.0
 13
8904.771010768534
 23
4136.76973222892
 33
0.0
  0
LINE
  5
1D881
330
1D26B
100
AcDbEntity
  8
HIKIDASHI
100
AcDbLine
 10
8814.071789990554
 20
4217.847789373055
 30
0.0
 11
8792.678864472348
 21
4184.049228194028
 31
0.0
  0
LINE
  5
1D882
330
1D26B
100
AcDbEntity
  8
HIKIDASHI
100
AcDbLine
 10
8575.157429712579
 20
2496.840190175973
 30
0.0
 11
7875.234273272893
 21
2713.930740029555
 31
0.0
1001
ACAD
1000
DSTYLE
1002
{
1070
   147
1040
1.5
1070
    77
1070
     0
1002
}
  0
LINE
  5
1D883
330
1D26B
100
AcDbEntity
  8
HIKIDASHI
100
AcDbLine
 10
8569.232606608023
 20
2477.737926666649
 30
0.0
 11
8689.771010768534
 21
2461.291251548639
 31
0.0
  0
LINE
  5
1D884
330
1D26B
100
AcDbEntity
  8
HIKIDASHI
100
AcDbLine
 10
8689.771010768534
 20
2461.291251548639
 30
0.0
 11
8581.082252817132
 21
2515.942453685299
 31
0.0
  0
SOLID
  5
1D885
330
1D26B
100
AcDbEntity
  8
HIKIDASHI
100
AcDbTrace
 10
8569.232606608023
 20
2477.737926666649
 30
0.0
 11
8581.082252817132
 21
2515.942453685299
 31
0.0
 12
8689.771010768534
 22
2461.291251548639
 32
0.0
 13
8689.771010768534
 23
2461.291251548639
 33
0.0
  0
LINE
  5
1D886
330
1D26B
100
AcDbEntity
  8
HIKIDASHI
100
AcDbLine
 10
8581.082252817132
 20
2515.942453685299
 30
0.0
 11
8569.232606608023
 21
2477.737926666649
 31
0.0
  0
TEXT
  5
1D887
330
1D26B
100
AcDbEntity
  8
SUNPOU
100
AcDbText
 10
5550.519047209397
 20
5571.035048957023
 30
0.0
 40
61.7138571458333
  1
2
 41
0.6700000000000001
  7
00
100
AcDbText
  0
TEXT
  5
1D888
330
1D26B
100
AcDbEntity
  8
SUNPOU
100
AcDbText
 10
5144.566404500888
 20
5504.117147147056
 30
0.0
 40
119.9991666724536
  1
N/mm
 41
0.6700000000000001
  7
01
100
AcDbText
  0
TEXT
  5
1D889
330
1D26B
100
AcDbEntity
  8
SUNPOU
100
AcDbText
 10
4963.451134119619
 20
5504.117147147056
 30
0.0
 40
119.9991666724536
  1
18
 41
0.6700000000000001
  7
01
100
AcDbText
  0
LINE
  5
1D88A
330
1D26B
100
AcDbEntity
  8
SUNPOU
100
AcDbLine
 10
4519.865637747222
 20
5298.402861432794
 30
0.0
 11
4519.865637747222
 21
5409.726013031159
 31
0.0
  0
LINE
  5
1D88B
330
1D26B
100
AcDbEntity
  8
SUNPOU
100
AcDbLine
 10
4497.365637747221
 20
5298.402861432794
 30
0.0
 11
4497.365637747221
 21
5409.726013031159
 31
0.0
  0
LINE
  5
1D88C
330
1D26B
100
AcDbEntity
  8
SUNPOU
100
AcDbLine
 10
4474.86563774722
 20
5298.402861432794
 30
0.0
 11
4474.86563774722
 21
5409.726013031159
 31
0.0
  0
LINE
  5
1D88D
330
1D26B
100
AcDbEntity
  8
SUNPOU
100
AcDbLine
 10
4459.865637747221
 20
5298.402861432794
 30
0.0
 11
4534.865637747222
 21
5298.402861432794
 31
0.0
  0
LINE
  5
1D88E
330
1D26B
100
AcDbEntity
  8
SUNPOU
100
AcDbLine
 10
4459.865637747221
 20
5409.726013031159
 30
0.0
 11
4534.865637747222
 21
5409.726013031159
 31
0.0
  0
ARC
  5
1D88F
330
1D26B
100
AcDbEntity
  8
SUNPOU
100
AcDbCircle
 10
5693.946389453136
 20
5455.833711736177
 30
0.0
 40
300.0
100
AcDbArc
 50
328.3472725285868
 51
31.65272747141321
  0
TEXT
  5
1D890
330
1D26B
100
AcDbEntity
  8
SUNPOU
100
AcDbText
 10
3014.021493447959
 20
5571.035048957023
 30
0.0
 40
61.7138571458333
  1
2
 41
0.6700000000000001
  7
00
100
AcDbText
  0
TEXT
  5
1D891
330
1D26B
100
AcDbEntity
  8
SUNPOU
100
AcDbText
 10
2657.167951143435
 20
5504.117147147056
 30
0.0
 40
95.99933333796291
  1
K
 41
0.6700000000000001
  7
01
100
AcDbText
  0
TEXT
  5
1D892
330
1D26B
100
AcDbEntity
  8
SUNPOU
100
AcDbText
 10
2476.052680762165
 20
5504.117147147056
 30
0.0
 40
119.9991666724536
  1
50  N/m
 41
0.6700000000000001
  7
01
100
AcDbText
  0
ARC
  5
1D893
330
1D26B
100
AcDbEntity
  8
SUNPOU
100
AcDbCircle
 10
2274.722587534649
 20
5455.833711736177
 30
0.0
 40
300.0
100
AcDbArc
 50
148.3472725285868
 51
211.6527274714131
  0
TEXT
  5
1D894
330
1D26B
100
AcDbEntity
  8
SUNPOU
100
AcDbText
 10
2715.796127211957
 20
5298.402861432794
 30
0.0
 40
119.9991666724536
  1
34 m/s
 41
0.6700000000000001
  7
01
100
AcDbText
  0
TEXT
  5
1D895
330
1D26B
100
AcDbEntity
  8
SUNPOU
100
AcDbText
 10
2070.77822232504
 20
5298.402861432794
 30
0.0
 40
119.9991666724536
  1
基準風速   　　 , 地表面粗度区分
  7
01
100
AcDbText
  0
TEXT
  5
1D896
330
1D26B
100
AcDbEntity
  8
SUNPOU
100
AcDbText
 10
2070.77822232504
 20
5504.117147147056
 30
0.0
 40
119.9991666724536
  1
地耐力   　　　 以上,コンクリート設計基準強度   　　　 以上
 41
0.9
  7
01
100
AcDbText
  0
ENDSEC
  0
SECTION
  2
OBJECTS
  0
DICTIONARY
  5
1D259
330
0
100
AcDbDictionary
281
     1
  3
ACAD_GROUP
350
1D25A
  3
ACAD_LAYOUT
350
1D266
  3
ACAD_MLINESTYLE
350
1D263
  3
ACAD_PLOTSETTINGS
350
1D265
  3
ACAD_PLOTSTYLENAME
350
1D25B
  3
AcDbVariableDictionary
350
1D897
  0
DICTIONARY
  5
1D25A
102
{ACAD_REACTORS
330
1D259
102
}
330
1D259
100
AcDbDictionary
281
     1
  0
DICTIONARY
  5
1D266
102
{ACAD_REACTORS
330
1D259
102
}
330
1D259
100
AcDbDictionary
281
     1
  3
Model
350
1D26E
  3
ﾚｲｱｳﾄ1
350
1D26A
  0
DICTIONARY
  5
1D263
102
{ACAD_REACTORS
330
1D259
102
}
330
1D259
100
AcDbDictionary
281
     1
  3
Standard
350
1D264
  0
DICTIONARY
  5
1D265
102
{ACAD_REACTORS
330
1D259
102
}
330
1D259
100
AcDbDictionary
281
     1
  0
ACDBDICTIONARYWDFLT
  5
1D25B
102
{ACAD_REACTORS
330
1D259
102
}
330
1D259
100
AcDbDictionary
281
     1
  3
Normal
350
1D25C
100
AcDbDictionaryWithDefault
340
1D25C
  0
DICTIONARY
  5
1D897
102
{ACAD_REACTORS
330
1D259
102
}
330
1D259
100
AcDbDictionary
281
     1
  3
DIMASSOC
350
1D898
  0
LAYOUT
  5
1D26E
102
{ACAD_REACTORS
330
1D266
102
}
330
1D266
100
AcDbPlotSettings
  1

  2
Muratec V-1200 Is@Web Printer
  4

  6

 40
0.0
 41
0.0
 42
0.0
 43
0.0
 44
0.0
 45
0.0
 46
0.0
 47
0.0
 48
0.0
 49
0.0
140
0.0
141
0.0
142
1.0
143
1.0
 70
  1712
 72
     0
 73
     0
 74
     0
  7

 75
     0
147
1.0
148
0.0
149
0.0
100
AcDbLayout
  1
Model
 70
     1
 71
     0
 10
0.0
 20
0.0
 11
12.0
 21
9.0
 12
0.0
 22
0.0
 32
0.0
 14
0.0
 24
0.0
 34
0.0
 15
0.0
 25
0.0
 35
0.0
146
0.0
 13
0.0
 23
0.0
 33
0.0
 16
1.0
 26
0.0
 36
0.0
 17
0.0
 27
1.0
 37
0.0
 76
     0
330
1D26B
  0
LAYOUT
  5
1D26A
102
{ACAD_REACTORS
330
1D266
102
}
330
1D266
100
AcDbPlotSettings
  1

  2
Muratec V-1200 Is@Web Printer
  4

  6

 40
0.0
 41
0.0
 42
0.0
 43
0.0
 44
0.0
 45
0.0
 46
0.0
 47
0.0
 48
0.0
 49
0.0
140
0.0
141
0.0
142
1.0
143
1.0
 70
   688
 72
     0
 73
     0
 74
     5
  7

 75
    16
147
1.0
148
0.0
149
0.0
100
AcDbLayout
  1
ﾚｲｱｳﾄ1
 70
     0
 71
     1
 10
0.0
 20
0.0
 11
12.0
 21
9.0
 12
0.0
 22
0.0
 32
0.0
 14
1.000000000000000E+20
 24
1.000000000000000E+20
 34
1.000000000000000E+20
 15
-1.000000000000000E+20
 25
-1.000000000000000E+20
 35
-1.000000000000000E+20
146
0.0
 13
0.0
 23
0.0
 33
0.0
 16
1.0
 26
0.0
 36
0.0
 17
0.0
 27
1.0
 37
0.0
 76
     0
330
1D267
  0
MLINESTYLE
  5
1D264
102
{ACAD_REACTORS
330
1D263
102
}
330
1D263
100
AcDbMlineStyle
  2
STANDARD
 70
     0
  3

 62
   256
 51
90.0
 52
90.0
 71
     2
 49
0.5
 62
   256
  6
BYLAYER
 49
-0.5
 62
   256
  6
BYLAYER
  0
ACDBPLACEHOLDER
  5
1D25C
102
{ACAD_REACTORS
330
1D25B
102
}
330
1D25B
  0
DICTIONARYVAR
  5
1D898
102
{ACAD_REACTORS
330
1D897
102
}
330
1D897
100
DictionaryVariables
280
     0
  1
1
  0
ENDSEC
  0
EOF
