  0
SECTION
  2
HEADER
  9
$ACADVER
  1
AC1015
  9
$ACADMAINTVER
 70
    13
  9
$DWGCODEPAGE
  3
ANSI_932
  9
$INSBASE
 10
267.0
 20
194.8999999999998
 30
0.0
  9
$EXTMIN
 10
433.9966216520333
 20
163.6908237492789
 30
-0.0024394782432182
  9
$EXTMAX
 10
16382.6660542547
 20
11242.27663824599
 30
40.00244250525319
  9
$LIMMIN
 10
0.0
 20
0.0
  9
$LIMMAX
 10
16800.0
 20
11880.0
  9
$ORTHOMODE
 70
     0
  9
$REGENMODE
 70
     1
  9
$FILLMODE
 70
     1
  9
$QTEXTMODE
 70
     0
  9
$MIRRTEXT
 70
     0
  9
$LTSCALE
 40
40.0
  9
$ATTMODE
 70
     1
  9
$TEXTSIZE
 40
0.2
  9
$TRACEWID
 40
0.05
  9
$TEXTSTYLE
  7
00
  9
$CLAYER
  8
SUNPOU
  9
$CELTYPE
  6
ByLayer
  9
$CECOLOR
 62
   256
  9
$CELTSCALE
 40
1.0
  9
$DISPSILH
 70
     0
  9
$DIMSCALE
 40
40.0
  9
$DIMASZ
 40
0.5
  9
$DIMEXO
 40
1.0
  9
$DIMDLI
 40
7.0
  9
$DIMRND
 40
0.0
  9
$DIMDLE
 40
3.0
  9
$DIMEXE
 40
1.5
  9
$DIMTP
 40
0.0
  9
$DIMTM
 40
0.0
  9
$DIMTXT
 40
3.0
  9
$DIMCEN
 40
0.0
  9
$DIMTSZ
 40
0.0
  9
$DIMTOL
 70
     0
  9
$DIMLIM
 70
     0
  9
$DIMTIH
 70
     0
  9
$DIMTOH
 70
     0
  9
$DIMSE1
 70
     0
  9
$DIMSE2
 70
     0
  9
$DIMTAD
 70
     1
  9
$DIMZIN
 70
     8
  9
$DIMBLK
  1
DOT
  9
$DIMASO
 70
     1
  9
$DIMSHO
 70
     0
  9
$DIMPOST
  1

  9
$DIMAPOST
  1

  9
$DIMALT
 70
     0
  9
$DIMALTD
 70
     2
  9
$DIMALTF
 40
25.4
  9
$DIMLFAC
 40
1.0
  9
$DIMTOFL
 70
     1
  9
$DIMTVP
 40
0.0
  9
$DIMTIX
 70
     0
  9
$DIMSOXD
 70
     0
  9
$DIMSAH
 70
     1
  9
$DIMBLK1
  1
DOT
  9
$DIMBLK2
  1
DOT
  9
$DIMSTYLE
  2
SUNPOU
  9
$DIMCLRD
 70
   256
  9
$DIMCLRE
 70
   256
  9
$DIMCLRT
 70
   256
  9
$DIMTFAC
 40
1.0
  9
$DIMGAP
 40
1.5
  9
$DIMJUST
 70
     0
  9
$DIMSD1
 70
     0
  9
$DIMSD2
 70
     0
  9
$DIMTOLJ
 70
     1
  9
$DIMTZIN
 70
     0
  9
$DIMALTZ
 70
     0
  9
$DIMALTTZ
 70
     0
  9
$DIMUPT
 70
     0
  9
$DIMDEC
 70
     4
  9
$DIMTDEC
 70
     4
  9
$DIMALTU
 70
     2
  9
$DIMALTTD
 70
     2
  9
$DIMTXSTY
  7
STANDARD
  9
$DIMAUNIT
 70
     0
  9
$DIMADEC
 70
     0
  9
$DIMALTRND
 40
0.0
  9
$DIMAZIN
 70
     0
  9
$DIMDSEP
 70
    46
  9
$DIMATFIT
 70
     3
  9
$DIMFRAC
 70
     0
  9
$DIMLDRBLK
  1
DOT
  9
$DIMLUNIT
 70
     2
  9
$DIMLWD
 70
    -2
  9
$DIMLWE
 70
    -2
  9
$DIMTMOVE
 70
     0
  9
$LUNITS
 70
     2
  9
$LUPREC
 70
     2
  9
$SKETCHINC
 40
0.1
  9
$FILLETRAD
 40
0.0
  9
$AUNITS
 70
     0
  9
$AUPREC
 70
     0
  9
$MENU
  1
A:\TIGER\MENU\TIGER
  9
$ELEVATION
 40
0.0
  9
$PELEVATION
 40
0.0
  9
$THICKNESS
 40
0.0
  9
$LIMCHECK
 70
     0
  9
$CHAMFERA
 40
0.0
  9
$CHAMFERB
 40
0.0
  9
$CHAMFERC
 40
0.0
  9
$CHAMFERD
 40
0.0
  9
$SKPOLY
 70
     0
  9
$TDCREATE
 40
2450266.571064815
  9
$TDUCREATE
 40
2450266.196064815
  9
$TDUPDATE
 40
2456331.368560648
  9
$TDUUPDATE
 40
2456330.993560647
  9
$TDINDWG
 40
0.2645812500
  9
$TDUSRTIMER
 40
0.2645812500
  9
$USRTIMER
 70
     1
  9
$ANGBASE
 50
0.0
  9
$ANGDIR
 70
     0
  9
$PDMODE
 70
     0
  9
$PDSIZE
 40
0.0
  9
$PLINEWID
 40
0.0
  9
$SPLFRAME
 70
     0
  9
$SPLINETYPE
 70
     6
  9
$SPLINESEGS
 70
     8
  9
$HANDSEED
  5
1E216
  9
$SURFTAB1
 70
     6
  9
$SURFTAB2
 70
     6
  9
$SURFTYPE
 70
     6
  9
$SURFU
 70
     6
  9
$SURFV
 70
     6
  9
$UCSBASE
  2

  9
$UCSNAME
  2

  9
$UCSORG
 10
0.0
 20
0.0
 30
0.0
  9
$UCSXDIR
 10
1.0
 20
0.0
 30
0.0
  9
$UCSYDIR
 10
0.0
 20
1.0
 30
0.0
  9
$UCSORTHOREF
  2

  9
$UCSORTHOVIEW
 70
     0
  9
$UCSORGTOP
 10
0.0
 20
0.0
 30
0.0
  9
$UCSORGBOTTOM
 10
0.0
 20
0.0
 30
0.0
  9
$UCSORGLEFT
 10
0.0
 20
0.0
 30
0.0
  9
$UCSORGRIGHT
 10
0.0
 20
0.0
 30
0.0
  9
$UCSORGFRONT
 10
0.0
 20
0.0
 30
0.0
  9
$UCSORGBACK
 10
0.0
 20
0.0
 30
0.0
  9
$PUCSBASE
  2

  9
$PUCSNAME
  2

  9
$PUCSORG
 10
0.0
 20
0.0
 30
0.0
  9
$PUCSXDIR
 10
1.0
 20
0.0
 30
0.0
  9
$PUCSYDIR
 10
0.0
 20
1.0
 30
0.0
  9
$PUCSORTHOREF
  2

  9
$PUCSORTHOVIEW
 70
     0
  9
$PUCSORGTOP
 10
0.0
 20
0.0
 30
0.0
  9
$PUCSORGBOTTOM
 10
0.0
 20
0.0
 30
0.0
  9
$PUCSORGLEFT
 10
0.0
 20
0.0
 30
0.0
  9
$PUCSORGRIGHT
 10
0.0
 20
0.0
 30
0.0
  9
$PUCSORGFRONT
 10
0.0
 20
0.0
 30
0.0
  9
$PUCSORGBACK
 10
0.0
 20
0.0
 30
0.0
  9
$USERI1
 70
     3
  9
$USERI2
 70
     0
  9
$USERI3
 70
     0
  9
$USERI4
 70
     0
  9
$USERI5
 70
  1103
  9
$USERR1
 40
0.0
  9
$USERR2
 40
1.0
  9
$USERR3
 40
0.0
  9
$USERR4
 40
0.0
  9
$USERR5
 40
0.0
  9
$WORLDVIEW
 70
     1
  9
$SHADEDGE
 70
     3
  9
$SHADEDIF
 70
    70
  9
$TILEMODE
 70
     1
  9
$MAXACTVP
 70
    16
  9
$PINSBASE
 10
0.0
 20
0.0
 30
0.0
  9
$PLIMCHECK
 70
     0
  9
$PEXTMIN
 10
1.000000000000000E+20
 20
1.000000000000000E+20
 30
1.000000000000000E+20
  9
$PEXTMAX
 10
-1.000000000000000E+20
 20
-1.000000000000000E+20
 30
-1.000000000000000E+20
  9
$PLIMMIN
 10
0.0
 20
0.0
  9
$PLIMMAX
 10
12.0
 20
9.0
  9
$UNITMODE
 70
     0
  9
$VISRETAIN
 70
     0
  9
$PLINEGEN
 70
     1
  9
$PSLTSCALE
 70
     0
  9
$TREEDEPTH
 70
  3020
  9
$CMLSTYLE
  2
Standard
  9
$CMLJUST
 70
     0
  9
$CMLSCALE
 40
1.0
  9
$PROXYGRAPHICS
 70
     1
  9
$MEASUREMENT
 70
     0
  9
$CELWEIGHT
370
    -1
  9
$ENDCAPS
280
     0
  9
$JOINSTYLE
280
     0
  9
$LWDISPLAY
290
     0
  9
$INSUNITS
 70
     0
  9
$HYPERLINKBASE
  1

  9
$STYLESHEET
  1

  9
$XEDIT
290
     1
  9
$CEPSNTYPE
380
     0
  9
$PSTYLEMODE
290
     1
  9
$FINGERPRINTGUID
  2
{688F3972-BDE9-4DE0-BBA7-0ED47C79C633}
  9
$VERSIONGUID
  2
{4E7B52B5-D2A5-4E82-986D-EDFDF7F0A32A}
  9
$EXTNAMES
290
     1
  9
$PSVPSCALE
 40
0.0
  9
$OLESTARTUP
290
     0
  0
ENDSEC
  0
SECTION
  2
CLASSES
  0
CLASS
  1
ACDBDICTIONARYWDFLT
  2
AcDbDictionaryWithDefault
  3
AutoCAD 2000
 90
        0
280
     0
281
     0
  0
CLASS
  1
ACDBPLACEHOLDER
  2
AcDbPlaceHolder
  3
AutoCAD 2000
 90
        0
280
     0
281
     0
  0
CLASS
  1
LAYOUT
  2
AcDbLayout
  3
AutoCAD 2000
 90
        0
280
     0
281
     0
  0
CLASS
  1
DICTIONARYVAR
  2
AcDbDictionaryVar
  3
AutoCAD 2000
 90
        0
280
     0
281
     0
  0
ENDSEC
  0
SECTION
  2
TABLES
  0
TABLE
  2
VPORT
  5
1DB1C
330
0
100
AcDbSymbolTable
 70
     2
  0
VPORT
  5
1E215
330
1DB1C
100
AcDbSymbolTableRecord
100
AcDbViewportTableRecord
  2
*Active
 70
     0
 10
0.0
 20
0.0
 11
1.0
 21
1.0
 12
8408.331337953368
 22
5702.983730997637
 13
0.0
 23
0.0
 14
1.0
 24
1.0
 15
0.0
 25
0.0
 16
0.0
 26
0.0
 36
1.0
 17
0.0
 27
0.0
 37
0.0
 40
12989.06627885777
 41
1.236040609137055
 42
50.0
 43
0.0
 44
0.0
 50
0.0
 51
0.0
 71
     0
 72
 10000
 73
     1
 74
     0
 75
     0
 76
     0
 77
     0
 78
     0
281
     0
 65
     1
110
0.0
120
0.0
130
0.0
111
1.0
121
0.0
131
0.0
112
0.0
122
1.0
132
0.0
 79
     0
146
0.0
  0
ENDTAB
  0
TABLE
  2
LTYPE
  5
1DB19
330
0
100
AcDbSymbolTable
 70
     7
  0
LTYPE
  5
1DB27
330
1DB19
100
AcDbSymbolTableRecord
100
AcDbLinetypeTableRecord
  2
ByBlock
 70
     0
  3

 72
    65
 73
     0
 40
0.0
  0
LTYPE
  5
1DB28
330
1DB19
100
AcDbSymbolTableRecord
100
AcDbLinetypeTableRecord
  2
ByLayer
 70
     0
  3

 72
    65
 73
     0
 40
0.0
  0
LTYPE
  5
1DB29
330
1DB19
100
AcDbSymbolTableRecord
100
AcDbLinetypeTableRecord
  2
CONTINUOUS
 70
     0
  3
実線
 72
    65
 73
     0
 40
0.0
  0
LTYPE
  5
1DB39
330
1DB19
100
AcDbSymbolTableRecord
100
AcDbLinetypeTableRecord
  2
HIDE-M
 70
     0
  3

 72
    65
 73
     2
 40
2.0
 49
1.0
 74
     0
 49
-1.0
 74
     0
  0
LTYPE
  5
1DB3A
330
1DB19
100
AcDbSymbolTableRecord
100
AcDbLinetypeTableRecord
  2
HIDE-S
 70
     0
  3

 72
    65
 73
     2
 40
1.0
 49
0.5
 74
     0
 49
-0.5
 74
     0
  0
LTYPE
  5
1DB3B
330
1DB19
100
AcDbSymbolTableRecord
100
AcDbLinetypeTableRecord
  2
1PL-L
 70
     0
  3

 72
    65
 73
     4
 40
56.0
 49
50.0
 74
     0
 49
-2.0
 74
     0
 49
2.0
 74
     0
 49
-2.0
 74
     0
  0
LTYPE
  5
1DB3C
330
1DB19
100
AcDbSymbolTableRecord
100
AcDbLinetypeTableRecord
  2
1PL-SL
 70
     0
  3

 72
    65
 73
     4
 40
6.5
 49
5.0
 74
     0
 49
-0.5
 74
     0
 49
0.5
 74
     0
 49
-0.5
 74
     0
  0
LTYPE
  5
1DB3D
330
1DB19
100
AcDbSymbolTableRecord
100
AcDbLinetypeTableRecord
  2
1PL-S
 70
     0
  3

 72
    65
 73
     4
 40
4.0
 49
2.5
 74
     0
 49
-0.5
 74
     0
 49
0.5
 74
     0
 49
-0.5
 74
     0
  0
LTYPE
  5
1DB3E
330
1DB19
100
AcDbSymbolTableRecord
100
AcDbLinetypeTableRecord
  2
2PL-M
 70
     0
  3

 72
    65
 73
     6
 40
17.0
 49
12.0
 74
     0
 49
-1.0
 74
     0
 49
1.0
 74
     0
 49
-1.0
 74
     0
 49
1.0
 74
     0
 49
-1.0
 74
     0
  0
ENDTAB
  0
TABLE
  2
LAYER
  5
1DB16
330
0
100
AcDbSymbolTable
 70
    19
  0
LAYER
  5
1DB24
330
1DB16
100
AcDbSymbolTableRecord
100
AcDbLayerTableRecord
  2
0
 70
     0
 62
     7
  6
CONTINUOUS
370
    -3
390
1DB23
  0
LAYER
  5
1DB36
330
1DB16
100
AcDbSymbolTableRecord
100
AcDbLayerTableRecord
  2
SUNPOU
 70
     0
 62
     4
  6
CONTINUOUS
370
    -3
390
1DB23
  0
LAYER
  5
1DB3F
330
1DB16
100
AcDbSymbolTableRecord
100
AcDbLayerTableRecord
  2
U1
 70
     0
 62
     3
  6
CONTINUOUS
370
    -3
390
1DB23
  0
LAYER
  5
1DB40
330
1DB16
100
AcDbSymbolTableRecord
100
AcDbLayerTableRecord
  2
U3
 70
     0
 62
     6
  6
CONTINUOUS
370
    -3
390
1DB23
  0
LAYER
  5
1DB41
330
1DB16
100
AcDbSymbolTableRecord
100
AcDbLayerTableRecord
  2
HIKIDASHI
 70
     0
 62
     6
  6
CONTINUOUS
370
    -3
390
1DB23
  0
LAYER
  5
1DB42
330
1DB16
100
AcDbSymbolTableRecord
100
AcDbLayerTableRecord
  2
HIDE-M3
 70
     0
 62
     4
  6
HIDE-M
370
    -3
390
1DB23
  0
LAYER
  5
1DB43
330
1DB16
100
AcDbSymbolTableRecord
100
AcDbLayerTableRecord
  2
1PL-L1
 70
     0
 62
     6
  6
1PL-L
370
    -3
390
1DB23
  0
LAYER
  5
1DB44
330
1DB16
100
AcDbSymbolTableRecord
100
AcDbLayerTableRecord
  2
2PL-M2
 70
     0
 62
     1
  6
2PL-M
370
    -3
390
1DB23
  0
LAYER
  5
1DB45
330
1DB16
100
AcDbSymbolTableRecord
100
AcDbLayerTableRecord
  2
HASHIRA
 70
     0
 62
     2
  6
CONTINUOUS
370
    -3
390
1DB23
  0
LAYER
  5
1DB46
330
1DB16
100
AcDbSymbolTableRecord
100
AcDbLayerTableRecord
  2
HATCH
 70
     0
 62
     2
  6
CONTINUOUS
370
    -3
390
1DB23
  0
LAYER
  5
1DB47
330
1DB16
100
AcDbSymbolTableRecord
100
AcDbLayerTableRecord
  2
LM1
 70
     0
 62
     1
  6
CONTINUOUS
370
    -3
390
1DB23
  0
LAYER
  5
1DB48
330
1DB16
100
AcDbSymbolTableRecord
100
AcDbLayerTableRecord
  2
FILENAME
 70
     0
 62
     7
  6
CONTINUOUS
370
    -3
390
1DB23
  0
LAYER
  5
1DB49
330
1DB16
100
AcDbSymbolTableRecord
100
AcDbLayerTableRecord
  2
NAME
 70
     0
 62
    20
  6
CONTINUOUS
370
    -3
390
1DB23
  0
LAYER
  5
1DB4A
330
1DB16
100
AcDbSymbolTableRecord
100
AcDbLayerTableRecord
  2
A-PL
 70
     0
 62
     1
  6
CONTINUOUS
370
    -3
390
1DB23
  0
LAYER
  5
1DB4B
330
1DB16
100
AcDbSymbolTableRecord
100
AcDbLayerTableRecord
  2
BOLT
 70
     0
 62
     4
  6
CONTINUOUS
370
    -3
390
1DB23
  0
LAYER
  5
1DB4C
330
1DB16
100
AcDbSymbolTableRecord
100
AcDbLayerTableRecord
  2
YODOROGO
 70
     0
 62
   130
  6
CONTINUOUS
370
    -3
390
1DB23
  0
LAYER
  5
1DB4D
330
1DB16
100
AcDbSymbolTableRecord
100
AcDbLayerTableRecord
  2
WAKUSEN-01
 70
     0
 62
    50
  6
CONTINUOUS
370
    -3
390
1DB23
  0
LAYER
  5
1DB4E
330
1DB16
100
AcDbSymbolTableRecord
100
AcDbLayerTableRecord
  2
WAKUSEN-02
 70
     0
 62
   130
  6
CONTINUOUS
370
    -3
390
1DB23
  0
LAYER
  5
1DB4F
330
1DB16
100
AcDbSymbolTableRecord
100
AcDbLayerTableRecord
  2
WAKUMOJI-01
 70
     0
 62
   130
  6
CONTINUOUS
370
    -3
390
1DB23
  0
ENDTAB
  0
TABLE
  2
STYLE
  5
1DB17
330
0
100
AcDbSymbolTable
 70
     5
  0
STYLE
  5
1DB25
330
1DB17
100
AcDbSymbolTableRecord
100
AcDbTextStyleTableRecord
  2
STANDARD
 70
     0
 40
3.0
 41
1.0
 50
0.0
 71
     0
 42
0.2
  3
ROMANS
  4
EXTFONT
  0
STYLE
  5
1DB37
330
1DB17
100
AcDbSymbolTableRecord
100
AcDbTextStyleTableRecord
  2
00
 70
     0
 40
0.0
 41
0.6666666666666666
 50
0.0
 71
     0
 42
0.2
  3
ROMANS
  4
BIGFONT
  0
STYLE
  5
1DB50
330
1DB17
100
AcDbSymbolTableRecord
100
AcDbTextStyleTableRecord
  2
01
 70
     0
 40
3.0
 41
1.0
 50
0.0
 71
     0
 42
0.2
  3
ROMANS
  4
BIGFONT
  0
STYLE
  5
1DB51
330
1DB17
100
AcDbSymbolTableRecord
100
AcDbTextStyleTableRecord
  2
WAKUMOJI
 70
     0
 40
3.0
 41
1.0
 50
0.0
 71
     0
 42
3.0
  3
SIMPLEX
  4
BIGFONT
  0
STYLE
  5
1DB52
330
1DB17
100
AcDbSymbolTableRecord
100
AcDbTextStyleTableRecord
  2
FILENAME
 70
     0
 40
100.0
 41
1.0
 50
0.0
 71
     0
 42
100.0
  3
romans.shx
  4
bigfont.shx
  0
ENDTAB
  0
TABLE
  2
VIEW
  5
1DB1A
330
0
100
AcDbSymbolTable
 70
     0
  0
ENDTAB
  0
TABLE
  2
UCS
  5
1DB1B
330
0
100
AcDbSymbolTable
 70
     0
  0
ENDTAB
  0
TABLE
  2
APPID
  5
1DB1D
330
0
100
AcDbSymbolTable
 70
     4
  0
APPID
  5
1DB26
330
1DB1D
100
AcDbSymbolTableRecord
100
AcDbRegAppTableRecord
  2
ACAD
 70
     0
  0
APPID
  5
1DB53
330
1DB1D
100
AcDbSymbolTableRecord
100
AcDbRegAppTableRecord
  2
AUTOCAD_POSTSCRIPT_FIGURE
 70
     0
  0
APPID
  5
1DB54
330
1DB1D
100
AcDbSymbolTableRecord
100
AcDbRegAppTableRecord
  2
ACAD_PSEXT
 70
     0
  0
APPID
  5
1DB55
330
1DB1D
100
AcDbSymbolTableRecord
100
AcDbRegAppTableRecord
  2
ACAD_EXEMPT_FROM_CAD_STANDARDS
 70
     0
  0
ENDTAB
  0
TABLE
  2
DIMSTYLE
  5
1DB1E
330
0
100
AcDbSymbolTable
 70
     1
100
AcDbDimStyleTable
 71
     0
  0
DIMSTYLE
105
1DB56
330
1DB1E
100
AcDbSymbolTableRecord
100
AcDbDimStyleTableRecord
  2
SUNPOU
 70
     0
 40
40.0
 41
0.5
 42
1.0
 43
7.0
 44
1.5
 46
3.0
 73
     0
 74
     0
 77
     1
 78
     8
140
3.0
141
0.0
147
1.5
172
     1
173
     1
176
   256
177
   256
178
   256
271
     2
272
     2
279
     2
284
     8
285
     8
286
     8
340
1DB37
  0
ENDTAB
  0
TABLE
  2
BLOCK_RECORD
  5
1DB15
330
0
100
AcDbSymbolTable
 70
    38
  0
BLOCK_RECORD
  5
1DB32
330
1DB15
100
AcDbSymbolTableRecord
100
AcDbBlockTableRecord
  2
*Model_Space
340
1DB35
  0
BLOCK_RECORD
  5
1DB2E
330
1DB15
100
AcDbSymbolTableRecord
100
AcDbBlockTableRecord
  2
*Paper_Space
340
1DB31
  0
BLOCK_RECORD
  5
1DB5B
330
1DB15
100
AcDbSymbolTableRecord
100
AcDbBlockTableRecord
  2
$MODEL_SPACE
340
0
  0
BLOCK_RECORD
  5
1DB5E
330
1DB15
100
AcDbSymbolTableRecord
100
AcDbBlockTableRecord
  2
$PAPER_SPACE
340
0
  0
BLOCK_RECORD
  5
1DB61
330
1DB15
100
AcDbSymbolTableRecord
100
AcDbBlockTableRecord
  2
DOT
340
0
  0
BLOCK_RECORD
  5
1DB69
330
1DB15
100
AcDbSymbolTableRecord
100
AcDbBlockTableRecord
  2
*U3
340
0
  0
BLOCK_RECORD
  5
1DB6D
330
1DB15
100
AcDbSymbolTableRecord
100
AcDbBlockTableRecord
  2
*U4
340
0
  0
BLOCK_RECORD
  5
1DB72
330
1DB15
100
AcDbSymbolTableRecord
100
AcDbBlockTableRecord
  2
*U5
340
0
  0
BLOCK_RECORD
  5
1DB76
330
1DB15
100
AcDbSymbolTableRecord
100
AcDbBlockTableRecord
  2
*U6
340
0
  0
BLOCK_RECORD
  5
1DB7A
330
1DB15
100
AcDbSymbolTableRecord
100
AcDbBlockTableRecord
  2
*U7
340
0
  0
BLOCK_RECORD
  5
1DB7E
330
1DB15
100
AcDbSymbolTableRecord
100
AcDbBlockTableRecord
  2
*U8
340
0
  0
BLOCK_RECORD
  5
1DB82
330
1DB15
100
AcDbSymbolTableRecord
100
AcDbBlockTableRecord
  2
*U9
340
0
  0
BLOCK_RECORD
  5
1DB86
330
1DB15
100
AcDbSymbolTableRecord
100
AcDbBlockTableRecord
  2
*U10
340
0
  0
BLOCK_RECORD
  5
1DB8A
330
1DB15
100
AcDbSymbolTableRecord
100
AcDbBlockTableRecord
  2
*U11
340
0
  0
BLOCK_RECORD
  5
1DB8E
330
1DB15
100
AcDbSymbolTableRecord
100
AcDbBlockTableRecord
  2
*U12
340
0
  0
BLOCK_RECORD
  5
1DB92
330
1DB15
100
AcDbSymbolTableRecord
100
AcDbBlockTableRecord
  2
*U13
340
0
  0
BLOCK_RECORD
  5
1DB96
330
1DB15
100
AcDbSymbolTableRecord
100
AcDbBlockTableRecord
  2
*U14
340
0
  0
BLOCK_RECORD
  5
1DB9A
330
1DB15
100
AcDbSymbolTableRecord
100
AcDbBlockTableRecord
  2
*U15
340
0
  0
BLOCK_RECORD
  5
1DB9E
330
1DB15
100
AcDbSymbolTableRecord
100
AcDbBlockTableRecord
  2
*U16
340
0
  0
BLOCK_RECORD
  5
1DBA2
330
1DB15
100
AcDbSymbolTableRecord
100
AcDbBlockTableRecord
  2
*U17
340
0
  0
BLOCK_RECORD
  5
1DBA6
330
1DB15
100
AcDbSymbolTableRecord
100
AcDbBlockTableRecord
  2
*U18
340
0
  0
BLOCK_RECORD
  5
1DBAA
330
1DB15
100
AcDbSymbolTableRecord
100
AcDbBlockTableRecord
  2
*U19
340
0
  0
BLOCK_RECORD
  5
1DBAE
330
1DB15
100
AcDbSymbolTableRecord
100
AcDbBlockTableRecord
  2
*U20
340
0
  0
BLOCK_RECORD
  5
1DBB2
330
1DB15
100
AcDbSymbolTableRecord
100
AcDbBlockTableRecord
  2
*U21
340
0
  0
BLOCK_RECORD
  5
1DBB6
330
1DB15
100
AcDbSymbolTableRecord
100
AcDbBlockTableRecord
  2
*U22
340
0
  0
BLOCK_RECORD
  5
1DBBA
330
1DB15
100
AcDbSymbolTableRecord
100
AcDbBlockTableRecord
  2
*U23
340
0
  0
BLOCK_RECORD
  5
1DBBE
330
1DB15
100
AcDbSymbolTableRecord
100
AcDbBlockTableRecord
  2
*U24
340
0
  0
BLOCK_RECORD
  5
1DBC2
330
1DB15
100
AcDbSymbolTableRecord
100
AcDbBlockTableRecord
  2
*U25
340
0
  0
BLOCK_RECORD
  5
1DBC6
330
1DB15
100
AcDbSymbolTableRecord
100
AcDbBlockTableRecord
  2
*U26
340
0
  0
BLOCK_RECORD
  5
1DBCA
330
1DB15
100
AcDbSymbolTableRecord
100
AcDbBlockTableRecord
  2
*U27
340
0
  0
BLOCK_RECORD
  5
1DBCE
330
1DB15
100
AcDbSymbolTableRecord
100
AcDbBlockTableRecord
  2
*U28
340
0
  0
BLOCK_RECORD
  5
1DBD2
330
1DB15
100
AcDbSymbolTableRecord
100
AcDbBlockTableRecord
  2
*U29
340
0
  0
BLOCK_RECORD
  5
1DBD6
330
1DB15
100
AcDbSymbolTableRecord
100
AcDbBlockTableRecord
  2
*U30
340
0
  0
BLOCK_RECORD
  5
1DBDA
330
1DB15
100
AcDbSymbolTableRecord
100
AcDbBlockTableRecord
  2
*U31
340
0
  0
BLOCK_RECORD
  5
1DBDE
330
1DB15
100
AcDbSymbolTableRecord
100
AcDbBlockTableRecord
  2
*U32
340
0
  0
BLOCK_RECORD
  5
1DBE2
330
1DB15
100
AcDbSymbolTableRecord
100
AcDbBlockTableRecord
  2
*U33
340
0
  0
BLOCK_RECORD
  5
1DBE6
330
1DB15
100
AcDbSymbolTableRecord
100
AcDbBlockTableRecord
  2
*U34
340
0
  0
BLOCK_RECORD
  5
1DBEA
330
1DB15
100
AcDbSymbolTableRecord
100
AcDbBlockTableRecord
  2
*U35
340
0
  0
BLOCK_RECORD
  5
1DBEE
330
1DB15
100
AcDbSymbolTableRecord
100
AcDbBlockTableRecord
  2
*U36
340
0
  0
ENDTAB
  0
ENDSEC
  0
SECTION
  2
BLOCKS
  0
BLOCK
  5
1DB33
330
1DB32
100
AcDbEntity
  8
0
100
AcDbBlockBegin
  2
*Model_Space
 70
     0
 10
0.0
 20
0.0
 30
0.0
  3
*Model_Space
  1

  0
ENDBLK
  5
1DB34
330
1DB32
100
AcDbEntity
  8
0
100
AcDbBlockEnd
  0
BLOCK
  5
1DB2F
330
1DB2E
100
AcDbEntity
 67
     1
  8
0
100
AcDbBlockBegin
  2
*Paper_Space
 70
     0
 10
0.0
 20
0.0
 30
0.0
  3
*Paper_Space
  1

  0
ENDBLK
  5
1DB30
330
1DB2E
100
AcDbEntity
 67
     1
  8
0
100
AcDbBlockEnd
  0
BLOCK
  5
1DB5C
330
1DB5B
100
AcDbEntity
  8
0
100
AcDbBlockBegin
  2
$MODEL_SPACE
 70
     0
 10
0.0
 20
0.0
 30
0.0
  3
$MODEL_SPACE
  1

  0
ENDBLK
  5
1DB5D
330
1DB5B
100
AcDbEntity
  8
0
100
AcDbBlockEnd
  0
BLOCK
  5
1DB5F
330
1DB5E
100
AcDbEntity
  8
0
100
AcDbBlockBegin
  2
$PAPER_SPACE
 70
     0
 10
0.0
 20
0.0
 30
0.0
  3
$PAPER_SPACE
  1

  0
ENDBLK
  5
1DB60
330
1DB5E
100
AcDbEntity
  8
0
100
AcDbBlockEnd
  0
BLOCK
  5
1DB62
330
1DB61
100
AcDbEntity
  8
0
100
AcDbBlockBegin
  2
DOT
 70
     0
 10
0.0
 20
0.0
 30
0.0
  3
DOT
  1

  0
LWPOLYLINE
  5
1DB63
330
1DB61
100
AcDbEntity
  8
0
  6
ByBlock
 62
     0
100
AcDbPolyline
 90
        2
 70
     1
 43
0.75
 10
-0.375
 20
0.0
 42
1.0
 10
0.375
 20
0.0
 42
1.0
  0
LINE
  5
1DB67
330
1DB61
100
AcDbEntity
  8
0
  6
ByBlock
 62
     0
100
AcDbLine
 10
-0.75
 20
0.0
 30
0.0
 11
-1.5
 21
0.0
 31
0.0
  0
ENDBLK
  5
1DB68
330
1DB61
100
AcDbEntity
  8
0
100
AcDbBlockEnd
  0
BLOCK
  5
1DB6A
330
1DB69
100
AcDbEntity
  8
0
100
AcDbBlockBegin
  2
*U3
 70
     1
 10
0.0
 20
0.0
 30
0.0
  3
*U3
  1

  0
TEXT
  5
1DB6B
330
1DB69
100
AcDbEntity
  8
SUNPOU
100
AcDbText
 10
5322.758536769061
 20
2587.005537262925
 30
0.0
 40
120.0
  1
500
 50
90.0
 41
0.6666666666666666
  7
00
100
AcDbText
  0
ENDBLK
  5
1DB6C
330
1DB69
100
AcDbEntity
  8
0
100
AcDbBlockEnd
  0
BLOCK
  5
1DB6E
330
1DB6D
100
AcDbEntity
  8
0
100
AcDbBlockBegin
  2
*U4
 70
     1
 10
0.0
 20
0.0
 30
0.0
  3
*U4
  1

  0
TEXT
  5
1DB6F
330
1DB6D
100
AcDbEntity
  8
SUNPOU
100
AcDbText
 10
5122.758536769062
 20
3693.152760875373
 30
0.0
 40
120.0
  1
前柱：2365
 50
90.0
 41
0.6666666666666666
  7
00
100
AcDbText
  0
TEXT
  5
1DB70
330
1DB6D
100
AcDbEntity
  8
SUNPOU
100
AcDbText
 10
5322.758536769061
 20
3693.152760875373
 30
0.0
 40
120.0
  1
後柱：2295
 50
90.0
 41
0.6666666666666666
  7
00
100
AcDbText
  0
ENDBLK
  5
1DB71
330
1DB6D
100
AcDbEntity
  8
0
100
AcDbBlockEnd
  0
BLOCK
  5
1DB73
330
1DB72
100
AcDbEntity
  8
0
100
AcDbBlockBegin
  2
*U5
 70
     1
 10
0.0
 20
0.0
 30
0.0
  3
*U5
  1

  0
TEXT
  5
1DB74
330
1DB72
100
AcDbEntity
  8
SUNPOU
100
AcDbText
 10
5602.758536769062
 20
2800.77180849442
 30
0.0
 40
120.0
  1
前柱：2865    後柱：2795
 50
90.0
 41
0.6666666666666666
  7
00
100
AcDbText
  0
ENDBLK
  5
1DB75
330
1DB72
100
AcDbEntity
  8
0
100
AcDbBlockEnd
  0
BLOCK
  5
1DB77
330
1DB76
100
AcDbEntity
  8
0
100
AcDbBlockBegin
  2
*U6
 70
     1
 10
0.0
 20
0.0
 30
0.0
  3
*U6
  1

  0
TEXT
  5
1DB78
330
1DB76
100
AcDbEntity
  8
SUNPOU
100
AcDbText
 10
3445.530852515957
 20
1701.291251548638
 30
0.0
 40
120.0
  1
1050 □
 41
0.6666666666666666
  7
00
100
AcDbText
  0
ENDBLK
  5
1DB79
330
1DB76
100
AcDbEntity
  8
0
100
AcDbBlockEnd
  0
BLOCK
  5
1DB7B
330
1DB7A
100
AcDbEntity
  8
0
100
AcDbBlockBegin
  2
*U7
 70
     1
 10
0.0
 20
0.0
 30
0.0
  3
*U7
  1

  0
TEXT
  5
1DB7C
330
1DB7A
100
AcDbEntity
  8
SUNPOU
100
AcDbText
 10
10444.52250454545
 20
3823.819427542041
 30
0.0
 40
120.0
  1
1064
 50
90.0
 41
0.6666666666666666
  7
00
100
AcDbText
  0
ENDBLK
  5
1DB7D
330
1DB7A
100
AcDbEntity
  8
0
100
AcDbBlockEnd
  0
BLOCK
  5
1DB7F
330
1DB7E
100
AcDbEntity
  8
0
100
AcDbBlockBegin
  2
*U8
 70
     1
 10
0.0
 20
0.0
 30
0.0
  3
*U8
  1

  0
TEXT
  5
1DB80
330
1DB7E
100
AcDbEntity
  8
SUNPOU
100
AcDbText
 10
15187.91679421776
 20
3099.739597635557
 30
0.0
 40
120.0
  1
100
 50
90.0
 41
0.6666666666666666
  7
00
100
AcDbText
  0
ENDBLK
  5
1DB81
330
1DB7E
100
AcDbEntity
  8
0
100
AcDbBlockEnd
  0
BLOCK
  5
1DB83
330
1DB82
100
AcDbEntity
  8
0
100
AcDbBlockBegin
  2
*U9
 70
     1
 10
0.0
 20
0.0
 30
0.0
  3
*U9
  1

  0
TEXT
  5
1DB84
330
1DB82
100
AcDbEntity
  8
SUNPOU
100
AcDbText
 10
15187.91679421776
 20
3399.739597635557
 30
0.0
 40
120.0
  1
100
 50
90.0
 41
0.6666666666666666
  7
00
100
AcDbText
  0
ENDBLK
  5
1DB85
330
1DB82
100
AcDbEntity
  8
0
100
AcDbBlockEnd
  0
BLOCK
  5
1DB87
330
1DB86
100
AcDbEntity
  8
0
100
AcDbBlockBegin
  2
*U10
 70
     1
 10
0.0
 20
0.0
 30
0.0
  3
*U10
  1

  0
TEXT
  5
1DB88
330
1DB86
100
AcDbEntity
  8
SUNPOU
100
AcDbText
 10
15187.91679421776
 20
3930.453883349843
 30
0.0
 40
120.0
  1
506
 50
90.0
 41
0.6666666666666666
  7
00
100
AcDbText
  0
ENDBLK
  5
1DB89
330
1DB86
100
AcDbEntity
  8
0
100
AcDbBlockEnd
  0
BLOCK
  5
1DB8B
330
1DB8A
100
AcDbEntity
  8
0
100
AcDbBlockBegin
  2
*U11
 70
     1
 10
0.0
 20
0.0
 30
0.0
  3
*U11
  1

  0
TEXT
  5
1DB8C
330
1DB8A
100
AcDbEntity
  8
SUNPOU
100
AcDbText
 10
13922.55632433617
 20
2669.739597635555
 30
0.0
 40
120.0
  1
W2 □
 41
0.6666666666666666
  7
00
100
AcDbText
  0
ENDBLK
  5
1DB8D
330
1DB8A
100
AcDbEntity
  8
0
100
AcDbBlockEnd
  0
BLOCK
  5
1DB8F
330
1DB8E
100
AcDbEntity
  8
0
100
AcDbBlockBegin
  2
*U12
 70
     1
 10
0.0
 20
0.0
 30
0.0
  3
*U12
  1

  0
TEXT
  5
1DB90
330
1DB8E
100
AcDbEntity
  8
SUNPOU
100
AcDbText
 10
13922.55632433676
 20
2899.739597635555
 30
0.0
 40
120.0
  1
W1 □
 41
0.6666666666666666
  7
00
100
AcDbText
  0
ENDBLK
  5
1DB91
330
1DB8E
100
AcDbEntity
  8
0
100
AcDbBlockEnd
  0
BLOCK
  5
1DB93
330
1DB92
100
AcDbEntity
  8
0
100
AcDbBlockBegin
  2
*U13
 70
     1
 10
0.0
 20
0.0
 30
0.0
  3
*U13
  1

  0
TEXT
  5
1DB94
330
1DB92
100
AcDbEntity
  8
SUNPOU
100
AcDbText
 10
14772.76599491387
 20
5127.276525871006
 30
0.0
 40
120.0
  1
90
 50
90.0
 41
0.6666666666666666
  7
00
100
AcDbText
  0
ENDBLK
  5
1DB95
330
1DB92
100
AcDbEntity
  8
0
100
AcDbBlockEnd
  0
BLOCK
  5
1DB97
330
1DB96
100
AcDbEntity
  8
0
100
AcDbBlockBegin
  2
*U14
 70
     1
 10
0.0
 20
0.0
 30
0.0
  3
*U14
  1

  0
TEXT
  5
1DB98
330
1DB96
100
AcDbEntity
  8
SUNPOU
100
AcDbText
 10
13948.84203862247
 20
4765.617320595433
 30
0.0
 40
120.0
  1
180
 41
0.6666666666666666
  7
00
100
AcDbText
  0
ENDBLK
  5
1DB99
330
1DB96
100
AcDbEntity
  8
0
100
AcDbBlockEnd
  0
BLOCK
  5
1DB9B
330
1DB9A
100
AcDbEntity
  8
0
100
AcDbBlockBegin
  2
*U15
 70
     1
 10
0.0
 20
0.0
 30
0.0
  3
*U15
  1

  0
TEXT
  5
1DB9C
330
1DB9A
100
AcDbEntity
  8
SUNPOU
100
AcDbText
 10
13366.45858960529
 20
4802.5146211091
 30
0.0
 40
120.0
  1
45
 50
90.0
 41
0.6666666666666666
  7
00
100
AcDbText
  0
ENDBLK
  5
1DB9D
330
1DB9A
100
AcDbEntity
  8
0
100
AcDbBlockEnd
  0
BLOCK
  5
1DB9F
330
1DB9E
100
AcDbEntity
  8
0
100
AcDbBlockBegin
  2
*U16
 70
     1
 10
0.0
 20
0.0
 30
0.0
  3
*U16
  1

  0
TEXT
  5
1DBA0
330
1DB9E
100
AcDbEntity
  8
SUNPOU
100
AcDbText
 10
13366.45858960529
 20
5452.03843063291
 30
0.0
 40
120.0
  1
45
 50
90.0
 41
0.6666666666666666
  7
00
100
AcDbText
  0
ENDBLK
  5
1DBA1
330
1DB9E
100
AcDbEntity
  8
0
100
AcDbBlockEnd
  0
BLOCK
  5
1DBA3
330
1DBA2
100
AcDbEntity
  8
0
100
AcDbBlockBegin
  2
*U17
 70
     1
 10
0.0
 20
0.0
 30
0.0
  3
*U17
  1

  0
TEXT
  5
1DBA4
330
1DBA2
100
AcDbEntity
  8
SUNPOU
100
AcDbText
 10
13483.60394338438
 20
5842.911796040156
 30
0.0
 40
120.0
  1
62.5
 41
0.6666666666666666
  7
00
100
AcDbText
  0
ENDBLK
  5
1DBA5
330
1DBA2
100
AcDbEntity
  8
0
100
AcDbBlockEnd
  0
BLOCK
  5
1DBA7
330
1DBA6
100
AcDbEntity
  8
0
100
AcDbBlockBegin
  2
*U18
 70
     1
 10
0.0
 20
0.0
 30
0.0
  3
*U18
  1

  0
TEXT
  5
1DBA8
330
1DBA6
100
AcDbEntity
  8
SUNPOU
100
AcDbText
 10
14383.60394338438
 20
5842.911796040156
 30
0.0
 40
120.0
  1
62.5
 41
0.6666666666666666
  7
00
100
AcDbText
  0
ENDBLK
  5
1DBA9
330
1DBA6
100
AcDbEntity
  8
0
100
AcDbBlockEnd
  0
BLOCK
  5
1DBAB
330
1DBAA
100
AcDbEntity
  8
0
100
AcDbBlockBegin
  2
*U19
 70
     1
 10
0.0
 20
0.0
 30
0.0
  3
*U19
  1

  0
TEXT
  5
1DBAC
330
1DBAA
100
AcDbEntity
  8
SUNPOU
100
AcDbText
 10
8811.104344101861
 20
1701.291251548638
 30
0.0
 40
120.0
  1
800 □
 41
0.6666666666666666
  7
00
100
AcDbText
  0
ENDBLK
  5
1DBAD
330
1DBAA
100
AcDbEntity
  8
0
100
AcDbBlockEnd
  0
BLOCK
  5
1DBAF
330
1DBAE
100
AcDbEntity
  8
0
100
AcDbBlockBegin
  2
*U20
 70
     1
 10
0.0
 20
0.0
 30
0.0
  3
*U20
  1

  0
TEXT
  5
1DBB0
330
1DBAE
100
AcDbEntity
  8
SUNPOU
100
AcDbText
 10
10724.52250454545
 20
3323.819427542041
 30
0.0
 40
120.0
  1
1564
 50
90.0
 41
0.6666666666666666
  7
00
100
AcDbText
  0
ENDBLK
  5
1DBB1
330
1DBAE
100
AcDbEntity
  8
0
100
AcDbBlockEnd
  0
BLOCK
  5
1DBB3
330
1DBB2
100
AcDbEntity
  8
0
100
AcDbBlockBegin
  2
*U21
 70
     1
 10
0.0
 20
0.0
 30
0.0
  3
*U21
  1

  0
TEXT
  5
1DBB4
330
1DBB2
100
AcDbEntity
  8
SUNPOU
100
AcDbText
 10
10444.52250454545
 20
2587.005537262927
 30
0.0
 40
120.0
  1
500
 50
90.0
 41
0.6666666666666666
  7
00
100
AcDbText
  0
ENDBLK
  5
1DBB5
330
1DBB2
100
AcDbEntity
  8
0
100
AcDbBlockEnd
  0
BLOCK
  5
1DBB7
330
1DBB6
100
AcDbEntity
  8
0
100
AcDbBlockBegin
  2
*U22
 70
     1
 10
0.0
 20
0.0
 30
0.0
  3
*U22
  1

  0
TEXT
  5
1DBB8
330
1DBB6
100
AcDbEntity
  8
SUNPOU
100
AcDbText
 10
5469.250246124049
 20
6987.248005016645
 30
0.0
 40
120.0
  1
89
 41
0.6666666666666666
  7
00
100
AcDbText
  0
ENDBLK
  5
1DBB9
330
1DBB6
100
AcDbEntity
  8
0
100
AcDbBlockEnd
  0
BLOCK
  5
1DBBB
330
1DBBA
100
AcDbEntity
  8
0
100
AcDbBlockBegin
  2
*U23
 70
     1
 10
0.0
 20
0.0
 30
0.0
  3
*U23
  1

  0
TEXT
  5
1DBBC
330
1DBBA
100
AcDbEntity
  8
SUNPOU
100
AcDbText
 10
8043.012150885955
 20
6987.248005016645
 30
0.0
 40
120.0
  1
4800
 41
0.6666666666666666
  7
00
100
AcDbText
  0
ENDBLK
  5
1DBBD
330
1DBBA
100
AcDbEntity
  8
0
100
AcDbBlockEnd
  0
BLOCK
  5
1DBBF
330
1DBBE
100
AcDbEntity
  8
0
100
AcDbBlockBegin
  2
*U24
 70
     1
 10
0.0
 20
0.0
 30
0.0
  3
*U24
  1

  0
TEXT
  5
1DBC0
330
1DBBE
100
AcDbEntity
  8
SUNPOU
100
AcDbText
 10
10772.96453183833
 20
6987.248005016645
 30
0.0
 40
120.0
  1
89
 41
0.6666666666666666
  7
00
100
AcDbText
  0
ENDBLK
  5
1DBC1
330
1DBBE
100
AcDbEntity
  8
0
100
AcDbBlockEnd
  0
BLOCK
  5
1DBC3
330
1DBC2
100
AcDbEntity
  8
0
100
AcDbBlockBegin
  2
*U25
 70
     1
 10
0.0
 20
0.0
 30
0.0
  3
*U25
  1

  0
TEXT
  5
1DBC4
330
1DBC2
100
AcDbEntity
  8
SUNPOU
100
AcDbText
 10
7972.316180190232
 20
9235.196722965929
 30
0.0
 40
120.0
  1
対角 5200
 50
337.3801350519473
 41
0.6666666666666666
  7
00
100
AcDbText
  0
ENDBLK
  5
1DBC5
330
1DBC2
100
AcDbEntity
  8
0
100
AcDbBlockEnd
  0
BLOCK
  5
1DBC7
330
1DBC6
100
AcDbEntity
  8
0
100
AcDbBlockBegin
  2
*U26
 70
     1
 10
0.0
 20
0.0
 30
0.0
  3
*U26
  1

  0
TEXT
  5
1DBC8
330
1DBC6
100
AcDbEntity
  8
SUNPOU
100
AcDbText
 10
6843.012150885954
 20
10837.24800501664
 30
0.0
 40
120.0
  1
2400
 41
0.6666666666666666
  7
00
100
AcDbText
  0
ENDBLK
  5
1DBC9
330
1DBC6
100
AcDbEntity
  8
0
100
AcDbBlockEnd
  0
BLOCK
  5
1DBCB
330
1DBCA
100
AcDbEntity
  8
0
100
AcDbBlockBegin
  2
*U27
 70
     1
 10
0.0
 20
0.0
 30
0.0
  3
*U27
  1

  0
TEXT
  5
1DBCC
330
1DBCA
100
AcDbEntity
  8
SUNPOU
100
AcDbText
 10
9243.012150885952
 20
10837.24800501664
 30
0.0
 40
120.0
  1
2400
 41
0.6666666666666666
  7
00
100
AcDbText
  0
ENDBLK
  5
1DBCD
330
1DBCA
100
AcDbEntity
  8
0
100
AcDbBlockEnd
  0
BLOCK
  5
1DBCF
330
1DBCE
100
AcDbEntity
  8
0
100
AcDbBlockBegin
  2
*U28
 70
     1
 10
0.0
 20
0.0
 30
0.0
  3
*U28
  1

  0
TEXT
  5
1DBD0
330
1DBCE
100
AcDbEntity
  8
SUNPOU
100
AcDbText
 10
11524.39310326689
 20
7762.962290730934
 30
0.0
 40
120.0
  1
400
 50
90.0
 41
0.6666666666666666
  7
00
100
AcDbText
  0
ENDBLK
  5
1DBD1
330
1DBCE
100
AcDbEntity
  8
0
100
AcDbBlockEnd
  0
BLOCK
  5
1DBD3
330
1DBD2
100
AcDbEntity
  8
0
100
AcDbBlockBegin
  2
*U29
 70
     1
 10
0.0
 20
0.0
 30
0.0
  3
*U29
  1

  0
TEXT
  5
1DBD4
330
1DBD2
100
AcDbEntity
  8
SUNPOU
100
AcDbText
 10
11524.39310326689
 20
8924.867052635699
 30
0.0
 40
120.0
  1
2000
 50
90.0
 41
0.6666666666666666
  7
00
100
AcDbText
  0
ENDBLK
  5
1DBD5
330
1DBD2
100
AcDbEntity
  8
0
100
AcDbBlockEnd
  0
BLOCK
  5
1DBD7
330
1DBD6
100
AcDbEntity
  8
0
100
AcDbBlockBegin
  2
*U30
 70
     1
 10
0.0
 20
0.0
 30
0.0
  3
*U30
  1

  0
TEXT
  5
1DBD8
330
1DBD6
100
AcDbEntity
  8
SUNPOU
100
AcDbText
 10
11524.39310326689
 20
10385.81943358807
 30
0.0
 40
120.0
  1
240
 50
90.0
 41
0.6666666666666666
  7
00
100
AcDbText
  0
ENDBLK
  5
1DBD9
330
1DBD6
100
AcDbEntity
  8
0
100
AcDbBlockEnd
  0
BLOCK
  5
1DBDB
330
1DBDA
100
AcDbEntity
  8
0
100
AcDbBlockBegin
  2
*U31
 70
     1
 10
0.0
 20
0.0
 30
0.0
  3
*U31
  1

  0
TEXT
  5
1DBDC
330
1DBDA
100
AcDbEntity
  8
SUNPOU
100
AcDbText
 10
11804.39310326689
 20
8844.867052635697
 30
0.0
 40
120.0
  1
2640
 50
90.0
 41
0.6666666666666666
  7
00
100
AcDbText
  0
ENDBLK
  5
1DBDD
330
1DBDA
100
AcDbEntity
  8
0
100
AcDbBlockEnd
  0
BLOCK
  5
1DBDF
330
1DBDE
100
AcDbEntity
  8
0
100
AcDbBlockBegin
  2
*U32
 70
     1
 10
0.0
 20
0.0
 30
0.0
  3
*U32
  1

  0
TEXT
  5
1DBE0
330
1DBDE
100
AcDbEntity
  8
SUNPOU
100
AcDbText
 10
8043.012150885955
 20
6707.248005016644
 30
0.0
 40
120.0
  1
4978
 41
0.6666666666666666
  7
00
100
AcDbText
  0
ENDBLK
  5
1DBE1
330
1DBDE
100
AcDbEntity
  8
0
100
AcDbBlockEnd
  0
BLOCK
  5
1DBE3
330
1DBE2
100
AcDbEntity
  8
0
100
AcDbBlockBegin
  2
*U33
 70
     1
 10
0.0
 20
0.0
 30
0.0
  3
*U33
  1

  0
TEXT
  5
1DBE4
330
1DBE2
100
AcDbEntity
  8
SUNPOU
100
AcDbText
 10
3445.530852515957
 20
1421.291251548638
 30
0.0
 40
120.0
  1
1150 □
 41
0.6666666666666666
  7
00
100
AcDbText
  0
ENDBLK
  5
1DBE5
330
1DBE2
100
AcDbEntity
  8
0
100
AcDbBlockEnd
  0
BLOCK
  5
1DBE7
330
1DBE6
100
AcDbEntity
  8
0
100
AcDbBlockBegin
  2
*U34
 70
     1
 10
0.0
 20
0.0
 30
0.0
  3
*U34
  1

  0
TEXT
  5
1DBE8
330
1DBE6
100
AcDbEntity
  8
SUNPOU
100
AcDbText
 10
5322.758536769064
 20
1704.148394405781
 30
0.0
 40
120.0
  1
100
 50
90.0
 41
0.6666666666666666
  7
00
100
AcDbText
  0
ENDBLK
  5
1DBE9
330
1DBE6
100
AcDbEntity
  8
0
100
AcDbBlockEnd
  0
BLOCK
  5
1DBEB
330
1DBEA
100
AcDbEntity
  8
0
100
AcDbBlockBegin
  2
*U35
 70
     1
 10
0.0
 20
0.0
 30
0.0
  3
*U35
  1

  0
TEXT
  5
1DBEC
330
1DBEA
100
AcDbEntity
  8
SUNPOU
100
AcDbText
 10
8811.104344101861
 20
1421.291251548638
 30
0.0
 40
120.0
  1
900 □
 41
0.6666666666666666
  7
00
100
AcDbText
  0
ENDBLK
  5
1DBED
330
1DBEA
100
AcDbEntity
  8
0
100
AcDbBlockEnd
  0
BLOCK
  5
1DBEF
330
1DBEE
100
AcDbEntity
  8
0
100
AcDbBlockBegin
  2
*U36
 70
     1
 10
0.0
 20
0.0
 30
0.0
  3
*U36
  1

  0
TEXT
  5
1DBF0
330
1DBEE
100
AcDbEntity
  8
SUNPOU
100
AcDbText
 10
10444.52250454545
 20
1704.148394405782
 30
0.0
 40
120.0
  1
100
 50
90.0
 41
0.6666666666666666
  7
00
100
AcDbText
  0
ENDBLK
  5
1DBF1
330
1DBEE
100
AcDbEntity
  8
0
100
AcDbBlockEnd
  0
ENDSEC
  0
SECTION
  2
ENTITIES
  0
LINE
  5
1DBF2
330
1DB32
100
AcDbEntity
  8
SUNPOU
100
AcDbLine
 10
2318.007042992147
 20
3201.291251548639
 30
0.0
 11
1907.14905701726
 21
3201.291251548639
 31
0.0
  0
TEXT
  5
1DBF3
330
1DB32
100
AcDbEntity
  8
HIKIDASHI
100
AcDbText
 10
1627.310137220892
 20
2773.930740029555
 30
0.0
 40
120.0
  1
10
 41
0.6666666666666666
  7
00
 72
     2
 11
1768.262518173273
 21
2773.930740029555
 31
0.0
100
AcDbText
  0
LINE
  5
1DBF4
330
1DB32
100
AcDbEntity
  8
HIKIDASHI
100
AcDbLine
 10
1299.766705890549
 20
2713.930740029555
 30
0.0
 11
2353.470305496507
 21
2713.930740029555
 31
0.0
  0
TEXT
  5
1DBF5
330
1DB32
100
AcDbEntity
  8
HIKIDASHI
100
AcDbText
 10
1330.134416421954
 20
2773.930740029555
 30
0.0
 40
120.0
  1
鉄筋
  7
01
 72
     2
 11
1586.134416421954
 21
2773.930740029555
 31
0.0
100
AcDbText
  0
TEXT
  5
1DBF6
330
1DB32
100
AcDbEntity
  8
HIKIDASHI
100
AcDbText
 10
1982.814346852833
 20
2773.930740029555
 30
0.0
 40
120.0
  1
350
 41
0.6666666666666666
  7
00
 72
     2
 11
2199.957203995691
 21
2773.930740029555
 31
0.0
100
AcDbText
  0
TEXT
  5
1DBF7
330
1DB32
100
AcDbEntity
  8
HIKIDASHI
100
AcDbText
 10
1893.621354263342
 20
2793.509571745363
 30
0.0
 40
120.0
  1
x
 41
0.6666666666666666
  7
00
 72
     1
 11
1926.002306644295
 21
2853.509571745363
 31
0.0
100
AcDbText
 73
     2
  0
TEXT
  5
1DBF8
330
1DB32
100
AcDbEntity
  8
HIKIDASHI
100
AcDbText
 10
1807.476313453211
 20
2792.578404610831
 30
0.0
 40
119.9999987999998
  1
%%c 
 41
0.6700000000000001
  7
00
100
AcDbText
  0
ARC
  5
1DBF9
330
1DB32
100
AcDbEntity
  8
HIKIDASHI
100
AcDbCircle
 10
2196.568890302442
 20
2858.946460700007
 30
0.0
 40
100.0000000000144
100
AcDbArc
 50
301.7712278331194
 51
15.14038701493228
  0
ARC
  5
1DBFA
330
1DB32
100
AcDbEntity
  8
HIKIDASHI
100
AcDbCircle
 10
2366.45971293519
 20
2858.946460700012
 30
0.0
 40
99.99999999999772
100
AcDbArc
 50
164.8596129850677
 51
238.2287721668805
  0
ARC
  5
1DBFB
330
1DB32
100
AcDbEntity
  8
HIKIDASHI
100
AcDbCircle
 10
2281.514301618823
 20
2881.930740029551
 30
0.0
 40
11.99999999997096
100
AcDbArc
 50
15.14038701513348
 51
164.8596129850677
  0
LINE
  5
1DBFC
330
1DB32
100
AcDbEntity
  8
SUNPOU
100
AcDbLine
 10
1983.844446360308
 20
3339.508905992636
 30
0.0
 11
2063.644446360311
 21
3201.291251548639
 31
0.0
  0
LINE
  5
1DBFD
330
1DB32
100
AcDbEntity
  8
SUNPOU
100
AcDbLine
 10
2143.444446360299
 20
3339.508905992636
 30
0.0
 11
1983.844446360308
 21
3339.508905992636
 31
0.0
  0
LINE
  5
1DBFE
330
1DB32
100
AcDbEntity
  8
SUNPOU
100
AcDbLine
 10
2063.644446360311
 20
3201.291251548639
 30
0.0
 11
2143.444446360299
 21
3339.508905992636
 31
0.0
  0
TEXT
  5
1DBFF
330
1DB32
100
AcDbEntity
  8
SUNPOU
100
AcDbText
 10
1968.406351122215
 20
3395.259116879223
 30
0.0
 40
120.0
  1
G.L
 41
0.6666666666666666
  7
00
 72
     4
 11
2063.644446360311
 21
3455.259116879224
 31
0.0
100
AcDbText
  0
LINE
  5
1DC00
330
1DB32
100
AcDbEntity
  8
HASHIRA
100
AcDbLine
 10
3753.007042992147
 20
2201.291251548639
 30
0.0
 11
3753.007042992147
 21
3355.538553909656
 31
0.0
  0
LINE
  5
1DC01
330
1DB32
100
AcDbEntity
  8
HASHIRA
100
AcDbLine
 10
3583.007042992147
 20
2201.291251548639
 30
0.0
 11
3583.007042992147
 21
3357.470330796255
 31
0.0
  0
LINE
  5
1DC02
330
1DB32
100
AcDbEntity
  8
1PL-L1
100
AcDbLine
 10
3668.007042992147
 20
2001.291251548638
 30
0.0
 11
3668.007042992147
 21
4826.34760353544
 31
0.0
  0
TEXT
  5
1DC03
330
1DB32
100
AcDbEntity
  8
HIKIDASHI
100
AcDbText
 10
3816.558144854207
 20
991.3418289660839
 30
0.0
 40
180.0
  1
断 面
  7
01
100
AcDbText
  0
TEXT
  5
1DC04
330
1DB32
100
AcDbEntity
  8
HIKIDASHI
100
AcDbText
 10
2999.897971347644
 20
991.3418289660839
 30
0.0
 40
180.0
  1
A  ~  A'
 41
0.6700000000000001
  7
00
100
AcDbText
  0
LINE
  5
1DC05
330
1DB32
100
AcDbEntity
  8
HASHIRA
100
AcDbLine
 10
3753.007042992147
 20
3504.555581661191
 30
0.0
 11
3753.007042992147
 21
4766.347603535439
 31
0.0
  0
LINE
  5
1DC06
330
1DB32
100
AcDbEntity
  8
HASHIRA
100
AcDbLine
 10
3583.007042992147
 20
3507.191860922405
 30
0.0
 11
3583.007042992147
 21
4766.347603535439
 31
0.0
  0
LINE
  5
1DC07
330
1DB32
100
AcDbEntity
  8
HASHIRA
100
AcDbLine
 10
3583.007042992147
 20
4766.347603535436
 30
0.0
 11
3753.007042992147
 21
4766.347603535439
 31
0.0
  0
LINE
  5
1DC08
330
1DB32
100
AcDbEntity
  8
HIKIDASHI
100
AcDbLine
 10
3023.035613466563
 20
4356.407073822178
 30
0.0
 11
3236.003257992255
 21
4356.407073822178
 31
0.0
  0
TEXT
  5
1DC09
330
1DB32
100
AcDbEntity
  8
HIKIDASHI
100
AcDbText
 10
3084.003257992256
 20
4416.407073822178
 30
0.0
 40
120.0
  1
柱
  7
01
 72
     2
 11
3196.003257992256
 21
4416.407073822178
 31
0.0
100
AcDbText
  0
LINE
  5
1DC0A
330
1DB32
100
AcDbEntity
  8
U1
  6
HIDE-M
 62
     6
100
AcDbLine
 10
3583.007042992147
 20
2441.291251548639
 30
0.0
 11
3753.007042992147
 21
2441.291251548639
 31
0.0
  0
LINE
  5
1DC0B
330
1DB32
100
AcDbEntity
  8
U1
  6
HIDE-M
 62
     6
100
AcDbLine
 10
3583.007042992147
 20
2461.291251548639
 30
0.0
 11
3753.007042992147
 21
2461.291251548639
 31
0.0
  0
LINE
  5
1DC0C
330
1DB32
100
AcDbEntity
  8
U3
100
AcDbLine
 10
4704.360027381277
 20
3201.291251548639
 30
0.0
 11
3964.360027381276
 21
2461.291251548639
 31
0.0
  0
LINE
  5
1DC0D
330
1DB32
100
AcDbEntity
  8
U3
100
AcDbLine
 10
4718.007042992147
 20
3158.369724664551
 30
0.0
 11
3760.928569876196
 21
2201.291251548639
 31
0.0
  0
LINE
  5
1DC0E
330
1DB32
100
AcDbEntity
  8
U3
100
AcDbLine
 10
4026.089684551749
 20
3201.291251548639
 30
0.0
 11
3753.007042992147
 21
2928.208609989029
 31
0.0
  0
LINE
  5
1DC0F
330
1DB32
100
AcDbEntity
  8
U3
100
AcDbLine
 10
4082.658227046719
 20
3201.291251548639
 30
0.0
 11
3753.007042992147
 21
2871.640067494081
 31
0.0
  0
LINE
  5
1DC10
330
1DB32
100
AcDbEntity
  8
U3
100
AcDbLine
 10
4139.226769541638
 20
3201.291251548639
 30
0.0
 11
3753.007042992147
 21
2815.071524999163
 31
0.0
  0
LINE
  5
1DC11
330
1DB32
100
AcDbEntity
  8
U3
100
AcDbLine
 10
3803.850096760303
 20
3201.291251548639
 30
0.0
 11
3753.007042992147
 21
3150.448197780489
 31
0.0
  0
LINE
  5
1DC12
330
1DB32
100
AcDbEntity
  8
U3
100
AcDbLine
 10
4368.983354599929
 20
3201.291251548639
 30
0.0
 11
3753.007042992147
 21
2585.314939940851
 31
0.0
  0
LINE
  5
1DC13
330
1DB32
100
AcDbEntity
  8
U3
100
AcDbLine
 10
4425.55189709489
 20
3201.291251548639
 30
0.0
 11
3753.007042992147
 21
2528.746397445917
 31
0.0
  0
LINE
  5
1DC14
330
1DB32
100
AcDbEntity
  8
U3
100
AcDbLine
 10
4482.120439589824
 20
3201.291251548639
 30
0.0
 11
3753.007042992147
 21
2472.177854950999
 31
0.0
  0
LINE
  5
1DC15
330
1DB32
100
AcDbEntity
  8
U3
100
AcDbLine
 10
3583.007042992147
 20
3093.585282770371
 30
0.0
 11
2690.713011770414
 21
2201.291251548639
 31
0.0
  0
LINE
  5
1DC16
330
1DB32
100
AcDbEntity
  8
U3
100
AcDbLine
 10
3583.007042992147
 20
3037.01674027542
 30
0.0
 11
2747.281554265326
 21
2201.291251548639
 31
0.0
  0
LINE
  5
1DC17
330
1DB32
100
AcDbEntity
  8
U3
100
AcDbLine
 10
3583.007042992147
 20
2980.448197780496
 30
0.0
 11
2803.850096760244
 21
2201.291251548639
 31
0.0
  0
LINE
  5
1DC18
330
1DB32
100
AcDbEntity
  8
U3
100
AcDbLine
 10
3468.473423978953
 20
3201.291251548639
 30
0.0
 11
2618.007042992147
 21
2350.824870561872
 31
0.0
  0
LINE
  5
1DC19
330
1DB32
100
AcDbEntity
  8
U3
100
AcDbLine
 10
3133.096751197606
 20
3201.291251548639
 30
0.0
 11
2618.007042992147
 21
2686.201543343198
 31
0.0
  0
LINE
  5
1DC1A
330
1DB32
100
AcDbEntity
  8
U3
100
AcDbLine
 10
3076.528208702686
 20
3201.291251548639
 30
0.0
 11
2618.007042992147
 21
2742.770085838122
 31
0.0
  0
LINE
  5
1DC1B
330
1DB32
100
AcDbEntity
  8
U3
100
AcDbLine
 10
3019.959666207723
 20
3201.291251548639
 30
0.0
 11
2618.007042992147
 21
2799.338628333059
 31
0.0
  0
LINE
  5
1DC1C
330
1DB32
100
AcDbEntity
  8
U3
100
AcDbLine
 10
3355.336338989072
 20
3201.291251548639
 30
0.0
 11
2618.007042992147
 21
2463.961955551713
 31
0.0
  0
LINE
  5
1DC1D
330
1DB32
100
AcDbEntity
  8
U3
100
AcDbLine
 10
3411.904881484029
 20
3201.291251548639
 30
0.0
 11
2618.007042992147
 21
2407.393413056787
 31
0.0
  0
LINE
  5
1DC1E
330
1DB32
100
AcDbEntity
  8
U1
100
AcDbLine
 10
2618.007042992147
 20
2201.291251548639
 30
0.0
 11
2618.007042992147
 21
3201.291251548639
 31
0.0
  0
LINE
  5
1DC1F
330
1DB32
100
AcDbEntity
  8
U3
100
AcDbLine
 10
3583.007042992147
 20
2645.071524999169
 30
0.0
 11
3399.226769541609
 21
2461.291251548639
 31
0.0
  0
LINE
  5
1DC20
330
1DB32
100
AcDbEntity
  8
U3
100
AcDbLine
 10
3583.007042992147
 20
2701.640067494089
 30
0.0
 11
3082.658227046675
 21
2201.291251548639
 31
0.0
  0
LINE
  5
1DC21
330
1DB32
100
AcDbEntity
  8
U3
100
AcDbLine
 10
3583.007042992147
 20
2758.208609989029
 30
0.0
 11
3026.089684551756
 21
2201.291251548639
 31
0.0
  0
LINE
  5
1DC22
330
1DB32
100
AcDbEntity
  8
U3
100
AcDbLine
 10
3583.007042992147
 20
2358.746397445925
 30
0.0
 11
3425.551897094855
 21
2201.291251548639
 31
0.0
  0
LINE
  5
1DC23
330
1DB32
100
AcDbEntity
  8
U3
100
AcDbLine
 10
3583.007042992147
 20
2415.314939940851
 30
0.0
 11
3368.983354599935
 21
2201.291251548639
 31
0.0
  0
LINE
  5
1DC24
330
1DB32
100
AcDbEntity
  8
U3
100
AcDbLine
 10
3583.007042992147
 20
2302.177854951009
 30
0.0
 11
3482.120439589773
 21
2201.291251548639
 31
0.0
  0
LINE
  5
1DC25
330
1DB32
100
AcDbEntity
  8
U3
100
AcDbLine
 10
2684.582993426382
 20
3201.291251548639
 30
0.0
 11
2618.007042992147
 21
3134.715301114404
 31
0.0
  0
LINE
  5
1DC26
330
1DB32
100
AcDbEntity
  8
U3
100
AcDbLine
 10
2741.151535921337
 20
3201.291251548639
 30
0.0
 11
2618.007042992147
 21
3078.146758619448
 31
0.0
  0
LINE
  5
1DC27
330
1DB32
100
AcDbEntity
  8
U3
100
AcDbLine
 10
2797.72007841627
 20
3201.291251548639
 30
0.0
 11
2618.007042992147
 21
3021.578216124531
 31
0.0
  0
LINE
  5
1DC28
330
1DB32
100
AcDbEntity
  8
U3
100
AcDbLine
 10
4718.007042992147
 20
3101.801182169627
 30
0.0
 11
3817.497112371114
 21
2201.291251548639
 31
0.0
  0
LINE
  5
1DC29
330
1DB32
100
AcDbEntity
  8
U1
100
AcDbLine
 10
4718.007042992147
 20
2201.291251548639
 30
0.0
 11
4718.007042992147
 21
3201.291251548639
 31
0.0
  0
LINE
  5
1DC2A
330
1DB32
100
AcDbEntity
  8
U3
100
AcDbLine
 10
4718.007042992147
 20
2544.184921596818
 30
0.0
 11
4375.113372943967
 21
2201.291251548639
 31
0.0
  0
LINE
  5
1DC2B
330
1DB32
100
AcDbEntity
  8
U3
100
AcDbLine
 10
4718.007042992147
 20
2487.616379101889
 30
0.0
 11
4431.681915438878
 21
2201.291251548639
 31
0.0
  0
LINE
  5
1DC2C
330
1DB32
100
AcDbEntity
  8
U3
100
AcDbLine
 10
4718.007042992147
 20
2766.4245093883
 30
0.0
 11
4152.873785152457
 21
2201.291251548639
 31
0.0
  0
LINE
  5
1DC2D
330
1DB32
100
AcDbEntity
  8
U3
100
AcDbLine
 10
4718.007042992147
 20
2822.993051883219
 30
0.0
 11
4096.305242657545
 21
2201.291251548639
 31
0.0
  0
LINE
  5
1DC2E
330
1DB32
100
AcDbEntity
  8
U3
100
AcDbLine
 10
4718.007042992147
 20
2879.561594378163
 30
0.0
 11
4039.736700162626
 21
2201.291251548639
 31
0.0
  0
LINE
  5
1DC2F
330
1DB32
100
AcDbEntity
  8
U3
100
AcDbLine
 10
4718.007042992147
 20
2431.047836606973
 30
0.0
 11
4488.250457933798
 21
2201.291251548639
 31
0.0
  0
LINE
  5
1DC30
330
1DB32
100
AcDbEntity
  8
U1
100
AcDbLine
 10
5018.007042992147
 20
3201.291251548639
 30
0.0
 11
3753.007042992147
 21
3201.291251548639
 31
0.0
  0
LINE
  5
1DC31
330
1DB32
100
AcDbEntity
  8
U1
100
AcDbLine
 10
3583.007042992147
 20
3201.291251548639
 30
0.0
 11
2318.007042992147
 21
3201.291251548639
 31
0.0
  0
LINE
  5
1DC32
330
1DB32
100
AcDbEntity
  8
U3
100
AcDbLine
 10
3379.226769541609
 20
2441.291251548639
 30
0.0
 11
3139.226769541594
 21
2201.291251548639
 31
0.0
  0
LINE
  5
1DC33
330
1DB32
100
AcDbEntity
  8
U3
100
AcDbLine
 10
3944.360027381277
 20
2441.291251548639
 30
0.0
 11
3753.007042992147
 21
2249.938267159504
 31
0.0
  0
LINE
  5
1DC34
330
1DB32
100
AcDbEntity
  8
U3
100
AcDbLine
 10
8904.771010768527
 20
3093.585282770371
 30
0.0
 11
8189.771010768525
 21
2378.585282770364
 31
0.0
  0
LINE
  5
1DC35
330
1DB32
100
AcDbEntity
  8
U3
100
AcDbLine
 10
8904.771010768527
 20
3037.01674027542
 30
0.0
 11
8189.771010768525
 21
2322.016740275444
 31
0.0
  0
LINE
  5
1DC36
330
1DB32
100
AcDbEntity
  8
U3
100
AcDbLine
 10
8904.771010768527
 20
2980.448197780496
 30
0.0
 11
8189.771010768525
 21
2265.448197780524
 31
0.0
  0
LINE
  5
1DC37
330
1DB32
100
AcDbEntity
  8
U3
100
AcDbLine
 10
8790.237391755342
 20
3201.291251548639
 30
0.0
 11
8189.771010768527
 21
2600.824870561854
 31
0.0
  0
LINE
  5
1DC38
330
1DB32
100
AcDbEntity
  8
U3
100
AcDbLine
 10
8677.100306765453
 20
3201.291251548639
 30
0.0
 11
8189.771010768525
 21
2713.96195555171
 31
0.0
  0
LINE
  5
1DC39
330
1DB32
100
AcDbEntity
  8
U3
100
AcDbLine
 10
8733.668849260414
 20
3201.291251548639
 30
0.0
 11
8189.771010768525
 21
2657.393413056773
 31
0.0
  0
LINE
  5
1DC3A
330
1DB32
100
AcDbEntity
  8
U1
100
AcDbLine
 10
8904.771010768534
 20
3201.291251548639
 30
0.0
 11
7889.771010768527
 21
3201.291251548639
 31
0.0
  0
LINE
  5
1DC3B
330
1DB32
100
AcDbEntity
  8
U3
100
AcDbLine
 10
8454.860718973998
 20
3201.291251548639
 30
0.0
 11
8189.771010768527
 21
2936.201543343181
 31
0.0
  0
LINE
  5
1DC3C
330
1DB32
100
AcDbEntity
  8
U3
100
AcDbLine
 10
8398.292176479065
 20
3201.291251548639
 30
0.0
 11
8189.771010768527
 21
2992.770085838104
 31
0.0
  0
LINE
  5
1DC3D
330
1DB32
100
AcDbEntity
  8
U3
100
AcDbLine
 10
8341.723633984102
 20
3201.291251548639
 30
0.0
 11
8189.771010768527
 21
3049.338628333056
 31
0.0
  0
LINE
  5
1DC3E
330
1DB32
100
AcDbEntity
  8
U1
100
AcDbLine
 10
8189.771010768527
 20
2201.291251548639
 30
0.0
 11
8189.771010768527
 21
3201.291251548639
 31
0.0
  0
LINE
  5
1DC3F
330
1DB32
100
AcDbEntity
  8
HIKIDASHI
100
AcDbLine
 10
6871.530673666923
 20
2713.930740029555
 30
0.0
 11
7925.234273272884
 21
2713.930740029555
 31
0.0
  0
TEXT
  5
1DC40
330
1DB32
100
AcDbEntity
  8
HIKIDASHI
100
AcDbText
 10
6901.898384198337
 20
2773.930740029555
 30
0.0
 40
120.0
  1
鉄筋
  7
01
 72
     2
 11
7157.898384198336
 21
2773.930740029555
 31
0.0
100
AcDbText
  0
TEXT
  5
1DC41
330
1DB32
100
AcDbEntity
  8
HIKIDASHI
100
AcDbText
 10
7554.578314629214
 20
2773.930740029555
 30
0.0
 40
120.0
  1
350
 41
0.6666666666666666
  7
00
 72
     2
 11
7771.72117177207
 21
2773.930740029555
 31
0.0
100
AcDbText
  0
TEXT
  5
1DC42
330
1DB32
100
AcDbEntity
  8
HIKIDASHI
100
AcDbText
 10
7379.240281229598
 20
2792.578404610831
 30
0.0
 40
119.9999987999998
  1
%%c 
 41
0.6700000000000001
  7
00
100
AcDbText
  0
TEXT
  5
1DC43
330
1DB32
100
AcDbEntity
  8
HIKIDASHI
100
AcDbText
 10
7199.074104997264
 20
2773.930740029555
 30
0.0
 40
120.0
  1
10
 41
0.6666666666666666
  7
00
 72
     2
 11
7340.026485949644
 21
2773.930740029555
 31
0.0
100
AcDbText
  0
TEXT
  5
1DC44
330
1DB32
100
AcDbEntity
  8
HIKIDASHI
100
AcDbText
 10
7465.385322039717
 20
2793.509571745363
 30
0.0
 40
120.0
  1
x
 41
0.6666666666666666
  7
00
 72
     1
 11
7497.766274420669
 21
2853.509571745363
 31
0.0
100
AcDbText
 73
     2
  0
ARC
  5
1DC45
330
1DB32
100
AcDbEntity
  8
HIKIDASHI
100
AcDbCircle
 10
7853.27826939521
 20
2881.930740029551
 30
0.0
 40
11.99999999997096
100
AcDbArc
 50
15.14038701513348
 51
164.8596129850677
  0
ARC
  5
1DC46
330
1DB32
100
AcDbEntity
  8
HIKIDASHI
100
AcDbCircle
 10
7768.33285807883
 20
2858.946460700007
 30
0.0
 40
100.0000000000144
100
AcDbArc
 50
301.7712278331194
 51
15.14038701493228
  0
ARC
  5
1DC47
330
1DB32
100
AcDbEntity
  8
HIKIDASHI
100
AcDbCircle
 10
7938.223680711579
 20
2858.946460700012
 30
0.0
 40
99.99999999999772
100
AcDbArc
 50
164.8596129850677
 51
238.2287721668805
  0
LINE
  5
1DC48
330
1DB32
100
AcDbEntity
  8
SUNPOU
100
AcDbLine
 10
7889.771010768527
 20
3201.291251548639
 30
0.0
 11
7478.913024793643
 21
3201.291251548639
 31
0.0
  0
LINE
  5
1DC49
330
1DB32
100
AcDbEntity
  8
SUNPOU
100
AcDbLine
 10
7715.20841413668
 20
3339.508905992636
 30
0.0
 11
7555.608414136695
 21
3339.508905992636
 31
0.0
  0
LINE
  5
1DC4A
330
1DB32
100
AcDbEntity
  8
SUNPOU
100
AcDbLine
 10
7555.608414136695
 20
3339.508905992636
 30
0.0
 11
7635.40841413669
 21
3201.291251548639
 31
0.0
  0
LINE
  5
1DC4B
330
1DB32
100
AcDbEntity
  8
SUNPOU
100
AcDbLine
 10
7635.40841413669
 20
3201.291251548639
 30
0.0
 11
7715.20841413668
 21
3339.508905992636
 31
0.0
  0
TEXT
  5
1DC4C
330
1DB32
100
AcDbEntity
  8
SUNPOU
100
AcDbText
 10
7540.170318898595
 20
3395.259116879223
 30
0.0
 40
120.0
  1
G.L
 41
0.6666666666666666
  7
00
 72
     4
 11
7635.40841413669
 21
3455.259116879224
 31
0.0
100
AcDbText
  0
LINE
  5
1DC4D
330
1DB32
100
AcDbEntity
  8
U3
100
AcDbLine
 10
8904.771010768527
 20
2701.640067494089
 30
0.0
 11
8404.422194823053
 21
2201.291251548639
 31
0.0
  0
LINE
  5
1DC4E
330
1DB32
100
AcDbEntity
  8
U3
100
AcDbLine
 10
8904.771010768527
 20
2758.208609989029
 30
0.0
 11
8347.853652328137
 21
2201.291251548639
 31
0.0
  0
LINE
  5
1DC4F
330
1DB32
100
AcDbEntity
  8
U3
100
AcDbLine
 10
8700.990737317987
 20
2441.291251548639
 30
0.0
 11
8460.990737317974
 21
2201.291251548639
 31
0.0
  0
LINE
  5
1DC50
330
1DB32
100
AcDbEntity
  8
HASHIRA
100
AcDbLine
 10
9074.771010768534
 20
2201.291251548639
 30
0.0
 11
9074.771010768534
 21
3355.538553909656
 31
0.0
  0
LINE
  5
1DC51
330
1DB32
100
AcDbEntity
  8
HASHIRA
100
AcDbLine
 10
8904.771010768534
 20
2201.291251548639
 30
0.0
 11
8904.771010768534
 21
3357.470330796255
 31
0.0
  0
LINE
  5
1DC52
330
1DB32
100
AcDbEntity
  8
1PL-L1
100
AcDbLine
 10
8989.771010768526
 20
2001.291251548638
 30
0.0
 11
8989.771010768526
 21
4826.34760353544
 31
0.0
  0
LINE
  5
1DC53
330
1DB32
100
AcDbEntity
  8
U3
100
AcDbLine
 10
9789.771010768525
 20
2908.369724664553
 30
0.0
 11
9082.69253765259
 21
2201.291251548639
 31
0.0
  0
LINE
  5
1DC54
330
1DB32
100
AcDbEntity
  8
U3
100
AcDbLine
 10
8904.771010768527
 20
2358.746397445925
 30
0.0
 11
8747.315864871241
 21
2201.291251548639
 31
0.0
  0
LINE
  5
1DC55
330
1DB32
100
AcDbEntity
  8
U3
100
AcDbLine
 10
8904.771010768527
 20
2415.314939940851
 30
0.0
 11
8690.747322376322
 21
2201.291251548639
 31
0.0
  0
LINE
  5
1DC56
330
1DB32
100
AcDbEntity
  8
U3
100
AcDbLine
 10
8904.771010768527
 20
2302.177854951009
 30
0.0
 11
8803.88440736616
 21
2201.291251548639
 31
0.0
  0
LINE
  5
1DC57
330
1DB32
100
AcDbEntity
  8
U3
100
AcDbLine
 10
9789.771010768527
 20
2851.801182169639
 30
0.0
 11
9139.261080147512
 21
2201.291251548639
 31
0.0
  0
LINE
  5
1DC58
330
1DB32
100
AcDbEntity
  8
U1
100
AcDbLine
 10
9789.771010768527
 20
2201.291251548639
 30
0.0
 11
9789.771010768527
 21
3201.291251548639
 31
0.0
  0
LINE
  5
1DC59
330
1DB32
100
AcDbEntity
  8
U3
100
AcDbLine
 10
9789.771010768527
 20
2294.184921596817
 30
0.0
 11
9696.877340720357
 21
2201.291251548639
 31
0.0
  0
LINE
  5
1DC5A
330
1DB32
100
AcDbEntity
  8
U3
100
AcDbLine
 10
9789.771010768527
 20
2237.616379101892
 30
0.0
 11
9753.445883215274
 21
2201.291251548639
 31
0.0
  0
LINE
  5
1DC5B
330
1DB32
100
AcDbEntity
  8
U3
100
AcDbLine
 10
9789.771010768527
 20
2516.424509388309
 30
0.0
 11
9474.637752928844
 21
2201.291251548639
 31
0.0
  0
LINE
  5
1DC5C
330
1DB32
100
AcDbEntity
  8
U3
100
AcDbLine
 10
9789.771010768527
 20
2572.993051883222
 30
0.0
 11
9418.069210433925
 21
2201.291251548639
 31
0.0
  0
LINE
  5
1DC5D
330
1DB32
100
AcDbEntity
  8
U3
100
AcDbLine
 10
9789.771010768527
 20
2629.561594378158
 30
0.0
 11
9361.500667939006
 21
2201.291251548639
 31
0.0
  0
TEXT
  5
1DC5E
330
1DB32
100
AcDbEntity
  8
HIKIDASHI
100
AcDbText
 10
9138.322112630588
 20
991.3418289660839
 30
0.0
 40
180.0
  1
断 面
  7
01
100
AcDbText
  0
TEXT
  5
1DC5F
330
1DB32
100
AcDbEntity
  8
HIKIDASHI
100
AcDbText
 10
8321.661939124025
 20
991.3418289660839
 30
0.0
 40
180.0
  1
B  ~  B'
 41
0.6700000000000001
  7
00
100
AcDbText
  0
LINE
  5
1DC60
330
1DB32
100
AcDbEntity
  8
HASHIRA
100
AcDbLine
 10
9074.771010768534
 20
3504.555581661191
 30
0.0
 11
9074.771010768534
 21
4766.347603535439
 31
0.0
  0
LINE
  5
1DC61
330
1DB32
100
AcDbEntity
  8
HASHIRA
100
AcDbLine
 10
8904.771010768534
 20
3507.191860922405
 30
0.0
 11
8904.771010768534
 21
4766.347603535439
 31
0.0
  0
LINE
  5
1DC62
330
1DB32
100
AcDbEntity
  8
U1
100
AcDbLine
 10
10139.77101076853
 20
3201.291251548639
 30
0.0
 11
9074.771010768534
 21
3201.291251548639
 31
0.0
  0
LINE
  5
1DC63
330
1DB32
100
AcDbEntity
  8
U3
100
AcDbLine
 10
9789.771010768527
 20
2964.938267159505
 30
0.0
 11
9286.123995157671
 21
2461.291251548639
 31
0.0
  0
LINE
  5
1DC64
330
1DB32
100
AcDbEntity
  8
U3
100
AcDbLine
 10
9690.747322376324
 20
3201.291251548639
 30
0.0
 11
9074.771010768527
 21
2585.314939940851
 31
0.0
  0
LINE
  5
1DC65
330
1DB32
100
AcDbEntity
  8
U3
100
AcDbLine
 10
9747.315864871284
 20
3201.291251548639
 30
0.0
 11
9074.771010768527
 21
2528.746397445917
 31
0.0
  0
LINE
  5
1DC66
330
1DB32
100
AcDbEntity
  8
U3
100
AcDbLine
 10
9803.884407366204
 20
3201.291251548639
 30
0.0
 11
9074.771010768527
 21
2472.177854950999
 31
0.0
  0
LINE
  5
1DC67
330
1DB32
100
AcDbEntity
  8
U3
100
AcDbLine
 10
9347.853652328137
 20
3201.291251548639
 30
0.0
 11
9074.771010768527
 21
2928.208609989029
 31
0.0
  0
LINE
  5
1DC68
330
1DB32
100
AcDbEntity
  8
U3
100
AcDbLine
 10
9404.422194823098
 20
3201.291251548639
 30
0.0
 11
9074.771010768527
 21
2871.640067494081
 31
0.0
  0
LINE
  5
1DC69
330
1DB32
100
AcDbEntity
  8
U3
100
AcDbLine
 10
9460.990737318033
 20
3201.291251548639
 30
0.0
 11
9074.771010768527
 21
2815.071524999163
 31
0.0
  0
LINE
  5
1DC6A
330
1DB32
100
AcDbEntity
  8
U3
100
AcDbLine
 10
9125.61406453668
 20
3201.291251548639
 30
0.0
 11
9074.771010768527
 21
3150.448197780489
 31
0.0
  0
LINE
  5
1DC6B
330
1DB32
100
AcDbEntity
  8
U3
100
AcDbLine
 10
8904.771010768527
 20
2645.071524999169
 30
0.0
 11
8720.990737317988
 21
2461.291251548639
 31
0.0
  0
LINE
  5
1DC6C
330
1DB32
100
AcDbEntity
  8
U3
100
AcDbLine
 10
9266.123995157672
 20
2441.291251548639
 30
0.0
 11
9074.771010768527
 21
2249.938267159504
 31
0.0
  0
LINE
  5
1DC6D
330
1DB32
100
AcDbEntity
  8
U1
  6
HIDE-M
 62
     6
100
AcDbLine
 10
8904.771010768534
 20
2441.291251548639
 30
0.0
 11
9074.771010768534
 21
2441.291251548639
 31
0.0
  0
LINE
  5
1DC6E
330
1DB32
100
AcDbEntity
  8
U1
  6
HIDE-M
 62
     6
100
AcDbLine
 10
8904.771010768534
 20
2461.291251548639
 30
0.0
 11
9074.771010768534
 21
2461.291251548639
 31
0.0
  0
LINE
  5
1DC6F
330
1DB32
100
AcDbEntity
  8
HASHIRA
100
AcDbLine
 10
8904.771010768534
 20
4766.347603535436
 30
0.0
 11
9074.771010768534
 21
4766.347603535439
 31
0.0
  0
TEXT
  5
1DC70
330
1DB32
100
AcDbEntity
  8
HIKIDASHI
100
AcDbText
 10
8261.767225768641
 20
4416.407073822178
 30
0.0
 40
120.0
  1
支柱
  7
01
 72
     2
 11
8517.767225768642
 21
4416.407073822178
 31
0.0
100
AcDbText
  0
LINE
  5
1DC71
330
1DB32
100
AcDbEntity
  8
HIKIDASHI
100
AcDbLine
 10
8221.767225768642
 20
4356.407073822178
 30
0.0
 11
8557.767225768643
 21
4356.407073822178
 31
0.0
  0
TEXT
  5
1DC72
330
1DB32
100
AcDbEntity
  8
LM1
100
AcDbText
 10
514.0
 20
514.0
 30
40.0
 40
120.0
  1
※仮組み用のアンカーボルト（    相当）又はオールアンカー（   相当）等は別途。
 41
0.9
  7
01
 11
514.0
 21
574.0
 31
40.0
100
AcDbText
 73
     2
  0
TEXT
  5
1DC73
330
1DB32
100
AcDbEntity
  8
LM1
100
AcDbText
 10
2319.374123575362
 20
526.238805970148
 30
40.0
 40
95.52238805970148
  1
W ／
 41
0.6700000000000001
  7
00
100
AcDbText
  0
TEXT
  5
1DC74
330
1DB32
100
AcDbEntity
  8
LM1
100
AcDbText
 10
2398.948321637544
 20
554.4303895849878
 30
40.0
 40
71.64179104477613
  1
1
 41
0.6700000000000001
  7
00
100
AcDbText
  0
TEXT
  5
1DC75
330
1DB32
100
AcDbEntity
  8
LM1
100
AcDbText
 10
2492.699827300377
 20
525.6025975523806
 30
40.0
 40
71.64179104477613
  1
2
 41
0.6700000000000001
  7
00
100
AcDbText
  0
TEXT
  5
1DC76
330
1DB32
100
AcDbEntity
  8
LM1
100
AcDbText
 10
4250.461970185308
 20
526.238805970148
 30
40.0
 40
95.52238805970148
  1
C12
 41
0.6700000000000001
  7
00
100
AcDbText
  0
LINE
  5
1DC77
330
1DB32
100
AcDbEntity
  8
BOLT
100
AcDbLine
 10
14331.32695428549
 20
3515.403078593561
 30
0.0
 11
14322.9600029817
 21
3611.037769610383
 31
0.0
  0
LINE
  5
1DC78
330
1DB32
100
AcDbEntity
  8
BOLT
100
AcDbLine
 10
14362.20898992637
 20
3518.104906618748
 30
0.0
 11
14353.84203862246
 21
3613.739597635548
 31
0.0
  0
LINE
  5
1DC79
330
1DB32
100
AcDbEntity
  8
BOLT
100
AcDbLine
 10
14306.35712295956
 20
3515.403078593561
 30
0.0
 11
14314.72407426335
 21
3611.037769610383
 31
0.0
  0
LINE
  5
1DC7A
330
1DB32
100
AcDbEntity
  8
U3
100
AcDbLine
 10
14358.04444790492
 20
3565.705839740484
 30
0.0
 11
14554.01069000991
 21
3369.739597635568
 31
0.0
  0
LINE
  5
1DC7B
330
1DB32
100
AcDbEntity
  8
BOLT
  6
1PL-SL
 62
     6
100
AcDbLine
 10
14318.84203862246
 20
3493.739597635548
 30
0.0
 11
14318.84203862246
 21
3837.739597635561
 31
0.0
  0
LINE
  5
1DC7C
330
1DB32
100
AcDbEntity
  8
U3
100
AcDbLine
 10
14353.84203862246
 20
3626.476791517751
 30
0.0
 11
14610.57923250471
 21
3369.739597635568
 31
0.0
  0
LINE
  5
1DC7D
330
1DB32
100
AcDbEntity
  8
U3
100
AcDbLine
 10
14589.38736279111
 20
3669.739597635568
 30
0.0
 11
14728.84203862246
 21
3530.284921804202
 31
0.0
  0
LINE
  5
1DC7E
330
1DB32
100
AcDbEntity
  8
BOLT
100
AcDbLine
 10
14275.47508731879
 20
3518.104906618748
 30
0.0
 11
14283.84203862246
 21
3613.739597635548
 31
0.0
  0
LINE
  5
1DC7F
330
1DB32
100
AcDbEntity
  8
BOLT
100
AcDbLine
 10
13862.20898992637
 20
3518.104906618748
 30
0.0
 11
13853.84203862247
 21
3613.739597635548
 31
0.0
  0
LINE
  5
1DC80
330
1DB32
100
AcDbEntity
  8
BOLT
100
AcDbLine
 10
13831.3269542855
 20
3515.403078593561
 30
0.0
 11
13822.96000298171
 21
3611.037769610383
 31
0.0
  0
LINE
  5
1DC81
330
1DB32
100
AcDbEntity
  8
BOLT
100
AcDbLine
 10
13775.4750873188
 20
3518.104906618748
 30
0.0
 11
13783.84203862247
 21
3613.739597635548
 31
0.0
  0
LINE
  5
1DC82
330
1DB32
100
AcDbEntity
  8
BOLT
100
AcDbLine
 10
13806.35712295956
 20
3515.403078593561
 30
0.0
 11
13814.72407426335
 21
3611.037769610383
 31
0.0
  0
LINE
  5
1DC83
330
1DB32
100
AcDbEntity
  8
BOLT
  6
1PL-SL
 62
     6
100
AcDbLine
 10
13818.8420386227
 20
3493.739597635548
 30
0.0
 11
13818.8420386227
 21
3837.739597635561
 31
0.0
  0
LINE
  5
1DC84
330
1DB32
100
AcDbEntity
  8
U3
100
AcDbLine
 10
13918.6340172285
 20
3669.739597635568
 30
0.0
 11
14218.6340172285
 21
3369.739597635568
 31
0.0
  0
LINE
  5
1DC85
330
1DB32
100
AcDbEntity
  8
U3
100
AcDbLine
 10
13975.2025597234
 20
3669.739597635568
 30
0.0
 11
14275.2025597234
 21
3369.739597635568
 31
0.0
  0
LINE
  5
1DC86
330
1DB32
100
AcDbEntity
  8
U1
100
AcDbLine
 10
14728.84203862246
 20
3669.739597635554
 30
0.0
 11
14728.84203862246
 21
3069.739597635555
 31
0.0
  0
LINE
  5
1DC87
330
1DB32
100
AcDbEntity
  8
U3
100
AcDbLine
 10
13408.8420386213
 20
3565.346773174868
 30
0.0
 11
13604.44921416067
 21
3369.739597635568
 31
0.0
  0
LINE
  5
1DC88
330
1DB32
100
AcDbEntity
  8
U1
100
AcDbLine
 10
13408.8420386213
 20
3669.739597635554
 30
0.0
 11
13408.8420386213
 21
3069.739597635555
 31
0.0
  0
LINE
  5
1DC89
330
1DB32
100
AcDbEntity
  8
U3
100
AcDbLine
 10
13639.82588694198
 20
3669.739597635568
 30
0.0
 11
13776.76112298876
 21
3532.80436158894
 31
0.0
  0
LINE
  5
1DC8A
330
1DB32
100
AcDbEntity
  8
U3
100
AcDbLine
 10
13583.25734444707
 20
3669.739597635568
 30
0.0
 11
13883.25734444707
 21
3369.739597635568
 31
0.0
  0
LINE
  5
1DC8B
330
1DB32
100
AcDbEntity
  8
U1
100
AcDbLine
 10
12270.66757168817
 20
6030.810120419381
 30
0.0
 11
12270.66757168817
 21
2042.000000000006
 31
0.0
  0
LINE
  5
1DC8C
330
1DB32
100
AcDbEntity
  8
U1
100
AcDbLine
 10
16232.00000000022
 20
2042.000000000006
 30
0.0
 11
16232.00000000022
 21
6030.810120419381
 31
0.0
  0
LINE
  5
1DC8D
330
1DB32
100
AcDbEntity
  8
BOLT
100
AcDbLine
 10
14331.32695428549
 20
3515.403078593561
 30
0.0
 11
14362.20898992637
 21
3518.104906618748
 31
0.0
  0
LINE
  5
1DC8E
330
1DB32
100
AcDbEntity
  8
BOLT
100
AcDbLine
 10
14307.96136050426
 20
3533.739597635547
 30
0.0
 11
14329.7227167408
 21
3533.739597635547
 31
0.0
  0
LINE
  5
1DC8F
330
1DB32
100
AcDbEntity
  8
HATCH
100
AcDbLine
 10
14545.33785423915
 20
3369.739597635568
 30
0.0
 11
14569.2704398029
 21
3328.287143482747
 31
0.0
  0
LINE
  5
1DC90
330
1DB32
100
AcDbEntity
  8
HATCH
100
AcDbLine
 10
14345.33785423916
 20
3369.739597635568
 30
0.0
 11
14369.2704398029
 21
3328.287143482747
 31
0.0
  0
LINE
  5
1DC91
330
1DB32
100
AcDbEntity
  8
HATCH
100
AcDbLine
 10
14145.33785423916
 20
3369.739597635568
 30
0.0
 11
14169.2704398029
 21
3328.287143482747
 31
0.0
  0
LINE
  5
1DC92
330
1DB32
100
AcDbEntity
  8
BOLT
100
AcDbLine
 10
13831.3269542855
 20
3515.403078593561
 30
0.0
 11
13862.20898992637
 21
3518.104906618748
 31
0.0
  0
LINE
  5
1DC93
330
1DB32
100
AcDbEntity
  8
BOLT
100
AcDbLine
 10
13806.35712295956
 20
3515.403078593561
 30
0.0
 11
13775.4750873188
 21
3518.104906618748
 31
0.0
  0
LINE
  5
1DC94
330
1DB32
100
AcDbEntity
  8
BOLT
100
AcDbLine
 10
13829.72271674079
 20
3533.739597635547
 30
0.0
 11
13807.96136050427
 21
3533.739597635547
 31
0.0
  0
LINE
  5
1DC95
330
1DB32
100
AcDbEntity
  8
HATCH
100
AcDbLine
 10
13945.33785423916
 20
3369.739597635568
 30
0.0
 11
13969.2704398029
 21
3328.287143482747
 31
0.0
  0
LINE
  5
1DC96
330
1DB32
100
AcDbEntity
  8
HATCH
100
AcDbLine
 10
13745.33785423916
 20
3369.739597635568
 30
0.0
 11
13769.2704398029
 21
3328.287143482747
 31
0.0
  0
LINE
  5
1DC97
330
1DB32
100
AcDbEntity
  8
U3
100
AcDbLine
 10
13792.99321558862
 20
3516.572268988937
 30
0.0
 11
13939.82588694198
 21
3369.739597635568
 31
0.0
  0
LINE
  5
1DC98
330
1DB32
100
AcDbEntity
  8
BOLT
100
AcDbLine
 10
14306.35712295956
 20
3515.403078593561
 30
0.0
 11
14275.47508731879
 21
3518.104906618748
 31
0.0
  0
LINE
  5
1DC99
330
1DB32
100
AcDbEntity
  8
HATCH
100
AcDbLine
 10
14704.92333539587
 20
3069.739597635555
 30
0.0
 11
14680.99074983224
 21
3111.192051788377
 31
0.0
  0
LINE
  5
1DC9A
330
1DB32
100
AcDbEntity
  8
HATCH
100
AcDbLine
 10
14504.92333539586
 20
3069.739597635555
 30
0.0
 11
14480.99074983224
 21
3111.192051788377
 31
0.0
  0
LINE
  5
1DC9B
330
1DB32
100
AcDbEntity
  8
HATCH
100
AcDbLine
 10
14304.92333539587
 20
3069.739597635555
 30
0.0
 11
14280.99074983224
 21
3111.192051788377
 31
0.0
  0
LINE
  5
1DC9C
330
1DB32
100
AcDbEntity
  8
HATCH
100
AcDbLine
 10
14104.92333539587
 20
3069.739597635555
 30
0.0
 11
14080.99074983224
 21
3111.192051788377
 31
0.0
  0
LINE
  5
1DC9D
330
1DB32
100
AcDbEntity
  8
HATCH
100
AcDbLine
 10
13904.92333539587
 20
3069.739597635555
 30
0.0
 11
13880.99074983224
 21
3111.192051788377
 31
0.0
  0
LINE
  5
1DC9E
330
1DB32
100
AcDbEntity
  8
HATCH
100
AcDbLine
 10
13704.92333539587
 20
3069.739597635555
 30
0.0
 11
13680.99074983224
 21
3111.192051788377
 31
0.0
  0
LINE
  5
1DC9F
330
1DB32
100
AcDbEntity
  8
HATCH
100
AcDbLine
 10
14385.48149646748
 20
3369.739597635568
 30
0.0
 11
14264.23793993762
 21
3069.739597635555
 31
0.0
  0
LINE
  5
1DCA0
330
1DB32
100
AcDbEntity
  8
HATCH
100
AcDbLine
 10
13985.48149646749
 20
3369.739597635568
 30
0.0
 11
13864.23793993762
 21
3069.739597635555
 31
0.0
  0
LINE
  5
1DCA1
330
1DB32
100
AcDbEntity
  8
HATCH
100
AcDbLine
 10
13785.48149646749
 20
3369.739597635568
 30
0.0
 11
13664.23793993762
 21
3069.739597635555
 31
0.0
  0
LINE
  5
1DCA2
330
1DB32
100
AcDbEntity
  8
HATCH
100
AcDbLine
 10
14185.48149646749
 20
3369.739597635568
 30
0.0
 11
14064.23793993762
 21
3069.739597635555
 31
0.0
  0
LINE
  5
1DCA3
330
1DB32
100
AcDbEntity
  8
HATCH
100
AcDbLine
 10
14585.48149646748
 20
3369.739597635568
 30
0.0
 11
14464.23793993762
 21
3069.739597635555
 31
0.0
  0
LINE
  5
1DCA4
330
1DB32
100
AcDbEntity
  8
HATCH
100
AcDbLine
 10
14728.84203862246
 20
3229.593285206174
 30
0.0
 11
14664.23793993762
 21
3069.739597635555
 31
0.0
  0
LINE
  5
1DCA5
330
1DB32
100
AcDbEntity
  8
HATCH
100
AcDbLine
 10
13545.33785423916
 20
3369.739597635568
 30
0.0
 11
13569.2704398029
 21
3328.287143482747
 31
0.0
  0
LINE
  5
1DCA6
330
1DB32
100
AcDbEntity
  8
U3
100
AcDbLine
 10
13408.8420386213
 20
3508.778230679971
 30
0.0
 11
13547.88067166577
 21
3369.739597635568
 31
0.0
  0
LINE
  5
1DCA7
330
1DB32
100
AcDbEntity
  8
HATCH
100
AcDbLine
 10
13504.92333539587
 20
3069.739597635555
 30
0.0
 11
13480.99074983224
 21
3111.192051788377
 31
0.0
  0
LINE
  5
1DCA8
330
1DB32
100
AcDbEntity
  8
HATCH
100
AcDbLine
 10
13585.48149646749
 20
3369.739597635568
 30
0.0
 11
13464.23793993762
 21
3069.739597635555
 31
0.0
  0
TEXT
  5
1DCA9
330
1DB32
100
AcDbEntity
  8
HIKIDASHI
100
AcDbText
 10
13083.52889891838
 20
2102.000000000006
 30
0.0
 40
120.0
  1
W1,W2
 41
0.6666666666666666
  7
01
 72
     2
 11
13445.43366082314
 21
2102.000000000006
 31
0.0
100
AcDbText
  0
TEXT
  5
1DCAA
330
1DB32
100
AcDbEntity
  8
SUNPOU
100
AcDbText
 10
12662.38932121462
 20
1816.183780607337
 30
0.0
 40
120.0
  1
1
 41
0.6700000000000001
  7
01
100
AcDbText
  0
TEXT
  5
1DCAB
330
1DB32
100
AcDbEntity
  8
SUNPOU
100
AcDbText
 10
12514.87742759753
 20
1816.183780607337
 30
0.0
 40
120.0
  1
注　）
  7
01
100
AcDbText
  0
TEXT
  5
1DCAC
330
1DB32
100
AcDbEntity
  8
SUNPOU
100
AcDbText
 10
12662.38932121462
 20
1404.755209178765
 30
0.0
 40
120.0
  1
2
 41
0.6700000000000001
  7
01
100
AcDbText
  0
TEXT
  5
1DCAD
330
1DB32
100
AcDbEntity
  8
SUNPOU
100
AcDbText
 10
12514.87742759753
 20
1404.755209178765
 30
0.0
 40
120.0
  1
注　）
  7
01
100
AcDbText
  0
TEXT
  5
1DCAE
330
1DB32
100
AcDbEntity
  8
SUNPOU
100
AcDbText
 10
12937.33031466708
 20
1816.183780607337
 30
0.0
 40
120.0
  1
寒冷地の場合、凍結深度等を考慮し、実情に
  7
01
100
AcDbText
  0
TEXT
  5
1DCAF
330
1DB32
100
AcDbEntity
  8
SUNPOU
100
AcDbText
 10
12937.33031466708
 20
1404.755209178765
 30
0.0
 40
120.0
  1
その他現地の実情にあわせて設計して下さい。
  7
01
100
AcDbText
  0
TEXT
  5
1DCB0
330
1DB32
100
AcDbEntity
  8
SUNPOU
100
AcDbText
 10
12937.33031466708
 20
1610.469494893048
 30
0.0
 40
120.0
  1
あわせて設計して下さい。
  7
01
100
AcDbText
  0
TEXT
  5
1DCB1
330
1DB32
100
AcDbEntity
  8
HIKIDASHI
100
AcDbText
 10
12758.66250414054
 20
2307.009241267406
 30
0.0
 40
180.0
  1
・オールアンカーで施工した場合
 41
0.9
  7
01
 72
     4
 11
14222.06250414054
 21
2397.009241267406
 31
0.0
100
AcDbText
  0
LINE
  5
1DCB2
330
1DB32
100
AcDbEntity
  8
U1
100
AcDbLine
 10
14728.84203862246
 20
3369.739597635554
 30
0.0
 11
13408.8420386213
 21
3369.739597635554
 31
0.0
  0
LINE
  5
1DCB3
330
1DB32
100
AcDbEntity
  8
U1
100
AcDbLine
 10
14728.84203862246
 20
3069.739597635555
 30
0.0
 11
13408.8420386213
 21
3069.739597635555
 31
0.0
  0
TEXT
  5
1DCB4
330
1DB32
100
AcDbEntity
  8
HIKIDASHI
100
AcDbText
 10
12931.33378584427
 20
2102.000000000006
 30
0.0
 40
120.0
  1
（　　　寸法は、各断面に準ずること。）
  7
01
100
AcDbText
  0
LINE
  5
1DCB5
330
1DB32
100
AcDbEntity
  8
U1
100
AcDbLine
 10
12270.66757168817
 20
2042.000000000006
 30
0.0
 11
16232.00000000022
 21
2042.000000000006
 31
0.0
  0
LINE
  5
1DCB6
330
1DB32
100
AcDbEntity
  8
U1
100
AcDbLine
 10
16232.00000000022
 20
6030.810120419381
 30
0.0
 11
12270.66757168817
 21
6030.810120419381
 31
0.0
  0
TEXT
  5
1DCB7
330
1DB32
100
AcDbEntity
  8
HIKIDASHI
100
AcDbText
 10
16054.89717245735
 20
5704.216827798816
 30
0.0
 40
120.0
  1
N
 41
0.6666666666666666
  7
00
 72
     2
 11
16123.46860102877
 21
5704.216827798816
 31
0.0
100
AcDbText
  0
ARC
  5
1DCB8
330
1DB32
100
AcDbEntity
  8
HIKIDASHI
100
AcDbCircle
 10
16012.00401321158
 20
4785.159667611448
 30
0.0
 40
11.99999999997096
100
AcDbArc
 50
15.14038701513348
 51
164.8596129848664
  0
ARC
  5
1DCB9
330
1DB32
100
AcDbEntity
  8
HIKIDASHI
100
AcDbCircle
 10
15927.05860189511
 20
4762.175388281895
 30
0.0
 40
100.0000000000144
100
AcDbArc
 50
301.7712278331194
 51
15.14038701493228
  0
ARC
  5
1DCBA
330
1DB32
100
AcDbEntity
  8
HIKIDASHI
100
AcDbCircle
 10
16096.94942452781
 20
4762.175388281909
 30
0.0
 40
99.99999999999772
100
AcDbArc
 50
164.8596129850677
 51
238.2287721668805
  0
TEXT
  5
1DCBB
330
1DB32
100
AcDbEntity
  8
HIKIDASHI
100
AcDbText
 10
15624.11106585593
 20
4696.738499327249
 30
0.0
 40
120.0
  1
x
 41
0.6666666666666666
  7
00
 72
     1
 11
15656.49201823688
 21
4756.73849932725
 31
0.0
100
AcDbText
 73
     2
  0
TEXT
  5
1DCBC
330
1DB32
100
AcDbEntity
  8
HIKIDASHI
100
AcDbText
 10
15713.3040584456
 20
4677.159667611451
 30
0.0
 40
120.0
  1
350
 41
0.6666666666666666
  7
00
 72
     2
 11
15930.44691558846
 21
4677.159667611451
 31
0.0
100
AcDbText
  0
TEXT
  5
1DCBD
330
1DB32
100
AcDbEntity
  8
HIKIDASHI
100
AcDbText
 10
15357.7998488136
 20
4677.159667611451
 30
0.0
 40
120.0
  1
10
 41
0.6666666666666666
  7
00
 72
     2
 11
15498.75222976599
 21
4677.159667611451
 31
0.0
100
AcDbText
  0
TEXT
  5
1DCBE
330
1DB32
100
AcDbEntity
  8
HIKIDASHI
100
AcDbText
 10
15537.96602504594
 20
4695.807332192715
 30
0.0
 40
119.9999987999998
  1
%%c 
 41
0.6700000000000001
  7
00
100
AcDbText
  0
TEXT
  5
1DCBF
330
1DB32
100
AcDbEntity
  8
HIKIDASHI
100
AcDbText
 10
15060.62412801466
 20
4677.159667611451
 30
0.0
 40
120.0
  1
鉄筋
  7
01
 72
     2
 11
15316.62412801466
 21
4677.159667611451
 31
0.0
100
AcDbText
  0
LINE
  5
1DCC0
330
1DB32
100
AcDbEntity
  8
HIKIDASHI
100
AcDbLine
 10
15030.25641748321
 20
4617.159667611448
 30
0.0
 11
16083.96001708915
 21
4617.159667611448
 31
0.0
  0
ARC
  5
1DCC1
330
1DB32
100
AcDbEntity
  8
A-PL
100
AcDbCircle
 10
14388.84203862246
 20
5343.46700206148
 30
0.0
 40
40.0
100
AcDbArc
 50
0.0
 51
90.0
  0
ARC
  5
1DCC2
330
1DB32
100
AcDbEntity
  8
A-PL
100
AcDbCircle
 10
14388.84203862246
 20
5063.46700206148
 30
0.0
 40
40.0
100
AcDbArc
 50
270.0
 51
0.0
  0
LINE
  5
1DCC3
330
1DB32
100
AcDbEntity
  8
BOLT
100
AcDbLine
 10
14340.78134885174
 20
5241.467002061583
 30
0.0
 11
14362.720659081
 21
5203.46700206148
 31
0.0
  0
LINE
  5
1DCC4
330
1DB32
100
AcDbEntity
  8
BOLT
100
AcDbLine
 10
14340.78134885174
 20
5165.467002061385
 30
0.0
 11
14362.720659081
 21
5203.46700206148
 31
0.0
  0
LINE
  5
1DCC5
330
1DB32
100
AcDbEntity
  8
A-PL
100
AcDbLine
 10
14428.84203862246
 20
5343.46700206148
 30
0.0
 11
14428.84203862246
 21
5063.46700206148
 31
0.0
  0
LINE
  5
1DCC6
330
1DB32
100
AcDbEntity
  8
A-PL
  6
1PL-S
 62
     6
100
AcDbLine
 10
14318.84203862246
 20
5123.467002061481
 30
0.0
 11
14318.84203862246
 21
5283.46700206148
 31
0.0
  0
ARC
  5
1DCC7
330
1DB32
100
AcDbEntity
  8
BOLT
100
AcDbCircle
 10
14058.84203862247
 20
5514.60963339563
 30
0.0
 40
11.99999999995384
100
AcDbArc
 50
33.5573097616854
 51
146.4426902383145
  0
ARC
  5
1DCC8
330
1DB32
100
AcDbEntity
  8
BOLT
100
AcDbCircle
 10
14058.84203862247
 20
5527.876132556966
 30
0.0
 40
12.00000000000009
100
AcDbArc
 50
213.557309761859
 51
326.4426902381409
  0
ARC
  5
1DCC9
330
1DB32
100
AcDbEntity
  8
BOLT
100
AcDbCircle
 10
14078.84203862246
 20
5514.609633395543
 30
0.0
 40
12.00000000000009
100
AcDbArc
 50
33.55730976185911
 51
146.4426902381408
  0
LINE
  5
1DCCA
330
1DB32
100
AcDbEntity
  8
A-PL
100
AcDbLine
 10
14212.84203862246
 20
5383.46700206148
 30
0.0
 11
14212.84203862246
 21
5373.467002061481
 31
0.0
  0
ARC
  5
1DCCB
330
1DB32
100
AcDbEntity
  8
HASHIRA
100
AcDbCircle
 10
14218.04203862254
 20
5352.667002061469
 30
0.0
 40
20.8
100
AcDbArc
 50
0.0
 51
90.0
  0
ARC
  5
1DCCC
330
1DB32
100
AcDbEntity
  8
A-PL
100
AcDbCircle
 10
14194.84203862259
 20
5341.467002061481
 30
0.0
 40
18.0
100
AcDbArc
 50
180.0
 51
0.0
  0
LINE
  5
1DCCD
330
1DB32
100
AcDbEntity
  8
A-PL
100
AcDbLine
 10
14212.84203862246
 20
5364.267002061482
 30
0.0
 11
14212.84203862246
 21
5341.467002061481
 31
0.0
  0
ARC
  5
1DCCE
330
1DB32
100
AcDbEntity
  8
HASHIRA
100
AcDbCircle
 10
14218.04203862254
 20
5352.667002061469
 30
0.0
 40
11.59999999999999
100
AcDbArc
 50
0.0
 51
90.0
  0
LINE
  5
1DCCF
330
1DB32
100
AcDbEntity
  8
A-PL
100
AcDbLine
 10
14176.84203862259
 20
5363.46700206148
 30
0.0
 11
14176.84203862259
 21
5341.467002061481
 31
0.0
  0
LINE
  5
1DCD0
330
1DB32
100
AcDbEntity
  8
HASHIRA
100
AcDbLine
 10
14098.84203862246
 20
5364.267002061482
 30
0.0
 11
14098.84203862246
 21
5373.467002061481
 31
0.0
  0
LINE
  5
1DCD1
330
1DB32
100
AcDbEntity
  8
HASHIRA
100
AcDbLine
 10
14038.84203862247
 20
5364.267002061482
 30
0.0
 11
14038.84203862247
 21
5373.467002061481
 31
0.0
  0
LINE
  5
1DCD2
330
1DB32
100
AcDbEntity
  8
A-PL
100
AcDbLine
 10
14088.84203862246
 20
5339.467002061472
 30
0.0
 11
14176.95349480258
 21
5339.467002061472
 31
0.0
  0
LINE
  5
1DCD3
330
1DB32
100
AcDbEntity
  8
A-PL
100
AcDbLine
 10
14088.84203862246
 20
5363.46700206148
 30
0.0
 11
14176.84203862259
 21
5363.46700206148
 31
0.0
  0
LINE
  5
1DCD4
330
1DB32
100
AcDbEntity
  8
HASHIRA
100
AcDbLine
 10
14218.04203862254
 20
5364.267002061482
 30
0.0
 11
14088.84203862246
 21
5364.267002061482
 31
0.0
  0
LINE
  5
1DCD5
330
1DB32
100
AcDbEntity
  8
HASHIRA
100
AcDbLine
 10
14218.04203862254
 20
5373.467002061481
 30
0.0
 11
14088.84203862246
 21
5373.467002061481
 31
0.0
  0
LINE
  5
1DCD6
330
1DB32
100
AcDbEntity
  8
HASHIRA
100
AcDbLine
 10
14238.84203862246
 20
5054.267002061482
 30
0.0
 11
14238.84203862246
 21
5173.467002061481
 31
0.0
  0
LINE
  5
1DCD7
330
1DB32
100
AcDbEntity
  8
HASHIRA
100
AcDbLine
 10
14229.64203862264
 20
5054.267002061482
 30
0.0
 11
14229.64203862264
 21
5173.467002061481
 31
0.0
  0
ARC
  5
1DCD8
330
1DB32
100
AcDbEntity
  8
A-PL
100
AcDbCircle
 10
14194.84203862259
 20
5065.46700206148
 30
0.0
 40
18.0
100
AcDbArc
 50
0.0
 51
180.0
  0
LINE
  5
1DCD9
330
1DB32
100
AcDbEntity
  8
A-PL
100
AcDbLine
 10
14212.84203862246
 20
5023.46700206148
 30
0.0
 11
14212.84203862246
 21
5033.46700206148
 31
0.0
  0
LINE
  5
1DCDA
330
1DB32
100
AcDbEntity
  8
A-PL
100
AcDbLine
 10
14176.84203862259
 20
5043.46700206148
 30
0.0
 11
14176.84203862259
 21
5065.46700206148
 31
0.0
  0
LINE
  5
1DCDB
330
1DB32
100
AcDbEntity
  8
A-PL
100
AcDbLine
 10
14212.84203862246
 20
5042.667002061469
 30
0.0
 11
14212.84203862246
 21
5065.46700206148
 31
0.0
  0
ARC
  5
1DCDC
330
1DB32
100
AcDbEntity
  8
HASHIRA
100
AcDbCircle
 10
14218.04203862254
 20
5054.267002061482
 30
0.0
 40
11.59999999999999
100
AcDbArc
 50
270.0
 51
0.0
  0
ARC
  5
1DCDD
330
1DB32
100
AcDbEntity
  8
HASHIRA
100
AcDbCircle
 10
14218.04203862254
 20
5054.267002061482
 30
0.0
 40
20.8
100
AcDbArc
 50
270.0
 51
0.0
  0
LINE
  5
1DCDE
330
1DB32
100
AcDbEntity
  8
HASHIRA
100
AcDbLine
 10
14202.84203862246
 20
5221.867002061474
 30
0.0
 11
14172.64203862252
 21
5221.867002061474
 31
0.0
  0
LINE
  5
1DCDF
330
1DB32
100
AcDbEntity
  8
HASHIRA
100
AcDbLine
 10
14208.84203862246
 20
5212.667002061469
 30
0.0
 11
14172.64203862252
 21
5212.667002061469
 31
0.0
  0
LINE
  5
1DCE0
330
1DB32
100
AcDbEntity
  8
HASHIRA
100
AcDbLine
 10
14202.84203862246
 20
5221.867002061474
 30
0.0
 11
14202.84203862246
 21
5212.667002061469
 31
0.0
  0
LINE
  5
1DCE1
330
1DB32
100
AcDbEntity
  8
HASHIRA
100
AcDbLine
 10
14208.84203862246
 20
5203.46700206148
 30
0.0
 11
14172.64203862252
 21
5203.46700206148
 31
0.0
  0
ARC
  5
1DCE2
330
1DB32
100
AcDbEntity
  8
HASHIRA
100
AcDbCircle
 10
14172.64203862252
 20
5208.067002061471
 30
0.0
 40
4.600000000000001
100
AcDbArc
 50
90.0
 51
270.0
  0
ARC
  5
1DCE3
330
1DB32
100
AcDbEntity
  8
HASHIRA
100
AcDbCircle
 10
14208.84203862246
 20
5233.46700206148
 30
0.0
 40
20.8
100
AcDbArc
 50
270.0
 51
0.0
  0
LINE
  5
1DCE4
330
1DB32
100
AcDbEntity
  8
HASHIRA
100
AcDbLine
 10
14177.2420386225
 20
5212.667002061469
 30
0.0
 11
14177.2420386225
 21
5203.46700206148
 31
0.0
  0
LINE
  5
1DCE5
330
1DB32
100
AcDbEntity
  8
BOLT
100
AcDbLine
 10
14296.90272839332
 20
5241.467002061583
 30
0.0
 11
14274.96341816417
 21
5203.46700206148
 31
0.0
  0
LINE
  5
1DCE6
330
1DB32
100
AcDbEntity
  8
HASHIRA
100
AcDbLine
 10
14208.84203862246
 20
5194.267002061483
 30
0.0
 11
14172.64203862252
 21
5194.267002061483
 31
0.0
  0
ARC
  5
1DCE7
330
1DB32
100
AcDbEntity
  8
HASHIRA
100
AcDbCircle
 10
14172.64203862252
 20
5208.067002061471
 30
0.0
 40
13.8
100
AcDbArc
 50
90.0
 51
270.0
  0
ARC
  5
1DCE8
330
1DB32
100
AcDbEntity
  8
HASHIRA
100
AcDbCircle
 10
14208.84203862246
 20
5233.46700206148
 30
0.0
 40
30.0
100
AcDbArc
 50
270.0
 51
0.0
  0
LINE
  5
1DCE9
330
1DB32
100
AcDbEntity
  8
BOLT
100
AcDbLine
 10
14296.90272839332
 20
5165.467002061385
 30
0.0
 11
14274.96341816417
 21
5203.46700206148
 31
0.0
  0
ARC
  5
1DCEA
330
1DB32
100
AcDbEntity
  8
HASHIRA
100
AcDbCircle
 10
14208.84203862246
 20
5173.467002061481
 30
0.0
 40
20.8
100
AcDbArc
 50
0.0
 51
90.0
  0
ARC
  5
1DCEB
330
1DB32
100
AcDbEntity
  8
HASHIRA
100
AcDbCircle
 10
14208.84203862246
 20
5173.467002061481
 30
0.0
 40
30.0
100
AcDbArc
 50
0.0
 51
90.0
  0
LINE
  5
1DCEC
330
1DB32
100
AcDbEntity
  8
HASHIRA
100
AcDbLine
 10
14098.84203862246
 20
5033.46700206148
 30
0.0
 11
14098.84203862246
 21
5042.667002061469
 31
0.0
  0
LINE
  5
1DCED
330
1DB32
100
AcDbEntity
  8
HASHIRA
100
AcDbLine
 10
14038.84203862247
 20
5033.46700206148
 30
0.0
 11
14038.84203862247
 21
5042.667002061469
 31
0.0
  0
LINE
  5
1DCEE
330
1DB32
100
AcDbEntity
  8
A-PL
100
AcDbLine
 10
14088.84203862246
 20
5067.46700206148
 30
0.0
 11
14176.95349480258
 21
5067.46700206148
 31
0.0
  0
LINE
  5
1DCEF
330
1DB32
100
AcDbEntity
  8
A-PL
100
AcDbLine
 10
14088.84203862246
 20
5043.46700206148
 30
0.0
 11
14176.84203862259
 21
5043.46700206148
 31
0.0
  0
LINE
  5
1DCF0
330
1DB32
100
AcDbEntity
  8
HASHIRA
100
AcDbLine
 10
14088.84203862246
 20
5042.667002061469
 30
0.0
 11
14218.04203862254
 21
5042.667002061469
 31
0.0
  0
LINE
  5
1DCF1
330
1DB32
100
AcDbEntity
  8
HASHIRA
100
AcDbLine
 10
14088.84203862246
 20
5033.46700206148
 30
0.0
 11
14218.04203862254
 21
5033.46700206148
 31
0.0
  0
LINE
  5
1DCF2
330
1DB32
100
AcDbEntity
  8
HASHIRA
100
AcDbLine
 10
14238.84203862246
 20
5233.46700206148
 30
0.0
 11
14238.84203862246
 21
5352.667002061469
 31
0.0
  0
LINE
  5
1DCF3
330
1DB32
100
AcDbEntity
  8
HASHIRA
100
AcDbLine
 10
14229.64203862264
 20
5233.46700206148
 30
0.0
 11
14229.64203862264
 21
5352.667002061469
 31
0.0
  0
LINE
  5
1DCF4
330
1DB32
100
AcDbEntity
  8
A-PL
100
AcDbLine
 10
13924.84203862259
 20
5383.46700206148
 30
0.0
 11
13924.84203862259
 21
5373.467002061481
 31
0.0
  0
ARC
  5
1DCF5
330
1DB32
100
AcDbEntity
  8
HASHIRA
100
AcDbCircle
 10
13919.64203862264
 20
5352.667002061469
 30
0.0
 40
20.8
100
AcDbArc
 50
90.0
 51
180.0
  0
ARC
  5
1DCF6
330
1DB32
100
AcDbEntity
  8
A-PL
100
AcDbCircle
 10
13942.84203862247
 20
5341.467002061481
 30
0.0
 40
18.0
100
AcDbArc
 50
180.0
 51
0.0
  0
LINE
  5
1DCF7
330
1DB32
100
AcDbEntity
  8
A-PL
100
AcDbLine
 10
13924.84203862259
 20
5364.267002061482
 30
0.0
 11
13924.84203862259
 21
5341.467002061481
 31
0.0
  0
LINE
  5
1DCF8
330
1DB32
100
AcDbEntity
  8
A-PL
100
AcDbLine
 10
13960.84203862258
 20
5341.467002061481
 30
0.0
 11
13960.84203862258
 21
5363.46700206148
 31
0.0
  0
ARC
  5
1DCF9
330
1DB32
100
AcDbEntity
  8
HASHIRA
100
AcDbCircle
 10
13919.64203862264
 20
5352.667002061469
 30
0.0
 40
11.59999999999999
100
AcDbArc
 50
90.0
 51
180.0
  0
ARC
  5
1DCFA
330
1DB32
100
AcDbEntity
  8
A-PL
100
AcDbCircle
 10
13748.84203862247
 20
5343.46700206148
 30
0.0
 40
40.0
100
AcDbArc
 50
90.0
 51
180.0
  0
LINE
  5
1DCFB
330
1DB32
100
AcDbEntity
  8
A-PL
100
AcDbLine
 10
13748.84203862247
 20
5383.46700206148
 30
0.0
 11
13924.84203862259
 21
5383.46700206148
 31
0.0
  0
ARC
  5
1DCFC
330
1DB32
100
AcDbEntity
  8
A-PL
100
AcDbCircle
 10
13942.84203862247
 20
5065.46700206148
 30
0.0
 40
18.0
100
AcDbArc
 50
0.0
 51
180.0
  0
LINE
  5
1DCFD
330
1DB32
100
AcDbEntity
  8
A-PL
100
AcDbLine
 10
13924.84203862259
 20
5023.46700206148
 30
0.0
 11
13924.84203862259
 21
5033.46700206148
 31
0.0
  0
LINE
  5
1DCFE
330
1DB32
100
AcDbEntity
  8
A-PL
100
AcDbLine
 10
13924.84203862259
 20
5042.667002061469
 30
0.0
 11
13924.84203862259
 21
5065.46700206148
 31
0.0
  0
LINE
  5
1DCFF
330
1DB32
100
AcDbEntity
  8
A-PL
100
AcDbLine
 10
13960.84203862258
 20
5065.46700206148
 30
0.0
 11
13960.84203862258
 21
5043.46700206148
 31
0.0
  0
ARC
  5
1DD00
330
1DB32
100
AcDbEntity
  8
HASHIRA
100
AcDbCircle
 10
13919.64203862264
 20
5054.267002061482
 30
0.0
 40
20.8
100
AcDbArc
 50
180.0
 51
270.0
  0
ARC
  5
1DD01
330
1DB32
100
AcDbEntity
  8
HASHIRA
100
AcDbCircle
 10
13919.64203862264
 20
5054.267002061482
 30
0.0
 40
20.8
100
AcDbArc
 50
180.0
 51
270.0
  0
ARC
  5
1DD02
330
1DB32
100
AcDbEntity
  8
HASHIRA
100
AcDbCircle
 10
13919.64203862264
 20
5054.267002061482
 30
0.0
 40
11.59999999999999
100
AcDbArc
 50
180.0
 51
270.0
  0
LINE
  5
1DD03
330
1DB32
100
AcDbEntity
  8
BOLT
100
AcDbLine
 10
13840.78134885174
 20
5241.467002061583
 30
0.0
 11
13862.720659081
 21
5203.46700206148
 31
0.0
  0
LINE
  5
1DD04
330
1DB32
100
AcDbEntity
  8
BOLT
100
AcDbLine
 10
13840.78134885174
 20
5165.467002061385
 30
0.0
 11
13862.720659081
 21
5203.46700206148
 31
0.0
  0
ARC
  5
1DD05
330
1DB32
100
AcDbEntity
  8
A-PL
100
AcDbCircle
 10
13748.84203862247
 20
5063.46700206148
 30
0.0
 40
40.0
100
AcDbArc
 50
180.0
 51
270.0
  0
LINE
  5
1DD06
330
1DB32
100
AcDbEntity
  8
BOLT
100
AcDbLine
 10
13796.90272839332
 20
5241.467002061583
 30
0.0
 11
13774.96341816417
 21
5203.46700206148
 31
0.0
  0
LINE
  5
1DD07
330
1DB32
100
AcDbEntity
  8
BOLT
100
AcDbLine
 10
13796.90272839332
 20
5165.467002061385
 30
0.0
 11
13774.96341816417
 21
5203.46700206148
 31
0.0
  0
LINE
  5
1DD08
330
1DB32
100
AcDbEntity
  8
A-PL
100
AcDbLine
 10
13924.84203862259
 20
5023.46700206148
 30
0.0
 11
13748.84203862247
 21
5023.46700206148
 31
0.0
  0
LINE
  5
1DD09
330
1DB32
100
AcDbEntity
  8
BOLT
100
AcDbLine
 10
13796.90272839332
 20
5241.467002061583
 30
0.0
 11
13840.78134885174
 21
5241.467002061583
 31
0.0
  0
LINE
  5
1DD0A
330
1DB32
100
AcDbEntity
  8
BOLT
100
AcDbLine
 10
13840.78134885174
 20
5165.467002061385
 30
0.0
 11
13796.90272839332
 21
5165.467002061385
 31
0.0
  0
CIRCLE
  5
1DD0B
330
1DB32
100
AcDbEntity
  8
BOLT
100
AcDbCircle
 10
13818.84203862247
 20
5203.46700206148
 30
0.0
 40
38.00000000009453
  0
CIRCLE
  5
1DD0C
330
1DB32
100
AcDbEntity
  8
BOLT
100
AcDbCircle
 10
13818.84203862247
 20
5203.46700206148
 30
0.0
 40
26.0
  0
LINE
  5
1DD0D
330
1DB32
100
AcDbEntity
  8
HASHIRA
100
AcDbLine
 10
13908.04203862254
 20
5352.667002061469
 30
0.0
 11
13908.04203862254
 21
5054.267002061482
 31
0.0
  0
LINE
  5
1DD0E
330
1DB32
100
AcDbEntity
  8
HASHIRA
100
AcDbLine
 10
13898.84203862247
 20
5352.667002061469
 30
0.0
 11
13898.84203862247
 21
5054.267002061482
 31
0.0
  0
LINE
  5
1DD0F
330
1DB32
100
AcDbEntity
  8
A-PL
100
AcDbLine
 10
13708.84203862247
 20
5063.46700206148
 30
0.0
 11
13708.84203862247
 21
5343.46700206148
 31
0.0
  0
CIRCLE
  5
1DD10
330
1DB32
100
AcDbEntity
  8
BOLT
100
AcDbCircle
 10
13818.84203862247
 20
5203.46700206148
 30
0.0
 40
60.0
  0
LINE
  5
1DD11
330
1DB32
100
AcDbEntity
  8
A-PL
  6
1PL-S
 62
     6
100
AcDbLine
 10
13818.84203862247
 20
5123.467002061481
 30
0.0
 11
13818.84203862247
 21
5283.46700206148
 31
0.0
  0
LINE
  5
1DD12
330
1DB32
100
AcDbEntity
  8
HASHIRA
100
AcDbLine
 10
13919.64203862264
 20
5042.667002061469
 30
0.0
 11
14048.84203862247
 21
5042.667002061469
 31
0.0
  0
LINE
  5
1DD13
330
1DB32
100
AcDbEntity
  8
HASHIRA
100
AcDbLine
 10
13919.64203862264
 20
5033.46700206148
 30
0.0
 11
14048.84203862247
 21
5033.46700206148
 31
0.0
  0
LINE
  5
1DD14
330
1DB32
100
AcDbEntity
  8
A-PL
100
AcDbLine
 10
13960.84203862258
 20
5043.46700206148
 30
0.0
 11
14048.84203862247
 21
5043.46700206148
 31
0.0
  0
LINE
  5
1DD15
330
1DB32
100
AcDbEntity
  8
A-PL
100
AcDbLine
 10
13960.73058244247
 20
5067.46700206148
 30
0.0
 11
14048.84203862247
 21
5067.46700206148
 31
0.0
  0
LINE
  5
1DD16
330
1DB32
100
AcDbEntity
  8
HASHIRA
100
AcDbLine
 10
14048.84203862247
 20
5364.267002061482
 30
0.0
 11
13919.64203862264
 21
5364.267002061482
 31
0.0
  0
LINE
  5
1DD17
330
1DB32
100
AcDbEntity
  8
HASHIRA
100
AcDbLine
 10
14048.84203862247
 20
5373.467002061481
 30
0.0
 11
13919.64203862264
 21
5373.467002061481
 31
0.0
  0
LINE
  5
1DD18
330
1DB32
100
AcDbEntity
  8
A-PL
100
AcDbLine
 10
13960.73058244247
 20
5339.467002061472
 30
0.0
 11
14048.84203862247
 21
5339.467002061472
 31
0.0
  0
LINE
  5
1DD19
330
1DB32
100
AcDbEntity
  8
A-PL
100
AcDbLine
 10
13960.84203862258
 20
5363.46700206148
 30
0.0
 11
14048.84203862247
 21
5363.46700206148
 31
0.0
  0
LINE
  5
1DD1A
330
1DB32
100
AcDbEntity
  8
BOLT
100
AcDbLine
 10
14340.78134885174
 20
5241.467002061583
 30
0.0
 11
14296.90272839332
 21
5241.467002061583
 31
0.0
  0
LINE
  5
1DD1B
330
1DB32
100
AcDbEntity
  8
A-PL
100
AcDbLine
 10
14212.84203862246
 20
5383.46700206148
 30
0.0
 11
14388.84203862246
 21
5383.46700206148
 31
0.0
  0
LINE
  5
1DD1C
330
1DB32
100
AcDbEntity
  8
BOLT
100
AcDbLine
 10
14296.90272839332
 20
5165.467002061385
 30
0.0
 11
14340.78134885174
 21
5165.467002061385
 31
0.0
  0
LINE
  5
1DD1D
330
1DB32
100
AcDbEntity
  8
A-PL
100
AcDbLine
 10
14388.84203862246
 20
5023.46700206148
 30
0.0
 11
14212.84203862246
 21
5023.46700206148
 31
0.0
  0
CIRCLE
  5
1DD1E
330
1DB32
100
AcDbEntity
  8
BOLT
100
AcDbCircle
 10
14318.84203862246
 20
5203.46700206148
 30
0.0
 40
60.0
  0
CIRCLE
  5
1DD1F
330
1DB32
100
AcDbEntity
  8
BOLT
100
AcDbCircle
 10
14318.84203862246
 20
5203.46700206148
 30
0.0
 40
26.0
  0
CIRCLE
  5
1DD20
330
1DB32
100
AcDbEntity
  8
BOLT
100
AcDbCircle
 10
14318.84203862246
 20
5203.46700206148
 30
0.0
 40
38.00000000009453
  0
ARC
  5
1DD21
330
1DB32
100
AcDbEntity
  8
BOLT
100
AcDbCircle
 10
14058.84203862247
 20
4938.040761533565
 30
0.0
 40
12.00000000000009
100
AcDbArc
 50
213.557309761859
 51
326.4426902381409
  0
ARC
  5
1DD22
330
1DB32
100
AcDbEntity
  8
BOLT
100
AcDbCircle
 10
14078.84203862246
 20
4938.040761533478
 30
0.0
 40
11.99999999995384
100
AcDbArc
 50
213.5573097616853
 51
326.4426902383145
  0
ARC
  5
1DD23
330
1DB32
100
AcDbEntity
  8
BOLT
100
AcDbCircle
 10
14078.84203862246
 20
4924.774262372149
 30
0.0
 40
12.00000000000009
100
AcDbArc
 50
33.55730976185911
 51
146.4426902381408
  0
ARC
  5
1DD24
330
1DB32
100
AcDbEntity
  8
HASHIRA
100
AcDbCircle
 10
14153.84203862201
 20
4516.014423121058
 30
0.0
 40
102.0
100
AcDbArc
 50
33.55730976185911
 51
146.4426902381408
  0
LINE
  5
1DD25
330
1DB32
100
AcDbEntity
  8
HASHIRA
100
AcDbLine
 10
14074.84203862258
 20
4317.739597635561
 30
0.0
 11
14062.84203862247
 21
4317.739597635561
 31
0.0
  0
LINE
  5
1DD26
330
1DB32
100
AcDbEntity
  8
A-PL
  6
HIDE-M
 62
     6
100
AcDbLine
 10
14000.84203862259
 20
4093.739597635546
 30
0.0
 11
14136.84203862259
 21
4093.739597635546
 31
0.0
  0
LINE
  5
1DD27
330
1DB32
100
AcDbEntity
  8
HASHIRA
  6
1PL-S
 62
     6
100
AcDbLine
 10
13998.84203862247
 20
4293.739597635546
 30
0.0
 11
14138.84203862246
 21
4293.739597635546
 31
0.0
  0
LINE
  5
1DD28
330
1DB32
100
AcDbEntity
  8
HASHIRA
100
AcDbLine
 10
14062.84203862247
 20
4269.739597635569
 30
0.0
 11
14074.84203862258
 21
4269.739597635569
 31
0.0
  0
CIRCLE
  5
1DD29
330
1DB32
100
AcDbEntity
  8
BOLT
100
AcDbCircle
 10
14068.84203862247
 20
4293.739597635546
 30
0.0
 40
20.0
  0
ARC
  5
1DD2A
330
1DB32
100
AcDbEntity
  8
HASHIRA
100
AcDbCircle
 10
14062.84203862247
 20
4293.739597635546
 30
0.0
 40
24.0
100
AcDbArc
 50
90.0
 51
270.0
  0
ARC
  5
1DD2B
330
1DB32
100
AcDbEntity
  8
HASHIRA
100
AcDbCircle
 10
14074.84203862258
 20
4293.739597635546
 30
0.0
 40
24.0
100
AcDbArc
 50
270.0
 51
90.0
  0
ARC
  5
1DD2C
330
1DB32
100
AcDbEntity
  8
HASHIRA
100
AcDbCircle
 10
13983.842038622
 20
4628.779665993141
 30
0.0
 40
102.0
100
AcDbArc
 50
213.557309761859
 51
326.4426902381409
  0
LINE
  5
1DD2D
330
1DB32
100
AcDbEntity
  8
U1
100
AcDbLine
 10
14238.84203862246
 20
4419.739597635554
 30
0.0
 11
14628.84203862246
 21
4419.739597635554
 31
0.0
  0
LINE
  5
1DD2E
330
1DB32
100
AcDbEntity
  8
U3
100
AcDbLine
 10
14472.66140959039
 20
4419.739597635554
 30
0.0
 11
14238.84203862246
 21
4185.920226667739
 31
0.0
  0
LINE
  5
1DD2F
330
1DB32
100
AcDbEntity
  8
U3
100
AcDbLine
 10
14529.2299520853
 20
4419.739597635554
 30
0.0
 11
14238.84203862246
 21
4129.351684172791
 31
0.0
  0
LINE
  5
1DD30
330
1DB32
100
AcDbEntity
  8
A-PL
  6
1PL-SL
 62
     6
100
AcDbLine
 10
14068.84203862247
 20
4925.617320595431
 30
0.0
 11
14068.84203862247
 21
5621.242882976337
 31
0.0
  0
LINE
  5
1DD31
330
1DB32
100
AcDbEntity
  8
BOLT
100
AcDbLine
 10
14048.84203862247
 20
4931.407511952921
 30
0.0
 11
14048.84203862247
 21
5521.242882976191
 31
0.0
  0
LINE
  5
1DD32
330
1DB32
100
AcDbEntity
  8
BOLT
100
AcDbLine
 10
14088.84203862246
 20
5521.242882976191
 30
0.0
 11
14088.84203862246
 21
4931.407511952921
 31
0.0
  0
TEXT
  5
1DD33
330
1DB32
100
AcDbEntity
  8
HIKIDASHI
100
AcDbText
 10
14878.8971724573
 20
5704.216827798816
 30
0.0
 40
120.0
  1
アンカープレート
  7
01
 72
     2
 11
15974.8971724573
 21
5704.216827798816
 31
0.0
100
AcDbText
  0
LINE
  5
1DD34
330
1DB32
100
AcDbEntity
  8
HIKIDASHI
100
AcDbLine
 10
14838.89717245742
 20
5644.216827798818
 30
0.0
 11
16163.46860102877
 21
5644.216827798818
 31
0.0
  0
TEXT
  5
1DD35
330
1DB32
100
AcDbEntity
  8
HIKIDASHI
100
AcDbText
 10
14806.50709528359
 20
5464.216827798818
 30
0.0
 40
120.0
  1
（仮組み用）
  7
01
 72
     2
 11
15574.50709528359
 21
5464.216827798818
 31
0.0
100
AcDbText
  0
LINE
  5
1DD36
330
1DB32
100
AcDbEntity
  8
U3
100
AcDbLine
 10
14628.84203862246
 20
3792.029796115232
 30
0.0
 11
14506.55184014281
 21
3669.739597635554
 31
0.0
  0
LINE
  5
1DD37
330
1DB32
100
AcDbEntity
  8
BOLT
100
AcDbLine
 10
14344.84203862258
 20
3737.739597635561
 30
0.0
 11
14344.84203862258
 21
3793.739597635548
 31
0.0
  0
LINE
  5
1DD38
330
1DB32
100
AcDbEntity
  8
BOLT
100
AcDbLine
 10
14362.720659081
 20
3705.739597635555
 30
0.0
 11
14362.720659081
 21
3733.19087399305
 31
0.0
  0
LINE
  5
1DD39
330
1DB32
100
AcDbEntity
  8
BOLT
100
AcDbLine
 10
14340.78134885174
 20
3705.739597635555
 30
0.0
 11
14340.78134885174
 21
3733.19087399305
 31
0.0
  0
LINE
  5
1DD3A
330
1DB32
100
AcDbEntity
  8
A-PL
100
AcDbLine
 10
14428.84203862246
 20
3693.739597635548
 30
0.0
 11
14428.84203862246
 21
3669.739597635554
 31
0.0
  0
LINE
  5
1DD3B
330
1DB32
100
AcDbEntity
  8
BOLT
100
AcDbLine
 10
14378.84203862246
 20
3693.739597635548
 30
0.0
 11
14378.84203862246
 21
3705.739597635555
 31
0.0
  0
LINE
  5
1DD3C
330
1DB32
100
AcDbEntity
  8
A-PL
  6
HIDE-S
 62
     6
100
AcDbLine
 10
14368.84203862246
 20
3669.739597635554
 30
0.0
 11
14368.84203862246
 21
3693.739597635548
 31
0.0
  0
LINE
  5
1DD3D
330
1DB32
100
AcDbEntity
  8
A-PL
100
AcDbLine
 10
14428.84203862246
 20
3669.739597635554
 30
0.0
 11
14353.84203862246
 21
3669.739597635554
 31
0.0
  0
LINE
  5
1DD3E
330
1DB32
100
AcDbEntity
  8
BOLT
100
AcDbLine
 10
14326.74118847772
 20
3737.739597635561
 30
0.0
 11
14344.84203862258
 21
3742.589705814163
 31
0.0
  0
LINE
  5
1DD3F
330
1DB32
100
AcDbEntity
  8
BOLT
100
AcDbLine
 10
14362.720659081
 20
3733.19087399305
 30
0.0
 11
14354.84203862259
 21
3737.739597635561
 31
0.0
  0
ARC
  5
1DD40
330
1DB32
100
AcDbEntity
  8
BOLT
100
AcDbCircle
 10
14351.75100396643
 20
3717.16064420918
 30
0.0
 40
19.42425288801392
100
AcDbArc
 50
55.61575253198193
 51
124.384247468018
  0
LINE
  5
1DD41
330
1DB32
100
AcDbEntity
  8
BOLT
100
AcDbLine
 10
14340.84203862258
 20
3797.739597635561
 30
0.0
 11
14344.84203862258
 21
3793.739597635548
 31
0.0
  0
LINE
  5
1DD42
330
1DB32
100
AcDbEntity
  8
U3
100
AcDbLine
 10
14628.84203862246
 20
3848.598338610143
 30
0.0
 11
14449.98329764779
 21
3669.739597635554
 31
0.0
  0
LINE
  5
1DD43
330
1DB32
100
AcDbEntity
  8
U3
100
AcDbLine
 10
14628.84203862246
 20
3905.166881105076
 30
0.0
 11
14417.414755153
 21
3693.739597635548
 31
0.0
  0
LINE
  5
1DD44
330
1DB32
100
AcDbEntity
  8
U1
100
AcDbLine
 10
14728.84203862246
 20
3669.739597635554
 30
0.0
 11
14353.84203862246
 21
3669.739597635554
 31
0.0
  0
ARC
  5
1DD45
330
1DB32
100
AcDbEntity
  8
BOLT
100
AcDbCircle
 10
14318.84203862246
 20
3835.948872924317
 30
0.0
 40
224.9487986728452
100
AcDbArc
 50
271.0489282869712
 51
278.9510717129775
  0
ARC
  5
1DD46
330
1DB32
100
AcDbEntity
  8
BOLT
100
AcDbCircle
 10
14318.84203862246
 20
3609.250506376819
 30
0.0
 40
4.489091258744411
100
AcDbArc
 50
23.46162447304932
 51
156.5383755269506
  0
LINE
  5
1DD47
330
1DB32
100
AcDbEntity
  8
BOLT
100
AcDbLine
 10
14353.84203862246
 20
3613.739597635548
 30
0.0
 11
14353.84203862246
 21
3693.739597635548
 31
0.0
  0
LINE
  5
1DD48
330
1DB32
100
AcDbEntity
  8
U3
100
AcDbLine
 10
14645.95590528612
 20
3669.739597635568
 30
0.0
 11
14728.84203862246
 21
3586.853464299121
 31
0.0
  0
LINE
  5
1DD49
330
1DB32
100
AcDbEntity
  8
BOLT
100
AcDbLine
 10
14102.84203862246
 20
3974.109688483157
 30
0.0
 11
14102.84203862246
 21
4013.369506787967
 31
0.0
  0
LINE
  5
1DD4A
330
1DB32
100
AcDbEntity
  8
BOLT
100
AcDbLine
 10
14034.84203862259
 20
4013.369506787967
 30
0.0
 11
14034.84203862259
 21
3974.109688483157
 31
0.0
  0
CIRCLE
  5
1DD4B
330
1DB32
100
AcDbEntity
  8
BOLT
100
AcDbCircle
 10
14068.84203862247
 20
3993.739597635548
 30
0.0
 40
34.0
  0
LINE
  5
1DD4C
330
1DB32
100
AcDbEntity
  8
BOLT
100
AcDbLine
 10
14034.84203862259
 20
3974.109688483157
 30
0.0
 11
14068.84203862247
 21
3954.479779330767
 31
0.0
  0
LINE
  5
1DD4D
330
1DB32
100
AcDbEntity
  8
BOLT
100
AcDbLine
 10
14102.84203862246
 20
3974.109688483157
 30
0.0
 11
14068.84203862247
 21
3954.479779330767
 31
0.0
  0
LINE
  5
1DD4E
330
1DB32
100
AcDbEntity
  8
BOLT
100
AcDbLine
 10
14034.84203862259
 20
4013.369506787967
 30
0.0
 11
14068.84203862247
 21
4032.999415940365
 31
0.0
  0
LINE
  5
1DD4F
330
1DB32
100
AcDbEntity
  8
BOLT
100
AcDbLine
 10
14102.84203862246
 20
4013.369506787967
 30
0.0
 11
14068.84203862247
 21
4032.999415940365
 31
0.0
  0
LINE
  5
1DD50
330
1DB32
100
AcDbEntity
  8
U3
100
AcDbLine
 10
14292.84203862246
 20
3791.406468896574
 30
0.0
 11
14238.84203862246
 21
3737.406468896558
 31
0.0
  0
LINE
  5
1DD51
330
1DB32
100
AcDbEntity
  8
BOLT
100
AcDbLine
 10
14292.84203862246
 20
3737.739597635561
 30
0.0
 11
14292.84203862246
 21
3793.739597635548
 31
0.0
  0
LINE
  5
1DD52
330
1DB32
100
AcDbEntity
  8
BOLT
100
AcDbLine
 10
14274.96341816417
 20
3733.19087399305
 30
0.0
 11
14274.96341816417
 21
3705.739597635555
 31
0.0
  0
LINE
  5
1DD53
330
1DB32
100
AcDbEntity
  8
BOLT
100
AcDbLine
 10
14296.90272839332
 20
3705.739597635555
 30
0.0
 11
14296.90272839332
 21
3733.19087399305
 31
0.0
  0
LINE
  5
1DD54
330
1DB32
100
AcDbEntity
  8
BOLT
100
AcDbLine
 10
14258.84203862246
 20
3705.739597635555
 30
0.0
 11
14258.84203862246
 21
3693.739597635548
 31
0.0
  0
LINE
  5
1DD55
330
1DB32
100
AcDbEntity
  8
A-PL
  6
HIDE-S
 62
     6
100
AcDbLine
 10
14268.84203862246
 20
3669.739597635554
 30
0.0
 11
14268.84203862246
 21
3693.739597635548
 31
0.0
  0
LINE
  5
1DD56
330
1DB32
100
AcDbEntity
  8
A-PL
100
AcDbLine
 10
14212.84203862246
 20
3669.739597635554
 30
0.0
 11
14212.84203862246
 21
3693.739597635548
 31
0.0
  0
LINE
  5
1DD57
330
1DB32
100
AcDbEntity
  8
U3
100
AcDbLine
 10
14254.01069000979
 20
3669.739597635568
 30
0.0
 11
14283.84203862246
 21
3639.908249022854
 31
0.0
  0
ARC
  5
1DD58
330
1DB32
100
AcDbEntity
  8
BOLT
100
AcDbCircle
 10
14285.93307327874
 20
3717.16064420918
 30
0.0
 40
19.42425288800896
100
AcDbArc
 50
55.61575253198193
 51
124.384247468018
  0
LINE
  5
1DD59
330
1DB32
100
AcDbEntity
  8
BOLT
100
AcDbLine
 10
14282.84203862246
 20
3737.739597635561
 30
0.0
 11
14274.96341816417
 21
3733.19087399305
 31
0.0
  0
LINE
  5
1DD5A
330
1DB32
100
AcDbEntity
  8
BOLT
100
AcDbLine
 10
14296.84203862259
 20
3797.739597635561
 30
0.0
 11
14292.84203862246
 21
3793.739597635548
 31
0.0
  0
LINE
  5
1DD5B
330
1DB32
100
AcDbEntity
  8
BOLT
100
AcDbLine
 10
14102.84203862246
 20
3813.369506787967
 30
0.0
 11
14068.84203862247
 21
3832.999415940365
 31
0.0
  0
LINE
  5
1DD5C
330
1DB32
100
AcDbEntity
  8
BOLT
100
AcDbLine
 10
14034.84203862259
 20
3813.369506787967
 30
0.0
 11
14068.84203862247
 21
3832.999415940365
 31
0.0
  0
LINE
  5
1DD5D
330
1DB32
100
AcDbEntity
  8
BOLT
100
AcDbLine
 10
14034.84203862259
 20
3774.109688483157
 30
0.0
 11
14068.84203862247
 21
3754.479779330767
 31
0.0
  0
LINE
  5
1DD5E
330
1DB32
100
AcDbEntity
  8
BOLT
100
AcDbLine
 10
14102.84203862246
 20
3774.109688483157
 30
0.0
 11
14068.84203862247
 21
3754.479779330767
 31
0.0
  0
LINE
  5
1DD5F
330
1DB32
100
AcDbEntity
  8
BOLT
100
AcDbLine
 10
14102.84203862246
 20
3774.109688483157
 30
0.0
 11
14102.84203862246
 21
3813.369506787967
 31
0.0
  0
LINE
  5
1DD60
330
1DB32
100
AcDbEntity
  8
BOLT
100
AcDbLine
 10
14034.84203862259
 20
3813.369506787967
 30
0.0
 11
14034.84203862259
 21
3774.109688483157
 31
0.0
  0
CIRCLE
  5
1DD61
330
1DB32
100
AcDbEntity
  8
BOLT
100
AcDbCircle
 10
14068.84203862247
 20
3793.739597635548
 30
0.0
 40
34.0
  0
LINE
  5
1DD62
330
1DB32
100
AcDbEntity
  8
A-PL
  6
HIDE-M
 62
     6
100
AcDbLine
 10
14176.84203862259
 20
4053.739597635546
 30
0.0
 11
14176.84203862259
 21
3669.739597635554
 31
0.0
  0
LINE
  5
1DD63
330
1DB32
100
AcDbEntity
  8
U3
100
AcDbLine
 10
13898.84203862247
 20
3789.351684172833
 30
0.0
 11
13847.22995208518
 21
3737.739597635561
 31
0.0
  0
LINE
  5
1DD64
330
1DB32
100
AcDbEntity
  8
BOLT
100
AcDbLine
 10
13844.84203862259
 20
3737.739597635561
 30
0.0
 11
13844.84203862259
 21
3793.739597635548
 31
0.0
  0
LINE
  5
1DD65
330
1DB32
100
AcDbEntity
  8
BOLT
100
AcDbLine
 10
13862.720659081
 20
3733.19087399305
 30
0.0
 11
13862.720659081
 21
3705.739597635555
 31
0.0
  0
LINE
  5
1DD66
330
1DB32
100
AcDbEntity
  8
BOLT
100
AcDbLine
 10
13840.78134885174
 20
3705.739597635555
 30
0.0
 11
13840.78134885174
 21
3733.19087399305
 31
0.0
  0
LINE
  5
1DD67
330
1DB32
100
AcDbEntity
  8
U3
100
AcDbLine
 10
13898.84203862247
 20
3732.783141677908
 30
0.0
 11
13871.79849458008
 21
3705.739597635555
 31
0.0
  0
LINE
  5
1DD68
330
1DB32
100
AcDbEntity
  8
A-PL
100
AcDbLine
 10
13924.84203862259
 20
3669.739597635554
 30
0.0
 11
13924.84203862259
 21
3693.739597635548
 31
0.0
  0
LINE
  5
1DD69
330
1DB32
100
AcDbEntity
  8
BOLT
100
AcDbLine
 10
13878.84203862247
 20
3705.739597635555
 30
0.0
 11
13878.84203862247
 21
3693.739597635548
 31
0.0
  0
LINE
  5
1DD6A
330
1DB32
100
AcDbEntity
  8
A-PL
  6
HIDE-S
 62
     6
100
AcDbLine
 10
13868.84203862247
 20
3669.739597635554
 30
0.0
 11
13868.84203862247
 21
3693.739597635548
 31
0.0
  0
LINE
  5
1DD6B
330
1DB32
100
AcDbEntity
  8
A-PL
100
AcDbLine
 10
13853.84203862247
 20
3693.739597635548
 30
0.0
 11
13960.84203862258
 21
3693.739597635548
 31
0.0
  0
LINE
  5
1DD6C
330
1DB32
100
AcDbEntity
  8
BOLT
100
AcDbLine
 10
13854.84203862259
 20
3737.739597635561
 30
0.0
 11
13862.720659081
 21
3733.19087399305
 31
0.0
  0
ARC
  5
1DD6D
330
1DB32
100
AcDbEntity
  8
BOLT
100
AcDbCircle
 10
13851.75100396643
 20
3717.16064420918
 30
0.0
 40
19.42425288800896
100
AcDbArc
 50
55.61575253198193
 51
124.384247468018
  0
LINE
  5
1DD6E
330
1DB32
100
AcDbEntity
  8
BOLT
100
AcDbLine
 10
13840.84203862258
 20
3797.739597635561
 30
0.0
 11
13844.84203862259
 21
3793.739597635548
 31
0.0
  0
LINE
  5
1DD6F
330
1DB32
100
AcDbEntity
  8
BOLT
100
AcDbLine
 10
13844.84203862259
 20
3790.772918632349
 30
0.0
 11
13818.84203862247
 21
3797.739597635561
 31
0.0
  0
LINE
  5
1DD70
330
1DB32
100
AcDbEntity
  8
U3
100
AcDbLine
 10
13898.84203862247
 20
3845.920226667753
 30
0.0
 11
13844.84203862259
 21
3791.92022666776
 31
0.0
  0
LINE
  5
1DD71
330
1DB32
100
AcDbEntity
  8
BOLT
100
AcDbLine
 10
13792.84203862247
 20
3737.739597635561
 30
0.0
 11
13792.84203862247
 21
3793.739597635548
 31
0.0
  0
LINE
  5
1DD72
330
1DB32
100
AcDbEntity
  8
U3
100
AcDbLine
 10
13774.96341816417
 20
3722.041606209335
 30
0.0
 11
13746.66140959039
 21
3693.739597635548
 31
0.0
  0
LINE
  5
1DD73
330
1DB32
100
AcDbEntity
  8
BOLT
100
AcDbLine
 10
13774.96341816417
 20
3705.739597635555
 30
0.0
 11
13774.96341816417
 21
3733.19087399305
 31
0.0
  0
LINE
  5
1DD74
330
1DB32
100
AcDbEntity
  8
BOLT
100
AcDbLine
 10
13796.90272839332
 20
3705.739597635555
 30
0.0
 11
13796.90272839332
 21
3733.19087399305
 31
0.0
  0
LINE
  5
1DD75
330
1DB32
100
AcDbEntity
  8
BOLT
100
AcDbLine
 10
13758.84203862247
 20
3693.739597635548
 30
0.0
 11
13758.84203862247
 21
3705.739597635555
 31
0.0
  0
LINE
  5
1DD76
330
1DB32
100
AcDbEntity
  8
A-PL
  6
HIDE-S
 62
     6
100
AcDbLine
 10
13768.84203862247
 20
3669.739597635554
 30
0.0
 11
13768.84203862247
 21
3693.739597635548
 31
0.0
  0
LINE
  5
1DD77
330
1DB32
100
AcDbEntity
  8
A-PL
100
AcDbLine
 10
13708.84203862247
 20
3669.739597635554
 30
0.0
 11
13708.84203862247
 21
3693.739597635548
 31
0.0
  0
LINE
  5
1DD78
330
1DB32
100
AcDbEntity
  8
A-PL
100
AcDbLine
 10
13783.84203862247
 20
3669.739597635554
 30
0.0
 11
13708.84203862247
 21
3669.739597635554
 31
0.0
  0
LINE
  5
1DD79
330
1DB32
100
AcDbEntity
  8
A-PL
100
AcDbLine
 10
13708.84203862247
 20
3693.739597635548
 30
0.0
 11
13783.84203862247
 21
3693.739597635548
 31
0.0
  0
ARC
  5
1DD7A
330
1DB32
100
AcDbEntity
  8
BOLT
100
AcDbCircle
 10
13785.93307327874
 20
3717.16064420918
 30
0.0
 40
19.42425288801392
100
AcDbArc
 50
55.61575253198193
 51
124.384247468018
  0
LINE
  5
1DD7B
330
1DB32
100
AcDbEntity
  8
BOLT
100
AcDbLine
 10
13774.96341816417
 20
3733.19087399305
 30
0.0
 11
13782.84203862247
 21
3737.739597635561
 31
0.0
  0
LINE
  5
1DD7C
330
1DB32
100
AcDbEntity
  8
U3
100
AcDbLine
 10
13792.84203862247
 20
3739.920226667753
 30
0.0
 11
13790.66140959039
 21
3737.739597635561
 31
0.0
  0
LINE
  5
1DD7D
330
1DB32
100
AcDbEntity
  8
BOLT
100
AcDbLine
 10
13810.94288876734
 20
3737.739597635561
 30
0.0
 11
13792.84203862247
 21
3742.589705814163
 31
0.0
  0
LINE
  5
1DD7E
330
1DB32
100
AcDbEntity
  8
BOLT
100
AcDbLine
 10
13796.84203862258
 20
3797.739597635561
 30
0.0
 11
13792.84203862247
 21
3793.739597635548
 31
0.0
  0
LINE
  5
1DD7F
330
1DB32
100
AcDbEntity
  8
BOLT
100
AcDbLine
 10
13844.84203862259
 20
3749.361871415937
 30
0.0
 11
13792.84203862247
 21
3763.295229422357
 31
0.0
  0
LINE
  5
1DD80
330
1DB32
100
AcDbEntity
  8
BOLT
100
AcDbLine
 10
13862.720659081
 20
3705.739597635555
 30
0.0
 11
13774.96341816417
 21
3705.739597635555
 31
0.0
  0
LINE
  5
1DD81
330
1DB32
100
AcDbEntity
  8
BOLT
100
AcDbLine
 10
13758.84203862247
 20
3705.739597635555
 30
0.0
 11
13878.84203862247
 21
3705.739597635555
 31
0.0
  0
LINE
  5
1DD82
330
1DB32
100
AcDbEntity
  8
BOLT
100
AcDbLine
 10
13878.84203862247
 20
3693.739597635548
 30
0.0
 11
13758.84203862247
 21
3693.739597635548
 31
0.0
  0
LINE
  5
1DD83
330
1DB32
100
AcDbEntity
  8
BOLT
100
AcDbLine
 10
13782.84203862247
 20
3737.739597635561
 30
0.0
 11
13854.84203862259
 21
3737.739597635561
 31
0.0
  0
ARC
  5
1DD84
330
1DB32
100
AcDbEntity
  8
BOLT
100
AcDbCircle
 10
13818.84203862247
 20
3663.978920201305
 30
0.0
 40
72.6059768958803
100
AcDbArc
 50
72.41204622625078
 51
107.5879537737492
  0
LINE
  5
1DD85
330
1DB32
100
AcDbEntity
  8
BOLT
100
AcDbLine
 10
13840.84203862258
 20
3797.739597635561
 30
0.0
 11
13796.84203862258
 21
3797.739597635561
 31
0.0
  0
LINE
  5
1DD86
330
1DB32
100
AcDbEntity
  8
BOLT
100
AcDbLine
 10
13844.84203862259
 20
3770.067395024155
 30
0.0
 11
13792.84203862247
 21
3784.000753030567
 31
0.0
  0
LINE
  5
1DD87
330
1DB32
100
AcDbEntity
  8
A-PL
  6
HIDE-M
 62
     6
100
AcDbLine
 10
13960.84203862258
 20
3669.739597635554
 30
0.0
 11
13960.84203862258
 21
4053.739597635546
 31
0.0
  0
LINE
  5
1DD88
330
1DB32
100
AcDbEntity
  8
HASHIRA
  6
1PL-SL
 62
     6
100
AcDbLine
 10
14162.84203862271
 20
3793.739597635548
 30
0.0
 11
13974.84203862281
 21
3793.739597635548
 31
0.0
  0
LINE
  5
1DD89
330
1DB32
100
AcDbEntity
  8
A-PL
  6
HIDE-S
 62
     6
100
AcDbLine
 10
13960.84203862258
 20
3693.739597635548
 30
0.0
 11
14176.84203862259
 21
3693.739597635548
 31
0.0
  0
LINE
  5
1DD8A
330
1DB32
100
AcDbEntity
  8
A-PL
100
AcDbLine
 10
14283.84203862246
 20
3669.739597635554
 30
0.0
 11
13853.84203862247
 21
3669.739597635554
 31
0.0
  0
LINE
  5
1DD8B
330
1DB32
100
AcDbEntity
  8
U1
100
AcDbLine
 10
14283.84203862246
 20
3669.739597635554
 30
0.0
 11
13853.84203862247
 21
3669.739597635554
 31
0.0
  0
LINE
  5
1DD8C
330
1DB32
100
AcDbEntity
  8
HASHIRA
100
AcDbLine
 10
13898.84203862247
 20
3693.739597635548
 30
0.0
 11
14238.84203862246
 21
3693.739597635548
 31
0.0
  0
LINE
  5
1DD8D
330
1DB32
100
AcDbEntity
  8
HASHIRA
  6
1PL-SL
 62
     6
100
AcDbLine
 10
14162.84203862247
 20
3993.739597635548
 30
0.0
 11
13974.84203862259
 21
3993.739597635548
 31
0.0
  0
ARC
  5
1DD8E
330
1DB32
100
AcDbEntity
  8
BOLT
100
AcDbCircle
 10
13818.84203862247
 20
3835.948872924317
 30
0.0
 40
224.9487986728452
100
AcDbArc
 50
271.0489282869712
 51
278.9510717129775
  0
ARC
  5
1DD8F
330
1DB32
100
AcDbEntity
  8
BOLT
100
AcDbCircle
 10
13818.84203862247
 20
3609.250506376819
 30
0.0
 40
4.489091258744411
100
AcDbArc
 50
23.46162447304932
 51
156.5383755269506
  0
ARC
  5
1DD90
330
1DB32
100
AcDbEntity
  8
BOLT
100
AcDbCircle
 10
13818.84203862247
 20
3835.948872924317
 30
0.0
 40
224.9487986728452
100
AcDbArc
 50
261.0489282870223
 51
268.9510717130286
  0
LINE
  5
1DD91
330
1DB32
100
AcDbEntity
  8
BOLT
100
AcDbLine
 10
13783.84203862247
 20
3613.739597635548
 30
0.0
 11
13783.84203862247
 21
3693.739597635548
 31
0.0
  0
LINE
  5
1DD92
330
1DB32
100
AcDbEntity
  8
BOLT
100
AcDbLine
 10
13853.84203862247
 20
3693.739597635548
 30
0.0
 11
13853.84203862247
 21
3613.739597635548
 31
0.0
  0
LINE
  5
1DD93
330
1DB32
100
AcDbEntity
  8
BOLT
100
AcDbLine
 10
14283.84203862246
 20
3693.739597635548
 30
0.0
 11
14283.84203862246
 21
3613.739597635548
 31
0.0
  0
ARC
  5
1DD94
330
1DB32
100
AcDbEntity
  8
BOLT
100
AcDbCircle
 10
14318.84203862246
 20
3835.948872924317
 30
0.0
 40
224.9487986728452
100
AcDbArc
 50
261.0489282870223
 51
268.9510717130286
  0
LINE
  5
1DD95
330
1DB32
100
AcDbEntity
  8
BOLT
100
AcDbLine
 10
14292.84203862246
 20
3770.067395024155
 30
0.0
 11
14344.84203862258
 21
3784.000753030567
 31
0.0
  0
LINE
  5
1DD96
330
1DB32
100
AcDbEntity
  8
BOLT
100
AcDbLine
 10
14354.84203862259
 20
3737.739597635561
 30
0.0
 11
14282.84203862246
 21
3737.739597635561
 31
0.0
  0
LINE
  5
1DD97
330
1DB32
100
AcDbEntity
  8
BOLT
100
AcDbLine
 10
14274.96341816417
 20
3705.739597635555
 30
0.0
 11
14362.720659081
 21
3705.739597635555
 31
0.0
  0
LINE
  5
1DD98
330
1DB32
100
AcDbEntity
  8
BOLT
100
AcDbLine
 10
14378.84203862246
 20
3705.739597635555
 30
0.0
 11
14258.84203862246
 21
3705.739597635555
 31
0.0
  0
LINE
  5
1DD99
330
1DB32
100
AcDbEntity
  8
BOLT
100
AcDbLine
 10
14258.84203862246
 20
3693.739597635548
 30
0.0
 11
14378.84203862246
 21
3693.739597635548
 31
0.0
  0
ARC
  5
1DD9A
330
1DB32
100
AcDbEntity
  8
BOLT
100
AcDbCircle
 10
14318.84203862246
 20
3663.978920201305
 30
0.0
 40
72.6059768958803
100
AcDbArc
 50
72.41204622625078
 51
107.5879537737492
  0
LINE
  5
1DD9B
330
1DB32
100
AcDbEntity
  8
BOLT
100
AcDbLine
 10
14292.84203862246
 20
3749.361871415937
 30
0.0
 11
14344.84203862258
 21
3763.295229422357
 31
0.0
  0
LINE
  5
1DD9C
330
1DB32
100
AcDbEntity
  8
BOLT
100
AcDbLine
 10
14296.84203862259
 20
3797.739597635561
 30
0.0
 11
14340.84203862258
 21
3797.739597635561
 31
0.0
  0
LINE
  5
1DD9D
330
1DB32
100
AcDbEntity
  8
BOLT
100
AcDbLine
 10
14292.84203862246
 20
3790.772918632349
 30
0.0
 11
14318.84203862246
 21
3797.739597635561
 31
0.0
  0
LINE
  5
1DD9E
330
1DB32
100
AcDbEntity
  8
A-PL
100
AcDbLine
 10
14176.84203862259
 20
3693.739597635548
 30
0.0
 11
14428.84203862246
 21
3693.739597635548
 31
0.0
  0
LINE
  5
1DD9F
330
1DB32
100
AcDbEntity
  8
U1
100
AcDbLine
 10
14628.84203862246
 20
4419.739597635554
 30
0.0
 11
14628.84203862246
 21
3669.739597635554
 31
0.0
  0
LINE
  5
1DDA0
330
1DB32
100
AcDbEntity
  8
U3
100
AcDbLine
 10
14628.84203862246
 20
4240.543553886426
 30
0.0
 11
14238.84203862246
 21
3850.543553886404
 31
0.0
  0
LINE
  5
1DDA1
330
1DB32
100
AcDbEntity
  8
U3
100
AcDbLine
 10
14628.84203862246
 20
4183.975011391485
 30
0.0
 11
14238.84203862246
 21
3793.975011391486
 31
0.0
  0
LINE
  5
1DDA2
330
1DB32
100
AcDbEntity
  8
U3
100
AcDbLine
 10
14628.84203862246
 20
4127.406468896559
 30
0.0
 11
14299.17516736151
 21
3797.739597635561
 31
0.0
  0
LINE
  5
1DDA3
330
1DB32
100
AcDbEntity
  8
HASHIRA
  6
1PL-SL
 62
     6
100
AcDbLine
 10
14068.842038622
 20
4672.397044557111
 30
0.0
 11
14068.84203862247
 21
3569.739597635554
 31
0.0
  0
LINE
  5
1DDA4
330
1DB32
100
AcDbEntity
  8
HASHIRA
  6
HIDE-M
 62
     6
100
AcDbLine
 10
14229.64203862264
 20
3693.739597635548
 30
0.0
 11
14229.64203862264
 21
4584.26660257286
 31
0.0
  0
LINE
  5
1DDA5
330
1DB32
100
AcDbEntity
  8
HASHIRA
  6
HIDE-M
 62
     6
100
AcDbLine
 10
13908.04203862254
 20
3693.739597635548
 30
0.0
 11
13908.04203862254
 21
4560.527486540165
 31
0.0
  0
LINE
  5
1DDA6
330
1DB32
100
AcDbEntity
  8
HASHIRA
100
AcDbLine
 10
14238.84203862246
 20
3693.739597635548
 30
0.0
 11
14238.84203862246
 21
4572.397044557095
 31
0.0
  0
LINE
  5
1DDA7
330
1DB32
100
AcDbEntity
  8
HASHIRA
100
AcDbLine
 10
13898.84203862247
 20
3693.739597635548
 30
0.0
 11
13898.84203862247
 21
4572.397044556317
 31
0.0
  0
LINE
  5
1DDA8
330
1DB32
100
AcDbEntity
  8
U3
100
AcDbLine
 10
14585.79849458019
 20
4419.739597635554
 30
0.0
 11
14238.84203862246
 21
4072.783141677872
 31
0.0
  0
ARC
  5
1DDA9
330
1DB32
100
AcDbEntity
  8
A-PL
  6
HIDE-M
 62
     6
100
AcDbCircle
 10
14000.84203862259
 20
4053.739597635546
 30
0.0
 40
40.0
100
AcDbArc
 50
90.0
 51
180.0
  0
ARC
  5
1DDAA
330
1DB32
100
AcDbEntity
  8
A-PL
  6
HIDE-M
 62
     6
100
AcDbCircle
 10
14136.84203862259
 20
4053.739597635546
 30
0.0
 40
40.0
100
AcDbArc
 50
0.0
 51
90.0
  0
LINE
  5
1DDAB
330
1DB32
100
AcDbEntity
  8
HIKIDASHI
100
AcDbLine
 10
13144.66092651698
 20
5103.46700206148
 30
0.0
 11
13144.66092651698
 21
5303.467002061481
 31
0.0
  0
LINE
  5
1DDAC
330
1DB32
100
AcDbEntity
  8
HIKIDASHI
100
AcDbLine
 10
12952.66092651697
 20
5303.467002061481
 30
0.0
 11
12952.66092651697
 21
5103.46700206148
 31
0.0
  0
LINE
  5
1DDAD
330
1DB32
100
AcDbEntity
  8
HIKIDASHI
100
AcDbLine
 10
13144.66092651698
 20
5303.467002061481
 30
0.0
 11
12952.66092651697
 21
5303.467002061481
 31
0.0
  0
LINE
  5
1DDAE
330
1DB32
100
AcDbEntity
  8
HIKIDASHI
100
AcDbLine
 10
12952.66092651697
 20
5103.46700206148
 30
0.0
 11
13144.66092651698
 21
5103.46700206148
 31
0.0
  0
TEXT
  5
1DDAF
330
1DB32
100
AcDbEntity
  8
HIKIDASHI
100
AcDbText
 10
12992.66092651697
 20
5143.46700206148
 30
0.0
 40
120.0
  1
前
  7
01
 72
     4
 11
13048.66092651697
 21
5203.46700206148
 31
0.0
100
AcDbText
  0
LINE
  5
1DDB0
330
1DB32
100
AcDbEntity
  8
U3
100
AcDbLine
 10
13523.09993374126
 20
4419.739597635554
 30
0.0
 11
13508.84203862247
 21
4405.481702516794
 31
0.0
  0
LINE
  5
1DDB1
330
1DB32
100
AcDbEntity
  8
U3
100
AcDbLine
 10
13579.66847623628
 20
4419.739597635554
 30
0.0
 11
13508.84203862247
 21
4348.913160021875
 31
0.0
  0
TEXT
  5
1DDB2
330
1DB32
100
AcDbEntity
  8
HIKIDASHI
100
AcDbText
 10
12637.78442866122
 20
4475.210032245348
 30
0.0
 40
119.9999999999999
  1
M10
 41
0.6666666666666666
  7
00
100
AcDbText
  0
LINE
  5
1DDB3
330
1DB32
100
AcDbEntity
  8
HIKIDASHI
100
AcDbLine
 10
12597.78442866122
 20
4415.210032245346
 30
0.0
 11
13326.16538104217
 21
4415.210032245346
 31
0.0
  0
TEXT
  5
1DDB4
330
1DB32
100
AcDbEntity
  8
HIKIDASHI
100
AcDbText
 10
12910.16538104217
 20
4475.210032245348
 30
0.0
 40
119.9999999999999
  1
ボルト
  7
01
100
AcDbText
  0
TEXT
  5
1DDB5
330
1DB32
100
AcDbEntity
  8
HIKIDASHI
100
AcDbText
 10
12428.19061942224
 20
3791.590527492044
 30
0.0
 40
120.0
  1
C12-70
 41
0.6666666666666666
  7
00
100
AcDbText
  0
LINE
  5
1DDB6
330
1DB32
100
AcDbEntity
  8
HIKIDASHI
100
AcDbLine
 10
12368.19061942224
 20
3971.590527492045
 30
0.0
 11
13440.19061942224
 21
3971.590527492045
 31
0.0
  0
LINE
  5
1DDB7
330
1DB32
100
AcDbEntity
  8
U1
100
AcDbLine
 10
13508.84203862247
 20
3669.739597635554
 30
0.0
 11
13508.84203862247
 21
4419.739597635554
 31
0.0
  0
TEXT
  5
1DDB8
330
1DB32
100
AcDbEntity
  8
HIKIDASHI
100
AcDbText
 10
12428.19061942224
 20
4031.590527492045
 30
0.0
 40
120.0
  1
オールアンカー
  7
01
100
AcDbText
  0
LINE
  5
1DDB9
330
1DB32
100
AcDbEntity
  8
U3
100
AcDbLine
 10
13915.04514901747
 20
4419.739597635554
 30
0.0
 11
13508.84203862247
 21
4013.536487240554
 31
0.0
  0
LINE
  5
1DDBA
330
1DB32
100
AcDbEntity
  8
U3
100
AcDbLine
 10
13898.84203862247
 20
4181.296899449086
 30
0.0
 11
13508.84203862247
 21
3791.296899449088
 31
0.0
  0
LINE
  5
1DDBB
330
1DB32
100
AcDbEntity
  8
U3
100
AcDbLine
 10
13898.84203862247
 20
4124.728356954139
 30
0.0
 11
13508.84203862247
 21
3734.728356954155
 31
0.0
  0
LINE
  5
1DDBC
330
1DB32
100
AcDbEntity
  8
U3
100
AcDbLine
 10
13898.84203862247
 20
4068.15981445922
 30
0.0
 11
13508.84203862247
 21
3678.159814459234
 31
0.0
  0
LINE
  5
1DDBD
330
1DB32
100
AcDbEntity
  8
U1
100
AcDbLine
 10
13783.84203862247
 20
3669.739597635554
 30
0.0
 11
13408.8420386213
 21
3669.739597635554
 31
0.0
  0
LINE
  5
1DDBE
330
1DB32
100
AcDbEntity
  8
A-PL
  6
1PL-SL
 62
     6
100
AcDbLine
 10
14528.84203862246
 20
5203.46700206148
 30
0.0
 11
13608.84203862247
 21
5203.46700206148
 31
0.0
  0
LINE
  5
1DDBF
330
1DB32
100
AcDbEntity
  8
U3
100
AcDbLine
 10
13801.90806402766
 20
4419.739597635554
 30
0.0
 11
13508.84203862247
 21
4126.673572230422
 31
0.0
  0
LINE
  5
1DDC0
330
1DB32
100
AcDbEntity
  8
U3
100
AcDbLine
 10
13858.47660652268
 20
4419.739597635554
 30
0.0
 11
13508.84203862247
 21
4070.105029735466
 31
0.0
  0
LINE
  5
1DDC1
330
1DB32
100
AcDbEntity
  8
U1
100
AcDbLine
 10
13508.84203862247
 20
4419.739597635554
 30
0.0
 11
13898.84203862247
 21
4419.739597635554
 31
0.0
  0
TEXT
  5
1DDC2
330
1DB32
100
AcDbEntity
  8
HIKIDASHI
100
AcDbText
 10
12915.76016041806
 20
3791.590527492044
 30
0.0
 40
120.0
  1
（別途）
  7
01
100
AcDbText
  0
LINE
  5
1DDC3
330
1DB32
100
AcDbEntity
  8
U1
100
AcDbLine
 10
3753.007042992147
 20
2461.291251548639
 30
0.0
 11
3968.007042992147
 21
2461.291251548639
 31
0.0
  0
LINE
  5
1DDC4
330
1DB32
100
AcDbEntity
  8
U1
100
AcDbLine
 10
3968.007042992147
 20
2461.291251548639
 30
0.0
 11
3968.007042992147
 21
2441.291251548639
 31
0.0
  0
LINE
  5
1DDC5
330
1DB32
100
AcDbEntity
  8
U1
100
AcDbLine
 10
3968.007042992147
 20
2441.291251548639
 30
0.0
 11
3753.007042992147
 21
2441.291251548639
 31
0.0
  0
LINE
  5
1DDC6
330
1DB32
100
AcDbEntity
  8
U1
100
AcDbLine
 10
3583.007042992147
 20
2441.291251548639
 30
0.0
 11
3368.007042992147
 21
2441.291251548639
 31
0.0
  0
LINE
  5
1DDC7
330
1DB32
100
AcDbEntity
  8
U1
100
AcDbLine
 10
3368.007042992147
 20
2441.291251548639
 30
0.0
 11
3368.007042992147
 21
2461.291251548639
 31
0.0
  0
LINE
  5
1DDC8
330
1DB32
100
AcDbEntity
  8
U1
100
AcDbLine
 10
3368.007042992147
 20
2461.291251548639
 30
0.0
 11
3583.007042992147
 21
2461.291251548639
 31
0.0
  0
ARC
  5
1DDC9
330
1DB32
100
AcDbEntity
  8
HASHIRA
100
AcDbCircle
 10
3616.598222519046
 20
3198.051284443485
 30
0.0
 40
162.9196111032521
100
AcDbArc
 50
100.2982523470732
 51
101.8987326800792
  0
ARC
  5
1DDCA
330
1DB32
100
AcDbEntity
  8
HASHIRA
100
AcDbCircle
 10
3605.008006538322
 20
3261.839183362859
 30
0.0
 40
98.08729543407403
100
AcDbArc
 50
83.09831943898513
 51
100.2982523470732
  0
ARC
  5
1DDCB
330
1DB32
100
AcDbEntity
  8
HASHIRA
100
AcDbCircle
 10
3604.019508787853
 20
3253.672686506201
 30
0.0
 40
106.3134001448404
100
AcDbArc
 50
65.21271938598575
 51
83.09831943898513
  0
ARC
  5
1DDCC
330
1DB32
100
AcDbEntity
  8
HASHIRA
100
AcDbCircle
 10
3670.713432589094
 20
3398.09575475872
 30
0.0
 40
52.76551774020656
100
AcDbArc
 50
245.2127193859857
 51
270.7072113015335
  0
ARC
  5
1DDCD
330
1DB32
100
AcDbEntity
  8
HASHIRA
100
AcDbCircle
 10
3670.827990000268
 20
3388.815186386958
 30
0.0
 40
43.48424235891135
100
AcDbArc
 50
270.7072113015335
 51
298.3470543554961
  0
ARC
  5
1DDCE
330
1DB32
100
AcDbEntity
  8
HASHIRA
100
AcDbCircle
 10
3728.724763342514
 20
3281.500437566391
 30
0.0
 40
78.4521823790019
100
AcDbArc
 50
97.85922635455875
 51
118.3470543554959
  0
ARC
  5
1DDCF
330
1DB32
100
AcDbEntity
  8
HASHIRA
100
AcDbCircle
 10
3727.847006789473
 20
3287.859324167312
 30
0.0
 40
72.03300054875507
100
AcDbArc
 50
75.97256549848101
 51
97.85922635455875
  0
ARC
  5
1DDD0
330
1DB32
100
AcDbEntity
  8
HASHIRA
100
AcDbCircle
 10
3716.879865860196
 20
3243.962078290897
 30
0.0
 40
117.2795073277021
100
AcDbArc
 50
72.05864435896765
 51
75.97256549848101
  0
ARC
  5
1DDD1
330
1DB32
100
AcDbEntity
  8
HASHIRA
100
AcDbCircle
 10
3616.598222518915
 20
3347.772814569637
 30
0.0
 40
162.9196111032269
100
AcDbArc
 50
100.2982523470732
 51
101.8987326800792
  0
ARC
  5
1DDD2
330
1DB32
100
AcDbEntity
  8
HASHIRA
100
AcDbCircle
 10
3605.008006538322
 20
3411.560713489009
 30
0.0
 40
98.08729543407421
100
AcDbArc
 50
83.09831943898513
 51
100.2982523470732
  0
ARC
  5
1DDD3
330
1DB32
100
AcDbEntity
  8
HASHIRA
100
AcDbCircle
 10
3604.019508787866
 20
3403.394216632351
 30
0.0
 40
106.3134001448385
100
AcDbArc
 50
65.21271938598575
 51
83.09831943898513
  0
ARC
  5
1DDD4
330
1DB32
100
AcDbEntity
  8
HASHIRA
100
AcDbCircle
 10
3670.713432589101
 20
3547.817284884869
 30
0.0
 40
52.76551774020877
100
AcDbArc
 50
245.2127193859857
 51
270.7072113015335
  0
ARC
  5
1DDD5
330
1DB32
100
AcDbEntity
  8
HASHIRA
100
AcDbCircle
 10
3670.82799000026
 20
3538.536716513107
 30
0.0
 40
43.48424235891278
100
AcDbArc
 50
270.7072113015335
 51
298.3470543554961
  0
ARC
  5
1DDD6
330
1DB32
100
AcDbEntity
  8
HASHIRA
100
AcDbCircle
 10
3728.724763342507
 20
3431.221967692542
 30
0.0
 40
78.45218237900098
100
AcDbArc
 50
97.85922635455875
 51
118.3470543554959
  0
ARC
  5
1DDD7
330
1DB32
100
AcDbEntity
  8
HASHIRA
100
AcDbCircle
 10
3727.847006789481
 20
3437.580854293461
 30
0.0
 40
72.03300054875498
100
AcDbArc
 50
75.97256549848101
 51
97.85922635455875
  0
ARC
  5
1DDD8
330
1DB32
100
AcDbEntity
  8
HASHIRA
100
AcDbCircle
 10
3716.879865860137
 20
3393.683608417043
 30
0.0
 40
117.2795073277183
100
AcDbArc
 50
72.05864435896765
 51
75.97256549848101
  0
ARC
  5
1DDD9
330
1DB32
100
AcDbEntity
  8
HASHIRA
100
AcDbCircle
 10
3621.007042992147
 20
4452.347603535439
 30
0.0
 40
12.0
100
AcDbArc
 50
270.0
 51
90.0
  0
LINE
  5
1DDDA
330
1DB32
100
AcDbEntity
  8
HASHIRA
100
AcDbLine
 10
3621.007042992147
 20
4464.347603535439
 30
0.0
 11
3615.007042992147
 21
4464.347603535439
 31
0.0
  0
ARC
  5
1DDDB
330
1DB32
100
AcDbEntity
  8
HASHIRA
100
AcDbCircle
 10
3615.007042992147
 20
4452.347603535439
 30
0.0
 40
12.0
100
AcDbArc
 50
90.0
 51
270.0
  0
LINE
  5
1DDDC
330
1DB32
100
AcDbEntity
  8
HASHIRA
100
AcDbLine
 10
3615.007042992147
 20
4440.347603535438
 30
0.0
 11
3621.007042992147
 21
4440.347603535438
 31
0.0
  0
ARC
  5
1DDDD
330
1DB32
100
AcDbEntity
  8
HASHIRA
100
AcDbCircle
 10
3721.007042992147
 20
4452.347603535439
 30
0.0
 40
12.0
100
AcDbArc
 50
270.0
 51
90.0
  0
LINE
  5
1DDDE
330
1DB32
100
AcDbEntity
  8
HASHIRA
100
AcDbLine
 10
3721.007042992147
 20
4464.347603535439
 30
0.0
 11
3715.007042992147
 21
4464.347603535439
 31
0.0
  0
ARC
  5
1DDDF
330
1DB32
100
AcDbEntity
  8
HASHIRA
100
AcDbCircle
 10
3715.007042992147
 20
4452.347603535439
 30
0.0
 40
12.0
100
AcDbArc
 50
90.0
 51
270.0
  0
LINE
  5
1DDE0
330
1DB32
100
AcDbEntity
  8
HASHIRA
100
AcDbLine
 10
3715.007042992147
 20
4440.347603535438
 30
0.0
 11
3721.007042992147
 21
4440.347603535438
 31
0.0
  0
ARC
  5
1DDE1
330
1DB32
100
AcDbEntity
  8
HASHIRA
100
AcDbCircle
 10
3621.007042992147
 20
4692.34760353544
 30
0.0
 40
12.0
100
AcDbArc
 50
270.0
 51
90.0
  0
LINE
  5
1DDE2
330
1DB32
100
AcDbEntity
  8
HASHIRA
100
AcDbLine
 10
3621.007042992147
 20
4704.347603535438
 30
0.0
 11
3615.007042992147
 21
4704.347603535438
 31
0.0
  0
ARC
  5
1DDE3
330
1DB32
100
AcDbEntity
  8
HASHIRA
100
AcDbCircle
 10
3615.007042992147
 20
4692.34760353544
 30
0.0
 40
12.0
100
AcDbArc
 50
90.0
 51
270.0
  0
LINE
  5
1DDE4
330
1DB32
100
AcDbEntity
  8
HASHIRA
100
AcDbLine
 10
3615.007042992147
 20
4680.34760353544
 30
0.0
 11
3621.007042992147
 21
4680.34760353544
 31
0.0
  0
ARC
  5
1DDE5
330
1DB32
100
AcDbEntity
  8
HASHIRA
100
AcDbCircle
 10
3721.007042992147
 20
4692.34760353544
 30
0.0
 40
12.0
100
AcDbArc
 50
270.0
 51
90.0
  0
LINE
  5
1DDE6
330
1DB32
100
AcDbEntity
  8
HASHIRA
100
AcDbLine
 10
3721.007042992147
 20
4704.347603535438
 30
0.0
 11
3715.007042992147
 21
4704.347603535438
 31
0.0
  0
ARC
  5
1DDE7
330
1DB32
100
AcDbEntity
  8
HASHIRA
100
AcDbCircle
 10
3715.007042992147
 20
4692.34760353544
 30
0.0
 40
12.0
100
AcDbArc
 50
90.0
 51
270.0
  0
LINE
  5
1DDE8
330
1DB32
100
AcDbEntity
  8
HASHIRA
100
AcDbLine
 10
3715.007042992147
 20
4680.34760353544
 30
0.0
 11
3721.007042992147
 21
4680.34760353544
 31
0.0
  0
LINE
  5
1DDE9
330
1DB32
100
AcDbEntity
  8
U1
100
AcDbLine
 10
8904.771010768534
 20
2441.291251548639
 30
0.0
 11
8689.771010768534
 21
2441.291251548639
 31
0.0
  0
LINE
  5
1DDEA
330
1DB32
100
AcDbEntity
  8
U1
100
AcDbLine
 10
8689.771010768534
 20
2441.291251548639
 30
0.0
 11
8689.771010768534
 21
2461.291251548639
 31
0.0
  0
LINE
  5
1DDEB
330
1DB32
100
AcDbEntity
  8
U1
100
AcDbLine
 10
8689.771010768534
 20
2461.291251548639
 30
0.0
 11
8904.771010768534
 21
2461.291251548639
 31
0.0
  0
LINE
  5
1DDEC
330
1DB32
100
AcDbEntity
  8
U1
100
AcDbLine
 10
9074.771010768534
 20
2461.291251548639
 30
0.0
 11
9289.771010768534
 21
2461.291251548639
 31
0.0
  0
LINE
  5
1DDED
330
1DB32
100
AcDbEntity
  8
U1
100
AcDbLine
 10
9289.771010768534
 20
2461.291251548639
 30
0.0
 11
9289.771010768534
 21
2441.291251548639
 31
0.0
  0
LINE
  5
1DDEE
330
1DB32
100
AcDbEntity
  8
U1
100
AcDbLine
 10
9289.771010768534
 20
2441.291251548639
 30
0.0
 11
9074.771010768534
 21
2441.291251548639
 31
0.0
  0
ARC
  5
1DDEF
330
1DB32
100
AcDbEntity
  8
HASHIRA
100
AcDbCircle
 10
8938.362190295302
 20
3347.772814569637
 30
0.0
 40
162.9196111032271
100
AcDbArc
 50
100.2982523470732
 51
101.8987326800792
  0
ARC
  5
1DDF0
330
1DB32
100
AcDbEntity
  8
HASHIRA
100
AcDbCircle
 10
8926.771974314716
 20
3411.560713489009
 30
0.0
 40
98.08729543407437
100
AcDbArc
 50
83.09831943898513
 51
100.2982523470732
  0
ARC
  5
1DDF1
330
1DB32
100
AcDbEntity
  8
HASHIRA
100
AcDbCircle
 10
8925.783476564246
 20
3403.394216632351
 30
0.0
 40
106.3134001448385
100
AcDbArc
 50
65.21271938598575
 51
83.09831943898513
  0
ARC
  5
1DDF2
330
1DB32
100
AcDbEntity
  8
HASHIRA
100
AcDbCircle
 10
8992.477400365489
 20
3547.817284884869
 30
0.0
 40
52.76551774020858
100
AcDbArc
 50
245.2127193859857
 51
270.7072113015335
  0
ARC
  5
1DDF3
330
1DB32
100
AcDbEntity
  8
HASHIRA
100
AcDbCircle
 10
8992.591957776644
 20
3538.536716513107
 30
0.0
 40
43.48424235891279
100
AcDbArc
 50
270.7072113015335
 51
298.3470543554961
  0
ARC
  5
1DDF4
330
1DB32
100
AcDbEntity
  8
HASHIRA
100
AcDbCircle
 10
9050.488731118894
 20
3431.221967692542
 30
0.0
 40
78.45218237900056
100
AcDbArc
 50
97.85922635455875
 51
118.3470543554959
  0
ARC
  5
1DDF5
330
1DB32
100
AcDbEntity
  8
HASHIRA
100
AcDbCircle
 10
9049.610974565869
 20
3437.580854293461
 30
0.0
 40
72.03300054875498
100
AcDbArc
 50
75.97256549848101
 51
97.85922635455875
  0
ARC
  5
1DDF6
330
1DB32
100
AcDbEntity
  8
HASHIRA
100
AcDbCircle
 10
9038.643833636523
 20
3393.683608417043
 30
0.0
 40
117.2795073277183
100
AcDbArc
 50
72.05864435896765
 51
75.97256549848101
  0
ARC
  5
1DDF7
330
1DB32
100
AcDbEntity
  8
HASHIRA
100
AcDbCircle
 10
8938.362190295434
 20
3198.051284443485
 30
0.0
 40
162.9196111032521
100
AcDbArc
 50
100.2982523470732
 51
101.8987326800792
  0
ARC
  5
1DDF8
330
1DB32
100
AcDbEntity
  8
HASHIRA
100
AcDbCircle
 10
8926.771974314702
 20
3261.839183362859
 30
0.0
 40
98.08729543407395
100
AcDbArc
 50
83.09831943898513
 51
100.2982523470732
  0
ARC
  5
1DDF9
330
1DB32
100
AcDbEntity
  8
HASHIRA
100
AcDbCircle
 10
8925.783476564239
 20
3253.672686506201
 30
0.0
 40
106.3134001448402
100
AcDbArc
 50
65.21271938598575
 51
83.09831943898513
  0
ARC
  5
1DDFA
330
1DB32
100
AcDbEntity
  8
HASHIRA
100
AcDbCircle
 10
8992.477400365482
 20
3398.09575475872
 30
0.0
 40
52.76551774020678
100
AcDbArc
 50
245.2127193859857
 51
270.7072113015335
  0
ARC
  5
1DDFB
330
1DB32
100
AcDbEntity
  8
HASHIRA
100
AcDbCircle
 10
8992.591957776644
 20
3388.815186386958
 30
0.0
 40
43.48424235891136
100
AcDbArc
 50
270.7072113015335
 51
298.3470543554961
  0
ARC
  5
1DDFC
330
1DB32
100
AcDbEntity
  8
HASHIRA
100
AcDbCircle
 10
9050.488731118894
 20
3281.500437566391
 30
0.0
 40
78.45218237900231
100
AcDbArc
 50
97.85922635455875
 51
118.3470543554959
  0
ARC
  5
1DDFD
330
1DB32
100
AcDbEntity
  8
HASHIRA
100
AcDbCircle
 10
9049.610974565862
 20
3287.859324167312
 30
0.0
 40
72.03300054875514
100
AcDbArc
 50
75.97256549848101
 51
97.85922635455875
  0
ARC
  5
1DDFE
330
1DB32
100
AcDbEntity
  8
HASHIRA
100
AcDbCircle
 10
9038.643833636582
 20
3243.962078290897
 30
0.0
 40
117.279507327702
100
AcDbArc
 50
72.05864435896765
 51
75.97256549848101
  0
TEXT
  5
1DE15
330
1DB32
100
AcDbEntity
  8
SUNPOU
100
AcDbText
 10
10074.79159401871
 20
1358.020419738543
 30
0.0
 40
119.9991666724536
  1
ベース筋
  7
01
100
AcDbText
  0
TEXT
  5
1DE16
330
1DB32
100
AcDbEntity
  8
SUNPOU
100
AcDbText
 10
10733.50143742892
 20
1358.020419738543
 30
0.0
 40
119.9991666724536
  1
4-D13 x 4-D13
 41
0.6666666666666666
  7
01
100
AcDbText
  0
TEXT
  5
1DE17
330
1DB32
100
AcDbEntity
  8
SUNPOU
100
AcDbText
 10
4953.027626242327
 20
1358.020419738543
 30
0.0
 40
119.9991666724536
  1
ベース筋
  7
01
100
AcDbText
  0
TEXT
  5
1DE18
330
1DB32
100
AcDbEntity
  8
SUNPOU
100
AcDbText
 10
5611.737469652544
 20
1358.020419738543
 30
0.0
 40
119.9991666724536
  1
6-D13 x 6-D13
 41
0.6666666666666666
  7
01
100
AcDbText
  0
LINE
  5
1DE19
330
1DB32
100
AcDbEntity
  8
HASHIRA
100
AcDbLine
 10
5752.893103266907
 20
10034.74800501664
 30
0.0
 11
5837.893103266907
 21
10034.74800501664
 31
0.0
  0
LINE
  5
1DE1A
330
1DB32
100
AcDbEntity
  8
HASHIRA
100
AcDbLine
 10
5837.893103266907
 20
10034.74800501664
 30
0.0
 11
5837.893103266907
 21
10119.74800501664
 31
0.0
  0
LINE
  5
1DE1B
330
1DB32
100
AcDbEntity
  8
HASHIRA
100
AcDbLine
 10
5837.893103266907
 20
10119.74800501664
 30
0.0
 11
5752.893103266907
 21
10119.74800501664
 31
0.0
  0
LINE
  5
1DE1C
330
1DB32
100
AcDbEntity
  8
HASHIRA
100
AcDbLine
 10
5752.893103266907
 20
10119.74800501664
 30
0.0
 11
5752.893103266907
 21
10034.74800501664
 31
0.0
  0
LINE
  5
1DE1D
330
1DB32
100
AcDbEntity
  8
HASHIRA
100
AcDbLine
 10
5837.893103266907
 20
8119.748005016647
 30
0.0
 11
5752.893103266907
 21
8119.748005016647
 31
0.0
  0
LINE
  5
1DE1E
330
1DB32
100
AcDbEntity
  8
HASHIRA
100
AcDbLine
 10
5752.893103266907
 20
8034.748005016648
 30
0.0
 11
5837.893103266907
 21
8034.748005016648
 31
0.0
  0
LINE
  5
1DE1F
330
1DB32
100
AcDbEntity
  8
HASHIRA
100
AcDbLine
 10
5752.893103266907
 20
8119.748005016647
 30
0.0
 11
5752.893103266907
 21
8034.748005016648
 31
0.0
  0
LINE
  5
1DE20
330
1DB32
100
AcDbEntity
  8
HASHIRA
100
AcDbLine
 10
5837.893103266907
 20
8034.748005016648
 30
0.0
 11
5837.893103266907
 21
8119.748005016647
 31
0.0
  0
LINE
  5
1DE21
330
1DB32
100
AcDbEntity
  8
HASHIRA
100
AcDbLine
 10
8237.893103266904
 20
10119.74800501664
 30
0.0
 11
8152.893103266904
 21
10119.74800501664
 31
0.0
  0
LINE
  5
1DE22
330
1DB32
100
AcDbEntity
  8
HASHIRA
100
AcDbLine
 10
8152.893103266904
 20
10034.74800501664
 30
0.0
 11
8237.893103266904
 21
10034.74800501664
 31
0.0
  0
LINE
  5
1DE23
330
1DB32
100
AcDbEntity
  8
HASHIRA
100
AcDbLine
 10
8152.893103266904
 20
10119.74800501664
 30
0.0
 11
8152.893103266904
 21
10034.74800501664
 31
0.0
  0
LINE
  5
1DE24
330
1DB32
100
AcDbEntity
  8
HASHIRA
100
AcDbLine
 10
8237.893103266904
 20
10034.74800501664
 30
0.0
 11
8237.893103266904
 21
10119.74800501664
 31
0.0
  0
LINE
  5
1DE25
330
1DB32
100
AcDbEntity
  8
HASHIRA
100
AcDbLine
 10
10552.8931032669
 20
8034.748005016648
 30
0.0
 11
10637.89310326689
 21
8034.748005016648
 31
0.0
  0
LINE
  5
1DE26
330
1DB32
100
AcDbEntity
  8
HASHIRA
100
AcDbLine
 10
10637.89310326689
 20
8119.748005016647
 30
0.0
 11
10552.8931032669
 21
8119.748005016647
 31
0.0
  0
LINE
  5
1DE27
330
1DB32
100
AcDbEntity
  8
HASHIRA
100
AcDbLine
 10
10552.8931032669
 20
8119.748005016647
 30
0.0
 11
10552.8931032669
 21
8034.748005016648
 31
0.0
  0
LINE
  5
1DE28
330
1DB32
100
AcDbEntity
  8
HASHIRA
100
AcDbLine
 10
10637.89310326689
 20
8034.748005016648
 30
0.0
 11
10637.89310326689
 21
8119.748005016647
 31
0.0
  0
LINE
  5
1DE29
330
1DB32
100
AcDbEntity
  8
HASHIRA
100
AcDbLine
 10
10637.89310326689
 20
10119.74800501664
 30
0.0
 11
10552.8931032669
 21
10119.74800501664
 31
0.0
  0
LINE
  5
1DE2A
330
1DB32
100
AcDbEntity
  8
HASHIRA
100
AcDbLine
 10
10552.8931032669
 20
10034.74800501664
 30
0.0
 11
10637.89310326689
 21
10034.74800501664
 31
0.0
  0
LINE
  5
1DE2B
330
1DB32
100
AcDbEntity
  8
HASHIRA
100
AcDbLine
 10
10552.8931032669
 20
10119.74800501664
 30
0.0
 11
10552.8931032669
 21
10034.74800501664
 31
0.0
  0
LINE
  5
1DE2C
330
1DB32
100
AcDbEntity
  8
HASHIRA
100
AcDbLine
 10
10637.89310326689
 20
10034.74800501664
 30
0.0
 11
10637.89310326689
 21
10119.74800501664
 31
0.0
  0
LINE
  5
1DE2D
330
1DB32
100
AcDbEntity
  8
1PL-L1
100
AcDbLine
 10
5070.393103266907
 20
10077.24800501665
 30
0.0
 11
11345.39310326689
 21
10077.24800501665
 31
0.0
  0
LINE
  5
1DE2E
330
1DB32
100
AcDbEntity
  8
1PL-L1
100
AcDbLine
 10
5795.393103266905
 20
10627.24800501664
 30
0.0
 11
5795.393103266905
 21
7327.248005016646
 31
0.0
  0
LINE
  5
1DE2F
330
1DB32
100
AcDbEntity
  8
1PL-L1
100
AcDbLine
 10
8195.393103266907
 20
10627.24800501664
 30
0.0
 11
8195.393103266907
 21
9527.24800501665
 31
0.0
  0
LINE
  5
1DE30
330
1DB32
100
AcDbEntity
  8
1PL-L1
100
AcDbLine
 10
10595.39310326689
 20
10627.24800501664
 30
0.0
 11
10595.39310326689
 21
7327.248005016646
 31
0.0
  0
LINE
  5
1DE31
330
1DB32
100
AcDbEntity
  8
1PL-L1
100
AcDbLine
 10
5070.393103266907
 20
8077.248005016647
 30
0.0
 11
11345.39310326689
 21
8077.248005016647
 31
0.0
  0
TEXT
  5
1DE32
330
1DB32
100
AcDbEntity
  8
SUNPOU
100
AcDbText
 10
7744.680222401552
 20
7837.267126484684
 30
0.0
 40
120.0
  1
屋根ヨドル－フ
  7
01
 72
     4
 11
8224.680222401552
 21
7897.267126484684
 31
0.0
100
AcDbText
  0
TEXT
  5
1DE33
330
1DB32
100
AcDbEntity
  8
SUNPOU
100
AcDbText
 10
8785.557420588608
 20
7837.267126484684
 30
0.0
 40
120.0
  1
88
 41
0.6666666666666666
  7
00
 72
     4
 11
8861.747896779084
 21
7897.267126484684
 31
0.0
100
AcDbText
  0
TEXT
  5
1DE34
330
1DB32
100
AcDbEntity
  8
SUNPOU
100
AcDbText
 10
7851.393103266906
 20
7359.671471476739
 30
0.0
 40
120.0
  1
鼻隠し外面
  7
01
 72
     4
 11
8195.393103266907
 21
7419.671471476738
 31
0.0
100
AcDbText
  0
TEXT
  5
1DE35
330
1DB32
100
AcDbEntity
  8
SUNPOU
100
AcDbText
 10
11000.7696368068
 20
8650.287235501183
 30
0.0
 40
120.0
  1
ケラバ外面
 50
90.0
  7
01
 72
     4
 11
10940.7696368068
 21
8998.287235501182
 31
0.0
100
AcDbText
  0
TEXT
  5
1DE36
330
1DB32
100
AcDbEntity
  8
HIKIDASHI
100
AcDbText
 10
6472.535960409764
 20
8525.819433588079
 30
0.0
 40
120.0
  1
A'
 41
0.6700000000000001
  7
00
 72
     4
 11
6520.393103266908
 21
8597.248005016648
 31
0.0
100
AcDbText
  0
LINE
  5
1DE37
330
1DB32
100
AcDbEntity
  8
HIKIDASHI
100
AcDbLine
 10
6520.393103266908
 20
8357.248005016648
 30
0.0
 11
6520.393103266908
 21
8077.248005016647
 31
0.0
1001
ACAD
1000
DSTYLE
1002
{
1070
   147
1040
1.5
1070
    77
1070
     0
1002
}
  0
LINE
  5
1DE38
330
1DB32
100
AcDbEntity
  8
HIKIDASHI
100
AcDbLine
 10
6540.393103266907
 20
8357.248005016648
 30
0.0
 11
6520.393103266908
 21
8477.248005016649
 31
0.0
  0
LINE
  5
1DE39
330
1DB32
100
AcDbEntity
  8
HIKIDASHI
100
AcDbLine
 10
6520.393103266908
 20
8477.248005016649
 30
0.0
 11
6500.393103266907
 21
8357.248005016648
 31
0.0
  0
SOLID
  5
1DE3A
330
1DB32
100
AcDbEntity
  8
HIKIDASHI
100
AcDbTrace
 10
6540.393103266907
 20
8357.248005016648
 30
0.0
 11
6500.393103266907
 21
8357.248005016648
 31
0.0
 12
6520.393103266908
 22
8477.248005016649
 32
0.0
 13
6520.393103266908
 23
8477.248005016649
 33
0.0
  0
LINE
  5
1DE3B
330
1DB32
100
AcDbEntity
  8
HIKIDASHI
100
AcDbLine
 10
6500.393103266907
 20
8357.248005016648
 30
0.0
 11
6540.393103266907
 21
8357.248005016648
 31
0.0
  0
LINE
  5
1DE3C
330
1DB32
100
AcDbEntity
  8
HIKIDASHI
100
AcDbLine
 10
5070.393103266907
 20
8357.248005016648
 30
0.0
 11
5070.393103266907
 21
8077.248005016647
 31
0.0
1001
ACAD
1000
DSTYLE
1002
{
1070
   147
1040
1.5
1070
    77
1070
     0
1002
}
  0
TEXT
  5
1DE3D
330
1DB32
100
AcDbEntity
  8
HIKIDASHI
100
AcDbText
 10
5035.935960409765
 20
8537.248005016648
 30
0.0
 40
120.0
  1
A
 41
0.6700000000000001
  7
00
 72
     4
 11
5070.393103266907
 21
8597.248005016648
 31
0.0
100
AcDbText
  0
SOLID
  5
1DE3E
330
1DB32
100
AcDbEntity
  8
HIKIDASHI
100
AcDbTrace
 10
5090.393103266907
 20
8357.248005016648
 30
0.0
 11
5050.393103266907
 21
8357.248005016648
 31
0.0
 12
5070.393103266907
 22
8477.248005016649
 32
0.0
 13
5070.393103266907
 23
8477.248005016649
 33
0.0
  0
LINE
  5
1DE3F
330
1DB32
100
AcDbEntity
  8
HIKIDASHI
100
AcDbLine
 10
5070.393103266907
 20
8477.248005016649
 30
0.0
 11
5050.393103266907
 21
8357.248005016648
 31
0.0
  0
LINE
  5
1DE40
330
1DB32
100
AcDbEntity
  8
HIKIDASHI
100
AcDbLine
 10
5090.393103266907
 20
8357.248005016648
 30
0.0
 11
5070.393103266907
 21
8477.248005016649
 31
0.0
  0
LINE
  5
1DE41
330
1DB32
100
AcDbEntity
  8
HIKIDASHI
100
AcDbLine
 10
5050.393103266907
 20
8357.248005016648
 30
0.0
 11
5090.393103266907
 21
8357.248005016648
 31
0.0
  0
LINE
  5
1DE42
330
1DB32
100
AcDbEntity
  8
HIDE-M3
100
AcDbLine
 10
5270.393103266907
 20
7552.248005016648
 30
0.0
 11
6320.393103266907
 21
7552.248005016648
 31
0.0
  0
LINE
  5
1DE43
330
1DB32
100
AcDbEntity
  8
HIDE-M3
100
AcDbLine
 10
6320.393103266907
 20
7552.248005016648
 30
0.0
 11
6320.393103266907
 21
8602.248005016649
 31
0.0
  0
LINE
  5
1DE44
330
1DB32
100
AcDbEntity
  8
HIDE-M3
100
AcDbLine
 10
6320.393103266907
 20
8602.248005016649
 30
0.0
 11
5270.393103266907
 21
8602.248005016649
 31
0.0
  0
LINE
  5
1DE45
330
1DB32
100
AcDbEntity
  8
HIDE-M3
100
AcDbLine
 10
5270.393103266907
 20
8602.248005016649
 30
0.0
 11
5270.393103266907
 21
7552.248005016648
 31
0.0
  0
LINE
  5
1DE46
330
1DB32
100
AcDbEntity
  8
HIDE-M3
100
AcDbLine
 10
7795.393103266909
 20
9677.24800501665
 30
0.0
 11
8595.393103266905
 21
9677.24800501665
 31
0.0
  0
LINE
  5
1DE47
330
1DB32
100
AcDbEntity
  8
HIDE-M3
100
AcDbLine
 10
8595.393103266905
 20
9677.24800501665
 30
0.0
 11
8595.393103266905
 21
10477.24800501665
 31
0.0
  0
LINE
  5
1DE48
330
1DB32
100
AcDbEntity
  8
HIDE-M3
100
AcDbLine
 10
8595.393103266905
 20
10477.24800501665
 30
0.0
 11
7795.393103266909
 21
10477.24800501665
 31
0.0
  0
LINE
  5
1DE49
330
1DB32
100
AcDbEntity
  8
HIDE-M3
100
AcDbLine
 10
7795.393103266909
 20
10477.24800501665
 30
0.0
 11
7795.393103266909
 21
9677.24800501665
 31
0.0
  0
TEXT
  5
1DE4A
330
1DB32
100
AcDbEntity
  8
HIKIDASHI
100
AcDbText
 10
8736.050246124053
 20
10525.81943358807
 30
0.0
 40
120.0
  1
B'
 41
0.6700000000000001
  7
00
 72
     4
 11
8795.39310326691
 21
10597.24800501665
 31
0.0
100
AcDbText
  0
LINE
  5
1DE4B
330
1DB32
100
AcDbEntity
  8
HIKIDASHI
100
AcDbLine
 10
8795.39310326691
 20
10357.24800501665
 30
0.0
 11
8795.39310326691
 21
10077.24800501665
 31
0.0
1001
ACAD
1000
DSTYLE
1002
{
1070
   147
1040
1.5
1070
    77
1070
     0
1002
}
  0
LINE
  5
1DE4C
330
1DB32
100
AcDbEntity
  8
HIKIDASHI
100
AcDbLine
 10
8815.393103266906
 20
10357.24800501665
 30
0.0
 11
8795.39310326691
 21
10477.24800501665
 31
0.0
  0
LINE
  5
1DE4D
330
1DB32
100
AcDbEntity
  8
HIKIDASHI
100
AcDbLine
 10
8795.39310326691
 20
10477.24800501665
 30
0.0
 11
8775.393103266905
 21
10357.24800501665
 31
0.0
  0
SOLID
  5
1DE4E
330
1DB32
100
AcDbEntity
  8
HIKIDASHI
100
AcDbTrace
 10
8815.393103266906
 20
10357.24800501665
 30
0.0
 11
8775.393103266905
 21
10357.24800501665
 31
0.0
 12
8795.39310326691
 22
10477.24800501665
 32
0.0
 13
8795.39310326691
 23
10477.24800501665
 33
0.0
  0
LINE
  5
1DE4F
330
1DB32
100
AcDbEntity
  8
HIKIDASHI
100
AcDbLine
 10
8775.393103266905
 20
10357.24800501665
 30
0.0
 11
8815.393103266906
 21
10357.24800501665
 31
0.0
  0
LINE
  5
1DE50
330
1DB32
100
AcDbEntity
  8
HIKIDASHI
100
AcDbLine
 10
7595.393103266907
 20
10357.24800501665
 30
0.0
 11
7595.393103266907
 21
10077.24800501665
 31
0.0
1001
ACAD
1000
DSTYLE
1002
{
1070
   147
1040
1.5
1070
    77
1070
     0
1002
}
  0
SOLID
  5
1DE51
330
1DB32
100
AcDbEntity
  8
HIKIDASHI
100
AcDbTrace
 10
7615.393103266907
 20
10357.24800501665
 30
0.0
 11
7575.393103266907
 21
10357.24800501665
 31
0.0
 12
7595.393103266907
 22
10477.24800501665
 32
0.0
 13
7595.393103266907
 23
10477.24800501665
 33
0.0
  0
LINE
  5
1DE52
330
1DB32
100
AcDbEntity
  8
HIKIDASHI
100
AcDbLine
 10
7595.393103266907
 20
10477.24800501665
 30
0.0
 11
7575.393103266907
 21
10357.24800501665
 31
0.0
  0
LINE
  5
1DE53
330
1DB32
100
AcDbEntity
  8
HIKIDASHI
100
AcDbLine
 10
7615.393103266907
 20
10357.24800501665
 30
0.0
 11
7595.393103266907
 21
10477.24800501665
 31
0.0
  0
LINE
  5
1DE54
330
1DB32
100
AcDbEntity
  8
HIKIDASHI
100
AcDbLine
 10
7575.393103266907
 20
10357.24800501665
 30
0.0
 11
7615.393103266907
 21
10357.24800501665
 31
0.0
  0
TEXT
  5
1DE55
330
1DB32
100
AcDbEntity
  8
HIKIDASHI
100
AcDbText
 10
7553.27881755262
 20
10537.24800501665
 30
0.0
 40
120.0
  1
B
 41
0.6700000000000001
  7
00
 72
     4
 11
7595.393103266907
 21
10597.24800501665
 31
0.0
100
AcDbText
  0
LINE
  5
1DE56
330
1DB32
100
AcDbEntity
  8
HIDE-M3
100
AcDbLine
 10
5270.393103266907
 20
10602.24800501665
 30
0.0
 11
5270.393103266907
 21
9552.248005016648
 31
0.0
  0
LINE
  5
1DE57
330
1DB32
100
AcDbEntity
  8
HIDE-M3
100
AcDbLine
 10
6320.393103266907
 20
9552.248005016648
 30
0.0
 11
6320.393103266907
 21
10602.24800501665
 31
0.0
  0
LINE
  5
1DE58
330
1DB32
100
AcDbEntity
  8
HIDE-M3
100
AcDbLine
 10
5270.393103266907
 20
9552.248005016648
 30
0.0
 11
6320.393103266907
 21
9552.248005016648
 31
0.0
  0
LINE
  5
1DE59
330
1DB32
100
AcDbEntity
  8
HIDE-M3
100
AcDbLine
 10
6320.393103266907
 20
10602.24800501665
 30
0.0
 11
5270.393103266907
 21
10602.24800501665
 31
0.0
  0
LINE
  5
1DE5A
330
1DB32
100
AcDbEntity
  8
HIDE-M3
100
AcDbLine
 10
10070.39310326689
 20
8602.248005016649
 30
0.0
 11
10070.39310326689
 21
7552.248005016648
 31
0.0
  0
LINE
  5
1DE5B
330
1DB32
100
AcDbEntity
  8
HIDE-M3
100
AcDbLine
 10
11120.39310326689
 20
7552.248005016648
 30
0.0
 11
11120.39310326689
 21
8602.248005016649
 31
0.0
  0
LINE
  5
1DE5C
330
1DB32
100
AcDbEntity
  8
HIDE-M3
100
AcDbLine
 10
10070.39310326689
 20
7552.248005016648
 30
0.0
 11
11120.39310326689
 21
7552.248005016648
 31
0.0
  0
LINE
  5
1DE5D
330
1DB32
100
AcDbEntity
  8
HIDE-M3
100
AcDbLine
 10
11120.39310326689
 20
8602.248005016649
 30
0.0
 11
10070.39310326689
 21
8602.248005016649
 31
0.0
  0
LINE
  5
1DE5E
330
1DB32
100
AcDbEntity
  8
HIDE-M3
100
AcDbLine
 10
10070.39310326689
 20
10602.24800501665
 30
0.0
 11
10070.39310326689
 21
9552.248005016648
 31
0.0
  0
LINE
  5
1DE5F
330
1DB32
100
AcDbEntity
  8
HIDE-M3
100
AcDbLine
 10
11120.39310326689
 20
9552.248005016648
 30
0.0
 11
11120.39310326689
 21
10602.24800501665
 31
0.0
  0
LINE
  5
1DE60
330
1DB32
100
AcDbEntity
  8
HIDE-M3
100
AcDbLine
 10
10070.39310326689
 20
9552.248005016648
 30
0.0
 11
11120.39310326689
 21
9552.248005016648
 31
0.0
  0
LINE
  5
1DE61
330
1DB32
100
AcDbEntity
  8
HIDE-M3
100
AcDbLine
 10
11120.39310326689
 20
10602.24800501665
 30
0.0
 11
10070.39310326689
 21
10602.24800501665
 31
0.0
  0
TEXT
  5
1DE62
330
1DB32
100
AcDbEntity
  8
HIKIDASHI
100
AcDbText
 10
7354.092653769227
 20
6186.524167366206
 30
0.0
 40
180.0
  1
基 礎 伏 図
  7
01
 72
     2
 11
8482.092653769226
 21
6186.524167366206
 31
0.0
100
AcDbText
  0
TEXT
  5
1DE63
330
1DB32
100
AcDbEntity
  8
HIKIDASHI
100
AcDbText
 10
8617.092653769226
 20
6222.248830112658
 30
0.0
 40
120.0
  1
(S=
 41
0.6700000000000001
  7
00
100
AcDbText
  0
TEXT
  5
1DE64
330
1DB32
100
AcDbEntity
  8
HIKIDASHI
100
AcDbText
 10
9007.302966616157
 20
6182.997083312242
 30
0.0
 40
120.0
  1
40
 41
0.6700000000000001
  7
00
100
AcDbText
  0
TEXT
  5
1DE65
330
1DB32
100
AcDbEntity
  8
HIKIDASHI
100
AcDbText
 10
9189.442650709809
 20
6222.248830112658
 30
0.0
 40
120.0
  1
)
 41
0.6700000000000001
  7
00
100
AcDbText
  0
TEXT
  5
1DE66
330
1DB32
100
AcDbEntity
  8
HIKIDASHI
100
AcDbText
 10
8937.860234472202
 20
6222.248830112658
 30
0.0
 40
120.0
  1
/
 41
0.6700000000000001
  7
00
100
AcDbText
  0
TEXT
  5
1DE67
330
1DB32
100
AcDbEntity
  8
HIKIDASHI
100
AcDbText
 10
8888.154527675734
 20
6245.591046734952
 30
0.0
 40
120.0
  1
1
 41
0.6700000000000001
  7
00
100
AcDbText
  0
TEXT
  5
1DE68
330
1DB32
100
AcDbEntity
  8
NAME
100
AcDbText
 10
11227.73587134625
 20
1055.0
 30
0.0
 40
120.0
  1
ヨド自転車置場　　　 型
  7
01
100
AcDbText
  0
TEXT
  5
1DE69
330
1DB32
100
AcDbEntity
  8
NAME
100
AcDbText
 10
12303.32857318295
 20
1055.0
 30
0.0
 40
120.0
  1
K W A
 41
0.6666666666666666
  7
00
100
AcDbText
  0
TEXT
  5
1DE6A
330
1DB32
100
AcDbEntity
  8
NAME
100
AcDbText
 10
12145.69452669699
 20
541.0
 30
0.0
 40
160.0
  1
型
  7
01
100
AcDbText
  0
TEXT
  5
1DE6B
330
1DB32
100
AcDbEntity
  8
NAME
100
AcDbText
 10
11068.49737355864
 20
541.0
 30
0.0
 40
160.0
  1
KWAU-4826
 41
0.7
  7
01
 72
     2
 11
12071.16404022531
 21
541.0
 31
0.0
100
AcDbText
  0
TEXT
  5
1DE6C
330
1DB32
100
AcDbEntity
  8
NAME
100
AcDbText
 10
12390.24920917533
 20
541.0
 30
0.0
 40
160.0
  1
<3／3>
 41
0.6
  7
01
 72
     2
 11
12889.44920917533
 21
541.0
 31
0.0
100
AcDbText
  0
TEXT
  5
1DE6D
330
1DB32
100
AcDbEntity
  8
NAME
100
AcDbText
 10
11279.10966039867
 20
875.0
 30
0.0
 40
120.0
  1
＜壁一段・背低・単棟＞
  7
01
100
AcDbText
  0
LINE
  5
1DE6E
330
1DB32
100
AcDbEntity
  8
2PL-M2
100
AcDbLine
 10
10684.3931032669
 20
7677.248005016648
 30
0.0
 11
5706.393103266908
 21
7677.248005016648
 31
0.0
  0
LINE
  5
1DE6F
330
1DB32
100
AcDbEntity
  8
2PL-M2
100
AcDbLine
 10
5706.393103266908
 20
7677.248005016648
 30
0.0
 11
5706.393103266908
 21
10317.24800501665
 31
0.0
  0
LINE
  5
1DE70
330
1DB32
100
AcDbEntity
  8
2PL-M2
100
AcDbLine
 10
5706.393103266908
 20
10317.24800501665
 30
0.0
 11
10684.3931032669
 21
10317.24800501665
 31
0.0
  0
LINE
  5
1DE71
330
1DB32
100
AcDbEntity
  8
2PL-M2
100
AcDbLine
 10
10684.3931032669
 20
10317.24800501665
 30
0.0
 11
10684.3931032669
 21
7677.248005016648
 31
0.0
  0
LINE
  5
1DE72
330
1DB32
100
AcDbEntity
  8
U1
100
AcDbLine
 10
4818.007042992147
 20
2001.291251548638
 30
0.0
 11
4818.007042992147
 21
2201.291251548639
 31
0.0
  0
LINE
  5
1DE73
330
1DB32
100
AcDbEntity
  8
U1
100
AcDbLine
 10
2518.007042992147
 20
2201.291251548639
 30
0.0
 11
2518.007042992147
 21
2001.291251548638
 31
0.0
  0
LINE
  5
1DE74
330
1DB32
100
AcDbEntity
  8
U1
100
AcDbLine
 10
2518.007042992147
 20
2001.291251548638
 30
0.0
 11
4818.007042992147
 21
2001.291251548638
 31
0.0
  0
LINE
  5
1DE75
330
1DB32
100
AcDbEntity
  8
U1
100
AcDbLine
 10
4818.007042992147
 20
2201.291251548639
 30
0.0
 11
2518.007042992147
 21
2201.291251548639
 31
0.0
  0
LINE
  5
1DE76
330
1DB32
100
AcDbEntity
  8
U1
100
AcDbLine
 10
9889.771010768527
 20
2001.291251548638
 30
0.0
 11
9889.771010768527
 21
2201.291251548639
 31
0.0
  0
LINE
  5
1DE77
330
1DB32
100
AcDbEntity
  8
U1
100
AcDbLine
 10
8089.771010768528
 20
2201.291251548639
 30
0.0
 11
8089.771010768528
 21
2001.291251548638
 31
0.0
  0
LINE
  5
1DE78
330
1DB32
100
AcDbEntity
  8
U1
100
AcDbLine
 10
8089.771010768528
 20
2001.291251548638
 30
0.0
 11
9889.771010768527
 21
2001.291251548638
 31
0.0
  0
LINE
  5
1DE79
330
1DB32
100
AcDbEntity
  8
U1
100
AcDbLine
 10
9889.771010768527
 20
2201.291251548639
 30
0.0
 11
8089.771010768528
 21
2201.291251548639
 31
0.0
  0
LINE
  5
1DE7A
330
1DB32
100
AcDbEntity
  8
HATCH
100
AcDbLine
 10
9878.933381788414
 20
2201.291251548639
 30
0.0
 11
9798.104344101862
 21
2001.291251548638
 31
0.0
  0
LINE
  5
1DE7B
330
1DB32
100
AcDbEntity
  8
HATCH
100
AcDbLine
 10
9838.789739560141
 20
2001.291251548638
 30
0.0
 11
9814.857153996456
 21
2042.743705701461
 31
0.0
  0
LINE
  5
1DE7C
330
1DB32
100
AcDbEntity
  8
HATCH
100
AcDbLine
 10
9838.789739560141
 20
2201.291251548639
 30
0.0
 11
9862.722325123826
 21
2159.838797395816
 31
0.0
  0
LINE
  5
1DE7D
330
1DB32
100
AcDbEntity
  8
HATCH
100
AcDbLine
 10
9678.933381788409
 20
2201.291251548639
 30
0.0
 11
9598.10434410186
 21
2001.291251548638
 31
0.0
  0
LINE
  5
1DE7E
330
1DB32
100
AcDbEntity
  8
HATCH
100
AcDbLine
 10
9638.789739560142
 20
2001.291251548638
 30
0.0
 11
9614.857153996455
 21
2042.743705701461
 31
0.0
  0
LINE
  5
1DE7F
330
1DB32
100
AcDbEntity
  8
HATCH
100
AcDbLine
 10
9638.789739560142
 20
2201.291251548639
 30
0.0
 11
9662.722325123832
 21
2159.838797395816
 31
0.0
  0
LINE
  5
1DE80
330
1DB32
100
AcDbEntity
  8
HATCH
100
AcDbLine
 10
9478.933381788413
 20
2201.291251548639
 30
0.0
 11
9398.104344101861
 21
2001.291251548638
 31
0.0
  0
LINE
  5
1DE81
330
1DB32
100
AcDbEntity
  8
HATCH
100
AcDbLine
 10
9438.789739560141
 20
2001.291251548638
 30
0.0
 11
9414.857153996456
 21
2042.743705701461
 31
0.0
  0
LINE
  5
1DE82
330
1DB32
100
AcDbEntity
  8
HATCH
100
AcDbLine
 10
9438.789739560141
 20
2201.291251548639
 30
0.0
 11
9462.722325123825
 21
2159.838797395816
 31
0.0
  0
LINE
  5
1DE83
330
1DB32
100
AcDbEntity
  8
HATCH
100
AcDbLine
 10
9278.933381788409
 20
2201.291251548639
 30
0.0
 11
9198.104344101862
 21
2001.291251548638
 31
0.0
  0
LINE
  5
1DE84
330
1DB32
100
AcDbEntity
  8
HATCH
100
AcDbLine
 10
9238.789739560141
 20
2001.291251548638
 30
0.0
 11
9214.857153996454
 21
2042.743705701461
 31
0.0
  0
LINE
  5
1DE85
330
1DB32
100
AcDbEntity
  8
HATCH
100
AcDbLine
 10
9238.789739560141
 20
2201.291251548639
 30
0.0
 11
9262.72232512383
 21
2159.838797395816
 31
0.0
  0
LINE
  5
1DE86
330
1DB32
100
AcDbEntity
  8
HATCH
100
AcDbLine
 10
9078.933381788408
 20
2201.291251548639
 30
0.0
 11
8998.104344101861
 21
2001.291251548638
 31
0.0
  0
LINE
  5
1DE87
330
1DB32
100
AcDbEntity
  8
HATCH
100
AcDbLine
 10
9038.789739560142
 20
2001.291251548638
 30
0.0
 11
9014.857153996455
 21
2042.743705701461
 31
0.0
  0
LINE
  5
1DE88
330
1DB32
100
AcDbEntity
  8
HATCH
100
AcDbLine
 10
9038.789739560142
 20
2201.291251548639
 30
0.0
 11
9062.722325123825
 21
2159.838797395816
 31
0.0
  0
LINE
  5
1DE89
330
1DB32
100
AcDbEntity
  8
HATCH
100
AcDbLine
 10
8878.933381788412
 20
2201.291251548639
 30
0.0
 11
8798.104344101862
 21
2001.291251548638
 31
0.0
  0
LINE
  5
1DE8A
330
1DB32
100
AcDbEntity
  8
HATCH
100
AcDbLine
 10
8838.789739560139
 20
2001.291251548638
 30
0.0
 11
8814.857153996454
 21
2042.743705701461
 31
0.0
  0
LINE
  5
1DE8B
330
1DB32
100
AcDbEntity
  8
HATCH
100
AcDbLine
 10
8838.789739560139
 20
2201.291251548639
 30
0.0
 11
8862.722325123824
 21
2159.838797395816
 31
0.0
  0
LINE
  5
1DE8C
330
1DB32
100
AcDbEntity
  8
HATCH
100
AcDbLine
 10
8678.933381788409
 20
2201.291251548639
 30
0.0
 11
8598.10434410186
 21
2001.291251548638
 31
0.0
  0
LINE
  5
1DE8D
330
1DB32
100
AcDbEntity
  8
HATCH
100
AcDbLine
 10
8638.78973956014
 20
2001.291251548638
 30
0.0
 11
8614.857153996455
 21
2042.743705701461
 31
0.0
  0
LINE
  5
1DE8E
330
1DB32
100
AcDbEntity
  8
HATCH
100
AcDbLine
 10
8638.78973956014
 20
2201.291251548639
 30
0.0
 11
8662.722325123832
 21
2159.838797395816
 31
0.0
  0
LINE
  5
1DE8F
330
1DB32
100
AcDbEntity
  8
HATCH
100
AcDbLine
 10
8478.933381788413
 20
2201.291251548639
 30
0.0
 11
8398.104344101861
 21
2001.291251548638
 31
0.0
  0
LINE
  5
1DE90
330
1DB32
100
AcDbEntity
  8
HATCH
100
AcDbLine
 10
8438.789739560141
 20
2001.291251548638
 30
0.0
 11
8414.857153996456
 21
2042.743705701461
 31
0.0
  0
LINE
  5
1DE91
330
1DB32
100
AcDbEntity
  8
HATCH
100
AcDbLine
 10
8438.789739560141
 20
2201.291251548639
 30
0.0
 11
8462.722325123825
 21
2159.838797395816
 31
0.0
  0
LINE
  5
1DE92
330
1DB32
100
AcDbEntity
  8
HATCH
100
AcDbLine
 10
8278.933381788409
 20
2201.291251548639
 30
0.0
 11
8198.104344101862
 21
2001.291251548638
 31
0.0
  0
LINE
  5
1DE93
330
1DB32
100
AcDbEntity
  8
HATCH
100
AcDbLine
 10
8238.789739560139
 20
2001.291251548638
 30
0.0
 11
8214.857153996454
 21
2042.743705701461
 31
0.0
  0
LINE
  5
1DE94
330
1DB32
100
AcDbEntity
  8
HATCH
100
AcDbLine
 10
8238.789739560139
 20
2201.291251548639
 30
0.0
 11
8262.72232512383
 21
2159.838797395816
 31
0.0
  0
LINE
  5
1DE95
330
1DB32
100
AcDbEntity
  8
HATCH
100
AcDbLine
 10
4307.16941401203
 20
2201.291251548639
 30
0.0
 11
4226.340376325483
 21
2001.291251548638
 31
0.0
  0
LINE
  5
1DE96
330
1DB32
100
AcDbEntity
  8
HATCH
100
AcDbLine
 10
4267.025771783759
 20
2001.291251548638
 30
0.0
 11
4243.093186220073
 21
2042.743705701461
 31
0.0
  0
LINE
  5
1DE97
330
1DB32
100
AcDbEntity
  8
HATCH
100
AcDbLine
 10
4267.025771783759
 20
2201.291251548639
 30
0.0
 11
4290.958357347443
 21
2159.838797395816
 31
0.0
  0
LINE
  5
1DE98
330
1DB32
100
AcDbEntity
  8
HATCH
100
AcDbLine
 10
4107.169414012029
 20
2201.291251548639
 30
0.0
 11
4026.340376325483
 21
2001.291251548638
 31
0.0
  0
LINE
  5
1DE99
330
1DB32
100
AcDbEntity
  8
HATCH
100
AcDbLine
 10
4067.025771783759
 20
2001.291251548638
 30
0.0
 11
4043.093186220072
 21
2042.743705701461
 31
0.0
  0
LINE
  5
1DE9A
330
1DB32
100
AcDbEntity
  8
HATCH
100
AcDbLine
 10
4067.025771783759
 20
2201.291251548639
 30
0.0
 11
4090.958357347452
 21
2159.838797395816
 31
0.0
  0
LINE
  5
1DE9B
330
1DB32
100
AcDbEntity
  8
HATCH
100
AcDbLine
 10
3907.169414012031
 20
2201.291251548639
 30
0.0
 11
3826.340376325482
 21
2001.291251548638
 31
0.0
  0
LINE
  5
1DE9C
330
1DB32
100
AcDbEntity
  8
HATCH
100
AcDbLine
 10
3867.02577178376
 20
2001.291251548638
 30
0.0
 11
3843.093186220075
 21
2042.743705701461
 31
0.0
  0
LINE
  5
1DE9D
330
1DB32
100
AcDbEntity
  8
HATCH
100
AcDbLine
 10
3867.02577178376
 20
2201.291251548639
 30
0.0
 11
3890.958357347445
 21
2159.838797395816
 31
0.0
  0
LINE
  5
1DE9E
330
1DB32
100
AcDbEntity
  8
HATCH
100
AcDbLine
 10
3707.169414012031
 20
2201.291251548639
 30
0.0
 11
3626.340376325483
 21
2001.291251548638
 31
0.0
  0
LINE
  5
1DE9F
330
1DB32
100
AcDbEntity
  8
HATCH
100
AcDbLine
 10
3667.025771783759
 20
2001.291251548638
 30
0.0
 11
3643.093186220073
 21
2042.743705701461
 31
0.0
  0
LINE
  5
1DEA0
330
1DB32
100
AcDbEntity
  8
HATCH
100
AcDbLine
 10
3667.025771783759
 20
2201.291251548639
 30
0.0
 11
3690.958357347452
 21
2159.838797395816
 31
0.0
  0
LINE
  5
1DEA1
330
1DB32
100
AcDbEntity
  8
HATCH
100
AcDbLine
 10
3507.169414012031
 20
2201.291251548639
 30
0.0
 11
3426.340376325482
 21
2001.291251548638
 31
0.0
  0
LINE
  5
1DEA2
330
1DB32
100
AcDbEntity
  8
HATCH
100
AcDbLine
 10
3467.02577178376
 20
2001.291251548638
 30
0.0
 11
3443.093186220075
 21
2042.743705701461
 31
0.0
  0
LINE
  5
1DEA3
330
1DB32
100
AcDbEntity
  8
HATCH
100
AcDbLine
 10
3467.02577178376
 20
2201.291251548639
 30
0.0
 11
3490.958357347444
 21
2159.838797395816
 31
0.0
  0
LINE
  5
1DEA4
330
1DB32
100
AcDbEntity
  8
HATCH
100
AcDbLine
 10
3307.169414012031
 20
2201.291251548639
 30
0.0
 11
3226.340376325483
 21
2001.291251548638
 31
0.0
  0
LINE
  5
1DEA5
330
1DB32
100
AcDbEntity
  8
HATCH
100
AcDbLine
 10
3267.025771783759
 20
2001.291251548638
 30
0.0
 11
3243.093186220074
 21
2042.743705701461
 31
0.0
  0
LINE
  5
1DEA6
330
1DB32
100
AcDbEntity
  8
HATCH
100
AcDbLine
 10
3267.025771783759
 20
2201.291251548639
 30
0.0
 11
3290.958357347445
 21
2159.838797395816
 31
0.0
  0
LINE
  5
1DEA7
330
1DB32
100
AcDbEntity
  8
HATCH
100
AcDbLine
 10
3107.169414012031
 20
2201.291251548639
 30
0.0
 11
3026.340376325483
 21
2001.291251548638
 31
0.0
  0
LINE
  5
1DEA8
330
1DB32
100
AcDbEntity
  8
HATCH
100
AcDbLine
 10
3067.02577178376
 20
2001.291251548638
 30
0.0
 11
3043.093186220073
 21
2042.743705701461
 31
0.0
  0
LINE
  5
1DEA9
330
1DB32
100
AcDbEntity
  8
HATCH
100
AcDbLine
 10
3067.02577178376
 20
2201.291251548639
 30
0.0
 11
3090.958357347452
 21
2159.838797395816
 31
0.0
  0
LINE
  5
1DEAA
330
1DB32
100
AcDbEntity
  8
HATCH
100
AcDbLine
 10
2907.169414012031
 20
2201.291251548639
 30
0.0
 11
2826.340376325482
 21
2001.291251548638
 31
0.0
  0
LINE
  5
1DEAB
330
1DB32
100
AcDbEntity
  8
HATCH
100
AcDbLine
 10
2867.02577178376
 20
2001.291251548638
 30
0.0
 11
2843.093186220073
 21
2042.743705701461
 31
0.0
  0
LINE
  5
1DEAC
330
1DB32
100
AcDbEntity
  8
HATCH
100
AcDbLine
 10
2867.02577178376
 20
2201.291251548639
 30
0.0
 11
2890.958357347445
 21
2159.838797395816
 31
0.0
  0
LINE
  5
1DEAD
330
1DB32
100
AcDbEntity
  8
HATCH
100
AcDbLine
 10
2707.16941401203
 20
2201.291251548639
 30
0.0
 11
2626.340376325483
 21
2001.291251548638
 31
0.0
  0
LINE
  5
1DEAE
330
1DB32
100
AcDbEntity
  8
HATCH
100
AcDbLine
 10
2667.025771783759
 20
2001.291251548638
 30
0.0
 11
2643.093186220073
 21
2042.743705701461
 31
0.0
  0
LINE
  5
1DEAF
330
1DB32
100
AcDbEntity
  8
HATCH
100
AcDbLine
 10
2667.025771783759
 20
2201.291251548639
 30
0.0
 11
2690.958357347452
 21
2159.838797395816
 31
0.0
  0
LINE
  5
1DEB0
330
1DB32
100
AcDbEntity
  8
HATCH
100
AcDbLine
 10
4707.169414012031
 20
2201.291251548639
 30
0.0
 11
4626.340376325482
 21
2001.291251548638
 31
0.0
  0
LINE
  5
1DEB1
330
1DB32
100
AcDbEntity
  8
HATCH
100
AcDbLine
 10
4667.025771783759
 20
2001.291251548638
 30
0.0
 11
4643.093186220074
 21
2042.743705701461
 31
0.0
  0
LINE
  5
1DEB2
330
1DB32
100
AcDbEntity
  8
HATCH
100
AcDbLine
 10
4667.025771783759
 20
2201.291251548639
 30
0.0
 11
4690.958357347452
 21
2159.838797395816
 31
0.0
  0
LINE
  5
1DEB3
330
1DB32
100
AcDbEntity
  8
HATCH
100
AcDbLine
 10
4507.169414012031
 20
2201.291251548639
 30
0.0
 11
4426.340376325483
 21
2001.291251548638
 31
0.0
  0
LINE
  5
1DEB4
330
1DB32
100
AcDbEntity
  8
HATCH
100
AcDbLine
 10
4467.025771783759
 20
2001.291251548638
 30
0.0
 11
4443.093186220073
 21
2042.743705701461
 31
0.0
  0
LINE
  5
1DEB5
330
1DB32
100
AcDbEntity
  8
HATCH
100
AcDbLine
 10
4467.025771783759
 20
2201.291251548639
 30
0.0
 11
4490.958357347444
 21
2159.838797395816
 31
0.0
  0
TEXT
  5
1DEB6
330
1DB32
100
AcDbEntity
  8
FILENAME
100
AcDbText
 10
13849.61904761904
 20
174.0
 30
0.0
 40
100.0
  1
＜KWAU-4826-1_3_JIS_GL.DXF ＞
  7
FILENAME
 72
     2
 11
16382.0
 21
174.0
 31
0.0
100
AcDbText
  0
LINE
  5
1DEB7
330
1DB32
100
AcDbEntity
  8
WAKUSEN-01
100
AcDbLine
 10
434.0000000000008
 20
413.9999999999997
 30
0.0
 11
16382.0
 21
413.9999999999997
 31
0.0
  0
LINE
  5
1DEB8
330
1DB32
100
AcDbEntity
  8
WAKUSEN-01
100
AcDbLine
 10
434.0000000000008
 20
11242.0
 30
0.0
 11
16382.0
 21
11242.0
 31
0.0
  0
LINE
  5
1DEB9
330
1DB32
100
AcDbEntity
  8
WAKUSEN-01
100
AcDbLine
 10
434.0000000000008
 20
413.9999999999997
 30
0.0
 11
434.0000000000008
 21
11242.0
 31
0.0
  0
LINE
  5
1DEBA
330
1DB32
100
AcDbEntity
  8
WAKUSEN-01
100
AcDbLine
 10
16382.0
 20
413.9999999999997
 30
0.0
 11
16382.0
 21
11242.0
 31
0.0
  0
LINE
  5
1DEBB
330
1DB32
100
AcDbEntity
  8
WAKUSEN-01
100
AcDbLine
 10
10280.0
 20
1242.0
 30
0.0
 11
16382.0
 21
1242.0
 31
0.0
  0
LINE
  5
1DEBC
330
1DB32
100
AcDbEntity
  8
WAKUSEN-02
100
AcDbLine
 10
10280.0
 20
827.9999999999997
 30
0.0
 11
13434.0
 21
827.9999999999997
 31
0.0
  0
TEXT
  5
1DEBD
330
1DB32
100
AcDbEntity
  8
WAKUMOJI-01
100
AcDbText
 10
10335.13012998137
 20
1062.951504669661
 30
0.0
 40
120.0
  1
名　称
  7
WAKUMOJI
100
AcDbText
  0
TEXT
  5
1DEBE
330
1DB32
100
AcDbEntity
  8
WAKUMOJI-01
100
AcDbText
 10
10328.25274254596
 20
659.5644874899107
 30
0.0
 40
120.0
  1
機種名
  7
WAKUMOJI
100
AcDbText
  0
LINE
  5
1DEBF
330
1DB32
100
AcDbEntity
  8
WAKUSEN-01
100
AcDbLine
 10
10280.0
 20
413.9999999999985
 30
0.0
 11
10280.0
 21
1242.0
 31
0.0
  0
LINE
  5
1DEC0
330
1DB32
100
AcDbEntity
  8
WAKUSEN-02
100
AcDbLine
 10
13434.0
 20
413.9999999999963
 30
0.0
 11
13434.0
 21
1242.0
 31
0.0
  0
LINE
  5
1DEC1
330
1DB32
100
AcDbEntity
  8
YODOROGO
100
AcDbLine
 10
14988.80217064596
 20
997.8747482146435
 30
0.0
 11
14914.80217064596
 21
997.8747482146435
 31
0.0
1001
AUTOCAD_POSTSCRIPT_FIGURE
1002
{
1000
PSFILL
1000
Grayscale
1000
Grayscale
1070
    25
1002
}
  0
LINE
  5
1DEC2
330
1DB32
100
AcDbEntity
  8
YODOROGO
100
AcDbLine
 10
14914.80217064596
 20
973.8747482146434
 30
0.0
 11
14988.80217064596
 21
973.8747482146434
 31
0.0
1001
AUTOCAD_POSTSCRIPT_FIGURE
1002
{
1000
PSFILL
1000
Grayscale
1000
Grayscale
1070
    25
1002
}
  0
LINE
  5
1DEC3
330
1DB32
100
AcDbEntity
  8
YODOROGO
100
AcDbLine
 10
14988.80217064596
 20
953.874748214644
 30
0.0
 11
14914.80217064596
 21
953.874748214644
 31
0.0
1001
AUTOCAD_POSTSCRIPT_FIGURE
1002
{
1000
PSFILL
1000
Grayscale
1000
Grayscale
1070
    25
1002
}
  0
LINE
  5
1DEC4
330
1DB32
100
AcDbEntity
  8
YODOROGO
100
AcDbLine
 10
14914.80217064596
 20
929.874748214644
 30
0.0
 11
14988.80217064596
 21
929.874748214644
 31
0.0
1001
AUTOCAD_POSTSCRIPT_FIGURE
1002
{
1000
PSFILL
1000
Grayscale
1000
Grayscale
1070
    25
1002
}
  0
LINE
  5
1DEC5
330
1DB32
100
AcDbEntity
  8
YODOROGO
100
AcDbLine
 10
14988.80217064596
 20
909.8747482146439
 30
0.0
 11
14914.80217064596
 21
909.8747482146439
 31
0.0
1001
AUTOCAD_POSTSCRIPT_FIGURE
1002
{
1000
PSFILL
1000
Grayscale
1000
Grayscale
1070
    25
1002
}
  0
LINE
  5
1DEC6
330
1DB32
100
AcDbEntity
  8
YODOROGO
100
AcDbLine
 10
14960.80217064594
 20
853.874748214644
 30
0.0
 11
14988.80217064596
 21
853.874748214644
 31
0.0
1001
AUTOCAD_POSTSCRIPT_FIGURE
1002
{
1000
PSFILL
1000
Grayscale
1000
Grayscale
1070
    25
1002
}
  0
LINE
  5
1DEC7
330
1DB32
100
AcDbEntity
  8
YODOROGO
100
AcDbLine
 10
14868.80217064596
 20
713.8747482146436
 30
0.0
 11
14968.80217064596
 21
740.6696674577553
 31
0.0
  0
LINE
  5
1DEC8
330
1DB32
100
AcDbEntity
  8
YODOROGO
100
AcDbLine
 10
14974.80217064595
 20
853.874748214644
 30
0.0
 11
14942.80217064596
 21
853.874748214644
 31
0.0
  0
ARC
  5
1DEC9
330
1DB32
100
AcDbEntity
  8
YODOROGO
100
AcDbCircle
 10
15127.17387491394
 20
903.9323046166312
 30
0.0
 40
190.9434321028236
100
AcDbArc
 50
213.9611167766784
 51
264.4787207431779
  0
ARC
  5
1DECA
330
1DB32
100
AcDbEntity
  8
YODOROGO
100
AcDbCircle
 10
15127.17387491396
 20
903.9323046166513
 30
0.0
 40
190.9434321028408
100
AcDbArc
 50
208.141144204866
 51
212.9210361185994
  0
LINE
  5
1DECB
330
1DB32
100
AcDbEntity
  8
YODOROGO
100
AcDbLine
 10
14885.70493649264
 20
778.403830673117
 30
0.0
 11
14966.89206625426
 21
800.1578565285436
 31
0.0
  0
LINE
  5
1DECC
330
1DB32
100
AcDbEntity
  8
YODOROGO
100
AcDbLine
 10
14868.80217064596
 20
713.8747482146436
 30
0.0
 11
14968.80217064596
 21
740.6696674577553
 31
0.0
  0
LINE
  5
1DECD
330
1DB32
100
AcDbEntity
  8
YODOROGO
100
AcDbLine
 10
14974.80217064595
 20
853.874748214644
 30
0.0
 11
14942.80217064596
 21
853.874748214644
 31
0.0
  0
ARC
  5
1DECE
330
1DB32
100
AcDbEntity
  8
YODOROGO
100
AcDbCircle
 10
15127.17387491394
 20
903.9323046166312
 30
0.0
 40
190.9434321028236
100
AcDbArc
 50
213.9611167766784
 51
264.4787207431779
  0
LINE
  5
1DECF
330
1DB32
100
AcDbEntity
  8
YODOROGO
100
AcDbLine
 10
14396.80217064594
 20
909.8747482146439
 30
0.0
 11
14216.80217064594
 21
909.8747482146439
 31
0.0
  0
LINE
  5
1DED0
330
1DB32
100
AcDbEntity
  8
YODOROGO
100
AcDbLine
 10
14256.80217064594
 20
713.8747482146436
 30
0.0
 11
14396.80217064594
 21
713.8747482146436
 31
0.0
  0
LINE
  5
1DED1
330
1DB32
100
AcDbEntity
  8
YODOROGO
100
AcDbLine
 10
14364.80217064596
 20
961.8747482146432
 30
0.0
 11
14248.80217064594
 21
961.8747482146432
 31
0.0
  0
LINE
  5
1DED2
330
1DB32
100
AcDbEntity
  8
YODOROGO
100
AcDbLine
 10
14292.80217064596
 20
1013.874748214644
 30
0.0
 11
14328.80217064596
 21
1013.874748214644
 31
0.0
  0
LINE
  5
1DED3
330
1DB32
100
AcDbEntity
  8
YODOROGO
100
AcDbLine
 10
14216.80217064594
 20
853.874748214644
 30
0.0
 11
14216.80217064594
 21
753.8747482146439
 31
0.0
  0
LINE
  5
1DED4
330
1DB32
100
AcDbEntity
  8
YODOROGO
100
AcDbLine
 10
14248.80217064594
 20
781.8747482146434
 30
0.0
 11
14248.80217064594
 21
853.874748214644
 31
0.0
  0
LINE
  5
1DED5
330
1DB32
100
AcDbEntity
  8
YODOROGO
100
AcDbLine
 10
14292.80217064596
 20
873.8747482146449
 30
0.0
 11
14292.80217064596
 21
773.874748214644
 31
0.0
  0
LINE
  5
1DED6
330
1DB32
100
AcDbEntity
  8
YODOROGO
100
AcDbLine
 10
13928.80217064596
 20
841.8747482146445
 30
0.0
 11
13888.80217064596
 21
809.9862070222856
 31
0.0
  0
LINE
  5
1DED7
330
1DB32
100
AcDbEntity
  8
YODOROGO
100
AcDbLine
 10
13968.80217064596
 20
809.9862070222856
 30
0.0
 11
13928.80217064596
 21
841.8747482146445
 31
0.0
  0
LINE
  5
1DED8
330
1DB32
100
AcDbEntity
  8
YODOROGO
100
AcDbLine
 10
13928.80217064596
 20
853.874748214644
 30
0.0
 11
13968.80217064596
 21
821.986207022285
 31
0.0
  0
LINE
  5
1DED9
330
1DB32
100
AcDbEntity
  8
YODOROGO
100
AcDbLine
 10
13888.80217064596
 20
821.986207022285
 30
0.0
 11
13928.80217064596
 21
853.874748214644
 31
0.0
  0
LINE
  5
1DEDA
330
1DB32
100
AcDbEntity
  8
YODOROGO
100
AcDbLine
 10
14020.45660200844
 20
829.874748214644
 30
0.0
 11
14020.45660200844
 21
841.8747482146434
 31
0.0
  0
LINE
  5
1DEDB
330
1DB32
100
AcDbEntity
  8
YODOROGO
100
AcDbLine
 10
13988.80217064596
 20
841.8747482146434
 30
0.0
 11
13988.80217064596
 21
833.8747482146427
 31
0.0
  0
LINE
  5
1DEDC
330
1DB32
100
AcDbEntity
  8
YODOROGO
100
AcDbLine
 10
14049.06776011545
 20
853.874748214644
 30
0.0
 11
14049.06776011545
 21
827.751818637328
 31
0.0
1001
AUTOCAD_POSTSCRIPT_FIGURE
1002
{
1000
PSFILL
1000
Grayscale
1000
Grayscale
1070
   100
1002
}
  0
LINE
  5
1DEDD
330
1DB32
100
AcDbEntity
  8
YODOROGO
100
AcDbLine
 10
14041.06776011546
 20
827.751818637328
 30
0.0
 11
14041.06776011546
 21
853.874748214644
 31
0.0
1001
AUTOCAD_POSTSCRIPT_FIGURE
1002
{
1000
PSFILL
1000
Grayscale
1000
Grayscale
1070
   100
1002
}
  0
LINE
  5
1DEDE
330
1DB32
100
AcDbEntity
  8
YODOROGO
100
AcDbLine
 10
13904.80217064596
 20
804.3859520216292
 30
0.0
 11
13904.80217064596
 21
816.3859520216298
 31
0.0
  0
LINE
  5
1DEDF
330
1DB32
100
AcDbEntity
  8
YODOROGO
100
AcDbLine
 10
13952.80217064596
 20
804.3859520216292
 30
0.0
 11
13904.80217064596
 21
804.3859520216292
 31
0.0
  0
LINE
  5
1DEE0
330
1DB32
100
AcDbEntity
  8
YODOROGO
100
AcDbLine
 10
13952.80217064596
 20
816.3859520216298
 30
0.0
 11
13952.80217064596
 21
804.3859520216292
 31
0.0
  0
LINE
  5
1DEE1
330
1DB32
100
AcDbEntity
  8
YODOROGO
100
AcDbLine
 10
13904.80217064596
 20
816.3859520216298
 30
0.0
 11
13952.80217064596
 21
816.3859520216298
 31
0.0
  0
LINE
  5
1DEE2
330
1DB32
100
AcDbEntity
  8
YODOROGO
100
AcDbLine
 10
13912.25479445787
 20
784.2514286852374
 30
0.0
 11
13892.80217064596
 21
737.8747482146435
 31
0.0
1001
AUTOCAD_POSTSCRIPT_FIGURE
1002
{
1000
PSFILL
1000
Grayscale
1000
Grayscale
1070
   100
1002
}
  0
LINE
  5
1DEE3
330
1DB32
100
AcDbEntity
  8
YODOROGO
100
AcDbLine
 10
13888.80217064596
 20
784.2514286852374
 30
0.0
 11
13912.25479445787
 21
784.2514286852374
 31
0.0
1001
AUTOCAD_POSTSCRIPT_FIGURE
1002
{
1000
PSFILL
1000
Grayscale
1000
Grayscale
1070
   100
1002
}
  0
LINE
  5
1DEE4
330
1DB32
100
AcDbEntity
  8
YODOROGO
100
AcDbLine
 10
13888.80217064596
 20
794.2514286852374
 30
0.0
 11
13888.80217064596
 21
784.2514286852374
 31
0.0
1001
AUTOCAD_POSTSCRIPT_FIGURE
1002
{
1000
PSFILL
1000
Grayscale
1000
Grayscale
1070
   100
1002
}
  0
LINE
  5
1DEE5
330
1DB32
100
AcDbEntity
  8
YODOROGO
100
AcDbLine
 10
13968.80217064596
 20
794.2514286852374
 30
0.0
 11
13888.80217064596
 21
794.2514286852374
 31
0.0
1001
AUTOCAD_POSTSCRIPT_FIGURE
1002
{
1000
PSFILL
1000
Grayscale
1000
Grayscale
1070
   100
1002
}
  0
LINE
  5
1DEE6
330
1DB32
100
AcDbEntity
  8
YODOROGO
100
AcDbLine
 10
13968.80217064596
 20
784.2514286852374
 30
0.0
 11
13968.80217064596
 21
794.2514286852374
 31
0.0
1001
AUTOCAD_POSTSCRIPT_FIGURE
1002
{
1000
PSFILL
1000
Grayscale
1000
Grayscale
1070
   100
1002
}
  0
LINE
  5
1DEE7
330
1DB32
100
AcDbEntity
  8
YODOROGO
100
AcDbLine
 10
13922.25479445786
 20
784.2514286852374
 30
0.0
 11
13968.80217064596
 21
784.2514286852374
 31
0.0
1001
AUTOCAD_POSTSCRIPT_FIGURE
1002
{
1000
PSFILL
1000
Grayscale
1000
Grayscale
1070
   100
1002
}
  0
LINE
  5
1DEE8
330
1DB32
100
AcDbEntity
  8
YODOROGO
100
AcDbLine
 10
13907.77335914238
 20
747.8747482146435
 30
0.0
 11
13922.25479445786
 21
784.2514286852374
 31
0.0
1001
AUTOCAD_POSTSCRIPT_FIGURE
1002
{
1000
PSFILL
1000
Grayscale
1000
Grayscale
1070
   100
1002
}
  0
LINE
  5
1DEE9
330
1DB32
100
AcDbEntity
  8
YODOROGO
100
AcDbLine
 10
13951.02739540432
 20
747.8747482146435
 30
0.0
 11
13907.77335914238
 21
747.8747482146435
 31
0.0
1001
AUTOCAD_POSTSCRIPT_FIGURE
1002
{
1000
PSFILL
1000
Grayscale
1000
Grayscale
1070
   100
1002
}
  0
LINE
  5
1DEEA
330
1DB32
100
AcDbEntity
  8
YODOROGO
100
AcDbLine
 10
13942.53250239547
 20
768.1169053488464
 30
0.0
 11
13951.02739540432
 21
747.8747482146435
 31
0.0
1001
AUTOCAD_POSTSCRIPT_FIGURE
1002
{
1000
PSFILL
1000
Grayscale
1000
Grayscale
1070
   100
1002
}
  0
LINE
  5
1DEEB
330
1DB32
100
AcDbEntity
  8
YODOROGO
100
AcDbLine
 10
13950.53250239547
 20
768.1169053488464
 30
0.0
 11
13942.53250239547
 21
768.1169053488464
 31
0.0
1001
AUTOCAD_POSTSCRIPT_FIGURE
1002
{
1000
PSFILL
1000
Grayscale
1000
Grayscale
1070
   100
1002
}
  0
LINE
  5
1DEEC
330
1DB32
100
AcDbEntity
  8
YODOROGO
100
AcDbLine
 10
13964.80217064596
 20
737.8747482146435
 30
0.0
 11
13950.53250239547
 21
768.1169053488464
 31
0.0
1001
AUTOCAD_POSTSCRIPT_FIGURE
1002
{
1000
PSFILL
1000
Grayscale
1000
Grayscale
1070
   100
1002
}
  0
LINE
  5
1DEED
330
1DB32
100
AcDbEntity
  8
YODOROGO
100
AcDbLine
 10
13892.80217064596
 20
737.8747482146435
 30
0.0
 11
13964.80217064596
 21
737.8747482146435
 31
0.0
1001
AUTOCAD_POSTSCRIPT_FIGURE
1002
{
1000
PSFILL
1000
Grayscale
1000
Grayscale
1070
   100
1002
}
  0
LINE
  5
1DEEE
330
1DB32
100
AcDbEntity
  8
YODOROGO
100
AcDbLine
 10
13888.80217064596
 20
809.9862070222856
 30
0.0
 11
13888.80217064596
 21
821.986207022285
 31
0.0
  0
LINE
  5
1DEEF
330
1DB32
100
AcDbEntity
  8
YODOROGO
100
AcDbLine
 10
13968.80217064596
 20
821.986207022285
 30
0.0
 11
13968.80217064596
 21
809.9862070222856
 31
0.0
  0
ARC
  5
1DEF0
330
1DB32
100
AcDbEntity
  8
YODOROGO
100
AcDbCircle
 10
14112.97022107348
 20
800.438882662663
 30
0.0
 40
87.99999999999995
100
AcDbArc
 50
280.3644312771313
 51
3.541483659218056
  0
ARC
  5
1DEF1
330
1DB32
100
AcDbEntity
  8
YODOROGO
100
AcDbCircle
 10
14117.87801537965
 20
816.798903480952
 30
0.0
 40
55.99999999999914
100
AcDbArc
 50
281.2490582504155
 51
348.7509417495832
  0
LINE
  5
1DEF2
330
1DB32
100
AcDbEntity
  8
YODOROGO
100
AcDbLine
 10
14128.80217064596
 20
761.8747482146434
 30
0.0
 11
14128.80217064596
 21
713.8747482146436
 31
0.0
  0
LINE
  5
1DEF3
330
1DB32
100
AcDbEntity
  8
YODOROGO
100
AcDbLine
 10
14010.04445186845
 20
805.3252825309574
 30
0.0
 11
14020.45660200844
 21
829.874748214644
 31
0.0
  0
LINE
  5
1DEF4
330
1DB32
100
AcDbEntity
  8
YODOROGO
100
AcDbLine
 10
14020.80217064596
 20
791.5602449742006
 30
0.0
 11
14010.04445186845
 21
805.3252825309574
 31
0.0
  0
LINE
  5
1DEF5
330
1DB32
100
AcDbEntity
  8
YODOROGO
100
AcDbLine
 10
14020.80217064596
 20
781.5602449741994
 30
0.0
 11
14020.80217064596
 21
791.5602449742006
 31
0.0
  0
LINE
  5
1DEF6
330
1DB32
100
AcDbEntity
  8
YODOROGO
100
AcDbLine
 10
14008.80217064596
 20
792.6185318747651
 30
0.0
 11
14020.80217064596
 21
781.5602449741994
 31
0.0
  0
LINE
  5
1DEF7
330
1DB32
100
AcDbEntity
  8
YODOROGO
100
AcDbLine
 10
14008.80217064596
 20
737.8747482146435
 30
0.0
 11
14008.80217064596
 21
792.6185318747651
 31
0.0
  0
LINE
  5
1DEF8
330
1DB32
100
AcDbEntity
  8
YODOROGO
100
AcDbLine
 10
14000.80217064596
 20
737.8747482146435
 30
0.0
 11
14008.80217064596
 21
737.8747482146435
 31
0.0
  0
LINE
  5
1DEF9
330
1DB32
100
AcDbEntity
  8
YODOROGO
100
AcDbLine
 10
14000.80217064596
 20
790.0026748448738
 30
0.0
 11
14000.80217064596
 21
737.8747482146435
 31
0.0
  0
LINE
  5
1DEFA
330
1DB32
100
AcDbEntity
  8
YODOROGO
100
AcDbLine
 10
13988.80217064596
 20
766.3840395167142
 30
0.0
 11
14000.80217064596
 21
790.0026748448738
 31
0.0
  0
LINE
  5
1DEFB
330
1DB32
100
AcDbEntity
  8
YODOROGO
100
AcDbLine
 10
13988.80217064596
 20
778.3840395167149
 30
0.0
 11
13988.80217064596
 21
766.3840395167142
 31
0.0
  0
LINE
  5
1DEFC
330
1DB32
100
AcDbEntity
  8
YODOROGO
100
AcDbLine
 10
14012.91438714567
 20
833.8747482146427
 30
0.0
 11
13988.80217064596
 21
778.3840395167149
 31
0.0
  0
LINE
  5
1DEFD
330
1DB32
100
AcDbEntity
  8
YODOROGO
100
AcDbLine
 10
13988.80217064596
 20
833.8747482146427
 30
0.0
 11
14012.91438714567
 21
833.8747482146427
 31
0.0
  0
LINE
  5
1DEFE
330
1DB32
100
AcDbEntity
  8
YODOROGO
100
AcDbLine
 10
14025.06776011545
 20
827.751818637328
 30
0.0
 11
14041.06776011546
 21
827.751818637328
 31
0.0
1001
AUTOCAD_POSTSCRIPT_FIGURE
1002
{
1000
PSFILL
1000
Grayscale
1000
Grayscale
1070
   100
1002
}
  0
LINE
  5
1DEFF
330
1DB32
100
AcDbEntity
  8
YODOROGO
100
AcDbLine
 10
14025.06776011545
 20
815.7518186373286
 30
0.0
 11
14025.06776011545
 21
827.751818637328
 31
0.0
1001
AUTOCAD_POSTSCRIPT_FIGURE
1002
{
1000
PSFILL
1000
Grayscale
1000
Grayscale
1070
   100
1002
}
  0
LINE
  5
1DF00
330
1DB32
100
AcDbEntity
  8
YODOROGO
100
AcDbLine
 10
14041.06776011546
 20
815.7518186373286
 30
0.0
 11
14025.06776011545
 21
815.7518186373286
 31
0.0
1001
AUTOCAD_POSTSCRIPT_FIGURE
1002
{
1000
PSFILL
1000
Grayscale
1000
Grayscale
1070
   100
1002
}
  0
LINE
  5
1DF01
330
1DB32
100
AcDbEntity
  8
YODOROGO
100
AcDbLine
 10
14041.06776011546
 20
749.8747482146441
 30
0.0
 11
14041.06776011546
 21
815.7518186373286
 31
0.0
1001
AUTOCAD_POSTSCRIPT_FIGURE
1002
{
1000
PSFILL
1000
Grayscale
1000
Grayscale
1070
   100
1002
}
  0
LINE
  5
1DF02
330
1DB32
100
AcDbEntity
  8
YODOROGO
100
AcDbLine
 10
14025.06776011545
 20
749.8747482146441
 30
0.0
 11
14041.06776011546
 21
749.8747482146441
 31
0.0
1001
AUTOCAD_POSTSCRIPT_FIGURE
1002
{
1000
PSFILL
1000
Grayscale
1000
Grayscale
1070
   100
1002
}
  0
LINE
  5
1DF03
330
1DB32
100
AcDbEntity
  8
YODOROGO
100
AcDbLine
 10
14025.06776011545
 20
737.8747482146435
 30
0.0
 11
14025.06776011545
 21
749.8747482146441
 31
0.0
1001
AUTOCAD_POSTSCRIPT_FIGURE
1002
{
1000
PSFILL
1000
Grayscale
1000
Grayscale
1070
   100
1002
}
  0
LINE
  5
1DF04
330
1DB32
100
AcDbEntity
  8
YODOROGO
100
AcDbLine
 10
14068.80217064596
 20
737.8747482146435
 30
0.0
 11
14025.06776011545
 21
737.8747482146435
 31
0.0
1001
AUTOCAD_POSTSCRIPT_FIGURE
1002
{
1000
PSFILL
1000
Grayscale
1000
Grayscale
1070
   100
1002
}
  0
LINE
  5
1DF05
330
1DB32
100
AcDbEntity
  8
YODOROGO
100
AcDbLine
 10
14068.80217064596
 20
749.8747482146441
 30
0.0
 11
14068.80217064596
 21
737.8747482146435
 31
0.0
1001
AUTOCAD_POSTSCRIPT_FIGURE
1002
{
1000
PSFILL
1000
Grayscale
1000
Grayscale
1070
   100
1002
}
  0
LINE
  5
1DF06
330
1DB32
100
AcDbEntity
  8
YODOROGO
100
AcDbLine
 10
14049.06776011545
 20
749.8747482146441
 30
0.0
 11
14068.80217064596
 21
749.8747482146441
 31
0.0
1001
AUTOCAD_POSTSCRIPT_FIGURE
1002
{
1000
PSFILL
1000
Grayscale
1000
Grayscale
1070
   100
1002
}
  0
LINE
  5
1DF07
330
1DB32
100
AcDbEntity
  8
YODOROGO
100
AcDbLine
 10
14049.06776011545
 20
815.7518186373286
 30
0.0
 11
14049.06776011545
 21
749.8747482146441
 31
0.0
1001
AUTOCAD_POSTSCRIPT_FIGURE
1002
{
1000
PSFILL
1000
Grayscale
1000
Grayscale
1070
   100
1002
}
  0
LINE
  5
1DF08
330
1DB32
100
AcDbEntity
  8
YODOROGO
100
AcDbLine
 10
14068.80217064596
 20
815.7518186373286
 30
0.0
 11
14049.06776011545
 21
815.7518186373286
 31
0.0
1001
AUTOCAD_POSTSCRIPT_FIGURE
1002
{
1000
PSFILL
1000
Grayscale
1000
Grayscale
1070
   100
1002
}
  0
LINE
  5
1DF09
330
1DB32
100
AcDbEntity
  8
YODOROGO
100
AcDbLine
 10
14068.80217064596
 20
827.751818637328
 30
0.0
 11
14068.80217064596
 21
815.7518186373286
 31
0.0
1001
AUTOCAD_POSTSCRIPT_FIGURE
1002
{
1000
PSFILL
1000
Grayscale
1000
Grayscale
1070
   100
1002
}
  0
LINE
  5
1DF0A
330
1DB32
100
AcDbEntity
  8
YODOROGO
100
AcDbLine
 10
14049.06776011545
 20
827.751818637328
 30
0.0
 11
14068.80217064596
 21
827.751818637328
 31
0.0
1001
AUTOCAD_POSTSCRIPT_FIGURE
1002
{
1000
PSFILL
1000
Grayscale
1000
Grayscale
1070
   100
1002
}
  0
LINE
  5
1DF0B
330
1DB32
100
AcDbEntity
  8
YODOROGO
100
AcDbLine
 10
14200.80217064594
 20
833.8747482146439
 30
0.0
 11
14172.80217064596
 21
833.8747482146439
 31
0.0
  0
LINE
  5
1DF0C
330
1DB32
100
AcDbEntity
  8
YODOROGO
100
AcDbLine
 10
14200.80217064594
 20
805.8747482146443
 30
0.0
 11
14200.80217064594
 21
833.8747482146439
 31
0.0
  0
LINE
  5
1DF0D
330
1DB32
100
AcDbEntity
  8
YODOROGO
100
AcDbLine
 10
14172.80217064596
 20
833.8747482146439
 30
0.0
 11
14172.80217064596
 21
805.8747482146443
 31
0.0
  0
ARC
  5
1DF0E
330
1DB32
100
AcDbEntity
  8
YODOROGO
100
AcDbCircle
 10
14256.80217064594
 20
753.8747482146439
 30
0.0
 40
40.0
100
AcDbArc
 50
180.0
 51
270.0
  0
ARC
  5
1DF0F
330
1DB32
100
AcDbEntity
  8
YODOROGO
100
AcDbCircle
 10
14268.80217064594
 20
781.8747482146434
 30
0.0
 40
20.0
100
AcDbArc
 50
180.0
 51
270.0
  0
LINE
  5
1DF10
330
1DB32
100
AcDbEntity
  8
YODOROGO
100
AcDbLine
 10
14280.80217064596
 20
761.8747482146434
 30
0.0
 11
14268.80217064594
 21
761.8747482146434
 31
0.0
  0
ARC
  5
1DF11
330
1DB32
100
AcDbEntity
  8
YODOROGO
100
AcDbCircle
 10
14280.80217064596
 20
773.8747482146427
 30
0.0
 40
11.99999999999818
100
AcDbArc
 50
270.0
 51
0.0000000000054281
  0
LINE
  5
1DF12
330
1DB32
100
AcDbEntity
  8
YODOROGO
100
AcDbLine
 10
13900.80217064596
 20
945.3932903968532
 30
0.0
 11
13888.80217064596
 21
921.8883739758362
 31
0.0
1001
AUTOCAD_POSTSCRIPT_FIGURE
1002
{
1000
PSFILL
1000
Grayscale
1000
Grayscale
1070
   100
1002
}
  0
LINE
  5
1DF13
330
1DB32
100
AcDbEntity
  8
YODOROGO
100
AcDbLine
 10
13900.80217064596
 20
873.8747482146434
 30
0.0
 11
13900.80217064596
 21
945.3932903968532
 31
0.0
1001
AUTOCAD_POSTSCRIPT_FIGURE
1002
{
1000
PSFILL
1000
Grayscale
1000
Grayscale
1070
   100
1002
}
  0
LINE
  5
1DF14
330
1DB32
100
AcDbEntity
  8
YODOROGO
100
AcDbLine
 10
13908.80217064596
 20
873.8747482146434
 30
0.0
 11
13900.80217064596
 21
873.8747482146434
 31
0.0
1001
AUTOCAD_POSTSCRIPT_FIGURE
1002
{
1000
PSFILL
1000
Grayscale
1000
Grayscale
1070
   100
1002
}
  0
LINE
  5
1DF15
330
1DB32
100
AcDbEntity
  8
YODOROGO
100
AcDbLine
 10
13908.80217064596
 20
946.8856660426332
 30
0.0
 11
13908.80217064596
 21
873.8747482146434
 31
0.0
1001
AUTOCAD_POSTSCRIPT_FIGURE
1002
{
1000
PSFILL
1000
Grayscale
1000
Grayscale
1070
   100
1002
}
  0
LINE
  5
1DF16
330
1DB32
100
AcDbEntity
  8
YODOROGO
100
AcDbLine
 10
13920.80217064596
 20
933.8273791420684
 30
0.0
 11
13908.80217064596
 21
946.8856660426332
 31
0.0
1001
AUTOCAD_POSTSCRIPT_FIGURE
1002
{
1000
PSFILL
1000
Grayscale
1000
Grayscale
1070
   100
1002
}
  0
LINE
  5
1DF17
330
1DB32
100
AcDbEntity
  8
YODOROGO
100
AcDbLine
 10
13920.80217064596
 20
941.8273791420681
 30
0.0
 11
13920.80217064596
 21
933.8273791420684
 31
0.0
1001
AUTOCAD_POSTSCRIPT_FIGURE
1002
{
1000
PSFILL
1000
Grayscale
1000
Grayscale
1070
   100
1002
}
  0
LINE
  5
1DF18
330
1DB32
100
AcDbEntity
  8
YODOROGO
100
AcDbLine
 10
13908.80217064596
 20
958.8856660426325
 30
0.0
 11
13920.80217064596
 21
941.8273791420681
 31
0.0
1001
AUTOCAD_POSTSCRIPT_FIGURE
1002
{
1000
PSFILL
1000
Grayscale
1000
Grayscale
1070
   100
1002
}
  0
LINE
  5
1DF19
330
1DB32
100
AcDbEntity
  8
YODOROGO
100
AcDbLine
 10
13908.80217064596
 20
969.8747482146441
 30
0.0
 11
13908.80217064596
 21
958.8856660426325
 31
0.0
1001
AUTOCAD_POSTSCRIPT_FIGURE
1002
{
1000
PSFILL
1000
Grayscale
1000
Grayscale
1070
   100
1002
}
  0
LINE
  5
1DF1A
330
1DB32
100
AcDbEntity
  8
YODOROGO
100
AcDbLine
 10
13944.80217064596
 20
969.8747482146441
 30
0.0
 11
13908.80217064596
 21
969.8747482146441
 31
0.0
1001
AUTOCAD_POSTSCRIPT_FIGURE
1002
{
1000
PSFILL
1000
Grayscale
1000
Grayscale
1070
   100
1002
}
  0
LINE
  5
1DF1B
330
1DB32
100
AcDbEntity
  8
YODOROGO
100
AcDbLine
 10
13944.80217064596
 20
950.2841744681497
 30
0.0
 11
13944.80217064596
 21
969.8747482146441
 31
0.0
1001
AUTOCAD_POSTSCRIPT_FIGURE
1002
{
1000
PSFILL
1000
Grayscale
1000
Grayscale
1070
   100
1002
}
  0
LINE
  5
1DF1C
330
1DB32
100
AcDbEntity
  8
YODOROGO
100
AcDbLine
 10
13928.80217064596
 20
950.2841744681497
 30
0.0
 11
13944.80217064596
 21
950.2841744681497
 31
0.0
1001
AUTOCAD_POSTSCRIPT_FIGURE
1002
{
1000
PSFILL
1000
Grayscale
1000
Grayscale
1070
   100
1002
}
  0
LINE
  5
1DF1D
330
1DB32
100
AcDbEntity
  8
YODOROGO
100
AcDbLine
 10
13928.80217064596
 20
942.2841744681491
 30
0.0
 11
13928.80217064596
 21
950.2841744681497
 31
0.0
1001
AUTOCAD_POSTSCRIPT_FIGURE
1002
{
1000
PSFILL
1000
Grayscale
1000
Grayscale
1070
   100
1002
}
  0
LINE
  5
1DF1E
330
1DB32
100
AcDbEntity
  8
YODOROGO
100
AcDbLine
 10
13944.80217064596
 20
942.2841744681491
 30
0.0
 11
13928.80217064596
 21
942.2841744681491
 31
0.0
1001
AUTOCAD_POSTSCRIPT_FIGURE
1002
{
1000
PSFILL
1000
Grayscale
1000
Grayscale
1070
   100
1002
}
  0
LINE
  5
1DF1F
330
1DB32
100
AcDbEntity
  8
YODOROGO
100
AcDbLine
 10
13944.80217064596
 20
939.8095889822196
 30
0.0
 11
13944.80217064596
 21
942.2841744681491
 31
0.0
1001
AUTOCAD_POSTSCRIPT_FIGURE
1002
{
1000
PSFILL
1000
Grayscale
1000
Grayscale
1070
   100
1002
}
  0
LINE
  5
1DF20
330
1DB32
100
AcDbEntity
  8
YODOROGO
100
AcDbLine
 10
13924.80217064596
 20
906.4874905807087
 30
0.0
 11
13944.80217064596
 21
939.8095889822196
 31
0.0
1001
AUTOCAD_POSTSCRIPT_FIGURE
1002
{
1000
PSFILL
1000
Grayscale
1000
Grayscale
1070
   100
1002
}
  0
LINE
  5
1DF21
330
1DB32
100
AcDbEntity
  8
YODOROGO
100
AcDbLine
 10
13924.80217064596
 20
898.487490580708
 30
0.0
 11
13924.80217064596
 21
906.4874905807087
 31
0.0
1001
AUTOCAD_POSTSCRIPT_FIGURE
1002
{
1000
PSFILL
1000
Grayscale
1000
Grayscale
1070
   100
1002
}
  0
LINE
  5
1DF22
330
1DB32
100
AcDbEntity
  8
YODOROGO
100
AcDbLine
 10
13944.80217064596
 20
923.8095889822183
 30
0.0
 11
13924.80217064596
 21
898.487490580708
 31
0.0
1001
AUTOCAD_POSTSCRIPT_FIGURE
1002
{
1000
PSFILL
1000
Grayscale
1000
Grayscale
1070
   100
1002
}
  0
LINE
  5
1DF23
330
1DB32
100
AcDbEntity
  8
YODOROGO
100
AcDbLine
 10
13944.80217064596
 20
873.8747482146434
 30
0.0
 11
13944.80217064596
 21
923.8095889822183
 31
0.0
1001
AUTOCAD_POSTSCRIPT_FIGURE
1002
{
1000
PSFILL
1000
Grayscale
1000
Grayscale
1070
   100
1002
}
  0
LINE
  5
1DF24
330
1DB32
100
AcDbEntity
  8
YODOROGO
100
AcDbLine
 10
13952.80217064596
 20
873.8747482146434
 30
0.0
 11
13944.80217064596
 21
873.8747482146434
 31
0.0
1001
AUTOCAD_POSTSCRIPT_FIGURE
1002
{
1000
PSFILL
1000
Grayscale
1000
Grayscale
1070
   100
1002
}
  0
LINE
  5
1DF25
330
1DB32
100
AcDbEntity
  8
YODOROGO
100
AcDbLine
 10
13952.80217064596
 20
924.7045060794032
 30
0.0
 11
13952.80217064596
 21
873.8747482146434
 31
0.0
1001
AUTOCAD_POSTSCRIPT_FIGURE
1002
{
1000
PSFILL
1000
Grayscale
1000
Grayscale
1070
   100
1002
}
  0
LINE
  5
1DF26
330
1DB32
100
AcDbEntity
  8
YODOROGO
100
AcDbLine
 10
13968.80217064596
 20
898.487490580708
 30
0.0
 11
13952.80217064596
 21
924.7045060794032
 31
0.0
1001
AUTOCAD_POSTSCRIPT_FIGURE
1002
{
1000
PSFILL
1000
Grayscale
1000
Grayscale
1070
   100
1002
}
  0
LINE
  5
1DF27
330
1DB32
100
AcDbEntity
  8
YODOROGO
100
AcDbLine
 10
13968.80217064596
 20
906.4874905807087
 30
0.0
 11
13968.80217064596
 21
898.487490580708
 31
0.0
1001
AUTOCAD_POSTSCRIPT_FIGURE
1002
{
1000
PSFILL
1000
Grayscale
1000
Grayscale
1070
   100
1002
}
  0
LINE
  5
1DF28
330
1DB32
100
AcDbEntity
  8
YODOROGO
100
AcDbLine
 10
13952.80217064596
 20
940.7045060794041
 30
0.0
 11
13968.80217064596
 21
906.4874905807087
 31
0.0
1001
AUTOCAD_POSTSCRIPT_FIGURE
1002
{
1000
PSFILL
1000
Grayscale
1000
Grayscale
1070
   100
1002
}
  0
LINE
  5
1DF29
330
1DB32
100
AcDbEntity
  8
YODOROGO
100
AcDbLine
 10
13952.80217064596
 20
942.2841744681502
 30
0.0
 11
13952.80217064596
 21
940.7045060794041
 31
0.0
1001
AUTOCAD_POSTSCRIPT_FIGURE
1002
{
1000
PSFILL
1000
Grayscale
1000
Grayscale
1070
   100
1002
}
  0
LINE
  5
1DF2A
330
1DB32
100
AcDbEntity
  8
YODOROGO
100
AcDbLine
 10
13968.80217064596
 20
942.2841744681491
 30
0.0
 11
13952.80217064596
 21
942.2841744681502
 31
0.0
1001
AUTOCAD_POSTSCRIPT_FIGURE
1002
{
1000
PSFILL
1000
Grayscale
1000
Grayscale
1070
   100
1002
}
  0
LINE
  5
1DF2B
330
1DB32
100
AcDbEntity
  8
YODOROGO
100
AcDbLine
 10
13968.80217064596
 20
950.2841744681497
 30
0.0
 11
13968.80217064596
 21
942.2841744681491
 31
0.0
1001
AUTOCAD_POSTSCRIPT_FIGURE
1002
{
1000
PSFILL
1000
Grayscale
1000
Grayscale
1070
   100
1002
}
  0
LINE
  5
1DF2C
330
1DB32
100
AcDbEntity
  8
YODOROGO
100
AcDbLine
 10
13952.80217064596
 20
950.2841744681497
 30
0.0
 11
13968.80217064596
 21
950.2841744681497
 31
0.0
1001
AUTOCAD_POSTSCRIPT_FIGURE
1002
{
1000
PSFILL
1000
Grayscale
1000
Grayscale
1070
   100
1002
}
  0
LINE
  5
1DF2D
330
1DB32
100
AcDbEntity
  8
YODOROGO
100
AcDbLine
 10
13952.80217064596
 20
969.8747482146441
 30
0.0
 11
13952.80217064596
 21
950.2841744681497
 31
0.0
1001
AUTOCAD_POSTSCRIPT_FIGURE
1002
{
1000
PSFILL
1000
Grayscale
1000
Grayscale
1070
   100
1002
}
  0
LINE
  5
1DF2E
330
1DB32
100
AcDbEntity
  8
YODOROGO
100
AcDbLine
 10
13968.80217064596
 20
969.8747482146441
 30
0.0
 11
13952.80217064596
 21
969.8747482146441
 31
0.0
1001
AUTOCAD_POSTSCRIPT_FIGURE
1002
{
1000
PSFILL
1000
Grayscale
1000
Grayscale
1070
   100
1002
}
  0
LINE
  5
1DF2F
330
1DB32
100
AcDbEntity
  8
YODOROGO
100
AcDbLine
 10
13968.80217064596
 20
977.8747482146435
 30
0.0
 11
13968.80217064596
 21
969.8747482146441
 31
0.0
1001
AUTOCAD_POSTSCRIPT_FIGURE
1002
{
1000
PSFILL
1000
Grayscale
1000
Grayscale
1070
   100
1002
}
  0
LINE
  5
1DF30
330
1DB32
100
AcDbEntity
  8
YODOROGO
100
AcDbLine
 10
13952.80217064596
 20
977.8747482146435
 30
0.0
 11
13968.80217064596
 21
977.8747482146435
 31
0.0
1001
AUTOCAD_POSTSCRIPT_FIGURE
1002
{
1000
PSFILL
1000
Grayscale
1000
Grayscale
1070
   100
1002
}
  0
LINE
  5
1DF31
330
1DB32
100
AcDbEntity
  8
YODOROGO
100
AcDbLine
 10
13952.80217064596
 20
989.8747482146442
 30
0.0
 11
13952.80217064596
 21
977.8747482146435
 31
0.0
1001
AUTOCAD_POSTSCRIPT_FIGURE
1002
{
1000
PSFILL
1000
Grayscale
1000
Grayscale
1070
   100
1002
}
  0
LINE
  5
1DF32
330
1DB32
100
AcDbEntity
  8
YODOROGO
100
AcDbLine
 10
13944.80217064596
 20
989.8747482146442
 30
0.0
 11
13952.80217064596
 21
989.8747482146442
 31
0.0
1001
AUTOCAD_POSTSCRIPT_FIGURE
1002
{
1000
PSFILL
1000
Grayscale
1000
Grayscale
1070
   100
1002
}
  0
LINE
  5
1DF33
330
1DB32
100
AcDbEntity
  8
YODOROGO
100
AcDbLine
 10
13944.80217064596
 20
977.8747482146435
 30
0.0
 11
13944.80217064596
 21
989.8747482146442
 31
0.0
1001
AUTOCAD_POSTSCRIPT_FIGURE
1002
{
1000
PSFILL
1000
Grayscale
1000
Grayscale
1070
   100
1002
}
  0
LINE
  5
1DF34
330
1DB32
100
AcDbEntity
  8
YODOROGO
100
AcDbLine
 10
13932.80217064596
 20
977.8747482146435
 30
0.0
 11
13944.80217064596
 21
977.8747482146435
 31
0.0
1001
AUTOCAD_POSTSCRIPT_FIGURE
1002
{
1000
PSFILL
1000
Grayscale
1000
Grayscale
1070
   100
1002
}
  0
LINE
  5
1DF35
330
1DB32
100
AcDbEntity
  8
YODOROGO
100
AcDbLine
 10
13932.80217064596
 20
989.8747482146442
 30
0.0
 11
13932.80217064596
 21
977.8747482146435
 31
0.0
1001
AUTOCAD_POSTSCRIPT_FIGURE
1002
{
1000
PSFILL
1000
Grayscale
1000
Grayscale
1070
   100
1002
}
  0
LINE
  5
1DF36
330
1DB32
100
AcDbEntity
  8
YODOROGO
100
AcDbLine
 10
13924.80217064596
 20
989.8747482146442
 30
0.0
 11
13932.80217064596
 21
989.8747482146442
 31
0.0
1001
AUTOCAD_POSTSCRIPT_FIGURE
1002
{
1000
PSFILL
1000
Grayscale
1000
Grayscale
1070
   100
1002
}
  0
LINE
  5
1DF37
330
1DB32
100
AcDbEntity
  8
YODOROGO
100
AcDbLine
 10
13924.80217064596
 20
977.8747482146435
 30
0.0
 11
13924.80217064596
 21
989.8747482146442
 31
0.0
1001
AUTOCAD_POSTSCRIPT_FIGURE
1002
{
1000
PSFILL
1000
Grayscale
1000
Grayscale
1070
   100
1002
}
  0
LINE
  5
1DF38
330
1DB32
100
AcDbEntity
  8
YODOROGO
100
AcDbLine
 10
13908.80217064596
 20
977.8747482146435
 30
0.0
 11
13924.80217064596
 21
977.8747482146435
 31
0.0
1001
AUTOCAD_POSTSCRIPT_FIGURE
1002
{
1000
PSFILL
1000
Grayscale
1000
Grayscale
1070
   100
1002
}
  0
LINE
  5
1DF39
330
1DB32
100
AcDbEntity
  8
YODOROGO
100
AcDbLine
 10
13908.80217064596
 20
989.8747482146442
 30
0.0
 11
13908.80217064596
 21
977.8747482146435
 31
0.0
1001
AUTOCAD_POSTSCRIPT_FIGURE
1002
{
1000
PSFILL
1000
Grayscale
1000
Grayscale
1070
   100
1002
}
  0
LINE
  5
1DF3A
330
1DB32
100
AcDbEntity
  8
YODOROGO
100
AcDbLine
 10
13900.80217064596
 20
989.8747482146442
 30
0.0
 11
13908.80217064596
 21
989.8747482146442
 31
0.0
1001
AUTOCAD_POSTSCRIPT_FIGURE
1002
{
1000
PSFILL
1000
Grayscale
1000
Grayscale
1070
   100
1002
}
  0
LINE
  5
1DF3B
330
1DB32
100
AcDbEntity
  8
YODOROGO
100
AcDbLine
 10
13900.80217064596
 20
977.8747482146435
 30
0.0
 11
13900.80217064596
 21
989.8747482146442
 31
0.0
1001
AUTOCAD_POSTSCRIPT_FIGURE
1002
{
1000
PSFILL
1000
Grayscale
1000
Grayscale
1070
   100
1002
}
  0
LINE
  5
1DF3C
330
1DB32
100
AcDbEntity
  8
YODOROGO
100
AcDbLine
 10
13888.80217064596
 20
977.8747482146435
 30
0.0
 11
13900.80217064596
 21
977.8747482146435
 31
0.0
1001
AUTOCAD_POSTSCRIPT_FIGURE
1002
{
1000
PSFILL
1000
Grayscale
1000
Grayscale
1070
   100
1002
}
  0
LINE
  5
1DF3D
330
1DB32
100
AcDbEntity
  8
YODOROGO
100
AcDbLine
 10
13888.80217064596
 20
969.8747482146441
 30
0.0
 11
13888.80217064596
 21
977.8747482146435
 31
0.0
1001
AUTOCAD_POSTSCRIPT_FIGURE
1002
{
1000
PSFILL
1000
Grayscale
1000
Grayscale
1070
   100
1002
}
  0
LINE
  5
1DF3E
330
1DB32
100
AcDbEntity
  8
YODOROGO
100
AcDbLine
 10
13900.80217064596
 20
969.8747482146441
 30
0.0
 11
13888.80217064596
 21
969.8747482146441
 31
0.0
1001
AUTOCAD_POSTSCRIPT_FIGURE
1002
{
1000
PSFILL
1000
Grayscale
1000
Grayscale
1070
   100
1002
}
  0
LINE
  5
1DF3F
330
1DB32
100
AcDbEntity
  8
YODOROGO
100
AcDbLine
 10
13900.80217064596
 20
957.3932903968525
 30
0.0
 11
13900.80217064596
 21
969.8747482146441
 31
0.0
1001
AUTOCAD_POSTSCRIPT_FIGURE
1002
{
1000
PSFILL
1000
Grayscale
1000
Grayscale
1070
   100
1002
}
  0
LINE
  5
1DF40
330
1DB32
100
AcDbEntity
  8
YODOROGO
100
AcDbLine
 10
13888.80217064596
 20
929.8883739758355
 30
0.0
 11
13900.80217064596
 21
957.3932903968525
 31
0.0
1001
AUTOCAD_POSTSCRIPT_FIGURE
1002
{
1000
PSFILL
1000
Grayscale
1000
Grayscale
1070
   100
1002
}
  0
LINE
  5
1DF41
330
1DB32
100
AcDbEntity
  8
YODOROGO
100
AcDbLine
 10
13888.80217064596
 20
921.8883739758362
 30
0.0
 11
13888.80217064596
 21
929.8883739758355
 31
0.0
1001
AUTOCAD_POSTSCRIPT_FIGURE
1002
{
1000
PSFILL
1000
Grayscale
1000
Grayscale
1070
   100
1002
}
  0
LINE
  5
1DF42
330
1DB32
100
AcDbEntity
  8
YODOROGO
100
AcDbLine
 10
14128.80217064596
 20
933.8747482146439
 30
0.0
 11
14200.80217064594
 21
912.4388128201532
 31
0.0
1001
AUTOCAD_POSTSCRIPT_FIGURE
1002
{
1000
PSFILL
1000
Grayscale
1000
Grayscale
1070
   100
1002
}
  0
LINE
  5
1DF43
330
1DB32
100
AcDbEntity
  8
YODOROGO
100
AcDbLine
 10
14200.80217064594
 20
876.4388128201531
 30
0.0
 11
14128.80217064596
 21
897.8747482146435
 31
0.0
1001
AUTOCAD_POSTSCRIPT_FIGURE
1002
{
1000
PSFILL
1000
Grayscale
1000
Grayscale
1070
   100
1002
}
  0
LINE
  5
1DF44
330
1DB32
100
AcDbEntity
  8
YODOROGO
100
AcDbLine
 10
14200.80217064594
 20
992.4388128201531
 30
0.0
 11
14128.80217064596
 21
1013.874748214644
 31
0.0
1001
AUTOCAD_POSTSCRIPT_FIGURE
1002
{
1000
PSFILL
1000
Grayscale
1000
Grayscale
1070
   100
1002
}
  0
LINE
  5
1DF45
330
1DB32
100
AcDbEntity
  8
YODOROGO
100
AcDbLine
 10
14128.80217064596
 20
979.874748214644
 30
0.0
 11
14200.80217064594
 21
958.4388128201537
 31
0.0
1001
AUTOCAD_POSTSCRIPT_FIGURE
1002
{
1000
PSFILL
1000
Grayscale
1000
Grayscale
1070
   100
1002
}
  0
LINE
  5
1DF46
330
1DB32
100
AcDbEntity
  8
YODOROGO
100
AcDbLine
 10
14128.80217064596
 20
897.8747482146435
 30
0.0
 11
14128.80217064596
 21
933.8747482146439
 31
0.0
1001
AUTOCAD_POSTSCRIPT_FIGURE
1002
{
1000
PSFILL
1000
Grayscale
1000
Grayscale
1070
   100
1002
}
  0
LINE
  5
1DF47
330
1DB32
100
AcDbEntity
  8
YODOROGO
100
AcDbLine
 10
14128.80217064596
 20
1013.874748214644
 30
0.0
 11
14128.80217064596
 21
979.874748214644
 31
0.0
1001
AUTOCAD_POSTSCRIPT_FIGURE
1002
{
1000
PSFILL
1000
Grayscale
1000
Grayscale
1070
   100
1002
}
  0
LINE
  5
1DF48
330
1DB32
100
AcDbEntity
  8
YODOROGO
100
AcDbLine
 10
14040.11816010337
 20
969.8747482146441
 30
0.0
 11
14064.80217064595
 21
873.8747482146434
 31
0.0
1001
AUTOCAD_POSTSCRIPT_FIGURE
1002
{
1000
PSFILL
1000
Grayscale
1000
Grayscale
1070
   100
1002
}
  0
LINE
  5
1DF49
330
1DB32
100
AcDbEntity
  8
YODOROGO
100
AcDbLine
 10
13988.80217064596
 20
969.8747482146441
 30
0.0
 11
14040.11816010337
 21
969.8747482146441
 31
0.0
1001
AUTOCAD_POSTSCRIPT_FIGURE
1002
{
1000
PSFILL
1000
Grayscale
1000
Grayscale
1070
   100
1002
}
  0
LINE
  5
1DF4A
330
1DB32
100
AcDbEntity
  8
YODOROGO
100
AcDbLine
 10
13988.80217064596
 20
977.8747482146435
 30
0.0
 11
13988.80217064596
 21
969.8747482146441
 31
0.0
1001
AUTOCAD_POSTSCRIPT_FIGURE
1002
{
1000
PSFILL
1000
Grayscale
1000
Grayscale
1070
   100
1002
}
  0
LINE
  5
1DF4B
330
1DB32
100
AcDbEntity
  8
YODOROGO
100
AcDbLine
 10
14038.30343925995
 20
977.8747482146435
 30
0.0
 11
13988.80217064596
 21
977.8747482146435
 31
0.0
1001
AUTOCAD_POSTSCRIPT_FIGURE
1002
{
1000
PSFILL
1000
Grayscale
1000
Grayscale
1070
   100
1002
}
  0
LINE
  5
1DF4C
330
1DB32
100
AcDbEntity
  8
YODOROGO
100
AcDbLine
 10
14035.58135799485
 20
989.8747482146442
 30
0.0
 11
14038.30343925995
 21
977.8747482146435
 31
0.0
1001
AUTOCAD_POSTSCRIPT_FIGURE
1002
{
1000
PSFILL
1000
Grayscale
1000
Grayscale
1070
   100
1002
}
  0
LINE
  5
1DF4D
330
1DB32
100
AcDbEntity
  8
YODOROGO
100
AcDbLine
 10
14045.58135799485
 20
989.8747482146442
 30
0.0
 11
14035.58135799485
 21
989.8747482146442
 31
0.0
1001
AUTOCAD_POSTSCRIPT_FIGURE
1002
{
1000
PSFILL
1000
Grayscale
1000
Grayscale
1070
   100
1002
}
  0
LINE
  5
1DF4E
330
1DB32
100
AcDbEntity
  8
YODOROGO
100
AcDbLine
 10
14047.90343925997
 20
977.8747482146435
 30
0.0
 11
14045.58135799485
 21
989.8747482146442
 31
0.0
1001
AUTOCAD_POSTSCRIPT_FIGURE
1002
{
1000
PSFILL
1000
Grayscale
1000
Grayscale
1070
   100
1002
}
  0
LINE
  5
1DF4F
330
1DB32
100
AcDbEntity
  8
YODOROGO
100
AcDbLine
 10
14060.80217064596
 20
977.8747482146435
 30
0.0
 11
14047.90343925997
 21
977.8747482146435
 31
0.0
1001
AUTOCAD_POSTSCRIPT_FIGURE
1002
{
1000
PSFILL
1000
Grayscale
1000
Grayscale
1070
   100
1002
}
  0
LINE
  5
1DF50
330
1DB32
100
AcDbEntity
  8
YODOROGO
100
AcDbLine
 10
14060.80217064596
 20
989.8747482146442
 30
0.0
 11
14060.80217064596
 21
977.8747482146435
 31
0.0
1001
AUTOCAD_POSTSCRIPT_FIGURE
1002
{
1000
PSFILL
1000
Grayscale
1000
Grayscale
1070
   100
1002
}
  0
LINE
  5
1DF51
330
1DB32
100
AcDbEntity
  8
YODOROGO
100
AcDbLine
 10
14068.80217064596
 20
989.8747482146442
 30
0.0
 11
14060.80217064596
 21
989.8747482146442
 31
0.0
1001
AUTOCAD_POSTSCRIPT_FIGURE
1002
{
1000
PSFILL
1000
Grayscale
1000
Grayscale
1070
   100
1002
}
  0
LINE
  5
1DF52
330
1DB32
100
AcDbEntity
  8
YODOROGO
100
AcDbLine
 10
14068.80217064596
 20
977.8747482146435
 30
0.0
 11
14068.80217064596
 21
989.8747482146442
 31
0.0
1001
AUTOCAD_POSTSCRIPT_FIGURE
1002
{
1000
PSFILL
1000
Grayscale
1000
Grayscale
1070
   100
1002
}
  0
LINE
  5
1DF53
330
1DB32
100
AcDbEntity
  8
YODOROGO
100
AcDbLine
 10
14068.80217064596
 20
969.8747482146441
 30
0.0
 11
14068.80217064596
 21
977.8747482146435
 31
0.0
1001
AUTOCAD_POSTSCRIPT_FIGURE
1002
{
1000
PSFILL
1000
Grayscale
1000
Grayscale
1070
   100
1002
}
  0
LINE
  5
1DF54
330
1DB32
100
AcDbEntity
  8
YODOROGO
100
AcDbLine
 10
14049.45149343671
 20
969.8747482146441
 30
0.0
 11
14068.80217064596
 21
969.8747482146441
 31
0.0
1001
AUTOCAD_POSTSCRIPT_FIGURE
1002
{
1000
PSFILL
1000
Grayscale
1000
Grayscale
1070
   100
1002
}
  0
LINE
  5
1DF55
330
1DB32
100
AcDbEntity
  8
YODOROGO
100
AcDbLine
 10
14068.80217064596
 20
873.8747482146434
 30
0.0
 11
14049.45149343671
 21
969.8747482146441
 31
0.0
1001
AUTOCAD_POSTSCRIPT_FIGURE
1002
{
1000
PSFILL
1000
Grayscale
1000
Grayscale
1070
   100
1002
}
  0
LINE
  5
1DF56
330
1DB32
100
AcDbEntity
  8
YODOROGO
100
AcDbLine
 10
14064.80217064595
 20
873.8747482146434
 30
0.0
 11
14068.80217064596
 21
873.8747482146434
 31
0.0
1001
AUTOCAD_POSTSCRIPT_FIGURE
1002
{
1000
PSFILL
1000
Grayscale
1000
Grayscale
1070
   100
1002
}
  0
LINE
  5
1DF57
330
1DB32
100
AcDbEntity
  8
YODOROGO
100
AcDbLine
 10
14039.03460996689
 20
887.8703881493972
 30
0.0
 11
13988.80217064596
 21
873.8747482146434
 31
0.0
  0
LINE
  5
1DF58
330
1DB32
100
AcDbEntity
  8
YODOROGO
100
AcDbLine
 10
14039.03460996689
 20
899.3344897645364
 30
0.0
 11
14039.03460996689
 21
887.8703881493972
 31
0.0
  0
LINE
  5
1DF59
330
1DB32
100
AcDbEntity
  8
YODOROGO
100
AcDbLine
 10
14016.91839030643
 20
893.4084665668834
 30
0.0
 11
14039.03460996689
 21
899.3344897645364
 31
0.0
  0
LINE
  5
1DF5A
330
1DB32
100
AcDbEntity
  8
YODOROGO
100
AcDbLine
 10
14016.91839030643
 20
936.2841744681499
 30
0.0
 11
14016.91839030643
 21
893.4084665668834
 31
0.0
  0
LINE
  5
1DF5B
330
1DB32
100
AcDbEntity
  8
YODOROGO
100
AcDbLine
 10
14039.03460996689
 20
936.2841744681499
 30
0.0
 11
14016.91839030643
 21
936.2841744681499
 31
0.0
  0
LINE
  5
1DF5C
330
1DB32
100
AcDbEntity
  8
YODOROGO
100
AcDbLine
 10
14039.03460996689
 20
946.2841744681487
 30
0.0
 11
14039.03460996689
 21
936.2841744681499
 31
0.0
  0
LINE
  5
1DF5D
330
1DB32
100
AcDbEntity
  8
YODOROGO
100
AcDbLine
 10
13988.80217064596
 20
946.2841744681487
 30
0.0
 11
14039.03460996689
 21
946.2841744681487
 31
0.0
  0
LINE
  5
1DF5E
330
1DB32
100
AcDbEntity
  8
YODOROGO
100
AcDbLine
 10
13988.80217064596
 20
936.2841744681499
 30
0.0
 11
13988.80217064596
 21
946.2841744681487
 31
0.0
  0
LINE
  5
1DF5F
330
1DB32
100
AcDbEntity
  8
YODOROGO
100
AcDbLine
 10
14010.91839030643
 20
936.2841744681499
 30
0.0
 11
13988.80217064596
 21
936.2841744681499
 31
0.0
  0
LINE
  5
1DF60
330
1DB32
100
AcDbEntity
  8
YODOROGO
100
AcDbLine
 10
14010.91839030643
 20
892.3366697971587
 30
0.0
 11
14010.91839030643
 21
936.2841744681499
 31
0.0
  0
LINE
  5
1DF61
330
1DB32
100
AcDbEntity
  8
YODOROGO
100
AcDbLine
 10
13988.80217064596
 20
885.8747482146432
 30
0.0
 11
14010.91839030643
 21
892.3366697971587
 31
0.0
  0
LINE
  5
1DF62
330
1DB32
100
AcDbEntity
  8
YODOROGO
100
AcDbLine
 10
13988.80217064596
 20
873.8747482146434
 30
0.0
 11
13988.80217064596
 21
885.8747482146432
 31
0.0
  0
LINE
  5
1DF63
330
1DB32
100
AcDbEntity
  8
YODOROGO
100
AcDbLine
 10
14000.80217064596
 20
853.874748214644
 30
0.0
 11
14000.80217064596
 21
841.8747482146434
 31
0.0
  0
LINE
  5
1DF64
330
1DB32
100
AcDbEntity
  8
YODOROGO
100
AcDbLine
 10
14000.80217064596
 20
853.874748214644
 30
0.0
 11
14000.80217064596
 21
853.874748214644
 31
0.0
  0
LINE
  5
1DF65
330
1DB32
100
AcDbEntity
  8
YODOROGO
100
AcDbLine
 10
14008.80217064596
 20
853.874748214644
 30
0.0
 11
14000.80217064596
 21
853.874748214644
 31
0.0
  0
LINE
  5
1DF66
330
1DB32
100
AcDbEntity
  8
YODOROGO
100
AcDbLine
 10
14008.80217064596
 20
841.8747482146434
 30
0.0
 11
14008.80217064596
 21
853.874748214644
 31
0.0
  0
LINE
  5
1DF67
330
1DB32
100
AcDbEntity
  8
YODOROGO
100
AcDbLine
 10
14020.45660200844
 20
841.8747482146434
 30
0.0
 11
14008.80217064596
 21
841.8747482146434
 31
0.0
  0
LINE
  5
1DF68
330
1DB32
100
AcDbEntity
  8
YODOROGO
100
AcDbLine
 10
14000.80217064596
 20
841.8747482146434
 30
0.0
 11
13988.80217064596
 21
841.8747482146434
 31
0.0
  0
LINE
  5
1DF69
330
1DB32
100
AcDbEntity
  8
YODOROGO
100
AcDbLine
 10
14041.06776011546
 20
853.874748214644
 30
0.0
 11
14049.06776011545
 21
853.874748214644
 31
0.0
1001
AUTOCAD_POSTSCRIPT_FIGURE
1002
{
1000
PSFILL
1000
Grayscale
1000
Grayscale
1070
   100
1002
}
  0
LINE
  5
1DF6A
330
1DB32
100
AcDbEntity
  8
YODOROGO
100
AcDbLine
 10
14200.80217064594
 20
912.4388128201532
 30
0.0
 11
14200.80217064594
 21
876.4388128201531
 31
0.0
1001
AUTOCAD_POSTSCRIPT_FIGURE
1002
{
1000
PSFILL
1000
Grayscale
1000
Grayscale
1070
   100
1002
}
  0
LINE
  5
1DF6B
330
1DB32
100
AcDbEntity
  8
YODOROGO
100
AcDbLine
 10
14200.80217064594
 20
958.4388128201537
 30
0.0
 11
14200.80217064594
 21
992.4388128201531
 31
0.0
1001
AUTOCAD_POSTSCRIPT_FIGURE
1002
{
1000
PSFILL
1000
Grayscale
1000
Grayscale
1070
   100
1002
}
  0
LINE
  5
1DF6C
330
1DB32
100
AcDbEntity
  8
YODOROGO
100
AcDbLine
 10
14216.80217064594
 20
909.8747482146439
 30
0.0
 11
14216.80217064594
 21
873.8747482146449
 31
0.0
  0
LINE
  5
1DF6D
330
1DB32
100
AcDbEntity
  8
YODOROGO
100
AcDbLine
 10
14248.80217064594
 20
853.874748214644
 30
0.0
 11
14216.80217064594
 21
853.874748214644
 31
0.0
  0
LINE
  5
1DF6E
330
1DB32
100
AcDbEntity
  8
YODOROGO
100
AcDbLine
 10
14216.80217064594
 20
873.8747482146449
 30
0.0
 11
14292.80217064596
 21
873.8747482146449
 31
0.0
  0
LINE
  5
1DF6F
330
1DB32
100
AcDbEntity
  8
YODOROGO
100
AcDbLine
 10
14248.80217064594
 20
933.8747482146439
 30
0.0
 11
14216.80217064594
 21
933.8747482146439
 31
0.0
  0
LINE
  5
1DF70
330
1DB32
100
AcDbEntity
  8
YODOROGO
100
AcDbLine
 10
14248.80217064594
 20
961.8747482146432
 30
0.0
 11
14248.80217064594
 21
933.8747482146439
 31
0.0
  0
LINE
  5
1DF71
330
1DB32
100
AcDbEntity
  8
YODOROGO
100
AcDbLine
 10
14292.80217064596
 20
993.8747482146439
 30
0.0
 11
14292.80217064596
 21
1013.874748214644
 31
0.0
  0
LINE
  5
1DF72
330
1DB32
100
AcDbEntity
  8
YODOROGO
100
AcDbLine
 10
14216.80217064594
 20
993.8747482146439
 30
0.0
 11
14292.80217064596
 21
993.8747482146439
 31
0.0
  0
LINE
  5
1DF73
330
1DB32
100
AcDbEntity
  8
YODOROGO
100
AcDbLine
 10
14216.80217064594
 20
933.8747482146439
 30
0.0
 11
14216.80217064594
 21
993.8747482146439
 31
0.0
  0
LINE
  5
1DF74
330
1DB32
100
AcDbEntity
  8
YODOROGO
100
AcDbLine
 10
14500.80217064594
 20
1013.874748214644
 30
0.0
 11
14500.80217064594
 21
809.8747482146441
 31
0.0
  0
LINE
  5
1DF75
330
1DB32
100
AcDbEntity
  8
YODOROGO
100
AcDbLine
 10
14536.80217064596
 20
789.8747482146441
 30
0.0
 11
14536.80217064596
 21
1013.874748214644
 31
0.0
  0
LINE
  5
1DF76
330
1DB32
100
AcDbEntity
  8
YODOROGO
100
AcDbLine
 10
14630.80217064596
 20
745.8747482146431
 30
0.0
 11
14630.80217064596
 21
1003.874748214644
 31
0.0
  0
LINE
  5
1DF77
330
1DB32
100
AcDbEntity
  8
YODOROGO
100
AcDbLine
 10
14598.80217064596
 20
1003.874748214644
 30
0.0
 11
14598.80217064596
 21
745.8747482146431
 31
0.0
  0
LINE
  5
1DF78
330
1DB32
100
AcDbEntity
  8
YODOROGO
100
AcDbLine
 10
14692.80217064596
 20
1013.874748214644
 30
0.0
 11
14692.80217064596
 21
713.8747482146436
 31
0.0
  0
LINE
  5
1DF79
330
1DB32
100
AcDbEntity
  8
YODOROGO
100
AcDbLine
 10
14728.80217064596
 20
713.8747482146436
 30
0.0
 11
14728.80217064596
 21
1013.874748214644
 31
0.0
  0
LINE
  5
1DF7A
330
1DB32
100
AcDbEntity
  8
YODOROGO
100
AcDbLine
 10
14328.80217064594
 20
833.8747482146439
 30
0.0
 11
14328.80217064594
 21
873.8747482146449
 31
0.0
  0
LINE
  5
1DF7B
330
1DB32
100
AcDbEntity
  8
YODOROGO
100
AcDbLine
 10
14942.80217064596
 20
853.874748214644
 30
0.0
 11
14942.80217064596
 21
833.8747482146439
 31
0.0
  0
LINE
  5
1DF7C
330
1DB32
100
AcDbEntity
  8
YODOROGO
100
AcDbLine
 10
14942.80217064596
 20
853.874748214644
 30
0.0
 11
14942.80217064596
 21
833.8747482146439
 31
0.0
  0
ARC
  5
1DF7D
330
1DB32
100
AcDbEntity
  8
YODOROGO
100
AcDbCircle
 10
14453.45578809342
 20
809.1089322211363
 30
0.0
 40
47.35257558937082
100
AcDbArc
 50
274.052441629071
 51
0.9266642149310712
  0
ARC
  5
1DF7E
330
1DB32
100
AcDbEntity
  8
YODOROGO
100
AcDbCircle
 10
14454.5930853599
 20
796.30536430522
 30
0.0
 40
82.46021178042756
100
AcDbArc
 50
271.5351210653777
 51
355.5272775058505
  0
LINE
  5
1DF7F
330
1DB32
100
AcDbEntity
  8
YODOROGO
100
AcDbLine
 10
14456.80217064596
 20
761.8747482146434
 30
0.0
 11
14456.80217064596
 21
713.8747482146436
 31
0.0
  0
LINE
  5
1DF80
330
1DB32
100
AcDbEntity
  8
YODOROGO
100
AcDbLine
 10
14396.80217064594
 20
833.8747482146439
 30
0.0
 11
14328.80217064594
 21
833.8747482146439
 31
0.0
  0
LINE
  5
1DF81
330
1DB32
100
AcDbEntity
  8
YODOROGO
100
AcDbLine
 10
14396.80217064594
 20
801.8747482146444
 30
0.0
 11
14396.80217064594
 21
833.8747482146439
 31
0.0
  0
LINE
  5
1DF82
330
1DB32
100
AcDbEntity
  8
YODOROGO
100
AcDbLine
 10
14328.80217064594
 20
801.8747482146444
 30
0.0
 11
14396.80217064594
 21
801.8747482146444
 31
0.0
  0
LINE
  5
1DF83
330
1DB32
100
AcDbEntity
  8
YODOROGO
100
AcDbLine
 10
14328.80217064594
 20
761.8747482146434
 30
0.0
 11
14328.80217064594
 21
801.8747482146444
 31
0.0
  0
LINE
  5
1DF84
330
1DB32
100
AcDbEntity
  8
YODOROGO
100
AcDbLine
 10
14396.80217064594
 20
761.8747482146434
 30
0.0
 11
14328.80217064594
 21
761.8747482146434
 31
0.0
  0
LINE
  5
1DF85
330
1DB32
100
AcDbEntity
  8
YODOROGO
100
AcDbLine
 10
14396.80217064594
 20
713.8747482146436
 30
0.0
 11
14396.80217064594
 21
761.8747482146434
 31
0.0
  0
LINE
  5
1DF86
330
1DB32
100
AcDbEntity
  8
YODOROGO
100
AcDbLine
 10
14598.80217064596
 20
745.8747482146431
 30
0.0
 11
14630.80217064596
 21
745.8747482146431
 31
0.0
  0
LINE
  5
1DF87
330
1DB32
100
AcDbEntity
  8
YODOROGO
100
AcDbLine
 10
14692.80217064596
 20
713.8747482146436
 30
0.0
 11
14728.80217064596
 21
713.8747482146436
 31
0.0
  0
LINE
  5
1DF88
330
1DB32
100
AcDbEntity
  8
YODOROGO
100
AcDbLine
 10
14868.80217064596
 20
764.2207260852818
 30
0.0
 11
14868.80217064596
 21
713.8747482146436
 31
0.0
  0
LINE
  5
1DF89
330
1DB32
100
AcDbEntity
  8
YODOROGO
100
AcDbLine
 10
14808.80217064596
 20
713.8747482146436
 30
0.0
 11
14868.80217064596
 21
764.2207260852818
 31
0.0
  0
LINE
  5
1DF8A
330
1DB32
100
AcDbEntity
  8
YODOROGO
100
AcDbLine
 10
14808.80217064596
 20
773.874748214644
 30
0.0
 11
14808.80217064596
 21
713.8747482146436
 31
0.0
  0
LINE
  5
1DF8B
330
1DB32
100
AcDbEntity
  8
YODOROGO
100
AcDbLine
 10
14856.47231434973
 20
813.8747482146435
 30
0.0
 11
14808.80217064596
 21
773.874748214644
 31
0.0
  0
LINE
  5
1DF8C
330
1DB32
100
AcDbEntity
  8
YODOROGO
100
AcDbLine
 10
14808.80217064596
 20
813.8747482146435
 30
0.0
 11
14856.47231434973
 21
813.8747482146435
 31
0.0
  0
LINE
  5
1DF8D
330
1DB32
100
AcDbEntity
  8
YODOROGO
100
AcDbLine
 10
14808.80217064596
 20
833.8747482146439
 30
0.0
 11
14808.80217064596
 21
813.8747482146435
 31
0.0
  0
LINE
  5
1DF8E
330
1DB32
100
AcDbEntity
  8
YODOROGO
100
AcDbLine
 10
14942.80217064596
 20
833.8747482146439
 30
0.0
 11
14808.80217064596
 21
833.8747482146439
 31
0.0
  0
LINE
  5
1DF8F
330
1DB32
100
AcDbEntity
  8
YODOROGO
100
AcDbLine
 10
14958.80217064596
 20
813.8747482146435
 30
0.0
 11
14888.80217064596
 21
813.8747482146435
 31
0.0
  0
LINE
  5
1DF90
330
1DB32
100
AcDbEntity
  8
YODOROGO
100
AcDbLine
 10
14888.80217064596
 20
781.0027187088283
 30
0.0
 11
14885.70493649264
 21
778.403830673117
 31
0.0
  0
LINE
  5
1DF91
330
1DB32
100
AcDbEntity
  8
YODOROGO
100
AcDbLine
 10
14888.80217064596
 20
813.8747482146435
 30
0.0
 11
14888.80217064596
 21
781.0027187088283
 31
0.0
  0
LINE
  5
1DF92
330
1DB32
100
AcDbEntity
  8
YODOROGO
100
AcDbLine
 10
14868.80217064596
 20
764.2207260852818
 30
0.0
 11
14868.80217064596
 21
713.8747482146436
 31
0.0
  0
LINE
  5
1DF93
330
1DB32
100
AcDbEntity
  8
YODOROGO
100
AcDbLine
 10
14808.80217064596
 20
713.8747482146436
 30
0.0
 11
14868.80217064596
 21
764.2207260852818
 31
0.0
  0
LINE
  5
1DF94
330
1DB32
100
AcDbEntity
  8
YODOROGO
100
AcDbLine
 10
14808.80217064596
 20
773.874748214644
 30
0.0
 11
14808.80217064596
 21
713.8747482146436
 31
0.0
  0
LINE
  5
1DF95
330
1DB32
100
AcDbEntity
  8
YODOROGO
100
AcDbLine
 10
14856.47231434973
 20
813.8747482146435
 30
0.0
 11
14808.80217064596
 21
773.874748214644
 31
0.0
  0
LINE
  5
1DF96
330
1DB32
100
AcDbEntity
  8
YODOROGO
100
AcDbLine
 10
14808.80217064596
 20
813.8747482146435
 30
0.0
 11
14856.47231434973
 21
813.8747482146435
 31
0.0
  0
LINE
  5
1DF97
330
1DB32
100
AcDbEntity
  8
YODOROGO
100
AcDbLine
 10
14808.80217064596
 20
833.8747482146439
 30
0.0
 11
14808.80217064596
 21
813.8747482146435
 31
0.0
  0
LINE
  5
1DF98
330
1DB32
100
AcDbEntity
  8
YODOROGO
100
AcDbLine
 10
14942.80217064596
 20
833.8747482146439
 30
0.0
 11
14808.80217064596
 21
833.8747482146439
 31
0.0
  0
LINE
  5
1DF99
330
1DB32
100
AcDbEntity
  8
YODOROGO
100
AcDbLine
 10
14396.80217064594
 20
873.8747482146449
 30
0.0
 11
14396.80217064594
 21
909.8747482146439
 31
0.0
  0
LINE
  5
1DF9A
330
1DB32
100
AcDbEntity
  8
YODOROGO
100
AcDbLine
 10
14328.80217064594
 20
873.8747482146449
 30
0.0
 11
14396.80217064594
 21
873.8747482146449
 31
0.0
  0
LINE
  5
1DF9B
330
1DB32
100
AcDbEntity
  8
YODOROGO
100
AcDbLine
 10
14364.80217064596
 20
933.8747482146439
 30
0.0
 11
14364.80217064596
 21
961.8747482146432
 31
0.0
  0
LINE
  5
1DF9C
330
1DB32
100
AcDbEntity
  8
YODOROGO
100
AcDbLine
 10
14396.80217064594
 20
933.8747482146439
 30
0.0
 11
14364.80217064596
 21
933.8747482146439
 31
0.0
  0
LINE
  5
1DF9D
330
1DB32
100
AcDbEntity
  8
YODOROGO
100
AcDbLine
 10
14396.80217064594
 20
973.8747482146434
 30
0.0
 11
14396.80217064594
 21
933.8747482146439
 31
0.0
  0
ARC
  5
1DF9E
330
1DB32
100
AcDbEntity
  8
YODOROGO
100
AcDbCircle
 10
14376.80217064594
 20
973.8747482146434
 30
0.0
 40
20.0
100
AcDbArc
 50
0.0
 51
90.0
  0
LINE
  5
1DF9F
330
1DB32
100
AcDbEntity
  8
YODOROGO
100
AcDbLine
 10
14328.80217064596
 20
993.8747482146439
 30
0.0
 11
14376.80217064594
 21
993.8747482146439
 31
0.0
  0
LINE
  5
1DFA0
330
1DB32
100
AcDbEntity
  8
YODOROGO
100
AcDbLine
 10
14328.80217064596
 20
1013.874748214644
 30
0.0
 11
14328.80217064596
 21
993.8747482146439
 31
0.0
  0
LINE
  5
1DFA1
330
1DB32
100
AcDbEntity
  8
YODOROGO
100
AcDbLine
 10
14536.80217064596
 20
1013.874748214644
 30
0.0
 11
14500.80217064594
 21
1013.874748214644
 31
0.0
  0
LINE
  5
1DFA2
330
1DB32
100
AcDbEntity
  8
YODOROGO
100
AcDbLine
 10
14630.80217064596
 20
1003.874748214644
 30
0.0
 11
14598.80217064596
 21
1003.874748214644
 31
0.0
  0
LINE
  5
1DFA3
330
1DB32
100
AcDbEntity
  8
YODOROGO
100
AcDbLine
 10
14728.80217064596
 20
1013.874748214644
 30
0.0
 11
14692.80217064596
 21
1013.874748214644
 31
0.0
  0
LINE
  5
1DFA4
330
1DB32
100
AcDbEntity
  8
YODOROGO
100
AcDbLine
 10
14836.80217064596
 20
853.874748214644
 30
0.0
 11
14836.80217064596
 21
885.8747482146441
 31
0.0
1001
AUTOCAD_POSTSCRIPT_FIGURE
1002
{
1000
PSFILL
1000
Grayscale
1000
Grayscale
1070
    25
1002
}
  0
LINE
  5
1DFA5
330
1DB32
100
AcDbEntity
  8
YODOROGO
100
AcDbLine
 10
14808.80217064596
 20
853.874748214644
 30
0.0
 11
14836.80217064596
 21
853.874748214644
 31
0.0
1001
AUTOCAD_POSTSCRIPT_FIGURE
1002
{
1000
PSFILL
1000
Grayscale
1000
Grayscale
1070
    25
1002
}
  0
LINE
  5
1DFA6
330
1DB32
100
AcDbEntity
  8
YODOROGO
100
AcDbLine
 10
14808.80217064596
 20
909.8747482146439
 30
0.0
 11
14808.80217064596
 21
853.874748214644
 31
0.0
1001
AUTOCAD_POSTSCRIPT_FIGURE
1002
{
1000
PSFILL
1000
Grayscale
1000
Grayscale
1070
    25
1002
}
  0
LINE
  5
1DFA7
330
1DB32
100
AcDbEntity
  8
YODOROGO
100
AcDbLine
 10
14882.80217064596
 20
909.8747482146439
 30
0.0
 11
14808.80217064596
 21
909.8747482146439
 31
0.0
1001
AUTOCAD_POSTSCRIPT_FIGURE
1002
{
1000
PSFILL
1000
Grayscale
1000
Grayscale
1070
    25
1002
}
  0
LINE
  5
1DFA8
330
1DB32
100
AcDbEntity
  8
YODOROGO
100
AcDbLine
 10
14882.80217064596
 20
929.874748214644
 30
0.0
 11
14882.80217064596
 21
909.8747482146439
 31
0.0
1001
AUTOCAD_POSTSCRIPT_FIGURE
1002
{
1000
PSFILL
1000
Grayscale
1000
Grayscale
1070
    25
1002
}
  0
LINE
  5
1DFA9
330
1DB32
100
AcDbEntity
  8
YODOROGO
100
AcDbLine
 10
14808.80217064596
 20
929.874748214644
 30
0.0
 11
14882.80217064596
 21
929.874748214644
 31
0.0
1001
AUTOCAD_POSTSCRIPT_FIGURE
1002
{
1000
PSFILL
1000
Grayscale
1000
Grayscale
1070
    25
1002
}
  0
LINE
  5
1DFAA
330
1DB32
100
AcDbEntity
  8
YODOROGO
100
AcDbLine
 10
14808.80217064596
 20
953.874748214644
 30
0.0
 11
14808.80217064596
 21
929.874748214644
 31
0.0
1001
AUTOCAD_POSTSCRIPT_FIGURE
1002
{
1000
PSFILL
1000
Grayscale
1000
Grayscale
1070
    25
1002
}
  0
LINE
  5
1DFAB
330
1DB32
100
AcDbEntity
  8
YODOROGO
100
AcDbLine
 10
14882.80217064596
 20
953.874748214644
 30
0.0
 11
14808.80217064596
 21
953.874748214644
 31
0.0
1001
AUTOCAD_POSTSCRIPT_FIGURE
1002
{
1000
PSFILL
1000
Grayscale
1000
Grayscale
1070
    25
1002
}
  0
LINE
  5
1DFAC
330
1DB32
100
AcDbEntity
  8
YODOROGO
100
AcDbLine
 10
14882.80217064596
 20
973.8747482146434
 30
0.0
 11
14882.80217064596
 21
953.874748214644
 31
0.0
1001
AUTOCAD_POSTSCRIPT_FIGURE
1002
{
1000
PSFILL
1000
Grayscale
1000
Grayscale
1070
    25
1002
}
  0
LINE
  5
1DFAD
330
1DB32
100
AcDbEntity
  8
YODOROGO
100
AcDbLine
 10
14808.80217064596
 20
973.8747482146434
 30
0.0
 11
14882.80217064596
 21
973.8747482146434
 31
0.0
1001
AUTOCAD_POSTSCRIPT_FIGURE
1002
{
1000
PSFILL
1000
Grayscale
1000
Grayscale
1070
    25
1002
}
  0
LINE
  5
1DFAE
330
1DB32
100
AcDbEntity
  8
YODOROGO
100
AcDbLine
 10
14808.80217064596
 20
1013.874748214644
 30
0.0
 11
14808.80217064596
 21
973.8747482146434
 31
0.0
1001
AUTOCAD_POSTSCRIPT_FIGURE
1002
{
1000
PSFILL
1000
Grayscale
1000
Grayscale
1070
    25
1002
}
  0
LINE
  5
1DFAF
330
1DB32
100
AcDbEntity
  8
YODOROGO
100
AcDbLine
 10
14832.80217064596
 20
1013.874748214644
 30
0.0
 11
14808.80217064596
 21
1013.874748214644
 31
0.0
1001
AUTOCAD_POSTSCRIPT_FIGURE
1002
{
1000
PSFILL
1000
Grayscale
1000
Grayscale
1070
    25
1002
}
  0
LINE
  5
1DFB0
330
1DB32
100
AcDbEntity
  8
YODOROGO
100
AcDbLine
 10
14832.80217064596
 20
997.8747482146435
 30
0.0
 11
14832.80217064596
 21
1013.874748214644
 31
0.0
1001
AUTOCAD_POSTSCRIPT_FIGURE
1002
{
1000
PSFILL
1000
Grayscale
1000
Grayscale
1070
    25
1002
}
  0
LINE
  5
1DFB1
330
1DB32
100
AcDbEntity
  8
YODOROGO
100
AcDbLine
 10
14882.80217064596
 20
997.8747482146435
 30
0.0
 11
14832.80217064596
 21
997.8747482146435
 31
0.0
1001
AUTOCAD_POSTSCRIPT_FIGURE
1002
{
1000
PSFILL
1000
Grayscale
1000
Grayscale
1070
    25
1002
}
  0
LINE
  5
1DFB2
330
1DB32
100
AcDbEntity
  8
YODOROGO
100
AcDbLine
 10
14882.80217064596
 20
1013.874748214644
 30
0.0
 11
14882.80217064596
 21
997.8747482146435
 31
0.0
1001
AUTOCAD_POSTSCRIPT_FIGURE
1002
{
1000
PSFILL
1000
Grayscale
1000
Grayscale
1070
    25
1002
}
  0
LINE
  5
1DFB3
330
1DB32
100
AcDbEntity
  8
YODOROGO
100
AcDbLine
 10
14914.80217064596
 20
1013.874748214644
 30
0.0
 11
14882.80217064596
 21
1013.874748214644
 31
0.0
1001
AUTOCAD_POSTSCRIPT_FIGURE
1002
{
1000
PSFILL
1000
Grayscale
1000
Grayscale
1070
    25
1002
}
  0
LINE
  5
1DFB4
330
1DB32
100
AcDbEntity
  8
YODOROGO
100
AcDbLine
 10
14914.80217064596
 20
997.8747482146435
 30
0.0
 11
14914.80217064596
 21
1013.874748214644
 31
0.0
1001
AUTOCAD_POSTSCRIPT_FIGURE
1002
{
1000
PSFILL
1000
Grayscale
1000
Grayscale
1070
    25
1002
}
  0
LINE
  5
1DFB5
330
1DB32
100
AcDbEntity
  8
YODOROGO
100
AcDbLine
 10
14914.80217064596
 20
953.874748214644
 30
0.0
 11
14914.80217064596
 21
973.8747482146434
 31
0.0
1001
AUTOCAD_POSTSCRIPT_FIGURE
1002
{
1000
PSFILL
1000
Grayscale
1000
Grayscale
1070
    25
1002
}
  0
LINE
  5
1DFB6
330
1DB32
100
AcDbEntity
  8
YODOROGO
100
AcDbLine
 10
14914.80217064596
 20
909.8747482146439
 30
0.0
 11
14914.80217064596
 21
929.874748214644
 31
0.0
1001
AUTOCAD_POSTSCRIPT_FIGURE
1002
{
1000
PSFILL
1000
Grayscale
1000
Grayscale
1070
    25
1002
}
  0
LINE
  5
1DFB7
330
1DB32
100
AcDbEntity
  8
YODOROGO
100
AcDbLine
 10
14960.80217064594
 20
885.8747482146441
 30
0.0
 11
14960.80217064594
 21
853.874748214644
 31
0.0
1001
AUTOCAD_POSTSCRIPT_FIGURE
1002
{
1000
PSFILL
1000
Grayscale
1000
Grayscale
1070
    25
1002
}
  0
LINE
  5
1DFB8
330
1DB32
100
AcDbEntity
  8
YODOROGO
100
AcDbLine
 10
14914.80217064596
 20
885.8747482146441
 30
0.0
 11
14960.80217064594
 21
885.8747482146441
 31
0.0
1001
AUTOCAD_POSTSCRIPT_FIGURE
1002
{
1000
PSFILL
1000
Grayscale
1000
Grayscale
1070
    25
1002
}
  0
LINE
  5
1DFB9
330
1DB32
100
AcDbEntity
  8
YODOROGO
100
AcDbLine
 10
14914.80217064596
 20
853.874748214644
 30
0.0
 11
14914.80217064596
 21
885.8747482146441
 31
0.0
1001
AUTOCAD_POSTSCRIPT_FIGURE
1002
{
1000
PSFILL
1000
Grayscale
1000
Grayscale
1070
    25
1002
}
  0
LINE
  5
1DFBA
330
1DB32
100
AcDbEntity
  8
YODOROGO
100
AcDbLine
 10
14882.80217064596
 20
853.874748214644
 30
0.0
 11
14914.80217064596
 21
853.874748214644
 31
0.0
1001
AUTOCAD_POSTSCRIPT_FIGURE
1002
{
1000
PSFILL
1000
Grayscale
1000
Grayscale
1070
    25
1002
}
  0
LINE
  5
1DFBB
330
1DB32
100
AcDbEntity
  8
YODOROGO
100
AcDbLine
 10
14882.80217064596
 20
885.8747482146441
 30
0.0
 11
14882.80217064596
 21
853.874748214644
 31
0.0
1001
AUTOCAD_POSTSCRIPT_FIGURE
1002
{
1000
PSFILL
1000
Grayscale
1000
Grayscale
1070
    25
1002
}
  0
LINE
  5
1DFBC
330
1DB32
100
AcDbEntity
  8
YODOROGO
100
AcDbLine
 10
14836.80217064596
 20
885.8747482146441
 30
0.0
 11
14882.80217064596
 21
885.8747482146441
 31
0.0
1001
AUTOCAD_POSTSCRIPT_FIGURE
1002
{
1000
PSFILL
1000
Grayscale
1000
Grayscale
1070
    25
1002
}
  0
ARC
  5
1DFBD
330
1DB32
100
AcDbEntity
  8
YODOROGO
100
AcDbCircle
 10
15529.75894667896
 20
801.3403687577881
 30
0.0
 40
89.11064055536078
100
AcDbArc
 50
281.0262749542535
 51
357.771135755738
  0
LINE
  5
1DFBE
330
1DB32
100
AcDbEntity
  8
YODOROGO
100
AcDbLine
 10
15706.80217064596
 20
953.874748214644
 30
0.0
 11
15582.80217064596
 21
953.874748214644
 31
0.0
  0
LINE
  5
1DFBF
330
1DB32
100
AcDbEntity
  8
YODOROGO
100
AcDbLine
 10
15706.80217064596
 20
1013.874748214644
 30
0.0
 11
15582.80217064596
 21
1013.874748214644
 31
0.0
  0
LINE
  5
1DFC0
330
1DB32
100
AcDbEntity
  8
YODOROGO
100
AcDbLine
 10
15582.80217064596
 20
981.8747482146434
 30
0.0
 11
15706.80217064596
 21
981.8747482146434
 31
0.0
  0
LINE
  5
1DFC1
330
1DB32
100
AcDbEntity
  8
YODOROGO
100
AcDbLine
 10
15395.80217064596
 20
781.8747482146434
 30
0.0
 11
15395.80217064596
 21
877.8747482146435
 31
0.0
  0
LINE
  5
1DFC2
330
1DB32
100
AcDbEntity
  8
YODOROGO
100
AcDbLine
 10
15381.80217064596
 20
845.8747482146444
 30
0.0
 11
15381.80217064596
 21
781.8747482146434
 31
0.0
  0
LINE
  5
1DFC3
330
1DB32
100
AcDbEntity
  8
YODOROGO
100
AcDbLine
 10
15361.80217064596
 20
745.8747482146443
 30
0.0
 11
15361.80217064596
 21
845.8747482146444
 31
0.0
  0
LINE
  5
1DFC4
330
1DB32
100
AcDbEntity
  8
YODOROGO
100
AcDbLine
 10
15449.80217064596
 20
845.8747482146444
 30
0.0
 11
15449.80217064596
 21
745.8747482146443
 31
0.0
  0
LINE
  5
1DFC5
330
1DB32
100
AcDbEntity
  8
YODOROGO
100
AcDbLine
 10
15429.80217064596
 20
781.8747482146434
 30
0.0
 11
15429.80217064596
 21
845.8747482146444
 31
0.0
  0
LINE
  5
1DFC6
330
1DB32
100
AcDbEntity
  8
YODOROGO
100
AcDbLine
 10
15415.80217064596
 20
877.8747482146435
 30
0.0
 11
15415.80217064596
 21
781.8747482146434
 31
0.0
  0
LINE
  5
1DFC7
330
1DB32
100
AcDbEntity
  8
YODOROGO
100
AcDbLine
 10
15486.80217064596
 20
1013.874748214644
 30
0.0
 11
15486.80217064596
 21
733.8747482146435
 31
0.0
  0
LINE
  5
1DFC8
330
1DB32
100
AcDbEntity
  8
YODOROGO
100
AcDbLine
 10
15322.80217064596
 20
713.8747482146436
 30
0.0
 11
15322.80217064596
 21
1013.874748214644
 31
0.0
  0
LINE
  5
1DFC9
330
1DB32
100
AcDbEntity
  8
YODOROGO
100
AcDbLine
 10
15348.80217064596
 20
981.8747482146434
 30
0.0
 11
15348.80217064596
 21
713.8747482146436
 31
0.0
  0
LINE
  5
1DFCA
330
1DB32
100
AcDbEntity
  8
YODOROGO
100
AcDbLine
 10
15462.80217064596
 20
773.874748214644
 30
0.0
 11
15462.80217064596
 21
981.8747482146434
 31
0.0
  0
LINE
  5
1DFCB
330
1DB32
100
AcDbEntity
  8
YODOROGO
100
AcDbLine
 10
15190.80217064596
 20
813.8747482146435
 30
0.0
 11
15190.80217064596
 21
839.8747482146442
 31
0.0
  0
LINE
  5
1DFCC
330
1DB32
100
AcDbEntity
  8
YODOROGO
100
AcDbLine
 10
15308.80217064596
 20
839.8747482146442
 30
0.0
 11
15308.80217064596
 21
813.8747482146435
 31
0.0
  0
LINE
  5
1DFCD
330
1DB32
100
AcDbEntity
  8
YODOROGO
100
AcDbLine
 10
15582.80217064596
 20
953.874748214644
 30
0.0
 11
15582.80217064596
 21
817.8747482146436
 31
0.0
  0
LINE
  5
1DFCE
330
1DB32
100
AcDbEntity
  8
YODOROGO
100
AcDbLine
 10
14974.80217064595
 20
833.8747482146439
 30
0.0
 11
14974.80217064595
 21
853.874748214644
 31
0.0
  0
LINE
  5
1DFCF
330
1DB32
100
AcDbEntity
  8
YODOROGO
100
AcDbLine
 10
14974.80217064595
 20
833.8747482146439
 30
0.0
 11
14974.80217064595
 21
853.874748214644
 31
0.0
  0
ARC
  5
1DFD0
330
1DB32
100
AcDbEntity
  8
YODOROGO
100
AcDbCircle
 10
15268.80217064596
 20
753.8747482146439
 30
0.0
 40
40.0
100
AcDbArc
 50
270.0
 51
0.0
  0
LINE
  5
1DFD1
330
1DB32
100
AcDbEntity
  8
YODOROGO
100
AcDbLine
 10
15284.80217064596
 20
799.8747482146441
 30
0.0
 11
15308.80217064596
 21
799.8747482146441
 31
0.0
  0
LINE
  5
1DFD2
330
1DB32
100
AcDbEntity
  8
YODOROGO
100
AcDbLine
 10
15308.80217064596
 20
813.8747482146435
 30
0.0
 11
15264.80217064596
 21
813.8747482146435
 31
0.0
  0
LINE
  5
1DFD3
330
1DB32
100
AcDbEntity
  8
YODOROGO
100
AcDbLine
 10
15108.80217064596
 20
833.8747482146439
 30
0.0
 11
14974.80217064595
 21
833.8747482146439
 31
0.0
  0
LINE
  5
1DFD4
330
1DB32
100
AcDbEntity
  8
YODOROGO
100
AcDbLine
 10
15108.80217064596
 20
813.8747482146435
 30
0.0
 11
15108.80217064596
 21
833.8747482146439
 31
0.0
  0
LINE
  5
1DFD5
330
1DB32
100
AcDbEntity
  8
YODOROGO
100
AcDbLine
 10
15008.80217064596
 20
813.8747482146435
 30
0.0
 11
15108.80217064596
 21
813.8747482146435
 31
0.0
  0
ARC
  5
1DFD6
330
1DB32
100
AcDbEntity
  8
YODOROGO
100
AcDbCircle
 10
15115.02941435068
 20
934.4428574764513
 30
0.0
 40
160.6888181426141
100
AcDbArc
 50
228.6181454618993
 51
245.660289248906
  0
LINE
  5
1DFD7
330
1DB32
100
AcDbEntity
  8
YODOROGO
100
AcDbLine
 10
15052.80217064596
 20
801.8747482146444
 30
0.0
 11
15048.80217064598
 21
788.0364079349501
 31
0.0
  0
LINE
  5
1DFD8
330
1DB32
100
AcDbEntity
  8
YODOROGO
100
AcDbLine
 10
15094.80217064596
 20
801.8747482146444
 30
0.0
 11
15052.80217064596
 21
801.8747482146444
 31
0.0
  0
LINE
  5
1DFD9
330
1DB32
100
AcDbEntity
  8
YODOROGO
100
AcDbLine
 10
15088.80217064596
 20
775.9088612367134
 30
0.0
 11
15094.80217064596
 21
801.8747482146444
 31
0.0
  0
ARC
  5
1DFDA
330
1DB32
100
AcDbEntity
  8
YODOROGO
100
AcDbCircle
 10
15115.02941435023
 20
934.4428574765014
 30
0.0
 40
160.6888181426453
100
AcDbArc
 50
260.6062929796992
 51
267.7790355655586
  0
LINE
  5
1DFDB
330
1DB32
100
AcDbEntity
  8
YODOROGO
100
AcDbLine
 10
15108.80217064596
 20
713.8747482146428
 30
0.0
 11
15108.80217064596
 21
773.874748214644
 31
0.0
  0
LINE
  5
1DFDC
330
1DB32
100
AcDbEntity
  8
YODOROGO
100
AcDbLine
 10
14968.80217064596
 20
740.6696674577553
 30
0.0
 11
14968.80217064596
 21
797.2655452655705
 31
0.0
  0
LINE
  5
1DFDD
330
1DB32
100
AcDbEntity
  8
YODOROGO
100
AcDbLine
 10
15108.80217064596
 20
833.8747482146439
 30
0.0
 11
14974.80217064595
 21
833.8747482146439
 31
0.0
  0
LINE
  5
1DFDE
330
1DB32
100
AcDbEntity
  8
YODOROGO
100
AcDbLine
 10
15108.80217064596
 20
813.8747482146435
 30
0.0
 11
15108.80217064596
 21
833.8747482146439
 31
0.0
  0
LINE
  5
1DFDF
330
1DB32
100
AcDbEntity
  8
YODOROGO
100
AcDbLine
 10
15008.80217064596
 20
813.8747482146435
 30
0.0
 11
15108.80217064596
 21
813.8747482146435
 31
0.0
  0
ARC
  5
1DFE0
330
1DB32
100
AcDbEntity
  8
YODOROGO
100
AcDbCircle
 10
15115.02941435068
 20
934.4428574764513
 30
0.0
 40
160.6888181426141
100
AcDbArc
 50
228.6181454618993
 51
245.660289248906
  0
LINE
  5
1DFE1
330
1DB32
100
AcDbEntity
  8
YODOROGO
100
AcDbLine
 10
15052.80217064596
 20
801.8747482146444
 30
0.0
 11
15048.80217064598
 21
788.0364079349501
 31
0.0
  0
LINE
  5
1DFE2
330
1DB32
100
AcDbEntity
  8
YODOROGO
100
AcDbLine
 10
15094.80217064596
 20
801.8747482146444
 30
0.0
 11
15052.80217064596
 21
801.8747482146444
 31
0.0
  0
LINE
  5
1DFE3
330
1DB32
100
AcDbEntity
  8
YODOROGO
100
AcDbLine
 10
15088.80217064596
 20
775.9088612367134
 30
0.0
 11
15094.80217064596
 21
801.8747482146444
 31
0.0
  0
ARC
  5
1DFE4
330
1DB32
100
AcDbEntity
  8
YODOROGO
100
AcDbCircle
 10
15115.02941435023
 20
934.4428574765014
 30
0.0
 40
160.6888181426453
100
AcDbArc
 50
260.6062929796992
 51
267.7790355655586
  0
LINE
  5
1DFE5
330
1DB32
100
AcDbEntity
  8
YODOROGO
100
AcDbLine
 10
15108.80217064596
 20
713.8747482146428
 30
0.0
 11
15108.80217064596
 21
773.874748214644
 31
0.0
  0
LINE
  5
1DFE6
330
1DB32
100
AcDbEntity
  8
YODOROGO
100
AcDbLine
 10
14968.80217064596
 20
740.6696674577553
 30
0.0
 11
14968.80217064596
 21
797.2655452655705
 31
0.0
  0
LINE
  5
1DFE7
330
1DB32
100
AcDbEntity
  8
YODOROGO
100
AcDbLine
 10
15216.80217064596
 20
786.8747482146444
 30
0.0
 11
15190.80217064596
 21
786.8747482146444
 31
0.0
  0
LINE
  5
1DFE8
330
1DB32
100
AcDbEntity
  8
YODOROGO
100
AcDbLine
 10
15216.80217064596
 20
800.8747482146432
 30
0.0
 11
15216.80217064596
 21
786.8747482146444
 31
0.0
  0
LINE
  5
1DFE9
330
1DB32
100
AcDbEntity
  8
YODOROGO
100
AcDbLine
 10
15190.80217064596
 20
800.8747482146432
 30
0.0
 11
15216.80217064596
 21
800.8747482146432
 31
0.0
  0
LINE
  5
1DFEA
330
1DB32
100
AcDbEntity
  8
YODOROGO
100
AcDbLine
 10
15190.80217064596
 20
786.8747482146444
 30
0.0
 11
15190.80217064596
 21
800.8747482146432
 31
0.0
  0
LINE
  5
1DFEB
330
1DB32
100
AcDbEntity
  8
YODOROGO
100
AcDbLine
 10
15214.80217064596
 20
788.8747482146436
 30
0.0
 11
15192.80217064595
 21
788.8747482146436
 31
0.0
  0
LINE
  5
1DFEC
330
1DB32
100
AcDbEntity
  8
YODOROGO
100
AcDbLine
 10
15214.80217064596
 20
798.874748214644
 30
0.0
 11
15214.80217064596
 21
788.8747482146436
 31
0.0
  0
LINE
  5
1DFED
330
1DB32
100
AcDbEntity
  8
YODOROGO
100
AcDbLine
 10
15192.80217064595
 20
798.874748214644
 30
0.0
 11
15214.80217064596
 21
798.874748214644
 31
0.0
  0
LINE
  5
1DFEE
330
1DB32
100
AcDbEntity
  8
YODOROGO
100
AcDbLine
 10
15192.80217064595
 20
788.8747482146436
 30
0.0
 11
15192.80217064595
 21
798.874748214644
 31
0.0
  0
LINE
  5
1DFEF
330
1DB32
100
AcDbEntity
  8
YODOROGO
100
AcDbLine
 10
15212.80217064596
 20
790.8747482146432
 30
0.0
 11
15194.80217064596
 21
790.8747482146432
 31
0.0
  0
LINE
  5
1DFF0
330
1DB32
100
AcDbEntity
  8
YODOROGO
100
AcDbLine
 10
15212.80217064596
 20
796.8747482146445
 30
0.0
 11
15212.80217064596
 21
790.8747482146432
 31
0.0
  0
LINE
  5
1DFF1
330
1DB32
100
AcDbEntity
  8
YODOROGO
100
AcDbLine
 10
15194.80217064596
 20
796.8747482146445
 30
0.0
 11
15212.80217064596
 21
796.8747482146445
 31
0.0
  0
LINE
  5
1DFF2
330
1DB32
100
AcDbEntity
  8
YODOROGO
100
AcDbLine
 10
15194.80217064596
 20
790.8747482146432
 30
0.0
 11
15194.80217064596
 21
796.8747482146445
 31
0.0
  0
LINE
  5
1DFF3
330
1DB32
100
AcDbEntity
  8
YODOROGO
100
AcDbLine
 10
15210.80217064596
 20
792.8747482146435
 30
0.0
 11
15196.80217064596
 21
792.8747482146435
 31
0.0
  0
LINE
  5
1DFF4
330
1DB32
100
AcDbEntity
  8
YODOROGO
100
AcDbLine
 10
15210.80217064596
 20
794.8747482146441
 30
0.0
 11
15210.80217064596
 21
792.8747482146435
 31
0.0
  0
LINE
  5
1DFF5
330
1DB32
100
AcDbEntity
  8
YODOROGO
100
AcDbLine
 10
15196.80217064596
 20
794.8747482146441
 30
0.0
 11
15210.80217064596
 21
794.8747482146441
 31
0.0
  0
LINE
  5
1DFF6
330
1DB32
100
AcDbEntity
  8
YODOROGO
100
AcDbLine
 10
15196.80217064596
 20
792.8747482146435
 30
0.0
 11
15196.80217064596
 21
794.8747482146441
 31
0.0
  0
LINE
  5
1DFF7
330
1DB32
100
AcDbEntity
  8
YODOROGO
100
AcDbLine
 10
15232.80217064596
 20
813.8747482146435
 30
0.0
 11
15190.80217064596
 21
813.8747482146435
 31
0.0
  0
LINE
  5
1DFF8
330
1DB32
100
AcDbEntity
  8
YODOROGO
100
AcDbLine
 10
15232.80217064596
 20
773.874748214644
 30
0.0
 11
15232.80217064596
 21
813.8747482146435
 31
0.0
  0
LINE
  5
1DFF9
330
1DB32
100
AcDbEntity
  8
YODOROGO
100
AcDbLine
 10
15190.80217064596
 20
773.874748214644
 30
0.0
 11
15232.80217064596
 21
773.874748214644
 31
0.0
  0
LINE
  5
1DFFA
330
1DB32
100
AcDbEntity
  8
YODOROGO
100
AcDbLine
 10
15190.80217064596
 20
713.8747482146436
 30
0.0
 11
15190.80217064596
 21
773.874748214644
 31
0.0
  0
LINE
  5
1DFFB
330
1DB32
100
AcDbEntity
  8
YODOROGO
100
AcDbLine
 10
15268.80217064596
 20
713.8747482146436
 30
0.0
 11
15190.80217064596
 21
713.8747482146436
 31
0.0
  0
LINE
  5
1DFFC
330
1DB32
100
AcDbEntity
  8
YODOROGO
100
AcDbLine
 10
15284.80217064596
 20
785.8747482146432
 30
0.0
 11
15284.80217064596
 21
799.8747482146441
 31
0.0
  0
ARC
  5
1DFFD
330
1DB32
100
AcDbEntity
  8
YODOROGO
100
AcDbCircle
 10
15272.80217064594
 20
785.8747482146457
 30
0.0
 40
12.00000000000187
100
AcDbArc
 50
270.0
 51
359.9999999999877
  0
LINE
  5
1DFFE
330
1DB32
100
AcDbEntity
  8
YODOROGO
100
AcDbLine
 10
15264.80217064596
 20
773.874748214644
 30
0.0
 11
15272.80217064594
 21
773.874748214644
 31
0.0
  0
LINE
  5
1DFFF
330
1DB32
100
AcDbEntity
  8
YODOROGO
100
AcDbLine
 10
15264.80217064596
 20
813.8747482146435
 30
0.0
 11
15264.80217064596
 21
773.874748214644
 31
0.0
  0
LINE
  5
1E000
330
1DB32
100
AcDbEntity
  8
YODOROGO
100
AcDbLine
 10
15449.80217064596
 20
773.874748214644
 30
0.0
 11
15462.80217064596
 21
773.874748214644
 31
0.0
  0
LINE
  5
1E001
330
1DB32
100
AcDbEntity
  8
YODOROGO
100
AcDbLine
 10
15466.80217064596
 20
713.8747482146436
 30
0.0
 11
15449.80217064596
 21
713.8747482146436
 31
0.0
  0
LINE
  5
1E002
330
1DB32
100
AcDbEntity
  8
YODOROGO
100
AcDbLine
 10
15381.80217064596
 20
781.8747482146434
 30
0.0
 11
15395.80217064596
 21
781.8747482146434
 31
0.0
  0
LINE
  5
1E003
330
1DB32
100
AcDbEntity
  8
YODOROGO
100
AcDbLine
 10
15449.80217064596
 20
745.8747482146443
 30
0.0
 11
15361.80217064596
 21
745.8747482146443
 31
0.0
  0
LINE
  5
1E004
330
1DB32
100
AcDbEntity
  8
YODOROGO
100
AcDbLine
 10
15415.80217064596
 20
781.8747482146434
 30
0.0
 11
15429.80217064596
 21
781.8747482146434
 31
0.0
  0
LINE
  5
1E005
330
1DB32
100
AcDbEntity
  8
YODOROGO
100
AcDbLine
 10
15449.80217064596
 20
713.8747482146436
 30
0.0
 11
15449.80217064596
 21
773.874748214644
 31
0.0
  0
LINE
  5
1E006
330
1DB32
100
AcDbEntity
  8
YODOROGO
100
AcDbLine
 10
15348.80217064596
 20
713.8747482146436
 30
0.0
 11
15322.80217064596
 21
713.8747482146436
 31
0.0
  0
LINE
  5
1E007
330
1DB32
100
AcDbEntity
  8
YODOROGO
100
AcDbLine
 10
15308.80217064596
 20
799.8747482146441
 30
0.0
 11
15308.80217064596
 21
753.8747482146439
 31
0.0
  0
ARC
  5
1E008
330
1DB32
100
AcDbEntity
  8
YODOROGO
100
AcDbCircle
 10
15466.80217064596
 20
733.8747482146435
 30
0.0
 40
20.0
100
AcDbArc
 50
270.0
 51
0.0
  0
LINE
  5
1E009
330
1DB32
100
AcDbEntity
  8
YODOROGO
100
AcDbLine
 10
15546.80217064596
 20
761.8747482146434
 30
0.0
 11
15546.80217064596
 21
713.8747482146436
 31
0.0
  0
ARC
  5
1E00A
330
1DB32
100
AcDbEntity
  8
YODOROGO
100
AcDbCircle
 10
15519.86069778339
 20
818.7656950548664
 30
0.0
 40
62.94777829583771
100
AcDbArc
 50
295.3405244216011
 51
359.1890230341867
  0
LINE
  5
1E00B
330
1DB32
100
AcDbEntity
  8
YODOROGO
100
AcDbLine
 10
15308.80217064596
 20
929.874748214644
 30
0.0
 11
15248.80217064596
 21
969.8747482146441
 31
0.0
  0
LINE
  5
1E00C
330
1DB32
100
AcDbEntity
  8
YODOROGO
100
AcDbLine
 10
15248.80217064596
 20
1013.874748214644
 30
0.0
 11
15308.80217064596
 21
973.8747482146434
 31
0.0
  0
LINE
  5
1E00D
330
1DB32
100
AcDbEntity
  8
YODOROGO
100
AcDbLine
 10
15264.80217064596
 20
839.8747482146442
 30
0.0
 11
15308.80217064596
 21
839.8747482146442
 31
0.0
  0
LINE
  5
1E00E
330
1DB32
100
AcDbEntity
  8
YODOROGO
100
AcDbLine
 10
15308.80217064596
 20
867.8747482146436
 30
0.0
 11
15264.80217064596
 21
867.8747482146436
 31
0.0
  0
LINE
  5
1E00F
330
1DB32
100
AcDbEntity
  8
YODOROGO
100
AcDbLine
 10
15190.80217064596
 20
897.8747482146435
 30
0.0
 11
15308.80217064596
 21
897.8747482146435
 31
0.0
  0
LINE
  5
1E010
330
1DB32
100
AcDbEntity
  8
YODOROGO
100
AcDbLine
 10
15040.80217064596
 20
1013.874748214644
 30
0.0
 11
15010.80217064596
 21
1013.874748214644
 31
0.0
  0
LINE
  5
1E011
330
1DB32
100
AcDbEntity
  8
YODOROGO
100
AcDbLine
 10
15040.80217064596
 20
913.8747482146435
 30
0.0
 11
15040.80217064596
 21
1013.874748214644
 31
0.0
  0
LINE
  5
1E012
330
1DB32
100
AcDbEntity
  8
YODOROGO
100
AcDbLine
 10
15010.80217064596
 20
913.8747482146435
 30
0.0
 11
15040.80217064596
 21
913.8747482146435
 31
0.0
  0
LINE
  5
1E013
330
1DB32
100
AcDbEntity
  8
YODOROGO
100
AcDbLine
 10
15010.80217064596
 20
1013.874748214644
 30
0.0
 11
15010.80217064596
 21
913.8747482146435
 31
0.0
  0
LINE
  5
1E014
330
1DB32
100
AcDbEntity
  8
YODOROGO
100
AcDbLine
 10
15080.80217064596
 20
1013.874748214644
 30
0.0
 11
15108.80217064596
 21
1013.874748214644
 31
0.0
  0
LINE
  5
1E015
330
1DB32
100
AcDbEntity
  8
YODOROGO
100
AcDbLine
 10
15080.80217064596
 20
905.8747482146443
 30
0.0
 11
15080.80217064596
 21
1013.874748214644
 31
0.0
  0
ARC
  5
1E016
330
1DB32
100
AcDbEntity
  8
YODOROGO
100
AcDbCircle
 10
15060.80217064596
 20
905.8747482146443
 30
0.0
 40
20.0
100
AcDbArc
 50
270.0
 51
0.0
  0
LINE
  5
1E017
330
1DB32
100
AcDbEntity
  8
YODOROGO
100
AcDbLine
 10
15010.80217064596
 20
885.8747482146441
 30
0.0
 11
15060.80217064596
 21
885.8747482146441
 31
0.0
  0
LINE
  5
1E018
330
1DB32
100
AcDbEntity
  8
YODOROGO
100
AcDbLine
 10
15010.80217064596
 20
853.874748214644
 30
0.0
 11
15010.80217064596
 21
885.8747482146441
 31
0.0
  0
LINE
  5
1E019
330
1DB32
100
AcDbEntity
  8
YODOROGO
100
AcDbLine
 10
15068.80217064596
 20
853.874748214644
 30
0.0
 11
15010.80217064596
 21
853.874748214644
 31
0.0
  0
ARC
  5
1E01A
330
1DB32
100
AcDbEntity
  8
YODOROGO
100
AcDbCircle
 10
15068.80217064596
 20
893.8747482146439
 30
0.0
 40
40.0
100
AcDbArc
 50
270.0
 51
0.0
  0
LINE
  5
1E01B
330
1DB32
100
AcDbEntity
  8
YODOROGO
100
AcDbLine
 10
15108.80217064596
 20
1013.874748214644
 30
0.0
 11
15108.80217064596
 21
893.8747482146439
 31
0.0
  0
LINE
  5
1E01C
330
1DB32
100
AcDbEntity
  8
YODOROGO
100
AcDbLine
 10
14988.80217064596
 20
973.8747482146434
 30
0.0
 11
14988.80217064596
 21
997.8747482146435
 31
0.0
1001
AUTOCAD_POSTSCRIPT_FIGURE
1002
{
1000
PSFILL
1000
Grayscale
1000
Grayscale
1070
    25
1002
}
  0
LINE
  5
1E01D
330
1DB32
100
AcDbEntity
  8
YODOROGO
100
AcDbLine
 10
14988.80217064596
 20
929.874748214644
 30
0.0
 11
14988.80217064596
 21
953.874748214644
 31
0.0
1001
AUTOCAD_POSTSCRIPT_FIGURE
1002
{
1000
PSFILL
1000
Grayscale
1000
Grayscale
1070
    25
1002
}
  0
LINE
  5
1E01E
330
1DB32
100
AcDbEntity
  8
YODOROGO
100
AcDbLine
 10
14988.80217064596
 20
853.874748214644
 30
0.0
 11
14988.80217064596
 21
909.8747482146439
 31
0.0
1001
AUTOCAD_POSTSCRIPT_FIGURE
1002
{
1000
PSFILL
1000
Grayscale
1000
Grayscale
1070
    25
1002
}
  0
LINE
  5
1E01F
330
1DB32
100
AcDbEntity
  8
YODOROGO
100
AcDbLine
 10
15190.80217064596
 20
953.874748214644
 30
0.0
 11
15248.80217064596
 21
1013.874748214644
 31
0.0
  0
LINE
  5
1E020
330
1DB32
100
AcDbEntity
  8
YODOROGO
100
AcDbLine
 10
15190.80217064596
 20
909.8747482146439
 30
0.0
 11
15190.80217064596
 21
953.874748214644
 31
0.0
  0
LINE
  5
1E021
330
1DB32
100
AcDbEntity
  8
YODOROGO
100
AcDbLine
 10
15248.80217064596
 20
969.8747482146441
 30
0.0
 11
15190.80217064596
 21
909.8747482146439
 31
0.0
  0
LINE
  5
1E022
330
1DB32
100
AcDbEntity
  8
YODOROGO
100
AcDbLine
 10
15232.80217064596
 20
839.8747482146442
 30
0.0
 11
15232.80217064596
 21
867.8747482146436
 31
0.0
  0
LINE
  5
1E023
330
1DB32
100
AcDbEntity
  8
YODOROGO
100
AcDbLine
 10
15190.80217064596
 20
839.8747482146442
 30
0.0
 11
15232.80217064596
 21
839.8747482146442
 31
0.0
  0
LINE
  5
1E024
330
1DB32
100
AcDbEntity
  8
YODOROGO
100
AcDbLine
 10
15264.80217064596
 20
867.8747482146436
 30
0.0
 11
15264.80217064596
 21
839.8747482146442
 31
0.0
  0
LINE
  5
1E025
330
1DB32
100
AcDbEntity
  8
YODOROGO
100
AcDbLine
 10
15190.80217064596
 20
867.8747482146436
 30
0.0
 11
15190.80217064596
 21
897.8747482146435
 31
0.0
  0
LINE
  5
1E026
330
1DB32
100
AcDbEntity
  8
YODOROGO
100
AcDbLine
 10
15232.80217064596
 20
867.8747482146436
 30
0.0
 11
15190.80217064596
 21
867.8747482146436
 31
0.0
  0
LINE
  5
1E027
330
1DB32
100
AcDbEntity
  8
YODOROGO
100
AcDbLine
 10
15322.80217064596
 20
1013.874748214644
 30
0.0
 11
15486.80217064596
 21
1013.874748214644
 31
0.0
  0
LINE
  5
1E028
330
1DB32
100
AcDbEntity
  8
YODOROGO
100
AcDbLine
 10
15462.80217064596
 20
981.8747482146434
 30
0.0
 11
15348.80217064596
 21
981.8747482146434
 31
0.0
  0
LINE
  5
1E029
330
1DB32
100
AcDbEntity
  8
YODOROGO
100
AcDbLine
 10
15436.80217064595
 20
909.8747482146439
 30
0.0
 11
15449.80217064596
 21
909.8747482146439
 31
0.0
  0
LINE
  5
1E02A
330
1DB32
100
AcDbEntity
  8
YODOROGO
100
AcDbLine
 10
15449.80217064596
 20
969.8747482146441
 30
0.0
 11
15436.80217064595
 21
909.8747482146439
 31
0.0
  0
LINE
  5
1E02B
330
1DB32
100
AcDbEntity
  8
YODOROGO
100
AcDbLine
 10
15425.80217064596
 20
969.8747482146441
 30
0.0
 11
15449.80217064596
 21
969.8747482146441
 31
0.0
  0
LINE
  5
1E02C
330
1DB32
100
AcDbEntity
  8
YODOROGO
100
AcDbLine
 10
15412.80217064596
 20
909.8747482146439
 30
0.0
 11
15425.80217064596
 21
969.8747482146441
 31
0.0
  0
LINE
  5
1E02D
330
1DB32
100
AcDbEntity
  8
YODOROGO
100
AcDbLine
 10
15398.80217064596
 20
909.8747482146439
 30
0.0
 11
15412.80217064596
 21
909.8747482146439
 31
0.0
  0
LINE
  5
1E02E
330
1DB32
100
AcDbEntity
  8
YODOROGO
100
AcDbLine
 10
15385.80217064596
 20
969.8747482146441
 30
0.0
 11
15398.80217064596
 21
909.8747482146439
 31
0.0
  0
LINE
  5
1E02F
330
1DB32
100
AcDbEntity
  8
YODOROGO
100
AcDbLine
 10
15361.80217064596
 20
969.8747482146441
 30
0.0
 11
15385.80217064596
 21
969.8747482146441
 31
0.0
  0
LINE
  5
1E030
330
1DB32
100
AcDbEntity
  8
YODOROGO
100
AcDbLine
 10
15374.80217064596
 20
909.8747482146439
 30
0.0
 11
15361.80217064596
 21
969.8747482146441
 31
0.0
  0
LINE
  5
1E031
330
1DB32
100
AcDbEntity
  8
YODOROGO
100
AcDbLine
 10
15361.80217064596
 20
909.8747482146439
 30
0.0
 11
15374.80217064596
 21
909.8747482146439
 31
0.0
  0
LINE
  5
1E032
330
1DB32
100
AcDbEntity
  8
YODOROGO
100
AcDbLine
 10
15361.80217064596
 20
877.8747482146435
 30
0.0
 11
15361.80217064596
 21
909.8747482146439
 31
0.0
  0
LINE
  5
1E033
330
1DB32
100
AcDbEntity
  8
YODOROGO
100
AcDbLine
 10
15449.80217064596
 20
877.8747482146435
 30
0.0
 11
15361.80217064596
 21
877.8747482146435
 31
0.0
  0
LINE
  5
1E034
330
1DB32
100
AcDbEntity
  8
YODOROGO
100
AcDbLine
 10
15449.80217064596
 20
909.8747482146439
 30
0.0
 11
15449.80217064596
 21
877.8747482146435
 31
0.0
  0
LINE
  5
1E035
330
1DB32
100
AcDbEntity
  8
YODOROGO
100
AcDbLine
 10
15308.80217064596
 20
973.8747482146434
 30
0.0
 11
15308.80217064596
 21
929.874748214644
 31
0.0
  0
LINE
  5
1E036
330
1DB32
100
AcDbEntity
  8
YODOROGO
100
AcDbLine
 10
15395.80217064596
 20
877.8747482146435
 30
0.0
 11
15415.80217064596
 21
877.8747482146435
 31
0.0
  0
LINE
  5
1E037
330
1DB32
100
AcDbEntity
  8
YODOROGO
100
AcDbLine
 10
15361.80217064596
 20
845.8747482146444
 30
0.0
 11
15381.80217064596
 21
845.8747482146444
 31
0.0
  0
LINE
  5
1E038
330
1DB32
100
AcDbEntity
  8
YODOROGO
100
AcDbLine
 10
15429.80217064596
 20
845.8747482146444
 30
0.0
 11
15449.80217064596
 21
845.8747482146444
 31
0.0
  0
LINE
  5
1E039
330
1DB32
100
AcDbEntity
  8
YODOROGO
100
AcDbLine
 10
15308.80217064596
 20
897.8747482146435
 30
0.0
 11
15308.80217064596
 21
867.8747482146436
 31
0.0
  0
LINE
  5
1E03A
330
1DB32
100
AcDbEntity
  8
YODOROGO
100
AcDbLine
 10
15582.80217064596
 20
1013.874748214644
 30
0.0
 11
15582.80217064596
 21
981.8747482146434
 31
0.0
  0
LINE
  5
1E03B
330
1DB32
100
AcDbEntity
  8
YODOROGO
100
AcDbLine
 10
15766.80217064596
 20
797.8747482146435
 30
0.0
 11
15766.80217064594
 21
905.8747482146443
 31
0.0
  0
LINE
  5
1E03C
330
1DB32
100
AcDbEntity
  8
YODOROGO
100
AcDbLine
 10
15730.80217064594
 20
993.8747482146439
 30
0.0
 11
15730.80217064594
 21
817.8747482146436
 31
0.0
  0
LINE
  5
1E03D
330
1DB32
100
AcDbEntity
  8
YODOROGO
100
AcDbLine
 10
15826.80217064596
 20
713.8747482146436
 30
0.0
 11
15826.80217064594
 21
905.8747482146443
 31
0.0
  0
LINE
  5
1E03E
330
1DB32
100
AcDbEntity
  8
YODOROGO
100
AcDbLine
 10
15794.80217064596
 20
905.8747482146443
 30
0.0
 11
15794.80217064596
 21
713.8747482146436
 31
0.0
  0
LINE
  5
1E03F
330
1DB32
100
AcDbEntity
  8
YODOROGO
100
AcDbLine
 10
15618.80217064596
 20
797.8747482146435
 30
0.0
 11
15618.80217064596
 21
853.874748214644
 31
0.0
  0
ARC
  5
1E040
330
1DB32
100
AcDbEntity
  8
YODOROGO
100
AcDbCircle
 10
15676.95743255803
 20
803.8951756442788
 30
0.0
 40
90.04622428799429
100
AcDbArc
 50
268.6284910216979
 51
356.1663845733032
  0
LINE
  5
1E041
330
1DB32
100
AcDbEntity
  8
YODOROGO
100
AcDbLine
 10
15674.80217064596
 20
763.8747482146435
 30
0.0
 11
15674.80217064596
 21
713.8747482146436
 31
0.0
  0
ARC
  5
1E042
330
1DB32
100
AcDbEntity
  8
YODOROGO
100
AcDbCircle
 10
15675.75903786228
 20
818.9194785088275
 30
0.0
 40
55.05304649180608
100
AcDbArc
 50
269.0041020930593
 51
358.9126445549248
  0
LINE
  5
1E043
330
1DB32
100
AcDbEntity
  8
YODOROGO
100
AcDbLine
 10
15794.80217064596
 20
713.8747482146436
 30
0.0
 11
15826.80217064596
 21
713.8747482146436
 31
0.0
  0
LINE
  5
1E044
330
1DB32
100
AcDbEntity
  8
YODOROGO
100
AcDbLine
 10
15766.80217064594
 20
905.8747482146443
 30
0.0
 11
15794.80217064596
 21
905.8747482146443
 31
0.0
  0
LINE
  5
1E045
330
1DB32
100
AcDbEntity
  8
YODOROGO
100
AcDbLine
 10
15810.80217064596
 20
993.8747482146439
 30
0.0
 11
15730.80217064594
 21
993.8747482146439
 31
0.0
  0
LINE
  5
1E046
330
1DB32
100
AcDbEntity
  8
YODOROGO
100
AcDbLine
 10
15766.80217064594
 20
957.8747482146436
 30
0.0
 11
15830.80217064596
 21
957.8747482146436
 31
0.0
  0
LINE
  5
1E047
330
1DB32
100
AcDbEntity
  8
YODOROGO
100
AcDbLine
 10
15850.80217064596
 20
937.8747482146435
 30
0.0
 11
15766.80217064594
 21
937.8747482146435
 31
0.0
  0
LINE
  5
1E048
330
1DB32
100
AcDbEntity
  8
YODOROGO
100
AcDbLine
 10
15618.80217064596
 20
889.8747482146442
 30
0.0
 11
15674.80217064596
 21
889.8747482146442
 31
0.0
  0
LINE
  5
1E049
330
1DB32
100
AcDbEntity
  8
YODOROGO
100
AcDbLine
 10
15618.80217064596
 20
917.8747482146436
 30
0.0
 11
15618.80217064596
 21
889.8747482146442
 31
0.0
  0
LINE
  5
1E04A
330
1DB32
100
AcDbEntity
  8
YODOROGO
100
AcDbLine
 10
15674.80217064596
 20
917.8747482146436
 30
0.0
 11
15618.80217064596
 21
917.8747482146436
 31
0.0
  0
LINE
  5
1E04B
330
1DB32
100
AcDbEntity
  8
YODOROGO
100
AcDbLine
 10
15674.80217064596
 20
889.8747482146442
 30
0.0
 11
15674.80217064596
 21
917.8747482146436
 31
0.0
  0
LINE
  5
1E04C
330
1DB32
100
AcDbEntity
  8
YODOROGO
100
AcDbLine
 10
15766.80217064594
 20
937.8747482146435
 30
0.0
 11
15766.80217064594
 21
957.8747482146436
 31
0.0
  0
LINE
  5
1E04D
330
1DB32
100
AcDbEntity
  8
YODOROGO
100
AcDbLine
 10
15706.80217064596
 20
853.874748214644
 30
0.0
 11
15706.80217064596
 21
953.874748214644
 31
0.0
  0
LINE
  5
1E04E
330
1DB32
100
AcDbEntity
  8
YODOROGO
100
AcDbLine
 10
15618.80217064596
 20
853.874748214644
 30
0.0
 11
15706.80217064596
 21
853.874748214644
 31
0.0
  0
LINE
  5
1E04F
330
1DB32
100
AcDbEntity
  8
YODOROGO
100
AcDbLine
 10
15706.80217064596
 20
981.8747482146434
 30
0.0
 11
15706.80217064596
 21
1013.874748214644
 31
0.0
  0
ARC
  5
1E050
330
1DB32
100
AcDbEntity
  8
YODOROGO
100
AcDbCircle
 10
15810.80217064596
 20
1001.874748214642
 30
0.0
 40
7.99999999999727
100
AcDbArc
 50
270.0
 51
0.0000000000081422
  0
LINE
  5
1E051
330
1DB32
100
AcDbEntity
  8
YODOROGO
100
AcDbLine
 10
15818.80217064596
 20
1013.874748214644
 30
0.0
 11
15818.80217064596
 21
1001.874748214643
 31
0.0
  0
LINE
  5
1E052
330
1DB32
100
AcDbEntity
  8
YODOROGO
100
AcDbLine
 10
15850.80217064596
 20
1013.874748214644
 30
0.0
 11
15818.80217064596
 21
1013.874748214644
 31
0.0
  0
LINE
  5
1E053
330
1DB32
100
AcDbEntity
  8
YODOROGO
100
AcDbLine
 10
15850.80217064596
 20
977.8747482146435
 30
0.0
 11
15850.80217064596
 21
1013.874748214644
 31
0.0
  0
ARC
  5
1E054
330
1DB32
100
AcDbEntity
  8
YODOROGO
100
AcDbCircle
 10
15830.80217064596
 20
977.8747482146435
 30
0.0
 40
20.0
100
AcDbArc
 50
270.0
 51
0.0
  0
LINE
  5
1E055
330
1DB32
100
AcDbEntity
  8
YODOROGO
100
AcDbLine
 10
15850.80217064596
 20
905.8747482146443
 30
0.0
 11
15850.80217064596
 21
937.8747482146435
 31
0.0
  0
LINE
  5
1E056
330
1DB32
100
AcDbEntity
  8
YODOROGO
100
AcDbLine
 10
15826.80217064594
 20
905.8747482146443
 30
0.0
 11
15850.80217064596
 21
905.8747482146443
 31
0.0
  0
LINE
  5
1E057
330
1DB32
100
AcDbEntity
  8
SUNPOU
100
AcDbLine
 10
5706.393103266908
 20
7637.248005016646
 30
0.0
 11
5706.393103266908
 21
6587.248005016644
 31
0.0
  0
LINE
  5
1E058
330
1DB32
100
AcDbEntity
  8
SUNPOU
100
AcDbLine
 10
10684.3931032669
 20
7637.248005016646
 30
0.0
 11
10684.3931032669
 21
6587.248005016644
 31
0.0
  0
LINE
  5
1E059
330
1DB32
100
AcDbEntity
  8
SUNPOU
100
AcDbLine
 10
5726.393103266907
 20
6647.248005016646
 30
0.0
 11
10664.3931032669
 21
6647.248005016646
 31
0.0
  0
LINE
  5
1E05A
330
1DB32
100
AcDbEntity
  8
SUNPOU
100
AcDbLine
 10
10724.3931032669
 20
7677.248005016648
 30
0.0
 11
11924.39310326689
 21
7677.248005016648
 31
0.0
  0
LINE
  5
1E05B
330
1DB32
100
AcDbEntity
  8
SUNPOU
100
AcDbLine
 10
10724.3931032669
 20
10317.24800501665
 30
0.0
 11
11924.39310326689
 21
10317.24800501665
 31
0.0
  0
LINE
  5
1E05C
330
1DB32
100
AcDbEntity
  8
SUNPOU
100
AcDbLine
 10
11864.39310326689
 20
7697.248005016646
 30
0.0
 11
11864.39310326689
 21
10297.24800501665
 31
0.0
  0
LINE
  5
1E05D
330
1DB32
100
AcDbEntity
  8
SUNPOU
100
AcDbLine
 10
11385.39310326689
 20
10077.24800501665
 30
0.0
 11
11644.39310326689
 21
10077.24800501665
 31
0.0
  0
LINE
  5
1E05E
330
1DB32
100
AcDbEntity
  8
SUNPOU
100
AcDbLine
 10
10724.3931032669
 20
10317.24800501665
 30
0.0
 11
11644.39310326689
 21
10317.24800501665
 31
0.0
  0
LINE
  5
1E05F
330
1DB32
100
AcDbEntity
  8
SUNPOU
100
AcDbLine
 10
11584.39310326689
 20
10097.24800501665
 30
0.0
 11
11584.39310326689
 21
10297.24800501665
 31
0.0
  0
LINE
  5
1E060
330
1DB32
100
AcDbEntity
  8
SUNPOU
100
AcDbLine
 10
11584.39310326689
 20
10317.24800501665
 30
0.0
 11
11584.39310326689
 21
10662.96229073092
 31
0.0
  0
LINE
  5
1E061
330
1DB32
100
AcDbEntity
  8
SUNPOU
100
AcDbLine
 10
11385.39310326689
 20
8077.248005016647
 30
0.0
 11
11644.39310326689
 21
8077.248005016647
 31
0.0
  0
LINE
  5
1E062
330
1DB32
100
AcDbEntity
  8
SUNPOU
100
AcDbLine
 10
11385.39310326689
 20
10077.24800501665
 30
0.0
 11
11644.39310326689
 21
10077.24800501665
 31
0.0
  0
LINE
  5
1E063
330
1DB32
100
AcDbEntity
  8
SUNPOU
100
AcDbLine
 10
11584.39310326689
 20
8097.248005016648
 30
0.0
 11
11584.39310326689
 21
10057.24800501665
 31
0.0
  0
LINE
  5
1E064
330
1DB32
100
AcDbEntity
  8
SUNPOU
100
AcDbLine
 10
10724.3931032669
 20
7677.248005016648
 30
0.0
 11
11644.39310326689
 21
7677.248005016648
 31
0.0
  0
LINE
  5
1E065
330
1DB32
100
AcDbEntity
  8
SUNPOU
100
AcDbLine
 10
11385.39310326689
 20
8077.248005016647
 30
0.0
 11
11644.39310326689
 21
8077.248005016647
 31
0.0
  0
LINE
  5
1E066
330
1DB32
100
AcDbEntity
  8
SUNPOU
100
AcDbLine
 10
11584.39310326689
 20
7697.248005016646
 30
0.0
 11
11584.39310326689
 21
8057.248005016647
 31
0.0
  0
LINE
  5
1E067
330
1DB32
100
AcDbEntity
  8
SUNPOU
100
AcDbLine
 10
8195.393103266907
 20
7677.248005016647
 30
0.0
 11
8115.593103266915
 21
7539.030350572645
 31
0.0
  0
LINE
  5
1E068
330
1DB32
100
AcDbEntity
  8
SUNPOU
100
AcDbLine
 10
8115.593103266915
 20
7539.030350572645
 30
0.0
 11
8275.193103266905
 21
7539.030350572645
 31
0.0
  0
LINE
  5
1E069
330
1DB32
100
AcDbEntity
  8
SUNPOU
100
AcDbLine
 10
8275.193103266905
 20
7539.030350572645
 30
0.0
 11
8195.393103266907
 21
7677.248005016647
 31
0.0
  0
LINE
  5
1E06A
330
1DB32
100
AcDbEntity
  8
SUNPOU
100
AcDbLine
 10
10821.41075771089
 20
9078.087235501184
 30
0.0
 11
10821.41075771089
 21
8918.48723550119
 31
0.0
  0
LINE
  5
1E06B
330
1DB32
100
AcDbEntity
  8
SUNPOU
100
AcDbLine
 10
10821.41075771089
 20
8918.48723550119
 30
0.0
 11
10683.1931032669
 21
8998.287235501193
 31
0.0
  0
LINE
  5
1E06C
330
1DB32
100
AcDbEntity
  8
SUNPOU
100
AcDbLine
 10
10683.1931032669
 20
8998.287235501193
 30
0.0
 11
10821.41075771089
 21
9078.087235501184
 31
0.0
  0
LINE
  5
1E06D
330
1DB32
100
AcDbEntity
  8
SUNPOU
100
AcDbLine
 10
8195.393103266907
 20
10667.24800501664
 30
0.0
 11
8195.393103266907
 21
10837.24800501664
 31
0.0
  0
LINE
  5
1E06E
330
1DB32
100
AcDbEntity
  8
SUNPOU
100
AcDbLine
 10
10595.39310326689
 20
10667.24800501664
 30
0.0
 11
10595.39310326689
 21
10837.24800501664
 31
0.0
  0
LINE
  5
1E06F
330
1DB32
100
AcDbEntity
  8
SUNPOU
100
AcDbLine
 10
8215.393103266906
 20
10777.24800501664
 30
0.0
 11
10575.39310326689
 21
10777.24800501664
 31
0.0
  0
LINE
  5
1E070
330
1DB32
100
AcDbEntity
  8
SUNPOU
100
AcDbLine
 10
5795.393103266905
 20
10667.24800501664
 30
0.0
 11
5795.393103266905
 21
10837.24800501664
 31
0.0
  0
LINE
  5
1E071
330
1DB32
100
AcDbEntity
  8
SUNPOU
100
AcDbLine
 10
8195.393103266907
 20
10667.24800501664
 30
0.0
 11
8195.393103266907
 21
10837.24800501664
 31
0.0
  0
LINE
  5
1E072
330
1DB32
100
AcDbEntity
  8
SUNPOU
100
AcDbLine
 10
5815.393103266907
 20
10777.24800501664
 30
0.0
 11
8175.393103266905
 21
10777.24800501664
 31
0.0
  0
LINE
  5
1E073
330
1DB32
100
AcDbEntity
  8
SUNPOU
100
AcDbLine
 10
5813.854641728871
 20
10069.55569732536
 30
0.0
 11
10576.93156480537
 21
8084.940312708964
 31
0.0
  0
LINE
  5
1E074
330
1DB32
100
AcDbEntity
  8
SUNPOU
100
AcDbLine
 10
10595.39310326689
 20
7287.248005016647
 30
0.0
 11
10595.39310326689
 21
6867.248005016645
 31
0.0
  0
LINE
  5
1E075
330
1DB32
100
AcDbEntity
  8
SUNPOU
100
AcDbLine
 10
10684.3931032669
 20
7637.248005016646
 30
0.0
 11
10684.3931032669
 21
6867.248005016645
 31
0.0
  0
LINE
  5
1E076
330
1DB32
100
AcDbEntity
  8
SUNPOU
100
AcDbLine
 10
10575.39310326689
 20
6927.248005016647
 30
0.0
 11
10555.39310326689
 21
6927.248005016647
 31
0.0
  0
LINE
  5
1E077
330
1DB32
100
AcDbEntity
  8
SUNPOU
100
AcDbLine
 10
10704.3931032669
 20
6927.248005016647
 30
0.0
 11
10970.10738898119
 21
6927.248005016647
 31
0.0
  0
LINE
  5
1E078
330
1DB32
100
AcDbEntity
  8
SUNPOU
100
AcDbLine
 10
10595.39310326689
 20
6927.248005016647
 30
0.0
 11
10684.3931032669
 21
6927.248005016647
 31
0.0
  0
LINE
  5
1E079
330
1DB32
100
AcDbEntity
  8
SUNPOU
100
AcDbLine
 10
5795.393103266905
 20
7287.248005016647
 30
0.0
 11
5795.393103266905
 21
6867.248005016645
 31
0.0
  0
LINE
  5
1E07A
330
1DB32
100
AcDbEntity
  8
SUNPOU
100
AcDbLine
 10
10595.39310326689
 20
7287.248005016646
 30
0.0
 11
10595.39310326689
 21
6867.248005016645
 31
0.0
  0
LINE
  5
1E07B
330
1DB32
100
AcDbEntity
  8
SUNPOU
100
AcDbLine
 10
5815.393103266907
 20
6927.248005016647
 30
0.0
 11
10575.39310326689
 21
6927.248005016647
 31
0.0
  0
LINE
  5
1E07C
330
1DB32
100
AcDbEntity
  8
SUNPOU
100
AcDbLine
 10
5795.393103266905
 20
7287.248005016647
 30
0.0
 11
5795.393103266905
 21
6867.248005016645
 31
0.0
  0
LINE
  5
1E07D
330
1DB32
100
AcDbEntity
  8
SUNPOU
100
AcDbLine
 10
5706.393103266908
 20
7637.248005016646
 30
0.0
 11
5706.393103266908
 21
6867.248005016645
 31
0.0
  0
LINE
  5
1E07E
330
1DB32
100
AcDbEntity
  8
SUNPOU
100
AcDbLine
 10
5815.393103266907
 20
6927.248005016647
 30
0.0
 11
5835.393103266907
 21
6927.248005016647
 31
0.0
  0
LINE
  5
1E07F
330
1DB32
100
AcDbEntity
  8
SUNPOU
100
AcDbLine
 10
5686.393103266907
 20
6927.248005016647
 30
0.0
 11
5420.678817552622
 21
6927.248005016647
 31
0.0
  0
LINE
  5
1E080
330
1DB32
100
AcDbEntity
  8
SUNPOU
100
AcDbLine
 10
5795.393103266905
 20
6927.248005016647
 30
0.0
 11
5706.393103266908
 21
6927.248005016647
 31
0.0
  0
LINE
  5
1E081
330
1DB32
100
AcDbEntity
  8
SUNPOU
100
AcDbLine
 10
14068.84203862247
 20
5661.242882976337
 30
0.0
 11
14068.84203862247
 21
5842.911796040156
 31
0.0
  0
LINE
  5
1E082
330
1DB32
100
AcDbEntity
  8
SUNPOU
100
AcDbLine
 10
14318.84203862246
 20
5323.46700206148
 30
0.0
 11
14318.84203862246
 21
5842.911796040156
 31
0.0
  0
LINE
  5
1E083
330
1DB32
100
AcDbEntity
  8
SUNPOU
100
AcDbLine
 10
14088.84203862246
 20
5782.911796040156
 30
0.0
 11
14298.84203862246
 21
5782.911796040156
 31
0.0
  0
LINE
  5
1E084
330
1DB32
100
AcDbEntity
  8
SUNPOU
100
AcDbLine
 10
14318.84203862246
 20
5782.911796040156
 30
0.0
 11
14698.84203862246
 21
5782.911796040156
 31
0.0
  0
LINE
  5
1E085
330
1DB32
100
AcDbEntity
  8
SUNPOU
100
AcDbLine
 10
14068.84203862247
 20
5661.242882976337
 30
0.0
 11
14068.84203862247
 21
5842.911796040156
 31
0.0
  0
LINE
  5
1E086
330
1DB32
100
AcDbEntity
  8
SUNPOU
100
AcDbLine
 10
13818.84203862247
 20
5323.46700206148
 30
0.0
 11
13818.84203862247
 21
5842.911796040156
 31
0.0
  0
LINE
  5
1E087
330
1DB32
100
AcDbEntity
  8
SUNPOU
100
AcDbLine
 10
14048.84203862247
 20
5782.911796040156
 30
0.0
 11
13838.84203862247
 21
5782.911796040156
 31
0.0
  0
LINE
  5
1E088
330
1DB32
100
AcDbEntity
  8
SUNPOU
100
AcDbLine
 10
13818.84203862247
 20
5782.911796040156
 30
0.0
 11
13438.84203862247
 21
5782.911796040156
 31
0.0
  0
LINE
  5
1E089
330
1DB32
100
AcDbEntity
  8
SUNPOU
100
AcDbLine
 10
13568.84203862247
 20
5203.46700206148
 30
0.0
 11
13366.45858960529
 21
5203.46700206148
 31
0.0
  0
LINE
  5
1E08A
330
1DB32
100
AcDbEntity
  8
SUNPOU
100
AcDbLine
 10
13668.84203862247
 20
5383.46700206148
 30
0.0
 11
13366.45858960529
 21
5383.46700206148
 31
0.0
  0
LINE
  5
1E08B
330
1DB32
100
AcDbEntity
  8
SUNPOU
100
AcDbLine
 10
13426.45858960529
 20
5223.467002061481
 30
0.0
 11
13426.45858960529
 21
5363.46700206148
 31
0.0
  0
LINE
  5
1E08C
330
1DB32
100
AcDbEntity
  8
SUNPOU
100
AcDbLine
 10
13426.45858960529
 20
5383.46700206148
 30
0.0
 11
13426.45858960529
 21
5652.99081158529
 31
0.0
  0
LINE
  5
1E08D
330
1DB32
100
AcDbEntity
  8
SUNPOU
100
AcDbLine
 10
13568.84203862247
 20
5203.46700206148
 30
0.0
 11
13366.45858960529
 21
5203.46700206148
 31
0.0
  0
LINE
  5
1E08E
330
1DB32
100
AcDbEntity
  8
SUNPOU
100
AcDbLine
 10
13668.84203862247
 20
5023.46700206148
 30
0.0
 11
13366.45858960529
 21
5023.46700206148
 31
0.0
  0
LINE
  5
1E08F
330
1DB32
100
AcDbEntity
  8
SUNPOU
100
AcDbLine
 10
13426.45858960529
 20
5183.46700206148
 30
0.0
 11
13426.45858960529
 21
5043.46700206148
 31
0.0
  0
LINE
  5
1E090
330
1DB32
100
AcDbEntity
  8
SUNPOU
100
AcDbLine
 10
13426.45858960529
 20
5023.46700206148
 30
0.0
 11
13426.45858960529
 21
4753.94319253767
 31
0.0
  0
LINE
  5
1E091
330
1DB32
100
AcDbEntity
  8
SUNPOU
100
AcDbLine
 10
14428.84203862246
 20
4983.46700206148
 30
0.0
 11
14428.84203862246
 21
4645.617320595433
 31
0.0
  0
LINE
  5
1E092
330
1DB32
100
AcDbEntity
  8
SUNPOU
100
AcDbLine
 10
13708.84203862247
 20
4983.46700206148
 30
0.0
 11
13708.84203862247
 21
4645.617320595433
 31
0.0
  0
LINE
  5
1E093
330
1DB32
100
AcDbEntity
  8
SUNPOU
100
AcDbLine
 10
14408.84203862246
 20
4705.617320595433
 30
0.0
 11
13728.84203862247
 21
4705.617320595433
 31
0.0
  0
LINE
  5
1E094
330
1DB32
100
AcDbEntity
  8
SUNPOU
100
AcDbLine
 10
14468.84203862246
 20
5383.46700206148
 30
0.0
 11
14892.76599491387
 21
5383.46700206148
 31
0.0
  0
LINE
  5
1E095
330
1DB32
100
AcDbEntity
  8
SUNPOU
100
AcDbLine
 10
14468.84203862246
 20
5023.46700206148
 30
0.0
 11
14892.76599491387
 21
5023.46700206148
 31
0.0
  0
LINE
  5
1E096
330
1DB32
100
AcDbEntity
  8
SUNPOU
100
AcDbLine
 10
14832.76599491387
 20
5363.46700206148
 30
0.0
 11
14832.76599491387
 21
5043.46700206148
 31
0.0
  0
LINE
  5
1E097
330
1DB32
100
AcDbEntity
  8
SUNPOU
100
AcDbLine
 10
13508.84203862247
 20
3629.739597635554
 30
0.0
 11
13508.84203862247
 21
2779.739597635554
 31
0.0
  0
LINE
  5
1E098
330
1DB32
100
AcDbEntity
  8
SUNPOU
100
AcDbLine
 10
14628.84203862246
 20
3629.739597635554
 30
0.0
 11
14628.84203862246
 21
2779.739597635554
 31
0.0
  0
LINE
  5
1E099
330
1DB32
100
AcDbEntity
  8
SUNPOU
100
AcDbLine
 10
13528.84203862247
 20
2839.739597635555
 30
0.0
 11
14608.84203862246
 21
2839.739597635555
 31
0.0
  0
LINE
  5
1E09A
330
1DB32
100
AcDbEntity
  8
SUNPOU
100
AcDbLine
 10
13408.8420386213
 20
3029.739597635554
 30
0.0
 11
13408.8420386213
 21
2549.739597635555
 31
0.0
  0
LINE
  5
1E09B
330
1DB32
100
AcDbEntity
  8
SUNPOU
100
AcDbLine
 10
14728.84203862246
 20
3029.739597635554
 30
0.0
 11
14728.84203862246
 21
2549.739597635555
 31
0.0
  0
LINE
  5
1E09C
330
1DB32
100
AcDbEntity
  8
SUNPOU
100
AcDbLine
 10
13428.8420386213
 20
2609.739597635555
 30
0.0
 11
14708.84203862246
 21
2609.739597635555
 31
0.0
  0
LINE
  5
1E09D
330
1DB32
100
AcDbEntity
  8
SUNPOU
100
AcDbLine
 10
14768.84203862246
 20
3669.739597635554
 30
0.0
 11
15307.91679421776
 21
3669.739597635554
 31
0.0
  0
LINE
  5
1E09E
330
1DB32
100
AcDbEntity
  8
SUNPOU
100
AcDbLine
 10
14668.84203862246
 20
4419.739597635554
 30
0.0
 11
15307.91679421776
 21
4419.739597635554
 31
0.0
  0
LINE
  5
1E09F
330
1DB32
100
AcDbEntity
  8
SUNPOU
100
AcDbLine
 10
15247.91679421776
 20
3689.739597635554
 30
0.0
 11
15247.91679421776
 21
4399.739597635554
 31
0.0
  0
LINE
  5
1E0A0
330
1DB32
100
AcDbEntity
  8
SUNPOU
100
AcDbLine
 10
14768.84203862246
 20
3369.739597635554
 30
0.0
 11
15307.91679421776
 21
3369.739597635554
 31
0.0
  0
LINE
  5
1E0A1
330
1DB32
100
AcDbEntity
  8
SUNPOU
100
AcDbLine
 10
14768.84203862246
 20
3669.739597635554
 30
0.0
 11
15307.91679421776
 21
3669.739597635554
 31
0.0
  0
LINE
  5
1E0A2
330
1DB32
100
AcDbEntity
  8
SUNPOU
100
AcDbLine
 10
15247.91679421776
 20
3389.739597635554
 30
0.0
 11
15247.91679421776
 21
3649.739597635555
 31
0.0
  0
LINE
  5
1E0A3
330
1DB32
100
AcDbEntity
  8
SUNPOU
100
AcDbLine
 10
14768.84203862246
 20
3069.739597635555
 30
0.0
 11
15307.91679421776
 21
3069.739597635555
 31
0.0
  0
LINE
  5
1E0A4
330
1DB32
100
AcDbEntity
  8
SUNPOU
100
AcDbLine
 10
14768.84203862246
 20
3369.739597635554
 30
0.0
 11
15307.91679421776
 21
3369.739597635554
 31
0.0
  0
LINE
  5
1E0A5
330
1DB32
100
AcDbEntity
  8
SUNPOU
100
AcDbLine
 10
15247.91679421776
 20
3089.739597635555
 30
0.0
 11
15247.91679421776
 21
3349.739597635554
 31
0.0
  0
LINE
  5
1E0A6
330
1DB32
100
AcDbEntity
  8
SUNPOU
100
AcDbLine
 10
8189.771010768527
 20
2161.291251548639
 30
0.0
 11
8189.771010768527
 21
1581.291251548638
 31
0.0
  0
LINE
  5
1E0A7
330
1DB32
100
AcDbEntity
  8
SUNPOU
100
AcDbLine
 10
9789.771010768527
 20
2161.291251548639
 30
0.0
 11
9789.771010768527
 21
1581.291251548638
 31
0.0
  0
LINE
  5
1E0A8
330
1DB32
100
AcDbEntity
  8
SUNPOU
100
AcDbLine
 10
8209.771010768527
 20
1641.291251548637
 30
0.0
 11
9769.771010768527
 21
1641.291251548637
 31
0.0
  0
LINE
  5
1E0A9
330
1DB32
100
AcDbEntity
  8
SUNPOU
100
AcDbLine
 10
8089.771010768528
 20
1961.291251548638
 30
0.0
 11
8089.771010768528
 21
1301.291251548638
 31
0.0
  0
LINE
  5
1E0AA
330
1DB32
100
AcDbEntity
  8
SUNPOU
100
AcDbLine
 10
9889.771010768527
 20
1961.291251548638
 30
0.0
 11
9889.771010768527
 21
1301.291251548638
 31
0.0
  0
LINE
  5
1E0AB
330
1DB32
100
AcDbEntity
  8
SUNPOU
100
AcDbLine
 10
8109.771010768527
 20
1361.291251548638
 30
0.0
 11
9869.771010768527
 21
1361.291251548638
 31
0.0
  0
LINE
  5
1E0AC
330
1DB32
100
AcDbEntity
  8
SUNPOU
100
AcDbLine
 10
10179.77101076853
 20
3201.291251548639
 30
0.0
 11
10564.52250454545
 21
3201.291251548639
 31
0.0
  0
LINE
  5
1E0AD
330
1DB32
100
AcDbEntity
  8
SUNPOU
100
AcDbLine
 10
9114.771010768532
 20
4766.347603535439
 30
0.0
 11
10564.52250454545
 21
4766.347603535439
 31
0.0
  0
LINE
  5
1E0AE
330
1DB32
100
AcDbEntity
  8
SUNPOU
100
AcDbLine
 10
10504.52250454545
 20
3221.291251548639
 30
0.0
 11
10504.52250454545
 21
4746.347603535439
 31
0.0
  0
LINE
  5
1E0AF
330
1DB32
100
AcDbEntity
  8
SUNPOU
100
AcDbLine
 10
9114.771010768532
 20
4766.347603535439
 30
0.0
 11
10844.52250454545
 21
4766.347603535439
 31
0.0
  0
LINE
  5
1E0B0
330
1DB32
100
AcDbEntity
  8
SUNPOU
100
AcDbLine
 10
9929.771010768527
 20
2201.291251548639
 30
0.0
 11
10844.52250454545
 21
2201.291251548639
 31
0.0
  0
LINE
  5
1E0B1
330
1DB32
100
AcDbEntity
  8
SUNPOU
100
AcDbLine
 10
10784.52250454545
 20
4746.347603535439
 30
0.0
 11
10784.52250454545
 21
2221.291251548639
 31
0.0
  0
LINE
  5
1E0B2
330
1DB32
100
AcDbEntity
  8
SUNPOU
100
AcDbLine
 10
9929.771010768527
 20
2201.291251548639
 30
0.0
 11
10564.52250454545
 21
2201.291251548639
 31
0.0
  0
LINE
  5
1E0B3
330
1DB32
100
AcDbEntity
  8
SUNPOU
100
AcDbLine
 10
10179.77101076853
 20
3201.291251548639
 30
0.0
 11
10564.52250454545
 21
3201.291251548639
 31
0.0
  0
LINE
  5
1E0B4
330
1DB32
100
AcDbEntity
  8
SUNPOU
100
AcDbLine
 10
10504.52250454545
 20
2221.291251548639
 30
0.0
 11
10504.52250454545
 21
3181.291251548639
 31
0.0
  0
LINE
  5
1E0B5
330
1DB32
100
AcDbEntity
  8
SUNPOU
100
AcDbLine
 10
9929.771010768527
 20
2201.291251548639
 30
0.0
 11
10564.52250454545
 21
2201.291251548639
 31
0.0
  0
LINE
  5
1E0B6
330
1DB32
100
AcDbEntity
  8
SUNPOU
100
AcDbLine
 10
9929.771010768527
 20
2001.291251548638
 30
0.0
 11
10564.52250454545
 21
2001.291251548638
 31
0.0
  0
LINE
  5
1E0B7
330
1DB32
100
AcDbEntity
  8
SUNPOU
100
AcDbLine
 10
10504.52250454545
 20
2181.291251548639
 30
0.0
 11
10504.52250454545
 21
2021.291251548638
 31
0.0
  0
LINE
  5
1E0B8
330
1DB32
100
AcDbEntity
  8
SUNPOU
100
AcDbLine
 10
10504.52250454545
 20
2001.291251548638
 30
0.0
 11
10504.52250454545
 21
1667.005537262923
 31
0.0
  0
LINE
  5
1E0B9
330
1DB32
100
AcDbEntity
  8
SUNPOU
100
AcDbLine
 10
2618.007042992147
 20
2161.291251548639
 30
0.0
 11
2618.007042992147
 21
1581.291251548638
 31
0.0
  0
LINE
  5
1E0BA
330
1DB32
100
AcDbEntity
  8
SUNPOU
100
AcDbLine
 10
4718.007042992147
 20
2161.291251548639
 30
0.0
 11
4718.007042992147
 21
1581.291251548638
 31
0.0
  0
LINE
  5
1E0BB
330
1DB32
100
AcDbEntity
  8
SUNPOU
100
AcDbLine
 10
2638.007042992147
 20
1641.291251548637
 30
0.0
 11
4698.007042992147
 21
1641.291251548637
 31
0.0
  0
LINE
  5
1E0BC
330
1DB32
100
AcDbEntity
  8
SUNPOU
100
AcDbLine
 10
2518.007042992147
 20
1961.291251548638
 30
0.0
 11
2518.007042992147
 21
1301.291251548638
 31
0.0
  0
LINE
  5
1E0BD
330
1DB32
100
AcDbEntity
  8
SUNPOU
100
AcDbLine
 10
4818.007042992147
 20
1961.291251548638
 30
0.0
 11
4818.007042992147
 21
1301.291251548638
 31
0.0
  0
LINE
  5
1E0BE
330
1DB32
100
AcDbEntity
  8
SUNPOU
100
AcDbLine
 10
2538.007042992147
 20
1361.291251548638
 30
0.0
 11
4798.007042992145
 21
1361.291251548638
 31
0.0
  0
LINE
  5
1E0BF
330
1DB32
100
AcDbEntity
  8
SUNPOU
100
AcDbLine
 10
3793.007042992147
 20
4766.347603535439
 30
0.0
 11
5722.758536769063
 21
4766.347603535439
 31
0.0
  0
LINE
  5
1E0C0
330
1DB32
100
AcDbEntity
  8
SUNPOU
100
AcDbLine
 10
4858.007042992147
 20
2201.291251548639
 30
0.0
 11
5722.758536769063
 21
2201.291251548639
 31
0.0
  0
LINE
  5
1E0C1
330
1DB32
100
AcDbEntity
  8
SUNPOU
100
AcDbLine
 10
5662.758536769063
 20
4746.347603535439
 30
0.0
 11
5662.758536769063
 21
2221.291251548637
 31
0.0
  0
LINE
  5
1E0C2
330
1DB32
100
AcDbEntity
  8
SUNPOU
100
AcDbLine
 10
5058.007042992147
 20
3201.291251548639
 30
0.0
 11
5442.758536769062
 21
3201.291251548639
 31
0.0
  0
LINE
  5
1E0C3
330
1DB32
100
AcDbEntity
  8
SUNPOU
100
AcDbLine
 10
3793.007042992147
 20
4766.347603535439
 30
0.0
 11
5442.758536769062
 21
4766.347603535439
 31
0.0
  0
LINE
  5
1E0C4
330
1DB32
100
AcDbEntity
  8
SUNPOU
100
AcDbLine
 10
5382.758536769063
 20
3221.291251548638
 30
0.0
 11
5382.758536769063
 21
4746.347603535439
 31
0.0
  0
LINE
  5
1E0C5
330
1DB32
100
AcDbEntity
  8
SUNPOU
100
AcDbLine
 10
4858.007042992147
 20
2201.291251548639
 30
0.0
 11
5442.758536769062
 21
2201.291251548639
 31
0.0
  0
LINE
  5
1E0C6
330
1DB32
100
AcDbEntity
  8
SUNPOU
100
AcDbLine
 10
5058.007042992147
 20
3201.291251548639
 30
0.0
 11
5442.758536769062
 21
3201.291251548639
 31
0.0
  0
LINE
  5
1E0C7
330
1DB32
100
AcDbEntity
  8
SUNPOU
100
AcDbLine
 10
5382.758536769063
 20
2221.291251548637
 30
0.0
 11
5382.758536769063
 21
3181.291251548637
 31
0.0
  0
LINE
  5
1E0C8
330
1DB32
100
AcDbEntity
  8
SUNPOU
100
AcDbLine
 10
4858.007042992147
 20
2201.291251548639
 30
0.0
 11
5442.758536769064
 21
2201.291251548639
 31
0.0
  0
LINE
  5
1E0C9
330
1DB32
100
AcDbEntity
  8
SUNPOU
100
AcDbLine
 10
4858.007042992147
 20
2001.291251548638
 30
0.0
 11
5442.758536769062
 21
2001.291251548638
 31
0.0
  0
LINE
  5
1E0CA
330
1DB32
100
AcDbEntity
  8
SUNPOU
100
AcDbLine
 10
5382.758536769063
 20
2181.291251548637
 30
0.0
 11
5382.758536769063
 21
2021.291251548638
 31
0.0
  0
LINE
  5
1E0CB
330
1DB32
100
AcDbEntity
  8
SUNPOU
100
AcDbLine
 10
5382.758536769063
 20
2001.291251548638
 30
0.0
 11
5382.758536769063
 21
1667.005537262923
 31
0.0
  0
TEXT
  5
1E0CC
330
1DB32
100
AcDbEntity
  8
SUNPOU
100
AcDbText
 10
8043.012150885955
 20
6707.248005016644
 30
0.0
 40
120.0
  1
4978
 41
0.6666666666666666
  7
00
100
AcDbText
  0
LINE
  5
1E0CD
330
1DB32
100
AcDbEntity
  8
SUNPOU
100
AcDbLine
 10
10669.39310326689
 20
6647.248005016646
 30
0.0
 11
10654.39310326689
 21
6647.248005016646
 31
0.0
  0
LINE
  5
1E0CE
330
1DB32
100
AcDbEntity
  8
SUNPOU
100
AcDbLine
 10
5721.393103266907
 20
6647.248005016646
 30
0.0
 11
5736.393103266907
 21
6647.248005016646
 31
0.0
  0
TEXT
  5
1E0CF
330
1DB32
100
AcDbEntity
  8
SUNPOU
100
AcDbText
 10
11804.39310326689
 20
8844.867052635697
 30
0.0
 40
120.0
  1
2640
 50
90.0
 41
0.6666666666666666
  7
00
100
AcDbText
  0
LINE
  5
1E0D0
330
1DB32
100
AcDbEntity
  8
SUNPOU
100
AcDbLine
 10
11864.39310326689
 20
10302.24800501665
 30
0.0
 11
11864.39310326689
 21
10287.24800501665
 31
0.0
  0
LINE
  5
1E0D1
330
1DB32
100
AcDbEntity
  8
SUNPOU
100
AcDbLine
 10
11864.39310326689
 20
7692.248005016648
 30
0.0
 11
11864.39310326689
 21
7707.248005016646
 31
0.0
  0
TEXT
  5
1E0D2
330
1DB32
100
AcDbEntity
  8
SUNPOU
100
AcDbText
 10
11524.39310326689
 20
10385.81943358807
 30
0.0
 40
120.0
  1
240
 50
90.0
 41
0.6666666666666666
  7
00
100
AcDbText
  0
LINE
  5
1E0D3
330
1DB32
100
AcDbEntity
  8
SUNPOU
100
AcDbLine
 10
11584.39310326689
 20
10302.24800501665
 30
0.0
 11
11584.39310326689
 21
10287.24800501665
 31
0.0
  0
LINE
  5
1E0D4
330
1DB32
100
AcDbEntity
  8
SUNPOU
100
AcDbLine
 10
11584.39310326689
 20
10092.24800501665
 30
0.0
 11
11584.39310326689
 21
10107.24800501665
 31
0.0
  0
TEXT
  5
1E0D5
330
1DB32
100
AcDbEntity
  8
SUNPOU
100
AcDbText
 10
11524.39310326689
 20
8924.867052635699
 30
0.0
 40
120.0
  1
2000
 50
90.0
 41
0.6666666666666666
  7
00
100
AcDbText
  0
LINE
  5
1E0D6
330
1DB32
100
AcDbEntity
  8
SUNPOU
100
AcDbLine
 10
11584.39310326689
 20
10062.24800501665
 30
0.0
 11
11584.39310326689
 21
10047.24800501665
 31
0.0
  0
LINE
  5
1E0D7
330
1DB32
100
AcDbEntity
  8
SUNPOU
100
AcDbLine
 10
11584.39310326689
 20
8092.248005016646
 30
0.0
 11
11584.39310326689
 21
8107.248005016646
 31
0.0
  0
TEXT
  5
1E0D8
330
1DB32
100
AcDbEntity
  8
SUNPOU
100
AcDbText
 10
11524.39310326689
 20
7762.962290730934
 30
0.0
 40
120.0
  1
400
 50
90.0
 41
0.6666666666666666
  7
00
100
AcDbText
  0
LINE
  5
1E0D9
330
1DB32
100
AcDbEntity
  8
SUNPOU
100
AcDbLine
 10
11584.39310326689
 20
8062.248005016646
 30
0.0
 11
11584.39310326689
 21
8047.248005016646
 31
0.0
  0
LINE
  5
1E0DA
330
1DB32
100
AcDbEntity
  8
SUNPOU
100
AcDbLine
 10
11584.39310326689
 20
7692.248005016648
 30
0.0
 11
11584.39310326689
 21
7707.248005016646
 31
0.0
  0
TEXT
  5
1E0DB
330
1DB32
100
AcDbEntity
  8
SUNPOU
100
AcDbText
 10
9243.012150885952
 20
10837.24800501664
 30
0.0
 40
120.0
  1
2400
 41
0.6666666666666666
  7
00
100
AcDbText
  0
LINE
  5
1E0DC
330
1DB32
100
AcDbEntity
  8
SUNPOU
100
AcDbLine
 10
10580.39310326689
 20
10777.24800501664
 30
0.0
 11
10565.3931032669
 21
10777.24800501664
 31
0.0
  0
LINE
  5
1E0DD
330
1DB32
100
AcDbEntity
  8
SUNPOU
100
AcDbLine
 10
8210.393103266907
 20
10777.24800501664
 30
0.0
 11
8225.393103266906
 21
10777.24800501664
 31
0.0
  0
TEXT
  5
1E0DE
330
1DB32
100
AcDbEntity
  8
SUNPOU
100
AcDbText
 10
6843.012150885954
 20
10837.24800501664
 30
0.0
 40
120.0
  1
2400
 41
0.6666666666666666
  7
00
100
AcDbText
  0
LINE
  5
1E0DF
330
1DB32
100
AcDbEntity
  8
SUNPOU
100
AcDbLine
 10
8180.393103266906
 20
10777.24800501664
 30
0.0
 11
8165.393103266906
 21
10777.24800501664
 31
0.0
  0
LINE
  5
1E0E0
330
1DB32
100
AcDbEntity
  8
SUNPOU
100
AcDbLine
 10
5810.393103266907
 20
10777.24800501664
 30
0.0
 11
5825.393103266907
 21
10777.24800501664
 31
0.0
  0
TEXT
  5
1E0E1
330
1DB32
100
AcDbEntity
  8
SUNPOU
100
AcDbText
 10
7972.316180190232
 20
9235.196722965929
 30
0.0
 40
120.0
  1
対角 5200
 50
337.3801350519473
 41
0.6666666666666666
  7
00
100
AcDbText
  0
LINE
  5
1E0E2
330
1DB32
100
AcDbEntity
  8
SUNPOU
100
AcDbLine
 10
10581.54694942075
 20
8083.017235785883
 30
0.0
 11
10567.70079557459
 21
8088.786466555118
 31
0.0
  0
LINE
  5
1E0E3
330
1DB32
100
AcDbEntity
  8
SUNPOU
100
AcDbLine
 10
5809.239257113488
 20
10071.47877424844
 30
0.0
 11
5823.085410959641
 21
10065.7095434792
 31
0.0
  0
TEXT
  5
1E0E4
330
1DB32
100
AcDbEntity
  8
SUNPOU
100
AcDbText
 10
10772.96453183833
 20
6987.248005016645
 30
0.0
 40
120.0
  1
89
 41
0.6666666666666666
  7
00
100
AcDbText
  0
LINE
  5
1E0E5
330
1DB32
100
AcDbEntity
  8
SUNPOU
100
AcDbLine
 10
10699.39310326689
 20
6927.248005016647
 30
0.0
 11
10714.39310326689
 21
6927.248005016647
 31
0.0
  0
LINE
  5
1E0E6
330
1DB32
100
AcDbEntity
  8
SUNPOU
100
AcDbLine
 10
10580.39310326689
 20
6927.248005016647
 30
0.0
 11
10565.3931032669
 21
6927.248005016647
 31
0.0
  0
TEXT
  5
1E0E7
330
1DB32
100
AcDbEntity
  8
SUNPOU
100
AcDbText
 10
8043.012150885955
 20
6987.248005016645
 30
0.0
 40
120.0
  1
4800
 41
0.6666666666666666
  7
00
100
AcDbText
  0
LINE
  5
1E0E8
330
1DB32
100
AcDbEntity
  8
SUNPOU
100
AcDbLine
 10
10580.39310326689
 20
6927.248005016647
 30
0.0
 11
10565.3931032669
 21
6927.248005016647
 31
0.0
  0
LINE
  5
1E0E9
330
1DB32
100
AcDbEntity
  8
SUNPOU
100
AcDbLine
 10
5810.393103266907
 20
6927.248005016647
 30
0.0
 11
5825.393103266907
 21
6927.248005016647
 31
0.0
  0
TEXT
  5
1E0EA
330
1DB32
100
AcDbEntity
  8
SUNPOU
100
AcDbText
 10
5469.250246124049
 20
6987.248005016645
 30
0.0
 40
120.0
  1
89
 41
0.6666666666666666
  7
00
100
AcDbText
  0
LINE
  5
1E0EB
330
1DB32
100
AcDbEntity
  8
SUNPOU
100
AcDbLine
 10
5691.393103266907
 20
6927.248005016647
 30
0.0
 11
5676.393103266907
 21
6927.248005016647
 31
0.0
  0
LINE
  5
1E0EC
330
1DB32
100
AcDbEntity
  8
SUNPOU
100
AcDbLine
 10
5810.393103266907
 20
6927.248005016647
 30
0.0
 11
5825.393103266907
 21
6927.248005016647
 31
0.0
  0
TEXT
  5
1E0ED
330
1DB32
100
AcDbEntity
  8
SUNPOU
100
AcDbText
 10
14383.60394338438
 20
5842.911796040156
 30
0.0
 40
120.0
  1
62.5
 41
0.6666666666666666
  7
00
100
AcDbText
  0
LINE
  5
1E0EE
330
1DB32
100
AcDbEntity
  8
SUNPOU
100
AcDbLine
 10
14303.84203862247
 20
5782.911796040156
 30
0.0
 11
14288.84203862246
 21
5782.911796040156
 31
0.0
  0
LINE
  5
1E0EF
330
1DB32
100
AcDbEntity
  8
SUNPOU
100
AcDbLine
 10
14083.84203862246
 20
5782.911796040156
 30
0.0
 11
14098.84203862246
 21
5782.911796040156
 31
0.0
  0
TEXT
  5
1E0F0
330
1DB32
100
AcDbEntity
  8
SUNPOU
100
AcDbText
 10
13483.60394338438
 20
5842.911796040156
 30
0.0
 40
120.0
  1
62.5
 41
0.6666666666666666
  7
00
100
AcDbText
  0
LINE
  5
1E0F1
330
1DB32
100
AcDbEntity
  8
SUNPOU
100
AcDbLine
 10
13833.84203862247
 20
5782.911796040156
 30
0.0
 11
13848.84203862247
 21
5782.911796040156
 31
0.0
  0
LINE
  5
1E0F2
330
1DB32
100
AcDbEntity
  8
SUNPOU
100
AcDbLine
 10
14053.84203862247
 20
5782.911796040156
 30
0.0
 11
14038.84203862247
 21
5782.911796040156
 31
0.0
  0
TEXT
  5
1E0F3
330
1DB32
100
AcDbEntity
  8
SUNPOU
100
AcDbText
 10
13366.45858960529
 20
5452.03843063291
 30
0.0
 40
120.0
  1
45
 50
90.0
 41
0.6666666666666666
  7
00
100
AcDbText
  0
LINE
  5
1E0F4
330
1DB32
100
AcDbEntity
  8
SUNPOU
100
AcDbLine
 10
13426.45858960529
 20
5368.46700206148
 30
0.0
 11
13426.45858960529
 21
5353.46700206148
 31
0.0
  0
LINE
  5
1E0F5
330
1DB32
100
AcDbEntity
  8
SUNPOU
100
AcDbLine
 10
13426.45858960529
 20
5218.46700206148
 30
0.0
 11
13426.45858960529
 21
5233.46700206148
 31
0.0
  0
TEXT
  5
1E0F6
330
1DB32
100
AcDbEntity
  8
SUNPOU
100
AcDbText
 10
13366.45858960529
 20
4802.5146211091
 30
0.0
 40
120.0
  1
45
 50
90.0
 41
0.6666666666666666
  7
00
100
AcDbText
  0
LINE
  5
1E0F7
330
1DB32
100
AcDbEntity
  8
SUNPOU
100
AcDbLine
 10
13426.45858960529
 20
5038.46700206148
 30
0.0
 11
13426.45858960529
 21
5053.467002061481
 31
0.0
  0
LINE
  5
1E0F8
330
1DB32
100
AcDbEntity
  8
SUNPOU
100
AcDbLine
 10
13426.45858960529
 20
5188.46700206148
 30
0.0
 11
13426.45858960529
 21
5173.467002061481
 31
0.0
  0
TEXT
  5
1E0F9
330
1DB32
100
AcDbEntity
  8
SUNPOU
100
AcDbText
 10
13948.84203862247
 20
4765.617320595433
 30
0.0
 40
120.0
  1
180
 41
0.6666666666666666
  7
00
100
AcDbText
  0
LINE
  5
1E0FA
330
1DB32
100
AcDbEntity
  8
SUNPOU
100
AcDbLine
 10
13723.84203862247
 20
4705.617320595433
 30
0.0
 11
13738.84203862247
 21
4705.617320595433
 31
0.0
  0
LINE
  5
1E0FB
330
1DB32
100
AcDbEntity
  8
SUNPOU
100
AcDbLine
 10
14413.84203862246
 20
4705.617320595433
 30
0.0
 11
14398.84203862246
 21
4705.617320595433
 31
0.0
  0
TEXT
  5
1E0FC
330
1DB32
100
AcDbEntity
  8
SUNPOU
100
AcDbText
 10
14772.76599491387
 20
5127.276525871006
 30
0.0
 40
120.0
  1
90
 50
90.0
 41
0.6666666666666666
  7
00
100
AcDbText
  0
LINE
  5
1E0FD
330
1DB32
100
AcDbEntity
  8
SUNPOU
100
AcDbLine
 10
14832.76599491387
 20
5038.46700206148
 30
0.0
 11
14832.76599491387
 21
5053.467002061481
 31
0.0
  0
LINE
  5
1E0FE
330
1DB32
100
AcDbEntity
  8
SUNPOU
100
AcDbLine
 10
14832.76599491387
 20
5368.46700206148
 30
0.0
 11
14832.76599491387
 21
5353.46700206148
 31
0.0
  0
TEXT
  5
1E0FF
330
1DB32
100
AcDbEntity
  8
SUNPOU
100
AcDbText
 10
13922.55632433676
 20
2899.739597635555
 30
0.0
 40
120.0
  1
W1 □
 41
0.6666666666666666
  7
00
100
AcDbText
  0
LINE
  5
1E100
330
1DB32
100
AcDbEntity
  8
SUNPOU
100
AcDbLine
 10
14613.84203862246
 20
2839.739597635555
 30
0.0
 11
14598.84203862246
 21
2839.739597635555
 31
0.0
  0
LINE
  5
1E101
330
1DB32
100
AcDbEntity
  8
SUNPOU
100
AcDbLine
 10
13523.84203862247
 20
2839.739597635555
 30
0.0
 11
13538.84203862247
 21
2839.739597635555
 31
0.0
  0
TEXT
  5
1E102
330
1DB32
100
AcDbEntity
  8
SUNPOU
100
AcDbText
 10
13922.55632433617
 20
2669.739597635555
 30
0.0
 40
120.0
  1
W2 □
 41
0.6666666666666666
  7
00
100
AcDbText
  0
LINE
  5
1E103
330
1DB32
100
AcDbEntity
  8
SUNPOU
100
AcDbLine
 10
14713.84203862246
 20
2609.739597635555
 30
0.0
 11
14698.84203862246
 21
2609.739597635555
 31
0.0
  0
LINE
  5
1E104
330
1DB32
100
AcDbEntity
  8
SUNPOU
100
AcDbLine
 10
13423.8420386213
 20
2609.739597635555
 30
0.0
 11
13438.84203862131
 21
2609.739597635555
 31
0.0
  0
TEXT
  5
1E105
330
1DB32
100
AcDbEntity
  8
SUNPOU
100
AcDbText
 10
15187.91679421776
 20
3930.453883349843
 30
0.0
 40
120.0
  1
506
 50
90.0
 41
0.6666666666666666
  7
00
100
AcDbText
  0
LINE
  5
1E106
330
1DB32
100
AcDbEntity
  8
SUNPOU
100
AcDbLine
 10
15247.91679421776
 20
4404.739597635553
 30
0.0
 11
15247.91679421776
 21
4389.739597635553
 31
0.0
  0
LINE
  5
1E107
330
1DB32
100
AcDbEntity
  8
SUNPOU
100
AcDbLine
 10
15247.91679421776
 20
3684.739597635555
 30
0.0
 11
15247.91679421776
 21
3699.739597635554
 31
0.0
  0
TEXT
  5
1E108
330
1DB32
100
AcDbEntity
  8
SUNPOU
100
AcDbText
 10
15187.91679421776
 20
3399.739597635557
 30
0.0
 40
120.0
  1
100
 50
90.0
 41
0.6666666666666666
  7
00
100
AcDbText
  0
LINE
  5
1E109
330
1DB32
100
AcDbEntity
  8
SUNPOU
100
AcDbLine
 10
15247.91679421776
 20
3654.739597635554
 30
0.0
 11
15247.91679421776
 21
3639.739597635554
 31
0.0
  0
LINE
  5
1E10A
330
1DB32
100
AcDbEntity
  8
SUNPOU
100
AcDbLine
 10
15247.91679421776
 20
3384.739597635554
 30
0.0
 11
15247.91679421776
 21
3399.739597635555
 31
0.0
  0
TEXT
  5
1E10B
330
1DB32
100
AcDbEntity
  8
SUNPOU
100
AcDbText
 10
15187.91679421776
 20
3099.739597635557
 30
0.0
 40
120.0
  1
100
 50
90.0
 41
0.6666666666666666
  7
00
100
AcDbText
  0
LINE
  5
1E10C
330
1DB32
100
AcDbEntity
  8
SUNPOU
100
AcDbLine
 10
15247.91679421776
 20
3354.739597635554
 30
0.0
 11
15247.91679421776
 21
3339.739597635555
 31
0.0
  0
LINE
  5
1E10D
330
1DB32
100
AcDbEntity
  8
SUNPOU
100
AcDbLine
 10
15247.91679421776
 20
3084.739597635554
 30
0.0
 11
15247.91679421776
 21
3099.739597635554
 31
0.0
  0
TEXT
  5
1E10E
330
1DB32
100
AcDbEntity
  8
SUNPOU
100
AcDbText
 10
8811.104344101861
 20
1701.291251548638
 30
0.0
 40
120.0
  1
800 □
 41
0.6666666666666666
  7
00
100
AcDbText
  0
LINE
  5
1E10F
330
1DB32
100
AcDbEntity
  8
SUNPOU
100
AcDbLine
 10
9774.771010768532
 20
1641.291251548637
 30
0.0
 11
9759.771010768531
 21
1641.291251548637
 31
0.0
  0
LINE
  5
1E110
330
1DB32
100
AcDbEntity
  8
SUNPOU
100
AcDbLine
 10
8204.77101076853
 20
1641.291251548637
 30
0.0
 11
8219.771010768527
 21
1641.291251548637
 31
0.0
  0
TEXT
  5
1E111
330
1DB32
100
AcDbEntity
  8
SUNPOU
100
AcDbText
 10
8811.104344101861
 20
1421.291251548638
 30
0.0
 40
120.0
  1
900 □
 41
0.6666666666666666
  7
00
100
AcDbText
  0
LINE
  5
1E112
330
1DB32
100
AcDbEntity
  8
SUNPOU
100
AcDbLine
 10
9874.771010768531
 20
1361.291251548638
 30
0.0
 11
9859.771010768527
 21
1361.291251548638
 31
0.0
  0
LINE
  5
1E113
330
1DB32
100
AcDbEntity
  8
SUNPOU
100
AcDbLine
 10
8104.771010768528
 20
1361.291251548638
 30
0.0
 11
8119.771010768527
 21
1361.291251548638
 31
0.0
  0
TEXT
  5
1E114
330
1DB32
100
AcDbEntity
  8
SUNPOU
100
AcDbText
 10
10444.52250454545
 20
3823.819427542041
 30
0.0
 40
120.0
  1
1064
 50
90.0
 41
0.6666666666666666
  7
00
100
AcDbText
  0
LINE
  5
1E115
330
1DB32
100
AcDbEntity
  8
SUNPOU
100
AcDbLine
 10
10504.52250454545
 20
4751.347603535438
 30
0.0
 11
10504.52250454545
 21
4736.347603535437
 31
0.0
  0
LINE
  5
1E116
330
1DB32
100
AcDbEntity
  8
SUNPOU
100
AcDbLine
 10
10504.52250454545
 20
3216.291251548639
 30
0.0
 11
10504.52250454545
 21
3231.291251548638
 31
0.0
  0
TEXT
  5
1E117
330
1DB32
100
AcDbEntity
  8
SUNPOU
100
AcDbText
 10
10724.52250454545
 20
3323.819427542041
 30
0.0
 40
120.0
  1
1564
 50
90.0
 41
0.6666666666666666
  7
00
100
AcDbText
  0
LINE
  5
1E118
330
1DB32
100
AcDbEntity
  8
SUNPOU
100
AcDbLine
 10
10784.52250454545
 20
2216.291251548639
 30
0.0
 11
10784.52250454545
 21
2231.291251548639
 31
0.0
  0
LINE
  5
1E119
330
1DB32
100
AcDbEntity
  8
SUNPOU
100
AcDbLine
 10
10784.52250454545
 20
4751.347603535438
 30
0.0
 11
10784.52250454545
 21
4736.347603535437
 31
0.0
  0
TEXT
  5
1E11A
330
1DB32
100
AcDbEntity
  8
SUNPOU
100
AcDbText
 10
10444.52250454545
 20
2587.005537262927
 30
0.0
 40
120.0
  1
500
 50
90.0
 41
0.6666666666666666
  7
00
100
AcDbText
  0
LINE
  5
1E11B
330
1DB32
100
AcDbEntity
  8
SUNPOU
100
AcDbLine
 10
10504.52250454545
 20
3186.291251548639
 30
0.0
 11
10504.52250454545
 21
3171.291251548639
 31
0.0
  0
LINE
  5
1E11C
330
1DB32
100
AcDbEntity
  8
SUNPOU
100
AcDbLine
 10
10504.52250454545
 20
2216.291251548639
 30
0.0
 11
10504.52250454545
 21
2231.291251548639
 31
0.0
  0
TEXT
  5
1E11D
330
1DB32
100
AcDbEntity
  8
SUNPOU
100
AcDbText
 10
10444.52250454545
 20
1704.148394405782
 30
0.0
 40
120.0
  1
100
 50
90.0
 41
0.6666666666666666
  7
00
100
AcDbText
  0
LINE
  5
1E11E
330
1DB32
100
AcDbEntity
  8
SUNPOU
100
AcDbLine
 10
10504.52250454545
 20
2016.291251548638
 30
0.0
 11
10504.52250454545
 21
2031.291251548638
 31
0.0
  0
LINE
  5
1E11F
330
1DB32
100
AcDbEntity
  8
SUNPOU
100
AcDbLine
 10
10504.52250454545
 20
2186.291251548639
 30
0.0
 11
10504.52250454545
 21
2171.291251548639
 31
0.0
  0
TEXT
  5
1E120
330
1DB32
100
AcDbEntity
  8
SUNPOU
100
AcDbText
 10
3445.530852515957
 20
1701.291251548638
 30
0.0
 40
120.0
  1
1050 □
 41
0.6666666666666666
  7
00
100
AcDbText
  0
LINE
  5
1E121
330
1DB32
100
AcDbEntity
  8
SUNPOU
100
AcDbLine
 10
4703.007042992147
 20
1641.291251548637
 30
0.0
 11
4688.007042992147
 21
1641.291251548637
 31
0.0
  0
LINE
  5
1E122
330
1DB32
100
AcDbEntity
  8
SUNPOU
100
AcDbLine
 10
2633.007042992147
 20
1641.291251548637
 30
0.0
 11
2648.007042992147
 21
1641.291251548637
 31
0.0
  0
TEXT
  5
1E123
330
1DB32
100
AcDbEntity
  8
SUNPOU
100
AcDbText
 10
3445.530852515957
 20
1421.291251548638
 30
0.0
 40
120.0
  1
1150 □
 41
0.6666666666666666
  7
00
100
AcDbText
  0
LINE
  5
1E124
330
1DB32
100
AcDbEntity
  8
SUNPOU
100
AcDbLine
 10
4803.007042992147
 20
1361.291251548638
 30
0.0
 11
4788.007042992147
 21
1361.291251548638
 31
0.0
  0
LINE
  5
1E125
330
1DB32
100
AcDbEntity
  8
SUNPOU
100
AcDbLine
 10
2533.007042992147
 20
1361.291251548638
 30
0.0
 11
2548.007042992147
 21
1361.291251548638
 31
0.0
  0
TEXT
  5
1E126
330
1DB32
100
AcDbEntity
  8
SUNPOU
100
AcDbText
 10
5602.758536769062
 20
2800.77180849442
 30
0.0
 40
120.0
  1
前柱：2865    後柱：2795
 50
90.0
 41
0.6666666666666666
  7
00
100
AcDbText
  0
LINE
  5
1E127
330
1DB32
100
AcDbEntity
  8
SUNPOU
100
AcDbLine
 10
5662.758536769063
 20
2216.291251548637
 30
0.0
 11
5662.758536769063
 21
2231.291251548637
 31
0.0
  0
LINE
  5
1E128
330
1DB32
100
AcDbEntity
  8
SUNPOU
100
AcDbLine
 10
5662.758536769063
 20
4751.34760353544
 30
0.0
 11
5662.758536769063
 21
4736.347603535438
 31
0.0
  0
TEXT
  5
1E129
330
1DB32
100
AcDbEntity
  8
SUNPOU
100
AcDbText
 10
5122.758536769062
 20
3693.152760875373
 30
0.0
 40
120.0
  1
前柱：2365
 50
90.0
 41
0.6666666666666666
  7
00
100
AcDbText
  0
TEXT
  5
1E12A
330
1DB32
100
AcDbEntity
  8
SUNPOU
100
AcDbText
 10
5322.758536769061
 20
3693.152760875373
 30
0.0
 40
120.0
  1
後柱：2295
 50
90.0
 41
0.6666666666666666
  7
00
100
AcDbText
  0
LINE
  5
1E12B
330
1DB32
100
AcDbEntity
  8
SUNPOU
100
AcDbLine
 10
5382.758536769063
 20
4751.34760353544
 30
0.0
 11
5382.758536769063
 21
4736.347603535438
 31
0.0
  0
LINE
  5
1E12C
330
1DB32
100
AcDbEntity
  8
SUNPOU
100
AcDbLine
 10
5382.758536769063
 20
3216.291251548637
 30
0.0
 11
5382.758536769063
 21
3231.291251548638
 31
0.0
  0
TEXT
  5
1E12D
330
1DB32
100
AcDbEntity
  8
SUNPOU
100
AcDbText
 10
5322.758536769061
 20
2587.005537262925
 30
0.0
 40
120.0
  1
500
 50
90.0
 41
0.6666666666666666
  7
00
100
AcDbText
  0
LINE
  5
1E12E
330
1DB32
100
AcDbEntity
  8
SUNPOU
100
AcDbLine
 10
5382.758536769063
 20
3186.291251548639
 30
0.0
 11
5382.758536769063
 21
3171.291251548638
 31
0.0
  0
LINE
  5
1E12F
330
1DB32
100
AcDbEntity
  8
SUNPOU
100
AcDbLine
 10
5382.758536769063
 20
2216.291251548637
 30
0.0
 11
5382.758536769063
 21
2231.291251548637
 31
0.0
  0
TEXT
  5
1E130
330
1DB32
100
AcDbEntity
  8
SUNPOU
100
AcDbText
 10
5322.758536769064
 20
1704.148394405781
 30
0.0
 40
120.0
  1
100
 50
90.0
 41
0.6666666666666666
  7
00
100
AcDbText
  0
LINE
  5
1E131
330
1DB32
100
AcDbEntity
  8
SUNPOU
100
AcDbLine
 10
5382.758536769063
 20
2016.291251548638
 30
0.0
 11
5382.758536769063
 21
2031.291251548638
 31
0.0
  0
LINE
  5
1E132
330
1DB32
100
AcDbEntity
  8
SUNPOU
100
AcDbLine
 10
5382.758536769063
 20
2186.291251548637
 30
0.0
 11
5382.758536769063
 21
2171.291251548637
 31
0.0
  0
ARC
  5
1E133
330
1DB32
100
AcDbEntity
  8
SUNPOU
100
AcDbCircle
 10
10684.3931032669
 20
6647.248005016646
 30
0.0
 40
7.5
100
AcDbArc
 50
180.0
 51
0.0
  0
ARC
  5
1E134
330
1DB32
100
AcDbEntity
  8
SUNPOU
100
AcDbCircle
 10
10684.3931032669
 20
6647.248005016646
 30
0.0
 40
7.5
100
AcDbArc
 50
0.0
 51
180.0
  0
ARC
  5
1E135
330
1DB32
100
AcDbEntity
  8
SUNPOU
100
AcDbCircle
 10
5706.393103266908
 20
6647.248005016646
 30
0.0
 40
7.5
100
AcDbArc
 50
0.0
 51
180.0
  0
ARC
  5
1E136
330
1DB32
100
AcDbEntity
  8
SUNPOU
100
AcDbCircle
 10
5706.393103266908
 20
6647.248005016646
 30
0.0
 40
7.5
100
AcDbArc
 50
180.0
 51
0.0
  0
ARC
  5
1E137
330
1DB32
100
AcDbEntity
  8
SUNPOU
100
AcDbCircle
 10
11864.39310326689
 20
10317.24800501665
 30
0.0
 40
7.5
100
AcDbArc
 50
270.0
 51
90.0
  0
ARC
  5
1E138
330
1DB32
100
AcDbEntity
  8
SUNPOU
100
AcDbCircle
 10
11864.39310326689
 20
10317.24800501665
 30
0.0
 40
7.5
100
AcDbArc
 50
90.0
 51
270.0
  0
ARC
  5
1E139
330
1DB32
100
AcDbEntity
  8
SUNPOU
100
AcDbCircle
 10
11864.39310326689
 20
7677.248005016648
 30
0.0
 40
7.5
100
AcDbArc
 50
90.0
 51
270.0
  0
ARC
  5
1E13A
330
1DB32
100
AcDbEntity
  8
SUNPOU
100
AcDbCircle
 10
11864.39310326689
 20
7677.248005016648
 30
0.0
 40
7.5
100
AcDbArc
 50
270.0
 51
90.0
  0
ARC
  5
1E13B
330
1DB32
100
AcDbEntity
  8
SUNPOU
100
AcDbCircle
 10
11584.39310326689
 20
10317.24800501665
 30
0.0
 40
7.5
100
AcDbArc
 50
270.0
 51
90.0
  0
ARC
  5
1E13C
330
1DB32
100
AcDbEntity
  8
SUNPOU
100
AcDbCircle
 10
11584.39310326689
 20
10317.24800501665
 30
0.0
 40
7.5
100
AcDbArc
 50
90.0
 51
270.0
  0
ARC
  5
1E13D
330
1DB32
100
AcDbEntity
  8
SUNPOU
100
AcDbCircle
 10
11584.39310326689
 20
10077.24800501665
 30
0.0
 40
7.5
100
AcDbArc
 50
90.0
 51
270.0
  0
ARC
  5
1E13E
330
1DB32
100
AcDbEntity
  8
SUNPOU
100
AcDbCircle
 10
11584.39310326689
 20
10077.24800501665
 30
0.0
 40
7.5
100
AcDbArc
 50
270.0
 51
90.0
  0
ARC
  5
1E13F
330
1DB32
100
AcDbEntity
  8
SUNPOU
100
AcDbCircle
 10
11584.39310326689
 20
10077.24800501665
 30
0.0
 40
7.5
100
AcDbArc
 50
270.0
 51
90.0
  0
ARC
  5
1E140
330
1DB32
100
AcDbEntity
  8
SUNPOU
100
AcDbCircle
 10
11584.39310326689
 20
10077.24800501665
 30
0.0
 40
7.5
100
AcDbArc
 50
90.0
 51
270.0
  0
ARC
  5
1E141
330
1DB32
100
AcDbEntity
  8
SUNPOU
100
AcDbCircle
 10
11584.39310326689
 20
8077.248005016647
 30
0.0
 40
7.5
100
AcDbArc
 50
90.0
 51
270.0
  0
ARC
  5
1E142
330
1DB32
100
AcDbEntity
  8
SUNPOU
100
AcDbCircle
 10
11584.39310326689
 20
8077.248005016647
 30
0.0
 40
7.5
100
AcDbArc
 50
270.0
 51
90.0
  0
ARC
  5
1E143
330
1DB32
100
AcDbEntity
  8
SUNPOU
100
AcDbCircle
 10
11584.39310326689
 20
8077.248005016647
 30
0.0
 40
7.5
100
AcDbArc
 50
270.0
 51
90.0
  0
ARC
  5
1E144
330
1DB32
100
AcDbEntity
  8
SUNPOU
100
AcDbCircle
 10
11584.39310326689
 20
8077.248005016647
 30
0.0
 40
7.5
100
AcDbArc
 50
90.0
 51
270.0
  0
ARC
  5
1E145
330
1DB32
100
AcDbEntity
  8
SUNPOU
100
AcDbCircle
 10
11584.39310326689
 20
7677.248005016648
 30
0.0
 40
7.5
100
AcDbArc
 50
90.0
 51
270.0
  0
ARC
  5
1E146
330
1DB32
100
AcDbEntity
  8
SUNPOU
100
AcDbCircle
 10
11584.39310326689
 20
7677.248005016648
 30
0.0
 40
7.5
100
AcDbArc
 50
270.0
 51
90.0
  0
ARC
  5
1E147
330
1DB32
100
AcDbEntity
  8
SUNPOU
100
AcDbCircle
 10
10595.39310326689
 20
10777.24800501664
 30
0.0
 40
7.5
100
AcDbArc
 50
180.0
 51
0.0
  0
ARC
  5
1E148
330
1DB32
100
AcDbEntity
  8
SUNPOU
100
AcDbCircle
 10
10595.39310326689
 20
10777.24800501664
 30
0.0
 40
7.5
100
AcDbArc
 50
0.0
 51
180.0
  0
ARC
  5
1E149
330
1DB32
100
AcDbEntity
  8
SUNPOU
100
AcDbCircle
 10
8195.393103266907
 20
10777.24800501664
 30
0.0
 40
7.5
100
AcDbArc
 50
0.0
 51
180.0
  0
ARC
  5
1E14A
330
1DB32
100
AcDbEntity
  8
SUNPOU
100
AcDbCircle
 10
8195.393103266907
 20
10777.24800501664
 30
0.0
 40
7.5
100
AcDbArc
 50
180.0
 51
0.0
  0
ARC
  5
1E14B
330
1DB32
100
AcDbEntity
  8
SUNPOU
100
AcDbCircle
 10
8195.393103266907
 20
10777.24800501664
 30
0.0
 40
7.5
100
AcDbArc
 50
180.0
 51
0.0
  0
ARC
  5
1E14C
330
1DB32
100
AcDbEntity
  8
SUNPOU
100
AcDbCircle
 10
8195.393103266907
 20
10777.24800501664
 30
0.0
 40
7.5
100
AcDbArc
 50
0.0
 51
180.0
  0
ARC
  5
1E14D
330
1DB32
100
AcDbEntity
  8
SUNPOU
100
AcDbCircle
 10
5795.393103266905
 20
10777.24800501664
 30
0.0
 40
7.5
100
AcDbArc
 50
0.0
 51
180.0
  0
ARC
  5
1E14E
330
1DB32
100
AcDbEntity
  8
SUNPOU
100
AcDbCircle
 10
5795.393103266905
 20
10777.24800501664
 30
0.0
 40
7.5
100
AcDbArc
 50
180.0
 51
0.0
  0
ARC
  5
1E14F
330
1DB32
100
AcDbEntity
  8
SUNPOU
100
AcDbCircle
 10
10595.39310326689
 20
8077.248005016647
 30
0.0
 40
7.5
100
AcDbArc
 50
157.3801350519457
 51
337.3801350519456
  0
ARC
  5
1E150
330
1DB32
100
AcDbEntity
  8
SUNPOU
100
AcDbCircle
 10
10595.39310326689
 20
8077.248005016647
 30
0.0
 40
7.5
100
AcDbArc
 50
337.3801350519456
 51
157.3801350519457
  0
ARC
  5
1E151
330
1DB32
100
AcDbEntity
  8
SUNPOU
100
AcDbCircle
 10
5795.393103267334
 20
10077.24800501766
 30
0.0
 40
7.5
100
AcDbArc
 50
337.3801350519456
 51
157.3801350519457
  0
ARC
  5
1E152
330
1DB32
100
AcDbEntity
  8
SUNPOU
100
AcDbCircle
 10
5795.393103267334
 20
10077.24800501766
 30
0.0
 40
7.5
100
AcDbArc
 50
157.3801350519457
 51
337.3801350519456
  0
ARC
  5
1E153
330
1DB32
100
AcDbEntity
  8
SUNPOU
100
AcDbCircle
 10
10684.3931032669
 20
6927.248005016647
 30
0.0
 40
7.5
100
AcDbArc
 50
0.0
 51
180.0
  0
ARC
  5
1E154
330
1DB32
100
AcDbEntity
  8
SUNPOU
100
AcDbCircle
 10
10684.3931032669
 20
6927.248005016647
 30
0.0
 40
7.5
100
AcDbArc
 50
180.0
 51
0.0
  0
ARC
  5
1E155
330
1DB32
100
AcDbEntity
  8
SUNPOU
100
AcDbCircle
 10
10595.39310326689
 20
6927.248005016647
 30
0.0
 40
7.5
100
AcDbArc
 50
180.0
 51
0.0
  0
ARC
  5
1E156
330
1DB32
100
AcDbEntity
  8
SUNPOU
100
AcDbCircle
 10
10595.39310326689
 20
6927.248005016647
 30
0.0
 40
7.5
100
AcDbArc
 50
0.0
 51
180.0
  0
ARC
  5
1E157
330
1DB32
100
AcDbEntity
  8
SUNPOU
100
AcDbCircle
 10
10595.39310326689
 20
6927.248005016647
 30
0.0
 40
7.5
100
AcDbArc
 50
180.0
 51
0.0
  0
ARC
  5
1E158
330
1DB32
100
AcDbEntity
  8
SUNPOU
100
AcDbCircle
 10
10595.39310326689
 20
6927.248005016647
 30
0.0
 40
7.5
100
AcDbArc
 50
0.0
 51
180.0
  0
ARC
  5
1E159
330
1DB32
100
AcDbEntity
  8
SUNPOU
100
AcDbCircle
 10
5795.393103266905
 20
6927.248005016647
 30
0.0
 40
7.5
100
AcDbArc
 50
0.0
 51
180.0
  0
ARC
  5
1E15A
330
1DB32
100
AcDbEntity
  8
SUNPOU
100
AcDbCircle
 10
5795.393103266905
 20
6927.248005016647
 30
0.0
 40
7.5
100
AcDbArc
 50
180.0
 51
0.0
  0
ARC
  5
1E15B
330
1DB32
100
AcDbEntity
  8
SUNPOU
100
AcDbCircle
 10
5706.393103266908
 20
6927.248005016647
 30
0.0
 40
7.5
100
AcDbArc
 50
180.0
 51
0.0
  0
ARC
  5
1E15C
330
1DB32
100
AcDbEntity
  8
SUNPOU
100
AcDbCircle
 10
5706.393103266908
 20
6927.248005016647
 30
0.0
 40
7.5
100
AcDbArc
 50
0.0
 51
180.0
  0
ARC
  5
1E15D
330
1DB32
100
AcDbEntity
  8
SUNPOU
100
AcDbCircle
 10
5795.393103266905
 20
6927.248005016647
 30
0.0
 40
7.5
100
AcDbArc
 50
0.0
 51
180.0
  0
ARC
  5
1E15E
330
1DB32
100
AcDbEntity
  8
SUNPOU
100
AcDbCircle
 10
5795.393103266905
 20
6927.248005016647
 30
0.0
 40
7.5
100
AcDbArc
 50
180.0
 51
0.0
  0
ARC
  5
1E15F
330
1DB32
100
AcDbEntity
  8
SUNPOU
100
AcDbCircle
 10
14318.84203862246
 20
5782.911796040156
 30
0.0
 40
7.5
100
AcDbArc
 50
180.0
 51
0.0
  0
ARC
  5
1E160
330
1DB32
100
AcDbEntity
  8
SUNPOU
100
AcDbCircle
 10
14318.84203862246
 20
5782.911796040156
 30
0.0
 40
7.5
100
AcDbArc
 50
0.0
 51
180.0
  0
ARC
  5
1E161
330
1DB32
100
AcDbEntity
  8
SUNPOU
100
AcDbCircle
 10
14068.84203862247
 20
5782.911796040156
 30
0.0
 40
7.5
100
AcDbArc
 50
0.0
 51
180.0
  0
ARC
  5
1E162
330
1DB32
100
AcDbEntity
  8
SUNPOU
100
AcDbCircle
 10
14068.84203862247
 20
5782.911796040156
 30
0.0
 40
7.5
100
AcDbArc
 50
180.0
 51
0.0
  0
ARC
  5
1E163
330
1DB32
100
AcDbEntity
  8
SUNPOU
100
AcDbCircle
 10
13818.84203862247
 20
5782.911796040156
 30
0.0
 40
7.5
100
AcDbArc
 50
0.0
 51
180.0
  0
ARC
  5
1E164
330
1DB32
100
AcDbEntity
  8
SUNPOU
100
AcDbCircle
 10
13818.84203862247
 20
5782.911796040156
 30
0.0
 40
7.5
100
AcDbArc
 50
180.0
 51
0.0
  0
ARC
  5
1E165
330
1DB32
100
AcDbEntity
  8
SUNPOU
100
AcDbCircle
 10
14068.84203862247
 20
5782.911796040156
 30
0.0
 40
7.5
100
AcDbArc
 50
180.0
 51
0.0
  0
ARC
  5
1E166
330
1DB32
100
AcDbEntity
  8
SUNPOU
100
AcDbCircle
 10
14068.84203862247
 20
5782.911796040156
 30
0.0
 40
7.5
100
AcDbArc
 50
0.0
 51
180.0
  0
ARC
  5
1E167
330
1DB32
100
AcDbEntity
  8
SUNPOU
100
AcDbCircle
 10
13426.45858960529
 20
5383.46700206148
 30
0.0
 40
7.5
100
AcDbArc
 50
270.0
 51
90.0
  0
ARC
  5
1E168
330
1DB32
100
AcDbEntity
  8
SUNPOU
100
AcDbCircle
 10
13426.45858960529
 20
5383.46700206148
 30
0.0
 40
7.5
100
AcDbArc
 50
90.0
 51
270.0
  0
ARC
  5
1E169
330
1DB32
100
AcDbEntity
  8
SUNPOU
100
AcDbCircle
 10
13426.45858960529
 20
5203.46700206148
 30
0.0
 40
7.5
100
AcDbArc
 50
90.0
 51
270.0
  0
ARC
  5
1E16A
330
1DB32
100
AcDbEntity
  8
SUNPOU
100
AcDbCircle
 10
13426.45858960529
 20
5203.46700206148
 30
0.0
 40
7.5
100
AcDbArc
 50
270.0
 51
90.0
  0
ARC
  5
1E16B
330
1DB32
100
AcDbEntity
  8
SUNPOU
100
AcDbCircle
 10
13426.45858960529
 20
5023.46700206148
 30
0.0
 40
7.5
100
AcDbArc
 50
90.0
 51
270.0
  0
ARC
  5
1E16C
330
1DB32
100
AcDbEntity
  8
SUNPOU
100
AcDbCircle
 10
13426.45858960529
 20
5023.46700206148
 30
0.0
 40
7.5
100
AcDbArc
 50
270.0
 51
90.0
  0
ARC
  5
1E16D
330
1DB32
100
AcDbEntity
  8
SUNPOU
100
AcDbCircle
 10
13426.45858960529
 20
5203.46700206148
 30
0.0
 40
7.5
100
AcDbArc
 50
270.0
 51
90.0
  0
ARC
  5
1E16E
330
1DB32
100
AcDbEntity
  8
SUNPOU
100
AcDbCircle
 10
13426.45858960529
 20
5203.46700206148
 30
0.0
 40
7.5
100
AcDbArc
 50
90.0
 51
270.0
  0
ARC
  5
1E16F
330
1DB32
100
AcDbEntity
  8
SUNPOU
100
AcDbCircle
 10
13708.84203862247
 20
4705.617320595433
 30
0.0
 40
7.5
100
AcDbArc
 50
0.0
 51
180.0
  0
ARC
  5
1E170
330
1DB32
100
AcDbEntity
  8
SUNPOU
100
AcDbCircle
 10
13708.84203862247
 20
4705.617320595433
 30
0.0
 40
7.5
100
AcDbArc
 50
180.0
 51
0.0
  0
ARC
  5
1E171
330
1DB32
100
AcDbEntity
  8
SUNPOU
100
AcDbCircle
 10
14428.84203862246
 20
4705.617320595433
 30
0.0
 40
7.5
100
AcDbArc
 50
180.0
 51
0.0
  0
ARC
  5
1E172
330
1DB32
100
AcDbEntity
  8
SUNPOU
100
AcDbCircle
 10
14428.84203862246
 20
4705.617320595433
 30
0.0
 40
7.5
100
AcDbArc
 50
0.0
 51
180.0
  0
ARC
  5
1E173
330
1DB32
100
AcDbEntity
  8
SUNPOU
100
AcDbCircle
 10
14832.76599491387
 20
5023.46700206148
 30
0.0
 40
7.5
100
AcDbArc
 50
90.0
 51
270.0
  0
ARC
  5
1E174
330
1DB32
100
AcDbEntity
  8
SUNPOU
100
AcDbCircle
 10
14832.76599491387
 20
5023.46700206148
 30
0.0
 40
7.5
100
AcDbArc
 50
270.0
 51
90.0
  0
ARC
  5
1E175
330
1DB32
100
AcDbEntity
  8
SUNPOU
100
AcDbCircle
 10
14832.76599491387
 20
5383.46700206148
 30
0.0
 40
7.5
100
AcDbArc
 50
270.0
 51
90.0
  0
ARC
  5
1E176
330
1DB32
100
AcDbEntity
  8
SUNPOU
100
AcDbCircle
 10
14832.76599491387
 20
5383.46700206148
 30
0.0
 40
7.5
100
AcDbArc
 50
90.0
 51
270.0
  0
ARC
  5
1E177
330
1DB32
100
AcDbEntity
  8
SUNPOU
100
AcDbCircle
 10
14628.84203862246
 20
2839.739597635555
 30
0.0
 40
7.5
100
AcDbArc
 50
180.0
 51
0.0
  0
ARC
  5
1E178
330
1DB32
100
AcDbEntity
  8
SUNPOU
100
AcDbCircle
 10
14628.84203862246
 20
2839.739597635555
 30
0.0
 40
7.5
100
AcDbArc
 50
0.0
 51
180.0
  0
ARC
  5
1E179
330
1DB32
100
AcDbEntity
  8
SUNPOU
100
AcDbCircle
 10
13508.84203862247
 20
2839.739597635555
 30
0.0
 40
7.5
100
AcDbArc
 50
0.0
 51
180.0
  0
ARC
  5
1E17A
330
1DB32
100
AcDbEntity
  8
SUNPOU
100
AcDbCircle
 10
13508.84203862247
 20
2839.739597635555
 30
0.0
 40
7.5
100
AcDbArc
 50
180.0
 51
0.0
  0
ARC
  5
1E17B
330
1DB32
100
AcDbEntity
  8
SUNPOU
100
AcDbCircle
 10
14728.84203862246
 20
2609.739597635555
 30
0.0
 40
7.5
100
AcDbArc
 50
180.0
 51
0.0
  0
ARC
  5
1E17C
330
1DB32
100
AcDbEntity
  8
SUNPOU
100
AcDbCircle
 10
14728.84203862246
 20
2609.739597635555
 30
0.0
 40
7.5
100
AcDbArc
 50
0.0
 51
180.0
  0
ARC
  5
1E17D
330
1DB32
100
AcDbEntity
  8
SUNPOU
100
AcDbCircle
 10
13408.8420386213
 20
2609.739597635555
 30
0.0
 40
7.5
100
AcDbArc
 50
0.0
 51
180.0
  0
ARC
  5
1E17E
330
1DB32
100
AcDbEntity
  8
SUNPOU
100
AcDbCircle
 10
13408.8420386213
 20
2609.739597635555
 30
0.0
 40
7.5
100
AcDbArc
 50
180.0
 51
0.0
  0
ARC
  5
1E17F
330
1DB32
100
AcDbEntity
  8
SUNPOU
100
AcDbCircle
 10
15247.91679421776
 20
4419.739597635554
 30
0.0
 40
7.5
100
AcDbArc
 50
270.0
 51
90.0
  0
ARC
  5
1E180
330
1DB32
100
AcDbEntity
  8
SUNPOU
100
AcDbCircle
 10
15247.91679421776
 20
4419.739597635554
 30
0.0
 40
7.5
100
AcDbArc
 50
90.0
 51
270.0
  0
ARC
  5
1E181
330
1DB32
100
AcDbEntity
  8
SUNPOU
100
AcDbCircle
 10
15247.91679421776
 20
3669.739597635554
 30
0.0
 40
7.5
100
AcDbArc
 50
90.0
 51
270.0
  0
ARC
  5
1E182
330
1DB32
100
AcDbEntity
  8
SUNPOU
100
AcDbCircle
 10
15247.91679421776
 20
3669.739597635554
 30
0.0
 40
7.5
100
AcDbArc
 50
270.0
 51
90.0
  0
ARC
  5
1E183
330
1DB32
100
AcDbEntity
  8
SUNPOU
100
AcDbCircle
 10
15247.91679421776
 20
3669.739597635554
 30
0.0
 40
7.5
100
AcDbArc
 50
270.0
 51
90.0
  0
ARC
  5
1E184
330
1DB32
100
AcDbEntity
  8
SUNPOU
100
AcDbCircle
 10
15247.91679421776
 20
3669.739597635554
 30
0.0
 40
7.5
100
AcDbArc
 50
90.0
 51
270.0
  0
ARC
  5
1E185
330
1DB32
100
AcDbEntity
  8
SUNPOU
100
AcDbCircle
 10
15247.91679421776
 20
3369.739597635554
 30
0.0
 40
7.5
100
AcDbArc
 50
90.0
 51
270.0
  0
ARC
  5
1E186
330
1DB32
100
AcDbEntity
  8
SUNPOU
100
AcDbCircle
 10
15247.91679421776
 20
3369.739597635554
 30
0.0
 40
7.5
100
AcDbArc
 50
270.0
 51
90.0
  0
ARC
  5
1E187
330
1DB32
100
AcDbEntity
  8
SUNPOU
100
AcDbCircle
 10
15247.91679421776
 20
3369.739597635554
 30
0.0
 40
7.5
100
AcDbArc
 50
270.0
 51
90.0
  0
ARC
  5
1E188
330
1DB32
100
AcDbEntity
  8
SUNPOU
100
AcDbCircle
 10
15247.91679421776
 20
3369.739597635554
 30
0.0
 40
7.5
100
AcDbArc
 50
90.0
 51
270.0
  0
ARC
  5
1E189
330
1DB32
100
AcDbEntity
  8
SUNPOU
100
AcDbCircle
 10
15247.91679421776
 20
3069.739597635555
 30
0.0
 40
7.5
100
AcDbArc
 50
90.0
 51
270.0
  0
ARC
  5
1E18A
330
1DB32
100
AcDbEntity
  8
SUNPOU
100
AcDbCircle
 10
15247.91679421776
 20
3069.739597635555
 30
0.0
 40
7.5
100
AcDbArc
 50
270.0
 51
90.0
  0
ARC
  5
1E18B
330
1DB32
100
AcDbEntity
  8
SUNPOU
100
AcDbCircle
 10
9789.771010768527
 20
1641.291251548637
 30
0.0
 40
7.5
100
AcDbArc
 50
180.0
 51
0.0
  0
ARC
  5
1E18C
330
1DB32
100
AcDbEntity
  8
SUNPOU
100
AcDbCircle
 10
9789.771010768527
 20
1641.291251548637
 30
0.0
 40
7.5
100
AcDbArc
 50
0.0
 51
180.0
  0
ARC
  5
1E18D
330
1DB32
100
AcDbEntity
  8
SUNPOU
100
AcDbCircle
 10
8189.771010768527
 20
1641.291251548637
 30
0.0
 40
7.5
100
AcDbArc
 50
0.0
 51
180.0
  0
ARC
  5
1E18E
330
1DB32
100
AcDbEntity
  8
SUNPOU
100
AcDbCircle
 10
8189.771010768527
 20
1641.291251548637
 30
0.0
 40
7.5
100
AcDbArc
 50
180.0
 51
0.0
  0
ARC
  5
1E18F
330
1DB32
100
AcDbEntity
  8
SUNPOU
100
AcDbCircle
 10
9889.771010768527
 20
1361.291251548638
 30
0.0
 40
7.5
100
AcDbArc
 50
180.0
 51
0.0
  0
ARC
  5
1E190
330
1DB32
100
AcDbEntity
  8
SUNPOU
100
AcDbCircle
 10
9889.771010768527
 20
1361.291251548638
 30
0.0
 40
7.5
100
AcDbArc
 50
0.0
 51
180.0
  0
ARC
  5
1E191
330
1DB32
100
AcDbEntity
  8
SUNPOU
100
AcDbCircle
 10
8089.771010768528
 20
1361.291251548638
 30
0.0
 40
7.5
100
AcDbArc
 50
0.0
 51
180.0
  0
ARC
  5
1E192
330
1DB32
100
AcDbEntity
  8
SUNPOU
100
AcDbCircle
 10
8089.771010768528
 20
1361.291251548638
 30
0.0
 40
7.5
100
AcDbArc
 50
180.0
 51
0.0
  0
ARC
  5
1E193
330
1DB32
100
AcDbEntity
  8
SUNPOU
100
AcDbCircle
 10
10504.52250454545
 20
4766.347603535439
 30
0.0
 40
7.5
100
AcDbArc
 50
270.0
 51
90.0
  0
ARC
  5
1E194
330
1DB32
100
AcDbEntity
  8
SUNPOU
100
AcDbCircle
 10
10504.52250454545
 20
4766.347603535439
 30
0.0
 40
7.5
100
AcDbArc
 50
90.0
 51
270.0
  0
ARC
  5
1E195
330
1DB32
100
AcDbEntity
  8
SUNPOU
100
AcDbCircle
 10
10504.52250454545
 20
3201.291251548639
 30
0.0
 40
7.5
100
AcDbArc
 50
90.0
 51
270.0
  0
ARC
  5
1E196
330
1DB32
100
AcDbEntity
  8
SUNPOU
100
AcDbCircle
 10
10504.52250454545
 20
3201.291251548639
 30
0.0
 40
7.5
100
AcDbArc
 50
270.0
 51
90.0
  0
ARC
  5
1E197
330
1DB32
100
AcDbEntity
  8
SUNPOU
100
AcDbCircle
 10
10784.52250454545
 20
2201.291251548639
 30
0.0
 40
7.5
100
AcDbArc
 50
90.0
 51
270.0
  0
ARC
  5
1E198
330
1DB32
100
AcDbEntity
  8
SUNPOU
100
AcDbCircle
 10
10784.52250454545
 20
2201.291251548639
 30
0.0
 40
7.5
100
AcDbArc
 50
270.0
 51
90.0
  0
ARC
  5
1E199
330
1DB32
100
AcDbEntity
  8
SUNPOU
100
AcDbCircle
 10
10784.52250454545
 20
4766.347603535439
 30
0.0
 40
7.5
100
AcDbArc
 50
270.0
 51
90.0
  0
ARC
  5
1E19A
330
1DB32
100
AcDbEntity
  8
SUNPOU
100
AcDbCircle
 10
10784.52250454545
 20
4766.347603535439
 30
0.0
 40
7.5
100
AcDbArc
 50
90.0
 51
270.0
  0
ARC
  5
1E19B
330
1DB32
100
AcDbEntity
  8
SUNPOU
100
AcDbCircle
 10
10504.52250454545
 20
3201.291251548639
 30
0.0
 40
7.5
100
AcDbArc
 50
270.0
 51
90.0
  0
ARC
  5
1E19C
330
1DB32
100
AcDbEntity
  8
SUNPOU
100
AcDbCircle
 10
10504.52250454545
 20
3201.291251548639
 30
0.0
 40
7.5
100
AcDbArc
 50
90.0
 51
270.0
  0
ARC
  5
1E19D
330
1DB32
100
AcDbEntity
  8
SUNPOU
100
AcDbCircle
 10
10504.52250454545
 20
2201.291251548639
 30
0.0
 40
7.5
100
AcDbArc
 50
90.0
 51
270.0
  0
ARC
  5
1E19E
330
1DB32
100
AcDbEntity
  8
SUNPOU
100
AcDbCircle
 10
10504.52250454545
 20
2201.291251548639
 30
0.0
 40
7.5
100
AcDbArc
 50
270.0
 51
90.0
  0
ARC
  5
1E19F
330
1DB32
100
AcDbEntity
  8
SUNPOU
100
AcDbCircle
 10
10504.52250454545
 20
2001.291251548638
 30
0.0
 40
7.5
100
AcDbArc
 50
90.0
 51
270.0
  0
ARC
  5
1E1A0
330
1DB32
100
AcDbEntity
  8
SUNPOU
100
AcDbCircle
 10
10504.52250454545
 20
2001.291251548638
 30
0.0
 40
7.5
100
AcDbArc
 50
270.0
 51
90.0
  0
ARC
  5
1E1A1
330
1DB32
100
AcDbEntity
  8
SUNPOU
100
AcDbCircle
 10
10504.52250454545
 20
2201.291251548639
 30
0.0
 40
7.5
100
AcDbArc
 50
270.0
 51
90.0
  0
ARC
  5
1E1A2
330
1DB32
100
AcDbEntity
  8
SUNPOU
100
AcDbCircle
 10
10504.52250454545
 20
2201.291251548639
 30
0.0
 40
7.5
100
AcDbArc
 50
90.0
 51
270.0
  0
ARC
  5
1E1A3
330
1DB32
100
AcDbEntity
  8
SUNPOU
100
AcDbCircle
 10
4718.007042992147
 20
1641.291251548637
 30
0.0
 40
7.5
100
AcDbArc
 50
180.0
 51
0.0
  0
ARC
  5
1E1A4
330
1DB32
100
AcDbEntity
  8
SUNPOU
100
AcDbCircle
 10
4718.007042992147
 20
1641.291251548637
 30
0.0
 40
7.5
100
AcDbArc
 50
0.0
 51
180.0
  0
ARC
  5
1E1A5
330
1DB32
100
AcDbEntity
  8
SUNPOU
100
AcDbCircle
 10
2618.007042992147
 20
1641.291251548637
 30
0.0
 40
7.5
100
AcDbArc
 50
0.0
 51
180.0
  0
ARC
  5
1E1A6
330
1DB32
100
AcDbEntity
  8
SUNPOU
100
AcDbCircle
 10
2618.007042992147
 20
1641.291251548637
 30
0.0
 40
7.5
100
AcDbArc
 50
180.0
 51
0.0
  0
ARC
  5
1E1A7
330
1DB32
100
AcDbEntity
  8
SUNPOU
100
AcDbCircle
 10
4818.007042992147
 20
1361.291251548638
 30
0.0
 40
7.5
100
AcDbArc
 50
180.0
 51
0.0
  0
ARC
  5
1E1A8
330
1DB32
100
AcDbEntity
  8
SUNPOU
100
AcDbCircle
 10
4818.007042992147
 20
1361.291251548638
 30
0.0
 40
7.5
100
AcDbArc
 50
0.0
 51
180.0
  0
ARC
  5
1E1A9
330
1DB32
100
AcDbEntity
  8
SUNPOU
100
AcDbCircle
 10
2518.007042992147
 20
1361.291251548638
 30
0.0
 40
7.5
100
AcDbArc
 50
0.0
 51
180.0
  0
ARC
  5
1E1AA
330
1DB32
100
AcDbEntity
  8
SUNPOU
100
AcDbCircle
 10
2518.007042992147
 20
1361.291251548638
 30
0.0
 40
7.5
100
AcDbArc
 50
180.0
 51
0.0
  0
ARC
  5
1E1AB
330
1DB32
100
AcDbEntity
  8
SUNPOU
100
AcDbCircle
 10
5662.758536769063
 20
2201.291251548639
 30
0.0
 40
7.5
100
AcDbArc
 50
90.0
 51
270.0
  0
ARC
  5
1E1AC
330
1DB32
100
AcDbEntity
  8
SUNPOU
100
AcDbCircle
 10
5662.758536769063
 20
2201.291251548639
 30
0.0
 40
7.5
100
AcDbArc
 50
270.0
 51
90.0
  0
ARC
  5
1E1AD
330
1DB32
100
AcDbEntity
  8
SUNPOU
100
AcDbCircle
 10
5662.758536769063
 20
4766.347603535439
 30
0.0
 40
7.5
100
AcDbArc
 50
270.0
 51
90.0
  0
ARC
  5
1E1AE
330
1DB32
100
AcDbEntity
  8
SUNPOU
100
AcDbCircle
 10
5662.758536769063
 20
4766.347603535439
 30
0.0
 40
7.5
100
AcDbArc
 50
90.0
 51
270.0
  0
ARC
  5
1E1AF
330
1DB32
100
AcDbEntity
  8
SUNPOU
100
AcDbCircle
 10
5382.758536769063
 20
4766.347603535439
 30
0.0
 40
7.5
100
AcDbArc
 50
270.0
 51
90.0
  0
ARC
  5
1E1B0
330
1DB32
100
AcDbEntity
  8
SUNPOU
100
AcDbCircle
 10
5382.758536769063
 20
4766.347603535439
 30
0.0
 40
7.5
100
AcDbArc
 50
90.0
 51
270.0
  0
ARC
  5
1E1B1
330
1DB32
100
AcDbEntity
  8
SUNPOU
100
AcDbCircle
 10
5382.758536769063
 20
3201.291251548639
 30
0.0
 40
7.5
100
AcDbArc
 50
90.0
 51
270.0
  0
ARC
  5
1E1B2
330
1DB32
100
AcDbEntity
  8
SUNPOU
100
AcDbCircle
 10
5382.758536769063
 20
3201.291251548639
 30
0.0
 40
7.5
100
AcDbArc
 50
270.0
 51
90.0
  0
ARC
  5
1E1B3
330
1DB32
100
AcDbEntity
  8
SUNPOU
100
AcDbCircle
 10
5382.758536769063
 20
3201.291251548639
 30
0.0
 40
7.5
100
AcDbArc
 50
270.0
 51
90.0
  0
ARC
  5
1E1B4
330
1DB32
100
AcDbEntity
  8
SUNPOU
100
AcDbCircle
 10
5382.758536769063
 20
3201.291251548639
 30
0.0
 40
7.5
100
AcDbArc
 50
90.0
 51
270.0
  0
ARC
  5
1E1B5
330
1DB32
100
AcDbEntity
  8
SUNPOU
100
AcDbCircle
 10
5382.758536769063
 20
2201.291251548639
 30
0.0
 40
7.5
100
AcDbArc
 50
90.0
 51
270.0
  0
ARC
  5
1E1B6
330
1DB32
100
AcDbEntity
  8
SUNPOU
100
AcDbCircle
 10
5382.758536769063
 20
2201.291251548639
 30
0.0
 40
7.5
100
AcDbArc
 50
270.0
 51
90.0
  0
ARC
  5
1E1B7
330
1DB32
100
AcDbEntity
  8
SUNPOU
100
AcDbCircle
 10
5382.758536769063
 20
2001.291251548638
 30
0.0
 40
7.5
100
AcDbArc
 50
90.0
 51
270.0
  0
ARC
  5
1E1B8
330
1DB32
100
AcDbEntity
  8
SUNPOU
100
AcDbCircle
 10
5382.758536769063
 20
2001.291251548638
 30
0.0
 40
7.5
100
AcDbArc
 50
270.0
 51
90.0
  0
ARC
  5
1E1B9
330
1DB32
100
AcDbEntity
  8
SUNPOU
100
AcDbCircle
 10
5382.758536769063
 20
2201.291251548639
 30
0.0
 40
7.5
100
AcDbArc
 50
270.0
 51
90.0
  0
ARC
  5
1E1BA
330
1DB32
100
AcDbEntity
  8
SUNPOU
100
AcDbCircle
 10
5382.758536769063
 20
2201.291251548639
 30
0.0
 40
7.5
100
AcDbArc
 50
90.0
 51
270.0
  0
LINE
  5
1E1BB
330
1DB32
100
AcDbEntity
  8
HIKIDASHI
100
AcDbLine
 10
14492.67402130158
 20
5443.624456902274
 30
0.0
 11
14838.89717245742
 21
5644.216827798818
 31
0.0
1001
ACAD
1000
DSTYLE
1002
{
1070
   147
1040
1.5
1070
    77
1070
     0
1002
}
  0
LINE
  5
1E1BC
330
1DB32
100
AcDbEntity
  8
HIKIDASHI
100
AcDbLine
 10
14482.64777882812
 20
5460.929787348794
 30
0.0
 11
14388.84203862246
 21
5383.46700206148
 31
0.0
  0
LINE
  5
1E1BD
330
1DB32
100
AcDbEntity
  8
HIKIDASHI
100
AcDbLine
 10
14388.84203862246
 20
5383.46700206148
 30
0.0
 11
14502.70026377506
 21
5426.319126455751
 31
0.0
  0
SOLID
  5
1E1BE
330
1DB32
100
AcDbEntity
  8
HIKIDASHI
100
AcDbTrace
 10
14482.64777882812
 20
5460.929787348794
 30
0.0
 11
14502.70026377506
 21
5426.319126455751
 31
0.0
 12
14388.84203862246
 22
5383.46700206148
 32
0.0
 13
14388.84203862246
 23
5383.46700206148
 33
0.0
  0
LINE
  5
1E1BF
330
1DB32
100
AcDbEntity
  8
HIKIDASHI
100
AcDbLine
 10
14502.70026377506
 20
5426.319126455751
 30
0.0
 11
14482.64777882812
 21
5460.929787348794
 31
0.0
  0
LINE
  5
1E1C0
330
1DB32
100
AcDbEntity
  8
HIKIDASHI
100
AcDbLine
 10
14201.53510639718
 20
4338.377583304003
 30
0.0
 11
15030.25641748321
 21
4617.159667611448
 31
0.0
1001
ACAD
1000
DSTYLE
1002
{
1070
   147
1040
1.5
1070
    77
1070
     0
1002
}
  0
LINE
  5
1E1C1
330
1DB32
100
AcDbEntity
  8
HIKIDASHI
100
AcDbLine
 10
14195.15825130168
 20
4357.33373584325
 30
0.0
 11
14087.79819116171
 21
4300.116452731061
 31
0.0
  0
LINE
  5
1E1C2
330
1DB32
100
AcDbEntity
  8
HIKIDASHI
100
AcDbLine
 10
14087.79819116171
 20
4300.116452731061
 30
0.0
 11
14207.91196149266
 21
4319.421430764759
 31
0.0
  0
SOLID
  5
1E1C3
330
1DB32
100
AcDbEntity
  8
HIKIDASHI
100
AcDbTrace
 10
14195.15825130168
 20
4357.33373584325
 30
0.0
 11
14207.91196149266
 21
4319.421430764759
 31
0.0
 12
14087.79819116171
 22
4300.116452731061
 32
0.0
 13
14087.79819116171
 23
4300.116452731061
 33
0.0
  0
LINE
  5
1E1C4
330
1DB32
100
AcDbEntity
  8
HIKIDASHI
100
AcDbLine
 10
14207.91196149266
 20
4319.421430764759
 30
0.0
 11
14195.15825130168
 21
4357.33373584325
 31
0.0
  0
LINE
  5
1E1C5
330
1DB32
100
AcDbEntity
  8
HIKIDASHI
100
AcDbLine
 10
13930.45562312972
 20
4072.559677091416
 30
0.0
 11
13326.16538104217
 21
4415.210032245346
 31
0.0
1001
ACAD
1000
DSTYLE
1002
{
1070
   147
1040
1.5
1070
    77
1070
     0
1002
}
  0
LINE
  5
1E1C6
330
1DB32
100
AcDbEntity
  8
HIKIDASHI
100
AcDbLine
 10
13920.59059474582
 20
4055.161941175938
 30
0.0
 11
14034.84203862259
 21
4013.369506787967
 31
0.0
  0
LINE
  5
1E1C7
330
1DB32
100
AcDbEntity
  8
HIKIDASHI
100
AcDbLine
 10
14034.84203862259
 20
4013.369506787967
 30
0.0
 11
13940.32065151364
 21
4089.957413006895
 31
0.0
  0
SOLID
  5
1E1C8
330
1DB32
100
AcDbEntity
  8
HIKIDASHI
100
AcDbTrace
 10
13920.59059474582
 20
4055.161941175938
 30
0.0
 11
13940.32065151364
 21
4089.957413006895
 31
0.0
 12
14034.84203862259
 22
4013.369506787967
 32
0.0
 13
14034.84203862259
 23
4013.369506787967
 33
0.0
  0
LINE
  5
1E1C9
330
1DB32
100
AcDbEntity
  8
HIKIDASHI
100
AcDbLine
 10
13940.32065151364
 20
4089.957413006895
 30
0.0
 11
13920.59059474582
 21
4055.161941175938
 31
0.0
  0
LINE
  5
1E1CA
330
1DB32
100
AcDbEntity
  8
HIKIDASHI
100
AcDbLine
 10
13679.33338137823
 20
3803.642274952152
 30
0.0
 11
13440.19061942224
 21
3971.590527492045
 31
0.0
1001
ACAD
1000
DSTYLE
1002
{
1070
   147
1040
1.5
1070
    77
1070
     0
1002
}
  0
LINE
  5
1E1CB
330
1DB32
100
AcDbEntity
  8
HIKIDASHI
100
AcDbLine
 10
13667.83896206972
 20
3787.275286079413
 30
0.0
 11
13777.53531461465
 21
3734.675759101127
 31
0.0
  0
LINE
  5
1E1CC
330
1DB32
100
AcDbEntity
  8
HIKIDASHI
100
AcDbLine
 10
13777.53531461465
 20
3734.675759101127
 30
0.0
 11
13690.82780068674
 21
3820.009263824889
 31
0.0
  0
SOLID
  5
1E1CD
330
1DB32
100
AcDbEntity
  8
HIKIDASHI
100
AcDbTrace
 10
13667.83896206972
 20
3787.275286079413
 30
0.0
 11
13690.82780068674
 21
3820.009263824889
 31
0.0
 12
13777.53531461465
 22
3734.675759101127
 32
0.0
 13
13777.53531461465
 23
3734.675759101127
 33
0.0
  0
LINE
  5
1E1CE
330
1DB32
100
AcDbEntity
  8
HIKIDASHI
100
AcDbLine
 10
13690.82780068674
 20
3820.009263824889
 30
0.0
 11
13667.83896206972
 21
3787.275286079413
 31
0.0
  0
LINE
  5
1E1CF
330
1DB32
100
AcDbEntity
  8
HIKIDASHI
100
AcDbLine
 10
3481.611359455065
 20
4200.94850878354
 30
0.0
 11
3236.003257992255
 21
4356.407073822178
 31
0.0
1001
ACAD
1000
DSTYLE
1002
{
1070
   147
1040
1.5
1070
    77
1070
     0
1002
}
  0
LINE
  5
1E1D0
330
1DB32
100
AcDbEntity
  8
HIKIDASHI
100
AcDbLine
 10
3470.914896695961
 20
4184.049228194028
 30
0.0
 11
3583.007042992147
 21
4136.76973222892
 31
0.0
  0
LINE
  5
1E1D1
330
1DB32
100
AcDbEntity
  8
HIKIDASHI
100
AcDbLine
 10
3583.007042992147
 20
4136.76973222892
 30
0.0
 11
3492.307822214169
 21
4217.847789373055
 31
0.0
  0
SOLID
  5
1E1D2
330
1DB32
100
AcDbEntity
  8
HIKIDASHI
100
AcDbTrace
 10
3470.914896695961
 20
4184.049228194028
 30
0.0
 11
3492.307822214169
 21
4217.847789373055
 31
0.0
 12
3583.007042992147
 22
4136.76973222892
 32
0.0
 13
3583.007042992147
 23
4136.76973222892
 33
0.0
  0
LINE
  5
1E1D3
330
1DB32
100
AcDbEntity
  8
HIKIDASHI
100
AcDbLine
 10
3492.307822214169
 20
4217.847789373055
 30
0.0
 11
3470.914896695961
 21
4184.049228194028
 31
0.0
  0
LINE
  5
1E1D4
330
1DB32
100
AcDbEntity
  8
HIKIDASHI
100
AcDbLine
 10
3251.563129816243
 20
2490.288063171345
 30
0.0
 11
2353.470305496507
 21
2713.930740029555
 31
0.0
1001
ACAD
1000
DSTYLE
1002
{
1070
   147
1040
1.5
1070
    77
1070
     0
1002
}
  0
LINE
  5
1E1D5
330
1DB32
100
AcDbEntity
  8
HIKIDASHI
100
AcDbLine
 10
3246.730327879126
 20
2470.880744308693
 30
0.0
 11
3368.007042992147
 21
2461.291251548639
 31
0.0
  0
LINE
  5
1E1D6
330
1DB32
100
AcDbEntity
  8
HIKIDASHI
100
AcDbLine
 10
3368.007042992147
 20
2461.291251548639
 30
0.0
 11
3256.395931753362
 21
2509.695382033996
 31
0.0
  0
SOLID
  5
1E1D7
330
1DB32
100
AcDbEntity
  8
HIKIDASHI
100
AcDbTrace
 10
3246.730327879126
 20
2470.880744308693
 30
0.0
 11
3256.395931753362
 21
2509.695382033996
 31
0.0
 12
3368.007042992147
 22
2461.291251548639
 32
0.0
 13
3368.007042992147
 23
2461.291251548639
 33
0.0
  0
LINE
  5
1E1D8
330
1DB32
100
AcDbEntity
  8
HIKIDASHI
100
AcDbLine
 10
3256.395931753362
 20
2509.695382033996
 30
0.0
 11
3246.730327879126
 21
2470.880744308693
 31
0.0
  0
LINE
  5
1E1D9
330
1DB32
100
AcDbEntity
  8
HIKIDASHI
100
AcDbLine
 10
8803.375327231455
 20
4200.94850878354
 30
0.0
 11
8557.767225768643
 21
4356.407073822178
 31
0.0
1001
ACAD
1000
DSTYLE
1002
{
1070
   147
1040
1.5
1070
    77
1070
     0
1002
}
  0
LINE
  5
1E1DA
330
1DB32
100
AcDbEntity
  8
HIKIDASHI
100
AcDbLine
 10
8792.678864472348
 20
4184.049228194028
 30
0.0
 11
8904.771010768534
 21
4136.76973222892
 31
0.0
  0
LINE
  5
1E1DB
330
1DB32
100
AcDbEntity
  8
HIKIDASHI
100
AcDbLine
 10
8904.771010768534
 20
4136.76973222892
 30
0.0
 11
8814.071789990554
 21
4217.847789373055
 31
0.0
  0
SOLID
  5
1E1DC
330
1DB32
100
AcDbEntity
  8
HIKIDASHI
100
AcDbTrace
 10
8792.678864472348
 20
4184.049228194028
 30
0.0
 11
8814.071789990554
 21
4217.847789373055
 31
0.0
 12
8904.771010768534
 22
4136.76973222892
 32
0.0
 13
8904.771010768534
 23
4136.76973222892
 33
0.0
  0
LINE
  5
1E1DD
330
1DB32
100
AcDbEntity
  8
HIKIDASHI
100
AcDbLine
 10
8814.071789990554
 20
4217.847789373055
 30
0.0
 11
8792.678864472348
 21
4184.049228194028
 31
0.0
  0
LINE
  5
1E1DE
330
1DB32
100
AcDbEntity
  8
HIKIDASHI
100
AcDbLine
 10
8575.830766293055
 20
2498.942555495089
 30
0.0
 11
7925.234273272884
 21
2713.930740029555
 31
0.0
1001
ACAD
1000
DSTYLE
1002
{
1070
   147
1040
1.5
1070
    77
1070
     0
1002
}
  0
LINE
  5
1E1DF
330
1DB32
100
AcDbEntity
  8
HIKIDASHI
100
AcDbLine
 10
8569.555548968647
 20
2479.952514749175
 30
0.0
 11
8689.771010768534
 21
2461.291251548639
 31
0.0
  0
LINE
  5
1E1E0
330
1DB32
100
AcDbEntity
  8
HIKIDASHI
100
AcDbLine
 10
8689.771010768534
 20
2461.291251548639
 30
0.0
 11
8582.105983617463
 21
2517.932596241002
 31
0.0
  0
SOLID
  5
1E1E1
330
1DB32
100
AcDbEntity
  8
HIKIDASHI
100
AcDbTrace
 10
8569.555548968647
 20
2479.952514749175
 30
0.0
 11
8582.105983617463
 21
2517.932596241002
 31
0.0
 12
8689.771010768534
 22
2461.291251548639
 32
0.0
 13
8689.771010768534
 23
2461.291251548639
 33
0.0
  0
LINE
  5
1E1E2
330
1DB32
100
AcDbEntity
  8
HIKIDASHI
100
AcDbLine
 10
8582.105983617463
 20
2517.932596241002
 30
0.0
 11
8569.555548968647
 21
2479.952514749175
 31
0.0
  0
TEXT
  5
1E1FD
330
1DB32
100
AcDbEntity
  8
SUNPOU
100
AcDbText
 10
1231.886273195752
 20
5734.682759307248
 30
0.0
 40
119.9991666724536
  1
地耐力   　　　 以上,コンクリート設計基準強度   　　　 以上
 41
0.9
  7
01
100
AcDbText
  0
TEXT
  5
1E1FE
330
1DB32
100
AcDbEntity
  8
SUNPOU
100
AcDbText
 10
1231.886273195752
 20
5528.968473592988
 30
0.0
 40
119.9991666724536
  1
基準風速   　　 , 地表面粗度区分
  7
01
100
AcDbText
  0
TEXT
  5
1E1FF
330
1DB32
100
AcDbEntity
  8
SUNPOU
100
AcDbText
 10
1876.904178082669
 20
5528.968473592988
 30
0.0
 40
119.9991666724536
  1
34 m/s
 41
0.6700000000000001
  7
01
100
AcDbText
  0
TEXT
  5
1E200
330
1DB32
100
AcDbEntity
  8
SUNPOU
100
AcDbText
 10
1057.801434907439
 20
5987.021429235202
 30
0.0
 40
120.0
  1
<下記条件での参考図>
  7
01
 72
     4
 11
1842.944292050296
 21
6047.021429235202
 31
0.0
100
AcDbText
  0
TEXT
  5
1E201
330
1DB32
100
AcDbEntity
  8
SUNPOU
100
AcDbText
 10
1637.160731632877
 20
5734.682759307248
 30
0.0
 40
119.9991666724536
  1
50  N/m
 41
0.6700000000000001
  7
01
100
AcDbText
  0
ARC
  5
1E202
330
1DB32
100
AcDbEntity
  8
SUNPOU
100
AcDbCircle
 10
1435.830638405361
 20
5686.39932389637
 30
0.0
 40
300.0
100
AcDbArc
 50
148.3472725285868
 51
211.6527274714131
  0
TEXT
  5
1E203
330
1DB32
100
AcDbEntity
  8
SUNPOU
100
AcDbText
 10
1818.276002014147
 20
5734.682759307248
 30
0.0
 40
95.99933333796291
  1
K
 41
0.6700000000000001
  7
01
100
AcDbText
  0
TEXT
  5
1E204
330
1DB32
100
AcDbEntity
  8
SUNPOU
100
AcDbText
 10
2175.129544318672
 20
5801.600661117216
 30
0.0
 40
61.7138571458333
  1
2
 41
0.6700000000000001
  7
00
100
AcDbText
  0
LINE
  5
1E205
330
1DB32
100
AcDbEntity
  8
SUNPOU
100
AcDbLine
 10
3620.973688617933
 20
5640.291625191352
 30
0.0
 11
3695.973688617935
 21
5640.291625191352
 31
0.0
  0
LINE
  5
1E206
330
1DB32
100
AcDbEntity
  8
SUNPOU
100
AcDbLine
 10
3620.973688617933
 20
5528.968473592988
 30
0.0
 11
3695.973688617935
 21
5528.968473592988
 31
0.0
  0
LINE
  5
1E207
330
1DB32
100
AcDbEntity
  8
SUNPOU
100
AcDbLine
 10
3635.973688617933
 20
5528.968473592988
 30
0.0
 11
3635.973688617933
 21
5640.291625191352
 31
0.0
  0
LINE
  5
1E208
330
1DB32
100
AcDbEntity
  8
SUNPOU
100
AcDbLine
 10
3658.473688617933
 20
5528.968473592988
 30
0.0
 11
3658.473688617933
 21
5640.291625191352
 31
0.0
  0
LINE
  5
1E209
330
1DB32
100
AcDbEntity
  8
SUNPOU
100
AcDbLine
 10
3680.973688617935
 20
5528.968473592988
 30
0.0
 11
3680.973688617935
 21
5640.291625191352
 31
0.0
  0
TEXT
  5
1E20A
330
1DB32
100
AcDbEntity
  8
SUNPOU
100
AcDbText
 10
4124.559184990332
 20
5734.682759307248
 30
0.0
 40
119.9991666724536
  1
18
 41
0.6700000000000001
  7
01
100
AcDbText
  0
TEXT
  5
1E20B
330
1DB32
100
AcDbEntity
  8
SUNPOU
100
AcDbText
 10
4305.6744553716
 20
5734.682759307248
 30
0.0
 40
119.9991666724536
  1
N/mm
 41
0.6700000000000001
  7
01
100
AcDbText
  0
TEXT
  5
1E20C
330
1DB32
100
AcDbEntity
  8
SUNPOU
100
AcDbText
 10
4711.62709808011
 20
5801.600661117216
 30
0.0
 40
61.7138571458333
  1
2
 41
0.6700000000000001
  7
00
100
AcDbText
  0
ARC
  5
1E20D
330
1DB32
100
AcDbEntity
  8
SUNPOU
100
AcDbCircle
 10
4855.054440323849
 20
5686.39932389637
 30
0.0
 40
300.0
100
AcDbArc
 50
328.3472725285868
 51
31.6527274714132
  0
TEXT
  5
1E20E
330
1DB32
100
AcDbEntity
  8
SUNPOU
100
AcDbText
 10
2180.744741867592
 20
6213.43168564546
 30
0.0
 40
123.076923076923
  1
（ S = 　　  ）
 41
0.6700000000000001
  7
00
 11
2180.744741867592
 21
6197.021429235203
 31
0.0
100
AcDbText
 73
     1
  0
TEXT
  5
1E20F
330
1DB32
100
AcDbEntity
  8
SUNPOU
100
AcDbText
 10
1224.94429205029
 20
6197.021429235203
 30
0.0
 40
160.0
  1
基礎断面図
  7
01
 72
     4
 11
1678.277625383623
 21
6277.021429235203
 31
0.0
100
AcDbText
  0
TEXT
  5
1E210
330
1DB32
100
AcDbEntity
  8
SUNPOU
100
AcDbText
 10
2607.015011005036
 20
6234.765018978794
 30
0.0
 40
98.46153846153846
  1
1
 41
0.6700000000000001
  7
00
 11
2607.015011005036
 21
6221.636813850588
 31
0.0
100
AcDbText
 73
     1
  0
TEXT
  5
1E211
330
1DB32
100
AcDbEntity
  8
SUNPOU
100
AcDbText
 10
2756.822438031352
 20
6185.534249748021
 30
0.0
 40
98.46153846153846
  1
20
 41
0.6700000000000001
  7
00
 11
2756.822438031352
 21
6172.406044619816
 31
0.0
100
AcDbText
 73
     1
  0
TEXT
  5
1E212
330
1DB32
100
AcDbEntity
  8
SUNPOU
100
AcDbText
 10
2671.556514092186
 20
6210.149634363408
 30
0.0
 40
98.46153846153846
  1
/
 41
0.6700000000000001
  7
00
 11
2671.556514092186
 21
6197.021429235203
 31
0.0
100
AcDbText
 73
     1
  0
ENDSEC
  0
SECTION
  2
OBJECTS
  0
DICTIONARY
  5
1DB20
330
0
100
AcDbDictionary
281
     1
  3
ACAD_GROUP
350
1DB21
  3
ACAD_LAYOUT
350
1DB2D
  3
ACAD_MLINESTYLE
350
1DB2A
  3
ACAD_PLOTSETTINGS
350
1DB2C
  3
ACAD_PLOTSTYLENAME
350
1DB22
  3
AcDbVariableDictionary
350
1E213
  0
DICTIONARY
  5
1DB21
102
{ACAD_REACTORS
330
1DB20
102
}
330
1DB20
100
AcDbDictionary
281
     1
  0
DICTIONARY
  5
1DB2D
102
{ACAD_REACTORS
330
1DB20
102
}
330
1DB20
100
AcDbDictionary
281
     1
  3
Model
350
1DB35
  3
ﾚｲｱｳﾄ1
350
1DB31
  0
DICTIONARY
  5
1DB2A
102
{ACAD_REACTORS
330
1DB20
102
}
330
1DB20
100
AcDbDictionary
281
     1
  3
Standard
350
1DB2B
  0
DICTIONARY
  5
1DB2C
102
{ACAD_REACTORS
330
1DB20
102
}
330
1DB20
100
AcDbDictionary
281
     1
  0
ACDBDICTIONARYWDFLT
  5
1DB22
102
{ACAD_REACTORS
330
1DB20
102
}
330
1DB20
100
AcDbDictionary
281
     1
  3
Normal
350
1DB23
100
AcDbDictionaryWithDefault
340
1DB23
  0
DICTIONARY
  5
1E213
102
{ACAD_REACTORS
330
1DB20
102
}
330
1DB20
100
AcDbDictionary
281
     1
  3
DIMASSOC
350
1E214
  0
LAYOUT
  5
1DB35
102
{ACAD_REACTORS
330
1DB2D
102
}
330
1DB2D
100
AcDbPlotSettings
  1

  2
Muratec V-1200 Is@Web Printer
  4

  6

 40
0.0
 41
0.0
 42
0.0
 43
0.0
 44
0.0
 45
0.0
 46
0.0
 47
0.0
 48
0.0
 49
0.0
140
0.0
141
0.0
142
1.0
143
1.0
 70
  1712
 72
     0
 73
     0
 74
     0
  7

 75
     0
147
1.0
148
0.0
149
0.0
100
AcDbLayout
  1
Model
 70
     1
 71
     0
 10
0.0
 20
0.0
 11
12.0
 21
9.0
 12
0.0
 22
0.0
 32
0.0
 14
0.0
 24
0.0
 34
0.0
 15
0.0
 25
0.0
 35
0.0
146
0.0
 13
0.0
 23
0.0
 33
0.0
 16
1.0
 26
0.0
 36
0.0
 17
0.0
 27
1.0
 37
0.0
 76
     0
330
1DB32
  0
LAYOUT
  5
1DB31
102
{ACAD_REACTORS
330
1DB2D
102
}
330
1DB2D
100
AcDbPlotSettings
  1

  2
Muratec V-1200 Is@Web Printer
  4

  6

 40
0.0
 41
0.0
 42
0.0
 43
0.0
 44
0.0
 45
0.0
 46
0.0
 47
0.0
 48
0.0
 49
0.0
140
0.0
141
0.0
142
1.0
143
1.0
 70
   688
 72
     0
 73
     0
 74
     5
  7

 75
    16
147
1.0
148
0.0
149
0.0
100
AcDbLayout
  1
ﾚｲｱｳﾄ1
 70
     0
 71
     1
 10
0.0
 20
0.0
 11
12.0
 21
9.0
 12
0.0
 22
0.0
 32
0.0
 14
1.000000000000000E+20
 24
1.000000000000000E+20
 34
1.000000000000000E+20
 15
-1.000000000000000E+20
 25
-1.000000000000000E+20
 35
-1.000000000000000E+20
146
0.0
 13
0.0
 23
0.0
 33
0.0
 16
1.0
 26
0.0
 36
0.0
 17
0.0
 27
1.0
 37
0.0
 76
     0
330
1DB2E
  0
MLINESTYLE
  5
1DB2B
102
{ACAD_REACTORS
330
1DB2A
102
}
330
1DB2A
100
AcDbMlineStyle
  2
STANDARD
 70
     0
  3

 62
   256
 51
90.0
 52
90.0
 71
     2
 49
0.5
 62
   256
  6
BYLAYER
 49
-0.5
 62
   256
  6
BYLAYER
  0
ACDBPLACEHOLDER
  5
1DB23
102
{ACAD_REACTORS
330
1DB22
102
}
330
1DB22
  0
DICTIONARYVAR
  5
1E214
102
{ACAD_REACTORS
330
1E213
102
}
330
1E213
100
DictionaryVariables
280
     0
  1
1
  0
ENDSEC
  0
EOF
