  0
SECTION
  2
HEADER
  9
$ACADVER
  1
AC1009
  9
$INSBASE
 10
267.0
 20
194.90000000000001
 30
0.0
  9
$EXTMIN
 10
369.52516647233278
 20
81.845411874639467
 30
-0.0000000000112498
  9
$EXTMAX
 10
8191.3330271273526
 20
5690.0225965469399
 30
0.0000000000002956
  9
$LIMMIN
 10
0.0
 20
0.0
  9
$LIMMAX
 10
8400.0
 20
5940.0
  9
$ORTHOMODE
 70
     0
  9
$REGENMODE
 70
     1
  9
$FILLMODE
 70
     1
  9
$QTEXTMODE
 70
     0
  9
$MIRRTEXT
 70
     0
  9
$DRAGMODE
 70
     2
  9
$LTSCALE
 40
20.0
  9
$OSMODE
 70
  3071
  9
$ATTMODE
 70
     1
  9
$TEXTSIZE
 40
0.2
  9
$TRACEWID
 40
0.05
  9
$TEXTSTYLE
  7
00
  9
$CLAYER
  8
SUNPOU
  9
$CELTYPE
  6
BYLAYER
  9
$CECOLOR
 62
   256
  9
$DIMSCALE
 40
20.0
  9
$DIMASZ
 40
0.5
  9
$DIMEXO
 40
1.0
  9
$DIMDLI
 40
7.0
  9
$DIMRND
 40
0.0
  9
$DIMDLE
 40
3.0
  9
$DIMEXE
 40
1.5
  9
$DIMTP
 40
0.0
  9
$DIMTM
 40
0.0
  9
$DIMTXT
 40
3.0
  9
$DIMCEN
 40
0.0
  9
$DIMTSZ
 40
0.0
  9
$DIMTOL
 70
     0
  9
$DIMLIM
 70
     0
  9
$DIMTIH
 70
     0
  9
$DIMTOH
 70
     0
  9
$DIMSE1
 70
     0
  9
$DIMSE2
 70
     0
  9
$DIMTAD
 70
     1
  9
$DIMZIN
 70
     8
  9
$DIMBLK
  1
DOT
  9
$DIMASO
 70
     1
  9
$DIMSHO
 70
     0
  9
$DIMPOST
  1

  9
$DIMAPOST
  1

  9
$DIMALT
 70
     0
  9
$DIMALTD
 70
     2
  9
$DIMALTF
 40
25.399999999999999
  9
$DIMLFAC
 40
1.0
  9
$DIMTOFL
 70
     1
  9
$DIMTVP
 40
0.0
  9
$DIMTIX
 70
     0
  9
$DIMSOXD
 70
     0
  9
$DIMSAH
 70
     1
  9
$DIMBLK1
  1
DOT
  9
$DIMBLK2
  1
DOT
  9
$DIMSTYLE
  2
SUNPOU
  9
$DIMCLRD
 70
   256
  9
$DIMCLRE
 70
   256
  9
$DIMCLRT
 70
   256
  9
$DIMTFAC
 40
1.0
  9
$DIMGAP
 40
1.5
  9
$LUNITS
 70
     2
  9
$LUPREC
 70
     2
  9
$SKETCHINC
 40
0.1
  9
$FILLETRAD
 40
0.0
  9
$AUNITS
 70
     0
  9
$AUPREC
 70
     0
  9
$MENU
  1
A:\TIGER\MENU\TIGER
  9
$ELEVATION
 40
0.0
  9
$PELEVATION
 40
0.0
  9
$THICKNESS
 40
0.0
  9
$LIMCHECK
 70
     0
  9
$BLIPMODE
 70
     1
  9
$CHAMFERA
 40
0.0
  9
$CHAMFERB
 40
0.0
  9
$SKPOLY
 70
     0
  9
$TDCREATE
 40
2450266.5710648149
  9
$TDUPDATE
 40
2456399.463058623
  9
$TDINDWG
 40
0.0850537269
  9
$TDUSRTIMER
 40
0.0850533681
  9
$USRTIMER
 70
     1
  9
$ANGBASE
 50
0.0
  9
$ANGDIR
 70
     0
  9
$PDMODE
 70
     0
  9
$PDSIZE
 40
0.0
  9
$PLINEWID
 40
0.0
  9
$COORDS
 70
     1
  9
$SPLFRAME
 70
     0
  9
$SPLINETYPE
 70
     6
  9
$SPLINESEGS
 70
     8
  9
$ATTDIA
 70
     0
  9
$ATTREQ
 70
     1
  9
$HANDLING
 70
     1
  9
$HANDSEED
  5
148DC
  9
$SURFTAB1
 70
     6
  9
$SURFTAB2
 70
     6
  9
$SURFTYPE
 70
     6
  9
$SURFU
 70
     6
  9
$SURFV
 70
     6
  9
$UCSNAME
  2

  9
$UCSORG
 10
0.0
 20
0.0
 30
0.0
  9
$UCSXDIR
 10
1.0
 20
0.0
 30
0.0
  9
$UCSYDIR
 10
0.0
 20
1.0
 30
0.0
  9
$PUCSNAME
  2

  9
$PUCSORG
 10
0.0
 20
0.0
 30
0.0
  9
$PUCSXDIR
 10
1.0
 20
0.0
 30
0.0
  9
$PUCSYDIR
 10
0.0
 20
1.0
 30
0.0
  9
$USERI1
 70
     3
  9
$USERI2
 70
     0
  9
$USERI3
 70
     0
  9
$USERI4
 70
     0
  9
$USERI5
 70
  1103
  9
$USERR1
 40
0.0
  9
$USERR2
 40
1.0
  9
$USERR3
 40
0.0
  9
$USERR4
 40
0.0
  9
$USERR5
 40
0.0
  9
$WORLDVIEW
 70
     1
  9
$SHADEDGE
 70
     3
  9
$SHADEDIF
 70
    70
  9
$TILEMODE
 70
     1
  9
$MAXACTVP
 70
    16
  9
$PLIMCHECK
 70
     0
  9
$PEXTMIN
 10
1.0000000000000000E+020
 20
1.0000000000000000E+020
 30
1.0000000000000000E+020
  9
$PEXTMAX
 10
-1.0000000000000000E+020
 20
-1.0000000000000000E+020
 30
-1.0000000000000000E+020
  9
$PLIMMIN
 10
0.0
 20
0.0
  9
$PLIMMAX
 10
12.0
 20
9.0
  9
$UNITMODE
 70
     0
  9
$VISRETAIN
 70
     0
  9
$PLINEGEN
 70
     1
  9
$PSLTSCALE
 70
     0
  0
ENDSEC
  0
SECTION
  2
TABLES
  0
TABLE
  2
VPORT
 70
     1
  0
VPORT
  2
*ACTIVE
 70
     0
 10
0.0
 20
0.0
 11
1.0
 21
1.0
 12
4200.0
 22
2970.0
 13
0.0
 23
0.0
 14
1.0
 24
1.0
 15
0.0
 25
0.0
 16
0.0
 26
0.0
 36
1.0
 17
0.0
 27
0.0
 37
0.0
 40
5991.0601719197712
 41
1.6944045911047341
 42
50.0
 43
0.0
 44
0.0
 50
0.0
 51
0.0
 71
     0
 72
 10000
 73
     1
 74
     0
 75
     0
 76
     0
 77
     0
 78
     0
  0
ENDTAB
  0
TABLE
  2
LTYPE
 70
     6
  0
LTYPE
  2
CONTINUOUS
 70
     0
  3
実線
 72
    65
 73
     0
 40
0.0
  0
LTYPE
  2
PHANTOM2
 70
     0
  3
Phantom (.5x) ___ _ _ ___ _ _ ___ _ _ ___ _ _
 72
    65
 73
     6
 40
1.25
 49
0.625
 49
-0.125
 49
0.125
 49
-0.125
 49
0.125
 49
-0.125
  0
LTYPE
  2
HIDE-S
 70
     0
  3

 72
    65
 73
     2
 40
1.0
 49
0.5
 49
-0.5
  0
LTYPE
  2
1PL-M
 70
     0
  3

 72
    65
 73
     4
 40
15.0
 49
12.0
 49
-1.0
 49
1.0
 49
-1.0
  0
LTYPE
  2
1PL-S
 70
     0
  3

 72
    65
 73
     4
 40
4.0
 49
2.5
 49
-0.5
 49
0.5
 49
-0.5
  0
LTYPE
  2
KAKURE-05
 70
     0
  3

 72
    65
 73
     2
 40
1.0
 49
0.5
 49
-0.5
  0
ENDTAB
  0
TABLE
  2
LAYER
 70
    26
  0
LAYER
  2
0
 70
     0
 62
     7
  6
CONTINUOUS
  0
LAYER
  2
SUNPOU
 70
     0
 62
     4
  6
CONTINUOUS
  0
LAYER
  2
U1
 70
     0
 62
     3
  6
CONTINUOUS
  0
LAYER
  2
U2
 70
     0
 62
     4
  6
CONTINUOUS
  0
LAYER
  2
U3
 70
     0
 62
     6
  6
CONTINUOUS
  0
LAYER
  2
HIDE-S1
 70
     0
 62
     6
  6
HIDE-S
  0
LAYER
  2
1PL-S1
 70
     0
 62
     6
  6
1PL-S
  0
LAYER
  2
1PL-S2
 70
     0
 62
     1
  6
1PL-S
  0
LAYER
  2
1PL-M1
 70
     0
 62
     6
  6
1PL-M
  0
LAYER
  2
M1
 70
     0
 62
     4
  6
CONTINUOUS
  0
LAYER
  2
MARU_BOO
 70
     0
 62
     3
  6
CONTINUOUS
  0
LAYER
  2
PURETO
 70
     0
 62
     4
  6
CONTINUOUS
  0
LAYER
  2
TUNAGI_BO
 70
     0
 62
     3
  6
CONTINUOUS
  0
LAYER
  2
DODAI_A
 70
     0
 62
     3
  6
CONTINUOUS
  0
LAYER
  2
DODAI_T
 70
     0
 62
     4
  6
CONTINUOUS
  0
LAYER
  2
NAME
 70
     0
 62
    20
  6
CONTINUOUS
  0
LAYER
  2
YODOROGO
 70
     0
 62
   130
  6
CONTINUOUS
  0
LAYER
  2
WAKUSEN-02
 70
     0
 62
    90
  6
CONTINUOUS
  0
LAYER
  2
WAKUSEN-03
 70
     0
 62
   130
  6
CONTINUOUS
  0
LAYER
  2
WAKUMOJI-01
 70
     0
 62
   130
  6
CONTINUOUS
  0
LAYER
  2
FILENAME
 70
     0
 62
     7
  6
CONTINUOUS
  0
LAYER
  2
KETA_M
 70
     0
 62
     4
  6
CONTINUOUS
  0
LAYER
  2
LW1
 70
     0
 62
     4
  6
CONTINUOUS
  0
LAYER
  2
LM2
 70
     0
 62
     2
  6
CONTINUOUS
  0
ENDTAB
  0
TABLE
  2
STYLE
 70
     6
  0
STYLE
  2
STANDARD
 70
     0
 40
3.0
 41
1.0
 50
0.0
 71
     0
 42
0.2
  3
ROMANS
  4
EXTFONT
  0
STYLE
  2
00
 70
     0
 40
0.0
 41
0.6666666666666666
 50
0.0
 71
     0
 42
0.2
  3
ROMANS
  4
BIGFONT
  0
STYLE
  2
01
 70
     0
 40
3.0
 41
1.0
 50
0.0
 71
     0
 42
0.2
  3
ROMANS
  4
BIGFONT
  0
STYLE
  2
WAKUMOJI
 70
     0
 40
3.0
 41
1.0
 50
0.0
 71
     0
 42
0.2
  3
SIMPLEX
  4
BIGFONT
  0
STYLE
  2
FILENAME
 70
     0
 40
50.0
 41
1.0
 50
0.0
 71
     0
 42
50.0
  3
romans.shx
  4
bigfont.shx
  0
ENDTAB
  0
TABLE
  2
VIEW
 70
     0
  0
ENDTAB
  0
TABLE
  2
UCS
 70
     0
  0
ENDTAB
  0
TABLE
  2
APPID
 70
     5
  0
APPID
  2
ACAD
 70
     0
  0
APPID
  2
ACADANNOTATIVE
 70
     0
  0
APPID
  2
AUTOCAD_POSTSCRIPT_FIGURE
 70
     0
  0
APPID
  2
ACAD_NAV_VCDISPLAY
 70
     0
  0
APPID
  2
ACAD_MLEADERVER
 70
     0
  0
ENDTAB
  0
TABLE
  2
DIMSTYLE
 70
     3
  0
DIMSTYLE
  2
SUNPOU
 70
     0
  3

  4

  5

  6

  7

 40
20.0
 41
0.5
 42
1.0
 43
7.0
 44
1.5
 45
0.0
 46
3.0
 47
0.0
 48
0.0
140
3.0
141
0.0
142
0.0
143
25.399999999999999
144
1.0
145
0.0
146
1.0
147
1.5
 71
     0
 72
     0
 73
     0
 74
     0
 75
     0
 76
     0
 77
     1
 78
     8
170
     0
171
     2
172
     1
173
     1
174
     0
175
     0
176
   256
177
   256
178
   256
  0
ENDTAB
  0
ENDSEC
  0
SECTION
  2
BLOCKS
  0
BLOCK
  8
0
  2
$MODEL_SPACE
 70
     0
 10
0.0
 20
0.0
 30
0.0
  3
$MODEL_SPACE
  1

  0
ENDBLK
  5
14212
  8
0
  0
BLOCK
 67
     1
  8
0
  2
$PAPER_SPACE
 70
     0
 10
0.0
 20
0.0
 30
0.0
  3
$PAPER_SPACE
  1

  0
ENDBLK
  5
1420E
 67
     1
  8
0
  0
BLOCK
  8
0
  2
DOT
 70
     0
 10
0.0
 20
0.0
 30
0.0
  3
DOT
  1

  0
POLYLINE
  5
1254E
  8
0
  6
BYBLOCK
 62
     0
 66
     1
 10
0.0
 20
0.0
 30
0.0
 70
     1
 40
0.5
 41
0.5
  0
VERTEX
  5
1489D
  8
0
  6
BYBLOCK
 62
     0
 10
-0.25
 20
0.0
 30
0.0
 42
1.0
  0
VERTEX
  5
1489E
  8
0
  6
BYBLOCK
 62
     0
 10
0.25
 20
0.0
 30
0.0
 42
1.0
  0
SEQEND
  5
1489F
  8
0
  6
BYBLOCK
 62
     0
  0
LINE
  5
12552
  8
0
  6
BYBLOCK
 62
     0
 10
-0.5
 20
0.0
 30
0.0
 11
-1.0
 21
0.0
 31
0.0
  0
ENDBLK
  5
12553
  8
0
  0
ENDSEC
  0
SECTION
  2
ENTITIES
  0
TEXT
  5
12B7A
  8
SUNPOU
 10
2663.0416665714279
 20
5049.6974299999983
 30
0.0
 40
60.0
  1
4
 41
0.666667
  7
00
 72
     2
 11
2697.3273979999999
 21
5049.6974299999983
 31
0.0
  0
TEXT
  5
12B7B
  8
SUNPOU
 10
2827.2965349999999
 20
5049.6974299999983
 30
0.0
 40
60.0
  1
ホ－ルインアンカ－
  7
01
 72
     2
 11
3451.2965349999999
 21
5049.6974299999983
 31
0.0
  0
LINE
  5
12B7C
  8
SUNPOU
 10
2643.9694730000001
 20
5019.6974299999993
 30
0.0
 11
3478.8837630000012
 21
5019.6974299999993
 31
0.0
  0
TEXT
  5
12B7D
  8
SUNPOU
 10
2765.5587230000001
 20
5049.8867529999998
 30
0.0
 40
59.999999000000003
  1
-
 41
0.6700000000000002
  7
00
  0
TEXT
  5
12B7E
  8
SUNPOU
 10
2715.8665780000001
 20
5063.0307640000001
 30
0.0
 40
59.999999000000003
  1
ｹ
  7
01
  0
TEXT
  5
12B7F
  8
SUNPOU
 10
2677.2196560000002
 20
4929.6974300000002
 30
0.0
 40
60.0
  1
M8 \U+00D7 50
 41
0.666667
  7
00
  0
LINE
  5
12B80
  8
SUNPOU
 10
2494.3541380000001
 20
4760.5560690000002
 30
0.0
 11
2643.9694730000001
 21
5019.6974299999993
 31
0.0
  0
LINE
  5
12B81
  8
1PL-S1
 10
2462.1041380000001
 20
1872.5738289999999
 30
0.0
 11
2462.1041380000001
 21
1886.8738289999999
 31
0.0
  0
LINE
  5
12B82
  8
1PL-S1
 10
3662.1041380000001
 20
1872.5738289999999
 30
0.0
 11
3662.1041380000001
 21
1886.8738289999999
 31
0.0
  0
LINE
  5
12B83
  8
DODAI_A
 10
4226.1041380000006
 20
4191.6974299999983
 30
0.0
 11
3898.1041380000001
 21
4191.6974299999983
 31
0.0
  0
LINE
  5
12B84
  8
DODAI_A
 10
4236.1041379999988
 20
4221.6974299999983
 30
0.0
 11
4288.1041379999997
 21
4221.6974299999983
 31
0.0
  0
LINE
  5
12B85
  8
DODAI_A
 10
4288.1041379999997
 20
4191.6974299999983
 30
0.0
 11
4236.1041379999988
 21
4191.6974299999983
 31
0.0
  0
LINE
  5
12B86
  8
DODAI_A
 10
4298.1041380000024
 20
4221.6974299999983
 30
0.0
 11
4460.1041380000006
 21
4221.6974299999983
 31
0.0
  0
LINE
  5
12B87
  8
DODAI_A
 10
4298.1041380000024
 20
4281.6974299999983
 30
0.0
 11
4415.6041379999988
 21
4281.6974299999983
 31
0.0
  0
LINE
  5
12B88
  8
DODAI_A
 10
4236.1041379999988
 20
4281.6974299999983
 30
0.0
 11
4288.1041379999997
 21
4281.6974299999983
 31
0.0
  0
LINE
  5
12B89
  8
DODAI_A
 10
4236.1041379999988
 20
4629.6974299999983
 30
0.0
 11
4288.1041379999997
 21
4629.6974299999983
 31
0.0
  0
LINE
  5
12B8A
  8
DODAI_A
 10
4298.1041380000024
 20
4629.6974299999983
 30
0.0
 11
4415.6041379999988
 21
4629.6974299999983
 31
0.0
  0
LINE
  5
12B8B
  8
DODAI_A
 10
4288.1041379999997
 20
4719.6974299999993
 30
0.0
 11
4236.1041379999988
 21
4719.6974299999993
 31
0.0
  0
LINE
  5
12B8C
  8
DODAI_A
 10
4298.1041380000024
 20
4689.6974299999983
 30
0.0
 11
4460.1041380000006
 21
4689.6974299999983
 31
0.0
  0
LINE
  5
12B8D
  8
DODAI_A
 10
4236.1041379999988
 20
4689.6974299999983
 30
0.0
 11
4288.1041379999997
 21
4689.6974299999983
 31
0.0
  0
LINE
  5
12B8E
  8
DODAI_A
 10
4226.1041380000006
 20
4719.6974299999993
 30
0.0
 11
3898.1041380000001
 21
4719.6974299999993
 31
0.0
  0
TEXT
  5
12B90
  8
SUNPOU
 10
2005.961252285713
 20
5189.6974300000002
 30
0.0
 40
60.0
  1
798
 41
0.666667
  7
00
 72
     1
 11
2063.1041379999988
 21
5219.6974300000002
 31
0.0
 73
     2
  0
LINE
  5
12B93
  8
SUNPOU
 10
2452.1041380000011
 20
5159.6974299999983
 30
0.0
 11
1674.1041379999999
 21
5159.6974299999983
 31
0.0
  0
LINE
  5
12B94
  8
SUNPOU
 10
1664.1041379999999
 20
4739.6974299999983
 30
0.0
 11
1664.1041379999999
 21
5189.6974299999983
 31
0.0
  0
LINE
  5
12B95
  8
SUNPOU
 10
2462.1041380000001
 20
4735.1974299999983
 30
0.0
 11
2462.1041380000001
 21
5189.6974299999983
 31
0.0
  0
TEXT
  5
12B96
  8
SUNPOU
 10
2983.0564794285719
 20
5189.6974300000002
 30
0.0
 40
60.0
  1
1200
 41
0.666667
  7
00
 72
     1
 11
3062.1041380000001
 21
5219.6974300000002
 31
0.0
 73
     2
  0
LINE
  5
12B99
  8
SUNPOU
 10
3652.1041380000001
 20
5159.6974299999983
 30
0.0
 11
2472.1041380000011
 21
5159.6974299999983
 31
0.0
  0
LINE
  5
12B9A
  8
SUNPOU
 10
2462.1041380000001
 20
4735.1974299999983
 30
0.0
 11
2462.1041380000001
 21
5189.6974299999983
 31
0.0
  0
LINE
  5
12B9B
  8
SUNPOU
 10
3662.1041380000001
 20
4735.1974299999983
 30
0.0
 11
3662.1041380000001
 21
5189.6974299999983
 31
0.0
  0
TEXT
  5
12B9C
  8
SUNPOU
 10
4003.9612522857151
 20
5189.6974300000002
 30
0.0
 40
60.0
  1
798
 41
0.666667
  7
00
 72
     1
 11
4061.1041380000001
 21
5219.6974300000002
 31
0.0
 73
     2
  0
LINE
  5
12B9F
  8
SUNPOU
 10
4450.1041379999988
 20
5159.6974299999983
 30
0.0
 11
3672.1041380000001
 21
5159.6974299999983
 31
0.0
  0
LINE
  5
12BA0
  8
SUNPOU
 10
3662.1041380000001
 20
4735.1974299999983
 30
0.0
 11
3662.1041380000001
 21
5189.6974299999983
 31
0.0
  0
LINE
  5
12BA1
  8
SUNPOU
 10
4460.1041380000006
 20
4739.6974299999983
 30
0.0
 11
4460.1041380000006
 21
5189.6974299999983
 31
0.0
  0
CIRCLE
  5
12BA2
  8
DODAI_A
 10
3662.1041380000001
 20
4206.6974299999983
 30
0.0
 40
4.5
  0
LINE
  5
12BA3
  8
1PL-S1
 10
3651.6041380000011
 20
4206.6974299999983
 30
0.0
 11
3672.6041380000001
 21
4206.6974299999983
 31
0.0
  0
LINE
  5
12BA4
  8
1PL-S1
 10
3662.1041380000001
 20
4217.1974299999974
 30
0.0
 11
3662.1041380000001
 21
4196.1974299999983
 31
0.0
  0
LINE
  5
12BA5
  8
1PL-S1
 10
2451.6041380000001
 20
4206.6974299999983
 30
0.0
 11
2472.6041380000001
 21
4206.6974299999983
 31
0.0
  0
CIRCLE
  5
12BA6
  8
DODAI_A
 10
2462.1041380000001
 20
4206.6974299999983
 30
0.0
 40
4.5
  0
LINE
  5
12BA7
  8
1PL-S1
 10
2462.1041380000001
 20
4217.1974299999974
 30
0.0
 11
2462.1041380000001
 21
4196.1974299999983
 31
0.0
  0
CIRCLE
  5
12BA8
  8
DODAI_A
 10
2462.1041380000001
 20
4704.6974299999983
 30
0.0
 40
4.5
  0
LINE
  5
12BA9
  8
1PL-S1
 10
2451.6041380000001
 20
4704.6974299999983
 30
0.0
 11
2472.6041380000001
 21
4704.6974299999983
 31
0.0
  0
LINE
  5
12BAA
  8
1PL-S1
 10
2462.1041380000001
 20
4694.1974299999983
 30
0.0
 11
2462.1041380000001
 21
4715.1974299999993
 31
0.0
  0
LINE
  5
12BAB
  8
1PL-S1
 10
3662.1041380000001
 20
4694.1974299999983
 30
0.0
 11
3662.1041380000001
 21
4715.1974299999993
 31
0.0
  0
TEXT
  5
12BAC
  8
SUNPOU
 10
4301.1041079999977
 20
3478.593437
 30
0.0
 40
60.0
  1
198
 41
0.666667
  7
00
 72
     1
 11
4361.1041379999988
 21
3508.593437
 31
0.0
 73
     2
  0
LINE
  5
12BAF
  8
SUNPOU
 10
4272.1041380000024
 20
3448.5934369999991
 30
0.0
 11
4450.1041379999988
 21
3448.5934369999991
 31
0.0
  0
LINE
  5
12BB0
  8
SUNPOU
 10
4460.1041380000006
 20
3468.593437
 30
0.0
 11
4460.1041380000006
 21
3478.593437
 31
0.0
  0
LINE
  5
12BB1
  8
SUNPOU
 10
4262.1041379999997
 20
3468.593437
 30
0.0
 11
4262.1041379999997
 21
3478.593437
 31
0.0
  0
LINE
  5
12BB2
  8
SUNPOU
 10
4252.1041379999988
 20
3448.5934369999991
 30
0.0
 11
3872.1041380000001
 21
3448.5934369999991
 31
0.0
  0
TEXT
  5
12BB3
  8
SUNPOU
 10
4004.9612522857142
 20
3478.593437
 30
0.0
 40
60.0
  1
400
 41
0.666667
  7
00
 72
     1
 11
4062.1041380000001
 21
3508.593437
 31
0.0
 73
     2
  0
LINE
  5
12BB4
  8
DODAI_A
 10
4236.1041379999988
 20
4719.6974299999993
 30
0.0
 11
4288.1041379999997
 21
4719.6974299999993
 31
0.0
  0
LINE
  5
12BB5
  8
1PL-S1
 10
4251.6041379999997
 20
4704.6974299999983
 30
0.0
 11
4272.6041380000006
 21
4704.6974299999983
 31
0.0
  0
CIRCLE
  5
12BB6
  8
DODAI_A
 10
4262.1041379999997
 20
4704.6974299999983
 30
0.0
 40
4.5
  0
LINE
  5
12BB7
  8
DODAI_A
 10
4236.1041379999988
 20
4689.6974299999983
 30
0.0
 11
4288.1041379999997
 21
4689.6974299999983
 31
0.0
  0
LINE
  5
12BB8
  8
DODAI_A
 10
4236.1041379999988
 20
4629.6974299999983
 30
0.0
 11
4288.1041379999997
 21
4629.6974299999983
 31
0.0
  0
LINE
  5
12BB9
  8
DODAI_A
 10
4236.1041379999988
 20
4281.6974299999983
 30
0.0
 11
4288.1041379999997
 21
4281.6974299999983
 31
0.0
  0
LINE
  5
12BBA
  8
DODAI_A
 10
4236.1041379999988
 20
4221.6974299999983
 30
0.0
 11
4288.1041379999997
 21
4221.6974299999983
 31
0.0
  0
LINE
  5
12BBB
  8
DODAI_A
 10
4236.1041379999988
 20
4191.6974299999983
 30
0.0
 11
4288.1041379999997
 21
4191.6974299999983
 31
0.0
  0
LINE
  5
12BBF
  8
SUNPOU
 10
4262.1041379999997
 20
3906.8258799999999
 30
0.0
 11
4262.1041379999997
 21
3418.593437
 31
0.0
  0
LINE
  5
12BC0
  8
SUNPOU
 10
4262.1041379999997
 20
3906.8258799999999
 30
0.0
 11
4262.1041379999997
 21
3418.593437
 31
0.0
  0
TEXT
  5
12BC7
  8
SUNPOU
 10
4730.1041379999979
 20
4277.5545442857119
 30
0.0
 40
60.0
  1
800
 50
90.0
 41
0.666667
  7
00
 72
     1
 11
4700.1041379999988
 21
4334.6974299999983
 31
0.0
 73
     2
  0
LINE
  5
12BCA
  8
SUNPOU
 10
4760.1041379999988
 20
4724.6974299999983
 30
0.0
 11
4760.1041379999988
 21
3944.6974300000002
 31
0.0
  0
LINE
  5
12BCB
  8
SUNPOU
 10
4346.5590259999999
 20
3934.6974300000002
 30
0.0
 11
4790.1041380000024
 21
3934.6974300000002
 31
0.0
  0
LINE
  5
12BCC
  8
SUNPOU
 10
4740.1041380000024
 20
4734.6974299999983
 30
0.0
 11
4730.1041379999997
 21
4734.6974299999983
 31
0.0
  0
TEXT
  5
12BCD
  8
SUNPOU
 10
4870.1041379999997
 20
4155.6497714285697
 30
0.0
 40
60.0
  1
1000
 50
90.0
 41
0.666667
  7
00
 72
     1
 11
4840.1041379999997
 21
4234.6974299999983
 31
0.0
 73
     2
  0
LINE
  5
12BD0
  8
SUNPOU
 10
4900.1041379999988
 20
4724.6974299999983
 30
0.0
 11
4900.1041379999988
 21
3744.6974300000002
 31
0.0
  0
LINE
  5
12BD1
  8
SUNPOU
 10
3940.4476669999999
 20
3734.6974300000002
 30
0.0
 11
4930.1041379999997
 21
3734.6974300000002
 31
0.0
  0
LINE
  5
12BD2
  8
SUNPOU
 10
4346.5590259999999
 20
4734.6974299999983
 30
0.0
 11
4930.1041379999997
 21
4734.6974299999983
 31
0.0
  0
CIRCLE
  5
12BD3
  8
DODAI_A
 10
2262.1041380000001
 20
4704.6974299999983
 30
0.0
 40
4.5
  0
LINE
  5
12BD4
  8
1PL-S1
 10
2251.6041380000001
 20
4704.6974299999983
 30
0.0
 11
2272.6041380000001
 21
4704.6974299999983
 31
0.0
  0
LINE
  5
12BD5
  8
1PL-S1
 10
3651.6041380000011
 20
4704.6974299999983
 30
0.0
 11
3672.6041380000001
 21
4704.6974299999983
 31
0.0
  0
CIRCLE
  5
12BD6
  8
DODAI_A
 10
3662.1041380000001
 20
4704.6974299999983
 30
0.0
 40
4.5
  0
TEXT
  5
12BD7
  8
SUNPOU
 10
1703.104108
 20
3478.593437
 30
0.0
 40
60.0
  1
198
 41
0.666667
  7
00
 72
     1
 11
1763.1041379999999
 21
3508.593437
 31
0.0
 73
     2
  0
LINE
  5
12BDA
  8
SUNPOU
 10
1852.1041379999999
 20
3448.5934369999991
 30
0.0
 11
1674.1041379999999
 21
3448.5934369999991
 31
0.0
  0
LINE
  5
12BDB
  8
SUNPOU
 10
1664.1041379999999
 20
3468.593437
 30
0.0
 11
1664.1041379999999
 21
3478.593437
 31
0.0
  0
LINE
  5
12BDC
  8
SUNPOU
 10
1862.1041379999999
 20
3906.8258799999999
 30
0.0
 11
1862.1041379999999
 21
3418.593437
 31
0.0
  0
TEXT
  5
12BDD
  8
SUNPOU
 10
2004.9612522857151
 20
3478.593437
 30
0.0
 40
60.0
  1
400
 41
0.666667
  7
00
 72
     1
 11
2062.1041380000001
 21
3508.593437
 31
0.0
 73
     2
  0
LINE
  5
12BE0
  8
SUNPOU
 10
2252.1041379999988
 20
3448.5934369999991
 30
0.0
 11
1872.1041379999999
 21
3448.5934369999991
 31
0.0
  0
LINE
  5
12BE1
  8
SUNPOU
 10
1862.1041379999999
 20
3906.8258799999999
 30
0.0
 11
1862.1041379999999
 21
3418.593437
 31
0.0
  0
LINE
  5
12BE2
  8
SUNPOU
 10
2262.1041380000001
 20
3703.593437
 30
0.0
 11
2262.1041380000001
 21
3418.593437
 31
0.0
  0
TEXT
  5
12BE3
  8
SUNPOU
 10
2404.9612522857151
 20
3478.593437
 30
0.0
 40
60.0
  1
400
 41
0.666667
  7
00
 72
     1
 11
2462.1041380000001
 21
3508.593437
 31
0.0
 73
     2
  0
LINE
  5
12BE6
  8
SUNPOU
 10
2652.1041380000001
 20
3448.5934369999991
 30
0.0
 11
2272.1041380000001
 21
3448.5934369999991
 31
0.0
  0
LINE
  5
12BE7
  8
SUNPOU
 10
2262.1041380000001
 20
3703.593437
 30
0.0
 11
2262.1041380000001
 21
3418.593437
 31
0.0
  0
LINE
  5
12BE8
  8
SUNPOU
 10
2662.1041380000001
 20
3906.8258799999999
 30
0.0
 11
2662.1041380000001
 21
3418.593437
 31
0.0
  0
TEXT
  5
12BE9
  8
SUNPOU
 10
2804.9612522857142
 20
3478.593437
 30
0.0
 40
60.0
  1
400
 41
0.666667
  7
00
 72
     1
 11
2862.1041380000001
 21
3508.593437
 31
0.0
 73
     2
  0
LINE
  5
12BEC
  8
SUNPOU
 10
3052.1041380000011
 20
3448.5934369999991
 30
0.0
 11
2672.1041380000001
 21
3448.5934369999991
 31
0.0
  0
LINE
  5
12BED
  8
SUNPOU
 10
2662.1041380000001
 20
3906.8258799999999
 30
0.0
 11
2662.1041380000001
 21
3418.593437
 31
0.0
  0
LINE
  5
12BEE
  8
SUNPOU
 10
3062.1041380000001
 20
3703.593437
 30
0.0
 11
3062.1041380000001
 21
3418.593437
 31
0.0
  0
TEXT
  5
12BEF
  8
SUNPOU
 10
3204.9612522857151
 20
3478.593437
 30
0.0
 40
60.0
  1
400
 41
0.666667
  7
00
 72
     1
 11
3262.1041380000001
 21
3508.593437
 31
0.0
 73
     2
  0
LINE
  5
12BF2
  8
SUNPOU
 10
3452.1041380000001
 20
3448.5934369999991
 30
0.0
 11
3072.1041380000001
 21
3448.5934369999991
 31
0.0
  0
LINE
  5
12BF3
  8
SUNPOU
 10
3062.1041380000001
 20
3703.593437
 30
0.0
 11
3062.1041380000001
 21
3418.593437
 31
0.0
  0
LINE
  5
12BF4
  8
SUNPOU
 10
3462.1041380000001
 20
3906.8258799999999
 30
0.0
 11
3462.1041380000001
 21
3418.593437
 31
0.0
  0
TEXT
  5
12BF5
  8
SUNPOU
 10
3604.9612522857151
 20
3478.593437
 30
0.0
 40
60.0
  1
400
 41
0.666667
  7
00
 72
     1
 11
3662.1041380000001
 21
3508.593437
 31
0.0
 73
     2
  0
LINE
  5
12BF8
  8
SUNPOU
 10
3852.1041380000001
 20
3448.5934369999991
 30
0.0
 11
3472.1041380000011
 21
3448.5934369999991
 31
0.0
  0
LINE
  5
12BF9
  8
SUNPOU
 10
3462.1041380000001
 20
3906.8258799999999
 30
0.0
 11
3462.1041380000001
 21
3418.593437
 31
0.0
  0
LINE
  5
12BFA
  8
SUNPOU
 10
3862.1041380000001
 20
3703.593437
 30
0.0
 11
3862.1041380000001
 21
3418.593437
 31
0.0
  0
LINE
  5
12BFC
  8
SUNPOU
 10
3862.1041380000001
 20
3703.593437
 30
0.0
 11
3862.1041380000001
 21
3418.593437
 31
0.0
  0
TEXT
  5
12BFD
  8
SUNPOU
 10
2985.9136237142852
 20
3338.593437
 30
0.0
 40
60.0
  1
2796
 41
0.666667
  7
00
 72
     4
 11
3062.1041380000001
 21
3368.593437
 31
0.0
  0
LINE
  5
12C00
  8
SUNPOU
 10
4450.1041379999988
 20
3308.5934370000009
 30
0.0
 11
1674.1041379999999
 21
3308.5934370000009
 31
0.0
  0
LINE
  5
12C01
  8
SUNPOU
 10
1664.1041379999999
 20
4171.6974300000002
 30
0.0
 11
1664.1041379999999
 21
3278.593437
 31
0.0
  0
LINE
  5
12C02
  8
SUNPOU
 10
4460.1041380000006
 20
4171.6974300000002
 30
0.0
 11
4460.1041380000006
 21
3278.593437
 31
0.0
  0
LINE
  5
12C03
  8
DODAI_A
 10
1836.1041379999999
 20
4719.6974299999993
 30
0.0
 11
1888.1041379999999
 21
4719.6974299999993
 31
0.0
  0
LINE
  5
12C04
  8
DODAI_A
 10
2636.1041380000001
 20
4719.6974299999993
 30
0.0
 11
2688.1041380000001
 21
4719.6974299999993
 31
0.0
  0
LINE
  5
12C05
  8
DODAI_A
 10
1836.1041379999999
 20
4629.6974299999983
 30
0.0
 11
1888.1041379999999
 21
4629.6974299999983
 31
0.0
  0
LINE
  5
12C06
  8
DODAI_A
 10
1836.1041379999999
 20
4689.6974299999983
 30
0.0
 11
1888.1041379999999
 21
4689.6974299999983
 31
0.0
  0
LINE
  5
12C07
  8
DODAI_A
 10
1836.1041379999999
 20
4281.6974299999983
 30
0.0
 11
1888.1041379999999
 21
4281.6974299999983
 31
0.0
  0
LINE
  5
12C08
  8
DODAI_A
 10
1836.1041379999999
 20
4191.6974299999983
 30
0.0
 11
1888.1041379999999
 21
4191.6974299999983
 31
0.0
  0
LINE
  5
12C09
  8
DODAI_A
 10
1836.1041379999999
 20
4221.6974299999983
 30
0.0
 11
1888.1041379999999
 21
4221.6974299999983
 31
0.0
  0
LINE
  5
12C0A
  8
DODAI_A
 10
1664.1041379999999
 20
4709.6974299999983
 30
0.0
 11
1664.1041379999999
 21
4688.6974299999983
 31
0.0
  0
LINE
  5
12C0B
  8
DODAI_T
 10
1702.4041380000001
 20
4688.6974299999983
 30
0.0
 11
1662.6041379999999
 21
4688.6974299999983
 31
0.0
  0
LINE
  5
12C0C
  8
DODAI_T
 10
1707.4041380000001
 20
4629.6974299999983
 30
0.0
 11
1707.4041380000001
 21
4683.6974299999983
 31
0.0
  0
CIRCLE
  5
12C0D
  8
DODAI_T
 10
1684.6041379999999
 20
4654.6974299999974
 30
0.0
 40
4.0
  0
ARC
  5
12C0E
  8
DODAI_T
 10
1702.4041380000001
 20
4683.6974299999983
 30
0.0
 40
5.0
 50
0.0
 51
90.0
  0
LINE
  5
12C0F
  8
DODAI_T
 10
1708.6041379999999
 20
4629.6974299999983
 30
0.0
 11
1707.4041380000001
 21
4629.6974299999983
 31
0.0
  0
ARC
  5
12C10
  8
DODAI_A
 10
1674.1041379999999
 20
4709.6974299999983
 30
0.0
 40
10.0
 50
90.0
 51
180.0
  0
CIRCLE
  5
12C11
  8
DODAI_T
 10
1684.6041379999999
 20
4256.6974299999983
 30
0.0
 40
4.0
  0
LINE
  5
12C12
  8
DODAI_T
 10
1708.6041379999999
 20
4281.6974299999983
 30
0.0
 11
1707.4041380000001
 21
4281.6974299999983
 31
0.0
  0
ARC
  5
12C13
  8
DODAI_A
 10
1674.1041379999999
 20
4201.6974299999983
 30
0.0
 40
10.0
 50
180.0
 51
270.0
  0
LINE
  5
12C14
  8
DODAI_A
 10
1664.1041379999999
 20
4201.6974299999983
 30
0.0
 11
1664.1041379999999
 21
4222.6974299999993
 31
0.0
  0
LINE
  5
12C15
  8
DODAI_T
 10
1702.4041380000001
 20
4222.6974299999993
 30
0.0
 11
1662.6041379999999
 21
4222.6974299999993
 31
0.0
  0
ARC
  5
12C16
  8
DODAI_T
 10
1702.4041380000001
 20
4227.6974299999983
 30
0.0
 40
5.0
 50
270.0
 51
0.0
  0
LINE
  5
12C17
  8
DODAI_T
 10
1707.4041380000001
 20
4281.6974299999983
 30
0.0
 11
1707.4041380000001
 21
4227.6974299999983
 31
0.0
  0
LINE
  5
12C18
  8
DODAI_T
 10
1708.6041379999999
 20
4281.6974299999983
 30
0.0
 11
1708.6041379999999
 21
4629.6974299999983
 31
0.0
  0
LINE
  5
12C19
  8
DODAI_T
 10
1662.6041379999999
 20
4688.6974299999983
 30
0.0
 11
1662.6041379999999
 21
4222.6974299999993
 31
0.0
  0
LINE
  5
12C1A
  8
DODAI_A
 10
1674.1041379999999
 20
4719.6974299999993
 30
0.0
 11
1826.104137999999
 21
4719.6974299999993
 31
0.0
  0
LINE
  5
12C1B
  8
DODAI_A
 10
1826.104137999999
 20
4689.6974299999983
 30
0.0
 11
1664.1041379999999
 21
4689.6974299999983
 31
0.0
  0
LINE
  5
12C1C
  8
DODAI_A
 10
1826.104137999999
 20
4629.6974299999983
 30
0.0
 11
1708.6041379999999
 21
4629.6974299999983
 31
0.0
  0
LINE
  5
12C1D
  8
DODAI_A
 10
1826.104137999999
 20
4281.6974299999983
 30
0.0
 11
1708.6041379999999
 21
4281.6974299999983
 31
0.0
  0
LINE
  5
12C1E
  8
DODAI_A
 10
1826.104137999999
 20
4221.6974299999983
 30
0.0
 11
1664.1041379999999
 21
4221.6974299999983
 31
0.0
  0
LINE
  5
12C1F
  8
DODAI_A
 10
1674.1041379999999
 20
4191.6974299999983
 30
0.0
 11
1826.104137999999
 21
4191.6974299999983
 31
0.0
  0
LINE
  5
12C20
  8
DODAI_A
 10
2236.1041379999988
 20
4281.6974299999983
 30
0.0
 11
2288.1041380000001
 21
4281.6974299999983
 31
0.0
  0
LINE
  5
12C21
  8
DODAI_A
 10
2236.1041379999988
 20
4221.6974299999983
 30
0.0
 11
2288.1041380000001
 21
4221.6974299999983
 31
0.0
  0
LINE
  5
12C22
  8
DODAI_A
 10
2236.1041379999988
 20
4191.6974299999983
 30
0.0
 11
2288.1041380000001
 21
4191.6974299999983
 31
0.0
  0
LINE
  5
12C23
  8
DODAI_A
 10
2253.5647170000002
 20
4719.6974299999993
 30
0.0
 11
2270.5914250000001
 21
4719.6974299999993
 31
0.0
  0
LINE
  5
12C24
  8
DODAI_A
 10
2236.1041379999988
 20
4689.6974299999983
 30
0.0
 11
2288.1041380000001
 21
4689.6974299999983
 31
0.0
  0
LINE
  5
12C25
  8
DODAI_A
 10
2236.1041379999988
 20
4629.6974299999983
 30
0.0
 11
2288.1041380000001
 21
4629.6974299999983
 31
0.0
  0
LINE
  5
12C26
  8
DODAI_A
 10
2226.1041380000001
 20
4191.6974299999983
 30
0.0
 11
1898.1041379999999
 21
4191.6974299999983
 31
0.0
  0
LINE
  5
12C27
  8
DODAI_A
 10
1898.1041379999999
 20
4221.6974299999983
 30
0.0
 11
2226.1041380000001
 21
4221.6974299999983
 31
0.0
  0
LINE
  5
12C28
  8
DODAI_A
 10
1898.1041379999999
 20
4281.6974299999983
 30
0.0
 11
2226.1041380000001
 21
4281.6974299999983
 31
0.0
  0
LINE
  5
12C29
  8
DODAI_A
 10
1901.1041379999999
 20
4629.6974299999983
 30
0.0
 11
2226.1041380000001
 21
4629.6974299999983
 31
0.0
  0
LINE
  5
12C2A
  8
DODAI_A
 10
1898.1041379999999
 20
4689.6974299999983
 30
0.0
 11
2226.1041380000001
 21
4689.6974299999983
 31
0.0
  0
LINE
  5
12C2B
  8
DODAI_A
 10
2226.1041380000001
 20
4719.6974299999993
 30
0.0
 11
1898.1041379999999
 21
4719.6974299999993
 31
0.0
  0
LINE
  5
12C2C
  8
DODAI_A
 10
2636.1041380000001
 20
4281.6974299999983
 30
0.0
 11
2688.1041380000001
 21
4281.6974299999983
 31
0.0
  0
LINE
  5
12C2D
  8
DODAI_A
 10
2636.1041380000001
 20
4221.6974299999983
 30
0.0
 11
2688.1041380000001
 21
4221.6974299999983
 31
0.0
  0
LINE
  5
12C2E
  8
DODAI_A
 10
2636.1041380000001
 20
4191.6974299999983
 30
0.0
 11
2688.1041380000001
 21
4191.6974299999983
 31
0.0
  0
LINE
  5
12C2F
  8
DODAI_A
 10
2636.1041380000001
 20
4689.6974299999983
 30
0.0
 11
2688.1041380000001
 21
4689.6974299999983
 31
0.0
  0
LINE
  5
12C30
  8
DODAI_A
 10
2636.1041380000001
 20
4629.6974299999983
 30
0.0
 11
2688.1041380000001
 21
4629.6974299999983
 31
0.0
  0
LINE
  5
12C31
  8
DODAI_A
 10
2626.1041380000001
 20
4191.6974299999983
 30
0.0
 11
2298.1041380000001
 21
4191.6974299999983
 31
0.0
  0
LINE
  5
12C32
  8
DODAI_A
 10
2298.1041380000001
 20
4221.6974299999983
 30
0.0
 11
2626.1041380000001
 21
4221.6974299999983
 31
0.0
  0
LINE
  5
12C33
  8
DODAI_A
 10
2298.1041380000001
 20
4281.6974299999983
 30
0.0
 11
2626.1041380000001
 21
4281.6974299999983
 31
0.0
  0
LINE
  5
12C34
  8
DODAI_A
 10
2298.1041380000001
 20
4629.6974299999983
 30
0.0
 11
2626.1041380000001
 21
4629.6974299999983
 31
0.0
  0
LINE
  5
12C35
  8
DODAI_A
 10
2298.1041380000001
 20
4689.6974299999983
 30
0.0
 11
2626.1041380000001
 21
4689.6974299999983
 31
0.0
  0
LINE
  5
12C36
  8
DODAI_A
 10
2626.1041380000001
 20
4719.6974299999993
 30
0.0
 11
2298.1041380000001
 21
4719.6974299999993
 31
0.0
  0
LINE
  5
12C37
  8
DODAI_A
 10
3036.1041380000011
 20
4281.6974299999983
 30
0.0
 11
3088.1041380000001
 21
4281.6974299999983
 31
0.0
  0
LINE
  5
12C38
  8
DODAI_A
 10
3036.1041380000011
 20
4221.6974299999983
 30
0.0
 11
3088.1041380000001
 21
4221.6974299999983
 31
0.0
  0
LINE
  5
12C39
  8
DODAI_A
 10
3036.1041380000011
 20
4191.6974299999983
 30
0.0
 11
3088.1041380000001
 21
4191.6974299999983
 31
0.0
  0
LINE
  5
12C3A
  8
DODAI_A
 10
3053.5647170000002
 20
4719.6974299999993
 30
0.0
 11
3070.5914250000001
 21
4719.6974299999993
 31
0.0
  0
LINE
  5
12C3B
  8
DODAI_A
 10
3036.1041380000011
 20
4689.6974299999983
 30
0.0
 11
3088.1041380000001
 21
4689.6974299999983
 31
0.0
  0
LINE
  5
12C3C
  8
DODAI_A
 10
3036.1041380000011
 20
4629.6974299999983
 30
0.0
 11
3088.1041380000001
 21
4629.6974299999983
 31
0.0
  0
LINE
  5
12C3D
  8
DODAI_A
 10
3026.1041380000001
 20
4191.6974299999983
 30
0.0
 11
2698.1041380000001
 21
4191.6974299999983
 31
0.0
  0
LINE
  5
12C3E
  8
DODAI_A
 10
2698.1041380000001
 20
4221.6974299999983
 30
0.0
 11
3026.1041380000001
 21
4221.6974299999983
 31
0.0
  0
LINE
  5
12C3F
  8
DODAI_A
 10
2698.1041380000001
 20
4281.6974299999983
 30
0.0
 11
3026.1041380000001
 21
4281.6974299999983
 31
0.0
  0
LINE
  5
12C40
  8
DODAI_A
 10
2698.1041380000001
 20
4629.6974299999983
 30
0.0
 11
3026.1041380000001
 21
4629.6974299999983
 31
0.0
  0
LINE
  5
12C41
  8
DODAI_A
 10
2698.1041380000001
 20
4689.6974299999983
 30
0.0
 11
3026.1041380000001
 21
4689.6974299999983
 31
0.0
  0
LINE
  5
12C42
  8
DODAI_A
 10
3026.1041380000001
 20
4719.6974299999993
 30
0.0
 11
2698.1041380000001
 21
4719.6974299999993
 31
0.0
  0
LINE
  5
12C43
  8
DODAI_A
 10
3436.1041380000011
 20
4281.6974299999983
 30
0.0
 11
3488.1041380000001
 21
4281.6974299999983
 31
0.0
  0
LINE
  5
12C44
  8
DODAI_A
 10
3436.1041380000011
 20
4221.6974299999983
 30
0.0
 11
3488.1041380000001
 21
4221.6974299999983
 31
0.0
  0
LINE
  5
12C45
  8
DODAI_A
 10
3436.1041380000011
 20
4191.6974299999983
 30
0.0
 11
3488.1041380000001
 21
4191.6974299999983
 31
0.0
  0
LINE
  5
12C46
  8
DODAI_A
 10
3436.1041380000011
 20
4719.6974299999993
 30
0.0
 11
3488.1041380000001
 21
4719.6974299999993
 31
0.0
  0
LINE
  5
12C47
  8
DODAI_A
 10
3436.1041380000011
 20
4689.6974299999983
 30
0.0
 11
3488.1041380000001
 21
4689.6974299999983
 31
0.0
  0
LINE
  5
12C48
  8
DODAI_A
 10
3436.1041380000011
 20
4629.6974299999983
 30
0.0
 11
3488.1041380000001
 21
4629.6974299999983
 31
0.0
  0
LINE
  5
12C49
  8
DODAI_A
 10
3426.1041380000001
 20
4191.6974299999983
 30
0.0
 11
3098.1041380000001
 21
4191.6974299999983
 31
0.0
  0
LINE
  5
12C4A
  8
DODAI_A
 10
3098.1041380000001
 20
4221.6974299999983
 30
0.0
 11
3426.1041380000001
 21
4221.6974299999983
 31
0.0
  0
LINE
  5
12C4B
  8
DODAI_A
 10
3098.1041380000001
 20
4281.6974299999983
 30
0.0
 11
3426.1041380000001
 21
4281.6974299999983
 31
0.0
  0
LINE
  5
12C4C
  8
DODAI_A
 10
3098.1041380000001
 20
4629.6974299999983
 30
0.0
 11
3426.1041380000001
 21
4629.6974299999983
 31
0.0
  0
LINE
  5
12C4D
  8
DODAI_A
 10
3098.1041380000001
 20
4689.6974299999983
 30
0.0
 11
3426.1041380000001
 21
4689.6974299999983
 31
0.0
  0
LINE
  5
12C4E
  8
DODAI_A
 10
3426.1041380000001
 20
4719.6974299999993
 30
0.0
 11
3098.1041380000001
 21
4719.6974299999993
 31
0.0
  0
LINE
  5
12C4F
  8
DODAI_A
 10
3836.1041380000011
 20
4281.6974299999983
 30
0.0
 11
3888.1041380000001
 21
4281.6974299999983
 31
0.0
  0
LINE
  5
12C50
  8
DODAI_A
 10
3836.1041380000011
 20
4191.6974299999983
 30
0.0
 11
3888.1041380000001
 21
4191.6974299999983
 31
0.0
  0
LINE
  5
12C51
  8
DODAI_A
 10
3836.1041380000011
 20
4221.6974299999983
 30
0.0
 11
3888.1041380000001
 21
4221.6974299999983
 31
0.0
  0
LINE
  5
12C52
  8
DODAI_A
 10
3853.5647170000011
 20
4719.6974299999993
 30
0.0
 11
3870.5914250000001
 21
4719.6974299999993
 31
0.0
  0
LINE
  5
12C53
  8
DODAI_A
 10
3836.1041380000011
 20
4629.6974299999983
 30
0.0
 11
3888.1041380000001
 21
4629.6974299999983
 31
0.0
  0
LINE
  5
12C54
  8
DODAI_A
 10
3836.1041380000011
 20
4689.6974299999983
 30
0.0
 11
3888.1041380000001
 21
4689.6974299999983
 31
0.0
  0
LINE
  5
12C5F
  8
MARU_BOO
 10
5812.6040380000004
 20
2067.1922530000002
 30
0.0
 11
5854.2919490000004
 21
2077.6690749999998
 31
0.0
  0
LINE
  5
12C60
  8
MARU_BOO
  6
KAKURE-05
 10
5812.6040380000004
 20
2077.5032160000001
 30
0.0
 11
5802.6040380000013
 21
2074.9900600000001
 31
0.0
  0
LINE
  5
12C61
  8
MARU_BOO
 10
5802.6040380000013
 20
2074.9900600000001
 30
0.0
 11
5471.8542740000003
 21
1991.8674900000001
 31
0.0
  0
ARC
  5
12C62
  8
MARU_BOO
  6
KAKURE-05
 10
5481.6037249999999
 20
1953.0738289999999
 30
0.0
 40
40.0
 50
228.59037799999999
 51
270.0
  0
LINE
  5
12C63
  8
1PL-M1
 10
5807.6040380000004
 20
1953.0738289999999
 30
0.0
 11
5807.6040380000004
 21
2067.1922530000002
 31
0.0
  0
ARC
  5
12C64
  8
1PL-M1
 10
5772.6040380000004
 20
1953.0738289999999
 30
0.0
 40
35.0
 50
270.0
 51
0.0
  0
LINE
  5
12C65
  8
1PL-M1
 10
5481.6037249999999
 20
1918.0738289999999
 30
0.0
 11
5772.6040380000004
 21
1918.0738289999999
 31
0.0
  0
ARC
  5
12C66
  8
1PL-M1
 10
5481.6037249999999
 20
1953.0738289999999
 30
0.0
 40
35.0
 50
104.10716499999999
 51
270.0
  0
LINE
  5
12C67
  8
1PL-M1
 10
5853.0732680000001
 20
2082.5182829999999
 30
0.0
 11
5473.0729549999996
 21
1987.0182830000001
 31
0.0
  0
ARC
  5
12C68
  8
1PL-M1
 10
5861.6040380000022
 20
2048.5738289999999
 30
0.0
 40
35.0
 50
22.619865000000001
 51
104.10716499999999
  0
LINE
  5
12C69
  8
1PL-M1
 10
5909.2963460000001
 20
2025.11229
 30
0.0
 11
5893.9117299999998
 21
2062.035367
 31
0.0
  0
ARC
  5
12C6A
  8
1PL-M1
 10
5941.6040380000013
 20
2038.5738289999999
 30
0.0
 40
35.0
 50
202.619865
 51
326.18463000000008
  0
LINE
  5
12C6B
  8
1PL-M1
 10
6132.2461190000013
 20
2260.295384
 30
0.0
 11
5970.6832700000023
 21
2019.0956799999999
 31
0.0
  0
ARC
  5
12C6C
  8
1PL-M1
 10
6179.603724999999
 20
2228.5738289999999
 30
0.0
 40
57.0
 50
340.23308800000001
 51
146.18463
  0
LINE
  5
12C6D
  8
1PL-M1
 10
6163.6663699999999
 20
2015.683724
 30
0.0
 11
6233.2450699999999
 21
2209.2967410000001
 31
0.0
  0
ARC
  5
12C6E
  8
1PL-M1
 10
6196.6040380000004
 20
2003.846916
 30
0.0
 40
35.0
 50
160.23308800000001
 51
180.0
  0
LINE
  5
12C6F
  8
1PL-M1
 10
6161.6040380000013
 20
1894.6530780000001
 30
0.0
 11
6161.6040380000013
 21
2003.846916
 31
0.0
  0
LINE
  5
12C70
  8
MARU_BOO
 10
6168.3717509999997
 20
2013.9927520000001
 30
0.0
 11
6237.950452
 21
2207.6057689999998
 31
0.0
  0
ARC
  5
12C71
  8
MARU_BOO
 10
6196.6040380000004
 20
2003.846916
 30
0.0
 40
30.0
 50
160.23308800000001
 51
180.0
  0
LINE
  5
12C72
  8
MARU_BOO
 10
6166.6040380000004
 20
1913.0738289999999
 30
0.0
 11
6166.6040380000004
 21
2003.846916
 31
0.0
  0
LINE
  5
12C73
  8
MARU_BOO
 10
6156.6040380000013
 20
2003.846916
 30
0.0
 11
6156.6040380000013
 21
1913.0738289999999
 31
0.0
  0
ARC
  5
12C74
  8
MARU_BOO
 10
6196.6040380000004
 20
2003.846916
 30
0.0
 40
40.0
 50
160.23308800000001
 51
180.0
  0
LINE
  5
12C75
  8
MARU_BOO
 10
6228.5396890000002
 20
2210.9877139999999
 30
0.0
 11
6158.9609890000002
 21
2017.374697
 31
0.0
  0
ARC
  5
12C76
  8
MARU_BOO
 10
6179.603724999999
 20
2228.5738289999999
 30
0.0
 40
52.0
 50
340.23308800000001
 51
146.18463
  0
LINE
  5
12C77
  8
MARU_BOO
 10
5974.8374460000023
 20
2016.3130880000001
 30
0.0
 11
6136.4002950000013
 21
2257.512792
 31
0.0
  0
ARC
  5
12C78
  8
MARU_BOO
 10
5941.6040380000013
 20
2038.5738289999999
 30
0.0
 40
40.0
 50
202.619865
 51
326.18463000000008
  0
LINE
  5
12C79
  8
MARU_BOO
 10
5889.2963460000001
 20
2060.11229
 30
0.0
 11
5904.680961
 21
2023.1892130000001
 31
0.0
  0
ARC
  5
12C7A
  8
MARU_BOO
 10
5861.6040380000022
 20
2048.5738289999999
 30
0.0
 40
30.0
 50
22.619865000000001
 51
104.10716499999999
  0
LINE
  5
12C7B
  8
MARU_BOO
 10
5474.2916370000003
 20
1982.169075
 30
0.0
 11
5802.6040380000013
 21
2064.6790970000002
 31
0.0
  0
ARC
  5
12C7C
  8
MARU_BOO
 10
5481.6037249999999
 20
1953.0738289999999
 30
0.0
 40
30.0
 50
104.10716499999999
 51
270.0
  0
LINE
  5
12C7D
  8
MARU_BOO
 10
5772.6040380000004
 20
1923.0738289999999
 30
0.0
 11
5481.6037249999999
 21
1923.0738289999999
 31
0.0
  0
ARC
  5
12C7E
  8
MARU_BOO
 10
5772.6040380000004
 20
1953.0738289999999
 30
0.0
 40
30.0
 50
270.0
 51
0.0
  0
LINE
  5
12C7F
  8
MARU_BOO
 10
5802.6040380000013
 20
2064.6790970000002
 30
0.0
 11
5802.6040380000013
 21
1953.0738289999999
 31
0.0
  0
LINE
  5
12C80
  8
MARU_BOO
 10
5812.6040380000004
 20
1953.0738289999999
 30
0.0
 11
5812.6040380000004
 21
2067.1922530000002
 31
0.0
  0
ARC
  5
12C81
  8
MARU_BOO
 10
5772.6040380000004
 20
1953.0738289999999
 30
0.0
 40
40.0
 50
270.0
 51
0.0
  0
LINE
  5
12C82
  8
MARU_BOO
 10
5481.6037249999999
 20
1913.0738289999999
 30
0.0
 11
5772.6040380000004
 21
1913.0738289999999
 31
0.0
  0
ARC
  5
12C83
  8
MARU_BOO
 10
5481.6037249999999
 20
1953.0738289999999
 30
0.0
 40
40.0
 50
104.10716499999999
 51
228.59037799999999
  0
LINE
  5
12C84
  8
MARU_BOO
 10
5851.8545860000004
 20
2087.3674900000001
 30
0.0
 11
5812.6040380000004
 21
2077.5032160000001
 31
0.0
  0
ARC
  5
12C85
  8
MARU_BOO
 10
5861.6040380000022
 20
2048.5738289999999
 30
0.0
 40
40.0
 50
22.619865000000001
 51
104.10716499999999
  0
LINE
  5
12C86
  8
MARU_BOO
 10
5913.9117299999998
 20
2027.035367
 30
0.0
 11
5898.5271149999999
 21
2063.9584439999999
 31
0.0
  0
ARC
  5
12C87
  8
MARU_BOO
 10
5941.6040380000013
 20
2038.5738289999999
 30
0.0
 40
30.0
 50
202.619865
 51
326.18463000000008
  0
LINE
  5
12C88
  8
MARU_BOO
 10
6128.0919430000013
 20
2263.0779769999999
 30
0.0
 11
5966.5290940000023
 21
2021.878273
 31
0.0
  0
ARC
  5
12C89
  8
MARU_BOO
 10
6179.603724999999
 20
2228.5738289999999
 30
0.0
 40
62.0
 50
340.23308800000001
 51
146.18463
  0
ARC
  5
12C8A
  8
HIDE-S1
 10
6260.6037249999999
 20
2228.5738289999999
 30
0.0
 40
5.0
 50
90.0
 51
270.0
  0
ARC
  5
12C8B
  8
TUNAGI_BO
 10
6260.6037249999999
 20
2228.5738289999999
 30
0.0
 40
5.0
 50
270.0
 51
90.0
  0
LINE
  5
12C8C
  8
HIDE-S1
 10
6241.605587
 20
2223.5738289999999
 30
0.0
 11
6236.605587
 21
2223.5738289999999
 31
0.0
  0
LINE
  5
12C8D
  8
HIDE-S1
 10
6241.605587
 20
2233.5738289999999
 30
0.0
 11
6236.605587
 21
2233.5738289999999
 31
0.0
  0
CIRCLE
  5
12C8E
  8
HIDE-S1
 10
6236.605587
 20
2228.5738289999999
 30
0.0
 40
5.0
  0
LINE
  5
12C8F
  8
TUNAGI_BO
 10
6260.6037249999999
 20
2223.5738289999999
 30
0.0
 11
6241.4017839999997
 21
2223.5738289999999
 31
0.0
  0
LINE
  5
12C90
  8
TUNAGI_BO
 10
6260.6037249999999
 20
2233.5738289999999
 30
0.0
 11
6241.4017839999997
 21
2233.5738289999999
 31
0.0
  0
LINE
  5
12C91
  8
1PL-S1
 10
6224.9990619999999
 20
2228.5738289999999
 30
0.0
 11
6271.8412639999979
 21
2228.5738289999999
 31
0.0
  0
LINE
  5
12C92
  8
1PL-S1
 10
5763.6040380000004
 20
1902.5738289999999
 30
0.0
 11
5763.6040380000004
 21
1919.0738289999999
 31
0.0
  0
CIRCLE
  5
12C93
  8
HIDE-S1
 10
5541.6040380000004
 20
1918.0738289999999
 30
0.0
 40
5.0
  0
LINE
  5
12C94
  8
HIDE-S1
 10
5546.6040380000004
 20
1913.0738289999999
 30
0.0
 11
5546.6040380000004
 21
1918.0738289999999
 31
0.0
  0
LINE
  5
12C95
  8
HIDE-S1
 10
5536.6040380000013
 20
1913.0738289999999
 30
0.0
 11
5536.6040380000013
 21
1918.0738289999999
 31
0.0
  0
ARC
  5
12C96
  8
TUNAGI_BO
 10
5541.6040380000004
 20
1894.0738289999999
 30
0.0
 40
5.0
 50
180.0
 51
0.0
  0
LINE
  5
12C97
  8
1PL-S1
 10
5541.6040380000004
 20
1884.0738289999999
 30
0.0
 11
5541.6040380000004
 21
1930.64859
 31
0.0
  0
LINE
  5
12C98
  8
TUNAGI_BO
 10
5536.6040380000013
 20
1894.0738289999999
 30
0.0
 11
5536.6040380000013
 21
1913.0738289999999
 31
0.0
  0
LINE
  5
12C99
  8
TUNAGI_BO
 10
5546.6040380000004
 20
1894.0738289999999
 30
0.0
 11
5546.6040380000004
 21
1913.0738289999999
 31
0.0
  0
ARC
  5
12C9A
  8
HIDE-S1
 10
5541.6040380000004
 20
1894.0738289999999
 30
0.0
 40
5.0
 50
0.0
 51
180.0
  0
ARC
  5
12C9C
  8
DODAI_A
 10
4450.1041379999988
 20
4201.6974299999983
 30
0.0
 40
10.0
 50
270.0
 51
0.0
  0
ARC
  5
12C9D
  8
DODAI_A
 10
4450.1041379999988
 20
4709.6974299999983
 30
0.0
 40
10.0
 50
0.0
 51
90.0
  0
TEXT
  5
12C9F
  8
SUNPOU
 10
6671.6040380000013
 20
2171.4785618571432
 30
0.0
 40
60.0
  1
642
 50
90.0
 41
0.666667
  7
00
 72
     4
 11
6641.6040380000004
 21
2229.5738289999999
 31
0.0
  0
TEXT
  5
12CA0
  8
SUNPOU
 10
6531.6040380000013
 20
2042.430943285714
 30
0.0
 40
60.0
  1
382
 50
90.0
 41
0.666667
  7
00
 72
     1
 11
6501.6040380000004
 21
2099.5738289999999
 31
0.0
 73
     2
  0
LINE
  5
12CA1
  8
SUNPOU
 10
6281.6040380000013
 20
2290.5738289999999
 30
0.0
 11
6591.6040379999977
 21
2290.5738289999999
 31
0.0
  0
LINE
  5
12CA3
  8
SUNPOU
 10
6281.6040380000013
 20
2550.5738289999999
 30
0.0
 11
6731.6040379999986
 21
2550.5738289999999
 31
0.0
  0
LINE
  5
12CA5
  8
SUNPOU
 10
6701.6040380000022
 20
1898.5738289999999
 30
0.0
 11
6701.6040380000022
 21
1888.5738289999999
 31
0.0
  0
LINE
  5
12CA8
  8
SUNPOU
 10
6701.6040380000022
 20
1771.1606850000001
 30
0.0
 11
6701.6040380000022
 21
1875.922589
 31
0.0
  0
TEXT
  5
12CA9
  8
SUNPOU
 10
6671.6040380000013
 20
1785.4463798571419
 30
0.0
 40
60.0
  1
30
 50
90.0
 41
0.666667
  7
00
 72
     4
 11
6641.6040380000004
 21
1823.541637
 31
0.0
  0
TEXT
  5
12CC1
  8
M1
 10
6013.2040550000002
 20
1278.5738289999999
 30
0.0
 40
40.0
  1
20
 41
0.6700000000000002
  7
00
  0
TEXT
  5
12CC2
  8
M1
 10
5972.9894409999997
 20
1298.5738289999999
 30
0.0
 40
40.0
  1
1
 41
0.6700000000000002
  7
00
  0
LINE
  5
12CC3
  8
SUNPOU
 10
6241.6040380000013
 20
1858.5738289999999
 30
0.0
 11
6241.6040380000013
 21
1408.5738289999999
 31
0.0
  0
LINE
  5
12CC6
  8
SUNPOU
 10
6281.6040380000013
 20
1908.5738289999999
 30
0.0
 11
6731.6040379999986
 21
1908.5738289999999
 31
0.0
  0
LINE
  5
12CC7
  8
SUNPOU
 10
6701.6040380000022
 20
1918.5738289999999
 30
0.0
 11
6701.6040380000022
 21
2540.5738289999999
 31
0.0
  0
LINE
  5
12CC8
  8
SUNPOU
 10
6561.6040380000004
 20
2280.5738289999999
 30
0.0
 11
6561.6040380000004
 21
1918.5738289999999
 31
0.0
  0
TEXT
  5
12CDF
  8
SUNPOU
 10
5662.5563794285717
 20
1468.5738289999999
 30
0.0
 40
60.0
  1
1000
 41
0.666667
  7
00
 72
     1
 11
5741.6040380000013
 21
1498.5738289999999
 31
0.0
 73
     2
  0
TEXT
  5
12CE1
  8
M1
 10
5452.5989900000022
 20
1278.5738289999999
 30
0.0
 40
60.0
  1
側　面　図
  7
01
  0
LINE
  5
12CE2
  8
SUNPOU
 10
5241.6040380000013
 20
1858.5738289999999
 30
0.0
 11
5241.6040380000013
 21
1408.5738289999999
 31
0.0
  0
LINE
  5
12CE3
  8
SUNPOU
 10
5441.6037249999999
 20
1858.5738289999999
 30
0.0
 11
5441.6037249999999
 21
1548.5738289999999
 31
0.0
  0
LINE
  5
12CE5
  8
SUNPOU
 10
6231.6040380000004
 20
1578.5738289999999
 30
0.0
 11
5451.6037249999999
 21
1578.5738289999999
 31
0.0
  0
LINE
  5
12CE6
  8
SUNPOU
 10
6231.6040380000004
 20
1438.5738289999999
 30
0.0
 11
5251.6040380000004
 21
1438.5738289999999
 31
0.0
  0
LINE
  5
12CE7
  8
U2
 10
5061.6040380000022
 20
1878.5738289999999
 30
0.0
 11
6731.6040379999986
 21
1878.5738289999999
 31
0.0
  0
TEXT
  5
12CE8
  8
M1
 10
5886.5411579999991
 20
1291.973829
 30
0.0
 40
40.0
  1
(S=  /     )
 41
0.6700000000000002
  7
00
  0
TEXT
  5
12CE9
  8
SUNPOU
 10
5784.4609962857157
 20
1608.5738289999999
 30
0.0
 40
60.0
  1
800
 41
0.666667
  7
00
 72
     1
 11
5841.6038820000012
 21
1638.5738289999999
 31
0.0
 73
     2
  0
CIRCLE
  5
12CEA
  8
DODAI_T
 10
4439.6041379999988
 20
4654.6974299999974
 30
0.0
 40
4.0
  0
LINE
  5
12CEB
  8
DODAI_A
 10
4460.1041380000006
 20
4709.6974299999983
 30
0.0
 11
4460.1041380000006
 21
4688.6974299999983
 31
0.0
  0
LINE
  5
12CEC
  8
DODAI_T
 10
4416.8041380000004
 20
4629.6974299999983
 30
0.0
 11
4416.8041380000004
 21
4683.6974299999983
 31
0.0
  0
LINE
  5
12CED
  8
DODAI_T
 10
4415.6041379999988
 20
4629.6974299999983
 30
0.0
 11
4416.8041380000004
 21
4629.6974299999983
 31
0.0
  0
ARC
  5
12CEE
  8
DODAI_T
 10
4421.8041380000004
 20
4683.6974299999983
 30
0.0
 40
5.0
 50
90.0
 51
180.0
  0
LINE
  5
12CEF
  8
DODAI_T
 10
4421.8041380000004
 20
4688.6974299999983
 30
0.0
 11
4461.6041380000006
 21
4688.6974299999983
 31
0.0
  0
CIRCLE
  5
12CF0
  8
DODAI_T
 10
4439.6041379999988
 20
4256.6974299999983
 30
0.0
 40
4.0
  0
LINE
  5
12CF1
  8
DODAI_T
 10
4415.6041379999988
 20
4281.6974299999983
 30
0.0
 11
4416.8041380000004
 21
4281.6974299999983
 31
0.0
  0
LINE
  5
12CF2
  8
DODAI_T
 10
4416.8041380000004
 20
4281.6974299999983
 30
0.0
 11
4416.8041380000004
 21
4227.6974299999983
 31
0.0
  0
ARC
  5
12CF3
  8
DODAI_T
 10
4421.8041380000004
 20
4227.6974299999983
 30
0.0
 40
5.0
 50
180.0
 51
270.0
  0
LINE
  5
12CF4
  8
DODAI_T
 10
4421.8041380000004
 20
4222.6974299999993
 30
0.0
 11
4461.6041380000006
 21
4222.6974299999993
 31
0.0
  0
LINE
  5
12CF5
  8
DODAI_A
 10
4460.1041380000006
 20
4201.6974299999983
 30
0.0
 11
4460.1041380000006
 21
4222.6974299999993
 31
0.0
  0
LINE
  5
12CF6
  8
DODAI_T
 10
4461.6041380000006
 20
4688.6974299999983
 30
0.0
 11
4461.6041380000006
 21
4222.6974299999993
 31
0.0
  0
LINE
  5
12CF7
  8
DODAI_T
 10
4415.6041379999988
 20
4281.6974299999983
 30
0.0
 11
4415.6041379999988
 21
4629.6974299999983
 31
0.0
  0
LINE
  5
12CF8
  8
DODAI_A
 10
3498.1041380000001
 20
4629.6974299999983
 30
0.0
 11
3826.1041380000001
 21
4629.6974299999983
 31
0.0
  0
LINE
  5
12CF9
  8
DODAI_A
 10
3826.1041380000001
 20
4719.6974299999993
 30
0.0
 11
3498.1041380000001
 21
4719.6974299999993
 31
0.0
  0
LINE
  5
12CFA
  8
DODAI_A
 10
3498.1041380000001
 20
4689.6974299999983
 30
0.0
 11
3826.1041380000001
 21
4689.6974299999983
 31
0.0
  0
LINE
  5
12CFB
  8
DODAI_A
 10
3498.1041380000001
 20
4281.6974299999983
 30
0.0
 11
3826.1041380000001
 21
4281.6974299999983
 31
0.0
  0
LINE
  5
12CFC
  8
DODAI_A
 10
3826.1041380000001
 20
4191.6974299999983
 30
0.0
 11
3498.1041380000001
 21
4191.6974299999983
 31
0.0
  0
LINE
  5
12CFD
  8
DODAI_A
 10
3498.1041380000001
 20
4221.6974299999983
 30
0.0
 11
3826.1041380000001
 21
4221.6974299999983
 31
0.0
  0
LINE
  5
12CFE
  8
DODAI_A
 10
3898.1041380000001
 20
4629.6974299999983
 30
0.0
 11
4226.1041380000006
 21
4629.6974299999983
 31
0.0
  0
LINE
  5
12CFF
  8
DODAI_A
 10
3898.1041380000001
 20
4281.6974299999983
 30
0.0
 11
4226.1041380000006
 21
4281.6974299999983
 31
0.0
  0
LINE
  5
12D00
  8
DODAI_A
 10
4450.1041379999988
 20
4191.6974299999983
 30
0.0
 11
4298.1041380000024
 21
4191.6974299999983
 31
0.0
  0
LINE
  5
12D01
  8
DODAI_A
 10
3898.1041380000001
 20
4221.6974299999983
 30
0.0
 11
4226.1041380000006
 21
4221.6974299999983
 31
0.0
  0
LINE
  5
12D02
  8
DODAI_A
 10
4450.1041379999988
 20
4719.6974299999993
 30
0.0
 11
4298.1041380000024
 21
4719.6974299999993
 31
0.0
  0
LINE
  5
12D03
  8
DODAI_A
 10
3898.1041380000001
 20
4689.6974299999983
 30
0.0
 11
4226.1041380000006
 21
4689.6974299999983
 31
0.0
  0
TEXT
  5
12D04
  8
M1
 10
3313.7041549999999
 20
3148.593437
 30
0.0
 40
40.0
  1
20
 41
0.6700000000000002
  7
00
  0
TEXT
  5
12D05
  8
M1
 10
2753.0990900000002
 20
3148.593437
 30
0.0
 40
60.0
  1
平　面　図
  7
01
  0
TEXT
  5
12D06
  8
M1
 10
3187.0412580000011
 20
3161.9934370000001
 30
0.0
 40
40.0
  1
(S=  /     )
 41
0.6700000000000002
  7
00
  0
TEXT
  5
12D07
  8
M1
 10
3273.4895409999999
 20
3168.593437
 30
0.0
 40
40.0
  1
1
 41
0.6700000000000002
  7
00
  0
ARC
  5
12D08
  8
DODAI_T
 10
4460.4041379999999
 20
1908.5738289999999
 30
0.0
 40
1.1999999999999991
 50
0.0
 51
90.0
  0
LINE
  5
12D09
  8
DODAI_T
 10
4461.6041380000006
 20
1878.773829
 30
0.0
 11
4461.6041380000006
 21
1908.5738289999999
 31
0.0
  0
LINE
  5
12D0A
  8
DODAI_T
 10
4460.4041379999999
 20
1878.773829
 30
0.0
 11
4460.4041379999999
 21
1908.5738289999999
 31
0.0
  0
LINE
  5
12D0B
  8
DODAI_A
 10
4460.1041380000006
 20
1908.5738289999999
 30
0.0
 11
4460.1041380000006
 21
1878.5738289999999
 31
0.0
  0
LINE
  5
12D0C
  8
DODAI_T
 10
4460.4041379999999
 20
1878.773829
 30
0.0
 11
4461.6041380000006
 21
1878.773829
 31
0.0
  0
ARC
  5
12D0D
  8
DODAI_T
 10
4422.0041380000011
 20
1903.3738289999999
 30
0.0
 40
6.4000000000000004
 50
90.0
 51
125.659088
  0
LINE
  5
12D0E
  8
DODAI_T
 10
4460.4041379999999
 20
1909.773829
 30
0.0
 11
4422.0041380000011
 21
1909.773829
 31
0.0
  0
LINE
  5
12D0F
  8
DODAI_T
 10
4460.4041379999999
 20
1908.5738289999999
 30
0.0
 11
4422.0041380000011
 21
1908.5738289999999
 31
0.0
  0
LINE
  5
12D11
  8
SUNPOU
 10
4460.1041380000006
 20
1858.5738289999999
 30
0.0
 11
4460.1041380000006
 21
1408.5738289999999
 31
0.0
  0
TEXT
  5
12D12
  8
M1
 10
3313.7041549999999
 20
1278.5738289999999
 30
0.0
 40
40.0
  1
20
 41
0.6700000000000002
  7
00
  0
TEXT
  5
12D13
  8
SUNPOU
 10
2985.9136237142852
 20
1468.5738289999999
 30
0.0
 40
60.0
  1
2796
 41
0.666667
  7
00
 72
     4
 11
3062.1041380000001
 21
1498.5738289999999
 31
0.0
  0
TEXT
  5
12D14
  8
M1
 10
2753.0990900000002
 20
1278.5738289999999
 30
0.0
 40
60.0
  1
立　面　図
  7
01
  0
TEXT
  5
12D15
  8
M1
 10
3187.0412580000011
 20
1291.973829
 30
0.0
 40
40.0
  1
(S=  /     )
 41
0.6700000000000002
  7
00
  0
TEXT
  5
12D16
  8
M1
 10
3273.4895409999999
 20
1298.5738289999999
 30
0.0
 40
40.0
  1
1
 41
0.6700000000000002
  7
00
  0
LINE
  5
12D17
  8
DODAI_T
 10
1663.804138
 20
1878.773829
 30
0.0
 11
1662.6041379999999
 21
1878.773829
 31
0.0
  0
ARC
  5
12D18
  8
DODAI_T
 10
1702.2041380000001
 20
1903.3738289999999
 30
0.0
 40
6.4000000000000004
 50
54.34091200000001
 51
90.0
  0
LINE
  5
12D19
  8
DODAI_A
 10
1664.1041379999999
 20
1908.5738289999999
 30
0.0
 11
1664.1041379999999
 21
1878.5738289999999
 31
0.0
  0
LINE
  5
12D1A
  8
DODAI_T
 10
1663.804138
 20
1878.773829
 30
0.0
 11
1663.804138
 21
1908.5738289999999
 31
0.0
  0
LINE
  5
12D1B
  8
DODAI_T
 10
1663.804138
 20
1908.5738289999999
 30
0.0
 11
1702.2041380000001
 21
1908.5738289999999
 31
0.0
  0
LINE
  5
12D1C
  8
DODAI_T
 10
1662.6041379999999
 20
1878.773829
 30
0.0
 11
1662.6041379999999
 21
1908.5738289999999
 31
0.0
  0
LINE
  5
12D1D
  8
DODAI_T
 10
1663.804138
 20
1909.773829
 30
0.0
 11
1702.2041380000001
 21
1909.773829
 31
0.0
  0
ARC
  5
12D1E
  8
DODAI_T
 10
1663.804138
 20
1908.5738289999999
 30
0.0
 40
1.1999999999999991
 50
90.0
 51
180.0
  0
LINE
  5
12D20
  8
SUNPOU
 10
1664.1041379999999
 20
1858.5738289999999
 30
0.0
 11
1664.1041379999999
 21
1408.5738289999999
 31
0.0
  0
LINE
  5
12D21
  8
DODAI_A
 10
1664.1041379999999
 20
1878.5738289999999
 30
0.0
 11
4460.1041380000006
 21
1878.5738289999999
 31
0.0
  0
LINE
  5
12D22
  8
DODAI_A
 10
1664.1041379999999
 20
1880.8738289999999
 30
0.0
 11
4460.1041380000006
 21
1880.8738289999999
 31
0.0
  0
LINE
  5
12D23
  8
DODAI_A
 10
4460.1041380000006
 20
1908.5738289999999
 30
0.0
 11
1664.1041379999999
 21
1908.5738289999999
 31
0.0
  0
LINE
  5
12D24
  8
SUNPOU
 10
1674.1041379999999
 20
1438.5738289999999
 30
0.0
 11
4450.1041379999988
 21
1438.5738289999999
 31
0.0
  0
LINE
  5
12D25
  8
U2
 10
1462.6042379999999
 20
1878.5738289999999
 30
0.0
 11
4661.6040380000013
 21
1878.5738289999999
 31
0.0
  0
TEXT
  5
12D26
  8
NAME
 10
6015.0
 20
320.0
 30
0.0
 40
60.0
  1
7
 41
0.666667
  7
00
  0
TEXT
  5
12D27
  8
NAME
 10
5864.9999900000012
 20
320.0
 30
0.0
 40
60.0
  1
4
 41
0.666667
  7
00
 72
     1
 11
5885.0
 21
320.0
 31
0.0
  0
TEXT
  5
12D28
  8
NAME
 10
5710.7142485714276
 20
320.0
 30
0.0
 40
60.0
  1
H7
 41
0.666667
  7
00
 72
     2
 11
5785.0
 21
320.0
 31
0.0
  0
TEXT
  5
12D29
  8
NAME
 10
2352.428571428572
 20
355.0
 30
0.0
 40
90.0
  1
サイクルスペース R
  7
01
 72
     4
 11
2853.0
 21
400.0
 31
0.0
  0
TEXT
  5
12D2A
  8
NAME
 10
3573.944099285713
 20
355.0
 30
0.0
 40
90.0
  1
C S R  -  10  -  7S
 41
0.666667
  7
00
 72
     4
 11
4031.087184999999
 21
400.0
 31
0.0
  0
LINE
  5
132EF
  8
SUNPOU
 10
2431.6041380000001
 20
4206.6974299999983
 30
0.0
 11
1348.5339612942021
 21
4206.6974299999983
 31
0.0
  0
LINE
  5
132F0
  8
SUNPOU
 10
1644.1041379999999
 20
4191.6974299999983
 30
0.0
 11
1348.5339612942021
 21
4191.6974299999983
 31
0.0
  0
LINE
  5
132F1
  8
SUNPOU
 10
1378.5339612942021
 20
4216.6974299999993
 30
0.0
 11
1378.5339612942021
 21
4226.6974299999983
 31
0.0
  0
LINE
  5
132F2
  8
SUNPOU
 10
1378.5339612942021
 20
4181.6974299999983
 30
0.0
 11
1378.5339612942021
 21
4052.6497814285681
 31
0.0
  0
LINE
  5
132F3
  8
SUNPOU
 10
1378.5339612942021
 20
4206.6974299999983
 30
0.0
 11
1378.5339612942021
 21
4191.6974299999983
 31
0.0
  0
LINE
  5
132F7
  8
SUNPOU
 10
2431.6041380000001
 20
4704.6974299999983
 30
0.0
 11
1348.5339612942021
 21
4704.6974299999983
 31
0.0
  0
LINE
  5
132F8
  8
SUNPOU
 10
1644.1041379999999
 20
4719.6974299999993
 30
0.0
 11
1348.5339612942021
 21
4719.6974299999993
 31
0.0
  0
LINE
  5
132F9
  8
SUNPOU
 10
1378.5339612942021
 20
4694.6974299999983
 30
0.0
 11
1378.5339612942021
 21
4684.6974299999993
 31
0.0
  0
LINE
  5
132FA
  8
SUNPOU
 10
1378.5339612942021
 20
4729.6974299999983
 30
0.0
 11
1378.5339612942021
 21
4858.7450785714273
 31
0.0
  0
LINE
  5
132FB
  8
SUNPOU
 10
1378.5339612942021
 20
4704.6974299999983
 30
0.0
 11
1378.5339612942021
 21
4719.6974299999993
 31
0.0
  0
LINE
  5
132FF
  8
SUNPOU
 10
2431.6041380000001
 20
4206.6974299999983
 30
0.0
 11
1348.5339612942009
 21
4206.6974299999983
 31
0.0
  0
LINE
  5
13300
  8
SUNPOU
 10
2431.6041380000001
 20
4704.6974299999983
 30
0.0
 11
1348.5339612942021
 21
4704.6974299999983
 31
0.0
  0
LINE
  5
13301
  8
SUNPOU
 10
1378.5339612942
 20
4216.6974299999993
 30
0.0
 11
1378.5339612942021
 21
4694.6974299999983
 31
0.0
  0
TEXT
  5
13305
  8
SUNPOU
 10
1348.5339612942009
 20
4398.5545442857137
 30
0.0
 40
60.0
  1
498
 50
90.0
 41
0.666667
  7
00
  0
TEXT
  5
13306
  8
SUNPOU
 10
1348.5339612942009
 20
4758.2688528571407
 30
0.0
 40
60.0
  1
15
 50
90.0
 41
0.666667
  7
00
  0
TEXT
  5
13307
  8
SUNPOU
 10
1348.5339612942009
 20
4071.2212042857118
 30
0.0
 40
60.0
  1
15
 50
90.0
 41
0.666667
  7
00
  0
LINE
  5
13596
  8
WAKUSEN-02
 10
370.0
 20
540.0
 30
0.0
 11
8130.0
 21
540.0
 31
0.0
  0
TEXT
  5
13597
  8
WAKUMOJI-01
 10
405.0
 20
465.0
 30
0.0
 40
45.0
  1
備考
  7
WAKUMOJI
  0
LINE
  5
13598
  8
WAKUSEN-03
 10
2250.0
 20
260.0
 30
0.0
 11
2250.0
 21
540.0
 31
0.0
  0
TEXT
  5
13599
  8
WAKUMOJI-01
 10
2280.0
 20
465.0
 30
0.0
 40
45.0
  1
名称
  7
WAKUMOJI
  0
TEXT
  5
1359A
  8
WAKUMOJI-01
 10
3480.0
 20
465.0
 30
0.0
 40
45.0
  1
図面名
  7
WAKUMOJI
  0
LINE
  5
1359B
  8
WAKUSEN-03
 10
3450.0
 20
260.0
 30
0.0
 11
3450.0
 21
540.0
 31
0.0
  0
LINE
  5
1359C
  8
WAKUSEN-03
 10
4850.0
 20
260.0
 30
0.0
 11
4850.0
 21
540.0
 31
0.0
  0
LINE
  5
1359D
  8
WAKUSEN-03
 10
4550.0
 20
260.0
 30
0.0
 11
4550.0
 21
540.0
 31
0.0
  0
TEXT
  5
1359E
  8
WAKUMOJI-01
 10
4580.0
 20
465.0
 30
0.0
 40
45.0
  1
縮尺
  7
WAKUMOJI
  0
TEXT
  5
1359F
  8
WAKUMOJI-01
 10
5180.0
 20
465.0
 30
0.0
 40
45.0
  1
検図
  7
WAKUMOJI
  0
LINE
  5
135A0
  8
WAKUSEN-03
 10
5150.0
 20
260.0
 30
0.0
 11
5150.0
 21
540.0
 31
0.0
  0
TEXT
  5
135A1
  8
WAKUMOJI-01
 10
4879.9999999999991
 20
465.0
 30
0.0
 40
45.0
  1
製図
  7
WAKUMOJI
  0
LINE
  5
135A2
  8
WAKUSEN-03
 10
5670.0
 20
260.0
 30
0.0
 11
5670.0
 21
540.0
 31
0.0
  0
TEXT
  5
135A3
  8
WAKUMOJI-01
 10
5700.0
 20
465.0
 30
0.0
 40
45.0
  1
日付
  7
WAKUMOJI
  0
LINE
  5
135A4
  8
WAKUSEN-03
 10
6140.0
 20
260.0
 30
0.0
 11
6140.0
 21
540.0
 31
0.0
  0
TEXT
  5
135A5
  8
WAKUMOJI-01
 10
6170.0
 20
465.0
 30
0.0
 40
45.0
  1
図面
  7
WAKUMOJI
  0
TEXT
  5
135A6
  8
WAKUMOJI-01
 10
6278.0000000000009
 20
465.0
 30
0.0
 40
34.0
  1
No.
 41
0.5
  7
WAKUMOJI
  0
LINE
  5
135A7
  8
WAKUSEN-03
 10
6740.0
 20
260.0
 30
0.0
 11
6740.0
 21
540.0
 31
0.0
  0
CIRCLE
  5
135A8
  8
WAKUMOJI-01
 10
5955.0
 20
319.99999999999989
 30
0.0
 40
5.8333333333333321
  0
CIRCLE
  5
135A9
  8
WAKUMOJI-01
 10
5815.0
 20
319.99999999999989
 30
0.0
 40
5.8333333333333321
  0
CIRCLE
  5
135AA
  8
WAKUMOJI-01
 10
4250.0
 20
570.0
 30
0.0
 40
5.8333333333333321
  0
CIRCLE
  5
135AB
  8
WAKUMOJI-01
 10
400.0
 20
3115.0
 30
0.0
 40
5.8333333333333321
  0
LINE
  5
135AC
  8
WAKUSEN-02
 10
370.0
 20
260.0
 30
0.0
 11
8130.0
 21
260.0
 31
0.0
  0
LINE
  5
135AD
  8
WAKUSEN-02
 10
8130.0
 20
260.0
 30
0.0
 11
8130.0
 21
5690.0
 31
0.0
  0
LINE
  5
135AE
  8
WAKUSEN-02
 10
8130.0
 20
5690.0
 30
0.0
 11
370.0
 21
5690.0
 31
0.0
  0
LINE
  5
135AF
  8
WAKUSEN-02
 10
370.0
 20
5690.0
 30
0.0
 11
370.0
 21
260.0
 31
0.0
  0
ARC
  5
135B0
  8
WAKUMOJI-01
 10
400.0
 20
3115.0
 30
0.0
 40
2.9166666666666421
 50
180.0
 51
0.0
  0
ARC
  5
135B1
  8
WAKUMOJI-01
 10
400.0
 20
3115.0
 30
0.0
 40
2.9166666666666421
 50
0.0
 51
180.0
  0
ARC
  5
135B2
  8
WAKUMOJI-01
 10
4250.0
 20
570.0
 30
0.0
 40
2.9166666666668561
 50
180.0
 51
0.0
  0
ARC
  5
135B3
  8
WAKUMOJI-01
 10
4250.0
 20
570.0
 30
0.0
 40
2.9166666666668561
 50
0.0
 51
180.0
  0
ARC
  5
135B4
  8
WAKUMOJI-01
 10
5815.0
 20
319.99999999999989
 30
0.0
 40
2.9166666666662859
 50
180.0
 51
0.0
  0
ARC
  5
135B5
  8
WAKUMOJI-01
 10
5815.0
 20
319.99999999999989
 30
0.0
 40
2.9166666666662859
 50
0.0
 51
180.0
  0
ARC
  5
135B6
  8
WAKUMOJI-01
 10
5955.0
 20
319.99999999999989
 30
0.0
 40
2.9166666666662859
 50
180.0
 51
0.0
  0
ARC
  5
135B7
  8
WAKUMOJI-01
 10
5955.0
 20
319.99999999999989
 30
0.0
 40
2.9166666666662859
 50
0.0
 51
180.0
  0
LINE
  5
135B8
  8
YODOROGO
 10
7484.401085322982
 20
338.39745962155581
 30
0.0
 11
7484.4010853229784
 21
366.69539852546342
 31
0.0
  0
ARC
  5
135B9
  8
YODOROGO
 10
7563.5869374569738
 20
420.0287782009936
 30
0.0
 40
95.471716051411804
 50
213.96111677667849
 51
264.47872074317792
  0
LINE
  5
135BA
  8
YODOROGO
 10
7554.4010853229784
 20
324.99999999999937
 30
0.0
 11
7554.4010853229784
 21
355.0
 31
0.0
  0
ARC
  5
135BB
  8
YODOROGO
 10
7557.5147071751153
 20
435.28405463092872
 30
0.0
 40
80.344409071322687
 50
260.60629297969928
 51
267.77903556555862
  0
LINE
  5
135BC
  8
YODOROGO
 10
7544.4010853229784
 20
356.01705651103492
 30
0.0
 11
7547.4010853229784
 21
369.00000000000023
 31
0.0
  0
LINE
  5
135BD
  8
YODOROGO
 10
7547.4010853229784
 20
369.00000000000023
 30
0.0
 11
7526.4010853229793
 21
369.00000000000023
 31
0.0
  0
LINE
  5
135BE
  8
YODOROGO
 10
7526.4010853229793
 20
369.00000000000023
 30
0.0
 11
7524.4010853229893
 21
362.08082986015307
 31
0.0
  0
ARC
  5
135BF
  8
YODOROGO
 10
7557.5147071753399
 20
435.28405463090348
 30
0.0
 40
80.344409071307055
 50
228.61814546189939
 51
245.660289248906
  0
LINE
  5
135C0
  8
YODOROGO
 10
7504.4010853229784
 20
375.0
 30
0.0
 11
7554.4010853229784
 21
375.0
 31
0.0
  0
LINE
  5
135C1
  8
YODOROGO
 10
7554.4010853229784
 20
375.0
 30
0.0
 11
7554.4010853229784
 21
385.0
 31
0.0
  0
LINE
  5
135C2
  8
YODOROGO
 10
7554.4010853229784
 20
385.0
 30
0.0
 11
7487.4010853229793
 21
385.0
 31
0.0
  0
LINE
  5
135C3
  8
YODOROGO
 10
7487.4010853229793
 20
385.0
 30
0.0
 11
7487.4010853229793
 21
395.0
 31
0.0
  0
LINE
  5
135C4
  8
YODOROGO
 10
7487.4010853229793
 20
395.0
 30
0.0
 11
7471.4010853229784
 21
395.0
 31
0.0
  0
LINE
  5
135C5
  8
YODOROGO
 10
7471.4010853229784
 20
395.0
 30
0.0
 11
7471.4010853229784
 21
385.0
 31
0.0
  0
LINE
  5
135C6
  8
YODOROGO
 10
7471.4010853229784
 20
385.0
 30
0.0
 11
7404.4010853229784
 21
385.0
 31
0.0
  0
LINE
  5
135C7
  8
YODOROGO
 10
7404.4010853229784
 20
385.0
 30
0.0
 11
7404.4010853229784
 21
375.0
 31
0.0
  0
LINE
  5
135C8
  8
YODOROGO
 10
7404.4010853229784
 20
375.0
 30
0.0
 11
7428.2361571748661
 21
375.0
 31
0.0
  0
LINE
  5
135C9
  8
YODOROGO
 10
7428.2361571748661
 20
375.0
 30
0.0
 11
7404.4010853229784
 21
355.0
 31
0.0
  0
LINE
  5
135CA
  8
YODOROGO
 10
7404.4010853229784
 20
355.0
 30
0.0
 11
7404.4010853229784
 21
325.0
 31
0.0
  0
LINE
  5
135CB
  8
YODOROGO
 10
7404.4010853229784
 20
325.0
 30
0.0
 11
7434.4010853229793
 21
350.17298893531921
 31
0.0
  0
LINE
  5
135CC
  8
YODOROGO
 10
7434.4010853229793
 20
350.17298893531921
 30
0.0
 11
7434.4010853229793
 21
325.0
 31
0.0
  0
LINE
  5
135CD
  8
YODOROGO
 10
7434.4010853229793
 20
325.0
 30
0.0
 11
7484.401085322982
 21
338.39745962155581
 31
0.0
  0
LINE
  5
135CE
  8
YODOROGO
 10
7444.4010853229784
 20
375.0
 30
0.0
 11
7444.4010853229784
 21
358.56398524709221
 31
0.0
  0
LINE
  5
135CF
  8
YODOROGO
 10
7444.4010853229784
 20
358.56398524709221
 30
0.0
 11
7442.8524682463258
 21
357.26454122923661
 31
0.0
  0
LINE
  5
135D0
  8
YODOROGO
 10
7442.8524682463258
 20
357.26454122923661
 30
0.0
 11
7483.4460331271366
 21
368.14155415694978
 31
0.0
  0
ARC
  5
135D1
  8
YODOROGO
 10
7563.5869374569811
 20
420.02877820100338
 30
0.0
 40
95.471716051420401
 50
208.14114420486601
 51
212.92103611859949
  0
LINE
  5
135D2
  8
YODOROGO
 10
7479.4010853229784
 20
375.0
 30
0.0
 11
7444.4010853229784
 21
375.0
 31
0.0
  0
LINE
  5
135D3
  8
YODOROGO
 10
7484.401085322982
 20
338.39745962155581
 30
0.0
 11
7484.4010853229784
 21
366.69539852546342
 31
0.0
  0
ARC
  5
135D4
  8
YODOROGO
 10
7563.5869374569738
 20
420.0287782009936
 30
0.0
 40
95.471716051411804
 50
213.96111677667849
 51
264.47872074317792
  0
LINE
  5
135D5
  8
YODOROGO
 10
7554.4010853229784
 20
324.99999999999937
 30
0.0
 11
7554.4010853229784
 21
355.0
 31
0.0
  0
ARC
  5
135D6
  8
YODOROGO
 10
7557.5147071751153
 20
435.28405463092872
 30
0.0
 40
80.344409071322687
 50
260.60629297969928
 51
267.77903556555862
  0
LINE
  5
135D7
  8
YODOROGO
 10
7544.4010853229784
 20
356.01705651103492
 30
0.0
 11
7547.4010853229784
 21
369.00000000000023
 31
0.0
  0
LINE
  5
135D8
  8
YODOROGO
 10
7547.4010853229784
 20
369.00000000000023
 30
0.0
 11
7526.4010853229793
 21
369.00000000000023
 31
0.0
  0
LINE
  5
135D9
  8
YODOROGO
 10
7526.4010853229793
 20
369.00000000000023
 30
0.0
 11
7524.4010853229893
 21
362.08082986015307
 31
0.0
  0
ARC
  5
135DA
  8
YODOROGO
 10
7557.5147071753399
 20
435.28405463090348
 30
0.0
 40
80.344409071307055
 50
228.61814546189939
 51
245.660289248906
  0
LINE
  5
135DB
  8
YODOROGO
 10
7504.4010853229784
 20
375.0
 30
0.0
 11
7554.4010853229784
 21
375.0
 31
0.0
  0
LINE
  5
135DC
  8
YODOROGO
 10
7554.4010853229784
 20
375.0
 30
0.0
 11
7554.4010853229784
 21
385.0
 31
0.0
  0
LINE
  5
135DD
  8
YODOROGO
 10
7554.4010853229784
 20
385.0
 30
0.0
 11
7487.4010853229793
 21
385.0
 31
0.0
  0
LINE
  5
135DE
  8
YODOROGO
 10
7487.4010853229793
 20
385.0
 30
0.0
 11
7487.4010853229793
 21
395.0
 31
0.0
  0
LINE
  5
135DF
  8
YODOROGO
 10
7487.4010853229793
 20
395.0
 30
0.0
 11
7471.4010853229784
 21
395.0
 31
0.0
  0
LINE
  5
135E0
  8
YODOROGO
 10
7471.4010853229784
 20
395.0
 30
0.0
 11
7471.4010853229784
 21
385.0
 31
0.0
  0
LINE
  5
135E1
  8
YODOROGO
 10
7471.4010853229784
 20
385.0
 30
0.0
 11
7404.4010853229784
 21
385.0
 31
0.0
  0
LINE
  5
135E2
  8
YODOROGO
 10
7404.4010853229784
 20
385.0
 30
0.0
 11
7404.4010853229784
 21
375.0
 31
0.0
  0
LINE
  5
135E3
  8
YODOROGO
 10
7404.4010853229784
 20
375.0
 30
0.0
 11
7428.2361571748661
 21
375.0
 31
0.0
  0
LINE
  5
135E4
  8
YODOROGO
 10
7428.2361571748661
 20
375.0
 30
0.0
 11
7404.4010853229784
 21
355.0
 31
0.0
  0
LINE
  5
135E5
  8
YODOROGO
 10
7404.4010853229784
 20
355.0
 30
0.0
 11
7404.4010853229784
 21
325.0
 31
0.0
  0
LINE
  5
135E6
  8
YODOROGO
 10
7404.4010853229784
 20
325.0
 30
0.0
 11
7434.4010853229793
 21
350.17298893531921
 31
0.0
  0
LINE
  5
135E7
  8
YODOROGO
 10
7434.4010853229793
 20
350.17298893531921
 30
0.0
 11
7434.4010853229793
 21
325.0
 31
0.0
  0
LINE
  5
135E8
  8
YODOROGO
 10
7434.4010853229793
 20
325.0
 30
0.0
 11
7484.401085322982
 21
338.39745962155581
 31
0.0
  0
LINE
  5
135E9
  8
YODOROGO
 10
7418.4010853229784
 20
411.00000000000023
 30
0.0
 11
7441.4010853229784
 21
411.00000000000023
 31
0.0
1001
AUTOCAD_POSTSCRIPT_FIGURE
1002
{
1000
PSFILL
1000
Grayscale
1000
Grayscale
1070
    25
1002
}
  0
LINE
  5
135EA
  8
YODOROGO
 10
7441.4010853229784
 20
411.00000000000023
 30
0.0
 11
7441.4010853229784
 21
395.0
 31
0.0
1001
AUTOCAD_POSTSCRIPT_FIGURE
1002
{
1000
PSFILL
1000
Grayscale
1000
Grayscale
1070
    25
1002
}
  0
LINE
  5
135EB
  8
YODOROGO
 10
7441.4010853229784
 20
395.0
 30
0.0
 11
7457.4010853229775
 21
395.0
 31
0.0
1001
AUTOCAD_POSTSCRIPT_FIGURE
1002
{
1000
PSFILL
1000
Grayscale
1000
Grayscale
1070
    25
1002
}
  0
LINE
  5
135EC
  8
YODOROGO
 10
7457.4010853229775
 20
395.0
 30
0.0
 11
7457.4010853229775
 21
411.00000000000023
 31
0.0
1001
AUTOCAD_POSTSCRIPT_FIGURE
1002
{
1000
PSFILL
1000
Grayscale
1000
Grayscale
1070
    25
1002
}
  0
LINE
  5
135ED
  8
YODOROGO
 10
7457.4010853229775
 20
411.00000000000023
 30
0.0
 11
7480.4010853229784
 21
411.00000000000023
 31
0.0
1001
AUTOCAD_POSTSCRIPT_FIGURE
1002
{
1000
PSFILL
1000
Grayscale
1000
Grayscale
1070
    25
1002
}
  0
LINE
  5
135EE
  8
YODOROGO
 10
7480.4010853229784
 20
411.00000000000023
 30
0.0
 11
7480.4010853229784
 21
395.0
 31
0.0
1001
AUTOCAD_POSTSCRIPT_FIGURE
1002
{
1000
PSFILL
1000
Grayscale
1000
Grayscale
1070
    25
1002
}
  0
LINE
  5
135EF
  8
YODOROGO
 10
7480.4010853229784
 20
395.0
 30
0.0
 11
7494.4010853229784
 21
395.0
 31
0.0
1001
AUTOCAD_POSTSCRIPT_FIGURE
1002
{
1000
PSFILL
1000
Grayscale
1000
Grayscale
1070
    25
1002
}
  0
LINE
  5
135F0
  8
YODOROGO
 10
7494.4010853229784
 20
395.0
 30
0.0
 11
7494.4010853229784
 21
423.0
 31
0.0
1001
AUTOCAD_POSTSCRIPT_FIGURE
1002
{
1000
PSFILL
1000
Grayscale
1000
Grayscale
1070
    25
1002
}
  0
LINE
  5
135F1
  8
YODOROGO
 10
7494.4010853229784
 20
423.0
 30
0.0
 11
7457.4010853229775
 21
423.0
 31
0.0
1001
AUTOCAD_POSTSCRIPT_FIGURE
1002
{
1000
PSFILL
1000
Grayscale
1000
Grayscale
1070
    25
1002
}
  0
LINE
  5
135F2
  8
YODOROGO
 10
7457.4010853229775
 20
423.0
 30
0.0
 11
7457.4010853229775
 21
433.0
 31
0.0
1001
AUTOCAD_POSTSCRIPT_FIGURE
1002
{
1000
PSFILL
1000
Grayscale
1000
Grayscale
1070
    25
1002
}
  0
LINE
  5
135F3
  8
YODOROGO
 10
7457.4010853229775
 20
433.0
 30
0.0
 11
7494.4010853229784
 21
433.0
 31
0.0
1001
AUTOCAD_POSTSCRIPT_FIGURE
1002
{
1000
PSFILL
1000
Grayscale
1000
Grayscale
1070
    25
1002
}
  0
LINE
  5
135F4
  8
YODOROGO
 10
7494.4010853229784
 20
433.0
 30
0.0
 11
7494.4010853229784
 21
445.0
 31
0.0
1001
AUTOCAD_POSTSCRIPT_FIGURE
1002
{
1000
PSFILL
1000
Grayscale
1000
Grayscale
1070
    25
1002
}
  0
LINE
  5
135F5
  8
YODOROGO
 10
7494.4010853229784
 20
445.0
 30
0.0
 11
7457.4010853229775
 21
445.0
 31
0.0
1001
AUTOCAD_POSTSCRIPT_FIGURE
1002
{
1000
PSFILL
1000
Grayscale
1000
Grayscale
1070
    25
1002
}
  0
LINE
  5
135F6
  8
YODOROGO
 10
7457.4010853229775
 20
445.0
 30
0.0
 11
7457.4010853229775
 21
455.0
 31
0.0
1001
AUTOCAD_POSTSCRIPT_FIGURE
1002
{
1000
PSFILL
1000
Grayscale
1000
Grayscale
1070
    25
1002
}
  0
LINE
  5
135F7
  8
YODOROGO
 10
7457.4010853229775
 20
455.0
 30
0.0
 11
7494.4010853229784
 21
455.0
 31
0.0
1001
AUTOCAD_POSTSCRIPT_FIGURE
1002
{
1000
PSFILL
1000
Grayscale
1000
Grayscale
1070
    25
1002
}
  0
LINE
  5
135F8
  8
YODOROGO
 10
7494.4010853229784
 20
455.0
 30
0.0
 11
7494.4010853229784
 21
466.99999999999989
 31
0.0
1001
AUTOCAD_POSTSCRIPT_FIGURE
1002
{
1000
PSFILL
1000
Grayscale
1000
Grayscale
1070
    25
1002
}
  0
LINE
  5
135F9
  8
YODOROGO
 10
7494.4010853229784
 20
466.99999999999989
 30
0.0
 11
7457.4010853229775
 21
466.99999999999989
 31
0.0
1001
AUTOCAD_POSTSCRIPT_FIGURE
1002
{
1000
PSFILL
1000
Grayscale
1000
Grayscale
1070
    25
1002
}
  0
LINE
  5
135FA
  8
YODOROGO
 10
7457.4010853229775
 20
466.99999999999989
 30
0.0
 11
7457.4010853229775
 21
475.0
 31
0.0
1001
AUTOCAD_POSTSCRIPT_FIGURE
1002
{
1000
PSFILL
1000
Grayscale
1000
Grayscale
1070
    25
1002
}
  0
LINE
  5
135FB
  8
YODOROGO
 10
7457.4010853229775
 20
475.0
 30
0.0
 11
7441.4010853229784
 21
475.0
 31
0.0
1001
AUTOCAD_POSTSCRIPT_FIGURE
1002
{
1000
PSFILL
1000
Grayscale
1000
Grayscale
1070
    25
1002
}
  0
LINE
  5
135FC
  8
YODOROGO
 10
7441.4010853229784
 20
475.0
 30
0.0
 11
7441.4010853229784
 21
466.99999999999989
 31
0.0
1001
AUTOCAD_POSTSCRIPT_FIGURE
1002
{
1000
PSFILL
1000
Grayscale
1000
Grayscale
1070
    25
1002
}
  0
LINE
  5
135FD
  8
YODOROGO
 10
7441.4010853229784
 20
466.99999999999989
 30
0.0
 11
7416.4010853229784
 21
466.99999999999989
 31
0.0
1001
AUTOCAD_POSTSCRIPT_FIGURE
1002
{
1000
PSFILL
1000
Grayscale
1000
Grayscale
1070
    25
1002
}
  0
LINE
  5
135FE
  8
YODOROGO
 10
7416.4010853229784
 20
466.99999999999989
 30
0.0
 11
7416.4010853229784
 21
475.0
 31
0.0
1001
AUTOCAD_POSTSCRIPT_FIGURE
1002
{
1000
PSFILL
1000
Grayscale
1000
Grayscale
1070
    25
1002
}
  0
LINE
  5
135FF
  8
YODOROGO
 10
7416.4010853229784
 20
475.0
 30
0.0
 11
7404.4010853229784
 21
475.0
 31
0.0
1001
AUTOCAD_POSTSCRIPT_FIGURE
1002
{
1000
PSFILL
1000
Grayscale
1000
Grayscale
1070
    25
1002
}
  0
LINE
  5
13600
  8
YODOROGO
 10
7404.4010853229784
 20
475.0
 30
0.0
 11
7404.4010853229784
 21
455.0
 31
0.0
1001
AUTOCAD_POSTSCRIPT_FIGURE
1002
{
1000
PSFILL
1000
Grayscale
1000
Grayscale
1070
    25
1002
}
  0
LINE
  5
13601
  8
YODOROGO
 10
7404.4010853229784
 20
455.0
 30
0.0
 11
7441.4010853229784
 21
455.0
 31
0.0
1001
AUTOCAD_POSTSCRIPT_FIGURE
1002
{
1000
PSFILL
1000
Grayscale
1000
Grayscale
1070
    25
1002
}
  0
LINE
  5
13602
  8
YODOROGO
 10
7441.4010853229784
 20
455.0
 30
0.0
 11
7441.4010853229784
 21
445.0
 31
0.0
1001
AUTOCAD_POSTSCRIPT_FIGURE
1002
{
1000
PSFILL
1000
Grayscale
1000
Grayscale
1070
    25
1002
}
  0
LINE
  5
13603
  8
YODOROGO
 10
7441.4010853229784
 20
445.0
 30
0.0
 11
7404.4010853229784
 21
445.0
 31
0.0
1001
AUTOCAD_POSTSCRIPT_FIGURE
1002
{
1000
PSFILL
1000
Grayscale
1000
Grayscale
1070
    25
1002
}
  0
LINE
  5
13604
  8
YODOROGO
 10
7404.4010853229784
 20
445.0
 30
0.0
 11
7404.4010853229784
 21
433.0
 31
0.0
1001
AUTOCAD_POSTSCRIPT_FIGURE
1002
{
1000
PSFILL
1000
Grayscale
1000
Grayscale
1070
    25
1002
}
  0
LINE
  5
13605
  8
YODOROGO
 10
7404.4010853229784
 20
433.0
 30
0.0
 11
7441.4010853229784
 21
433.0
 31
0.0
1001
AUTOCAD_POSTSCRIPT_FIGURE
1002
{
1000
PSFILL
1000
Grayscale
1000
Grayscale
1070
    25
1002
}
  0
LINE
  5
13606
  8
YODOROGO
 10
7441.4010853229784
 20
433.0
 30
0.0
 11
7441.4010853229784
 21
423.0
 31
0.0
1001
AUTOCAD_POSTSCRIPT_FIGURE
1002
{
1000
PSFILL
1000
Grayscale
1000
Grayscale
1070
    25
1002
}
  0
LINE
  5
13607
  8
YODOROGO
 10
7441.4010853229784
 20
423.0
 30
0.0
 11
7404.4010853229784
 21
423.0
 31
0.0
1001
AUTOCAD_POSTSCRIPT_FIGURE
1002
{
1000
PSFILL
1000
Grayscale
1000
Grayscale
1070
    25
1002
}
  0
LINE
  5
13608
  8
YODOROGO
 10
7404.4010853229784
 20
423.0
 30
0.0
 11
7404.4010853229784
 21
395.0
 31
0.0
1001
AUTOCAD_POSTSCRIPT_FIGURE
1002
{
1000
PSFILL
1000
Grayscale
1000
Grayscale
1070
    25
1002
}
  0
LINE
  5
13609
  8
YODOROGO
 10
7404.4010853229784
 20
395.0
 30
0.0
 11
7418.4010853229784
 21
395.0
 31
0.0
1001
AUTOCAD_POSTSCRIPT_FIGURE
1002
{
1000
PSFILL
1000
Grayscale
1000
Grayscale
1070
    25
1002
}
  0
LINE
  5
1360A
  8
YODOROGO
 10
7418.4010853229784
 20
395.0
 30
0.0
 11
7418.4010853229784
 21
411.00000000000023
 31
0.0
1001
AUTOCAD_POSTSCRIPT_FIGURE
1002
{
1000
PSFILL
1000
Grayscale
1000
Grayscale
1070
    25
1002
}
  0
LINE
  5
1360B
  8
YODOROGO
 10
7108.4010853229784
 20
435.0
 30
0.0
 11
7108.4010853229784
 21
465.0
 31
0.0
  0
LINE
  5
1360C
  8
YODOROGO
 10
7108.4010853229784
 20
465.0
 30
0.0
 11
7146.4010853229784
 21
465.0
 31
0.0
  0
LINE
  5
1360D
  8
YODOROGO
 10
7146.4010853229784
 20
465.0
 30
0.0
 11
7146.4010853229784
 21
475.0
 31
0.0
  0
LINE
  5
1360E
  8
YODOROGO
 10
7146.4010853229784
 20
475.0
 30
0.0
 11
7164.4010853229802
 21
475.0
 31
0.0
  0
LINE
  5
1360F
  8
YODOROGO
 10
7164.4010853229802
 20
475.0
 30
0.0
 11
7164.4010853229802
 21
465.0
 31
0.0
  0
LINE
  5
13610
  8
YODOROGO
 10
7164.4010853229802
 20
465.0
 30
0.0
 11
7188.4010853229784
 21
465.0
 31
0.0
  0
ARC
  5
13611
  8
YODOROGO
 10
7188.4010853229784
 20
455.0
 30
0.0
 40
10.0
 50
0.0
 51
90.0
  0
LINE
  5
13612
  8
YODOROGO
 10
7198.4010853229793
 20
455.0
 30
0.0
 11
7198.4010853229793
 21
435.0
 31
0.0
  0
LINE
  5
13613
  8
YODOROGO
 10
7198.4010853229793
 20
435.0
 30
0.0
 11
7182.4010853229784
 21
435.0
 31
0.0
  0
LINE
  5
13614
  8
YODOROGO
 10
7182.4010853229784
 20
435.0
 30
0.0
 11
7182.4010853229784
 21
448.99999999999972
 31
0.0
  0
LINE
  5
13615
  8
YODOROGO
 10
7182.4010853229784
 20
448.99999999999972
 30
0.0
 11
7124.4010853229784
 21
448.99999999999972
 31
0.0
  0
LINE
  5
13616
  8
YODOROGO
 10
7124.4010853229784
 20
448.99999999999972
 30
0.0
 11
7124.4010853229784
 21
435.0
 31
0.0
  0
LINE
  5
13617
  8
YODOROGO
 10
7124.4010853229784
 20
435.0
 30
0.0
 11
7108.4010853229784
 21
435.0
 31
0.0
  0
LINE
  5
13618
  8
YODOROGO
 10
7108.4010853229784
 20
405.00000000000063
 30
0.0
 11
7146.4010853229784
 21
405.00000000000063
 31
0.0
  0
LINE
  5
13619
  8
YODOROGO
 10
7146.4010853229784
 20
405.00000000000063
 30
0.0
 11
7146.4010853229784
 21
355.0
 31
0.0
  0
ARC
  5
1361A
  8
YODOROGO
 10
7140.4010853229811
 20
354.99999999999937
 30
0.0
 40
5.9999999999990887
 50
270.0
 51
0.0000000000054281
  0
LINE
  5
1361B
  8
YODOROGO
 10
7140.4010853229811
 20
348.99999999999977
 30
0.0
 11
7134.4010853229793
 21
348.99999999999977
 31
0.0
  0
ARC
  5
1361C
  8
YODOROGO
 10
7134.4010853229793
 20
358.99999999999977
 30
0.0
 40
10.0
 50
180.0
 51
270.0
  0
LINE
  5
1361D
  8
YODOROGO
 10
7124.4010853229784
 20
358.99999999999977
 30
0.0
 11
7124.4010853229784
 21
395.0
 31
0.0
  0
LINE
  5
1361E
  8
YODOROGO
 10
7124.4010853229784
 20
395.0
 30
0.0
 11
7108.4010853229784
 21
395.0
 31
0.0
  0
LINE
  5
1361F
  8
YODOROGO
 10
7108.4010853229784
 20
395.0
 30
0.0
 11
7108.4010853229784
 21
345.0
 31
0.0
  0
ARC
  5
13620
  8
YODOROGO
 10
7128.4010853229793
 20
345.0
 30
0.0
 40
20.0
 50
180.0
 51
270.0
  0
LINE
  5
13621
  8
YODOROGO
 10
7128.4010853229793
 20
325.0
 30
0.0
 11
7198.4010853229793
 21
325.0
 31
0.0
  0
LINE
  5
13622
  8
YODOROGO
 10
7198.4010853229793
 20
325.0
 30
0.0
 11
7198.4010853229793
 21
348.99999999999977
 31
0.0
  0
LINE
  5
13623
  8
YODOROGO
 10
7198.4010853229793
 20
348.99999999999977
 30
0.0
 11
7164.4010853229784
 21
348.99999999999977
 31
0.0
  0
LINE
  5
13624
  8
YODOROGO
 10
7164.4010853229784
 20
348.99999999999977
 30
0.0
 11
7164.4010853229784
 21
369.00000000000023
 31
0.0
  0
LINE
  5
13625
  8
YODOROGO
 10
7164.4010853229784
 20
369.00000000000023
 30
0.0
 11
7198.4010853229793
 21
369.00000000000023
 31
0.0
  0
LINE
  5
13626
  8
YODOROGO
 10
7198.4010853229793
 20
369.00000000000023
 30
0.0
 11
7198.4010853229793
 21
385.0
 31
0.0
  0
LINE
  5
13627
  8
YODOROGO
 10
7198.4010853229793
 20
385.0
 30
0.0
 11
7164.4010853229784
 21
385.0
 31
0.0
  0
LINE
  5
13628
  8
YODOROGO
 10
7164.4010853229784
 20
385.0
 30
0.0
 11
7164.4010853229784
 21
405.00000000000063
 31
0.0
  0
LINE
  5
13629
  8
YODOROGO
 10
7164.4010853229784
 20
405.00000000000063
 30
0.0
 11
7198.4010853229793
 21
405.00000000000063
 31
0.0
  0
LINE
  5
1362A
  8
YODOROGO
 10
7198.4010853229793
 20
405.00000000000063
 30
0.0
 11
7198.4010853229793
 21
423.0
 31
0.0
  0
LINE
  5
1362B
  8
YODOROGO
 10
7198.4010853229793
 20
423.0
 30
0.0
 11
7108.4010853229784
 21
423.0
 31
0.0
  0
LINE
  5
1362C
  8
YODOROGO
 10
7108.4010853229784
 20
423.0
 30
0.0
 11
7108.4010853229784
 21
405.00000000000063
 31
0.0
  0
LINE
  5
1362D
  8
YODOROGO
 10
7100.4010853229784
 20
424.2820323027546
 30
0.0
 11
7100.4010853229784
 21
406.2820323027546
 31
0.0
1001
AUTOCAD_POSTSCRIPT_FIGURE
1002
{
1000
PSFILL
1000
Grayscale
1000
Grayscale
1070
   100
1002
}
  0
LINE
  5
1362E
  8
YODOROGO
 10
7100.4010853229784
 20
406.2820323027546
 30
0.0
 11
7064.4010853229802
 21
416.99999999999989
 31
0.0
1001
AUTOCAD_POSTSCRIPT_FIGURE
1002
{
1000
PSFILL
1000
Grayscale
1000
Grayscale
1070
   100
1002
}
  0
LINE
  5
1362F
  8
YODOROGO
 10
7064.4010853229802
 20
416.99999999999989
 30
0.0
 11
7064.4010853229802
 21
435.0
 31
0.0
1001
AUTOCAD_POSTSCRIPT_FIGURE
1002
{
1000
PSFILL
1000
Grayscale
1000
Grayscale
1070
   100
1002
}
  0
LINE
  5
13630
  8
YODOROGO
 10
7064.4010853229802
 20
435.0
 30
0.0
 11
7100.4010853229784
 21
424.2820323027546
 31
0.0
1001
AUTOCAD_POSTSCRIPT_FIGURE
1002
{
1000
PSFILL
1000
Grayscale
1000
Grayscale
1070
   100
1002
}
  0
LINE
  5
13631
  8
YODOROGO
 10
6994.4010853229802
 20
405.0
 30
0.0
 11
6994.4010853229802
 21
410.99999999999949
 31
0.0
  0
LINE
  5
13632
  8
YODOROGO
 10
6994.4010853229802
 20
410.99999999999949
 30
0.0
 11
7005.4591951532184
 21
414.23096079125742
 31
0.0
  0
LINE
  5
13633
  8
YODOROGO
 10
7005.4591951532184
 20
414.23096079125742
 30
0.0
 11
7005.4591951532138
 21
436.20471312675289
 31
0.0
  0
LINE
  5
13634
  8
YODOROGO
 10
7005.4591951532138
 20
436.20471312675289
 30
0.0
 11
6994.4010853229802
 21
436.20471312675289
 31
0.0
  0
LINE
  5
13635
  8
YODOROGO
 10
6994.4010853229802
 20
436.20471312675289
 30
0.0
 11
6994.4010853229802
 21
441.20471312675249
 31
0.0
  0
LINE
  5
13636
  8
YODOROGO
 10
6994.4010853229802
 20
441.20471312675249
 30
0.0
 11
7019.5173049834511
 21
441.20471312675249
 31
0.0
  0
LINE
  5
13637
  8
YODOROGO
 10
7019.5173049834511
 20
441.20471312675249
 30
0.0
 11
7019.5173049834511
 21
436.20471312675289
 31
0.0
  0
LINE
  5
13638
  8
YODOROGO
 10
7019.5173049834511
 20
436.20471312675289
 30
0.0
 11
7008.4591951532157
 21
436.20471312675289
 31
0.0
  0
LINE
  5
13639
  8
YODOROGO
 10
7008.4591951532157
 20
436.20471312675289
 30
0.0
 11
7008.4591951532157
 21
414.76685917611962
 31
0.0
  0
LINE
  5
1363A
  8
YODOROGO
 10
7008.4591951532157
 20
414.76685917611962
 30
0.0
 11
7019.5173049834511
 21
417.72987077494622
 31
0.0
  0
LINE
  5
1363B
  8
YODOROGO
 10
7019.5173049834511
 20
417.72987077494622
 30
0.0
 11
7019.5173049834484
 21
411.99781996737647
 31
0.0
  0
LINE
  5
1363C
  8
YODOROGO
 10
7019.5173049834484
 20
411.99781996737647
 30
0.0
 11
6994.4010853229802
 21
405.0
 31
0.0
  0
LINE
  5
1363D
  8
YODOROGO
 10
7032.4010853229784
 20
405.0
 30
0.0
 11
7034.4010853229793
 21
405.0
 31
0.0
1001
AUTOCAD_POSTSCRIPT_FIGURE
1002
{
1000
PSFILL
1000
Grayscale
1000
Grayscale
1070
   100
1002
}
  0
LINE
  5
1363E
  8
YODOROGO
 10
7034.4010853229793
 20
405.0
 30
0.0
 11
7024.7257467183535
 21
453.0
 31
0.0
1001
AUTOCAD_POSTSCRIPT_FIGURE
1002
{
1000
PSFILL
1000
Grayscale
1000
Grayscale
1070
   100
1002
}
  0
LINE
  5
1363F
  8
YODOROGO
 10
7024.7257467183535
 20
453.0
 30
0.0
 11
7034.4010853229793
 21
453.0
 31
0.0
1001
AUTOCAD_POSTSCRIPT_FIGURE
1002
{
1000
PSFILL
1000
Grayscale
1000
Grayscale
1070
   100
1002
}
  0
LINE
  5
13640
  8
YODOROGO
 10
7034.4010853229793
 20
453.0
 30
0.0
 11
7034.4010853229793
 21
456.99999999999989
 31
0.0
1001
AUTOCAD_POSTSCRIPT_FIGURE
1002
{
1000
PSFILL
1000
Grayscale
1000
Grayscale
1070
   100
1002
}
  0
LINE
  5
13641
  8
YODOROGO
 10
7034.4010853229793
 20
456.99999999999989
 30
0.0
 11
7034.4010853229793
 21
463.0
 31
0.0
1001
AUTOCAD_POSTSCRIPT_FIGURE
1002
{
1000
PSFILL
1000
Grayscale
1000
Grayscale
1070
   100
1002
}
  0
LINE
  5
13642
  8
YODOROGO
 10
7034.4010853229793
 20
463.0
 30
0.0
 11
7030.4010853229784
 21
463.0
 31
0.0
1001
AUTOCAD_POSTSCRIPT_FIGURE
1002
{
1000
PSFILL
1000
Grayscale
1000
Grayscale
1070
   100
1002
}
  0
LINE
  5
13643
  8
YODOROGO
 10
7030.4010853229784
 20
463.0
 30
0.0
 11
7030.4010853229784
 21
456.99999999999989
 31
0.0
1001
AUTOCAD_POSTSCRIPT_FIGURE
1002
{
1000
PSFILL
1000
Grayscale
1000
Grayscale
1070
   100
1002
}
  0
LINE
  5
13644
  8
YODOROGO
 10
7030.4010853229784
 20
456.99999999999989
 30
0.0
 11
7023.9517196299839
 21
456.99999999999989
 31
0.0
1001
AUTOCAD_POSTSCRIPT_FIGURE
1002
{
1000
PSFILL
1000
Grayscale
1000
Grayscale
1070
   100
1002
}
  0
LINE
  5
13645
  8
YODOROGO
 10
7023.9517196299839
 20
456.99999999999989
 30
0.0
 11
7022.7906789974277
 21
463.0
 31
0.0
1001
AUTOCAD_POSTSCRIPT_FIGURE
1002
{
1000
PSFILL
1000
Grayscale
1000
Grayscale
1070
   100
1002
}
  0
LINE
  5
13646
  8
YODOROGO
 10
7022.7906789974277
 20
463.0
 30
0.0
 11
7017.7906789974259
 21
463.0
 31
0.0
1001
AUTOCAD_POSTSCRIPT_FIGURE
1002
{
1000
PSFILL
1000
Grayscale
1000
Grayscale
1070
   100
1002
}
  0
LINE
  5
13647
  8
YODOROGO
 10
7017.7906789974259
 20
463.0
 30
0.0
 11
7019.1517196299801
 21
456.99999999999989
 31
0.0
1001
AUTOCAD_POSTSCRIPT_FIGURE
1002
{
1000
PSFILL
1000
Grayscale
1000
Grayscale
1070
   100
1002
}
  0
LINE
  5
13648
  8
YODOROGO
 10
7019.1517196299801
 20
456.99999999999989
 30
0.0
 11
6994.4010853229802
 21
456.99999999999989
 31
0.0
1001
AUTOCAD_POSTSCRIPT_FIGURE
1002
{
1000
PSFILL
1000
Grayscale
1000
Grayscale
1070
   100
1002
}
  0
LINE
  5
13649
  8
YODOROGO
 10
6994.4010853229802
 20
456.99999999999989
 30
0.0
 11
6994.4010853229802
 21
453.0
 31
0.0
1001
AUTOCAD_POSTSCRIPT_FIGURE
1002
{
1000
PSFILL
1000
Grayscale
1000
Grayscale
1070
   100
1002
}
  0
LINE
  5
1364A
  8
YODOROGO
 10
6994.4010853229802
 20
453.0
 30
0.0
 11
7020.0590800516857
 21
453.0
 31
0.0
1001
AUTOCAD_POSTSCRIPT_FIGURE
1002
{
1000
PSFILL
1000
Grayscale
1000
Grayscale
1070
   100
1002
}
  0
LINE
  5
1364B
  8
YODOROGO
 10
7020.0590800516857
 20
453.0
 30
0.0
 11
7032.4010853229784
 21
405.0
 31
0.0
1001
AUTOCAD_POSTSCRIPT_FIGURE
1002
{
1000
PSFILL
1000
Grayscale
1000
Grayscale
1070
   100
1002
}
  0
LINE
  5
1364C
  8
YODOROGO
 10
6944.4010853229784
 20
429.00681288059621
 30
0.0
 11
6944.4010853229784
 21
433.00681288059587
 31
0.0
1001
AUTOCAD_POSTSCRIPT_FIGURE
1002
{
1000
PSFILL
1000
Grayscale
1000
Grayscale
1070
   100
1002
}
  0
LINE
  5
1364D
  8
YODOROGO
 10
6944.4010853229784
 20
433.00681288059587
 30
0.0
 11
6950.4010853229793
 21
446.75927109110421
 31
0.0
1001
AUTOCAD_POSTSCRIPT_FIGURE
1002
{
1000
PSFILL
1000
Grayscale
1000
Grayscale
1070
   100
1002
}
  0
LINE
  5
1364E
  8
YODOROGO
 10
6950.4010853229793
 20
446.75927109110421
 30
0.0
 11
6950.4010853229793
 21
453.0
 31
0.0
1001
AUTOCAD_POSTSCRIPT_FIGURE
1002
{
1000
PSFILL
1000
Grayscale
1000
Grayscale
1070
   100
1002
}
  0
LINE
  5
1364F
  8
YODOROGO
 10
6950.4010853229793
 20
453.0
 30
0.0
 11
6944.4010853229784
 21
453.0
 31
0.0
1001
AUTOCAD_POSTSCRIPT_FIGURE
1002
{
1000
PSFILL
1000
Grayscale
1000
Grayscale
1070
   100
1002
}
  0
LINE
  5
13650
  8
YODOROGO
 10
6944.4010853229784
 20
453.0
 30
0.0
 11
6944.4010853229784
 21
456.99999999999989
 31
0.0
1001
AUTOCAD_POSTSCRIPT_FIGURE
1002
{
1000
PSFILL
1000
Grayscale
1000
Grayscale
1070
   100
1002
}
  0
LINE
  5
13651
  8
YODOROGO
 10
6944.4010853229784
 20
456.99999999999989
 30
0.0
 11
6950.4010853229793
 21
456.99999999999989
 31
0.0
1001
AUTOCAD_POSTSCRIPT_FIGURE
1002
{
1000
PSFILL
1000
Grayscale
1000
Grayscale
1070
   100
1002
}
  0
LINE
  5
13652
  8
YODOROGO
 10
6950.4010853229793
 20
456.99999999999989
 30
0.0
 11
6950.4010853229793
 21
463.0
 31
0.0
1001
AUTOCAD_POSTSCRIPT_FIGURE
1002
{
1000
PSFILL
1000
Grayscale
1000
Grayscale
1070
   100
1002
}
  0
LINE
  5
13653
  8
YODOROGO
 10
6950.4010853229793
 20
463.0
 30
0.0
 11
6954.4010853229775
 21
463.0
 31
0.0
1001
AUTOCAD_POSTSCRIPT_FIGURE
1002
{
1000
PSFILL
1000
Grayscale
1000
Grayscale
1070
   100
1002
}
  0
LINE
  5
13654
  8
YODOROGO
 10
6954.4010853229775
 20
463.0
 30
0.0
 11
6954.4010853229775
 21
456.99999999999989
 31
0.0
1001
AUTOCAD_POSTSCRIPT_FIGURE
1002
{
1000
PSFILL
1000
Grayscale
1000
Grayscale
1070
   100
1002
}
  0
LINE
  5
13655
  8
YODOROGO
 10
6954.4010853229775
 20
456.99999999999989
 30
0.0
 11
6962.4010853229793
 21
456.99999999999989
 31
0.0
1001
AUTOCAD_POSTSCRIPT_FIGURE
1002
{
1000
PSFILL
1000
Grayscale
1000
Grayscale
1070
   100
1002
}
  0
LINE
  5
13656
  8
YODOROGO
 10
6962.4010853229793
 20
456.99999999999989
 30
0.0
 11
6962.4010853229793
 21
463.0
 31
0.0
1001
AUTOCAD_POSTSCRIPT_FIGURE
1002
{
1000
PSFILL
1000
Grayscale
1000
Grayscale
1070
   100
1002
}
  0
LINE
  5
13657
  8
YODOROGO
 10
6962.4010853229793
 20
463.0
 30
0.0
 11
6966.4010853229802
 21
463.0
 31
0.0
1001
AUTOCAD_POSTSCRIPT_FIGURE
1002
{
1000
PSFILL
1000
Grayscale
1000
Grayscale
1070
   100
1002
}
  0
LINE
  5
13658
  8
YODOROGO
 10
6966.4010853229802
 20
463.0
 30
0.0
 11
6966.4010853229802
 21
456.99999999999989
 31
0.0
1001
AUTOCAD_POSTSCRIPT_FIGURE
1002
{
1000
PSFILL
1000
Grayscale
1000
Grayscale
1070
   100
1002
}
  0
LINE
  5
13659
  8
YODOROGO
 10
6966.4010853229802
 20
456.99999999999989
 30
0.0
 11
6972.4010853229802
 21
456.99999999999989
 31
0.0
1001
AUTOCAD_POSTSCRIPT_FIGURE
1002
{
1000
PSFILL
1000
Grayscale
1000
Grayscale
1070
   100
1002
}
  0
LINE
  5
1365A
  8
YODOROGO
 10
6972.4010853229802
 20
456.99999999999989
 30
0.0
 11
6972.4010853229802
 21
463.0
 31
0.0
1001
AUTOCAD_POSTSCRIPT_FIGURE
1002
{
1000
PSFILL
1000
Grayscale
1000
Grayscale
1070
   100
1002
}
  0
LINE
  5
1365B
  8
YODOROGO
 10
6972.4010853229802
 20
463.0
 30
0.0
 11
6976.4010853229793
 21
463.0
 31
0.0
1001
AUTOCAD_POSTSCRIPT_FIGURE
1002
{
1000
PSFILL
1000
Grayscale
1000
Grayscale
1070
   100
1002
}
  0
LINE
  5
1365C
  8
YODOROGO
 10
6976.4010853229793
 20
463.0
 30
0.0
 11
6976.4010853229793
 21
456.99999999999989
 31
0.0
1001
AUTOCAD_POSTSCRIPT_FIGURE
1002
{
1000
PSFILL
1000
Grayscale
1000
Grayscale
1070
   100
1002
}
  0
LINE
  5
1365D
  8
YODOROGO
 10
6976.4010853229793
 20
456.99999999999989
 30
0.0
 11
6984.4010853229784
 21
456.99999999999989
 31
0.0
1001
AUTOCAD_POSTSCRIPT_FIGURE
1002
{
1000
PSFILL
1000
Grayscale
1000
Grayscale
1070
   100
1002
}
  0
LINE
  5
1365E
  8
YODOROGO
 10
6984.4010853229784
 20
456.99999999999989
 30
0.0
 11
6984.4010853229784
 21
453.0
 31
0.0
1001
AUTOCAD_POSTSCRIPT_FIGURE
1002
{
1000
PSFILL
1000
Grayscale
1000
Grayscale
1070
   100
1002
}
  0
LINE
  5
1365F
  8
YODOROGO
 10
6984.4010853229784
 20
453.0
 30
0.0
 11
6976.4010853229793
 21
453.0
 31
0.0
1001
AUTOCAD_POSTSCRIPT_FIGURE
1002
{
1000
PSFILL
1000
Grayscale
1000
Grayscale
1070
   100
1002
}
  0
LINE
  5
13660
  8
YODOROGO
 10
6976.4010853229793
 20
453.0
 30
0.0
 11
6976.4010853229793
 21
443.20471312675301
 31
0.0
1001
AUTOCAD_POSTSCRIPT_FIGURE
1002
{
1000
PSFILL
1000
Grayscale
1000
Grayscale
1070
   100
1002
}
  0
LINE
  5
13661
  8
YODOROGO
 10
6976.4010853229793
 20
443.20471312675301
 30
0.0
 11
6984.4010853229784
 21
443.20471312675301
 31
0.0
1001
AUTOCAD_POSTSCRIPT_FIGURE
1002
{
1000
PSFILL
1000
Grayscale
1000
Grayscale
1070
   100
1002
}
  0
LINE
  5
13662
  8
YODOROGO
 10
6984.4010853229784
 20
443.20471312675301
 30
0.0
 11
6984.4010853229784
 21
439.20471312675261
 31
0.0
1001
AUTOCAD_POSTSCRIPT_FIGURE
1002
{
1000
PSFILL
1000
Grayscale
1000
Grayscale
1070
   100
1002
}
  0
LINE
  5
13663
  8
YODOROGO
 10
6984.4010853229784
 20
439.20471312675261
 30
0.0
 11
6976.401085322982
 21
439.20471312675312
 31
0.0
1001
AUTOCAD_POSTSCRIPT_FIGURE
1002
{
1000
PSFILL
1000
Grayscale
1000
Grayscale
1070
   100
1002
}
  0
LINE
  5
13664
  8
YODOROGO
 10
6976.401085322982
 20
439.20471312675312
 30
0.0
 11
6976.4010853229793
 21
438.41487893238008
 31
0.0
1001
AUTOCAD_POSTSCRIPT_FIGURE
1002
{
1000
PSFILL
1000
Grayscale
1000
Grayscale
1070
   100
1002
}
  0
LINE
  5
13665
  8
YODOROGO
 10
6976.4010853229793
 20
438.41487893238008
 30
0.0
 11
6984.4010853229784
 21
421.3063711830323
 31
0.0
1001
AUTOCAD_POSTSCRIPT_FIGURE
1002
{
1000
PSFILL
1000
Grayscale
1000
Grayscale
1070
   100
1002
}
  0
LINE
  5
13666
  8
YODOROGO
 10
6984.4010853229784
 20
421.3063711830323
 30
0.0
 11
6984.4010853229784
 21
417.3063711830319
 31
0.0
1001
AUTOCAD_POSTSCRIPT_FIGURE
1002
{
1000
PSFILL
1000
Grayscale
1000
Grayscale
1070
   100
1002
}
  0
LINE
  5
13667
  8
YODOROGO
 10
6984.4010853229784
 20
417.3063711830319
 30
0.0
 11
6976.4010853229793
 21
430.41487893237962
 31
0.0
1001
AUTOCAD_POSTSCRIPT_FIGURE
1002
{
1000
PSFILL
1000
Grayscale
1000
Grayscale
1070
   100
1002
}
  0
LINE
  5
13668
  8
YODOROGO
 10
6976.4010853229793
 20
430.41487893237962
 30
0.0
 11
6976.4010853229793
 21
405.0
 31
0.0
1001
AUTOCAD_POSTSCRIPT_FIGURE
1002
{
1000
PSFILL
1000
Grayscale
1000
Grayscale
1070
   100
1002
}
  0
LINE
  5
13669
  8
YODOROGO
 10
6976.4010853229793
 20
405.0
 30
0.0
 11
6972.4010853229802
 21
405.0
 31
0.0
1001
AUTOCAD_POSTSCRIPT_FIGURE
1002
{
1000
PSFILL
1000
Grayscale
1000
Grayscale
1070
   100
1002
}
  0
LINE
  5
1366A
  8
YODOROGO
 10
6972.4010853229802
 20
405.0
 30
0.0
 11
6972.4010853229802
 21
429.96742038378721
 31
0.0
1001
AUTOCAD_POSTSCRIPT_FIGURE
1002
{
1000
PSFILL
1000
Grayscale
1000
Grayscale
1070
   100
1002
}
  0
LINE
  5
1366B
  8
YODOROGO
 10
6972.4010853229802
 20
429.96742038378721
 30
0.0
 11
6962.4010853229793
 21
417.3063711830319
 31
0.0
1001
AUTOCAD_POSTSCRIPT_FIGURE
1002
{
1000
PSFILL
1000
Grayscale
1000
Grayscale
1070
   100
1002
}
  0
LINE
  5
1366C
  8
YODOROGO
 10
6962.4010853229793
 20
417.3063711830319
 30
0.0
 11
6962.4010853229793
 21
421.3063711830323
 31
0.0
1001
AUTOCAD_POSTSCRIPT_FIGURE
1002
{
1000
PSFILL
1000
Grayscale
1000
Grayscale
1070
   100
1002
}
  0
LINE
  5
1366D
  8
YODOROGO
 10
6962.4010853229793
 20
421.3063711830323
 30
0.0
 11
6972.4010853229802
 21
437.96742038378778
 31
0.0
1001
AUTOCAD_POSTSCRIPT_FIGURE
1002
{
1000
PSFILL
1000
Grayscale
1000
Grayscale
1070
   100
1002
}
  0
LINE
  5
1366E
  8
YODOROGO
 10
6972.4010853229802
 20
437.96742038378778
 30
0.0
 11
6972.4010853229802
 21
439.20471312675261
 31
0.0
1001
AUTOCAD_POSTSCRIPT_FIGURE
1002
{
1000
PSFILL
1000
Grayscale
1000
Grayscale
1070
   100
1002
}
  0
LINE
  5
1366F
  8
YODOROGO
 10
6972.4010853229802
 20
439.20471312675261
 30
0.0
 11
6964.4010853229802
 21
439.20471312675261
 31
0.0
1001
AUTOCAD_POSTSCRIPT_FIGURE
1002
{
1000
PSFILL
1000
Grayscale
1000
Grayscale
1070
   100
1002
}
  0
LINE
  5
13670
  8
YODOROGO
 10
6964.4010853229802
 20
439.20471312675261
 30
0.0
 11
6964.4010853229802
 21
443.20471312675301
 31
0.0
1001
AUTOCAD_POSTSCRIPT_FIGURE
1002
{
1000
PSFILL
1000
Grayscale
1000
Grayscale
1070
   100
1002
}
  0
LINE
  5
13671
  8
YODOROGO
 10
6964.4010853229802
 20
443.20471312675301
 30
0.0
 11
6972.4010853229802
 21
443.20471312675301
 31
0.0
1001
AUTOCAD_POSTSCRIPT_FIGURE
1002
{
1000
PSFILL
1000
Grayscale
1000
Grayscale
1070
   100
1002
}
  0
LINE
  5
13672
  8
YODOROGO
 10
6972.4010853229802
 20
443.20471312675301
 30
0.0
 11
6972.4010853229802
 21
453.0
 31
0.0
1001
AUTOCAD_POSTSCRIPT_FIGURE
1002
{
1000
PSFILL
1000
Grayscale
1000
Grayscale
1070
   100
1002
}
  0
LINE
  5
13673
  8
YODOROGO
 10
6972.4010853229802
 20
453.0
 30
0.0
 11
6954.4010853229775
 21
453.0
 31
0.0
1001
AUTOCAD_POSTSCRIPT_FIGURE
1002
{
1000
PSFILL
1000
Grayscale
1000
Grayscale
1070
   100
1002
}
  0
LINE
  5
13674
  8
YODOROGO
 10
6954.4010853229775
 20
453.0
 30
0.0
 11
6954.4010853229775
 21
447.50545891399429
 31
0.0
1001
AUTOCAD_POSTSCRIPT_FIGURE
1002
{
1000
PSFILL
1000
Grayscale
1000
Grayscale
1070
   100
1002
}
  0
LINE
  5
13675
  8
YODOROGO
 10
6954.4010853229775
 20
447.50545891399429
 30
0.0
 11
6960.4010853229784
 21
438.97631546371201
 31
0.0
1001
AUTOCAD_POSTSCRIPT_FIGURE
1002
{
1000
PSFILL
1000
Grayscale
1000
Grayscale
1070
   100
1002
}
  0
LINE
  5
13676
  8
YODOROGO
 10
6960.4010853229784
 20
438.97631546371201
 30
0.0
 11
6960.4010853229784
 21
434.97631546371218
 31
0.0
1001
AUTOCAD_POSTSCRIPT_FIGURE
1002
{
1000
PSFILL
1000
Grayscale
1000
Grayscale
1070
   100
1002
}
  0
LINE
  5
13677
  8
YODOROGO
 10
6960.4010853229784
 20
434.97631546371218
 30
0.0
 11
6954.4010853229775
 21
441.50545891399457
 31
0.0
1001
AUTOCAD_POSTSCRIPT_FIGURE
1002
{
1000
PSFILL
1000
Grayscale
1000
Grayscale
1070
   100
1002
}
  0
LINE
  5
13678
  8
YODOROGO
 10
6954.4010853229775
 20
441.50545891399457
 30
0.0
 11
6954.4010853229775
 21
405.0
 31
0.0
1001
AUTOCAD_POSTSCRIPT_FIGURE
1002
{
1000
PSFILL
1000
Grayscale
1000
Grayscale
1070
   100
1002
}
  0
LINE
  5
13679
  8
YODOROGO
 10
6954.4010853229775
 20
405.0
 30
0.0
 11
6950.4010853229793
 21
405.0
 31
0.0
1001
AUTOCAD_POSTSCRIPT_FIGURE
1002
{
1000
PSFILL
1000
Grayscale
1000
Grayscale
1070
   100
1002
}
  0
LINE
  5
1367A
  8
YODOROGO
 10
6950.4010853229793
 20
405.0
 30
0.0
 11
6950.4010853229793
 21
440.75927109110461
 31
0.0
1001
AUTOCAD_POSTSCRIPT_FIGURE
1002
{
1000
PSFILL
1000
Grayscale
1000
Grayscale
1070
   100
1002
}
  0
LINE
  5
1367B
  8
YODOROGO
 10
6950.4010853229793
 20
440.75927109110461
 30
0.0
 11
6944.4010853229784
 21
429.00681288059621
 31
0.0
1001
AUTOCAD_POSTSCRIPT_FIGURE
1002
{
1000
PSFILL
1000
Grayscale
1000
Grayscale
1070
   100
1002
}
  0
LINE
  5
1367C
  8
YODOROGO
 10
6946.4010853229784
 20
336.99999999999989
 30
0.0
 11
6982.4010853229802
 21
336.99999999999989
 31
0.0
1001
AUTOCAD_POSTSCRIPT_FIGURE
1002
{
1000
PSFILL
1000
Grayscale
1000
Grayscale
1070
   100
1002
}
  0
LINE
  5
1367D
  8
YODOROGO
 10
6982.4010853229802
 20
336.99999999999989
 30
0.0
 11
6975.2662511977369
 21
352.12107856710128
 31
0.0
1001
AUTOCAD_POSTSCRIPT_FIGURE
1002
{
1000
PSFILL
1000
Grayscale
1000
Grayscale
1070
   100
1002
}
  0
LINE
  5
1367E
  8
YODOROGO
 10
6975.2662511977369
 20
352.12107856710128
 30
0.0
 11
6971.2662511977387
 21
352.12107856710128
 31
0.0
1001
AUTOCAD_POSTSCRIPT_FIGURE
1002
{
1000
PSFILL
1000
Grayscale
1000
Grayscale
1070
   100
1002
}
  0
LINE
  5
1367F
  8
YODOROGO
 10
6971.2662511977387
 20
352.12107856710128
 30
0.0
 11
6975.5136977021612
 21
341.99999999999989
 31
0.0
1001
AUTOCAD_POSTSCRIPT_FIGURE
1002
{
1000
PSFILL
1000
Grayscale
1000
Grayscale
1070
   100
1002
}
  0
LINE
  5
13680
  8
YODOROGO
 10
6975.5136977021612
 20
341.99999999999989
 30
0.0
 11
6953.8866795711938
 21
341.99999999999989
 31
0.0
1001
AUTOCAD_POSTSCRIPT_FIGURE
1002
{
1000
PSFILL
1000
Grayscale
1000
Grayscale
1070
   100
1002
}
  0
LINE
  5
13681
  8
YODOROGO
 10
6953.8866795711938
 20
341.99999999999989
 30
0.0
 11
6961.1273972289373
 21
360.18834023529678
 31
0.0
1001
AUTOCAD_POSTSCRIPT_FIGURE
1002
{
1000
PSFILL
1000
Grayscale
1000
Grayscale
1070
   100
1002
}
  0
LINE
  5
13682
  8
YODOROGO
 10
6961.1273972289373
 20
360.18834023529678
 30
0.0
 11
6984.4010853229784
 21
360.18834023529678
 31
0.0
1001
AUTOCAD_POSTSCRIPT_FIGURE
1002
{
1000
PSFILL
1000
Grayscale
1000
Grayscale
1070
   100
1002
}
  0
LINE
  5
13683
  8
YODOROGO
 10
6984.4010853229784
 20
360.18834023529678
 30
0.0
 11
6984.4010853229784
 21
365.18834023529678
 31
0.0
1001
AUTOCAD_POSTSCRIPT_FIGURE
1002
{
1000
PSFILL
1000
Grayscale
1000
Grayscale
1070
   100
1002
}
  0
LINE
  5
13684
  8
YODOROGO
 10
6984.4010853229784
 20
365.18834023529678
 30
0.0
 11
6944.4010853229784
 21
365.18834023529678
 31
0.0
1001
AUTOCAD_POSTSCRIPT_FIGURE
1002
{
1000
PSFILL
1000
Grayscale
1000
Grayscale
1070
   100
1002
}
  0
LINE
  5
13685
  8
YODOROGO
 10
6944.4010853229784
 20
365.18834023529678
 30
0.0
 11
6944.4010853229784
 21
360.18834023529678
 31
0.0
1001
AUTOCAD_POSTSCRIPT_FIGURE
1002
{
1000
PSFILL
1000
Grayscale
1000
Grayscale
1070
   100
1002
}
  0
LINE
  5
13686
  8
YODOROGO
 10
6944.4010853229784
 20
360.18834023529678
 30
0.0
 11
6956.1273972289373
 21
360.18834023529678
 31
0.0
1001
AUTOCAD_POSTSCRIPT_FIGURE
1002
{
1000
PSFILL
1000
Grayscale
1000
Grayscale
1070
   100
1002
}
  0
LINE
  5
13687
  8
YODOROGO
 10
6956.1273972289373
 20
360.18834023529678
 30
0.0
 11
6946.4010853229784
 21
336.99999999999989
 31
0.0
1001
AUTOCAD_POSTSCRIPT_FIGURE
1002
{
1000
PSFILL
1000
Grayscale
1000
Grayscale
1070
   100
1002
}
  0
LINE
  5
13688
  8
YODOROGO
 10
6944.4010853229784
 20
379.05572940382058
 30
0.0
 11
6964.4010853229802
 21
395.0
 31
0.0
  0
LINE
  5
13689
  8
YODOROGO
 10
6964.4010853229802
 20
395.0
 30
0.0
 11
6984.4010853229784
 21
379.05572940382058
 31
0.0
  0
LINE
  5
1368A
  8
YODOROGO
 10
6984.4010853229784
 20
379.05572940382058
 30
0.0
 11
6984.4010853229784
 21
373.05572940382092
 31
0.0
  0
LINE
  5
1368B
  8
YODOROGO
 10
6984.4010853229784
 20
373.05572940382092
 30
0.0
 11
6964.4010853229802
 21
389.0000000000004
 31
0.0
  0
LINE
  5
1368C
  8
YODOROGO
 10
6964.4010853229802
 20
389.0000000000004
 30
0.0
 11
6944.4010853229784
 21
373.05572940382092
 31
0.0
  0
LINE
  5
1368D
  8
YODOROGO
 10
6944.4010853229784
 20
373.05572940382092
 30
0.0
 11
6944.4010853229784
 21
379.05572940382058
 31
0.0
  0
LINE
  5
1368E
  8
YODOROGO
 10
6952.4010853229784
 20
376.2556019034929
 30
0.0
 11
6976.4010853229793
 21
376.2556019034929
 31
0.0
  0
LINE
  5
1368F
  8
YODOROGO
 10
6976.4010853229793
 20
376.2556019034929
 30
0.0
 11
6976.4010853229793
 21
370.25560190349267
 31
0.0
  0
LINE
  5
13690
  8
YODOROGO
 10
6976.4010853229793
 20
370.25560190349267
 30
0.0
 11
6952.4010853229784
 21
370.25560190349267
 31
0.0
  0
LINE
  5
13691
  8
YODOROGO
 10
6952.4010853229784
 20
370.25560190349267
 30
0.0
 11
6952.4010853229784
 21
376.2556019034929
 31
0.0
  0
LINE
  5
13692
  8
YODOROGO
 10
7086.4010853229802
 20
385.0
 30
0.0
 11
7086.4010853229802
 21
371.00000000000023
 31
0.0
  0
ARC
  5
13693
  8
YODOROGO
 10
7058.9390076898262
 20
376.46207763315419
 30
0.0
 40
27.999999999999581
 50
281.2490582504156
 51
348.75094174958332
  0
LINE
  5
13694
  8
YODOROGO
 10
7064.4010853229802
 20
348.99999999999977
 30
0.0
 11
7064.4010853229802
 21
325.0
 31
0.0
  0
ARC
  5
13695
  8
YODOROGO
 10
7056.4851105367443
 20
368.28206722400961
 30
0.0
 40
43.999999999999972
 50
280.3644312771313
 51
3.5414836592180561
  0
LINE
  5
13696
  8
YODOROGO
 10
7100.4010853229784
 20
371.00000000000023
 30
0.0
 11
7100.4010853229784
 21
385.0
 31
0.0
  0
LINE
  5
13697
  8
YODOROGO
 10
7100.4010853229784
 20
385.0
 30
0.0
 11
7086.4010853229802
 21
385.0
 31
0.0
  0
LINE
  5
13698
  8
YODOROGO
 10
7020.533880057731
 20
381.93853521134201
 30
0.0
 11
7020.533880057731
 21
395.0
 31
0.0
1001
AUTOCAD_POSTSCRIPT_FIGURE
1002
{
1000
PSFILL
1000
Grayscale
1000
Grayscale
1070
   100
1002
}
  0
LINE
  5
13699
  8
YODOROGO
 10
7020.533880057731
 20
395.0
 30
0.0
 11
7024.533880057731
 21
395.0
 31
0.0
1001
AUTOCAD_POSTSCRIPT_FIGURE
1002
{
1000
PSFILL
1000
Grayscale
1000
Grayscale
1070
   100
1002
}
  0
LINE
  5
1369A
  8
YODOROGO
 10
7024.533880057731
 20
395.0
 30
0.0
 11
7024.533880057731
 21
381.93853521134201
 31
0.0
1001
AUTOCAD_POSTSCRIPT_FIGURE
1002
{
1000
PSFILL
1000
Grayscale
1000
Grayscale
1070
   100
1002
}
  0
LINE
  5
1369B
  8
YODOROGO
 10
7024.533880057731
 20
381.93853521134201
 30
0.0
 11
7034.4010853229793
 21
381.93853521134201
 31
0.0
1001
AUTOCAD_POSTSCRIPT_FIGURE
1002
{
1000
PSFILL
1000
Grayscale
1000
Grayscale
1070
   100
1002
}
  0
LINE
  5
1369C
  8
YODOROGO
 10
7034.4010853229793
 20
381.93853521134201
 30
0.0
 11
7034.4010853229793
 21
375.93853521134241
 31
0.0
1001
AUTOCAD_POSTSCRIPT_FIGURE
1002
{
1000
PSFILL
1000
Grayscale
1000
Grayscale
1070
   100
1002
}
  0
LINE
  5
1369D
  8
YODOROGO
 10
7034.4010853229793
 20
375.93853521134241
 30
0.0
 11
7024.533880057731
 21
375.93853521134241
 31
0.0
1001
AUTOCAD_POSTSCRIPT_FIGURE
1002
{
1000
PSFILL
1000
Grayscale
1000
Grayscale
1070
   100
1002
}
  0
LINE
  5
1369E
  8
YODOROGO
 10
7024.533880057731
 20
375.93853521134241
 30
0.0
 11
7024.533880057731
 21
343.00000000000011
 31
0.0
1001
AUTOCAD_POSTSCRIPT_FIGURE
1002
{
1000
PSFILL
1000
Grayscale
1000
Grayscale
1070
   100
1002
}
  0
LINE
  5
1369F
  8
YODOROGO
 10
7024.533880057731
 20
343.00000000000011
 30
0.0
 11
7034.401085322982
 21
343.00000000000011
 31
0.0
1001
AUTOCAD_POSTSCRIPT_FIGURE
1002
{
1000
PSFILL
1000
Grayscale
1000
Grayscale
1070
   100
1002
}
  0
LINE
  5
136A0
  8
YODOROGO
 10
7034.401085322982
 20
343.00000000000011
 30
0.0
 11
7034.401085322982
 21
336.99999999999989
 31
0.0
1001
AUTOCAD_POSTSCRIPT_FIGURE
1002
{
1000
PSFILL
1000
Grayscale
1000
Grayscale
1070
   100
1002
}
  0
LINE
  5
136A1
  8
YODOROGO
 10
7034.401085322982
 20
336.99999999999989
 30
0.0
 11
7012.533880057731
 21
336.99999999999989
 31
0.0
1001
AUTOCAD_POSTSCRIPT_FIGURE
1002
{
1000
PSFILL
1000
Grayscale
1000
Grayscale
1070
   100
1002
}
  0
LINE
  5
136A2
  8
YODOROGO
 10
7012.533880057731
 20
336.99999999999989
 30
0.0
 11
7012.533880057731
 21
343.00000000000011
 31
0.0
1001
AUTOCAD_POSTSCRIPT_FIGURE
1002
{
1000
PSFILL
1000
Grayscale
1000
Grayscale
1070
   100
1002
}
  0
LINE
  5
136A3
  8
YODOROGO
 10
7012.533880057731
 20
343.00000000000011
 30
0.0
 11
7020.5338800577283
 21
343.00000000000011
 31
0.0
1001
AUTOCAD_POSTSCRIPT_FIGURE
1002
{
1000
PSFILL
1000
Grayscale
1000
Grayscale
1070
   100
1002
}
  0
LINE
  5
136A4
  8
YODOROGO
 10
7020.5338800577283
 20
343.00000000000011
 30
0.0
 11
7020.533880057731
 21
375.93853521134241
 31
0.0
1001
AUTOCAD_POSTSCRIPT_FIGURE
1002
{
1000
PSFILL
1000
Grayscale
1000
Grayscale
1070
   100
1002
}
  0
LINE
  5
136A5
  8
YODOROGO
 10
7020.533880057731
 20
375.93853521134241
 30
0.0
 11
7012.5338800577283
 21
375.93853521134241
 31
0.0
1001
AUTOCAD_POSTSCRIPT_FIGURE
1002
{
1000
PSFILL
1000
Grayscale
1000
Grayscale
1070
   100
1002
}
  0
LINE
  5
136A6
  8
YODOROGO
 10
7012.5338800577283
 20
375.93853521134241
 30
0.0
 11
7012.5338800577283
 21
381.93853521134201
 31
0.0
1001
AUTOCAD_POSTSCRIPT_FIGURE
1002
{
1000
PSFILL
1000
Grayscale
1000
Grayscale
1070
   100
1002
}
  0
LINE
  5
136A7
  8
YODOROGO
 10
7012.5338800577283
 20
381.93853521134201
 30
0.0
 11
7020.533880057731
 21
381.93853521134201
 31
0.0
1001
AUTOCAD_POSTSCRIPT_FIGURE
1002
{
1000
PSFILL
1000
Grayscale
1000
Grayscale
1070
   100
1002
}
  0
LINE
  5
136A8
  8
YODOROGO
 10
7000.4010853229793
 20
388.99999999999977
 30
0.0
 11
6994.4010853229802
 21
388.99999999999977
 31
0.0
  0
LINE
  5
136A9
  8
YODOROGO
 10
6994.4010853229802
 20
388.99999999999977
 30
0.0
 11
6994.4010853229802
 21
384.99999999999937
 31
0.0
  0
LINE
  5
136AA
  8
YODOROGO
 10
6994.4010853229802
 20
384.99999999999937
 30
0.0
 11
7006.4571935728391
 21
384.99999999999937
 31
0.0
  0
LINE
  5
136AB
  8
YODOROGO
 10
7006.4571935728391
 20
384.99999999999937
 30
0.0
 11
6994.4010853229802
 21
357.25464565103562
 31
0.0
  0
LINE
  5
136AC
  8
YODOROGO
 10
6994.4010853229802
 20
357.25464565103562
 30
0.0
 11
6994.4010853229802
 21
351.25464565103522
 31
0.0
  0
LINE
  5
136AD
  8
YODOROGO
 10
6994.4010853229802
 20
351.25464565103522
 30
0.0
 11
7000.4010853229793
 21
363.06396331511507
 31
0.0
  0
LINE
  5
136AE
  8
YODOROGO
 10
7000.4010853229793
 20
363.06396331511507
 30
0.0
 11
7000.4010853229793
 21
336.99999999999989
 31
0.0
  0
LINE
  5
136AF
  8
YODOROGO
 10
7000.4010853229793
 20
336.99999999999989
 30
0.0
 11
7004.4010853229784
 21
336.99999999999989
 31
0.0
  0
LINE
  5
136B0
  8
YODOROGO
 10
7004.4010853229784
 20
336.99999999999989
 30
0.0
 11
7004.4010853229784
 21
364.37189183006069
 31
0.0
  0
LINE
  5
136B1
  8
YODOROGO
 10
7004.4010853229784
 20
364.37189183006069
 30
0.0
 11
7010.4010853229784
 21
358.84274837977767
 31
0.0
  0
LINE
  5
136B2
  8
YODOROGO
 10
7010.4010853229784
 20
358.84274837977767
 30
0.0
 11
7010.4010853229784
 21
363.84274837977841
 31
0.0
  0
LINE
  5
136B3
  8
YODOROGO
 10
7010.4010853229784
 20
363.84274837977841
 30
0.0
 11
7005.0222259342263
 21
370.7252671581569
 31
0.0
  0
LINE
  5
136B4
  8
YODOROGO
 10
7005.0222259342263
 20
370.7252671581569
 30
0.0
 11
7010.2283010042274
 21
383.0
 31
0.0
  0
LINE
  5
136B5
  8
YODOROGO
 10
7010.2283010042274
 20
383.0
 30
0.0
 11
7010.2283010042274
 21
388.99999999999977
 31
0.0
  0
LINE
  5
136B6
  8
YODOROGO
 10
7010.2283010042274
 20
388.99999999999977
 30
0.0
 11
7004.4010853229811
 21
388.99999999999977
 31
0.0
  0
LINE
  5
136B7
  8
YODOROGO
 10
7004.4010853229811
 20
388.99999999999977
 30
0.0
 11
7004.4010853229784
 21
395.0
 31
0.0
  0
LINE
  5
136B8
  8
YODOROGO
 10
7004.4010853229784
 20
395.0
 30
0.0
 11
7000.4010853229793
 21
395.0
 31
0.0
  0
LINE
  5
136BA
  8
YODOROGO
 10
7000.4010853229793
 20
395.0
 30
0.0
 11
7000.4010853229793
 21
388.99999999999977
 31
0.0
  0
LINE
  5
136BB
  8
YODOROGO
 10
7064.4010853229802
 20
475.0
 30
0.0
 11
7064.4010853229802
 21
458.0
 31
0.0
1001
AUTOCAD_POSTSCRIPT_FIGURE
1002
{
1000
PSFILL
1000
Grayscale
1000
Grayscale
1070
   100
1002
}
  0
LINE
  5
136BC
  8
YODOROGO
 10
7064.4010853229802
 20
458.0
 30
0.0
 11
7100.4010853229784
 21
447.28203230275483
 31
0.0
1001
AUTOCAD_POSTSCRIPT_FIGURE
1002
{
1000
PSFILL
1000
Grayscale
1000
Grayscale
1070
   100
1002
}
  0
LINE
  5
136BD
  8
YODOROGO
 10
7100.4010853229784
 20
447.28203230275483
 30
0.0
 11
7100.4010853229784
 21
464.28203230275483
 31
0.0
1001
AUTOCAD_POSTSCRIPT_FIGURE
1002
{
1000
PSFILL
1000
Grayscale
1000
Grayscale
1070
   100
1002
}
  0
LINE
  5
136BE
  8
YODOROGO
 10
7100.4010853229784
 20
464.28203230275483
 30
0.0
 11
7064.4010853229802
 21
475.0
 31
0.0
1001
AUTOCAD_POSTSCRIPT_FIGURE
1002
{
1000
PSFILL
1000
Grayscale
1000
Grayscale
1070
   100
1002
}
  0
LINE
  5
136BF
  8
YODOROGO
 10
7364.4010853229784
 20
325.0
 30
0.0
 11
7364.4010853229784
 21
475.0
 31
0.0
  0
LINE
  5
136C0
  8
YODOROGO
 10
7364.4010853229784
 20
475.0
 30
0.0
 11
7346.4010853229784
 21
475.0
 31
0.0
  0
LINE
  5
136C1
  8
YODOROGO
 10
7346.4010853229784
 20
475.0
 30
0.0
 11
7346.4010853229784
 21
325.0
 31
0.0
  0
LINE
  5
136C2
  8
YODOROGO
 10
7346.4010853229784
 20
325.0
 30
0.0
 11
7364.4010853229784
 21
325.0
 31
0.0
  0
LINE
  5
136C3
  8
YODOROGO
 10
7315.4010853229811
 20
470.0
 30
0.0
 11
7299.4010853229784
 21
470.0
 31
0.0
  0
LINE
  5
136C4
  8
YODOROGO
 10
7299.4010853229784
 20
470.0
 30
0.0
 11
7299.4010853229784
 21
340.99999999999972
 31
0.0
  0
LINE
  5
136C5
  8
YODOROGO
 10
7299.4010853229784
 20
340.99999999999972
 30
0.0
 11
7315.4010853229811
 21
340.99999999999972
 31
0.0
  0
LINE
  5
136C6
  8
YODOROGO
 10
7315.4010853229811
 20
340.99999999999972
 30
0.0
 11
7315.4010853229811
 21
470.0
 31
0.0
  0
ARC
  5
136C7
  8
YODOROGO
 10
7227.2965426799574
 20
366.215308045288
 30
0.0
 40
41.230105890213778
 50
271.53512106537772
 51
355.52727750585052
  0
LINE
  5
136C8
  8
YODOROGO
 10
7268.4010853229811
 20
363.00000000000011
 30
0.0
 11
7268.4010853229811
 21
475.0
 31
0.0
  0
LINE
  5
136C9
  8
YODOROGO
 10
7268.4010853229811
 20
475.0
 30
0.0
 11
7250.4010853229793
 21
475.0
 31
0.0
  0
LINE
  5
136CA
  8
YODOROGO
 10
7250.4010853229793
 20
475.0
 30
0.0
 11
7250.4010853229793
 21
373.0
 31
0.0
  0
ARC
  5
136CB
  8
YODOROGO
 10
7226.7278940467068
 20
372.61709200324628
 30
0.0
 40
23.676287794685411
 50
274.0524416290711
 51
0.9266642149310712
  0
LINE
  5
136CC
  8
YODOROGO
 10
7228.4010853229784
 20
348.99999999999977
 30
0.0
 11
7228.4010853229784
 21
325.0
 31
0.0
  0
LINE
  5
136CD
  8
YODOROGO
 10
7791.4010853229784
 20
475.0
 30
0.0
 11
7791.4010853229784
 21
458.99999999999977
 31
0.0
  0
LINE
  5
136CE
  8
YODOROGO
 10
7791.4010853229784
 20
458.99999999999977
 30
0.0
 11
7853.4010853229784
 21
458.99999999999977
 31
0.0
  0
LINE
  5
136CF
  8
YODOROGO
 10
7853.4010853229784
 20
458.99999999999977
 30
0.0
 11
7853.4010853229784
 21
475.0
 31
0.0
  0
LINE
  5
136D0
  8
YODOROGO
 10
7853.4010853229784
 20
475.0
 30
0.0
 11
7791.4010853229784
 21
475.0
 31
0.0
  0
LINE
  5
136D1
  8
YODOROGO
 10
7809.4010853229793
 20
366.99999999999989
 30
0.0
 11
7809.4010853229793
 21
395.0
 31
0.0
  0
LINE
  5
136D2
  8
YODOROGO
 10
7809.4010853229793
 20
395.0
 30
0.0
 11
7853.4010853229784
 21
395.0
 31
0.0
  0
LINE
  5
136D3
  8
YODOROGO
 10
7853.4010853229784
 20
395.0
 30
0.0
 11
7853.4010853229784
 21
445.0
 31
0.0
  0
LINE
  5
136D4
  8
YODOROGO
 10
7853.4010853229784
 20
445.0
 30
0.0
 11
7791.4010853229784
 21
445.0
 31
0.0
  0
LINE
  5
136D5
  8
YODOROGO
 10
7791.4010853229784
 20
445.0
 30
0.0
 11
7791.4010853229784
 21
377.0
 31
0.0
  0
ARC
  5
136D6
  8
YODOROGO
 10
7759.9303488916939
 20
377.44547342011123
 30
0.0
 40
31.473889147918861
 50
295.34052442160112
 51
359.18902303418679
  0
LINE
  5
136D7
  8
YODOROGO
 10
7773.4010853229793
 20
348.99999999999977
 30
0.0
 11
7773.4010853229793
 21
325.0
 31
0.0
  0
ARC
  5
136D8
  8
YODOROGO
 10
7764.879473339478
 20
368.73281027157202
 30
0.0
 40
44.555320277680387
 50
281.02627495425349
 51
357.77113575573799
  0
LINE
  5
136D9
  8
YODOROGO
 10
7731.4010853229784
 20
355.0
 30
0.0
 11
7731.4010853229784
 21
458.99999999999977
 31
0.0
  0
LINE
  5
136DA
  8
YODOROGO
 10
7731.4010853229784
 20
458.99999999999977
 30
0.0
 11
7674.4010853229811
 21
458.99999999999977
 31
0.0
  0
LINE
  5
136DB
  8
YODOROGO
 10
7674.4010853229811
 20
458.99999999999977
 30
0.0
 11
7674.4010853229811
 21
325.0
 31
0.0
  0
LINE
  5
136DC
  8
YODOROGO
 10
7674.4010853229811
 20
325.0
 30
0.0
 11
7661.4010853229784
 21
325.0
 31
0.0
  0
LINE
  5
136DD
  8
YODOROGO
 10
7661.4010853229784
 20
325.0
 30
0.0
 11
7661.4010853229784
 21
475.0
 31
0.0
  0
LINE
  5
136DE
  8
YODOROGO
 10
7661.4010853229784
 20
475.0
 30
0.0
 11
7743.4010853229811
 21
475.0
 31
0.0
  0
LINE
  5
136DF
  8
YODOROGO
 10
7743.4010853229811
 20
475.0
 30
0.0
 11
7743.4010853229811
 21
335.0
 31
0.0
  0
ARC
  5
136E0
  8
YODOROGO
 10
7733.4010853229784
 20
335.0
 30
0.0
 40
10.0
 50
270.0
 51
0.0
  0
LINE
  5
136E1
  8
YODOROGO
 10
7733.4010853229784
 20
325.0
 30
0.0
 11
7724.901085322982
 21
325.0
 31
0.0
  0
LINE
  5
136E2
  8
YODOROGO
 10
7724.901085322982
 20
325.0
 30
0.0
 11
7724.9010853229829
 21
355.0
 31
0.0
  0
LINE
  5
136E3
  8
YODOROGO
 10
7724.9010853229829
 20
355.0
 30
0.0
 11
7731.4010853229784
 21
355.0
 31
0.0
  0
LINE
  5
136E4
  8
YODOROGO
 10
7724.901085322982
 20
423.0
 30
0.0
 11
7724.901085322982
 21
406.99999999999972
 31
0.0
  0
LINE
  5
136E5
  8
YODOROGO
 10
7724.901085322982
 20
406.99999999999972
 30
0.0
 11
7680.9010853229811
 21
406.99999999999972
 31
0.0
  0
LINE
  5
136E6
  8
YODOROGO
 10
7680.9010853229811
 20
406.99999999999972
 30
0.0
 11
7680.9010853229811
 21
423.0
 31
0.0
  0
LINE
  5
136E7
  8
YODOROGO
 10
7680.9010853229811
 20
423.0
 30
0.0
 11
7687.4010853229793
 21
423.0
 31
0.0
  0
LINE
  5
136E8
  8
YODOROGO
 10
7687.4010853229793
 20
423.0
 30
0.0
 11
7680.9010853229811
 21
453.0
 31
0.0
  0
LINE
  5
136E9
  8
YODOROGO
 10
7680.9010853229811
 20
453.0
 30
0.0
 11
7692.9010853229811
 21
453.0
 31
0.0
  0
LINE
  5
136EA
  8
YODOROGO
 10
7692.9010853229811
 20
453.0
 30
0.0
 11
7699.4010853229784
 21
423.0
 31
0.0
  0
LINE
  5
136EB
  8
YODOROGO
 10
7699.4010853229784
 20
423.0
 30
0.0
 11
7706.4010853229793
 21
423.0
 31
0.0
  0
LINE
  5
136EC
  8
YODOROGO
 10
7706.4010853229793
 20
423.0
 30
0.0
 11
7712.901085322982
 21
453.0
 31
0.0
  0
LINE
  5
136ED
  8
YODOROGO
 10
7712.901085322982
 20
453.0
 30
0.0
 11
7724.901085322982
 21
453.0
 31
0.0
  0
LINE
  5
136EE
  8
YODOROGO
 10
7724.901085322982
 20
453.0
 30
0.0
 11
7718.4010853229784
 21
423.0
 31
0.0
  0
LINE
  5
136EF
  8
YODOROGO
 10
7718.4010853229784
 20
423.0
 30
0.0
 11
7724.901085322982
 21
423.0
 31
0.0
  0
LINE
  5
136F0
  8
YODOROGO
 10
7554.4010853229784
 20
475.0
 30
0.0
 11
7554.4010853229784
 21
415.0
 31
0.0
  0
ARC
  5
136F1
  8
YODOROGO
 10
7534.4010853229793
 20
415.0
 30
0.0
 40
20.0
 50
270.0
 51
0.0
  0
LINE
  5
136F2
  8
YODOROGO
 10
7534.4010853229793
 20
395.0
 30
0.0
 11
7505.4010853229811
 21
395.0
 31
0.0
  0
LINE
  5
136F3
  8
YODOROGO
 10
7505.4010853229811
 20
395.0
 30
0.0
 11
7505.4010853229811
 21
411.00000000000023
 31
0.0
  0
LINE
  5
136F4
  8
YODOROGO
 10
7505.4010853229811
 20
411.00000000000023
 30
0.0
 11
7530.4010853229811
 21
411.00000000000023
 31
0.0
  0
ARC
  5
136F5
  8
YODOROGO
 10
7530.4010853229811
 20
421.00000000000011
 30
0.0
 40
10.0
 50
270.0
 51
0.0
  0
LINE
  5
136F6
  8
YODOROGO
 10
7540.4010853229793
 20
421.00000000000011
 30
0.0
 11
7540.4010853229793
 21
475.0
 31
0.0
  0
LINE
  5
136F7
  8
YODOROGO
 10
7540.4010853229793
 20
475.0
 30
0.0
 11
7554.4010853229784
 21
475.0
 31
0.0
  0
LINE
  5
136F8
  8
YODOROGO
 10
7616.4010853229784
 20
401.99999999999972
 30
0.0
 11
7595.401085322982
 21
401.99999999999972
 31
0.0
  0
LINE
  5
136F9
  8
YODOROGO
 10
7595.401085322982
 20
401.99999999999972
 30
0.0
 11
7595.401085322982
 21
416.99999999999989
 31
0.0
  0
LINE
  5
136FA
  8
YODOROGO
 10
7595.401085322982
 20
416.99999999999989
 30
0.0
 11
7654.4010853229784
 21
416.99999999999989
 31
0.0
  0
LINE
  5
136FB
  8
YODOROGO
 10
7654.4010853229784
 20
416.99999999999989
 30
0.0
 11
7654.4010853229784
 21
401.99999999999972
 31
0.0
  0
LINE
  5
136FC
  8
YODOROGO
 10
7654.4010853229784
 20
401.99999999999972
 30
0.0
 11
7632.4010853229811
 21
401.99999999999972
 31
0.0
  0
LINE
  5
136FD
  8
YODOROGO
 10
7632.4010853229811
 20
401.99999999999972
 30
0.0
 11
7632.4010853229811
 21
388.00000000000011
 31
0.0
  0
LINE
  5
136FE
  8
YODOROGO
 10
7632.4010853229811
 20
388.00000000000011
 30
0.0
 11
7654.4010853229784
 21
388.00000000000011
 31
0.0
  0
LINE
  5
136FF
  8
YODOROGO
 10
7654.4010853229784
 20
388.00000000000011
 30
0.0
 11
7654.4010853229784
 21
375.0
 31
0.0
  0
LINE
  5
13700
  8
YODOROGO
 10
7654.4010853229784
 20
375.0
 30
0.0
 11
7632.4010853229811
 21
375.0
 31
0.0
  0
LINE
  5
13701
  8
YODOROGO
 10
7632.4010853229811
 20
375.0
 30
0.0
 11
7632.4010853229811
 21
355.0
 31
0.0
  0
LINE
  5
13702
  8
YODOROGO
 10
7632.4010853229811
 20
355.0
 30
0.0
 11
7636.4010853229793
 21
355.0
 31
0.0
  0
ARC
  5
13703
  8
YODOROGO
 10
7636.4010853229793
 20
361.00000000000091
 30
0.0
 40
6.000000000000937
 50
270.0
 51
359.99999999998772
  0
LINE
  5
13704
  8
YODOROGO
 10
7642.4010853229793
 20
360.99999999999972
 30
0.0
 11
7642.4010853229793
 21
368.00000000000011
 31
0.0
  0
LINE
  5
13705
  8
YODOROGO
 10
7642.4010853229793
 20
368.00000000000011
 30
0.0
 11
7654.4010853229784
 21
368.00000000000011
 31
0.0
  0
LINE
  5
13706
  8
YODOROGO
 10
7654.4010853229784
 20
368.00000000000011
 30
0.0
 11
7654.4010853229784
 21
345.0
 31
0.0
  0
ARC
  5
13707
  8
YODOROGO
 10
7634.4010853229793
 20
345.0
 30
0.0
 40
20.0
 50
270.0
 51
0.0
  0
LINE
  5
13708
  8
YODOROGO
 10
7634.4010853229793
 20
325.0
 30
0.0
 11
7595.401085322982
 21
325.0
 31
0.0
  0
LINE
  5
13709
  8
YODOROGO
 10
7595.401085322982
 20
325.0
 30
0.0
 11
7595.401085322982
 21
355.0
 31
0.0
  0
LINE
  5
1370A
  8
YODOROGO
 10
7595.401085322982
 20
355.0
 30
0.0
 11
7616.4010853229784
 21
355.0
 31
0.0
  0
LINE
  5
1370B
  8
YODOROGO
 10
7616.4010853229784
 20
355.0
 30
0.0
 11
7616.4010853229784
 21
375.0
 31
0.0
  0
LINE
  5
1370C
  8
YODOROGO
 10
7616.4010853229784
 20
375.0
 30
0.0
 11
7595.401085322982
 21
375.0
 31
0.0
  0
LINE
  5
1370D
  8
YODOROGO
 10
7595.401085322982
 20
375.0
 30
0.0
 11
7595.401085322982
 21
388.00000000000011
 31
0.0
  0
LINE
  5
1370E
  8
YODOROGO
 10
7595.401085322982
 20
388.00000000000011
 30
0.0
 11
7616.4010853229784
 21
388.00000000000011
 31
0.0
  0
LINE
  5
1370F
  8
YODOROGO
 10
7616.4010853229784
 20
388.00000000000011
 30
0.0
 11
7616.4010853229784
 21
401.99999999999972
 31
0.0
  0
LINE
  5
1371C
  8
YODOROGO
 10
7595.401085322982
 20
361.50000000000023
 30
0.0
 11
7595.401085322982
 21
368.4999999999996
 31
0.0
  0
LINE
  5
1371D
  8
YODOROGO
 10
7595.401085322982
 20
368.4999999999996
 30
0.0
 11
7608.4010853229838
 21
368.4999999999996
 31
0.0
  0
LINE
  5
1371E
  8
YODOROGO
 10
7608.4010853229838
 20
368.4999999999996
 30
0.0
 11
7608.4010853229838
 21
361.50000000000023
 31
0.0
  0
LINE
  5
1371F
  8
YODOROGO
 10
7608.4010853229838
 20
361.50000000000023
 30
0.0
 11
7595.401085322982
 21
361.50000000000023
 31
0.0
  0
LINE
  5
13720
  8
YODOROGO
 10
7707.901085322982
 20
406.99999999999972
 30
0.0
 11
7707.901085322982
 21
358.99999999999977
 31
0.0
  0
LINE
  5
13721
  8
YODOROGO
 10
7707.901085322982
 20
358.99999999999977
 30
0.0
 11
7714.9010853229811
 21
358.99999999999977
 31
0.0
  0
LINE
  5
13722
  8
YODOROGO
 10
7714.9010853229811
 20
358.99999999999977
 30
0.0
 11
7714.9010853229811
 21
391.00000000000023
 31
0.0
  0
LINE
  5
13723
  8
YODOROGO
 10
7714.9010853229811
 20
391.00000000000023
 30
0.0
 11
7724.901085322982
 21
391.00000000000023
 31
0.0
  0
LINE
  5
13724
  8
YODOROGO
 10
7724.901085322982
 20
391.00000000000023
 30
0.0
 11
7724.901085322982
 21
341.00000000000028
 31
0.0
  0
LINE
  5
13725
  8
YODOROGO
 10
7724.901085322982
 20
341.00000000000028
 30
0.0
 11
7680.9010853229811
 21
341.00000000000028
 31
0.0
  0
LINE
  5
13726
  8
YODOROGO
 10
7680.9010853229811
 20
341.00000000000028
 30
0.0
 11
7680.9010853229811
 21
391.00000000000023
 31
0.0
  0
LINE
  5
13727
  8
YODOROGO
 10
7680.9010853229811
 20
391.00000000000023
 30
0.0
 11
7690.9010853229793
 21
391.00000000000023
 31
0.0
  0
LINE
  5
13728
  8
YODOROGO
 10
7690.9010853229793
 20
391.00000000000023
 30
0.0
 11
7690.9010853229793
 21
358.99999999999977
 31
0.0
  0
LINE
  5
13729
  8
YODOROGO
 10
7690.9010853229793
 20
358.99999999999977
 30
0.0
 11
7697.9010853229811
 21
358.99999999999977
 31
0.0
  0
LINE
  5
1372A
  8
YODOROGO
 10
7697.9010853229811
 20
358.99999999999977
 30
0.0
 11
7697.9010853229811
 21
406.99999999999972
 31
0.0
  0
LINE
  5
1372B
  8
YODOROGO
 10
7697.9010853229811
 20
406.99999999999972
 30
0.0
 11
7707.901085322982
 21
406.99999999999972
 31
0.0
  0
LINE
  5
1372C
  8
YODOROGO
 10
7624.4010853229784
 20
453.0
 30
0.0
 11
7595.401085322982
 21
423.0
 31
0.0
  0
LINE
  5
1372D
  8
YODOROGO
 10
7595.401085322982
 20
423.0
 30
0.0
 11
7595.401085322982
 21
445.0
 31
0.0
  0
LINE
  5
1372E
  8
YODOROGO
 10
7595.401085322982
 20
445.0
 30
0.0
 11
7624.4010853229784
 21
475.0
 31
0.0
  0
LINE
  5
1372F
  8
YODOROGO
 10
7624.4010853229784
 20
475.0
 30
0.0
 11
7654.4010853229784
 21
455.0
 31
0.0
  0
LINE
  5
13730
  8
YODOROGO
 10
7654.4010853229784
 20
455.0
 30
0.0
 11
7654.4010853229784
 21
433.0
 31
0.0
  0
LINE
  5
13731
  8
YODOROGO
 10
7654.4010853229784
 20
433.0
 30
0.0
 11
7624.4010853229784
 21
453.0
 31
0.0
  0
LINE
  5
13732
  8
YODOROGO
 10
7505.4010853229811
 20
475.0
 30
0.0
 11
7505.4010853229811
 21
425.0
 31
0.0
  0
LINE
  5
13733
  8
YODOROGO
 10
7505.4010853229811
 20
425.0
 30
0.0
 11
7520.401085322982
 21
425.0
 31
0.0
  0
LINE
  5
13734
  8
YODOROGO
 10
7520.401085322982
 20
425.0
 30
0.0
 11
7520.401085322982
 21
475.0
 31
0.0
  0
LINE
  5
13735
  8
YODOROGO
 10
7520.401085322982
 20
475.0
 30
0.0
 11
7505.4010853229811
 21
475.0
 31
0.0
  0
LINE
  5
13736
  8
YODOROGO
 10
7837.401085322982
 20
413.0
 30
0.0
 11
7837.401085322982
 21
426.99999999999972
 31
0.0
  0
LINE
  5
13737
  8
YODOROGO
 10
7837.401085322982
 20
426.99999999999972
 30
0.0
 11
7809.4010853229793
 21
426.99999999999972
 31
0.0
  0
LINE
  5
13738
  8
YODOROGO
 10
7809.4010853229793
 20
426.99999999999972
 30
0.0
 11
7809.4010853229793
 21
413.0
 31
0.0
  0
LINE
  5
13739
  8
YODOROGO
 10
7809.4010853229793
 20
413.0
 30
0.0
 11
7837.401085322982
 21
413.0
 31
0.0
  0
LINE
  5
1373A
  8
YODOROGO
 10
7897.4010853229793
 20
421.00000000000011
 30
0.0
 11
7897.4010853229793
 21
325.0
 31
0.0
  0
LINE
  5
1373B
  8
YODOROGO
 10
7897.4010853229793
 20
325.0
 30
0.0
 11
7913.4010853229811
 21
325.0
 31
0.0
  0
LINE
  5
1373C
  8
YODOROGO
 10
7913.4010853229811
 20
325.0
 30
0.0
 11
7913.4010853229784
 21
421.00000000000011
 31
0.0
  0
LINE
  5
1373D
  8
YODOROGO
 10
7913.4010853229784
 20
421.00000000000011
 30
0.0
 11
7925.4010853229811
 21
421.00000000000011
 31
0.0
  0
LINE
  5
1373E
  8
YODOROGO
 10
7925.4010853229811
 20
421.00000000000011
 30
0.0
 11
7925.4010853229811
 21
436.99999999999989
 31
0.0
  0
LINE
  5
1373F
  8
YODOROGO
 10
7925.4010853229811
 20
436.99999999999989
 30
0.0
 11
7883.4010853229793
 21
436.99999999999989
 31
0.0
  0
LINE
  5
13740
  8
YODOROGO
 10
7883.4010853229793
 20
436.99999999999989
 30
0.0
 11
7883.4010853229793
 21
446.99999999999972
 31
0.0
  0
LINE
  5
13741
  8
YODOROGO
 10
7883.4010853229793
 20
446.99999999999972
 30
0.0
 11
7915.4010853229793
 21
446.99999999999972
 31
0.0
  0
ARC
  5
13742
  8
YODOROGO
 10
7915.4010853229793
 20
456.99999999999989
 30
0.0
 40
10.0
 50
270.0
 51
0.0
  0
LINE
  5
13743
  8
YODOROGO
 10
7925.4010853229811
 20
456.99999999999989
 30
0.0
 11
7925.4010853229811
 21
475.0
 31
0.0
  0
LINE
  5
13744
  8
YODOROGO
 10
7925.4010853229811
 20
475.0
 30
0.0
 11
7909.4010853229793
 21
475.0
 31
0.0
  0
LINE
  5
13745
  8
YODOROGO
 10
7909.4010853229793
 20
475.0
 30
0.0
 11
7909.4010853229793
 21
468.9999999999996
 31
0.0
  0
ARC
  5
13746
  8
YODOROGO
 10
7905.4010853229811
 20
468.99999999999909
 30
0.0
 40
3.999999999998634
 50
270.0
 51
0.0000000000081422
  0
LINE
  5
13747
  8
YODOROGO
 10
7905.4010853229811
 20
465.0
 30
0.0
 11
7865.4010853229793
 21
465.0
 31
0.0
  0
LINE
  5
13748
  8
YODOROGO
 10
7865.4010853229793
 20
465.0
 30
0.0
 11
7865.4010853229793
 21
377.0
 31
0.0
  0
ARC
  5
13749
  8
YODOROGO
 10
7837.8795189311377
 20
377.52236514709182
 30
0.0
 40
27.526523245903039
 50
269.00410209305937
 51
358.91264455492478
  0
LINE
  5
1374A
  8
YODOROGO
 10
7837.401085322982
 20
350.0
 30
0.0
 11
7837.401085322982
 21
325.0
 31
0.0
  0
ARC
  5
1374B
  8
YODOROGO
 10
7838.4787162790162
 20
370.01021371481733
 30
0.0
 40
45.023112143997132
 50
268.62849102169798
 51
356.16638457330322
  0
LINE
  5
1374C
  8
YODOROGO
 10
7883.4010853229793
 20
366.99999999999989
 30
0.0
 11
7883.4010853229793
 21
421.00000000000011
 31
0.0
  0
LINE
  5
1374D
  8
YODOROGO
 10
7883.4010853229793
 20
421.00000000000011
 30
0.0
 11
7897.4010853229793
 21
421.00000000000011
 31
0.0
  0
ARC
  5
1374E
  8
DODAI_A
 10
5781.1040436030653
 20
1886.073823396935
 30
0.0
 40
7.4999943969371978
 50
269.99995719571223
 51
0.0000428042912577
  0
LINE
  5
1374F
  8
DODAI_A
 10
5781.1040380000022
 20
1878.5738289999999
 30
0.0
 11
5772.6040380000004
 21
1878.5738289999999
 31
0.0
  0
LINE
  5
13750
  8
DODAI_A
 10
5772.6040380000004
 20
1878.5738289999999
 30
0.0
 11
5772.6040380000004
 21
1880.8738289999999
 31
0.0
  0
LINE
  5
13751
  8
DODAI_A
 10
5772.6040380000004
 20
1880.8738289999999
 30
0.0
 11
5781.1040380000022
 21
1880.8738289999999
 31
0.0
  0
ARC
  5
13752
  8
DODAI_A
 10
5781.1040418847906
 20
1886.0738251152079
 30
0.0
 40
5.1999961152099292
 50
269.99995719572132
 51
0.0000428042937296
  0
LINE
  5
13753
  8
DODAI_A
 10
5786.3040380000002
 20
1886.0738289999999
 30
0.0
 11
5786.3040380000002
 21
1901.0738289999999
 31
0.0
  0
ARC
  5
13754
  8
DODAI_A
 10
5781.1040418847906
 20
1901.073832884791
 30
0.0
 40
5.1999961152101548
 50
359.9999571957062
 51
90.000042804278706
  0
LINE
  5
13755
  8
DODAI_A
 10
5781.1040380000022
 20
1906.273829
 30
0.0
 11
5736.1040380000004
 21
1906.273829
 31
0.0
  0
ARC
  5
13756
  8
DODAI_A
 10
5736.1040341152111
 20
1901.073832884791
 30
0.0
 40
5.1999961152099292
 50
89.999957195721308
 51
180.00004280429371
  0
LINE
  5
13757
  8
DODAI_A
 10
5730.9040380000024
 20
1901.0738289999999
 30
0.0
 11
5730.9040380000024
 21
1886.0738289999999
 31
0.0
  0
ARC
  5
13758
  8
DODAI_A
 10
5723.4040436030646
 20
1886.0738233969359
 30
0.0
 40
7.4999943969381091
 50
269.99995719571223
 51
0.0000428042877837
  0
LINE
  5
13759
  8
DODAI_A
 10
5723.4040380000006
 20
1878.5738289999999
 30
0.0
 11
5698.6040380000004
 21
1878.5738289999999
 31
0.0
  0
LINE
  5
1375A
  8
DODAI_A
 10
5698.6040380000004
 20
1878.5738289999999
 30
0.0
 11
5698.6040380000004
 21
1880.8738289999999
 31
0.0
  0
LINE
  5
1375B
  8
DODAI_A
 10
5698.6040380000004
 20
1880.8738289999999
 30
0.0
 11
5723.4040380000006
 21
1880.8738289999999
 31
0.0
  0
ARC
  5
1375C
  8
DODAI_A
 10
5723.4040418847917
 20
1886.0738251152079
 30
0.0
 40
5.1999961152099292
 50
269.99995719572132
 51
0.0000428042937296
  0
LINE
  5
1375D
  8
DODAI_A
 10
5728.6040380000004
 20
1886.0738289999999
 30
0.0
 11
5728.6040380000004
 21
1901.0738289999999
 31
0.0
  0
ARC
  5
1375E
  8
DODAI_A
 10
5736.1040323969364
 20
1901.0738346030639
 30
0.0
 40
7.4999943969381091
 50
89.999957195712227
 51
180.0000428042878
  0
LINE
  5
1375F
  8
DODAI_A
 10
5736.1040380000004
 20
1908.5738289999999
 30
0.0
 11
5781.1040380000022
 21
1908.5738289999999
 31
0.0
  0
ARC
  5
13760
  8
DODAI_A
 10
5781.1040436030653
 20
1901.0738346030639
 30
0.0
 40
7.4999943969376544
 50
359.99995719570887
 51
90.000042804287773
  0
LINE
  5
13761
  8
DODAI_A
 10
5788.6040380000004
 20
1901.0738289999999
 30
0.0
 11
5788.6040380000004
 21
1886.0738289999999
 31
0.0
  0
ARC
  5
13762
  8
DODAI_A
 10
6144.1040323969382
 20
1886.073823396935
 30
0.0
 40
7.4999943969381091
 50
179.9999571957087
 51
270.00004280428078
  0
LINE
  5
13763
  8
DODAI_A
 10
6144.1040380000004
 20
1878.5738289999999
 30
0.0
 11
6152.6040380000004
 21
1878.5738289999999
 31
0.0
  0
LINE
  5
13764
  8
DODAI_A
 10
6152.6040380000004
 20
1878.5738289999999
 30
0.0
 11
6152.6040380000004
 21
1880.8738289999999
 31
0.0
  0
LINE
  5
13765
  8
DODAI_A
 10
6152.6040380000004
 20
1880.8738289999999
 30
0.0
 11
6144.1040380000004
 21
1880.8738289999999
 31
0.0
  0
ARC
  5
13766
  8
DODAI_A
 10
6144.1040341152084
 20
1886.073825115209
 30
0.0
 40
5.1999961152108369
 50
179.99995719571629
 51
270.00004280428868
  0
LINE
  5
13767
  8
DODAI_A
 10
6138.9040379999988
 20
1886.0738289999999
 30
0.0
 11
6138.9040379999988
 21
1901.0738289999999
 31
0.0
  0
ARC
  5
13768
  8
DODAI_A
 10
6144.1040341152084
 20
1901.073832884789
 30
0.0
 40
5.1999961152110652
 50
89.999957195711275
 51
180.00004280428371
  0
LINE
  5
13769
  8
DODAI_A
 10
6144.1040380000004
 20
1906.273829
 30
0.0
 11
6189.1040380000004
 21
1906.273829
 31
0.0
  0
ARC
  5
1376A
  8
DODAI_A
 10
6189.1040418847924
 20
1901.073832884789
 30
0.0
 40
5.1999961152108369
 50
359.99995719571632
 51
90.000042804288725
  0
LINE
  5
1376B
  8
DODAI_A
 10
6194.304038000002
 20
1901.0738289999999
 30
0.0
 11
6194.304038000002
 21
1886.0738289999999
 31
0.0
  0
ARC
  5
1376C
  8
DODAI_A
 10
6201.8040323969362
 20
1886.073823396935
 30
0.0
 40
7.4999943969371978
 50
179.9999571957087
 51
270.00004280428777
  0
LINE
  5
1376D
  8
DODAI_A
 10
6201.8040380000002
 20
1878.5738289999999
 30
0.0
 11
6226.6040380000013
 21
1878.5738289999999
 31
0.0
  0
LINE
  5
1376E
  8
DODAI_A
 10
6226.6040380000013
 20
1878.5738289999999
 30
0.0
 11
6226.6040380000013
 21
1880.8738289999999
 31
0.0
  0
LINE
  5
1376F
  8
DODAI_A
 10
6226.6040380000013
 20
1880.8738289999999
 30
0.0
 11
6201.8040380000002
 21
1880.8738289999999
 31
0.0
  0
ARC
  5
13770
  8
DODAI_A
 10
6201.8040341152091
 20
1886.073825115209
 30
0.0
 40
5.1999961152103831
 50
179.99995719571129
 51
270.00004280428868
  0
LINE
  5
13771
  8
DODAI_A
 10
6196.6040380000004
 20
1886.0738289999999
 30
0.0
 11
6196.6040380000004
 21
1901.0738289999999
 31
0.0
  0
ARC
  5
13772
  8
DODAI_A
 10
6189.1040436030644
 20
1901.0738346030639
 30
0.0
 40
7.4999943969381091
 50
359.99995719571228
 51
90.000042804287773
  0
LINE
  5
13773
  8
DODAI_A
 10
6189.1040380000004
 20
1908.5738289999999
 30
0.0
 11
6144.1040380000004
 21
1908.5738289999999
 31
0.0
  0
ARC
  5
13774
  8
DODAI_A
 10
6144.1040323969382
 20
1901.0738346030639
 30
0.0
 40
7.4999943969376544
 50
89.999957195719162
 51
180.00004280429121
  0
LINE
  5
13775
  8
DODAI_A
 10
6136.6040380000013
 20
1901.0738289999999
 30
0.0
 11
6136.6040380000013
 21
1886.0738289999999
 31
0.0
  0
CIRCLE
  5
13778
  8
HIDE-S1
 10
5249.9959500000023
 20
1968.104756
 30
0.0
 40
5.0
  0
ARC
  5
13779
  8
HIDE-S1
 10
5249.9959740000013
 20
1944.104756
 30
0.0
 40
5.0
 50
0.0001379999982558
 51
324.33749899999651
  0
LINE
  5
1377A
  8
HIDE-S1
 10
5244.9959500000032
 20
1968.104744
 30
0.0
 11
5244.996008000001
 21
1944.1230880000001
 31
0.0
  0
LINE
  5
1377B
  8
U3
 10
5254.9959190000009
 20
1966.9305240000001
 30
0.0
 11
5254.9959740000013
 21
1944.1047679999999
 31
0.0
  0
LINE
  5
1377C
  8
1PL-S1
 10
5249.9960320000018
 20
1934.104756
 30
0.0
 11
5249.9959260000023
 21
1978.104756
 31
0.0
  0
ARC
  5
1377D
  8
U3
 10
5249.9959740000013
 20
1944.104756
 30
0.0
 40
5.0
 50
324.33749899999651
 51
0.0001379999982558
  0
LINE
  5
1377E
  8
U3
 10
5413.9455300000018
 20
2054.0794500000002
 30
0.0
 11
5413.9455800000014
 21
2033.1460159999999
 31
0.0
  0
LINE
  5
1377F
  8
U3
 10
5403.9455420000022
 20
2048.9907459999999
 30
0.0
 11
5403.9455800000023
 21
2033.1460159999999
 31
0.0
  0
LINE
  5
13780
  8
1PL-S1
 10
5408.9456040000032
 20
2023.1460159999999
 30
0.0
 11
5408.945498000001
 21
2067.1460160000001
 31
0.0
  0
LINE
  5
13781
  8
1PL-S2
 10
5341.6040380000013
 20
1884.0738289999999
 30
0.0
 11
5341.6040380000013
 21
1930.897545
 31
0.0
  0
ARC
  5
13782
  8
HIDE-S1
 10
5341.6040380000013
 20
1894.0738289999999
 30
0.0
 40
5.0
 50
0.0
 51
180.0
  0
LINE
  5
13783
  8
U1
 10
5346.6040380000022
 20
1894.0738289999999
 30
0.0
 11
5346.6040380000022
 21
1913.387559
 31
0.0
  0
LINE
  5
13784
  8
U1
 10
5336.6040380000013
 20
1894.0738289999999
 30
0.0
 11
5336.6040380000013
 21
1913.387559
 31
0.0
  0
ARC
  5
13785
  8
U1
 10
5341.6040380000013
 20
1894.0738289999999
 30
0.0
 40
5.0
 50
180.0
 51
0.0
  0
LINE
  5
13786
  8
HIDE-S1
 10
5346.6040380000022
 20
1913.387559
 30
0.0
 11
5346.6040380000022
 21
1918.0738289999999
 31
0.0
  0
LINE
  5
13787
  8
HIDE-S1
 10
5336.6040380000013
 20
1913.387559
 30
0.0
 11
5336.6040380000013
 21
1918.0738289999999
 31
0.0
  0
CIRCLE
  5
13788
  8
HIDE-S1
 10
5341.6040380000013
 20
1918.0738289999999
 30
0.0
 40
5.0
  0
ARC
  5
13789
  8
HIDE-S1
 10
5408.9455460000008
 20
2033.1460159999999
 30
0.0
 40
5.0
 50
0.0001379999982558
 51
180.00013799999809
  0
ARC
  5
1378A
  8
U3
 10
5408.9455460000008
 20
2033.1460159999999
 30
0.0
 40
5.0
 50
180.00013799999809
 51
0.0001379999982558
  0
CIRCLE
  5
1378B
  8
HIDE-S1
 10
5408.9455220000018
 20
2057.1460160000001
 30
0.0
 40
5.0
  0
LINE
  5
1378C
  8
HIDE-S1
 10
5403.9455220000018
 20
2057.1460040000002
 30
0.0
 11
5403.9455420000022
 21
2048.9907459999999
 31
0.0
  0
LINE
  5
1378D
  8
HIDE-S1
 10
5413.9455220000018
 20
2057.1460280000001
 30
0.0
 11
5413.9455300000018
 21
2054.0794500000002
 31
0.0
  0
CIRCLE
  5
1378E
  8
HIDE-S1
 10
5573.8549960000028
 20
2141.0638869999998
 30
0.0
 40
5.0
  0
ARC
  5
1378F
  8
U3
 10
5573.8550200000027
 20
2117.0638869999998
 30
0.0
 40
5.0
 50
180.00013799999809
 51
0.0001379999982558
  0
ARC
  5
13790
  8
HIDE-S1
 10
5573.8550200000027
 20
2117.0638869999998
 30
0.0
 40
5.0
 50
0.0001379999982558
 51
180.00013799999809
  0
LINE
  5
13791
  8
U3
 10
5568.8549820000026
 20
2132.9083730000011
 30
0.0
 11
5568.85502
 21
2117.0638749999998
 31
0.0
  0
LINE
  5
13792
  8
1PL-S1
 10
5573.8550780000023
 20
2107.0638869999998
 30
0.0
 11
5573.854972000001
 21
2151.0638869999998
 31
0.0
  0
LINE
  5
13793
  8
HIDE-S1
 10
5568.8549960000009
 20
2141.0638749999998
 30
0.0
 11
5568.855015000001
 21
2132.9083900000001
 31
0.0
  0
LINE
  5
13794
  8
U3
 10
5578.8550030000006
 20
2137.9970929999999
 30
0.0
 11
5578.8550540000006
 21
2117.0638869999998
 31
0.0
  0
LINE
  5
13795
  8
HIDE-S1
 10
5578.8549960000009
 20
2141.0638990000002
 30
0.0
 11
5578.8550030000006
 21
2137.9970929999999
 31
0.0
  0
CIRCLE
  5
13797
  8
HIDE-S1
 10
5738.7850090000011
 20
2224.939151
 30
0.0
 40
5.0
  0
ARC
  5
13798
  8
U3
 10
5738.785033000001
 20
2200.939151
 30
0.0
 40
5.0
 50
180.00013799999809
 51
0.0001379999982558
  0
ARC
  5
13799
  8
HIDE-S1
 10
5738.785033000001
 20
2200.939151
 30
0.0
 40
5.0
 50
0.0001379999982558
 51
180.00013799999809
  0
LINE
  5
1379A
  8
U3
 10
5733.7849950000027
 20
2216.836468
 30
0.0
 11
5733.785033000001
 21
2200.9391390000001
 31
0.0
  0
LINE
  5
1379B
  8
1PL-S1
 10
5738.7850910000034
 20
2190.939151
 30
0.0
 11
5738.7849850000011
 21
2234.939151
 31
0.0
  0
LINE
  5
1379C
  8
HIDE-S1
 10
5733.7850090000011
 20
2224.9391390000001
 30
0.0
 11
5733.7850290000006
 21
2216.8364849999998
 31
0.0
  0
LINE
  5
1379D
  8
U3
 10
5743.7849830000023
 20
2221.9251720000002
 30
0.0
 11
5743.785033000001
 21
2200.939163
 31
0.0
  0
LINE
  5
1379E
  8
HIDE-S1
 10
5743.7850090000011
 20
2224.939163
 30
0.0
 11
5743.7850170000011
 21
2221.925189
 31
0.0
  0
LINE
  5
137A0
  8
1PL-S1
 10
6015.6040960000009
 20
2149.5738289999999
 30
0.0
 11
6015.6039900000023
 21
2193.5738289999999
 31
0.0
  0
ARC
  5
137A1
  8
U1
 10
6015.6040380000013
 20
2159.5738289999999
 30
0.0
 40
5.0
 50
180.0
 51
0.0
  0
CIRCLE
  5
137A2
  8
HIDE-S1
 10
6015.6040380000013
 20
2183.5738289999999
 30
0.0
 40
5.0
  0
LINE
  5
137A3
  8
HIDE-S1
 10
6020.6040380000013
 20
2178.8875589999998
 30
0.0
 11
6020.6040380000013
 21
2183.5738289999999
 31
0.0
  0
LINE
  5
137A4
  8
HIDE-S1
 10
6010.6040380000022
 20
2178.8875589999998
 30
0.0
 11
6010.6040380000022
 21
2183.5738289999999
 31
0.0
  0
ARC
  5
137A5
  8
HIDE-S1
 10
6015.6040380000013
 20
2159.5738289999999
 30
0.0
 40
5.0
 50
0.0
 51
180.0
  0
LINE
  5
137A6
  8
U1
 10
6020.6040380000013
 20
2159.5738289999999
 30
0.0
 11
6020.6040380000013
 21
2178.8875589999998
 31
0.0
  0
LINE
  5
137A7
  8
U1
 10
6010.6040380000022
 20
2159.5738289999999
 30
0.0
 11
6010.6040380000022
 21
2178.8875589999998
 31
0.0
  0
LINE
  5
137A8
  8
U3
 10
6215.4905260000032
 20
2352.4939599999998
 30
0.0
 11
6234.1183540000011
 21
2348.7517680000001
 31
0.0
  0
ARC
  5
137A9
  8
HIDE-S1
 10
6233.1335670000017
 20
2343.8497080000002
 30
0.0
 40
5.0
 50
78.640904000022445
 51
258.64090400002237
  0
LINE
  5
137AA
  8
1PL-S1
 10
6198.9249260000006
 20
2350.7219679999998
 30
0.0
 11
6242.9376870000006
 21
2341.8801330000001
 31
0.0
  0
ARC
  5
137AB
  8
U3
 10
6233.1335670000017
 20
2343.8497080000002
 30
0.0
 40
5.0
 50
258.64090400002237
 51
78.640904000022445
  0
LINE
  5
137AC
  8
HIDE-S1
 10
6210.602691000001
 20
2353.4758889999998
 30
0.0
 11
6215.4905260000032
 21
2352.4939599999998
 31
0.0
  0
LINE
  5
137AD
  8
HIDE-S1
 10
6208.6331170000012
 20
2343.671769
 30
0.0
 11
6213.5209510000032
 21
2342.6898390000001
 31
0.0
  0
CIRCLE
  5
137AE
  8
HIDE-S1
 10
6209.6179040000006
 20
2348.5738289999999
 30
0.0
 40
5.0
  0
LINE
  5
137B0
  8
U3
 10
6213.5209510000032
 20
2342.6898390000001
 30
0.0
 11
6232.1487800000023
 21
2338.9476479999998
 31
0.0
  0
LINE
  5
137B1
  8
MARU_BOO
  6
KAKURE-05
 10
5802.6040380000013
 20
2064.6790970000002
 30
0.0
 11
5812.6040380000004
 21
2067.1922530000002
 31
0.0
  0
LINE
  5
137B2
  8
MARU_BOO
  6
KAKURE-05
 10
5812.6040380000004
 20
2067.1922530000002
 30
0.0
 11
5802.6040380000013
 21
2064.6790970000002
 31
0.0
  0
LINE
  5
137B3
  8
U2
 10
3772.1041380000011
 20
4673.6974299999983
 30
0.0
 11
3823.1041380000011
 21
4673.6974299999983
 31
0.0
  0
LINE
  5
137B4
  8
U2
 10
3823.1041380000011
 20
4635.6974299999983
 30
0.0
 11
3772.1041380000011
 21
4635.6974299999983
 31
0.0
  0
LINE
  5
137B5
  8
U2
 10
3826.1041380000011
 20
4237.6974299999983
 30
0.0
 11
3772.1041380000011
 21
4237.6974299999983
 31
0.0
  0
LINE
  5
137B6
  8
U2
 10
3772.1041380000011
 20
4275.6974299999983
 30
0.0
 11
3826.1041380000011
 21
4275.6974299999983
 31
0.0
  0
LINE
  5
137B7
  8
U2
 10
3772.1041380000011
 20
4237.6974299999983
 30
0.0
 11
3772.1041380000011
 21
4275.6974299999983
 31
0.0
  0
LINE
  5
137B8
  8
U2
 10
3772.1041380000011
 20
4635.6974299999983
 30
0.0
 11
3772.1041380000011
 21
4673.6974299999983
 31
0.0
  0
LINE
  5
137BB
  8
1PL-M1
 10
3831.104138000002
 20
3723.5934369999991
 30
0.0
 11
3831.104138000002
 21
4755.7854259999976
 31
0.0
  0
LINE
  5
137BC
  8
1PL-M1
 10
3893.1041380000011
 20
3723.5934369999991
 30
0.0
 11
3893.1041380000011
 21
4755.7854259999976
 31
0.0
  0
LINE
  5
137BD
  8
1PL-M1
 10
3862.1041380000011
 20
3723.5934369999991
 30
0.0
 11
3862.1041380000011
 21
4755.7854259999976
 31
0.0
  0
ARC
  5
137BE
  8
HIDE-S1
 10
3831.104138000002
 20
3736.464985999999
 30
0.0
 40
5.0
 50
0.0
 51
180.0
  0
ARC
  5
137BF
  8
HIDE-S1
 10
3893.1041380000011
 20
3736.464985999999
 30
0.0
 40
5.0
 50
0.0
 51
180.0
  0
LINE
  5
137C0
  8
U3
 10
3836.1041380000011
 20
3738.0893419999979
 30
0.0
 11
3888.1041380000011
 21
3738.0893419999979
 31
0.0
  0
LINE
  5
137C1
  8
U3
 10
3836.1041380000011
 20
3839.697429999997
 30
0.0
 11
3888.1041380000011
 21
3839.697429999997
 31
0.0
  0
LINE
  5
137C2
  8
U3
 10
3836.1041380000011
 20
3829.6974299999979
 30
0.0
 11
3888.1041380000011
 21
3829.6974299999979
 31
0.0
  0
LINE
  5
137C3
  8
1PL-S1
 10
3893.1041380000011
 20
3834.6974299999979
 30
0.0
 11
3831.104138000002
 21
3834.6974299999979
 31
0.0
  0
LINE
  5
137C4
  8
1PL-S1
 10
3893.1041380000011
 20
3743.089341999997
 30
0.0
 11
3831.104138000002
 21
3743.089341999997
 31
0.0
  0
LINE
  5
137C5
  8
U3
 10
3836.1041380000011
 20
3748.0893419999989
 30
0.0
 11
3888.1041380000011
 21
3748.0893419999989
 31
0.0
  0
LINE
  5
137C6
  8
U3
 10
3836.1041380000011
 20
3907.038913999997
 30
0.0
 11
3888.1041380000011
 21
3907.038913999997
 31
0.0
  0
LINE
  5
137C7
  8
1PL-S1
 10
3893.1041380000011
 20
3902.0389139999979
 30
0.0
 11
3831.104138000002
 21
3902.0389139999979
 31
0.0
  0
LINE
  5
137C8
  8
U3
 10
3836.1041380000011
 20
3897.0389139999988
 30
0.0
 11
3888.1041380000011
 21
3897.0389139999988
 31
0.0
  0
LINE
  5
137C9
  8
U3
 10
3836.1041380000011
 20
4071.948387999998
 30
0.0
 11
3888.1041380000011
 21
4071.948387999998
 31
0.0
  0
LINE
  5
137CA
  8
1PL-S1
 10
3893.1041380000011
 20
4066.9483879999989
 30
0.0
 11
3831.104138000002
 21
4066.9483879999989
 31
0.0
  0
LINE
  5
137CB
  8
U3
 10
3836.1041380000011
 20
4061.948387999998
 30
0.0
 11
3888.1041380000011
 21
4061.948387999998
 31
0.0
  0
LINE
  5
137CC
  8
1PL-S1
 10
3942.6041380000011
 20
4256.6974299999983
 30
0.0
 11
3921.6041380000011
 21
4256.6974299999983
 31
0.0
  0
LINE
  5
137CD
  8
U2
 10
3898.104138000002
 20
4275.6974299999983
 30
0.0
 11
3952.1041380000011
 21
4275.6974299999983
 31
0.0
  0
LINE
  5
137CE
  8
U2
 10
3952.1041380000011
 20
4237.6974299999983
 30
0.0
 11
3898.104138000002
 21
4237.6974299999983
 31
0.0
  0
LINE
  5
137CF
  8
U3
 10
3836.1041380000011
 20
4236.878400999999
 30
0.0
 11
3888.1041380000011
 21
4236.878400999999
 31
0.0
  0
LINE
  5
137D0
  8
U2
 10
3836.1041380000011
 20
4237.6974299999983
 30
0.0
 11
3888.1041380000011
 21
4237.6974299999983
 31
0.0
  0
LINE
  5
137D1
  8
U2
 10
3888.1041380000011
 20
4275.6974299999983
 30
0.0
 11
3836.1041380000011
 21
4275.6974299999983
 31
0.0
  0
LINE
  5
137D2
  8
U3
 10
3836.1041380000011
 20
4226.878400999999
 30
0.0
 11
3888.1041380000011
 21
4226.878400999999
 31
0.0
  0
LINE
  5
137D3
  8
1PL-S1
 10
3893.1041380000011
 20
4231.878400999999
 30
0.0
 11
3831.104138000002
 21
4231.878400999999
 31
0.0
  0
CIRCLE
  5
137D4
  8
U1
 10
3792.1041380000011
 20
4256.6974299999983
 30
0.0
 40
4.5
  0
LINE
  5
137D5
  8
1PL-S2
 10
3792.1041380000011
 20
4246.1974299999983
 30
0.0
 11
3792.1041380000011
 21
4267.1974299999983
 31
0.0
  0
LINE
  5
137D6
  8
1PL-S1
 10
3802.6041380000011
 20
4256.6974299999983
 30
0.0
 11
3781.6041380000011
 21
4256.6974299999983
 31
0.0
  0
LINE
  5
137D7
  8
U2
  6
KAKURE-05
 10
3826.1041380000011
 20
4237.6974299999983
 30
0.0
 11
3836.1041380000011
 21
4237.6974299999983
 31
0.0
  0
LINE
  5
137D8
  8
U2
  6
KAKURE-05
 10
3826.1041380000011
 20
4275.6974299999983
 30
0.0
 11
3836.1041380000011
 21
4275.6974299999983
 31
0.0
  0
CIRCLE
  5
137D9
  8
HIDE-S1
 10
3831.104138000002
 20
4300.6974299999983
 30
0.0
 40
5.0
  0
CIRCLE
  5
137DA
  8
U1
 10
3932.1041380000011
 20
4256.6974299999983
 30
0.0
 40
4.5
  0
LINE
  5
137DB
  8
1PL-S2
 10
3932.1041380000011
 20
4246.1974299999983
 30
0.0
 11
3932.1041380000011
 21
4267.1974299999983
 31
0.0
  0
LINE
  5
137DC
  8
U2
  6
KAKURE-05
 10
3888.1041380000011
 20
4237.6974299999983
 30
0.0
 11
3898.104138000002
 21
4237.6974299999983
 31
0.0
  0
LINE
  5
137DD
  8
U2
  6
KAKURE-05
 10
3888.1041380000011
 20
4275.6974299999983
 30
0.0
 11
3898.104138000002
 21
4275.6974299999983
 31
0.0
  0
CIRCLE
  5
137DE
  8
HIDE-S1
 10
3893.1041380000011
 20
4300.6974299999983
 30
0.0
 40
5.0
  0
LINE
  5
137DF
  8
U2
 10
3952.1041380000011
 20
4275.6974299999983
 30
0.0
 11
3952.1041380000011
 21
4237.6974299999983
 31
0.0
  0
LINE
  5
137E0
  8
1PL-S1
 10
3893.1041380000011
 20
4508.6974299999983
 30
0.0
 11
3831.104138000002
 21
4508.6974299999983
 31
0.0
  0
LINE
  5
137E1
  8
U3
 10
3836.1041380000011
 20
4503.6974299999983
 30
0.0
 11
3888.1041380000011
 21
4503.6974299999983
 31
0.0
  0
LINE
  5
137E2
  8
U3
 10
3836.1041380000011
 20
4513.6974299999983
 30
0.0
 11
3888.1041380000011
 21
4513.6974299999983
 31
0.0
  0
LINE
  5
137E3
  8
1PL-S1
 10
3942.6041380000011
 20
4654.6974299999974
 30
0.0
 11
3921.6041380000011
 21
4654.6974299999974
 31
0.0
  0
LINE
  5
137E4
  8
U2
 10
3901.1041380000011
 20
4673.6974299999983
 30
0.0
 11
3952.1041380000011
 21
4673.6974299999983
 31
0.0
  0
LINE
  5
137E5
  8
U2
 10
3901.1041380000011
 20
4635.6974299999983
 30
0.0
 11
3952.1041380000011
 21
4635.6974299999983
 31
0.0
  0
LINE
  5
137E6
  8
U2
 10
3891.1041380000011
 20
4635.6974299999983
 30
0.0
 11
3833.1041380000011
 21
4635.6974299999983
 31
0.0
  0
LINE
  5
137E7
  8
1PL-S1
 10
3802.6041380000011
 20
4654.6974299999974
 30
0.0
 11
3781.6041380000011
 21
4654.6974299999974
 31
0.0
  0
CIRCLE
  5
137E8
  8
U1
 10
3792.1041380000011
 20
4654.6974299999974
 30
0.0
 40
4.5
  0
LINE
  5
137E9
  8
1PL-S2
 10
3792.1041380000011
 20
4644.1974299999983
 30
0.0
 11
3792.1041380000011
 21
4665.1974299999983
 31
0.0
  0
LINE
  5
137EA
  8
U2
  6
KAKURE-05
 10
3823.1041380000011
 20
4635.6974299999983
 30
0.0
 11
3833.1041380000011
 21
4635.6974299999983
 31
0.0
  0
LINE
  5
137EB
  8
U2
  6
KAKURE-05
 10
3891.1041380000011
 20
4635.6974299999983
 30
0.0
 11
3901.1041380000011
 21
4635.6974299999983
 31
0.0
  0
CIRCLE
  5
137EC
  8
U1
 10
3932.1041380000011
 20
4654.6974299999974
 30
0.0
 40
4.5
  0
LINE
  5
137ED
  8
1PL-S2
 10
3932.1041380000011
 20
4644.1974299999983
 30
0.0
 11
3932.1041380000011
 21
4665.1974299999983
 31
0.0
  0
LINE
  5
137EE
  8
U2
 10
3833.1041380000011
 20
4673.6974299999983
 30
0.0
 11
3891.1041380000011
 21
4673.6974299999983
 31
0.0
  0
ARC
  5
137EF
  8
MARU_BOO
 10
3862.0780710000008
 20
4695.0998519999976
 30
0.0
 40
26.029176
 50
359.24721099998612
 51
176.82674000001461
  0
ARC
  5
137F0
  8
1PL-S1
 10
3862.0780710000008
 20
4695.0998519999976
 30
0.0
 40
31.029176
 50
359.24721099998612
 51
176.82674000001461
  0
ARC
  5
137F1
  8
MARU_BOO
 10
3862.0780710000008
 20
4695.0998519999976
 30
0.0
 40
36.029176
 50
43.750256999979811
 51
136.1299829999854
  0
CIRCLE
  5
137F2
  8
HIDE-S1
 10
3831.104138000002
 20
4672.6974299999983
 30
0.0
 40
5.0
  0
LINE
  5
137F3
  8
U2
  6
KAKURE-05
 10
3823.1041380000011
 20
4673.6974299999983
 30
0.0
 11
3833.1041380000011
 21
4673.6974299999983
 31
0.0
  0
ARC
  5
137F4
  8
HIDE-S1
 10
3831.104138000002
 20
4729.6974299999983
 30
0.0
 40
5.0
 50
180.0
 51
0.0
  0
LINE
  5
137F6
  8
U2
  6
KAKURE-05
 10
3891.1041380000011
 20
4673.6974299999983
 30
0.0
 11
3901.1041380000011
 21
4673.6974299999983
 31
0.0
  0
CIRCLE
  5
137F7
  8
HIDE-S1
 10
3893.1041380000011
 20
4672.6974299999983
 30
0.0
 40
5.0
  0
ARC
  5
137F9
  8
HIDE-S1
 10
3893.1041380000011
 20
4729.6974299999983
 30
0.0
 40
5.0
 50
180.0
 51
0.0
  0
LINE
  5
137FA
  8
U2
 10
3952.1041380000011
 20
4673.6974299999983
 30
0.0
 11
3952.1041380000011
 21
4635.6974299999983
 31
0.0
  0
LINE
  5
137FB
  8
U2
 10
2972.1041380000001
 20
4673.6974299999983
 30
0.0
 11
3023.1041380000001
 21
4673.6974299999983
 31
0.0
  0
LINE
  5
137FC
  8
U2
 10
3023.1041380000001
 20
4635.6974299999983
 30
0.0
 11
2972.1041380000001
 21
4635.6974299999983
 31
0.0
  0
LINE
  5
137FD
  8
U2
 10
3026.1041380000001
 20
4237.6974299999983
 30
0.0
 11
2972.1041380000001
 21
4237.6974299999983
 31
0.0
  0
LINE
  5
137FE
  8
U2
 10
2972.1041380000001
 20
4275.6974299999983
 30
0.0
 11
3026.1041380000001
 21
4275.6974299999983
 31
0.0
  0
LINE
  5
137FF
  8
U2
 10
2972.1041380000001
 20
4237.6974299999983
 30
0.0
 11
2972.1041380000001
 21
4275.6974299999983
 31
0.0
  0
LINE
  5
13800
  8
U2
 10
2972.1041380000001
 20
4635.6974299999983
 30
0.0
 11
2972.1041380000001
 21
4673.6974299999983
 31
0.0
  0
LINE
  5
13803
  8
1PL-M1
 10
3031.1041380000001
 20
3723.5934369999991
 30
0.0
 11
3031.1041380000001
 21
4755.7854259999976
 31
0.0
  0
LINE
  5
13804
  8
1PL-M1
 10
3093.1041380000011
 20
3723.5934369999991
 30
0.0
 11
3093.1041380000011
 21
4755.7854259999976
 31
0.0
  0
LINE
  5
13805
  8
1PL-M1
 10
3062.1041380000001
 20
3723.5934369999991
 30
0.0
 11
3062.1041380000001
 21
4755.7854259999976
 31
0.0
  0
ARC
  5
13806
  8
HIDE-S1
 10
3031.1041380000001
 20
3736.464985999999
 30
0.0
 40
5.0
 50
0.0
 51
180.0
  0
ARC
  5
13807
  8
HIDE-S1
 10
3093.1041380000011
 20
3736.464985999999
 30
0.0
 40
5.0
 50
0.0
 51
180.0
  0
LINE
  5
13808
  8
U3
 10
3036.1041380000011
 20
3738.0893419999979
 30
0.0
 11
3088.1041380000001
 21
3738.0893419999979
 31
0.0
  0
LINE
  5
13809
  8
U3
 10
3036.1041380000011
 20
3839.697429999997
 30
0.0
 11
3088.1041380000001
 21
3839.697429999997
 31
0.0
  0
LINE
  5
1380A
  8
U3
 10
3036.1041380000011
 20
3829.6974299999979
 30
0.0
 11
3088.1041380000001
 21
3829.6974299999979
 31
0.0
  0
LINE
  5
1380B
  8
1PL-S1
 10
3093.1041380000011
 20
3834.6974299999979
 30
0.0
 11
3031.1041380000001
 21
3834.6974299999979
 31
0.0
  0
LINE
  5
1380C
  8
1PL-S1
 10
3093.1041380000011
 20
3743.089341999997
 30
0.0
 11
3031.1041380000001
 21
3743.089341999997
 31
0.0
  0
LINE
  5
1380D
  8
U3
 10
3036.1041380000011
 20
3748.0893419999989
 30
0.0
 11
3088.1041380000001
 21
3748.0893419999989
 31
0.0
  0
LINE
  5
1380E
  8
U3
 10
3036.1041380000011
 20
3907.038913999997
 30
0.0
 11
3088.1041380000001
 21
3907.038913999997
 31
0.0
  0
LINE
  5
1380F
  8
1PL-S1
 10
3093.1041380000011
 20
3902.0389139999979
 30
0.0
 11
3031.1041380000001
 21
3902.0389139999979
 31
0.0
  0
LINE
  5
13810
  8
U3
 10
3036.1041380000011
 20
3897.0389139999988
 30
0.0
 11
3088.1041380000001
 21
3897.0389139999988
 31
0.0
  0
LINE
  5
13811
  8
U3
 10
3036.1041380000011
 20
4071.948387999998
 30
0.0
 11
3088.1041380000001
 21
4071.948387999998
 31
0.0
  0
LINE
  5
13812
  8
1PL-S1
 10
3093.1041380000011
 20
4066.9483879999989
 30
0.0
 11
3031.1041380000001
 21
4066.9483879999989
 31
0.0
  0
LINE
  5
13813
  8
U3
 10
3036.1041380000011
 20
4061.948387999998
 30
0.0
 11
3088.1041380000001
 21
4061.948387999998
 31
0.0
  0
LINE
  5
13814
  8
1PL-S1
 10
3142.6041380000001
 20
4256.6974299999983
 30
0.0
 11
3121.6041380000001
 21
4256.6974299999983
 31
0.0
  0
LINE
  5
13815
  8
U2
 10
3098.1041380000001
 20
4275.6974299999983
 30
0.0
 11
3152.1041380000001
 21
4275.6974299999983
 31
0.0
  0
LINE
  5
13816
  8
U2
 10
3152.1041380000001
 20
4237.6974299999983
 30
0.0
 11
3098.1041380000001
 21
4237.6974299999983
 31
0.0
  0
LINE
  5
13817
  8
U3
 10
3036.1041380000011
 20
4236.878400999999
 30
0.0
 11
3088.1041380000001
 21
4236.878400999999
 31
0.0
  0
LINE
  5
13818
  8
U2
 10
3036.1041380000011
 20
4237.6974299999983
 30
0.0
 11
3088.1041380000001
 21
4237.6974299999983
 31
0.0
  0
LINE
  5
13819
  8
U2
 10
3088.1041380000001
 20
4275.6974299999983
 30
0.0
 11
3036.1041380000011
 21
4275.6974299999983
 31
0.0
  0
LINE
  5
1381A
  8
U3
 10
3036.1041380000011
 20
4226.878400999999
 30
0.0
 11
3088.1041380000001
 21
4226.878400999999
 31
0.0
  0
LINE
  5
1381B
  8
1PL-S1
 10
3093.1041380000011
 20
4231.878400999999
 30
0.0
 11
3031.1041380000001
 21
4231.878400999999
 31
0.0
  0
CIRCLE
  5
1381C
  8
U1
 10
2992.1041380000001
 20
4256.6974299999983
 30
0.0
 40
4.5
  0
LINE
  5
1381D
  8
1PL-S2
 10
2992.1041380000001
 20
4246.1974299999983
 30
0.0
 11
2992.1041380000001
 21
4267.1974299999983
 31
0.0
  0
LINE
  5
1381E
  8
1PL-S1
 10
3002.6041380000011
 20
4256.6974299999983
 30
0.0
 11
2981.6041380000001
 21
4256.6974299999983
 31
0.0
  0
LINE
  5
1381F
  8
U2
  6
KAKURE-05
 10
3026.1041380000001
 20
4237.6974299999983
 30
0.0
 11
3036.1041380000011
 21
4237.6974299999983
 31
0.0
  0
LINE
  5
13820
  8
U2
  6
KAKURE-05
 10
3026.1041380000001
 20
4275.6974299999983
 30
0.0
 11
3036.1041380000011
 21
4275.6974299999983
 31
0.0
  0
CIRCLE
  5
13821
  8
HIDE-S1
 10
3031.1041380000001
 20
4300.6974299999983
 30
0.0
 40
5.0
  0
CIRCLE
  5
13822
  8
U1
 10
3132.1041380000001
 20
4256.6974299999983
 30
0.0
 40
4.5
  0
LINE
  5
13823
  8
1PL-S2
 10
3132.1041380000001
 20
4246.1974299999983
 30
0.0
 11
3132.1041380000001
 21
4267.1974299999983
 31
0.0
  0
LINE
  5
13824
  8
U2
  6
KAKURE-05
 10
3088.1041380000001
 20
4237.6974299999983
 30
0.0
 11
3098.1041380000001
 21
4237.6974299999983
 31
0.0
  0
LINE
  5
13825
  8
U2
  6
KAKURE-05
 10
3088.1041380000001
 20
4275.6974299999983
 30
0.0
 11
3098.1041380000001
 21
4275.6974299999983
 31
0.0
  0
CIRCLE
  5
13826
  8
HIDE-S1
 10
3093.1041380000011
 20
4300.6974299999983
 30
0.0
 40
5.0
  0
LINE
  5
13827
  8
U2
 10
3152.1041380000001
 20
4275.6974299999983
 30
0.0
 11
3152.1041380000001
 21
4237.6974299999983
 31
0.0
  0
LINE
  5
13828
  8
1PL-S1
 10
3093.1041380000011
 20
4508.6974299999983
 30
0.0
 11
3031.1041380000001
 21
4508.6974299999983
 31
0.0
  0
LINE
  5
13829
  8
U3
 10
3036.1041380000011
 20
4503.6974299999983
 30
0.0
 11
3088.1041380000001
 21
4503.6974299999983
 31
0.0
  0
LINE
  5
1382A
  8
U3
 10
3036.1041380000011
 20
4513.6974299999983
 30
0.0
 11
3088.1041380000001
 21
4513.6974299999983
 31
0.0
  0
LINE
  5
1382B
  8
1PL-S1
 10
3142.6041380000001
 20
4654.6974299999974
 30
0.0
 11
3121.6041380000001
 21
4654.6974299999974
 31
0.0
  0
LINE
  5
1382C
  8
U2
 10
3101.1041380000001
 20
4673.6974299999983
 30
0.0
 11
3152.1041380000001
 21
4673.6974299999983
 31
0.0
  0
LINE
  5
1382D
  8
U2
 10
3101.1041380000001
 20
4635.6974299999983
 30
0.0
 11
3152.1041380000001
 21
4635.6974299999983
 31
0.0
  0
LINE
  5
1382E
  8
U2
 10
3091.1041380000001
 20
4635.6974299999983
 30
0.0
 11
3033.1041380000011
 21
4635.6974299999983
 31
0.0
  0
LINE
  5
1382F
  8
1PL-S1
 10
3002.6041380000011
 20
4654.6974299999974
 30
0.0
 11
2981.6041380000001
 21
4654.6974299999974
 31
0.0
  0
CIRCLE
  5
13830
  8
U1
 10
2992.1041380000001
 20
4654.6974299999974
 30
0.0
 40
4.5
  0
LINE
  5
13831
  8
1PL-S2
 10
2992.1041380000001
 20
4644.1974299999983
 30
0.0
 11
2992.1041380000001
 21
4665.1974299999983
 31
0.0
  0
LINE
  5
13832
  8
U2
  6
KAKURE-05
 10
3023.1041380000001
 20
4635.6974299999983
 30
0.0
 11
3033.1041380000011
 21
4635.6974299999983
 31
0.0
  0
LINE
  5
13833
  8
U2
  6
KAKURE-05
 10
3091.1041380000001
 20
4635.6974299999983
 30
0.0
 11
3101.1041380000001
 21
4635.6974299999983
 31
0.0
  0
CIRCLE
  5
13834
  8
U1
 10
3132.1041380000001
 20
4654.6974299999974
 30
0.0
 40
4.5
  0
LINE
  5
13835
  8
1PL-S2
 10
3132.1041380000001
 20
4644.1974299999983
 30
0.0
 11
3132.1041380000001
 21
4665.1974299999983
 31
0.0
  0
LINE
  5
13836
  8
U2
 10
3033.1041380000011
 20
4673.6974299999983
 30
0.0
 11
3091.1041380000001
 21
4673.6974299999983
 31
0.0
  0
ARC
  5
13837
  8
MARU_BOO
 10
3062.0780710000008
 20
4695.0998519999976
 30
0.0
 40
26.029176
 50
359.24721099998612
 51
176.82674000001461
  0
ARC
  5
13838
  8
1PL-S1
 10
3062.0780710000008
 20
4695.0998519999976
 30
0.0
 40
31.029176
 50
359.24721099998612
 51
176.82674000001461
  0
ARC
  5
13839
  8
MARU_BOO
 10
3062.0780710000008
 20
4695.0998519999976
 30
0.0
 40
36.029176
 50
43.750256999979811
 51
136.1299829999854
  0
CIRCLE
  5
1383A
  8
HIDE-S1
 10
3031.1041380000001
 20
4672.6974299999983
 30
0.0
 40
5.0
  0
LINE
  5
1383B
  8
U2
  6
KAKURE-05
 10
3023.1041380000001
 20
4673.6974299999983
 30
0.0
 11
3033.1041380000011
 21
4673.6974299999983
 31
0.0
  0
ARC
  5
1383C
  8
HIDE-S1
 10
3031.1041380000001
 20
4729.6974299999983
 30
0.0
 40
5.0
 50
180.0
 51
0.0
  0
LINE
  5
1383E
  8
U2
  6
KAKURE-05
 10
3091.1041380000001
 20
4673.6974299999983
 30
0.0
 11
3101.1041380000001
 21
4673.6974299999983
 31
0.0
  0
CIRCLE
  5
1383F
  8
HIDE-S1
 10
3093.1041380000011
 20
4672.6974299999983
 30
0.0
 40
5.0
  0
ARC
  5
13841
  8
HIDE-S1
 10
3093.1041380000011
 20
4729.6974299999983
 30
0.0
 40
5.0
 50
180.0
 51
0.0
  0
LINE
  5
13842
  8
U2
 10
3152.1041380000001
 20
4673.6974299999983
 30
0.0
 11
3152.1041380000001
 21
4635.6974299999983
 31
0.0
  0
LINE
  5
13843
  8
U2
 10
2172.1041380000001
 20
4673.6974299999983
 30
0.0
 11
2223.1041380000001
 21
4673.6974299999983
 31
0.0
  0
LINE
  5
13844
  8
U2
 10
2223.1041380000001
 20
4635.6974299999983
 30
0.0
 11
2172.1041380000001
 21
4635.6974299999983
 31
0.0
  0
LINE
  5
13845
  8
U2
 10
2226.1041380000001
 20
4237.6974299999983
 30
0.0
 11
2172.1041380000001
 21
4237.6974299999983
 31
0.0
  0
LINE
  5
13846
  8
U2
 10
2172.1041380000001
 20
4275.6974299999983
 30
0.0
 11
2226.1041380000001
 21
4275.6974299999983
 31
0.0
  0
LINE
  5
13847
  8
U2
 10
2172.1041380000001
 20
4237.6974299999983
 30
0.0
 11
2172.1041380000001
 21
4275.6974299999983
 31
0.0
  0
LINE
  5
13848
  8
U2
 10
2172.1041380000001
 20
4635.6974299999983
 30
0.0
 11
2172.1041380000001
 21
4673.6974299999983
 31
0.0
  0
LINE
  5
1384B
  8
1PL-M1
 10
2231.1041380000001
 20
3723.5934369999991
 30
0.0
 11
2231.1041380000001
 21
4755.7854259999976
 31
0.0
  0
LINE
  5
1384C
  8
1PL-M1
 10
2293.1041380000001
 20
3723.5934369999991
 30
0.0
 11
2293.1041380000001
 21
4755.7854259999976
 31
0.0
  0
LINE
  5
1384D
  8
1PL-M1
 10
2262.1041380000001
 20
3723.5934369999991
 30
0.0
 11
2262.1041380000001
 21
4755.7854259999976
 31
0.0
  0
ARC
  5
1384E
  8
HIDE-S1
 10
2231.1041380000001
 20
3736.464985999999
 30
0.0
 40
5.0
 50
0.0
 51
180.0
  0
ARC
  5
1384F
  8
HIDE-S1
 10
2293.1041380000001
 20
3736.464985999999
 30
0.0
 40
5.0
 50
0.0
 51
180.0
  0
LINE
  5
13850
  8
U3
 10
2236.1041380000001
 20
3738.0893419999979
 30
0.0
 11
2288.1041380000001
 21
3738.0893419999979
 31
0.0
  0
LINE
  5
13851
  8
U3
 10
2236.1041380000001
 20
3839.697429999997
 30
0.0
 11
2288.1041380000001
 21
3839.697429999997
 31
0.0
  0
LINE
  5
13852
  8
U3
 10
2236.1041380000001
 20
3829.6974299999979
 30
0.0
 11
2288.1041380000001
 21
3829.6974299999979
 31
0.0
  0
LINE
  5
13853
  8
1PL-S1
 10
2293.1041380000001
 20
3834.6974299999979
 30
0.0
 11
2231.1041380000001
 21
3834.6974299999979
 31
0.0
  0
LINE
  5
13854
  8
1PL-S1
 10
2293.1041380000001
 20
3743.089341999997
 30
0.0
 11
2231.1041380000001
 21
3743.089341999997
 31
0.0
  0
LINE
  5
13855
  8
U3
 10
2236.1041380000001
 20
3748.0893419999989
 30
0.0
 11
2288.1041380000001
 21
3748.0893419999989
 31
0.0
  0
LINE
  5
13856
  8
U3
 10
2236.1041380000001
 20
3907.038913999997
 30
0.0
 11
2288.1041380000001
 21
3907.038913999997
 31
0.0
  0
LINE
  5
13857
  8
1PL-S1
 10
2293.1041380000001
 20
3902.0389139999979
 30
0.0
 11
2231.1041380000001
 21
3902.0389139999979
 31
0.0
  0
LINE
  5
13858
  8
U3
 10
2236.1041380000001
 20
3897.0389139999988
 30
0.0
 11
2288.1041380000001
 21
3897.0389139999988
 31
0.0
  0
LINE
  5
13859
  8
U3
 10
2236.1041380000001
 20
4071.948387999998
 30
0.0
 11
2288.1041380000001
 21
4071.948387999998
 31
0.0
  0
LINE
  5
1385A
  8
1PL-S1
 10
2293.1041380000001
 20
4066.9483879999989
 30
0.0
 11
2231.1041380000001
 21
4066.9483879999989
 31
0.0
  0
LINE
  5
1385B
  8
U3
 10
2236.1041380000001
 20
4061.948387999998
 30
0.0
 11
2288.1041380000001
 21
4061.948387999998
 31
0.0
  0
LINE
  5
1385C
  8
1PL-S1
 10
2342.6041380000001
 20
4256.6974299999983
 30
0.0
 11
2321.6041380000001
 21
4256.6974299999983
 31
0.0
  0
LINE
  5
1385D
  8
U2
 10
2298.1041380000001
 20
4275.6974299999983
 30
0.0
 11
2352.1041380000001
 21
4275.6974299999983
 31
0.0
  0
LINE
  5
1385E
  8
U2
 10
2352.1041380000001
 20
4237.6974299999983
 30
0.0
 11
2298.1041380000001
 21
4237.6974299999983
 31
0.0
  0
LINE
  5
1385F
  8
U3
 10
2236.1041380000001
 20
4236.878400999999
 30
0.0
 11
2288.1041380000001
 21
4236.878400999999
 31
0.0
  0
LINE
  5
13860
  8
U2
 10
2236.1041380000001
 20
4237.6974299999983
 30
0.0
 11
2288.1041380000001
 21
4237.6974299999983
 31
0.0
  0
LINE
  5
13861
  8
U2
 10
2288.1041380000001
 20
4275.6974299999983
 30
0.0
 11
2236.1041380000001
 21
4275.6974299999983
 31
0.0
  0
LINE
  5
13862
  8
U3
 10
2236.1041380000001
 20
4226.878400999999
 30
0.0
 11
2288.1041380000001
 21
4226.878400999999
 31
0.0
  0
LINE
  5
13863
  8
1PL-S1
 10
2293.1041380000001
 20
4231.878400999999
 30
0.0
 11
2231.1041380000001
 21
4231.878400999999
 31
0.0
  0
CIRCLE
  5
13864
  8
U1
 10
2192.1041380000001
 20
4256.6974299999983
 30
0.0
 40
4.5
  0
LINE
  5
13865
  8
1PL-S2
 10
2192.1041380000001
 20
4246.1974299999983
 30
0.0
 11
2192.1041380000001
 21
4267.1974299999983
 31
0.0
  0
LINE
  5
13866
  8
1PL-S1
 10
2202.6041380000001
 20
4256.6974299999983
 30
0.0
 11
2181.6041380000001
 21
4256.6974299999983
 31
0.0
  0
LINE
  5
13867
  8
U2
  6
KAKURE-05
 10
2226.1041380000001
 20
4237.6974299999983
 30
0.0
 11
2236.1041380000001
 21
4237.6974299999983
 31
0.0
  0
LINE
  5
13868
  8
U2
  6
KAKURE-05
 10
2226.1041380000001
 20
4275.6974299999983
 30
0.0
 11
2236.1041380000001
 21
4275.6974299999983
 31
0.0
  0
CIRCLE
  5
13869
  8
HIDE-S1
 10
2231.1041380000001
 20
4300.6974299999983
 30
0.0
 40
5.0
  0
CIRCLE
  5
1386A
  8
U1
 10
2332.1041380000001
 20
4256.6974299999983
 30
0.0
 40
4.5
  0
LINE
  5
1386B
  8
1PL-S2
 10
2332.1041380000001
 20
4246.1974299999983
 30
0.0
 11
2332.1041380000001
 21
4267.1974299999983
 31
0.0
  0
LINE
  5
1386C
  8
U2
  6
KAKURE-05
 10
2288.1041380000001
 20
4237.6974299999983
 30
0.0
 11
2298.1041380000001
 21
4237.6974299999983
 31
0.0
  0
LINE
  5
1386D
  8
U2
  6
KAKURE-05
 10
2288.1041380000001
 20
4275.6974299999983
 30
0.0
 11
2298.1041380000001
 21
4275.6974299999983
 31
0.0
  0
CIRCLE
  5
1386E
  8
HIDE-S1
 10
2293.1041380000001
 20
4300.6974299999983
 30
0.0
 40
5.0
  0
LINE
  5
1386F
  8
U2
 10
2352.1041380000001
 20
4275.6974299999983
 30
0.0
 11
2352.1041380000001
 21
4237.6974299999983
 31
0.0
  0
LINE
  5
13870
  8
1PL-S1
 10
2293.1041380000001
 20
4508.6974299999983
 30
0.0
 11
2231.1041380000001
 21
4508.6974299999983
 31
0.0
  0
LINE
  5
13871
  8
U3
 10
2236.1041380000001
 20
4503.6974299999983
 30
0.0
 11
2288.1041380000001
 21
4503.6974299999983
 31
0.0
  0
LINE
  5
13872
  8
U3
 10
2236.1041380000001
 20
4513.6974299999983
 30
0.0
 11
2288.1041380000001
 21
4513.6974299999983
 31
0.0
  0
LINE
  5
13873
  8
1PL-S1
 10
2342.6041380000001
 20
4654.6974299999974
 30
0.0
 11
2321.6041380000001
 21
4654.6974299999974
 31
0.0
  0
LINE
  5
13874
  8
U2
 10
2301.1041380000001
 20
4673.6974299999983
 30
0.0
 11
2352.1041380000001
 21
4673.6974299999983
 31
0.0
  0
LINE
  5
13875
  8
U2
 10
2301.1041380000001
 20
4635.6974299999983
 30
0.0
 11
2352.1041380000001
 21
4635.6974299999983
 31
0.0
  0
LINE
  5
13876
  8
U2
 10
2291.1041380000001
 20
4635.6974299999983
 30
0.0
 11
2233.1041380000001
 21
4635.6974299999983
 31
0.0
  0
LINE
  5
13877
  8
1PL-S1
 10
2202.6041380000001
 20
4654.6974299999974
 30
0.0
 11
2181.6041380000001
 21
4654.6974299999974
 31
0.0
  0
CIRCLE
  5
13878
  8
U1
 10
2192.1041380000001
 20
4654.6974299999974
 30
0.0
 40
4.5
  0
LINE
  5
13879
  8
1PL-S2
 10
2192.1041380000001
 20
4644.1974299999983
 30
0.0
 11
2192.1041380000001
 21
4665.1974299999983
 31
0.0
  0
LINE
  5
1387A
  8
U2
  6
KAKURE-05
 10
2223.1041380000001
 20
4635.6974299999983
 30
0.0
 11
2233.1041380000001
 21
4635.6974299999983
 31
0.0
  0
LINE
  5
1387B
  8
U2
  6
KAKURE-05
 10
2291.1041380000001
 20
4635.6974299999983
 30
0.0
 11
2301.1041380000001
 21
4635.6974299999983
 31
0.0
  0
CIRCLE
  5
1387C
  8
U1
 10
2332.1041380000001
 20
4654.6974299999974
 30
0.0
 40
4.5
  0
LINE
  5
1387D
  8
1PL-S2
 10
2332.1041380000001
 20
4644.1974299999983
 30
0.0
 11
2332.1041380000001
 21
4665.1974299999983
 31
0.0
  0
LINE
  5
1387E
  8
U2
 10
2233.1041380000001
 20
4673.6974299999983
 30
0.0
 11
2291.1041380000001
 21
4673.6974299999983
 31
0.0
  0
ARC
  5
1387F
  8
MARU_BOO
 10
2262.0780710000008
 20
4695.0998519999976
 30
0.0
 40
26.029176
 50
359.24721099998612
 51
176.82674000001461
  0
ARC
  5
13880
  8
1PL-S1
 10
2262.0780710000008
 20
4695.0998519999976
 30
0.0
 40
31.029176
 50
359.24721099998612
 51
176.82674000001461
  0
ARC
  5
13881
  8
MARU_BOO
 10
2262.0780710000008
 20
4695.0998519999976
 30
0.0
 40
36.029176
 50
43.750256999979811
 51
136.1299829999854
  0
CIRCLE
  5
13882
  8
HIDE-S1
 10
2231.1041380000001
 20
4672.6974299999983
 30
0.0
 40
5.0
  0
LINE
  5
13883
  8
U2
  6
KAKURE-05
 10
2223.1041380000001
 20
4673.6974299999983
 30
0.0
 11
2233.1041380000001
 21
4673.6974299999983
 31
0.0
  0
ARC
  5
13884
  8
HIDE-S1
 10
2231.1041380000001
 20
4729.6974299999983
 30
0.0
 40
5.0
 50
180.0
 51
0.0
  0
LINE
  5
13886
  8
U2
  6
KAKURE-05
 10
2291.1041380000001
 20
4673.6974299999983
 30
0.0
 11
2301.1041380000001
 21
4673.6974299999983
 31
0.0
  0
CIRCLE
  5
13887
  8
HIDE-S1
 10
2293.1041380000001
 20
4672.6974299999983
 30
0.0
 40
5.0
  0
ARC
  5
13889
  8
HIDE-S1
 10
2293.1041380000001
 20
4729.6974299999983
 30
0.0
 40
5.0
 50
180.0
 51
0.0
  0
LINE
  5
1388A
  8
U2
 10
2352.1041380000001
 20
4673.6974299999983
 30
0.0
 11
2352.1041380000001
 21
4635.6974299999983
 31
0.0
  0
ARC
  5
1388B
  8
MARU_BOO
 10
3462.1041380000011
 20
4721.697116999997
 30
0.0
 40
27.0
 50
17.235980000001138
 51
162.76401999999879
  0
ARC
  5
1388C
  8
1PL-S1
 10
3462.1041380000011
 20
4721.697116999997
 30
0.0
 40
32.0
 50
14.478090999978621
 51
165.52190900002131
  0
ARC
  5
1388D
  8
MARU_BOO
 10
3462.1041380000011
 20
4721.697116999997
 30
0.0
 40
37.0
 50
12.487386000007231
 51
167.51261399999271
  0
LINE
  5
1388E
  8
PURETO
 10
3491.104138000002
 20
4635.6974299999983
 30
0.0
 11
3433.1041380000011
 21
4635.6974299999983
 31
0.0
  0
LINE
  5
1388F
  8
PURETO
 10
3433.1041380000011
 20
4673.6974299999983
 30
0.0
 11
3491.104138000002
 21
4673.6974299999983
 31
0.0
  0
LINE
  5
13890
  8
PURETO
 10
3433.1041380000011
 20
4275.6974299999983
 30
0.0
 11
3491.104138000002
 21
4275.6974299999983
 31
0.0
  0
LINE
  5
13891
  8
PURETO
 10
3491.104138000002
 20
4237.6974299999983
 30
0.0
 11
3433.1041380000011
 21
4237.6974299999983
 31
0.0
  0
LINE
  5
13892
  8
U3
 10
3436.1041380000011
 20
4029.697429999997
 30
0.0
 11
3488.1041380000011
 21
4029.697429999997
 31
0.0
  0
LINE
  5
13893
  8
U3
 10
3436.1041380000011
 20
4039.697429999997
 30
0.0
 11
3488.1041380000011
 21
4039.697429999997
 31
0.0
  0
LINE
  5
13894
  8
1PL-S1
 10
3431.104138000002
 20
4034.697429999997
 30
0.0
 11
3493.1041380000011
 21
4034.697429999997
 31
0.0
  0
LINE
  5
13895
  8
PURETO
 10
3372.1041380000011
 20
4237.6974299999983
 30
0.0
 11
3372.1041380000011
 21
4275.6974299999983
 31
0.0
  0
LINE
  5
13896
  8
1PL-M1
 10
3431.104138000002
 20
3926.825879999999
 30
0.0
 11
3431.104138000002
 21
4734.6974299999983
 31
0.0
  0
ARC
  5
13898
  8
HIDE-S1
 10
3431.104138000002
 20
3939.6974299999979
 30
0.0
 40
5.0
 50
0.0
 51
180.0
  0
LINE
  5
13899
  8
PURETO
 10
3423.104138000002
 20
4237.6974299999983
 30
0.0
 11
3372.1041380000011
 21
4237.6974299999983
 31
0.0
  0
LINE
  5
1389A
  8
PURETO
  6
KAKURE-05
 10
3423.104138000002
 20
4237.6974299999983
 30
0.0
 11
3433.1041380000011
 21
4237.6974299999983
 31
0.0
  0
CIRCLE
  5
1389B
  8
HIDE-S1
 10
3431.104138000002
 20
4300.4734299999991
 30
0.0
 40
4.775999999999998
  0
LINE
  5
1389C
  8
1PL-S1
 10
3402.6041380000011
 20
4256.6974299999983
 30
0.0
 11
3381.6041380000011
 21
4256.6974299999983
 31
0.0
  0
LINE
  5
1389D
  8
PURETO
 10
3372.1041380000011
 20
4275.6974299999983
 30
0.0
 11
3423.104138000002
 21
4275.6974299999983
 31
0.0
  0
LINE
  5
1389E
  8
1PL-S2
 10
3392.1041380000011
 20
4246.1974299999983
 30
0.0
 11
3392.1041380000011
 21
4267.1974299999983
 31
0.0
  0
CIRCLE
  5
1389F
  8
TUNAGI_BO
 10
3392.1041380000011
 20
4256.6974299999983
 30
0.0
 40
4.5
  0
LINE
  5
138A0
  8
PURETO
  6
KAKURE-05
 10
3423.104138000002
 20
4275.6974299999983
 30
0.0
 11
3433.1041380000011
 21
4275.6974299999983
 31
0.0
  0
CIRCLE
  5
138A1
  8
TUNAGI_BO
 10
3392.1041380000011
 20
4654.6974299999974
 30
0.0
 40
4.5
  0
LINE
  5
138A2
  8
PURETO
 10
3372.1041380000011
 20
4635.6974299999983
 30
0.0
 11
3372.1041380000011
 21
4673.6974299999983
 31
0.0
  0
LINE
  5
138A3
  8
1PL-S2
 10
3392.1041380000011
 20
4644.1974299999983
 30
0.0
 11
3392.1041380000011
 21
4665.1974299999983
 31
0.0
  0
CIRCLE
  5
138A4
  8
HIDE-S1
 10
3431.104138000002
 20
4654.6974299999974
 30
0.0
 40
5.0
  0
LINE
  5
138A5
  8
PURETO
 10
3423.104138000002
 20
4635.6974299999983
 30
0.0
 11
3372.1041380000011
 21
4635.6974299999983
 31
0.0
  0
LINE
  5
138A6
  8
PURETO
  6
KAKURE-05
 10
3423.104138000002
 20
4635.6974299999983
 30
0.0
 11
3433.1041380000011
 21
4635.6974299999983
 31
0.0
  0
LINE
  5
138A7
  8
1PL-S1
 10
3402.6041380000011
 20
4654.6974299999974
 30
0.0
 11
3381.6041380000011
 21
4654.6974299999974
 31
0.0
  0
LINE
  5
138A8
  8
PURETO
 10
3372.1041380000011
 20
4673.6974299999983
 30
0.0
 11
3423.104138000002
 21
4673.6974299999983
 31
0.0
  0
LINE
  5
138A9
  8
PURETO
  6
KAKURE-05
 10
3423.104138000002
 20
4673.6974299999983
 30
0.0
 11
3433.1041380000011
 21
4673.6974299999983
 31
0.0
  0
ARC
  5
138AA
  8
HIDE-S1
 10
3431.104138000002
 20
4729.6974299999983
 30
0.0
 40
5.0
 50
180.0
 51
0.0
  0
LINE
  5
138AC
  8
PURETO
 10
3552.104138000002
 20
4275.6974299999983
 30
0.0
 11
3552.104138000002
 21
4237.6974299999983
 31
0.0
  0
LINE
  5
138AD
  8
1PL-M1
 10
3462.1041380000011
 20
3926.825879999999
 30
0.0
 11
3462.1041380000011
 21
4766.3062759999993
 31
0.0
  0
LINE
  5
138AE
  8
1PL-M1
 10
3493.1041380000011
 20
3926.825879999999
 30
0.0
 11
3493.1041380000011
 21
4734.6974299999983
 31
0.0
  0
ARC
  5
138B0
  8
HIDE-S1
 10
3493.1041380000011
 20
3939.6974299999979
 30
0.0
 40
5.0
 50
0.0
 51
180.0
  0
LINE
  5
138B1
  8
PURETO
 10
3552.104138000002
 20
4237.6974299999983
 30
0.0
 11
3501.1041380000011
 21
4237.6974299999983
 31
0.0
  0
LINE
  5
138B2
  8
PURETO
  6
KAKURE-05
 10
3501.1041380000011
 20
4237.6974299999983
 30
0.0
 11
3491.104138000002
 21
4237.6974299999983
 31
0.0
  0
LINE
  5
138B3
  8
PURETO
 10
3501.1041380000011
 20
4275.6974299999983
 30
0.0
 11
3552.104138000002
 21
4275.6974299999983
 31
0.0
  0
LINE
  5
138B4
  8
1PL-S1
 10
3542.6041380000011
 20
4256.6974299999983
 30
0.0
 11
3521.604138000002
 21
4256.6974299999983
 31
0.0
  0
CIRCLE
  5
138B5
  8
HIDE-S1
 10
3493.1041380000011
 20
4300.4734299999991
 30
0.0
 40
4.775999999999998
  0
LINE
  5
138B6
  8
PURETO
  6
KAKURE-05
 10
3501.1041380000011
 20
4275.6974299999983
 30
0.0
 11
3491.104138000002
 21
4275.6974299999983
 31
0.0
  0
LINE
  5
138B7
  8
1PL-S2
 10
3532.1041380000011
 20
4246.1974299999983
 30
0.0
 11
3532.1041380000011
 21
4267.1974299999983
 31
0.0
  0
CIRCLE
  5
138B8
  8
TUNAGI_BO
 10
3532.1041380000011
 20
4256.6974299999983
 30
0.0
 40
4.5
  0
LINE
  5
138B9
  8
PURETO
 10
3552.104138000002
 20
4635.6974299999983
 30
0.0
 11
3501.1041380000011
 21
4635.6974299999983
 31
0.0
  0
LINE
  5
138BA
  8
1PL-S1
 10
3542.6041380000011
 20
4654.6974299999974
 30
0.0
 11
3521.604138000002
 21
4654.6974299999974
 31
0.0
  0
LINE
  5
138BB
  8
PURETO
 10
3501.1041380000011
 20
4673.6974299999983
 30
0.0
 11
3552.104138000002
 21
4673.6974299999983
 31
0.0
  0
CIRCLE
  5
138BC
  8
HIDE-S1
 10
3493.1041380000011
 20
4654.6974299999974
 30
0.0
 40
5.0
  0
LINE
  5
138BD
  8
PURETO
  6
KAKURE-05
 10
3501.1041380000011
 20
4635.6974299999983
 30
0.0
 11
3491.104138000002
 21
4635.6974299999983
 31
0.0
  0
LINE
  5
138BE
  8
PURETO
  6
KAKURE-05
 10
3501.1041380000011
 20
4673.6974299999983
 30
0.0
 11
3491.104138000002
 21
4673.6974299999983
 31
0.0
  0
LINE
  5
138BF
  8
1PL-S2
 10
3532.1041380000011
 20
4644.1974299999983
 30
0.0
 11
3532.1041380000011
 21
4665.1974299999983
 31
0.0
  0
LINE
  5
138C0
  8
PURETO
 10
3552.104138000002
 20
4673.6974299999983
 30
0.0
 11
3552.104138000002
 21
4635.6974299999983
 31
0.0
  0
CIRCLE
  5
138C1
  8
TUNAGI_BO
 10
3532.1041380000011
 20
4654.6974299999974
 30
0.0
 40
4.5
  0
ARC
  5
138C2
  8
HIDE-S1
 10
3493.1041380000011
 20
4729.6974299999983
 30
0.0
 40
5.0
 50
180.0
 51
0.0
  0
ARC
  5
138C4
  8
MARU_BOO
 10
2662.1041380000001
 20
4721.697116999997
 30
0.0
 40
27.0
 50
17.235980000001138
 51
162.76401999999879
  0
ARC
  5
138C5
  8
1PL-S1
 10
2662.1041380000001
 20
4721.697116999997
 30
0.0
 40
32.0
 50
14.478090999978621
 51
165.52190900002131
  0
ARC
  5
138C6
  8
MARU_BOO
 10
2662.1041380000001
 20
4721.697116999997
 30
0.0
 40
37.0
 50
12.487386000007231
 51
167.51261399999271
  0
LINE
  5
138C7
  8
PURETO
 10
2691.1041380000001
 20
4635.6974299999983
 30
0.0
 11
2633.1041380000001
 21
4635.6974299999983
 31
0.0
  0
LINE
  5
138C8
  8
PURETO
 10
2633.1041380000001
 20
4673.6974299999983
 30
0.0
 11
2691.1041380000001
 21
4673.6974299999983
 31
0.0
  0
LINE
  5
138C9
  8
PURETO
 10
2633.1041380000001
 20
4275.6974299999983
 30
0.0
 11
2691.1041380000001
 21
4275.6974299999983
 31
0.0
  0
LINE
  5
138CA
  8
PURETO
 10
2691.1041380000001
 20
4237.6974299999983
 30
0.0
 11
2633.1041380000001
 21
4237.6974299999983
 31
0.0
  0
LINE
  5
138CB
  8
U3
 10
2636.1041380000001
 20
4029.697429999997
 30
0.0
 11
2688.1041380000001
 21
4029.697429999997
 31
0.0
  0
LINE
  5
138CC
  8
U3
 10
2636.1041380000001
 20
4039.697429999997
 30
0.0
 11
2688.1041380000001
 21
4039.697429999997
 31
0.0
  0
LINE
  5
138CD
  8
1PL-S1
 10
2631.1041380000001
 20
4034.697429999997
 30
0.0
 11
2693.1041380000011
 21
4034.697429999997
 31
0.0
  0
LINE
  5
138CE
  8
PURETO
 10
2572.1041380000001
 20
4237.6974299999983
 30
0.0
 11
2572.1041380000001
 21
4275.6974299999983
 31
0.0
  0
LINE
  5
138CF
  8
1PL-M1
 10
2631.1041380000001
 20
3926.825879999999
 30
0.0
 11
2631.1041380000001
 21
4734.6974299999983
 31
0.0
  0
ARC
  5
138D1
  8
HIDE-S1
 10
2631.1041380000001
 20
3939.6974299999979
 30
0.0
 40
5.0
 50
0.0
 51
180.0
  0
LINE
  5
138D2
  8
PURETO
 10
2623.1041380000001
 20
4237.6974299999983
 30
0.0
 11
2572.1041380000001
 21
4237.6974299999983
 31
0.0
  0
LINE
  5
138D3
  8
PURETO
  6
KAKURE-05
 10
2623.1041380000001
 20
4237.6974299999983
 30
0.0
 11
2633.1041380000001
 21
4237.6974299999983
 31
0.0
  0
CIRCLE
  5
138D4
  8
HIDE-S1
 10
2631.1041380000001
 20
4300.4734299999991
 30
0.0
 40
4.775999999999998
  0
LINE
  5
138D5
  8
1PL-S1
 10
2602.6041380000001
 20
4256.6974299999983
 30
0.0
 11
2581.6041380000001
 21
4256.6974299999983
 31
0.0
  0
LINE
  5
138D6
  8
PURETO
 10
2572.1041380000001
 20
4275.6974299999983
 30
0.0
 11
2623.1041380000001
 21
4275.6974299999983
 31
0.0
  0
LINE
  5
138D7
  8
1PL-S2
 10
2592.1041380000001
 20
4246.1974299999983
 30
0.0
 11
2592.1041380000001
 21
4267.1974299999983
 31
0.0
  0
CIRCLE
  5
138D8
  8
TUNAGI_BO
 10
2592.1041380000001
 20
4256.6974299999983
 30
0.0
 40
4.5
  0
LINE
  5
138D9
  8
PURETO
  6
KAKURE-05
 10
2623.1041380000001
 20
4275.6974299999983
 30
0.0
 11
2633.1041380000001
 21
4275.6974299999983
 31
0.0
  0
CIRCLE
  5
138DA
  8
TUNAGI_BO
 10
2592.1041380000001
 20
4654.6974299999974
 30
0.0
 40
4.5
  0
LINE
  5
138DB
  8
PURETO
 10
2572.1041380000001
 20
4635.6974299999983
 30
0.0
 11
2572.1041380000001
 21
4673.6974299999983
 31
0.0
  0
LINE
  5
138DC
  8
1PL-S2
 10
2592.1041380000001
 20
4644.1974299999983
 30
0.0
 11
2592.1041380000001
 21
4665.1974299999983
 31
0.0
  0
CIRCLE
  5
138DD
  8
HIDE-S1
 10
2631.1041380000001
 20
4654.6974299999974
 30
0.0
 40
5.0
  0
LINE
  5
138DE
  8
PURETO
 10
2623.1041380000001
 20
4635.6974299999983
 30
0.0
 11
2572.1041380000001
 21
4635.6974299999983
 31
0.0
  0
LINE
  5
138DF
  8
PURETO
  6
KAKURE-05
 10
2623.1041380000001
 20
4635.6974299999983
 30
0.0
 11
2633.1041380000001
 21
4635.6974299999983
 31
0.0
  0
LINE
  5
138E0
  8
1PL-S1
 10
2602.6041380000001
 20
4654.6974299999974
 30
0.0
 11
2581.6041380000001
 21
4654.6974299999974
 31
0.0
  0
LINE
  5
138E1
  8
PURETO
 10
2572.1041380000001
 20
4673.6974299999983
 30
0.0
 11
2623.1041380000001
 21
4673.6974299999983
 31
0.0
  0
LINE
  5
138E2
  8
PURETO
  6
KAKURE-05
 10
2623.1041380000001
 20
4673.6974299999983
 30
0.0
 11
2633.1041380000001
 21
4673.6974299999983
 31
0.0
  0
ARC
  5
138E3
  8
HIDE-S1
 10
2631.1041380000001
 20
4729.6974299999983
 30
0.0
 40
5.0
 50
180.0
 51
0.0
  0
LINE
  5
138E5
  8
PURETO
 10
2752.1041380000001
 20
4275.6974299999983
 30
0.0
 11
2752.1041380000001
 21
4237.6974299999983
 31
0.0
  0
LINE
  5
138E6
  8
1PL-M1
 10
2662.1041380000001
 20
3926.825879999999
 30
0.0
 11
2662.1041380000001
 21
4766.3062759999993
 31
0.0
  0
LINE
  5
138E7
  8
1PL-M1
 10
2693.1041380000011
 20
3926.825879999999
 30
0.0
 11
2693.1041380000011
 21
4734.6974299999983
 31
0.0
  0
ARC
  5
138E9
  8
HIDE-S1
 10
2693.1041380000011
 20
3939.6974299999979
 30
0.0
 40
5.0
 50
0.0
 51
180.0
  0
LINE
  5
138EA
  8
PURETO
 10
2752.1041380000001
 20
4237.6974299999983
 30
0.0
 11
2701.1041380000001
 21
4237.6974299999983
 31
0.0
  0
LINE
  5
138EB
  8
PURETO
  6
KAKURE-05
 10
2701.1041380000001
 20
4237.6974299999983
 30
0.0
 11
2691.1041380000001
 21
4237.6974299999983
 31
0.0
  0
LINE
  5
138EC
  8
PURETO
 10
2701.1041380000001
 20
4275.6974299999983
 30
0.0
 11
2752.1041380000001
 21
4275.6974299999983
 31
0.0
  0
LINE
  5
138ED
  8
1PL-S1
 10
2742.6041380000001
 20
4256.6974299999983
 30
0.0
 11
2721.6041380000001
 21
4256.6974299999983
 31
0.0
  0
CIRCLE
  5
138EE
  8
HIDE-S1
 10
2693.1041380000011
 20
4300.4734299999991
 30
0.0
 40
4.775999999999998
  0
LINE
  5
138EF
  8
PURETO
  6
KAKURE-05
 10
2701.1041380000001
 20
4275.6974299999983
 30
0.0
 11
2691.1041380000001
 21
4275.6974299999983
 31
0.0
  0
LINE
  5
138F0
  8
1PL-S2
 10
2732.1041380000001
 20
4246.1974299999983
 30
0.0
 11
2732.1041380000001
 21
4267.1974299999983
 31
0.0
  0
CIRCLE
  5
138F1
  8
TUNAGI_BO
 10
2732.1041380000001
 20
4256.6974299999983
 30
0.0
 40
4.5
  0
LINE
  5
138F2
  8
PURETO
 10
2752.1041380000001
 20
4635.6974299999983
 30
0.0
 11
2701.1041380000001
 21
4635.6974299999983
 31
0.0
  0
LINE
  5
138F3
  8
1PL-S1
 10
2742.6041380000001
 20
4654.6974299999974
 30
0.0
 11
2721.6041380000001
 21
4654.6974299999974
 31
0.0
  0
LINE
  5
138F4
  8
PURETO
 10
2701.1041380000001
 20
4673.6974299999983
 30
0.0
 11
2752.1041380000001
 21
4673.6974299999983
 31
0.0
  0
CIRCLE
  5
138F5
  8
HIDE-S1
 10
2693.1041380000011
 20
4654.6974299999974
 30
0.0
 40
5.0
  0
LINE
  5
138F6
  8
PURETO
  6
KAKURE-05
 10
2701.1041380000001
 20
4635.6974299999983
 30
0.0
 11
2691.1041380000001
 21
4635.6974299999983
 31
0.0
  0
LINE
  5
138F7
  8
PURETO
  6
KAKURE-05
 10
2701.1041380000001
 20
4673.6974299999983
 30
0.0
 11
2691.1041380000001
 21
4673.6974299999983
 31
0.0
  0
LINE
  5
138F8
  8
1PL-S2
 10
2732.1041380000001
 20
4644.1974299999983
 30
0.0
 11
2732.1041380000001
 21
4665.1974299999983
 31
0.0
  0
LINE
  5
138F9
  8
PURETO
 10
2752.1041380000001
 20
4673.6974299999983
 30
0.0
 11
2752.1041380000001
 21
4635.6974299999983
 31
0.0
  0
CIRCLE
  5
138FA
  8
TUNAGI_BO
 10
2732.1041380000001
 20
4654.6974299999974
 30
0.0
 40
4.5
  0
ARC
  5
138FB
  8
HIDE-S1
 10
2693.1041380000011
 20
4729.6974299999983
 30
0.0
 40
5.0
 50
180.0
 51
0.0
  0
ARC
  5
138FD
  8
MARU_BOO
 10
1862.1041379999999
 20
4721.697116999997
 30
0.0
 40
27.0
 50
17.235980000005
 51
162.76401999999501
  0
ARC
  5
138FE
  8
1PL-S1
 10
1862.1041379999999
 20
4721.697116999997
 30
0.0
 40
32.0
 50
14.478090999978621
 51
165.52190900002131
  0
ARC
  5
138FF
  8
MARU_BOO
 10
1862.1041379999999
 20
4721.697116999997
 30
0.0
 40
37.0
 50
12.48738600001005
 51
167.5126139999899
  0
LINE
  5
13900
  8
PURETO
 10
1891.1041379999999
 20
4635.6974299999983
 30
0.0
 11
1833.1041379999999
 21
4635.6974299999983
 31
0.0
  0
LINE
  5
13901
  8
PURETO
 10
1833.1041379999999
 20
4673.6974299999983
 30
0.0
 11
1891.1041379999999
 21
4673.6974299999983
 31
0.0
  0
LINE
  5
13902
  8
PURETO
 10
1833.1041379999999
 20
4275.6974299999983
 30
0.0
 11
1891.1041379999999
 21
4275.6974299999983
 31
0.0
  0
LINE
  5
13903
  8
PURETO
 10
1891.1041379999999
 20
4237.6974299999983
 30
0.0
 11
1833.1041379999999
 21
4237.6974299999983
 31
0.0
  0
LINE
  5
13904
  8
U3
 10
1836.1041379999999
 20
4029.697429999997
 30
0.0
 11
1888.1041379999999
 21
4029.697429999997
 31
0.0
  0
LINE
  5
13905
  8
U3
 10
1836.1041379999999
 20
4039.697429999997
 30
0.0
 11
1888.1041379999999
 21
4039.697429999997
 31
0.0
  0
LINE
  5
13906
  8
1PL-S1
 10
1831.1041379999999
 20
4034.697429999997
 30
0.0
 11
1893.1041379999999
 21
4034.697429999997
 31
0.0
  0
LINE
  5
13907
  8
PURETO
 10
1772.1041379999999
 20
4237.6974299999983
 30
0.0
 11
1772.1041379999999
 21
4275.6974299999983
 31
0.0
  0
LINE
  5
13908
  8
1PL-M1
 10
1831.1041379999999
 20
3926.825879999999
 30
0.0
 11
1831.1041379999999
 21
4734.6974299999983
 31
0.0
  0
ARC
  5
1390A
  8
HIDE-S1
 10
1831.1041379999999
 20
3939.6974299999979
 30
0.0
 40
5.0
 50
0.0
 51
180.0
  0
LINE
  5
1390B
  8
PURETO
 10
1823.1041379999999
 20
4237.6974299999983
 30
0.0
 11
1772.1041379999999
 21
4237.6974299999983
 31
0.0
  0
LINE
  5
1390C
  8
PURETO
  6
KAKURE-05
 10
1823.1041379999999
 20
4237.6974299999983
 30
0.0
 11
1833.1041379999999
 21
4237.6974299999983
 31
0.0
  0
CIRCLE
  5
1390D
  8
HIDE-S1
 10
1831.1041379999999
 20
4300.4734299999991
 30
0.0
 40
4.775999999999998
  0
LINE
  5
1390E
  8
1PL-S1
 10
1802.6041379999999
 20
4256.6974299999983
 30
0.0
 11
1781.6041379999999
 21
4256.6974299999983
 31
0.0
  0
LINE
  5
1390F
  8
PURETO
 10
1772.1041379999999
 20
4275.6974299999983
 30
0.0
 11
1823.1041379999999
 21
4275.6974299999983
 31
0.0
  0
LINE
  5
13910
  8
1PL-S2
 10
1792.1041379999999
 20
4246.1974299999983
 30
0.0
 11
1792.1041379999999
 21
4267.1974299999983
 31
0.0
  0
CIRCLE
  5
13911
  8
TUNAGI_BO
 10
1792.1041379999999
 20
4256.6974299999983
 30
0.0
 40
4.5
  0
LINE
  5
13912
  8
PURETO
  6
KAKURE-05
 10
1823.1041379999999
 20
4275.6974299999983
 30
0.0
 11
1833.1041379999999
 21
4275.6974299999983
 31
0.0
  0
CIRCLE
  5
13913
  8
TUNAGI_BO
 10
1792.1041379999999
 20
4654.6974299999974
 30
0.0
 40
4.5
  0
LINE
  5
13914
  8
PURETO
 10
1772.1041379999999
 20
4635.6974299999983
 30
0.0
 11
1772.1041379999999
 21
4673.6974299999983
 31
0.0
  0
LINE
  5
13915
  8
1PL-S2
 10
1792.1041379999999
 20
4644.1974299999983
 30
0.0
 11
1792.1041379999999
 21
4665.1974299999983
 31
0.0
  0
CIRCLE
  5
13916
  8
HIDE-S1
 10
1831.1041379999999
 20
4654.6974299999974
 30
0.0
 40
5.0
  0
LINE
  5
13917
  8
PURETO
 10
1823.1041379999999
 20
4635.6974299999983
 30
0.0
 11
1772.1041379999999
 21
4635.6974299999983
 31
0.0
  0
LINE
  5
13918
  8
PURETO
  6
KAKURE-05
 10
1823.1041379999999
 20
4635.6974299999983
 30
0.0
 11
1833.1041379999999
 21
4635.6974299999983
 31
0.0
  0
LINE
  5
13919
  8
1PL-S1
 10
1802.6041379999999
 20
4654.6974299999974
 30
0.0
 11
1781.6041379999999
 21
4654.6974299999974
 31
0.0
  0
LINE
  5
1391A
  8
PURETO
 10
1772.1041379999999
 20
4673.6974299999983
 30
0.0
 11
1823.1041379999999
 21
4673.6974299999983
 31
0.0
  0
LINE
  5
1391B
  8
PURETO
  6
KAKURE-05
 10
1823.1041379999999
 20
4673.6974299999983
 30
0.0
 11
1833.1041379999999
 21
4673.6974299999983
 31
0.0
  0
ARC
  5
1391C
  8
HIDE-S1
 10
1831.1041379999999
 20
4729.6974299999983
 30
0.0
 40
5.0
 50
180.0
 51
0.0
  0
LINE
  5
1391E
  8
PURETO
 10
1952.1041379999999
 20
4275.6974299999983
 30
0.0
 11
1952.1041379999999
 21
4237.6974299999983
 31
0.0
  0
LINE
  5
1391F
  8
1PL-M1
 10
1862.1041379999999
 20
3926.825879999999
 30
0.0
 11
1862.1041379999999
 21
4766.3062759999993
 31
0.0
  0
LINE
  5
13920
  8
1PL-M1
 10
1893.1041379999999
 20
3926.825879999999
 30
0.0
 11
1893.1041379999999
 21
4734.6974299999983
 31
0.0
  0
ARC
  5
13922
  8
HIDE-S1
 10
1893.1041379999999
 20
3939.6974299999979
 30
0.0
 40
5.0
 50
0.0
 51
180.0
  0
LINE
  5
13923
  8
PURETO
 10
1952.1041379999999
 20
4237.6974299999983
 30
0.0
 11
1901.1041379999999
 21
4237.6974299999983
 31
0.0
  0
LINE
  5
13924
  8
PURETO
  6
KAKURE-05
 10
1901.1041379999999
 20
4237.6974299999983
 30
0.0
 11
1891.1041379999999
 21
4237.6974299999983
 31
0.0
  0
LINE
  5
13925
  8
PURETO
 10
1901.1041379999999
 20
4275.6974299999983
 30
0.0
 11
1952.1041379999999
 21
4275.6974299999983
 31
0.0
  0
LINE
  5
13926
  8
1PL-S1
 10
1942.6041379999999
 20
4256.6974299999983
 30
0.0
 11
1921.6041379999999
 21
4256.6974299999983
 31
0.0
  0
CIRCLE
  5
13927
  8
HIDE-S1
 10
1893.1041379999999
 20
4300.4734299999991
 30
0.0
 40
4.775999999999998
  0
LINE
  5
13928
  8
PURETO
  6
KAKURE-05
 10
1901.1041379999999
 20
4275.6974299999983
 30
0.0
 11
1891.1041379999999
 21
4275.6974299999983
 31
0.0
  0
LINE
  5
13929
  8
1PL-S2
 10
1932.1041379999999
 20
4246.1974299999983
 30
0.0
 11
1932.1041379999999
 21
4267.1974299999983
 31
0.0
  0
CIRCLE
  5
1392A
  8
TUNAGI_BO
 10
1932.1041379999999
 20
4256.6974299999983
 30
0.0
 40
4.5
  0
LINE
  5
1392B
  8
PURETO
 10
1952.1041379999999
 20
4635.6974299999983
 30
0.0
 11
1901.1041379999999
 21
4635.6974299999983
 31
0.0
  0
LINE
  5
1392C
  8
1PL-S1
 10
1942.6041379999999
 20
4654.6974299999974
 30
0.0
 11
1921.6041379999999
 21
4654.6974299999974
 31
0.0
  0
LINE
  5
1392D
  8
PURETO
 10
1901.1041379999999
 20
4673.6974299999983
 30
0.0
 11
1952.1041379999999
 21
4673.6974299999983
 31
0.0
  0
CIRCLE
  5
1392E
  8
HIDE-S1
 10
1893.1041379999999
 20
4654.6974299999974
 30
0.0
 40
5.0
  0
LINE
  5
1392F
  8
PURETO
  6
KAKURE-05
 10
1901.1041379999999
 20
4635.6974299999983
 30
0.0
 11
1891.1041379999999
 21
4635.6974299999983
 31
0.0
  0
LINE
  5
13930
  8
PURETO
  6
KAKURE-05
 10
1901.1041379999999
 20
4673.6974299999983
 30
0.0
 11
1891.1041379999999
 21
4673.6974299999983
 31
0.0
  0
LINE
  5
13931
  8
1PL-S2
 10
1932.1041379999999
 20
4644.1974299999983
 30
0.0
 11
1932.1041379999999
 21
4665.1974299999983
 31
0.0
  0
LINE
  5
13932
  8
PURETO
 10
1952.1041379999999
 20
4673.6974299999983
 30
0.0
 11
1952.1041379999999
 21
4635.6974299999983
 31
0.0
  0
CIRCLE
  5
13933
  8
TUNAGI_BO
 10
1932.1041379999999
 20
4654.6974299999974
 30
0.0
 40
4.5
  0
ARC
  5
13934
  8
HIDE-S1
 10
1893.1041379999999
 20
4729.6974299999983
 30
0.0
 40
5.0
 50
180.0
 51
0.0
  0
LINE
  5
13936
  8
1PL-M1
 10
3862.1041380000011
 20
1879.677966
 30
0.0
 11
3862.1041380000011
 21
2555.5738289999999
 31
0.0
  0
LINE
  5
13937
  8
MARU_BOO
 10
3898.104138000002
 20
1918.0738289999999
 30
0.0
 11
3898.104138000002
 21
2545.5738289999999
 31
0.0
  0
LINE
  5
13938
  8
MARU_BOO
 10
3888.1041380000011
 20
1918.0738289999999
 30
0.0
 11
3888.1041380000011
 21
2545.5738289999999
 31
0.0
  0
LINE
  5
13939
  8
1PL-M1
 10
3893.1041380000011
 20
1910.5521659999999
 30
0.0
 11
3893.1041380000011
 21
2555.5738289999999
 31
0.0
  0
LINE
  5
1393A
  8
MARU_BOO
 10
3836.1041380000011
 20
1918.0738289999999
 30
0.0
 11
3836.1041380000011
 21
2545.5738289999999
 31
0.0
  0
LINE
  5
1393B
  8
MARU_BOO
 10
3826.1041380000011
 20
1918.0738289999999
 30
0.0
 11
3826.1041380000011
 21
2545.5738289999999
 31
0.0
  0
LINE
  5
1393C
  8
1PL-M1
 10
3831.104138000002
 20
1910.5521659999999
 30
0.0
 11
3831.104138000002
 21
2555.5738289999999
 31
0.0
  0
ARC
  5
1393D
  8
1PL-S1
 10
3862.1041380000011
 20
2065.1460160000001
 30
0.0
 40
32.0
 50
193.81284700000521
 51
346.18715299999468
  0
ARC
  5
1393E
  8
MARU_BOO
 10
3862.1041380000011
 20
2065.1460160000001
 30
0.0
 40
27.0
 50
197.2352849999973
 51
342.76471500000258
  0
LINE
  5
13941
  8
1PL-S1
 10
3932.1041380000011
 20
1895.5838980000001
 30
0.0
 11
3932.1041380000011
 21
1925.0838980000001
 31
0.0
  0
LINE
  5
13942
  8
1PL-S1
 10
3792.1041380000011
 20
1895.5838980000001
 30
0.0
 11
3792.1041380000011
 21
1925.0838980000001
 31
0.0
  0
ARC
  5
13944
  8
1PL-S1
 10
3862.1041380000011
 20
1926.0738289999999
 30
0.0
 40
32.0
 50
193.81284700000521
 51
346.18715299999468
  0
ARC
  5
13945
  8
MARU_BOO
 10
3862.1041380000011
 20
1926.0738289999999
 30
0.0
 40
37.0
 50
193.81284700000521
 51
346.18715299999468
  0
ARC
  5
13946
  8
MARU_BOO
 10
3862.1041380000011
 20
1926.0738289999999
 30
0.0
 40
27.0
 50
197.2352849999973
 51
342.76471500000258
  0
LINE
  5
13948
  8
U2
  6
KAKURE-05
 10
3829.5042910000011
 20
1908.5738289999999
 30
0.0
 11
3841.5432530000012
 21
1908.5738289999999
 31
0.0
  0
LINE
  5
13949
  8
U2
  6
KAKURE-05
 10
3827.463122000001
 20
1913.0738289999999
 30
0.0
 11
3838.4398190000011
 21
1913.0738289999999
 31
0.0
  0
ARC
  5
1394A
  8
MARU_BOO
 10
3831.104138000002
 20
1918.0738289999999
 30
0.0
 40
5.0
 50
180.0
 51
0.0
  0
ARC
  5
1394B
  8
HIDE-S1
 10
3831.104138000002
 20
1918.0738289999999
 30
0.0
 40
5.0
 50
0.0
 51
180.0
  0
LINE
  5
1394D
  8
U2
  6
KAKURE-05
 10
3882.6650230000009
 20
1908.5738289999999
 30
0.0
 11
3894.703985000001
 21
1908.5738289999999
 31
0.0
  0
LINE
  5
1394E
  8
U2
  6
KAKURE-05
 10
3885.768457000001
 20
1913.0738289999999
 30
0.0
 11
3896.7451540000011
 21
1913.0738289999999
 31
0.0
  0
ARC
  5
1394F
  8
HIDE-S1
 10
3893.1041380000011
 20
1918.0738289999999
 30
0.0
 40
5.0
 50
0.0
 51
180.0
  0
ARC
  5
13950
  8
MARU_BOO
 10
3893.1041380000011
 20
1918.0738289999999
 30
0.0
 40
5.0
 50
180.0
 51
0.0
  0
ARC
  5
13951
  8
MARU_BOO
 10
3862.1041380000011
 20
2065.1460160000001
 30
0.0
 40
37.0
 50
225.35575400000241
 51
314.64424599999762
  0
ARC
  5
13952
  8
MARU_BOO
 10
3862.1041380000011
 20
1976.104756
 30
0.0
 40
27.0
 50
197.2352849999973
 51
342.76471500000258
  0
ARC
  5
13953
  8
MARU_BOO
 10
3862.1041380000011
 20
1976.104756
 30
0.0
 40
37.0
 50
225.35575400000241
 51
314.64424599999762
  0
ARC
  5
13954
  8
1PL-S1
 10
3862.1041380000011
 20
1976.104756
 30
0.0
 40
32.0
 50
193.81284700000521
 51
346.18715299999468
  0
ARC
  5
13955
  8
MARU_BOO
 10
3862.1041380000011
 20
2191.5738289999999
 30
0.0
 40
37.0
 50
225.35575400000241
 51
314.64424599999762
  0
ARC
  5
13956
  8
MARU_BOO
 10
3862.1041380000011
 20
2149.0638869999998
 30
0.0
 40
37.0
 50
225.35575400000241
 51
314.64424599999762
  0
ARC
  5
13957
  8
MARU_BOO
 10
3862.1041380000011
 20
2149.0638869999998
 30
0.0
 40
27.0
 50
197.2352849999973
 51
342.76471500000258
  0
ARC
  5
13958
  8
1PL-S1
 10
3862.1041380000011
 20
2149.0638869999998
 30
0.0
 40
32.0
 50
193.81284700000521
 51
346.18715299999468
  0
ARC
  5
13959
  8
1PL-S1
 10
3862.1041380000011
 20
2191.5738289999999
 30
0.0
 40
32.0
 50
193.81284700000521
 51
346.18715299999468
  0
ARC
  5
1395A
  8
MARU_BOO
 10
3862.1041380000011
 20
2191.5738289999999
 30
0.0
 40
27.0
 50
197.2352849999973
 51
342.76471500000258
  0
ARC
  5
1395B
  8
MARU_BOO
 10
3862.1041380000011
 20
2232.939151
 30
0.0
 40
37.0
 50
225.35575400000241
 51
314.64424599999762
  0
ARC
  5
1395C
  8
MARU_BOO
 10
3862.1041380000011
 20
2232.939151
 30
0.0
 40
27.0
 50
197.2352849999973
 51
342.76471500000258
  0
ARC
  5
1395D
  8
1PL-S1
 10
3862.1041380000011
 20
2232.939151
 30
0.0
 40
32.0
 50
193.81284700000521
 51
346.18715299999468
  0
LINE
  5
1395F
  8
MARU_BOO
 10
3836.1041380000011
 20
2268.032213
 30
0.0
 11
3836.1041380000011
 21
2254.6616819999999
 31
0.0
  0
LINE
  5
13961
  8
MARU_BOO
 10
3888.1041380000011
 20
2254.6616819999999
 30
0.0
 11
3888.1041380000011
 21
2268.032213
 31
0.0
  0
ARC
  5
13962
  8
MARU_BOO
 10
3862.1041380000011
 20
2404.7199719999999
 30
0.0
 40
55.866309999999999
 50
242.26409700000571
 51
297.73590299999432
  0
ARC
  5
13963
  8
1PL-S1
 10
3862.1041380000011
 20
2404.7199719999999
 30
0.0
 40
60.866309999999999
 50
239.38192300000199
 51
300.61807699999798
  0
ARC
  5
13964
  8
MARU_BOO
 10
3862.1041380000011
 20
2404.7199719999999
 30
0.0
 40
65.866309999999999
 50
246.75030400000969
 51
293.24969599999031
  0
ARC
  5
13965
  8
HIDE-S1
 10
3831.104138000002
 20
2303.5738289999999
 30
0.0
 40
5.0
 50
180.0
 51
0.0
  0
ARC
  5
13966
  8
MARU_BOO
 10
3831.104138000002
 20
2303.5738289999999
 30
0.0
 40
5.0
 50
0.0
 51
180.0
  0
ARC
  5
13967
  8
HIDE-S1
 10
3893.1041380000011
 20
2303.5738289999999
 30
0.0
 40
5.0
 50
180.0
 51
0.0
  0
ARC
  5
13968
  8
MARU_BOO
 10
3893.1041380000011
 20
2303.5738289999999
 30
0.0
 40
5.0
 50
0.0
 51
180.0
  0
ARC
  5
13969
  8
MARU_BOO
 10
3831.104138000002
 20
2545.5738289999999
 30
0.0
 40
5.0
 50
0.0
 51
180.0
  0
LINE
  5
1396A
  8
1PL-S1
 10
3838.104138000002
 20
2545.5738289999999
 30
0.0
 11
3818.1041380000011
 21
2545.5738289999999
 31
0.0
  0
ARC
  5
1396B
  8
HIDE-S1
 10
3831.104138000002
 20
2545.5738289999999
 30
0.0
 40
5.0
 50
180.0
 51
0.0
  0
ARC
  5
1396C
  8
HIDE-S1
 10
3893.1041380000011
 20
2545.5738289999999
 30
0.0
 40
5.0
 50
180.0
 51
0.0
  0
ARC
  5
1396D
  8
MARU_BOO
 10
3893.1041380000011
 20
2545.5738289999999
 30
0.0
 40
5.0
 50
0.0
 51
180.0
  0
LINE
  5
1396E
  8
1PL-S1
 10
3886.1041380000011
 20
2545.5738289999999
 30
0.0
 11
3906.104138000002
 21
2545.5738289999999
 31
0.0
  0
LINE
  5
1396F
  8
1PL-M1
 10
3062.1041380000001
 20
1879.677966
 30
0.0
 11
3062.1041380000001
 21
2555.5738289999999
 31
0.0
  0
LINE
  5
13970
  8
MARU_BOO
 10
3098.1041380000001
 20
1918.0738289999999
 30
0.0
 11
3098.1041380000001
 21
2545.5738289999999
 31
0.0
  0
LINE
  5
13971
  8
MARU_BOO
 10
3088.1041380000001
 20
1918.0738289999999
 30
0.0
 11
3088.1041380000001
 21
2545.5738289999999
 31
0.0
  0
LINE
  5
13972
  8
1PL-M1
 10
3093.1041380000011
 20
1910.5521659999999
 30
0.0
 11
3093.1041380000011
 21
2555.5738289999999
 31
0.0
  0
LINE
  5
13973
  8
MARU_BOO
 10
3036.1041380000011
 20
1918.0738289999999
 30
0.0
 11
3036.1041380000011
 21
2545.5738289999999
 31
0.0
  0
LINE
  5
13974
  8
MARU_BOO
 10
3026.1041380000001
 20
1918.0738289999999
 30
0.0
 11
3026.1041380000001
 21
2545.5738289999999
 31
0.0
  0
LINE
  5
13975
  8
1PL-M1
 10
3031.1041380000001
 20
1910.5521659999999
 30
0.0
 11
3031.1041380000001
 21
2555.5738289999999
 31
0.0
  0
ARC
  5
13976
  8
1PL-S1
 10
3062.1041380000001
 20
2065.1460160000001
 30
0.0
 40
32.0
 50
193.81284700000521
 51
346.18715299999468
  0
ARC
  5
13977
  8
MARU_BOO
 10
3062.1041380000001
 20
2065.1460160000001
 30
0.0
 40
27.0
 50
197.2352849999973
 51
342.76471500000258
  0
LINE
  5
1397A
  8
1PL-S1
 10
3132.1041380000001
 20
1895.5838980000001
 30
0.0
 11
3132.1041380000001
 21
1925.0838980000001
 31
0.0
  0
LINE
  5
1397B
  8
1PL-S1
 10
2992.1041380000001
 20
1895.5838980000001
 30
0.0
 11
2992.1041380000001
 21
1925.0838980000001
 31
0.0
  0
ARC
  5
1397D
  8
1PL-S1
 10
3062.1041380000001
 20
1926.0738289999999
 30
0.0
 40
32.0
 50
193.81284700000521
 51
346.18715299999468
  0
ARC
  5
1397E
  8
MARU_BOO
 10
3062.1041380000001
 20
1926.0738289999999
 30
0.0
 40
37.0
 50
193.81284700000521
 51
346.18715299999468
  0
ARC
  5
1397F
  8
MARU_BOO
 10
3062.1041380000001
 20
1926.0738289999999
 30
0.0
 40
27.0
 50
197.2352849999973
 51
342.76471500000258
  0
LINE
  5
13981
  8
U2
  6
KAKURE-05
 10
3029.5042910000002
 20
1908.5738289999999
 30
0.0
 11
3041.5432529999998
 21
1908.5738289999999
 31
0.0
  0
LINE
  5
13982
  8
U2
  6
KAKURE-05
 10
3027.4631220000001
 20
1913.0738289999999
 30
0.0
 11
3038.4398190000011
 21
1913.0738289999999
 31
0.0
  0
ARC
  5
13983
  8
MARU_BOO
 10
3031.1041380000001
 20
1918.0738289999999
 30
0.0
 40
5.0
 50
180.0
 51
0.0
  0
ARC
  5
13984
  8
HIDE-S1
 10
3031.1041380000001
 20
1918.0738289999999
 30
0.0
 40
5.0
 50
0.0
 51
180.0
  0
LINE
  5
13986
  8
U2
  6
KAKURE-05
 10
3082.6650230000018
 20
1908.5738289999999
 30
0.0
 11
3094.703985000001
 21
1908.5738289999999
 31
0.0
  0
LINE
  5
13987
  8
U2
  6
KAKURE-05
 10
3085.7684570000001
 20
1913.0738289999999
 30
0.0
 11
3096.7451540000011
 21
1913.0738289999999
 31
0.0
  0
ARC
  5
13988
  8
HIDE-S1
 10
3093.1041380000011
 20
1918.0738289999999
 30
0.0
 40
5.0
 50
0.0
 51
180.0
  0
ARC
  5
13989
  8
MARU_BOO
 10
3093.1041380000011
 20
1918.0738289999999
 30
0.0
 40
5.0
 50
180.0
 51
0.0
  0
ARC
  5
1398A
  8
MARU_BOO
 10
3062.1041380000001
 20
2065.1460160000001
 30
0.0
 40
37.0
 50
225.35575400000241
 51
314.64424599999762
  0
ARC
  5
1398B
  8
MARU_BOO
 10
3062.1041380000001
 20
1976.104756
 30
0.0
 40
27.0
 50
197.2352849999973
 51
342.76471500000258
  0
ARC
  5
1398C
  8
MARU_BOO
 10
3062.1041380000001
 20
1976.104756
 30
0.0
 40
37.0
 50
225.35575400000241
 51
314.64424599999762
  0
ARC
  5
1398D
  8
1PL-S1
 10
3062.1041380000001
 20
1976.104756
 30
0.0
 40
32.0
 50
193.81284700000521
 51
346.18715299999468
  0
ARC
  5
1398E
  8
MARU_BOO
 10
3062.1041380000001
 20
2191.5738289999999
 30
0.0
 40
37.0
 50
225.35575400000241
 51
314.64424599999762
  0
ARC
  5
1398F
  8
MARU_BOO
 10
3062.1041380000001
 20
2149.0638869999998
 30
0.0
 40
37.0
 50
225.35575400000241
 51
314.64424599999762
  0
ARC
  5
13990
  8
MARU_BOO
 10
3062.1041380000001
 20
2149.0638869999998
 30
0.0
 40
27.0
 50
197.2352849999973
 51
342.76471500000258
  0
ARC
  5
13991
  8
1PL-S1
 10
3062.1041380000001
 20
2149.0638869999998
 30
0.0
 40
32.0
 50
193.81284700000521
 51
346.18715299999468
  0
ARC
  5
13992
  8
1PL-S1
 10
3062.1041380000001
 20
2191.5738289999999
 30
0.0
 40
32.0
 50
193.81284700000521
 51
346.18715299999468
  0
ARC
  5
13993
  8
MARU_BOO
 10
3062.1041380000001
 20
2191.5738289999999
 30
0.0
 40
27.0
 50
197.2352849999973
 51
342.76471500000258
  0
ARC
  5
13994
  8
MARU_BOO
 10
3062.1041380000001
 20
2232.939151
 30
0.0
 40
37.0
 50
225.35575400000241
 51
314.64424599999762
  0
ARC
  5
13995
  8
MARU_BOO
 10
3062.1041380000001
 20
2232.939151
 30
0.0
 40
27.0
 50
197.2352849999973
 51
342.76471500000258
  0
ARC
  5
13996
  8
1PL-S1
 10
3062.1041380000001
 20
2232.939151
 30
0.0
 40
32.0
 50
193.81284700000521
 51
346.18715299999468
  0
LINE
  5
13998
  8
MARU_BOO
 10
3036.1041380000011
 20
2268.032213
 30
0.0
 11
3036.1041380000011
 21
2254.6616819999999
 31
0.0
  0
LINE
  5
1399A
  8
MARU_BOO
 10
3088.1041380000001
 20
2254.6616819999999
 30
0.0
 11
3088.1041380000001
 21
2268.032213
 31
0.0
  0
ARC
  5
1399B
  8
MARU_BOO
 10
3062.1041380000001
 20
2404.7199719999999
 30
0.0
 40
55.866309999999999
 50
242.26409700000571
 51
297.73590299999432
  0
ARC
  5
1399C
  8
1PL-S1
 10
3062.1041380000001
 20
2404.7199719999999
 30
0.0
 40
60.866309999999999
 50
239.38192300000199
 51
300.61807699999798
  0
ARC
  5
1399D
  8
MARU_BOO
 10
3062.1041380000001
 20
2404.7199719999999
 30
0.0
 40
65.866309999999999
 50
246.75030400000969
 51
293.24969599999031
  0
ARC
  5
1399E
  8
HIDE-S1
 10
3031.1041380000001
 20
2303.5738289999999
 30
0.0
 40
5.0
 50
180.0
 51
0.0
  0
ARC
  5
1399F
  8
MARU_BOO
 10
3031.1041380000001
 20
2303.5738289999999
 30
0.0
 40
5.0
 50
0.0
 51
180.0
  0
ARC
  5
139A0
  8
HIDE-S1
 10
3093.1041380000011
 20
2303.5738289999999
 30
0.0
 40
5.0
 50
180.0
 51
0.0
  0
ARC
  5
139A1
  8
MARU_BOO
 10
3093.1041380000011
 20
2303.5738289999999
 30
0.0
 40
5.0
 50
0.0
 51
180.0
  0
ARC
  5
139A2
  8
MARU_BOO
 10
3031.1041380000001
 20
2545.5738289999999
 30
0.0
 40
5.0
 50
0.0
 51
180.0
  0
LINE
  5
139A3
  8
1PL-S1
 10
3038.1041380000001
 20
2545.5738289999999
 30
0.0
 11
3018.1041380000001
 21
2545.5738289999999
 31
0.0
  0
ARC
  5
139A4
  8
HIDE-S1
 10
3031.1041380000001
 20
2545.5738289999999
 30
0.0
 40
5.0
 50
180.0
 51
0.0
  0
ARC
  5
139A5
  8
HIDE-S1
 10
3093.1041380000011
 20
2545.5738289999999
 30
0.0
 40
5.0
 50
180.0
 51
0.0
  0
ARC
  5
139A6
  8
MARU_BOO
 10
3093.1041380000011
 20
2545.5738289999999
 30
0.0
 40
5.0
 50
0.0
 51
180.0
  0
LINE
  5
139A7
  8
1PL-S1
 10
3086.1041380000001
 20
2545.5738289999999
 30
0.0
 11
3106.1041380000001
 21
2545.5738289999999
 31
0.0
  0
LINE
  5
139A8
  8
1PL-M1
 10
2262.1041380000001
 20
1879.677966
 30
0.0
 11
2262.1041380000001
 21
2555.5738289999999
 31
0.0
  0
LINE
  5
139A9
  8
MARU_BOO
 10
2298.1041380000001
 20
1918.0738289999999
 30
0.0
 11
2298.1041380000001
 21
2545.5738289999999
 31
0.0
  0
LINE
  5
139AA
  8
MARU_BOO
 10
2288.1041380000001
 20
1918.0738289999999
 30
0.0
 11
2288.1041380000001
 21
2545.5738289999999
 31
0.0
  0
LINE
  5
139AB
  8
1PL-M1
 10
2293.1041380000001
 20
1910.5521659999999
 30
0.0
 11
2293.1041380000001
 21
2555.5738289999999
 31
0.0
  0
LINE
  5
139AC
  8
MARU_BOO
 10
2236.1041380000001
 20
1918.0738289999999
 30
0.0
 11
2236.1041380000001
 21
2545.5738289999999
 31
0.0
  0
LINE
  5
139AD
  8
MARU_BOO
 10
2226.1041380000001
 20
1918.0738289999999
 30
0.0
 11
2226.1041380000001
 21
2545.5738289999999
 31
0.0
  0
LINE
  5
139AE
  8
1PL-M1
 10
2231.1041380000001
 20
1910.5521659999999
 30
0.0
 11
2231.1041380000001
 21
2555.5738289999999
 31
0.0
  0
ARC
  5
139AF
  8
1PL-S1
 10
2262.1041380000001
 20
2065.1460160000001
 30
0.0
 40
32.0
 50
193.81284700000521
 51
346.18715299999468
  0
ARC
  5
139B0
  8
MARU_BOO
 10
2262.1041380000001
 20
2065.1460160000001
 30
0.0
 40
27.0
 50
197.2352849999973
 51
342.76471500000258
  0
LINE
  5
139B3
  8
1PL-S1
 10
2332.1041380000001
 20
1895.5838980000001
 30
0.0
 11
2332.1041380000001
 21
1925.0838980000001
 31
0.0
  0
LINE
  5
139B4
  8
1PL-S1
 10
2192.1041380000001
 20
1895.5838980000001
 30
0.0
 11
2192.1041380000001
 21
1925.0838980000001
 31
0.0
  0
ARC
  5
139B6
  8
1PL-S1
 10
2262.1041380000001
 20
1926.0738289999999
 30
0.0
 40
32.0
 50
193.81284700000521
 51
346.18715299999468
  0
ARC
  5
139B7
  8
MARU_BOO
 10
2262.1041380000001
 20
1926.0738289999999
 30
0.0
 40
37.0
 50
193.81284700000521
 51
346.18715299999468
  0
ARC
  5
139B8
  8
MARU_BOO
 10
2262.1041380000001
 20
1926.0738289999999
 30
0.0
 40
27.0
 50
197.2352849999973
 51
342.76471500000258
  0
LINE
  5
139BA
  8
U2
  6
KAKURE-05
 10
2229.5042910000002
 20
1908.5738289999999
 30
0.0
 11
2241.5432530000012
 21
1908.5738289999999
 31
0.0
  0
LINE
  5
139BB
  8
U2
  6
KAKURE-05
 10
2227.4631220000001
 20
1913.0738289999999
 30
0.0
 11
2238.4398190000002
 21
1913.0738289999999
 31
0.0
  0
ARC
  5
139BC
  8
MARU_BOO
 10
2231.1041380000001
 20
1918.0738289999999
 30
0.0
 40
5.0
 50
180.0
 51
0.0
  0
ARC
  5
139BD
  8
HIDE-S1
 10
2231.1041380000001
 20
1918.0738289999999
 30
0.0
 40
5.0
 50
0.0
 51
180.0
  0
LINE
  5
139BF
  8
U2
  6
KAKURE-05
 10
2282.665023
 20
1908.5738289999999
 30
0.0
 11
2294.7039850000001
 21
1908.5738289999999
 31
0.0
  0
LINE
  5
139C0
  8
U2
  6
KAKURE-05
 10
2285.7684570000001
 20
1913.0738289999999
 30
0.0
 11
2296.7451540000002
 21
1913.0738289999999
 31
0.0
  0
ARC
  5
139C1
  8
HIDE-S1
 10
2293.1041380000001
 20
1918.0738289999999
 30
0.0
 40
5.0
 50
0.0
 51
180.0
  0
ARC
  5
139C2
  8
MARU_BOO
 10
2293.1041380000001
 20
1918.0738289999999
 30
0.0
 40
5.0
 50
180.0
 51
0.0
  0
ARC
  5
139C3
  8
MARU_BOO
 10
2262.1041380000001
 20
2065.1460160000001
 30
0.0
 40
37.0
 50
225.35575400000241
 51
314.64424599999762
  0
ARC
  5
139C4
  8
MARU_BOO
 10
2262.1041380000001
 20
1976.104756
 30
0.0
 40
27.0
 50
197.2352849999973
 51
342.76471500000258
  0
ARC
  5
139C5
  8
MARU_BOO
 10
2262.1041380000001
 20
1976.104756
 30
0.0
 40
37.0
 50
225.35575400000241
 51
314.64424599999762
  0
ARC
  5
139C6
  8
1PL-S1
 10
2262.1041380000001
 20
1976.104756
 30
0.0
 40
32.0
 50
193.81284700000521
 51
346.18715299999468
  0
ARC
  5
139C7
  8
MARU_BOO
 10
2262.1041380000001
 20
2191.5738289999999
 30
0.0
 40
37.0
 50
225.35575400000241
 51
314.64424599999762
  0
ARC
  5
139C8
  8
MARU_BOO
 10
2262.1041380000001
 20
2149.0638869999998
 30
0.0
 40
37.0
 50
225.35575400000241
 51
314.64424599999762
  0
ARC
  5
139C9
  8
MARU_BOO
 10
2262.1041380000001
 20
2149.0638869999998
 30
0.0
 40
27.0
 50
197.2352849999973
 51
342.76471500000258
  0
ARC
  5
139CA
  8
1PL-S1
 10
2262.1041380000001
 20
2149.0638869999998
 30
0.0
 40
32.0
 50
193.81284700000521
 51
346.18715299999468
  0
ARC
  5
139CB
  8
1PL-S1
 10
2262.1041380000001
 20
2191.5738289999999
 30
0.0
 40
32.0
 50
193.81284700000521
 51
346.18715299999468
  0
ARC
  5
139CC
  8
MARU_BOO
 10
2262.1041380000001
 20
2191.5738289999999
 30
0.0
 40
27.0
 50
197.2352849999973
 51
342.76471500000258
  0
ARC
  5
139CD
  8
MARU_BOO
 10
2262.1041380000001
 20
2232.939151
 30
0.0
 40
37.0
 50
225.35575400000241
 51
314.64424599999762
  0
ARC
  5
139CE
  8
MARU_BOO
 10
2262.1041380000001
 20
2232.939151
 30
0.0
 40
27.0
 50
197.2352849999973
 51
342.76471500000258
  0
ARC
  5
139CF
  8
1PL-S1
 10
2262.1041380000001
 20
2232.939151
 30
0.0
 40
32.0
 50
193.81284700000521
 51
346.18715299999468
  0
LINE
  5
139D1
  8
MARU_BOO
 10
2236.1041380000001
 20
2268.032213
 30
0.0
 11
2236.1041380000001
 21
2254.6616819999999
 31
0.0
  0
LINE
  5
139D3
  8
MARU_BOO
 10
2288.1041380000001
 20
2254.6616819999999
 30
0.0
 11
2288.1041380000001
 21
2268.032213
 31
0.0
  0
ARC
  5
139D4
  8
MARU_BOO
 10
2262.1041380000001
 20
2404.7199719999999
 30
0.0
 40
55.866309999999999
 50
242.26409700000571
 51
297.73590299999432
  0
ARC
  5
139D5
  8
1PL-S1
 10
2262.1041380000001
 20
2404.7199719999999
 30
0.0
 40
60.866309999999999
 50
239.38192300000199
 51
300.61807699999798
  0
ARC
  5
139D6
  8
MARU_BOO
 10
2262.1041380000001
 20
2404.7199719999999
 30
0.0
 40
65.866309999999999
 50
246.75030400000969
 51
293.24969599999031
  0
ARC
  5
139D7
  8
HIDE-S1
 10
2231.1041380000001
 20
2303.5738289999999
 30
0.0
 40
5.0
 50
180.0
 51
0.0
  0
ARC
  5
139D8
  8
MARU_BOO
 10
2231.1041380000001
 20
2303.5738289999999
 30
0.0
 40
5.0
 50
0.0
 51
180.0
  0
ARC
  5
139D9
  8
HIDE-S1
 10
2293.1041380000001
 20
2303.5738289999999
 30
0.0
 40
5.0
 50
180.0
 51
0.0
  0
ARC
  5
139DA
  8
MARU_BOO
 10
2293.1041380000001
 20
2303.5738289999999
 30
0.0
 40
5.0
 50
0.0
 51
180.0
  0
ARC
  5
139DB
  8
MARU_BOO
 10
2231.1041380000001
 20
2545.5738289999999
 30
0.0
 40
5.0
 50
0.0
 51
180.0
  0
LINE
  5
139DC
  8
1PL-S1
 10
2238.1041380000001
 20
2545.5738289999999
 30
0.0
 11
2218.1041380000011
 21
2545.5738289999999
 31
0.0
  0
ARC
  5
139DD
  8
HIDE-S1
 10
2231.1041380000001
 20
2545.5738289999999
 30
0.0
 40
5.0
 50
180.0
 51
0.0
  0
ARC
  5
139DE
  8
HIDE-S1
 10
2293.1041380000001
 20
2545.5738289999999
 30
0.0
 40
5.0
 50
180.0
 51
0.0
  0
ARC
  5
139DF
  8
MARU_BOO
 10
2293.1041380000001
 20
2545.5738289999999
 30
0.0
 40
5.0
 50
0.0
 51
180.0
  0
LINE
  5
139E0
  8
1PL-S1
 10
2286.1041380000001
 20
2545.5738289999999
 30
0.0
 11
2306.1041380000001
 21
2545.5738289999999
 31
0.0
  0
LINE
  5
139E1
  8
1PL-M1
 10
3431.104138000002
 20
1902.8439960000001
 30
0.0
 11
3431.104138000002
 21
2295.5738289999999
 31
0.0
  0
LINE
  5
139E2
  8
MARU_BOO
 10
3426.1041380000011
 20
1918.7452510000001
 30
0.0
 11
3426.1041380000011
 21
2285.5738289999999
 31
0.0
  0
LINE
  5
139E3
  8
MARU_BOO
 10
3436.1041380000011
 20
1918.7452510000001
 30
0.0
 11
3436.1041380000011
 21
2285.5738289999999
 31
0.0
  0
LINE
  5
139E4
  8
1PL-M1
 10
3493.1041380000011
 20
1902.8439960000001
 30
0.0
 11
3493.1041380000011
 21
2295.5738289999999
 31
0.0
  0
LINE
  5
139E5
  8
MARU_BOO
 10
3488.1041380000011
 20
1963.848855
 30
0.0
 11
3488.1041380000011
 21
2285.5738289999999
 31
0.0
  0
LINE
  5
139E6
  8
MARU_BOO
 10
3498.104138000002
 20
1918.7452510000001
 30
0.0
 11
3498.104138000002
 21
2285.5738289999999
 31
0.0
  0
LINE
  5
139E7
  8
1PL-M1
 10
3462.1041380000011
 20
1874.6220149999999
 30
0.0
 11
3462.1041380000011
 21
2295.5738289999999
 31
0.0
  0
ARC
  5
139EA
  8
1PL-S1
 10
3462.1041380000011
 20
1926.7452510000001
 30
0.0
 40
32.0
 50
192.48689000000479
 51
347.51310999999498
  0
ARC
  5
139EB
  8
MARU_BOO
 10
3462.1041380000011
 20
1926.7452510000001
 30
0.0
 40
37.0
 50
192.48689000000479
 51
347.51310999999498
  0
ARC
  5
139EC
  8
MARU_BOO
 10
3462.1041380000011
 20
1926.7452510000001
 30
0.0
 40
27.0
 50
197.2352849999973
 51
342.76471500000258
  0
LINE
  5
139ED
  8
PURETO
 10
3372.1041380000011
 20
1908.5738289999999
 30
0.0
 11
3429.8737260000012
 21
1908.5738289999999
 31
0.0
  0
LINE
  5
139EE
  8
PURETO
 10
3427.7225700000022
 20
1913.0738289999999
 30
0.0
 11
3372.1041380000011
 21
1913.0738289999999
 31
0.0
  0
LINE
  5
139EF
  8
1PL-S1
 10
3392.1041380000011
 20
1898.5738289999999
 30
0.0
 11
3392.1041380000011
 21
1928.0738289999999
 31
0.0
  0
LINE
  5
139F0
  8
PURETO
 10
3372.1041380000011
 20
1913.0738289999999
 30
0.0
 11
3372.1041380000011
 21
1908.5738289999999
 31
0.0
  0
LINE
  5
139F1
  8
PURETO
  6
KAKURE-05
 10
3442.1341750000011
 20
1908.5738289999999
 30
0.0
 11
3429.8737260000012
 21
1908.5738289999999
 31
0.0
  0
LINE
  5
139F2
  8
PURETO
  6
KAKURE-05
 10
3438.8212640000011
 20
1913.0738289999999
 30
0.0
 11
3427.7225700000022
 21
1913.0738289999999
 31
0.0
  0
ARC
  5
139F3
  8
MARU_BOO
 10
3431.104138000002
 20
1918.7452510000001
 30
0.0
 40
5.0
 50
180.0
 51
0.0
  0
ARC
  5
139F4
  8
HIDE-S1
 10
3431.104138000002
 20
1918.7452510000001
 30
0.0
 40
5.0
 50
0.0
 51
180.0
  0
CIRCLE
  5
139F5
  8
HIDE-S1
 10
3431.104138000002
 20
2004.0738289999999
 30
0.0
 40
5.0
  0
ARC
  5
139F7
  8
MARU_BOO
 10
3431.104138000002
 20
2084.0738289999999
 30
0.0
 40
5.0
 50
0.0
 51
180.0
  0
ARC
  5
139F8
  8
HIDE-S1
 10
3431.104138000002
 20
2084.0738289999999
 30
0.0
 40
5.0
 50
180.0
 51
0.0
  0
LINE
  5
139F9
  8
MARU_BOO
 10
3488.1041380000011
 20
1918.7452510000001
 30
0.0
 11
3488.1041380000011
 21
1963.1808980000001
 31
0.0
  0
LINE
  5
139FA
  8
PURETO
 10
3552.104138000002
 20
1913.0738289999999
 30
0.0
 11
3496.4857060000008
 21
1913.0738289999999
 31
0.0
  0
LINE
  5
139FB
  8
PURETO
 10
3494.3345500000009
 20
1908.5738289999999
 30
0.0
 11
3552.104138000002
 21
1908.5738289999999
 31
0.0
  0
LINE
  5
139FC
  8
PURETO
  6
KAKURE-05
 10
3482.074101000002
 20
1908.5738289999999
 30
0.0
 11
3494.3345500000009
 21
1908.5738289999999
 31
0.0
  0
LINE
  5
139FD
  8
PURETO
  6
KAKURE-05
 10
3485.3870120000011
 20
1913.0738289999999
 30
0.0
 11
3496.4857060000008
 21
1913.0738289999999
 31
0.0
  0
ARC
  5
139FE
  8
MARU_BOO
 10
3493.1041380000011
 20
1918.7452510000001
 30
0.0
 40
5.0
 50
180.0
 51
0.0
  0
ARC
  5
139FF
  8
HIDE-S1
 10
3493.1041380000011
 20
1918.7452510000001
 30
0.0
 40
5.0
 50
0.0
 51
180.0
  0
LINE
  5
13A00
  8
1PL-S1
 10
3532.1041380000011
 20
1898.5738289999999
 30
0.0
 11
3532.1041380000011
 21
1928.0738289999999
 31
0.0
  0
LINE
  5
13A01
  8
PURETO
 10
3552.104138000002
 20
1908.5738289999999
 30
0.0
 11
3552.104138000002
 21
1913.0738289999999
 31
0.0
  0
CIRCLE
  5
13A02
  8
HIDE-S1
 10
3493.1041380000011
 20
2004.0738289999999
 30
0.0
 40
5.0
  0
ARC
  5
13A04
  8
HIDE-S1
 10
3493.1041380000011
 20
2084.0738289999999
 30
0.0
 40
5.0
 50
180.0
 51
0.0
  0
ARC
  5
13A05
  8
MARU_BOO
 10
3493.1041380000011
 20
2084.0738289999999
 30
0.0
 40
5.0
 50
0.0
 51
180.0
  0
LINE
  5
13A06
  8
MARU_BOO
 10
3488.1041380000011
 20
2223.5738289999999
 30
0.0
 11
3436.1041380000011
 21
2223.5738289999999
 31
0.0
  0
LINE
  5
13A07
  8
MARU_BOO
 10
3436.1041380000011
 20
2233.5738289999999
 30
0.0
 11
3488.1041380000011
 21
2233.5738289999999
 31
0.0
  0
LINE
  5
13A08
  8
1PL-S1
 10
3426.1041380000011
 20
2228.5738289999999
 30
0.0
 11
3498.104138000002
 21
2228.5738289999999
 31
0.0
  0
LINE
  5
13A09
  8
MARU_BOO
 10
3436.1041380000011
 20
2223.5738289999999
 30
0.0
 11
3436.1041380000011
 21
2233.5738289999999
 31
0.0
  0
ARC
  5
13A0A
  8
HIDE-S1
 10
3431.104138000002
 20
2285.5738289999999
 30
0.0
 40
5.0
 50
180.0
 51
0.0
  0
LINE
  5
13A0B
  8
1PL-S1
 10
3441.104138000002
 20
2285.5738289999999
 30
0.0
 11
3421.1041380000011
 21
2285.5738289999999
 31
0.0
  0
ARC
  5
13A0C
  8
MARU_BOO
 10
3431.104138000002
 20
2285.5738289999999
 30
0.0
 40
5.0
 50
0.0
 51
180.0
  0
LINE
  5
13A0D
  8
MARU_BOO
 10
3488.1041380000011
 20
2233.5738289999999
 30
0.0
 11
3488.1041380000011
 21
2223.5738289999999
 31
0.0
  0
LINE
  5
13A0E
  8
1PL-S1
 10
3483.1041380000011
 20
2285.5738289999999
 30
0.0
 11
3503.1041380000011
 21
2285.5738289999999
 31
0.0
  0
ARC
  5
13A0F
  8
MARU_BOO
 10
3493.1041380000011
 20
2285.5738289999999
 30
0.0
 40
5.0
 50
0.0
 51
180.0
  0
ARC
  5
13A10
  8
HIDE-S1
 10
3493.1041380000011
 20
2285.5738289999999
 30
0.0
 40
5.0
 50
180.0
 51
0.0
  0
LINE
  5
13A11
  8
1PL-M1
 10
2631.1041380000001
 20
1902.8439960000001
 30
0.0
 11
2631.1041380000001
 21
2295.5738289999999
 31
0.0
  0
LINE
  5
13A12
  8
MARU_BOO
 10
2626.1041380000001
 20
1918.7452510000001
 30
0.0
 11
2626.1041380000001
 21
2285.5738289999999
 31
0.0
  0
LINE
  5
13A13
  8
MARU_BOO
 10
2636.1041380000001
 20
1918.7452510000001
 30
0.0
 11
2636.1041380000001
 21
2285.5738289999999
 31
0.0
  0
LINE
  5
13A14
  8
1PL-M1
 10
2693.1041380000011
 20
1902.8439960000001
 30
0.0
 11
2693.1041380000011
 21
2295.5738289999999
 31
0.0
  0
LINE
  5
13A15
  8
MARU_BOO
 10
2688.1041380000001
 20
1963.848855
 30
0.0
 11
2688.1041380000001
 21
2285.5738289999999
 31
0.0
  0
LINE
  5
13A16
  8
MARU_BOO
 10
2698.1041380000001
 20
1918.7452510000001
 30
0.0
 11
2698.1041380000001
 21
2285.5738289999999
 31
0.0
  0
LINE
  5
13A17
  8
1PL-M1
 10
2662.1041380000001
 20
1874.6220149999999
 30
0.0
 11
2662.1041380000001
 21
2295.5738289999999
 31
0.0
  0
ARC
  5
13A1A
  8
1PL-S1
 10
2662.1041380000001
 20
1926.7452510000001
 30
0.0
 40
32.0
 50
192.48689000000479
 51
347.51310999999498
  0
ARC
  5
13A1B
  8
MARU_BOO
 10
2662.1041380000001
 20
1926.7452510000001
 30
0.0
 40
37.0
 50
192.48689000000479
 51
347.51310999999498
  0
ARC
  5
13A1C
  8
MARU_BOO
 10
2662.1041380000001
 20
1926.7452510000001
 30
0.0
 40
27.0
 50
197.2352849999973
 51
342.76471500000258
  0
LINE
  5
13A1D
  8
PURETO
 10
2572.1041380000001
 20
1908.5738289999999
 30
0.0
 11
2629.8737259999998
 21
1908.5738289999999
 31
0.0
  0
LINE
  5
13A1E
  8
PURETO
 10
2627.7225699999999
 20
1913.0738289999999
 30
0.0
 11
2572.1041380000001
 21
1913.0738289999999
 31
0.0
  0
LINE
  5
13A1F
  8
1PL-S1
 10
2592.1041380000001
 20
1898.5738289999999
 30
0.0
 11
2592.1041380000001
 21
1928.0738289999999
 31
0.0
  0
LINE
  5
13A20
  8
PURETO
 10
2572.1041380000001
 20
1913.0738289999999
 30
0.0
 11
2572.1041380000001
 21
1908.5738289999999
 31
0.0
  0
LINE
  5
13A21
  8
PURETO
  6
KAKURE-05
 10
2642.1341750000011
 20
1908.5738289999999
 30
0.0
 11
2629.8737259999998
 21
1908.5738289999999
 31
0.0
  0
LINE
  5
13A22
  8
PURETO
  6
KAKURE-05
 10
2638.8212640000011
 20
1913.0738289999999
 30
0.0
 11
2627.7225699999999
 21
1913.0738289999999
 31
0.0
  0
ARC
  5
13A23
  8
MARU_BOO
 10
2631.1041380000001
 20
1918.7452510000001
 30
0.0
 40
5.0
 50
180.0
 51
0.0
  0
ARC
  5
13A24
  8
HIDE-S1
 10
2631.1041380000001
 20
1918.7452510000001
 30
0.0
 40
5.0
 50
0.0
 51
180.0
  0
CIRCLE
  5
13A25
  8
HIDE-S1
 10
2631.1041380000001
 20
2004.0738289999999
 30
0.0
 40
5.0
  0
ARC
  5
13A27
  8
MARU_BOO
 10
2631.1041380000001
 20
2084.0738289999999
 30
0.0
 40
5.0
 50
0.0
 51
180.0
  0
ARC
  5
13A28
  8
HIDE-S1
 10
2631.1041380000001
 20
2084.0738289999999
 30
0.0
 40
5.0
 50
180.0
 51
0.0
  0
LINE
  5
13A29
  8
MARU_BOO
 10
2688.1041380000001
 20
1918.7452510000001
 30
0.0
 11
2688.1041380000001
 21
1963.1808980000001
 31
0.0
  0
LINE
  5
13A2A
  8
PURETO
 10
2752.1041380000001
 20
1913.0738289999999
 30
0.0
 11
2696.4857059999999
 21
1913.0738289999999
 31
0.0
  0
LINE
  5
13A2B
  8
PURETO
 10
2694.33455
 20
1908.5738289999999
 30
0.0
 11
2752.1041380000001
 21
1908.5738289999999
 31
0.0
  0
LINE
  5
13A2C
  8
PURETO
  6
KAKURE-05
 10
2682.0741010000002
 20
1908.5738289999999
 30
0.0
 11
2694.33455
 21
1908.5738289999999
 31
0.0
  0
LINE
  5
13A2D
  8
PURETO
  6
KAKURE-05
 10
2685.3870120000001
 20
1913.0738289999999
 30
0.0
 11
2696.4857059999999
 21
1913.0738289999999
 31
0.0
  0
ARC
  5
13A2E
  8
MARU_BOO
 10
2693.1041380000011
 20
1918.7452510000001
 30
0.0
 40
5.0
 50
180.0
 51
0.0
  0
ARC
  5
13A2F
  8
HIDE-S1
 10
2693.1041380000011
 20
1918.7452510000001
 30
0.0
 40
5.0
 50
0.0
 51
180.0
  0
LINE
  5
13A30
  8
1PL-S1
 10
2732.1041380000001
 20
1898.5738289999999
 30
0.0
 11
2732.1041380000001
 21
1928.0738289999999
 31
0.0
  0
LINE
  5
13A31
  8
PURETO
 10
2752.1041380000001
 20
1908.5738289999999
 30
0.0
 11
2752.1041380000001
 21
1913.0738289999999
 31
0.0
  0
CIRCLE
  5
13A32
  8
HIDE-S1
 10
2693.1041380000011
 20
2004.0738289999999
 30
0.0
 40
5.0
  0
ARC
  5
13A34
  8
HIDE-S1
 10
2693.1041380000011
 20
2084.0738289999999
 30
0.0
 40
5.0
 50
180.0
 51
0.0
  0
ARC
  5
13A35
  8
MARU_BOO
 10
2693.1041380000011
 20
2084.0738289999999
 30
0.0
 40
5.0
 50
0.0
 51
180.0
  0
LINE
  5
13A36
  8
MARU_BOO
 10
2688.1041380000001
 20
2223.5738289999999
 30
0.0
 11
2636.1041380000001
 21
2223.5738289999999
 31
0.0
  0
LINE
  5
13A37
  8
MARU_BOO
 10
2636.1041380000001
 20
2233.5738289999999
 30
0.0
 11
2688.1041380000001
 21
2233.5738289999999
 31
0.0
  0
LINE
  5
13A38
  8
1PL-S1
 10
2626.1041380000001
 20
2228.5738289999999
 30
0.0
 11
2698.1041380000001
 21
2228.5738289999999
 31
0.0
  0
LINE
  5
13A39
  8
MARU_BOO
 10
2636.1041380000001
 20
2223.5738289999999
 30
0.0
 11
2636.1041380000001
 21
2233.5738289999999
 31
0.0
  0
ARC
  5
13A3A
  8
HIDE-S1
 10
2631.1041380000001
 20
2285.5738289999999
 30
0.0
 40
5.0
 50
180.0
 51
0.0
  0
LINE
  5
13A3B
  8
1PL-S1
 10
2641.1041380000001
 20
2285.5738289999999
 30
0.0
 11
2621.1041380000001
 21
2285.5738289999999
 31
0.0
  0
ARC
  5
13A3C
  8
MARU_BOO
 10
2631.1041380000001
 20
2285.5738289999999
 30
0.0
 40
5.0
 50
0.0
 51
180.0
  0
LINE
  5
13A3D
  8
MARU_BOO
 10
2688.1041380000001
 20
2233.5738289999999
 30
0.0
 11
2688.1041380000001
 21
2223.5738289999999
 31
0.0
  0
LINE
  5
13A3E
  8
1PL-S1
 10
2683.1041380000001
 20
2285.5738289999999
 30
0.0
 11
2703.1041380000001
 21
2285.5738289999999
 31
0.0
  0
ARC
  5
13A3F
  8
MARU_BOO
 10
2693.1041380000011
 20
2285.5738289999999
 30
0.0
 40
5.0
 50
0.0
 51
180.0
  0
ARC
  5
13A40
  8
HIDE-S1
 10
2693.1041380000011
 20
2285.5738289999999
 30
0.0
 40
5.0
 50
180.0
 51
0.0
  0
LINE
  5
13A41
  8
1PL-M1
 10
1831.1041379999999
 20
1902.8439960000001
 30
0.0
 11
1831.1041379999999
 21
2295.5738289999999
 31
0.0
  0
LINE
  5
13A42
  8
MARU_BOO
 10
1826.104137999999
 20
1918.7452510000001
 30
0.0
 11
1826.104137999999
 21
2285.5738289999999
 31
0.0
  0
LINE
  5
13A43
  8
MARU_BOO
 10
1836.1041379999999
 20
1918.7452510000001
 30
0.0
 11
1836.1041379999999
 21
2285.5738289999999
 31
0.0
  0
LINE
  5
13A44
  8
1PL-M1
 10
1893.1041379999999
 20
1902.8439960000001
 30
0.0
 11
1893.1041379999999
 21
2295.5738289999999
 31
0.0
  0
LINE
  5
13A45
  8
MARU_BOO
 10
1888.1041379999999
 20
1963.848855
 30
0.0
 11
1888.1041379999999
 21
2285.5738289999999
 31
0.0
  0
LINE
  5
13A46
  8
MARU_BOO
 10
1898.1041379999999
 20
1918.7452510000001
 30
0.0
 11
1898.1041379999999
 21
2285.5738289999999
 31
0.0
  0
LINE
  5
13A47
  8
1PL-M1
 10
1862.1041379999999
 20
1874.6220149999999
 30
0.0
 11
1862.1041379999999
 21
2295.5738289999999
 31
0.0
  0
ARC
  5
13A4A
  8
1PL-S1
 10
1862.1041379999999
 20
1926.7452510000001
 30
0.0
 40
32.0
 50
192.48689000000479
 51
347.51310999999498
  0
ARC
  5
13A4B
  8
MARU_BOO
 10
1862.1041379999999
 20
1926.7452510000001
 30
0.0
 40
37.0
 50
192.48689000000479
 51
347.51310999999498
  0
ARC
  5
13A4C
  8
MARU_BOO
 10
1862.1041379999999
 20
1926.7452510000001
 30
0.0
 40
27.0
 50
197.23528500000111
 51
342.76471499999877
  0
LINE
  5
13A4D
  8
PURETO
 10
1772.1041379999999
 20
1908.5738289999999
 30
0.0
 11
1829.873726
 21
1908.5738289999999
 31
0.0
  0
LINE
  5
13A4E
  8
PURETO
 10
1827.7225699999999
 20
1913.0738289999999
 30
0.0
 11
1772.1041379999999
 21
1913.0738289999999
 31
0.0
  0
LINE
  5
13A4F
  8
1PL-S1
 10
1792.1041379999999
 20
1898.5738289999999
 30
0.0
 11
1792.1041379999999
 21
1928.0738289999999
 31
0.0
  0
LINE
  5
13A50
  8
PURETO
 10
1772.1041379999999
 20
1913.0738289999999
 30
0.0
 11
1772.1041379999999
 21
1908.5738289999999
 31
0.0
  0
LINE
  5
13A51
  8
PURETO
  6
KAKURE-05
 10
1842.1341749999999
 20
1908.5738289999999
 30
0.0
 11
1829.873726
 21
1908.5738289999999
 31
0.0
  0
LINE
  5
13A52
  8
PURETO
  6
KAKURE-05
 10
1838.8212639999999
 20
1913.0738289999999
 30
0.0
 11
1827.7225699999999
 21
1913.0738289999999
 31
0.0
  0
ARC
  5
13A53
  8
MARU_BOO
 10
1831.1041379999999
 20
1918.7452510000001
 30
0.0
 40
5.0
 50
180.0
 51
0.0
  0
ARC
  5
13A54
  8
HIDE-S1
 10
1831.1041379999999
 20
1918.7452510000001
 30
0.0
 40
5.0
 50
0.0
 51
180.0
  0
CIRCLE
  5
13A55
  8
HIDE-S1
 10
1831.1041379999999
 20
2004.0738289999999
 30
0.0
 40
5.0
  0
ARC
  5
13A57
  8
MARU_BOO
 10
1831.1041379999999
 20
2084.0738289999999
 30
0.0
 40
5.0
 50
0.0
 51
180.0
  0
ARC
  5
13A58
  8
HIDE-S1
 10
1831.1041379999999
 20
2084.0738289999999
 30
0.0
 40
5.0
 50
180.0
 51
0.0
  0
LINE
  5
13A59
  8
MARU_BOO
 10
1888.1041379999999
 20
1918.7452510000001
 30
0.0
 11
1888.1041379999999
 21
1963.1808980000001
 31
0.0
  0
LINE
  5
13A5A
  8
PURETO
 10
1952.1041379999999
 20
1913.0738289999999
 30
0.0
 11
1896.4857059999999
 21
1913.0738289999999
 31
0.0
  0
LINE
  5
13A5B
  8
PURETO
 10
1894.33455
 20
1908.5738289999999
 30
0.0
 11
1952.1041379999999
 21
1908.5738289999999
 31
0.0
  0
LINE
  5
13A5C
  8
PURETO
  6
KAKURE-05
 10
1882.0741009999999
 20
1908.5738289999999
 30
0.0
 11
1894.33455
 21
1908.5738289999999
 31
0.0
  0
LINE
  5
13A5D
  8
PURETO
  6
KAKURE-05
 10
1885.3870119999999
 20
1913.0738289999999
 30
0.0
 11
1896.4857059999999
 21
1913.0738289999999
 31
0.0
  0
ARC
  5
13A5E
  8
MARU_BOO
 10
1893.1041379999999
 20
1918.7452510000001
 30
0.0
 40
5.0
 50
180.0
 51
0.0
  0
ARC
  5
13A5F
  8
HIDE-S1
 10
1893.1041379999999
 20
1918.7452510000001
 30
0.0
 40
5.0
 50
0.0
 51
180.0
  0
LINE
  5
13A60
  8
1PL-S1
 10
1932.1041379999999
 20
1898.5738289999999
 30
0.0
 11
1932.1041379999999
 21
1928.0738289999999
 31
0.0
  0
LINE
  5
13A61
  8
PURETO
 10
1952.1041379999999
 20
1908.5738289999999
 30
0.0
 11
1952.1041379999999
 21
1913.0738289999999
 31
0.0
  0
CIRCLE
  5
13A62
  8
HIDE-S1
 10
1893.1041379999999
 20
2004.0738289999999
 30
0.0
 40
5.0
  0
ARC
  5
13A64
  8
HIDE-S1
 10
1893.1041379999999
 20
2084.0738289999999
 30
0.0
 40
5.0
 50
180.0
 51
0.0
  0
ARC
  5
13A65
  8
MARU_BOO
 10
1893.1041379999999
 20
2084.0738289999999
 30
0.0
 40
5.0
 50
0.0
 51
180.0
  0
LINE
  5
13A66
  8
MARU_BOO
 10
1888.1041379999999
 20
2223.5738289999999
 30
0.0
 11
1836.1041379999999
 21
2223.5738289999999
 31
0.0
  0
LINE
  5
13A67
  8
MARU_BOO
 10
1836.1041379999999
 20
2233.5738289999999
 30
0.0
 11
1888.1041379999999
 21
2233.5738289999999
 31
0.0
  0
LINE
  5
13A68
  8
1PL-S1
 10
1826.104137999999
 20
2228.5738289999999
 30
0.0
 11
1898.1041379999999
 21
2228.5738289999999
 31
0.0
  0
LINE
  5
13A69
  8
MARU_BOO
 10
1836.1041379999999
 20
2223.5738289999999
 30
0.0
 11
1836.1041379999999
 21
2233.5738289999999
 31
0.0
  0
ARC
  5
13A6A
  8
HIDE-S1
 10
1831.1041379999999
 20
2285.5738289999999
 30
0.0
 40
5.0
 50
180.0
 51
0.0
  0
LINE
  5
13A6B
  8
1PL-S1
 10
1841.1041379999999
 20
2285.5738289999999
 30
0.0
 11
1821.1041379999999
 21
2285.5738289999999
 31
0.0
  0
ARC
  5
13A6C
  8
MARU_BOO
 10
1831.1041379999999
 20
2285.5738289999999
 30
0.0
 40
5.0
 50
0.0
 51
180.0
  0
LINE
  5
13A6D
  8
MARU_BOO
 10
1888.1041379999999
 20
2233.5738289999999
 30
0.0
 11
1888.1041379999999
 21
2223.5738289999999
 31
0.0
  0
LINE
  5
13A6E
  8
1PL-S1
 10
1883.1041379999999
 20
2285.5738289999999
 30
0.0
 11
1903.1041379999999
 21
2285.5738289999999
 31
0.0
  0
ARC
  5
13A6F
  8
MARU_BOO
 10
1893.1041379999999
 20
2285.5738289999999
 30
0.0
 40
5.0
 50
0.0
 51
180.0
  0
ARC
  5
13A70
  8
HIDE-S1
 10
1893.1041379999999
 20
2285.5738289999999
 30
0.0
 40
5.0
 50
180.0
 51
0.0
  0
ARC
  5
13A71
  8
MARU_BOO
 10
4262.1041379999997
 20
4721.697116999997
 30
0.0
 40
27.0
 50
17.235980000008858
 51
162.76401999999109
  0
ARC
  5
13A72
  8
1PL-S1
 10
4262.1041379999997
 20
4721.697116999997
 30
0.0
 40
32.0
 50
14.47809099998512
 51
165.5219090000148
  0
ARC
  5
13A73
  8
MARU_BOO
 10
4262.1041379999997
 20
4721.697116999997
 30
0.0
 40
37.0
 50
12.48738600001286
 51
167.51261399998711
  0
LINE
  5
13A74
  8
PURETO
 10
4291.1041379999997
 20
4635.6974299999983
 30
0.0
 11
4233.1041379999979
 21
4635.6974299999983
 31
0.0
  0
LINE
  5
13A75
  8
PURETO
 10
4233.1041379999979
 20
4673.6974299999983
 30
0.0
 11
4291.1041379999997
 21
4673.6974299999983
 31
0.0
  0
LINE
  5
13A76
  8
PURETO
 10
4233.1041379999979
 20
4275.6974299999983
 30
0.0
 11
4291.1041379999997
 21
4275.6974299999983
 31
0.0
  0
LINE
  5
13A77
  8
PURETO
 10
4291.1041379999997
 20
4237.6974299999983
 30
0.0
 11
4233.1041379999979
 21
4237.6974299999983
 31
0.0
  0
LINE
  5
13A78
  8
U3
 10
4236.1041379999988
 20
4029.697429999997
 30
0.0
 11
4288.1041379999997
 21
4029.697429999997
 31
0.0
  0
LINE
  5
13A79
  8
U3
 10
4236.1041379999988
 20
4039.697429999997
 30
0.0
 11
4288.1041379999997
 21
4039.697429999997
 31
0.0
  0
LINE
  5
13A7A
  8
1PL-S1
 10
4231.1041379999997
 20
4034.697429999997
 30
0.0
 11
4293.1041379999988
 21
4034.697429999997
 31
0.0
  0
LINE
  5
13A7B
  8
PURETO
 10
4172.1041379999988
 20
4237.6974299999983
 30
0.0
 11
4172.1041379999988
 21
4275.6974299999983
 31
0.0
  0
LINE
  5
13A7C
  8
1PL-M1
 10
4231.1041379999997
 20
3926.825879999999
 30
0.0
 11
4231.1041379999997
 21
4734.6974299999983
 31
0.0
  0
ARC
  5
13A7E
  8
HIDE-S1
 10
4231.1041379999997
 20
3939.6974299999979
 30
0.0
 40
5.0
 50
0.0
 51
180.0
  0
LINE
  5
13A7F
  8
PURETO
 10
4223.1041379999997
 20
4237.6974299999983
 30
0.0
 11
4172.1041379999988
 21
4237.6974299999983
 31
0.0
  0
LINE
  5
13A80
  8
PURETO
  6
KAKURE-05
 10
4223.1041379999997
 20
4237.6974299999983
 30
0.0
 11
4233.1041379999979
 21
4237.6974299999983
 31
0.0
  0
CIRCLE
  5
13A81
  8
HIDE-S1
 10
4231.1041379999997
 20
4300.4734299999991
 30
0.0
 40
4.775999999999998
  0
LINE
  5
13A82
  8
1PL-S1
 10
4202.6041379999979
 20
4256.6974299999983
 30
0.0
 11
4181.6041379999988
 21
4256.6974299999983
 31
0.0
  0
LINE
  5
13A83
  8
PURETO
 10
4172.1041379999988
 20
4275.6974299999983
 30
0.0
 11
4223.1041379999997
 21
4275.6974299999983
 31
0.0
  0
LINE
  5
13A84
  8
1PL-S2
 10
4192.1041379999997
 20
4246.1974299999983
 30
0.0
 11
4192.1041379999997
 21
4267.1974299999983
 31
0.0
  0
CIRCLE
  5
13A85
  8
TUNAGI_BO
 10
4192.1041379999997
 20
4256.6974299999983
 30
0.0
 40
4.5
  0
LINE
  5
13A86
  8
PURETO
  6
KAKURE-05
 10
4223.1041379999997
 20
4275.6974299999983
 30
0.0
 11
4233.1041379999979
 21
4275.6974299999983
 31
0.0
  0
CIRCLE
  5
13A87
  8
TUNAGI_BO
 10
4192.1041379999997
 20
4654.6974299999974
 30
0.0
 40
4.5
  0
LINE
  5
13A88
  8
PURETO
 10
4172.1041379999988
 20
4635.6974299999983
 30
0.0
 11
4172.1041379999988
 21
4673.6974299999983
 31
0.0
  0
LINE
  5
13A89
  8
1PL-S2
 10
4192.1041379999997
 20
4644.1974299999983
 30
0.0
 11
4192.1041379999997
 21
4665.1974299999983
 31
0.0
  0
CIRCLE
  5
13A8A
  8
HIDE-S1
 10
4231.1041379999997
 20
4654.6974299999974
 30
0.0
 40
5.0
  0
LINE
  5
13A8B
  8
PURETO
 10
4223.1041379999997
 20
4635.6974299999983
 30
0.0
 11
4172.1041379999988
 21
4635.6974299999983
 31
0.0
  0
LINE
  5
13A8C
  8
PURETO
  6
KAKURE-05
 10
4223.1041379999997
 20
4635.6974299999983
 30
0.0
 11
4233.1041379999979
 21
4635.6974299999983
 31
0.0
  0
LINE
  5
13A8D
  8
1PL-S1
 10
4202.6041379999979
 20
4654.6974299999974
 30
0.0
 11
4181.6041379999988
 21
4654.6974299999974
 31
0.0
  0
LINE
  5
13A8E
  8
PURETO
 10
4172.1041379999988
 20
4673.6974299999983
 30
0.0
 11
4223.1041379999997
 21
4673.6974299999983
 31
0.0
  0
LINE
  5
13A8F
  8
PURETO
  6
KAKURE-05
 10
4223.1041379999997
 20
4673.6974299999983
 30
0.0
 11
4233.1041379999979
 21
4673.6974299999983
 31
0.0
  0
ARC
  5
13A90
  8
HIDE-S1
 10
4231.1041379999997
 20
4729.6974299999983
 30
0.0
 40
5.0
 50
180.0
 51
0.0
  0
LINE
  5
13A92
  8
PURETO
 10
4352.1041379999997
 20
4275.6974299999983
 30
0.0
 11
4352.1041379999997
 21
4237.6974299999983
 31
0.0
  0
LINE
  5
13A93
  8
1PL-M1
 10
4262.1041379999997
 20
3926.825879999999
 30
0.0
 11
4262.1041379999997
 21
4766.3062759999993
 31
0.0
  0
LINE
  5
13A94
  8
1PL-M1
 10
4293.1041379999988
 20
3926.825879999999
 30
0.0
 11
4293.1041379999988
 21
4734.6974299999983
 31
0.0
  0
ARC
  5
13A96
  8
HIDE-S1
 10
4293.1041379999988
 20
3939.6974299999979
 30
0.0
 40
5.0
 50
0.0
 51
180.0
  0
LINE
  5
13A97
  8
PURETO
 10
4352.1041379999997
 20
4237.6974299999983
 30
0.0
 11
4301.1041379999979
 21
4237.6974299999983
 31
0.0
  0
LINE
  5
13A98
  8
PURETO
  6
KAKURE-05
 10
4301.1041379999979
 20
4237.6974299999983
 30
0.0
 11
4291.1041379999997
 21
4237.6974299999983
 31
0.0
  0
LINE
  5
13A99
  8
PURETO
 10
4301.1041379999979
 20
4275.6974299999983
 30
0.0
 11
4352.1041379999997
 21
4275.6974299999983
 31
0.0
  0
LINE
  5
13A9A
  8
1PL-S1
 10
4342.6041379999997
 20
4256.6974299999983
 30
0.0
 11
4321.6041379999997
 21
4256.6974299999983
 31
0.0
  0
CIRCLE
  5
13A9B
  8
HIDE-S1
 10
4293.1041379999988
 20
4300.4734299999991
 30
0.0
 40
4.775999999999998
  0
LINE
  5
13A9C
  8
PURETO
  6
KAKURE-05
 10
4301.1041379999979
 20
4275.6974299999983
 30
0.0
 11
4291.1041379999997
 21
4275.6974299999983
 31
0.0
  0
LINE
  5
13A9D
  8
1PL-S2
 10
4332.1041379999997
 20
4246.1974299999983
 30
0.0
 11
4332.1041379999997
 21
4267.1974299999983
 31
0.0
  0
CIRCLE
  5
13A9E
  8
TUNAGI_BO
 10
4332.1041379999997
 20
4256.6974299999983
 30
0.0
 40
4.5
  0
LINE
  5
13A9F
  8
PURETO
 10
4352.1041379999997
 20
4635.6974299999983
 30
0.0
 11
4301.1041379999979
 21
4635.6974299999983
 31
0.0
  0
LINE
  5
13AA0
  8
1PL-S1
 10
4342.6041379999997
 20
4654.6974299999974
 30
0.0
 11
4321.6041379999997
 21
4654.6974299999974
 31
0.0
  0
LINE
  5
13AA1
  8
PURETO
 10
4301.1041379999979
 20
4673.6974299999983
 30
0.0
 11
4352.1041379999997
 21
4673.6974299999983
 31
0.0
  0
CIRCLE
  5
13AA2
  8
HIDE-S1
 10
4293.1041379999988
 20
4654.6974299999974
 30
0.0
 40
5.0
  0
LINE
  5
13AA3
  8
PURETO
  6
KAKURE-05
 10
4301.1041379999979
 20
4635.6974299999983
 30
0.0
 11
4291.1041379999997
 21
4635.6974299999983
 31
0.0
  0
LINE
  5
13AA4
  8
PURETO
  6
KAKURE-05
 10
4301.1041379999979
 20
4673.6974299999983
 30
0.0
 11
4291.1041379999997
 21
4673.6974299999983
 31
0.0
  0
LINE
  5
13AA5
  8
1PL-S2
 10
4332.1041379999997
 20
4644.1974299999983
 30
0.0
 11
4332.1041379999997
 21
4665.1974299999983
 31
0.0
  0
LINE
  5
13AA6
  8
PURETO
 10
4352.1041379999997
 20
4673.6974299999983
 30
0.0
 11
4352.1041379999997
 21
4635.6974299999983
 31
0.0
  0
CIRCLE
  5
13AA7
  8
TUNAGI_BO
 10
4332.1041379999997
 20
4654.6974299999974
 30
0.0
 40
4.5
  0
ARC
  5
13AA8
  8
HIDE-S1
 10
4293.1041379999988
 20
4729.6974299999983
 30
0.0
 40
5.0
 50
180.0
 51
0.0
  0
LINE
  5
13AAA
  8
1PL-M1
 10
4231.1041379999997
 20
1902.8439960000001
 30
0.0
 11
4231.1041379999997
 21
2295.5738289999999
 31
0.0
  0
LINE
  5
13AAB
  8
MARU_BOO
 10
4226.1041379999988
 20
1918.7452510000001
 30
0.0
 11
4226.1041379999988
 21
2285.5738289999999
 31
0.0
  0
LINE
  5
13AAC
  8
MARU_BOO
 10
4236.1041379999988
 20
1918.7452510000001
 30
0.0
 11
4236.1041379999988
 21
2285.5738289999999
 31
0.0
  0
LINE
  5
13AAD
  8
1PL-M1
 10
4293.1041379999988
 20
1902.8439960000001
 30
0.0
 11
4293.1041379999988
 21
2295.5738289999999
 31
0.0
  0
LINE
  5
13AAE
  8
MARU_BOO
 10
4288.1041379999997
 20
1963.848855
 30
0.0
 11
4288.1041379999997
 21
2285.5738289999999
 31
0.0
  0
LINE
  5
13AAF
  8
MARU_BOO
 10
4298.1041379999997
 20
1918.7452510000001
 30
0.0
 11
4298.1041379999997
 21
2285.5738289999999
 31
0.0
  0
LINE
  5
13AB0
  8
1PL-M1
 10
4262.1041379999997
 20
1874.6220149999999
 30
0.0
 11
4262.1041379999997
 21
2295.5738289999999
 31
0.0
  0
ARC
  5
13AB3
  8
1PL-S1
 10
4262.1041379999997
 20
1926.7452510000001
 30
0.0
 40
32.0
 50
192.48689000000479
 51
347.51310999999498
  0
ARC
  5
13AB4
  8
MARU_BOO
 10
4262.1041379999997
 20
1926.7452510000001
 30
0.0
 40
37.0
 50
192.48689000000479
 51
347.51310999999498
  0
ARC
  5
13AB5
  8
MARU_BOO
 10
4262.1041379999997
 20
1926.7452510000001
 30
0.0
 40
27.0
 50
197.23528500000501
 51
342.76471499999491
  0
LINE
  5
13AB6
  8
PURETO
 10
4172.1041379999988
 20
1908.5738289999999
 30
0.0
 11
4229.8737259999998
 21
1908.5738289999999
 31
0.0
  0
LINE
  5
13AB7
  8
PURETO
 10
4227.7225699999999
 20
1913.0738289999999
 30
0.0
 11
4172.1041379999988
 21
1913.0738289999999
 31
0.0
  0
LINE
  5
13AB8
  8
1PL-S1
 10
4192.1041379999997
 20
1898.5738289999999
 30
0.0
 11
4192.1041379999997
 21
1928.0738289999999
 31
0.0
  0
LINE
  5
13AB9
  8
PURETO
 10
4172.1041379999988
 20
1913.0738289999999
 30
0.0
 11
4172.1041379999988
 21
1908.5738289999999
 31
0.0
  0
LINE
  5
13ABA
  8
PURETO
  6
KAKURE-05
 10
4242.1341749999992
 20
1908.5738289999999
 30
0.0
 11
4229.8737259999998
 21
1908.5738289999999
 31
0.0
  0
LINE
  5
13ABB
  8
PURETO
  6
KAKURE-05
 10
4238.8212640000002
 20
1913.0738289999999
 30
0.0
 11
4227.7225699999999
 21
1913.0738289999999
 31
0.0
  0
ARC
  5
13ABC
  8
MARU_BOO
 10
4231.1041379999997
 20
1918.7452510000001
 30
0.0
 40
5.0
 50
180.0
 51
0.0
  0
ARC
  5
13ABD
  8
HIDE-S1
 10
4231.1041379999997
 20
1918.7452510000001
 30
0.0
 40
5.0
 50
0.0
 51
180.0
  0
CIRCLE
  5
13ABE
  8
HIDE-S1
 10
4231.1041379999997
 20
2004.0738289999999
 30
0.0
 40
5.0
  0
ARC
  5
13AC0
  8
MARU_BOO
 10
4231.1041379999997
 20
2084.0738289999999
 30
0.0
 40
5.0
 50
0.0
 51
180.0
  0
ARC
  5
13AC1
  8
HIDE-S1
 10
4231.1041379999997
 20
2084.0738289999999
 30
0.0
 40
5.0
 50
180.0
 51
0.0
  0
LINE
  5
13AC2
  8
MARU_BOO
 10
4288.1041379999997
 20
1918.7452510000001
 30
0.0
 11
4288.1041379999997
 21
1963.1808980000001
 31
0.0
  0
LINE
  5
13AC3
  8
PURETO
 10
4352.1041379999997
 20
1913.0738289999999
 30
0.0
 11
4296.4857059999977
 21
1913.0738289999999
 31
0.0
  0
LINE
  5
13AC4
  8
PURETO
 10
4294.3345499999996
 20
1908.5738289999999
 30
0.0
 11
4352.1041379999997
 21
1908.5738289999999
 31
0.0
  0
LINE
  5
13AC5
  8
PURETO
  6
KAKURE-05
 10
4282.0741009999983
 20
1908.5738289999999
 30
0.0
 11
4294.3345499999996
 21
1908.5738289999999
 31
0.0
  0
LINE
  5
13AC6
  8
PURETO
  6
KAKURE-05
 10
4285.3870120000001
 20
1913.0738289999999
 30
0.0
 11
4296.4857059999977
 21
1913.0738289999999
 31
0.0
  0
ARC
  5
13AC7
  8
MARU_BOO
 10
4293.1041379999988
 20
1918.7452510000001
 30
0.0
 40
5.0
 50
180.0
 51
0.0
  0
ARC
  5
13AC8
  8
HIDE-S1
 10
4293.1041379999988
 20
1918.7452510000001
 30
0.0
 40
5.0
 50
0.0
 51
180.0
  0
LINE
  5
13AC9
  8
1PL-S1
 10
4332.1041379999997
 20
1898.5738289999999
 30
0.0
 11
4332.1041379999997
 21
1928.0738289999999
 31
0.0
  0
LINE
  5
13ACA
  8
PURETO
 10
4352.1041379999997
 20
1908.5738289999999
 30
0.0
 11
4352.1041379999997
 21
1913.0738289999999
 31
0.0
  0
CIRCLE
  5
13ACB
  8
HIDE-S1
 10
4293.1041379999988
 20
2004.0738289999999
 30
0.0
 40
5.0
  0
ARC
  5
13ACD
  8
HIDE-S1
 10
4293.1041379999988
 20
2084.0738289999999
 30
0.0
 40
5.0
 50
180.0
 51
0.0
  0
ARC
  5
13ACE
  8
MARU_BOO
 10
4293.1041379999988
 20
2084.0738289999999
 30
0.0
 40
5.0
 50
0.0
 51
180.0
  0
LINE
  5
13ACF
  8
MARU_BOO
 10
4288.1041379999997
 20
2223.5738289999999
 30
0.0
 11
4236.1041379999988
 21
2223.5738289999999
 31
0.0
  0
LINE
  5
13AD0
  8
MARU_BOO
 10
4236.1041379999988
 20
2233.5738289999999
 30
0.0
 11
4288.1041379999997
 21
2233.5738289999999
 31
0.0
  0
LINE
  5
13AD1
  8
1PL-S1
 10
4226.1041379999988
 20
2228.5738289999999
 30
0.0
 11
4298.1041379999997
 21
2228.5738289999999
 31
0.0
  0
LINE
  5
13AD2
  8
MARU_BOO
 10
4236.1041379999988
 20
2223.5738289999999
 30
0.0
 11
4236.1041379999988
 21
2233.5738289999999
 31
0.0
  0
ARC
  5
13AD3
  8
HIDE-S1
 10
4231.1041379999997
 20
2285.5738289999999
 30
0.0
 40
5.0
 50
180.0
 51
0.0
  0
LINE
  5
13AD4
  8
1PL-S1
 10
4241.1041379999979
 20
2285.5738289999999
 30
0.0
 11
4221.1041379999997
 21
2285.5738289999999
 31
0.0
  0
ARC
  5
13AD5
  8
MARU_BOO
 10
4231.1041379999997
 20
2285.5738289999999
 30
0.0
 40
5.0
 50
0.0
 51
180.0
  0
LINE
  5
13AD6
  8
MARU_BOO
 10
4288.1041379999997
 20
2233.5738289999999
 30
0.0
 11
4288.1041379999997
 21
2223.5738289999999
 31
0.0
  0
LINE
  5
13AD7
  8
1PL-S1
 10
4283.1041379999979
 20
2285.5738289999999
 30
0.0
 11
4303.1041379999997
 21
2285.5738289999999
 31
0.0
  0
ARC
  5
13AD8
  8
MARU_BOO
 10
4293.1041379999988
 20
2285.5738289999999
 30
0.0
 40
5.0
 50
0.0
 51
180.0
  0
ARC
  5
13AD9
  8
HIDE-S1
 10
4293.1041379999988
 20
2285.5738289999999
 30
0.0
 40
5.0
 50
180.0
 51
0.0
  0
ARC
  5
13ADA
  8
HIDE-S1
 10
4293.1041190419037
 20
2084.5525530202931
 30
0.0
 40
19.873611020302651
 50
264.05660649825001
 51
270.00005465633978
  0
ARC
  5
13ADB
  8
HIDE-S1
 10
4293.104156958093
 20
2084.5525530202931
 30
0.0
 40
19.873611020302569
 50
269.99994534366022
 51
275.94339350175011
  0
ARC
  5
13ADC
  8
HIDE-S1
 10
4294.0706725715891
 20
2075.2685772649202
 30
0.0
 40
10.53946091129588
 50
275.94337677002198
 51
284.10800733686051
  0
ARC
  5
13ADD
  8
HIDE-S1
 10
4295.5220811548897
 20
2069.493696699788
 30
0.0
 40
4.584980882171533
 50
284.10799726457401
 51
301.2479737036029
  0
ARC
  5
13ADE
  8
HIDE-S1
 10
4297.6810154947052
 20
2065.9355978161748
 30
0.0
 40
0.423122505294633
 50
301.24807786425191
 51
0.0000248921077673
  0
ARC
  5
13ADF
  8
HIDE-S1
 10
4297.6810163829323
 20
2065.9355976838251
 30
0.0
 40
0.4231216170666176
 50
0.0000428139043803
 51
58.7519898417532
  0
ARC
  5
13AE0
  8
HIDE-S1
 10
4295.5220778370394
 20
2062.3774988002128
 30
0.0
 40
4.5849821758189551
 50
58.751987608760807
 51
75.891964047789543
  0
ARC
  5
13AE1
  8
HIDE-S1
 10
4294.0706795772676
 20
2056.6026182350802
 30
0.0
 40
10.53945968857901
 50
75.892030262020242
 51
84.056660828858554
  0
ARC
  5
13AE2
  8
HIDE-S1
 10
4293.1041473265841
 20
2047.318642479707
 30
0.0
 40
19.873611520295711
 50
84.056578730526908
 51
90.000026888616745
  0
ARC
  5
13AE3
  8
HIDE-S1
 10
4293.1041286734153
 20
2047.318642479707
 30
0.0
 40
19.873611520295668
 50
89.999973111383241
 51
95.943421269473077
  0
ARC
  5
13AE4
  8
HIDE-S1
 10
4292.1375964227309
 20
2056.6026182350802
 30
0.0
 40
10.539459688579051
 50
95.943339171141474
 51
104.1079697379797
  0
ARC
  5
13AE5
  8
HIDE-S1
 10
4290.6861981629581
 20
2062.3774988002128
 30
0.0
 40
4.5849821758190279
 50
104.1080359522104
 51
121.2480123912392
  0
ARC
  5
13AE6
  8
HIDE-S1
 10
4288.5272596170644
 20
2065.9355976838251
 30
0.0
 40
0.4231216170666947
 50
121.2480101582468
 51
179.9999571860956
  0
ARC
  5
13AE7
  8
HIDE-S1
 10
4288.5272605052933
 20
2065.9355978161748
 30
0.0
 40
0.4231225052945264
 50
179.9999751078922
 51
238.75192213574809
  0
ARC
  5
13AE8
  8
HIDE-S1
 10
4290.6861948451078
 20
2069.493696699788
 30
0.0
 40
4.584980882171461
 50
238.75202629639739
 51
255.89200273542599
  0
ARC
  5
13AE9
  8
HIDE-S1
 10
4292.1376034284094
 20
2075.2685772649202
 30
0.0
 40
10.53946091129583
 50
255.8919926631396
 51
264.05662322997802
  0
ARC
  5
13AEA
  8
HIDE-S1
 10
4231.1041190419037
 20
2084.5525530202931
 30
0.0
 40
19.873611020302651
 50
264.05660649825001
 51
270.00005465633978
  0
ARC
  5
13AEB
  8
HIDE-S1
 10
4231.1041569580948
 20
2084.5525530202931
 30
0.0
 40
19.873611020302569
 50
269.99994534366022
 51
275.94339350175011
  0
ARC
  5
13AEC
  8
HIDE-S1
 10
4232.0706725715891
 20
2075.2685772649202
 30
0.0
 40
10.53946091129588
 50
275.94337677002198
 51
284.10800733686051
  0
ARC
  5
13AED
  8
HIDE-S1
 10
4233.5220811548897
 20
2069.493696699788
 30
0.0
 40
4.584980882171533
 50
284.10799726457401
 51
301.2479737036029
  0
ARC
  5
13AEE
  8
HIDE-S1
 10
4235.6810154947052
 20
2065.9355978161748
 30
0.0
 40
0.423122505294633
 50
301.24807786425191
 51
0.0000248921077673
  0
ARC
  5
13AEF
  8
HIDE-S1
 10
4235.6810163829323
 20
2065.9355976838251
 30
0.0
 40
0.4231216170666176
 50
0.0000428139043803
 51
58.7519898417532
  0
ARC
  5
13AF0
  8
HIDE-S1
 10
4233.5220778370413
 20
2062.3774988002128
 30
0.0
 40
4.5849821758189551
 50
58.751987608760807
 51
75.891964047789543
  0
ARC
  5
13AF1
  8
HIDE-S1
 10
4232.0706795772676
 20
2056.6026182350802
 30
0.0
 40
10.53945968857901
 50
75.892030262020242
 51
84.056660828858554
  0
ARC
  5
13AF2
  8
HIDE-S1
 10
4231.1041473265841
 20
2047.318642479707
 30
0.0
 40
19.873611520295711
 50
84.056578730526908
 51
90.000026888616745
  0
ARC
  5
13AF3
  8
HIDE-S1
 10
4231.1041286734153
 20
2047.318642479707
 30
0.0
 40
19.873611520295668
 50
89.999973111383241
 51
95.943421269473077
  0
ARC
  5
13AF4
  8
HIDE-S1
 10
4230.1375964227309
 20
2056.6026182350802
 30
0.0
 40
10.539459688579051
 50
95.943339171141474
 51
104.1079697379797
  0
ARC
  5
13AF5
  8
HIDE-S1
 10
4228.6861981629581
 20
2062.3774988002128
 30
0.0
 40
4.5849821758190279
 50
104.1080359522104
 51
121.2480123912392
  0
ARC
  5
13AF6
  8
HIDE-S1
 10
4226.5272596170653
 20
2065.9355976838251
 30
0.0
 40
0.4231216170666947
 50
121.2480101582468
 51
179.9999571860956
  0
ARC
  5
13AF7
  8
HIDE-S1
 10
4226.5272605052951
 20
2065.9355978161748
 30
0.0
 40
0.4231225052945264
 50
179.9999751078922
 51
238.75192213574809
  0
ARC
  5
13AF8
  8
HIDE-S1
 10
4228.6861948451051
 20
2069.493696699788
 30
0.0
 40
4.584980882171461
 50
238.75202629639739
 51
255.89200273542599
  0
ARC
  5
13AF9
  8
HIDE-S1
 10
4230.1376034284094
 20
2075.2685772649202
 30
0.0
 40
10.53946091129583
 50
255.8919926631396
 51
264.05662322997802
  0
LINE
  5
13AFA
  8
PURETO
 10
4242.1341749999992
 20
1908.5738289999999
 30
0.0
 11
4282.0741009999983
 21
1908.5738289999999
 31
0.0
  0
LINE
  5
13AFB
  8
PURETO
 10
4285.3870120000001
 20
1913.0738289999999
 30
0.0
 11
4238.8212640000002
 21
1913.0738289999999
 31
0.0
  0
LINE
  5
13AFC
  8
MARU_BOO
 10
4288.1041379999997
 20
4720.6756809999979
 30
0.0
 11
4288.1041379999997
 21
4726.9534819999981
 31
0.0
  0
ARC
  5
13AFD
  8
MARU_BOO
 10
4293.1041379999988
 20
3939.6974299999979
 30
0.0
 40
5.0
 50
180.0
 51
0.0
  0
LINE
  5
13AFE
  8
MARU_BOO
 10
4288.1041379999997
 20
3939.6974299999979
 30
0.0
 11
4288.1041379999997
 21
4729.6974299999983
 31
0.0
  0
ARC
  5
13AFF
  8
MARU_BOO
 10
4293.1041379999988
 20
4729.6974299999983
 30
0.0
 40
5.0
 50
0.0
 51
180.0
  0
LINE
  5
13B00
  8
MARU_BOO
 10
4298.1041379999997
 20
4729.6974299999983
 30
0.0
 11
4298.1041379999997
 21
3939.6974299999979
 31
0.0
  0
LINE
  5
13B01
  8
MARU_BOO
 10
4236.1041379999988
 20
4726.7960909999983
 30
0.0
 11
4236.1041379999988
 21
4720.6756809999979
 31
0.0
  0
ARC
  5
13B02
  8
MARU_BOO
 10
4231.1041379999997
 20
3939.6974299999979
 30
0.0
 40
5.0
 50
180.0
 51
0.0
  0
LINE
  5
13B03
  8
MARU_BOO
 10
4236.1041379999988
 20
3939.6974299999979
 30
0.0
 11
4236.1041379999988
 21
4729.6974299999983
 31
0.0
  0
ARC
  5
13B04
  8
MARU_BOO
 10
4231.1041379999997
 20
4729.6974299999983
 30
0.0
 40
5.0
 50
0.0
 51
180.0
  0
LINE
  5
13B05
  8
MARU_BOO
 10
4226.1041379999988
 20
4729.6974299999983
 30
0.0
 11
4226.1041379999988
 21
3939.6974299999979
 31
0.0
  0
ARC
  5
13B06
  8
HIDE-S1
 10
1893.1041190419039
 20
2084.5525530202958
 30
0.0
 40
19.873611020304839
 50
264.05660649825262
 51
270.0000546563424
  0
ARC
  5
13B07
  8
HIDE-S1
 10
1893.1041569580959
 20
2084.5525530202958
 30
0.0
 40
19.87361102030485
 50
269.99994534365737
 51
275.94339350174738
  0
ARC
  5
13B08
  8
HIDE-S1
 10
1894.0706725715879
 20
2075.268577264922
 30
0.0
 40
10.53946091129774
 50
275.94337677002341
 51
284.10800733686159
  0
ARC
  5
13B09
  8
HIDE-S1
 10
1895.522081154892
 20
2069.4936966997848
 30
0.0
 40
4.5849808821698801
 50
284.10799726458509
 51
301.24797370361449
  0
ARC
  5
13B0A
  8
HIDE-S1
 10
1897.6810154947059
 20
2065.9355978161748
 30
0.0
 40
0.4231225052945148
 50
301.24807786422559
 51
0.0000248921077673
  0
ARC
  5
13B0B
  8
HIDE-S1
 10
1897.6810163829341
 20
2065.9355976838251
 30
0.0
 40
0.4231216170663902
 50
0.0000428139043803
 51
58.751989841779533
  0
ARC
  5
13B0C
  8
HIDE-S1
 10
1895.522077837041
 20
2062.3774988002151
 30
0.0
 40
4.5849821758173999
 50
58.751987608749019
 51
75.891964047778515
  0
ARC
  5
13B0D
  8
HIDE-S1
 10
1894.0706795772689
 20
2056.6026182350779
 30
0.0
 40
10.53945968858088
 50
75.89203026202027
 51
84.056660828858355
  0
ARC
  5
13B0E
  8
HIDE-S1
 10
1893.104147326585
 20
2047.3186424797041
 30
0.0
 40
19.873611520297921
 50
84.056578730528884
 51
90.000026888618692
  0
ARC
  5
13B0F
  8
HIDE-S1
 10
1893.1041286734151
 20
2047.3186424797041
 30
0.0
 40
19.873611520297931
 50
89.999973111381294
 51
95.943421269471131
  0
ARC
  5
13B10
  8
HIDE-S1
 10
1892.13759642273
 20
2056.6026182350779
 30
0.0
 40
10.53945968858088
 50
95.943339171141659
 51
104.1079697379797
  0
ARC
  5
13B11
  8
HIDE-S1
 10
1890.686198162957
 20
2062.3774988002151
 30
0.0
 40
4.5849821758173741
 50
104.1080359522214
 51
121.2480123912509
  0
ARC
  5
13B12
  8
HIDE-S1
 10
1888.527259617066
 20
2065.9355976838251
 30
0.0
 40
0.4231216170665766
 50
121.2480101582205
 51
179.9999571860956
  0
ARC
  5
13B13
  8
HIDE-S1
 10
1888.527260505294
 20
2065.9355978161748
 30
0.0
 40
0.423122505294299
 50
179.9999751078922
 51
238.75192213577441
  0
ARC
  5
13B14
  8
HIDE-S1
 10
1890.686194845108
 20
2069.4936966997848
 30
0.0
 40
4.5849808821699041
 50
238.7520262963854
 51
255.89200273541491
  0
ARC
  5
13B15
  8
HIDE-S1
 10
1892.137603428411
 20
2075.268577264922
 30
0.0
 40
10.539460911297761
 50
255.89199266313841
 51
264.05662322997648
  0
ARC
  5
13B16
  8
HIDE-S1
 10
1831.1041190419039
 20
2084.5525530202958
 30
0.0
 40
19.873611020304839
 50
264.05660649825262
 51
270.0000546563424
  0
ARC
  5
13B17
  8
HIDE-S1
 10
1831.1041569580959
 20
2084.5525530202958
 30
0.0
 40
19.87361102030485
 50
269.99994534365737
 51
275.94339350174738
  0
ARC
  5
13B18
  8
HIDE-S1
 10
1832.0706725715891
 20
2075.268577264922
 30
0.0
 40
10.53946091129774
 50
275.94337677002341
 51
284.10800733686159
  0
ARC
  5
13B19
  8
HIDE-S1
 10
1833.522081154892
 20
2069.4936966997848
 30
0.0
 40
4.5849808821698801
 50
284.10799726458509
 51
301.24797370361449
  0
ARC
  5
13B1A
  8
HIDE-S1
 10
1835.681015494705
 20
2065.9355978161748
 30
0.0
 40
0.4231225052945148
 50
301.24807786422559
 51
0.0000248921077673
  0
ARC
  5
13B1B
  8
HIDE-S1
 10
1835.6810163829341
 20
2065.9355976838251
 30
0.0
 40
0.4231216170663902
 50
0.0000428139043803
 51
58.751989841779533
  0
ARC
  5
13B1C
  8
HIDE-S1
 10
1833.5220778370419
 20
2062.3774988002151
 30
0.0
 40
4.5849821758173999
 50
58.751987608749019
 51
75.891964047778515
  0
ARC
  5
13B1D
  8
HIDE-S1
 10
1832.070679577268
 20
2056.6026182350779
 30
0.0
 40
10.53945968858088
 50
75.89203026202027
 51
84.056660828858355
  0
ARC
  5
13B1E
  8
HIDE-S1
 10
1831.104147326585
 20
2047.3186424797041
 30
0.0
 40
19.873611520297921
 50
84.056578730528884
 51
90.000026888618692
  0
ARC
  5
13B1F
  8
HIDE-S1
 10
1831.1041286734151
 20
2047.3186424797041
 30
0.0
 40
19.873611520297931
 50
89.999973111381294
 51
95.943421269471131
  0
ARC
  5
13B20
  8
HIDE-S1
 10
1830.1375964227309
 20
2056.6026182350779
 30
0.0
 40
10.53945968858088
 50
95.943339171141659
 51
104.1079697379797
  0
ARC
  5
13B21
  8
HIDE-S1
 10
1828.686198162957
 20
2062.3774988002151
 30
0.0
 40
4.5849821758173741
 50
104.1080359522214
 51
121.2480123912509
  0
ARC
  5
13B22
  8
HIDE-S1
 10
1826.527259617066
 20
2065.9355976838251
 30
0.0
 40
0.4231216170665766
 50
121.2480101582205
 51
179.9999571860956
  0
ARC
  5
13B23
  8
HIDE-S1
 10
1826.527260505294
 20
2065.9355978161748
 30
0.0
 40
0.423122505294299
 50
179.9999751078922
 51
238.75192213577441
  0
ARC
  5
13B24
  8
HIDE-S1
 10
1828.686194845108
 20
2069.4936966997848
 30
0.0
 40
4.5849808821699041
 50
238.7520262963854
 51
255.89200273541491
  0
ARC
  5
13B25
  8
HIDE-S1
 10
1830.137603428411
 20
2075.268577264922
 30
0.0
 40
10.539460911297761
 50
255.89199266313841
 51
264.05662322997648
  0
LINE
  5
13B26
  8
PURETO
 10
1842.1341749999999
 20
1908.5738289999999
 30
0.0
 11
1882.0741009999999
 21
1908.5738289999999
 31
0.0
  0
LINE
  5
13B27
  8
PURETO
 10
1885.3870119999999
 20
1913.0738289999999
 30
0.0
 11
1838.8212639999999
 21
1913.0738289999999
 31
0.0
  0
ARC
  5
13B28
  8
HIDE-S1
 10
2693.1041190419051
 20
2084.5525530202931
 30
0.0
 40
19.873611020302601
 50
264.0566064982512
 51
270.00005465634109
  0
ARC
  5
13B29
  8
HIDE-S1
 10
2693.1041569580962
 20
2084.5525530202931
 30
0.0
 40
19.873611020302569
 50
269.99994534365891
 51
275.94339350174869
  0
ARC
  5
13B2A
  8
HIDE-S1
 10
2694.0706725715891
 20
2075.2685772649238
 30
0.0
 40
10.5394609112995
 50
275.94337677001988
 51
284.10800733685801
  0
ARC
  5
13B2B
  8
HIDE-S1
 10
2695.522081154892
 20
2069.4936966997848
 30
0.0
 40
4.5849808821698801
 50
284.10799726458509
 51
301.24797370361449
  0
ARC
  5
13B2C
  8
HIDE-S1
 10
2697.6810154947061
 20
2065.9355978161748
 30
0.0
 40
0.423122505294633
 50
301.24807786425191
 51
0.0000248921077673
  0
ARC
  5
13B2D
  8
HIDE-S1
 10
2697.6810163829341
 20
2065.9355976838251
 30
0.0
 40
0.4231216170666176
 50
0.0000428139043803
 51
58.7519898417532
  0
ARC
  5
13B2E
  8
HIDE-S1
 10
2695.5220778370431
 20
2062.3774988002151
 30
0.0
 40
4.5849821758173999
 50
58.751987608749019
 51
75.891964047778515
  0
ARC
  5
13B2F
  8
HIDE-S1
 10
2694.0706795772689
 20
2056.602618235077
 30
0.0
 40
10.539459688582211
 50
75.892030262022061
 51
84.056660828860345
  0
ARC
  5
13B30
  8
HIDE-S1
 10
2693.104147326585
 20
2047.318642479707
 30
0.0
 40
19.873611520295661
 50
84.056578730528187
 51
90.000026888618052
  0
ARC
  5
13B31
  8
HIDE-S1
 10
2693.1041286734148
 20
2047.318642479707
 30
0.0
 40
19.873611520295668
 50
89.999973111381934
 51
95.943421269471784
  0
ARC
  5
13B32
  8
HIDE-S1
 10
2692.1375964227309
 20
2056.602618235077
 30
0.0
 40
10.53945968858222
 50
95.943339171139684
 51
104.1079697379779
  0
ARC
  5
13B33
  8
HIDE-S1
 10
2690.686198162959
 20
2062.3774988002151
 30
0.0
 40
4.5849821758173741
 50
104.1080359522214
 51
121.2480123912509
  0
ARC
  5
13B34
  8
HIDE-S1
 10
2688.5272596170671
 20
2065.9355976838251
 30
0.0
 40
0.4231216170666947
 50
121.2480101582468
 51
179.9999571860956
  0
ARC
  5
13B35
  8
HIDE-S1
 10
2688.5272605052951
 20
2065.9355978161748
 30
0.0
 40
0.4231225052945264
 50
179.9999751078922
 51
238.75192213574809
  0
ARC
  5
13B36
  8
HIDE-S1
 10
2690.6861948451078
 20
2069.4936966997848
 30
0.0
 40
4.5849808821699041
 50
238.7520262963854
 51
255.89200273541491
  0
ARC
  5
13B37
  8
HIDE-S1
 10
2692.1376034284108
 20
2075.2685772649238
 30
0.0
 40
10.53946091129947
 50
255.89199266314199
 51
264.05662322998
  0
ARC
  5
13B38
  8
HIDE-S1
 10
2631.1041190419051
 20
2084.5525530202931
 30
0.0
 40
19.873611020302601
 50
264.0566064982512
 51
270.00005465634109
  0
ARC
  5
13B39
  8
HIDE-S1
 10
2631.1041569580962
 20
2084.5525530202931
 30
0.0
 40
19.873611020302569
 50
269.99994534365891
 51
275.94339350174869
  0
ARC
  5
13B3A
  8
HIDE-S1
 10
2632.07067257159
 20
2075.2685772649238
 30
0.0
 40
10.5394609112995
 50
275.94337677001988
 51
284.10800733685801
  0
ARC
  5
13B3B
  8
HIDE-S1
 10
2633.522081154892
 20
2069.4936966997848
 30
0.0
 40
4.5849808821698801
 50
284.10799726458509
 51
301.24797370361449
  0
ARC
  5
13B3C
  8
HIDE-S1
 10
2635.6810154947061
 20
2065.9355978161748
 30
0.0
 40
0.423122505294633
 50
301.24807786425191
 51
0.0000248921077673
  0
ARC
  5
13B3D
  8
HIDE-S1
 10
2635.6810163829341
 20
2065.9355976838251
 30
0.0
 40
0.4231216170666176
 50
0.0000428139043803
 51
58.7519898417532
  0
ARC
  5
13B3E
  8
HIDE-S1
 10
2633.5220778370431
 20
2062.3774988002151
 30
0.0
 40
4.5849821758173999
 50
58.751987608749019
 51
75.891964047778515
  0
ARC
  5
13B3F
  8
HIDE-S1
 10
2632.0706795772689
 20
2056.602618235077
 30
0.0
 40
10.539459688582211
 50
75.892030262022061
 51
84.056660828860345
  0
ARC
  5
13B40
  8
HIDE-S1
 10
2631.104147326585
 20
2047.318642479707
 30
0.0
 40
19.873611520295661
 50
84.056578730528187
 51
90.000026888618052
  0
ARC
  5
13B41
  8
HIDE-S1
 10
2631.1041286734162
 20
2047.318642479707
 30
0.0
 40
19.873611520295668
 50
89.999973111381934
 51
95.943421269471784
  0
ARC
  5
13B42
  8
HIDE-S1
 10
2630.1375964227318
 20
2056.602618235077
 30
0.0
 40
10.53945968858222
 50
95.943339171139684
 51
104.1079697379779
  0
ARC
  5
13B43
  8
HIDE-S1
 10
2628.686198162959
 20
2062.3774988002151
 30
0.0
 40
4.5849821758173741
 50
104.1080359522214
 51
121.2480123912509
  0
ARC
  5
13B44
  8
HIDE-S1
 10
2626.5272596170671
 20
2065.9355976838251
 30
0.0
 40
0.4231216170666947
 50
121.2480101582468
 51
179.9999571860956
  0
ARC
  5
13B45
  8
HIDE-S1
 10
2626.5272605052951
 20
2065.9355978161748
 30
0.0
 40
0.4231225052945264
 50
179.9999751078922
 51
238.75192213574809
  0
ARC
  5
13B46
  8
HIDE-S1
 10
2628.6861948451092
 20
2069.4936966997848
 30
0.0
 40
4.5849808821699041
 50
238.7520262963854
 51
255.89200273541491
  0
ARC
  5
13B47
  8
HIDE-S1
 10
2630.1376034284108
 20
2075.2685772649238
 30
0.0
 40
10.53946091129947
 50
255.89199266314199
 51
264.05662322998
  0
LINE
  5
13B48
  8
PURETO
 10
2642.1341750000011
 20
1908.5738289999999
 30
0.0
 11
2682.0741010000002
 21
1908.5738289999999
 31
0.0
  0
LINE
  5
13B49
  8
PURETO
 10
2685.3870120000001
 20
1913.0738289999999
 30
0.0
 11
2638.8212640000011
 21
1913.0738289999999
 31
0.0
  0
ARC
  5
13B4A
  8
HIDE-S1
 10
3493.104119041906
 20
2084.5525530202931
 30
0.0
 40
19.873611020302601
 50
264.0566064982512
 51
270.00005465634109
  0
ARC
  5
13B4B
  8
HIDE-S1
 10
3493.1041569580971
 20
2084.5525530202931
 30
0.0
 40
19.873611020302569
 50
269.99994534365891
 51
275.94339350174869
  0
ARC
  5
13B4C
  8
HIDE-S1
 10
3494.0706725715909
 20
2075.2685772649238
 30
0.0
 40
10.5394609112995
 50
275.94337677001988
 51
284.10800733685801
  0
ARC
  5
13B4D
  8
HIDE-S1
 10
3495.5220811548938
 20
2069.4936966997848
 30
0.0
 40
4.5849808821698801
 50
284.10799726458509
 51
301.24797370361449
  0
ARC
  5
13B4E
  8
HIDE-S1
 10
3497.6810154947079
 20
2065.9355978161748
 30
0.0
 40
0.423122505294633
 50
301.24807786425191
 51
0.0000248921077673
  0
ARC
  5
13B4F
  8
HIDE-S1
 10
3497.681016382935
 20
2065.9355976838251
 30
0.0
 40
0.4231216170666176
 50
0.0000428139043803
 51
58.7519898417532
  0
ARC
  5
13B50
  8
HIDE-S1
 10
3495.5220778370431
 20
2062.3774988002151
 30
0.0
 40
4.5849821758173999
 50
58.751987608749019
 51
75.891964047778515
  0
ARC
  5
13B51
  8
HIDE-S1
 10
3494.0706795772699
 20
2056.602618235077
 30
0.0
 40
10.539459688582211
 50
75.892030262022061
 51
84.056660828860345
  0
ARC
  5
13B52
  8
HIDE-S1
 10
3493.1041473265859
 20
2047.318642479707
 30
0.0
 40
19.873611520295661
 50
84.056578730528187
 51
90.000026888618052
  0
ARC
  5
13B53
  8
HIDE-S1
 10
3493.1041286734171
 20
2047.318642479707
 30
0.0
 40
19.873611520295668
 50
89.999973111381934
 51
95.943421269471784
  0
ARC
  5
13B54
  8
HIDE-S1
 10
3492.1375964227332
 20
2056.602618235077
 30
0.0
 40
10.53945968858222
 50
95.943339171139684
 51
104.1079697379779
  0
ARC
  5
13B55
  8
HIDE-S1
 10
3490.68619816296
 20
2062.3774988002151
 30
0.0
 40
4.5849821758173741
 50
104.1080359522214
 51
121.2480123912509
  0
ARC
  5
13B56
  8
HIDE-S1
 10
3488.527259617068
 20
2065.9355976838251
 30
0.0
 40
0.4231216170666947
 50
121.2480101582468
 51
179.9999571860956
  0
ARC
  5
13B57
  8
HIDE-S1
 10
3488.5272605052951
 20
2065.9355978161748
 30
0.0
 40
0.4231225052945264
 50
179.9999751078922
 51
238.75192213574809
  0
ARC
  5
13B58
  8
HIDE-S1
 10
3490.6861948451101
 20
2069.4936966997848
 30
0.0
 40
4.5849808821699041
 50
238.7520262963854
 51
255.89200273541491
  0
ARC
  5
13B59
  8
HIDE-S1
 10
3492.1376034284121
 20
2075.2685772649238
 30
0.0
 40
10.53946091129947
 50
255.89199266314199
 51
264.05662322998
  0
ARC
  5
13B5A
  8
HIDE-S1
 10
3431.104119041906
 20
2084.5525530202931
 30
0.0
 40
19.873611020302601
 50
264.0566064982512
 51
270.00005465634109
  0
ARC
  5
13B5B
  8
HIDE-S1
 10
3431.104156958098
 20
2084.5525530202931
 30
0.0
 40
19.873611020302569
 50
269.99994534365891
 51
275.94339350174869
  0
ARC
  5
13B5C
  8
HIDE-S1
 10
3432.0706725715918
 20
2075.2685772649238
 30
0.0
 40
10.5394609112995
 50
275.94337677001988
 51
284.10800733685801
  0
ARC
  5
13B5D
  8
HIDE-S1
 10
3433.5220811548938
 20
2069.4936966997848
 30
0.0
 40
4.5849808821698801
 50
284.10799726458509
 51
301.24797370361449
  0
ARC
  5
13B5E
  8
HIDE-S1
 10
3435.681015494707
 20
2065.9355978161748
 30
0.0
 40
0.423122505294633
 50
301.24807786425191
 51
0.0000248921077673
  0
ARC
  5
13B5F
  8
HIDE-S1
 10
3435.681016382935
 20
2065.9355976838251
 30
0.0
 40
0.4231216170666176
 50
0.0000428139043803
 51
58.7519898417532
  0
ARC
  5
13B60
  8
HIDE-S1
 10
3433.5220778370431
 20
2062.3774988002151
 30
0.0
 40
4.5849821758173999
 50
58.751987608749019
 51
75.891964047778515
  0
ARC
  5
13B61
  8
HIDE-S1
 10
3432.0706795772689
 20
2056.602618235077
 30
0.0
 40
10.539459688582211
 50
75.892030262022061
 51
84.056660828860345
  0
ARC
  5
13B62
  8
HIDE-S1
 10
3431.1041473265859
 20
2047.318642479707
 30
0.0
 40
19.873611520295661
 50
84.056578730528187
 51
90.000026888618052
  0
ARC
  5
13B63
  8
HIDE-S1
 10
3431.1041286734162
 20
2047.318642479707
 30
0.0
 40
19.873611520295668
 50
89.999973111381934
 51
95.943421269471784
  0
ARC
  5
13B64
  8
HIDE-S1
 10
3430.1375964227341
 20
2056.602618235077
 30
0.0
 40
10.53945968858222
 50
95.943339171139684
 51
104.1079697379779
  0
ARC
  5
13B65
  8
HIDE-S1
 10
3428.6861981629609
 20
2062.3774988002151
 30
0.0
 40
4.5849821758173741
 50
104.1080359522214
 51
121.2480123912509
  0
ARC
  5
13B66
  8
HIDE-S1
 10
3426.5272596170671
 20
2065.9355976838251
 30
0.0
 40
0.4231216170666947
 50
121.2480101582468
 51
179.9999571860956
  0
ARC
  5
13B67
  8
HIDE-S1
 10
3426.527260505296
 20
2065.9355978161748
 30
0.0
 40
0.4231225052945264
 50
179.9999751078922
 51
238.75192213574809
  0
ARC
  5
13B68
  8
HIDE-S1
 10
3428.6861948451092
 20
2069.4936966997848
 30
0.0
 40
4.5849808821699041
 50
238.7520262963854
 51
255.89200273541491
  0
ARC
  5
13B69
  8
HIDE-S1
 10
3430.1376034284121
 20
2075.2685772649238
 30
0.0
 40
10.53946091129947
 50
255.89199266314199
 51
264.05662322998
  0
LINE
  5
13B6A
  8
PURETO
 10
3442.1341750000011
 20
1908.5738289999999
 30
0.0
 11
3482.074101000002
 21
1908.5738289999999
 31
0.0
  0
LINE
  5
13B6B
  8
PURETO
 10
3485.3870120000011
 20
1913.0738289999999
 30
0.0
 11
3438.8212640000011
 21
1913.0738289999999
 31
0.0
  0
ARC
  5
13B6C
  8
HIDE-S1
  6
KAKURE-05
 10
2293.104128037417
 20
2271.106342383333
 30
0.0
 40
19.294216383335719
 50
270.00002958472021
 51
276.12028457306161
  0
ARC
  5
13B6D
  8
HIDE-S1
  6
KAKURE-05
 10
2294.0664983864949
 20
2262.131212778992
 30
0.0
 40
10.267638510000531
 50
276.1203301121061
 51
284.51361595665799
  0
ARC
  5
13B6E
  8
HIDE-S1
  6
KAKURE-05
 10
2295.512498864804
 20
2256.5454153580231
 30
0.0
 40
4.4977121489994163
 50
284.51363142202752
 51
302.00408324566558
  0
ARC
  5
13B6F
  8
HIDE-S1
  6
KAKURE-05
 10
2297.661723094835
 20
2253.10648079265
 30
0.0
 40
0.4424149051650723
 50
302.00423389829518
 51
0.0000268532263365
  0
ARC
  5
13B70
  8
HIDE-S1
  6
KAKURE-05
 10
2297.661723094835
 20
2253.10648120735
 30
0.0
 40
0.4424149051651999
 50
359.99997314677358
 51
57.995766101704817
  0
ARC
  5
13B71
  8
HIDE-S1
  6
KAKURE-05
 10
2295.512498864804
 20
2249.667546641977
 30
0.0
 40
4.497712148999363
 50
57.995916754334409
 51
75.48636857797257
  0
ARC
  5
13B72
  8
HIDE-S1
  6
KAKURE-05
 10
2294.0664983864922
 20
2244.0817492210081
 30
0.0
 40
10.26763851000125
 50
75.48638404332722
 51
83.879669887879075
  0
ARC
  5
13B73
  8
HIDE-S1
  6
KAKURE-05
 10
2293.104128037422
 20
2235.1066196166671
 30
0.0
 40
19.294216383335311
 50
83.879715426950455
 51
89.999970415291983
  0
ARC
  5
13B74
  8
HIDE-S1
  6
KAKURE-05
 10
2293.1041479625801
 20
2235.1066196166671
 30
0.0
 40
19.294216383335272
 50
90.000029584708017
 51
96.120284573049489
  0
ARC
  5
13B75
  8
HIDE-S1
  6
KAKURE-05
 10
2292.141777613509
 20
2244.0817492210081
 30
0.0
 40
10.267638510001269
 50
96.120330112120911
 51
104.51361595667279
  0
ARC
  5
13B76
  8
HIDE-S1
  6
KAKURE-05
 10
2290.6957771351958
 20
2249.667546641977
 30
0.0
 40
4.4977121489994163
 50
104.5136314220274
 51
122.0040832456656
  0
ARC
  5
13B77
  8
HIDE-S1
  6
KAKURE-05
 10
2288.5465529051648
 20
2253.10648120735
 30
0.0
 40
0.4424149051650723
 50
122.0042338982952
 51
180.0000268532263
  0
ARC
  5
13B78
  8
HIDE-S1
  6
KAKURE-05
 10
2288.5465529051648
 20
2253.10648079265
 30
0.0
 40
0.4424149051651999
 50
179.99997314677361
 51
237.99576610170479
  0
ARC
  5
13B79
  8
HIDE-S1
  6
KAKURE-05
 10
2290.6957771351958
 20
2256.5454153580231
 30
0.0
 40
4.497712148999363
 50
237.99591675433439
 51
255.4863685779726
  0
ARC
  5
13B7A
  8
HIDE-S1
  6
KAKURE-05
 10
2292.1417776135058
 20
2262.131212778992
 30
0.0
 40
10.267638510000561
 50
255.4863840433419
 51
263.87966988789401
  0
ARC
  5
13B7B
  8
HIDE-S1
  6
KAKURE-05
 10
2293.1041479625828
 20
2271.106342383333
 30
0.0
 40
19.294216383335751
 50
263.87971542693839
 51
269.99997041527968
  0
ARC
  5
13B7C
  8
HIDE-S1
  6
KAKURE-05
 10
2231.104128037417
 20
2271.106342383333
 30
0.0
 40
19.294216383335719
 50
270.00002958472021
 51
276.12028457306161
  0
ARC
  5
13B7D
  8
HIDE-S1
  6
KAKURE-05
 10
2232.066498386494
 20
2262.131212778992
 30
0.0
 40
10.267638510000531
 50
276.1203301121061
 51
284.51361595665799
  0
ARC
  5
13B7E
  8
HIDE-S1
  6
KAKURE-05
 10
2233.512498864804
 20
2256.5454153580231
 30
0.0
 40
4.4977121489994163
 50
284.51363142202752
 51
302.00408324566558
  0
ARC
  5
13B7F
  8
HIDE-S1
  6
KAKURE-05
 10
2235.661723094835
 20
2253.10648079265
 30
0.0
 40
0.4424149051650723
 50
302.00423389829518
 51
0.0000268532263365
  0
ARC
  5
13B80
  8
HIDE-S1
  6
KAKURE-05
 10
2235.661723094835
 20
2253.10648120735
 30
0.0
 40
0.4424149051651999
 50
359.99997314677358
 51
57.995766101704817
  0
ARC
  5
13B81
  8
HIDE-S1
  6
KAKURE-05
 10
2233.512498864804
 20
2249.667546641977
 30
0.0
 40
4.497712148999363
 50
57.995916754334409
 51
75.48636857797257
  0
ARC
  5
13B82
  8
HIDE-S1
  6
KAKURE-05
 10
2232.0664983864922
 20
2244.0817492210081
 30
0.0
 40
10.26763851000125
 50
75.48638404332722
 51
83.879669887879075
  0
ARC
  5
13B83
  8
HIDE-S1
  6
KAKURE-05
 10
2231.1041280374211
 20
2235.1066196166671
 30
0.0
 40
19.294216383335311
 50
83.879715426950455
 51
89.999970415291983
  0
ARC
  5
13B84
  8
HIDE-S1
  6
KAKURE-05
 10
2231.1041479625801
 20
2235.1066196166671
 30
0.0
 40
19.294216383335272
 50
90.000029584708017
 51
96.120284573049489
  0
ARC
  5
13B85
  8
HIDE-S1
  6
KAKURE-05
 10
2230.141777613509
 20
2244.0817492210081
 30
0.0
 40
10.267638510001269
 50
96.120330112120911
 51
104.51361595667279
  0
ARC
  5
13B86
  8
HIDE-S1
  6
KAKURE-05
 10
2228.6957771351972
 20
2249.667546641977
 30
0.0
 40
4.4977121489994163
 50
104.5136314220274
 51
122.0040832456656
  0
ARC
  5
13B87
  8
HIDE-S1
  6
KAKURE-05
 10
2226.5465529051671
 20
2253.10648120735
 30
0.0
 40
0.4424149051650723
 50
122.0042338982952
 51
180.0000268532263
  0
ARC
  5
13B88
  8
HIDE-S1
  6
KAKURE-05
 10
2226.5465529051671
 20
2253.10648079265
 30
0.0
 40
0.4424149051651999
 50
179.99997314677361
 51
237.99576610170479
  0
ARC
  5
13B89
  8
HIDE-S1
  6
KAKURE-05
 10
2228.6957771351972
 20
2256.5454153580231
 30
0.0
 40
4.497712148999363
 50
237.99591675433439
 51
255.4863685779726
  0
ARC
  5
13B8A
  8
HIDE-S1
  6
KAKURE-05
 10
2230.1417776135049
 20
2262.131212778992
 30
0.0
 40
10.267638510000561
 50
255.4863840433419
 51
263.87966988789401
  0
ARC
  5
13B8B
  8
HIDE-S1
  6
KAKURE-05
 10
2231.1041479625842
 20
2271.106342383333
 30
0.0
 40
19.294216383335751
 50
263.87971542693839
 51
269.99997041527968
  0
LINE
  5
13B8C
  8
U2
 10
2294.7039850000001
 20
1908.5738289999999
 30
0.0
 11
2352.1041380000001
 21
1908.5738289999999
 31
0.0
  0
LINE
  5
13B8D
  8
U2
 10
2352.1041380000001
 20
1908.5738289999999
 30
0.0
 11
2352.1041380000001
 21
1913.0738289999999
 31
0.0
  0
LINE
  5
13B8E
  8
U2
 10
2352.1041380000001
 20
1913.0738289999999
 30
0.0
 11
2296.7451540000002
 21
1913.0738289999999
 31
0.0
  0
LINE
  5
13B8F
  8
U2
  6
CONTINUOUS
 10
2241.5432530000012
 20
1908.5738289999999
 30
0.0
 11
2282.665023
 21
1908.5738289999999
 31
0.0
  0
LINE
  5
13B90
  8
U2
  6
CONTINUOUS
 10
2285.7684570000001
 20
1913.0738289999999
 30
0.0
 11
2238.4398190000002
 21
1913.0738289999999
 31
0.0
  0
LINE
  5
13B91
  8
U2
 10
2227.4631220000001
 20
1913.0738289999999
 30
0.0
 11
2172.1041380000001
 21
1913.0738289999999
 31
0.0
  0
LINE
  5
13B92
  8
U2
 10
2172.1041380000001
 20
1913.0738289999999
 30
0.0
 11
2172.1041380000001
 21
1908.5738289999999
 31
0.0
  0
LINE
  5
13B93
  8
U2
 10
2172.1041380000001
 20
1908.5738289999999
 30
0.0
 11
2229.5042910000002
 21
1908.5738289999999
 31
0.0
  0
ARC
  5
13B94
  8
HIDE-S1
  6
KAKURE-05
 10
3093.104128037417
 20
2271.106342383333
 30
0.0
 40
19.294216383335719
 50
270.00002958472021
 51
276.12028457306161
  0
ARC
  5
13B95
  8
HIDE-S1
  6
KAKURE-05
 10
3094.066498386494
 20
2262.131212778992
 30
0.0
 40
10.267638510000531
 50
276.1203301121061
 51
284.51361595665799
  0
ARC
  5
13B96
  8
HIDE-S1
  6
KAKURE-05
 10
3095.512498864804
 20
2256.5454153580231
 30
0.0
 40
4.4977121489994163
 50
284.51363142202752
 51
302.00408324566558
  0
ARC
  5
13B97
  8
HIDE-S1
  6
KAKURE-05
 10
3097.661723094835
 20
2253.10648079265
 30
0.0
 40
0.4424149051650723
 50
302.00423389829518
 51
0.0000268532263365
  0
ARC
  5
13B98
  8
HIDE-S1
  6
KAKURE-05
 10
3097.661723094835
 20
2253.10648120735
 30
0.0
 40
0.4424149051651999
 50
359.99997314677358
 51
57.995766101704817
  0
ARC
  5
13B99
  8
HIDE-S1
  6
KAKURE-05
 10
3095.512498864804
 20
2249.667546641977
 30
0.0
 40
4.497712148999363
 50
57.995916754334409
 51
75.48636857797257
  0
ARC
  5
13B9A
  8
HIDE-S1
  6
KAKURE-05
 10
3094.0664983864922
 20
2244.0817492210081
 30
0.0
 40
10.26763851000125
 50
75.48638404332722
 51
83.879669887879075
  0
ARC
  5
13B9B
  8
HIDE-S1
  6
KAKURE-05
 10
3093.1041280374211
 20
2235.1066196166671
 30
0.0
 40
19.294216383335311
 50
83.879715426950455
 51
89.999970415291983
  0
ARC
  5
13B9C
  8
HIDE-S1
  6
KAKURE-05
 10
3093.1041479625801
 20
2235.1066196166671
 30
0.0
 40
19.294216383335272
 50
90.000029584708017
 51
96.120284573049489
  0
ARC
  5
13B9D
  8
HIDE-S1
  6
KAKURE-05
 10
3092.141777613509
 20
2244.0817492210081
 30
0.0
 40
10.267638510001269
 50
96.120330112120911
 51
104.51361595667279
  0
ARC
  5
13B9E
  8
HIDE-S1
  6
KAKURE-05
 10
3090.6957771351958
 20
2249.667546641977
 30
0.0
 40
4.4977121489994163
 50
104.5136314220274
 51
122.0040832456656
  0
ARC
  5
13B9F
  8
HIDE-S1
  6
KAKURE-05
 10
3088.5465529051671
 20
2253.10648120735
 30
0.0
 40
0.4424149051650723
 50
122.0042338982952
 51
180.0000268532263
  0
ARC
  5
13BA0
  8
HIDE-S1
  6
KAKURE-05
 10
3088.5465529051671
 20
2253.10648079265
 30
0.0
 40
0.4424149051651999
 50
179.99997314677361
 51
237.99576610170479
  0
ARC
  5
13BA1
  8
HIDE-S1
  6
KAKURE-05
 10
3090.6957771351958
 20
2256.5454153580231
 30
0.0
 40
4.497712148999363
 50
237.99591675433439
 51
255.4863685779726
  0
ARC
  5
13BA2
  8
HIDE-S1
  6
KAKURE-05
 10
3092.1417776135058
 20
2262.131212778992
 30
0.0
 40
10.267638510000561
 50
255.4863840433419
 51
263.87966988789401
  0
ARC
  5
13BA3
  8
HIDE-S1
  6
KAKURE-05
 10
3093.1041479625851
 20
2271.106342383333
 30
0.0
 40
19.294216383335751
 50
263.87971542693839
 51
269.99997041527968
  0
ARC
  5
13BA4
  8
HIDE-S1
  6
KAKURE-05
 10
3031.104128037417
 20
2271.106342383333
 30
0.0
 40
19.294216383335719
 50
270.00002958472021
 51
276.12028457306161
  0
ARC
  5
13BA5
  8
HIDE-S1
  6
KAKURE-05
 10
3032.0664983864949
 20
2262.131212778992
 30
0.0
 40
10.267638510000531
 50
276.1203301121061
 51
284.51361595665799
  0
ARC
  5
13BA6
  8
HIDE-S1
  6
KAKURE-05
 10
3033.512498864804
 20
2256.5454153580231
 30
0.0
 40
4.4977121489994163
 50
284.51363142202752
 51
302.00408324566558
  0
ARC
  5
13BA7
  8
HIDE-S1
  6
KAKURE-05
 10
3035.661723094835
 20
2253.10648079265
 30
0.0
 40
0.4424149051650723
 50
302.00423389829518
 51
0.0000268532263365
  0
ARC
  5
13BA8
  8
HIDE-S1
  6
KAKURE-05
 10
3035.661723094835
 20
2253.10648120735
 30
0.0
 40
0.4424149051651999
 50
359.99997314677358
 51
57.995766101704817
  0
ARC
  5
13BA9
  8
HIDE-S1
  6
KAKURE-05
 10
3033.512498864804
 20
2249.667546641977
 30
0.0
 40
4.497712148999363
 50
57.995916754334409
 51
75.48636857797257
  0
ARC
  5
13BAA
  8
HIDE-S1
  6
KAKURE-05
 10
3032.0664983864922
 20
2244.0817492210081
 30
0.0
 40
10.26763851000125
 50
75.48638404332722
 51
83.879669887879075
  0
ARC
  5
13BAB
  8
HIDE-S1
  6
KAKURE-05
 10
3031.104128037422
 20
2235.1066196166671
 30
0.0
 40
19.294216383335311
 50
83.879715426950455
 51
89.999970415291983
  0
ARC
  5
13BAC
  8
HIDE-S1
  6
KAKURE-05
 10
3031.1041479625801
 20
2235.1066196166671
 30
0.0
 40
19.294216383335272
 50
90.000029584708017
 51
96.120284573049489
  0
ARC
  5
13BAD
  8
HIDE-S1
  6
KAKURE-05
 10
3030.141777613509
 20
2244.0817492210081
 30
0.0
 40
10.267638510001269
 50
96.120330112120911
 51
104.51361595667279
  0
ARC
  5
13BAE
  8
HIDE-S1
  6
KAKURE-05
 10
3028.6957771351958
 20
2249.667546641977
 30
0.0
 40
4.4977121489994163
 50
104.5136314220274
 51
122.0040832456656
  0
ARC
  5
13BAF
  8
HIDE-S1
  6
KAKURE-05
 10
3026.5465529051648
 20
2253.10648120735
 30
0.0
 40
0.4424149051650723
 50
122.0042338982952
 51
180.0000268532263
  0
ARC
  5
13BB0
  8
HIDE-S1
  6
KAKURE-05
 10
3026.5465529051648
 20
2253.10648079265
 30
0.0
 40
0.4424149051651999
 50
179.99997314677361
 51
237.99576610170479
  0
ARC
  5
13BB1
  8
HIDE-S1
  6
KAKURE-05
 10
3028.6957771351958
 20
2256.5454153580231
 30
0.0
 40
4.497712148999363
 50
237.99591675433439
 51
255.4863685779726
  0
ARC
  5
13BB2
  8
HIDE-S1
  6
KAKURE-05
 10
3030.1417776135058
 20
2262.131212778992
 30
0.0
 40
10.267638510000561
 50
255.4863840433419
 51
263.87966988789401
  0
ARC
  5
13BB3
  8
HIDE-S1
  6
KAKURE-05
 10
3031.1041479625842
 20
2271.106342383333
 30
0.0
 40
19.294216383335751
 50
263.87971542693839
 51
269.99997041527968
  0
LINE
  5
13BB4
  8
U2
 10
3094.703985000001
 20
1908.5738289999999
 30
0.0
 11
3152.1041380000001
 21
1908.5738289999999
 31
0.0
  0
LINE
  5
13BB5
  8
U2
 10
3152.1041380000001
 20
1908.5738289999999
 30
0.0
 11
3152.1041380000001
 21
1913.0738289999999
 31
0.0
  0
LINE
  5
13BB6
  8
U2
 10
3152.1041380000001
 20
1913.0738289999999
 30
0.0
 11
3096.7451540000011
 21
1913.0738289999999
 31
0.0
  0
LINE
  5
13BB7
  8
U2
  6
CONTINUOUS
 10
3041.5432529999998
 20
1908.5738289999999
 30
0.0
 11
3082.6650230000018
 21
1908.5738289999999
 31
0.0
  0
LINE
  5
13BB8
  8
U2
  6
CONTINUOUS
 10
3085.7684570000001
 20
1913.0738289999999
 30
0.0
 11
3038.4398190000011
 21
1913.0738289999999
 31
0.0
  0
LINE
  5
13BB9
  8
U2
 10
3027.4631220000001
 20
1913.0738289999999
 30
0.0
 11
2972.1041380000001
 21
1913.0738289999999
 31
0.0
  0
LINE
  5
13BBA
  8
U2
 10
2972.1041380000001
 20
1913.0738289999999
 30
0.0
 11
2972.1041380000001
 21
1908.5738289999999
 31
0.0
  0
LINE
  5
13BBB
  8
U2
 10
2972.1041380000001
 20
1908.5738289999999
 30
0.0
 11
3029.5042910000002
 21
1908.5738289999999
 31
0.0
  0
ARC
  5
13BBC
  8
HIDE-S1
  6
KAKURE-05
 10
3893.1041280374179
 20
2271.106342383333
 30
0.0
 40
19.294216383335719
 50
270.00002958472021
 51
276.12028457306161
  0
ARC
  5
13BBD
  8
HIDE-S1
  6
KAKURE-05
 10
3894.0664983864958
 20
2262.131212778992
 30
0.0
 40
10.267638510000531
 50
276.1203301121061
 51
284.51361595665799
  0
ARC
  5
13BBE
  8
HIDE-S1
  6
KAKURE-05
 10
3895.5124988648049
 20
2256.5454153580231
 30
0.0
 40
4.4977121489994163
 50
284.51363142202752
 51
302.00408324566558
  0
ARC
  5
13BBF
  8
HIDE-S1
  6
KAKURE-05
 10
3897.6617230948359
 20
2253.10648079265
 30
0.0
 40
0.4424149051650723
 50
302.00423389829518
 51
0.0000268532263365
  0
ARC
  5
13BC0
  8
HIDE-S1
  6
KAKURE-05
 10
3897.6617230948359
 20
2253.10648120735
 30
0.0
 40
0.4424149051651999
 50
359.99997314677358
 51
57.995766101704817
  0
ARC
  5
13BC1
  8
HIDE-S1
  6
KAKURE-05
 10
3895.5124988648049
 20
2249.667546641977
 30
0.0
 40
4.497712148999363
 50
57.995916754334409
 51
75.48636857797257
  0
ARC
  5
13BC2
  8
HIDE-S1
  6
KAKURE-05
 10
3894.0664983864931
 20
2244.0817492210081
 30
0.0
 40
10.26763851000125
 50
75.48638404332722
 51
83.879669887879075
  0
ARC
  5
13BC3
  8
HIDE-S1
  6
KAKURE-05
 10
3893.1041280374229
 20
2235.1066196166671
 30
0.0
 40
19.294216383335311
 50
83.879715426950455
 51
89.999970415291983
  0
ARC
  5
13BC4
  8
HIDE-S1
  6
KAKURE-05
 10
3893.1041479625801
 20
2235.1066196166671
 30
0.0
 40
19.294216383335272
 50
90.000029584708017
 51
96.120284573049489
  0
ARC
  5
13BC5
  8
HIDE-S1
  6
KAKURE-05
 10
3892.1417776135099
 20
2244.0817492210081
 30
0.0
 40
10.267638510001269
 50
96.120330112120911
 51
104.51361595667279
  0
ARC
  5
13BC6
  8
HIDE-S1
  6
KAKURE-05
 10
3890.6957771351981
 20
2249.667546641977
 30
0.0
 40
4.4977121489994163
 50
104.5136314220274
 51
122.0040832456656
  0
ARC
  5
13BC7
  8
HIDE-S1
  6
KAKURE-05
 10
3888.5465529051671
 20
2253.10648120735
 30
0.0
 40
0.4424149051650723
 50
122.0042338982952
 51
180.0000268532263
  0
ARC
  5
13BC8
  8
HIDE-S1
  6
KAKURE-05
 10
3888.5465529051671
 20
2253.10648079265
 30
0.0
 40
0.4424149051651999
 50
179.99997314677361
 51
237.99576610170479
  0
ARC
  5
13BC9
  8
HIDE-S1
  6
KAKURE-05
 10
3890.6957771351981
 20
2256.5454153580231
 30
0.0
 40
4.497712148999363
 50
237.99591675433439
 51
255.4863685779726
  0
ARC
  5
13BCA
  8
HIDE-S1
  6
KAKURE-05
 10
3892.1417776135049
 20
2262.131212778992
 30
0.0
 40
10.267638510000561
 50
255.4863840433419
 51
263.87966988789401
  0
ARC
  5
13BCB
  8
HIDE-S1
  6
KAKURE-05
 10
3893.1041479625851
 20
2271.106342383333
 30
0.0
 40
19.294216383335751
 50
263.87971542693839
 51
269.99997041527968
  0
ARC
  5
13BCC
  8
HIDE-S1
  6
KAKURE-05
 10
3831.1041280374179
 20
2271.106342383333
 30
0.0
 40
19.294216383335719
 50
270.00002958472021
 51
276.12028457306161
  0
ARC
  5
13BCD
  8
HIDE-S1
  6
KAKURE-05
 10
3832.0664983864949
 20
2262.131212778992
 30
0.0
 40
10.267638510000531
 50
276.1203301121061
 51
284.51361595665799
  0
ARC
  5
13BCE
  8
HIDE-S1
  6
KAKURE-05
 10
3833.5124988648058
 20
2256.5454153580231
 30
0.0
 40
4.4977121489994163
 50
284.51363142202752
 51
302.00408324566558
  0
ARC
  5
13BCF
  8
HIDE-S1
  6
KAKURE-05
 10
3835.6617230948359
 20
2253.10648079265
 30
0.0
 40
0.4424149051650723
 50
302.00423389829518
 51
0.0000268532263365
  0
ARC
  5
13BD0
  8
HIDE-S1
  6
KAKURE-05
 10
3835.6617230948359
 20
2253.10648120735
 30
0.0
 40
0.4424149051651999
 50
359.99997314677358
 51
57.995766101704817
  0
ARC
  5
13BD1
  8
HIDE-S1
  6
KAKURE-05
 10
3833.5124988648058
 20
2249.667546641977
 30
0.0
 40
4.497712148999363
 50
57.995916754334409
 51
75.48636857797257
  0
ARC
  5
13BD2
  8
HIDE-S1
  6
KAKURE-05
 10
3832.0664983864931
 20
2244.0817492210081
 30
0.0
 40
10.26763851000125
 50
75.48638404332722
 51
83.879669887879075
  0
ARC
  5
13BD3
  8
HIDE-S1
  6
KAKURE-05
 10
3831.104128037422
 20
2235.1066196166671
 30
0.0
 40
19.294216383335311
 50
83.879715426950455
 51
89.999970415291983
  0
ARC
  5
13BD4
  8
HIDE-S1
  6
KAKURE-05
 10
3831.1041479625819
 20
2235.1066196166671
 30
0.0
 40
19.294216383335272
 50
90.000029584708017
 51
96.120284573049489
  0
ARC
  5
13BD5
  8
HIDE-S1
  6
KAKURE-05
 10
3830.1417776135099
 20
2244.0817492210081
 30
0.0
 40
10.267638510001269
 50
96.120330112120911
 51
104.51361595667279
  0
ARC
  5
13BD6
  8
HIDE-S1
  6
KAKURE-05
 10
3828.6957771351972
 20
2249.667546641977
 30
0.0
 40
4.4977121489994163
 50
104.5136314220274
 51
122.0040832456656
  0
ARC
  5
13BD7
  8
HIDE-S1
  6
KAKURE-05
 10
3826.5465529051671
 20
2253.10648120735
 30
0.0
 40
0.4424149051650723
 50
122.0042338982952
 51
180.0000268532263
  0
ARC
  5
13BD8
  8
HIDE-S1
  6
KAKURE-05
 10
3826.5465529051671
 20
2253.10648079265
 30
0.0
 40
0.4424149051651999
 50
179.99997314677361
 51
237.99576610170479
  0
ARC
  5
13BD9
  8
HIDE-S1
  6
KAKURE-05
 10
3828.6957771351972
 20
2256.5454153580231
 30
0.0
 40
4.497712148999363
 50
237.99591675433439
 51
255.4863685779726
  0
ARC
  5
13BDA
  8
HIDE-S1
  6
KAKURE-05
 10
3830.1417776135081
 20
2262.131212778992
 30
0.0
 40
10.267638510000561
 50
255.4863840433419
 51
263.87966988789401
  0
ARC
  5
13BDB
  8
HIDE-S1
  6
KAKURE-05
 10
3831.1041479625851
 20
2271.106342383333
 30
0.0
 40
19.294216383335751
 50
263.87971542693839
 51
269.99997041527968
  0
LINE
  5
13BDC
  8
U2
 10
3894.703985000001
 20
1908.5738289999999
 30
0.0
 11
3952.1041380000011
 21
1908.5738289999999
 31
0.0
  0
LINE
  5
13BDD
  8
U2
 10
3952.1041380000011
 20
1908.5738289999999
 30
0.0
 11
3952.1041380000011
 21
1913.0738289999999
 31
0.0
  0
LINE
  5
13BDE
  8
U2
 10
3952.1041380000011
 20
1913.0738289999999
 30
0.0
 11
3896.7451540000011
 21
1913.0738289999999
 31
0.0
  0
LINE
  5
13BDF
  8
U2
  6
CONTINUOUS
 10
3841.5432530000012
 20
1908.5738289999999
 30
0.0
 11
3882.6650230000009
 21
1908.5738289999999
 31
0.0
  0
LINE
  5
13BE0
  8
U2
  6
CONTINUOUS
 10
3885.768457000001
 20
1913.0738289999999
 30
0.0
 11
3838.4398190000011
 21
1913.0738289999999
 31
0.0
  0
LINE
  5
13BE1
  8
U2
 10
3827.463122000001
 20
1913.0738289999999
 30
0.0
 11
3772.1041380000011
 21
1913.0738289999999
 31
0.0
  0
LINE
  5
13BE2
  8
U2
 10
3772.1041380000011
 20
1913.0738289999999
 30
0.0
 11
3772.1041380000011
 21
1908.5738289999999
 31
0.0
  0
LINE
  5
13BE3
  8
U2
 10
3772.1041380000011
 20
1908.5738289999999
 30
0.0
 11
3829.5042910000011
 21
1908.5738289999999
 31
0.0
  0
LINE
  5
13BE4
  8
MARU_BOO
 10
1888.1041379999999
 20
4720.6756809999979
 30
0.0
 11
1888.1041379999999
 21
4726.9534819999981
 31
0.0
  0
ARC
  5
13BE5
  8
MARU_BOO
 10
1893.1041379999999
 20
3939.6974299999979
 30
0.0
 40
5.0
 50
180.0
 51
0.0
  0
LINE
  5
13BE6
  8
MARU_BOO
 10
1888.1041379999999
 20
3939.6974299999979
 30
0.0
 11
1888.1041379999999
 21
4729.6974299999983
 31
0.0
  0
ARC
  5
13BE7
  8
MARU_BOO
 10
1893.1041379999999
 20
4729.6974299999983
 30
0.0
 40
5.0
 50
0.0
 51
180.0
  0
LINE
  5
13BE8
  8
MARU_BOO
 10
1898.1041379999999
 20
4729.6974299999983
 30
0.0
 11
1898.1041379999999
 21
3939.6974299999979
 31
0.0
  0
LINE
  5
13BE9
  8
MARU_BOO
 10
1836.1041379999999
 20
4726.7960909999983
 30
0.0
 11
1836.1041379999999
 21
4720.6756809999979
 31
0.0
  0
ARC
  5
13BEA
  8
MARU_BOO
 10
1831.1041379999999
 20
3939.6974299999979
 30
0.0
 40
5.0
 50
180.0
 51
0.0
  0
LINE
  5
13BEB
  8
MARU_BOO
 10
1836.1041379999999
 20
3939.6974299999979
 30
0.0
 11
1836.1041379999999
 21
4729.6974299999983
 31
0.0
  0
ARC
  5
13BEC
  8
MARU_BOO
 10
1831.1041379999999
 20
4729.6974299999983
 30
0.0
 40
5.0
 50
0.0
 51
180.0
  0
LINE
  5
13BED
  8
MARU_BOO
 10
1826.104137999999
 20
4729.6974299999983
 30
0.0
 11
1826.104137999999
 21
3939.6974299999979
 31
0.0
  0
LINE
  5
13BEE
  8
MARU_BOO
 10
2688.1041380000001
 20
4720.6756809999979
 30
0.0
 11
2688.1041380000001
 21
4726.9534819999981
 31
0.0
  0
ARC
  5
13BEF
  8
MARU_BOO
 10
2693.1041380000011
 20
3939.6974299999979
 30
0.0
 40
5.0
 50
180.0
 51
0.0
  0
LINE
  5
13BF0
  8
MARU_BOO
 10
2688.1041380000001
 20
3939.6974299999979
 30
0.0
 11
2688.1041380000001
 21
4729.6974299999983
 31
0.0
  0
ARC
  5
13BF1
  8
MARU_BOO
 10
2693.1041380000011
 20
4729.6974299999983
 30
0.0
 40
5.0
 50
0.0
 51
180.0
  0
LINE
  5
13BF2
  8
MARU_BOO
 10
2698.1041380000001
 20
4729.6974299999983
 30
0.0
 11
2698.1041380000001
 21
3939.6974299999979
 31
0.0
  0
LINE
  5
13BF3
  8
MARU_BOO
 10
2636.1041380000001
 20
4726.7960909999983
 30
0.0
 11
2636.1041380000001
 21
4720.6756809999979
 31
0.0
  0
ARC
  5
13BF4
  8
MARU_BOO
 10
2631.1041380000001
 20
3939.6974299999979
 30
0.0
 40
5.0
 50
180.0
 51
0.0
  0
LINE
  5
13BF5
  8
MARU_BOO
 10
2636.1041380000001
 20
3939.6974299999979
 30
0.0
 11
2636.1041380000001
 21
4729.6974299999983
 31
0.0
  0
ARC
  5
13BF6
  8
MARU_BOO
 10
2631.1041380000001
 20
4729.6974299999983
 30
0.0
 40
5.0
 50
0.0
 51
180.0
  0
LINE
  5
13BF7
  8
MARU_BOO
 10
2626.1041380000001
 20
4729.6974299999983
 30
0.0
 11
2626.1041380000001
 21
3939.6974299999979
 31
0.0
  0
LINE
  5
13BF8
  8
MARU_BOO
 10
3488.1041380000011
 20
4720.6756809999979
 30
0.0
 11
3488.1041380000011
 21
4726.9534819999981
 31
0.0
  0
ARC
  5
13BF9
  8
MARU_BOO
 10
3493.1041380000011
 20
3939.6974299999979
 30
0.0
 40
5.0
 50
180.0
 51
0.0
  0
LINE
  5
13BFA
  8
MARU_BOO
 10
3488.1041380000011
 20
3939.6974299999979
 30
0.0
 11
3488.1041380000011
 21
4729.6974299999983
 31
0.0
  0
ARC
  5
13BFB
  8
MARU_BOO
 10
3493.1041380000011
 20
4729.6974299999983
 30
0.0
 40
5.0
 50
0.0
 51
180.0
  0
LINE
  5
13BFC
  8
MARU_BOO
 10
3498.104138000002
 20
4729.6974299999983
 30
0.0
 11
3498.104138000002
 21
3939.6974299999979
 31
0.0
  0
LINE
  5
13BFD
  8
MARU_BOO
 10
3436.1041380000011
 20
4726.7960909999983
 30
0.0
 11
3436.1041380000011
 21
4720.6756809999979
 31
0.0
  0
ARC
  5
13BFE
  8
MARU_BOO
 10
3431.104138000002
 20
3939.6974299999979
 30
0.0
 40
5.0
 50
180.0
 51
0.0
  0
LINE
  5
13BFF
  8
MARU_BOO
 10
3436.1041380000011
 20
3939.6974299999979
 30
0.0
 11
3436.1041380000011
 21
4729.6974299999983
 31
0.0
  0
ARC
  5
13C00
  8
MARU_BOO
 10
3431.104138000002
 20
4729.6974299999983
 30
0.0
 40
5.0
 50
0.0
 51
180.0
  0
LINE
  5
13C01
  8
MARU_BOO
 10
3426.1041380000011
 20
4729.6974299999983
 30
0.0
 11
3426.1041380000011
 21
3939.6974299999979
 31
0.0
  0
LINE
  5
13C02
  8
HIDE-S1
 10
2290.889541
 20
4725.214622999998
 30
0.0
 11
2288.1041380000001
 21
4726.590667999998
 31
0.0
  0
LINE
  5
13C03
  8
HIDE-S1
 10
2236.1041380000001
 20
4726.5851559999974
 30
0.0
 11
2233.3116049999999
 21
4725.2111069999983
 31
0.0
  0
ARC
  5
13C04
  8
MARU_BOO
 10
2293.1041380000001
 20
3736.464985999999
 30
0.0
 40
5.0
 50
180.0
 51
0.0
  0
LINE
  5
13C05
  8
MARU_BOO
 10
2288.1041380000001
 20
3736.464985999999
 30
0.0
 11
2288.1041380000001
 21
4729.6974299999983
 31
0.0
  0
ARC
  5
13C06
  8
MARU_BOO
 10
2293.1041380000001
 20
4729.6974299999983
 30
0.0
 40
5.0
 50
0.0
 51
180.0
  0
LINE
  5
13C07
  8
MARU_BOO
 10
2298.1041380000001
 20
4729.6974299999983
 30
0.0
 11
2298.1041380000001
 21
3736.464985999999
 31
0.0
  0
ARC
  5
13C08
  8
MARU_BOO
 10
2231.1041380000001
 20
3736.464985999999
 30
0.0
 40
5.0
 50
180.0
 51
0.0
  0
LINE
  5
13C09
  8
MARU_BOO
 10
2236.1041380000001
 20
3736.464985999999
 30
0.0
 11
2236.1041380000001
 21
4729.6974299999983
 31
0.0
  0
ARC
  5
13C0A
  8
MARU_BOO
 10
2231.1041380000001
 20
4729.6974299999983
 30
0.0
 40
5.0
 50
0.0
 51
180.0
  0
LINE
  5
13C0B
  8
MARU_BOO
 10
2226.1041380000001
 20
4729.6974299999983
 30
0.0
 11
2226.1041380000001
 21
3736.464985999999
 31
0.0
  0
LINE
  5
13C0C
  8
HIDE-S1
 10
3090.889541
 20
4725.214622999998
 30
0.0
 11
3088.1041380000001
 21
4726.590667999998
 31
0.0
  0
LINE
  5
13C0D
  8
HIDE-S1
 10
3036.1041380000011
 20
4726.5851559999974
 30
0.0
 11
3033.3116050000008
 21
4725.2111069999983
 31
0.0
  0
ARC
  5
13C0E
  8
MARU_BOO
 10
3093.1041380000011
 20
3736.464985999999
 30
0.0
 40
5.0
 50
180.0
 51
0.0
  0
LINE
  5
13C0F
  8
MARU_BOO
 10
3088.1041380000001
 20
3736.464985999999
 30
0.0
 11
3088.1041380000001
 21
4729.6974299999983
 31
0.0
  0
ARC
  5
13C10
  8
MARU_BOO
 10
3093.1041380000011
 20
4729.6974299999983
 30
0.0
 40
5.0
 50
0.0
 51
180.0
  0
LINE
  5
13C11
  8
MARU_BOO
 10
3098.1041380000001
 20
4729.6974299999983
 30
0.0
 11
3098.1041380000001
 21
3736.464985999999
 31
0.0
  0
ARC
  5
13C12
  8
MARU_BOO
 10
3031.1041380000001
 20
3736.464985999999
 30
0.0
 40
5.0
 50
180.0
 51
0.0
  0
LINE
  5
13C13
  8
MARU_BOO
 10
3036.1041380000011
 20
3736.464985999999
 30
0.0
 11
3036.1041380000011
 21
4729.6974299999983
 31
0.0
  0
ARC
  5
13C14
  8
MARU_BOO
 10
3031.1041380000001
 20
4729.6974299999983
 30
0.0
 40
5.0
 50
0.0
 51
180.0
  0
LINE
  5
13C15
  8
MARU_BOO
 10
3026.1041380000001
 20
4729.6974299999983
 30
0.0
 11
3026.1041380000001
 21
3736.464985999999
 31
0.0
  0
LINE
  5
13C16
  8
HIDE-S1
 10
3890.8895410000018
 20
4725.214622999998
 30
0.0
 11
3888.1041380000011
 21
4726.590667999998
 31
0.0
  0
LINE
  5
13C17
  8
HIDE-S1
 10
3836.1041380000011
 20
4726.5851559999974
 30
0.0
 11
3833.3116050000021
 21
4725.2111069999983
 31
0.0
  0
ARC
  5
13C18
  8
MARU_BOO
 10
3893.1041380000011
 20
3736.464985999999
 30
0.0
 40
5.0
 50
180.0
 51
0.0
  0
LINE
  5
13C19
  8
MARU_BOO
 10
3888.1041380000011
 20
3736.464985999999
 30
0.0
 11
3888.1041380000011
 21
4729.6974299999983
 31
0.0
  0
ARC
  5
13C1A
  8
MARU_BOO
 10
3893.1041380000011
 20
4729.6974299999983
 30
0.0
 40
5.0
 50
0.0
 51
180.0
  0
LINE
  5
13C1B
  8
MARU_BOO
 10
3898.104138000002
 20
4729.6974299999983
 30
0.0
 11
3898.104138000002
 21
3736.464985999999
 31
0.0
  0
ARC
  5
13C1C
  8
MARU_BOO
 10
3831.104138000002
 20
3736.464985999999
 30
0.0
 40
5.0
 50
180.0
 51
0.0
  0
LINE
  5
13C1D
  8
MARU_BOO
 10
3836.1041380000011
 20
3736.464985999999
 30
0.0
 11
3836.1041380000011
 21
4729.6974299999983
 31
0.0
  0
ARC
  5
13C1E
  8
MARU_BOO
 10
3831.104138000002
 20
4729.6974299999983
 30
0.0
 40
5.0
 50
0.0
 51
180.0
  0
LINE
  5
13C1F
  8
MARU_BOO
 10
3826.1041380000011
 20
4729.6974299999983
 30
0.0
 11
3826.1041380000011
 21
3736.464985999999
 31
0.0
  0
LINE
  5
13C20
  8
U2
 10
6142.6040380000013
 20
1908.5738289999999
 30
0.0
 11
6180.6040380000022
 21
1908.5738289999999
 31
0.0
  0
LINE
  5
13C21
  8
U2
 10
6180.6040380000022
 20
1908.5738289999999
 30
0.0
 11
6180.6040380000022
 21
1913.0738289999999
 31
0.0
  0
LINE
  5
13C22
  8
U2
 10
6180.6040380000022
 20
1913.0738289999999
 30
0.0
 11
6142.6040380000013
 21
1913.0738289999999
 31
0.0
  0
LINE
  5
13C23
  8
U2
 10
6142.6040380000013
 20
1913.0738289999999
 30
0.0
 11
6142.6040380000013
 21
1908.5738289999999
 31
0.0
  0
LINE
  5
13C24
  8
U2
 10
5744.6040380000022
 20
1908.5738289999999
 30
0.0
 11
5782.6040380000022
 21
1908.5738289999999
 31
0.0
  0
LINE
  5
13C25
  8
U2
 10
5782.6040380000022
 20
1908.5738289999999
 30
0.0
 11
5782.6040380000022
 21
1913.0738289999999
 31
0.0
  0
LINE
  5
13C26
  8
U2
 10
5782.6040380000022
 20
1913.0738289999999
 30
0.0
 11
5744.6040380000022
 21
1913.0738289999999
 31
0.0
  0
LINE
  5
13C27
  8
U2
 10
5744.6040380000022
 20
1913.0738289999999
 30
0.0
 11
5744.6040380000022
 21
1908.5738289999999
 31
0.0
  0
ARC
  5
13C28
  8
MARU_BOO
 10
6015.6040375542398
 20
2218.5738304764809
 30
0.0
 40
30.000000930276489
 50
212.10109930630421
 51
345.65660611562112
  0
LINE
  5
13C29
  8
MARU_BOO
 10
5990.1906850000023
 20
2202.6313850000001
 30
0.0
 11
5935.4885080000022
 21
2289.8304210000001
 31
0.0
  0
ARC
  5
13C2A
  8
MARU_BOO
 10
5901.6040254801183
 20
2268.5737824661528
 30
0.0
 40
40.000035467470532
 50
32.101143906569781
 51
116.9701753288323
  0
LINE
  5
13C2B
  8
MARU_BOO
 10
5883.4629440000008
 20
2304.2235230000001
 30
0.0
 11
5263.4629440000017
 21
1988.7235229999999
 31
0.0
  0
ARC
  5
13C2C
  8
MARU_BOO
 10
5281.6040449082629
 20
1953.073830483529
 30
0.0
 40
40.000001483531683
 50
116.9702313245003
 51
269.9999901046445
  0
LINE
  5
13C2D
  8
MARU_BOO
 10
5281.6040380000013
 20
1913.0738289999999
 30
0.0
 11
5772.6040380000013
 21
1913.0738289999999
 31
0.0
  0
ARC
  5
13C2E
  8
MARU_BOO
 10
5772.6040678830077
 20
1953.0737991169919
 30
0.0
 40
39.999970117003848
 50
269.99995719571308
 51
0.0000428042869152
  0
LINE
  5
13C2F
  8
MARU_BOO
 10
5812.6040380000013
 20
1953.0738289999999
 30
0.0
 11
5812.6040380000013
 21
2256.9451909999998
 31
0.0
  0
LINE
  5
13C30
  8
MARU_BOO
 10
5812.6040380000013
 20
2256.9451909999998
 30
0.0
 11
5802.6040380000013
 21
2251.8564809999998
 31
0.0
  0
LINE
  5
13C31
  8
MARU_BOO
 10
5802.6040380000013
 20
2251.8564809999998
 30
0.0
 11
5802.6040380000013
 21
1953.0738289999999
 31
0.0
  0
ARC
  5
13C32
  8
MARU_BOO
 10
5772.6040604122572
 20
1953.073806587744
 30
0.0
 40
29.99997758775244
 50
269.99995719571223
 51
0.0000428042869152
  0
LINE
  5
13C33
  8
MARU_BOO
 10
5772.6040380000013
 20
1923.0738289999999
 30
0.0
 11
5281.6040380000013
 21
1923.0738289999999
 31
0.0
  0
ARC
  5
13C34
  8
MARU_BOO
 10
5281.6040429911482
 20
1953.073830422599
 30
0.0
 40
30.00000142259929
 50
116.9702316874656
 51
269.99999046761388
  0
LINE
  5
13C35
  8
MARU_BOO
 10
5267.9982170000021
 20
1979.8110999999999
 30
0.0
 11
5887.9982170000012
 21
2295.3110999999999
 31
0.0
  0
ARC
  5
13C36
  8
MARU_BOO
 10
5901.6040283366347
 20
2268.5737938027069
 30
0.0
 40
30.000027413585681
 50
32.101143601926061
 51
116.97017502418799
  0
LINE
  5
13C37
  8
MARU_BOO
 10
5927.0173910000012
 20
2284.5162730000002
 30
0.0
 11
5981.7195680000013
 21
2197.3172370000002
 31
0.0
  0
ARC
  5
13C38
  8
MARU_BOO
 10
6015.6040377389854
 20
2218.5738308256209
 30
0.0
 40
40.000000881994531
 50
212.10109938649489
 51
345.65660619581269
  0
LINE
  5
13C39
  8
MARU_BOO
 10
6054.3571740000034
 20
2208.6645170000002
 30
0.0
 11
6129.2249610000017
 21
2501.455935
 31
0.0
  0
ARC
  5
13C3A
  8
MARU_BOO
 10
6179.6040327586679
 20
2488.5738068023588
 30
0.0
 40
52.000000943896218
 50
348.64092936910902
 51
165.65658313770609
  0
LINE
  5
13C3B
  8
MARU_BOO
 10
6230.5854640000007
 20
2478.3320410000001
 30
0.0
 11
6157.3875570000009
 21
2113.9685439999998
 31
0.0
  0
ARC
  5
13C3C
  8
MARU_BOO
 10
6196.6040599393091
 20
2106.0902413683189
 30
0.0
 40
40.00002193930802
 50
168.64090443379141
 51
179.99999336560879
  0
LINE
  5
13C3D
  8
MARU_BOO
 10
6156.6040380000013
 20
2106.0902460000002
 30
0.0
 11
6156.6040380000013
 21
1913.0738289999999
 31
0.0
  0
LINE
  5
13C3E
  8
MARU_BOO
 10
6156.6040380000013
 20
1913.0738289999999
 30
0.0
 11
6166.6040380000013
 21
1913.0738289999999
 31
0.0
  0
LINE
  5
13C3F
  8
MARU_BOO
 10
6166.6040380000013
 20
1913.0738289999999
 30
0.0
 11
6166.6040380000013
 21
2106.0902460000002
 31
0.0
  0
ARC
  5
13C40
  8
MARU_BOO
 10
6196.6040568432409
 20
2106.0902440331151
 30
0.0
 40
30.000018843240529
 50
168.6409073117114
 51
179.9999962435285
  0
LINE
  5
13C41
  8
MARU_BOO
 10
6167.1916770000007
 20
2111.9989700000001
 30
0.0
 11
6240.3895840000023
 21
2476.362466
 31
0.0
  0
ARC
  5
13C42
  8
MARU_BOO
 10
6179.6040320736329
 20
2488.573802321348
 30
0.0
 40
62.000000465695102
 50
348.64092908414801
 51
165.65658285274509
  0
LINE
  5
13C43
  8
MARU_BOO
 10
6119.5366780000022
 20
2503.9332629999999
 30
0.0
 11
6044.6688900000026
 21
2211.1418450000001
 31
0.0
  0
LINE
  5
13C44
  8
1PL-M1
 10
6161.6040380000013
 20
1913.0738289999999
 30
0.0
 11
6161.6040380000013
 21
2106.0902460000002
 31
0.0
  0
ARC
  5
13C45
  8
1PL-M1
 10
6196.6040583912763
 20
2106.0902427007172
 30
0.0
 40
35.00002039127429
 50
168.6409056671861
 51
179.9999945990034
  0
LINE
  5
13C46
  8
1PL-M1
 10
6162.2896170000013
 20
2112.983757
 30
0.0
 11
6235.487524000001
 21
2477.3472539999998
 31
0.0
  0
ARC
  5
13C47
  8
1PL-M1
 10
6179.6040321726623
 20
2488.5738048053408
 30
0.0
 40
57.000000892992432
 50
348.64092951512839
 51
165.6565832837255
  0
LINE
  5
13C48
  8
1PL-M1
 10
6124.3808190000009
 20
2502.6945989999999
 30
0.0
 11
6049.5130320000007
 21
2209.9031810000001
 31
0.0
  0
ARC
  5
13C49
  8
1PL-M1
 10
6015.6040378966118
 20
2218.5738305437849
 30
0.0
 40
35.00000063735466
 50
212.10109942086191
 51
345.6566062301797
  0
LINE
  5
13C4A
  8
1PL-M1
 10
5985.9551270000011
 20
2199.9743109999999
 30
0.0
 11
5931.2529490000006
 21
2287.1733469999999
 31
0.0
  0
ARC
  5
13C4B
  8
1PL-M1
 10
5901.60402668183
 20
2268.5737878844288
 30
0.0
 40
35.000031341736559
 50
32.101144360581841
 51
116.9701757828439
  0
LINE
  5
13C4C
  8
1PL-M1
 10
5885.7305800000013
 20
2299.7673110000001
 30
0.0
 11
5265.7305800000031
 21
1984.2673110000001
 31
0.0
  0
ARC
  5
13C4D
  8
1PL-M1
 10
5281.6040436397543
 20
1953.0738302630159
 30
0.0
 40
35.000001263016181
 50
116.97023198745291
 51
269.99999076760048
  0
LINE
  5
13C4E
  8
1PL-M1
 10
5281.6040380000013
 20
1918.0738289999999
 30
0.0
 11
5772.6040380000013
 21
1918.0738289999999
 31
0.0
  0
ARC
  5
13C4F
  8
1PL-M1
 10
5772.6040641476329
 20
1953.0738028523681
 30
0.0
 40
34.999973852378389
 50
269.99995719571268
 51
0.0000428042869152
  0
LINE
  5
13C50
  8
1PL-M1
 10
5807.6040380000013
 20
1953.0738289999999
 30
0.0
 11
5807.6040380000013
 21
2254.4008359999998
 31
0.0
  0
TEXT
  5
142D2
  8
FILENAME
 10
7022.4285714285706
 20
87.0
 30
0.0
 40
50.0
  1
＜CSR-10-7S-S_JIS_GL.DXF ＞
  7
FILENAME
 72
     2
 11
8191.0
 21
87.0
 31
0.0
  0
LINE
  5
1455C
  8
WAKUSEN-02
 10
370.0
 20
540.0
 30
0.0
 11
8130.0
 21
540.0
 31
0.0
  0
TEXT
  5
1455D
  8
WAKUMOJI-01
 10
405.0
 20
465.0
 30
0.0
 40
45.0
  1
備考
  7
WAKUMOJI
  0
LINE
  5
1455E
  8
WAKUSEN-03
 10
2250.0
 20
260.0
 30
0.0
 11
2250.0
 21
540.0
 31
0.0
  0
TEXT
  5
1455F
  8
WAKUMOJI-01
 10
2280.0
 20
465.0
 30
0.0
 40
45.0
  1
名称
  7
WAKUMOJI
  0
TEXT
  5
14560
  8
WAKUMOJI-01
 10
3480.0
 20
465.0
 30
0.0
 40
45.0
  1
図面名
  7
WAKUMOJI
  0
LINE
  5
14561
  8
WAKUSEN-03
 10
3450.0
 20
260.0
 30
0.0
 11
3450.0
 21
540.0
 31
0.0
  0
LINE
  5
14562
  8
WAKUSEN-03
 10
4850.0
 20
260.0
 30
0.0
 11
4850.0
 21
540.0
 31
0.0
  0
LINE
  5
14563
  8
WAKUSEN-03
 10
4550.0
 20
260.0
 30
0.0
 11
4550.0
 21
540.0
 31
0.0
  0
TEXT
  5
14564
  8
WAKUMOJI-01
 10
4580.0
 20
465.0
 30
0.0
 40
45.0
  1
縮尺
  7
WAKUMOJI
  0
TEXT
  5
14565
  8
WAKUMOJI-01
 10
5180.0
 20
465.0
 30
0.0
 40
45.0
  1
検図
  7
WAKUMOJI
  0
LINE
  5
14566
  8
WAKUSEN-03
 10
5150.0
 20
260.0
 30
0.0
 11
5150.0
 21
540.0
 31
0.0
  0
TEXT
  5
14567
  8
WAKUMOJI-01
 10
4879.9999999999991
 20
465.0
 30
0.0
 40
45.0
  1
製図
  7
WAKUMOJI
  0
LINE
  5
14568
  8
WAKUSEN-03
 10
5670.0
 20
260.0
 30
0.0
 11
5670.0
 21
540.0
 31
0.0
  0
TEXT
  5
14569
  8
WAKUMOJI-01
 10
5700.0
 20
465.0
 30
0.0
 40
45.0
  1
日付
  7
WAKUMOJI
  0
LINE
  5
1456A
  8
WAKUSEN-03
 10
6140.0
 20
260.0
 30
0.0
 11
6140.0
 21
540.0
 31
0.0
  0
TEXT
  5
1456B
  8
WAKUMOJI-01
 10
6170.0
 20
465.0
 30
0.0
 40
45.0
  1
図面
  7
WAKUMOJI
  0
TEXT
  5
1456C
  8
WAKUMOJI-01
 10
6278.0000000000009
 20
465.0
 30
0.0
 40
34.0
  1
No.
 41
0.5
  7
WAKUMOJI
  0
LINE
  5
1456D
  8
WAKUSEN-03
 10
6740.0
 20
260.0
 30
0.0
 11
6740.0
 21
540.0
 31
0.0
  0
CIRCLE
  5
1456E
  8
SUNPOU
 10
5955.0
 20
319.99999999999989
 30
0.0
 40
5.833333333333333
  0
CIRCLE
  5
1456F
  8
SUNPOU
 10
5815.0
 20
319.99999999999989
 30
0.0
 40
5.833333333333333
  0
CIRCLE
  5
14570
  8
SUNPOU
 10
4250.0
 20
570.0
 30
0.0
 40
5.833333333333333
  0
CIRCLE
  5
14571
  8
SUNPOU
 10
400.0
 20
3115.0
 30
0.0
 40
5.833333333333333
  0
LINE
  5
14572
  8
WAKUSEN-02
 10
370.0
 20
260.0
 30
0.0
 11
8130.0
 21
260.0
 31
0.0
  0
LINE
  5
14573
  8
WAKUSEN-02
 10
8130.0
 20
260.0
 30
0.0
 11
8130.0
 21
5690.0
 31
0.0
  0
LINE
  5
14574
  8
WAKUSEN-02
 10
8130.0
 20
5690.0
 30
0.0
 11
370.0
 21
5690.0
 31
0.0
  0
LINE
  5
14575
  8
WAKUSEN-02
 10
370.0
 20
5690.0
 30
0.0
 11
370.0
 21
260.0
 31
0.0
  0
ARC
  5
14576
  8
SUNPOU
 10
400.0
 20
3115.0
 30
0.0
 40
2.9166666666666421
 50
180.0
 51
0.0
  0
ARC
  5
14577
  8
SUNPOU
 10
400.0
 20
3115.0
 30
0.0
 40
2.9166666666666421
 50
0.0
 51
180.0
  0
ARC
  5
14578
  8
SUNPOU
 10
4250.0
 20
570.0
 30
0.0
 40
2.9166666666668561
 50
180.0
 51
0.0
  0
ARC
  5
14579
  8
SUNPOU
 10
4250.0
 20
570.0
 30
0.0
 40
2.9166666666668561
 50
0.0
 51
180.0
  0
ARC
  5
1457A
  8
SUNPOU
 10
5815.0
 20
319.99999999999989
 30
0.0
 40
2.9166666666662868
 50
180.0
 51
0.0
  0
ARC
  5
1457B
  8
SUNPOU
 10
5815.0
 20
319.99999999999989
 30
0.0
 40
2.9166666666662868
 50
0.0
 51
180.0
  0
ARC
  5
1457C
  8
SUNPOU
 10
5955.0
 20
319.99999999999989
 30
0.0
 40
2.9166666666662868
 50
180.0
 51
0.0
  0
ARC
  5
1457D
  8
SUNPOU
 10
5955.0
 20
319.99999999999989
 30
0.0
 40
2.9166666666662868
 50
0.0
 51
180.0
  0
LINE
  5
1457E
  8
YODOROGO
 10
7484.401085322982
 20
338.39745962155581
 30
0.0
 11
7484.4010853229784
 21
366.69539852546342
 31
0.0
  0
ARC
  5
1457F
  8
YODOROGO
 10
7563.5869374569756
 20
420.0287782009936
 30
0.0
 40
95.471716051411818
 50
213.96111677667849
 51
264.47872074317792
  0
LINE
  5
14580
  8
YODOROGO
 10
7554.4010853229793
 20
324.99999999999937
 30
0.0
 11
7554.4010853229793
 21
355.0
 31
0.0
  0
ARC
  5
14581
  8
YODOROGO
 10
7557.5147071751153
 20
435.28405463092872
 30
0.0
 40
80.344409071322715
 50
260.60629297969928
 51
267.77903556555862
  0
LINE
  5
14582
  8
YODOROGO
 10
7544.4010853229802
 20
356.01705651103492
 30
0.0
 11
7547.4010853229802
 21
369.00000000000028
 31
0.0
  0
LINE
  5
14583
  8
YODOROGO
 10
7547.4010853229802
 20
369.00000000000028
 30
0.0
 11
7526.4010853229793
 21
369.00000000000028
 31
0.0
  0
LINE
  5
14584
  8
YODOROGO
 10
7526.4010853229793
 20
369.00000000000028
 30
0.0
 11
7524.4010853229911
 21
362.08082986015307
 31
0.0
  0
ARC
  5
14585
  8
YODOROGO
 10
7557.5147071753418
 20
435.2840546309036
 30
0.0
 40
80.344409071307055
 50
228.6181454618993
 51
245.660289248906
  0
LINE
  5
14586
  8
YODOROGO
 10
7504.4010853229793
 20
375.0
 30
0.0
 11
7554.4010853229793
 21
375.0
 31
0.0
  0
LINE
  5
14587
  8
YODOROGO
 10
7554.4010853229793
 20
375.0
 30
0.0
 11
7554.4010853229793
 21
385.0
 31
0.0
  0
LINE
  5
14588
  8
YODOROGO
 10
7554.4010853229793
 20
385.0
 30
0.0
 11
7487.4010853229793
 21
385.0
 31
0.0
  0
LINE
  5
14589
  8
YODOROGO
 10
7487.4010853229793
 20
385.0
 30
0.0
 11
7487.4010853229793
 21
395.0
 31
0.0
  0
LINE
  5
1458A
  8
YODOROGO
 10
7487.4010853229793
 20
395.0
 30
0.0
 11
7471.4010853229793
 21
395.0
 31
0.0
  0
LINE
  5
1458B
  8
YODOROGO
 10
7471.4010853229793
 20
395.0
 30
0.0
 11
7471.4010853229793
 21
385.0
 31
0.0
  0
LINE
  5
1458C
  8
YODOROGO
 10
7471.4010853229793
 20
385.0
 30
0.0
 11
7404.4010853229793
 21
385.0
 31
0.0
  0
LINE
  5
1458D
  8
YODOROGO
 10
7404.4010853229793
 20
385.0
 30
0.0
 11
7404.4010853229793
 21
375.0
 31
0.0
  0
LINE
  5
1458E
  8
YODOROGO
 10
7404.4010853229793
 20
375.0
 30
0.0
 11
7428.2361571748652
 21
375.0
 31
0.0
  0
LINE
  5
1458F
  8
YODOROGO
 10
7428.2361571748652
 20
375.0
 30
0.0
 11
7404.4010853229793
 21
355.0
 31
0.0
  0
LINE
  5
14590
  8
YODOROGO
 10
7404.4010853229793
 20
355.0
 30
0.0
 11
7404.4010853229793
 21
325.0
 31
0.0
  0
LINE
  5
14591
  8
YODOROGO
 10
7404.4010853229793
 20
325.0
 30
0.0
 11
7434.4010853229793
 21
350.17298893531921
 31
0.0
  0
LINE
  5
14592
  8
YODOROGO
 10
7434.4010853229793
 20
350.17298893531921
 30
0.0
 11
7434.4010853229793
 21
325.0
 31
0.0
  0
LINE
  5
14593
  8
YODOROGO
 10
7434.4010853229793
 20
325.0
 30
0.0
 11
7484.401085322982
 21
338.39745962155581
 31
0.0
  0
LINE
  5
14594
  8
YODOROGO
 10
7444.4010853229793
 20
375.0
 30
0.0
 11
7444.4010853229793
 21
358.56398524709221
 31
0.0
  0
LINE
  5
14595
  8
YODOROGO
 10
7444.4010853229793
 20
358.56398524709221
 30
0.0
 11
7442.8524682463258
 21
357.26454122923661
 31
0.0
  0
LINE
  5
14596
  8
YODOROGO
 10
7442.8524682463258
 20
357.26454122923661
 30
0.0
 11
7483.4460331271366
 21
368.14155415694978
 31
0.0
  0
ARC
  5
14597
  8
YODOROGO
 10
7563.5869374569811
 20
420.02877820100349
 30
0.0
 40
95.471716051420401
 50
208.14114420486601
 51
212.92103611859949
  0
LINE
  5
14598
  8
YODOROGO
 10
7479.4010853229793
 20
375.0
 30
0.0
 11
7444.4010853229793
 21
375.0
 31
0.0
  0
LINE
  5
14599
  8
YODOROGO
 10
7484.401085322982
 20
338.39745962155581
 30
0.0
 11
7484.4010853229784
 21
366.69539852546342
 31
0.0
  0
ARC
  5
1459A
  8
YODOROGO
 10
7563.5869374569756
 20
420.0287782009936
 30
0.0
 40
95.471716051411818
 50
213.96111677667849
 51
264.47872074317792
  0
LINE
  5
1459B
  8
YODOROGO
 10
7554.4010853229793
 20
324.99999999999937
 30
0.0
 11
7554.4010853229793
 21
355.0
 31
0.0
  0
ARC
  5
1459C
  8
YODOROGO
 10
7557.5147071751153
 20
435.28405463092872
 30
0.0
 40
80.344409071322715
 50
260.60629297969928
 51
267.77903556555862
  0
LINE
  5
1459D
  8
YODOROGO
 10
7544.4010853229802
 20
356.01705651103492
 30
0.0
 11
7547.4010853229802
 21
369.00000000000028
 31
0.0
  0
LINE
  5
1459E
  8
YODOROGO
 10
7547.4010853229802
 20
369.00000000000028
 30
0.0
 11
7526.4010853229793
 21
369.00000000000028
 31
0.0
  0
LINE
  5
1459F
  8
YODOROGO
 10
7526.4010853229793
 20
369.00000000000028
 30
0.0
 11
7524.4010853229911
 21
362.08082986015307
 31
0.0
  0
ARC
  5
145A0
  8
YODOROGO
 10
7557.5147071753418
 20
435.2840546309036
 30
0.0
 40
80.344409071307055
 50
228.6181454618993
 51
245.660289248906
  0
LINE
  5
145A1
  8
YODOROGO
 10
7504.4010853229793
 20
375.0
 30
0.0
 11
7554.4010853229793
 21
375.0
 31
0.0
  0
LINE
  5
145A2
  8
YODOROGO
 10
7554.4010853229793
 20
375.0
 30
0.0
 11
7554.4010853229793
 21
385.0
 31
0.0
  0
LINE
  5
145A3
  8
YODOROGO
 10
7554.4010853229793
 20
385.0
 30
0.0
 11
7487.4010853229793
 21
385.0
 31
0.0
  0
LINE
  5
145A4
  8
YODOROGO
 10
7487.4010853229793
 20
385.0
 30
0.0
 11
7487.4010853229793
 21
395.0
 31
0.0
  0
LINE
  5
145A5
  8
YODOROGO
 10
7487.4010853229793
 20
395.0
 30
0.0
 11
7471.4010853229793
 21
395.0
 31
0.0
  0
LINE
  5
145A6
  8
YODOROGO
 10
7471.4010853229793
 20
395.0
 30
0.0
 11
7471.4010853229793
 21
385.0
 31
0.0
  0
LINE
  5
145A7
  8
YODOROGO
 10
7471.4010853229793
 20
385.0
 30
0.0
 11
7404.4010853229793
 21
385.0
 31
0.0
  0
LINE
  5
145A8
  8
YODOROGO
 10
7404.4010853229793
 20
385.0
 30
0.0
 11
7404.4010853229793
 21
375.0
 31
0.0
  0
LINE
  5
145A9
  8
YODOROGO
 10
7404.4010853229793
 20
375.0
 30
0.0
 11
7428.2361571748652
 21
375.0
 31
0.0
  0
LINE
  5
145AA
  8
YODOROGO
 10
7428.2361571748652
 20
375.0
 30
0.0
 11
7404.4010853229793
 21
355.0
 31
0.0
  0
LINE
  5
145AB
  8
YODOROGO
 10
7404.4010853229793
 20
355.0
 30
0.0
 11
7404.4010853229793
 21
325.0
 31
0.0
  0
LINE
  5
145AC
  8
YODOROGO
 10
7404.4010853229793
 20
325.0
 30
0.0
 11
7434.4010853229793
 21
350.17298893531921
 31
0.0
  0
LINE
  5
145AD
  8
YODOROGO
 10
7434.4010853229793
 20
350.17298893531921
 30
0.0
 11
7434.4010853229793
 21
325.0
 31
0.0
  0
LINE
  5
145AE
  8
YODOROGO
 10
7434.4010853229793
 20
325.0
 30
0.0
 11
7484.401085322982
 21
338.39745962155581
 31
0.0
  0
LINE
  5
145AF
  8
YODOROGO
 10
7418.4010853229802
 20
411.00000000000023
 30
0.0
 11
7441.4010853229793
 21
411.00000000000023
 31
0.0
1001
AUTOCAD_POSTSCRIPT_FIGURE
1002
{
1000
PSFILL
1000
Grayscale
1000
Grayscale
1070
    25
1002
}
  0
LINE
  5
145B0
  8
YODOROGO
 10
7441.4010853229793
 20
411.00000000000023
 30
0.0
 11
7441.4010853229793
 21
395.0
 31
0.0
1001
AUTOCAD_POSTSCRIPT_FIGURE
1002
{
1000
PSFILL
1000
Grayscale
1000
Grayscale
1070
    25
1002
}
  0
LINE
  5
145B1
  8
YODOROGO
 10
7441.4010853229793
 20
395.0
 30
0.0
 11
7457.4010853229793
 21
395.0
 31
0.0
1001
AUTOCAD_POSTSCRIPT_FIGURE
1002
{
1000
PSFILL
1000
Grayscale
1000
Grayscale
1070
    25
1002
}
  0
LINE
  5
145B2
  8
YODOROGO
 10
7457.4010853229793
 20
395.0
 30
0.0
 11
7457.4010853229793
 21
411.00000000000023
 31
0.0
1001
AUTOCAD_POSTSCRIPT_FIGURE
1002
{
1000
PSFILL
1000
Grayscale
1000
Grayscale
1070
    25
1002
}
  0
LINE
  5
145B3
  8
YODOROGO
 10
7457.4010853229793
 20
411.00000000000023
 30
0.0
 11
7480.4010853229784
 21
411.00000000000023
 31
0.0
1001
AUTOCAD_POSTSCRIPT_FIGURE
1002
{
1000
PSFILL
1000
Grayscale
1000
Grayscale
1070
    25
1002
}
  0
LINE
  5
145B4
  8
YODOROGO
 10
7480.4010853229784
 20
411.00000000000023
 30
0.0
 11
7480.4010853229784
 21
395.0
 31
0.0
1001
AUTOCAD_POSTSCRIPT_FIGURE
1002
{
1000
PSFILL
1000
Grayscale
1000
Grayscale
1070
    25
1002
}
  0
LINE
  5
145B5
  8
YODOROGO
 10
7480.4010853229784
 20
395.0
 30
0.0
 11
7494.4010853229802
 21
395.0
 31
0.0
1001
AUTOCAD_POSTSCRIPT_FIGURE
1002
{
1000
PSFILL
1000
Grayscale
1000
Grayscale
1070
    25
1002
}
  0
LINE
  5
145B6
  8
YODOROGO
 10
7494.4010853229802
 20
395.0
 30
0.0
 11
7494.4010853229802
 21
423.00000000000011
 31
0.0
1001
AUTOCAD_POSTSCRIPT_FIGURE
1002
{
1000
PSFILL
1000
Grayscale
1000
Grayscale
1070
    25
1002
}
  0
LINE
  5
145B7
  8
YODOROGO
 10
7494.4010853229802
 20
423.00000000000011
 30
0.0
 11
7457.4010853229793
 21
423.00000000000011
 31
0.0
1001
AUTOCAD_POSTSCRIPT_FIGURE
1002
{
1000
PSFILL
1000
Grayscale
1000
Grayscale
1070
    25
1002
}
  0
LINE
  5
145B8
  8
YODOROGO
 10
7457.4010853229793
 20
423.00000000000011
 30
0.0
 11
7457.4010853229793
 21
433.0
 31
0.0
1001
AUTOCAD_POSTSCRIPT_FIGURE
1002
{
1000
PSFILL
1000
Grayscale
1000
Grayscale
1070
    25
1002
}
  0
LINE
  5
145B9
  8
YODOROGO
 10
7457.4010853229793
 20
433.0
 30
0.0
 11
7494.4010853229802
 21
433.0
 31
0.0
1001
AUTOCAD_POSTSCRIPT_FIGURE
1002
{
1000
PSFILL
1000
Grayscale
1000
Grayscale
1070
    25
1002
}
  0
LINE
  5
145BA
  8
YODOROGO
 10
7494.4010853229802
 20
433.0
 30
0.0
 11
7494.4010853229802
 21
445.0
 31
0.0
1001
AUTOCAD_POSTSCRIPT_FIGURE
1002
{
1000
PSFILL
1000
Grayscale
1000
Grayscale
1070
    25
1002
}
  0
LINE
  5
145BB
  8
YODOROGO
 10
7494.4010853229802
 20
445.0
 30
0.0
 11
7457.4010853229793
 21
445.0
 31
0.0
1001
AUTOCAD_POSTSCRIPT_FIGURE
1002
{
1000
PSFILL
1000
Grayscale
1000
Grayscale
1070
    25
1002
}
  0
LINE
  5
145BC
  8
YODOROGO
 10
7457.4010853229793
 20
445.0
 30
0.0
 11
7457.4010853229793
 21
455.0
 31
0.0
1001
AUTOCAD_POSTSCRIPT_FIGURE
1002
{
1000
PSFILL
1000
Grayscale
1000
Grayscale
1070
    25
1002
}
  0
LINE
  5
145BD
  8
YODOROGO
 10
7457.4010853229793
 20
455.0
 30
0.0
 11
7494.4010853229802
 21
455.0
 31
0.0
1001
AUTOCAD_POSTSCRIPT_FIGURE
1002
{
1000
PSFILL
1000
Grayscale
1000
Grayscale
1070
    25
1002
}
  0
LINE
  5
145BE
  8
YODOROGO
 10
7494.4010853229802
 20
455.0
 30
0.0
 11
7494.4010853229802
 21
466.99999999999989
 31
0.0
1001
AUTOCAD_POSTSCRIPT_FIGURE
1002
{
1000
PSFILL
1000
Grayscale
1000
Grayscale
1070
    25
1002
}
  0
LINE
  5
145BF
  8
YODOROGO
 10
7494.4010853229802
 20
466.99999999999989
 30
0.0
 11
7457.4010853229793
 21
466.99999999999989
 31
0.0
1001
AUTOCAD_POSTSCRIPT_FIGURE
1002
{
1000
PSFILL
1000
Grayscale
1000
Grayscale
1070
    25
1002
}
  0
LINE
  5
145C0
  8
YODOROGO
 10
7457.4010853229793
 20
466.99999999999989
 30
0.0
 11
7457.4010853229793
 21
475.0
 31
0.0
1001
AUTOCAD_POSTSCRIPT_FIGURE
1002
{
1000
PSFILL
1000
Grayscale
1000
Grayscale
1070
    25
1002
}
  0
LINE
  5
145C1
  8
YODOROGO
 10
7457.4010853229793
 20
475.0
 30
0.0
 11
7441.4010853229793
 21
475.0
 31
0.0
1001
AUTOCAD_POSTSCRIPT_FIGURE
1002
{
1000
PSFILL
1000
Grayscale
1000
Grayscale
1070
    25
1002
}
  0
LINE
  5
145C2
  8
YODOROGO
 10
7441.4010853229793
 20
475.0
 30
0.0
 11
7441.4010853229793
 21
466.99999999999989
 31
0.0
1001
AUTOCAD_POSTSCRIPT_FIGURE
1002
{
1000
PSFILL
1000
Grayscale
1000
Grayscale
1070
    25
1002
}
  0
LINE
  5
145C3
  8
YODOROGO
 10
7441.4010853229793
 20
466.99999999999989
 30
0.0
 11
7416.4010853229802
 21
466.99999999999989
 31
0.0
1001
AUTOCAD_POSTSCRIPT_FIGURE
1002
{
1000
PSFILL
1000
Grayscale
1000
Grayscale
1070
    25
1002
}
  0
LINE
  5
145C4
  8
YODOROGO
 10
7416.4010853229802
 20
466.99999999999989
 30
0.0
 11
7416.4010853229802
 21
475.0
 31
0.0
1001
AUTOCAD_POSTSCRIPT_FIGURE
1002
{
1000
PSFILL
1000
Grayscale
1000
Grayscale
1070
    25
1002
}
  0
LINE
  5
145C5
  8
YODOROGO
 10
7416.4010853229802
 20
475.0
 30
0.0
 11
7404.4010853229793
 21
475.0
 31
0.0
1001
AUTOCAD_POSTSCRIPT_FIGURE
1002
{
1000
PSFILL
1000
Grayscale
1000
Grayscale
1070
    25
1002
}
  0
LINE
  5
145C6
  8
YODOROGO
 10
7404.4010853229793
 20
475.0
 30
0.0
 11
7404.4010853229793
 21
455.0
 31
0.0
1001
AUTOCAD_POSTSCRIPT_FIGURE
1002
{
1000
PSFILL
1000
Grayscale
1000
Grayscale
1070
    25
1002
}
  0
LINE
  5
145C7
  8
YODOROGO
 10
7404.4010853229793
 20
455.0
 30
0.0
 11
7441.4010853229793
 21
455.0
 31
0.0
1001
AUTOCAD_POSTSCRIPT_FIGURE
1002
{
1000
PSFILL
1000
Grayscale
1000
Grayscale
1070
    25
1002
}
  0
LINE
  5
145C8
  8
YODOROGO
 10
7441.4010853229793
 20
455.0
 30
0.0
 11
7441.4010853229793
 21
445.0
 31
0.0
1001
AUTOCAD_POSTSCRIPT_FIGURE
1002
{
1000
PSFILL
1000
Grayscale
1000
Grayscale
1070
    25
1002
}
  0
LINE
  5
145C9
  8
YODOROGO
 10
7441.4010853229793
 20
445.0
 30
0.0
 11
7404.4010853229793
 21
445.0
 31
0.0
1001
AUTOCAD_POSTSCRIPT_FIGURE
1002
{
1000
PSFILL
1000
Grayscale
1000
Grayscale
1070
    25
1002
}
  0
LINE
  5
145CA
  8
YODOROGO
 10
7404.4010853229793
 20
445.0
 30
0.0
 11
7404.4010853229793
 21
433.0
 31
0.0
1001
AUTOCAD_POSTSCRIPT_FIGURE
1002
{
1000
PSFILL
1000
Grayscale
1000
Grayscale
1070
    25
1002
}
  0
LINE
  5
145CB
  8
YODOROGO
 10
7404.4010853229793
 20
433.0
 30
0.0
 11
7441.4010853229793
 21
433.0
 31
0.0
1001
AUTOCAD_POSTSCRIPT_FIGURE
1002
{
1000
PSFILL
1000
Grayscale
1000
Grayscale
1070
    25
1002
}
  0
LINE
  5
145CC
  8
YODOROGO
 10
7441.4010853229793
 20
433.0
 30
0.0
 11
7441.4010853229793
 21
423.00000000000011
 31
0.0
1001
AUTOCAD_POSTSCRIPT_FIGURE
1002
{
1000
PSFILL
1000
Grayscale
1000
Grayscale
1070
    25
1002
}
  0
LINE
  5
145CD
  8
YODOROGO
 10
7441.4010853229793
 20
423.00000000000011
 30
0.0
 11
7404.4010853229793
 21
423.00000000000011
 31
0.0
1001
AUTOCAD_POSTSCRIPT_FIGURE
1002
{
1000
PSFILL
1000
Grayscale
1000
Grayscale
1070
    25
1002
}
  0
LINE
  5
145CE
  8
YODOROGO
 10
7404.4010853229793
 20
423.00000000000011
 30
0.0
 11
7404.4010853229793
 21
395.0
 31
0.0
1001
AUTOCAD_POSTSCRIPT_FIGURE
1002
{
1000
PSFILL
1000
Grayscale
1000
Grayscale
1070
    25
1002
}
  0
LINE
  5
145CF
  8
YODOROGO
 10
7404.4010853229793
 20
395.0
 30
0.0
 11
7418.4010853229802
 21
395.0
 31
0.0
1001
AUTOCAD_POSTSCRIPT_FIGURE
1002
{
1000
PSFILL
1000
Grayscale
1000
Grayscale
1070
    25
1002
}
  0
LINE
  5
145D0
  8
YODOROGO
 10
7418.4010853229802
 20
395.0
 30
0.0
 11
7418.4010853229802
 21
411.00000000000023
 31
0.0
1001
AUTOCAD_POSTSCRIPT_FIGURE
1002
{
1000
PSFILL
1000
Grayscale
1000
Grayscale
1070
    25
1002
}
  0
LINE
  5
145D1
  8
YODOROGO
 10
7108.4010853229775
 20
435.0
 30
0.0
 11
7108.4010853229775
 21
465.0
 31
0.0
  0
LINE
  5
145D2
  8
YODOROGO
 10
7108.4010853229775
 20
465.0
 30
0.0
 11
7146.4010853229793
 21
465.0
 31
0.0
  0
LINE
  5
145D3
  8
YODOROGO
 10
7146.4010853229793
 20
465.0
 30
0.0
 11
7146.4010853229793
 21
475.0
 31
0.0
  0
LINE
  5
145D4
  8
YODOROGO
 10
7146.4010853229793
 20
475.0
 30
0.0
 11
7164.4010853229802
 21
475.0
 31
0.0
  0
LINE
  5
145D5
  8
YODOROGO
 10
7164.4010853229802
 20
475.0
 30
0.0
 11
7164.4010853229802
 21
465.0
 31
0.0
  0
LINE
  5
145D6
  8
YODOROGO
 10
7164.4010853229802
 20
465.0
 30
0.0
 11
7188.4010853229784
 21
465.0
 31
0.0
  0
ARC
  5
145D7
  8
YODOROGO
 10
7188.4010853229784
 20
455.0
 30
0.0
 40
10.0
 50
0.0
 51
90.0
  0
LINE
  5
145D8
  8
YODOROGO
 10
7198.4010853229775
 20
455.0
 30
0.0
 11
7198.4010853229775
 21
435.0
 31
0.0
  0
LINE
  5
145D9
  8
YODOROGO
 10
7198.4010853229775
 20
435.0
 30
0.0
 11
7182.4010853229793
 21
435.0
 31
0.0
  0
LINE
  5
145DA
  8
YODOROGO
 10
7182.4010853229793
 20
435.0
 30
0.0
 11
7182.4010853229793
 21
448.99999999999972
 31
0.0
  0
LINE
  5
145DB
  8
YODOROGO
 10
7182.4010853229793
 20
448.99999999999972
 30
0.0
 11
7124.4010853229784
 21
448.99999999999972
 31
0.0
  0
LINE
  5
145DC
  8
YODOROGO
 10
7124.4010853229784
 20
448.99999999999972
 30
0.0
 11
7124.4010853229784
 21
435.0
 31
0.0
  0
LINE
  5
145DD
  8
YODOROGO
 10
7124.4010853229784
 20
435.0
 30
0.0
 11
7108.4010853229775
 21
435.0
 31
0.0
  0
LINE
  5
145DE
  8
YODOROGO
 10
7108.4010853229775
 20
405.00000000000063
 30
0.0
 11
7146.4010853229793
 21
405.00000000000063
 31
0.0
  0
LINE
  5
145DF
  8
YODOROGO
 10
7146.4010853229793
 20
405.00000000000063
 30
0.0
 11
7146.4010853229793
 21
355.0
 31
0.0
  0
ARC
  5
145E0
  8
YODOROGO
 10
7140.4010853229811
 20
354.99999999999937
 30
0.0
 40
5.9999999999990896
 50
270.0
 51
0.0000000000054281
  0
LINE
  5
145E1
  8
YODOROGO
 10
7140.4010853229811
 20
348.99999999999977
 30
0.0
 11
7134.4010853229775
 21
348.99999999999977
 31
0.0
  0
ARC
  5
145E2
  8
YODOROGO
 10
7134.4010853229775
 20
358.99999999999977
 30
0.0
 40
10.0
 50
180.0
 51
270.0
  0
LINE
  5
145E3
  8
YODOROGO
 10
7124.4010853229784
 20
358.99999999999977
 30
0.0
 11
7124.4010853229784
 21
395.0
 31
0.0
  0
LINE
  5
145E4
  8
YODOROGO
 10
7124.4010853229784
 20
395.0
 30
0.0
 11
7108.4010853229775
 21
395.0
 31
0.0
  0
LINE
  5
145E5
  8
YODOROGO
 10
7108.4010853229775
 20
395.0
 30
0.0
 11
7108.4010853229775
 21
345.0
 31
0.0
  0
ARC
  5
145E6
  8
YODOROGO
 10
7128.4010853229775
 20
345.0
 30
0.0
 40
20.0
 50
180.0
 51
270.0
  0
LINE
  5
145E7
  8
YODOROGO
 10
7128.4010853229775
 20
325.0
 30
0.0
 11
7198.4010853229775
 21
325.0
 31
0.0
  0
LINE
  5
145E8
  8
YODOROGO
 10
7198.4010853229775
 20
325.0
 30
0.0
 11
7198.4010853229775
 21
348.99999999999977
 31
0.0
  0
LINE
  5
145E9
  8
YODOROGO
 10
7198.4010853229775
 20
348.99999999999977
 30
0.0
 11
7164.4010853229775
 21
348.99999999999977
 31
0.0
  0
LINE
  5
145EA
  8
YODOROGO
 10
7164.4010853229775
 20
348.99999999999977
 30
0.0
 11
7164.4010853229775
 21
369.00000000000028
 31
0.0
  0
LINE
  5
145EB
  8
YODOROGO
 10
7164.4010853229775
 20
369.00000000000028
 30
0.0
 11
7198.4010853229775
 21
369.00000000000028
 31
0.0
  0
LINE
  5
145EC
  8
YODOROGO
 10
7198.4010853229775
 20
369.00000000000028
 30
0.0
 11
7198.4010853229775
 21
385.0
 31
0.0
  0
LINE
  5
145ED
  8
YODOROGO
 10
7198.4010853229775
 20
385.0
 30
0.0
 11
7164.4010853229775
 21
385.0
 31
0.0
  0
LINE
  5
145EE
  8
YODOROGO
 10
7164.4010853229775
 20
385.0
 30
0.0
 11
7164.4010853229775
 21
405.00000000000063
 31
0.0
  0
LINE
  5
145EF
  8
YODOROGO
 10
7164.4010853229775
 20
405.00000000000063
 30
0.0
 11
7198.4010853229775
 21
405.00000000000063
 31
0.0
  0
LINE
  5
145F0
  8
YODOROGO
 10
7198.4010853229775
 20
405.00000000000063
 30
0.0
 11
7198.4010853229775
 21
423.00000000000011
 31
0.0
  0
LINE
  5
145F1
  8
YODOROGO
 10
7198.4010853229775
 20
423.00000000000011
 30
0.0
 11
7108.4010853229775
 21
423.00000000000011
 31
0.0
  0
LINE
  5
145F2
  8
YODOROGO
 10
7108.4010853229775
 20
423.00000000000011
 30
0.0
 11
7108.4010853229775
 21
405.00000000000063
 31
0.0
  0
LINE
  5
145F3
  8
YODOROGO
 10
7100.4010853229784
 20
424.2820323027546
 30
0.0
 11
7100.4010853229784
 21
406.2820323027546
 31
0.0
1001
AUTOCAD_POSTSCRIPT_FIGURE
1002
{
1000
PSFILL
1000
Grayscale
1000
Grayscale
1070
   100
1002
}
  0
LINE
  5
145F4
  8
YODOROGO
 10
7100.4010853229784
 20
406.2820323027546
 30
0.0
 11
7064.4010853229802
 21
416.99999999999989
 31
0.0
1001
AUTOCAD_POSTSCRIPT_FIGURE
1002
{
1000
PSFILL
1000
Grayscale
1000
Grayscale
1070
   100
1002
}
  0
LINE
  5
145F5
  8
YODOROGO
 10
7064.4010853229802
 20
416.99999999999989
 30
0.0
 11
7064.4010853229802
 21
435.0
 31
0.0
1001
AUTOCAD_POSTSCRIPT_FIGURE
1002
{
1000
PSFILL
1000
Grayscale
1000
Grayscale
1070
   100
1002
}
  0
LINE
  5
145F6
  8
YODOROGO
 10
7064.4010853229802
 20
435.0
 30
0.0
 11
7100.4010853229784
 21
424.2820323027546
 31
0.0
1001
AUTOCAD_POSTSCRIPT_FIGURE
1002
{
1000
PSFILL
1000
Grayscale
1000
Grayscale
1070
   100
1002
}
  0
LINE
  5
145F7
  8
YODOROGO
 10
6994.4010853229802
 20
405.0
 30
0.0
 11
6994.4010853229802
 21
410.9999999999996
 31
0.0
  0
LINE
  5
145F8
  8
YODOROGO
 10
6994.4010853229802
 20
410.9999999999996
 30
0.0
 11
7005.4591951532184
 21
414.23096079125742
 31
0.0
  0
LINE
  5
145F9
  8
YODOROGO
 10
7005.4591951532184
 20
414.23096079125742
 30
0.0
 11
7005.4591951532138
 21
436.20471312675301
 31
0.0
  0
LINE
  5
145FA
  8
YODOROGO
 10
7005.4591951532138
 20
436.20471312675301
 30
0.0
 11
6994.4010853229802
 21
436.20471312675301
 31
0.0
  0
LINE
  5
145FB
  8
YODOROGO
 10
6994.4010853229802
 20
436.20471312675301
 30
0.0
 11
6994.4010853229802
 21
441.20471312675249
 31
0.0
  0
LINE
  5
145FC
  8
YODOROGO
 10
6994.4010853229802
 20
441.20471312675249
 30
0.0
 11
7019.5173049834511
 21
441.20471312675249
 31
0.0
  0
LINE
  5
145FD
  8
YODOROGO
 10
7019.5173049834511
 20
441.20471312675249
 30
0.0
 11
7019.5173049834511
 21
436.20471312675301
 31
0.0
  0
LINE
  5
145FE
  8
YODOROGO
 10
7019.5173049834511
 20
436.20471312675301
 30
0.0
 11
7008.4591951532157
 21
436.20471312675301
 31
0.0
  0
LINE
  5
145FF
  8
YODOROGO
 10
7008.4591951532157
 20
436.20471312675301
 30
0.0
 11
7008.4591951532157
 21
414.76685917611968
 31
0.0
  0
LINE
  5
14600
  8
YODOROGO
 10
7008.4591951532157
 20
414.76685917611968
 30
0.0
 11
7019.5173049834511
 21
417.72987077494622
 31
0.0
  0
LINE
  5
14601
  8
YODOROGO
 10
7019.5173049834511
 20
417.72987077494622
 30
0.0
 11
7019.5173049834484
 21
411.99781996737659
 31
0.0
  0
LINE
  5
14602
  8
YODOROGO
 10
7019.5173049834484
 20
411.99781996737659
 30
0.0
 11
6994.4010853229802
 21
405.0
 31
0.0
  0
LINE
  5
14603
  8
YODOROGO
 10
7032.4010853229793
 20
405.0
 30
0.0
 11
7034.4010853229793
 21
405.0
 31
0.0
1001
AUTOCAD_POSTSCRIPT_FIGURE
1002
{
1000
PSFILL
1000
Grayscale
1000
Grayscale
1070
   100
1002
}
  0
LINE
  5
14604
  8
YODOROGO
 10
7034.4010853229793
 20
405.0
 30
0.0
 11
7024.7257467183535
 21
453.00000000000011
 31
0.0
1001
AUTOCAD_POSTSCRIPT_FIGURE
1002
{
1000
PSFILL
1000
Grayscale
1000
Grayscale
1070
   100
1002
}
  0
LINE
  5
14605
  8
YODOROGO
 10
7024.7257467183535
 20
453.00000000000011
 30
0.0
 11
7034.4010853229793
 21
453.00000000000011
 31
0.0
1001
AUTOCAD_POSTSCRIPT_FIGURE
1002
{
1000
PSFILL
1000
Grayscale
1000
Grayscale
1070
   100
1002
}
  0
LINE
  5
14606
  8
YODOROGO
 10
7034.4010853229793
 20
453.00000000000011
 30
0.0
 11
7034.4010853229793
 21
456.99999999999989
 31
0.0
1001
AUTOCAD_POSTSCRIPT_FIGURE
1002
{
1000
PSFILL
1000
Grayscale
1000
Grayscale
1070
   100
1002
}
  0
LINE
  5
14607
  8
YODOROGO
 10
7034.4010853229793
 20
456.99999999999989
 30
0.0
 11
7034.4010853229793
 21
463.00000000000011
 31
0.0
1001
AUTOCAD_POSTSCRIPT_FIGURE
1002
{
1000
PSFILL
1000
Grayscale
1000
Grayscale
1070
   100
1002
}
  0
LINE
  5
14608
  8
YODOROGO
 10
7034.4010853229793
 20
463.00000000000011
 30
0.0
 11
7030.4010853229784
 21
463.00000000000011
 31
0.0
1001
AUTOCAD_POSTSCRIPT_FIGURE
1002
{
1000
PSFILL
1000
Grayscale
1000
Grayscale
1070
   100
1002
}
  0
LINE
  5
14609
  8
YODOROGO
 10
7030.4010853229784
 20
463.00000000000011
 30
0.0
 11
7030.4010853229784
 21
456.99999999999989
 31
0.0
1001
AUTOCAD_POSTSCRIPT_FIGURE
1002
{
1000
PSFILL
1000
Grayscale
1000
Grayscale
1070
   100
1002
}
  0
LINE
  5
1460A
  8
YODOROGO
 10
7030.4010853229784
 20
456.99999999999989
 30
0.0
 11
7023.9517196299839
 21
456.99999999999989
 31
0.0
1001
AUTOCAD_POSTSCRIPT_FIGURE
1002
{
1000
PSFILL
1000
Grayscale
1000
Grayscale
1070
   100
1002
}
  0
LINE
  5
1460B
  8
YODOROGO
 10
7023.9517196299839
 20
456.99999999999989
 30
0.0
 11
7022.7906789974277
 21
463.00000000000011
 31
0.0
1001
AUTOCAD_POSTSCRIPT_FIGURE
1002
{
1000
PSFILL
1000
Grayscale
1000
Grayscale
1070
   100
1002
}
  0
LINE
  5
1460C
  8
YODOROGO
 10
7022.7906789974277
 20
463.00000000000011
 30
0.0
 11
7017.7906789974268
 21
463.00000000000011
 31
0.0
1001
AUTOCAD_POSTSCRIPT_FIGURE
1002
{
1000
PSFILL
1000
Grayscale
1000
Grayscale
1070
   100
1002
}
  0
LINE
  5
1460D
  8
YODOROGO
 10
7017.7906789974268
 20
463.00000000000011
 30
0.0
 11
7019.151719629981
 21
456.99999999999989
 31
0.0
1001
AUTOCAD_POSTSCRIPT_FIGURE
1002
{
1000
PSFILL
1000
Grayscale
1000
Grayscale
1070
   100
1002
}
  0
LINE
  5
1460E
  8
YODOROGO
 10
7019.151719629981
 20
456.99999999999989
 30
0.0
 11
6994.4010853229802
 21
456.99999999999989
 31
0.0
1001
AUTOCAD_POSTSCRIPT_FIGURE
1002
{
1000
PSFILL
1000
Grayscale
1000
Grayscale
1070
   100
1002
}
  0
LINE
  5
1460F
  8
YODOROGO
 10
6994.4010853229802
 20
456.99999999999989
 30
0.0
 11
6994.4010853229802
 21
453.00000000000011
 31
0.0
1001
AUTOCAD_POSTSCRIPT_FIGURE
1002
{
1000
PSFILL
1000
Grayscale
1000
Grayscale
1070
   100
1002
}
  0
LINE
  5
14610
  8
YODOROGO
 10
6994.4010853229802
 20
453.00000000000011
 30
0.0
 11
7020.0590800516857
 21
453.00000000000011
 31
0.0
1001
AUTOCAD_POSTSCRIPT_FIGURE
1002
{
1000
PSFILL
1000
Grayscale
1000
Grayscale
1070
   100
1002
}
  0
LINE
  5
14611
  8
YODOROGO
 10
7020.0590800516857
 20
453.00000000000011
 30
0.0
 11
7032.4010853229793
 21
405.0
 31
0.0
1001
AUTOCAD_POSTSCRIPT_FIGURE
1002
{
1000
PSFILL
1000
Grayscale
1000
Grayscale
1070
   100
1002
}
  0
LINE
  5
14612
  8
YODOROGO
 10
6944.4010853229793
 20
429.00681288059621
 30
0.0
 11
6944.4010853229793
 21
433.00681288059587
 31
0.0
1001
AUTOCAD_POSTSCRIPT_FIGURE
1002
{
1000
PSFILL
1000
Grayscale
1000
Grayscale
1070
   100
1002
}
  0
LINE
  5
14613
  8
YODOROGO
 10
6944.4010853229793
 20
433.00681288059587
 30
0.0
 11
6950.4010853229793
 21
446.75927109110432
 31
0.0
1001
AUTOCAD_POSTSCRIPT_FIGURE
1002
{
1000
PSFILL
1000
Grayscale
1000
Grayscale
1070
   100
1002
}
  0
LINE
  5
14614
  8
YODOROGO
 10
6950.4010853229793
 20
446.75927109110432
 30
0.0
 11
6950.4010853229793
 21
453.00000000000011
 31
0.0
1001
AUTOCAD_POSTSCRIPT_FIGURE
1002
{
1000
PSFILL
1000
Grayscale
1000
Grayscale
1070
   100
1002
}
  0
LINE
  5
14615
  8
YODOROGO
 10
6950.4010853229793
 20
453.00000000000011
 30
0.0
 11
6944.4010853229793
 21
453.00000000000011
 31
0.0
1001
AUTOCAD_POSTSCRIPT_FIGURE
1002
{
1000
PSFILL
1000
Grayscale
1000
Grayscale
1070
   100
1002
}
  0
LINE
  5
14616
  8
YODOROGO
 10
6944.4010853229793
 20
453.00000000000011
 30
0.0
 11
6944.4010853229793
 21
456.99999999999989
 31
0.0
1001
AUTOCAD_POSTSCRIPT_FIGURE
1002
{
1000
PSFILL
1000
Grayscale
1000
Grayscale
1070
   100
1002
}
  0
LINE
  5
14617
  8
YODOROGO
 10
6944.4010853229793
 20
456.99999999999989
 30
0.0
 11
6950.4010853229793
 21
456.99999999999989
 31
0.0
1001
AUTOCAD_POSTSCRIPT_FIGURE
1002
{
1000
PSFILL
1000
Grayscale
1000
Grayscale
1070
   100
1002
}
  0
LINE
  5
14618
  8
YODOROGO
 10
6950.4010853229793
 20
456.99999999999989
 30
0.0
 11
6950.4010853229793
 21
463.00000000000011
 31
0.0
1001
AUTOCAD_POSTSCRIPT_FIGURE
1002
{
1000
PSFILL
1000
Grayscale
1000
Grayscale
1070
   100
1002
}
  0
LINE
  5
14619
  8
YODOROGO
 10
6950.4010853229793
 20
463.00000000000011
 30
0.0
 11
6954.4010853229793
 21
463.00000000000011
 31
0.0
1001
AUTOCAD_POSTSCRIPT_FIGURE
1002
{
1000
PSFILL
1000
Grayscale
1000
Grayscale
1070
   100
1002
}
  0
LINE
  5
1461A
  8
YODOROGO
 10
6954.4010853229793
 20
463.00000000000011
 30
0.0
 11
6954.4010853229793
 21
456.99999999999989
 31
0.0
1001
AUTOCAD_POSTSCRIPT_FIGURE
1002
{
1000
PSFILL
1000
Grayscale
1000
Grayscale
1070
   100
1002
}
  0
LINE
  5
1461B
  8
YODOROGO
 10
6954.4010853229793
 20
456.99999999999989
 30
0.0
 11
6962.4010853229793
 21
456.99999999999989
 31
0.0
1001
AUTOCAD_POSTSCRIPT_FIGURE
1002
{
1000
PSFILL
1000
Grayscale
1000
Grayscale
1070
   100
1002
}
  0
LINE
  5
1461C
  8
YODOROGO
 10
6962.4010853229793
 20
456.99999999999989
 30
0.0
 11
6962.4010853229793
 21
463.00000000000011
 31
0.0
1001
AUTOCAD_POSTSCRIPT_FIGURE
1002
{
1000
PSFILL
1000
Grayscale
1000
Grayscale
1070
   100
1002
}
  0
LINE
  5
1461D
  8
YODOROGO
 10
6962.4010853229793
 20
463.00000000000011
 30
0.0
 11
6966.4010853229802
 21
463.00000000000011
 31
0.0
1001
AUTOCAD_POSTSCRIPT_FIGURE
1002
{
1000
PSFILL
1000
Grayscale
1000
Grayscale
1070
   100
1002
}
  0
LINE
  5
1461E
  8
YODOROGO
 10
6966.4010853229802
 20
463.00000000000011
 30
0.0
 11
6966.4010853229802
 21
456.99999999999989
 31
0.0
1001
AUTOCAD_POSTSCRIPT_FIGURE
1002
{
1000
PSFILL
1000
Grayscale
1000
Grayscale
1070
   100
1002
}
  0
LINE
  5
1461F
  8
YODOROGO
 10
6966.4010853229802
 20
456.99999999999989
 30
0.0
 11
6972.4010853229802
 21
456.99999999999989
 31
0.0
1001
AUTOCAD_POSTSCRIPT_FIGURE
1002
{
1000
PSFILL
1000
Grayscale
1000
Grayscale
1070
   100
1002
}
  0
LINE
  5
14620
  8
YODOROGO
 10
6972.4010853229802
 20
456.99999999999989
 30
0.0
 11
6972.4010853229802
 21
463.00000000000011
 31
0.0
1001
AUTOCAD_POSTSCRIPT_FIGURE
1002
{
1000
PSFILL
1000
Grayscale
1000
Grayscale
1070
   100
1002
}
  0
LINE
  5
14621
  8
YODOROGO
 10
6972.4010853229802
 20
463.00000000000011
 30
0.0
 11
6976.4010853229793
 21
463.00000000000011
 31
0.0
1001
AUTOCAD_POSTSCRIPT_FIGURE
1002
{
1000
PSFILL
1000
Grayscale
1000
Grayscale
1070
   100
1002
}
  0
LINE
  5
14622
  8
YODOROGO
 10
6976.4010853229793
 20
463.00000000000011
 30
0.0
 11
6976.4010853229793
 21
456.99999999999989
 31
0.0
1001
AUTOCAD_POSTSCRIPT_FIGURE
1002
{
1000
PSFILL
1000
Grayscale
1000
Grayscale
1070
   100
1002
}
  0
LINE
  5
14623
  8
YODOROGO
 10
6976.4010853229793
 20
456.99999999999989
 30
0.0
 11
6984.4010853229784
 21
456.99999999999989
 31
0.0
1001
AUTOCAD_POSTSCRIPT_FIGURE
1002
{
1000
PSFILL
1000
Grayscale
1000
Grayscale
1070
   100
1002
}
  0
LINE
  5
14624
  8
YODOROGO
 10
6984.4010853229784
 20
456.99999999999989
 30
0.0
 11
6984.4010853229784
 21
453.00000000000011
 31
0.0
1001
AUTOCAD_POSTSCRIPT_FIGURE
1002
{
1000
PSFILL
1000
Grayscale
1000
Grayscale
1070
   100
1002
}
  0
LINE
  5
14625
  8
YODOROGO
 10
6984.4010853229784
 20
453.00000000000011
 30
0.0
 11
6976.4010853229793
 21
453.00000000000011
 31
0.0
1001
AUTOCAD_POSTSCRIPT_FIGURE
1002
{
1000
PSFILL
1000
Grayscale
1000
Grayscale
1070
   100
1002
}
  0
LINE
  5
14626
  8
YODOROGO
 10
6976.4010853229793
 20
453.00000000000011
 30
0.0
 11
6976.4010853229793
 21
443.20471312675301
 31
0.0
1001
AUTOCAD_POSTSCRIPT_FIGURE
1002
{
1000
PSFILL
1000
Grayscale
1000
Grayscale
1070
   100
1002
}
  0
LINE
  5
14627
  8
YODOROGO
 10
6976.4010853229793
 20
443.20471312675301
 30
0.0
 11
6984.4010853229784
 21
443.20471312675301
 31
0.0
1001
AUTOCAD_POSTSCRIPT_FIGURE
1002
{
1000
PSFILL
1000
Grayscale
1000
Grayscale
1070
   100
1002
}
  0
LINE
  5
14628
  8
YODOROGO
 10
6984.4010853229784
 20
443.20471312675301
 30
0.0
 11
6984.4010853229784
 21
439.20471312675261
 31
0.0
1001
AUTOCAD_POSTSCRIPT_FIGURE
1002
{
1000
PSFILL
1000
Grayscale
1000
Grayscale
1070
   100
1002
}
  0
LINE
  5
14629
  8
YODOROGO
 10
6984.4010853229784
 20
439.20471312675261
 30
0.0
 11
6976.401085322982
 21
439.20471312675312
 31
0.0
1001
AUTOCAD_POSTSCRIPT_FIGURE
1002
{
1000
PSFILL
1000
Grayscale
1000
Grayscale
1070
   100
1002
}
  0
LINE
  5
1462A
  8
YODOROGO
 10
6976.401085322982
 20
439.20471312675312
 30
0.0
 11
6976.4010853229793
 21
438.41487893238019
 31
0.0
1001
AUTOCAD_POSTSCRIPT_FIGURE
1002
{
1000
PSFILL
1000
Grayscale
1000
Grayscale
1070
   100
1002
}
  0
LINE
  5
1462B
  8
YODOROGO
 10
6976.4010853229793
 20
438.41487893238019
 30
0.0
 11
6984.4010853229784
 21
421.30637118303241
 31
0.0
1001
AUTOCAD_POSTSCRIPT_FIGURE
1002
{
1000
PSFILL
1000
Grayscale
1000
Grayscale
1070
   100
1002
}
  0
LINE
  5
1462C
  8
YODOROGO
 10
6984.4010853229784
 20
421.30637118303241
 30
0.0
 11
6984.4010853229784
 21
417.30637118303201
 31
0.0
1001
AUTOCAD_POSTSCRIPT_FIGURE
1002
{
1000
PSFILL
1000
Grayscale
1000
Grayscale
1070
   100
1002
}
  0
LINE
  5
1462D
  8
YODOROGO
 10
6984.4010853229784
 20
417.30637118303201
 30
0.0
 11
6976.4010853229793
 21
430.41487893237962
 31
0.0
1001
AUTOCAD_POSTSCRIPT_FIGURE
1002
{
1000
PSFILL
1000
Grayscale
1000
Grayscale
1070
   100
1002
}
  0
LINE
  5
1462E
  8
YODOROGO
 10
6976.4010853229793
 20
430.41487893237962
 30
0.0
 11
6976.4010853229793
 21
405.0
 31
0.0
1001
AUTOCAD_POSTSCRIPT_FIGURE
1002
{
1000
PSFILL
1000
Grayscale
1000
Grayscale
1070
   100
1002
}
  0
LINE
  5
1462F
  8
YODOROGO
 10
6976.4010853229793
 20
405.0
 30
0.0
 11
6972.4010853229802
 21
405.0
 31
0.0
1001
AUTOCAD_POSTSCRIPT_FIGURE
1002
{
1000
PSFILL
1000
Grayscale
1000
Grayscale
1070
   100
1002
}
  0
LINE
  5
14630
  8
YODOROGO
 10
6972.4010853229802
 20
405.0
 30
0.0
 11
6972.4010853229802
 21
429.96742038378733
 31
0.0
1001
AUTOCAD_POSTSCRIPT_FIGURE
1002
{
1000
PSFILL
1000
Grayscale
1000
Grayscale
1070
   100
1002
}
  0
LINE
  5
14631
  8
YODOROGO
 10
6972.4010853229802
 20
429.96742038378733
 30
0.0
 11
6962.4010853229793
 21
417.30637118303201
 31
0.0
1001
AUTOCAD_POSTSCRIPT_FIGURE
1002
{
1000
PSFILL
1000
Grayscale
1000
Grayscale
1070
   100
1002
}
  0
LINE
  5
14632
  8
YODOROGO
 10
6962.4010853229793
 20
417.30637118303201
 30
0.0
 11
6962.4010853229793
 21
421.30637118303241
 31
0.0
1001
AUTOCAD_POSTSCRIPT_FIGURE
1002
{
1000
PSFILL
1000
Grayscale
1000
Grayscale
1070
   100
1002
}
  0
LINE
  5
14633
  8
YODOROGO
 10
6962.4010853229793
 20
421.30637118303241
 30
0.0
 11
6972.4010853229802
 21
437.9674203837879
 31
0.0
1001
AUTOCAD_POSTSCRIPT_FIGURE
1002
{
1000
PSFILL
1000
Grayscale
1000
Grayscale
1070
   100
1002
}
  0
LINE
  5
14634
  8
YODOROGO
 10
6972.4010853229802
 20
437.9674203837879
 30
0.0
 11
6972.4010853229802
 21
439.20471312675261
 31
0.0
1001
AUTOCAD_POSTSCRIPT_FIGURE
1002
{
1000
PSFILL
1000
Grayscale
1000
Grayscale
1070
   100
1002
}
  0
LINE
  5
14635
  8
YODOROGO
 10
6972.4010853229802
 20
439.20471312675261
 30
0.0
 11
6964.4010853229802
 21
439.20471312675261
 31
0.0
1001
AUTOCAD_POSTSCRIPT_FIGURE
1002
{
1000
PSFILL
1000
Grayscale
1000
Grayscale
1070
   100
1002
}
  0
LINE
  5
14636
  8
YODOROGO
 10
6964.4010853229802
 20
439.20471312675261
 30
0.0
 11
6964.4010853229802
 21
443.20471312675301
 31
0.0
1001
AUTOCAD_POSTSCRIPT_FIGURE
1002
{
1000
PSFILL
1000
Grayscale
1000
Grayscale
1070
   100
1002
}
  0
LINE
  5
14637
  8
YODOROGO
 10
6964.4010853229802
 20
443.20471312675301
 30
0.0
 11
6972.4010853229802
 21
443.20471312675301
 31
0.0
1001
AUTOCAD_POSTSCRIPT_FIGURE
1002
{
1000
PSFILL
1000
Grayscale
1000
Grayscale
1070
   100
1002
}
  0
LINE
  5
14638
  8
YODOROGO
 10
6972.4010853229802
 20
443.20471312675301
 30
0.0
 11
6972.4010853229802
 21
453.00000000000011
 31
0.0
1001
AUTOCAD_POSTSCRIPT_FIGURE
1002
{
1000
PSFILL
1000
Grayscale
1000
Grayscale
1070
   100
1002
}
  0
LINE
  5
14639
  8
YODOROGO
 10
6972.4010853229802
 20
453.00000000000011
 30
0.0
 11
6954.4010853229793
 21
453.00000000000011
 31
0.0
1001
AUTOCAD_POSTSCRIPT_FIGURE
1002
{
1000
PSFILL
1000
Grayscale
1000
Grayscale
1070
   100
1002
}
  0
LINE
  5
1463A
  8
YODOROGO
 10
6954.4010853229793
 20
453.00000000000011
 30
0.0
 11
6954.4010853229793
 21
447.5054589139944
 31
0.0
1001
AUTOCAD_POSTSCRIPT_FIGURE
1002
{
1000
PSFILL
1000
Grayscale
1000
Grayscale
1070
   100
1002
}
  0
LINE
  5
1463B
  8
YODOROGO
 10
6954.4010853229793
 20
447.5054589139944
 30
0.0
 11
6960.4010853229784
 21
438.97631546371201
 31
0.0
1001
AUTOCAD_POSTSCRIPT_FIGURE
1002
{
1000
PSFILL
1000
Grayscale
1000
Grayscale
1070
   100
1002
}
  0
LINE
  5
1463C
  8
YODOROGO
 10
6960.4010853229784
 20
438.97631546371201
 30
0.0
 11
6960.4010853229784
 21
434.97631546371218
 31
0.0
1001
AUTOCAD_POSTSCRIPT_FIGURE
1002
{
1000
PSFILL
1000
Grayscale
1000
Grayscale
1070
   100
1002
}
  0
LINE
  5
1463D
  8
YODOROGO
 10
6960.4010853229784
 20
434.97631546371218
 30
0.0
 11
6954.4010853229793
 21
441.50545891399469
 31
0.0
1001
AUTOCAD_POSTSCRIPT_FIGURE
1002
{
1000
PSFILL
1000
Grayscale
1000
Grayscale
1070
   100
1002
}
  0
LINE
  5
1463E
  8
YODOROGO
 10
6954.4010853229793
 20
441.50545891399469
 30
0.0
 11
6954.4010853229793
 21
405.0
 31
0.0
1001
AUTOCAD_POSTSCRIPT_FIGURE
1002
{
1000
PSFILL
1000
Grayscale
1000
Grayscale
1070
   100
1002
}
  0
LINE
  5
1463F
  8
YODOROGO
 10
6954.4010853229793
 20
405.0
 30
0.0
 11
6950.4010853229793
 21
405.0
 31
0.0
1001
AUTOCAD_POSTSCRIPT_FIGURE
1002
{
1000
PSFILL
1000
Grayscale
1000
Grayscale
1070
   100
1002
}
  0
LINE
  5
14640
  8
YODOROGO
 10
6950.4010853229793
 20
405.0
 30
0.0
 11
6950.4010853229793
 21
440.75927109110461
 31
0.0
1001
AUTOCAD_POSTSCRIPT_FIGURE
1002
{
1000
PSFILL
1000
Grayscale
1000
Grayscale
1070
   100
1002
}
  0
LINE
  5
14641
  8
YODOROGO
 10
6950.4010853229793
 20
440.75927109110461
 30
0.0
 11
6944.4010853229793
 21
429.00681288059621
 31
0.0
1001
AUTOCAD_POSTSCRIPT_FIGURE
1002
{
1000
PSFILL
1000
Grayscale
1000
Grayscale
1070
   100
1002
}
  0
LINE
  5
14642
  8
YODOROGO
 10
6946.4010853229793
 20
336.99999999999989
 30
0.0
 11
6982.4010853229802
 21
336.99999999999989
 31
0.0
1001
AUTOCAD_POSTSCRIPT_FIGURE
1002
{
1000
PSFILL
1000
Grayscale
1000
Grayscale
1070
   100
1002
}
  0
LINE
  5
14643
  8
YODOROGO
 10
6982.4010853229802
 20
336.99999999999989
 30
0.0
 11
6975.2662511977369
 21
352.12107856710128
 31
0.0
1001
AUTOCAD_POSTSCRIPT_FIGURE
1002
{
1000
PSFILL
1000
Grayscale
1000
Grayscale
1070
   100
1002
}
  0
LINE
  5
14644
  8
YODOROGO
 10
6975.2662511977369
 20
352.12107856710128
 30
0.0
 11
6971.2662511977387
 21
352.12107856710128
 31
0.0
1001
AUTOCAD_POSTSCRIPT_FIGURE
1002
{
1000
PSFILL
1000
Grayscale
1000
Grayscale
1070
   100
1002
}
  0
LINE
  5
14645
  8
YODOROGO
 10
6971.2662511977387
 20
352.12107856710128
 30
0.0
 11
6975.5136977021612
 21
341.99999999999989
 31
0.0
1001
AUTOCAD_POSTSCRIPT_FIGURE
1002
{
1000
PSFILL
1000
Grayscale
1000
Grayscale
1070
   100
1002
}
  0
LINE
  5
14646
  8
YODOROGO
 10
6975.5136977021612
 20
341.99999999999989
 30
0.0
 11
6953.8866795711947
 21
341.99999999999989
 31
0.0
1001
AUTOCAD_POSTSCRIPT_FIGURE
1002
{
1000
PSFILL
1000
Grayscale
1000
Grayscale
1070
   100
1002
}
  0
LINE
  5
14647
  8
YODOROGO
 10
6953.8866795711947
 20
341.99999999999989
 30
0.0
 11
6961.1273972289373
 21
360.18834023529678
 31
0.0
1001
AUTOCAD_POSTSCRIPT_FIGURE
1002
{
1000
PSFILL
1000
Grayscale
1000
Grayscale
1070
   100
1002
}
  0
LINE
  5
14648
  8
YODOROGO
 10
6961.1273972289373
 20
360.18834023529678
 30
0.0
 11
6984.4010853229784
 21
360.18834023529678
 31
0.0
1001
AUTOCAD_POSTSCRIPT_FIGURE
1002
{
1000
PSFILL
1000
Grayscale
1000
Grayscale
1070
   100
1002
}
  0
LINE
  5
14649
  8
YODOROGO
 10
6984.4010853229784
 20
360.18834023529678
 30
0.0
 11
6984.4010853229784
 21
365.18834023529678
 31
0.0
1001
AUTOCAD_POSTSCRIPT_FIGURE
1002
{
1000
PSFILL
1000
Grayscale
1000
Grayscale
1070
   100
1002
}
  0
LINE
  5
1464A
  8
YODOROGO
 10
6984.4010853229784
 20
365.18834023529678
 30
0.0
 11
6944.4010853229793
 21
365.18834023529678
 31
0.0
1001
AUTOCAD_POSTSCRIPT_FIGURE
1002
{
1000
PSFILL
1000
Grayscale
1000
Grayscale
1070
   100
1002
}
  0
LINE
  5
1464B
  8
YODOROGO
 10
6944.4010853229793
 20
365.18834023529678
 30
0.0
 11
6944.4010853229793
 21
360.18834023529678
 31
0.0
1001
AUTOCAD_POSTSCRIPT_FIGURE
1002
{
1000
PSFILL
1000
Grayscale
1000
Grayscale
1070
   100
1002
}
  0
LINE
  5
1464C
  8
YODOROGO
 10
6944.4010853229793
 20
360.18834023529678
 30
0.0
 11
6956.1273972289373
 21
360.18834023529678
 31
0.0
1001
AUTOCAD_POSTSCRIPT_FIGURE
1002
{
1000
PSFILL
1000
Grayscale
1000
Grayscale
1070
   100
1002
}
  0
LINE
  5
1464D
  8
YODOROGO
 10
6956.1273972289373
 20
360.18834023529678
 30
0.0
 11
6946.4010853229793
 21
336.99999999999989
 31
0.0
1001
AUTOCAD_POSTSCRIPT_FIGURE
1002
{
1000
PSFILL
1000
Grayscale
1000
Grayscale
1070
   100
1002
}
  0
LINE
  5
1464E
  8
YODOROGO
 10
6944.4010853229793
 20
379.05572940382058
 30
0.0
 11
6964.4010853229802
 21
395.0
 31
0.0
  0
LINE
  5
1464F
  8
YODOROGO
 10
6964.4010853229802
 20
395.0
 30
0.0
 11
6984.4010853229784
 21
379.05572940382058
 31
0.0
  0
LINE
  5
14650
  8
YODOROGO
 10
6984.4010853229784
 20
379.05572940382058
 30
0.0
 11
6984.4010853229784
 21
373.05572940382092
 31
0.0
  0
LINE
  5
14651
  8
YODOROGO
 10
6984.4010853229784
 20
373.05572940382092
 30
0.0
 11
6964.4010853229802
 21
389.0000000000004
 31
0.0
  0
LINE
  5
14652
  8
YODOROGO
 10
6964.4010853229802
 20
389.0000000000004
 30
0.0
 11
6944.4010853229793
 21
373.05572940382092
 31
0.0
  0
LINE
  5
14653
  8
YODOROGO
 10
6944.4010853229793
 20
373.05572940382092
 30
0.0
 11
6944.4010853229793
 21
379.05572940382058
 31
0.0
  0
LINE
  5
14654
  8
YODOROGO
 10
6952.4010853229793
 20
376.2556019034929
 30
0.0
 11
6976.4010853229793
 21
376.2556019034929
 31
0.0
  0
LINE
  5
14655
  8
YODOROGO
 10
6976.4010853229793
 20
376.2556019034929
 30
0.0
 11
6976.4010853229793
 21
370.25560190349267
 31
0.0
  0
LINE
  5
14656
  8
YODOROGO
 10
6976.4010853229793
 20
370.25560190349267
 30
0.0
 11
6952.4010853229793
 21
370.25560190349267
 31
0.0
  0
LINE
  5
14657
  8
YODOROGO
 10
6952.4010853229793
 20
370.25560190349267
 30
0.0
 11
6952.4010853229793
 21
376.2556019034929
 31
0.0
  0
LINE
  5
14658
  8
YODOROGO
 10
7086.4010853229802
 20
385.0
 30
0.0
 11
7086.4010853229802
 21
371.00000000000023
 31
0.0
  0
ARC
  5
14659
  8
YODOROGO
 10
7058.9390076898262
 20
376.46207763315419
 30
0.0
 40
27.999999999999581
 50
281.2490582504156
 51
348.75094174958332
  0
LINE
  5
1465A
  8
YODOROGO
 10
7064.4010853229802
 20
348.99999999999977
 30
0.0
 11
7064.4010853229802
 21
325.0
 31
0.0
  0
ARC
  5
1465B
  8
YODOROGO
 10
7056.4851105367443
 20
368.28206722400961
 30
0.0
 40
43.999999999999972
 50
280.3644312771313
 51
3.5414836592180561
  0
LINE
  5
1465C
  8
YODOROGO
 10
7100.4010853229784
 20
371.00000000000023
 30
0.0
 11
7100.4010853229784
 21
385.0
 31
0.0
  0
LINE
  5
1465D
  8
YODOROGO
 10
7100.4010853229784
 20
385.0
 30
0.0
 11
7086.4010853229802
 21
385.0
 31
0.0
  0
LINE
  5
1465E
  8
YODOROGO
 10
7020.533880057731
 20
381.93853521134201
 30
0.0
 11
7020.533880057731
 21
395.0
 31
0.0
1001
AUTOCAD_POSTSCRIPT_FIGURE
1002
{
1000
PSFILL
1000
Grayscale
1000
Grayscale
1070
   100
1002
}
  0
LINE
  5
1465F
  8
YODOROGO
 10
7020.533880057731
 20
395.0
 30
0.0
 11
7024.533880057731
 21
395.0
 31
0.0
1001
AUTOCAD_POSTSCRIPT_FIGURE
1002
{
1000
PSFILL
1000
Grayscale
1000
Grayscale
1070
   100
1002
}
  0
LINE
  5
14660
  8
YODOROGO
 10
7024.533880057731
 20
395.0
 30
0.0
 11
7024.533880057731
 21
381.93853521134201
 31
0.0
1001
AUTOCAD_POSTSCRIPT_FIGURE
1002
{
1000
PSFILL
1000
Grayscale
1000
Grayscale
1070
   100
1002
}
  0
LINE
  5
14661
  8
YODOROGO
 10
7024.533880057731
 20
381.93853521134201
 30
0.0
 11
7034.4010853229793
 21
381.93853521134201
 31
0.0
1001
AUTOCAD_POSTSCRIPT_FIGURE
1002
{
1000
PSFILL
1000
Grayscale
1000
Grayscale
1070
   100
1002
}
  0
LINE
  5
14662
  8
YODOROGO
 10
7034.4010853229793
 20
381.93853521134201
 30
0.0
 11
7034.4010853229793
 21
375.93853521134241
 31
0.0
1001
AUTOCAD_POSTSCRIPT_FIGURE
1002
{
1000
PSFILL
1000
Grayscale
1000
Grayscale
1070
   100
1002
}
  0
LINE
  5
14663
  8
YODOROGO
 10
7034.4010853229793
 20
375.93853521134241
 30
0.0
 11
7024.533880057731
 21
375.93853521134241
 31
0.0
1001
AUTOCAD_POSTSCRIPT_FIGURE
1002
{
1000
PSFILL
1000
Grayscale
1000
Grayscale
1070
   100
1002
}
  0
LINE
  5
14664
  8
YODOROGO
 10
7024.533880057731
 20
375.93853521134241
 30
0.0
 11
7024.533880057731
 21
343.00000000000011
 31
0.0
1001
AUTOCAD_POSTSCRIPT_FIGURE
1002
{
1000
PSFILL
1000
Grayscale
1000
Grayscale
1070
   100
1002
}
  0
LINE
  5
14665
  8
YODOROGO
 10
7024.533880057731
 20
343.00000000000011
 30
0.0
 11
7034.401085322982
 21
343.00000000000011
 31
0.0
1001
AUTOCAD_POSTSCRIPT_FIGURE
1002
{
1000
PSFILL
1000
Grayscale
1000
Grayscale
1070
   100
1002
}
  0
LINE
  5
14666
  8
YODOROGO
 10
7034.401085322982
 20
343.00000000000011
 30
0.0
 11
7034.401085322982
 21
336.99999999999989
 31
0.0
1001
AUTOCAD_POSTSCRIPT_FIGURE
1002
{
1000
PSFILL
1000
Grayscale
1000
Grayscale
1070
   100
1002
}
  0
LINE
  5
14667
  8
YODOROGO
 10
7034.401085322982
 20
336.99999999999989
 30
0.0
 11
7012.533880057731
 21
336.99999999999989
 31
0.0
1001
AUTOCAD_POSTSCRIPT_FIGURE
1002
{
1000
PSFILL
1000
Grayscale
1000
Grayscale
1070
   100
1002
}
  0
LINE
  5
14668
  8
YODOROGO
 10
7012.533880057731
 20
336.99999999999989
 30
0.0
 11
7012.533880057731
 21
343.00000000000011
 31
0.0
1001
AUTOCAD_POSTSCRIPT_FIGURE
1002
{
1000
PSFILL
1000
Grayscale
1000
Grayscale
1070
   100
1002
}
  0
LINE
  5
14669
  8
YODOROGO
 10
7012.533880057731
 20
343.00000000000011
 30
0.0
 11
7020.5338800577283
 21
343.00000000000011
 31
0.0
1001
AUTOCAD_POSTSCRIPT_FIGURE
1002
{
1000
PSFILL
1000
Grayscale
1000
Grayscale
1070
   100
1002
}
  0
LINE
  5
1466A
  8
YODOROGO
 10
7020.5338800577283
 20
343.00000000000011
 30
0.0
 11
7020.533880057731
 21
375.93853521134241
 31
0.0
1001
AUTOCAD_POSTSCRIPT_FIGURE
1002
{
1000
PSFILL
1000
Grayscale
1000
Grayscale
1070
   100
1002
}
  0
LINE
  5
1466B
  8
YODOROGO
 10
7020.533880057731
 20
375.93853521134241
 30
0.0
 11
7012.5338800577283
 21
375.93853521134241
 31
0.0
1001
AUTOCAD_POSTSCRIPT_FIGURE
1002
{
1000
PSFILL
1000
Grayscale
1000
Grayscale
1070
   100
1002
}
  0
LINE
  5
1466C
  8
YODOROGO
 10
7012.5338800577283
 20
375.93853521134241
 30
0.0
 11
7012.5338800577283
 21
381.93853521134201
 31
0.0
1001
AUTOCAD_POSTSCRIPT_FIGURE
1002
{
1000
PSFILL
1000
Grayscale
1000
Grayscale
1070
   100
1002
}
  0
LINE
  5
1466D
  8
YODOROGO
 10
7012.5338800577283
 20
381.93853521134201
 30
0.0
 11
7020.533880057731
 21
381.93853521134201
 31
0.0
1001
AUTOCAD_POSTSCRIPT_FIGURE
1002
{
1000
PSFILL
1000
Grayscale
1000
Grayscale
1070
   100
1002
}
  0
LINE
  5
1466E
  8
YODOROGO
 10
7000.4010853229793
 20
388.99999999999977
 30
0.0
 11
6994.4010853229802
 21
388.99999999999977
 31
0.0
  0
LINE
  5
1466F
  8
YODOROGO
 10
6994.4010853229802
 20
388.99999999999977
 30
0.0
 11
6994.4010853229802
 21
384.99999999999937
 31
0.0
  0
LINE
  5
14670
  8
YODOROGO
 10
6994.4010853229802
 20
384.99999999999937
 30
0.0
 11
7006.4571935728391
 21
384.99999999999937
 31
0.0
  0
LINE
  5
14671
  8
YODOROGO
 10
7006.4571935728391
 20
384.99999999999937
 30
0.0
 11
6994.4010853229802
 21
357.2546456510355
 31
0.0
  0
LINE
  5
14672
  8
YODOROGO
 10
6994.4010853229802
 20
357.2546456510355
 30
0.0
 11
6994.4010853229802
 21
351.25464565103528
 31
0.0
  0
LINE
  5
14673
  8
YODOROGO
 10
6994.4010853229802
 20
351.25464565103528
 30
0.0
 11
7000.4010853229793
 21
363.06396331511507
 31
0.0
  0
LINE
  5
14674
  8
YODOROGO
 10
7000.4010853229793
 20
363.06396331511507
 30
0.0
 11
7000.4010853229793
 21
336.99999999999989
 31
0.0
  0
LINE
  5
14675
  8
YODOROGO
 10
7000.4010853229793
 20
336.99999999999989
 30
0.0
 11
7004.4010853229793
 21
336.99999999999989
 31
0.0
  0
LINE
  5
14676
  8
YODOROGO
 10
7004.4010853229793
 20
336.99999999999989
 30
0.0
 11
7004.4010853229793
 21
364.37189183006069
 31
0.0
  0
LINE
  5
14677
  8
YODOROGO
 10
7004.4010853229793
 20
364.37189183006069
 30
0.0
 11
7010.4010853229784
 21
358.84274837977779
 31
0.0
  0
LINE
  5
14678
  8
YODOROGO
 10
7010.4010853229784
 20
358.84274837977779
 30
0.0
 11
7010.4010853229784
 21
363.84274837977841
 31
0.0
  0
LINE
  5
14679
  8
YODOROGO
 10
7010.4010853229784
 20
363.84274837977841
 30
0.0
 11
7005.0222259342254
 21
370.7252671581569
 31
0.0
  0
LINE
  5
1467A
  8
YODOROGO
 10
7005.0222259342254
 20
370.7252671581569
 30
0.0
 11
7010.2283010042274
 21
383.00000000000011
 31
0.0
  0
LINE
  5
1467B
  8
YODOROGO
 10
7010.2283010042274
 20
383.00000000000011
 30
0.0
 11
7010.2283010042274
 21
388.99999999999977
 31
0.0
  0
LINE
  5
1467C
  8
YODOROGO
 10
7010.2283010042274
 20
388.99999999999977
 30
0.0
 11
7004.4010853229811
 21
388.99999999999977
 31
0.0
  0
LINE
  5
1467D
  8
YODOROGO
 10
7004.4010853229811
 20
388.99999999999977
 30
0.0
 11
7004.4010853229793
 21
395.0
 31
0.0
  0
LINE
  5
1467E
  8
YODOROGO
 10
7004.4010853229793
 20
395.0
 30
0.0
 11
7000.4010853229793
 21
395.0
 31
0.0
  0
LINE
  5
14680
  8
YODOROGO
 10
7000.4010853229793
 20
395.0
 30
0.0
 11
7000.4010853229793
 21
388.99999999999977
 31
0.0
  0
LINE
  5
14681
  8
YODOROGO
 10
7064.4010853229802
 20
475.0
 30
0.0
 11
7064.4010853229802
 21
458.0
 31
0.0
1001
AUTOCAD_POSTSCRIPT_FIGURE
1002
{
1000
PSFILL
1000
Grayscale
1000
Grayscale
1070
   100
1002
}
  0
LINE
  5
14682
  8
YODOROGO
 10
7064.4010853229802
 20
458.0
 30
0.0
 11
7100.4010853229784
 21
447.28203230275483
 31
0.0
1001
AUTOCAD_POSTSCRIPT_FIGURE
1002
{
1000
PSFILL
1000
Grayscale
1000
Grayscale
1070
   100
1002
}
  0
LINE
  5
14683
  8
YODOROGO
 10
7100.4010853229784
 20
447.28203230275483
 30
0.0
 11
7100.4010853229784
 21
464.28203230275471
 31
0.0
1001
AUTOCAD_POSTSCRIPT_FIGURE
1002
{
1000
PSFILL
1000
Grayscale
1000
Grayscale
1070
   100
1002
}
  0
LINE
  5
14684
  8
YODOROGO
 10
7100.4010853229784
 20
464.28203230275471
 30
0.0
 11
7064.4010853229802
 21
475.0
 31
0.0
1001
AUTOCAD_POSTSCRIPT_FIGURE
1002
{
1000
PSFILL
1000
Grayscale
1000
Grayscale
1070
   100
1002
}
  0
LINE
  5
14685
  8
YODOROGO
 10
7364.4010853229802
 20
325.0
 30
0.0
 11
7364.4010853229802
 21
475.0
 31
0.0
  0
LINE
  5
14686
  8
YODOROGO
 10
7364.4010853229802
 20
475.0
 30
0.0
 11
7346.4010853229793
 21
475.0
 31
0.0
  0
LINE
  5
14687
  8
YODOROGO
 10
7346.4010853229793
 20
475.0
 30
0.0
 11
7346.4010853229793
 21
325.0
 31
0.0
  0
LINE
  5
14688
  8
YODOROGO
 10
7346.4010853229793
 20
325.0
 30
0.0
 11
7364.4010853229802
 21
325.0
 31
0.0
  0
LINE
  5
14689
  8
YODOROGO
 10
7315.4010853229811
 20
470.0
 30
0.0
 11
7299.4010853229802
 21
470.0
 31
0.0
  0
LINE
  5
1468A
  8
YODOROGO
 10
7299.4010853229802
 20
470.0
 30
0.0
 11
7299.4010853229802
 21
340.99999999999972
 31
0.0
  0
LINE
  5
1468B
  8
YODOROGO
 10
7299.4010853229802
 20
340.99999999999972
 30
0.0
 11
7315.4010853229811
 21
340.99999999999972
 31
0.0
  0
LINE
  5
1468C
  8
YODOROGO
 10
7315.4010853229811
 20
340.99999999999972
 30
0.0
 11
7315.4010853229811
 21
470.0
 31
0.0
  0
ARC
  5
1468D
  8
YODOROGO
 10
7227.2965426799574
 20
366.215308045288
 30
0.0
 40
41.230105890213778
 50
271.53512106537778
 51
355.52727750585058
  0
LINE
  5
1468E
  8
YODOROGO
 10
7268.4010853229811
 20
363.00000000000011
 30
0.0
 11
7268.4010853229811
 21
475.0
 31
0.0
  0
LINE
  5
1468F
  8
YODOROGO
 10
7268.4010853229811
 20
475.0
 30
0.0
 11
7250.4010853229793
 21
475.0
 31
0.0
  0
LINE
  5
14690
  8
YODOROGO
 10
7250.4010853229793
 20
475.0
 30
0.0
 11
7250.4010853229793
 21
373.00000000000011
 31
0.0
  0
ARC
  5
14691
  8
YODOROGO
 10
7226.7278940467086
 20
372.61709200324628
 30
0.0
 40
23.676287794685411
 50
274.0524416290711
 51
0.9266642149310712
  0
LINE
  5
14692
  8
YODOROGO
 10
7228.4010853229802
 20
348.99999999999977
 30
0.0
 11
7228.4010853229802
 21
325.0
 31
0.0
  0
LINE
  5
14693
  8
YODOROGO
 10
7791.4010853229802
 20
475.0
 30
0.0
 11
7791.4010853229802
 21
458.99999999999977
 31
0.0
  0
LINE
  5
14694
  8
YODOROGO
 10
7791.4010853229802
 20
458.99999999999977
 30
0.0
 11
7853.4010853229802
 21
458.99999999999977
 31
0.0
  0
LINE
  5
14695
  8
YODOROGO
 10
7853.4010853229802
 20
458.99999999999977
 30
0.0
 11
7853.4010853229802
 21
475.0
 31
0.0
  0
LINE
  5
14696
  8
YODOROGO
 10
7853.4010853229802
 20
475.0
 30
0.0
 11
7791.4010853229802
 21
475.0
 31
0.0
  0
LINE
  5
14697
  8
YODOROGO
 10
7809.4010853229793
 20
366.99999999999989
 30
0.0
 11
7809.4010853229793
 21
395.0
 31
0.0
  0
LINE
  5
14698
  8
YODOROGO
 10
7809.4010853229793
 20
395.0
 30
0.0
 11
7853.4010853229802
 21
395.0
 31
0.0
  0
LINE
  5
14699
  8
YODOROGO
 10
7853.4010853229802
 20
395.0
 30
0.0
 11
7853.4010853229802
 21
445.0
 31
0.0
  0
LINE
  5
1469A
  8
YODOROGO
 10
7853.4010853229802
 20
445.0
 30
0.0
 11
7791.4010853229802
 21
445.0
 31
0.0
  0
LINE
  5
1469B
  8
YODOROGO
 10
7791.4010853229802
 20
445.0
 30
0.0
 11
7791.4010853229802
 21
376.99999999999989
 31
0.0
  0
ARC
  5
1469C
  8
YODOROGO
 10
7759.9303488916939
 20
377.44547342011128
 30
0.0
 40
31.473889147918861
 50
295.34052442160112
 51
359.18902303418668
  0
LINE
  5
1469D
  8
YODOROGO
 10
7773.4010853229802
 20
348.99999999999977
 30
0.0
 11
7773.4010853229802
 21
325.0
 31
0.0
  0
ARC
  5
1469E
  8
YODOROGO
 10
7764.8794733394798
 20
368.73281027157208
 30
0.0
 40
44.55532027768038
 50
281.02627495425361
 51
357.77113575573799
  0
LINE
  5
1469F
  8
YODOROGO
 10
7731.4010853229784
 20
355.0
 30
0.0
 11
7731.4010853229784
 21
458.99999999999977
 31
0.0
  0
LINE
  5
146A0
  8
YODOROGO
 10
7731.4010853229784
 20
458.99999999999977
 30
0.0
 11
7674.4010853229811
 21
458.99999999999977
 31
0.0
  0
LINE
  5
146A1
  8
YODOROGO
 10
7674.4010853229811
 20
458.99999999999977
 30
0.0
 11
7674.4010853229811
 21
325.0
 31
0.0
  0
LINE
  5
146A2
  8
YODOROGO
 10
7674.4010853229811
 20
325.0
 30
0.0
 11
7661.4010853229802
 21
325.0
 31
0.0
  0
LINE
  5
146A3
  8
YODOROGO
 10
7661.4010853229802
 20
325.0
 30
0.0
 11
7661.4010853229802
 21
475.0
 31
0.0
  0
LINE
  5
146A4
  8
YODOROGO
 10
7661.4010853229802
 20
475.0
 30
0.0
 11
7743.4010853229811
 21
475.0
 31
0.0
  0
LINE
  5
146A5
  8
YODOROGO
 10
7743.4010853229811
 20
475.0
 30
0.0
 11
7743.4010853229811
 21
335.0
 31
0.0
  0
ARC
  5
146A6
  8
YODOROGO
 10
7733.4010853229802
 20
335.0
 30
0.0
 40
10.0
 50
270.0
 51
0.0
  0
LINE
  5
146A7
  8
YODOROGO
 10
7733.4010853229802
 20
325.0
 30
0.0
 11
7724.901085322982
 21
325.0
 31
0.0
  0
LINE
  5
146A8
  8
YODOROGO
 10
7724.901085322982
 20
325.0
 30
0.0
 11
7724.9010853229829
 21
355.0
 31
0.0
  0
LINE
  5
146A9
  8
YODOROGO
 10
7724.9010853229829
 20
355.0
 30
0.0
 11
7731.4010853229784
 21
355.0
 31
0.0
  0
LINE
  5
146AA
  8
YODOROGO
 10
7724.901085322982
 20
423.00000000000011
 30
0.0
 11
7724.901085322982
 21
406.99999999999977
 31
0.0
  0
LINE
  5
146AB
  8
YODOROGO
 10
7724.901085322982
 20
406.99999999999977
 30
0.0
 11
7680.9010853229811
 21
406.99999999999977
 31
0.0
  0
LINE
  5
146AC
  8
YODOROGO
 10
7680.9010853229811
 20
406.99999999999977
 30
0.0
 11
7680.9010853229811
 21
423.00000000000011
 31
0.0
  0
LINE
  5
146AD
  8
YODOROGO
 10
7680.9010853229811
 20
423.00000000000011
 30
0.0
 11
7687.4010853229793
 21
423.00000000000011
 31
0.0
  0
LINE
  5
146AE
  8
YODOROGO
 10
7687.4010853229793
 20
423.00000000000011
 30
0.0
 11
7680.9010853229811
 21
453.00000000000011
 31
0.0
  0
LINE
  5
146AF
  8
YODOROGO
 10
7680.9010853229811
 20
453.00000000000011
 30
0.0
 11
7692.9010853229811
 21
453.00000000000011
 31
0.0
  0
LINE
  5
146B0
  8
YODOROGO
 10
7692.9010853229811
 20
453.00000000000011
 30
0.0
 11
7699.4010853229793
 21
423.00000000000011
 31
0.0
  0
LINE
  5
146B1
  8
YODOROGO
 10
7699.4010853229793
 20
423.00000000000011
 30
0.0
 11
7706.4010853229793
 21
423.00000000000011
 31
0.0
  0
LINE
  5
146B2
  8
YODOROGO
 10
7706.4010853229793
 20
423.00000000000011
 30
0.0
 11
7712.901085322982
 21
453.00000000000011
 31
0.0
  0
LINE
  5
146B3
  8
YODOROGO
 10
7712.901085322982
 20
453.00000000000011
 30
0.0
 11
7724.901085322982
 21
453.00000000000011
 31
0.0
  0
LINE
  5
146B4
  8
YODOROGO
 10
7724.901085322982
 20
453.00000000000011
 30
0.0
 11
7718.4010853229802
 21
423.00000000000011
 31
0.0
  0
LINE
  5
146B5
  8
YODOROGO
 10
7718.4010853229802
 20
423.00000000000011
 30
0.0
 11
7724.901085322982
 21
423.00000000000011
 31
0.0
  0
LINE
  5
146B6
  8
YODOROGO
 10
7554.4010853229793
 20
475.0
 30
0.0
 11
7554.4010853229793
 21
415.0
 31
0.0
  0
ARC
  5
146B7
  8
YODOROGO
 10
7534.4010853229793
 20
415.0
 30
0.0
 40
20.0
 50
270.0
 51
0.0
  0
LINE
  5
146B8
  8
YODOROGO
 10
7534.4010853229793
 20
395.0
 30
0.0
 11
7505.4010853229811
 21
395.0
 31
0.0
  0
LINE
  5
146B9
  8
YODOROGO
 10
7505.4010853229811
 20
395.0
 30
0.0
 11
7505.4010853229811
 21
411.00000000000023
 31
0.0
  0
LINE
  5
146BA
  8
YODOROGO
 10
7505.4010853229811
 20
411.00000000000023
 30
0.0
 11
7530.4010853229811
 21
411.00000000000023
 31
0.0
  0
ARC
  5
146BB
  8
YODOROGO
 10
7530.4010853229811
 20
421.00000000000023
 30
0.0
 40
10.0
 50
270.0
 51
0.0
  0
LINE
  5
146BC
  8
YODOROGO
 10
7540.4010853229802
 20
421.00000000000023
 30
0.0
 11
7540.4010853229802
 21
475.0
 31
0.0
  0
LINE
  5
146BD
  8
YODOROGO
 10
7540.4010853229802
 20
475.0
 30
0.0
 11
7554.4010853229793
 21
475.0
 31
0.0
  0
LINE
  5
146BE
  8
YODOROGO
 10
7616.4010853229802
 20
401.99999999999977
 30
0.0
 11
7595.401085322982
 21
401.99999999999977
 31
0.0
  0
LINE
  5
146BF
  8
YODOROGO
 10
7595.401085322982
 20
401.99999999999977
 30
0.0
 11
7595.401085322982
 21
416.99999999999989
 31
0.0
  0
LINE
  5
146C0
  8
YODOROGO
 10
7595.401085322982
 20
416.99999999999989
 30
0.0
 11
7654.4010853229793
 21
416.99999999999989
 31
0.0
  0
LINE
  5
146C1
  8
YODOROGO
 10
7654.4010853229793
 20
416.99999999999989
 30
0.0
 11
7654.4010853229793
 21
401.99999999999977
 31
0.0
  0
LINE
  5
146C2
  8
YODOROGO
 10
7654.4010853229793
 20
401.99999999999977
 30
0.0
 11
7632.4010853229811
 21
401.99999999999977
 31
0.0
  0
LINE
  5
146C3
  8
YODOROGO
 10
7632.4010853229811
 20
401.99999999999977
 30
0.0
 11
7632.4010853229811
 21
388.00000000000011
 31
0.0
  0
LINE
  5
146C4
  8
YODOROGO
 10
7632.4010853229811
 20
388.00000000000011
 30
0.0
 11
7654.4010853229793
 21
388.00000000000011
 31
0.0
  0
LINE
  5
146C5
  8
YODOROGO
 10
7654.4010853229793
 20
388.00000000000011
 30
0.0
 11
7654.4010853229793
 21
375.0
 31
0.0
  0
LINE
  5
146C6
  8
YODOROGO
 10
7654.4010853229793
 20
375.0
 30
0.0
 11
7632.4010853229811
 21
375.0
 31
0.0
  0
LINE
  5
146C7
  8
YODOROGO
 10
7632.4010853229811
 20
375.0
 30
0.0
 11
7632.4010853229811
 21
355.0
 31
0.0
  0
LINE
  5
146C8
  8
YODOROGO
 10
7632.4010853229811
 20
355.0
 30
0.0
 11
7636.4010853229775
 21
355.0
 31
0.0
  0
ARC
  5
146C9
  8
YODOROGO
 10
7636.4010853229775
 20
361.00000000000091
 30
0.0
 40
6.000000000000937
 50
270.0
 51
359.99999999998778
  0
LINE
  5
146CA
  8
YODOROGO
 10
7642.4010853229793
 20
360.99999999999972
 30
0.0
 11
7642.4010853229793
 21
368.00000000000011
 31
0.0
  0
LINE
  5
146CB
  8
YODOROGO
 10
7642.4010853229793
 20
368.00000000000011
 30
0.0
 11
7654.4010853229793
 21
368.00000000000011
 31
0.0
  0
LINE
  5
146CC
  8
YODOROGO
 10
7654.4010853229793
 20
368.00000000000011
 30
0.0
 11
7654.4010853229793
 21
345.0
 31
0.0
  0
ARC
  5
146CD
  8
YODOROGO
 10
7634.4010853229793
 20
345.0
 30
0.0
 40
20.0
 50
270.0
 51
0.0
  0
LINE
  5
146CE
  8
YODOROGO
 10
7634.4010853229793
 20
325.0
 30
0.0
 11
7595.401085322982
 21
325.0
 31
0.0
  0
LINE
  5
146CF
  8
YODOROGO
 10
7595.401085322982
 20
325.0
 30
0.0
 11
7595.401085322982
 21
355.0
 31
0.0
  0
LINE
  5
146D0
  8
YODOROGO
 10
7595.401085322982
 20
355.0
 30
0.0
 11
7616.4010853229802
 21
355.0
 31
0.0
  0
LINE
  5
146D1
  8
YODOROGO
 10
7616.4010853229802
 20
355.0
 30
0.0
 11
7616.4010853229802
 21
375.0
 31
0.0
  0
LINE
  5
146D2
  8
YODOROGO
 10
7616.4010853229802
 20
375.0
 30
0.0
 11
7595.401085322982
 21
375.0
 31
0.0
  0
LINE
  5
146D3
  8
YODOROGO
 10
7595.401085322982
 20
375.0
 30
0.0
 11
7595.401085322982
 21
388.00000000000011
 31
0.0
  0
LINE
  5
146D4
  8
YODOROGO
 10
7595.401085322982
 20
388.00000000000011
 30
0.0
 11
7616.4010853229802
 21
388.00000000000011
 31
0.0
  0
LINE
  5
146D5
  8
YODOROGO
 10
7616.4010853229802
 20
388.00000000000011
 30
0.0
 11
7616.4010853229802
 21
401.99999999999977
 31
0.0
  0
LINE
  5
146D6
  8
YODOROGO
 10
7598.4010853229829
 20
364.49999999999989
 30
0.0
 11
7598.4010853229829
 21
365.50000000000011
 31
0.0
  0
LINE
  5
146D7
  8
YODOROGO
 10
7598.4010853229829
 20
365.50000000000011
 30
0.0
 11
7605.4010853229811
 21
365.50000000000011
 31
0.0
  0
LINE
  5
146D8
  8
YODOROGO
 10
7605.4010853229811
 20
365.50000000000011
 30
0.0
 11
7605.4010853229811
 21
364.49999999999989
 31
0.0
  0
LINE
  5
146D9
  8
YODOROGO
 10
7605.4010853229811
 20
364.49999999999989
 30
0.0
 11
7598.4010853229829
 21
364.49999999999989
 31
0.0
  0
LINE
  5
146DA
  8
YODOROGO
 10
7597.401085322982
 20
363.49999999999972
 30
0.0
 11
7597.401085322982
 21
366.5000000000004
 31
0.0
  0
LINE
  5
146DB
  8
YODOROGO
 10
7597.401085322982
 20
366.5000000000004
 30
0.0
 11
7606.401085322982
 21
366.5000000000004
 31
0.0
  0
LINE
  5
146DC
  8
YODOROGO
 10
7606.401085322982
 20
366.5000000000004
 30
0.0
 11
7606.4010853229784
 21
363.49999999999972
 31
0.0
  0
LINE
  5
146DD
  8
YODOROGO
 10
7606.4010853229784
 20
363.49999999999972
 30
0.0
 11
7597.401085322982
 21
363.49999999999972
 31
0.0
  0
LINE
  5
146DE
  8
YODOROGO
 10
7596.401085322982
 20
362.5
 30
0.0
 11
7596.401085322982
 21
367.5
 31
0.0
  0
LINE
  5
146DF
  8
YODOROGO
 10
7596.401085322982
 20
367.5
 30
0.0
 11
7607.4010853229802
 21
367.5
 31
0.0
  0
LINE
  5
146E0
  8
YODOROGO
 10
7607.4010853229802
 20
367.5
 30
0.0
 11
7607.4010853229802
 21
362.5
 31
0.0
  0
LINE
  5
146E1
  8
YODOROGO
 10
7607.4010853229802
 20
362.5
 30
0.0
 11
7596.401085322982
 21
362.5
 31
0.0
  0
LINE
  5
146E2
  8
YODOROGO
 10
7595.401085322982
 20
361.50000000000028
 30
0.0
 11
7595.401085322982
 21
368.4999999999996
 31
0.0
  0
LINE
  5
146E3
  8
YODOROGO
 10
7595.401085322982
 20
368.4999999999996
 30
0.0
 11
7608.4010853229829
 21
368.4999999999996
 31
0.0
  0
LINE
  5
146E4
  8
YODOROGO
 10
7608.4010853229829
 20
368.4999999999996
 30
0.0
 11
7608.4010853229829
 21
361.50000000000028
 31
0.0
  0
LINE
  5
146E5
  8
YODOROGO
 10
7608.4010853229829
 20
361.50000000000028
 30
0.0
 11
7595.401085322982
 21
361.50000000000028
 31
0.0
  0
LINE
  5
146E6
  8
YODOROGO
 10
7707.901085322982
 20
406.99999999999977
 30
0.0
 11
7707.901085322982
 21
358.99999999999977
 31
0.0
  0
LINE
  5
146E7
  8
YODOROGO
 10
7707.901085322982
 20
358.99999999999977
 30
0.0
 11
7714.9010853229811
 21
358.99999999999977
 31
0.0
  0
LINE
  5
146E8
  8
YODOROGO
 10
7714.9010853229811
 20
358.99999999999977
 30
0.0
 11
7714.9010853229811
 21
391.00000000000023
 31
0.0
  0
LINE
  5
146E9
  8
YODOROGO
 10
7714.9010853229811
 20
391.00000000000023
 30
0.0
 11
7724.901085322982
 21
391.00000000000023
 31
0.0
  0
LINE
  5
146EA
  8
YODOROGO
 10
7724.901085322982
 20
391.00000000000023
 30
0.0
 11
7724.901085322982
 21
341.00000000000023
 31
0.0
  0
LINE
  5
146EB
  8
YODOROGO
 10
7724.901085322982
 20
341.00000000000023
 30
0.0
 11
7680.9010853229811
 21
341.00000000000023
 31
0.0
  0
LINE
  5
146EC
  8
YODOROGO
 10
7680.9010853229811
 20
341.00000000000023
 30
0.0
 11
7680.9010853229811
 21
391.00000000000023
 31
0.0
  0
LINE
  5
146ED
  8
YODOROGO
 10
7680.9010853229811
 20
391.00000000000023
 30
0.0
 11
7690.9010853229802
 21
391.00000000000023
 31
0.0
  0
LINE
  5
146EE
  8
YODOROGO
 10
7690.9010853229802
 20
391.00000000000023
 30
0.0
 11
7690.9010853229802
 21
358.99999999999977
 31
0.0
  0
LINE
  5
146EF
  8
YODOROGO
 10
7690.9010853229802
 20
358.99999999999977
 30
0.0
 11
7697.9010853229811
 21
358.99999999999977
 31
0.0
  0
LINE
  5
146F0
  8
YODOROGO
 10
7697.9010853229811
 20
358.99999999999977
 30
0.0
 11
7697.9010853229811
 21
406.99999999999977
 31
0.0
  0
LINE
  5
146F1
  8
YODOROGO
 10
7697.9010853229811
 20
406.99999999999977
 30
0.0
 11
7707.901085322982
 21
406.99999999999977
 31
0.0
  0
LINE
  5
146F2
  8
YODOROGO
 10
7624.4010853229793
 20
453.00000000000011
 30
0.0
 11
7595.401085322982
 21
423.00000000000011
 31
0.0
  0
LINE
  5
146F3
  8
YODOROGO
 10
7595.401085322982
 20
423.00000000000011
 30
0.0
 11
7595.401085322982
 21
445.0
 31
0.0
  0
LINE
  5
146F4
  8
YODOROGO
 10
7595.401085322982
 20
445.0
 30
0.0
 11
7624.4010853229793
 21
475.0
 31
0.0
  0
LINE
  5
146F5
  8
YODOROGO
 10
7624.4010853229793
 20
475.0
 30
0.0
 11
7654.4010853229793
 21
455.0
 31
0.0
  0
LINE
  5
146F6
  8
YODOROGO
 10
7654.4010853229793
 20
455.0
 30
0.0
 11
7654.4010853229793
 21
433.0
 31
0.0
  0
LINE
  5
146F7
  8
YODOROGO
 10
7654.4010853229793
 20
433.0
 30
0.0
 11
7624.4010853229793
 21
453.00000000000011
 31
0.0
  0
LINE
  5
146F8
  8
YODOROGO
 10
7505.4010853229811
 20
475.0
 30
0.0
 11
7505.4010853229811
 21
425.0
 31
0.0
  0
LINE
  5
146F9
  8
YODOROGO
 10
7505.4010853229811
 20
425.0
 30
0.0
 11
7520.401085322982
 21
425.0
 31
0.0
  0
LINE
  5
146FA
  8
YODOROGO
 10
7520.401085322982
 20
425.0
 30
0.0
 11
7520.401085322982
 21
475.0
 31
0.0
  0
LINE
  5
146FB
  8
YODOROGO
 10
7520.401085322982
 20
475.0
 30
0.0
 11
7505.4010853229811
 21
475.0
 31
0.0
  0
LINE
  5
146FC
  8
YODOROGO
 10
7837.401085322982
 20
413.0
 30
0.0
 11
7837.401085322982
 21
426.99999999999977
 31
0.0
  0
LINE
  5
146FD
  8
YODOROGO
 10
7837.401085322982
 20
426.99999999999977
 30
0.0
 11
7809.4010853229793
 21
426.99999999999977
 31
0.0
  0
LINE
  5
146FE
  8
YODOROGO
 10
7809.4010853229793
 20
426.99999999999977
 30
0.0
 11
7809.4010853229793
 21
413.0
 31
0.0
  0
LINE
  5
146FF
  8
YODOROGO
 10
7809.4010853229793
 20
413.0
 30
0.0
 11
7837.401085322982
 21
413.0
 31
0.0
  0
LINE
  5
14700
  8
YODOROGO
 10
7897.4010853229802
 20
421.00000000000023
 30
0.0
 11
7897.4010853229802
 21
325.0
 31
0.0
  0
LINE
  5
14701
  8
YODOROGO
 10
7897.4010853229802
 20
325.0
 30
0.0
 11
7913.4010853229811
 21
325.0
 31
0.0
  0
LINE
  5
14702
  8
YODOROGO
 10
7913.4010853229811
 20
325.0
 30
0.0
 11
7913.4010853229784
 21
421.00000000000023
 31
0.0
  0
LINE
  5
14703
  8
YODOROGO
 10
7913.4010853229784
 20
421.00000000000023
 30
0.0
 11
7925.4010853229811
 21
421.00000000000023
 31
0.0
  0
LINE
  5
14704
  8
YODOROGO
 10
7925.4010853229811
 20
421.00000000000023
 30
0.0
 11
7925.4010853229811
 21
436.99999999999989
 31
0.0
  0
LINE
  5
14705
  8
YODOROGO
 10
7925.4010853229811
 20
436.99999999999989
 30
0.0
 11
7883.4010853229775
 21
436.99999999999989
 31
0.0
  0
LINE
  5
14706
  8
YODOROGO
 10
7883.4010853229775
 20
436.99999999999989
 30
0.0
 11
7883.4010853229775
 21
446.99999999999977
 31
0.0
  0
LINE
  5
14707
  8
YODOROGO
 10
7883.4010853229775
 20
446.99999999999977
 30
0.0
 11
7915.4010853229802
 21
446.99999999999977
 31
0.0
  0
ARC
  5
14708
  8
YODOROGO
 10
7915.4010853229802
 20
456.99999999999989
 30
0.0
 40
10.0
 50
270.0
 51
0.0
  0
LINE
  5
14709
  8
YODOROGO
 10
7925.4010853229811
 20
456.99999999999989
 30
0.0
 11
7925.4010853229811
 21
475.0
 31
0.0
  0
LINE
  5
1470A
  8
YODOROGO
 10
7925.4010853229811
 20
475.0
 30
0.0
 11
7909.4010853229793
 21
475.0
 31
0.0
  0
LINE
  5
1470B
  8
YODOROGO
 10
7909.4010853229793
 20
475.0
 30
0.0
 11
7909.4010853229793
 21
468.99999999999972
 31
0.0
  0
ARC
  5
1470C
  8
YODOROGO
 10
7905.4010853229811
 20
468.9999999999992
 30
0.0
 40
3.9999999999986349
 50
270.0
 51
0.0000000000081422
  0
LINE
  5
1470D
  8
YODOROGO
 10
7905.4010853229811
 20
465.0
 30
0.0
 11
7865.4010853229793
 21
465.0
 31
0.0
  0
LINE
  5
1470E
  8
YODOROGO
 10
7865.4010853229793
 20
465.0
 30
0.0
 11
7865.4010853229793
 21
376.99999999999989
 31
0.0
  0
ARC
  5
1470F
  8
YODOROGO
 10
7837.8795189311404
 20
377.52236514709182
 30
0.0
 40
27.526523245903039
 50
269.00410209305937
 51
358.91264455492478
  0
LINE
  5
14710
  8
YODOROGO
 10
7837.401085322982
 20
350.0
 30
0.0
 11
7837.401085322982
 21
325.0
 31
0.0
  0
ARC
  5
14711
  8
YODOROGO
 10
7838.4787162790162
 20
370.01021371481738
 30
0.0
 40
45.023112143997139
 50
268.62849102169793
 51
356.16638457330322
  0
LINE
  5
14712
  8
YODOROGO
 10
7883.4010853229793
 20
366.99999999999989
 30
0.0
 11
7883.4010853229775
 21
421.00000000000023
 31
0.0
  0
LINE
  5
14713
  8
YODOROGO
 10
7883.4010853229775
 20
421.00000000000023
 30
0.0
 11
7897.4010853229802
 21
421.00000000000023
 31
0.0
  0
LINE
  5
14716
  8
SUNPOU
 10
1378.5339612942021
 20
4699.6974299999983
 30
0.0
 11
1378.5339612942021
 21
4694.6974299999983
 31
0.0
  0
LINE
  5
1471A
  8
SUNPOU
 10
1378.5339612942
 20
4211.6974299999983
 30
0.0
 11
1378.5339612942
 21
4216.6974299999993
 31
0.0
  0
LINE
  5
1471C
  8
SUNPOU
 10
1378.5339612942021
 20
4724.6974299999983
 30
0.0
 11
1378.5339612942021
 21
4729.6974299999983
 31
0.0
  0
LINE
  5
1471E
  8
SUNPOU
 10
1378.5339612942021
 20
4699.6974299999983
 30
0.0
 11
1378.5339612942021
 21
4694.6974299999983
 31
0.0
  0
LINE
  5
14720
  8
SUNPOU
 10
1378.5339612942021
 20
4186.6974299999974
 30
0.0
 11
1378.5339612942021
 21
4181.6974299999983
 31
0.0
  0
LINE
  5
14722
  8
SUNPOU
 10
1378.5339612942021
 20
4211.6974299999983
 30
0.0
 11
1378.5339612942021
 21
4216.6974299999993
 31
0.0
  0
LINE
  5
14724
  8
SUNPOU
 10
1669.104137999999
 20
1438.5738289999999
 30
0.0
 11
1674.1041379999999
 21
1438.5738289999999
 31
0.0
  0
LINE
  5
14726
  8
SUNPOU
 10
4455.1041380000024
 20
1438.5738289999999
 30
0.0
 11
4450.1041380000024
 21
1438.5738289999999
 31
0.0
  0
LINE
  5
14728
  8
SUNPOU
 10
5446.6037249999999
 20
1578.5738289999999
 30
0.0
 11
5451.6037249999999
 21
1578.5738289999999
 31
0.0
  0
LINE
  5
1472A
  8
SUNPOU
 10
5246.6040380000013
 20
1438.5738289999999
 30
0.0
 11
5251.6040380000013
 21
1438.5738289999999
 31
0.0
  0
LINE
  5
1472C
  8
SUNPOU
 10
6561.6040380000004
 20
1913.5738289999999
 30
0.0
 11
6561.6040380000004
 21
1918.5738289999999
 31
0.0
  0
LINE
  5
1472E
  8
SUNPOU
 10
6236.6040380000022
 20
1578.5738289999999
 30
0.0
 11
6231.6040380000013
 21
1578.5738289999999
 31
0.0
  0
LINE
  5
14730
  8
SUNPOU
 10
6236.6040380000022
 20
1438.5738289999999
 30
0.0
 11
6231.6040380000013
 21
1438.5738289999999
 31
0.0
  0
LINE
  5
14732
  8
SUNPOU
 10
6701.6040380000022
 20
1883.5738289999999
 30
0.0
 11
6701.6040380000022
 21
1888.5738289999999
 31
0.0
  0
LINE
  5
14734
  8
SUNPOU
 10
6701.6040380000022
 20
1903.5738289999999
 30
0.0
 11
6701.6040380000022
 21
1898.5738289999999
 31
0.0
  0
LINE
  5
14736
  8
SUNPOU
 10
6701.6040380000022
 20
1913.5738289999999
 30
0.0
 11
6701.6040380000022
 21
1918.5738289999999
 31
0.0
  0
LINE
  5
14738
  8
SUNPOU
 10
6561.6040380000004
 20
2285.5738289999999
 30
0.0
 11
6561.6040380000004
 21
2280.5738289999999
 31
0.0
  0
LINE
  5
1473A
  8
SUNPOU
 10
6701.6040380000022
 20
2545.5738289999999
 30
0.0
 11
6701.6040380000022
 21
2540.5738289999999
 31
0.0
  0
LINE
  5
1473C
  8
SUNPOU
 10
4455.1041380000024
 20
3308.5934370000009
 30
0.0
 11
4450.1041380000024
 21
3308.5934370000009
 31
0.0
  0
LINE
  5
1473E
  8
SUNPOU
 10
1669.104137999999
 20
3308.5934370000009
 30
0.0
 11
1674.1041379999999
 21
3308.5934370000009
 31
0.0
  0
LINE
  5
14740
  8
SUNPOU
 10
3867.1041380000011
 20
3448.5934369999991
 30
0.0
 11
3872.1041380000001
 21
3448.5934369999991
 31
0.0
  0
LINE
  5
14742
  8
SUNPOU
 10
3857.1041380000001
 20
3448.5934369999991
 30
0.0
 11
3852.1041380000001
 21
3448.5934369999991
 31
0.0
  0
LINE
  5
14744
  8
SUNPOU
 10
3467.1041380000011
 20
3448.5934369999991
 30
0.0
 11
3472.1041380000011
 21
3448.5934369999991
 31
0.0
  0
LINE
  5
14746
  8
SUNPOU
 10
3457.1041380000001
 20
3448.5934369999991
 30
0.0
 11
3452.1041380000001
 21
3448.5934369999991
 31
0.0
  0
LINE
  5
14748
  8
SUNPOU
 10
3067.1041380000001
 20
3448.5934369999991
 30
0.0
 11
3072.1041380000001
 21
3448.5934369999991
 31
0.0
  0
LINE
  5
1474A
  8
SUNPOU
 10
3057.1041380000001
 20
3448.5934369999991
 30
0.0
 11
3052.1041380000011
 21
3448.5934369999991
 31
0.0
  0
LINE
  5
1474C
  8
SUNPOU
 10
2667.1041380000001
 20
3448.5934369999991
 30
0.0
 11
2672.1041380000001
 21
3448.5934369999991
 31
0.0
  0
LINE
  5
1474E
  8
SUNPOU
 10
2657.1041380000001
 20
3448.5934369999991
 30
0.0
 11
2652.1041380000001
 21
3448.5934369999991
 31
0.0
  0
LINE
  5
14750
  8
SUNPOU
 10
2267.1041380000001
 20
3448.5934369999991
 30
0.0
 11
2272.1041380000001
 21
3448.5934369999991
 31
0.0
  0
LINE
  5
14752
  8
SUNPOU
 10
2257.1041380000001
 20
3448.5934369999991
 30
0.0
 11
2252.1041380000001
 21
3448.5934369999991
 31
0.0
  0
LINE
  5
14754
  8
SUNPOU
 10
1867.1041379999999
 20
3448.5934369999991
 30
0.0
 11
1872.1041379999999
 21
3448.5934369999991
 31
0.0
  0
LINE
  5
14756
  8
SUNPOU
 10
1857.1041379999999
 20
3448.5934369999991
 30
0.0
 11
1852.1041379999999
 21
3448.5934369999991
 31
0.0
  0
LINE
  5
14758
  8
SUNPOU
 10
1669.104137999999
 20
3448.5934369999991
 30
0.0
 11
1674.1041379999999
 21
3448.5934369999991
 31
0.0
  0
LINE
  5
1475A
  8
SUNPOU
 10
4900.1041379999988
 20
4729.6974299999983
 30
0.0
 11
4900.1041379999988
 21
4724.6974299999983
 31
0.0
  0
LINE
  5
1475C
  8
SUNPOU
 10
4900.1041379999988
 20
3739.6974300000002
 30
0.0
 11
4900.1041379999988
 21
3744.6974300000002
 31
0.0
  0
LINE
  5
1475E
  8
SUNPOU
 10
4760.1041379999988
 20
4729.6974299999983
 30
0.0
 11
4760.1041379999988
 21
4724.6974299999983
 31
0.0
  0
LINE
  5
14760
  8
SUNPOU
 10
4760.1041379999988
 20
3939.6974300000011
 30
0.0
 11
4760.1041379999988
 21
3944.6974300000002
 31
0.0
  0
LINE
  5
14762
  8
SUNPOU
 10
4267.1041379999988
 20
3448.5934369999991
 30
0.0
 11
4272.1041379999988
 21
3448.5934369999991
 31
0.0
  0
LINE
  5
14764
  8
SUNPOU
 10
4257.1041379999988
 20
3448.5934369999991
 30
0.0
 11
4252.1041379999988
 21
3448.5934369999991
 31
0.0
  0
LINE
  5
14766
  8
SUNPOU
 10
4267.1041379999988
 20
3448.5934369999991
 30
0.0
 11
4272.1041379999988
 21
3448.5934369999991
 31
0.0
  0
LINE
  5
14768
  8
SUNPOU
 10
4455.1041380000024
 20
3448.5934369999991
 30
0.0
 11
4450.1041380000024
 21
3448.5934369999991
 31
0.0
  0
LINE
  5
1476A
  8
SUNPOU
 10
4455.1041380000024
 20
5159.6974299999983
 30
0.0
 11
4450.1041380000024
 21
5159.6974299999983
 31
0.0
  0
LINE
  5
1476C
  8
SUNPOU
 10
3667.1041380000011
 20
5159.6974299999983
 30
0.0
 11
3672.1041380000001
 21
5159.6974299999983
 31
0.0
  0
LINE
  5
1476E
  8
SUNPOU
 10
3657.1041380000011
 20
5159.6974299999983
 30
0.0
 11
3652.1041380000001
 21
5159.6974299999983
 31
0.0
  0
LINE
  5
14770
  8
SUNPOU
 10
2467.1041380000001
 20
5159.6974299999983
 30
0.0
 11
2472.1041380000011
 21
5159.6974299999983
 31
0.0
  0
LINE
  5
14772
  8
SUNPOU
 10
2457.1041380000001
 20
5159.6974299999983
 30
0.0
 11
2452.1041380000011
 21
5159.6974299999983
 31
0.0
  0
LINE
  5
14774
  8
SUNPOU
 10
1669.104137999999
 20
5159.6974299999983
 30
0.0
 11
1674.1041379999999
 21
5159.6974299999983
 31
0.0
  0
LINE
  5
14775
  8
SUNPOU
 10
2485.6938666416481
 20
4765.5560792270653
 30
0.0
 11
2464.3541380000001
 21
4708.594544999999
 31
0.0
  0
LINE
  5
14776
  8
SUNPOU
 10
2464.3541380000001
 20
4708.594544999999
 30
0.0
 11
2503.0144093583531
 21
4755.5560592270649
 31
0.0
  0
SOLID
  5
14777
  8
SUNPOU
 10
2485.6938666416481
 20
4765.5560792270653
 30
0.0
 11
2503.0144093583531
 21
4755.5560592270649
 31
0.0
 12
2464.3541380000001
 22
4708.594544999999
 32
0.0
 13
2464.3541380000001
 23
4708.594544999999
 33
0.0
  0
LINE
  5
14778
  8
SUNPOU
 10
2503.0144093583531
 20
4755.5560592270649
 30
0.0
 11
2485.6938666416481
 21
4765.5560792270653
 31
0.0
  0
ARC
  5
14779
  8
SUNPOU
 10
1378.5339612942021
 20
4704.6974299999983
 30
0.0
 40
2.5
 50
270.0
 51
90.0
  0
ARC
  5
1477A
  8
SUNPOU
 10
1378.5339612942021
 20
4704.6974299999983
 30
0.0
 40
2.5
 50
90.0
 51
270.0
  0
ARC
  5
1477B
  8
SUNPOU
 10
1378.5339612942
 20
4206.6974299999983
 30
0.0
 40
2.5
 50
90.0
 51
270.0
  0
ARC
  5
1477C
  8
SUNPOU
 10
1378.5339612942
 20
4206.6974299999983
 30
0.0
 40
2.5
 50
270.0
 51
90.0
  0
ARC
  5
1477D
  8
SUNPOU
 10
1378.5339612942021
 20
4719.6974299999993
 30
0.0
 40
2.5
 50
90.0
 51
270.0
  0
ARC
  5
1477E
  8
SUNPOU
 10
1378.5339612942021
 20
4719.6974299999993
 30
0.0
 40
2.5
 50
270.0
 51
90.0
  0
ARC
  5
1477F
  8
SUNPOU
 10
1378.5339612942021
 20
4704.6974299999983
 30
0.0
 40
2.5
 50
270.0
 51
90.0
  0
ARC
  5
14780
  8
SUNPOU
 10
1378.5339612942021
 20
4704.6974299999983
 30
0.0
 40
2.5
 50
90.0
 51
270.0
  0
ARC
  5
14781
  8
SUNPOU
 10
1378.5339612942021
 20
4191.6974299999983
 30
0.0
 40
2.5
 50
270.0
 51
90.0
  0
ARC
  5
14782
  8
SUNPOU
 10
1378.5339612942021
 20
4191.6974299999983
 30
0.0
 40
2.5
 50
90.0
 51
270.0
  0
ARC
  5
14783
  8
SUNPOU
 10
1378.5339612942021
 20
4206.6974299999983
 30
0.0
 40
2.5
 50
90.0
 51
270.0
  0
ARC
  5
14784
  8
SUNPOU
 10
1378.5339612942021
 20
4206.6974299999983
 30
0.0
 40
2.5
 50
270.0
 51
90.0
  0
ARC
  5
14785
  8
SUNPOU
 10
1664.1041379999999
 20
1438.5738289999999
 30
0.0
 40
2.5
 50
0.0
 51
180.0
  0
ARC
  5
14786
  8
SUNPOU
 10
1664.1041379999999
 20
1438.5738289999999
 30
0.0
 40
2.5
 50
180.0
 51
0.0
  0
ARC
  5
14787
  8
SUNPOU
 10
4460.1041380000006
 20
1438.5738289999999
 30
0.0
 40
2.5
 50
180.0
 51
0.0
  0
ARC
  5
14788
  8
SUNPOU
 10
4460.1041380000006
 20
1438.5738289999999
 30
0.0
 40
2.5
 50
0.0
 51
180.0
  0
ARC
  5
14789
  8
SUNPOU
 10
5441.6037249999999
 20
1578.5738289999999
 30
0.0
 40
2.5
 50
0.0
 51
180.0
  0
ARC
  5
1478A
  8
SUNPOU
 10
5441.6037249999999
 20
1578.5738289999999
 30
0.0
 40
2.5
 50
180.0
 51
0.0
  0
ARC
  5
1478B
  8
SUNPOU
 10
5241.6040380000013
 20
1438.5738289999999
 30
0.0
 40
2.5
 50
0.0
 51
180.0
  0
ARC
  5
1478C
  8
SUNPOU
 10
5241.6040380000013
 20
1438.5738289999999
 30
0.0
 40
2.5
 50
180.0
 51
0.0
  0
ARC
  5
1478D
  8
SUNPOU
 10
6561.6040380000004
 20
1908.5738289999999
 30
0.0
 40
2.5
 50
90.0
 51
270.0
  0
ARC
  5
1478E
  8
SUNPOU
 10
6561.6040380000004
 20
1908.5738289999999
 30
0.0
 40
2.5
 50
270.0
 51
90.0
  0
ARC
  5
1478F
  8
SUNPOU
 10
6241.6040380000013
 20
1578.5738289999999
 30
0.0
 40
2.5
 50
180.0
 51
0.0
  0
ARC
  5
14790
  8
SUNPOU
 10
6241.6040380000013
 20
1578.5738289999999
 30
0.0
 40
2.5
 50
0.0
 51
180.0
  0
ARC
  5
14791
  8
SUNPOU
 10
6241.6040380000013
 20
1438.5738289999999
 30
0.0
 40
2.5
 50
180.0
 51
0.0
  0
ARC
  5
14792
  8
SUNPOU
 10
6241.6040380000013
 20
1438.5738289999999
 30
0.0
 40
2.5
 50
0.0
 51
180.0
  0
ARC
  5
14793
  8
SUNPOU
 10
6701.6040380000022
 20
1878.5738289999999
 30
0.0
 40
2.5
 50
90.0
 51
270.0
  0
ARC
  5
14794
  8
SUNPOU
 10
6701.6040380000022
 20
1878.5738289999999
 30
0.0
 40
2.5
 50
270.0
 51
90.0
  0
ARC
  5
14795
  8
SUNPOU
 10
6701.6040380000022
 20
1908.5738289999999
 30
0.0
 40
2.5
 50
270.0
 51
90.0
  0
ARC
  5
14796
  8
SUNPOU
 10
6701.6040380000022
 20
1908.5738289999999
 30
0.0
 40
2.5
 50
90.0
 51
270.0
  0
ARC
  5
14797
  8
SUNPOU
 10
6701.6040380000022
 20
1908.5738289999999
 30
0.0
 40
2.5
 50
90.0
 51
270.0
  0
ARC
  5
14798
  8
SUNPOU
 10
6701.6040380000022
 20
1908.5738289999999
 30
0.0
 40
2.5
 50
270.0
 51
90.0
  0
ARC
  5
14799
  8
SUNPOU
 10
6561.6040380000004
 20
2290.5738289999999
 30
0.0
 40
2.5
 50
270.0
 51
90.0
  0
ARC
  5
1479A
  8
SUNPOU
 10
6561.6040380000004
 20
2290.5738289999999
 30
0.0
 40
2.5
 50
90.0
 51
270.0
  0
ARC
  5
1479B
  8
SUNPOU
 10
6701.6040380000022
 20
2550.5738289999999
 30
0.0
 40
2.5
 50
270.0
 51
90.0
  0
ARC
  5
1479C
  8
SUNPOU
 10
6701.6040380000022
 20
2550.5738289999999
 30
0.0
 40
2.5
 50
90.0
 51
270.0
  0
ARC
  5
1479D
  8
SUNPOU
 10
4460.1041380000006
 20
3308.5934370000009
 30
0.0
 40
2.5
 50
180.0
 51
0.0
  0
ARC
  5
1479E
  8
SUNPOU
 10
4460.1041380000006
 20
3308.5934370000009
 30
0.0
 40
2.5
 50
0.0
 51
180.0
  0
ARC
  5
1479F
  8
SUNPOU
 10
1664.1041379999999
 20
3308.5934370000009
 30
0.0
 40
2.5
 50
0.0
 51
180.0
  0
ARC
  5
147A0
  8
SUNPOU
 10
1664.1041379999999
 20
3308.5934370000009
 30
0.0
 40
2.5
 50
180.0
 51
0.0
  0
ARC
  5
147A1
  8
SUNPOU
 10
3862.1041380000001
 20
3448.5934369999991
 30
0.0
 40
2.5
 50
0.0
 51
180.0
  0
ARC
  5
147A2
  8
SUNPOU
 10
3862.1041380000001
 20
3448.5934369999991
 30
0.0
 40
2.5
 50
180.0
 51
0.0
  0
ARC
  5
147A3
  8
SUNPOU
 10
3862.1041380000001
 20
3448.5934369999991
 30
0.0
 40
2.5
 50
180.0
 51
0.0
  0
ARC
  5
147A4
  8
SUNPOU
 10
3862.1041380000001
 20
3448.5934369999991
 30
0.0
 40
2.5
 50
0.0
 51
180.0
  0
ARC
  5
147A5
  8
SUNPOU
 10
3462.1041380000001
 20
3448.5934369999991
 30
0.0
 40
2.5
 50
0.0
 51
180.0
  0
ARC
  5
147A6
  8
SUNPOU
 10
3462.1041380000001
 20
3448.5934369999991
 30
0.0
 40
2.5
 50
180.0
 51
0.0
  0
ARC
  5
147A7
  8
SUNPOU
 10
3462.1041380000001
 20
3448.5934369999991
 30
0.0
 40
2.5
 50
180.0
 51
0.0
  0
ARC
  5
147A8
  8
SUNPOU
 10
3462.1041380000001
 20
3448.5934369999991
 30
0.0
 40
2.5
 50
0.0
 51
180.0
  0
ARC
  5
147A9
  8
SUNPOU
 10
3062.1041380000001
 20
3448.5934369999991
 30
0.0
 40
2.5
 50
0.0
 51
180.0
  0
ARC
  5
147AA
  8
SUNPOU
 10
3062.1041380000001
 20
3448.5934369999991
 30
0.0
 40
2.5
 50
180.0
 51
0.0
  0
ARC
  5
147AB
  8
SUNPOU
 10
3062.1041380000001
 20
3448.5934369999991
 30
0.0
 40
2.5
 50
180.0
 51
0.0
  0
ARC
  5
147AC
  8
SUNPOU
 10
3062.1041380000001
 20
3448.5934369999991
 30
0.0
 40
2.5
 50
0.0
 51
180.0
  0
ARC
  5
147AD
  8
SUNPOU
 10
2662.1041380000001
 20
3448.5934369999991
 30
0.0
 40
2.5
 50
0.0
 51
180.0
  0
ARC
  5
147AE
  8
SUNPOU
 10
2662.1041380000001
 20
3448.5934369999991
 30
0.0
 40
2.5
 50
180.0
 51
0.0
  0
ARC
  5
147AF
  8
SUNPOU
 10
2662.1041380000001
 20
3448.5934369999991
 30
0.0
 40
2.5
 50
180.0
 51
0.0
  0
ARC
  5
147B0
  8
SUNPOU
 10
2662.1041380000001
 20
3448.5934369999991
 30
0.0
 40
2.5
 50
0.0
 51
180.0
  0
ARC
  5
147B1
  8
SUNPOU
 10
2262.1041380000001
 20
3448.5934369999991
 30
0.0
 40
2.5
 50
0.0
 51
180.0
  0
ARC
  5
147B2
  8
SUNPOU
 10
2262.1041380000001
 20
3448.5934369999991
 30
0.0
 40
2.5
 50
180.0
 51
0.0
  0
ARC
  5
147B3
  8
SUNPOU
 10
2262.1041380000001
 20
3448.5934369999991
 30
0.0
 40
2.5
 50
180.0
 51
0.0
  0
ARC
  5
147B4
  8
SUNPOU
 10
2262.1041380000001
 20
3448.5934369999991
 30
0.0
 40
2.5
 50
0.0
 51
180.0
  0
ARC
  5
147B5
  8
SUNPOU
 10
1862.1041379999999
 20
3448.5934369999991
 30
0.0
 40
2.5
 50
0.0
 51
180.0
  0
ARC
  5
147B6
  8
SUNPOU
 10
1862.1041379999999
 20
3448.5934369999991
 30
0.0
 40
2.5
 50
180.0
 51
0.0
  0
ARC
  5
147B7
  8
SUNPOU
 10
1862.1041379999999
 20
3448.5934369999991
 30
0.0
 40
2.5
 50
180.0
 51
0.0
  0
ARC
  5
147B8
  8
SUNPOU
 10
1862.1041379999999
 20
3448.5934369999991
 30
0.0
 40
2.5
 50
0.0
 51
180.0
  0
ARC
  5
147B9
  8
SUNPOU
 10
1664.1041379999999
 20
3448.5934369999991
 30
0.0
 40
2.5
 50
0.0
 51
180.0
  0
ARC
  5
147BA
  8
SUNPOU
 10
1664.1041379999999
 20
3448.5934369999991
 30
0.0
 40
2.5
 50
180.0
 51
0.0
  0
ARC
  5
147BB
  8
SUNPOU
 10
4900.1041379999988
 20
4734.6974299999983
 30
0.0
 40
2.5
 50
270.0
 51
90.0
  0
ARC
  5
147BC
  8
SUNPOU
 10
4900.1041379999988
 20
4734.6974299999983
 30
0.0
 40
2.5
 50
90.0
 51
270.0
  0
ARC
  5
147BD
  8
SUNPOU
 10
4900.1041379999988
 20
3734.6974300000002
 30
0.0
 40
2.5
 50
90.0
 51
270.0
  0
ARC
  5
147BE
  8
SUNPOU
 10
4900.1041379999988
 20
3734.6974300000002
 30
0.0
 40
2.5
 50
270.0
 51
90.0
  0
ARC
  5
147BF
  8
SUNPOU
 10
4760.1041379999988
 20
4734.6974299999983
 30
0.0
 40
2.5
 50
270.0
 51
90.0
  0
ARC
  5
147C0
  8
SUNPOU
 10
4760.1041379999988
 20
4734.6974299999983
 30
0.0
 40
2.5
 50
90.0
 51
270.0
  0
ARC
  5
147C1
  8
SUNPOU
 10
4760.1041379999988
 20
3934.6974300000002
 30
0.0
 40
2.5
 50
90.0
 51
270.0
  0
ARC
  5
147C2
  8
SUNPOU
 10
4760.1041379999988
 20
3934.6974300000002
 30
0.0
 40
2.5
 50
270.0
 51
90.0
  0
ARC
  5
147C3
  8
SUNPOU
 10
4262.1041379999997
 20
3448.5934369999991
 30
0.0
 40
2.5
 50
0.0
 51
180.0
  0
ARC
  5
147C4
  8
SUNPOU
 10
4262.1041379999997
 20
3448.5934369999991
 30
0.0
 40
2.5
 50
180.0
 51
0.0
  0
ARC
  5
147C5
  8
SUNPOU
 10
4262.1041379999997
 20
3448.5934369999991
 30
0.0
 40
2.5
 50
180.0
 51
0.0
  0
ARC
  5
147C6
  8
SUNPOU
 10
4262.1041379999997
 20
3448.5934369999991
 30
0.0
 40
2.5
 50
0.0
 51
180.0
  0
ARC
  5
147C7
  8
SUNPOU
 10
4262.1041379999997
 20
3448.5934369999991
 30
0.0
 40
2.5
 50
0.0
 51
180.0
  0
ARC
  5
147C8
  8
SUNPOU
 10
4262.1041379999997
 20
3448.5934369999991
 30
0.0
 40
2.5
 50
180.0
 51
0.0
  0
ARC
  5
147C9
  8
SUNPOU
 10
4460.1041380000006
 20
3448.5934369999991
 30
0.0
 40
2.5
 50
180.0
 51
0.0
  0
ARC
  5
147CA
  8
SUNPOU
 10
4460.1041380000006
 20
3448.5934369999991
 30
0.0
 40
2.5
 50
0.0
 51
180.0
  0
ARC
  5
147CB
  8
SUNPOU
 10
4460.1041380000006
 20
5159.6974299999983
 30
0.0
 40
2.5
 50
180.0
 51
0.0
  0
ARC
  5
147CC
  8
SUNPOU
 10
4460.1041380000006
 20
5159.6974299999983
 30
0.0
 40
2.5
 50
0.0
 51
180.0
  0
ARC
  5
147CD
  8
SUNPOU
 10
3662.1041380000001
 20
5159.6974299999983
 30
0.0
 40
2.5
 50
0.0
 51
180.0
  0
ARC
  5
147CE
  8
SUNPOU
 10
3662.1041380000001
 20
5159.6974299999983
 30
0.0
 40
2.5
 50
180.0
 51
0.0
  0
ARC
  5
147CF
  8
SUNPOU
 10
3662.1041380000001
 20
5159.6974299999983
 30
0.0
 40
2.5
 50
180.0
 51
0.0
  0
ARC
  5
147D0
  8
SUNPOU
 10
3662.1041380000001
 20
5159.6974299999983
 30
0.0
 40
2.5
 50
0.0
 51
180.0
  0
ARC
  5
147D1
  8
SUNPOU
 10
2462.1041380000001
 20
5159.6974299999983
 30
0.0
 40
2.5
 50
0.0
 51
180.0
  0
ARC
  5
147D2
  8
SUNPOU
 10
2462.1041380000001
 20
5159.6974299999983
 30
0.0
 40
2.5
 50
180.0
 51
0.0
  0
ARC
  5
147D3
  8
SUNPOU
 10
2462.1041380000001
 20
5159.6974299999983
 30
0.0
 40
2.5
 50
180.0
 51
0.0
  0
ARC
  5
147D4
  8
SUNPOU
 10
2462.1041380000001
 20
5159.6974299999983
 30
0.0
 40
2.5
 50
0.0
 51
180.0
  0
ARC
  5
147D5
  8
SUNPOU
 10
1664.1041379999999
 20
5159.6974299999983
 30
0.0
 40
2.5
 50
0.0
 51
180.0
  0
ARC
  5
147D6
  8
SUNPOU
 10
1664.1041379999999
 20
5159.6974299999983
 30
0.0
 40
2.5
 50
180.0
 51
0.0
  0
LINE
  5
1481A
  8
LW1
 10
4961.0161481338528
 20
5446.3565557345119
 30
0.0
 11
7971.13800095649
 21
5446.3565557345119
 31
0.0
  0
LINE
  5
1481B
  8
LW1
 10
4961.0161481338528
 20
5350.35655573451
 30
0.0
 11
7971.13800095649
 21
5350.35655573451
 31
0.0
  0
LINE
  5
1481C
  8
LW1
 10
4961.0161481338528
 20
5254.3565557344737
 30
0.0
 11
7971.13800095649
 21
5254.3565557344737
 31
0.0
  0
LINE
  5
1481D
  8
LW1
 10
4961.0161481338528
 20
5158.3565557344737
 30
0.0
 11
7971.13800095649
 21
5158.3565557344737
 31
0.0
  0
LINE
  5
1481E
  8
LW1
 10
4961.0161481338528
 20
5062.3565557344391
 30
0.0
 11
7971.13800095649
 21
5062.3565557344391
 31
0.0
  0
TEXT
  5
1481F
  8
LM2
 10
6328.0482230041052
 20
5184.7565557344333
 30
0.0
 40
43.200000000000003
  1
塗装溶融亜鉛めっき鋼板
 41
0.88
  7
01
  0
LINE
  5
14820
  8
LW1
 10
6300.2161481338544
 20
5062.3565557344391
 30
0.0
 11
6300.2161481338544
 21
5446.3565557345119
 31
0.0
  0
LINE
  5
14821
  8
LW1
 10
6036.2161481338544
 20
5062.3565557344391
 30
0.0
 11
6036.2161481338544
 21
5446.3565557345119
 31
0.0
  0
LINE
  5
14822
  8
LW1
 10
4961.0161481338528
 20
5062.3565557344391
 30
0.0
 11
4961.0161481338528
 21
5446.3565557345119
 31
0.0
  0
LINE
  5
14823
  8
LW1
 10
5393.0161481338528
 20
5062.3565557344391
 30
0.0
 11
5393.01614813385
 21
5446.3565557345119
 31
0.0
  0
LINE
  5
14824
  8
LM2
 10
5609.977491068883
 20
5206.3565557345119
 30
0.0
 11
5556.644157735549
 21
5206.3565557345119
 31
0.0
  0
LINE
  5
14825
  8
LM2
 10
5609.977491068883
 20
5110.3565557345119
 30
0.0
 11
5556.644157735549
 21
5110.3565557345119
 31
0.0
  0
TEXT
  5
14826
  8
LM2
 10
5105.01614813385
 20
5376.7565557344979
 30
0.0
 40
43.200000000000017
  1
部材表
  7
01
 72
     4
 11
5177.0161481338509
 21
5398.3565557344991
 31
0.0
  0
TEXT
  5
14827
  8
LM2
 10
5053.1761481338499
 20
5088.7565557345069
 30
0.0
 40
43.200000000000003
  1
土台つなぎ
  7
01
 72
     4
 11
5177.0161481338509
 21
5110.3565557345073
 31
0.0
  0
LINE
  5
14828
  8
KETA_M
 10
5521.7157702760996
 20
5120.8689763356751
 30
0.0
 11
5521.7157702760996
 21
5083.1816546849714
 31
0.0
  0
LINE
  5
14829
  8
KETA_M
 10
5520.5779924983217
 20
5083.1816546849714
 30
0.0
 11
5520.5779924983217
 21
5120.868976335677
 31
0.0
  0
LINE
  5
1482A
  8
KETA_M
 10
5451.7424369427663
 20
5120.868976335677
 30
0.0
 11
5451.7424369427663
 21
5083.1816546849714
 31
0.0
  0
LINE
  5
1482B
  8
KETA_M
 10
5450.6046591649911
 20
5083.1816546849714
 30
0.0
 11
5450.6046591649911
 21
5120.8689763356751
 31
0.0
  0
ARC
  5
1482C
  8
KETA_M
 10
5516.3113258316553
 20
5120.8689763356751
 30
0.0
 40
5.4044444444455912
 50
0.0
 51
90.0
  0
ARC
  5
1482D
  8
KETA_M
 10
5516.3113258316553
 20
5120.868976335677
 30
0.0
 40
4.2666666666673292
 50
0.0
 51
90.0
  0
LINE
  5
1482E
  8
KETA_M
 10
5516.3113258316553
 20
5125.1356430023452
 30
0.0
 11
5456.0091036094354
 21
5125.1356430023452
 31
0.0
  0
ARC
  5
1482F
  8
KETA_M
 10
5456.0091036094354
 20
5120.868976335677
 30
0.0
 40
4.2666666666673292
 50
90.0
 51
180.0
  0
ARC
  5
14830
  8
KETA_M
 10
5456.0091036094354
 20
5120.8689763356751
 30
0.0
 40
5.4044444444455912
 50
90.0
 51
180.0
  0
LINE
  5
14831
  8
KETA_M
 10
5456.0091036094354
 20
5126.2734207801204
 30
0.0
 11
5516.3113775266011
 21
5126.2734207801241
 31
0.0
  0
TEXT
  5
14832
  8
LM2
 10
5638.2173462107721
 20
5184.7565557345106
 30
0.0
 40
43.200000000000003
  1
90 x 30
 41
0.9
  7
01
  0
TEXT
  5
14833
  8
LM2
 10
5638.2173462107721
 20
5088.7565557345106
 30
0.0
 40
43.200000000000003
  1
46 x 31
 41
0.9
  7
01
  0
TEXT
  5
14834
  8
LM2
 10
5668.5361481339196
 20
5376.7565557344979
 30
0.0
 40
43.200000000000017
  1
形状
  7
01
 72
     4
 11
5714.6161481339204
 21
5398.3565557344991
 31
0.0
  0
TEXT
  5
14835
  8
LM2
 10
6077.4961481338532
 20
5280.7565557345097
 30
0.0
 40
43.200000000000003
  1
9%%Cmm
 41
0.9
  7
01
 72
     4
 11
6168.2161481338544
 21
5302.35655573451
 31
0.0
  0
TEXT
  5
14836
  8
LM2
 10
6067.3132909909973
 20
5184.756555734506
 30
0.0
 40
43.200000000000003
  1
2.3mm
 41
0.9
  7
01
 72
     4
 11
6168.2161481338544
 21
5206.3565557345064
 31
0.0
  0
TEXT
  5
14837
  8
LM2
 10
6064.5361481338532
 20
5088.7565557345069
 30
0.0
 40
43.200000000000003
  1
1.2mm
 41
0.9
  7
01
 72
     4
 11
6168.2161481338544
 21
5110.3565557345073
 31
0.0
  0
TEXT
  5
14838
  8
LM2
 10
6122.1361481338527
 20
5376.7565557344979
 30
0.0
 40
43.200000000000017
  1
板厚
  7
01
 72
     4
 11
6168.2161481338544
 21
5398.3565557344991
 31
0.0
  0
LINE
  5
14839
  8
LW1
 10
7971.1380009564882
 20
5062.3565557344391
 30
0.0
 11
7971.13800095649
 21
5446.3565557345119
 31
0.0
  0
TEXT
  5
1483A
  8
LM2
 10
6742.2961481338534
 20
5376.7565557344979
 30
0.0
 40
43.200000000000017
  1
使用材料
  7
01
 72
     4
 11
6840.2161481338544
 21
5398.3565557344991
 31
0.0
  0
TEXT
  5
1483B
  8
LM2
 10
5130.9361481338501
 20
5184.7565557345042
 30
0.0
 40
43.200000000000003
  1
土台
  7
01
 72
     4
 11
5177.0161481338509
 21
5206.3565557345046
 31
0.0
  0
TEXT
  5
1483C
  8
LM2
 10
5130.9361481338501
 20
5280.7565557345097
 30
0.0
 40
43.200000000000003
  1
本体
  7
01
 72
     4
 11
5177.0161481338509
 21
5302.35655573451
 31
0.0
  0
TEXT
  5
1483D
  8
LM2
 10
6328.0482230041061
 20
5280.7565557344724
 30
0.0
 40
43.200000000000003
  1
JIS G3112 鉄筋コンクリート用棒鋼 SR235
 41
0.88
  7
01
  0
TEXT
  5
1483E
  8
LM2
 10
5687.8732909909977
 20
5283.84227002026
 30
0.0
 40
43.200000000000003
  1
-
  7
01
 72
     4
 11
5714.6161481338549
 21
5302.3565557345464
 31
0.0
  0
LINE
  5
1483F
  8
KETA_M
 10
5530.1278043622433
 20
5219.8857080629514
 30
0.0
 11
5530.1278043622433
 21
5193.0983299035097
 31
0.0
  0
LINE
  5
14840
  8
KETA_M
 10
5528.9900265844681
 20
5193.0983299035097
 30
0.0
 11
5528.9900265844681
 21
5219.8857080629559
 31
0.0
  0
LINE
  5
14841
  8
KETA_M
 10
5474.8148023758113
 20
5219.8857080629559
 30
0.0
 11
5474.8148023758113
 21
5193.0983299035097
 31
0.0
  0
LINE
  5
14842
  8
KETA_M
 10
5473.6770245980351
 20
5193.0983299035097
 30
0.0
 11
5473.6770245980351
 21
5219.8857080629514
 31
0.0
  0
ARC
  5
14843
  8
KETA_M
 10
5524.7233599178007
 20
5219.8857080629514
 30
0.0
 40
5.4044444444455912
 50
0.0
 51
90.0
  0
ARC
  5
14844
  8
KETA_M
 10
5524.7233599178007
 20
5219.8857080629559
 30
0.0
 40
4.2666666666673292
 50
0.0
 51
90.0
  0
LINE
  5
14845
  8
KETA_M
 10
5524.7233599178007
 20
5224.1523747296196
 30
0.0
 11
5479.0814690424804
 21
5224.1523747296196
 31
0.0
  0
ARC
  5
14846
  8
KETA_M
 10
5479.0814690424804
 20
5219.8857080629559
 30
0.0
 40
4.2666666666673292
 50
90.0
 51
180.0
  0
ARC
  5
14847
  8
KETA_M
 10
5479.0814690424804
 20
5219.8857080629514
 30
0.0
 40
5.4044444444455912
 50
90.0
 51
180.0
  0
LINE
  5
14848
  8
KETA_M
 10
5479.0814690424804
 20
5225.2901525073976
 30
0.0
 11
5524.7234116127493
 21
5225.2901525074003
 31
0.0
  0
ARC
  5
14849
  8
KETA_M
 10
5524.7233599178007
 20
5193.0983299035079
 30
0.0
 40
5.4044444444437731
 50
270.0
 51
0.0
  0
LINE
  5
1484A
  8
KETA_M
 10
5524.7233599178007
 20
5187.6938854590662
 30
0.0
 11
5517.3278043622458
 21
5187.6938854590662
 31
0.0
  0
LINE
  5
1484B
  8
KETA_M
 10
5517.3278043622458
 20
5187.6938854590662
 30
0.0
 11
5517.3278043622458
 21
5188.8316632368424
 31
0.0
  0
LINE
  5
1484C
  8
KETA_M
 10
5517.3278043622458
 20
5188.8316632368424
 30
0.0
 11
5524.7233599178007
 21
5188.8316632368424
 31
0.0
  0
ARC
  5
1484D
  8
KETA_M
 10
5524.7233599178007
 20
5193.0983299035097
 30
0.0
 40
4.2666666666673292
 50
270.0
 51
0.0
  0
ARC
  5
1484E
  8
KETA_M
 10
5469.4103579313669
 20
5193.0983299035097
 30
0.0
 40
4.2666666666673292
 50
270.0
 51
0.0
  0
LINE
  5
1484F
  8
KETA_M
 10
5469.4103579313669
 20
5188.8316632368424
 30
0.0
 11
5431.0652139767917
 21
5188.8316632368424
 31
0.0
  0
LINE
  5
14850
  8
KETA_M
 10
5431.0652139767917
 20
5188.8316632368424
 30
0.0
 11
5431.0652139767917
 21
5187.6938854590662
 31
0.0
  0
LINE
  5
14851
  8
KETA_M
 10
5431.0652139767917
 20
5187.6938854590662
 30
0.0
 11
5469.4103579313669
 21
5187.6938854590662
 31
0.0
  0
ARC
  5
14852
  8
KETA_M
 10
5469.4103579313669
 20
5193.0983299035079
 30
0.0
 40
5.4044444444437731
 50
270.0
 51
0.0
  0
LINE
  5
14853
  8
SUNPOU
 10
5521.7157702760996
 20
5083.1816546849714
 30
0.0
 11
5520.5779924983217
 21
5083.1816546849714
 31
0.0
  0
LINE
  5
14854
  8
SUNPOU
 10
5451.7424369427663
 20
5083.1816546849714
 30
0.0
 11
5450.6046591649911
 21
5083.1816546849714
 31
0.0
  0
TEXT
  5
14855
  8
LM2
 10
6328.0482230041052
 20
5088.7565557344351
 30
0.0
 40
43.200000000000003
  1
JIS G3322 塗装溶融55%アルミニウム-亜鉛合金めっき鋼板　CGLCC
 41
0.88
  7
01
  0
ENDSEC
  0
EOF
