  0
SECTION
  2
HEADER
  9
$ACADVER
  1
AC1015
  9
$ACADMAINTVER
 70
    10
  9
$DWGCODEPAGE
  3
ANSI_932
  9
$INSBASE
 10
0.0
 20
0.0
 30
0.0
  9
$EXTMIN
 10
0.0
 20
0.0
 30
0.0
  9
$EXTMAX
 10
5330.0
 20
3709.57411613907
 30
0.0
  9
$LIMMIN
 10
0.0
 20
0.0
  9
$LIMMAX
 10
5940.0
 20
4200.0
  9
$ORTHOMODE
 70
     1
  9
$REGENMODE
 70
     1
  9
$FILLMODE
 70
     1
  9
$QTEXTMODE
 70
     0
  9
$MIRRTEXT
 70
     1
  9
$LTSCALE
 40
1.0
  9
$ATTMODE
 70
     1
  9
$TEXTSIZE
 40
0.2
  9
$TRACEWID
 40
0.05
  9
$TEXTSTYLE
  7
STANDARD
  9
$CLAYER
  8
0
  9
$CELTYPE
  6
CONTINUOUS
  9
$CECOLOR
 62
     3
  9
$CELTSCALE
 40
1.0
  9
$DISPSILH
 70
     0
  9
$DIMSCALE
 40
1.0
  9
$DIMASZ
 40
0.18
  9
$DIMEXO
 40
0.0625
  9
$DIMDLI
 40
0.38
  9
$DIMRND
 40
0.0
  9
$DIMDLE
 40
0.0
  9
$DIMEXE
 40
0.18
  9
$DIMTP
 40
0.0
  9
$DIMTM
 40
0.0
  9
$DIMTXT
 40
0.18
  9
$DIMCEN
 40
0.09
  9
$DIMTSZ
 40
0.0
  9
$DIMTOL
 70
     0
  9
$DIMLIM
 70
     0
  9
$DIMTIH
 70
     1
  9
$DIMTOH
 70
     1
  9
$DIMSE1
 70
     0
  9
$DIMSE2
 70
     0
  9
$DIMTAD
 70
     0
  9
$DIMZIN
 70
     0
  9
$DIMBLK
  1

  9
$DIMASO
 70
     1
  9
$DIMSHO
 70
     1
  9
$DIMPOST
  1

  9
$DIMAPOST
  1

  9
$DIMALT
 70
     0
  9
$DIMALTD
 70
     2
  9
$DIMALTF
 40
25.4
  9
$DIMLFAC
 40
1.0
  9
$DIMTOFL
 70
     0
  9
$DIMTVP
 40
0.0
  9
$DIMTIX
 70
     0
  9
$DIMSOXD
 70
     0
  9
$DIMSAH
 70
     0
  9
$DIMBLK1
  1

  9
$DIMBLK2
  1

  9
$DIMSTYLE
  2
STANDARD
  9
$DIMCLRD
 70
     0
  9
$DIMCLRE
 70
     0
  9
$DIMCLRT
 70
     0
  9
$DIMTFAC
 40
1.0
  9
$DIMGAP
 40
0.09
  9
$DIMJUST
 70
     0
  9
$DIMSD1
 70
     0
  9
$DIMSD2
 70
     0
  9
$DIMTOLJ
 70
     1
  9
$DIMTZIN
 70
     0
  9
$DIMALTZ
 70
     0
  9
$DIMALTTZ
 70
     0
  9
$DIMUPT
 70
     0
  9
$DIMDEC
 70
     4
  9
$DIMTDEC
 70
     4
  9
$DIMALTU
 70
     2
  9
$DIMALTTD
 70
     2
  9
$DIMTXSTY
  7
STANDARD
  9
$DIMAUNIT
 70
     0
  9
$DIMADEC
 70
     0
  9
$DIMALTRND
 40
0.0
  9
$DIMAZIN
 70
     0
  9
$DIMDSEP
 70
    46
  9
$DIMATFIT
 70
     3
  9
$DIMFRAC
 70
     0
  9
$DIMLDRBLK
  1

  9
$DIMLUNIT
 70
     2
  9
$DIMLWD
 70
    -2
  9
$DIMLWE
 70
    -2
  9
$DIMTMOVE
 70
     0
  9
$LUNITS
 70
     2
  9
$LUPREC
 70
     4
  9
$SKETCHINC
 40
0.1
  9
$FILLETRAD
 40
0.0
  9
$AUNITS
 70
     0
  9
$AUPREC
 70
     0
  9
$MENU
  1
acad
  9
$ELEVATION
 40
0.0
  9
$PELEVATION
 40
0.0
  9
$THICKNESS
 40
0.0
  9
$LIMCHECK
 70
     0
  9
$CHAMFERA
 40
0.0
  9
$CHAMFERB
 40
0.0
  9
$CHAMFERC
 40
0.0
  9
$CHAMFERD
 40
0.0
  9
$SKPOLY
 70
     0
  9
$TDCREATE
 40
2453019.767650347
  9
$TDUCREATE
 40
2453019.392650347
  9
$TDUPDATE
 40
2453020.364964548
  9
$TDUUPDATE
 40
2453019.989964548
  9
$TDINDWG
 40
0.0267923264
  9
$TDUSRTIMER
 40
0.0267923264
  9
$USRTIMER
 70
     1
  9
$ANGBASE
 50
0.0
  9
$ANGDIR
 70
     0
  9
$PDMODE
 70
     0
  9
$PDSIZE
 40
0.0
  9
$PLINEWID
 40
0.0
  9
$SPLFRAME
 70
     0
  9
$SPLINETYPE
 70
     6
  9
$SPLINESEGS
 70
     8
  9
$HANDSEED
  5
F13
  9
$SURFTAB1
 70
     6
  9
$SURFTAB2
 70
     6
  9
$SURFTYPE
 70
     6
  9
$SURFU
 70
     6
  9
$SURFV
 70
     6
  9
$UCSBASE
  2

  9
$UCSNAME
  2

  9
$UCSORG
 10
0.0
 20
0.0
 30
0.0
  9
$UCSXDIR
 10
1.0
 20
0.0
 30
0.0
  9
$UCSYDIR
 10
0.0
 20
1.0
 30
0.0
  9
$UCSORTHOREF
  2

  9
$UCSORTHOVIEW
 70
     0
  9
$UCSORGTOP
 10
0.0
 20
0.0
 30
0.0
  9
$UCSORGBOTTOM
 10
0.0
 20
0.0
 30
0.0
  9
$UCSORGLEFT
 10
0.0
 20
0.0
 30
0.0
  9
$UCSORGRIGHT
 10
0.0
 20
0.0
 30
0.0
  9
$UCSORGFRONT
 10
0.0
 20
0.0
 30
0.0
  9
$UCSORGBACK
 10
0.0
 20
0.0
 30
0.0
  9
$PUCSBASE
  2

  9
$PUCSNAME
  2

  9
$PUCSORG
 10
0.0
 20
0.0
 30
0.0
  9
$PUCSXDIR
 10
1.0
 20
0.0
 30
0.0
  9
$PUCSYDIR
 10
0.0
 20
1.0
 30
0.0
  9
$PUCSORTHOREF
  2

  9
$PUCSORTHOVIEW
 70
     0
  9
$PUCSORGTOP
 10
0.0
 20
0.0
 30
0.0
  9
$PUCSORGBOTTOM
 10
0.0
 20
0.0
 30
0.0
  9
$PUCSORGLEFT
 10
0.0
 20
0.0
 30
0.0
  9
$PUCSORGRIGHT
 10
0.0
 20
0.0
 30
0.0
  9
$PUCSORGFRONT
 10
0.0
 20
0.0
 30
0.0
  9
$PUCSORGBACK
 10
0.0
 20
0.0
 30
0.0
  9
$USERI1
 70
     0
  9
$USERI2
 70
     0
  9
$USERI3
 70
     0
  9
$USERI4
 70
     0
  9
$USERI5
 70
     0
  9
$USERR1
 40
0.0
  9
$USERR2
 40
0.0
  9
$USERR3
 40
0.0
  9
$USERR4
 40
0.0
  9
$USERR5
 40
0.0
  9
$WORLDVIEW
 70
     1
  9
$SHADEDGE
 70
     3
  9
$SHADEDIF
 70
    70
  9
$TILEMODE
 70
     1
  9
$MAXACTVP
 70
    16
  9
$PINSBASE
 10
0.0
 20
0.0
 30
0.0
  9
$PLIMCHECK
 70
     0
  9
$PEXTMIN
 10
1.000000000000000E+20
 20
1.000000000000000E+20
 30
1.000000000000000E+20
  9
$PEXTMAX
 10
-1.000000000000000E+20
 20
-1.000000000000000E+20
 30
-1.000000000000000E+20
  9
$PLIMMIN
 10
0.0
 20
0.0
  9
$PLIMMAX
 10
12.0
 20
9.0
  9
$UNITMODE
 70
     0
  9
$VISRETAIN
 70
     0
  9
$PLINEGEN
 70
     0
  9
$PSLTSCALE
 70
     1
  9
$TREEDEPTH
 70
  3020
  9
$CMLSTYLE
  2
STANDARD
  9
$CMLJUST
 70
     0
  9
$CMLSCALE
 40
1.0
  9
$PROXYGRAPHICS
 70
     1
  9
$MEASUREMENT
 70
     0
  9
$CELWEIGHT
370
    -1
  9
$ENDCAPS
280
     0
  9
$JOINSTYLE
280
     0
  9
$LWDISPLAY
290
     0
  9
$INSUNITS
 70
     0
  9
$HYPERLINKBASE
  1

  9
$STYLESHEET
  1

  9
$XEDIT
290
     1
  9
$CEPSNTYPE
380
     0
  9
$PSTYLEMODE
290
     1
  9
$FINGERPRINTGUID
  2
{DF898B13-559D-4DAA-9773-55E08819836F}
  9
$VERSIONGUID
  2
{F2748AC1-1142-4C38-9DBC-2DBC984FB752}
  9
$EXTNAMES
290
     1
  9
$PSVPSCALE
 40
0.0
  9
$OLESTARTUP
290
     0
  0
ENDSEC
  0
SECTION
  2
CLASSES
  0
CLASS
  1
ACDBDICTIONARYWDFLT
  2
AcDbDictionaryWithDefault
  3
AutoCAD 2000
 90
        0
280
     0
281
     0
  0
CLASS
  1
ACDBPLACEHOLDER
  2
AcDbPlaceHolder
  3
AutoCAD 2000
 90
        0
280
     0
281
     0
  0
CLASS
  1
LAYOUT
  2
AcDbLayout
  3
AutoCAD 2000
 90
        0
280
     0
281
     0
  0
ENDSEC
  0
SECTION
  2
TABLES
  0
TABLE
  2
VPORT
  5
8
330
0
100
AcDbSymbolTable
 70
     2
  0
VPORT
  5
F12
330
8
100
AcDbSymbolTableRecord
100
AcDbViewportTableRecord
  2
*Active
 70
     0
 10
0.0
 20
0.0
 11
1.0
 21
1.0
 12
4357.828810020876
 22
2286.074129847017
 13
0.0
 23
0.0
 14
1.0
 24
1.0
 15
0.0
 25
0.0
 16
0.0
 26
0.0
 36
1.0
 17
0.0
 27
0.0
 37
0.0
 40
4572.148259694034
 41
1.90625
 42
50.0
 43
0.0
 44
0.0
 50
0.0
 51
0.0
 71
     0
 72
   100
 73
     1
 74
     1
 75
     0
 76
     0
 77
     0
 78
     0
281
     0
 65
     1
110
0.0
120
0.0
130
0.0
111
1.0
121
0.0
131
0.0
112
0.0
122
1.0
132
0.0
 79
     0
146
0.0
  0
ENDTAB
  0
TABLE
  2
LTYPE
  5
5
330
0
100
AcDbSymbolTable
 70
     5
  0
LTYPE
  5
13
330
5
100
AcDbSymbolTableRecord
100
AcDbLinetypeTableRecord
  2
BYBLOCK
 70
     0
  3

 72
    65
 73
     0
 40
0.0
  0
LTYPE
  5
14
330
5
100
AcDbSymbolTableRecord
100
AcDbLinetypeTableRecord
  2
BYLAYER
 70
     0
  3

 72
    65
 73
     0
 40
0.0
  0
LTYPE
  5
15
330
5
100
AcDbSymbolTableRecord
100
AcDbLinetypeTableRecord
  2
CONTINUOUS
 70
     0
  3
Solid line
 72
    65
 73
     0
 40
0.0
  0
LTYPE
  5
1E
330
5
100
AcDbSymbolTableRecord
100
AcDbLinetypeTableRecord
  2
HIDDEN
 70
     0
  3
_ _ _ _ _ _ _ _ _ _ _ _ _ _ _ _ _ _ _ _ _ _ _
 72
    65
 73
     2
 40
0.375
 49
0.25
 74
     0
 49
-0.125
 74
     0
  0
LTYPE
  5
1F
330
5
100
AcDbSymbolTableRecord
100
AcDbLinetypeTableRecord
  2
DOT
 70
     0
  3
...............................................
 72
    65
 73
     2
 40
0.25
 49
0.0
 74
     0
 49
-0.25
 74
     0
  0
LTYPE
  5
20
330
5
100
AcDbSymbolTableRecord
100
AcDbLinetypeTableRecord
  2
DASHDOT
 70
     0
  3
__ . __ . __ . __ . __ . __ . __ . __ . __ . __
 72
    65
 73
     4
 40
1.0
 49
0.5
 74
     0
 49
-0.25
 74
     0
 49
0.0
 74
     0
 49
-0.25
 74
     0
  0
LTYPE
  5
21
330
5
100
AcDbSymbolTableRecord
100
AcDbLinetypeTableRecord
  2
DIVIDE
 70
     0
  3
__ . . __ . . __ . . __ . . __ . . __ . . __
 72
    65
 73
     6
 40
1.25
 49
0.5
 74
     0
 49
-0.25
 74
     0
 49
0.0
 74
     0
 49
-0.25
 74
     0
 49
0.0
 74
     0
 49
-0.25
 74
     0
  0
ENDTAB
  0
TABLE
  2
LAYER
  5
2
330
0
100
AcDbSymbolTable
 70
     2
  0
LAYER
  5
F
330
2
100
AcDbSymbolTableRecord
100
AcDbLayerTableRecord
  2
0
 70
     0
 62
     7
  6
CONTINUOUS
370
    -3
390
F0A
  0
LAYER
  5
22
330
2
100
AcDbSymbolTableRecord
100
AcDbLayerTableRecord
  2
1
 70
     0
 62
     1
  6
CONTINUOUS
370
    -3
390
F0A
  0
ENDTAB
  0
TABLE
  2
STYLE
  5
3
330
0
100
AcDbSymbolTable
 70
     1
  0
STYLE
  5
10
330
3
100
AcDbSymbolTableRecord
100
AcDbTextStyleTableRecord
  2
STANDARD
 70
     0
 40
0.0
 41
1.0
 50
0.0
 71
     0
 42
0.2
  3
TXT
  4
BIGFONT
  0
ENDTAB
  0
TABLE
  2
VIEW
  5
6
330
0
100
AcDbSymbolTable
 70
     0
  0
ENDTAB
  0
TABLE
  2
UCS
  5
7
330
0
100
AcDbSymbolTable
 70
     0
  0
ENDTAB
  0
TABLE
  2
APPID
  5
9
330
0
100
AcDbSymbolTable
 70
     1
  0
APPID
  5
11
330
9
100
AcDbSymbolTableRecord
100
AcDbRegAppTableRecord
  2
ACAD
 70
     0
  0
ENDTAB
  0
TABLE
  2
DIMSTYLE
  5
A
330
0
100
AcDbSymbolTable
 70
     1
100
AcDbDimStyleTable
 71
     0
  0
DIMSTYLE
105
EE1
330
A
100
AcDbSymbolTableRecord
100
AcDbDimStyleTableRecord
  2
STANDARD
 70
     0
340
10
  0
ENDTAB
  0
TABLE
  2
BLOCK_RECORD
  5
1
330
0
100
AcDbSymbolTable
 70
     3
  0
BLOCK_RECORD
  5
19
330
1
100
AcDbSymbolTableRecord
100
AcDbBlockTableRecord
  2
*MODEL_SPACE
340
F0D
  0
BLOCK_RECORD
  5
16
330
1
100
AcDbSymbolTableRecord
100
AcDbBlockTableRecord
  2
*PAPER_SPACE
340
F0E
  0
BLOCK_RECORD
  5
24
330
1
100
AcDbSymbolTableRecord
100
AcDbBlockTableRecord
  2
GDOT
340
0
  0
BLOCK_RECORD
  5
2B
330
1
100
AcDbSymbolTableRecord
100
AcDbBlockTableRecord
  2
GDOT2
340
0
  0
BLOCK_RECORD
  5
EE7
330
1
100
AcDbSymbolTableRecord
100
AcDbBlockTableRecord
  2
A$C8C
340
0
  0
ENDTAB
  0
ENDSEC
  0
SECTION
  2
BLOCKS
  0
BLOCK
  5
1A
330
19
100
AcDbEntity
  8
0
100
AcDbBlockBegin
  2
*MODEL_SPACE
 70
     0
 10
0.0
 20
0.0
 30
0.0
  3
*MODEL_SPACE
  1

  0
ENDBLK
  5
1B
330
19
100
AcDbEntity
  8
0
100
AcDbBlockEnd
  0
BLOCK
  5
17
330
16
100
AcDbEntity
 67
     1
  8
0
100
AcDbBlockBegin
  2
*PAPER_SPACE
 70
     0
 10
0.0
 20
0.0
 30
0.0
  3
*PAPER_SPACE
  1

  0
ENDBLK
  5
18
330
16
100
AcDbEntity
 67
     1
  8
0
100
AcDbBlockEnd
  0
BLOCK
  5
25
330
24
100
AcDbEntity
  8
0
100
AcDbBlockBegin
  2
GDOT
 70
     0
 10
0.0
 20
0.0
 30
0.0
  3
GDOT
  1

  0
LWPOLYLINE
  5
26
330
24
100
AcDbEntity
  8
1
  6
ByBlock
 62
     0
100
AcDbPolyline
 90
        2
 70
     1
 43
0.5
 10
-0.25
 20
0.0
 42
1.0
 10
0.25
 20
0.0
 42
1.0
  0
ENDBLK
  5
2A
330
24
100
AcDbEntity
  8
0
100
AcDbBlockEnd
  0
BLOCK
  5
2C
330
2B
100
AcDbEntity
  8
0
100
AcDbBlockBegin
  2
GDOT2
 70
     0
 10
0.0
 20
0.0
 30
0.0
  3
GDOT2
  1

  0
LWPOLYLINE
  5
2D
330
2B
100
AcDbEntity
  8
1
  6
ByBlock
 62
     0
100
AcDbPolyline
 90
        2
 70
     1
 43
0.0
 10
-0.5
 20
0.0
 42
1.0
 10
0.5
 20
0.0
 42
1.0
  0
ENDBLK
  5
31
330
2B
100
AcDbEntity
  8
0
100
AcDbBlockEnd
  0
BLOCK
  5
EF4
330
EE7
100
AcDbEntity
  8
0
 62
     3
100
AcDbBlockBegin
  2
A$C8C
 70
     0
 10
0.0
 20
0.0
 30
0.0
  3
A$C8C
  1

  0
LINE
  5
EE8
330
EE7
100
AcDbEntity
  8
1
  6
Continuous
 62
     3
100
AcDbLine
 10
0.3421218911245774
 20
3.565966934043217
 30
0.0
 11
20.34212189112457
 21
0.039966934043207
 31
0.0
  0
LINE
  5
EE9
330
EE7
100
AcDbEntity
  8
1
  6
Continuous
 62
     3
100
AcDbLine
 10
0.3421218911245774
 20
3.565966934043217
 30
0.0
 11
20.34212189112457
 21
7.092966934043204
 31
0.0
  0
LINE
  5
EEA
330
EE7
100
AcDbEntity
  8
1
  6
Continuous
 62
     3
100
AcDbLine
 10
50.34212189112458
 20
3.565966934043217
 30
0.0
 11
30.34212189112457
 21
7.092966934043204
 31
0.0
  0
LINE
  5
EEB
330
EE7
100
AcDbEntity
  8
1
  6
Continuous
 62
     3
100
AcDbLine
 10
0.3421218911245774
 20
3.565966934043217
 30
0.0
 11
50.34212189112458
 21
3.565966934043217
 31
0.0
  0
LINE
  5
EEC
330
EE7
100
AcDbEntity
  8
1
  6
Continuous
 62
     3
100
AcDbLine
 10
50.34212189112458
 20
3.565966934043217
 30
0.0
 11
30.34212189112457
 21
0.039966934043207
 31
0.0
  0
LINE
  5
EED
330
EE7
100
AcDbEntity
  8
1
  6
Continuous
 62
     3
100
AcDbLine
 10
50.34212189112458
 20
3.565966934043217
 30
0.0
 11
70.34212189112458
 21
7.092966934043204
 31
0.0
  0
LINE
  5
EEE
330
EE7
100
AcDbEntity
  8
1
  6
Continuous
 62
     3
100
AcDbLine
 10
50.34212189112458
 20
3.565966934043217
 30
0.0
 11
70.34212189112458
 21
0.039966934043207
 31
0.0
  0
LINE
  5
EEF
330
EE7
100
AcDbEntity
  8
1
  6
Continuous
 62
     3
100
AcDbLine
 10
50.34212189112458
 20
3.565966934043217
 30
0.0
 11
300.3421218911245
 21
3.565966934043217
 31
0.0
  0
LINE
  5
EF0
330
EE7
100
AcDbEntity
  8
1
  6
Continuous
 62
     3
100
AcDbLine
 10
300.3421218911245
 20
3.565966934043217
 30
0.0
 11
280.3421218911245
 21
0.039966934043207
 31
0.0
  0
LINE
  5
EF1
330
EE7
100
AcDbEntity
  8
1
  6
Continuous
 62
     3
100
AcDbLine
 10
300.3421218911245
 20
3.565966934043217
 30
0.0
 11
280.3421218911245
 21
7.092966934043204
 31
0.0
  0
TEXT
  5
EF2
330
EE7
100
AcDbEntity
  8
1
 62
     3
100
AcDbText
 10
133.3421218911245
 20
3.565966934043217
 30
0.0
 40
40.0
  1
２５０
 41
0.7
100
AcDbText
  0
TEXT
  5
EF3
330
EE7
100
AcDbEntity
  8
1
 62
     3
100
AcDbText
 10
-2.657878108875422
 20
3.565966934043217
 30
0.0
 40
40.0
  1
５０
 41
0.7
100
AcDbText
  0
ENDBLK
  5
EF5
330
EE7
100
AcDbEntity
  8
0
 62
     3
100
AcDbBlockEnd
  0
ENDSEC
  0
SECTION
  2
ENTITIES
  0
LWPOLYLINE
  5
32
330
19
100
AcDbEntity
  8
1
  6
Continuous
 62
     1
100
AcDbPolyline
 90
        6
 70
     0
 43
0.0
 10
2519.05
 20
3680.0
 10
0.0
 20
3680.0
 10
0.0
 20
0.0
 10
5330.0
 20
0.0
 10
5330.0
 20
3680.0
 10
2830.47
 20
3680.0
  0
LINE
  5
3A
330
19
100
AcDbEntity
  8
1
  6
Continuous
 62
     1
100
AcDbLine
 10
4030.0
 20
240.0
 30
0.0
 11
5330.0
 21
240.0
 31
0.0
  0
LINE
  5
3B
330
19
100
AcDbEntity
  8
1
  6
Continuous
 62
     1
100
AcDbLine
 10
5330.0
 20
340.0
 30
0.0
 11
4030.0
 21
340.0
 31
0.0
  0
LINE
  5
3C
330
19
100
AcDbEntity
  8
1
  6
Continuous
 62
     1
100
AcDbLine
 10
4030.0
 20
440.0
 30
0.0
 11
5330.0
 21
440.0
 31
0.0
  0
LWPOLYLINE
  5
3D
330
19
100
AcDbEntity
  8
1
  6
Continuous
 62
     1
100
AcDbPolyline
 90
        3
 70
     0
 43
0.0
 10
5330.0
 20
540.0
 10
4030.0
 20
540.0
 10
4030.0
 20
0.0
  0
TEXT
  5
42
330
19
100
AcDbEntity
  8
1
 62
     3
100
AcDbText
 10
4043.429999999999
 20
207.0759999999999
 30
0.0
 40
25.0
  1
作図
100
AcDbText
  0
TEXT
  5
43
330
19
100
AcDbEntity
  8
1
 62
     3
100
AcDbText
 10
4043.429999999999
 20
127.076
 30
0.0
 40
25.0
  1
設計
100
AcDbText
  0
TEXT
  5
44
330
19
100
AcDbEntity
  8
1
 62
     3
100
AcDbText
 10
4043.429999999999
 20
47.07679999999999
 30
0.0
 40
25.0
  1
日付
100
AcDbText
  0
TEXT
  5
45
330
19
100
AcDbEntity
  8
1
 62
     3
100
AcDbText
 10
4043.429999999999
 20
504.161
 30
0.0
 40
30.0
  1
名称
 41
0.8333299999999999
100
AcDbText
  0
TEXT
  5
46
330
19
100
AcDbEntity
  8
1
 62
     3
100
AcDbText
 10
4043.429999999999
 20
404.161
 30
0.0
 40
30.0
  1
図面名
 41
0.8333299999999999
100
AcDbText
  0
TEXT
  5
47
330
19
100
AcDbEntity
  8
1
 62
     3
100
AcDbText
 10
4043.429999999999
 20
304.1609999999999
 30
0.0
 40
30.0
  1
御注文先
 41
0.8333299999999999
100
AcDbText
  0
LINE
  5
48
330
19
100
AcDbEntity
  8
1
  6
Continuous
 62
     1
100
AcDbLine
 10
3780.0
 20
0.0
 30
0.0
 11
3780.0
 21
160.0
 31
0.0
  0
LINE
  5
49
330
19
100
AcDbEntity
  8
1
  6
Continuous
 62
     1
100
AcDbLine
 10
3580.0
 20
0.0
 30
0.0
 11
3580.0
 21
160.0
 31
0.0
  0
LINE
  5
4A
330
19
100
AcDbEntity
  8
1
  6
Continuous
 62
     1
100
AcDbLine
 10
3030.0
 20
0.0
 30
0.0
 11
3030.0
 21
160.0
 31
0.0
  0
LINE
  5
4B
330
19
100
AcDbEntity
  8
1
  6
Continuous
 62
     1
100
AcDbLine
 10
2930.0
 20
160.0
 30
0.0
 11
4030.0
 21
160.0
 31
0.0
  0
LINE
  5
4C
330
19
100
AcDbEntity
  8
1
  6
Continuous
 62
     1
100
AcDbLine
 10
2930.0
 20
80.0
 30
0.0
 11
4030.0
 21
80.0
 31
0.0
  0
LINE
  5
4D
330
19
100
AcDbEntity
  8
1
  6
Continuous
 62
     1
100
AcDbLine
 10
2930.0
 20
160.0
 30
0.0
 11
2930.0
 21
0.0
 31
0.0
  0
LWPOLYLINE
  5
4E
330
19
100
AcDbEntity
  8
1
  6
Continuous
 62
     3
100
AcDbPolyline
 90
        4
 70
     0
 43
0.0
 10
2937.979999999999
 20
90.0
 10
3022.01
 20
90.0
 10
2980.0
 20
150.0
 10
2937.979999999999
 20
90.0
  0
TEXT
  5
54
330
19
100
AcDbEntity
  8
1
 62
     3
100
AcDbText
 10
2940.889999999999
 20
10.5596
 30
0.0
 40
50.0
  1
符号
 41
0.8
100
AcDbText
  0
TEXT
  5
55
330
19
100
AcDbEntity
  8
1
 62
     3
100
AcDbText
 10
3101.51
 20
10.5596
 30
0.0
 40
50.0
  1
訂  　正　  記　  事
 41
0.8
100
AcDbText
  0
TEXT
  5
56
330
19
100
AcDbEntity
  8
1
 62
     3
100
AcDbText
 10
3621.01
 20
10.5596
 30
0.0
 40
50.0
  1
日　付
 41
0.8
100
AcDbText
  0
TEXT
  5
57
330
19
100
AcDbEntity
  8
1
 62
     3
100
AcDbText
 10
3846.33
 20
10.5596
 30
0.0
 40
50.0
  1
署　名
 41
0.8
100
AcDbText
  0
LINE
  5
58
330
19
100
AcDbEntity
  8
1
  6
Continuous
 62
     1
100
AcDbLine
 10
4350.0
 20
240.0
 30
0.0
 11
4350.0
 21
0.0
 31
0.0
  0
TEXT
  5
59
330
19
100
AcDbEntity
  8
1
 62
     3
100
AcDbText
 10
4363.43
 20
127.076
 30
0.0
 40
25.0
  1
承認
100
AcDbText
  0
TEXT
  5
5A
330
19
100
AcDbEntity
  8
1
 62
     3
100
AcDbText
 10
4363.43
 20
207.0759999999999
 30
0.0
 40
25.0
  1
検図
100
AcDbText
  0
TEXT
  5
5B
330
19
100
AcDbEntity
  8
1
 62
     3
100
AcDbText
 10
4363.43
 20
47.07679999999999
 30
0.0
 40
25.0
  1
尺度
100
AcDbText
  0
LINE
  5
5C
330
19
100
AcDbEntity
  8
1
  6
Continuous
 62
     1
100
AcDbLine
 10
4690.0
 20
240.0
 30
0.0
 11
4690.0
 21
0.0
 31
0.0
  0
LINE
  5
5D
330
19
100
AcDbEntity
  8
1
  6
Continuous
 62
     1
100
AcDbLine
 10
4030.0
 20
160.0
 30
0.0
 11
4690.0
 21
160.0
 31
0.0
  0
LINE
  5
5E
330
19
100
AcDbEntity
  8
1
  6
Continuous
 62
     1
100
AcDbLine
 10
4690.0
 20
80.0
 30
0.0
 11
4030.0
 21
80.0
 31
0.0
  0
LINE
  5
5F
330
19
100
AcDbEntity
  8
1
  6
Continuous
 62
     1
100
AcDbLine
 10
4690.0
 20
140.0
 30
0.0
 11
5330.0
 21
140.0
 31
0.0
  0
POINT
  5
60
330
19
100
AcDbEntity
  8
1
 62
     3
100
AcDbPoint
 10
5330.0
 20
3550.0
 30
0.0
  0
POINT
  5
61
330
19
100
AcDbEntity
  8
1
 62
     3
100
AcDbPoint
 10
5330.0
 20
3490.0
 30
0.0
  0
POINT
  5
62
330
19
100
AcDbEntity
  8
1
 62
     3
100
AcDbPoint
 10
5330.0
 20
3430.0
 30
0.0
  0
POINT
  5
63
330
19
100
AcDbEntity
  8
1
 62
     3
100
AcDbPoint
 10
5330.0
 20
3370.0
 30
0.0
  0
POINT
  5
64
330
19
100
AcDbEntity
  8
1
 62
     3
100
AcDbPoint
 10
5330.0
 20
3310.0
 30
0.0
  0
POINT
  5
65
330
19
100
AcDbEntity
  8
1
 62
     3
100
AcDbPoint
 10
5330.0
 20
3250.0
 30
0.0
  0
POINT
  5
66
330
19
100
AcDbEntity
  8
1
 62
     3
100
AcDbPoint
 10
5330.0
 20
3190.0
 30
0.0
  0
POINT
  5
67
330
19
100
AcDbEntity
  8
1
 62
     3
100
AcDbPoint
 10
5330.0
 20
3130.0
 30
0.0
  0
POINT
  5
68
330
19
100
AcDbEntity
  8
1
 62
     3
100
AcDbPoint
 10
5330.0
 20
3070.0
 30
0.0
  0
POINT
  5
69
330
19
100
AcDbEntity
  8
1
 62
     3
100
AcDbPoint
 10
5330.0
 20
3010.0
 30
0.0
  0
POINT
  5
6A
330
19
100
AcDbEntity
  8
1
 62
     3
100
AcDbPoint
 10
5330.0
 20
2950.0
 30
0.0
  0
POINT
  5
6B
330
19
100
AcDbEntity
  8
1
 62
     3
100
AcDbPoint
 10
5330.0
 20
2890.0
 30
0.0
  0
POINT
  5
6C
330
19
100
AcDbEntity
  8
1
 62
     3
100
AcDbPoint
 10
5330.0
 20
2830.0
 30
0.0
  0
POINT
  5
6D
330
19
100
AcDbEntity
  8
1
 62
     3
100
AcDbPoint
 10
5330.0
 20
2770.0
 30
0.0
  0
POINT
  5
6E
330
19
100
AcDbEntity
  8
1
 62
     3
100
AcDbPoint
 10
5330.0
 20
2710.0
 30
0.0
  0
POINT
  5
6F
330
19
100
AcDbEntity
  8
1
 62
     3
100
AcDbPoint
 10
5330.0
 20
2650.0
 30
0.0
  0
POINT
  5
70
330
19
100
AcDbEntity
  8
1
 62
     3
100
AcDbPoint
 10
5330.0
 20
2590.0
 30
0.0
  0
POINT
  5
71
330
19
100
AcDbEntity
  8
1
 62
     3
100
AcDbPoint
 10
5330.0
 20
2530.0
 30
0.0
  0
POINT
  5
72
330
19
100
AcDbEntity
  8
1
 62
     3
100
AcDbPoint
 10
5330.0
 20
2470.0
 30
0.0
  0
ARC
  5
73
330
19
100
AcDbEntity
  8
1
  6
Continuous
 62
     2
100
AcDbCircle
 10
4895.199999999999
 20
92.0
 30
0.0
 40
5.4
100
AcDbArc
 50
0.0
 51
90.0
  0
ARC
  5
74
330
19
100
AcDbEntity
  8
1
  6
Continuous
 62
     2
100
AcDbCircle
 10
5083.560000000001
 20
76.96049999999999
 30
0.0
 40
51.6016
100
AcDbArc
 50
210.72
 51
267.711
  0
ARC
  5
75
330
19
100
AcDbEntity
  8
1
  6
Continuous
 62
     2
100
AcDbCircle
 10
4813.3
 20
92.9
 30
0.0
 40
1.8
100
AcDbArc
 50
270.0
 51
0.0
  0
LWPOLYLINE
  5
76
330
19
100
AcDbEntity
  8
1
  6
Continuous
 62
     2
100
AcDbPolyline
 90
        7
 70
     0
 43
0.0
 10
4767.4
 20
51.5
 10
4767.4
 20
55.1
 10
4778.2
 20
61.4
 10
4789.9
 20
56.0
 10
4789.9
 20
52.4
 10
4778.2
 20
57.8
 10
4767.4
 20
51.5
  0
ARC
  5
7F
330
19
100
AcDbEntity
  8
1
  6
Continuous
 62
     2
100
AcDbCircle
 10
4771.92
 20
32.6
 30
0.0
 40
2.7
100
AcDbArc
 50
142.125
 51
270.0
  0
LINE
  5
80
330
19
100
AcDbEntity
  8
1
  6
Continuous
 62
     2
100
AcDbLine
 10
4771.92
 20
29.9
 30
0.0
 11
4786.88
 21
29.9
 31
0.0
  0
ARC
  5
81
330
19
100
AcDbEntity
  8
1
  6
Continuous
 62
     2
100
AcDbCircle
 10
4786.88
 20
32.6
 30
0.0
 40
2.7
100
AcDbArc
 50
270.0
 51
26.565
  0
ARC
  5
82
330
19
100
AcDbEntity
  8
1
  6
Continuous
 62
     2
100
AcDbCircle
 10
4802.850000000001
 20
54.2
 30
0.0
 40
2.7
100
AcDbArc
 50
326.309
 51
90.0
  0
LWPOLYLINE
  5
83
330
19
100
AcDbEntity
  8
1
  6
Continuous
 62
     2
100
AcDbPolyline
 90
        3
 70
     0
 43
0.0
 10
4805.1
 20
52.7023
 10
4804.300000000001
 20
51.5
 10
4801.22
 20
47.1486
  0
LINE
  5
88
330
19
100
AcDbEntity
  8
1
  6
Continuous
 62
     2
100
AcDbLine
 10
4800.699999999999
 20
56.9
 30
0.0
 11
4802.850000000001
 21
56.9
 31
0.0
  0
ARC
  5
89
330
19
100
AcDbEntity
  8
1
  6
Continuous
 62
     2
100
AcDbCircle
 10
5124.7
 20
32.6
 30
0.0
 40
7.2
100
AcDbArc
 50
270.0
 51
0.0
  0
ARC
  5
8A
330
19
100
AcDbEntity
  8
1
  6
Continuous
 62
     2
100
AcDbCircle
 10
5173.300000000001
 20
30.8
 30
0.0
 40
5.4
100
AcDbArc
 50
270.0
 51
0.0
  0
LINE
  5
8B
330
19
100
AcDbEntity
  8
1
  6
Continuous
 62
     2
100
AcDbLine
 10
5247.1
 20
74.0
 30
0.0
 11
5247.1
 21
47.0
 31
0.0
  0
ARC
  5
8C
330
19
100
AcDbEntity
  8
1
  6
Continuous
 62
     2
100
AcDbCircle
 10
4996.729999999999
 20
50.2727
 30
0.0
 40
25.357
100
AcDbArc
 50
288.9259999999999
 51
333.352
  0
LINE
  5
8D
330
19
100
AcDbEntity
  8
1
  6
Continuous
 62
     2
100
AcDbLine
 10
4770.55
 20
89.29999999999999
 30
0.0
 11
4770.55
 21
90.20000000000001
 31
0.0
  0
LWPOLYLINE
  5
8E
330
19
100
AcDbEntity
  8
1
  6
Continuous
 62
     2
100
AcDbPolyline
 90
        4
 70
     0
 43
0.0
 10
4770.55
 20
92.9
 10
4767.4
 20
92.9
 10
4767.4
 20
90.20000000000001
 10
4770.55
 20
90.20000000000001
  0
LWPOLYLINE
  5
94
330
19
100
AcDbEntity
  8
1
  6
Continuous
 62
     2
100
AcDbPolyline
 90
        4
 70
     0
 43
0.0
 10
4773.249999999999
 20
90.20000000000001
 10
4775.5
 20
90.20000000000001
 10
4776.399999999999
 20
92.9
 10
4773.249999999999
 20
92.9
  0
LWPOLYLINE
  5
9A
330
19
100
AcDbEntity
  8
1
  6
Continuous
 62
     2
100
AcDbPolyline
 90
        4
 70
     0
 43
0.0
 10
4773.249999999999
 20
84.8
 10
4773.249999999999
 20
67.7
 10
4770.55
 20
67.7
 10
4770.55
 20
83.0
  0
LWPOLYLINE
  5
A0
330
19
100
AcDbEntity
  8
1
  6
Continuous
 62
     2
100
AcDbPolyline
 90
        4
 70
     0
 43
0.0
 10
4770.55
 20
92.9
 10
4770.55
 20
97.40000000000001
 10
4773.249999999999
 20
97.40000000000001
 10
4773.249999999999
 20
92.9
  0
ARC
  5
A6
330
19
100
AcDbEntity
  8
1
  6
Continuous
 62
     2
100
AcDbCircle
 10
4770.100000000001
 20
86.6
 30
0.0
 40
12.2413
100
AcDbArc
 50
306.027
 51
342.897
  0
ARC
  5
A7
330
19
100
AcDbEntity
  8
1
  6
Continuous
 62
     2
100
AcDbCircle
 10
4762.9
 20
89.74999999999999
 30
0.0
 40
7.663219999999999
100
AcDbArc
 50
305.959
 51
3.36646
  0
ARC
  5
A8
330
19
100
AcDbEntity
  8
1
  6
Continuous
 62
     2
100
AcDbCircle
 10
4779.1
 20
90.65000000000001
 30
0.0
 40
5.86728
100
AcDbArc
 50
184.3979999999999
 51
242.601
  0
ARC
  5
A9
330
19
100
AcDbEntity
  8
1
  6
Continuous
 62
     2
100
AcDbCircle
 10
4756.369999999999
 20
92.225
 30
0.0
 40
16.9124
100
AcDbArc
 50
310.6829999999999
 51
326.944
  0
LINE
  5
AA
330
19
100
AcDbEntity
  8
1
  6
Continuous
 62
     2
100
AcDbLine
 10
4767.4
 20
83.5471
 30
0.0
 11
4767.4
 21
79.40000000000001
 31
0.0
  0
LINE
  5
AB
330
19
100
AcDbEntity
  8
1
  6
Continuous
 62
     2
100
AcDbLine
 10
4776.399999999999
 20
85.44079999999999
 30
0.0
 11
4776.399999999999
 21
82.09999999999999
 31
0.0
  0
LWPOLYLINE
  5
AC
330
19
100
AcDbEntity
  8
1
  6
Continuous
 62
     2
100
AcDbPolyline
 90
        4
 70
     0
 43
0.0
 10
4781.8
 20
83.0
 10
4777.3
 20
83.0
 10
4777.3
 20
85.7
 10
4781.8
 20
85.7
  0
LINE
  5
B2
330
19
100
AcDbEntity
  8
1
  6
Continuous
 62
     2
100
AcDbLine
 10
4781.8
 20
91.09999999999999
 30
0.0
 11
4781.8
 21
85.7
 31
0.0
  0
ARC
  5
B3
330
19
100
AcDbEntity
  8
1
  6
Continuous
 62
     2
100
AcDbCircle
 10
4777.52
 20
86.6
 30
0.0
 40
4.63849
100
AcDbArc
 50
202.833
 51
255.963
  0
ARC
  5
B4
330
19
100
AcDbEntity
  8
1
  6
Continuous
 62
     2
100
AcDbCircle
 10
4792.149999999999
 20
86.15
 30
0.0
 40
8.273139999999999
100
AcDbArc
 50
202.38
 51
247.619
  0
LWPOLYLINE
  5
B5
330
19
100
AcDbEntity
  8
1
  6
Continuous
 62
     2
100
AcDbPolyline
 90
        4
 70
     0
 43
0.0
 10
4781.8
 20
76.7
 10
4781.8
 20
67.7
 10
4784.5
 20
67.7
 10
4784.5
 20
78.5
  0
LWPOLYLINE
  5
BB
330
19
100
AcDbEntity
  8
1
  6
Continuous
 62
     2
100
AcDbPolyline
 90
        4
 70
     0
 43
0.0
 10
4784.5
 20
93.8
 10
4789.0
 20
93.8
 10
4789.0
 20
91.09999999999999
 10
4784.5
 20
91.09999999999999
  0
LWPOLYLINE
  5
C1
330
19
100
AcDbEntity
  8
1
  6
Continuous
 62
     2
100
AcDbPolyline
 90
        4
 70
     0
 43
0.0
 10
4784.5
 20
93.8
 10
4784.5
 20
97.40000000000001
 10
4781.8
 20
97.40000000000001
 10
4781.8
 20
93.8
  0
LWPOLYLINE
  5
C7
330
19
100
AcDbEntity
  8
1
  6
Continuous
 62
     2
100
AcDbPolyline
 90
        4
 70
     0
 43
0.0
 10
4784.5
 20
85.7
 10
4789.0
 20
85.7
 10
4789.0
 20
83.0
 10
4784.5
 20
83.0
  0
LINE
  5
CD
330
19
100
AcDbEntity
  8
1
  6
Continuous
 62
     2
100
AcDbLine
 10
4784.5
 20
85.7
 30
0.0
 11
4784.5
 21
91.09999999999999
 31
0.0
  0
LWPOLYLINE
  5
CE
330
19
100
AcDbEntity
  8
1
  6
Continuous
 62
     2
100
AcDbPolyline
 90
        6
 70
     0
 43
0.0
 10
4781.8
 20
91.09999999999999
 10
4780.0
 20
91.09999999999999
 10
4777.3
 20
91.09999999999999
 10
4776.399999999999
 20
92.9
 10
4777.3
 20
97.40000000000001
 10
4780.0
 20
97.40000000000001
  0
LWPOLYLINE
  5
D6
330
19
100
AcDbEntity
  8
1
  6
Continuous
 62
     2
100
AcDbPolyline
 90
        4
 70
     0
 43
0.0
 10
4777.3
 20
97.40000000000001
 10
4780.0
 20
97.40000000000001
 10
4779.1
 20
93.8
 10
4781.8
 20
93.8
  0
ARC
  5
DC
330
19
100
AcDbEntity
  8
1
  6
Continuous
 62
     2
100
AcDbCircle
 10
4770.55
 20
86.15
 30
0.0
 40
14.6923
100
AcDbArc
 50
297.3489999999999
 51
319.9689999999999
  0
ARC
  5
DD
330
19
100
AcDbEntity
  8
1
  6
Continuous
 62
     2
100
AcDbCircle
 10
4792.149999999999
 20
83.45
 30
0.0
 40
9.1118
100
AcDbArc
 50
212.9049999999999
 51
249.7749999999999
  0
LINE
  5
DE
330
19
100
AcDbEntity
  8
1
  6
Continuous
 62
     2
100
AcDbLine
 10
4777.3
 20
73.09999999999999
 30
0.0
 11
4777.3
 21
76.7
 31
0.0
  0
LINE
  5
DF
330
19
100
AcDbEntity
  8
1
  6
Continuous
 62
     2
100
AcDbLine
 10
4789.0
 20
78.5
 30
0.0
 11
4789.0
 21
74.90000000000001
 31
0.0
  0
LWPOLYLINE
  5
E0
330
19
100
AcDbEntity
  8
1
  6
Continuous
 62
     2
100
AcDbPolyline
 90
       13
 70
     0
 43
0.0
 10
4793.5
 20
85.7
 10
4806.1
 20
85.7
 10
4806.1
 20
83.0
 10
4801.6
 20
83.0
 10
4801.6
 20
74.0
 10
4806.1
 20
74.90000000000001
 10
4806.1
 20
71.29999999999999
 10
4793.5
 20
67.7
 10
4793.5
 20
71.29999999999999
 10
4798.0
 20
73.09999999999999
 10
4798.0
 20
83.0
 10
4793.5
 20
83.0
 10
4793.5
 20
85.7
  0
LWPOLYLINE
  5
EF
330
19
100
AcDbEntity
  8
1
  6
Continuous
 62
     2
100
AcDbPolyline
 90
        4
 70
     0
 43
0.0
 10
4812.4
 20
94.7
 10
4812.4
 20
97.40000000000001
 10
4815.100000000001
 20
97.40000000000001
 10
4815.100000000001
 20
92.9
  0
ARC
  5
F5
330
19
100
AcDbEntity
  8
1
  6
Continuous
 62
     2
100
AcDbCircle
 10
4811.5
 20
94.7
 30
0.0
 40
0.9
100
AcDbArc
 50
270.0
 51
0.0
  0
LWPOLYLINE
  5
F6
330
19
100
AcDbEntity
  8
1
  6
Continuous
 62
     2
100
AcDbPolyline
 90
       13
 70
     0
 43
0.0
 10
4813.3
 20
91.09999999999999
 10
4811.5
 20
91.09999999999999
 10
4810.6
 20
91.09999999999999
 10
4815.100000000001
 20
67.7
 10
4812.4
 20
67.7
 10
4807.9
 20
91.09999999999999
 10
4793.5
 20
91.09999999999999
 10
4793.5
 20
93.8
 10
4807.0
 20
93.8
 10
4806.1
 20
97.40000000000001
 10
4808.8
 20
97.40000000000001
 10
4809.7
 20
93.8
 10
4811.5
 20
93.8
  0
LWPOLYLINE
  5
105
330
19
100
AcDbEntity
  8
1
  6
Continuous
 62
     2
100
AcDbPolyline
 90
        4
 70
     0
 43
0.0
 10
4808.8
 20
51.5
 10
4805.2
 20
51.5
 10
4805.2
 20
48.79999999999999
 10
4808.8
 20
48.79999999999999
  0
LWPOLYLINE
  5
10B
330
19
100
AcDbEntity
  8
1
  6
Continuous
 62
     2
100
AcDbPolyline
 90
        4
 70
     0
 43
0.0
 10
4811.5
 20
48.79999999999999
 10
4815.100000000001
 20
48.79999999999999
 10
4815.100000000001
 20
51.5
 10
4811.5
 20
51.5
  0
LWPOLYLINE
  5
111
330
19
100
AcDbEntity
  8
1
  6
Continuous
 62
     2
100
AcDbPolyline
 90
        4
 70
     0
 43
0.0
 10
4811.5
 20
51.5
 10
4811.5
 20
61.4
 10
4808.8
 20
61.4
 10
4808.8
 20
51.5
  0
LWPOLYLINE
  5
117
330
19
100
AcDbEntity
  8
1
  6
Continuous
 62
     2
100
AcDbPolyline
 90
        8
 70
     0
 43
0.0
 10
4808.8
 20
48.79999999999999
 10
4808.8
 20
32.6
 10
4804.300000000001
 20
32.6
 10
4804.300000000001
 20
29.9
 10
4816.0
 20
29.9
 10
4816.0
 20
32.6
 10
4811.5
 20
32.6
 10
4811.5
 20
48.79999999999999
  0
ARC
  5
121
330
19
100
AcDbEntity
  8
1
  6
Continuous
 62
     2
100
AcDbCircle
 10
4773.74
 20
33.5
 30
0.0
 40
0.9
100
AcDbArc
 50
142.125
 51
270.0
  0
LWPOLYLINE
  5
122
330
19
100
AcDbEntity
  8
1
  6
Continuous
 62
     2
100
AcDbPolyline
 90
        4
 70
     0
 43
0.0
 10
4789.29
 20
33.8074
 10
4787.2
 20
38.0
 10
4784.5
 20
38.0
 10
4786.699999999999
 20
33.8342
  0
ARC
  5
128
330
19
100
AcDbEntity
  8
1
  6
Continuous
 62
     2
100
AcDbCircle
 10
4785.87
 20
33.5
 30
0.0
 40
0.9
100
AcDbArc
 50
270.0
 51
21.8014
  0
LINE
  5
129
330
19
100
AcDbEntity
  8
1
  6
Continuous
 62
     2
100
AcDbLine
 10
4785.87
 20
32.6
 30
0.0
 11
4773.74
 21
32.6
 31
0.0
  0
LWPOLYLINE
  5
12A
330
19
100
AcDbEntity
  8
1
  6
Continuous
 62
     2
100
AcDbPolyline
 90
        4
 70
     0
 43
0.0
 10
4798.0
 20
56.9
 10
4798.0
 20
61.4
 10
4800.699999999999
 20
61.4
 10
4800.699999999999
 20
56.9
  0
ARC
  5
130
330
19
100
AcDbEntity
  8
1
  6
Continuous
 62
     2
100
AcDbCircle
 10
4801.6
 20
53.3
 30
0.0
 40
0.9
100
AcDbArc
 50
323.13
 51
90.0
  0
LWPOLYLINE
  5
131
330
19
100
AcDbEntity
  8
1
  6
Continuous
 62
     2
100
AcDbPolyline
 90
        4
 70
     0
 43
0.0
 10
4801.6
 20
54.2
 10
4793.5
 20
54.2
 10
4793.5
 20
56.9
 10
4798.0
 20
56.9
  0
LWPOLYLINE
  5
137
330
19
100
AcDbEntity
  8
1
  6
Continuous
 62
     2
100
AcDbPolyline
 90
        4
 70
     0
 43
0.0
 10
4798.899999999999
 20
43.475
 10
4793.5
 20
36.2
 10
4793.5
 20
40.7
 10
4802.319999999999
 20
52.75999999999999
  0
LWPOLYLINE
  5
13D
330
19
100
AcDbEntity
  8
1
  6
Continuous
 62
     2
100
AcDbPolyline
 90
        4
 70
     0
 43
0.0
 10
4798.899999999999
 20
43.475
 10
4798.899999999999
 20
29.9
 10
4801.6
 20
29.9
 10
4801.6
 20
44.29999999999999
  0
LWPOLYLINE
  5
143
330
19
100
AcDbEntity
  8
1
  6
Continuous
 62
     2
100
AcDbPolyline
 90
        4
 70
     0
 43
0.0
 10
4801.22
 20
47.1486
 10
4806.1
 20
45.2
 10
4806.1
 20
41.6
 10
4801.6
 20
44.29999999999999
  0
LWPOLYLINE
  5
149
330
19
100
AcDbEntity
  8
1
  6
Continuous
 62
     2
100
AcDbPolyline
 90
        5
 70
     0
 43
0.0
 10
4830.4
 20
102.8
 10
4830.4
 20
94.7
 10
4851.1
 20
89.29999999999999
 10
4851.1
 20
97.40000000000001
 10
4830.4
 20
102.8
  0
LWPOLYLINE
  5
150
330
19
100
AcDbEntity
  8
1
  6
Continuous
 62
     2
100
AcDbPolyline
 90
        5
 70
     0
 43
0.0
 10
4830.4
 20
83.0
 10
4830.4
 20
74.90000000000001
 10
4851.1
 20
68.59999999999999
 10
4851.1
 20
77.59999999999999
 10
4830.4
 20
83.0
  0
LWPOLYLINE
  5
157
330
19
100
AcDbEntity
  8
1
  6
Continuous
 62
     2
100
AcDbPolyline
 90
        4
 70
     0
 43
0.0
 10
4872.7
 20
97.40000000000001
 10
4872.7
 20
102.8
 10
4880.8
 20
102.8
 10
4880.8
 20
97.40000000000001
  0
LINE
  5
15D
330
19
100
AcDbEntity
  8
1
  6
Continuous
 62
     2
100
AcDbLine
 10
4880.8
 20
97.40000000000001
 30
0.0
 11
4895.199999999999
 21
97.40000000000001
 31
0.0
  0
ARC
  5
15E
330
19
100
AcDbEntity
  8
1
  6
Continuous
 62
     2
100
AcDbCircle
 10
4890.699999999999
 20
89.29999999999999
 30
0.0
 40
1.8
100
AcDbArc
 50
0.0
 51
90.0
  0
LWPOLYLINE
  5
15F
330
19
100
AcDbEntity
  8
1
  6
Continuous
 62
     2
100
AcDbPolyline
 90
        4
 70
     0
 43
0.0
 10
4900.6
 20
92.0
 10
4900.6
 20
82.09999999999999
 10
4892.5
 20
82.09999999999999
 10
4892.5
 20
89.29999999999999
  0
ARC
  5
165
330
19
100
AcDbEntity
  8
1
  6
Continuous
 62
     2
100
AcDbCircle
 10
4861.9
 20
32.6
 30
0.0
 40
7.2
100
AcDbArc
 50
180.0
 51
270.0
  0
ARC
  5
166
330
19
100
AcDbEntity
  8
1
  6
Continuous
 62
     2
100
AcDbCircle
 10
4864.600000000001
 20
89.29999999999999
 30
0.0
 40
1.8
100
AcDbArc
 50
90.0
 51
180.0
  0
LINE
  5
167
330
19
100
AcDbEntity
  8
1
  6
Continuous
 62
     2
100
AcDbLine
 10
4890.699999999999
 20
91.09999999999999
 30
0.0
 11
4864.600000000001
 21
91.09999999999999
 31
0.0
  0
LWPOLYLINE
  5
168
330
19
100
AcDbEntity
  8
1
  6
Continuous
 62
     2
100
AcDbPolyline
 90
        5
 70
     0
 43
0.0
 10
4862.8
 20
89.29999999999999
 10
4862.8
 20
82.09999999999999
 10
4854.7
 20
82.09999999999999
 10
4854.7
 20
97.40000000000001
 10
4872.7
 20
97.40000000000001
  0
LWPOLYLINE
  5
16F
330
19
100
AcDbEntity
  8
1
  6
Continuous
 62
     2
100
AcDbPolyline
 90
        6
 70
     0
 43
0.0
 10
4880.8
 20
68.59999999999999
 10
4900.6
 20
68.59999999999999
 10
4900.6
 20
76.7
 10
4854.7
 20
76.7
 10
4854.7
 20
68.59999999999999
 10
4872.7
 20
68.59999999999999
  0
LWPOLYLINE
  5
177
330
19
100
AcDbEntity
  8
1
  6
Continuous
 62
     2
100
AcDbPolyline
 90
        3
 70
     0
 43
0.0
 10
4863.7
 20
62.3
 10
4854.7
 20
62.3
 10
4854.7
 20
32.6
  0
LWPOLYLINE
  5
17C
330
19
100
AcDbEntity
  8
1
  6
Continuous
 62
     2
100
AcDbPolyline
 90
        4
 70
     0
 43
0.0
 10
4834.0
 20
37.1
 10
4830.4
 20
37.1
 10
4830.4
 20
25.4
 10
4832.2
 20
25.4
  0
ARC
  5
182
330
19
100
AcDbEntity
  8
1
  6
Continuous
 62
     2
100
AcDbCircle
 10
4834.0
 20
45.2
 30
0.0
 40
8.099999999999999
100
AcDbArc
 50
270.0
 51
0.0
  0
LWPOLYLINE
  5
183
330
19
100
AcDbEntity
  8
1
  6
Continuous
 62
     2
100
AcDbPolyline
 90
        4
 70
     0
 43
0.0
 10
4851.1
 20
44.29999999999999
 10
4851.1
 20
57.8
 10
4842.100000000001
 20
57.8
 10
4842.100000000001
 20
45.2
  0
ARC
  5
189
330
19
100
AcDbEntity
  8
1
  6
Continuous
 62
     2
100
AcDbCircle
 10
4832.2
 20
44.29999999999999
 30
0.0
 40
18.89999999999999
100
AcDbArc
 50
270.0
 51
0.0
  0
LWPOLYLINE
  5
18A
330
19
100
AcDbEntity
  8
1
  6
Continuous
 62
     2
100
AcDbPolyline
 90
        9
 70
     0
 43
0.0
 10
4861.9
 20
25.4
 10
4900.6
 20
25.4
 10
4900.6
 20
37.1
 10
4880.8
 20
37.1
 10
4880.8
 20
48.79999999999999
 10
4900.6
 20
48.79999999999999
 10
4900.6
 20
56.9
 10
4880.8
 20
56.9
 10
4880.8
 20
68.59999999999999
  0
LINE
  5
195
330
19
100
AcDbEntity
  8
1
  6
Continuous
 62
     2
100
AcDbLine
 10
4863.7
 20
39.8
 30
0.0
 11
4863.7
 21
62.3
 31
0.0
  0
ARC
  5
196
330
19
100
AcDbEntity
  8
1
  6
Continuous
 62
     2
100
AcDbCircle
 10
4866.399999999999
 20
39.8
 30
0.0
 40
2.7
100
AcDbArc
 50
180.0
 51
270.0
  0
LWPOLYLINE
  5
197
330
19
100
AcDbEntity
  8
1
  6
Continuous
 62
     2
100
AcDbPolyline
 90
        3
 70
     0
 43
0.0
 10
4872.7
 20
68.59999999999999
 10
4872.7
 20
37.1
 10
4866.399999999999
 20
37.1
  0
ARC
  5
19C
330
19
100
AcDbEntity
  8
1
  6
Continuous
 62
     2
100
AcDbCircle
 10
4918.600000000001
 20
46.1
 30
0.0
 40
7.2
100
AcDbArc
 50
270.0
 51
0.0
  0
LWPOLYLINE
  5
19D
330
19
100
AcDbEntity
  8
1
  6
Continuous
 62
     2
100
AcDbPolyline
 90
        4
 70
     0
 43
0.0
 10
4925.8
 20
46.1
 10
4925.8
 20
102.8
 10
4935.7
 20
102.8
 10
4935.7
 20
46.1
  0
LWPOLYLINE
  5
1A3
330
19
100
AcDbEntity
  8
1
  6
Continuous
 62
     2
100
AcDbPolyline
 90
        3
 70
     0
 43
0.0
 10
4915.9
 20
25.41949999999999
 10
4915.9
 20
38.9
 10
4918.600000000001
 20
38.9
  0
ARC
  5
1A8
330
19
100
AcDbEntity
  8
1
  6
Continuous
 62
     2
100
AcDbCircle
 10
4915.0
 20
46.1
 30
0.0
 40
20.69999999999999
100
AcDbArc
 50
272.4909999999999
 51
0.0
  0
LWPOLYLINE
  5
1A9
330
19
100
AcDbEntity
  8
1
  6
Continuous
 62
     2
100
AcDbPolyline
 90
        5
 70
     0
 43
0.0
 10
4960.0
 20
101.0
 10
4951.0
 20
101.0
 10
4951.0
 20
33.5
 10
4960.0
 20
33.5
 10
4960.0
 20
101.0
  0
LWPOLYLINE
  5
1B0
330
19
100
AcDbEntity
  8
1
  6
Continuous
 62
     2
100
AcDbPolyline
 90
        5
 70
     0
 43
0.0
 10
4984.300000000001
 20
102.8
 10
4974.4
 20
102.8
 10
4974.4
 20
25.4
 10
4984.300000000001
 20
25.4
 10
4984.300000000001
 20
102.8
  0
LWPOLYLINE
  5
1B7
330
19
100
AcDbEntity
  8
1
  6
Continuous
 62
     2
100
AcDbPolyline
 90
        5
 70
     0
 43
0.0
 10
5061.7
 20
102.8
 10
5055.399999999999
 20
102.8
 10
5055.399999999999
 20
74.90000000000001
 10
5061.7
 20
74.90000000000001
 10
5061.7
 20
102.8
  0
LWPOLYLINE
  5
1BE
330
19
100
AcDbEntity
  8
1
  6
Continuous
 62
     2
100
AcDbPolyline
 90
        3
 70
     0
 43
0.0
 10
5074.3
 20
102.8
 10
5081.5
 20
102.8
 10
5081.5
 20
69.5
  0
LWPOLYLINE
  5
1C3
330
19
100
AcDbEntity
  8
1
  6
Continuous
 62
     2
100
AcDbPolyline
 90
        4
 70
     0
 43
0.0
 10
5072.5
 20
60.5
 10
5055.399999999999
 20
60.5
 10
5055.399999999999
 20
67.7
 10
5070.7
 20
67.7
  0
LWPOLYLINE
  5
1C9
330
19
100
AcDbEntity
  8
1
  6
Continuous
 62
     2
100
AcDbPolyline
 90
        3
 70
     0
 43
0.0
 10
5074.3
 20
71.29999999999999
 10
5074.3
 20
102.8
 10
5081.5
 20
102.8
  0
ARC
  5
1CE
330
19
100
AcDbEntity
  8
1
  6
Continuous
 62
     2
100
AcDbCircle
 10
5070.7
 20
71.29999999999999
 30
0.0
 40
3.6
100
AcDbArc
 50
270.0
 51
0.0
  0
ARC
  5
1CF
330
19
100
AcDbEntity
  8
1
  6
Continuous
 62
     2
100
AcDbCircle
 10
5072.5
 20
69.5
 30
0.0
 40
9.0
100
AcDbArc
 50
270.0
 51
0.0
  0
LWPOLYLINE
  5
1D0
330
19
100
AcDbEntity
  8
1
  6
Continuous
 62
     2
100
AcDbPolyline
 90
       35
 70
     0
 43
0.0
 10
5005.0
 20
102.8
 10
5011.3
 20
102.8
 10
5011.3
 20
97.40000000000001
 10
5023.0
 20
97.40000000000001
 10
5023.0
 20
102.8
 10
5030.2
 20
102.8
 10
5030.2
 20
97.40000000000001
 10
5049.100000000001
 20
97.40000000000001
 10
5049.100000000001
 20
92.0
 10
5030.2
 20
92.0
 10
5030.2
 20
86.6
 10
5049.100000000001
 20
86.6
 10
5049.100000000001
 20
81.2
 10
5030.2
 20
81.2
 10
5030.2
 20
74.0
 10
5049.100000000001
 20
74.0
 10
5049.100000000001
 20
60.5
 10
5041.9
 20
60.5
 10
5041.9
 20
69.5
 10
5030.2
 20
69.5
 10
5030.2
 20
60.5
 10
5023.0
 20
60.5
 10
5023.0
 20
69.5
 10
5011.3
 20
69.5
 10
5011.3
 20
60.5
 10
5005.0
 20
60.5
 10
5005.0
 20
74.0
 10
5023.0
 20
74.0
 10
5023.0
 20
81.2
 10
5005.0
 20
81.2
 10
5005.0
 20
86.6
 10
5023.0
 20
86.6
 10
5023.0
 20
92.0
 10
5005.0
 20
92.0
 10
5005.0
 20
102.8
  0
LWPOLYLINE
  5
1F5
330
19
100
AcDbEntity
  8
1
  6
Continuous
 62
     2
100
AcDbPolyline
 90
        4
 70
     0
 43
0.0
 10
5038.3
 20
55.1
 10
5005.0
 20
55.1
 10
5005.0
 20
50.6
 10
5018.5
 20
50.6
  0
LWPOLYLINE
  5
1FB
330
19
100
AcDbEntity
  8
1
  6
Continuous
 62
     2
100
AcDbPolyline
 90
        4
 70
     0
 43
0.0
 10
5038.3
 20
55.1
 10
5038.3
 20
59.6
 10
5046.4
 20
59.6
 10
5046.4
 20
55.1
  0
LINE
  5
201
330
19
100
AcDbEntity
  8
1
  6
Continuous
 62
     2
100
AcDbLine
 10
5026.600000000001
 20
50.6
 30
0.0
 11
5039.2
 21
50.6
 31
0.0
  0
LWPOLYLINE
  5
202
330
19
100
AcDbEntity
  8
1
  6
Continuous
 62
     2
100
AcDbPolyline
 90
        6
 70
     0
 43
0.0
 10
5019.4
 20
38.9
 10
5019.4
 20
25.4
 10
5043.7
 20
33.5
 10
5043.7
 20
40.7
 10
5026.600000000001
 20
35.29999999999999
 10
5026.600000000001
 20
50.6
  0
LWPOLYLINE
  5
20A
330
19
100
AcDbEntity
  8
1
  6
Continuous
 62
     2
100
AcDbPolyline
 90
        4
 70
     0
 43
0.0
 10
5047.3
 20
50.6
 10
5081.5
 20
50.6
 10
5081.5
 20
55.1
 10
5046.4
 20
55.1
  0
LINE
  5
210
330
19
100
AcDbEntity
  8
1
  6
Continuous
 62
     2
100
AcDbLine
 10
5081.5
 20
37.1
 30
0.0
 11
5081.5
 21
25.4
 31
0.0
  0
ARC
  5
211
330
19
100
AcDbEntity
  8
1
  6
Continuous
 62
     2
100
AcDbCircle
 10
5082.63
 20
90.0455
 30
0.0
 40
52.9576
100
AcDbArc
 50
228.146
 51
247.952
  0
ARC
  5
212
330
19
100
AcDbEntity
  8
1
  6
Continuous
 62
     2
100
AcDbCircle
 10
5082.63
 20
90.0455
 30
0.0
 40
52.9576
100
AcDbArc
 50
256.281
 51
268.7709999999999
  0
LWPOLYLINE
  5
213
330
19
100
AcDbEntity
  8
1
  6
Continuous
 62
     2
100
AcDbPolyline
 90
        4
 70
     0
 43
0.0
 10
5062.75
 20
40.9604
 10
5066.2
 20
47.0
 10
5074.3
 20
47.0
 10
5070.07
 20
38.59859999999999
  0
LWPOLYLINE
  5
219
330
19
100
AcDbEntity
  8
1
  6
Continuous
 62
     2
100
AcDbPolyline
 90
        7
 70
     0
 43
0.0
 10
5100.4
 20
76.7
 10
5100.4
 20
89.29999999999999
 10
5115.7
 20
105.4999999999999
 10
5131.899999999999
 20
92.0
 10
5131.899999999999
 20
80.29999999999999
 10
5115.7
 20
93.8
 10
5100.4
 20
76.7
  0
LWPOLYLINE
  5
222
330
19
100
AcDbEntity
  8
1
  6
Continuous
 62
     2
100
AcDbPolyline
 90
        6
 70
     0
 43
0.0
 10
5120.2
 20
65.0
 10
5131.899999999999
 20
65.0
 10
5131.899999999999
 20
72.2
 10
5100.4
 20
72.2
 10
5100.4
 20
65.0
 10
5111.2
 20
65.0
  0
LWPOLYLINE
  5
22A
330
19
100
AcDbEntity
  8
1
  6
Continuous
 62
     2
100
AcDbPolyline
 90
        4
 70
     0
 43
0.0
 10
5111.2
 20
57.8
 10
5100.4
 20
57.8
 10
5100.4
 20
50.6
 10
5111.2
 20
50.6
  0
LWPOLYLINE
  5
230
330
19
100
AcDbEntity
  8
1
  6
Continuous
 62
     2
100
AcDbPolyline
 90
        4
 70
     0
 43
0.0
 10
5120.2
 20
50.6
 10
5131.899999999999
 20
50.6
 10
5131.899999999999
 20
57.8
 10
5120.2
 20
57.8
  0
LINE
  5
236
330
19
100
AcDbEntity
  8
1
  6
Continuous
 62
     2
100
AcDbLine
 10
5111.2
 20
65.0
 30
0.0
 11
5111.2
 21
57.8
 31
0.0
  0
LINE
  5
237
330
19
100
AcDbEntity
  8
1
  6
Continuous
 62
     2
100
AcDbLine
 10
5120.2
 20
65.0
 30
0.0
 11
5120.2
 21
57.8
 31
0.0
  0
LINE
  5
238
330
19
100
AcDbEntity
  8
1
  6
Continuous
 62
     2
100
AcDbLine
 10
5111.2
 20
50.6
 30
0.0
 11
5111.2
 21
37.1
 31
0.0
  0
LWPOLYLINE
  5
239
330
19
100
AcDbEntity
  8
1
  6
Continuous
 62
     2
100
AcDbPolyline
 90
        4
 70
     0
 43
0.0
 10
5124.7
 20
25.4
 10
5100.4
 20
25.4
 10
5100.4
 20
37.1
 10
5111.2
 20
37.1
  0
LINE
  5
23F
330
19
100
AcDbEntity
  8
1
  6
Continuous
 62
     2
100
AcDbLine
 10
5120.2
 20
50.6
 30
0.0
 11
5120.2
 21
37.1
 31
0.0
  0
LWPOLYLINE
  5
240
330
19
100
AcDbEntity
  8
1
  6
Continuous
 62
     2
100
AcDbPolyline
 90
        5
 70
     0
 43
0.0
 10
5100.4
 20
45.2
 10
5100.4
 20
41.6
 10
5107.600000000001
 20
41.6
 10
5107.600000000001
 20
45.2
 10
5100.4
 20
45.2
  0
LWPOLYLINE
  5
247
330
19
100
AcDbEntity
  8
1
  6
Continuous
 62
     2
100
AcDbPolyline
 90
        4
 70
     0
 43
0.0
 10
5149.899999999999
 20
74.0
 10
5145.4
 20
74.0
 10
5145.4
 20
67.7
 10
5154.399999999999
 20
67.7
  0
LWPOLYLINE
  5
24D
330
19
100
AcDbEntity
  8
1
  6
Continuous
 62
     2
100
AcDbPolyline
 90
        4
 70
     0
 43
0.0
 10
5159.8
 20
67.7
 10
5167.899999999999
 20
67.7
 10
5167.899999999999
 20
74.0
 10
5163.4
 20
74.0
  0
LWPOLYLINE
  5
253
330
19
100
AcDbEntity
  8
1
  6
Continuous
 62
     2
100
AcDbPolyline
 90
        8
 70
     0
 43
0.0
 10
5149.899999999999
 20
74.0
 10
5144.5
 20
89.29999999999999
 10
5149.899999999999
 20
89.29999999999999
 10
5155.3
 20
74.0
 10
5158.0
 20
74.0
 10
5162.5
 20
89.29999999999999
 10
5168.8
 20
89.29999999999999
 10
5163.4
 20
74.0
  0
LWPOLYLINE
  5
25D
330
19
100
AcDbEntity
  8
1
  6
Continuous
 62
     2
100
AcDbPolyline
 90
        5
 70
     0
 43
0.0
 10
5145.4
 20
60.5
 10
5150.8
 20
60.5
 10
5150.8
 20
40.7
 10
5154.399999999999
 20
40.7
 10
5154.399999999999
 20
67.7
  0
LWPOLYLINE
  5
264
330
19
100
AcDbEntity
  8
1
  6
Continuous
 62
     2
100
AcDbPolyline
 90
        3
 70
     0
 43
0.0
 10
5145.4
 20
60.5
 10
5145.4
 20
33.5
 10
5168.8
 20
33.5
  0
LWPOLYLINE
  5
269
330
19
100
AcDbEntity
  8
1
  6
Continuous
 62
     2
100
AcDbPolyline
 90
        6
 70
     0
 43
0.0
 10
5159.8
 20
67.7
 10
5159.8
 20
40.7
 10
5163.4
 20
40.7
 10
5163.4
 20
60.5
 10
5168.8
 20
60.5
 10
5168.8
 20
33.5
  0
LWPOLYLINE
  5
271
330
19
100
AcDbEntity
  8
1
  6
Continuous
 62
     2
100
AcDbPolyline
 90
        4
 70
     0
 43
0.0
 10
5173.300000000001
 20
25.4
 10
5168.8
 20
25.4
 10
5168.8
 20
39.8
 10
5170.6
 20
39.8
  0
ARC
  5
277
330
19
100
AcDbEntity
  8
1
  6
Continuous
 62
     2
100
AcDbCircle
 10
5170.6
 20
41.6
 30
0.0
 40
1.8
100
AcDbArc
 50
270.0
 51
0.0
  0
LWPOLYLINE
  5
278
330
19
100
AcDbEntity
  8
1
  6
Continuous
 62
     2
100
AcDbPolyline
 90
        8
 70
     0
 43
0.0
 10
5172.399999999999
 20
41.6
 10
5172.399999999999
 20
96.5
 10
5140.9
 20
96.5
 10
5140.9
 20
25.4
 10
5134.6
 20
25.4
 10
5134.6
 20
103.7
 10
5178.7
 20
103.7
 10
5178.7
 20
30.8
  0
ARC
  5
282
330
19
100
AcDbEntity
  8
1
  6
Continuous
 62
     2
100
AcDbCircle
 10
5124.7
 20
39.8
 30
0.0
 40
2.7
100
AcDbArc
 50
270.0
 51
0.0
  0
LINE
  5
283
330
19
100
AcDbEntity
  8
1
  6
Continuous
 62
     2
100
AcDbLine
 10
5120.2
 20
37.1
 30
0.0
 11
5124.7
 21
37.1
 31
0.0
  0
LWPOLYLINE
  5
284
330
19
100
AcDbEntity
  8
1
  6
Continuous
 62
     2
100
AcDbPolyline
 90
        4
 70
     0
 43
0.0
 10
5127.4
 20
39.8
 10
5127.4
 20
47.0
 10
5131.899999999999
 20
47.0
 10
5131.899999999999
 20
32.6
  0
LWPOLYLINE
  5
28A
330
19
100
AcDbEntity
  8
1
  6
Continuous
 62
     2
100
AcDbPolyline
 90
        5
 70
     0
 43
0.0
 10
5201.2
 20
93.8
 10
5234.5
 20
93.8
 10
5234.5
 20
102.8
 10
5201.2
 20
102.8
 10
5201.2
 20
93.8
  0
LWPOLYLINE
  5
291
330
19
100
AcDbEntity
  8
1
  6
Continuous
 62
     2
100
AcDbPolyline
 90
        5
 70
     0
 43
0.0
 10
5208.4
 20
78.5
 10
5208.4
 20
69.5
 10
5227.3
 20
69.5
 10
5227.3
 20
78.5
 10
5208.4
 20
78.5
  0
ARC
  5
298
330
19
100
AcDbEntity
  8
1
  6
Continuous
 62
     2
100
AcDbCircle
 10
5193.100000000001
 20
46.1
 30
0.0
 40
8.099999999999999
100
AcDbArc
 50
270.0
 51
0.0
  0
LWPOLYLINE
  5
299
330
19
100
AcDbEntity
  8
1
  6
Continuous
 62
     2
100
AcDbPolyline
 90
        6
 70
     0
 43
0.0
 10
5208.4
 20
43.39999999999999
 10
5208.4
 20
61.4
 10
5233.6
 20
61.4
 10
5233.6
 20
85.7
 10
5201.2
 20
85.7
 10
5201.2
 20
46.1
  0
LINE
  5
2A1
330
19
100
AcDbEntity
  8
1
  6
Continuous
 62
     2
100
AcDbLine
 10
5225.5
 20
25.4
 30
0.0
 11
5225.5
 21
38.0
 31
0.0
  0
ARC
  5
2A2
330
19
100
AcDbEntity
  8
1
  6
Continuous
 62
     2
100
AcDbCircle
 10
5225.5
 20
51.5
 30
0.0
 40
13.5
100
AcDbArc
 50
270.0
 51
0.0
  0
ARC
  5
2A3
330
19
100
AcDbEntity
  8
1
  6
Continuous
 62
     2
100
AcDbCircle
 10
5225.5
 20
47.0
 30
0.0
 40
21.6
100
AcDbArc
 50
270.0
 51
0.0
  0
ARC
  5
2A4
330
19
100
AcDbEntity
  8
1
  6
Continuous
 62
     2
100
AcDbCircle
 10
5262.399999999999
 20
94.7
 30
0.0
 40
6.299999999999999
100
AcDbArc
 50
270.0
 51
0.0
  0
LWPOLYLINE
  5
2A5
330
19
100
AcDbEntity
  8
1
  6
Continuous
 62
     2
100
AcDbPolyline
 90
        3
 70
     0
 43
0.0
 10
5262.399999999999
 20
88.40000000000001
 10
5247.1
 20
88.40000000000001
 10
5247.1
 20
82.09999999999999
  0
ARC
  5
2AA
330
19
100
AcDbEntity
  8
1
  6
Continuous
 62
     2
100
AcDbCircle
 10
5258.8
 20
98.3
 30
0.0
 40
1.8
100
AcDbArc
 50
270.0
 51
0.0
  0
LWPOLYLINE
  5
2AB
330
19
100
AcDbEntity
  8
1
  6
Continuous
 62
     2
100
AcDbPolyline
 90
        3
 70
     0
 43
0.0
 10
5239.0
 20
51.5
 10
5239.0
 20
96.5
 10
5258.8
 20
96.5
  0
LWPOLYLINE
  5
2B0
330
19
100
AcDbEntity
  8
1
  6
Continuous
 62
     2
100
AcDbPolyline
 90
        4
 70
     0
 43
0.0
 10
5260.6
 20
98.3
 10
5260.6
 20
102.8
 10
5268.699999999999
 20
102.8
 10
5268.699999999999
 20
94.7
  0
LWPOLYLINE
  5
2B6
330
19
100
AcDbEntity
  8
1
  6
Continuous
 62
     2
100
AcDbPolyline
 90
        8
 70
     0
 43
0.0
 10
5247.1
 20
82.09999999999999
 10
5268.699999999999
 20
82.09999999999999
 10
5268.699999999999
 20
74.0
 10
5263.3
 20
74.0
 10
5263.3
 20
25.4
 10
5255.2
 20
25.4
 10
5255.2
 20
74.0
 10
5247.1
 20
74.0
  0
ARC
  5
2C0
330
19
100
AcDbEntity
  8
1
  6
Continuous
 62
     2
100
AcDbCircle
 10
5190.4
 20
43.39999999999999
 30
0.0
 40
18.0
100
AcDbArc
 50
275.739
 51
0.0
  0
LWPOLYLINE
  5
2C1
330
19
100
AcDbEntity
  8
1
  6
Continuous
 62
     2
100
AcDbPolyline
 90
        3
 70
     0
 43
0.0
 10
5193.100000000001
 20
38.0
 10
5192.199999999999
 20
38.0
 10
5192.199999999999
 20
25.4902
  0
LINE
  5
2C6
330
19
100
AcDbEntity
  8
1
  6
Continuous
 62
     2
100
AcDbLine
 10
5004.96
 20
35.2795
 30
0.0
 11
5004.96
 21
26.28659999999999
 31
0.0
  0
ARC
  5
2C7
330
19
100
AcDbEntity
  8
1
  6
Continuous
 62
     2
100
AcDbCircle
 10
4991.579999999999
 20
60.74539999999999
 30
0.0
 40
28.7666
100
AcDbArc
 50
297.7159999999999
 51
339.348
  0
LINE
  5
2C8
330
19
100
AcDbEntity
  8
1
  6
Continuous
 62
     2
100
AcDbLine
 10
4775.5
 20
40.7
 30
0.0
 11
4769.779999999999
 21
34.25759999999999
 31
0.0
  0
LWPOLYLINE
  5
2C9
330
19
100
AcDbEntity
  8
1
  6
Continuous
 62
     2
100
AcDbPolyline
 90
        6
 70
     0
 43
0.0
 10
4779.1
 20
40.7
 10
4789.9
 20
40.7
 10
4789.9
 20
43.39999999999999
 10
4768.299999999999
 20
43.39999999999999
 10
4768.299999999999
 20
40.7
 10
4775.5
 20
40.7
  0
LINE
  5
2D1
330
19
100
AcDbEntity
  8
1
  6
Continuous
 62
     2
100
AcDbLine
 10
4773.02
 20
34.0525
 30
0.0
 11
4779.1
 21
40.7
 31
0.0
  0
LWPOLYLINE
  5
2D2
330
19
100
AcDbEntity
  8
1
  6
Continuous
 62
     2
100
AcDbPolyline
 90
        5
 70
     0
 43
0.0
 10
4771.0
 20
50.6
 10
4787.2
 20
50.6
 10
4787.2
 20
47.9
 10
4771.0
 20
47.9
 10
4771.0
 20
50.6
  0
LINE
  5
2D9
330
19
100
AcDbEntity
  8
1
  6
Continuous
 62
     1
100
AcDbLine
 10
4790.0
 20
140.0
 30
0.0
 11
4790.0
 21
240.0
 31
0.0
  0
TEXT
  5
2DA
330
19
100
AcDbEntity
  8
1
 62
     1
100
AcDbText
 10
4697.54
 20
149.269
 30
0.0
 40
40.0
  1
三角法
 41
0.75
100
AcDbText
  0
TEXT
  5
2DB
330
19
100
AcDbEntity
  8
1
 62
     3
100
AcDbText
 10
4703.28
 20
207.0759999999999
 30
0.0
 40
25.0
  1
投影法
100
AcDbText
  0
TEXT
  5
2DC
330
19
100
AcDbEntity
  8
1
 62
     3
100
AcDbText
 10
4800.01
 20
196.934
 30
0.0
 40
30.0
  1
図番
 41
0.8333299999999999
100
AcDbText
  0
TEXT
  5
2DD
330
19
100
AcDbEntity
  8
1
 62
     1
100
AcDbText
 10
4881.595614933595
 20
143.245
 30
0.0
 40
80.0
  1
3E-CS4000
 41
0.625
100
AcDbText
  0
ARC
  5
2DE
330
19
100
AcDbEntity
  8
1
  6
Continuous
 62
     2
100
AcDbCircle
 10
2640.5
 20
3675.1
 30
0.0
 40
11.19999999999999
100
AcDbArc
 50
270.0
 51
0.0
  0
LWPOLYLINE
  5
2DF
330
19
100
AcDbEntity
  8
1
  6
Continuous
 62
     2
100
AcDbPolyline
 90
       10
 70
     0
 43
0.0
 10
2505.05
 20
3704.5
 10
2520.45
 20
3704.5
 10
2532.35
 20
3684.2
 10
2542.85
 20
3704.5
 10
2558.25
 20
3704.5
 10
2539.35
 20
3670.199999999999
 10
2539.35
 20
3651.3
 10
2524.65
 20
3651.3
 10
2524.65
 20
3670.199999999999
 10
2505.05
 20
3704.5
  0
POLYLINE
  5
2EB
330
19
100
AcDbEntity
  8
1
  6
Continuous
 62
     2
100
AcDb2dPolyline
 66
     1
 10
0.0
 20
0.0
 30
0.0
 70
     2
  0
VERTEX
  5
2EC
330
2EB
100
AcDbEntity
  8
1
  6
Continuous
 62
     2
100
AcDbVertex
100
AcDb2dVertex
 10
2581.35
 20
3704.5
 30
0.0
  0
VERTEX
  5
2ED
330
2EB
100
AcDbEntity
  8
1
  6
Continuous
 62
     2
100
AcDbVertex
100
AcDb2dVertex
 10
2578.2
 20
3704.29
 30
0.0
  0
VERTEX
  5
2EE
330
2EB
100
AcDbEntity
  8
1
  6
Continuous
 62
     2
100
AcDbVertex
100
AcDb2dVertex
 10
2575.1
 20
3703.67
 30
0.0
  0
VERTEX
  5
2EF
330
2EB
100
AcDbEntity
  8
1
  6
Continuous
 62
     2
100
AcDbVertex
100
AcDb2dVertex
 10
2572.1
 20
3702.64
 30
0.0
  0
VERTEX
  5
2F0
330
2EB
100
AcDbEntity
  8
1
  6
Continuous
 62
     2
100
AcDbVertex
100
AcDb2dVertex
 10
2569.24
 20
3701.22
 30
0.0
  0
VERTEX
  5
2F1
330
2EB
100
AcDbEntity
  8
1
  6
Continuous
 62
     2
100
AcDbVertex
100
AcDb2dVertex
 10
2566.57
 20
3699.44
 30
0.0
  0
VERTEX
  5
2F2
330
2EB
100
AcDbEntity
  8
1
  6
Continuous
 62
     2
100
AcDbVertex
100
AcDb2dVertex
 10
2564.14
 20
3697.33
 30
0.0
  0
VERTEX
  5
2F3
330
2EB
100
AcDbEntity
  8
1
  6
Continuous
 62
     2
100
AcDbVertex
100
AcDb2dVertex
 10
2561.97
 20
3694.9
 30
0.0
  0
VERTEX
  5
2F4
330
2EB
100
AcDbEntity
  8
1
  6
Continuous
 62
     2
100
AcDbVertex
100
AcDb2dVertex
 10
2560.11
 20
3692.21
 30
0.0
  0
VERTEX
  5
2F5
330
2EB
100
AcDbEntity
  8
1
  6
Continuous
 62
     2
100
AcDbVertex
100
AcDb2dVertex
 10
2558.58
 20
3689.3
 30
0.0
  0
VERTEX
  5
2F6
330
2EB
100
AcDbEntity
  8
1
  6
Continuous
 62
     2
100
AcDbVertex
100
AcDb2dVertex
 10
2557.409999999999
 20
3686.2
 30
0.0
  0
VERTEX
  5
2F7
330
2EB
100
AcDbEntity
  8
1
  6
Continuous
 62
     2
100
AcDbVertex
100
AcDb2dVertex
 10
2556.61
 20
3682.98
 30
0.0
  0
VERTEX
  5
2F8
330
2EB
100
AcDbEntity
  8
1
  6
Continuous
 62
     2
100
AcDbVertex
100
AcDb2dVertex
 10
2556.2
 20
3679.67
 30
0.0
  0
VERTEX
  5
2F9
330
2EB
100
AcDbEntity
  8
1
  6
Continuous
 62
     2
100
AcDbVertex
100
AcDb2dVertex
 10
2556.19
 20
3676.34
 30
0.0
  0
VERTEX
  5
2FA
330
2EB
100
AcDbEntity
  8
1
  6
Continuous
 62
     2
100
AcDbVertex
100
AcDb2dVertex
 10
2556.57
 20
3673.03
 30
0.0
  0
VERTEX
  5
2FB
330
2EB
100
AcDbEntity
  8
1
  6
Continuous
 62
     2
100
AcDbVertex
100
AcDb2dVertex
 10
2557.34
 20
3669.8
 30
0.0
  0
VERTEX
  5
2FC
330
2EB
100
AcDbEntity
  8
1
  6
Continuous
 62
     2
100
AcDbVertex
100
AcDb2dVertex
 10
2558.48
 20
3666.69
 30
0.0
  0
VERTEX
  5
2FD
330
2EB
100
AcDbEntity
  8
1
  6
Continuous
 62
     2
100
AcDbVertex
100
AcDb2dVertex
 10
2559.989999999999
 20
3663.76
 30
0.0
  0
VERTEX
  5
2FE
330
2EB
100
AcDbEntity
  8
1
  6
Continuous
 62
     2
100
AcDbVertex
100
AcDb2dVertex
 10
2561.83
 20
3661.059999999999
 30
0.0
  0
VERTEX
  5
2FF
330
2EB
100
AcDbEntity
  8
1
  6
Continuous
 62
     2
100
AcDbVertex
100
AcDb2dVertex
 10
2563.969999999999
 20
3658.61
 30
0.0
  0
VERTEX
  5
300
330
2EB
100
AcDbEntity
  8
1
  6
Continuous
 62
     2
100
AcDbVertex
100
AcDb2dVertex
 10
2566.39
 20
3656.47
 30
0.0
  0
VERTEX
  5
301
330
2EB
100
AcDbEntity
  8
1
  6
Continuous
 62
     2
100
AcDbVertex
100
AcDb2dVertex
 10
2569.05
 20
3654.659999999999
 30
0.0
  0
VERTEX
  5
302
330
2EB
100
AcDbEntity
  8
1
  6
Continuous
 62
     2
100
AcDbVertex
100
AcDb2dVertex
 10
2571.9
 20
3653.219999999999
 30
0.0
  0
VERTEX
  5
303
330
2EB
100
AcDbEntity
  8
1
  6
Continuous
 62
     2
100
AcDbVertex
100
AcDb2dVertex
 10
2574.889999999999
 20
3652.17
 30
0.0
  0
VERTEX
  5
304
330
2EB
100
AcDbEntity
  8
1
  6
Continuous
 62
     2
100
AcDbVertex
100
AcDb2dVertex
 10
2577.989999999999
 20
3651.51
 30
0.0
  0
VERTEX
  5
305
330
2EB
100
AcDbEntity
  8
1
  6
Continuous
 62
     2
100
AcDbVertex
100
AcDb2dVertex
 10
2581.139999999999
 20
3651.28
 30
0.0
  0
VERTEX
  5
306
330
2EB
100
AcDbEntity
  8
1
  6
Continuous
 62
     2
100
AcDbVertex
100
AcDb2dVertex
 10
2584.29
 20
3651.46
 30
0.0
  0
VERTEX
  5
307
330
2EB
100
AcDbEntity
  8
1
  6
Continuous
 62
     2
100
AcDbVertex
100
AcDb2dVertex
 10
2587.4
 20
3652.05
 30
0.0
  0
VERTEX
  5
308
330
2EB
100
AcDbEntity
  8
1
  6
Continuous
 62
     2
100
AcDbVertex
100
AcDb2dVertex
 10
2590.41
 20
3653.05
 30
0.0
  0
VERTEX
  5
309
330
2EB
100
AcDbEntity
  8
1
  6
Continuous
 62
     2
100
AcDbVertex
100
AcDb2dVertex
 10
2593.29
 20
3654.44
 30
0.0
  0
VERTEX
  5
30A
330
2EB
100
AcDbEntity
  8
1
  6
Continuous
 62
     2
100
AcDbVertex
100
AcDb2dVertex
 10
2595.969999999999
 20
3656.2
 30
0.0
  0
VERTEX
  5
30B
330
2EB
100
AcDbEntity
  8
1
  6
Continuous
 62
     2
100
AcDbVertex
100
AcDb2dVertex
 10
2598.43
 20
3658.3
 30
0.0
  0
VERTEX
  5
30C
330
2EB
100
AcDbEntity
  8
1
  6
Continuous
 62
     2
100
AcDbVertex
100
AcDb2dVertex
 10
2600.61
 20
3660.7
 30
0.0
  0
VERTEX
  5
30D
330
2EB
100
AcDbEntity
  8
1
  6
Continuous
 62
     2
100
AcDbVertex
100
AcDb2dVertex
 10
2602.5
 20
3663.38
 30
0.0
  0
VERTEX
  5
30E
330
2EB
100
AcDbEntity
  8
1
  6
Continuous
 62
     2
100
AcDbVertex
100
AcDb2dVertex
 10
2604.05
 20
3666.28
 30
0.0
  0
VERTEX
  5
30F
330
2EB
100
AcDbEntity
  8
1
  6
Continuous
 62
     2
100
AcDbVertex
100
AcDb2dVertex
 10
2605.25
 20
3669.37
 30
0.0
  0
VERTEX
  5
310
330
2EB
100
AcDbEntity
  8
1
  6
Continuous
 62
     2
100
AcDbVertex
100
AcDb2dVertex
 10
2606.07
 20
3672.59
 30
0.0
  0
VERTEX
  5
311
330
2EB
100
AcDbEntity
  8
1
  6
Continuous
 62
     2
100
AcDbVertex
100
AcDb2dVertex
 10
2606.51
 20
3675.889999999999
 30
0.0
  0
VERTEX
  5
312
330
2EB
100
AcDbEntity
  8
1
  6
Continuous
 62
     2
100
AcDbVertex
100
AcDb2dVertex
 10
2606.55
 20
3679.22
 30
0.0
  0
VERTEX
  5
313
330
2EB
100
AcDbEntity
  8
1
  6
Continuous
 62
     2
100
AcDbVertex
100
AcDb2dVertex
 10
2606.199999999999
 20
3682.54
 30
0.0
  0
VERTEX
  5
314
330
2EB
100
AcDbEntity
  8
1
  6
Continuous
 62
     2
100
AcDbVertex
100
AcDb2dVertex
 10
2605.449999999999
 20
3685.78
 30
0.0
  0
VERTEX
  5
315
330
2EB
100
AcDbEntity
  8
1
  6
Continuous
 62
     2
100
AcDbVertex
100
AcDb2dVertex
 10
2604.33
 20
3688.9
 30
0.0
  0
VERTEX
  5
316
330
2EB
100
AcDbEntity
  8
1
  6
Continuous
 62
     2
100
AcDbVertex
100
AcDb2dVertex
 10
2602.85
 20
3691.84
 30
0.0
  0
VERTEX
  5
317
330
2EB
100
AcDbEntity
  8
1
  6
Continuous
 62
     2
100
AcDbVertex
100
AcDb2dVertex
 10
2601.03
 20
3694.57
 30
0.0
  0
VERTEX
  5
318
330
2EB
100
AcDbEntity
  8
1
  6
Continuous
 62
     2
100
AcDbVertex
100
AcDb2dVertex
 10
2598.9
 20
3697.039999999999
 30
0.0
  0
VERTEX
  5
319
330
2EB
100
AcDbEntity
  8
1
  6
Continuous
 62
     2
100
AcDbVertex
100
AcDb2dVertex
 10
2596.5
 20
3699.199999999999
 30
0.0
  0
VERTEX
  5
31A
330
2EB
100
AcDbEntity
  8
1
  6
Continuous
 62
     2
100
AcDbVertex
100
AcDb2dVertex
 10
2593.85
 20
3701.03
 30
0.0
  0
VERTEX
  5
31B
330
2EB
100
AcDbEntity
  8
1
  6
Continuous
 62
     2
100
AcDbVertex
100
AcDb2dVertex
 10
2591.02
 20
3702.5
 30
0.0
  0
VERTEX
  5
31C
330
2EB
100
AcDbEntity
  8
1
  6
Continuous
 62
     2
100
AcDbVertex
100
AcDb2dVertex
 10
2588.03
 20
3703.59
 30
0.0
  0
VERTEX
  5
31D
330
2EB
100
AcDbEntity
  8
1
  6
Continuous
 62
     2
100
AcDbVertex
100
AcDb2dVertex
 10
2584.929999999999
 20
3704.27
 30
0.0
  0
VERTEX
  5
31E
330
2EB
100
AcDbEntity
  8
1
  6
Continuous
 62
     2
100
AcDbVertex
100
AcDb2dVertex
 10
2581.35
 20
3704.5
 30
0.0
  0
SEQEND
  5
31F
330
2EB
100
AcDbEntity
  8
1
 62
     2
  0
LWPOLYLINE
  5
320
330
19
100
AcDbEntity
  8
1
  6
Continuous
 62
     2
100
AcDbPolyline
 90
        4
 70
     0
 43
0.0
 10
2636.65
 20
3704.5
 10
2614.95
 20
3704.5
 10
2614.95
 20
3651.3
 10
2636.65
 20
3651.3
  0
LWPOLYLINE
  5
326
330
19
100
AcDbEntity
  8
1
  6
Continuous
 62
     2
100
AcDbPolyline
 90
        3
 70
     0
 43
0.0
 10
2628.95
 20
3691.2
 10
2628.95
 20
3663.9
 10
2636.65
 20
3663.9
  0
POLYLINE
  5
32B
330
19
100
AcDbEntity
  8
1
  6
Continuous
 62
     2
100
AcDb2dPolyline
 66
     1
 10
0.0
 20
0.0
 30
0.0
 70
     2
  0
VERTEX
  5
32C
330
32B
100
AcDbEntity
  8
1
  6
Continuous
 62
     2
100
AcDbVertex
100
AcDb2dVertex
 10
2581.35
 20
3694.699999999999
 30
0.0
  0
VERTEX
  5
32D
330
32B
100
AcDbEntity
  8
1
  6
Continuous
 62
     2
100
AcDbVertex
100
AcDb2dVertex
 10
2579.6
 20
3694.56
 30
0.0
  0
VERTEX
  5
32E
330
32B
100
AcDbEntity
  8
1
  6
Continuous
 62
     2
100
AcDbVertex
100
AcDb2dVertex
 10
2577.88
 20
3694.17
 30
0.0
  0
VERTEX
  5
32F
330
32B
100
AcDbEntity
  8
1
  6
Continuous
 62
     2
100
AcDbVertex
100
AcDb2dVertex
 10
2576.21
 20
3693.52
 30
0.0
  0
VERTEX
  5
330
330
32B
100
AcDbEntity
  8
1
  6
Continuous
 62
     2
100
AcDbVertex
100
AcDb2dVertex
 10
2574.619999999999
 20
3692.63
 30
0.0
  0
VERTEX
  5
331
330
32B
100
AcDbEntity
  8
1
  6
Continuous
 62
     2
100
AcDbVertex
100
AcDb2dVertex
 10
2573.14
 20
3691.51
 30
0.0
  0
VERTEX
  5
332
330
32B
100
AcDbEntity
  8
1
  6
Continuous
 62
     2
100
AcDbVertex
100
AcDb2dVertex
 10
2571.79
 20
3690.17
 30
0.0
  0
VERTEX
  5
333
330
32B
100
AcDbEntity
  8
1
  6
Continuous
 62
     2
100
AcDbVertex
100
AcDb2dVertex
 10
2570.59
 20
3688.64
 30
0.0
  0
VERTEX
  5
334
330
32B
100
AcDbEntity
  8
1
  6
Continuous
 62
     2
100
AcDbVertex
100
AcDb2dVertex
 10
2569.55
 20
3686.939999999999
 30
0.0
  0
VERTEX
  5
335
330
32B
100
AcDbEntity
  8
1
  6
Continuous
 62
     2
100
AcDbVertex
100
AcDb2dVertex
 10
2568.699999999999
 20
3685.1
 30
0.0
  0
VERTEX
  5
336
330
32B
100
AcDbEntity
  8
1
  6
Continuous
 62
     2
100
AcDbVertex
100
AcDb2dVertex
 10
2568.05
 20
3683.14
 30
0.0
  0
VERTEX
  5
337
330
32B
100
AcDbEntity
  8
1
  6
Continuous
 62
     2
100
AcDbVertex
100
AcDb2dVertex
 10
2567.61
 20
3681.11
 30
0.0
  0
VERTEX
  5
338
330
32B
100
AcDbEntity
  8
1
  6
Continuous
 62
     2
100
AcDbVertex
100
AcDb2dVertex
 10
2567.379999999999
 20
3679.019999999999
 30
0.0
  0
VERTEX
  5
339
330
32B
100
AcDbEntity
  8
1
  6
Continuous
 62
     2
100
AcDbVertex
100
AcDb2dVertex
 10
2567.37
 20
3676.91
 30
0.0
  0
VERTEX
  5
33A
330
32B
100
AcDbEntity
  8
1
  6
Continuous
 62
     2
100
AcDbVertex
100
AcDb2dVertex
 10
2567.579999999999
 20
3674.82
 30
0.0
  0
VERTEX
  5
33B
330
32B
100
AcDbEntity
  8
1
  6
Continuous
 62
     2
100
AcDbVertex
100
AcDb2dVertex
 10
2568.01
 20
3672.78
 30
0.0
  0
VERTEX
  5
33C
330
32B
100
AcDbEntity
  8
1
  6
Continuous
 62
     2
100
AcDbVertex
100
AcDb2dVertex
 10
2568.65
 20
3670.82
 30
0.0
  0
VERTEX
  5
33D
330
32B
100
AcDbEntity
  8
1
  6
Continuous
 62
     2
100
AcDbVertex
100
AcDb2dVertex
 10
2569.48
 20
3668.97
 30
0.0
  0
VERTEX
  5
33E
330
32B
100
AcDbEntity
  8
1
  6
Continuous
 62
     2
100
AcDbVertex
100
AcDb2dVertex
 10
2570.51
 20
3667.26
 30
0.0
  0
VERTEX
  5
33F
330
32B
100
AcDbEntity
  8
1
  6
Continuous
 62
     2
100
AcDbVertex
100
AcDb2dVertex
 10
2571.699999999999
 20
3665.719999999999
 30
0.0
  0
VERTEX
  5
340
330
32B
100
AcDbEntity
  8
1
  6
Continuous
 62
     2
100
AcDbVertex
100
AcDb2dVertex
 10
2573.04
 20
3664.36
 30
0.0
  0
VERTEX
  5
341
330
32B
100
AcDbEntity
  8
1
  6
Continuous
 62
     2
100
AcDbVertex
100
AcDb2dVertex
 10
2574.52
 20
3663.219999999999
 30
0.0
  0
VERTEX
  5
342
330
32B
100
AcDbEntity
  8
1
  6
Continuous
 62
     2
100
AcDbVertex
100
AcDb2dVertex
 10
2576.1
 20
3662.31
 30
0.0
  0
VERTEX
  5
343
330
32B
100
AcDbEntity
  8
1
  6
Continuous
 62
     2
100
AcDbVertex
100
AcDb2dVertex
 10
2577.76
 20
3661.64
 30
0.0
  0
VERTEX
  5
344
330
32B
100
AcDbEntity
  8
1
  6
Continuous
 62
     2
100
AcDbVertex
100
AcDb2dVertex
 10
2579.48
 20
3661.229999999999
 30
0.0
  0
VERTEX
  5
345
330
32B
100
AcDbEntity
  8
1
  6
Continuous
 62
     2
100
AcDbVertex
100
AcDb2dVertex
 10
2581.23
 20
3661.08
 30
0.0
  0
VERTEX
  5
346
330
32B
100
AcDbEntity
  8
1
  6
Continuous
 62
     2
100
AcDbVertex
100
AcDb2dVertex
 10
2582.99
 20
3661.2
 30
0.0
  0
VERTEX
  5
347
330
32B
100
AcDbEntity
  8
1
  6
Continuous
 62
     2
100
AcDbVertex
100
AcDb2dVertex
 10
2584.71
 20
3661.57
 30
0.0
  0
VERTEX
  5
348
330
32B
100
AcDbEntity
  8
1
  6
Continuous
 62
     2
100
AcDbVertex
100
AcDb2dVertex
 10
2586.39
 20
3662.2
 30
0.0
  0
VERTEX
  5
349
330
32B
100
AcDbEntity
  8
1
  6
Continuous
 62
     2
100
AcDbVertex
100
AcDb2dVertex
 10
2587.979999999999
 20
3663.08
 30
0.0
  0
VERTEX
  5
34A
330
32B
100
AcDbEntity
  8
1
  6
Continuous
 62
     2
100
AcDbVertex
100
AcDb2dVertex
 10
2589.47
 20
3664.19
 30
0.0
  0
VERTEX
  5
34B
330
32B
100
AcDbEntity
  8
1
  6
Continuous
 62
     2
100
AcDbVertex
100
AcDb2dVertex
 10
2590.84
 20
3665.52
 30
0.0
  0
VERTEX
  5
34C
330
32B
100
AcDbEntity
  8
1
  6
Continuous
 62
     2
100
AcDbVertex
100
AcDb2dVertex
 10
2592.05
 20
3667.04
 30
0.0
  0
VERTEX
  5
34D
330
32B
100
AcDbEntity
  8
1
  6
Continuous
 62
     2
100
AcDbVertex
100
AcDb2dVertex
 10
2593.1
 20
3668.73
 30
0.0
  0
VERTEX
  5
34E
330
32B
100
AcDbEntity
  8
1
  6
Continuous
 62
     2
100
AcDbVertex
100
AcDb2dVertex
 10
2593.96
 20
3670.56
 30
0.0
  0
VERTEX
  5
34F
330
32B
100
AcDbEntity
  8
1
  6
Continuous
 62
     2
100
AcDbVertex
100
AcDb2dVertex
 10
2594.63
 20
3672.51
 30
0.0
  0
VERTEX
  5
350
330
32B
100
AcDbEntity
  8
1
  6
Continuous
 62
     2
100
AcDbVertex
100
AcDb2dVertex
 10
2595.09
 20
3674.54
 30
0.0
  0
VERTEX
  5
351
330
32B
100
AcDbEntity
  8
1
  6
Continuous
 62
     2
100
AcDbVertex
100
AcDb2dVertex
 10
2595.33
 20
3676.63
 30
0.0
  0
VERTEX
  5
352
330
32B
100
AcDbEntity
  8
1
  6
Continuous
 62
     2
100
AcDbVertex
100
AcDb2dVertex
 10
2595.349999999999
 20
3678.73
 30
0.0
  0
VERTEX
  5
353
330
32B
100
AcDbEntity
  8
1
  6
Continuous
 62
     2
100
AcDbVertex
100
AcDb2dVertex
 10
2595.159999999999
 20
3680.83
 30
0.0
  0
VERTEX
  5
354
330
32B
100
AcDbEntity
  8
1
  6
Continuous
 62
     2
100
AcDbVertex
100
AcDb2dVertex
 10
2594.739999999999
 20
3682.869999999999
 30
0.0
  0
VERTEX
  5
355
330
32B
100
AcDbEntity
  8
1
  6
Continuous
 62
     2
100
AcDbVertex
100
AcDb2dVertex
 10
2594.12
 20
3684.84
 30
0.0
  0
VERTEX
  5
356
330
32B
100
AcDbEntity
  8
1
  6
Continuous
 62
     2
100
AcDbVertex
100
AcDb2dVertex
 10
2593.3
 20
3686.7
 30
0.0
  0
VERTEX
  5
357
330
32B
100
AcDbEntity
  8
1
  6
Continuous
 62
     2
100
AcDbVertex
100
AcDb2dVertex
 10
2592.28
 20
3688.429999999999
 30
0.0
  0
VERTEX
  5
358
330
32B
100
AcDbEntity
  8
1
  6
Continuous
 62
     2
100
AcDbVertex
100
AcDb2dVertex
 10
2591.1
 20
3689.98
 30
0.0
  0
VERTEX
  5
359
330
32B
100
AcDbEntity
  8
1
  6
Continuous
 62
     2
100
AcDbVertex
100
AcDb2dVertex
 10
2589.77
 20
3691.349999999999
 30
0.0
  0
VERTEX
  5
35A
330
32B
100
AcDbEntity
  8
1
  6
Continuous
 62
     2
100
AcDbVertex
100
AcDb2dVertex
 10
2588.3
 20
3692.51
 30
0.0
  0
VERTEX
  5
35B
330
32B
100
AcDbEntity
  8
1
  6
Continuous
 62
     2
100
AcDbVertex
100
AcDb2dVertex
 10
2586.719999999999
 20
3693.44
 30
0.0
  0
VERTEX
  5
35C
330
32B
100
AcDbEntity
  8
1
  6
Continuous
 62
     2
100
AcDbVertex
100
AcDb2dVertex
 10
2585.06
 20
3694.12
 30
0.0
  0
VERTEX
  5
35D
330
32B
100
AcDbEntity
  8
1
  6
Continuous
 62
     2
100
AcDbVertex
100
AcDb2dVertex
 10
2583.34
 20
3694.55
 30
0.0
  0
VERTEX
  5
35E
330
32B
100
AcDbEntity
  8
1
  6
Continuous
 62
     2
100
AcDbVertex
100
AcDb2dVertex
 10
2581.35
 20
3694.699999999999
 30
0.0
  0
SEQEND
  5
35F
330
32B
100
AcDbEntity
  8
1
 62
     2
  0
POLYLINE
  5
360
330
19
100
AcDbEntity
  8
1
  6
Continuous
 62
     2
100
AcDb2dPolyline
 66
     1
 10
0.0
 20
0.0
 30
0.0
 70
     2
  0
VERTEX
  5
361
330
360
100
AcDbEntity
  8
1
  6
Continuous
 62
     2
100
AcDbVertex
100
AcDb2dVertex
 10
2694.75
 20
3704.5
 30
0.0
  0
VERTEX
  5
362
330
360
100
AcDbEntity
  8
1
  6
Continuous
 62
     2
100
AcDbVertex
100
AcDb2dVertex
 10
2691.6
 20
3704.29
 30
0.0
  0
VERTEX
  5
363
330
360
100
AcDbEntity
  8
1
  6
Continuous
 62
     2
100
AcDbVertex
100
AcDb2dVertex
 10
2688.5
 20
3703.67
 30
0.0
  0
VERTEX
  5
364
330
360
100
AcDbEntity
  8
1
  6
Continuous
 62
     2
100
AcDbVertex
100
AcDb2dVertex
 10
2685.5
 20
3702.64
 30
0.0
  0
VERTEX
  5
365
330
360
100
AcDbEntity
  8
1
  6
Continuous
 62
     2
100
AcDbVertex
100
AcDb2dVertex
 10
2682.64
 20
3701.22
 30
0.0
  0
VERTEX
  5
366
330
360
100
AcDbEntity
  8
1
  6
Continuous
 62
     2
100
AcDbVertex
100
AcDb2dVertex
 10
2679.969999999999
 20
3699.44
 30
0.0
  0
VERTEX
  5
367
330
360
100
AcDbEntity
  8
1
  6
Continuous
 62
     2
100
AcDbVertex
100
AcDb2dVertex
 10
2677.54
 20
3697.33
 30
0.0
  0
VERTEX
  5
368
330
360
100
AcDbEntity
  8
1
  6
Continuous
 62
     2
100
AcDbVertex
100
AcDb2dVertex
 10
2675.37
 20
3694.9
 30
0.0
  0
VERTEX
  5
369
330
360
100
AcDbEntity
  8
1
  6
Continuous
 62
     2
100
AcDbVertex
100
AcDb2dVertex
 10
2673.51
 20
3692.21
 30
0.0
  0
VERTEX
  5
36A
330
360
100
AcDbEntity
  8
1
  6
Continuous
 62
     2
100
AcDbVertex
100
AcDb2dVertex
 10
2671.98
 20
3689.3
 30
0.0
  0
VERTEX
  5
36B
330
360
100
AcDbEntity
  8
1
  6
Continuous
 62
     2
100
AcDbVertex
100
AcDb2dVertex
 10
2670.81
 20
3686.2
 30
0.0
  0
VERTEX
  5
36C
330
360
100
AcDbEntity
  8
1
  6
Continuous
 62
     2
100
AcDbVertex
100
AcDb2dVertex
 10
2670.01
 20
3682.98
 30
0.0
  0
VERTEX
  5
36D
330
360
100
AcDbEntity
  8
1
  6
Continuous
 62
     2
100
AcDbVertex
100
AcDb2dVertex
 10
2669.599999999999
 20
3679.67
 30
0.0
  0
VERTEX
  5
36E
330
360
100
AcDbEntity
  8
1
  6
Continuous
 62
     2
100
AcDbVertex
100
AcDb2dVertex
 10
2669.59
 20
3676.34
 30
0.0
  0
VERTEX
  5
36F
330
360
100
AcDbEntity
  8
1
  6
Continuous
 62
     2
100
AcDbVertex
100
AcDb2dVertex
 10
2669.97
 20
3673.03
 30
0.0
  0
VERTEX
  5
370
330
360
100
AcDbEntity
  8
1
  6
Continuous
 62
     2
100
AcDbVertex
100
AcDb2dVertex
 10
2670.74
 20
3669.8
 30
0.0
  0
VERTEX
  5
371
330
360
100
AcDbEntity
  8
1
  6
Continuous
 62
     2
100
AcDbVertex
100
AcDb2dVertex
 10
2671.88
 20
3666.69
 30
0.0
  0
VERTEX
  5
372
330
360
100
AcDbEntity
  8
1
  6
Continuous
 62
     2
100
AcDbVertex
100
AcDb2dVertex
 10
2673.389999999999
 20
3663.76
 30
0.0
  0
VERTEX
  5
373
330
360
100
AcDbEntity
  8
1
  6
Continuous
 62
     2
100
AcDbVertex
100
AcDb2dVertex
 10
2675.23
 20
3661.059999999999
 30
0.0
  0
VERTEX
  5
374
330
360
100
AcDbEntity
  8
1
  6
Continuous
 62
     2
100
AcDbVertex
100
AcDb2dVertex
 10
2677.369999999999
 20
3658.61
 30
0.0
  0
VERTEX
  5
375
330
360
100
AcDbEntity
  8
1
  6
Continuous
 62
     2
100
AcDbVertex
100
AcDb2dVertex
 10
2679.79
 20
3656.47
 30
0.0
  0
VERTEX
  5
376
330
360
100
AcDbEntity
  8
1
  6
Continuous
 62
     2
100
AcDbVertex
100
AcDb2dVertex
 10
2682.45
 20
3654.659999999999
 30
0.0
  0
VERTEX
  5
377
330
360
100
AcDbEntity
  8
1
  6
Continuous
 62
     2
100
AcDbVertex
100
AcDb2dVertex
 10
2685.3
 20
3653.219999999999
 30
0.0
  0
VERTEX
  5
378
330
360
100
AcDbEntity
  8
1
  6
Continuous
 62
     2
100
AcDbVertex
100
AcDb2dVertex
 10
2688.29
 20
3652.17
 30
0.0
  0
VERTEX
  5
379
330
360
100
AcDbEntity
  8
1
  6
Continuous
 62
     2
100
AcDbVertex
100
AcDb2dVertex
 10
2691.39
 20
3651.51
 30
0.0
  0
VERTEX
  5
37A
330
360
100
AcDbEntity
  8
1
  6
Continuous
 62
     2
100
AcDbVertex
100
AcDb2dVertex
 10
2694.539999999999
 20
3651.28
 30
0.0
  0
VERTEX
  5
37B
330
360
100
AcDbEntity
  8
1
  6
Continuous
 62
     2
100
AcDbVertex
100
AcDb2dVertex
 10
2697.69
 20
3651.46
 30
0.0
  0
VERTEX
  5
37C
330
360
100
AcDbEntity
  8
1
  6
Continuous
 62
     2
100
AcDbVertex
100
AcDb2dVertex
 10
2700.8
 20
3652.05
 30
0.0
  0
VERTEX
  5
37D
330
360
100
AcDbEntity
  8
1
  6
Continuous
 62
     2
100
AcDbVertex
100
AcDb2dVertex
 10
2703.81
 20
3653.05
 30
0.0
  0
VERTEX
  5
37E
330
360
100
AcDbEntity
  8
1
  6
Continuous
 62
     2
100
AcDbVertex
100
AcDb2dVertex
 10
2706.69
 20
3654.44
 30
0.0
  0
VERTEX
  5
37F
330
360
100
AcDbEntity
  8
1
  6
Continuous
 62
     2
100
AcDbVertex
100
AcDb2dVertex
 10
2709.369999999999
 20
3656.2
 30
0.0
  0
VERTEX
  5
380
330
360
100
AcDbEntity
  8
1
  6
Continuous
 62
     2
100
AcDbVertex
100
AcDb2dVertex
 10
2711.83
 20
3658.3
 30
0.0
  0
VERTEX
  5
381
330
360
100
AcDbEntity
  8
1
  6
Continuous
 62
     2
100
AcDbVertex
100
AcDb2dVertex
 10
2714.01
 20
3660.7
 30
0.0
  0
VERTEX
  5
382
330
360
100
AcDbEntity
  8
1
  6
Continuous
 62
     2
100
AcDbVertex
100
AcDb2dVertex
 10
2715.9
 20
3663.38
 30
0.0
  0
VERTEX
  5
383
330
360
100
AcDbEntity
  8
1
  6
Continuous
 62
     2
100
AcDbVertex
100
AcDb2dVertex
 10
2717.449999999999
 20
3666.28
 30
0.0
  0
VERTEX
  5
384
330
360
100
AcDbEntity
  8
1
  6
Continuous
 62
     2
100
AcDbVertex
100
AcDb2dVertex
 10
2718.65
 20
3669.37
 30
0.0
  0
VERTEX
  5
385
330
360
100
AcDbEntity
  8
1
  6
Continuous
 62
     2
100
AcDbVertex
100
AcDb2dVertex
 10
2719.469999999999
 20
3672.59
 30
0.0
  0
VERTEX
  5
386
330
360
100
AcDbEntity
  8
1
  6
Continuous
 62
     2
100
AcDbVertex
100
AcDb2dVertex
 10
2719.91
 20
3675.889999999999
 30
0.0
  0
VERTEX
  5
387
330
360
100
AcDbEntity
  8
1
  6
Continuous
 62
     2
100
AcDbVertex
100
AcDb2dVertex
 10
2719.95
 20
3679.22
 30
0.0
  0
VERTEX
  5
388
330
360
100
AcDbEntity
  8
1
  6
Continuous
 62
     2
100
AcDbVertex
100
AcDb2dVertex
 10
2719.599999999999
 20
3682.54
 30
0.0
  0
VERTEX
  5
389
330
360
100
AcDbEntity
  8
1
  6
Continuous
 62
     2
100
AcDbVertex
100
AcDb2dVertex
 10
2718.85
 20
3685.78
 30
0.0
  0
VERTEX
  5
38A
330
360
100
AcDbEntity
  8
1
  6
Continuous
 62
     2
100
AcDbVertex
100
AcDb2dVertex
 10
2717.73
 20
3688.9
 30
0.0
  0
VERTEX
  5
38B
330
360
100
AcDbEntity
  8
1
  6
Continuous
 62
     2
100
AcDbVertex
100
AcDb2dVertex
 10
2716.25
 20
3691.84
 30
0.0
  0
VERTEX
  5
38C
330
360
100
AcDbEntity
  8
1
  6
Continuous
 62
     2
100
AcDbVertex
100
AcDb2dVertex
 10
2714.43
 20
3694.57
 30
0.0
  0
VERTEX
  5
38D
330
360
100
AcDbEntity
  8
1
  6
Continuous
 62
     2
100
AcDbVertex
100
AcDb2dVertex
 10
2712.3
 20
3697.039999999999
 30
0.0
  0
VERTEX
  5
38E
330
360
100
AcDbEntity
  8
1
  6
Continuous
 62
     2
100
AcDbVertex
100
AcDb2dVertex
 10
2709.9
 20
3699.199999999999
 30
0.0
  0
VERTEX
  5
38F
330
360
100
AcDbEntity
  8
1
  6
Continuous
 62
     2
100
AcDbVertex
100
AcDb2dVertex
 10
2707.25
 20
3701.03
 30
0.0
  0
VERTEX
  5
390
330
360
100
AcDbEntity
  8
1
  6
Continuous
 62
     2
100
AcDbVertex
100
AcDb2dVertex
 10
2704.42
 20
3702.5
 30
0.0
  0
VERTEX
  5
391
330
360
100
AcDbEntity
  8
1
  6
Continuous
 62
     2
100
AcDbVertex
100
AcDb2dVertex
 10
2701.43
 20
3703.59
 30
0.0
  0
VERTEX
  5
392
330
360
100
AcDbEntity
  8
1
  6
Continuous
 62
     2
100
AcDbVertex
100
AcDb2dVertex
 10
2698.33
 20
3704.27
 30
0.0
  0
VERTEX
  5
393
330
360
100
AcDbEntity
  8
1
  6
Continuous
 62
     2
100
AcDbVertex
100
AcDb2dVertex
 10
2694.75
 20
3704.5
 30
0.0
  0
SEQEND
  5
394
330
360
100
AcDbEntity
  8
1
 62
     2
  0
POLYLINE
  5
395
330
19
100
AcDbEntity
  8
1
  6
Continuous
 62
     2
100
AcDb2dPolyline
 66
     1
 10
0.0
 20
0.0
 30
0.0
 70
     2
  0
VERTEX
  5
396
330
395
100
AcDbEntity
  8
1
  6
Continuous
 62
     2
100
AcDbVertex
100
AcDb2dVertex
 10
2694.75
 20
3694.699999999999
 30
0.0
  0
VERTEX
  5
397
330
395
100
AcDbEntity
  8
1
  6
Continuous
 62
     2
100
AcDbVertex
100
AcDb2dVertex
 10
2693.0
 20
3694.56
 30
0.0
  0
VERTEX
  5
398
330
395
100
AcDbEntity
  8
1
  6
Continuous
 62
     2
100
AcDbVertex
100
AcDb2dVertex
 10
2691.28
 20
3694.17
 30
0.0
  0
VERTEX
  5
399
330
395
100
AcDbEntity
  8
1
  6
Continuous
 62
     2
100
AcDbVertex
100
AcDb2dVertex
 10
2689.61
 20
3693.52
 30
0.0
  0
VERTEX
  5
39A
330
395
100
AcDbEntity
  8
1
  6
Continuous
 62
     2
100
AcDbVertex
100
AcDb2dVertex
 10
2688.02
 20
3692.63
 30
0.0
  0
VERTEX
  5
39B
330
395
100
AcDbEntity
  8
1
  6
Continuous
 62
     2
100
AcDbVertex
100
AcDb2dVertex
 10
2686.54
 20
3691.51
 30
0.0
  0
VERTEX
  5
39C
330
395
100
AcDbEntity
  8
1
  6
Continuous
 62
     2
100
AcDbVertex
100
AcDb2dVertex
 10
2685.19
 20
3690.17
 30
0.0
  0
VERTEX
  5
39D
330
395
100
AcDbEntity
  8
1
  6
Continuous
 62
     2
100
AcDbVertex
100
AcDb2dVertex
 10
2683.99
 20
3688.64
 30
0.0
  0
VERTEX
  5
39E
330
395
100
AcDbEntity
  8
1
  6
Continuous
 62
     2
100
AcDbVertex
100
AcDb2dVertex
 10
2682.949999999999
 20
3686.939999999999
 30
0.0
  0
VERTEX
  5
39F
330
395
100
AcDbEntity
  8
1
  6
Continuous
 62
     2
100
AcDbVertex
100
AcDb2dVertex
 10
2682.1
 20
3685.1
 30
0.0
  0
VERTEX
  5
3A0
330
395
100
AcDbEntity
  8
1
  6
Continuous
 62
     2
100
AcDbVertex
100
AcDb2dVertex
 10
2681.449999999999
 20
3683.14
 30
0.0
  0
VERTEX
  5
3A1
330
395
100
AcDbEntity
  8
1
  6
Continuous
 62
     2
100
AcDbVertex
100
AcDb2dVertex
 10
2681.01
 20
3681.11
 30
0.0
  0
VERTEX
  5
3A2
330
395
100
AcDbEntity
  8
1
  6
Continuous
 62
     2
100
AcDbVertex
100
AcDb2dVertex
 10
2680.78
 20
3679.019999999999
 30
0.0
  0
VERTEX
  5
3A3
330
395
100
AcDbEntity
  8
1
  6
Continuous
 62
     2
100
AcDbVertex
100
AcDb2dVertex
 10
2680.77
 20
3676.91
 30
0.0
  0
VERTEX
  5
3A4
330
395
100
AcDbEntity
  8
1
  6
Continuous
 62
     2
100
AcDbVertex
100
AcDb2dVertex
 10
2680.979999999999
 20
3674.82
 30
0.0
  0
VERTEX
  5
3A5
330
395
100
AcDbEntity
  8
1
  6
Continuous
 62
     2
100
AcDbVertex
100
AcDb2dVertex
 10
2681.41
 20
3672.78
 30
0.0
  0
VERTEX
  5
3A6
330
395
100
AcDbEntity
  8
1
  6
Continuous
 62
     2
100
AcDbVertex
100
AcDb2dVertex
 10
2682.05
 20
3670.82
 30
0.0
  0
VERTEX
  5
3A7
330
395
100
AcDbEntity
  8
1
  6
Continuous
 62
     2
100
AcDbVertex
100
AcDb2dVertex
 10
2682.88
 20
3668.97
 30
0.0
  0
VERTEX
  5
3A8
330
395
100
AcDbEntity
  8
1
  6
Continuous
 62
     2
100
AcDbVertex
100
AcDb2dVertex
 10
2683.91
 20
3667.26
 30
0.0
  0
VERTEX
  5
3A9
330
395
100
AcDbEntity
  8
1
  6
Continuous
 62
     2
100
AcDbVertex
100
AcDb2dVertex
 10
2685.1
 20
3665.719999999999
 30
0.0
  0
VERTEX
  5
3AA
330
395
100
AcDbEntity
  8
1
  6
Continuous
 62
     2
100
AcDbVertex
100
AcDb2dVertex
 10
2686.44
 20
3664.36
 30
0.0
  0
VERTEX
  5
3AB
330
395
100
AcDbEntity
  8
1
  6
Continuous
 62
     2
100
AcDbVertex
100
AcDb2dVertex
 10
2687.92
 20
3663.219999999999
 30
0.0
  0
VERTEX
  5
3AC
330
395
100
AcDbEntity
  8
1
  6
Continuous
 62
     2
100
AcDbVertex
100
AcDb2dVertex
 10
2689.5
 20
3662.31
 30
0.0
  0
VERTEX
  5
3AD
330
395
100
AcDbEntity
  8
1
  6
Continuous
 62
     2
100
AcDbVertex
100
AcDb2dVertex
 10
2691.159999999999
 20
3661.64
 30
0.0
  0
VERTEX
  5
3AE
330
395
100
AcDbEntity
  8
1
  6
Continuous
 62
     2
100
AcDbVertex
100
AcDb2dVertex
 10
2692.88
 20
3661.229999999999
 30
0.0
  0
VERTEX
  5
3AF
330
395
100
AcDbEntity
  8
1
  6
Continuous
 62
     2
100
AcDbVertex
100
AcDb2dVertex
 10
2694.63
 20
3661.08
 30
0.0
  0
VERTEX
  5
3B0
330
395
100
AcDbEntity
  8
1
  6
Continuous
 62
     2
100
AcDbVertex
100
AcDb2dVertex
 10
2696.39
 20
3661.2
 30
0.0
  0
VERTEX
  5
3B1
330
395
100
AcDbEntity
  8
1
  6
Continuous
 62
     2
100
AcDbVertex
100
AcDb2dVertex
 10
2698.11
 20
3661.57
 30
0.0
  0
VERTEX
  5
3B2
330
395
100
AcDbEntity
  8
1
  6
Continuous
 62
     2
100
AcDbVertex
100
AcDb2dVertex
 10
2699.79
 20
3662.2
 30
0.0
  0
VERTEX
  5
3B3
330
395
100
AcDbEntity
  8
1
  6
Continuous
 62
     2
100
AcDbVertex
100
AcDb2dVertex
 10
2701.38
 20
3663.08
 30
0.0
  0
VERTEX
  5
3B4
330
395
100
AcDbEntity
  8
1
  6
Continuous
 62
     2
100
AcDbVertex
100
AcDb2dVertex
 10
2702.87
 20
3664.19
 30
0.0
  0
VERTEX
  5
3B5
330
395
100
AcDbEntity
  8
1
  6
Continuous
 62
     2
100
AcDbVertex
100
AcDb2dVertex
 10
2704.239999999999
 20
3665.52
 30
0.0
  0
VERTEX
  5
3B6
330
395
100
AcDbEntity
  8
1
  6
Continuous
 62
     2
100
AcDbVertex
100
AcDb2dVertex
 10
2705.449999999999
 20
3667.04
 30
0.0
  0
VERTEX
  5
3B7
330
395
100
AcDbEntity
  8
1
  6
Continuous
 62
     2
100
AcDbVertex
100
AcDb2dVertex
 10
2706.5
 20
3668.73
 30
0.0
  0
VERTEX
  5
3B8
330
395
100
AcDbEntity
  8
1
  6
Continuous
 62
     2
100
AcDbVertex
100
AcDb2dVertex
 10
2707.36
 20
3670.56
 30
0.0
  0
VERTEX
  5
3B9
330
395
100
AcDbEntity
  8
1
  6
Continuous
 62
     2
100
AcDbVertex
100
AcDb2dVertex
 10
2708.03
 20
3672.51
 30
0.0
  0
VERTEX
  5
3BA
330
395
100
AcDbEntity
  8
1
  6
Continuous
 62
     2
100
AcDbVertex
100
AcDb2dVertex
 10
2708.489999999999
 20
3674.54
 30
0.0
  0
VERTEX
  5
3BB
330
395
100
AcDbEntity
  8
1
  6
Continuous
 62
     2
100
AcDbVertex
100
AcDb2dVertex
 10
2708.73
 20
3676.63
 30
0.0
  0
VERTEX
  5
3BC
330
395
100
AcDbEntity
  8
1
  6
Continuous
 62
     2
100
AcDbVertex
100
AcDb2dVertex
 10
2708.75
 20
3678.73
 30
0.0
  0
VERTEX
  5
3BD
330
395
100
AcDbEntity
  8
1
  6
Continuous
 62
     2
100
AcDbVertex
100
AcDb2dVertex
 10
2708.56
 20
3680.83
 30
0.0
  0
VERTEX
  5
3BE
330
395
100
AcDbEntity
  8
1
  6
Continuous
 62
     2
100
AcDbVertex
100
AcDb2dVertex
 10
2708.14
 20
3682.869999999999
 30
0.0
  0
VERTEX
  5
3BF
330
395
100
AcDbEntity
  8
1
  6
Continuous
 62
     2
100
AcDbVertex
100
AcDb2dVertex
 10
2707.52
 20
3684.84
 30
0.0
  0
VERTEX
  5
3C0
330
395
100
AcDbEntity
  8
1
  6
Continuous
 62
     2
100
AcDbVertex
100
AcDb2dVertex
 10
2706.7
 20
3686.7
 30
0.0
  0
VERTEX
  5
3C1
330
395
100
AcDbEntity
  8
1
  6
Continuous
 62
     2
100
AcDbVertex
100
AcDb2dVertex
 10
2705.68
 20
3688.429999999999
 30
0.0
  0
VERTEX
  5
3C2
330
395
100
AcDbEntity
  8
1
  6
Continuous
 62
     2
100
AcDbVertex
100
AcDb2dVertex
 10
2704.5
 20
3689.98
 30
0.0
  0
VERTEX
  5
3C3
330
395
100
AcDbEntity
  8
1
  6
Continuous
 62
     2
100
AcDbVertex
100
AcDb2dVertex
 10
2703.17
 20
3691.349999999999
 30
0.0
  0
VERTEX
  5
3C4
330
395
100
AcDbEntity
  8
1
  6
Continuous
 62
     2
100
AcDbVertex
100
AcDb2dVertex
 10
2701.7
 20
3692.51
 30
0.0
  0
VERTEX
  5
3C5
330
395
100
AcDbEntity
  8
1
  6
Continuous
 62
     2
100
AcDbVertex
100
AcDb2dVertex
 10
2700.12
 20
3693.44
 30
0.0
  0
VERTEX
  5
3C6
330
395
100
AcDbEntity
  8
1
  6
Continuous
 62
     2
100
AcDbVertex
100
AcDb2dVertex
 10
2698.46
 20
3694.12
 30
0.0
  0
VERTEX
  5
3C7
330
395
100
AcDbEntity
  8
1
  6
Continuous
 62
     2
100
AcDbVertex
100
AcDb2dVertex
 10
2696.74
 20
3694.55
 30
0.0
  0
VERTEX
  5
3C8
330
395
100
AcDbEntity
  8
1
  6
Continuous
 62
     2
100
AcDbVertex
100
AcDb2dVertex
 10
2694.75
 20
3694.699999999999
 30
0.0
  0
SEQEND
  5
3C9
330
395
100
AcDbEntity
  8
1
 62
     2
  0
POLYLINE
  5
3CA
330
19
100
AcDbEntity
  8
1
  6
Continuous
 62
     2
100
AcDb2dPolyline
 66
     1
 10
0.0
 20
0.0
 30
0.0
 70
     2
  0
VERTEX
  5
3CB
330
3CA
100
AcDbEntity
  8
1
  6
Continuous
 62
     2
100
AcDbVertex
100
AcDb2dVertex
 10
2805.35
 20
3694.699999999999
 30
0.0
  0
VERTEX
  5
3CC
330
3CA
100
AcDbEntity
  8
1
  6
Continuous
 62
     2
100
AcDbVertex
100
AcDb2dVertex
 10
2803.6
 20
3694.56
 30
0.0
  0
VERTEX
  5
3CD
330
3CA
100
AcDbEntity
  8
1
  6
Continuous
 62
     2
100
AcDbVertex
100
AcDb2dVertex
 10
2801.88
 20
3694.17
 30
0.0
  0
VERTEX
  5
3CE
330
3CA
100
AcDbEntity
  8
1
  6
Continuous
 62
     2
100
AcDbVertex
100
AcDb2dVertex
 10
2800.21
 20
3693.52
 30
0.0
  0
VERTEX
  5
3CF
330
3CA
100
AcDbEntity
  8
1
  6
Continuous
 62
     2
100
AcDbVertex
100
AcDb2dVertex
 10
2798.62
 20
3692.63
 30
0.0
  0
VERTEX
  5
3D0
330
3CA
100
AcDbEntity
  8
1
  6
Continuous
 62
     2
100
AcDbVertex
100
AcDb2dVertex
 10
2797.14
 20
3691.51
 30
0.0
  0
VERTEX
  5
3D1
330
3CA
100
AcDbEntity
  8
1
  6
Continuous
 62
     2
100
AcDbVertex
100
AcDb2dVertex
 10
2795.79
 20
3690.17
 30
0.0
  0
VERTEX
  5
3D2
330
3CA
100
AcDbEntity
  8
1
  6
Continuous
 62
     2
100
AcDbVertex
100
AcDb2dVertex
 10
2794.59
 20
3688.64
 30
0.0
  0
VERTEX
  5
3D3
330
3CA
100
AcDbEntity
  8
1
  6
Continuous
 62
     2
100
AcDbVertex
100
AcDb2dVertex
 10
2793.55
 20
3686.939999999999
 30
0.0
  0
VERTEX
  5
3D4
330
3CA
100
AcDbEntity
  8
1
  6
Continuous
 62
     2
100
AcDbVertex
100
AcDb2dVertex
 10
2792.699999999999
 20
3685.1
 30
0.0
  0
VERTEX
  5
3D5
330
3CA
100
AcDbEntity
  8
1
  6
Continuous
 62
     2
100
AcDbVertex
100
AcDb2dVertex
 10
2792.05
 20
3683.14
 30
0.0
  0
VERTEX
  5
3D6
330
3CA
100
AcDbEntity
  8
1
  6
Continuous
 62
     2
100
AcDbVertex
100
AcDb2dVertex
 10
2791.61
 20
3681.11
 30
0.0
  0
VERTEX
  5
3D7
330
3CA
100
AcDbEntity
  8
1
  6
Continuous
 62
     2
100
AcDbVertex
100
AcDb2dVertex
 10
2791.38
 20
3679.019999999999
 30
0.0
  0
VERTEX
  5
3D8
330
3CA
100
AcDbEntity
  8
1
  6
Continuous
 62
     2
100
AcDbVertex
100
AcDb2dVertex
 10
2791.37
 20
3676.91
 30
0.0
  0
VERTEX
  5
3D9
330
3CA
100
AcDbEntity
  8
1
  6
Continuous
 62
     2
100
AcDbVertex
100
AcDb2dVertex
 10
2791.58
 20
3674.82
 30
0.0
  0
VERTEX
  5
3DA
330
3CA
100
AcDbEntity
  8
1
  6
Continuous
 62
     2
100
AcDbVertex
100
AcDb2dVertex
 10
2792.01
 20
3672.78
 30
0.0
  0
VERTEX
  5
3DB
330
3CA
100
AcDbEntity
  8
1
  6
Continuous
 62
     2
100
AcDbVertex
100
AcDb2dVertex
 10
2792.65
 20
3670.82
 30
0.0
  0
VERTEX
  5
3DC
330
3CA
100
AcDbEntity
  8
1
  6
Continuous
 62
     2
100
AcDbVertex
100
AcDb2dVertex
 10
2793.48
 20
3668.97
 30
0.0
  0
VERTEX
  5
3DD
330
3CA
100
AcDbEntity
  8
1
  6
Continuous
 62
     2
100
AcDbVertex
100
AcDb2dVertex
 10
2794.51
 20
3667.26
 30
0.0
  0
VERTEX
  5
3DE
330
3CA
100
AcDbEntity
  8
1
  6
Continuous
 62
     2
100
AcDbVertex
100
AcDb2dVertex
 10
2795.7
 20
3665.719999999999
 30
0.0
  0
VERTEX
  5
3DF
330
3CA
100
AcDbEntity
  8
1
  6
Continuous
 62
     2
100
AcDbVertex
100
AcDb2dVertex
 10
2797.04
 20
3664.36
 30
0.0
  0
VERTEX
  5
3E0
330
3CA
100
AcDbEntity
  8
1
  6
Continuous
 62
     2
100
AcDbVertex
100
AcDb2dVertex
 10
2798.519999999999
 20
3663.219999999999
 30
0.0
  0
VERTEX
  5
3E1
330
3CA
100
AcDbEntity
  8
1
  6
Continuous
 62
     2
100
AcDbVertex
100
AcDb2dVertex
 10
2800.1
 20
3662.31
 30
0.0
  0
VERTEX
  5
3E2
330
3CA
100
AcDbEntity
  8
1
  6
Continuous
 62
     2
100
AcDbVertex
100
AcDb2dVertex
 10
2801.76
 20
3661.64
 30
0.0
  0
VERTEX
  5
3E3
330
3CA
100
AcDbEntity
  8
1
  6
Continuous
 62
     2
100
AcDbVertex
100
AcDb2dVertex
 10
2803.48
 20
3661.229999999999
 30
0.0
  0
VERTEX
  5
3E4
330
3CA
100
AcDbEntity
  8
1
  6
Continuous
 62
     2
100
AcDbVertex
100
AcDb2dVertex
 10
2805.23
 20
3661.08
 30
0.0
  0
VERTEX
  5
3E5
330
3CA
100
AcDbEntity
  8
1
  6
Continuous
 62
     2
100
AcDbVertex
100
AcDb2dVertex
 10
2806.989999999999
 20
3661.2
 30
0.0
  0
VERTEX
  5
3E6
330
3CA
100
AcDbEntity
  8
1
  6
Continuous
 62
     2
100
AcDbVertex
100
AcDb2dVertex
 10
2808.709999999999
 20
3661.57
 30
0.0
  0
VERTEX
  5
3E7
330
3CA
100
AcDbEntity
  8
1
  6
Continuous
 62
     2
100
AcDbVertex
100
AcDb2dVertex
 10
2810.389999999999
 20
3662.2
 30
0.0
  0
VERTEX
  5
3E8
330
3CA
100
AcDbEntity
  8
1
  6
Continuous
 62
     2
100
AcDbVertex
100
AcDb2dVertex
 10
2811.98
 20
3663.08
 30
0.0
  0
VERTEX
  5
3E9
330
3CA
100
AcDbEntity
  8
1
  6
Continuous
 62
     2
100
AcDbVertex
100
AcDb2dVertex
 10
2813.47
 20
3664.19
 30
0.0
  0
VERTEX
  5
3EA
330
3CA
100
AcDbEntity
  8
1
  6
Continuous
 62
     2
100
AcDbVertex
100
AcDb2dVertex
 10
2814.84
 20
3665.52
 30
0.0
  0
VERTEX
  5
3EB
330
3CA
100
AcDbEntity
  8
1
  6
Continuous
 62
     2
100
AcDbVertex
100
AcDb2dVertex
 10
2816.05
 20
3667.04
 30
0.0
  0
VERTEX
  5
3EC
330
3CA
100
AcDbEntity
  8
1
  6
Continuous
 62
     2
100
AcDbVertex
100
AcDb2dVertex
 10
2817.099999999999
 20
3668.73
 30
0.0
  0
VERTEX
  5
3ED
330
3CA
100
AcDbEntity
  8
1
  6
Continuous
 62
     2
100
AcDbVertex
100
AcDb2dVertex
 10
2817.96
 20
3670.56
 30
0.0
  0
VERTEX
  5
3EE
330
3CA
100
AcDbEntity
  8
1
  6
Continuous
 62
     2
100
AcDbVertex
100
AcDb2dVertex
 10
2818.63
 20
3672.51
 30
0.0
  0
VERTEX
  5
3EF
330
3CA
100
AcDbEntity
  8
1
  6
Continuous
 62
     2
100
AcDbVertex
100
AcDb2dVertex
 10
2819.09
 20
3674.54
 30
0.0
  0
VERTEX
  5
3F0
330
3CA
100
AcDbEntity
  8
1
  6
Continuous
 62
     2
100
AcDbVertex
100
AcDb2dVertex
 10
2819.33
 20
3676.63
 30
0.0
  0
VERTEX
  5
3F1
330
3CA
100
AcDbEntity
  8
1
  6
Continuous
 62
     2
100
AcDbVertex
100
AcDb2dVertex
 10
2819.35
 20
3678.73
 30
0.0
  0
VERTEX
  5
3F2
330
3CA
100
AcDbEntity
  8
1
  6
Continuous
 62
     2
100
AcDbVertex
100
AcDb2dVertex
 10
2819.16
 20
3680.83
 30
0.0
  0
VERTEX
  5
3F3
330
3CA
100
AcDbEntity
  8
1
  6
Continuous
 62
     2
100
AcDbVertex
100
AcDb2dVertex
 10
2818.74
 20
3682.869999999999
 30
0.0
  0
VERTEX
  5
3F4
330
3CA
100
AcDbEntity
  8
1
  6
Continuous
 62
     2
100
AcDbVertex
100
AcDb2dVertex
 10
2818.12
 20
3684.84
 30
0.0
  0
VERTEX
  5
3F5
330
3CA
100
AcDbEntity
  8
1
  6
Continuous
 62
     2
100
AcDbVertex
100
AcDb2dVertex
 10
2817.3
 20
3686.7
 30
0.0
  0
VERTEX
  5
3F6
330
3CA
100
AcDbEntity
  8
1
  6
Continuous
 62
     2
100
AcDbVertex
100
AcDb2dVertex
 10
2816.28
 20
3688.429999999999
 30
0.0
  0
VERTEX
  5
3F7
330
3CA
100
AcDbEntity
  8
1
  6
Continuous
 62
     2
100
AcDbVertex
100
AcDb2dVertex
 10
2815.1
 20
3689.98
 30
0.0
  0
VERTEX
  5
3F8
330
3CA
100
AcDbEntity
  8
1
  6
Continuous
 62
     2
100
AcDbVertex
100
AcDb2dVertex
 10
2813.769999999999
 20
3691.349999999999
 30
0.0
  0
VERTEX
  5
3F9
330
3CA
100
AcDbEntity
  8
1
  6
Continuous
 62
     2
100
AcDbVertex
100
AcDb2dVertex
 10
2812.3
 20
3692.51
 30
0.0
  0
VERTEX
  5
3FA
330
3CA
100
AcDbEntity
  8
1
  6
Continuous
 62
     2
100
AcDbVertex
100
AcDb2dVertex
 10
2810.719999999999
 20
3693.44
 30
0.0
  0
VERTEX
  5
3FB
330
3CA
100
AcDbEntity
  8
1
  6
Continuous
 62
     2
100
AcDbVertex
100
AcDb2dVertex
 10
2809.06
 20
3694.12
 30
0.0
  0
VERTEX
  5
3FC
330
3CA
100
AcDbEntity
  8
1
  6
Continuous
 62
     2
100
AcDbVertex
100
AcDb2dVertex
 10
2807.34
 20
3694.55
 30
0.0
  0
VERTEX
  5
3FD
330
3CA
100
AcDbEntity
  8
1
  6
Continuous
 62
     2
100
AcDbVertex
100
AcDb2dVertex
 10
2805.35
 20
3694.699999999999
 30
0.0
  0
SEQEND
  5
3FE
330
3CA
100
AcDbEntity
  8
1
 62
     2
  0
POLYLINE
  5
3FF
330
19
100
AcDbEntity
  8
1
  6
Continuous
 62
     2
100
AcDb2dPolyline
 66
     1
 10
0.0
 20
0.0
 30
0.0
 70
     2
  0
VERTEX
  5
400
330
3FF
100
AcDbEntity
  8
1
  6
Continuous
 62
     2
100
AcDbVertex
100
AcDb2dVertex
 10
2805.35
 20
3704.5
 30
0.0
  0
VERTEX
  5
401
330
3FF
100
AcDbEntity
  8
1
  6
Continuous
 62
     2
100
AcDbVertex
100
AcDb2dVertex
 10
2802.2
 20
3704.29
 30
0.0
  0
VERTEX
  5
402
330
3FF
100
AcDbEntity
  8
1
  6
Continuous
 62
     2
100
AcDbVertex
100
AcDb2dVertex
 10
2799.1
 20
3703.67
 30
0.0
  0
VERTEX
  5
403
330
3FF
100
AcDbEntity
  8
1
  6
Continuous
 62
     2
100
AcDbVertex
100
AcDb2dVertex
 10
2796.1
 20
3702.64
 30
0.0
  0
VERTEX
  5
404
330
3FF
100
AcDbEntity
  8
1
  6
Continuous
 62
     2
100
AcDbVertex
100
AcDb2dVertex
 10
2793.239999999999
 20
3701.22
 30
0.0
  0
VERTEX
  5
405
330
3FF
100
AcDbEntity
  8
1
  6
Continuous
 62
     2
100
AcDbVertex
100
AcDb2dVertex
 10
2790.57
 20
3699.44
 30
0.0
  0
VERTEX
  5
406
330
3FF
100
AcDbEntity
  8
1
  6
Continuous
 62
     2
100
AcDbVertex
100
AcDb2dVertex
 10
2788.14
 20
3697.33
 30
0.0
  0
VERTEX
  5
407
330
3FF
100
AcDbEntity
  8
1
  6
Continuous
 62
     2
100
AcDbVertex
100
AcDb2dVertex
 10
2785.97
 20
3694.9
 30
0.0
  0
VERTEX
  5
408
330
3FF
100
AcDbEntity
  8
1
  6
Continuous
 62
     2
100
AcDbVertex
100
AcDb2dVertex
 10
2784.11
 20
3692.21
 30
0.0
  0
VERTEX
  5
409
330
3FF
100
AcDbEntity
  8
1
  6
Continuous
 62
     2
100
AcDbVertex
100
AcDb2dVertex
 10
2782.58
 20
3689.3
 30
0.0
  0
VERTEX
  5
40A
330
3FF
100
AcDbEntity
  8
1
  6
Continuous
 62
     2
100
AcDbVertex
100
AcDb2dVertex
 10
2781.41
 20
3686.2
 30
0.0
  0
VERTEX
  5
40B
330
3FF
100
AcDbEntity
  8
1
  6
Continuous
 62
     2
100
AcDbVertex
100
AcDb2dVertex
 10
2780.61
 20
3682.98
 30
0.0
  0
VERTEX
  5
40C
330
3FF
100
AcDbEntity
  8
1
  6
Continuous
 62
     2
100
AcDbVertex
100
AcDb2dVertex
 10
2780.2
 20
3679.67
 30
0.0
  0
VERTEX
  5
40D
330
3FF
100
AcDbEntity
  8
1
  6
Continuous
 62
     2
100
AcDbVertex
100
AcDb2dVertex
 10
2780.19
 20
3676.34
 30
0.0
  0
VERTEX
  5
40E
330
3FF
100
AcDbEntity
  8
1
  6
Continuous
 62
     2
100
AcDbVertex
100
AcDb2dVertex
 10
2780.57
 20
3673.03
 30
0.0
  0
VERTEX
  5
40F
330
3FF
100
AcDbEntity
  8
1
  6
Continuous
 62
     2
100
AcDbVertex
100
AcDb2dVertex
 10
2781.34
 20
3669.8
 30
0.0
  0
VERTEX
  5
410
330
3FF
100
AcDbEntity
  8
1
  6
Continuous
 62
     2
100
AcDbVertex
100
AcDb2dVertex
 10
2782.48
 20
3666.69
 30
0.0
  0
VERTEX
  5
411
330
3FF
100
AcDbEntity
  8
1
  6
Continuous
 62
     2
100
AcDbVertex
100
AcDb2dVertex
 10
2783.99
 20
3663.76
 30
0.0
  0
VERTEX
  5
412
330
3FF
100
AcDbEntity
  8
1
  6
Continuous
 62
     2
100
AcDbVertex
100
AcDb2dVertex
 10
2785.83
 20
3661.059999999999
 30
0.0
  0
VERTEX
  5
413
330
3FF
100
AcDbEntity
  8
1
  6
Continuous
 62
     2
100
AcDbVertex
100
AcDb2dVertex
 10
2787.97
 20
3658.61
 30
0.0
  0
VERTEX
  5
414
330
3FF
100
AcDbEntity
  8
1
  6
Continuous
 62
     2
100
AcDbVertex
100
AcDb2dVertex
 10
2790.39
 20
3656.47
 30
0.0
  0
VERTEX
  5
415
330
3FF
100
AcDbEntity
  8
1
  6
Continuous
 62
     2
100
AcDbVertex
100
AcDb2dVertex
 10
2793.05
 20
3654.659999999999
 30
0.0
  0
VERTEX
  5
416
330
3FF
100
AcDbEntity
  8
1
  6
Continuous
 62
     2
100
AcDbVertex
100
AcDb2dVertex
 10
2795.9
 20
3653.219999999999
 30
0.0
  0
VERTEX
  5
417
330
3FF
100
AcDbEntity
  8
1
  6
Continuous
 62
     2
100
AcDbVertex
100
AcDb2dVertex
 10
2798.89
 20
3652.17
 30
0.0
  0
VERTEX
  5
418
330
3FF
100
AcDbEntity
  8
1
  6
Continuous
 62
     2
100
AcDbVertex
100
AcDb2dVertex
 10
2801.989999999999
 20
3651.51
 30
0.0
  0
VERTEX
  5
419
330
3FF
100
AcDbEntity
  8
1
  6
Continuous
 62
     2
100
AcDbVertex
100
AcDb2dVertex
 10
2805.14
 20
3651.28
 30
0.0
  0
VERTEX
  5
41A
330
3FF
100
AcDbEntity
  8
1
  6
Continuous
 62
     2
100
AcDbVertex
100
AcDb2dVertex
 10
2808.289999999999
 20
3651.46
 30
0.0
  0
VERTEX
  5
41B
330
3FF
100
AcDbEntity
  8
1
  6
Continuous
 62
     2
100
AcDbVertex
100
AcDb2dVertex
 10
2811.4
 20
3652.05
 30
0.0
  0
VERTEX
  5
41C
330
3FF
100
AcDbEntity
  8
1
  6
Continuous
 62
     2
100
AcDbVertex
100
AcDb2dVertex
 10
2814.41
 20
3653.05
 30
0.0
  0
VERTEX
  5
41D
330
3FF
100
AcDbEntity
  8
1
  6
Continuous
 62
     2
100
AcDbVertex
100
AcDb2dVertex
 10
2817.289999999999
 20
3654.44
 30
0.0
  0
VERTEX
  5
41E
330
3FF
100
AcDbEntity
  8
1
  6
Continuous
 62
     2
100
AcDbVertex
100
AcDb2dVertex
 10
2819.969999999999
 20
3656.2
 30
0.0
  0
VERTEX
  5
41F
330
3FF
100
AcDbEntity
  8
1
  6
Continuous
 62
     2
100
AcDbVertex
100
AcDb2dVertex
 10
2822.43
 20
3658.3
 30
0.0
  0
VERTEX
  5
420
330
3FF
100
AcDbEntity
  8
1
  6
Continuous
 62
     2
100
AcDbVertex
100
AcDb2dVertex
 10
2824.61
 20
3660.7
 30
0.0
  0
VERTEX
  5
421
330
3FF
100
AcDbEntity
  8
1
  6
Continuous
 62
     2
100
AcDbVertex
100
AcDb2dVertex
 10
2826.5
 20
3663.38
 30
0.0
  0
VERTEX
  5
422
330
3FF
100
AcDbEntity
  8
1
  6
Continuous
 62
     2
100
AcDbVertex
100
AcDb2dVertex
 10
2828.05
 20
3666.28
 30
0.0
  0
VERTEX
  5
423
330
3FF
100
AcDbEntity
  8
1
  6
Continuous
 62
     2
100
AcDbVertex
100
AcDb2dVertex
 10
2829.25
 20
3669.37
 30
0.0
  0
VERTEX
  5
424
330
3FF
100
AcDbEntity
  8
1
  6
Continuous
 62
     2
100
AcDbVertex
100
AcDb2dVertex
 10
2830.07
 20
3672.59
 30
0.0
  0
VERTEX
  5
425
330
3FF
100
AcDbEntity
  8
1
  6
Continuous
 62
     2
100
AcDbVertex
100
AcDb2dVertex
 10
2830.51
 20
3675.889999999999
 30
0.0
  0
VERTEX
  5
426
330
3FF
100
AcDbEntity
  8
1
  6
Continuous
 62
     2
100
AcDbVertex
100
AcDb2dVertex
 10
2830.55
 20
3679.22
 30
0.0
  0
VERTEX
  5
427
330
3FF
100
AcDbEntity
  8
1
  6
Continuous
 62
     2
100
AcDbVertex
100
AcDb2dVertex
 10
2830.199999999999
 20
3682.54
 30
0.0
  0
VERTEX
  5
428
330
3FF
100
AcDbEntity
  8
1
  6
Continuous
 62
     2
100
AcDbVertex
100
AcDb2dVertex
 10
2829.449999999999
 20
3685.78
 30
0.0
  0
VERTEX
  5
429
330
3FF
100
AcDbEntity
  8
1
  6
Continuous
 62
     2
100
AcDbVertex
100
AcDb2dVertex
 10
2828.33
 20
3688.9
 30
0.0
  0
VERTEX
  5
42A
330
3FF
100
AcDbEntity
  8
1
  6
Continuous
 62
     2
100
AcDbVertex
100
AcDb2dVertex
 10
2826.85
 20
3691.84
 30
0.0
  0
VERTEX
  5
42B
330
3FF
100
AcDbEntity
  8
1
  6
Continuous
 62
     2
100
AcDbVertex
100
AcDb2dVertex
 10
2825.03
 20
3694.57
 30
0.0
  0
VERTEX
  5
42C
330
3FF
100
AcDbEntity
  8
1
  6
Continuous
 62
     2
100
AcDbVertex
100
AcDb2dVertex
 10
2822.9
 20
3697.039999999999
 30
0.0
  0
VERTEX
  5
42D
330
3FF
100
AcDbEntity
  8
1
  6
Continuous
 62
     2
100
AcDbVertex
100
AcDb2dVertex
 10
2820.5
 20
3699.199999999999
 30
0.0
  0
VERTEX
  5
42E
330
3FF
100
AcDbEntity
  8
1
  6
Continuous
 62
     2
100
AcDbVertex
100
AcDb2dVertex
 10
2817.849999999999
 20
3701.03
 30
0.0
  0
VERTEX
  5
42F
330
3FF
100
AcDbEntity
  8
1
  6
Continuous
 62
     2
100
AcDbVertex
100
AcDb2dVertex
 10
2815.02
 20
3702.5
 30
0.0
  0
VERTEX
  5
430
330
3FF
100
AcDbEntity
  8
1
  6
Continuous
 62
     2
100
AcDbVertex
100
AcDb2dVertex
 10
2812.03
 20
3703.59
 30
0.0
  0
VERTEX
  5
431
330
3FF
100
AcDbEntity
  8
1
  6
Continuous
 62
     2
100
AcDbVertex
100
AcDb2dVertex
 10
2808.93
 20
3704.27
 30
0.0
  0
VERTEX
  5
432
330
3FF
100
AcDbEntity
  8
1
  6
Continuous
 62
     2
100
AcDbVertex
100
AcDb2dVertex
 10
2805.35
 20
3704.5
 30
0.0
  0
SEQEND
  5
433
330
3FF
100
AcDbEntity
  8
1
 62
     2
  0
LWPOLYLINE
  5
434
330
19
100
AcDbEntity
  8
1
  6
Continuous
 62
     2
100
AcDbPolyline
 90
       13
 70
     0
 43
0.0
 10
2729.05
 20
3704.5
 10
2742.35
 20
3704.5
 10
2742.35
 20
3684.2
 10
2760.55
 20
3703.1
 10
2778.05
 20
3703.1
 10
2757.05
 20
3682.1
 10
2780.85
 20
3651.3
 10
2762.65
 20
3651.3
 10
2748.65
 20
3672.3
 10
2742.35
 20
3666.7
 10
2742.35
 20
3651.3
 10
2729.05
 20
3651.3
 10
2729.05
 20
3704.5
  0
ARC
  5
443
330
19
100
AcDbEntity
  8
1
  6
Continuous
 62
     2
100
AcDbCircle
 10
2636.65
 20
3675.8
 30
0.0
 40
24.5
100
AcDbArc
 50
270.0
 51
0.0
  0
ARC
  5
444
330
19
100
AcDbEntity
  8
1
  6
Continuous
 62
     2
100
AcDbCircle
 10
2636.65
 20
3680.0
 30
0.0
 40
24.5
100
AcDbArc
 50
0.0
 51
90.0
  0
LINE
  5
445
330
19
100
AcDbEntity
  8
1
  6
Continuous
 62
     2
100
AcDbLine
 10
2636.65
 20
3691.2
 30
0.0
 11
2628.95
 21
3691.2
 31
0.0
  0
ARC
  5
446
330
19
100
AcDbEntity
  8
1
  6
Continuous
 62
     2
100
AcDbCircle
 10
2636.65
 20
3680.0
 30
0.0
 40
11.19999999999999
100
AcDbArc
 50
0.0
 51
90.0
  0
TEXT
  5
454
330
19
100
AcDbEntity
  8
1
 62
     1
100
AcDbText
 10
4188.52
 20
349.19
 30
0.0
 40
70.0
  1
低位用全体組立図（改）
 41
0.85714
100
AcDbText
  0
TEXT
  5
455
330
19
100
AcDbEntity
  8
1
 62
     3
100
AcDbText
 10
4441.329999999999
 20
13.8467
 30
0.0
 40
40.0
  1
１／１０
 41
0.7
100
AcDbText
  0
LINE
  5
4EA
330
19
100
AcDbEntity
  8
1
  6
Continuous
 62
     1
100
AcDbLine
 10
4413.149999999999
 20
652.321
 30
0.0
 11
5116.74
 21
652.321
 31
0.0
  0
LINE
  5
4EB
330
19
100
AcDbEntity
  8
1
  6
Continuous
 62
     1
100
AcDbLine
 10
2282.659999999999
 20
3052.32
 30
0.0
 11
2082.66
 21
3252.32
 31
0.0
  0
LINE
  5
4EC
330
19
100
AcDbEntity
  8
1
  6
Continuous
 62
     1
100
AcDbLine
 10
382.665
 20
652.321
 30
0.0
 11
382.665
 21
3252.32
 31
0.0
  0
LINE
  5
4ED
330
19
100
AcDbEntity
  8
1
  6
Continuous
 62
     1
100
AcDbLine
 10
382.665
 20
3252.32
 30
0.0
 11
2082.66
 21
3252.32
 31
0.0
  0
LINE
  5
4EE
330
19
100
AcDbEntity
  8
1
  6
Continuous
 62
     1
100
AcDbLine
 10
382.665
 20
652.321
 30
0.0
 11
3982.66
 21
652.321
 31
0.0
  0
LINE
  5
4EF
330
19
100
AcDbEntity
  8
1
  6
Continuous
 62
     1
100
AcDbLine
 10
2282.659999999999
 20
3052.32
 30
0.0
 11
3982.66
 21
3052.32
 31
0.0
  0
LINE
  5
4F0
330
19
100
AcDbEntity
  8
1
  6
Continuous
 62
     1
100
AcDbLine
 10
4413.149999999999
 20
3252.32
 30
0.0
 11
5116.74
 21
3252.32
 31
0.0
  0
LINE
  5
4F1
330
19
100
AcDbEntity
  8
1
  6
DIVIDE
 62
     3
100
AcDbLine
 10
3982.66
 20
652.321
 30
0.0
 11
3982.66
 21
3052.32
 31
0.0
  0
POINT
  5
5D1
330
19
100
AcDbEntity
  8
1
 62
     3
100
AcDbPoint
 10
682.6649999999999
 20
652.321
 30
0.0
  0
POINT
  5
5D2
330
19
100
AcDbEntity
  8
1
 62
     3
100
AcDbPoint
 10
4850.54
 20
652.321
 30
0.0
  0
LINE
  5
5D3
330
19
100
AcDbEntity
  8
1
  6
DASHDOT
 62
     3
100
AcDbLine
 10
4900.54
 20
638.178
 30
0.0
 11
4900.54
 21
678.463
 31
0.0
  0
LINE
  5
5D4
330
19
100
AcDbEntity
  8
1
  6
DASHDOT
 62
     3
100
AcDbLine
 10
4800.54
 20
638.178
 30
0.0
 11
4800.54
 21
678.463
 31
0.0
  0
LINE
  5
5D5
330
19
100
AcDbEntity
  8
1
  6
Continuous
 62
     2
100
AcDbLine
 10
4730.24
 20
660.621
 30
0.0
 11
4780.84
 21
660.621
 31
0.0
  0
ARC
  5
5D6
330
19
100
AcDbEntity
  8
1
  6
Continuous
 62
     2
100
AcDbCircle
 10
4730.24
 20
662.321
 30
0.0
 40
1.7
100
AcDbArc
 50
180.0
 51
270.0
  0
LINE
  5
5D7
330
19
100
AcDbEntity
  8
1
  6
Continuous
 62
     2
100
AcDbLine
 10
4780.84
 20
658.321
 30
0.0
 11
4730.24
 21
658.321
 31
0.0
  0
LWPOLYLINE
  5
5D8
330
19
100
AcDbEntity
  8
1
  6
Continuous
 62
     2
100
AcDbPolyline
 90
        4
 70
     0
 43
0.0
 10
4726.239999999999
 20
662.321
 10
4726.239999999999
 20
693.321
 10
4728.54
 20
693.321
 10
4728.54
 20
662.321
  0
ARC
  5
5DE
330
19
100
AcDbEntity
  8
1
  6
Continuous
 62
     2
100
AcDbCircle
 10
4730.24
 20
662.321
 30
0.0
 40
4.0
100
AcDbArc
 50
180.0
 51
270.0
  0
ARC
  5
5DF
330
19
100
AcDbEntity
  8
1
  6
Continuous
 62
     2
100
AcDbCircle
 10
4780.84
 20
662.321
 30
0.0
 40
1.7
100
AcDbArc
 50
270.0
 51
0.0
  0
LWPOLYLINE
  5
5E0
330
19
100
AcDbEntity
  8
1
  6
Continuous
 62
     2
100
AcDbPolyline
 90
        4
 70
     0
 43
0.0
 10
4782.54
 20
662.321
 10
4782.54
 20
693.321
 10
4784.84
 20
693.321
 10
4784.84
 20
662.321
  0
ARC
  5
5E6
330
19
100
AcDbEntity
  8
1
  6
Continuous
 62
     2
100
AcDbCircle
 10
4780.84
 20
662.321
 30
0.0
 40
4.0
100
AcDbArc
 50
270.0
 51
0.0
  0
LWPOLYLINE
  5
5E7
330
19
100
AcDbEntity
  8
1
  6
Continuous
 62
     1
100
AcDbPolyline
 90
        4
 70
     0
 43
0.0
 10
4788.04
 20
658.321
 10
4723.04
 20
658.321
 10
4723.04
 20
652.321
 10
4788.04
 20
652.321
  0
LWPOLYLINE
  5
5ED
330
19
100
AcDbEntity
  8
1
  6
Continuous
 62
     1
100
AcDbPolyline
 90
        5
 70
     0
 43
0.0
 10
4913.04
 20
658.321
 10
4788.04
 20
658.321
 10
4788.04
 20
652.321
 10
4913.04
 20
652.321
 10
4913.04
 20
658.321
  0
LWPOLYLINE
  5
5F4
330
19
100
AcDbEntity
  8
1
  6
Continuous
 62
     2
100
AcDbPolyline
 90
        5
 70
     0
 43
0.0
 10
670.1649999999999
 20
658.321
 10
695.1649999999999
 20
658.321
 10
695.1649999999999
 20
693.321
 10
670.1649999999999
 20
693.321
 10
670.1649999999999
 20
658.321
  0
CIRCLE
  5
5FB
330
19
100
AcDbEntity
  8
1
  6
Continuous
 62
     2
100
AcDbCircle
 10
682.6649999999999
 20
683.321
 30
0.0
 40
4.5
  0
LINE
  5
5FC
330
19
100
AcDbEntity
  8
1
  6
DASHDOT
 62
     3
100
AcDbLine
 10
682.6649999999999
 20
697.675
 30
0.0
 11
682.6649999999999
 21
656.047
 31
0.0
  0
LINE
  5
5FD
330
19
100
AcDbEntity
  8
1
  6
DASHDOT
 62
     3
100
AcDbLine
 10
612.6649999999999
 20
677.0269999999999
 30
0.0
 11
612.6649999999999
 21
616.901
 31
0.0
  0
LINE
  5
5FE
330
19
100
AcDbEntity
  8
1
  6
DASHDOT
 62
     3
100
AcDbLine
 10
832.6649999999998
 20
677.0269999999999
 30
0.0
 11
832.6649999999998
 21
616.901
 31
0.0
  0
LWPOLYLINE
  5
5FF
330
19
100
AcDbEntity
  8
1
  6
Continuous
 62
     2
100
AcDbPolyline
 90
        5
 70
     0
 43
0.0
 10
660.665
 20
652.321
 10
704.6649999999999
 20
652.321
 10
704.6649999999999
 20
658.321
 10
660.665
 20
658.321
 10
660.665
 20
652.321
  0
LWPOLYLINE
  5
606
330
19
100
AcDbEntity
  8
1
  6
Continuous
 62
     1
100
AcDbPolyline
 90
        5
 70
     0
 43
0.0
 10
597.6649999999999
 20
658.321
 10
597.6649999999999
 20
652.321
 10
847.6649999999999
 20
652.321
 10
847.6649999999999
 20
658.321
 10
597.6649999999999
 20
658.321
  0
LINE
  5
60D
330
19
100
AcDbEntity
  8
1
  6
Continuous
 62
     2
100
AcDbLine
 10
601.0740000000001
 20
717.32
 30
0.0
 11
1940.97
 21
700.9489999999999
 31
0.0
  0
LINE
  5
60E
330
19
100
AcDbEntity
  8
1
  6
Continuous
 62
     2
100
AcDbLine
 10
1049.849999999999
 20
806.0959999999999
 30
0.0
 11
436.84
 21
917.3969999999998
 31
0.0
  0
LINE
  5
60F
330
19
100
AcDbEntity
  8
1
  6
Continuous
 62
     2
100
AcDbLine
 10
1051.279999999999
 20
813.967
 30
0.0
 11
438.269
 21
925.2689999999999
 31
0.0
  0
LINE
  5
610
330
19
100
AcDbEntity
  8
1
  6
Continuous
 62
     2
100
AcDbLine
 10
627.098
 20
882.853
 30
0.0
 11
625.0969999999999
 21
719.0269999999999
 31
0.0
  0
CIRCLE
  5
611
330
19
100
AcDbEntity
  8
1
  6
Continuous
 62
     2
100
AcDbCircle
 10
682.6649999999999
 20
683.321
 30
0.0
 40
4.5
  0
ARC
  5
612
330
19
100
AcDbEntity
  8
1
  6
Continuous
 62
     2
100
AcDbCircle
 10
437.5539999999999
 20
921.333
 30
0.0
 40
4.0
100
AcDbArc
 50
79.70919999999999
 51
259.709
  0
LINE
  5
613
330
19
100
AcDbEntity
  8
1
  6
Continuous
 62
     2
100
AcDbLine
 10
1940.97
 20
701.3489999999999
 30
0.0
 11
1940.99
 21
702.949
 31
0.0
  0
CIRCLE
  5
614
330
19
100
AcDbEntity
  8
1
  6
Continuous
 62
     2
100
AcDbCircle
 10
971.1199999999999
 20
718.799
 30
0.0
 40
4.0
  0
LINE
  5
615
330
19
100
AcDbEntity
  8
1
  6
Continuous
 62
     2
100
AcDbLine
 10
1980.5
 20
662.463
 30
0.0
 11
1940.99
 21
702.949
 31
0.0
  0
ARC
  5
616
330
19
100
AcDbEntity
  8
1
  6
Continuous
 62
     2
100
AcDbCircle
 10
1042.71
 20
766.7389999999999
 30
0.0
 40
40.0
100
AcDbArc
 50
359.3
 51
79.70919999999999
  0
ARC
  5
617
330
19
100
AcDbEntity
  8
1
  6
Continuous
 62
     2
100
AcDbCircle
 10
1042.71
 20
766.7389999999999
 30
0.0
 40
48.0
100
AcDbArc
 50
359.3
 51
79.70919999999999
  0
LINE
  5
618
330
19
100
AcDbEntity
  8
1
  6
Continuous
 62
     2
100
AcDbLine
 10
1082.699999999999
 20
766.2510000000001
 30
0.0
 11
1082.06
 21
713.4439999999999
 31
0.0
  0
LINE
  5
619
330
19
100
AcDbEntity
  8
1
  6
Continuous
 62
     2
100
AcDbLine
 10
1090.7
 20
766.1529999999999
 30
0.0
 11
1090.06
 21
713.346
 31
0.0
  0
POLYLINE
  5
61A
330
19
100
AcDbEntity
  8
1
  6
Continuous
 62
     2
100
AcDb2dPolyline
 66
     1
 10
0.0
 20
0.0
 30
0.0
 70
     2
  0
VERTEX
  5
61B
330
61A
100
AcDbEntity
  8
1
  6
Continuous
 62
     2
100
AcDbVertex
100
AcDb2dVertex
 10
4786.51
 20
919.1189999999998
 30
0.0
  0
VERTEX
  5
61C
330
61A
100
AcDbEntity
  8
1
  6
Continuous
 62
     2
100
AcDbVertex
100
AcDb2dVertex
 10
4786.1
 20
920.1859999999999
 30
0.0
  0
VERTEX
  5
61D
330
61A
100
AcDbEntity
  8
1
  6
Continuous
 62
     2
100
AcDbVertex
100
AcDb2dVertex
 10
4785.22
 20
921.23
 30
0.0
  0
VERTEX
  5
61E
330
61A
100
AcDbEntity
  8
1
  6
Continuous
 62
     2
100
AcDbVertex
100
AcDb2dVertex
 10
4783.87
 20
922.235
 30
0.0
  0
VERTEX
  5
61F
330
61A
100
AcDbEntity
  8
1
  6
Continuous
 62
     2
100
AcDbVertex
100
AcDb2dVertex
 10
4782.07
 20
923.1860000000001
 30
0.0
  0
VERTEX
  5
620
330
61A
100
AcDbEntity
  8
1
  6
Continuous
 62
     2
100
AcDbVertex
100
AcDb2dVertex
 10
4779.86
 20
924.0679999999999
 30
0.0
  0
VERTEX
  5
621
330
61A
100
AcDbEntity
  8
1
  6
Continuous
 62
     2
100
AcDbVertex
100
AcDb2dVertex
 10
4777.27
 20
924.866
 30
0.0
  0
VERTEX
  5
622
330
61A
100
AcDbEntity
  8
1
  6
Continuous
 62
     2
100
AcDbVertex
100
AcDb2dVertex
 10
4774.329999999999
 20
925.5689999999999
 30
0.0
  0
VERTEX
  5
623
330
61A
100
AcDbEntity
  8
1
  6
Continuous
 62
     2
100
AcDbVertex
100
AcDb2dVertex
 10
4771.109999999999
 20
926.1649999999999
 30
0.0
  0
VERTEX
  5
624
330
61A
100
AcDbEntity
  8
1
  6
Continuous
 62
     2
100
AcDbVertex
100
AcDb2dVertex
 10
4767.63
 20
926.645
 30
0.0
  0
VERTEX
  5
625
330
61A
100
AcDbEntity
  8
1
  6
Continuous
 62
     2
100
AcDbVertex
100
AcDb2dVertex
 10
4763.97
 20
927.001
 30
0.0
  0
VERTEX
  5
626
330
61A
100
AcDbEntity
  8
1
  6
Continuous
 62
     2
100
AcDbVertex
100
AcDb2dVertex
 10
4760.17
 20
927.227
 30
0.0
  0
VERTEX
  5
627
330
61A
100
AcDbEntity
  8
1
  6
Continuous
 62
     2
100
AcDbVertex
100
AcDb2dVertex
 10
4756.3
 20
927.321
 30
0.0
  0
VERTEX
  5
628
330
61A
100
AcDbEntity
  8
1
  6
Continuous
 62
     2
100
AcDbVertex
100
AcDb2dVertex
 10
4752.419999999999
 20
927.2810000000001
 30
0.0
  0
VERTEX
  5
629
330
61A
100
AcDbEntity
  8
1
  6
Continuous
 62
     2
100
AcDbVertex
100
AcDb2dVertex
 10
4748.59
 20
927.1069999999999
 30
0.0
  0
VERTEX
  5
62A
330
61A
100
AcDbEntity
  8
1
  6
Continuous
 62
     2
100
AcDbVertex
100
AcDb2dVertex
 10
4744.87
 20
926.8019999999999
 30
0.0
  0
VERTEX
  5
62B
330
61A
100
AcDbEntity
  8
1
  6
Continuous
 62
     2
100
AcDbVertex
100
AcDb2dVertex
 10
4741.310000000001
 20
926.3710000000001
 30
0.0
  0
VERTEX
  5
62C
330
61A
100
AcDbEntity
  8
1
  6
Continuous
 62
     2
100
AcDbVertex
100
AcDb2dVertex
 10
4737.979999999999
 20
925.82
 30
0.0
  0
VERTEX
  5
62D
330
61A
100
AcDbEntity
  8
1
  6
Continuous
 62
     2
100
AcDbVertex
100
AcDb2dVertex
 10
4734.92
 20
925.158
 30
0.0
  0
VERTEX
  5
62E
330
61A
100
AcDbEntity
  8
1
  6
Continuous
 62
     2
100
AcDbVertex
100
AcDb2dVertex
 10
4732.18
 20
924.3969999999999
 30
0.0
  0
VERTEX
  5
62F
330
61A
100
AcDbEntity
  8
1
  6
Continuous
 62
     2
100
AcDbVertex
100
AcDb2dVertex
 10
4729.81
 20
923.5460000000001
 30
0.0
  0
VERTEX
  5
630
330
61A
100
AcDbEntity
  8
1
  6
Continuous
 62
     2
100
AcDbVertex
100
AcDb2dVertex
 10
4727.85
 20
922.6210000000001
 30
0.0
  0
VERTEX
  5
631
330
61A
100
AcDbEntity
  8
1
  6
Continuous
 62
     2
100
AcDbVertex
100
AcDb2dVertex
 10
4726.31
 20
921.635
 30
0.0
  0
VERTEX
  5
632
330
61A
100
AcDbEntity
  8
1
  6
Continuous
 62
     2
100
AcDbVertex
100
AcDb2dVertex
 10
4725.24
 20
920.603
 30
0.0
  0
VERTEX
  5
633
330
61A
100
AcDbEntity
  8
1
  6
Continuous
 62
     2
100
AcDbVertex
100
AcDb2dVertex
 10
4724.639999999999
 20
919.5429999999999
 30
0.0
  0
VERTEX
  5
634
330
61A
100
AcDbEntity
  8
1
  6
Continuous
 62
     2
100
AcDbVertex
100
AcDb2dVertex
 10
4724.56
 20
919.1189999999998
 30
0.0
  0
SEQEND
  5
635
330
61A
100
AcDbEntity
  8
1
 62
     2
  0
POLYLINE
  5
636
330
19
100
AcDbEntity
  8
1
  6
Continuous
 62
     2
100
AcDb2dPolyline
 66
     1
 10
0.0
 20
0.0
 30
0.0
 70
     2
  0
VERTEX
  5
637
330
636
100
AcDbEntity
  8
1
  6
Continuous
 62
     2
100
AcDbVertex
100
AcDb2dVertex
 10
4778.54
 20
914.708
 30
0.0
  0
VERTEX
  5
638
330
636
100
AcDbEntity
  8
1
  6
Continuous
 62
     2
100
AcDbVertex
100
AcDb2dVertex
 10
4778.35
 20
915.2849999999999
 30
0.0
  0
VERTEX
  5
639
330
636
100
AcDbEntity
  8
1
  6
Continuous
 62
     2
100
AcDbVertex
100
AcDb2dVertex
 10
4777.81
 20
915.853
 30
0.0
  0
VERTEX
  5
63A
330
636
100
AcDbEntity
  8
1
  6
Continuous
 62
     2
100
AcDbVertex
100
AcDb2dVertex
 10
4776.92
 20
916.403
 30
0.0
  0
VERTEX
  5
63B
330
636
100
AcDbEntity
  8
1
  6
Continuous
 62
     2
100
AcDbVertex
100
AcDb2dVertex
 10
4775.689999999999
 20
916.927
 30
0.0
  0
VERTEX
  5
63C
330
636
100
AcDbEntity
  8
1
  6
Continuous
 62
     2
100
AcDbVertex
100
AcDb2dVertex
 10
4774.149999999999
 20
917.416
 30
0.0
  0
VERTEX
  5
63D
330
636
100
AcDbEntity
  8
1
  6
Continuous
 62
     2
100
AcDbVertex
100
AcDb2dVertex
 10
4772.319999999999
 20
917.862
 30
0.0
  0
VERTEX
  5
63E
330
636
100
AcDbEntity
  8
1
  6
Continuous
 62
     2
100
AcDbVertex
100
AcDb2dVertex
 10
4770.220000000001
 20
918.2579999999999
 30
0.0
  0
VERTEX
  5
63F
330
636
100
AcDbEntity
  8
1
  6
Continuous
 62
     2
100
AcDbVertex
100
AcDb2dVertex
 10
4767.89
 20
918.599
 30
0.0
  0
VERTEX
  5
640
330
636
100
AcDbEntity
  8
1
  6
Continuous
 62
     2
100
AcDbVertex
100
AcDb2dVertex
 10
4765.369999999999
 20
918.8789999999999
 30
0.0
  0
VERTEX
  5
641
330
636
100
AcDbEntity
  8
1
  6
Continuous
 62
     2
100
AcDbVertex
100
AcDb2dVertex
 10
4762.69
 20
919.0930000000001
 30
0.0
  0
VERTEX
  5
642
330
636
100
AcDbEntity
  8
1
  6
Continuous
 62
     2
100
AcDbVertex
100
AcDb2dVertex
 10
4759.9
 20
919.2379999999999
 30
0.0
  0
VERTEX
  5
643
330
636
100
AcDbEntity
  8
1
  6
Continuous
 62
     2
100
AcDbVertex
100
AcDb2dVertex
 10
4757.039999999999
 20
919.312
 30
0.0
  0
VERTEX
  5
644
330
636
100
AcDbEntity
  8
1
  6
Continuous
 62
     2
100
AcDbVertex
100
AcDb2dVertex
 10
4754.16
 20
919.3139999999999
 30
0.0
  0
VERTEX
  5
645
330
636
100
AcDbEntity
  8
1
  6
Continuous
 62
     2
100
AcDbVertex
100
AcDb2dVertex
 10
4751.3
 20
919.2439999999999
 30
0.0
  0
VERTEX
  5
646
330
636
100
AcDbEntity
  8
1
  6
Continuous
 62
     2
100
AcDbVertex
100
AcDb2dVertex
 10
4748.51
 20
919.1019999999999
 30
0.0
  0
VERTEX
  5
647
330
636
100
AcDbEntity
  8
1
  6
Continuous
 62
     2
100
AcDbVertex
100
AcDb2dVertex
 10
4745.82
 20
918.8910000000001
 30
0.0
  0
VERTEX
  5
648
330
636
100
AcDbEntity
  8
1
  6
Continuous
 62
     2
100
AcDbVertex
100
AcDb2dVertex
 10
4743.29
 20
918.6149999999999
 30
0.0
  0
VERTEX
  5
649
330
636
100
AcDbEntity
  8
1
  6
Continuous
 62
     2
100
AcDbVertex
100
AcDb2dVertex
 10
4740.95
 20
918.2769999999999
 30
0.0
  0
VERTEX
  5
64A
330
636
100
AcDbEntity
  8
1
  6
Continuous
 62
     2
100
AcDbVertex
100
AcDb2dVertex
 10
4738.84
 20
917.8830000000001
 30
0.0
  0
VERTEX
  5
64B
330
636
100
AcDbEntity
  8
1
  6
Continuous
 62
     2
100
AcDbVertex
100
AcDb2dVertex
 10
4736.99
 20
917.439
 30
0.0
  0
VERTEX
  5
64C
330
636
100
AcDbEntity
  8
1
  6
Continuous
 62
     2
100
AcDbVertex
100
AcDb2dVertex
 10
4735.43
 20
916.952
 30
0.0
  0
VERTEX
  5
64D
330
636
100
AcDbEntity
  8
1
  6
Continuous
 62
     2
100
AcDbVertex
100
AcDb2dVertex
 10
4734.189999999999
 20
916.4299999999999
 30
0.0
  0
VERTEX
  5
64E
330
636
100
AcDbEntity
  8
1
  6
Continuous
 62
     2
100
AcDbVertex
100
AcDb2dVertex
 10
4733.279999999999
 20
915.881
 30
0.0
  0
VERTEX
  5
64F
330
636
100
AcDbEntity
  8
1
  6
Continuous
 62
     2
100
AcDbVertex
100
AcDb2dVertex
 10
4732.72
 20
915.313
 30
0.0
  0
VERTEX
  5
650
330
636
100
AcDbEntity
  8
1
  6
Continuous
 62
     2
100
AcDbVertex
100
AcDb2dVertex
 10
4732.52
 20
914.7350000000001
 30
0.0
  0
VERTEX
  5
651
330
636
100
AcDbEntity
  8
1
  6
Continuous
 62
     2
100
AcDbVertex
100
AcDb2dVertex
 10
4732.54
 20
914.708
 30
0.0
  0
SEQEND
  5
652
330
636
100
AcDbEntity
  8
1
 62
     2
  0
LINE
  5
653
330
19
100
AcDbEntity
  8
1
  6
Continuous
 62
     2
100
AcDbLine
 10
4724.359999999999
 20
887.1599999999999
 30
0.0
 11
4732.359999999999
 21
887.1599999999999
 31
0.0
  0
LINE
  5
654
330
19
100
AcDbEntity
  8
1
  6
Continuous
 62
     2
100
AcDbLine
 10
4778.71
 20
887.1599999999999
 30
0.0
 11
4786.71
 21
887.1599999999999
 31
0.0
  0
LINE
  5
655
330
19
100
AcDbEntity
  8
1
  6
Continuous
 62
     2
100
AcDbLine
 10
4782.44
 20
723.321
 30
0.0
 11
4778.54
 21
914.708
 31
0.0
  0
LINE
  5
656
330
19
100
AcDbEntity
  8
1
  6
Continuous
 62
     2
100
AcDbLine
 10
4790.439999999999
 20
723.321
 30
0.0
 11
4786.51
 21
919.1189999999998
 31
0.0
  0
LINE
  5
657
330
19
100
AcDbEntity
  8
1
  6
Continuous
 62
     2
100
AcDbLine
 10
4728.640000000001
 20
723.321
 30
0.0
 11
4732.54
 21
914.708
 31
0.0
  0
LINE
  5
658
330
19
100
AcDbEntity
  8
1
  6
Continuous
 62
     2
100
AcDbLine
 10
4720.64
 20
723.321
 30
0.0
 11
4724.56
 21
919.1189999999998
 31
0.0
  0
LINE
  5
659
330
19
100
AcDbEntity
  8
1
  6
Continuous
 62
     2
100
AcDbLine
 10
4782.44
 20
723.321
 30
0.0
 11
4790.439999999999
 21
723.321
 31
0.0
  0
LINE
  5
65A
330
19
100
AcDbEntity
  8
1
  6
Continuous
 62
     2
100
AcDbLine
 10
4728.640000000001
 20
723.321
 30
0.0
 11
4720.64
 21
723.321
 31
0.0
  0
LINE
  5
65B
330
19
100
AcDbEntity
  8
1
  6
DASHDOT
 62
     3
100
AcDbLine
 10
4755.539999999999
 20
645.8169999999999
 30
0.0
 11
4755.539999999999
 21
960.346
 31
0.0
  0
ARC
  5
65C
330
19
100
AcDbEntity
  8
1
  6
Continuous
 62
     2
100
AcDbCircle
 10
461.6649999999999
 20
3405.24
 30
0.0
 40
23.0
100
AcDbArc
 50
90.0
 51
270.0
  0
ARC
  5
65D
330
19
100
AcDbEntity
  8
1
  6
Continuous
 62
     2
100
AcDbCircle
 10
461.6649999999999
 20
3405.24
 30
0.0
 40
31.0
100
AcDbArc
 50
90.0
 51
270.0
  0
LINE
  5
65E
330
19
100
AcDbEntity
  8
1
  6
Continuous
 62
     2
100
AcDbLine
 10
1085.66
 20
3428.239999999999
 30
0.0
 11
461.6649999999999
 21
3428.239999999999
 31
0.0
  0
LINE
  5
65F
330
19
100
AcDbEntity
  8
1
  6
Continuous
 62
     2
100
AcDbLine
 10
1085.66
 20
3382.24
 30
0.0
 11
461.6649999999999
 21
3382.24
 31
0.0
  0
LINE
  5
660
330
19
100
AcDbEntity
  8
1
  6
Continuous
 62
     2
100
AcDbLine
 10
461.6649999999999
 20
3374.239999999999
 30
0.0
 11
1085.66
 21
3374.239999999999
 31
0.0
  0
ARC
  5
661
330
19
100
AcDbEntity
  8
1
  6
Continuous
 62
     2
100
AcDbCircle
 10
1085.66
 20
3378.239999999999
 30
0.0
 40
4.0
100
AcDbArc
 50
270.0
 51
90.0
  0
ARC
  5
662
330
19
100
AcDbEntity
  8
1
  6
Continuous
 62
     2
100
AcDbCircle
 10
1085.66
 20
3432.24
 30
0.0
 40
4.0
100
AcDbArc
 50
270.0
 51
90.0
  0
LINE
  5
663
330
19
100
AcDbEntity
  8
1
  6
Continuous
 62
     2
100
AcDbLine
 10
974.665
 20
3382.24
 30
0.0
 11
974.665
 21
3428.239999999999
 31
0.0
  0
LINE
  5
664
330
19
100
AcDbEntity
  8
1
  6
Continuous
 62
     2
100
AcDbLine
 10
966.665
 20
3382.24
 30
0.0
 11
966.665
 21
3428.239999999999
 31
0.0
  0
LINE
  5
665
330
19
100
AcDbEntity
  8
1
  6
Continuous
 62
     2
100
AcDbLine
 10
600.6649999999999
 20
3382.24
 30
0.0
 11
600.6649999999999
 21
3428.239999999999
 31
0.0
  0
LWPOLYLINE
  5
666
330
19
100
AcDbEntity
  8
1
  6
Continuous
 62
     2
100
AcDbPolyline
 90
        4
 70
     0
 43
0.0
 10
1940.66
 20
3431.74
 10
1980.66
 20
3431.74
 10
1980.66
 20
3378.74
 10
1940.66
 20
3378.74
  0
LINE
  5
66C
330
19
100
AcDbEntity
  8
1
  6
DASHDOT
 62
     3
100
AcDbLine
 10
2029.59
 20
3405.24
 30
0.0
 11
378.452
 21
3405.24
 31
0.0
  0
ARC
  5
66D
330
19
100
AcDbEntity
  8
1
  6
Continuous
 62
     2
100
AcDbCircle
 10
463.665
 20
3500.24
 30
0.0
 40
23.0
100
AcDbArc
 50
90.0
 51
270.0
  0
ARC
  5
66E
330
19
100
AcDbEntity
  8
1
  6
Continuous
 62
     2
100
AcDbCircle
 10
463.665
 20
3500.24
 30
0.0
 40
31.0
100
AcDbArc
 50
90.0
 51
270.0
  0
LINE
  5
66F
330
19
100
AcDbEntity
  8
1
  6
Continuous
 62
     2
100
AcDbLine
 10
1087.66
 20
3523.239999999999
 30
0.0
 11
463.665
 21
3523.239999999999
 31
0.0
  0
LINE
  5
670
330
19
100
AcDbEntity
  8
1
  6
Continuous
 62
     2
100
AcDbLine
 10
463.665
 20
3531.239999999999
 30
0.0
 11
1087.66
 21
3531.239999999999
 31
0.0
  0
LINE
  5
671
330
19
100
AcDbEntity
  8
1
  6
Continuous
 62
     2
100
AcDbLine
 10
1087.66
 20
3477.24
 30
0.0
 11
463.665
 21
3477.24
 31
0.0
  0
LINE
  5
672
330
19
100
AcDbEntity
  8
1
  6
Continuous
 62
     2
100
AcDbLine
 10
463.665
 20
3469.24
 30
0.0
 11
1087.66
 21
3469.24
 31
0.0
  0
LINE
  5
673
330
19
100
AcDbEntity
  8
1
  6
Continuous
 62
     2
100
AcDbLine
 10
2098.38
 20
3544.19
 30
0.0
 11
2162.679999999999
 21
3534.88
 31
0.0
  0
LINE
  5
674
330
19
100
AcDbEntity
  8
1
  6
Continuous
 62
     2
100
AcDbLine
 10
2161.239999999999
 20
3524.98
 30
0.0
 11
2096.94
 21
3534.29
 31
0.0
  0
LINE
  5
675
330
19
100
AcDbEntity
  8
1
  6
Continuous
 62
     2
100
AcDbLine
 10
2161.239999999999
 20
3475.5
 30
0.0
 11
2096.94
 21
3466.19
 31
0.0
  0
LINE
  5
676
330
19
100
AcDbEntity
  8
1
  6
Continuous
 62
     2
100
AcDbLine
 10
2162.679999999999
 20
3465.6
 30
0.0
 11
2098.38
 21
3456.29
 31
0.0
  0
ARC
  5
677
330
19
100
AcDbEntity
  8
1
  6
Continuous
 62
     2
100
AcDbCircle
 10
2157.659999999999
 20
3500.24
 30
0.0
 40
25.0
100
AcDbArc
 50
278.2379999999999
 51
81.76150000000001
  0
ARC
  5
678
330
19
100
AcDbEntity
  8
1
  6
Continuous
 62
     2
100
AcDbCircle
 10
2157.659999999999
 20
3500.24
 30
0.0
 40
35.0
100
AcDbArc
 50
278.2379999999999
 51
81.76150000000001
  0
ARC
  5
679
330
19
100
AcDbEntity
  8
1
  6
Continuous
 62
     2
100
AcDbCircle
 10
1087.66
 20
3473.24
 30
0.0
 40
4.0
100
AcDbArc
 50
270.0
 51
90.0
  0
ARC
  5
67A
330
19
100
AcDbEntity
  8
1
  6
Continuous
 62
     2
100
AcDbCircle
 10
1087.66
 20
3527.239999999999
 30
0.0
 40
4.0
100
AcDbArc
 50
270.0
 51
90.0
  0
ARC
  5
67B
330
19
100
AcDbEntity
  8
1
  6
Continuous
 62
     2
100
AcDbCircle
 10
2097.659999999999
 20
3461.24
 30
0.0
 40
5.0
100
AcDbArc
 50
90.0
 51
270.0
  0
ARC
  5
67C
330
19
100
AcDbEntity
  8
1
  6
Continuous
 62
     2
100
AcDbCircle
 10
2097.659999999999
 20
3539.24
 30
0.0
 40
5.0
100
AcDbArc
 50
90.0
 51
270.0
  0
LINE
  5
67D
330
19
100
AcDbEntity
  8
1
  6
DASHDOT
 62
     3
100
AcDbLine
 10
2307.199999999999
 20
3500.24
 30
0.0
 11
358.6149999999999
 21
3500.24
 31
0.0
  0
LINE
  5
67E
330
19
100
AcDbEntity
  8
1
  6
DASHDOT
 62
     3
100
AcDbLine
 10
682.6649999999999
 20
3331.239999999999
 30
0.0
 11
682.6649999999999
 21
3579.66
 31
0.0
  0
ARC
  5
67F
330
19
100
AcDbEntity
  8
1
  6
Continuous
 62
     2
100
AcDbCircle
 10
2142.66
 20
1973.32
 30
0.0
 40
50.0
100
AcDbArc
 50
90.0
 51
180.0
  0
ARC
  5
680
330
19
100
AcDbEntity
  8
1
  6
Continuous
 62
     2
100
AcDbCircle
 10
2142.66
 20
1973.32
 30
0.0
 40
40.0
100
AcDbArc
 50
90.0
 51
180.0
  0
LINE
  5
681
330
19
100
AcDbEntity
  8
1
  6
Continuous
 62
     2
100
AcDbLine
 10
2187.66
 20
2013.319999999999
 30
0.0
 11
2142.66
 21
2013.319999999999
 31
0.0
  0
LINE
  5
682
330
19
100
AcDbEntity
  8
1
  6
Continuous
 62
     2
100
AcDbLine
 10
2142.66
 20
2023.32
 30
0.0
 11
2187.66
 21
2023.32
 31
0.0
  0
LINE
  5
683
330
19
100
AcDbEntity
  8
1
  6
Continuous
 62
     2
100
AcDbLine
 10
2102.659999999999
 20
1973.32
 30
0.0
 11
2102.659999999999
 21
1848.32
 31
0.0
  0
LINE
  5
684
330
19
100
AcDbEntity
  8
1
  6
Continuous
 62
     2
100
AcDbLine
 10
2092.659999999999
 20
1848.32
 30
0.0
 11
2092.659999999999
 21
1973.32
 31
0.0
  0
LINE
  5
685
330
19
100
AcDbEntity
  8
1
  6
Continuous
 62
     4
100
AcDbLine
 10
2232.66
 20
1838.879999999999
 30
0.0
 11
2232.66
 21
1803.0
 31
0.0
  0
LINE
  5
686
330
19
100
AcDbEntity
  8
1
  6
DOT
 62
     4
100
AcDbLine
 10
1977.66
 20
1793.32
 30
0.0
 11
1977.66
 21
1795.619999999999
 31
0.0
  0
LINE
  5
687
330
19
100
AcDbEntity
  8
1
  6
Continuous
 62
     4
100
AcDbLine
 10
1982.66
 20
1802.93
 30
0.0
 11
1982.66
 21
1840.259999999999
 31
0.0
  0
LINE
  5
688
330
19
100
AcDbEntity
  8
1
  6
Continuous
 62
     5
100
AcDbLine
 10
481.665
 20
1832.32
 30
0.0
 11
510.665
 21
1832.32
 31
0.0
  0
ARC
  5
689
330
19
100
AcDbEntity
  8
1
  6
Continuous
 62
     2
100
AcDbCircle
 10
4889.54
 20
2018.32
 30
0.0
 40
5.0
100
AcDbArc
 50
270.0
 51
90.0
  0
ARC
  5
68A
330
19
100
AcDbEntity
  8
1
  6
Continuous
 62
     2
100
AcDbCircle
 10
4811.54
 20
2018.32
 30
0.0
 40
5.0
100
AcDbArc
 50
90.0
 51
270.0
  0
LINE
  5
68B
330
19
100
AcDbEntity
  8
1
  6
Continuous
 62
     2
100
AcDbLine
 10
4811.54
 20
2023.32
 30
0.0
 11
4889.54
 21
2023.32
 31
0.0
  0
LINE
  5
68C
330
19
100
AcDbEntity
  8
1
  6
Continuous
 62
     2
100
AcDbLine
 10
4889.54
 20
2013.319999999999
 30
0.0
 11
4811.54
 21
2013.319999999999
 31
0.0
  0
LINE
  5
68D
330
19
100
AcDbEntity
  8
1
  6
DASHDOT
 62
     3
100
AcDbLine
 10
4850.54
 20
1729.98
 30
0.0
 11
4850.54
 21
2034.1
 31
0.0
  0
LINE
  5
68E
330
19
100
AcDbEntity
  8
1
  6
Continuous
 62
     2
100
AcDbLine
 10
4793.54
 20
1772.319999999999
 30
0.0
 11
4907.54
 21
1772.319999999999
 31
0.0
  0
ARC
  5
68F
330
19
100
AcDbEntity
  8
1
  6
Continuous
 62
     2
100
AcDbCircle
 10
4907.54
 20
1777.32
 30
0.0
 40
5.0
100
AcDbArc
 50
270.0
 51
0.0
  0
LINE
  5
690
330
19
100
AcDbEntity
  8
1
  6
Continuous
 62
     2
100
AcDbLine
 10
4912.539999999999
 20
1798.32
 30
0.0
 11
4912.539999999999
 21
1777.32
 31
0.0
  0
LINE
  5
691
330
19
100
AcDbEntity
  8
1
  6
Continuous
 62
     2
100
AcDbLine
 10
4909.34
 20
1777.22
 30
0.0
 11
4909.34
 21
1798.32
 31
0.0
  0
ARC
  5
692
330
19
100
AcDbEntity
  8
1
  6
Continuous
 62
     2
100
AcDbCircle
 10
4907.64
 20
1777.22
 30
0.0
 40
1.7
100
AcDbArc
 50
270.0
 51
0.0
  0
POINT
  5
693
330
19
100
AcDbEntity
  8
1
 62
     2
100
AcDbPoint
 10
4909.34
 20
1775.52
 30
0.0
  0
LINE
  5
694
330
19
100
AcDbEntity
  8
1
  6
Continuous
 62
     2
100
AcDbLine
 10
4907.64
 20
1775.52
 30
0.0
 11
4793.54
 21
1775.52
 31
0.0
  0
ARC
  5
695
330
19
100
AcDbEntity
  8
1
  6
Continuous
 62
     2
100
AcDbCircle
 10
4793.54
 20
1777.32
 30
0.0
 40
1.8
100
AcDbArc
 50
180.0
 51
270.0
  0
ARC
  5
696
330
19
100
AcDbEntity
  8
1
  6
Continuous
 62
     2
100
AcDbCircle
 10
4793.54
 20
1777.32
 30
0.0
 40
5.0
100
AcDbArc
 50
180.0
 51
270.0
  0
LINE
  5
697
330
19
100
AcDbEntity
  8
1
  6
Continuous
 62
     2
100
AcDbLine
 10
4791.739999999999
 20
1777.32
 30
0.0
 11
4791.739999999999
 21
1798.32
 31
0.0
  0
LINE
  5
698
330
19
100
AcDbEntity
  8
1
  6
Continuous
 62
     2
100
AcDbLine
 10
4788.54
 20
1798.32
 30
0.0
 11
4788.54
 21
1777.32
 31
0.0
  0
LWPOLYLINE
  5
699
330
19
100
AcDbEntity
  8
1
  6
Continuous
 62
     2
100
AcDbPolyline
 90
        5
 70
     0
 43
0.0
 10
4920.539999999999
 20
1848.32
 10
4918.54
 20
1848.32
 10
4918.54
 20
1798.32
 10
4920.539999999999
 20
1798.32
 10
4920.539999999999
 20
1848.32
  0
LINE
  5
6A0
330
19
100
AcDbEntity
  8
1
  6
Continuous
 62
     2
100
AcDbLine
 10
4875.04
 20
1798.32
 30
0.0
 11
4918.54
 21
1798.32
 31
0.0
  0
ARC
  5
6A1
330
19
100
AcDbEntity
  8
1
  6
Continuous
 62
     2
100
AcDbCircle
 10
4873.04
 20
1797.32
 30
0.0
 40
2.0
100
AcDbArc
 50
270.0
 51
0.0
  0
LINE
  5
6A2
330
19
100
AcDbEntity
  8
1
  6
Continuous
 62
     2
100
AcDbLine
 10
4873.04
 20
1795.32
 30
0.0
 11
4828.04
 21
1795.32
 31
0.0
  0
LINE
  5
6A3
330
19
100
AcDbEntity
  8
1
  6
Continuous
 62
     2
100
AcDbLine
 10
4877.04
 20
1797.32
 30
0.0
 11
4877.04
 21
1798.32
 31
0.0
  0
ARC
  5
6A4
330
19
100
AcDbEntity
  8
1
  6
Continuous
 62
     2
100
AcDbCircle
 10
4873.04
 20
1797.32
 30
0.0
 40
4.0
100
AcDbArc
 50
270.0
 51
0.0
  0
LINE
  5
6A5
330
19
100
AcDbEntity
  8
1
  6
Continuous
 62
     2
100
AcDbLine
 10
4884.54
 20
1848.32
 30
0.0
 11
4879.039999999999
 21
1848.32
 31
0.0
  0
ARC
  5
6A6
330
19
100
AcDbEntity
  8
1
  6
Continuous
 62
     2
100
AcDbCircle
 10
4879.039999999999
 20
1844.32
 30
0.0
 40
4.0
100
AcDbArc
 50
90.0
 51
180.0
  0
LINE
  5
6A7
330
19
100
AcDbEntity
  8
1
  6
Continuous
 62
     2
100
AcDbLine
 10
4918.54
 20
1848.32
 30
0.0
 11
4894.54
 21
1848.32
 31
0.0
  0
LWPOLYLINE
  5
6A8
330
19
100
AcDbEntity
  8
1
  6
Continuous
 62
     2
100
AcDbPolyline
 90
        5
 70
     0
 43
0.0
 10
4780.54
 20
1848.32
 10
4780.54
 20
1798.32
 10
4782.54
 20
1798.32
 10
4782.54
 20
1848.32
 10
4780.54
 20
1848.32
  0
LINE
  5
6AF
330
19
100
AcDbEntity
  8
1
  6
Continuous
 62
     2
100
AcDbLine
 10
4806.54
 20
1848.32
 30
0.0
 11
4782.54
 21
1848.32
 31
0.0
  0
ARC
  5
6B0
330
19
100
AcDbEntity
  8
1
  6
Continuous
 62
     2
100
AcDbCircle
 10
4822.04
 20
1844.32
 30
0.0
 40
4.0
100
AcDbArc
 50
0.0
 51
90.0
  0
LINE
  5
6B1
330
19
100
AcDbEntity
  8
1
  6
Continuous
 62
     2
100
AcDbLine
 10
4822.04
 20
1848.32
 30
0.0
 11
4816.539999999999
 21
1848.32
 31
0.0
  0
LINE
  5
6B2
330
19
100
AcDbEntity
  8
1
  6
Continuous
 62
     2
100
AcDbLine
 10
4782.54
 20
1798.32
 30
0.0
 11
4826.04
 21
1798.32
 31
0.0
  0
ARC
  5
6B3
330
19
100
AcDbEntity
  8
1
  6
Continuous
 62
     2
100
AcDbCircle
 10
4828.04
 20
1797.32
 30
0.0
 40
2.0
100
AcDbArc
 50
180.0
 51
270.0
  0
LINE
  5
6B4
330
19
100
AcDbEntity
  8
1
  6
Continuous
 62
     2
100
AcDbLine
 10
4824.04
 20
1798.32
 30
0.0
 11
4824.04
 21
1797.32
 31
0.0
  0
ARC
  5
6B5
330
19
100
AcDbEntity
  8
1
  6
Continuous
 62
     2
100
AcDbCircle
 10
4828.04
 20
1797.32
 30
0.0
 40
4.0
100
AcDbArc
 50
180.0
 51
270.0
  0
LINE
  5
6B6
330
19
100
AcDbEntity
  8
1
  6
Continuous
 62
     2
100
AcDbLine
 10
4828.04
 20
1793.32
 30
0.0
 11
4873.04
 21
1793.32
 31
0.0
  0
ARC
  5
6B7
330
19
100
AcDbEntity
  8
1
  6
Continuous
 62
     2
100
AcDbCircle
 10
4784.04
 20
719.321
 30
0.0
 40
2.0
100
AcDbArc
 50
90.0
 51
180.0
  0
LINE
  5
6B8
330
19
100
AcDbEntity
  8
1
  6
Continuous
 62
     2
100
AcDbLine
 10
4782.04
 20
719.321
 30
0.0
 11
4782.04
 21
672.321
 31
0.0
  0
ARC
  5
6B9
330
19
100
AcDbEntity
  8
1
  6
Continuous
 62
     2
100
AcDbCircle
 10
4784.04
 20
719.321
 30
0.0
 40
4.0
100
AcDbArc
 50
90.0
 51
180.0
  0
LINE
  5
6BA
330
19
100
AcDbEntity
  8
1
  6
Continuous
 62
     2
100
AcDbLine
 10
4780.04
 20
672.321
 30
0.0
 11
4780.04
 21
719.321
 31
0.0
  0
ARC
  5
6BB
330
19
100
AcDbEntity
  8
1
  6
Continuous
 62
     2
100
AcDbCircle
 10
4727.04
 20
719.321
 30
0.0
 40
2.0
100
AcDbArc
 50
0.0
 51
90.0
  0
ARC
  5
6BC
330
19
100
AcDbEntity
  8
1
  6
Continuous
 62
     2
100
AcDbCircle
 10
4727.04
 20
719.321
 30
0.0
 40
4.0
100
AcDbArc
 50
0.0
 51
90.0
  0
LINE
  5
6BD
330
19
100
AcDbEntity
  8
1
  6
Continuous
 62
     2
100
AcDbLine
 10
4731.04
 20
719.321
 30
0.0
 11
4731.04
 21
672.321
 31
0.0
  0
LINE
  5
6BE
330
19
100
AcDbEntity
  8
1
  6
Continuous
 62
     2
100
AcDbLine
 10
4729.04
 20
672.321
 30
0.0
 11
4729.04
 21
719.321
 31
0.0
  0
ARC
  5
6BF
330
19
100
AcDbEntity
  8
1
  6
Continuous
 62
     2
100
AcDbCircle
 10
4733.039999999999
 20
672.321
 30
0.0
 40
2.0
100
AcDbArc
 50
180.0
 51
270.0
  0
LINE
  5
6C0
330
19
100
AcDbEntity
  8
1
  6
Continuous
 62
     2
100
AcDbLine
 10
4733.039999999999
 20
670.321
 30
0.0
 11
4778.039999999999
 21
670.321
 31
0.0
  0
ARC
  5
6C1
330
19
100
AcDbEntity
  8
1
  6
Continuous
 62
     2
100
AcDbCircle
 10
4733.039999999999
 20
672.321
 30
0.0
 40
4.0
100
AcDbArc
 50
180.0
 51
270.0
  0
LINE
  5
6C2
330
19
100
AcDbEntity
  8
1
  6
Continuous
 62
     2
100
AcDbLine
 10
4778.039999999999
 20
668.321
 30
0.0
 11
4733.039999999999
 21
668.321
 31
0.0
  0
ARC
  5
6C3
330
19
100
AcDbEntity
  8
1
  6
Continuous
 62
     2
100
AcDbCircle
 10
4778.039999999999
 20
672.321
 30
0.0
 40
2.0
100
AcDbArc
 50
270.0
 51
0.0
  0
ARC
  5
6C4
330
19
100
AcDbEntity
  8
1
  6
Continuous
 62
     2
100
AcDbCircle
 10
4778.039999999999
 20
672.321
 30
0.0
 40
4.0
100
AcDbArc
 50
270.0
 51
0.0
  0
LWPOLYLINE
  5
6C5
330
19
100
AcDbEntity
  8
1
  6
Continuous
 62
     5
100
AcDbPolyline
 90
        7
 70
     0
 43
0.0
 10
1511.66
 20
1835.51
 10
1502.66
 20
1840.709999999999
 10
1493.66
 20
1835.51
 10
1493.66
 20
1825.12
 10
1502.66
 20
1819.92
 10
1511.66
 20
1825.12
 10
1511.66
 20
1835.51
  0
CIRCLE
  5
6CE
330
19
100
AcDbEntity
  8
1
  6
Continuous
 62
     5
100
AcDbCircle
 10
1502.66
 20
1830.32
 30
0.0
 40
9.0
  0
ARC
  5
6CF
330
19
100
AcDbEntity
  8
1
  6
Continuous
 62
     2
100
AcDbCircle
 10
1502.66
 20
1830.02
 30
0.0
 40
19.3
100
AcDbArc
 50
60.60349999999999
 51
119.396
  0
ARC
  5
6D0
330
19
100
AcDbEntity
  8
1
  6
Continuous
 62
     2
100
AcDbCircle
 10
1514.1
 20
1850.319999999999
 30
0.0
 40
2.0
100
AcDbArc
 50
240.603
 51
270.0
  0
ARC
  5
6D1
330
19
100
AcDbEntity
  8
1
  6
Continuous
 62
     2
100
AcDbCircle
 10
1502.66
 20
1830.02
 30
0.0
 40
21.3
100
AcDbArc
 50
60.60349999999999
 51
119.396
  0
ARC
  5
6D2
330
19
100
AcDbEntity
  8
1
  6
Continuous
 62
     2
100
AcDbCircle
 10
1514.1
 20
1850.319999999999
 30
0.0
 40
4.0
100
AcDbArc
 50
240.603
 51
270.0
  0
LWPOLYLINE
  5
6D3
330
19
100
AcDbEntity
  8
1
  6
Continuous
 62
     2
100
AcDbPolyline
 90
        3
 70
     0
 43
0.0
 10
2232.66
 20
1848.32
 10
2232.66
 20
1846.32
 10
1514.1
 20
1846.32
  0
LINE
  5
6D8
330
19
100
AcDbEntity
  8
1
  6
Continuous
 62
     2
100
AcDbLine
 10
1491.22
 20
1846.32
 30
0.0
 11
514.665
 21
1846.32
 31
0.0
  0
ARC
  5
6D9
330
19
100
AcDbEntity
  8
1
  6
Continuous
 62
     2
100
AcDbCircle
 10
1491.22
 20
1850.319999999999
 30
0.0
 40
4.0
100
AcDbArc
 50
270.0
 51
299.3959999999999
  0
LINE
  5
6DA
330
19
100
AcDbEntity
  8
1
  6
Continuous
 62
     2
100
AcDbLine
 10
1491.22
 20
1848.32
 30
0.0
 11
514.665
 21
1848.32
 31
0.0
  0
ARC
  5
6DB
330
19
100
AcDbEntity
  8
1
  6
Continuous
 62
     2
100
AcDbCircle
 10
1491.22
 20
1850.319999999999
 30
0.0
 40
2.0
100
AcDbArc
 50
270.0
 51
299.3959999999999
  0
LINE
  5
6DC
330
19
100
AcDbEntity
  8
1
  6
Continuous
 62
     2
100
AcDbLine
 10
1050.319999999999
 20
1940.57
 30
0.0
 11
435.998
 21
2044.37
 31
0.0
  0
LINE
  5
6DD
330
19
100
AcDbEntity
  8
1
  6
Continuous
 62
     2
100
AcDbLine
 10
1051.66
 20
1948.46
 30
0.0
 11
437.331
 21
2052.26
 31
0.0
  0
ARC
  5
6DE
330
19
100
AcDbEntity
  8
1
  6
Continuous
 62
     2
100
AcDbCircle
 10
1043.66
 20
1901.13
 30
0.0
 40
40.0
100
AcDbArc
 50
0.0
 51
80.40919999999999
  0
ARC
  5
6DF
330
19
100
AcDbEntity
  8
1
  6
Continuous
 62
     2
100
AcDbCircle
 10
1043.66
 20
1901.13
 30
0.0
 40
48.0
100
AcDbArc
 50
0.0
 51
80.40919999999999
  0
LINE
  5
6E0
330
19
100
AcDbEntity
  8
1
  6
Continuous
 62
     2
100
AcDbLine
 10
1083.66
 20
1901.13
 30
0.0
 11
1083.66
 21
1848.32
 31
0.0
  0
LINE
  5
6E1
330
19
100
AcDbEntity
  8
1
  6
Continuous
 62
     2
100
AcDbLine
 10
1091.66
 20
1901.13
 30
0.0
 11
1091.66
 21
1848.32
 31
0.0
  0
LINE
  5
6E2
330
19
100
AcDbEntity
  8
1
  6
Continuous
 62
     2
100
AcDbLine
 10
626.6649999999999
 20
2012.16
 30
0.0
 11
626.6649999999999
 21
1848.32
 31
0.0
  0
ARC
  5
6E3
330
19
100
AcDbEntity
  8
1
  6
Continuous
 62
     2
100
AcDbCircle
 10
436.6649999999999
 20
2048.32
 30
0.0
 40
4.0
100
AcDbArc
 50
80.40919999999999
 51
260.4089999999999
  0
ARC
  5
6E4
330
19
100
AcDbEntity
  8
1
  6
DIVIDE
 62
     7
100
AcDbCircle
 10
1830.799999999999
 20
1687.0
 30
0.0
 40
40.0
100
AcDbArc
 50
325.0
 51
45.4092
  0
ARC
  5
6E5
330
19
100
AcDbEntity
  8
1
  6
DIVIDE
 62
     7
100
AcDbCircle
 10
1830.799999999999
 20
1687.0
 30
0.0
 40
48.0
100
AcDbArc
 50
325.0
 51
45.4092
  0
LINE
  5
6E6
330
19
100
AcDbEntity
  8
1
  6
DIVIDE
 62
     7
100
AcDbLine
 10
1863.56
 20
1664.05
 30
0.0
 11
1833.269999999999
 21
1620.789999999999
 31
0.0
  0
LINE
  5
6E7
330
19
100
AcDbEntity
  8
1
  6
DIVIDE
 62
     7
100
AcDbLine
 10
1870.12
 20
1659.46
 30
0.0
 11
1839.83
 21
1616.2
 31
0.0
  0
LINE
  5
6E8
330
19
100
AcDbEntity
  8
1
  6
DIVIDE
 62
     7
100
AcDbLine
 10
1552.89
 20
2017.13
 30
0.0
 11
1458.92
 21
1882.92
 31
0.0
  0
ARC
  5
6E9
330
19
100
AcDbEntity
  8
1
  6
DIVIDE
 62
     7
100
AcDbCircle
 10
1418.0
 20
2155.73
 30
0.0
 40
4.0
100
AcDbArc
 50
45.4092
 51
225.409
  0
LINE
  5
6EA
330
19
100
AcDbEntity
  8
1
  6
DIVIDE
 62
     7
100
AcDbLine
 10
1323.55
 20
1904.349999999999
 30
0.0
 11
1327.539999999999
 21
1904.67
 31
0.0
  0
LINE
  5
6EB
330
19
100
AcDbEntity
  8
1
  6
DIVIDE
 62
     7
100
AcDbLine
 10
1325.71
 20
1927.599999999999
 30
0.0
 11
1327.539999999999
 21
1904.67
 31
0.0
  0
ARC
  5
6EC
330
19
100
AcDbEntity
  8
1
  6
DIVIDE
 62
     7
100
AcDbCircle
 10
1347.839999999999
 20
1914.31
 30
0.0
 40
15.0
100
AcDbArc
 50
4.549999999999999
 51
94.55
  0
LINE
  5
6ED
330
19
100
AcDbEntity
  8
1
  6
DIVIDE
 62
     7
100
AcDbLine
 10
1346.65
 20
1929.26
 30
0.0
 11
1325.71
 21
1927.599999999999
 31
0.0
  0
POINT
  5
6EE
330
19
100
AcDbEntity
  8
1
 62
     7
100
AcDbPoint
 10
1365.359999999999
 20
1871.059999999999
 30
0.0
  0
POINT
  5
6EF
330
19
100
AcDbEntity
  8
1
 62
     7
100
AcDbPoint
 10
1352.9
 20
1848.629999999999
 30
0.0
  0
LWPOLYLINE
  5
6F0
330
19
100
AcDbEntity
  8
1
  6
DIVIDE
 62
     7
100
AcDbPolyline
 90
        3
 70
     0
 43
0.0
 10
2774.48
 20
961.758
 10
2773.33
 20
960.1189999999999
 10
2184.719999999999
 20
1372.27
  0
LINE
  5
6F5
330
19
100
AcDbEntity
  8
1
  6
DIVIDE
 62
     7
100
AcDbLine
 10
2164.2
 20
1328.03
 30
0.0
 11
2172.81
 21
1340.32
 31
0.0
  0
ARC
  5
6F6
330
19
100
AcDbEntity
  8
1
  6
DIVIDE
 62
     7
100
AcDbCircle
 10
2166.0
 20
1365.47
 30
0.0
 40
19.3
100
AcDbArc
 50
25.6035
 51
84.3964
  0
ARC
  5
6F7
330
19
100
AcDbEntity
  8
1
  6
DIVIDE
 62
     7
100
AcDbCircle
 10
2187.01
 20
1375.539999999999
 30
0.0
 40
2.0
100
AcDbArc
 50
205.6029999999999
 51
235.0
  0
ARC
  5
6F8
330
19
100
AcDbEntity
  8
1
  6
DIVIDE
 62
     7
100
AcDbCircle
 10
2166.0
 20
1365.47
 30
0.0
 40
21.3
100
AcDbArc
 50
25.6035
 51
84.3964
  0
ARC
  5
6F9
330
19
100
AcDbEntity
  8
1
  6
DIVIDE
 62
     7
100
AcDbCircle
 10
2187.01
 20
1375.539999999999
 30
0.0
 40
4.0
100
AcDbArc
 50
205.6029999999999
 51
235.0
  0
ARC
  5
6FA
330
19
100
AcDbEntity
  8
1
  6
DIVIDE
 62
     7
100
AcDbCircle
 10
2168.28
 20
1388.66
 30
0.0
 40
4.0
100
AcDbArc
 50
235.0
 51
264.3959999999999
  0
ARC
  5
6FB
330
19
100
AcDbEntity
  8
1
  6
DIVIDE
 62
     7
100
AcDbCircle
 10
2168.28
 20
1388.66
 30
0.0
 40
2.0
100
AcDbArc
 50
235.0
 51
264.3959999999999
  0
ARC
  5
6FC
330
19
100
AcDbEntity
  8
1
  6
DIVIDE
 62
     7
100
AcDbCircle
 10
2772.45
 20
1115.77
 30
0.0
 40
50.0
100
AcDbArc
 50
55.0
 51
145.0
  0
ARC
  5
6FD
330
19
100
AcDbEntity
  8
1
  6
DIVIDE
 62
     7
100
AcDbCircle
 10
2772.45
 20
1115.77
 30
0.0
 40
40.0
100
AcDbArc
 50
55.0
 51
145.0
  0
LINE
  5
6FE
330
19
100
AcDbEntity
  8
1
  6
DIVIDE
 62
     7
100
AcDbLine
 10
2832.26
 20
1122.719999999999
 30
0.0
 11
2795.4
 21
1148.54
 31
0.0
  0
LINE
  5
6FF
330
19
100
AcDbEntity
  8
1
  6
DIVIDE
 62
     7
100
AcDbLine
 10
2801.13
 20
1156.73
 30
0.0
 11
2837.989999999999
 21
1130.92
 31
0.0
  0
LINE
  5
700
330
19
100
AcDbEntity
  8
1
  6
DIVIDE
 62
     7
100
AcDbLine
 10
2739.69
 20
1138.71
 30
0.0
 11
2667.99
 21
1036.319999999999
 31
0.0
  0
LINE
  5
701
330
19
100
AcDbEntity
  8
1
  6
DIVIDE
 62
     7
100
AcDbLine
 10
2659.8
 20
1042.05
 30
0.0
 11
2731.489999999999
 21
1144.45
 31
0.0
  0
LINE
  5
702
330
19
100
AcDbEntity
  8
1
  6
DIVIDE
 62
     7
100
AcDbLine
 10
2769.07
 20
954.028
 30
0.0
 11
2748.48
 21
924.634
 31
0.0
  0
LINE
  5
703
330
19
100
AcDbEntity
  8
1
  6
DIVIDE
 62
     7
100
AcDbLine
 10
2534.05
 20
1062.96
 30
0.0
 11
2535.37
 21
1064.849999999999
 31
0.0
  0
LINE
  5
704
330
19
100
AcDbEntity
  8
1
  6
DIVIDE
 62
     7
100
AcDbLine
 10
2543.66
 20
1067.97
 30
0.0
 11
2565.07
 21
1098.54
 31
0.0
  0
LINE
  5
705
330
19
100
AcDbEntity
  8
1
  6
Continuous
 62
     3
100
AcDbLine
 10
2835.13
 20
1126.82
 30
0.0
 11
2934.44
 21
1126.82
 31
0.0
  0
LINE
  5
706
330
19
100
AcDbEntity
  8
1
  6
Continuous
 62
     3
100
AcDbLine
 10
2840.13
 20
1126.82
 30
0.0
 11
2840.13
 21
688.536
 31
0.0
  0
LINE
  5
707
330
19
100
AcDbEntity
  8
1
  6
Continuous
 62
     3
100
AcDbLine
 10
436.6649999999999
 20
2048.32
 30
0.0
 11
337.2049999999999
 21
2048.32
 31
0.0
  0
LINE
  5
708
330
19
100
AcDbEntity
  8
1
  6
Continuous
 62
     3
100
AcDbLine
 10
472.665
 20
1772.319999999999
 30
0.0
 11
343.3949999999999
 21
1772.319999999999
 31
0.0
  0
LINE
  5
709
330
19
100
AcDbEntity
  8
1
  6
Continuous
 62
     3
100
AcDbLine
 10
4933.03
 20
1795.32
 30
0.0
 11
5142.21
 21
1795.32
 31
0.0
  0
LINE
  5
70A
330
19
100
AcDbEntity
  8
1
  6
Continuous
 62
     3
100
AcDbLine
 10
2282.659999999999
 20
3430.239999999999
 30
0.0
 11
2416.02
 21
3430.239999999999
 31
0.0
  0
LINE
  5
70B
330
19
100
AcDbEntity
  8
1
  6
Continuous
 62
     3
100
AcDbLine
 10
2416.02
 20
3570.24
 30
0.0
 11
2282.659999999999
 21
3570.24
 31
0.0
  0
LINE
  5
70C
330
19
100
AcDbEntity
  8
1
  6
Continuous
 62
     3
100
AcDbLine
 10
2396.02
 20
3570.24
 30
0.0
 11
2396.02
 21
3430.239999999999
 31
0.0
  0
LINE
  5
70D
330
19
100
AcDbEntity
  8
1
  6
Continuous
 62
     3
100
AcDbLine
 10
2396.02
 20
3570.24
 30
0.0
 11
2392.49
 21
3550.24
 31
0.0
  0
LINE
  5
70E
330
19
100
AcDbEntity
  8
1
  6
Continuous
 62
     3
100
AcDbLine
 10
2396.02
 20
3570.24
 30
0.0
 11
2399.55
 21
3550.24
 31
0.0
  0
LINE
  5
70F
330
19
100
AcDbEntity
  8
1
  6
Continuous
 62
     3
100
AcDbLine
 10
2396.02
 20
3430.239999999999
 30
0.0
 11
2399.55
 21
3450.24
 31
0.0
  0
LINE
  5
710
330
19
100
AcDbEntity
  8
1
  6
Continuous
 62
     3
100
AcDbLine
 10
2396.02
 20
3430.239999999999
 30
0.0
 11
2392.49
 21
3450.24
 31
0.0
  0
TEXT
  5
711
330
19
100
AcDbEntity
  8
1
 62
     3
100
AcDbText
 10
2396.02
 20
3458.239999999999
 30
0.0
 40
40.0
  1
１４０
 50
90.0
 41
0.7
100
AcDbText
  0
LINE
  5
712
330
19
100
AcDbEntity
  8
1
  6
Continuous
 62
     3
100
AcDbLine
 10
2282.659999999999
 20
3570.24
 30
0.0
 11
2282.659999999999
 21
3633.919999999999
 31
0.0
  0
LINE
  5
713
330
19
100
AcDbEntity
  8
1
  6
Continuous
 62
     3
100
AcDbLine
 10
378.452
 20
3405.24
 30
0.0
 11
327.13
 21
3405.24
 31
0.0
  0
LINE
  5
714
330
19
100
AcDbEntity
  8
1
  6
Continuous
 62
     3
100
AcDbLine
 10
327.13
 20
3500.24
 30
0.0
 11
358.6149999999999
 21
3500.24
 31
0.0
  0
LINE
  5
715
330
19
100
AcDbEntity
  8
1
  6
Continuous
 62
     3
100
AcDbLine
 10
347.1299999999999
 20
3500.24
 30
0.0
 11
347.1299999999999
 21
3405.24
 31
0.0
  0
LINE
  5
716
330
19
100
AcDbEntity
  8
1
  6
Continuous
 62
     3
100
AcDbLine
 10
347.1299999999999
 20
3500.24
 30
0.0
 11
343.604
 21
3480.24
 31
0.0
  0
LINE
  5
717
330
19
100
AcDbEntity
  8
1
  6
Continuous
 62
     3
100
AcDbLine
 10
347.1299999999999
 20
3500.24
 30
0.0
 11
350.6569999999999
 21
3480.24
 31
0.0
  0
LINE
  5
718
330
19
100
AcDbEntity
  8
1
  6
Continuous
 62
     3
100
AcDbLine
 10
347.1299999999999
 20
3405.24
 30
0.0
 11
350.6569999999999
 21
3425.24
 31
0.0
  0
LINE
  5
719
330
19
100
AcDbEntity
  8
1
  6
Continuous
 62
     3
100
AcDbLine
 10
347.1299999999999
 20
3405.24
 30
0.0
 11
343.604
 21
3425.24
 31
0.0
  0
TEXT
  5
71A
330
19
100
AcDbEntity
  8
1
 62
     3
100
AcDbText
 10
347.1299999999999
 20
3424.739999999999
 30
0.0
 40
40.0
  1
９５
 50
90.0
 41
0.7
100
AcDbText
  0
LINE
  5
71B
330
19
100
AcDbEntity
  8
1
  6
Continuous
 62
     3
100
AcDbLine
 10
432.6649999999999
 20
3500.24
 30
0.0
 11
432.6649999999999
 21
3597.98
 31
0.0
  0
LINE
  5
71C
330
19
100
AcDbEntity
  8
1
  6
Continuous
 62
     3
100
AcDbLine
 10
2282.659999999999
 20
3633.919999999999
 30
0.0
 11
2282.659999999999
 21
3604.41
 31
0.0
  0
LINE
  5
71D
330
19
100
AcDbEntity
  8
1
  6
Continuous
 62
     3
100
AcDbLine
 10
432.6649999999999
 20
3644.41
 30
0.0
 11
432.6649999999999
 21
3597.98
 31
0.0
  0
LINE
  5
71E
330
19
100
AcDbEntity
  8
1
  6
Continuous
 62
     3
100
AcDbLine
 10
432.6649999999999
 20
3624.409999999999
 30
0.0
 11
2282.659999999999
 21
3624.409999999999
 31
0.0
  0
LINE
  5
71F
330
19
100
AcDbEntity
  8
1
  6
Continuous
 62
     3
100
AcDbLine
 10
432.6649999999999
 20
3624.409999999999
 30
0.0
 11
452.665
 21
3620.88
 31
0.0
  0
LINE
  5
720
330
19
100
AcDbEntity
  8
1
  6
Continuous
 62
     3
100
AcDbLine
 10
432.6649999999999
 20
3624.409999999999
 30
0.0
 11
452.665
 21
3627.93
 31
0.0
  0
LINE
  5
721
330
19
100
AcDbEntity
  8
1
  6
Continuous
 62
     3
100
AcDbLine
 10
2282.659999999999
 20
3624.409999999999
 30
0.0
 11
2262.659999999999
 21
3627.93
 31
0.0
  0
LINE
  5
722
330
19
100
AcDbEntity
  8
1
  6
Continuous
 62
     3
100
AcDbLine
 10
2282.659999999999
 20
3624.409999999999
 30
0.0
 11
2262.659999999999
 21
3620.88
 31
0.0
  0
TEXT
  5
723
330
19
100
AcDbEntity
  8
1
 62
     3
100
AcDbText
 10
1301.66
 20
3624.409999999999
 30
0.0
 40
40.0
  1
１８７０
 41
0.7
100
AcDbText
  0
LWPOLYLINE
  5
724
330
19
100
AcDbEntity
  8
1
  6
Continuous
 62
     2
100
AcDbPolyline
 90
        4
 70
     0
 43
0.0
 10
2232.66
 20
3430.239999999999
 10
2282.659999999999
 20
3430.239999999999
 10
2282.659999999999
 20
3432.24
 10
2232.66
 20
3432.24
  0
LINE
  5
72A
330
19
100
AcDbEntity
  8
1
  6
Continuous
 62
     2
100
AcDbLine
 10
1982.66
 20
3475.44
 30
0.0
 11
2232.66
 21
3432.24
 31
0.0
  0
LWPOLYLINE
  5
72B
330
19
100
AcDbEntity
  8
1
  6
Continuous
 62
     2
100
AcDbPolyline
 90
        4
 70
     0
 43
0.0
 10
2232.66
 20
3570.24
 10
2282.659999999999
 20
3570.24
 10
2282.659999999999
 20
3568.24
 10
2232.66
 20
3568.24
  0
LINE
  5
731
330
19
100
AcDbEntity
  8
1
  6
Continuous
 62
     2
100
AcDbLine
 10
1982.66
 20
3525.04
 30
0.0
 11
2232.66
 21
3568.24
 31
0.0
  0
LINE
  5
732
330
19
100
AcDbEntity
  8
1
  6
Continuous
 62
     2
100
AcDbLine
 10
1977.66
 20
3475.74
 30
0.0
 11
1977.66
 21
3524.739999999999
 31
0.0
  0
CIRCLE
  5
733
330
19
100
AcDbEntity
  8
1
  6
DIVIDE
 62
     7
100
AcDbCircle
 10
1347.839999999999
 20
1914.31
 30
0.0
 40
5.25
  0
LINE
  5
734
330
19
100
AcDbEntity
  8
1
  6
Continuous
 62
     3
100
AcDbLine
 10
382.665
 20
3252.32
 30
0.0
 11
382.665
 21
3158.04
 31
0.0
  0
LINE
  5
735
330
19
100
AcDbEntity
  8
1
  6
Continuous
 62
     3
100
AcDbLine
 10
2282.659999999999
 20
3198.04
 30
0.0
 11
2282.659999999999
 21
3052.32
 31
0.0
  0
LINE
  5
736
330
19
100
AcDbEntity
  8
1
  6
Continuous
 62
     3
100
AcDbLine
 10
2282.659999999999
 20
3178.04
 30
0.0
 11
382.665
 21
3178.04
 31
0.0
  0
LINE
  5
737
330
19
100
AcDbEntity
  8
1
  6
Continuous
 62
     3
100
AcDbLine
 10
2282.659999999999
 20
3178.04
 30
0.0
 11
2262.659999999999
 21
3181.57
 31
0.0
  0
LINE
  5
738
330
19
100
AcDbEntity
  8
1
  6
Continuous
 62
     3
100
AcDbLine
 10
2282.659999999999
 20
3178.04
 30
0.0
 11
2262.659999999999
 21
3174.52
 31
0.0
  0
LINE
  5
739
330
19
100
AcDbEntity
  8
1
  6
Continuous
 62
     3
100
AcDbLine
 10
382.665
 20
3178.04
 30
0.0
 11
402.665
 21
3174.52
 31
0.0
  0
LINE
  5
73A
330
19
100
AcDbEntity
  8
1
  6
Continuous
 62
     3
100
AcDbLine
 10
382.665
 20
3178.04
 30
0.0
 11
402.665
 21
3181.57
 31
0.0
  0
TEXT
  5
73B
330
19
100
AcDbEntity
  8
1
 62
     3
100
AcDbText
 10
1276.66
 20
3178.04
 30
0.0
 40
40.0
  1
１９００
 41
0.7
100
AcDbText
  0
LWPOLYLINE
  5
73C
330
19
100
AcDbEntity
  8
1
  6
Continuous
 62
     8
100
AcDbPolyline
 90
        5
 70
     0
 43
0.0
 10
4750.539999999999
 20
2467.7
 10
4750.539999999999
 20
2457.699999999999
 10
4950.54
 20
2457.699999999999
 10
4950.54
 20
2467.7
 10
4750.539999999999
 20
2467.7
  0
LINE
  5
743
330
19
100
AcDbEntity
  8
1
  6
Continuous
 62
     8
100
AcDbLine
 10
4950.54
 20
2457.699999999999
 30
0.0
 11
4909.0
 21
2110.119999999999
 31
0.0
  0
LINE
  5
744
330
19
100
AcDbEntity
  8
1
  6
Continuous
 62
     8
100
AcDbLine
 10
4750.539999999999
 20
2457.699999999999
 30
0.0
 11
4792.069999999999
 21
2110.119999999999
 31
0.0
  0
ARC
  5
745
330
19
100
AcDbEntity
  8
1
  6
Continuous
 62
     8
100
AcDbCircle
 10
4795.539999999999
 20
2605.119999999999
 30
0.0
 40
25.0
100
AcDbArc
 50
90.0
 51
180.0
  0
LWPOLYLINE
  5
746
330
19
100
AcDbEntity
  8
1
  6
Continuous
 62
     8
100
AcDbPolyline
 90
        6
 70
     0
 43
0.0
 10
4770.539999999999
 20
2605.119999999999
 10
4770.539999999999
 20
2586.55
 10
4835.54
 20
2560.119999999999
 10
4865.54
 20
2560.119999999999
 10
4930.54
 20
2586.55
 10
4930.54
 20
2605.119999999999
  0
LINE
  5
74E
330
19
100
AcDbEntity
  8
1
  6
Continuous
 62
     8
100
AcDbLine
 10
4905.54
 20
2630.119999999999
 30
0.0
 11
4795.539999999999
 21
2630.119999999999
 31
0.0
  0
ARC
  5
74F
330
19
100
AcDbEntity
  8
1
  6
Continuous
 62
     8
100
AcDbCircle
 10
4905.54
 20
2605.119999999999
 30
0.0
 40
25.0
100
AcDbArc
 50
0.0
 51
90.0
  0
LWPOLYLINE
  5
750
330
19
100
AcDbEntity
  8
1
  6
Continuous
 62
     8
100
AcDbPolyline
 90
        5
 70
     0
 43
0.0
 10
4891.189999999999
 20
2140.12
 10
4879.89
 20
2140.12
 10
4879.89
 20
2060.119999999999
 10
4891.189999999999
 20
2060.119999999999
 10
4891.189999999999
 20
2140.12
  0
LWPOLYLINE
  5
757
330
19
100
AcDbEntity
  8
1
  6
Continuous
 62
     8
100
AcDbPolyline
 90
        5
 70
     0
 43
0.0
 10
4824.34
 20
2140.12
 10
4807.87
 20
2140.12
 10
4807.87
 20
2060.119999999999
 10
4824.34
 20
2060.119999999999
 10
4824.34
 20
2140.12
  0
LWPOLYLINE
  5
75E
330
19
100
AcDbEntity
  8
1
  6
Continuous
 62
     8
100
AcDbPolyline
 90
        4
 70
     0
 43
0.0
 10
4891.189999999999
 20
2110.119999999999
 10
4920.539999999999
 20
2110.119999999999
 10
4920.539999999999
 20
2090.12
 10
4891.189999999999
 20
2090.12
  0
LWPOLYLINE
  5
764
330
19
100
AcDbEntity
  8
1
  6
Continuous
 62
     8
100
AcDbPolyline
 90
        4
 70
     0
 43
0.0
 10
4807.87
 20
2110.119999999999
 10
4780.54
 20
2110.119999999999
 10
4780.54
 20
2090.12
 10
4807.87
 20
2090.12
  0
ARC
  5
76A
330
19
100
AcDbEntity
  8
1
  6
Continuous
 62
     8
100
AcDbCircle
 10
4759.0
 20
2385.82
 30
0.0
 40
150.0
100
AcDbArc
 50
0.0
 51
28.41829999999999
  0
LINE
  5
76B
330
19
100
AcDbEntity
  8
1
  6
Continuous
 62
     8
100
AcDbLine
 10
4909.0
 20
2110.119999999999
 30
0.0
 11
4909.0
 21
2385.82
 31
0.0
  0
ARC
  5
76C
330
19
100
AcDbEntity
  8
1
  6
Continuous
 62
     8
100
AcDbCircle
 10
4769.0
 20
2388.349999999999
 30
0.0
 40
126.0
100
AcDbArc
 50
0.0
 51
28.41829999999999
  0
LINE
  5
76D
330
19
100
AcDbEntity
  8
1
  6
Continuous
 62
     8
100
AcDbLine
 10
4895.0
 20
2388.349999999999
 30
0.0
 11
4895.0
 21
2110.119999999999
 31
0.0
  0
ARC
  5
76E
330
19
100
AcDbEntity
  8
1
  6
Continuous
 62
     8
100
AcDbCircle
 10
4942.07
 20
2385.82
 30
0.0
 40
150.0
100
AcDbArc
 50
151.581
 51
180.0
  0
LINE
  5
76F
330
19
100
AcDbEntity
  8
1
  6
Continuous
 62
     8
100
AcDbLine
 10
4792.069999999999
 20
2110.119999999999
 30
0.0
 11
4792.069999999999
 21
2385.82
 31
0.0
  0
ARC
  5
770
330
19
100
AcDbEntity
  8
1
  6
Continuous
 62
     8
100
AcDbCircle
 10
4932.069999999999
 20
2388.349999999999
 30
0.0
 40
126.0
100
AcDbArc
 50
151.581
 51
180.0
  0
LINE
  5
771
330
19
100
AcDbEntity
  8
1
  6
Continuous
 62
     8
100
AcDbLine
 10
4806.07
 20
2388.349999999999
 30
0.0
 11
4806.07
 21
2110.119999999999
 31
0.0
  0
ARC
  5
772
330
19
100
AcDbEntity
  8
1
  6
Continuous
 62
     8
100
AcDbCircle
 10
4850.54
 20
1810.32
 30
0.0
 40
15.0
100
AcDbArc
 50
180.0
 51
270.0
  0
ARC
  5
773
330
19
100
AcDbEntity
  8
1
  6
Continuous
 62
     8
100
AcDbCircle
 10
4850.54
 20
1810.32
 30
0.0
 40
15.0
100
AcDbArc
 50
270.0
 51
0.0
  0
ARC
  5
774
330
19
100
AcDbEntity
  8
1
  6
Continuous
 62
     8
100
AcDbCircle
 10
4850.54
 20
2126.01
 30
0.0
 40
25.89059999999999
100
AcDbArc
 50
180.0
 51
0.0
  0
ARC
  5
775
330
19
100
AcDbEntity
  8
1
  6
Continuous
 62
     8
100
AcDbCircle
 10
4850.54
 20
2402.2
 30
0.0
 40
25.89059999999999
100
AcDbArc
 50
0.0
 51
180.0
  0
LINE
  5
776
330
19
100
AcDbEntity
  8
1
  6
Continuous
 62
     8
100
AcDbLine
 10
4876.43
 20
2402.2
 30
0.0
 11
4876.43
 21
2126.01
 31
0.0
  0
LINE
  5
777
330
19
100
AcDbEntity
  8
1
  6
Continuous
 62
     8
100
AcDbLine
 10
4824.64
 20
2402.2
 30
0.0
 11
4824.64
 21
2126.01
 31
0.0
  0
LWPOLYLINE
  5
778
330
19
100
AcDbEntity
  8
1
  6
Continuous
 62
     8
100
AcDbPolyline
 90
        5
 70
     0
 43
0.0
 10
4755.539999999999
 20
2295.469999999999
 10
4650.54
 20
2295.469999999999
 10
4650.54
 20
2275.469999999999
 10
4755.539999999999
 20
2275.469999999999
 10
4755.539999999999
 20
2295.469999999999
  0
LINE
  5
77F
330
19
100
AcDbEntity
  8
1
  6
Continuous
 62
     8
100
AcDbLine
 10
4755.539999999999
 20
2292.469999999999
 30
0.0
 11
4762.81
 21
2292.469999999999
 31
0.0
  0
LINE
  5
780
330
19
100
AcDbEntity
  8
1
  6
Continuous
 62
     8
100
AcDbLine
 10
4755.539999999999
 20
2278.469999999999
 30
0.0
 11
4762.81
 21
2278.469999999999
 31
0.0
  0
LWPOLYLINE
  5
781
330
19
100
AcDbEntity
  8
1
  6
Continuous
 62
     8
100
AcDbPolyline
 90
        5
 70
     0
 43
0.0
 10
4945.54
 20
1904.77
 10
5050.54
 20
1904.77
 10
5050.54
 20
1924.77
 10
4945.54
 20
1924.77
 10
4945.54
 20
1904.77
  0
ARC
  5
788
330
19
100
AcDbEntity
  8
1
  6
Continuous
 62
     8
100
AcDbCircle
 10
5050.54
 20
1914.77
 30
0.0
 40
10.0
100
AcDbArc
 50
270.0
 51
90.0
  0
LWPOLYLINE
  5
789
330
19
100
AcDbEntity
  8
1
  6
Continuous
 62
     8
100
AcDbPolyline
 90
        5
 70
     0
 43
0.0
 10
4926.67
 20
1904.77
 10
4938.26
 20
1904.77
 10
4938.26
 20
2115.659999999999
 10
4926.67
 20
2115.659999999999
 10
4926.67
 20
1904.77
  0
LINE
  5
790
330
19
100
AcDbEntity
  8
1
  6
Continuous
 62
     8
100
AcDbLine
 10
4945.54
 20
1907.77
 30
0.0
 11
4938.26
 21
1907.77
 31
0.0
  0
LINE
  5
791
330
19
100
AcDbEntity
  8
1
  6
Continuous
 62
     8
100
AcDbLine
 10
4945.54
 20
1921.77
 30
0.0
 11
4938.26
 21
1921.77
 31
0.0
  0
LWPOLYLINE
  5
792
330
19
100
AcDbEntity
  8
1
  6
Continuous
 62
     8
100
AcDbPolyline
 90
        4
 70
     0
 43
0.0
 10
4838.54
 20
2630.119999999999
 10
4838.54
 20
2758.56
 10
4862.54
 20
2758.56
 10
4862.54
 20
2630.38
  0
LINE
  5
798
330
19
100
AcDbEntity
  8
1
  6
Continuous
 62
     8
100
AcDbLine
 10
4970.79
 20
2722.9
 30
0.0
 11
4862.54
 21
2722.9
 31
0.0
  0
LINE
  5
799
330
19
100
AcDbEntity
  8
1
  6
Continuous
 62
     8
100
AcDbLine
 10
4862.54
 20
2746.9
 30
0.0
 11
4970.79
 21
2746.9
 31
0.0
  0
LINE
  5
79A
330
19
100
AcDbEntity
  8
1
  6
Continuous
 62
     8
100
AcDbLine
 10
5010.419999999999
 20
2742.42
 30
0.0
 11
5054.529999999999
 21
2799.77
 31
0.0
  0
LINE
  5
79B
330
19
100
AcDbEntity
  8
1
  6
Continuous
 62
     8
100
AcDbLine
 10
4991.46
 20
2757.13
 30
0.0
 11
5038.720000000001
 21
2819.1
 31
0.0
  0
ARC
  5
79C
330
19
100
AcDbEntity
  8
1
  6
Continuous
 62
     8
100
AcDbCircle
 10
4970.79
 20
2772.9
 30
0.0
 40
50.0
100
AcDbArc
 50
270.0
 51
322.434
  0
ARC
  5
79D
330
19
100
AcDbEntity
  8
1
  6
Continuous
 62
     8
100
AcDbCircle
 10
4970.79
 20
2772.9
 30
0.0
 40
26.0
100
AcDbArc
 50
270.0
 51
322.665
  0
CIRCLE
  5
79E
330
19
100
AcDbEntity
  8
1
  6
Continuous
 62
     8
100
AcDbCircle
 10
4592.54
 20
2799.38
 30
0.0
 40
12.0
  0
LINE
  5
79F
330
19
100
AcDbEntity
  8
1
  6
Continuous
 62
     8
100
AcDbLine
 10
4638.49
 20
2830.9
 30
0.0
 11
4634.96
 21
2830.9
 31
0.0
  0
LINE
  5
7A0
330
19
100
AcDbEntity
  8
1
  6
Continuous
 62
     8
100
AcDbLine
 10
4730.279999999999
 20
2722.9
 30
0.0
 11
4838.54
 21
2722.9
 31
0.0
  0
LINE
  5
7A1
330
19
100
AcDbEntity
  8
1
  6
Continuous
 62
     8
100
AcDbLine
 10
4838.54
 20
2746.9
 30
0.0
 11
4730.279999999999
 21
2746.9
 31
0.0
  0
LINE
  5
7A2
330
19
100
AcDbEntity
  8
1
  6
Continuous
 62
     8
100
AcDbLine
 10
4690.649999999999
 20
2742.42
 30
0.0
 11
4646.54
 21
2799.77
 31
0.0
  0
ARC
  5
7A3
330
19
100
AcDbEntity
  8
1
  6
Continuous
 62
     8
100
AcDbCircle
 10
4730.279999999999
 20
2772.9
 30
0.0
 40
50.0
100
AcDbArc
 50
217.565
 51
270.0
  0
ARC
  5
7A4
330
19
100
AcDbEntity
  8
1
  6
Continuous
 62
     8
100
AcDbCircle
 10
4730.279999999999
 20
2772.9
 30
0.0
 40
26.0
100
AcDbArc
 50
217.334
 51
270.0
  0
ARC
  5
7A5
330
19
100
AcDbEntity
  8
1
  6
Continuous
 62
     8
100
AcDbCircle
 10
4638.49
 20
2800.9
 30
0.0
 40
30.0
100
AcDbArc
 50
37.33449999999999
 51
90.0
  0
POLYLINE
  5
7A6
330
19
100
AcDbEntity
  8
1
  6
Continuous
 62
     8
100
AcDb2dPolyline
 66
     1
 10
0.0
 20
0.0
 30
0.0
 70
     2
  0
VERTEX
  5
7A7
330
7A6
100
AcDbEntity
  8
1
  6
Continuous
 62
     8
100
AcDbVertex
100
AcDb2dVertex
 10
5051.95
 20
2834.12
 30
0.0
  0
VERTEX
  5
7A8
330
7A6
100
AcDbEntity
  8
1
  6
Continuous
 62
     8
100
AcDbVertex
100
AcDb2dVertex
 10
5051.79
 20
2835.52
 30
0.0
  0
VERTEX
  5
7A9
330
7A6
100
AcDbEntity
  8
1
  6
Continuous
 62
     8
100
AcDbVertex
100
AcDb2dVertex
 10
5051.32
 20
2836.899999999999
 30
0.0
  0
VERTEX
  5
7AA
330
7A6
100
AcDbEntity
  8
1
  6
Continuous
 62
     8
100
AcDbVertex
100
AcDb2dVertex
 10
5050.53
 20
2838.23
 30
0.0
  0
VERTEX
  5
7AB
330
7A6
100
AcDbEntity
  8
1
  6
Continuous
 62
     8
100
AcDbVertex
100
AcDb2dVertex
 10
5049.45
 20
2839.5
 30
0.0
  0
VERTEX
  5
7AC
330
7A6
100
AcDbEntity
  8
1
  6
Continuous
 62
     8
100
AcDbVertex
100
AcDb2dVertex
 10
5048.090000000001
 20
2840.69
 30
0.0
  0
VERTEX
  5
7AD
330
7A6
100
AcDbEntity
  8
1
  6
Continuous
 62
     8
100
AcDbVertex
100
AcDb2dVertex
 10
5046.47
 20
2841.77
 30
0.0
  0
VERTEX
  5
7AE
330
7A6
100
AcDbEntity
  8
1
  6
Continuous
 62
     8
100
AcDbVertex
100
AcDb2dVertex
 10
5044.62
 20
2842.73
 30
0.0
  0
VERTEX
  5
7AF
330
7A6
100
AcDbEntity
  8
1
  6
Continuous
 62
     8
100
AcDbVertex
100
AcDb2dVertex
 10
5042.56
 20
2843.56
 30
0.0
  0
VERTEX
  5
7B0
330
7A6
100
AcDbEntity
  8
1
  6
Continuous
 62
     8
100
AcDbVertex
100
AcDb2dVertex
 10
5040.33
 20
2844.24
 30
0.0
  0
VERTEX
  5
7B1
330
7A6
100
AcDbEntity
  8
1
  6
Continuous
 62
     8
100
AcDbVertex
100
AcDb2dVertex
 10
5037.96
 20
2844.76
 30
0.0
  0
VERTEX
  5
7B2
330
7A6
100
AcDbEntity
  8
1
  6
Continuous
 62
     8
100
AcDbVertex
100
AcDb2dVertex
 10
5035.49
 20
2845.11
 30
0.0
  0
VERTEX
  5
7B3
330
7A6
100
AcDbEntity
  8
1
  6
Continuous
 62
     8
100
AcDbVertex
100
AcDb2dVertex
 10
5032.97
 20
2845.3
 30
0.0
  0
VERTEX
  5
7B4
330
7A6
100
AcDbEntity
  8
1
  6
Continuous
 62
     8
100
AcDbVertex
100
AcDb2dVertex
 10
5030.42
 20
2845.3
 30
0.0
  0
VERTEX
  5
7B5
330
7A6
100
AcDbEntity
  8
1
  6
Continuous
 62
     8
100
AcDbVertex
100
AcDb2dVertex
 10
5027.890000000001
 20
2845.13
 30
0.0
  0
VERTEX
  5
7B6
330
7A6
100
AcDbEntity
  8
1
  6
Continuous
 62
     8
100
AcDbVertex
100
AcDb2dVertex
 10
5025.41
 20
2844.79
 30
0.0
  0
VERTEX
  5
7B7
330
7A6
100
AcDbEntity
  8
1
  6
Continuous
 62
     8
100
AcDbVertex
100
AcDb2dVertex
 10
5023.04
 20
2844.28
 30
0.0
  0
VERTEX
  5
7B8
330
7A6
100
AcDbEntity
  8
1
  6
Continuous
 62
     8
100
AcDbVertex
100
AcDb2dVertex
 10
5020.800000000001
 20
2843.61
 30
0.0
  0
VERTEX
  5
7B9
330
7A6
100
AcDbEntity
  8
1
  6
Continuous
 62
     8
100
AcDbVertex
100
AcDb2dVertex
 10
5018.72
 20
2842.8
 30
0.0
  0
VERTEX
  5
7BA
330
7A6
100
AcDbEntity
  8
1
  6
Continuous
 62
     8
100
AcDbVertex
100
AcDb2dVertex
 10
5016.85
 20
2841.84
 30
0.0
  0
VERTEX
  5
7BB
330
7A6
100
AcDbEntity
  8
1
  6
Continuous
 62
     8
100
AcDbVertex
100
AcDb2dVertex
 10
5015.21
 20
2840.77
 30
0.0
  0
VERTEX
  5
7BC
330
7A6
100
AcDbEntity
  8
1
  6
Continuous
 62
     8
100
AcDbVertex
100
AcDb2dVertex
 10
5013.83
 20
2839.59
 30
0.0
  0
VERTEX
  5
7BD
330
7A6
100
AcDbEntity
  8
1
  6
Continuous
 62
     8
100
AcDbVertex
100
AcDb2dVertex
 10
5012.73
 20
2838.32
 30
0.0
  0
VERTEX
  5
7BE
330
7A6
100
AcDbEntity
  8
1
  6
Continuous
 62
     8
100
AcDbVertex
100
AcDb2dVertex
 10
5011.919999999999
 20
2836.99
 30
0.0
  0
VERTEX
  5
7BF
330
7A6
100
AcDbEntity
  8
1
  6
Continuous
 62
     8
100
AcDbVertex
100
AcDb2dVertex
 10
5011.420000000001
 20
2835.61
 30
0.0
  0
VERTEX
  5
7C0
330
7A6
100
AcDbEntity
  8
1
  6
Continuous
 62
     8
100
AcDbVertex
100
AcDb2dVertex
 10
5011.24
 20
2834.22
 30
0.0
  0
VERTEX
  5
7C1
330
7A6
100
AcDbEntity
  8
1
  6
Continuous
 62
     8
100
AcDbVertex
100
AcDb2dVertex
 10
5011.38
 20
2832.81
 30
0.0
  0
VERTEX
  5
7C2
330
7A6
100
AcDbEntity
  8
1
  6
Continuous
 62
     8
100
AcDbVertex
100
AcDb2dVertex
 10
5011.829999999999
 20
2831.43
 30
0.0
  0
VERTEX
  5
7C3
330
7A6
100
AcDbEntity
  8
1
  6
Continuous
 62
     8
100
AcDbVertex
100
AcDb2dVertex
 10
5012.6
 20
2830.09
 30
0.0
  0
VERTEX
  5
7C4
330
7A6
100
AcDbEntity
  8
1
  6
Continuous
 62
     8
100
AcDbVertex
100
AcDb2dVertex
 10
5013.66
 20
2828.82
 30
0.0
  0
VERTEX
  5
7C5
330
7A6
100
AcDbEntity
  8
1
  6
Continuous
 62
     8
100
AcDbVertex
100
AcDb2dVertex
 10
5015.01
 20
2827.63
 30
0.0
  0
VERTEX
  5
7C6
330
7A6
100
AcDbEntity
  8
1
  6
Continuous
 62
     8
100
AcDbVertex
100
AcDb2dVertex
 10
5016.61
 20
2826.53
 30
0.0
  0
VERTEX
  5
7C7
330
7A6
100
AcDbEntity
  8
1
  6
Continuous
 62
     8
100
AcDbVertex
100
AcDb2dVertex
 10
5018.45
 20
2825.56
 30
0.0
  0
VERTEX
  5
7C8
330
7A6
100
AcDbEntity
  8
1
  6
Continuous
 62
     8
100
AcDbVertex
100
AcDb2dVertex
 10
5020.5
 20
2824.73
 30
0.0
  0
VERTEX
  5
7C9
330
7A6
100
AcDbEntity
  8
1
  6
Continuous
 62
     8
100
AcDbVertex
100
AcDb2dVertex
 10
5022.72
 20
2824.03
 30
0.0
  0
VERTEX
  5
7CA
330
7A6
100
AcDbEntity
  8
1
  6
Continuous
 62
     8
100
AcDbVertex
100
AcDb2dVertex
 10
5025.079999999999
 20
2823.5
 30
0.0
  0
VERTEX
  5
7CB
330
7A6
100
AcDbEntity
  8
1
  6
Continuous
 62
     8
100
AcDbVertex
100
AcDb2dVertex
 10
5027.54
 20
2823.14
 30
0.0
  0
VERTEX
  5
7CC
330
7A6
100
AcDbEntity
  8
1
  6
Continuous
 62
     8
100
AcDbVertex
100
AcDb2dVertex
 10
5030.07
 20
2822.94
 30
0.0
  0
VERTEX
  5
7CD
330
7A6
100
AcDbEntity
  8
1
  6
Continuous
 62
     8
100
AcDbVertex
100
AcDb2dVertex
 10
5032.62
 20
2822.92
 30
0.0
  0
VERTEX
  5
7CE
330
7A6
100
AcDbEntity
  8
1
  6
Continuous
 62
     8
100
AcDbVertex
100
AcDb2dVertex
 10
5035.16
 20
2823.08
 30
0.0
  0
VERTEX
  5
7CF
330
7A6
100
AcDbEntity
  8
1
  6
Continuous
 62
     8
100
AcDbVertex
100
AcDb2dVertex
 10
5037.64
 20
2823.409999999999
 30
0.0
  0
VERTEX
  5
7D0
330
7A6
100
AcDbEntity
  8
1
  6
Continuous
 62
     8
100
AcDbVertex
100
AcDb2dVertex
 10
5040.020000000001
 20
2823.91
 30
0.0
  0
VERTEX
  5
7D1
330
7A6
100
AcDbEntity
  8
1
  6
Continuous
 62
     8
100
AcDbVertex
100
AcDb2dVertex
 10
5042.279999999999
 20
2824.57
 30
0.0
  0
VERTEX
  5
7D2
330
7A6
100
AcDbEntity
  8
1
  6
Continuous
 62
     8
100
AcDbVertex
100
AcDb2dVertex
 10
5044.36
 20
2825.38
 30
0.0
  0
VERTEX
  5
7D3
330
7A6
100
AcDbEntity
  8
1
  6
Continuous
 62
     8
100
AcDbVertex
100
AcDb2dVertex
 10
5046.25
 20
2826.32
 30
0.0
  0
VERTEX
  5
7D4
330
7A6
100
AcDbEntity
  8
1
  6
Continuous
 62
     8
100
AcDbVertex
100
AcDb2dVertex
 10
5047.9
 20
2827.389999999999
 30
0.0
  0
VERTEX
  5
7D5
330
7A6
100
AcDbEntity
  8
1
  6
Continuous
 62
     8
100
AcDbVertex
100
AcDb2dVertex
 10
5049.310000000001
 20
2828.57
 30
0.0
  0
VERTEX
  5
7D6
330
7A6
100
AcDbEntity
  8
1
  6
Continuous
 62
     8
100
AcDbVertex
100
AcDb2dVertex
 10
5050.43
 20
2829.83
 30
0.0
  0
VERTEX
  5
7D7
330
7A6
100
AcDbEntity
  8
1
  6
Continuous
 62
     8
100
AcDbVertex
100
AcDb2dVertex
 10
5051.26
 20
2831.15
 30
0.0
  0
VERTEX
  5
7D8
330
7A6
100
AcDbEntity
  8
1
  6
Continuous
 62
     8
100
AcDbVertex
100
AcDb2dVertex
 10
5051.78
 20
2832.53
 30
0.0
  0
VERTEX
  5
7D9
330
7A6
100
AcDbEntity
  8
1
  6
Continuous
 62
     8
100
AcDbVertex
100
AcDb2dVertex
 10
5051.95
 20
2834.12
 30
0.0
  0
SEQEND
  5
7DA
330
7A6
100
AcDbEntity
  8
1
 62
     8
  0
POINT
  5
7DB
330
19
100
AcDbEntity
  8
1
 62
     8
100
AcDbPoint
 10
5069.37
 20
2845.32
 30
0.0
  0
POINT
  5
7DC
330
19
100
AcDbEntity
  8
1
 62
     8
100
AcDbPoint
 10
4850.54
 20
1795.32
 30
0.0
  0
LINE
  5
7DD
330
19
100
AcDbEntity
  8
1
  6
DASHDOT
 62
     8
100
AcDbLine
 10
4850.54
 20
2943.82
 30
0.0
 11
4850.54
 21
1746.809999999999
 31
0.0
  0
ARC
  5
7DE
330
19
100
AcDbEntity
  8
1
  6
Continuous
 62
     8
100
AcDbCircle
 10
4650.54
 20
2285.469999999999
 30
0.0
 40
10.0
100
AcDbArc
 50
90.0
 51
270.0
  0
LINE
  5
7DF
330
19
100
AcDbEntity
  8
1
  6
Continuous
 62
     8
100
AcDbLine
 10
4709.61
 20
2757.13
 30
0.0
 11
4662.35
 21
2819.1
 31
0.0
  0
LINE
  5
7E0
330
19
100
AcDbEntity
  8
1
  6
Continuous
 62
     8
100
AcDbLine
 10
4896.460000000001
 20
1622.43
 30
0.0
 11
4943.72
 21
1684.4
 31
0.0
  0
LINE
  5
7E1
330
19
100
AcDbEntity
  8
1
  6
Continuous
 62
     8
100
AcDbLine
 10
4915.420000000001
 20
1607.72
 30
0.0
 11
4959.53
 21
1665.07
 31
0.0
  0
LWPOLYLINE
  5
7E2
330
19
100
AcDbEntity
  8
1
  6
Continuous
 62
     8
100
AcDbPolyline
 90
        5
 70
     0
 43
0.0
 10
4655.54
 20
1333.0
 10
4655.54
 20
1323.0
 10
4855.54
 20
1323.0
 10
4855.54
 20
1333.0
 10
4655.54
 20
1333.0
  0
LINE
  5
7E9
330
19
100
AcDbEntity
  8
1
  6
Continuous
 62
     8
100
AcDbLine
 10
4855.54
 20
1323.0
 30
0.0
 11
4814.0
 21
975.421
 31
0.0
  0
LINE
  5
7EA
330
19
100
AcDbEntity
  8
1
  6
Continuous
 62
     8
100
AcDbLine
 10
4655.54
 20
1323.0
 30
0.0
 11
4697.07
 21
975.421
 31
0.0
  0
ARC
  5
7EB
330
19
100
AcDbEntity
  8
1
  6
Continuous
 62
     8
100
AcDbCircle
 10
4700.54
 20
1470.42
 30
0.0
 40
25.0
100
AcDbArc
 50
90.0
 51
180.0
  0
LWPOLYLINE
  5
7EC
330
19
100
AcDbEntity
  8
1
  6
Continuous
 62
     8
100
AcDbPolyline
 90
        6
 70
     0
 43
0.0
 10
4675.54
 20
1470.42
 10
4675.54
 20
1451.85
 10
4740.54
 20
1425.42
 10
4770.539999999999
 20
1425.42
 10
4835.54
 20
1451.85
 10
4835.54
 20
1470.42
  0
LINE
  5
7F4
330
19
100
AcDbEntity
  8
1
  6
Continuous
 62
     8
100
AcDbLine
 10
4810.54
 20
1495.42
 30
0.0
 11
4700.54
 21
1495.42
 31
0.0
  0
ARC
  5
7F5
330
19
100
AcDbEntity
  8
1
  6
Continuous
 62
     8
100
AcDbCircle
 10
4810.54
 20
1470.42
 30
0.0
 40
25.0
100
AcDbArc
 50
0.0
 51
90.0
  0
ARC
  5
7F6
330
19
100
AcDbEntity
  8
1
  6
Continuous
 62
     8
100
AcDbCircle
 10
4664.0
 20
1251.12
 30
0.0
 40
150.0
100
AcDbArc
 50
0.0
 51
28.41829999999999
  0
LINE
  5
7F7
330
19
100
AcDbEntity
  8
1
  6
Continuous
 62
     8
100
AcDbLine
 10
4814.0
 20
975.421
 30
0.0
 11
4814.0
 21
1251.12
 31
0.0
  0
ARC
  5
7F8
330
19
100
AcDbEntity
  8
1
  6
Continuous
 62
     8
100
AcDbCircle
 10
4674.0
 20
1253.65
 30
0.0
 40
126.0
100
AcDbArc
 50
0.0
 51
28.41829999999999
  0
LINE
  5
7F9
330
19
100
AcDbEntity
  8
1
  6
Continuous
 62
     8
100
AcDbLine
 10
4800.0
 20
1253.65
 30
0.0
 11
4800.0
 21
975.421
 31
0.0
  0
ARC
  5
7FA
330
19
100
AcDbEntity
  8
1
  6
Continuous
 62
     8
100
AcDbCircle
 10
4847.07
 20
1251.12
 30
0.0
 40
150.0
100
AcDbArc
 50
151.581
 51
180.0
  0
LINE
  5
7FB
330
19
100
AcDbEntity
  8
1
  6
Continuous
 62
     8
100
AcDbLine
 10
4697.07
 20
975.421
 30
0.0
 11
4697.07
 21
1251.12
 31
0.0
  0
ARC
  5
7FC
330
19
100
AcDbEntity
  8
1
  6
Continuous
 62
     8
100
AcDbCircle
 10
4837.07
 20
1253.65
 30
0.0
 40
126.0
100
AcDbArc
 50
151.581
 51
180.0
  0
LINE
  5
7FD
330
19
100
AcDbEntity
  8
1
  6
Continuous
 62
     8
100
AcDbLine
 10
4711.07
 20
1253.65
 30
0.0
 11
4711.07
 21
975.421
 31
0.0
  0
ARC
  5
7FE
330
19
100
AcDbEntity
  8
1
  6
Continuous
 62
     8
100
AcDbCircle
 10
4755.539999999999
 20
1267.5
 30
0.0
 40
25.89059999999999
100
AcDbArc
 50
0.0
 51
180.0
  0
LINE
  5
7FF
330
19
100
AcDbEntity
  8
1
  6
Continuous
 62
     8
100
AcDbLine
 10
4781.43
 20
1267.5
 30
0.0
 11
4781.43
 21
991.3110000000001
 31
0.0
  0
LINE
  5
800
330
19
100
AcDbEntity
  8
1
  6
Continuous
 62
     8
100
AcDbLine
 10
4729.64
 20
1267.5
 30
0.0
 11
4729.64
 21
991.3110000000001
 31
0.0
  0
LWPOLYLINE
  5
801
330
19
100
AcDbEntity
  8
1
  6
Continuous
 62
     8
100
AcDbPolyline
 90
        4
 70
     0
 43
0.0
 10
4743.54
 20
1495.42
 10
4743.54
 20
1623.859999999999
 10
4767.54
 20
1623.859999999999
 10
4767.54
 20
1495.68
  0
LINE
  5
807
330
19
100
AcDbEntity
  8
1
  6
Continuous
 62
     8
100
AcDbLine
 10
4875.79
 20
1588.2
 30
0.0
 11
4767.54
 21
1588.2
 31
0.0
  0
LINE
  5
808
330
19
100
AcDbEntity
  8
1
  6
Continuous
 62
     8
100
AcDbLine
 10
4767.54
 20
1612.2
 30
0.0
 11
4875.79
 21
1612.2
 31
0.0
  0
ARC
  5
809
330
19
100
AcDbEntity
  8
1
  6
Continuous
 62
     8
100
AcDbCircle
 10
4875.79
 20
1638.2
 30
0.0
 40
50.0
100
AcDbArc
 50
270.0
 51
322.434
  0
ARC
  5
80A
330
19
100
AcDbEntity
  8
1
  6
Continuous
 62
     8
100
AcDbCircle
 10
4875.79
 20
1638.2
 30
0.0
 40
26.0
100
AcDbArc
 50
270.0
 51
322.665
  0
LINE
  5
80B
330
19
100
AcDbEntity
  8
1
  6
Continuous
 62
     8
100
AcDbLine
 10
4635.279999999999
 20
1588.2
 30
0.0
 11
4743.54
 21
1588.2
 31
0.0
  0
LINE
  5
80C
330
19
100
AcDbEntity
  8
1
  6
Continuous
 62
     8
100
AcDbLine
 10
4743.54
 20
1612.2
 30
0.0
 11
4635.279999999999
 21
1612.2
 31
0.0
  0
LINE
  5
80D
330
19
100
AcDbEntity
  8
1
  6
Continuous
 62
     8
100
AcDbLine
 10
4595.65
 20
1607.72
 30
0.0
 11
4551.54
 21
1665.07
 31
0.0
  0
LINE
  5
80E
330
19
100
AcDbEntity
  8
1
  6
Continuous
 62
     8
100
AcDbLine
 10
4614.609999999999
 20
1622.43
 30
0.0
 11
4567.35
 21
1684.4
 31
0.0
  0
ARC
  5
80F
330
19
100
AcDbEntity
  8
1
  6
Continuous
 62
     8
100
AcDbCircle
 10
4635.279999999999
 20
1638.2
 30
0.0
 40
50.0
100
AcDbArc
 50
217.565
 51
270.0
  0
ARC
  5
810
330
19
100
AcDbEntity
  8
1
  6
Continuous
 62
     8
100
AcDbCircle
 10
4635.279999999999
 20
1638.2
 30
0.0
 40
26.0
100
AcDbArc
 50
217.334
 51
270.0
  0
ARC
  5
811
330
19
100
AcDbEntity
  8
1
  6
Continuous
 62
     8
100
AcDbCircle
 10
4555.539999999999
 20
1150.77
 30
0.0
 40
10.0
100
AcDbArc
 50
90.0
 51
270.0
  0
LWPOLYLINE
  5
812
330
19
100
AcDbEntity
  8
1
  6
Continuous
 62
     8
100
AcDbPolyline
 90
        5
 70
     0
 43
0.0
 10
4660.54
 20
1160.77
 10
4555.539999999999
 20
1160.77
 10
4555.539999999999
 20
1140.77
 10
4660.54
 20
1140.77
 10
4660.54
 20
1160.77
  0
LINE
  5
819
330
19
100
AcDbEntity
  8
1
  6
Continuous
 62
     8
100
AcDbLine
 10
4660.54
 20
1157.769999999999
 30
0.0
 11
4667.810000000001
 21
1157.769999999999
 31
0.0
  0
LINE
  5
81A
330
19
100
AcDbEntity
  8
1
  6
Continuous
 62
     8
100
AcDbLine
 10
4660.54
 20
1143.769999999999
 30
0.0
 11
4667.810000000001
 21
1143.769999999999
 31
0.0
  0
LWPOLYLINE
  5
81B
330
19
100
AcDbEntity
  8
1
  6
Continuous
 62
     8
100
AcDbPolyline
 90
        5
 70
     0
 43
0.0
 10
4796.19
 20
1005.419999999999
 10
4784.89
 20
1005.419999999999
 10
4784.89
 20
925.421
 10
4796.19
 20
925.421
 10
4796.19
 20
1005.419999999999
  0
LWPOLYLINE
  5
822
330
19
100
AcDbEntity
  8
1
  6
Continuous
 62
     8
100
AcDbPolyline
 90
        5
 70
     0
 43
0.0
 10
4729.34
 20
1005.419999999999
 10
4712.87
 20
1005.419999999999
 10
4712.87
 20
925.421
 10
4729.34
 20
925.421
 10
4729.34
 20
1005.419999999999
  0
LWPOLYLINE
  5
829
330
19
100
AcDbEntity
  8
1
  6
Continuous
 62
     8
100
AcDbPolyline
 90
        4
 70
     0
 43
0.0
 10
4796.19
 20
975.421
 10
4825.54
 20
975.421
 10
4825.54
 20
955.4210000000001
 10
4796.19
 20
955.4210000000001
  0
LWPOLYLINE
  5
82F
330
19
100
AcDbEntity
  8
1
  6
Continuous
 62
     8
100
AcDbPolyline
 90
        4
 70
     0
 43
0.0
 10
4712.87
 20
975.421
 10
4685.54
 20
975.421
 10
4685.54
 20
955.4210000000001
 10
4712.87
 20
955.4210000000001
  0
ARC
  5
835
330
19
100
AcDbEntity
  8
1
  6
Continuous
 62
     8
100
AcDbCircle
 10
4755.539999999999
 20
991.3110000000001
 30
0.0
 40
25.89059999999999
100
AcDbArc
 50
180.0
 51
0.0
  0
LINE
  5
836
330
19
100
AcDbEntity
  8
1
  6
Continuous
 62
     8
100
AcDbLine
 10
4770.539999999999
 20
675.6210000000001
 30
0.0
 11
4770.539999999999
 21
970.209
 31
0.0
  0
LINE
  5
837
330
19
100
AcDbEntity
  8
1
  6
Continuous
 62
     8
100
AcDbLine
 10
4740.54
 20
970.209
 30
0.0
 11
4740.54
 21
675.6210000000001
 31
0.0
  0
LWPOLYLINE
  5
838
330
19
100
AcDbEntity
  8
1
  6
Continuous
 62
     8
100
AcDbPolyline
 90
        5
 70
     0
 43
0.0
 10
4850.54
 20
770.07
 10
4955.54
 20
770.07
 10
4955.54
 20
790.07
 10
4850.54
 20
790.07
 10
4850.54
 20
770.07
  0
LWPOLYLINE
  5
83F
330
19
100
AcDbEntity
  8
1
  6
Continuous
 62
     8
100
AcDbPolyline
 90
        5
 70
     0
 43
0.0
 10
4831.67
 20
770.07
 10
4843.26
 20
770.07
 10
4843.26
 20
980.962
 10
4831.67
 20
980.962
 10
4831.67
 20
770.07
  0
LINE
  5
846
330
19
100
AcDbEntity
  8
1
  6
Continuous
 62
     8
100
AcDbLine
 10
4850.54
 20
773.07
 30
0.0
 11
4843.26
 21
773.07
 31
0.0
  0
LINE
  5
847
330
19
100
AcDbEntity
  8
1
  6
Continuous
 62
     8
100
AcDbLine
 10
4850.54
 20
787.07
 30
0.0
 11
4843.26
 21
787.07
 31
0.0
  0
ARC
  5
848
330
19
100
AcDbEntity
  8
1
  6
Continuous
 62
     8
100
AcDbCircle
 10
4955.54
 20
780.07
 30
0.0
 40
10.0
100
AcDbArc
 50
270.0
 51
90.0
  0
ARC
  5
849
330
19
100
AcDbEntity
  8
1
  6
Continuous
 62
     8
100
AcDbCircle
 10
4755.539999999999
 20
675.6210000000001
 30
0.0
 40
15.0
100
AcDbArc
 50
180.0
 51
270.0
  0
ARC
  5
84A
330
19
100
AcDbEntity
  8
1
  6
Continuous
 62
     8
100
AcDbCircle
 10
4755.539999999999
 20
675.6210000000001
 30
0.0
 40
15.0
100
AcDbArc
 50
270.0
 51
0.0
  0
POINT
  5
84B
330
19
100
AcDbEntity
  8
1
 62
     8
100
AcDbPoint
 10
4755.539999999999
 20
660.621
 30
0.0
  0
LINE
  5
84C
330
19
100
AcDbEntity
  8
1
  6
DASHDOT
 62
     8
100
AcDbLine
 10
4755.539999999999
 20
1669.229999999999
 30
0.0
 11
4755.539999999999
 21
612.115
 31
0.0
  0
POINT
  5
84D
330
19
100
AcDbEntity
  8
1
 62
     8
100
AcDbPoint
 10
1892.66
 20
1795.32
 30
0.0
  0
POINT
  5
84E
330
19
100
AcDbEntity
  8
1
 62
     8
100
AcDbPoint
 10
862.6649999999999
 20
1795.32
 30
0.0
  0
CIRCLE
  5
84F
330
19
100
AcDbEntity
  8
1
  6
Continuous
 62
     8
100
AcDbCircle
 10
1452.66
 20
2065.119999999999
 30
0.0
 40
12.5
  0
CIRCLE
  5
850
330
19
100
AcDbEntity
  8
1
  6
Continuous
 62
     8
100
AcDbCircle
 10
1397.94
 20
1914.77
 30
0.0
 40
8.0
  0
LWPOLYLINE
  5
851
330
19
100
AcDbEntity
  8
1
  6
Continuous
 62
     8
100
AcDbPolyline
 90
        5
 70
     0
 43
0.0
 10
1432.94
 20
1924.77
 10
1432.94
 20
1904.77
 10
1362.94
 20
1904.77
 10
1362.94
 20
1924.77
 10
1432.94
 20
1924.77
  0
LINE
  5
858
330
19
100
AcDbEntity
  8
1
  6
Continuous
 62
     8
100
AcDbLine
 10
1440.8
 20
2069.059999999999
 30
0.0
 11
1392.83
 21
1924.77
 31
0.0
  0
LINE
  5
859
330
19
100
AcDbEntity
  8
1
  6
Continuous
 62
     8
100
AcDbLine
 10
1410.5
 20
1924.77
 30
0.0
 11
1464.28
 21
2060.51
 31
0.0
  0
ARC
  5
85A
330
19
100
AcDbEntity
  8
1
  6
Continuous
 62
     8
100
AcDbCircle
 10
1452.66
 20
2065.119999999999
 30
0.0
 40
90.0
100
AcDbArc
 50
256.3709999999999
 51
243.628
  0
LINE
  5
85B
330
19
100
AcDbEntity
  8
1
  6
Continuous
 62
     8
100
AcDbLine
 10
1626.9
 20
2491.22
 30
0.0
 11
1593.08
 21
2503.53
 31
0.0
  0
LINE
  5
85C
330
19
100
AcDbEntity
  8
1
  6
Continuous
 62
     8
100
AcDbLine
 10
1474.369999999999
 20
2177.389999999999
 30
0.0
 11
1593.08
 21
2503.53
 31
0.0
  0
LINE
  5
85D
330
19
100
AcDbEntity
  8
1
  6
Continuous
 62
     8
100
AcDbLine
 10
1512.03
 20
2175.59
 30
0.0
 11
1626.9
 21
2491.22
 31
0.0
  0
CIRCLE
  5
85E
330
19
100
AcDbEntity
  8
1
  6
Continuous
 62
     8
100
AcDbCircle
 10
1631.8
 20
2478.41
 30
0.0
 40
7.0
  0
LWPOLYLINE
  5
85F
330
19
100
AcDbEntity
  8
1
  6
Continuous
 62
     8
100
AcDbPolyline
 90
        5
 70
     0
 43
0.0
 10
1118.12
 20
2592.43
 10
1084.3
 20
2604.75
 10
1025.349999999999
 20
2442.79
 10
1059.18
 20
2430.48
 10
1118.12
 20
2592.43
  0
CIRCLE
  5
866
330
19
100
AcDbEntity
  8
1
  6
Continuous
 62
     8
100
AcDbCircle
 10
862.6649999999999
 20
2100.119999999999
 30
0.0
 40
7.0
  0
LINE
  5
867
330
19
100
AcDbEntity
  8
1
  6
Continuous
 62
     8
100
AcDbLine
 10
975.7319999999999
 20
2284.149999999999
 30
0.0
 11
1027.05
 21
2441.59
 31
0.0
  0
ARC
  5
868
330
19
100
AcDbEntity
  8
1
  6
Continuous
 62
     8
100
AcDbCircle
 10
595.4279999999999
 20
2408.12
 30
0.0
 40
400.0
100
AcDbArc
 50
314.4859999999999
 51
341.944
  0
LINE
  5
869
330
19
100
AcDbEntity
  8
1
  6
Continuous
 62
     8
100
AcDbLine
 10
857.76
 20
2105.11
 30
0.0
 11
875.726
 21
2122.76
 31
0.0
  0
LINE
  5
86A
330
19
100
AcDbEntity
  8
1
  6
Continuous
 62
     8
100
AcDbLine
 10
1057.099999999999
 20
2430.649999999999
 30
0.0
 11
989.794
 21
2263.58
 31
0.0
  0
ARC
  5
86B
330
19
100
AcDbEntity
  8
1
  6
Continuous
 62
     8
100
AcDbCircle
 10
605.7909999999999
 20
2418.3
 30
0.0
 40
414.0
100
AcDbArc
 50
314.4859999999999
 51
338.0549999999999
  0
LINE
  5
86C
330
19
100
AcDbEntity
  8
1
  6
Continuous
 62
     8
100
AcDbLine
 10
895.8999999999999
 20
2122.949999999999
 30
0.0
 11
867.57
 21
2095.12
 31
0.0
  0
LINE
  5
86D
330
19
100
AcDbEntity
  8
1
  6
Continuous
 62
     8
100
AcDbLine
 10
1065.39
 20
2447.55
 30
0.0
 11
1360.37
 21
2130.64
 31
0.0
  0
LINE
  5
86E
330
19
100
AcDbEntity
  8
1
  6
Continuous
 62
     8
100
AcDbLine
 10
1380.83
 20
2152.579999999999
 30
0.0
 11
1076.54
 21
2478.17
 31
0.0
  0
LINE
  5
86F
330
19
100
AcDbEntity
  8
1
  6
Continuous
 62
     8
100
AcDbLine
 10
1504.33
 20
2259.71
 30
0.0
 11
1109.32
 21
2568.239999999999
 31
0.0
  0
LINE
  5
870
330
19
100
AcDbEntity
  8
1
  6
Continuous
 62
     8
100
AcDbLine
 10
1098.7
 20
2539.05
 30
0.0
 11
1493.71
 21
2230.519999999999
 31
0.0
  0
LINE
  5
871
330
19
100
AcDbEntity
  8
1
  6
Continuous
 62
     8
100
AcDbLine
 10
874.0859999999999
 20
2100.119999999999
 30
0.0
 11
1132.66
 21
2100.119999999999
 31
0.0
  0
LINE
  5
872
330
19
100
AcDbEntity
  8
1
  6
Continuous
 62
     8
100
AcDbLine
 10
873.3969999999999
 20
2096.21
 30
0.0
 11
1116.38
 21
2007.77
 31
0.0
  0
LINE
  5
873
330
19
100
AcDbEntity
  8
1
  6
Continuous
 62
     8
100
AcDbLine
 10
851.2439999999999
 20
2100.119999999999
 30
0.0
 11
592.6649999999999
 21
2100.119999999999
 31
0.0
  0
LINE
  5
874
330
19
100
AcDbEntity
  8
1
  6
Continuous
 62
     8
100
AcDbLine
 10
851.933
 20
2104.019999999999
 30
0.0
 11
608.948
 21
2192.46
 31
0.0
  0
LINE
  5
875
330
19
100
AcDbEntity
  8
1
  6
Continuous
 62
     8
100
AcDbLine
 10
853.916
 20
2107.46
 30
0.0
 11
655.833
 21
2273.67
 31
0.0
  0
LINE
  5
876
330
19
100
AcDbEntity
  8
1
  6
Continuous
 62
     8
100
AcDbLine
 10
856.9550000000001
 20
2110.01
 30
0.0
 11
727.665
 21
2333.94
 31
0.0
  0
LINE
  5
877
330
19
100
AcDbEntity
  8
1
  6
Continuous
 62
     8
100
AcDbLine
 10
860.682
 20
2111.36
 30
0.0
 11
815.7799999999999
 21
2366.01
 31
0.0
  0
LINE
  5
878
330
19
100
AcDbEntity
  8
1
  6
Continuous
 62
     8
100
AcDbLine
 10
864.648
 20
2111.36
 30
0.0
 11
909.5499999999999
 21
2366.01
 31
0.0
  0
LINE
  5
879
330
19
100
AcDbEntity
  8
1
  6
Continuous
 62
     8
100
AcDbLine
 10
1458.06
 20
2178.17
 30
0.0
 11
1849.859999999999
 21
2159.47
 31
0.0
  0
LINE
  5
87A
330
19
100
AcDbEntity
  8
1
  6
Continuous
 62
     8
100
AcDbLine
 10
1820.24
 20
2160.889999999999
 30
0.0
 11
1685.83
 21
2273.67
 31
0.0
  0
LINE
  5
87B
330
19
100
AcDbEntity
  8
1
  6
Continuous
 62
     8
100
AcDbLine
 10
1854.25
 20
2033.58
 30
0.0
 11
1757.66
 21
1866.29
 31
0.0
  0
LINE
  5
87C
330
19
100
AcDbEntity
  8
1
  6
Continuous
 62
     8
100
AcDbLine
 10
1799.77
 20
2022.17
 30
0.0
 11
1685.83
 21
1926.56
 31
0.0
  0
LINE
  5
87D
330
19
100
AcDbEntity
  8
1
  6
Continuous
 62
     8
100
AcDbLine
 10
1820.94
 20
2224.33
 30
0.0
 11
1757.66
 21
2333.94
 31
0.0
  0
ARC
  5
87E
330
19
100
AcDbEntity
  8
1
  6
Continuous
 62
     8
100
AcDbCircle
 10
1452.66
 20
2065.119999999999
 30
0.0
 40
113.182
100
AcDbArc
 50
254.7289999999999
 51
281.8279999999999
  0
ARC
  5
87F
330
19
100
AcDbEntity
  8
1
  6
Continuous
 62
     8
100
AcDbCircle
 10
1452.66
 20
2065.119999999999
 30
0.0
 40
113.182
100
AcDbArc
 50
87.26779999999999
 51
245.27
  0
LINE
  5
880
330
19
100
AcDbEntity
  8
1
  6
Continuous
 62
     8
100
AcDbLine
 10
878.5349999999999
 20
2105.89
 30
0.0
 11
1116.38
 21
2192.46
 31
0.0
  0
LINE
  5
881
330
19
100
AcDbEntity
  8
1
  6
Continuous
 62
     8
100
AcDbLine
 10
918.424
 20
2146.9
 30
0.0
 11
1069.49
 21
2273.67
 31
0.0
  0
LINE
  5
882
330
19
100
AcDbEntity
  8
1
  6
Continuous
 62
     8
100
AcDbLine
 10
875.7339999999999
 20
2122.749999999999
 30
0.0
 11
984.57
 21
2311.26
 31
0.0
  0
LWPOLYLINE
  5
883
330
19
100
AcDbEntity
  8
1
  6
Continuous
 62
     8
100
AcDbPolyline
 90
        6
 70
     0
 43
0.0
 10
991.8049999999999
 20
2445.32
 10
1064.619999999999
 20
2690.07
 10
940.633
 20
2745.32
 10
814.179
 20
2745.32
 10
815.633
 20
2445.32
 10
991.8049999999999
 20
2445.32
  0
ARC
  5
88B
330
19
100
AcDbEntity
  8
1
  6
Continuous
 62
     8
100
AcDbCircle
 10
764.363
 20
2453.5
 30
0.0
 40
32.75679999999999
100
AcDbArc
 50
257.6929999999999
 51
103.471
  0
LINE
  5
88C
330
19
100
AcDbEntity
  8
1
  6
Continuous
 62
     8
100
AcDbLine
 10
756.731
 20
2485.35
 30
0.0
 11
756.731
 21
2421.49
 31
0.0
  0
ARC
  5
88D
330
19
100
AcDbEntity
  8
1
  6
Continuous
 62
     8
100
AcDbCircle
 10
862.6649999999999
 20
2100.119999999999
 30
0.0
 40
327.97
100
AcDbArc
 50
63.0942
 51
107.875
  0
ARC
  5
88E
330
19
100
AcDbEntity
  8
1
  6
Continuous
 62
     8
100
AcDbCircle
 10
862.6649999999999
 20
2100.119999999999
 30
0.0
 40
327.97
100
AcDbArc
 50
343.776
 51
58.077
  0
ARC
  5
88F
330
19
100
AcDbEntity
  8
1
  6
Continuous
 62
     8
100
AcDbCircle
 10
1892.66
 20
2100.119999999999
 30
0.0
 40
304.8
100
AcDbArc
 50
125.4939999999999
 51
166.4419999999999
  0
ARC
  5
890
330
19
100
AcDbEntity
  8
1
  6
Continuous
 62
     8
100
AcDbCircle
 10
1892.66
 20
2100.119999999999
 30
0.0
 40
270.0
100
AcDbArc
 50
125.506
 51
165.0259999999999
  0
LWPOLYLINE
  5
891
330
19
100
AcDbEntity
  8
1
  6
Continuous
 62
     8
100
AcDbPolyline
 90
        3
 70
     0
 43
0.0
 10
2081.72
 20
2467.7
 10
1762.55
 20
2467.7
 10
1687.54
 20
2412.05
  0
LINE
  5
896
330
19
100
AcDbEntity
  8
1
  6
Continuous
 62
     8
100
AcDbLine
 10
2081.72
 20
2457.699999999999
 30
0.0
 11
1765.859999999999
 21
2457.699999999999
 31
0.0
  0
LINE
  5
897
330
19
100
AcDbEntity
  8
1
  6
Continuous
 62
     8
100
AcDbLine
 10
1765.859999999999
 20
2457.699999999999
 30
0.0
 11
1693.5
 21
2404.02
 31
0.0
  0
LINE
  5
898
330
19
100
AcDbEntity
  8
1
  6
Continuous
 62
     8
100
AcDbLine
 10
2081.72
 20
2457.699999999999
 30
0.0
 11
2081.72
 21
2467.7
 31
0.0
  0
LWPOLYLINE
  5
899
330
19
100
AcDbEntity
  8
1
  6
Continuous
 62
     8
100
AcDbPolyline
 90
        3
 70
     0
 43
0.0
 10
2162.84
 20
2286.05
 10
2165.389999999999
 20
2344.679999999999
 10
2134.17
 20
2322.01
  0
LWPOLYLINE
  5
89E
330
19
100
AcDbEntity
  8
1
  6
Continuous
 62
     8
100
AcDbPolyline
 90
        4
 70
     0
 43
0.0
 10
1177.57
 20
2008.49
 10
1157.819999999999
 20
1934.079999999999
 10
1183.49
 20
1934.079999999999
 10
1177.57
 20
2008.49
  0
LINE
  5
8A4
330
19
100
AcDbEntity
  8
1
  6
Continuous
 62
     8
100
AcDbLine
 10
1114.509999999999
 20
2721.74
 30
0.0
 11
1131.07
 21
2715.72
 31
0.0
  0
LINE
  5
8A5
330
19
100
AcDbEntity
  8
1
  6
Continuous
 62
     8
100
AcDbLine
 10
1089.93
 20
2602.69
 30
0.0
 11
1131.07
 21
2715.72
 31
0.0
  0
LINE
  5
8A6
330
19
100
AcDbEntity
  8
1
  6
Continuous
 62
     8
100
AcDbLine
 10
1112.489999999999
 20
2594.48
 30
0.0
 11
1163.2
 21
2733.82
 31
0.0
  0
POLYLINE
  5
8A7
330
19
100
AcDbEntity
  8
1
  6
Continuous
 62
     8
100
AcDb2dPolyline
 66
     1
 10
0.0
 20
0.0
 30
0.0
 70
     2
  0
VERTEX
  5
8A8
330
8A7
100
AcDbEntity
  8
1
  6
Continuous
 62
     8
100
AcDbVertex
100
AcDb2dVertex
 10
1140.009999999999
 20
2834.12
 30
0.0
  0
VERTEX
  5
8A9
330
8A7
100
AcDbEntity
  8
1
  6
Continuous
 62
     8
100
AcDbVertex
100
AcDb2dVertex
 10
1140.17
 20
2835.52
 30
0.0
  0
VERTEX
  5
8AA
330
8A7
100
AcDbEntity
  8
1
  6
Continuous
 62
     8
100
AcDbVertex
100
AcDb2dVertex
 10
1140.65
 20
2836.899999999999
 30
0.0
  0
VERTEX
  5
8AB
330
8A7
100
AcDbEntity
  8
1
  6
Continuous
 62
     8
100
AcDbVertex
100
AcDb2dVertex
 10
1141.43
 20
2838.23
 30
0.0
  0
VERTEX
  5
8AC
330
8A7
100
AcDbEntity
  8
1
  6
Continuous
 62
     8
100
AcDbVertex
100
AcDb2dVertex
 10
1142.519999999999
 20
2839.5
 30
0.0
  0
VERTEX
  5
8AD
330
8A7
100
AcDbEntity
  8
1
  6
Continuous
 62
     8
100
AcDbVertex
100
AcDb2dVertex
 10
1143.88
 20
2840.69
 30
0.0
  0
VERTEX
  5
8AE
330
8A7
100
AcDbEntity
  8
1
  6
Continuous
 62
     8
100
AcDbVertex
100
AcDb2dVertex
 10
1145.499999999999
 20
2841.77
 30
0.0
  0
VERTEX
  5
8AF
330
8A7
100
AcDbEntity
  8
1
  6
Continuous
 62
     8
100
AcDbVertex
100
AcDb2dVertex
 10
1147.35
 20
2842.73
 30
0.0
  0
VERTEX
  5
8B0
330
8A7
100
AcDbEntity
  8
1
  6
Continuous
 62
     8
100
AcDbVertex
100
AcDb2dVertex
 10
1149.41
 20
2843.56
 30
0.0
  0
VERTEX
  5
8B1
330
8A7
100
AcDbEntity
  8
1
  6
Continuous
 62
     8
100
AcDbVertex
100
AcDb2dVertex
 10
1151.64
 20
2844.24
 30
0.0
  0
VERTEX
  5
8B2
330
8A7
100
AcDbEntity
  8
1
  6
Continuous
 62
     8
100
AcDbVertex
100
AcDb2dVertex
 10
1154.01
 20
2844.76
 30
0.0
  0
VERTEX
  5
8B3
330
8A7
100
AcDbEntity
  8
1
  6
Continuous
 62
     8
100
AcDbVertex
100
AcDb2dVertex
 10
1156.47
 20
2845.11
 30
0.0
  0
VERTEX
  5
8B4
330
8A7
100
AcDbEntity
  8
1
  6
Continuous
 62
     8
100
AcDbVertex
100
AcDb2dVertex
 10
1159.0
 20
2845.3
 30
0.0
  0
VERTEX
  5
8B5
330
8A7
100
AcDbEntity
  8
1
  6
Continuous
 62
     8
100
AcDbVertex
100
AcDb2dVertex
 10
1161.549999999999
 20
2845.3
 30
0.0
  0
VERTEX
  5
8B6
330
8A7
100
AcDbEntity
  8
1
  6
Continuous
 62
     8
100
AcDbVertex
100
AcDb2dVertex
 10
1164.08
 20
2845.13
 30
0.0
  0
VERTEX
  5
8B7
330
8A7
100
AcDbEntity
  8
1
  6
Continuous
 62
     8
100
AcDbVertex
100
AcDb2dVertex
 10
1166.549999999999
 20
2844.79
 30
0.0
  0
VERTEX
  5
8B8
330
8A7
100
AcDbEntity
  8
1
  6
Continuous
 62
     8
100
AcDbVertex
100
AcDb2dVertex
 10
1168.93
 20
2844.28
 30
0.0
  0
VERTEX
  5
8B9
330
8A7
100
AcDbEntity
  8
1
  6
Continuous
 62
     8
100
AcDbVertex
100
AcDb2dVertex
 10
1171.17
 20
2843.61
 30
0.0
  0
VERTEX
  5
8BA
330
8A7
100
AcDbEntity
  8
1
  6
Continuous
 62
     8
100
AcDbVertex
100
AcDb2dVertex
 10
1173.24
 20
2842.8
 30
0.0
  0
VERTEX
  5
8BB
330
8A7
100
AcDbEntity
  8
1
  6
Continuous
 62
     8
100
AcDbVertex
100
AcDb2dVertex
 10
1175.109999999999
 20
2841.84
 30
0.0
  0
VERTEX
  5
8BC
330
8A7
100
AcDbEntity
  8
1
  6
Continuous
 62
     8
100
AcDbVertex
100
AcDb2dVertex
 10
1176.749999999999
 20
2840.77
 30
0.0
  0
VERTEX
  5
8BD
330
8A7
100
AcDbEntity
  8
1
  6
Continuous
 62
     8
100
AcDbVertex
100
AcDb2dVertex
 10
1178.13
 20
2839.59
 30
0.0
  0
VERTEX
  5
8BE
330
8A7
100
AcDbEntity
  8
1
  6
Continuous
 62
     8
100
AcDbVertex
100
AcDb2dVertex
 10
1179.24
 20
2838.32
 30
0.0
  0
VERTEX
  5
8BF
330
8A7
100
AcDbEntity
  8
1
  6
Continuous
 62
     8
100
AcDbVertex
100
AcDb2dVertex
 10
1180.039999999999
 20
2836.99
 30
0.0
  0
VERTEX
  5
8C0
330
8A7
100
AcDbEntity
  8
1
  6
Continuous
 62
     8
100
AcDbVertex
100
AcDb2dVertex
 10
1180.54
 20
2835.61
 30
0.0
  0
VERTEX
  5
8C1
330
8A7
100
AcDbEntity
  8
1
  6
Continuous
 62
     8
100
AcDbVertex
100
AcDb2dVertex
 10
1180.73
 20
2834.22
 30
0.0
  0
VERTEX
  5
8C2
330
8A7
100
AcDbEntity
  8
1
  6
Continuous
 62
     8
100
AcDbVertex
100
AcDb2dVertex
 10
1180.59
 20
2832.81
 30
0.0
  0
VERTEX
  5
8C3
330
8A7
100
AcDbEntity
  8
1
  6
Continuous
 62
     8
100
AcDbVertex
100
AcDb2dVertex
 10
1180.13
 20
2831.43
 30
0.0
  0
VERTEX
  5
8C4
330
8A7
100
AcDbEntity
  8
1
  6
Continuous
 62
     8
100
AcDbVertex
100
AcDb2dVertex
 10
1179.37
 20
2830.09
 30
0.0
  0
VERTEX
  5
8C5
330
8A7
100
AcDbEntity
  8
1
  6
Continuous
 62
     8
100
AcDbVertex
100
AcDb2dVertex
 10
1178.309999999999
 20
2828.82
 30
0.0
  0
VERTEX
  5
8C6
330
8A7
100
AcDbEntity
  8
1
  6
Continuous
 62
     8
100
AcDbVertex
100
AcDb2dVertex
 10
1176.96
 20
2827.63
 30
0.0
  0
VERTEX
  5
8C7
330
8A7
100
AcDbEntity
  8
1
  6
Continuous
 62
     8
100
AcDbVertex
100
AcDb2dVertex
 10
1175.359999999999
 20
2826.53
 30
0.0
  0
VERTEX
  5
8C8
330
8A7
100
AcDbEntity
  8
1
  6
Continuous
 62
     8
100
AcDbVertex
100
AcDb2dVertex
 10
1173.52
 20
2825.56
 30
0.0
  0
VERTEX
  5
8C9
330
8A7
100
AcDbEntity
  8
1
  6
Continuous
 62
     8
100
AcDbVertex
100
AcDb2dVertex
 10
1171.47
 20
2824.73
 30
0.0
  0
VERTEX
  5
8CA
330
8A7
100
AcDbEntity
  8
1
  6
Continuous
 62
     8
100
AcDbVertex
100
AcDb2dVertex
 10
1169.25
 20
2824.03
 30
0.0
  0
VERTEX
  5
8CB
330
8A7
100
AcDbEntity
  8
1
  6
Continuous
 62
     8
100
AcDbVertex
100
AcDb2dVertex
 10
1166.89
 20
2823.5
 30
0.0
  0
VERTEX
  5
8CC
330
8A7
100
AcDbEntity
  8
1
  6
Continuous
 62
     8
100
AcDbVertex
100
AcDb2dVertex
 10
1164.42
 20
2823.14
 30
0.0
  0
VERTEX
  5
8CD
330
8A7
100
AcDbEntity
  8
1
  6
Continuous
 62
     8
100
AcDbVertex
100
AcDb2dVertex
 10
1161.9
 20
2822.94
 30
0.0
  0
VERTEX
  5
8CE
330
8A7
100
AcDbEntity
  8
1
  6
Continuous
 62
     8
100
AcDbVertex
100
AcDb2dVertex
 10
1159.349999999999
 20
2822.92
 30
0.0
  0
VERTEX
  5
8CF
330
8A7
100
AcDbEntity
  8
1
  6
Continuous
 62
     8
100
AcDbVertex
100
AcDb2dVertex
 10
1156.809999999999
 20
2823.08
 30
0.0
  0
VERTEX
  5
8D0
330
8A7
100
AcDbEntity
  8
1
  6
Continuous
 62
     8
100
AcDbVertex
100
AcDb2dVertex
 10
1154.33
 20
2823.409999999999
 30
0.0
  0
VERTEX
  5
8D1
330
8A7
100
AcDbEntity
  8
1
  6
Continuous
 62
     8
100
AcDbVertex
100
AcDb2dVertex
 10
1151.95
 20
2823.91
 30
0.0
  0
VERTEX
  5
8D2
330
8A7
100
AcDbEntity
  8
1
  6
Continuous
 62
     8
100
AcDbVertex
100
AcDb2dVertex
 10
1149.69
 20
2824.57
 30
0.0
  0
VERTEX
  5
8D3
330
8A7
100
AcDbEntity
  8
1
  6
Continuous
 62
     8
100
AcDbVertex
100
AcDb2dVertex
 10
1147.61
 20
2825.38
 30
0.0
  0
VERTEX
  5
8D4
330
8A7
100
AcDbEntity
  8
1
  6
Continuous
 62
     8
100
AcDbVertex
100
AcDb2dVertex
 10
1145.72
 20
2826.32
 30
0.0
  0
VERTEX
  5
8D5
330
8A7
100
AcDbEntity
  8
1
  6
Continuous
 62
     8
100
AcDbVertex
100
AcDb2dVertex
 10
1144.06
 20
2827.389999999999
 30
0.0
  0
VERTEX
  5
8D6
330
8A7
100
AcDbEntity
  8
1
  6
Continuous
 62
     8
100
AcDbVertex
100
AcDb2dVertex
 10
1142.66
 20
2828.57
 30
0.0
  0
VERTEX
  5
8D7
330
8A7
100
AcDbEntity
  8
1
  6
Continuous
 62
     8
100
AcDbVertex
100
AcDb2dVertex
 10
1141.539999999999
 20
2829.83
 30
0.0
  0
VERTEX
  5
8D8
330
8A7
100
AcDbEntity
  8
1
  6
Continuous
 62
     8
100
AcDbVertex
100
AcDb2dVertex
 10
1140.71
 20
2831.15
 30
0.0
  0
VERTEX
  5
8D9
330
8A7
100
AcDbEntity
  8
1
  6
Continuous
 62
     8
100
AcDbVertex
100
AcDb2dVertex
 10
1140.19
 20
2832.53
 30
0.0
  0
VERTEX
  5
8DA
330
8A7
100
AcDbEntity
  8
1
  6
Continuous
 62
     8
100
AcDbVertex
100
AcDb2dVertex
 10
1140.009999999999
 20
2834.12
 30
0.0
  0
SEQEND
  5
8DB
330
8A7
100
AcDbEntity
  8
1
 62
     8
  0
LINE
  5
8DC
330
19
100
AcDbEntity
  8
1
  6
Continuous
 62
     8
100
AcDbLine
 10
1268.08
 20
2783.38
 30
0.0
 11
1271.6
 21
2807.12
 31
0.0
  0
ARC
  5
8DD
330
19
100
AcDbEntity
  8
1
  6
Continuous
 62
     8
100
AcDbCircle
 10
1152.74
 20
2640.65
 30
0.0
 40
133.8449999999999
100
AcDbArc
 50
41.48950000000001
 51
76.85760000000001
  0
ARC
  5
8DE
330
19
100
AcDbEntity
  8
1
  6
Continuous
 62
     8
100
AcDbCircle
 10
1152.74
 20
2640.65
 30
0.0
 40
138.8039999999999
100
AcDbArc
 50
41.7037
 51
77.1233
  0
LWPOLYLINE
  5
8DF
330
19
100
AcDbEntity
  8
1
  6
Continuous
 62
     8
100
AcDbPolyline
 90
        4
 70
     0
 43
0.0
 10
1190.09
 20
2819.2
 10
1182.52
 20
2768.2
 10
1160.15
 20
2771.52
 10
1167.71
 20
2822.52
  0
CIRCLE
  5
8E5
330
19
100
AcDbEntity
  8
1
  6
Continuous
 62
     8
100
AcDbCircle
 10
1257.45
 20
2728.62
 30
0.0
 40
4.50255
  0
LINE
  5
8E6
330
19
100
AcDbEntity
  8
1
  6
Continuous
 62
     8
100
AcDbLine
 10
1163.2
 20
2733.82
 30
0.0
 11
1133.299999999999
 21
2744.699999999999
 31
0.0
  0
CIRCLE
  5
8E7
330
19
100
AcDbEntity
  8
1
  6
Continuous
 62
     8
100
AcDbCircle
 10
1119.299999999999
 20
2734.9
 30
0.0
 40
12.0
  0
ARC
  5
8E8
330
19
100
AcDbEntity
  8
1
  6
Continuous
 62
     8
100
AcDbCircle
 10
1119.299999999999
 20
2734.9
 30
0.0
 40
14.0
100
AcDbArc
 50
148.997
 51
31.0027
  0
LINE
  5
8E9
330
19
100
AcDbEntity
  8
1
  6
Continuous
 62
     8
100
AcDbLine
 10
1271.6
 20
2807.12
 30
0.0
 11
1162.34
 21
2823.32
 31
0.0
  0
ARC
  5
8EA
330
19
100
AcDbEntity
  8
1
  6
Continuous
 62
     8
100
AcDbCircle
 10
1155.299999999999
 20
2775.84
 30
0.0
 40
48.0
100
AcDbArc
 50
81.5647
 51
180.0
  0
LINE
  5
8EB
330
19
100
AcDbEntity
  8
1
  6
Continuous
 62
     8
100
AcDbLine
 10
1107.3
 20
2734.9
 30
0.0
 11
1107.3
 21
2775.84
 31
0.0
  0
LINE
  5
8EC
330
19
100
AcDbEntity
  8
1
  6
Continuous
 62
     8
100
AcDbLine
 10
1268.08
 20
2783.38
 30
0.0
 11
1158.819999999999
 21
2799.58
 31
0.0
  0
ARC
  5
8ED
330
19
100
AcDbEntity
  8
1
  6
Continuous
 62
     8
100
AcDbCircle
 10
1155.299999999999
 20
2775.84
 30
0.0
 40
24.0
100
AcDbArc
 50
81.5647
 51
180.0
  0
LINE
  5
8EE
330
19
100
AcDbEntity
  8
1
  6
Continuous
 62
     8
100
AcDbLine
 10
1131.3
 20
2734.9
 30
0.0
 11
1131.3
 21
2775.84
 31
0.0
  0
LINE
  5
8EF
330
19
100
AcDbEntity
  8
1
  6
Continuous
 62
     8
100
AcDbLine
 10
1597.77
 20
2501.82
 30
0.0
 11
1614.95
 21
2549.01
 31
0.0
  0
LINE
  5
8F0
330
19
100
AcDbEntity
  8
1
  6
Continuous
 62
     8
100
AcDbLine
 10
1622.21
 20
2492.929999999999
 30
0.0
 11
1641.27
 21
2545.32
 31
0.0
  0
ARC
  5
8F1
330
19
100
AcDbEntity
  8
1
  6
Continuous
 62
     8
100
AcDbCircle
 10
1517.05
 20
2595.32
 30
0.0
 40
20.0
100
AcDbArc
 50
90.0
 51
160.0
  0
LWPOLYLINE
  5
8F2
330
19
100
AcDbEntity
  8
1
  6
Continuous
 62
     8
100
AcDbPolyline
 90
        6
 70
     0
 43
0.0
 10
1498.25
 20
2602.16
 10
1492.119999999999
 20
2585.32
 10
1627.439999999999
 20
2545.32
 10
1677.439999999999
 20
2545.32
 10
1760.38
 20
2589.58
 10
1760.38
 20
2595.32
  0
LINE
  5
8FA
330
19
100
AcDbEntity
  8
1
  6
Continuous
 62
     8
100
AcDbLine
 10
1740.38
 20
2615.32
 30
0.0
 11
1517.05
 21
2615.32
 31
0.0
  0
ARC
  5
8FB
330
19
100
AcDbEntity
  8
1
  6
Continuous
 62
     8
100
AcDbCircle
 10
1740.38
 20
2595.32
 30
0.0
 40
20.0
100
AcDbArc
 50
0.0
 51
90.0
  0
LWPOLYLINE
  5
8FC
330
19
100
AcDbEntity
  8
1
  6
Continuous
 62
     8
100
AcDbPolyline
 90
       10
 70
     0
 43
0.0
 10
1728.96
 20
2571.22
 10
1756.25
 20
2557.05
 10
1714.789999999999
 20
2559.409999999999
 10
1752.31
 20
2545.77
 10
1712.43
 20
2548.13
 10
1745.49
 20
2532.389999999999
 10
1706.13
 20
2536.32
 10
1738.14
 20
2519.53
 10
1707.44
 20
2516.38
 10
1656.279999999999
 20
2540.0
  0
CIRCLE
  5
908
330
19
100
AcDbEntity
  8
1
  6
Continuous
 62
     8
100
AcDbCircle
 10
1892.66
 20
2100.119999999999
 30
0.0
 40
15.0
  0
CIRCLE
  5
909
330
19
100
AcDbEntity
  8
1
  6
Continuous
 62
     8
100
AcDbCircle
 10
1881.63
 20
2126.86
 30
0.0
 40
7.0
  0
LINE
  5
90A
330
19
100
AcDbEntity
  8
1
  6
Continuous
 62
     8
100
AcDbLine
 10
1887.33
 20
2130.909999999999
 30
0.0
 11
1637.5
 21
2482.46
 31
0.0
  0
LINE
  5
90B
330
19
100
AcDbEntity
  8
1
  6
Continuous
 62
     8
100
AcDbLine
 10
1626.09
 20
2474.35
 30
0.0
 11
1875.919999999999
 21
2122.8
 31
0.0
  0
LINE
  5
90C
330
19
100
AcDbEntity
  8
1
  6
Continuous
 62
     8
100
AcDbLine
 10
1904.4
 20
2109.45
 30
0.0
 11
1887.109999999999
 21
2131.21
 31
0.0
  0
LINE
  5
90D
330
19
100
AcDbEntity
  8
1
  6
Continuous
 62
     8
100
AcDbLine
 10
1868.5
 20
2108.23
 30
0.0
 11
1874.94
 21
2128.94
 31
0.0
  0
LINE
  5
90E
330
19
100
AcDbEntity
  8
1
  6
Continuous
 62
     8
100
AcDbLine
 10
1867.64
 20
2158.619999999999
 30
0.0
 11
1895.39
 21
2157.3
 31
0.0
  0
LINE
  5
90F
330
19
100
AcDbEntity
  8
1
  6
Continuous
 62
     8
100
AcDbLine
 10
1946.46
 20
2119.699999999999
 30
0.0
 11
2146.38
 21
2192.46
 31
0.0
  0
LINE
  5
910
330
19
100
AcDbEntity
  8
1
  6
Continuous
 62
     8
100
AcDbLine
 10
1936.52
 20
2136.909999999999
 30
0.0
 11
2099.489999999999
 21
2273.67
 31
0.0
  0
LINE
  5
911
330
19
100
AcDbEntity
  8
1
  6
Continuous
 62
     8
100
AcDbLine
 10
1902.599999999999
 20
2156.5
 30
0.0
 11
1939.549999999999
 21
2366.01
 31
0.0
  0
LINE
  5
912
330
19
100
AcDbEntity
  8
1
  6
Continuous
 62
     8
100
AcDbLine
 10
1882.469999999999
 20
2157.92
 30
0.0
 11
1845.779999999999
 21
2366.01
 31
0.0
  0
LINE
  5
913
330
19
100
AcDbEntity
  8
1
  6
Continuous
 62
     8
100
AcDbLine
 10
1921.28
 20
2050.54
 30
0.0
 11
2027.66
 21
1866.29
 31
0.0
  0
LINE
  5
914
330
19
100
AcDbEntity
  8
1
  6
Continuous
 62
     8
100
AcDbLine
 10
1949.91
 20
2100.119999999999
 30
0.0
 11
2162.66
 21
2100.119999999999
 31
0.0
  0
LINE
  5
915
330
19
100
AcDbEntity
  8
1
  6
Continuous
 62
     8
100
AcDbLine
 10
1881.47
 20
2109.26
 30
0.0
 11
1541.03
 21
2082.18
 31
0.0
  0
LINE
  5
916
330
19
100
AcDbEntity
  8
1
  6
Continuous
 62
     8
100
AcDbLine
 10
1883.06
 20
2089.32
 30
0.0
 11
1542.609999999999
 21
2062.24
 31
0.0
  0
ARC
  5
917
330
19
100
AcDbEntity
  8
1
  6
Continuous
 62
     8
100
AcDbCircle
 10
1892.66
 20
2100.119999999999
 30
0.0
 40
40.0
100
AcDbArc
 50
126.12
 51
170.0699999999999
  0
LINE
  5
918
330
19
100
AcDbEntity
  8
1
  6
Continuous
 62
     8
100
AcDbLine
 10
1921.28
 20
2149.69
 30
0.0
 11
2027.66
 21
2333.94
 31
0.0
  0
LINE
  5
919
330
19
100
AcDbEntity
  8
1
  6
Continuous
 62
     8
100
AcDbLine
 10
1904.4
 20
2044.08
 30
0.0
 11
1475.859999999999
 21
1954.34
 31
0.0
  0
LINE
  5
91A
330
19
100
AcDbEntity
  8
1
  6
Continuous
 62
     8
100
AcDbLine
 10
1929.319999999999
 20
2069.55
 30
0.0
 11
2246.86
 21
2041.77
 31
0.0
  0
LINE
  5
91B
330
19
100
AcDbEntity
  8
1
  6
Continuous
 62
     8
100
AcDbLine
 10
2245.989999999999
 20
2031.81
 30
0.0
 11
1928.45
 21
2059.59
 31
0.0
  0
CIRCLE
  5
91C
330
19
100
AcDbEntity
  8
1
  6
Continuous
 62
     8
100
AcDbCircle
 10
1922.66
 20
2065.119999999999
 30
0.0
 40
8.0
  0
LWPOLYLINE
  5
91D
330
19
100
AcDbEntity
  8
1
  6
Continuous
 62
     8
100
AcDbPolyline
 90
        3
 70
     0
 43
0.0
 10
1882.66
 20
2055.12
 10
1942.66
 20
2055.12
 10
1942.66
 20
2058.35
  0
LINE
  5
922
330
19
100
AcDbEntity
  8
1
  6
Continuous
 62
     8
100
AcDbLine
 10
1942.66
 20
2068.389999999999
 30
0.0
 11
1942.66
 21
2090.12
 31
0.0
  0
LINE
  5
923
330
19
100
AcDbEntity
  8
1
  6
Continuous
 62
     8
100
AcDbLine
 10
1901.279999999999
 20
2118.16
 30
0.0
 11
1985.85
 21
2457.699999999999
 31
0.0
  0
LINE
  5
924
330
19
100
AcDbEntity
  8
1
  6
Continuous
 62
     8
100
AcDbLine
 10
1894.09
 20
2122.419999999999
 30
0.0
 11
1977.599999999999
 21
2457.699999999999
 31
0.0
  0
ARC
  5
925
330
19
100
AcDbEntity
  8
1
  6
Continuous
 62
     8
100
AcDbCircle
 10
1882.66
 20
2065.119999999999
 30
0.0
 40
10.0
100
AcDbArc
 50
180.0
 51
270.0
  0
ARC
  5
926
330
19
100
AcDbEntity
  8
1
  6
Continuous
 62
     8
100
AcDbCircle
 10
1892.66
 20
2100.119999999999
 30
0.0
 40
40.0
100
AcDbArc
 50
199.0249999999999
 51
240.255
  0
LINE
  5
927
330
19
100
AcDbEntity
  8
1
  6
Continuous
 62
     8
100
AcDbLine
 10
1872.66
 20
2088.489999999999
 30
0.0
 11
1872.66
 21
2065.119999999999
 31
0.0
  0
ARC
  5
928
330
19
100
AcDbEntity
  8
1
  6
Continuous
 62
     8
100
AcDbCircle
 10
1892.66
 20
2100.119999999999
 30
0.0
 40
57.24849999999999
100
AcDbArc
 50
280.0
 51
308.182
  0
LINE
  5
929
330
19
100
AcDbEntity
  8
1
  6
Continuous
 62
     8
100
AcDbLine
 10
1942.569999999999
 20
2058.24
 30
0.0
 11
2099.489999999999
 21
1926.56
 31
0.0
  0
LINE
  5
92A
330
19
100
AcDbEntity
  8
1
  6
Continuous
 62
     8
100
AcDbLine
 10
1946.46
 20
2080.54
 30
0.0
 11
1991.6
 21
2064.099999999999
 31
0.0
  0
LINE
  5
92B
330
19
100
AcDbEntity
  8
1
  6
Continuous
 62
     8
100
AcDbLine
 10
1942.66
 20
2090.12
 30
0.0
 11
1894.54
 21
2123.07
 31
0.0
  0
ARC
  5
92C
330
19
100
AcDbEntity
  8
1
  6
Continuous
 62
     8
100
AcDbCircle
 10
1892.66
 20
2100.119999999999
 30
0.0
 40
57.24849999999999
100
AcDbArc
 50
80.0205
 51
87.26779999999999
  0
ARC
  5
92D
330
19
100
AcDbEntity
  8
1
  6
Continuous
 62
     8
100
AcDbCircle
 10
1892.66
 20
2100.119999999999
 30
0.0
 40
57.24849999999999
100
AcDbArc
 50
330.8540000000001
 51
72.0074
  0
ARC
  5
92E
330
19
100
AcDbEntity
  8
1
  6
Continuous
 62
     8
100
AcDbCircle
 10
1892.66
 20
2100.119999999999
 30
0.0
 40
40.0
100
AcDbArc
 50
81.75310000000001
 51
105.6789999999999
  0
ARC
  5
92F
330
19
100
AcDbEntity
  8
1
  6
Continuous
 62
     8
100
AcDbCircle
 10
1892.66
 20
2100.119999999999
 30
0.0
 40
40.0
100
AcDbArc
 50
355.596
 51
70.2748
  0
ARC
  5
930
330
19
100
AcDbEntity
  8
1
  6
Continuous
 62
     8
100
AcDbCircle
 10
1892.66
 20
2100.119999999999
 30
0.0
 40
327.97
100
AcDbArc
 50
358.245
 51
75.3151
  0
ARC
  5
931
330
19
100
AcDbEntity
  8
1
  6
Continuous
 62
     8
100
AcDbCircle
 10
1892.66
 20
2100.119999999999
 30
0.0
 40
304.8
100
AcDbArc
 50
76.7659
 51
122.8609999999999
  0
ARC
  5
932
330
19
100
AcDbEntity
  8
1
  6
Continuous
 62
     8
100
AcDbCircle
 10
1892.66
 20
2100.119999999999
 30
0.0
 40
270.0
100
AcDbArc
 50
76.8628
 51
122.534
  0
ARC
  5
933
330
19
100
AcDbEntity
  8
1
  6
Continuous
 62
     8
100
AcDbCircle
 10
1892.66
 20
2100.119999999999
 30
0.0
 40
304.8
100
AcDbArc
 50
349.8699999999999
 51
75.26200000000001
  0
ARC
  5
934
330
19
100
AcDbEntity
  8
1
  6
Continuous
 62
     8
100
AcDbCircle
 10
1892.66
 20
2100.119999999999
 30
0.0
 40
270.0
100
AcDbArc
 50
349.207
 51
75.1651
  0
ARC
  5
935
330
19
100
AcDbEntity
  8
1
  6
Continuous
 62
     8
100
AcDbCircle
 10
1892.66
 20
2100.119999999999
 30
0.0
 40
327.97
100
AcDbArc
 50
125.4869999999999
 51
167.215
  0
ARC
  5
936
330
19
100
AcDbEntity
  8
1
  6
Continuous
 62
     8
100
AcDbCircle
 10
1892.66
 20
2100.119999999999
 30
0.0
 40
327.97
100
AcDbArc
 50
76.71269999999999
 51
123.04
  0
CIRCLE
  5
937
330
19
100
AcDbEntity
  8
1
  6
Continuous
 62
     8
100
AcDbCircle
 10
2246.42
 20
2036.789999999999
 30
0.0
 40
5.0
  0
POINT
  5
938
330
19
100
AcDbEntity
  8
1
 62
     8
100
AcDbPoint
 10
1122.13
 20
2845.32
 30
0.0
  0
ARC
  5
939
330
19
100
AcDbEntity
  8
1
  6
Continuous
 62
     8
100
AcDbCircle
 10
1892.66
 20
2100.119999999999
 30
0.0
 40
278.161
100
AcDbArc
 50
125.5029999999999
 51
165.3899999999999
  0
ARC
  5
93A
330
19
100
AcDbEntity
  8
1
  6
Continuous
 62
     8
100
AcDbCircle
 10
1892.66
 20
2100.119999999999
 30
0.0
 40
278.161
100
AcDbArc
 50
76.83790000000001
 51
122.6179999999999
  0
ARC
  5
93B
330
19
100
AcDbEntity
  8
1
  6
Continuous
 62
     8
100
AcDbCircle
 10
1892.66
 20
2100.119999999999
 30
0.0
 40
278.161
100
AcDbArc
 50
349.3769999999999
 51
75.19
  0
CIRCLE
  5
93C
330
19
100
AcDbEntity
  8
1
  6
Continuous
 62
     8
100
AcDbCircle
 10
1385.569999999999
 20
931.4949999999999
 30
0.0
 40
12.5
  0
CIRCLE
  5
93D
330
19
100
AcDbEntity
  8
1
  6
Continuous
 62
     8
100
AcDbCircle
 10
1329.02
 20
781.8239999999999
 30
0.0
 40
8.0
  0
LWPOLYLINE
  5
93E
330
19
100
AcDbEntity
  8
1
  6
Continuous
 62
     8
100
AcDbPolyline
 90
        5
 70
     0
 43
0.0
 10
1364.14
 20
791.3960000000001
 10
1363.89
 20
771.398
 10
1293.9
 20
772.253
 10
1294.14
 20
792.251
 10
1364.14
 20
791.3960000000001
  0
LINE
  5
945
330
19
100
AcDbEntity
  8
1
  6
Continuous
 62
     8
100
AcDbLine
 10
1373.76
 20
935.583
 30
0.0
 11
1324.03
 21
791.8860000000001
 31
0.0
  0
LINE
  5
946
330
19
100
AcDbEntity
  8
1
  6
Continuous
 62
     8
100
AcDbLine
 10
1341.7
 20
791.6699999999999
 30
0.0
 11
1397.14
 21
926.75
 31
0.0
  0
ARC
  5
947
330
19
100
AcDbEntity
  8
1
  6
Continuous
 62
     8
100
AcDbCircle
 10
1385.569999999999
 20
931.4949999999999
 30
0.0
 40
90.0
100
AcDbArc
 50
255.671
 51
242.9279999999999
  0
LINE
  5
948
330
19
100
AcDbEntity
  8
1
  6
Continuous
 62
     8
100
AcDbLine
 10
1565.01
 20
1355.43
 30
0.0
 11
1531.33
 21
1368.16
 31
0.0
  0
LINE
  5
949
330
19
100
AcDbEntity
  8
1
  6
Continuous
 62
     8
100
AcDbLine
 10
1408.65
 20
1043.49
 30
0.0
 11
1531.33
 21
1368.16
 31
0.0
  0
LINE
  5
94A
330
19
100
AcDbEntity
  8
1
  6
Continuous
 62
     8
100
AcDbLine
 10
1446.279999999999
 20
1041.239999999999
 30
0.0
 11
1565.01
 21
1355.43
 31
0.0
  0
CIRCLE
  5
94B
330
19
100
AcDbEntity
  8
1
  6
Continuous
 62
     8
100
AcDbCircle
 10
1569.74
 20
1342.559999999999
 30
0.0
 40
7.0
  0
LWPOLYLINE
  5
94C
330
19
100
AcDbEntity
  8
1
  6
Continuous
 62
     8
100
AcDbPolyline
 90
        5
 70
     0
 43
0.0
 10
1057.5
 20
1462.86
 10
1023.83
 20
1475.579999999999
 10
962.9099999999999
 20
1314.359999999999
 10
996.5860000000001
 20
1301.63
 10
1057.5
 20
1462.86
  0
CIRCLE
  5
953
330
19
100
AcDbEntity
  8
1
  6
Continuous
 62
     8
100
AcDbCircle
 10
796.048
 20
973.7009999999999
 30
0.0
 40
7.0
  0
LINE
  5
954
330
19
100
AcDbEntity
  8
1
  6
Continuous
 62
     8
100
AcDbLine
 10
911.355
 20
1156.33
 30
0.0
 11
964.5980000000001
 21
1313.14
 31
0.0
  0
ARC
  5
955
330
19
100
AcDbEntity
  8
1
  6
Continuous
 62
     8
100
AcDbCircle
 10
532.5940000000001
 20
1284.94
 30
0.0
 40
400.0
100
AcDbArc
 50
313.7859999999999
 51
341.244
  0
LINE
  5
956
330
19
100
AcDbEntity
  8
1
  6
Continuous
 62
     8
100
AcDbLine
 10
791.2039999999999
 20
978.7539999999999
 30
0.0
 11
809.3849999999999
 21
996.1809999999999
 31
0.0
  0
LINE
  5
957
330
19
100
AcDbEntity
  8
1
  6
Continuous
 62
     8
100
AcDbLine
 10
994.5149999999999
 20
1301.83
 30
0.0
 11
925.1649999999999
 21
1135.599999999999
 31
0.0
  0
ARC
  5
958
330
19
100
AcDbEntity
  8
1
  6
Continuous
 62
     8
100
AcDbCircle
 10
543.08
 20
1295.0
 30
0.0
 40
414.0
100
AcDbArc
 50
313.7859999999999
 51
337.355
  0
LINE
  5
959
330
19
100
AcDbEntity
  8
1
  6
Continuous
 62
     8
100
AcDbLine
 10
829.559
 20
996.1260000000001
 30
0.0
 11
800.8919999999999
 21
968.6469999999999
 31
0.0
  0
LINE
  5
95A
330
19
100
AcDbEntity
  8
1
  6
Continuous
 62
     8
100
AcDbLine
 10
1003.0
 20
1318.63
 30
0.0
 11
1294.089999999999
 21
998.1389999999999
 31
0.0
  0
LINE
  5
95B
330
19
100
AcDbEntity
  8
1
  6
Continuous
 62
     8
100
AcDbLine
 10
1314.81
 20
1019.83
 30
0.0
 11
1014.52
 21
1349.11
 31
0.0
  0
LINE
  5
95C
330
19
100
AcDbEntity
  8
1
  6
Continuous
 62
     8
100
AcDbLine
 10
1439.619999999999
 20
1125.439999999999
 30
0.0
 11
1048.4
 21
1438.78
 31
0.0
  0
LINE
  5
95D
330
19
100
AcDbEntity
  8
1
  6
Continuous
 62
     8
100
AcDbLine
 10
1037.42
 20
1409.72
 30
0.0
 11
1428.64
 21
1096.38
 31
0.0
  0
LINE
  5
95E
330
19
100
AcDbEntity
  8
1
  6
Continuous
 62
     8
100
AcDbLine
 10
807.468
 20
973.5610000000001
 30
0.0
 11
1066.019999999999
 21
970.4019999999999
 31
0.0
  0
LINE
  5
95F
330
19
100
AcDbEntity
  8
1
  6
Continuous
 62
     8
100
AcDbLine
 10
806.731
 20
969.664
 30
0.0
 11
1048.609999999999
 21
878.2630000000001
 31
0.0
  0
LINE
  5
960
330
19
100
AcDbEntity
  8
1
  6
Continuous
 62
     8
100
AcDbLine
 10
784.6280000000001
 20
973.84
 30
0.0
 11
526.0679999999999
 21
976.9989999999999
 31
0.0
  0
LINE
  5
961
330
19
100
AcDbEntity
  8
1
  6
Continuous
 62
     8
100
AcDbLine
 10
785.365
 20
977.738
 30
0.0
 11
543.478
 21
1069.13
 31
0.0
  0
LINE
  5
962
330
19
100
AcDbEntity
  8
1
  6
Continuous
 62
     8
100
AcDbLine
 10
787.3899999999999
 20
981.1480000000001
 30
0.0
 11
591.352
 21
1149.76
 31
0.0
  0
LINE
  5
963
330
19
100
AcDbEntity
  8
1
  6
Continuous
 62
     8
100
AcDbLine
 10
790.4589999999999
 20
983.66
 30
0.0
 11
663.9149999999999
 21
1209.16
 31
0.0
  0
LINE
  5
964
330
19
100
AcDbEntity
  8
1
  6
Continuous
 62
     8
100
AcDbLine
 10
794.202
 20
984.9709999999999
 30
0.0
 11
752.4149999999999
 21
1240.15
 31
0.0
  0
LINE
  5
965
330
19
100
AcDbEntity
  8
1
  6
Continuous
 62
     8
100
AcDbLine
 10
798.1679999999999
 20
984.923
 30
0.0
 11
846.178
 21
1239.0
 31
0.0
  0
LINE
  5
966
330
19
100
AcDbEntity
  8
1
  6
Continuous
 62
     8
100
AcDbLine
 10
1392.349999999999
 20
1044.47
 30
0.0
 11
1783.9
 21
1020.99
 31
0.0
  0
LINE
  5
967
330
19
100
AcDbEntity
  8
1
  6
Continuous
 62
     8
100
AcDbLine
 10
1754.29
 20
1022.76
 30
0.0
 11
1621.27
 21
1137.18
 31
0.0
  0
LINE
  5
968
330
19
100
AcDbEntity
  8
1
  6
Continuous
 62
     8
100
AcDbLine
 10
1786.739999999999
 20
895.0560000000001
 30
0.0
 11
1688.12
 21
728.957
 31
0.0
  0
LINE
  5
969
330
19
100
AcDbEntity
  8
1
  6
Continuous
 62
     8
100
AcDbLine
 10
1732.13
 20
884.314
 30
0.0
 11
1617.03
 21
790.1039999999999
 31
0.0
  0
LINE
  5
96A
330
19
100
AcDbEntity
  8
1
  6
Continuous
 62
     8
100
AcDbLine
 10
1755.77
 20
1086.2
 30
0.0
 11
1693.829999999999
 21
1196.57
 31
0.0
  0
ARC
  5
96B
330
19
100
AcDbEntity
  8
1
  6
Continuous
 62
     8
100
AcDbCircle
 10
1385.569999999999
 20
931.4949999999999
 30
0.0
 40
113.182
100
AcDbArc
 50
254.029
 51
281.128
  0
ARC
  5
96C
330
19
100
AcDbEntity
  8
1
  6
Continuous
 62
     8
100
AcDbCircle
 10
1385.569999999999
 20
931.4949999999999
 30
0.0
 40
113.182
100
AcDbArc
 50
86.56780000000003
 51
244.5699999999999
  0
LINE
  5
96D
330
19
100
AcDbEntity
  8
1
  6
Continuous
 62
     8
100
AcDbLine
 10
811.987
 20
979.283
 30
0.0
 11
1050.869999999999
 21
1062.939999999999
 31
0.0
  0
LINE
  5
96E
330
19
100
AcDbEntity
  8
1
  6
Continuous
 62
     8
100
AcDbLine
 10
852.374
 20
1019.8
 30
0.0
 11
1004.98
 21
1144.71
 31
0.0
  0
LINE
  5
96F
330
19
100
AcDbEntity
  8
1
  6
Continuous
 62
     8
100
AcDbLine
 10
809.393
 20
996.1769999999999
 30
0.0
 11
920.523
 21
1183.34
 31
0.0
  0
LWPOLYLINE
  5
970
330
19
100
AcDbEntity
  8
1
  6
Continuous
 62
     8
100
AcDbPolyline
 90
        6
 70
     0
 43
0.0
 10
929.396
 20
1317.29
 10
1005.2
 20
1561.14
 10
881.8929999999999
 20
1617.9
 10
755.4479999999999
 20
1619.44
 10
753.237
 20
1319.45
 10
929.396
 20
1317.29
  0
ARC
  5
978
330
19
100
AcDbEntity
  8
1
  6
Continuous
 62
     8
100
AcDbCircle
 10
702.07
 20
1328.25
 30
0.0
 40
32.75679999999999
100
AcDbArc
 50
256.9929999999999
 51
102.771
  0
LINE
  5
979
330
19
100
AcDbEntity
  8
1
  6
Continuous
 62
     8
100
AcDbLine
 10
694.829
 20
1360.2
 30
0.0
 11
694.0489999999999
 21
1296.34
 31
0.0
  0
ARC
  5
97A
330
19
100
AcDbEntity
  8
1
  6
Continuous
 62
     8
100
AcDbCircle
 10
796.048
 20
973.7009999999999
 30
0.0
 40
327.97
100
AcDbArc
 50
62.3942
 51
107.175
  0
ARC
  5
97B
330
19
100
AcDbEntity
  8
1
  6
Continuous
 62
     8
100
AcDbCircle
 10
796.048
 20
973.7009999999999
 30
0.0
 40
327.97
100
AcDbArc
 50
343.0759999999999
 51
57.377
  0
ARC
  5
97C
330
19
100
AcDbEntity
  8
1
  6
Continuous
 62
     8
100
AcDbCircle
 10
1825.97
 20
961.1169999999999
 30
0.0
 40
304.8
100
AcDbArc
 50
124.7939999999999
 51
165.742
  0
ARC
  5
97D
330
19
100
AcDbEntity
  8
1
  6
Continuous
 62
     8
100
AcDbCircle
 10
1825.97
 20
961.1169999999999
 30
0.0
 40
270.0
100
AcDbArc
 50
124.806
 51
164.3259999999999
  0
LWPOLYLINE
  5
97E
330
19
100
AcDbEntity
  8
1
  6
Continuous
 62
     8
100
AcDbPolyline
 90
        3
 70
     0
 43
0.0
 10
2019.509999999999
 20
1326.359999999999
 10
1700.359999999999
 20
1330.259999999999
 10
1624.68
 20
1275.53
  0
LINE
  5
983
330
19
100
AcDbEntity
  8
1
  6
Continuous
 62
     8
100
AcDbLine
 10
2019.38
 20
1316.359999999999
 30
0.0
 11
1703.54
 21
1320.22
 31
0.0
  0
LINE
  5
984
330
19
100
AcDbEntity
  8
1
  6
Continuous
 62
     8
100
AcDbLine
 10
1703.54
 20
1320.22
 30
0.0
 11
1630.539999999999
 21
1267.42
 31
0.0
  0
LINE
  5
985
330
19
100
AcDbEntity
  8
1
  6
Continuous
 62
     8
100
AcDbLine
 10
2019.38
 20
1316.359999999999
 30
0.0
 11
2019.509999999999
 21
1326.359999999999
 31
0.0
  0
LWPOLYLINE
  5
986
330
19
100
AcDbEntity
  8
1
  6
Continuous
 62
     8
100
AcDbPolyline
 90
        3
 70
     0
 43
0.0
 10
2098.389999999999
 20
1143.73
 10
2101.66
 20
1202.32
 10
2070.17
 20
1180.039999999999
  0
LWPOLYLINE
  5
98B
330
19
100
AcDbEntity
  8
1
  6
Continuous
 62
     8
100
AcDbPolyline
 90
        4
 70
     0
 43
0.0
 10
1109.81
 20
878.232
 10
1089.15
 20
804.0739999999999
 10
1114.819999999999
 20
803.761
 10
1109.81
 20
878.232
  0
LINE
  5
991
330
19
100
AcDbEntity
  8
1
  6
Continuous
 62
     8
100
AcDbLine
 10
1055.47
 20
1592.2
 30
0.0
 11
1071.949999999999
 21
1585.97
 31
0.0
  0
LINE
  5
992
330
19
100
AcDbEntity
  8
1
  6
Continuous
 62
     8
100
AcDbLine
 10
1029.44
 20
1473.46
 30
0.0
 11
1071.949999999999
 21
1585.97
 31
0.0
  0
LINE
  5
993
330
19
100
AcDbEntity
  8
1
  6
Continuous
 62
     8
100
AcDbLine
 10
1051.889999999999
 20
1464.98
 30
0.0
 11
1104.3
 21
1603.679999999999
 31
0.0
  0
POLYLINE
  5
994
330
19
100
AcDbEntity
  8
1
  6
Continuous
 62
     8
100
AcDb2dPolyline
 66
     1
 10
0.0
 20
0.0
 30
0.0
 70
     2
  0
VERTEX
  5
995
330
994
100
AcDbEntity
  8
1
  6
Continuous
 62
     8
100
AcDbVertex
100
AcDb2dVertex
 10
1082.34
 20
1704.26
 30
0.0
  0
VERTEX
  5
996
330
994
100
AcDbEntity
  8
1
  6
Continuous
 62
     8
100
AcDbVertex
100
AcDb2dVertex
 10
1082.52
 20
1705.65
 30
0.0
  0
VERTEX
  5
997
330
994
100
AcDbEntity
  8
1
  6
Continuous
 62
     8
100
AcDbVertex
100
AcDb2dVertex
 10
1083.01
 20
1707.03
 30
0.0
  0
VERTEX
  5
998
330
994
100
AcDbEntity
  8
1
  6
Continuous
 62
     8
100
AcDbVertex
100
AcDb2dVertex
 10
1083.809999999999
 20
1708.35
 30
0.0
  0
VERTEX
  5
999
330
994
100
AcDbEntity
  8
1
  6
Continuous
 62
     8
100
AcDbVertex
100
AcDb2dVertex
 10
1084.91
 20
1709.61
 30
0.0
  0
VERTEX
  5
99A
330
994
100
AcDbEntity
  8
1
  6
Continuous
 62
     8
100
AcDbVertex
100
AcDb2dVertex
 10
1086.289999999999
 20
1710.78
 30
0.0
  0
VERTEX
  5
99B
330
994
100
AcDbEntity
  8
1
  6
Continuous
 62
     8
100
AcDbVertex
100
AcDb2dVertex
 10
1087.92
 20
1711.84
 30
0.0
  0
VERTEX
  5
99C
330
994
100
AcDbEntity
  8
1
  6
Continuous
 62
     8
100
AcDbVertex
100
AcDb2dVertex
 10
1089.79
 20
1712.78
 30
0.0
  0
VERTEX
  5
99D
330
994
100
AcDbEntity
  8
1
  6
Continuous
 62
     8
100
AcDbVertex
100
AcDb2dVertex
 10
1091.849999999999
 20
1713.58
 30
0.0
  0
VERTEX
  5
99E
330
994
100
AcDbEntity
  8
1
  6
Continuous
 62
     8
100
AcDbVertex
100
AcDb2dVertex
 10
1094.09
 20
1714.23
 30
0.0
  0
VERTEX
  5
99F
330
994
100
AcDbEntity
  8
1
  6
Continuous
 62
     8
100
AcDbVertex
100
AcDb2dVertex
 10
1096.47
 20
1714.72
 30
0.0
  0
VERTEX
  5
9A0
330
994
100
AcDbEntity
  8
1
  6
Continuous
 62
     8
100
AcDbVertex
100
AcDb2dVertex
 10
1098.94
 20
1715.05
 30
0.0
  0
VERTEX
  5
9A1
330
994
100
AcDbEntity
  8
1
  6
Continuous
 62
     8
100
AcDbVertex
100
AcDb2dVertex
 10
1101.47
 20
1715.2
 30
0.0
  0
VERTEX
  5
9A2
330
994
100
AcDbEntity
  8
1
  6
Continuous
 62
     8
100
AcDbVertex
100
AcDb2dVertex
 10
1104.02
 20
1715.17
 30
0.0
  0
VERTEX
  5
9A3
330
994
100
AcDbEntity
  8
1
  6
Continuous
 62
     8
100
AcDbVertex
100
AcDb2dVertex
 10
1106.54
 20
1714.97
 30
0.0
  0
VERTEX
  5
9A4
330
994
100
AcDbEntity
  8
1
  6
Continuous
 62
     8
100
AcDbVertex
100
AcDb2dVertex
 10
1109.01
 20
1714.6
 30
0.0
  0
VERTEX
  5
9A5
330
994
100
AcDbEntity
  8
1
  6
Continuous
 62
     8
100
AcDbVertex
100
AcDb2dVertex
 10
1111.38
 20
1714.059999999999
 30
0.0
  0
VERTEX
  5
9A6
330
994
100
AcDbEntity
  8
1
  6
Continuous
 62
     8
100
AcDbVertex
100
AcDb2dVertex
 10
1113.619999999999
 20
1713.37
 30
0.0
  0
VERTEX
  5
9A7
330
994
100
AcDbEntity
  8
1
  6
Continuous
 62
     8
100
AcDbVertex
100
AcDb2dVertex
 10
1115.68
 20
1712.53
 30
0.0
  0
VERTEX
  5
9A8
330
994
100
AcDbEntity
  8
1
  6
Continuous
 62
     8
100
AcDbVertex
100
AcDb2dVertex
 10
1117.539999999999
 20
1711.55
 30
0.0
  0
VERTEX
  5
9A9
330
994
100
AcDbEntity
  8
1
  6
Continuous
 62
     8
100
AcDbVertex
100
AcDb2dVertex
 10
1119.16
 20
1710.45
 30
0.0
  0
VERTEX
  5
9AA
330
994
100
AcDbEntity
  8
1
  6
Continuous
 62
     8
100
AcDbVertex
100
AcDb2dVertex
 10
1120.53
 20
1709.26
 30
0.0
  0
VERTEX
  5
9AB
330
994
100
AcDbEntity
  8
1
  6
Continuous
 62
     8
100
AcDbVertex
100
AcDb2dVertex
 10
1121.619999999999
 20
1707.98
 30
0.0
  0
VERTEX
  5
9AC
330
994
100
AcDbEntity
  8
1
  6
Continuous
 62
     8
100
AcDbVertex
100
AcDb2dVertex
 10
1122.41
 20
1706.64
 30
0.0
  0
VERTEX
  5
9AD
330
994
100
AcDbEntity
  8
1
  6
Continuous
 62
     8
100
AcDbVertex
100
AcDb2dVertex
 10
1122.89
 20
1705.26
 30
0.0
  0
VERTEX
  5
9AE
330
994
100
AcDbEntity
  8
1
  6
Continuous
 62
     8
100
AcDbVertex
100
AcDb2dVertex
 10
1123.049999999999
 20
1703.85
 30
0.0
  0
VERTEX
  5
9AF
330
994
100
AcDbEntity
  8
1
  6
Continuous
 62
     8
100
AcDbVertex
100
AcDb2dVertex
 10
1122.9
 20
1702.46
 30
0.0
  0
VERTEX
  5
9B0
330
994
100
AcDbEntity
  8
1
  6
Continuous
 62
     8
100
AcDbVertex
100
AcDb2dVertex
 10
1122.43
 20
1701.08
 30
0.0
  0
VERTEX
  5
9B1
330
994
100
AcDbEntity
  8
1
  6
Continuous
 62
     8
100
AcDbVertex
100
AcDb2dVertex
 10
1121.65
 20
1699.749999999999
 30
0.0
  0
VERTEX
  5
9B2
330
994
100
AcDbEntity
  8
1
  6
Continuous
 62
     8
100
AcDbVertex
100
AcDb2dVertex
 10
1120.57
 20
1698.49
 30
0.0
  0
VERTEX
  5
9B3
330
994
100
AcDbEntity
  8
1
  6
Continuous
 62
     8
100
AcDbVertex
100
AcDb2dVertex
 10
1119.21
 20
1697.309999999999
 30
0.0
  0
VERTEX
  5
9B4
330
994
100
AcDbEntity
  8
1
  6
Continuous
 62
     8
100
AcDbVertex
100
AcDb2dVertex
 10
1117.589999999999
 20
1696.239999999999
 30
0.0
  0
VERTEX
  5
9B5
330
994
100
AcDbEntity
  8
1
  6
Continuous
 62
     8
100
AcDbVertex
100
AcDb2dVertex
 10
1115.74
 20
1695.289999999999
 30
0.0
  0
VERTEX
  5
9B6
330
994
100
AcDbEntity
  8
1
  6
Continuous
 62
     8
100
AcDbVertex
100
AcDb2dVertex
 10
1113.68
 20
1694.48
 30
0.0
  0
VERTEX
  5
9B7
330
994
100
AcDbEntity
  8
1
  6
Continuous
 62
     8
100
AcDbVertex
100
AcDb2dVertex
 10
1111.45
 20
1693.819999999999
 30
0.0
  0
VERTEX
  5
9B8
330
994
100
AcDbEntity
  8
1
  6
Continuous
 62
     8
100
AcDbVertex
100
AcDb2dVertex
 10
1109.08
 20
1693.31
 30
0.0
  0
VERTEX
  5
9B9
330
994
100
AcDbEntity
  8
1
  6
Continuous
 62
     8
100
AcDbVertex
100
AcDb2dVertex
 10
1106.619999999999
 20
1692.98
 30
0.0
  0
VERTEX
  5
9BA
330
994
100
AcDbEntity
  8
1
  6
Continuous
 62
     8
100
AcDbVertex
100
AcDb2dVertex
 10
1104.09
 20
1692.81
 30
0.0
  0
VERTEX
  5
9BB
330
994
100
AcDbEntity
  8
1
  6
Continuous
 62
     8
100
AcDbVertex
100
AcDb2dVertex
 10
1101.539999999999
 20
1692.83
 30
0.0
  0
VERTEX
  5
9BC
330
994
100
AcDbEntity
  8
1
  6
Continuous
 62
     8
100
AcDbVertex
100
AcDb2dVertex
 10
1099.0
 20
1693.01
 30
0.0
  0
VERTEX
  5
9BD
330
994
100
AcDbEntity
  8
1
  6
Continuous
 62
     8
100
AcDbVertex
100
AcDb2dVertex
 10
1096.53
 20
1693.38
 30
0.0
  0
VERTEX
  5
9BE
330
994
100
AcDbEntity
  8
1
  6
Continuous
 62
     8
100
AcDbVertex
100
AcDb2dVertex
 10
1094.15
 20
1693.9
 30
0.0
  0
VERTEX
  5
9BF
330
994
100
AcDbEntity
  8
1
  6
Continuous
 62
     8
100
AcDbVertex
100
AcDb2dVertex
 10
1091.9
 20
1694.589999999999
 30
0.0
  0
VERTEX
  5
9C0
330
994
100
AcDbEntity
  8
1
  6
Continuous
 62
     8
100
AcDbVertex
100
AcDb2dVertex
 10
1089.829999999999
 20
1695.42
 30
0.0
  0
VERTEX
  5
9C1
330
994
100
AcDbEntity
  8
1
  6
Continuous
 62
     8
100
AcDbVertex
100
AcDb2dVertex
 10
1087.949999999999
 20
1696.39
 30
0.0
  0
VERTEX
  5
9C2
330
994
100
AcDbEntity
  8
1
  6
Continuous
 62
     8
100
AcDbVertex
100
AcDb2dVertex
 10
1086.309999999999
 20
1697.48
 30
0.0
  0
VERTEX
  5
9C3
330
994
100
AcDbEntity
  8
1
  6
Continuous
 62
     8
100
AcDbVertex
100
AcDb2dVertex
 10
1084.92
 20
1698.67
 30
0.0
  0
VERTEX
  5
9C4
330
994
100
AcDbEntity
  8
1
  6
Continuous
 62
     8
100
AcDbVertex
100
AcDb2dVertex
 10
1083.82
 20
1699.95
 30
0.0
  0
VERTEX
  5
9C5
330
994
100
AcDbEntity
  8
1
  6
Continuous
 62
     8
100
AcDbVertex
100
AcDb2dVertex
 10
1083.0
 20
1701.279999999999
 30
0.0
  0
VERTEX
  5
9C6
330
994
100
AcDbEntity
  8
1
  6
Continuous
 62
     8
100
AcDbVertex
100
AcDb2dVertex
 10
1082.5
 20
1702.66
 30
0.0
  0
VERTEX
  5
9C7
330
994
100
AcDbEntity
  8
1
  6
Continuous
 62
     8
100
AcDbVertex
100
AcDb2dVertex
 10
1082.34
 20
1704.26
 30
0.0
  0
SEQEND
  5
9C8
330
994
100
AcDbEntity
  8
1
 62
     8
  0
LINE
  5
9C9
330
19
100
AcDbEntity
  8
1
  6
Continuous
 62
     8
100
AcDbLine
 10
1209.78
 20
1651.95
 30
0.0
 11
1213.589999999999
 21
1675.65
 31
0.0
  0
ARC
  5
9CA
330
19
100
AcDbEntity
  8
1
  6
Continuous
 62
     8
100
AcDbCircle
 10
1092.71
 20
1510.64
 30
0.0
 40
133.8449999999999
100
AcDbArc
 50
40.78949999999999
 51
76.1576
  0
ARC
  5
9CB
330
19
100
AcDbEntity
  8
1
  6
Continuous
 62
     8
100
AcDbCircle
 10
1092.71
 20
1510.64
 30
0.0
 40
138.8039999999999
100
AcDbArc
 50
41.0037
 51
76.4233
  0
LWPOLYLINE
  5
9CC
330
19
100
AcDbEntity
  8
1
  6
Continuous
 62
     8
100
AcDbPolyline
 90
        4
 70
     0
 43
0.0
 10
1132.23
 20
1688.73
 10
1124.049999999999
 20
1637.83
 10
1101.72
 20
1641.42
 10
1109.9
 20
1692.32
  0
CIRCLE
  5
9D2
330
19
100
AcDbEntity
  8
1
  6
Continuous
 62
     8
100
AcDbCircle
 10
1198.479999999999
 20
1597.33
 30
0.0
 40
4.50255
  0
LINE
  5
9D3
330
19
100
AcDbEntity
  8
1
  6
Continuous
 62
     8
100
AcDbLine
 10
1104.3
 20
1603.679999999999
 30
0.0
 11
1074.529999999999
 21
1614.93
 31
0.0
  0
CIRCLE
  5
9D4
330
19
100
AcDbEntity
  8
1
  6
Continuous
 62
     8
100
AcDbCircle
 10
1060.41
 20
1605.3
 30
0.0
 40
12.0
  0
ARC
  5
9D5
330
19
100
AcDbEntity
  8
1
  6
Continuous
 62
     8
100
AcDbCircle
 10
1060.41
 20
1605.3
 30
0.0
 40
14.0
100
AcDbArc
 50
148.2969999999999
 51
30.3027
  0
LINE
  5
9D6
330
19
100
AcDbEntity
  8
1
  6
Continuous
 62
     8
100
AcDbLine
 10
1213.589999999999
 20
1675.65
 30
0.0
 11
1104.53
 21
1693.18
 31
0.0
  0
ARC
  5
9D7
330
19
100
AcDbEntity
  8
1
  6
Continuous
 62
     8
100
AcDbCircle
 10
1096.91
 20
1645.789999999999
 30
0.0
 40
48.0
100
AcDbArc
 50
80.8647
 51
179.3
  0
LINE
  5
9D8
330
19
100
AcDbEntity
  8
1
  6
Continuous
 62
     8
100
AcDbLine
 10
1048.42
 20
1605.44
 30
0.0
 11
1048.92
 21
1646.38
 31
0.0
  0
LINE
  5
9D9
330
19
100
AcDbEntity
  8
1
  6
Continuous
 62
     8
100
AcDbLine
 10
1209.78
 20
1651.95
 30
0.0
 11
1100.72
 21
1669.49
 31
0.0
  0
ARC
  5
9DA
330
19
100
AcDbEntity
  8
1
  6
Continuous
 62
     8
100
AcDbCircle
 10
1096.91
 20
1645.789999999999
 30
0.0
 40
24.0
100
AcDbArc
 50
80.8647
 51
179.3
  0
LINE
  5
9DB
330
19
100
AcDbEntity
  8
1
  6
Continuous
 62
     8
100
AcDbLine
 10
1072.41
 20
1605.15
 30
0.0
 11
1072.91
 21
1646.09
 31
0.0
  0
LINE
  5
9DC
330
19
100
AcDbEntity
  8
1
  6
Continuous
 62
     8
100
AcDbLine
 10
1536.01
 20
1366.39
 30
0.0
 11
1553.76
 21
1413.359999999999
 31
0.0
  0
LINE
  5
9DD
330
19
100
AcDbEntity
  8
1
  6
Continuous
 62
     8
100
AcDbLine
 10
1560.329999999999
 20
1357.2
 30
0.0
 11
1580.04
 21
1409.349999999999
 31
0.0
  0
ARC
  5
9DE
330
19
100
AcDbEntity
  8
1
  6
Continuous
 62
     8
100
AcDbCircle
 10
1456.43
 20
1460.86
 30
0.0
 40
20.0
100
AcDbArc
 50
89.30000000000001
 51
159.3
  0
LWPOLYLINE
  5
9DF
330
19
100
AcDbEntity
  8
1
  6
Continuous
 62
     8
100
AcDbPolyline
 90
        6
 70
     0
 43
0.0
 10
1437.72
 20
1467.93
 10
1431.39
 20
1451.17
 10
1566.2
 20
1409.52
 10
1616.2
 20
1408.91
 10
1699.68
 20
1452.16
 10
1699.749999999999
 20
1457.89
  0
LINE
  5
9E7
330
19
100
AcDbEntity
  8
1
  6
Continuous
 62
     8
100
AcDbLine
 10
1680.0
 20
1478.13
 30
0.0
 11
1456.67
 21
1480.859999999999
 31
0.0
  0
ARC
  5
9E8
330
19
100
AcDbEntity
  8
1
  6
Continuous
 62
     8
100
AcDbCircle
 10
1679.75
 20
1458.14
 30
0.0
 40
20.0
100
AcDbArc
 50
359.3
 51
89.30000000000001
  0
LWPOLYLINE
  5
9E9
330
19
100
AcDbEntity
  8
1
  6
Continuous
 62
     8
100
AcDbPolyline
 90
       10
 70
     0
 43
0.0
 10
1668.029999999999
 20
1434.18
 10
1695.14
 20
1419.68
 10
1653.72
 20
1422.55
 10
1691.069999999999
 20
1408.45
 10
1651.22
 20
1411.29
 10
1684.089999999999
 20
1395.15
 10
1644.78
 20
1399.569999999999
 10
1676.579999999999
 20
1382.38
 10
1645.85
 20
1379.61
 10
1594.98
 20
1403.85
  0
LINE
  5
9F5
330
19
100
AcDbEntity
  8
1
  6
Continuous
 62
     8
100
AcDbLine
 10
1960.609999999999
 20
910.241
 30
0.0
 11
2078.539999999999
 21
865.6789999999999
 31
0.0
  0
CIRCLE
  5
9F6
330
19
100
AcDbEntity
  8
1
  6
Continuous
 62
     8
100
AcDbCircle
 10
1825.97
 20
961.1169999999999
 30
0.0
 40
15.0
  0
CIRCLE
  5
9F7
330
19
100
AcDbEntity
  8
1
  6
Continuous
 62
     8
100
AcDbCircle
 10
1815.26
 20
987.9900000000001
 30
0.0
 40
7.0
  0
LINE
  5
9F8
330
19
100
AcDbEntity
  8
1
  6
Continuous
 62
     8
100
AcDbLine
 10
1821.02
 20
991.975
 30
0.0
 11
1575.5
 21
1346.55
 31
0.0
  0
LINE
  5
9F9
330
19
100
AcDbEntity
  8
1
  6
Continuous
 62
     8
100
AcDbLine
 10
1563.99
 20
1338.58
 30
0.0
 11
1809.509999999999
 21
984.0049999999999
 31
0.0
  0
LINE
  5
9FA
330
19
100
AcDbEntity
  8
1
  6
Continuous
 62
     8
100
AcDbLine
 10
1837.819999999999
 20
970.306
 30
0.0
 11
1820.789999999999
 21
992.2780000000001
 31
0.0
  0
LINE
  5
9FB
330
19
100
AcDbEntity
  8
1
  6
Continuous
 62
     8
100
AcDbLine
 10
1801.91
 20
969.5219999999999
 30
0.0
 11
1808.6
 21
990.151
 31
0.0
  0
LINE
  5
9FC
330
19
100
AcDbEntity
  8
1
  6
Continuous
 62
     8
100
AcDbLine
 10
1801.66
 20
1019.919999999999
 30
0.0
 11
1829.39
 21
1018.26
 31
0.0
  0
LINE
  5
9FD
330
19
100
AcDbEntity
  8
1
  6
Continuous
 62
     8
100
AcDbLine
 10
1880.0
 20
980.039
 30
0.0
 11
2080.789999999999
 21
1050.349999999999
 31
0.0
  0
LINE
  5
9FE
330
19
100
AcDbEntity
  8
1
  6
Continuous
 62
     8
100
AcDbLine
 10
1870.27
 20
997.377
 30
0.0
 11
2034.899999999999
 21
1132.13
 31
0.0
  0
LINE
  5
9FF
330
19
100
AcDbEntity
  8
1
  6
Continuous
 62
     8
100
AcDbLine
 10
1836.599999999999
 20
1017.37
 30
0.0
 11
1876.1
 21
1226.42
 31
0.0
  0
LINE
  5
A00
330
19
100
AcDbEntity
  8
1
  6
Continuous
 62
     8
100
AcDbLine
 10
1816.48
 20
1019.03
 30
0.0
 11
1782.329999999999
 21
1227.559999999999
 31
0.0
  0
LINE
  5
A01
330
19
100
AcDbEntity
  8
1
  6
Continuous
 62
     8
100
AcDbLine
 10
1853.979999999999
 20
911.1929999999999
 30
0.0
 11
1958.099999999999
 21
725.659
 31
0.0
  0
LINE
  5
A02
330
19
100
AcDbEntity
  8
1
  6
Continuous
 62
     8
100
AcDbLine
 10
1883.21
 20
960.4179999999999
 30
0.0
 11
2095.949999999999
 21
957.8189999999999
 31
0.0
  0
LINE
  5
A03
330
19
100
AcDbEntity
  8
1
  6
Continuous
 62
     8
100
AcDbLine
 10
1814.89
 20
970.395
 30
0.0
 11
1474.14
 21
947.475
 31
0.0
  0
LINE
  5
A04
330
19
100
AcDbEntity
  8
1
  6
Continuous
 62
     8
100
AcDbLine
 10
1816.23
 20
950.44
 30
0.0
 11
1475.48
 21
927.5210000000001
 31
0.0
  0
ARC
  5
A05
330
19
100
AcDbEntity
  8
1
  6
Continuous
 62
     8
100
AcDbCircle
 10
1825.97
 20
961.1169999999999
 30
0.0
 40
40.0
100
AcDbArc
 50
125.42
 51
169.3699999999999
  0
LINE
  5
A06
330
19
100
AcDbEntity
  8
1
  6
Continuous
 62
     8
100
AcDbLine
 10
1855.19
 20
1010.34
 30
0.0
 11
1963.81
 21
1193.27
 31
0.0
  0
LINE
  5
A07
330
19
100
AcDbEntity
  8
1
  6
Continuous
 62
     8
100
AcDbLine
 10
1837.02
 20
904.945
 30
0.0
 11
1407.42
 21
820.4410000000001
 31
0.0
  0
LINE
  5
A08
330
19
100
AcDbEntity
  8
1
  6
Continuous
 62
     8
100
AcDbLine
 10
1862.249999999999
 20
930.108
 30
0.0
 11
2179.429999999999
 21
898.45
 31
0.0
  0
LINE
  5
A09
330
19
100
AcDbEntity
  8
1
  6
Continuous
 62
     8
100
AcDbLine
 10
2178.43
 20
888.499
 30
0.0
 11
1861.25
 21
920.1579999999999
 31
0.0
  0
CIRCLE
  5
A0A
330
19
100
AcDbEntity
  8
1
  6
Continuous
 62
     8
100
AcDbCircle
 10
1855.539999999999
 20
925.753
 30
0.0
 40
8.0
  0
LWPOLYLINE
  5
A0B
330
19
100
AcDbEntity
  8
1
  6
Continuous
 62
     8
100
AcDbPolyline
 90
        3
 70
     0
 43
0.0
 10
1815.419999999999
 20
916.243
 10
1875.41
 20
915.51
 10
1875.45
 20
918.7410000000001
  0
LINE
  5
A10
330
19
100
AcDbEntity
  8
1
  6
Continuous
 62
     8
100
AcDbLine
 10
1875.58
 20
928.7779999999999
 30
0.0
 11
1875.839999999999
 21
950.5069999999999
 31
0.0
  0
LINE
  5
A11
330
19
100
AcDbEntity
  8
1
  6
Continuous
 62
     8
100
AcDbLine
 10
1834.799999999999
 20
979.0589999999999
 30
0.0
 11
1923.51
 21
1317.53
 31
0.0
  0
LINE
  5
A12
330
19
100
AcDbEntity
  8
1
  6
Continuous
 62
     8
100
AcDbLine
 10
1827.67
 20
983.403
 30
0.0
 11
1915.269999999999
 21
1317.63
 31
0.0
  0
ARC
  5
A13
330
19
100
AcDbEntity
  8
1
  6
Continuous
 62
     8
100
AcDbCircle
 10
1815.54
 20
926.242
 30
0.0
 40
10.0
100
AcDbArc
 50
179.3
 51
269.3
  0
ARC
  5
A14
330
19
100
AcDbEntity
  8
1
  6
Continuous
 62
     8
100
AcDbCircle
 10
1825.97
 20
961.1169999999999
 30
0.0
 40
40.0
100
AcDbArc
 50
198.3249999999999
 51
239.555
  0
LINE
  5
A15
330
19
100
AcDbEntity
  8
1
  6
Continuous
 62
     8
100
AcDbLine
 10
1805.83
 20
949.74
 30
0.0
 11
1805.539999999999
 21
926.3639999999998
 31
0.0
  0
ARC
  5
A16
330
19
100
AcDbEntity
  8
1
  6
Continuous
 62
     8
100
AcDbCircle
 10
1825.97
 20
961.1169999999999
 30
0.0
 40
57.24849999999999
100
AcDbArc
 50
279.3
 51
307.482
  0
LINE
  5
A17
330
19
100
AcDbEntity
  8
1
  6
Continuous
 62
     8
100
AcDbLine
 10
1875.359999999999
 20
918.6329999999999
 30
0.0
 11
2030.66
 21
785.051
 31
0.0
  0
LINE
  5
A18
330
19
100
AcDbEntity
  8
1
  6
Continuous
 62
     8
100
AcDbLine
 10
1879.52
 20
940.881
 30
0.0
 11
1924.46
 21
923.8979999999999
 31
0.0
  0
LINE
  5
A19
330
19
100
AcDbEntity
  8
1
  6
Continuous
 62
     8
100
AcDbLine
 10
1875.839999999999
 20
950.5069999999999
 30
0.0
 11
1828.13
 21
984.0429999999999
 31
0.0
  0
ARC
  5
A1A
330
19
100
AcDbEntity
  8
1
  6
Continuous
 62
     8
100
AcDbCircle
 10
1825.97
 20
961.1169999999999
 30
0.0
 40
57.24849999999999
100
AcDbArc
 50
79.3205
 51
86.56780000000003
  0
ARC
  5
A1B
330
19
100
AcDbEntity
  8
1
  6
Continuous
 62
     8
100
AcDbCircle
 10
1825.97
 20
961.1169999999999
 30
0.0
 40
57.24849999999999
100
AcDbArc
 50
330.154
 51
71.3074
  0
ARC
  5
A1C
330
19
100
AcDbEntity
  8
1
  6
Continuous
 62
     8
100
AcDbCircle
 10
1825.97
 20
961.1169999999999
 30
0.0
 40
40.0
100
AcDbArc
 50
81.05310000000001
 51
104.979
  0
ARC
  5
A1D
330
19
100
AcDbEntity
  8
1
  6
Continuous
 62
     8
100
AcDbCircle
 10
1825.97
 20
961.1169999999999
 30
0.0
 40
40.0
100
AcDbArc
 50
354.8959999999999
 51
69.5748
  0
ARC
  5
A1E
330
19
100
AcDbEntity
  8
1
  6
Continuous
 62
     8
100
AcDbCircle
 10
1825.97
 20
961.1169999999999
 30
0.0
 40
327.97
100
AcDbArc
 50
357.545
 51
74.6151
  0
ARC
  5
A1F
330
19
100
AcDbEntity
  8
1
  6
Continuous
 62
     8
100
AcDbCircle
 10
1825.97
 20
961.1169999999999
 30
0.0
 40
304.8
100
AcDbArc
 50
76.0659
 51
122.1609999999999
  0
ARC
  5
A20
330
19
100
AcDbEntity
  8
1
  6
Continuous
 62
     8
100
AcDbCircle
 10
1825.97
 20
961.1169999999999
 30
0.0
 40
270.0
100
AcDbArc
 50
76.1628
 51
121.8339999999999
  0
ARC
  5
A21
330
19
100
AcDbEntity
  8
1
  6
Continuous
 62
     8
100
AcDbCircle
 10
1825.97
 20
961.1169999999999
 30
0.0
 40
304.8
100
AcDbArc
 50
349.17
 51
74.56199999999999
  0
ARC
  5
A22
330
19
100
AcDbEntity
  8
1
  6
Continuous
 62
     8
100
AcDbCircle
 10
1825.97
 20
961.1169999999999
 30
0.0
 40
270.0
100
AcDbArc
 50
348.5069999999999
 51
74.4651
  0
ARC
  5
A23
330
19
100
AcDbEntity
  8
1
  6
Continuous
 62
     8
100
AcDbCircle
 10
1825.97
 20
961.1169999999999
 30
0.0
 40
327.97
100
AcDbArc
 50
124.787
 51
166.5149999999999
  0
ARC
  5
A24
330
19
100
AcDbEntity
  8
1
  6
Continuous
 62
     8
100
AcDbCircle
 10
1825.97
 20
961.1169999999999
 30
0.0
 40
327.97
100
AcDbArc
 50
76.01269999999999
 51
122.34
  0
CIRCLE
  5
A25
330
19
100
AcDbEntity
  8
1
  6
Continuous
 62
     8
100
AcDbCircle
 10
2178.929999999999
 20
893.4750000000001
 30
0.0
 40
5.0
  0
POINT
  5
A26
330
19
100
AcDbEntity
  8
1
 62
     8
100
AcDbPoint
 10
1064.599999999999
 20
1715.67
 30
0.0
  0
ARC
  5
A27
330
19
100
AcDbEntity
  8
1
  6
Continuous
 62
     8
100
AcDbCircle
 10
1825.97
 20
961.1169999999999
 30
0.0
 40
278.161
100
AcDbArc
 50
124.8029999999999
 51
164.69
  0
ARC
  5
A28
330
19
100
AcDbEntity
  8
1
  6
Continuous
 62
     8
100
AcDbCircle
 10
1825.97
 20
961.1169999999999
 30
0.0
 40
278.161
100
AcDbArc
 50
76.1379
 51
121.918
  0
ARC
  5
A29
330
19
100
AcDbEntity
  8
1
  6
Continuous
 62
     8
100
AcDbCircle
 10
1825.97
 20
961.1169999999999
 30
0.0
 40
278.161
100
AcDbArc
 50
348.6769999999999
 51
74.48999999999999
  0
POINT
  5
A2A
330
19
100
AcDbEntity
  8
1
 62
     8
100
AcDbPoint
 10
1822.24
 20
656.34
 30
0.0
  0
POINT
  5
A2B
330
19
100
AcDbEntity
  8
1
 62
     8
100
AcDbPoint
 10
792.3239999999999
 20
668.9239999999999
 30
0.0
  0
ARC
  5
A2C
330
19
100
AcDbEntity
  8
1
  6
Continuous
 62
     8
100
AcDbCircle
 10
796.048
 20
973.7009999999999
 30
0.0
 40
278.161
100
AcDbArc
 50
326.062
 51
55.5667
  0
ARC
  5
A2D
330
19
100
AcDbEntity
  8
1
  6
Continuous
 62
     8
100
AcDbCircle
 10
796.048
 20
973.7009999999999
 30
0.0
 40
270.0
100
AcDbArc
 50
325.302
 51
55.205
  0
ARC
  5
A2E
330
19
100
AcDbEntity
  8
1
  6
Continuous
 62
     8
100
AcDbCircle
 10
796.048
 20
973.7009999999999
 30
0.0
 40
304.8
100
AcDbArc
 50
328.2049999999999
 51
56.6098
  0
LINE
  5
A2F
330
19
100
AcDbEntity
  8
1
  6
Continuous
 62
     8
100
AcDbLine
 10
804.706
 20
966.253
 30
0.0
 11
963.152
 21
829.969
 31
0.0
  0
LINE
  5
A30
330
19
100
AcDbEntity
  8
1
  6
Continuous
 62
     8
100
AcDbLine
 10
975.1339999999999
 20
819.663
 30
0.0
 11
1000.74
 21
797.6339999999999
 31
0.0
  0
LINE
  5
A31
330
19
100
AcDbEntity
  8
1
  6
Continuous
 62
     8
100
AcDbLine
 10
801.637
 20
963.741
 30
0.0
 11
866.9
 21
847.445
 31
0.0
  0
LINE
  5
A32
330
19
100
AcDbEntity
  8
1
  6
Continuous
 62
     8
100
AcDbLine
 10
871.9800000000001
 20
838.3919999999999
 30
0.0
 11
928.181
 21
738.2419999999999
 31
0.0
  0
LINE
  5
A33
330
19
100
AcDbEntity
  8
1
  6
Continuous
 62
     8
100
AcDbLine
 10
797.8939999999998
 20
962.4299999999999
 30
0.0
 11
815.186
 21
856.8339999999999
 31
0.0
  0
LINE
  5
A34
330
19
100
AcDbEntity
  8
1
  6
Continuous
 62
     8
100
AcDbLine
 10
793.928
 20
962.4789999999999
 30
0.0
 11
775.333
 21
864.07
 31
0.0
  0
LINE
  5
A35
330
19
100
AcDbEntity
  8
1
  6
Continuous
 62
     8
100
AcDbLine
 10
790.2169999999999
 20
963.8810000000001
 30
0.0
 11
735.273
 21
871.344
 31
0.0
  0
LINE
  5
A36
330
19
100
AcDbEntity
  8
1
  6
Continuous
 62
     8
100
AcDbLine
 10
730.9149999999999
 20
864.0039999999999
 30
0.0
 11
658.201
 21
741.541
 31
0.0
  0
LINE
  5
A37
330
19
100
AcDbEntity
  8
1
  6
Continuous
 62
     8
100
AcDbLine
 10
787.21
 20
966.4669999999999
 30
0.0
 11
682.6649999999999
 21
880.898
 31
0.0
  0
LINE
  5
A38
330
19
100
AcDbEntity
  8
1
  6
Continuous
 62
     8
100
AcDbLine
 10
674.5319999999999
 20
874.2410000000001
 30
0.0
 11
587.1109999999999
 21
802.688
 31
0.0
  0
LINE
  5
A39
330
19
100
AcDbEntity
  8
1
  6
Continuous
 62
     8
100
AcDbLine
 10
785.2689999999999
 20
969.926
 30
0.0
 11
582.8089999999999
 21
899.0249999999999
 31
0.0
  0
LINE
  5
A3A
330
19
100
AcDbEntity
  8
1
  6
Continuous
 62
     8
100
AcDbLine
 10
567.518
 20
893.6710000000001
 30
0.0
 11
541.2219999999999
 21
884.462
 31
0.0
  0
ARC
  5
A3B
330
19
100
AcDbEntity
  8
1
  6
Continuous
 62
     8
100
AcDbCircle
 10
796.048
 20
973.7009999999999
 30
0.0
 40
270.0
100
AcDbArc
 50
60.4733
 51
194.1159999999999
  0
ARC
  5
A3C
330
19
100
AcDbEntity
  8
1
  6
Continuous
 62
     8
100
AcDbCircle
 10
796.048
 20
973.7009999999999
 30
0.0
 40
278.161
100
AcDbArc
 50
60.7929
 51
193.355
  0
ARC
  5
A3D
330
19
100
AcDbEntity
  8
1
  6
Continuous
 62
     8
100
AcDbCircle
 10
796.048
 20
973.7009999999999
 30
0.0
 40
304.8
100
AcDbArc
 50
61.7153
 51
191.18
  0
ARC
  5
A3E
330
19
100
AcDbEntity
  8
1
  6
Continuous
 62
     8
100
AcDbCircle
 10
796.048
 20
973.7009999999999
 30
0.0
 40
270.0
100
AcDbArc
 50
195.9939999999999
 51
228.6659999999999
  0
ARC
  5
A3F
330
19
100
AcDbEntity
  8
1
  6
Continuous
 62
     8
100
AcDbCircle
 10
796.048
 20
973.7009999999999
 30
0.0
 40
278.161
100
AcDbArc
 50
195.167
 51
230.094
  0
ARC
  5
A40
330
19
100
AcDbEntity
  8
1
  6
Continuous
 62
     8
100
AcDbCircle
 10
796.048
 20
973.7009999999999
 30
0.0
 40
304.8
100
AcDbArc
 50
301.912
 51
326.56
  0
ARC
  5
A41
330
19
100
AcDbEntity
  8
1
  6
Continuous
 62
     8
100
AcDbCircle
 10
796.048
 20
973.7009999999999
 30
0.0
 40
304.8
100
AcDbArc
 50
192.805
 51
234.069
  0
ARC
  5
A42
330
19
100
AcDbEntity
  8
1
  6
Continuous
 62
     8
100
AcDbCircle
 10
796.048
 20
973.7009999999999
 30
0.0
 40
278.161
100
AcDbArc
 50
291.9309999999999
 51
324.2509999999999
  0
ARC
  5
A43
330
19
100
AcDbEntity
  8
1
  6
Continuous
 62
     8
100
AcDbCircle
 10
796.048
 20
973.7009999999999
 30
0.0
 40
278.161
100
AcDbArc
 50
232.1899999999999
 51
245.944
  0
ARC
  5
A44
330
19
100
AcDbEntity
  8
1
  6
Continuous
 62
     8
100
AcDbCircle
 10
796.048
 20
973.7009999999999
 30
0.0
 40
270.0
100
AcDbArc
 50
287.3279999999999
 51
323.423
  0
ARC
  5
A45
330
19
100
AcDbEntity
  8
1
  6
Continuous
 62
     8
100
AcDbCircle
 10
796.048
 20
973.7009999999999
 30
0.0
 40
270.0
100
AcDbArc
 50
230.868
 51
251.2709999999999
  0
LWPOLYLINE
  5
A46
330
19
100
AcDbEntity
  8
1
  6
Continuous
 62
     2
100
AcDbPolyline
 90
        4
 70
     0
 43
0.0
 10
1940.99
 20
702.949
 10
601.099
 20
719.32
 10
600.488
 20
669.3239999999999
 10
670.1649999999999
 20
668.4719999999999
  0
LWPOLYLINE
  5
A4C
330
19
100
AcDbEntity
  8
1
  6
Continuous
 62
     2
100
AcDbPolyline
 90
        3
 70
     0
 43
0.0
 10
695.1649999999999
 20
668.1669999999999
 10
1980.38
 20
652.464
 10
1980.5
 20
662.463
  0
LINE
  5
A51
330
19
100
AcDbEntity
  8
1
  6
Continuous
 62
     1
100
AcDbLine
 10
645.1649999999999
 20
658.321
 30
0.0
 11
645.1649999999999
 21
668.778
 31
0.0
  0
LINE
  5
A52
330
19
100
AcDbEntity
  8
1
  6
Continuous
 62
     1
100
AcDbLine
 10
720.1649999999999
 20
658.321
 30
0.0
 11
720.1649999999999
 21
667.861
 31
0.0
  0
LWPOLYLINE
  5
A53
330
19
100
AcDbEntity
  8
1
  6
Continuous
 62
     2
100
AcDbPolyline
 90
        3
 70
     0
 43
0.0
 10
810.1649999999999
 20
658.321
 10
810.1649999999999
 20
663.321
 10
806.681
 20
666.8039999999999
  0
LWPOLYLINE
  5
A58
330
19
100
AcDbEntity
  8
1
  6
Continuous
 62
     2
100
AcDbPolyline
 90
        3
 70
     0
 43
0.0
 10
756.0589999999999
 20
717.4269999999999
 10
725.1649999999999
 20
748.321
 10
720.1649999999999
 20
748.321
  0
LINE
  5
A5D
330
19
100
AcDbEntity
  8
1
  6
Continuous
 62
     2
100
AcDbLine
 10
735.096
 20
667.6789999999999
 30
0.0
 11
744.4539999999999
 21
658.321
 31
0.0
  0
LINE
  5
A5E
330
19
100
AcDbEntity
  8
1
  6
Continuous
 62
     1
100
AcDbLine
 10
720.1649999999999
 20
717.865
 30
0.0
 11
720.1649999999999
 21
865.956
 31
0.0
  0
LINE
  5
A5F
330
19
100
AcDbEntity
  8
1
  6
Continuous
 62
     1
100
AcDbLine
 10
720.1649999999999
 20
874.0869999999999
 30
0.0
 11
720.1649999999999
 21
1232.809999999999
 31
0.0
  0
LINE
  5
A60
330
19
100
AcDbEntity
  8
1
  6
Continuous
 62
     1
100
AcDbLine
 10
645.1649999999999
 20
749.7939999999999
 30
0.0
 11
645.1649999999999
 21
879.573
 31
0.0
  0
LINE
  5
A61
330
19
100
AcDbEntity
  8
1
  6
Continuous
 62
     1
100
AcDbLine
 10
645.1649999999999
 20
887.7039999999999
 30
0.0
 11
645.1649999999999
 21
1197.599999999999
 31
0.0
  0
LINE
  5
A62
330
19
100
AcDbEntity
  8
1
  6
Continuous
 62
     8
100
AcDbLine
 10
816.558
 20
848.4539999999999
 30
0.0
 11
838.179
 21
716.4229999999999
 31
0.0
  0
LINE
  5
A63
330
19
100
AcDbEntity
  8
1
  6
Continuous
 62
     8
100
AcDbLine
 10
773.848
 20
856.2089999999999
 30
0.0
 11
747.6439999999999
 21
717.529
 31
0.0
  0
ARC
  5
A64
330
19
100
AcDbEntity
  8
1
  6
Continuous
 62
     8
100
AcDbCircle
 10
1825.97
 20
961.1169999999999
 30
0.0
 40
304.8
100
AcDbArc
 50
295.548
 51
347.2789999999999
  0
ARC
  5
A65
330
19
100
AcDbEntity
  8
1
  6
Continuous
 62
     8
100
AcDbCircle
 10
1825.97
 20
961.1169999999999
 30
0.0
 40
304.8
100
AcDbArc
 50
201.953
 51
236.687
  0
ARC
  5
A66
330
19
100
AcDbEntity
  8
1
  6
Continuous
 62
     8
100
AcDbCircle
 10
1825.97
 20
961.1169999999999
 30
0.0
 40
278.161
100
AcDbArc
 50
291.9309999999999
 51
346.6029999999999
  0
ARC
  5
A67
330
19
100
AcDbEntity
  8
1
  6
Continuous
 62
     8
100
AcDbCircle
 10
1825.97
 20
961.1169999999999
 30
0.0
 40
278.161
100
AcDbArc
 50
203.005
 51
246.668
  0
ARC
  5
A68
330
19
100
AcDbEntity
  8
1
  6
Continuous
 62
     8
100
AcDbCircle
 10
1825.97
 20
961.1169999999999
 30
0.0
 40
270.0
100
AcDbArc
 50
287.3279999999999
 51
346.369
  0
ARC
  5
A69
330
19
100
AcDbEntity
  8
1
  6
Continuous
 62
     8
100
AcDbCircle
 10
1825.97
 20
961.1169999999999
 30
0.0
 40
270.0
100
AcDbArc
 50
203.369
 51
251.2709999999999
  0
LINE
  5
A6A
330
19
100
AcDbEntity
  8
1
  6
Continuous
 62
     8
100
AcDbLine
 10
1835.21
 20
904.6499999999999
 30
0.0
 11
1868.1
 21
703.84
 31
0.0
  0
LINE
  5
A6B
330
19
100
AcDbEntity
  8
1
  6
Continuous
 62
     8
100
AcDbLine
 10
1814.519999999999
 20
900.5189999999998
 30
0.0
 11
1777.56
 21
704.946
 31
0.0
  0
CIRCLE
  5
A6C
330
19
100
AcDbEntity
  8
1
  6
DIVIDE
 62
     8
100
AcDbCircle
 10
3164.719999999999
 20
1098.81
 30
0.0
 40
12.5
  0
CIRCLE
  5
A6D
330
19
100
AcDbEntity
  8
1
  6
DIVIDE
 62
     8
100
AcDbCircle
 10
3055.03
 20
982.329
 30
0.0
 40
8.0
  0
LWPOLYLINE
  5
A6E
330
19
100
AcDbEntity
  8
1
  6
DIVIDE
 62
     8
100
AcDbPolyline
 90
        5
 70
     0
 43
0.0
 10
3091.13
 20
977.682
 10
3083.23
 20
959.3099999999999
 10
3018.93
 20
986.9760000000001
 10
3026.83
 20
1005.34
 10
3091.13
 20
977.682
  0
LINE
  5
A75
330
19
100
AcDbEntity
  8
1
  6
DIVIDE
 62
     8
100
AcDbLine
 10
3155.38
 20
1107.119999999999
 30
0.0
 11
3054.289999999999
 21
993.533
 31
0.0
  0
LINE
  5
A76
330
19
100
AcDbEntity
  8
1
  6
DIVIDE
 62
     8
100
AcDbLine
 10
3070.53
 20
986.5479999999999
 30
0.0
 11
3173.58
 21
1089.98
 31
0.0
  0
ARC
  5
A77
330
19
100
AcDbEntity
  8
1
  6
DIVIDE
 62
     8
100
AcDbCircle
 10
3164.719999999999
 20
1098.81
 30
0.0
 40
90.0
100
AcDbArc
 50
233.0909999999999
 51
220.3479999999999
  0
LINE
  5
A78
330
19
100
AcDbEntity
  8
1
  6
DIVIDE
 62
     8
100
AcDbLine
 10
3493.18
 20
1421.35
 30
0.0
 11
3466.98
 21
1446.03
 31
0.0
  0
LINE
  5
A79
330
19
100
AcDbEntity
  8
1
  6
DIVIDE
 62
     8
100
AcDbLine
 10
3229.039999999999
 20
1193.359999999999
 30
0.0
 11
3466.98
 21
1446.03
 31
0.0
  0
LINE
  5
A7A
330
19
100
AcDbEntity
  8
1
  6
DIVIDE
 62
     8
100
AcDbLine
 10
3262.92
 20
1176.83
 30
0.0
 11
3493.18
 21
1421.35
 31
0.0
  0
CIRCLE
  5
A7B
330
19
100
AcDbEntity
  8
1
  6
DIVIDE
 62
     8
100
AcDbCircle
 10
3492.62
 20
1407.65
 30
0.0
 40
7.0
  0
LWPOLYLINE
  5
A7C
330
19
100
AcDbEntity
  8
1
  6
DIVIDE
 62
     8
100
AcDbPolyline
 90
        5
 70
     0
 43
0.0
 10
3065.83
 20
1715.41
 10
3039.62
 20
1740.09
 10
2921.46
 20
1614.62
 10
2947.67
 20
1589.94
 10
3065.83
 20
1715.41
  0
CIRCLE
  5
A83
330
19
100
AcDbEntity
  8
1
  6
DIVIDE
 62
     8
100
AcDbCircle
 10
2636.59
 20
1364.14
 30
0.0
 40
7.0
  0
LINE
  5
A84
330
19
100
AcDbEntity
  8
1
  6
DIVIDE
 62
     8
100
AcDbLine
 10
2813.18
 20
1488.5
 30
0.0
 11
2922.55
 21
1612.84
 31
0.0
  0
ARC
  5
A85
330
19
100
AcDbEntity
  8
1
  6
DIVIDE
 62
     8
100
AcDbCircle
 10
2512.84
 20
1752.69
 30
0.0
 40
400.0
100
AcDbArc
 50
291.2059999999999
 51
318.664
  0
LINE
  5
A86
330
19
100
AcDbEntity
  8
1
  6
DIVIDE
 62
     8
100
AcDbLine
 10
2634.059999999999
 20
1370.67
 30
0.0
 11
2657.53
 21
1379.78
 31
0.0
  0
LINE
  5
A87
330
19
100
AcDbEntity
  8
1
  6
DIVIDE
 62
     8
100
AcDbLine
 10
2945.84
 20
1590.92
 30
0.0
 11
2817.969999999999
 21
1464.05
 31
0.0
  0
ARC
  5
A88
330
19
100
AcDbEntity
  8
1
  6
DIVIDE
 62
     8
100
AcDbCircle
 10
2526.38
 20
1757.94
 30
0.0
 40
414.0
100
AcDbArc
 50
291.2059999999999
 51
314.7749999999999
  0
LINE
  5
A89
330
19
100
AcDbEntity
  8
1
  6
DIVIDE
 62
     8
100
AcDbLine
 10
2676.14
 20
1371.98
 30
0.0
 11
2639.12
 21
1357.609999999999
 31
0.0
  0
LINE
  5
A8A
330
19
100
AcDbEntity
  8
1
  6
DIVIDE
 62
     8
100
AcDbLine
 10
2960.13
 20
1603.16
 30
0.0
 11
3105.84
 21
1195.47
 31
0.0
  0
LINE
  5
A8B
330
19
100
AcDbEntity
  8
1
  6
DIVIDE
 62
     8
100
AcDbLine
 10
3133.3
 20
1207.54
 30
0.0
 11
2982.47
 21
1626.89
 31
0.0
  0
LINE
  5
A8C
330
19
100
AcDbEntity
  8
1
  6
DIVIDE
 62
     8
100
AcDbLine
 10
3289.09
 20
1257.14
 30
0.0
 11
3048.18
 21
1696.67
 31
0.0
  0
LINE
  5
A8D
330
19
100
AcDbEntity
  8
1
  6
DIVIDE
 62
     8
100
AcDbLine
 10
3026.889999999999
 20
1674.05
 30
0.0
 11
3267.8
 21
1234.52
 31
0.0
  0
LINE
  5
A8E
330
19
100
AcDbEntity
  8
1
  6
DIVIDE
 62
     8
100
AcDbLine
 10
2647.08
 20
1359.63
 30
0.0
 11
2884.61
 21
1257.43
 31
0.0
  0
LINE
  5
A8F
330
19
100
AcDbEntity
  8
1
  6
DIVIDE
 62
     8
100
AcDbLine
 10
2644.9
 20
1356.31
 30
0.0
 11
2833.15
 21
1179.04
 31
0.0
  0
LINE
  5
A90
330
19
100
AcDbEntity
  8
1
  6
DIVIDE
 62
     8
100
AcDbLine
 10
2637.92
 20
1352.8
 30
0.0
 11
2668.179999999999
 21
1095.99
 31
0.0
  0
LINE
  5
A91
330
19
100
AcDbEntity
  8
1
  6
DIVIDE
 62
     8
100
AcDbLine
 10
2633.96
 20
1353.02
 30
0.0
 11
2574.57
 21
1101.359999999999
 31
0.0
  0
LINE
  5
A92
330
19
100
AcDbEntity
  8
1
  6
DIVIDE
 62
     8
100
AcDbLine
 10
2625.65
 20
1360.85
 30
0.0
 11
2378.0
 21
1286.46
 31
0.0
  0
LINE
  5
A93
330
19
100
AcDbEntity
  8
1
  6
DIVIDE
 62
     8
100
AcDbLine
 10
2625.19
 20
1364.79
 30
0.0
 11
2367.03
 21
1379.59
 31
0.0
  0
LINE
  5
A94
330
19
100
AcDbEntity
  8
1
  6
DIVIDE
 62
     8
100
AcDbLine
 10
2626.1
 20
1368.65
 30
0.0
 11
2388.57
 21
1470.849999999999
 31
0.0
  0
LINE
  5
A95
330
19
100
AcDbEntity
  8
1
  6
DIVIDE
 62
     8
100
AcDbLine
 10
2628.27
 20
1371.97
 30
0.0
 11
2440.02
 21
1549.24
 31
0.0
  0
LINE
  5
A96
330
19
100
AcDbEntity
  8
1
  6
DIVIDE
 62
     8
100
AcDbLine
 10
2631.45
 20
1374.34
 30
0.0
 11
2515.19
 21
1605.31
 31
0.0
  0
LINE
  5
A97
330
19
100
AcDbEntity
  8
1
  6
DIVIDE
 62
     8
100
AcDbLine
 10
2635.25
 20
1375.48
 30
0.0
 11
2604.989999999999
 21
1632.28
 31
0.0
  0
LINE
  5
A98
330
19
100
AcDbEntity
  8
1
  6
DIVIDE
 62
     8
100
AcDbLine
 10
2639.21
 20
1375.26
 30
0.0
 11
2698.61
 21
1626.92
 31
0.0
  0
LINE
  5
A99
330
19
100
AcDbEntity
  8
1
  6
DIVIDE
 62
     8
100
AcDbLine
 10
2642.85
 20
1373.69
 30
0.0
 11
2784.75
 21
1589.86
 31
0.0
  0
LINE
  5
A9A
330
19
100
AcDbEntity
  8
1
  6
DIVIDE
 62
     8
100
AcDbLine
 10
3214.36
 20
1200.52
 30
0.0
 11
3566.87
 21
1028.499999999999
 31
0.0
  0
LINE
  5
A9B
330
19
100
AcDbEntity
  8
1
  6
DIVIDE
 62
     8
100
AcDbLine
 10
3540.22
 20
1041.5
 30
0.0
 11
3461.33
 21
1198.23
 31
0.0
  0
LINE
  5
A9C
330
19
100
AcDbEntity
  8
1
  6
DIVIDE
 62
     8
100
AcDbLine
 10
3521.15
 20
911.1269999999999
 30
0.0
 11
3366.31
 21
795.628
 31
0.0
  0
LINE
  5
A9D
330
19
100
AcDbEntity
  8
1
  6
DIVIDE
 62
     8
100
AcDbLine
 10
3466.599999999999
 20
922.1770000000001
 30
0.0
 11
3324.139999999999
 21
879.385
 31
0.0
  0
LINE
  5
A9E
330
19
100
AcDbEntity
  8
1
  6
DIVIDE
 62
     8
100
AcDbLine
 10
3565.95
 20
1099.5
 30
0.0
 11
3551.14
 21
1225.2
 31
0.0
  0
ARC
  5
A9F
330
19
100
AcDbEntity
  8
1
  6
DIVIDE
 62
     8
100
AcDbCircle
 10
3164.719999999999
 20
1098.81
 30
0.0
 40
113.182
100
AcDbArc
 50
231.449
 51
258.548
  0
ARC
  5
AA0
330
19
100
AcDbEntity
  8
1
  6
DIVIDE
 62
     8
100
AcDbCircle
 10
3164.719999999999
 20
1098.81
 30
0.0
 40
113.182
100
AcDbArc
 50
63.98780000000001
 51
221.99
  0
LINE
  5
AA1
330
19
100
AcDbEntity
  8
1
  6
DIVIDE
 62
     8
100
AcDbLine
 10
2653.449999999999
 20
1363.17
 30
0.0
 11
2906.15
 21
1348.69
 31
0.0
  0
LINE
  5
AA2
330
19
100
AcDbEntity
  8
1
  6
DIVIDE
 62
     8
100
AcDbLine
 10
2706.3
 20
1385.08
 30
0.0
 11
2895.17
 21
1441.819999999999
 31
0.0
  0
LINE
  5
AA3
330
19
100
AcDbEntity
  8
1
  6
DIVIDE
 62
     8
100
AcDbLine
 10
2657.54
 20
1379.77
 30
0.0
 11
2832.019999999999
 21
1509.91
 31
0.0
  0
LWPOLYLINE
  5
AA4
330
19
100
AcDbEntity
  8
1
  6
DIVIDE
 62
     8
100
AcDbPolyline
 90
        6
 70
     0
 43
0.0
 10
2891.65
 20
1630.2
 10
3055.27
 20
1826.24
 10
2963.21
 20
1926.0
 10
2847.05
 20
1975.97
 10
2729.82
 20
1699.82
 10
2891.65
 20
1630.2
  0
ARC
  5
AAC
330
19
100
AcDbEntity
  8
1
  6
DIVIDE
 62
     8
100
AcDbCircle
 10
2685.95
 20
1727.599999999999
 30
0.0
 40
32.75679999999999
100
AcDbArc
 50
234.4129999999999
 51
80.1918
  0
LINE
  5
AAD
330
19
100
AcDbEntity
  8
1
  6
DIVIDE
 62
     8
100
AcDbLine
 10
2691.53
 20
1759.88
 30
0.0
 11
2666.3
 21
1701.22
 31
0.0
  0
ARC
  5
AAE
330
19
100
AcDbEntity
  8
1
  6
DIVIDE
 62
     8
100
AcDbCircle
 10
2636.59
 20
1364.14
 30
0.0
 40
327.97
100
AcDbArc
 50
39.81419999999999
 51
84.59529999999999
  0
ARC
  5
AAF
330
19
100
AcDbEntity
  8
1
  6
DIVIDE
 62
     8
100
AcDbCircle
 10
2636.59
 20
1364.14
 30
0.0
 40
327.97
100
AcDbArc
 50
320.4959999999999
 51
34.79699999999999
  0
ARC
  5
AB0
330
19
100
AcDbEntity
  8
1
  6
DIVIDE
 62
     8
100
AcDbCircle
 10
3582.73
 20
957.0629999999999
 30
0.0
 40
304.8
100
AcDbArc
 50
102.214
 51
143.162
  0
ARC
  5
AB1
330
19
100
AcDbEntity
  8
1
  6
DIVIDE
 62
     8
100
AcDbCircle
 10
3582.73
 20
957.0629999999999
 30
0.0
 40
270.0
100
AcDbArc
 50
102.2259999999999
 51
141.746
  0
LWPOLYLINE
  5
AB2
330
19
100
AcDbEntity
  8
1
  6
DIVIDE
 62
     8
100
AcDbPolyline
 90
        3
 70
     0
 43
0.0
 10
3901.679999999999
 20
1219.99
 10
3608.489999999999
 20
1346.14
 10
3517.6
 20
1324.66
  0
LINE
  5
AB7
330
19
100
AcDbEntity
  8
1
  6
DIVIDE
 62
     8
100
AcDbLine
 10
3897.73
 20
1210.81
 30
0.0
 11
3607.57
 21
1335.64
 31
0.0
  0
LINE
  5
AB8
330
19
100
AcDbEntity
  8
1
  6
DIVIDE
 62
     8
100
AcDbLine
 10
3607.57
 20
1335.64
 30
0.0
 11
3519.9
 21
1314.93
 31
0.0
  0
LINE
  5
AB9
330
19
100
AcDbEntity
  8
1
  6
DIVIDE
 62
     8
100
AcDbLine
 10
3897.73
 20
1210.81
 30
0.0
 11
3901.679999999999
 21
1219.99
 31
0.0
  0
LWPOLYLINE
  5
ABA
330
19
100
AcDbEntity
  8
1
  6
DIVIDE
 62
     8
100
AcDbPolyline
 90
        3
 70
     0
 43
0.0
 10
3904.39
 20
1021.07
 10
3929.91
 20
1073.919999999999
 10
3892.269999999999
 20
1065.44
  0
LWPOLYLINE
  5
ABF
330
19
100
AcDbEntity
  8
1
  6
DIVIDE
 62
     8
100
AcDbPolyline
 90
        4
 70
     0
 43
0.0
 10
2889.65
 20
1155.51
 10
2842.1
 20
1094.969999999999
 10
2865.67
 20
1084.829999999999
 10
2889.65
 20
1155.51
  0
LINE
  5
AC5
330
19
100
AcDbEntity
  8
1
  6
DIVIDE
 62
     8
100
AcDbLine
 10
3113.61
 20
1835.619999999999
 30
0.0
 11
3126.45
 21
1823.539999999999
 31
0.0
  0
LINE
  5
AC6
330
19
100
AcDbEntity
  8
1
  6
DIVIDE
 62
     8
100
AcDbLine
 10
3043.989999999999
 20
1735.98
 30
0.0
 11
3126.45
 21
1823.539999999999
 31
0.0
  0
LINE
  5
AC7
330
19
100
AcDbEntity
  8
1
  6
DIVIDE
 62
     8
100
AcDbLine
 10
3061.46
 20
1719.52
 30
0.0
 11
3163.11
 21
1827.469999999999
 31
0.0
  0
POLYLINE
  5
AC8
330
19
100
AcDbEntity
  8
1
  6
DIVIDE
 62
     8
100
AcDb2dPolyline
 66
     1
 10
0.0
 20
0.0
 30
0.0
 70
     2
  0
VERTEX
  5
AC9
330
AC8
100
AcDbEntity
  8
1
  6
DIVIDE
 62
     8
100
AcDbVertex
100
AcDb2dVertex
 10
3181.46
 20
1928.77
 30
0.0
  0
VERTEX
  5
ACA
330
AC8
100
AcDbEntity
  8
1
  6
DIVIDE
 62
     8
100
AcDbVertex
100
AcDb2dVertex
 10
3182.16
 20
1929.99
 30
0.0
  0
VERTEX
  5
ACB
330
AC8
100
AcDbEntity
  8
1
  6
DIVIDE
 62
     8
100
AcDbVertex
100
AcDb2dVertex
 10
3183.139999999999
 20
1931.07
 30
0.0
  0
VERTEX
  5
ACC
330
AC8
100
AcDbEntity
  8
1
  6
DIVIDE
 62
     8
100
AcDbVertex
100
AcDb2dVertex
 10
3184.39
 20
1931.98
 30
0.0
  0
VERTEX
  5
ACD
330
AC8
100
AcDbEntity
  8
1
  6
DIVIDE
 62
     8
100
AcDbVertex
100
AcDb2dVertex
 10
3185.88
 20
1932.72
 30
0.0
  0
VERTEX
  5
ACE
330
AC8
100
AcDbEntity
  8
1
  6
DIVIDE
 62
     8
100
AcDbVertex
100
AcDb2dVertex
 10
3187.6
 20
1933.27
 30
0.0
  0
VERTEX
  5
ACF
330
AC8
100
AcDbEntity
  8
1
  6
DIVIDE
 62
     8
100
AcDbVertex
100
AcDb2dVertex
 10
3189.519999999999
 20
1933.63
 30
0.0
  0
VERTEX
  5
AD0
330
AC8
100
AcDbEntity
  8
1
  6
DIVIDE
 62
     8
100
AcDbVertex
100
AcDb2dVertex
 10
3191.6
 20
1933.78
 30
0.0
  0
VERTEX
  5
AD1
330
AC8
100
AcDbEntity
  8
1
  6
DIVIDE
 62
     8
100
AcDbVertex
100
AcDb2dVertex
 10
3193.82
 20
1933.72
 30
0.0
  0
VERTEX
  5
AD2
330
AC8
100
AcDbEntity
  8
1
  6
DIVIDE
 62
     8
100
AcDbVertex
100
AcDb2dVertex
 10
3196.14
 20
1933.47
 30
0.0
  0
VERTEX
  5
AD3
330
AC8
100
AcDbEntity
  8
1
  6
DIVIDE
 62
     8
100
AcDbVertex
100
AcDb2dVertex
 10
3198.52
 20
1933.01
 30
0.0
  0
VERTEX
  5
AD4
330
AC8
100
AcDbEntity
  8
1
  6
DIVIDE
 62
     8
100
AcDbVertex
100
AcDb2dVertex
 10
3200.919999999999
 20
1932.36
 30
0.0
  0
VERTEX
  5
AD5
330
AC8
100
AcDbEntity
  8
1
  6
DIVIDE
 62
     8
100
AcDbVertex
100
AcDb2dVertex
 10
3203.32
 20
1931.53
 30
0.0
  0
VERTEX
  5
AD6
330
AC8
100
AcDbEntity
  8
1
  6
DIVIDE
 62
     8
100
AcDbVertex
100
AcDb2dVertex
 10
3205.659999999999
 20
1930.53
 30
0.0
  0
VERTEX
  5
AD7
330
AC8
100
AcDbEntity
  8
1
  6
DIVIDE
 62
     8
100
AcDbVertex
100
AcDb2dVertex
 10
3207.92
 20
1929.369999999999
 30
0.0
  0
VERTEX
  5
AD8
330
AC8
100
AcDbEntity
  8
1
  6
DIVIDE
 62
     8
100
AcDbVertex
100
AcDb2dVertex
 10
3210.05
 20
1928.079999999999
 30
0.0
  0
VERTEX
  5
AD9
330
AC8
100
AcDbEntity
  8
1
  6
DIVIDE
 62
     8
100
AcDbVertex
100
AcDb2dVertex
 10
3212.04
 20
1926.67
 30
0.0
  0
VERTEX
  5
ADA
330
AC8
100
AcDbEntity
  8
1
  6
DIVIDE
 62
     8
100
AcDbVertex
100
AcDb2dVertex
 10
3213.83
 20
1925.169999999999
 30
0.0
  0
VERTEX
  5
ADB
330
AC8
100
AcDbEntity
  8
1
  6
DIVIDE
 62
     8
100
AcDbVertex
100
AcDb2dVertex
 10
3215.41
 20
1923.6
 30
0.0
  0
VERTEX
  5
ADC
330
AC8
100
AcDbEntity
  8
1
  6
DIVIDE
 62
     8
100
AcDbVertex
100
AcDb2dVertex
 10
3216.75
 20
1921.99
 30
0.0
  0
VERTEX
  5
ADD
330
AC8
100
AcDbEntity
  8
1
  6
DIVIDE
 62
     8
100
AcDbVertex
100
AcDb2dVertex
 10
3217.83
 20
1920.35
 30
0.0
  0
VERTEX
  5
ADE
330
AC8
100
AcDbEntity
  8
1
  6
DIVIDE
 62
     8
100
AcDbVertex
100
AcDb2dVertex
 10
3218.63
 20
1918.72
 30
0.0
  0
VERTEX
  5
ADF
330
AC8
100
AcDbEntity
  8
1
  6
DIVIDE
 62
     8
100
AcDbVertex
100
AcDb2dVertex
 10
3219.15
 20
1917.119999999999
 30
0.0
  0
VERTEX
  5
AE0
330
AC8
100
AcDbEntity
  8
1
  6
DIVIDE
 62
     8
100
AcDbVertex
100
AcDb2dVertex
 10
3219.36
 20
1915.58
 30
0.0
  0
VERTEX
  5
AE1
330
AC8
100
AcDbEntity
  8
1
  6
DIVIDE
 62
     8
100
AcDbVertex
100
AcDb2dVertex
 10
3219.28
 20
1914.119999999999
 30
0.0
  0
VERTEX
  5
AE2
330
AC8
100
AcDbEntity
  8
1
  6
DIVIDE
 62
     8
100
AcDbVertex
100
AcDb2dVertex
 10
3218.89
 20
1912.76
 30
0.0
  0
VERTEX
  5
AE3
330
AC8
100
AcDbEntity
  8
1
  6
DIVIDE
 62
     8
100
AcDbVertex
100
AcDb2dVertex
 10
3218.21
 20
1911.53
 30
0.0
  0
VERTEX
  5
AE4
330
AC8
100
AcDbEntity
  8
1
  6
DIVIDE
 62
     8
100
AcDbVertex
100
AcDb2dVertex
 10
3217.249999999999
 20
1910.44
 30
0.0
  0
VERTEX
  5
AE5
330
AC8
100
AcDbEntity
  8
1
  6
DIVIDE
 62
     8
100
AcDbVertex
100
AcDb2dVertex
 10
3216.02
 20
1909.52
 30
0.0
  0
VERTEX
  5
AE6
330
AC8
100
AcDbEntity
  8
1
  6
DIVIDE
 62
     8
100
AcDbVertex
100
AcDb2dVertex
 10
3214.54
 20
1908.76
 30
0.0
  0
VERTEX
  5
AE7
330
AC8
100
AcDbEntity
  8
1
  6
DIVIDE
 62
     8
100
AcDbVertex
100
AcDb2dVertex
 10
3212.83
 20
1908.2
 30
0.0
  0
VERTEX
  5
AE8
330
AC8
100
AcDbEntity
  8
1
  6
DIVIDE
 62
     8
100
AcDbVertex
100
AcDb2dVertex
 10
3210.92
 20
1907.829999999999
 30
0.0
  0
VERTEX
  5
AE9
330
AC8
100
AcDbEntity
  8
1
  6
DIVIDE
 62
     8
100
AcDbVertex
100
AcDb2dVertex
 10
3208.849999999999
 20
1907.67
 30
0.0
  0
VERTEX
  5
AEA
330
AC8
100
AcDbEntity
  8
1
  6
DIVIDE
 62
     8
100
AcDbVertex
100
AcDb2dVertex
 10
3206.64
 20
1907.71
 30
0.0
  0
VERTEX
  5
AEB
330
AC8
100
AcDbEntity
  8
1
  6
DIVIDE
 62
     8
100
AcDbVertex
100
AcDb2dVertex
 10
3204.32
 20
1907.949999999999
 30
0.0
  0
VERTEX
  5
AEC
330
AC8
100
AcDbEntity
  8
1
  6
DIVIDE
 62
     8
100
AcDbVertex
100
AcDb2dVertex
 10
3201.95
 20
1908.389999999999
 30
0.0
  0
VERTEX
  5
AED
330
AC8
100
AcDbEntity
  8
1
  6
DIVIDE
 62
     8
100
AcDbVertex
100
AcDb2dVertex
 10
3199.54
 20
1909.029999999999
 30
0.0
  0
VERTEX
  5
AEE
330
AC8
100
AcDbEntity
  8
1
  6
DIVIDE
 62
     8
100
AcDbVertex
100
AcDb2dVertex
 10
3197.14
 20
1909.849999999999
 30
0.0
  0
VERTEX
  5
AEF
330
AC8
100
AcDbEntity
  8
1
  6
DIVIDE
 62
     8
100
AcDbVertex
100
AcDb2dVertex
 10
3194.79
 20
1910.84
 30
0.0
  0
VERTEX
  5
AF0
330
AC8
100
AcDbEntity
  8
1
  6
DIVIDE
 62
     8
100
AcDbVertex
100
AcDb2dVertex
 10
3192.52
 20
1911.99
 30
0.0
  0
VERTEX
  5
AF1
330
AC8
100
AcDbEntity
  8
1
  6
DIVIDE
 62
     8
100
AcDbVertex
100
AcDb2dVertex
 10
3190.38
 20
1913.269999999999
 30
0.0
  0
VERTEX
  5
AF2
330
AC8
100
AcDbEntity
  8
1
  6
DIVIDE
 62
     8
100
AcDbVertex
100
AcDb2dVertex
 10
3188.38
 20
1914.67
 30
0.0
  0
VERTEX
  5
AF3
330
AC8
100
AcDbEntity
  8
1
  6
DIVIDE
 62
     8
100
AcDbVertex
100
AcDb2dVertex
 10
3186.57
 20
1916.17
 30
0.0
  0
VERTEX
  5
AF4
330
AC8
100
AcDbEntity
  8
1
  6
DIVIDE
 62
     8
100
AcDbVertex
100
AcDb2dVertex
 10
3184.98
 20
1917.74
 30
0.0
  0
VERTEX
  5
AF5
330
AC8
100
AcDbEntity
  8
1
  6
DIVIDE
 62
     8
100
AcDbVertex
100
AcDb2dVertex
 10
3183.619999999999
 20
1919.35
 30
0.0
  0
VERTEX
  5
AF6
330
AC8
100
AcDbEntity
  8
1
  6
DIVIDE
 62
     8
100
AcDbVertex
100
AcDb2dVertex
 10
3182.52
 20
1920.99
 30
0.0
  0
VERTEX
  5
AF7
330
AC8
100
AcDbEntity
  8
1
  6
DIVIDE
 62
     8
100
AcDbVertex
100
AcDb2dVertex
 10
3181.69
 20
1922.62
 30
0.0
  0
VERTEX
  5
AF8
330
AC8
100
AcDbEntity
  8
1
  6
DIVIDE
 62
     8
100
AcDbVertex
100
AcDb2dVertex
 10
3181.16
 20
1924.22
 30
0.0
  0
VERTEX
  5
AF9
330
AC8
100
AcDbEntity
  8
1
  6
DIVIDE
 62
     8
100
AcDbVertex
100
AcDb2dVertex
 10
3180.92
 20
1925.769999999999
 30
0.0
  0
VERTEX
  5
AFA
330
AC8
100
AcDbEntity
  8
1
  6
DIVIDE
 62
     8
100
AcDbVertex
100
AcDb2dVertex
 10
3180.989999999999
 20
1927.24
 30
0.0
  0
VERTEX
  5
AFB
330
AC8
100
AcDbEntity
  8
1
  6
DIVIDE
 62
     8
100
AcDbVertex
100
AcDb2dVertex
 10
3181.46
 20
1928.77
 30
0.0
  0
SEQEND
  5
AFC
330
AC8
100
AcDbEntity
  8
1
 62
     8
  0
LINE
  5
AFD
330
19
100
AcDbEntity
  8
1
  6
DIVIDE
 62
     8
100
AcDbLine
 10
3279.04
 20
1831.54
 30
0.0
 11
3291.65
 21
1851.96
 31
0.0
  0
ARC
  5
AFE
330
19
100
AcDbEntity
  8
1
  6
DIVIDE
 62
     8
100
AcDbCircle
 10
3116.68
 20
1746.02
 30
0.0
 40
133.8449999999999
100
AcDbArc
 50
18.20949999999999
 51
53.57759999999999
  0
ARC
  5
AFF
330
19
100
AcDbEntity
  8
1
  6
DIVIDE
 62
     8
100
AcDbCircle
 10
3116.68
 20
1746.02
 30
0.0
 40
138.8039999999999
100
AcDbArc
 50
18.4237
 51
53.8433
  0
LWPOLYLINE
  5
B00
330
19
100
AcDbEntity
  8
1
  6
DIVIDE
 62
     8
100
AcDbPolyline
 90
        4
 70
     0
 43
0.0
 10
3221.56
 20
1895.27
 10
3194.46
 20
1851.42
 10
3175.219999999999
 20
1863.31
 10
3202.32
 20
1907.16
  0
CIRCLE
  5
B06
330
19
100
AcDbEntity
  8
1
  6
DIVIDE
 62
     8
100
AcDbCircle
 10
3247.64
 20
1785.44
 30
0.0
 40
4.50255
  0
LINE
  5
B07
330
19
100
AcDbEntity
  8
1
  6
DIVIDE
 62
     8
100
AcDbLine
 10
3163.11
 20
1827.469999999999
 30
0.0
 11
3139.95
 21
1849.289999999999
 31
0.0
  0
CIRCLE
  5
B08
330
19
100
AcDbEntity
  8
1
  6
DIVIDE
 62
     8
100
AcDbCircle
 10
3123.21
 20
1845.809999999999
 30
0.0
 40
12.0
  0
ARC
  5
B09
330
19
100
AcDbEntity
  8
1
  6
DIVIDE
 62
     8
100
AcDbCircle
 10
3123.21
 20
1845.809999999999
 30
0.0
 40
14.0
100
AcDbArc
 50
125.717
 51
7.72271
  0
LINE
  5
B0A
330
19
100
AcDbEntity
  8
1
  6
DIVIDE
 62
     8
100
AcDbLine
 10
3291.65
 20
1851.96
 30
0.0
 11
3197.69
 21
1910.02
 31
0.0
  0
ARC
  5
B0B
330
19
100
AcDbEntity
  8
1
  6
DIVIDE
 62
     8
100
AcDbCircle
 10
3172.46
 20
1869.19
 30
0.0
 40
48.0
100
AcDbArc
 50
58.2847
 51
156.7199999999999
  0
LINE
  5
B0C
330
19
100
AcDbEntity
  8
1
  6
DIVIDE
 62
     8
100
AcDbLine
 10
3112.19
 20
1850.56
 30
0.0
 11
3128.37
 21
1888.16
 31
0.0
  0
LINE
  5
B0D
330
19
100
AcDbEntity
  8
1
  6
DIVIDE
 62
     8
100
AcDbLine
 10
3279.04
 20
1831.54
 30
0.0
 11
3185.08
 21
1889.61
 31
0.0
  0
ARC
  5
B0E
330
19
100
AcDbEntity
  8
1
  6
DIVIDE
 62
     8
100
AcDbCircle
 10
3172.46
 20
1869.19
 30
0.0
 40
24.0
100
AcDbArc
 50
58.2847
 51
156.7199999999999
  0
LINE
  5
B0F
330
19
100
AcDbEntity
  8
1
  6
DIVIDE
 62
     8
100
AcDbLine
 10
3134.23
 20
1841.07
 30
0.0
 11
3150.409999999999
 21
1878.68
 31
0.0
  0
LINE
  5
B10
330
19
100
AcDbEntity
  8
1
  6
DIVIDE
 62
     8
100
AcDbLine
 10
3470.62
 20
1442.6
 30
0.0
 11
3505.04
 21
1479.16
 31
0.0
  0
LINE
  5
B11
330
19
100
AcDbEntity
  8
1
  6
DIVIDE
 62
     8
100
AcDbLine
 10
3489.54
 20
1424.78
 30
0.0
 11
3527.76
 21
1465.37
 31
0.0
  0
ARC
  5
B12
330
19
100
AcDbEntity
  8
1
  6
DIVIDE
 62
     8
100
AcDbCircle
 10
3433.41
 20
1560.39
 30
0.0
 40
20.0
100
AcDbArc
 50
66.72
 51
136.7199999999999
  0
LWPOLYLINE
  5
B13
330
19
100
AcDbEntity
  8
1
  6
DIVIDE
 62
     8
100
AcDbPolyline
 90
        6
 70
     0
 43
0.0
 10
3418.849999999999
 20
1574.1
 10
3406.56
 20
1561.06
 10
3515.06
 20
1470.83
 10
3560.98
 20
1451.07
 10
3654.67
 20
1458.95
 10
3656.94
 20
1464.22
  0
LINE
  5
B1B
330
19
100
AcDbEntity
  8
1
  6
DIVIDE
 62
     8
100
AcDbLine
 10
3646.47
 20
1490.5
 30
0.0
 11
3441.32
 21
1578.77
 31
0.0
  0
ARC
  5
B1C
330
19
100
AcDbEntity
  8
1
  6
DIVIDE
 62
     8
100
AcDbCircle
 10
3638.57
 20
1472.12
 30
0.0
 40
20.0
100
AcDbArc
 50
336.72
 51
66.72
  0
LWPOLYLINE
  5
B1D
330
19
100
AcDbEntity
  8
1
  6
DIVIDE
 62
     8
100
AcDbPolyline
 90
       10
 70
     0
 43
0.0
 10
3618.55
 20
1454.5
 10
3638.01
 20
1430.71
 10
3600.87
 20
1449.259999999999
 10
3629.939999999999
 20
1421.9
 10
3594.24
 20
1439.829999999999
 10
3618.38
 20
1412.3
 10
3583.79
 20
1431.47
 10
3606.55
 20
1403.4
 10
3577.11
 20
1412.64
 10
3539.45
 20
1454.55
  0
LINE
  5
B29
330
19
100
AcDbEntity
  8
1
  6
DIVIDE
 62
     8
100
AcDbLine
 10
3687.51
 20
858.3889999999998
 30
0.0
 11
3779.29
 21
771.96
 31
0.0
  0
CIRCLE
  5
B2A
330
19
100
AcDbEntity
  8
1
  6
DIVIDE
 62
     8
100
AcDbCircle
 10
3582.73
 20
957.0629999999999
 30
0.0
 40
15.0
  0
CIRCLE
  5
B2B
330
19
100
AcDbEntity
  8
1
  6
DIVIDE
 62
     8
100
AcDbCircle
 10
3583.16
 20
985.9849999999999
 30
0.0
 40
7.0
  0
LINE
  5
B2C
330
19
100
AcDbEntity
  8
1
  6
DIVIDE
 62
     8
100
AcDbLine
 10
3590.01
 20
987.4550000000001
 30
0.0
 11
3499.46
 21
1409.119999999999
 31
0.0
  0
LINE
  5
B2D
330
19
100
AcDbEntity
  8
1
  6
DIVIDE
 62
     8
100
AcDbLine
 10
3485.77
 20
1406.18
 30
0.0
 11
3576.32
 21
984.5160000000001
 31
0.0
  0
LINE
  5
B2E
330
19
100
AcDbEntity
  8
1
  6
DIVIDE
 62
     8
100
AcDbLine
 10
3597.21
 20
960.9939999999999
 30
0.0
 11
3589.92
 21
987.8200000000001
 31
0.0
  0
LINE
  5
B2F
330
19
100
AcDbEntity
  8
1
  6
DIVIDE
 62
     8
100
AcDbLine
 10
3563.74
 20
974.061
 30
0.0
 11
3577.85
 21
990.5369999999999
 31
0.0
  0
LINE
  5
B30
330
19
100
AcDbEntity
  8
1
  6
DIVIDE
 62
     8
100
AcDbLine
 10
3582.869999999999
 20
1020.69
 30
0.0
 11
3607.84
 21
1008.51
 31
0.0
  0
LINE
  5
B31
330
19
100
AcDbEntity
  8
1
  6
DIVIDE
 62
     8
100
AcDbLine
 10
3639.88
 20
953.7869999999999
 30
0.0
 11
3852.289999999999
 21
941.6139999999998
 31
0.0
  0
LINE
  5
B32
330
19
100
AcDbEntity
  8
1
  6
DIVIDE
 62
     8
100
AcDbLine
 10
3637.56
 20
973.5330000000001
 30
0.0
 11
3841.31
 21
1034.739999999999
 31
0.0
  0
LINE
  5
B33
330
19
100
AcDbEntity
  8
1
  6
DIVIDE
 62
     8
100
AcDbLine
 10
3614.139999999999
 20
1004.92
 30
0.0
 11
3730.89
 21
1182.779999999999
 31
0.0
  0
LINE
  5
B34
330
19
100
AcDbEntity
  8
1
  6
DIVIDE
 62
     8
100
AcDbLine
 10
3596.21
 20
1014.18
 30
0.0
 11
3644.75
 21
1219.84
 31
0.0
  0
LINE
  5
B35
330
19
100
AcDbEntity
  8
1
  6
DIVIDE
 62
     8
100
AcDbLine
 10
3569.59
 20
901.373
 30
0.0
 11
3520.71
 21
694.283
 31
0.0
  0
LINE
  5
B36
330
19
100
AcDbEntity
  8
1
  6
DIVIDE
 62
     8
100
AcDbLine
 10
3589.43
 20
900.2069999999999
 30
0.0
 11
3614.32
 21
688.918
 31
0.0
  0
LINE
  5
B37
330
19
100
AcDbEntity
  8
1
  6
DIVIDE
 62
     8
100
AcDbLine
 10
3635.32
 20
934.4369999999999
 30
0.0
 11
3830.75
 21
850.3519999999999
 31
0.0
  0
LINE
  5
B38
330
19
100
AcDbEntity
  8
1
  6
DIVIDE
 62
     8
100
AcDbLine
 10
3548.89
 20
905.506
 30
0.0
 11
3434.57
 21
731.3430000000001
 31
0.0
  0
LINE
  5
B39
330
19
100
AcDbEntity
  8
1
  6
DIVIDE
 62
     8
100
AcDbLine
 10
3576.06
 20
969.8819999999999
 30
0.0
 11
3252.64
 21
1079.55
 31
0.0
  0
LINE
  5
B3A
330
19
100
AcDbEntity
  8
1
  6
DIVIDE
 62
     8
100
AcDbLine
 10
3569.639999999999
 20
950.942
 30
0.0
 11
3246.21
 21
1060.61
 31
0.0
  0
ARC
  5
B3B
330
19
100
AcDbEntity
  8
1
  6
DIVIDE
 62
     8
100
AcDbCircle
 10
3582.73
 20
957.0629999999999
 30
0.0
 40
40.0
100
AcDbArc
 50
102.8399999999999
 51
146.79
  0
LINE
  5
B3C
330
19
100
AcDbEntity
  8
1
  6
DIVIDE
 62
     8
100
AcDbLine
 10
3628.62
 20
991.2919999999999
 30
0.0
 11
3799.15
 21
1118.49
 31
0.0
  0
LINE
  5
B3D
330
19
100
AcDbEntity
  8
1
  6
DIVIDE
 62
     8
100
AcDbLine
 10
3571.36
 20
900.9539999999999
 30
0.0
 11
3142.25
 21
987.8819999999999
 31
0.0
  0
LINE
  5
B3E
330
19
100
AcDbEntity
  8
1
  6
DIVIDE
 62
     8
100
AcDbLine
 10
3604.32
 20
914.4999999999999
 30
0.0
 11
3885.03
 21
763.48
 31
0.0
  0
LINE
  5
B3F
330
19
100
AcDbEntity
  8
1
  6
DIVIDE
 62
     8
100
AcDbLine
 10
3880.29
 20
754.673
 30
0.0
 11
3599.59
 21
905.6929999999999
 31
0.0
  0
CIRCLE
  5
B40
330
19
100
AcDbEntity
  8
1
  6
DIVIDE
 62
     8
100
AcDbCircle
 10
3596.45
 20
913.0549999999999
 30
0.0
 40
8.0
  0
LWPOLYLINE
  5
B41
330
19
100
AcDbEntity
  8
1
  6
DIVIDE
 62
     8
100
AcDbPolyline
 90
        3
 70
     0
 43
0.0
 10
3555.76
 20
919.679
 10
3610.87
 20
895.9649999999999
 10
3612.15
 20
898.933
  0
LINE
  5
B46
330
19
100
AcDbEntity
  8
1
  6
DIVIDE
 62
     8
100
AcDbLine
 10
3616.12
 20
908.154
 30
0.0
 11
3624.71
 21
928.1160000000001
 31
0.0
  0
LINE
  5
B47
330
19
100
AcDbEntity
  8
1
  6
DIVIDE
 62
     8
100
AcDbLine
 10
3597.78
 20
970.236
 30
0.0
 11
3809.649999999999
 21
1248.7
 31
0.0
  0
LINE
  5
B48
330
19
100
AcDbEntity
  8
1
  6
DIVIDE
 62
     8
100
AcDbLine
 10
3592.86
 20
976.9849999999999
 30
0.0
 11
3802.08
 21
1251.96
 31
0.0
  0
ARC
  5
B49
330
19
100
AcDbEntity
  8
1
  6
DIVIDE
 62
     8
100
AcDbCircle
 10
3559.71
 20
928.8639999999999
 30
0.0
 40
10.0
100
AcDbArc
 50
156.7199999999999
 51
246.72
  0
ARC
  5
B4A
330
19
100
AcDbEntity
  8
1
  6
DIVIDE
 62
     8
100
AcDbCircle
 10
3582.73
 20
957.0629999999999
 30
0.0
 40
40.0
100
AcDbArc
 50
175.745
 51
216.975
  0
LINE
  5
B4B
330
19
100
AcDbEntity
  8
1
  6
DIVIDE
 62
     8
100
AcDbLine
 10
3559.76
 20
954.291
 30
0.0
 11
3550.53
 21
932.817
 31
0.0
  0
ARC
  5
B4C
330
19
100
AcDbEntity
  8
1
  6
DIVIDE
 62
     8
100
AcDbCircle
 10
3582.73
 20
957.0629999999999
 30
0.0
 40
57.24849999999999
100
AcDbArc
 50
256.72
 51
284.9019999999999
  0
LINE
  5
B4D
330
19
100
AcDbEntity
  8
1
  6
DIVIDE
 62
     8
100
AcDbLine
 10
3612.02
 20
898.869
 30
0.0
 11
3704.13
 21
715.8949999999999
 31
0.0
  0
LINE
  5
B4E
330
19
100
AcDbEntity
  8
1
  6
DIVIDE
 62
     8
100
AcDbLine
 10
3624.409999999999
 20
917.815
 30
0.0
 11
3659.39
 21
884.877
 31
0.0
  0
LINE
  5
B4F
330
19
100
AcDbEntity
  8
1
  6
DIVIDE
 62
     8
100
AcDbLine
 10
3624.71
 20
928.1160000000001
 30
0.0
 11
3593.53
 21
977.401
 31
0.0
  0
ARC
  5
B50
330
19
100
AcDbEntity
  8
1
  6
DIVIDE
 62
     8
100
AcDbCircle
 10
3582.73
 20
957.0629999999999
 30
0.0
 40
57.24849999999999
100
AcDbArc
 50
56.74049999999999
 51
63.98780000000001
  0
ARC
  5
B51
330
19
100
AcDbEntity
  8
1
  6
DIVIDE
 62
     8
100
AcDbCircle
 10
3582.73
 20
957.0629999999999
 30
0.0
 40
57.24849999999999
100
AcDbArc
 50
307.574
 51
48.7274
  0
ARC
  5
B52
330
19
100
AcDbEntity
  8
1
  6
DIVIDE
 62
     8
100
AcDbCircle
 10
3582.73
 20
957.0629999999999
 30
0.0
 40
40.0
100
AcDbArc
 50
58.47310000000001
 51
82.3998
  0
ARC
  5
B53
330
19
100
AcDbEntity
  8
1
  6
DIVIDE
 62
     8
100
AcDbCircle
 10
3582.73
 20
957.0629999999999
 30
0.0
 40
40.0
100
AcDbArc
 50
332.3159999999999
 51
46.9948
  0
ARC
  5
B54
330
19
100
AcDbEntity
  8
1
  6
DIVIDE
 62
     8
100
AcDbCircle
 10
3582.73
 20
957.0629999999999
 30
0.0
 40
327.97
100
AcDbArc
 50
334.965
 51
52.0351
  0
ARC
  5
B55
330
19
100
AcDbEntity
  8
1
  6
DIVIDE
 62
     8
100
AcDbCircle
 10
3582.73
 20
957.0629999999999
 30
0.0
 40
304.8
100
AcDbArc
 50
53.48590000000001
 51
99.58150000000001
  0
ARC
  5
B56
330
19
100
AcDbEntity
  8
1
  6
DIVIDE
 62
     8
100
AcDbCircle
 10
3582.73
 20
957.0629999999999
 30
0.0
 40
270.0
100
AcDbArc
 50
53.58279999999999
 51
99.25409999999999
  0
ARC
  5
B57
330
19
100
AcDbEntity
  8
1
  6
DIVIDE
 62
     8
100
AcDbCircle
 10
3582.73
 20
957.0629999999999
 30
0.0
 40
304.8
100
AcDbArc
 50
326.5899999999999
 51
51.98199999999999
  0
ARC
  5
B58
330
19
100
AcDbEntity
  8
1
  6
DIVIDE
 62
     8
100
AcDbCircle
 10
3582.73
 20
957.0629999999999
 30
0.0
 40
304.8
100
AcDbArc
 50
179.373
 51
324.699
  0
ARC
  5
B59
330
19
100
AcDbEntity
  8
1
  6
DIVIDE
 62
     8
100
AcDbCircle
 10
3582.73
 20
957.0629999999999
 30
0.0
 40
270.0
100
AcDbArc
 50
325.927
 51
51.8851
  0
ARC
  5
B5A
330
19
100
AcDbEntity
  8
1
  6
DIVIDE
 62
     8
100
AcDbCircle
 10
3582.73
 20
957.0629999999999
 30
0.0
 40
270.0
100
AcDbArc
 50
180.789
 51
323.789
  0
ARC
  5
B5B
330
19
100
AcDbEntity
  8
1
  6
DIVIDE
 62
     8
100
AcDbCircle
 10
3582.73
 20
957.0629999999999
 30
0.0
 40
327.97
100
AcDbArc
 50
102.207
 51
143.935
  0
ARC
  5
B5C
330
19
100
AcDbEntity
  8
1
  6
DIVIDE
 62
     8
100
AcDbCircle
 10
3582.73
 20
957.0629999999999
 30
0.0
 40
327.97
100
AcDbArc
 50
53.4327
 51
99.76090000000001
  0
CIRCLE
  5
B5D
330
19
100
AcDbEntity
  8
1
  6
DIVIDE
 62
     8
100
AcDbCircle
 10
3882.659999999999
 20
759.077
 30
0.0
 40
5.0
  0
POINT
  5
B5E
330
19
100
AcDbEntity
  8
1
 62
     8
100
AcDbPoint
 10
3169.449999999999
 20
1946.119999999999
 30
0.0
  0
POINT
  5
B5F
330
19
100
AcDbEntity
  8
1
 62
     8
100
AcDbPoint
 10
3462.27
 20
677.078
 30
0.0
  0
POINT
  5
B60
330
19
100
AcDbEntity
  8
1
 62
     8
100
AcDbPoint
 10
2516.12
 20
1084.16
 30
0.0
  0
ARC
  5
B61
330
19
100
AcDbEntity
  8
1
  6
DIVIDE
 62
     8
100
AcDbCircle
 10
3582.73
 20
957.0629999999999
 30
0.0
 40
278.161
100
AcDbArc
 50
102.2229999999999
 51
142.11
  0
ARC
  5
B62
330
19
100
AcDbEntity
  8
1
  6
DIVIDE
 62
     8
100
AcDbCircle
 10
3582.73
 20
957.0629999999999
 30
0.0
 40
278.161
100
AcDbArc
 50
53.55789999999999
 51
99.33820000000002
  0
ARC
  5
B63
330
19
100
AcDbEntity
  8
1
  6
DIVIDE
 62
     8
100
AcDbCircle
 10
3582.73
 20
957.0629999999999
 30
0.0
 40
278.161
100
AcDbArc
 50
326.0969999999999
 51
51.90999999999999
  0
ARC
  5
B64
330
19
100
AcDbEntity
  8
1
  6
DIVIDE
 62
     8
100
AcDbCircle
 10
3582.73
 20
957.0629999999999
 30
0.0
 40
278.161
100
AcDbArc
 50
180.425
 51
324.0229999999999
  0
ARC
  5
B65
330
19
100
AcDbEntity
  8
1
  6
Continuous
 62
     8
100
AcDbCircle
 10
1892.66
 20
2100.119999999999
 30
0.0
 40
304.8
100
AcDbArc
 50
345.4069999999999
 51
347.979
  0
ARC
  5
B66
330
19
100
AcDbEntity
  8
1
  6
Continuous
 62
     2
100
AcDbCircle
 10
2187.66
 20
2018.32
 30
0.0
 40
5.0
100
AcDbArc
 50
238.6109999999999
 51
90.36680000000002
  0
ARC
  5
B67
330
19
100
AcDbEntity
  8
1
  6
Continuous
 62
     8
100
AcDbCircle
 10
1892.66
 20
2100.119999999999
 30
0.0
 40
278.161
100
AcDbArc
 50
343.9719999999999
 51
347.303
  0
ARC
  5
B68
330
19
100
AcDbEntity
  8
1
  6
Continuous
 62
     8
100
AcDbCircle
 10
1892.66
 20
2100.119999999999
 30
0.0
 40
270.0
100
AcDbArc
 50
343.474
 51
347.069
  0
LINE
  5
B69
330
19
100
AcDbEntity
  8
1
  6
Continuous
 62
     8
100
AcDbLine
 10
2027.909999999999
 20
2050.89
 30
0.0
 11
2119.42
 21
2017.58
 31
0.0
  0
LINE
  5
B6A
330
19
100
AcDbEntity
  8
1
  6
Continuous
 62
     8
100
AcDbLine
 10
2133.84
 20
2012.329999999999
 30
0.0
 11
2146.38
 21
2007.77
 31
0.0
  0
ARC
  5
B6B
330
19
100
AcDbEntity
  8
1
  6
Continuous
 62
     8
100
AcDbCircle
 10
1892.66
 20
2100.119999999999
 30
0.0
 40
270.0
100
AcDbArc
 50
321.057
 51
341.2469999999999
  0
ARC
  5
B6C
330
19
100
AcDbEntity
  8
1
  6
Continuous
 62
     8
100
AcDbCircle
 10
1892.66
 20
2100.119999999999
 30
0.0
 40
278.161
100
AcDbArc
 50
319.021
 51
341.8169999999999
  0
ARC
  5
B6D
330
19
100
AcDbEntity
  8
1
  6
Continuous
 62
     8
100
AcDbCircle
 10
1892.66
 20
2100.119999999999
 30
0.0
 40
304.8
100
AcDbArc
 50
313.549
 51
343.454
  0
ARC
  5
B6E
330
19
100
AcDbEntity
  8
1
  6
Continuous
 62
     8
100
AcDbCircle
 10
1892.66
 20
2100.119999999999
 30
0.0
 40
304.8
100
AcDbArc
 50
304.298
 51
311.0079999999999
  0
ARC
  5
B6F
330
19
100
AcDbEntity
  8
1
  6
Continuous
 62
     8
100
AcDbCircle
 10
1892.66
 20
2100.119999999999
 30
0.0
 40
304.8
100
AcDbArc
 50
202.653
 51
235.7009999999999
  0
ARC
  5
B70
330
19
100
AcDbEntity
  8
1
  6
Continuous
 62
     8
100
AcDbCircle
 10
1892.66
 20
2100.119999999999
 30
0.0
 40
278.161
100
AcDbArc
 50
295.1449999999999
 51
315.972
  0
ARC
  5
B71
330
19
100
AcDbEntity
  8
1
  6
Continuous
 62
     8
100
AcDbCircle
 10
1892.66
 20
2100.119999999999
 30
0.0
 40
278.161
100
AcDbArc
 50
203.705
 51
244.854
  0
ARC
  5
B72
330
19
100
AcDbEntity
  8
1
  6
Continuous
 62
     8
100
AcDbCircle
 10
1892.66
 20
2100.119999999999
 30
0.0
 40
270.0
100
AcDbArc
 50
291.1569999999999
 51
317.794
  0
ARC
  5
B73
330
19
100
AcDbEntity
  8
1
  6
Continuous
 62
     8
100
AcDbCircle
 10
1892.66
 20
2100.119999999999
 30
0.0
 40
270.0
100
AcDbArc
 50
204.069
 51
248.842
  0
LINE
  5
B74
330
19
100
AcDbEntity
  8
1
  6
Continuous
 62
     8
100
AcDbLine
 10
1902.599999999999
 20
2043.769999999999
 30
0.0
 11
1937.059999999999
 21
1848.32
 31
0.0
  0
LINE
  5
B75
330
19
100
AcDbEntity
  8
1
  6
Continuous
 62
     8
100
AcDbLine
 10
1881.95
 20
2039.38
 30
0.0
 11
1848.26
 21
1848.32
 31
0.0
  0
LINE
  5
B76
330
19
100
AcDbEntity
  8
1
  6
Continuous
 62
     2
100
AcDbLine
 10
1527.66
 20
1793.32
 30
0.0
 11
1977.66
 21
1793.32
 31
0.0
  0
ARC
  5
B77
330
19
100
AcDbEntity
  8
1
  6
Continuous
 62
     8
100
AcDbCircle
 10
862.6649999999999
 20
2100.119999999999
 30
0.0
 40
304.8
100
AcDbArc
 50
319.0109999999999
 51
57.30980000000001
  0
ARC
  5
B78
330
19
100
AcDbEntity
  8
1
  6
Continuous
 62
     8
100
AcDbCircle
 10
862.6649999999999
 20
2100.119999999999
 30
0.0
 40
304.8
100
AcDbArc
 50
304.298
 51
316.474
  0
ARC
  5
B79
330
19
100
AcDbEntity
  8
1
  6
Continuous
 62
     8
100
AcDbCircle
 10
862.6649999999999
 20
2100.119999999999
 30
0.0
 40
278.161
100
AcDbArc
 50
322.17
 51
56.2667
  0
ARC
  5
B7A
330
19
100
AcDbEntity
  8
1
  6
Continuous
 62
     8
100
AcDbCircle
 10
862.6649999999999
 20
2100.119999999999
 30
0.0
 40
278.161
100
AcDbArc
 50
295.1449999999999
 51
320.4509999999999
  0
ARC
  5
B7B
330
19
100
AcDbEntity
  8
1
  6
Continuous
 62
     8
100
AcDbCircle
 10
862.6649999999999
 20
2100.119999999999
 30
0.0
 40
270.0
100
AcDbArc
 50
322.5049999999999
 51
55.90499999999999
  0
ARC
  5
B7C
330
19
100
AcDbEntity
  8
1
  6
Continuous
 62
     8
100
AcDbCircle
 10
862.6649999999999
 20
2100.119999999999
 30
0.0
 40
270.0
100
AcDbArc
 50
291.1569999999999
 51
320.798
  0
LINE
  5
B7D
330
19
100
AcDbEntity
  8
1
  6
Continuous
 62
     8
100
AcDbLine
 10
871.414
 20
2092.78
 30
0.0
 11
1041.32
 21
1950.2
 31
0.0
  0
LINE
  5
B7E
330
19
100
AcDbEntity
  8
1
  6
Continuous
 62
     8
100
AcDbLine
 10
1053.65
 20
1939.859999999999
 30
0.0
 11
1069.49
 21
1926.56
 31
0.0
  0
LINE
  5
B7F
330
19
100
AcDbEntity
  8
1
  6
Continuous
 62
     8
100
AcDbLine
 10
868.3749999999999
 20
2090.23
 30
0.0
 11
939.2599999999999
 21
1967.45
 31
0.0
  0
LINE
  5
B80
330
19
100
AcDbEntity
  8
1
  6
Continuous
 62
     8
100
AcDbLine
 10
944.4510000000001
 20
1958.46
 30
0.0
 11
997.6649999999999
 21
1866.29
 31
0.0
  0
LINE
  5
B81
330
19
100
AcDbEntity
  8
1
  6
Continuous
 62
     8
100
AcDbLine
 10
864.648
 20
2088.87
 30
0.0
 11
884.4239999999999
 21
1976.709999999999
 31
0.0
  0
LINE
  5
B82
330
19
100
AcDbEntity
  8
1
  6
Continuous
 62
     8
100
AcDbLine
 10
860.682
 20
2088.87
 30
0.0
 11
842.1649999999999
 21
1983.859999999999
 31
0.0
  0
LINE
  5
B83
330
19
100
AcDbEntity
  8
1
  6
Continuous
 62
     8
100
AcDbLine
 10
885.898
 20
1968.35
 30
0.0
 11
907.0639999999999
 21
1848.32
 31
0.0
  0
LINE
  5
B84
330
19
100
AcDbEntity
  8
1
  6
Continuous
 62
     8
100
AcDbLine
 10
840.7760000000001
 20
1975.98
 30
0.0
 11
818.266
 21
1848.32
 31
0.0
  0
LINE
  5
B85
330
19
100
AcDbEntity
  8
1
  6
Continuous
 62
     8
100
AcDbLine
 10
856.9550000000001
 20
2090.23
 30
0.0
 11
799.686
 21
1991.03
 31
0.0
  0
LINE
  5
B86
330
19
100
AcDbEntity
  8
1
  6
Continuous
 62
     8
100
AcDbLine
 10
795.418
 20
1983.64
 30
0.0
 11
727.665
 21
1866.29
 31
0.0
  0
LINE
  5
B87
330
19
100
AcDbEntity
  8
1
  6
Continuous
 62
     8
100
AcDbLine
 10
853.916
 20
2092.78
 30
0.0
 11
743.8989999999998
 21
2000.459999999999
 31
0.0
  0
LINE
  5
B88
330
19
100
AcDbEntity
  8
1
  6
Continuous
 62
     8
100
AcDbLine
 10
735.85
 20
1993.71
 30
0.0
 11
655.833
 21
1926.56
 31
0.0
  0
LINE
  5
B89
330
19
100
AcDbEntity
  8
1
  6
Continuous
 62
     8
100
AcDbLine
 10
851.933
 20
2096.21
 30
0.0
 11
638.016
 21
2018.349999999999
 31
0.0
  0
LINE
  5
B8A
330
19
100
AcDbEntity
  8
1
  6
Continuous
 62
     8
100
AcDbLine
 10
618.937
 20
2011.41
 30
0.0
 11
608.948
 21
2007.77
 31
0.0
  0
ARC
  5
B8B
330
19
100
AcDbEntity
  8
1
  6
Continuous
 62
     8
100
AcDbCircle
 10
862.6649999999999
 20
2100.119999999999
 30
0.0
 40
270.0
100
AcDbArc
 50
61.17329999999999
 51
196.3359999999999
  0
ARC
  5
B8C
330
19
100
AcDbEntity
  8
1
  6
Continuous
 62
     8
100
AcDbCircle
 10
862.6649999999999
 20
2100.119999999999
 30
0.0
 40
278.161
100
AcDbArc
 50
61.4929
 51
195.521
  0
ARC
  5
B8D
330
19
100
AcDbEntity
  8
1
  6
Continuous
 62
     8
100
AcDbCircle
 10
862.6649999999999
 20
2100.119999999999
 30
0.0
 40
304.8
100
AcDbArc
 50
62.4153
 51
193.196
  0
ARC
  5
B8E
330
19
100
AcDbEntity
  8
1
  6
Continuous
 62
     8
100
AcDbCircle
 10
862.6649999999999
 20
2100.119999999999
 30
0.0
 40
270.0
100
AcDbArc
 50
209.064
 51
248.842
  0
ARC
  5
B8F
330
19
100
AcDbEntity
  8
1
  6
Continuous
 62
     8
100
AcDbCircle
 10
862.6649999999999
 20
2100.119999999999
 30
0.0
 40
270.0
100
AcDbArc
 50
198.2389999999999
 51
205.35
  0
ARC
  5
B90
330
19
100
AcDbEntity
  8
1
  6
Continuous
 62
     8
100
AcDbCircle
 10
862.6649999999999
 20
2100.119999999999
 30
0.0
 40
278.161
100
AcDbArc
 50
211.959
 51
244.854
  0
ARC
  5
B91
330
19
100
AcDbEntity
  8
1
  6
Continuous
 62
     8
100
AcDbCircle
 10
862.6649999999999
 20
2100.119999999999
 30
0.0
 40
278.161
100
AcDbArc
 50
197.3549999999999
 51
208.6949999999999
  0
ARC
  5
B92
330
19
100
AcDbEntity
  8
1
  6
Continuous
 62
     8
100
AcDbCircle
 10
862.6649999999999
 20
2100.119999999999
 30
0.0
 40
304.8
100
AcDbArc
 50
219.26
 51
235.7009999999999
  0
ARC
  5
B93
330
19
100
AcDbEntity
  8
1
  6
Continuous
 62
     8
100
AcDbCircle
 10
862.6649999999999
 20
2100.119999999999
 30
0.0
 40
304.8
100
AcDbArc
 50
194.8369999999999
 51
216.819
  0
LINE
  5
B94
330
19
100
AcDbEntity
  8
1
  6
Continuous
 62
     2
100
AcDbLine
 10
1980.66
 20
3429.739999999999
 30
0.0
 11
1513.049999999999
 21
3429.739999999999
 31
0.0
  0
LINE
  5
B95
330
19
100
AcDbEntity
  8
1
  6
Continuous
 62
     2
100
AcDbLine
 10
1982.66
 20
3475.44
 30
0.0
 11
1091.0
 21
3475.44
 31
0.0
  0
LINE
  5
B96
330
19
100
AcDbEntity
  8
1
  6
Continuous
 62
     2
100
AcDbLine
 10
1982.66
 20
3525.04
 30
0.0
 11
1091.0
 21
3525.04
 31
0.0
  0
LINE
  5
B97
330
19
100
AcDbEntity
  8
1
  6
Continuous
 62
     2
100
AcDbLine
 10
1492.93
 20
3429.739999999999
 30
0.0
 11
1088.78
 21
3429.739999999999
 31
0.0
  0
LINE
  5
B98
330
19
100
AcDbEntity
  8
1
  6
Continuous
 62
     2
100
AcDbLine
 10
1980.66
 20
3380.74
 30
0.0
 11
1088.78
 21
3380.74
 31
0.0
  0
LINE
  5
B99
330
19
100
AcDbEntity
  8
1
  6
Continuous
 62
     2
100
AcDbLine
 10
461.6649999999999
 20
3436.24
 30
0.0
 11
567.6649999999999
 21
3436.24
 31
0.0
  0
LINE
  5
B9A
330
19
100
AcDbEntity
  8
1
  6
Continuous
 62
     8
100
AcDbLine
 10
4865.54
 20
2023.32
 30
0.0
 11
4865.54
 21
2104.9
 31
0.0
  0
LINE
  5
B9B
330
19
100
AcDbEntity
  8
1
  6
Continuous
 62
     8
100
AcDbLine
 10
4835.54
 20
2104.9
 30
0.0
 11
4835.54
 21
2023.32
 31
0.0
  0
LINE
  5
B9C
330
19
100
AcDbEntity
  8
1
  6
Continuous
 62
     1
100
AcDbLine
 10
4813.04
 20
1495.42
 30
0.0
 11
4813.04
 21
1588.2
 31
0.0
  0
LINE
  5
B9D
330
19
100
AcDbEntity
  8
1
  6
Continuous
 62
     1
100
AcDbLine
 10
4813.04
 20
658.321
 30
0.0
 11
4813.04
 21
955.4210000000001
 31
0.0
  0
LINE
  5
B9E
330
19
100
AcDbEntity
  8
1
  6
Continuous
 62
     1
100
AcDbLine
 10
4888.04
 20
658.321
 30
0.0
 11
4888.04
 21
770.07
 31
0.0
  0
LINE
  5
B9F
330
19
100
AcDbEntity
  8
1
  6
Continuous
 62
     1
100
AcDbLine
 10
4888.04
 20
790.07
 30
0.0
 11
4888.04
 21
1589.719999999999
 31
0.0
  0
LINE
  5
BA0
330
19
100
AcDbEntity
  8
1
  6
DIVIDE
 62
     7
100
AcDbLine
 10
1864.499999999999
 20
1721.18
 30
0.0
 11
1791.319999999999
 21
1793.32
 31
0.0
  0
LINE
  5
BA1
330
19
100
AcDbEntity
  8
1
  6
DIVIDE
 62
     7
100
AcDbLine
 10
1735.529999999999
 20
1848.32
 30
0.0
 11
1420.81
 21
2158.58
 31
0.0
  0
LINE
  5
BA2
330
19
100
AcDbEntity
  8
1
  6
DIVIDE
 62
     7
100
AcDbLine
 10
1858.88
 20
1715.48
 30
0.0
 11
1779.93
 21
1793.32
 31
0.0
  0
LINE
  5
BA3
330
19
100
AcDbEntity
  8
1
  6
DIVIDE
 62
     7
100
AcDbLine
 10
1722.5
 20
1849.93
 30
0.0
 11
1415.19
 21
2152.88
 31
0.0
  0
LINE
  5
BA4
330
19
100
AcDbEntity
  8
1
  6
DIVIDE
 62
     7
100
AcDbLine
 10
2167.13
 20
1387.02
 30
0.0
 11
1586.88
 21
1793.32
 31
0.0
  0
LINE
  5
BA5
330
19
100
AcDbEntity
  8
1
  6
DIVIDE
 62
     7
100
AcDbLine
 10
2165.98
 20
1385.39
 30
0.0
 11
1583.4
 21
1793.32
 31
0.0
  0
LINE
  5
BA6
330
19
100
AcDbEntity
  8
1
  6
DIVIDE
 62
     7
100
AcDbLine
 10
2171.66
 20
1338.68
 30
0.0
 11
1527.49
 21
1789.73
 31
0.0
  0
LINE
  5
BA7
330
19
100
AcDbEntity
  8
1
  6
DIVIDE
 62
     7
100
AcDbLine
 10
1368.14
 20
1848.32
 30
0.0
 11
1362.79
 21
1915.5
 31
0.0
  0
LINE
  5
BA8
330
19
100
AcDbEntity
  8
1
  6
DIVIDE
 62
     7
100
AcDbLine
 10
1323.55
 20
1904.349999999999
 30
0.0
 11
1328.01
 21
1848.32
 31
0.0
  0
LINE
  5
BA9
330
19
100
AcDbEntity
  8
1
  6
DIVIDE
 62
     7
100
AcDbLine
 10
1500.69
 20
1851.23
 30
0.0
 11
1366.03
 21
1945.52
 31
0.0
  0
LINE
  5
BAA
330
19
100
AcDbEntity
  8
1
  6
DIVIDE
 62
     7
100
AcDbLine
 10
1504.39
 20
1851.079999999999
 30
0.0
 11
1367.18
 21
1947.16
 31
0.0
  0
ARC
  5
BAB
330
19
100
AcDbEntity
  8
1
  6
DIVIDE
 62
     8
100
AcDbCircle
 10
2636.59
 20
1364.14
 30
0.0
 40
304.8
100
AcDbArc
 50
39.1353
 51
200.278
  0
ARC
  5
BAC
330
19
100
AcDbEntity
  8
1
  6
DIVIDE
 62
     8
100
AcDbCircle
 10
2636.59
 20
1364.14
 30
0.0
 40
270.0
100
AcDbArc
 50
37.8933
 51
213.105
  0
ARC
  5
BAD
330
19
100
AcDbEntity
  8
1
  6
DIVIDE
 62
     8
100
AcDbCircle
 10
2636.59
 20
1364.14
 30
0.0
 40
278.161
100
AcDbArc
 50
38.21289999999999
 51
209.242
  0
ARC
  5
BAE
330
19
100
AcDbEntity
  8
1
  6
DIVIDE
 62
     8
100
AcDbCircle
 10
2636.59
 20
1364.14
 30
0.0
 40
304.8
100
AcDbArc
 50
269.721
 51
276.949
  0
ARC
  5
BAF
330
19
100
AcDbEntity
  8
1
  6
DIVIDE
 62
     8
100
AcDbCircle
 10
2636.59
 20
1364.14
 30
0.0
 40
278.161
100
AcDbArc
 50
309.2449999999999
 51
32.98669999999999
  0
ARC
  5
BB0
330
19
100
AcDbEntity
  8
1
  6
DIVIDE
 62
     8
100
AcDbCircle
 10
2636.59
 20
1364.14
 30
0.0
 40
270.0
100
AcDbArc
 50
308.7559999999999
 51
32.625
  0
LINE
  5
BB1
330
19
100
AcDbEntity
  8
1
  6
DIVIDE
 62
     8
100
AcDbLine
 10
2641.719999999999
 20
1353.94
 30
0.0
 11
2741.75
 21
1155.23
 31
0.0
  0
LINE
  5
BB2
330
19
100
AcDbEntity
  8
1
  6
DIVIDE
 62
     8
100
AcDbLine
 10
2746.35
 20
1146.079999999999
 30
0.0
 11
2757.989999999999
 21
1122.97
 31
0.0
  0
ARC
  5
BB3
330
19
100
AcDbEntity
  8
1
  6
DIVIDE
 62
     8
100
AcDbCircle
 10
2636.59
 20
1364.14
 30
0.0
 40
270.0
100
AcDbArc
 50
287.3419999999999
 51
306.533
  0
ARC
  5
BB4
330
19
100
AcDbEntity
  8
1
  6
DIVIDE
 62
     8
100
AcDbCircle
 10
2636.59
 20
1364.14
 30
0.0
 40
270.0
100
AcDbArc
 50
256.72
 51
283.994
  0
ARC
  5
BB5
330
19
100
AcDbEntity
  8
1
  6
DIVIDE
 62
     8
100
AcDbCircle
 10
2636.59
 20
1364.14
 30
0.0
 40
278.161
100
AcDbArc
 50
285.2139999999999
 51
307.093
  0
ARC
  5
BB6
330
19
100
AcDbEntity
  8
1
  6
DIVIDE
 62
     8
100
AcDbCircle
 10
2636.59
 20
1364.14
 30
0.0
 40
278.161
100
AcDbArc
 50
260.7569999999999
 51
282.0959999999999
  0
LINE
  5
BB7
330
19
100
AcDbEntity
  8
1
  6
DIVIDE
 62
     8
100
AcDbLine
 10
2630.32
 20
1354.589999999999
 30
0.0
 11
2499.06
 21
1154.609999999999
 31
0.0
  0
LINE
  5
BB8
330
19
100
AcDbEntity
  8
1
  6
DIVIDE
 62
     8
100
AcDbLine
 10
2627.43
 20
1357.31
 30
0.0
 11
2425.1
 21
1206.39
 31
0.0
  0
ARC
  5
BB9
330
19
100
AcDbEntity
  8
1
  6
DIVIDE
 62
     8
100
AcDbCircle
 10
2636.59
 20
1364.14
 30
0.0
 40
304.8
100
AcDbArc
 50
310.8119999999999
 51
34.0298
  0
ARC
  5
BBA
330
19
100
AcDbEntity
  8
1
  6
DIVIDE
 62
     8
100
AcDbCircle
 10
2636.59
 20
1364.14
 30
0.0
 40
304.8
100
AcDbArc
 50
279.5299999999999
 51
308.704
  0
ARC
  5
BBB
330
19
100
AcDbEntity
  8
1
  6
DIVIDE
 62
     7
100
AcDbCircle
 10
2835.13
 20
1126.82
 30
0.0
 40
5.0
100
AcDbArc
 50
235.0
 51
55.0
  0
CIRCLE
  5
BBC
330
19
100
AcDbEntity
  8
1
  6
Continuous
 62
     4
100
AcDbCircle
 10
709.663
 20
682.991
 30
0.0
 40
4.5
  0
CIRCLE
  5
BBD
330
19
100
AcDbEntity
  8
1
  6
Continuous
 62
     4
100
AcDbCircle
 10
709.663
 20
682.991
 30
0.0
 40
4.5
  0
LINE
  5
BBE
330
19
100
AcDbEntity
  8
1
  6
Continuous
 62
     3
100
AcDbLine
 10
5107.21
 20
2845.32
 30
0.0
 11
5166.38
 21
2845.32
 31
0.0
  0
LINE
  5
BBF
330
19
100
AcDbEntity
  8
1
  6
Continuous
 62
     3
100
AcDbLine
 10
5142.21
 20
1795.32
 30
0.0
 11
5222.2
 21
1795.32
 31
0.0
  0
LINE
  5
BC0
330
19
100
AcDbEntity
  8
1
  6
Continuous
 62
     3
100
AcDbLine
 10
5222.2
 20
652.321
 30
0.0
 11
5116.74
 21
652.321
 31
0.0
  0
LINE
  5
BC1
330
19
100
AcDbEntity
  8
1
  6
Continuous
 62
     3
100
AcDbLine
 10
5202.2
 20
652.321
 30
0.0
 11
5202.2
 21
1795.32
 31
0.0
  0
LINE
  5
BC2
330
19
100
AcDbEntity
  8
1
  6
Continuous
 62
     3
100
AcDbLine
 10
5202.2
 20
652.321
 30
0.0
 11
5205.729999999999
 21
672.321
 31
0.0
  0
LINE
  5
BC3
330
19
100
AcDbEntity
  8
1
  6
Continuous
 62
     3
100
AcDbLine
 10
5202.2
 20
652.321
 30
0.0
 11
5198.68
 21
672.321
 31
0.0
  0
LINE
  5
BC4
330
19
100
AcDbEntity
  8
1
  6
Continuous
 62
     3
100
AcDbLine
 10
5202.2
 20
1795.32
 30
0.0
 11
5198.68
 21
1775.319999999999
 31
0.0
  0
LINE
  5
BC5
330
19
100
AcDbEntity
  8
1
  6
Continuous
 62
     3
100
AcDbLine
 10
5202.2
 20
1795.32
 30
0.0
 11
5205.729999999999
 21
1775.319999999999
 31
0.0
  0
TEXT
  5
BC6
330
19
100
AcDbEntity
  8
1
 62
     3
100
AcDbText
 10
5202.2
 20
1167.82
 30
0.0
 40
40.0
  1
１１４３
 50
90.0
 41
0.7
100
AcDbText
  0
LINE
  5
BC7
330
19
100
AcDbEntity
  8
1
  6
Continuous
 62
     3
100
AcDbLine
 10
5166.38
 20
2845.32
 30
0.0
 11
5222.2
 21
2845.32
 31
0.0
  0
LINE
  5
BC8
330
19
100
AcDbEntity
  8
1
  6
Continuous
 62
     3
100
AcDbLine
 10
5222.2
 20
1795.32
 30
0.0
 11
5142.21
 21
1795.32
 31
0.0
  0
LINE
  5
BC9
330
19
100
AcDbEntity
  8
1
  6
Continuous
 62
     3
100
AcDbLine
 10
5202.2
 20
1795.32
 30
0.0
 11
5202.2
 21
2845.32
 31
0.0
  0
LINE
  5
BCA
330
19
100
AcDbEntity
  8
1
  6
Continuous
 62
     3
100
AcDbLine
 10
5202.2
 20
1795.32
 30
0.0
 11
5205.729999999999
 21
1815.319999999999
 31
0.0
  0
LINE
  5
BCB
330
19
100
AcDbEntity
  8
1
  6
Continuous
 62
     3
100
AcDbLine
 10
5202.2
 20
1795.32
 30
0.0
 11
5198.68
 21
1815.319999999999
 31
0.0
  0
LINE
  5
BCC
330
19
100
AcDbEntity
  8
1
  6
Continuous
 62
     3
100
AcDbLine
 10
5202.2
 20
2845.32
 30
0.0
 11
5198.68
 21
2825.32
 31
0.0
  0
LINE
  5
BCD
330
19
100
AcDbEntity
  8
1
  6
Continuous
 62
     3
100
AcDbLine
 10
5202.2
 20
2845.32
 30
0.0
 11
5205.729999999999
 21
2825.32
 31
0.0
  0
TEXT
  5
BCE
330
19
100
AcDbEntity
  8
1
 62
     3
100
AcDbText
 10
5202.2
 20
2264.32
 30
0.0
 40
40.0
  1
１０５０
 50
90.0
 41
0.7
100
AcDbText
  0
LINE
  5
BCF
330
19
100
AcDbEntity
  8
1
  6
Continuous
 62
     3
100
AcDbLine
 10
5116.74
 20
3252.32
 30
0.0
 11
5222.2
 21
3252.32
 31
0.0
  0
LINE
  5
BD0
330
19
100
AcDbEntity
  8
1
  6
Continuous
 62
     3
100
AcDbLine
 10
5222.2
 20
2845.32
 30
0.0
 11
5166.38
 21
2845.32
 31
0.0
  0
LINE
  5
BD1
330
19
100
AcDbEntity
  8
1
  6
Continuous
 62
     3
100
AcDbLine
 10
5202.2
 20
2845.32
 30
0.0
 11
5202.2
 21
3252.32
 31
0.0
  0
LINE
  5
BD2
330
19
100
AcDbEntity
  8
1
  6
Continuous
 62
     3
100
AcDbLine
 10
5202.2
 20
2845.32
 30
0.0
 11
5205.729999999999
 21
2865.32
 31
0.0
  0
LINE
  5
BD3
330
19
100
AcDbEntity
  8
1
  6
Continuous
 62
     3
100
AcDbLine
 10
5202.2
 20
2845.32
 30
0.0
 11
5198.68
 21
2865.32
 31
0.0
  0
LINE
  5
BD4
330
19
100
AcDbEntity
  8
1
  6
Continuous
 62
     3
100
AcDbLine
 10
5202.2
 20
3252.32
 30
0.0
 11
5198.68
 21
3232.32
 31
0.0
  0
LINE
  5
BD5
330
19
100
AcDbEntity
  8
1
  6
Continuous
 62
     3
100
AcDbLine
 10
5202.2
 20
3252.32
 30
0.0
 11
5205.729999999999
 21
3232.32
 31
0.0
  0
TEXT
  5
BD6
330
19
100
AcDbEntity
  8
1
 62
     3
100
AcDbText
 10
5202.2
 20
3006.82
 30
0.0
 40
40.0
  1
４０７
 50
90.0
 41
0.7
100
AcDbText
  0
LWPOLYLINE
  5
BD7
330
19
100
AcDbEntity
  8
1
  6
Continuous
 62
     2
100
AcDbPolyline
 90
        3
 70
     0
 43
0.0
 10
1940.66
 20
3429.739999999999
 10
1940.66
 20
3431.74
 10
1925.66
 20
3446.74
  0
LWPOLYLINE
  5
BDC
330
19
100
AcDbEntity
  8
1
  6
Continuous
 62
     2
100
AcDbPolyline
 90
        3
 70
     0
 43
0.0
 10
1940.66
 20
3380.74
 10
1940.66
 20
3378.74
 10
1925.66
 20
3363.739999999999
  0
LINE
  5
BE1
330
19
100
AcDbEntity
  8
1
  6
Continuous
 62
     2
100
AcDbLine
 10
514.665
 20
3541.74
 30
0.0
 11
514.665
 21
3531.239999999999
 31
0.0
  0
LINE
  5
BE2
330
19
100
AcDbEntity
  8
1
  6
Continuous
 62
     2
100
AcDbLine
 10
514.665
 20
3541.74
 30
0.0
 11
1979.47
 21
3541.74
 31
0.0
  0
LINE
  5
BE3
330
19
100
AcDbEntity
  8
1
  6
Continuous
 62
     2
100
AcDbLine
 10
600.6649999999999
 20
3374.239999999999
 30
0.0
 11
600.6649999999999
 21
3363.739999999999
 31
0.0
  0
LINE
  5
BE4
330
19
100
AcDbEntity
  8
1
  6
Continuous
 62
     2
100
AcDbLine
 10
514.665
 20
3458.739999999999
 30
0.0
 11
514.665
 21
3469.24
 31
0.0
  0
LINE
  5
BE5
330
19
100
AcDbEntity
  8
1
  6
Continuous
 62
     2
100
AcDbLine
 10
1925.66
 20
3363.739999999999
 30
0.0
 11
600.6649999999999
 21
3363.739999999999
 31
0.0
  0
LINE
  5
BE6
330
19
100
AcDbEntity
  8
1
  6
Continuous
 62
     2
100
AcDbLine
 10
1497.46
 20
3542.43
 30
0.0
 11
1497.46
 21
3559.04
 31
0.0
  0
LINE
  5
BE7
330
19
100
AcDbEntity
  8
1
  6
Continuous
 62
     2
100
AcDbLine
 10
1507.859999999999
 20
3542.43
 30
0.0
 11
1507.859999999999
 21
3559.04
 31
0.0
  0
LWPOLYLINE
  5
BE8
330
19
100
AcDbEntity
  8
1
  6
Continuous
 62
     2
100
AcDbPolyline
 90
        5
 70
     0
 43
0.0
 10
1492.27
 20
3542.43
 10
1492.27
 20
3559.04
 10
1513.049999999999
 20
3559.04
 10
1513.049999999999
 20
3542.43
 10
1512.61
 20
3542.17
  0
LINE
  5
BEF
330
19
100
AcDbEntity
  8
1
  6
Continuous
 62
     2
100
AcDbLine
 10
1925.66
 20
3446.74
 30
0.0
 11
1527.66
 21
3446.74
 31
0.0
  0
LINE
  5
BF0
330
19
100
AcDbEntity
  8
1
  6
Continuous
 62
     2
100
AcDbLine
 10
1497.46
 20
3458.05
 30
0.0
 11
1497.46
 21
3441.44
 31
0.0
  0
LINE
  5
BF1
330
19
100
AcDbEntity
  8
1
  6
Continuous
 62
     2
100
AcDbLine
 10
1507.859999999999
 20
3458.05
 30
0.0
 11
1507.859999999999
 21
3441.44
 31
0.0
  0
LWPOLYLINE
  5
BF2
330
19
100
AcDbEntity
  8
1
  6
Continuous
 62
     2
100
AcDbPolyline
 90
        5
 70
     0
 43
0.0
 10
1492.27
 20
3458.05
 10
1492.27
 20
3441.44
 10
1513.049999999999
 20
3441.44
 10
1513.049999999999
 20
3458.05
 10
1512.61
 20
3458.3
  0
LINE
  5
BF9
330
19
100
AcDbEntity
  8
1
  6
Continuous
 62
     2
100
AcDbLine
 10
1569.55
 20
3458.739999999999
 30
0.0
 11
1979.47
 21
3458.739999999999
 31
0.0
  0
LINE
  5
BFA
330
19
100
AcDbEntity
  8
1
  6
Continuous
 62
     2
100
AcDbLine
 10
514.665
 20
3458.739999999999
 30
0.0
 11
1569.55
 21
3458.739999999999
 31
0.0
  0
LINE
  5
BFB
330
19
100
AcDbEntity
  8
1
  6
Continuous
 62
     2
100
AcDbLine
 10
2232.66
 20
3568.24
 30
0.0
 11
2231.469999999999
 21
3575.139999999999
 31
0.0
  0
ARC
  5
BFC
330
19
100
AcDbEntity
  8
1
  6
Continuous
 62
     2
100
AcDbCircle
 10
2221.61
 20
3573.43
 30
0.0
 40
10.0
100
AcDbArc
 50
9.803889999999999
 51
99.8038
  0
LINE
  5
BFD
330
19
100
AcDbEntity
  8
1
  6
Continuous
 62
     2
100
AcDbLine
 10
1979.47
 20
3541.74
 30
0.0
 11
2219.91
 21
3583.29
 31
0.0
  0
ARC
  5
BFE
330
19
100
AcDbEntity
  8
1
  6
Continuous
 62
     2
100
AcDbCircle
 10
2221.61
 20
3427.04
 30
0.0
 40
10.0
100
AcDbArc
 50
260.1959999999999
 51
350.1959999999999
  0
LINE
  5
BFF
330
19
100
AcDbEntity
  8
1
  6
Continuous
 62
     2
100
AcDbLine
 10
2232.66
 20
3432.24
 30
0.0
 11
2231.469999999999
 21
3425.34
 31
0.0
  0
LINE
  5
C00
330
19
100
AcDbEntity
  8
1
  6
Continuous
 62
     2
100
AcDbLine
 10
1979.47
 20
3458.739999999999
 30
0.0
 11
2219.91
 21
3417.19
 31
0.0
  0
LWPOLYLINE
  5
C01
330
19
100
AcDbEntity
  8
1
  6
Continuous
 62
     2
100
AcDbPolyline
 90
        4
 70
     0
 43
0.0
 10
4920.539999999999
 20
1848.32
 10
4933.07
 20
1848.32
 10
4933.07
 20
1846.32
 10
4920.539999999999
 20
1846.32
  0
LWPOLYLINE
  5
C07
330
19
100
AcDbEntity
  8
1
  6
Continuous
 62
     2
100
AcDbPolyline
 90
        4
 70
     0
 43
0.0
 10
4780.54
 20
1848.32
 10
4768.0
 20
1848.32
 10
4768.0
 20
1846.32
 10
4780.54
 20
1846.32
  0
LWPOLYLINE
  5
C0D
330
19
100
AcDbEntity
  8
1
  6
Continuous
 62
     2
100
AcDbPolyline
 90
        4
 70
     0
 43
0.0
 10
4784.04
 20
723.321
 10
4797.039999999999
 20
723.321
 10
4797.039999999999
 20
721.321
 10
4784.04
 20
721.321
  0
LWPOLYLINE
  5
C13
330
19
100
AcDbEntity
  8
1
  6
Continuous
 62
     2
100
AcDbPolyline
 90
        4
 70
     0
 43
0.0
 10
4727.04
 20
721.321
 10
4714.039999999999
 20
721.321
 10
4714.039999999999
 20
723.321
 10
4727.04
 20
723.321
  0
LINE
  5
C1A
330
19
100
AcDbEntity
  8
1
  6
DIVIDE
 62
     7
100
AcDbLine
 10
1365.52
 20
1881.17
 30
0.0
 11
1412.45
 21
1848.32
 31
0.0
  0
LINE
  5
C1B
330
19
100
AcDbEntity
  8
1
  6
DIVIDE
 62
     7
100
AcDbLine
 10
1421.16
 20
1848.32
 30
0.0
 11
1365.01
 21
1887.64
 31
0.0
  0
LINE
  5
C1C
330
19
100
AcDbEntity
  8
1
  6
Continuous
 62
     2
100
AcDbLine
 10
514.665
 20
1848.32
 30
0.0
 11
514.665
 21
1832.32
 31
0.0
  0
LINE
  5
C1D
330
19
100
AcDbEntity
  8
1
  6
Continuous
 62
     2
100
AcDbLine
 10
2264.66
 20
1848.32
 30
0.0
 11
1514.1
 21
1848.32
 31
0.0
  0
LWPOLYLINE
  5
C1E
330
19
100
AcDbEntity
  8
1
  6
Continuous
 62
     2
100
AcDbPolyline
 90
        3
 70
     0
 43
0.0
 10
1977.66
 20
1793.32
 10
1982.66
 20
1798.32
 10
2232.66
 20
1798.32
  0
LINE
  5
C23
330
19
100
AcDbEntity
  8
1
  6
Continuous
 62
     2
100
AcDbLine
 10
2232.66
 20
1798.32
 30
0.0
 11
2271.28
 21
1813.579999999999
 31
0.0
  0
ARC
  5
C24
330
19
100
AcDbEntity
  8
1
  6
Continuous
 62
     2
100
AcDbCircle
 10
2264.66
 20
1830.32
 30
0.0
 40
18.0
100
AcDbArc
 50
291.562
 51
90.0
  0
LINE
  5
C25
330
19
100
AcDbEntity
  8
1
  6
DASHDOT
 62
     3
100
AcDbLine
 10
4850.54
 20
612.582
 30
0.0
 11
4850.54
 21
1819.359999999999
 31
0.0
  0
LINE
  5
C26
330
19
100
AcDbEntity
  8
1
  6
DOT
 62
     4
100
AcDbLine
 10
4920.539999999999
 20
1841.319999999999
 30
0.0
 11
4920.539999999999
 21
1833.32
 31
0.0
  0
LINE
  5
C27
330
19
100
AcDbEntity
  8
1
  6
Continuous
 62
     2
100
AcDbLine
 10
4884.54
 20
1841.169999999999
 30
0.0
 11
4884.54
 21
2013.319999999999
 31
0.0
  0
LINE
  5
C28
330
19
100
AcDbEntity
  8
1
  6
Continuous
 62
     2
100
AcDbLine
 10
4894.54
 20
2018.32
 30
0.0
 11
4894.54
 21
1841.169999999999
 31
0.0
  0
LINE
  5
C29
330
19
100
AcDbEntity
  8
1
  6
Continuous
 62
     2
100
AcDbLine
 10
4816.539999999999
 20
1841.169999999999
 30
0.0
 11
4816.539999999999
 21
2013.319999999999
 31
0.0
  0
LINE
  5
C2A
330
19
100
AcDbEntity
  8
1
  6
Continuous
 62
     2
100
AcDbLine
 10
4806.54
 20
2018.32
 30
0.0
 11
4806.54
 21
1841.169999999999
 31
0.0
  0
LINE
  5
C2B
330
19
100
AcDbEntity
  8
1
  6
Continuous
 62
     2
100
AcDbLine
 10
4918.54
 20
1841.169999999999
 30
0.0
 11
4782.54
 21
1841.169999999999
 31
0.0
  0
LINE
  5
C2C
330
19
100
AcDbEntity
  8
1
  6
Continuous
 62
     2
100
AcDbLine
 10
4875.04
 20
1844.32
 30
0.0
 11
4875.04
 21
1841.169999999999
 31
0.0
  0
LINE
  5
C2D
330
19
100
AcDbEntity
  8
1
  6
Continuous
 62
     2
100
AcDbLine
 10
4826.04
 20
1841.169999999999
 30
0.0
 11
4826.04
 21
1844.32
 31
0.0
  0
LINE
  5
C2E
330
19
100
AcDbEntity
  8
1
  6
Continuous
 62
     8
100
AcDbLine
 10
4865.54
 20
1841.169999999999
 30
0.0
 11
4865.54
 21
2013.319999999999
 31
0.0
  0
LINE
  5
C2F
330
19
100
AcDbEntity
  8
1
  6
Continuous
 62
     8
100
AcDbLine
 10
4835.54
 20
2013.319999999999
 30
0.0
 11
4835.54
 21
1841.169999999999
 31
0.0
  0
LINE
  5
C30
330
19
100
AcDbEntity
  8
1
  6
Continuous
 62
     2
100
AcDbLine
 10
4782.54
 20
1819.47
 30
0.0
 11
4918.54
 21
1819.47
 31
0.0
  0
LINE
  5
C31
330
19
100
AcDbEntity
  8
1
  6
Continuous
 62
     2
100
AcDbLine
 10
4875.04
 20
1819.47
 30
0.0
 11
4875.04
 21
1797.32
 31
0.0
  0
LINE
  5
C32
330
19
100
AcDbEntity
  8
1
  6
Continuous
 62
     2
100
AcDbLine
 10
4826.04
 20
1797.32
 30
0.0
 11
4826.04
 21
1819.47
 31
0.0
  0
LINE
  5
C33
330
19
100
AcDbEntity
  8
1
  6
Continuous
 62
     8
100
AcDbLine
 10
4835.54
 20
1819.47
 30
0.0
 11
4835.54
 21
1810.32
 31
0.0
  0
LINE
  5
C34
330
19
100
AcDbEntity
  8
1
  6
Continuous
 62
     8
100
AcDbLine
 10
4865.54
 20
1810.32
 30
0.0
 11
4865.54
 21
1819.47
 31
0.0
  0
LWPOLYLINE
  5
C35
330
19
100
AcDbEntity
  8
1
  6
DIVIDE
 62
     7
100
AcDbPolyline
 90
        3
 70
     0
 43
0.0
 10
2534.05
 20
1062.96
 10
2541.01
 20
1064.19
 10
2745.8
 20
920.8
  0
LINE
  5
C3A
330
19
100
AcDbEntity
  8
1
  6
DIVIDE
 62
     7
100
AcDbLine
 10
2800.69
 20
943.4029999999999
 30
0.0
 11
2185.869999999999
 21
1373.9
 31
0.0
  0
LINE
  5
C3B
330
19
100
AcDbEntity
  8
1
  6
DIVIDE
 62
     7
100
AcDbLine
 10
2745.8
 20
920.8
 30
0.0
 11
2786.179999999999
 21
911.151
 31
0.0
  0
ARC
  5
C3C
330
19
100
AcDbEntity
  8
1
  6
DIVIDE
 62
     7
100
AcDbCircle
 10
2790.37
 20
928.659
 30
0.0
 40
18.0
100
AcDbArc
 50
256.562
 51
55.0
  0
LINE
  5
C3D
330
19
100
AcDbEntity
  8
1
  6
Continuous
 62
     3
100
AcDbLine
 10
2808.37
 20
928.659
 30
0.0
 11
2808.37
 21
772.598
 31
0.0
  0
LINE
  5
C3E
330
19
100
AcDbEntity
  8
1
  6
Continuous
 62
     3
100
AcDbLine
 10
2790.37
 20
910.659
 30
0.0
 11
2891.08
 21
910.659
 31
0.0
  0
ARC
  5
C3F
330
19
100
AcDbEntity
  8
1
  6
Continuous
 62
     2
100
AcDbCircle
 10
4910.74
 20
1775.12
 30
0.0
 40
2.799999999999999
100
AcDbArc
 50
270.0
 51
0.0
  0
ARC
  5
C40
330
19
100
AcDbEntity
  8
1
  6
Continuous
 62
     2
100
AcDbCircle
 10
4790.34
 20
1775.12
 30
0.0
 40
2.799999999999999
100
AcDbArc
 50
180.0
 51
270.0
  0
LINE
  5
C41
330
19
100
AcDbEntity
  8
1
  6
Continuous
 62
     2
100
AcDbLine
 10
4790.34
 20
1772.319999999999
 30
0.0
 11
4910.74
 21
1772.319999999999
 31
0.0
  0
LINE
  5
C42
330
19
100
AcDbEntity
  8
1
  6
Continuous
 62
     1
100
AcDbLine
 10
797.665
 20
1772.319999999999
 30
0.0
 11
1527.66
 21
1772.319999999999
 31
0.0
  0
LINE
  5
C43
330
19
100
AcDbEntity
  8
1
  6
DIVIDE
 62
     7
100
AcDbLine
 10
2164.2
 20
1328.03
 30
0.0
 11
1527.66
 21
1773.75
 31
0.0
  0
LINE
  5
C44
330
19
100
AcDbEntity
  8
1
  6
DIVIDE
 62
     7
100
AcDbLine
 10
1520.99
 20
1772.319999999999
 30
0.0
 11
2534.05
 21
1062.96
 31
0.0
  0
LINE
  5
C45
330
19
100
AcDbEntity
  8
1
  6
DIVIDE
 62
     7
100
AcDbLine
 10
2172.81
 20
1340.32
 30
0.0
 11
1527.66
 21
1792.06
 31
0.0
  0
LINE
  5
C46
330
19
100
AcDbEntity
  8
1
  6
Continuous
 62
     2
100
AcDbLine
 10
2275.51
 20
3432.24
 30
0.0
 11
2275.51
 21
3568.24
 31
0.0
  0
LINE
  5
C47
330
19
100
AcDbEntity
  8
1
  6
Continuous
 62
     2
100
AcDbLine
 10
2253.81
 20
3432.24
 30
0.0
 11
2253.81
 21
3568.24
 31
0.0
  0
LINE
  5
C48
330
19
100
AcDbEntity
  8
1
  6
Continuous
 62
     3
100
AcDbLine
 10
2282.659999999999
 20
1830.32
 30
0.0
 11
2384.46
 21
1830.32
 31
0.0
  0
TEXT
  5
C49
330
19
100
AcDbEntity
  8
1
 62
     3
100
AcDbText
 10
4092.11
 20
13.8467
 30
0.0
 40
40.0
  1
Ｈ１６．１．１６
 41
0.625
100
AcDbText
  0
CIRCLE
  5
C4A
330
19
100
AcDbEntity
  8
1
  6
Continuous
 62
     4
100
AcDbCircle
 10
1965.66
 20
3405.24
 30
0.0
 40
4.5
  0
ARC
  5
C4B
330
19
100
AcDbEntity
  8
1
  6
DIVIDE
 62
     7
100
AcDbCircle
 10
1353.82
 20
1933.309999999999
 30
0.0
 40
3.0
100
AcDbArc
 50
235.0
 51
325.0
  0
LINE
  5
C4C
330
19
100
AcDbEntity
  8
1
  6
DIVIDE
 62
     7
100
AcDbLine
 10
1367.18
 20
1947.16
 30
0.0
 11
1356.279999999999
 21
1931.589999999999
 31
0.0
  0
ARC
  5
C4D
330
19
100
AcDbEntity
  8
1
  6
DIVIDE
 62
     7
100
AcDbCircle
 10
1332.19
 20
1933.81
 30
0.0
 40
9.0
100
AcDbArc
 50
55.0
 51
145.0
  0
POINT
  5
C4E
330
19
100
AcDbEntity
  8
1
 62
     7
100
AcDbPoint
 10
1329.98
 20
1946.34
 30
0.0
  0
LINE
  5
C4F
330
19
100
AcDbEntity
  8
1
  6
DIVIDE
 62
     7
100
AcDbLine
 10
1352.1
 20
1930.86
 30
0.0
 11
1337.35
 21
1941.18
 31
0.0
  0
CIRCLE
  5
C50
330
19
100
AcDbEntity
  8
1
  6
DIVIDE
 62
     7
100
AcDbCircle
 10
1332.19
 20
1933.81
 30
0.0
 40
4.0
  0
ARC
  5
C51
330
19
100
AcDbEntity
  8
1
  6
DIVIDE
 62
     7
100
AcDbCircle
 10
1332.19
 20
1933.81
 30
0.0
 40
14.0
100
AcDbArc
 50
7.247119999999999
 51
194.994
  0
LWPOLYLINE
  5
C52
330
19
100
AcDbEntity
  8
1
  6
DIVIDE
 62
     7
100
AcDbPolyline
 90
        3
 70
     0
 43
0.0
 10
1324.819999999999
 20
1938.97
 10
1311.05
 20
1919.31
 10
1327.28
 20
1907.949999999999
  0
ARC
  5
C57
330
19
100
AcDbEntity
  8
1
  6
DIVIDE
 62
     7
100
AcDbCircle
 10
1332.19
 20
1933.81
 30
0.0
 40
8.75
100
AcDbArc
 50
324.0769999999999
 51
225.022
  0
LWPOLYLINE
  5
C58
330
19
100
AcDbEntity
  8
1
  6
Continuous
 62
     1
100
AcDbPolyline
 90
        4
 70
     0
 43
0.0
 10
1472.66
 20
1832.32
 10
472.665
 20
1832.32
 10
472.665
 20
1772.319999999999
 10
567.6649999999999
 20
1772.319999999999
  0
ARC
  5
C5E
330
19
100
AcDbEntity
  8
1
  6
Continuous
 62
     1
100
AcDbCircle
 10
1507.66
 20
1824.82
 30
0.0
 40
20.0
100
AcDbArc
 50
0.0
 51
90.0
  0
LINE
  5
C5F
330
19
100
AcDbEntity
  8
1
  6
Continuous
 62
     1
100
AcDbLine
 10
1527.66
 20
1772.319999999999
 30
0.0
 11
1527.66
 21
1824.82
 31
0.0
  0
LINE
  5
C60
330
19
100
AcDbEntity
  8
1
  6
Continuous
 62
     1
100
AcDbLine
 10
1507.66
 20
1844.82
 30
0.0
 11
1492.73
 21
1844.82
 31
0.0
  0
LINE
  5
C61
330
19
100
AcDbEntity
  8
1
  6
Continuous
 62
     1
100
AcDbLine
 10
1477.66
 20
1829.119999999999
 30
0.0
 11
1488.839999999999
 21
1842.96
 31
0.0
  0
LWPOLYLINE
  5
C62
330
19
100
AcDbEntity
  8
1
  6
Continuous
 62
     1
100
AcDbPolyline
 90
        3
 70
     0
 43
0.0
 10
1472.66
 20
1832.32
 10
1472.66
 20
1829.119999999999
 10
1477.66
 20
1829.119999999999
  0
ARC
  5
C67
330
19
100
AcDbEntity
  8
1
  6
Continuous
 62
     1
100
AcDbCircle
 10
1492.73
 20
1839.819999999999
 30
0.0
 40
5.0
100
AcDbArc
 50
90.0
 51
141.0679999999999
  0
LINE
  5
C68
330
19
100
AcDbEntity
  8
1
  6
Continuous
 62
     2
100
AcDbLine
 10
797.665
 20
3436.24
 30
0.0
 11
1085.66
 21
3436.24
 31
0.0
  0
LWPOLYLINE
  5
C69
330
19
100
AcDbEntity
  8
1
  6
Continuous
 62
     2
100
AcDbPolyline
 90
        4
 70
     0
 43
0.0
 10
1527.66
 20
3550.24
 10
1527.66
 20
3562.24
 10
472.665
 20
3562.24
 10
472.665
 20
3531.239999999999
  0
POINT
  5
C6F
330
19
100
AcDbEntity
  8
1
 62
     2
100
AcDbPoint
 10
797.665
 20
3563.239999999999
 30
0.0
  0
LINE
  5
C70
330
19
100
AcDbEntity
  8
1
  6
Continuous
 62
     2
100
AcDbLine
 10
472.665
 20
3544.24
 30
0.0
 11
480.665
 21
3544.24
 31
0.0
  0
LINE
  5
C71
330
19
100
AcDbEntity
  8
1
  6
Continuous
 62
     2
100
AcDbLine
 10
472.665
 20
3456.239999999999
 30
0.0
 11
480.665
 21
3456.239999999999
 31
0.0
  0
LWPOLYLINE
  5
C72
330
19
100
AcDbEntity
  8
1
  6
Continuous
 62
     2
100
AcDbPolyline
 90
        3
 70
     0
 43
0.0
 10
1472.66
 20
3544.24
 10
1472.66
 20
3559.04
 10
1527.66
 20
3559.04
  0
LWPOLYLINE
  5
C77
330
19
100
AcDbEntity
  8
1
  6
Continuous
 62
     2
100
AcDbPolyline
 90
        3
 70
     0
 43
0.0
 10
1472.66
 20
3456.239999999999
 10
1472.66
 20
3441.44
 10
1527.66
 20
3441.44
  0
LINE
  5
C7C
330
19
100
AcDbEntity
  8
1
  6
Continuous
 62
     2
100
AcDbLine
 10
510.665
 20
3544.24
 30
0.0
 11
1472.66
 21
3544.24
 31
0.0
  0
LINE
  5
C7D
330
19
100
AcDbEntity
  8
1
  6
Continuous
 62
     2
100
AcDbLine
 10
510.665
 20
3456.239999999999
 30
0.0
 11
1472.66
 21
3456.239999999999
 31
0.0
  0
ARC
  5
C7E
330
19
100
AcDbEntity
  8
1
  6
Continuous
 62
     2
100
AcDbCircle
 10
1522.66
 20
3550.24
 30
0.0
 40
5.0
100
AcDbArc
 50
270.0
 51
0.0
  0
LINE
  5
C7F
330
19
100
AcDbEntity
  8
1
  6
Continuous
 62
     2
100
AcDbLine
 10
1513.049999999999
 20
3545.239999999999
 30
0.0
 11
1522.66
 21
3545.239999999999
 31
0.0
  0
LINE
  5
C80
330
19
100
AcDbEntity
  8
1
  6
Continuous
 62
     2
100
AcDbLine
 10
1513.049999999999
 20
3455.239999999999
 30
0.0
 11
1522.66
 21
3455.239999999999
 31
0.0
  0
ARC
  5
C81
330
19
100
AcDbEntity
  8
1
  6
Continuous
 62
     2
100
AcDbCircle
 10
1522.66
 20
3450.24
 30
0.0
 40
5.0
100
AcDbArc
 50
0.0
 51
90.0
  0
LINE
  5
C82
330
19
100
AcDbEntity
  8
1
  6
Continuous
 62
     2
100
AcDbLine
 10
472.665
 20
3523.239999999999
 30
0.0
 11
472.665
 21
3477.24
 31
0.0
  0
LWPOLYLINE
  5
C83
330
19
100
AcDbEntity
  8
1
  6
Continuous
 62
     2
100
AcDbPolyline
 90
        4
 70
     0
 43
0.0
 10
472.665
 20
3469.24
 10
472.665
 20
3438.239999999999
 10
1527.66
 20
3438.239999999999
 10
1527.66
 20
3450.24
  0
LWPOLYLINE
  5
C89
330
19
100
AcDbEntity
  8
1
  6
Continuous
 62
     3
100
AcDbPolyline
 90
        5
 70
     0
 43
0.0
 10
1514.66
 20
3438.239999999999
 10
1490.66
 20
3438.239999999999
 10
1490.66
 20
3435.74
 10
1514.66
 20
3435.74
 10
1514.66
 20
3438.239999999999
  0
LWPOLYLINE
  5
C90
330
19
100
AcDbEntity
  8
1
  6
Continuous
 62
     3
100
AcDbPolyline
 90
        5
 70
     0
 43
0.0
 10
1513.41
 20
3435.74
 10
1491.91
 20
3435.74
 10
1491.91
 20
3432.739999999999
 10
1513.41
 20
3432.739999999999
 10
1513.41
 20
3435.74
  0
LINE
  5
C97
330
19
100
AcDbEntity
  8
1
  6
Continuous
 62
     3
100
AcDbLine
 10
1503.66
 20
3435.74
 30
0.0
 11
1502.66
 21
3432.739999999999
 31
0.0
  0
LWPOLYLINE
  5
C98
330
19
100
AcDbEntity
  8
1
  6
Continuous
 62
     3
100
AcDbPolyline
 90
        7
 70
     0
 43
0.0
 10
1492.27
 20
3424.13
 10
1494.68
 20
3422.739999999999
 10
1510.64
 20
3422.739999999999
 10
1513.049999999999
 20
3424.13
 10
1513.049999999999
 20
3432.739999999999
 10
1492.27
 20
3432.739999999999
 10
1492.27
 20
3424.13
  0
LINE
  5
CA1
330
19
100
AcDbEntity
  8
1
  6
Continuous
 62
     3
100
AcDbLine
 10
1507.859999999999
 20
3424.13
 30
0.0
 11
1507.859999999999
 21
3432.739999999999
 31
0.0
  0
LINE
  5
CA2
330
19
100
AcDbEntity
  8
1
  6
Continuous
 62
     3
100
AcDbLine
 10
1497.46
 20
3424.13
 30
0.0
 11
1497.46
 21
3432.739999999999
 31
0.0
  0
LINE
  5
CA3
330
19
100
AcDbEntity
  8
1
  6
Continuous
 62
     3
100
AcDbLine
 10
1502.66
 20
3435.74
 30
0.0
 11
1501.66
 21
3432.739999999999
 31
0.0
  0
ARC
  5
CA4
330
19
100
AcDbEntity
  8
1
  6
Continuous
 62
     3
100
AcDbCircle
 10
1502.66
 20
3422.739999999999
 30
0.0
 40
8.5
100
AcDbArc
 50
177.999
 51
2.000929999999999
  0
ARC
  5
CA5
330
19
100
AcDbEntity
  8
1
  6
Continuous
 62
     3
100
AcDbCircle
 10
1502.66
 20
3433.13
 30
0.0
 40
10.3923
100
AcDbArc
 50
239.999
 51
299.999
  0
ARC
  5
CA6
330
19
100
AcDbEntity
  8
1
  6
Continuous
 62
     3
100
AcDbCircle
 10
1512.39
 20
3429.71
 30
0.0
 40
7.19195
100
AcDbArc
 50
230.935
 51
255.9349999999999
  0
ARC
  5
CA7
330
19
100
AcDbEntity
  8
1
  6
Continuous
 62
     3
100
AcDbCircle
 10
1492.93
 20
3429.71
 30
0.0
 40
7.19206
100
AcDbArc
 50
284.064
 51
309.064
  0
ARC
  5
CA8
330
19
100
AcDbEntity
  8
1
  6
Continuous
 62
     3
100
AcDbCircle
 10
1502.66
 20
3577.74
 30
0.0
 40
8.5
100
AcDbArc
 50
357.999
 51
182.0
  0
LWPOLYLINE
  5
CA9
330
19
100
AcDbEntity
  8
1
  6
Continuous
 62
     3
100
AcDbPolyline
 90
        5
 70
     0
 43
0.0
 10
1514.66
 20
3562.24
 10
1490.66
 20
3562.24
 10
1490.66
 20
3564.74
 10
1514.66
 20
3564.74
 10
1514.66
 20
3562.24
  0
LWPOLYLINE
  5
CB0
330
19
100
AcDbEntity
  8
1
  6
Continuous
 62
     3
100
AcDbPolyline
 90
        5
 70
     0
 43
0.0
 10
1513.41
 20
3564.74
 10
1491.91
 20
3564.74
 10
1491.91
 20
3567.74
 10
1513.41
 20
3567.74
 10
1513.41
 20
3564.74
  0
LINE
  5
CB7
330
19
100
AcDbEntity
  8
1
  6
Continuous
 62
     3
100
AcDbLine
 10
1503.66
 20
3564.74
 30
0.0
 11
1502.66
 21
3567.74
 31
0.0
  0
ARC
  5
CB8
330
19
100
AcDbEntity
  8
1
  6
Continuous
 62
     3
100
AcDbCircle
 10
1502.66
 20
3567.349999999999
 30
0.0
 40
10.3923
100
AcDbArc
 50
60.00010000000001
 51
119.9999999999999
  0
ARC
  5
CB9
330
19
100
AcDbEntity
  8
1
  6
Continuous
 62
     3
100
AcDbCircle
 10
1512.39
 20
3570.76
 30
0.0
 40
7.19195
100
AcDbArc
 50
104.064
 51
129.064
  0
LWPOLYLINE
  5
CBA
330
19
100
AcDbEntity
  8
1
  6
Continuous
 62
     3
100
AcDbPolyline
 90
        7
 70
     0
 43
0.0
 10
1492.27
 20
3576.35
 10
1494.68
 20
3577.74
 10
1510.64
 20
3577.74
 10
1513.049999999999
 20
3576.35
 10
1513.049999999999
 20
3567.74
 10
1492.27
 20
3567.74
 10
1492.27
 20
3576.35
  0
LINE
  5
CC3
330
19
100
AcDbEntity
  8
1
  6
Continuous
 62
     3
100
AcDbLine
 10
1507.859999999999
 20
3576.35
 30
0.0
 11
1507.859999999999
 21
3567.74
 31
0.0
  0
ARC
  5
CC4
330
19
100
AcDbEntity
  8
1
  6
Continuous
 62
     3
100
AcDbCircle
 10
1492.93
 20
3570.76
 30
0.0
 40
7.19206
100
AcDbArc
 50
50.93589999999999
 51
75.9358
  0
LINE
  5
CC5
330
19
100
AcDbEntity
  8
1
  6
Continuous
 62
     3
100
AcDbLine
 10
1497.46
 20
3576.35
 30
0.0
 11
1497.46
 21
3567.74
 31
0.0
  0
LINE
  5
CC6
330
19
100
AcDbEntity
  8
1
  6
Continuous
 62
     3
100
AcDbLine
 10
1502.66
 20
3564.74
 30
0.0
 11
1501.66
 21
3567.74
 31
0.0
  0
CIRCLE
  5
CC7
330
19
100
AcDbEntity
  8
1
  6
Continuous
 62
     3
100
AcDbCircle
 10
495.665
 20
3450.24
 30
0.0
 40
5.25
  0
CIRCLE
  5
CC8
330
19
100
AcDbEntity
  8
1
  6
Continuous
 62
     3
100
AcDbCircle
 10
495.665
 20
3550.24
 30
0.0
 40
5.25
  0
LINE
  5
CC9
330
19
100
AcDbEntity
  8
1
  6
Continuous
 62
     3
100
AcDbLine
 10
549.6649999999999
 20
3515.24
 30
0.0
 11
629.6649999999999
 21
3515.24
 31
0.0
  0
ARC
  5
CCA
330
19
100
AcDbEntity
  8
1
  6
Continuous
 62
     3
100
AcDbCircle
 10
549.6649999999999
 20
3500.24
 30
0.0
 40
15.0
100
AcDbArc
 50
90.0
 51
270.0
  0
ARC
  5
CCB
330
19
100
AcDbEntity
  8
1
  6
Continuous
 62
     3
100
AcDbCircle
 10
629.6649999999999
 20
3500.24
 30
0.0
 40
15.0
100
AcDbArc
 50
270.0
 51
90.0
  0
LINE
  5
CCC
330
19
100
AcDbEntity
  8
1
  6
Continuous
 62
     3
100
AcDbLine
 10
629.6649999999999
 20
3485.239999999999
 30
0.0
 11
549.6649999999999
 21
3485.239999999999
 31
0.0
  0
POINT
  5
CCD
330
19
100
AcDbEntity
  8
1
 62
     3
100
AcDbPoint
 10
797.665
 20
3437.24
 30
0.0
  0
LWPOLYLINE
  5
CCE
330
19
100
AcDbEntity
  8
1
  6
Continuous
 62
     3
100
AcDbPolyline
 90
        6
 70
     0
 43
0.0
 10
475.665
 20
3469.24
 10
475.665
 20
3458.239999999999
 10
480.665
 20
3458.239999999999
 10
480.665
 20
3443.24
 10
510.665
 20
3443.24
 10
510.665
 20
3469.24
  0
LINE
  5
CD6
330
19
100
AcDbEntity
  8
1
  6
Continuous
 62
     3
100
AcDbLine
 10
475.665
 20
3523.239999999999
 30
0.0
 11
475.665
 21
3477.24
 31
0.0
  0
LINE
  5
CD7
330
19
100
AcDbEntity
  8
1
  6
Continuous
 62
     3
100
AcDbLine
 10
510.665
 20
3477.24
 30
0.0
 11
510.665
 21
3523.239999999999
 31
0.0
  0
LWPOLYLINE
  5
CD8
330
19
100
AcDbEntity
  8
1
  6
Continuous
 62
     3
100
AcDbPolyline
 90
        6
 70
     0
 43
0.0
 10
510.665
 20
3531.239999999999
 10
510.665
 20
3557.24
 10
480.665
 20
3557.24
 10
480.665
 20
3542.239999999999
 10
475.665
 20
3542.239999999999
 10
475.665
 20
3531.239999999999
  0
LINE
  5
CE0
330
19
100
AcDbEntity
  8
1
  6
Continuous
 62
     2
100
AcDbLine
 10
510.665
 20
1835.519999999999
 30
0.0
 11
481.665
 21
1835.519999999999
 31
0.0
  0
ARC
  5
CE1
330
19
100
AcDbEntity
  8
1
  6
Continuous
 62
     2
100
AcDbCircle
 10
481.665
 20
1829.52
 30
0.0
 40
6.0
100
AcDbArc
 50
90.0
 51
152.181
  0
LINE
  5
CE2
330
19
100
AcDbEntity
  8
1
  6
Continuous
 62
     2
100
AcDbLine
 10
510.665
 20
1832.32
 30
0.0
 11
510.665
 21
1835.519999999999
 31
0.0
  0
LINE
  5
CE3
330
19
100
AcDbEntity
  8
1
  6
Continuous
 62
     2
100
AcDbLine
 10
619.1159999999999
 20
884.303
 30
0.0
 11
617.0969999999999
 21
719.1239999999999
 31
0.0
  0
LINE
  5
CE4
330
19
100
AcDbEntity
  8
1
  6
Continuous
 62
     2
100
AcDbLine
 10
618.665
 20
2013.51
 30
0.0
 11
618.665
 21
1848.32
 31
0.0
  0
LWPOLYLINE
  5
CE5
330
19
100
AcDbEntity
  8
1
  6
Continuous
 62
     3
100
AcDbPolyline
 90
        4
 70
     0
 43
0.0
 10
4847.54
 20
658.321
 10
4847.54
 20
748.321
 10
4853.54
 20
748.321
 10
4853.54
 20
658.321
  0
LINE
  5
CEB
330
19
100
AcDbEntity
  8
1
  6
Continuous
 62
     3
100
AcDbLine
 10
2808.37
 20
928.659
 30
0.0
 11
3026.87
 21
928.659
 31
0.0
  0
ARC
  5
CEC
330
19
100
AcDbEntity
  8
1
  6
Continuous
 62
     8
100
AcDbCircle
 10
4614.92
 20
2810.86
 30
0.0
 40
14.6816
100
AcDbArc
 50
261.9599999999999
 51
152.3199999999999
  0
LINE
  5
CED
330
19
100
AcDbEntity
  8
1
  6
Continuous
 62
     8
100
AcDbLine
 10
4621.62
 20
2797.79
 30
0.0
 11
4629.26
 21
2801.709999999999
 31
0.0
  0
LINE
  5
CEE
330
19
100
AcDbEntity
  8
1
  6
Continuous
 62
     8
100
AcDbLine
 10
4615.86
 20
2827.84
 30
0.0
 11
4608.229999999999
 21
2823.92
 31
0.0
  0
ARC
  5
CEF
330
19
100
AcDbEntity
  8
1
  6
Continuous
 62
     8
100
AcDbCircle
 10
4622.56
 20
2814.77
 30
0.0
 40
14.6816
100
AcDbArc
 50
297.14
 51
117.1399999999999
  0
LINE
  5
CF0
330
19
100
AcDbEntity
  8
1
  6
Continuous
 62
     8
100
AcDbLine
 10
4609.449999999999
 20
2821.54
 30
0.0
 11
4587.06
 21
2810.06
 31
0.0
  0
LINE
  5
CF1
330
19
100
AcDbEntity
  8
1
  6
Continuous
 62
     8
100
AcDbLine
 10
4598.01
 20
2788.7
 30
0.0
 11
4620.4
 21
2800.18
 31
0.0
  0
ARC
  5
CF2
330
19
100
AcDbEntity
  8
1
  6
Continuous
 62
     8
100
AcDbCircle
 10
4634.649999999999
 20
2790.63
 30
0.0
 40
15.0
100
AcDbArc
 50
37.56539999999999
 51
92.3313
  0
ARC
  5
CF3
330
19
100
AcDbEntity
  8
1
  6
Continuous
 62
     8
100
AcDbCircle
 10
4634.96
 20
2800.9
 30
0.0
 40
30.0
100
AcDbArc
 50
90.0
 51
109.1949999999999
  0
LWPOLYLINE
  5
CF4
330
19
100
AcDbEntity
  8
1
  6
Continuous
 62
     8
100
AcDbPolyline
 90
        4
 70
     0
 43
0.0
 10
4619.92
 20
2797.06
 10
4619.92
 20
2782.73
 10
4631.53
 20
2788.679999999999
 10
4631.53
 20
2803.15
  0
ARC
  5
CFA
330
19
100
AcDbEntity
  8
1
  6
Continuous
 62
     8
100
AcDbCircle
 10
4614.92
 20
2810.86
 30
0.0
 40
12.0
100
AcDbArc
 50
297.14
 51
117.1399999999999
  0
CIRCLE
  5
CFB
330
19
100
AcDbEntity
  8
1
  6
Continuous
 62
     8
100
AcDbCircle
 10
4575.66
 20
2728.62
 30
0.0
 40
4.50255
  0
ARC
  5
CFC
330
19
100
AcDbEntity
  8
1
  6
Continuous
 62
     8
100
AcDbCircle
 10
4753.31
 20
2661.22
 30
0.0
 40
192.902
100
AcDbArc
 50
135.676
 51
158.191
  0
ARC
  5
CFD
330
19
100
AcDbEntity
  8
1
  6
Continuous
 62
     8
100
AcDbCircle
 10
4719.75
 20
2678.52
 30
0.0
 40
149.885
100
AcDbArc
 50
131.7609999999999
 51
159.4519999999999
  0
LINE
  5
CFE
330
19
100
AcDbEntity
  8
1
  6
Continuous
 62
     8
100
AcDbLine
 10
4609.92
 20
2794.81
 30
0.0
 11
4609.92
 21
2790.26
 31
0.0
  0
LINE
  5
CFF
330
19
100
AcDbEntity
  8
1
  6
Continuous
 62
     8
100
AcDbLine
 10
4612.02
 20
2782.73
 30
0.0
 11
4619.92
 21
2782.73
 31
0.0
  0
CIRCLE
  5
D00
330
19
100
AcDbEntity
  8
1
  6
Continuous
 62
     8
100
AcDbCircle
 10
5108.54
 20
2799.38
 30
0.0
 40
12.0
  0
LINE
  5
D01
330
19
100
AcDbEntity
  8
1
  6
Continuous
 62
     8
100
AcDbLine
 10
5062.58
 20
2830.9
 30
0.0
 11
5066.11
 21
2830.9
 31
0.0
  0
ARC
  5
D02
330
19
100
AcDbEntity
  8
1
  6
Continuous
 62
     8
100
AcDbCircle
 10
5086.149999999999
 20
2810.86
 30
0.0
 40
14.6816
100
AcDbArc
 50
27.6798
 51
278.039
  0
LINE
  5
D03
330
19
100
AcDbEntity
  8
1
  6
Continuous
 62
     8
100
AcDbLine
 10
5079.45
 20
2797.79
 30
0.0
 11
5071.810000000001
 21
2801.709999999999
 31
0.0
  0
LINE
  5
D04
330
19
100
AcDbEntity
  8
1
  6
Continuous
 62
     8
100
AcDbLine
 10
5085.21
 20
2827.84
 30
0.0
 11
5092.84
 21
2823.92
 31
0.0
  0
ARC
  5
D05
330
19
100
AcDbEntity
  8
1
  6
Continuous
 62
     8
100
AcDbCircle
 10
5078.51
 20
2814.77
 30
0.0
 40
14.6816
100
AcDbArc
 50
62.85990000000001
 51
242.859
  0
LINE
  5
D06
330
19
100
AcDbEntity
  8
1
  6
Continuous
 62
     8
100
AcDbLine
 10
5091.62
 20
2821.54
 30
0.0
 11
5114.01
 21
2810.06
 31
0.0
  0
LINE
  5
D07
330
19
100
AcDbEntity
  8
1
  6
Continuous
 62
     8
100
AcDbLine
 10
5103.060000000001
 20
2788.7
 30
0.0
 11
5080.67
 21
2800.18
 31
0.0
  0
ARC
  5
D08
330
19
100
AcDbEntity
  8
1
  6
Continuous
 62
     8
100
AcDbCircle
 10
5066.42
 20
2790.63
 30
0.0
 40
15.0
100
AcDbArc
 50
87.66859999999999
 51
142.4339999999999
  0
ARC
  5
D09
330
19
100
AcDbEntity
  8
1
  6
Continuous
 62
     8
100
AcDbCircle
 10
5066.11
 20
2800.9
 30
0.0
 40
30.0
100
AcDbArc
 50
70.8042
 51
90.0
  0
LWPOLYLINE
  5
D0A
330
19
100
AcDbEntity
  8
1
  6
Continuous
 62
     8
100
AcDbPolyline
 90
        4
 70
     0
 43
0.0
 10
5081.15
 20
2797.06
 10
5081.15
 20
2782.73
 10
5069.539999999999
 20
2788.679999999999
 10
5069.539999999999
 20
2803.15
  0
ARC
  5
D10
330
19
100
AcDbEntity
  8
1
  6
Continuous
 62
     8
100
AcDbCircle
 10
5086.149999999999
 20
2810.86
 30
0.0
 40
12.0
100
AcDbArc
 50
62.85990000000001
 51
242.859
  0
CIRCLE
  5
D11
330
19
100
AcDbEntity
  8
1
  6
Continuous
 62
     8
100
AcDbCircle
 10
5125.41
 20
2728.62
 30
0.0
 40
4.50255
  0
ARC
  5
D12
330
19
100
AcDbEntity
  8
1
  6
Continuous
 62
     8
100
AcDbCircle
 10
4947.76
 20
2661.22
 30
0.0
 40
192.902
100
AcDbArc
 50
21.808
 51
44.3236
  0
ARC
  5
D13
330
19
100
AcDbEntity
  8
1
  6
Continuous
 62
     8
100
AcDbCircle
 10
4981.32
 20
2678.52
 30
0.0
 40
149.885
100
AcDbArc
 50
20.54769999999999
 51
48.2381
  0
LINE
  5
D14
330
19
100
AcDbEntity
  8
1
  6
Continuous
 62
     8
100
AcDbLine
 10
5091.149999999999
 20
2794.81
 30
0.0
 11
5091.149999999999
 21
2790.26
 31
0.0
  0
LINE
  5
D15
330
19
100
AcDbEntity
  8
1
  6
Continuous
 62
     8
100
AcDbLine
 10
5089.05
 20
2782.73
 30
0.0
 11
5081.15
 21
2782.73
 31
0.0
  0
ARC
  5
D16
330
19
100
AcDbEntity
  8
1
  6
Continuous
 62
     8
100
AcDbCircle
 10
5062.58
 20
2800.9
 30
0.0
 40
30.0
100
AcDbArc
 50
90.0
 51
142.6649999999999
  0
LINE
  5
D17
330
19
100
AcDbEntity
  8
1
  6
Continuous
 62
     8
100
AcDbLine
 10
4837.54
 20
2478.41
 30
0.0
 11
4831.739999999999
 21
2467.7
 31
0.0
  0
LINE
  5
D18
330
19
100
AcDbEntity
  8
1
  6
Continuous
 62
     8
100
AcDbLine
 10
4826.33
 20
2457.699999999999
 30
0.0
 11
4821.25
 21
2448.31
 31
0.0
  0
LINE
  5
D19
330
19
100
AcDbEntity
  8
1
  6
Continuous
 62
     8
100
AcDbLine
 10
4815.82
 20
2467.7
 30
0.0
 11
4837.76
 21
2508.25
 31
0.0
  0
LINE
  5
D1A
330
19
100
AcDbEntity
  8
1
  6
Continuous
 62
     8
100
AcDbLine
 10
4837.54
 20
2560.119999999999
 30
0.0
 11
4837.54
 21
2467.7
 31
0.0
  0
LINE
  5
D1B
330
19
100
AcDbEntity
  8
1
  6
Continuous
 62
     8
100
AcDbLine
 10
4837.54
 20
2457.699999999999
 30
0.0
 11
4837.54
 21
2424.98
 31
0.0
  0
LINE
  5
D1C
330
19
100
AcDbEntity
  8
1
  6
Continuous
 62
     8
100
AcDbLine
 10
4863.54
 20
2424.98
 30
0.0
 11
4863.54
 21
2457.699999999999
 31
0.0
  0
LINE
  5
D1D
330
19
100
AcDbEntity
  8
1
  6
Continuous
 62
     8
100
AcDbLine
 10
4863.54
 20
2467.7
 30
0.0
 11
4863.54
 21
2560.119999999999
 31
0.0
  0
LINE
  5
D1E
330
19
100
AcDbEntity
  8
1
  6
Continuous
 62
     8
100
AcDbLine
 10
4863.54
 20
2478.41
 30
0.0
 11
4869.33
 21
2467.7
 31
0.0
  0
LINE
  5
D1F
330
19
100
AcDbEntity
  8
1
  6
Continuous
 62
     8
100
AcDbLine
 10
4874.74
 20
2457.699999999999
 30
0.0
 11
4879.82
 21
2448.31
 31
0.0
  0
LINE
  5
D20
330
19
100
AcDbEntity
  8
1
  6
Continuous
 62
     8
100
AcDbLine
 10
4885.25
 20
2467.7
 30
0.0
 11
4863.310000000001
 21
2508.25
 31
0.0
  0
LINE
  5
D21
330
19
100
AcDbEntity
  8
1
  6
Continuous
 62
     8
100
AcDbLine
 10
4940.46
 20
2457.699999999999
 30
0.0
 11
4909.0
 21
2194.4
 31
0.0
  0
LINE
  5
D22
330
19
100
AcDbEntity
  8
1
  6
Continuous
 62
     8
100
AcDbLine
 10
4760.609999999999
 20
2457.699999999999
 30
0.0
 11
4792.069999999999
 21
2194.4
 31
0.0
  0
LWPOLYLINE
  5
D23
330
19
100
AcDbEntity
  8
1
  6
Continuous
 62
     8
100
AcDbPolyline
 90
        5
 70
     0
 43
0.0
 10
4769.92
 20
2295.469999999999
 10
4762.81
 20
2295.469999999999
 10
4762.81
 20
2084.58
 10
4774.399999999999
 20
2084.58
 10
4774.399999999999
 20
2257.96
  0
CIRCLE
  5
D2A
330
19
100
AcDbEntity
  8
1
  6
Continuous
 62
     8
100
AcDbCircle
 10
4497.539999999999
 20
1664.68
 30
0.0
 40
12.0
  0
LINE
  5
D2B
330
19
100
AcDbEntity
  8
1
  6
Continuous
 62
     8
100
AcDbLine
 10
4543.49
 20
1696.2
 30
0.0
 11
4539.959999999999
 21
1696.2
 31
0.0
  0
ARC
  5
D2C
330
19
100
AcDbEntity
  8
1
  6
Continuous
 62
     8
100
AcDbCircle
 10
4543.49
 20
1666.199999999999
 30
0.0
 40
30.0
100
AcDbArc
 50
37.33449999999999
 51
90.0
  0
ARC
  5
D2D
330
19
100
AcDbEntity
  8
1
  6
Continuous
 62
     8
100
AcDbCircle
 10
4519.92
 20
1676.16
 30
0.0
 40
14.6816
100
AcDbArc
 50
261.9599999999999
 51
152.3199999999999
  0
LINE
  5
D2E
330
19
100
AcDbEntity
  8
1
  6
Continuous
 62
     8
100
AcDbLine
 10
4526.62
 20
1663.09
 30
0.0
 11
4534.26
 21
1667.01
 31
0.0
  0
LINE
  5
D2F
330
19
100
AcDbEntity
  8
1
  6
Continuous
 62
     8
100
AcDbLine
 10
4520.859999999999
 20
1693.14
 30
0.0
 11
4513.229999999999
 21
1689.219999999999
 31
0.0
  0
ARC
  5
D30
330
19
100
AcDbEntity
  8
1
  6
Continuous
 62
     8
100
AcDbCircle
 10
4527.56
 20
1680.069999999999
 30
0.0
 40
14.6816
100
AcDbArc
 50
297.14
 51
117.1399999999999
  0
LINE
  5
D31
330
19
100
AcDbEntity
  8
1
  6
Continuous
 62
     8
100
AcDbLine
 10
4514.45
 20
1686.84
 30
0.0
 11
4492.060000000001
 21
1675.359999999999
 31
0.0
  0
LINE
  5
D32
330
19
100
AcDbEntity
  8
1
  6
Continuous
 62
     8
100
AcDbLine
 10
4503.01
 20
1654.0
 30
0.0
 11
4525.4
 21
1665.48
 31
0.0
  0
ARC
  5
D33
330
19
100
AcDbEntity
  8
1
  6
Continuous
 62
     8
100
AcDbCircle
 10
4539.649999999999
 20
1655.93
 30
0.0
 40
15.0
100
AcDbArc
 50
37.56539999999999
 51
92.3313
  0
ARC
  5
D34
330
19
100
AcDbEntity
  8
1
  6
Continuous
 62
     8
100
AcDbCircle
 10
4539.959999999999
 20
1666.199999999999
 30
0.0
 40
30.0
100
AcDbArc
 50
90.0
 51
109.1949999999999
  0
LWPOLYLINE
  5
D35
330
19
100
AcDbEntity
  8
1
  6
Continuous
 62
     8
100
AcDbPolyline
 90
        4
 70
     0
 43
0.0
 10
4524.92
 20
1662.36
 10
4524.92
 20
1648.03
 10
4536.529999999999
 20
1653.979999999999
 10
4536.529999999999
 20
1668.449999999999
  0
ARC
  5
D3B
330
19
100
AcDbEntity
  8
1
  6
Continuous
 62
     8
100
AcDbCircle
 10
4519.92
 20
1676.16
 30
0.0
 40
12.0
100
AcDbArc
 50
297.14
 51
117.1399999999999
  0
CIRCLE
  5
D3C
330
19
100
AcDbEntity
  8
1
  6
Continuous
 62
     8
100
AcDbCircle
 10
4480.659999999999
 20
1593.92
 30
0.0
 40
4.50255
  0
ARC
  5
D3D
330
19
100
AcDbEntity
  8
1
  6
Continuous
 62
     8
100
AcDbCircle
 10
4658.31
 20
1526.52
 30
0.0
 40
192.902
100
AcDbArc
 50
135.676
 51
158.191
  0
ARC
  5
D3E
330
19
100
AcDbEntity
  8
1
  6
Continuous
 62
     8
100
AcDbCircle
 10
4624.75
 20
1543.82
 30
0.0
 40
149.885
100
AcDbArc
 50
131.7609999999999
 51
159.4519999999999
  0
LINE
  5
D3F
330
19
100
AcDbEntity
  8
1
  6
Continuous
 62
     8
100
AcDbLine
 10
4514.92
 20
1660.109999999999
 30
0.0
 11
4514.92
 21
1655.559999999999
 31
0.0
  0
LINE
  5
D40
330
19
100
AcDbEntity
  8
1
  6
Continuous
 62
     8
100
AcDbLine
 10
4517.020000000001
 20
1648.03
 30
0.0
 11
4524.92
 21
1648.03
 31
0.0
  0
POLYLINE
  5
D41
330
19
100
AcDbEntity
  8
1
  6
Continuous
 62
     8
100
AcDb2dPolyline
 66
     1
 10
0.0
 20
0.0
 30
0.0
 70
     2
  0
VERTEX
  5
D42
330
D41
100
AcDbEntity
  8
1
  6
Continuous
 62
     8
100
AcDbVertex
100
AcDb2dVertex
 10
4956.949999999999
 20
1699.419999999999
 30
0.0
  0
VERTEX
  5
D43
330
D41
100
AcDbEntity
  8
1
  6
Continuous
 62
     8
100
AcDbVertex
100
AcDb2dVertex
 10
4956.79
 20
1700.82
 30
0.0
  0
VERTEX
  5
D44
330
D41
100
AcDbEntity
  8
1
  6
Continuous
 62
     8
100
AcDbVertex
100
AcDb2dVertex
 10
4956.319999999999
 20
1702.2
 30
0.0
  0
VERTEX
  5
D45
330
D41
100
AcDbEntity
  8
1
  6
Continuous
 62
     8
100
AcDbVertex
100
AcDb2dVertex
 10
4955.529999999999
 20
1703.529999999999
 30
0.0
  0
VERTEX
  5
D46
330
D41
100
AcDbEntity
  8
1
  6
Continuous
 62
     8
100
AcDbVertex
100
AcDb2dVertex
 10
4954.45
 20
1704.799999999999
 30
0.0
  0
VERTEX
  5
D47
330
D41
100
AcDbEntity
  8
1
  6
Continuous
 62
     8
100
AcDbVertex
100
AcDb2dVertex
 10
4953.09
 20
1705.989999999999
 30
0.0
  0
VERTEX
  5
D48
330
D41
100
AcDbEntity
  8
1
  6
Continuous
 62
     8
100
AcDbVertex
100
AcDb2dVertex
 10
4951.47
 20
1707.069999999999
 30
0.0
  0
VERTEX
  5
D49
330
D41
100
AcDbEntity
  8
1
  6
Continuous
 62
     8
100
AcDbVertex
100
AcDb2dVertex
 10
4949.62
 20
1708.03
 30
0.0
  0
VERTEX
  5
D4A
330
D41
100
AcDbEntity
  8
1
  6
Continuous
 62
     8
100
AcDbVertex
100
AcDb2dVertex
 10
4947.560000000001
 20
1708.86
 30
0.0
  0
VERTEX
  5
D4B
330
D41
100
AcDbEntity
  8
1
  6
Continuous
 62
     8
100
AcDbVertex
100
AcDb2dVertex
 10
4945.33
 20
1709.54
 30
0.0
  0
VERTEX
  5
D4C
330
D41
100
AcDbEntity
  8
1
  6
Continuous
 62
     8
100
AcDbVertex
100
AcDb2dVertex
 10
4942.96
 20
1710.06
 30
0.0
  0
VERTEX
  5
D4D
330
D41
100
AcDbEntity
  8
1
  6
Continuous
 62
     8
100
AcDbVertex
100
AcDb2dVertex
 10
4940.49
 20
1710.41
 30
0.0
  0
VERTEX
  5
D4E
330
D41
100
AcDbEntity
  8
1
  6
Continuous
 62
     8
100
AcDbVertex
100
AcDb2dVertex
 10
4937.97
 20
1710.599999999999
 30
0.0
  0
VERTEX
  5
D4F
330
D41
100
AcDbEntity
  8
1
  6
Continuous
 62
     8
100
AcDbVertex
100
AcDb2dVertex
 10
4935.42
 20
1710.599999999999
 30
0.0
  0
VERTEX
  5
D50
330
D41
100
AcDbEntity
  8
1
  6
Continuous
 62
     8
100
AcDbVertex
100
AcDb2dVertex
 10
4932.89
 20
1710.43
 30
0.0
  0
VERTEX
  5
D51
330
D41
100
AcDbEntity
  8
1
  6
Continuous
 62
     8
100
AcDbVertex
100
AcDb2dVertex
 10
4930.41
 20
1710.09
 30
0.0
  0
VERTEX
  5
D52
330
D41
100
AcDbEntity
  8
1
  6
Continuous
 62
     8
100
AcDbVertex
100
AcDb2dVertex
 10
4928.04
 20
1709.58
 30
0.0
  0
VERTEX
  5
D53
330
D41
100
AcDbEntity
  8
1
  6
Continuous
 62
     8
100
AcDbVertex
100
AcDb2dVertex
 10
4925.8
 20
1708.91
 30
0.0
  0
VERTEX
  5
D54
330
D41
100
AcDbEntity
  8
1
  6
Continuous
 62
     8
100
AcDbVertex
100
AcDb2dVertex
 10
4923.72
 20
1708.099999999999
 30
0.0
  0
VERTEX
  5
D55
330
D41
100
AcDbEntity
  8
1
  6
Continuous
 62
     8
100
AcDbVertex
100
AcDb2dVertex
 10
4921.85
 20
1707.14
 30
0.0
  0
VERTEX
  5
D56
330
D41
100
AcDbEntity
  8
1
  6
Continuous
 62
     8
100
AcDbVertex
100
AcDb2dVertex
 10
4920.21
 20
1706.07
 30
0.0
  0
VERTEX
  5
D57
330
D41
100
AcDbEntity
  8
1
  6
Continuous
 62
     8
100
AcDbVertex
100
AcDb2dVertex
 10
4918.829999999999
 20
1704.889999999999
 30
0.0
  0
VERTEX
  5
D58
330
D41
100
AcDbEntity
  8
1
  6
Continuous
 62
     8
100
AcDbVertex
100
AcDb2dVertex
 10
4917.729999999999
 20
1703.62
 30
0.0
  0
VERTEX
  5
D59
330
D41
100
AcDbEntity
  8
1
  6
Continuous
 62
     8
100
AcDbVertex
100
AcDb2dVertex
 10
4916.920000000001
 20
1702.29
 30
0.0
  0
VERTEX
  5
D5A
330
D41
100
AcDbEntity
  8
1
  6
Continuous
 62
     8
100
AcDbVertex
100
AcDb2dVertex
 10
4916.42
 20
1700.91
 30
0.0
  0
VERTEX
  5
D5B
330
D41
100
AcDbEntity
  8
1
  6
Continuous
 62
     8
100
AcDbVertex
100
AcDb2dVertex
 10
4916.24
 20
1699.52
 30
0.0
  0
VERTEX
  5
D5C
330
D41
100
AcDbEntity
  8
1
  6
Continuous
 62
     8
100
AcDbVertex
100
AcDb2dVertex
 10
4916.38
 20
1698.109999999999
 30
0.0
  0
VERTEX
  5
D5D
330
D41
100
AcDbEntity
  8
1
  6
Continuous
 62
     8
100
AcDbVertex
100
AcDb2dVertex
 10
4916.83
 20
1696.73
 30
0.0
  0
VERTEX
  5
D5E
330
D41
100
AcDbEntity
  8
1
  6
Continuous
 62
     8
100
AcDbVertex
100
AcDb2dVertex
 10
4917.6
 20
1695.39
 30
0.0
  0
VERTEX
  5
D5F
330
D41
100
AcDbEntity
  8
1
  6
Continuous
 62
     8
100
AcDbVertex
100
AcDb2dVertex
 10
4918.66
 20
1694.119999999999
 30
0.0
  0
VERTEX
  5
D60
330
D41
100
AcDbEntity
  8
1
  6
Continuous
 62
     8
100
AcDbVertex
100
AcDb2dVertex
 10
4920.010000000001
 20
1692.93
 30
0.0
  0
VERTEX
  5
D61
330
D41
100
AcDbEntity
  8
1
  6
Continuous
 62
     8
100
AcDbVertex
100
AcDb2dVertex
 10
4921.61
 20
1691.829999999999
 30
0.0
  0
VERTEX
  5
D62
330
D41
100
AcDbEntity
  8
1
  6
Continuous
 62
     8
100
AcDbVertex
100
AcDb2dVertex
 10
4923.449999999999
 20
1690.859999999999
 30
0.0
  0
VERTEX
  5
D63
330
D41
100
AcDbEntity
  8
1
  6
Continuous
 62
     8
100
AcDbVertex
100
AcDb2dVertex
 10
4925.5
 20
1690.03
 30
0.0
  0
VERTEX
  5
D64
330
D41
100
AcDbEntity
  8
1
  6
Continuous
 62
     8
100
AcDbVertex
100
AcDb2dVertex
 10
4927.72
 20
1689.329999999999
 30
0.0
  0
VERTEX
  5
D65
330
D41
100
AcDbEntity
  8
1
  6
Continuous
 62
     8
100
AcDbVertex
100
AcDb2dVertex
 10
4930.08
 20
1688.799999999999
 30
0.0
  0
VERTEX
  5
D66
330
D41
100
AcDbEntity
  8
1
  6
Continuous
 62
     8
100
AcDbVertex
100
AcDb2dVertex
 10
4932.54
 20
1688.439999999999
 30
0.0
  0
VERTEX
  5
D67
330
D41
100
AcDbEntity
  8
1
  6
Continuous
 62
     8
100
AcDbVertex
100
AcDb2dVertex
 10
4935.069999999999
 20
1688.24
 30
0.0
  0
VERTEX
  5
D68
330
D41
100
AcDbEntity
  8
1
  6
Continuous
 62
     8
100
AcDbVertex
100
AcDb2dVertex
 10
4937.619999999999
 20
1688.22
 30
0.0
  0
VERTEX
  5
D69
330
D41
100
AcDbEntity
  8
1
  6
Continuous
 62
     8
100
AcDbVertex
100
AcDb2dVertex
 10
4940.16
 20
1688.38
 30
0.0
  0
VERTEX
  5
D6A
330
D41
100
AcDbEntity
  8
1
  6
Continuous
 62
     8
100
AcDbVertex
100
AcDb2dVertex
 10
4942.64
 20
1688.71
 30
0.0
  0
VERTEX
  5
D6B
330
D41
100
AcDbEntity
  8
1
  6
Continuous
 62
     8
100
AcDbVertex
100
AcDb2dVertex
 10
4945.02
 20
1689.21
 30
0.0
  0
VERTEX
  5
D6C
330
D41
100
AcDbEntity
  8
1
  6
Continuous
 62
     8
100
AcDbVertex
100
AcDb2dVertex
 10
4947.28
 20
1689.869999999999
 30
0.0
  0
VERTEX
  5
D6D
330
D41
100
AcDbEntity
  8
1
  6
Continuous
 62
     8
100
AcDbVertex
100
AcDb2dVertex
 10
4949.36
 20
1690.68
 30
0.0
  0
VERTEX
  5
D6E
330
D41
100
AcDbEntity
  8
1
  6
Continuous
 62
     8
100
AcDbVertex
100
AcDb2dVertex
 10
4951.25
 20
1691.62
 30
0.0
  0
VERTEX
  5
D6F
330
D41
100
AcDbEntity
  8
1
  6
Continuous
 62
     8
100
AcDbVertex
100
AcDb2dVertex
 10
4952.899999999999
 20
1692.689999999999
 30
0.0
  0
VERTEX
  5
D70
330
D41
100
AcDbEntity
  8
1
  6
Continuous
 62
     8
100
AcDbVertex
100
AcDb2dVertex
 10
4954.31
 20
1693.87
 30
0.0
  0
VERTEX
  5
D71
330
D41
100
AcDbEntity
  8
1
  6
Continuous
 62
     8
100
AcDbVertex
100
AcDb2dVertex
 10
4955.43
 20
1695.129999999999
 30
0.0
  0
VERTEX
  5
D72
330
D41
100
AcDbEntity
  8
1
  6
Continuous
 62
     8
100
AcDbVertex
100
AcDb2dVertex
 10
4956.26
 20
1696.45
 30
0.0
  0
VERTEX
  5
D73
330
D41
100
AcDbEntity
  8
1
  6
Continuous
 62
     8
100
AcDbVertex
100
AcDb2dVertex
 10
4956.78
 20
1697.83
 30
0.0
  0
VERTEX
  5
D74
330
D41
100
AcDbEntity
  8
1
  6
Continuous
 62
     8
100
AcDbVertex
100
AcDb2dVertex
 10
4956.949999999999
 20
1699.419999999999
 30
0.0
  0
SEQEND
  5
D75
330
D41
100
AcDbEntity
  8
1
 62
     8
  0
POINT
  5
D76
330
19
100
AcDbEntity
  8
1
 62
     8
100
AcDbPoint
 10
4974.37
 20
1710.619999999999
 30
0.0
  0
LINE
  5
D77
330
19
100
AcDbEntity
  8
1
  6
Continuous
 62
     8
100
AcDbLine
 10
4967.58
 20
1696.2
 30
0.0
 11
4971.109999999999
 21
1696.2
 31
0.0
  0
ARC
  5
D78
330
19
100
AcDbEntity
  8
1
  6
Continuous
 62
     8
100
AcDbCircle
 10
4983.51
 20
1680.069999999999
 30
0.0
 40
14.6816
100
AcDbArc
 50
62.85990000000001
 51
242.859
  0
ARC
  5
D79
330
19
100
AcDbEntity
  8
1
  6
Continuous
 62
     8
100
AcDbCircle
 10
4971.109999999999
 20
1666.199999999999
 30
0.0
 40
30.0
100
AcDbArc
 50
70.8042
 51
90.0
  0
ARC
  5
D7A
330
19
100
AcDbEntity
  8
1
  6
Continuous
 62
     8
100
AcDbCircle
 10
4967.58
 20
1666.199999999999
 30
0.0
 40
30.0
100
AcDbArc
 50
90.0
 51
142.6649999999999
  0
CIRCLE
  5
D7B
330
19
100
AcDbEntity
  8
1
  6
Continuous
 62
     8
100
AcDbCircle
 10
5013.54
 20
1664.68
 30
0.0
 40
12.0
  0
ARC
  5
D7C
330
19
100
AcDbEntity
  8
1
  6
Continuous
 62
     8
100
AcDbCircle
 10
4991.15
 20
1676.16
 30
0.0
 40
14.6816
100
AcDbArc
 50
27.6798
 51
278.039
  0
LINE
  5
D7D
330
19
100
AcDbEntity
  8
1
  6
Continuous
 62
     8
100
AcDbLine
 10
4984.449999999999
 20
1663.09
 30
0.0
 11
4976.81
 21
1667.01
 31
0.0
  0
LINE
  5
D7E
330
19
100
AcDbEntity
  8
1
  6
Continuous
 62
     8
100
AcDbLine
 10
4990.210000000001
 20
1693.14
 30
0.0
 11
4997.84
 21
1689.219999999999
 31
0.0
  0
LINE
  5
D7F
330
19
100
AcDbEntity
  8
1
  6
Continuous
 62
     8
100
AcDbLine
 10
4996.62
 20
1686.84
 30
0.0
 11
5019.01
 21
1675.359999999999
 31
0.0
  0
LINE
  5
D80
330
19
100
AcDbEntity
  8
1
  6
Continuous
 62
     8
100
AcDbLine
 10
5008.06
 20
1654.0
 30
0.0
 11
4985.67
 21
1665.48
 31
0.0
  0
LWPOLYLINE
  5
D81
330
19
100
AcDbEntity
  8
1
  6
Continuous
 62
     8
100
AcDbPolyline
 90
        4
 70
     0
 43
0.0
 10
4986.15
 20
1662.36
 10
4986.15
 20
1648.03
 10
4974.540000000001
 20
1653.979999999999
 10
4974.540000000001
 20
1668.449999999999
  0
ARC
  5
D87
330
19
100
AcDbEntity
  8
1
  6
Continuous
 62
     8
100
AcDbCircle
 10
4991.15
 20
1676.16
 30
0.0
 40
12.0
100
AcDbArc
 50
62.85990000000001
 51
242.859
  0
CIRCLE
  5
D88
330
19
100
AcDbEntity
  8
1
  6
Continuous
 62
     8
100
AcDbCircle
 10
5030.409999999999
 20
1593.92
 30
0.0
 40
4.50255
  0
ARC
  5
D89
330
19
100
AcDbEntity
  8
1
  6
Continuous
 62
     8
100
AcDbCircle
 10
4852.76
 20
1526.52
 30
0.0
 40
192.902
100
AcDbArc
 50
21.808
 51
44.3236
  0
ARC
  5
D8A
330
19
100
AcDbEntity
  8
1
  6
Continuous
 62
     8
100
AcDbCircle
 10
4886.32
 20
1543.82
 30
0.0
 40
149.885
100
AcDbArc
 50
20.54769999999999
 51
48.2381
  0
LINE
  5
D8B
330
19
100
AcDbEntity
  8
1
  6
Continuous
 62
     8
100
AcDbLine
 10
4996.15
 20
1660.109999999999
 30
0.0
 11
4996.15
 21
1655.559999999999
 31
0.0
  0
LINE
  5
D8C
330
19
100
AcDbEntity
  8
1
  6
Continuous
 62
     8
100
AcDbLine
 10
4994.05
 20
1648.03
 30
0.0
 11
4986.15
 21
1648.03
 31
0.0
  0
LINE
  5
D8D
330
19
100
AcDbEntity
  8
1
  6
Continuous
 62
     8
100
AcDbLine
 10
4720.819999999999
 20
1333.0
 30
0.0
 11
4742.76
 21
1373.55
 31
0.0
  0
LINE
  5
D8E
330
19
100
AcDbEntity
  8
1
  6
Continuous
 62
     8
100
AcDbLine
 10
4742.54
 20
1343.71
 30
0.0
 11
4736.74
 21
1333.0
 31
0.0
  0
LINE
  5
D8F
330
19
100
AcDbEntity
  8
1
  6
Continuous
 62
     8
100
AcDbLine
 10
4731.329999999999
 20
1323.0
 30
0.0
 11
4726.25
 21
1313.609999999999
 31
0.0
  0
LINE
  5
D90
330
19
100
AcDbEntity
  8
1
  6
Continuous
 62
     8
100
AcDbLine
 10
4742.54
 20
1425.42
 30
0.0
 11
4742.54
 21
1333.0
 31
0.0
  0
LINE
  5
D91
330
19
100
AcDbEntity
  8
1
  6
Continuous
 62
     8
100
AcDbLine
 10
4742.54
 20
1323.0
 30
0.0
 11
4742.54
 21
1290.28
 31
0.0
  0
LINE
  5
D92
330
19
100
AcDbEntity
  8
1
  6
Continuous
 62
     8
100
AcDbLine
 10
4768.54
 20
1290.28
 30
0.0
 11
4768.54
 21
1323.0
 31
0.0
  0
LINE
  5
D93
330
19
100
AcDbEntity
  8
1
  6
Continuous
 62
     8
100
AcDbLine
 10
4768.54
 20
1333.0
 30
0.0
 11
4768.54
 21
1425.42
 31
0.0
  0
LINE
  5
D94
330
19
100
AcDbEntity
  8
1
  6
Continuous
 62
     8
100
AcDbLine
 10
4768.54
 20
1343.71
 30
0.0
 11
4774.329999999999
 21
1333.0
 31
0.0
  0
LINE
  5
D95
330
19
100
AcDbEntity
  8
1
  6
Continuous
 62
     8
100
AcDbLine
 10
4779.739999999999
 20
1323.0
 30
0.0
 11
4784.819999999999
 21
1313.609999999999
 31
0.0
  0
LINE
  5
D96
330
19
100
AcDbEntity
  8
1
  6
Continuous
 62
     8
100
AcDbLine
 10
4790.25
 20
1333.0
 30
0.0
 11
4768.31
 21
1373.55
 31
0.0
  0
LWPOLYLINE
  5
D97
330
19
100
AcDbEntity
  8
1
  6
Continuous
 62
     8
100
AcDbPolyline
 90
        5
 70
     0
 43
0.0
 10
4674.92
 20
1160.77
 10
4667.810000000001
 20
1160.77
 10
4667.810000000001
 20
949.8800000000001
 10
4679.4
 20
949.8800000000001
 10
4679.4
 20
1123.259999999999
  0
LINE
  5
D9E
330
19
100
AcDbEntity
  8
1
  6
Continuous
 62
     8
100
AcDbLine
 10
4665.61
 20
1323.0
 30
0.0
 11
4697.07
 21
1059.7
 31
0.0
  0
LINE
  5
D9F
330
19
100
AcDbEntity
  8
1
  6
Continuous
 62
     8
100
AcDbLine
 10
4845.46
 20
1323.0
 30
0.0
 11
4814.0
 21
1059.7
 31
0.0
  0
LWPOLYLINE
  5
DA0
330
19
100
AcDbEntity
  8
1
  6
Continuous
 62
     8
100
AcDbPolyline
 90
        5
 70
     0
 43
0.0
 10
4824.64
 20
2344.679999999999
 10
4876.43
 20
2344.679999999999
 10
4860.54
 20
2286.05
 10
4840.54
 20
2286.05
 10
4824.64
 20
2344.679999999999
  0
LWPOLYLINE
  5
DA7
330
19
100
AcDbEntity
  8
1
  6
Continuous
 62
     8
100
AcDbPolyline
 90
        5
 70
     0
 43
0.0
 10
4729.64
 20
1209.98
 10
4781.43
 20
1209.98
 10
4765.54
 20
1151.349999999999
 10
4745.54
 20
1151.349999999999
 10
4729.64
 20
1209.98
  0
TEXT
  5
DAE
330
19
100
AcDbEntity
  8
1
 62
     3
100
AcDbText
 10
2375.02
 20
665.047
 30
0.0
 40
40.0
  1
床面
100
AcDbText
  0
TEXT
  5
DAF
330
19
100
AcDbEntity
  8
1
 62
     3
100
AcDbText
 10
2091.429999999999
 20
658.9349999999999
 30
0.0
 40
40.0
  1
ＦＬ±０
100
AcDbText
  0
TEXT
  5
DB0
330
19
100
AcDbEntity
  8
1
 62
     3
100
AcDbText
 10
371.6869999999999
 20
2320.46
 30
0.0
 40
40.0
  1
境界面（壁等）
 50
90.0
100
AcDbText
  0
TEXT
  5
DB1
330
19
100
AcDbEntity
  8
1
 62
     3
100
AcDbText
 10
4710.52
 20
3270.54
 30
0.0
 40
40.0
  1
天井
100
AcDbText
  0
LINE
  5
DB2
330
19
100
AcDbEntity
  8
1
  6
DIVIDE
 62
     7
100
AcDbLine
 10
1547.12
 20
2022.82
 30
0.0
 11
1452.37
 21
1887.509999999999
 31
0.0
  0
LINE
  5
DB3
330
19
100
AcDbEntity
  8
1
  6
Continuous
 62
     3
100
AcDbLine
 10
3982.66
 20
3052.32
 30
0.0
 11
3982.66
 21
3198.04
 31
0.0
  0
LINE
  5
DB4
330
19
100
AcDbEntity
  8
1
  6
Continuous
 62
     3
100
AcDbLine
 10
2282.659999999999
 20
3198.04
 30
0.0
 11
2282.659999999999
 21
3135.42
 31
0.0
  0
LINE
  5
DB5
330
19
100
AcDbEntity
  8
1
  6
Continuous
 62
     3
100
AcDbLine
 10
2282.659999999999
 20
3178.04
 30
0.0
 11
3982.66
 21
3178.04
 31
0.0
  0
LINE
  5
DB6
330
19
100
AcDbEntity
  8
1
  6
Continuous
 62
     3
100
AcDbLine
 10
2282.659999999999
 20
3178.04
 30
0.0
 11
2302.659999999999
 21
3174.52
 31
0.0
  0
LINE
  5
DB7
330
19
100
AcDbEntity
  8
1
  6
Continuous
 62
     3
100
AcDbLine
 10
2282.659999999999
 20
3178.04
 30
0.0
 11
2302.659999999999
 21
3181.57
 31
0.0
  0
LINE
  5
DB8
330
19
100
AcDbEntity
  8
1
  6
Continuous
 62
     3
100
AcDbLine
 10
3982.66
 20
3178.04
 30
0.0
 11
3962.659999999999
 21
3181.57
 31
0.0
  0
LINE
  5
DB9
330
19
100
AcDbEntity
  8
1
  6
Continuous
 62
     3
100
AcDbLine
 10
3982.66
 20
3178.04
 30
0.0
 11
3962.659999999999
 21
3174.52
 31
0.0
  0
TEXT
  5
DBA
330
19
100
AcDbEntity
  8
1
 62
     3
100
AcDbText
 10
3048.659999999999
 20
3178.04
 30
0.0
 40
40.0
  1
１７００以上
 41
0.7
100
AcDbText
  0
TEXT
  5
DBB
330
19
100
AcDbEntity
  8
1
 62
     3
100
AcDbText
 10
3061.659999999999
 20
3125.719999999999
 30
0.0
 40
40.0
  1
通路幅
100
AcDbText
  0
LINE
  5
DBC
330
19
100
AcDbEntity
  8
1
  6
Continuous
 62
     1
100
AcDbLine
 10
720.1649999999999
 20
1268.9
 30
0.0
 11
720.1649999999999
 21
1292.769999999999
 31
0.0
  0
LINE
  5
DBD
330
19
100
AcDbEntity
  8
1
  6
Continuous
 62
     3
100
AcDbLine
 10
343.3949999999999
 20
1772.319999999999
 30
0.0
 11
264.278
 21
1772.319999999999
 31
0.0
  0
LINE
  5
DBE
330
19
100
AcDbEntity
  8
1
  6
Continuous
 62
     3
100
AcDbLine
 10
264.278
 20
652.321
 30
0.0
 11
382.665
 21
652.321
 31
0.0
  0
LINE
  5
DBF
330
19
100
AcDbEntity
  8
1
  6
Continuous
 62
     3
100
AcDbLine
 10
284.278
 20
652.321
 30
0.0
 11
284.278
 21
1772.319999999999
 31
0.0
  0
LINE
  5
DC0
330
19
100
AcDbEntity
  8
1
  6
Continuous
 62
     3
100
AcDbLine
 10
284.278
 20
652.321
 30
0.0
 11
287.8049999999999
 21
672.321
 31
0.0
  0
LINE
  5
DC1
330
19
100
AcDbEntity
  8
1
  6
Continuous
 62
     3
100
AcDbLine
 10
284.278
 20
652.321
 30
0.0
 11
280.752
 21
672.321
 31
0.0
  0
LINE
  5
DC2
330
19
100
AcDbEntity
  8
1
  6
Continuous
 62
     3
100
AcDbLine
 10
284.278
 20
1772.319999999999
 30
0.0
 11
280.752
 21
1752.32
 31
0.0
  0
LINE
  5
DC3
330
19
100
AcDbEntity
  8
1
  6
Continuous
 62
     3
100
AcDbLine
 10
284.278
 20
1772.319999999999
 30
0.0
 11
287.8049999999999
 21
1752.32
 31
0.0
  0
TEXT
  5
DC4
330
19
100
AcDbEntity
  8
1
 62
     3
100
AcDbText
 10
284.278
 20
1156.32
 30
0.0
 40
40.0
  1
１１２０
 50
90.0
 41
0.7
100
AcDbText
  0
LINE
  5
DC5
330
19
100
AcDbEntity
  8
1
  6
Continuous
 62
     3
100
AcDbLine
 10
337.2049999999999
 20
2048.32
 30
0.0
 11
264.278
 21
2048.32
 31
0.0
  0
LINE
  5
DC6
330
19
100
AcDbEntity
  8
1
  6
Continuous
 62
     3
100
AcDbLine
 10
264.278
 20
1772.319999999999
 30
0.0
 11
343.3949999999999
 21
1772.319999999999
 31
0.0
  0
LINE
  5
DC7
330
19
100
AcDbEntity
  8
1
  6
Continuous
 62
     3
100
AcDbLine
 10
284.278
 20
1772.319999999999
 30
0.0
 11
284.278
 21
2048.32
 31
0.0
  0
LINE
  5
DC8
330
19
100
AcDbEntity
  8
1
  6
Continuous
 62
     3
100
AcDbLine
 10
284.278
 20
1772.319999999999
 30
0.0
 11
287.8049999999999
 21
1792.32
 31
0.0
  0
LINE
  5
DC9
330
19
100
AcDbEntity
  8
1
  6
Continuous
 62
     3
100
AcDbLine
 10
284.278
 20
1772.319999999999
 30
0.0
 11
280.752
 21
1792.32
 31
0.0
  0
LINE
  5
DCA
330
19
100
AcDbEntity
  8
1
  6
Continuous
 62
     3
100
AcDbLine
 10
284.278
 20
2048.32
 30
0.0
 11
280.752
 21
2028.32
 31
0.0
  0
LINE
  5
DCB
330
19
100
AcDbEntity
  8
1
  6
Continuous
 62
     3
100
AcDbLine
 10
284.278
 20
2048.32
 30
0.0
 11
287.8049999999999
 21
2028.32
 31
0.0
  0
TEXT
  5
DCC
330
19
100
AcDbEntity
  8
1
 62
     3
100
AcDbText
 10
284.278
 20
1828.124686680254
 30
0.0
 40
40.0
  1
２７９．５
 50
90.0
 41
0.7
100
AcDbText
  0
LINE
  5
DCD
330
19
100
AcDbEntity
  8
1
  6
Continuous
 62
     3
100
AcDbLine
 10
682.6649999999999
 20
584.8889999999999
 30
0.0
 11
682.6649999999999
 21
461.4219999999999
 31
0.0
  0
LINE
  5
DCE
330
19
100
AcDbEntity
  8
1
  6
Continuous
 62
     3
100
AcDbLine
 10
612.6649999999999
 20
461.4219999999999
 30
0.0
 11
612.6649999999999
 21
616.901
 31
0.0
  0
LINE
  5
DCF
330
19
100
AcDbEntity
  8
1
  6
Continuous
 62
     3
100
AcDbLine
 10
612.6649999999999
 20
481.4219999999999
 30
0.0
 11
682.6649999999999
 21
481.4219999999999
 31
0.0
  0
LINE
  5
DD0
330
19
100
AcDbEntity
  8
1
  6
Continuous
 62
     3
100
AcDbLine
 10
612.6649999999999
 20
481.4219999999999
 30
0.0
 11
632.6649999999999
 21
477.8959999999999
 31
0.0
  0
LINE
  5
DD1
330
19
100
AcDbEntity
  8
1
  6
Continuous
 62
     3
100
AcDbLine
 10
612.6649999999999
 20
481.4219999999999
 30
0.0
 11
632.6649999999999
 21
484.949
 31
0.0
  0
LINE
  5
DD2
330
19
100
AcDbEntity
  8
1
  6
Continuous
 62
     3
100
AcDbLine
 10
682.6649999999999
 20
481.4219999999999
 30
0.0
 11
662.6649999999999
 21
484.949
 31
0.0
  0
LINE
  5
DD3
330
19
100
AcDbEntity
  8
1
  6
Continuous
 62
     3
100
AcDbLine
 10
682.6649999999999
 20
481.4219999999999
 30
0.0
 11
662.6649999999999
 21
477.8959999999999
 31
0.0
  0
TEXT
  5
DD4
330
19
100
AcDbEntity
  8
1
 62
     3
100
AcDbText
 10
619.6649999999999
 20
481.4219999999999
 30
0.0
 40
40.0
  1
７０
 41
0.7
100
AcDbText
  0
LINE
  5
DD5
330
19
100
AcDbEntity
  8
1
  6
Continuous
 62
     3
100
AcDbLine
 10
832.6649999999998
 20
616.901
 30
0.0
 11
832.6649999999998
 21
461.4219999999999
 31
0.0
  0
LINE
  5
DD6
330
19
100
AcDbEntity
  8
1
  6
Continuous
 62
     3
100
AcDbLine
 10
682.6649999999999
 20
461.4219999999999
 30
0.0
 11
682.6649999999999
 21
584.8889999999999
 31
0.0
  0
LINE
  5
DD7
330
19
100
AcDbEntity
  8
1
  6
Continuous
 62
     3
100
AcDbLine
 10
682.6649999999999
 20
481.4219999999999
 30
0.0
 11
832.6649999999998
 21
481.4219999999999
 31
0.0
  0
LINE
  5
DD8
330
19
100
AcDbEntity
  8
1
  6
Continuous
 62
     3
100
AcDbLine
 10
682.6649999999999
 20
481.4219999999999
 30
0.0
 11
702.665
 21
477.8959999999999
 31
0.0
  0
LINE
  5
DD9
330
19
100
AcDbEntity
  8
1
  6
Continuous
 62
     3
100
AcDbLine
 10
682.6649999999999
 20
481.4219999999999
 30
0.0
 11
702.665
 21
484.949
 31
0.0
  0
LINE
  5
DDA
330
19
100
AcDbEntity
  8
1
  6
Continuous
 62
     3
100
AcDbLine
 10
832.6649999999998
 20
481.4219999999999
 30
0.0
 11
812.6649999999999
 21
484.949
 31
0.0
  0
LINE
  5
DDB
330
19
100
AcDbEntity
  8
1
  6
Continuous
 62
     3
100
AcDbLine
 10
832.6649999999998
 20
481.4219999999999
 30
0.0
 11
812.6649999999999
 21
477.8959999999999
 31
0.0
  0
TEXT
  5
DDC
330
19
100
AcDbEntity
  8
1
 62
     3
100
AcDbText
 10
715.6649999999999
 20
481.4219999999999
 30
0.0
 40
40.0
  1
１５０
 41
0.7
100
AcDbText
  0
LINE
  5
DDD
330
19
100
AcDbEntity
  8
1
  6
Continuous
 62
     3
100
AcDbLine
 10
432.6649999999999
 20
552.321
 30
0.0
 11
432.6649999999999
 21
374.37
 31
0.0
  0
LINE
  5
DDE
330
19
100
AcDbEntity
  8
1
  6
Continuous
 62
     3
100
AcDbLine
 10
382.665
 20
374.37
 30
0.0
 11
382.665
 21
652.321
 31
0.0
  0
LINE
  5
DDF
330
19
100
AcDbEntity
  8
1
  6
Continuous
 62
     3
100
AcDbLine
 10
382.665
 20
394.37
 30
0.0
 11
432.6649999999999
 21
394.37
 31
0.0
  0
LINE
  5
DE0
330
19
100
AcDbEntity
  8
1
  6
Continuous
 62
     3
100
AcDbLine
 10
382.665
 20
394.37
 30
0.0
 11
402.665
 21
390.844
 31
0.0
  0
LINE
  5
DE1
330
19
100
AcDbEntity
  8
1
  6
Continuous
 62
     3
100
AcDbLine
 10
382.665
 20
394.37
 30
0.0
 11
402.665
 21
397.8969999999999
 31
0.0
  0
LINE
  5
DE2
330
19
100
AcDbEntity
  8
1
  6
Continuous
 62
     3
100
AcDbLine
 10
432.6649999999999
 20
394.37
 30
0.0
 11
412.665
 21
397.8969999999999
 31
0.0
  0
LINE
  5
DE3
330
19
100
AcDbEntity
  8
1
  6
Continuous
 62
     3
100
AcDbLine
 10
432.6649999999999
 20
394.37
 30
0.0
 11
412.665
 21
390.844
 31
0.0
  0
TEXT
  5
DE4
330
19
100
AcDbEntity
  8
1
 62
     3
100
AcDbText
 10
379.665
 20
394.37
 30
0.0
 40
40.0
  1
５０
 41
0.7
100
AcDbText
  0
LINE
  5
DE5
330
19
100
AcDbEntity
  8
1
  6
Continuous
 62
     3
100
AcDbLine
 10
682.6649999999999
 20
551.562
 30
0.0
 11
682.6649999999999
 21
374.37
 31
0.0
  0
LINE
  5
DE6
330
19
100
AcDbEntity
  8
1
  6
Continuous
 62
     3
100
AcDbLine
 10
432.6649999999999
 20
374.37
 30
0.0
 11
432.6649999999999
 21
552.321
 31
0.0
  0
LINE
  5
DE7
330
19
100
AcDbEntity
  8
1
  6
Continuous
 62
     3
100
AcDbLine
 10
432.6649999999999
 20
394.37
 30
0.0
 11
682.6649999999999
 21
394.37
 31
0.0
  0
LINE
  5
DE8
330
19
100
AcDbEntity
  8
1
  6
Continuous
 62
     3
100
AcDbLine
 10
432.6649999999999
 20
394.37
 30
0.0
 11
452.665
 21
390.844
 31
0.0
  0
LINE
  5
DE9
330
19
100
AcDbEntity
  8
1
  6
Continuous
 62
     3
100
AcDbLine
 10
432.6649999999999
 20
394.37
 30
0.0
 11
452.665
 21
397.8969999999999
 31
0.0
  0
LINE
  5
DEA
330
19
100
AcDbEntity
  8
1
  6
Continuous
 62
     3
100
AcDbLine
 10
682.6649999999999
 20
394.37
 30
0.0
 11
662.6649999999999
 21
397.8969999999999
 31
0.0
  0
LINE
  5
DEB
330
19
100
AcDbEntity
  8
1
  6
Continuous
 62
     3
100
AcDbLine
 10
682.6649999999999
 20
394.37
 30
0.0
 11
662.6649999999999
 21
390.844
 31
0.0
  0
TEXT
  5
DEC
330
19
100
AcDbEntity
  8
1
 62
     3
100
AcDbText
 10
515.6649999999999
 20
394.37
 30
0.0
 40
40.0
  1
２５０
 41
0.7
100
AcDbText
  0
LINE
  5
DED
330
19
100
AcDbEntity
  8
1
  6
Continuous
 62
     3
100
AcDbLine
 10
2282.659999999999
 20
552.321
 30
0.0
 11
2282.659999999999
 21
374.37
 31
0.0
  0
LINE
  5
DEE
330
19
100
AcDbEntity
  8
1
  6
Continuous
 62
     3
100
AcDbLine
 10
682.6649999999999
 20
374.37
 30
0.0
 11
682.6649999999999
 21
551.562
 31
0.0
  0
LINE
  5
DEF
330
19
100
AcDbEntity
  8
1
  6
Continuous
 62
     3
100
AcDbLine
 10
682.6649999999999
 20
394.37
 30
0.0
 11
2282.659999999999
 21
394.37
 31
0.0
  0
LINE
  5
DF0
330
19
100
AcDbEntity
  8
1
  6
Continuous
 62
     3
100
AcDbLine
 10
682.6649999999999
 20
394.37
 30
0.0
 11
702.665
 21
390.844
 31
0.0
  0
LINE
  5
DF1
330
19
100
AcDbEntity
  8
1
  6
Continuous
 62
     3
100
AcDbLine
 10
682.6649999999999
 20
394.37
 30
0.0
 11
702.665
 21
397.8969999999999
 31
0.0
  0
LINE
  5
DF2
330
19
100
AcDbEntity
  8
1
  6
Continuous
 62
     3
100
AcDbLine
 10
2282.659999999999
 20
394.37
 30
0.0
 11
2262.659999999999
 21
397.8969999999999
 31
0.0
  0
LINE
  5
DF3
330
19
100
AcDbEntity
  8
1
  6
Continuous
 62
     3
100
AcDbLine
 10
2282.659999999999
 20
394.37
 30
0.0
 11
2262.659999999999
 21
390.844
 31
0.0
  0
TEXT
  5
DF4
330
19
100
AcDbEntity
  8
1
 62
     3
100
AcDbText
 10
1426.66
 20
394.37
 30
0.0
 40
40.0
  1
１６００
 41
0.7
100
AcDbText
  0
LINE
  5
DF5
330
19
100
AcDbEntity
  8
1
  6
DASHDOT
 62
     3
100
AcDbLine
 10
432.6649999999999
 20
2097.92
 30
0.0
 11
432.6649999999999
 21
1772.319999999999
 31
0.0
  0
LINE
  5
DF6
330
19
100
AcDbEntity
  8
1
  6
DIVIDE
 62
     3
100
AcDbLine
 10
2282.659999999999
 20
652.321
 30
0.0
 11
2282.659999999999
 21
3052.32
 31
0.0
  0
TEXT
  5
DF7
330
19
100
AcDbEntity
  8
1
 62
     3
100
AcDbText
 10
1049.15
 20
574.6469999999999
 30
0.0
 40
40.0
  1
コンクリ－ト基礎
100
AcDbText
  0
LWPOLYLINE
  5
DF8
330
19
100
AcDbEntity
  8
1
  6
HIDDEN
 62
     1
100
AcDbPolyline
 90
        4
 70
     0
 43
0.0
 10
432.6649999999999
 20
652.321
 10
432.6649999999999
 20
552.321
 10
2282.659999999999
 20
552.321
 10
2282.659999999999
 20
652.321
  0
TEXT
  5
DFE
330
19
100
AcDbEntity
  8
1
 62
     3
100
AcDbText
 10
991.797
 20
480.583
 30
0.0
 40
40.0
  1
３－アンカ－ボルト（Ｍ１０×６０Ｌ）
100
AcDbText
  0
LWPOLYLINE
  5
DFF
330
19
100
AcDbEntity
  8
1
  6
Continuous
 62
     3
100
AcDbPolyline
 90
        3
 70
     0
 43
0.0
 10
832.6649999999998
 20
652.321
 10
992.34
 20
472.554
 10
1705.849999999999
 20
472.554
  0
LINE
  5
E04
330
19
100
AcDbEntity
  8
1
  6
Continuous
 62
     3
100
AcDbLine
 10
832.6649999999998
 20
652.321
 30
0.0
 11
843.3099999999999
 21
635.0259999999999
 31
0.0
  0
LINE
  5
E05
330
19
100
AcDbEntity
  8
1
  6
Continuous
 62
     3
100
AcDbLine
 10
832.6649999999998
 20
652.321
 30
0.0
 11
848.5830000000001
 21
639.71
 31
0.0
  0
LWPOLYLINE
  5
E06
330
19
100
AcDbEntity
  8
1
  6
HIDDEN
 62
     1
100
AcDbPolyline
 90
        4
 70
     0
 43
0.0
 10
4625.539999999999
 20
652.321
 10
4625.539999999999
 20
552.321
 10
5075.54
 20
552.321
 10
5075.54
 20
652.321
  0
LINE
  5
E0C
330
19
100
AcDbEntity
  8
1
  6
Continuous
 62
     3
100
AcDbLine
 10
4900.54
 20
638.178
 30
0.0
 11
4900.54
 21
565.008
 31
0.0
  0
LINE
  5
E0D
330
19
100
AcDbEntity
  8
1
  6
Continuous
 62
     3
100
AcDbLine
 10
4800.54
 20
565.008
 30
0.0
 11
4800.54
 21
638.178
 31
0.0
  0
LINE
  5
E0E
330
19
100
AcDbEntity
  8
1
  6
Continuous
 62
     3
100
AcDbLine
 10
4800.54
 20
585.008
 30
0.0
 11
4900.54
 21
585.008
 31
0.0
  0
LINE
  5
E0F
330
19
100
AcDbEntity
  8
1
  6
Continuous
 62
     3
100
AcDbLine
 10
4800.54
 20
585.008
 30
0.0
 11
4820.54
 21
581.481
 31
0.0
  0
LINE
  5
E10
330
19
100
AcDbEntity
  8
1
  6
Continuous
 62
     3
100
AcDbLine
 10
4800.54
 20
585.008
 30
0.0
 11
4820.54
 21
588.5349999999999
 31
0.0
  0
LINE
  5
E11
330
19
100
AcDbEntity
  8
1
  6
Continuous
 62
     3
100
AcDbLine
 10
4900.54
 20
585.008
 30
0.0
 11
4880.539999999999
 21
588.5349999999999
 31
0.0
  0
LINE
  5
E12
330
19
100
AcDbEntity
  8
1
  6
Continuous
 62
     3
100
AcDbLine
 10
4900.54
 20
585.008
 30
0.0
 11
4880.539999999999
 21
581.481
 31
0.0
  0
TEXT
  5
E13
330
19
100
AcDbEntity
  8
1
 62
     3
100
AcDbText
 10
4808.54
 20
585.008
 30
0.0
 40
40.0
  1
１００
 41
0.7
100
AcDbText
  0
TEXT
  5
E14
330
19
100
AcDbEntity
  8
1
 62
     4
100
AcDbText
 10
4126.55
 20
541.004
 30
0.0
 40
60.0
  1
ＦＮＯ．４４９（改）
 41
0.6666600000000001
100
AcDbText
  0
LINE
  5
E15
330
19
100
AcDbEntity
  8
1
  6
DASHDOT
 62
     3
100
AcDbLine
 10
635.836
 20
195.171
 30
0.0
 11
589.494
 21
195.171
 31
0.0
  0
CIRCLE
  5
E16
330
19
100
AcDbEntity
  8
1
  6
Continuous
 62
     2
100
AcDbCircle
 10
612.6649999999999
 20
195.171
 30
0.0
 40
6.0
  0
LINE
  5
E17
330
19
100
AcDbEntity
  8
1
  6
DASHDOT
 62
     3
100
AcDbLine
 10
635.836
 20
95.17180000000001
 30
0.0
 11
589.494
 21
95.17180000000001
 31
0.0
  0
CIRCLE
  5
E18
330
19
100
AcDbEntity
  8
1
  6
Continuous
 62
     2
100
AcDbCircle
 10
612.6649999999999
 20
95.17180000000001
 30
0.0
 40
6.0
  0
LINE
  5
E19
330
19
100
AcDbEntity
  8
1
  6
DASHDOT
 62
     3
100
AcDbLine
 10
612.6649999999999
 20
222.3149999999999
 30
0.0
 11
612.6649999999999
 21
66.6242
 31
0.0
  0
CIRCLE
  5
E1A
330
19
100
AcDbEntity
  8
1
  6
Continuous
 62
     2
100
AcDbCircle
 10
832.6649999999998
 20
145.171
 30
0.0
 40
6.0
  0
LINE
  5
E1B
330
19
100
AcDbEntity
  8
1
  6
DASHDOT
 62
     3
100
AcDbLine
 10
832.6649999999998
 20
172.3149999999999
 30
0.0
 11
832.6649999999998
 21
115.9679999999999
 31
0.0
  0
LINE
  5
E1C
330
19
100
AcDbEntity
  8
1
  6
DASHDOT
 62
     3
100
AcDbLine
 10
904.9699999999999
 20
145.171
 30
0.0
 11
556.7140000000001
 21
145.171
 31
0.0
  0
LINE
  5
E1D
330
19
100
AcDbEntity
  8
1
  6
DASHDOT
 62
     3
100
AcDbLine
 10
682.6649999999999
 20
230.823
 30
0.0
 11
682.6649999999999
 21
56.415
 31
0.0
  0
LINE
  5
E1E
330
19
100
AcDbEntity
  8
1
  6
Continuous
 62
     3
100
AcDbLine
 10
589.494
 20
195.171
 30
0.0
 11
522.2509999999999
 21
195.171
 31
0.0
  0
LINE
  5
E1F
330
19
100
AcDbEntity
  8
1
  6
Continuous
 62
     3
100
AcDbLine
 10
522.2509999999999
 20
95.17180000000001
 30
0.0
 11
589.494
 21
95.17180000000001
 31
0.0
  0
LINE
  5
E20
330
19
100
AcDbEntity
  8
1
  6
Continuous
 62
     3
100
AcDbLine
 10
542.2509999999999
 20
95.17180000000001
 30
0.0
 11
542.2509999999999
 21
195.171
 31
0.0
  0
LINE
  5
E21
330
19
100
AcDbEntity
  8
1
  6
Continuous
 62
     3
100
AcDbLine
 10
542.2509999999999
 20
95.17180000000001
 30
0.0
 11
545.778
 21
115.171
 31
0.0
  0
LINE
  5
E22
330
19
100
AcDbEntity
  8
1
  6
Continuous
 62
     3
100
AcDbLine
 10
542.2509999999999
 20
95.17180000000001
 30
0.0
 11
538.725
 21
115.171
 31
0.0
  0
LINE
  5
E23
330
19
100
AcDbEntity
  8
1
  6
Continuous
 62
     3
100
AcDbLine
 10
542.2509999999999
 20
195.171
 30
0.0
 11
538.725
 21
175.1709999999999
 31
0.0
  0
LINE
  5
E24
330
19
100
AcDbEntity
  8
1
  6
Continuous
 62
     3
100
AcDbLine
 10
542.2509999999999
 20
195.171
 30
0.0
 11
545.778
 21
175.1709999999999
 31
0.0
  0
TEXT
  5
E25
330
19
100
AcDbEntity
  8
1
 62
     3
100
AcDbText
 10
542.2509999999999
 20
103.171
 30
0.0
 40
40.0
  1
１００
 50
90.0
 41
0.7
100
AcDbText
  0
LINE
  5
E26
330
19
100
AcDbEntity
  8
1
  6
Continuous
 62
     3
100
AcDbLine
 10
682.6649999999999
 20
230.823
 30
0.0
 11
682.6649999999999
 21
256.778
 31
0.0
  0
LINE
  5
E27
330
19
100
AcDbEntity
  8
1
  6
Continuous
 62
     3
100
AcDbLine
 10
612.6649999999999
 20
256.778
 30
0.0
 11
612.6649999999999
 21
222.3149999999999
 31
0.0
  0
LINE
  5
E28
330
19
100
AcDbEntity
  8
1
  6
Continuous
 62
     3
100
AcDbLine
 10
612.6649999999999
 20
236.7779999999999
 30
0.0
 11
682.6649999999999
 21
236.7779999999999
 31
0.0
  0
LINE
  5
E29
330
19
100
AcDbEntity
  8
1
  6
Continuous
 62
     3
100
AcDbLine
 10
612.6649999999999
 20
236.7779999999999
 30
0.0
 11
632.6649999999999
 21
233.2509999999999
 31
0.0
  0
LINE
  5
E2A
330
19
100
AcDbEntity
  8
1
  6
Continuous
 62
     3
100
AcDbLine
 10
612.6649999999999
 20
236.7779999999999
 30
0.0
 11
632.6649999999999
 21
240.304
 31
0.0
  0
LINE
  5
E2B
330
19
100
AcDbEntity
  8
1
  6
Continuous
 62
     3
100
AcDbLine
 10
682.6649999999999
 20
236.7779999999999
 30
0.0
 11
662.6649999999999
 21
240.304
 31
0.0
  0
LINE
  5
E2C
330
19
100
AcDbEntity
  8
1
  6
Continuous
 62
     3
100
AcDbLine
 10
682.6649999999999
 20
236.7779999999999
 30
0.0
 11
662.6649999999999
 21
233.2509999999999
 31
0.0
  0
TEXT
  5
E2D
330
19
100
AcDbEntity
  8
1
 62
     3
100
AcDbText
 10
619.6649999999999
 20
236.7779999999999
 30
0.0
 40
40.0
  1
７０
 41
0.7
100
AcDbText
  0
LINE
  5
E2E
330
19
100
AcDbEntity
  8
1
  6
Continuous
 62
     3
100
AcDbLine
 10
832.6649999999998
 20
172.3149999999999
 30
0.0
 11
832.6649999999998
 21
256.778
 31
0.0
  0
LINE
  5
E2F
330
19
100
AcDbEntity
  8
1
  6
Continuous
 62
     3
100
AcDbLine
 10
682.6649999999999
 20
256.778
 30
0.0
 11
682.6649999999999
 21
230.823
 31
0.0
  0
LINE
  5
E30
330
19
100
AcDbEntity
  8
1
  6
Continuous
 62
     3
100
AcDbLine
 10
682.6649999999999
 20
236.7779999999999
 30
0.0
 11
832.6649999999998
 21
236.7779999999999
 31
0.0
  0
LINE
  5
E31
330
19
100
AcDbEntity
  8
1
  6
Continuous
 62
     3
100
AcDbLine
 10
682.6649999999999
 20
236.7779999999999
 30
0.0
 11
702.665
 21
233.2509999999999
 31
0.0
  0
LINE
  5
E32
330
19
100
AcDbEntity
  8
1
  6
Continuous
 62
     3
100
AcDbLine
 10
682.6649999999999
 20
236.7779999999999
 30
0.0
 11
702.665
 21
240.304
 31
0.0
  0
LINE
  5
E33
330
19
100
AcDbEntity
  8
1
  6
Continuous
 62
     3
100
AcDbLine
 10
832.6649999999998
 20
236.7779999999999
 30
0.0
 11
812.6649999999999
 21
240.304
 31
0.0
  0
LINE
  5
E34
330
19
100
AcDbEntity
  8
1
  6
Continuous
 62
     3
100
AcDbLine
 10
832.6649999999998
 20
236.7779999999999
 30
0.0
 11
812.6649999999999
 21
233.2509999999999
 31
0.0
  0
TEXT
  5
E35
330
19
100
AcDbEntity
  8
1
 62
     3
100
AcDbText
 10
715.6649999999999
 20
236.7779999999999
 30
0.0
 40
40.0
  1
１５０
 41
0.7
100
AcDbText
  0
LINE
  5
E36
330
19
100
AcDbEntity
  8
1
  6
Continuous
 62
     3
100
AcDbLine
 10
832.6649999999998
 20
115.9679999999999
 30
0.0
 11
832.6649999999998
 21
6.638049999999999
 31
0.0
  0
LINE
  5
E37
330
19
100
AcDbEntity
  8
1
  6
Continuous
 62
     3
100
AcDbLine
 10
612.6649999999999
 20
6.638049999999999
 30
0.0
 11
612.6649999999999
 21
66.6242
 31
0.0
  0
LINE
  5
E38
330
19
100
AcDbEntity
  8
1
  6
Continuous
 62
     3
100
AcDbLine
 10
612.6649999999999
 20
26.638
 30
0.0
 11
832.6649999999998
 21
26.638
 31
0.0
  0
LINE
  5
E39
330
19
100
AcDbEntity
  8
1
  6
Continuous
 62
     3
100
AcDbLine
 10
612.6649999999999
 20
26.638
 30
0.0
 11
632.6649999999999
 21
23.1115
 31
0.0
  0
LINE
  5
E3A
330
19
100
AcDbEntity
  8
1
  6
Continuous
 62
     3
100
AcDbLine
 10
612.6649999999999
 20
26.638
 30
0.0
 11
632.6649999999999
 21
30.1645
 31
0.0
  0
LINE
  5
E3B
330
19
100
AcDbEntity
  8
1
  6
Continuous
 62
     3
100
AcDbLine
 10
832.6649999999998
 20
26.638
 30
0.0
 11
812.6649999999999
 21
30.1645
 31
0.0
  0
LINE
  5
E3C
330
19
100
AcDbEntity
  8
1
  6
Continuous
 62
     3
100
AcDbLine
 10
832.6649999999998
 20
26.638
 30
0.0
 11
812.6649999999999
 21
23.1115
 31
0.0
  0
TEXT
  5
E3D
330
19
100
AcDbEntity
  8
1
 62
     3
100
AcDbText
 10
680.6649999999999
 20
26.638
 30
0.0
 40
40.0
  1
２２０
 41
0.7
100
AcDbText
  0
LWPOLYLINE
  5
E3E
330
19
100
AcDbEntity
  8
1
  6
Continuous
 62
     2
100
AcDbPolyline
 90
        5
 70
     0
 43
0.0
 10
847.6649999999999
 20
207.6709999999999
 10
597.6649999999999
 20
207.6709999999999
 10
597.6649999999999
 20
82.67180000000001
 10
847.6649999999999
 20
82.67180000000001
 10
847.6649999999999
 20
207.6709999999999
  0
LINE
  5
E45
330
19
100
AcDbEntity
  8
1
  6
Continuous
 62
     1
100
AcDbLine
 10
4813.04
 20
1272.86
 30
0.0
 11
4813.04
 21
1323.0
 31
0.0
  0
LINE
  5
E46
330
19
100
AcDbEntity
  8
1
  6
Continuous
 62
     1
100
AcDbLine
 10
4813.04
 20
1333.0
 30
0.0
 11
4813.04
 21
1442.7
 31
0.0
  0
TEXT
  5
E47
330
19
100
AcDbEntity
  8
1
 62
     3
100
AcDbText
 10
1693.27
 20
3257.0
 30
0.0
 40
40.0
  1
天井
100
AcDbText
  0
TEXT
  5
E48
330
19
100
AcDbEntity
  8
1
 62
     3
100
AcDbText
 10
4036.93
 20
2320.46
 30
0.0
 40
40.0
  1
境界面（壁等）
 50
90.0
100
AcDbText
  0
LINE
  5
E49
330
19
100
AcDbEntity
  8
1
  6
Continuous
 62
     3
100
AcDbLine
 10
3982.66
 20
3052.32
 30
0.0
 11
4191.5
 21
3052.32
 31
0.0
  0
LINE
  5
E4A
330
19
100
AcDbEntity
  8
1
  6
Continuous
 62
     3
100
AcDbLine
 10
4191.5
 20
652.321
 30
0.0
 11
3982.66
 21
652.321
 31
0.0
  0
LINE
  5
E4B
330
19
100
AcDbEntity
  8
1
  6
Continuous
 62
     3
100
AcDbLine
 10
4171.5
 20
652.321
 30
0.0
 11
4171.5
 21
3052.32
 31
0.0
  0
LINE
  5
E4C
330
19
100
AcDbEntity
  8
1
  6
Continuous
 62
     3
100
AcDbLine
 10
4171.5
 20
652.321
 30
0.0
 11
4175.02
 21
672.321
 31
0.0
  0
LINE
  5
E4D
330
19
100
AcDbEntity
  8
1
  6
Continuous
 62
     3
100
AcDbLine
 10
4171.5
 20
652.321
 30
0.0
 11
4167.97
 21
672.321
 31
0.0
  0
LINE
  5
E4E
330
19
100
AcDbEntity
  8
1
  6
Continuous
 62
     3
100
AcDbLine
 10
4171.5
 20
3052.32
 30
0.0
 11
4167.97
 21
3032.32
 31
0.0
  0
LINE
  5
E4F
330
19
100
AcDbEntity
  8
1
  6
Continuous
 62
     3
100
AcDbLine
 10
4171.5
 20
3052.32
 30
0.0
 11
4175.02
 21
3032.32
 31
0.0
  0
TEXT
  5
E50
330
19
100
AcDbEntity
  8
1
 62
     3
100
AcDbText
 10
4171.5
 20
1768.32
 30
0.0
 40
40.0
  1
２４００以上
 50
90.0
 41
0.7
100
AcDbText
  0
LINE
  5
E51
330
19
100
AcDbEntity
  8
1
  6
Continuous
 62
     3
100
AcDbLine
 10
382.665
 20
3252.32
 30
0.0
 11
163.418
 21
3252.32
 31
0.0
  0
LINE
  5
E52
330
19
100
AcDbEntity
  8
1
  6
Continuous
 62
     3
100
AcDbLine
 10
163.418
 20
652.321
 30
0.0
 11
382.665
 21
652.321
 31
0.0
  0
LINE
  5
E53
330
19
100
AcDbEntity
  8
1
  6
Continuous
 62
     3
100
AcDbLine
 10
183.418
 20
652.321
 30
0.0
 11
183.418
 21
3252.32
 31
0.0
  0
LINE
  5
E54
330
19
100
AcDbEntity
  8
1
  6
Continuous
 62
     3
100
AcDbLine
 10
183.418
 20
652.321
 30
0.0
 11
186.944
 21
672.321
 31
0.0
  0
LINE
  5
E55
330
19
100
AcDbEntity
  8
1
  6
Continuous
 62
     3
100
AcDbLine
 10
183.418
 20
652.321
 30
0.0
 11
179.891
 21
672.321
 31
0.0
  0
LINE
  5
E56
330
19
100
AcDbEntity
  8
1
  6
Continuous
 62
     3
100
AcDbLine
 10
183.418
 20
3252.32
 30
0.0
 11
179.891
 21
3232.32
 31
0.0
  0
LINE
  5
E57
330
19
100
AcDbEntity
  8
1
  6
Continuous
 62
     3
100
AcDbLine
 10
183.418
 20
3252.32
 30
0.0
 11
186.944
 21
3232.32
 31
0.0
  0
TEXT
  5
E58
330
19
100
AcDbEntity
  8
1
 62
     3
100
AcDbText
 10
183.418
 20
1868.319999999999
 30
0.0
 40
40.0
  1
２６００以上
 50
90.0
 41
0.7
100
AcDbText
  0
LINE
  5
E59
330
19
100
AcDbEntity
  8
1
  6
DASHDOT
 62
     3
100
AcDbLine
 10
682.6649999999999
 20
2405.429999999999
 30
0.0
 11
682.6649999999999
 21
584.8889999999999
 31
0.0
  0
LINE
  5
E5A
330
19
100
AcDbEntity
  8
1
  6
Continuous
 62
     3
100
AcDbLine
 10
3026.87
 20
928.659
 30
0.0
 11
4103.75
 21
928.659
 31
0.0
  0
LINE
  5
E5B
330
19
100
AcDbEntity
  8
1
  6
Continuous
 62
     3
100
AcDbLine
 10
4103.75
 20
652.321
 30
0.0
 11
3982.66
 21
652.321
 31
0.0
  0
LINE
  5
E5C
330
19
100
AcDbEntity
  8
1
  6
Continuous
 62
     3
100
AcDbLine
 10
4083.75
 20
652.321
 30
0.0
 11
4083.75
 21
928.659
 31
0.0
  0
LINE
  5
E5D
330
19
100
AcDbEntity
  8
1
  6
Continuous
 62
     3
100
AcDbLine
 10
4083.75
 20
652.321
 30
0.0
 11
4087.27
 21
672.321
 31
0.0
  0
LINE
  5
E5E
330
19
100
AcDbEntity
  8
1
  6
Continuous
 62
     3
100
AcDbLine
 10
4083.75
 20
652.321
 30
0.0
 11
4080.219999999999
 21
672.321
 31
0.0
  0
LINE
  5
E5F
330
19
100
AcDbEntity
  8
1
  6
Continuous
 62
     3
100
AcDbLine
 10
4083.75
 20
928.659
 30
0.0
 11
4080.219999999999
 21
908.6589999999999
 31
0.0
  0
LINE
  5
E60
330
19
100
AcDbEntity
  8
1
  6
Continuous
 62
     3
100
AcDbLine
 10
4083.75
 20
928.659
 30
0.0
 11
4087.27
 21
908.6589999999999
 31
0.0
  0
TEXT
  5
E61
330
19
100
AcDbEntity
  8
1
 62
     3
100
AcDbText
 10
4083.75
 20
743.131
 30
0.0
 40
40.0
  1
２７６
 50
90.0
 41
0.7
 51
15.0
100
AcDbText
  0
LINE
  5
E62
330
19
100
AcDbEntity
  8
1
  6
Continuous
 62
     3
100
AcDbLine
 10
2384.46
 20
1830.32
 30
0.0
 11
4103.75
 21
1830.32
 31
0.0
  0
LINE
  5
E63
330
19
100
AcDbEntity
  8
1
  6
Continuous
 62
     3
100
AcDbLine
 10
4103.75
 20
928.659
 30
0.0
 11
3026.87
 21
928.659
 31
0.0
  0
LINE
  5
E64
330
19
100
AcDbEntity
  8
1
  6
Continuous
 62
     3
100
AcDbLine
 10
4083.75
 20
928.659
 30
0.0
 11
4083.75
 21
1830.32
 31
0.0
  0
LINE
  5
E65
330
19
100
AcDbEntity
  8
1
  6
Continuous
 62
     3
100
AcDbLine
 10
4083.75
 20
928.659
 30
0.0
 11
4087.27
 21
948.6589999999999
 31
0.0
  0
LINE
  5
E66
330
19
100
AcDbEntity
  8
1
  6
Continuous
 62
     3
100
AcDbLine
 10
4083.75
 20
928.659
 30
0.0
 11
4080.219999999999
 21
948.6589999999999
 31
0.0
  0
LINE
  5
E67
330
19
100
AcDbEntity
  8
1
  6
Continuous
 62
     3
100
AcDbLine
 10
4083.75
 20
1830.32
 30
0.0
 11
4080.219999999999
 21
1810.32
 31
0.0
  0
LINE
  5
E68
330
19
100
AcDbEntity
  8
1
  6
Continuous
 62
     3
100
AcDbLine
 10
4083.75
 20
1830.32
 30
0.0
 11
4087.27
 21
1810.32
 31
0.0
  0
TEXT
  5
E69
330
19
100
AcDbEntity
  8
1
 62
     3
100
AcDbText
 10
4083.75
 20
1332.13
 30
0.0
 40
40.0
  1
９０２
 50
90.0
 41
0.7
 51
15.0
100
AcDbText
  0
LINE
  5
E6A
330
19
100
AcDbEntity
  8
1
  6
Continuous
 62
     3
100
AcDbLine
 10
2934.44
 20
1126.82
 30
0.0
 11
2993.97
 21
1126.82
 31
0.0
  0
LINE
  5
E6B
330
19
100
AcDbEntity
  8
1
  6
Continuous
 62
     3
100
AcDbLine
 10
2993.97
 20
652.321
 30
0.0
 11
2901.07
 21
652.321
 31
0.0
  0
LINE
  5
E6C
330
19
100
AcDbEntity
  8
1
  6
Continuous
 62
     3
100
AcDbLine
 10
2973.969999999999
 20
652.321
 30
0.0
 11
2973.969999999999
 21
1126.82
 31
0.0
  0
LINE
  5
E6D
330
19
100
AcDbEntity
  8
1
  6
Continuous
 62
     3
100
AcDbLine
 10
2973.969999999999
 20
652.321
 30
0.0
 11
2977.489999999999
 21
672.321
 31
0.0
  0
LINE
  5
E6E
330
19
100
AcDbEntity
  8
1
  6
Continuous
 62
     3
100
AcDbLine
 10
2973.969999999999
 20
652.321
 30
0.0
 11
2970.439999999999
 21
672.321
 31
0.0
  0
LINE
  5
E6F
330
19
100
AcDbEntity
  8
1
  6
Continuous
 62
     3
100
AcDbLine
 10
2973.969999999999
 20
1126.82
 30
0.0
 11
2970.439999999999
 21
1106.819999999999
 31
0.0
  0
LINE
  5
E70
330
19
100
AcDbEntity
  8
1
  6
Continuous
 62
     3
100
AcDbLine
 10
2973.969999999999
 20
1126.82
 30
0.0
 11
2977.489999999999
 21
1106.819999999999
 31
0.0
  0
TEXT
  5
E71
330
19
100
AcDbEntity
  8
1
 62
     3
100
AcDbText
 10
2975.59
 20
813.7689999999999
 30
0.0
 40
40.0
  1
４６５
 50
90.0
 41
0.7
 51
15.0
100
AcDbText
  0
LINE
  5
E72
330
19
100
AcDbEntity
  8
1
  6
Continuous
 62
     3
100
AcDbLine
 10
2891.08
 20
910.659
 30
0.0
 11
2930.48
 21
910.659
 31
0.0
  0
LINE
  5
E73
330
19
100
AcDbEntity
  8
1
  6
Continuous
 62
     3
100
AcDbLine
 10
2930.48
 20
652.321
 30
0.0
 11
2840.13
 21
652.321
 31
0.0
  0
LINE
  5
E74
330
19
100
AcDbEntity
  8
1
  6
Continuous
 62
     3
100
AcDbLine
 10
2910.48
 20
652.321
 30
0.0
 11
2910.48
 21
910.659
 31
0.0
  0
LINE
  5
E75
330
19
100
AcDbEntity
  8
1
  6
Continuous
 62
     3
100
AcDbLine
 10
2910.48
 20
652.321
 30
0.0
 11
2914.01
 21
672.321
 31
0.0
  0
LINE
  5
E76
330
19
100
AcDbEntity
  8
1
  6
Continuous
 62
     3
100
AcDbLine
 10
2910.48
 20
652.321
 30
0.0
 11
2906.95
 21
672.321
 31
0.0
  0
LINE
  5
E77
330
19
100
AcDbEntity
  8
1
  6
Continuous
 62
     3
100
AcDbLine
 10
2910.48
 20
910.659
 30
0.0
 11
2906.95
 21
890.6589999999999
 31
0.0
  0
LINE
  5
E78
330
19
100
AcDbEntity
  8
1
  6
Continuous
 62
     3
100
AcDbLine
 10
2910.48
 20
910.659
 30
0.0
 11
2914.01
 21
890.6589999999999
 31
0.0
  0
TEXT
  5
E79
330
19
100
AcDbEntity
  8
1
 62
     3
100
AcDbText
 10
2910.48
 20
734.131
 30
0.0
 40
40.0
  1
２５８
 50
90.0
 41
0.7
 51
15.0
100
AcDbText
  0
LINE
  5
E7A
330
19
100
AcDbEntity
  8
1
  6
Continuous
 62
     3
100
AcDbLine
 10
2636.59
 20
1058.31
 30
0.0
 11
2479.25
 21
1058.31
 31
0.0
  0
LINE
  5
E7B
330
19
100
AcDbEntity
  8
1
  6
Continuous
 62
     3
100
AcDbLine
 10
2479.25
 20
652.321
 30
0.0
 11
2636.59
 21
652.321
 31
0.0
  0
LINE
  5
E7C
330
19
100
AcDbEntity
  8
1
  6
Continuous
 62
     3
100
AcDbLine
 10
2499.249999999999
 20
652.321
 30
0.0
 11
2499.249999999999
 21
1058.31
 31
0.0
  0
LINE
  5
E7D
330
19
100
AcDbEntity
  8
1
  6
Continuous
 62
     3
100
AcDbLine
 10
2499.249999999999
 20
652.321
 30
0.0
 11
2502.769999999999
 21
672.321
 31
0.0
  0
LINE
  5
E7E
330
19
100
AcDbEntity
  8
1
  6
Continuous
 62
     3
100
AcDbLine
 10
2499.249999999999
 20
652.321
 30
0.0
 11
2495.72
 21
672.321
 31
0.0
  0
LINE
  5
E7F
330
19
100
AcDbEntity
  8
1
  6
Continuous
 62
     3
100
AcDbLine
 10
2499.249999999999
 20
1058.31
 30
0.0
 11
2495.72
 21
1038.309999999999
 31
0.0
  0
LINE
  5
E80
330
19
100
AcDbEntity
  8
1
  6
Continuous
 62
     3
100
AcDbLine
 10
2499.249999999999
 20
1058.31
 30
0.0
 11
2502.769999999999
 21
1038.309999999999
 31
0.0
  0
TEXT
  5
E81
330
19
100
AcDbEntity
  8
1
 62
     3
100
AcDbText
 10
2499.249999999999
 20
807.956
 30
0.0
 40
40.0
  1
３８６
 50
90.0
 41
0.7
 51
15.0
100
AcDbText
  0
LINE
  5
E82
330
19
100
AcDbEntity
  8
1
  6
Continuous
 62
     3
100
AcDbLine
 10
2808.37
 20
772.598
 30
0.0
 11
2808.37
 21
374.37
 31
0.0
  0
LINE
  5
E83
330
19
100
AcDbEntity
  8
1
  6
Continuous
 62
     3
100
AcDbLine
 10
2282.659999999999
 20
374.37
 30
0.0
 11
2282.659999999999
 21
480.8169999999999
 31
0.0
  0
LINE
  5
E84
330
19
100
AcDbEntity
  8
1
  6
Continuous
 62
     3
100
AcDbLine
 10
2282.659999999999
 20
394.37
 30
0.0
 11
2808.37
 21
394.37
 31
0.0
  0
LINE
  5
E85
330
19
100
AcDbEntity
  8
1
  6
Continuous
 62
     3
100
AcDbLine
 10
2282.659999999999
 20
394.37
 30
0.0
 11
2302.659999999999
 21
390.844
 31
0.0
  0
LINE
  5
E86
330
19
100
AcDbEntity
  8
1
  6
Continuous
 62
     3
100
AcDbLine
 10
2282.659999999999
 20
394.37
 30
0.0
 11
2302.659999999999
 21
397.8969999999999
 31
0.0
  0
LINE
  5
E87
330
19
100
AcDbEntity
  8
1
  6
Continuous
 62
     3
100
AcDbLine
 10
2808.37
 20
394.37
 30
0.0
 11
2788.37
 21
397.8969999999999
 31
0.0
  0
LINE
  5
E88
330
19
100
AcDbEntity
  8
1
  6
Continuous
 62
     3
100
AcDbLine
 10
2808.37
 20
394.37
 30
0.0
 11
2788.37
 21
390.844
 31
0.0
  0
TEXT
  5
E89
330
19
100
AcDbEntity
  8
1
 62
     3
100
AcDbText
 10
2498.15
 20
394.37
 30
0.0
 40
40.0
  1
５２６
 41
0.7
 51
15.0
100
AcDbText
  0
TEXT
  5
E8A
330
19
100
AcDbEntity
  8
1
 62
     3
100
AcDbText
 10
1409.88
 20
84.7433
 30
0.0
 40
40.0
  1
自転車は、２４インチ一般軽快車の場合
100
AcDbText
  0
TEXT
  5
E8B
330
19
100
AcDbEntity
  8
1
 62
     3
100
AcDbText
 10
1409.88
 20
32.55349999999999
 30
0.0
 40
40.0
  1
傾斜寸法値は、参考数値です。
100
AcDbText
  0
TEXT
  5
E8C
330
19
100
AcDbEntity
  8
1
 62
     3
100
AcDbText
 10
1409.88
 20
137.761
 30
0.0
 40
40.0
  1
本機は、水平なコンクリ－ト基礎上に設置する事
100
AcDbText
  0
TEXT
  5
E8D
330
19
100
AcDbEntity
  8
1
 62
     3
100
AcDbText
 10
4460.68
 20
657.478
 30
0.0
 40
40.0
  1
ＦＬ±０
100
AcDbText
  0
LINE
  5
E8E
330
19
100
AcDbEntity
  8
1
  6
Continuous
 62
     3
100
AcDbLine
 10
2840.13
 20
688.536
 30
0.0
 11
2840.13
 21
294.4399999999999
 31
0.0
  0
LINE
  5
E8F
330
19
100
AcDbEntity
  8
1
  6
Continuous
 62
     3
100
AcDbLine
 10
682.6649999999999
 20
334.44
 30
0.0
 11
682.6649999999999
 21
304.4999999999999
 31
0.0
  0
LINE
  5
E90
330
19
100
AcDbEntity
  8
1
  6
Continuous
 62
     3
100
AcDbLine
 10
682.6649999999999
 20
314.44
 30
0.0
 11
2840.13
 21
314.44
 31
0.0
  0
LINE
  5
E91
330
19
100
AcDbEntity
  8
1
  6
Continuous
 62
     3
100
AcDbLine
 10
682.6649999999999
 20
314.44
 30
0.0
 11
702.665
 21
310.914
 31
0.0
  0
LINE
  5
E92
330
19
100
AcDbEntity
  8
1
  6
Continuous
 62
     3
100
AcDbLine
 10
682.6649999999999
 20
314.44
 30
0.0
 11
702.665
 21
317.9669999999999
 31
0.0
  0
LINE
  5
E93
330
19
100
AcDbEntity
  8
1
  6
Continuous
 62
     3
100
AcDbLine
 10
2840.13
 20
314.44
 30
0.0
 11
2820.13
 21
317.9669999999999
 31
0.0
  0
LINE
  5
E94
330
19
100
AcDbEntity
  8
1
  6
Continuous
 62
     3
100
AcDbLine
 10
2840.13
 20
314.44
 30
0.0
 11
2820.13
 21
310.914
 31
0.0
  0
TEXT
  5
E95
330
19
100
AcDbEntity
  8
1
 62
     3
100
AcDbText
 10
1700.029999999999
 20
314.44
 30
0.0
 40
40.0
  1
２１５７
 41
0.7
 51
15.0
100
AcDbText
  0
LINE
  5
E96
330
19
100
AcDbEntity
  8
1
  6
Continuous
 62
     3
100
AcDbLine
 10
682.6649999999999
 20
584.8889999999999
 30
0.0
 11
682.6649999999999
 21
294.4399999999999
 31
0.0
  0
LINE
  5
E97
330
19
100
AcDbEntity
  8
1
  6
Continuous
 62
     3
100
AcDbLine
 10
382.665
 20
294.4399999999999
 30
0.0
 11
382.665
 21
652.321
 31
0.0
  0
LINE
  5
E98
330
19
100
AcDbEntity
  8
1
  6
Continuous
 62
     3
100
AcDbLine
 10
382.665
 20
314.44
 30
0.0
 11
682.6649999999999
 21
314.44
 31
0.0
  0
LINE
  5
E99
330
19
100
AcDbEntity
  8
1
  6
Continuous
 62
     3
100
AcDbLine
 10
382.665
 20
314.44
 30
0.0
 11
402.665
 21
310.914
 31
0.0
  0
LINE
  5
E9A
330
19
100
AcDbEntity
  8
1
  6
Continuous
 62
     3
100
AcDbLine
 10
382.665
 20
314.44
 30
0.0
 11
402.665
 21
317.9669999999999
 31
0.0
  0
LINE
  5
E9B
330
19
100
AcDbEntity
  8
1
  6
Continuous
 62
     3
100
AcDbLine
 10
682.6649999999999
 20
314.44
 30
0.0
 11
662.6649999999999
 21
317.9669999999999
 31
0.0
  0
LINE
  5
E9C
330
19
100
AcDbEntity
  8
1
  6
Continuous
 62
     3
100
AcDbLine
 10
682.6649999999999
 20
314.44
 30
0.0
 11
662.6649999999999
 21
310.914
 31
0.0
  0
TEXT
  5
E9D
330
19
100
AcDbEntity
  8
1
 62
     3
100
AcDbText
 10
490.6649999999999
 20
314.44
 30
0.0
 40
40.0
  1
３００
 41
0.7
100
AcDbText
  0
LWPOLYLINE
  5
E9E
330
19
100
AcDbEntity
  8
1
  6
Continuous
 62
     8
100
AcDbPolyline
 90
        3
 70
     0
 43
0.0
 10
4701.89
 20
2731.74
 10
4730.54
 20
2445.32
 10
4752.010000000001
 20
2445.32
  0
LINE
  5
EA3
330
19
100
AcDbEntity
  8
1
  6
Continuous
 62
     8
100
AcDbLine
 10
4762.089999999999
 20
2445.32
 30
0.0
 11
4804.37
 21
2445.32
 31
0.0
  0
LINE
  5
EA4
330
19
100
AcDbEntity
  8
1
  6
Continuous
 62
     8
100
AcDbLine
 10
4819.68
 20
2445.32
 30
0.0
 11
4837.54
 21
2445.32
 31
0.0
  0
LINE
  5
EA5
330
19
100
AcDbEntity
  8
1
  6
Continuous
 62
     8
100
AcDbLine
 10
4863.54
 20
2445.32
 30
0.0
 11
4881.39
 21
2445.32
 31
0.0
  0
LINE
  5
EA6
330
19
100
AcDbEntity
  8
1
  6
Continuous
 62
     8
100
AcDbLine
 10
4896.7
 20
2445.32
 30
0.0
 11
4938.979999999999
 21
2445.32
 31
0.0
  0
LWPOLYLINE
  5
EA7
330
19
100
AcDbEntity
  8
1
  6
Continuous
 62
     8
100
AcDbPolyline
 90
        3
 70
     0
 43
0.0
 10
4949.060000000001
 20
2445.32
 10
4970.539999999999
 20
2445.32
 10
4999.18
 20
2731.74
  0
LWPOLYLINE
  5
EAC
330
19
100
AcDbEntity
  8
1
  6
Continuous
 62
     8
100
AcDbPolyline
 90
        3
 70
     0
 43
0.0
 10
4606.89
 20
1597.039999999999
 10
4635.54
 20
1310.62
 10
4657.01
 20
1310.62
  0
LINE
  5
EB1
330
19
100
AcDbEntity
  8
1
  6
Continuous
 62
     8
100
AcDbLine
 10
4667.09
 20
1310.62
 30
0.0
 11
4709.369999999999
 21
1310.62
 31
0.0
  0
LINE
  5
EB2
330
19
100
AcDbEntity
  8
1
  6
Continuous
 62
     8
100
AcDbLine
 10
4724.68
 20
1310.62
 30
0.0
 11
4742.54
 21
1310.62
 31
0.0
  0
LINE
  5
EB3
330
19
100
AcDbEntity
  8
1
  6
Continuous
 62
     8
100
AcDbLine
 10
4768.54
 20
1310.62
 30
0.0
 11
4786.389999999999
 21
1310.62
 31
0.0
  0
LINE
  5
EB4
330
19
100
AcDbEntity
  8
1
  6
Continuous
 62
     8
100
AcDbLine
 10
4801.7
 20
1310.62
 30
0.0
 11
4843.98
 21
1310.62
 31
0.0
  0
LWPOLYLINE
  5
EB5
330
19
100
AcDbEntity
  8
1
  6
Continuous
 62
     8
100
AcDbPolyline
 90
        3
 70
     0
 43
0.0
 10
4854.06
 20
1310.62
 10
4875.54
 20
1310.62
 10
4904.18
 20
1597.039999999999
  0
TEXT
  5
EBA
330
19
100
AcDbEntity
  8
1
 62
     1
100
AcDbText
 10
4096.039512416482
 20
448.6319999999999
 30
0.0
 40
70.0
  1
サイクルスペ－ス(独立型）CSE-20-S-L
 41
0.7142800000000001
100
AcDbText
  0
LWPOLYLINE
  5
EBB
330
19
100
AcDbEntity
  8
1
  6
Continuous
 62
     1
100
AcDbPolyline
 90
        5
 70
     0
 43
0.0
 10
797.665
 20
1792.82
 10
567.6649999999999
 20
1792.82
 10
567.6649999999999
 20
1767.82
 10
797.665
 20
1767.82
 10
797.665
 20
1792.82
  0
LINE
  5
EC2
330
19
100
AcDbEntity
  8
1
  6
Continuous
 62
     1
100
AcDbLine
 10
645.1649999999999
 20
1238.53
 30
0.0
 11
645.1649999999999
 21
1767.82
 31
0.0
  0
LINE
  5
EC3
330
19
100
AcDbEntity
  8
1
  6
Continuous
 62
     1
100
AcDbLine
 10
720.1649999999999
 20
1355.56
 30
0.0
 11
720.1649999999999
 21
1767.82
 31
0.0
  0
LINE
  5
EC4
330
19
100
AcDbEntity
  8
1
  6
Continuous
 62
     1
100
AcDbLine
 10
4888.04
 20
1615.269999999999
 30
0.0
 11
4888.04
 21
1767.82
 31
0.0
  0
LINE
  5
EC5
330
19
100
AcDbEntity
  8
1
  6
Continuous
 62
     1
100
AcDbLine
 10
4813.04
 20
1612.2
 30
0.0
 11
4813.04
 21
1767.82
 31
0.0
  0
ARC
  5
EC6
330
19
100
AcDbEntity
  8
1
  6
Continuous
 62
     2
100
AcDbCircle
 10
4912.040000000001
 20
1773.819999999999
 30
0.0
 40
6.0
100
AcDbArc
 50
270.0
 51
0.0
  0
ARC
  5
EC7
330
19
100
AcDbEntity
  8
1
  6
Continuous
 62
     2
100
AcDbCircle
 10
4789.039999999999
 20
1773.819999999999
 30
0.0
 40
6.0
100
AcDbArc
 50
180.0
 51
270.0
  0
LINE
  5
EC8
330
19
100
AcDbEntity
  8
1
  6
Continuous
 62
     2
100
AcDbLine
 10
4912.040000000001
 20
1767.82
 30
0.0
 11
4789.039999999999
 21
1767.82
 31
0.0
  0
LWPOLYLINE
  5
EC9
330
19
100
AcDbEntity
  8
1
  6
Continuous
 62
     2
100
AcDbPolyline
 90
        4
 70
     0
 43
0.0
 10
797.665
 20
3562.24
 10
797.665
 20
3567.74
 10
567.6649999999999
 20
3567.74
 10
567.6649999999999
 20
3562.24
  0
LWPOLYLINE
  5
ECF
330
19
100
AcDbEntity
  8
1
  6
Continuous
 62
     2
100
AcDbPolyline
 90
        4
 70
     0
 43
0.0
 10
567.6649999999999
 20
3438.239999999999
 10
567.6649999999999
 20
3432.739999999999
 10
797.665
 20
3432.739999999999
 10
797.665
 20
3438.239999999999
  0
LWPOLYLINE
  5
ED5
330
19
100
AcDbEntity
  8
1
  6
Continuous
 62
     2
100
AcDbPolyline
 90
        4
 70
     0
 43
0.0
 10
4913.540000000001
 20
1775.12
 10
4913.540000000001
 20
1792.82
 10
4918.04
 20
1792.82
 10
4918.04
 20
1773.819999999999
  0
LWPOLYLINE
  5
EDB
330
19
100
AcDbEntity
  8
1
  6
Continuous
 62
     2
100
AcDbPolyline
 90
        4
 70
     0
 43
0.0
 10
4783.039999999999
 20
1773.819999999999
 10
4783.039999999999
 20
1792.82
 10
4787.539999999999
 20
1792.82
 10
4787.539999999999
 20
1775.12
  0
LINE
  5
EE3
330
19
100
AcDbEntity
  8
1
  6
DASHDOT
 62
     3
100
AcDbLine
 10
432.665
 20
974.9622070462974
 30
0.0
 11
432.6649999999999
 21
652.321
 31
0.0
  0
LINE
  5
EE6
330
19
100
AcDbEntity
  8
0
  6
Continuous
 62
     3
100
AcDbLine
 10
432.6649999999999
 20
2097.92
 30
0.0
 11
432.6649999999999
 21
2400.721444236788
 31
0.0
  0
LINE
  5
EF7
330
19
100
AcDbEntity
  8
1
  6
Continuous
 62
     3
100
AcDbLine
 10
383.3766425631549
 20
2393.054256941725
 30
0.0
 11
403.3766425631549
 21
2389.528256941725
 31
0.0
  0
LINE
  5
EF8
330
19
100
AcDbEntity
  8
1
  6
Continuous
 62
     3
100
AcDbLine
 10
383.3766425631549
 20
2393.054256941725
 30
0.0
 11
403.3766425631549
 21
2396.581256941725
 31
0.0
  0
LINE
  5
EF9
330
19
100
AcDbEntity
  8
1
  6
Continuous
 62
     3
100
AcDbLine
 10
433.3766425631549
 20
2393.054256941725
 30
0.0
 11
413.3766425631549
 21
2396.581256941725
 31
0.0
  0
LINE
  5
EFA
330
19
100
AcDbEntity
  8
1
  6
Continuous
 62
     3
100
AcDbLine
 10
383.3766425631549
 20
2393.054256941725
 30
0.0
 11
433.3766425631549
 21
2393.054256941725
 31
0.0
  0
LINE
  5
EFB
330
19
100
AcDbEntity
  8
1
  6
Continuous
 62
     3
100
AcDbLine
 10
433.3766425631549
 20
2393.054256941725
 30
0.0
 11
413.3766425631549
 21
2389.528256941725
 31
0.0
  0
LINE
  5
EFC
330
19
100
AcDbEntity
  8
1
  6
Continuous
 62
     3
100
AcDbLine
 10
433.3766425631549
 20
2393.054256941725
 30
0.0
 11
453.3766425631549
 21
2396.581256941725
 31
0.0
  0
LINE
  5
EFD
330
19
100
AcDbEntity
  8
1
  6
Continuous
 62
     3
100
AcDbLine
 10
433.3766425631549
 20
2393.054256941725
 30
0.0
 11
453.3766425631549
 21
2389.528256941725
 31
0.0
  0
LINE
  5
EFE
330
19
100
AcDbEntity
  8
1
  6
Continuous
 62
     3
100
AcDbLine
 10
433.3766425631549
 20
2393.054256941725
 30
0.0
 11
683.3766425631548
 21
2393.054256941725
 31
0.0
  0
LINE
  5
EFF
330
19
100
AcDbEntity
  8
1
  6
Continuous
 62
     3
100
AcDbLine
 10
683.3766425631548
 20
2393.054256941725
 30
0.0
 11
663.3766425631549
 21
2389.528256941725
 31
0.0
  0
LINE
  5
F00
330
19
100
AcDbEntity
  8
1
  6
Continuous
 62
     3
100
AcDbLine
 10
683.3766425631548
 20
2393.054256941725
 30
0.0
 11
663.3766425631549
 21
2396.581256941725
 31
0.0
  0
TEXT
  5
F01
330
19
100
AcDbEntity
  8
1
 62
     3
100
AcDbText
 10
516.3766425631548
 20
2393.054256941725
 30
0.0
 40
40.0
  1
２７０
 41
0.7
100
AcDbText
  0
TEXT
  5
F02
330
19
100
AcDbEntity
  8
1
 62
     3
100
AcDbText
 10
380.3766425631549
 20
2393.054256941725
 30
0.0
 40
40.0
  1
３０
 41
0.7
100
AcDbText
  0
ENDSEC
  0
SECTION
  2
OBJECTS
  0
DICTIONARY
  5
C
330
0
100
AcDbDictionary
281
     1
  3
ACAD_GROUP
350
D
  3
ACAD_LAYOUT
350
F0B
  3
ACAD_MLINESTYLE
350
E
  3
ACAD_PLOTSETTINGS
350
F0C
  3
ACAD_PLOTSTYLENAME
350
F09
  0
DICTIONARY
  5
D
102
{ACAD_REACTORS
330
C
102
}
330
C
100
AcDbDictionary
281
     1
  0
DICTIONARY
  5
F0B
102
{ACAD_REACTORS
330
C
102
}
330
C
100
AcDbDictionary
281
     1
  3
Model
350
F0D
  3
ﾚｲｱｳﾄ1
350
F0E
  0
DICTIONARY
  5
E
102
{ACAD_REACTORS
330
C
102
}
330
C
100
AcDbDictionary
281
     1
  3
STANDARD
350
1C
  0
DICTIONARY
  5
F0C
102
{ACAD_REACTORS
330
C
102
}
330
C
100
AcDbDictionary
281
     1
  0
ACDBDICTIONARYWDFLT
  5
F09
102
{ACAD_REACTORS
330
C
102
}
330
C
100
AcDbDictionary
281
     1
  3
Normal
350
F0A
100
AcDbDictionaryWithDefault
340
F0A
  0
LAYOUT
  5
F0D
102
{ACAD_REACTORS
330
F0B
102
}
330
F0B
100
AcDbPlotSettings
  1

  2
Canon LBP-870
  4

  6

 40
0.0
 41
0.0
 42
0.0
 43
0.0
 44
0.0
 45
0.0
 46
0.0
 47
0.0
 48
0.0
 49
0.0
140
0.0
141
0.0
142
1.0
143
1.0
 70
  1712
 72
     0
 73
     0
 74
     0
  7

 75
     0
147
1.0
148
0.0
149
0.0
100
AcDbLayout
  1
Model
 70
     1
 71
     0
 10
0.0
 20
0.0
 11
12.0
 21
9.0
 12
0.0
 22
0.0
 32
0.0
 14
0.0
 24
0.0
 34
0.0
 15
0.0
 25
0.0
 35
0.0
146
0.0
 13
0.0
 23
0.0
 33
0.0
 16
1.0
 26
0.0
 36
0.0
 17
0.0
 27
1.0
 37
0.0
 76
     0
330
19
  0
LAYOUT
  5
F0E
102
{ACAD_REACTORS
330
F0B
102
}
330
F0B
100
AcDbPlotSettings
  1

  2
Canon LBP-870
  4

  6

 40
0.0
 41
0.0
 42
0.0
 43
0.0
 44
0.0
 45
0.0
 46
0.0
 47
0.0
 48
0.0
 49
0.0
140
0.0
141
0.0
142
1.0
143
1.0
 70
   688
 72
     0
 73
     0
 74
     5
  7

 75
    16
147
1.0
148
0.0
149
0.0
100
AcDbLayout
  1
ﾚｲｱｳﾄ1
 70
     1
 71
     1
 10
0.0
 20
0.0
 11
12.0
 21
9.0
 12
0.0
 22
0.0
 32
0.0
 14
1.000000000000000E+20
 24
1.000000000000000E+20
 34
1.000000000000000E+20
 15
-1.000000000000000E+20
 25
-1.000000000000000E+20
 35
-1.000000000000000E+20
146
0.0
 13
0.0
 23
0.0
 33
0.0
 16
1.0
 26
0.0
 36
0.0
 17
0.0
 27
1.0
 37
0.0
 76
     0
330
16
  0
MLINESTYLE
  5
1C
102
{ACAD_REACTORS
330
E
102
}
330
E
100
AcDbMlineStyle
  2
STANDARD
 70
     0
  3

 62
     0
 51
90.0
 52
90.0
 71
     2
 49
0.5
 62
   256
  6
BYLAYER
 49
-0.5
 62
   256
  6
BYLAYER
  0
ACDBPLACEHOLDER
  5
F0A
102
{ACAD_REACTORS
330
F09
102
}
330
F09
  0
ENDSEC
  0
EOF
