  0
SECTION
  2
HEADER
  9
$ACADVER
  1
AC1015
  9
$ACADMAINTVER
 70
    10
  9
$DWGCODEPAGE
  3
ANSI_932
  9
$INSBASE
 10
0.0
 20
0.0
 30
0.0
  9
$EXTMIN
 10
0.0
 20
0.0
 30
0.0
  9
$EXTMAX
 10
5348.501021234378
 20
3709.57411613907
 30
0.0
  9
$LIMMIN
 10
0.0
 20
0.0
  9
$LIMMAX
 10
5940.0
 20
4200.0
  9
$ORTHOMODE
 70
     1
  9
$REGENMODE
 70
     1
  9
$FILLMODE
 70
     1
  9
$QTEXTMODE
 70
     0
  9
$MIRRTEXT
 70
     1
  9
$LTSCALE
 40
1.0
  9
$ATTMODE
 70
     1
  9
$TEXTSIZE
 40
0.2
  9
$TRACEWID
 40
0.05
  9
$TEXTSTYLE
  7
STANDARD
  9
$CLAYER
  8
0
  9
$CELTYPE
  6
CONTINUOUS
  9
$CECOLOR
 62
     3
  9
$CELTSCALE
 40
1.0
  9
$DISPSILH
 70
     0
  9
$DIMSCALE
 40
1.0
  9
$DIMASZ
 40
0.18
  9
$DIMEXO
 40
0.0625
  9
$DIMDLI
 40
0.38
  9
$DIMRND
 40
0.0
  9
$DIMDLE
 40
0.0
  9
$DIMEXE
 40
0.18
  9
$DIMTP
 40
0.0
  9
$DIMTM
 40
0.0
  9
$DIMTXT
 40
0.18
  9
$DIMCEN
 40
0.09
  9
$DIMTSZ
 40
0.0
  9
$DIMTOL
 70
     0
  9
$DIMLIM
 70
     0
  9
$DIMTIH
 70
     1
  9
$DIMTOH
 70
     1
  9
$DIMSE1
 70
     0
  9
$DIMSE2
 70
     0
  9
$DIMTAD
 70
     0
  9
$DIMZIN
 70
     0
  9
$DIMBLK
  1

  9
$DIMASO
 70
     1
  9
$DIMSHO
 70
     1
  9
$DIMPOST
  1

  9
$DIMAPOST
  1

  9
$DIMALT
 70
     0
  9
$DIMALTD
 70
     2
  9
$DIMALTF
 40
25.4
  9
$DIMLFAC
 40
1.0
  9
$DIMTOFL
 70
     0
  9
$DIMTVP
 40
0.0
  9
$DIMTIX
 70
     0
  9
$DIMSOXD
 70
     0
  9
$DIMSAH
 70
     0
  9
$DIMBLK1
  1

  9
$DIMBLK2
  1

  9
$DIMSTYLE
  2
STANDARD
  9
$DIMCLRD
 70
     0
  9
$DIMCLRE
 70
     0
  9
$DIMCLRT
 70
     0
  9
$DIMTFAC
 40
1.0
  9
$DIMGAP
 40
0.09
  9
$DIMJUST
 70
     0
  9
$DIMSD1
 70
     0
  9
$DIMSD2
 70
     0
  9
$DIMTOLJ
 70
     1
  9
$DIMTZIN
 70
     0
  9
$DIMALTZ
 70
     0
  9
$DIMALTTZ
 70
     0
  9
$DIMUPT
 70
     0
  9
$DIMDEC
 70
     4
  9
$DIMTDEC
 70
     4
  9
$DIMALTU
 70
     2
  9
$DIMALTTD
 70
     2
  9
$DIMTXSTY
  7
STANDARD
  9
$DIMAUNIT
 70
     0
  9
$DIMADEC
 70
     0
  9
$DIMALTRND
 40
0.0
  9
$DIMAZIN
 70
     0
  9
$DIMDSEP
 70
    46
  9
$DIMATFIT
 70
     3
  9
$DIMFRAC
 70
     0
  9
$DIMLDRBLK
  1

  9
$DIMLUNIT
 70
     2
  9
$DIMLWD
 70
    -2
  9
$DIMLWE
 70
    -2
  9
$DIMTMOVE
 70
     0
  9
$LUNITS
 70
     2
  9
$LUPREC
 70
     4
  9
$SKETCHINC
 40
0.1
  9
$FILLETRAD
 40
0.0
  9
$AUNITS
 70
     0
  9
$AUPREC
 70
     0
  9
$MENU
  1
acad
  9
$ELEVATION
 40
0.0
  9
$PELEVATION
 40
0.0
  9
$THICKNESS
 40
0.0
  9
$LIMCHECK
 70
     0
  9
$CHAMFERA
 40
0.0
  9
$CHAMFERB
 40
0.0
  9
$CHAMFERC
 40
0.0
  9
$CHAMFERD
 40
0.0
  9
$SKPOLY
 70
     0
  9
$TDCREATE
 40
2453019.768589664
  9
$TDUCREATE
 40
2453019.393589664
  9
$TDUPDATE
 40
2453020.365315925
  9
$TDUUPDATE
 40
2453019.990315925
  9
$TDINDWG
 40
0.0167121644
  9
$TDUSRTIMER
 40
0.0167121644
  9
$USRTIMER
 70
     1
  9
$ANGBASE
 50
0.0
  9
$ANGDIR
 70
     0
  9
$PDMODE
 70
     0
  9
$PDSIZE
 40
0.0
  9
$PLINEWID
 40
0.0
  9
$SPLFRAME
 70
     0
  9
$SPLINETYPE
 70
     6
  9
$SPLINESEGS
 70
     8
  9
$HANDSEED
  5
F12
  9
$SURFTAB1
 70
     6
  9
$SURFTAB2
 70
     6
  9
$SURFTYPE
 70
     6
  9
$SURFU
 70
     6
  9
$SURFV
 70
     6
  9
$UCSBASE
  2

  9
$UCSNAME
  2

  9
$UCSORG
 10
0.0
 20
0.0
 30
0.0
  9
$UCSXDIR
 10
1.0
 20
0.0
 30
0.0
  9
$UCSYDIR
 10
0.0
 20
1.0
 30
0.0
  9
$UCSORTHOREF
  2

  9
$UCSORTHOVIEW
 70
     0
  9
$UCSORGTOP
 10
0.0
 20
0.0
 30
0.0
  9
$UCSORGBOTTOM
 10
0.0
 20
0.0
 30
0.0
  9
$UCSORGLEFT
 10
0.0
 20
0.0
 30
0.0
  9
$UCSORGRIGHT
 10
0.0
 20
0.0
 30
0.0
  9
$UCSORGFRONT
 10
0.0
 20
0.0
 30
0.0
  9
$UCSORGBACK
 10
0.0
 20
0.0
 30
0.0
  9
$PUCSBASE
  2

  9
$PUCSNAME
  2

  9
$PUCSORG
 10
0.0
 20
0.0
 30
0.0
  9
$PUCSXDIR
 10
1.0
 20
0.0
 30
0.0
  9
$PUCSYDIR
 10
0.0
 20
1.0
 30
0.0
  9
$PUCSORTHOREF
  2

  9
$PUCSORTHOVIEW
 70
     0
  9
$PUCSORGTOP
 10
0.0
 20
0.0
 30
0.0
  9
$PUCSORGBOTTOM
 10
0.0
 20
0.0
 30
0.0
  9
$PUCSORGLEFT
 10
0.0
 20
0.0
 30
0.0
  9
$PUCSORGRIGHT
 10
0.0
 20
0.0
 30
0.0
  9
$PUCSORGFRONT
 10
0.0
 20
0.0
 30
0.0
  9
$PUCSORGBACK
 10
0.0
 20
0.0
 30
0.0
  9
$USERI1
 70
     0
  9
$USERI2
 70
     0
  9
$USERI3
 70
     0
  9
$USERI4
 70
     0
  9
$USERI5
 70
     0
  9
$USERR1
 40
0.0
  9
$USERR2
 40
0.0
  9
$USERR3
 40
0.0
  9
$USERR4
 40
0.0
  9
$USERR5
 40
0.0
  9
$WORLDVIEW
 70
     1
  9
$SHADEDGE
 70
     3
  9
$SHADEDIF
 70
    70
  9
$TILEMODE
 70
     1
  9
$MAXACTVP
 70
    16
  9
$PINSBASE
 10
0.0
 20
0.0
 30
0.0
  9
$PLIMCHECK
 70
     0
  9
$PEXTMIN
 10
1.000000000000000E+20
 20
1.000000000000000E+20
 30
1.000000000000000E+20
  9
$PEXTMAX
 10
-1.000000000000000E+20
 20
-1.000000000000000E+20
 30
-1.000000000000000E+20
  9
$PLIMMIN
 10
0.0
 20
0.0
  9
$PLIMMAX
 10
12.0
 20
9.0
  9
$UNITMODE
 70
     0
  9
$VISRETAIN
 70
     0
  9
$PLINEGEN
 70
     0
  9
$PSLTSCALE
 70
     1
  9
$TREEDEPTH
 70
  3020
  9
$CMLSTYLE
  2
STANDARD
  9
$CMLJUST
 70
     0
  9
$CMLSCALE
 40
1.0
  9
$PROXYGRAPHICS
 70
     1
  9
$MEASUREMENT
 70
     0
  9
$CELWEIGHT
370
    -1
  9
$ENDCAPS
280
     0
  9
$JOINSTYLE
280
     0
  9
$LWDISPLAY
290
     0
  9
$INSUNITS
 70
     0
  9
$HYPERLINKBASE
  1

  9
$STYLESHEET
  1

  9
$XEDIT
290
     1
  9
$CEPSNTYPE
380
     0
  9
$PSTYLEMODE
290
     1
  9
$FINGERPRINTGUID
  2
{AF38027F-C259-42FE-82D7-71E3F648ED80}
  9
$VERSIONGUID
  2
{78C339DD-8F84-4238-9C0F-AB2E26A1B221}
  9
$EXTNAMES
290
     1
  9
$PSVPSCALE
 40
0.0
  9
$OLESTARTUP
290
     0
  0
ENDSEC
  0
SECTION
  2
CLASSES
  0
CLASS
  1
ACDBDICTIONARYWDFLT
  2
AcDbDictionaryWithDefault
  3
AutoCAD 2000
 90
        0
280
     0
281
     0
  0
CLASS
  1
ACDBPLACEHOLDER
  2
AcDbPlaceHolder
  3
AutoCAD 2000
 90
        0
280
     0
281
     0
  0
CLASS
  1
LAYOUT
  2
AcDbLayout
  3
AutoCAD 2000
 90
        0
280
     0
281
     0
  0
ENDSEC
  0
SECTION
  2
TABLES
  0
TABLE
  2
VPORT
  5
8
330
0
100
AcDbSymbolTable
 70
     2
  0
VPORT
  5
F11
330
8
100
AcDbSymbolTableRecord
100
AcDbViewportTableRecord
  2
*Active
 70
     0
 10
0.0
 20
0.0
 11
1.0
 21
1.0
 12
4357.828810020876
 22
2286.074129847017
 13
0.0
 23
0.0
 14
1.0
 24
1.0
 15
0.0
 25
0.0
 16
0.0
 26
0.0
 36
1.0
 17
0.0
 27
0.0
 37
0.0
 40
4572.148259694034
 41
1.90625
 42
50.0
 43
0.0
 44
0.0
 50
0.0
 51
0.0
 71
     0
 72
   100
 73
     1
 74
     1
 75
     0
 76
     0
 77
     0
 78
     0
281
     0
 65
     1
110
0.0
120
0.0
130
0.0
111
1.0
121
0.0
131
0.0
112
0.0
122
1.0
132
0.0
 79
     0
146
0.0
  0
ENDTAB
  0
TABLE
  2
LTYPE
  5
5
330
0
100
AcDbSymbolTable
 70
     5
  0
LTYPE
  5
13
330
5
100
AcDbSymbolTableRecord
100
AcDbLinetypeTableRecord
  2
BYBLOCK
 70
     0
  3

 72
    65
 73
     0
 40
0.0
  0
LTYPE
  5
14
330
5
100
AcDbSymbolTableRecord
100
AcDbLinetypeTableRecord
  2
BYLAYER
 70
     0
  3

 72
    65
 73
     0
 40
0.0
  0
LTYPE
  5
15
330
5
100
AcDbSymbolTableRecord
100
AcDbLinetypeTableRecord
  2
CONTINUOUS
 70
     0
  3
Solid line
 72
    65
 73
     0
 40
0.0
  0
LTYPE
  5
1E
330
5
100
AcDbSymbolTableRecord
100
AcDbLinetypeTableRecord
  2
HIDDEN
 70
     0
  3
_ _ _ _ _ _ _ _ _ _ _ _ _ _ _ _ _ _ _ _ _ _ _
 72
    65
 73
     2
 40
0.375
 49
0.25
 74
     0
 49
-0.125
 74
     0
  0
LTYPE
  5
1F
330
5
100
AcDbSymbolTableRecord
100
AcDbLinetypeTableRecord
  2
DOT
 70
     0
  3
...............................................
 72
    65
 73
     2
 40
0.25
 49
0.0
 74
     0
 49
-0.25
 74
     0
  0
LTYPE
  5
20
330
5
100
AcDbSymbolTableRecord
100
AcDbLinetypeTableRecord
  2
DASHDOT
 70
     0
  3
__ . __ . __ . __ . __ . __ . __ . __ . __ . __
 72
    65
 73
     4
 40
1.0
 49
0.5
 74
     0
 49
-0.25
 74
     0
 49
0.0
 74
     0
 49
-0.25
 74
     0
  0
LTYPE
  5
21
330
5
100
AcDbSymbolTableRecord
100
AcDbLinetypeTableRecord
  2
DIVIDE
 70
     0
  3
__ . . __ . . __ . . __ . . __ . . __ . . __
 72
    65
 73
     6
 40
1.25
 49
0.5
 74
     0
 49
-0.25
 74
     0
 49
0.0
 74
     0
 49
-0.25
 74
     0
 49
0.0
 74
     0
 49
-0.25
 74
     0
  0
ENDTAB
  0
TABLE
  2
LAYER
  5
2
330
0
100
AcDbSymbolTable
 70
     2
  0
LAYER
  5
F
330
2
100
AcDbSymbolTableRecord
100
AcDbLayerTableRecord
  2
0
 70
     0
 62
     7
  6
CONTINUOUS
370
    -3
390
F09
  0
LAYER
  5
22
330
2
100
AcDbSymbolTableRecord
100
AcDbLayerTableRecord
  2
1
 70
     0
 62
     1
  6
CONTINUOUS
370
    -3
390
F09
  0
ENDTAB
  0
TABLE
  2
STYLE
  5
3
330
0
100
AcDbSymbolTable
 70
     1
  0
STYLE
  5
10
330
3
100
AcDbSymbolTableRecord
100
AcDbTextStyleTableRecord
  2
STANDARD
 70
     0
 40
0.0
 41
1.0
 50
0.0
 71
     0
 42
0.2
  3
TXT
  4
BIGFONT
  0
ENDTAB
  0
TABLE
  2
VIEW
  5
6
330
0
100
AcDbSymbolTable
 70
     0
  0
ENDTAB
  0
TABLE
  2
UCS
  5
7
330
0
100
AcDbSymbolTable
 70
     0
  0
ENDTAB
  0
TABLE
  2
APPID
  5
9
330
0
100
AcDbSymbolTable
 70
     1
  0
APPID
  5
11
330
9
100
AcDbSymbolTableRecord
100
AcDbRegAppTableRecord
  2
ACAD
 70
     0
  0
ENDTAB
  0
TABLE
  2
DIMSTYLE
  5
A
330
0
100
AcDbSymbolTable
 70
     1
100
AcDbDimStyleTable
 71
     0
  0
DIMSTYLE
105
EE2
330
A
100
AcDbSymbolTableRecord
100
AcDbDimStyleTableRecord
  2
STANDARD
 70
     0
340
10
  0
ENDTAB
  0
TABLE
  2
BLOCK_RECORD
  5
1
330
0
100
AcDbSymbolTable
 70
     3
  0
BLOCK_RECORD
  5
19
330
1
100
AcDbSymbolTableRecord
100
AcDbBlockTableRecord
  2
*MODEL_SPACE
340
F0C
  0
BLOCK_RECORD
  5
16
330
1
100
AcDbSymbolTableRecord
100
AcDbBlockTableRecord
  2
*PAPER_SPACE
340
F0D
  0
BLOCK_RECORD
  5
24
330
1
100
AcDbSymbolTableRecord
100
AcDbBlockTableRecord
  2
GDOT
340
0
  0
BLOCK_RECORD
  5
2B
330
1
100
AcDbSymbolTableRecord
100
AcDbBlockTableRecord
  2
GDOT2
340
0
  0
BLOCK_RECORD
  5
EE6
330
1
100
AcDbSymbolTableRecord
100
AcDbBlockTableRecord
  2
A$C8D
340
0
  0
ENDTAB
  0
ENDSEC
  0
SECTION
  2
BLOCKS
  0
BLOCK
  5
1A
330
19
100
AcDbEntity
  8
0
100
AcDbBlockBegin
  2
*MODEL_SPACE
 70
     0
 10
0.0
 20
0.0
 30
0.0
  3
*MODEL_SPACE
  1

  0
ENDBLK
  5
1B
330
19
100
AcDbEntity
  8
0
100
AcDbBlockEnd
  0
BLOCK
  5
17
330
16
100
AcDbEntity
 67
     1
  8
0
100
AcDbBlockBegin
  2
*PAPER_SPACE
 70
     0
 10
0.0
 20
0.0
 30
0.0
  3
*PAPER_SPACE
  1

  0
ENDBLK
  5
18
330
16
100
AcDbEntity
 67
     1
  8
0
100
AcDbBlockEnd
  0
BLOCK
  5
25
330
24
100
AcDbEntity
  8
0
100
AcDbBlockBegin
  2
GDOT
 70
     0
 10
0.0
 20
0.0
 30
0.0
  3
GDOT
  1

  0
LWPOLYLINE
  5
26
330
24
100
AcDbEntity
  8
1
  6
ByBlock
 62
     0
100
AcDbPolyline
 90
        2
 70
     1
 43
0.5
 10
-0.25
 20
0.0
 42
1.0
 10
0.25
 20
0.0
 42
1.0
  0
ENDBLK
  5
2A
330
24
100
AcDbEntity
  8
0
100
AcDbBlockEnd
  0
BLOCK
  5
2C
330
2B
100
AcDbEntity
  8
0
100
AcDbBlockBegin
  2
GDOT2
 70
     0
 10
0.0
 20
0.0
 30
0.0
  3
GDOT2
  1

  0
LWPOLYLINE
  5
2D
330
2B
100
AcDbEntity
  8
1
  6
ByBlock
 62
     0
100
AcDbPolyline
 90
        2
 70
     1
 43
0.0
 10
-0.5
 20
0.0
 42
1.0
 10
0.5
 20
0.0
 42
1.0
  0
ENDBLK
  5
31
330
2B
100
AcDbEntity
  8
0
100
AcDbBlockEnd
  0
BLOCK
  5
EF3
330
EE6
100
AcDbEntity
  8
0
 62
     3
100
AcDbBlockBegin
  2
A$C8D
 70
     0
 10
0.0
 20
0.0
 30
0.0
  3
A$C8D
  1

  0
LINE
  5
EE7
330
EE6
100
AcDbEntity
  8
1
  6
Continuous
 62
     3
100
AcDbLine
 10
0.3284255480170941
 20
3.63232448076701
 30
0.0
 11
20.32842554801709
 21
0.1053244807670808
 31
0.0
  0
LINE
  5
EE8
330
EE6
100
AcDbEntity
  8
1
  6
Continuous
 62
     3
100
AcDbLine
 10
0.3284255480170941
 20
3.63232448076701
 30
0.0
 11
50.32842554801709
 21
3.63232448076701
 31
0.0
  0
LINE
  5
EE9
330
EE6
100
AcDbEntity
  8
1
  6
Continuous
 62
     3
100
AcDbLine
 10
50.32842554801709
 20
3.63232448076701
 30
0.0
 11
30.32842554801709
 21
0.1053244807670808
 31
0.0
  0
LINE
  5
EEA
330
EE6
100
AcDbEntity
  8
1
  6
Continuous
 62
     3
100
AcDbLine
 10
50.32842554801709
 20
3.63232448076701
 30
0.0
 11
70.32842554801709
 21
0.1053244807670808
 31
0.0
  0
LINE
  5
EEB
330
EE6
100
AcDbEntity
  8
1
  6
Continuous
 62
     3
100
AcDbLine
 10
50.32842554801709
 20
3.63232448076701
 30
0.0
 11
30.32842554801709
 21
7.158324480767021
 31
0.0
  0
LINE
  5
EEC
330
EE6
100
AcDbEntity
  8
1
  6
Continuous
 62
     3
100
AcDbLine
 10
0.3284255480170941
 20
3.63232448076701
 30
0.0
 11
20.32842554801709
 21
7.158324480767021
 31
0.0
  0
LINE
  5
EED
330
EE6
100
AcDbEntity
  8
1
  6
Continuous
 62
     3
100
AcDbLine
 10
50.32842554801709
 20
3.63232448076701
 30
0.0
 11
70.32842554801709
 21
7.158324480767021
 31
0.0
  0
LINE
  5
EEE
330
EE6
100
AcDbEntity
  8
1
  6
Continuous
 62
     3
100
AcDbLine
 10
300.328425548017
 20
3.63232448076701
 30
0.0
 11
280.328425548017
 21
0.1053244807670808
 31
0.0
  0
LINE
  5
EEF
330
EE6
100
AcDbEntity
  8
1
  6
Continuous
 62
     3
100
AcDbLine
 10
300.328425548017
 20
3.63232448076701
 30
0.0
 11
280.328425548017
 21
7.158324480767021
 31
0.0
  0
LINE
  5
EF0
330
EE6
100
AcDbEntity
  8
1
  6
Continuous
 62
     3
100
AcDbLine
 10
50.32842554801709
 20
3.63232448076701
 30
0.0
 11
300.328425548017
 21
3.63232448076701
 31
0.0
  0
TEXT
  5
EF1
330
EE6
100
AcDbEntity
  8
1
 62
     3
100
AcDbText
 10
133.328425548017
 20
3.63232448076701
 30
0.0
 40
40.0
  1
２５０
 41
0.7
100
AcDbText
  0
TEXT
  5
EF2
330
EE6
100
AcDbEntity
  8
1
 62
     3
100
AcDbText
 10
-2.671574451982905
 20
3.63232448076701
 30
0.0
 40
40.0
  1
５０
 41
0.7
100
AcDbText
  0
ENDBLK
  5
EF4
330
EE6
100
AcDbEntity
  8
0
 62
     3
100
AcDbBlockEnd
  0
ENDSEC
  0
SECTION
  2
ENTITIES
  0
LWPOLYLINE
  5
32
330
19
100
AcDbEntity
  8
1
  6
Continuous
 62
     1
100
AcDbPolyline
 90
        6
 70
     0
 43
0.0
 10
2519.05
 20
3680.0
 10
0.0
 20
3680.0
 10
0.0
 20
0.0
 10
5330.0
 20
0.0
 10
5330.0
 20
3680.0
 10
2830.47
 20
3680.0
  0
LINE
  5
3A
330
19
100
AcDbEntity
  8
1
  6
Continuous
 62
     1
100
AcDbLine
 10
4030.0
 20
240.0
 30
0.0
 11
5330.0
 21
240.0
 31
0.0
  0
LINE
  5
3B
330
19
100
AcDbEntity
  8
1
  6
Continuous
 62
     1
100
AcDbLine
 10
5330.0
 20
340.0
 30
0.0
 11
4030.0
 21
340.0
 31
0.0
  0
LINE
  5
3C
330
19
100
AcDbEntity
  8
1
  6
Continuous
 62
     1
100
AcDbLine
 10
4030.0
 20
440.0
 30
0.0
 11
5330.0
 21
440.0
 31
0.0
  0
LWPOLYLINE
  5
3D
330
19
100
AcDbEntity
  8
1
  6
Continuous
 62
     1
100
AcDbPolyline
 90
        3
 70
     0
 43
0.0
 10
5330.0
 20
540.0
 10
4030.0
 20
540.0
 10
4030.0
 20
0.0
  0
TEXT
  5
42
330
19
100
AcDbEntity
  8
1
 62
     3
100
AcDbText
 10
4043.429999999999
 20
207.0759999999999
 30
0.0
 40
25.0
  1
作図
100
AcDbText
  0
TEXT
  5
43
330
19
100
AcDbEntity
  8
1
 62
     3
100
AcDbText
 10
4043.429999999999
 20
127.076
 30
0.0
 40
25.0
  1
設計
100
AcDbText
  0
TEXT
  5
44
330
19
100
AcDbEntity
  8
1
 62
     3
100
AcDbText
 10
4043.429999999999
 20
47.07679999999999
 30
0.0
 40
25.0
  1
日付
100
AcDbText
  0
TEXT
  5
45
330
19
100
AcDbEntity
  8
1
 62
     3
100
AcDbText
 10
4043.429999999999
 20
504.161
 30
0.0
 40
30.0
  1
名称
 41
0.8333299999999999
100
AcDbText
  0
TEXT
  5
46
330
19
100
AcDbEntity
  8
1
 62
     3
100
AcDbText
 10
4043.429999999999
 20
404.161
 30
0.0
 40
30.0
  1
図面名
 41
0.8333299999999999
100
AcDbText
  0
TEXT
  5
47
330
19
100
AcDbEntity
  8
1
 62
     3
100
AcDbText
 10
4043.429999999999
 20
304.1609999999999
 30
0.0
 40
30.0
  1
御注文先
 41
0.8333299999999999
100
AcDbText
  0
LINE
  5
48
330
19
100
AcDbEntity
  8
1
  6
Continuous
 62
     1
100
AcDbLine
 10
3780.0
 20
0.0
 30
0.0
 11
3780.0
 21
160.0
 31
0.0
  0
LINE
  5
49
330
19
100
AcDbEntity
  8
1
  6
Continuous
 62
     1
100
AcDbLine
 10
3580.0
 20
0.0
 30
0.0
 11
3580.0
 21
160.0
 31
0.0
  0
LINE
  5
4A
330
19
100
AcDbEntity
  8
1
  6
Continuous
 62
     1
100
AcDbLine
 10
3030.0
 20
0.0
 30
0.0
 11
3030.0
 21
160.0
 31
0.0
  0
LINE
  5
4B
330
19
100
AcDbEntity
  8
1
  6
Continuous
 62
     1
100
AcDbLine
 10
2930.0
 20
160.0
 30
0.0
 11
4030.0
 21
160.0
 31
0.0
  0
LINE
  5
4C
330
19
100
AcDbEntity
  8
1
  6
Continuous
 62
     1
100
AcDbLine
 10
2930.0
 20
80.0
 30
0.0
 11
4030.0
 21
80.0
 31
0.0
  0
LINE
  5
4D
330
19
100
AcDbEntity
  8
1
  6
Continuous
 62
     1
100
AcDbLine
 10
2930.0
 20
160.0
 30
0.0
 11
2930.0
 21
0.0
 31
0.0
  0
LWPOLYLINE
  5
4E
330
19
100
AcDbEntity
  8
1
  6
Continuous
 62
     3
100
AcDbPolyline
 90
        4
 70
     0
 43
0.0
 10
2937.979999999999
 20
90.0
 10
3022.01
 20
90.0
 10
2980.0
 20
150.0
 10
2937.979999999999
 20
90.0
  0
TEXT
  5
54
330
19
100
AcDbEntity
  8
1
 62
     3
100
AcDbText
 10
2940.889999999999
 20
10.5596
 30
0.0
 40
50.0
  1
符号
 41
0.8
100
AcDbText
  0
TEXT
  5
55
330
19
100
AcDbEntity
  8
1
 62
     3
100
AcDbText
 10
3101.51
 20
10.5596
 30
0.0
 40
50.0
  1
訂  　正　  記　  事
 41
0.8
100
AcDbText
  0
TEXT
  5
56
330
19
100
AcDbEntity
  8
1
 62
     3
100
AcDbText
 10
3621.01
 20
10.5596
 30
0.0
 40
50.0
  1
日　付
 41
0.8
100
AcDbText
  0
TEXT
  5
57
330
19
100
AcDbEntity
  8
1
 62
     3
100
AcDbText
 10
3846.33
 20
10.5596
 30
0.0
 40
50.0
  1
署　名
 41
0.8
100
AcDbText
  0
LINE
  5
58
330
19
100
AcDbEntity
  8
1
  6
Continuous
 62
     1
100
AcDbLine
 10
4350.0
 20
240.0
 30
0.0
 11
4350.0
 21
0.0
 31
0.0
  0
TEXT
  5
59
330
19
100
AcDbEntity
  8
1
 62
     3
100
AcDbText
 10
4363.43
 20
127.076
 30
0.0
 40
25.0
  1
承認
100
AcDbText
  0
TEXT
  5
5A
330
19
100
AcDbEntity
  8
1
 62
     3
100
AcDbText
 10
4363.43
 20
207.0759999999999
 30
0.0
 40
25.0
  1
検図
100
AcDbText
  0
TEXT
  5
5B
330
19
100
AcDbEntity
  8
1
 62
     3
100
AcDbText
 10
4363.43
 20
47.07679999999999
 30
0.0
 40
25.0
  1
尺度
100
AcDbText
  0
LINE
  5
5C
330
19
100
AcDbEntity
  8
1
  6
Continuous
 62
     1
100
AcDbLine
 10
4690.0
 20
240.0
 30
0.0
 11
4690.0
 21
0.0
 31
0.0
  0
LINE
  5
5D
330
19
100
AcDbEntity
  8
1
  6
Continuous
 62
     1
100
AcDbLine
 10
4030.0
 20
160.0
 30
0.0
 11
4690.0
 21
160.0
 31
0.0
  0
LINE
  5
5E
330
19
100
AcDbEntity
  8
1
  6
Continuous
 62
     1
100
AcDbLine
 10
4690.0
 20
80.0
 30
0.0
 11
4030.0
 21
80.0
 31
0.0
  0
LINE
  5
5F
330
19
100
AcDbEntity
  8
1
  6
Continuous
 62
     1
100
AcDbLine
 10
4690.0
 20
140.0
 30
0.0
 11
5330.0
 21
140.0
 31
0.0
  0
POINT
  5
60
330
19
100
AcDbEntity
  8
1
 62
     3
100
AcDbPoint
 10
5330.0
 20
3550.0
 30
0.0
  0
POINT
  5
61
330
19
100
AcDbEntity
  8
1
 62
     3
100
AcDbPoint
 10
5330.0
 20
3490.0
 30
0.0
  0
POINT
  5
62
330
19
100
AcDbEntity
  8
1
 62
     3
100
AcDbPoint
 10
5330.0
 20
3430.0
 30
0.0
  0
POINT
  5
63
330
19
100
AcDbEntity
  8
1
 62
     3
100
AcDbPoint
 10
5330.0
 20
3370.0
 30
0.0
  0
POINT
  5
64
330
19
100
AcDbEntity
  8
1
 62
     3
100
AcDbPoint
 10
5330.0
 20
3310.0
 30
0.0
  0
POINT
  5
65
330
19
100
AcDbEntity
  8
1
 62
     3
100
AcDbPoint
 10
5330.0
 20
3250.0
 30
0.0
  0
POINT
  5
66
330
19
100
AcDbEntity
  8
1
 62
     3
100
AcDbPoint
 10
5330.0
 20
3190.0
 30
0.0
  0
POINT
  5
67
330
19
100
AcDbEntity
  8
1
 62
     3
100
AcDbPoint
 10
5330.0
 20
3130.0
 30
0.0
  0
POINT
  5
68
330
19
100
AcDbEntity
  8
1
 62
     3
100
AcDbPoint
 10
5330.0
 20
3070.0
 30
0.0
  0
POINT
  5
69
330
19
100
AcDbEntity
  8
1
 62
     3
100
AcDbPoint
 10
5330.0
 20
3010.0
 30
0.0
  0
POINT
  5
6A
330
19
100
AcDbEntity
  8
1
 62
     3
100
AcDbPoint
 10
5330.0
 20
2950.0
 30
0.0
  0
POINT
  5
6B
330
19
100
AcDbEntity
  8
1
 62
     3
100
AcDbPoint
 10
5330.0
 20
2890.0
 30
0.0
  0
POINT
  5
6C
330
19
100
AcDbEntity
  8
1
 62
     3
100
AcDbPoint
 10
5330.0
 20
2830.0
 30
0.0
  0
POINT
  5
6D
330
19
100
AcDbEntity
  8
1
 62
     3
100
AcDbPoint
 10
5330.0
 20
2770.0
 30
0.0
  0
POINT
  5
6E
330
19
100
AcDbEntity
  8
1
 62
     3
100
AcDbPoint
 10
5330.0
 20
2710.0
 30
0.0
  0
POINT
  5
6F
330
19
100
AcDbEntity
  8
1
 62
     3
100
AcDbPoint
 10
5330.0
 20
2650.0
 30
0.0
  0
POINT
  5
70
330
19
100
AcDbEntity
  8
1
 62
     3
100
AcDbPoint
 10
5330.0
 20
2590.0
 30
0.0
  0
POINT
  5
71
330
19
100
AcDbEntity
  8
1
 62
     3
100
AcDbPoint
 10
5330.0
 20
2530.0
 30
0.0
  0
POINT
  5
72
330
19
100
AcDbEntity
  8
1
 62
     3
100
AcDbPoint
 10
5330.0
 20
2470.0
 30
0.0
  0
ARC
  5
73
330
19
100
AcDbEntity
  8
1
  6
Continuous
 62
     2
100
AcDbCircle
 10
4895.199999999999
 20
92.0
 30
0.0
 40
5.4
100
AcDbArc
 50
0.0
 51
90.0
  0
ARC
  5
74
330
19
100
AcDbEntity
  8
1
  6
Continuous
 62
     2
100
AcDbCircle
 10
5083.560000000001
 20
76.96049999999999
 30
0.0
 40
51.6016
100
AcDbArc
 50
210.72
 51
267.711
  0
ARC
  5
75
330
19
100
AcDbEntity
  8
1
  6
Continuous
 62
     2
100
AcDbCircle
 10
4813.3
 20
92.9
 30
0.0
 40
1.8
100
AcDbArc
 50
270.0
 51
0.0
  0
LWPOLYLINE
  5
76
330
19
100
AcDbEntity
  8
1
  6
Continuous
 62
     2
100
AcDbPolyline
 90
        7
 70
     0
 43
0.0
 10
4767.4
 20
51.5
 10
4767.4
 20
55.1
 10
4778.2
 20
61.4
 10
4789.9
 20
56.0
 10
4789.9
 20
52.4
 10
4778.2
 20
57.8
 10
4767.4
 20
51.5
  0
ARC
  5
7F
330
19
100
AcDbEntity
  8
1
  6
Continuous
 62
     2
100
AcDbCircle
 10
4771.92
 20
32.6
 30
0.0
 40
2.7
100
AcDbArc
 50
142.125
 51
270.0
  0
LINE
  5
80
330
19
100
AcDbEntity
  8
1
  6
Continuous
 62
     2
100
AcDbLine
 10
4771.92
 20
29.9
 30
0.0
 11
4786.88
 21
29.9
 31
0.0
  0
ARC
  5
81
330
19
100
AcDbEntity
  8
1
  6
Continuous
 62
     2
100
AcDbCircle
 10
4786.88
 20
32.6
 30
0.0
 40
2.7
100
AcDbArc
 50
270.0
 51
26.565
  0
ARC
  5
82
330
19
100
AcDbEntity
  8
1
  6
Continuous
 62
     2
100
AcDbCircle
 10
4802.850000000001
 20
54.2
 30
0.0
 40
2.7
100
AcDbArc
 50
326.309
 51
90.0
  0
LWPOLYLINE
  5
83
330
19
100
AcDbEntity
  8
1
  6
Continuous
 62
     2
100
AcDbPolyline
 90
        3
 70
     0
 43
0.0
 10
4805.1
 20
52.7023
 10
4804.300000000001
 20
51.5
 10
4801.22
 20
47.1486
  0
LINE
  5
88
330
19
100
AcDbEntity
  8
1
  6
Continuous
 62
     2
100
AcDbLine
 10
4800.699999999999
 20
56.9
 30
0.0
 11
4802.850000000001
 21
56.9
 31
0.0
  0
ARC
  5
89
330
19
100
AcDbEntity
  8
1
  6
Continuous
 62
     2
100
AcDbCircle
 10
5124.7
 20
32.6
 30
0.0
 40
7.2
100
AcDbArc
 50
270.0
 51
0.0
  0
ARC
  5
8A
330
19
100
AcDbEntity
  8
1
  6
Continuous
 62
     2
100
AcDbCircle
 10
5173.300000000001
 20
30.8
 30
0.0
 40
5.4
100
AcDbArc
 50
270.0
 51
0.0
  0
LINE
  5
8B
330
19
100
AcDbEntity
  8
1
  6
Continuous
 62
     2
100
AcDbLine
 10
5247.1
 20
74.0
 30
0.0
 11
5247.1
 21
47.0
 31
0.0
  0
ARC
  5
8C
330
19
100
AcDbEntity
  8
1
  6
Continuous
 62
     2
100
AcDbCircle
 10
4996.729999999999
 20
50.2727
 30
0.0
 40
25.357
100
AcDbArc
 50
288.9259999999999
 51
333.352
  0
LINE
  5
8D
330
19
100
AcDbEntity
  8
1
  6
Continuous
 62
     2
100
AcDbLine
 10
4770.55
 20
89.29999999999999
 30
0.0
 11
4770.55
 21
90.20000000000001
 31
0.0
  0
LWPOLYLINE
  5
8E
330
19
100
AcDbEntity
  8
1
  6
Continuous
 62
     2
100
AcDbPolyline
 90
        4
 70
     0
 43
0.0
 10
4770.55
 20
92.9
 10
4767.4
 20
92.9
 10
4767.4
 20
90.20000000000001
 10
4770.55
 20
90.20000000000001
  0
LWPOLYLINE
  5
94
330
19
100
AcDbEntity
  8
1
  6
Continuous
 62
     2
100
AcDbPolyline
 90
        4
 70
     0
 43
0.0
 10
4773.249999999999
 20
90.20000000000001
 10
4775.5
 20
90.20000000000001
 10
4776.399999999999
 20
92.9
 10
4773.249999999999
 20
92.9
  0
LWPOLYLINE
  5
9A
330
19
100
AcDbEntity
  8
1
  6
Continuous
 62
     2
100
AcDbPolyline
 90
        4
 70
     0
 43
0.0
 10
4773.249999999999
 20
84.8
 10
4773.249999999999
 20
67.7
 10
4770.55
 20
67.7
 10
4770.55
 20
83.0
  0
LWPOLYLINE
  5
A0
330
19
100
AcDbEntity
  8
1
  6
Continuous
 62
     2
100
AcDbPolyline
 90
        4
 70
     0
 43
0.0
 10
4770.55
 20
92.9
 10
4770.55
 20
97.40000000000001
 10
4773.249999999999
 20
97.40000000000001
 10
4773.249999999999
 20
92.9
  0
ARC
  5
A6
330
19
100
AcDbEntity
  8
1
  6
Continuous
 62
     2
100
AcDbCircle
 10
4770.100000000001
 20
86.6
 30
0.0
 40
12.2413
100
AcDbArc
 50
306.027
 51
342.897
  0
ARC
  5
A7
330
19
100
AcDbEntity
  8
1
  6
Continuous
 62
     2
100
AcDbCircle
 10
4762.9
 20
89.74999999999999
 30
0.0
 40
7.663219999999999
100
AcDbArc
 50
305.959
 51
3.36646
  0
ARC
  5
A8
330
19
100
AcDbEntity
  8
1
  6
Continuous
 62
     2
100
AcDbCircle
 10
4779.1
 20
90.65000000000001
 30
0.0
 40
5.86728
100
AcDbArc
 50
184.3979999999999
 51
242.601
  0
ARC
  5
A9
330
19
100
AcDbEntity
  8
1
  6
Continuous
 62
     2
100
AcDbCircle
 10
4756.369999999999
 20
92.225
 30
0.0
 40
16.9124
100
AcDbArc
 50
310.6829999999999
 51
326.944
  0
LINE
  5
AA
330
19
100
AcDbEntity
  8
1
  6
Continuous
 62
     2
100
AcDbLine
 10
4767.4
 20
83.5471
 30
0.0
 11
4767.4
 21
79.40000000000001
 31
0.0
  0
LINE
  5
AB
330
19
100
AcDbEntity
  8
1
  6
Continuous
 62
     2
100
AcDbLine
 10
4776.399999999999
 20
85.44079999999999
 30
0.0
 11
4776.399999999999
 21
82.09999999999999
 31
0.0
  0
LWPOLYLINE
  5
AC
330
19
100
AcDbEntity
  8
1
  6
Continuous
 62
     2
100
AcDbPolyline
 90
        4
 70
     0
 43
0.0
 10
4781.8
 20
83.0
 10
4777.3
 20
83.0
 10
4777.3
 20
85.7
 10
4781.8
 20
85.7
  0
LINE
  5
B2
330
19
100
AcDbEntity
  8
1
  6
Continuous
 62
     2
100
AcDbLine
 10
4781.8
 20
91.09999999999999
 30
0.0
 11
4781.8
 21
85.7
 31
0.0
  0
ARC
  5
B3
330
19
100
AcDbEntity
  8
1
  6
Continuous
 62
     2
100
AcDbCircle
 10
4777.52
 20
86.6
 30
0.0
 40
4.63849
100
AcDbArc
 50
202.833
 51
255.963
  0
ARC
  5
B4
330
19
100
AcDbEntity
  8
1
  6
Continuous
 62
     2
100
AcDbCircle
 10
4792.149999999999
 20
86.15
 30
0.0
 40
8.273139999999999
100
AcDbArc
 50
202.38
 51
247.619
  0
LWPOLYLINE
  5
B5
330
19
100
AcDbEntity
  8
1
  6
Continuous
 62
     2
100
AcDbPolyline
 90
        4
 70
     0
 43
0.0
 10
4781.8
 20
76.7
 10
4781.8
 20
67.7
 10
4784.5
 20
67.7
 10
4784.5
 20
78.5
  0
LWPOLYLINE
  5
BB
330
19
100
AcDbEntity
  8
1
  6
Continuous
 62
     2
100
AcDbPolyline
 90
        4
 70
     0
 43
0.0
 10
4784.5
 20
93.8
 10
4789.0
 20
93.8
 10
4789.0
 20
91.09999999999999
 10
4784.5
 20
91.09999999999999
  0
LWPOLYLINE
  5
C1
330
19
100
AcDbEntity
  8
1
  6
Continuous
 62
     2
100
AcDbPolyline
 90
        4
 70
     0
 43
0.0
 10
4784.5
 20
93.8
 10
4784.5
 20
97.40000000000001
 10
4781.8
 20
97.40000000000001
 10
4781.8
 20
93.8
  0
LWPOLYLINE
  5
C7
330
19
100
AcDbEntity
  8
1
  6
Continuous
 62
     2
100
AcDbPolyline
 90
        4
 70
     0
 43
0.0
 10
4784.5
 20
85.7
 10
4789.0
 20
85.7
 10
4789.0
 20
83.0
 10
4784.5
 20
83.0
  0
LINE
  5
CD
330
19
100
AcDbEntity
  8
1
  6
Continuous
 62
     2
100
AcDbLine
 10
4784.5
 20
85.7
 30
0.0
 11
4784.5
 21
91.09999999999999
 31
0.0
  0
LWPOLYLINE
  5
CE
330
19
100
AcDbEntity
  8
1
  6
Continuous
 62
     2
100
AcDbPolyline
 90
        6
 70
     0
 43
0.0
 10
4781.8
 20
91.09999999999999
 10
4780.0
 20
91.09999999999999
 10
4777.3
 20
91.09999999999999
 10
4776.399999999999
 20
92.9
 10
4777.3
 20
97.40000000000001
 10
4780.0
 20
97.40000000000001
  0
LWPOLYLINE
  5
D6
330
19
100
AcDbEntity
  8
1
  6
Continuous
 62
     2
100
AcDbPolyline
 90
        4
 70
     0
 43
0.0
 10
4777.3
 20
97.40000000000001
 10
4780.0
 20
97.40000000000001
 10
4779.1
 20
93.8
 10
4781.8
 20
93.8
  0
ARC
  5
DC
330
19
100
AcDbEntity
  8
1
  6
Continuous
 62
     2
100
AcDbCircle
 10
4770.55
 20
86.15
 30
0.0
 40
14.6923
100
AcDbArc
 50
297.3489999999999
 51
319.9689999999999
  0
ARC
  5
DD
330
19
100
AcDbEntity
  8
1
  6
Continuous
 62
     2
100
AcDbCircle
 10
4792.149999999999
 20
83.45
 30
0.0
 40
9.1118
100
AcDbArc
 50
212.9049999999999
 51
249.7749999999999
  0
LINE
  5
DE
330
19
100
AcDbEntity
  8
1
  6
Continuous
 62
     2
100
AcDbLine
 10
4777.3
 20
73.09999999999999
 30
0.0
 11
4777.3
 21
76.7
 31
0.0
  0
LINE
  5
DF
330
19
100
AcDbEntity
  8
1
  6
Continuous
 62
     2
100
AcDbLine
 10
4789.0
 20
78.5
 30
0.0
 11
4789.0
 21
74.90000000000001
 31
0.0
  0
LWPOLYLINE
  5
E0
330
19
100
AcDbEntity
  8
1
  6
Continuous
 62
     2
100
AcDbPolyline
 90
       13
 70
     0
 43
0.0
 10
4793.5
 20
85.7
 10
4806.1
 20
85.7
 10
4806.1
 20
83.0
 10
4801.6
 20
83.0
 10
4801.6
 20
74.0
 10
4806.1
 20
74.90000000000001
 10
4806.1
 20
71.29999999999999
 10
4793.5
 20
67.7
 10
4793.5
 20
71.29999999999999
 10
4798.0
 20
73.09999999999999
 10
4798.0
 20
83.0
 10
4793.5
 20
83.0
 10
4793.5
 20
85.7
  0
LWPOLYLINE
  5
EF
330
19
100
AcDbEntity
  8
1
  6
Continuous
 62
     2
100
AcDbPolyline
 90
        4
 70
     0
 43
0.0
 10
4812.4
 20
94.7
 10
4812.4
 20
97.40000000000001
 10
4815.100000000001
 20
97.40000000000001
 10
4815.100000000001
 20
92.9
  0
ARC
  5
F5
330
19
100
AcDbEntity
  8
1
  6
Continuous
 62
     2
100
AcDbCircle
 10
4811.5
 20
94.7
 30
0.0
 40
0.9
100
AcDbArc
 50
270.0
 51
0.0
  0
LWPOLYLINE
  5
F6
330
19
100
AcDbEntity
  8
1
  6
Continuous
 62
     2
100
AcDbPolyline
 90
       13
 70
     0
 43
0.0
 10
4813.3
 20
91.09999999999999
 10
4811.5
 20
91.09999999999999
 10
4810.6
 20
91.09999999999999
 10
4815.100000000001
 20
67.7
 10
4812.4
 20
67.7
 10
4807.9
 20
91.09999999999999
 10
4793.5
 20
91.09999999999999
 10
4793.5
 20
93.8
 10
4807.0
 20
93.8
 10
4806.1
 20
97.40000000000001
 10
4808.8
 20
97.40000000000001
 10
4809.7
 20
93.8
 10
4811.5
 20
93.8
  0
LWPOLYLINE
  5
105
330
19
100
AcDbEntity
  8
1
  6
Continuous
 62
     2
100
AcDbPolyline
 90
        4
 70
     0
 43
0.0
 10
4808.8
 20
51.5
 10
4805.2
 20
51.5
 10
4805.2
 20
48.79999999999999
 10
4808.8
 20
48.79999999999999
  0
LWPOLYLINE
  5
10B
330
19
100
AcDbEntity
  8
1
  6
Continuous
 62
     2
100
AcDbPolyline
 90
        4
 70
     0
 43
0.0
 10
4811.5
 20
48.79999999999999
 10
4815.100000000001
 20
48.79999999999999
 10
4815.100000000001
 20
51.5
 10
4811.5
 20
51.5
  0
LWPOLYLINE
  5
111
330
19
100
AcDbEntity
  8
1
  6
Continuous
 62
     2
100
AcDbPolyline
 90
        4
 70
     0
 43
0.0
 10
4811.5
 20
51.5
 10
4811.5
 20
61.4
 10
4808.8
 20
61.4
 10
4808.8
 20
51.5
  0
LWPOLYLINE
  5
117
330
19
100
AcDbEntity
  8
1
  6
Continuous
 62
     2
100
AcDbPolyline
 90
        8
 70
     0
 43
0.0
 10
4808.8
 20
48.79999999999999
 10
4808.8
 20
32.6
 10
4804.300000000001
 20
32.6
 10
4804.300000000001
 20
29.9
 10
4816.0
 20
29.9
 10
4816.0
 20
32.6
 10
4811.5
 20
32.6
 10
4811.5
 20
48.79999999999999
  0
ARC
  5
121
330
19
100
AcDbEntity
  8
1
  6
Continuous
 62
     2
100
AcDbCircle
 10
4773.74
 20
33.5
 30
0.0
 40
0.9
100
AcDbArc
 50
142.125
 51
270.0
  0
LWPOLYLINE
  5
122
330
19
100
AcDbEntity
  8
1
  6
Continuous
 62
     2
100
AcDbPolyline
 90
        4
 70
     0
 43
0.0
 10
4789.29
 20
33.8074
 10
4787.2
 20
38.0
 10
4784.5
 20
38.0
 10
4786.699999999999
 20
33.8342
  0
ARC
  5
128
330
19
100
AcDbEntity
  8
1
  6
Continuous
 62
     2
100
AcDbCircle
 10
4785.87
 20
33.5
 30
0.0
 40
0.9
100
AcDbArc
 50
270.0
 51
21.8014
  0
LINE
  5
129
330
19
100
AcDbEntity
  8
1
  6
Continuous
 62
     2
100
AcDbLine
 10
4785.87
 20
32.6
 30
0.0
 11
4773.74
 21
32.6
 31
0.0
  0
LWPOLYLINE
  5
12A
330
19
100
AcDbEntity
  8
1
  6
Continuous
 62
     2
100
AcDbPolyline
 90
        4
 70
     0
 43
0.0
 10
4798.0
 20
56.9
 10
4798.0
 20
61.4
 10
4800.699999999999
 20
61.4
 10
4800.699999999999
 20
56.9
  0
ARC
  5
130
330
19
100
AcDbEntity
  8
1
  6
Continuous
 62
     2
100
AcDbCircle
 10
4801.6
 20
53.3
 30
0.0
 40
0.9
100
AcDbArc
 50
323.13
 51
90.0
  0
LWPOLYLINE
  5
131
330
19
100
AcDbEntity
  8
1
  6
Continuous
 62
     2
100
AcDbPolyline
 90
        4
 70
     0
 43
0.0
 10
4801.6
 20
54.2
 10
4793.5
 20
54.2
 10
4793.5
 20
56.9
 10
4798.0
 20
56.9
  0
LWPOLYLINE
  5
137
330
19
100
AcDbEntity
  8
1
  6
Continuous
 62
     2
100
AcDbPolyline
 90
        4
 70
     0
 43
0.0
 10
4798.899999999999
 20
43.475
 10
4793.5
 20
36.2
 10
4793.5
 20
40.7
 10
4802.319999999999
 20
52.75999999999999
  0
LWPOLYLINE
  5
13D
330
19
100
AcDbEntity
  8
1
  6
Continuous
 62
     2
100
AcDbPolyline
 90
        4
 70
     0
 43
0.0
 10
4798.899999999999
 20
43.475
 10
4798.899999999999
 20
29.9
 10
4801.6
 20
29.9
 10
4801.6
 20
44.29999999999999
  0
LWPOLYLINE
  5
143
330
19
100
AcDbEntity
  8
1
  6
Continuous
 62
     2
100
AcDbPolyline
 90
        4
 70
     0
 43
0.0
 10
4801.22
 20
47.1486
 10
4806.1
 20
45.2
 10
4806.1
 20
41.6
 10
4801.6
 20
44.29999999999999
  0
LWPOLYLINE
  5
149
330
19
100
AcDbEntity
  8
1
  6
Continuous
 62
     2
100
AcDbPolyline
 90
        5
 70
     0
 43
0.0
 10
4830.4
 20
102.8
 10
4830.4
 20
94.7
 10
4851.1
 20
89.29999999999999
 10
4851.1
 20
97.40000000000001
 10
4830.4
 20
102.8
  0
LWPOLYLINE
  5
150
330
19
100
AcDbEntity
  8
1
  6
Continuous
 62
     2
100
AcDbPolyline
 90
        5
 70
     0
 43
0.0
 10
4830.4
 20
83.0
 10
4830.4
 20
74.90000000000001
 10
4851.1
 20
68.59999999999999
 10
4851.1
 20
77.59999999999999
 10
4830.4
 20
83.0
  0
LWPOLYLINE
  5
157
330
19
100
AcDbEntity
  8
1
  6
Continuous
 62
     2
100
AcDbPolyline
 90
        4
 70
     0
 43
0.0
 10
4872.7
 20
97.40000000000001
 10
4872.7
 20
102.8
 10
4880.8
 20
102.8
 10
4880.8
 20
97.40000000000001
  0
LINE
  5
15D
330
19
100
AcDbEntity
  8
1
  6
Continuous
 62
     2
100
AcDbLine
 10
4880.8
 20
97.40000000000001
 30
0.0
 11
4895.199999999999
 21
97.40000000000001
 31
0.0
  0
ARC
  5
15E
330
19
100
AcDbEntity
  8
1
  6
Continuous
 62
     2
100
AcDbCircle
 10
4890.699999999999
 20
89.29999999999999
 30
0.0
 40
1.8
100
AcDbArc
 50
0.0
 51
90.0
  0
LWPOLYLINE
  5
15F
330
19
100
AcDbEntity
  8
1
  6
Continuous
 62
     2
100
AcDbPolyline
 90
        4
 70
     0
 43
0.0
 10
4900.6
 20
92.0
 10
4900.6
 20
82.09999999999999
 10
4892.5
 20
82.09999999999999
 10
4892.5
 20
89.29999999999999
  0
ARC
  5
165
330
19
100
AcDbEntity
  8
1
  6
Continuous
 62
     2
100
AcDbCircle
 10
4861.9
 20
32.6
 30
0.0
 40
7.2
100
AcDbArc
 50
180.0
 51
270.0
  0
ARC
  5
166
330
19
100
AcDbEntity
  8
1
  6
Continuous
 62
     2
100
AcDbCircle
 10
4864.600000000001
 20
89.29999999999999
 30
0.0
 40
1.8
100
AcDbArc
 50
90.0
 51
180.0
  0
LINE
  5
167
330
19
100
AcDbEntity
  8
1
  6
Continuous
 62
     2
100
AcDbLine
 10
4890.699999999999
 20
91.09999999999999
 30
0.0
 11
4864.600000000001
 21
91.09999999999999
 31
0.0
  0
LWPOLYLINE
  5
168
330
19
100
AcDbEntity
  8
1
  6
Continuous
 62
     2
100
AcDbPolyline
 90
        5
 70
     0
 43
0.0
 10
4862.8
 20
89.29999999999999
 10
4862.8
 20
82.09999999999999
 10
4854.7
 20
82.09999999999999
 10
4854.7
 20
97.40000000000001
 10
4872.7
 20
97.40000000000001
  0
LWPOLYLINE
  5
16F
330
19
100
AcDbEntity
  8
1
  6
Continuous
 62
     2
100
AcDbPolyline
 90
        6
 70
     0
 43
0.0
 10
4880.8
 20
68.59999999999999
 10
4900.6
 20
68.59999999999999
 10
4900.6
 20
76.7
 10
4854.7
 20
76.7
 10
4854.7
 20
68.59999999999999
 10
4872.7
 20
68.59999999999999
  0
LWPOLYLINE
  5
177
330
19
100
AcDbEntity
  8
1
  6
Continuous
 62
     2
100
AcDbPolyline
 90
        3
 70
     0
 43
0.0
 10
4863.7
 20
62.3
 10
4854.7
 20
62.3
 10
4854.7
 20
32.6
  0
LWPOLYLINE
  5
17C
330
19
100
AcDbEntity
  8
1
  6
Continuous
 62
     2
100
AcDbPolyline
 90
        4
 70
     0
 43
0.0
 10
4834.0
 20
37.1
 10
4830.4
 20
37.1
 10
4830.4
 20
25.4
 10
4832.2
 20
25.4
  0
ARC
  5
182
330
19
100
AcDbEntity
  8
1
  6
Continuous
 62
     2
100
AcDbCircle
 10
4834.0
 20
45.2
 30
0.0
 40
8.099999999999999
100
AcDbArc
 50
270.0
 51
0.0
  0
LWPOLYLINE
  5
183
330
19
100
AcDbEntity
  8
1
  6
Continuous
 62
     2
100
AcDbPolyline
 90
        4
 70
     0
 43
0.0
 10
4851.1
 20
44.29999999999999
 10
4851.1
 20
57.8
 10
4842.100000000001
 20
57.8
 10
4842.100000000001
 20
45.2
  0
ARC
  5
189
330
19
100
AcDbEntity
  8
1
  6
Continuous
 62
     2
100
AcDbCircle
 10
4832.2
 20
44.29999999999999
 30
0.0
 40
18.89999999999999
100
AcDbArc
 50
270.0
 51
0.0
  0
LWPOLYLINE
  5
18A
330
19
100
AcDbEntity
  8
1
  6
Continuous
 62
     2
100
AcDbPolyline
 90
        9
 70
     0
 43
0.0
 10
4861.9
 20
25.4
 10
4900.6
 20
25.4
 10
4900.6
 20
37.1
 10
4880.8
 20
37.1
 10
4880.8
 20
48.79999999999999
 10
4900.6
 20
48.79999999999999
 10
4900.6
 20
56.9
 10
4880.8
 20
56.9
 10
4880.8
 20
68.59999999999999
  0
LINE
  5
195
330
19
100
AcDbEntity
  8
1
  6
Continuous
 62
     2
100
AcDbLine
 10
4863.7
 20
39.8
 30
0.0
 11
4863.7
 21
62.3
 31
0.0
  0
ARC
  5
196
330
19
100
AcDbEntity
  8
1
  6
Continuous
 62
     2
100
AcDbCircle
 10
4866.399999999999
 20
39.8
 30
0.0
 40
2.7
100
AcDbArc
 50
180.0
 51
270.0
  0
LWPOLYLINE
  5
197
330
19
100
AcDbEntity
  8
1
  6
Continuous
 62
     2
100
AcDbPolyline
 90
        3
 70
     0
 43
0.0
 10
4872.7
 20
68.59999999999999
 10
4872.7
 20
37.1
 10
4866.399999999999
 20
37.1
  0
ARC
  5
19C
330
19
100
AcDbEntity
  8
1
  6
Continuous
 62
     2
100
AcDbCircle
 10
4918.600000000001
 20
46.1
 30
0.0
 40
7.2
100
AcDbArc
 50
270.0
 51
0.0
  0
LWPOLYLINE
  5
19D
330
19
100
AcDbEntity
  8
1
  6
Continuous
 62
     2
100
AcDbPolyline
 90
        4
 70
     0
 43
0.0
 10
4925.8
 20
46.1
 10
4925.8
 20
102.8
 10
4935.7
 20
102.8
 10
4935.7
 20
46.1
  0
LWPOLYLINE
  5
1A3
330
19
100
AcDbEntity
  8
1
  6
Continuous
 62
     2
100
AcDbPolyline
 90
        3
 70
     0
 43
0.0
 10
4915.9
 20
25.41949999999999
 10
4915.9
 20
38.9
 10
4918.600000000001
 20
38.9
  0
ARC
  5
1A8
330
19
100
AcDbEntity
  8
1
  6
Continuous
 62
     2
100
AcDbCircle
 10
4915.0
 20
46.1
 30
0.0
 40
20.69999999999999
100
AcDbArc
 50
272.4909999999999
 51
0.0
  0
LWPOLYLINE
  5
1A9
330
19
100
AcDbEntity
  8
1
  6
Continuous
 62
     2
100
AcDbPolyline
 90
        5
 70
     0
 43
0.0
 10
4960.0
 20
101.0
 10
4951.0
 20
101.0
 10
4951.0
 20
33.5
 10
4960.0
 20
33.5
 10
4960.0
 20
101.0
  0
LWPOLYLINE
  5
1B0
330
19
100
AcDbEntity
  8
1
  6
Continuous
 62
     2
100
AcDbPolyline
 90
        5
 70
     0
 43
0.0
 10
4984.300000000001
 20
102.8
 10
4974.4
 20
102.8
 10
4974.4
 20
25.4
 10
4984.300000000001
 20
25.4
 10
4984.300000000001
 20
102.8
  0
LWPOLYLINE
  5
1B7
330
19
100
AcDbEntity
  8
1
  6
Continuous
 62
     2
100
AcDbPolyline
 90
        5
 70
     0
 43
0.0
 10
5061.7
 20
102.8
 10
5055.399999999999
 20
102.8
 10
5055.399999999999
 20
74.90000000000001
 10
5061.7
 20
74.90000000000001
 10
5061.7
 20
102.8
  0
LWPOLYLINE
  5
1BE
330
19
100
AcDbEntity
  8
1
  6
Continuous
 62
     2
100
AcDbPolyline
 90
        3
 70
     0
 43
0.0
 10
5074.3
 20
102.8
 10
5081.5
 20
102.8
 10
5081.5
 20
69.5
  0
LWPOLYLINE
  5
1C3
330
19
100
AcDbEntity
  8
1
  6
Continuous
 62
     2
100
AcDbPolyline
 90
        4
 70
     0
 43
0.0
 10
5072.5
 20
60.5
 10
5055.399999999999
 20
60.5
 10
5055.399999999999
 20
67.7
 10
5070.7
 20
67.7
  0
LWPOLYLINE
  5
1C9
330
19
100
AcDbEntity
  8
1
  6
Continuous
 62
     2
100
AcDbPolyline
 90
        3
 70
     0
 43
0.0
 10
5074.3
 20
71.29999999999999
 10
5074.3
 20
102.8
 10
5081.5
 20
102.8
  0
ARC
  5
1CE
330
19
100
AcDbEntity
  8
1
  6
Continuous
 62
     2
100
AcDbCircle
 10
5070.7
 20
71.29999999999999
 30
0.0
 40
3.6
100
AcDbArc
 50
270.0
 51
0.0
  0
ARC
  5
1CF
330
19
100
AcDbEntity
  8
1
  6
Continuous
 62
     2
100
AcDbCircle
 10
5072.5
 20
69.5
 30
0.0
 40
9.0
100
AcDbArc
 50
270.0
 51
0.0
  0
LWPOLYLINE
  5
1D0
330
19
100
AcDbEntity
  8
1
  6
Continuous
 62
     2
100
AcDbPolyline
 90
       35
 70
     0
 43
0.0
 10
5005.0
 20
102.8
 10
5011.3
 20
102.8
 10
5011.3
 20
97.40000000000001
 10
5023.0
 20
97.40000000000001
 10
5023.0
 20
102.8
 10
5030.2
 20
102.8
 10
5030.2
 20
97.40000000000001
 10
5049.100000000001
 20
97.40000000000001
 10
5049.100000000001
 20
92.0
 10
5030.2
 20
92.0
 10
5030.2
 20
86.6
 10
5049.100000000001
 20
86.6
 10
5049.100000000001
 20
81.2
 10
5030.2
 20
81.2
 10
5030.2
 20
74.0
 10
5049.100000000001
 20
74.0
 10
5049.100000000001
 20
60.5
 10
5041.9
 20
60.5
 10
5041.9
 20
69.5
 10
5030.2
 20
69.5
 10
5030.2
 20
60.5
 10
5023.0
 20
60.5
 10
5023.0
 20
69.5
 10
5011.3
 20
69.5
 10
5011.3
 20
60.5
 10
5005.0
 20
60.5
 10
5005.0
 20
74.0
 10
5023.0
 20
74.0
 10
5023.0
 20
81.2
 10
5005.0
 20
81.2
 10
5005.0
 20
86.6
 10
5023.0
 20
86.6
 10
5023.0
 20
92.0
 10
5005.0
 20
92.0
 10
5005.0
 20
102.8
  0
LWPOLYLINE
  5
1F5
330
19
100
AcDbEntity
  8
1
  6
Continuous
 62
     2
100
AcDbPolyline
 90
        4
 70
     0
 43
0.0
 10
5038.3
 20
55.1
 10
5005.0
 20
55.1
 10
5005.0
 20
50.6
 10
5018.5
 20
50.6
  0
LWPOLYLINE
  5
1FB
330
19
100
AcDbEntity
  8
1
  6
Continuous
 62
     2
100
AcDbPolyline
 90
        4
 70
     0
 43
0.0
 10
5038.3
 20
55.1
 10
5038.3
 20
59.6
 10
5046.4
 20
59.6
 10
5046.4
 20
55.1
  0
LINE
  5
201
330
19
100
AcDbEntity
  8
1
  6
Continuous
 62
     2
100
AcDbLine
 10
5026.600000000001
 20
50.6
 30
0.0
 11
5039.2
 21
50.6
 31
0.0
  0
LWPOLYLINE
  5
202
330
19
100
AcDbEntity
  8
1
  6
Continuous
 62
     2
100
AcDbPolyline
 90
        6
 70
     0
 43
0.0
 10
5019.4
 20
38.9
 10
5019.4
 20
25.4
 10
5043.7
 20
33.5
 10
5043.7
 20
40.7
 10
5026.600000000001
 20
35.29999999999999
 10
5026.600000000001
 20
50.6
  0
LWPOLYLINE
  5
20A
330
19
100
AcDbEntity
  8
1
  6
Continuous
 62
     2
100
AcDbPolyline
 90
        4
 70
     0
 43
0.0
 10
5047.3
 20
50.6
 10
5081.5
 20
50.6
 10
5081.5
 20
55.1
 10
5046.4
 20
55.1
  0
LINE
  5
210
330
19
100
AcDbEntity
  8
1
  6
Continuous
 62
     2
100
AcDbLine
 10
5081.5
 20
37.1
 30
0.0
 11
5081.5
 21
25.4
 31
0.0
  0
ARC
  5
211
330
19
100
AcDbEntity
  8
1
  6
Continuous
 62
     2
100
AcDbCircle
 10
5082.63
 20
90.0455
 30
0.0
 40
52.9576
100
AcDbArc
 50
228.146
 51
247.952
  0
ARC
  5
212
330
19
100
AcDbEntity
  8
1
  6
Continuous
 62
     2
100
AcDbCircle
 10
5082.63
 20
90.0455
 30
0.0
 40
52.9576
100
AcDbArc
 50
256.281
 51
268.7709999999999
  0
LWPOLYLINE
  5
213
330
19
100
AcDbEntity
  8
1
  6
Continuous
 62
     2
100
AcDbPolyline
 90
        4
 70
     0
 43
0.0
 10
5062.75
 20
40.9604
 10
5066.2
 20
47.0
 10
5074.3
 20
47.0
 10
5070.07
 20
38.59859999999999
  0
LWPOLYLINE
  5
219
330
19
100
AcDbEntity
  8
1
  6
Continuous
 62
     2
100
AcDbPolyline
 90
        7
 70
     0
 43
0.0
 10
5100.4
 20
76.7
 10
5100.4
 20
89.29999999999999
 10
5115.7
 20
105.4999999999999
 10
5131.899999999999
 20
92.0
 10
5131.899999999999
 20
80.29999999999999
 10
5115.7
 20
93.8
 10
5100.4
 20
76.7
  0
LWPOLYLINE
  5
222
330
19
100
AcDbEntity
  8
1
  6
Continuous
 62
     2
100
AcDbPolyline
 90
        6
 70
     0
 43
0.0
 10
5120.2
 20
65.0
 10
5131.899999999999
 20
65.0
 10
5131.899999999999
 20
72.2
 10
5100.4
 20
72.2
 10
5100.4
 20
65.0
 10
5111.2
 20
65.0
  0
LWPOLYLINE
  5
22A
330
19
100
AcDbEntity
  8
1
  6
Continuous
 62
     2
100
AcDbPolyline
 90
        4
 70
     0
 43
0.0
 10
5111.2
 20
57.8
 10
5100.4
 20
57.8
 10
5100.4
 20
50.6
 10
5111.2
 20
50.6
  0
LWPOLYLINE
  5
230
330
19
100
AcDbEntity
  8
1
  6
Continuous
 62
     2
100
AcDbPolyline
 90
        4
 70
     0
 43
0.0
 10
5120.2
 20
50.6
 10
5131.899999999999
 20
50.6
 10
5131.899999999999
 20
57.8
 10
5120.2
 20
57.8
  0
LINE
  5
236
330
19
100
AcDbEntity
  8
1
  6
Continuous
 62
     2
100
AcDbLine
 10
5111.2
 20
65.0
 30
0.0
 11
5111.2
 21
57.8
 31
0.0
  0
LINE
  5
237
330
19
100
AcDbEntity
  8
1
  6
Continuous
 62
     2
100
AcDbLine
 10
5120.2
 20
65.0
 30
0.0
 11
5120.2
 21
57.8
 31
0.0
  0
LINE
  5
238
330
19
100
AcDbEntity
  8
1
  6
Continuous
 62
     2
100
AcDbLine
 10
5111.2
 20
50.6
 30
0.0
 11
5111.2
 21
37.1
 31
0.0
  0
LWPOLYLINE
  5
239
330
19
100
AcDbEntity
  8
1
  6
Continuous
 62
     2
100
AcDbPolyline
 90
        4
 70
     0
 43
0.0
 10
5124.7
 20
25.4
 10
5100.4
 20
25.4
 10
5100.4
 20
37.1
 10
5111.2
 20
37.1
  0
LINE
  5
23F
330
19
100
AcDbEntity
  8
1
  6
Continuous
 62
     2
100
AcDbLine
 10
5120.2
 20
50.6
 30
0.0
 11
5120.2
 21
37.1
 31
0.0
  0
LWPOLYLINE
  5
240
330
19
100
AcDbEntity
  8
1
  6
Continuous
 62
     2
100
AcDbPolyline
 90
        5
 70
     0
 43
0.0
 10
5100.4
 20
45.2
 10
5100.4
 20
41.6
 10
5107.600000000001
 20
41.6
 10
5107.600000000001
 20
45.2
 10
5100.4
 20
45.2
  0
LWPOLYLINE
  5
247
330
19
100
AcDbEntity
  8
1
  6
Continuous
 62
     2
100
AcDbPolyline
 90
        4
 70
     0
 43
0.0
 10
5149.899999999999
 20
74.0
 10
5145.4
 20
74.0
 10
5145.4
 20
67.7
 10
5154.399999999999
 20
67.7
  0
LWPOLYLINE
  5
24D
330
19
100
AcDbEntity
  8
1
  6
Continuous
 62
     2
100
AcDbPolyline
 90
        4
 70
     0
 43
0.0
 10
5159.8
 20
67.7
 10
5167.899999999999
 20
67.7
 10
5167.899999999999
 20
74.0
 10
5163.4
 20
74.0
  0
LWPOLYLINE
  5
253
330
19
100
AcDbEntity
  8
1
  6
Continuous
 62
     2
100
AcDbPolyline
 90
        8
 70
     0
 43
0.0
 10
5149.899999999999
 20
74.0
 10
5144.5
 20
89.29999999999999
 10
5149.899999999999
 20
89.29999999999999
 10
5155.3
 20
74.0
 10
5158.0
 20
74.0
 10
5162.5
 20
89.29999999999999
 10
5168.8
 20
89.29999999999999
 10
5163.4
 20
74.0
  0
LWPOLYLINE
  5
25D
330
19
100
AcDbEntity
  8
1
  6
Continuous
 62
     2
100
AcDbPolyline
 90
        5
 70
     0
 43
0.0
 10
5145.4
 20
60.5
 10
5150.8
 20
60.5
 10
5150.8
 20
40.7
 10
5154.399999999999
 20
40.7
 10
5154.399999999999
 20
67.7
  0
LWPOLYLINE
  5
264
330
19
100
AcDbEntity
  8
1
  6
Continuous
 62
     2
100
AcDbPolyline
 90
        3
 70
     0
 43
0.0
 10
5145.4
 20
60.5
 10
5145.4
 20
33.5
 10
5168.8
 20
33.5
  0
LWPOLYLINE
  5
269
330
19
100
AcDbEntity
  8
1
  6
Continuous
 62
     2
100
AcDbPolyline
 90
        6
 70
     0
 43
0.0
 10
5159.8
 20
67.7
 10
5159.8
 20
40.7
 10
5163.4
 20
40.7
 10
5163.4
 20
60.5
 10
5168.8
 20
60.5
 10
5168.8
 20
33.5
  0
LWPOLYLINE
  5
271
330
19
100
AcDbEntity
  8
1
  6
Continuous
 62
     2
100
AcDbPolyline
 90
        4
 70
     0
 43
0.0
 10
5173.300000000001
 20
25.4
 10
5168.8
 20
25.4
 10
5168.8
 20
39.8
 10
5170.6
 20
39.8
  0
ARC
  5
277
330
19
100
AcDbEntity
  8
1
  6
Continuous
 62
     2
100
AcDbCircle
 10
5170.6
 20
41.6
 30
0.0
 40
1.8
100
AcDbArc
 50
270.0
 51
0.0
  0
LWPOLYLINE
  5
278
330
19
100
AcDbEntity
  8
1
  6
Continuous
 62
     2
100
AcDbPolyline
 90
        8
 70
     0
 43
0.0
 10
5172.399999999999
 20
41.6
 10
5172.399999999999
 20
96.5
 10
5140.9
 20
96.5
 10
5140.9
 20
25.4
 10
5134.6
 20
25.4
 10
5134.6
 20
103.7
 10
5178.7
 20
103.7
 10
5178.7
 20
30.8
  0
ARC
  5
282
330
19
100
AcDbEntity
  8
1
  6
Continuous
 62
     2
100
AcDbCircle
 10
5124.7
 20
39.8
 30
0.0
 40
2.7
100
AcDbArc
 50
270.0
 51
0.0
  0
LINE
  5
283
330
19
100
AcDbEntity
  8
1
  6
Continuous
 62
     2
100
AcDbLine
 10
5120.2
 20
37.1
 30
0.0
 11
5124.7
 21
37.1
 31
0.0
  0
LWPOLYLINE
  5
284
330
19
100
AcDbEntity
  8
1
  6
Continuous
 62
     2
100
AcDbPolyline
 90
        4
 70
     0
 43
0.0
 10
5127.4
 20
39.8
 10
5127.4
 20
47.0
 10
5131.899999999999
 20
47.0
 10
5131.899999999999
 20
32.6
  0
LWPOLYLINE
  5
28A
330
19
100
AcDbEntity
  8
1
  6
Continuous
 62
     2
100
AcDbPolyline
 90
        5
 70
     0
 43
0.0
 10
5201.2
 20
93.8
 10
5234.5
 20
93.8
 10
5234.5
 20
102.8
 10
5201.2
 20
102.8
 10
5201.2
 20
93.8
  0
LWPOLYLINE
  5
291
330
19
100
AcDbEntity
  8
1
  6
Continuous
 62
     2
100
AcDbPolyline
 90
        5
 70
     0
 43
0.0
 10
5208.4
 20
78.5
 10
5208.4
 20
69.5
 10
5227.3
 20
69.5
 10
5227.3
 20
78.5
 10
5208.4
 20
78.5
  0
ARC
  5
298
330
19
100
AcDbEntity
  8
1
  6
Continuous
 62
     2
100
AcDbCircle
 10
5193.100000000001
 20
46.1
 30
0.0
 40
8.099999999999999
100
AcDbArc
 50
270.0
 51
0.0
  0
LWPOLYLINE
  5
299
330
19
100
AcDbEntity
  8
1
  6
Continuous
 62
     2
100
AcDbPolyline
 90
        6
 70
     0
 43
0.0
 10
5208.4
 20
43.39999999999999
 10
5208.4
 20
61.4
 10
5233.6
 20
61.4
 10
5233.6
 20
85.7
 10
5201.2
 20
85.7
 10
5201.2
 20
46.1
  0
LINE
  5
2A1
330
19
100
AcDbEntity
  8
1
  6
Continuous
 62
     2
100
AcDbLine
 10
5225.5
 20
25.4
 30
0.0
 11
5225.5
 21
38.0
 31
0.0
  0
ARC
  5
2A2
330
19
100
AcDbEntity
  8
1
  6
Continuous
 62
     2
100
AcDbCircle
 10
5225.5
 20
51.5
 30
0.0
 40
13.5
100
AcDbArc
 50
270.0
 51
0.0
  0
ARC
  5
2A3
330
19
100
AcDbEntity
  8
1
  6
Continuous
 62
     2
100
AcDbCircle
 10
5225.5
 20
47.0
 30
0.0
 40
21.6
100
AcDbArc
 50
270.0
 51
0.0
  0
ARC
  5
2A4
330
19
100
AcDbEntity
  8
1
  6
Continuous
 62
     2
100
AcDbCircle
 10
5262.399999999999
 20
94.7
 30
0.0
 40
6.299999999999999
100
AcDbArc
 50
270.0
 51
0.0
  0
LWPOLYLINE
  5
2A5
330
19
100
AcDbEntity
  8
1
  6
Continuous
 62
     2
100
AcDbPolyline
 90
        3
 70
     0
 43
0.0
 10
5262.399999999999
 20
88.40000000000001
 10
5247.1
 20
88.40000000000001
 10
5247.1
 20
82.09999999999999
  0
ARC
  5
2AA
330
19
100
AcDbEntity
  8
1
  6
Continuous
 62
     2
100
AcDbCircle
 10
5258.8
 20
98.3
 30
0.0
 40
1.8
100
AcDbArc
 50
270.0
 51
0.0
  0
LWPOLYLINE
  5
2AB
330
19
100
AcDbEntity
  8
1
  6
Continuous
 62
     2
100
AcDbPolyline
 90
        3
 70
     0
 43
0.0
 10
5239.0
 20
51.5
 10
5239.0
 20
96.5
 10
5258.8
 20
96.5
  0
LWPOLYLINE
  5
2B0
330
19
100
AcDbEntity
  8
1
  6
Continuous
 62
     2
100
AcDbPolyline
 90
        4
 70
     0
 43
0.0
 10
5260.6
 20
98.3
 10
5260.6
 20
102.8
 10
5268.699999999999
 20
102.8
 10
5268.699999999999
 20
94.7
  0
LWPOLYLINE
  5
2B6
330
19
100
AcDbEntity
  8
1
  6
Continuous
 62
     2
100
AcDbPolyline
 90
        8
 70
     0
 43
0.0
 10
5247.1
 20
82.09999999999999
 10
5268.699999999999
 20
82.09999999999999
 10
5268.699999999999
 20
74.0
 10
5263.3
 20
74.0
 10
5263.3
 20
25.4
 10
5255.2
 20
25.4
 10
5255.2
 20
74.0
 10
5247.1
 20
74.0
  0
ARC
  5
2C0
330
19
100
AcDbEntity
  8
1
  6
Continuous
 62
     2
100
AcDbCircle
 10
5190.4
 20
43.39999999999999
 30
0.0
 40
18.0
100
AcDbArc
 50
275.739
 51
0.0
  0
LWPOLYLINE
  5
2C1
330
19
100
AcDbEntity
  8
1
  6
Continuous
 62
     2
100
AcDbPolyline
 90
        3
 70
     0
 43
0.0
 10
5193.100000000001
 20
38.0
 10
5192.199999999999
 20
38.0
 10
5192.199999999999
 20
25.4902
  0
LINE
  5
2C6
330
19
100
AcDbEntity
  8
1
  6
Continuous
 62
     2
100
AcDbLine
 10
5004.96
 20
35.2795
 30
0.0
 11
5004.96
 21
26.28659999999999
 31
0.0
  0
ARC
  5
2C7
330
19
100
AcDbEntity
  8
1
  6
Continuous
 62
     2
100
AcDbCircle
 10
4991.579999999999
 20
60.74539999999999
 30
0.0
 40
28.7666
100
AcDbArc
 50
297.7159999999999
 51
339.348
  0
LINE
  5
2C8
330
19
100
AcDbEntity
  8
1
  6
Continuous
 62
     2
100
AcDbLine
 10
4775.5
 20
40.7
 30
0.0
 11
4769.779999999999
 21
34.25759999999999
 31
0.0
  0
LWPOLYLINE
  5
2C9
330
19
100
AcDbEntity
  8
1
  6
Continuous
 62
     2
100
AcDbPolyline
 90
        6
 70
     0
 43
0.0
 10
4779.1
 20
40.7
 10
4789.9
 20
40.7
 10
4789.9
 20
43.39999999999999
 10
4768.299999999999
 20
43.39999999999999
 10
4768.299999999999
 20
40.7
 10
4775.5
 20
40.7
  0
LINE
  5
2D1
330
19
100
AcDbEntity
  8
1
  6
Continuous
 62
     2
100
AcDbLine
 10
4773.02
 20
34.0525
 30
0.0
 11
4779.1
 21
40.7
 31
0.0
  0
LWPOLYLINE
  5
2D2
330
19
100
AcDbEntity
  8
1
  6
Continuous
 62
     2
100
AcDbPolyline
 90
        5
 70
     0
 43
0.0
 10
4771.0
 20
50.6
 10
4787.2
 20
50.6
 10
4787.2
 20
47.9
 10
4771.0
 20
47.9
 10
4771.0
 20
50.6
  0
LINE
  5
2D9
330
19
100
AcDbEntity
  8
1
  6
Continuous
 62
     1
100
AcDbLine
 10
4790.0
 20
140.0
 30
0.0
 11
4790.0
 21
240.0
 31
0.0
  0
TEXT
  5
2DA
330
19
100
AcDbEntity
  8
1
 62
     1
100
AcDbText
 10
4697.54
 20
149.269
 30
0.0
 40
40.0
  1
三角法
 41
0.75
100
AcDbText
  0
TEXT
  5
2DB
330
19
100
AcDbEntity
  8
1
 62
     3
100
AcDbText
 10
4703.28
 20
207.0759999999999
 30
0.0
 40
25.0
  1
投影法
100
AcDbText
  0
TEXT
  5
2DC
330
19
100
AcDbEntity
  8
1
 62
     3
100
AcDbText
 10
4800.01
 20
196.934
 30
0.0
 40
30.0
  1
図番
 41
0.8333299999999999
100
AcDbText
  0
TEXT
  5
2DD
330
19
100
AcDbEntity
  8
1
 62
     1
100
AcDbText
 10
4886.64
 20
143.245
 30
0.0
 40
80.0
  1
3E-CS4003
 41
0.625
100
AcDbText
  0
ARC
  5
2DE
330
19
100
AcDbEntity
  8
1
  6
Continuous
 62
     2
100
AcDbCircle
 10
2640.5
 20
3675.1
 30
0.0
 40
11.19999999999999
100
AcDbArc
 50
270.0
 51
0.0
  0
LWPOLYLINE
  5
2DF
330
19
100
AcDbEntity
  8
1
  6
Continuous
 62
     2
100
AcDbPolyline
 90
       10
 70
     0
 43
0.0
 10
2505.05
 20
3704.5
 10
2520.45
 20
3704.5
 10
2532.35
 20
3684.2
 10
2542.85
 20
3704.5
 10
2558.25
 20
3704.5
 10
2539.35
 20
3670.199999999999
 10
2539.35
 20
3651.3
 10
2524.65
 20
3651.3
 10
2524.65
 20
3670.199999999999
 10
2505.05
 20
3704.5
  0
POLYLINE
  5
2EB
330
19
100
AcDbEntity
  8
1
  6
Continuous
 62
     2
100
AcDb2dPolyline
 66
     1
 10
0.0
 20
0.0
 30
0.0
 70
     2
  0
VERTEX
  5
2EC
330
2EB
100
AcDbEntity
  8
1
  6
Continuous
 62
     2
100
AcDbVertex
100
AcDb2dVertex
 10
2581.35
 20
3704.5
 30
0.0
  0
VERTEX
  5
2ED
330
2EB
100
AcDbEntity
  8
1
  6
Continuous
 62
     2
100
AcDbVertex
100
AcDb2dVertex
 10
2578.2
 20
3704.29
 30
0.0
  0
VERTEX
  5
2EE
330
2EB
100
AcDbEntity
  8
1
  6
Continuous
 62
     2
100
AcDbVertex
100
AcDb2dVertex
 10
2575.1
 20
3703.67
 30
0.0
  0
VERTEX
  5
2EF
330
2EB
100
AcDbEntity
  8
1
  6
Continuous
 62
     2
100
AcDbVertex
100
AcDb2dVertex
 10
2572.1
 20
3702.64
 30
0.0
  0
VERTEX
  5
2F0
330
2EB
100
AcDbEntity
  8
1
  6
Continuous
 62
     2
100
AcDbVertex
100
AcDb2dVertex
 10
2569.24
 20
3701.22
 30
0.0
  0
VERTEX
  5
2F1
330
2EB
100
AcDbEntity
  8
1
  6
Continuous
 62
     2
100
AcDbVertex
100
AcDb2dVertex
 10
2566.57
 20
3699.44
 30
0.0
  0
VERTEX
  5
2F2
330
2EB
100
AcDbEntity
  8
1
  6
Continuous
 62
     2
100
AcDbVertex
100
AcDb2dVertex
 10
2564.14
 20
3697.33
 30
0.0
  0
VERTEX
  5
2F3
330
2EB
100
AcDbEntity
  8
1
  6
Continuous
 62
     2
100
AcDbVertex
100
AcDb2dVertex
 10
2561.97
 20
3694.9
 30
0.0
  0
VERTEX
  5
2F4
330
2EB
100
AcDbEntity
  8
1
  6
Continuous
 62
     2
100
AcDbVertex
100
AcDb2dVertex
 10
2560.11
 20
3692.21
 30
0.0
  0
VERTEX
  5
2F5
330
2EB
100
AcDbEntity
  8
1
  6
Continuous
 62
     2
100
AcDbVertex
100
AcDb2dVertex
 10
2558.58
 20
3689.3
 30
0.0
  0
VERTEX
  5
2F6
330
2EB
100
AcDbEntity
  8
1
  6
Continuous
 62
     2
100
AcDbVertex
100
AcDb2dVertex
 10
2557.409999999999
 20
3686.2
 30
0.0
  0
VERTEX
  5
2F7
330
2EB
100
AcDbEntity
  8
1
  6
Continuous
 62
     2
100
AcDbVertex
100
AcDb2dVertex
 10
2556.61
 20
3682.98
 30
0.0
  0
VERTEX
  5
2F8
330
2EB
100
AcDbEntity
  8
1
  6
Continuous
 62
     2
100
AcDbVertex
100
AcDb2dVertex
 10
2556.2
 20
3679.67
 30
0.0
  0
VERTEX
  5
2F9
330
2EB
100
AcDbEntity
  8
1
  6
Continuous
 62
     2
100
AcDbVertex
100
AcDb2dVertex
 10
2556.19
 20
3676.34
 30
0.0
  0
VERTEX
  5
2FA
330
2EB
100
AcDbEntity
  8
1
  6
Continuous
 62
     2
100
AcDbVertex
100
AcDb2dVertex
 10
2556.57
 20
3673.03
 30
0.0
  0
VERTEX
  5
2FB
330
2EB
100
AcDbEntity
  8
1
  6
Continuous
 62
     2
100
AcDbVertex
100
AcDb2dVertex
 10
2557.34
 20
3669.8
 30
0.0
  0
VERTEX
  5
2FC
330
2EB
100
AcDbEntity
  8
1
  6
Continuous
 62
     2
100
AcDbVertex
100
AcDb2dVertex
 10
2558.48
 20
3666.69
 30
0.0
  0
VERTEX
  5
2FD
330
2EB
100
AcDbEntity
  8
1
  6
Continuous
 62
     2
100
AcDbVertex
100
AcDb2dVertex
 10
2559.989999999999
 20
3663.76
 30
0.0
  0
VERTEX
  5
2FE
330
2EB
100
AcDbEntity
  8
1
  6
Continuous
 62
     2
100
AcDbVertex
100
AcDb2dVertex
 10
2561.83
 20
3661.059999999999
 30
0.0
  0
VERTEX
  5
2FF
330
2EB
100
AcDbEntity
  8
1
  6
Continuous
 62
     2
100
AcDbVertex
100
AcDb2dVertex
 10
2563.969999999999
 20
3658.61
 30
0.0
  0
VERTEX
  5
300
330
2EB
100
AcDbEntity
  8
1
  6
Continuous
 62
     2
100
AcDbVertex
100
AcDb2dVertex
 10
2566.39
 20
3656.47
 30
0.0
  0
VERTEX
  5
301
330
2EB
100
AcDbEntity
  8
1
  6
Continuous
 62
     2
100
AcDbVertex
100
AcDb2dVertex
 10
2569.05
 20
3654.659999999999
 30
0.0
  0
VERTEX
  5
302
330
2EB
100
AcDbEntity
  8
1
  6
Continuous
 62
     2
100
AcDbVertex
100
AcDb2dVertex
 10
2571.9
 20
3653.219999999999
 30
0.0
  0
VERTEX
  5
303
330
2EB
100
AcDbEntity
  8
1
  6
Continuous
 62
     2
100
AcDbVertex
100
AcDb2dVertex
 10
2574.889999999999
 20
3652.17
 30
0.0
  0
VERTEX
  5
304
330
2EB
100
AcDbEntity
  8
1
  6
Continuous
 62
     2
100
AcDbVertex
100
AcDb2dVertex
 10
2577.989999999999
 20
3651.51
 30
0.0
  0
VERTEX
  5
305
330
2EB
100
AcDbEntity
  8
1
  6
Continuous
 62
     2
100
AcDbVertex
100
AcDb2dVertex
 10
2581.139999999999
 20
3651.28
 30
0.0
  0
VERTEX
  5
306
330
2EB
100
AcDbEntity
  8
1
  6
Continuous
 62
     2
100
AcDbVertex
100
AcDb2dVertex
 10
2584.29
 20
3651.46
 30
0.0
  0
VERTEX
  5
307
330
2EB
100
AcDbEntity
  8
1
  6
Continuous
 62
     2
100
AcDbVertex
100
AcDb2dVertex
 10
2587.4
 20
3652.05
 30
0.0
  0
VERTEX
  5
308
330
2EB
100
AcDbEntity
  8
1
  6
Continuous
 62
     2
100
AcDbVertex
100
AcDb2dVertex
 10
2590.41
 20
3653.05
 30
0.0
  0
VERTEX
  5
309
330
2EB
100
AcDbEntity
  8
1
  6
Continuous
 62
     2
100
AcDbVertex
100
AcDb2dVertex
 10
2593.29
 20
3654.44
 30
0.0
  0
VERTEX
  5
30A
330
2EB
100
AcDbEntity
  8
1
  6
Continuous
 62
     2
100
AcDbVertex
100
AcDb2dVertex
 10
2595.969999999999
 20
3656.2
 30
0.0
  0
VERTEX
  5
30B
330
2EB
100
AcDbEntity
  8
1
  6
Continuous
 62
     2
100
AcDbVertex
100
AcDb2dVertex
 10
2598.43
 20
3658.3
 30
0.0
  0
VERTEX
  5
30C
330
2EB
100
AcDbEntity
  8
1
  6
Continuous
 62
     2
100
AcDbVertex
100
AcDb2dVertex
 10
2600.61
 20
3660.7
 30
0.0
  0
VERTEX
  5
30D
330
2EB
100
AcDbEntity
  8
1
  6
Continuous
 62
     2
100
AcDbVertex
100
AcDb2dVertex
 10
2602.5
 20
3663.38
 30
0.0
  0
VERTEX
  5
30E
330
2EB
100
AcDbEntity
  8
1
  6
Continuous
 62
     2
100
AcDbVertex
100
AcDb2dVertex
 10
2604.05
 20
3666.28
 30
0.0
  0
VERTEX
  5
30F
330
2EB
100
AcDbEntity
  8
1
  6
Continuous
 62
     2
100
AcDbVertex
100
AcDb2dVertex
 10
2605.25
 20
3669.37
 30
0.0
  0
VERTEX
  5
310
330
2EB
100
AcDbEntity
  8
1
  6
Continuous
 62
     2
100
AcDbVertex
100
AcDb2dVertex
 10
2606.07
 20
3672.59
 30
0.0
  0
VERTEX
  5
311
330
2EB
100
AcDbEntity
  8
1
  6
Continuous
 62
     2
100
AcDbVertex
100
AcDb2dVertex
 10
2606.51
 20
3675.889999999999
 30
0.0
  0
VERTEX
  5
312
330
2EB
100
AcDbEntity
  8
1
  6
Continuous
 62
     2
100
AcDbVertex
100
AcDb2dVertex
 10
2606.55
 20
3679.22
 30
0.0
  0
VERTEX
  5
313
330
2EB
100
AcDbEntity
  8
1
  6
Continuous
 62
     2
100
AcDbVertex
100
AcDb2dVertex
 10
2606.199999999999
 20
3682.54
 30
0.0
  0
VERTEX
  5
314
330
2EB
100
AcDbEntity
  8
1
  6
Continuous
 62
     2
100
AcDbVertex
100
AcDb2dVertex
 10
2605.449999999999
 20
3685.78
 30
0.0
  0
VERTEX
  5
315
330
2EB
100
AcDbEntity
  8
1
  6
Continuous
 62
     2
100
AcDbVertex
100
AcDb2dVertex
 10
2604.33
 20
3688.9
 30
0.0
  0
VERTEX
  5
316
330
2EB
100
AcDbEntity
  8
1
  6
Continuous
 62
     2
100
AcDbVertex
100
AcDb2dVertex
 10
2602.85
 20
3691.84
 30
0.0
  0
VERTEX
  5
317
330
2EB
100
AcDbEntity
  8
1
  6
Continuous
 62
     2
100
AcDbVertex
100
AcDb2dVertex
 10
2601.03
 20
3694.57
 30
0.0
  0
VERTEX
  5
318
330
2EB
100
AcDbEntity
  8
1
  6
Continuous
 62
     2
100
AcDbVertex
100
AcDb2dVertex
 10
2598.9
 20
3697.039999999999
 30
0.0
  0
VERTEX
  5
319
330
2EB
100
AcDbEntity
  8
1
  6
Continuous
 62
     2
100
AcDbVertex
100
AcDb2dVertex
 10
2596.5
 20
3699.199999999999
 30
0.0
  0
VERTEX
  5
31A
330
2EB
100
AcDbEntity
  8
1
  6
Continuous
 62
     2
100
AcDbVertex
100
AcDb2dVertex
 10
2593.85
 20
3701.03
 30
0.0
  0
VERTEX
  5
31B
330
2EB
100
AcDbEntity
  8
1
  6
Continuous
 62
     2
100
AcDbVertex
100
AcDb2dVertex
 10
2591.02
 20
3702.5
 30
0.0
  0
VERTEX
  5
31C
330
2EB
100
AcDbEntity
  8
1
  6
Continuous
 62
     2
100
AcDbVertex
100
AcDb2dVertex
 10
2588.03
 20
3703.59
 30
0.0
  0
VERTEX
  5
31D
330
2EB
100
AcDbEntity
  8
1
  6
Continuous
 62
     2
100
AcDbVertex
100
AcDb2dVertex
 10
2584.929999999999
 20
3704.27
 30
0.0
  0
VERTEX
  5
31E
330
2EB
100
AcDbEntity
  8
1
  6
Continuous
 62
     2
100
AcDbVertex
100
AcDb2dVertex
 10
2581.35
 20
3704.5
 30
0.0
  0
SEQEND
  5
31F
330
2EB
100
AcDbEntity
  8
1
 62
     2
  0
LWPOLYLINE
  5
320
330
19
100
AcDbEntity
  8
1
  6
Continuous
 62
     2
100
AcDbPolyline
 90
        4
 70
     0
 43
0.0
 10
2636.65
 20
3704.5
 10
2614.95
 20
3704.5
 10
2614.95
 20
3651.3
 10
2636.65
 20
3651.3
  0
LWPOLYLINE
  5
326
330
19
100
AcDbEntity
  8
1
  6
Continuous
 62
     2
100
AcDbPolyline
 90
        3
 70
     0
 43
0.0
 10
2628.95
 20
3691.2
 10
2628.95
 20
3663.9
 10
2636.65
 20
3663.9
  0
POLYLINE
  5
32B
330
19
100
AcDbEntity
  8
1
  6
Continuous
 62
     2
100
AcDb2dPolyline
 66
     1
 10
0.0
 20
0.0
 30
0.0
 70
     2
  0
VERTEX
  5
32C
330
32B
100
AcDbEntity
  8
1
  6
Continuous
 62
     2
100
AcDbVertex
100
AcDb2dVertex
 10
2581.35
 20
3694.699999999999
 30
0.0
  0
VERTEX
  5
32D
330
32B
100
AcDbEntity
  8
1
  6
Continuous
 62
     2
100
AcDbVertex
100
AcDb2dVertex
 10
2579.6
 20
3694.56
 30
0.0
  0
VERTEX
  5
32E
330
32B
100
AcDbEntity
  8
1
  6
Continuous
 62
     2
100
AcDbVertex
100
AcDb2dVertex
 10
2577.88
 20
3694.17
 30
0.0
  0
VERTEX
  5
32F
330
32B
100
AcDbEntity
  8
1
  6
Continuous
 62
     2
100
AcDbVertex
100
AcDb2dVertex
 10
2576.21
 20
3693.52
 30
0.0
  0
VERTEX
  5
330
330
32B
100
AcDbEntity
  8
1
  6
Continuous
 62
     2
100
AcDbVertex
100
AcDb2dVertex
 10
2574.619999999999
 20
3692.63
 30
0.0
  0
VERTEX
  5
331
330
32B
100
AcDbEntity
  8
1
  6
Continuous
 62
     2
100
AcDbVertex
100
AcDb2dVertex
 10
2573.14
 20
3691.51
 30
0.0
  0
VERTEX
  5
332
330
32B
100
AcDbEntity
  8
1
  6
Continuous
 62
     2
100
AcDbVertex
100
AcDb2dVertex
 10
2571.79
 20
3690.17
 30
0.0
  0
VERTEX
  5
333
330
32B
100
AcDbEntity
  8
1
  6
Continuous
 62
     2
100
AcDbVertex
100
AcDb2dVertex
 10
2570.59
 20
3688.64
 30
0.0
  0
VERTEX
  5
334
330
32B
100
AcDbEntity
  8
1
  6
Continuous
 62
     2
100
AcDbVertex
100
AcDb2dVertex
 10
2569.55
 20
3686.939999999999
 30
0.0
  0
VERTEX
  5
335
330
32B
100
AcDbEntity
  8
1
  6
Continuous
 62
     2
100
AcDbVertex
100
AcDb2dVertex
 10
2568.699999999999
 20
3685.1
 30
0.0
  0
VERTEX
  5
336
330
32B
100
AcDbEntity
  8
1
  6
Continuous
 62
     2
100
AcDbVertex
100
AcDb2dVertex
 10
2568.05
 20
3683.14
 30
0.0
  0
VERTEX
  5
337
330
32B
100
AcDbEntity
  8
1
  6
Continuous
 62
     2
100
AcDbVertex
100
AcDb2dVertex
 10
2567.61
 20
3681.11
 30
0.0
  0
VERTEX
  5
338
330
32B
100
AcDbEntity
  8
1
  6
Continuous
 62
     2
100
AcDbVertex
100
AcDb2dVertex
 10
2567.379999999999
 20
3679.019999999999
 30
0.0
  0
VERTEX
  5
339
330
32B
100
AcDbEntity
  8
1
  6
Continuous
 62
     2
100
AcDbVertex
100
AcDb2dVertex
 10
2567.37
 20
3676.91
 30
0.0
  0
VERTEX
  5
33A
330
32B
100
AcDbEntity
  8
1
  6
Continuous
 62
     2
100
AcDbVertex
100
AcDb2dVertex
 10
2567.579999999999
 20
3674.82
 30
0.0
  0
VERTEX
  5
33B
330
32B
100
AcDbEntity
  8
1
  6
Continuous
 62
     2
100
AcDbVertex
100
AcDb2dVertex
 10
2568.01
 20
3672.78
 30
0.0
  0
VERTEX
  5
33C
330
32B
100
AcDbEntity
  8
1
  6
Continuous
 62
     2
100
AcDbVertex
100
AcDb2dVertex
 10
2568.65
 20
3670.82
 30
0.0
  0
VERTEX
  5
33D
330
32B
100
AcDbEntity
  8
1
  6
Continuous
 62
     2
100
AcDbVertex
100
AcDb2dVertex
 10
2569.48
 20
3668.97
 30
0.0
  0
VERTEX
  5
33E
330
32B
100
AcDbEntity
  8
1
  6
Continuous
 62
     2
100
AcDbVertex
100
AcDb2dVertex
 10
2570.51
 20
3667.26
 30
0.0
  0
VERTEX
  5
33F
330
32B
100
AcDbEntity
  8
1
  6
Continuous
 62
     2
100
AcDbVertex
100
AcDb2dVertex
 10
2571.699999999999
 20
3665.719999999999
 30
0.0
  0
VERTEX
  5
340
330
32B
100
AcDbEntity
  8
1
  6
Continuous
 62
     2
100
AcDbVertex
100
AcDb2dVertex
 10
2573.04
 20
3664.36
 30
0.0
  0
VERTEX
  5
341
330
32B
100
AcDbEntity
  8
1
  6
Continuous
 62
     2
100
AcDbVertex
100
AcDb2dVertex
 10
2574.52
 20
3663.219999999999
 30
0.0
  0
VERTEX
  5
342
330
32B
100
AcDbEntity
  8
1
  6
Continuous
 62
     2
100
AcDbVertex
100
AcDb2dVertex
 10
2576.1
 20
3662.31
 30
0.0
  0
VERTEX
  5
343
330
32B
100
AcDbEntity
  8
1
  6
Continuous
 62
     2
100
AcDbVertex
100
AcDb2dVertex
 10
2577.76
 20
3661.64
 30
0.0
  0
VERTEX
  5
344
330
32B
100
AcDbEntity
  8
1
  6
Continuous
 62
     2
100
AcDbVertex
100
AcDb2dVertex
 10
2579.48
 20
3661.229999999999
 30
0.0
  0
VERTEX
  5
345
330
32B
100
AcDbEntity
  8
1
  6
Continuous
 62
     2
100
AcDbVertex
100
AcDb2dVertex
 10
2581.23
 20
3661.08
 30
0.0
  0
VERTEX
  5
346
330
32B
100
AcDbEntity
  8
1
  6
Continuous
 62
     2
100
AcDbVertex
100
AcDb2dVertex
 10
2582.99
 20
3661.2
 30
0.0
  0
VERTEX
  5
347
330
32B
100
AcDbEntity
  8
1
  6
Continuous
 62
     2
100
AcDbVertex
100
AcDb2dVertex
 10
2584.71
 20
3661.57
 30
0.0
  0
VERTEX
  5
348
330
32B
100
AcDbEntity
  8
1
  6
Continuous
 62
     2
100
AcDbVertex
100
AcDb2dVertex
 10
2586.39
 20
3662.2
 30
0.0
  0
VERTEX
  5
349
330
32B
100
AcDbEntity
  8
1
  6
Continuous
 62
     2
100
AcDbVertex
100
AcDb2dVertex
 10
2587.979999999999
 20
3663.08
 30
0.0
  0
VERTEX
  5
34A
330
32B
100
AcDbEntity
  8
1
  6
Continuous
 62
     2
100
AcDbVertex
100
AcDb2dVertex
 10
2589.47
 20
3664.19
 30
0.0
  0
VERTEX
  5
34B
330
32B
100
AcDbEntity
  8
1
  6
Continuous
 62
     2
100
AcDbVertex
100
AcDb2dVertex
 10
2590.84
 20
3665.52
 30
0.0
  0
VERTEX
  5
34C
330
32B
100
AcDbEntity
  8
1
  6
Continuous
 62
     2
100
AcDbVertex
100
AcDb2dVertex
 10
2592.05
 20
3667.04
 30
0.0
  0
VERTEX
  5
34D
330
32B
100
AcDbEntity
  8
1
  6
Continuous
 62
     2
100
AcDbVertex
100
AcDb2dVertex
 10
2593.1
 20
3668.73
 30
0.0
  0
VERTEX
  5
34E
330
32B
100
AcDbEntity
  8
1
  6
Continuous
 62
     2
100
AcDbVertex
100
AcDb2dVertex
 10
2593.96
 20
3670.56
 30
0.0
  0
VERTEX
  5
34F
330
32B
100
AcDbEntity
  8
1
  6
Continuous
 62
     2
100
AcDbVertex
100
AcDb2dVertex
 10
2594.63
 20
3672.51
 30
0.0
  0
VERTEX
  5
350
330
32B
100
AcDbEntity
  8
1
  6
Continuous
 62
     2
100
AcDbVertex
100
AcDb2dVertex
 10
2595.09
 20
3674.54
 30
0.0
  0
VERTEX
  5
351
330
32B
100
AcDbEntity
  8
1
  6
Continuous
 62
     2
100
AcDbVertex
100
AcDb2dVertex
 10
2595.33
 20
3676.63
 30
0.0
  0
VERTEX
  5
352
330
32B
100
AcDbEntity
  8
1
  6
Continuous
 62
     2
100
AcDbVertex
100
AcDb2dVertex
 10
2595.349999999999
 20
3678.73
 30
0.0
  0
VERTEX
  5
353
330
32B
100
AcDbEntity
  8
1
  6
Continuous
 62
     2
100
AcDbVertex
100
AcDb2dVertex
 10
2595.159999999999
 20
3680.83
 30
0.0
  0
VERTEX
  5
354
330
32B
100
AcDbEntity
  8
1
  6
Continuous
 62
     2
100
AcDbVertex
100
AcDb2dVertex
 10
2594.739999999999
 20
3682.869999999999
 30
0.0
  0
VERTEX
  5
355
330
32B
100
AcDbEntity
  8
1
  6
Continuous
 62
     2
100
AcDbVertex
100
AcDb2dVertex
 10
2594.12
 20
3684.84
 30
0.0
  0
VERTEX
  5
356
330
32B
100
AcDbEntity
  8
1
  6
Continuous
 62
     2
100
AcDbVertex
100
AcDb2dVertex
 10
2593.3
 20
3686.7
 30
0.0
  0
VERTEX
  5
357
330
32B
100
AcDbEntity
  8
1
  6
Continuous
 62
     2
100
AcDbVertex
100
AcDb2dVertex
 10
2592.28
 20
3688.429999999999
 30
0.0
  0
VERTEX
  5
358
330
32B
100
AcDbEntity
  8
1
  6
Continuous
 62
     2
100
AcDbVertex
100
AcDb2dVertex
 10
2591.1
 20
3689.98
 30
0.0
  0
VERTEX
  5
359
330
32B
100
AcDbEntity
  8
1
  6
Continuous
 62
     2
100
AcDbVertex
100
AcDb2dVertex
 10
2589.77
 20
3691.349999999999
 30
0.0
  0
VERTEX
  5
35A
330
32B
100
AcDbEntity
  8
1
  6
Continuous
 62
     2
100
AcDbVertex
100
AcDb2dVertex
 10
2588.3
 20
3692.51
 30
0.0
  0
VERTEX
  5
35B
330
32B
100
AcDbEntity
  8
1
  6
Continuous
 62
     2
100
AcDbVertex
100
AcDb2dVertex
 10
2586.719999999999
 20
3693.44
 30
0.0
  0
VERTEX
  5
35C
330
32B
100
AcDbEntity
  8
1
  6
Continuous
 62
     2
100
AcDbVertex
100
AcDb2dVertex
 10
2585.06
 20
3694.12
 30
0.0
  0
VERTEX
  5
35D
330
32B
100
AcDbEntity
  8
1
  6
Continuous
 62
     2
100
AcDbVertex
100
AcDb2dVertex
 10
2583.34
 20
3694.55
 30
0.0
  0
VERTEX
  5
35E
330
32B
100
AcDbEntity
  8
1
  6
Continuous
 62
     2
100
AcDbVertex
100
AcDb2dVertex
 10
2581.35
 20
3694.699999999999
 30
0.0
  0
SEQEND
  5
35F
330
32B
100
AcDbEntity
  8
1
 62
     2
  0
POLYLINE
  5
360
330
19
100
AcDbEntity
  8
1
  6
Continuous
 62
     2
100
AcDb2dPolyline
 66
     1
 10
0.0
 20
0.0
 30
0.0
 70
     2
  0
VERTEX
  5
361
330
360
100
AcDbEntity
  8
1
  6
Continuous
 62
     2
100
AcDbVertex
100
AcDb2dVertex
 10
2694.75
 20
3704.5
 30
0.0
  0
VERTEX
  5
362
330
360
100
AcDbEntity
  8
1
  6
Continuous
 62
     2
100
AcDbVertex
100
AcDb2dVertex
 10
2691.6
 20
3704.29
 30
0.0
  0
VERTEX
  5
363
330
360
100
AcDbEntity
  8
1
  6
Continuous
 62
     2
100
AcDbVertex
100
AcDb2dVertex
 10
2688.5
 20
3703.67
 30
0.0
  0
VERTEX
  5
364
330
360
100
AcDbEntity
  8
1
  6
Continuous
 62
     2
100
AcDbVertex
100
AcDb2dVertex
 10
2685.5
 20
3702.64
 30
0.0
  0
VERTEX
  5
365
330
360
100
AcDbEntity
  8
1
  6
Continuous
 62
     2
100
AcDbVertex
100
AcDb2dVertex
 10
2682.64
 20
3701.22
 30
0.0
  0
VERTEX
  5
366
330
360
100
AcDbEntity
  8
1
  6
Continuous
 62
     2
100
AcDbVertex
100
AcDb2dVertex
 10
2679.969999999999
 20
3699.44
 30
0.0
  0
VERTEX
  5
367
330
360
100
AcDbEntity
  8
1
  6
Continuous
 62
     2
100
AcDbVertex
100
AcDb2dVertex
 10
2677.54
 20
3697.33
 30
0.0
  0
VERTEX
  5
368
330
360
100
AcDbEntity
  8
1
  6
Continuous
 62
     2
100
AcDbVertex
100
AcDb2dVertex
 10
2675.37
 20
3694.9
 30
0.0
  0
VERTEX
  5
369
330
360
100
AcDbEntity
  8
1
  6
Continuous
 62
     2
100
AcDbVertex
100
AcDb2dVertex
 10
2673.51
 20
3692.21
 30
0.0
  0
VERTEX
  5
36A
330
360
100
AcDbEntity
  8
1
  6
Continuous
 62
     2
100
AcDbVertex
100
AcDb2dVertex
 10
2671.98
 20
3689.3
 30
0.0
  0
VERTEX
  5
36B
330
360
100
AcDbEntity
  8
1
  6
Continuous
 62
     2
100
AcDbVertex
100
AcDb2dVertex
 10
2670.81
 20
3686.2
 30
0.0
  0
VERTEX
  5
36C
330
360
100
AcDbEntity
  8
1
  6
Continuous
 62
     2
100
AcDbVertex
100
AcDb2dVertex
 10
2670.01
 20
3682.98
 30
0.0
  0
VERTEX
  5
36D
330
360
100
AcDbEntity
  8
1
  6
Continuous
 62
     2
100
AcDbVertex
100
AcDb2dVertex
 10
2669.599999999999
 20
3679.67
 30
0.0
  0
VERTEX
  5
36E
330
360
100
AcDbEntity
  8
1
  6
Continuous
 62
     2
100
AcDbVertex
100
AcDb2dVertex
 10
2669.59
 20
3676.34
 30
0.0
  0
VERTEX
  5
36F
330
360
100
AcDbEntity
  8
1
  6
Continuous
 62
     2
100
AcDbVertex
100
AcDb2dVertex
 10
2669.97
 20
3673.03
 30
0.0
  0
VERTEX
  5
370
330
360
100
AcDbEntity
  8
1
  6
Continuous
 62
     2
100
AcDbVertex
100
AcDb2dVertex
 10
2670.74
 20
3669.8
 30
0.0
  0
VERTEX
  5
371
330
360
100
AcDbEntity
  8
1
  6
Continuous
 62
     2
100
AcDbVertex
100
AcDb2dVertex
 10
2671.88
 20
3666.69
 30
0.0
  0
VERTEX
  5
372
330
360
100
AcDbEntity
  8
1
  6
Continuous
 62
     2
100
AcDbVertex
100
AcDb2dVertex
 10
2673.389999999999
 20
3663.76
 30
0.0
  0
VERTEX
  5
373
330
360
100
AcDbEntity
  8
1
  6
Continuous
 62
     2
100
AcDbVertex
100
AcDb2dVertex
 10
2675.23
 20
3661.059999999999
 30
0.0
  0
VERTEX
  5
374
330
360
100
AcDbEntity
  8
1
  6
Continuous
 62
     2
100
AcDbVertex
100
AcDb2dVertex
 10
2677.369999999999
 20
3658.61
 30
0.0
  0
VERTEX
  5
375
330
360
100
AcDbEntity
  8
1
  6
Continuous
 62
     2
100
AcDbVertex
100
AcDb2dVertex
 10
2679.79
 20
3656.47
 30
0.0
  0
VERTEX
  5
376
330
360
100
AcDbEntity
  8
1
  6
Continuous
 62
     2
100
AcDbVertex
100
AcDb2dVertex
 10
2682.45
 20
3654.659999999999
 30
0.0
  0
VERTEX
  5
377
330
360
100
AcDbEntity
  8
1
  6
Continuous
 62
     2
100
AcDbVertex
100
AcDb2dVertex
 10
2685.3
 20
3653.219999999999
 30
0.0
  0
VERTEX
  5
378
330
360
100
AcDbEntity
  8
1
  6
Continuous
 62
     2
100
AcDbVertex
100
AcDb2dVertex
 10
2688.29
 20
3652.17
 30
0.0
  0
VERTEX
  5
379
330
360
100
AcDbEntity
  8
1
  6
Continuous
 62
     2
100
AcDbVertex
100
AcDb2dVertex
 10
2691.39
 20
3651.51
 30
0.0
  0
VERTEX
  5
37A
330
360
100
AcDbEntity
  8
1
  6
Continuous
 62
     2
100
AcDbVertex
100
AcDb2dVertex
 10
2694.539999999999
 20
3651.28
 30
0.0
  0
VERTEX
  5
37B
330
360
100
AcDbEntity
  8
1
  6
Continuous
 62
     2
100
AcDbVertex
100
AcDb2dVertex
 10
2697.69
 20
3651.46
 30
0.0
  0
VERTEX
  5
37C
330
360
100
AcDbEntity
  8
1
  6
Continuous
 62
     2
100
AcDbVertex
100
AcDb2dVertex
 10
2700.8
 20
3652.05
 30
0.0
  0
VERTEX
  5
37D
330
360
100
AcDbEntity
  8
1
  6
Continuous
 62
     2
100
AcDbVertex
100
AcDb2dVertex
 10
2703.81
 20
3653.05
 30
0.0
  0
VERTEX
  5
37E
330
360
100
AcDbEntity
  8
1
  6
Continuous
 62
     2
100
AcDbVertex
100
AcDb2dVertex
 10
2706.69
 20
3654.44
 30
0.0
  0
VERTEX
  5
37F
330
360
100
AcDbEntity
  8
1
  6
Continuous
 62
     2
100
AcDbVertex
100
AcDb2dVertex
 10
2709.369999999999
 20
3656.2
 30
0.0
  0
VERTEX
  5
380
330
360
100
AcDbEntity
  8
1
  6
Continuous
 62
     2
100
AcDbVertex
100
AcDb2dVertex
 10
2711.83
 20
3658.3
 30
0.0
  0
VERTEX
  5
381
330
360
100
AcDbEntity
  8
1
  6
Continuous
 62
     2
100
AcDbVertex
100
AcDb2dVertex
 10
2714.01
 20
3660.7
 30
0.0
  0
VERTEX
  5
382
330
360
100
AcDbEntity
  8
1
  6
Continuous
 62
     2
100
AcDbVertex
100
AcDb2dVertex
 10
2715.9
 20
3663.38
 30
0.0
  0
VERTEX
  5
383
330
360
100
AcDbEntity
  8
1
  6
Continuous
 62
     2
100
AcDbVertex
100
AcDb2dVertex
 10
2717.449999999999
 20
3666.28
 30
0.0
  0
VERTEX
  5
384
330
360
100
AcDbEntity
  8
1
  6
Continuous
 62
     2
100
AcDbVertex
100
AcDb2dVertex
 10
2718.65
 20
3669.37
 30
0.0
  0
VERTEX
  5
385
330
360
100
AcDbEntity
  8
1
  6
Continuous
 62
     2
100
AcDbVertex
100
AcDb2dVertex
 10
2719.469999999999
 20
3672.59
 30
0.0
  0
VERTEX
  5
386
330
360
100
AcDbEntity
  8
1
  6
Continuous
 62
     2
100
AcDbVertex
100
AcDb2dVertex
 10
2719.91
 20
3675.889999999999
 30
0.0
  0
VERTEX
  5
387
330
360
100
AcDbEntity
  8
1
  6
Continuous
 62
     2
100
AcDbVertex
100
AcDb2dVertex
 10
2719.95
 20
3679.22
 30
0.0
  0
VERTEX
  5
388
330
360
100
AcDbEntity
  8
1
  6
Continuous
 62
     2
100
AcDbVertex
100
AcDb2dVertex
 10
2719.599999999999
 20
3682.54
 30
0.0
  0
VERTEX
  5
389
330
360
100
AcDbEntity
  8
1
  6
Continuous
 62
     2
100
AcDbVertex
100
AcDb2dVertex
 10
2718.85
 20
3685.78
 30
0.0
  0
VERTEX
  5
38A
330
360
100
AcDbEntity
  8
1
  6
Continuous
 62
     2
100
AcDbVertex
100
AcDb2dVertex
 10
2717.73
 20
3688.9
 30
0.0
  0
VERTEX
  5
38B
330
360
100
AcDbEntity
  8
1
  6
Continuous
 62
     2
100
AcDbVertex
100
AcDb2dVertex
 10
2716.25
 20
3691.84
 30
0.0
  0
VERTEX
  5
38C
330
360
100
AcDbEntity
  8
1
  6
Continuous
 62
     2
100
AcDbVertex
100
AcDb2dVertex
 10
2714.43
 20
3694.57
 30
0.0
  0
VERTEX
  5
38D
330
360
100
AcDbEntity
  8
1
  6
Continuous
 62
     2
100
AcDbVertex
100
AcDb2dVertex
 10
2712.3
 20
3697.039999999999
 30
0.0
  0
VERTEX
  5
38E
330
360
100
AcDbEntity
  8
1
  6
Continuous
 62
     2
100
AcDbVertex
100
AcDb2dVertex
 10
2709.9
 20
3699.199999999999
 30
0.0
  0
VERTEX
  5
38F
330
360
100
AcDbEntity
  8
1
  6
Continuous
 62
     2
100
AcDbVertex
100
AcDb2dVertex
 10
2707.25
 20
3701.03
 30
0.0
  0
VERTEX
  5
390
330
360
100
AcDbEntity
  8
1
  6
Continuous
 62
     2
100
AcDbVertex
100
AcDb2dVertex
 10
2704.42
 20
3702.5
 30
0.0
  0
VERTEX
  5
391
330
360
100
AcDbEntity
  8
1
  6
Continuous
 62
     2
100
AcDbVertex
100
AcDb2dVertex
 10
2701.43
 20
3703.59
 30
0.0
  0
VERTEX
  5
392
330
360
100
AcDbEntity
  8
1
  6
Continuous
 62
     2
100
AcDbVertex
100
AcDb2dVertex
 10
2698.33
 20
3704.27
 30
0.0
  0
VERTEX
  5
393
330
360
100
AcDbEntity
  8
1
  6
Continuous
 62
     2
100
AcDbVertex
100
AcDb2dVertex
 10
2694.75
 20
3704.5
 30
0.0
  0
SEQEND
  5
394
330
360
100
AcDbEntity
  8
1
 62
     2
  0
POLYLINE
  5
395
330
19
100
AcDbEntity
  8
1
  6
Continuous
 62
     2
100
AcDb2dPolyline
 66
     1
 10
0.0
 20
0.0
 30
0.0
 70
     2
  0
VERTEX
  5
396
330
395
100
AcDbEntity
  8
1
  6
Continuous
 62
     2
100
AcDbVertex
100
AcDb2dVertex
 10
2694.75
 20
3694.699999999999
 30
0.0
  0
VERTEX
  5
397
330
395
100
AcDbEntity
  8
1
  6
Continuous
 62
     2
100
AcDbVertex
100
AcDb2dVertex
 10
2693.0
 20
3694.56
 30
0.0
  0
VERTEX
  5
398
330
395
100
AcDbEntity
  8
1
  6
Continuous
 62
     2
100
AcDbVertex
100
AcDb2dVertex
 10
2691.28
 20
3694.17
 30
0.0
  0
VERTEX
  5
399
330
395
100
AcDbEntity
  8
1
  6
Continuous
 62
     2
100
AcDbVertex
100
AcDb2dVertex
 10
2689.61
 20
3693.52
 30
0.0
  0
VERTEX
  5
39A
330
395
100
AcDbEntity
  8
1
  6
Continuous
 62
     2
100
AcDbVertex
100
AcDb2dVertex
 10
2688.02
 20
3692.63
 30
0.0
  0
VERTEX
  5
39B
330
395
100
AcDbEntity
  8
1
  6
Continuous
 62
     2
100
AcDbVertex
100
AcDb2dVertex
 10
2686.54
 20
3691.51
 30
0.0
  0
VERTEX
  5
39C
330
395
100
AcDbEntity
  8
1
  6
Continuous
 62
     2
100
AcDbVertex
100
AcDb2dVertex
 10
2685.19
 20
3690.17
 30
0.0
  0
VERTEX
  5
39D
330
395
100
AcDbEntity
  8
1
  6
Continuous
 62
     2
100
AcDbVertex
100
AcDb2dVertex
 10
2683.99
 20
3688.64
 30
0.0
  0
VERTEX
  5
39E
330
395
100
AcDbEntity
  8
1
  6
Continuous
 62
     2
100
AcDbVertex
100
AcDb2dVertex
 10
2682.949999999999
 20
3686.939999999999
 30
0.0
  0
VERTEX
  5
39F
330
395
100
AcDbEntity
  8
1
  6
Continuous
 62
     2
100
AcDbVertex
100
AcDb2dVertex
 10
2682.1
 20
3685.1
 30
0.0
  0
VERTEX
  5
3A0
330
395
100
AcDbEntity
  8
1
  6
Continuous
 62
     2
100
AcDbVertex
100
AcDb2dVertex
 10
2681.449999999999
 20
3683.14
 30
0.0
  0
VERTEX
  5
3A1
330
395
100
AcDbEntity
  8
1
  6
Continuous
 62
     2
100
AcDbVertex
100
AcDb2dVertex
 10
2681.01
 20
3681.11
 30
0.0
  0
VERTEX
  5
3A2
330
395
100
AcDbEntity
  8
1
  6
Continuous
 62
     2
100
AcDbVertex
100
AcDb2dVertex
 10
2680.78
 20
3679.019999999999
 30
0.0
  0
VERTEX
  5
3A3
330
395
100
AcDbEntity
  8
1
  6
Continuous
 62
     2
100
AcDbVertex
100
AcDb2dVertex
 10
2680.77
 20
3676.91
 30
0.0
  0
VERTEX
  5
3A4
330
395
100
AcDbEntity
  8
1
  6
Continuous
 62
     2
100
AcDbVertex
100
AcDb2dVertex
 10
2680.979999999999
 20
3674.82
 30
0.0
  0
VERTEX
  5
3A5
330
395
100
AcDbEntity
  8
1
  6
Continuous
 62
     2
100
AcDbVertex
100
AcDb2dVertex
 10
2681.41
 20
3672.78
 30
0.0
  0
VERTEX
  5
3A6
330
395
100
AcDbEntity
  8
1
  6
Continuous
 62
     2
100
AcDbVertex
100
AcDb2dVertex
 10
2682.05
 20
3670.82
 30
0.0
  0
VERTEX
  5
3A7
330
395
100
AcDbEntity
  8
1
  6
Continuous
 62
     2
100
AcDbVertex
100
AcDb2dVertex
 10
2682.88
 20
3668.97
 30
0.0
  0
VERTEX
  5
3A8
330
395
100
AcDbEntity
  8
1
  6
Continuous
 62
     2
100
AcDbVertex
100
AcDb2dVertex
 10
2683.91
 20
3667.26
 30
0.0
  0
VERTEX
  5
3A9
330
395
100
AcDbEntity
  8
1
  6
Continuous
 62
     2
100
AcDbVertex
100
AcDb2dVertex
 10
2685.1
 20
3665.719999999999
 30
0.0
  0
VERTEX
  5
3AA
330
395
100
AcDbEntity
  8
1
  6
Continuous
 62
     2
100
AcDbVertex
100
AcDb2dVertex
 10
2686.44
 20
3664.36
 30
0.0
  0
VERTEX
  5
3AB
330
395
100
AcDbEntity
  8
1
  6
Continuous
 62
     2
100
AcDbVertex
100
AcDb2dVertex
 10
2687.92
 20
3663.219999999999
 30
0.0
  0
VERTEX
  5
3AC
330
395
100
AcDbEntity
  8
1
  6
Continuous
 62
     2
100
AcDbVertex
100
AcDb2dVertex
 10
2689.5
 20
3662.31
 30
0.0
  0
VERTEX
  5
3AD
330
395
100
AcDbEntity
  8
1
  6
Continuous
 62
     2
100
AcDbVertex
100
AcDb2dVertex
 10
2691.159999999999
 20
3661.64
 30
0.0
  0
VERTEX
  5
3AE
330
395
100
AcDbEntity
  8
1
  6
Continuous
 62
     2
100
AcDbVertex
100
AcDb2dVertex
 10
2692.88
 20
3661.229999999999
 30
0.0
  0
VERTEX
  5
3AF
330
395
100
AcDbEntity
  8
1
  6
Continuous
 62
     2
100
AcDbVertex
100
AcDb2dVertex
 10
2694.63
 20
3661.08
 30
0.0
  0
VERTEX
  5
3B0
330
395
100
AcDbEntity
  8
1
  6
Continuous
 62
     2
100
AcDbVertex
100
AcDb2dVertex
 10
2696.39
 20
3661.2
 30
0.0
  0
VERTEX
  5
3B1
330
395
100
AcDbEntity
  8
1
  6
Continuous
 62
     2
100
AcDbVertex
100
AcDb2dVertex
 10
2698.11
 20
3661.57
 30
0.0
  0
VERTEX
  5
3B2
330
395
100
AcDbEntity
  8
1
  6
Continuous
 62
     2
100
AcDbVertex
100
AcDb2dVertex
 10
2699.79
 20
3662.2
 30
0.0
  0
VERTEX
  5
3B3
330
395
100
AcDbEntity
  8
1
  6
Continuous
 62
     2
100
AcDbVertex
100
AcDb2dVertex
 10
2701.38
 20
3663.08
 30
0.0
  0
VERTEX
  5
3B4
330
395
100
AcDbEntity
  8
1
  6
Continuous
 62
     2
100
AcDbVertex
100
AcDb2dVertex
 10
2702.87
 20
3664.19
 30
0.0
  0
VERTEX
  5
3B5
330
395
100
AcDbEntity
  8
1
  6
Continuous
 62
     2
100
AcDbVertex
100
AcDb2dVertex
 10
2704.239999999999
 20
3665.52
 30
0.0
  0
VERTEX
  5
3B6
330
395
100
AcDbEntity
  8
1
  6
Continuous
 62
     2
100
AcDbVertex
100
AcDb2dVertex
 10
2705.449999999999
 20
3667.04
 30
0.0
  0
VERTEX
  5
3B7
330
395
100
AcDbEntity
  8
1
  6
Continuous
 62
     2
100
AcDbVertex
100
AcDb2dVertex
 10
2706.5
 20
3668.73
 30
0.0
  0
VERTEX
  5
3B8
330
395
100
AcDbEntity
  8
1
  6
Continuous
 62
     2
100
AcDbVertex
100
AcDb2dVertex
 10
2707.36
 20
3670.56
 30
0.0
  0
VERTEX
  5
3B9
330
395
100
AcDbEntity
  8
1
  6
Continuous
 62
     2
100
AcDbVertex
100
AcDb2dVertex
 10
2708.03
 20
3672.51
 30
0.0
  0
VERTEX
  5
3BA
330
395
100
AcDbEntity
  8
1
  6
Continuous
 62
     2
100
AcDbVertex
100
AcDb2dVertex
 10
2708.489999999999
 20
3674.54
 30
0.0
  0
VERTEX
  5
3BB
330
395
100
AcDbEntity
  8
1
  6
Continuous
 62
     2
100
AcDbVertex
100
AcDb2dVertex
 10
2708.73
 20
3676.63
 30
0.0
  0
VERTEX
  5
3BC
330
395
100
AcDbEntity
  8
1
  6
Continuous
 62
     2
100
AcDbVertex
100
AcDb2dVertex
 10
2708.75
 20
3678.73
 30
0.0
  0
VERTEX
  5
3BD
330
395
100
AcDbEntity
  8
1
  6
Continuous
 62
     2
100
AcDbVertex
100
AcDb2dVertex
 10
2708.56
 20
3680.83
 30
0.0
  0
VERTEX
  5
3BE
330
395
100
AcDbEntity
  8
1
  6
Continuous
 62
     2
100
AcDbVertex
100
AcDb2dVertex
 10
2708.14
 20
3682.869999999999
 30
0.0
  0
VERTEX
  5
3BF
330
395
100
AcDbEntity
  8
1
  6
Continuous
 62
     2
100
AcDbVertex
100
AcDb2dVertex
 10
2707.52
 20
3684.84
 30
0.0
  0
VERTEX
  5
3C0
330
395
100
AcDbEntity
  8
1
  6
Continuous
 62
     2
100
AcDbVertex
100
AcDb2dVertex
 10
2706.7
 20
3686.7
 30
0.0
  0
VERTEX
  5
3C1
330
395
100
AcDbEntity
  8
1
  6
Continuous
 62
     2
100
AcDbVertex
100
AcDb2dVertex
 10
2705.68
 20
3688.429999999999
 30
0.0
  0
VERTEX
  5
3C2
330
395
100
AcDbEntity
  8
1
  6
Continuous
 62
     2
100
AcDbVertex
100
AcDb2dVertex
 10
2704.5
 20
3689.98
 30
0.0
  0
VERTEX
  5
3C3
330
395
100
AcDbEntity
  8
1
  6
Continuous
 62
     2
100
AcDbVertex
100
AcDb2dVertex
 10
2703.17
 20
3691.349999999999
 30
0.0
  0
VERTEX
  5
3C4
330
395
100
AcDbEntity
  8
1
  6
Continuous
 62
     2
100
AcDbVertex
100
AcDb2dVertex
 10
2701.7
 20
3692.51
 30
0.0
  0
VERTEX
  5
3C5
330
395
100
AcDbEntity
  8
1
  6
Continuous
 62
     2
100
AcDbVertex
100
AcDb2dVertex
 10
2700.12
 20
3693.44
 30
0.0
  0
VERTEX
  5
3C6
330
395
100
AcDbEntity
  8
1
  6
Continuous
 62
     2
100
AcDbVertex
100
AcDb2dVertex
 10
2698.46
 20
3694.12
 30
0.0
  0
VERTEX
  5
3C7
330
395
100
AcDbEntity
  8
1
  6
Continuous
 62
     2
100
AcDbVertex
100
AcDb2dVertex
 10
2696.74
 20
3694.55
 30
0.0
  0
VERTEX
  5
3C8
330
395
100
AcDbEntity
  8
1
  6
Continuous
 62
     2
100
AcDbVertex
100
AcDb2dVertex
 10
2694.75
 20
3694.699999999999
 30
0.0
  0
SEQEND
  5
3C9
330
395
100
AcDbEntity
  8
1
 62
     2
  0
POLYLINE
  5
3CA
330
19
100
AcDbEntity
  8
1
  6
Continuous
 62
     2
100
AcDb2dPolyline
 66
     1
 10
0.0
 20
0.0
 30
0.0
 70
     2
  0
VERTEX
  5
3CB
330
3CA
100
AcDbEntity
  8
1
  6
Continuous
 62
     2
100
AcDbVertex
100
AcDb2dVertex
 10
2805.35
 20
3694.699999999999
 30
0.0
  0
VERTEX
  5
3CC
330
3CA
100
AcDbEntity
  8
1
  6
Continuous
 62
     2
100
AcDbVertex
100
AcDb2dVertex
 10
2803.6
 20
3694.56
 30
0.0
  0
VERTEX
  5
3CD
330
3CA
100
AcDbEntity
  8
1
  6
Continuous
 62
     2
100
AcDbVertex
100
AcDb2dVertex
 10
2801.88
 20
3694.17
 30
0.0
  0
VERTEX
  5
3CE
330
3CA
100
AcDbEntity
  8
1
  6
Continuous
 62
     2
100
AcDbVertex
100
AcDb2dVertex
 10
2800.21
 20
3693.52
 30
0.0
  0
VERTEX
  5
3CF
330
3CA
100
AcDbEntity
  8
1
  6
Continuous
 62
     2
100
AcDbVertex
100
AcDb2dVertex
 10
2798.62
 20
3692.63
 30
0.0
  0
VERTEX
  5
3D0
330
3CA
100
AcDbEntity
  8
1
  6
Continuous
 62
     2
100
AcDbVertex
100
AcDb2dVertex
 10
2797.14
 20
3691.51
 30
0.0
  0
VERTEX
  5
3D1
330
3CA
100
AcDbEntity
  8
1
  6
Continuous
 62
     2
100
AcDbVertex
100
AcDb2dVertex
 10
2795.79
 20
3690.17
 30
0.0
  0
VERTEX
  5
3D2
330
3CA
100
AcDbEntity
  8
1
  6
Continuous
 62
     2
100
AcDbVertex
100
AcDb2dVertex
 10
2794.59
 20
3688.64
 30
0.0
  0
VERTEX
  5
3D3
330
3CA
100
AcDbEntity
  8
1
  6
Continuous
 62
     2
100
AcDbVertex
100
AcDb2dVertex
 10
2793.55
 20
3686.939999999999
 30
0.0
  0
VERTEX
  5
3D4
330
3CA
100
AcDbEntity
  8
1
  6
Continuous
 62
     2
100
AcDbVertex
100
AcDb2dVertex
 10
2792.699999999999
 20
3685.1
 30
0.0
  0
VERTEX
  5
3D5
330
3CA
100
AcDbEntity
  8
1
  6
Continuous
 62
     2
100
AcDbVertex
100
AcDb2dVertex
 10
2792.05
 20
3683.14
 30
0.0
  0
VERTEX
  5
3D6
330
3CA
100
AcDbEntity
  8
1
  6
Continuous
 62
     2
100
AcDbVertex
100
AcDb2dVertex
 10
2791.61
 20
3681.11
 30
0.0
  0
VERTEX
  5
3D7
330
3CA
100
AcDbEntity
  8
1
  6
Continuous
 62
     2
100
AcDbVertex
100
AcDb2dVertex
 10
2791.38
 20
3679.019999999999
 30
0.0
  0
VERTEX
  5
3D8
330
3CA
100
AcDbEntity
  8
1
  6
Continuous
 62
     2
100
AcDbVertex
100
AcDb2dVertex
 10
2791.37
 20
3676.91
 30
0.0
  0
VERTEX
  5
3D9
330
3CA
100
AcDbEntity
  8
1
  6
Continuous
 62
     2
100
AcDbVertex
100
AcDb2dVertex
 10
2791.58
 20
3674.82
 30
0.0
  0
VERTEX
  5
3DA
330
3CA
100
AcDbEntity
  8
1
  6
Continuous
 62
     2
100
AcDbVertex
100
AcDb2dVertex
 10
2792.01
 20
3672.78
 30
0.0
  0
VERTEX
  5
3DB
330
3CA
100
AcDbEntity
  8
1
  6
Continuous
 62
     2
100
AcDbVertex
100
AcDb2dVertex
 10
2792.65
 20
3670.82
 30
0.0
  0
VERTEX
  5
3DC
330
3CA
100
AcDbEntity
  8
1
  6
Continuous
 62
     2
100
AcDbVertex
100
AcDb2dVertex
 10
2793.48
 20
3668.97
 30
0.0
  0
VERTEX
  5
3DD
330
3CA
100
AcDbEntity
  8
1
  6
Continuous
 62
     2
100
AcDbVertex
100
AcDb2dVertex
 10
2794.51
 20
3667.26
 30
0.0
  0
VERTEX
  5
3DE
330
3CA
100
AcDbEntity
  8
1
  6
Continuous
 62
     2
100
AcDbVertex
100
AcDb2dVertex
 10
2795.7
 20
3665.719999999999
 30
0.0
  0
VERTEX
  5
3DF
330
3CA
100
AcDbEntity
  8
1
  6
Continuous
 62
     2
100
AcDbVertex
100
AcDb2dVertex
 10
2797.04
 20
3664.36
 30
0.0
  0
VERTEX
  5
3E0
330
3CA
100
AcDbEntity
  8
1
  6
Continuous
 62
     2
100
AcDbVertex
100
AcDb2dVertex
 10
2798.519999999999
 20
3663.219999999999
 30
0.0
  0
VERTEX
  5
3E1
330
3CA
100
AcDbEntity
  8
1
  6
Continuous
 62
     2
100
AcDbVertex
100
AcDb2dVertex
 10
2800.1
 20
3662.31
 30
0.0
  0
VERTEX
  5
3E2
330
3CA
100
AcDbEntity
  8
1
  6
Continuous
 62
     2
100
AcDbVertex
100
AcDb2dVertex
 10
2801.76
 20
3661.64
 30
0.0
  0
VERTEX
  5
3E3
330
3CA
100
AcDbEntity
  8
1
  6
Continuous
 62
     2
100
AcDbVertex
100
AcDb2dVertex
 10
2803.48
 20
3661.229999999999
 30
0.0
  0
VERTEX
  5
3E4
330
3CA
100
AcDbEntity
  8
1
  6
Continuous
 62
     2
100
AcDbVertex
100
AcDb2dVertex
 10
2805.23
 20
3661.08
 30
0.0
  0
VERTEX
  5
3E5
330
3CA
100
AcDbEntity
  8
1
  6
Continuous
 62
     2
100
AcDbVertex
100
AcDb2dVertex
 10
2806.989999999999
 20
3661.2
 30
0.0
  0
VERTEX
  5
3E6
330
3CA
100
AcDbEntity
  8
1
  6
Continuous
 62
     2
100
AcDbVertex
100
AcDb2dVertex
 10
2808.709999999999
 20
3661.57
 30
0.0
  0
VERTEX
  5
3E7
330
3CA
100
AcDbEntity
  8
1
  6
Continuous
 62
     2
100
AcDbVertex
100
AcDb2dVertex
 10
2810.389999999999
 20
3662.2
 30
0.0
  0
VERTEX
  5
3E8
330
3CA
100
AcDbEntity
  8
1
  6
Continuous
 62
     2
100
AcDbVertex
100
AcDb2dVertex
 10
2811.98
 20
3663.08
 30
0.0
  0
VERTEX
  5
3E9
330
3CA
100
AcDbEntity
  8
1
  6
Continuous
 62
     2
100
AcDbVertex
100
AcDb2dVertex
 10
2813.47
 20
3664.19
 30
0.0
  0
VERTEX
  5
3EA
330
3CA
100
AcDbEntity
  8
1
  6
Continuous
 62
     2
100
AcDbVertex
100
AcDb2dVertex
 10
2814.84
 20
3665.52
 30
0.0
  0
VERTEX
  5
3EB
330
3CA
100
AcDbEntity
  8
1
  6
Continuous
 62
     2
100
AcDbVertex
100
AcDb2dVertex
 10
2816.05
 20
3667.04
 30
0.0
  0
VERTEX
  5
3EC
330
3CA
100
AcDbEntity
  8
1
  6
Continuous
 62
     2
100
AcDbVertex
100
AcDb2dVertex
 10
2817.099999999999
 20
3668.73
 30
0.0
  0
VERTEX
  5
3ED
330
3CA
100
AcDbEntity
  8
1
  6
Continuous
 62
     2
100
AcDbVertex
100
AcDb2dVertex
 10
2817.96
 20
3670.56
 30
0.0
  0
VERTEX
  5
3EE
330
3CA
100
AcDbEntity
  8
1
  6
Continuous
 62
     2
100
AcDbVertex
100
AcDb2dVertex
 10
2818.63
 20
3672.51
 30
0.0
  0
VERTEX
  5
3EF
330
3CA
100
AcDbEntity
  8
1
  6
Continuous
 62
     2
100
AcDbVertex
100
AcDb2dVertex
 10
2819.09
 20
3674.54
 30
0.0
  0
VERTEX
  5
3F0
330
3CA
100
AcDbEntity
  8
1
  6
Continuous
 62
     2
100
AcDbVertex
100
AcDb2dVertex
 10
2819.33
 20
3676.63
 30
0.0
  0
VERTEX
  5
3F1
330
3CA
100
AcDbEntity
  8
1
  6
Continuous
 62
     2
100
AcDbVertex
100
AcDb2dVertex
 10
2819.35
 20
3678.73
 30
0.0
  0
VERTEX
  5
3F2
330
3CA
100
AcDbEntity
  8
1
  6
Continuous
 62
     2
100
AcDbVertex
100
AcDb2dVertex
 10
2819.16
 20
3680.83
 30
0.0
  0
VERTEX
  5
3F3
330
3CA
100
AcDbEntity
  8
1
  6
Continuous
 62
     2
100
AcDbVertex
100
AcDb2dVertex
 10
2818.74
 20
3682.869999999999
 30
0.0
  0
VERTEX
  5
3F4
330
3CA
100
AcDbEntity
  8
1
  6
Continuous
 62
     2
100
AcDbVertex
100
AcDb2dVertex
 10
2818.12
 20
3684.84
 30
0.0
  0
VERTEX
  5
3F5
330
3CA
100
AcDbEntity
  8
1
  6
Continuous
 62
     2
100
AcDbVertex
100
AcDb2dVertex
 10
2817.3
 20
3686.7
 30
0.0
  0
VERTEX
  5
3F6
330
3CA
100
AcDbEntity
  8
1
  6
Continuous
 62
     2
100
AcDbVertex
100
AcDb2dVertex
 10
2816.28
 20
3688.429999999999
 30
0.0
  0
VERTEX
  5
3F7
330
3CA
100
AcDbEntity
  8
1
  6
Continuous
 62
     2
100
AcDbVertex
100
AcDb2dVertex
 10
2815.1
 20
3689.98
 30
0.0
  0
VERTEX
  5
3F8
330
3CA
100
AcDbEntity
  8
1
  6
Continuous
 62
     2
100
AcDbVertex
100
AcDb2dVertex
 10
2813.769999999999
 20
3691.349999999999
 30
0.0
  0
VERTEX
  5
3F9
330
3CA
100
AcDbEntity
  8
1
  6
Continuous
 62
     2
100
AcDbVertex
100
AcDb2dVertex
 10
2812.3
 20
3692.51
 30
0.0
  0
VERTEX
  5
3FA
330
3CA
100
AcDbEntity
  8
1
  6
Continuous
 62
     2
100
AcDbVertex
100
AcDb2dVertex
 10
2810.719999999999
 20
3693.44
 30
0.0
  0
VERTEX
  5
3FB
330
3CA
100
AcDbEntity
  8
1
  6
Continuous
 62
     2
100
AcDbVertex
100
AcDb2dVertex
 10
2809.06
 20
3694.12
 30
0.0
  0
VERTEX
  5
3FC
330
3CA
100
AcDbEntity
  8
1
  6
Continuous
 62
     2
100
AcDbVertex
100
AcDb2dVertex
 10
2807.34
 20
3694.55
 30
0.0
  0
VERTEX
  5
3FD
330
3CA
100
AcDbEntity
  8
1
  6
Continuous
 62
     2
100
AcDbVertex
100
AcDb2dVertex
 10
2805.35
 20
3694.699999999999
 30
0.0
  0
SEQEND
  5
3FE
330
3CA
100
AcDbEntity
  8
1
 62
     2
  0
POLYLINE
  5
3FF
330
19
100
AcDbEntity
  8
1
  6
Continuous
 62
     2
100
AcDb2dPolyline
 66
     1
 10
0.0
 20
0.0
 30
0.0
 70
     2
  0
VERTEX
  5
400
330
3FF
100
AcDbEntity
  8
1
  6
Continuous
 62
     2
100
AcDbVertex
100
AcDb2dVertex
 10
2805.35
 20
3704.5
 30
0.0
  0
VERTEX
  5
401
330
3FF
100
AcDbEntity
  8
1
  6
Continuous
 62
     2
100
AcDbVertex
100
AcDb2dVertex
 10
2802.2
 20
3704.29
 30
0.0
  0
VERTEX
  5
402
330
3FF
100
AcDbEntity
  8
1
  6
Continuous
 62
     2
100
AcDbVertex
100
AcDb2dVertex
 10
2799.1
 20
3703.67
 30
0.0
  0
VERTEX
  5
403
330
3FF
100
AcDbEntity
  8
1
  6
Continuous
 62
     2
100
AcDbVertex
100
AcDb2dVertex
 10
2796.1
 20
3702.64
 30
0.0
  0
VERTEX
  5
404
330
3FF
100
AcDbEntity
  8
1
  6
Continuous
 62
     2
100
AcDbVertex
100
AcDb2dVertex
 10
2793.239999999999
 20
3701.22
 30
0.0
  0
VERTEX
  5
405
330
3FF
100
AcDbEntity
  8
1
  6
Continuous
 62
     2
100
AcDbVertex
100
AcDb2dVertex
 10
2790.57
 20
3699.44
 30
0.0
  0
VERTEX
  5
406
330
3FF
100
AcDbEntity
  8
1
  6
Continuous
 62
     2
100
AcDbVertex
100
AcDb2dVertex
 10
2788.14
 20
3697.33
 30
0.0
  0
VERTEX
  5
407
330
3FF
100
AcDbEntity
  8
1
  6
Continuous
 62
     2
100
AcDbVertex
100
AcDb2dVertex
 10
2785.97
 20
3694.9
 30
0.0
  0
VERTEX
  5
408
330
3FF
100
AcDbEntity
  8
1
  6
Continuous
 62
     2
100
AcDbVertex
100
AcDb2dVertex
 10
2784.11
 20
3692.21
 30
0.0
  0
VERTEX
  5
409
330
3FF
100
AcDbEntity
  8
1
  6
Continuous
 62
     2
100
AcDbVertex
100
AcDb2dVertex
 10
2782.58
 20
3689.3
 30
0.0
  0
VERTEX
  5
40A
330
3FF
100
AcDbEntity
  8
1
  6
Continuous
 62
     2
100
AcDbVertex
100
AcDb2dVertex
 10
2781.41
 20
3686.2
 30
0.0
  0
VERTEX
  5
40B
330
3FF
100
AcDbEntity
  8
1
  6
Continuous
 62
     2
100
AcDbVertex
100
AcDb2dVertex
 10
2780.61
 20
3682.98
 30
0.0
  0
VERTEX
  5
40C
330
3FF
100
AcDbEntity
  8
1
  6
Continuous
 62
     2
100
AcDbVertex
100
AcDb2dVertex
 10
2780.2
 20
3679.67
 30
0.0
  0
VERTEX
  5
40D
330
3FF
100
AcDbEntity
  8
1
  6
Continuous
 62
     2
100
AcDbVertex
100
AcDb2dVertex
 10
2780.19
 20
3676.34
 30
0.0
  0
VERTEX
  5
40E
330
3FF
100
AcDbEntity
  8
1
  6
Continuous
 62
     2
100
AcDbVertex
100
AcDb2dVertex
 10
2780.57
 20
3673.03
 30
0.0
  0
VERTEX
  5
40F
330
3FF
100
AcDbEntity
  8
1
  6
Continuous
 62
     2
100
AcDbVertex
100
AcDb2dVertex
 10
2781.34
 20
3669.8
 30
0.0
  0
VERTEX
  5
410
330
3FF
100
AcDbEntity
  8
1
  6
Continuous
 62
     2
100
AcDbVertex
100
AcDb2dVertex
 10
2782.48
 20
3666.69
 30
0.0
  0
VERTEX
  5
411
330
3FF
100
AcDbEntity
  8
1
  6
Continuous
 62
     2
100
AcDbVertex
100
AcDb2dVertex
 10
2783.99
 20
3663.76
 30
0.0
  0
VERTEX
  5
412
330
3FF
100
AcDbEntity
  8
1
  6
Continuous
 62
     2
100
AcDbVertex
100
AcDb2dVertex
 10
2785.83
 20
3661.059999999999
 30
0.0
  0
VERTEX
  5
413
330
3FF
100
AcDbEntity
  8
1
  6
Continuous
 62
     2
100
AcDbVertex
100
AcDb2dVertex
 10
2787.97
 20
3658.61
 30
0.0
  0
VERTEX
  5
414
330
3FF
100
AcDbEntity
  8
1
  6
Continuous
 62
     2
100
AcDbVertex
100
AcDb2dVertex
 10
2790.39
 20
3656.47
 30
0.0
  0
VERTEX
  5
415
330
3FF
100
AcDbEntity
  8
1
  6
Continuous
 62
     2
100
AcDbVertex
100
AcDb2dVertex
 10
2793.05
 20
3654.659999999999
 30
0.0
  0
VERTEX
  5
416
330
3FF
100
AcDbEntity
  8
1
  6
Continuous
 62
     2
100
AcDbVertex
100
AcDb2dVertex
 10
2795.9
 20
3653.219999999999
 30
0.0
  0
VERTEX
  5
417
330
3FF
100
AcDbEntity
  8
1
  6
Continuous
 62
     2
100
AcDbVertex
100
AcDb2dVertex
 10
2798.89
 20
3652.17
 30
0.0
  0
VERTEX
  5
418
330
3FF
100
AcDbEntity
  8
1
  6
Continuous
 62
     2
100
AcDbVertex
100
AcDb2dVertex
 10
2801.989999999999
 20
3651.51
 30
0.0
  0
VERTEX
  5
419
330
3FF
100
AcDbEntity
  8
1
  6
Continuous
 62
     2
100
AcDbVertex
100
AcDb2dVertex
 10
2805.14
 20
3651.28
 30
0.0
  0
VERTEX
  5
41A
330
3FF
100
AcDbEntity
  8
1
  6
Continuous
 62
     2
100
AcDbVertex
100
AcDb2dVertex
 10
2808.289999999999
 20
3651.46
 30
0.0
  0
VERTEX
  5
41B
330
3FF
100
AcDbEntity
  8
1
  6
Continuous
 62
     2
100
AcDbVertex
100
AcDb2dVertex
 10
2811.4
 20
3652.05
 30
0.0
  0
VERTEX
  5
41C
330
3FF
100
AcDbEntity
  8
1
  6
Continuous
 62
     2
100
AcDbVertex
100
AcDb2dVertex
 10
2814.41
 20
3653.05
 30
0.0
  0
VERTEX
  5
41D
330
3FF
100
AcDbEntity
  8
1
  6
Continuous
 62
     2
100
AcDbVertex
100
AcDb2dVertex
 10
2817.289999999999
 20
3654.44
 30
0.0
  0
VERTEX
  5
41E
330
3FF
100
AcDbEntity
  8
1
  6
Continuous
 62
     2
100
AcDbVertex
100
AcDb2dVertex
 10
2819.969999999999
 20
3656.2
 30
0.0
  0
VERTEX
  5
41F
330
3FF
100
AcDbEntity
  8
1
  6
Continuous
 62
     2
100
AcDbVertex
100
AcDb2dVertex
 10
2822.43
 20
3658.3
 30
0.0
  0
VERTEX
  5
420
330
3FF
100
AcDbEntity
  8
1
  6
Continuous
 62
     2
100
AcDbVertex
100
AcDb2dVertex
 10
2824.61
 20
3660.7
 30
0.0
  0
VERTEX
  5
421
330
3FF
100
AcDbEntity
  8
1
  6
Continuous
 62
     2
100
AcDbVertex
100
AcDb2dVertex
 10
2826.5
 20
3663.38
 30
0.0
  0
VERTEX
  5
422
330
3FF
100
AcDbEntity
  8
1
  6
Continuous
 62
     2
100
AcDbVertex
100
AcDb2dVertex
 10
2828.05
 20
3666.28
 30
0.0
  0
VERTEX
  5
423
330
3FF
100
AcDbEntity
  8
1
  6
Continuous
 62
     2
100
AcDbVertex
100
AcDb2dVertex
 10
2829.25
 20
3669.37
 30
0.0
  0
VERTEX
  5
424
330
3FF
100
AcDbEntity
  8
1
  6
Continuous
 62
     2
100
AcDbVertex
100
AcDb2dVertex
 10
2830.07
 20
3672.59
 30
0.0
  0
VERTEX
  5
425
330
3FF
100
AcDbEntity
  8
1
  6
Continuous
 62
     2
100
AcDbVertex
100
AcDb2dVertex
 10
2830.51
 20
3675.889999999999
 30
0.0
  0
VERTEX
  5
426
330
3FF
100
AcDbEntity
  8
1
  6
Continuous
 62
     2
100
AcDbVertex
100
AcDb2dVertex
 10
2830.55
 20
3679.22
 30
0.0
  0
VERTEX
  5
427
330
3FF
100
AcDbEntity
  8
1
  6
Continuous
 62
     2
100
AcDbVertex
100
AcDb2dVertex
 10
2830.199999999999
 20
3682.54
 30
0.0
  0
VERTEX
  5
428
330
3FF
100
AcDbEntity
  8
1
  6
Continuous
 62
     2
100
AcDbVertex
100
AcDb2dVertex
 10
2829.449999999999
 20
3685.78
 30
0.0
  0
VERTEX
  5
429
330
3FF
100
AcDbEntity
  8
1
  6
Continuous
 62
     2
100
AcDbVertex
100
AcDb2dVertex
 10
2828.33
 20
3688.9
 30
0.0
  0
VERTEX
  5
42A
330
3FF
100
AcDbEntity
  8
1
  6
Continuous
 62
     2
100
AcDbVertex
100
AcDb2dVertex
 10
2826.85
 20
3691.84
 30
0.0
  0
VERTEX
  5
42B
330
3FF
100
AcDbEntity
  8
1
  6
Continuous
 62
     2
100
AcDbVertex
100
AcDb2dVertex
 10
2825.03
 20
3694.57
 30
0.0
  0
VERTEX
  5
42C
330
3FF
100
AcDbEntity
  8
1
  6
Continuous
 62
     2
100
AcDbVertex
100
AcDb2dVertex
 10
2822.9
 20
3697.039999999999
 30
0.0
  0
VERTEX
  5
42D
330
3FF
100
AcDbEntity
  8
1
  6
Continuous
 62
     2
100
AcDbVertex
100
AcDb2dVertex
 10
2820.5
 20
3699.199999999999
 30
0.0
  0
VERTEX
  5
42E
330
3FF
100
AcDbEntity
  8
1
  6
Continuous
 62
     2
100
AcDbVertex
100
AcDb2dVertex
 10
2817.849999999999
 20
3701.03
 30
0.0
  0
VERTEX
  5
42F
330
3FF
100
AcDbEntity
  8
1
  6
Continuous
 62
     2
100
AcDbVertex
100
AcDb2dVertex
 10
2815.02
 20
3702.5
 30
0.0
  0
VERTEX
  5
430
330
3FF
100
AcDbEntity
  8
1
  6
Continuous
 62
     2
100
AcDbVertex
100
AcDb2dVertex
 10
2812.03
 20
3703.59
 30
0.0
  0
VERTEX
  5
431
330
3FF
100
AcDbEntity
  8
1
  6
Continuous
 62
     2
100
AcDbVertex
100
AcDb2dVertex
 10
2808.93
 20
3704.27
 30
0.0
  0
VERTEX
  5
432
330
3FF
100
AcDbEntity
  8
1
  6
Continuous
 62
     2
100
AcDbVertex
100
AcDb2dVertex
 10
2805.35
 20
3704.5
 30
0.0
  0
SEQEND
  5
433
330
3FF
100
AcDbEntity
  8
1
 62
     2
  0
LWPOLYLINE
  5
434
330
19
100
AcDbEntity
  8
1
  6
Continuous
 62
     2
100
AcDbPolyline
 90
       13
 70
     0
 43
0.0
 10
2729.05
 20
3704.5
 10
2742.35
 20
3704.5
 10
2742.35
 20
3684.2
 10
2760.55
 20
3703.1
 10
2778.05
 20
3703.1
 10
2757.05
 20
3682.1
 10
2780.85
 20
3651.3
 10
2762.65
 20
3651.3
 10
2748.65
 20
3672.3
 10
2742.35
 20
3666.7
 10
2742.35
 20
3651.3
 10
2729.05
 20
3651.3
 10
2729.05
 20
3704.5
  0
ARC
  5
443
330
19
100
AcDbEntity
  8
1
  6
Continuous
 62
     2
100
AcDbCircle
 10
2636.65
 20
3675.8
 30
0.0
 40
24.5
100
AcDbArc
 50
270.0
 51
0.0
  0
ARC
  5
444
330
19
100
AcDbEntity
  8
1
  6
Continuous
 62
     2
100
AcDbCircle
 10
2636.65
 20
3680.0
 30
0.0
 40
24.5
100
AcDbArc
 50
0.0
 51
90.0
  0
LINE
  5
445
330
19
100
AcDbEntity
  8
1
  6
Continuous
 62
     2
100
AcDbLine
 10
2636.65
 20
3691.2
 30
0.0
 11
2628.95
 21
3691.2
 31
0.0
  0
ARC
  5
446
330
19
100
AcDbEntity
  8
1
  6
Continuous
 62
     2
100
AcDbCircle
 10
2636.65
 20
3680.0
 30
0.0
 40
11.19999999999999
100
AcDbArc
 50
0.0
 51
90.0
  0
TEXT
  5
454
330
19
100
AcDbEntity
  8
1
 62
     3
100
AcDbText
 10
4441.329999999999
 20
13.8467
 30
0.0
 40
40.0
  1
１／１０
 41
0.7
100
AcDbText
  0
LINE
  5
4E9
330
19
100
AcDbEntity
  8
1
  6
Continuous
 62
     1
100
AcDbLine
 10
4413.149999999999
 20
652.321
 30
0.0
 11
5116.74
 21
652.321
 31
0.0
  0
LINE
  5
4EA
330
19
100
AcDbEntity
  8
1
  6
Continuous
 62
     1
100
AcDbLine
 10
382.665
 20
652.321
 30
0.0
 11
382.665
 21
3252.32
 31
0.0
  0
LINE
  5
4EB
330
19
100
AcDbEntity
  8
1
  6
Continuous
 62
     1
100
AcDbLine
 10
382.665
 20
3252.32
 30
0.0
 11
2082.66
 21
3252.32
 31
0.0
  0
LINE
  5
4EC
330
19
100
AcDbEntity
  8
1
  6
Continuous
 62
     1
100
AcDbLine
 10
382.665
 20
652.321
 30
0.0
 11
3982.66
 21
652.321
 31
0.0
  0
LINE
  5
4ED
330
19
100
AcDbEntity
  8
1
  6
Continuous
 62
     1
100
AcDbLine
 10
4413.149999999999
 20
3252.32
 30
0.0
 11
5116.74
 21
3252.32
 31
0.0
  0
LINE
  5
4EE
330
19
100
AcDbEntity
  8
1
  6
DIVIDE
 62
     3
100
AcDbLine
 10
3982.66
 20
652.321
 30
0.0
 11
3982.66
 21
3052.32
 31
0.0
  0
POINT
  5
5CE
330
19
100
AcDbEntity
  8
1
 62
     3
100
AcDbPoint
 10
682.6649999999999
 20
652.321
 30
0.0
  0
POINT
  5
5CF
330
19
100
AcDbEntity
  8
1
 62
     3
100
AcDbPoint
 10
4850.54
 20
652.321
 30
0.0
  0
LINE
  5
5D0
330
19
100
AcDbEntity
  8
1
  6
DASHDOT
 62
     3
100
AcDbLine
 10
4900.54
 20
638.178
 30
0.0
 11
4900.54
 21
678.463
 31
0.0
  0
LINE
  5
5D1
330
19
100
AcDbEntity
  8
1
  6
DASHDOT
 62
     3
100
AcDbLine
 10
4800.54
 20
638.178
 30
0.0
 11
4800.54
 21
678.463
 31
0.0
  0
LWPOLYLINE
  5
5D2
330
19
100
AcDbEntity
  8
1
  6
Continuous
 62
     1
100
AcDbPolyline
 90
        5
 70
     0
 43
0.0
 10
4913.04
 20
658.321
 10
4788.04
 20
658.321
 10
4788.04
 20
652.321
 10
4913.04
 20
652.321
 10
4913.04
 20
658.321
  0
LINE
  5
5D9
330
19
100
AcDbEntity
  8
1
  6
DASHDOT
 62
     3
100
AcDbLine
 10
682.6649999999999
 20
697.675
 30
0.0
 11
682.6649999999999
 21
656.047
 31
0.0
  0
LINE
  5
5DA
330
19
100
AcDbEntity
  8
1
  6
DASHDOT
 62
     3
100
AcDbLine
 10
612.6649999999999
 20
677.0269999999999
 30
0.0
 11
612.6649999999999
 21
616.901
 31
0.0
  0
LINE
  5
5DB
330
19
100
AcDbEntity
  8
1
  6
DASHDOT
 62
     3
100
AcDbLine
 10
832.6649999999998
 20
677.0269999999999
 30
0.0
 11
832.6649999999998
 21
616.901
 31
0.0
  0
LWPOLYLINE
  5
5DC
330
19
100
AcDbEntity
  8
1
  6
Continuous
 62
     1
100
AcDbPolyline
 90
        5
 70
     0
 43
0.0
 10
597.6649999999999
 20
658.321
 10
597.6649999999999
 20
652.321
 10
847.6649999999999
 20
652.321
 10
847.6649999999999
 20
658.321
 10
597.6649999999999
 20
658.321
  0
LWPOLYLINE
  5
5E3
330
19
100
AcDbEntity
  8
1
  6
Continuous
 62
     2
100
AcDbPolyline
 90
        4
 70
     0
 43
0.0
 10
810.1649999999999
 20
658.321
 10
810.1649999999999
 20
663.321
 10
725.1649999999999
 20
748.321
 10
720.1649999999999
 20
748.321
  0
LINE
  5
5E9
330
19
100
AcDbEntity
  8
1
  6
Continuous
 62
     2
100
AcDbLine
 10
720.1649999999999
 20
682.61
 30
0.0
 11
744.4539999999999
 21
658.321
 31
0.0
  0
ARC
  5
5EA
330
19
100
AcDbEntity
  8
1
  6
Continuous
 62
     2
100
AcDbCircle
 10
461.6649999999999
 20
3405.24
 30
0.0
 40
23.0
100
AcDbArc
 50
90.0
 51
270.0
  0
ARC
  5
5EB
330
19
100
AcDbEntity
  8
1
  6
Continuous
 62
     2
100
AcDbCircle
 10
461.6649999999999
 20
3405.24
 30
0.0
 40
31.0
100
AcDbArc
 50
90.0
 51
270.0
  0
LINE
  5
5EC
330
19
100
AcDbEntity
  8
1
  6
Continuous
 62
     2
100
AcDbLine
 10
1085.66
 20
3428.239999999999
 30
0.0
 11
461.6649999999999
 21
3428.239999999999
 31
0.0
  0
LINE
  5
5ED
330
19
100
AcDbEntity
  8
1
  6
Continuous
 62
     2
100
AcDbLine
 10
1085.66
 20
3382.24
 30
0.0
 11
461.6649999999999
 21
3382.24
 31
0.0
  0
LINE
  5
5EE
330
19
100
AcDbEntity
  8
1
  6
Continuous
 62
     2
100
AcDbLine
 10
461.6649999999999
 20
3374.239999999999
 30
0.0
 11
1085.66
 21
3374.239999999999
 31
0.0
  0
ARC
  5
5EF
330
19
100
AcDbEntity
  8
1
  6
Continuous
 62
     2
100
AcDbCircle
 10
1085.66
 20
3378.239999999999
 30
0.0
 40
4.0
100
AcDbArc
 50
270.0
 51
90.0
  0
ARC
  5
5F0
330
19
100
AcDbEntity
  8
1
  6
Continuous
 62
     2
100
AcDbCircle
 10
1085.66
 20
3432.24
 30
0.0
 40
4.0
100
AcDbArc
 50
270.0
 51
90.0
  0
LINE
  5
5F1
330
19
100
AcDbEntity
  8
1
  6
Continuous
 62
     2
100
AcDbLine
 10
974.665
 20
3382.24
 30
0.0
 11
974.665
 21
3428.239999999999
 31
0.0
  0
LINE
  5
5F2
330
19
100
AcDbEntity
  8
1
  6
Continuous
 62
     2
100
AcDbLine
 10
966.665
 20
3382.24
 30
0.0
 11
966.665
 21
3428.239999999999
 31
0.0
  0
LINE
  5
5F3
330
19
100
AcDbEntity
  8
1
  6
Continuous
 62
     2
100
AcDbLine
 10
600.6649999999999
 20
3382.24
 30
0.0
 11
600.6649999999999
 21
3428.239999999999
 31
0.0
  0
LWPOLYLINE
  5
5F4
330
19
100
AcDbEntity
  8
1
  6
Continuous
 62
     2
100
AcDbPolyline
 90
        4
 70
     0
 43
0.0
 10
1940.66
 20
3431.74
 10
1980.66
 20
3431.74
 10
1980.66
 20
3378.74
 10
1940.66
 20
3378.74
  0
LINE
  5
5FA
330
19
100
AcDbEntity
  8
1
  6
DASHDOT
 62
     3
100
AcDbLine
 10
2029.59
 20
3405.24
 30
0.0
 11
378.452
 21
3405.24
 31
0.0
  0
ARC
  5
5FB
330
19
100
AcDbEntity
  8
1
  6
Continuous
 62
     2
100
AcDbCircle
 10
463.665
 20
3500.24
 30
0.0
 40
23.0
100
AcDbArc
 50
90.0
 51
270.0
  0
ARC
  5
5FC
330
19
100
AcDbEntity
  8
1
  6
Continuous
 62
     2
100
AcDbCircle
 10
463.665
 20
3500.24
 30
0.0
 40
31.0
100
AcDbArc
 50
90.0
 51
270.0
  0
LINE
  5
5FD
330
19
100
AcDbEntity
  8
1
  6
Continuous
 62
     2
100
AcDbLine
 10
1087.66
 20
3523.239999999999
 30
0.0
 11
463.665
 21
3523.239999999999
 31
0.0
  0
LINE
  5
5FE
330
19
100
AcDbEntity
  8
1
  6
Continuous
 62
     2
100
AcDbLine
 10
463.665
 20
3531.239999999999
 30
0.0
 11
1087.66
 21
3531.239999999999
 31
0.0
  0
LINE
  5
5FF
330
19
100
AcDbEntity
  8
1
  6
Continuous
 62
     2
100
AcDbLine
 10
1087.66
 20
3477.24
 30
0.0
 11
463.665
 21
3477.24
 31
0.0
  0
LINE
  5
600
330
19
100
AcDbEntity
  8
1
  6
Continuous
 62
     2
100
AcDbLine
 10
463.665
 20
3469.24
 30
0.0
 11
1087.66
 21
3469.24
 31
0.0
  0
LINE
  5
601
330
19
100
AcDbEntity
  8
1
  6
Continuous
 62
     2
100
AcDbLine
 10
2098.38
 20
3544.19
 30
0.0
 11
2162.679999999999
 21
3534.88
 31
0.0
  0
LINE
  5
602
330
19
100
AcDbEntity
  8
1
  6
Continuous
 62
     2
100
AcDbLine
 10
2161.239999999999
 20
3524.98
 30
0.0
 11
2096.94
 21
3534.29
 31
0.0
  0
LINE
  5
603
330
19
100
AcDbEntity
  8
1
  6
Continuous
 62
     2
100
AcDbLine
 10
2161.239999999999
 20
3475.5
 30
0.0
 11
2096.94
 21
3466.19
 31
0.0
  0
LINE
  5
604
330
19
100
AcDbEntity
  8
1
  6
Continuous
 62
     2
100
AcDbLine
 10
2162.679999999999
 20
3465.6
 30
0.0
 11
2098.38
 21
3456.29
 31
0.0
  0
ARC
  5
605
330
19
100
AcDbEntity
  8
1
  6
Continuous
 62
     2
100
AcDbCircle
 10
2157.659999999999
 20
3500.24
 30
0.0
 40
25.0
100
AcDbArc
 50
278.2379999999999
 51
81.76150000000001
  0
ARC
  5
606
330
19
100
AcDbEntity
  8
1
  6
Continuous
 62
     2
100
AcDbCircle
 10
2157.659999999999
 20
3500.24
 30
0.0
 40
35.0
100
AcDbArc
 50
278.2379999999999
 51
81.76150000000001
  0
ARC
  5
607
330
19
100
AcDbEntity
  8
1
  6
Continuous
 62
     2
100
AcDbCircle
 10
1087.66
 20
3473.24
 30
0.0
 40
4.0
100
AcDbArc
 50
270.0
 51
90.0
  0
ARC
  5
608
330
19
100
AcDbEntity
  8
1
  6
Continuous
 62
     2
100
AcDbCircle
 10
1087.66
 20
3527.239999999999
 30
0.0
 40
4.0
100
AcDbArc
 50
270.0
 51
90.0
  0
ARC
  5
609
330
19
100
AcDbEntity
  8
1
  6
Continuous
 62
     2
100
AcDbCircle
 10
2097.659999999999
 20
3461.24
 30
0.0
 40
5.0
100
AcDbArc
 50
90.0
 51
270.0
  0
ARC
  5
60A
330
19
100
AcDbEntity
  8
1
  6
Continuous
 62
     2
100
AcDbCircle
 10
2097.659999999999
 20
3539.24
 30
0.0
 40
5.0
100
AcDbArc
 50
90.0
 51
270.0
  0
LINE
  5
60B
330
19
100
AcDbEntity
  8
1
  6
DASHDOT
 62
     3
100
AcDbLine
 10
2307.199999999999
 20
3500.24
 30
0.0
 11
358.6149999999999
 21
3500.24
 31
0.0
  0
LINE
  5
60C
330
19
100
AcDbEntity
  8
1
  6
DASHDOT
 62
     3
100
AcDbLine
 10
682.6649999999999
 20
3331.239999999999
 30
0.0
 11
682.6649999999999
 21
3579.66
 31
0.0
  0
LINE
  5
60D
330
19
100
AcDbEntity
  8
1
  6
Continuous
 62
     3
100
AcDbLine
 10
2282.659999999999
 20
3430.239999999999
 30
0.0
 11
2416.02
 21
3430.239999999999
 31
0.0
  0
LINE
  5
60E
330
19
100
AcDbEntity
  8
1
  6
Continuous
 62
     3
100
AcDbLine
 10
2416.02
 20
3570.24
 30
0.0
 11
2282.659999999999
 21
3570.24
 31
0.0
  0
LINE
  5
60F
330
19
100
AcDbEntity
  8
1
  6
Continuous
 62
     3
100
AcDbLine
 10
2396.02
 20
3570.24
 30
0.0
 11
2396.02
 21
3430.239999999999
 31
0.0
  0
LINE
  5
610
330
19
100
AcDbEntity
  8
1
  6
Continuous
 62
     3
100
AcDbLine
 10
2396.02
 20
3570.24
 30
0.0
 11
2392.49
 21
3550.24
 31
0.0
  0
LINE
  5
611
330
19
100
AcDbEntity
  8
1
  6
Continuous
 62
     3
100
AcDbLine
 10
2396.02
 20
3570.24
 30
0.0
 11
2399.55
 21
3550.24
 31
0.0
  0
LINE
  5
612
330
19
100
AcDbEntity
  8
1
  6
Continuous
 62
     3
100
AcDbLine
 10
2396.02
 20
3430.239999999999
 30
0.0
 11
2399.55
 21
3450.24
 31
0.0
  0
LINE
  5
613
330
19
100
AcDbEntity
  8
1
  6
Continuous
 62
     3
100
AcDbLine
 10
2396.02
 20
3430.239999999999
 30
0.0
 11
2392.49
 21
3450.24
 31
0.0
  0
TEXT
  5
614
330
19
100
AcDbEntity
  8
1
 62
     3
100
AcDbText
 10
2396.02
 20
3458.239999999999
 30
0.0
 40
40.0
  1
１４０
 50
90.0
 41
0.7
100
AcDbText
  0
LINE
  5
615
330
19
100
AcDbEntity
  8
1
  6
Continuous
 62
     3
100
AcDbLine
 10
2282.659999999999
 20
3570.24
 30
0.0
 11
2282.659999999999
 21
3633.919999999999
 31
0.0
  0
LINE
  5
616
330
19
100
AcDbEntity
  8
1
  6
Continuous
 62
     3
100
AcDbLine
 10
378.452
 20
3405.24
 30
0.0
 11
327.13
 21
3405.24
 31
0.0
  0
LINE
  5
617
330
19
100
AcDbEntity
  8
1
  6
Continuous
 62
     3
100
AcDbLine
 10
327.13
 20
3500.24
 30
0.0
 11
358.6149999999999
 21
3500.24
 31
0.0
  0
LINE
  5
618
330
19
100
AcDbEntity
  8
1
  6
Continuous
 62
     3
100
AcDbLine
 10
347.1299999999999
 20
3500.24
 30
0.0
 11
347.1299999999999
 21
3405.24
 31
0.0
  0
LINE
  5
619
330
19
100
AcDbEntity
  8
1
  6
Continuous
 62
     3
100
AcDbLine
 10
347.1299999999999
 20
3500.24
 30
0.0
 11
343.604
 21
3480.24
 31
0.0
  0
LINE
  5
61A
330
19
100
AcDbEntity
  8
1
  6
Continuous
 62
     3
100
AcDbLine
 10
347.1299999999999
 20
3500.24
 30
0.0
 11
350.6569999999999
 21
3480.24
 31
0.0
  0
LINE
  5
61B
330
19
100
AcDbEntity
  8
1
  6
Continuous
 62
     3
100
AcDbLine
 10
347.1299999999999
 20
3405.24
 30
0.0
 11
350.6569999999999
 21
3425.24
 31
0.0
  0
LINE
  5
61C
330
19
100
AcDbEntity
  8
1
  6
Continuous
 62
     3
100
AcDbLine
 10
347.1299999999999
 20
3405.24
 30
0.0
 11
343.604
 21
3425.24
 31
0.0
  0
TEXT
  5
61D
330
19
100
AcDbEntity
  8
1
 62
     3
100
AcDbText
 10
347.1299999999999
 20
3424.739999999999
 30
0.0
 40
40.0
  1
９５
 50
90.0
 41
0.7
100
AcDbText
  0
LINE
  5
61E
330
19
100
AcDbEntity
  8
1
  6
Continuous
 62
     3
100
AcDbLine
 10
432.6649999999999
 20
3500.24
 30
0.0
 11
432.6649999999999
 21
3597.98
 31
0.0
  0
LINE
  5
61F
330
19
100
AcDbEntity
  8
1
  6
Continuous
 62
     3
100
AcDbLine
 10
2282.659999999999
 20
3633.919999999999
 30
0.0
 11
2282.659999999999
 21
3604.41
 31
0.0
  0
LINE
  5
620
330
19
100
AcDbEntity
  8
1
  6
Continuous
 62
     3
100
AcDbLine
 10
432.6649999999999
 20
3644.41
 30
0.0
 11
432.6649999999999
 21
3597.98
 31
0.0
  0
LINE
  5
621
330
19
100
AcDbEntity
  8
1
  6
Continuous
 62
     3
100
AcDbLine
 10
432.6649999999999
 20
3624.409999999999
 30
0.0
 11
2282.659999999999
 21
3624.409999999999
 31
0.0
  0
LINE
  5
622
330
19
100
AcDbEntity
  8
1
  6
Continuous
 62
     3
100
AcDbLine
 10
432.6649999999999
 20
3624.409999999999
 30
0.0
 11
452.665
 21
3620.88
 31
0.0
  0
LINE
  5
623
330
19
100
AcDbEntity
  8
1
  6
Continuous
 62
     3
100
AcDbLine
 10
432.6649999999999
 20
3624.409999999999
 30
0.0
 11
452.665
 21
3627.93
 31
0.0
  0
LINE
  5
624
330
19
100
AcDbEntity
  8
1
  6
Continuous
 62
     3
100
AcDbLine
 10
2282.659999999999
 20
3624.409999999999
 30
0.0
 11
2262.659999999999
 21
3627.93
 31
0.0
  0
LINE
  5
625
330
19
100
AcDbEntity
  8
1
  6
Continuous
 62
     3
100
AcDbLine
 10
2282.659999999999
 20
3624.409999999999
 30
0.0
 11
2262.659999999999
 21
3620.88
 31
0.0
  0
TEXT
  5
626
330
19
100
AcDbEntity
  8
1
 62
     3
100
AcDbText
 10
1301.66
 20
3624.409999999999
 30
0.0
 40
40.0
  1
１８７０
 41
0.7
100
AcDbText
  0
LINE
  5
627
330
19
100
AcDbEntity
  8
1
  6
Continuous
 62
     3
100
AcDbLine
 10
4900.54
 20
638.178
 30
0.0
 11
4900.54
 21
553.347
 31
0.0
  0
LINE
  5
628
330
19
100
AcDbEntity
  8
1
  6
Continuous
 62
     3
100
AcDbLine
 10
4800.54
 20
553.347
 30
0.0
 11
4800.54
 21
638.178
 31
0.0
  0
LINE
  5
629
330
19
100
AcDbEntity
  8
1
  6
Continuous
 62
     3
100
AcDbLine
 10
4800.54
 20
573.3469999999999
 30
0.0
 11
4900.54
 21
573.3469999999999
 31
0.0
  0
LINE
  5
62A
330
19
100
AcDbEntity
  8
1
  6
Continuous
 62
     3
100
AcDbLine
 10
4800.54
 20
573.3469999999999
 30
0.0
 11
4820.54
 21
569.82
 31
0.0
  0
LINE
  5
62B
330
19
100
AcDbEntity
  8
1
  6
Continuous
 62
     3
100
AcDbLine
 10
4800.54
 20
573.3469999999999
 30
0.0
 11
4820.54
 21
576.873
 31
0.0
  0
LINE
  5
62C
330
19
100
AcDbEntity
  8
1
  6
Continuous
 62
     3
100
AcDbLine
 10
4900.54
 20
573.3469999999999
 30
0.0
 11
4880.539999999999
 21
576.873
 31
0.0
  0
LINE
  5
62D
330
19
100
AcDbEntity
  8
1
  6
Continuous
 62
     3
100
AcDbLine
 10
4900.54
 20
573.3469999999999
 30
0.0
 11
4880.539999999999
 21
569.82
 31
0.0
  0
TEXT
  5
62E
330
19
100
AcDbEntity
  8
1
 62
     3
100
AcDbText
 10
4808.54
 20
573.3469999999999
 30
0.0
 40
40.0
  1
１００
 41
0.7
100
AcDbText
  0
LWPOLYLINE
  5
62F
330
19
100
AcDbEntity
  8
1
  6
Continuous
 62
     2
100
AcDbPolyline
 90
        4
 70
     0
 43
0.0
 10
2232.66
 20
3430.239999999999
 10
2282.659999999999
 20
3430.239999999999
 10
2282.659999999999
 20
3432.24
 10
2232.66
 20
3432.24
  0
LINE
  5
635
330
19
100
AcDbEntity
  8
1
  6
Continuous
 62
     2
100
AcDbLine
 10
1982.66
 20
3475.44
 30
0.0
 11
2232.66
 21
3432.24
 31
0.0
  0
LWPOLYLINE
  5
636
330
19
100
AcDbEntity
  8
1
  6
Continuous
 62
     2
100
AcDbPolyline
 90
        4
 70
     0
 43
0.0
 10
2232.66
 20
3570.24
 10
2282.659999999999
 20
3570.24
 10
2282.659999999999
 20
3568.24
 10
2232.66
 20
3568.24
  0
LINE
  5
63C
330
19
100
AcDbEntity
  8
1
  6
Continuous
 62
     2
100
AcDbLine
 10
1982.66
 20
3525.04
 30
0.0
 11
2232.66
 21
3568.24
 31
0.0
  0
LINE
  5
63D
330
19
100
AcDbEntity
  8
1
  6
Continuous
 62
     2
100
AcDbLine
 10
1977.66
 20
3475.74
 30
0.0
 11
1977.66
 21
3524.739999999999
 31
0.0
  0
ARC
  5
63E
330
19
100
AcDbEntity
  8
1
  6
Continuous
 62
     2
100
AcDbCircle
 10
4889.54
 20
2158.32
 30
0.0
 40
5.0
100
AcDbArc
 50
270.0
 51
90.0
  0
ARC
  5
63F
330
19
100
AcDbEntity
  8
1
  6
Continuous
 62
     2
100
AcDbCircle
 10
4811.54
 20
2158.32
 30
0.0
 40
5.0
100
AcDbArc
 50
90.0
 51
270.0
  0
LINE
  5
640
330
19
100
AcDbEntity
  8
1
  6
Continuous
 62
     2
100
AcDbLine
 10
4811.54
 20
2163.32
 30
0.0
 11
4889.54
 21
2163.32
 31
0.0
  0
LINE
  5
641
330
19
100
AcDbEntity
  8
1
  6
Continuous
 62
     2
100
AcDbLine
 10
4889.54
 20
2153.32
 30
0.0
 11
4811.54
 21
2153.32
 31
0.0
  0
LINE
  5
642
330
19
100
AcDbEntity
  8
1
  6
DASHDOT
 62
     3
100
AcDbLine
 10
4850.54
 20
1869.979999999999
 30
0.0
 11
4850.54
 21
2174.1
 31
0.0
  0
LINE
  5
643
330
19
100
AcDbEntity
  8
1
  6
Continuous
 62
     2
100
AcDbLine
 10
4793.54
 20
1912.32
 30
0.0
 11
4907.54
 21
1912.32
 31
0.0
  0
ARC
  5
644
330
19
100
AcDbEntity
  8
1
  6
Continuous
 62
     2
100
AcDbCircle
 10
4907.54
 20
1917.32
 30
0.0
 40
5.0
100
AcDbArc
 50
270.0
 51
0.0
  0
LINE
  5
645
330
19
100
AcDbEntity
  8
1
  6
Continuous
 62
     2
100
AcDbLine
 10
4912.539999999999
 20
1938.32
 30
0.0
 11
4912.539999999999
 21
1917.32
 31
0.0
  0
LINE
  5
646
330
19
100
AcDbEntity
  8
1
  6
Continuous
 62
     2
100
AcDbLine
 10
4909.34
 20
1917.22
 30
0.0
 11
4909.34
 21
1938.32
 31
0.0
  0
ARC
  5
647
330
19
100
AcDbEntity
  8
1
  6
Continuous
 62
     2
100
AcDbCircle
 10
4907.64
 20
1917.22
 30
0.0
 40
1.7
100
AcDbArc
 50
270.0
 51
0.0
  0
POINT
  5
648
330
19
100
AcDbEntity
  8
1
 62
     2
100
AcDbPoint
 10
4909.34
 20
1915.52
 30
0.0
  0
LINE
  5
649
330
19
100
AcDbEntity
  8
1
  6
Continuous
 62
     2
100
AcDbLine
 10
4907.64
 20
1915.52
 30
0.0
 11
4793.54
 21
1915.52
 31
0.0
  0
ARC
  5
64A
330
19
100
AcDbEntity
  8
1
  6
Continuous
 62
     2
100
AcDbCircle
 10
4793.54
 20
1917.32
 30
0.0
 40
1.8
100
AcDbArc
 50
180.0
 51
270.0
  0
ARC
  5
64B
330
19
100
AcDbEntity
  8
1
  6
Continuous
 62
     2
100
AcDbCircle
 10
4793.54
 20
1917.32
 30
0.0
 40
5.0
100
AcDbArc
 50
180.0
 51
270.0
  0
LINE
  5
64C
330
19
100
AcDbEntity
  8
1
  6
Continuous
 62
     2
100
AcDbLine
 10
4791.739999999999
 20
1917.32
 30
0.0
 11
4791.739999999999
 21
1938.32
 31
0.0
  0
LINE
  5
64D
330
19
100
AcDbEntity
  8
1
  6
Continuous
 62
     2
100
AcDbLine
 10
4788.54
 20
1938.32
 30
0.0
 11
4788.54
 21
1917.32
 31
0.0
  0
LWPOLYLINE
  5
64E
330
19
100
AcDbEntity
  8
1
  6
Continuous
 62
     2
100
AcDbPolyline
 90
        5
 70
     0
 43
0.0
 10
4920.539999999999
 20
1988.319999999999
 10
4918.54
 20
1988.319999999999
 10
4918.54
 20
1938.32
 10
4920.539999999999
 20
1938.32
 10
4920.539999999999
 20
1988.319999999999
  0
LINE
  5
655
330
19
100
AcDbEntity
  8
1
  6
Continuous
 62
     2
100
AcDbLine
 10
4875.04
 20
1938.32
 30
0.0
 11
4918.54
 21
1938.32
 31
0.0
  0
ARC
  5
656
330
19
100
AcDbEntity
  8
1
  6
Continuous
 62
     2
100
AcDbCircle
 10
4873.04
 20
1937.32
 30
0.0
 40
2.0
100
AcDbArc
 50
270.0
 51
0.0
  0
LINE
  5
657
330
19
100
AcDbEntity
  8
1
  6
Continuous
 62
     2
100
AcDbLine
 10
4873.04
 20
1935.32
 30
0.0
 11
4828.04
 21
1935.32
 31
0.0
  0
LINE
  5
658
330
19
100
AcDbEntity
  8
1
  6
Continuous
 62
     2
100
AcDbLine
 10
4877.04
 20
1937.32
 30
0.0
 11
4877.04
 21
1938.32
 31
0.0
  0
ARC
  5
659
330
19
100
AcDbEntity
  8
1
  6
Continuous
 62
     2
100
AcDbCircle
 10
4873.04
 20
1937.32
 30
0.0
 40
4.0
100
AcDbArc
 50
270.0
 51
0.0
  0
LINE
  5
65A
330
19
100
AcDbEntity
  8
1
  6
Continuous
 62
     2
100
AcDbLine
 10
4884.54
 20
1988.319999999999
 30
0.0
 11
4879.039999999999
 21
1988.319999999999
 31
0.0
  0
ARC
  5
65B
330
19
100
AcDbEntity
  8
1
  6
Continuous
 62
     2
100
AcDbCircle
 10
4879.039999999999
 20
1984.32
 30
0.0
 40
4.0
100
AcDbArc
 50
90.0
 51
180.0
  0
LINE
  5
65C
330
19
100
AcDbEntity
  8
1
  6
Continuous
 62
     2
100
AcDbLine
 10
4918.54
 20
1988.319999999999
 30
0.0
 11
4894.54
 21
1988.319999999999
 31
0.0
  0
LWPOLYLINE
  5
65D
330
19
100
AcDbEntity
  8
1
  6
Continuous
 62
     2
100
AcDbPolyline
 90
        5
 70
     0
 43
0.0
 10
4780.54
 20
1988.319999999999
 10
4780.54
 20
1938.32
 10
4782.54
 20
1938.32
 10
4782.54
 20
1988.319999999999
 10
4780.54
 20
1988.319999999999
  0
LINE
  5
664
330
19
100
AcDbEntity
  8
1
  6
Continuous
 62
     2
100
AcDbLine
 10
4806.54
 20
1988.319999999999
 30
0.0
 11
4782.54
 21
1988.319999999999
 31
0.0
  0
ARC
  5
665
330
19
100
AcDbEntity
  8
1
  6
Continuous
 62
     2
100
AcDbCircle
 10
4822.04
 20
1984.32
 30
0.0
 40
4.0
100
AcDbArc
 50
0.0
 51
90.0
  0
LINE
  5
666
330
19
100
AcDbEntity
  8
1
  6
Continuous
 62
     2
100
AcDbLine
 10
4822.04
 20
1988.319999999999
 30
0.0
 11
4816.539999999999
 21
1988.319999999999
 31
0.0
  0
LINE
  5
667
330
19
100
AcDbEntity
  8
1
  6
Continuous
 62
     2
100
AcDbLine
 10
4782.54
 20
1938.32
 30
0.0
 11
4826.04
 21
1938.32
 31
0.0
  0
ARC
  5
668
330
19
100
AcDbEntity
  8
1
  6
Continuous
 62
     2
100
AcDbCircle
 10
4828.04
 20
1937.32
 30
0.0
 40
2.0
100
AcDbArc
 50
180.0
 51
270.0
  0
LINE
  5
669
330
19
100
AcDbEntity
  8
1
  6
Continuous
 62
     2
100
AcDbLine
 10
4824.04
 20
1938.32
 30
0.0
 11
4824.04
 21
1937.32
 31
0.0
  0
ARC
  5
66A
330
19
100
AcDbEntity
  8
1
  6
Continuous
 62
     2
100
AcDbCircle
 10
4828.04
 20
1937.32
 30
0.0
 40
4.0
100
AcDbArc
 50
180.0
 51
270.0
  0
LINE
  5
66B
330
19
100
AcDbEntity
  8
1
  6
Continuous
 62
     2
100
AcDbLine
 10
4828.04
 20
1933.32
 30
0.0
 11
4873.04
 21
1933.32
 31
0.0
  0
LINE
  5
66C
330
19
100
AcDbEntity
  8
1
  6
Continuous
 62
     3
100
AcDbLine
 10
4933.03
 20
1935.32
 30
0.0
 11
5142.21
 21
1935.32
 31
0.0
  0
ARC
  5
66D
330
19
100
AcDbEntity
  8
1
  6
Continuous
 62
     2
100
AcDbCircle
 10
2142.66
 20
2113.32
 30
0.0
 40
50.0
100
AcDbArc
 50
90.0
 51
180.0
  0
ARC
  5
66E
330
19
100
AcDbEntity
  8
1
  6
Continuous
 62
     2
100
AcDbCircle
 10
2142.66
 20
2113.32
 30
0.0
 40
40.0
100
AcDbArc
 50
90.0
 51
180.0
  0
LINE
  5
66F
330
19
100
AcDbEntity
  8
1
  6
Continuous
 62
     2
100
AcDbLine
 10
2187.66
 20
2153.32
 30
0.0
 11
2142.66
 21
2153.32
 31
0.0
  0
LINE
  5
670
330
19
100
AcDbEntity
  8
1
  6
Continuous
 62
     2
100
AcDbLine
 10
2142.66
 20
2163.32
 30
0.0
 11
2187.66
 21
2163.32
 31
0.0
  0
LINE
  5
671
330
19
100
AcDbEntity
  8
1
  6
Continuous
 62
     2
100
AcDbLine
 10
2102.659999999999
 20
2113.32
 30
0.0
 11
2102.659999999999
 21
1988.319999999999
 31
0.0
  0
LINE
  5
672
330
19
100
AcDbEntity
  8
1
  6
Continuous
 62
     2
100
AcDbLine
 10
2092.659999999999
 20
1988.319999999999
 30
0.0
 11
2092.659999999999
 21
2113.32
 31
0.0
  0
LINE
  5
673
330
19
100
AcDbEntity
  8
1
  6
Continuous
 62
     4
100
AcDbLine
 10
2232.66
 20
1978.88
 30
0.0
 11
2232.66
 21
1943.0
 31
0.0
  0
LINE
  5
674
330
19
100
AcDbEntity
  8
1
  6
DOT
 62
     4
100
AcDbLine
 10
1977.66
 20
1933.32
 30
0.0
 11
1977.66
 21
1935.619999999999
 31
0.0
  0
LINE
  5
675
330
19
100
AcDbEntity
  8
1
  6
Continuous
 62
     4
100
AcDbLine
 10
1982.66
 20
1942.93
 30
0.0
 11
1982.66
 21
1980.26
 31
0.0
  0
LWPOLYLINE
  5
676
330
19
100
AcDbEntity
  8
1
  6
Continuous
 62
     5
100
AcDbPolyline
 90
        7
 70
     0
 43
0.0
 10
1511.66
 20
1975.509999999999
 10
1502.66
 20
1980.71
 10
1493.66
 20
1975.509999999999
 10
1493.66
 20
1965.119999999999
 10
1502.66
 20
1959.92
 10
1511.66
 20
1965.119999999999
 10
1511.66
 20
1975.509999999999
  0
CIRCLE
  5
67F
330
19
100
AcDbEntity
  8
1
  6
Continuous
 62
     5
100
AcDbCircle
 10
1502.66
 20
1970.32
 30
0.0
 40
9.0
  0
ARC
  5
680
330
19
100
AcDbEntity
  8
1
  6
Continuous
 62
     2
100
AcDbCircle
 10
1502.66
 20
1970.019999999999
 30
0.0
 40
19.3
100
AcDbArc
 50
60.60349999999999
 51
119.396
  0
ARC
  5
681
330
19
100
AcDbEntity
  8
1
  6
Continuous
 62
     2
100
AcDbCircle
 10
1514.1
 20
1990.319999999999
 30
0.0
 40
2.0
100
AcDbArc
 50
240.603
 51
270.0
  0
ARC
  5
682
330
19
100
AcDbEntity
  8
1
  6
Continuous
 62
     2
100
AcDbCircle
 10
1502.66
 20
1970.019999999999
 30
0.0
 40
21.3
100
AcDbArc
 50
60.60349999999999
 51
119.396
  0
ARC
  5
683
330
19
100
AcDbEntity
  8
1
  6
Continuous
 62
     2
100
AcDbCircle
 10
1514.1
 20
1990.319999999999
 30
0.0
 40
4.0
100
AcDbArc
 50
240.603
 51
270.0
  0
LWPOLYLINE
  5
684
330
19
100
AcDbEntity
  8
1
  6
Continuous
 62
     2
100
AcDbPolyline
 90
        3
 70
     0
 43
0.0
 10
2232.66
 20
1988.319999999999
 10
2232.66
 20
1986.32
 10
1514.1
 20
1986.32
  0
LINE
  5
689
330
19
100
AcDbEntity
  8
1
  6
Continuous
 62
     2
100
AcDbLine
 10
1491.22
 20
1986.32
 30
0.0
 11
514.665
 21
1986.32
 31
0.0
  0
ARC
  5
68A
330
19
100
AcDbEntity
  8
1
  6
Continuous
 62
     2
100
AcDbCircle
 10
1491.22
 20
1990.319999999999
 30
0.0
 40
4.0
100
AcDbArc
 50
270.0
 51
299.3959999999999
  0
LINE
  5
68B
330
19
100
AcDbEntity
  8
1
  6
Continuous
 62
     2
100
AcDbLine
 10
1491.22
 20
1988.319999999999
 30
0.0
 11
514.665
 21
1988.319999999999
 31
0.0
  0
ARC
  5
68C
330
19
100
AcDbEntity
  8
1
  6
Continuous
 62
     2
100
AcDbCircle
 10
1491.22
 20
1990.319999999999
 30
0.0
 40
2.0
100
AcDbArc
 50
270.0
 51
299.3959999999999
  0
LINE
  5
68D
330
19
100
AcDbEntity
  8
1
  6
Continuous
 62
     2
100
AcDbLine
 10
1050.319999999999
 20
2080.57
 30
0.0
 11
435.998
 21
2184.369999999999
 31
0.0
  0
LINE
  5
68E
330
19
100
AcDbEntity
  8
1
  6
Continuous
 62
     2
100
AcDbLine
 10
1051.66
 20
2088.46
 30
0.0
 11
437.331
 21
2192.26
 31
0.0
  0
ARC
  5
68F
330
19
100
AcDbEntity
  8
1
  6
Continuous
 62
     2
100
AcDbCircle
 10
1043.66
 20
2041.13
 30
0.0
 40
40.0
100
AcDbArc
 50
0.0
 51
80.40919999999999
  0
ARC
  5
690
330
19
100
AcDbEntity
  8
1
  6
Continuous
 62
     2
100
AcDbCircle
 10
1043.66
 20
2041.13
 30
0.0
 40
48.0
100
AcDbArc
 50
0.0
 51
80.40919999999999
  0
LINE
  5
691
330
19
100
AcDbEntity
  8
1
  6
Continuous
 62
     2
100
AcDbLine
 10
1083.66
 20
2041.13
 30
0.0
 11
1083.66
 21
1988.319999999999
 31
0.0
  0
LINE
  5
692
330
19
100
AcDbEntity
  8
1
  6
Continuous
 62
     2
100
AcDbLine
 10
1091.66
 20
2041.13
 30
0.0
 11
1091.66
 21
1988.319999999999
 31
0.0
  0
LINE
  5
693
330
19
100
AcDbEntity
  8
1
  6
Continuous
 62
     2
100
AcDbLine
 10
626.6649999999999
 20
2152.159999999999
 30
0.0
 11
626.6649999999999
 21
1988.319999999999
 31
0.0
  0
ARC
  5
694
330
19
100
AcDbEntity
  8
1
  6
Continuous
 62
     2
100
AcDbCircle
 10
436.6649999999999
 20
2188.32
 30
0.0
 40
4.0
100
AcDbArc
 50
80.40919999999999
 51
260.4089999999999
  0
LINE
  5
695
330
19
100
AcDbEntity
  8
1
  6
Continuous
 62
     3
100
AcDbLine
 10
436.6649999999999
 20
2188.32
 30
0.0
 11
337.2049999999999
 21
2188.32
 31
0.0
  0
LINE
  5
696
330
19
100
AcDbEntity
  8
1
  6
Continuous
 62
     3
100
AcDbLine
 10
472.665
 20
1912.32
 30
0.0
 11
343.3949999999999
 21
1912.32
 31
0.0
  0
LWPOLYLINE
  5
697
330
19
100
AcDbEntity
  8
1
  6
DIVIDE
 62
     7
100
AcDbPolyline
 90
        3
 70
     0
 43
0.0
 10
2676.719999999999
 20
973.5750000000001
 10
2675.409999999999
 20
972.065
 10
2133.1
 20
1443.48
  0
ARC
  5
69C
330
19
100
AcDbEntity
  8
1
  6
DIVIDE
 62
     7
100
AcDbCircle
 10
2690.81
 20
1126.95
 30
0.0
 40
50.0
100
AcDbArc
 50
48.99999999999999
 51
139.0
  0
ARC
  5
69D
330
19
100
AcDbEntity
  8
1
  6
DIVIDE
 62
     7
100
AcDbCircle
 10
2690.81
 20
1126.95
 30
0.0
 40
40.0
100
AcDbArc
 50
48.99999999999999
 51
139.0
  0
LINE
  5
69E
330
19
100
AcDbEntity
  8
1
  6
DIVIDE
 62
     7
100
AcDbLine
 10
2751.01
 20
1127.62
 30
0.0
 11
2717.05
 21
1157.14
 31
0.0
  0
LINE
  5
69F
330
19
100
AcDbEntity
  8
1
  6
DIVIDE
 62
     7
100
AcDbLine
 10
2723.61
 20
1164.69
 30
0.0
 11
2757.57
 21
1135.17
 31
0.0
  0
LINE
  5
6A0
330
19
100
AcDbEntity
  8
1
  6
DIVIDE
 62
     7
100
AcDbLine
 10
2660.62
 20
1153.2
 30
0.0
 11
2578.61
 21
1058.859999999999
 31
0.0
  0
LINE
  5
6A1
330
19
100
AcDbEntity
  8
1
  6
DIVIDE
 62
     7
100
AcDbLine
 10
2571.06
 20
1065.42
 30
0.0
 11
2653.07
 21
1159.76
 31
0.0
  0
LINE
  5
6A2
330
19
100
AcDbEntity
  8
1
  6
DIVIDE
 62
     7
100
AcDbLine
 10
2670.53
 20
966.4529999999999
 30
0.0
 11
2646.99
 21
939.372
 31
0.0
  0
LINE
  5
6A3
330
19
100
AcDbEntity
  8
1
  6
DIVIDE
 62
     7
100
AcDbLine
 10
2458.27
 20
1103.329999999999
 30
0.0
 11
2482.76
 21
1131.499999999999
 31
0.0
  0
LINE
  5
6A4
330
19
100
AcDbEntity
  8
1
  6
DIVIDE
 62
     7
100
AcDbLine
 10
2108.08
 20
1401.64
 30
0.0
 11
2117.92
 21
1412.959999999999
 31
0.0
  0
ARC
  5
6A5
330
19
100
AcDbEntity
  8
1
  6
DIVIDE
 62
     7
100
AcDbCircle
 10
2113.78
 20
1438.68
 30
0.0
 40
19.3
100
AcDbArc
 50
19.6035
 51
78.3964
  0
ARC
  5
6A6
330
19
100
AcDbEntity
  8
1
  6
DIVIDE
 62
     7
100
AcDbCircle
 10
2135.73
 20
1446.5
 30
0.0
 40
2.0
100
AcDbArc
 50
199.6029999999999
 51
228.9999999999999
  0
ARC
  5
6A7
330
19
100
AcDbEntity
  8
1
  6
DIVIDE
 62
     7
100
AcDbCircle
 10
2113.78
 20
1438.68
 30
0.0
 40
21.3
100
AcDbArc
 50
19.6035
 51
78.3964
  0
ARC
  5
6A8
330
19
100
AcDbEntity
  8
1
  6
DIVIDE
 62
     7
100
AcDbCircle
 10
2135.73
 20
1446.5
 30
0.0
 40
4.0
100
AcDbArc
 50
199.6029999999999
 51
228.9999999999999
  0
ARC
  5
6A9
330
19
100
AcDbEntity
  8
1
  6
DIVIDE
 62
     7
100
AcDbCircle
 10
2118.46
 20
1461.51
 30
0.0
 40
4.0
100
AcDbArc
 50
228.9999999999999
 51
258.3959999999999
  0
ARC
  5
6AA
330
19
100
AcDbEntity
  8
1
  6
DIVIDE
 62
     7
100
AcDbCircle
 10
2118.46
 20
1461.51
 30
0.0
 40
2.0
100
AcDbArc
 50
228.9999999999999
 51
258.3959999999999
  0
CIRCLE
  5
6AB
330
19
100
AcDbEntity
  8
1
  6
DIVIDE
 62
     7
100
AcDbCircle
 10
1416.98
 20
2050.09
 30
0.0
 40
4.0
  0
LINE
  5
6AC
330
19
100
AcDbEntity
  8
1
  6
DIVIDE
 62
     7
100
AcDbLine
 10
1572.15
 20
2150.849999999999
 30
0.0
 11
1464.66
 21
2027.2
 31
0.0
  0
ARC
  5
6AD
330
19
100
AcDbEntity
  8
1
  6
DIVIDE
 62
     7
100
AcDbCircle
 10
1365.4
 20
2088.309999999999
 30
0.0
 40
3.0
100
AcDbArc
 50
228.9999999999999
 51
319.0
  0
LINE
  5
6AE
330
19
100
AcDbEntity
  8
1
  6
DIVIDE
 62
     7
100
AcDbLine
 10
1380.13
 20
2100.68
 30
0.0
 11
1367.67
 21
2086.34
 31
0.0
  0
CIRCLE
  5
6AF
330
19
100
AcDbEntity
  8
1
  6
DIVIDE
 62
     7
100
AcDbCircle
 10
1398.87
 20
2065.84
 30
0.0
 40
4.0
  0
CIRCLE
  5
6B0
330
19
100
AcDbEntity
  8
1
  6
DIVIDE
 62
     7
100
AcDbCircle
 10
1375.58
 20
2054.289999999999
 30
0.0
 40
10.0
  0
CIRCLE
  5
6B1
330
19
100
AcDbEntity
  8
1
  6
DIVIDE
 62
     7
100
AcDbCircle
 10
1357.47
 20
2070.03
 30
0.0
 40
5.25
  0
ARC
  5
6B2
330
19
100
AcDbEntity
  8
1
  6
DIVIDE
 62
     7
100
AcDbCircle
 10
1375.58
 20
2054.289999999999
 30
0.0
 40
15.0
100
AcDbArc
 50
4.549999999999999
 51
94.55
  0
LINE
  5
6B3
330
19
100
AcDbEntity
  8
1
  6
DIVIDE
 62
     7
100
AcDbLine
 10
1374.39
 20
2069.24
 30
0.0
 11
1353.45
 21
2067.57
 31
0.0
  0
LINE
  5
6B4
330
19
100
AcDbEntity
  8
1
  6
DIVIDE
 62
     7
100
AcDbLine
 10
1353.45
 20
2067.57
 30
0.0
 11
1355.28
 21
2044.65
 31
0.0
  0
LINE
  5
6B5
330
19
100
AcDbEntity
  8
1
  6
DIVIDE
 62
     7
100
AcDbLine
 10
1351.29
 20
2044.329999999999
 30
0.0
 11
1355.28
 21
2044.65
 31
0.0
  0
CIRCLE
  5
6B6
330
19
100
AcDbEntity
  8
1
  6
DIVIDE
 62
     7
100
AcDbCircle
 10
1416.98
 20
2050.09
 30
0.0
 40
8.75
  0
ARC
  5
6B7
330
19
100
AcDbEntity
  8
1
  6
DIVIDE
 62
     7
100
AcDbCircle
 10
1814.02
 20
1793.479999999999
 30
0.0
 40
40.0
100
AcDbArc
 50
319.0
 51
39.4092
  0
ARC
  5
6B8
330
19
100
AcDbEntity
  8
1
  6
DIVIDE
 62
     7
100
AcDbCircle
 10
1814.02
 20
1793.479999999999
 30
0.0
 40
48.0
100
AcDbArc
 50
319.0
 51
39.4092
  0
LINE
  5
6B9
330
19
100
AcDbEntity
  8
1
  6
DIVIDE
 62
     7
100
AcDbLine
 10
1844.21
 20
1767.24
 30
0.0
 11
1809.56
 21
1727.38
 31
0.0
  0
LINE
  5
6BA
330
19
100
AcDbEntity
  8
1
  6
DIVIDE
 62
     7
100
AcDbLine
 10
1850.25
 20
1761.99
 30
0.0
 11
1815.599999999999
 21
1722.13
 31
0.0
  0
ARC
  5
6BB
330
19
100
AcDbEntity
  8
1
  6
DIVIDE
 62
     7
100
AcDbCircle
 10
1452.48
 20
2302.789999999999
 30
0.0
 40
4.0
100
AcDbArc
 50
39.4092
 51
219.409
  0
LINE
  5
6BC
330
19
100
AcDbEntity
  8
1
  6
Continuous
 62
     2
100
AcDbLine
 10
1034.31
 20
908.3510000000002
 30
0.0
 11
437.2119999999999
 21
1086.25
 31
0.0
  0
LINE
  5
6BD
330
19
100
AcDbEntity
  8
1
  6
Continuous
 62
     2
100
AcDbLine
 10
1036.59
 20
916.018
 30
0.0
 11
439.496
 21
1093.91
 31
0.0
  0
ARC
  5
6BE
330
19
100
AcDbEntity
  8
1
  6
Continuous
 62
     2
100
AcDbCircle
 10
438.354
 20
1090.08
 30
0.0
 40
4.0
100
AcDbArc
 50
73.40920000000001
 51
253.409
  0
LINE
  5
6BF
330
19
100
AcDbEntity
  8
1
  6
Continuous
 62
     2
100
AcDbLine
 10
578.499
 20
869.3589999999998
 30
0.0
 11
1908.51
 21
706.0539999999999
 31
0.0
  0
LINE
  5
6C0
330
19
100
AcDbEntity
  8
1
  6
Continuous
 62
     2
100
AcDbLine
 10
622.5309999999999
 20
1031.03
 30
0.0
 11
602.564
 21
868.4189999999999
 31
0.0
  0
CIRCLE
  5
6C1
330
19
100
AcDbEntity
  8
1
  6
Continuous
 62
     2
100
AcDbCircle
 10
946.4719999999999
 20
830.222
 30
0.0
 40
4.0
  0
ARC
  5
6C2
330
19
100
AcDbEntity
  8
1
  6
Continuous
 62
     2
100
AcDbCircle
 10
1022.89
 20
870.0169999999999
 30
0.0
 40
40.0
100
AcDbArc
 50
353.0
 51
73.40920000000001
  0
ARC
  5
6C3
330
19
100
AcDbEntity
  8
1
  6
Continuous
 62
     2
100
AcDbCircle
 10
1022.89
 20
870.0169999999999
 30
0.0
 40
48.0
100
AcDbArc
 50
353.0
 51
73.40920000000001
  0
LINE
  5
6C4
330
19
100
AcDbEntity
  8
1
  6
Continuous
 62
     2
100
AcDbLine
 10
1062.589999999999
 20
865.1419999999999
 30
0.0
 11
1056.15
 21
812.7239999999998
 31
0.0
  0
LINE
  5
6C5
330
19
100
AcDbEntity
  8
1
  6
Continuous
 62
     2
100
AcDbLine
 10
1070.529999999999
 20
864.1669999999999
 30
0.0
 11
1064.089999999999
 21
811.749
 31
0.0
  0
CIRCLE
  5
6C6
330
19
100
AcDbEntity
  8
1
  6
Continuous
 62
     2
100
AcDbCircle
 10
655.8660000000001
 20
826.6110000000001
 30
0.0
 40
4.5
  0
LINE
  5
6C7
330
19
100
AcDbEntity
  8
1
  6
Continuous
 62
     2
100
AcDbLine
 10
1908.559999999999
 20
706.451
 30
0.0
 11
1908.75
 21
708.039
 31
0.0
  0
LINE
  5
6C8
330
19
100
AcDbEntity
  8
1
  6
Continuous
 62
     2
100
AcDbLine
 10
1943.58
 20
663.4619999999999
 30
0.0
 11
1908.75
 21
708.039
 31
0.0
  0
LWPOLYLINE
  5
6C9
330
19
100
AcDbEntity
  8
1
  6
Continuous
 62
     2
100
AcDbPolyline
 90
        5
 70
     0
 43
0.0
 10
670.1649999999999
 20
798.321
 10
695.1649999999999
 20
798.321
 10
695.1649999999999
 20
833.3210000000001
 10
670.1649999999999
 20
833.3210000000001
 10
670.1649999999999
 20
798.321
  0
CIRCLE
  5
6D0
330
19
100
AcDbEntity
  8
1
  6
Continuous
 62
     2
100
AcDbCircle
 10
682.6649999999999
 20
823.3209999999999
 30
0.0
 40
4.5
  0
CIRCLE
  5
6D1
330
19
100
AcDbEntity
  8
1
  6
Continuous
 62
     2
100
AcDbCircle
 10
682.6649999999999
 20
823.3209999999999
 30
0.0
 40
4.5
  0
ARC
  5
6D2
330
19
100
AcDbEntity
  8
1
  6
Continuous
 62
     2
100
AcDbCircle
 10
699.765
 20
793.4210000000001
 30
0.0
 40
1.7
100
AcDbArc
 50
0.0
 51
90.0
  0
POINT
  5
6D3
330
19
100
AcDbEntity
  8
1
 62
     2
100
AcDbPoint
 10
701.465
 20
795.1210000000001
 30
0.0
  0
LWPOLYLINE
  5
6D4
330
19
100
AcDbEntity
  8
1
  6
Continuous
 62
     2
100
AcDbPolyline
 90
        4
 70
     0
 43
0.0
 10
699.765
 20
795.1210000000001
 10
660.665
 20
795.1210000000001
 10
660.665
 20
798.321
 10
699.6649999999999
 20
798.321
  0
LWPOLYLINE
  5
6DA
330
19
100
AcDbEntity
  8
1
  6
Continuous
 62
     2
100
AcDbPolyline
 90
        4
 70
     0
 43
0.0
 10
704.6649999999999
 20
793.321
 10
704.6649999999999
 20
754.321
 10
701.465
 20
754.321
 10
701.465
 20
793.4210000000001
  0
ARC
  5
6E0
330
19
100
AcDbEntity
  8
1
  6
Continuous
 62
     2
100
AcDbCircle
 10
699.6649999999999
 20
793.321
 30
0.0
 40
5.0
100
AcDbArc
 50
0.0
 51
90.0
  0
POINT
  5
6E1
330
19
100
AcDbEntity
  8
1
 62
     2
100
AcDbPoint
 10
704.6649999999999
 20
798.321
 30
0.0
  0
POLYLINE
  5
6E2
330
19
100
AcDbEntity
  8
1
  6
Continuous
 62
     2
100
AcDb2dPolyline
 66
     1
 10
0.0
 20
0.0
 30
0.0
 70
     2
  0
VERTEX
  5
6E3
330
6E2
100
AcDbEntity
  8
1
  6
Continuous
 62
     2
100
AcDbVertex
100
AcDb2dVertex
 10
4786.51
 20
1059.109999999999
 30
0.0
  0
VERTEX
  5
6E4
330
6E2
100
AcDbEntity
  8
1
  6
Continuous
 62
     2
100
AcDbVertex
100
AcDb2dVertex
 10
4786.1
 20
1060.18
 30
0.0
  0
VERTEX
  5
6E5
330
6E2
100
AcDbEntity
  8
1
  6
Continuous
 62
     2
100
AcDbVertex
100
AcDb2dVertex
 10
4785.22
 20
1061.23
 30
0.0
  0
VERTEX
  5
6E6
330
6E2
100
AcDbEntity
  8
1
  6
Continuous
 62
     2
100
AcDbVertex
100
AcDb2dVertex
 10
4783.87
 20
1062.23
 30
0.0
  0
VERTEX
  5
6E7
330
6E2
100
AcDbEntity
  8
1
  6
Continuous
 62
     2
100
AcDbVertex
100
AcDb2dVertex
 10
4782.07
 20
1063.18
 30
0.0
  0
VERTEX
  5
6E8
330
6E2
100
AcDbEntity
  8
1
  6
Continuous
 62
     2
100
AcDbVertex
100
AcDb2dVertex
 10
4779.86
 20
1064.06
 30
0.0
  0
VERTEX
  5
6E9
330
6E2
100
AcDbEntity
  8
1
  6
Continuous
 62
     2
100
AcDbVertex
100
AcDb2dVertex
 10
4777.27
 20
1064.86
 30
0.0
  0
VERTEX
  5
6EA
330
6E2
100
AcDbEntity
  8
1
  6
Continuous
 62
     2
100
AcDbVertex
100
AcDb2dVertex
 10
4774.329999999999
 20
1065.56
 30
0.0
  0
VERTEX
  5
6EB
330
6E2
100
AcDbEntity
  8
1
  6
Continuous
 62
     2
100
AcDbVertex
100
AcDb2dVertex
 10
4771.109999999999
 20
1066.16
 30
0.0
  0
VERTEX
  5
6EC
330
6E2
100
AcDbEntity
  8
1
  6
Continuous
 62
     2
100
AcDbVertex
100
AcDb2dVertex
 10
4767.63
 20
1066.64
 30
0.0
  0
VERTEX
  5
6ED
330
6E2
100
AcDbEntity
  8
1
  6
Continuous
 62
     2
100
AcDbVertex
100
AcDb2dVertex
 10
4763.97
 20
1067.0
 30
0.0
  0
VERTEX
  5
6EE
330
6E2
100
AcDbEntity
  8
1
  6
Continuous
 62
     2
100
AcDbVertex
100
AcDb2dVertex
 10
4760.17
 20
1067.22
 30
0.0
  0
VERTEX
  5
6EF
330
6E2
100
AcDbEntity
  8
1
  6
Continuous
 62
     2
100
AcDbVertex
100
AcDb2dVertex
 10
4756.3
 20
1067.32
 30
0.0
  0
VERTEX
  5
6F0
330
6E2
100
AcDbEntity
  8
1
  6
Continuous
 62
     2
100
AcDbVertex
100
AcDb2dVertex
 10
4752.419999999999
 20
1067.28
 30
0.0
  0
VERTEX
  5
6F1
330
6E2
100
AcDbEntity
  8
1
  6
Continuous
 62
     2
100
AcDbVertex
100
AcDb2dVertex
 10
4748.59
 20
1067.099999999999
 30
0.0
  0
VERTEX
  5
6F2
330
6E2
100
AcDbEntity
  8
1
  6
Continuous
 62
     2
100
AcDbVertex
100
AcDb2dVertex
 10
4744.87
 20
1066.799999999999
 30
0.0
  0
VERTEX
  5
6F3
330
6E2
100
AcDbEntity
  8
1
  6
Continuous
 62
     2
100
AcDbVertex
100
AcDb2dVertex
 10
4741.310000000001
 20
1066.369999999999
 30
0.0
  0
VERTEX
  5
6F4
330
6E2
100
AcDbEntity
  8
1
  6
Continuous
 62
     2
100
AcDbVertex
100
AcDb2dVertex
 10
4737.979999999999
 20
1065.819999999999
 30
0.0
  0
VERTEX
  5
6F5
330
6E2
100
AcDbEntity
  8
1
  6
Continuous
 62
     2
100
AcDbVertex
100
AcDb2dVertex
 10
4734.92
 20
1065.15
 30
0.0
  0
VERTEX
  5
6F6
330
6E2
100
AcDbEntity
  8
1
  6
Continuous
 62
     2
100
AcDbVertex
100
AcDb2dVertex
 10
4732.18
 20
1064.39
 30
0.0
  0
VERTEX
  5
6F7
330
6E2
100
AcDbEntity
  8
1
  6
Continuous
 62
     2
100
AcDbVertex
100
AcDb2dVertex
 10
4729.81
 20
1063.54
 30
0.0
  0
VERTEX
  5
6F8
330
6E2
100
AcDbEntity
  8
1
  6
Continuous
 62
     2
100
AcDbVertex
100
AcDb2dVertex
 10
4727.85
 20
1062.619999999999
 30
0.0
  0
VERTEX
  5
6F9
330
6E2
100
AcDbEntity
  8
1
  6
Continuous
 62
     2
100
AcDbVertex
100
AcDb2dVertex
 10
4726.31
 20
1061.63
 30
0.0
  0
VERTEX
  5
6FA
330
6E2
100
AcDbEntity
  8
1
  6
Continuous
 62
     2
100
AcDbVertex
100
AcDb2dVertex
 10
4725.24
 20
1060.599999999999
 30
0.0
  0
VERTEX
  5
6FB
330
6E2
100
AcDbEntity
  8
1
  6
Continuous
 62
     2
100
AcDbVertex
100
AcDb2dVertex
 10
4724.639999999999
 20
1059.539999999999
 30
0.0
  0
VERTEX
  5
6FC
330
6E2
100
AcDbEntity
  8
1
  6
Continuous
 62
     2
100
AcDbVertex
100
AcDb2dVertex
 10
4724.56
 20
1059.109999999999
 30
0.0
  0
SEQEND
  5
6FD
330
6E2
100
AcDbEntity
  8
1
 62
     2
  0
POLYLINE
  5
6FE
330
19
100
AcDbEntity
  8
1
  6
Continuous
 62
     2
100
AcDb2dPolyline
 66
     1
 10
0.0
 20
0.0
 30
0.0
 70
     2
  0
VERTEX
  5
6FF
330
6FE
100
AcDbEntity
  8
1
  6
Continuous
 62
     2
100
AcDbVertex
100
AcDb2dVertex
 10
4778.54
 20
1054.7
 30
0.0
  0
VERTEX
  5
700
330
6FE
100
AcDbEntity
  8
1
  6
Continuous
 62
     2
100
AcDbVertex
100
AcDb2dVertex
 10
4778.35
 20
1055.279999999999
 30
0.0
  0
VERTEX
  5
701
330
6FE
100
AcDbEntity
  8
1
  6
Continuous
 62
     2
100
AcDbVertex
100
AcDb2dVertex
 10
4777.81
 20
1055.849999999999
 30
0.0
  0
VERTEX
  5
702
330
6FE
100
AcDbEntity
  8
1
  6
Continuous
 62
     2
100
AcDbVertex
100
AcDb2dVertex
 10
4776.92
 20
1056.4
 30
0.0
  0
VERTEX
  5
703
330
6FE
100
AcDbEntity
  8
1
  6
Continuous
 62
     2
100
AcDbVertex
100
AcDb2dVertex
 10
4775.689999999999
 20
1056.92
 30
0.0
  0
VERTEX
  5
704
330
6FE
100
AcDbEntity
  8
1
  6
Continuous
 62
     2
100
AcDbVertex
100
AcDb2dVertex
 10
4774.149999999999
 20
1057.41
 30
0.0
  0
VERTEX
  5
705
330
6FE
100
AcDbEntity
  8
1
  6
Continuous
 62
     2
100
AcDbVertex
100
AcDb2dVertex
 10
4772.319999999999
 20
1057.86
 30
0.0
  0
VERTEX
  5
706
330
6FE
100
AcDbEntity
  8
1
  6
Continuous
 62
     2
100
AcDbVertex
100
AcDb2dVertex
 10
4770.220000000001
 20
1058.249999999999
 30
0.0
  0
VERTEX
  5
707
330
6FE
100
AcDbEntity
  8
1
  6
Continuous
 62
     2
100
AcDbVertex
100
AcDb2dVertex
 10
4767.89
 20
1058.589999999999
 30
0.0
  0
VERTEX
  5
708
330
6FE
100
AcDbEntity
  8
1
  6
Continuous
 62
     2
100
AcDbVertex
100
AcDb2dVertex
 10
4765.369999999999
 20
1058.869999999999
 30
0.0
  0
VERTEX
  5
709
330
6FE
100
AcDbEntity
  8
1
  6
Continuous
 62
     2
100
AcDbVertex
100
AcDb2dVertex
 10
4762.69
 20
1059.09
 30
0.0
  0
VERTEX
  5
70A
330
6FE
100
AcDbEntity
  8
1
  6
Continuous
 62
     2
100
AcDbVertex
100
AcDb2dVertex
 10
4759.9
 20
1059.23
 30
0.0
  0
VERTEX
  5
70B
330
6FE
100
AcDbEntity
  8
1
  6
Continuous
 62
     2
100
AcDbVertex
100
AcDb2dVertex
 10
4757.039999999999
 20
1059.309999999999
 30
0.0
  0
VERTEX
  5
70C
330
6FE
100
AcDbEntity
  8
1
  6
Continuous
 62
     2
100
AcDbVertex
100
AcDb2dVertex
 10
4754.16
 20
1059.309999999999
 30
0.0
  0
VERTEX
  5
70D
330
6FE
100
AcDbEntity
  8
1
  6
Continuous
 62
     2
100
AcDbVertex
100
AcDb2dVertex
 10
4751.3
 20
1059.239999999999
 30
0.0
  0
VERTEX
  5
70E
330
6FE
100
AcDbEntity
  8
1
  6
Continuous
 62
     2
100
AcDbVertex
100
AcDb2dVertex
 10
4748.51
 20
1059.099999999999
 30
0.0
  0
VERTEX
  5
70F
330
6FE
100
AcDbEntity
  8
1
  6
Continuous
 62
     2
100
AcDbVertex
100
AcDb2dVertex
 10
4745.82
 20
1058.89
 30
0.0
  0
VERTEX
  5
710
330
6FE
100
AcDbEntity
  8
1
  6
Continuous
 62
     2
100
AcDbVertex
100
AcDb2dVertex
 10
4743.29
 20
1058.61
 30
0.0
  0
VERTEX
  5
711
330
6FE
100
AcDbEntity
  8
1
  6
Continuous
 62
     2
100
AcDbVertex
100
AcDb2dVertex
 10
4740.95
 20
1058.27
 30
0.0
  0
VERTEX
  5
712
330
6FE
100
AcDbEntity
  8
1
  6
Continuous
 62
     2
100
AcDbVertex
100
AcDb2dVertex
 10
4738.84
 20
1057.88
 30
0.0
  0
VERTEX
  5
713
330
6FE
100
AcDbEntity
  8
1
  6
Continuous
 62
     2
100
AcDbVertex
100
AcDb2dVertex
 10
4736.99
 20
1057.43
 30
0.0
  0
VERTEX
  5
714
330
6FE
100
AcDbEntity
  8
1
  6
Continuous
 62
     2
100
AcDbVertex
100
AcDb2dVertex
 10
4735.43
 20
1056.95
 30
0.0
  0
VERTEX
  5
715
330
6FE
100
AcDbEntity
  8
1
  6
Continuous
 62
     2
100
AcDbVertex
100
AcDb2dVertex
 10
4734.189999999999
 20
1056.43
 30
0.0
  0
VERTEX
  5
716
330
6FE
100
AcDbEntity
  8
1
  6
Continuous
 62
     2
100
AcDbVertex
100
AcDb2dVertex
 10
4733.279999999999
 20
1055.88
 30
0.0
  0
VERTEX
  5
717
330
6FE
100
AcDbEntity
  8
1
  6
Continuous
 62
     2
100
AcDbVertex
100
AcDb2dVertex
 10
4732.72
 20
1055.309999999999
 30
0.0
  0
VERTEX
  5
718
330
6FE
100
AcDbEntity
  8
1
  6
Continuous
 62
     2
100
AcDbVertex
100
AcDb2dVertex
 10
4732.52
 20
1054.729999999999
 30
0.0
  0
VERTEX
  5
719
330
6FE
100
AcDbEntity
  8
1
  6
Continuous
 62
     2
100
AcDbVertex
100
AcDb2dVertex
 10
4732.54
 20
1054.7
 30
0.0
  0
SEQEND
  5
71A
330
6FE
100
AcDbEntity
  8
1
 62
     2
  0
LINE
  5
71B
330
19
100
AcDbEntity
  8
1
  6
Continuous
 62
     2
100
AcDbLine
 10
4724.359999999999
 20
1027.16
 30
0.0
 11
4732.359999999999
 21
1027.16
 31
0.0
  0
LINE
  5
71C
330
19
100
AcDbEntity
  8
1
  6
Continuous
 62
     2
100
AcDbLine
 10
4778.71
 20
1027.16
 30
0.0
 11
4786.71
 21
1027.16
 31
0.0
  0
LINE
  5
71D
330
19
100
AcDbEntity
  8
1
  6
Continuous
 62
     2
100
AcDbLine
 10
4782.44
 20
863.321
 30
0.0
 11
4778.54
 21
1054.7
 31
0.0
  0
LINE
  5
71E
330
19
100
AcDbEntity
  8
1
  6
Continuous
 62
     2
100
AcDbLine
 10
4790.439999999999
 20
863.321
 30
0.0
 11
4786.51
 21
1059.109999999999
 31
0.0
  0
LINE
  5
71F
330
19
100
AcDbEntity
  8
1
  6
Continuous
 62
     2
100
AcDbLine
 10
4728.640000000001
 20
863.321
 30
0.0
 11
4732.54
 21
1054.7
 31
0.0
  0
LINE
  5
720
330
19
100
AcDbEntity
  8
1
  6
Continuous
 62
     2
100
AcDbLine
 10
4720.64
 20
863.321
 30
0.0
 11
4724.56
 21
1059.109999999999
 31
0.0
  0
LINE
  5
721
330
19
100
AcDbEntity
  8
1
  6
Continuous
 62
     2
100
AcDbLine
 10
4782.44
 20
863.321
 30
0.0
 11
4790.439999999999
 21
863.321
 31
0.0
  0
LINE
  5
722
330
19
100
AcDbEntity
  8
1
  6
Continuous
 62
     2
100
AcDbLine
 10
4728.640000000001
 20
863.321
 30
0.0
 11
4720.64
 21
863.321
 31
0.0
  0
LINE
  5
723
330
19
100
AcDbEntity
  8
1
  6
DASHDOT
 62
     3
100
AcDbLine
 10
4755.539999999999
 20
785.817
 30
0.0
 11
4755.539999999999
 21
1100.339999999999
 31
0.0
  0
ARC
  5
724
330
19
100
AcDbEntity
  8
1
  6
Continuous
 62
     2
100
AcDbCircle
 10
4784.04
 20
859.321
 30
0.0
 40
2.0
100
AcDbArc
 50
90.0
 51
180.0
  0
LINE
  5
725
330
19
100
AcDbEntity
  8
1
  6
Continuous
 62
     2
100
AcDbLine
 10
4782.04
 20
859.321
 30
0.0
 11
4782.04
 21
812.321
 31
0.0
  0
ARC
  5
726
330
19
100
AcDbEntity
  8
1
  6
Continuous
 62
     2
100
AcDbCircle
 10
4784.04
 20
859.321
 30
0.0
 40
4.0
100
AcDbArc
 50
90.0
 51
180.0
  0
LINE
  5
727
330
19
100
AcDbEntity
  8
1
  6
Continuous
 62
     2
100
AcDbLine
 10
4780.04
 20
812.321
 30
0.0
 11
4780.04
 21
859.321
 31
0.0
  0
ARC
  5
728
330
19
100
AcDbEntity
  8
1
  6
Continuous
 62
     2
100
AcDbCircle
 10
4727.04
 20
859.321
 30
0.0
 40
2.0
100
AcDbArc
 50
0.0
 51
90.0
  0
ARC
  5
729
330
19
100
AcDbEntity
  8
1
  6
Continuous
 62
     2
100
AcDbCircle
 10
4727.04
 20
859.321
 30
0.0
 40
4.0
100
AcDbArc
 50
0.0
 51
90.0
  0
LINE
  5
72A
330
19
100
AcDbEntity
  8
1
  6
Continuous
 62
     2
100
AcDbLine
 10
4731.04
 20
859.321
 30
0.0
 11
4731.04
 21
812.321
 31
0.0
  0
LINE
  5
72B
330
19
100
AcDbEntity
  8
1
  6
Continuous
 62
     2
100
AcDbLine
 10
4729.04
 20
812.321
 30
0.0
 11
4729.04
 21
859.321
 31
0.0
  0
LINE
  5
72C
330
19
100
AcDbEntity
  8
1
  6
Continuous
 62
     2
100
AcDbLine
 10
4730.24
 20
800.6210000000001
 30
0.0
 11
4780.84
 21
800.6210000000001
 31
0.0
  0
ARC
  5
72D
330
19
100
AcDbEntity
  8
1
  6
Continuous
 62
     2
100
AcDbCircle
 10
4730.24
 20
802.321
 30
0.0
 40
1.7
100
AcDbArc
 50
180.0
 51
270.0
  0
LWPOLYLINE
  5
72E
330
19
100
AcDbEntity
  8
1
  6
Continuous
 62
     2
100
AcDbPolyline
 90
        4
 70
     0
 43
0.0
 10
4726.239999999999
 20
802.321
 10
4726.239999999999
 20
833.3210000000001
 10
4728.54
 20
833.3210000000001
 10
4728.54
 20
802.321
  0
ARC
  5
734
330
19
100
AcDbEntity
  8
1
  6
Continuous
 62
     2
100
AcDbCircle
 10
4730.24
 20
802.321
 30
0.0
 40
4.0
100
AcDbArc
 50
180.0
 51
270.0
  0
ARC
  5
735
330
19
100
AcDbEntity
  8
1
  6
Continuous
 62
     2
100
AcDbCircle
 10
4780.84
 20
802.321
 30
0.0
 40
1.7
100
AcDbArc
 50
270.0
 51
0.0
  0
LWPOLYLINE
  5
736
330
19
100
AcDbEntity
  8
1
  6
Continuous
 62
     2
100
AcDbPolyline
 90
        4
 70
     0
 43
0.0
 10
4782.54
 20
802.321
 10
4782.54
 20
833.3210000000001
 10
4784.84
 20
833.3210000000001
 10
4784.84
 20
802.321
  0
ARC
  5
73C
330
19
100
AcDbEntity
  8
1
  6
Continuous
 62
     2
100
AcDbCircle
 10
4780.84
 20
802.321
 30
0.0
 40
4.0
100
AcDbArc
 50
270.0
 51
0.0
  0
ARC
  5
73D
330
19
100
AcDbEntity
  8
1
  6
Continuous
 62
     2
100
AcDbCircle
 10
4733.039999999999
 20
812.321
 30
0.0
 40
2.0
100
AcDbArc
 50
180.0
 51
270.0
  0
LINE
  5
73E
330
19
100
AcDbEntity
  8
1
  6
Continuous
 62
     2
100
AcDbLine
 10
4733.039999999999
 20
810.321
 30
0.0
 11
4778.039999999999
 21
810.321
 31
0.0
  0
ARC
  5
73F
330
19
100
AcDbEntity
  8
1
  6
Continuous
 62
     2
100
AcDbCircle
 10
4733.039999999999
 20
812.321
 30
0.0
 40
4.0
100
AcDbArc
 50
180.0
 51
270.0
  0
LINE
  5
740
330
19
100
AcDbEntity
  8
1
  6
Continuous
 62
     2
100
AcDbLine
 10
4778.039999999999
 20
808.3210000000001
 30
0.0
 11
4733.039999999999
 21
808.3210000000001
 31
0.0
  0
ARC
  5
741
330
19
100
AcDbEntity
  8
1
  6
Continuous
 62
     2
100
AcDbCircle
 10
4778.039999999999
 20
812.321
 30
0.0
 40
2.0
100
AcDbArc
 50
270.0
 51
0.0
  0
ARC
  5
742
330
19
100
AcDbEntity
  8
1
  6
Continuous
 62
     2
100
AcDbCircle
 10
4778.039999999999
 20
812.321
 30
0.0
 40
4.0
100
AcDbArc
 50
270.0
 51
0.0
  0
LINE
  5
743
330
19
100
AcDbEntity
  8
1
  6
Continuous
 62
     2
100
AcDbLine
 10
4780.84
 20
798.321
 30
0.0
 11
4730.24
 21
798.321
 31
0.0
  0
LWPOLYLINE
  5
744
330
19
100
AcDbEntity
  8
1
  6
Continuous
 62
     2
100
AcDbPolyline
 90
        3
 70
     0
 43
0.0
 10
4813.04
 20
798.321
 10
4723.04
 20
798.321
 10
4723.04
 20
764.321
  0
LINE
  5
749
330
19
100
AcDbEntity
  8
1
  6
Continuous
 62
     2
100
AcDbLine
 10
4733.039999999999
 20
754.321
 30
0.0
 11
4813.04
 21
754.321
 31
0.0
  0
LINE
  5
74A
330
19
100
AcDbEntity
  8
1
  6
Continuous
 62
     2
100
AcDbLine
 10
4723.04
 20
764.321
 30
0.0
 11
4733.039999999999
 21
754.321
 31
0.0
  0
POINT
  5
74B
330
19
100
AcDbEntity
  8
1
 62
     2
100
AcDbPoint
 10
4723.04
 20
754.321
 30
0.0
  0
LINE
  5
74C
330
19
100
AcDbEntity
  8
1
  6
Continuous
 62
     5
100
AcDbLine
 10
505.665
 20
1972.319999999999
 30
0.0
 11
534.6649999999999
 21
1972.319999999999
 31
0.0
  0
CIRCLE
  5
74D
330
19
100
AcDbEntity
  8
1
  6
DIVIDE
 62
     7
100
AcDbCircle
 10
1343.94
 20
2091.06
 30
0.0
 40
4.0
  0
CIRCLE
  5
74E
330
19
100
AcDbEntity
  8
1
  6
DIVIDE
 62
     7
100
AcDbCircle
 10
1343.94
 20
2091.06
 30
0.0
 40
8.75
  0
ARC
  5
74F
330
19
100
AcDbEntity
  8
1
  6
DIVIDE
 62
     7
100
AcDbCircle
 10
1343.94
 20
2091.06
 30
0.0
 40
9.0
100
AcDbArc
 50
48.99999999999999
 51
139.0
  0
POINT
  5
750
330
19
100
AcDbEntity
  8
1
 62
     7
100
AcDbPoint
 10
1343.06
 20
2103.76
 30
0.0
  0
LINE
  5
751
330
19
100
AcDbEntity
  8
1
  6
DIVIDE
 62
     7
100
AcDbLine
 10
1363.43
 20
2086.04
 30
0.0
 11
1349.849999999999
 21
2097.85
 31
0.0
  0
LINE
  5
752
330
19
100
AcDbEntity
  8
1
  6
Continuous
 62
     3
100
AcDbLine
 10
2759.29
 20
1131.39
 30
0.0
 11
2759.29
 21
994.0660000000001
 31
0.0
  0
LINE
  5
753
330
19
100
AcDbEntity
  8
1
  6
Continuous
 62
     3
100
AcDbLine
 10
2754.29
 20
1131.39
 30
0.0
 11
2863.05
 21
1131.39
 31
0.0
  0
LINE
  5
754
330
19
100
AcDbEntity
  8
1
  6
Continuous
 62
     1
100
AcDbLine
 10
2282.659999999999
 20
3052.32
 30
0.0
 11
2082.66
 21
3252.32
 31
0.0
  0
LINE
  5
755
330
19
100
AcDbEntity
  8
1
  6
Continuous
 62
     1
100
AcDbLine
 10
2282.659999999999
 20
3052.32
 30
0.0
 11
3982.66
 21
3052.32
 31
0.0
  0
LINE
  5
756
330
19
100
AcDbEntity
  8
1
  6
DIVIDE
 62
     3
100
AcDbLine
 10
2282.659999999999
 20
652.321
 30
0.0
 11
2282.659999999999
 21
3052.32
 31
0.0
  0
POINT
  5
757
330
19
100
AcDbEntity
  8
1
 62
     2
100
AcDbPoint
 10
660.665
 20
3372.739999999999
 30
0.0
  0
LWPOLYLINE
  5
758
330
19
100
AcDbEntity
  8
1
  6
Continuous
 62
     2
100
AcDbPolyline
 90
        3
 70
     0
 43
0.0
 10
1940.66
 20
3429.739999999999
 10
1940.66
 20
3431.74
 10
1925.66
 20
3446.74
  0
LWPOLYLINE
  5
75D
330
19
100
AcDbEntity
  8
1
  6
Continuous
 62
     2
100
AcDbPolyline
 90
        3
 70
     0
 43
0.0
 10
1940.66
 20
3380.74
 10
1940.66
 20
3378.74
 10
1925.66
 20
3363.739999999999
  0
LINE
  5
762
330
19
100
AcDbEntity
  8
1
  6
Continuous
 62
     2
100
AcDbLine
 10
2232.66
 20
3568.24
 30
0.0
 11
2231.469999999999
 21
3575.139999999999
 31
0.0
  0
ARC
  5
763
330
19
100
AcDbEntity
  8
1
  6
Continuous
 62
     2
100
AcDbCircle
 10
2221.61
 20
3573.43
 30
0.0
 40
10.0
100
AcDbArc
 50
9.803889999999999
 51
99.8038
  0
LINE
  5
764
330
19
100
AcDbEntity
  8
1
  6
Continuous
 62
     2
100
AcDbLine
 10
1979.47
 20
3541.74
 30
0.0
 11
2219.91
 21
3583.29
 31
0.0
  0
ARC
  5
765
330
19
100
AcDbEntity
  8
1
  6
Continuous
 62
     2
100
AcDbCircle
 10
2221.61
 20
3427.04
 30
0.0
 40
10.0
100
AcDbArc
 50
260.1959999999999
 51
350.1959999999999
  0
LINE
  5
766
330
19
100
AcDbEntity
  8
1
  6
Continuous
 62
     2
100
AcDbLine
 10
2232.66
 20
3432.24
 30
0.0
 11
2231.469999999999
 21
3425.34
 31
0.0
  0
LINE
  5
767
330
19
100
AcDbEntity
  8
1
  6
Continuous
 62
     2
100
AcDbLine
 10
1979.47
 20
3458.739999999999
 30
0.0
 11
2219.91
 21
3417.19
 31
0.0
  0
LINE
  5
768
330
19
100
AcDbEntity
  8
1
  6
Continuous
 62
     2
100
AcDbLine
 10
1569.55
 20
3458.739999999999
 30
0.0
 11
1979.47
 21
3458.739999999999
 31
0.0
  0
LINE
  5
769
330
19
100
AcDbEntity
  8
1
  6
Continuous
 62
     2
100
AcDbLine
 10
600.6649999999999
 20
3374.239999999999
 30
0.0
 11
600.6649999999999
 21
3363.739999999999
 31
0.0
  0
LINE
  5
76A
330
19
100
AcDbEntity
  8
1
  6
Continuous
 62
     2
100
AcDbLine
 10
1925.66
 20
3363.739999999999
 30
0.0
 11
600.6649999999999
 21
3363.739999999999
 31
0.0
  0
LINE
  5
76B
330
19
100
AcDbEntity
  8
1
  6
Continuous
 62
     2
100
AcDbLine
 10
514.665
 20
3458.739999999999
 30
0.0
 11
1569.55
 21
3458.739999999999
 31
0.0
  0
LINE
  5
76C
330
19
100
AcDbEntity
  8
1
  6
Continuous
 62
     2
100
AcDbLine
 10
514.665
 20
3541.74
 30
0.0
 11
1979.47
 21
3541.74
 31
0.0
  0
LWPOLYLINE
  5
76D
330
19
100
AcDbEntity
  8
1
  6
Continuous
 62
     2
100
AcDbPolyline
 90
        4
 70
     0
 43
0.0
 10
4920.539999999999
 20
1988.319999999999
 10
4933.07
 20
1988.319999999999
 10
4933.07
 20
1986.32
 10
4920.539999999999
 20
1986.32
  0
LWPOLYLINE
  5
773
330
19
100
AcDbEntity
  8
1
  6
Continuous
 62
     2
100
AcDbPolyline
 90
        4
 70
     0
 43
0.0
 10
4780.54
 20
1988.319999999999
 10
4768.0
 20
1988.319999999999
 10
4768.0
 20
1986.32
 10
4780.54
 20
1986.32
  0
LWPOLYLINE
  5
779
330
19
100
AcDbEntity
  8
1
  6
Continuous
 62
     2
100
AcDbPolyline
 90
        4
 70
     0
 43
0.0
 10
4727.04
 20
861.321
 10
4714.039999999999
 20
861.321
 10
4714.039999999999
 20
863.321
 10
4727.04
 20
863.321
  0
LWPOLYLINE
  5
77F
330
19
100
AcDbEntity
  8
1
  6
Continuous
 62
     2
100
AcDbPolyline
 90
        4
 70
     0
 43
0.0
 10
4784.04
 20
863.321
 10
4797.039999999999
 20
863.321
 10
4797.039999999999
 20
861.321
 10
4784.04
 20
861.321
  0
LWPOLYLINE
  5
785
330
19
100
AcDbEntity
  8
1
  6
Continuous
 62
     2
100
AcDbPolyline
 90
        3
 70
     0
 43
0.0
 10
1977.66
 20
1933.32
 10
1982.66
 20
1938.32
 10
2232.66
 20
1938.32
  0
LINE
  5
78A
330
19
100
AcDbEntity
  8
1
  6
Continuous
 62
     2
100
AcDbLine
 10
2264.66
 20
1988.319999999999
 30
0.0
 11
1514.1
 21
1988.319999999999
 31
0.0
  0
LINE
  5
78B
330
19
100
AcDbEntity
  8
1
  6
Continuous
 62
     2
100
AcDbLine
 10
2232.66
 20
1938.32
 30
0.0
 11
2271.28
 21
1953.579999999999
 31
0.0
  0
ARC
  5
78C
330
19
100
AcDbEntity
  8
1
  6
Continuous
 62
     2
100
AcDbCircle
 10
2264.66
 20
1970.32
 30
0.0
 40
18.0
100
AcDbArc
 50
291.562
 51
90.0
  0
LINE
  5
78D
330
19
100
AcDbEntity
  8
1
  6
Continuous
 62
     3
100
AcDbLine
 10
2282.659999999999
 20
1970.32
 30
0.0
 11
2384.46
 21
1970.32
 31
0.0
  0
LINE
  5
78E
330
19
100
AcDbEntity
  8
1
  6
Continuous
 62
     2
100
AcDbLine
 10
2253.71
 20
3568.24
 30
0.0
 11
2253.71
 21
3432.24
 31
0.0
  0
LINE
  5
78F
330
19
100
AcDbEntity
  8
1
  6
Continuous
 62
     2
100
AcDbLine
 10
2275.409999999999
 20
3432.24
 30
0.0
 11
2275.409999999999
 21
3568.24
 31
0.0
  0
LINE
  5
790
330
19
100
AcDbEntity
  8
1
  6
DASHDOT
 62
     3
100
AcDbLine
 10
4850.54
 20
612.582
 30
0.0
 11
4850.54
 21
1959.36
 31
0.0
  0
LINE
  5
791
330
19
100
AcDbEntity
  8
1
  6
DOT
 62
     4
100
AcDbLine
 10
4920.539999999999
 20
1981.32
 30
0.0
 11
4920.539999999999
 21
1973.32
 31
0.0
  0
LINE
  5
792
330
19
100
AcDbEntity
  8
1
  6
Continuous
 62
     2
100
AcDbLine
 10
4884.54
 20
1981.17
 30
0.0
 11
4884.54
 21
2153.32
 31
0.0
  0
LINE
  5
793
330
19
100
AcDbEntity
  8
1
  6
Continuous
 62
     2
100
AcDbLine
 10
4894.54
 20
2158.32
 30
0.0
 11
4894.54
 21
1981.17
 31
0.0
  0
LINE
  5
794
330
19
100
AcDbEntity
  8
1
  6
Continuous
 62
     2
100
AcDbLine
 10
4816.539999999999
 20
1981.17
 30
0.0
 11
4816.539999999999
 21
2153.32
 31
0.0
  0
LINE
  5
795
330
19
100
AcDbEntity
  8
1
  6
Continuous
 62
     2
100
AcDbLine
 10
4806.54
 20
2158.32
 30
0.0
 11
4806.54
 21
1981.17
 31
0.0
  0
LINE
  5
796
330
19
100
AcDbEntity
  8
1
  6
Continuous
 62
     2
100
AcDbLine
 10
4918.54
 20
1981.17
 30
0.0
 11
4782.54
 21
1981.17
 31
0.0
  0
LINE
  5
797
330
19
100
AcDbEntity
  8
1
  6
Continuous
 62
     2
100
AcDbLine
 10
4875.04
 20
1984.32
 30
0.0
 11
4875.04
 21
1981.17
 31
0.0
  0
LINE
  5
798
330
19
100
AcDbEntity
  8
1
  6
Continuous
 62
     2
100
AcDbLine
 10
4826.04
 20
1981.17
 30
0.0
 11
4826.04
 21
1984.32
 31
0.0
  0
LINE
  5
799
330
19
100
AcDbEntity
  8
1
  6
DASHDOT
 62
     3
100
AcDbLine
 10
4763.48
 20
1970.32
 30
0.0
 11
4936.83
 21
1970.32
 31
0.0
  0
LINE
  5
79A
330
19
100
AcDbEntity
  8
1
  6
Continuous
 62
     2
100
AcDbLine
 10
4782.54
 20
1959.469999999999
 30
0.0
 11
4918.54
 21
1959.469999999999
 31
0.0
  0
LINE
  5
79B
330
19
100
AcDbEntity
  8
1
  6
Continuous
 62
     2
100
AcDbLine
 10
4875.04
 20
1959.469999999999
 30
0.0
 11
4875.04
 21
1937.32
 31
0.0
  0
LINE
  5
79C
330
19
100
AcDbEntity
  8
1
  6
Continuous
 62
     2
100
AcDbLine
 10
4826.04
 20
1937.32
 30
0.0
 11
4826.04
 21
1959.469999999999
 31
0.0
  0
ARC
  5
79D
330
19
100
AcDbEntity
  8
1
  6
Continuous
 62
     2
100
AcDbCircle
 10
4910.74
 20
1915.119999999999
 30
0.0
 40
2.799999999999999
100
AcDbArc
 50
270.0
 51
0.0
  0
ARC
  5
79E
330
19
100
AcDbEntity
  8
1
  6
Continuous
 62
     2
100
AcDbCircle
 10
4790.34
 20
1915.119999999999
 30
0.0
 40
2.799999999999999
100
AcDbArc
 50
180.0
 51
270.0
  0
LINE
  5
79F
330
19
100
AcDbEntity
  8
1
  6
Continuous
 62
     2
100
AcDbLine
 10
4790.34
 20
1912.32
 30
0.0
 11
4910.74
 21
1912.32
 31
0.0
  0
LINE
  5
7A0
330
19
100
AcDbEntity
  8
1
  6
DIVIDE
 62
     7
100
AcDbLine
 10
2700.87
 20
952.5809999999999
 30
0.0
 11
2134.419999999999
 21
1444.989999999999
 31
0.0
  0
LWPOLYLINE
  5
7A1
330
19
100
AcDbEntity
  8
1
  6
DIVIDE
 62
     7
100
AcDbPolyline
 90
        3
 70
     0
 43
0.0
 10
2448.19
 20
1099.359999999999
 10
2455.239999999999
 20
1099.849999999999
 10
2643.92
 20
935.8389999999999
  0
LINE
  5
7A6
330
19
100
AcDbEntity
  8
1
  6
DIVIDE
 62
     7
100
AcDbLine
 10
2643.92
 20
935.8389999999999
 30
0.0
 11
2683.07
 21
922.0219999999999
 31
0.0
  0
ARC
  5
7A7
330
19
100
AcDbEntity
  8
1
  6
DIVIDE
 62
     7
100
AcDbCircle
 10
2689.06
 20
938.996
 30
0.0
 40
18.0
100
AcDbArc
 50
250.5619999999999
 51
48.99999999999999
  0
LINE
  5
7A8
330
19
100
AcDbEntity
  8
1
  6
Continuous
 62
     3
100
AcDbLine
 10
2689.06
 20
920.996
 30
0.0
 11
2806.869999999999
 21
920.996
 31
0.0
  0
LINE
  5
7A9
330
19
100
AcDbEntity
  8
1
  6
Continuous
 62
     3
100
AcDbLine
 10
2707.06
 20
938.996
 30
0.0
 11
2707.06
 21
886.955
 31
0.0
  0
TEXT
  5
7AA
330
19
100
AcDbEntity
  8
1
 62
     3
100
AcDbText
 10
4092.11
 20
13.8467
 30
0.0
 40
40.0
  1
Ｈ１６．１．１６
 41
0.625
100
AcDbText
  0
ARC
  5
7AB
330
19
100
AcDbEntity
  8
1
  6
Continuous
 62
     2
100
AcDbCircle
 10
2187.66
 20
2158.32
 30
0.0
 40
5.0
100
AcDbArc
 50
270.0
 51
90.0
  0
LINE
  5
7AC
330
19
100
AcDbEntity
  8
1
  6
DIVIDE
 62
     7
100
AcDbLine
 10
1851.11
 20
1823.949999999999
 30
0.0
 11
1761.25
 21
1933.32
 31
0.0
  0
LINE
  5
7AD
330
19
100
AcDbEntity
  8
1
  6
DIVIDE
 62
     7
100
AcDbLine
 10
1716.05
 20
1988.319999999999
 30
0.0
 11
1455.569999999999
 21
2305.33
 31
0.0
  0
LINE
  5
7AE
330
19
100
AcDbEntity
  8
1
  6
DIVIDE
 62
     7
100
AcDbLine
 10
1844.92
 20
1818.88
 30
0.0
 11
1750.89
 21
1933.32
 31
0.0
  0
LINE
  5
7AF
330
19
100
AcDbEntity
  8
1
  6
DIVIDE
 62
     7
100
AcDbLine
 10
1705.7
 20
1988.319999999999
 30
0.0
 11
1449.39
 21
2300.25
 31
0.0
  0
LINE
  5
7B0
330
19
100
AcDbEntity
  8
1
  6
Continuous
 62
     2
100
AcDbLine
 10
1527.66
 20
1933.32
 30
0.0
 11
1977.66
 21
1933.32
 31
0.0
  0
LINE
  5
7B1
330
19
100
AcDbEntity
  8
1
  6
DIVIDE
 62
     7
100
AcDbLine
 10
2117.15
 20
1460.0
 30
0.0
 11
1572.66
 21
1933.32
 31
0.0
  0
LINE
  5
7B2
330
19
100
AcDbEntity
  8
1
  6
DIVIDE
 62
     7
100
AcDbLine
 10
1506.3
 20
1991.0
 30
0.0
 11
1380.13
 21
2100.68
 31
0.0
  0
LINE
  5
7B3
330
19
100
AcDbEntity
  8
1
  6
DIVIDE
 62
     7
100
AcDbLine
 10
2115.839999999999
 20
1458.49
 30
0.0
 11
1569.609999999999
 21
1933.32
 31
0.0
  0
LINE
  5
7B4
330
19
100
AcDbEntity
  8
1
  6
DIVIDE
 62
     7
100
AcDbLine
 10
1502.66
 20
1991.519999999999
 30
0.0
 11
1378.82
 21
2099.17
 31
0.0
  0
LINE
  5
7B5
330
19
100
AcDbEntity
  8
1
  6
DIVIDE
 62
     7
100
AcDbLine
 10
1512.98
 20
1912.32
 30
0.0
 11
2448.19
 21
1099.359999999999
 31
0.0
  0
LINE
  5
7B6
330
19
100
AcDbEntity
  8
1
  6
DIVIDE
 62
     7
100
AcDbLine
 10
2117.92
 20
1412.959999999999
 30
0.0
 11
1527.66
 21
1926.06
 31
0.0
  0
LINE
  5
7B7
330
19
100
AcDbEntity
  8
1
  6
DIVIDE
 62
     7
100
AcDbLine
 10
2116.6
 20
1411.45
 30
0.0
 11
1527.66
 21
1923.41
 31
0.0
  0
LINE
  5
7B8
330
19
100
AcDbEntity
  8
1
  6
DIVIDE
 62
     7
100
AcDbLine
 10
2108.08
 20
1401.64
 30
0.0
 11
1520.61
 21
1912.32
 31
0.0
  0
LWPOLYLINE
  5
7B9
330
19
100
AcDbEntity
  8
1
  6
Continuous
 62
     1
100
AcDbPolyline
 90
        3
 70
     0
 43
0.0
 10
1472.66
 20
1972.319999999999
 10
1472.66
 20
1969.12
 10
1477.66
 20
1969.12
  0
ARC
  5
7BE
330
19
100
AcDbEntity
  8
1
  6
Continuous
 62
     1
100
AcDbCircle
 10
1507.66
 20
1964.819999999999
 30
0.0
 40
20.0
100
AcDbArc
 50
0.0
 51
90.0
  0
LINE
  5
7BF
330
19
100
AcDbEntity
  8
1
  6
Continuous
 62
     1
100
AcDbLine
 10
1507.66
 20
1984.82
 30
0.0
 11
1492.73
 21
1984.82
 31
0.0
  0
LINE
  5
7C0
330
19
100
AcDbEntity
  8
1
  6
Continuous
 62
     1
100
AcDbLine
 10
1527.66
 20
1912.32
 30
0.0
 11
1527.66
 21
1964.819999999999
 31
0.0
  0
LINE
  5
7C1
330
19
100
AcDbEntity
  8
1
  6
Continuous
 62
     1
100
AcDbLine
 10
1477.66
 20
1969.12
 30
0.0
 11
1488.839999999999
 21
1982.96
 31
0.0
  0
ARC
  5
7C2
330
19
100
AcDbEntity
  8
1
  6
Continuous
 62
     1
100
AcDbCircle
 10
1492.73
 20
1979.82
 30
0.0
 40
5.0
100
AcDbArc
 50
90.0
 51
141.0679999999999
  0
LINE
  5
7C4
330
19
100
AcDbEntity
  8
1
  6
Continuous
 62
     3
100
AcDbLine
 10
2707.06
 20
938.996
 30
0.0
 11
2845.579999999999
 21
938.996
 31
0.0
  0
ARC
  5
7C5
330
19
100
AcDbEntity
  8
1
  6
DIVIDE
 62
     7
100
AcDbCircle
 10
2754.29
 20
1131.39
 30
0.0
 40
5.0
100
AcDbArc
 50
228.9999999999999
 51
48.99999999999999
  0
LINE
  5
7C6
330
19
100
AcDbEntity
  8
1
  6
DIVIDE
 62
     7
100
AcDbLine
 10
1397.15
 20
1972.319999999999
 30
0.0
 11
1390.53
 21
2055.48
 31
0.0
  0
LINE
  5
7C7
330
19
100
AcDbEntity
  8
1
  6
DIVIDE
 62
     7
100
AcDbLine
 10
1351.29
 20
2044.329999999999
 30
0.0
 11
1357.02
 21
1972.319999999999
 31
0.0
  0
LWPOLYLINE
  5
7C8
330
19
100
AcDbEntity
  8
1
  6
DIVIDE
 62
     7
100
AcDbPolyline
 90
        3
 70
     0
 43
0.0
 10
1337.15
 20
2096.97
 10
1321.41
 20
2078.85
 10
1354.87
 20
2049.76
  0
LINE
  5
7CD
330
19
100
AcDbEntity
  8
1
  6
DIVIDE
 62
     7
100
AcDbLine
 10
1393.67
 20
2016.039999999999
 30
0.0
 11
1425.559999999999
 21
1988.319999999999
 31
0.0
  0
ARC
  5
7CE
330
19
100
AcDbEntity
  8
1
  6
DIVIDE
 62
     7
100
AcDbCircle
 10
1343.94
 20
2091.06
 30
0.0
 40
14.0
100
AcDbArc
 50
359.005
 51
188.994
  0
LWPOLYLINE
  5
7CF
330
19
100
AcDbEntity
  8
1
  6
Continuous
 62
     1
100
AcDbPolyline
 90
        4
 70
     0
 43
0.0
 10
1472.66
 20
1972.319999999999
 10
472.665
 20
1972.319999999999
 10
472.665
 20
1912.32
 10
567.6649999999999
 20
1912.32
  0
LINE
  5
7D5
330
19
100
AcDbEntity
  8
1
  6
Continuous
 62
     1
100
AcDbLine
 10
797.665
 20
1912.32
 30
0.0
 11
1527.66
 21
1912.32
 31
0.0
  0
LINE
  5
7D6
330
19
100
AcDbEntity
  8
1
  6
Continuous
 62
     2
100
AcDbLine
 10
514.665
 20
1988.319999999999
 30
0.0
 11
514.665
 21
1972.319999999999
 31
0.0
  0
CIRCLE
  5
7D7
330
19
100
AcDbEntity
  8
1
  6
Continuous
 62
     4
100
AcDbCircle
 10
1965.66
 20
3405.24
 30
0.0
 40
4.5
  0
LINE
  5
7D8
330
19
100
AcDbEntity
  8
1
  6
Continuous
 62
     2
100
AcDbLine
 10
1925.66
 20
3446.74
 30
0.0
 11
1527.66
 21
3446.74
 31
0.0
  0
LINE
  5
7D9
330
19
100
AcDbEntity
  8
1
  6
Continuous
 62
     2
100
AcDbLine
 10
1980.66
 20
3429.739999999999
 30
0.0
 11
1512.39
 21
3429.739999999999
 31
0.0
  0
LINE
  5
7DA
330
19
100
AcDbEntity
  8
1
  6
Continuous
 62
     2
100
AcDbLine
 10
1492.93
 20
3429.739999999999
 30
0.0
 11
1088.78
 21
3429.739999999999
 31
0.0
  0
LINE
  5
7DB
330
19
100
AcDbEntity
  8
1
  6
Continuous
 62
     2
100
AcDbLine
 10
1980.66
 20
3380.74
 30
0.0
 11
1088.78
 21
3380.74
 31
0.0
  0
LINE
  5
7DC
330
19
100
AcDbEntity
  8
1
  6
Continuous
 62
     2
100
AcDbLine
 10
1982.66
 20
3475.44
 30
0.0
 11
1091.0
 21
3475.44
 31
0.0
  0
LINE
  5
7DD
330
19
100
AcDbEntity
  8
1
  6
Continuous
 62
     2
100
AcDbLine
 10
1982.66
 20
3525.04
 30
0.0
 11
1091.0
 21
3525.04
 31
0.0
  0
LINE
  5
7DE
330
19
100
AcDbEntity
  8
1
  6
Continuous
 62
     2
100
AcDbLine
 10
461.6649999999999
 20
3436.24
 30
0.0
 11
567.6649999999999
 21
3436.24
 31
0.0
  0
LINE
  5
7DF
330
19
100
AcDbEntity
  8
1
  6
Continuous
 62
     2
100
AcDbLine
 10
797.665
 20
3436.24
 30
0.0
 11
1085.66
 21
3436.24
 31
0.0
  0
LINE
  5
7E0
330
19
100
AcDbEntity
  8
1
  6
Continuous
 62
     2
100
AcDbLine
 10
514.665
 20
3541.74
 30
0.0
 11
514.665
 21
3531.239999999999
 31
0.0
  0
LINE
  5
7E1
330
19
100
AcDbEntity
  8
1
  6
Continuous
 62
     2
100
AcDbLine
 10
514.665
 20
3458.739999999999
 30
0.0
 11
514.665
 21
3469.24
 31
0.0
  0
LINE
  5
7E2
330
19
100
AcDbEntity
  8
1
  6
Continuous
 62
     2
100
AcDbLine
 10
614.7549999999999
 20
1033.349999999999
 30
0.0
 11
594.624
 21
869.3939999999999
 31
0.0
  0
LWPOLYLINE
  5
7E3
330
19
100
AcDbEntity
  8
1
  6
Continuous
 62
     2
100
AcDbPolyline
 90
        4
 70
     0
 43
0.0
 10
1908.75
 20
708.039
 10
578.743
 20
871.344
 10
572.649
 20
821.7159999999999
 10
670.1649999999999
 20
809.7430000000001
  0
LWPOLYLINE
  5
7E9
330
19
100
AcDbEntity
  8
1
  6
Continuous
 62
     2
100
AcDbPolyline
 90
        3
 70
     0
 43
0.0
 10
695.1649999999999
 20
806.6729999999999
 10
1942.36
 20
653.5369999999999
 10
1943.58
 20
663.4619999999999
  0
LINE
  5
7EE
330
19
100
AcDbEntity
  8
1
  6
Continuous
 62
     1
100
AcDbLine
 10
645.1649999999999
 20
658.321
 30
0.0
 11
645.1649999999999
 21
812.812
 31
0.0
  0
LINE
  5
7EF
330
19
100
AcDbEntity
  8
1
  6
Continuous
 62
     1
100
AcDbLine
 10
720.1649999999999
 20
658.321
 30
0.0
 11
720.1649999999999
 21
803.6039999999999
 31
0.0
  0
LINE
  5
7F0
330
19
100
AcDbEntity
  8
1
  6
Continuous
 62
     1
100
AcDbLine
 10
720.1649999999999
 20
853.9789999999999
 30
0.0
 11
720.1649999999999
 21
1001.94
 31
0.0
  0
LINE
  5
7F1
330
19
100
AcDbEntity
  8
1
  6
Continuous
 62
     2
100
AcDbLine
 10
618.665
 20
2153.51
 30
0.0
 11
618.665
 21
1988.319999999999
 31
0.0
  0
LINE
  5
7F2
330
19
100
AcDbEntity
  8
1
  6
DIVIDE
 62
     7
100
AcDbLine
 10
1567.0
 20
2157.12
 30
0.0
 11
1458.619999999999
 21
2032.45
 31
0.0
  0
LINE
  5
7F3
330
19
100
AcDbEntity
  8
1
  6
Continuous
 62
     2
100
AcDbLine
 10
472.665
 20
3544.24
 30
0.0
 11
480.665
 21
3544.24
 31
0.0
  0
LINE
  5
7F4
330
19
100
AcDbEntity
  8
1
  6
Continuous
 62
     2
100
AcDbLine
 10
472.665
 20
3456.239999999999
 30
0.0
 11
480.665
 21
3456.239999999999
 31
0.0
  0
LWPOLYLINE
  5
7F5
330
19
100
AcDbEntity
  8
1
  6
Continuous
 62
     2
100
AcDbPolyline
 90
        3
 70
     0
 43
0.0
 10
1472.66
 20
3544.24
 10
1472.66
 20
3559.04
 10
1527.66
 20
3559.04
  0
LWPOLYLINE
  5
7FA
330
19
100
AcDbEntity
  8
1
  6
Continuous
 62
     2
100
AcDbPolyline
 90
        3
 70
     0
 43
0.0
 10
1472.66
 20
3456.239999999999
 10
1472.66
 20
3441.44
 10
1527.66
 20
3441.44
  0
LINE
  5
7FF
330
19
100
AcDbEntity
  8
1
  6
Continuous
 62
     2
100
AcDbLine
 10
510.665
 20
3544.24
 30
0.0
 11
1472.66
 21
3544.24
 31
0.0
  0
LINE
  5
800
330
19
100
AcDbEntity
  8
1
  6
Continuous
 62
     2
100
AcDbLine
 10
510.665
 20
3456.239999999999
 30
0.0
 11
1472.66
 21
3456.239999999999
 31
0.0
  0
ARC
  5
801
330
19
100
AcDbEntity
  8
1
  6
Continuous
 62
     2
100
AcDbCircle
 10
1522.66
 20
3550.24
 30
0.0
 40
5.0
100
AcDbArc
 50
270.0
 51
0.0
  0
LINE
  5
802
330
19
100
AcDbEntity
  8
1
  6
Continuous
 62
     2
100
AcDbLine
 10
1513.049999999999
 20
3545.239999999999
 30
0.0
 11
1522.66
 21
3545.239999999999
 31
0.0
  0
LINE
  5
803
330
19
100
AcDbEntity
  8
1
  6
Continuous
 62
     2
100
AcDbLine
 10
1513.049999999999
 20
3455.239999999999
 30
0.0
 11
1522.66
 21
3455.239999999999
 31
0.0
  0
ARC
  5
804
330
19
100
AcDbEntity
  8
1
  6
Continuous
 62
     2
100
AcDbCircle
 10
1522.66
 20
3450.24
 30
0.0
 40
5.0
100
AcDbArc
 50
0.0
 51
90.0
  0
LWPOLYLINE
  5
805
330
19
100
AcDbEntity
  8
1
  6
Continuous
 62
     2
100
AcDbPolyline
 90
        4
 70
     0
 43
0.0
 10
1527.66
 20
3550.24
 10
1527.66
 20
3562.24
 10
472.665
 20
3562.24
 10
472.665
 20
3531.239999999999
  0
LINE
  5
80B
330
19
100
AcDbEntity
  8
1
  6
Continuous
 62
     2
100
AcDbLine
 10
472.665
 20
3523.239999999999
 30
0.0
 11
472.665
 21
3477.24
 31
0.0
  0
LWPOLYLINE
  5
80C
330
19
100
AcDbEntity
  8
1
  6
Continuous
 62
     2
100
AcDbPolyline
 90
        4
 70
     0
 43
0.0
 10
472.665
 20
3469.24
 10
472.665
 20
3438.239999999999
 10
1527.66
 20
3438.239999999999
 10
1527.66
 20
3450.24
  0
LWPOLYLINE
  5
812
330
19
100
AcDbEntity
  8
1
  6
Continuous
 62
     3
100
AcDbPolyline
 90
        5
 70
     0
 43
0.0
 10
1514.66
 20
3438.239999999999
 10
1490.66
 20
3438.239999999999
 10
1490.66
 20
3435.74
 10
1514.66
 20
3435.74
 10
1514.66
 20
3438.239999999999
  0
LWPOLYLINE
  5
819
330
19
100
AcDbEntity
  8
1
  6
Continuous
 62
     3
100
AcDbPolyline
 90
        5
 70
     0
 43
0.0
 10
1513.41
 20
3435.74
 10
1491.91
 20
3435.74
 10
1491.91
 20
3432.739999999999
 10
1513.41
 20
3432.739999999999
 10
1513.41
 20
3435.74
  0
LWPOLYLINE
  5
820
330
19
100
AcDbEntity
  8
1
  6
Continuous
 62
     3
100
AcDbPolyline
 90
        7
 70
     0
 43
0.0
 10
1492.27
 20
3424.13
 10
1494.68
 20
3422.739999999999
 10
1510.64
 20
3422.739999999999
 10
1513.049999999999
 20
3424.13
 10
1513.049999999999
 20
3432.739999999999
 10
1492.27
 20
3432.739999999999
 10
1492.27
 20
3424.13
  0
LINE
  5
829
330
19
100
AcDbEntity
  8
1
  6
Continuous
 62
     3
100
AcDbLine
 10
1507.859999999999
 20
3424.13
 30
0.0
 11
1507.859999999999
 21
3432.739999999999
 31
0.0
  0
LINE
  5
82A
330
19
100
AcDbEntity
  8
1
  6
Continuous
 62
     3
100
AcDbLine
 10
1497.46
 20
3424.13
 30
0.0
 11
1497.46
 21
3432.739999999999
 31
0.0
  0
ARC
  5
82B
330
19
100
AcDbEntity
  8
1
  6
Continuous
 62
     3
100
AcDbCircle
 10
1502.66
 20
3422.739999999999
 30
0.0
 40
8.5
100
AcDbArc
 50
177.999
 51
2.000929999999999
  0
ARC
  5
82C
330
19
100
AcDbEntity
  8
1
  6
Continuous
 62
     3
100
AcDbCircle
 10
1502.66
 20
3433.13
 30
0.0
 40
10.3923
100
AcDbArc
 50
239.999
 51
299.999
  0
ARC
  5
82D
330
19
100
AcDbEntity
  8
1
  6
Continuous
 62
     3
100
AcDbCircle
 10
1512.39
 20
3429.71
 30
0.0
 40
7.19195
100
AcDbArc
 50
230.935
 51
255.9349999999999
  0
ARC
  5
82E
330
19
100
AcDbEntity
  8
1
  6
Continuous
 62
     3
100
AcDbCircle
 10
1492.93
 20
3429.71
 30
0.0
 40
7.19206
100
AcDbArc
 50
284.064
 51
309.064
  0
ARC
  5
82F
330
19
100
AcDbEntity
  8
1
  6
Continuous
 62
     3
100
AcDbCircle
 10
1502.66
 20
3577.74
 30
0.0
 40
8.5
100
AcDbArc
 50
357.999
 51
182.0
  0
LWPOLYLINE
  5
830
330
19
100
AcDbEntity
  8
1
  6
Continuous
 62
     3
100
AcDbPolyline
 90
        5
 70
     0
 43
0.0
 10
1514.66
 20
3562.24
 10
1490.66
 20
3562.24
 10
1490.66
 20
3564.74
 10
1514.66
 20
3564.74
 10
1514.66
 20
3562.24
  0
LWPOLYLINE
  5
837
330
19
100
AcDbEntity
  8
1
  6
Continuous
 62
     3
100
AcDbPolyline
 90
        5
 70
     0
 43
0.0
 10
1513.41
 20
3564.74
 10
1491.91
 20
3564.74
 10
1491.91
 20
3567.74
 10
1513.41
 20
3567.74
 10
1513.41
 20
3564.74
  0
ARC
  5
83E
330
19
100
AcDbEntity
  8
1
  6
Continuous
 62
     3
100
AcDbCircle
 10
1502.66
 20
3567.349999999999
 30
0.0
 40
10.3923
100
AcDbArc
 50
60.00010000000001
 51
119.9999999999999
  0
ARC
  5
83F
330
19
100
AcDbEntity
  8
1
  6
Continuous
 62
     3
100
AcDbCircle
 10
1512.39
 20
3570.76
 30
0.0
 40
7.19195
100
AcDbArc
 50
104.064
 51
129.064
  0
LWPOLYLINE
  5
840
330
19
100
AcDbEntity
  8
1
  6
Continuous
 62
     3
100
AcDbPolyline
 90
        7
 70
     0
 43
0.0
 10
1492.27
 20
3576.35
 10
1494.68
 20
3577.74
 10
1510.64
 20
3577.74
 10
1513.049999999999
 20
3576.35
 10
1513.049999999999
 20
3567.74
 10
1492.27
 20
3567.74
 10
1492.27
 20
3576.35
  0
LINE
  5
849
330
19
100
AcDbEntity
  8
1
  6
Continuous
 62
     3
100
AcDbLine
 10
1507.859999999999
 20
3576.35
 30
0.0
 11
1507.859999999999
 21
3567.74
 31
0.0
  0
ARC
  5
84A
330
19
100
AcDbEntity
  8
1
  6
Continuous
 62
     3
100
AcDbCircle
 10
1492.93
 20
3570.76
 30
0.0
 40
7.19206
100
AcDbArc
 50
50.93589999999999
 51
75.9358
  0
LINE
  5
84B
330
19
100
AcDbEntity
  8
1
  6
Continuous
 62
     3
100
AcDbLine
 10
1497.46
 20
3576.35
 30
0.0
 11
1497.46
 21
3567.74
 31
0.0
  0
LINE
  5
84C
330
19
100
AcDbEntity
  8
1
  6
Continuous
 62
     3
100
AcDbLine
 10
1497.46
 20
3541.74
 30
0.0
 11
1497.46
 21
3559.04
 31
0.0
  0
LINE
  5
84D
330
19
100
AcDbEntity
  8
1
  6
Continuous
 62
     3
100
AcDbLine
 10
1507.859999999999
 20
3541.74
 30
0.0
 11
1507.859999999999
 21
3559.04
 31
0.0
  0
LWPOLYLINE
  5
84E
330
19
100
AcDbEntity
  8
1
  6
Continuous
 62
     3
100
AcDbPolyline
 90
        4
 70
     0
 43
0.0
 10
1492.27
 20
3541.74
 10
1492.27
 20
3559.04
 10
1513.049999999999
 20
3559.04
 10
1513.049999999999
 20
3541.74
  0
LINE
  5
854
330
19
100
AcDbEntity
  8
1
  6
Continuous
 62
     3
100
AcDbLine
 10
1497.46
 20
3458.739999999999
 30
0.0
 11
1497.46
 21
3441.44
 31
0.0
  0
LINE
  5
855
330
19
100
AcDbEntity
  8
1
  6
Continuous
 62
     3
100
AcDbLine
 10
1507.859999999999
 20
3458.739999999999
 30
0.0
 11
1507.859999999999
 21
3441.44
 31
0.0
  0
LWPOLYLINE
  5
856
330
19
100
AcDbEntity
  8
1
  6
Continuous
 62
     3
100
AcDbPolyline
 90
        4
 70
     0
 43
0.0
 10
1492.27
 20
3458.739999999999
 10
1492.27
 20
3441.44
 10
1513.049999999999
 20
3441.44
 10
1513.049999999999
 20
3458.739999999999
  0
CIRCLE
  5
85C
330
19
100
AcDbEntity
  8
1
  6
Continuous
 62
     3
100
AcDbCircle
 10
495.665
 20
3550.24
 30
0.0
 40
5.25
  0
CIRCLE
  5
85D
330
19
100
AcDbEntity
  8
1
  6
Continuous
 62
     3
100
AcDbCircle
 10
495.665
 20
3450.24
 30
0.0
 40
5.25
  0
LWPOLYLINE
  5
85E
330
19
100
AcDbEntity
  8
1
  6
Continuous
 62
     3
100
AcDbPolyline
 90
        6
 70
     0
 43
0.0
 10
510.665
 20
3531.239999999999
 10
510.665
 20
3557.24
 10
480.665
 20
3557.24
 10
480.665
 20
3542.239999999999
 10
475.665
 20
3542.239999999999
 10
475.665
 20
3531.239999999999
  0
LINE
  5
866
330
19
100
AcDbEntity
  8
1
  6
Continuous
 62
     3
100
AcDbLine
 10
475.665
 20
3523.239999999999
 30
0.0
 11
475.665
 21
3477.24
 31
0.0
  0
LWPOLYLINE
  5
867
330
19
100
AcDbEntity
  8
1
  6
Continuous
 62
     3
100
AcDbPolyline
 90
        6
 70
     0
 43
0.0
 10
475.665
 20
3469.24
 10
475.665
 20
3458.239999999999
 10
480.665
 20
3458.239999999999
 10
480.665
 20
3443.24
 10
510.665
 20
3443.24
 10
510.665
 20
3469.24
  0
LINE
  5
86F
330
19
100
AcDbEntity
  8
1
  6
Continuous
 62
     3
100
AcDbLine
 10
510.665
 20
3477.24
 30
0.0
 11
510.665
 21
3523.239999999999
 31
0.0
  0
ARC
  5
870
330
19
100
AcDbEntity
  8
1
  6
Continuous
 62
     3
100
AcDbCircle
 10
549.6649999999999
 20
3500.24
 30
0.0
 40
15.0
100
AcDbArc
 50
90.0
 51
270.0
  0
LINE
  5
871
330
19
100
AcDbEntity
  8
1
  6
Continuous
 62
     3
100
AcDbLine
 10
549.6649999999999
 20
3515.24
 30
0.0
 11
629.6649999999999
 21
3515.24
 31
0.0
  0
ARC
  5
872
330
19
100
AcDbEntity
  8
1
  6
Continuous
 62
     3
100
AcDbCircle
 10
629.6649999999999
 20
3500.24
 30
0.0
 40
15.0
100
AcDbArc
 50
270.0
 51
90.0
  0
LINE
  5
873
330
19
100
AcDbEntity
  8
1
  6
Continuous
 62
     3
100
AcDbLine
 10
629.6649999999999
 20
3485.239999999999
 30
0.0
 11
549.6649999999999
 21
3485.239999999999
 31
0.0
  0
LINE
  5
874
330
19
100
AcDbEntity
  8
1
  6
Continuous
 62
     2
100
AcDbLine
 10
510.665
 20
1975.519999999999
 30
0.0
 11
481.665
 21
1975.519999999999
 31
0.0
  0
ARC
  5
875
330
19
100
AcDbEntity
  8
1
  6
Continuous
 62
     2
100
AcDbCircle
 10
481.665
 20
1969.52
 30
0.0
 40
6.0
100
AcDbArc
 50
90.0
 51
152.181
  0
LINE
  5
876
330
19
100
AcDbEntity
  8
1
  6
Continuous
 62
     2
100
AcDbLine
 10
510.665
 20
1972.319999999999
 30
0.0
 11
510.665
 21
1975.519999999999
 31
0.0
  0
LWPOLYLINE
  5
877
330
19
100
AcDbEntity
  8
1
  6
Continuous
 62
     3
100
AcDbPolyline
 90
        4
 70
     0
 43
0.0
 10
4847.54
 20
658.321
 10
4847.54
 20
748.321
 10
4853.54
 20
748.321
 10
4853.54
 20
658.321
  0
TEXT
  5
87D
330
19
100
AcDbEntity
  8
1
 62
     3
100
AcDbText
 10
371.6869999999999
 20
2320.46
 30
0.0
 40
40.0
  1
境界面（壁等）
 50
90.0
100
AcDbText
  0
TEXT
  5
87E
330
19
100
AcDbEntity
  8
1
 62
     3
100
AcDbText
 10
4710.52
 20
3270.54
 30
0.0
 40
40.0
  1
天井
100
AcDbText
  0
TEXT
  5
87F
330
19
100
AcDbEntity
  8
1
 62
     3
100
AcDbText
 10
1049.15
 20
574.6469999999999
 30
0.0
 40
40.0
  1
コンクリ－ト基礎
100
AcDbText
  0
LWPOLYLINE
  5
880
330
19
100
AcDbEntity
  8
1
  6
HIDDEN
 62
     1
100
AcDbPolyline
 90
        4
 70
     0
 43
0.0
 10
432.6649999999999
 20
652.321
 10
432.6649999999999
 20
552.321
 10
2282.659999999999
 20
552.321
 10
2282.659999999999
 20
652.321
  0
TEXT
  5
886
330
19
100
AcDbEntity
  8
1
 62
     3
100
AcDbText
 10
991.797
 20
480.583
 30
0.0
 40
40.0
  1
３－アンカ－ボルト（Ｍ１０×６０Ｌ）
100
AcDbText
  0
LWPOLYLINE
  5
887
330
19
100
AcDbEntity
  8
1
  6
Continuous
 62
     3
100
AcDbPolyline
 90
        3
 70
     0
 43
0.0
 10
832.6649999999998
 20
652.321
 10
992.34
 20
472.554
 10
1705.849999999999
 20
472.554
  0
LINE
  5
88C
330
19
100
AcDbEntity
  8
1
  6
Continuous
 62
     3
100
AcDbLine
 10
832.6649999999998
 20
652.321
 30
0.0
 11
843.3099999999999
 21
635.0259999999999
 31
0.0
  0
LINE
  5
88D
330
19
100
AcDbEntity
  8
1
  6
Continuous
 62
     3
100
AcDbLine
 10
832.6649999999998
 20
652.321
 30
0.0
 11
848.5830000000001
 21
639.71
 31
0.0
  0
LWPOLYLINE
  5
88E
330
19
100
AcDbEntity
  8
1
  6
HIDDEN
 62
     1
100
AcDbPolyline
 90
        4
 70
     0
 43
0.0
 10
4625.539999999999
 20
652.321
 10
4625.539999999999
 20
552.321
 10
5075.54
 20
552.321
 10
5075.54
 20
652.321
  0
TEXT
  5
894
330
19
100
AcDbEntity
  8
1
 62
     3
100
AcDbText
 10
2091.429999999999
 20
658.9349999999999
 30
0.0
 40
40.0
  1
ＦＬ±０
100
AcDbText
  0
LINE
  5
895
330
19
100
AcDbEntity
  8
1
  6
DASHDOT
 62
     3
100
AcDbLine
 10
635.836
 20
195.171
 30
0.0
 11
589.494
 21
195.171
 31
0.0
  0
CIRCLE
  5
896
330
19
100
AcDbEntity
  8
1
  6
Continuous
 62
     2
100
AcDbCircle
 10
612.6649999999999
 20
195.171
 30
0.0
 40
6.0
  0
LINE
  5
897
330
19
100
AcDbEntity
  8
1
  6
DASHDOT
 62
     3
100
AcDbLine
 10
635.836
 20
95.17180000000001
 30
0.0
 11
589.494
 21
95.17180000000001
 31
0.0
  0
CIRCLE
  5
898
330
19
100
AcDbEntity
  8
1
  6
Continuous
 62
     2
100
AcDbCircle
 10
612.6649999999999
 20
95.17180000000001
 30
0.0
 40
6.0
  0
LINE
  5
899
330
19
100
AcDbEntity
  8
1
  6
DASHDOT
 62
     3
100
AcDbLine
 10
612.6649999999999
 20
222.3149999999999
 30
0.0
 11
612.6649999999999
 21
66.6242
 31
0.0
  0
CIRCLE
  5
89A
330
19
100
AcDbEntity
  8
1
  6
Continuous
 62
     2
100
AcDbCircle
 10
832.6649999999998
 20
145.171
 30
0.0
 40
6.0
  0
LINE
  5
89B
330
19
100
AcDbEntity
  8
1
  6
DASHDOT
 62
     3
100
AcDbLine
 10
832.6649999999998
 20
172.3149999999999
 30
0.0
 11
832.6649999999998
 21
115.9679999999999
 31
0.0
  0
LINE
  5
89C
330
19
100
AcDbEntity
  8
1
  6
DASHDOT
 62
     3
100
AcDbLine
 10
904.9699999999999
 20
145.171
 30
0.0
 11
556.7140000000001
 21
145.171
 31
0.0
  0
LINE
  5
89D
330
19
100
AcDbEntity
  8
1
  6
DASHDOT
 62
     3
100
AcDbLine
 10
682.6649999999999
 20
230.823
 30
0.0
 11
682.6649999999999
 21
56.415
 31
0.0
  0
LINE
  5
89E
330
19
100
AcDbEntity
  8
1
  6
Continuous
 62
     3
100
AcDbLine
 10
589.494
 20
195.171
 30
0.0
 11
522.2509999999999
 21
195.171
 31
0.0
  0
LINE
  5
89F
330
19
100
AcDbEntity
  8
1
  6
Continuous
 62
     3
100
AcDbLine
 10
522.2509999999999
 20
95.17180000000001
 30
0.0
 11
589.494
 21
95.17180000000001
 31
0.0
  0
LINE
  5
8A0
330
19
100
AcDbEntity
  8
1
  6
Continuous
 62
     3
100
AcDbLine
 10
542.2509999999999
 20
95.17180000000001
 30
0.0
 11
542.2509999999999
 21
195.171
 31
0.0
  0
LINE
  5
8A1
330
19
100
AcDbEntity
  8
1
  6
Continuous
 62
     3
100
AcDbLine
 10
542.2509999999999
 20
95.17180000000001
 30
0.0
 11
545.778
 21
115.171
 31
0.0
  0
LINE
  5
8A2
330
19
100
AcDbEntity
  8
1
  6
Continuous
 62
     3
100
AcDbLine
 10
542.2509999999999
 20
95.17180000000001
 30
0.0
 11
538.725
 21
115.171
 31
0.0
  0
LINE
  5
8A3
330
19
100
AcDbEntity
  8
1
  6
Continuous
 62
     3
100
AcDbLine
 10
542.2509999999999
 20
195.171
 30
0.0
 11
538.725
 21
175.1709999999999
 31
0.0
  0
LINE
  5
8A4
330
19
100
AcDbEntity
  8
1
  6
Continuous
 62
     3
100
AcDbLine
 10
542.2509999999999
 20
195.171
 30
0.0
 11
545.778
 21
175.1709999999999
 31
0.0
  0
TEXT
  5
8A5
330
19
100
AcDbEntity
  8
1
 62
     3
100
AcDbText
 10
542.2509999999999
 20
103.171
 30
0.0
 40
40.0
  1
１００
 50
90.0
 41
0.7
100
AcDbText
  0
LINE
  5
8A6
330
19
100
AcDbEntity
  8
1
  6
Continuous
 62
     3
100
AcDbLine
 10
682.6649999999999
 20
230.823
 30
0.0
 11
682.6649999999999
 21
256.778
 31
0.0
  0
LINE
  5
8A7
330
19
100
AcDbEntity
  8
1
  6
Continuous
 62
     3
100
AcDbLine
 10
612.6649999999999
 20
256.778
 30
0.0
 11
612.6649999999999
 21
222.3149999999999
 31
0.0
  0
LINE
  5
8A8
330
19
100
AcDbEntity
  8
1
  6
Continuous
 62
     3
100
AcDbLine
 10
612.6649999999999
 20
236.7779999999999
 30
0.0
 11
682.6649999999999
 21
236.7779999999999
 31
0.0
  0
LINE
  5
8A9
330
19
100
AcDbEntity
  8
1
  6
Continuous
 62
     3
100
AcDbLine
 10
612.6649999999999
 20
236.7779999999999
 30
0.0
 11
632.6649999999999
 21
233.2509999999999
 31
0.0
  0
LINE
  5
8AA
330
19
100
AcDbEntity
  8
1
  6
Continuous
 62
     3
100
AcDbLine
 10
612.6649999999999
 20
236.7779999999999
 30
0.0
 11
632.6649999999999
 21
240.304
 31
0.0
  0
LINE
  5
8AB
330
19
100
AcDbEntity
  8
1
  6
Continuous
 62
     3
100
AcDbLine
 10
682.6649999999999
 20
236.7779999999999
 30
0.0
 11
662.6649999999999
 21
240.304
 31
0.0
  0
LINE
  5
8AC
330
19
100
AcDbEntity
  8
1
  6
Continuous
 62
     3
100
AcDbLine
 10
682.6649999999999
 20
236.7779999999999
 30
0.0
 11
662.6649999999999
 21
233.2509999999999
 31
0.0
  0
TEXT
  5
8AD
330
19
100
AcDbEntity
  8
1
 62
     3
100
AcDbText
 10
619.6649999999999
 20
236.7779999999999
 30
0.0
 40
40.0
  1
７０
 41
0.7
100
AcDbText
  0
LINE
  5
8AE
330
19
100
AcDbEntity
  8
1
  6
Continuous
 62
     3
100
AcDbLine
 10
832.6649999999998
 20
172.3149999999999
 30
0.0
 11
832.6649999999998
 21
256.778
 31
0.0
  0
LINE
  5
8AF
330
19
100
AcDbEntity
  8
1
  6
Continuous
 62
     3
100
AcDbLine
 10
682.6649999999999
 20
256.778
 30
0.0
 11
682.6649999999999
 21
230.823
 31
0.0
  0
LINE
  5
8B0
330
19
100
AcDbEntity
  8
1
  6
Continuous
 62
     3
100
AcDbLine
 10
682.6649999999999
 20
236.7779999999999
 30
0.0
 11
832.6649999999998
 21
236.7779999999999
 31
0.0
  0
LINE
  5
8B1
330
19
100
AcDbEntity
  8
1
  6
Continuous
 62
     3
100
AcDbLine
 10
682.6649999999999
 20
236.7779999999999
 30
0.0
 11
702.665
 21
233.2509999999999
 31
0.0
  0
LINE
  5
8B2
330
19
100
AcDbEntity
  8
1
  6
Continuous
 62
     3
100
AcDbLine
 10
682.6649999999999
 20
236.7779999999999
 30
0.0
 11
702.665
 21
240.304
 31
0.0
  0
LINE
  5
8B3
330
19
100
AcDbEntity
  8
1
  6
Continuous
 62
     3
100
AcDbLine
 10
832.6649999999998
 20
236.7779999999999
 30
0.0
 11
812.6649999999999
 21
240.304
 31
0.0
  0
LINE
  5
8B4
330
19
100
AcDbEntity
  8
1
  6
Continuous
 62
     3
100
AcDbLine
 10
832.6649999999998
 20
236.7779999999999
 30
0.0
 11
812.6649999999999
 21
233.2509999999999
 31
0.0
  0
TEXT
  5
8B5
330
19
100
AcDbEntity
  8
1
 62
     3
100
AcDbText
 10
715.6649999999999
 20
236.7779999999999
 30
0.0
 40
40.0
  1
１５０
 41
0.7
100
AcDbText
  0
LINE
  5
8B6
330
19
100
AcDbEntity
  8
1
  6
Continuous
 62
     3
100
AcDbLine
 10
832.6649999999998
 20
115.9679999999999
 30
0.0
 11
832.6649999999998
 21
6.638049999999999
 31
0.0
  0
LINE
  5
8B7
330
19
100
AcDbEntity
  8
1
  6
Continuous
 62
     3
100
AcDbLine
 10
612.6649999999999
 20
6.638049999999999
 30
0.0
 11
612.6649999999999
 21
66.6242
 31
0.0
  0
LINE
  5
8B8
330
19
100
AcDbEntity
  8
1
  6
Continuous
 62
     3
100
AcDbLine
 10
612.6649999999999
 20
26.638
 30
0.0
 11
832.6649999999998
 21
26.638
 31
0.0
  0
LINE
  5
8B9
330
19
100
AcDbEntity
  8
1
  6
Continuous
 62
     3
100
AcDbLine
 10
612.6649999999999
 20
26.638
 30
0.0
 11
632.6649999999999
 21
23.1115
 31
0.0
  0
LINE
  5
8BA
330
19
100
AcDbEntity
  8
1
  6
Continuous
 62
     3
100
AcDbLine
 10
612.6649999999999
 20
26.638
 30
0.0
 11
632.6649999999999
 21
30.1645
 31
0.0
  0
LINE
  5
8BB
330
19
100
AcDbEntity
  8
1
  6
Continuous
 62
     3
100
AcDbLine
 10
832.6649999999998
 20
26.638
 30
0.0
 11
812.6649999999999
 21
30.1645
 31
0.0
  0
LINE
  5
8BC
330
19
100
AcDbEntity
  8
1
  6
Continuous
 62
     3
100
AcDbLine
 10
832.6649999999998
 20
26.638
 30
0.0
 11
812.6649999999999
 21
23.1115
 31
0.0
  0
TEXT
  5
8BD
330
19
100
AcDbEntity
  8
1
 62
     3
100
AcDbText
 10
680.6649999999999
 20
26.638
 30
0.0
 40
40.0
  1
２２０
 41
0.7
100
AcDbText
  0
LWPOLYLINE
  5
8BE
330
19
100
AcDbEntity
  8
1
  6
Continuous
 62
     2
100
AcDbPolyline
 90
        5
 70
     0
 43
0.0
 10
847.6649999999999
 20
207.6709999999999
 10
597.6649999999999
 20
207.6709999999999
 10
597.6649999999999
 20
82.67180000000001
 10
847.6649999999999
 20
82.67180000000001
 10
847.6649999999999
 20
207.6709999999999
  0
TEXT
  5
8C5
330
19
100
AcDbEntity
  8
1
 62
     4
100
AcDbText
 10
4148.359999999999
 20
539.4239999999999
 30
0.0
 40
60.0
  1
ＦＮＯ．４５３（改）
 41
0.6666600000000001
100
AcDbText
  0
POINT
  5
8C6
330
19
100
AcDbEntity
  8
1
 62
     8
100
AcDbPoint
 10
1892.66
 20
1935.32
 30
0.0
  0
POINT
  5
8C7
330
19
100
AcDbEntity
  8
1
 62
     8
100
AcDbPoint
 10
862.6649999999999
 20
1935.32
 30
0.0
  0
CIRCLE
  5
8C8
330
19
100
AcDbEntity
  8
1
  6
Continuous
 62
     8
100
AcDbCircle
 10
1452.66
 20
2205.119999999999
 30
0.0
 40
12.5
  0
CIRCLE
  5
8C9
330
19
100
AcDbEntity
  8
1
  6
Continuous
 62
     8
100
AcDbCircle
 10
1397.94
 20
2054.769999999999
 30
0.0
 40
8.0
  0
LWPOLYLINE
  5
8CA
330
19
100
AcDbEntity
  8
1
  6
Continuous
 62
     8
100
AcDbPolyline
 90
        5
 70
     0
 43
0.0
 10
1432.94
 20
2064.77
 10
1432.94
 20
2044.77
 10
1362.94
 20
2044.77
 10
1362.94
 20
2064.77
 10
1432.94
 20
2064.77
  0
LINE
  5
8D1
330
19
100
AcDbEntity
  8
1
  6
Continuous
 62
     8
100
AcDbLine
 10
1440.8
 20
2209.06
 30
0.0
 11
1392.83
 21
2064.77
 31
0.0
  0
LINE
  5
8D2
330
19
100
AcDbEntity
  8
1
  6
Continuous
 62
     8
100
AcDbLine
 10
1410.5
 20
2064.77
 30
0.0
 11
1464.28
 21
2200.51
 31
0.0
  0
ARC
  5
8D3
330
19
100
AcDbEntity
  8
1
  6
Continuous
 62
     8
100
AcDbCircle
 10
1452.66
 20
2205.119999999999
 30
0.0
 40
90.0
100
AcDbArc
 50
256.3709999999999
 51
243.628
  0
LINE
  5
8D4
330
19
100
AcDbEntity
  8
1
  6
Continuous
 62
     8
100
AcDbLine
 10
1626.9
 20
2631.219999999999
 30
0.0
 11
1593.08
 21
2643.53
 31
0.0
  0
LINE
  5
8D5
330
19
100
AcDbEntity
  8
1
  6
Continuous
 62
     8
100
AcDbLine
 10
1474.369999999999
 20
2317.39
 30
0.0
 11
1593.08
 21
2643.53
 31
0.0
  0
LINE
  5
8D6
330
19
100
AcDbEntity
  8
1
  6
Continuous
 62
     8
100
AcDbLine
 10
1512.03
 20
2315.59
 30
0.0
 11
1626.9
 21
2631.219999999999
 31
0.0
  0
CIRCLE
  5
8D7
330
19
100
AcDbEntity
  8
1
  6
Continuous
 62
     8
100
AcDbCircle
 10
1631.8
 20
2618.41
 30
0.0
 40
7.0
  0
LWPOLYLINE
  5
8D8
330
19
100
AcDbEntity
  8
1
  6
Continuous
 62
     8
100
AcDbPolyline
 90
        5
 70
     0
 43
0.0
 10
1118.12
 20
2732.429999999999
 10
1084.3
 20
2744.75
 10
1025.349999999999
 20
2582.79
 10
1059.18
 20
2570.48
 10
1118.12
 20
2732.429999999999
  0
CIRCLE
  5
8DF
330
19
100
AcDbEntity
  8
1
  6
Continuous
 62
     8
100
AcDbCircle
 10
862.6649999999999
 20
2240.12
 30
0.0
 40
7.0
  0
LINE
  5
8E0
330
19
100
AcDbEntity
  8
1
  6
Continuous
 62
     8
100
AcDbLine
 10
975.7319999999999
 20
2424.15
 30
0.0
 11
1027.05
 21
2581.59
 31
0.0
  0
ARC
  5
8E1
330
19
100
AcDbEntity
  8
1
  6
Continuous
 62
     8
100
AcDbCircle
 10
595.4279999999999
 20
2548.12
 30
0.0
 40
400.0
100
AcDbArc
 50
314.4859999999999
 51
341.944
  0
LINE
  5
8E2
330
19
100
AcDbEntity
  8
1
  6
Continuous
 62
     8
100
AcDbLine
 10
857.76
 20
2245.109999999999
 30
0.0
 11
875.726
 21
2262.76
 31
0.0
  0
LINE
  5
8E3
330
19
100
AcDbEntity
  8
1
  6
Continuous
 62
     8
100
AcDbLine
 10
1057.099999999999
 20
2570.65
 30
0.0
 11
989.794
 21
2403.579999999999
 31
0.0
  0
ARC
  5
8E4
330
19
100
AcDbEntity
  8
1
  6
Continuous
 62
     8
100
AcDbCircle
 10
605.7909999999999
 20
2558.3
 30
0.0
 40
414.0
100
AcDbArc
 50
314.4859999999999
 51
338.0549999999999
  0
LINE
  5
8E5
330
19
100
AcDbEntity
  8
1
  6
Continuous
 62
     8
100
AcDbLine
 10
895.8999999999999
 20
2262.95
 30
0.0
 11
867.57
 21
2235.119999999999
 31
0.0
  0
LINE
  5
8E6
330
19
100
AcDbEntity
  8
1
  6
Continuous
 62
     8
100
AcDbLine
 10
1065.39
 20
2587.55
 30
0.0
 11
1360.37
 21
2270.639999999999
 31
0.0
  0
LINE
  5
8E7
330
19
100
AcDbEntity
  8
1
  6
Continuous
 62
     8
100
AcDbLine
 10
1380.83
 20
2292.58
 30
0.0
 11
1076.54
 21
2618.17
 31
0.0
  0
LINE
  5
8E8
330
19
100
AcDbEntity
  8
1
  6
Continuous
 62
     8
100
AcDbLine
 10
1504.33
 20
2399.71
 30
0.0
 11
1109.32
 21
2708.239999999999
 31
0.0
  0
LINE
  5
8E9
330
19
100
AcDbEntity
  8
1
  6
Continuous
 62
     8
100
AcDbLine
 10
1098.7
 20
2679.05
 30
0.0
 11
1493.71
 21
2370.52
 31
0.0
  0
LINE
  5
8EA
330
19
100
AcDbEntity
  8
1
  6
Continuous
 62
     8
100
AcDbLine
 10
874.0859999999999
 20
2240.12
 30
0.0
 11
1132.66
 21
2240.12
 31
0.0
  0
LINE
  5
8EB
330
19
100
AcDbEntity
  8
1
  6
Continuous
 62
     8
100
AcDbLine
 10
873.3969999999999
 20
2236.21
 30
0.0
 11
1116.38
 21
2147.769999999999
 31
0.0
  0
LINE
  5
8EC
330
19
100
AcDbEntity
  8
1
  6
Continuous
 62
     8
100
AcDbLine
 10
851.2439999999999
 20
2240.12
 30
0.0
 11
592.6649999999999
 21
2240.12
 31
0.0
  0
LINE
  5
8ED
330
19
100
AcDbEntity
  8
1
  6
Continuous
 62
     8
100
AcDbLine
 10
851.933
 20
2244.02
 30
0.0
 11
608.948
 21
2332.46
 31
0.0
  0
LINE
  5
8EE
330
19
100
AcDbEntity
  8
1
  6
Continuous
 62
     8
100
AcDbLine
 10
853.916
 20
2247.46
 30
0.0
 11
655.833
 21
2413.67
 31
0.0
  0
LINE
  5
8EF
330
19
100
AcDbEntity
  8
1
  6
Continuous
 62
     8
100
AcDbLine
 10
856.9550000000001
 20
2250.01
 30
0.0
 11
727.665
 21
2473.94
 31
0.0
  0
LINE
  5
8F0
330
19
100
AcDbEntity
  8
1
  6
Continuous
 62
     8
100
AcDbLine
 10
860.682
 20
2251.36
 30
0.0
 11
815.7799999999999
 21
2506.01
 31
0.0
  0
LINE
  5
8F1
330
19
100
AcDbEntity
  8
1
  6
Continuous
 62
     8
100
AcDbLine
 10
864.648
 20
2251.36
 30
0.0
 11
909.5499999999999
 21
2506.01
 31
0.0
  0
LINE
  5
8F2
330
19
100
AcDbEntity
  8
1
  6
Continuous
 62
     8
100
AcDbLine
 10
1458.06
 20
2318.17
 30
0.0
 11
1849.859999999999
 21
2299.469999999999
 31
0.0
  0
LINE
  5
8F3
330
19
100
AcDbEntity
  8
1
  6
Continuous
 62
     8
100
AcDbLine
 10
1820.24
 20
2300.89
 30
0.0
 11
1685.83
 21
2413.67
 31
0.0
  0
LINE
  5
8F4
330
19
100
AcDbEntity
  8
1
  6
Continuous
 62
     8
100
AcDbLine
 10
1854.25
 20
2173.58
 30
0.0
 11
1757.66
 21
2006.289999999999
 31
0.0
  0
LINE
  5
8F5
330
19
100
AcDbEntity
  8
1
  6
Continuous
 62
     8
100
AcDbLine
 10
1799.77
 20
2162.17
 30
0.0
 11
1685.83
 21
2066.56
 31
0.0
  0
LINE
  5
8F6
330
19
100
AcDbEntity
  8
1
  6
Continuous
 62
     8
100
AcDbLine
 10
1820.94
 20
2364.33
 30
0.0
 11
1757.66
 21
2473.94
 31
0.0
  0
ARC
  5
8F7
330
19
100
AcDbEntity
  8
1
  6
Continuous
 62
     8
100
AcDbCircle
 10
1452.66
 20
2205.119999999999
 30
0.0
 40
113.182
100
AcDbArc
 50
254.7289999999999
 51
281.8279999999999
  0
ARC
  5
8F8
330
19
100
AcDbEntity
  8
1
  6
Continuous
 62
     8
100
AcDbCircle
 10
1452.66
 20
2205.119999999999
 30
0.0
 40
113.182
100
AcDbArc
 50
87.26779999999999
 51
245.27
  0
LINE
  5
8F9
330
19
100
AcDbEntity
  8
1
  6
Continuous
 62
     8
100
AcDbLine
 10
878.5349999999999
 20
2245.89
 30
0.0
 11
1116.38
 21
2332.46
 31
0.0
  0
LINE
  5
8FA
330
19
100
AcDbEntity
  8
1
  6
Continuous
 62
     8
100
AcDbLine
 10
918.424
 20
2286.9
 30
0.0
 11
1069.49
 21
2413.67
 31
0.0
  0
LINE
  5
8FB
330
19
100
AcDbEntity
  8
1
  6
Continuous
 62
     8
100
AcDbLine
 10
875.7339999999999
 20
2262.75
 30
0.0
 11
984.57
 21
2451.26
 31
0.0
  0
LWPOLYLINE
  5
8FC
330
19
100
AcDbEntity
  8
1
  6
Continuous
 62
     8
100
AcDbPolyline
 90
        6
 70
     0
 43
0.0
 10
991.8049999999999
 20
2585.32
 10
1064.619999999999
 20
2830.07
 10
940.633
 20
2885.32
 10
814.179
 20
2885.32
 10
815.633
 20
2585.32
 10
991.8049999999999
 20
2585.32
  0
ARC
  5
904
330
19
100
AcDbEntity
  8
1
  6
Continuous
 62
     8
100
AcDbCircle
 10
764.363
 20
2593.5
 30
0.0
 40
32.75679999999999
100
AcDbArc
 50
257.6929999999999
 51
103.471
  0
LINE
  5
905
330
19
100
AcDbEntity
  8
1
  6
Continuous
 62
     8
100
AcDbLine
 10
756.731
 20
2625.35
 30
0.0
 11
756.731
 21
2561.49
 31
0.0
  0
ARC
  5
906
330
19
100
AcDbEntity
  8
1
  6
Continuous
 62
     8
100
AcDbCircle
 10
862.6649999999999
 20
2240.12
 30
0.0
 40
327.97
100
AcDbArc
 50
63.0942
 51
107.875
  0
ARC
  5
907
330
19
100
AcDbEntity
  8
1
  6
Continuous
 62
     8
100
AcDbCircle
 10
862.6649999999999
 20
2240.12
 30
0.0
 40
327.97
100
AcDbArc
 50
343.776
 51
58.077
  0
ARC
  5
908
330
19
100
AcDbEntity
  8
1
  6
Continuous
 62
     8
100
AcDbCircle
 10
1892.66
 20
2240.12
 30
0.0
 40
304.8
100
AcDbArc
 50
125.4939999999999
 51
166.4419999999999
  0
ARC
  5
909
330
19
100
AcDbEntity
  8
1
  6
Continuous
 62
     8
100
AcDbCircle
 10
1892.66
 20
2240.12
 30
0.0
 40
270.0
100
AcDbArc
 50
125.506
 51
165.0259999999999
  0
LWPOLYLINE
  5
90A
330
19
100
AcDbEntity
  8
1
  6
Continuous
 62
     8
100
AcDbPolyline
 90
        3
 70
     0
 43
0.0
 10
2081.72
 20
2607.699999999999
 10
1762.55
 20
2607.699999999999
 10
1687.54
 20
2552.05
  0
LINE
  5
90F
330
19
100
AcDbEntity
  8
1
  6
Continuous
 62
     8
100
AcDbLine
 10
2081.72
 20
2597.7
 30
0.0
 11
1765.859999999999
 21
2597.7
 31
0.0
  0
LINE
  5
910
330
19
100
AcDbEntity
  8
1
  6
Continuous
 62
     8
100
AcDbLine
 10
1765.859999999999
 20
2597.7
 30
0.0
 11
1693.5
 21
2544.02
 31
0.0
  0
LINE
  5
911
330
19
100
AcDbEntity
  8
1
  6
Continuous
 62
     8
100
AcDbLine
 10
2081.72
 20
2597.7
 30
0.0
 11
2081.72
 21
2607.699999999999
 31
0.0
  0
LWPOLYLINE
  5
912
330
19
100
AcDbEntity
  8
1
  6
Continuous
 62
     8
100
AcDbPolyline
 90
        3
 70
     0
 43
0.0
 10
2162.84
 20
2426.05
 10
2165.389999999999
 20
2484.679999999999
 10
2134.17
 20
2462.01
  0
LWPOLYLINE
  5
917
330
19
100
AcDbEntity
  8
1
  6
Continuous
 62
     8
100
AcDbPolyline
 90
        4
 70
     0
 43
0.0
 10
1177.57
 20
2148.49
 10
1157.819999999999
 20
2074.079999999999
 10
1183.49
 20
2074.079999999999
 10
1177.57
 20
2148.49
  0
LINE
  5
91D
330
19
100
AcDbEntity
  8
1
  6
Continuous
 62
     8
100
AcDbLine
 10
1114.509999999999
 20
2861.74
 30
0.0
 11
1131.07
 21
2855.719999999999
 31
0.0
  0
LINE
  5
91E
330
19
100
AcDbEntity
  8
1
  6
Continuous
 62
     8
100
AcDbLine
 10
1089.93
 20
2742.69
 30
0.0
 11
1131.07
 21
2855.719999999999
 31
0.0
  0
LINE
  5
91F
330
19
100
AcDbEntity
  8
1
  6
Continuous
 62
     8
100
AcDbLine
 10
1112.489999999999
 20
2734.48
 30
0.0
 11
1163.2
 21
2873.82
 31
0.0
  0
POLYLINE
  5
920
330
19
100
AcDbEntity
  8
1
  6
Continuous
 62
     8
100
AcDb2dPolyline
 66
     1
 10
0.0
 20
0.0
 30
0.0
 70
     2
  0
VERTEX
  5
921
330
920
100
AcDbEntity
  8
1
  6
Continuous
 62
     8
100
AcDbVertex
100
AcDb2dVertex
 10
1140.009999999999
 20
2974.12
 30
0.0
  0
VERTEX
  5
922
330
920
100
AcDbEntity
  8
1
  6
Continuous
 62
     8
100
AcDbVertex
100
AcDb2dVertex
 10
1140.17
 20
2975.52
 30
0.0
  0
VERTEX
  5
923
330
920
100
AcDbEntity
  8
1
  6
Continuous
 62
     8
100
AcDbVertex
100
AcDb2dVertex
 10
1140.65
 20
2976.9
 30
0.0
  0
VERTEX
  5
924
330
920
100
AcDbEntity
  8
1
  6
Continuous
 62
     8
100
AcDbVertex
100
AcDb2dVertex
 10
1141.43
 20
2978.229999999999
 30
0.0
  0
VERTEX
  5
925
330
920
100
AcDbEntity
  8
1
  6
Continuous
 62
     8
100
AcDbVertex
100
AcDb2dVertex
 10
1142.519999999999
 20
2979.5
 30
0.0
  0
VERTEX
  5
926
330
920
100
AcDbEntity
  8
1
  6
Continuous
 62
     8
100
AcDbVertex
100
AcDb2dVertex
 10
1143.88
 20
2980.69
 30
0.0
  0
VERTEX
  5
927
330
920
100
AcDbEntity
  8
1
  6
Continuous
 62
     8
100
AcDbVertex
100
AcDb2dVertex
 10
1145.499999999999
 20
2981.77
 30
0.0
  0
VERTEX
  5
928
330
920
100
AcDbEntity
  8
1
  6
Continuous
 62
     8
100
AcDbVertex
100
AcDb2dVertex
 10
1147.35
 20
2982.73
 30
0.0
  0
VERTEX
  5
929
330
920
100
AcDbEntity
  8
1
  6
Continuous
 62
     8
100
AcDbVertex
100
AcDb2dVertex
 10
1149.41
 20
2983.56
 30
0.0
  0
VERTEX
  5
92A
330
920
100
AcDbEntity
  8
1
  6
Continuous
 62
     8
100
AcDbVertex
100
AcDb2dVertex
 10
1151.64
 20
2984.239999999999
 30
0.0
  0
VERTEX
  5
92B
330
920
100
AcDbEntity
  8
1
  6
Continuous
 62
     8
100
AcDbVertex
100
AcDb2dVertex
 10
1154.01
 20
2984.76
 30
0.0
  0
VERTEX
  5
92C
330
920
100
AcDbEntity
  8
1
  6
Continuous
 62
     8
100
AcDbVertex
100
AcDb2dVertex
 10
1156.47
 20
2985.11
 30
0.0
  0
VERTEX
  5
92D
330
920
100
AcDbEntity
  8
1
  6
Continuous
 62
     8
100
AcDbVertex
100
AcDb2dVertex
 10
1159.0
 20
2985.3
 30
0.0
  0
VERTEX
  5
92E
330
920
100
AcDbEntity
  8
1
  6
Continuous
 62
     8
100
AcDbVertex
100
AcDb2dVertex
 10
1161.549999999999
 20
2985.3
 30
0.0
  0
VERTEX
  5
92F
330
920
100
AcDbEntity
  8
1
  6
Continuous
 62
     8
100
AcDbVertex
100
AcDb2dVertex
 10
1164.08
 20
2985.13
 30
0.0
  0
VERTEX
  5
930
330
920
100
AcDbEntity
  8
1
  6
Continuous
 62
     8
100
AcDbVertex
100
AcDb2dVertex
 10
1166.549999999999
 20
2984.79
 30
0.0
  0
VERTEX
  5
931
330
920
100
AcDbEntity
  8
1
  6
Continuous
 62
     8
100
AcDbVertex
100
AcDb2dVertex
 10
1168.93
 20
2984.28
 30
0.0
  0
VERTEX
  5
932
330
920
100
AcDbEntity
  8
1
  6
Continuous
 62
     8
100
AcDbVertex
100
AcDb2dVertex
 10
1171.17
 20
2983.61
 30
0.0
  0
VERTEX
  5
933
330
920
100
AcDbEntity
  8
1
  6
Continuous
 62
     8
100
AcDbVertex
100
AcDb2dVertex
 10
1173.24
 20
2982.8
 30
0.0
  0
VERTEX
  5
934
330
920
100
AcDbEntity
  8
1
  6
Continuous
 62
     8
100
AcDbVertex
100
AcDb2dVertex
 10
1175.109999999999
 20
2981.84
 30
0.0
  0
VERTEX
  5
935
330
920
100
AcDbEntity
  8
1
  6
Continuous
 62
     8
100
AcDbVertex
100
AcDb2dVertex
 10
1176.749999999999
 20
2980.77
 30
0.0
  0
VERTEX
  5
936
330
920
100
AcDbEntity
  8
1
  6
Continuous
 62
     8
100
AcDbVertex
100
AcDb2dVertex
 10
1178.13
 20
2979.59
 30
0.0
  0
VERTEX
  5
937
330
920
100
AcDbEntity
  8
1
  6
Continuous
 62
     8
100
AcDbVertex
100
AcDb2dVertex
 10
1179.24
 20
2978.32
 30
0.0
  0
VERTEX
  5
938
330
920
100
AcDbEntity
  8
1
  6
Continuous
 62
     8
100
AcDbVertex
100
AcDb2dVertex
 10
1180.039999999999
 20
2976.99
 30
0.0
  0
VERTEX
  5
939
330
920
100
AcDbEntity
  8
1
  6
Continuous
 62
     8
100
AcDbVertex
100
AcDb2dVertex
 10
1180.54
 20
2975.61
 30
0.0
  0
VERTEX
  5
93A
330
920
100
AcDbEntity
  8
1
  6
Continuous
 62
     8
100
AcDbVertex
100
AcDb2dVertex
 10
1180.73
 20
2974.219999999999
 30
0.0
  0
VERTEX
  5
93B
330
920
100
AcDbEntity
  8
1
  6
Continuous
 62
     8
100
AcDbVertex
100
AcDb2dVertex
 10
1180.59
 20
2972.81
 30
0.0
  0
VERTEX
  5
93C
330
920
100
AcDbEntity
  8
1
  6
Continuous
 62
     8
100
AcDbVertex
100
AcDb2dVertex
 10
1180.13
 20
2971.429999999999
 30
0.0
  0
VERTEX
  5
93D
330
920
100
AcDbEntity
  8
1
  6
Continuous
 62
     8
100
AcDbVertex
100
AcDb2dVertex
 10
1179.37
 20
2970.09
 30
0.0
  0
VERTEX
  5
93E
330
920
100
AcDbEntity
  8
1
  6
Continuous
 62
     8
100
AcDbVertex
100
AcDb2dVertex
 10
1178.309999999999
 20
2968.82
 30
0.0
  0
VERTEX
  5
93F
330
920
100
AcDbEntity
  8
1
  6
Continuous
 62
     8
100
AcDbVertex
100
AcDb2dVertex
 10
1176.96
 20
2967.63
 30
0.0
  0
VERTEX
  5
940
330
920
100
AcDbEntity
  8
1
  6
Continuous
 62
     8
100
AcDbVertex
100
AcDb2dVertex
 10
1175.359999999999
 20
2966.53
 30
0.0
  0
VERTEX
  5
941
330
920
100
AcDbEntity
  8
1
  6
Continuous
 62
     8
100
AcDbVertex
100
AcDb2dVertex
 10
1173.52
 20
2965.559999999999
 30
0.0
  0
VERTEX
  5
942
330
920
100
AcDbEntity
  8
1
  6
Continuous
 62
     8
100
AcDbVertex
100
AcDb2dVertex
 10
1171.47
 20
2964.73
 30
0.0
  0
VERTEX
  5
943
330
920
100
AcDbEntity
  8
1
  6
Continuous
 62
     8
100
AcDbVertex
100
AcDb2dVertex
 10
1169.25
 20
2964.03
 30
0.0
  0
VERTEX
  5
944
330
920
100
AcDbEntity
  8
1
  6
Continuous
 62
     8
100
AcDbVertex
100
AcDb2dVertex
 10
1166.89
 20
2963.5
 30
0.0
  0
VERTEX
  5
945
330
920
100
AcDbEntity
  8
1
  6
Continuous
 62
     8
100
AcDbVertex
100
AcDb2dVertex
 10
1164.42
 20
2963.14
 30
0.0
  0
VERTEX
  5
946
330
920
100
AcDbEntity
  8
1
  6
Continuous
 62
     8
100
AcDbVertex
100
AcDb2dVertex
 10
1161.9
 20
2962.94
 30
0.0
  0
VERTEX
  5
947
330
920
100
AcDbEntity
  8
1
  6
Continuous
 62
     8
100
AcDbVertex
100
AcDb2dVertex
 10
1159.349999999999
 20
2962.92
 30
0.0
  0
VERTEX
  5
948
330
920
100
AcDbEntity
  8
1
  6
Continuous
 62
     8
100
AcDbVertex
100
AcDb2dVertex
 10
1156.809999999999
 20
2963.08
 30
0.0
  0
VERTEX
  5
949
330
920
100
AcDbEntity
  8
1
  6
Continuous
 62
     8
100
AcDbVertex
100
AcDb2dVertex
 10
1154.33
 20
2963.41
 30
0.0
  0
VERTEX
  5
94A
330
920
100
AcDbEntity
  8
1
  6
Continuous
 62
     8
100
AcDbVertex
100
AcDb2dVertex
 10
1151.95
 20
2963.91
 30
0.0
  0
VERTEX
  5
94B
330
920
100
AcDbEntity
  8
1
  6
Continuous
 62
     8
100
AcDbVertex
100
AcDb2dVertex
 10
1149.69
 20
2964.57
 30
0.0
  0
VERTEX
  5
94C
330
920
100
AcDbEntity
  8
1
  6
Continuous
 62
     8
100
AcDbVertex
100
AcDb2dVertex
 10
1147.61
 20
2965.38
 30
0.0
  0
VERTEX
  5
94D
330
920
100
AcDbEntity
  8
1
  6
Continuous
 62
     8
100
AcDbVertex
100
AcDb2dVertex
 10
1145.72
 20
2966.32
 30
0.0
  0
VERTEX
  5
94E
330
920
100
AcDbEntity
  8
1
  6
Continuous
 62
     8
100
AcDbVertex
100
AcDb2dVertex
 10
1144.06
 20
2967.389999999999
 30
0.0
  0
VERTEX
  5
94F
330
920
100
AcDbEntity
  8
1
  6
Continuous
 62
     8
100
AcDbVertex
100
AcDb2dVertex
 10
1142.66
 20
2968.57
 30
0.0
  0
VERTEX
  5
950
330
920
100
AcDbEntity
  8
1
  6
Continuous
 62
     8
100
AcDbVertex
100
AcDb2dVertex
 10
1141.539999999999
 20
2969.829999999999
 30
0.0
  0
VERTEX
  5
951
330
920
100
AcDbEntity
  8
1
  6
Continuous
 62
     8
100
AcDbVertex
100
AcDb2dVertex
 10
1140.71
 20
2971.15
 30
0.0
  0
VERTEX
  5
952
330
920
100
AcDbEntity
  8
1
  6
Continuous
 62
     8
100
AcDbVertex
100
AcDb2dVertex
 10
1140.19
 20
2972.53
 30
0.0
  0
VERTEX
  5
953
330
920
100
AcDbEntity
  8
1
  6
Continuous
 62
     8
100
AcDbVertex
100
AcDb2dVertex
 10
1140.009999999999
 20
2974.12
 30
0.0
  0
SEQEND
  5
954
330
920
100
AcDbEntity
  8
1
 62
     8
  0
LINE
  5
955
330
19
100
AcDbEntity
  8
1
  6
Continuous
 62
     8
100
AcDbLine
 10
1268.08
 20
2923.38
 30
0.0
 11
1271.6
 21
2947.119999999999
 31
0.0
  0
ARC
  5
956
330
19
100
AcDbEntity
  8
1
  6
Continuous
 62
     8
100
AcDbCircle
 10
1152.74
 20
2780.65
 30
0.0
 40
133.8449999999999
100
AcDbArc
 50
41.48950000000001
 51
76.85760000000001
  0
ARC
  5
957
330
19
100
AcDbEntity
  8
1
  6
Continuous
 62
     8
100
AcDbCircle
 10
1152.74
 20
2780.65
 30
0.0
 40
138.8039999999999
100
AcDbArc
 50
41.7037
 51
77.1233
  0
LWPOLYLINE
  5
958
330
19
100
AcDbEntity
  8
1
  6
Continuous
 62
     8
100
AcDbPolyline
 90
        4
 70
     0
 43
0.0
 10
1190.09
 20
2959.2
 10
1182.52
 20
2908.199999999999
 10
1160.15
 20
2911.52
 10
1167.71
 20
2962.519999999999
  0
CIRCLE
  5
95E
330
19
100
AcDbEntity
  8
1
  6
Continuous
 62
     8
100
AcDbCircle
 10
1257.45
 20
2868.619999999999
 30
0.0
 40
4.50255
  0
LINE
  5
95F
330
19
100
AcDbEntity
  8
1
  6
Continuous
 62
     8
100
AcDbLine
 10
1163.2
 20
2873.82
 30
0.0
 11
1133.299999999999
 21
2884.7
 31
0.0
  0
CIRCLE
  5
960
330
19
100
AcDbEntity
  8
1
  6
Continuous
 62
     8
100
AcDbCircle
 10
1119.299999999999
 20
2874.9
 30
0.0
 40
12.0
  0
ARC
  5
961
330
19
100
AcDbEntity
  8
1
  6
Continuous
 62
     8
100
AcDbCircle
 10
1119.299999999999
 20
2874.9
 30
0.0
 40
14.0
100
AcDbArc
 50
148.997
 51
31.0027
  0
LINE
  5
962
330
19
100
AcDbEntity
  8
1
  6
Continuous
 62
     8
100
AcDbLine
 10
1271.6
 20
2947.119999999999
 30
0.0
 11
1162.34
 21
2963.32
 31
0.0
  0
ARC
  5
963
330
19
100
AcDbEntity
  8
1
  6
Continuous
 62
     8
100
AcDbCircle
 10
1155.299999999999
 20
2915.84
 30
0.0
 40
48.0
100
AcDbArc
 50
81.5647
 51
180.0
  0
LINE
  5
964
330
19
100
AcDbEntity
  8
1
  6
Continuous
 62
     8
100
AcDbLine
 10
1107.3
 20
2874.9
 30
0.0
 11
1107.3
 21
2915.84
 31
0.0
  0
LINE
  5
965
330
19
100
AcDbEntity
  8
1
  6
Continuous
 62
     8
100
AcDbLine
 10
1268.08
 20
2923.38
 30
0.0
 11
1158.819999999999
 21
2939.58
 31
0.0
  0
ARC
  5
966
330
19
100
AcDbEntity
  8
1
  6
Continuous
 62
     8
100
AcDbCircle
 10
1155.299999999999
 20
2915.84
 30
0.0
 40
24.0
100
AcDbArc
 50
81.5647
 51
180.0
  0
LINE
  5
967
330
19
100
AcDbEntity
  8
1
  6
Continuous
 62
     8
100
AcDbLine
 10
1131.3
 20
2874.9
 30
0.0
 11
1131.3
 21
2915.84
 31
0.0
  0
LINE
  5
968
330
19
100
AcDbEntity
  8
1
  6
Continuous
 62
     8
100
AcDbLine
 10
1597.77
 20
2641.82
 30
0.0
 11
1614.95
 21
2689.01
 31
0.0
  0
LINE
  5
969
330
19
100
AcDbEntity
  8
1
  6
Continuous
 62
     8
100
AcDbLine
 10
1622.21
 20
2632.929999999999
 30
0.0
 11
1641.27
 21
2685.32
 31
0.0
  0
ARC
  5
96A
330
19
100
AcDbEntity
  8
1
  6
Continuous
 62
     8
100
AcDbCircle
 10
1517.05
 20
2735.32
 30
0.0
 40
20.0
100
AcDbArc
 50
90.0
 51
160.0
  0
LWPOLYLINE
  5
96B
330
19
100
AcDbEntity
  8
1
  6
Continuous
 62
     8
100
AcDbPolyline
 90
        6
 70
     0
 43
0.0
 10
1498.25
 20
2742.16
 10
1492.119999999999
 20
2725.32
 10
1627.439999999999
 20
2685.32
 10
1677.439999999999
 20
2685.32
 10
1760.38
 20
2729.58
 10
1760.38
 20
2735.32
  0
LINE
  5
973
330
19
100
AcDbEntity
  8
1
  6
Continuous
 62
     8
100
AcDbLine
 10
1740.38
 20
2755.32
 30
0.0
 11
1517.05
 21
2755.32
 31
0.0
  0
ARC
  5
974
330
19
100
AcDbEntity
  8
1
  6
Continuous
 62
     8
100
AcDbCircle
 10
1740.38
 20
2735.32
 30
0.0
 40
20.0
100
AcDbArc
 50
0.0
 51
90.0
  0
LWPOLYLINE
  5
975
330
19
100
AcDbEntity
  8
1
  6
Continuous
 62
     8
100
AcDbPolyline
 90
       10
 70
     0
 43
0.0
 10
1728.96
 20
2711.219999999999
 10
1756.25
 20
2697.05
 10
1714.789999999999
 20
2699.41
 10
1752.31
 20
2685.77
 10
1712.43
 20
2688.13
 10
1745.49
 20
2672.39
 10
1706.13
 20
2676.32
 10
1738.14
 20
2659.53
 10
1707.44
 20
2656.38
 10
1656.279999999999
 20
2680.0
  0
CIRCLE
  5
981
330
19
100
AcDbEntity
  8
1
  6
Continuous
 62
     8
100
AcDbCircle
 10
1892.66
 20
2240.12
 30
0.0
 40
15.0
  0
CIRCLE
  5
982
330
19
100
AcDbEntity
  8
1
  6
Continuous
 62
     8
100
AcDbCircle
 10
1881.63
 20
2266.86
 30
0.0
 40
7.0
  0
LINE
  5
983
330
19
100
AcDbEntity
  8
1
  6
Continuous
 62
     8
100
AcDbLine
 10
1887.33
 20
2270.91
 30
0.0
 11
1637.5
 21
2622.46
 31
0.0
  0
LINE
  5
984
330
19
100
AcDbEntity
  8
1
  6
Continuous
 62
     8
100
AcDbLine
 10
1626.09
 20
2614.349999999999
 30
0.0
 11
1875.919999999999
 21
2262.8
 31
0.0
  0
LINE
  5
985
330
19
100
AcDbEntity
  8
1
  6
Continuous
 62
     8
100
AcDbLine
 10
1904.4
 20
2249.449999999999
 30
0.0
 11
1887.109999999999
 21
2271.209999999999
 31
0.0
  0
LINE
  5
986
330
19
100
AcDbEntity
  8
1
  6
Continuous
 62
     8
100
AcDbLine
 10
1868.5
 20
2248.23
 30
0.0
 11
1874.94
 21
2268.94
 31
0.0
  0
LINE
  5
987
330
19
100
AcDbEntity
  8
1
  6
Continuous
 62
     8
100
AcDbLine
 10
1867.64
 20
2298.62
 30
0.0
 11
1895.39
 21
2297.3
 31
0.0
  0
LINE
  5
988
330
19
100
AcDbEntity
  8
1
  6
Continuous
 62
     8
100
AcDbLine
 10
1946.46
 20
2259.7
 30
0.0
 11
2146.38
 21
2332.46
 31
0.0
  0
LINE
  5
989
330
19
100
AcDbEntity
  8
1
  6
Continuous
 62
     8
100
AcDbLine
 10
1936.52
 20
2276.909999999999
 30
0.0
 11
2099.489999999999
 21
2413.67
 31
0.0
  0
LINE
  5
98A
330
19
100
AcDbEntity
  8
1
  6
Continuous
 62
     8
100
AcDbLine
 10
1902.599999999999
 20
2296.499999999999
 30
0.0
 11
1939.549999999999
 21
2506.01
 31
0.0
  0
LINE
  5
98B
330
19
100
AcDbEntity
  8
1
  6
Continuous
 62
     8
100
AcDbLine
 10
1882.469999999999
 20
2297.92
 30
0.0
 11
1845.779999999999
 21
2506.01
 31
0.0
  0
LINE
  5
98C
330
19
100
AcDbEntity
  8
1
  6
Continuous
 62
     8
100
AcDbLine
 10
1921.28
 20
2190.539999999999
 30
0.0
 11
2027.66
 21
2006.289999999999
 31
0.0
  0
LINE
  5
98D
330
19
100
AcDbEntity
  8
1
  6
Continuous
 62
     8
100
AcDbLine
 10
1949.91
 20
2240.12
 30
0.0
 11
2162.66
 21
2240.12
 31
0.0
  0
LINE
  5
98E
330
19
100
AcDbEntity
  8
1
  6
Continuous
 62
     8
100
AcDbLine
 10
1881.47
 20
2249.26
 30
0.0
 11
1541.03
 21
2222.179999999999
 31
0.0
  0
LINE
  5
98F
330
19
100
AcDbEntity
  8
1
  6
Continuous
 62
     8
100
AcDbLine
 10
1883.06
 20
2229.32
 30
0.0
 11
1542.609999999999
 21
2202.239999999999
 31
0.0
  0
ARC
  5
990
330
19
100
AcDbEntity
  8
1
  6
Continuous
 62
     8
100
AcDbCircle
 10
1892.66
 20
2240.12
 30
0.0
 40
40.0
100
AcDbArc
 50
126.12
 51
170.0699999999999
  0
LINE
  5
991
330
19
100
AcDbEntity
  8
1
  6
Continuous
 62
     8
100
AcDbLine
 10
1921.28
 20
2289.69
 30
0.0
 11
2027.66
 21
2473.94
 31
0.0
  0
LINE
  5
992
330
19
100
AcDbEntity
  8
1
  6
Continuous
 62
     8
100
AcDbLine
 10
1904.4
 20
2184.079999999999
 30
0.0
 11
1475.859999999999
 21
2094.34
 31
0.0
  0
LINE
  5
993
330
19
100
AcDbEntity
  8
1
  6
Continuous
 62
     8
100
AcDbLine
 10
1929.319999999999
 20
2209.55
 30
0.0
 11
2246.86
 21
2181.769999999999
 31
0.0
  0
LINE
  5
994
330
19
100
AcDbEntity
  8
1
  6
Continuous
 62
     8
100
AcDbLine
 10
2245.989999999999
 20
2171.81
 30
0.0
 11
1928.45
 21
2199.59
 31
0.0
  0
CIRCLE
  5
995
330
19
100
AcDbEntity
  8
1
  6
Continuous
 62
     8
100
AcDbCircle
 10
1922.66
 20
2205.119999999999
 30
0.0
 40
8.0
  0
LWPOLYLINE
  5
996
330
19
100
AcDbEntity
  8
1
  6
Continuous
 62
     8
100
AcDbPolyline
 90
        3
 70
     0
 43
0.0
 10
1882.66
 20
2195.12
 10
1942.66
 20
2195.12
 10
1942.66
 20
2198.35
  0
LINE
  5
99B
330
19
100
AcDbEntity
  8
1
  6
Continuous
 62
     8
100
AcDbLine
 10
1942.66
 20
2208.39
 30
0.0
 11
1942.66
 21
2230.119999999999
 31
0.0
  0
LINE
  5
99C
330
19
100
AcDbEntity
  8
1
  6
Continuous
 62
     8
100
AcDbLine
 10
1901.279999999999
 20
2258.159999999999
 30
0.0
 11
1985.85
 21
2597.7
 31
0.0
  0
LINE
  5
99D
330
19
100
AcDbEntity
  8
1
  6
Continuous
 62
     8
100
AcDbLine
 10
1894.09
 20
2262.42
 30
0.0
 11
1977.599999999999
 21
2597.7
 31
0.0
  0
ARC
  5
99E
330
19
100
AcDbEntity
  8
1
  6
Continuous
 62
     8
100
AcDbCircle
 10
1882.66
 20
2205.119999999999
 30
0.0
 40
10.0
100
AcDbArc
 50
180.0
 51
270.0
  0
ARC
  5
99F
330
19
100
AcDbEntity
  8
1
  6
Continuous
 62
     8
100
AcDbCircle
 10
1892.66
 20
2240.12
 30
0.0
 40
40.0
100
AcDbArc
 50
199.0249999999999
 51
240.255
  0
LINE
  5
9A0
330
19
100
AcDbEntity
  8
1
  6
Continuous
 62
     8
100
AcDbLine
 10
1872.66
 20
2228.489999999999
 30
0.0
 11
1872.66
 21
2205.119999999999
 31
0.0
  0
ARC
  5
9A1
330
19
100
AcDbEntity
  8
1
  6
Continuous
 62
     8
100
AcDbCircle
 10
1892.66
 20
2240.12
 30
0.0
 40
57.24849999999999
100
AcDbArc
 50
280.0
 51
308.182
  0
LINE
  5
9A2
330
19
100
AcDbEntity
  8
1
  6
Continuous
 62
     8
100
AcDbLine
 10
1942.569999999999
 20
2198.239999999999
 30
0.0
 11
2099.489999999999
 21
2066.56
 31
0.0
  0
LINE
  5
9A3
330
19
100
AcDbEntity
  8
1
  6
Continuous
 62
     8
100
AcDbLine
 10
1946.46
 20
2220.54
 30
0.0
 11
1991.6
 21
2204.099999999999
 31
0.0
  0
LINE
  5
9A4
330
19
100
AcDbEntity
  8
1
  6
Continuous
 62
     8
100
AcDbLine
 10
1942.66
 20
2230.119999999999
 30
0.0
 11
1894.54
 21
2263.07
 31
0.0
  0
ARC
  5
9A5
330
19
100
AcDbEntity
  8
1
  6
Continuous
 62
     8
100
AcDbCircle
 10
1892.66
 20
2240.12
 30
0.0
 40
57.24849999999999
100
AcDbArc
 50
80.0205
 51
87.26779999999999
  0
ARC
  5
9A6
330
19
100
AcDbEntity
  8
1
  6
Continuous
 62
     8
100
AcDbCircle
 10
1892.66
 20
2240.12
 30
0.0
 40
57.24849999999999
100
AcDbArc
 50
330.8540000000001
 51
72.0074
  0
ARC
  5
9A7
330
19
100
AcDbEntity
  8
1
  6
Continuous
 62
     8
100
AcDbCircle
 10
1892.66
 20
2240.12
 30
0.0
 40
40.0
100
AcDbArc
 50
81.75310000000001
 51
105.6789999999999
  0
ARC
  5
9A8
330
19
100
AcDbEntity
  8
1
  6
Continuous
 62
     8
100
AcDbCircle
 10
1892.66
 20
2240.12
 30
0.0
 40
40.0
100
AcDbArc
 50
355.596
 51
70.2748
  0
ARC
  5
9A9
330
19
100
AcDbEntity
  8
1
  6
Continuous
 62
     8
100
AcDbCircle
 10
1892.66
 20
2240.12
 30
0.0
 40
327.97
100
AcDbArc
 50
358.245
 51
75.3151
  0
ARC
  5
9AA
330
19
100
AcDbEntity
  8
1
  6
Continuous
 62
     8
100
AcDbCircle
 10
1892.66
 20
2240.12
 30
0.0
 40
304.8
100
AcDbArc
 50
76.7659
 51
122.8609999999999
  0
ARC
  5
9AB
330
19
100
AcDbEntity
  8
1
  6
Continuous
 62
     8
100
AcDbCircle
 10
1892.66
 20
2240.12
 30
0.0
 40
270.0
100
AcDbArc
 50
76.8628
 51
122.534
  0
ARC
  5
9AC
330
19
100
AcDbEntity
  8
1
  6
Continuous
 62
     8
100
AcDbCircle
 10
1892.66
 20
2240.12
 30
0.0
 40
304.8
100
AcDbArc
 50
349.8699999999999
 51
75.26200000000001
  0
ARC
  5
9AD
330
19
100
AcDbEntity
  8
1
  6
Continuous
 62
     8
100
AcDbCircle
 10
1892.66
 20
2240.12
 30
0.0
 40
270.0
100
AcDbArc
 50
349.207
 51
75.1651
  0
ARC
  5
9AE
330
19
100
AcDbEntity
  8
1
  6
Continuous
 62
     8
100
AcDbCircle
 10
1892.66
 20
2240.12
 30
0.0
 40
327.97
100
AcDbArc
 50
125.4869999999999
 51
167.215
  0
ARC
  5
9AF
330
19
100
AcDbEntity
  8
1
  6
Continuous
 62
     8
100
AcDbCircle
 10
1892.66
 20
2240.12
 30
0.0
 40
327.97
100
AcDbArc
 50
76.71269999999999
 51
123.04
  0
CIRCLE
  5
9B0
330
19
100
AcDbEntity
  8
1
  6
Continuous
 62
     8
100
AcDbCircle
 10
2246.42
 20
2176.79
 30
0.0
 40
5.0
  0
POINT
  5
9B1
330
19
100
AcDbEntity
  8
1
 62
     8
100
AcDbPoint
 10
1122.13
 20
2985.32
 30
0.0
  0
ARC
  5
9B2
330
19
100
AcDbEntity
  8
1
  6
Continuous
 62
     8
100
AcDbCircle
 10
1892.66
 20
2240.12
 30
0.0
 40
278.161
100
AcDbArc
 50
125.5029999999999
 51
165.3899999999999
  0
ARC
  5
9B3
330
19
100
AcDbEntity
  8
1
  6
Continuous
 62
     8
100
AcDbCircle
 10
1892.66
 20
2240.12
 30
0.0
 40
278.161
100
AcDbArc
 50
76.83790000000001
 51
122.6179999999999
  0
ARC
  5
9B4
330
19
100
AcDbEntity
  8
1
  6
Continuous
 62
     8
100
AcDbCircle
 10
1892.66
 20
2240.12
 30
0.0
 40
278.161
100
AcDbArc
 50
349.3769999999999
 51
75.19
  0
ARC
  5
9B5
330
19
100
AcDbEntity
  8
1
  6
Continuous
 62
     8
100
AcDbCircle
 10
1892.66
 20
2240.12
 30
0.0
 40
304.8
100
AcDbArc
 50
345.4069999999999
 51
347.979
  0
ARC
  5
9B6
330
19
100
AcDbEntity
  8
1
  6
Continuous
 62
     8
100
AcDbCircle
 10
1892.66
 20
2240.12
 30
0.0
 40
278.161
100
AcDbArc
 50
343.9719999999999
 51
347.303
  0
ARC
  5
9B7
330
19
100
AcDbEntity
  8
1
  6
Continuous
 62
     8
100
AcDbCircle
 10
1892.66
 20
2240.12
 30
0.0
 40
270.0
100
AcDbArc
 50
343.474
 51
347.069
  0
LINE
  5
9B8
330
19
100
AcDbEntity
  8
1
  6
Continuous
 62
     8
100
AcDbLine
 10
2027.909999999999
 20
2190.89
 30
0.0
 11
2119.42
 21
2157.58
 31
0.0
  0
LINE
  5
9B9
330
19
100
AcDbEntity
  8
1
  6
Continuous
 62
     8
100
AcDbLine
 10
2133.84
 20
2152.33
 30
0.0
 11
2146.38
 21
2147.769999999999
 31
0.0
  0
ARC
  5
9BA
330
19
100
AcDbEntity
  8
1
  6
Continuous
 62
     8
100
AcDbCircle
 10
1892.66
 20
2240.12
 30
0.0
 40
270.0
100
AcDbArc
 50
321.057
 51
341.2469999999999
  0
ARC
  5
9BB
330
19
100
AcDbEntity
  8
1
  6
Continuous
 62
     8
100
AcDbCircle
 10
1892.66
 20
2240.12
 30
0.0
 40
278.161
100
AcDbArc
 50
319.021
 51
341.8169999999999
  0
ARC
  5
9BC
330
19
100
AcDbEntity
  8
1
  6
Continuous
 62
     8
100
AcDbCircle
 10
1892.66
 20
2240.12
 30
0.0
 40
304.8
100
AcDbArc
 50
313.549
 51
343.454
  0
ARC
  5
9BD
330
19
100
AcDbEntity
  8
1
  6
Continuous
 62
     8
100
AcDbCircle
 10
1892.66
 20
2240.12
 30
0.0
 40
304.8
100
AcDbArc
 50
304.298
 51
311.0079999999999
  0
ARC
  5
9BE
330
19
100
AcDbEntity
  8
1
  6
Continuous
 62
     8
100
AcDbCircle
 10
1892.66
 20
2240.12
 30
0.0
 40
304.8
100
AcDbArc
 50
202.653
 51
235.7009999999999
  0
ARC
  5
9BF
330
19
100
AcDbEntity
  8
1
  6
Continuous
 62
     8
100
AcDbCircle
 10
1892.66
 20
2240.12
 30
0.0
 40
278.161
100
AcDbArc
 50
295.1449999999999
 51
315.972
  0
ARC
  5
9C0
330
19
100
AcDbEntity
  8
1
  6
Continuous
 62
     8
100
AcDbCircle
 10
1892.66
 20
2240.12
 30
0.0
 40
278.161
100
AcDbArc
 50
203.705
 51
244.854
  0
ARC
  5
9C1
330
19
100
AcDbEntity
  8
1
  6
Continuous
 62
     8
100
AcDbCircle
 10
1892.66
 20
2240.12
 30
0.0
 40
270.0
100
AcDbArc
 50
291.1569999999999
 51
317.794
  0
ARC
  5
9C2
330
19
100
AcDbEntity
  8
1
  6
Continuous
 62
     8
100
AcDbCircle
 10
1892.66
 20
2240.12
 30
0.0
 40
270.0
100
AcDbArc
 50
204.069
 51
248.842
  0
LINE
  5
9C3
330
19
100
AcDbEntity
  8
1
  6
Continuous
 62
     8
100
AcDbLine
 10
1902.599999999999
 20
2183.77
 30
0.0
 11
1937.059999999999
 21
1988.319999999999
 31
0.0
  0
LINE
  5
9C4
330
19
100
AcDbEntity
  8
1
  6
Continuous
 62
     8
100
AcDbLine
 10
1881.95
 20
2179.38
 30
0.0
 11
1848.26
 21
1988.319999999999
 31
0.0
  0
ARC
  5
9C5
330
19
100
AcDbEntity
  8
1
  6
Continuous
 62
     8
100
AcDbCircle
 10
862.6649999999999
 20
2240.12
 30
0.0
 40
304.8
100
AcDbArc
 50
304.298
 51
316.474
  0
ARC
  5
9C6
330
19
100
AcDbEntity
  8
1
  6
Continuous
 62
     8
100
AcDbCircle
 10
862.6649999999999
 20
2240.12
 30
0.0
 40
278.161
100
AcDbArc
 50
322.17
 51
56.2667
  0
ARC
  5
9C7
330
19
100
AcDbEntity
  8
1
  6
Continuous
 62
     8
100
AcDbCircle
 10
862.6649999999999
 20
2240.12
 30
0.0
 40
278.161
100
AcDbArc
 50
295.1449999999999
 51
320.4509999999999
  0
ARC
  5
9C8
330
19
100
AcDbEntity
  8
1
  6
Continuous
 62
     8
100
AcDbCircle
 10
862.6649999999999
 20
2240.12
 30
0.0
 40
270.0
100
AcDbArc
 50
322.5049999999999
 51
55.90499999999999
  0
ARC
  5
9C9
330
19
100
AcDbEntity
  8
1
  6
Continuous
 62
     8
100
AcDbCircle
 10
862.6649999999999
 20
2240.12
 30
0.0
 40
270.0
100
AcDbArc
 50
291.1569999999999
 51
320.798
  0
LINE
  5
9CA
330
19
100
AcDbEntity
  8
1
  6
Continuous
 62
     8
100
AcDbLine
 10
871.414
 20
2232.78
 30
0.0
 11
1041.32
 21
2090.199999999999
 31
0.0
  0
LINE
  5
9CB
330
19
100
AcDbEntity
  8
1
  6
Continuous
 62
     8
100
AcDbLine
 10
1053.65
 20
2079.86
 30
0.0
 11
1069.49
 21
2066.56
 31
0.0
  0
LINE
  5
9CC
330
19
100
AcDbEntity
  8
1
  6
Continuous
 62
     8
100
AcDbLine
 10
868.3749999999999
 20
2230.23
 30
0.0
 11
939.2599999999999
 21
2107.449999999999
 31
0.0
  0
LINE
  5
9CD
330
19
100
AcDbEntity
  8
1
  6
Continuous
 62
     8
100
AcDbLine
 10
944.4510000000001
 20
2098.46
 30
0.0
 11
997.6649999999999
 21
2006.289999999999
 31
0.0
  0
LINE
  5
9CE
330
19
100
AcDbEntity
  8
1
  6
Continuous
 62
     8
100
AcDbLine
 10
864.648
 20
2228.87
 30
0.0
 11
884.4239999999999
 21
2116.71
 31
0.0
  0
LINE
  5
9CF
330
19
100
AcDbEntity
  8
1
  6
Continuous
 62
     8
100
AcDbLine
 10
860.682
 20
2228.87
 30
0.0
 11
842.1649999999999
 21
2123.86
 31
0.0
  0
LINE
  5
9D0
330
19
100
AcDbEntity
  8
1
  6
Continuous
 62
     8
100
AcDbLine
 10
885.898
 20
2108.35
 30
0.0
 11
907.0639999999999
 21
1988.319999999999
 31
0.0
  0
LINE
  5
9D1
330
19
100
AcDbEntity
  8
1
  6
Continuous
 62
     8
100
AcDbLine
 10
840.7760000000001
 20
2115.979999999999
 30
0.0
 11
818.266
 21
1988.319999999999
 31
0.0
  0
LINE
  5
9D2
330
19
100
AcDbEntity
  8
1
  6
Continuous
 62
     8
100
AcDbLine
 10
856.9550000000001
 20
2230.23
 30
0.0
 11
799.686
 21
2131.03
 31
0.0
  0
LINE
  5
9D3
330
19
100
AcDbEntity
  8
1
  6
Continuous
 62
     8
100
AcDbLine
 10
795.418
 20
2123.639999999999
 30
0.0
 11
727.665
 21
2006.289999999999
 31
0.0
  0
LINE
  5
9D4
330
19
100
AcDbEntity
  8
1
  6
Continuous
 62
     8
100
AcDbLine
 10
853.916
 20
2232.78
 30
0.0
 11
743.8989999999998
 21
2140.46
 31
0.0
  0
LINE
  5
9D5
330
19
100
AcDbEntity
  8
1
  6
Continuous
 62
     8
100
AcDbLine
 10
735.85
 20
2133.71
 30
0.0
 11
655.833
 21
2066.56
 31
0.0
  0
LINE
  5
9D6
330
19
100
AcDbEntity
  8
1
  6
Continuous
 62
     8
100
AcDbLine
 10
851.933
 20
2236.21
 30
0.0
 11
638.016
 21
2158.349999999999
 31
0.0
  0
LINE
  5
9D7
330
19
100
AcDbEntity
  8
1
  6
Continuous
 62
     8
100
AcDbLine
 10
618.937
 20
2151.409999999999
 30
0.0
 11
608.948
 21
2147.769999999999
 31
0.0
  0
ARC
  5
9D8
330
19
100
AcDbEntity
  8
1
  6
Continuous
 62
     8
100
AcDbCircle
 10
862.6649999999999
 20
2240.12
 30
0.0
 40
270.0
100
AcDbArc
 50
61.17329999999999
 51
196.3359999999999
  0
ARC
  5
9D9
330
19
100
AcDbEntity
  8
1
  6
Continuous
 62
     8
100
AcDbCircle
 10
862.6649999999999
 20
2240.12
 30
0.0
 40
278.161
100
AcDbArc
 50
61.4929
 51
195.521
  0
ARC
  5
9DA
330
19
100
AcDbEntity
  8
1
  6
Continuous
 62
     8
100
AcDbCircle
 10
862.6649999999999
 20
2240.12
 30
0.0
 40
304.8
100
AcDbArc
 50
62.4153
 51
193.196
  0
ARC
  5
9DB
330
19
100
AcDbEntity
  8
1
  6
Continuous
 62
     8
100
AcDbCircle
 10
862.6649999999999
 20
2240.12
 30
0.0
 40
270.0
100
AcDbArc
 50
209.064
 51
248.842
  0
ARC
  5
9DC
330
19
100
AcDbEntity
  8
1
  6
Continuous
 62
     8
100
AcDbCircle
 10
862.6649999999999
 20
2240.12
 30
0.0
 40
270.0
100
AcDbArc
 50
198.2389999999999
 51
205.35
  0
ARC
  5
9DD
330
19
100
AcDbEntity
  8
1
  6
Continuous
 62
     8
100
AcDbCircle
 10
862.6649999999999
 20
2240.12
 30
0.0
 40
278.161
100
AcDbArc
 50
211.959
 51
244.854
  0
ARC
  5
9DE
330
19
100
AcDbEntity
  8
1
  6
Continuous
 62
     8
100
AcDbCircle
 10
862.6649999999999
 20
2240.12
 30
0.0
 40
278.161
100
AcDbArc
 50
197.3549999999999
 51
208.6949999999999
  0
ARC
  5
9DF
330
19
100
AcDbEntity
  8
1
  6
Continuous
 62
     8
100
AcDbCircle
 10
862.6649999999999
 20
2240.12
 30
0.0
 40
304.8
100
AcDbArc
 50
219.26
 51
235.7009999999999
  0
ARC
  5
9E0
330
19
100
AcDbEntity
  8
1
  6
Continuous
 62
     8
100
AcDbCircle
 10
862.6649999999999
 20
2240.12
 30
0.0
 40
304.8
100
AcDbArc
 50
194.8369999999999
 51
216.819
  0
LWPOLYLINE
  5
9E1
330
19
100
AcDbEntity
  8
1
  6
Continuous
 62
     8
100
AcDbPolyline
 90
        5
 70
     0
 43
0.0
 10
4750.539999999999
 20
2607.699999999999
 10
4750.539999999999
 20
2597.7
 10
4950.54
 20
2597.7
 10
4950.54
 20
2607.699999999999
 10
4750.539999999999
 20
2607.699999999999
  0
LINE
  5
9E8
330
19
100
AcDbEntity
  8
1
  6
Continuous
 62
     8
100
AcDbLine
 10
4950.54
 20
2597.7
 30
0.0
 11
4909.0
 21
2250.12
 31
0.0
  0
LINE
  5
9E9
330
19
100
AcDbEntity
  8
1
  6
Continuous
 62
     8
100
AcDbLine
 10
4750.539999999999
 20
2597.7
 30
0.0
 11
4792.069999999999
 21
2250.12
 31
0.0
  0
ARC
  5
9EA
330
19
100
AcDbEntity
  8
1
  6
Continuous
 62
     8
100
AcDbCircle
 10
4795.539999999999
 20
2745.12
 30
0.0
 40
25.0
100
AcDbArc
 50
90.0
 51
180.0
  0
LWPOLYLINE
  5
9EB
330
19
100
AcDbEntity
  8
1
  6
Continuous
 62
     8
100
AcDbPolyline
 90
        6
 70
     0
 43
0.0
 10
4770.539999999999
 20
2745.12
 10
4770.539999999999
 20
2726.55
 10
4835.54
 20
2700.12
 10
4865.54
 20
2700.12
 10
4930.54
 20
2726.55
 10
4930.54
 20
2745.12
  0
LINE
  5
9F3
330
19
100
AcDbEntity
  8
1
  6
Continuous
 62
     8
100
AcDbLine
 10
4905.54
 20
2770.12
 30
0.0
 11
4795.539999999999
 21
2770.12
 31
0.0
  0
ARC
  5
9F4
330
19
100
AcDbEntity
  8
1
  6
Continuous
 62
     8
100
AcDbCircle
 10
4905.54
 20
2745.12
 30
0.0
 40
25.0
100
AcDbArc
 50
0.0
 51
90.0
  0
LWPOLYLINE
  5
9F5
330
19
100
AcDbEntity
  8
1
  6
Continuous
 62
     8
100
AcDbPolyline
 90
        5
 70
     0
 43
0.0
 10
4891.189999999999
 20
2280.119999999999
 10
4879.89
 20
2280.119999999999
 10
4879.89
 20
2200.12
 10
4891.189999999999
 20
2200.12
 10
4891.189999999999
 20
2280.119999999999
  0
LWPOLYLINE
  5
9FC
330
19
100
AcDbEntity
  8
1
  6
Continuous
 62
     8
100
AcDbPolyline
 90
        5
 70
     0
 43
0.0
 10
4824.34
 20
2280.119999999999
 10
4807.87
 20
2280.119999999999
 10
4807.87
 20
2200.12
 10
4824.34
 20
2200.12
 10
4824.34
 20
2280.119999999999
  0
LWPOLYLINE
  5
A03
330
19
100
AcDbEntity
  8
1
  6
Continuous
 62
     8
100
AcDbPolyline
 90
        4
 70
     0
 43
0.0
 10
4891.189999999999
 20
2250.12
 10
4920.539999999999
 20
2250.12
 10
4920.539999999999
 20
2230.119999999999
 10
4891.189999999999
 20
2230.119999999999
  0
LWPOLYLINE
  5
A09
330
19
100
AcDbEntity
  8
1
  6
Continuous
 62
     8
100
AcDbPolyline
 90
        4
 70
     0
 43
0.0
 10
4807.87
 20
2250.12
 10
4780.54
 20
2250.12
 10
4780.54
 20
2230.119999999999
 10
4807.87
 20
2230.119999999999
  0
ARC
  5
A0F
330
19
100
AcDbEntity
  8
1
  6
Continuous
 62
     8
100
AcDbCircle
 10
4759.0
 20
2525.82
 30
0.0
 40
150.0
100
AcDbArc
 50
0.0
 51
28.41829999999999
  0
LINE
  5
A10
330
19
100
AcDbEntity
  8
1
  6
Continuous
 62
     8
100
AcDbLine
 10
4909.0
 20
2250.12
 30
0.0
 11
4909.0
 21
2525.82
 31
0.0
  0
ARC
  5
A11
330
19
100
AcDbEntity
  8
1
  6
Continuous
 62
     8
100
AcDbCircle
 10
4769.0
 20
2528.35
 30
0.0
 40
126.0
100
AcDbArc
 50
0.0
 51
28.41829999999999
  0
LINE
  5
A12
330
19
100
AcDbEntity
  8
1
  6
Continuous
 62
     8
100
AcDbLine
 10
4895.0
 20
2528.35
 30
0.0
 11
4895.0
 21
2250.12
 31
0.0
  0
ARC
  5
A13
330
19
100
AcDbEntity
  8
1
  6
Continuous
 62
     8
100
AcDbCircle
 10
4942.07
 20
2525.82
 30
0.0
 40
150.0
100
AcDbArc
 50
151.581
 51
180.0
  0
LINE
  5
A14
330
19
100
AcDbEntity
  8
1
  6
Continuous
 62
     8
100
AcDbLine
 10
4792.069999999999
 20
2250.12
 30
0.0
 11
4792.069999999999
 21
2525.82
 31
0.0
  0
ARC
  5
A15
330
19
100
AcDbEntity
  8
1
  6
Continuous
 62
     8
100
AcDbCircle
 10
4932.069999999999
 20
2528.35
 30
0.0
 40
126.0
100
AcDbArc
 50
151.581
 51
180.0
  0
LINE
  5
A16
330
19
100
AcDbEntity
  8
1
  6
Continuous
 62
     8
100
AcDbLine
 10
4806.07
 20
2528.35
 30
0.0
 11
4806.07
 21
2250.12
 31
0.0
  0
ARC
  5
A17
330
19
100
AcDbEntity
  8
1
  6
Continuous
 62
     8
100
AcDbCircle
 10
4850.54
 20
1950.319999999999
 30
0.0
 40
15.0
100
AcDbArc
 50
180.0
 51
270.0
  0
ARC
  5
A18
330
19
100
AcDbEntity
  8
1
  6
Continuous
 62
     8
100
AcDbCircle
 10
4850.54
 20
1950.319999999999
 30
0.0
 40
15.0
100
AcDbArc
 50
270.0
 51
0.0
  0
ARC
  5
A19
330
19
100
AcDbEntity
  8
1
  6
Continuous
 62
     8
100
AcDbCircle
 10
4850.54
 20
2266.01
 30
0.0
 40
25.89059999999999
100
AcDbArc
 50
180.0
 51
0.0
  0
ARC
  5
A1A
330
19
100
AcDbEntity
  8
1
  6
Continuous
 62
     8
100
AcDbCircle
 10
4850.54
 20
2542.199999999999
 30
0.0
 40
25.89059999999999
100
AcDbArc
 50
0.0
 51
180.0
  0
LINE
  5
A1B
330
19
100
AcDbEntity
  8
1
  6
Continuous
 62
     8
100
AcDbLine
 10
4876.43
 20
2542.199999999999
 30
0.0
 11
4876.43
 21
2266.01
 31
0.0
  0
LINE
  5
A1C
330
19
100
AcDbEntity
  8
1
  6
Continuous
 62
     8
100
AcDbLine
 10
4824.64
 20
2542.199999999999
 30
0.0
 11
4824.64
 21
2266.01
 31
0.0
  0
LWPOLYLINE
  5
A1D
330
19
100
AcDbEntity
  8
1
  6
Continuous
 62
     8
100
AcDbPolyline
 90
        5
 70
     0
 43
0.0
 10
4755.539999999999
 20
2435.47
 10
4650.54
 20
2435.47
 10
4650.54
 20
2415.47
 10
4755.539999999999
 20
2415.47
 10
4755.539999999999
 20
2435.47
  0
LINE
  5
A24
330
19
100
AcDbEntity
  8
1
  6
Continuous
 62
     8
100
AcDbLine
 10
4755.539999999999
 20
2432.47
 30
0.0
 11
4762.81
 21
2432.47
 31
0.0
  0
LINE
  5
A25
330
19
100
AcDbEntity
  8
1
  6
Continuous
 62
     8
100
AcDbLine
 10
4755.539999999999
 20
2418.47
 30
0.0
 11
4762.81
 21
2418.47
 31
0.0
  0
LWPOLYLINE
  5
A26
330
19
100
AcDbEntity
  8
1
  6
Continuous
 62
     8
100
AcDbPolyline
 90
        5
 70
     0
 43
0.0
 10
4945.54
 20
2044.77
 10
5050.54
 20
2044.77
 10
5050.54
 20
2064.77
 10
4945.54
 20
2064.77
 10
4945.54
 20
2044.77
  0
ARC
  5
A2D
330
19
100
AcDbEntity
  8
1
  6
Continuous
 62
     8
100
AcDbCircle
 10
5050.54
 20
2054.769999999999
 30
0.0
 40
10.0
100
AcDbArc
 50
270.0
 51
90.0
  0
LWPOLYLINE
  5
A2E
330
19
100
AcDbEntity
  8
1
  6
Continuous
 62
     8
100
AcDbPolyline
 90
        5
 70
     0
 43
0.0
 10
4926.67
 20
2044.77
 10
4938.26
 20
2044.77
 10
4938.26
 20
2255.66
 10
4926.67
 20
2255.66
 10
4926.67
 20
2044.77
  0
LINE
  5
A35
330
19
100
AcDbEntity
  8
1
  6
Continuous
 62
     8
100
AcDbLine
 10
4945.54
 20
2047.769999999999
 30
0.0
 11
4938.26
 21
2047.769999999999
 31
0.0
  0
LINE
  5
A36
330
19
100
AcDbEntity
  8
1
  6
Continuous
 62
     8
100
AcDbLine
 10
4945.54
 20
2061.77
 30
0.0
 11
4938.26
 21
2061.77
 31
0.0
  0
LWPOLYLINE
  5
A37
330
19
100
AcDbEntity
  8
1
  6
Continuous
 62
     8
100
AcDbPolyline
 90
        4
 70
     0
 43
0.0
 10
4838.54
 20
2770.12
 10
4838.54
 20
2898.56
 10
4862.54
 20
2898.56
 10
4862.54
 20
2770.38
  0
LINE
  5
A3D
330
19
100
AcDbEntity
  8
1
  6
Continuous
 62
     8
100
AcDbLine
 10
4970.79
 20
2862.9
 30
0.0
 11
4862.54
 21
2862.9
 31
0.0
  0
LINE
  5
A3E
330
19
100
AcDbEntity
  8
1
  6
Continuous
 62
     8
100
AcDbLine
 10
4862.54
 20
2886.9
 30
0.0
 11
4970.79
 21
2886.9
 31
0.0
  0
LINE
  5
A3F
330
19
100
AcDbEntity
  8
1
  6
Continuous
 62
     8
100
AcDbLine
 10
5010.419999999999
 20
2882.42
 30
0.0
 11
5054.529999999999
 21
2939.77
 31
0.0
  0
LINE
  5
A40
330
19
100
AcDbEntity
  8
1
  6
Continuous
 62
     8
100
AcDbLine
 10
4991.46
 20
2897.13
 30
0.0
 11
5038.720000000001
 21
2959.1
 31
0.0
  0
ARC
  5
A41
330
19
100
AcDbEntity
  8
1
  6
Continuous
 62
     8
100
AcDbCircle
 10
4970.79
 20
2912.9
 30
0.0
 40
50.0
100
AcDbArc
 50
270.0
 51
322.434
  0
ARC
  5
A42
330
19
100
AcDbEntity
  8
1
  6
Continuous
 62
     8
100
AcDbCircle
 10
4970.79
 20
2912.9
 30
0.0
 40
26.0
100
AcDbArc
 50
270.0
 51
322.665
  0
CIRCLE
  5
A43
330
19
100
AcDbEntity
  8
1
  6
Continuous
 62
     8
100
AcDbCircle
 10
4592.54
 20
2939.38
 30
0.0
 40
12.0
  0
LINE
  5
A44
330
19
100
AcDbEntity
  8
1
  6
Continuous
 62
     8
100
AcDbLine
 10
4638.49
 20
2970.9
 30
0.0
 11
4634.96
 21
2970.9
 31
0.0
  0
LINE
  5
A45
330
19
100
AcDbEntity
  8
1
  6
Continuous
 62
     8
100
AcDbLine
 10
4730.279999999999
 20
2862.9
 30
0.0
 11
4838.54
 21
2862.9
 31
0.0
  0
LINE
  5
A46
330
19
100
AcDbEntity
  8
1
  6
Continuous
 62
     8
100
AcDbLine
 10
4838.54
 20
2886.9
 30
0.0
 11
4730.279999999999
 21
2886.9
 31
0.0
  0
LINE
  5
A47
330
19
100
AcDbEntity
  8
1
  6
Continuous
 62
     8
100
AcDbLine
 10
4690.649999999999
 20
2882.42
 30
0.0
 11
4646.54
 21
2939.77
 31
0.0
  0
ARC
  5
A48
330
19
100
AcDbEntity
  8
1
  6
Continuous
 62
     8
100
AcDbCircle
 10
4730.279999999999
 20
2912.9
 30
0.0
 40
50.0
100
AcDbArc
 50
217.565
 51
270.0
  0
ARC
  5
A49
330
19
100
AcDbEntity
  8
1
  6
Continuous
 62
     8
100
AcDbCircle
 10
4730.279999999999
 20
2912.9
 30
0.0
 40
26.0
100
AcDbArc
 50
217.334
 51
270.0
  0
ARC
  5
A4A
330
19
100
AcDbEntity
  8
1
  6
Continuous
 62
     8
100
AcDbCircle
 10
4638.49
 20
2940.9
 30
0.0
 40
30.0
100
AcDbArc
 50
37.33449999999999
 51
90.0
  0
POLYLINE
  5
A4B
330
19
100
AcDbEntity
  8
1
  6
Continuous
 62
     8
100
AcDb2dPolyline
 66
     1
 10
0.0
 20
0.0
 30
0.0
 70
     2
  0
VERTEX
  5
A4C
330
A4B
100
AcDbEntity
  8
1
  6
Continuous
 62
     8
100
AcDbVertex
100
AcDb2dVertex
 10
5051.95
 20
2974.12
 30
0.0
  0
VERTEX
  5
A4D
330
A4B
100
AcDbEntity
  8
1
  6
Continuous
 62
     8
100
AcDbVertex
100
AcDb2dVertex
 10
5051.79
 20
2975.52
 30
0.0
  0
VERTEX
  5
A4E
330
A4B
100
AcDbEntity
  8
1
  6
Continuous
 62
     8
100
AcDbVertex
100
AcDb2dVertex
 10
5051.32
 20
2976.9
 30
0.0
  0
VERTEX
  5
A4F
330
A4B
100
AcDbEntity
  8
1
  6
Continuous
 62
     8
100
AcDbVertex
100
AcDb2dVertex
 10
5050.53
 20
2978.229999999999
 30
0.0
  0
VERTEX
  5
A50
330
A4B
100
AcDbEntity
  8
1
  6
Continuous
 62
     8
100
AcDbVertex
100
AcDb2dVertex
 10
5049.45
 20
2979.5
 30
0.0
  0
VERTEX
  5
A51
330
A4B
100
AcDbEntity
  8
1
  6
Continuous
 62
     8
100
AcDbVertex
100
AcDb2dVertex
 10
5048.090000000001
 20
2980.69
 30
0.0
  0
VERTEX
  5
A52
330
A4B
100
AcDbEntity
  8
1
  6
Continuous
 62
     8
100
AcDbVertex
100
AcDb2dVertex
 10
5046.47
 20
2981.77
 30
0.0
  0
VERTEX
  5
A53
330
A4B
100
AcDbEntity
  8
1
  6
Continuous
 62
     8
100
AcDbVertex
100
AcDb2dVertex
 10
5044.62
 20
2982.73
 30
0.0
  0
VERTEX
  5
A54
330
A4B
100
AcDbEntity
  8
1
  6
Continuous
 62
     8
100
AcDbVertex
100
AcDb2dVertex
 10
5042.56
 20
2983.56
 30
0.0
  0
VERTEX
  5
A55
330
A4B
100
AcDbEntity
  8
1
  6
Continuous
 62
     8
100
AcDbVertex
100
AcDb2dVertex
 10
5040.33
 20
2984.239999999999
 30
0.0
  0
VERTEX
  5
A56
330
A4B
100
AcDbEntity
  8
1
  6
Continuous
 62
     8
100
AcDbVertex
100
AcDb2dVertex
 10
5037.96
 20
2984.76
 30
0.0
  0
VERTEX
  5
A57
330
A4B
100
AcDbEntity
  8
1
  6
Continuous
 62
     8
100
AcDbVertex
100
AcDb2dVertex
 10
5035.49
 20
2985.11
 30
0.0
  0
VERTEX
  5
A58
330
A4B
100
AcDbEntity
  8
1
  6
Continuous
 62
     8
100
AcDbVertex
100
AcDb2dVertex
 10
5032.97
 20
2985.3
 30
0.0
  0
VERTEX
  5
A59
330
A4B
100
AcDbEntity
  8
1
  6
Continuous
 62
     8
100
AcDbVertex
100
AcDb2dVertex
 10
5030.42
 20
2985.3
 30
0.0
  0
VERTEX
  5
A5A
330
A4B
100
AcDbEntity
  8
1
  6
Continuous
 62
     8
100
AcDbVertex
100
AcDb2dVertex
 10
5027.890000000001
 20
2985.13
 30
0.0
  0
VERTEX
  5
A5B
330
A4B
100
AcDbEntity
  8
1
  6
Continuous
 62
     8
100
AcDbVertex
100
AcDb2dVertex
 10
5025.41
 20
2984.79
 30
0.0
  0
VERTEX
  5
A5C
330
A4B
100
AcDbEntity
  8
1
  6
Continuous
 62
     8
100
AcDbVertex
100
AcDb2dVertex
 10
5023.04
 20
2984.28
 30
0.0
  0
VERTEX
  5
A5D
330
A4B
100
AcDbEntity
  8
1
  6
Continuous
 62
     8
100
AcDbVertex
100
AcDb2dVertex
 10
5020.800000000001
 20
2983.61
 30
0.0
  0
VERTEX
  5
A5E
330
A4B
100
AcDbEntity
  8
1
  6
Continuous
 62
     8
100
AcDbVertex
100
AcDb2dVertex
 10
5018.72
 20
2982.8
 30
0.0
  0
VERTEX
  5
A5F
330
A4B
100
AcDbEntity
  8
1
  6
Continuous
 62
     8
100
AcDbVertex
100
AcDb2dVertex
 10
5016.85
 20
2981.84
 30
0.0
  0
VERTEX
  5
A60
330
A4B
100
AcDbEntity
  8
1
  6
Continuous
 62
     8
100
AcDbVertex
100
AcDb2dVertex
 10
5015.21
 20
2980.77
 30
0.0
  0
VERTEX
  5
A61
330
A4B
100
AcDbEntity
  8
1
  6
Continuous
 62
     8
100
AcDbVertex
100
AcDb2dVertex
 10
5013.83
 20
2979.59
 30
0.0
  0
VERTEX
  5
A62
330
A4B
100
AcDbEntity
  8
1
  6
Continuous
 62
     8
100
AcDbVertex
100
AcDb2dVertex
 10
5012.73
 20
2978.32
 30
0.0
  0
VERTEX
  5
A63
330
A4B
100
AcDbEntity
  8
1
  6
Continuous
 62
     8
100
AcDbVertex
100
AcDb2dVertex
 10
5011.919999999999
 20
2976.99
 30
0.0
  0
VERTEX
  5
A64
330
A4B
100
AcDbEntity
  8
1
  6
Continuous
 62
     8
100
AcDbVertex
100
AcDb2dVertex
 10
5011.420000000001
 20
2975.61
 30
0.0
  0
VERTEX
  5
A65
330
A4B
100
AcDbEntity
  8
1
  6
Continuous
 62
     8
100
AcDbVertex
100
AcDb2dVertex
 10
5011.24
 20
2974.219999999999
 30
0.0
  0
VERTEX
  5
A66
330
A4B
100
AcDbEntity
  8
1
  6
Continuous
 62
     8
100
AcDbVertex
100
AcDb2dVertex
 10
5011.38
 20
2972.81
 30
0.0
  0
VERTEX
  5
A67
330
A4B
100
AcDbEntity
  8
1
  6
Continuous
 62
     8
100
AcDbVertex
100
AcDb2dVertex
 10
5011.829999999999
 20
2971.429999999999
 30
0.0
  0
VERTEX
  5
A68
330
A4B
100
AcDbEntity
  8
1
  6
Continuous
 62
     8
100
AcDbVertex
100
AcDb2dVertex
 10
5012.6
 20
2970.09
 30
0.0
  0
VERTEX
  5
A69
330
A4B
100
AcDbEntity
  8
1
  6
Continuous
 62
     8
100
AcDbVertex
100
AcDb2dVertex
 10
5013.66
 20
2968.82
 30
0.0
  0
VERTEX
  5
A6A
330
A4B
100
AcDbEntity
  8
1
  6
Continuous
 62
     8
100
AcDbVertex
100
AcDb2dVertex
 10
5015.01
 20
2967.63
 30
0.0
  0
VERTEX
  5
A6B
330
A4B
100
AcDbEntity
  8
1
  6
Continuous
 62
     8
100
AcDbVertex
100
AcDb2dVertex
 10
5016.61
 20
2966.53
 30
0.0
  0
VERTEX
  5
A6C
330
A4B
100
AcDbEntity
  8
1
  6
Continuous
 62
     8
100
AcDbVertex
100
AcDb2dVertex
 10
5018.45
 20
2965.559999999999
 30
0.0
  0
VERTEX
  5
A6D
330
A4B
100
AcDbEntity
  8
1
  6
Continuous
 62
     8
100
AcDbVertex
100
AcDb2dVertex
 10
5020.5
 20
2964.73
 30
0.0
  0
VERTEX
  5
A6E
330
A4B
100
AcDbEntity
  8
1
  6
Continuous
 62
     8
100
AcDbVertex
100
AcDb2dVertex
 10
5022.72
 20
2964.03
 30
0.0
  0
VERTEX
  5
A6F
330
A4B
100
AcDbEntity
  8
1
  6
Continuous
 62
     8
100
AcDbVertex
100
AcDb2dVertex
 10
5025.079999999999
 20
2963.5
 30
0.0
  0
VERTEX
  5
A70
330
A4B
100
AcDbEntity
  8
1
  6
Continuous
 62
     8
100
AcDbVertex
100
AcDb2dVertex
 10
5027.54
 20
2963.14
 30
0.0
  0
VERTEX
  5
A71
330
A4B
100
AcDbEntity
  8
1
  6
Continuous
 62
     8
100
AcDbVertex
100
AcDb2dVertex
 10
5030.07
 20
2962.94
 30
0.0
  0
VERTEX
  5
A72
330
A4B
100
AcDbEntity
  8
1
  6
Continuous
 62
     8
100
AcDbVertex
100
AcDb2dVertex
 10
5032.62
 20
2962.92
 30
0.0
  0
VERTEX
  5
A73
330
A4B
100
AcDbEntity
  8
1
  6
Continuous
 62
     8
100
AcDbVertex
100
AcDb2dVertex
 10
5035.16
 20
2963.08
 30
0.0
  0
VERTEX
  5
A74
330
A4B
100
AcDbEntity
  8
1
  6
Continuous
 62
     8
100
AcDbVertex
100
AcDb2dVertex
 10
5037.64
 20
2963.41
 30
0.0
  0
VERTEX
  5
A75
330
A4B
100
AcDbEntity
  8
1
  6
Continuous
 62
     8
100
AcDbVertex
100
AcDb2dVertex
 10
5040.020000000001
 20
2963.91
 30
0.0
  0
VERTEX
  5
A76
330
A4B
100
AcDbEntity
  8
1
  6
Continuous
 62
     8
100
AcDbVertex
100
AcDb2dVertex
 10
5042.279999999999
 20
2964.57
 30
0.0
  0
VERTEX
  5
A77
330
A4B
100
AcDbEntity
  8
1
  6
Continuous
 62
     8
100
AcDbVertex
100
AcDb2dVertex
 10
5044.36
 20
2965.38
 30
0.0
  0
VERTEX
  5
A78
330
A4B
100
AcDbEntity
  8
1
  6
Continuous
 62
     8
100
AcDbVertex
100
AcDb2dVertex
 10
5046.25
 20
2966.32
 30
0.0
  0
VERTEX
  5
A79
330
A4B
100
AcDbEntity
  8
1
  6
Continuous
 62
     8
100
AcDbVertex
100
AcDb2dVertex
 10
5047.9
 20
2967.389999999999
 30
0.0
  0
VERTEX
  5
A7A
330
A4B
100
AcDbEntity
  8
1
  6
Continuous
 62
     8
100
AcDbVertex
100
AcDb2dVertex
 10
5049.310000000001
 20
2968.57
 30
0.0
  0
VERTEX
  5
A7B
330
A4B
100
AcDbEntity
  8
1
  6
Continuous
 62
     8
100
AcDbVertex
100
AcDb2dVertex
 10
5050.43
 20
2969.829999999999
 30
0.0
  0
VERTEX
  5
A7C
330
A4B
100
AcDbEntity
  8
1
  6
Continuous
 62
     8
100
AcDbVertex
100
AcDb2dVertex
 10
5051.26
 20
2971.15
 30
0.0
  0
VERTEX
  5
A7D
330
A4B
100
AcDbEntity
  8
1
  6
Continuous
 62
     8
100
AcDbVertex
100
AcDb2dVertex
 10
5051.78
 20
2972.53
 30
0.0
  0
VERTEX
  5
A7E
330
A4B
100
AcDbEntity
  8
1
  6
Continuous
 62
     8
100
AcDbVertex
100
AcDb2dVertex
 10
5051.95
 20
2974.12
 30
0.0
  0
SEQEND
  5
A7F
330
A4B
100
AcDbEntity
  8
1
 62
     8
  0
POINT
  5
A80
330
19
100
AcDbEntity
  8
1
 62
     8
100
AcDbPoint
 10
5069.37
 20
2985.32
 30
0.0
  0
POINT
  5
A81
330
19
100
AcDbEntity
  8
1
 62
     8
100
AcDbPoint
 10
4850.54
 20
1935.32
 30
0.0
  0
LINE
  5
A82
330
19
100
AcDbEntity
  8
1
  6
DASHDOT
 62
     8
100
AcDbLine
 10
4850.54
 20
3083.82
 30
0.0
 11
4850.54
 21
1886.809999999999
 31
0.0
  0
ARC
  5
A83
330
19
100
AcDbEntity
  8
1
  6
Continuous
 62
     8
100
AcDbCircle
 10
4650.54
 20
2425.47
 30
0.0
 40
10.0
100
AcDbArc
 50
90.0
 51
270.0
  0
LINE
  5
A84
330
19
100
AcDbEntity
  8
1
  6
Continuous
 62
     8
100
AcDbLine
 10
4709.61
 20
2897.13
 30
0.0
 11
4662.35
 21
2959.1
 31
0.0
  0
LINE
  5
A85
330
19
100
AcDbEntity
  8
1
  6
Continuous
 62
     8
100
AcDbLine
 10
4865.54
 20
2163.32
 30
0.0
 11
4865.54
 21
2244.9
 31
0.0
  0
LINE
  5
A86
330
19
100
AcDbEntity
  8
1
  6
Continuous
 62
     8
100
AcDbLine
 10
4835.54
 20
2244.9
 30
0.0
 11
4835.54
 21
2163.32
 31
0.0
  0
LINE
  5
A87
330
19
100
AcDbEntity
  8
1
  6
Continuous
 62
     8
100
AcDbLine
 10
4865.54
 20
1981.17
 30
0.0
 11
4865.54
 21
2153.32
 31
0.0
  0
LINE
  5
A88
330
19
100
AcDbEntity
  8
1
  6
Continuous
 62
     8
100
AcDbLine
 10
4835.54
 20
2153.32
 30
0.0
 11
4835.54
 21
1981.17
 31
0.0
  0
LINE
  5
A89
330
19
100
AcDbEntity
  8
1
  6
Continuous
 62
     8
100
AcDbLine
 10
4835.54
 20
1959.469999999999
 30
0.0
 11
4835.54
 21
1950.319999999999
 31
0.0
  0
LINE
  5
A8A
330
19
100
AcDbEntity
  8
1
  6
Continuous
 62
     8
100
AcDbLine
 10
4865.54
 20
1950.319999999999
 30
0.0
 11
4865.54
 21
1959.469999999999
 31
0.0
  0
ARC
  5
A8B
330
19
100
AcDbEntity
  8
1
  6
Continuous
 62
     8
100
AcDbCircle
 10
4614.92
 20
2950.86
 30
0.0
 40
14.6816
100
AcDbArc
 50
261.9599999999999
 51
152.3199999999999
  0
LINE
  5
A8C
330
19
100
AcDbEntity
  8
1
  6
Continuous
 62
     8
100
AcDbLine
 10
4621.62
 20
2937.79
 30
0.0
 11
4629.26
 21
2941.71
 31
0.0
  0
LINE
  5
A8D
330
19
100
AcDbEntity
  8
1
  6
Continuous
 62
     8
100
AcDbLine
 10
4615.86
 20
2967.84
 30
0.0
 11
4608.229999999999
 21
2963.92
 31
0.0
  0
ARC
  5
A8E
330
19
100
AcDbEntity
  8
1
  6
Continuous
 62
     8
100
AcDbCircle
 10
4622.56
 20
2954.769999999999
 30
0.0
 40
14.6816
100
AcDbArc
 50
297.14
 51
117.1399999999999
  0
LINE
  5
A8F
330
19
100
AcDbEntity
  8
1
  6
Continuous
 62
     8
100
AcDbLine
 10
4609.449999999999
 20
2961.54
 30
0.0
 11
4587.06
 21
2950.06
 31
0.0
  0
LINE
  5
A90
330
19
100
AcDbEntity
  8
1
  6
Continuous
 62
     8
100
AcDbLine
 10
4598.01
 20
2928.7
 30
0.0
 11
4620.4
 21
2940.179999999999
 31
0.0
  0
ARC
  5
A91
330
19
100
AcDbEntity
  8
1
  6
Continuous
 62
     8
100
AcDbCircle
 10
4634.649999999999
 20
2930.63
 30
0.0
 40
15.0
100
AcDbArc
 50
37.56539999999999
 51
92.3313
  0
ARC
  5
A92
330
19
100
AcDbEntity
  8
1
  6
Continuous
 62
     8
100
AcDbCircle
 10
4634.96
 20
2940.9
 30
0.0
 40
30.0
100
AcDbArc
 50
90.0
 51
109.1949999999999
  0
LWPOLYLINE
  5
A93
330
19
100
AcDbEntity
  8
1
  6
Continuous
 62
     8
100
AcDbPolyline
 90
        4
 70
     0
 43
0.0
 10
4619.92
 20
2937.06
 10
4619.92
 20
2922.729999999999
 10
4631.53
 20
2928.679999999999
 10
4631.53
 20
2943.15
  0
ARC
  5
A99
330
19
100
AcDbEntity
  8
1
  6
Continuous
 62
     8
100
AcDbCircle
 10
4614.92
 20
2950.86
 30
0.0
 40
12.0
100
AcDbArc
 50
297.14
 51
117.1399999999999
  0
CIRCLE
  5
A9A
330
19
100
AcDbEntity
  8
1
  6
Continuous
 62
     8
100
AcDbCircle
 10
4575.66
 20
2868.619999999999
 30
0.0
 40
4.50255
  0
ARC
  5
A9B
330
19
100
AcDbEntity
  8
1
  6
Continuous
 62
     8
100
AcDbCircle
 10
4753.31
 20
2801.22
 30
0.0
 40
192.902
100
AcDbArc
 50
135.676
 51
158.191
  0
ARC
  5
A9C
330
19
100
AcDbEntity
  8
1
  6
Continuous
 62
     8
100
AcDbCircle
 10
4719.75
 20
2818.52
 30
0.0
 40
149.885
100
AcDbArc
 50
131.7609999999999
 51
159.4519999999999
  0
LINE
  5
A9D
330
19
100
AcDbEntity
  8
1
  6
Continuous
 62
     8
100
AcDbLine
 10
4609.92
 20
2934.81
 30
0.0
 11
4609.92
 21
2930.26
 31
0.0
  0
LINE
  5
A9E
330
19
100
AcDbEntity
  8
1
  6
Continuous
 62
     8
100
AcDbLine
 10
4612.02
 20
2922.729999999999
 30
0.0
 11
4619.92
 21
2922.729999999999
 31
0.0
  0
CIRCLE
  5
A9F
330
19
100
AcDbEntity
  8
1
  6
Continuous
 62
     8
100
AcDbCircle
 10
5108.54
 20
2939.38
 30
0.0
 40
12.0
  0
LINE
  5
AA0
330
19
100
AcDbEntity
  8
1
  6
Continuous
 62
     8
100
AcDbLine
 10
5062.58
 20
2970.9
 30
0.0
 11
5066.11
 21
2970.9
 31
0.0
  0
ARC
  5
AA1
330
19
100
AcDbEntity
  8
1
  6
Continuous
 62
     8
100
AcDbCircle
 10
5086.149999999999
 20
2950.86
 30
0.0
 40
14.6816
100
AcDbArc
 50
27.6798
 51
278.039
  0
LINE
  5
AA2
330
19
100
AcDbEntity
  8
1
  6
Continuous
 62
     8
100
AcDbLine
 10
5079.45
 20
2937.79
 30
0.0
 11
5071.810000000001
 21
2941.71
 31
0.0
  0
LINE
  5
AA3
330
19
100
AcDbEntity
  8
1
  6
Continuous
 62
     8
100
AcDbLine
 10
5085.21
 20
2967.84
 30
0.0
 11
5092.84
 21
2963.92
 31
0.0
  0
ARC
  5
AA4
330
19
100
AcDbEntity
  8
1
  6
Continuous
 62
     8
100
AcDbCircle
 10
5078.51
 20
2954.769999999999
 30
0.0
 40
14.6816
100
AcDbArc
 50
62.85990000000001
 51
242.859
  0
LINE
  5
AA5
330
19
100
AcDbEntity
  8
1
  6
Continuous
 62
     8
100
AcDbLine
 10
5091.62
 20
2961.54
 30
0.0
 11
5114.01
 21
2950.06
 31
0.0
  0
LINE
  5
AA6
330
19
100
AcDbEntity
  8
1
  6
Continuous
 62
     8
100
AcDbLine
 10
5103.060000000001
 20
2928.7
 30
0.0
 11
5080.67
 21
2940.179999999999
 31
0.0
  0
ARC
  5
AA7
330
19
100
AcDbEntity
  8
1
  6
Continuous
 62
     8
100
AcDbCircle
 10
5066.42
 20
2930.63
 30
0.0
 40
15.0
100
AcDbArc
 50
87.66859999999999
 51
142.4339999999999
  0
ARC
  5
AA8
330
19
100
AcDbEntity
  8
1
  6
Continuous
 62
     8
100
AcDbCircle
 10
5066.11
 20
2940.9
 30
0.0
 40
30.0
100
AcDbArc
 50
70.8042
 51
90.0
  0
LWPOLYLINE
  5
AA9
330
19
100
AcDbEntity
  8
1
  6
Continuous
 62
     8
100
AcDbPolyline
 90
        4
 70
     0
 43
0.0
 10
5081.15
 20
2937.06
 10
5081.15
 20
2922.729999999999
 10
5069.539999999999
 20
2928.679999999999
 10
5069.539999999999
 20
2943.15
  0
ARC
  5
AAF
330
19
100
AcDbEntity
  8
1
  6
Continuous
 62
     8
100
AcDbCircle
 10
5086.149999999999
 20
2950.86
 30
0.0
 40
12.0
100
AcDbArc
 50
62.85990000000001
 51
242.859
  0
CIRCLE
  5
AB0
330
19
100
AcDbEntity
  8
1
  6
Continuous
 62
     8
100
AcDbCircle
 10
5125.41
 20
2868.619999999999
 30
0.0
 40
4.50255
  0
ARC
  5
AB1
330
19
100
AcDbEntity
  8
1
  6
Continuous
 62
     8
100
AcDbCircle
 10
4947.76
 20
2801.22
 30
0.0
 40
192.902
100
AcDbArc
 50
21.808
 51
44.3236
  0
ARC
  5
AB2
330
19
100
AcDbEntity
  8
1
  6
Continuous
 62
     8
100
AcDbCircle
 10
4981.32
 20
2818.52
 30
0.0
 40
149.885
100
AcDbArc
 50
20.54769999999999
 51
48.2381
  0
LINE
  5
AB3
330
19
100
AcDbEntity
  8
1
  6
Continuous
 62
     8
100
AcDbLine
 10
5091.149999999999
 20
2934.81
 30
0.0
 11
5091.149999999999
 21
2930.26
 31
0.0
  0
LINE
  5
AB4
330
19
100
AcDbEntity
  8
1
  6
Continuous
 62
     8
100
AcDbLine
 10
5089.05
 20
2922.729999999999
 30
0.0
 11
5081.15
 21
2922.729999999999
 31
0.0
  0
ARC
  5
AB5
330
19
100
AcDbEntity
  8
1
  6
Continuous
 62
     8
100
AcDbCircle
 10
5062.58
 20
2940.9
 30
0.0
 40
30.0
100
AcDbArc
 50
90.0
 51
142.6649999999999
  0
LINE
  5
AB6
330
19
100
AcDbEntity
  8
1
  6
Continuous
 62
     8
100
AcDbLine
 10
4837.54
 20
2618.41
 30
0.0
 11
4831.739999999999
 21
2607.699999999999
 31
0.0
  0
LINE
  5
AB7
330
19
100
AcDbEntity
  8
1
  6
Continuous
 62
     8
100
AcDbLine
 10
4826.33
 20
2597.7
 30
0.0
 11
4821.25
 21
2588.309999999999
 31
0.0
  0
LINE
  5
AB8
330
19
100
AcDbEntity
  8
1
  6
Continuous
 62
     8
100
AcDbLine
 10
4815.82
 20
2607.699999999999
 30
0.0
 11
4837.76
 21
2648.25
 31
0.0
  0
LINE
  5
AB9
330
19
100
AcDbEntity
  8
1
  6
Continuous
 62
     8
100
AcDbLine
 10
4837.54
 20
2700.12
 30
0.0
 11
4837.54
 21
2607.699999999999
 31
0.0
  0
LINE
  5
ABA
330
19
100
AcDbEntity
  8
1
  6
Continuous
 62
     8
100
AcDbLine
 10
4837.54
 20
2597.7
 30
0.0
 11
4837.54
 21
2564.98
 31
0.0
  0
LINE
  5
ABB
330
19
100
AcDbEntity
  8
1
  6
Continuous
 62
     8
100
AcDbLine
 10
4863.54
 20
2564.98
 30
0.0
 11
4863.54
 21
2597.7
 31
0.0
  0
LINE
  5
ABC
330
19
100
AcDbEntity
  8
1
  6
Continuous
 62
     8
100
AcDbLine
 10
4863.54
 20
2607.699999999999
 30
0.0
 11
4863.54
 21
2700.12
 31
0.0
  0
LINE
  5
ABD
330
19
100
AcDbEntity
  8
1
  6
Continuous
 62
     8
100
AcDbLine
 10
4863.54
 20
2618.41
 30
0.0
 11
4869.33
 21
2607.699999999999
 31
0.0
  0
LINE
  5
ABE
330
19
100
AcDbEntity
  8
1
  6
Continuous
 62
     8
100
AcDbLine
 10
4874.74
 20
2597.7
 30
0.0
 11
4879.82
 21
2588.309999999999
 31
0.0
  0
LINE
  5
ABF
330
19
100
AcDbEntity
  8
1
  6
Continuous
 62
     8
100
AcDbLine
 10
4885.25
 20
2607.699999999999
 30
0.0
 11
4863.310000000001
 21
2648.25
 31
0.0
  0
LINE
  5
AC0
330
19
100
AcDbEntity
  8
1
  6
Continuous
 62
     8
100
AcDbLine
 10
4940.46
 20
2597.7
 30
0.0
 11
4909.0
 21
2334.4
 31
0.0
  0
LINE
  5
AC1
330
19
100
AcDbEntity
  8
1
  6
Continuous
 62
     8
100
AcDbLine
 10
4760.609999999999
 20
2597.7
 30
0.0
 11
4792.069999999999
 21
2334.4
 31
0.0
  0
LWPOLYLINE
  5
AC2
330
19
100
AcDbEntity
  8
1
  6
Continuous
 62
     8
100
AcDbPolyline
 90
        5
 70
     0
 43
0.0
 10
4769.92
 20
2435.47
 10
4762.81
 20
2435.47
 10
4762.81
 20
2224.58
 10
4774.399999999999
 20
2224.58
 10
4774.399999999999
 20
2397.96
  0
LWPOLYLINE
  5
AC9
330
19
100
AcDbEntity
  8
1
  6
Continuous
 62
     8
100
AcDbPolyline
 90
        5
 70
     0
 43
0.0
 10
4824.64
 20
2484.679999999999
 10
4876.43
 20
2484.679999999999
 10
4860.54
 20
2426.05
 10
4840.54
 20
2426.05
 10
4824.64
 20
2484.679999999999
  0
CIRCLE
  5
AD0
330
19
100
AcDbEntity
  8
1
  6
Continuous
 62
     8
100
AcDbCircle
 10
1386.89
 20
995.5799999999999
 30
0.0
 40
12.5
  0
CIRCLE
  5
AD1
330
19
100
AcDbEntity
  8
1
  6
Continuous
 62
     8
100
AcDbCircle
 10
1314.259999999999
 20
853.0189999999999
 30
0.0
 40
8.0
  0
LWPOLYLINE
  5
AD2
330
19
100
AcDbEntity
  8
1
  6
Continuous
 62
     8
100
AcDbPolyline
 90
        5
 70
     0
 43
0.0
 10
1350.21
 20
858.679
 10
1347.78
 20
838.8279999999999
 10
1278.299999999999
 20
847.3589999999999
 10
1280.73
 20
867.21
 10
1350.21
 20
858.679
  0
LINE
  5
AD9
330
19
100
AcDbEntity
  8
1
  6
Continuous
 62
     8
100
AcDbLine
 10
1375.6
 20
1000.94
 30
0.0
 11
1310.41
 21
863.5670000000001
 31
0.0
  0
LINE
  5
ADA
330
19
100
AcDbEntity
  8
1
  6
Continuous
 62
     8
100
AcDbLine
 10
1327.95
 20
861.4130000000001
 30
0.0
 11
1397.87
 21
989.5939999999999
 31
0.0
  0
ARC
  5
ADB
330
19
100
AcDbEntity
  8
1
  6
Continuous
 62
     8
100
AcDbCircle
 10
1386.89
 20
995.5799999999999
 30
0.0
 40
90.0
100
AcDbArc
 50
249.3709999999999
 51
236.6279999999999
  0
LINE
  5
ADC
330
19
100
AcDbEntity
  8
1
  6
Continuous
 62
     8
100
AcDbLine
 10
1611.769999999999
 20
1397.27
 30
0.0
 11
1579.69
 21
1413.61
 31
0.0
  0
LINE
  5
ADD
330
19
100
AcDbEntity
  8
1
  6
Continuous
 62
     8
100
AcDbLine
 10
1422.12
 20
1104.37
 30
0.0
 11
1579.69
 21
1413.61
 31
0.0
  0
LINE
  5
ADE
330
19
100
AcDbEntity
  8
1
  6
Continuous
 62
     8
100
AcDbLine
 10
1459.28
 20
1098.0
 30
0.0
 11
1611.769999999999
 21
1397.27
 31
0.0
  0
CIRCLE
  5
ADF
330
19
100
AcDbEntity
  8
1
  6
Continuous
 62
     8
100
AcDbCircle
 10
1615.06
 20
1383.96
 30
0.0
 40
7.0
  0
LWPOLYLINE
  5
AE0
330
19
100
AcDbEntity
  8
1
  6
Continuous
 62
     8
100
AcDbPolyline
 90
        5
 70
     0
 43
0.0
 10
1119.119999999999
 20
1559.73
 10
1087.04
 20
1576.08
 10
1008.79
 20
1422.509999999999
 10
1040.869999999999
 20
1406.17
 10
1119.119999999999
 20
1559.73
  0
CIRCLE
  5
AE7
330
19
100
AcDbEntity
  8
1
  6
Continuous
 62
     8
100
AcDbCircle
 10
805.5620000000001
 20
1102.219999999999
 30
0.0
 40
7.0
  0
LINE
  5
AE8
330
19
100
AcDbEntity
  8
1
  6
Continuous
 62
     8
100
AcDbLine
 10
940.2139999999999
 20
1271.099999999999
 30
0.0
 11
1010.34
 21
1421.11
 31
0.0
  0
ARC
  5
AE9
330
19
100
AcDbEntity
  8
1
  6
Continuous
 62
     8
100
AcDbCircle
 10
577.853
 20
1440.5
 30
0.0
 40
400.0
100
AcDbArc
 50
307.486
 51
334.944
  0
LINE
  5
AEA
330
19
100
AcDbEntity
  8
1
  6
Continuous
 62
     8
100
AcDbLine
 10
801.302
 20
1107.77
 30
0.0
 11
821.2849999999999
 21
1123.099999999999
 31
0.0
  0
LINE
  5
AEB
330
19
100
AcDbEntity
  8
1
  6
Continuous
 62
     8
100
AcDbLine
 10
1038.829999999999
 20
1406.59
 30
0.0
 11
951.664
 21
1248.97
 31
0.0
  0
ARC
  5
AEC
330
19
100
AcDbEntity
  8
1
  6
Continuous
 62
     8
100
AcDbCircle
 10
589.379
 20
1449.34
 30
0.0
 40
414.0
100
AcDbArc
 50
307.486
 51
331.055
  0
LINE
  5
AED
330
19
100
AcDbEntity
  8
1
  6
Continuous
 62
     8
100
AcDbLine
 10
841.331
 20
1120.829999999999
 30
0.0
 11
809.8219999999999
 21
1096.66
 31
0.0
  0
LINE
  5
AEE
330
19
100
AcDbEntity
  8
1
  6
Continuous
 62
     8
100
AcDbLine
 10
1049.12
 20
1422.349999999999
 30
0.0
 11
1303.279999999999
 21
1071.859999999999
 31
0.0
  0
LINE
  5
AEF
330
19
100
AcDbEntity
  8
1
  6
Continuous
 62
     8
100
AcDbLine
 10
1326.26
 20
1091.14
 30
0.0
 11
1063.91
 21
1451.39
 31
0.0
  0
LINE
  5
AF0
330
19
100
AcDbEntity
  8
1
  6
Continuous
 62
     8
100
AcDbLine
 10
1461.9
 20
1182.42
 30
0.0
 11
1107.43
 21
1536.8
 31
0.0
  0
LINE
  5
AF1
330
19
100
AcDbEntity
  8
1
  6
Continuous
 62
     8
100
AcDbLine
 10
1093.329999999999
 20
1509.12
 30
0.0
 11
1447.79
 21
1154.749999999999
 31
0.0
  0
LINE
  5
AF2
330
19
100
AcDbEntity
  8
1
  6
Continuous
 62
     8
100
AcDbLine
 10
816.8969999999999
 20
1100.829999999999
 30
0.0
 11
1073.54
 21
1069.309999999999
 31
0.0
  0
LINE
  5
AF3
330
19
100
AcDbEntity
  8
1
  6
Continuous
 62
     8
100
AcDbLine
 10
815.737
 20
1097.029999999999
 30
0.0
 11
1046.13
 21
979.645
 31
0.0
  0
LINE
  5
AF4
330
19
100
AcDbEntity
  8
1
  6
Continuous
 62
     8
100
AcDbLine
 10
794.226
 20
1103.609999999999
 30
0.0
 11
537.574
 21
1135.119999999999
 31
0.0
  0
LINE
  5
AF5
330
19
100
AcDbEntity
  8
1
  6
Continuous
 62
     8
100
AcDbLine
 10
795.386
 20
1107.4
 30
0.0
 11
564.99
 21
1224.8
 31
0.0
  0
LINE
  5
AF6
330
19
100
AcDbEntity
  8
1
  6
Continuous
 62
     8
100
AcDbLine
 10
797.773
 20
1110.569999999999
 30
0.0
 11
621.422
 21
1299.68
 31
0.0
  0
LINE
  5
AF7
330
19
100
AcDbEntity
  8
1
  6
Continuous
 62
     8
100
AcDbLine
 10
801.0989999999999
 20
1112.729999999999
 30
0.0
 11
700.0639999999999
 21
1350.75
 31
0.0
  0
LINE
  5
AF8
330
19
100
AcDbEntity
  8
1
  6
Continuous
 62
     8
100
AcDbLine
 10
804.964
 20
1113.619999999999
 30
0.0
 11
791.431
 21
1371.85
 31
0.0
  0
LINE
  5
AF9
330
19
100
AcDbEntity
  8
1
  6
Continuous
 62
     8
100
AcDbLine
 10
808.901
 20
1113.14
 30
0.0
 11
884.5019999999999
 21
1360.42
 31
0.0
  0
LINE
  5
AFA
330
19
100
AcDbEntity
  8
1
  6
Continuous
 62
     8
100
AcDbLine
 10
1406.03
 20
1107.13
 30
0.0
 11
1792.63
 21
1040.819999999999
 31
0.0
  0
LINE
  5
AFB
330
19
100
AcDbEntity
  8
1
  6
Continuous
 62
     8
100
AcDbLine
 10
1763.4
 20
1045.839999999999
 30
0.0
 11
1643.74
 21
1174.16
 31
0.0
  0
LINE
  5
AFC
330
19
100
AcDbEntity
  8
1
  6
Continuous
 62
     8
100
AcDbLine
 10
1781.64
 20
915.3389999999999
 30
0.0
 11
1665.39
 21
761.065
 31
0.0
  0
LINE
  5
AFD
330
19
100
AcDbEntity
  8
1
  6
Continuous
 62
     8
100
AcDbLine
 10
1726.18
 20
910.654
 30
0.0
 11
1601.44
 21
829.6439999999998
 31
0.0
  0
LINE
  5
AFE
330
19
100
AcDbEntity
  8
1
  6
Continuous
 62
     8
100
AcDbLine
 10
1771.84
 20
1108.72
 30
0.0
 11
1722.38
 21
1225.23
 31
0.0
  0
ARC
  5
AFF
330
19
100
AcDbEntity
  8
1
  6
Continuous
 62
     8
100
AcDbCircle
 10
1386.89
 20
995.5799999999999
 30
0.0
 40
113.182
100
AcDbArc
 50
247.7289999999999
 51
274.8279999999999
  0
ARC
  5
B00
330
19
100
AcDbEntity
  8
1
  6
Continuous
 62
     8
100
AcDbCircle
 10
1386.89
 20
995.5799999999999
 30
0.0
 40
113.182
100
AcDbArc
 50
80.2678
 51
238.27
  0
LINE
  5
B01
330
19
100
AcDbEntity
  8
1
  6
Continuous
 62
     8
100
AcDbLine
 10
822.0169999999999
 20
1106.02
 30
0.0
 11
1068.64
 21
1162.95
 31
0.0
  0
LINE
  5
B02
330
19
100
AcDbEntity
  8
1
  6
Continuous
 62
     8
100
AcDbLine
 10
866.6069999999999
 20
1141.86
 30
0.0
 11
1032.0
 21
1249.27
 31
0.0
  0
LINE
  5
B03
330
19
100
AcDbEntity
  8
1
  6
Continuous
 62
     8
100
AcDbLine
 10
821.2919999999998
 20
1123.09
 30
0.0
 11
952.2899999999999
 21
1296.93
 31
0.0
  0
LWPOLYLINE
  5
B04
330
19
100
AcDbEntity
  8
1
  6
Continuous
 62
     8
100
AcDbPolyline
 90
        6
 70
     0
 43
0.0
 10
975.8079999999999
 20
1429.11
 10
1077.91
 20
1663.16
 10
961.5779999999999
 20
1733.109999999999
 10
836.067
 20
1748.52
 10
800.9489999999999
 20
1450.579999999999
 10
975.8079999999999
 20
1429.11
  0
ARC
  5
B0C
330
19
100
AcDbEntity
  8
1
  6
Continuous
 62
     8
100
AcDbCircle
 10
751.058
 20
1464.94
 30
0.0
 40
32.75679999999999
100
AcDbArc
 50
250.693
 51
96.47180000000002
  0
LINE
  5
B0D
330
19
100
AcDbEntity
  8
1
  6
Continuous
 62
     8
100
AcDbLine
 10
747.3660000000001
 20
1497.489999999999
 30
0.0
 11
739.5839999999999
 21
1434.109999999999
 31
0.0
  0
ARC
  5
B0E
330
19
100
AcDbEntity
  8
1
  6
Continuous
 62
     8
100
AcDbCircle
 10
805.5620000000001
 20
1102.219999999999
 30
0.0
 40
327.97
100
AcDbArc
 50
56.0942
 51
100.875
  0
ARC
  5
B0F
330
19
100
AcDbEntity
  8
1
  6
Continuous
 62
     8
100
AcDbCircle
 10
805.5620000000001
 20
1102.219999999999
 30
0.0
 40
327.97
100
AcDbArc
 50
336.776
 51
51.07700000000001
  0
ARC
  5
B10
330
19
100
AcDbEntity
  8
1
  6
Continuous
 62
     8
100
AcDbCircle
 10
1827.88
 20
976.697
 30
0.0
 40
304.8
100
AcDbArc
 50
118.494
 51
159.442
  0
ARC
  5
B11
330
19
100
AcDbEntity
  8
1
  6
Continuous
 62
     8
100
AcDbCircle
 10
1827.88
 20
976.697
 30
0.0
 40
270.0
100
AcDbArc
 50
118.5059999999999
 51
158.026
  0
LWPOLYLINE
  5
B12
330
19
100
AcDbEntity
  8
1
  6
Continuous
 62
     8
100
AcDbPolyline
 90
        3
 70
     0
 43
0.0
 10
2060.329999999999
 20
1318.49
 10
1743.54
 20
1357.39
 10
1662.31
 20
1311.3
  0
LINE
  5
B17
330
19
100
AcDbEntity
  8
1
  6
Continuous
 62
     8
100
AcDbLine
 10
2059.109999999999
 20
1308.57
 30
0.0
 11
1745.6
 21
1347.059999999999
 31
0.0
  0
LINE
  5
B18
330
19
100
AcDbEntity
  8
1
  6
Continuous
 62
     8
100
AcDbLine
 10
1745.6
 20
1347.059999999999
 30
0.0
 11
1667.24
 21
1302.599999999999
 31
0.0
  0
LINE
  5
B19
330
19
100
AcDbEntity
  8
1
  6
Continuous
 62
     8
100
AcDbLine
 10
2059.109999999999
 20
1308.57
 30
0.0
 11
2060.329999999999
 21
1318.49
 31
0.0
  0
LWPOLYLINE
  5
B1A
330
19
100
AcDbEntity
  8
1
  6
Continuous
 62
     8
100
AcDbPolyline
 90
        3
 70
     0
 43
0.0
 10
2118.7
 20
1128.309999999999
 10
2128.38
 20
1186.19
 10
2094.629999999999
 20
1167.5
  0
LWPOLYLINE
  5
B1F
330
19
100
AcDbEntity
  8
1
  6
Continuous
 62
     8
100
AcDbPolyline
 90
        4
 70
     0
 43
0.0
 10
1106.95
 20
972.8989999999999
 10
1078.28
 20
901.4560000000001
 10
1103.76
 20
898.328
 10
1106.95
 20
972.8989999999999
  0
LINE
  5
B25
330
19
100
AcDbEntity
  8
1
  6
Continuous
 62
     8
100
AcDbLine
 10
1131.28
 20
1688.52
 30
0.0
 11
1146.99
 21
1680.52
 31
0.0
  0
LINE
  5
B26
330
19
100
AcDbEntity
  8
1
  6
Continuous
 62
     8
100
AcDbLine
 10
1092.39
 20
1573.35
 30
0.0
 11
1146.99
 21
1680.52
 31
0.0
  0
LINE
  5
B27
330
19
100
AcDbEntity
  8
1
  6
Continuous
 62
     8
100
AcDbLine
 10
1113.77
 20
1562.46
 30
0.0
 11
1181.089999999999
 21
1694.569999999999
 31
0.0
  0
POLYLINE
  5
B28
330
19
100
AcDbEntity
  8
1
  6
Continuous
 62
     8
100
AcDb2dPolyline
 66
     1
 10
0.0
 20
0.0
 30
0.0
 70
     2
  0
VERTEX
  5
B29
330
B28
100
AcDbEntity
  8
1
  6
Continuous
 62
     8
100
AcDbVertex
100
AcDb2dVertex
 10
1170.299999999999
 20
1796.95
 30
0.0
  0
VERTEX
  5
B2A
330
B28
100
AcDbEntity
  8
1
  6
Continuous
 62
     8
100
AcDbVertex
100
AcDb2dVertex
 10
1170.619999999999
 20
1798.32
 30
0.0
  0
VERTEX
  5
B2B
330
B28
100
AcDbEntity
  8
1
  6
Continuous
 62
     8
100
AcDbVertex
100
AcDb2dVertex
 10
1171.259999999999
 20
1799.63
 30
0.0
  0
VERTEX
  5
B2C
330
B28
100
AcDbEntity
  8
1
  6
Continuous
 62
     8
100
AcDbVertex
100
AcDb2dVertex
 10
1172.21
 20
1800.859999999999
 30
0.0
  0
VERTEX
  5
B2D
330
B28
100
AcDbEntity
  8
1
  6
Continuous
 62
     8
100
AcDbVertex
100
AcDb2dVertex
 10
1173.43
 20
1801.989999999999
 30
0.0
  0
VERTEX
  5
B2E
330
B28
100
AcDbEntity
  8
1
  6
Continuous
 62
     8
100
AcDbVertex
100
AcDb2dVertex
 10
1174.93
 20
1803.0
 30
0.0
  0
VERTEX
  5
B2F
330
B28
100
AcDbEntity
  8
1
  6
Continuous
 62
     8
100
AcDbVertex
100
AcDb2dVertex
 10
1176.67
 20
1803.869999999999
 30
0.0
  0
VERTEX
  5
B30
330
B28
100
AcDbEntity
  8
1
  6
Continuous
 62
     8
100
AcDbVertex
100
AcDb2dVertex
 10
1178.63
 20
1804.599999999999
 30
0.0
  0
VERTEX
  5
B31
330
B28
100
AcDbEntity
  8
1
  6
Continuous
 62
     8
100
AcDbVertex
100
AcDb2dVertex
 10
1180.77
 20
1805.17
 30
0.0
  0
VERTEX
  5
B32
330
B28
100
AcDbEntity
  8
1
  6
Continuous
 62
     8
100
AcDbVertex
100
AcDb2dVertex
 10
1183.07
 20
1805.58
 30
0.0
  0
VERTEX
  5
B33
330
B28
100
AcDbEntity
  8
1
  6
Continuous
 62
     8
100
AcDbVertex
100
AcDb2dVertex
 10
1185.48
 20
1805.799999999999
 30
0.0
  0
VERTEX
  5
B34
330
B28
100
AcDbEntity
  8
1
  6
Continuous
 62
     8
100
AcDbVertex
100
AcDb2dVertex
 10
1187.969999999999
 20
1805.86
 30
0.0
  0
VERTEX
  5
B35
330
B28
100
AcDbEntity
  8
1
  6
Continuous
 62
     8
100
AcDbVertex
100
AcDb2dVertex
 10
1190.499999999999
 20
1805.73
 30
0.0
  0
VERTEX
  5
B36
330
B28
100
AcDbEntity
  8
1
  6
Continuous
 62
     8
100
AcDbVertex
100
AcDb2dVertex
 10
1193.03
 20
1805.42
 30
0.0
  0
VERTEX
  5
B37
330
B28
100
AcDbEntity
  8
1
  6
Continuous
 62
     8
100
AcDbVertex
100
AcDb2dVertex
 10
1195.529999999999
 20
1804.95
 30
0.0
  0
VERTEX
  5
B38
330
B28
100
AcDbEntity
  8
1
  6
Continuous
 62
     8
100
AcDbVertex
100
AcDb2dVertex
 10
1197.94
 20
1804.31
 30
0.0
  0
VERTEX
  5
B39
330
B28
100
AcDbEntity
  8
1
  6
Continuous
 62
     8
100
AcDbVertex
100
AcDb2dVertex
 10
1200.23
 20
1803.51
 30
0.0
  0
VERTEX
  5
B3A
330
B28
100
AcDbEntity
  8
1
  6
Continuous
 62
     8
100
AcDbVertex
100
AcDb2dVertex
 10
1202.38
 20
1802.57
 30
0.0
  0
VERTEX
  5
B3B
330
B28
100
AcDbEntity
  8
1
  6
Continuous
 62
     8
100
AcDbVertex
100
AcDb2dVertex
 10
1204.34
 20
1801.51
 30
0.0
  0
VERTEX
  5
B3C
330
B28
100
AcDbEntity
  8
1
  6
Continuous
 62
     8
100
AcDbVertex
100
AcDb2dVertex
 10
1206.08
 20
1800.34
 30
0.0
  0
VERTEX
  5
B3D
330
B28
100
AcDbEntity
  8
1
  6
Continuous
 62
     8
100
AcDbVertex
100
AcDb2dVertex
 10
1207.57
 20
1799.07
 30
0.0
  0
VERTEX
  5
B3E
330
B28
100
AcDbEntity
  8
1
  6
Continuous
 62
     8
100
AcDbVertex
100
AcDb2dVertex
 10
1208.8
 20
1797.73
 30
0.0
  0
VERTEX
  5
B3F
330
B28
100
AcDbEntity
  8
1
  6
Continuous
 62
     8
100
AcDbVertex
100
AcDb2dVertex
 10
1209.74
 20
1796.34
 30
0.0
  0
VERTEX
  5
B40
330
B28
100
AcDbEntity
  8
1
  6
Continuous
 62
     8
100
AcDbVertex
100
AcDb2dVertex
 10
1210.38
 20
1794.92
 30
0.0
  0
VERTEX
  5
B41
330
B28
100
AcDbEntity
  8
1
  6
Continuous
 62
     8
100
AcDbVertex
100
AcDb2dVertex
 10
1210.71
 20
1793.49
 30
0.0
  0
VERTEX
  5
B42
330
B28
100
AcDbEntity
  8
1
  6
Continuous
 62
     8
100
AcDbVertex
100
AcDb2dVertex
 10
1210.72
 20
1792.08
 30
0.0
  0
VERTEX
  5
B43
330
B28
100
AcDbEntity
  8
1
  6
Continuous
 62
     8
100
AcDbVertex
100
AcDb2dVertex
 10
1210.41
 20
1790.709999999999
 30
0.0
  0
VERTEX
  5
B44
330
B28
100
AcDbEntity
  8
1
  6
Continuous
 62
     8
100
AcDbVertex
100
AcDb2dVertex
 10
1209.789999999999
 20
1789.39
 30
0.0
  0
VERTEX
  5
B45
330
B28
100
AcDbEntity
  8
1
  6
Continuous
 62
     8
100
AcDbVertex
100
AcDb2dVertex
 10
1208.87
 20
1788.16
 30
0.0
  0
VERTEX
  5
B46
330
B28
100
AcDbEntity
  8
1
  6
Continuous
 62
     8
100
AcDbVertex
100
AcDb2dVertex
 10
1207.66
 20
1787.02
 30
0.0
  0
VERTEX
  5
B47
330
B28
100
AcDbEntity
  8
1
  6
Continuous
 62
     8
100
AcDbVertex
100
AcDb2dVertex
 10
1206.18
 20
1786.0
 30
0.0
  0
VERTEX
  5
B48
330
B28
100
AcDbEntity
  8
1
  6
Continuous
 62
     8
100
AcDbVertex
100
AcDb2dVertex
 10
1204.45
 20
1785.109999999999
 30
0.0
  0
VERTEX
  5
B49
330
B28
100
AcDbEntity
  8
1
  6
Continuous
 62
     8
100
AcDbVertex
100
AcDb2dVertex
 10
1202.5
 20
1784.37
 30
0.0
  0
VERTEX
  5
B4A
330
B28
100
AcDbEntity
  8
1
  6
Continuous
 62
     8
100
AcDbVertex
100
AcDb2dVertex
 10
1200.369999999999
 20
1783.79
 30
0.0
  0
VERTEX
  5
B4B
330
B28
100
AcDbEntity
  8
1
  6
Continuous
 62
     8
100
AcDbVertex
100
AcDb2dVertex
 10
1198.08
 20
1783.38
 30
0.0
  0
VERTEX
  5
B4C
330
B28
100
AcDbEntity
  8
1
  6
Continuous
 62
     8
100
AcDbVertex
100
AcDb2dVertex
 10
1195.67
 20
1783.14
 30
0.0
  0
VERTEX
  5
B4D
330
B28
100
AcDbEntity
  8
1
  6
Continuous
 62
     8
100
AcDbVertex
100
AcDb2dVertex
 10
1193.19
 20
1783.07
 30
0.0
  0
VERTEX
  5
B4E
330
B28
100
AcDbEntity
  8
1
  6
Continuous
 62
     8
100
AcDbVertex
100
AcDb2dVertex
 10
1190.65
 20
1783.19
 30
0.0
  0
VERTEX
  5
B4F
330
B28
100
AcDbEntity
  8
1
  6
Continuous
 62
     8
100
AcDbVertex
100
AcDb2dVertex
 10
1188.12
 20
1783.48
 30
0.0
  0
VERTEX
  5
B50
330
B28
100
AcDbEntity
  8
1
  6
Continuous
 62
     8
100
AcDbVertex
100
AcDb2dVertex
 10
1185.619999999999
 20
1783.95
 30
0.0
  0
VERTEX
  5
B51
330
B28
100
AcDbEntity
  8
1
  6
Continuous
 62
     8
100
AcDbVertex
100
AcDb2dVertex
 10
1183.2
 20
1784.58
 30
0.0
  0
VERTEX
  5
B52
330
B28
100
AcDbEntity
  8
1
  6
Continuous
 62
     8
100
AcDbVertex
100
AcDb2dVertex
 10
1180.89
 20
1785.36
 30
0.0
  0
VERTEX
  5
B53
330
B28
100
AcDbEntity
  8
1
  6
Continuous
 62
     8
100
AcDbVertex
100
AcDb2dVertex
 10
1178.74
 20
1786.29
 30
0.0
  0
VERTEX
  5
B54
330
B28
100
AcDbEntity
  8
1
  6
Continuous
 62
     8
100
AcDbVertex
100
AcDb2dVertex
 10
1176.77
 20
1787.349999999999
 30
0.0
  0
VERTEX
  5
B55
330
B28
100
AcDbEntity
  8
1
  6
Continuous
 62
     8
100
AcDbVertex
100
AcDb2dVertex
 10
1175.01
 20
1788.52
 30
0.0
  0
VERTEX
  5
B56
330
B28
100
AcDbEntity
  8
1
  6
Continuous
 62
     8
100
AcDbVertex
100
AcDb2dVertex
 10
1173.489999999999
 20
1789.78
 30
0.0
  0
VERTEX
  5
B57
330
B28
100
AcDbEntity
  8
1
  6
Continuous
 62
     8
100
AcDbVertex
100
AcDb2dVertex
 10
1172.25
 20
1791.11
 30
0.0
  0
VERTEX
  5
B58
330
B28
100
AcDbEntity
  8
1
  6
Continuous
 62
     8
100
AcDbVertex
100
AcDb2dVertex
 10
1171.289999999999
 20
1792.5
 30
0.0
  0
VERTEX
  5
B59
330
B28
100
AcDbEntity
  8
1
  6
Continuous
 62
     8
100
AcDbVertex
100
AcDb2dVertex
 10
1170.619999999999
 20
1793.919999999999
 30
0.0
  0
VERTEX
  5
B5A
330
B28
100
AcDbEntity
  8
1
  6
Continuous
 62
     8
100
AcDbVertex
100
AcDb2dVertex
 10
1170.279999999999
 20
1795.35
 30
0.0
  0
VERTEX
  5
B5B
330
B28
100
AcDbEntity
  8
1
  6
Continuous
 62
     8
100
AcDbVertex
100
AcDb2dVertex
 10
1170.299999999999
 20
1796.95
 30
0.0
  0
SEQEND
  5
B5C
330
B28
100
AcDbEntity
  8
1
 62
     8
  0
LINE
  5
B5D
330
19
100
AcDbEntity
  8
1
  6
Continuous
 62
     8
100
AcDbLine
 10
1291.22
 20
1730.979999999999
 30
0.0
 11
1297.609999999999
 21
1754.11
 31
0.0
  0
ARC
  5
B5E
330
19
100
AcDbEntity
  8
1
  6
Continuous
 62
     8
100
AcDbCircle
 10
1159.349999999999
 20
1603.369999999999
 30
0.0
 40
133.8449999999999
100
AcDbArc
 50
34.48949999999999
 51
69.8576
  0
ARC
  5
B5F
330
19
100
AcDbEntity
  8
1
  6
Continuous
 62
     8
100
AcDbCircle
 10
1159.349999999999
 20
1603.369999999999
 30
0.0
 40
138.8039999999999
100
AcDbArc
 50
34.70369999999999
 51
70.1233
  0
LWPOLYLINE
  5
B60
330
19
100
AcDbEntity
  8
1
  6
Continuous
 62
     8
100
AcDbPolyline
 90
        4
 70
     0
 43
0.0
 10
1218.18
 20
1776.04
 10
1204.46
 20
1726.34
 10
1182.65
 20
1732.359999999999
 10
1196.38
 20
1782.059999999999
  0
CIRCLE
  5
B66
330
19
100
AcDbEntity
  8
1
  6
Continuous
 62
     8
100
AcDbCircle
 10
1274.0
 20
1677.92
 30
0.0
 40
4.50255
  0
LINE
  5
B67
330
19
100
AcDbEntity
  8
1
  6
Continuous
 62
     8
100
AcDbLine
 10
1181.089999999999
 20
1694.569999999999
 30
0.0
 11
1152.73
 21
1709.019999999999
 31
0.0
  0
CIRCLE
  5
B68
330
19
100
AcDbEntity
  8
1
  6
Continuous
 62
     8
100
AcDbCircle
 10
1137.64
 20
1700.99
 30
0.0
 40
12.0
  0
ARC
  5
B69
330
19
100
AcDbEntity
  8
1
  6
Continuous
 62
     8
100
AcDbCircle
 10
1137.64
 20
1700.99
 30
0.0
 40
14.0
100
AcDbArc
 50
141.997
 51
24.0027
  0
LINE
  5
B6A
330
19
100
AcDbEntity
  8
1
  6
Continuous
 62
     8
100
AcDbLine
 10
1297.609999999999
 20
1754.11
 30
0.0
 11
1191.14
 21
1783.51
 31
0.0
  0
ARC
  5
B6B
330
19
100
AcDbEntity
  8
1
  6
Continuous
 62
     8
100
AcDbCircle
 10
1178.36
 20
1737.239999999999
 30
0.0
 40
48.0
100
AcDbArc
 50
74.5647
 51
173.0
  0
LINE
  5
B6C
330
19
100
AcDbEntity
  8
1
  6
Continuous
 62
     8
100
AcDbLine
 10
1125.73
 20
1702.46
 30
0.0
 11
1130.719999999999
 21
1743.09
 31
0.0
  0
LINE
  5
B6D
330
19
100
AcDbEntity
  8
1
  6
Continuous
 62
     8
100
AcDbLine
 10
1291.22
 20
1730.979999999999
 30
0.0
 11
1184.749999999999
 21
1760.369999999999
 31
0.0
  0
ARC
  5
B6E
330
19
100
AcDbEntity
  8
1
  6
Continuous
 62
     8
100
AcDbCircle
 10
1178.36
 20
1737.239999999999
 30
0.0
 40
24.0
100
AcDbArc
 50
74.5647
 51
173.0
  0
LINE
  5
B6F
330
19
100
AcDbEntity
  8
1
  6
Continuous
 62
     8
100
AcDbLine
 10
1149.55
 20
1699.53
 30
0.0
 11
1154.539999999999
 21
1740.16
 31
0.0
  0
LINE
  5
B70
330
19
100
AcDbEntity
  8
1
  6
Continuous
 62
     8
100
AcDbLine
 10
1584.15
 20
1411.34
 30
0.0
 11
1606.94
 21
1456.08
 31
0.0
  0
LINE
  5
B71
330
19
100
AcDbEntity
  8
1
  6
Continuous
 62
     8
100
AcDbLine
 10
1607.31
 20
1399.54
 30
0.0
 11
1632.62
 21
1449.21
 31
0.0
  0
ARC
  5
B72
330
19
100
AcDbEntity
  8
1
  6
Continuous
 62
     8
100
AcDbCircle
 10
1515.41
 20
1513.98
 30
0.0
 40
20.0
100
AcDbArc
 50
83.0
 51
153.0
  0
LWPOLYLINE
  5
B73
330
19
100
AcDbEntity
  8
1
  6
Continuous
 62
     8
100
AcDbPolyline
 90
        6
 70
     0
 43
0.0
 10
1497.589999999999
 20
1523.06
 10
1489.46
 20
1507.089999999999
 10
1618.89
 20
1450.9
 10
1668.52
 20
1444.8
 10
1756.24
 20
1478.63
 10
1756.94
 20
1484.32
  0
LINE
  5
B7B
330
19
100
AcDbEntity
  8
1
  6
Continuous
 62
     8
100
AcDbLine
 10
1739.53
 20
1506.61
 30
0.0
 11
1517.85
 21
1533.83
 31
0.0
  0
ARC
  5
B7C
330
19
100
AcDbEntity
  8
1
  6
Continuous
 62
     8
100
AcDbCircle
 10
1737.09
 20
1486.76
 30
0.0
 40
20.0
100
AcDbArc
 50
353.0
 51
83.0
  0
LWPOLYLINE
  5
B7D
330
19
100
AcDbEntity
  8
1
  6
Continuous
 62
     8
100
AcDbPolyline
 90
       10
 70
     0
 43
0.0
 10
1722.81
 20
1464.23
 10
1748.17
 20
1446.849999999999
 10
1707.31
 20
1454.24
 10
1742.89
 20
1436.13
 10
1703.589999999999
 20
1443.33
 10
1734.48
 20
1423.68
 10
1695.899999999999
 20
1432.38
 10
1725.63
 20
1411.81
 10
1694.77
 20
1412.43
 10
1646.869999999999
 20
1442.099999999999
  0
LINE
  5
B89
330
19
100
AcDbEntity
  8
1
  6
Continuous
 62
     8
100
AcDbLine
 10
1956.12
 20
911.353
 30
0.0
 11
2068.449999999999
 21
854.1189999999998
 31
0.0
  0
CIRCLE
  5
B8A
330
19
100
AcDbEntity
  8
1
  6
Continuous
 62
     8
100
AcDbCircle
 10
1827.88
 20
976.697
 30
0.0
 40
15.0
  0
CIRCLE
  5
B8B
330
19
100
AcDbEntity
  8
1
  6
Continuous
 62
     8
100
AcDbCircle
 10
1820.19
 20
1004.58
 30
0.0
 40
7.0
  0
LINE
  5
B8C
330
19
100
AcDbEntity
  8
1
  6
Continuous
 62
     8
100
AcDbLine
 10
1826.35
 20
1007.91
 30
0.0
 11
1621.22
 21
1387.29
 31
0.0
  0
LINE
  5
B8D
330
19
100
AcDbEntity
  8
1
  6
Continuous
 62
     8
100
AcDbLine
 10
1608.91
 20
1380.63
 30
0.0
 11
1814.029999999999
 21
1001.25
 31
0.0
  0
LINE
  5
B8E
330
19
100
AcDbEntity
  8
1
  6
Continuous
 62
     8
100
AcDbLine
 10
1840.67
 20
984.529
 30
0.0
 11
1826.16
 21
1008.229999999999
 31
0.0
  0
LINE
  5
B8F
330
19
100
AcDbEntity
  8
1
  6
Continuous
 62
     8
100
AcDbLine
 10
1804.89
 20
987.691
 30
0.0
 11
1813.81
 21
1007.46
 31
0.0
  0
LINE
  5
B90
330
19
100
AcDbEntity
  8
1
  6
Continuous
 62
     8
100
AcDbLine
 10
1810.18
 20
1037.81
 30
0.0
 11
1837.559999999999
 21
1033.12
 31
0.0
  0
LINE
  5
B91
330
19
100
AcDbEntity
  8
1
  6
Continuous
 62
     8
100
AcDbLine
 10
1883.66
 20
989.5750000000001
 30
0.0
 11
2090.96
 21
1037.43
 31
0.0
  0
LINE
  5
B92
330
19
100
AcDbEntity
  8
1
  6
Continuous
 62
     8
100
AcDbLine
 10
1875.89
 20
1007.87
 30
0.0
 11
2054.32
 21
1123.74
 31
0.0
  0
LINE
  5
B93
330
19
100
AcDbEntity
  8
1
  6
Continuous
 62
     8
100
AcDbLine
 10
1844.62
 20
1031.44
 30
0.0
 11
1906.82
 21
1234.89
 31
0.0
  0
LINE
  5
B94
330
19
100
AcDbEntity
  8
1
  6
Continuous
 62
     8
100
AcDbLine
 10
1824.81
 20
1035.3
 30
0.0
 11
1813.749999999999
 21
1246.32
 31
0.0
  0
LINE
  5
B95
330
19
100
AcDbEntity
  8
1
  6
Continuous
 62
     8
100
AcDbLine
 10
1850.25
 20
923.9989999999998
 30
0.0
 11
1933.38
 21
728.161
 31
0.0
  0
LINE
  5
B96
330
19
100
AcDbEntity
  8
1
  6
Continuous
 62
     8
100
AcDbLine
 10
1884.7
 20
969.72
 30
0.0
 11
2095.87
 21
943.792
 31
0.0
  0
LINE
  5
B97
330
19
100
AcDbEntity
  8
1
  6
Continuous
 62
     8
100
AcDbLine
 10
1817.89
 20
987.134
 30
0.0
 11
1476.68
 21
1001.74
 31
0.0
  0
LINE
  5
B98
330
19
100
AcDbEntity
  8
1
  6
Continuous
 62
     8
100
AcDbLine
 10
1817.03
 20
967.1519999999999
 30
0.0
 11
1475.83
 21
981.7630000000001
 31
0.0
  0
ARC
  5
B99
330
19
100
AcDbEntity
  8
1
  6
Continuous
 62
     8
100
AcDbCircle
 10
1827.88
 20
976.697
 30
0.0
 40
40.0
100
AcDbArc
 50
119.12
 51
163.07
  0
LINE
  5
B9A
330
19
100
AcDbEntity
  8
1
  6
Continuous
 62
     8
100
AcDbLine
 10
1862.33
 20
1022.41
 30
0.0
 11
1990.37
 21
1192.32
 31
0.0
  0
LINE
  5
B9B
330
19
100
AcDbEntity
  8
1
  6
Continuous
 62
     8
100
AcDbLine
 10
1832.7
 20
919.6510000000001
 30
0.0
 11
1396.42
 21
882.7999999999999
 31
0.0
  0
LINE
  5
B9C
330
19
100
AcDbEntity
  8
1
  6
Continuous
 62
     8
100
AcDbLine
 10
1860.54
 20
941.8939999999999
 30
0.0
 11
2172.33
 21
875.6210000000001
 31
0.0
  0
LINE
  5
B9D
330
19
100
AcDbEntity
  8
1
  6
Continuous
 62
     8
100
AcDbLine
 10
2170.25
 20
865.84
 30
0.0
 11
1858.46
 21
932.113
 31
0.0
  0
CIRCLE
  5
B9E
330
19
100
AcDbEntity
  8
1
  6
Continuous
 62
     8
100
AcDbCircle
 10
1853.39
 20
938.302
 30
0.0
 40
8.0
  0
LWPOLYLINE
  5
B9F
330
19
100
AcDbEntity
  8
1
  6
Continuous
 62
     8
100
AcDbPolyline
 90
        3
 70
     0
 43
0.0
 10
1812.47
 20
933.251
 10
1872.02
 20
925.9389999999999
 10
1872.419999999999
 20
929.146
  0
LINE
  5
BA4
330
19
100
AcDbEntity
  8
1
  6
Continuous
 62
     8
100
AcDbLine
 10
1873.639999999999
 20
939.109
 30
0.0
 11
1876.29
 21
960.678
 31
0.0
  0
LINE
  5
BA5
330
19
100
AcDbEntity
  8
1
  6
Continuous
 62
     8
100
AcDbLine
 10
1838.63
 20
993.5599999999999
 30
0.0
 11
1963.95
 21
1320.25
 31
0.0
  0
LINE
  5
BA6
330
19
100
AcDbEntity
  8
1
  6
Continuous
 62
     8
100
AcDbLine
 10
1832.019999999999
 20
998.661
 30
0.0
 11
1955.77
 21
1321.26
 31
0.0
  0
ARC
  5
BA7
330
19
100
AcDbEntity
  8
1
  6
Continuous
 62
     8
100
AcDbCircle
 10
1813.69
 20
943.176
 30
0.0
 40
10.0
100
AcDbArc
 50
173.0
 51
263.0
  0
ARC
  5
BA8
330
19
100
AcDbEntity
  8
1
  6
Continuous
 62
     8
100
AcDbCircle
 10
1827.88
 20
976.697
 30
0.0
 40
40.0
100
AcDbArc
 50
192.0249999999999
 51
233.255
  0
LINE
  5
BA9
330
19
100
AcDbEntity
  8
1
  6
Continuous
 62
     8
100
AcDbLine
 10
1806.61
 20
967.598
 30
0.0
 11
1803.76
 21
944.3949999999999
 31
0.0
  0
ARC
  5
BAA
330
19
100
AcDbEntity
  8
1
  6
Continuous
 62
     8
100
AcDbCircle
 10
1827.88
 20
976.697
 30
0.0
 40
57.24849999999999
100
AcDbArc
 50
273.0
 51
301.182
  0
LINE
  5
BAB
330
19
100
AcDbEntity
  8
1
  6
Continuous
 62
     8
100
AcDbLine
 10
1872.309999999999
 20
929.049
 30
0.0
 11
2012.02
 21
779.2310000000001
 31
0.0
  0
LINE
  5
BAC
330
19
100
AcDbEntity
  8
1
  6
Continuous
 62
     8
100
AcDbLine
 10
1878.89
 20
950.707
 30
0.0
 11
1921.7
 21
928.8939999999998
 31
0.0
  0
LINE
  5
BAD
330
19
100
AcDbEntity
  8
1
  6
Continuous
 62
     8
100
AcDbLine
 10
1876.29
 20
960.678
 30
0.0
 11
1832.55
 21
999.2469999999999
 31
0.0
  0
ARC
  5
BAE
330
19
100
AcDbEntity
  8
1
  6
Continuous
 62
     8
100
AcDbCircle
 10
1827.88
 20
976.697
 30
0.0
 40
57.24849999999999
100
AcDbArc
 50
73.0205
 51
80.2678
  0
ARC
  5
BAF
330
19
100
AcDbEntity
  8
1
  6
Continuous
 62
     8
100
AcDbCircle
 10
1827.88
 20
976.697
 30
0.0
 40
57.24849999999999
100
AcDbArc
 50
323.854
 51
65.0074
  0
ARC
  5
BB0
330
19
100
AcDbEntity
  8
1
  6
Continuous
 62
     8
100
AcDbCircle
 10
1827.88
 20
976.697
 30
0.0
 40
40.0
100
AcDbArc
 50
74.7531
 51
98.67980000000001
  0
ARC
  5
BB1
330
19
100
AcDbEntity
  8
1
  6
Continuous
 62
     8
100
AcDbCircle
 10
1827.88
 20
976.697
 30
0.0
 40
40.0
100
AcDbArc
 50
348.5959999999999
 51
63.27480000000001
  0
ARC
  5
BB2
330
19
100
AcDbEntity
  8
1
  6
Continuous
 62
     8
100
AcDbCircle
 10
1827.88
 20
976.697
 30
0.0
 40
327.97
100
AcDbArc
 50
351.245
 51
68.3151
  0
ARC
  5
BB3
330
19
100
AcDbEntity
  8
1
  6
Continuous
 62
     8
100
AcDbCircle
 10
1827.88
 20
976.697
 30
0.0
 40
304.8
100
AcDbArc
 50
69.7659
 51
115.861
  0
ARC
  5
BB4
330
19
100
AcDbEntity
  8
1
  6
Continuous
 62
     8
100
AcDbCircle
 10
1827.88
 20
976.697
 30
0.0
 40
270.0
100
AcDbArc
 50
69.86279999999999
 51
115.534
  0
ARC
  5
BB5
330
19
100
AcDbEntity
  8
1
  6
Continuous
 62
     8
100
AcDbCircle
 10
1827.88
 20
976.697
 30
0.0
 40
304.8
100
AcDbArc
 50
342.87
 51
68.262
  0
ARC
  5
BB6
330
19
100
AcDbEntity
  8
1
  6
Continuous
 62
     8
100
AcDbCircle
 10
1827.88
 20
976.697
 30
0.0
 40
270.0
100
AcDbArc
 50
342.207
 51
68.1651
  0
ARC
  5
BB7
330
19
100
AcDbEntity
  8
1
  6
Continuous
 62
     8
100
AcDbCircle
 10
1827.88
 20
976.697
 30
0.0
 40
327.97
100
AcDbArc
 50
118.487
 51
160.2149999999999
  0
ARC
  5
BB8
330
19
100
AcDbEntity
  8
1
  6
Continuous
 62
     8
100
AcDbCircle
 10
1827.88
 20
976.697
 30
0.0
 40
327.97
100
AcDbArc
 50
69.7127
 51
116.04
  0
CIRCLE
  5
BB9
330
19
100
AcDbEntity
  8
1
  6
Continuous
 62
     8
100
AcDbCircle
 10
2171.29
 20
870.73
 30
0.0
 40
5.0
  0
POINT
  5
BBA
330
19
100
AcDbEntity
  8
1
 62
     8
100
AcDbPoint
 10
1153.91
 20
1810.24
 30
0.0
  0
ARC
  5
BBB
330
19
100
AcDbEntity
  8
1
  6
Continuous
 62
     8
100
AcDbCircle
 10
1827.88
 20
976.697
 30
0.0
 40
278.161
100
AcDbArc
 50
118.5029999999999
 51
158.3899999999999
  0
ARC
  5
BBC
330
19
100
AcDbEntity
  8
1
  6
Continuous
 62
     8
100
AcDbCircle
 10
1827.88
 20
976.697
 30
0.0
 40
278.161
100
AcDbArc
 50
69.8379
 51
115.6179999999999
  0
ARC
  5
BBD
330
19
100
AcDbEntity
  8
1
  6
Continuous
 62
     8
100
AcDbCircle
 10
1827.88
 20
976.697
 30
0.0
 40
278.161
100
AcDbArc
 50
342.3769999999999
 51
68.18999999999999
  0
POINT
  5
BBE
330
19
100
AcDbEntity
  8
1
 62
     8
100
AcDbPoint
 10
768.416
 20
799.6939999999999
 30
0.0
  0
LINE
  5
BBF
330
19
100
AcDbEntity
  8
1
  6
Continuous
 62
     8
100
AcDbLine
 10
810.0239999999999
 20
1091.7
 30
0.0
 11
862.1310000000001
 21
968.9539999999999
 31
0.0
  0
LINE
  5
BC0
330
19
100
AcDbEntity
  8
1
  6
Continuous
 62
     8
100
AcDbLine
 10
866.187
 20
959.398
 30
0.0
 11
911.059
 21
853.686
 31
0.0
  0
ARC
  5
BC1
330
19
100
AcDbEntity
  8
1
  6
Continuous
 62
     8
100
AcDbCircle
 10
805.5620000000001
 20
1102.219999999999
 30
0.0
 40
278.161
100
AcDbArc
 50
285.6309999999999
 51
317.9509999999999
  0
ARC
  5
BC2
330
19
100
AcDbEntity
  8
1
  6
Continuous
 62
     8
100
AcDbCircle
 10
805.5620000000001
 20
1102.219999999999
 30
0.0
 40
278.161
100
AcDbArc
 50
225.89
 51
239.644
  0
ARC
  5
BC3
330
19
100
AcDbEntity
  8
1
  6
Continuous
 62
     8
100
AcDbCircle
 10
805.5620000000001
 20
1102.219999999999
 30
0.0
 40
270.0
100
AcDbArc
 50
224.5679999999999
 51
244.9709999999999
  0
ARC
  5
BC4
330
19
100
AcDbEntity
  8
1
  6
Continuous
 62
     8
100
AcDbCircle
 10
1827.88
 20
976.697
 30
0.0
 40
304.8
100
AcDbArc
 50
195.6529999999999
 51
230.387
  0
ARC
  5
BC5
330
19
100
AcDbEntity
  8
1
  6
Continuous
 62
     8
100
AcDbCircle
 10
1827.88
 20
976.697
 30
0.0
 40
278.161
100
AcDbArc
 50
285.6309999999999
 51
340.303
  0
ARC
  5
BC6
330
19
100
AcDbEntity
  8
1
  6
Continuous
 62
     8
100
AcDbCircle
 10
1827.88
 20
976.697
 30
0.0
 40
278.161
100
AcDbArc
 50
196.705
 51
240.368
  0
ARC
  5
BC7
330
19
100
AcDbEntity
  8
1
  6
Continuous
 62
     8
100
AcDbCircle
 10
1827.88
 20
976.697
 30
0.0
 40
270.0
100
AcDbArc
 50
281.028
 51
340.069
  0
ARC
  5
BC8
330
19
100
AcDbEntity
  8
1
  6
Continuous
 62
     8
100
AcDbCircle
 10
1827.88
 20
976.697
 30
0.0
 40
270.0
100
AcDbArc
 50
197.069
 51
244.9709999999999
  0
LINE
  5
BC9
330
19
100
AcDbEntity
  8
1
  6
Continuous
 62
     8
100
AcDbLine
 10
1830.869999999999
 20
919.556
 30
0.0
 11
1841.52
 21
716.3499999999999
 31
0.0
  0
LINE
  5
BCA
330
19
100
AcDbEntity
  8
1
  6
Continuous
 62
     8
100
AcDbLine
 10
1809.849999999999
 20
917.721
 30
0.0
 11
1751.66
 21
727.3839999999998
 31
0.0
  0
POINT
  5
BCB
330
19
100
AcDbEntity
  8
1
 62
     8
100
AcDbPoint
 10
1790.729999999999
 20
674.169
 30
0.0
  0
POINT
  5
BCC
330
19
100
AcDbEntity
  8
1
 62
     3
100
AcDbPoint
 10
2584.45
 20
1389.68
 30
0.0
  0
CIRCLE
  5
BCD
330
19
100
AcDbEntity
  8
1
  6
DIVIDE
 62
     8
100
AcDbCircle
 10
3105.26
 20
1110.25
 30
0.0
 40
12.5
  0
CIRCLE
  5
BCE
330
19
100
AcDbEntity
  8
1
  6
DIVIDE
 62
     8
100
AcDbCircle
 10
2992.48
 20
996.7589999999999
 30
0.0
 40
8.0
  0
LWPOLYLINE
  5
BCF
330
19
100
AcDbEntity
  8
1
  6
DIVIDE
 62
     8
100
AcDbPolyline
 90
        5
 70
     0
 43
0.0
 10
3028.44
 20
991.1430000000001
 10
3020.05
 20
972.99
 10
2956.51
 20
1002.369999999999
 10
2964.91
 20
1020.52
 10
3028.44
 20
991.1430000000001
  0
LINE
  5
BD6
330
19
100
AcDbEntity
  8
1
  6
DIVIDE
 62
     8
100
AcDbLine
 10
3096.15
 20
1118.8
 30
0.0
 11
2992.04
 21
1007.97
 31
0.0
  0
LINE
  5
BD7
330
19
100
AcDbEntity
  8
1
  6
DIVIDE
 62
     8
100
AcDbLine
 10
3008.08
 20
1000.559999999999
 30
0.0
 11
3113.88
 21
1101.19
 31
0.0
  0
ARC
  5
BD8
330
19
100
AcDbEntity
  8
1
  6
DIVIDE
 62
     8
100
AcDbCircle
 10
3105.26
 20
1110.25
 30
0.0
 40
90.0
100
AcDbArc
 50
231.5509999999999
 51
218.808
  0
LINE
  5
BD9
330
19
100
AcDbEntity
  8
1
  6
DIVIDE
 62
     8
100
AcDbLine
 10
3442.27
 20
1423.85
 30
0.0
 11
3416.74
 21
1449.22
 31
0.0
  0
LINE
  5
BDA
330
19
100
AcDbEntity
  8
1
  6
DIVIDE
 62
     8
100
AcDbLine
 10
3172.09
 20
1203.04
 30
0.0
 11
3416.74
 21
1449.22
 31
0.0
  0
LINE
  5
BDB
330
19
100
AcDbEntity
  8
1
  6
DIVIDE
 62
     8
100
AcDbLine
 10
3205.519999999999
 20
1185.599999999999
 30
0.0
 11
3442.27
 21
1423.85
 31
0.0
  0
CIRCLE
  5
BDC
330
19
100
AcDbEntity
  8
1
  6
DIVIDE
 62
     8
100
AcDbCircle
 10
3441.34
 20
1410.17
 30
0.0
 40
7.0
  0
LWPOLYLINE
  5
BDD
330
19
100
AcDbEntity
  8
1
  6
DIVIDE
 62
     8
100
AcDbPolyline
 90
        5
 70
     0
 43
0.0
 10
3022.98
 20
1729.28
 10
2997.44
 20
1754.66
 10
2875.949999999999
 20
1632.41
 10
2901.489999999999
 20
1607.029999999999
 10
3022.98
 20
1729.28
  0
CIRCLE
  5
BE4
330
19
100
AcDbEntity
  8
1
  6
DIVIDE
 62
     8
100
AcDbCircle
 10
2584.45
 20
1389.68
 30
0.0
 40
7.0
  0
LINE
  5
BE5
330
19
100
AcDbEntity
  8
1
  6
DIVIDE
 62
     8
100
AcDbLine
 10
2764.32
 20
1509.25
 30
0.0
 11
2877.0
 21
1630.61
 31
0.0
  0
ARC
  5
BE6
330
19
100
AcDbEntity
  8
1
  6
DIVIDE
 62
     8
100
AcDbCircle
 10
2471.189999999999
 20
1781.41
 30
0.0
 40
400.0
100
AcDbArc
 50
289.666
 51
317.124
  0
LINE
  5
BE7
330
19
100
AcDbEntity
  8
1
  6
DIVIDE
 62
     8
100
AcDbLine
 10
2582.09
 20
1396.27
 30
0.0
 11
2605.809999999999
 21
1404.74
 31
0.0
  0
LINE
  5
BE8
330
19
100
AcDbEntity
  8
1
  6
DIVIDE
 62
     8
100
AcDbLine
 10
2899.68
 20
1608.06
 30
0.0
 11
2768.45
 21
1484.68
 31
0.0
  0
ARC
  5
BE9
330
19
100
AcDbEntity
  8
1
  6
DIVIDE
 62
     8
100
AcDbCircle
 10
2484.87
 20
1786.299999999999
 30
0.0
 40
414.0
100
AcDbArc
 50
289.666
 51
313.235
  0
LINE
  5
BEA
330
19
100
AcDbEntity
  8
1
  6
DIVIDE
 62
     8
100
AcDbLine
 10
2624.2
 20
1396.45
 30
0.0
 11
2586.809999999999
 21
1383.09
 31
0.0
  0
LINE
  5
BEB
330
19
100
AcDbEntity
  8
1
  6
DIVIDE
 62
     8
100
AcDbLine
 10
2914.3
 20
1619.92
 30
0.0
 11
3049.0
 21
1208.45
 31
0.0
  0
LINE
  5
BEC
330
19
100
AcDbEntity
  8
1
  6
DIVIDE
 62
     8
100
AcDbLine
 10
3076.78
 20
1219.79
 30
0.0
 11
2937.27
 21
1643.029999999999
 31
0.0
  0
LINE
  5
BED
330
19
100
AcDbEntity
  8
1
  6
DIVIDE
 62
     8
100
AcDbLine
 10
3233.84
 20
1265.18
 30
0.0
 11
3004.83
 21
1711.019999999999
 31
0.0
  0
LINE
  5
BEE
330
19
100
AcDbEntity
  8
1
  6
DIVIDE
 62
     8
100
AcDbLine
 10
2982.94
 20
1688.99
 30
0.0
 11
3211.95
 21
1243.14
 31
0.0
  0
LINE
  5
BEF
330
19
100
AcDbEntity
  8
1
  6
DIVIDE
 62
     8
100
AcDbLine
 10
2594.82
 20
1384.88
 30
0.0
 11
2829.51
 21
1276.34
 31
0.0
  0
LINE
  5
BF0
330
19
100
AcDbEntity
  8
1
  6
DIVIDE
 62
     8
100
AcDbLine
 10
2592.55
 20
1381.63
 30
0.0
 11
2775.97
 21
1199.359999999999
 31
0.0
  0
LINE
  5
BF1
330
19
100
AcDbEntity
  8
1
  6
DIVIDE
 62
     8
100
AcDbLine
 10
2585.48
 20
1378.3
 30
0.0
 11
2608.83
 21
1120.78
 31
0.0
  0
LINE
  5
BF2
330
19
100
AcDbEntity
  8
1
  6
DIVIDE
 62
     8
100
AcDbLine
 10
2581.53
 20
1378.64
 30
0.0
 11
2515.39
 21
1128.66
 31
0.0
  0
LINE
  5
BF3
330
19
100
AcDbEntity
  8
1
  6
DIVIDE
 62
     8
100
AcDbLine
 10
2573.43
 20
1386.69
 30
0.0
 11
2323.869999999999
 21
1318.98
 31
0.0
  0
LINE
  5
BF4
330
19
100
AcDbEntity
  8
1
  6
DIVIDE
 62
     8
100
AcDbLine
 10
2573.07
 20
1390.64
 30
0.0
 11
2315.399999999999
 21
1412.36
 31
0.0
  0
LINE
  5
BF5
330
19
100
AcDbEntity
  8
1
  6
DIVIDE
 62
     8
100
AcDbLine
 10
2574.08
 20
1394.47
 30
0.0
 11
2339.389999999999
 21
1503.01
 31
0.0
  0
LINE
  5
BF6
330
19
100
AcDbEntity
  8
1
  6
DIVIDE
 62
     8
100
AcDbLine
 10
2576.35
 20
1397.73
 30
0.0
 11
2392.929999999999
 21
1580.0
 31
0.0
  0
LINE
  5
BF7
330
19
100
AcDbEntity
  8
1
  6
DIVIDE
 62
     8
100
AcDbLine
 10
2579.59
 20
1400.009999999999
 30
0.0
 11
2469.57
 21
1634.02
 31
0.0
  0
LINE
  5
BF8
330
19
100
AcDbEntity
  8
1
  6
DIVIDE
 62
     8
100
AcDbLine
 10
2583.42
 20
1401.05
 30
0.0
 11
2560.07
 21
1658.57
 31
0.0
  0
LINE
  5
BF9
330
19
100
AcDbEntity
  8
1
  6
DIVIDE
 62
     8
100
AcDbLine
 10
2587.369999999999
 20
1400.72
 30
0.0
 11
2653.51
 21
1650.7
 31
0.0
  0
LINE
  5
BFA
330
19
100
AcDbEntity
  8
1
  6
DIVIDE
 62
     8
100
AcDbLine
 10
2590.969999999999
 20
1399.049999999999
 30
0.0
 11
2738.62
 21
1611.329999999999
 31
0.0
  0
LINE
  5
BFB
330
19
100
AcDbEntity
  8
1
  6
DIVIDE
 62
     8
100
AcDbLine
 10
3157.61
 20
1210.59
 30
0.0
 11
3505.38
 21
1029.15
 31
0.0
  0
LINE
  5
BFC
330
19
100
AcDbEntity
  8
1
  6
DIVIDE
 62
     8
100
AcDbLine
 10
3479.09
 20
1042.869999999999
 30
0.0
 11
3404.43
 21
1201.66
 31
0.0
  0
LINE
  5
BFD
330
19
100
AcDbEntity
  8
1
  6
DIVIDE
 62
     8
100
AcDbLine
 10
3456.51
 20
913.0549999999999
 30
0.0
 11
3298.63
 21
801.7599999999999
 31
0.0
  0
LINE
  5
BFE
330
19
100
AcDbEntity
  8
1
  6
DIVIDE
 62
     8
100
AcDbLine
 10
3402.28
 20
925.567
 30
0.0
 11
3258.729999999999
 21
886.6189999999999
 31
0.0
  0
LINE
  5
BFF
330
19
100
AcDbEntity
  8
1
  6
DIVIDE
 62
     8
100
AcDbLine
 10
3506.36
 20
1100.16
 30
0.0
 11
3494.93
 21
1226.21
 31
0.0
  0
ARC
  5
C00
330
19
100
AcDbEntity
  8
1
  6
DIVIDE
 62
     8
100
AcDbCircle
 10
3105.26
 20
1110.25
 30
0.0
 40
113.182
100
AcDbArc
 50
229.909
 51
257.0079999999999
  0
ARC
  5
C01
330
19
100
AcDbEntity
  8
1
  6
DIVIDE
 62
     8
100
AcDbCircle
 10
3105.26
 20
1110.25
 30
0.0
 40
113.182
100
AcDbArc
 50
62.4478
 51
220.4499999999999
  0
LINE
  5
C02
330
19
100
AcDbEntity
  8
1
  6
DIVIDE
 62
     8
100
AcDbLine
 10
2601.28
 20
1388.26
 30
0.0
 11
2853.489999999999
 21
1366.99
 31
0.0
  0
LINE
  5
C03
330
19
100
AcDbEntity
  8
1
  6
DIVIDE
 62
     8
100
AcDbLine
 10
2654.7
 20
1408.74
 30
0.0
 11
2845.03
 21
1460.38
 31
0.0
  0
LINE
  5
C04
330
19
100
AcDbEntity
  8
1
  6
DIVIDE
 62
     8
100
AcDbLine
 10
2605.809999999999
 20
1404.74
 30
0.0
 11
2783.73
 21
1530.15
 31
0.0
  0
LWPOLYLINE
  5
C05
330
19
100
AcDbEntity
  8
1
  6
DIVIDE
 62
     8
100
AcDbPolyline
 90
        6
 70
     0
 43
0.0
 10
2846.57
 20
1648.78
 10
3015.4
 20
1840.36
 10
2926.05
 20
1942.549999999999
 10
2811.28
 20
1995.63
 10
2686.67
 20
1722.73
 10
2846.57
 20
1648.78
  0
ARC
  5
C0D
330
19
100
AcDbEntity
  8
1
  6
DIVIDE
 62
     8
100
AcDbCircle
 10
2643.57
 20
1751.68
 30
0.0
 40
32.75679999999999
100
AcDbArc
 50
232.8729999999999
 51
78.65179999999999
  0
LINE
  5
C0E
330
19
100
AcDbEntity
  8
1
  6
DIVIDE
 62
     8
100
AcDbLine
 10
2650.01
 20
1783.8
 30
0.0
 11
2623.2
 21
1725.839999999999
 31
0.0
  0
ARC
  5
C0F
330
19
100
AcDbEntity
  8
1
  6
DIVIDE
 62
     8
100
AcDbCircle
 10
2584.45
 20
1389.68
 30
0.0
 40
327.97
100
AcDbArc
 50
38.2742
 51
83.0553
  0
ARC
  5
C10
330
19
100
AcDbEntity
  8
1
  6
DIVIDE
 62
     8
100
AcDbCircle
 10
2584.45
 20
1389.68
 30
0.0
 40
327.97
100
AcDbArc
 50
318.9559999999999
 51
33.25699999999999
  0
ARC
  5
C11
330
19
100
AcDbEntity
  8
1
  6
DIVIDE
 62
     8
100
AcDbCircle
 10
3519.31
 20
957.319
 30
0.0
 40
304.8
100
AcDbArc
 50
100.674
 51
141.622
  0
ARC
  5
C12
330
19
100
AcDbEntity
  8
1
  6
DIVIDE
 62
     8
100
AcDbCircle
 10
3519.31
 20
957.319
 30
0.0
 40
270.0
100
AcDbArc
 50
100.686
 51
140.206
  0
LWPOLYLINE
  5
C13
330
19
100
AcDbEntity
  8
1
  6
DIVIDE
 62
     8
100
AcDbPolyline
 90
        3
 70
     0
 43
0.0
 10
3845.21
 20
1211.58
 10
3555.52
 20
1345.56
 10
3464.08
 20
1326.54
  0
LINE
  5
C18
330
19
100
AcDbEntity
  8
1
  6
DIVIDE
 62
     8
100
AcDbLine
 10
3841.01
 20
1202.51
 30
0.0
 11
3554.32
 21
1335.099999999999
 31
0.0
  0
LINE
  5
C19
330
19
100
AcDbEntity
  8
1
  6
DIVIDE
 62
     8
100
AcDbLine
 10
3554.32
 20
1335.099999999999
 30
0.0
 11
3466.12
 21
1316.75
 31
0.0
  0
LINE
  5
C1A
330
19
100
AcDbEntity
  8
1
  6
DIVIDE
 62
     8
100
AcDbLine
 10
3841.01
 20
1202.51
 30
0.0
 11
3845.21
 21
1211.58
 31
0.0
  0
LWPOLYLINE
  5
C1B
330
19
100
AcDbEntity
  8
1
  6
DIVIDE
 62
     8
100
AcDbPolyline
 90
        3
 70
     0
 43
0.0
 10
3842.58
 20
1012.66
 10
3869.5
 20
1064.799999999999
 10
3831.66
 20
1057.339999999999
  0
LWPOLYLINE
  5
C20
330
19
100
AcDbEntity
  8
1
  6
DIVIDE
 62
     8
100
AcDbPolyline
 90
        4
 70
     0
 43
0.0
 10
2831.81
 20
1174.32
 10
2782.65
 20
1115.08
 10
2805.95
 20
1104.309999999999
 10
2831.81
 20
1174.32
  0
LINE
  5
C26
330
19
100
AcDbEntity
  8
1
  6
DIVIDE
 62
     8
100
AcDbLine
 10
3073.97
 20
1848.17
 30
0.0
 11
3086.48
 21
1835.74
 31
0.0
  0
LINE
  5
C27
330
19
100
AcDbEntity
  8
1
  6
DIVIDE
 62
     8
100
AcDbLine
 10
3001.7
 20
1750.43
 30
0.0
 11
3086.48
 21
1835.74
 31
0.0
  0
LINE
  5
C28
330
19
100
AcDbEntity
  8
1
  6
DIVIDE
 62
     8
100
AcDbLine
 10
3018.72
 20
1733.51
 30
0.0
 11
3123.24
 21
1838.69
 31
0.0
  0
POLYLINE
  5
C29
330
19
100
AcDbEntity
  8
1
  6
DIVIDE
 62
     8
100
AcDb2dPolyline
 66
     1
 10
0.0
 20
0.0
 30
0.0
 70
     2
  0
VERTEX
  5
C2A
330
C29
100
AcDbEntity
  8
1
  6
DIVIDE
 62
     8
100
AcDbVertex
100
AcDb2dVertex
 10
3144.3
 20
1939.46
 30
0.0
  0
VERTEX
  5
C2B
330
C29
100
AcDbEntity
  8
1
  6
DIVIDE
 62
     8
100
AcDbVertex
100
AcDb2dVertex
 10
3145.03
 20
1940.66
 30
0.0
  0
VERTEX
  5
C2C
330
C29
100
AcDbEntity
  8
1
  6
DIVIDE
 62
     8
100
AcDbVertex
100
AcDb2dVertex
 10
3146.04
 20
1941.71
 30
0.0
  0
VERTEX
  5
C2D
330
C29
100
AcDbEntity
  8
1
  6
DIVIDE
 62
     8
100
AcDbVertex
100
AcDb2dVertex
 10
3147.31
 20
1942.59
 30
0.0
  0
VERTEX
  5
C2E
330
C29
100
AcDbEntity
  8
1
  6
DIVIDE
 62
     8
100
AcDbVertex
100
AcDb2dVertex
 10
3148.83
 20
1943.29
 30
0.0
  0
VERTEX
  5
C2F
330
C29
100
AcDbEntity
  8
1
  6
DIVIDE
 62
     8
100
AcDbVertex
100
AcDb2dVertex
 10
3150.56
 20
1943.799999999999
 30
0.0
  0
VERTEX
  5
C30
330
C29
100
AcDbEntity
  8
1
  6
DIVIDE
 62
     8
100
AcDbVertex
100
AcDb2dVertex
 10
3152.48
 20
1944.099999999999
 30
0.0
  0
VERTEX
  5
C31
330
C29
100
AcDbEntity
  8
1
  6
DIVIDE
 62
     8
100
AcDbVertex
100
AcDb2dVertex
 10
3154.57
 20
1944.19
 30
0.0
  0
VERTEX
  5
C32
330
C29
100
AcDbEntity
  8
1
  6
DIVIDE
 62
     8
100
AcDbVertex
100
AcDb2dVertex
 10
3156.79
 20
1944.079999999999
 30
0.0
  0
VERTEX
  5
C33
330
C29
100
AcDbEntity
  8
1
  6
DIVIDE
 62
     8
100
AcDbVertex
100
AcDb2dVertex
 10
3159.1
 20
1943.76
 30
0.0
  0
VERTEX
  5
C34
330
C29
100
AcDbEntity
  8
1
  6
DIVIDE
 62
     8
100
AcDbVertex
100
AcDb2dVertex
 10
3161.459999999999
 20
1943.24
 30
0.0
  0
VERTEX
  5
C35
330
C29
100
AcDbEntity
  8
1
  6
DIVIDE
 62
     8
100
AcDbVertex
100
AcDb2dVertex
 10
3163.85
 20
1942.53
 30
0.0
  0
VERTEX
  5
C36
330
C29
100
AcDbEntity
  8
1
  6
DIVIDE
 62
     8
100
AcDbVertex
100
AcDb2dVertex
 10
3166.22
 20
1941.63
 30
0.0
  0
VERTEX
  5
C37
330
C29
100
AcDbEntity
  8
1
  6
DIVIDE
 62
     8
100
AcDbVertex
100
AcDb2dVertex
 10
3168.54
 20
1940.57
 30
0.0
  0
VERTEX
  5
C38
330
C29
100
AcDbEntity
  8
1
  6
DIVIDE
 62
     8
100
AcDbVertex
100
AcDb2dVertex
 10
3170.76
 20
1939.35
 30
0.0
  0
VERTEX
  5
C39
330
C29
100
AcDbEntity
  8
1
  6
DIVIDE
 62
     8
100
AcDbVertex
100
AcDb2dVertex
 10
3172.86
 20
1938.0
 30
0.0
  0
VERTEX
  5
C3A
330
C29
100
AcDbEntity
  8
1
  6
DIVIDE
 62
     8
100
AcDbVertex
100
AcDb2dVertex
 10
3174.81
 20
1936.54
 30
0.0
  0
VERTEX
  5
C3B
330
C29
100
AcDbEntity
  8
1
  6
DIVIDE
 62
     8
100
AcDbVertex
100
AcDb2dVertex
 10
3176.56
 20
1934.99
 30
0.0
  0
VERTEX
  5
C3C
330
C29
100
AcDbEntity
  8
1
  6
DIVIDE
 62
     8
100
AcDbVertex
100
AcDb2dVertex
 10
3178.1
 20
1933.38
 30
0.0
  0
VERTEX
  5
C3D
330
C29
100
AcDbEntity
  8
1
  6
DIVIDE
 62
     8
100
AcDbVertex
100
AcDb2dVertex
 10
3179.4
 20
1931.729999999999
 30
0.0
  0
VERTEX
  5
C3E
330
C29
100
AcDbEntity
  8
1
  6
DIVIDE
 62
     8
100
AcDbVertex
100
AcDb2dVertex
 10
3180.429999999999
 20
1930.069999999999
 30
0.0
  0
VERTEX
  5
C3F
330
C29
100
AcDbEntity
  8
1
  6
DIVIDE
 62
     8
100
AcDbVertex
100
AcDb2dVertex
 10
3181.19
 20
1928.42
 30
0.0
  0
VERTEX
  5
C40
330
C29
100
AcDbEntity
  8
1
  6
DIVIDE
 62
     8
100
AcDbVertex
100
AcDb2dVertex
 10
3181.659999999999
 20
1926.81
 30
0.0
  0
VERTEX
  5
C41
330
C29
100
AcDbEntity
  8
1
  6
DIVIDE
 62
     8
100
AcDbVertex
100
AcDb2dVertex
 10
3181.83
 20
1925.26
 30
0.0
  0
VERTEX
  5
C42
330
C29
100
AcDbEntity
  8
1
  6
DIVIDE
 62
     8
100
AcDbVertex
100
AcDb2dVertex
 10
3181.71
 20
1923.799999999999
 30
0.0
  0
VERTEX
  5
C43
330
C29
100
AcDbEntity
  8
1
  6
DIVIDE
 62
     8
100
AcDbVertex
100
AcDb2dVertex
 10
3181.29
 20
1922.45
 30
0.0
  0
VERTEX
  5
C44
330
C29
100
AcDbEntity
  8
1
  6
DIVIDE
 62
     8
100
AcDbVertex
100
AcDb2dVertex
 10
3180.57
 20
1921.24
 30
0.0
  0
VERTEX
  5
C45
330
C29
100
AcDbEntity
  8
1
  6
DIVIDE
 62
     8
100
AcDbVertex
100
AcDb2dVertex
 10
3179.58
 20
1920.18
 30
0.0
  0
VERTEX
  5
C46
330
C29
100
AcDbEntity
  8
1
  6
DIVIDE
 62
     8
100
AcDbVertex
100
AcDb2dVertex
 10
3178.33
 20
1919.28
 30
0.0
  0
VERTEX
  5
C47
330
C29
100
AcDbEntity
  8
1
  6
DIVIDE
 62
     8
100
AcDbVertex
100
AcDb2dVertex
 10
3176.83
 20
1918.57
 30
0.0
  0
VERTEX
  5
C48
330
C29
100
AcDbEntity
  8
1
  6
DIVIDE
 62
     8
100
AcDbVertex
100
AcDb2dVertex
 10
3175.1
 20
1918.05
 30
0.0
  0
VERTEX
  5
C49
330
C29
100
AcDbEntity
  8
1
  6
DIVIDE
 62
     8
100
AcDbVertex
100
AcDb2dVertex
 10
3173.189999999999
 20
1917.74
 30
0.0
  0
VERTEX
  5
C4A
330
C29
100
AcDbEntity
  8
1
  6
DIVIDE
 62
     8
100
AcDbVertex
100
AcDb2dVertex
 10
3171.11
 20
1917.63
 30
0.0
  0
VERTEX
  5
C4B
330
C29
100
AcDbEntity
  8
1
  6
DIVIDE
 62
     8
100
AcDbVertex
100
AcDb2dVertex
 10
3168.9
 20
1917.729999999999
 30
0.0
  0
VERTEX
  5
C4C
330
C29
100
AcDbEntity
  8
1
  6
DIVIDE
 62
     8
100
AcDbVertex
100
AcDb2dVertex
 10
3166.6
 20
1918.029999999999
 30
0.0
  0
VERTEX
  5
C4D
330
C29
100
AcDbEntity
  8
1
  6
DIVIDE
 62
     8
100
AcDbVertex
100
AcDb2dVertex
 10
3164.23
 20
1918.54
 30
0.0
  0
VERTEX
  5
C4E
330
C29
100
AcDbEntity
  8
1
  6
DIVIDE
 62
     8
100
AcDbVertex
100
AcDb2dVertex
 10
3161.84
 20
1919.24
 30
0.0
  0
VERTEX
  5
C4F
330
C29
100
AcDbEntity
  8
1
  6
DIVIDE
 62
     8
100
AcDbVertex
100
AcDb2dVertex
 10
3159.47
 20
1920.13
 30
0.0
  0
VERTEX
  5
C50
330
C29
100
AcDbEntity
  8
1
  6
DIVIDE
 62
     8
100
AcDbVertex
100
AcDb2dVertex
 10
3157.14
 20
1921.18
 30
0.0
  0
VERTEX
  5
C51
330
C29
100
AcDbEntity
  8
1
  6
DIVIDE
 62
     8
100
AcDbVertex
100
AcDb2dVertex
 10
3154.91
 20
1922.39
 30
0.0
  0
VERTEX
  5
C52
330
C29
100
AcDbEntity
  8
1
  6
DIVIDE
 62
     8
100
AcDbVertex
100
AcDb2dVertex
 10
3152.8
 20
1923.73
 30
0.0
  0
VERTEX
  5
C53
330
C29
100
AcDbEntity
  8
1
  6
DIVIDE
 62
     8
100
AcDbVertex
100
AcDb2dVertex
 10
3150.84
 20
1925.18
 30
0.0
  0
VERTEX
  5
C54
330
C29
100
AcDbEntity
  8
1
  6
DIVIDE
 62
     8
100
AcDbVertex
100
AcDb2dVertex
 10
3149.07
 20
1926.73
 30
0.0
  0
VERTEX
  5
C55
330
C29
100
AcDbEntity
  8
1
  6
DIVIDE
 62
     8
100
AcDbVertex
100
AcDb2dVertex
 10
3147.52
 20
1928.34
 30
0.0
  0
VERTEX
  5
C56
330
C29
100
AcDbEntity
  8
1
  6
DIVIDE
 62
     8
100
AcDbVertex
100
AcDb2dVertex
 10
3146.2
 20
1929.99
 30
0.0
  0
VERTEX
  5
C57
330
C29
100
AcDbEntity
  8
1
  6
DIVIDE
 62
     8
100
AcDbVertex
100
AcDb2dVertex
 10
3145.15
 20
1931.65
 30
0.0
  0
VERTEX
  5
C58
330
C29
100
AcDbEntity
  8
1
  6
DIVIDE
 62
     8
100
AcDbVertex
100
AcDb2dVertex
 10
3144.37
 20
1933.3
 30
0.0
  0
VERTEX
  5
C59
330
C29
100
AcDbEntity
  8
1
  6
DIVIDE
 62
     8
100
AcDbVertex
100
AcDb2dVertex
 10
3143.88
 20
1934.919999999999
 30
0.0
  0
VERTEX
  5
C5A
330
C29
100
AcDbEntity
  8
1
  6
DIVIDE
 62
     8
100
AcDbVertex
100
AcDb2dVertex
 10
3143.679999999999
 20
1936.469999999999
 30
0.0
  0
VERTEX
  5
C5B
330
C29
100
AcDbEntity
  8
1
  6
DIVIDE
 62
     8
100
AcDbVertex
100
AcDb2dVertex
 10
3143.79
 20
1937.94
 30
0.0
  0
VERTEX
  5
C5C
330
C29
100
AcDbEntity
  8
1
  6
DIVIDE
 62
     8
100
AcDbVertex
100
AcDb2dVertex
 10
3144.3
 20
1939.46
 30
0.0
  0
SEQEND
  5
C5D
330
C29
100
AcDbEntity
  8
1
 62
     8
  0
LINE
  5
C5E
330
19
100
AcDbEntity
  8
1
  6
DIVIDE
 62
     8
100
AcDbLine
 10
3239.23
 20
1839.64
 30
0.0
 11
3252.39
 21
1859.71
 31
0.0
  0
ARC
  5
C5F
330
19
100
AcDbEntity
  8
1
  6
DIVIDE
 62
     8
100
AcDbCircle
 10
3074.64
 20
1758.51
 30
0.0
 40
133.8449999999999
100
AcDbArc
 50
16.66949999999999
 51
52.03759999999999
  0
ARC
  5
C60
330
19
100
AcDbEntity
  8
1
  6
DIVIDE
 62
     8
100
AcDbCircle
 10
3074.64
 20
1758.51
 30
0.0
 40
138.8039999999999
100
AcDbArc
 50
16.8837
 51
52.30330000000001
  0
LWPOLYLINE
  5
C61
330
19
100
AcDbEntity
  8
1
  6
DIVIDE
 62
     8
100
AcDbPolyline
 90
        4
 70
     0
 43
0.0
 10
3183.48
 20
1904.9
 10
3155.21
 20
1861.79
 10
3136.3
 20
1874.19
 10
3164.57
 20
1917.3
  0
CIRCLE
  5
C67
330
19
100
AcDbEntity
  8
1
  6
DIVIDE
 62
     8
100
AcDbCircle
 10
3206.6
 20
1794.41
 30
0.0
 40
4.50255
  0
LINE
  5
C68
330
19
100
AcDbEntity
  8
1
  6
DIVIDE
 62
     8
100
AcDbLine
 10
3123.24
 20
1838.69
 30
0.0
 11
3100.659999999999
 21
1861.12
 31
0.0
  0
CIRCLE
  5
C69
330
19
100
AcDbEntity
  8
1
  6
DIVIDE
 62
     8
100
AcDbCircle
 10
3083.84
 20
1858.1
 30
0.0
 40
12.0
  0
ARC
  5
C6A
330
19
100
AcDbEntity
  8
1
  6
DIVIDE
 62
     8
100
AcDbCircle
 10
3083.84
 20
1858.1
 30
0.0
 40
14.0
100
AcDbArc
 50
124.177
 51
6.18271
  0
LINE
  5
C6B
330
19
100
AcDbEntity
  8
1
  6
DIVIDE
 62
     8
100
AcDbLine
 10
3252.39
 20
1859.71
 30
0.0
 11
3160.02
 21
1920.279999999999
 31
0.0
  0
ARC
  5
C6C
330
19
100
AcDbEntity
  8
1
  6
DIVIDE
 62
     8
100
AcDbCircle
 10
3133.7
 20
1880.14
 30
0.0
 40
48.0
100
AcDbArc
 50
56.7447
 51
155.18
  0
LINE
  5
C6D
330
19
100
AcDbEntity
  8
1
  6
DIVIDE
 62
     8
100
AcDbLine
 10
3072.95
 20
1863.14
 30
0.0
 11
3090.139999999999
 21
1900.29
 31
0.0
  0
LINE
  5
C6E
330
19
100
AcDbEntity
  8
1
  6
DIVIDE
 62
     8
100
AcDbLine
 10
3239.23
 20
1839.64
 30
0.0
 11
3146.86
 21
1900.21
 31
0.0
  0
ARC
  5
C6F
330
19
100
AcDbEntity
  8
1
  6
DIVIDE
 62
     8
100
AcDbCircle
 10
3133.7
 20
1880.14
 30
0.0
 40
24.0
100
AcDbArc
 50
56.7447
 51
155.18
  0
LINE
  5
C70
330
19
100
AcDbEntity
  8
1
  6
DIVIDE
 62
     8
100
AcDbLine
 10
3094.73
 20
1853.06
 30
0.0
 11
3111.92
 21
1890.22
 31
0.0
  0
LINE
  5
C71
330
19
100
AcDbEntity
  8
1
  6
DIVIDE
 62
     8
100
AcDbLine
 10
3420.28
 20
1445.7
 30
0.0
 11
3455.68
 21
1481.32
 31
0.0
  0
LINE
  5
C72
330
19
100
AcDbEntity
  8
1
  6
DIVIDE
 62
     8
100
AcDbLine
 10
3438.73
 20
1427.369999999999
 30
0.0
 11
3478.02
 21
1466.92
 31
0.0
  0
ARC
  5
C73
330
19
100
AcDbEntity
  8
1
  6
DIVIDE
 62
     8
100
AcDbCircle
 10
3386.26
 20
1564.45
 30
0.0
 40
20.0
100
AcDbArc
 50
65.18
 51
135.18
  0
LWPOLYLINE
  5
C74
330
19
100
AcDbEntity
  8
1
  6
DIVIDE
 62
     8
100
AcDbPolyline
 90
        6
 70
     0
 43
0.0
 10
3372.07
 20
1578.54
 10
3359.44
 20
1565.83
 10
3465.469999999999
 20
1472.719999999999
 10
3510.85
 20
1451.74
 10
3604.719999999999
 20
1457.1
 10
3607.12
 20
1462.299999999999
  0
LINE
  5
C7C
330
19
100
AcDbEntity
  8
1
  6
DIVIDE
 62
     8
100
AcDbLine
 10
3597.36
 20
1488.85
 30
0.0
 11
3394.65
 21
1582.6
 31
0.0
  0
ARC
  5
C7D
330
19
100
AcDbEntity
  8
1
  6
DIVIDE
 62
     8
100
AcDbCircle
 10
3588.969999999999
 20
1470.69
 30
0.0
 40
20.0
100
AcDbArc
 50
335.18
 51
65.18
  0
LWPOLYLINE
  5
C7E
330
19
100
AcDbEntity
  8
1
  6
DIVIDE
 62
     8
100
AcDbPolyline
 90
       10
 70
     0
 43
0.0
 10
3568.48
 20
1453.619999999999
 10
3587.3
 20
1429.31
 10
3550.67
 20
1448.85
 10
3578.989999999999
 20
1420.72
 10
3543.789999999999
 20
1439.599999999999
 10
3567.19
 20
1411.44
 10
3533.12
 20
1431.53
 10
3555.12
 20
1402.849999999999
 10
3525.94
 20
1412.88
 10
3489.41
 20
1455.79
  0
LINE
  5
C8A
330
19
100
AcDbEntity
  8
1
  6
DIVIDE
 62
     8
100
AcDbLine
 10
3621.399999999999
 20
855.865
 30
0.0
 11
3710.83
 21
767.0010000000001
 31
0.0
  0
CIRCLE
  5
C8B
330
19
100
AcDbEntity
  8
1
  6
DIVIDE
 62
     8
100
AcDbCircle
 10
3519.31
 20
957.319
 30
0.0
 40
15.0
  0
CIRCLE
  5
C8C
330
19
100
AcDbEntity
  8
1
  6
DIVIDE
 62
     8
100
AcDbCircle
 10
3520.519999999999
 20
986.2199999999999
 30
0.0
 40
7.0
  0
LINE
  5
C8D
330
19
100
AcDbEntity
  8
1
  6
DIVIDE
 62
     8
100
AcDbLine
 10
3527.4
 20
987.5049999999999
 30
0.0
 11
3448.22
 21
1411.45
 31
0.0
  0
LINE
  5
C8E
330
19
100
AcDbEntity
  8
1
  6
DIVIDE
 62
     8
100
AcDbLine
 10
3434.46
 20
1408.88
 30
0.0
 11
3513.64
 21
984.9349999999999
 31
0.0
  0
LINE
  5
C8F
330
19
100
AcDbEntity
  8
1
  6
DIVIDE
 62
     8
100
AcDbLine
 10
3533.89
 20
960.861
 30
0.0
 11
3527.32
 21
987.873
 31
0.0
  0
LINE
  5
C90
330
19
100
AcDbEntity
  8
1
  6
DIVIDE
 62
     8
100
AcDbLine
 10
3500.79
 20
974.8219999999999
 30
0.0
 11
3515.33
 21
990.9130000000001
 31
0.0
  0
LINE
  5
C91
330
19
100
AcDbEntity
  8
1
  6
DIVIDE
 62
     8
100
AcDbLine
 10
3521.16
 20
1020.92
 30
0.0
 11
3545.79
 21
1008.07
 31
0.0
  0
LINE
  5
C92
330
19
100
AcDbEntity
  8
1
  6
DIVIDE
 62
     8
100
AcDbLine
 10
3576.36
 20
952.5089999999998
 30
0.0
 11
3788.349999999999
 21
934.632
 31
0.0
  0
LINE
  5
C93
330
19
100
AcDbEntity
  8
1
  6
DIVIDE
 62
     8
100
AcDbLine
 10
3574.56
 20
972.31
 30
0.0
 11
3779.889999999999
 21
1028.02
 31
0.0
  0
LINE
  5
C94
330
19
100
AcDbEntity
  8
1
  6
DIVIDE
 62
     8
100
AcDbLine
 10
3552.0
 20
1004.31
 30
0.0
 11
3673.48
 21
1178.97
 31
0.0
  0
LINE
  5
C95
330
19
100
AcDbEntity
  8
1
  6
DIVIDE
 62
     8
100
AcDbLine
 10
3534.32
 20
1014.049999999999
 30
0.0
 11
3588.369999999999
 21
1218.329999999999
 31
0.0
  0
LINE
  5
C96
330
19
100
AcDbEntity
  8
1
  6
DIVIDE
 62
     8
100
AcDbLine
 10
3504.67
 20
902.003
 30
0.0
 11
3450.25
 21
696.301
 31
0.0
  0
LINE
  5
C97
330
19
100
AcDbEntity
  8
1
  6
DIVIDE
 62
     8
100
AcDbLine
 10
3524.48
 20
900.3049999999999
 30
0.0
 11
3543.69
 21
688.422
 31
0.0
  0
LINE
  5
C98
330
19
100
AcDbEntity
  8
1
  6
DIVIDE
 62
     8
100
AcDbLine
 10
3571.27
 20
933.2880000000001
 30
0.0
 11
3764.37
 21
843.9819999999999
 31
0.0
  0
LINE
  5
C99
330
19
100
AcDbEntity
  8
1
  6
DIVIDE
 62
     8
100
AcDbLine
 10
3484.1
 20
906.691
 30
0.0
 11
3365.14
 21
735.663
 31
0.0
  0
LINE
  5
C9A
330
19
100
AcDbEntity
  8
1
  6
DIVIDE
 62
     8
100
AcDbLine
 10
3512.99
 20
970.3139999999999
 30
0.0
 11
3192.63
 21
1088.64
 31
0.0
  0
LINE
  5
C9B
330
19
100
AcDbEntity
  8
1
  6
DIVIDE
 62
     8
100
AcDbLine
 10
3506.06
 20
951.553
 30
0.0
 11
3185.7
 21
1069.88
 31
0.0
  0
ARC
  5
C9C
330
19
100
AcDbEntity
  8
1
  6
DIVIDE
 62
     8
100
AcDbCircle
 10
3519.31
 20
957.319
 30
0.0
 40
40.0
100
AcDbArc
 50
101.2999999999999
 51
145.25
  0
LINE
  5
C9D
330
19
100
AcDbEntity
  8
1
  6
DIVIDE
 62
     8
100
AcDbLine
 10
3566.1
 20
990.3029999999999
 30
0.0
 11
3739.989999999999
 21
1112.869999999999
 31
0.0
  0
LINE
  5
C9E
330
19
100
AcDbEntity
  8
1
  6
DIVIDE
 62
     8
100
AcDbLine
 10
3506.44
 20
901.5360000000001
 30
0.0
 11
3079.82
 21
999.966
 31
0.0
  0
LINE
  5
C9F
330
19
100
AcDbEntity
  8
1
  6
DIVIDE
 62
     8
100
AcDbLine
 10
3539.75
 20
914.192
 30
0.0
 11
3816.3
 21
755.682
 31
0.0
  0
LINE
  5
CA0
330
19
100
AcDbEntity
  8
1
  6
DIVIDE
 62
     8
100
AcDbLine
 10
3811.33
 20
747.0060000000001
 30
0.0
 11
3534.78
 21
905.516
 31
0.0
  0
CIRCLE
  5
CA1
330
19
100
AcDbEntity
  8
1
  6
DIVIDE
 62
     8
100
AcDbCircle
 10
3531.85
 20
912.959
 30
0.0
 40
8.0
  0
LWPOLYLINE
  5
CA2
330
19
100
AcDbEntity
  8
1
  6
DIVIDE
 62
     8
100
AcDbPolyline
 90
        3
 70
     0
 43
0.0
 10
3491.34
 20
920.6739999999999
 10
3545.8
 20
895.4880000000001
 10
3547.16
 20
898.4199999999999
  0
LINE
  5
CA7
330
19
100
AcDbEntity
  8
1
  6
DIVIDE
 62
     8
100
AcDbLine
 10
3551.37
 20
907.5309999999999
 30
0.0
 11
3560.49
 21
927.255
 31
0.0
  0
LINE
  5
CA8
330
19
100
AcDbEntity
  8
1
  6
DIVIDE
 62
     8
100
AcDbLine
 10
3534.71
 20
970.0830000000001
 30
0.0
 11
3753.989999999999
 21
1242.75
 31
0.0
  0
LINE
  5
CA9
330
19
100
AcDbEntity
  8
1
  6
DIVIDE
 62
     8
100
AcDbLine
 10
3529.97
 20
976.9630000000001
 30
0.0
 11
3746.51
 21
1246.21
 31
0.0
  0
ARC
  5
CAA
330
19
100
AcDbEntity
  8
1
  6
DIVIDE
 62
     8
100
AcDbCircle
 10
3495.54
 20
929.7499999999999
 30
0.0
 40
10.0
100
AcDbArc
 50
155.18
 51
245.1799999999999
  0
ARC
  5
CAB
330
19
100
AcDbEntity
  8
1
  6
DIVIDE
 62
     8
100
AcDbCircle
 10
3519.31
 20
957.319
 30
0.0
 40
40.0
100
AcDbArc
 50
174.205
 51
215.4349999999999
  0
LINE
  5
CAC
330
19
100
AcDbEntity
  8
1
  6
DIVIDE
 62
     8
100
AcDbLine
 10
3496.28
 20
955.166
 30
0.0
 11
3486.46
 21
933.948
 31
0.0
  0
ARC
  5
CAD
330
19
100
AcDbEntity
  8
1
  6
DIVIDE
 62
     8
100
AcDbCircle
 10
3519.31
 20
957.319
 30
0.0
 40
57.24849999999999
100
AcDbArc
 50
255.18
 51
283.362
  0
LINE
  5
CAE
330
19
100
AcDbEntity
  8
1
  6
DIVIDE
 62
     8
100
AcDbLine
 10
3547.03
 20
898.36
 30
0.0
 11
3634.18
 21
712.976
 31
0.0
  0
LINE
  5
CAF
330
19
100
AcDbEntity
  8
1
  6
DIVIDE
 62
     8
100
AcDbLine
 10
3559.92
 20
916.966
 30
0.0
 11
3594.0
 21
883.0989999999999
 31
0.0
  0
LINE
  5
CB0
330
19
100
AcDbEntity
  8
1
  6
DIVIDE
 62
     8
100
AcDbLine
 10
3560.49
 20
927.255
 30
0.0
 11
3530.65
 21
977.36
 31
0.0
  0
ARC
  5
CB1
330
19
100
AcDbEntity
  8
1
  6
DIVIDE
 62
     8
100
AcDbCircle
 10
3519.31
 20
957.319
 30
0.0
 40
57.24849999999999
100
AcDbArc
 50
55.2005
 51
62.4478
  0
ARC
  5
CB2
330
19
100
AcDbEntity
  8
1
  6
DIVIDE
 62
     8
100
AcDbCircle
 10
3519.31
 20
957.319
 30
0.0
 40
57.24849999999999
100
AcDbArc
 50
306.034
 51
47.18739999999999
  0
ARC
  5
CB3
330
19
100
AcDbEntity
  8
1
  6
DIVIDE
 62
     8
100
AcDbCircle
 10
3519.31
 20
957.319
 30
0.0
 40
40.0
100
AcDbArc
 50
56.9331
 51
80.85980000000001
  0
ARC
  5
CB4
330
19
100
AcDbEntity
  8
1
  6
DIVIDE
 62
     8
100
AcDbCircle
 10
3519.31
 20
957.319
 30
0.0
 40
40.0
100
AcDbArc
 50
330.776
 51
45.4548
  0
ARC
  5
CB5
330
19
100
AcDbEntity
  8
1
  6
DIVIDE
 62
     8
100
AcDbCircle
 10
3519.31
 20
957.319
 30
0.0
 40
327.97
100
AcDbArc
 50
333.425
 51
50.49509999999999
  0
ARC
  5
CB6
330
19
100
AcDbEntity
  8
1
  6
DIVIDE
 62
     8
100
AcDbCircle
 10
3519.31
 20
957.319
 30
0.0
 40
304.8
100
AcDbArc
 50
51.9459
 51
98.04149999999999
  0
ARC
  5
CB7
330
19
100
AcDbEntity
  8
1
  6
DIVIDE
 62
     8
100
AcDbCircle
 10
3519.31
 20
957.319
 30
0.0
 40
270.0
100
AcDbArc
 50
52.0428
 51
97.71410000000003
  0
ARC
  5
CB8
330
19
100
AcDbEntity
  8
1
  6
DIVIDE
 62
     8
100
AcDbCircle
 10
3519.31
 20
957.319
 30
0.0
 40
304.8
100
AcDbArc
 50
325.05
 51
50.442
  0
ARC
  5
CB9
330
19
100
AcDbEntity
  8
1
  6
DIVIDE
 62
     8
100
AcDbCircle
 10
3519.31
 20
957.319
 30
0.0
 40
304.8
100
AcDbArc
 50
177.8329999999999
 51
323.159
  0
ARC
  5
CBA
330
19
100
AcDbEntity
  8
1
  6
DIVIDE
 62
     8
100
AcDbCircle
 10
3519.31
 20
957.319
 30
0.0
 40
270.0
100
AcDbArc
 50
324.387
 51
50.3451
  0
ARC
  5
CBB
330
19
100
AcDbEntity
  8
1
  6
DIVIDE
 62
     8
100
AcDbCircle
 10
3519.31
 20
957.319
 30
0.0
 40
270.0
100
AcDbArc
 50
179.249
 51
322.249
  0
ARC
  5
CBC
330
19
100
AcDbEntity
  8
1
  6
DIVIDE
 62
     8
100
AcDbCircle
 10
3519.31
 20
957.319
 30
0.0
 40
327.97
100
AcDbArc
 50
100.6669999999999
 51
142.395
  0
ARC
  5
CBD
330
19
100
AcDbEntity
  8
1
  6
DIVIDE
 62
     8
100
AcDbCircle
 10
3519.31
 20
957.319
 30
0.0
 40
327.97
100
AcDbArc
 50
51.8927
 51
98.22090000000001
  0
POINT
  5
CBE
330
19
100
AcDbEntity
  8
1
 62
     8
100
AcDbPoint
 10
3132.76
 20
1957.13
 30
0.0
  0
POINT
  5
CBF
330
19
100
AcDbEntity
  8
1
 62
     8
100
AcDbPoint
 10
3391.36
 20
680.6729999999999
 30
0.0
  0
ARC
  5
CC0
330
19
100
AcDbEntity
  8
1
  6
DIVIDE
 62
     8
100
AcDbCircle
 10
3519.31
 20
957.319
 30
0.0
 40
278.161
100
AcDbArc
 50
100.6829999999999
 51
140.5699999999999
  0
ARC
  5
CC1
330
19
100
AcDbEntity
  8
1
  6
DIVIDE
 62
     8
100
AcDbCircle
 10
3519.31
 20
957.319
 30
0.0
 40
278.161
100
AcDbArc
 50
52.01789999999999
 51
97.7982
  0
ARC
  5
CC2
330
19
100
AcDbEntity
  8
1
  6
DIVIDE
 62
     8
100
AcDbCircle
 10
3519.31
 20
957.319
 30
0.0
 40
278.161
100
AcDbArc
 50
324.557
 51
50.36999999999999
  0
ARC
  5
CC3
330
19
100
AcDbEntity
  8
1
  6
DIVIDE
 62
     8
100
AcDbCircle
 10
3519.31
 20
957.319
 30
0.0
 40
278.161
100
AcDbArc
 50
178.885
 51
322.483
  0
ARC
  5
CC4
330
19
100
AcDbEntity
  8
1
  6
DIVIDE
 62
     8
100
AcDbCircle
 10
2584.45
 20
1389.68
 30
0.0
 40
278.161
100
AcDbArc
 50
307.7049999999999
 51
31.4467
  0
ARC
  5
CC5
330
19
100
AcDbEntity
  8
1
  6
DIVIDE
 62
     8
100
AcDbCircle
 10
2584.45
 20
1389.68
 30
0.0
 40
270.0
100
AcDbArc
 50
307.216
 51
31.085
  0
LINE
  5
CC6
330
19
100
AcDbEntity
  8
1
  6
DIVIDE
 62
     8
100
AcDbLine
 10
2589.31
 20
1379.34
 30
0.0
 11
2683.96
 21
1178.02
 31
0.0
  0
LINE
  5
CC7
330
19
100
AcDbEntity
  8
1
  6
DIVIDE
 62
     8
100
AcDbLine
 10
2688.32
 20
1168.749999999999
 30
0.0
 11
2699.32
 21
1145.329999999999
 31
0.0
  0
ARC
  5
CC8
330
19
100
AcDbEntity
  8
1
  6
DIVIDE
 62
     8
100
AcDbCircle
 10
2584.45
 20
1389.68
 30
0.0
 40
270.0
100
AcDbArc
 50
285.802
 51
304.9929999999999
  0
ARC
  5
CC9
330
19
100
AcDbEntity
  8
1
  6
DIVIDE
 62
     8
100
AcDbCircle
 10
2584.45
 20
1389.68
 30
0.0
 40
278.161
100
AcDbArc
 50
283.674
 51
305.553
  0
ARC
  5
CCA
330
19
100
AcDbEntity
  8
1
  6
DIVIDE
 62
     8
100
AcDbCircle
 10
2584.45
 20
1389.68
 30
0.0
 40
304.8
100
AcDbArc
 50
309.2719999999999
 51
32.4898
  0
ARC
  5
CCB
330
19
100
AcDbEntity
  8
1
  6
DIVIDE
 62
     8
100
AcDbCircle
 10
2584.45
 20
1389.68
 30
0.0
 40
304.8
100
AcDbArc
 50
277.99
 51
307.164
  0
POINT
  5
CCC
330
19
100
AcDbEntity
  8
1
 62
     8
100
AcDbPoint
 10
2378.369999999999
 20
1165.1
 30
0.0
  0
ARC
  5
CCD
330
19
100
AcDbEntity
  8
1
  6
DIVIDE
 62
     8
100
AcDbCircle
 10
2584.45
 20
1389.68
 30
0.0
 40
304.8
100
AcDbArc
 50
37.59530000000001
 51
195.274
  0
ARC
  5
CCE
330
19
100
AcDbEntity
  8
1
  6
DIVIDE
 62
     8
100
AcDbCircle
 10
2584.45
 20
1389.68
 30
0.0
 40
278.161
100
AcDbArc
 50
253.307
 51
280.5559999999999
  0
ARC
  5
CCF
330
19
100
AcDbEntity
  8
1
  6
DIVIDE
 62
     8
100
AcDbCircle
 10
2584.45
 20
1389.68
 30
0.0
 40
270.0
100
AcDbArc
 50
249.1319999999999
 51
282.454
  0
LINE
  5
CD0
330
19
100
AcDbEntity
  8
1
  6
DIVIDE
 62
     8
100
AcDbLine
 10
2577.93
 20
1380.3
 30
0.0
 11
2438.85
 21
1180.35
 31
0.0
  0
LINE
  5
CD1
330
19
100
AcDbEntity
  8
1
  6
DIVIDE
 62
     8
100
AcDbLine
 10
2575.11
 20
1383.099999999999
 30
0.0
 11
2371.07
 21
1239.27
 31
0.0
  0
ARC
  5
CD2
330
19
100
AcDbEntity
  8
1
  6
DIVIDE
 62
     8
100
AcDbCircle
 10
2584.45
 20
1389.68
 30
0.0
 40
270.0
100
AcDbArc
 50
36.35329999999999
 51
208.867
  0
ARC
  5
CD3
330
19
100
AcDbEntity
  8
1
  6
DIVIDE
 62
     8
100
AcDbCircle
 10
2584.45
 20
1389.68
 30
0.0
 40
278.161
100
AcDbArc
 50
36.67289999999999
 51
204.692
  0
CIRCLE
  5
CD4
330
19
100
AcDbEntity
  8
1
  6
DIVIDE
 62
     8
100
AcDbCircle
 10
3813.81
 20
751.3439999999999
 30
0.0
 40
5.0
  0
ARC
  5
CD5
330
19
100
AcDbEntity
  8
1
  6
DIVIDE
 62
     8
100
AcDbCircle
 10
2584.45
 20
1389.68
 30
0.0
 40
304.8
100
AcDbArc
 50
262.725
 51
275.409
  0
LINE
  5
CD6
330
19
100
AcDbEntity
  8
1
  6
Continuous
 62
     3
100
AcDbLine
 10
2586.05
 20
1084.88
 30
0.0
 11
2410.88
 21
1084.88
 31
0.0
  0
TEXT
  5
CD7
330
19
100
AcDbEntity
  8
1
 62
     3
100
AcDbText
 10
2312.17
 20
661.4559999999999
 30
0.0
 40
40.0
  1
床面
100
AcDbText
  0
LINE
  5
CD8
330
19
100
AcDbEntity
  8
1
  6
Continuous
 62
     3
100
AcDbLine
 10
682.6649999999999
 20
584.8889999999999
 30
0.0
 11
682.6649999999999
 21
455.827
 31
0.0
  0
LINE
  5
CD9
330
19
100
AcDbEntity
  8
1
  6
Continuous
 62
     3
100
AcDbLine
 10
612.6649999999999
 20
455.827
 30
0.0
 11
612.6649999999999
 21
616.901
 31
0.0
  0
LINE
  5
CDA
330
19
100
AcDbEntity
  8
1
  6
Continuous
 62
     3
100
AcDbLine
 10
612.6649999999999
 20
475.827
 30
0.0
 11
682.6649999999999
 21
475.827
 31
0.0
  0
LINE
  5
CDB
330
19
100
AcDbEntity
  8
1
  6
Continuous
 62
     3
100
AcDbLine
 10
612.6649999999999
 20
475.827
 30
0.0
 11
632.6649999999999
 21
472.2999999999999
 31
0.0
  0
LINE
  5
CDC
330
19
100
AcDbEntity
  8
1
  6
Continuous
 62
     3
100
AcDbLine
 10
612.6649999999999
 20
475.827
 30
0.0
 11
632.6649999999999
 21
479.353
 31
0.0
  0
LINE
  5
CDD
330
19
100
AcDbEntity
  8
1
  6
Continuous
 62
     3
100
AcDbLine
 10
682.6649999999999
 20
475.827
 30
0.0
 11
662.6649999999999
 21
479.353
 31
0.0
  0
LINE
  5
CDE
330
19
100
AcDbEntity
  8
1
  6
Continuous
 62
     3
100
AcDbLine
 10
682.6649999999999
 20
475.827
 30
0.0
 11
662.6649999999999
 21
472.2999999999999
 31
0.0
  0
TEXT
  5
CDF
330
19
100
AcDbEntity
  8
1
 62
     3
100
AcDbText
 10
619.6649999999999
 20
475.827
 30
0.0
 40
40.0
  1
７０
 41
0.7
100
AcDbText
  0
LINE
  5
CE0
330
19
100
AcDbEntity
  8
1
  6
Continuous
 62
     3
100
AcDbLine
 10
832.6649999999998
 20
616.901
 30
0.0
 11
832.6649999999998
 21
455.827
 31
0.0
  0
LINE
  5
CE1
330
19
100
AcDbEntity
  8
1
  6
Continuous
 62
     3
100
AcDbLine
 10
682.6649999999999
 20
455.827
 30
0.0
 11
682.6649999999999
 21
584.8889999999999
 31
0.0
  0
LINE
  5
CE2
330
19
100
AcDbEntity
  8
1
  6
Continuous
 62
     3
100
AcDbLine
 10
682.6649999999999
 20
475.827
 30
0.0
 11
832.6649999999998
 21
475.827
 31
0.0
  0
LINE
  5
CE3
330
19
100
AcDbEntity
  8
1
  6
Continuous
 62
     3
100
AcDbLine
 10
682.6649999999999
 20
475.827
 30
0.0
 11
702.665
 21
472.2999999999999
 31
0.0
  0
LINE
  5
CE4
330
19
100
AcDbEntity
  8
1
  6
Continuous
 62
     3
100
AcDbLine
 10
682.6649999999999
 20
475.827
 30
0.0
 11
702.665
 21
479.353
 31
0.0
  0
LINE
  5
CE5
330
19
100
AcDbEntity
  8
1
  6
Continuous
 62
     3
100
AcDbLine
 10
832.6649999999998
 20
475.827
 30
0.0
 11
812.6649999999999
 21
479.353
 31
0.0
  0
LINE
  5
CE6
330
19
100
AcDbEntity
  8
1
  6
Continuous
 62
     3
100
AcDbLine
 10
832.6649999999998
 20
475.827
 30
0.0
 11
812.6649999999999
 21
472.2999999999999
 31
0.0
  0
TEXT
  5
CE7
330
19
100
AcDbEntity
  8
1
 62
     3
100
AcDbText
 10
715.6649999999999
 20
475.827
 30
0.0
 40
40.0
  1
１５０
 41
0.7
100
AcDbText
  0
LINE
  5
CE8
330
19
100
AcDbEntity
  8
1
  6
Continuous
 62
     3
100
AcDbLine
 10
343.3949999999999
 20
1912.32
 30
0.0
 11
256.7499999999999
 21
1912.32
 31
0.0
  0
LINE
  5
CE9
330
19
100
AcDbEntity
  8
1
  6
Continuous
 62
     3
100
AcDbLine
 10
256.7499999999999
 20
652.321
 30
0.0
 11
382.665
 21
652.321
 31
0.0
  0
LINE
  5
CEA
330
19
100
AcDbEntity
  8
1
  6
Continuous
 62
     3
100
AcDbLine
 10
276.75
 20
652.321
 30
0.0
 11
276.75
 21
1912.32
 31
0.0
  0
LINE
  5
CEB
330
19
100
AcDbEntity
  8
1
  6
Continuous
 62
     3
100
AcDbLine
 10
276.75
 20
652.321
 30
0.0
 11
280.276
 21
672.321
 31
0.0
  0
LINE
  5
CEC
330
19
100
AcDbEntity
  8
1
  6
Continuous
 62
     3
100
AcDbLine
 10
276.75
 20
652.321
 30
0.0
 11
273.223
 21
672.321
 31
0.0
  0
LINE
  5
CED
330
19
100
AcDbEntity
  8
1
  6
Continuous
 62
     3
100
AcDbLine
 10
276.75
 20
1912.32
 30
0.0
 11
273.223
 21
1892.32
 31
0.0
  0
LINE
  5
CEE
330
19
100
AcDbEntity
  8
1
  6
Continuous
 62
     3
100
AcDbLine
 10
276.75
 20
1912.32
 30
0.0
 11
280.276
 21
1892.32
 31
0.0
  0
TEXT
  5
CEF
330
19
100
AcDbEntity
  8
1
 62
     3
100
AcDbText
 10
276.75
 20
1226.32
 30
0.0
 40
40.0
  1
１２６０
 50
90.0
 41
0.7
100
AcDbText
  0
LINE
  5
CF0
330
19
100
AcDbEntity
  8
1
  6
Continuous
 62
     3
100
AcDbLine
 10
337.2049999999999
 20
2188.32
 30
0.0
 11
256.7499999999999
 21
2188.32
 31
0.0
  0
LINE
  5
CF1
330
19
100
AcDbEntity
  8
1
  6
Continuous
 62
     3
100
AcDbLine
 10
256.7499999999999
 20
1912.32
 30
0.0
 11
343.3949999999999
 21
1912.32
 31
0.0
  0
LINE
  5
CF2
330
19
100
AcDbEntity
  8
1
  6
Continuous
 62
     3
100
AcDbLine
 10
276.75
 20
1912.32
 30
0.0
 11
276.75
 21
2188.32
 31
0.0
  0
LINE
  5
CF3
330
19
100
AcDbEntity
  8
1
  6
Continuous
 62
     3
100
AcDbLine
 10
276.75
 20
1912.32
 30
0.0
 11
280.276
 21
1932.319999999999
 31
0.0
  0
LINE
  5
CF4
330
19
100
AcDbEntity
  8
1
  6
Continuous
 62
     3
100
AcDbLine
 10
276.75
 20
1912.32
 30
0.0
 11
273.223
 21
1932.319999999999
 31
0.0
  0
LINE
  5
CF5
330
19
100
AcDbEntity
  8
1
  6
Continuous
 62
     3
100
AcDbLine
 10
276.75
 20
2188.32
 30
0.0
 11
273.223
 21
2168.32
 31
0.0
  0
LINE
  5
CF6
330
19
100
AcDbEntity
  8
1
  6
Continuous
 62
     3
100
AcDbLine
 10
276.75
 20
2188.32
 30
0.0
 11
280.276
 21
2168.32
 31
0.0
  0
TEXT
  5
CF7
330
19
100
AcDbEntity
  8
1
 62
     3
100
AcDbText
 10
276.75
 20
2008.32
 30
0.0
 40
40.0
  1
２７６
 50
90.0
 41
0.7
100
AcDbText
  0
LINE
  5
CF8
330
19
100
AcDbEntity
  8
1
  6
Continuous
 62
     3
100
AcDbLine
 10
382.665
 20
3252.32
 30
0.0
 11
175.75
 21
3252.32
 31
0.0
  0
LINE
  5
CF9
330
19
100
AcDbEntity
  8
1
  6
Continuous
 62
     3
100
AcDbLine
 10
175.75
 20
652.321
 30
0.0
 11
382.665
 21
652.321
 31
0.0
  0
LINE
  5
CFA
330
19
100
AcDbEntity
  8
1
  6
Continuous
 62
     3
100
AcDbLine
 10
195.7499999999999
 20
652.321
 30
0.0
 11
195.7499999999999
 21
3252.32
 31
0.0
  0
LINE
  5
CFB
330
19
100
AcDbEntity
  8
1
  6
Continuous
 62
     3
100
AcDbLine
 10
195.7499999999999
 20
652.321
 30
0.0
 11
199.2759999999999
 21
672.321
 31
0.0
  0
LINE
  5
CFC
330
19
100
AcDbEntity
  8
1
  6
Continuous
 62
     3
100
AcDbLine
 10
195.7499999999999
 20
652.321
 30
0.0
 11
192.2229999999999
 21
672.321
 31
0.0
  0
LINE
  5
CFD
330
19
100
AcDbEntity
  8
1
  6
Continuous
 62
     3
100
AcDbLine
 10
195.7499999999999
 20
3252.32
 30
0.0
 11
192.2229999999999
 21
3232.32
 31
0.0
  0
LINE
  5
CFE
330
19
100
AcDbEntity
  8
1
  6
Continuous
 62
     3
100
AcDbLine
 10
195.7499999999999
 20
3252.32
 30
0.0
 11
199.2759999999999
 21
3232.32
 31
0.0
  0
TEXT
  5
CFF
330
19
100
AcDbEntity
  8
1
 62
     3
100
AcDbText
 10
195.7499999999999
 20
1868.319999999999
 30
0.0
 40
40.0
  1
２６００以上
 50
90.0
 41
0.7
100
AcDbText
  0
LINE
  5
D00
330
19
100
AcDbEntity
  8
1
  6
Continuous
 62
     3
100
AcDbLine
 10
3982.66
 20
3052.32
 30
0.0
 11
4191.5
 21
3052.32
 31
0.0
  0
LINE
  5
D01
330
19
100
AcDbEntity
  8
1
  6
Continuous
 62
     3
100
AcDbLine
 10
4191.5
 20
652.321
 30
0.0
 11
3982.66
 21
652.321
 31
0.0
  0
LINE
  5
D02
330
19
100
AcDbEntity
  8
1
  6
Continuous
 62
     3
100
AcDbLine
 10
4171.5
 20
652.321
 30
0.0
 11
4171.5
 21
3052.32
 31
0.0
  0
LINE
  5
D03
330
19
100
AcDbEntity
  8
1
  6
Continuous
 62
     3
100
AcDbLine
 10
4171.5
 20
652.321
 30
0.0
 11
4175.02
 21
672.321
 31
0.0
  0
LINE
  5
D04
330
19
100
AcDbEntity
  8
1
  6
Continuous
 62
     3
100
AcDbLine
 10
4171.5
 20
652.321
 30
0.0
 11
4167.97
 21
672.321
 31
0.0
  0
LINE
  5
D05
330
19
100
AcDbEntity
  8
1
  6
Continuous
 62
     3
100
AcDbLine
 10
4171.5
 20
3052.32
 30
0.0
 11
4167.97
 21
3032.32
 31
0.0
  0
LINE
  5
D06
330
19
100
AcDbEntity
  8
1
  6
Continuous
 62
     3
100
AcDbLine
 10
4171.5
 20
3052.32
 30
0.0
 11
4175.02
 21
3032.32
 31
0.0
  0
TEXT
  5
D07
330
19
100
AcDbEntity
  8
1
 62
     3
100
AcDbText
 10
4171.5
 20
1768.32
 30
0.0
 40
40.0
  1
２４００以上
 50
90.0
 41
0.7
100
AcDbText
  0
TEXT
  5
D08
330
19
100
AcDbEntity
  8
1
 62
     3
100
AcDbText
 10
3082.64
 20
3102.4
 30
0.0
 40
40.0
  1
通路幅
100
AcDbText
  0
TEXT
  5
D09
330
19
100
AcDbEntity
  8
1
 62
     3
100
AcDbText
 10
4043.68
 20
2320.46
 30
0.0
 40
40.0
  1
境界面（壁等）
 50
90.0
100
AcDbText
  0
TEXT
  5
D0A
330
19
100
AcDbEntity
  8
1
 62
     3
100
AcDbText
 10
4460.68
 20
664.7039999999999
 30
0.0
 40
40.0
  1
ＦＬ±０
100
AcDbText
  0
ARC
  5
D0B
330
19
100
AcDbEntity
  8
1
  6
Continuous
 62
     8
100
AcDbCircle
 10
1827.88
 20
976.697
 30
0.0
 40
304.8
100
AcDbArc
 50
288.5129999999999
 51
340.979
  0
LINE
  5
D0C
330
19
100
AcDbEntity
  8
1
  6
Continuous
 62
     8
100
AcDbLine
 10
4896.460000000001
 20
1634.13
 30
0.0
 11
4943.72
 21
1696.099999999999
 31
0.0
  0
LINE
  5
D0D
330
19
100
AcDbEntity
  8
1
  6
Continuous
 62
     8
100
AcDbLine
 10
4915.420000000001
 20
1619.42
 30
0.0
 11
4959.53
 21
1676.77
 31
0.0
  0
LWPOLYLINE
  5
D0E
330
19
100
AcDbEntity
  8
1
  6
Continuous
 62
     8
100
AcDbPolyline
 90
        5
 70
     0
 43
0.0
 10
4655.54
 20
1344.7
 10
4655.54
 20
1334.7
 10
4855.54
 20
1334.7
 10
4855.54
 20
1344.7
 10
4655.54
 20
1344.7
  0
LINE
  5
D15
330
19
100
AcDbEntity
  8
1
  6
Continuous
 62
     8
100
AcDbLine
 10
4855.54
 20
1334.7
 30
0.0
 11
4814.0
 21
987.1210000000001
 31
0.0
  0
LINE
  5
D16
330
19
100
AcDbEntity
  8
1
  6
Continuous
 62
     8
100
AcDbLine
 10
4655.54
 20
1334.7
 30
0.0
 11
4697.07
 21
987.1210000000001
 31
0.0
  0
ARC
  5
D17
330
19
100
AcDbEntity
  8
1
  6
Continuous
 62
     8
100
AcDbCircle
 10
4700.54
 20
1482.12
 30
0.0
 40
25.0
100
AcDbArc
 50
90.0
 51
180.0
  0
LWPOLYLINE
  5
D18
330
19
100
AcDbEntity
  8
1
  6
Continuous
 62
     8
100
AcDbPolyline
 90
        6
 70
     0
 43
0.0
 10
4675.54
 20
1482.12
 10
4675.54
 20
1463.55
 10
4740.54
 20
1437.12
 10
4770.539999999999
 20
1437.12
 10
4835.54
 20
1463.55
 10
4835.54
 20
1482.12
  0
LINE
  5
D20
330
19
100
AcDbEntity
  8
1
  6
Continuous
 62
     8
100
AcDbLine
 10
4810.54
 20
1507.12
 30
0.0
 11
4700.54
 21
1507.12
 31
0.0
  0
ARC
  5
D21
330
19
100
AcDbEntity
  8
1
  6
Continuous
 62
     8
100
AcDbCircle
 10
4810.54
 20
1482.12
 30
0.0
 40
25.0
100
AcDbArc
 50
0.0
 51
90.0
  0
ARC
  5
D22
330
19
100
AcDbEntity
  8
1
  6
Continuous
 62
     8
100
AcDbCircle
 10
4664.0
 20
1262.82
 30
0.0
 40
150.0
100
AcDbArc
 50
0.0
 51
28.41829999999999
  0
LINE
  5
D23
330
19
100
AcDbEntity
  8
1
  6
Continuous
 62
     8
100
AcDbLine
 10
4814.0
 20
987.1210000000001
 30
0.0
 11
4814.0
 21
1262.82
 31
0.0
  0
ARC
  5
D24
330
19
100
AcDbEntity
  8
1
  6
Continuous
 62
     8
100
AcDbCircle
 10
4674.0
 20
1265.349999999999
 30
0.0
 40
126.0
100
AcDbArc
 50
0.0
 51
28.41829999999999
  0
LINE
  5
D25
330
19
100
AcDbEntity
  8
1
  6
Continuous
 62
     8
100
AcDbLine
 10
4800.0
 20
1265.349999999999
 30
0.0
 11
4800.0
 21
987.1210000000001
 31
0.0
  0
ARC
  5
D26
330
19
100
AcDbEntity
  8
1
  6
Continuous
 62
     8
100
AcDbCircle
 10
4847.07
 20
1262.82
 30
0.0
 40
150.0
100
AcDbArc
 50
151.581
 51
180.0
  0
LINE
  5
D27
330
19
100
AcDbEntity
  8
1
  6
Continuous
 62
     8
100
AcDbLine
 10
4697.07
 20
987.1210000000001
 30
0.0
 11
4697.07
 21
1262.82
 31
0.0
  0
ARC
  5
D28
330
19
100
AcDbEntity
  8
1
  6
Continuous
 62
     8
100
AcDbCircle
 10
4837.07
 20
1265.349999999999
 30
0.0
 40
126.0
100
AcDbArc
 50
151.581
 51
180.0
  0
LINE
  5
D29
330
19
100
AcDbEntity
  8
1
  6
Continuous
 62
     8
100
AcDbLine
 10
4711.07
 20
1265.349999999999
 30
0.0
 11
4711.07
 21
987.1210000000001
 31
0.0
  0
ARC
  5
D2A
330
19
100
AcDbEntity
  8
1
  6
Continuous
 62
     8
100
AcDbCircle
 10
4755.539999999999
 20
1279.2
 30
0.0
 40
25.89059999999999
100
AcDbArc
 50
0.0
 51
180.0
  0
LINE
  5
D2B
330
19
100
AcDbEntity
  8
1
  6
Continuous
 62
     8
100
AcDbLine
 10
4781.43
 20
1279.2
 30
0.0
 11
4781.43
 21
1003.01
 31
0.0
  0
LINE
  5
D2C
330
19
100
AcDbEntity
  8
1
  6
Continuous
 62
     8
100
AcDbLine
 10
4729.64
 20
1279.2
 30
0.0
 11
4729.64
 21
1003.01
 31
0.0
  0
LWPOLYLINE
  5
D2D
330
19
100
AcDbEntity
  8
1
  6
Continuous
 62
     8
100
AcDbPolyline
 90
        4
 70
     0
 43
0.0
 10
4743.54
 20
1507.12
 10
4743.54
 20
1635.559999999999
 10
4767.54
 20
1635.559999999999
 10
4767.54
 20
1507.38
  0
LINE
  5
D33
330
19
100
AcDbEntity
  8
1
  6
Continuous
 62
     8
100
AcDbLine
 10
4875.79
 20
1599.9
 30
0.0
 11
4767.54
 21
1599.9
 31
0.0
  0
LINE
  5
D34
330
19
100
AcDbEntity
  8
1
  6
Continuous
 62
     8
100
AcDbLine
 10
4767.54
 20
1623.9
 30
0.0
 11
4875.79
 21
1623.9
 31
0.0
  0
ARC
  5
D35
330
19
100
AcDbEntity
  8
1
  6
Continuous
 62
     8
100
AcDbCircle
 10
4875.79
 20
1649.9
 30
0.0
 40
50.0
100
AcDbArc
 50
270.0
 51
322.434
  0
ARC
  5
D36
330
19
100
AcDbEntity
  8
1
  6
Continuous
 62
     8
100
AcDbCircle
 10
4875.79
 20
1649.9
 30
0.0
 40
26.0
100
AcDbArc
 50
270.0
 51
322.665
  0
LINE
  5
D37
330
19
100
AcDbEntity
  8
1
  6
Continuous
 62
     8
100
AcDbLine
 10
4635.279999999999
 20
1599.9
 30
0.0
 11
4743.54
 21
1599.9
 31
0.0
  0
LINE
  5
D38
330
19
100
AcDbEntity
  8
1
  6
Continuous
 62
     8
100
AcDbLine
 10
4743.54
 20
1623.9
 30
0.0
 11
4635.279999999999
 21
1623.9
 31
0.0
  0
LINE
  5
D39
330
19
100
AcDbEntity
  8
1
  6
Continuous
 62
     8
100
AcDbLine
 10
4595.65
 20
1619.42
 30
0.0
 11
4551.54
 21
1676.77
 31
0.0
  0
LINE
  5
D3A
330
19
100
AcDbEntity
  8
1
  6
Continuous
 62
     8
100
AcDbLine
 10
4614.609999999999
 20
1634.13
 30
0.0
 11
4567.35
 21
1696.099999999999
 31
0.0
  0
ARC
  5
D3B
330
19
100
AcDbEntity
  8
1
  6
Continuous
 62
     8
100
AcDbCircle
 10
4635.279999999999
 20
1649.9
 30
0.0
 40
50.0
100
AcDbArc
 50
217.565
 51
270.0
  0
ARC
  5
D3C
330
19
100
AcDbEntity
  8
1
  6
Continuous
 62
     8
100
AcDbCircle
 10
4635.279999999999
 20
1649.9
 30
0.0
 40
26.0
100
AcDbArc
 50
217.334
 51
270.0
  0
ARC
  5
D3D
330
19
100
AcDbEntity
  8
1
  6
Continuous
 62
     8
100
AcDbCircle
 10
4555.539999999999
 20
1162.47
 30
0.0
 40
10.0
100
AcDbArc
 50
90.0
 51
270.0
  0
LWPOLYLINE
  5
D3E
330
19
100
AcDbEntity
  8
1
  6
Continuous
 62
     8
100
AcDbPolyline
 90
        5
 70
     0
 43
0.0
 10
4660.54
 20
1172.47
 10
4555.539999999999
 20
1172.47
 10
4555.539999999999
 20
1152.47
 10
4660.54
 20
1152.47
 10
4660.54
 20
1172.47
  0
LINE
  5
D45
330
19
100
AcDbEntity
  8
1
  6
Continuous
 62
     8
100
AcDbLine
 10
4660.54
 20
1169.47
 30
0.0
 11
4667.810000000001
 21
1169.47
 31
0.0
  0
LINE
  5
D46
330
19
100
AcDbEntity
  8
1
  6
Continuous
 62
     8
100
AcDbLine
 10
4660.54
 20
1155.469999999999
 30
0.0
 11
4667.810000000001
 21
1155.469999999999
 31
0.0
  0
LWPOLYLINE
  5
D47
330
19
100
AcDbEntity
  8
1
  6
Continuous
 62
     8
100
AcDbPolyline
 90
        5
 70
     0
 43
0.0
 10
4796.19
 20
1017.12
 10
4784.89
 20
1017.12
 10
4784.89
 20
937.1210000000001
 10
4796.19
 20
937.1210000000001
 10
4796.19
 20
1017.12
  0
LWPOLYLINE
  5
D4E
330
19
100
AcDbEntity
  8
1
  6
Continuous
 62
     8
100
AcDbPolyline
 90
        5
 70
     0
 43
0.0
 10
4729.34
 20
1017.12
 10
4712.87
 20
1017.12
 10
4712.87
 20
937.1210000000001
 10
4729.34
 20
937.1210000000001
 10
4729.34
 20
1017.12
  0
LWPOLYLINE
  5
D55
330
19
100
AcDbEntity
  8
1
  6
Continuous
 62
     8
100
AcDbPolyline
 90
        4
 70
     0
 43
0.0
 10
4796.19
 20
987.1210000000001
 10
4825.54
 20
987.1210000000001
 10
4825.54
 20
967.121
 10
4796.19
 20
967.121
  0
LWPOLYLINE
  5
D5B
330
19
100
AcDbEntity
  8
1
  6
Continuous
 62
     8
100
AcDbPolyline
 90
        4
 70
     0
 43
0.0
 10
4712.87
 20
987.1210000000001
 10
4685.54
 20
987.1210000000001
 10
4685.54
 20
967.121
 10
4712.87
 20
967.121
  0
ARC
  5
D61
330
19
100
AcDbEntity
  8
1
  6
Continuous
 62
     8
100
AcDbCircle
 10
4755.539999999999
 20
1003.01
 30
0.0
 40
25.89059999999999
100
AcDbArc
 50
180.0
 51
0.0
  0
LINE
  5
D62
330
19
100
AcDbEntity
  8
1
  6
Continuous
 62
     8
100
AcDbLine
 10
4770.539999999999
 20
687.321
 30
0.0
 11
4770.539999999999
 21
981.909
 31
0.0
  0
LINE
  5
D63
330
19
100
AcDbEntity
  8
1
  6
Continuous
 62
     8
100
AcDbLine
 10
4740.54
 20
981.909
 30
0.0
 11
4740.54
 21
687.321
 31
0.0
  0
LWPOLYLINE
  5
D64
330
19
100
AcDbEntity
  8
1
  6
Continuous
 62
     8
100
AcDbPolyline
 90
        5
 70
     0
 43
0.0
 10
4850.54
 20
781.77
 10
4955.54
 20
781.77
 10
4955.54
 20
801.7699999999999
 10
4850.54
 20
801.7699999999999
 10
4850.54
 20
781.77
  0
LWPOLYLINE
  5
D6B
330
19
100
AcDbEntity
  8
1
  6
Continuous
 62
     8
100
AcDbPolyline
 90
        5
 70
     0
 43
0.0
 10
4831.67
 20
781.77
 10
4843.26
 20
781.77
 10
4843.26
 20
992.6619999999999
 10
4831.67
 20
992.6619999999999
 10
4831.67
 20
781.77
  0
LINE
  5
D72
330
19
100
AcDbEntity
  8
1
  6
Continuous
 62
     8
100
AcDbLine
 10
4850.54
 20
784.7699999999999
 30
0.0
 11
4843.26
 21
784.7699999999999
 31
0.0
  0
LINE
  5
D73
330
19
100
AcDbEntity
  8
1
  6
Continuous
 62
     8
100
AcDbLine
 10
4850.54
 20
798.77
 30
0.0
 11
4843.26
 21
798.77
 31
0.0
  0
ARC
  5
D74
330
19
100
AcDbEntity
  8
1
  6
Continuous
 62
     8
100
AcDbCircle
 10
4955.54
 20
791.7699999999999
 30
0.0
 40
10.0
100
AcDbArc
 50
270.0
 51
90.0
  0
ARC
  5
D75
330
19
100
AcDbEntity
  8
1
  6
Continuous
 62
     8
100
AcDbCircle
 10
4755.539999999999
 20
687.321
 30
0.0
 40
15.0
100
AcDbArc
 50
180.0
 51
270.0
  0
ARC
  5
D76
330
19
100
AcDbEntity
  8
1
  6
Continuous
 62
     8
100
AcDbCircle
 10
4755.539999999999
 20
687.321
 30
0.0
 40
15.0
100
AcDbArc
 50
270.0
 51
0.0
  0
POINT
  5
D77
330
19
100
AcDbEntity
  8
1
 62
     8
100
AcDbPoint
 10
4755.539999999999
 20
672.321
 30
0.0
  0
LINE
  5
D78
330
19
100
AcDbEntity
  8
1
  6
DASHDOT
 62
     8
100
AcDbLine
 10
4755.539999999999
 20
1680.93
 30
0.0
 11
4755.539999999999
 21
623.815
 31
0.0
  0
CIRCLE
  5
D79
330
19
100
AcDbEntity
  8
1
  6
Continuous
 62
     8
100
AcDbCircle
 10
4497.539999999999
 20
1676.379999999999
 30
0.0
 40
12.0
  0
LINE
  5
D7A
330
19
100
AcDbEntity
  8
1
  6
Continuous
 62
     8
100
AcDbLine
 10
4543.49
 20
1707.9
 30
0.0
 11
4539.959999999999
 21
1707.9
 31
0.0
  0
ARC
  5
D7B
330
19
100
AcDbEntity
  8
1
  6
Continuous
 62
     8
100
AcDbCircle
 10
4543.49
 20
1677.9
 30
0.0
 40
30.0
100
AcDbArc
 50
37.33449999999999
 51
90.0
  0
ARC
  5
D7C
330
19
100
AcDbEntity
  8
1
  6
Continuous
 62
     8
100
AcDbCircle
 10
4519.92
 20
1687.859999999999
 30
0.0
 40
14.6816
100
AcDbArc
 50
261.9599999999999
 51
152.3199999999999
  0
LINE
  5
D7D
330
19
100
AcDbEntity
  8
1
  6
Continuous
 62
     8
100
AcDbLine
 10
4526.62
 20
1674.79
 30
0.0
 11
4534.26
 21
1678.71
 31
0.0
  0
LINE
  5
D7E
330
19
100
AcDbEntity
  8
1
  6
Continuous
 62
     8
100
AcDbLine
 10
4520.859999999999
 20
1704.84
 30
0.0
 11
4513.229999999999
 21
1700.919999999999
 31
0.0
  0
ARC
  5
D7F
330
19
100
AcDbEntity
  8
1
  6
Continuous
 62
     8
100
AcDbCircle
 10
4527.56
 20
1691.769999999999
 30
0.0
 40
14.6816
100
AcDbArc
 50
297.14
 51
117.1399999999999
  0
LINE
  5
D80
330
19
100
AcDbEntity
  8
1
  6
Continuous
 62
     8
100
AcDbLine
 10
4514.45
 20
1698.539999999999
 30
0.0
 11
4492.060000000001
 21
1687.059999999999
 31
0.0
  0
LINE
  5
D81
330
19
100
AcDbEntity
  8
1
  6
Continuous
 62
     8
100
AcDbLine
 10
4503.01
 20
1665.7
 30
0.0
 11
4525.4
 21
1677.18
 31
0.0
  0
ARC
  5
D82
330
19
100
AcDbEntity
  8
1
  6
Continuous
 62
     8
100
AcDbCircle
 10
4539.649999999999
 20
1667.63
 30
0.0
 40
15.0
100
AcDbArc
 50
37.56539999999999
 51
92.3313
  0
ARC
  5
D83
330
19
100
AcDbEntity
  8
1
  6
Continuous
 62
     8
100
AcDbCircle
 10
4539.959999999999
 20
1677.9
 30
0.0
 40
30.0
100
AcDbArc
 50
90.0
 51
109.1949999999999
  0
LWPOLYLINE
  5
D84
330
19
100
AcDbEntity
  8
1
  6
Continuous
 62
     8
100
AcDbPolyline
 90
        4
 70
     0
 43
0.0
 10
4524.92
 20
1674.06
 10
4524.92
 20
1659.73
 10
4536.529999999999
 20
1665.68
 10
4536.529999999999
 20
1680.15
  0
ARC
  5
D8A
330
19
100
AcDbEntity
  8
1
  6
Continuous
 62
     8
100
AcDbCircle
 10
4519.92
 20
1687.859999999999
 30
0.0
 40
12.0
100
AcDbArc
 50
297.14
 51
117.1399999999999
  0
CIRCLE
  5
D8B
330
19
100
AcDbEntity
  8
1
  6
Continuous
 62
     8
100
AcDbCircle
 10
4480.659999999999
 20
1605.62
 30
0.0
 40
4.50255
  0
ARC
  5
D8C
330
19
100
AcDbEntity
  8
1
  6
Continuous
 62
     8
100
AcDbCircle
 10
4658.31
 20
1538.22
 30
0.0
 40
192.902
100
AcDbArc
 50
135.676
 51
158.191
  0
ARC
  5
D8D
330
19
100
AcDbEntity
  8
1
  6
Continuous
 62
     8
100
AcDbCircle
 10
4624.75
 20
1555.52
 30
0.0
 40
149.885
100
AcDbArc
 50
131.7609999999999
 51
159.4519999999999
  0
LINE
  5
D8E
330
19
100
AcDbEntity
  8
1
  6
Continuous
 62
     8
100
AcDbLine
 10
4514.92
 20
1671.809999999999
 30
0.0
 11
4514.92
 21
1667.259999999999
 31
0.0
  0
LINE
  5
D8F
330
19
100
AcDbEntity
  8
1
  6
Continuous
 62
     8
100
AcDbLine
 10
4517.020000000001
 20
1659.73
 30
0.0
 11
4524.92
 21
1659.73
 31
0.0
  0
POLYLINE
  5
D90
330
19
100
AcDbEntity
  8
1
  6
Continuous
 62
     8
100
AcDb2dPolyline
 66
     1
 10
0.0
 20
0.0
 30
0.0
 70
     2
  0
VERTEX
  5
D91
330
D90
100
AcDbEntity
  8
1
  6
Continuous
 62
     8
100
AcDbVertex
100
AcDb2dVertex
 10
4956.949999999999
 20
1711.12
 30
0.0
  0
VERTEX
  5
D92
330
D90
100
AcDbEntity
  8
1
  6
Continuous
 62
     8
100
AcDbVertex
100
AcDb2dVertex
 10
4956.79
 20
1712.52
 30
0.0
  0
VERTEX
  5
D93
330
D90
100
AcDbEntity
  8
1
  6
Continuous
 62
     8
100
AcDbVertex
100
AcDb2dVertex
 10
4956.319999999999
 20
1713.9
 30
0.0
  0
VERTEX
  5
D94
330
D90
100
AcDbEntity
  8
1
  6
Continuous
 62
     8
100
AcDbVertex
100
AcDb2dVertex
 10
4955.529999999999
 20
1715.23
 30
0.0
  0
VERTEX
  5
D95
330
D90
100
AcDbEntity
  8
1
  6
Continuous
 62
     8
100
AcDbVertex
100
AcDb2dVertex
 10
4954.45
 20
1716.499999999999
 30
0.0
  0
VERTEX
  5
D96
330
D90
100
AcDbEntity
  8
1
  6
Continuous
 62
     8
100
AcDbVertex
100
AcDb2dVertex
 10
4953.09
 20
1717.69
 30
0.0
  0
VERTEX
  5
D97
330
D90
100
AcDbEntity
  8
1
  6
Continuous
 62
     8
100
AcDbVertex
100
AcDb2dVertex
 10
4951.47
 20
1718.77
 30
0.0
  0
VERTEX
  5
D98
330
D90
100
AcDbEntity
  8
1
  6
Continuous
 62
     8
100
AcDbVertex
100
AcDb2dVertex
 10
4949.62
 20
1719.73
 30
0.0
  0
VERTEX
  5
D99
330
D90
100
AcDbEntity
  8
1
  6
Continuous
 62
     8
100
AcDbVertex
100
AcDb2dVertex
 10
4947.560000000001
 20
1720.56
 30
0.0
  0
VERTEX
  5
D9A
330
D90
100
AcDbEntity
  8
1
  6
Continuous
 62
     8
100
AcDbVertex
100
AcDb2dVertex
 10
4945.33
 20
1721.239999999999
 30
0.0
  0
VERTEX
  5
D9B
330
D90
100
AcDbEntity
  8
1
  6
Continuous
 62
     8
100
AcDbVertex
100
AcDb2dVertex
 10
4942.96
 20
1721.76
 30
0.0
  0
VERTEX
  5
D9C
330
D90
100
AcDbEntity
  8
1
  6
Continuous
 62
     8
100
AcDbVertex
100
AcDb2dVertex
 10
4940.49
 20
1722.109999999999
 30
0.0
  0
VERTEX
  5
D9D
330
D90
100
AcDbEntity
  8
1
  6
Continuous
 62
     8
100
AcDbVertex
100
AcDb2dVertex
 10
4937.97
 20
1722.299999999999
 30
0.0
  0
VERTEX
  5
D9E
330
D90
100
AcDbEntity
  8
1
  6
Continuous
 62
     8
100
AcDbVertex
100
AcDb2dVertex
 10
4935.42
 20
1722.299999999999
 30
0.0
  0
VERTEX
  5
D9F
330
D90
100
AcDbEntity
  8
1
  6
Continuous
 62
     8
100
AcDbVertex
100
AcDb2dVertex
 10
4932.89
 20
1722.13
 30
0.0
  0
VERTEX
  5
DA0
330
D90
100
AcDbEntity
  8
1
  6
Continuous
 62
     8
100
AcDbVertex
100
AcDb2dVertex
 10
4930.41
 20
1721.79
 30
0.0
  0
VERTEX
  5
DA1
330
D90
100
AcDbEntity
  8
1
  6
Continuous
 62
     8
100
AcDbVertex
100
AcDb2dVertex
 10
4928.04
 20
1721.28
 30
0.0
  0
VERTEX
  5
DA2
330
D90
100
AcDbEntity
  8
1
  6
Continuous
 62
     8
100
AcDbVertex
100
AcDb2dVertex
 10
4925.8
 20
1720.609999999999
 30
0.0
  0
VERTEX
  5
DA3
330
D90
100
AcDbEntity
  8
1
  6
Continuous
 62
     8
100
AcDbVertex
100
AcDb2dVertex
 10
4923.72
 20
1719.8
 30
0.0
  0
VERTEX
  5
DA4
330
D90
100
AcDbEntity
  8
1
  6
Continuous
 62
     8
100
AcDbVertex
100
AcDb2dVertex
 10
4921.85
 20
1718.839999999999
 30
0.0
  0
VERTEX
  5
DA5
330
D90
100
AcDbEntity
  8
1
  6
Continuous
 62
     8
100
AcDbVertex
100
AcDb2dVertex
 10
4920.21
 20
1717.77
 30
0.0
  0
VERTEX
  5
DA6
330
D90
100
AcDbEntity
  8
1
  6
Continuous
 62
     8
100
AcDbVertex
100
AcDb2dVertex
 10
4918.829999999999
 20
1716.59
 30
0.0
  0
VERTEX
  5
DA7
330
D90
100
AcDbEntity
  8
1
  6
Continuous
 62
     8
100
AcDbVertex
100
AcDb2dVertex
 10
4917.729999999999
 20
1715.32
 30
0.0
  0
VERTEX
  5
DA8
330
D90
100
AcDbEntity
  8
1
  6
Continuous
 62
     8
100
AcDbVertex
100
AcDb2dVertex
 10
4916.920000000001
 20
1713.99
 30
0.0
  0
VERTEX
  5
DA9
330
D90
100
AcDbEntity
  8
1
  6
Continuous
 62
     8
100
AcDbVertex
100
AcDb2dVertex
 10
4916.42
 20
1712.61
 30
0.0
  0
VERTEX
  5
DAA
330
D90
100
AcDbEntity
  8
1
  6
Continuous
 62
     8
100
AcDbVertex
100
AcDb2dVertex
 10
4916.24
 20
1711.22
 30
0.0
  0
VERTEX
  5
DAB
330
D90
100
AcDbEntity
  8
1
  6
Continuous
 62
     8
100
AcDbVertex
100
AcDb2dVertex
 10
4916.38
 20
1709.81
 30
0.0
  0
VERTEX
  5
DAC
330
D90
100
AcDbEntity
  8
1
  6
Continuous
 62
     8
100
AcDbVertex
100
AcDb2dVertex
 10
4916.83
 20
1708.43
 30
0.0
  0
VERTEX
  5
DAD
330
D90
100
AcDbEntity
  8
1
  6
Continuous
 62
     8
100
AcDbVertex
100
AcDb2dVertex
 10
4917.6
 20
1707.089999999999
 30
0.0
  0
VERTEX
  5
DAE
330
D90
100
AcDbEntity
  8
1
  6
Continuous
 62
     8
100
AcDbVertex
100
AcDb2dVertex
 10
4918.66
 20
1705.82
 30
0.0
  0
VERTEX
  5
DAF
330
D90
100
AcDbEntity
  8
1
  6
Continuous
 62
     8
100
AcDbVertex
100
AcDb2dVertex
 10
4920.010000000001
 20
1704.63
 30
0.0
  0
VERTEX
  5
DB0
330
D90
100
AcDbEntity
  8
1
  6
Continuous
 62
     8
100
AcDbVertex
100
AcDb2dVertex
 10
4921.61
 20
1703.529999999999
 30
0.0
  0
VERTEX
  5
DB1
330
D90
100
AcDbEntity
  8
1
  6
Continuous
 62
     8
100
AcDbVertex
100
AcDb2dVertex
 10
4923.449999999999
 20
1702.56
 30
0.0
  0
VERTEX
  5
DB2
330
D90
100
AcDbEntity
  8
1
  6
Continuous
 62
     8
100
AcDbVertex
100
AcDb2dVertex
 10
4925.5
 20
1701.729999999999
 30
0.0
  0
VERTEX
  5
DB3
330
D90
100
AcDbEntity
  8
1
  6
Continuous
 62
     8
100
AcDbVertex
100
AcDb2dVertex
 10
4927.72
 20
1701.03
 30
0.0
  0
VERTEX
  5
DB4
330
D90
100
AcDbEntity
  8
1
  6
Continuous
 62
     8
100
AcDbVertex
100
AcDb2dVertex
 10
4930.08
 20
1700.499999999999
 30
0.0
  0
VERTEX
  5
DB5
330
D90
100
AcDbEntity
  8
1
  6
Continuous
 62
     8
100
AcDbVertex
100
AcDb2dVertex
 10
4932.54
 20
1700.14
 30
0.0
  0
VERTEX
  5
DB6
330
D90
100
AcDbEntity
  8
1
  6
Continuous
 62
     8
100
AcDbVertex
100
AcDb2dVertex
 10
4935.069999999999
 20
1699.94
 30
0.0
  0
VERTEX
  5
DB7
330
D90
100
AcDbEntity
  8
1
  6
Continuous
 62
     8
100
AcDbVertex
100
AcDb2dVertex
 10
4937.619999999999
 20
1699.92
 30
0.0
  0
VERTEX
  5
DB8
330
D90
100
AcDbEntity
  8
1
  6
Continuous
 62
     8
100
AcDbVertex
100
AcDb2dVertex
 10
4940.16
 20
1700.079999999999
 30
0.0
  0
VERTEX
  5
DB9
330
D90
100
AcDbEntity
  8
1
  6
Continuous
 62
     8
100
AcDbVertex
100
AcDb2dVertex
 10
4942.64
 20
1700.41
 30
0.0
  0
VERTEX
  5
DBA
330
D90
100
AcDbEntity
  8
1
  6
Continuous
 62
     8
100
AcDbVertex
100
AcDb2dVertex
 10
4945.02
 20
1700.91
 30
0.0
  0
VERTEX
  5
DBB
330
D90
100
AcDbEntity
  8
1
  6
Continuous
 62
     8
100
AcDbVertex
100
AcDb2dVertex
 10
4947.28
 20
1701.57
 30
0.0
  0
VERTEX
  5
DBC
330
D90
100
AcDbEntity
  8
1
  6
Continuous
 62
     8
100
AcDbVertex
100
AcDb2dVertex
 10
4949.36
 20
1702.38
 30
0.0
  0
VERTEX
  5
DBD
330
D90
100
AcDbEntity
  8
1
  6
Continuous
 62
     8
100
AcDbVertex
100
AcDb2dVertex
 10
4951.25
 20
1703.32
 30
0.0
  0
VERTEX
  5
DBE
330
D90
100
AcDbEntity
  8
1
  6
Continuous
 62
     8
100
AcDbVertex
100
AcDb2dVertex
 10
4952.899999999999
 20
1704.39
 30
0.0
  0
VERTEX
  5
DBF
330
D90
100
AcDbEntity
  8
1
  6
Continuous
 62
     8
100
AcDbVertex
100
AcDb2dVertex
 10
4954.31
 20
1705.569999999999
 30
0.0
  0
VERTEX
  5
DC0
330
D90
100
AcDbEntity
  8
1
  6
Continuous
 62
     8
100
AcDbVertex
100
AcDb2dVertex
 10
4955.43
 20
1706.83
 30
0.0
  0
VERTEX
  5
DC1
330
D90
100
AcDbEntity
  8
1
  6
Continuous
 62
     8
100
AcDbVertex
100
AcDb2dVertex
 10
4956.26
 20
1708.15
 30
0.0
  0
VERTEX
  5
DC2
330
D90
100
AcDbEntity
  8
1
  6
Continuous
 62
     8
100
AcDbVertex
100
AcDb2dVertex
 10
4956.78
 20
1709.53
 30
0.0
  0
VERTEX
  5
DC3
330
D90
100
AcDbEntity
  8
1
  6
Continuous
 62
     8
100
AcDbVertex
100
AcDb2dVertex
 10
4956.949999999999
 20
1711.12
 30
0.0
  0
SEQEND
  5
DC4
330
D90
100
AcDbEntity
  8
1
 62
     8
  0
POINT
  5
DC5
330
19
100
AcDbEntity
  8
1
 62
     8
100
AcDbPoint
 10
4974.37
 20
1722.319999999999
 30
0.0
  0
LINE
  5
DC6
330
19
100
AcDbEntity
  8
1
  6
Continuous
 62
     8
100
AcDbLine
 10
4967.58
 20
1707.9
 30
0.0
 11
4971.109999999999
 21
1707.9
 31
0.0
  0
ARC
  5
DC7
330
19
100
AcDbEntity
  8
1
  6
Continuous
 62
     8
100
AcDbCircle
 10
4983.51
 20
1691.769999999999
 30
0.0
 40
14.6816
100
AcDbArc
 50
62.85990000000001
 51
242.859
  0
ARC
  5
DC8
330
19
100
AcDbEntity
  8
1
  6
Continuous
 62
     8
100
AcDbCircle
 10
4971.109999999999
 20
1677.9
 30
0.0
 40
30.0
100
AcDbArc
 50
70.8042
 51
90.0
  0
ARC
  5
DC9
330
19
100
AcDbEntity
  8
1
  6
Continuous
 62
     8
100
AcDbCircle
 10
4967.58
 20
1677.9
 30
0.0
 40
30.0
100
AcDbArc
 50
90.0
 51
142.6649999999999
  0
CIRCLE
  5
DCA
330
19
100
AcDbEntity
  8
1
  6
Continuous
 62
     8
100
AcDbCircle
 10
5013.54
 20
1676.379999999999
 30
0.0
 40
12.0
  0
ARC
  5
DCB
330
19
100
AcDbEntity
  8
1
  6
Continuous
 62
     8
100
AcDbCircle
 10
4991.15
 20
1687.859999999999
 30
0.0
 40
14.6816
100
AcDbArc
 50
27.6798
 51
278.039
  0
LINE
  5
DCC
330
19
100
AcDbEntity
  8
1
  6
Continuous
 62
     8
100
AcDbLine
 10
4984.449999999999
 20
1674.79
 30
0.0
 11
4976.81
 21
1678.71
 31
0.0
  0
LINE
  5
DCD
330
19
100
AcDbEntity
  8
1
  6
Continuous
 62
     8
100
AcDbLine
 10
4990.210000000001
 20
1704.84
 30
0.0
 11
4997.84
 21
1700.919999999999
 31
0.0
  0
LINE
  5
DCE
330
19
100
AcDbEntity
  8
1
  6
Continuous
 62
     8
100
AcDbLine
 10
4996.62
 20
1698.539999999999
 30
0.0
 11
5019.01
 21
1687.059999999999
 31
0.0
  0
LINE
  5
DCF
330
19
100
AcDbEntity
  8
1
  6
Continuous
 62
     8
100
AcDbLine
 10
5008.06
 20
1665.7
 30
0.0
 11
4985.67
 21
1677.18
 31
0.0
  0
LWPOLYLINE
  5
DD0
330
19
100
AcDbEntity
  8
1
  6
Continuous
 62
     8
100
AcDbPolyline
 90
        4
 70
     0
 43
0.0
 10
4986.15
 20
1674.06
 10
4986.15
 20
1659.73
 10
4974.540000000001
 20
1665.68
 10
4974.540000000001
 20
1680.15
  0
ARC
  5
DD6
330
19
100
AcDbEntity
  8
1
  6
Continuous
 62
     8
100
AcDbCircle
 10
4991.15
 20
1687.859999999999
 30
0.0
 40
12.0
100
AcDbArc
 50
62.85990000000001
 51
242.859
  0
CIRCLE
  5
DD7
330
19
100
AcDbEntity
  8
1
  6
Continuous
 62
     8
100
AcDbCircle
 10
5030.409999999999
 20
1605.62
 30
0.0
 40
4.50255
  0
ARC
  5
DD8
330
19
100
AcDbEntity
  8
1
  6
Continuous
 62
     8
100
AcDbCircle
 10
4852.76
 20
1538.22
 30
0.0
 40
192.902
100
AcDbArc
 50
21.808
 51
44.3236
  0
ARC
  5
DD9
330
19
100
AcDbEntity
  8
1
  6
Continuous
 62
     8
100
AcDbCircle
 10
4886.32
 20
1555.52
 30
0.0
 40
149.885
100
AcDbArc
 50
20.54769999999999
 51
48.2381
  0
LINE
  5
DDA
330
19
100
AcDbEntity
  8
1
  6
Continuous
 62
     8
100
AcDbLine
 10
4996.15
 20
1671.809999999999
 30
0.0
 11
4996.15
 21
1667.259999999999
 31
0.0
  0
LINE
  5
DDB
330
19
100
AcDbEntity
  8
1
  6
Continuous
 62
     8
100
AcDbLine
 10
4994.05
 20
1659.73
 30
0.0
 11
4986.15
 21
1659.73
 31
0.0
  0
LINE
  5
DDC
330
19
100
AcDbEntity
  8
1
  6
Continuous
 62
     8
100
AcDbLine
 10
4720.819999999999
 20
1344.7
 30
0.0
 11
4742.76
 21
1385.25
 31
0.0
  0
LINE
  5
DDD
330
19
100
AcDbEntity
  8
1
  6
Continuous
 62
     8
100
AcDbLine
 10
4742.54
 20
1355.41
 30
0.0
 11
4736.74
 21
1344.7
 31
0.0
  0
LINE
  5
DDE
330
19
100
AcDbEntity
  8
1
  6
Continuous
 62
     8
100
AcDbLine
 10
4731.329999999999
 20
1334.7
 30
0.0
 11
4726.25
 21
1325.309999999999
 31
0.0
  0
LINE
  5
DDF
330
19
100
AcDbEntity
  8
1
  6
Continuous
 62
     8
100
AcDbLine
 10
4742.54
 20
1437.12
 30
0.0
 11
4742.54
 21
1344.7
 31
0.0
  0
LINE
  5
DE0
330
19
100
AcDbEntity
  8
1
  6
Continuous
 62
     8
100
AcDbLine
 10
4742.54
 20
1334.7
 30
0.0
 11
4742.54
 21
1301.98
 31
0.0
  0
LINE
  5
DE1
330
19
100
AcDbEntity
  8
1
  6
Continuous
 62
     8
100
AcDbLine
 10
4768.54
 20
1301.98
 30
0.0
 11
4768.54
 21
1334.7
 31
0.0
  0
LINE
  5
DE2
330
19
100
AcDbEntity
  8
1
  6
Continuous
 62
     8
100
AcDbLine
 10
4768.54
 20
1344.7
 30
0.0
 11
4768.54
 21
1437.12
 31
0.0
  0
LINE
  5
DE3
330
19
100
AcDbEntity
  8
1
  6
Continuous
 62
     8
100
AcDbLine
 10
4768.54
 20
1355.41
 30
0.0
 11
4774.329999999999
 21
1344.7
 31
0.0
  0
LINE
  5
DE4
330
19
100
AcDbEntity
  8
1
  6
Continuous
 62
     8
100
AcDbLine
 10
4779.739999999999
 20
1334.7
 30
0.0
 11
4784.819999999999
 21
1325.309999999999
 31
0.0
  0
LINE
  5
DE5
330
19
100
AcDbEntity
  8
1
  6
Continuous
 62
     8
100
AcDbLine
 10
4790.25
 20
1344.7
 30
0.0
 11
4768.31
 21
1385.25
 31
0.0
  0
LWPOLYLINE
  5
DE6
330
19
100
AcDbEntity
  8
1
  6
Continuous
 62
     8
100
AcDbPolyline
 90
        5
 70
     0
 43
0.0
 10
4674.92
 20
1172.47
 10
4667.810000000001
 20
1172.47
 10
4667.810000000001
 20
961.58
 10
4679.4
 20
961.58
 10
4679.4
 20
1134.96
  0
LINE
  5
DED
330
19
100
AcDbEntity
  8
1
  6
Continuous
 62
     8
100
AcDbLine
 10
4665.61
 20
1334.7
 30
0.0
 11
4697.07
 21
1071.4
 31
0.0
  0
LINE
  5
DEE
330
19
100
AcDbEntity
  8
1
  6
Continuous
 62
     8
100
AcDbLine
 10
4845.46
 20
1334.7
 30
0.0
 11
4814.0
 21
1071.4
 31
0.0
  0
LWPOLYLINE
  5
DEF
330
19
100
AcDbEntity
  8
1
  6
Continuous
 62
     8
100
AcDbPolyline
 90
        5
 70
     0
 43
0.0
 10
4729.64
 20
1221.68
 10
4781.43
 20
1221.68
 10
4765.54
 20
1163.049999999999
 10
4745.54
 20
1163.049999999999
 10
4729.64
 20
1221.68
  0
ARC
  5
DF6
330
19
100
AcDbEntity
  8
1
  6
Continuous
 62
     8
100
AcDbCircle
 10
805.5620000000001
 20
1102.219999999999
 30
0.0
 40
270.0
100
AcDbArc
 50
189.9109999999999
 51
222.366
  0
ARC
  5
DF7
330
19
100
AcDbEntity
  8
1
  6
Continuous
 62
     8
100
AcDbCircle
 10
805.5620000000001
 20
1102.219999999999
 30
0.0
 40
278.161
100
AcDbArc
 50
189.076
 51
223.794
  0
ARC
  5
DF8
330
19
100
AcDbEntity
  8
1
  6
Continuous
 62
     8
100
AcDbCircle
 10
805.5620000000001
 20
1102.219999999999
 30
0.0
 40
304.8
100
AcDbArc
 50
186.6929999999999
 51
227.769
  0
ARC
  5
DF9
330
19
100
AcDbEntity
  8
1
  6
Continuous
 62
     8
100
AcDbCircle
 10
805.5620000000001
 20
1102.219999999999
 30
0.0
 40
304.8
100
AcDbArc
 50
55.41530000000001
 51
185.065
  0
ARC
  5
DFA
330
19
100
AcDbEntity
  8
1
  6
Continuous
 62
     8
100
AcDbCircle
 10
805.5620000000001
 20
1102.219999999999
 30
0.0
 40
278.161
100
AcDbArc
 50
54.4929
 51
187.287
  0
ARC
  5
DFB
330
19
100
AcDbEntity
  8
1
  6
Continuous
 62
     8
100
AcDbCircle
 10
805.5620000000001
 20
1102.219999999999
 30
0.0
 40
270.0
100
AcDbArc
 50
54.17329999999999
 51
188.0379999999999
  0
LINE
  5
DFC
330
19
100
AcDbEntity
  8
1
  6
Continuous
 62
     8
100
AcDbLine
 10
567.823
 20
1047.33
 30
0.0
 11
542.4819999999999
 21
1041.479999999999
 31
0.0
  0
LINE
  5
DFD
330
19
100
AcDbEntity
  8
1
  6
Continuous
 62
     8
100
AcDbLine
 10
794.4339999999999
 20
1099.65
 30
0.0
 11
583.6709999999999
 21
1050.99
 31
0.0
  0
ARC
  5
DFE
330
19
100
AcDbEntity
  8
1
  6
Continuous
 62
     8
100
AcDbCircle
 10
805.5620000000001
 20
1102.219999999999
 30
0.0
 40
304.8
100
AcDbArc
 50
321.611
 51
50.3098
  0
ARC
  5
DFF
330
19
100
AcDbEntity
  8
1
  6
Continuous
 62
     8
100
AcDbCircle
 10
805.5620000000001
 20
1102.219999999999
 30
0.0
 40
304.8
100
AcDbArc
 50
295.612
 51
320.054
  0
ARC
  5
E00
330
19
100
AcDbEntity
  8
1
  6
Continuous
 62
     8
100
AcDbCircle
 10
805.5620000000001
 20
1102.219999999999
 30
0.0
 40
270.0
100
AcDbArc
 50
281.028
 51
316.9059999999999
  0
ARC
  5
E01
330
19
100
AcDbEntity
  8
1
  6
Continuous
 62
     8
100
AcDbCircle
 10
805.5620000000001
 20
1102.219999999999
 30
0.0
 40
270.0
100
AcDbArc
 50
318.7629999999999
 51
48.90500000000001
  0
ARC
  5
E02
330
19
100
AcDbEntity
  8
1
  6
Continuous
 62
     8
100
AcDbCircle
 10
805.5620000000001
 20
1102.219999999999
 30
0.0
 40
278.161
100
AcDbArc
 50
319.56
 51
49.26670000000001
  0
LINE
  5
E03
330
19
100
AcDbEntity
  8
1
  6
Continuous
 62
     8
100
AcDbLine
 10
967.8969999999999
 20
928.139
 30
0.0
 11
989.7009999999999
 21
904.757
 31
0.0
  0
LINE
  5
E04
330
19
100
AcDbEntity
  8
1
  6
Continuous
 62
     8
100
AcDbLine
 10
813.3499999999999
 20
1093.869999999999
 30
0.0
 11
957.118
 21
939.6979999999999
 31
0.0
  0
LINE
  5
E05
330
19
100
AcDbEntity
  8
1
  6
Continuous
 62
     8
100
AcDbLine
 10
812.255
 20
974.511
 30
0.0
 11
819.2059999999999
 21
841.8749999999999
 31
0.0
  0
LINE
  5
E06
330
19
100
AcDbEntity
  8
1
  6
Continuous
 62
     8
100
AcDbLine
 10
770.335
 20
987.0
 30
0.0
 11
729.3389999999999
 21
852.909
 31
0.0
  0
LINE
  5
E07
330
19
100
AcDbEntity
  8
1
  6
Continuous
 62
     8
100
AcDbLine
 10
802.222
 20
1091.3
 30
0.0
 11
772.674
 21
994.6510000000001
 31
0.0
  0
LINE
  5
E08
330
19
100
AcDbEntity
  8
1
  6
Continuous
 62
     8
100
AcDbLine
 10
806.159
 20
1090.81
 30
0.0
 11
811.81
 21
982.9910000000001
 31
0.0
  0
LINE
  5
E09
330
19
100
AcDbEntity
  8
1
  6
Continuous
 62
     8
100
AcDbLine
 10
798.688
 20
1093.099999999999
 30
0.0
 11
733.3330000000001
 21
1006.37
 31
0.0
  0
LINE
  5
E0A
330
19
100
AcDbEntity
  8
1
  6
Continuous
 62
     8
100
AcDbLine
 10
728.196
 20
999.5549999999999
 30
0.0
 11
643.0719999999999
 21
886.5909999999999
 31
0.0
  0
LINE
  5
E0B
330
19
100
AcDbEntity
  8
1
  6
Continuous
 62
     8
100
AcDbLine
 10
672.8560000000001
 20
1016.04
 30
0.0
 11
579.1209999999999
 21
955.17
 31
0.0
  0
LINE
  5
E0C
330
19
100
AcDbEntity
  8
1
  6
Continuous
 62
     8
100
AcDbLine
 10
795.9830000000001
 20
1096.0
 30
0.0
 11
681.6679999999999
 21
1021.76
 31
0.0
  0
ARC
  5
E0D
330
19
100
AcDbEntity
  8
1
  6
Continuous
 62
     8
100
AcDbCircle
 10
862.6649999999999
 20
2240.12
 30
0.0
 40
304.8
100
AcDbArc
 50
318.704
 51
57.30980000000001
  0
LINE
  5
E0E
330
19
100
AcDbEntity
  8
1
  6
Continuous
 62
     1
100
AcDbLine
 10
4813.04
 20
1506.99
 30
0.0
 11
4813.04
 21
1599.9
 31
0.0
  0
LINE
  5
E0F
330
19
100
AcDbEntity
  8
1
  6
Continuous
 62
     1
100
AcDbLine
 10
4813.04
 20
1344.7
 30
0.0
 11
4813.04
 21
1454.4
 31
0.0
  0
LINE
  5
E10
330
19
100
AcDbEntity
  8
1
  6
Continuous
 62
     1
100
AcDbLine
 10
4813.04
 20
658.321
 30
0.0
 11
4813.04
 21
967.121
 31
0.0
  0
LINE
  5
E11
330
19
100
AcDbEntity
  8
1
  6
Continuous
 62
     1
100
AcDbLine
 10
4813.04
 20
1279.84
 30
0.0
 11
4813.04
 21
1334.7
 31
0.0
  0
LINE
  5
E12
330
19
100
AcDbEntity
  8
1
  6
Continuous
 62
     1
100
AcDbLine
 10
645.1649999999999
 20
1032.64
 30
0.0
 11
645.1649999999999
 21
1319.41
 31
0.0
  0
LINE
  5
E13
330
19
100
AcDbEntity
  8
1
  6
Continuous
 62
     1
100
AcDbLine
 10
720.1649999999999
 20
1010.29
 30
0.0
 11
720.1649999999999
 21
1358.36
 31
0.0
  0
LINE
  5
E14
330
19
100
AcDbEntity
  8
1
  6
Continuous
 62
     1
100
AcDbLine
 10
645.1649999999999
 20
889.3689999999999
 30
0.0
 11
645.1649999999999
 21
1024.29
 31
0.0
  0
LINE
  5
E15
330
19
100
AcDbEntity
  8
1
  6
Continuous
 62
     3
100
AcDbLine
 10
432.6649999999999
 20
552.321
 30
0.0
 11
432.6649999999999
 21
377.6499999999999
 31
0.0
  0
LINE
  5
E16
330
19
100
AcDbEntity
  8
1
  6
Continuous
 62
     3
100
AcDbLine
 10
382.665
 20
377.6499999999999
 30
0.0
 11
382.665
 21
552.321
 31
0.0
  0
LINE
  5
E17
330
19
100
AcDbEntity
  8
1
  6
Continuous
 62
     3
100
AcDbLine
 10
382.665
 20
397.6499999999999
 30
0.0
 11
432.6649999999999
 21
397.6499999999999
 31
0.0
  0
LINE
  5
E18
330
19
100
AcDbEntity
  8
1
  6
Continuous
 62
     3
100
AcDbLine
 10
382.665
 20
397.6499999999999
 30
0.0
 11
402.665
 21
394.123
 31
0.0
  0
LINE
  5
E19
330
19
100
AcDbEntity
  8
1
  6
Continuous
 62
     3
100
AcDbLine
 10
382.665
 20
397.6499999999999
 30
0.0
 11
402.665
 21
401.1759999999999
 31
0.0
  0
LINE
  5
E1A
330
19
100
AcDbEntity
  8
1
  6
Continuous
 62
     3
100
AcDbLine
 10
432.6649999999999
 20
397.6499999999999
 30
0.0
 11
412.665
 21
401.1759999999999
 31
0.0
  0
LINE
  5
E1B
330
19
100
AcDbEntity
  8
1
  6
Continuous
 62
     3
100
AcDbLine
 10
432.6649999999999
 20
397.6499999999999
 30
0.0
 11
412.665
 21
394.123
 31
0.0
  0
TEXT
  5
E1C
330
19
100
AcDbEntity
  8
1
 62
     3
100
AcDbText
 10
379.665
 20
397.6499999999999
 30
0.0
 40
40.0
  1
５０
 41
0.7
100
AcDbText
  0
LINE
  5
E1D
330
19
100
AcDbEntity
  8
1
  6
Continuous
 62
     3
100
AcDbLine
 10
682.6649999999999
 20
451.5619999999999
 30
0.0
 11
682.6649999999999
 21
377.6499999999999
 31
0.0
  0
LINE
  5
E1E
330
19
100
AcDbEntity
  8
1
  6
Continuous
 62
     3
100
AcDbLine
 10
432.6649999999999
 20
377.6499999999999
 30
0.0
 11
432.6649999999999
 21
552.321
 31
0.0
  0
LINE
  5
E1F
330
19
100
AcDbEntity
  8
1
  6
Continuous
 62
     3
100
AcDbLine
 10
432.6649999999999
 20
397.6499999999999
 30
0.0
 11
682.6649999999999
 21
397.6499999999999
 31
0.0
  0
LINE
  5
E20
330
19
100
AcDbEntity
  8
1
  6
Continuous
 62
     3
100
AcDbLine
 10
432.6649999999999
 20
397.6499999999999
 30
0.0
 11
452.665
 21
394.123
 31
0.0
  0
LINE
  5
E21
330
19
100
AcDbEntity
  8
1
  6
Continuous
 62
     3
100
AcDbLine
 10
432.6649999999999
 20
397.6499999999999
 30
0.0
 11
452.665
 21
401.1759999999999
 31
0.0
  0
LINE
  5
E22
330
19
100
AcDbEntity
  8
1
  6
Continuous
 62
     3
100
AcDbLine
 10
682.6649999999999
 20
397.6499999999999
 30
0.0
 11
662.6649999999999
 21
401.1759999999999
 31
0.0
  0
LINE
  5
E23
330
19
100
AcDbEntity
  8
1
  6
Continuous
 62
     3
100
AcDbLine
 10
682.6649999999999
 20
397.6499999999999
 30
0.0
 11
662.6649999999999
 21
394.123
 31
0.0
  0
TEXT
  5
E24
330
19
100
AcDbEntity
  8
1
 62
     3
100
AcDbText
 10
515.6649999999999
 20
397.6499999999999
 30
0.0
 40
40.0
  1
２５０
 41
0.7
100
AcDbText
  0
LINE
  5
E25
330
19
100
AcDbEntity
  8
1
  6
Continuous
 62
     3
100
AcDbLine
 10
2282.659999999999
 20
552.321
 30
0.0
 11
2282.659999999999
 21
377.6499999999999
 31
0.0
  0
LINE
  5
E26
330
19
100
AcDbEntity
  8
1
  6
Continuous
 62
     3
100
AcDbLine
 10
682.6649999999999
 20
377.6499999999999
 30
0.0
 11
682.6649999999999
 21
451.5619999999999
 31
0.0
  0
LINE
  5
E27
330
19
100
AcDbEntity
  8
1
  6
Continuous
 62
     3
100
AcDbLine
 10
682.6649999999999
 20
397.6499999999999
 30
0.0
 11
2282.659999999999
 21
397.6499999999999
 31
0.0
  0
LINE
  5
E28
330
19
100
AcDbEntity
  8
1
  6
Continuous
 62
     3
100
AcDbLine
 10
682.6649999999999
 20
397.6499999999999
 30
0.0
 11
702.665
 21
394.123
 31
0.0
  0
LINE
  5
E29
330
19
100
AcDbEntity
  8
1
  6
Continuous
 62
     3
100
AcDbLine
 10
682.6649999999999
 20
397.6499999999999
 30
0.0
 11
702.665
 21
401.1759999999999
 31
0.0
  0
LINE
  5
E2A
330
19
100
AcDbEntity
  8
1
  6
Continuous
 62
     3
100
AcDbLine
 10
2282.659999999999
 20
397.6499999999999
 30
0.0
 11
2262.659999999999
 21
401.1759999999999
 31
0.0
  0
LINE
  5
E2B
330
19
100
AcDbEntity
  8
1
  6
Continuous
 62
     3
100
AcDbLine
 10
2282.659999999999
 20
397.6499999999999
 30
0.0
 11
2262.659999999999
 21
394.123
 31
0.0
  0
TEXT
  5
E2C
330
19
100
AcDbEntity
  8
1
 62
     3
100
AcDbText
 10
1426.66
 20
397.6499999999999
 30
0.0
 40
40.0
  1
１６００
 41
0.7
100
AcDbText
  0
LINE
  5
E2D
330
19
100
AcDbEntity
  8
1
  6
DASHDOT
 62
     3
100
AcDbLine
 10
682.6649999999999
 20
2534.63
 30
0.0
 11
682.6649999999999
 21
584.8889999999999
 31
0.0
  0
LINE
  5
E2E
330
19
100
AcDbEntity
  8
1
  6
DASHDOT
 62
     3
100
AcDbLine
 10
432.6649999999999
 20
2247.199999999999
 30
0.0
 11
432.665
 21
1912.32
 31
0.0
  0
TEXT
  5
E2F
330
19
100
AcDbEntity
  8
1
 62
     3
100
AcDbText
 10
1693.27
 20
3257.0
 30
0.0
 40
40.0
  1
天井等
100
AcDbText
  0
LINE
  5
E30
330
19
100
AcDbEntity
  8
1
  6
Continuous
 62
     3
100
AcDbLine
 10
5107.21
 20
2985.32
 30
0.0
 11
5166.38
 21
2985.32
 31
0.0
  0
LINE
  5
E31
330
19
100
AcDbEntity
  8
1
  6
Continuous
 62
     3
100
AcDbLine
 10
5142.21
 20
1935.32
 30
0.0
 11
5222.2
 21
1935.32
 31
0.0
  0
LINE
  5
E32
330
19
100
AcDbEntity
  8
1
  6
Continuous
 62
     3
100
AcDbLine
 10
5222.2
 20
652.321
 30
0.0
 11
5116.74
 21
652.321
 31
0.0
  0
LINE
  5
E33
330
19
100
AcDbEntity
  8
1
  6
Continuous
 62
     3
100
AcDbLine
 10
5202.2
 20
652.321
 30
0.0
 11
5202.2
 21
1935.32
 31
0.0
  0
LINE
  5
E34
330
19
100
AcDbEntity
  8
1
  6
Continuous
 62
     3
100
AcDbLine
 10
5202.2
 20
652.321
 30
0.0
 11
5205.729999999999
 21
672.321
 31
0.0
  0
LINE
  5
E35
330
19
100
AcDbEntity
  8
1
  6
Continuous
 62
     3
100
AcDbLine
 10
5202.2
 20
652.321
 30
0.0
 11
5198.68
 21
672.321
 31
0.0
  0
LINE
  5
E36
330
19
100
AcDbEntity
  8
1
  6
Continuous
 62
     3
100
AcDbLine
 10
5202.2
 20
1935.32
 30
0.0
 11
5198.68
 21
1915.319999999999
 31
0.0
  0
LINE
  5
E37
330
19
100
AcDbEntity
  8
1
  6
Continuous
 62
     3
100
AcDbLine
 10
5202.2
 20
1935.32
 30
0.0
 11
5205.729999999999
 21
1915.319999999999
 31
0.0
  0
TEXT
  5
E38
330
19
100
AcDbEntity
  8
1
 62
     3
100
AcDbText
 10
5202.2
 20
1237.82
 30
0.0
 40
40.0
  1
１２８３
 50
90.0
 41
0.7
100
AcDbText
  0
LINE
  5
E39
330
19
100
AcDbEntity
  8
1
  6
Continuous
 62
     3
100
AcDbLine
 10
5166.38
 20
2985.32
 30
0.0
 11
5222.2
 21
2985.32
 31
0.0
  0
LINE
  5
E3A
330
19
100
AcDbEntity
  8
1
  6
Continuous
 62
     3
100
AcDbLine
 10
5222.2
 20
1935.32
 30
0.0
 11
5142.21
 21
1935.32
 31
0.0
  0
LINE
  5
E3B
330
19
100
AcDbEntity
  8
1
  6
Continuous
 62
     3
100
AcDbLine
 10
5202.2
 20
1935.32
 30
0.0
 11
5202.2
 21
2985.32
 31
0.0
  0
LINE
  5
E3C
330
19
100
AcDbEntity
  8
1
  6
Continuous
 62
     3
100
AcDbLine
 10
5202.2
 20
1935.32
 30
0.0
 11
5205.729999999999
 21
1955.32
 31
0.0
  0
LINE
  5
E3D
330
19
100
AcDbEntity
  8
1
  6
Continuous
 62
     3
100
AcDbLine
 10
5202.2
 20
1935.32
 30
0.0
 11
5198.68
 21
1955.32
 31
0.0
  0
LINE
  5
E3E
330
19
100
AcDbEntity
  8
1
  6
Continuous
 62
     3
100
AcDbLine
 10
5202.2
 20
2985.32
 30
0.0
 11
5198.68
 21
2965.32
 31
0.0
  0
LINE
  5
E3F
330
19
100
AcDbEntity
  8
1
  6
Continuous
 62
     3
100
AcDbLine
 10
5202.2
 20
2985.32
 30
0.0
 11
5205.729999999999
 21
2965.32
 31
0.0
  0
TEXT
  5
E40
330
19
100
AcDbEntity
  8
1
 62
     3
100
AcDbText
 10
5202.2
 20
2404.32
 30
0.0
 40
40.0
  1
１０５０
 50
90.0
 41
0.7
100
AcDbText
  0
LINE
  5
E41
330
19
100
AcDbEntity
  8
1
  6
Continuous
 62
     3
100
AcDbLine
 10
5116.74
 20
3252.32
 30
0.0
 11
5222.2
 21
3252.32
 31
0.0
  0
LINE
  5
E42
330
19
100
AcDbEntity
  8
1
  6
Continuous
 62
     3
100
AcDbLine
 10
5222.2
 20
2985.32
 30
0.0
 11
5166.38
 21
2985.32
 31
0.0
  0
LINE
  5
E43
330
19
100
AcDbEntity
  8
1
  6
Continuous
 62
     3
100
AcDbLine
 10
5202.2
 20
2985.32
 30
0.0
 11
5202.2
 21
3252.32
 31
0.0
  0
LINE
  5
E44
330
19
100
AcDbEntity
  8
1
  6
Continuous
 62
     3
100
AcDbLine
 10
5202.2
 20
2985.32
 30
0.0
 11
5205.729999999999
 21
3005.32
 31
0.0
  0
LINE
  5
E45
330
19
100
AcDbEntity
  8
1
  6
Continuous
 62
     3
100
AcDbLine
 10
5202.2
 20
2985.32
 30
0.0
 11
5198.68
 21
3005.32
 31
0.0
  0
LINE
  5
E46
330
19
100
AcDbEntity
  8
1
  6
Continuous
 62
     3
100
AcDbLine
 10
5202.2
 20
3252.32
 30
0.0
 11
5198.68
 21
3232.32
 31
0.0
  0
LINE
  5
E47
330
19
100
AcDbEntity
  8
1
  6
Continuous
 62
     3
100
AcDbLine
 10
5202.2
 20
3252.32
 30
0.0
 11
5205.729999999999
 21
3232.32
 31
0.0
  0
TEXT
  5
E48
330
19
100
AcDbEntity
  8
1
 62
     3
100
AcDbText
 10
5202.2
 20
3076.82
 30
0.0
 40
40.0
  1
２６７
 50
90.0
 41
0.7
100
AcDbText
  0
LINE
  5
E49
330
19
100
AcDbEntity
  8
1
  6
Continuous
 62
     3
100
AcDbLine
 10
2282.659999999999
 20
3052.32
 30
0.0
 11
2282.659999999999
 21
3183.21
 31
0.0
  0
LINE
  5
E4A
330
19
100
AcDbEntity
  8
1
  6
Continuous
 62
     3
100
AcDbLine
 10
382.665
 20
3143.21
 30
0.0
 11
382.665
 21
3252.32
 31
0.0
  0
LINE
  5
E4B
330
19
100
AcDbEntity
  8
1
  6
Continuous
 62
     3
100
AcDbLine
 10
382.665
 20
3163.21
 30
0.0
 11
2282.659999999999
 21
3163.21
 31
0.0
  0
LINE
  5
E4C
330
19
100
AcDbEntity
  8
1
  6
Continuous
 62
     3
100
AcDbLine
 10
382.665
 20
3163.21
 30
0.0
 11
402.665
 21
3159.69
 31
0.0
  0
LINE
  5
E4D
330
19
100
AcDbEntity
  8
1
  6
Continuous
 62
     3
100
AcDbLine
 10
382.665
 20
3163.21
 30
0.0
 11
402.665
 21
3166.739999999999
 31
0.0
  0
LINE
  5
E4E
330
19
100
AcDbEntity
  8
1
  6
Continuous
 62
     3
100
AcDbLine
 10
2282.659999999999
 20
3163.21
 30
0.0
 11
2262.659999999999
 21
3166.739999999999
 31
0.0
  0
LINE
  5
E4F
330
19
100
AcDbEntity
  8
1
  6
Continuous
 62
     3
100
AcDbLine
 10
2282.659999999999
 20
3163.21
 30
0.0
 11
2262.659999999999
 21
3159.69
 31
0.0
  0
TEXT
  5
E50
330
19
100
AcDbEntity
  8
1
 62
     3
100
AcDbText
 10
1276.66
 20
3163.21
 30
0.0
 40
40.0
  1
１９００
 41
0.7
100
AcDbText
  0
LINE
  5
E51
330
19
100
AcDbEntity
  8
1
  6
Continuous
 62
     3
100
AcDbLine
 10
3982.66
 20
3052.32
 30
0.0
 11
3982.66
 21
3183.21
 31
0.0
  0
LINE
  5
E52
330
19
100
AcDbEntity
  8
1
  6
Continuous
 62
     3
100
AcDbLine
 10
2282.659999999999
 20
3183.21
 30
0.0
 11
2282.659999999999
 21
3052.32
 31
0.0
  0
LINE
  5
E53
330
19
100
AcDbEntity
  8
1
  6
Continuous
 62
     3
100
AcDbLine
 10
2282.659999999999
 20
3163.21
 30
0.0
 11
3982.66
 21
3163.21
 31
0.0
  0
LINE
  5
E54
330
19
100
AcDbEntity
  8
1
  6
Continuous
 62
     3
100
AcDbLine
 10
2282.659999999999
 20
3163.21
 30
0.0
 11
2302.659999999999
 21
3159.69
 31
0.0
  0
LINE
  5
E55
330
19
100
AcDbEntity
  8
1
  6
Continuous
 62
     3
100
AcDbLine
 10
2282.659999999999
 20
3163.21
 30
0.0
 11
2302.659999999999
 21
3166.739999999999
 31
0.0
  0
LINE
  5
E56
330
19
100
AcDbEntity
  8
1
  6
Continuous
 62
     3
100
AcDbLine
 10
3982.66
 20
3163.21
 30
0.0
 11
3962.659999999999
 21
3166.739999999999
 31
0.0
  0
LINE
  5
E57
330
19
100
AcDbEntity
  8
1
  6
Continuous
 62
     3
100
AcDbLine
 10
3982.66
 20
3163.21
 30
0.0
 11
3962.659999999999
 21
3159.69
 31
0.0
  0
TEXT
  5
E58
330
19
100
AcDbEntity
  8
1
 62
     3
100
AcDbText
 10
3048.659999999999
 20
3163.21
 30
0.0
 40
40.0
  1
１７００以上
 41
0.7
100
AcDbText
  0
LINE
  5
E59
330
19
100
AcDbEntity
  8
1
  6
Continuous
 62
     3
100
AcDbLine
 10
682.6649999999999
 20
584.8889999999999
 30
0.0
 11
682.6649999999999
 21
305.486
 31
0.0
  0
LINE
  5
E5A
330
19
100
AcDbEntity
  8
1
  6
Continuous
 62
     3
100
AcDbLine
 10
382.665
 20
305.486
 30
0.0
 11
382.665
 21
652.321
 31
0.0
  0
LINE
  5
E5B
330
19
100
AcDbEntity
  8
1
  6
Continuous
 62
     3
100
AcDbLine
 10
382.665
 20
325.4859999999999
 30
0.0
 11
682.6649999999999
 21
325.4859999999999
 31
0.0
  0
LINE
  5
E5C
330
19
100
AcDbEntity
  8
1
  6
Continuous
 62
     3
100
AcDbLine
 10
382.665
 20
325.4859999999999
 30
0.0
 11
402.665
 21
321.959
 31
0.0
  0
LINE
  5
E5D
330
19
100
AcDbEntity
  8
1
  6
Continuous
 62
     3
100
AcDbLine
 10
382.665
 20
325.4859999999999
 30
0.0
 11
402.665
 21
329.0119999999999
 31
0.0
  0
LINE
  5
E5E
330
19
100
AcDbEntity
  8
1
  6
Continuous
 62
     3
100
AcDbLine
 10
682.6649999999999
 20
325.4859999999999
 30
0.0
 11
662.6649999999999
 21
329.0119999999999
 31
0.0
  0
LINE
  5
E5F
330
19
100
AcDbEntity
  8
1
  6
Continuous
 62
     3
100
AcDbLine
 10
682.6649999999999
 20
325.4859999999999
 30
0.0
 11
662.6649999999999
 21
321.959
 31
0.0
  0
TEXT
  5
E60
330
19
100
AcDbEntity
  8
1
 62
     3
100
AcDbText
 10
485.306
 20
325.4859999999999
 30
0.0
 40
40.0
  1
３００
 41
0.7
 51
15.0
100
AcDbText
  0
LINE
  5
E61
330
19
100
AcDbEntity
  8
1
  6
Continuous
 62
     3
100
AcDbLine
 10
2759.29
 20
994.0660000000001
 30
0.0
 11
2759.29
 21
305.486
 31
0.0
  0
LINE
  5
E62
330
19
100
AcDbEntity
  8
1
  6
Continuous
 62
     3
100
AcDbLine
 10
682.6649999999999
 20
305.486
 30
0.0
 11
682.6649999999999
 21
584.8889999999999
 31
0.0
  0
LINE
  5
E63
330
19
100
AcDbEntity
  8
1
  6
Continuous
 62
     3
100
AcDbLine
 10
682.6649999999999
 20
325.4859999999999
 30
0.0
 11
2759.29
 21
325.4859999999999
 31
0.0
  0
LINE
  5
E64
330
19
100
AcDbEntity
  8
1
  6
Continuous
 62
     3
100
AcDbLine
 10
682.6649999999999
 20
325.4859999999999
 30
0.0
 11
702.665
 21
321.959
 31
0.0
  0
LINE
  5
E65
330
19
100
AcDbEntity
  8
1
  6
Continuous
 62
     3
100
AcDbLine
 10
682.6649999999999
 20
325.4859999999999
 30
0.0
 11
702.665
 21
329.0119999999999
 31
0.0
  0
LINE
  5
E66
330
19
100
AcDbEntity
  8
1
  6
Continuous
 62
     3
100
AcDbLine
 10
2759.29
 20
325.4859999999999
 30
0.0
 11
2739.29
 21
329.0119999999999
 31
0.0
  0
LINE
  5
E67
330
19
100
AcDbEntity
  8
1
  6
Continuous
 62
     3
100
AcDbLine
 10
2759.29
 20
325.4859999999999
 30
0.0
 11
2739.29
 21
321.959
 31
0.0
  0
TEXT
  5
E68
330
19
100
AcDbEntity
  8
1
 62
     3
100
AcDbText
 10
1659.62
 20
325.4859999999999
 30
0.0
 40
40.0
  1
２０７７
 41
0.7
 51
15.0
100
AcDbText
  0
LINE
  5
E69
330
19
100
AcDbEntity
  8
1
  6
Continuous
 62
     3
100
AcDbLine
 10
2707.06
 20
886.955
 30
0.0
 11
2707.06
 21
377.6499999999999
 31
0.0
  0
LINE
  5
E6A
330
19
100
AcDbEntity
  8
1
  6
Continuous
 62
     3
100
AcDbLine
 10
2282.659999999999
 20
377.6499999999999
 30
0.0
 11
2282.659999999999
 21
480.8169999999999
 31
0.0
  0
LINE
  5
E6B
330
19
100
AcDbEntity
  8
1
  6
Continuous
 62
     3
100
AcDbLine
 10
2282.659999999999
 20
397.6499999999999
 30
0.0
 11
2707.06
 21
397.6499999999999
 31
0.0
  0
LINE
  5
E6C
330
19
100
AcDbEntity
  8
1
  6
Continuous
 62
     3
100
AcDbLine
 10
2282.659999999999
 20
397.6499999999999
 30
0.0
 11
2302.659999999999
 21
394.123
 31
0.0
  0
LINE
  5
E6D
330
19
100
AcDbEntity
  8
1
  6
Continuous
 62
     3
100
AcDbLine
 10
2282.659999999999
 20
397.6499999999999
 30
0.0
 11
2302.659999999999
 21
401.1759999999999
 31
0.0
  0
LINE
  5
E6E
330
19
100
AcDbEntity
  8
1
  6
Continuous
 62
     3
100
AcDbLine
 10
2707.06
 20
397.6499999999999
 30
0.0
 11
2687.06
 21
401.1759999999999
 31
0.0
  0
LINE
  5
E6F
330
19
100
AcDbEntity
  8
1
  6
Continuous
 62
     3
100
AcDbLine
 10
2707.06
 20
397.6499999999999
 30
0.0
 11
2687.06
 21
394.123
 31
0.0
  0
TEXT
  5
E70
330
19
100
AcDbEntity
  8
1
 62
     3
100
AcDbText
 10
2447.5
 20
397.6499999999999
 30
0.0
 40
40.0
  1
４２４
 41
0.7
 51
15.0
100
AcDbText
  0
LINE
  5
E71
330
19
100
AcDbEntity
  8
1
  6
Continuous
 62
     3
100
AcDbLine
 10
2806.869999999999
 20
920.996
 30
0.0
 11
2847.76
 21
920.996
 31
0.0
  0
LINE
  5
E72
330
19
100
AcDbEntity
  8
1
  6
Continuous
 62
     3
100
AcDbLine
 10
2847.76
 20
652.321
 30
0.0
 11
2689.06
 21
652.321
 31
0.0
  0
LINE
  5
E73
330
19
100
AcDbEntity
  8
1
  6
Continuous
 62
     3
100
AcDbLine
 10
2827.76
 20
652.321
 30
0.0
 11
2827.76
 21
920.996
 31
0.0
  0
LINE
  5
E74
330
19
100
AcDbEntity
  8
1
  6
Continuous
 62
     3
100
AcDbLine
 10
2827.76
 20
652.321
 30
0.0
 11
2831.29
 21
672.321
 31
0.0
  0
LINE
  5
E75
330
19
100
AcDbEntity
  8
1
  6
Continuous
 62
     3
100
AcDbLine
 10
2827.76
 20
652.321
 30
0.0
 11
2824.23
 21
672.321
 31
0.0
  0
LINE
  5
E76
330
19
100
AcDbEntity
  8
1
  6
Continuous
 62
     3
100
AcDbLine
 10
2827.76
 20
920.996
 30
0.0
 11
2824.23
 21
900.9960000000001
 31
0.0
  0
LINE
  5
E77
330
19
100
AcDbEntity
  8
1
  6
Continuous
 62
     3
100
AcDbLine
 10
2827.76
 20
920.996
 30
0.0
 11
2831.29
 21
900.9960000000001
 31
0.0
  0
TEXT
  5
E78
330
19
100
AcDbEntity
  8
1
 62
     3
100
AcDbText
 10
2827.76
 20
739.299
 30
0.0
 40
40.0
  1
２６９
 50
90.0
 41
0.7
 51
15.0
100
AcDbText
  0
LINE
  5
E79
330
19
100
AcDbEntity
  8
1
  6
Continuous
 62
     3
100
AcDbLine
 10
2410.88
 20
1084.88
 30
0.0
 11
2463.78
 21
1084.88
 31
0.0
  0
LINE
  5
E7A
330
19
100
AcDbEntity
  8
1
  6
Continuous
 62
     3
100
AcDbLine
 10
2423.78
 20
652.321
 30
0.0
 11
2586.05
 21
652.321
 31
0.0
  0
LINE
  5
E7B
330
19
100
AcDbEntity
  8
1
  6
Continuous
 62
     3
100
AcDbLine
 10
2443.78
 20
652.321
 30
0.0
 11
2443.78
 21
1084.88
 31
0.0
  0
LINE
  5
E7C
330
19
100
AcDbEntity
  8
1
  6
Continuous
 62
     3
100
AcDbLine
 10
2443.78
 20
652.321
 30
0.0
 11
2447.3
 21
672.321
 31
0.0
  0
LINE
  5
E7D
330
19
100
AcDbEntity
  8
1
  6
Continuous
 62
     3
100
AcDbLine
 10
2443.78
 20
652.321
 30
0.0
 11
2440.25
 21
672.321
 31
0.0
  0
LINE
  5
E7E
330
19
100
AcDbEntity
  8
1
  6
Continuous
 62
     3
100
AcDbLine
 10
2443.78
 20
1084.88
 30
0.0
 11
2440.25
 21
1064.88
 31
0.0
  0
LINE
  5
E7F
330
19
100
AcDbEntity
  8
1
  6
Continuous
 62
     3
100
AcDbLine
 10
2443.78
 20
1084.88
 30
0.0
 11
2447.3
 21
1064.88
 31
0.0
  0
TEXT
  5
E80
330
19
100
AcDbEntity
  8
1
 62
     3
100
AcDbText
 10
2443.78
 20
821.2419999999999
 30
0.0
 40
40.0
  1
４１３
 50
90.0
 41
0.7
 51
15.0
100
AcDbText
  0
LINE
  5
E81
330
19
100
AcDbEntity
  8
1
  6
Continuous
 62
     3
100
AcDbLine
 10
2863.05
 20
1131.39
 30
0.0
 11
2916.78
 21
1131.39
 31
0.0
  0
LINE
  5
E82
330
19
100
AcDbEntity
  8
1
  6
Continuous
 62
     3
100
AcDbLine
 10
2916.78
 20
652.321
 30
0.0
 11
2830.28
 21
652.321
 31
0.0
  0
LINE
  5
E83
330
19
100
AcDbEntity
  8
1
  6
Continuous
 62
     3
100
AcDbLine
 10
2896.78
 20
652.321
 30
0.0
 11
2896.78
 21
1131.39
 31
0.0
  0
LINE
  5
E84
330
19
100
AcDbEntity
  8
1
  6
Continuous
 62
     3
100
AcDbLine
 10
2896.78
 20
652.321
 30
0.0
 11
2900.31
 21
672.321
 31
0.0
  0
LINE
  5
E85
330
19
100
AcDbEntity
  8
1
  6
Continuous
 62
     3
100
AcDbLine
 10
2896.78
 20
652.321
 30
0.0
 11
2893.26
 21
672.321
 31
0.0
  0
LINE
  5
E86
330
19
100
AcDbEntity
  8
1
  6
Continuous
 62
     3
100
AcDbLine
 10
2896.78
 20
1131.39
 30
0.0
 11
2893.26
 21
1111.39
 31
0.0
  0
LINE
  5
E87
330
19
100
AcDbEntity
  8
1
  6
Continuous
 62
     3
100
AcDbLine
 10
2896.78
 20
1131.39
 30
0.0
 11
2900.31
 21
1111.39
 31
0.0
  0
TEXT
  5
E88
330
19
100
AcDbEntity
  8
1
 62
     3
100
AcDbText
 10
2896.78
 20
844.5
 30
0.0
 40
40.0
  1
４６９
 50
90.0
 41
0.7
 51
15.0
100
AcDbText
  0
LINE
  5
E89
330
19
100
AcDbEntity
  8
1
  6
Continuous
 62
     3
100
AcDbLine
 10
2845.579999999999
 20
938.996
 30
0.0
 11
4095.93
 21
938.996
 31
0.0
  0
LINE
  5
E8A
330
19
100
AcDbEntity
  8
1
  6
Continuous
 62
     3
100
AcDbLine
 10
4095.93
 20
652.321
 30
0.0
 11
3982.66
 21
652.321
 31
0.0
  0
LINE
  5
E8B
330
19
100
AcDbEntity
  8
1
  6
Continuous
 62
     3
100
AcDbLine
 10
4075.929999999999
 20
652.321
 30
0.0
 11
4075.929999999999
 21
938.996
 31
0.0
  0
LINE
  5
E8C
330
19
100
AcDbEntity
  8
1
  6
Continuous
 62
     3
100
AcDbLine
 10
4075.929999999999
 20
652.321
 30
0.0
 11
4079.45
 21
672.321
 31
0.0
  0
LINE
  5
E8D
330
19
100
AcDbEntity
  8
1
  6
Continuous
 62
     3
100
AcDbLine
 10
4075.929999999999
 20
652.321
 30
0.0
 11
4072.4
 21
672.321
 31
0.0
  0
LINE
  5
E8E
330
19
100
AcDbEntity
  8
1
  6
Continuous
 62
     3
100
AcDbLine
 10
4075.929999999999
 20
938.996
 30
0.0
 11
4072.4
 21
918.9960000000001
 31
0.0
  0
LINE
  5
E8F
330
19
100
AcDbEntity
  8
1
  6
Continuous
 62
     3
100
AcDbLine
 10
4075.929999999999
 20
938.996
 30
0.0
 11
4079.45
 21
918.9960000000001
 31
0.0
  0
TEXT
  5
E90
330
19
100
AcDbEntity
  8
1
 62
     3
100
AcDbText
 10
4075.929999999999
 20
748.299
 30
0.0
 40
40.0
  1
２８７
 50
90.0
 41
0.7
 51
15.0
100
AcDbText
  0
LINE
  5
E91
330
19
100
AcDbEntity
  8
1
  6
Continuous
 62
     3
100
AcDbLine
 10
2384.46
 20
1970.32
 30
0.0
 11
4095.93
 21
1970.32
 31
0.0
  0
LINE
  5
E92
330
19
100
AcDbEntity
  8
1
  6
Continuous
 62
     3
100
AcDbLine
 10
4095.93
 20
938.996
 30
0.0
 11
2845.579999999999
 21
938.996
 31
0.0
  0
LINE
  5
E93
330
19
100
AcDbEntity
  8
1
  6
Continuous
 62
     3
100
AcDbLine
 10
4075.929999999999
 20
938.996
 30
0.0
 11
4075.929999999999
 21
1970.32
 31
0.0
  0
LINE
  5
E94
330
19
100
AcDbEntity
  8
1
  6
Continuous
 62
     3
100
AcDbLine
 10
4075.929999999999
 20
938.996
 30
0.0
 11
4079.45
 21
958.9960000000001
 31
0.0
  0
LINE
  5
E95
330
19
100
AcDbEntity
  8
1
  6
Continuous
 62
     3
100
AcDbLine
 10
4075.929999999999
 20
938.996
 30
0.0
 11
4072.4
 21
958.9960000000001
 31
0.0
  0
LINE
  5
E96
330
19
100
AcDbEntity
  8
1
  6
Continuous
 62
     3
100
AcDbLine
 10
4075.929999999999
 20
1970.32
 30
0.0
 11
4072.4
 21
1950.319999999999
 31
0.0
  0
LINE
  5
E97
330
19
100
AcDbEntity
  8
1
  6
Continuous
 62
     3
100
AcDbLine
 10
4075.929999999999
 20
1970.32
 30
0.0
 11
4079.45
 21
1950.319999999999
 31
0.0
  0
TEXT
  5
E98
330
19
100
AcDbEntity
  8
1
 62
     3
100
AcDbText
 10
4075.929999999999
 20
1393.29
 30
0.0
 40
40.0
  1
１０３１
 50
90.0
 41
0.7
 51
15.0
100
AcDbText
  0
TEXT
  5
E99
330
19
100
AcDbEntity
  8
1
 62
     3
100
AcDbText
 10
1460.6
 20
147.9859999999999
 30
0.0
 40
40.0
  1
本機は，水平なコンクリ－ト基礎上に設置する事
100
AcDbText
  0
TEXT
  5
E9A
330
19
100
AcDbEntity
  8
1
 62
     3
100
AcDbText
 10
1460.6
 20
88.37239999999999
 30
0.0
 40
40.0
  1
自転車は、２４インチ一般軽快車の場合
100
AcDbText
  0
TEXT
  5
E9B
330
19
100
AcDbEntity
  8
1
 62
     3
100
AcDbText
 10
1460.6
 20
34.61019999999999
 30
0.0
 40
40.0
  1
傾斜寸法値は，参考数値です．
100
AcDbText
  0
LINE
  5
E9C
330
19
100
AcDbEntity
  8
1
  6
Continuous
 62
     1
100
AcDbLine
 10
4888.04
 20
658.321
 30
0.0
 11
4888.04
 21
781.77
 31
0.0
  0
LINE
  5
E9D
330
19
100
AcDbEntity
  8
1
  6
Continuous
 62
     1
100
AcDbLine
 10
4888.04
 20
801.7699999999999
 30
0.0
 11
4888.04
 21
1601.42
 31
0.0
  0
LWPOLYLINE
  5
E9E
330
19
100
AcDbEntity
  8
1
  6
Continuous
 62
     8
100
AcDbPolyline
 90
        3
 70
     0
 43
0.0
 10
4701.89
 20
2871.739999999999
 10
4730.54
 20
2585.32
 10
4752.010000000001
 20
2585.32
  0
LINE
  5
EA3
330
19
100
AcDbEntity
  8
1
  6
Continuous
 62
     8
100
AcDbLine
 10
4837.54
 20
2585.32
 30
0.0
 11
4819.68
 21
2585.32
 31
0.0
  0
LINE
  5
EA4
330
19
100
AcDbEntity
  8
1
  6
Continuous
 62
     8
100
AcDbLine
 10
4804.37
 20
2585.32
 30
0.0
 11
4762.089999999999
 21
2585.32
 31
0.0
  0
LINE
  5
EA5
330
19
100
AcDbEntity
  8
1
  6
Continuous
 62
     8
100
AcDbLine
 10
4863.54
 20
2585.32
 30
0.0
 11
4881.39
 21
2585.32
 31
0.0
  0
LINE
  5
EA6
330
19
100
AcDbEntity
  8
1
  6
Continuous
 62
     8
100
AcDbLine
 10
4896.7
 20
2585.32
 30
0.0
 11
4938.979999999999
 21
2585.32
 31
0.0
  0
LWPOLYLINE
  5
EA7
330
19
100
AcDbEntity
  8
1
  6
Continuous
 62
     8
100
AcDbPolyline
 90
        3
 70
     0
 43
0.0
 10
4949.060000000001
 20
2585.32
 10
4970.539999999999
 20
2585.32
 10
4999.18
 20
2871.739999999999
  0
LWPOLYLINE
  5
EAC
330
19
100
AcDbEntity
  8
1
  6
Continuous
 62
     8
100
AcDbPolyline
 90
        3
 70
     0
 43
0.0
 10
4606.89
 20
1608.74
 10
4635.54
 20
1322.32
 10
4657.01
 20
1322.32
  0
LINE
  5
EB1
330
19
100
AcDbEntity
  8
1
  6
Continuous
 62
     8
100
AcDbLine
 10
4709.369999999999
 20
1322.32
 30
0.0
 11
4667.09
 21
1322.32
 31
0.0
  0
LINE
  5
EB2
330
19
100
AcDbEntity
  8
1
  6
Continuous
 62
     8
100
AcDbLine
 10
4742.54
 20
1322.32
 30
0.0
 11
4724.68
 21
1322.32
 31
0.0
  0
LINE
  5
EB3
330
19
100
AcDbEntity
  8
1
  6
Continuous
 62
     8
100
AcDbLine
 10
4768.54
 20
1322.32
 30
0.0
 11
4786.389999999999
 21
1322.32
 31
0.0
  0
LINE
  5
EB4
330
19
100
AcDbEntity
  8
1
  6
Continuous
 62
     8
100
AcDbLine
 10
4801.7
 20
1322.32
 30
0.0
 11
4843.98
 21
1322.32
 31
0.0
  0
LWPOLYLINE
  5
EB5
330
19
100
AcDbEntity
  8
1
  6
Continuous
 62
     8
100
AcDbPolyline
 90
        3
 70
     0
 43
0.0
 10
4854.06
 20
1322.32
 10
4875.54
 20
1322.32
 10
4904.18
 20
1608.74
  0
TEXT
  5
EBA
330
19
100
AcDbEntity
  8
1
 62
     1
100
AcDbText
 10
4093.511061234377
 20
448.6319999999999
 30
0.0
 40
70.0
  1
サイクルスペ－ス（独立型）CSE-20-S-H
 41
0.7142800000000001
100
AcDbText
  0
TEXT
  5
EBB
330
19
100
AcDbEntity
  8
1
 62
     1
100
AcDbText
 10
4171.949999999999
 20
349.19
 30
0.0
 40
70.0
  1
高位用全体組立図（改）
 41
0.85714
100
AcDbText
  0
LINE
  5
EBC
330
19
100
AcDbEntity
  8
1
  6
Continuous
 62
     1
100
AcDbLine
 10
4888.04
 20
1626.97
 30
0.0
 11
4888.04
 21
1907.82
 31
0.0
  0
LINE
  5
EBD
330
19
100
AcDbEntity
  8
1
  6
Continuous
 62
     1
100
AcDbLine
 10
4813.04
 20
1623.9
 30
0.0
 11
4813.04
 21
1907.82
 31
0.0
  0
ARC
  5
EBE
330
19
100
AcDbEntity
  8
1
  6
Continuous
 62
     2
100
AcDbCircle
 10
4912.040000000001
 20
1913.82
 30
0.0
 40
6.0
100
AcDbArc
 50
270.0
 51
0.0
  0
ARC
  5
EBF
330
19
100
AcDbEntity
  8
1
  6
Continuous
 62
     2
100
AcDbCircle
 10
4789.039999999999
 20
1913.82
 30
0.0
 40
6.0
100
AcDbArc
 50
180.0
 51
270.0
  0
LINE
  5
EC0
330
19
100
AcDbEntity
  8
1
  6
Continuous
 62
     2
100
AcDbLine
 10
4912.040000000001
 20
1907.82
 30
0.0
 11
4789.039999999999
 21
1907.82
 31
0.0
  0
LWPOLYLINE
  5
EC1
330
19
100
AcDbEntity
  8
1
  6
Continuous
 62
     1
100
AcDbPolyline
 90
        5
 70
     0
 43
0.0
 10
797.665
 20
1932.819999999999
 10
567.6649999999999
 20
1932.819999999999
 10
567.6649999999999
 20
1907.82
 10
797.665
 20
1907.82
 10
797.665
 20
1932.819999999999
  0
LINE
  5
EC8
330
19
100
AcDbEntity
  8
1
  6
Continuous
 62
     1
100
AcDbLine
 10
645.1649999999999
 20
1361.4
 30
0.0
 11
645.1649999999999
 21
1907.82
 31
0.0
  0
LINE
  5
EC9
330
19
100
AcDbEntity
  8
1
  6
Continuous
 62
     1
100
AcDbLine
 10
720.1649999999999
 20
1394.81
 30
0.0
 11
720.1649999999999
 21
1907.82
 31
0.0
  0
LWPOLYLINE
  5
ECA
330
19
100
AcDbEntity
  8
1
  6
Continuous
 62
     2
100
AcDbPolyline
 90
        4
 70
     0
 43
0.0
 10
797.665
 20
3562.24
 10
797.665
 20
3567.74
 10
567.6649999999999
 20
3567.74
 10
567.6649999999999
 20
3562.24
  0
LWPOLYLINE
  5
ED0
330
19
100
AcDbEntity
  8
1
  6
Continuous
 62
     2
100
AcDbPolyline
 90
        4
 70
     0
 43
0.0
 10
567.6649999999999
 20
3438.239999999999
 10
567.6649999999999
 20
3432.739999999999
 10
797.665
 20
3432.739999999999
 10
797.665
 20
3438.239999999999
  0
LWPOLYLINE
  5
ED6
330
19
100
AcDbEntity
  8
1
  6
Continuous
 62
     2
100
AcDbPolyline
 90
        4
 70
     0
 43
0.0
 10
4913.540000000001
 20
1915.119999999999
 10
4913.540000000001
 20
1932.819999999999
 10
4918.04
 20
1932.819999999999
 10
4918.04
 20
1913.82
  0
LWPOLYLINE
  5
EDC
330
19
100
AcDbEntity
  8
1
  6
Continuous
 62
     2
100
AcDbPolyline
 90
        4
 70
     0
 43
0.0
 10
4783.039999999999
 20
1913.82
 10
4783.039999999999
 20
1932.819999999999
 10
4787.539999999999
 20
1932.819999999999
 10
4787.539999999999
 20
1915.119999999999
  0
LINE
  5
EE4
330
19
100
AcDbEntity
  8
1
  6
DASHDOT
 62
     3
100
AcDbLine
 10
432.665
 20
1133.887065745781
 30
0.0
 11
432.6649999999999
 21
652.321
 31
0.0
  0
LINE
  5
EE5
330
19
100
AcDbEntity
  8
0
  6
Continuous
 62
     3
100
AcDbLine
 10
432.6649999999999
 20
2247.199999999999
 30
0.0
 11
432.6649999999999
 21
2533.744798585536
 31
0.0
  0
LINE
  5
EF6
330
19
100
AcDbEntity
  8
1
  6
Continuous
 62
     3
100
AcDbLine
 10
383.5523584849029
 20
2530.78182115265
 30
0.0
 11
403.5523584849029
 21
2527.25482115265
 31
0.0
  0
LINE
  5
EF7
330
19
100
AcDbEntity
  8
1
  6
Continuous
 62
     3
100
AcDbLine
 10
383.5523584849029
 20
2530.78182115265
 30
0.0
 11
433.5523584849028
 21
2530.78182115265
 31
0.0
  0
LINE
  5
EF8
330
19
100
AcDbEntity
  8
1
  6
Continuous
 62
     3
100
AcDbLine
 10
433.5523584849028
 20
2530.78182115265
 30
0.0
 11
413.5523584849029
 21
2527.25482115265
 31
0.0
  0
LINE
  5
EF9
330
19
100
AcDbEntity
  8
1
  6
Continuous
 62
     3
100
AcDbLine
 10
433.5523584849028
 20
2530.78182115265
 30
0.0
 11
453.5523584849029
 21
2527.25482115265
 31
0.0
  0
LINE
  5
EFA
330
19
100
AcDbEntity
  8
1
  6
Continuous
 62
     3
100
AcDbLine
 10
433.5523584849028
 20
2530.78182115265
 30
0.0
 11
413.5523584849029
 21
2534.307821152651
 31
0.0
  0
LINE
  5
EFB
330
19
100
AcDbEntity
  8
1
  6
Continuous
 62
     3
100
AcDbLine
 10
383.5523584849029
 20
2530.78182115265
 30
0.0
 11
403.5523584849029
 21
2534.307821152651
 31
0.0
  0
LINE
  5
EFC
330
19
100
AcDbEntity
  8
1
  6
Continuous
 62
     3
100
AcDbLine
 10
433.5523584849028
 20
2530.78182115265
 30
0.0
 11
453.5523584849029
 21
2534.307821152651
 31
0.0
  0
LINE
  5
EFD
330
19
100
AcDbEntity
  8
1
  6
Continuous
 62
     3
100
AcDbLine
 10
683.5523584849028
 20
2530.78182115265
 30
0.0
 11
663.5523584849029
 21
2527.25482115265
 31
0.0
  0
LINE
  5
EFE
330
19
100
AcDbEntity
  8
1
  6
Continuous
 62
     3
100
AcDbLine
 10
683.5523584849028
 20
2530.78182115265
 30
0.0
 11
663.5523584849029
 21
2534.307821152651
 31
0.0
  0
LINE
  5
EFF
330
19
100
AcDbEntity
  8
1
  6
Continuous
 62
     3
100
AcDbLine
 10
433.5523584849028
 20
2530.78182115265
 30
0.0
 11
683.5523584849028
 21
2530.78182115265
 31
0.0
  0
TEXT
  5
F00
330
19
100
AcDbEntity
  8
1
 62
     3
100
AcDbText
 10
516.5523584849029
 20
2530.78182115265
 30
0.0
 40
40.0
  1
２７０
 41
0.7
100
AcDbText
  0
TEXT
  5
F01
330
19
100
AcDbEntity
  8
1
 62
     3
100
AcDbText
 10
380.5523584849029
 20
2530.78182115265
 30
0.0
 40
40.0
  1
３０
 41
0.7
100
AcDbText
  0
ENDSEC
  0
SECTION
  2
OBJECTS
  0
DICTIONARY
  5
C
330
0
100
AcDbDictionary
281
     1
  3
ACAD_GROUP
350
D
  3
ACAD_LAYOUT
350
F0A
  3
ACAD_MLINESTYLE
350
E
  3
ACAD_PLOTSETTINGS
350
F0B
  3
ACAD_PLOTSTYLENAME
350
F08
  0
DICTIONARY
  5
D
102
{ACAD_REACTORS
330
C
102
}
330
C
100
AcDbDictionary
281
     1
  0
DICTIONARY
  5
F0A
102
{ACAD_REACTORS
330
C
102
}
330
C
100
AcDbDictionary
281
     1
  3
Model
350
F0C
  3
ﾚｲｱｳﾄ1
350
F0D
  0
DICTIONARY
  5
E
102
{ACAD_REACTORS
330
C
102
}
330
C
100
AcDbDictionary
281
     1
  3
STANDARD
350
1C
  0
DICTIONARY
  5
F0B
102
{ACAD_REACTORS
330
C
102
}
330
C
100
AcDbDictionary
281
     1
  0
ACDBDICTIONARYWDFLT
  5
F08
102
{ACAD_REACTORS
330
C
102
}
330
C
100
AcDbDictionary
281
     1
  3
Normal
350
F09
100
AcDbDictionaryWithDefault
340
F09
  0
LAYOUT
  5
F0C
102
{ACAD_REACTORS
330
F0A
102
}
330
F0A
100
AcDbPlotSettings
  1

  2
Canon LBP-870
  4

  6

 40
0.0
 41
0.0
 42
0.0
 43
0.0
 44
0.0
 45
0.0
 46
0.0
 47
0.0
 48
0.0
 49
0.0
140
0.0
141
0.0
142
1.0
143
1.0
 70
  1712
 72
     0
 73
     0
 74
     0
  7

 75
     0
147
1.0
148
0.0
149
0.0
100
AcDbLayout
  1
Model
 70
     1
 71
     0
 10
0.0
 20
0.0
 11
12.0
 21
9.0
 12
0.0
 22
0.0
 32
0.0
 14
0.0
 24
0.0
 34
0.0
 15
0.0
 25
0.0
 35
0.0
146
0.0
 13
0.0
 23
0.0
 33
0.0
 16
1.0
 26
0.0
 36
0.0
 17
0.0
 27
1.0
 37
0.0
 76
     0
330
19
  0
LAYOUT
  5
F0D
102
{ACAD_REACTORS
330
F0A
102
}
330
F0A
100
AcDbPlotSettings
  1

  2
Canon LBP-870
  4

  6

 40
0.0
 41
0.0
 42
0.0
 43
0.0
 44
0.0
 45
0.0
 46
0.0
 47
0.0
 48
0.0
 49
0.0
140
0.0
141
0.0
142
1.0
143
1.0
 70
   688
 72
     0
 73
     0
 74
     5
  7

 75
    16
147
1.0
148
0.0
149
0.0
100
AcDbLayout
  1
ﾚｲｱｳﾄ1
 70
     1
 71
     1
 10
0.0
 20
0.0
 11
12.0
 21
9.0
 12
0.0
 22
0.0
 32
0.0
 14
1.000000000000000E+20
 24
1.000000000000000E+20
 34
1.000000000000000E+20
 15
-1.000000000000000E+20
 25
-1.000000000000000E+20
 35
-1.000000000000000E+20
146
0.0
 13
0.0
 23
0.0
 33
0.0
 16
1.0
 26
0.0
 36
0.0
 17
0.0
 27
1.0
 37
0.0
 76
     0
330
16
  0
MLINESTYLE
  5
1C
102
{ACAD_REACTORS
330
E
102
}
330
E
100
AcDbMlineStyle
  2
STANDARD
 70
     0
  3

 62
     0
 51
90.0
 52
90.0
 71
     2
 49
0.5
 62
   256
  6
BYLAYER
 49
-0.5
 62
   256
  6
BYLAYER
  0
ACDBPLACEHOLDER
  5
F09
102
{ACAD_REACTORS
330
F08
102
}
330
F08
  0
ENDSEC
  0
EOF
