  0
SECTION
  2
HEADER
  9
$ACADVER
  1
AC1009
  9
$INSBASE
 10
267.00000000000011
 20
194.89999999999981
 30
0.0
  9
$EXTMIN
 10
867.99324330406671
 20
327.38164749855792
 30
-0.0000000000112498
  9
$EXTMAX
 10
32765.33210850941
 20
22484.553276491992
 30
0.0000000000002956
  9
$LIMMIN
 10
0.0
 20
0.0
  9
$LIMMAX
 10
33600.0
 20
23760.0
  9
$ORTHOMODE
 70
     0
  9
$REGENMODE
 70
     1
  9
$FILLMODE
 70
     1
  9
$QTEXTMODE
 70
     0
  9
$MIRRTEXT
 70
     0
  9
$DRAGMODE
 70
     2
  9
$LTSCALE
 40
80.0
  9
$OSMODE
 70
  3071
  9
$ATTMODE
 70
     1
  9
$TEXTSIZE
 40
0.2
  9
$TRACEWID
 40
0.05
  9
$TEXTSTYLE
  7
00
  9
$CLAYER
  8
SUNPOU
  9
$CELTYPE
  6
BYLAYER
  9
$CECOLOR
 62
   256
  9
$DIMSCALE
 40
80.0
  9
$DIMASZ
 40
0.5
  9
$DIMEXO
 40
1.0
  9
$DIMDLI
 40
7.0
  9
$DIMRND
 40
0.0
  9
$DIMDLE
 40
3.0
  9
$DIMEXE
 40
1.0
  9
$DIMTP
 40
0.0
  9
$DIMTM
 40
0.0
  9
$DIMTXT
 40
2.0
  9
$DIMCEN
 40
0.0
  9
$DIMTSZ
 40
0.0
  9
$DIMTOL
 70
     0
  9
$DIMLIM
 70
     0
  9
$DIMTIH
 70
     0
  9
$DIMTOH
 70
     0
  9
$DIMSE1
 70
     0
  9
$DIMSE2
 70
     0
  9
$DIMTAD
 70
     1
  9
$DIMZIN
 70
     8
  9
$DIMBLK
  1
DOT
  9
$DIMASO
 70
     1
  9
$DIMSHO
 70
     0
  9
$DIMPOST
  1

  9
$DIMAPOST
  1

  9
$DIMALT
 70
     0
  9
$DIMALTD
 70
     2
  9
$DIMALTF
 40
25.399999999999999
  9
$DIMLFAC
 40
1.0
  9
$DIMTOFL
 70
     1
  9
$DIMTVP
 40
0.0
  9
$DIMTIX
 70
     0
  9
$DIMSOXD
 70
     0
  9
$DIMSAH
 70
     1
  9
$DIMBLK1
  1
DOT
  9
$DIMBLK2
  1
DOT
  9
$DIMSTYLE
  2
SUNPOU_申請図
  9
$DIMCLRD
 70
   256
  9
$DIMCLRE
 70
   256
  9
$DIMCLRT
 70
   256
  9
$DIMTFAC
 40
1.0
  9
$DIMGAP
 40
1.0
  9
$LUNITS
 70
     2
  9
$LUPREC
 70
     2
  9
$SKETCHINC
 40
0.1
  9
$FILLETRAD
 40
0.0
  9
$AUNITS
 70
     0
  9
$AUPREC
 70
     0
  9
$MENU
  1
A:\TIGER\MENU\TIGER
  9
$ELEVATION
 40
0.0
  9
$PELEVATION
 40
0.0
  9
$THICKNESS
 40
0.0
  9
$LIMCHECK
 70
     0
  9
$BLIPMODE
 70
     1
  9
$CHAMFERA
 40
0.0
  9
$CHAMFERB
 40
0.0
  9
$SKPOLY
 70
     0
  9
$TDCREATE
 40
2450266.5710648149
  9
$TDUPDATE
 40
2456314.7688024421
  9
$TDINDWG
 40
0.636543044
  9
$TDUSRTIMER
 40
0.636543044
  9
$USRTIMER
 70
     1
  9
$ANGBASE
 50
0.0
  9
$ANGDIR
 70
     0
  9
$PDMODE
 70
     0
  9
$PDSIZE
 40
0.0
  9
$PLINEWID
 40
0.0
  9
$COORDS
 70
     0
  9
$SPLFRAME
 70
     0
  9
$SPLINETYPE
 70
     6
  9
$SPLINESEGS
 70
     8
  9
$ATTDIA
 70
     0
  9
$ATTREQ
 70
     1
  9
$HANDLING
 70
     1
  9
$HANDSEED
  5
857D4
  9
$SURFTAB1
 70
     6
  9
$SURFTAB2
 70
     6
  9
$SURFTYPE
 70
     6
  9
$SURFU
 70
     6
  9
$SURFV
 70
     6
  9
$UCSNAME
  2

  9
$UCSORG
 10
0.0
 20
0.0
 30
0.0
  9
$UCSXDIR
 10
1.0
 20
0.0
 30
0.0
  9
$UCSYDIR
 10
0.0
 20
1.0
 30
0.0
  9
$PUCSNAME
  2

  9
$PUCSORG
 10
0.0
 20
0.0
 30
0.0
  9
$PUCSXDIR
 10
1.0
 20
0.0
 30
0.0
  9
$PUCSYDIR
 10
0.0
 20
1.0
 30
0.0
  9
$USERI1
 70
     3
  9
$USERI2
 70
     0
  9
$USERI3
 70
     0
  9
$USERI4
 70
     0
  9
$USERI5
 70
  1103
  9
$USERR1
 40
0.0
  9
$USERR2
 40
1.0
  9
$USERR3
 40
0.0
  9
$USERR4
 40
0.0
  9
$USERR5
 40
0.0
  9
$WORLDVIEW
 70
     1
  9
$SHADEDGE
 70
     3
  9
$SHADEDIF
 70
    70
  9
$TILEMODE
 70
     1
  9
$MAXACTVP
 70
    16
  9
$PLIMCHECK
 70
     0
  9
$PEXTMIN
 10
1.0000000000000000E+020
 20
1.0000000000000000E+020
 30
1.0000000000000000E+020
  9
$PEXTMAX
 10
-1.0000000000000000E+020
 20
-1.0000000000000000E+020
 30
-1.0000000000000000E+020
  9
$PLIMMIN
 10
0.0
 20
0.0
  9
$PLIMMAX
 10
12.0
 20
9.0
  9
$UNITMODE
 70
     0
  9
$VISRETAIN
 70
     0
  9
$PLINEGEN
 70
     1
  9
$PSLTSCALE
 70
     0
  0
ENDSEC
  0
SECTION
  2
TABLES
  0
TABLE
  2
VPORT
 70
     1
  0
VPORT
  2
*ACTIVE
 70
     0
 10
0.0
 20
0.0
 11
1.0
 21
1.0
 12
16800.0
 22
11880.0
 13
0.0
 23
0.0
 14
1.0
 24
1.0
 15
0.0
 25
0.0
 16
0.0
 26
0.0
 36
1.0
 17
0.0
 27
0.0
 37
0.0
 40
23958.55153203342
 41
1.6471408647140859
 42
50.0
 43
0.0
 44
0.0
 50
0.0
 51
0.0
 71
     0
 72
 10000
 73
     1
 74
     0
 75
     0
 76
     0
 77
     0
 78
     0
  0
ENDTAB
  0
TABLE
  2
LTYPE
 70
     4
  0
LTYPE
  2
CONTINUOUS
 70
     0
  3
実線
 72
    65
 73
     0
 40
0.0
  0
LTYPE
  2
1PL-M
 70
     0
  3

 72
    65
 73
     4
 40
15.0
 49
12.0
 49
-1.0
 49
1.0
 49
-1.0
  0
ENDTAB
  0
TABLE
  2
LAYER
 70
    19
  0
LAYER
  2
0
 70
     0
 62
     7
  6
CONTINUOUS
  0
LAYER
  2
U1
 70
     0
 62
     3
  6
CONTINUOUS
  0
LAYER
  2
U5
 70
     0
 62
     4
  6
CONTINUOUS
  0
LAYER
  2
SUNPOU
 70
     0
 62
     4
  6
CONTINUOUS
  0
LAYER
  2
HIKIDASHI
 70
     0
 62
     6
  6
CONTINUOUS
  0
LAYER
  2
1PL-M1
 70
     0
 62
     6
  6
1PL-M
  0
LAYER
  2
NAME
 70
     0
 62
    20
  6
CONTINUOUS
  0
LAYER
  2
FILENAME
 70
     0
 62
     7
  6
CONTINUOUS
  0
LAYER
  2
YODOROGO
 70
     0
 62
   130
  6
CONTINUOUS
  0
LAYER
  2
WAKUSEN-01
 70
     0
 62
    50
  6
CONTINUOUS
  0
LAYER
  2
WAKUSEN-02
 70
     0
 62
   130
  6
CONTINUOUS
  0
LAYER
  2
WAKUMOJI-01
 70
     0
 62
   130
  6
CONTINUOUS
  0
LAYER
  2
U3
 70
     0
 62
     6
  6
CONTINUOUS
  0
LAYER
  2
KERABA
 70
     0
 62
     3
  6
CONTINUOUS
  0
LAYER
  2
TOI
 70
     0
 62
     3
  6
CONTINUOUS
  0
LAYER
  2
下屋前桁
 70
     0
 62
     3
  6
CONTINUOUS
  0
ENDTAB
  0
TABLE
  2
STYLE
 70
     5
  0
STYLE
  2
STANDARD
 70
     0
 40
3.0
 41
1.0
 50
0.0
 71
     0
 42
0.2
  3
ROMANS
  4
EXTFONT
  0
STYLE
  2
01
 70
     0
 40
3.0
 41
1.0
 50
0.0
 71
     0
 42
0.2
  3
ROMANS
  4
BIGFONT
  0
STYLE
  2
00
 70
     0
 40
0.0
 41
0.6666666666666666
 50
0.0
 71
     0
 42
0.2
  3
ROMANS
  4
BIGFONT
  0
STYLE
  2
FILENAME
 70
     0
 40
200.0
 41
1.0
 50
0.0
 71
     0
 42
200.0
  3
romans
  4
bigfont
  0
STYLE
  2
WAKUMOJI
 70
     0
 40
3.0
 41
1.0
 50
0.0
 71
     0
 42
3.0
  3
SIMPLEX
  4
BIGFONT
  0
ENDTAB
  0
TABLE
  2
VIEW
 70
     0
  0
ENDTAB
  0
TABLE
  2
UCS
 70
     0
  0
ENDTAB
  0
TABLE
  2
APPID
 70
    13
  0
APPID
  2
ACAD
 70
     0
  0
APPID
  2
AUTOCAD_POSTSCRIPT_FIGURE
 70
     0
  0
APPID
  2
CONTENTBLOCKICON
 70
     0
  0
APPID
  2
ACAD_PSEXT
 70
     0
  0
APPID
  2
ACAD_EXEMPT_FROM_CAD_STANDARDS
 70
     0
  0
APPID
  2
ACAD_NAV_VCDISPLAY
 70
     0
  0
APPID
  2
ACAECLAYERSTANDARD
 70
     0
  0
APPID
  2
ACCMTRANSPARENCY
 70
     0
  0
APPID
  2
ACLAYERTOOLS
 70
     0
  0
APPID
  2
GRADIENTCOLOR1ACI
 70
     0
  0
APPID
  2
GRADIENTCOLOR2ACI
 70
     0
  0
APPID
  2
AEC_XDATA_BOUND_SPACE
 70
     0
  0
APPID
  2
ACAD_MLEADERVER
 70
     0
  0
ENDTAB
  0
TABLE
  2
DIMSTYLE
 70
     4
  0
DIMSTYLE
  2
SUNPOU_申請図
 70
     0
  3

  4

  5
DOT
  6
DOT
  7
DOT
 40
80.0
 41
0.5
 42
1.0
 43
7.0
 44
1.0
 45
0.0
 46
3.0
 47
0.0
 48
0.0
140
2.0
141
0.0
142
0.0
143
25.399999999999999
144
1.0
145
0.0
146
1.0
147
1.0
 71
     0
 72
     0
 73
     0
 74
     0
 75
     0
 76
     0
 77
     1
 78
     8
170
     0
171
     2
172
     1
173
     1
174
     0
175
     0
176
   256
177
   256
178
   256
  0
ENDTAB
  0
ENDSEC
  0
SECTION
  2
BLOCKS
  0
BLOCK
  8
0
  2
$MODEL_SPACE
 70
     0
 10
0.0
 20
0.0
 30
0.0
  3
$MODEL_SPACE
  1

  0
ENDBLK
  5
125F7
  8
0
  0
BLOCK
 67
     1
  8
0
  2
$PAPER_SPACE
 70
     0
 10
0.0
 20
0.0
 30
0.0
  3
$PAPER_SPACE
  1

  0
ENDBLK
  5
125F5
 67
     1
  8
0
  0
BLOCK
  8
0
  2
DOT
 70
     0
 10
0.0
 20
0.0
 30
0.0
  3
DOT
  1

  0
POLYLINE
  5
12980
  8
0
  6
BYBLOCK
 62
     0
 66
     1
 10
0.0
 20
0.0
 30
0.0
 70
     1
 40
0.75
 41
0.75
  0
VERTEX
  5
85794
  8
0
  6
BYBLOCK
 62
     0
 10
-0.375
 20
0.0
 30
0.0
 42
1.0
  0
VERTEX
  5
85795
  8
0
  6
BYBLOCK
 62
     0
 10
0.375
 20
0.0
 30
0.0
 42
1.0
  0
SEQEND
  5
85796
  8
0
  6
BYBLOCK
 62
     0
  0
LINE
  5
12981
  8
0
  6
BYBLOCK
 62
     0
 10
-0.75
 20
0.0
 30
0.0
 11
-1.5
 21
0.0
 31
0.0
  0
ENDBLK
  5
12982
  8
0
  0
ENDSEC
  0
SECTION
  2
ENTITIES
  0
TEXT
  5
677BE
  8
NAME
 10
21780.693652393769
 20
1877.7796840770311
 30
0.0
 40
360.0
  1
ヨ ド 倉 庫（下屋付き）
  7
01
  0
TEXT
  5
67AEE
  8
NAME
 10
21528.924877815309
 20
1049.7796840770241
 30
0.0
 40
340.0
  1
SOB-8657MA
 41
0.6400000000000001
  7
00
  0
TEXT
  5
67AEF
  8
NAME
 10
23807.326849264271
 20
1050.2352588493161
 30
0.0
 40
340.0
  1
型（　連棟）
 41
0.6400000000000001
  7
00
  0
TEXT
  5
67AF0
  8
NAME
 10
25297.321196260371
 20
1049.7796840770241
 30
0.0
 40
340.0
  1
+
 41
0.6400000000000001
  7
00
  0
TEXT
  5
67AF1
  8
NAME
 10
26164.939750572808
 20
1050.2352588493161
 30
0.0
 40
340.0
  1
1/6
 41
0.6400000000000001
  7
00
  0
TEXT
  5
67AF2
  8
NAME
 10
24318.534884050019
 20
1050.2352588493161
 30
0.0
 40
340.0
  1
2
 41
0.6400000000000001
  7
00
  0
TEXT
  5
67AF3
  8
NAME
 10
25617.466981473641
 20
1050.2352588493161
 30
0.0
 40
340.0
  1
下屋
 41
0.6400000000000001
  7
00
  0
LINE
  5
68D8E
  8
TOI
 10
11076.70000000001
 20
6779.3512883093072
 30
0.0
 11
11076.70000000001
 21
6789.3512883093072
 31
0.0
  0
LINE
  5
68D8F
  8
TOI
 10
11186.70000000001
 20
6789.3512883093072
 30
0.0
 11
11076.70000000001
 21
6789.3512883093072
 31
0.0
  0
LINE
  5
68D90
  8
TOI
 10
11186.70000000001
 20
6779.3512883093072
 30
0.0
 11
11076.70000000001
 21
6779.3512883093072
 31
0.0
  0
LINE
  5
68D91
  8
KERABA
 10
14091.42785426008
 20
9225.814810388154
 30
0.0
 11
14076.659626750859
 21
9405.2079525542922
 31
0.0
  0
LINE
  5
68D92
  8
TOI
 10
11081.70000000001
 20
8893.1498468246864
 30
0.0
 11
11141.70000000001
 21
8893.1498468246864
 31
0.0
  0
LINE
  5
68D95
  8
TOI
 10
11081.70000000001
 20
8923.1498468246864
 30
0.0
 11
11032.60910966032
 21
8931.8058952985593
 31
0.0
  0
ARC
  5
68D96
  8
TOI
 10
11091.70000000001
 20
8931.5408431364485
 30
0.0
 40
50.0
 50
0.0
 51
75.326571614878858
  0
LINE
  5
68D97
  8
TOI
 10
11081.70000000001
 20
8923.1498468246864
 30
0.0
 11
11091.521931451691
 21
8978.8527881001792
 31
0.0
  0
LINE
  5
68D98
  8
TOI
 10
11048.80511797912
 20
8975.3362009429984
 30
0.0
 11
11040.872627883629
 21
8930.3488140802219
 31
0.0
  0
ARC
  5
68D99
  8
TOI
 10
11041.29151854367
 20
8981.0462829491735
 30
0.0
 40
50.0
 50
191.9530912870228
 51
259.99999999951859
  0
LINE
  5
68D9A
  8
KERABA
 10
17200.093557575139
 20
9662.3392026293313
 30
0.0
 11
10953.22569592489
 21
9148.0767024790839
 31
0.0
  0
LINE
  5
68D9B
  8
KERABA
 10
17237.272837275519
 20
9637.3052025302768
 30
0.0
 11
10920.640975894001
 21
9117.2995027931593
 31
0.0
  0
LINE
  5
68D9C
  8
KERABA
 10
17235.443671557121
 20
9635.1478539783129
 30
0.0
 11
10922.798324445959
 21
9115.4703370747302
 31
0.0
  0
LINE
  5
68D9D
  8
KERABA
 10
17236.264128640942
 20
9625.1815683024033
 30
0.0
 11
10923.61878152978
 21
9105.5040513988515
 31
0.0
  0
LINE
  5
68D9E
  8
KERABA
 10
17234.43496292254
 20
9623.0242197504704
 30
0.0
 11
10925.77613008174
 21
9103.6748856804188
 31
0.0
  0
LINE
  5
68D9F
  8
KERABA
 10
17235.255420006411
 20
9613.0579340745608
 30
0.0
 11
10926.59658716561
 21
9093.7086000045365
 31
0.0
  0
LINE
  5
68DA0
  8
KERABA
 10
17239.57011711027
 20
9609.3996026377572
 30
0.0
 11
10922.93825572875
 21
9089.3939029006433
 31
0.0
  0
LINE
  5
68DA1
  8
KERABA
 10
17242.311350927401
 20
9527.3478772618546
 30
0.0
 11
10933.652518086599
 21
9007.9985431918303
 31
0.0
  0
LINE
  5
68DA2
  8
KERABA
 10
17243.320059561989
 20
9539.4715114896971
 30
0.0
 11
10930.674712450829
 21
9019.7939945861435
 31
0.0
  0
LINE
  5
68DA3
  8
KERABA
 10
17244.140516645799
 20
9529.5052258138167
 30
0.0
 11
10931.495169534641
 21
9009.8277089102339
 31
0.0
  0
LINE
  5
68DA4
  8
KERABA
 10
17247.446505115138
 20
9513.7232601491414
 30
0.0
 11
10930.814643733611
 21
8993.7175604120275
 31
0.0
  0
LINE
  5
68DA5
  8
KERABA
 10
17243.131808011269
 20
9517.3815915859741
 30
0.0
 11
10934.472975170471
 21
8998.0322575159207
 31
0.0
  0
LINE
  5
68DA6
  8
KERABA
 10
17214.861785084238
 20
9482.9460604631895
 30
0.0
 11
10967.993923434
 21
8968.683560312973
 31
0.0
  0
LINE
  5
68DA7
  8
TOI
 10
11186.70000000001
 20
8493.1498468246864
 30
0.0
 11
11076.70000000001
 21
8493.1498468246864
 31
0.0
  0
LINE
  5
68DA8
  8
TOI
 10
11186.70000000001
 20
8503.1498468246864
 30
0.0
 11
11076.70000000001
 21
8503.1498468246864
 31
0.0
  0
LINE
  5
68DA9
  8
TOI
 10
11076.70000000001
 20
8493.1498468246864
 30
0.0
 11
11076.70000000001
 21
8503.1498468246864
 31
0.0
  0
LINE
  5
68DAA
  8
TOI
 10
11081.70000000001
 20
6425.2917521017816
 30
0.0
 11
11081.70000000001
 21
8923.1498468246864
 31
0.0
  0
LINE
  5
68DAB
  8
TOI
 10
11141.70000000001
 20
6425.2917521017816
 30
0.0
 11
11081.70000000001
 21
6425.2917521017816
 31
0.0
  0
LINE
  5
68DAC
  8
TOI
 10
11141.70000000001
 20
6425.2917521017816
 30
0.0
 11
11141.70000000001
 21
8931.5408431364485
 31
0.0
  0
LINE
  5
68DAD
  8
U1
 10
16859.099999999919
 20
6385.2917521017816
 30
0.0
 11
16859.099999999919
 21
9453.6585920698853
 31
0.0
  0
LINE
  5
68DAE
  8
U1
 10
11385.40000000002
 20
6385.2917521017816
 30
0.0
 11
11189.40000000002
 21
6385.2917521017816
 31
0.0
  0
LINE
  5
68DAF
  8
U1
 10
11385.40000000002
 20
6385.2917521017816
 30
0.0
 11
11385.40000000002
 21
9003.0457874749118
 31
0.0
  0
LINE
  5
68DB0
  8
U1
 10
11189.40000000002
 20
6385.2917521017816
 30
0.0
 11
11189.40000000002
 21
8986.9104293623677
 31
0.0
  0
LINE
  5
68DB1
  8
U3
 10
15256.5
 20
6385.2917521017816
 30
0.0
 11
15256.5
 21
9321.7273425219901
 31
0.0
  0
LINE
  5
68DB2
  8
U3
 10
15260.5
 20
6385.2917521017816
 30
0.0
 11
15260.5
 21
9322.0566355447081
 31
0.0
  0
LINE
  5
68DB3
  8
U3
 10
15274.5
 20
6385.2917521017816
 30
0.0
 11
15274.5
 21
9323.2091611241794
 31
0.0
  0
LINE
  5
68DB4
  8
U3
 10
15303.0
 20
6385.2917521017816
 30
0.0
 11
15303.0
 21
9325.5553739109746
 31
0.0
  0
LINE
  5
68DB5
  8
U3
 10
15305.0
 20
6385.2917521017816
 30
0.0
 11
15305.0
 21
9325.7200204223209
 31
0.0
  0
LINE
  5
68DB6
  8
U3
 10
15387.0
 20
6385.2917521017816
 30
0.0
 11
15387.0
 21
9332.4705273878208
 31
0.0
  0
LINE
  5
68DB7
  8
U3
 10
15385.0
 20
6385.2917521017816
 30
0.0
 11
15385.0
 21
9332.3058808764763
 31
0.0
  0
LINE
  5
68DB8
  8
U3
 10
15415.5
 20
6385.2917521017816
 30
0.0
 11
15415.5
 21
9334.8167401746177
 31
0.0
  0
LINE
  5
68DB9
  8
U3
 10
15429.5
 20
6385.2917521017816
 30
0.0
 11
15429.5
 21
9335.9692657540872
 31
0.0
  0
LINE
  5
68DBA
  8
U3
 10
15433.5
 20
6385.2917521017816
 30
0.0
 11
15433.5
 21
9336.2985587768053
 31
0.0
  0
LINE
  5
68DBB
  8
U3
 10
15633.5
 20
6385.2917521017816
 30
0.0
 11
15633.5
 21
9352.7632099121547
 31
0.0
  0
LINE
  5
68DBC
  8
U3
 10
15629.5
 20
6385.2917521017816
 30
0.0
 11
15629.5
 21
9352.4339168894658
 31
0.0
  0
LINE
  5
68DBD
  8
U3
 10
15615.5
 20
6385.2917521017816
 30
0.0
 11
15615.5
 21
9351.2813913099671
 31
0.0
  0
LINE
  5
68DBE
  8
U3
 10
15585.0
 20
6385.2917521017816
 30
0.0
 11
15585.0
 21
9348.7705320118239
 31
0.0
  0
LINE
  5
68DBF
  8
U3
 10
15587.0
 20
6385.2917521017816
 30
0.0
 11
15587.0
 21
9348.9351785231975
 31
0.0
  0
LINE
  5
68DC0
  8
U3
 10
15505.0
 20
6385.2917521017816
 30
0.0
 11
15505.0
 21
9342.1846715576976
 31
0.0
  0
LINE
  5
68DC1
  8
U3
 10
15503.0
 20
6385.2917521017816
 30
0.0
 11
15503.0
 21
9342.0200250463222
 31
0.0
  0
LINE
  5
68DC2
  8
U3
 10
15474.5
 20
6385.2917521017816
 30
0.0
 11
15474.5
 21
9339.6738122595561
 31
0.0
  0
LINE
  5
68DC3
  8
U3
 10
15460.5
 20
6385.2917521017816
 30
0.0
 11
15460.5
 21
9338.5212866800575
 31
0.0
  0
LINE
  5
68DC4
  8
U3
 10
15456.5
 20
6385.2917521017816
 30
0.0
 11
15456.5
 21
9338.1919936573686
 31
0.0
  0
LINE
  5
68DC5
  8
U3
 10
15656.5
 20
6385.2917521017816
 30
0.0
 11
15656.5
 21
9354.6566447927162
 31
0.0
  0
LINE
  5
68DC6
  8
U3
 10
15660.5
 20
6385.2917521017816
 30
0.0
 11
15660.5
 21
9354.985937815436
 31
0.0
  0
LINE
  5
68DC7
  8
U3
 10
15674.5
 20
6385.2917521017816
 30
0.0
 11
15674.5
 21
9356.1384633949056
 31
0.0
  0
LINE
  5
68DC8
  8
U3
 10
15703.0
 20
6385.2917521017816
 30
0.0
 11
15703.0
 21
9358.4846761817025
 31
0.0
  0
LINE
  5
68DC9
  8
U3
 10
15705.0
 20
6385.2917521017816
 30
0.0
 11
15705.0
 21
9358.649322693047
 31
0.0
  0
LINE
  5
68DCA
  8
U3
 10
15787.0
 20
6385.2917521017816
 30
0.0
 11
15787.0
 21
9365.3998296585487
 31
0.0
  0
LINE
  5
68DCB
  8
U3
 10
15785.0
 20
6385.2917521017816
 30
0.0
 11
15785.0
 21
9365.2351831472042
 31
0.0
  0
LINE
  5
68DCC
  8
U3
 10
15815.5
 20
6385.2917521017816
 30
0.0
 11
15815.5
 21
9367.7460424453457
 31
0.0
  0
LINE
  5
68DCD
  8
U3
 10
15829.5
 20
6385.2917521017816
 30
0.0
 11
15829.5
 21
9368.8985680248152
 31
0.0
  0
LINE
  5
68DCE
  8
U3
 10
15833.5
 20
6385.2917521017816
 30
0.0
 11
15833.5
 21
9369.2278610475314
 31
0.0
  0
LINE
  5
68DCF
  8
U3
 10
16033.5
 20
6385.2917521017816
 30
0.0
 11
16033.5
 21
9385.6925121828826
 31
0.0
  0
LINE
  5
68DD0
  8
U3
 10
16029.5
 20
6385.2917521017816
 30
0.0
 11
16029.5
 21
9385.3632191601937
 31
0.0
  0
LINE
  5
68DD1
  8
U3
 10
16015.5
 20
6385.2917521017816
 30
0.0
 11
16015.5
 21
9384.2106935806969
 31
0.0
  0
LINE
  5
68DD2
  8
U3
 10
15985.0
 20
6385.2917521017816
 30
0.0
 11
15985.0
 21
9381.6998342825555
 31
0.0
  0
LINE
  5
68DD3
  8
U3
 10
15987.0
 20
6385.2917521017816
 30
0.0
 11
15987.0
 21
9381.8644807939272
 31
0.0
  0
LINE
  5
68DD4
  8
U3
 10
15905.0
 20
6385.2917521017816
 30
0.0
 11
15905.0
 21
9375.1139738284237
 31
0.0
  0
LINE
  5
68DD5
  8
U3
 10
15903.0
 20
6385.2917521017816
 30
0.0
 11
15903.0
 21
9374.9493273170519
 31
0.0
  0
LINE
  5
68DD6
  8
U3
 10
15874.5
 20
6385.2917521017816
 30
0.0
 11
15874.5
 21
9372.6031145302823
 31
0.0
  0
LINE
  5
68DD7
  8
U3
 10
15860.5
 20
6385.2917521017816
 30
0.0
 11
15860.5
 21
9371.4505889507855
 31
0.0
  0
LINE
  5
68DD8
  8
U3
 10
15856.5
 20
6385.2917521017816
 30
0.0
 11
15856.5
 21
9371.1212959280965
 31
0.0
  0
LINE
  5
68DD9
  8
U3
 10
16656.5
 20
6385.2917521017816
 30
0.0
 11
16656.5
 21
9436.9799004695524
 31
0.0
  0
LINE
  5
68DDA
  8
U3
 10
16660.5
 20
6385.2917521017816
 30
0.0
 11
16660.5
 21
9437.3091934922413
 31
0.0
  0
LINE
  5
68DDB
  8
U3
 10
16674.5
 20
6385.2917521017816
 30
0.0
 11
16674.5
 21
9438.4617190717418
 31
0.0
  0
LINE
  5
68DDC
  8
U3
 10
16703.0
 20
6385.2917521017816
 30
0.0
 11
16703.0
 21
9440.8079318585078
 31
0.0
  0
LINE
  5
68DDD
  8
U3
 10
16705.0
 20
6385.2917521017816
 30
0.0
 11
16705.0
 21
9440.9725783698814
 31
0.0
  0
LINE
  5
68DDE
  8
U3
 10
16633.5
 20
6385.2917521017816
 30
0.0
 11
16633.5
 21
9435.0864655889891
 31
0.0
  0
LINE
  5
68DDF
  8
U3
 10
16629.5
 20
6385.2917521017816
 30
0.0
 11
16629.5
 21
9434.757172566271
 31
0.0
  0
LINE
  5
68DE0
  8
U3
 10
16615.5
 20
6385.2917521017816
 30
0.0
 11
16615.5
 21
9433.6046469868015
 31
0.0
  0
LINE
  5
68DE1
  8
U3
 10
16585.0
 20
6385.2917521017816
 30
0.0
 11
16585.0
 21
9431.0937876886583
 31
0.0
  0
LINE
  5
68DE2
  8
U3
 10
16587.0
 20
6385.2917521017816
 30
0.0
 11
16587.0
 21
9431.2584342000046
 31
0.0
  0
LINE
  5
68DE3
  8
U3
 10
16505.0
 20
6385.2917521017816
 30
0.0
 11
16505.0
 21
9424.5079272345029
 31
0.0
  0
LINE
  5
68DE4
  8
U3
 10
16503.0
 20
6385.2917521017816
 30
0.0
 11
16503.0
 21
9424.3432807231584
 31
0.0
  0
LINE
  5
68DE5
  8
U3
 10
16474.5
 20
6385.2917521017816
 30
0.0
 11
16474.5
 21
9421.9970679363614
 31
0.0
  0
LINE
  5
68DE6
  8
U3
 10
16460.5
 20
6385.2917521017816
 30
0.0
 11
16460.5
 21
9420.8445423568919
 31
0.0
  0
LINE
  5
68DE7
  8
U3
 10
16456.5
 20
6385.2917521017816
 30
0.0
 11
16456.5
 21
9420.5152493341739
 31
0.0
  0
LINE
  5
68DE8
  8
U3
 10
16256.5
 20
6385.2917521017816
 30
0.0
 11
16256.5
 21
9404.0505981988244
 31
0.0
  0
LINE
  5
68DE9
  8
U3
 10
16260.5
 20
6385.2917521017816
 30
0.0
 11
16260.5
 21
9404.3798912215134
 31
0.0
  0
LINE
  5
68DEA
  8
U3
 10
16274.5
 20
6385.2917521017816
 30
0.0
 11
16274.5
 21
9405.532416801012
 31
0.0
  0
LINE
  5
68DEB
  8
U3
 10
16303.0
 20
6385.2917521017816
 30
0.0
 11
16303.0
 21
9407.8786295877817
 31
0.0
  0
LINE
  5
68DEC
  8
U3
 10
16305.0
 20
6385.2917521017816
 30
0.0
 11
16305.0
 21
9408.0432760991553
 31
0.0
  0
LINE
  5
68DED
  8
U3
 10
16387.0
 20
6385.2917521017816
 30
0.0
 11
16387.0
 21
9414.7937830646551
 31
0.0
  0
LINE
  5
68DEE
  8
U3
 10
16385.0
 20
6385.2917521017816
 30
0.0
 11
16385.0
 21
9414.6291365532816
 31
0.0
  0
LINE
  5
68DEF
  8
U3
 10
16415.5
 20
6385.2917521017816
 30
0.0
 11
16415.5
 21
9417.139995851423
 31
0.0
  0
LINE
  5
68DF0
  8
U3
 10
16429.5
 20
6385.2917521017816
 30
0.0
 11
16429.5
 21
9418.2925214309216
 31
0.0
  0
LINE
  5
68DF1
  8
U3
 10
16433.5
 20
6385.2917521017816
 30
0.0
 11
16433.5
 21
9418.6218144536124
 31
0.0
  0
LINE
  5
68DF2
  8
U3
 10
16233.5
 20
6385.2917521017816
 30
0.0
 11
16233.5
 21
9402.1571633182612
 31
0.0
  0
LINE
  5
68DF3
  8
U3
 10
16229.5
 20
6385.2917521017816
 30
0.0
 11
16229.5
 21
9401.8278702955431
 31
0.0
  0
LINE
  5
68DF4
  8
U3
 10
16215.5
 20
6385.2917521017816
 30
0.0
 11
16215.5
 21
9400.6753447160736
 31
0.0
  0
LINE
  5
68DF5
  8
U3
 10
16185.0
 20
6385.2917521017816
 30
0.0
 11
16185.0
 21
9398.1644854179322
 31
0.0
  0
LINE
  5
68DF6
  8
U3
 10
16187.0
 20
6385.2917521017816
 30
0.0
 11
16187.0
 21
9398.3291319292784
 31
0.0
  0
LINE
  5
68DF7
  8
U3
 10
16105.0
 20
6385.2917521017816
 30
0.0
 11
16105.0
 21
9391.5786249637749
 31
0.0
  0
LINE
  5
68DF8
  8
U3
 10
16103.0
 20
6385.2917521017816
 30
0.0
 11
16103.0
 21
9391.4139784524305
 31
0.0
  0
LINE
  5
68DF9
  8
U3
 10
16074.5
 20
6385.2917521017816
 30
0.0
 11
16074.5
 21
9389.0677656656335
 31
0.0
  0
LINE
  5
68DFA
  8
U3
 10
16060.5
 20
6385.2917521017816
 30
0.0
 11
16060.5
 21
9387.9152400861622
 31
0.0
  0
LINE
  5
68DFB
  8
U3
 10
16056.5
 20
6385.2917521017816
 30
0.0
 11
16056.5
 21
9387.5859470634477
 31
0.0
  0
LINE
  5
68DFC
  8
U3
 10
14456.5
 20
6385.2917521017816
 30
0.0
 11
14456.5
 21
9255.8687379805342
 31
0.0
  0
LINE
  5
68DFD
  8
U3
 10
15185.0
 20
6385.2917521017816
 30
0.0
 11
15185.0
 21
9315.8412297410978
 31
0.0
  0
LINE
  5
68DFE
  8
U3
 10
15187.0
 20
6385.2917521017816
 30
0.0
 11
15187.0
 21
9316.0058762524714
 31
0.0
  0
LINE
  5
68DFF
  8
U3
 10
15229.5
 20
6385.2917521017816
 30
0.0
 11
15229.5
 21
9319.5046146187378
 31
0.0
  0
LINE
  5
68E00
  8
U3
 10
15233.5
 20
6385.2917521017816
 30
0.0
 11
15233.5
 21
9319.8339076414268
 31
0.0
  0
LINE
  5
68E01
  8
U3
 10
15215.5
 20
6385.2917521017816
 30
0.0
 11
15215.5
 21
9318.3520890392392
 31
0.0
  0
LINE
  5
68E02
  8
U3
 10
14985.0
 20
6385.2917521017816
 30
0.0
 11
14985.0
 21
9299.3765786057484
 31
0.0
  0
LINE
  5
68E03
  8
U3
 10
14987.0
 20
6385.2917521017816
 30
0.0
 11
14987.0
 21
9299.5412251170947
 31
0.0
  0
LINE
  5
68E04
  8
U3
 10
15015.5
 20
6385.2917521017816
 30
0.0
 11
15015.5
 21
9301.8874379038916
 31
0.0
  0
LINE
  5
68E05
  8
U3
 10
15029.5
 20
6385.2917521017816
 30
0.0
 11
15029.5
 21
9303.0399634833593
 31
0.0
  0
LINE
  5
68E06
  8
U3
 10
15033.5
 20
6385.2917521017816
 30
0.0
 11
15033.5
 21
9303.3692565060774
 31
0.0
  0
LINE
  5
68E07
  8
U3
 10
15060.5
 20
6385.2917521017816
 30
0.0
 11
15060.5
 21
9305.5919844093296
 31
0.0
  0
LINE
  5
68E08
  8
U3
 10
15056.5
 20
6385.2917521017816
 30
0.0
 11
15056.5
 21
9305.2626913866407
 31
0.0
  0
LINE
  5
68E09
  8
U3
 10
15074.5
 20
6385.2917521017816
 30
0.0
 11
15074.5
 21
9306.7445099888282
 31
0.0
  0
LINE
  5
68E0A
  8
U3
 10
15105.0
 20
6385.2917521017816
 30
0.0
 11
15105.0
 21
9309.2553692869715
 31
0.0
  0
LINE
  5
68E0B
  8
U3
 10
15103.0
 20
6385.2917521017816
 30
0.0
 11
15103.0
 21
9309.0907227755979
 31
0.0
  0
LINE
  5
68E0C
  8
U3
 10
14903.0
 20
6385.2917521017816
 30
0.0
 11
14903.0
 21
9292.6260716402467
 31
0.0
  0
LINE
  5
68E0D
  8
U3
 10
14860.5
 20
6385.2917521017816
 30
0.0
 11
14860.5
 21
9289.1273332739784
 31
0.0
  0
LINE
  5
68E0E
  8
U3
 10
14874.5
 20
6385.2917521017816
 30
0.0
 11
14874.5
 21
9290.2798588534497
 31
0.0
  0
LINE
  5
68E0F
  8
U3
 10
14905.0
 20
6385.2917521017816
 30
0.0
 11
14905.0
 21
9292.7907181515911
 31
0.0
  0
LINE
  5
68E10
  8
U3
 10
14856.5
 20
6385.2917521017816
 30
0.0
 11
14856.5
 21
9288.7980402512621
 31
0.0
  0
LINE
  5
68E11
  8
U3
 10
14833.5
 20
6385.2917521017816
 30
0.0
 11
14833.5
 21
9286.9046053706988
 31
0.0
  0
LINE
  5
68E12
  8
U3
 10
14829.5
 20
6385.2917521017816
 30
0.0
 11
14829.5
 21
9286.5753123480117
 31
0.0
  0
LINE
  5
68E13
  8
U3
 10
14815.5
 20
6385.2917521017816
 30
0.0
 11
14815.5
 21
9285.4227867685113
 31
0.0
  0
LINE
  5
68E14
  8
U3
 10
14785.0
 20
6385.2917521017816
 30
0.0
 11
14785.0
 21
9282.9119274703717
 31
0.0
  0
LINE
  5
68E15
  8
U3
 10
14787.0
 20
6385.2917521017816
 30
0.0
 11
14787.0
 21
9283.0765739817434
 31
0.0
  0
LINE
  5
68E16
  8
U3
 10
14705.0
 20
6385.2917521017816
 30
0.0
 11
14705.0
 21
9276.3260670162417
 31
0.0
  0
LINE
  5
68E17
  8
U3
 10
14703.0
 20
6385.2917521017816
 30
0.0
 11
14703.0
 21
9276.1614205048681
 31
0.0
  0
LINE
  5
68E18
  8
U3
 10
14660.5
 20
6385.2917521017816
 30
0.0
 11
14660.5
 21
9272.6626821386017
 31
0.0
  0
LINE
  5
68E19
  8
U3
 10
14674.5
 20
6385.2917521017816
 30
0.0
 11
14674.5
 21
9273.8152077180985
 31
0.0
  0
LINE
  5
68E1A
  8
U3
 10
14656.5
 20
6385.2917521017816
 30
0.0
 11
14656.5
 21
9272.3333891159127
 31
0.0
  0
LINE
  5
68E1B
  8
U3
 10
14633.5
 20
6385.2917521017816
 30
0.0
 11
14633.5
 21
9270.4399542353494
 31
0.0
  0
LINE
  5
68E1C
  8
U3
 10
14629.5
 20
6385.2917521017816
 30
0.0
 11
14629.5
 21
9270.1106612126314
 31
0.0
  0
LINE
  5
68E1D
  8
U3
 10
14615.5
 20
6385.2917521017816
 30
0.0
 11
14615.5
 21
9268.9581356331619
 31
0.0
  0
LINE
  5
68E1E
  8
U3
 10
14587.0
 20
6385.2917521017816
 30
0.0
 11
14587.0
 21
9266.6119228463649
 31
0.0
  0
LINE
  5
68E1F
  8
U3
 10
14585.0
 20
6385.2917521017816
 30
0.0
 11
14585.0
 21
9266.4472763350204
 31
0.0
  0
LINE
  5
68E20
  8
U3
 10
14503.0
 20
6385.2917521017816
 30
0.0
 11
14503.0
 21
9259.6967693695187
 31
0.0
  0
LINE
  5
68E21
  8
U3
 10
14505.0
 20
6385.2917521017816
 30
0.0
 11
14505.0
 21
9259.8614158808614
 31
0.0
  0
LINE
  5
68E22
  8
U3
 10
14460.5
 20
6385.2917521017816
 30
0.0
 11
14460.5
 21
9256.1980310032523
 31
0.0
  0
LINE
  5
68E23
  8
U3
 10
14474.5
 20
6385.2917521017816
 30
0.0
 11
14474.5
 21
9257.3505565827218
 31
0.0
  0
LINE
  5
68E24
  8
U3
 10
14303.0
 20
6385.2917521017816
 30
0.0
 11
14303.0
 21
9243.2321182341384
 31
0.0
  0
LINE
  5
68E25
  8
U3
 10
14305.0
 20
6385.2917521017816
 30
0.0
 11
14305.0
 21
9243.3967647455138
 31
0.0
  0
LINE
  5
68E26
  8
U3
 10
14274.5
 20
6385.2917521017816
 30
0.0
 11
14274.5
 21
9240.8859054473724
 31
0.0
  0
LINE
  5
68E27
  8
U3
 10
14256.5
 20
6385.2917521017816
 30
0.0
 11
14256.5
 21
9239.4040868451848
 31
0.0
  0
LINE
  5
68E28
  8
U3
 10
14260.5
 20
6385.2917521017816
 30
0.0
 11
14260.5
 21
9239.7333798678756
 31
0.0
  0
LINE
  5
68E29
  8
U3
 10
14233.5
 20
6385.2917521017816
 30
0.0
 11
14233.5
 21
9237.5106519646233
 31
0.0
  0
LINE
  5
68E2A
  8
U3
 10
14229.5
 20
6385.2917521017816
 30
0.0
 11
14229.5
 21
9237.1813589419035
 31
0.0
  0
LINE
  5
68E2B
  8
U3
 10
14215.5
 20
6385.2917521017816
 30
0.0
 11
14215.5
 21
9236.0288333624339
 31
0.0
  0
LINE
  5
68E2C
  8
U3
 10
14187.0
 20
6385.2917521017816
 30
0.0
 11
14187.0
 21
9233.682620575637
 31
0.0
  0
LINE
  5
68E2D
  8
U3
 10
14185.0
 20
6385.2917521017816
 30
0.0
 11
14185.0
 21
9233.5179740642925
 31
0.0
  0
LINE
  5
68E2E
  8
U3
 10
14415.5
 20
6385.2917521017816
 30
0.0
 11
14415.5
 21
9252.4934844977834
 31
0.0
  0
LINE
  5
68E2F
  8
U3
 10
14433.5
 20
6385.2917521017816
 30
0.0
 11
14433.5
 21
9253.9753030999691
 31
0.0
  0
LINE
  5
68E30
  8
U3
 10
14429.5
 20
6385.2917521017816
 30
0.0
 11
14429.5
 21
9253.646010077282
 31
0.0
  0
LINE
  5
68E31
  8
U3
 10
14387.0
 20
6385.2917521017816
 30
0.0
 11
14387.0
 21
9250.1472717110155
 31
0.0
  0
LINE
  5
68E32
  8
U3
 10
14385.0
 20
6385.2917521017816
 30
0.0
 11
14385.0
 21
9249.9826251996419
 31
0.0
  0
LINE
  5
68E33
  8
U3
 10
13674.5
 20
6385.2917521017816
 30
0.0
 11
13674.5
 21
9191.4919520412659
 31
0.0
  0
LINE
  5
68E34
  8
U3
 10
13660.5
 20
6385.2917521017816
 30
0.0
 11
13660.5
 21
9190.3394264617964
 31
0.0
  0
LINE
  5
68E35
  8
U3
 10
13705.0
 20
6385.2917521017816
 30
0.0
 11
13705.0
 21
9194.0028113394073
 31
0.0
  0
LINE
  5
68E36
  8
U3
 10
13703.0
 20
6385.2917521017816
 30
0.0
 11
13703.0
 21
9193.8381648280629
 31
0.0
  0
LINE
  5
68E37
  8
U3
 10
13785.0
 20
6385.2917521017816
 30
0.0
 11
13785.0
 21
9200.5886717935664
 31
0.0
  0
LINE
  5
68E38
  8
U3
 10
13787.0
 20
6385.2917521017816
 30
0.0
 11
13787.0
 21
9200.7533183049109
 31
0.0
  0
LINE
  5
68E39
  8
U3
 10
13815.5
 20
6385.2917521017816
 30
0.0
 11
13815.5
 21
9203.0995310917078
 31
0.0
  0
LINE
  5
68E3A
  8
U3
 10
13829.5
 20
6385.2917521017816
 30
0.0
 11
13829.5
 21
9204.2520566711755
 31
0.0
  0
LINE
  5
68E3B
  8
U3
 10
13833.5
 20
6385.2917521017816
 30
0.0
 11
13833.5
 21
9204.5813496938936
 31
0.0
  0
LINE
  5
68E3C
  8
U3
 10
13856.5
 20
6385.2917521017816
 30
0.0
 11
13856.5
 21
9206.4747845744587
 31
0.0
  0
LINE
  5
68E3D
  8
U3
 10
13874.5
 20
6385.2917521017816
 30
0.0
 11
13874.5
 21
9207.9566031766444
 31
0.0
  0
LINE
  5
68E3E
  8
U3
 10
13860.5
 20
6385.2917521017816
 30
0.0
 11
13860.5
 21
9206.8040775971731
 31
0.0
  0
LINE
  5
68E3F
  8
U3
 10
13903.0
 20
6385.2917521017816
 30
0.0
 11
13903.0
 21
9210.3028159634123
 31
0.0
  0
LINE
  5
68E40
  8
U3
 10
13905.0
 20
6385.2917521017816
 30
0.0
 11
13905.0
 21
9210.4674624747859
 31
0.0
  0
LINE
  5
68E41
  8
U3
 10
13987.0
 20
6385.2917521017816
 30
0.0
 11
13987.0
 21
9217.2179694402876
 31
0.0
  0
LINE
  5
68E42
  8
U3
 10
13985.0
 20
6385.2917521017816
 30
0.0
 11
13985.0
 21
9217.0533229289158
 31
0.0
  0
LINE
  5
68E43
  8
U3
 10
14015.5
 20
6385.2917521017816
 30
0.0
 11
14015.5
 21
9219.5641822270554
 31
0.0
  0
LINE
  5
68E44
  8
U3
 10
14029.5
 20
6385.2917521017816
 30
0.0
 11
14029.5
 21
9220.716707806554
 31
0.0
  0
LINE
  5
68E45
  8
U3
 10
14033.5
 20
6385.2917521017816
 30
0.0
 11
14033.5
 21
9221.046000829243
 31
0.0
  0
LINE
  5
68E46
  8
U3
 10
14056.5
 20
6385.2917521017816
 30
0.0
 11
14056.5
 21
9222.9394357098063
 31
0.0
  0
LINE
  5
68E47
  8
U3
 10
14105.0
 20
6385.2917521017816
 30
0.0
 11
14105.0
 21
9226.9321136101353
 31
0.0
  0
LINE
  5
68E48
  8
U3
 10
14074.5
 20
6385.2917521017816
 30
0.0
 11
14074.5
 21
9224.4212543119938
 31
0.0
  0
LINE
  5
68E49
  8
U3
 10
14060.5
 20
6385.2917521017816
 30
0.0
 11
14060.5
 21
9223.2687287325243
 31
0.0
  0
LINE
  5
68E4A
  8
U3
 10
14103.0
 20
6385.2917521017816
 30
0.0
 11
14103.0
 21
9226.7674670987926
 31
0.0
  0
LINE
  5
68E4B
  8
U3
 10
13656.5
 20
6385.2917521017816
 30
0.0
 11
13656.5
 21
9190.0101334390783
 31
0.0
  0
LINE
  5
68E4C
  8
U3
 10
12856.5
 20
6385.2917521017816
 30
0.0
 11
12856.5
 21
9124.1515288976225
 31
0.0
  0
LINE
  5
68E4D
  8
U3
 10
13303.0
 20
6385.2917521017816
 30
0.0
 11
13303.0
 21
9160.9088625573331
 31
0.0
  0
LINE
  5
68E4E
  8
U3
 10
13260.5
 20
6385.2917521017816
 30
0.0
 11
13260.5
 21
9157.4101241910685
 31
0.0
  0
LINE
  5
68E4F
  8
U3
 10
13274.5
 20
6385.2917521017816
 30
0.0
 11
13274.5
 21
9158.5626497705362
 31
0.0
  0
LINE
  5
68E50
  8
U3
 10
13305.0
 20
6385.2917521017816
 30
0.0
 11
13305.0
 21
9161.0735090686794
 31
0.0
  0
LINE
  5
68E51
  8
U3
 10
13256.5
 20
6385.2917521017816
 30
0.0
 11
13256.5
 21
9157.0808311683504
 31
0.0
  0
LINE
  5
68E52
  8
U3
 10
13233.5
 20
6385.2917521017816
 30
0.0
 11
13233.5
 21
9155.1873962877871
 31
0.0
  0
LINE
  5
68E53
  8
U3
 10
13229.5
 20
6385.2917521017816
 30
0.0
 11
13229.5
 21
9154.8581032650982
 31
0.0
  0
LINE
  5
68E54
  8
U3
 10
13215.5
 20
6385.2917521017816
 30
0.0
 11
13215.5
 21
9153.7055776855996
 31
0.0
  0
LINE
  5
68E55
  8
U3
 10
13185.0
 20
6385.2917521017816
 30
0.0
 11
13185.0
 21
9151.1947183874581
 31
0.0
  0
LINE
  5
68E56
  8
U3
 10
13187.0
 20
6385.2917521017816
 30
0.0
 11
13187.0
 21
9151.3593648988317
 31
0.0
  0
LINE
  5
68E57
  8
U3
 10
13105.0
 20
6385.2917521017816
 30
0.0
 11
13105.0
 21
9144.6088579333318
 31
0.0
  0
LINE
  5
68E58
  8
U3
 10
13103.0
 20
6385.2917521017816
 30
0.0
 11
13103.0
 21
9144.4442114219564
 31
0.0
  0
LINE
  5
68E59
  8
U3
 10
13060.5
 20
6385.2917521017816
 30
0.0
 11
13060.5
 21
9140.945473055719
 31
0.0
  0
LINE
  5
68E5A
  8
U3
 10
13074.5
 20
6385.2917521017816
 30
0.0
 11
13074.5
 21
9142.0979986351886
 31
0.0
  0
LINE
  5
68E5B
  8
U3
 10
13056.5
 20
6385.2917521017816
 30
0.0
 11
13056.5
 21
9140.616180033001
 31
0.0
  0
LINE
  5
68E5C
  8
U3
 10
13033.5
 20
6385.2917521017816
 30
0.0
 11
13033.5
 21
9138.7227451524377
 31
0.0
  0
LINE
  5
68E5D
  8
U3
 10
13029.5
 20
6385.2917521017816
 30
0.0
 11
13029.5
 21
9138.3934521297197
 31
0.0
  0
LINE
  5
68E5E
  8
U3
 10
13015.5
 20
6385.2917521017816
 30
0.0
 11
13015.5
 21
9137.2409265502502
 31
0.0
  0
LINE
  5
68E5F
  8
U3
 10
12987.0
 20
6385.2917521017816
 30
0.0
 11
12987.0
 21
9134.8947137634532
 31
0.0
  0
LINE
  5
68E60
  8
U3
 10
12985.0
 20
6385.2917521017816
 30
0.0
 11
12985.0
 21
9134.7300672521087
 31
0.0
  0
LINE
  5
68E61
  8
U3
 10
12903.0
 20
6385.2917521017816
 30
0.0
 11
12903.0
 21
9127.9795602866088
 31
0.0
  0
LINE
  5
68E62
  8
U3
 10
12905.0
 20
6385.2917521017816
 30
0.0
 11
12905.0
 21
9128.1442067979515
 31
0.0
  0
LINE
  5
68E63
  8
U3
 10
12860.5
 20
6385.2917521017816
 30
0.0
 11
12860.5
 21
9124.4808219203405
 31
0.0
  0
LINE
  5
68E64
  8
U3
 10
12874.5
 20
6385.2917521017816
 30
0.0
 11
12874.5
 21
9125.63334749981
 31
0.0
  0
LINE
  5
68E65
  8
U3
 10
13585.0
 20
6385.2917521017816
 30
0.0
 11
13585.0
 21
9184.1240206581861
 31
0.0
  0
LINE
  5
68E66
  8
U3
 10
13587.0
 20
6385.2917521017816
 30
0.0
 11
13587.0
 21
9184.2886671695596
 31
0.0
  0
LINE
  5
68E67
  8
U3
 10
13629.5
 20
6385.2917521017816
 30
0.0
 11
13629.5
 21
9187.7874055358261
 31
0.0
  0
LINE
  5
68E68
  8
U3
 10
13633.5
 20
6385.2917521017816
 30
0.0
 11
13633.5
 21
9188.1166985585132
 31
0.0
  0
LINE
  5
68E69
  8
U3
 10
13615.5
 20
6385.2917521017816
 30
0.0
 11
13615.5
 21
9186.6348799563275
 31
0.0
  0
LINE
  5
68E6A
  8
U3
 10
13385.0
 20
6385.2917521017816
 30
0.0
 11
13385.0
 21
9167.6593695228348
 31
0.0
  0
LINE
  5
68E6B
  8
U3
 10
13387.0
 20
6385.2917521017816
 30
0.0
 11
13387.0
 21
9167.8240160341811
 31
0.0
  0
LINE
  5
68E6C
  8
U3
 10
13415.5
 20
6385.2917521017816
 30
0.0
 11
13415.5
 21
9170.1702288209781
 31
0.0
  0
LINE
  5
68E6D
  8
U3
 10
13429.5
 20
6385.2917521017816
 30
0.0
 11
13429.5
 21
9171.3227544004476
 31
0.0
  0
LINE
  5
68E6E
  8
U3
 10
13433.5
 20
6385.2917521017816
 30
0.0
 11
13433.5
 21
9171.6520474231656
 31
0.0
  0
LINE
  5
68E6F
  8
U3
 10
13460.5
 20
6385.2917521017816
 30
0.0
 11
13460.5
 21
9173.8747753264488
 31
0.0
  0
LINE
  5
68E70
  8
U3
 10
13456.5
 20
6385.2917521017816
 30
0.0
 11
13456.5
 21
9173.5454823037271
 31
0.0
  0
LINE
  5
68E71
  8
U3
 10
13474.5
 20
6385.2917521017816
 30
0.0
 11
13474.5
 21
9175.0273009059165
 31
0.0
  0
LINE
  5
68E72
  8
U3
 10
13505.0
 20
6385.2917521017816
 30
0.0
 11
13505.0
 21
9177.5381602040579
 31
0.0
  0
LINE
  5
68E73
  8
U3
 10
13503.0
 20
6385.2917521017816
 30
0.0
 11
13503.0
 21
9177.3735136926844
 31
0.0
  0
LINE
  5
68E74
  8
U3
 10
12703.0
 20
6385.2917521017816
 30
0.0
 11
12703.0
 21
9111.5149091512303
 31
0.0
  0
LINE
  5
68E75
  8
U3
 10
12705.0
 20
6385.2917521017816
 30
0.0
 11
12705.0
 21
9111.6795556626021
 31
0.0
  0
LINE
  5
68E76
  8
U3
 10
12674.5
 20
6385.2917521017816
 30
0.0
 11
12674.5
 21
9109.1686963644606
 31
0.0
  0
LINE
  5
68E77
  8
U3
 10
12656.5
 20
6385.2917521017816
 30
0.0
 11
12656.5
 21
9107.6868777622749
 31
0.0
  0
LINE
  5
68E78
  8
U3
 10
12660.5
 20
6385.2917521017816
 30
0.0
 11
12660.5
 21
9108.0161707849893
 31
0.0
  0
LINE
  5
68E79
  8
U3
 10
12633.5
 20
6385.2917521017816
 30
0.0
 11
12633.5
 21
9105.7934428817098
 31
0.0
  0
LINE
  5
68E7A
  8
U3
 10
12629.5
 20
6385.2917521017816
 30
0.0
 11
12629.5
 21
9105.4641498589917
 31
0.0
  0
LINE
  5
68E7B
  8
U3
 10
12615.5
 20
6385.2917521017816
 30
0.0
 11
12615.5
 21
9104.3116242795222
 31
0.0
  0
LINE
  5
68E7C
  8
U3
 10
12587.0
 20
6385.2917521017816
 30
0.0
 11
12587.0
 21
9101.9654114927253
 31
0.0
  0
LINE
  5
68E7D
  8
U3
 10
12585.0
 20
6385.2917521017816
 30
0.0
 11
12585.0
 21
9101.8007649813826
 31
0.0
  0
LINE
  5
68E7E
  8
U3
 10
12815.5
 20
6385.2917521017816
 30
0.0
 11
12815.5
 21
9120.7762754148716
 31
0.0
  0
LINE
  5
68E7F
  8
U3
 10
12833.5
 20
6385.2917521017816
 30
0.0
 11
12833.5
 21
9122.2580940170592
 31
0.0
  0
LINE
  5
68E80
  8
U3
 10
12829.5
 20
6385.2917521017816
 30
0.0
 11
12829.5
 21
9121.9288009943702
 31
0.0
  0
LINE
  5
68E81
  8
U3
 10
12787.0
 20
6385.2917521017816
 30
0.0
 11
12787.0
 21
9118.4300626281056
 31
0.0
  0
LINE
  5
68E82
  8
U3
 10
12785.0
 20
6385.2917521017816
 30
0.0
 11
12785.0
 21
9118.2654161167302
 31
0.0
  0
LINE
  5
68E83
  8
U3
 10
12074.5
 20
6385.2917521017816
 30
0.0
 11
12074.5
 21
9059.7747429583542
 31
0.0
  0
LINE
  5
68E84
  8
U3
 10
12060.5
 20
6385.2917521017816
 30
0.0
 11
12060.5
 21
9058.6222173788865
 31
0.0
  0
LINE
  5
68E85
  8
U3
 10
12105.0
 20
6385.2917521017816
 30
0.0
 11
12105.0
 21
9062.2856022564956
 31
0.0
  0
LINE
  5
68E86
  8
U3
 10
12103.0
 20
6385.2917521017816
 30
0.0
 11
12103.0
 21
9062.1209557451493
 31
0.0
  0
LINE
  5
68E87
  8
U3
 10
12185.0
 20
6385.2917521017816
 30
0.0
 11
12185.0
 21
9068.8714627106528
 31
0.0
  0
LINE
  5
68E88
  8
U3
 10
12187.0
 20
6385.2917521017816
 30
0.0
 11
12187.0
 21
9069.0361092219973
 31
0.0
  0
LINE
  5
68E89
  8
U3
 10
12215.5
 20
6385.2917521017816
 30
0.0
 11
12215.5
 21
9071.3823220087943
 31
0.0
  0
LINE
  5
68E8A
  8
U3
 10
12229.5
 20
6385.2917521017816
 30
0.0
 11
12229.5
 21
9072.5348475882638
 31
0.0
  0
LINE
  5
68E8B
  8
U3
 10
12233.5
 20
6385.2917521017816
 30
0.0
 11
12233.5
 21
9072.8641406109818
 31
0.0
  0
LINE
  5
68E8C
  8
U3
 10
12256.5
 20
6385.2917521017816
 30
0.0
 11
12256.5
 21
9074.7575754915451
 31
0.0
  0
LINE
  5
68E8D
  8
U3
 10
12274.5
 20
6385.2917521017816
 30
0.0
 11
12274.5
 21
9076.2393940937327
 31
0.0
  0
LINE
  5
68E8E
  8
U3
 10
12260.5
 20
6385.2917521017816
 30
0.0
 11
12260.5
 21
9075.0868685142632
 31
0.0
  0
LINE
  5
68E8F
  8
U3
 10
12303.0
 20
6385.2917521017816
 30
0.0
 11
12303.0
 21
9078.5856068805297
 31
0.0
  0
LINE
  5
68E90
  8
U3
 10
12305.0
 20
6385.2917521017816
 30
0.0
 11
12305.0
 21
9078.7502533918741
 31
0.0
  0
LINE
  5
68E91
  8
U3
 10
12387.0
 20
6385.2917521017816
 30
0.0
 11
12387.0
 21
9085.500760357374
 31
0.0
  0
LINE
  5
68E92
  8
U3
 10
12385.0
 20
6385.2917521017816
 30
0.0
 11
12385.0
 21
9085.3361138460023
 31
0.0
  0
LINE
  5
68E93
  8
U3
 10
12415.5
 20
6385.2917521017816
 30
0.0
 11
12415.5
 21
9087.8469731441437
 31
0.0
  0
LINE
  5
68E94
  8
U3
 10
12429.5
 20
6385.2917521017816
 30
0.0
 11
12429.5
 21
9088.9994987236423
 31
0.0
  0
LINE
  5
68E95
  8
U3
 10
12433.5
 20
6385.2917521017816
 30
0.0
 11
12433.5
 21
9089.3287917463294
 31
0.0
  0
LINE
  5
68E96
  8
U3
 10
12456.5
 20
6385.2917521017816
 30
0.0
 11
12456.5
 21
9091.2222266268946
 31
0.0
  0
LINE
  5
68E97
  8
U3
 10
12505.0
 20
6385.2917521017816
 30
0.0
 11
12505.0
 21
9095.2149045272236
 31
0.0
  0
LINE
  5
68E98
  8
U3
 10
12474.5
 20
6385.2917521017816
 30
0.0
 11
12474.5
 21
9092.7040452290821
 31
0.0
  0
LINE
  5
68E99
  8
U3
 10
12460.5
 20
6385.2917521017816
 30
0.0
 11
12460.5
 21
9091.5515196496126
 31
0.0
  0
LINE
  5
68E9A
  8
U3
 10
12503.0
 20
6385.2917521017816
 30
0.0
 11
12503.0
 21
9095.0502580158791
 31
0.0
  0
LINE
  5
68E9B
  8
U3
 10
12056.5
 20
6385.2917521017816
 30
0.0
 11
12056.5
 21
9058.2929243561666
 31
0.0
  0
LINE
  5
68E9C
  8
U3
 10
11703.0
 20
6385.2917521017816
 30
0.0
 11
11703.0
 21
9029.1916534744232
 31
0.0
  0
LINE
  5
68E9D
  8
U3
 10
11660.5
 20
6385.2917521017816
 30
0.0
 11
11660.5
 21
9025.6929151081567
 31
0.0
  0
LINE
  5
68E9E
  8
U3
 10
11674.5
 20
6385.2917521017816
 30
0.0
 11
11674.5
 21
9026.8454406876263
 31
0.0
  0
LINE
  5
68E9F
  8
U3
 10
11705.0
 20
6385.2917521017816
 30
0.0
 11
11705.0
 21
9029.3562999857695
 31
0.0
  0
LINE
  5
68EA0
  8
U3
 10
11656.5
 20
6385.2917521017816
 30
0.0
 11
11656.5
 21
9025.3636220854387
 31
0.0
  0
LINE
  5
68EA1
  8
U3
 10
11633.5
 20
6385.2917521017816
 30
0.0
 11
11633.5
 21
9023.4701872048772
 31
0.0
  0
LINE
  5
68EA2
  8
U3
 10
11629.5
 20
6385.2917521017816
 30
0.0
 11
11629.5
 21
9023.1408941821865
 31
0.0
  0
LINE
  5
68EA3
  8
U3
 10
11615.5
 20
6385.2917521017816
 30
0.0
 11
11615.5
 21
9021.9883686027188
 31
0.0
  0
LINE
  5
68EA4
  8
U3
 10
11585.0
 20
6385.2917521017816
 30
0.0
 11
11585.0
 21
9019.4775093045464
 31
0.0
  0
LINE
  5
68EA5
  8
U3
 10
11587.0
 20
6385.2917521017816
 30
0.0
 11
11587.0
 21
9019.6421558159218
 31
0.0
  0
LINE
  5
68EA6
  8
U3
 10
11505.0
 20
6385.2917521017816
 30
0.0
 11
11505.0
 21
9012.8916488504183
 31
0.0
  0
LINE
  5
68EA7
  8
U3
 10
11503.0
 20
6385.2917521017816
 30
0.0
 11
11503.0
 21
9012.7270023390738
 31
0.0
  0
LINE
  5
68EA8
  8
U3
 10
11460.5
 20
6385.2917521017816
 30
0.0
 11
11460.5
 21
9009.2282639728055
 31
0.0
  0
LINE
  5
68EA9
  8
U3
 10
11474.5
 20
6385.2917521017816
 30
0.0
 11
11474.5
 21
9010.3807895522768
 31
0.0
  0
LINE
  5
68EAA
  8
U3
 10
11456.5
 20
6385.2917521017816
 30
0.0
 11
11456.5
 21
9008.8989709500893
 31
0.0
  0
LINE
  5
68EAB
  8
U3
 10
11433.5
 20
6385.2917521017816
 30
0.0
 11
11433.5
 21
9007.005536069526
 31
0.0
  0
LINE
  5
68EAC
  8
U3
 10
11429.5
 20
6385.2917521017816
 30
0.0
 11
11429.5
 21
9006.6762430468079
 31
0.0
  0
LINE
  5
68EAD
  8
U3
 10
11415.5
 20
6385.2917521017816
 30
0.0
 11
11415.5
 21
9005.5237174673384
 31
0.0
  0
LINE
  5
68EAE
  8
U3
 10
11387.0
 20
6385.2917521017816
 30
0.0
 11
11387.0
 21
9003.1775046805415
 31
0.0
  0
LINE
  5
68EAF
  8
U3
 10
11985.0
 20
6385.2917521017816
 30
0.0
 11
11985.0
 21
9052.4068115752743
 31
0.0
  0
LINE
  5
68EB0
  8
U3
 10
11987.0
 20
6385.2917521017816
 30
0.0
 11
11987.0
 21
9052.5714580866479
 31
0.0
  0
LINE
  5
68EB1
  8
U3
 10
12029.5
 20
6385.2917521017816
 30
0.0
 11
12029.5
 21
9056.0701964529144
 31
0.0
  0
LINE
  5
68EB2
  8
U3
 10
12033.5
 20
6385.2917521017816
 30
0.0
 11
12033.5
 21
9056.3994894756033
 31
0.0
  0
LINE
  5
68EB3
  8
U3
 10
12015.5
 20
6385.2917521017816
 30
0.0
 11
12015.5
 21
9054.9176708734158
 31
0.0
  0
LINE
  5
68EB4
  8
U3
 10
11785.0
 20
6385.2917521017816
 30
0.0
 11
11785.0
 21
9035.9421604399231
 31
0.0
  0
LINE
  5
68EB5
  8
U3
 10
11787.0
 20
6385.2917521017816
 30
0.0
 11
11787.0
 21
9036.1068069512694
 31
0.0
  0
LINE
  5
68EB6
  8
U3
 10
11815.5
 20
6385.2917521017816
 30
0.0
 11
11815.5
 21
9038.4530197380664
 31
0.0
  0
LINE
  5
68EB7
  8
U3
 10
11829.5
 20
6385.2917521017816
 30
0.0
 11
11829.5
 21
9039.6055453175359
 31
0.0
  0
LINE
  5
68EB8
  8
U3
 10
11833.5
 20
6385.2917521017816
 30
0.0
 11
11833.5
 21
9039.9348383402539
 31
0.0
  0
LINE
  5
68EB9
  8
U3
 10
11860.5
 20
6385.2917521017816
 30
0.0
 11
11860.5
 21
9042.1575662435353
 31
0.0
  0
LINE
  5
68EBA
  8
U3
 10
11856.5
 20
6385.2917521017816
 30
0.0
 11
11856.5
 21
9041.8282732208172
 31
0.0
  0
LINE
  5
68EBB
  8
U3
 10
11874.5
 20
6385.2917521017816
 30
0.0
 11
11874.5
 21
9043.3100918230066
 31
0.0
  0
LINE
  5
68EBC
  8
U3
 10
11905.0
 20
6385.2917521017816
 30
0.0
 11
11905.0
 21
9045.8209511211462
 31
0.0
  0
LINE
  5
68EBD
  8
U3
 10
11903.0
 20
6385.2917521017816
 30
0.0
 11
11903.0
 21
9045.6563046098036
 31
0.0
  0
LINE
  5
68EBE
  8
U3
 10
16854.5
 20
6385.2917521017816
 30
0.0
 11
11245.0
 21
6385.2917521017816
 31
0.0
  0
LINE
  5
68EBF
  8
1PL-M1
 10
16816.0
 20
4445.2917521017807
 30
0.0
 11
16816.0
 21
6385.2917521017816
 31
0.0
  0
LINE
  5
68EC0
  8
1PL-M1
 10
11316.0
 20
4445.2917521017807
 30
0.0
 11
11316.0
 21
6385.2917521017816
 31
0.0
  0
LINE
  5
68EC1
  8
U1
 10
11196.49999999994
 20
6385.2917521017816
 30
0.0
 11
11196.49999999994
 21
5985.2917521017807
 31
0.0
  0
LINE
  5
68EC2
  8
U1
 10
16935.999999999942
 20
6385.2917521017816
 30
0.0
 11
11196.49999999994
 21
6385.2917521017816
 31
0.0
  0
LINE
  5
68EC3
  8
U1
 10
16936.0
 20
6375.2917521017816
 30
0.0
 11
16936.0
 21
6385.2917521017816
 31
0.0
  0
LINE
  5
68EC4
  8
U1
 10
16936.0
 20
5985.2917521017807
 30
0.0
 11
16936.0
 21
6385.2917521017816
 31
0.0
  0
LINE
  5
68EC5
  8
U1
 10
16925.72634559666
 20
8643.1654065050388
 30
0.0
 11
16924.09999999998
 21
8644.7917521017807
 31
0.0
  0
LINE
  5
68EC6
  8
U1
 10
17002.726345596951
 20
8720.1654065052717
 30
0.0
 11
16925.726345596719
 21
8643.1654065050661
 31
0.0
  0
ARC
  5
68EC7
  8
U1
 10
16893.734027192459
 20
8639.7917521017807
 30
0.0
 40
5.0
 50
90.0
 51
145.56101069129491
  0
LINE
  5
68EC8
  8
U1
 10
16889.61038293329
 20
8642.6193938795332
 30
0.0
 11
16868.589617066609
 21
8611.9641103240283
 31
0.0
  0
LINE
  5
68EC9
  8
U1
 10
16924.09999999998
 20
8644.7917521017807
 30
0.0
 11
16893.734027192459
 21
8644.7917521017807
 31
0.0
  0
ARC
  5
68ECA
  8
U1
 10
16864.465972807378
 20
8614.7917521017807
 30
0.0
 40
5.0
 50
270.0
 51
325.56101069129488
  0
LINE
  5
68ECB
  8
U1
 10
16864.465972807378
 20
8609.7917521017807
 30
0.0
 11
16859.09999999998
 21
8609.7917521017807
 31
0.0
  0
LINE
  5
68ECE
  8
U1
 10
22273.499999999949
 20
8963.2917521018098
 30
0.0
 11
22273.499999999949
 21
5985.2917521017807
 31
0.0
  0
LINE
  5
68ECF
  8
U1
 10
22358.499999999949
 20
5985.2917521017807
 30
0.0
 11
22358.499999999949
 21
8966.1123026301066
 31
0.0
  0
LINE
  5
68ED0
  8
U1
 10
19523.499999999942
 20
8963.2917521017789
 30
0.0
 11
19523.499999999942
 21
5985.2917521017807
 31
0.0
  0
LINE
  5
68ED1
  8
U1
 10
19608.499999999942
 20
5985.2917521017807
 30
0.0
 11
19608.499999999942
 21
8963.2917521018098
 31
0.0
  0
LINE
  5
68ED2
  8
1PL-M1
 10
19565.999999999942
 20
5206.8744580871607
 30
0.0
 11
19565.999999999942
 21
6391.2917521017816
 31
0.0
  0
LINE
  5
68ED3
  8
1PL-M1
 10
22315.999999999942
 20
4451.2917521017816
 30
0.0
 11
22315.999999999942
 21
6391.2917521017816
 31
0.0
  0
ARC
  5
68ED5
  8
U1
 10
16871.59999999998
 20
8764.8184822220228
 30
0.0
 40
5.0
 50
180.0
 51
270.0
  0
LINE
  5
68ED6
  8
U1
 10
17008.599999999919
 20
8719.8184822220228
 30
0.0
 11
17008.599999999919
 21
8963.2917521017789
 31
0.0
  0
LINE
  5
68ED7
  8
U1
 10
16866.59999999998
 20
8764.8184822220228
 30
0.0
 11
16866.59999999998
 21
8963.3077777840226
 31
0.0
  0
ARC
  5
68ED8
  8
U1
 10
19570.99999999988
 20
8968.2917521018098
 30
0.0
 40
5.0
 50
180.0
 51
270.0
  0
LINE
  5
68ED9
  8
U1
 10
19611.99999999988
 20
8963.2917521018098
 30
0.0
 11
19611.99999999988
 21
8960.2917521018098
 31
0.0
  0
LINE
  5
68EDA
  8
U1
 10
19611.99999999988
 20
8960.2917521018098
 30
0.0
 11
22268.999999999891
 21
8960.2917521018098
 31
0.0
  0
LINE
  5
68EDB
  8
U1
 10
22268.999999999891
 20
8963.2917521018098
 30
0.0
 11
22353.999999999891
 21
8963.2917521018098
 31
0.0
  0
LINE
  5
68EDC
  8
U1
 10
22358.999999999891
 20
8968.2917521018098
 30
0.0
 11
22358.999999999891
 21
9071.4572048277914
 31
0.0
  0
ARC
  5
68EDD
  8
U1
 10
22353.999999999891
 20
8968.2917521018098
 30
0.0
 40
5.0
 50
270.0
 51
0.0
  0
LINE
  5
68EDE
  8
U1
 10
22268.999999999891
 20
8960.2917521018098
 30
0.0
 11
22268.999999999891
 21
8963.2917521018098
 31
0.0
  0
LINE
  5
68EDF
  8
U1
 10
19570.99999999988
 20
8963.2917521018098
 30
0.0
 11
19611.99999999988
 21
8963.2917521018098
 31
0.0
  0
LINE
  5
68EE0
  8
U1
 10
17011.999999999942
 20
8960.2917521017807
 30
0.0
 11
19520.499999999942
 21
8960.2917521017807
 31
0.0
  0
LINE
  5
68EE1
  8
U1
 10
19520.499999999942
 20
8963.2917521017789
 30
0.0
 11
19560.999999999942
 21
8963.2917521017789
 31
0.0
  0
LINE
  5
68EE2
  8
U1
 10
19565.999999999942
 20
8968.2917521017825
 30
0.0
 11
19565.999999999891
 21
9133.9572048408863
 31
0.0
  0
ARC
  5
68EE3
  8
U1
 10
19560.999999999942
 20
8968.2917521017825
 30
0.0
 40
5.0
 50
270.0
 51
0.0
  0
LINE
  5
68EE4
  8
U1
 10
19520.499999999942
 20
8960.2917521017807
 30
0.0
 11
19520.499999999942
 21
8963.2917521017789
 31
0.0
  0
LINE
  5
68EE5
  8
U1
 10
17011.999999999942
 20
8963.2917521017789
 30
0.0
 11
17011.999999999942
 21
8960.2917521017807
 31
0.0
  0
LINE
  5
68EE6
  8
U1
 10
16866.999999999942
 20
8963.2917521017789
 30
0.0
 11
17011.999999999942
 21
8963.2917521017789
 31
0.0
  0
LINE
  5
68EE7
  8
U1
 10
22658.478566648329
 20
9242.7825503064214
 30
0.0
 11
22603.492941755801
 21
9244.0399504729012
 31
0.0
  0
LINE
  5
68EE8
  8
U1
 10
22667.858683819832
 20
9215.5609889652842
 30
0.0
 11
22665.813482908601
 21
9213.6072353388754
 31
0.0
  0
LINE
  5
68EE9
  8
U1
 10
22665.584864696491
 20
9203.6098489948072
 30
0.0
 11
22663.539663785261
 21
9201.6560953683656
 31
0.0
  0
LINE
  5
68EEA
  8
U1
 10
22665.813482908601
 20
9213.6072353388754
 30
0.0
 11
22665.584864696491
 21
9203.6098489948072
 31
0.0
  0
LINE
  5
68EEB
  8
U1
 10
22663.311045573158
 20
9191.6587090242683
 30
0.0
 11
22667.21855282598
 21
9187.5683072018001
 31
0.0
  0
LINE
  5
68EEC
  8
U1
 10
22663.539663785261
 20
9201.6560953683656
 30
0.0
 11
22663.311045573158
 21
9191.6587090242683
 31
0.0
  0
LINE
  5
68EED
  8
U1
 10
22665.663948983831
 20
9119.5860800619266
 30
0.0
 11
22663.6187480726
 21
9117.6323264355742
 31
0.0
  0
LINE
  5
68EEE
  8
U1
 10
22663.6187480726
 20
9117.6323264355742
 30
0.0
 11
22663.390129860491
 21
9107.6349400914496
 31
0.0
  0
LINE
  5
68EEF
  8
U1
 10
22661.34492894926
 20
9105.6811864650663
 30
0.0
 11
22661.116310737161
 21
9095.6838001209417
 31
0.0
  0
LINE
  5
68EF0
  8
U1
 10
22661.116310737161
 20
9095.6838001209417
 30
0.0
 11
22665.023817989979
 21
9091.5933982984716
 31
0.0
  0
LINE
  5
68EF1
  8
U1
 10
22663.390129860491
 20
9107.6349400914496
 30
0.0
 11
22661.34492894926
 21
9105.6811864650663
 31
0.0
  0
LINE
  5
68EF2
  8
U1
 10
22665.663948983831
 20
9119.5860800619266
 30
0.0
 11
22667.21855282598
 21
9187.5683072018001
 31
0.0
  0
LINE
  5
68EF3
  8
U1
 10
22667.858683819832
 20
9215.5609889652842
 30
0.0
 11
22668.24733478035
 21
9232.5565457502234
 31
0.0
  0
LINE
  5
68EF4
  8
U1
 10
22654.40916247329
 20
9064.8290733815084
 30
0.0
 11
22618.418571634571
 21
9065.6520989450055
 31
0.0
  0
ARC
  5
68EF5
  8
U1
 10
22654.637780685331
 20
9074.8264597256039
 30
0.0
 40
10.0
 50
268.69000000003967
 51
358.69000000171042
  0
LINE
  5
68EF6
  8
U1
 10
22665.023817989979
 20
9091.5933982984716
 30
0.0
 11
22664.635167029461
 21
9074.5978415135323
 31
0.0
  0
LINE
  5
68EF7
  8
U1
 10
22658.478566648329
 20
9242.7825503064214
 30
0.0
 11
22603.492941755801
 21
9244.0399504729012
 31
0.0
  0
LINE
  5
68EF8
  8
U1
 10
22667.858683819832
 20
9215.5609889652842
 30
0.0
 11
22665.813482908601
 21
9213.6072353388754
 31
0.0
  0
LINE
  5
68EF9
  8
U1
 10
22665.584864696491
 20
9203.6098489948072
 30
0.0
 11
22663.539663785261
 21
9201.6560953683656
 31
0.0
  0
LINE
  5
68EFA
  8
U1
 10
22665.813482908601
 20
9213.6072353388754
 30
0.0
 11
22665.584864696491
 21
9203.6098489948072
 31
0.0
  0
LINE
  5
68EFB
  8
U1
 10
22663.311045573158
 20
9191.6587090242683
 30
0.0
 11
22667.21855282598
 21
9187.5683072018001
 31
0.0
  0
LINE
  5
68EFC
  8
U1
 10
22663.539663785261
 20
9201.6560953683656
 30
0.0
 11
22663.311045573158
 21
9191.6587090242683
 31
0.0
  0
LINE
  5
68EFD
  8
U1
 10
22665.663948983831
 20
9119.5860800619266
 30
0.0
 11
22663.6187480726
 21
9117.6323264355742
 31
0.0
  0
LINE
  5
68EFE
  8
U1
 10
22663.6187480726
 20
9117.6323264355742
 30
0.0
 11
22663.390129860491
 21
9107.6349400914496
 31
0.0
  0
LINE
  5
68EFF
  8
U1
 10
22661.34492894926
 20
9105.6811864650663
 30
0.0
 11
22661.116310737161
 21
9095.6838001209417
 31
0.0
  0
LINE
  5
68F00
  8
U1
 10
22661.116310737161
 20
9095.6838001209417
 30
0.0
 11
22665.023817989979
 21
9091.5933982984716
 31
0.0
  0
LINE
  5
68F01
  8
U1
 10
22663.390129860491
 20
9107.6349400914496
 30
0.0
 11
22661.34492894926
 21
9105.6811864650663
 31
0.0
  0
LINE
  5
68F02
  8
U1
 10
22665.663948983831
 20
9119.5860800619266
 30
0.0
 11
22667.21855282598
 21
9187.5683072018001
 31
0.0
  0
LINE
  5
68F03
  8
U1
 10
22667.858683819832
 20
9215.5609889652842
 30
0.0
 11
22668.24733478035
 21
9232.5565457502234
 31
0.0
  0
ARC
  5
68F04
  8
U1
 10
22658.249948436282
 20
9232.7851639623259
 30
0.0
 40
10.0
 50
358.69000000171042
 51
88.690000000039674
  0
LINE
  5
68F05
  8
U1
 10
22654.40916247329
 20
9064.8290733815084
 30
0.0
 11
22618.418571634571
 21
9065.6520989450055
 31
0.0
  0
ARC
  5
68F06
  8
U1
 10
22654.637780685331
 20
9074.8264597256039
 30
0.0
 40
10.0
 50
268.69000000003967
 51
358.69000000171042
  0
LINE
  5
68F07
  8
U1
 10
22665.023817989979
 20
9091.5933982984716
 30
0.0
 11
22664.635167029461
 21
9074.5978415135323
 31
0.0
  0
LINE
  5
68F08
  8
U1
 10
23568.638166163058
 20
5985.2917521017807
 30
0.0
 11
10688.732849195079
 21
5985.2917521017807
 31
0.0
  0
LINE
  5
68F09
  8
U1
 10
19569.593520646278
 20
9311.9213521780766
 30
0.0
 11
22640.824662335799
 21
9243.1952704036812
 31
0.0
  0
LINE
  5
68F0A
  8
U1
 10
22636.842487024671
 20
9065.2398201365286
 30
0.0
 11
22640.824662335799
 21
9243.1952704036812
 31
0.0
  0
LINE
  5
68F0B
  8
U1
 10
19568.989482818171
 20
9284.9281097217881
 30
0.0
 11
22667.859199724338
 21
9215.5835492680926
 31
0.0
  0
LINE
  5
68F0C
  8
U1
 10
19568.944739275321
 20
9282.9286102806072
 30
0.0
 11
22665.835567188569
 21
9213.6283321620576
 31
0.0
  0
LINE
  5
68F0D
  8
U1
 10
19568.72102156125
 20
9272.9311130745773
 30
0.0
 11
22665.585358155429
 21
9203.6314277621132
 31
0.0
  0
LINE
  5
68F0E
  8
U1
 10
19568.676278018389
 20
9270.9316136333655
 30
0.0
 11
22663.560743591752
 21
9201.6762326312455
 31
0.0
  0
LINE
  5
68F0F
  8
U1
 10
19568.452560304318
 20
9260.9341164273355
 30
0.0
 11
22663.31151658652
 21
9191.6793062561337
 31
0.0
  0
LINE
  5
68F10
  8
U1
 10
19568.363073218621
 20
9256.935117544941
 30
0.0
 11
22667.19652251236
 21
9187.5913686650874
 31
0.0
  0
LINE
  5
68F11
  8
U1
 10
19566.215383163191
 20
9160.9591443671525
 30
0.0
 11
22665.001798937159
 21
9091.6164479738363
 31
0.0
  0
LINE
  5
68F12
  8
U1
 10
19566.30487024883
 20
9164.958143249547
 30
0.0
 11
22661.116781486839
 21
9095.7043858227698
 31
0.0
  0
LINE
  5
68F13
  8
U1
 10
19566.528587962908
 20
9174.9556404555769
 30
0.0
 11
22661.365996956301
 21
9105.7013124560599
 31
0.0
  0
LINE
  5
68F14
  8
U1
 10
19566.573331505759
 20
9176.9551398967888
 30
0.0
 11
22663.39062305569
 21
9107.6565073287784
 31
0.0
  0
LINE
  5
68F15
  8
U1
 10
19566.79704921984
 20
9186.9526371027896
 30
0.0
 11
22663.640820553061
 21
9117.6534119868447
 31
0.0
  0
LINE
  5
68F16
  8
U1
 10
19566.841792762691
 20
9188.9521365440014
 30
0.0
 11
22665.66446462466
 21
9119.6086288347287
 31
0.0
  0
LINE
  5
68F17
  8
U1
 10
19565.611345335092
 20
9133.9659019108967
 30
0.0
 11
22636.842487024671
 21
9065.2398201365286
 31
0.0
  0
LINE
  5
68F18
  8
U1
 10
19565.611345335092
 20
9133.9659019108967
 30
0.0
 11
19569.593520646278
 21
9311.9213521780766
 31
0.0
  0
LINE
  5
68F19
  8
U1
 10
19569.593520646278
 20
9311.9213521780766
 30
0.0
 11
16909.259514124129
 21
9371.4526359035954
 31
0.0
  0
LINE
  5
68F1A
  8
U1
 10
19568.989482818171
 20
9284.9281097218191
 30
0.0
 11
16873.65571412287
 21
9345.2425961456465
 31
0.0
  0
LINE
  5
68F1B
  8
U1
 10
19568.944739275321
 20
9282.9286102806072
 30
0.0
 11
16875.608889918021
 21
9343.1983885201771
 31
0.0
  0
LINE
  5
68F1C
  8
U1
 10
19568.72102156125
 20
9272.9311130745773
 30
0.0
 11
16875.382965647212
 21
9333.2009406910965
 31
0.0
  0
LINE
  5
68F1D
  8
U1
 10
19568.676278018389
 20
9270.9316136333946
 30
0.0
 11
16877.335511112298
 21
9331.1567471707385
 31
0.0
  0
LINE
  5
68F1E
  8
U1
 10
19568.45256030426
 20
9260.9341164273646
 30
0.0
 11
16877.11021717155
 21
9321.1592852365429
 31
0.0
  0
LINE
  5
68F1F
  8
U1
 10
19568.363073218621
 20
9256.935117544941
 30
0.0
 11
16873.02016145888
 21
9317.2498085665411
 31
0.0
  0
LINE
  5
68F20
  8
U1
 10
19566.215383163129
 20
9160.9591443671525
 30
0.0
 11
16870.84217254434
 21
9221.2745133975859
 31
0.0
  0
LINE
  5
68F21
  8
U1
 10
19566.304870248769
 20
9164.9581432495761
 30
0.0
 11
16874.932233039581
 21
9225.1839899605693
 31
0.0
  0
LINE
  5
68F22
  8
U1
 10
19566.528587962908
 20
9174.9556404556042
 30
0.0
 11
16875.157531759942
 21
9235.1814517878374
 31
0.0
  0
LINE
  5
68F23
  8
U1
 10
19566.5733315057
 20
9176.9551398967888
 30
0.0
 11
16873.204981515239
 21
9237.2256454151193
 31
0.0
  0
LINE
  5
68F24
  8
U1
 10
19566.79704921984
 20
9186.9526371028187
 30
0.0
 11
16873.430910565599
 21
9247.2230931372178
 31
0.0
  0
LINE
  5
68F25
  8
U1
 10
19566.841792762629
 20
9188.9521365440287
 30
0.0
 11
16871.477729990911
 21
9249.2673008696729
 31
0.0
  0
LINE
  5
68F26
  8
U1
 10
19565.611345335092
 20
9133.9659019108967
 30
0.0
 11
16905.277338812939
 21
9193.4971856364427
 31
0.0
  0
LINE
  5
68F27
  8
U1
 10
19565.611345335092
 20
9133.9659019108967
 30
0.0
 11
19569.593520646278
 21
9311.9213521780766
 31
0.0
  0
ARC
  5
68F28
  8
TOI
 10
22456.199999999961
 20
8997.2473631474859
 30
0.0
 40
50.0
 50
100.00000000048129
 51
180.0
  0
ARC
  5
68F29
  8
TOI
 10
22555.304663670489
 20
9052.5976018900546
 30
0.0
 40
50.0
 50
280.00000000048141
 51
0.0
  0
LINE
  5
68F2A
  8
TOI
 10
22535.996249349959
 20
8998.4216768963524
 30
0.0
 11
22525.108508610228
 21
9060.1691230102315
 31
0.0
  0
LINE
  5
68F2B
  8
TOI
 10
22563.987072553839
 20
9003.3572142394405
 30
0.0
 11
22466.199999999961
 21
8986.1147149836615
 31
0.0
  0
LINE
  5
68F2C
  8
TOI
 10
22447.5175911162
 20
9046.4877507980418
 30
0.0
 11
22544.804663670431
 21
9063.6420865635591
 31
0.0
  0
LINE
  5
68F2D
  8
TOI
 10
22605.304663670489
 20
9064.6420865635882
 30
0.0
 11
22605.304663670489
 21
9052.5976018900546
 31
0.0
  0
LINE
  5
68F2E
  8
U1
 10
16776.089999999909
 20
6385.2917521017816
 30
0.0
 11
16776.089999999909
 21
9446.8249386161788
 31
0.0
  0
LINE
  5
68F2F
  8
U1
 10
17060.664966906999
 20
9368.016765530585
 30
0.0
 11
16862.316033217419
 21
9372.517932511415
 31
0.0
  0
LINE
  5
68F30
  8
U1
 10
17060.678579307161
 20
9368.616611096324
 30
0.0
 11
16862.329645617519
 21
9373.1177780770377
 31
0.0
  0
ARC
  5
68F31
  8
U1
 10
16862.352332951152
 20
9374.1175206863427
 30
0.0
 40
1.0
 50
178.6999999997204
 51
268.69999999971361
  0
ARC
  5
68F32
  8
U1
 10
16862.352332951152
 20
9374.1175206863427
 30
0.0
 40
1.6000000000000001
 50
178.6999999997204
 51
268.69999999971361
  0
LINE
  5
68F33
  8
U1
 10
16861.397065049739
 20
9402.5465105247713
 30
0.0
 11
16860.752744776259
 21
9374.1538204200751
 31
0.0
  0
LINE
  5
68F34
  8
U1
 10
17060.678579307161
 20
9368.616611096324
 30
0.0
 11
17060.664966906999
 21
9368.016765530585
 31
0.0
  0
LINE
  5
68F35
  8
U1
 10
16861.996910615238
 20
9402.5328981246421
 30
0.0
 11
16861.352590341819
 21
9374.1402080199205
 31
0.0
  0
LINE
  5
68F36
  8
U1
 10
16861.996910615238
 20
9402.5328981246421
 30
0.0
 11
16861.397065049739
 21
9402.5465105247713
 31
0.0
  0
LINE
  5
68F37
  8
U1
 10
16874.063773912381
 20
9363.2379639213759
 30
0.0
 11
16873.655401907981
 21
9345.2425969535689
 31
0.0
  0
ARC
  5
68F38
  8
U1
 10
16884.039075555342
 20
9362.0223931498349
 30
0.0
 40
10.0
 50
88.699999999713626
 51
178.6999999997204
  0
LINE
  5
68F39
  8
U1
 10
16873.431528435962
 20
9247.2224465728068
 30
0.0
 11
16871.477417884511
 21
9249.2673064585979
 31
0.0
  0
LINE
  5
68F3A
  8
U1
 10
16873.204655100191
 20
9237.2250204795691
 30
0.0
 11
16873.431528435962
 21
9247.2224465728068
 31
0.0
  0
LINE
  5
68F3B
  8
U1
 10
16875.158765651689
 20
9235.1801605937799
 30
0.0
 11
16873.204655100191
 21
9237.2250204795691
 31
0.0
  0
LINE
  5
68F3C
  8
U1
 10
16874.931892315919
 20
9225.182734500544
 30
0.0
 11
16875.158765651689
 21
9235.1801605937799
 31
0.0
  0
LINE
  5
68F3D
  8
U1
 10
16870.84217254434
 20
9221.2745133975532
 30
0.0
 11
16874.931892315919
 21
9225.182734500544
 31
0.0
  0
LINE
  5
68F3E
  8
U1
 10
16871.477417884511
 20
9249.2673064585979
 30
0.0
 11
16873.0201565678
 21
9317.249803892526
 31
0.0
  0
LINE
  5
68F3F
  8
U1
 10
16905.19823060296
 20
9192.4876565793966
 30
0.0
 11
16909.259514124129
 21
9371.4526359035954
 31
0.0
  0
LINE
  5
68F40
  8
U1
 10
16909.259514124129
 20
9371.4526359035954
 30
0.0
 11
16884.265948891119
 21
9372.0198192430416
 31
0.0
  0
LINE
  5
68F41
  8
U1
 10
16870.43380053993
 20
9203.2791464297752
 30
0.0
 11
16870.84217254434
 21
9221.2745133975532
 31
0.0
  0
LINE
  5
68F42
  8
U1
 10
16877.109876339378
 20
9321.158024995515
 30
0.0
 11
16877.33674967516
 21
9331.1554510887509
 31
0.0
  0
LINE
  5
68F43
  8
U1
 10
16873.0201565678
 20
9317.249803892526
 30
0.0
 11
16877.109876339378
 21
9321.158024995515
 31
0.0
  0
LINE
  5
68F44
  8
U1
 10
16875.382639123651
 20
9333.2003109745401
 30
0.0
 11
16875.609512459429
 21
9343.1977370677796
 31
0.0
  0
LINE
  5
68F45
  8
U1
 10
16877.33674967516
 20
9331.1554510887509
 30
0.0
 11
16875.382639123651
 21
9333.2003109745401
 31
0.0
  0
LINE
  5
68F46
  8
U1
 10
16875.609512459429
 20
9343.1977370677796
 30
0.0
 11
16873.655401907981
 21
9345.2425969535689
 31
0.0
  0
ARC
  5
68F47
  8
U1
 10
16880.43122663314
 20
9203.0522730939992
 30
0.0
 40
10.0
 50
178.6999999997204
 51
268.69999999971361
  0
LINE
  5
68F48
  8
U1
 10
16905.197918530441
 20
9192.4876636613189
 30
0.0
 11
16880.204353297358
 21
9193.0548470007634
 31
0.0
  0
LINE
  5
68F49
  8
TOI
 10
22471.199999999961
 20
6379.3512883093072
 30
0.0
 11
22471.199999999961
 21
6389.3512883093072
 31
0.0
  0
LINE
  5
68F4A
  8
TOI
 10
22361.199999999961
 20
6389.3512883093072
 30
0.0
 11
22471.199999999961
 21
6389.3512883093072
 31
0.0
  0
LINE
  5
68F4B
  8
TOI
 10
22361.199999999961
 20
6379.3512883093072
 30
0.0
 11
22471.199999999961
 21
6379.3512883093072
 31
0.0
  0
LINE
  5
68F4C
  8
TOI
 10
22466.199999999899
 20
8958.1147149836615
 30
0.0
 11
22406.199999999899
 21
8958.1147149836615
 31
0.0
  0
LINE
  5
68F4D
  8
TOI
 10
22494.190823203771
 20
8991.0502523267496
 30
0.0
 11
22483.303082464088
 21
9052.7976984405977
 31
0.0
  0
LINE
  5
68F4E
  8
TOI
 10
22361.199999999961
 20
8558.1147149836615
 30
0.0
 11
22471.199999999961
 21
8558.1147149836615
 31
0.0
  0
LINE
  5
68F4F
  8
TOI
 10
22361.199999999961
 20
8568.1147149836615
 30
0.0
 11
22471.199999999961
 21
8568.1147149836615
 31
0.0
  0
LINE
  5
68F50
  8
TOI
 10
22471.199999999961
 20
8558.1147149836615
 30
0.0
 11
22471.199999999961
 21
8568.1147149836615
 31
0.0
  0
LINE
  5
68F51
  8
TOI
 10
22466.199999999961
 20
6025.2917521017816
 30
0.0
 11
22466.199999999899
 21
8986.1147149836615
 31
0.0
  0
LINE
  5
68F52
  8
TOI
 10
22406.199999999961
 20
6025.2917521017816
 30
0.0
 11
22466.199999999961
 21
6025.2917521017816
 31
0.0
  0
LINE
  5
68F53
  8
TOI
 10
22406.199999999961
 20
6025.2917521017816
 30
0.0
 11
22406.199999999961
 21
8997.2473631474859
 31
0.0
  0
TEXT
  5
68F54
  8
HIKIDASHI
 10
12075.19759162399
 20
5525.2917521017816
 30
0.0
 40
160.0
  1
壁 ヨドサイディング
  7
01
  0
LINE
  5
68F55
  8
HIKIDASHI
 10
12058.721899763919
 20
5485.2917521017807
 30
0.0
 11
14603.64933592687
 21
5485.2917521017807
 31
0.0
  0
TEXT
  5
68F56
  8
HIKIDASHI
 10
12384.65678446868
 20
9896.8727044827374
 30
0.0
 40
160.0
  1
型断熱材付
  7
01
  0
LINE
  5
68F57
  8
HIKIDASHI
 10
11090.75424865168
 20
10096.872704482739
 30
0.0
 11
14046.549949738201
 21
10096.872704482739
 31
0.0
  0
TEXT
  5
68F58
  8
HIKIDASHI
 10
11150.107575982691
 20
10136.872704482739
 30
0.0
 40
160.0
  1
屋根板
  7
01
  0
TEXT
  5
68F59
  8
HIKIDASHI
 10
11150.107575982691
 20
9896.8727044827374
 30
0.0
 40
160.0
  1
ヨドルーフ
  7
01
  0
TEXT
  5
68F5A
  8
HIKIDASHI
 10
12134.221281282489
 20
9896.8727044827374
 30
0.0
 40
160.0
  1
88
 41
0.6700000000000002
  7
00
  0
TEXT
  5
68F5C
  8
HIKIDASHI
 10
14235.658706474351
 20
5525.2917521017816
 30
0.0
 40
160.0
  1
0.4
 41
0.6700000000000002
  7
00
  0
TEXT
  5
68F5D
  8
HIKIDASHI
 10
13832.056080623181
 20
5525.2917521017816
 30
0.0
 40
160.0
  1
（
  7
01
  0
TEXT
  5
68F5E
  8
HIKIDASHI
 10
14016.36062341562
 20
5545.2917521017816
 30
0.0
 40
120.0
  1
ア
  7
01
  0
CIRCLE
  5
68F5F
  8
HIKIDASHI
 10
14067.738635845601
 20
5605.2917521017807
 30
0.0
 40
80.0
  0
LINE
  5
68F60
  8
HIKIDASHI
 10
15101.251031059541
 20
6427.0258846908264
 30
0.0
 11
14603.64933592687
 21
5485.2917521017807
 31
0.0
  0
TEXT
  5
68F61
  8
HIKIDASHI
 10
14496.813346731011
 20
5525.2917521017816
 30
0.0
 40
160.0
  1
）
  7
01
  0
LINE
  5
68F62
  8
HIKIDASHI
 10
14572.554262618711
 20
9568.7713057981309
 30
0.0
 11
14046.549949738201
 21
10096.872704482739
 31
0.0
  0
TEXT
  5
68F63
  8
HIKIDASHI
 10
13274.956694434461
 20
9896.8727044827374
 30
0.0
 40
160.0
  1
（
  7
01
  0
TEXT
  5
68F64
  8
HIKIDASHI
 10
13459.26123722695
 20
9916.8727044827392
 30
0.0
 40
120.0
  1
ア
  7
01
  0
CIRCLE
  5
68F65
  8
HIKIDASHI
 10
13510.63924965687
 20
9976.8727044827392
 30
0.0
 40
80.0
  0
TEXT
  5
68F66
  8
HIKIDASHI
 10
13657.49950437492
 20
9896.8727044827374
 30
0.0
 40
160.0
  1
0.5
 41
0.6700000000000002
  7
00
  0
TEXT
  5
68F67
  8
HIKIDASHI
 10
13939.713960542291
 20
9896.8727044827374
 30
0.0
 40
160.0
  1
）
  7
01
  0
TEXT
  5
68F69
  8
HIKIDASHI
 10
18225.461093499041
 20
3480.5889733631789
 30
0.0
 40
160.0
  1
80
 41
0.6700000000000002
  7
00
  0
TEXT
  5
68F6A
  8
HIKIDASHI
 10
18066.5965082451
 20
3564.0475912601269
 30
0.0
 40
160.0
  1
1
 41
0.6700000000000002
  7
00
  0
TEXT
  5
68F6B
  8
HIKIDASHI
 10
18132.870783973722
 20
3532.924635763733
 30
0.0
 40
160.0
  1
/
 41
0.6700000000000002
  7
00
  0
TEXT
  5
68F6C
  8
HIKIDASHI
 10
18468.314005623859
 20
3532.924635763733
 30
0.0
 40
160.0
  1
)
 41
0.6700000000000002
  7
00
  0
TEXT
  5
68F6D
  8
HIKIDASHI
 10
17705.18067636976
 20
3532.924635763733
 30
0.0
 40
160.0
  1
(S=
 41
0.6700000000000002
  7
00
  0
TEXT
  5
68F6E
  8
HIKIDASHI
 10
15578.287844235019
 20
3485.2917521017821
 30
0.0
 40
240.0
  1
側 面 立 面 図
  7
01
  0
CIRCLE
  5
68F6F
  8
SUNPOU
 10
11316.0
 20
4245.2917521017807
 30
0.0
 40
200.0
  0
TEXT
  5
68F70
  8
SUNPOU
 10
11235.6
 20
4125.2917521017807
 30
0.0
 40
240.0
  1
C
 41
0.6700000000000002
  7
00
 72
     4
 11
11316.0
 21
4245.2917521017807
 31
0.0
  0
LINE
  5
68F71
  8
SUNPOU
 10
10118.352697041881
 20
9105.2917521017807
 30
0.0
 11
10118.352697041881
 21
6425.2917521017816
 31
0.0
  0
LINE
  5
68F72
  8
SUNPOU
 10
11146.70000000001
 20
6385.2917521017816
 30
0.0
 11
9998.3526970418807
 21
6385.2917521017816
 31
0.0
  0
LINE
  5
68F74
  8
SUNPOU
 10
10838.352697041881
 20
9145.2917521017825
 30
0.0
 11
9998.3526970418807
 21
9145.2917521017825
 31
0.0
  0
CIRCLE
  5
68F76
  8
SUNPOU
 10
16816.0
 20
4245.2917521017807
 30
0.0
 40
200.0
  0
TEXT
  5
68F77
  8
SUNPOU
 10
16747.085714285709
 20
4125.2917521017807
 30
0.0
 40
240.0
  1
A
 41
0.6700000000000002
  7
00
 72
     4
 11
16816.0
 21
4245.2917521017807
 31
0.0
  0
LINE
  5
68F78
  8
SUNPOU
 10
18049.7530932792
 20
9625.2917521017807
 30
0.0
 11
18049.7530932792
 21
6425.2917521017816
 31
0.0
  0
LINE
  5
68F7A
  8
SUNPOU
 10
17314.985027643332
 20
9665.2917521017807
 30
0.0
 11
18169.7530932792
 21
9665.2917521017807
 31
0.0
  0
LINE
  5
68F7C
  8
SUNPOU
 10
10859.764071801101
 20
10344.52791441195
 30
0.0
 11
17096.66611107282
 21
10857.96432968489
 31
0.0
  0
LINE
  5
68F7D
  8
SUNPOU
 10
17228.421442916329
 20
9745.0220434315706
 30
0.0
 11
17126.68587964715
 21
10980.84155904308
 31
0.0
  0
TEXT
  5
68F7F
  8
SUNPOU
 10
13783.412085560851
 20
10665.48010238928
 30
0.0
 40
160.0
  1
6338
 50
4.7061111437861802
 41
0.6700000000000002
  7
00
  0
LINE
  5
68F80
  8
SUNPOU
 10
10911.78911231482
 20
9225.0220434315706
 30
0.0
 11
10810.05354904564
 21
10460.84155904308
 31
0.0
  0
LINE
  5
68F82
  8
SUNPOU
 10
16340.07051099837
 20
10100.40672552686
 30
0.0
 11
14740.07051099837
 21
10100.40672552686
 31
0.0
  0
LINE
  5
68F83
  8
SUNPOU
 10
14740.07051099837
 20
9968.6909699700045
 30
0.0
 11
16340.07051099837
 21
10100.40672552686
 31
0.0
  0
TEXT
  5
68F84
  8
SUNPOU
 10
15381.912383009971
 20
10169.42250270709
 30
0.0
 40
160.0
  1
12
 41
0.6700000000000002
  7
00
  0
TEXT
  5
68F85
  8
SUNPOU
 10
14581.524157965319
 20
9944.3421844781114
 30
0.0
 40
160.0
  1
1
 41
0.6700000000000002
  7
00
  0
LINE
  5
68F86
  8
SUNPOU
 10
14740.07051099837
 20
10100.40672552686
 30
0.0
 11
14740.07051099837
 21
9968.6909699700045
 31
0.0
  0
TEXT
  5
68F87
  8
SUNPOU
 10
22197.714285714232
 20
4136.2917521017816
 30
0.0
 40
230.0
  1
A0
 41
0.6
  7
00
 72
     4
 11
22315.999999999942
 21
4251.2917521017807
 31
0.0
  0
CIRCLE
  5
68F88
  8
SUNPOU
 10
22315.999999999942
 20
4251.2917521017807
 30
0.0
 40
200.0
  0
LINE
  5
68F8C
  8
SUNPOU
 10
17674.461403175032
 20
10047.06715688704
 30
0.0
 11
18794.461403175032
 21
10047.06715688704
 31
0.0
  0
LINE
  5
68F8D
  8
SUNPOU
 10
18794.461403175032
 20
10022.00450024046
 30
0.0
 11
17674.461403175032
 21
10047.06715688704
 31
0.0
  0
TEXT
  5
68F8E
  8
SUNPOU
 10
18188.038723776361
 20
10116.082934067281
 30
0.0
 40
160.0
  1
44
 41
0.6700000000000002
  7
00
  0
TEXT
  5
68F8F
  8
SUNPOU
 10
18866.226803827121
 20
9943.4589556669689
 30
0.0
 40
160.0
  1
1
 41
0.6700000000000002
  7
00
  0
LINE
  5
68F90
  8
SUNPOU
 10
18794.461403175032
 20
10047.06715688704
 30
0.0
 11
18794.461403175032
 21
10022.00450024046
 31
0.0
  0
TEXT
  5
68F93
  8
HIKIDASHI
 10
20886.006113692951
 20
9747.3405223982263
 30
0.0
 40
160.0
  1
型断熱材付
  7
01
  0
LINE
  5
68F94
  8
HIKIDASHI
 10
19592.10357787594
 20
9947.3405223982281
 30
0.0
 11
22547.899278962472
 21
9947.3405223982281
 31
0.0
  0
TEXT
  5
68F95
  8
HIKIDASHI
 10
19651.45690520696
 20
9987.3405223982263
 30
0.0
 40
160.0
  1
屋根板
  7
01
  0
TEXT
  5
68F96
  8
HIKIDASHI
 10
19651.45690520696
 20
9747.3405223982263
 30
0.0
 40
160.0
  1
ヨドルーフ
  7
01
  0
TEXT
  5
68F97
  8
HIKIDASHI
 10
20635.570610506751
 20
9747.3405223982263
 30
0.0
 40
160.0
  1
88
 41
0.6700000000000002
  7
00
  0
TEXT
  5
68F98
  8
HIKIDASHI
 10
21776.306023658719
 20
9747.3405223982263
 30
0.0
 40
160.0
  1
（
  7
01
  0
TEXT
  5
68F99
  8
HIKIDASHI
 10
21960.610566451222
 20
9767.3405223982281
 30
0.0
 40
120.0
  1
ア
  7
01
  0
CIRCLE
  5
68F9A
  8
HIKIDASHI
 10
22011.988578881141
 20
9827.3405223982263
 30
0.0
 40
80.0
  0
TEXT
  5
68F9B
  8
HIKIDASHI
 10
22158.84883359919
 20
9747.3405223982263
 30
0.0
 40
160.0
  1
0.5
 41
0.6700000000000002
  7
00
  0
TEXT
  5
68F9C
  8
HIKIDASHI
 10
22441.063289766549
 20
9747.3405223982263
 30
0.0
 40
160.0
  1
）
  7
01
  0
LINE
  5
68F9E
  8
U1
 10
22273.499999999949
 20
5985.2917521017807
 30
0.0
 11
22273.499999999949
 21
5485.2917521017807
 31
0.0
  0
LINE
  5
68F9F
  8
U1
 10
22358.499999999949
 20
5485.2917521017807
 30
0.0
 11
22358.499999999949
 21
5985.2917521017807
 31
0.0
  0
LINE
  5
68FA0
  8
U1
 10
19523.499999999942
 20
5985.2917521017807
 30
0.0
 11
19523.499999999942
 21
5485.2917521017807
 31
0.0
  0
LINE
  5
68FA1
  8
U1
 10
19608.499999999942
 20
5485.2917521017807
 30
0.0
 11
19608.499999999942
 21
5985.2917521017807
 31
0.0
  0
LINE
  5
68FA2
  8
U1
 10
19523.499999999942
 20
5485.2917521017807
 30
0.0
 11
19608.499999999942
 21
5485.2917521017807
 31
0.0
  0
LINE
  5
68FA3
  8
U1
 10
22273.499999999949
 20
5485.2917521017807
 30
0.0
 11
22358.499999999949
 21
5485.2917521017807
 31
0.0
  0
TEXT
  5
68FA6
  8
SUNPOU
 10
10038.352697041881
 20
7576.415561625593
 30
0.0
 40
160.0
  1
2760
 50
90.0
 41
0.6700000000000002
  7
00
  0
TEXT
  5
68FA7
  8
SUNPOU
 10
17969.7530932792
 20
7839.4155616255903
 30
0.0
 40
160.0
  1
3280
 50
90.0
 41
0.6700000000000002
  7
00
  0
LINE
  5
6F81E
  8
U1
 10
16871.59999999998
 20
8759.818482222021
 30
0.0
 11
16951.52893218803
 21
8759.8184822220064
 31
0.0
  0
LINE
  5
6F81F
  8
U1
 10
17008.59999999998
 20
8719.8184822220228
 30
0.0
 11
16995.671067811811
 21
8719.8184822220228
 31
0.0
  0
ARC
  5
6F820
  8
U1
 10
16995.671067811811
 20
8724.818482222021
 30
0.0
 40
5.0
 50
225.00000000069161
 51
270.0
  0
LINE
  5
6F821
  8
U1
 10
16955.064466093962
 20
8758.3540161279525
 30
0.0
 11
16992.135533905901
 21
8721.2829483160895
 31
0.0
  0
ARC
  5
6F822
  8
U1
 10
16951.52893218803
 20
8754.8184822220192
 30
0.0
 40
5.0
 50
45.000000000691593
 51
90.0
  0
TEXT
  5
6F82A
  8
SUNPOU
 10
20961.3871066635
 20
6482.6826801918442
 30
0.0
 40
160.0
  1
下屋側面有効開口高サ
 50
90.0
  7
01
  0
CIRCLE
  5
7B486
  8
SUNPOU
 10
19615.999999999982
 20
13878.121500361291
 30
0.0
 40
200.0
  0
TEXT
  5
7B487
  8
SUNPOU
 10
19539.428571428562
 20
13758.121500361291
 30
0.0
 40
240.0
  1
5
 41
0.6700000000000002
  7
00
 72
     4
 11
19615.999999999982
 21
13878.121500361291
 31
0.0
  0
CIRCLE
  5
7B488
  8
SUNPOU
 10
22415.999999999989
 20
13878.121500361291
 30
0.0
 40
200.0
  0
TEXT
  5
7B489
  8
SUNPOU
 10
22335.59999999998
 20
13758.121500361291
 30
0.0
 40
240.0
  1
6
 41
0.6700000000000002
  7
00
 72
     4
 11
22415.999999999989
 21
13878.121500361291
 31
0.0
  0
CIRCLE
  5
7B48A
  8
SUNPOU
 10
25215.999999999982
 20
13878.121500361291
 30
0.0
 40
200.0
  0
TEXT
  5
7B48B
  8
SUNPOU
 10
25139.428571428562
 20
13758.121500361291
 30
0.0
 40
240.0
  1
7
 41
0.6700000000000002
  7
00
 72
     4
 11
25215.999999999982
 21
13878.121500361291
 31
0.0
  0
LINE
  5
7B48C
  8
1PL-M1
 10
16815.999999999982
 20
14598.11622710888
 30
0.0
 11
16815.999999999982
 21
16818.121500361289
 31
0.0
  0
LINE
  5
7B48D
  8
SUNPOU
 10
25110.000000000029
 20
16238.121500361291
 30
0.0
 11
25110.000000000029
 21
15398.121500361291
 31
0.0
  0
LINE
  5
7B490
  8
SUNPOU
 10
25070.000000000029
 20
15518.121500361291
 30
0.0
 11
22562.0
 21
15518.121500361291
 31
0.0
  0
LINE
  5
7B492
  8
SUNPOU
 10
22522.0
 20
16238.121500361291
 30
0.0
 11
22522.0
 21
15398.121500361291
 31
0.0
  0
TEXT
  5
7B494
  8
SUNPOU
 10
17669.506315504212
 20
14798.121500361291
 30
0.0
 40
160.0
  1
柱芯寸
  7
01
  0
TEXT
  5
7B495
  8
SUNPOU
 10
18315.992001235401
 20
14798.121500361291
 30
0.0
 40
160.0
  1
2800
 41
0.6700000000000002
  7
00
  0
TEXT
  5
7B496
  8
SUNPOU
 10
20469.506315504219
 20
14798.121500361291
 30
0.0
 40
160.0
  1
柱芯寸
  7
01
  0
TEXT
  5
7B497
  8
SUNPOU
 10
21115.992001235401
 20
14798.121500361291
 30
0.0
 40
160.0
  1
2800
 41
0.6700000000000002
  7
00
  0
TEXT
  5
7B498
  8
SUNPOU
 10
23269.506315504219
 20
14798.121500361291
 30
0.0
 40
160.0
  1
柱芯寸
  7
01
  0
TEXT
  5
7B499
  8
SUNPOU
 10
23915.992001235401
 20
14798.121500361291
 30
0.0
 40
160.0
  1
2800
 41
0.6700000000000002
  7
00
  0
LINE
  5
7B49A
  8
SUNPOU
 10
19655.999999999982
 20
14718.121500361291
 30
0.0
 11
22375.999999999989
 21
14718.121500361291
 31
0.0
  0
LINE
  5
7B49D
  8
SUNPOU
 10
22455.999999999989
 20
14718.121500361291
 30
0.0
 11
25175.999999999982
 21
14718.121500361291
 31
0.0
  0
LINE
  5
7B4A4
  8
SUNPOU
 10
16855.999999999982
 20
14718.121500361291
 30
0.0
 11
19575.999999999982
 21
14718.121500361291
 31
0.0
  0
LINE
  5
7B4A5
  8
U1
 10
16941.0
 20
19418.121500361289
 30
0.0
 11
16941.0
 21
19598.121500361289
 31
0.0
  0
LINE
  5
7B4A6
  8
U1
 10
19721.999999999982
 20
17380.121500361289
 30
0.0
 11
22309.999999999982
 21
17380.121500361289
 31
0.0
  0
LINE
  5
7B4A7
  8
U1
 10
19721.999999999982
 20
17450.921500361292
 30
0.0
 11
22309.999999999982
 21
17450.921500361292
 31
0.0
  0
LINE
  5
7B4A8
  8
U1
 10
19721.999999999982
 20
17521.721500361291
 30
0.0
 11
22309.999999999982
 21
17521.721500361291
 31
0.0
  0
LINE
  5
7B4A9
  8
U1
 10
19721.999999999982
 20
17592.521500361301
 30
0.0
 11
22309.999999999982
 21
17592.521500361301
 31
0.0
  0
LINE
  5
7B4AA
  8
U1
 10
19721.999999999982
 20
17663.321500361279
 30
0.0
 11
22309.999999999982
 21
17663.321500361279
 31
0.0
  0
LINE
  5
7B4AB
  8
U1
 10
19721.999999999982
 20
17734.121500361289
 30
0.0
 11
22309.999999999982
 21
17734.121500361289
 31
0.0
  0
LINE
  5
7B4AC
  8
U1
 10
19721.999999999982
 20
17804.921500361292
 30
0.0
 11
22309.999999999982
 21
17804.921500361292
 31
0.0
  0
LINE
  5
7B4AD
  8
U1
 10
19721.999999999982
 20
17875.721500361291
 30
0.0
 11
22309.999999999982
 21
17875.721500361291
 31
0.0
  0
LINE
  5
7B4AE
  8
U1
 10
19721.999999999982
 20
17309.321500361279
 30
0.0
 11
22309.999999999982
 21
17309.321500361279
 31
0.0
  0
LINE
  5
7B4AF
  8
U1
 10
19721.999999999982
 20
17238.521500361301
 30
0.0
 11
22309.999999999982
 21
17238.521500361301
 31
0.0
  0
LINE
  5
7B4B0
  8
U1
 10
19721.999999999982
 20
17167.721500361291
 30
0.0
 11
22309.999999999982
 21
17167.721500361291
 31
0.0
  0
LINE
  5
7B4B1
  8
U1
 10
19721.999999999982
 20
17096.921500361292
 30
0.0
 11
22309.999999999982
 21
17096.921500361292
 31
0.0
  0
LINE
  5
7B4B2
  8
U1
 10
19721.999999999982
 20
17026.121500361289
 30
0.0
 11
22309.999999999982
 21
17026.121500361289
 31
0.0
  0
LINE
  5
7B4B3
  8
U1
 10
19721.999999999982
 20
16955.321500361279
 30
0.0
 11
22309.999999999982
 21
16955.321500361279
 31
0.0
  0
LINE
  5
7B4B4
  8
U1
 10
19721.999999999982
 20
16884.521500361301
 30
0.0
 11
22309.999999999982
 21
16884.521500361301
 31
0.0
  0
LINE
  5
7B4B5
  8
U1
 10
19721.999999999982
 20
16813.721500361291
 30
0.0
 11
22309.999999999982
 21
16813.721500361291
 31
0.0
  0
LINE
  5
7B4B6
  8
U1
 10
19721.999999999982
 20
16742.921500361292
 30
0.0
 11
22309.999999999982
 21
16742.921500361292
 31
0.0
  0
LINE
  5
7B4B7
  8
U1
 10
19721.999999999982
 20
16672.121500361289
 30
0.0
 11
22309.999999999982
 21
16672.121500361289
 31
0.0
  0
LINE
  5
7B4B8
  8
U1
 10
19721.999999999982
 20
16601.321500361279
 30
0.0
 11
22309.999999999982
 21
16601.321500361279
 31
0.0
  0
LINE
  5
7B4B9
  8
U1
 10
19721.999999999982
 20
16530.521500361279
 30
0.0
 11
22309.999999999982
 21
16530.521500361279
 31
0.0
  0
LINE
  5
7B4BA
  8
U1
 10
19721.999999999982
 20
16459.721500361291
 30
0.0
 11
22309.999999999982
 21
16459.721500361291
 31
0.0
  0
LINE
  5
7B4BB
  8
U1
 10
19721.999999999982
 20
16388.921500361292
 30
0.0
 11
22309.999999999982
 21
16388.921500361292
 31
0.0
  0
LINE
  5
7B4BE
  8
1PL-M1
 10
16815.999999999982
 20
14078.121500361291
 30
0.0
 11
16815.999999999982
 21
14358.11622710888
 31
0.0
  0
LINE
  5
7B4BF
  8
1PL-M1
 10
19615.999999999971
 20
14078.121500361291
 30
0.0
 11
19615.999999999971
 21
16818.121500361289
 31
0.0
  0
LINE
  5
7B4C0
  8
U1
 10
25340.999999999989
 20
16318.121500361291
 30
0.0
 11
25340.999999999989
 21
18970.556065382949
 31
0.0
  0
LINE
  5
7B4C1
  8
U1
 10
25375.999999999982
 20
19428.121500361289
 30
0.0
 11
25375.999999999982
 21
19588.121500361289
 31
0.0
  0
ARC
  5
7B4C4
  8
U1
 10
25365.999999999989
 20
19588.121500361289
 30
0.0
 40
10.0
 50
0.0
 51
90.0
  0
ARC
  5
7B4C5
  8
U1
 10
25365.999999999989
 20
19428.121500361289
 30
0.0
 40
10.0
 50
270.0
 51
0.0
  0
LINE
  5
7B4C6
  8
U1
 10
25167.705729548219
 20
19418.691127034312
 30
0.0
 11
25167.705729548219
 21
19189.12150036118
 31
0.0
  0
LINE
  5
7B4C7
  8
U1
 10
25155.500000000029
 20
16318.121500361291
 30
0.0
 11
25155.500000000029
 21
18874.555091614879
 31
0.0
  0
LINE
  5
7B4C8
  8
U1
 10
25110.000000000029
 20
16318.121500361291
 30
0.0
 11
25110.000000000029
 21
18874.555091614879
 31
0.0
  0
LINE
  5
7B4C9
  8
U1
 10
22521.999999999989
 20
16318.121500361291
 30
0.0
 11
22521.999999999989
 21
18874.5550916149
 31
0.0
  0
LINE
  5
7B4CA
  8
U1
 10
22310.0
 20
16318.121500361291
 30
0.0
 11
22309.999999999982
 21
18874.5550916149
 31
0.0
  0
LINE
  5
7B4CB
  8
U1
 10
22476.499999999989
 20
16318.121500361291
 30
0.0
 11
22476.499999999989
 21
18874.5550916149
 31
0.0
  0
LINE
  5
7B4CC
  8
U1
 10
22470.999999999989
 20
16318.121500361291
 30
0.0
 11
22470.999999999989
 21
18874.5550916149
 31
0.0
  0
LINE
  5
7B4CD
  8
U1
 10
22355.5
 20
16318.121500361291
 30
0.0
 11
22355.499999999989
 21
18874.5550916149
 31
0.0
  0
LINE
  5
7B4CE
  8
U1
 10
22360.999999999989
 20
16318.121500361291
 30
0.0
 11
22360.999999999989
 21
18874.5550916149
 31
0.0
  0
LINE
  5
7B4CF
  8
U1
 10
22521.999999999989
 20
17380.121500361289
 30
0.0
 11
25110.000000000029
 21
17380.121500361289
 31
0.0
  0
LINE
  5
7B4D0
  8
U1
 10
22521.999999999989
 20
17450.921500361292
 30
0.0
 11
25110.000000000029
 21
17450.921500361292
 31
0.0
  0
LINE
  5
7B4D1
  8
U1
 10
22521.999999999989
 20
17521.721500361291
 30
0.0
 11
25110.000000000029
 21
17521.721500361291
 31
0.0
  0
LINE
  5
7B4D2
  8
U1
 10
22521.999999999989
 20
17592.521500361301
 30
0.0
 11
25110.000000000029
 21
17592.521500361301
 31
0.0
  0
LINE
  5
7B4D3
  8
U1
 10
22521.999999999989
 20
17663.321500361279
 30
0.0
 11
25110.000000000029
 21
17663.321500361279
 31
0.0
  0
LINE
  5
7B4D4
  8
U1
 10
22521.999999999989
 20
17734.121500361289
 30
0.0
 11
25110.000000000029
 21
17734.121500361289
 31
0.0
  0
LINE
  5
7B4D5
  8
U1
 10
22521.999999999989
 20
17804.921500361292
 30
0.0
 11
25110.000000000029
 21
17804.921500361292
 31
0.0
  0
LINE
  5
7B4D6
  8
U1
 10
22521.999999999989
 20
17875.721500361291
 30
0.0
 11
25110.000000000029
 21
17875.721500361291
 31
0.0
  0
LINE
  5
7B4D7
  8
U1
 10
22521.999999999989
 20
17309.321500361279
 30
0.0
 11
25110.000000000029
 21
17309.321500361279
 31
0.0
  0
LINE
  5
7B4D8
  8
U1
 10
22521.999999999989
 20
17238.521500361301
 30
0.0
 11
25110.000000000029
 21
17238.521500361301
 31
0.0
  0
LINE
  5
7B4D9
  8
U1
 10
22521.999999999989
 20
17167.721500361291
 30
0.0
 11
25110.000000000029
 21
17167.721500361291
 31
0.0
  0
LINE
  5
7B4DA
  8
U1
 10
22521.999999999989
 20
17096.921500361292
 30
0.0
 11
25110.000000000029
 21
17096.921500361292
 31
0.0
  0
LINE
  5
7B4DB
  8
U1
 10
22521.999999999989
 20
17026.121500361289
 30
0.0
 11
25110.000000000029
 21
17026.121500361289
 31
0.0
  0
LINE
  5
7B4DC
  8
U1
 10
22521.999999999989
 20
16955.321500361279
 30
0.0
 11
25110.000000000029
 21
16955.321500361279
 31
0.0
  0
LINE
  5
7B4DD
  8
U1
 10
22521.999999999989
 20
16884.521500361301
 30
0.0
 11
25110.000000000029
 21
16884.521500361301
 31
0.0
  0
LINE
  5
7B4DE
  8
U1
 10
22521.999999999989
 20
16813.721500361291
 30
0.0
 11
25110.000000000029
 21
16813.721500361291
 31
0.0
  0
LINE
  5
7B4DF
  8
U1
 10
22521.999999999989
 20
16742.921500361292
 30
0.0
 11
25110.000000000029
 21
16742.921500361292
 31
0.0
  0
LINE
  5
7B4E0
  8
U1
 10
22521.999999999989
 20
16672.121500361289
 30
0.0
 11
25110.000000000029
 21
16672.121500361289
 31
0.0
  0
LINE
  5
7B4E1
  8
U1
 10
22521.999999999989
 20
16601.321500361279
 30
0.0
 11
25110.000000000029
 21
16601.321500361279
 31
0.0
  0
LINE
  5
7B4E2
  8
U1
 10
22521.999999999989
 20
16530.521500361279
 30
0.0
 11
25110.000000000029
 21
16530.521500361279
 31
0.0
  0
LINE
  5
7B4E3
  8
U1
 10
22521.999999999989
 20
16459.721500361291
 30
0.0
 11
25110.000000000029
 21
16459.721500361291
 31
0.0
  0
LINE
  5
7B4E4
  8
U1
 10
22521.999999999989
 20
16388.921500361292
 30
0.0
 11
25110.000000000029
 21
16388.921500361292
 31
0.0
  0
ARC
  5
7B4E7
  8
U1
 10
23815.999999999989
 20
17333.921500361292
 30
0.0
 40
12.5
 50
240.00000000007569
 51
299.99999999992428
  0
LINE
  5
7B4E8
  8
U1
 10
23840.999999999989
 20
17333.921500361292
 30
0.0
 11
23822.249999999989
 21
17344.746817908599
 31
0.0
  0
LINE
  5
7B4E9
  8
U1
 10
23790.999999999982
 20
17333.921500361292
 30
0.0
 11
23809.749999999982
 21
17344.746817908599
 31
0.0
  0
LINE
  5
7B4EA
  8
U1
 10
23790.999999999982
 20
17333.921500361292
 30
0.0
 11
23809.749999999982
 21
17323.096182813981
 31
0.0
  0
LINE
  5
7B4EB
  8
U1
 10
23840.999999999989
 20
17333.921500361292
 30
0.0
 11
23822.249999999989
 21
17323.096182813981
 31
0.0
  0
ARC
  5
7B4EC
  8
U1
 10
23815.999999999989
 20
17333.921500361292
 30
0.0
 40
12.5
 50
60.000000000075637
 51
119.9999999999243
  0
ARC
  5
7B4EE
  8
U1
 10
21015.999999999989
 20
17333.921500361292
 30
0.0
 40
12.5
 50
240.00000000007569
 51
299.99999999992428
  0
LINE
  5
7B4EF
  8
U1
 10
21040.999999999982
 20
17333.921500361292
 30
0.0
 11
21022.249999999982
 21
17344.746817908599
 31
0.0
  0
LINE
  5
7B4F0
  8
U1
 10
20990.999999999989
 20
17333.921500361292
 30
0.0
 11
21009.749999999989
 21
17344.746817908599
 31
0.0
  0
LINE
  5
7B4F1
  8
U1
 10
20990.999999999989
 20
17333.921500361292
 30
0.0
 11
21009.749999999989
 21
17323.096182813981
 31
0.0
  0
LINE
  5
7B4F2
  8
U1
 10
21040.999999999982
 20
17333.921500361292
 30
0.0
 11
21022.249999999982
 21
17323.096182813981
 31
0.0
  0
ARC
  5
7B4F3
  8
U1
 10
21015.999999999989
 20
17333.921500361292
 30
0.0
 40
12.5
 50
60.000000000075637
 51
119.9999999999243
  0
LINE
  5
7B4F7
  8
U1
 10
22540.999999999982
 20
19418.121500361289
 30
0.0
 11
22540.999999999982
 21
19598.121500361289
 31
0.0
  0
LINE
  5
7B4F8
  8
1PL-M1
 10
25215.999999999971
 20
14078.121500361291
 30
0.0
 11
25215.999999999971
 21
16818.121500361289
 31
0.0
  0
LINE
  5
7B4F9
  8
1PL-M1
 10
22415.999999999971
 20
14078.121500361291
 30
0.0
 11
22415.999999999971
 21
16818.121500361289
 31
0.0
  0
LINE
  5
7B4FA
  8
U1
 10
19721.999999999982
 20
16318.121500361291
 30
0.0
 11
19721.999999999982
 21
18874.555091614911
 31
0.0
  0
LINE
  5
7B4FB
  8
U1
 10
19509.999999999982
 20
16318.121500361291
 30
0.0
 11
19509.999999999982
 21
18874.555091614919
 31
0.0
  0
LINE
  5
7B4FC
  8
U1
 10
19555.499999999982
 20
16318.121500361291
 30
0.0
 11
19555.499999999982
 21
18874.555091614919
 31
0.0
  0
LINE
  5
7B4FD
  8
U1
 10
16876.499999999942
 20
16318.121500361291
 30
0.0
 11
16876.499999999942
 21
18874.55509161494
 31
0.0
  0
LINE
  5
7B4FE
  8
U1
 10
19676.499999999971
 20
16318.121500361291
 30
0.0
 11
19676.499999999971
 21
18874.555091614911
 31
0.0
  0
LINE
  5
7B4FF
  8
U1
 10
16921.999999999942
 20
16318.121500361291
 30
0.0
 11
16921.999999999942
 21
18874.55509161494
 31
0.0
  0
LINE
  5
7B500
  8
U1
 10
16864.294270451759
 20
19418.691127034312
 30
0.0
 11
16864.294270451759
 21
19189.121500361231
 31
0.0
  0
LINE
  5
7B501
  8
U1
 10
16921.999999999942
 20
17380.121500361289
 30
0.0
 11
19509.999999999982
 21
17380.121500361289
 31
0.0
  0
LINE
  5
7B502
  8
U1
 10
16921.999999999942
 20
17450.921500361292
 30
0.0
 11
19509.999999999982
 21
17450.921500361292
 31
0.0
  0
LINE
  5
7B503
  8
U1
 10
16921.999999999942
 20
17521.721500361291
 30
0.0
 11
19509.999999999982
 21
17521.721500361291
 31
0.0
  0
LINE
  5
7B504
  8
U1
 10
16921.999999999942
 20
17592.521500361301
 30
0.0
 11
19509.999999999982
 21
17592.521500361301
 31
0.0
  0
LINE
  5
7B505
  8
U1
 10
16921.999999999942
 20
17663.321500361279
 30
0.0
 11
19509.999999999982
 21
17663.321500361279
 31
0.0
  0
LINE
  5
7B506
  8
U1
 10
16921.999999999942
 20
17734.121500361289
 30
0.0
 11
19509.999999999982
 21
17734.121500361289
 31
0.0
  0
LINE
  5
7B507
  8
U1
 10
16921.999999999942
 20
17804.921500361292
 30
0.0
 11
19509.999999999982
 21
17804.921500361292
 31
0.0
  0
LINE
  5
7B508
  8
U1
 10
16921.999999999942
 20
17875.721500361291
 30
0.0
 11
19509.999999999982
 21
17875.721500361291
 31
0.0
  0
LINE
  5
7B509
  8
U1
 10
16921.999999999942
 20
17309.321500361279
 30
0.0
 11
19509.999999999982
 21
17309.321500361279
 31
0.0
  0
LINE
  5
7B50A
  8
U1
 10
16921.999999999942
 20
17238.521500361301
 30
0.0
 11
19509.999999999982
 21
17238.521500361301
 31
0.0
  0
LINE
  5
7B50B
  8
U1
 10
16921.999999999942
 20
17167.721500361291
 30
0.0
 11
19509.999999999982
 21
17167.721500361291
 31
0.0
  0
LINE
  5
7B50C
  8
U1
 10
16921.999999999942
 20
17096.921500361292
 30
0.0
 11
19509.999999999982
 21
17096.921500361292
 31
0.0
  0
LINE
  5
7B50D
  8
U1
 10
16921.999999999942
 20
17026.121500361289
 30
0.0
 11
19509.999999999982
 21
17026.121500361289
 31
0.0
  0
LINE
  5
7B50E
  8
U1
 10
16921.999999999942
 20
16955.321500361279
 30
0.0
 11
19509.999999999982
 21
16955.321500361279
 31
0.0
  0
LINE
  5
7B50F
  8
U1
 10
16921.999999999942
 20
16884.521500361301
 30
0.0
 11
19509.999999999982
 21
16884.521500361301
 31
0.0
  0
LINE
  5
7B510
  8
U1
 10
16921.999999999942
 20
16813.721500361291
 30
0.0
 11
19509.999999999982
 21
16813.721500361291
 31
0.0
  0
LINE
  5
7B511
  8
U1
 10
16921.999999999942
 20
16742.921500361292
 30
0.0
 11
19509.999999999982
 21
16742.921500361292
 31
0.0
  0
LINE
  5
7B512
  8
U1
 10
16921.999999999942
 20
16672.121500361289
 30
0.0
 11
19509.999999999982
 21
16672.121500361289
 31
0.0
  0
LINE
  5
7B513
  8
U1
 10
16921.999999999942
 20
16601.321500361279
 30
0.0
 11
19509.999999999982
 21
16601.321500361279
 31
0.0
  0
LINE
  5
7B514
  8
U1
 10
16921.999999999942
 20
16530.521500361279
 30
0.0
 11
19509.999999999982
 21
16530.521500361279
 31
0.0
  0
LINE
  5
7B515
  8
U1
 10
16921.999999999942
 20
16459.721500361291
 30
0.0
 11
19509.999999999982
 21
16459.721500361291
 31
0.0
  0
LINE
  5
7B516
  8
U1
 10
16921.999999999942
 20
16388.921500361292
 30
0.0
 11
19509.999999999982
 21
16388.921500361292
 31
0.0
  0
ARC
  5
7B519
  8
U1
 10
18216.0
 20
17333.921500361292
 30
0.0
 40
12.5
 50
240.00000000007569
 51
299.99999999992428
  0
LINE
  5
7B51A
  8
U1
 10
18241.0
 20
17333.921500361292
 30
0.0
 11
18222.25
 21
17344.746817908599
 31
0.0
  0
LINE
  5
7B51B
  8
U1
 10
18191.0
 20
17333.921500361292
 30
0.0
 11
18209.75
 21
17344.746817908599
 31
0.0
  0
LINE
  5
7B51C
  8
U1
 10
18191.0
 20
17333.921500361292
 30
0.0
 11
18209.75
 21
17323.096182813981
 31
0.0
  0
LINE
  5
7B51D
  8
U1
 10
18241.0
 20
17333.921500361292
 30
0.0
 11
18222.25
 21
17323.096182813981
 31
0.0
  0
ARC
  5
7B51E
  8
U1
 10
18216.0
 20
17333.921500361292
 30
0.0
 40
12.5
 50
60.000000000075637
 51
119.9999999999243
  0
LINE
  5
7B51F
  8
U1
 10
19740.999999999982
 20
19418.121500361289
 30
0.0
 11
19740.999999999982
 21
19598.121500361289
 31
0.0
  0
TEXT
  5
7B521
  8
SUNPOU
 10
25495.999999999982
 20
20478.121500361289
 30
0.0
 40
160.0
  1
35
 41
0.6700000000000002
  7
00
  0
LINE
  5
7B522
  8
SUNPOU
 10
25435.999999999989
 20
20398.121500361289
 30
0.0
 11
25721.178626060952
 21
20398.121500361289
 31
0.0
  0
LINE
  5
7B525
  8
U1
 10
8255.9999999999964
 20
19428.121500361289
 30
0.0
 11
8255.9999999999964
 21
19588.121500361289
 31
0.0
  0
ARC
  5
7B527
  8
U1
 10
8265.9999999999964
 20
19428.121500361289
 30
0.0
 40
10.0
 50
180.0
 51
270.0
  0
ARC
  5
7B528
  8
U1
 10
8265.9999999999964
 20
19588.121500361289
 30
0.0
 40
10.0
 50
90.0
 51
180.0
  0
LINE
  5
7B52A
  8
SUNPOU
 10
25340.999999999989
 20
19678.121500361289
 30
0.0
 11
25340.999999999989
 21
20518.121500361289
 31
0.0
  0
LINE
  5
7B52B
  8
SUNPOU
 10
25375.999999999982
 20
19678.121500361289
 30
0.0
 11
25375.999999999982
 21
20918.121500361289
 31
0.0
  0
LINE
  5
7B52C
  8
U1
 10
11341.0
 20
19418.121500361289
 30
0.0
 11
11341.0
 21
19598.121500361289
 31
0.0
  0
TEXT
  5
7B52D
  8
SUNPOU
 10
25454.039840852191
 20
14798.121500361291
 30
0.0
 40
160.0
  1
125
 41
0.6700000000000002
  7
00
  0
LINE
  5
7B532
  8
SUNPOU
 10
25215.999999999982
 20
14718.121500361291
 30
0.0
 11
25782.347374585868
 21
14718.121500361291
 31
0.0
  0
ARC
  5
7B533
  8
U1
 10
9816.0
 20
17333.921500361292
 30
0.0
 40
12.5
 50
60.000000000075637
 51
119.9999999999243
  0
LINE
  5
7B534
  8
U1
 10
9841.0
 20
17333.921500361292
 30
0.0
 11
9822.25
 21
17323.096182813981
 31
0.0
  0
LINE
  5
7B535
  8
U1
 10
9791.0
 20
17333.921500361292
 30
0.0
 11
9809.7500000000018
 21
17323.096182813981
 31
0.0
  0
LINE
  5
7B536
  8
U1
 10
9791.0
 20
17333.921500361292
 30
0.0
 11
9809.7500000000018
 21
17344.746817908599
 31
0.0
  0
LINE
  5
7B537
  8
U1
 10
9841.0
 20
17333.921500361292
 30
0.0
 11
9822.25
 21
17344.746817908599
 31
0.0
  0
ARC
  5
7B538
  8
U1
 10
9816.0
 20
17333.921500361292
 30
0.0
 40
12.5
 50
240.00000000007569
 51
299.99999999992428
  0
TEXT
  5
7B53B
  8
SUNPOU
 10
15515.9920012354
 20
14798.121500361291
 30
0.0
 40
160.0
  1
2800
 41
0.6700000000000002
  7
00
  0
TEXT
  5
7B53F
  8
SUNPOU
 10
14869.50631550421
 20
14798.121500361291
 30
0.0
 40
160.0
  1
柱芯寸
  7
01
  0
LINE
  5
7B540
  8
SUNPOU
 10
14055.99999999998
 20
14718.121500361291
 30
0.0
 11
16775.999999999982
 21
14718.121500361291
 31
0.0
  0
LINE
  5
7B541
  8
U1
 10
8521.9999999999545
 20
16388.921500361292
 30
0.0
 11
11109.99999999998
 21
16388.921500361292
 31
0.0
  0
LINE
  5
7B542
  8
U1
 10
8521.9999999999545
 20
16459.721500361291
 30
0.0
 11
11109.99999999998
 21
16459.721500361291
 31
0.0
  0
LINE
  5
7B543
  8
U1
 10
8521.9999999999545
 20
16530.521500361279
 30
0.0
 11
11109.99999999998
 21
16530.521500361279
 31
0.0
  0
LINE
  5
7B544
  8
U1
 10
8521.9999999999545
 20
16601.321500361279
 30
0.0
 11
11109.99999999998
 21
16601.321500361279
 31
0.0
  0
LINE
  5
7B545
  8
U1
 10
8521.9999999999545
 20
16672.121500361289
 30
0.0
 11
11109.99999999998
 21
16672.121500361289
 31
0.0
  0
LINE
  5
7B546
  8
U1
 10
8521.9999999999545
 20
16742.921500361292
 30
0.0
 11
11109.99999999998
 21
16742.921500361292
 31
0.0
  0
LINE
  5
7B547
  8
U1
 10
8521.9999999999545
 20
16813.721500361291
 30
0.0
 11
11109.99999999998
 21
16813.721500361291
 31
0.0
  0
LINE
  5
7B548
  8
U1
 10
8521.9999999999545
 20
16884.521500361301
 30
0.0
 11
11109.99999999998
 21
16884.521500361301
 31
0.0
  0
LINE
  5
7B549
  8
U1
 10
8521.9999999999545
 20
16955.321500361279
 30
0.0
 11
11109.99999999998
 21
16955.321500361279
 31
0.0
  0
LINE
  5
7B54A
  8
U1
 10
8521.9999999999545
 20
17026.121500361289
 30
0.0
 11
11109.99999999998
 21
17026.121500361289
 31
0.0
  0
LINE
  5
7B54B
  8
U1
 10
8521.9999999999545
 20
17096.921500361292
 30
0.0
 11
11109.99999999998
 21
17096.921500361292
 31
0.0
  0
LINE
  5
7B54C
  8
U1
 10
8521.9999999999545
 20
17167.721500361291
 30
0.0
 11
11109.99999999998
 21
17167.721500361291
 31
0.0
  0
LINE
  5
7B54D
  8
U1
 10
8521.9999999999545
 20
17238.521500361301
 30
0.0
 11
11109.99999999998
 21
17238.521500361301
 31
0.0
  0
LINE
  5
7B54E
  8
U1
 10
8521.9999999999545
 20
17309.321500361279
 30
0.0
 11
11109.99999999998
 21
17309.321500361279
 31
0.0
  0
LINE
  5
7B54F
  8
U1
 10
8521.9999999999545
 20
17875.721500361291
 30
0.0
 11
11109.99999999998
 21
17875.721500361291
 31
0.0
  0
LINE
  5
7B550
  8
U1
 10
8521.9999999999545
 20
17804.921500361292
 30
0.0
 11
11109.99999999998
 21
17804.921500361292
 31
0.0
  0
LINE
  5
7B551
  8
U1
 10
8521.9999999999545
 20
17734.121500361289
 30
0.0
 11
11109.99999999998
 21
17734.121500361289
 31
0.0
  0
LINE
  5
7B552
  8
U1
 10
8521.9999999999545
 20
17663.321500361279
 30
0.0
 11
11109.99999999998
 21
17663.321500361279
 31
0.0
  0
LINE
  5
7B553
  8
U1
 10
8521.9999999999545
 20
17592.521500361301
 30
0.0
 11
11109.99999999998
 21
17592.521500361301
 31
0.0
  0
LINE
  5
7B554
  8
U1
 10
8521.9999999999545
 20
17521.721500361291
 30
0.0
 11
11109.99999999998
 21
17521.721500361291
 31
0.0
  0
LINE
  5
7B555
  8
U1
 10
8521.9999999999545
 20
17450.921500361292
 30
0.0
 11
11109.99999999998
 21
17450.921500361292
 31
0.0
  0
LINE
  5
7B556
  8
U1
 10
8521.9999999999545
 20
17380.121500361289
 30
0.0
 11
11109.99999999998
 21
17380.121500361289
 31
0.0
  0
LINE
  5
7B557
  8
U1
 10
8464.2942704517591
 20
19418.691127034312
 30
0.0
 11
8464.2942704517591
 21
19189.121500361282
 31
0.0
  0
LINE
  5
7B558
  8
U1
 10
8521.9999999999545
 20
16318.121500361291
 30
0.0
 11
8521.9999999999545
 21
18874.55509161498
 31
0.0
  0
LINE
  5
7B559
  8
U1
 10
11276.49999999998
 20
16318.121500361291
 30
0.0
 11
11276.49999999998
 21
18874.555091614959
 31
0.0
  0
LINE
  5
7B55A
  8
U1
 10
8290.9999999999964
 20
16318.121500361291
 30
0.0
 11
8290.9999999999964
 21
18970.556065383051
 31
0.0
  0
LINE
  5
7B55B
  8
U1
 10
8476.4999999999527
 20
16318.121500361291
 30
0.0
 11
8476.4999999999527
 21
18874.55509161498
 31
0.0
  0
LINE
  5
7B55C
  8
U1
 10
11155.49999999998
 20
16318.121500361291
 30
0.0
 11
11155.49999999998
 21
18874.555091614959
 31
0.0
  0
LINE
  5
7B55D
  8
U1
 10
11109.99999999998
 20
16318.121500361291
 30
0.0
 11
11109.99999999998
 21
18874.555091614959
 31
0.0
  0
LINE
  5
7B55E
  8
U1
 10
11321.99999999998
 20
16318.121500361291
 30
0.0
 11
11321.99999999998
 21
18874.555091614959
 31
0.0
  0
TEXT
  5
7B55F
  8
SUNPOU
 10
16735.599999999999
 20
13758.121500361291
 30
0.0
 40
240.0
  1
4
 41
0.6700000000000002
  7
00
 72
     4
 11
16816.0
 21
13878.121500361291
 31
0.0
  0
CIRCLE
  5
7B560
  8
SUNPOU
 10
16816.0
 20
13878.121500361291
 30
0.0
 40
200.0
  0
TEXT
  5
7B561
  8
SUNPOU
 10
13939.428571428551
 20
13758.121500361291
 30
0.0
 40
240.0
  1
3
 41
0.6700000000000002
  7
00
 72
     4
 11
14015.99999999998
 21
13878.121500361291
 31
0.0
  0
CIRCLE
  5
7B562
  8
SUNPOU
 10
14015.99999999998
 20
13878.121500361291
 30
0.0
 40
200.0
  0
TEXT
  5
7B563
  8
HIKIDASHI
 10
17943.922500677429
 20
13113.418721622669
 30
0.0
 40
160.0
  1
80
 41
0.6700000000000002
  7
00
  0
TEXT
  5
7B564
  8
HIKIDASHI
 10
18186.77541280229
 20
13165.75438402323
 30
0.0
 40
160.0
  1
)
 41
0.6700000000000002
  7
00
  0
LINE
  5
7B565
  8
SUNPOU
 10
25340.999999999989
 20
16238.121500361291
 30
0.0
 11
25340.999999999989
 21
14198.121500361291
 31
0.0
  0
LINE
  5
7B566
  8
1PL-M1
 10
14015.99999999998
 20
14078.121500361291
 30
0.0
 11
14015.99999999998
 21
16818.121500361289
 31
0.0
  0
TEXT
  5
7B567
  8
SUNPOU
 10
16553.104761904739
 20
20878.121500361289
 30
0.0
 40
160.0
  1
17120
 41
0.6700000000000002
  7
00
 72
     4
 11
16815.999999999982
 21
20958.121500361289
 31
0.0
  0
TEXT
  5
7B568
  8
SUNPOU
 10
16553.104761904739
 20
20478.121500361289
 30
0.0
 40
160.0
  1
17050
 41
0.6700000000000002
  7
00
 72
     4
 11
16815.999999999982
 21
20558.121500361289
 31
0.0
  0
LINE
  5
7B569
  8
U1
 10
14141.0
 20
19418.121500361289
 30
0.0
 11
14141.0
 21
19598.121500361289
 31
0.0
  0
ARC
  5
7B56D
  8
U1
 10
12616.0
 20
17333.921500361292
 30
0.0
 40
12.5
 50
60.000000000075637
 51
119.9999999999243
  0
LINE
  5
7B56E
  8
U1
 10
12641.0
 20
17333.921500361292
 30
0.0
 11
12622.25
 21
17323.096182813981
 31
0.0
  0
LINE
  5
7B56F
  8
U1
 10
12591.0
 20
17333.921500361292
 30
0.0
 11
12609.75
 21
17323.096182813981
 31
0.0
  0
LINE
  5
7B570
  8
U1
 10
12591.0
 20
17333.921500361292
 30
0.0
 11
12609.75
 21
17344.746817908599
 31
0.0
  0
LINE
  5
7B571
  8
U1
 10
12641.0
 20
17333.921500361292
 30
0.0
 11
12622.25
 21
17344.746817908599
 31
0.0
  0
ARC
  5
7B572
  8
U1
 10
12616.0
 20
17333.921500361292
 30
0.0
 40
12.5
 50
240.00000000007569
 51
299.99999999992428
  0
TEXT
  5
7B574
  8
SUNPOU
 10
16553.104761904739
 20
14398.121500361291
 30
0.0
 40
160.0
  1
17050
 41
0.6700000000000002
  7
00
 72
     4
 11
16815.999999999982
 21
14478.121500361291
 31
0.0
  0
TEXT
  5
7B575
  8
SUNPOU
 10
12715.9920012354
 20
14798.121500361291
 30
0.0
 40
160.0
  1
2800
 41
0.6700000000000002
  7
00
  0
LINE
  5
7B578
  8
SUNPOU
 10
14122.0
 20
16238.121500361291
 30
0.0
 11
14122.0
 21
15398.121500361291
 31
0.0
  0
TEXT
  5
7B579
  8
SUNPOU
 10
12069.50631550421
 20
14798.121500361291
 30
0.0
 40
160.0
  1
柱芯寸
  7
01
  0
ARC
  5
7B57A
  8
U1
 10
15416.0
 20
17333.921500361292
 30
0.0
 40
12.5
 50
60.000000000075637
 51
119.9999999999243
  0
LINE
  5
7B57B
  8
U1
 10
15441.0
 20
17333.921500361292
 30
0.0
 11
15422.25
 21
17323.096182813981
 31
0.0
  0
LINE
  5
7B57C
  8
U1
 10
15391.0
 20
17333.921500361292
 30
0.0
 11
15409.75
 21
17323.096182813981
 31
0.0
  0
LINE
  5
7B57D
  8
U1
 10
15391.0
 20
17333.921500361292
 30
0.0
 11
15409.75
 21
17344.746817908599
 31
0.0
  0
LINE
  5
7B57E
  8
U1
 10
15441.0
 20
17333.921500361292
 30
0.0
 11
15422.25
 21
17344.746817908599
 31
0.0
  0
ARC
  5
7B57F
  8
U1
 10
15416.0
 20
17333.921500361292
 30
0.0
 40
12.5
 50
240.00000000007569
 51
299.99999999992428
  0
TEXT
  5
7B583
  8
SUNPOU
 10
9915.9920012353978
 20
14798.121500361291
 30
0.0
 40
160.0
  1
2800
 41
0.6700000000000002
  7
00
  0
LINE
  5
7B585
  8
SUNPOU
 10
16710.000000000029
 20
16238.121500361291
 30
0.0
 11
16710.000000000029
 21
15398.121500361291
 31
0.0
  0
TEXT
  5
7B586
  8
SUNPOU
 10
9269.5063155042135
 20
14798.121500361291
 30
0.0
 40
160.0
  1
柱芯寸
  7
01
  0
LINE
  5
7B588
  8
SUNPOU
 10
8455.9999999999818
 20
14718.121500361291
 30
0.0
 11
11175.99999999998
 21
14718.121500361291
 31
0.0
  0
LINE
  5
7B589
  8
SUNPOU
 10
16670.000000000029
 20
15518.121500361291
 30
0.0
 11
14162.0
 21
15518.121500361291
 31
0.0
  0
LINE
  5
7B58B
  8
U1
 10
14122.0
 20
16388.921500361292
 30
0.0
 11
16710.000000000029
 21
16388.921500361292
 31
0.0
  0
LINE
  5
7B58C
  8
U1
 10
14122.0
 20
16459.721500361291
 30
0.0
 11
16710.000000000029
 21
16459.721500361291
 31
0.0
  0
LINE
  5
7B58D
  8
U1
 10
14122.0
 20
16530.521500361279
 30
0.0
 11
16710.000000000029
 21
16530.521500361279
 31
0.0
  0
LINE
  5
7B58E
  8
U1
 10
14122.0
 20
16601.321500361279
 30
0.0
 11
16710.000000000029
 21
16601.321500361279
 31
0.0
  0
LINE
  5
7B58F
  8
U1
 10
14122.0
 20
16672.121500361289
 30
0.0
 11
16710.000000000029
 21
16672.121500361289
 31
0.0
  0
LINE
  5
7B590
  8
U1
 10
14122.0
 20
16742.921500361292
 30
0.0
 11
16710.000000000029
 21
16742.921500361292
 31
0.0
  0
LINE
  5
7B591
  8
U1
 10
14122.0
 20
16813.721500361291
 30
0.0
 11
16710.000000000029
 21
16813.721500361291
 31
0.0
  0
LINE
  5
7B592
  8
U1
 10
14122.0
 20
16884.521500361301
 30
0.0
 11
16710.000000000029
 21
16884.521500361301
 31
0.0
  0
LINE
  5
7B593
  8
U1
 10
14122.0
 20
16955.321500361279
 30
0.0
 11
16710.000000000029
 21
16955.321500361279
 31
0.0
  0
LINE
  5
7B594
  8
U1
 10
14122.0
 20
17026.121500361289
 30
0.0
 11
16710.000000000029
 21
17026.121500361289
 31
0.0
  0
LINE
  5
7B595
  8
U1
 10
14122.0
 20
17096.921500361292
 30
0.0
 11
16710.000000000029
 21
17096.921500361292
 31
0.0
  0
LINE
  5
7B596
  8
U1
 10
14122.0
 20
17167.721500361291
 30
0.0
 11
16710.000000000029
 21
17167.721500361291
 31
0.0
  0
LINE
  5
7B597
  8
U1
 10
14122.0
 20
17238.521500361301
 30
0.0
 11
16710.000000000029
 21
17238.521500361301
 31
0.0
  0
LINE
  5
7B598
  8
U1
 10
14122.0
 20
17309.321500361279
 30
0.0
 11
16710.000000000029
 21
17309.321500361279
 31
0.0
  0
LINE
  5
7B599
  8
U1
 10
14122.0
 20
17875.721500361291
 30
0.0
 11
16710.000000000029
 21
17875.721500361291
 31
0.0
  0
LINE
  5
7B59A
  8
U1
 10
14122.0
 20
17804.921500361292
 30
0.0
 11
16710.000000000029
 21
17804.921500361292
 31
0.0
  0
LINE
  5
7B59B
  8
U1
 10
14122.0
 20
17734.121500361289
 30
0.0
 11
16710.000000000029
 21
17734.121500361289
 31
0.0
  0
LINE
  5
7B59C
  8
U1
 10
14122.0
 20
17663.321500361279
 30
0.0
 11
16710.000000000029
 21
17663.321500361279
 31
0.0
  0
LINE
  5
7B59D
  8
U1
 10
14122.0
 20
17592.521500361301
 30
0.0
 11
16710.000000000029
 21
17592.521500361301
 31
0.0
  0
LINE
  5
7B59E
  8
U1
 10
14122.0
 20
17521.721500361291
 30
0.0
 11
16710.000000000029
 21
17521.721500361291
 31
0.0
  0
LINE
  5
7B59F
  8
U1
 10
14122.0
 20
17450.921500361292
 30
0.0
 11
16710.000000000029
 21
17450.921500361292
 31
0.0
  0
LINE
  5
7B5A0
  8
U1
 10
14122.0
 20
17380.121500361289
 30
0.0
 11
16710.000000000029
 21
17380.121500361289
 31
0.0
  0
LINE
  5
7B5A1
  8
U1
 10
13961.0
 20
16318.121500361291
 30
0.0
 11
13961.0
 21
18874.555091614951
 31
0.0
  0
LINE
  5
7B5A2
  8
U1
 10
13955.5
 20
16318.121500361291
 30
0.0
 11
13955.5
 21
18874.555091614951
 31
0.0
  0
LINE
  5
7B5A3
  8
U1
 10
14071.0
 20
16318.121500361291
 30
0.0
 11
14071.0
 21
18874.555091614951
 31
0.0
  0
LINE
  5
7B5A4
  8
U1
 10
14076.5
 20
16318.121500361291
 30
0.0
 11
14076.5
 21
18874.555091614951
 31
0.0
  0
LINE
  5
7B5A5
  8
U1
 10
13910.0
 20
16318.121500361291
 30
0.0
 11
13910.0
 21
18874.555091614951
 31
0.0
  0
LINE
  5
7B5A6
  8
U1
 10
14122.0
 20
16318.121500361291
 30
0.0
 11
14122.0
 21
18874.555091614951
 31
0.0
  0
LINE
  5
7B5A7
  8
U1
 10
16710.000000000029
 20
16318.121500361291
 30
0.0
 11
16710.000000000029
 21
18874.55509161494
 31
0.0
  0
LINE
  5
7B5A8
  8
U1
 10
16755.500000000029
 20
16318.121500361291
 30
0.0
 11
16755.500000000029
 21
18874.55509161494
 31
0.0
  0
LINE
  5
7B5A9
  8
U1
 10
16767.705729548219
 20
19418.691127034312
 30
0.0
 11
16767.705729548219
 21
19189.121500361231
 31
0.0
  0
LINE
  5
7B5AD
  8
SUNPOU
 10
8195.9999999999818
 20
20398.121500361289
 30
0.0
 11
7910.8213739390158
 21
20398.121500361289
 31
0.0
  0
TEXT
  5
7B5AE
  8
SUNPOU
 10
7962.4380952380698
 20
20478.121500361289
 30
0.0
 40
160.0
  1
35
 41
0.6700000000000002
  7
00
  0
LINE
  5
7B5B0
  8
SUNPOU
 10
8175.9999999999818
 20
18988.121500361289
 30
0.0
 11
7370.9999999999818
 21
18988.121500361289
 31
0.0
  0
LINE
  5
7B5B1
  8
SUNPOU
 10
8290.9999999999818
 20
19678.121500361289
 30
0.0
 11
8290.9999999999818
 21
20518.121500361289
 31
0.0
  0
LINE
  5
7B5B3
  8
SUNPOU
 10
8175.9999999999818
 20
19598.121500361289
 30
0.0
 11
6970.9999999999818
 21
19598.121500361289
 31
0.0
  0
LINE
  5
7B5B4
  8
SUNPOU
 10
8255.9999999999818
 20
19678.121500361289
 30
0.0
 11
8255.9999999999818
 21
20918.121500361289
 31
0.0
  0
TEXT
  5
7B5B6
  8
SUNPOU
 10
7922.722063909674
 20
14798.121500361291
 30
0.0
 40
160.0
  1
125
 41
0.6700000000000002
  7
00
  0
LINE
  5
7B5B7
  8
SUNPOU
 10
8330.9999999999818
 20
14718.121500361291
 30
0.0
 11
8375.9999999999818
 21
14718.121500361291
 31
0.0
  0
LINE
  5
7B5B9
  8
SUNPOU
 10
8290.9999999999818
 20
14718.121500361291
 30
0.0
 11
7849.6526254141027
 21
14718.121500361291
 31
0.0
  0
LINE
  5
7B5BC
  8
SUNPOU
 10
8210.9999999999818
 20
16318.121500361291
 30
0.0
 11
6970.9999999999818
 21
16318.1215003613
 31
0.0
  0
LINE
  5
7B5BD
  8
SUNPOU
 10
7490.9999999999818
 20
16358.121500361291
 30
0.0
 11
7490.9999999999818
 21
18948.121500361289
 31
0.0
  0
LINE
  5
7B5BE
  8
SUNPOU
 10
7090.9999999999827
 20
16358.1215003613
 30
0.0
 11
7090.9999999999827
 21
19558.121500361289
 31
0.0
  0
TEXT
  5
7B5C1
  8
HIKIDASHI
 10
17785.057915423531
 20
13196.87733951962
 30
0.0
 40
160.0
  1
1
 41
0.6700000000000002
  7
00
  0
TEXT
  5
7B5C2
  8
HIKIDASHI
 10
17423.64208354818
 20
13165.75438402323
 30
0.0
 40
160.0
  1
(S=
 41
0.6700000000000002
  7
00
  0
TEXT
  5
7B5C3
  8
SUNPOU
 10
11139.428571428551
 20
13758.121500361291
 30
0.0
 40
240.0
  1
2
 41
0.6700000000000002
  7
00
 72
     4
 11
11215.99999999998
 21
13878.121500361291
 31
0.0
  0
TEXT
  5
7B5C4
  8
HIKIDASHI
 10
15446.88740483037
 20
13118.121500361291
 30
0.0
 40
240.0
  1
正 面 立 面 図
  7
01
  0
CIRCLE
  5
7B5C5
  8
SUNPOU
 10
11215.99999999998
 20
13878.121500361291
 30
0.0
 40
200.0
  0
TEXT
  5
7B5C6
  8
SUNPOU
 10
8350.914285714267
 20
13758.121500361291
 30
0.0
 40
240.0
  1
1
 41
0.6700000000000002
  7
00
 72
     4
 11
8415.9999999999818
 21
13878.121500361291
 31
0.0
  0
CIRCLE
  5
7B5C7
  8
SUNPOU
 10
8415.9999999999818
 20
13878.121500361291
 30
0.0
 40
200.0
  0
LINE
  5
7B5C8
  8
SUNPOU
 10
8290.9999999999818
 20
16238.121500361291
 30
0.0
 11
8290.9999999999818
 21
14198.121500361291
 31
0.0
  0
LINE
  5
7B5C9
  8
1PL-M1
 10
11215.99999999998
 20
14078.121500361291
 30
0.0
 11
11215.99999999998
 21
16818.121500361289
 31
0.0
  0
LINE
  5
7B5CA
  8
1PL-M1
 10
8415.9999999999818
 20
14078.121500361291
 30
0.0
 11
8415.9999999999818
 21
16818.121500361289
 31
0.0
  0
TEXT
  5
7B5CB
  8
HIKIDASHI
 10
17851.332191152149
 20
13165.75438402323
 30
0.0
 40
160.0
  1
/
 41
0.6700000000000002
  7
00
  0
LINE
  5
7B5CC
  8
SUNPOU
 10
11255.99999999998
 20
14718.121500361291
 30
0.0
 11
13975.99999999998
 21
14718.121500361291
 31
0.0
  0
LINE
  5
7B5CD
  8
SUNPOU
 10
8330.9999999999818
 20
20398.121500361289
 30
0.0
 11
25300.999999999989
 21
20398.121500361289
 31
0.0
  0
LINE
  5
7B5CE
  8
SUNPOU
 10
8295.9999999999836
 20
20798.121500361289
 30
0.0
 11
25335.999999999982
 21
20798.121500361289
 31
0.0
  0
LINE
  5
7B5CF
  8
SUNPOU
 10
8330.9999999999818
 20
14318.121500361291
 30
0.0
 11
25300.999999999989
 21
14318.121500361291
 31
0.0
  0
LINE
  5
7B5D0
  8
U1
 10
8290.9999999999964
 20
16318.121500361291
 30
0.0
 11
8373.4999999999818
 21
16318.121500361291
 31
0.0
  0
LINE
  5
7B5D1
  8
U1
 10
8265.9999999999964
 20
19598.121500361289
 30
0.0
 11
25365.999999999989
 21
19598.121500361289
 31
0.0
  0
LINE
  5
7B5D3
  8
U1
 10
8265.9999999999964
 20
19418.121500361289
 30
0.0
 11
25365.999999999989
 21
19418.121500361289
 31
0.0
  0
LINE
  5
7B5D4
  8
U1
 10
8255.9999999999964
 20
19558.121500361289
 30
0.0
 11
25375.999999999982
 21
19558.121500361289
 31
0.0
  0
LINE
  5
7B5D5
  8
U1
 10
8255.9999999999964
 20
19543.121500361289
 30
0.0
 11
25375.999999999982
 21
19543.121500361289
 31
0.0
  0
LINE
  5
7B5D6
  8
U1
 10
8255.9999999999964
 20
19473.121500361289
 30
0.0
 11
25375.999999999982
 21
19473.121500361289
 31
0.0
  0
LINE
  5
7B5D7
  8
U1
 10
8255.9999999999964
 20
19458.121500361289
 30
0.0
 11
25375.999999999982
 21
19458.121500361289
 31
0.0
  0
LINE
  5
7B5D9
  8
U1
 10
11321.99999999998
 20
16388.921500361292
 30
0.0
 11
13910.0
 21
16388.921500361292
 31
0.0
  0
LINE
  5
7B5DA
  8
U1
 10
11321.99999999998
 20
16459.721500361291
 30
0.0
 11
13910.0
 21
16459.721500361291
 31
0.0
  0
LINE
  5
7B5DB
  8
U1
 10
11321.99999999998
 20
16530.521500361279
 30
0.0
 11
13910.0
 21
16530.521500361279
 31
0.0
  0
LINE
  5
7B5DC
  8
U1
 10
11321.99999999998
 20
16601.321500361279
 30
0.0
 11
13910.0
 21
16601.321500361279
 31
0.0
  0
LINE
  5
7B5DD
  8
U1
 10
11321.99999999998
 20
16672.121500361289
 30
0.0
 11
13910.0
 21
16672.121500361289
 31
0.0
  0
LINE
  5
7B5DE
  8
U1
 10
11321.99999999998
 20
16742.921500361292
 30
0.0
 11
13910.0
 21
16742.921500361292
 31
0.0
  0
LINE
  5
7B5DF
  8
U1
 10
11321.99999999998
 20
16813.721500361291
 30
0.0
 11
13910.0
 21
16813.721500361291
 31
0.0
  0
LINE
  5
7B5E0
  8
U1
 10
11321.99999999998
 20
16884.521500361301
 30
0.0
 11
13910.0
 21
16884.521500361301
 31
0.0
  0
LINE
  5
7B5E1
  8
U1
 10
11321.99999999998
 20
16955.321500361279
 30
0.0
 11
13910.0
 21
16955.321500361279
 31
0.0
  0
LINE
  5
7B5E2
  8
U1
 10
11321.99999999998
 20
17026.121500361289
 30
0.0
 11
13910.0
 21
17026.121500361289
 31
0.0
  0
LINE
  5
7B5E3
  8
U1
 10
11321.99999999998
 20
17096.921500361292
 30
0.0
 11
13910.0
 21
17096.921500361292
 31
0.0
  0
LINE
  5
7B5E4
  8
U1
 10
11321.99999999998
 20
17167.721500361291
 30
0.0
 11
13910.0
 21
17167.721500361291
 31
0.0
  0
LINE
  5
7B5E5
  8
U1
 10
11321.99999999998
 20
17238.521500361301
 30
0.0
 11
13910.0
 21
17238.521500361301
 31
0.0
  0
LINE
  5
7B5E6
  8
U1
 10
11321.99999999998
 20
17309.321500361279
 30
0.0
 11
13910.0
 21
17309.321500361279
 31
0.0
  0
LINE
  5
7B5E7
  8
U1
 10
11321.99999999998
 20
17875.721500361291
 30
0.0
 11
13910.0
 21
17875.721500361291
 31
0.0
  0
LINE
  5
7B5E8
  8
U1
 10
11321.99999999998
 20
17804.921500361292
 30
0.0
 11
13910.0
 21
17804.921500361292
 31
0.0
  0
LINE
  5
7B5E9
  8
U1
 10
11321.99999999998
 20
17734.121500361289
 30
0.0
 11
13910.0
 21
17734.121500361289
 31
0.0
  0
LINE
  5
7B5EA
  8
U1
 10
11321.99999999998
 20
17663.321500361279
 30
0.0
 11
13910.0
 21
17663.321500361279
 31
0.0
  0
LINE
  5
7B5EB
  8
U1
 10
11321.99999999998
 20
17592.521500361301
 30
0.0
 11
13910.0
 21
17592.521500361301
 31
0.0
  0
LINE
  5
7B5EC
  8
U1
 10
11321.99999999998
 20
17521.721500361291
 30
0.0
 11
13910.0
 21
17521.721500361291
 31
0.0
  0
LINE
  5
7B5ED
  8
U1
 10
11321.99999999998
 20
17450.921500361292
 30
0.0
 11
13910.0
 21
17450.921500361292
 31
0.0
  0
LINE
  5
7B5EE
  8
U1
 10
11321.99999999998
 20
17380.121500361289
 30
0.0
 11
13910.0
 21
17380.121500361289
 31
0.0
  0
LINE
  5
7B5EF
  8
U1
 10
8521.9999999999545
 20
17946.521500361301
 30
0.0
 11
11109.99999999998
 21
17946.521500361301
 31
0.0
  0
LINE
  5
7B5F0
  8
U1
 10
8521.9999999999545
 20
18017.3215003613
 30
0.0
 11
11109.99999999998
 21
18017.3215003613
 31
0.0
  0
LINE
  5
7B5F1
  8
U1
 10
8521.9999999999545
 20
18088.121500361289
 30
0.0
 11
11109.99999999998
 21
18088.121500361289
 31
0.0
  0
LINE
  5
7B5F2
  8
U1
 10
8521.9999999999545
 20
18158.921500361292
 30
0.0
 11
11109.99999999998
 21
18158.921500361292
 31
0.0
  0
LINE
  5
7B5F3
  8
U1
 10
8521.9999999999545
 20
18229.721500361291
 30
0.0
 11
11109.99999999998
 21
18229.721500361291
 31
0.0
  0
LINE
  5
7B5F4
  8
U1
 10
8521.9999999999545
 20
18300.52150036129
 30
0.0
 11
11109.99999999998
 21
18300.52150036129
 31
0.0
  0
LINE
  5
7B5F5
  8
U1
 10
8521.9999999999545
 20
18371.3215003613
 30
0.0
 11
11109.99999999998
 21
18371.3215003613
 31
0.0
  0
LINE
  5
7B5F6
  8
U1
 10
8521.9999999999545
 20
18442.121500361289
 30
0.0
 11
11109.99999999998
 21
18442.121500361289
 31
0.0
  0
LINE
  5
7B5F9
  8
U1
 10
8521.9999999999545
 20
18796.121500361289
 30
0.0
 11
11109.99999999998
 21
18796.121500361289
 31
0.0
  0
LINE
  5
7B5FA
  8
U1
 10
8521.9999999999545
 20
18725.3215003613
 30
0.0
 11
11109.99999999998
 21
18725.3215003613
 31
0.0
  0
LINE
  5
7B5FB
  8
U1
 10
8521.9999999999545
 20
18654.521500361301
 30
0.0
 11
11109.99999999998
 21
18654.521500361301
 31
0.0
  0
LINE
  5
7B5FC
  8
U1
 10
8521.9999999999545
 20
18583.721500361291
 30
0.0
 11
11109.99999999998
 21
18583.721500361291
 31
0.0
  0
LINE
  5
7B5FD
  8
U1
 10
8521.9999999999545
 20
18512.921500361292
 30
0.0
 11
11109.99999999998
 21
18512.921500361292
 31
0.0
  0
LINE
  5
7B5FE
  8
U1
 10
11321.99999999998
 20
18158.921500361292
 30
0.0
 11
13910.0
 21
18158.921500361292
 31
0.0
  0
LINE
  5
7B5FF
  8
U1
 10
11321.99999999998
 20
18229.721500361291
 30
0.0
 11
13910.0
 21
18229.721500361291
 31
0.0
  0
LINE
  5
7B600
  8
U1
 10
11321.99999999998
 20
18300.52150036129
 30
0.0
 11
13910.0
 21
18300.52150036129
 31
0.0
  0
LINE
  5
7B601
  8
U1
 10
11321.99999999998
 20
18371.3215003613
 30
0.0
 11
13910.0
 21
18371.3215003613
 31
0.0
  0
LINE
  5
7B602
  8
U1
 10
11321.99999999998
 20
18442.121500361289
 30
0.0
 11
13910.0
 21
18442.121500361289
 31
0.0
  0
LINE
  5
7B603
  8
U1
 10
11321.99999999998
 20
18512.921500361292
 30
0.0
 11
13910.0
 21
18512.921500361292
 31
0.0
  0
LINE
  5
7B604
  8
U1
 10
11321.99999999998
 20
18583.721500361291
 30
0.0
 11
13910.0
 21
18583.721500361291
 31
0.0
  0
LINE
  5
7B605
  8
U1
 10
11321.99999999998
 20
18654.521500361301
 30
0.0
 11
13910.0
 21
18654.521500361301
 31
0.0
  0
LINE
  5
7B606
  8
U1
 10
11321.99999999998
 20
18088.121500361289
 30
0.0
 11
13910.0
 21
18088.121500361289
 31
0.0
  0
LINE
  5
7B607
  8
U1
 10
11321.99999999998
 20
18017.3215003613
 30
0.0
 11
13910.0
 21
18017.3215003613
 31
0.0
  0
LINE
  5
7B608
  8
U1
 10
11321.99999999998
 20
17946.521500361301
 30
0.0
 11
13910.0
 21
17946.521500361301
 31
0.0
  0
LINE
  5
7B60A
  8
U1
 10
11321.99999999998
 20
18866.921500361292
 30
0.0
 11
13910.0
 21
18866.921500361292
 31
0.0
  0
LINE
  5
7B60B
  8
U1
 10
11321.99999999998
 20
18796.1215003613
 30
0.0
 11
13910.0
 21
18796.1215003613
 31
0.0
  0
LINE
  5
7B60C
  8
U1
 10
11321.99999999998
 20
18725.3215003613
 30
0.0
 11
13910.0
 21
18725.3215003613
 31
0.0
  0
LINE
  5
7B60D
  8
U1
 10
14122.0
 20
18088.121500361289
 30
0.0
 11
16710.000000000029
 21
18088.121500361289
 31
0.0
  0
LINE
  5
7B60E
  8
U1
 10
14122.0
 20
18158.921500361292
 30
0.0
 11
16710.000000000029
 21
18158.921500361292
 31
0.0
  0
LINE
  5
7B60F
  8
U1
 10
14122.0
 20
18229.721500361291
 30
0.0
 11
16710.000000000029
 21
18229.721500361291
 31
0.0
  0
LINE
  5
7B610
  8
U1
 10
14122.0
 20
18300.52150036129
 30
0.0
 11
16710.000000000029
 21
18300.52150036129
 31
0.0
  0
LINE
  5
7B611
  8
U1
 10
14122.0
 20
18371.3215003613
 30
0.0
 11
16710.000000000029
 21
18371.3215003613
 31
0.0
  0
LINE
  5
7B612
  8
U1
 10
14122.0
 20
18442.121500361289
 30
0.0
 11
16710.000000000029
 21
18442.121500361289
 31
0.0
  0
LINE
  5
7B613
  8
U1
 10
14122.0
 20
18512.921500361292
 30
0.0
 11
16710.000000000029
 21
18512.921500361292
 31
0.0
  0
LINE
  5
7B614
  8
U1
 10
14122.0
 20
18583.721500361291
 30
0.0
 11
16710.000000000029
 21
18583.721500361291
 31
0.0
  0
LINE
  5
7B615
  8
U1
 10
14122.0
 20
18017.3215003613
 30
0.0
 11
16710.000000000029
 21
18017.3215003613
 31
0.0
  0
LINE
  5
7B616
  8
U1
 10
14122.0
 20
17946.521500361301
 30
0.0
 11
16710.000000000029
 21
17946.521500361301
 31
0.0
  0
LINE
  5
7B617
  8
U1
 10
16921.999999999942
 20
17946.521500361301
 30
0.0
 11
19509.999999999982
 21
17946.521500361301
 31
0.0
  0
LINE
  5
7B618
  8
U1
 10
16921.999999999942
 20
18017.3215003613
 30
0.0
 11
19509.999999999982
 21
18017.3215003613
 31
0.0
  0
LINE
  5
7B619
  8
U1
 10
16921.999999999942
 20
18583.721500361291
 30
0.0
 11
19509.999999999982
 21
18583.721500361291
 31
0.0
  0
LINE
  5
7B61A
  8
U1
 10
16921.999999999942
 20
18512.921500361292
 30
0.0
 11
19509.999999999982
 21
18512.921500361292
 31
0.0
  0
LINE
  5
7B61B
  8
U1
 10
16921.999999999942
 20
18442.121500361289
 30
0.0
 11
19509.999999999982
 21
18442.121500361289
 31
0.0
  0
LINE
  5
7B61C
  8
U1
 10
16921.999999999942
 20
18371.3215003613
 30
0.0
 11
19509.999999999982
 21
18371.3215003613
 31
0.0
  0
LINE
  5
7B61D
  8
U1
 10
16921.999999999942
 20
18300.52150036129
 30
0.0
 11
19509.999999999982
 21
18300.52150036129
 31
0.0
  0
LINE
  5
7B61E
  8
U1
 10
16921.999999999942
 20
18229.721500361291
 30
0.0
 11
19509.999999999982
 21
18229.721500361291
 31
0.0
  0
LINE
  5
7B61F
  8
U1
 10
16921.999999999942
 20
18158.921500361292
 30
0.0
 11
19509.999999999982
 21
18158.921500361292
 31
0.0
  0
LINE
  5
7B620
  8
U1
 10
16921.999999999942
 20
18088.121500361289
 30
0.0
 11
19509.999999999982
 21
18088.121500361289
 31
0.0
  0
LINE
  5
7B621
  8
U1
 10
14122.0
 20
18866.921500361292
 30
0.0
 11
16710.000000000029
 21
18866.921500361292
 31
0.0
  0
LINE
  5
7B622
  8
U1
 10
14122.0
 20
18796.121500361289
 30
0.0
 11
16710.000000000029
 21
18796.121500361289
 31
0.0
  0
LINE
  5
7B623
  8
U1
 10
14122.0
 20
18725.3215003613
 30
0.0
 11
16710.000000000029
 21
18725.3215003613
 31
0.0
  0
LINE
  5
7B624
  8
U1
 10
14122.0
 20
18654.521500361301
 30
0.0
 11
16710.000000000029
 21
18654.521500361301
 31
0.0
  0
LINE
  5
7B625
  8
U1
 10
16921.999999999942
 20
18654.521500361301
 30
0.0
 11
19509.999999999982
 21
18654.521500361301
 31
0.0
  0
LINE
  5
7B626
  8
U1
 10
16921.999999999942
 20
18725.3215003613
 30
0.0
 11
19509.999999999982
 21
18725.3215003613
 31
0.0
  0
LINE
  5
7B627
  8
U1
 10
16921.999999999942
 20
18796.121500361289
 30
0.0
 11
19509.999999999982
 21
18796.121500361289
 31
0.0
  0
LINE
  5
7B628
  8
U1
 10
16921.999999999942
 20
18866.921500361292
 30
0.0
 11
19509.999999999982
 21
18866.921500361292
 31
0.0
  0
LINE
  5
7B62B
  8
U1
 10
22521.999999999989
 20
17946.521500361301
 30
0.0
 11
25110.000000000029
 21
17946.521500361301
 31
0.0
  0
LINE
  5
7B62C
  8
U1
 10
22521.999999999989
 20
18017.3215003613
 30
0.0
 11
25110.000000000029
 21
18017.3215003613
 31
0.0
  0
LINE
  5
7B62D
  8
U1
 10
22521.999999999989
 20
18088.121500361289
 30
0.0
 11
25110.000000000029
 21
18088.121500361289
 31
0.0
  0
LINE
  5
7B62E
  8
U1
 10
22521.999999999989
 20
18158.921500361292
 30
0.0
 11
25110.000000000029
 21
18158.921500361292
 31
0.0
  0
LINE
  5
7B62F
  8
U1
 10
22521.999999999989
 20
18229.721500361291
 30
0.0
 11
25110.000000000029
 21
18229.721500361291
 31
0.0
  0
LINE
  5
7B630
  8
U1
 10
22521.999999999989
 20
18300.52150036129
 30
0.0
 11
25110.000000000029
 21
18300.52150036129
 31
0.0
  0
LINE
  5
7B631
  8
U1
 10
22521.999999999989
 20
18371.3215003613
 30
0.0
 11
25110.000000000029
 21
18371.3215003613
 31
0.0
  0
LINE
  5
7B632
  8
U1
 10
22521.999999999989
 20
18442.121500361289
 30
0.0
 11
25110.000000000029
 21
18442.121500361289
 31
0.0
  0
LINE
  5
7B634
  8
U1
 10
22521.999999999989
 20
18866.921500361292
 30
0.0
 11
25110.000000000029
 21
18866.921500361292
 31
0.0
  0
LINE
  5
7B635
  8
U1
 10
22521.999999999989
 20
18796.121500361289
 30
0.0
 11
25110.000000000029
 21
18796.121500361289
 31
0.0
  0
LINE
  5
7B636
  8
U1
 10
22521.999999999989
 20
18725.3215003613
 30
0.0
 11
25110.000000000029
 21
18725.3215003613
 31
0.0
  0
LINE
  5
7B637
  8
U1
 10
22521.999999999989
 20
18654.521500361301
 30
0.0
 11
25110.000000000029
 21
18654.521500361301
 31
0.0
  0
LINE
  5
7B638
  8
U1
 10
22521.999999999989
 20
18583.721500361291
 30
0.0
 11
25110.000000000029
 21
18583.721500361291
 31
0.0
  0
LINE
  5
7B639
  8
U1
 10
22521.999999999989
 20
18512.921500361292
 30
0.0
 11
25110.000000000029
 21
18512.921500361292
 31
0.0
  0
LINE
  5
7B63A
  8
U1
 10
19721.999999999982
 20
17946.521500361301
 30
0.0
 11
22309.999999999982
 21
17946.521500361301
 31
0.0
  0
LINE
  5
7B63B
  8
U1
 10
19721.999999999982
 20
18017.3215003613
 30
0.0
 11
22309.999999999982
 21
18017.3215003613
 31
0.0
  0
LINE
  5
7B63C
  8
U1
 10
19721.999999999982
 20
18088.121500361289
 30
0.0
 11
22309.999999999982
 21
18088.121500361289
 31
0.0
  0
LINE
  5
7B63D
  8
U1
 10
19721.999999999982
 20
18158.921500361292
 30
0.0
 11
22309.999999999982
 21
18158.921500361292
 31
0.0
  0
LINE
  5
7B63E
  8
U1
 10
19721.999999999982
 20
18229.721500361291
 30
0.0
 11
22309.999999999982
 21
18229.721500361291
 31
0.0
  0
LINE
  5
7B63F
  8
U1
 10
19721.999999999982
 20
18300.52150036129
 30
0.0
 11
22309.999999999982
 21
18300.52150036129
 31
0.0
  0
LINE
  5
7B640
  8
U1
 10
19721.999999999982
 20
18371.3215003613
 30
0.0
 11
22309.999999999982
 21
18371.3215003613
 31
0.0
  0
LINE
  5
7B641
  8
U1
 10
19721.999999999982
 20
18442.121500361289
 30
0.0
 11
22309.999999999982
 21
18442.121500361289
 31
0.0
  0
LINE
  5
7B643
  8
U1
 10
19721.999999999982
 20
18866.921500361292
 30
0.0
 11
22309.999999999982
 21
18866.921500361292
 31
0.0
  0
LINE
  5
7B644
  8
U1
 10
19721.999999999982
 20
18796.121500361289
 30
0.0
 11
22309.999999999982
 21
18796.121500361289
 31
0.0
  0
LINE
  5
7B645
  8
U1
 10
19721.999999999982
 20
18725.3215003613
 30
0.0
 11
22309.999999999982
 21
18725.3215003613
 31
0.0
  0
LINE
  5
7B646
  8
U1
 10
19721.999999999982
 20
18654.521500361301
 30
0.0
 11
22309.999999999982
 21
18654.521500361301
 31
0.0
  0
LINE
  5
7B647
  8
U1
 10
19721.999999999982
 20
18583.721500361291
 30
0.0
 11
22309.999999999982
 21
18583.721500361291
 31
0.0
  0
LINE
  5
7B648
  8
U1
 10
19721.999999999982
 20
18512.921500361292
 30
0.0
 11
22309.999999999982
 21
18512.921500361292
 31
0.0
  0
TEXT
  5
7B649
  8
SUNPOU
 10
7010.9999999999809
 20
17769.245309885111
 30
0.0
 40
160.0
  1
3280
 50
90.0
 41
0.6700000000000002
  7
00
  0
LINE
  5
7B64A
  8
SUNPOU
 10
8561.9999999999563
 20
15518.121500361291
 30
0.0
 11
13627.99999999996
 21
15518.121500361291
 31
0.0
  0
LINE
  5
7B64B
  8
SUNPOU
 10
8521.9999999999545
 20
16238.121500361291
 30
0.0
 11
8521.9999999999545
 21
15398.121500361291
 31
0.0
  0
LINE
  5
7B650
  8
SUNPOU
 10
13687.99999999996
 20
16238.121500361291
 30
0.0
 11
13687.99999999996
 21
15398.121500361291
 31
0.0
  0
LINE
  5
7B651
  8
SUNPOU
 10
16961.999999999949
 20
15518.121500361291
 30
0.0
 11
22027.99999999996
 21
15518.121500361291
 31
0.0
  0
LINE
  5
7B652
  8
SUNPOU
 10
16921.999999999949
 20
16238.121500361291
 30
0.0
 11
16921.999999999949
 21
15398.121500361291
 31
0.0
  0
LINE
  5
7B657
  8
SUNPOU
 10
22087.99999999996
 20
16238.121500361291
 30
0.0
 11
22087.99999999996
 21
15398.121500361291
 31
0.0
  0
LINE
  5
8365D
  8
HIKIDASHI
 10
7175.0562129359723
 20
15537.637415413121
 30
0.0
 11
8145.5285006249733
 21
15537.637415413121
 31
0.0
  0
TEXT
  5
8365E
  8
HIKIDASHI
 10
7192.1165316125662
 20
15577.637415413121
 30
0.0
 40
160.0
  1
シャッター
  7
01
  0
LINE
  5
8365F
  8
U1
 10
16815.999999999982
 20
15918.121500361291
 30
0.0
 11
7317.093139678047
 21
15918.121500361291
 31
0.0
  0
LINE
  5
83660
  8
U1
 10
8373.4999999999818
 20
18995.975870572511
 30
0.0
 11
8373.4999999999818
 21
15918.121500361291
 31
0.0
  0
LINE
  5
83661
  8
U1
 10
8458.4999999999836
 20
15918.121500361291
 30
0.0
 11
8458.4999999999836
 21
18901.121500361322
 31
0.0
  0
LINE
  5
83663
  8
U1
 10
16858.499999999971
 20
18901.121500361351
 30
0.0
 11
16858.499999999971
 21
15918.121500361291
 31
0.0
  0
LINE
  5
83664
  8
U1
 10
16773.499999999971
 20
15918.121500361291
 30
0.0
 11
16773.499999999971
 21
18901.121500361322
 31
0.0
  0
TEXT
  5
83666
  8
SUNPOU
 10
10468.816739821459
 20
15198.12150036132
 30
0.0
 40
160.0
  1
下屋有効開口巾
  7
01
  0
LINE
  5
83667
  8
U1
 10
8296.00000000004
 20
15918.121500361291
 30
0.0
 11
8296.0000000000982
 21
16318.121500361291
 31
0.0
  0
TEXT
  5
83669
  8
SUNPOU
 10
7410.9999999999391
 20
16374.419908865249
 30
0.0
 40
160.0
  1
シャッター有効開口高サ
 50
90.0
  7
01
  0
TEXT
  5
8366A
  8
SUNPOU
 10
7410.9999999999809
 20
18500.257522980672
 30
0.0
 40
160.0
  1
2670
 50
90.0
 41
0.6700000000000002
  7
00
  0
LINE
  5
8366B
  8
KERABA
 10
8255.9999999999818
 20
18995.975870572511
 30
0.0
 11
8255.9999999999818
 21
19175.406243899499
 31
0.0
  0
LINE
  5
8366C
  8
KERABA
 10
8290.9999999999818
 20
18995.975870572511
 30
0.0
 11
8290.9999999999818
 21
19175.406243899499
 31
0.0
  0
LINE
  5
8366D
  8
KERABA
 10
8255.9999999999818
 20
19051.975870572511
 30
0.0
 11
14015.999999999971
 21
19051.975870572511
 31
0.0
  0
LINE
  5
8366E
  8
KERABA
 10
8255.9999999999818
 20
19049.975870572511
 30
0.0
 11
14015.999999999971
 21
19049.975870572511
 31
0.0
  0
LINE
  5
8366F
  8
KERABA
 10
8255.9999999999818
 20
19039.975870572511
 30
0.0
 11
14015.999999999971
 21
19039.975870572511
 31
0.0
  0
LINE
  5
83670
  8
KERABA
 10
8255.9999999999818
 20
19037.975870572511
 30
0.0
 11
14015.999999999971
 21
19037.975870572511
 31
0.0
  0
LINE
  5
83671
  8
KERABA
 10
8255.9999999999818
 20
19027.975870572511
 30
0.0
 11
14015.999999999971
 21
19027.975870572511
 31
0.0
  0
LINE
  5
83672
  8
KERABA
 10
8255.9999999999818
 20
19119.406243899499
 30
0.0
 11
14015.999999999971
 21
19119.406243899499
 31
0.0
  0
LINE
  5
83673
  8
KERABA
 10
8255.9999999999818
 20
19123.406243899499
 30
0.0
 11
14015.999999999971
 21
19123.406243899499
 31
0.0
  0
LINE
  5
83674
  8
KERABA
 10
8255.9999999999818
 20
19133.406243899499
 30
0.0
 11
14015.999999999971
 21
19133.406243899499
 31
0.0
  0
LINE
  5
83675
  8
KERABA
 10
8255.9999999999818
 20
19135.406243899499
 30
0.0
 11
14015.999999999971
 21
19135.406243899499
 31
0.0
  0
LINE
  5
83676
  8
KERABA
 10
8255.9999999999818
 20
19145.406243899499
 30
0.0
 11
14015.999999999971
 21
19145.406243899499
 31
0.0
  0
LINE
  5
83677
  8
KERABA
 10
8255.9999999999818
 20
19023.975870572511
 30
0.0
 11
14015.999999999971
 21
19023.975870572511
 31
0.0
  0
LINE
  5
83678
  8
KERABA
 10
8255.9999999999818
 20
19147.406243899499
 30
0.0
 11
14015.999999999971
 21
19147.406243899499
 31
0.0
  0
LINE
  5
83679
  8
KERABA
 10
8255.9999999999818
 20
18995.975870572511
 30
0.0
 11
14015.999999999971
 21
18995.975870572511
 31
0.0
  0
LINE
  5
8367A
  8
KERABA
 10
8255.9999999999818
 20
19175.406243899499
 30
0.0
 11
14015.999999999971
 21
19175.406243899499
 31
0.0
  0
LINE
  5
8367B
  8
下屋前桁
 10
13972.999999999911
 20
18893.12150036134
 30
0.0
 11
8459.00000000004
 21
18893.12150036134
 31
0.0
  0
LINE
  5
8367C
  8
下屋前桁
 10
8458.9999999999818
 20
18901.121500361351
 30
0.0
 11
8420.9999999999836
 21
18901.121500361322
 31
0.0
  0
ARC
  5
8367D
  8
下屋前桁
 10
8420.9999999999836
 20
18906.121500361322
 30
0.0
 40
5.0
 50
180.0
 51
270.0
  0
LINE
  5
8367E
  8
下屋前桁
 10
8459.00000000004
 20
18901.121500361351
 30
0.0
 11
8459.00000000004
 21
18893.121500361322
 31
0.0
  0
LINE
  5
8367F
  8
下屋前桁
 10
8415.9999999999818
 20
18995.975870572511
 30
0.0
 11
8415.9999999999818
 21
18906.121500361322
 31
0.0
  0
LINE
  5
83682
  8
KERABA
 10
16815.999999999982
 20
19051.975870572511
 30
0.0
 11
14015.999999999971
 21
19051.975870572511
 31
0.0
  0
LINE
  5
83683
  8
KERABA
 10
16815.999999999982
 20
19049.975870572511
 30
0.0
 11
14015.999999999971
 21
19049.975870572511
 31
0.0
  0
LINE
  5
83684
  8
KERABA
 10
16815.999999999982
 20
19039.975870572511
 30
0.0
 11
14015.999999999971
 21
19039.975870572511
 31
0.0
  0
LINE
  5
83685
  8
KERABA
 10
16815.999999999982
 20
19037.975870572511
 30
0.0
 11
14015.999999999971
 21
19037.975870572511
 31
0.0
  0
LINE
  5
83686
  8
KERABA
 10
16815.999999999982
 20
19027.975870572511
 30
0.0
 11
14015.999999999971
 21
19027.975870572511
 31
0.0
  0
LINE
  5
83687
  8
KERABA
 10
16815.999999999982
 20
19119.406243899499
 30
0.0
 11
14015.999999999971
 21
19119.406243899499
 31
0.0
  0
LINE
  5
83688
  8
KERABA
 10
16815.999999999982
 20
19123.406243899499
 30
0.0
 11
14015.999999999971
 21
19123.406243899499
 31
0.0
  0
LINE
  5
83689
  8
KERABA
 10
16815.999999999982
 20
19133.406243899499
 30
0.0
 11
14015.999999999971
 21
19133.406243899499
 31
0.0
  0
LINE
  5
8368A
  8
KERABA
 10
16815.999999999982
 20
19135.406243899499
 30
0.0
 11
14015.999999999971
 21
19135.406243899499
 31
0.0
  0
LINE
  5
8368B
  8
KERABA
 10
16815.999999999982
 20
19145.406243899499
 30
0.0
 11
14015.999999999971
 21
19145.406243899499
 31
0.0
  0
LINE
  5
8368C
  8
KERABA
 10
16815.999999999982
 20
19023.975870572511
 30
0.0
 11
14015.999999999971
 21
19023.975870572511
 31
0.0
  0
LINE
  5
8368D
  8
KERABA
 10
16815.999999999982
 20
19147.406243899499
 30
0.0
 11
14015.999999999971
 21
19147.406243899499
 31
0.0
  0
LINE
  5
8368E
  8
KERABA
 10
16815.999999999982
 20
18995.975870572511
 30
0.0
 11
14015.999999999971
 21
18995.975870572511
 31
0.0
  0
LINE
  5
8368F
  8
KERABA
 10
16815.999999999982
 20
19175.406243899499
 30
0.0
 11
14015.999999999971
 21
19175.406243899499
 31
0.0
  0
LINE
  5
83690
  8
下屋前桁
 10
14059.000000000069
 20
18893.12150036134
 30
0.0
 11
16772.999999999909
 21
18893.12150036134
 31
0.0
  0
TEXT
  5
83907
  8
SUNPOU
 10
16177.112439540781
 20
15598.12150036132
 30
0.0
 40
160.0
  1
2588
 41
0.6700000000000002
  7
00
  0
TEXT
  5
839BF
  8
SUNPOU
 10
11896.22525407335
 20
15598.12150036132
 30
0.0
 40
160.0
  1
5166
 41
0.6700000000000002
  7
00
  0
TEXT
  5
839C1
  8
SUNPOU
 10
9885.9833177612454
 20
15598.12150036132
 30
0.0
 40
160.0
  1
シャッター有効開口巾
  7
01
  0
TEXT
  5
839C2
  8
SUNPOU
 10
14228.84377571143
 20
15598.12150036132
 30
0.0
 40
160.0
  1
シャッター有効開口巾
  7
01
  0
TEXT
  5
839C5
  8
SUNPOU
 10
14468.75610102861
 20
15198.121500361291
 30
0.0
 40
160.0
  1
下屋有効開口巾
  7
01
  0
LINE
  5
839C6
  8
U1
 10
13973.499999999911
 20
18901.121500361362
 30
0.0
 11
13973.499999999911
 21
15918.121500361291
 31
0.0
  0
LINE
  5
839C7
  8
U1
 10
14058.499999999911
 20
15918.121500361291
 30
0.0
 11
14058.499999999911
 21
18901.121500361322
 31
0.0
  0
LINE
  5
839C8
  8
下屋前桁
 10
14059.000000000009
 20
18901.121500361351
 30
0.0
 11
14021.000000000009
 21
18901.121500361322
 31
0.0
  0
ARC
  5
839C9
  8
下屋前桁
 10
14021.000000000009
 20
18906.121500361322
 30
0.0
 40
5.0
 50
180.0
 51
270.0
  0
LINE
  5
839CA
  8
下屋前桁
 10
14059.000000000069
 20
18901.121500361351
 30
0.0
 11
14059.000000000069
 21
18893.12150036134
 31
0.0
  0
LINE
  5
839CB
  8
下屋前桁
 10
14016.000000000009
 20
18995.975870572511
 30
0.0
 11
14016.000000000009
 21
18906.121500361322
 31
0.0
  0
LINE
  5
839CC
  8
下屋前桁
 10
13972.999999999971
 20
18901.121500361351
 30
0.0
 11
14010.999999999971
 21
18901.121500361322
 31
0.0
  0
ARC
  5
839CD
  8
下屋前桁
 10
14010.999999999971
 20
18906.121500361322
 30
0.0
 40
5.0
 50
270.0
 51
0.0
  0
LINE
  5
839CE
  8
下屋前桁
 10
13972.999999999911
 20
18901.121500361351
 30
0.0
 11
13972.999999999911
 21
18893.121500361322
 31
0.0
  0
LINE
  5
839CF
  8
下屋前桁
 10
14015.999999999971
 20
18995.975870572511
 30
0.0
 11
14015.999999999971
 21
18906.121500361322
 31
0.0
  0
LINE
  5
83B26
  8
U1
 10
25340.999999999989
 20
19189.12150036118
 30
0.0
 11
25340.999999999989
 21
19598.121500361289
 31
0.0
  0
LINE
  5
83B27
  8
U1
 10
8290.9999999999964
 20
19189.121500361282
 30
0.0
 11
8290.9999999999964
 21
19598.121500361289
 31
0.0
  0
LINE
  5
83B28
  8
U1
 10
8464.2942704517591
 20
18874.55509161498
 30
0.0
 11
8464.2942704517591
 21
16318.121500361291
 31
0.0
  0
LINE
  5
83B29
  8
U1
 10
14071.0
 20
19189.121500361241
 30
0.0
 11
14071.0
 21
19418.121500361289
 31
0.0
  0
LINE
  5
83B2A
  8
U1
 10
13961.0
 20
19189.121500361241
 30
0.0
 11
13961.0
 21
19418.121500361289
 31
0.0
  0
LINE
  5
83B2B
  8
U1
 10
16864.294270451759
 20
18874.55509161494
 30
0.0
 11
16864.294270451759
 21
16318.121500361291
 31
0.0
  0
LINE
  5
83B2C
  8
U1
 10
16767.705729548219
 20
18874.55509161494
 30
0.0
 11
16767.705729548219
 21
16318.121500361291
 31
0.0
  0
LINE
  5
83B2D
  8
U1
 10
22470.999999999989
 20
19189.121500361201
 30
0.0
 11
22470.999999999989
 21
19418.121500361289
 31
0.0
  0
LINE
  5
83B2E
  8
U1
 10
22360.999999999989
 20
19189.121500361201
 30
0.0
 11
22360.999999999989
 21
19418.121500361289
 31
0.0
  0
LINE
  5
83B2F
  8
U1
 10
25167.705729548219
 20
18874.555091614879
 30
0.0
 11
25167.705729548219
 21
16318.121500361291
 31
0.0
  0
LINE
  5
83B30
  8
U1
 10
8521.9999999999545
 20
18866.921500361292
 30
0.0
 11
11109.99999999998
 21
18866.921500361292
 31
0.0
  0
LINE
  5
83B4A
  8
下屋前桁
 10
16773.000000000011
 20
18901.121500361351
 30
0.0
 11
16811.000000000011
 21
18901.121500361322
 31
0.0
  0
ARC
  5
83B4B
  8
下屋前桁
 10
16811.000000000011
 20
18906.121500361322
 30
0.0
 40
5.0
 50
270.0
 51
0.0
  0
LINE
  5
83B4C
  8
下屋前桁
 10
16772.99999999996
 20
18901.121500361351
 30
0.0
 11
16772.99999999996
 21
18893.12150036134
 31
0.0
  0
LINE
  5
83B4D
  8
下屋前桁
 10
16816.000000000011
 20
18995.975870572511
 30
0.0
 11
16816.000000000011
 21
18906.121500361322
 31
0.0
  0
LINE
  5
83B4E
  8
下屋前桁
 10
16859.000000000058
 20
18901.121500361351
 30
0.0
 11
16821.000000000058
 21
18901.121500361322
 31
0.0
  0
ARC
  5
83B4F
  8
下屋前桁
 10
16821.000000000058
 20
18906.121500361322
 30
0.0
 40
5.0
 50
180.0
 51
270.0
  0
LINE
  5
83B50
  8
下屋前桁
 10
16859.000000000109
 20
18901.121500361351
 30
0.0
 11
16859.000000000109
 21
18893.121500361322
 31
0.0
  0
LINE
  5
83B51
  8
下屋前桁
 10
16816.000000000058
 20
18995.975870572511
 30
0.0
 11
16816.000000000058
 21
18906.121500361322
 31
0.0
  0
LINE
  5
83F57
  8
U1
 10
16815.999999999982
 20
15918.121500361291
 30
0.0
 11
26314.906860321909
 21
15918.121500361291
 31
0.0
  0
LINE
  5
83F58
  8
U1
 10
25258.499999999971
 20
18995.975870572511
 30
0.0
 11
25258.499999999971
 21
15918.121500361291
 31
0.0
  0
LINE
  5
83F59
  8
U1
 10
25173.499999999982
 20
15918.121500361291
 30
0.0
 11
25173.499999999982
 21
18901.121500361322
 31
0.0
  0
TEXT
  5
83F5B
  8
SUNPOU
 10
18868.816739821461
 20
15198.12150036132
 30
0.0
 40
160.0
  1
下屋有効開口巾
  7
01
  0
LINE
  5
83F5D
  8
U1
 10
25335.999999999931
 20
15918.121500361231
 30
0.0
 11
25335.999999999869
 21
16318.121500361231
 31
0.0
  0
LINE
  5
83F62
  8
KERABA
 10
16655.999999999989
 20
19051.975870572511
 30
0.0
 11
22415.999999999971
 21
19051.975870572511
 31
0.0
  0
LINE
  5
83F63
  8
KERABA
 10
16655.999999999989
 20
19049.975870572511
 30
0.0
 11
22415.999999999971
 21
19049.975870572511
 31
0.0
  0
LINE
  5
83F64
  8
KERABA
 10
16655.999999999989
 20
19039.975870572511
 30
0.0
 11
22415.999999999971
 21
19039.975870572511
 31
0.0
  0
LINE
  5
83F65
  8
KERABA
 10
16655.999999999989
 20
19037.975870572511
 30
0.0
 11
22415.999999999971
 21
19037.975870572511
 31
0.0
  0
LINE
  5
83F66
  8
KERABA
 10
16655.999999999989
 20
19027.975870572511
 30
0.0
 11
22415.999999999971
 21
19027.975870572511
 31
0.0
  0
LINE
  5
83F67
  8
KERABA
 10
16655.999999999989
 20
19119.406243899499
 30
0.0
 11
22415.999999999971
 21
19119.406243899499
 31
0.0
  0
LINE
  5
83F68
  8
KERABA
 10
16655.999999999989
 20
19123.406243899499
 30
0.0
 11
22415.999999999971
 21
19123.406243899499
 31
0.0
  0
LINE
  5
83F69
  8
KERABA
 10
16655.999999999989
 20
19133.406243899499
 30
0.0
 11
22415.999999999971
 21
19133.406243899499
 31
0.0
  0
LINE
  5
83F6A
  8
KERABA
 10
16655.999999999989
 20
19135.406243899499
 30
0.0
 11
22415.999999999971
 21
19135.406243899499
 31
0.0
  0
LINE
  5
83F6B
  8
KERABA
 10
16655.999999999989
 20
19145.406243899499
 30
0.0
 11
22415.999999999971
 21
19145.406243899499
 31
0.0
  0
LINE
  5
83F6C
  8
KERABA
 10
16655.999999999989
 20
19023.975870572511
 30
0.0
 11
22415.999999999971
 21
19023.975870572511
 31
0.0
  0
LINE
  5
83F6D
  8
KERABA
 10
16655.999999999989
 20
19147.406243899499
 30
0.0
 11
22415.999999999971
 21
19147.406243899499
 31
0.0
  0
LINE
  5
83F6E
  8
KERABA
 10
16655.999999999989
 20
18995.975870572511
 30
0.0
 11
22415.999999999971
 21
18995.975870572511
 31
0.0
  0
LINE
  5
83F6F
  8
KERABA
 10
16655.999999999989
 20
19175.406243899499
 30
0.0
 11
22415.999999999971
 21
19175.406243899499
 31
0.0
  0
LINE
  5
83F70
  8
下屋前桁
 10
22372.99999999992
 20
18893.12150036134
 30
0.0
 11
16859.000000000051
 21
18893.12150036134
 31
0.0
  0
LINE
  5
83F75
  8
KERABA
 10
25375.999999999982
 20
18995.975870572511
 30
0.0
 11
25375.999999999982
 21
19175.406243899499
 31
0.0
  0
LINE
  5
83F76
  8
KERABA
 10
25340.999999999971
 20
18995.975870572511
 30
0.0
 11
25340.999999999971
 21
19175.406243899499
 31
0.0
  0
LINE
  5
83F77
  8
KERABA
 10
25375.999999999982
 20
19051.975870572511
 30
0.0
 11
22415.999999999971
 21
19051.975870572511
 31
0.0
  0
LINE
  5
83F78
  8
KERABA
 10
25375.999999999982
 20
19049.975870572511
 30
0.0
 11
22415.999999999971
 21
19049.975870572511
 31
0.0
  0
LINE
  5
83F79
  8
KERABA
 10
25375.999999999982
 20
19039.975870572511
 30
0.0
 11
22415.999999999971
 21
19039.975870572511
 31
0.0
  0
LINE
  5
83F7A
  8
KERABA
 10
25375.999999999982
 20
19037.975870572511
 30
0.0
 11
22415.999999999971
 21
19037.975870572511
 31
0.0
  0
LINE
  5
83F7B
  8
KERABA
 10
25375.999999999982
 20
19027.975870572511
 30
0.0
 11
22415.999999999971
 21
19027.975870572511
 31
0.0
  0
LINE
  5
83F7C
  8
KERABA
 10
25375.999999999982
 20
19119.406243899499
 30
0.0
 11
22415.999999999971
 21
19119.406243899499
 31
0.0
  0
LINE
  5
83F7D
  8
KERABA
 10
25375.999999999982
 20
19123.406243899499
 30
0.0
 11
22415.999999999971
 21
19123.406243899499
 31
0.0
  0
LINE
  5
83F7E
  8
KERABA
 10
25375.999999999982
 20
19133.406243899499
 30
0.0
 11
22415.999999999971
 21
19133.406243899499
 31
0.0
  0
LINE
  5
83F7F
  8
KERABA
 10
25375.999999999982
 20
19135.406243899499
 30
0.0
 11
22415.999999999971
 21
19135.406243899499
 31
0.0
  0
LINE
  5
83F80
  8
KERABA
 10
25375.999999999982
 20
19145.406243899499
 30
0.0
 11
22415.999999999971
 21
19145.406243899499
 31
0.0
  0
LINE
  5
83F81
  8
KERABA
 10
25375.999999999982
 20
19023.975870572511
 30
0.0
 11
22415.999999999971
 21
19023.975870572511
 31
0.0
  0
LINE
  5
83F82
  8
KERABA
 10
25375.999999999982
 20
19147.406243899499
 30
0.0
 11
22415.999999999971
 21
19147.406243899499
 31
0.0
  0
LINE
  5
83F83
  8
KERABA
 10
25375.999999999982
 20
18995.975870572511
 30
0.0
 11
22415.999999999971
 21
18995.975870572511
 31
0.0
  0
LINE
  5
83F84
  8
KERABA
 10
25375.999999999982
 20
19175.406243899499
 30
0.0
 11
22415.999999999971
 21
19175.406243899499
 31
0.0
  0
LINE
  5
83F85
  8
下屋前桁
 10
22459.00000000008
 20
18893.12150036134
 30
0.0
 11
25172.99999999992
 21
18893.12150036134
 31
0.0
  0
LINE
  5
83F86
  8
下屋前桁
 10
25172.999999999971
 20
18901.121500361351
 30
0.0
 11
25210.999999999971
 21
18901.121500361322
 31
0.0
  0
ARC
  5
83F87
  8
下屋前桁
 10
25210.999999999971
 20
18906.121500361322
 30
0.0
 40
5.0
 50
270.0
 51
0.0
  0
LINE
  5
83F88
  8
下屋前桁
 10
25172.99999999992
 20
18901.121500361351
 30
0.0
 11
25172.99999999992
 21
18893.121500361322
 31
0.0
  0
LINE
  5
83F89
  8
下屋前桁
 10
25215.999999999982
 20
18995.975870572511
 30
0.0
 11
25215.999999999982
 21
18906.121500361322
 31
0.0
  0
TEXT
  5
83F8B
  8
SUNPOU
 10
26394.18766515881
 20
16728.493910498299
 30
0.0
 40
160.0
  1
下屋前桁下面カラ
 50
90.0
  7
01
 72
     1
 11
26394.18766515881
 21
17469.827243831631
 31
0.0
  0
TEXT
  5
83F8C
  8
SUNPOU
 10
26645.273568787979
 20
16723.16057716497
 30
0.0
 40
160.0
  1
本体基礎天端マデ
 50
90.0
  7
01
 72
     1
 11
26645.273568787979
 21
17469.827243831631
 31
0.0
  0
TEXT
  5
83F8D
  8
SUNPOU
 10
26079.192836211882
 20
16616.209275770259
 30
0.0
 40
160.0
  1
下屋有効開口高サ
 50
90.0
  7
01
  0
TEXT
  5
83F8F
  8
SUNPOU
 10
27112.205422612831
 20
17169.779380197098
 30
0.0
 40
160.0
  1
下屋高サ
 50
90.0
  7
01
  0
TEXT
  5
841FC
  8
SUNPOU
 10
24577.11243954079
 20
15598.12150036132
 30
0.0
 40
160.0
  1
2588
 41
0.6700000000000002
  7
00
  0
TEXT
  5
842B4
  8
SUNPOU
 10
20296.225254073361
 20
15598.12150036132
 30
0.0
 40
160.0
  1
5166
 41
0.6700000000000002
  7
00
  0
TEXT
  5
842B6
  8
SUNPOU
 10
18285.983317761249
 20
15598.12150036132
 30
0.0
 40
160.0
  1
シャッター有効開口巾
  7
01
  0
TEXT
  5
842B7
  8
SUNPOU
 10
22628.84377571143
 20
15598.12150036132
 30
0.0
 40
160.0
  1
シャッター有効開口巾
  7
01
  0
TEXT
  5
842BA
  8
SUNPOU
 10
22868.756101028619
 20
15198.121500361291
 30
0.0
 40
160.0
  1
下屋有効開口巾
  7
01
  0
LINE
  5
842BD
  8
下屋前桁
 10
22459.000000000018
 20
18901.121500361351
 30
0.0
 11
22421.000000000018
 21
18901.121500361322
 31
0.0
  0
ARC
  5
842BE
  8
下屋前桁
 10
22421.000000000018
 20
18906.121500361322
 30
0.0
 40
5.0
 50
180.0
 51
270.0
  0
LINE
  5
842BF
  8
下屋前桁
 10
22459.00000000008
 20
18901.121500361351
 30
0.0
 11
22459.00000000008
 21
18893.12150036134
 31
0.0
  0
LINE
  5
842C0
  8
下屋前桁
 10
22416.000000000018
 20
18995.975870572511
 30
0.0
 11
22416.000000000018
 21
18906.121500361322
 31
0.0
  0
LINE
  5
842C1
  8
下屋前桁
 10
22372.999999999982
 20
18901.121500361351
 30
0.0
 11
22410.999999999982
 21
18901.121500361322
 31
0.0
  0
ARC
  5
842C2
  8
下屋前桁
 10
22410.999999999982
 20
18906.121500361322
 30
0.0
 40
5.0
 50
270.0
 51
0.0
  0
LINE
  5
842C3
  8
下屋前桁
 10
22372.99999999992
 20
18901.121500361351
 30
0.0
 11
22372.99999999992
 21
18893.121500361322
 31
0.0
  0
LINE
  5
842C4
  8
下屋前桁
 10
22415.999999999971
 20
18995.975870572511
 30
0.0
 11
22415.999999999971
 21
18906.121500361322
 31
0.0
  0
LINE
  5
843BC
  8
U1
 10
22373.499999999931
 20
18901.121500361329
 30
0.0
 11
22373.499999999931
 21
15918.12150036126
 31
0.0
  0
LINE
  5
843BD
  8
U1
 10
22458.499999999931
 20
15918.12150036126
 30
0.0
 11
22458.499999999931
 21
18901.121500361289
 31
0.0
  0
LINE
  5
843C4
  8
U1
 10
25258.499999999971
 20
16318.121500361291
 30
0.0
 11
25340.999999999989
 21
16318.121500361291
 31
0.0
  0
LINE
  5
843C5
  8
U1
 10
22458.499999999931
 20
16318.121500361291
 30
0.0
 11
25173.499999999982
 21
16318.121500361291
 31
0.0
  0
LINE
  5
843C6
  8
U1
 10
16858.499999999971
 20
16318.121500361291
 30
0.0
 11
22373.499999999931
 21
16318.121500361291
 31
0.0
  0
LINE
  5
843C7
  8
U1
 10
14058.499999999911
 20
16318.121500361291
 30
0.0
 11
16773.499999999971
 21
16318.121500361291
 31
0.0
  0
LINE
  5
843C8
  8
U1
 10
8458.4999999999836
 20
16318.121500361291
 30
0.0
 11
13973.499999999911
 21
16318.121500361291
 31
0.0
  0
TEXT
  5
8540C
  8
FILENAME
 10
27489.714285714279
 20
348.0
 30
0.0
 40
200.0
  1
＜SOB-2R86MA-G_1_JIS_GL.DXF ＞
  7
FILENAME
 72
     2
 11
32764.0
 21
348.0
 31
0.0
  0
LINE
  5
8540E
  8
WAKUSEN-01
 10
868.00000000000193
 20
827.99999999999955
 30
0.0
 11
32764.000000000011
 21
827.99999999999943
 31
0.0
  0
LINE
  5
8540F
  8
WAKUSEN-01
 10
868.00000000000193
 20
22484.000000000011
 30
0.0
 11
32764.000000000011
 21
22484.000000000011
 31
0.0
  0
LINE
  5
85410
  8
WAKUSEN-01
 10
868.00000000000193
 20
827.99999999999955
 30
0.0
 11
868.00000000000193
 21
22484.000000000011
 31
0.0
  0
LINE
  5
85411
  8
WAKUSEN-01
 10
32764.000000000011
 20
827.99999999999943
 30
0.0
 11
32764.000000000011
 21
22484.000000000011
 31
0.0
  0
LINE
  5
85412
  8
WAKUSEN-01
 10
20560.0
 20
2484.0
 30
0.0
 11
32764.0
 21
2484.0
 31
0.0
  0
LINE
  5
85413
  8
WAKUSEN-02
 10
20560.0
 20
1655.9999999999991
 30
0.0
 11
26868.0
 21
1655.9999999999991
 31
0.0
  0
TEXT
  5
85414
  8
WAKUMOJI-01
 10
20670.260259962772
 20
2125.9030093393221
 30
0.0
 40
240.0
  1
名　称
  7
WAKUMOJI
  0
TEXT
  5
85415
  8
WAKUMOJI-01
 10
20656.505485091919
 20
1319.1289749798209
 30
0.0
 40
240.0
  1
機種名
  7
WAKUMOJI
  0
LINE
  5
85416
  8
WAKUSEN-01
 10
20560.0
 20
827.99999999999716
 30
0.0
 11
20560.0
 21
2484.0
 31
0.0
  0
LINE
  5
85417
  8
WAKUSEN-02
 10
26868.0
 20
827.99999999999261
 30
0.0
 11
26868.0
 21
2484.0
 31
0.0
  0
LINE
  5
85418
  8
YODOROGO
 10
29977.604341291921
 20
1995.7494964292871
 30
0.0
 11
29829.604341291921
 21
1995.7494964292871
 31
0.0
1001
AUTOCAD_POSTSCRIPT_FIGURE
1002
{
1000
PSFILL
1000
Grayscale
1000
Grayscale
1070
    25
1002
}
  0
LINE
  5
85419
  8
YODOROGO
 10
29829.604341291921
 20
1947.749496429288
 30
0.0
 11
29977.604341291921
 21
1947.749496429288
 31
0.0
1001
AUTOCAD_POSTSCRIPT_FIGURE
1002
{
1000
PSFILL
1000
Grayscale
1000
Grayscale
1070
    25
1002
}
  0
LINE
  5
8541A
  8
YODOROGO
 10
29977.604341291921
 20
1907.7494964292871
 30
0.0
 11
29829.604341291921
 21
1907.7494964292871
 31
0.0
1001
AUTOCAD_POSTSCRIPT_FIGURE
1002
{
1000
PSFILL
1000
Grayscale
1000
Grayscale
1070
    25
1002
}
  0
LINE
  5
8541B
  8
YODOROGO
 10
29829.604341291921
 20
1859.749496429288
 30
0.0
 11
29977.604341291921
 21
1859.749496429288
 31
0.0
1001
AUTOCAD_POSTSCRIPT_FIGURE
1002
{
1000
PSFILL
1000
Grayscale
1000
Grayscale
1070
    25
1002
}
  0
LINE
  5
8541C
  8
YODOROGO
 10
29977.604341291921
 20
1819.749496429288
 30
0.0
 11
29829.604341291921
 21
1819.749496429288
 31
0.0
1001
AUTOCAD_POSTSCRIPT_FIGURE
1002
{
1000
PSFILL
1000
Grayscale
1000
Grayscale
1070
    25
1002
}
  0
LINE
  5
8541D
  8
YODOROGO
 10
29921.60434129191
 20
1707.749496429288
 30
0.0
 11
29977.604341291921
 21
1707.749496429288
 31
0.0
1001
AUTOCAD_POSTSCRIPT_FIGURE
1002
{
1000
PSFILL
1000
Grayscale
1000
Grayscale
1070
    25
1002
}
  0
LINE
  5
8541E
  8
YODOROGO
 10
29737.604341291921
 20
1427.749496429288
 30
0.0
 11
29937.604341291932
 21
1481.339334915511
 31
0.0
  0
LINE
  5
8541F
  8
YODOROGO
 10
29949.604341291921
 20
1707.749496429288
 30
0.0
 11
29885.604341291921
 21
1707.749496429288
 31
0.0
  0
ARC
  5
85420
  8
YODOROGO
 10
30254.34774982791
 20
1807.8646092332619
 30
0.0
 40
381.88686420564733
 50
213.96111677667849
 51
264.47872074317792
  0
ARC
  5
85421
  8
YODOROGO
 10
30254.347749827921
 20
1807.864609233302
 30
0.0
 40
381.8868642056816
 50
208.14114420486601
 51
212.92103611859949
  0
LINE
  5
85422
  8
YODOROGO
 10
29771.40987298531
 20
1556.807661346234
 30
0.0
 11
29933.78413250855
 21
1600.3157130570869
 31
0.0
  0
LINE
  5
85423
  8
YODOROGO
 10
29737.604341291921
 20
1427.749496429288
 30
0.0
 11
29937.604341291932
 21
1481.339334915511
 31
0.0
  0
LINE
  5
85424
  8
YODOROGO
 10
29949.604341291921
 20
1707.749496429288
 30
0.0
 11
29885.604341291921
 21
1707.749496429288
 31
0.0
  0
ARC
  5
85425
  8
YODOROGO
 10
30254.34774982791
 20
1807.8646092332619
 30
0.0
 40
381.88686420564733
 50
213.96111677667849
 51
264.47872074317792
  0
LINE
  5
85426
  8
YODOROGO
 10
28793.60434129191
 20
1819.749496429288
 30
0.0
 11
28433.60434129191
 21
1819.749496429288
 31
0.0
  0
LINE
  5
85427
  8
YODOROGO
 10
28513.60434129191
 20
1427.749496429288
 30
0.0
 11
28793.60434129191
 21
1427.749496429288
 31
0.0
  0
LINE
  5
85428
  8
YODOROGO
 10
28729.604341291921
 20
1923.7494964292871
 30
0.0
 11
28497.60434129191
 21
1923.7494964292871
 31
0.0
  0
LINE
  5
85429
  8
YODOROGO
 10
28585.604341291921
 20
2027.749496429288
 30
0.0
 11
28657.604341291921
 21
2027.749496429288
 31
0.0
  0
LINE
  5
8542A
  8
YODOROGO
 10
28433.60434129191
 20
1707.749496429288
 30
0.0
 11
28433.60434129191
 21
1507.749496429288
 31
0.0
  0
LINE
  5
8542B
  8
YODOROGO
 10
28497.60434129191
 20
1563.7494964292871
 30
0.0
 11
28497.60434129191
 21
1707.749496429288
 31
0.0
  0
LINE
  5
8542C
  8
YODOROGO
 10
28585.604341291921
 20
1747.74949642929
 30
0.0
 11
28585.604341291921
 21
1547.749496429288
 31
0.0
  0
LINE
  5
8542D
  8
YODOROGO
 10
27857.604341291921
 20
1683.7494964292889
 30
0.0
 11
27777.604341291921
 21
1619.972414044571
 31
0.0
  0
LINE
  5
8542E
  8
YODOROGO
 10
27937.604341291921
 20
1619.972414044571
 30
0.0
 11
27857.604341291921
 21
1683.7494964292889
 31
0.0
  0
LINE
  5
8542F
  8
YODOROGO
 10
27857.604341291921
 20
1707.749496429288
 30
0.0
 11
27937.604341291921
 21
1643.9724140445701
 31
0.0
  0
LINE
  5
85430
  8
YODOROGO
 10
27777.604341291921
 20
1643.9724140445701
 30
0.0
 11
27857.604341291921
 21
1707.749496429288
 31
0.0
  0
LINE
  5
85431
  8
YODOROGO
 10
28040.913204016899
 20
1659.749496429288
 30
0.0
 11
28040.913204016899
 21
1683.7494964292871
 31
0.0
  0
LINE
  5
85432
  8
YODOROGO
 10
27977.604341291921
 20
1683.7494964292871
 30
0.0
 11
27977.604341291921
 21
1667.749496429285
 31
0.0
  0
LINE
  5
85433
  8
YODOROGO
 10
28098.135520230931
 20
1707.749496429288
 30
0.0
 11
28098.135520230931
 21
1655.5036372746561
 31
0.0
1001
AUTOCAD_POSTSCRIPT_FIGURE
1002
{
1000
PSFILL
1000
Grayscale
1000
Grayscale
1070
   100
1002
}
  0
LINE
  5
85434
  8
YODOROGO
 10
28082.135520230921
 20
1655.5036372746561
 30
0.0
 11
28082.135520230921
 21
1707.749496429288
 31
0.0
1001
AUTOCAD_POSTSCRIPT_FIGURE
1002
{
1000
PSFILL
1000
Grayscale
1000
Grayscale
1070
   100
1002
}
  0
LINE
  5
85435
  8
YODOROGO
 10
27809.604341291921
 20
1608.771904043258
 30
0.0
 11
27809.604341291921
 21
1632.7719040432589
 31
0.0
  0
LINE
  5
85436
  8
YODOROGO
 10
27905.604341291921
 20
1608.771904043258
 30
0.0
 11
27809.604341291921
 21
1608.771904043258
 31
0.0
  0
LINE
  5
85437
  8
YODOROGO
 10
27905.604341291921
 20
1632.7719040432589
 30
0.0
 11
27905.604341291921
 21
1608.771904043258
 31
0.0
  0
LINE
  5
85438
  8
YODOROGO
 10
27809.604341291921
 20
1632.7719040432589
 30
0.0
 11
27905.604341291921
 21
1632.7719040432589
 31
0.0
  0
LINE
  5
85439
  8
YODOROGO
 10
27824.509588915749
 20
1568.5028573704751
 30
0.0
 11
27785.604341291921
 21
1475.7494964292871
 31
0.0
1001
AUTOCAD_POSTSCRIPT_FIGURE
1002
{
1000
PSFILL
1000
Grayscale
1000
Grayscale
1070
   100
1002
}
  0
LINE
  5
8543A
  8
YODOROGO
 10
27777.604341291921
 20
1568.5028573704751
 30
0.0
 11
27824.509588915749
 21
1568.5028573704751
 31
0.0
1001
AUTOCAD_POSTSCRIPT_FIGURE
1002
{
1000
PSFILL
1000
Grayscale
1000
Grayscale
1070
   100
1002
}
  0
LINE
  5
8543B
  8
YODOROGO
 10
27777.604341291921
 20
1588.5028573704751
 30
0.0
 11
27777.604341291921
 21
1568.5028573704751
 31
0.0
1001
AUTOCAD_POSTSCRIPT_FIGURE
1002
{
1000
PSFILL
1000
Grayscale
1000
Grayscale
1070
   100
1002
}
  0
LINE
  5
8543C
  8
YODOROGO
 10
27937.604341291921
 20
1588.5028573704751
 30
0.0
 11
27777.604341291921
 21
1588.5028573704751
 31
0.0
1001
AUTOCAD_POSTSCRIPT_FIGURE
1002
{
1000
PSFILL
1000
Grayscale
1000
Grayscale
1070
   100
1002
}
  0
LINE
  5
8543D
  8
YODOROGO
 10
27937.604341291921
 20
1568.5028573704751
 30
0.0
 11
27937.604341291921
 21
1588.5028573704751
 31
0.0
1001
AUTOCAD_POSTSCRIPT_FIGURE
1002
{
1000
PSFILL
1000
Grayscale
1000
Grayscale
1070
   100
1002
}
  0
LINE
  5
8543E
  8
YODOROGO
 10
27844.509588915749
 20
1568.5028573704751
 30
0.0
 11
27937.604341291921
 21
1568.5028573704751
 31
0.0
1001
AUTOCAD_POSTSCRIPT_FIGURE
1002
{
1000
PSFILL
1000
Grayscale
1000
Grayscale
1070
   100
1002
}
  0
LINE
  5
8543F
  8
YODOROGO
 10
27815.546718284779
 20
1495.7494964292871
 30
0.0
 11
27844.509588915749
 21
1568.5028573704751
 31
0.0
1001
AUTOCAD_POSTSCRIPT_FIGURE
1002
{
1000
PSFILL
1000
Grayscale
1000
Grayscale
1070
   100
1002
}
  0
LINE
  5
85440
  8
YODOROGO
 10
27902.054790808648
 20
1495.7494964292871
 30
0.0
 11
27815.546718284779
 21
1495.7494964292871
 31
0.0
1001
AUTOCAD_POSTSCRIPT_FIGURE
1002
{
1000
PSFILL
1000
Grayscale
1000
Grayscale
1070
   100
1002
}
  0
LINE
  5
85441
  8
YODOROGO
 10
27885.065004790951
 20
1536.2338106976929
 30
0.0
 11
27902.054790808648
 21
1495.7494964292871
 31
0.0
1001
AUTOCAD_POSTSCRIPT_FIGURE
1002
{
1000
PSFILL
1000
Grayscale
1000
Grayscale
1070
   100
1002
}
  0
LINE
  5
85442
  8
YODOROGO
 10
27901.065004790951
 20
1536.2338106976929
 30
0.0
 11
27885.065004790951
 21
1536.2338106976929
 31
0.0
1001
AUTOCAD_POSTSCRIPT_FIGURE
1002
{
1000
PSFILL
1000
Grayscale
1000
Grayscale
1070
   100
1002
}
  0
LINE
  5
85443
  8
YODOROGO
 10
27929.604341291921
 20
1475.7494964292871
 30
0.0
 11
27901.065004790951
 21
1536.2338106976929
 31
0.0
1001
AUTOCAD_POSTSCRIPT_FIGURE
1002
{
1000
PSFILL
1000
Grayscale
1000
Grayscale
1070
   100
1002
}
  0
LINE
  5
85444
  8
YODOROGO
 10
27785.604341291921
 20
1475.7494964292871
 30
0.0
 11
27929.604341291921
 21
1475.7494964292871
 31
0.0
1001
AUTOCAD_POSTSCRIPT_FIGURE
1002
{
1000
PSFILL
1000
Grayscale
1000
Grayscale
1070
   100
1002
}
  0
LINE
  5
85445
  8
YODOROGO
 10
27777.604341291921
 20
1619.972414044571
 30
0.0
 11
27777.604341291921
 21
1643.9724140445701
 31
0.0
  0
LINE
  5
85446
  8
YODOROGO
 10
27937.604341291921
 20
1643.9724140445701
 30
0.0
 11
27937.604341291921
 21
1619.972414044571
 31
0.0
  0
ARC
  5
85447
  8
YODOROGO
 10
28225.94044214697
 20
1600.877765325326
 30
0.0
 40
175.99999999999989
 50
280.3644312771313
 51
3.5414836592180561
  0
ARC
  5
85448
  8
YODOROGO
 10
28235.756030759301
 20
1633.5978069619041
 30
0.0
 40
111.99999999999829
 50
281.2490582504156
 51
348.75094174958332
  0
LINE
  5
85449
  8
YODOROGO
 10
28257.604341291921
 20
1523.7494964292871
 30
0.0
 11
28257.604341291921
 21
1427.749496429288
 31
0.0
  0
LINE
  5
8544A
  8
YODOROGO
 10
28020.088903736902
 20
1610.6505650619149
 30
0.0
 11
28040.913204016899
 21
1659.749496429288
 31
0.0
  0
LINE
  5
8544B
  8
YODOROGO
 10
28041.604341291921
 20
1583.120489948401
 30
0.0
 11
28020.088903736902
 21
1610.6505650619149
 31
0.0
  0
LINE
  5
8544C
  8
YODOROGO
 10
28041.604341291921
 20
1563.1204899483989
 30
0.0
 11
28041.604341291921
 21
1583.120489948401
 31
0.0
  0
LINE
  5
8544D
  8
YODOROGO
 10
28017.604341291921
 20
1585.2370637495301
 30
0.0
 11
28041.604341291921
 21
1563.1204899483989
 31
0.0
  0
LINE
  5
8544E
  8
YODOROGO
 10
28017.604341291921
 20
1475.7494964292871
 30
0.0
 11
28017.604341291921
 21
1585.2370637495301
 31
0.0
  0
LINE
  5
8544F
  8
YODOROGO
 10
28001.604341291921
 20
1475.7494964292871
 30
0.0
 11
28017.604341291921
 21
1475.7494964292871
 31
0.0
  0
LINE
  5
85450
  8
YODOROGO
 10
28001.604341291921
 20
1580.0053496897481
 30
0.0
 11
28001.604341291921
 21
1475.7494964292871
 31
0.0
  0
LINE
  5
85451
  8
YODOROGO
 10
27977.604341291921
 20
1532.7680790334291
 30
0.0
 11
28001.604341291921
 21
1580.0053496897481
 31
0.0
  0
LINE
  5
85452
  8
YODOROGO
 10
27977.604341291921
 20
1556.76807903343
 30
0.0
 11
27977.604341291921
 21
1532.7680790334291
 31
0.0
  0
LINE
  5
85453
  8
YODOROGO
 10
28025.82877429136
 20
1667.749496429285
 30
0.0
 11
27977.604341291921
 21
1556.76807903343
 31
0.0
  0
LINE
  5
85454
  8
YODOROGO
 10
27977.604341291921
 20
1667.749496429285
 30
0.0
 11
28025.82877429136
 21
1667.749496429285
 31
0.0
  0
LINE
  5
85455
  8
YODOROGO
 10
28050.13552023091
 20
1655.5036372746561
 30
0.0
 11
28082.135520230921
 21
1655.5036372746561
 31
0.0
1001
AUTOCAD_POSTSCRIPT_FIGURE
1002
{
1000
PSFILL
1000
Grayscale
1000
Grayscale
1070
   100
1002
}
  0
LINE
  5
85456
  8
YODOROGO
 10
28050.13552023091
 20
1631.503637274657
 30
0.0
 11
28050.13552023091
 21
1655.5036372746561
 31
0.0
1001
AUTOCAD_POSTSCRIPT_FIGURE
1002
{
1000
PSFILL
1000
Grayscale
1000
Grayscale
1070
   100
1002
}
  0
LINE
  5
85457
  8
YODOROGO
 10
28082.135520230921
 20
1631.503637274657
 30
0.0
 11
28050.13552023091
 21
1631.503637274657
 31
0.0
1001
AUTOCAD_POSTSCRIPT_FIGURE
1002
{
1000
PSFILL
1000
Grayscale
1000
Grayscale
1070
   100
1002
}
  0
LINE
  5
85458
  8
YODOROGO
 10
28082.135520230921
 20
1499.749496429288
 30
0.0
 11
28082.135520230921
 21
1631.503637274657
 31
0.0
1001
AUTOCAD_POSTSCRIPT_FIGURE
1002
{
1000
PSFILL
1000
Grayscale
1000
Grayscale
1070
   100
1002
}
  0
LINE
  5
85459
  8
YODOROGO
 10
28050.135520230931
 20
1499.749496429288
 30
0.0
 11
28082.135520230921
 21
1499.749496429288
 31
0.0
1001
AUTOCAD_POSTSCRIPT_FIGURE
1002
{
1000
PSFILL
1000
Grayscale
1000
Grayscale
1070
   100
1002
}
  0
LINE
  5
8545A
  8
YODOROGO
 10
28050.135520230931
 20
1475.7494964292871
 30
0.0
 11
28050.135520230931
 21
1499.749496429288
 31
0.0
1001
AUTOCAD_POSTSCRIPT_FIGURE
1002
{
1000
PSFILL
1000
Grayscale
1000
Grayscale
1070
   100
1002
}
  0
LINE
  5
8545B
  8
YODOROGO
 10
28137.604341291921
 20
1475.7494964292871
 30
0.0
 11
28050.135520230931
 21
1475.7494964292871
 31
0.0
1001
AUTOCAD_POSTSCRIPT_FIGURE
1002
{
1000
PSFILL
1000
Grayscale
1000
Grayscale
1070
   100
1002
}
  0
LINE
  5
8545C
  8
YODOROGO
 10
28137.604341291921
 20
1499.749496429288
 30
0.0
 11
28137.604341291921
 21
1475.7494964292871
 31
0.0
1001
AUTOCAD_POSTSCRIPT_FIGURE
1002
{
1000
PSFILL
1000
Grayscale
1000
Grayscale
1070
   100
1002
}
  0
LINE
  5
8545D
  8
YODOROGO
 10
28098.135520230931
 20
1499.749496429288
 30
0.0
 11
28137.604341291921
 21
1499.749496429288
 31
0.0
1001
AUTOCAD_POSTSCRIPT_FIGURE
1002
{
1000
PSFILL
1000
Grayscale
1000
Grayscale
1070
   100
1002
}
  0
LINE
  5
8545E
  8
YODOROGO
 10
28098.135520230931
 20
1631.503637274657
 30
0.0
 11
28098.135520230931
 21
1499.749496429288
 31
0.0
1001
AUTOCAD_POSTSCRIPT_FIGURE
1002
{
1000
PSFILL
1000
Grayscale
1000
Grayscale
1070
   100
1002
}
  0
LINE
  5
8545F
  8
YODOROGO
 10
28137.604341291921
 20
1631.503637274657
 30
0.0
 11
28098.135520230931
 21
1631.503637274657
 31
0.0
1001
AUTOCAD_POSTSCRIPT_FIGURE
1002
{
1000
PSFILL
1000
Grayscale
1000
Grayscale
1070
   100
1002
}
  0
LINE
  5
85460
  8
YODOROGO
 10
28137.604341291921
 20
1655.5036372746561
 30
0.0
 11
28137.604341291921
 21
1631.503637274657
 31
0.0
1001
AUTOCAD_POSTSCRIPT_FIGURE
1002
{
1000
PSFILL
1000
Grayscale
1000
Grayscale
1070
   100
1002
}
  0
LINE
  5
85461
  8
YODOROGO
 10
28098.135520230931
 20
1655.5036372746561
 30
0.0
 11
28137.604341291921
 21
1655.5036372746561
 31
0.0
1001
AUTOCAD_POSTSCRIPT_FIGURE
1002
{
1000
PSFILL
1000
Grayscale
1000
Grayscale
1070
   100
1002
}
  0
LINE
  5
85462
  8
YODOROGO
 10
28401.60434129191
 20
1667.749496429288
 30
0.0
 11
28345.604341291921
 21
1667.749496429288
 31
0.0
  0
LINE
  5
85463
  8
YODOROGO
 10
28401.60434129191
 20
1611.7494964292889
 30
0.0
 11
28401.60434129191
 21
1667.749496429288
 31
0.0
  0
LINE
  5
85464
  8
YODOROGO
 10
28345.604341291921
 20
1667.749496429288
 30
0.0
 11
28345.604341291921
 21
1611.7494964292889
 31
0.0
  0
ARC
  5
85465
  8
YODOROGO
 10
28513.60434129191
 20
1507.749496429288
 30
0.0
 40
80.0
 50
180.0
 51
270.0
  0
ARC
  5
85466
  8
YODOROGO
 10
28537.60434129191
 20
1563.7494964292871
 30
0.0
 40
40.0
 50
180.0
 51
270.0
  0
LINE
  5
85467
  8
YODOROGO
 10
28561.604341291932
 20
1523.7494964292871
 30
0.0
 11
28537.60434129191
 21
1523.7494964292871
 31
0.0
  0
ARC
  5
85468
  8
YODOROGO
 10
28561.604341291932
 20
1547.749496429285
 30
0.0
 40
23.999999999996358
 50
270.0
 51
0.0000000000054281
  0
LINE
  5
85469
  8
YODOROGO
 10
27801.604341291921
 20
1890.786580793706
 30
0.0
 11
27777.604341291921
 21
1843.776747951672
 31
0.0
1001
AUTOCAD_POSTSCRIPT_FIGURE
1002
{
1000
PSFILL
1000
Grayscale
1000
Grayscale
1070
   100
1002
}
  0
LINE
  5
8546A
  8
YODOROGO
 10
27801.604341291921
 20
1747.7494964292871
 30
0.0
 11
27801.604341291921
 21
1890.786580793706
 31
0.0
1001
AUTOCAD_POSTSCRIPT_FIGURE
1002
{
1000
PSFILL
1000
Grayscale
1000
Grayscale
1070
   100
1002
}
  0
LINE
  5
8546B
  8
YODOROGO
 10
27817.604341291921
 20
1747.7494964292871
 30
0.0
 11
27801.604341291921
 21
1747.7494964292871
 31
0.0
1001
AUTOCAD_POSTSCRIPT_FIGURE
1002
{
1000
PSFILL
1000
Grayscale
1000
Grayscale
1070
   100
1002
}
  0
LINE
  5
8546C
  8
YODOROGO
 10
27817.604341291921
 20
1893.771332085267
 30
0.0
 11
27817.604341291921
 21
1747.7494964292871
 31
0.0
1001
AUTOCAD_POSTSCRIPT_FIGURE
1002
{
1000
PSFILL
1000
Grayscale
1000
Grayscale
1070
   100
1002
}
  0
LINE
  5
8546D
  8
YODOROGO
 10
27841.604341291921
 20
1867.654758284137
 30
0.0
 11
27817.604341291921
 21
1893.771332085267
 31
0.0
1001
AUTOCAD_POSTSCRIPT_FIGURE
1002
{
1000
PSFILL
1000
Grayscale
1000
Grayscale
1070
   100
1002
}
  0
LINE
  5
8546E
  8
YODOROGO
 10
27841.604341291921
 20
1883.6547582841361
 30
0.0
 11
27841.604341291921
 21
1867.654758284137
 31
0.0
1001
AUTOCAD_POSTSCRIPT_FIGURE
1002
{
1000
PSFILL
1000
Grayscale
1000
Grayscale
1070
   100
1002
}
  0
LINE
  5
8546F
  8
YODOROGO
 10
27817.604341291921
 20
1917.7713320852649
 30
0.0
 11
27841.604341291921
 21
1883.6547582841361
 31
0.0
1001
AUTOCAD_POSTSCRIPT_FIGURE
1002
{
1000
PSFILL
1000
Grayscale
1000
Grayscale
1070
   100
1002
}
  0
LINE
  5
85470
  8
YODOROGO
 10
27817.604341291921
 20
1939.749496429288
 30
0.0
 11
27817.604341291921
 21
1917.7713320852649
 31
0.0
1001
AUTOCAD_POSTSCRIPT_FIGURE
1002
{
1000
PSFILL
1000
Grayscale
1000
Grayscale
1070
   100
1002
}
  0
LINE
  5
85471
  8
YODOROGO
 10
27889.604341291921
 20
1939.749496429288
 30
0.0
 11
27817.604341291921
 21
1939.749496429288
 31
0.0
1001
AUTOCAD_POSTSCRIPT_FIGURE
1002
{
1000
PSFILL
1000
Grayscale
1000
Grayscale
1070
   100
1002
}
  0
LINE
  5
85472
  8
YODOROGO
 10
27889.604341291921
 20
1900.5683489363
 30
0.0
 11
27889.604341291921
 21
1939.749496429288
 31
0.0
1001
AUTOCAD_POSTSCRIPT_FIGURE
1002
{
1000
PSFILL
1000
Grayscale
1000
Grayscale
1070
   100
1002
}
  0
LINE
  5
85473
  8
YODOROGO
 10
27857.604341291921
 20
1900.5683489363
 30
0.0
 11
27889.604341291921
 21
1900.5683489363
 31
0.0
1001
AUTOCAD_POSTSCRIPT_FIGURE
1002
{
1000
PSFILL
1000
Grayscale
1000
Grayscale
1070
   100
1002
}
  0
LINE
  5
85474
  8
YODOROGO
 10
27857.604341291921
 20
1884.568348936298
 30
0.0
 11
27857.604341291921
 21
1900.5683489363
 31
0.0
1001
AUTOCAD_POSTSCRIPT_FIGURE
1002
{
1000
PSFILL
1000
Grayscale
1000
Grayscale
1070
   100
1002
}
  0
LINE
  5
85475
  8
YODOROGO
 10
27889.604341291921
 20
1884.568348936298
 30
0.0
 11
27857.604341291921
 21
1884.568348936298
 31
0.0
1001
AUTOCAD_POSTSCRIPT_FIGURE
1002
{
1000
PSFILL
1000
Grayscale
1000
Grayscale
1070
   100
1002
}
  0
LINE
  5
85476
  8
YODOROGO
 10
27889.604341291921
 20
1879.6191779644389
 30
0.0
 11
27889.604341291921
 21
1884.568348936298
 31
0.0
1001
AUTOCAD_POSTSCRIPT_FIGURE
1002
{
1000
PSFILL
1000
Grayscale
1000
Grayscale
1070
   100
1002
}
  0
LINE
  5
85477
  8
YODOROGO
 10
27849.604341291921
 20
1812.974981161417
 30
0.0
 11
27889.604341291921
 21
1879.6191779644389
 31
0.0
1001
AUTOCAD_POSTSCRIPT_FIGURE
1002
{
1000
PSFILL
1000
Grayscale
1000
Grayscale
1070
   100
1002
}
  0
LINE
  5
85478
  8
YODOROGO
 10
27849.604341291921
 20
1796.9749811614161
 30
0.0
 11
27849.604341291921
 21
1812.974981161417
 31
0.0
1001
AUTOCAD_POSTSCRIPT_FIGURE
1002
{
1000
PSFILL
1000
Grayscale
1000
Grayscale
1070
   100
1002
}
  0
LINE
  5
85479
  8
YODOROGO
 10
27889.604341291921
 20
1847.6191779644371
 30
0.0
 11
27849.604341291921
 21
1796.9749811614161
 31
0.0
1001
AUTOCAD_POSTSCRIPT_FIGURE
1002
{
1000
PSFILL
1000
Grayscale
1000
Grayscale
1070
   100
1002
}
  0
LINE
  5
8547A
  8
YODOROGO
 10
27889.604341291921
 20
1747.7494964292871
 30
0.0
 11
27889.604341291921
 21
1847.6191779644371
 31
0.0
1001
AUTOCAD_POSTSCRIPT_FIGURE
1002
{
1000
PSFILL
1000
Grayscale
1000
Grayscale
1070
   100
1002
}
  0
LINE
  5
8547B
  8
YODOROGO
 10
27905.604341291921
 20
1747.7494964292871
 30
0.0
 11
27889.604341291921
 21
1747.7494964292871
 31
0.0
1001
AUTOCAD_POSTSCRIPT_FIGURE
1002
{
1000
PSFILL
1000
Grayscale
1000
Grayscale
1070
   100
1002
}
  0
LINE
  5
8547C
  8
YODOROGO
 10
27905.604341291921
 20
1849.409012158806
 30
0.0
 11
27905.604341291921
 21
1747.7494964292871
 31
0.0
1001
AUTOCAD_POSTSCRIPT_FIGURE
1002
{
1000
PSFILL
1000
Grayscale
1000
Grayscale
1070
   100
1002
}
  0
LINE
  5
8547D
  8
YODOROGO
 10
27937.604341291921
 20
1796.9749811614161
 30
0.0
 11
27905.604341291921
 21
1849.409012158806
 31
0.0
1001
AUTOCAD_POSTSCRIPT_FIGURE
1002
{
1000
PSFILL
1000
Grayscale
1000
Grayscale
1070
   100
1002
}
  0
LINE
  5
8547E
  8
YODOROGO
 10
27937.604341291921
 20
1812.974981161417
 30
0.0
 11
27937.604341291921
 21
1796.9749811614161
 31
0.0
1001
AUTOCAD_POSTSCRIPT_FIGURE
1002
{
1000
PSFILL
1000
Grayscale
1000
Grayscale
1070
   100
1002
}
  0
LINE
  5
8547F
  8
YODOROGO
 10
27905.604341291921
 20
1881.4090121588081
 30
0.0
 11
27937.604341291921
 21
1812.974981161417
 31
0.0
1001
AUTOCAD_POSTSCRIPT_FIGURE
1002
{
1000
PSFILL
1000
Grayscale
1000
Grayscale
1070
   100
1002
}
  0
LINE
  5
85480
  8
YODOROGO
 10
27905.604341291932
 20
1884.5683489363
 30
0.0
 11
27905.604341291921
 21
1881.4090121588081
 31
0.0
1001
AUTOCAD_POSTSCRIPT_FIGURE
1002
{
1000
PSFILL
1000
Grayscale
1000
Grayscale
1070
   100
1002
}
  0
LINE
  5
85481
  8
YODOROGO
 10
27937.604341291921
 20
1884.568348936298
 30
0.0
 11
27905.604341291932
 21
1884.5683489363
 31
0.0
1001
AUTOCAD_POSTSCRIPT_FIGURE
1002
{
1000
PSFILL
1000
Grayscale
1000
Grayscale
1070
   100
1002
}
  0
LINE
  5
85482
  8
YODOROGO
 10
27937.604341291921
 20
1900.5683489363
 30
0.0
 11
27937.604341291921
 21
1884.568348936298
 31
0.0
1001
AUTOCAD_POSTSCRIPT_FIGURE
1002
{
1000
PSFILL
1000
Grayscale
1000
Grayscale
1070
   100
1002
}
  0
LINE
  5
85483
  8
YODOROGO
 10
27905.604341291921
 20
1900.5683489363
 30
0.0
 11
27937.604341291921
 21
1900.5683489363
 31
0.0
1001
AUTOCAD_POSTSCRIPT_FIGURE
1002
{
1000
PSFILL
1000
Grayscale
1000
Grayscale
1070
   100
1002
}
  0
LINE
  5
85484
  8
YODOROGO
 10
27905.604341291921
 20
1939.749496429288
 30
0.0
 11
27905.604341291921
 21
1900.5683489363
 31
0.0
1001
AUTOCAD_POSTSCRIPT_FIGURE
1002
{
1000
PSFILL
1000
Grayscale
1000
Grayscale
1070
   100
1002
}
  0
LINE
  5
85485
  8
YODOROGO
 10
27937.604341291921
 20
1939.749496429288
 30
0.0
 11
27905.604341291921
 21
1939.749496429288
 31
0.0
1001
AUTOCAD_POSTSCRIPT_FIGURE
1002
{
1000
PSFILL
1000
Grayscale
1000
Grayscale
1070
   100
1002
}
  0
LINE
  5
85486
  8
YODOROGO
 10
27937.604341291921
 20
1955.7494964292871
 30
0.0
 11
27937.604341291921
 21
1939.749496429288
 31
0.0
1001
AUTOCAD_POSTSCRIPT_FIGURE
1002
{
1000
PSFILL
1000
Grayscale
1000
Grayscale
1070
   100
1002
}
  0
LINE
  5
85487
  8
YODOROGO
 10
27905.604341291921
 20
1955.7494964292871
 30
0.0
 11
27937.604341291921
 21
1955.7494964292871
 31
0.0
1001
AUTOCAD_POSTSCRIPT_FIGURE
1002
{
1000
PSFILL
1000
Grayscale
1000
Grayscale
1070
   100
1002
}
  0
LINE
  5
85488
  8
YODOROGO
 10
27905.604341291921
 20
1979.749496429288
 30
0.0
 11
27905.604341291921
 21
1955.7494964292871
 31
0.0
1001
AUTOCAD_POSTSCRIPT_FIGURE
1002
{
1000
PSFILL
1000
Grayscale
1000
Grayscale
1070
   100
1002
}
  0
LINE
  5
85489
  8
YODOROGO
 10
27889.604341291921
 20
1979.749496429288
 30
0.0
 11
27905.604341291921
 21
1979.749496429288
 31
0.0
1001
AUTOCAD_POSTSCRIPT_FIGURE
1002
{
1000
PSFILL
1000
Grayscale
1000
Grayscale
1070
   100
1002
}
  0
LINE
  5
8548A
  8
YODOROGO
 10
27889.604341291921
 20
1955.7494964292871
 30
0.0
 11
27889.604341291921
 21
1979.749496429288
 31
0.0
1001
AUTOCAD_POSTSCRIPT_FIGURE
1002
{
1000
PSFILL
1000
Grayscale
1000
Grayscale
1070
   100
1002
}
  0
LINE
  5
8548B
  8
YODOROGO
 10
27865.604341291921
 20
1955.7494964292871
 30
0.0
 11
27889.604341291921
 21
1955.7494964292871
 31
0.0
1001
AUTOCAD_POSTSCRIPT_FIGURE
1002
{
1000
PSFILL
1000
Grayscale
1000
Grayscale
1070
   100
1002
}
  0
LINE
  5
8548C
  8
YODOROGO
 10
27865.604341291921
 20
1979.749496429288
 30
0.0
 11
27865.604341291921
 21
1955.7494964292871
 31
0.0
1001
AUTOCAD_POSTSCRIPT_FIGURE
1002
{
1000
PSFILL
1000
Grayscale
1000
Grayscale
1070
   100
1002
}
  0
LINE
  5
8548D
  8
YODOROGO
 10
27849.604341291921
 20
1979.749496429288
 30
0.0
 11
27865.604341291921
 21
1979.749496429288
 31
0.0
1001
AUTOCAD_POSTSCRIPT_FIGURE
1002
{
1000
PSFILL
1000
Grayscale
1000
Grayscale
1070
   100
1002
}
  0
LINE
  5
8548E
  8
YODOROGO
 10
27849.604341291921
 20
1955.7494964292871
 30
0.0
 11
27849.604341291921
 21
1979.749496429288
 31
0.0
1001
AUTOCAD_POSTSCRIPT_FIGURE
1002
{
1000
PSFILL
1000
Grayscale
1000
Grayscale
1070
   100
1002
}
  0
LINE
  5
8548F
  8
YODOROGO
 10
27817.604341291921
 20
1955.7494964292871
 30
0.0
 11
27849.604341291921
 21
1955.7494964292871
 31
0.0
1001
AUTOCAD_POSTSCRIPT_FIGURE
1002
{
1000
PSFILL
1000
Grayscale
1000
Grayscale
1070
   100
1002
}
  0
LINE
  5
85490
  8
YODOROGO
 10
27817.604341291921
 20
1979.749496429288
 30
0.0
 11
27817.604341291921
 21
1955.7494964292871
 31
0.0
1001
AUTOCAD_POSTSCRIPT_FIGURE
1002
{
1000
PSFILL
1000
Grayscale
1000
Grayscale
1070
   100
1002
}
  0
LINE
  5
85491
  8
YODOROGO
 10
27801.604341291921
 20
1979.749496429288
 30
0.0
 11
27817.604341291921
 21
1979.749496429288
 31
0.0
1001
AUTOCAD_POSTSCRIPT_FIGURE
1002
{
1000
PSFILL
1000
Grayscale
1000
Grayscale
1070
   100
1002
}
  0
LINE
  5
85492
  8
YODOROGO
 10
27801.604341291921
 20
1955.7494964292871
 30
0.0
 11
27801.604341291921
 21
1979.749496429288
 31
0.0
1001
AUTOCAD_POSTSCRIPT_FIGURE
1002
{
1000
PSFILL
1000
Grayscale
1000
Grayscale
1070
   100
1002
}
  0
LINE
  5
85493
  8
YODOROGO
 10
27777.604341291921
 20
1955.7494964292871
 30
0.0
 11
27801.604341291921
 21
1955.7494964292871
 31
0.0
1001
AUTOCAD_POSTSCRIPT_FIGURE
1002
{
1000
PSFILL
1000
Grayscale
1000
Grayscale
1070
   100
1002
}
  0
LINE
  5
85494
  8
YODOROGO
 10
27777.604341291921
 20
1939.749496429288
 30
0.0
 11
27777.604341291921
 21
1955.7494964292871
 31
0.0
1001
AUTOCAD_POSTSCRIPT_FIGURE
1002
{
1000
PSFILL
1000
Grayscale
1000
Grayscale
1070
   100
1002
}
  0
LINE
  5
85495
  8
YODOROGO
 10
27801.604341291921
 20
1939.749496429288
 30
0.0
 11
27777.604341291921
 21
1939.749496429288
 31
0.0
1001
AUTOCAD_POSTSCRIPT_FIGURE
1002
{
1000
PSFILL
1000
Grayscale
1000
Grayscale
1070
   100
1002
}
  0
LINE
  5
85496
  8
YODOROGO
 10
27801.604341291921
 20
1914.7865807937051
 30
0.0
 11
27801.604341291921
 21
1939.749496429288
 31
0.0
1001
AUTOCAD_POSTSCRIPT_FIGURE
1002
{
1000
PSFILL
1000
Grayscale
1000
Grayscale
1070
   100
1002
}
  0
LINE
  5
85497
  8
YODOROGO
 10
27777.604341291921
 20
1859.776747951671
 30
0.0
 11
27801.604341291921
 21
1914.7865807937051
 31
0.0
1001
AUTOCAD_POSTSCRIPT_FIGURE
1002
{
1000
PSFILL
1000
Grayscale
1000
Grayscale
1070
   100
1002
}
  0
LINE
  5
85498
  8
YODOROGO
 10
27777.604341291921
 20
1843.776747951672
 30
0.0
 11
27777.604341291921
 21
1859.776747951671
 31
0.0
1001
AUTOCAD_POSTSCRIPT_FIGURE
1002
{
1000
PSFILL
1000
Grayscale
1000
Grayscale
1070
   100
1002
}
  0
LINE
  5
85499
  8
YODOROGO
 10
28257.604341291921
 20
1867.749496429288
 30
0.0
 11
28401.60434129191
 21
1824.877625640306
 31
0.0
1001
AUTOCAD_POSTSCRIPT_FIGURE
1002
{
1000
PSFILL
1000
Grayscale
1000
Grayscale
1070
   100
1002
}
  0
LINE
  5
8549A
  8
YODOROGO
 10
28401.60434129191
 20
1752.877625640306
 30
0.0
 11
28257.604341291921
 21
1795.7494964292871
 31
0.0
1001
AUTOCAD_POSTSCRIPT_FIGURE
1002
{
1000
PSFILL
1000
Grayscale
1000
Grayscale
1070
   100
1002
}
  0
LINE
  5
8549B
  8
YODOROGO
 10
28401.60434129191
 20
1984.877625640306
 30
0.0
 11
28257.604341291921
 21
2027.749496429288
 31
0.0
1001
AUTOCAD_POSTSCRIPT_FIGURE
1002
{
1000
PSFILL
1000
Grayscale
1000
Grayscale
1070
   100
1002
}
  0
LINE
  5
8549C
  8
YODOROGO
 10
28257.604341291921
 20
1959.749496429288
 30
0.0
 11
28401.60434129191
 21
1916.8776256403071
 31
0.0
1001
AUTOCAD_POSTSCRIPT_FIGURE
1002
{
1000
PSFILL
1000
Grayscale
1000
Grayscale
1070
   100
1002
}
  0
LINE
  5
8549D
  8
YODOROGO
 10
28257.604341291921
 20
1795.7494964292871
 30
0.0
 11
28257.604341291921
 21
1867.749496429288
 31
0.0
1001
AUTOCAD_POSTSCRIPT_FIGURE
1002
{
1000
PSFILL
1000
Grayscale
1000
Grayscale
1070
   100
1002
}
  0
LINE
  5
8549E
  8
YODOROGO
 10
28257.604341291921
 20
2027.749496429288
 30
0.0
 11
28257.604341291921
 21
1959.749496429288
 31
0.0
1001
AUTOCAD_POSTSCRIPT_FIGURE
1002
{
1000
PSFILL
1000
Grayscale
1000
Grayscale
1070
   100
1002
}
  0
LINE
  5
8549F
  8
YODOROGO
 10
28080.236320206739
 20
1939.749496429288
 30
0.0
 11
28129.604341291921
 21
1747.7494964292871
 31
0.0
1001
AUTOCAD_POSTSCRIPT_FIGURE
1002
{
1000
PSFILL
1000
Grayscale
1000
Grayscale
1070
   100
1002
}
  0
LINE
  5
854A0
  8
YODOROGO
 10
27977.604341291921
 20
1939.749496429288
 30
0.0
 11
28080.236320206739
 21
1939.749496429288
 31
0.0
1001
AUTOCAD_POSTSCRIPT_FIGURE
1002
{
1000
PSFILL
1000
Grayscale
1000
Grayscale
1070
   100
1002
}
  0
LINE
  5
854A1
  8
YODOROGO
 10
27977.604341291921
 20
1955.7494964292871
 30
0.0
 11
27977.604341291921
 21
1939.749496429288
 31
0.0
1001
AUTOCAD_POSTSCRIPT_FIGURE
1002
{
1000
PSFILL
1000
Grayscale
1000
Grayscale
1070
   100
1002
}
  0
LINE
  5
854A2
  8
YODOROGO
 10
28076.60687851992
 20
1955.7494964292871
 30
0.0
 11
27977.604341291921
 21
1955.7494964292871
 31
0.0
1001
AUTOCAD_POSTSCRIPT_FIGURE
1002
{
1000
PSFILL
1000
Grayscale
1000
Grayscale
1070
   100
1002
}
  0
LINE
  5
854A3
  8
YODOROGO
 10
28071.162715989711
 20
1979.749496429288
 30
0.0
 11
28076.60687851992
 21
1955.7494964292871
 31
0.0
1001
AUTOCAD_POSTSCRIPT_FIGURE
1002
{
1000
PSFILL
1000
Grayscale
1000
Grayscale
1070
   100
1002
}
  0
LINE
  5
854A4
  8
YODOROGO
 10
28091.162715989711
 20
1979.749496429288
 30
0.0
 11
28071.162715989711
 21
1979.749496429288
 31
0.0
1001
AUTOCAD_POSTSCRIPT_FIGURE
1002
{
1000
PSFILL
1000
Grayscale
1000
Grayscale
1070
   100
1002
}
  0
LINE
  5
854A5
  8
YODOROGO
 10
28095.806878519939
 20
1955.7494964292871
 30
0.0
 11
28091.162715989711
 21
1979.749496429288
 31
0.0
1001
AUTOCAD_POSTSCRIPT_FIGURE
1002
{
1000
PSFILL
1000
Grayscale
1000
Grayscale
1070
   100
1002
}
  0
LINE
  5
854A6
  8
YODOROGO
 10
28121.604341291921
 20
1955.7494964292871
 30
0.0
 11
28095.806878519939
 21
1955.7494964292871
 31
0.0
1001
AUTOCAD_POSTSCRIPT_FIGURE
1002
{
1000
PSFILL
1000
Grayscale
1000
Grayscale
1070
   100
1002
}
  0
LINE
  5
854A7
  8
YODOROGO
 10
28121.604341291921
 20
1979.749496429288
 30
0.0
 11
28121.604341291921
 21
1955.7494964292871
 31
0.0
1001
AUTOCAD_POSTSCRIPT_FIGURE
1002
{
1000
PSFILL
1000
Grayscale
1000
Grayscale
1070
   100
1002
}
  0
LINE
  5
854A8
  8
YODOROGO
 10
28137.604341291921
 20
1979.749496429288
 30
0.0
 11
28121.604341291921
 21
1979.749496429288
 31
0.0
1001
AUTOCAD_POSTSCRIPT_FIGURE
1002
{
1000
PSFILL
1000
Grayscale
1000
Grayscale
1070
   100
1002
}
  0
LINE
  5
854A9
  8
YODOROGO
 10
28137.604341291921
 20
1955.7494964292871
 30
0.0
 11
28137.604341291921
 21
1979.749496429288
 31
0.0
1001
AUTOCAD_POSTSCRIPT_FIGURE
1002
{
1000
PSFILL
1000
Grayscale
1000
Grayscale
1070
   100
1002
}
  0
LINE
  5
854AA
  8
YODOROGO
 10
28137.604341291921
 20
1939.749496429288
 30
0.0
 11
28137.604341291921
 21
1955.7494964292871
 31
0.0
1001
AUTOCAD_POSTSCRIPT_FIGURE
1002
{
1000
PSFILL
1000
Grayscale
1000
Grayscale
1070
   100
1002
}
  0
LINE
  5
854AB
  8
YODOROGO
 10
28098.902986873421
 20
1939.749496429288
 30
0.0
 11
28137.604341291921
 21
1939.749496429288
 31
0.0
1001
AUTOCAD_POSTSCRIPT_FIGURE
1002
{
1000
PSFILL
1000
Grayscale
1000
Grayscale
1070
   100
1002
}
  0
LINE
  5
854AC
  8
YODOROGO
 10
28137.604341291921
 20
1747.7494964292871
 30
0.0
 11
28098.902986873421
 21
1939.749496429288
 31
0.0
1001
AUTOCAD_POSTSCRIPT_FIGURE
1002
{
1000
PSFILL
1000
Grayscale
1000
Grayscale
1070
   100
1002
}
  0
LINE
  5
854AD
  8
YODOROGO
 10
28129.604341291921
 20
1747.7494964292871
 30
0.0
 11
28137.604341291921
 21
1747.7494964292871
 31
0.0
1001
AUTOCAD_POSTSCRIPT_FIGURE
1002
{
1000
PSFILL
1000
Grayscale
1000
Grayscale
1070
   100
1002
}
  0
LINE
  5
854AE
  8
YODOROGO
 10
28078.069219933801
 20
1775.7407762987939
 30
0.0
 11
27977.604341291921
 21
1747.7494964292871
 31
0.0
  0
LINE
  5
854AF
  8
YODOROGO
 10
28078.069219933801
 20
1798.6689795290731
 30
0.0
 11
28078.069219933801
 21
1775.7407762987939
 31
0.0
  0
LINE
  5
854B0
  8
YODOROGO
 10
28033.83678061287
 20
1786.816933133767
 30
0.0
 11
28078.069219933801
 21
1798.6689795290731
 31
0.0
  0
LINE
  5
854B1
  8
YODOROGO
 10
28033.83678061287
 20
1872.5683489363
 30
0.0
 11
28033.83678061287
 21
1786.816933133767
 31
0.0
  0
LINE
  5
854B2
  8
YODOROGO
 10
28078.069219933801
 20
1872.5683489363
 30
0.0
 11
28033.83678061287
 21
1872.5683489363
 31
0.0
  0
LINE
  5
854B3
  8
YODOROGO
 10
28078.069219933801
 20
1892.568348936298
 30
0.0
 11
28078.069219933801
 21
1872.5683489363
 31
0.0
  0
LINE
  5
854B4
  8
YODOROGO
 10
27977.604341291921
 20
1892.568348936298
 30
0.0
 11
28078.069219933801
 21
1892.568348936298
 31
0.0
  0
LINE
  5
854B5
  8
YODOROGO
 10
27977.604341291921
 20
1872.5683489363
 30
0.0
 11
27977.604341291921
 21
1892.568348936298
 31
0.0
  0
LINE
  5
854B6
  8
YODOROGO
 10
28021.836780612859
 20
1872.5683489363
 30
0.0
 11
27977.604341291921
 21
1872.5683489363
 31
0.0
  0
LINE
  5
854B7
  8
YODOROGO
 10
28021.836780612859
 20
1784.673339594317
 30
0.0
 11
28021.836780612859
 21
1872.5683489363
 31
0.0
  0
LINE
  5
854B8
  8
YODOROGO
 10
27977.604341291921
 20
1771.749496429286
 30
0.0
 11
28021.836780612859
 21
1784.673339594317
 31
0.0
  0
LINE
  5
854B9
  8
YODOROGO
 10
27977.604341291921
 20
1747.7494964292871
 30
0.0
 11
27977.604341291921
 21
1771.749496429286
 31
0.0
  0
LINE
  5
854BA
  8
YODOROGO
 10
28001.604341291921
 20
1707.749496429288
 30
0.0
 11
28001.604341291921
 21
1683.7494964292871
 31
0.0
  0
LINE
  5
854BC
  8
YODOROGO
 10
28017.604341291921
 20
1707.749496429288
 30
0.0
 11
28001.604341291921
 21
1707.749496429288
 31
0.0
  0
LINE
  5
854BD
  8
YODOROGO
 10
28017.604341291921
 20
1683.7494964292871
 30
0.0
 11
28017.604341291921
 21
1707.749496429288
 31
0.0
  0
LINE
  5
854BE
  8
YODOROGO
 10
28040.913204016899
 20
1683.7494964292871
 30
0.0
 11
28017.604341291921
 21
1683.7494964292871
 31
0.0
  0
LINE
  5
854BF
  8
YODOROGO
 10
28001.604341291921
 20
1683.7494964292871
 30
0.0
 11
27977.604341291921
 21
1683.7494964292871
 31
0.0
  0
LINE
  5
854C0
  8
YODOROGO
 10
28082.135520230921
 20
1707.749496429288
 30
0.0
 11
28098.135520230931
 21
1707.749496429288
 31
0.0
1001
AUTOCAD_POSTSCRIPT_FIGURE
1002
{
1000
PSFILL
1000
Grayscale
1000
Grayscale
1070
   100
1002
}
  0
LINE
  5
854C1
  8
YODOROGO
 10
28401.60434129191
 20
1824.877625640306
 30
0.0
 11
28401.60434129191
 21
1752.877625640306
 31
0.0
1001
AUTOCAD_POSTSCRIPT_FIGURE
1002
{
1000
PSFILL
1000
Grayscale
1000
Grayscale
1070
   100
1002
}
  0
LINE
  5
854C2
  8
YODOROGO
 10
28401.60434129191
 20
1916.8776256403071
 30
0.0
 11
28401.60434129191
 21
1984.877625640306
 31
0.0
1001
AUTOCAD_POSTSCRIPT_FIGURE
1002
{
1000
PSFILL
1000
Grayscale
1000
Grayscale
1070
   100
1002
}
  0
LINE
  5
854C3
  8
YODOROGO
 10
28433.60434129191
 20
1819.749496429288
 30
0.0
 11
28433.60434129191
 21
1747.74949642929
 31
0.0
  0
LINE
  5
854C4
  8
YODOROGO
 10
28497.60434129191
 20
1707.749496429288
 30
0.0
 11
28433.60434129191
 21
1707.749496429288
 31
0.0
  0
LINE
  5
854C5
  8
YODOROGO
 10
28433.60434129191
 20
1747.74949642929
 30
0.0
 11
28585.604341291921
 21
1747.74949642929
 31
0.0
  0
LINE
  5
854C6
  8
YODOROGO
 10
28497.60434129191
 20
1867.749496429288
 30
0.0
 11
28433.60434129191
 21
1867.749496429288
 31
0.0
  0
LINE
  5
854C7
  8
YODOROGO
 10
28497.60434129191
 20
1923.7494964292871
 30
0.0
 11
28497.60434129191
 21
1867.749496429288
 31
0.0
  0
LINE
  5
854C8
  8
YODOROGO
 10
28585.604341291921
 20
1987.749496429288
 30
0.0
 11
28585.604341291921
 21
2027.749496429288
 31
0.0
  0
LINE
  5
854C9
  8
YODOROGO
 10
28433.60434129191
 20
1987.749496429288
 30
0.0
 11
28585.604341291921
 21
1987.749496429288
 31
0.0
  0
LINE
  5
854CA
  8
YODOROGO
 10
28433.60434129191
 20
1867.749496429288
 30
0.0
 11
28433.60434129191
 21
1987.749496429288
 31
0.0
  0
LINE
  5
854CB
  8
YODOROGO
 10
29001.60434129191
 20
2027.749496429288
 30
0.0
 11
29001.60434129191
 21
1619.749496429288
 31
0.0
  0
LINE
  5
854CC
  8
YODOROGO
 10
29073.604341291921
 20
1579.749496429288
 30
0.0
 11
29073.604341291921
 21
2027.749496429288
 31
0.0
  0
LINE
  5
854CD
  8
YODOROGO
 10
29261.604341291921
 20
1491.749496429286
 30
0.0
 11
29261.604341291921
 21
2007.749496429288
 31
0.0
  0
LINE
  5
854CE
  8
YODOROGO
 10
29197.604341291921
 20
2007.749496429288
 30
0.0
 11
29197.604341291921
 21
1491.749496429286
 31
0.0
  0
LINE
  5
854CF
  8
YODOROGO
 10
29385.604341291921
 20
2027.749496429288
 30
0.0
 11
29385.604341291921
 21
1427.749496429288
 31
0.0
  0
LINE
  5
854D0
  8
YODOROGO
 10
29457.604341291921
 20
1427.749496429288
 30
0.0
 11
29457.604341291921
 21
2027.749496429288
 31
0.0
  0
LINE
  5
854D1
  8
YODOROGO
 10
28657.60434129191
 20
1667.749496429288
 30
0.0
 11
28657.60434129191
 21
1747.74949642929
 31
0.0
  0
LINE
  5
854D2
  8
YODOROGO
 10
29885.604341291921
 20
1707.749496429288
 30
0.0
 11
29885.604341291921
 21
1667.749496429288
 31
0.0
  0
LINE
  5
854D3
  8
YODOROGO
 10
29885.604341291921
 20
1707.749496429288
 30
0.0
 11
29885.604341291921
 21
1667.749496429288
 31
0.0
  0
ARC
  5
854D4
  8
YODOROGO
 10
28906.911576186842
 20
1618.2178644422729
 30
0.0
 40
94.705151178741659
 50
274.0524416290711
 51
0.9266642149310712
  0
ARC
  5
854D5
  8
YODOROGO
 10
28909.18617071983
 20
1592.61072861044
 30
0.0
 40
164.92042356085511
 50
271.53512106537778
 51
355.52727750585058
  0
LINE
  5
854D6
  8
YODOROGO
 10
28913.604341291921
 20
1523.7494964292871
 30
0.0
 11
28913.604341291921
 21
1427.749496429288
 31
0.0
  0
LINE
  5
854D7
  8
YODOROGO
 10
28793.60434129191
 20
1667.749496429288
 30
0.0
 11
28657.60434129191
 21
1667.749496429288
 31
0.0
  0
LINE
  5
854D8
  8
YODOROGO
 10
28793.60434129191
 20
1603.7494964292889
 30
0.0
 11
28793.60434129191
 21
1667.749496429288
 31
0.0
  0
LINE
  5
854D9
  8
YODOROGO
 10
28657.60434129191
 20
1603.7494964292889
 30
0.0
 11
28793.60434129191
 21
1603.7494964292889
 31
0.0
  0
LINE
  5
854DA
  8
YODOROGO
 10
28657.60434129191
 20
1523.7494964292871
 30
0.0
 11
28657.60434129191
 21
1603.7494964292889
 31
0.0
  0
LINE
  5
854DB
  8
YODOROGO
 10
28793.60434129191
 20
1523.7494964292871
 30
0.0
 11
28657.60434129191
 21
1523.7494964292871
 31
0.0
  0
LINE
  5
854DC
  8
YODOROGO
 10
28793.60434129191
 20
1427.749496429288
 30
0.0
 11
28793.60434129191
 21
1523.7494964292871
 31
0.0
  0
LINE
  5
854DD
  8
YODOROGO
 10
29197.604341291921
 20
1491.749496429286
 30
0.0
 11
29261.604341291921
 21
1491.749496429286
 31
0.0
  0
LINE
  5
854DE
  8
YODOROGO
 10
29385.604341291921
 20
1427.749496429288
 30
0.0
 11
29457.604341291921
 21
1427.749496429288
 31
0.0
  0
LINE
  5
854DF
  8
YODOROGO
 10
29737.604341291921
 20
1528.4414521705639
 30
0.0
 11
29737.604341291921
 21
1427.749496429288
 31
0.0
  0
LINE
  5
854E0
  8
YODOROGO
 10
29617.604341291921
 20
1427.749496429288
 30
0.0
 11
29737.604341291921
 21
1528.4414521705639
 31
0.0
  0
LINE
  5
854E1
  8
YODOROGO
 10
29617.604341291921
 20
1547.749496429288
 30
0.0
 11
29617.604341291921
 21
1427.749496429288
 31
0.0
  0
LINE
  5
854E2
  8
YODOROGO
 10
29712.944628699461
 20
1627.749496429288
 30
0.0
 11
29617.604341291921
 21
1547.749496429288
 31
0.0
  0
LINE
  5
854E3
  8
YODOROGO
 10
29617.604341291921
 20
1627.749496429288
 30
0.0
 11
29712.944628699461
 21
1627.749496429288
 31
0.0
  0
LINE
  5
854E4
  8
YODOROGO
 10
29617.604341291921
 20
1667.749496429288
 30
0.0
 11
29617.604341291921
 21
1627.749496429288
 31
0.0
  0
LINE
  5
854E5
  8
YODOROGO
 10
29885.604341291921
 20
1667.749496429288
 30
0.0
 11
29617.604341291921
 21
1667.749496429288
 31
0.0
  0
LINE
  5
854E6
  8
YODOROGO
 10
29917.604341291921
 20
1627.749496429288
 30
0.0
 11
29777.604341291921
 21
1627.749496429288
 31
0.0
  0
LINE
  5
854E7
  8
YODOROGO
 10
29777.604341291921
 20
1562.005437417657
 30
0.0
 11
29771.40987298531
 21
1556.807661346234
 31
0.0
  0
LINE
  5
854E8
  8
YODOROGO
 10
29777.604341291921
 20
1627.749496429288
 30
0.0
 11
29777.604341291921
 21
1562.005437417657
 31
0.0
  0
LINE
  5
854E9
  8
YODOROGO
 10
29737.604341291921
 20
1528.4414521705639
 30
0.0
 11
29737.604341291921
 21
1427.749496429288
 31
0.0
  0
LINE
  5
854EA
  8
YODOROGO
 10
29617.604341291921
 20
1427.749496429288
 30
0.0
 11
29737.604341291921
 21
1528.4414521705639
 31
0.0
  0
LINE
  5
854EB
  8
YODOROGO
 10
29617.604341291921
 20
1547.749496429288
 30
0.0
 11
29617.604341291921
 21
1427.749496429288
 31
0.0
  0
LINE
  5
854EC
  8
YODOROGO
 10
29712.944628699461
 20
1627.749496429288
 30
0.0
 11
29617.604341291921
 21
1547.749496429288
 31
0.0
  0
LINE
  5
854ED
  8
YODOROGO
 10
29617.604341291921
 20
1627.749496429288
 30
0.0
 11
29712.944628699461
 21
1627.749496429288
 31
0.0
  0
LINE
  5
854EE
  8
YODOROGO
 10
29617.604341291921
 20
1667.749496429288
 30
0.0
 11
29617.604341291921
 21
1627.749496429288
 31
0.0
  0
LINE
  5
854EF
  8
YODOROGO
 10
29885.604341291921
 20
1667.749496429288
 30
0.0
 11
29617.604341291921
 21
1667.749496429288
 31
0.0
  0
LINE
  5
854F0
  8
YODOROGO
 10
28793.60434129191
 20
1747.74949642929
 30
0.0
 11
28793.60434129191
 21
1819.749496429288
 31
0.0
  0
LINE
  5
854F1
  8
YODOROGO
 10
28657.60434129191
 20
1747.74949642929
 30
0.0
 11
28793.60434129191
 21
1747.74949642929
 31
0.0
  0
LINE
  5
854F2
  8
YODOROGO
 10
28729.604341291921
 20
1867.749496429288
 30
0.0
 11
28729.604341291921
 21
1923.7494964292871
 31
0.0
  0
LINE
  5
854F3
  8
YODOROGO
 10
28793.60434129191
 20
1867.749496429288
 30
0.0
 11
28729.604341291921
 21
1867.749496429288
 31
0.0
  0
LINE
  5
854F4
  8
YODOROGO
 10
28793.60434129191
 20
1947.749496429288
 30
0.0
 11
28793.60434129191
 21
1867.749496429288
 31
0.0
  0
ARC
  5
854F5
  8
YODOROGO
 10
28753.60434129191
 20
1947.749496429288
 30
0.0
 40
40.0
 50
0.0
 51
90.0
  0
LINE
  5
854F6
  8
YODOROGO
 10
28657.604341291921
 20
1987.749496429288
 30
0.0
 11
28753.60434129191
 21
1987.749496429288
 31
0.0
  0
LINE
  5
854F7
  8
YODOROGO
 10
28657.604341291921
 20
2027.749496429288
 30
0.0
 11
28657.604341291921
 21
1987.749496429288
 31
0.0
  0
LINE
  5
854F8
  8
YODOROGO
 10
29073.604341291921
 20
2027.749496429288
 30
0.0
 11
29001.60434129191
 21
2027.749496429288
 31
0.0
  0
LINE
  5
854F9
  8
YODOROGO
 10
29261.604341291921
 20
2007.749496429288
 30
0.0
 11
29197.604341291921
 21
2007.749496429288
 31
0.0
  0
LINE
  5
854FA
  8
YODOROGO
 10
29457.604341291921
 20
2027.749496429288
 30
0.0
 11
29385.604341291921
 21
2027.749496429288
 31
0.0
  0
LINE
  5
854FB
  8
YODOROGO
 10
29673.604341291921
 20
1707.749496429288
 30
0.0
 11
29673.604341291921
 21
1771.749496429288
 31
0.0
1001
AUTOCAD_POSTSCRIPT_FIGURE
1002
{
1000
PSFILL
1000
Grayscale
1000
Grayscale
1070
    25
1002
}
  0
LINE
  5
854FC
  8
YODOROGO
 10
29617.604341291921
 20
1707.749496429288
 30
0.0
 11
29673.604341291921
 21
1707.749496429288
 31
0.0
1001
AUTOCAD_POSTSCRIPT_FIGURE
1002
{
1000
PSFILL
1000
Grayscale
1000
Grayscale
1070
    25
1002
}
  0
LINE
  5
854FD
  8
YODOROGO
 10
29617.604341291921
 20
1819.749496429288
 30
0.0
 11
29617.604341291921
 21
1707.749496429288
 31
0.0
1001
AUTOCAD_POSTSCRIPT_FIGURE
1002
{
1000
PSFILL
1000
Grayscale
1000
Grayscale
1070
    25
1002
}
  0
LINE
  5
854FE
  8
YODOROGO
 10
29765.604341291921
 20
1819.749496429288
 30
0.0
 11
29617.604341291921
 21
1819.749496429288
 31
0.0
1001
AUTOCAD_POSTSCRIPT_FIGURE
1002
{
1000
PSFILL
1000
Grayscale
1000
Grayscale
1070
    25
1002
}
  0
LINE
  5
854FF
  8
YODOROGO
 10
29765.604341291921
 20
1859.749496429288
 30
0.0
 11
29765.604341291921
 21
1819.749496429288
 31
0.0
1001
AUTOCAD_POSTSCRIPT_FIGURE
1002
{
1000
PSFILL
1000
Grayscale
1000
Grayscale
1070
    25
1002
}
  0
LINE
  5
85500
  8
YODOROGO
 10
29617.604341291921
 20
1859.749496429288
 30
0.0
 11
29765.604341291921
 21
1859.749496429288
 31
0.0
1001
AUTOCAD_POSTSCRIPT_FIGURE
1002
{
1000
PSFILL
1000
Grayscale
1000
Grayscale
1070
    25
1002
}
  0
LINE
  5
85501
  8
YODOROGO
 10
29617.604341291921
 20
1907.7494964292871
 30
0.0
 11
29617.604341291921
 21
1859.749496429288
 31
0.0
1001
AUTOCAD_POSTSCRIPT_FIGURE
1002
{
1000
PSFILL
1000
Grayscale
1000
Grayscale
1070
    25
1002
}
  0
LINE
  5
85502
  8
YODOROGO
 10
29765.604341291921
 20
1907.7494964292871
 30
0.0
 11
29617.604341291921
 21
1907.7494964292871
 31
0.0
1001
AUTOCAD_POSTSCRIPT_FIGURE
1002
{
1000
PSFILL
1000
Grayscale
1000
Grayscale
1070
    25
1002
}
  0
LINE
  5
85503
  8
YODOROGO
 10
29765.604341291921
 20
1947.749496429288
 30
0.0
 11
29765.604341291921
 21
1907.7494964292871
 31
0.0
1001
AUTOCAD_POSTSCRIPT_FIGURE
1002
{
1000
PSFILL
1000
Grayscale
1000
Grayscale
1070
    25
1002
}
  0
LINE
  5
85504
  8
YODOROGO
 10
29617.604341291921
 20
1947.749496429288
 30
0.0
 11
29765.604341291921
 21
1947.749496429288
 31
0.0
1001
AUTOCAD_POSTSCRIPT_FIGURE
1002
{
1000
PSFILL
1000
Grayscale
1000
Grayscale
1070
    25
1002
}
  0
LINE
  5
85505
  8
YODOROGO
 10
29617.604341291921
 20
2027.749496429288
 30
0.0
 11
29617.604341291921
 21
1947.749496429288
 31
0.0
1001
AUTOCAD_POSTSCRIPT_FIGURE
1002
{
1000
PSFILL
1000
Grayscale
1000
Grayscale
1070
    25
1002
}
  0
LINE
  5
85506
  8
YODOROGO
 10
29665.604341291921
 20
2027.749496429288
 30
0.0
 11
29617.604341291921
 21
2027.749496429288
 31
0.0
1001
AUTOCAD_POSTSCRIPT_FIGURE
1002
{
1000
PSFILL
1000
Grayscale
1000
Grayscale
1070
    25
1002
}
  0
LINE
  5
85507
  8
YODOROGO
 10
29665.604341291921
 20
1995.7494964292871
 30
0.0
 11
29665.604341291921
 21
2027.749496429288
 31
0.0
1001
AUTOCAD_POSTSCRIPT_FIGURE
1002
{
1000
PSFILL
1000
Grayscale
1000
Grayscale
1070
    25
1002
}
  0
LINE
  5
85508
  8
YODOROGO
 10
29765.604341291921
 20
1995.7494964292871
 30
0.0
 11
29665.604341291921
 21
1995.7494964292871
 31
0.0
1001
AUTOCAD_POSTSCRIPT_FIGURE
1002
{
1000
PSFILL
1000
Grayscale
1000
Grayscale
1070
    25
1002
}
  0
LINE
  5
85509
  8
YODOROGO
 10
29765.604341291921
 20
2027.749496429288
 30
0.0
 11
29765.604341291921
 21
1995.7494964292871
 31
0.0
1001
AUTOCAD_POSTSCRIPT_FIGURE
1002
{
1000
PSFILL
1000
Grayscale
1000
Grayscale
1070
    25
1002
}
  0
LINE
  5
8550A
  8
YODOROGO
 10
29829.604341291921
 20
2027.749496429288
 30
0.0
 11
29765.604341291921
 21
2027.749496429288
 31
0.0
1001
AUTOCAD_POSTSCRIPT_FIGURE
1002
{
1000
PSFILL
1000
Grayscale
1000
Grayscale
1070
    25
1002
}
  0
LINE
  5
8550B
  8
YODOROGO
 10
29829.604341291921
 20
1995.7494964292871
 30
0.0
 11
29829.604341291921
 21
2027.749496429288
 31
0.0
1001
AUTOCAD_POSTSCRIPT_FIGURE
1002
{
1000
PSFILL
1000
Grayscale
1000
Grayscale
1070
    25
1002
}
  0
LINE
  5
8550C
  8
YODOROGO
 10
29829.604341291921
 20
1907.7494964292871
 30
0.0
 11
29829.604341291921
 21
1947.749496429288
 31
0.0
1001
AUTOCAD_POSTSCRIPT_FIGURE
1002
{
1000
PSFILL
1000
Grayscale
1000
Grayscale
1070
    25
1002
}
  0
LINE
  5
8550D
  8
YODOROGO
 10
29829.604341291921
 20
1819.749496429288
 30
0.0
 11
29829.604341291921
 21
1859.749496429288
 31
0.0
1001
AUTOCAD_POSTSCRIPT_FIGURE
1002
{
1000
PSFILL
1000
Grayscale
1000
Grayscale
1070
    25
1002
}
  0
LINE
  5
8550E
  8
YODOROGO
 10
29921.60434129191
 20
1771.749496429288
 30
0.0
 11
29921.60434129191
 21
1707.749496429288
 31
0.0
1001
AUTOCAD_POSTSCRIPT_FIGURE
1002
{
1000
PSFILL
1000
Grayscale
1000
Grayscale
1070
    25
1002
}
  0
LINE
  5
8550F
  8
YODOROGO
 10
29829.604341291921
 20
1771.749496429288
 30
0.0
 11
29921.60434129191
 21
1771.749496429288
 31
0.0
1001
AUTOCAD_POSTSCRIPT_FIGURE
1002
{
1000
PSFILL
1000
Grayscale
1000
Grayscale
1070
    25
1002
}
  0
LINE
  5
85510
  8
YODOROGO
 10
29829.604341291921
 20
1707.749496429288
 30
0.0
 11
29829.604341291921
 21
1771.749496429288
 31
0.0
1001
AUTOCAD_POSTSCRIPT_FIGURE
1002
{
1000
PSFILL
1000
Grayscale
1000
Grayscale
1070
    25
1002
}
  0
LINE
  5
85511
  8
YODOROGO
 10
29765.604341291921
 20
1707.749496429288
 30
0.0
 11
29829.604341291921
 21
1707.749496429288
 31
0.0
1001
AUTOCAD_POSTSCRIPT_FIGURE
1002
{
1000
PSFILL
1000
Grayscale
1000
Grayscale
1070
    25
1002
}
  0
LINE
  5
85512
  8
YODOROGO
 10
29765.604341291921
 20
1771.749496429288
 30
0.0
 11
29765.604341291921
 21
1707.749496429288
 31
0.0
1001
AUTOCAD_POSTSCRIPT_FIGURE
1002
{
1000
PSFILL
1000
Grayscale
1000
Grayscale
1070
    25
1002
}
  0
LINE
  5
85513
  8
YODOROGO
 10
29673.604341291921
 20
1771.749496429288
 30
0.0
 11
29765.604341291921
 21
1771.749496429288
 31
0.0
1001
AUTOCAD_POSTSCRIPT_FIGURE
1002
{
1000
PSFILL
1000
Grayscale
1000
Grayscale
1070
    25
1002
}
  0
ARC
  5
85514
  8
YODOROGO
 10
31059.517893357912
 20
1602.6807375155761
 30
0.0
 40
178.22128111072149
 50
281.02627495425361
 51
357.77113575573799
  0
LINE
  5
85515
  8
YODOROGO
 10
31413.604341291921
 20
1907.7494964292871
 30
0.0
 11
31165.604341291921
 21
1907.7494964292871
 31
0.0
  0
LINE
  5
85516
  8
YODOROGO
 10
31413.604341291921
 20
2027.749496429288
 30
0.0
 11
31165.604341291921
 21
2027.749496429288
 31
0.0
  0
LINE
  5
85517
  8
YODOROGO
 10
31165.604341291921
 20
1963.7494964292871
 30
0.0
 11
31413.604341291921
 21
1963.7494964292871
 31
0.0
  0
LINE
  5
85518
  8
YODOROGO
 10
30791.604341291921
 20
1563.7494964292871
 30
0.0
 11
30791.604341291921
 21
1755.7494964292871
 31
0.0
  0
LINE
  5
85519
  8
YODOROGO
 10
30763.604341291921
 20
1691.7494964292889
 30
0.0
 11
30763.604341291921
 21
1563.7494964292871
 31
0.0
  0
LINE
  5
8551A
  8
YODOROGO
 10
30723.604341291921
 20
1491.7494964292889
 30
0.0
 11
30723.604341291921
 21
1691.7494964292889
 31
0.0
  0
LINE
  5
8551B
  8
YODOROGO
 10
30899.604341291932
 20
1691.7494964292889
 30
0.0
 11
30899.604341291932
 21
1491.7494964292889
 31
0.0
  0
LINE
  5
8551C
  8
YODOROGO
 10
30859.604341291932
 20
1563.7494964292871
 30
0.0
 11
30859.604341291932
 21
1691.7494964292889
 31
0.0
  0
LINE
  5
8551D
  8
YODOROGO
 10
30831.604341291921
 20
1755.7494964292871
 30
0.0
 11
30831.604341291921
 21
1563.7494964292871
 31
0.0
  0
LINE
  5
8551E
  8
YODOROGO
 10
30973.604341291921
 20
2027.749496429288
 30
0.0
 11
30973.604341291921
 21
1467.749496429288
 31
0.0
  0
LINE
  5
8551F
  8
YODOROGO
 10
30645.604341291921
 20
1427.749496429288
 30
0.0
 11
30645.604341291921
 21
2027.749496429288
 31
0.0
  0
LINE
  5
85520
  8
YODOROGO
 10
30697.604341291932
 20
1963.7494964292871
 30
0.0
 11
30697.604341291932
 21
1427.749496429288
 31
0.0
  0
LINE
  5
85521
  8
YODOROGO
 10
30925.604341291921
 20
1547.749496429288
 30
0.0
 11
30925.604341291921
 21
1963.7494964292871
 31
0.0
  0
LINE
  5
85522
  8
YODOROGO
 10
30381.604341291932
 20
1627.749496429288
 30
0.0
 11
30381.604341291932
 21
1679.749496429288
 31
0.0
  0
LINE
  5
85523
  8
YODOROGO
 10
30617.604341291921
 20
1679.749496429288
 30
0.0
 11
30617.604341291921
 21
1627.749496429288
 31
0.0
  0
LINE
  5
85524
  8
YODOROGO
 10
31165.604341291921
 20
1907.7494964292871
 30
0.0
 11
31165.604341291921
 21
1635.7494964292871
 31
0.0
  0
LINE
  5
85525
  8
YODOROGO
 10
29949.604341291921
 20
1667.749496429288
 30
0.0
 11
29949.604341291921
 21
1707.749496429288
 31
0.0
  0
LINE
  5
85526
  8
YODOROGO
 10
29949.604341291921
 20
1667.749496429288
 30
0.0
 11
29949.604341291921
 21
1707.749496429288
 31
0.0
  0
ARC
  5
85527
  8
YODOROGO
 10
30537.604341291921
 20
1507.749496429288
 30
0.0
 40
80.0
 50
270.0
 51
0.0
  0
LINE
  5
85528
  8
YODOROGO
 10
30569.604341291921
 20
1599.749496429288
 30
0.0
 11
30617.604341291921
 21
1599.749496429288
 31
0.0
  0
LINE
  5
85529
  8
YODOROGO
 10
30617.604341291921
 20
1627.749496429288
 30
0.0
 11
30529.604341291932
 21
1627.749496429288
 31
0.0
  0
LINE
  5
8552A
  8
YODOROGO
 10
30217.604341291921
 20
1667.749496429288
 30
0.0
 11
29949.604341291921
 21
1667.749496429288
 31
0.0
  0
LINE
  5
8552B
  8
YODOROGO
 10
30217.604341291921
 20
1627.749496429288
 30
0.0
 11
30217.604341291921
 21
1667.749496429288
 31
0.0
  0
LINE
  5
8552C
  8
YODOROGO
 10
30017.604341291921
 20
1627.749496429288
 30
0.0
 11
30217.604341291921
 21
1627.749496429288
 31
0.0
  0
ARC
  5
8552D
  8
YODOROGO
 10
30230.058828701371
 20
1868.8857149529019
 30
0.0
 40
321.37763628522828
 50
228.6181454618993
 51
245.660289248906
  0
LINE
  5
8552E
  8
YODOROGO
 10
30105.604341291921
 20
1603.7494964292889
 30
0.0
 11
30097.604341291961
 21
1576.0728158699001
 31
0.0
  0
LINE
  5
8552F
  8
YODOROGO
 10
30189.604341291921
 20
1603.7494964292889
 30
0.0
 11
30105.604341291921
 21
1603.7494964292889
 31
0.0
  0
LINE
  5
85530
  8
YODOROGO
 10
30177.604341291921
 20
1551.817722473427
 30
0.0
 11
30189.604341291921
 21
1603.7494964292889
 31
0.0
  0
ARC
  5
85531
  8
YODOROGO
 10
30230.058828700461
 20
1868.8857149530029
 30
0.0
 40
321.37763628529092
 50
260.60629297969928
 51
267.77903556555862
  0
LINE
  5
85532
  8
YODOROGO
 10
30217.604341291921
 20
1427.749496429285
 30
0.0
 11
30217.604341291921
 21
1547.749496429288
 31
0.0
  0
LINE
  5
85533
  8
YODOROGO
 10
29937.604341291932
 20
1481.339334915511
 30
0.0
 11
29937.604341291921
 21
1594.531090531141
 31
0.0
  0
LINE
  5
85534
  8
YODOROGO
 10
30217.604341291921
 20
1667.749496429288
 30
0.0
 11
29949.604341291921
 21
1667.749496429288
 31
0.0
  0
LINE
  5
85535
  8
YODOROGO
 10
30217.604341291921
 20
1627.749496429288
 30
0.0
 11
30217.604341291921
 21
1667.749496429288
 31
0.0
  0
LINE
  5
85536
  8
YODOROGO
 10
30017.604341291921
 20
1627.749496429288
 30
0.0
 11
30217.604341291921
 21
1627.749496429288
 31
0.0
  0
ARC
  5
85537
  8
YODOROGO
 10
30230.058828701371
 20
1868.8857149529019
 30
0.0
 40
321.37763628522828
 50
228.6181454618993
 51
245.660289248906
  0
LINE
  5
85538
  8
YODOROGO
 10
30105.604341291921
 20
1603.7494964292889
 30
0.0
 11
30097.604341291961
 21
1576.0728158699001
 31
0.0
  0
LINE
  5
85539
  8
YODOROGO
 10
30189.604341291921
 20
1603.7494964292889
 30
0.0
 11
30105.604341291921
 21
1603.7494964292889
 31
0.0
  0
LINE
  5
8553A
  8
YODOROGO
 10
30177.604341291921
 20
1551.817722473427
 30
0.0
 11
30189.604341291921
 21
1603.7494964292889
 31
0.0
  0
ARC
  5
8553B
  8
YODOROGO
 10
30230.058828700461
 20
1868.8857149530029
 30
0.0
 40
321.37763628529092
 50
260.60629297969928
 51
267.77903556555862
  0
LINE
  5
8553C
  8
YODOROGO
 10
30217.604341291921
 20
1427.749496429285
 30
0.0
 11
30217.604341291921
 21
1547.749496429288
 31
0.0
  0
LINE
  5
8553D
  8
YODOROGO
 10
29937.604341291932
 20
1481.339334915511
 30
0.0
 11
29937.604341291921
 21
1594.531090531141
 31
0.0
  0
LINE
  5
8553E
  8
YODOROGO
 10
30433.604341291932
 20
1573.7494964292889
 30
0.0
 11
30381.604341291932
 21
1573.7494964292889
 31
0.0
  0
LINE
  5
8553F
  8
YODOROGO
 10
30433.604341291932
 20
1601.749496429286
 30
0.0
 11
30433.604341291932
 21
1573.7494964292889
 31
0.0
  0
LINE
  5
85540
  8
YODOROGO
 10
30381.604341291932
 20
1601.749496429286
 30
0.0
 11
30433.604341291932
 21
1601.749496429286
 31
0.0
  0
LINE
  5
85541
  8
YODOROGO
 10
30381.604341291932
 20
1573.7494964292889
 30
0.0
 11
30381.604341291932
 21
1601.749496429286
 31
0.0
  0
LINE
  5
85542
  8
YODOROGO
 10
30429.604341291921
 20
1577.7494964292871
 30
0.0
 11
30385.604341291932
 21
1577.7494964292871
 31
0.0
  0
LINE
  5
85543
  8
YODOROGO
 10
30429.604341291921
 20
1597.749496429288
 30
0.0
 11
30429.604341291921
 21
1577.7494964292871
 31
0.0
  0
LINE
  5
85544
  8
YODOROGO
 10
30385.604341291932
 20
1597.749496429288
 30
0.0
 11
30429.604341291921
 21
1597.749496429288
 31
0.0
  0
LINE
  5
85545
  8
YODOROGO
 10
30385.604341291932
 20
1577.7494964292871
 30
0.0
 11
30385.604341291932
 21
1597.749496429288
 31
0.0
  0
LINE
  5
85546
  8
YODOROGO
 10
30425.604341291921
 20
1581.749496429286
 30
0.0
 11
30389.604341291932
 21
1581.749496429286
 31
0.0
  0
LINE
  5
85547
  8
YODOROGO
 10
30425.604341291932
 20
1593.7494964292889
 30
0.0
 11
30425.604341291921
 21
1581.749496429286
 31
0.0
  0
LINE
  5
85548
  8
YODOROGO
 10
30389.604341291932
 20
1593.7494964292889
 30
0.0
 11
30425.604341291932
 21
1593.7494964292889
 31
0.0
  0
LINE
  5
85549
  8
YODOROGO
 10
30389.604341291932
 20
1581.749496429286
 30
0.0
 11
30389.604341291932
 21
1593.7494964292889
 31
0.0
  0
LINE
  5
8554A
  8
YODOROGO
 10
30421.604341291932
 20
1585.7494964292871
 30
0.0
 11
30393.604341291932
 21
1585.7494964292871
 31
0.0
  0
LINE
  5
8554B
  8
YODOROGO
 10
30421.604341291932
 20
1589.749496429288
 30
0.0
 11
30421.604341291932
 21
1585.7494964292871
 31
0.0
  0
LINE
  5
8554C
  8
YODOROGO
 10
30393.604341291932
 20
1589.749496429288
 30
0.0
 11
30421.604341291932
 21
1589.749496429288
 31
0.0
  0
LINE
  5
8554D
  8
YODOROGO
 10
30393.604341291932
 20
1585.7494964292871
 30
0.0
 11
30393.604341291932
 21
1589.749496429288
 31
0.0
  0
LINE
  5
8554E
  8
YODOROGO
 10
30465.604341291921
 20
1627.749496429288
 30
0.0
 11
30381.604341291932
 21
1627.749496429288
 31
0.0
  0
LINE
  5
8554F
  8
YODOROGO
 10
30465.604341291921
 20
1547.749496429288
 30
0.0
 11
30465.604341291921
 21
1627.749496429288
 31
0.0
  0
LINE
  5
85550
  8
YODOROGO
 10
30381.604341291932
 20
1547.749496429288
 30
0.0
 11
30465.604341291921
 21
1547.749496429288
 31
0.0
  0
LINE
  5
85551
  8
YODOROGO
 10
30381.604341291932
 20
1427.749496429288
 30
0.0
 11
30381.604341291932
 21
1547.749496429288
 31
0.0
  0
LINE
  5
85552
  8
YODOROGO
 10
30537.604341291921
 20
1427.749496429288
 30
0.0
 11
30381.604341291932
 21
1427.749496429288
 31
0.0
  0
LINE
  5
85553
  8
YODOROGO
 10
30569.604341291921
 20
1571.749496429286
 30
0.0
 11
30569.604341291921
 21
1599.749496429288
 31
0.0
  0
ARC
  5
85554
  8
YODOROGO
 10
30545.60434129191
 20
1571.749496429291
 30
0.0
 40
24.000000000003752
 50
270.0
 51
359.99999999998778
  0
LINE
  5
85555
  8
YODOROGO
 10
30529.604341291932
 20
1547.749496429288
 30
0.0
 11
30545.60434129191
 21
1547.749496429288
 31
0.0
  0
LINE
  5
85556
  8
YODOROGO
 10
30529.604341291932
 20
1627.749496429288
 30
0.0
 11
30529.604341291932
 21
1547.749496429288
 31
0.0
  0
LINE
  5
85557
  8
YODOROGO
 10
30899.604341291932
 20
1547.749496429288
 30
0.0
 11
30925.604341291921
 21
1547.749496429288
 31
0.0
  0
LINE
  5
85558
  8
YODOROGO
 10
30933.604341291921
 20
1427.749496429288
 30
0.0
 11
30899.604341291932
 21
1427.749496429288
 31
0.0
  0
LINE
  5
85559
  8
YODOROGO
 10
30763.604341291921
 20
1563.7494964292871
 30
0.0
 11
30791.604341291921
 21
1563.7494964292871
 31
0.0
  0
LINE
  5
8555A
  8
YODOROGO
 10
30899.604341291932
 20
1491.7494964292889
 30
0.0
 11
30723.604341291921
 21
1491.7494964292889
 31
0.0
  0
LINE
  5
8555B
  8
YODOROGO
 10
30831.604341291921
 20
1563.7494964292871
 30
0.0
 11
30859.604341291932
 21
1563.7494964292871
 31
0.0
  0
LINE
  5
8555C
  8
YODOROGO
 10
30899.604341291932
 20
1427.749496429288
 30
0.0
 11
30899.604341291932
 21
1547.749496429288
 31
0.0
  0
LINE
  5
8555D
  8
YODOROGO
 10
30697.604341291932
 20
1427.749496429288
 30
0.0
 11
30645.604341291921
 21
1427.749496429288
 31
0.0
  0
LINE
  5
8555E
  8
YODOROGO
 10
30617.604341291921
 20
1599.749496429288
 30
0.0
 11
30617.604341291921
 21
1507.749496429288
 31
0.0
  0
ARC
  5
8555F
  8
YODOROGO
 10
30933.604341291921
 20
1467.749496429288
 30
0.0
 40
40.0
 50
270.0
 51
0.0
  0
LINE
  5
85560
  8
YODOROGO
 10
31093.604341291921
 20
1523.7494964292871
 30
0.0
 11
31093.604341291921
 21
1427.749496429288
 31
0.0
  0
ARC
  5
85561
  8
YODOROGO
 10
31039.721395566779
 20
1637.5313901097329
 30
0.0
 40
125.8955565916754
 50
295.34052442160112
 51
359.18902303418668
  0
LINE
  5
85562
  8
YODOROGO
 10
30617.604341291921
 20
1859.749496429288
 30
0.0
 11
30497.604341291921
 21
1939.749496429288
 31
0.0
  0
LINE
  5
85563
  8
YODOROGO
 10
30497.604341291921
 20
2027.749496429288
 30
0.0
 11
30617.604341291921
 21
1947.749496429288
 31
0.0
  0
LINE
  5
85564
  8
YODOROGO
 10
30529.604341291932
 20
1679.749496429288
 30
0.0
 11
30617.604341291921
 21
1679.749496429288
 31
0.0
  0
LINE
  5
85565
  8
YODOROGO
 10
30617.604341291921
 20
1735.7494964292871
 30
0.0
 11
30529.604341291932
 21
1735.7494964292871
 31
0.0
  0
LINE
  5
85566
  8
YODOROGO
 10
30381.604341291932
 20
1795.7494964292871
 30
0.0
 11
30617.604341291921
 21
1795.7494964292871
 31
0.0
  0
LINE
  5
85567
  8
YODOROGO
 10
30081.604341291932
 20
2027.749496429288
 30
0.0
 11
30021.604341291921
 21
2027.749496429288
 31
0.0
  0
LINE
  5
85568
  8
YODOROGO
 10
30081.604341291932
 20
1827.7494964292871
 30
0.0
 11
30081.604341291932
 21
2027.749496429288
 31
0.0
  0
LINE
  5
85569
  8
YODOROGO
 10
30021.604341291921
 20
1827.7494964292871
 30
0.0
 11
30081.604341291932
 21
1827.7494964292871
 31
0.0
  0
LINE
  5
8556A
  8
YODOROGO
 10
30021.604341291921
 20
2027.749496429288
 30
0.0
 11
30021.604341291921
 21
1827.7494964292871
 31
0.0
  0
LINE
  5
8556B
  8
YODOROGO
 10
30161.604341291932
 20
2027.749496429288
 30
0.0
 11
30217.604341291921
 21
2027.749496429288
 31
0.0
  0
LINE
  5
8556C
  8
YODOROGO
 10
30161.604341291932
 20
1811.7494964292889
 30
0.0
 11
30161.604341291932
 21
2027.749496429288
 31
0.0
  0
ARC
  5
8556D
  8
YODOROGO
 10
30121.604341291932
 20
1811.7494964292889
 30
0.0
 40
40.0
 50
270.0
 51
0.0
  0
LINE
  5
8556E
  8
YODOROGO
 10
30021.604341291921
 20
1771.749496429288
 30
0.0
 11
30121.604341291932
 21
1771.749496429288
 31
0.0
  0
LINE
  5
8556F
  8
YODOROGO
 10
30021.604341291921
 20
1707.749496429288
 30
0.0
 11
30021.604341291921
 21
1771.749496429288
 31
0.0
  0
LINE
  5
85570
  8
YODOROGO
 10
30137.604341291921
 20
1707.749496429288
 30
0.0
 11
30021.604341291921
 21
1707.749496429288
 31
0.0
  0
ARC
  5
85571
  8
YODOROGO
 10
30137.604341291921
 20
1787.749496429288
 30
0.0
 40
80.0
 50
270.0
 51
0.0
  0
LINE
  5
85572
  8
YODOROGO
 10
30217.604341291921
 20
2027.749496429288
 30
0.0
 11
30217.604341291921
 21
1787.749496429288
 31
0.0
  0
LINE
  5
85573
  8
YODOROGO
 10
29977.604341291921
 20
1947.749496429288
 30
0.0
 11
29977.604341291921
 21
1995.7494964292871
 31
0.0
1001
AUTOCAD_POSTSCRIPT_FIGURE
1002
{
1000
PSFILL
1000
Grayscale
1000
Grayscale
1070
    25
1002
}
  0
LINE
  5
85574
  8
YODOROGO
 10
29977.604341291921
 20
1859.749496429288
 30
0.0
 11
29977.604341291921
 21
1907.7494964292871
 31
0.0
1001
AUTOCAD_POSTSCRIPT_FIGURE
1002
{
1000
PSFILL
1000
Grayscale
1000
Grayscale
1070
    25
1002
}
  0
LINE
  5
85575
  8
YODOROGO
 10
29977.604341291921
 20
1707.749496429288
 30
0.0
 11
29977.604341291921
 21
1819.749496429288
 31
0.0
1001
AUTOCAD_POSTSCRIPT_FIGURE
1002
{
1000
PSFILL
1000
Grayscale
1000
Grayscale
1070
    25
1002
}
  0
LINE
  5
85576
  8
YODOROGO
 10
30381.604341291932
 20
1907.7494964292871
 30
0.0
 11
30497.604341291921
 21
2027.749496429288
 31
0.0
  0
LINE
  5
85577
  8
YODOROGO
 10
30381.604341291932
 20
1819.749496429288
 30
0.0
 11
30381.604341291932
 21
1907.7494964292871
 31
0.0
  0
LINE
  5
85578
  8
YODOROGO
 10
30497.604341291921
 20
1939.749496429288
 30
0.0
 11
30381.604341291932
 21
1819.749496429288
 31
0.0
  0
LINE
  5
85579
  8
YODOROGO
 10
30465.604341291921
 20
1679.749496429288
 30
0.0
 11
30465.604341291921
 21
1735.7494964292871
 31
0.0
  0
LINE
  5
8557A
  8
YODOROGO
 10
30381.604341291932
 20
1679.749496429288
 30
0.0
 11
30465.604341291921
 21
1679.749496429288
 31
0.0
  0
LINE
  5
8557B
  8
YODOROGO
 10
30529.604341291932
 20
1735.7494964292871
 30
0.0
 11
30529.604341291932
 21
1679.749496429288
 31
0.0
  0
LINE
  5
8557C
  8
YODOROGO
 10
30381.604341291932
 20
1735.7494964292871
 30
0.0
 11
30381.604341291932
 21
1795.7494964292871
 31
0.0
  0
LINE
  5
8557D
  8
YODOROGO
 10
30465.604341291921
 20
1735.7494964292871
 30
0.0
 11
30381.604341291932
 21
1735.7494964292871
 31
0.0
  0
LINE
  5
8557E
  8
YODOROGO
 10
30645.604341291921
 20
2027.749496429288
 30
0.0
 11
30973.604341291921
 21
2027.749496429288
 31
0.0
  0
LINE
  5
8557F
  8
YODOROGO
 10
30925.604341291921
 20
1963.7494964292871
 30
0.0
 11
30697.604341291932
 21
1963.7494964292871
 31
0.0
  0
LINE
  5
85580
  8
YODOROGO
 10
30873.604341291921
 20
1819.749496429288
 30
0.0
 11
30899.604341291932
 21
1819.749496429288
 31
0.0
  0
LINE
  5
85581
  8
YODOROGO
 10
30899.604341291932
 20
1939.749496429288
 30
0.0
 11
30873.604341291921
 21
1819.749496429288
 31
0.0
  0
LINE
  5
85582
  8
YODOROGO
 10
30851.604341291932
 20
1939.749496429288
 30
0.0
 11
30899.604341291932
 21
1939.749496429288
 31
0.0
  0
LINE
  5
85583
  8
YODOROGO
 10
30825.604341291921
 20
1819.749496429288
 30
0.0
 11
30851.604341291932
 21
1939.749496429288
 31
0.0
  0
LINE
  5
85584
  8
YODOROGO
 10
30797.604341291921
 20
1819.749496429288
 30
0.0
 11
30825.604341291921
 21
1819.749496429288
 31
0.0
  0
LINE
  5
85585
  8
YODOROGO
 10
30771.604341291932
 20
1939.749496429288
 30
0.0
 11
30797.604341291921
 21
1819.749496429288
 31
0.0
  0
LINE
  5
85586
  8
YODOROGO
 10
30723.604341291921
 20
1939.749496429288
 30
0.0
 11
30771.604341291932
 21
1939.749496429288
 31
0.0
  0
LINE
  5
85587
  8
YODOROGO
 10
30749.604341291921
 20
1819.749496429288
 30
0.0
 11
30723.604341291921
 21
1939.749496429288
 31
0.0
  0
LINE
  5
85588
  8
YODOROGO
 10
30723.604341291921
 20
1819.749496429288
 30
0.0
 11
30749.604341291921
 21
1819.749496429288
 31
0.0
  0
LINE
  5
85589
  8
YODOROGO
 10
30723.604341291921
 20
1755.7494964292871
 30
0.0
 11
30723.604341291921
 21
1819.749496429288
 31
0.0
  0
LINE
  5
8558A
  8
YODOROGO
 10
30899.604341291932
 20
1755.7494964292871
 30
0.0
 11
30723.604341291921
 21
1755.7494964292871
 31
0.0
  0
LINE
  5
8558B
  8
YODOROGO
 10
30899.604341291932
 20
1819.749496429288
 30
0.0
 11
30899.604341291932
 21
1755.7494964292871
 31
0.0
  0
LINE
  5
8558C
  8
YODOROGO
 10
30617.604341291921
 20
1947.749496429288
 30
0.0
 11
30617.604341291921
 21
1859.749496429288
 31
0.0
  0
LINE
  5
8558D
  8
YODOROGO
 10
30791.604341291921
 20
1755.7494964292871
 30
0.0
 11
30831.604341291921
 21
1755.7494964292871
 31
0.0
  0
LINE
  5
8558E
  8
YODOROGO
 10
30723.604341291921
 20
1691.7494964292889
 30
0.0
 11
30763.604341291921
 21
1691.7494964292889
 31
0.0
  0
LINE
  5
8558F
  8
YODOROGO
 10
30859.604341291932
 20
1691.7494964292889
 30
0.0
 11
30899.604341291932
 21
1691.7494964292889
 31
0.0
  0
LINE
  5
85590
  8
YODOROGO
 10
30617.604341291921
 20
1795.7494964292871
 30
0.0
 11
30617.604341291921
 21
1735.7494964292871
 31
0.0
  0
LINE
  5
85591
  8
YODOROGO
 10
31165.604341291921
 20
2027.749496429288
 30
0.0
 11
31165.604341291921
 21
1963.7494964292871
 31
0.0
  0
LINE
  5
85592
  8
YODOROGO
 10
31533.604341291921
 20
1595.7494964292871
 30
0.0
 11
31533.60434129191
 21
1811.7494964292889
 31
0.0
  0
LINE
  5
85593
  8
YODOROGO
 10
31461.60434129191
 20
1987.749496429288
 30
0.0
 11
31461.60434129191
 21
1635.7494964292871
 31
0.0
  0
LINE
  5
85594
  8
YODOROGO
 10
31653.604341291921
 20
1427.749496429288
 30
0.0
 11
31653.60434129191
 21
1811.7494964292889
 31
0.0
  0
LINE
  5
85595
  8
YODOROGO
 10
31589.604341291921
 20
1811.7494964292889
 30
0.0
 11
31589.604341291921
 21
1427.749496429288
 31
0.0
  0
LINE
  5
85596
  8
YODOROGO
 10
31237.604341291921
 20
1595.7494964292871
 30
0.0
 11
31237.604341291921
 21
1707.749496429288
 31
0.0
  0
ARC
  5
85597
  8
YODOROGO
 10
31353.914865116069
 20
1607.790351288558
 30
0.0
 40
180.09244857598861
 50
268.62849102169793
 51
356.16638457330322
  0
LINE
  5
85598
  8
YODOROGO
 10
31349.604341291932
 20
1527.749496429288
 30
0.0
 11
31349.604341291932
 21
1427.749496429288
 31
0.0
  0
ARC
  5
85599
  8
YODOROGO
 10
31351.518075724562
 20
1637.838957017655
 30
0.0
 40
110.1060929836122
 50
269.00410209305937
 51
358.91264455492478
  0
LINE
  5
8559A
  8
YODOROGO
 10
31589.604341291921
 20
1427.749496429288
 30
0.0
 11
31653.604341291921
 21
1427.749496429288
 31
0.0
  0
LINE
  5
8559B
  8
YODOROGO
 10
31533.60434129191
 20
1811.7494964292889
 30
0.0
 11
31589.604341291921
 21
1811.7494964292889
 31
0.0
  0
LINE
  5
8559C
  8
YODOROGO
 10
31621.604341291932
 20
1987.749496429288
 30
0.0
 11
31461.60434129191
 21
1987.749496429288
 31
0.0
  0
LINE
  5
8559D
  8
YODOROGO
 10
31533.60434129191
 20
1915.7494964292871
 30
0.0
 11
31661.604341291932
 21
1915.7494964292871
 31
0.0
  0
LINE
  5
8559E
  8
YODOROGO
 10
31701.604341291932
 20
1875.7494964292871
 30
0.0
 11
31533.60434129191
 21
1875.7494964292871
 31
0.0
  0
LINE
  5
8559F
  8
YODOROGO
 10
31237.604341291921
 20
1779.749496429288
 30
0.0
 11
31349.604341291932
 21
1779.749496429288
 31
0.0
  0
LINE
  5
855A0
  8
YODOROGO
 10
31237.604341291921
 20
1835.7494964292871
 30
0.0
 11
31237.604341291921
 21
1779.749496429288
 31
0.0
  0
LINE
  5
855A1
  8
YODOROGO
 10
31349.604341291932
 20
1835.7494964292871
 30
0.0
 11
31237.604341291921
 21
1835.7494964292871
 31
0.0
  0
LINE
  5
855A2
  8
YODOROGO
 10
31349.604341291932
 20
1779.749496429288
 30
0.0
 11
31349.604341291932
 21
1835.7494964292871
 31
0.0
  0
LINE
  5
855A3
  8
YODOROGO
 10
31533.60434129191
 20
1875.7494964292871
 30
0.0
 11
31533.60434129191
 21
1915.7494964292871
 31
0.0
  0
LINE
  5
855A4
  8
YODOROGO
 10
31413.604341291921
 20
1707.749496429288
 30
0.0
 11
31413.604341291921
 21
1907.7494964292871
 31
0.0
  0
LINE
  5
855A5
  8
YODOROGO
 10
31237.604341291921
 20
1707.749496429288
 30
0.0
 11
31413.604341291921
 21
1707.749496429288
 31
0.0
  0
LINE
  5
855A6
  8
YODOROGO
 10
31413.604341291921
 20
1963.7494964292871
 30
0.0
 11
31413.604341291921
 21
2027.749496429288
 31
0.0
  0
ARC
  5
855A7
  8
YODOROGO
 10
31621.604341291932
 20
2003.749496429285
 30
0.0
 40
15.999999999994539
 50
270.0
 51
0.0000000000081422
  0
LINE
  5
855A8
  8
YODOROGO
 10
31637.604341291921
 20
2027.749496429288
 30
0.0
 11
31637.604341291921
 21
2003.7494964292871
 31
0.0
  0
LINE
  5
855A9
  8
YODOROGO
 10
31701.604341291932
 20
2027.749496429288
 30
0.0
 11
31637.604341291921
 21
2027.749496429288
 31
0.0
  0
LINE
  5
855AA
  8
YODOROGO
 10
31701.604341291932
 20
1955.7494964292871
 30
0.0
 11
31701.604341291932
 21
2027.749496429288
 31
0.0
  0
ARC
  5
855AB
  8
YODOROGO
 10
31661.604341291932
 20
1955.7494964292871
 30
0.0
 40
40.0
 50
270.0
 51
0.0
  0
LINE
  5
855AC
  8
YODOROGO
 10
31701.604341291932
 20
1811.7494964292889
 30
0.0
 11
31701.604341291932
 21
1875.7494964292871
 31
0.0
  0
LINE
  5
855AD
  8
YODOROGO
 10
31653.60434129191
 20
1811.7494964292889
 30
0.0
 11
31701.604341291932
 21
1811.7494964292889
 31
0.0
  0
LINE
  5
855AE
  8
SUNPOU
 10
22458.49999999992
 20
15838.121500361291
 30
0.0
 11
22458.49999999992
 21
15038.121500361291
 31
0.0
  0
LINE
  5
855AF
  8
SUNPOU
 10
25173.499999999982
 20
15838.121500361291
 30
0.0
 11
25173.499999999982
 21
15038.121500361291
 31
0.0
  0
LINE
  5
855B0
  8
SUNPOU
 10
22498.49999999992
 20
15118.121500361291
 30
0.0
 11
25133.499999999982
 21
15118.121500361291
 31
0.0
  0
LINE
  5
855B4
  8
SUNPOU
 10
25455.999999999989
 20
19174.40624389959
 30
0.0
 11
27272.205422612849
 21
19174.40624389959
 31
0.0
  0
LINE
  5
855B5
  8
SUNPOU
 10
25420.999999999989
 20
16318.12150036132
 30
0.0
 11
27272.205422612849
 21
16318.12150036132
 31
0.0
  0
LINE
  5
855B6
  8
SUNPOU
 10
27192.205422612849
 20
19134.40624389959
 30
0.0
 11
27192.205422612849
 21
16358.12150036132
 31
0.0
  0
LINE
  5
855BA
  8
SUNPOU
 10
25420.999999999989
 20
16318.12150036132
 30
0.0
 11
26232.38710666354
 21
16318.12150036132
 31
0.0
  0
LINE
  5
855BB
  8
SUNPOU
 10
25252.999999999931
 20
18893.12150036134
 30
0.0
 11
26232.38710666354
 21
18893.12150036134
 31
0.0
  0
LINE
  5
855BC
  8
SUNPOU
 10
26152.38710666354
 20
16358.12150036132
 30
0.0
 11
26152.38710666354
 21
18853.121500361351
 31
0.0
  0
LINE
  5
855C0
  8
SUNPOU
 10
16858.500000000018
 20
15838.12150036132
 30
0.0
 11
16858.500000000018
 21
15038.12150036132
 31
0.0
  0
LINE
  5
855C1
  8
SUNPOU
 10
22373.499999999989
 20
15838.121500361291
 30
0.0
 11
22373.499999999989
 21
15038.12150036132
 31
0.0
  0
LINE
  5
855C2
  8
SUNPOU
 10
16898.500000000018
 20
15118.12150036132
 30
0.0
 11
22333.499999999989
 21
15118.12150036132
 31
0.0
  0
LINE
  5
855C6
  8
SUNPOU
 10
14058.499999999911
 20
15838.121500361291
 30
0.0
 11
14058.499999999911
 21
15038.121500361291
 31
0.0
  0
LINE
  5
855C7
  8
SUNPOU
 10
16773.499999999971
 20
15838.121500361291
 30
0.0
 11
16773.499999999971
 21
15038.121500361291
 31
0.0
  0
LINE
  5
855C8
  8
SUNPOU
 10
14098.499999999911
 20
15118.121500361291
 30
0.0
 11
16733.499999999971
 21
15118.121500361291
 31
0.0
  0
LINE
  5
855CC
  8
SUNPOU
 10
8458.5000000000109
 20
15838.12150036132
 30
0.0
 11
8458.5000000000109
 21
15038.12150036132
 31
0.0
  0
LINE
  5
855CD
  8
SUNPOU
 10
13973.49999999998
 20
15838.121500361291
 30
0.0
 11
13973.49999999998
 21
15038.12150036132
 31
0.0
  0
LINE
  5
855CE
  8
SUNPOU
 10
8498.5000000000127
 20
15118.12150036132
 30
0.0
 11
13933.49999999998
 21
15118.12150036132
 31
0.0
  0
LINE
  5
855D3
  8
SUNPOU
 10
22057.999999999949
 20
15518.121500361291
 30
0.0
 11
22027.99999999996
 21
15518.121500361291
 31
0.0
  0
LINE
  5
855D5
  8
SUNPOU
 10
16951.99999999996
 20
15518.121500361291
 30
0.0
 11
16981.999999999949
 21
15518.121500361291
 31
0.0
  0
LINE
  5
855D7
  8
SUNPOU
 10
13657.999999999951
 20
15518.121500361291
 30
0.0
 11
13627.99999999996
 21
15518.121500361291
 31
0.0
  0
LINE
  5
855D9
  8
SUNPOU
 10
8551.9999999999563
 20
15518.121500361291
 30
0.0
 11
8581.9999999999563
 21
15518.121500361291
 31
0.0
  0
LINE
  5
855DB
  8
SUNPOU
 10
8445.9999999999818
 20
14718.121500361291
 30
0.0
 11
8475.9999999999836
 21
14718.121500361291
 31
0.0
  0
LINE
  5
855DD
  8
SUNPOU
 10
8385.9999999999818
 20
14718.121500361291
 30
0.0
 11
8355.9999999999818
 21
14718.121500361291
 31
0.0
  0
LINE
  5
855DF
  8
SUNPOU
 10
7090.9999999999827
 20
16348.1215003613
 30
0.0
 11
7090.9999999999827
 21
16378.1215003613
 31
0.0
  0
LINE
  5
855E1
  8
SUNPOU
 10
8320.9999999999818
 20
14718.121500361291
 30
0.0
 11
8350.9999999999836
 21
14718.121500361291
 31
0.0
  0
LINE
  5
855E3
  8
SUNPOU
 10
8320.9999999999818
 20
14318.121500361291
 30
0.0
 11
8350.9999999999836
 21
14318.121500361291
 31
0.0
  0
LINE
  5
855E5
  8
SUNPOU
 10
7490.9999999999818
 20
16348.121500361291
 30
0.0
 11
7490.9999999999818
 21
16378.121500361291
 31
0.0
  0
LINE
  5
855E7
  8
SUNPOU
 10
7090.9999999999827
 20
19568.121500361289
 30
0.0
 11
7090.9999999999827
 21
19538.121500361289
 31
0.0
  0
LINE
  5
855E9
  8
SUNPOU
 10
7490.9999999999818
 20
18958.121500361289
 30
0.0
 11
7490.9999999999818
 21
18928.121500361289
 31
0.0
  0
LINE
  5
855EB
  8
SUNPOU
 10
8320.9999999999818
 20
20398.121500361289
 30
0.0
 11
8350.9999999999836
 21
20398.121500361289
 31
0.0
  0
LINE
  5
855ED
  8
SUNPOU
 10
8205.9999999999818
 20
20398.121500361289
 30
0.0
 11
8175.9999999999818
 21
20398.121500361289
 31
0.0
  0
LINE
  5
855EF
  8
SUNPOU
 10
8285.9999999999818
 20
20798.121500361289
 30
0.0
 11
8315.9999999999818
 21
20798.121500361289
 31
0.0
  0
LINE
  5
855F1
  8
SUNPOU
 10
14152.0
 20
15518.121500361291
 30
0.0
 11
14182.0
 21
15518.121500361291
 31
0.0
  0
LINE
  5
855F3
  8
SUNPOU
 10
16680.000000000029
 20
15518.121500361291
 30
0.0
 11
16650.000000000029
 21
15518.121500361291
 31
0.0
  0
LINE
  5
855F5
  8
SUNPOU
 10
11185.99999999998
 20
14718.121500361291
 30
0.0
 11
11155.99999999998
 21
14718.121500361291
 31
0.0
  0
LINE
  5
855F7
  8
SUNPOU
 10
11245.99999999998
 20
14718.121500361291
 30
0.0
 11
11275.99999999998
 21
14718.121500361291
 31
0.0
  0
LINE
  5
855F9
  8
SUNPOU
 10
14045.99999999998
 20
14718.121500361291
 30
0.0
 11
14075.99999999998
 21
14718.121500361291
 31
0.0
  0
LINE
  5
855FB
  8
SUNPOU
 10
13985.99999999998
 20
14718.121500361291
 30
0.0
 11
13955.99999999998
 21
14718.121500361291
 31
0.0
  0
LINE
  5
855FD
  8
SUNPOU
 10
13985.99999999998
 20
14718.121500361291
 30
0.0
 11
13955.99999999998
 21
14718.121500361291
 31
0.0
  0
LINE
  5
855FF
  8
SUNPOU
 10
25310.999999999989
 20
14718.121500361291
 30
0.0
 11
25280.999999999982
 21
14718.121500361291
 31
0.0
  0
LINE
  5
85601
  8
SUNPOU
 10
25310.999999999989
 20
14318.121500361291
 30
0.0
 11
25280.999999999982
 21
14318.121500361291
 31
0.0
  0
LINE
  5
85603
  8
SUNPOU
 10
16785.999999999982
 20
14718.121500361291
 30
0.0
 11
16755.999999999982
 21
14718.121500361291
 31
0.0
  0
LINE
  5
85605
  8
SUNPOU
 10
16785.999999999982
 20
14718.121500361291
 30
0.0
 11
16755.999999999982
 21
14718.121500361291
 31
0.0
  0
LINE
  5
85607
  8
SUNPOU
 10
25310.999999999989
 20
20398.121500361289
 30
0.0
 11
25280.999999999982
 21
20398.121500361289
 31
0.0
  0
LINE
  5
85609
  8
SUNPOU
 10
25425.999999999989
 20
20398.121500361289
 30
0.0
 11
25455.999999999982
 21
20398.121500361289
 31
0.0
  0
LINE
  5
8560B
  8
SUNPOU
 10
25345.999999999989
 20
20798.121500361289
 30
0.0
 11
25315.999999999989
 21
20798.121500361289
 31
0.0
  0
LINE
  5
8560D
  8
SUNPOU
 10
16845.999999999982
 20
14718.121500361291
 30
0.0
 11
16875.999999999982
 21
14718.121500361291
 31
0.0
  0
LINE
  5
8560F
  8
SUNPOU
 10
25185.999999999989
 20
14718.121500361291
 30
0.0
 11
25155.999999999989
 21
14718.121500361291
 31
0.0
  0
LINE
  5
85611
  8
SUNPOU
 10
25185.999999999989
 20
14718.121500361291
 30
0.0
 11
25155.999999999989
 21
14718.121500361291
 31
0.0
  0
LINE
  5
85613
  8
SUNPOU
 10
22385.999999999989
 20
14718.121500361291
 30
0.0
 11
22355.999999999982
 21
14718.121500361291
 31
0.0
  0
LINE
  5
85615
  8
SUNPOU
 10
22385.999999999989
 20
14718.121500361291
 30
0.0
 11
22355.999999999982
 21
14718.121500361291
 31
0.0
  0
LINE
  5
85617
  8
SUNPOU
 10
22445.999999999989
 20
14718.121500361291
 30
0.0
 11
22475.999999999982
 21
14718.121500361291
 31
0.0
  0
LINE
  5
85619
  8
SUNPOU
 10
19645.999999999982
 20
14718.121500361291
 30
0.0
 11
19675.999999999982
 21
14718.121500361291
 31
0.0
  0
LINE
  5
8561B
  8
SUNPOU
 10
19585.999999999982
 20
14718.121500361291
 30
0.0
 11
19555.999999999982
 21
14718.121500361291
 31
0.0
  0
LINE
  5
8561D
  8
SUNPOU
 10
22552.0
 20
15518.121500361291
 30
0.0
 11
22582.0
 21
15518.121500361291
 31
0.0
  0
LINE
  5
8561F
  8
SUNPOU
 10
25080.000000000029
 20
15518.121500361291
 30
0.0
 11
25050.000000000029
 21
15518.121500361291
 31
0.0
  0
LINE
  5
85620
  8
SUNPOU
 10
19859.999999999942
 20
6385.2917521017816
 30
0.0
 11
21121.387106663489
 21
6385.2917521017816
 31
0.0
  0
LINE
  5
85621
  8
SUNPOU
 10
19691.999999999891
 20
8960.2917521018098
 30
0.0
 11
21121.3871066635
 21
8960.291752101808
 31
0.0
  0
LINE
  5
85622
  8
SUNPOU
 10
21041.3871066635
 20
6425.2917521017816
 30
0.0
 11
21041.3871066635
 21
8920.2917521018098
 31
0.0
  0
LINE
  5
85626
  8
SUNPOU
 10
16954.268210725339
 20
9372.2466996605654
 30
0.0
 11
18694.503844154951
 21
9372.2466996605654
 31
0.0
  0
LINE
  5
85627
  8
SUNPOU
 10
17015.999999999942
 20
6385.2917521017816
 30
0.0
 11
18694.50384415494
 21
6385.2917521017807
 31
0.0
  0
LINE
  5
85628
  8
SUNPOU
 10
18614.50384415494
 20
9332.2466996605654
 30
0.0
 11
18614.50384415494
 21
6425.2917521017807
 31
0.0
  0
LINE
  5
8562C
  8
SUNPOU
 10
16861.733969015339
 20
9452.5517371573842
 30
0.0
 11
16888.143873135861
 21
10623.60767065668
 31
0.0
  0
LINE
  5
8562D
  8
SUNPOU
 10
22670.280187468728
 20
9321.5561593026396
 30
0.0
 11
22696.690091589251
 21
10492.61209280193
 31
0.0
  0
LINE
  5
8562E
  8
SUNPOU
 10
16926.329986469598
 20
10542.726147745319
 30
0.0
 11
22654.896541260401
 21
10413.53428838812
 31
0.0
  0
LINE
  5
85632
  8
SUNPOU
 10
22748.476468971181
 20
9241.5764956400435
 30
0.0
 11
23292.442872043419
 21
9241.5764956400435
 31
0.0
  0
LINE
  5
85633
  8
SUNPOU
 10
17015.999999999942
 20
6385.2917521017816
 30
0.0
 11
23292.442872043412
 21
6385.2917521017798
 31
0.0
  0
LINE
  5
85634
  8
SUNPOU
 10
23212.442872043419
 20
9201.5764956400453
 30
0.0
 11
23212.442872043412
 21
6425.2917521017789
 31
0.0
  0
LINE
  5
85638
  8
SUNPOU
 10
22358.499999999949
 20
5405.2917521017807
 30
0.0
 11
22358.499999999949
 21
4605.2917521017807
 31
0.0
  0
LINE
  5
85639
  8
SUNPOU
 10
16858.499999999942
 20
6305.2917521017825
 30
0.0
 11
16858.499999999942
 21
4605.2917521017807
 31
0.0
  0
LINE
  5
8563A
  8
SUNPOU
 10
22318.499999999949
 20
4685.2917521017816
 30
0.0
 11
16898.499999999942
 21
4685.2917521017816
 31
0.0
  0
LINE
  5
8563E
  8
SUNPOU
 10
11190.49999999994
 20
6305.2917521017825
 30
0.0
 11
11190.49999999994
 21
4605.2917521017807
 31
0.0
  0
LINE
  5
8563F
  8
SUNPOU
 10
16858.499999999942
 20
6305.2917521017825
 30
0.0
 11
16858.499999999942
 21
4605.2917521017807
 31
0.0
  0
LINE
  5
85640
  8
SUNPOU
 10
11230.49999999994
 20
4685.2917521017816
 30
0.0
 11
16818.499999999942
 21
4685.2917521017816
 31
0.0
  0
LINE
  5
85645
  8
SUNPOU
 10
10849.79778538487
 20
10343.707466321061
 30
0.0
 11
10879.69664463353
 21
10346.168810593699
 31
0.0
  0
LINE
  5
85647
  8
SUNPOU
 10
17106.63239748904
 20
10858.78477777578
 30
0.0
 11
17076.73353824038
 21
10856.323433503139
 31
0.0
  0
LINE
  5
85649
  8
SUNPOU
 10
18049.7530932792
 20
9635.2917521017825
 30
0.0
 11
18049.7530932792
 21
9605.2917521017807
 31
0.0
  0
LINE
  5
8564B
  8
SUNPOU
 10
18049.7530932792
 20
6415.2917521017807
 30
0.0
 11
18049.7530932792
 21
6445.2917521017816
 31
0.0
  0
LINE
  5
8564D
  8
SUNPOU
 10
10118.352697041881
 20
9115.2917521017807
 30
0.0
 11
10118.352697041881
 21
9085.2917521017807
 31
0.0
  0
LINE
  5
8564F
  8
SUNPOU
 10
10118.352697041881
 20
6415.2917521017807
 30
0.0
 11
10118.352697041881
 21
6445.2917521017816
 31
0.0
  0
ARC
  5
85650
  8
SUNPOU
 10
25110.000000000029
 20
15518.121500361291
 30
0.0
 40
15.0
 50
0.0
 51
180.0
  0
ARC
  5
85651
  8
SUNPOU
 10
25110.000000000029
 20
15518.121500361291
 30
0.0
 40
15.0
 50
180.0
 51
0.0
  0
ARC
  5
85652
  8
SUNPOU
 10
22522.0
 20
15518.121500361291
 30
0.0
 40
15.0
 50
180.0
 51
0.0
  0
ARC
  5
85653
  8
SUNPOU
 10
22522.0
 20
15518.121500361291
 30
0.0
 40
15.0
 50
0.0
 51
180.0
  0
ARC
  5
85654
  8
SUNPOU
 10
22415.999999999989
 20
14718.121500361291
 30
0.0
 40
15.0
 50
180.0
 51
0.0
  0
ARC
  5
85655
  8
SUNPOU
 10
22415.999999999989
 20
14718.121500361291
 30
0.0
 40
15.0
 50
0.0
 51
180.0
  0
ARC
  5
85656
  8
SUNPOU
 10
25395.999999999989
 20
20398.121500361289
 30
0.0
 40
15.0
 50
180.0
 51
0.0
  0
ARC
  5
85657
  8
SUNPOU
 10
25395.999999999989
 20
20398.121500361289
 30
0.0
 40
15.0
 50
0.0
 51
180.0
  0
ARC
  5
85658
  8
SUNPOU
 10
25340.999999999989
 20
14718.121500361291
 30
0.0
 40
15.0
 50
0.0
 51
180.0
  0
ARC
  5
85659
  8
SUNPOU
 10
25340.999999999989
 20
14718.121500361291
 30
0.0
 40
15.0
 50
180.0
 51
0.0
  0
ARC
  5
8565A
  8
SUNPOU
 10
14015.99999999998
 20
14718.121500361291
 30
0.0
 40
15.0
 50
180.0
 51
0.0
  0
ARC
  5
8565B
  8
SUNPOU
 10
14015.99999999998
 20
14718.121500361291
 30
0.0
 40
15.0
 50
0.0
 51
180.0
  0
ARC
  5
8565C
  8
SUNPOU
 10
16710.000000000029
 20
15518.121500361291
 30
0.0
 40
15.0
 50
0.0
 51
180.0
  0
ARC
  5
8565D
  8
SUNPOU
 10
16710.000000000029
 20
15518.121500361291
 30
0.0
 40
15.0
 50
180.0
 51
0.0
  0
ARC
  5
8565E
  8
SUNPOU
 10
14122.0
 20
15518.121500361291
 30
0.0
 40
15.0
 50
180.0
 51
0.0
  0
ARC
  5
8565F
  8
SUNPOU
 10
14122.0
 20
15518.121500361291
 30
0.0
 40
15.0
 50
0.0
 51
180.0
  0
TEXT
  5
85660
  8
SUNPOU
 10
24275.80622758187
 20
15198.121500361291
 30
0.0
 40
160.0
  1
2715
 41
0.6666666666666666
  7
00
  0
LINE
  5
85662
  8
SUNPOU
 10
25143.499999999982
 20
15118.121500361291
 30
0.0
 11
25113.499999999971
 21
15118.121500361291
 31
0.0
  0
LINE
  5
85664
  8
SUNPOU
 10
22488.49999999992
 20
15118.121500361291
 30
0.0
 11
22518.49999999992
 21
15118.121500361291
 31
0.0
  0
TEXT
  5
85665
  8
SUNPOU
 10
27112.205422612838
 20
17961.877214631771
 30
0.0
 40
160.0
  1
2856
 50
90.0
 41
0.6666666666666666
  7
00
  0
LINE
  5
85667
  8
SUNPOU
 10
27192.205422612849
 20
16348.12150036132
 30
0.0
 11
27192.205422612849
 21
16378.12150036132
 31
0.0
  0
LINE
  5
85669
  8
SUNPOU
 10
27192.205422612849
 20
19144.40624389959
 30
0.0
 11
27192.205422612849
 21
19114.40624389959
 31
0.0
  0
TEXT
  5
8566A
  8
SUNPOU
 10
26072.38710666354
 20
18207.486754091831
 30
0.0
 40
160.0
  1
2575
 50
90.0
 41
0.6666666666666666
  7
00
  0
LINE
  5
8566C
  8
SUNPOU
 10
26152.38710666354
 20
18863.121500361351
 30
0.0
 11
26152.38710666354
 21
18833.12150036134
 31
0.0
  0
LINE
  5
8566E
  8
SUNPOU
 10
26152.38710666354
 20
16348.12150036132
 30
0.0
 11
26152.38710666354
 21
16378.12150036132
 31
0.0
  0
TEXT
  5
8566F
  8
SUNPOU
 10
20300.755986119439
 20
15198.12150036132
 30
0.0
 40
160.0
  1
5515
 41
0.6666666666666666
  7
00
  0
LINE
  5
85671
  8
SUNPOU
 10
22343.499999999989
 20
15118.12150036132
 30
0.0
 11
22313.499999999989
 21
15118.12150036132
 31
0.0
  0
LINE
  5
85673
  8
SUNPOU
 10
16888.500000000018
 20
15118.12150036132
 30
0.0
 11
16918.500000000018
 21
15118.12150036132
 31
0.0
  0
TEXT
  5
85674
  8
SUNPOU
 10
15875.806227581859
 20
15198.121500361291
 30
0.0
 40
160.0
  1
2715
 41
0.6666666666666666
  7
00
  0
LINE
  5
85676
  8
SUNPOU
 10
16743.499999999971
 20
15118.121500361291
 30
0.0
 11
16713.499999999971
 21
15118.121500361291
 31
0.0
  0
LINE
  5
85678
  8
SUNPOU
 10
14088.499999999911
 20
15118.121500361291
 30
0.0
 11
14118.499999999911
 21
15118.121500361291
 31
0.0
  0
TEXT
  5
85679
  8
SUNPOU
 10
11900.75598611944
 20
15198.12150036132
 30
0.0
 40
160.0
  1
5515
 41
0.6666666666666666
  7
00
  0
LINE
  5
8567B
  8
SUNPOU
 10
13943.49999999998
 20
15118.12150036132
 30
0.0
 11
13913.49999999998
 21
15118.12150036132
 31
0.0
  0
LINE
  5
8567D
  8
SUNPOU
 10
8488.5000000000091
 20
15118.12150036132
 30
0.0
 11
8518.5000000000109
 21
15118.12150036132
 31
0.0
  0
ARC
  5
8567E
  8
SUNPOU
 10
22087.99999999996
 20
15518.121500361291
 30
0.0
 40
15.0
 50
180.0
 51
0.0
  0
ARC
  5
8567F
  8
SUNPOU
 10
22087.99999999996
 20
15518.121500361291
 30
0.0
 40
15.0
 50
0.0
 51
180.0
  0
ARC
  5
85680
  8
SUNPOU
 10
16921.999999999949
 20
15518.121500361291
 30
0.0
 40
15.0
 50
0.0
 51
180.0
  0
ARC
  5
85681
  8
SUNPOU
 10
16921.999999999949
 20
15518.121500361291
 30
0.0
 40
15.0
 50
180.0
 51
0.0
  0
ARC
  5
85682
  8
SUNPOU
 10
13687.99999999996
 20
15518.121500361291
 30
0.0
 40
15.0
 50
180.0
 51
0.0
  0
ARC
  5
85683
  8
SUNPOU
 10
13687.99999999996
 20
15518.121500361291
 30
0.0
 40
15.0
 50
0.0
 51
180.0
  0
ARC
  5
85684
  8
SUNPOU
 10
8521.9999999999545
 20
15518.121500361291
 30
0.0
 40
15.0
 50
0.0
 51
180.0
  0
ARC
  5
85685
  8
SUNPOU
 10
8521.9999999999545
 20
15518.121500361291
 30
0.0
 40
15.0
 50
180.0
 51
0.0
  0
ARC
  5
85686
  8
SUNPOU
 10
8415.9999999999818
 20
14718.121500361291
 30
0.0
 40
15.0
 50
0.0
 51
180.0
  0
ARC
  5
85687
  8
SUNPOU
 10
8415.9999999999818
 20
14718.121500361291
 30
0.0
 40
15.0
 50
180.0
 51
0.0
  0
ARC
  5
85688
  8
SUNPOU
 10
8415.9999999999818
 20
14718.121500361291
 30
0.0
 40
15.0
 50
180.0
 51
0.0
  0
ARC
  5
85689
  8
SUNPOU
 10
8415.9999999999818
 20
14718.121500361291
 30
0.0
 40
15.0
 50
0.0
 51
180.0
  0
ARC
  5
8568A
  8
SUNPOU
 10
7090.9999999999827
 20
16318.1215003613
 30
0.0
 40
15.0
 50
90.0
 51
270.0
  0
ARC
  5
8568B
  8
SUNPOU
 10
7090.9999999999827
 20
16318.1215003613
 30
0.0
 40
15.0
 50
270.0
 51
90.0
  0
ARC
  5
8568C
  8
SUNPOU
 10
8290.9999999999818
 20
14718.121500361291
 30
0.0
 40
15.0
 50
0.0
 51
180.0
  0
ARC
  5
8568D
  8
SUNPOU
 10
8290.9999999999818
 20
14718.121500361291
 30
0.0
 40
15.0
 50
180.0
 51
0.0
  0
ARC
  5
8568E
  8
SUNPOU
 10
8290.9999999999818
 20
14318.121500361291
 30
0.0
 40
15.0
 50
0.0
 51
180.0
  0
ARC
  5
8568F
  8
SUNPOU
 10
8290.9999999999818
 20
14318.121500361291
 30
0.0
 40
15.0
 50
180.0
 51
0.0
  0
ARC
  5
85690
  8
SUNPOU
 10
7490.9999999999818
 20
16318.121500361291
 30
0.0
 40
15.0
 50
90.0
 51
270.0
  0
ARC
  5
85691
  8
SUNPOU
 10
7490.9999999999818
 20
16318.121500361291
 30
0.0
 40
15.0
 50
270.0
 51
90.0
  0
ARC
  5
85692
  8
SUNPOU
 10
7090.9999999999827
 20
19598.121500361289
 30
0.0
 40
15.0
 50
270.0
 51
90.0
  0
ARC
  5
85693
  8
SUNPOU
 10
7090.9999999999827
 20
19598.121500361289
 30
0.0
 40
15.0
 50
90.0
 51
270.0
  0
ARC
  5
85694
  8
SUNPOU
 10
7490.9999999999818
 20
18988.121500361289
 30
0.0
 40
15.0
 50
270.0
 51
90.0
  0
ARC
  5
85695
  8
SUNPOU
 10
7490.9999999999818
 20
18988.121500361289
 30
0.0
 40
15.0
 50
90.0
 51
270.0
  0
ARC
  5
85696
  8
SUNPOU
 10
8290.9999999999818
 20
20398.121500361289
 30
0.0
 40
15.0
 50
0.0
 51
180.0
  0
ARC
  5
85697
  8
SUNPOU
 10
8290.9999999999818
 20
20398.121500361289
 30
0.0
 40
15.0
 50
180.0
 51
0.0
  0
ARC
  5
85698
  8
SUNPOU
 10
8235.9999999999818
 20
20398.121500361289
 30
0.0
 40
15.0
 50
180.0
 51
0.0
  0
ARC
  5
85699
  8
SUNPOU
 10
8235.9999999999818
 20
20398.121500361289
 30
0.0
 40
15.0
 50
0.0
 51
180.0
  0
ARC
  5
8569A
  8
SUNPOU
 10
8255.9999999999818
 20
20798.121500361289
 30
0.0
 40
15.0
 50
0.0
 51
180.0
  0
ARC
  5
8569B
  8
SUNPOU
 10
8255.9999999999818
 20
20798.121500361289
 30
0.0
 40
15.0
 50
180.0
 51
0.0
  0
ARC
  5
8569C
  8
SUNPOU
 10
11215.99999999998
 20
14718.121500361291
 30
0.0
 40
15.0
 50
180.0
 51
0.0
  0
ARC
  5
8569D
  8
SUNPOU
 10
11215.99999999998
 20
14718.121500361291
 30
0.0
 40
15.0
 50
0.0
 51
180.0
  0
ARC
  5
8569E
  8
SUNPOU
 10
11215.99999999998
 20
14718.121500361291
 30
0.0
 40
15.0
 50
0.0
 51
180.0
  0
ARC
  5
8569F
  8
SUNPOU
 10
11215.99999999998
 20
14718.121500361291
 30
0.0
 40
15.0
 50
180.0
 51
0.0
  0
ARC
  5
856A0
  8
SUNPOU
 10
14015.99999999998
 20
14718.121500361291
 30
0.0
 40
15.0
 50
180.0
 51
0.0
  0
ARC
  5
856A1
  8
SUNPOU
 10
14015.99999999998
 20
14718.121500361291
 30
0.0
 40
15.0
 50
0.0
 51
180.0
  0
ARC
  5
856A2
  8
SUNPOU
 10
14015.99999999998
 20
14718.121500361291
 30
0.0
 40
15.0
 50
180.0
 51
0.0
  0
ARC
  5
856A3
  8
SUNPOU
 10
14015.99999999998
 20
14718.121500361291
 30
0.0
 40
15.0
 50
0.0
 51
180.0
  0
ARC
  5
856A4
  8
SUNPOU
 10
25340.999999999989
 20
14318.121500361291
 30
0.0
 40
15.0
 50
180.0
 51
0.0
  0
ARC
  5
856A5
  8
SUNPOU
 10
25340.999999999989
 20
14318.121500361291
 30
0.0
 40
15.0
 50
0.0
 51
180.0
  0
ARC
  5
856A6
  8
SUNPOU
 10
16815.999999999982
 20
14718.121500361291
 30
0.0
 40
15.0
 50
180.0
 51
0.0
  0
ARC
  5
856A7
  8
SUNPOU
 10
16815.999999999982
 20
14718.121500361291
 30
0.0
 40
15.0
 50
0.0
 51
180.0
  0
ARC
  5
856A8
  8
SUNPOU
 10
16815.999999999982
 20
14718.121500361291
 30
0.0
 40
15.0
 50
180.0
 51
0.0
  0
ARC
  5
856A9
  8
SUNPOU
 10
16815.999999999982
 20
14718.121500361291
 30
0.0
 40
15.0
 50
0.0
 51
180.0
  0
ARC
  5
856AA
  8
SUNPOU
 10
25340.999999999989
 20
20398.121500361289
 30
0.0
 40
15.0
 50
180.0
 51
0.0
  0
ARC
  5
856AB
  8
SUNPOU
 10
25340.999999999989
 20
20398.121500361289
 30
0.0
 40
15.0
 50
0.0
 51
180.0
  0
ARC
  5
856AC
  8
SUNPOU
 10
25375.999999999982
 20
20798.121500361289
 30
0.0
 40
15.0
 50
180.0
 51
0.0
  0
ARC
  5
856AD
  8
SUNPOU
 10
25375.999999999982
 20
20798.121500361289
 30
0.0
 40
15.0
 50
0.0
 51
180.0
  0
ARC
  5
856AE
  8
SUNPOU
 10
16815.999999999982
 20
14718.121500361291
 30
0.0
 40
15.0
 50
0.0
 51
180.0
  0
ARC
  5
856AF
  8
SUNPOU
 10
16815.999999999982
 20
14718.121500361291
 30
0.0
 40
15.0
 50
180.0
 51
0.0
  0
ARC
  5
856B0
  8
SUNPOU
 10
25215.999999999982
 20
14718.121500361291
 30
0.0
 40
15.0
 50
180.0
 51
0.0
  0
ARC
  5
856B1
  8
SUNPOU
 10
25215.999999999982
 20
14718.121500361291
 30
0.0
 40
15.0
 50
0.0
 51
180.0
  0
ARC
  5
856B2
  8
SUNPOU
 10
25215.999999999982
 20
14718.121500361291
 30
0.0
 40
15.0
 50
180.0
 51
0.0
  0
ARC
  5
856B3
  8
SUNPOU
 10
25215.999999999982
 20
14718.121500361291
 30
0.0
 40
15.0
 50
0.0
 51
180.0
  0
ARC
  5
856B4
  8
SUNPOU
 10
22415.999999999989
 20
14718.121500361291
 30
0.0
 40
15.0
 50
180.0
 51
0.0
  0
ARC
  5
856B5
  8
SUNPOU
 10
22415.999999999989
 20
14718.121500361291
 30
0.0
 40
15.0
 50
0.0
 51
180.0
  0
ARC
  5
856B6
  8
SUNPOU
 10
22415.999999999989
 20
14718.121500361291
 30
0.0
 40
15.0
 50
180.0
 51
0.0
  0
ARC
  5
856B7
  8
SUNPOU
 10
22415.999999999989
 20
14718.121500361291
 30
0.0
 40
15.0
 50
0.0
 51
180.0
  0
ARC
  5
856B8
  8
SUNPOU
 10
19615.999999999982
 20
14718.121500361291
 30
0.0
 40
15.0
 50
0.0
 51
180.0
  0
ARC
  5
856B9
  8
SUNPOU
 10
19615.999999999982
 20
14718.121500361291
 30
0.0
 40
15.0
 50
180.0
 51
0.0
  0
ARC
  5
856BA
  8
SUNPOU
 10
19615.999999999982
 20
14718.121500361291
 30
0.0
 40
15.0
 50
180.0
 51
0.0
  0
ARC
  5
856BB
  8
SUNPOU
 10
19615.999999999982
 20
14718.121500361291
 30
0.0
 40
15.0
 50
0.0
 51
180.0
  0
TEXT
  5
856BC
  8
SUNPOU
 10
20961.3871066635
 20
8409.9276283597774
 30
0.0
 40
160.0
  1
2575
 50
90.0
 41
0.6666666666666666
  7
00
  0
LINE
  5
856BE
  8
SUNPOU
 10
21041.3871066635
 20
8930.291752101808
 30
0.0
 11
21041.3871066635
 21
8900.2917521018062
 31
0.0
  0
LINE
  5
856C0
  8
SUNPOU
 10
21041.3871066635
 20
6415.2917521017807
 30
0.0
 11
21041.3871066635
 21
6445.2917521017816
 31
0.0
  0
TEXT
  5
856C1
  8
SUNPOU
 10
18534.50384415494
 20
7675.5946227065724
 30
0.0
 40
160.0
  1
2987
 50
90.0
 41
0.6666666666666666
  7
00
  0
LINE
  5
856C3
  8
SUNPOU
 10
18614.50384415494
 20
6415.2917521017807
 30
0.0
 11
18614.50384415494
 21
6445.2917521017798
 31
0.0
  0
LINE
  5
856C5
  8
SUNPOU
 10
18614.50384415494
 20
9342.2466996605654
 30
0.0
 11
18614.50384415494
 21
9312.2466996605654
 31
0.0
  0
TEXT
  5
856C6
  8
SUNPOU
 10
19589.29402702898
 20
10562.690754104049
 30
0.0
 40
160.0
  1
5810
 50
358.70807231024628
 41
0.6666666666666666
  7
00
  0
LINE
  5
856C8
  8
SUNPOU
 10
22664.893999218231
 20
10413.308823575921
 30
0.0
 11
22634.901625344759
 21
10413.9852180125
 31
0.0
  0
LINE
  5
856CA
  8
SUNPOU
 10
16916.332528511779
 20
10542.95161255751
 30
0.0
 11
16946.324902385251
 21
10542.275218120931
 31
0.0
  0
TEXT
  5
856CB
  8
SUNPOU
 10
23132.442872043412
 20
7610.2595206963133
 30
0.0
 40
160.0
  1
2856
 50
90.0
 41
0.6666666666666666
  7
00
  0
LINE
  5
856CD
  8
SUNPOU
 10
23212.442872043412
 20
6415.2917521017789
 30
0.0
 11
23212.442872043412
 21
6445.2917521017798
 31
0.0
  0
LINE
  5
856CF
  8
SUNPOU
 10
23212.442872043419
 20
9211.5764956400453
 30
0.0
 11
23212.442872043419
 21
9181.5764956400453
 31
0.0
  0
TEXT
  5
856D0
  8
SUNPOU
 10
19405.325396825341
 20
4765.2917521017816
 30
0.0
 40
160.0
  1
5500
 41
0.6666666666666666
  7
00
  0
LINE
  5
856D2
  8
SUNPOU
 10
16888.499999999942
 20
4685.2917521017816
 30
0.0
 11
16918.499999999942
 21
4685.2917521017816
 31
0.0
  0
LINE
  5
856D4
  8
SUNPOU
 10
22328.499999999949
 20
4685.2917521017816
 30
0.0
 11
22298.499999999949
 21
4685.2917521017816
 31
0.0
  0
TEXT
  5
856D5
  8
SUNPOU
 10
13821.325396825339
 20
4765.2917521017816
 30
0.0
 40
160.0
  1
5668
 41
0.6666666666666666
  7
00
  0
LINE
  5
856D7
  8
SUNPOU
 10
16828.499999999942
 20
4685.2917521017816
 30
0.0
 11
16798.499999999942
 21
4685.2917521017816
 31
0.0
  0
LINE
  5
856D9
  8
SUNPOU
 10
11220.49999999994
 20
4685.2917521017816
 30
0.0
 11
11250.49999999994
 21
4685.2917521017816
 31
0.0
  0
ARC
  5
856DA
  8
SUNPOU
 10
10819.8989261362
 20
10341.24612204842
 30
0.0
 40
15.00000000000079
 50
4.706111143730177
 51
184.7061111437302
  0
ARC
  5
856DB
  8
SUNPOU
 10
10819.8989261362
 20
10341.24612204842
 30
0.0
 40
15.00000000000079
 50
184.7061111437302
 51
4.706111143730177
  0
ARC
  5
856DC
  8
SUNPOU
 10
17136.531256737711
 20
10861.24612204842
 30
0.0
 40
14.99999999999897
 50
184.70611114373071
 51
4.7061111437307472
  0
ARC
  5
856DD
  8
SUNPOU
 10
17136.531256737711
 20
10861.24612204842
 30
0.0
 40
14.99999999999897
 50
4.7061111437307472
 51
184.70611114373071
  0
ARC
  5
856DE
  8
SUNPOU
 10
18049.7530932792
 20
9665.2917521017807
 30
0.0
 40
15.0
 50
270.0
 51
90.0
  0
ARC
  5
856DF
  8
SUNPOU
 10
18049.7530932792
 20
9665.2917521017807
 30
0.0
 40
15.0
 50
90.0
 51
270.0
  0
ARC
  5
856E0
  8
SUNPOU
 10
18049.7530932792
 20
6385.2917521017816
 30
0.0
 40
15.0
 50
90.0
 51
270.0
  0
ARC
  5
856E1
  8
SUNPOU
 10
18049.7530932792
 20
6385.2917521017816
 30
0.0
 40
15.0
 50
270.0
 51
90.0
  0
ARC
  5
856E2
  8
SUNPOU
 10
10118.352697041881
 20
9145.2917521017825
 30
0.0
 40
15.0
 50
270.0
 51
90.0
  0
ARC
  5
856E3
  8
SUNPOU
 10
10118.352697041881
 20
9145.2917521017825
 30
0.0
 40
15.0
 50
90.0
 51
270.0
  0
ARC
  5
856E4
  8
SUNPOU
 10
10118.352697041881
 20
6385.2917521017816
 30
0.0
 40
15.0
 50
90.0
 51
270.0
  0
ARC
  5
856E5
  8
SUNPOU
 10
10118.352697041881
 20
6385.2917521017816
 30
0.0
 40
15.0
 50
270.0
 51
90.0
  0
ARC
  5
856E6
  8
SUNPOU
 10
25173.499999999982
 20
15118.121500361291
 30
0.0
 40
15.0
 50
180.0
 51
0.0
  0
ARC
  5
856E7
  8
SUNPOU
 10
25173.499999999982
 20
15118.121500361291
 30
0.0
 40
15.0
 50
0.0
 51
180.0
  0
ARC
  5
856E8
  8
SUNPOU
 10
22458.49999999992
 20
15118.121500361291
 30
0.0
 40
15.0
 50
0.0
 51
180.0
  0
ARC
  5
856E9
  8
SUNPOU
 10
22458.49999999992
 20
15118.121500361291
 30
0.0
 40
15.0
 50
180.0
 51
0.0
  0
ARC
  5
856EA
  8
SUNPOU
 10
27192.205422612849
 20
16318.12150036132
 30
0.0
 40
15.0
 50
90.0
 51
270.0
  0
ARC
  5
856EB
  8
SUNPOU
 10
27192.205422612849
 20
16318.12150036132
 30
0.0
 40
15.0
 50
270.0
 51
90.0
  0
ARC
  5
856EC
  8
SUNPOU
 10
27192.205422612849
 20
19174.40624389959
 30
0.0
 40
15.0
 50
270.0
 51
90.0
  0
ARC
  5
856ED
  8
SUNPOU
 10
27192.205422612849
 20
19174.40624389959
 30
0.0
 40
15.0
 50
90.0
 51
270.0
  0
ARC
  5
856EE
  8
SUNPOU
 10
26152.38710666354
 20
18893.12150036134
 30
0.0
 40
15.0
 50
270.0
 51
90.0
  0
ARC
  5
856EF
  8
SUNPOU
 10
26152.38710666354
 20
18893.12150036134
 30
0.0
 40
15.0
 50
90.0
 51
270.0
  0
ARC
  5
856F0
  8
SUNPOU
 10
26152.38710666354
 20
16318.12150036132
 30
0.0
 40
15.0
 50
90.0
 51
270.0
  0
ARC
  5
856F1
  8
SUNPOU
 10
26152.38710666354
 20
16318.12150036132
 30
0.0
 40
15.0
 50
270.0
 51
90.0
  0
ARC
  5
856F2
  8
SUNPOU
 10
22373.499999999989
 20
15118.12150036132
 30
0.0
 40
15.0
 50
180.0
 51
0.0
  0
ARC
  5
856F3
  8
SUNPOU
 10
22373.499999999989
 20
15118.12150036132
 30
0.0
 40
15.0
 50
0.0
 51
180.0
  0
ARC
  5
856F4
  8
SUNPOU
 10
16858.500000000018
 20
15118.12150036132
 30
0.0
 40
15.0
 50
0.0
 51
180.0
  0
ARC
  5
856F5
  8
SUNPOU
 10
16858.500000000018
 20
15118.12150036132
 30
0.0
 40
15.0
 50
180.0
 51
0.0
  0
ARC
  5
856F6
  8
SUNPOU
 10
16773.499999999971
 20
15118.121500361291
 30
0.0
 40
15.0
 50
180.0
 51
0.0
  0
ARC
  5
856F7
  8
SUNPOU
 10
16773.499999999971
 20
15118.121500361291
 30
0.0
 40
15.0
 50
0.0
 51
180.0
  0
ARC
  5
856F8
  8
SUNPOU
 10
14058.499999999911
 20
15118.121500361291
 30
0.0
 40
15.0
 50
0.0
 51
180.0
  0
ARC
  5
856F9
  8
SUNPOU
 10
14058.499999999911
 20
15118.121500361291
 30
0.0
 40
15.0
 50
180.0
 51
0.0
  0
ARC
  5
856FA
  8
SUNPOU
 10
13973.49999999998
 20
15118.12150036132
 30
0.0
 40
15.0
 50
180.0
 51
0.0
  0
ARC
  5
856FB
  8
SUNPOU
 10
13973.49999999998
 20
15118.12150036132
 30
0.0
 40
15.0
 50
0.0
 51
180.0
  0
ARC
  5
856FC
  8
SUNPOU
 10
8458.5000000000109
 20
15118.12150036132
 30
0.0
 40
15.0
 50
0.0
 51
180.0
  0
ARC
  5
856FD
  8
SUNPOU
 10
8458.5000000000109
 20
15118.12150036132
 30
0.0
 40
15.0
 50
180.0
 51
0.0
  0
ARC
  5
856FE
  8
SUNPOU
 10
21041.3871066635
 20
8960.291752101808
 30
0.0
 40
15.0
 50
270.0
 51
90.0
  0
ARC
  5
856FF
  8
SUNPOU
 10
21041.3871066635
 20
8960.291752101808
 30
0.0
 40
15.0
 50
90.0
 51
270.0
  0
ARC
  5
85700
  8
SUNPOU
 10
21041.3871066635
 20
6385.2917521017816
 30
0.0
 40
15.0
 50
90.0
 51
270.0
  0
ARC
  5
85701
  8
SUNPOU
 10
21041.3871066635
 20
6385.2917521017816
 30
0.0
 40
15.0
 50
270.0
 51
90.0
  0
ARC
  5
85702
  8
SUNPOU
 10
18614.50384415494
 20
6385.2917521017807
 30
0.0
 40
15.0
 50
90.0
 51
270.0
  0
ARC
  5
85703
  8
SUNPOU
 10
18614.50384415494
 20
6385.2917521017807
 30
0.0
 40
15.0
 50
270.0
 51
90.0
  0
ARC
  5
85704
  8
SUNPOU
 10
18614.50384415494
 20
9372.2466996605654
 30
0.0
 40
15.0
 50
270.0
 51
90.0
  0
ARC
  5
85705
  8
SUNPOU
 10
18614.50384415494
 20
9372.2466996605654
 30
0.0
 40
15.0
 50
90.0
 51
270.0
  0
ARC
  5
85706
  8
SUNPOU
 10
22694.8863730917
 20
10412.632429139339
 30
0.0
 40
14.99999999999989
 50
178.70807231024779
 51
358.70807231024781
  0
ARC
  5
85707
  8
SUNPOU
 10
22694.8863730917
 20
10412.632429139339
 30
0.0
 40
14.99999999999989
 50
358.70807231024781
 51
178.70807231024779
  0
ARC
  5
85708
  8
SUNPOU
 10
16886.34015463831
 20
10543.628006994089
 30
0.0
 40
14.99999999999989
 50
358.70807231024781
 51
178.70807231024779
  0
ARC
  5
85709
  8
SUNPOU
 10
16886.34015463831
 20
10543.628006994089
 30
0.0
 40
14.99999999999989
 50
178.70807231024779
 51
358.70807231024781
  0
ARC
  5
8570A
  8
SUNPOU
 10
23212.442872043412
 20
6385.2917521017798
 30
0.0
 40
15.0
 50
90.0
 51
270.0
  0
ARC
  5
8570B
  8
SUNPOU
 10
23212.442872043412
 20
6385.2917521017798
 30
0.0
 40
15.0
 50
270.0
 51
90.0
  0
ARC
  5
8570C
  8
SUNPOU
 10
23212.442872043419
 20
9241.5764956400435
 30
0.0
 40
15.0
 50
270.0
 51
90.0
  0
ARC
  5
8570D
  8
SUNPOU
 10
23212.442872043419
 20
9241.5764956400435
 30
0.0
 40
15.0
 50
90.0
 51
270.0
  0
ARC
  5
8570E
  8
SUNPOU
 10
16858.499999999942
 20
4685.2917521017816
 30
0.0
 40
15.0
 50
0.0
 51
180.0
  0
ARC
  5
8570F
  8
SUNPOU
 10
16858.499999999942
 20
4685.2917521017816
 30
0.0
 40
15.0
 50
180.0
 51
0.0
  0
ARC
  5
85710
  8
SUNPOU
 10
22358.499999999949
 20
4685.2917521017816
 30
0.0
 40
15.0
 50
180.0
 51
0.0
  0
ARC
  5
85711
  8
SUNPOU
 10
22358.499999999949
 20
4685.2917521017816
 30
0.0
 40
15.0
 50
0.0
 51
180.0
  0
ARC
  5
85712
  8
SUNPOU
 10
16858.499999999942
 20
4685.2917521017816
 30
0.0
 40
15.0
 50
180.0
 51
0.0
  0
ARC
  5
85713
  8
SUNPOU
 10
16858.499999999942
 20
4685.2917521017816
 30
0.0
 40
15.0
 50
0.0
 51
180.0
  0
ARC
  5
85714
  8
SUNPOU
 10
11190.49999999994
 20
4685.2917521017816
 30
0.0
 40
15.0
 50
0.0
 51
180.0
  0
ARC
  5
85715
  8
SUNPOU
 10
11190.49999999994
 20
4685.2917521017816
 30
0.0
 40
15.0
 50
180.0
 51
0.0
  0
LINE
  5
8571A
  8
HIKIDASHI
 10
14553.66060583354
 20
9549.9526755505412
 30
0.0
 11
14685.466044104251
 21
9455.4093650871509
 31
0.0
  0
LINE
  5
8571B
  8
HIKIDASHI
 10
14685.466044104251
 20
9455.4093650871509
 30
0.0
 11
14591.44791940387
 21
9587.5899360457279
 31
0.0
  0
SOLID
  5
8571C
  8
HIKIDASHI
 10
14553.66060583354
 20
9549.9526755505412
 30
0.0
 11
14591.44791940387
 21
9587.5899360457279
 31
0.0
 12
14685.466044104251
 22
9455.4093650871509
 32
0.0
 13
14685.466044104251
 23
9455.4093650871509
 33
0.0
  0
LINE
  5
8571D
  8
HIKIDASHI
 10
14591.44791940387
 20
9587.5899360457279
 30
0.0
 11
14553.66060583354
 21
9549.9526755505412
 31
0.0
  0
LINE
  5
8571E
  8
HIKIDASHI
 10
15124.82867562801
 20
6414.5677232007602
 30
0.0
 11
15176.0
 21
6568.4917521017942
 31
0.0
  0
LINE
  5
8571F
  8
HIKIDASHI
 10
15176.0
 20
6568.4917521017942
 30
0.0
 11
15077.67338649102
 21
6439.4840461809245
 31
0.0
  0
SOLID
  5
85720
  8
HIKIDASHI
 10
15124.82867562801
 20
6414.5677232007602
 30
0.0
 11
15077.67338649102
 21
6439.4840461809245
 31
0.0
 12
15176.0
 22
6568.4917521017942
 32
0.0
 13
15176.0
 23
6568.4917521017942
 33
0.0
  0
LINE
  5
85721
  8
HIKIDASHI
 10
15077.67338649102
 20
6439.4840461809245
 30
0.0
 11
15124.82867562801
 21
6414.5677232007602
 31
0.0
  0
LINE
  5
85722
  8
HIKIDASHI
 10
9440.8927038300899
 20
16549.624551180688
 30
0.0
 11
8145.5285006249733
 21
15537.637415413121
 31
0.0
1001
ACAD
1000
DSTYLE
1002
{
1070
   147
1040
1.0
1070
    77
1070
     0
1002
}
  0
LINE
  5
85723
  8
HIKIDASHI
 10
9457.3097156086988
 20
16528.610440793342
 30
0.0
 11
9566.9773661542422
 21
16648.126621852349
 31
0.0
  0
LINE
  5
85724
  8
HIKIDASHI
 10
9566.9773661542422
 20
16648.126621852349
 30
0.0
 11
9424.4756920514774
 21
16570.638661568049
 31
0.0
  0
SOLID
  5
85725
  8
HIKIDASHI
 10
9457.3097156086988
 20
16528.610440793342
 30
0.0
 11
9424.4756920514774
 21
16570.638661568049
 31
0.0
 12
9566.9773661542422
 22
16648.126621852349
 32
0.0
 13
9566.9773661542422
 23
16648.126621852349
 33
0.0
  0
LINE
  5
85726
  8
HIKIDASHI
 10
9424.4756920514774
 20
16570.638661568049
 30
0.0
 11
9457.3097156086988
 21
16528.610440793342
 31
0.0
  0
LINE
  5
85727
  8
HIKIDASHI
 10
19229.092442825669
 20
9450.8159589273837
 30
0.0
 11
19592.10357787594
 21
9947.3405223982281
 31
0.0
1001
ACAD
1000
DSTYLE
1002
{
1070
   147
1040
1.0
1070
    77
1070
     0
1002
}
  0
LINE
  5
85728
  8
HIKIDASHI
 10
19207.565447276502
 20
9466.5544332415284
 30
0.0
 11
19134.661596940801
 21
9321.6539856323434
 31
0.0
  0
LINE
  5
85729
  8
HIKIDASHI
 10
19134.661596940801
 20
9321.6539856323434
 30
0.0
 11
19250.619438374841
 21
9435.077484613239
 31
0.0
  0
SOLID
  5
8572A
  8
HIKIDASHI
 10
19207.565447276502
 20
9466.5544332415284
 30
0.0
 11
19250.619438374841
 21
9435.077484613239
 31
0.0
 12
19134.661596940801
 22
9321.6539856323434
 32
0.0
 13
19134.661596940801
 23
9321.6539856323434
 33
0.0
  0
LINE
  5
8572B
  8
HIKIDASHI
 10
19250.619438374841
 20
9435.077484613239
 30
0.0
 11
19207.565447276502
 21
9466.5544332415284
 31
0.0
  0
LINE
  5
8572C
  8
U1
 10
15616.0
 20
17218.921500361292
 30
0.0
 11
15716.0
 21
17218.921500361292
 31
0.0
  0
LINE
  5
8572D
  8
U1
 10
15716.0
 20
17218.921500361292
 30
0.0
 11
15716.0
 21
17188.921500361292
 31
0.0
  0
LINE
  5
8572E
  8
U1
 10
15716.0
 20
17188.921500361292
 30
0.0
 11
15616.0
 21
17188.921500361292
 31
0.0
  0
LINE
  5
8572F
  8
U1
 10
15616.0
 20
17188.921500361292
 30
0.0
 11
15616.0
 21
17218.921500361292
 31
0.0
  0
LINE
  5
85730
  8
U1
 10
15116.0
 20
17218.921500361292
 30
0.0
 11
15216.0
 21
17218.921500361292
 31
0.0
  0
LINE
  5
85731
  8
U1
 10
15216.0
 20
17218.921500361292
 30
0.0
 11
15216.0
 21
17188.921500361292
 31
0.0
  0
LINE
  5
85732
  8
U1
 10
15216.0
 20
17188.921500361292
 30
0.0
 11
15116.0
 21
17188.921500361292
 31
0.0
  0
LINE
  5
85733
  8
U1
 10
15116.0
 20
17188.921500361292
 30
0.0
 11
15116.0
 21
17218.921500361292
 31
0.0
  0
LINE
  5
85734
  8
U1
 10
12816.0
 20
17218.921500361292
 30
0.0
 11
12916.0
 21
17218.921500361292
 31
0.0
  0
LINE
  5
85735
  8
U1
 10
12916.0
 20
17218.921500361292
 30
0.0
 11
12916.0
 21
17188.921500361292
 31
0.0
  0
LINE
  5
85736
  8
U1
 10
12916.0
 20
17188.921500361292
 30
0.0
 11
12816.0
 21
17188.921500361292
 31
0.0
  0
LINE
  5
85737
  8
U1
 10
12816.0
 20
17188.921500361292
 30
0.0
 11
12816.0
 21
17218.921500361292
 31
0.0
  0
LINE
  5
85738
  8
U1
 10
12316.0
 20
17218.921500361292
 30
0.0
 11
12416.0
 21
17218.921500361292
 31
0.0
  0
LINE
  5
85739
  8
U1
 10
12416.0
 20
17218.921500361292
 30
0.0
 11
12416.0
 21
17188.921500361292
 31
0.0
  0
LINE
  5
8573A
  8
U1
 10
12416.0
 20
17188.921500361292
 30
0.0
 11
12316.0
 21
17188.921500361292
 31
0.0
  0
LINE
  5
8573B
  8
U1
 10
12316.0
 20
17188.921500361292
 30
0.0
 11
12316.0
 21
17218.921500361292
 31
0.0
  0
LINE
  5
8573C
  8
U1
 10
9516.0
 20
17218.921500361292
 30
0.0
 11
9616.0
 21
17218.921500361292
 31
0.0
  0
LINE
  5
8573D
  8
U1
 10
9616.0
 20
17218.921500361292
 30
0.0
 11
9616.0
 21
17188.921500361292
 31
0.0
  0
LINE
  5
8573E
  8
U1
 10
9616.0
 20
17188.921500361292
 30
0.0
 11
9516.0
 21
17188.921500361292
 31
0.0
  0
LINE
  5
8573F
  8
U1
 10
9516.0
 20
17188.921500361292
 30
0.0
 11
9516.0
 21
17218.921500361292
 31
0.0
  0
LINE
  5
85740
  8
U1
 10
10016.0
 20
17218.921500361292
 30
0.0
 11
10116.0
 21
17218.921500361292
 31
0.0
  0
LINE
  5
85741
  8
U1
 10
10116.0
 20
17218.921500361292
 30
0.0
 11
10116.0
 21
17188.921500361292
 31
0.0
  0
LINE
  5
85742
  8
U1
 10
10116.0
 20
17188.921500361292
 30
0.0
 11
10016.0
 21
17188.921500361292
 31
0.0
  0
LINE
  5
85743
  8
U1
 10
10016.0
 20
17188.921500361292
 30
0.0
 11
10016.0
 21
17218.921500361292
 31
0.0
  0
LINE
  5
85744
  8
U1
 10
18416.0
 20
17218.921500361292
 30
0.0
 11
18516.0
 21
17218.921500361292
 31
0.0
  0
LINE
  5
85745
  8
U1
 10
18516.0
 20
17218.921500361292
 30
0.0
 11
18516.0
 21
17188.921500361292
 31
0.0
  0
LINE
  5
85746
  8
U1
 10
18516.0
 20
17188.921500361292
 30
0.0
 11
18416.0
 21
17188.921500361292
 31
0.0
  0
LINE
  5
85747
  8
U1
 10
18416.0
 20
17188.921500361292
 30
0.0
 11
18416.0
 21
17218.921500361292
 31
0.0
  0
LINE
  5
85748
  8
U1
 10
17916.0
 20
17218.921500361292
 30
0.0
 11
18016.0
 21
17218.921500361292
 31
0.0
  0
LINE
  5
85749
  8
U1
 10
18016.0
 20
17218.921500361292
 30
0.0
 11
18016.0
 21
17188.921500361292
 31
0.0
  0
LINE
  5
8574A
  8
U1
 10
18016.0
 20
17188.921500361292
 30
0.0
 11
17916.0
 21
17188.921500361292
 31
0.0
  0
LINE
  5
8574B
  8
U1
 10
17916.0
 20
17188.921500361292
 30
0.0
 11
17916.0
 21
17218.921500361292
 31
0.0
  0
LINE
  5
8574C
  8
U1
 10
20715.999999999989
 20
17218.921500361292
 30
0.0
 11
20815.999999999989
 21
17218.921500361292
 31
0.0
  0
LINE
  5
8574D
  8
U1
 10
20815.999999999989
 20
17218.921500361292
 30
0.0
 11
20815.999999999989
 21
17188.921500361292
 31
0.0
  0
LINE
  5
8574E
  8
U1
 10
20815.999999999989
 20
17188.921500361292
 30
0.0
 11
20715.999999999989
 21
17188.921500361292
 31
0.0
  0
LINE
  5
8574F
  8
U1
 10
20715.999999999989
 20
17188.921500361292
 30
0.0
 11
20715.999999999989
 21
17218.921500361292
 31
0.0
  0
LINE
  5
85750
  8
U1
 10
21215.999999999989
 20
17218.921500361292
 30
0.0
 11
21315.999999999989
 21
17218.921500361292
 31
0.0
  0
LINE
  5
85751
  8
U1
 10
21315.999999999989
 20
17218.921500361292
 30
0.0
 11
21315.999999999989
 21
17188.921500361292
 31
0.0
  0
LINE
  5
85752
  8
U1
 10
21315.999999999989
 20
17188.921500361292
 30
0.0
 11
21215.999999999989
 21
17188.921500361292
 31
0.0
  0
LINE
  5
85753
  8
U1
 10
21215.999999999989
 20
17188.921500361292
 30
0.0
 11
21215.999999999989
 21
17218.921500361292
 31
0.0
  0
LINE
  5
85754
  8
U1
 10
23515.999999999989
 20
17218.921500361292
 30
0.0
 11
23615.999999999989
 21
17218.921500361292
 31
0.0
  0
LINE
  5
85755
  8
U1
 10
23615.999999999989
 20
17218.921500361292
 30
0.0
 11
23615.999999999989
 21
17188.921500361292
 31
0.0
  0
LINE
  5
85756
  8
U1
 10
23615.999999999989
 20
17188.921500361292
 30
0.0
 11
23515.999999999989
 21
17188.921500361292
 31
0.0
  0
LINE
  5
85757
  8
U1
 10
23515.999999999989
 20
17188.921500361292
 30
0.0
 11
23515.999999999989
 21
17218.921500361292
 31
0.0
  0
LINE
  5
85758
  8
U1
 10
24015.999999999989
 20
17218.921500361292
 30
0.0
 11
24115.999999999989
 21
17218.921500361292
 31
0.0
  0
LINE
  5
85759
  8
U1
 10
24115.999999999989
 20
17218.921500361292
 30
0.0
 11
24115.999999999989
 21
17188.921500361292
 31
0.0
  0
LINE
  5
8575A
  8
U1
 10
24115.999999999989
 20
17188.921500361292
 30
0.0
 11
24015.999999999989
 21
17188.921500361292
 31
0.0
  0
LINE
  5
8575B
  8
U1
 10
24015.999999999989
 20
17188.921500361292
 30
0.0
 11
24015.999999999989
 21
17218.921500361292
 31
0.0
  0
LINE
  5
8575C
  8
U5
 10
19090.999999999942
 20
5485.2917521017807
 30
0.0
 11
20040.999999999942
 21
5485.2917521017807
 31
0.0
  0
LINE
  5
8575D
  8
U5
 10
20040.999999999942
 20
5485.2917521017807
 30
0.0
 11
20040.999999999942
 21
5985.2917521017807
 31
0.0
  0
LINE
  5
8575E
  8
U5
 10
20040.999999999942
 20
5985.2917521017807
 30
0.0
 11
19090.999999999942
 21
5985.2917521017807
 31
0.0
  0
LINE
  5
8575F
  8
U5
 10
19090.999999999942
 20
5985.2917521017807
 30
0.0
 11
19090.999999999942
 21
5485.2917521017807
 31
0.0
  0
LINE
  5
85760
  8
U5
 10
21840.999999999949
 20
5485.2917521017807
 30
0.0
 11
22790.999999999949
 21
5485.2917521017807
 31
0.0
  0
LINE
  5
85761
  8
U5
 10
22790.999999999949
 20
5485.2917521017807
 30
0.0
 11
22790.999999999949
 21
5985.2917521017807
 31
0.0
  0
LINE
  5
85762
  8
U5
 10
22790.999999999949
 20
5985.2917521017807
 30
0.0
 11
21840.999999999949
 21
5985.2917521017807
 31
0.0
  0
LINE
  5
85763
  8
U5
 10
21840.999999999949
 20
5985.2917521017807
 30
0.0
 11
21840.999999999949
 21
5485.2917521017807
 31
0.0
  0
LINE
  5
85764
  8
KERABA
 10
10928.47380611341
 20
9021.6195885777252
 30
0.0
 11
10922.93825572875
 21
9089.3939029006433
 31
0.0
  0
LINE
  5
85765
  8
KERABA
 10
10922.93825572875
 20
9089.3939029006433
 30
0.0
 11
10926.59658716561
 21
9093.7086000045365
 31
0.0
  0
LINE
  5
85766
  8
KERABA
 10
10926.59658716561
 20
9093.7086000045365
 30
0.0
 11
10925.77613008174
 21
9103.6748856804188
 31
0.0
  0
LINE
  5
85767
  8
KERABA
 10
10925.77613008174
 20
9103.6748856804188
 30
0.0
 11
10923.618781529831
 21
9105.5040513988515
 31
0.0
  0
LINE
  5
85768
  8
KERABA
 10
10923.618781529831
 20
9105.5040513988515
 30
0.0
 11
10922.798324445959
 21
9115.4703370747302
 31
0.0
  0
LINE
  5
85769
  8
KERABA
 10
10922.798324445959
 20
9115.4703370747302
 30
0.0
 11
10920.640975894001
 21
9117.299502793132
 31
0.0
  0
LINE
  5
8576A
  8
KERABA
 10
10920.640975894001
 20
9117.299502793132
 30
0.0
 11
10919.213380568141
 21
9134.6408398692001
 31
0.0
  0
ARC
  5
8576B
  8
KERABA
 10
10929.77764338459
 20
9135.5105243780818
 30
0.0
 40
10.600000000005849
 50
94.706162844004695
 51
184.7061628439549
  0
LINE
  5
8576C
  8
KERABA
 10
10928.907958875699
 20
9146.074787194535
 30
0.0
 11
10953.22569592489
 21
9148.0767024790839
 31
0.0
  0
LINE
  5
8576D
  8
KERABA
 10
10953.22569592489
 20
9148.0767024790839
 30
0.0
 11
10967.993923434
 21
8968.6835603129439
 31
0.0
  0
LINE
  5
8576E
  8
KERABA
 10
10967.993923434
 20
8968.6835603129439
 30
0.0
 11
10943.67618638487
 21
8966.6816450283932
 31
0.0
  0
ARC
  5
8576F
  8
KERABA
 10
10942.806501875981
 20
8977.2459078448392
 30
0.0
 40
10.599999999995569
 50
184.7061628439491
 51
274.70616284399892
  0
LINE
  5
85770
  8
KERABA
 10
10932.242239059529
 20
8976.3762233359594
 30
0.0
 11
10930.814643733611
 21
8993.7175604120275
 31
0.0
  0
LINE
  5
85771
  8
KERABA
 10
10930.814643733611
 20
8993.7175604120275
 30
0.0
 11
10934.472975170471
 21
8998.0322575159207
 31
0.0
  0
LINE
  5
85772
  8
KERABA
 10
10934.472975170471
 20
8998.0322575159207
 30
0.0
 11
10933.652518086599
 21
9007.998543191803
 31
0.0
  0
LINE
  5
85773
  8
KERABA
 10
10933.652518086599
 20
9007.998543191803
 30
0.0
 11
10931.495169534701
 21
9009.8277089102339
 31
0.0
  0
LINE
  5
85774
  8
KERABA
 10
10931.495169534701
 20
9009.8277089102339
 30
0.0
 11
10930.674712450829
 21
9019.7939945861144
 31
0.0
  0
LINE
  5
85775
  8
KERABA
 10
10930.674712450829
 20
9019.7939945861144
 30
0.0
 11
10928.517363898871
 21
9021.6231603045453
 31
0.0
  0
LINE
  5
85776
  8
KERABA
 10
17245.149225280391
 20
9541.6288600416592
 30
0.0
 11
17243.320059561989
 21
9539.4715114897263
 31
0.0
  0
LINE
  5
85777
  8
KERABA
 10
17243.320059561989
 20
9539.4715114897263
 30
0.0
 11
17244.140516645799
 21
9529.5052258138167
 31
0.0
  0
LINE
  5
85778
  8
KERABA
 10
17244.140516645799
 20
9529.5052258138167
 30
0.0
 11
17242.311350927401
 21
9527.3478772618546
 31
0.0
  0
LINE
  5
85779
  8
KERABA
 10
17242.311350927401
 20
9527.3478772618546
 30
0.0
 11
17243.131808011269
 21
9517.3815915859741
 31
0.0
  0
LINE
  5
8577A
  8
KERABA
 10
17243.131808011269
 20
9517.3815915859741
 30
0.0
 11
17247.446505115138
 21
9513.7232601491414
 31
0.0
  0
LINE
  5
8577B
  8
KERABA
 10
17247.446505115138
 20
9513.7232601491414
 30
0.0
 11
17248.874100441059
 21
9496.3819230730733
 31
0.0
  0
ARC
  5
8577C
  8
KERABA
 10
17238.309837624591
 20
9495.5122385642353
 30
0.0
 40
10.60000000001496
 50
274.7061628437533
 51
4.7061628437140808
  0
LINE
  5
8577D
  8
KERABA
 10
17239.179522133429
 20
9484.9479757477675
 30
0.0
 11
17214.861785084238
 21
9482.9460604631895
 31
0.0
  0
LINE
  5
8577E
  8
KERABA
 10
17214.861785084238
 20
9482.9460604631895
 30
0.0
 11
17200.093557575139
 21
9662.3392026293313
 31
0.0
  0
LINE
  5
8577F
  8
KERABA
 10
17200.093557575139
 20
9662.3392026293313
 30
0.0
 11
17224.411294624329
 21
9664.3411179139075
 31
0.0
  0
ARC
  5
85780
  8
KERABA
 10
17225.2809791332
 20
9653.7768550974488
 30
0.0
 40
10.60000000000888
 50
4.7061628438642931
 51
94.706162843914086
  0
LINE
  5
85781
  8
KERABA
 10
17235.845241949661
 20
9654.646539606314
 30
0.0
 11
17237.272837275519
 21
9637.3052025302768
 31
0.0
  0
LINE
  5
85782
  8
KERABA
 10
17237.272837275519
 20
9637.3052025302768
 30
0.0
 11
17235.443671557121
 21
9635.1478539783129
 31
0.0
  0
LINE
  5
85783
  8
KERABA
 10
17235.443671557121
 20
9635.1478539783129
 30
0.0
 11
17236.264128640942
 21
9625.1815683024324
 31
0.0
  0
LINE
  5
85784
  8
KERABA
 10
17236.264128640942
 20
9625.1815683024324
 30
0.0
 11
17234.43496292254
 21
9623.0242197504704
 31
0.0
  0
LINE
  5
85785
  8
KERABA
 10
17234.43496292254
 20
9623.0242197504704
 30
0.0
 11
17235.255420006411
 21
9613.0579340745899
 31
0.0
  0
LINE
  5
85786
  8
KERABA
 10
17235.255420006411
 20
9613.0579340745899
 30
0.0
 11
17239.57011711027
 21
9609.3996026377572
 31
0.0
  0
LINE
  5
85787
  8
KERABA
 10
17239.57011711027
 20
9609.3996026377572
 30
0.0
 11
17245.149225280391
 21
9541.6288600416592
 31
0.0
  0
ENDSEC
  0
EOF
