  0
SECTION
  2
HEADER
  9
$ACADVER
  1
AC1009
  9
$INSBASE
 10
267.00000000000011
 20
194.89999999999981
 30
0.0
  9
$EXTMIN
 10
867.99324330406671
 20
327.38164749855792
 30
-0.0000000000000053
  9
$EXTMAX
 10
32765.33210850941
 20
22484.553276491992
 30
0.0000000000000099
  9
$LIMMIN
 10
0.0
 20
0.0
  9
$LIMMAX
 10
33600.0
 20
23760.0
  9
$ORTHOMODE
 70
     0
  9
$REGENMODE
 70
     1
  9
$FILLMODE
 70
     1
  9
$QTEXTMODE
 70
     0
  9
$MIRRTEXT
 70
     0
  9
$DRAGMODE
 70
     2
  9
$LTSCALE
 40
80.0
  9
$OSMODE
 70
  3071
  9
$ATTMODE
 70
     1
  9
$TEXTSIZE
 40
0.2
  9
$TRACEWID
 40
0.05
  9
$TEXTSTYLE
  7
00
  9
$CLAYER
  8
SUNPOU
  9
$CELTYPE
  6
BYLAYER
  9
$CECOLOR
 62
   256
  9
$DIMSCALE
 40
80.0
  9
$DIMASZ
 40
0.5
  9
$DIMEXO
 40
1.0
  9
$DIMDLI
 40
7.0
  9
$DIMRND
 40
0.0
  9
$DIMDLE
 40
3.0
  9
$DIMEXE
 40
1.0
  9
$DIMTP
 40
0.0
  9
$DIMTM
 40
0.0
  9
$DIMTXT
 40
2.0
  9
$DIMCEN
 40
0.0
  9
$DIMTSZ
 40
0.0
  9
$DIMTOL
 70
     0
  9
$DIMLIM
 70
     0
  9
$DIMTIH
 70
     0
  9
$DIMTOH
 70
     0
  9
$DIMSE1
 70
     0
  9
$DIMSE2
 70
     0
  9
$DIMTAD
 70
     1
  9
$DIMZIN
 70
     8
  9
$DIMBLK
  1
DOT
  9
$DIMASO
 70
     1
  9
$DIMSHO
 70
     0
  9
$DIMPOST
  1

  9
$DIMAPOST
  1

  9
$DIMALT
 70
     0
  9
$DIMALTD
 70
     2
  9
$DIMALTF
 40
25.399999999999999
  9
$DIMLFAC
 40
1.0
  9
$DIMTOFL
 70
     1
  9
$DIMTVP
 40
0.0
  9
$DIMTIX
 70
     0
  9
$DIMSOXD
 70
     0
  9
$DIMSAH
 70
     1
  9
$DIMBLK1
  1
DOT
  9
$DIMBLK2
  1
DOT
  9
$DIMSTYLE
  2
SUNPOU_申請図
  9
$DIMCLRD
 70
   256
  9
$DIMCLRE
 70
   256
  9
$DIMCLRT
 70
   256
  9
$DIMTFAC
 40
1.0
  9
$DIMGAP
 40
1.0
  9
$LUNITS
 70
     2
  9
$LUPREC
 70
     2
  9
$SKETCHINC
 40
0.1
  9
$FILLETRAD
 40
0.0
  9
$AUNITS
 70
     0
  9
$AUPREC
 70
     0
  9
$MENU
  1
A:\TIGER\MENU\TIGER
  9
$ELEVATION
 40
0.0
  9
$PELEVATION
 40
0.0
  9
$THICKNESS
 40
0.0
  9
$LIMCHECK
 70
     0
  9
$BLIPMODE
 70
     1
  9
$CHAMFERA
 40
0.0
  9
$CHAMFERB
 40
0.0
  9
$SKPOLY
 70
     0
  9
$TDCREATE
 40
2450266.5710648149
  9
$TDUPDATE
 40
2456314.7160834381
  9
$TDINDWG
 40
0.6079782639
  9
$TDUSRTIMER
 40
0.6079782639
  9
$USRTIMER
 70
     1
  9
$ANGBASE
 50
0.0
  9
$ANGDIR
 70
     0
  9
$PDMODE
 70
     0
  9
$PDSIZE
 40
0.0
  9
$PLINEWID
 40
0.0
  9
$COORDS
 70
     0
  9
$SPLFRAME
 70
     0
  9
$SPLINETYPE
 70
     6
  9
$SPLINESEGS
 70
     8
  9
$ATTDIA
 70
     0
  9
$ATTREQ
 70
     1
  9
$HANDLING
 70
     1
  9
$HANDSEED
  5
7532C
  9
$SURFTAB1
 70
     6
  9
$SURFTAB2
 70
     6
  9
$SURFTYPE
 70
     6
  9
$SURFU
 70
     6
  9
$SURFV
 70
     6
  9
$UCSNAME
  2

  9
$UCSORG
 10
0.0
 20
0.0
 30
0.0
  9
$UCSXDIR
 10
1.0
 20
0.0
 30
0.0
  9
$UCSYDIR
 10
0.0
 20
1.0
 30
0.0
  9
$PUCSNAME
  2

  9
$PUCSORG
 10
0.0
 20
0.0
 30
0.0
  9
$PUCSXDIR
 10
1.0
 20
0.0
 30
0.0
  9
$PUCSYDIR
 10
0.0
 20
1.0
 30
0.0
  9
$USERI1
 70
     3
  9
$USERI2
 70
     0
  9
$USERI3
 70
     0
  9
$USERI4
 70
     0
  9
$USERI5
 70
  1103
  9
$USERR1
 40
0.0
  9
$USERR2
 40
1.0
  9
$USERR3
 40
0.0
  9
$USERR4
 40
0.0
  9
$USERR5
 40
0.0
  9
$WORLDVIEW
 70
     1
  9
$SHADEDGE
 70
     3
  9
$SHADEDIF
 70
    70
  9
$TILEMODE
 70
     1
  9
$MAXACTVP
 70
    16
  9
$PLIMCHECK
 70
     0
  9
$PEXTMIN
 10
1.0000000000000000E+020
 20
1.0000000000000000E+020
 30
1.0000000000000000E+020
  9
$PEXTMAX
 10
-1.0000000000000000E+020
 20
-1.0000000000000000E+020
 30
-1.0000000000000000E+020
  9
$PLIMMIN
 10
0.0
 20
0.0
  9
$PLIMMAX
 10
12.0
 20
9.0
  9
$UNITMODE
 70
     0
  9
$VISRETAIN
 70
     0
  9
$PLINEGEN
 70
     1
  9
$PSLTSCALE
 70
     0
  0
ENDSEC
  0
SECTION
  2
TABLES
  0
TABLE
  2
VPORT
 70
     1
  0
VPORT
  2
*ACTIVE
 70
     0
 10
0.0
 20
0.0
 11
1.0
 21
1.0
 12
16800.0
 22
11880.0
 13
0.0
 23
0.0
 14
1.0
 24
1.0
 15
0.0
 25
0.0
 16
0.0
 26
0.0
 36
1.0
 17
0.0
 27
0.0
 37
0.0
 40
23958.55153203342
 41
1.6471408647140859
 42
50.0
 43
0.0
 44
0.0
 50
0.0
 51
0.0
 71
     0
 72
 10000
 73
     1
 74
     0
 75
     0
 76
     0
 77
     0
 78
     0
  0
ENDTAB
  0
TABLE
  2
LTYPE
 70
     4
  0
LTYPE
  2
CONTINUOUS
 70
     0
  3
実線
 72
    65
 73
     0
 40
0.0
  0
LTYPE
  2
1PL-M
 70
     0
  3

 72
    65
 73
     4
 40
15.0
 49
12.0
 49
-1.0
 49
1.0
 49
-1.0
  0
ENDTAB
  0
TABLE
  2
LAYER
 70
    19
  0
LAYER
  2
0
 70
     0
 62
     7
  6
CONTINUOUS
  0
LAYER
  2
U1
 70
     0
 62
     3
  6
CONTINUOUS
  0
LAYER
  2
U3
 70
     0
 62
     6
  6
CONTINUOUS
  0
LAYER
  2
SUNPOU
 70
     0
 62
     4
  6
CONTINUOUS
  0
LAYER
  2
HIKIDASHI
 70
     0
 62
     6
  6
CONTINUOUS
  0
LAYER
  2
1PL-M1
 70
     0
 62
     6
  6
1PL-M
  0
LAYER
  2
NAME
 70
     0
 62
    20
  6
CONTINUOUS
  0
LAYER
  2
KERABA
 70
     0
 62
     3
  6
CONTINUOUS
  0
LAYER
  2
FILENAME
 70
     0
 62
     7
  6
CONTINUOUS
  0
LAYER
  2
YODOROGO
 70
     0
 62
   130
  6
CONTINUOUS
  0
LAYER
  2
WAKUSEN-01
 70
     0
 62
    50
  6
CONTINUOUS
  0
LAYER
  2
WAKUSEN-02
 70
     0
 62
   130
  6
CONTINUOUS
  0
LAYER
  2
WAKUMOJI-01
 70
     0
 62
   130
  6
CONTINUOUS
  0
LAYER
  2
下屋前桁
 70
     0
 62
     3
  6
CONTINUOUS
  0
LAYER
  2
U5
 70
     0
 62
     4
  6
CONTINUOUS
  0
LAYER
  2
TOI
 70
     0
 62
     3
  6
CONTINUOUS
  0
ENDTAB
  0
TABLE
  2
STYLE
 70
     5
  0
STYLE
  2
STANDARD
 70
     0
 40
3.0
 41
1.0
 50
0.0
 71
     0
 42
0.2
  3
ROMANS
  4
EXTFONT
  0
STYLE
  2
01
 70
     0
 40
3.0
 41
1.0
 50
0.0
 71
     0
 42
0.2
  3
ROMANS
  4
BIGFONT
  0
STYLE
  2
00
 70
     0
 40
0.0
 41
0.6666666666666666
 50
0.0
 71
     0
 42
0.2
  3
ROMANS
  4
BIGFONT
  0
STYLE
  2
FILENAME
 70
     0
 40
200.0
 41
1.0
 50
0.0
 71
     0
 42
200.0
  3
romans
  4
bigfont
  0
STYLE
  2
WAKUMOJI
 70
     0
 40
3.0
 41
1.0
 50
0.0
 71
     0
 42
3.0
  3
SIMPLEX
  4
BIGFONT
  0
ENDTAB
  0
TABLE
  2
VIEW
 70
     0
  0
ENDTAB
  0
TABLE
  2
UCS
 70
     0
  0
ENDTAB
  0
TABLE
  2
APPID
 70
    13
  0
APPID
  2
ACAD
 70
     0
  0
APPID
  2
AUTOCAD_POSTSCRIPT_FIGURE
 70
     0
  0
APPID
  2
CONTENTBLOCKICON
 70
     0
  0
APPID
  2
ACAD_PSEXT
 70
     0
  0
APPID
  2
ACAD_EXEMPT_FROM_CAD_STANDARDS
 70
     0
  0
APPID
  2
ACAD_NAV_VCDISPLAY
 70
     0
  0
APPID
  2
ACAECLAYERSTANDARD
 70
     0
  0
APPID
  2
ACCMTRANSPARENCY
 70
     0
  0
APPID
  2
ACLAYERTOOLS
 70
     0
  0
APPID
  2
GRADIENTCOLOR1ACI
 70
     0
  0
APPID
  2
GRADIENTCOLOR2ACI
 70
     0
  0
APPID
  2
AEC_XDATA_BOUND_SPACE
 70
     0
  0
APPID
  2
ACAD_MLEADERVER
 70
     0
  0
ENDTAB
  0
TABLE
  2
DIMSTYLE
 70
     4
  0
DIMSTYLE
  2
SUNPOU_申請図
 70
     0
  3

  4

  5
DOT
  6
DOT
  7
DOT
 40
80.0
 41
0.5
 42
1.0
 43
7.0
 44
1.0
 45
0.0
 46
3.0
 47
0.0
 48
0.0
140
2.0
141
0.0
142
0.0
143
25.399999999999999
144
1.0
145
0.0
146
1.0
147
1.0
 71
     0
 72
     0
 73
     0
 74
     0
 75
     0
 76
     0
 77
     1
 78
     8
170
     0
171
     2
172
     1
173
     1
174
     0
175
     0
176
   256
177
   256
178
   256
  0
ENDTAB
  0
ENDSEC
  0
SECTION
  2
BLOCKS
  0
BLOCK
  8
0
  2
$MODEL_SPACE
 70
     0
 10
0.0
 20
0.0
 30
0.0
  3
$MODEL_SPACE
  1

  0
ENDBLK
  5
125F7
  8
0
  0
BLOCK
 67
     1
  8
0
  2
$PAPER_SPACE
 70
     0
 10
0.0
 20
0.0
 30
0.0
  3
$PAPER_SPACE
  1

  0
ENDBLK
  5
125F5
 67
     1
  8
0
  0
BLOCK
  8
0
  2
DOT
 70
     0
 10
0.0
 20
0.0
 30
0.0
  3
DOT
  1

  0
POLYLINE
  5
12980
  8
0
  6
BYBLOCK
 62
     0
 66
     1
 10
0.0
 20
0.0
 30
0.0
 70
     1
 40
0.75
 41
0.75
  0
VERTEX
  5
752EC
  8
0
  6
BYBLOCK
 62
     0
 10
-0.375
 20
0.0
 30
0.0
 42
1.0
  0
VERTEX
  5
752ED
  8
0
  6
BYBLOCK
 62
     0
 10
0.375
 20
0.0
 30
0.0
 42
1.0
  0
SEQEND
  5
752EE
  8
0
  6
BYBLOCK
 62
     0
  0
LINE
  5
12981
  8
0
  6
BYBLOCK
 62
     0
 10
-0.75
 20
0.0
 30
0.0
 11
-1.5
 21
0.0
 31
0.0
  0
ENDBLK
  5
12982
  8
0
  0
ENDSEC
  0
SECTION
  2
ENTITIES
  0
TEXT
  5
591CB
  8
NAME
 10
21780.693652393769
 20
1877.7796840770311
 30
0.0
 40
360.0
  1
ヨ ド 倉 庫（下屋付き）
  7
01
  0
TEXT
  5
591CD
  8
NAME
 10
21605.457695437719
 20
1049.779684077017
 30
0.0
 40
340.0
  1
SOB-8657MA
 41
0.6400000000000001
  7
00
  0
TEXT
  5
591CE
  8
NAME
 10
23883.859666886681
 20
1050.2352588493079
 30
0.0
 40
340.0
  1
型（単棟）
 41
0.6400000000000001
  7
00
  0
TEXT
  5
598FC
  8
NAME
 10
25127.71276207015
 20
1049.779684077017
 30
0.0
 40
340.0
  1
+
 41
0.6400000000000001
  7
00
  0
TEXT
  5
598FD
  8
NAME
 10
25465.029220107899
 20
1050.2352588493079
 30
0.0
 40
340.0
  1
下屋
 41
0.6400000000000001
  7
00
  0
LINE
  5
64CFB
  8
HIKIDASHI
 10
11375.05621293601
 20
15537.63741541309
 30
0.0
 11
12345.528500625011
 21
15537.63741541309
 31
0.0
  0
TEXT
  5
64CFC
  8
HIKIDASHI
 10
11392.116531612601
 20
15577.63741541309
 30
0.0
 40
160.0
  1
シャッター
  7
01
  0
LINE
  5
64CFF
  8
U1
 10
18216.0
 20
15918.12150036126
 30
0.0
 11
11517.09313967808
 21
15918.12150036126
 31
0.0
  0
LINE
  5
64D00
  8
U1
 10
12573.50000000002
 20
18995.975870572482
 30
0.0
 11
12573.50000000002
 21
15918.12150036126
 31
0.0
  0
LINE
  5
64D01
  8
U1
 10
12658.50000000002
 20
15918.12150036126
 30
0.0
 11
12658.50000000002
 21
18901.121500361289
 31
0.0
  0
LINE
  5
64D02
  8
U1
 10
18216.0
 20
15918.12150036126
 30
0.0
 11
22114.906860321938
 21
15918.12150036126
 31
0.0
  0
LINE
  5
64D03
  8
U1
 10
21058.500000000011
 20
18995.975870572482
 30
0.0
 11
21058.500000000011
 21
15918.12150036126
 31
0.0
  0
LINE
  5
64D04
  8
U1
 10
20973.500000000011
 20
15918.12150036126
 30
0.0
 11
20973.500000000011
 21
18901.121500361289
 31
0.0
  0
TEXT
  5
64D06
  8
SUNPOU
 10
14668.81673982149
 20
15198.121500361291
 30
0.0
 40
160.0
  1
下屋有効開口巾
  7
01
  0
LINE
  5
64D1C
  8
U1
 10
12496.00000000008
 20
15918.12150036126
 30
0.0
 11
12496.00000000014
 21
16318.12150036126
 31
0.0
  0
LINE
  5
64D1F
  8
U1
 10
21135.99999999996
 20
15918.121500361191
 30
0.0
 11
21135.999999999909
 21
16318.121500361191
 31
0.0
  0
TEXT
  5
64EB9
  8
SUNPOU
 10
11610.99999999998
 20
16374.41990886522
 30
0.0
 40
160.0
  1
シャッター有効開口高サ
 50
90.0
  7
01
  0
TEXT
  5
64EBA
  8
SUNPOU
 10
11611.00000000002
 20
18500.257522980639
 30
0.0
 40
160.0
  1
2670
 50
90.0
 41
0.6700000000000002
  7
00
  0
LINE
  5
64F07
  8
KERABA
 10
12456.00000000002
 20
18995.975870572482
 30
0.0
 11
12456.00000000002
 21
19175.40624389947
 31
0.0
  0
LINE
  5
64F08
  8
KERABA
 10
12491.00000000002
 20
18995.975870572482
 30
0.0
 11
12491.00000000002
 21
19175.40624389947
 31
0.0
  0
LINE
  5
64F09
  8
KERABA
 10
12456.00000000002
 20
19051.975870572482
 30
0.0
 11
18216.0
 21
19051.975870572482
 31
0.0
  0
LINE
  5
64F0A
  8
KERABA
 10
12456.00000000002
 20
19049.975870572482
 30
0.0
 11
18216.0
 21
19049.975870572482
 31
0.0
  0
LINE
  5
64F0B
  8
KERABA
 10
12456.00000000002
 20
19039.975870572482
 30
0.0
 11
18216.0
 21
19039.975870572482
 31
0.0
  0
LINE
  5
64F0C
  8
KERABA
 10
12456.00000000002
 20
19037.975870572482
 30
0.0
 11
18216.0
 21
19037.975870572482
 31
0.0
  0
LINE
  5
64F0D
  8
KERABA
 10
12456.00000000002
 20
19027.975870572482
 30
0.0
 11
18216.0
 21
19027.975870572482
 31
0.0
  0
LINE
  5
64F0E
  8
KERABA
 10
12456.00000000002
 20
19119.40624389947
 30
0.0
 11
18216.0
 21
19119.40624389947
 31
0.0
  0
LINE
  5
64F0F
  8
KERABA
 10
12456.00000000002
 20
19123.40624389947
 30
0.0
 11
18216.0
 21
19123.40624389947
 31
0.0
  0
LINE
  5
64F10
  8
KERABA
 10
12456.00000000002
 20
19133.40624389947
 30
0.0
 11
18216.0
 21
19133.40624389947
 31
0.0
  0
LINE
  5
64F11
  8
KERABA
 10
12456.00000000002
 20
19135.40624389947
 30
0.0
 11
18216.0
 21
19135.40624389947
 31
0.0
  0
LINE
  5
64F12
  8
KERABA
 10
12456.00000000002
 20
19145.40624389947
 30
0.0
 11
18216.0
 21
19145.40624389947
 31
0.0
  0
LINE
  5
64F13
  8
KERABA
 10
12456.00000000002
 20
19023.975870572482
 30
0.0
 11
18216.0
 21
19023.975870572482
 31
0.0
  0
LINE
  5
64F14
  8
KERABA
 10
12456.00000000002
 20
19147.40624389947
 30
0.0
 11
18216.0
 21
19147.40624389947
 31
0.0
  0
LINE
  5
64F15
  8
KERABA
 10
12456.00000000002
 20
18995.975870572482
 30
0.0
 11
18216.0
 21
18995.975870572482
 31
0.0
  0
LINE
  5
64F16
  8
KERABA
 10
12456.00000000002
 20
19175.40624389947
 30
0.0
 11
18216.0
 21
19175.40624389947
 31
0.0
  0
LINE
  5
64F17
  8
下屋前桁
 10
18172.999999999949
 20
18893.121500361322
 30
0.0
 11
12659.00000000008
 21
18893.121500361322
 31
0.0
  0
LINE
  5
64F18
  8
下屋前桁
 10
12659.00000000002
 20
18901.121500361322
 30
0.0
 11
12621.00000000002
 21
18901.121500361289
 31
0.0
  0
ARC
  5
64F19
  8
下屋前桁
 10
12621.00000000002
 20
18906.121500361289
 30
0.0
 40
5.0
 50
180.0
 51
270.0
  0
LINE
  5
64F1A
  8
下屋前桁
 10
12659.00000000008
 20
18901.121500361322
 30
0.0
 11
12659.00000000008
 21
18893.121500361289
 31
0.0
  0
LINE
  5
64F1B
  8
下屋前桁
 10
12616.00000000002
 20
18995.975870572482
 30
0.0
 11
12616.00000000002
 21
18906.121500361289
 31
0.0
  0
LINE
  5
64F1C
  8
KERABA
 10
21176.000000000011
 20
18995.975870572482
 30
0.0
 11
21176.000000000011
 21
19175.40624389947
 31
0.0
  0
LINE
  5
64F1D
  8
KERABA
 10
21141.000000000011
 20
18995.975870572482
 30
0.0
 11
21141.000000000011
 21
19175.40624389947
 31
0.0
  0
LINE
  5
64F1E
  8
KERABA
 10
21176.000000000011
 20
19051.975870572482
 30
0.0
 11
18216.0
 21
19051.975870572482
 31
0.0
  0
LINE
  5
64F1F
  8
KERABA
 10
21176.000000000011
 20
19049.975870572482
 30
0.0
 11
18216.0
 21
19049.975870572482
 31
0.0
  0
LINE
  5
64F20
  8
KERABA
 10
21176.000000000011
 20
19039.975870572482
 30
0.0
 11
18216.0
 21
19039.975870572482
 31
0.0
  0
LINE
  5
64F21
  8
KERABA
 10
21176.000000000011
 20
19037.975870572482
 30
0.0
 11
18216.0
 21
19037.975870572482
 31
0.0
  0
LINE
  5
64F22
  8
KERABA
 10
21176.000000000011
 20
19027.975870572482
 30
0.0
 11
18216.0
 21
19027.975870572482
 31
0.0
  0
LINE
  5
64F23
  8
KERABA
 10
21176.000000000011
 20
19119.40624389947
 30
0.0
 11
18216.0
 21
19119.40624389947
 31
0.0
  0
LINE
  5
64F24
  8
KERABA
 10
21176.000000000011
 20
19123.40624389947
 30
0.0
 11
18216.0
 21
19123.40624389947
 31
0.0
  0
LINE
  5
64F25
  8
KERABA
 10
21176.000000000011
 20
19133.40624389947
 30
0.0
 11
18216.0
 21
19133.40624389947
 31
0.0
  0
LINE
  5
64F26
  8
KERABA
 10
21176.000000000011
 20
19135.40624389947
 30
0.0
 11
18216.0
 21
19135.40624389947
 31
0.0
  0
LINE
  5
64F27
  8
KERABA
 10
21176.000000000011
 20
19145.40624389947
 30
0.0
 11
18216.0
 21
19145.40624389947
 31
0.0
  0
LINE
  5
64F28
  8
KERABA
 10
21176.000000000011
 20
19023.975870572482
 30
0.0
 11
18216.0
 21
19023.975870572482
 31
0.0
  0
LINE
  5
64F29
  8
KERABA
 10
21176.000000000011
 20
19147.40624389947
 30
0.0
 11
18216.0
 21
19147.40624389947
 31
0.0
  0
LINE
  5
64F2A
  8
KERABA
 10
21176.000000000011
 20
18995.975870572482
 30
0.0
 11
18216.0
 21
18995.975870572482
 31
0.0
  0
LINE
  5
64F2B
  8
KERABA
 10
21176.000000000011
 20
19175.40624389947
 30
0.0
 11
18216.0
 21
19175.40624389947
 31
0.0
  0
LINE
  5
64F2C
  8
下屋前桁
 10
18259.000000000109
 20
18893.121500361322
 30
0.0
 11
20972.999999999949
 21
18893.121500361322
 31
0.0
  0
LINE
  5
64F2D
  8
下屋前桁
 10
20973.000000000011
 20
18901.121500361322
 30
0.0
 11
21011.000000000011
 21
18901.121500361289
 31
0.0
  0
ARC
  5
64F2E
  8
下屋前桁
 10
21011.000000000011
 20
18906.121500361289
 30
0.0
 40
5.0
 50
270.0
 51
0.0
  0
LINE
  5
64F2F
  8
下屋前桁
 10
20972.999999999949
 20
18901.121500361322
 30
0.0
 11
20972.999999999949
 21
18893.121500361289
 31
0.0
  0
LINE
  5
64F30
  8
下屋前桁
 10
21016.000000000011
 20
18995.975870572482
 30
0.0
 11
21016.000000000011
 21
18906.121500361289
 31
0.0
  0
TEXT
  5
64F32
  8
SUNPOU
 10
22644.18766515885
 20
16728.49391049827
 30
0.0
 40
160.0
  1
下屋前桁下面カラ
 50
90.0
  7
01
 72
     1
 11
22644.18766515885
 21
17469.827243831602
 31
0.0
  0
TEXT
  5
64F33
  8
SUNPOU
 10
22895.273568788009
 20
16723.16057716493
 30
0.0
 40
160.0
  1
本体基礎天端マデ
 50
90.0
  7
01
 72
     1
 11
22895.273568788009
 21
17469.827243831602
 31
0.0
  0
TEXT
  5
64F34
  8
SUNPOU
 10
22329.192836211922
 20
16616.20927577023
 30
0.0
 40
160.0
  1
下屋有効開口高サ
 50
90.0
  7
01
  0
TEXT
  5
64F36
  8
SUNPOU
 10
23462.20542261286
 20
17169.779380197069
 30
0.0
 40
160.0
  1
下屋高サ
 50
90.0
  7
01
  0
LINE
  5
66A74
  8
TOI
 10
11076.700000000021
 20
6779.3512883093063
 30
0.0
 11
11076.700000000021
 21
6789.3512883093072
 31
0.0
  0
LINE
  5
66A75
  8
TOI
 10
11186.700000000021
 20
6789.3512883093072
 30
0.0
 11
11076.700000000021
 21
6789.3512883093072
 31
0.0
  0
LINE
  5
66A76
  8
TOI
 10
11186.700000000021
 20
6779.3512883093063
 30
0.0
 11
11076.700000000021
 21
6779.3512883093063
 31
0.0
  0
LINE
  5
66A77
  8
KERABA
 10
14091.42785426009
 20
9225.814810388154
 30
0.0
 11
14076.65962675087
 21
9405.2079525542922
 31
0.0
  0
LINE
  5
66A78
  8
TOI
 10
11081.700000000021
 20
8893.1498468246864
 30
0.0
 11
11141.700000000021
 21
8893.1498468246864
 31
0.0
  0
LINE
  5
66A7B
  8
TOI
 10
11081.700000000021
 20
8923.1498468246864
 30
0.0
 11
11032.60910966033
 21
8931.8058952985593
 31
0.0
  0
ARC
  5
66A7C
  8
TOI
 10
11091.700000000021
 20
8931.5408431364485
 30
0.0
 40
50.0
 50
0.0
 51
75.326571614839366
  0
LINE
  5
66A7D
  8
TOI
 10
11081.700000000021
 20
8923.1498468246864
 30
0.0
 11
11091.5219314517
 21
8978.8527881001792
 31
0.0
  0
LINE
  5
66A7E
  8
TOI
 10
11048.805117979129
 20
8975.3362009429984
 30
0.0
 11
11040.87262788364
 21
8930.3488140802219
 31
0.0
  0
ARC
  5
66A7F
  8
TOI
 10
11041.29151854368
 20
8981.0462829491735
 30
0.0
 40
50.0
 50
191.95309128701689
 51
259.99999999952519
  0
LINE
  5
66A80
  8
KERABA
 10
17200.09355757515
 20
9662.3392026293313
 30
0.0
 11
10953.225695924901
 21
9148.0767024790839
 31
0.0
  0
LINE
  5
66A81
  8
KERABA
 10
17237.272837275541
 20
9637.3052025302768
 30
0.0
 11
10920.64097589401
 21
9117.2995027931593
 31
0.0
  0
LINE
  5
66A82
  8
KERABA
 10
17235.443671557128
 20
9635.1478539783129
 30
0.0
 11
10922.79832444597
 21
9115.4703370747302
 31
0.0
  0
LINE
  5
66A83
  8
KERABA
 10
17236.264128640949
 20
9625.1815683024033
 30
0.0
 11
10923.618781529791
 21
9105.5040513988515
 31
0.0
  0
LINE
  5
66A84
  8
KERABA
 10
17234.434962922551
 20
9623.0242197504704
 30
0.0
 11
10925.776130081749
 21
9103.6748856804188
 31
0.0
  0
LINE
  5
66A85
  8
KERABA
 10
17235.255420006419
 20
9613.0579340745608
 30
0.0
 11
10926.596587165621
 21
9093.7086000045365
 31
0.0
  0
LINE
  5
66A86
  8
KERABA
 10
17239.570117110281
 20
9609.3996026377572
 30
0.0
 11
10922.938255728761
 21
9089.3939029006433
 31
0.0
  0
LINE
  5
66A87
  8
KERABA
 10
17242.311350927412
 20
9527.3478772618546
 30
0.0
 11
10933.65251808661
 21
9007.9985431918303
 31
0.0
  0
LINE
  5
66A88
  8
KERABA
 10
17243.320059562
 20
9539.4715114896971
 30
0.0
 11
10930.67471245084
 21
9019.7939945861435
 31
0.0
  0
LINE
  5
66A89
  8
KERABA
 10
17244.14051664581
 20
9529.5052258138167
 30
0.0
 11
10931.49516953465
 21
9009.8277089102339
 31
0.0
  0
LINE
  5
66A8A
  8
KERABA
 10
17247.446505115149
 20
9513.7232601491414
 30
0.0
 11
10930.81464373362
 21
8993.7175604120275
 31
0.0
  0
LINE
  5
66A8B
  8
KERABA
 10
17243.13180801128
 20
9517.3815915859741
 30
0.0
 11
10934.472975170491
 21
8998.0322575159207
 31
0.0
  0
LINE
  5
66A8C
  8
KERABA
 10
17214.861785084249
 20
9482.9460604631895
 30
0.0
 11
10967.993923434011
 21
8968.683560312973
 31
0.0
  0
LINE
  5
66A8D
  8
TOI
 10
11186.700000000021
 20
8493.1498468246864
 30
0.0
 11
11076.700000000021
 21
8493.1498468246864
 31
0.0
  0
LINE
  5
66A8E
  8
TOI
 10
11186.700000000021
 20
8503.1498468246864
 30
0.0
 11
11076.700000000021
 21
8503.1498468246864
 31
0.0
  0
LINE
  5
66A8F
  8
TOI
 10
11076.700000000021
 20
8493.1498468246864
 30
0.0
 11
11076.700000000021
 21
8503.1498468246864
 31
0.0
  0
LINE
  5
66A90
  8
TOI
 10
11081.700000000021
 20
6425.2917521017807
 30
0.0
 11
11081.700000000021
 21
8923.1498468246864
 31
0.0
  0
LINE
  5
66A91
  8
TOI
 10
11141.700000000021
 20
6425.2917521017807
 30
0.0
 11
11081.700000000021
 21
6425.2917521017807
 31
0.0
  0
LINE
  5
66A92
  8
TOI
 10
11141.700000000021
 20
6425.2917521017807
 30
0.0
 11
11141.700000000021
 21
8931.5408431364485
 31
0.0
  0
LINE
  5
66A93
  8
U1
 10
16859.099999999929
 20
6385.2917521017807
 30
0.0
 11
16859.099999999929
 21
9453.6585920698853
 31
0.0
  0
LINE
  5
66A94
  8
U1
 10
11385.40000000004
 20
6385.2917521017807
 30
0.0
 11
11189.40000000004
 21
6385.2917521017807
 31
0.0
  0
LINE
  5
66A95
  8
U1
 10
11385.40000000004
 20
6385.2917521017807
 30
0.0
 11
11385.40000000004
 21
9003.0457874749118
 31
0.0
  0
LINE
  5
66A96
  8
U1
 10
11189.40000000004
 20
6385.2917521017807
 30
0.0
 11
11189.40000000004
 21
8986.9104293623677
 31
0.0
  0
LINE
  5
66A97
  8
U3
 10
15256.500000000009
 20
6385.2917521017807
 30
0.0
 11
15256.500000000009
 21
9321.7273425219901
 31
0.0
  0
LINE
  5
66A98
  8
U3
 10
15260.500000000009
 20
6385.2917521017807
 30
0.0
 11
15260.500000000009
 21
9322.0566355447081
 31
0.0
  0
LINE
  5
66A99
  8
U3
 10
15274.500000000009
 20
6385.2917521017807
 30
0.0
 11
15274.500000000009
 21
9323.2091611241794
 31
0.0
  0
LINE
  5
66A9A
  8
U3
 10
15303.000000000009
 20
6385.2917521017807
 30
0.0
 11
15303.000000000009
 21
9325.5553739109746
 31
0.0
  0
LINE
  5
66A9B
  8
U3
 10
15305.000000000009
 20
6385.2917521017807
 30
0.0
 11
15305.000000000009
 21
9325.7200204223209
 31
0.0
  0
LINE
  5
66A9C
  8
U3
 10
15387.000000000009
 20
6385.2917521017807
 30
0.0
 11
15387.000000000009
 21
9332.4705273878208
 31
0.0
  0
LINE
  5
66A9D
  8
U3
 10
15385.000000000009
 20
6385.2917521017807
 30
0.0
 11
15385.000000000009
 21
9332.3058808764763
 31
0.0
  0
LINE
  5
66A9E
  8
U3
 10
15415.500000000009
 20
6385.2917521017807
 30
0.0
 11
15415.500000000009
 21
9334.8167401746177
 31
0.0
  0
LINE
  5
66A9F
  8
U3
 10
15429.500000000009
 20
6385.2917521017807
 30
0.0
 11
15429.500000000009
 21
9335.9692657540872
 31
0.0
  0
LINE
  5
66AA0
  8
U3
 10
15433.500000000009
 20
6385.2917521017807
 30
0.0
 11
15433.500000000009
 21
9336.2985587768053
 31
0.0
  0
LINE
  5
66AA1
  8
U3
 10
15633.500000000009
 20
6385.2917521017807
 30
0.0
 11
15633.500000000009
 21
9352.7632099121547
 31
0.0
  0
LINE
  5
66AA2
  8
U3
 10
15629.500000000009
 20
6385.2917521017807
 30
0.0
 11
15629.500000000009
 21
9352.4339168894658
 31
0.0
  0
LINE
  5
66AA3
  8
U3
 10
15615.500000000009
 20
6385.2917521017807
 30
0.0
 11
15615.500000000009
 21
9351.2813913099671
 31
0.0
  0
LINE
  5
66AA4
  8
U3
 10
15585.000000000009
 20
6385.2917521017807
 30
0.0
 11
15585.000000000009
 21
9348.7705320118239
 31
0.0
  0
LINE
  5
66AA5
  8
U3
 10
15587.000000000009
 20
6385.2917521017807
 30
0.0
 11
15587.000000000009
 21
9348.9351785231975
 31
0.0
  0
LINE
  5
66AA6
  8
U3
 10
15505.000000000009
 20
6385.2917521017807
 30
0.0
 11
15505.000000000009
 21
9342.1846715576976
 31
0.0
  0
LINE
  5
66AA7
  8
U3
 10
15503.000000000009
 20
6385.2917521017807
 30
0.0
 11
15503.000000000009
 21
9342.0200250463222
 31
0.0
  0
LINE
  5
66AA8
  8
U3
 10
15474.500000000009
 20
6385.2917521017807
 30
0.0
 11
15474.500000000009
 21
9339.6738122595561
 31
0.0
  0
LINE
  5
66AA9
  8
U3
 10
15460.500000000009
 20
6385.2917521017807
 30
0.0
 11
15460.500000000009
 21
9338.5212866800575
 31
0.0
  0
LINE
  5
66AAA
  8
U3
 10
15456.500000000009
 20
6385.2917521017807
 30
0.0
 11
15456.500000000009
 21
9338.1919936573686
 31
0.0
  0
LINE
  5
66AAB
  8
U3
 10
15656.500000000009
 20
6385.2917521017807
 30
0.0
 11
15656.500000000009
 21
9354.6566447927162
 31
0.0
  0
LINE
  5
66AAC
  8
U3
 10
15660.500000000009
 20
6385.2917521017807
 30
0.0
 11
15660.500000000009
 21
9354.985937815436
 31
0.0
  0
LINE
  5
66AAD
  8
U3
 10
15674.500000000009
 20
6385.2917521017807
 30
0.0
 11
15674.500000000009
 21
9356.1384633949056
 31
0.0
  0
LINE
  5
66AAE
  8
U3
 10
15703.000000000009
 20
6385.2917521017807
 30
0.0
 11
15703.000000000009
 21
9358.4846761817025
 31
0.0
  0
LINE
  5
66AAF
  8
U3
 10
15705.000000000009
 20
6385.2917521017807
 30
0.0
 11
15705.000000000009
 21
9358.649322693047
 31
0.0
  0
LINE
  5
66AB0
  8
U3
 10
15787.000000000009
 20
6385.2917521017807
 30
0.0
 11
15787.000000000009
 21
9365.3998296585487
 31
0.0
  0
LINE
  5
66AB1
  8
U3
 10
15785.000000000009
 20
6385.2917521017807
 30
0.0
 11
15785.000000000009
 21
9365.2351831472042
 31
0.0
  0
LINE
  5
66AB2
  8
U3
 10
15815.500000000009
 20
6385.2917521017807
 30
0.0
 11
15815.500000000009
 21
9367.7460424453457
 31
0.0
  0
LINE
  5
66AB3
  8
U3
 10
15829.500000000009
 20
6385.2917521017807
 30
0.0
 11
15829.500000000009
 21
9368.8985680248152
 31
0.0
  0
LINE
  5
66AB4
  8
U3
 10
15833.500000000009
 20
6385.2917521017807
 30
0.0
 11
15833.500000000009
 21
9369.2278610475314
 31
0.0
  0
LINE
  5
66AB5
  8
U3
 10
16033.500000000009
 20
6385.2917521017807
 30
0.0
 11
16033.500000000009
 21
9385.6925121828826
 31
0.0
  0
LINE
  5
66AB6
  8
U3
 10
16029.500000000009
 20
6385.2917521017807
 30
0.0
 11
16029.500000000009
 21
9385.3632191601937
 31
0.0
  0
LINE
  5
66AB7
  8
U3
 10
16015.500000000009
 20
6385.2917521017807
 30
0.0
 11
16015.500000000009
 21
9384.2106935806969
 31
0.0
  0
LINE
  5
66AB8
  8
U3
 10
15985.000000000009
 20
6385.2917521017807
 30
0.0
 11
15985.000000000009
 21
9381.6998342825555
 31
0.0
  0
LINE
  5
66AB9
  8
U3
 10
15987.000000000009
 20
6385.2917521017807
 30
0.0
 11
15987.000000000009
 21
9381.8644807939272
 31
0.0
  0
LINE
  5
66ABA
  8
U3
 10
15905.000000000009
 20
6385.2917521017807
 30
0.0
 11
15905.000000000009
 21
9375.1139738284237
 31
0.0
  0
LINE
  5
66ABB
  8
U3
 10
15903.000000000009
 20
6385.2917521017807
 30
0.0
 11
15903.000000000009
 21
9374.9493273170519
 31
0.0
  0
LINE
  5
66ABC
  8
U3
 10
15874.500000000009
 20
6385.2917521017807
 30
0.0
 11
15874.500000000009
 21
9372.6031145302823
 31
0.0
  0
LINE
  5
66ABD
  8
U3
 10
15860.500000000009
 20
6385.2917521017807
 30
0.0
 11
15860.500000000009
 21
9371.4505889507855
 31
0.0
  0
LINE
  5
66ABE
  8
U3
 10
15856.500000000009
 20
6385.2917521017807
 30
0.0
 11
15856.500000000009
 21
9371.1212959280965
 31
0.0
  0
LINE
  5
66ABF
  8
U3
 10
16656.500000000011
 20
6385.2917521017807
 30
0.0
 11
16656.500000000011
 21
9436.9799004695524
 31
0.0
  0
LINE
  5
66AC0
  8
U3
 10
16660.500000000011
 20
6385.2917521017807
 30
0.0
 11
16660.500000000011
 21
9437.3091934922413
 31
0.0
  0
LINE
  5
66AC1
  8
U3
 10
16674.500000000011
 20
6385.2917521017807
 30
0.0
 11
16674.500000000011
 21
9438.4617190717418
 31
0.0
  0
LINE
  5
66AC2
  8
U3
 10
16703.000000000011
 20
6385.2917521017807
 30
0.0
 11
16703.000000000011
 21
9440.8079318585078
 31
0.0
  0
LINE
  5
66AC3
  8
U3
 10
16705.000000000011
 20
6385.2917521017807
 30
0.0
 11
16705.000000000011
 21
9440.9725783698814
 31
0.0
  0
LINE
  5
66AC4
  8
U3
 10
16633.500000000011
 20
6385.2917521017807
 30
0.0
 11
16633.500000000011
 21
9435.0864655889891
 31
0.0
  0
LINE
  5
66AC5
  8
U3
 10
16629.500000000011
 20
6385.2917521017807
 30
0.0
 11
16629.500000000011
 21
9434.757172566271
 31
0.0
  0
LINE
  5
66AC6
  8
U3
 10
16615.500000000011
 20
6385.2917521017807
 30
0.0
 11
16615.500000000011
 21
9433.6046469868015
 31
0.0
  0
LINE
  5
66AC7
  8
U3
 10
16585.000000000011
 20
6385.2917521017807
 30
0.0
 11
16585.000000000011
 21
9431.0937876886583
 31
0.0
  0
LINE
  5
66AC8
  8
U3
 10
16587.000000000011
 20
6385.2917521017807
 30
0.0
 11
16587.000000000011
 21
9431.2584342000046
 31
0.0
  0
LINE
  5
66AC9
  8
U3
 10
16505.000000000011
 20
6385.2917521017807
 30
0.0
 11
16505.000000000011
 21
9424.5079272345029
 31
0.0
  0
LINE
  5
66ACA
  8
U3
 10
16503.000000000011
 20
6385.2917521017807
 30
0.0
 11
16503.000000000011
 21
9424.3432807231584
 31
0.0
  0
LINE
  5
66ACB
  8
U3
 10
16474.500000000011
 20
6385.2917521017807
 30
0.0
 11
16474.500000000011
 21
9421.9970679363614
 31
0.0
  0
LINE
  5
66ACC
  8
U3
 10
16460.500000000011
 20
6385.2917521017807
 30
0.0
 11
16460.500000000011
 21
9420.8445423568919
 31
0.0
  0
LINE
  5
66ACD
  8
U3
 10
16456.500000000011
 20
6385.2917521017807
 30
0.0
 11
16456.500000000011
 21
9420.5152493341739
 31
0.0
  0
LINE
  5
66ACE
  8
U3
 10
16256.500000000009
 20
6385.2917521017807
 30
0.0
 11
16256.500000000009
 21
9404.0505981988244
 31
0.0
  0
LINE
  5
66ACF
  8
U3
 10
16260.500000000009
 20
6385.2917521017807
 30
0.0
 11
16260.500000000009
 21
9404.3798912215134
 31
0.0
  0
LINE
  5
66AD0
  8
U3
 10
16274.500000000009
 20
6385.2917521017807
 30
0.0
 11
16274.500000000009
 21
9405.532416801012
 31
0.0
  0
LINE
  5
66AD1
  8
U3
 10
16303.000000000009
 20
6385.2917521017807
 30
0.0
 11
16303.000000000009
 21
9407.8786295877817
 31
0.0
  0
LINE
  5
66AD2
  8
U3
 10
16305.000000000009
 20
6385.2917521017807
 30
0.0
 11
16305.000000000009
 21
9408.0432760991553
 31
0.0
  0
LINE
  5
66AD3
  8
U3
 10
16387.000000000011
 20
6385.2917521017807
 30
0.0
 11
16387.000000000011
 21
9414.7937830646551
 31
0.0
  0
LINE
  5
66AD4
  8
U3
 10
16385.000000000011
 20
6385.2917521017807
 30
0.0
 11
16385.000000000011
 21
9414.6291365532816
 31
0.0
  0
LINE
  5
66AD5
  8
U3
 10
16415.500000000011
 20
6385.2917521017807
 30
0.0
 11
16415.500000000011
 21
9417.139995851423
 31
0.0
  0
LINE
  5
66AD6
  8
U3
 10
16429.500000000011
 20
6385.2917521017807
 30
0.0
 11
16429.500000000011
 21
9418.2925214309216
 31
0.0
  0
LINE
  5
66AD7
  8
U3
 10
16433.500000000011
 20
6385.2917521017807
 30
0.0
 11
16433.500000000011
 21
9418.6218144536124
 31
0.0
  0
LINE
  5
66AD8
  8
U3
 10
16233.500000000009
 20
6385.2917521017807
 30
0.0
 11
16233.500000000009
 21
9402.1571633182612
 31
0.0
  0
LINE
  5
66AD9
  8
U3
 10
16229.500000000009
 20
6385.2917521017807
 30
0.0
 11
16229.500000000009
 21
9401.8278702955431
 31
0.0
  0
LINE
  5
66ADA
  8
U3
 10
16215.500000000009
 20
6385.2917521017807
 30
0.0
 11
16215.500000000009
 21
9400.6753447160736
 31
0.0
  0
LINE
  5
66ADB
  8
U3
 10
16185.000000000009
 20
6385.2917521017807
 30
0.0
 11
16185.000000000009
 21
9398.1644854179322
 31
0.0
  0
LINE
  5
66ADC
  8
U3
 10
16187.000000000009
 20
6385.2917521017807
 30
0.0
 11
16187.000000000009
 21
9398.3291319292784
 31
0.0
  0
LINE
  5
66ADD
  8
U3
 10
16105.000000000009
 20
6385.2917521017807
 30
0.0
 11
16105.000000000009
 21
9391.5786249637749
 31
0.0
  0
LINE
  5
66ADE
  8
U3
 10
16103.000000000009
 20
6385.2917521017807
 30
0.0
 11
16103.000000000009
 21
9391.4139784524305
 31
0.0
  0
LINE
  5
66ADF
  8
U3
 10
16074.500000000009
 20
6385.2917521017807
 30
0.0
 11
16074.500000000009
 21
9389.0677656656335
 31
0.0
  0
LINE
  5
66AE0
  8
U3
 10
16060.500000000009
 20
6385.2917521017807
 30
0.0
 11
16060.500000000009
 21
9387.9152400861622
 31
0.0
  0
LINE
  5
66AE1
  8
U3
 10
16056.500000000009
 20
6385.2917521017807
 30
0.0
 11
16056.500000000009
 21
9387.5859470634477
 31
0.0
  0
LINE
  5
66AE2
  8
U3
 10
14456.500000000009
 20
6385.2917521017807
 30
0.0
 11
14456.500000000009
 21
9255.8687379805342
 31
0.0
  0
LINE
  5
66AE3
  8
U3
 10
15185.000000000009
 20
6385.2917521017807
 30
0.0
 11
15185.000000000009
 21
9315.8412297410978
 31
0.0
  0
LINE
  5
66AE4
  8
U3
 10
15187.000000000009
 20
6385.2917521017807
 30
0.0
 11
15187.000000000009
 21
9316.0058762524714
 31
0.0
  0
LINE
  5
66AE5
  8
U3
 10
15229.500000000009
 20
6385.2917521017807
 30
0.0
 11
15229.500000000009
 21
9319.5046146187378
 31
0.0
  0
LINE
  5
66AE6
  8
U3
 10
15233.500000000009
 20
6385.2917521017807
 30
0.0
 11
15233.500000000009
 21
9319.8339076414268
 31
0.0
  0
LINE
  5
66AE7
  8
U3
 10
15215.500000000009
 20
6385.2917521017807
 30
0.0
 11
15215.500000000009
 21
9318.3520890392392
 31
0.0
  0
LINE
  5
66AE8
  8
U3
 10
14985.000000000009
 20
6385.2917521017807
 30
0.0
 11
14985.000000000009
 21
9299.3765786057484
 31
0.0
  0
LINE
  5
66AE9
  8
U3
 10
14987.000000000009
 20
6385.2917521017807
 30
0.0
 11
14987.000000000009
 21
9299.5412251170947
 31
0.0
  0
LINE
  5
66AEA
  8
U3
 10
15015.500000000009
 20
6385.2917521017807
 30
0.0
 11
15015.500000000009
 21
9301.8874379038916
 31
0.0
  0
LINE
  5
66AEB
  8
U3
 10
15029.500000000009
 20
6385.2917521017807
 30
0.0
 11
15029.500000000009
 21
9303.0399634833593
 31
0.0
  0
LINE
  5
66AEC
  8
U3
 10
15033.500000000009
 20
6385.2917521017807
 30
0.0
 11
15033.500000000009
 21
9303.3692565060774
 31
0.0
  0
LINE
  5
66AED
  8
U3
 10
15060.500000000009
 20
6385.2917521017807
 30
0.0
 11
15060.500000000009
 21
9305.5919844093296
 31
0.0
  0
LINE
  5
66AEE
  8
U3
 10
15056.500000000009
 20
6385.2917521017807
 30
0.0
 11
15056.500000000009
 21
9305.2626913866407
 31
0.0
  0
LINE
  5
66AEF
  8
U3
 10
15074.500000000009
 20
6385.2917521017807
 30
0.0
 11
15074.500000000009
 21
9306.7445099888282
 31
0.0
  0
LINE
  5
66AF0
  8
U3
 10
15105.000000000009
 20
6385.2917521017807
 30
0.0
 11
15105.000000000009
 21
9309.2553692869715
 31
0.0
  0
LINE
  5
66AF1
  8
U3
 10
15103.000000000009
 20
6385.2917521017807
 30
0.0
 11
15103.000000000009
 21
9309.0907227755979
 31
0.0
  0
LINE
  5
66AF2
  8
U3
 10
14903.000000000009
 20
6385.2917521017807
 30
0.0
 11
14903.000000000009
 21
9292.6260716402467
 31
0.0
  0
LINE
  5
66AF3
  8
U3
 10
14860.500000000009
 20
6385.2917521017807
 30
0.0
 11
14860.500000000009
 21
9289.1273332739784
 31
0.0
  0
LINE
  5
66AF4
  8
U3
 10
14874.500000000009
 20
6385.2917521017807
 30
0.0
 11
14874.500000000009
 21
9290.2798588534497
 31
0.0
  0
LINE
  5
66AF5
  8
U3
 10
14905.000000000009
 20
6385.2917521017807
 30
0.0
 11
14905.000000000009
 21
9292.7907181515911
 31
0.0
  0
LINE
  5
66AF6
  8
U3
 10
14856.500000000009
 20
6385.2917521017807
 30
0.0
 11
14856.500000000009
 21
9288.7980402512621
 31
0.0
  0
LINE
  5
66AF7
  8
U3
 10
14833.500000000009
 20
6385.2917521017807
 30
0.0
 11
14833.500000000009
 21
9286.9046053706988
 31
0.0
  0
LINE
  5
66AF8
  8
U3
 10
14829.500000000009
 20
6385.2917521017807
 30
0.0
 11
14829.500000000009
 21
9286.5753123480117
 31
0.0
  0
LINE
  5
66AF9
  8
U3
 10
14815.500000000009
 20
6385.2917521017807
 30
0.0
 11
14815.500000000009
 21
9285.4227867685113
 31
0.0
  0
LINE
  5
66AFA
  8
U3
 10
14785.000000000009
 20
6385.2917521017807
 30
0.0
 11
14785.000000000009
 21
9282.9119274703717
 31
0.0
  0
LINE
  5
66AFB
  8
U3
 10
14787.000000000009
 20
6385.2917521017807
 30
0.0
 11
14787.000000000009
 21
9283.0765739817434
 31
0.0
  0
LINE
  5
66AFC
  8
U3
 10
14705.000000000009
 20
6385.2917521017807
 30
0.0
 11
14705.000000000009
 21
9276.3260670162417
 31
0.0
  0
LINE
  5
66AFD
  8
U3
 10
14703.000000000009
 20
6385.2917521017807
 30
0.0
 11
14703.000000000009
 21
9276.1614205048681
 31
0.0
  0
LINE
  5
66AFE
  8
U3
 10
14660.500000000009
 20
6385.2917521017807
 30
0.0
 11
14660.500000000009
 21
9272.6626821386017
 31
0.0
  0
LINE
  5
66AFF
  8
U3
 10
14674.500000000009
 20
6385.2917521017807
 30
0.0
 11
14674.500000000009
 21
9273.8152077180985
 31
0.0
  0
LINE
  5
66B00
  8
U3
 10
14656.500000000009
 20
6385.2917521017807
 30
0.0
 11
14656.500000000009
 21
9272.3333891159127
 31
0.0
  0
LINE
  5
66B01
  8
U3
 10
14633.500000000009
 20
6385.2917521017807
 30
0.0
 11
14633.500000000009
 21
9270.4399542353494
 31
0.0
  0
LINE
  5
66B02
  8
U3
 10
14629.500000000009
 20
6385.2917521017807
 30
0.0
 11
14629.500000000009
 21
9270.1106612126314
 31
0.0
  0
LINE
  5
66B03
  8
U3
 10
14615.500000000009
 20
6385.2917521017807
 30
0.0
 11
14615.500000000009
 21
9268.9581356331619
 31
0.0
  0
LINE
  5
66B04
  8
U3
 10
14587.000000000009
 20
6385.2917521017807
 30
0.0
 11
14587.000000000009
 21
9266.6119228463649
 31
0.0
  0
LINE
  5
66B05
  8
U3
 10
14585.000000000009
 20
6385.2917521017807
 30
0.0
 11
14585.000000000009
 21
9266.4472763350204
 31
0.0
  0
LINE
  5
66B06
  8
U3
 10
14503.000000000009
 20
6385.2917521017807
 30
0.0
 11
14503.000000000009
 21
9259.6967693695187
 31
0.0
  0
LINE
  5
66B07
  8
U3
 10
14505.000000000009
 20
6385.2917521017807
 30
0.0
 11
14505.000000000009
 21
9259.8614158808614
 31
0.0
  0
LINE
  5
66B08
  8
U3
 10
14460.500000000009
 20
6385.2917521017807
 30
0.0
 11
14460.500000000009
 21
9256.1980310032523
 31
0.0
  0
LINE
  5
66B09
  8
U3
 10
14474.500000000009
 20
6385.2917521017807
 30
0.0
 11
14474.500000000009
 21
9257.3505565827218
 31
0.0
  0
LINE
  5
66B0A
  8
U3
 10
14303.000000000009
 20
6385.2917521017807
 30
0.0
 11
14303.000000000009
 21
9243.2321182341384
 31
0.0
  0
LINE
  5
66B0B
  8
U3
 10
14305.000000000009
 20
6385.2917521017807
 30
0.0
 11
14305.000000000009
 21
9243.3967647455138
 31
0.0
  0
LINE
  5
66B0C
  8
U3
 10
14274.500000000009
 20
6385.2917521017807
 30
0.0
 11
14274.500000000009
 21
9240.8859054473724
 31
0.0
  0
LINE
  5
66B0D
  8
U3
 10
14256.500000000009
 20
6385.2917521017807
 30
0.0
 11
14256.500000000009
 21
9239.4040868451848
 31
0.0
  0
LINE
  5
66B0E
  8
U3
 10
14260.500000000009
 20
6385.2917521017807
 30
0.0
 11
14260.500000000009
 21
9239.7333798678756
 31
0.0
  0
LINE
  5
66B0F
  8
U3
 10
14233.500000000009
 20
6385.2917521017807
 30
0.0
 11
14233.500000000009
 21
9237.5106519646233
 31
0.0
  0
LINE
  5
66B10
  8
U3
 10
14229.500000000009
 20
6385.2917521017807
 30
0.0
 11
14229.500000000009
 21
9237.1813589419035
 31
0.0
  0
LINE
  5
66B11
  8
U3
 10
14215.500000000009
 20
6385.2917521017807
 30
0.0
 11
14215.500000000009
 21
9236.0288333624339
 31
0.0
  0
LINE
  5
66B12
  8
U3
 10
14187.000000000009
 20
6385.2917521017807
 30
0.0
 11
14187.000000000009
 21
9233.682620575637
 31
0.0
  0
LINE
  5
66B13
  8
U3
 10
14185.000000000009
 20
6385.2917521017807
 30
0.0
 11
14185.000000000009
 21
9233.5179740642925
 31
0.0
  0
LINE
  5
66B14
  8
U3
 10
14415.500000000009
 20
6385.2917521017807
 30
0.0
 11
14415.500000000009
 21
9252.4934844977834
 31
0.0
  0
LINE
  5
66B15
  8
U3
 10
14433.500000000009
 20
6385.2917521017807
 30
0.0
 11
14433.500000000009
 21
9253.9753030999691
 31
0.0
  0
LINE
  5
66B16
  8
U3
 10
14429.500000000009
 20
6385.2917521017807
 30
0.0
 11
14429.500000000009
 21
9253.646010077282
 31
0.0
  0
LINE
  5
66B17
  8
U3
 10
14387.000000000009
 20
6385.2917521017807
 30
0.0
 11
14387.000000000009
 21
9250.1472717110155
 31
0.0
  0
LINE
  5
66B18
  8
U3
 10
14385.000000000009
 20
6385.2917521017807
 30
0.0
 11
14385.000000000009
 21
9249.9826251996419
 31
0.0
  0
LINE
  5
66B19
  8
U3
 10
13674.500000000009
 20
6385.2917521017807
 30
0.0
 11
13674.500000000009
 21
9191.4919520412659
 31
0.0
  0
LINE
  5
66B1A
  8
U3
 10
13660.500000000009
 20
6385.2917521017807
 30
0.0
 11
13660.500000000009
 21
9190.3394264617964
 31
0.0
  0
LINE
  5
66B1B
  8
U3
 10
13705.000000000009
 20
6385.2917521017807
 30
0.0
 11
13705.000000000009
 21
9194.0028113394073
 31
0.0
  0
LINE
  5
66B1C
  8
U3
 10
13703.000000000009
 20
6385.2917521017807
 30
0.0
 11
13703.000000000009
 21
9193.8381648280629
 31
0.0
  0
LINE
  5
66B1D
  8
U3
 10
13785.000000000009
 20
6385.2917521017807
 30
0.0
 11
13785.000000000009
 21
9200.5886717935664
 31
0.0
  0
LINE
  5
66B1E
  8
U3
 10
13787.000000000009
 20
6385.2917521017807
 30
0.0
 11
13787.000000000009
 21
9200.7533183049109
 31
0.0
  0
LINE
  5
66B1F
  8
U3
 10
13815.500000000009
 20
6385.2917521017807
 30
0.0
 11
13815.500000000009
 21
9203.0995310917078
 31
0.0
  0
LINE
  5
66B20
  8
U3
 10
13829.500000000009
 20
6385.2917521017807
 30
0.0
 11
13829.500000000009
 21
9204.2520566711755
 31
0.0
  0
LINE
  5
66B21
  8
U3
 10
13833.500000000009
 20
6385.2917521017807
 30
0.0
 11
13833.500000000009
 21
9204.5813496938936
 31
0.0
  0
LINE
  5
66B22
  8
U3
 10
13856.500000000009
 20
6385.2917521017807
 30
0.0
 11
13856.500000000009
 21
9206.4747845744587
 31
0.0
  0
LINE
  5
66B23
  8
U3
 10
13874.500000000009
 20
6385.2917521017807
 30
0.0
 11
13874.500000000009
 21
9207.9566031766444
 31
0.0
  0
LINE
  5
66B24
  8
U3
 10
13860.500000000009
 20
6385.2917521017807
 30
0.0
 11
13860.500000000009
 21
9206.8040775971731
 31
0.0
  0
LINE
  5
66B25
  8
U3
 10
13903.000000000009
 20
6385.2917521017807
 30
0.0
 11
13903.000000000009
 21
9210.3028159634123
 31
0.0
  0
LINE
  5
66B26
  8
U3
 10
13905.000000000009
 20
6385.2917521017807
 30
0.0
 11
13905.000000000009
 21
9210.4674624747859
 31
0.0
  0
LINE
  5
66B27
  8
U3
 10
13987.000000000009
 20
6385.2917521017807
 30
0.0
 11
13987.000000000009
 21
9217.2179694402876
 31
0.0
  0
LINE
  5
66B28
  8
U3
 10
13985.000000000009
 20
6385.2917521017807
 30
0.0
 11
13985.000000000009
 21
9217.0533229289158
 31
0.0
  0
LINE
  5
66B29
  8
U3
 10
14015.500000000009
 20
6385.2917521017807
 30
0.0
 11
14015.500000000009
 21
9219.5641822270554
 31
0.0
  0
LINE
  5
66B2A
  8
U3
 10
14029.500000000009
 20
6385.2917521017807
 30
0.0
 11
14029.500000000009
 21
9220.716707806554
 31
0.0
  0
LINE
  5
66B2B
  8
U3
 10
14033.500000000009
 20
6385.2917521017807
 30
0.0
 11
14033.500000000009
 21
9221.046000829243
 31
0.0
  0
LINE
  5
66B2C
  8
U3
 10
14056.500000000009
 20
6385.2917521017807
 30
0.0
 11
14056.500000000009
 21
9222.9394357098063
 31
0.0
  0
LINE
  5
66B2D
  8
U3
 10
14105.000000000009
 20
6385.2917521017807
 30
0.0
 11
14105.000000000009
 21
9226.9321136101353
 31
0.0
  0
LINE
  5
66B2E
  8
U3
 10
14074.500000000009
 20
6385.2917521017807
 30
0.0
 11
14074.500000000009
 21
9224.4212543119938
 31
0.0
  0
LINE
  5
66B2F
  8
U3
 10
14060.500000000009
 20
6385.2917521017807
 30
0.0
 11
14060.500000000009
 21
9223.2687287325243
 31
0.0
  0
LINE
  5
66B30
  8
U3
 10
14103.000000000009
 20
6385.2917521017807
 30
0.0
 11
14103.000000000009
 21
9226.7674670987926
 31
0.0
  0
LINE
  5
66B31
  8
U3
 10
13656.500000000009
 20
6385.2917521017807
 30
0.0
 11
13656.500000000009
 21
9190.0101334390783
 31
0.0
  0
LINE
  5
66B32
  8
U3
 10
12856.500000000009
 20
6385.2917521017807
 30
0.0
 11
12856.500000000009
 21
9124.1515288976225
 31
0.0
  0
LINE
  5
66B33
  8
U3
 10
13303.000000000009
 20
6385.2917521017807
 30
0.0
 11
13303.000000000009
 21
9160.9088625573331
 31
0.0
  0
LINE
  5
66B34
  8
U3
 10
13260.500000000009
 20
6385.2917521017807
 30
0.0
 11
13260.500000000009
 21
9157.4101241910685
 31
0.0
  0
LINE
  5
66B35
  8
U3
 10
13274.500000000009
 20
6385.2917521017807
 30
0.0
 11
13274.500000000009
 21
9158.5626497705362
 31
0.0
  0
LINE
  5
66B36
  8
U3
 10
13305.000000000009
 20
6385.2917521017807
 30
0.0
 11
13305.000000000009
 21
9161.0735090686794
 31
0.0
  0
LINE
  5
66B37
  8
U3
 10
13256.500000000009
 20
6385.2917521017807
 30
0.0
 11
13256.500000000009
 21
9157.0808311683504
 31
0.0
  0
LINE
  5
66B38
  8
U3
 10
13233.500000000009
 20
6385.2917521017807
 30
0.0
 11
13233.500000000009
 21
9155.1873962877871
 31
0.0
  0
LINE
  5
66B39
  8
U3
 10
13229.500000000009
 20
6385.2917521017807
 30
0.0
 11
13229.500000000009
 21
9154.8581032650982
 31
0.0
  0
LINE
  5
66B3A
  8
U3
 10
13215.500000000009
 20
6385.2917521017807
 30
0.0
 11
13215.500000000009
 21
9153.7055776855996
 31
0.0
  0
LINE
  5
66B3B
  8
U3
 10
13185.000000000009
 20
6385.2917521017807
 30
0.0
 11
13185.000000000009
 21
9151.1947183874581
 31
0.0
  0
LINE
  5
66B3C
  8
U3
 10
13187.000000000009
 20
6385.2917521017807
 30
0.0
 11
13187.000000000009
 21
9151.3593648988317
 31
0.0
  0
LINE
  5
66B3D
  8
U3
 10
13105.000000000009
 20
6385.2917521017807
 30
0.0
 11
13105.000000000009
 21
9144.6088579333318
 31
0.0
  0
LINE
  5
66B3E
  8
U3
 10
13103.000000000009
 20
6385.2917521017807
 30
0.0
 11
13103.000000000009
 21
9144.4442114219564
 31
0.0
  0
LINE
  5
66B3F
  8
U3
 10
13060.500000000009
 20
6385.2917521017807
 30
0.0
 11
13060.500000000009
 21
9140.945473055719
 31
0.0
  0
LINE
  5
66B40
  8
U3
 10
13074.500000000009
 20
6385.2917521017807
 30
0.0
 11
13074.500000000009
 21
9142.0979986351886
 31
0.0
  0
LINE
  5
66B41
  8
U3
 10
13056.500000000009
 20
6385.2917521017807
 30
0.0
 11
13056.500000000009
 21
9140.616180033001
 31
0.0
  0
LINE
  5
66B42
  8
U3
 10
13033.500000000009
 20
6385.2917521017807
 30
0.0
 11
13033.500000000009
 21
9138.7227451524377
 31
0.0
  0
LINE
  5
66B43
  8
U3
 10
13029.500000000009
 20
6385.2917521017807
 30
0.0
 11
13029.500000000009
 21
9138.3934521297197
 31
0.0
  0
LINE
  5
66B44
  8
U3
 10
13015.500000000009
 20
6385.2917521017807
 30
0.0
 11
13015.500000000009
 21
9137.2409265502502
 31
0.0
  0
LINE
  5
66B45
  8
U3
 10
12987.000000000009
 20
6385.2917521017807
 30
0.0
 11
12987.000000000009
 21
9134.8947137634532
 31
0.0
  0
LINE
  5
66B46
  8
U3
 10
12985.000000000009
 20
6385.2917521017807
 30
0.0
 11
12985.000000000009
 21
9134.7300672521087
 31
0.0
  0
LINE
  5
66B47
  8
U3
 10
12903.000000000009
 20
6385.2917521017807
 30
0.0
 11
12903.000000000009
 21
9127.9795602866088
 31
0.0
  0
LINE
  5
66B48
  8
U3
 10
12905.000000000009
 20
6385.2917521017807
 30
0.0
 11
12905.000000000009
 21
9128.1442067979515
 31
0.0
  0
LINE
  5
66B49
  8
U3
 10
12860.500000000009
 20
6385.2917521017807
 30
0.0
 11
12860.500000000009
 21
9124.4808219203405
 31
0.0
  0
LINE
  5
66B4A
  8
U3
 10
12874.500000000009
 20
6385.2917521017807
 30
0.0
 11
12874.500000000009
 21
9125.63334749981
 31
0.0
  0
LINE
  5
66B4B
  8
U3
 10
13585.000000000009
 20
6385.2917521017807
 30
0.0
 11
13585.000000000009
 21
9184.1240206581861
 31
0.0
  0
LINE
  5
66B4C
  8
U3
 10
13587.000000000009
 20
6385.2917521017807
 30
0.0
 11
13587.000000000009
 21
9184.2886671695596
 31
0.0
  0
LINE
  5
66B4D
  8
U3
 10
13629.500000000009
 20
6385.2917521017807
 30
0.0
 11
13629.500000000009
 21
9187.7874055358261
 31
0.0
  0
LINE
  5
66B4E
  8
U3
 10
13633.500000000009
 20
6385.2917521017807
 30
0.0
 11
13633.500000000009
 21
9188.1166985585132
 31
0.0
  0
LINE
  5
66B4F
  8
U3
 10
13615.500000000009
 20
6385.2917521017807
 30
0.0
 11
13615.500000000009
 21
9186.6348799563275
 31
0.0
  0
LINE
  5
66B50
  8
U3
 10
13385.000000000009
 20
6385.2917521017807
 30
0.0
 11
13385.000000000009
 21
9167.6593695228348
 31
0.0
  0
LINE
  5
66B51
  8
U3
 10
13387.000000000009
 20
6385.2917521017807
 30
0.0
 11
13387.000000000009
 21
9167.8240160341811
 31
0.0
  0
LINE
  5
66B52
  8
U3
 10
13415.500000000009
 20
6385.2917521017807
 30
0.0
 11
13415.500000000009
 21
9170.1702288209781
 31
0.0
  0
LINE
  5
66B53
  8
U3
 10
13429.500000000009
 20
6385.2917521017807
 30
0.0
 11
13429.500000000009
 21
9171.3227544004476
 31
0.0
  0
LINE
  5
66B54
  8
U3
 10
13433.500000000009
 20
6385.2917521017807
 30
0.0
 11
13433.500000000009
 21
9171.6520474231656
 31
0.0
  0
LINE
  5
66B55
  8
U3
 10
13460.500000000009
 20
6385.2917521017807
 30
0.0
 11
13460.500000000009
 21
9173.8747753264488
 31
0.0
  0
LINE
  5
66B56
  8
U3
 10
13456.500000000009
 20
6385.2917521017807
 30
0.0
 11
13456.500000000009
 21
9173.5454823037271
 31
0.0
  0
LINE
  5
66B57
  8
U3
 10
13474.500000000009
 20
6385.2917521017807
 30
0.0
 11
13474.500000000009
 21
9175.0273009059165
 31
0.0
  0
LINE
  5
66B58
  8
U3
 10
13505.000000000009
 20
6385.2917521017807
 30
0.0
 11
13505.000000000009
 21
9177.5381602040579
 31
0.0
  0
LINE
  5
66B59
  8
U3
 10
13503.000000000009
 20
6385.2917521017807
 30
0.0
 11
13503.000000000009
 21
9177.3735136926844
 31
0.0
  0
LINE
  5
66B5A
  8
U3
 10
12703.000000000009
 20
6385.2917521017807
 30
0.0
 11
12703.000000000009
 21
9111.5149091512303
 31
0.0
  0
LINE
  5
66B5B
  8
U3
 10
12705.000000000009
 20
6385.2917521017807
 30
0.0
 11
12705.000000000009
 21
9111.6795556626021
 31
0.0
  0
LINE
  5
66B5C
  8
U3
 10
12674.500000000009
 20
6385.2917521017807
 30
0.0
 11
12674.500000000009
 21
9109.1686963644606
 31
0.0
  0
LINE
  5
66B5D
  8
U3
 10
12656.500000000009
 20
6385.2917521017807
 30
0.0
 11
12656.500000000009
 21
9107.6868777622749
 31
0.0
  0
LINE
  5
66B5E
  8
U3
 10
12660.500000000009
 20
6385.2917521017807
 30
0.0
 11
12660.500000000009
 21
9108.0161707849893
 31
0.0
  0
LINE
  5
66B5F
  8
U3
 10
12633.500000000009
 20
6385.2917521017807
 30
0.0
 11
12633.500000000009
 21
9105.7934428817098
 31
0.0
  0
LINE
  5
66B60
  8
U3
 10
12629.500000000009
 20
6385.2917521017807
 30
0.0
 11
12629.500000000009
 21
9105.4641498589917
 31
0.0
  0
LINE
  5
66B61
  8
U3
 10
12615.500000000009
 20
6385.2917521017807
 30
0.0
 11
12615.500000000009
 21
9104.3116242795222
 31
0.0
  0
LINE
  5
66B62
  8
U3
 10
12587.000000000009
 20
6385.2917521017807
 30
0.0
 11
12587.000000000009
 21
9101.9654114927253
 31
0.0
  0
LINE
  5
66B63
  8
U3
 10
12585.000000000009
 20
6385.2917521017807
 30
0.0
 11
12585.000000000009
 21
9101.8007649813826
 31
0.0
  0
LINE
  5
66B64
  8
U3
 10
12815.500000000009
 20
6385.2917521017807
 30
0.0
 11
12815.500000000009
 21
9120.7762754148716
 31
0.0
  0
LINE
  5
66B65
  8
U3
 10
12833.500000000009
 20
6385.2917521017807
 30
0.0
 11
12833.500000000009
 21
9122.2580940170592
 31
0.0
  0
LINE
  5
66B66
  8
U3
 10
12829.500000000009
 20
6385.2917521017807
 30
0.0
 11
12829.500000000009
 21
9121.9288009943702
 31
0.0
  0
LINE
  5
66B67
  8
U3
 10
12787.000000000009
 20
6385.2917521017807
 30
0.0
 11
12787.000000000009
 21
9118.4300626281056
 31
0.0
  0
LINE
  5
66B68
  8
U3
 10
12785.000000000009
 20
6385.2917521017807
 30
0.0
 11
12785.000000000009
 21
9118.2654161167302
 31
0.0
  0
LINE
  5
66B69
  8
U3
 10
12074.500000000009
 20
6385.2917521017807
 30
0.0
 11
12074.500000000009
 21
9059.7747429583542
 31
0.0
  0
LINE
  5
66B6A
  8
U3
 10
12060.500000000009
 20
6385.2917521017807
 30
0.0
 11
12060.500000000009
 21
9058.6222173788865
 31
0.0
  0
LINE
  5
66B6B
  8
U3
 10
12105.000000000009
 20
6385.2917521017807
 30
0.0
 11
12105.000000000009
 21
9062.2856022564956
 31
0.0
  0
LINE
  5
66B6C
  8
U3
 10
12103.000000000009
 20
6385.2917521017807
 30
0.0
 11
12103.000000000009
 21
9062.1209557451493
 31
0.0
  0
LINE
  5
66B6D
  8
U3
 10
12185.000000000009
 20
6385.2917521017807
 30
0.0
 11
12185.000000000009
 21
9068.8714627106528
 31
0.0
  0
LINE
  5
66B6E
  8
U3
 10
12187.000000000009
 20
6385.2917521017807
 30
0.0
 11
12187.000000000009
 21
9069.0361092219973
 31
0.0
  0
LINE
  5
66B6F
  8
U3
 10
12215.500000000009
 20
6385.2917521017807
 30
0.0
 11
12215.500000000009
 21
9071.3823220087943
 31
0.0
  0
LINE
  5
66B70
  8
U3
 10
12229.500000000009
 20
6385.2917521017807
 30
0.0
 11
12229.500000000009
 21
9072.5348475882638
 31
0.0
  0
LINE
  5
66B71
  8
U3
 10
12233.500000000009
 20
6385.2917521017807
 30
0.0
 11
12233.500000000009
 21
9072.8641406109818
 31
0.0
  0
LINE
  5
66B72
  8
U3
 10
12256.500000000009
 20
6385.2917521017807
 30
0.0
 11
12256.500000000009
 21
9074.7575754915451
 31
0.0
  0
LINE
  5
66B73
  8
U3
 10
12274.500000000009
 20
6385.2917521017807
 30
0.0
 11
12274.500000000009
 21
9076.2393940937327
 31
0.0
  0
LINE
  5
66B74
  8
U3
 10
12260.500000000009
 20
6385.2917521017807
 30
0.0
 11
12260.500000000009
 21
9075.0868685142632
 31
0.0
  0
LINE
  5
66B75
  8
U3
 10
12303.000000000009
 20
6385.2917521017807
 30
0.0
 11
12303.000000000009
 21
9078.5856068805297
 31
0.0
  0
LINE
  5
66B76
  8
U3
 10
12305.000000000009
 20
6385.2917521017807
 30
0.0
 11
12305.000000000009
 21
9078.7502533918741
 31
0.0
  0
LINE
  5
66B77
  8
U3
 10
12387.000000000009
 20
6385.2917521017807
 30
0.0
 11
12387.000000000009
 21
9085.500760357374
 31
0.0
  0
LINE
  5
66B78
  8
U3
 10
12385.000000000009
 20
6385.2917521017807
 30
0.0
 11
12385.000000000009
 21
9085.3361138460023
 31
0.0
  0
LINE
  5
66B79
  8
U3
 10
12415.500000000009
 20
6385.2917521017807
 30
0.0
 11
12415.500000000009
 21
9087.8469731441437
 31
0.0
  0
LINE
  5
66B7A
  8
U3
 10
12429.500000000009
 20
6385.2917521017807
 30
0.0
 11
12429.500000000009
 21
9088.9994987236423
 31
0.0
  0
LINE
  5
66B7B
  8
U3
 10
12433.500000000009
 20
6385.2917521017807
 30
0.0
 11
12433.500000000009
 21
9089.3287917463294
 31
0.0
  0
LINE
  5
66B7C
  8
U3
 10
12456.500000000009
 20
6385.2917521017807
 30
0.0
 11
12456.500000000009
 21
9091.2222266268946
 31
0.0
  0
LINE
  5
66B7D
  8
U3
 10
12505.000000000009
 20
6385.2917521017807
 30
0.0
 11
12505.000000000009
 21
9095.2149045272236
 31
0.0
  0
LINE
  5
66B7E
  8
U3
 10
12474.500000000009
 20
6385.2917521017807
 30
0.0
 11
12474.500000000009
 21
9092.7040452290821
 31
0.0
  0
LINE
  5
66B7F
  8
U3
 10
12460.500000000009
 20
6385.2917521017807
 30
0.0
 11
12460.500000000009
 21
9091.5515196496126
 31
0.0
  0
LINE
  5
66B80
  8
U3
 10
12503.000000000009
 20
6385.2917521017807
 30
0.0
 11
12503.000000000009
 21
9095.0502580158791
 31
0.0
  0
LINE
  5
66B81
  8
U3
 10
12056.500000000009
 20
6385.2917521017807
 30
0.0
 11
12056.500000000009
 21
9058.2929243561666
 31
0.0
  0
LINE
  5
66B82
  8
U3
 10
11703.000000000009
 20
6385.2917521017807
 30
0.0
 11
11703.000000000009
 21
9029.1916534744232
 31
0.0
  0
LINE
  5
66B83
  8
U3
 10
11660.500000000009
 20
6385.2917521017807
 30
0.0
 11
11660.500000000009
 21
9025.6929151081567
 31
0.0
  0
LINE
  5
66B84
  8
U3
 10
11674.500000000009
 20
6385.2917521017807
 30
0.0
 11
11674.500000000009
 21
9026.8454406876263
 31
0.0
  0
LINE
  5
66B85
  8
U3
 10
11705.000000000009
 20
6385.2917521017807
 30
0.0
 11
11705.000000000009
 21
9029.3562999857695
 31
0.0
  0
LINE
  5
66B86
  8
U3
 10
11656.500000000009
 20
6385.2917521017807
 30
0.0
 11
11656.500000000009
 21
9025.3636220854387
 31
0.0
  0
LINE
  5
66B87
  8
U3
 10
11633.500000000009
 20
6385.2917521017807
 30
0.0
 11
11633.500000000009
 21
9023.4701872048772
 31
0.0
  0
LINE
  5
66B88
  8
U3
 10
11629.500000000009
 20
6385.2917521017807
 30
0.0
 11
11629.500000000009
 21
9023.1408941821865
 31
0.0
  0
LINE
  5
66B89
  8
U3
 10
11615.500000000009
 20
6385.2917521017807
 30
0.0
 11
11615.500000000009
 21
9021.9883686027188
 31
0.0
  0
LINE
  5
66B8A
  8
U3
 10
11585.000000000009
 20
6385.2917521017807
 30
0.0
 11
11585.000000000009
 21
9019.4775093045464
 31
0.0
  0
LINE
  5
66B8B
  8
U3
 10
11587.000000000009
 20
6385.2917521017807
 30
0.0
 11
11587.000000000009
 21
9019.6421558159218
 31
0.0
  0
LINE
  5
66B8C
  8
U3
 10
11505.000000000009
 20
6385.2917521017807
 30
0.0
 11
11505.000000000009
 21
9012.8916488504183
 31
0.0
  0
LINE
  5
66B8D
  8
U3
 10
11503.000000000009
 20
6385.2917521017807
 30
0.0
 11
11503.000000000009
 21
9012.7270023390738
 31
0.0
  0
LINE
  5
66B8E
  8
U3
 10
11460.500000000009
 20
6385.2917521017807
 30
0.0
 11
11460.500000000009
 21
9009.2282639728055
 31
0.0
  0
LINE
  5
66B8F
  8
U3
 10
11474.500000000009
 20
6385.2917521017807
 30
0.0
 11
11474.500000000009
 21
9010.3807895522768
 31
0.0
  0
LINE
  5
66B90
  8
U3
 10
11456.500000000009
 20
6385.2917521017807
 30
0.0
 11
11456.500000000009
 21
9008.8989709500893
 31
0.0
  0
LINE
  5
66B91
  8
U3
 10
11433.500000000009
 20
6385.2917521017807
 30
0.0
 11
11433.500000000009
 21
9007.005536069526
 31
0.0
  0
LINE
  5
66B92
  8
U3
 10
11429.500000000009
 20
6385.2917521017807
 30
0.0
 11
11429.500000000009
 21
9006.6762430468079
 31
0.0
  0
LINE
  5
66B93
  8
U3
 10
11415.500000000009
 20
6385.2917521017807
 30
0.0
 11
11415.500000000009
 21
9005.5237174673384
 31
0.0
  0
LINE
  5
66B94
  8
U3
 10
11387.000000000009
 20
6385.2917521017807
 30
0.0
 11
11387.000000000009
 21
9003.1775046805415
 31
0.0
  0
LINE
  5
66B95
  8
U3
 10
11985.000000000009
 20
6385.2917521017807
 30
0.0
 11
11985.000000000009
 21
9052.4068115752743
 31
0.0
  0
LINE
  5
66B96
  8
U3
 10
11987.000000000009
 20
6385.2917521017807
 30
0.0
 11
11987.000000000009
 21
9052.5714580866479
 31
0.0
  0
LINE
  5
66B97
  8
U3
 10
12029.500000000009
 20
6385.2917521017807
 30
0.0
 11
12029.500000000009
 21
9056.0701964529144
 31
0.0
  0
LINE
  5
66B98
  8
U3
 10
12033.500000000009
 20
6385.2917521017807
 30
0.0
 11
12033.500000000009
 21
9056.3994894756033
 31
0.0
  0
LINE
  5
66B99
  8
U3
 10
12015.500000000009
 20
6385.2917521017807
 30
0.0
 11
12015.500000000009
 21
9054.9176708734158
 31
0.0
  0
LINE
  5
66B9A
  8
U3
 10
11785.000000000009
 20
6385.2917521017807
 30
0.0
 11
11785.000000000009
 21
9035.9421604399231
 31
0.0
  0
LINE
  5
66B9B
  8
U3
 10
11787.000000000009
 20
6385.2917521017807
 30
0.0
 11
11787.000000000009
 21
9036.1068069512694
 31
0.0
  0
LINE
  5
66B9C
  8
U3
 10
11815.500000000009
 20
6385.2917521017807
 30
0.0
 11
11815.500000000009
 21
9038.4530197380664
 31
0.0
  0
LINE
  5
66B9D
  8
U3
 10
11829.500000000009
 20
6385.2917521017807
 30
0.0
 11
11829.500000000009
 21
9039.6055453175359
 31
0.0
  0
LINE
  5
66B9E
  8
U3
 10
11833.500000000009
 20
6385.2917521017807
 30
0.0
 11
11833.500000000009
 21
9039.9348383402539
 31
0.0
  0
LINE
  5
66B9F
  8
U3
 10
11860.500000000009
 20
6385.2917521017807
 30
0.0
 11
11860.500000000009
 21
9042.1575662435353
 31
0.0
  0
LINE
  5
66BA0
  8
U3
 10
11856.500000000009
 20
6385.2917521017807
 30
0.0
 11
11856.500000000009
 21
9041.8282732208172
 31
0.0
  0
LINE
  5
66BA1
  8
U3
 10
11874.500000000009
 20
6385.2917521017807
 30
0.0
 11
11874.500000000009
 21
9043.3100918230066
 31
0.0
  0
LINE
  5
66BA2
  8
U3
 10
11905.000000000009
 20
6385.2917521017807
 30
0.0
 11
11905.000000000009
 21
9045.8209511211462
 31
0.0
  0
LINE
  5
66BA3
  8
U3
 10
11903.000000000009
 20
6385.2917521017807
 30
0.0
 11
11903.000000000009
 21
9045.6563046098036
 31
0.0
  0
LINE
  5
66BA4
  8
U3
 10
16854.500000000011
 20
6385.2917521017807
 30
0.0
 11
11245.000000000009
 21
6385.2917521017807
 31
0.0
  0
LINE
  5
66BA5
  8
1PL-M1
 10
16816.000000000011
 20
4445.2917521017798
 30
0.0
 11
16816.000000000011
 21
6385.2917521017807
 31
0.0
  0
LINE
  5
66BA6
  8
1PL-M1
 10
11316.000000000009
 20
4445.2917521017798
 30
0.0
 11
11316.000000000009
 21
6385.2917521017807
 31
0.0
  0
LINE
  5
66BA7
  8
U1
 10
11196.499999999951
 20
6385.2917521017807
 30
0.0
 11
11196.499999999951
 21
5985.2917521017798
 31
0.0
  0
LINE
  5
66BA8
  8
U1
 10
16935.999999999949
 20
6385.2917521017807
 30
0.0
 11
11196.499999999951
 21
6385.2917521017807
 31
0.0
  0
LINE
  5
66BA9
  8
U1
 10
16936.000000000011
 20
6375.2917521017798
 30
0.0
 11
16936.000000000011
 21
6385.2917521017807
 31
0.0
  0
LINE
  5
66BAA
  8
U1
 10
16936.000000000011
 20
5985.2917521017798
 30
0.0
 11
16936.000000000011
 21
6385.2917521017807
 31
0.0
  0
LINE
  5
66BAB
  8
U1
 10
16925.726345596671
 20
8643.1654065050388
 30
0.0
 11
16924.099999999991
 21
8644.7917521017807
 31
0.0
  0
LINE
  5
66BAC
  8
U1
 10
17002.726345596959
 20
8720.1654065052717
 30
0.0
 11
16925.72634559673
 21
8643.1654065050661
 31
0.0
  0
ARC
  5
66BAD
  8
U1
 10
16893.73402719247
 20
8639.7917521017807
 30
0.0
 40
5.0
 50
90.0
 51
145.5610106911374
  0
LINE
  5
66BAE
  8
U1
 10
16889.610382933301
 20
8642.6193938795332
 30
0.0
 11
16868.58961706662
 21
8611.9641103240283
 31
0.0
  0
LINE
  5
66BAF
  8
U1
 10
16924.099999999991
 20
8644.7917521017807
 30
0.0
 11
16893.73402719247
 21
8644.7917521017807
 31
0.0
  0
ARC
  5
66BB0
  8
U1
 10
16864.465972807389
 20
8614.7917521017807
 30
0.0
 40
5.0
 50
270.0
 51
325.56101069113748
  0
LINE
  5
66BB1
  8
U1
 10
16864.465972807389
 20
8609.7917521017807
 30
0.0
 11
16859.099999999991
 21
8609.7917521017807
 31
0.0
  0
LINE
  5
66BB2
  8
U1
 10
22273.49999999996
 20
8963.2917521018098
 30
0.0
 11
22273.49999999996
 21
5985.2917521017798
 31
0.0
  0
LINE
  5
66BB3
  8
U1
 10
22358.49999999996
 20
5985.2917521017798
 30
0.0
 11
22358.49999999996
 21
8966.1123026301066
 31
0.0
  0
LINE
  5
66BB4
  8
U1
 10
19523.499999999949
 20
8963.2917521017789
 30
0.0
 11
19523.499999999949
 21
5985.2917521017798
 31
0.0
  0
LINE
  5
66BB5
  8
U1
 10
19608.49999999996
 20
5985.2917521017798
 30
0.0
 11
19608.49999999996
 21
8963.2917521018098
 31
0.0
  0
LINE
  5
66BB6
  8
1PL-M1
 10
19565.999999999949
 20
5206.8744580871644
 30
0.0
 11
19565.999999999949
 21
6391.2917521017807
 31
0.0
  0
LINE
  5
66BB7
  8
1PL-M1
 10
22315.99999999996
 20
4451.2917521017798
 30
0.0
 11
22315.99999999996
 21
6391.2917521017807
 31
0.0
  0
ARC
  5
66BB8
  8
U1
 10
16871.599999999991
 20
8764.8184822220228
 30
0.0
 40
5.0
 50
180.0
 51
270.0
  0
LINE
  5
66BB9
  8
U1
 10
17008.599999999929
 20
8719.8184822220228
 30
0.0
 11
17008.599999999929
 21
8963.2917521017789
 31
0.0
  0
LINE
  5
66BBA
  8
U1
 10
16866.599999999991
 20
8764.8184822220228
 30
0.0
 11
16866.599999999991
 21
8963.3077777840226
 31
0.0
  0
ARC
  5
66BBB
  8
U1
 10
19570.999999999902
 20
8968.2917521018098
 30
0.0
 40
5.0
 50
180.0
 51
270.0
  0
LINE
  5
66BBC
  8
U1
 10
19611.999999999902
 20
8963.2917521018098
 30
0.0
 11
19611.999999999902
 21
8960.2917521018098
 31
0.0
  0
LINE
  5
66BBD
  8
U1
 10
19611.999999999902
 20
8960.2917521018098
 30
0.0
 11
22268.999999999902
 21
8960.2917521018098
 31
0.0
  0
LINE
  5
66BBE
  8
U1
 10
22268.999999999902
 20
8963.2917521018098
 30
0.0
 11
22353.999999999902
 21
8963.2917521018098
 31
0.0
  0
LINE
  5
66BBF
  8
U1
 10
22358.999999999902
 20
8968.2917521018098
 30
0.0
 11
22358.999999999902
 21
9071.4572048277914
 31
0.0
  0
ARC
  5
66BC0
  8
U1
 10
22353.999999999902
 20
8968.2917521018098
 30
0.0
 40
5.0
 50
270.0
 51
0.0
  0
LINE
  5
66BC1
  8
U1
 10
22268.999999999902
 20
8960.2917521018098
 30
0.0
 11
22268.999999999902
 21
8963.2917521018098
 31
0.0
  0
LINE
  5
66BC2
  8
U1
 10
19570.999999999902
 20
8963.2917521018098
 30
0.0
 11
19611.999999999902
 21
8963.2917521018098
 31
0.0
  0
LINE
  5
66BC3
  8
U1
 10
17011.99999999996
 20
8960.2917521017807
 30
0.0
 11
19520.499999999949
 21
8960.2917521017807
 31
0.0
  0
LINE
  5
66BC4
  8
U1
 10
19520.499999999949
 20
8963.2917521017789
 30
0.0
 11
19560.999999999949
 21
8963.2917521017789
 31
0.0
  0
LINE
  5
66BC5
  8
U1
 10
19565.999999999949
 20
8968.2917521017825
 30
0.0
 11
19565.999999999902
 21
9133.9572048408863
 31
0.0
  0
ARC
  5
66BC6
  8
U1
 10
19560.999999999949
 20
8968.2917521017825
 30
0.0
 40
5.0
 50
270.0
 51
0.0
  0
LINE
  5
66BC7
  8
U1
 10
19520.499999999949
 20
8960.2917521017807
 30
0.0
 11
19520.499999999949
 21
8963.2917521017789
 31
0.0
  0
LINE
  5
66BC8
  8
U1
 10
17011.99999999996
 20
8963.2917521017789
 30
0.0
 11
17011.99999999996
 21
8960.2917521017807
 31
0.0
  0
LINE
  5
66BC9
  8
U1
 10
16866.999999999949
 20
8963.2917521017789
 30
0.0
 11
17011.99999999996
 21
8963.2917521017789
 31
0.0
  0
LINE
  5
66BCA
  8
U1
 10
22658.47856664834
 20
9242.7825503064214
 30
0.0
 11
22603.49294175582
 21
9244.0399504729012
 31
0.0
  0
LINE
  5
66BCB
  8
U1
 10
22667.858683819839
 20
9215.5609889652842
 30
0.0
 11
22665.813482908601
 21
9213.6072353388754
 31
0.0
  0
LINE
  5
66BCC
  8
U1
 10
22665.584864696499
 20
9203.6098489948072
 30
0.0
 11
22663.539663785268
 21
9201.6560953683656
 31
0.0
  0
LINE
  5
66BCD
  8
U1
 10
22665.813482908601
 20
9213.6072353388754
 30
0.0
 11
22665.584864696499
 21
9203.6098489948072
 31
0.0
  0
LINE
  5
66BCE
  8
U1
 10
22663.311045573169
 20
9191.6587090242683
 30
0.0
 11
22667.218552825991
 21
9187.5683072018001
 31
0.0
  0
LINE
  5
66BCF
  8
U1
 10
22663.539663785268
 20
9201.6560953683656
 30
0.0
 11
22663.311045573169
 21
9191.6587090242683
 31
0.0
  0
LINE
  5
66BD0
  8
U1
 10
22665.663948983842
 20
9119.5860800619266
 30
0.0
 11
22663.618748072611
 21
9117.6323264355742
 31
0.0
  0
LINE
  5
66BD1
  8
U1
 10
22663.618748072611
 20
9117.6323264355742
 30
0.0
 11
22663.390129860509
 21
9107.6349400914496
 31
0.0
  0
LINE
  5
66BD2
  8
U1
 10
22661.344928949271
 20
9105.6811864650663
 30
0.0
 11
22661.116310737169
 21
9095.6838001209417
 31
0.0
  0
LINE
  5
66BD3
  8
U1
 10
22661.116310737169
 20
9095.6838001209417
 30
0.0
 11
22665.02381798999
 21
9091.5933982984716
 31
0.0
  0
LINE
  5
66BD4
  8
U1
 10
22663.390129860509
 20
9107.6349400914496
 30
0.0
 11
22661.344928949271
 21
9105.6811864650663
 31
0.0
  0
LINE
  5
66BD5
  8
U1
 10
22665.663948983842
 20
9119.5860800619266
 30
0.0
 11
22667.218552825991
 21
9187.5683072018001
 31
0.0
  0
LINE
  5
66BD6
  8
U1
 10
22667.858683819839
 20
9215.5609889652842
 30
0.0
 11
22668.247334780361
 21
9232.5565457502234
 31
0.0
  0
LINE
  5
66BD7
  8
U1
 10
22654.409162473301
 20
9064.8290733815084
 30
0.0
 11
22618.418571634578
 21
9065.6520989450055
 31
0.0
  0
ARC
  5
66BD8
  8
U1
 10
22654.637780685342
 20
9074.8264597256039
 30
0.0
 40
10.0
 50
268.6900000000424
 51
358.69000000170951
  0
LINE
  5
66BD9
  8
U1
 10
22665.02381798999
 20
9091.5933982984716
 30
0.0
 11
22664.635167029472
 21
9074.5978415135323
 31
0.0
  0
LINE
  5
66BDA
  8
U1
 10
22658.47856664834
 20
9242.7825503064214
 30
0.0
 11
22603.49294175582
 21
9244.0399504729012
 31
0.0
  0
LINE
  5
66BDB
  8
U1
 10
22667.858683819839
 20
9215.5609889652842
 30
0.0
 11
22665.813482908601
 21
9213.6072353388754
 31
0.0
  0
LINE
  5
66BDC
  8
U1
 10
22665.584864696499
 20
9203.6098489948072
 30
0.0
 11
22663.539663785268
 21
9201.6560953683656
 31
0.0
  0
LINE
  5
66BDD
  8
U1
 10
22665.813482908601
 20
9213.6072353388754
 30
0.0
 11
22665.584864696499
 21
9203.6098489948072
 31
0.0
  0
LINE
  5
66BDE
  8
U1
 10
22663.311045573169
 20
9191.6587090242683
 30
0.0
 11
22667.218552825991
 21
9187.5683072018001
 31
0.0
  0
LINE
  5
66BDF
  8
U1
 10
22663.539663785268
 20
9201.6560953683656
 30
0.0
 11
22663.311045573169
 21
9191.6587090242683
 31
0.0
  0
LINE
  5
66BE0
  8
U1
 10
22665.663948983842
 20
9119.5860800619266
 30
0.0
 11
22663.618748072611
 21
9117.6323264355742
 31
0.0
  0
LINE
  5
66BE1
  8
U1
 10
22663.618748072611
 20
9117.6323264355742
 30
0.0
 11
22663.390129860509
 21
9107.6349400914496
 31
0.0
  0
LINE
  5
66BE2
  8
U1
 10
22661.344928949271
 20
9105.6811864650663
 30
0.0
 11
22661.116310737169
 21
9095.6838001209417
 31
0.0
  0
LINE
  5
66BE3
  8
U1
 10
22661.116310737169
 20
9095.6838001209417
 30
0.0
 11
22665.02381798999
 21
9091.5933982984716
 31
0.0
  0
LINE
  5
66BE4
  8
U1
 10
22663.390129860509
 20
9107.6349400914496
 30
0.0
 11
22661.344928949271
 21
9105.6811864650663
 31
0.0
  0
LINE
  5
66BE5
  8
U1
 10
22665.663948983842
 20
9119.5860800619266
 30
0.0
 11
22667.218552825991
 21
9187.5683072018001
 31
0.0
  0
LINE
  5
66BE6
  8
U1
 10
22667.858683819839
 20
9215.5609889652842
 30
0.0
 11
22668.247334780361
 21
9232.5565457502234
 31
0.0
  0
ARC
  5
66BE7
  8
U1
 10
22658.249948436289
 20
9232.7851639623259
 30
0.0
 40
10.0
 50
358.69000000170951
 51
88.690000000042403
  0
LINE
  5
66BE8
  8
U1
 10
22654.409162473301
 20
9064.8290733815084
 30
0.0
 11
22618.418571634578
 21
9065.6520989450055
 31
0.0
  0
ARC
  5
66BE9
  8
U1
 10
22654.637780685342
 20
9074.8264597256039
 30
0.0
 40
10.0
 50
268.6900000000424
 51
358.69000000170951
  0
LINE
  5
66BEA
  8
U1
 10
22665.02381798999
 20
9091.5933982984716
 30
0.0
 11
22664.635167029472
 21
9074.5978415135323
 31
0.0
  0
LINE
  5
66BEB
  8
U1
 10
23568.63816616308
 20
5985.2917521017798
 30
0.0
 11
10688.73284919509
 21
5985.2917521017798
 31
0.0
  0
LINE
  5
66BEC
  8
U1
 10
19569.593520646289
 20
9311.9213521780766
 30
0.0
 11
22640.824662335821
 21
9243.1952704036812
 31
0.0
  0
LINE
  5
66BED
  8
U1
 10
22636.842487024682
 20
9065.2398201365286
 30
0.0
 11
22640.824662335821
 21
9243.1952704036812
 31
0.0
  0
LINE
  5
66BEE
  8
U1
 10
19568.989482818179
 20
9284.9281097217881
 30
0.0
 11
22667.859199724349
 21
9215.5835492680926
 31
0.0
  0
LINE
  5
66BEF
  8
U1
 10
19568.944739275332
 20
9282.9286102806072
 30
0.0
 11
22665.83556718858
 21
9213.6283321620576
 31
0.0
  0
LINE
  5
66BF0
  8
U1
 10
19568.721021561261
 20
9272.9311130745773
 30
0.0
 11
22665.58535815544
 21
9203.6314277621132
 31
0.0
  0
LINE
  5
66BF1
  8
U1
 10
19568.676278018411
 20
9270.9316136333655
 30
0.0
 11
22663.560743591759
 21
9201.6762326312455
 31
0.0
  0
LINE
  5
66BF2
  8
U1
 10
19568.452560304329
 20
9260.9341164273355
 30
0.0
 11
22663.311516586531
 21
9191.6793062561337
 31
0.0
  0
LINE
  5
66BF3
  8
U1
 10
19568.363073218628
 20
9256.935117544941
 30
0.0
 11
22667.196522512371
 21
9187.5913686650874
 31
0.0
  0
LINE
  5
66BF4
  8
U1
 10
19566.215383163199
 20
9160.9591443671525
 30
0.0
 11
22665.00179893717
 21
9091.6164479738363
 31
0.0
  0
LINE
  5
66BF5
  8
U1
 10
19566.304870248841
 20
9164.958143249547
 30
0.0
 11
22661.11678148686
 21
9095.7043858227698
 31
0.0
  0
LINE
  5
66BF6
  8
U1
 10
19566.528587962919
 20
9174.9556404555769
 30
0.0
 11
22661.36599695632
 21
9105.7013124560599
 31
0.0
  0
LINE
  5
66BF7
  8
U1
 10
19566.57333150577
 20
9176.9551398967888
 30
0.0
 11
22663.3906230557
 21
9107.6565073287784
 31
0.0
  0
LINE
  5
66BF8
  8
U1
 10
19566.797049219851
 20
9186.9526371027896
 30
0.0
 11
22663.640820553079
 21
9117.6534119868447
 31
0.0
  0
LINE
  5
66BF9
  8
U1
 10
19566.841792762702
 20
9188.9521365440014
 30
0.0
 11
22665.664464624671
 21
9119.6086288347287
 31
0.0
  0
LINE
  5
66BFA
  8
U1
 10
19565.611345335099
 20
9133.9659019108967
 30
0.0
 11
22636.842487024682
 21
9065.2398201365286
 31
0.0
  0
LINE
  5
66BFB
  8
U1
 10
19565.611345335099
 20
9133.9659019108967
 30
0.0
 11
19569.593520646289
 21
9311.9213521780766
 31
0.0
  0
LINE
  5
66BFC
  8
U1
 10
19569.593520646289
 20
9311.9213521780766
 30
0.0
 11
16909.259514124151
 21
9371.4526359035954
 31
0.0
  0
LINE
  5
66BFD
  8
U1
 10
19568.989482818179
 20
9284.9281097218191
 30
0.0
 11
16873.65571412288
 21
9345.2425961456465
 31
0.0
  0
LINE
  5
66BFE
  8
U1
 10
19568.944739275332
 20
9282.9286102806072
 30
0.0
 11
16875.608889918029
 21
9343.1983885201771
 31
0.0
  0
LINE
  5
66BFF
  8
U1
 10
19568.721021561261
 20
9272.9311130745773
 30
0.0
 11
16875.382965647219
 21
9333.2009406910965
 31
0.0
  0
LINE
  5
66C00
  8
U1
 10
19568.676278018411
 20
9270.9316136333946
 30
0.0
 11
16877.335511112309
 21
9331.1567471707385
 31
0.0
  0
LINE
  5
66C01
  8
U1
 10
19568.452560304271
 20
9260.9341164273646
 30
0.0
 11
16877.110217171561
 21
9321.1592852365429
 31
0.0
  0
LINE
  5
66C02
  8
U1
 10
19568.363073218628
 20
9256.935117544941
 30
0.0
 11
16873.020161458891
 21
9317.2498085665411
 31
0.0
  0
LINE
  5
66C03
  8
U1
 10
19566.21538316314
 20
9160.9591443671525
 30
0.0
 11
16870.842172544351
 21
9221.2745133975859
 31
0.0
  0
LINE
  5
66C04
  8
U1
 10
19566.304870248779
 20
9164.9581432495761
 30
0.0
 11
16874.932233039592
 21
9225.1839899605693
 31
0.0
  0
LINE
  5
66C05
  8
U1
 10
19566.528587962919
 20
9174.9556404556042
 30
0.0
 11
16875.157531759949
 21
9235.1814517878374
 31
0.0
  0
LINE
  5
66C06
  8
U1
 10
19566.573331505711
 20
9176.9551398967888
 30
0.0
 11
16873.20498151525
 21
9237.2256454151193
 31
0.0
  0
LINE
  5
66C07
  8
U1
 10
19566.797049219851
 20
9186.9526371028187
 30
0.0
 11
16873.43091056561
 21
9247.2230931372178
 31
0.0
  0
LINE
  5
66C08
  8
U1
 10
19566.84179276264
 20
9188.9521365440287
 30
0.0
 11
16871.477729990918
 21
9249.2673008696729
 31
0.0
  0
LINE
  5
66C09
  8
U1
 10
19565.611345335099
 20
9133.9659019108967
 30
0.0
 11
16905.277338812961
 21
9193.4971856364427
 31
0.0
  0
LINE
  5
66C0A
  8
U1
 10
19565.611345335099
 20
9133.9659019108967
 30
0.0
 11
19569.593520646289
 21
9311.9213521780766
 31
0.0
  0
ARC
  5
66C0B
  8
TOI
 10
22456.199999999972
 20
8997.2473631474859
 30
0.0
 40
50.0
 50
100.0000000004748
 51
180.0
  0
ARC
  5
66C0C
  8
TOI
 10
22555.3046636705
 20
9052.5976018900546
 30
0.0
 40
50.0
 50
280.00000000047481
 51
0.0
  0
LINE
  5
66C0D
  8
TOI
 10
22535.996249349981
 20
8998.4216768963524
 30
0.0
 11
22525.108508610239
 21
9060.1691230102315
 31
0.0
  0
LINE
  5
66C0E
  8
TOI
 10
22563.987072553849
 20
9003.3572142394405
 30
0.0
 11
22466.199999999972
 21
8986.1147149836615
 31
0.0
  0
LINE
  5
66C0F
  8
TOI
 10
22447.517591116211
 20
9046.4877507980418
 30
0.0
 11
22544.804663670438
 21
9063.6420865635591
 31
0.0
  0
LINE
  5
66C10
  8
TOI
 10
22605.3046636705
 20
9064.6420865635882
 30
0.0
 11
22605.3046636705
 21
9052.5976018900546
 31
0.0
  0
LINE
  5
66C11
  8
U1
 10
16776.08999999992
 20
6385.2917521017807
 30
0.0
 11
16776.08999999992
 21
9446.8249386161788
 31
0.0
  0
LINE
  5
66C12
  8
U1
 10
17060.66496690701
 20
9368.016765530585
 30
0.0
 11
16862.31603321743
 21
9372.517932511415
 31
0.0
  0
LINE
  5
66C13
  8
U1
 10
17060.678579307169
 20
9368.616611096324
 30
0.0
 11
16862.32964561753
 21
9373.1177780770377
 31
0.0
  0
ARC
  5
66C14
  8
U1
 10
16862.352332951159
 20
9374.1175206863427
 30
0.0
 40
1.0
 50
178.69999999971211
 51
268.69999999971691
  0
ARC
  5
66C15
  8
U1
 10
16862.352332951159
 20
9374.1175206863427
 30
0.0
 40
1.6000000000000001
 50
178.69999999971211
 51
268.69999999971691
  0
LINE
  5
66C16
  8
U1
 10
16861.39706504975
 20
9402.5465105247713
 30
0.0
 11
16860.75274477627
 21
9374.1538204200751
 31
0.0
  0
LINE
  5
66C17
  8
U1
 10
17060.678579307169
 20
9368.616611096324
 30
0.0
 11
17060.66496690701
 21
9368.016765530585
 31
0.0
  0
LINE
  5
66C18
  8
U1
 10
16861.99691061526
 20
9402.5328981246421
 30
0.0
 11
16861.35259034183
 21
9374.1402080199205
 31
0.0
  0
LINE
  5
66C19
  8
U1
 10
16861.99691061526
 20
9402.5328981246421
 30
0.0
 11
16861.39706504975
 21
9402.5465105247713
 31
0.0
  0
LINE
  5
66C1A
  8
U1
 10
16874.063773912389
 20
9363.2379639213759
 30
0.0
 11
16873.655401907989
 21
9345.2425969535689
 31
0.0
  0
ARC
  5
66C1B
  8
U1
 10
16884.039075555349
 20
9362.0223931498349
 30
0.0
 40
10.0
 50
88.699999999716823
 51
178.69999999971211
  0
LINE
  5
66C1C
  8
U1
 10
16873.43152843598
 20
9247.2224465728068
 30
0.0
 11
16871.477417884518
 21
9249.2673064585979
 31
0.0
  0
LINE
  5
66C1D
  8
U1
 10
16873.204655100199
 20
9237.2250204795691
 30
0.0
 11
16873.43152843598
 21
9247.2224465728068
 31
0.0
  0
LINE
  5
66C1E
  8
U1
 10
16875.1587656517
 20
9235.1801605937799
 30
0.0
 11
16873.204655100199
 21
9237.2250204795691
 31
0.0
  0
LINE
  5
66C1F
  8
U1
 10
16874.93189231593
 20
9225.182734500544
 30
0.0
 11
16875.1587656517
 21
9235.1801605937799
 31
0.0
  0
LINE
  5
66C20
  8
U1
 10
16870.842172544351
 20
9221.2745133975532
 30
0.0
 11
16874.93189231593
 21
9225.182734500544
 31
0.0
  0
LINE
  5
66C21
  8
U1
 10
16871.477417884518
 20
9249.2673064585979
 30
0.0
 11
16873.020156567811
 21
9317.249803892526
 31
0.0
  0
LINE
  5
66C22
  8
U1
 10
16905.198230602971
 20
9192.4876565793966
 30
0.0
 11
16909.259514124151
 21
9371.4526359035954
 31
0.0
  0
LINE
  5
66C23
  8
U1
 10
16909.259514124151
 20
9371.4526359035954
 30
0.0
 11
16884.26594889113
 21
9372.0198192430416
 31
0.0
  0
LINE
  5
66C24
  8
U1
 10
16870.433800539951
 20
9203.2791464297752
 30
0.0
 11
16870.842172544351
 21
9221.2745133975532
 31
0.0
  0
LINE
  5
66C25
  8
U1
 10
16877.1098763394
 20
9321.158024995515
 30
0.0
 11
16877.336749675171
 21
9331.1554510887509
 31
0.0
  0
LINE
  5
66C26
  8
U1
 10
16873.020156567811
 20
9317.249803892526
 30
0.0
 11
16877.1098763394
 21
9321.158024995515
 31
0.0
  0
LINE
  5
66C27
  8
U1
 10
16875.382639123662
 20
9333.2003109745401
 30
0.0
 11
16875.609512459439
 21
9343.1977370677796
 31
0.0
  0
LINE
  5
66C28
  8
U1
 10
16877.336749675171
 20
9331.1554510887509
 30
0.0
 11
16875.382639123662
 21
9333.2003109745401
 31
0.0
  0
LINE
  5
66C29
  8
U1
 10
16875.609512459439
 20
9343.1977370677796
 30
0.0
 11
16873.655401907989
 21
9345.2425969535689
 31
0.0
  0
ARC
  5
66C2A
  8
U1
 10
16880.431226633151
 20
9203.0522730939992
 30
0.0
 40
10.0
 50
178.69999999971211
 51
268.69999999971691
  0
LINE
  5
66C2B
  8
U1
 10
16905.197918530452
 20
9192.4876636613189
 30
0.0
 11
16880.204353297369
 21
9193.0548470007634
 31
0.0
  0
LINE
  5
66C2C
  8
TOI
 10
22471.199999999972
 20
6379.3512883093063
 30
0.0
 11
22471.199999999972
 21
6389.3512883093063
 31
0.0
  0
LINE
  5
66C2D
  8
TOI
 10
22361.199999999972
 20
6389.3512883093063
 30
0.0
 11
22471.199999999972
 21
6389.3512883093063
 31
0.0
  0
LINE
  5
66C2E
  8
TOI
 10
22361.199999999972
 20
6379.3512883093063
 30
0.0
 11
22471.199999999972
 21
6379.3512883093063
 31
0.0
  0
LINE
  5
66C2F
  8
TOI
 10
22466.19999999991
 20
8958.1147149836615
 30
0.0
 11
22406.19999999991
 21
8958.1147149836615
 31
0.0
  0
LINE
  5
66C30
  8
TOI
 10
22494.190823203779
 20
8991.0502523267496
 30
0.0
 11
22483.303082464099
 21
9052.7976984405977
 31
0.0
  0
LINE
  5
66C31
  8
TOI
 10
22361.199999999972
 20
8558.1147149836615
 30
0.0
 11
22471.199999999972
 21
8558.1147149836615
 31
0.0
  0
LINE
  5
66C32
  8
TOI
 10
22361.199999999972
 20
8568.1147149836615
 30
0.0
 11
22471.199999999972
 21
8568.1147149836615
 31
0.0
  0
LINE
  5
66C33
  8
TOI
 10
22471.199999999972
 20
8558.1147149836615
 30
0.0
 11
22471.199999999972
 21
8568.1147149836615
 31
0.0
  0
LINE
  5
66C34
  8
TOI
 10
22466.199999999972
 20
6025.2917521017807
 30
0.0
 11
22466.19999999991
 21
8986.1147149836615
 31
0.0
  0
LINE
  5
66C35
  8
TOI
 10
22406.199999999972
 20
6025.2917521017807
 30
0.0
 11
22466.199999999972
 21
6025.2917521017807
 31
0.0
  0
LINE
  5
66C36
  8
TOI
 10
22406.199999999972
 20
6025.2917521017807
 30
0.0
 11
22406.199999999972
 21
8997.2473631474859
 31
0.0
  0
TEXT
  5
66C37
  8
HIKIDASHI
 10
12075.197591624001
 20
5525.2917521017807
 30
0.0
 40
160.0
  1
壁 ヨドサイディング
  7
01
  0
LINE
  5
66C38
  8
HIKIDASHI
 10
12058.72189976393
 20
5485.2917521017798
 30
0.0
 11
14603.649335926881
 21
5485.2917521017798
 31
0.0
  0
TEXT
  5
66C39
  8
HIKIDASHI
 10
12384.656784468691
 20
9896.8727044827374
 30
0.0
 40
160.0
  1
型断熱材付
  7
01
  0
LINE
  5
66C3A
  8
HIKIDASHI
 10
11090.75424865169
 20
10096.872704482739
 30
0.0
 11
14046.54994973821
 21
10096.872704482739
 31
0.0
  0
TEXT
  5
66C3B
  8
HIKIDASHI
 10
11150.107575982711
 20
10136.872704482739
 30
0.0
 40
160.0
  1
屋根板
  7
01
  0
TEXT
  5
66C3C
  8
HIKIDASHI
 10
11150.107575982711
 20
9896.8727044827374
 30
0.0
 40
160.0
  1
ヨドルーフ
  7
01
  0
TEXT
  5
66C3D
  8
HIKIDASHI
 10
12134.2212812825
 20
9896.8727044827374
 30
0.0
 40
160.0
  1
88
 41
0.6700000000000002
  7
00
  0
TEXT
  5
66C3F
  8
HIKIDASHI
 10
14235.65870647436
 20
5525.2917521017807
 30
0.0
 40
160.0
  1
0.4
 41
0.6700000000000002
  7
00
  0
TEXT
  5
66C40
  8
HIKIDASHI
 10
13832.05608062319
 20
5525.2917521017807
 30
0.0
 40
160.0
  1
（
  7
01
  0
TEXT
  5
66C41
  8
HIKIDASHI
 10
14016.36062341563
 20
5545.2917521017807
 30
0.0
 40
120.0
  1
ア
  7
01
  0
CIRCLE
  5
66C42
  8
HIKIDASHI
 10
14067.73863584561
 20
5605.2917521017807
 30
0.0
 40
80.0
  0
LINE
  5
66C43
  8
HIKIDASHI
 10
15101.25103105955
 20
6427.0258846908264
 30
0.0
 11
14603.649335926881
 21
5485.2917521017798
 31
0.0
  0
TEXT
  5
66C44
  8
HIKIDASHI
 10
14496.81334673102
 20
5525.2917521017807
 30
0.0
 40
160.0
  1
）
  7
01
  0
LINE
  5
66C45
  8
HIKIDASHI
 10
14572.55426261872
 20
9568.7713057981309
 30
0.0
 11
14046.54994973821
 21
10096.872704482739
 31
0.0
  0
TEXT
  5
66C46
  8
HIKIDASHI
 10
13274.95669443447
 20
9896.8727044827374
 30
0.0
 40
160.0
  1
（
  7
01
  0
TEXT
  5
66C47
  8
HIKIDASHI
 10
13459.26123722696
 20
9916.8727044827392
 30
0.0
 40
120.0
  1
ア
  7
01
  0
CIRCLE
  5
66C48
  8
HIKIDASHI
 10
13510.63924965689
 20
9976.8727044827392
 30
0.0
 40
80.0
  0
TEXT
  5
66C49
  8
HIKIDASHI
 10
13657.49950437493
 20
9896.8727044827374
 30
0.0
 40
160.0
  1
0.5
 41
0.6700000000000002
  7
00
  0
TEXT
  5
66C4A
  8
HIKIDASHI
 10
13939.7139605423
 20
9896.8727044827374
 30
0.0
 40
160.0
  1
）
  7
01
  0
TEXT
  5
66C4C
  8
HIKIDASHI
 10
18225.461093499049
 20
3480.588973363178
 30
0.0
 40
160.0
  1
80
 41
0.6700000000000002
  7
00
  0
TEXT
  5
66C4D
  8
HIKIDASHI
 10
18066.596508245111
 20
3564.047591260126
 30
0.0
 40
160.0
  1
1
 41
0.6700000000000002
  7
00
  0
TEXT
  5
66C4E
  8
HIKIDASHI
 10
18132.870783973729
 20
3532.9246357637312
 30
0.0
 40
160.0
  1
/
 41
0.6700000000000002
  7
00
  0
TEXT
  5
66C4F
  8
HIKIDASHI
 10
18468.314005623881
 20
3532.9246357637312
 30
0.0
 40
160.0
  1
)
 41
0.6700000000000002
  7
00
  0
TEXT
  5
66C50
  8
HIKIDASHI
 10
17705.180676369771
 20
3532.9246357637312
 30
0.0
 40
160.0
  1
(S=
 41
0.6700000000000002
  7
00
  0
TEXT
  5
66C51
  8
HIKIDASHI
 10
15578.28784423503
 20
3485.2917521017812
 30
0.0
 40
240.0
  1
側 面 立 面 図
  7
01
  0
CIRCLE
  5
66C52
  8
SUNPOU
 10
11316.000000000009
 20
4245.2917521017798
 30
0.0
 40
200.0
  0
TEXT
  5
66C53
  8
SUNPOU
 10
11235.600000000009
 20
4125.2917521017798
 30
0.0
 40
240.0
  1
C
 41
0.6700000000000002
  7
00
 72
     4
 11
11316.000000000009
 21
4245.2917521017798
 31
0.0
  0
LINE
  5
66C54
  8
SUNPOU
 10
10118.35269704189
 20
9105.2917521017807
 30
0.0
 11
10118.35269704189
 21
6425.2917521017807
 31
0.0
  0
LINE
  5
66C55
  8
SUNPOU
 10
11146.700000000021
 20
6385.2917521017807
 30
0.0
 11
9998.3526970418898
 21
6385.2917521017807
 31
0.0
  0
LINE
  5
66C57
  8
SUNPOU
 10
10838.35269704189
 20
9145.2917521017825
 30
0.0
 11
9998.3526970418898
 21
9145.2917521017825
 31
0.0
  0
CIRCLE
  5
66C59
  8
SUNPOU
 10
16816.000000000011
 20
4245.2917521017798
 30
0.0
 40
200.0
  0
TEXT
  5
66C5A
  8
SUNPOU
 10
16747.08571428572
 20
4125.2917521017798
 30
0.0
 40
240.0
  1
A
 41
0.6700000000000002
  7
00
 72
     4
 11
16816.000000000011
 21
4245.2917521017798
 31
0.0
  0
LINE
  5
66C5B
  8
SUNPOU
 10
18049.753093279211
 20
9625.2917521017807
 30
0.0
 11
18049.753093279211
 21
6425.2917521017807
 31
0.0
  0
LINE
  5
66C5D
  8
SUNPOU
 10
17314.985027643339
 20
9665.2917521017807
 30
0.0
 11
18169.753093279211
 21
9665.2917521017807
 31
0.0
  0
LINE
  5
66C5F
  8
SUNPOU
 10
10859.76407180111
 20
10344.52791441195
 30
0.0
 11
17096.666111072831
 21
10857.96432968489
 31
0.0
  0
LINE
  5
66C60
  8
SUNPOU
 10
17228.42144291634
 20
9745.0220434315706
 30
0.0
 11
17126.685879647161
 21
10980.84155904308
 31
0.0
  0
TEXT
  5
66C62
  8
SUNPOU
 10
13783.41208556086
 20
10665.48010238928
 30
0.0
 40
160.0
  1
6338
 50
4.7061111437861802
 41
0.6700000000000002
  7
00
  0
LINE
  5
66C63
  8
SUNPOU
 10
10911.789112314829
 20
9225.0220434315706
 30
0.0
 11
10810.05354904565
 21
10460.84155904308
 31
0.0
  0
LINE
  5
66C65
  8
SUNPOU
 10
16340.070510998379
 20
10100.40672552686
 30
0.0
 11
14740.070510998379
 21
10100.40672552686
 31
0.0
  0
LINE
  5
66C66
  8
SUNPOU
 10
14740.070510998379
 20
9968.6909699700045
 30
0.0
 11
16340.070510998379
 21
10100.40672552686
 31
0.0
  0
TEXT
  5
66C67
  8
SUNPOU
 10
15381.91238300998
 20
10169.42250270709
 30
0.0
 40
160.0
  1
12
 41
0.6700000000000002
  7
00
  0
TEXT
  5
66C68
  8
SUNPOU
 10
14581.524157965339
 20
9944.3421844781114
 30
0.0
 40
160.0
  1
1
 41
0.6700000000000002
  7
00
  0
LINE
  5
66C69
  8
SUNPOU
 10
14740.070510998379
 20
10100.40672552686
 30
0.0
 11
14740.070510998379
 21
9968.6909699700045
 31
0.0
  0
TEXT
  5
66C6A
  8
SUNPOU
 10
22197.714285714239
 20
4136.2917521017798
 30
0.0
 40
230.0
  1
A0
 41
0.6
  7
00
 72
     4
 11
22315.99999999996
 21
4251.2917521017807
 31
0.0
  0
CIRCLE
  5
66C6B
  8
SUNPOU
 10
22315.99999999996
 20
4251.2917521017807
 30
0.0
 40
200.0
  0
LINE
  5
66C6F
  8
SUNPOU
 10
17674.461403175039
 20
10047.06715688704
 30
0.0
 11
18794.461403175039
 21
10047.06715688704
 31
0.0
  0
LINE
  5
66C70
  8
SUNPOU
 10
18794.461403175039
 20
10022.00450024046
 30
0.0
 11
17674.461403175039
 21
10047.06715688704
 31
0.0
  0
TEXT
  5
66C71
  8
SUNPOU
 10
18188.038723776372
 20
10116.082934067281
 30
0.0
 40
160.0
  1
44
 41
0.6700000000000002
  7
00
  0
TEXT
  5
66C72
  8
SUNPOU
 10
18866.226803827129
 20
9943.4589556669689
 30
0.0
 40
160.0
  1
1
 41
0.6700000000000002
  7
00
  0
LINE
  5
66C73
  8
SUNPOU
 10
18794.461403175039
 20
10047.06715688704
 30
0.0
 11
18794.461403175039
 21
10022.00450024046
 31
0.0
  0
TEXT
  5
66C76
  8
HIKIDASHI
 10
20886.006113692962
 20
9747.3405223982263
 30
0.0
 40
160.0
  1
型断熱材付
  7
01
  0
LINE
  5
66C77
  8
HIKIDASHI
 10
19592.103577875951
 20
9947.3405223982281
 30
0.0
 11
22547.899278962472
 21
9947.3405223982281
 31
0.0
  0
TEXT
  5
66C78
  8
HIKIDASHI
 10
19651.456905206971
 20
9987.3405223982263
 30
0.0
 40
160.0
  1
屋根板
  7
01
  0
TEXT
  5
66C79
  8
HIKIDASHI
 10
19651.456905206971
 20
9747.3405223982263
 30
0.0
 40
160.0
  1
ヨドルーフ
  7
01
  0
TEXT
  5
66C7A
  8
HIKIDASHI
 10
20635.570610506769
 20
9747.3405223982263
 30
0.0
 40
160.0
  1
88
 41
0.6700000000000002
  7
00
  0
TEXT
  5
66C7B
  8
HIKIDASHI
 10
21776.30602365873
 20
9747.3405223982263
 30
0.0
 40
160.0
  1
（
  7
01
  0
TEXT
  5
66C7C
  8
HIKIDASHI
 10
21960.610566451229
 20
9767.3405223982281
 30
0.0
 40
120.0
  1
ア
  7
01
  0
CIRCLE
  5
66C7D
  8
HIKIDASHI
 10
22011.988578881152
 20
9827.3405223982263
 30
0.0
 40
80.0
  0
TEXT
  5
66C7E
  8
HIKIDASHI
 10
22158.848833599201
 20
9747.3405223982263
 30
0.0
 40
160.0
  1
0.5
 41
0.6700000000000002
  7
00
  0
TEXT
  5
66C7F
  8
HIKIDASHI
 10
22441.06328976656
 20
9747.3405223982263
 30
0.0
 40
160.0
  1
）
  7
01
  0
LINE
  5
66C81
  8
U1
 10
22273.49999999996
 20
5985.2917521017798
 30
0.0
 11
22273.49999999996
 21
5485.2917521017798
 31
0.0
  0
LINE
  5
66C82
  8
U1
 10
22358.49999999996
 20
5485.2917521017798
 30
0.0
 11
22358.49999999996
 21
5985.2917521017798
 31
0.0
  0
LINE
  5
66C83
  8
U1
 10
19523.499999999949
 20
5985.2917521017798
 30
0.0
 11
19523.499999999949
 21
5485.2917521017798
 31
0.0
  0
LINE
  5
66C84
  8
U1
 10
19608.49999999996
 20
5485.2917521017798
 30
0.0
 11
19608.49999999996
 21
5985.2917521017798
 31
0.0
  0
LINE
  5
66C85
  8
U1
 10
19523.499999999949
 20
5485.2917521017798
 30
0.0
 11
19608.49999999996
 21
5485.2917521017798
 31
0.0
  0
LINE
  5
66C86
  8
U1
 10
22273.49999999996
 20
5485.2917521017798
 30
0.0
 11
22358.49999999996
 21
5485.2917521017798
 31
0.0
  0
TEXT
  5
66C89
  8
SUNPOU
 10
10038.35269704189
 20
7576.4155616255957
 30
0.0
 40
160.0
  1
2760
 50
90.0
 41
0.6700000000000002
  7
00
  0
TEXT
  5
66C8A
  8
SUNPOU
 10
17969.753093279211
 20
7839.4155616255894
 30
0.0
 40
160.0
  1
3280
 50
90.0
 41
0.6700000000000002
  7
00
  0
LINE
  5
66C8B
  8
U1
 10
16871.599999999991
 20
8759.818482222021
 30
0.0
 11
16951.528932188041
 21
8759.8184822220064
 31
0.0
  0
LINE
  5
66C8C
  8
U1
 10
17008.599999999991
 20
8719.8184822220228
 30
0.0
 11
16995.671067811822
 21
8719.8184822220228
 31
0.0
  0
ARC
  5
66C8D
  8
U1
 10
16995.671067811822
 20
8724.818482222021
 30
0.0
 40
5.0
 50
225.00000000044221
 51
270.0
  0
LINE
  5
66C8E
  8
U1
 10
16955.064466093969
 20
8758.3540161279525
 30
0.0
 11
16992.135533905908
 21
8721.2829483160895
 31
0.0
  0
ARC
  5
66C8F
  8
U1
 10
16951.528932188041
 20
8754.8184822220192
 30
0.0
 40
5.0
 50
45.000000000442157
 51
90.0
  0
TEXT
  5
66C91
  8
SUNPOU
 10
20961.3871066635
 20
6482.6826801918423
 30
0.0
 40
160.0
  1
下屋側面有効開口高サ
 50
90.0
  7
01
  0
TEXT
  5
6C289
  8
HIKIDASHI
 10
15446.88740483039
 20
13118.121500361291
 30
0.0
 40
240.0
  1
正 面 立 面 図
  7
01
  0
LINE
  5
6C28A
  8
SUNPOU
 10
12531.00000000002
 20
14318.121500361291
 30
0.0
 11
21101.000000000011
 21
14318.121500361291
 31
0.0
  0
LINE
  5
6C28B
  8
SUNPOU
 10
12496.00000000002
 20
20798.121500361289
 30
0.0
 11
21136.000000000018
 21
20798.121500361289
 31
0.0
  0
LINE
  5
6C28C
  8
SUNPOU
 10
12531.00000000002
 20
20398.121500361289
 30
0.0
 11
21101.000000000011
 21
20398.121500361289
 31
0.0
  0
LINE
  5
6C28D
  8
SUNPOU
 10
15456.000000000009
 20
14718.121500361291
 30
0.0
 11
18176.0
 21
14718.121500361291
 31
0.0
  0
TEXT
  5
6C28E
  8
SUNPOU
 10
16627.123809523811
 20
14398.121500361291
 30
0.0
 40
160.0
  1
8650
 41
0.6700000000000002
  7
00
  0
TEXT
  5
6C28F
  8
SUNPOU
 10
16627.12380952383
 20
20478.121500361289
 30
0.0
 40
160.0
  1
8650
 41
0.6700000000000002
  7
00
  0
TEXT
  5
6C290
  8
SUNPOU
 10
16627.12380952383
 20
20878.121500361289
 30
0.0
 40
160.0
  1
8720
 41
0.6700000000000002
  7
00
  0
LINE
  5
6C291
  8
U1
 10
12491.00000000002
 20
16318.121500361291
 30
0.0
 11
12573.50000000002
 21
16318.1215003613
 31
0.0
  0
LINE
  5
6C292
  8
U1
 10
12466.00000000002
 20
19598.121500361289
 30
0.0
 11
21166.000000000011
 21
19598.121500361289
 31
0.0
  0
LINE
  5
6C294
  8
U1
 10
12466.00000000002
 20
19418.121500361289
 30
0.0
 11
21166.000000000011
 21
19418.121500361289
 31
0.0
  0
LINE
  5
6C295
  8
U1
 10
12456.00000000002
 20
19558.121500361289
 30
0.0
 11
21176.000000000011
 21
19558.121500361289
 31
0.0
  0
LINE
  5
6C296
  8
U1
 10
12456.00000000002
 20
19543.121500361289
 30
0.0
 11
21176.000000000011
 21
19543.121500361289
 31
0.0
  0
LINE
  5
6C297
  8
U1
 10
12456.00000000002
 20
19473.121500361289
 30
0.0
 11
21176.000000000011
 21
19473.121500361289
 31
0.0
  0
LINE
  5
6C298
  8
U1
 10
12456.00000000002
 20
19458.121500361289
 30
0.0
 11
21176.000000000011
 21
19458.121500361289
 31
0.0
  0
LINE
  5
6C299
  8
1PL-M1
 10
12616.00000000002
 20
14078.121500361291
 30
0.0
 11
12616.00000000002
 21
16818.121500361289
 31
0.0
  0
LINE
  5
6C29A
  8
1PL-M1
 10
15416.0
 20
14078.121500361291
 30
0.0
 11
15416.0
 21
16818.121500361289
 31
0.0
  0
LINE
  5
6C29B
  8
SUNPOU
 10
12491.00000000002
 20
16238.121500361291
 30
0.0
 11
12491.00000000002
 21
14198.121500361291
 31
0.0
  0
CIRCLE
  5
6C29C
  8
SUNPOU
 10
12616.00000000002
 20
13878.121500361291
 30
0.0
 40
200.0
  0
TEXT
  5
6C29D
  8
SUNPOU
 10
12550.9142857143
 20
13758.121500361291
 30
0.0
 40
240.0
  1
1
 41
0.6700000000000002
  7
00
 72
     4
 11
12616.00000000002
 21
13878.121500361291
 31
0.0
  0
CIRCLE
  5
6C29E
  8
SUNPOU
 10
15416.00000000002
 20
13878.121500361291
 30
0.0
 40
200.0
  0
TEXT
  5
6C29F
  8
SUNPOU
 10
15339.428571428591
 20
13758.121500361291
 30
0.0
 40
240.0
  1
2
 41
0.6700000000000002
  7
00
 72
     4
 11
15416.00000000002
 21
13878.121500361291
 31
0.0
  0
LINE
  5
6C2A0
  8
U1
 10
15522.00000000002
 20
16318.121500361291
 30
0.0
 11
15522.00000000002
 21
18874.555091614991
 31
0.0
  0
LINE
  5
6C2A1
  8
SUNPOU
 10
12656.00000000002
 20
14718.121500361291
 30
0.0
 11
15376.000000000009
 21
14718.121500361291
 31
0.0
  0
TEXT
  5
6C2A2
  8
SUNPOU
 10
14115.992001235431
 20
14798.121500361291
 30
0.0
 40
160.0
  1
2800
 41
0.6700000000000002
  7
00
  0
LINE
  5
6C2A3
  8
SUNPOU
 10
12491.0
 20
14718.121500361291
 30
0.0
 11
12049.65262541413
 21
14718.121500361291
 31
0.0
  0
TEXT
  5
6C2A4
  8
SUNPOU
 10
12122.72206390971
 20
14798.121500361291
 30
0.0
 40
160.0
  1
125
 41
0.6700000000000002
  7
00
  0
LINE
  5
6C2A9
  8
SUNPOU
 10
12531.0
 20
14718.121500361291
 30
0.0
 11
12576.00000000002
 21
14718.121500361291
 31
0.0
  0
TEXT
  5
6C2AA
  8
SUNPOU
 10
13469.50631550425
 20
14798.121500361291
 30
0.0
 40
160.0
  1
柱芯寸
  7
01
  0
TEXT
  5
6C2AD
  8
SUNPOU
 10
16269.506315504241
 20
14798.121500361291
 30
0.0
 40
160.0
  1
柱芯寸
  7
01
  0
LINE
  5
6C2AE
  8
SUNPOU
 10
12456.00000000002
 20
19678.121500361289
 30
0.0
 11
12456.00000000002
 21
20918.121500361289
 31
0.0
  0
LINE
  5
6C2AF
  8
SUNPOU
 10
12491.00000000002
 20
19678.121500361289
 30
0.0
 11
12491.00000000002
 21
20518.121500361289
 31
0.0
  0
TEXT
  5
6C2B0
  8
SUNPOU
 10
12162.438095238111
 20
20478.121500361289
 30
0.0
 40
160.0
  1
35
 41
0.6700000000000002
  7
00
  0
LINE
  5
6C2B1
  8
SUNPOU
 10
12396.00000000002
 20
20398.121500361289
 30
0.0
 11
12110.82137393905
 21
20398.121500361289
 31
0.0
  0
LINE
  5
6C2B5
  8
U1
 10
15541.0
 20
19418.121500361289
 30
0.0
 11
15541.0
 21
19598.121500361289
 31
0.0
  0
LINE
  5
6C2B6
  8
1PL-M1
 10
21016.000000000011
 20
14078.121500361291
 30
0.0
 11
21016.000000000011
 21
16818.121500361289
 31
0.0
  0
LINE
  5
6C2B7
  8
1PL-M1
 10
18216.0
 20
14078.121500361291
 30
0.0
 11
18216.0
 21
16818.121500361289
 31
0.0
  0
LINE
  5
6C2B8
  8
SUNPOU
 10
21141.000000000011
 20
16238.121500361291
 30
0.0
 11
21141.000000000011
 21
14198.121500361291
 31
0.0
  0
CIRCLE
  5
6C2B9
  8
SUNPOU
 10
18216.000000000018
 20
13878.121500361291
 30
0.0
 40
200.0
  0
TEXT
  5
6C2BA
  8
HIKIDASHI
 10
17943.922500677461
 20
13113.418721622669
 30
0.0
 40
160.0
  1
80
 41
0.6700000000000002
  7
00
  0
TEXT
  5
6C2BB
  8
HIKIDASHI
 10
17851.332191152182
 20
13165.754384023219
 30
0.0
 40
160.0
  1
/
 41
0.6700000000000002
  7
00
  0
TEXT
  5
6C2BC
  8
HIKIDASHI
 10
17423.64208354822
 20
13165.754384023219
 30
0.0
 40
160.0
  1
(S=
 41
0.6700000000000002
  7
00
  0
TEXT
  5
6C2BD
  8
HIKIDASHI
 10
17785.05791542356
 20
13196.87733951962
 30
0.0
 40
160.0
  1
1
 41
0.6700000000000002
  7
00
  0
TEXT
  5
6C2BE
  8
HIKIDASHI
 10
18186.77541280233
 20
13165.754384023219
 30
0.0
 40
160.0
  1
)
 41
0.6700000000000002
  7
00
  0
TEXT
  5
6C2BF
  8
SUNPOU
 10
18139.428571428591
 20
13758.121500361291
 30
0.0
 40
240.0
  1
3
 41
0.6700000000000002
  7
00
 72
     4
 11
18216.000000000018
 21
13878.121500361291
 31
0.0
  0
CIRCLE
  5
6C2C0
  8
SUNPOU
 10
21016.000000000018
 20
13878.121500361291
 30
0.0
 40
200.0
  0
TEXT
  5
6C2C1
  8
SUNPOU
 10
20935.60000000002
 20
13758.121500361291
 30
0.0
 40
240.0
  1
4
 41
0.6700000000000002
  7
00
 72
     4
 11
21016.000000000018
 21
13878.121500361291
 31
0.0
  0
LINE
  5
6C2C2
  8
U1
 10
20967.705729548248
 20
19418.691127034312
 30
0.0
 11
20967.705729548248
 21
19189.121500361289
 31
0.0
  0
LINE
  5
6C2C3
  8
U1
 10
21141.000000000011
 20
16318.121500361291
 30
0.0
 11
21141.000000000011
 21
18970.556065383062
 31
0.0
  0
LINE
  5
6C2C5
  8
U1
 10
18110.000000000018
 20
16318.121500361291
 30
0.0
 11
18110.000000000018
 21
18874.555091614991
 31
0.0
  0
LINE
  5
6C2C7
  8
U1
 10
18322.000000000018
 20
16318.121500361291
 30
0.0
 11
18322.000000000018
 21
18874.555091614991
 31
0.0
  0
LINE
  5
6C2C8
  8
U1
 10
20910.000000000051
 20
16318.121500361291
 30
0.0
 11
20910.000000000051
 21
18874.555091614991
 31
0.0
  0
LINE
  5
6C2CA
  8
SUNPOU
 10
18362.000000000018
 20
15518.121500361291
 30
0.0
 11
20870.000000000051
 21
15518.121500361291
 31
0.0
  0
LINE
  5
6C2CB
  8
SUNPOU
 10
18256.000000000011
 20
14718.121500361291
 30
0.0
 11
20976.000000000011
 21
14718.121500361291
 31
0.0
  0
TEXT
  5
6C2CC
  8
SUNPOU
 10
19069.506315504241
 20
14798.121500361291
 30
0.0
 40
160.0
  1
柱芯寸
  7
01
  0
TEXT
  5
6C2CD
  8
SUNPOU
 10
16915.992001235431
 20
14798.121500361291
 30
0.0
 40
160.0
  1
2800
 41
0.6700000000000002
  7
00
  0
LINE
  5
6C2CE
  8
SUNPOU
 10
18322.000000000018
 20
16238.121500361291
 30
0.0
 11
18322.000000000018
 21
15398.121500361291
 31
0.0
  0
TEXT
  5
6C2D3
  8
SUNPOU
 10
19715.992001235431
 20
14798.121500361291
 30
0.0
 40
160.0
  1
2800
 41
0.6700000000000002
  7
00
  0
TEXT
  5
6C2D4
  8
SUNPOU
 10
20377.112439540819
 20
15598.121500361291
 30
0.0
 40
160.0
  1
2588
 41
0.6700000000000002
  7
00
  0
LINE
  5
6C2D5
  8
SUNPOU
 10
20910.000000000051
 20
16238.121500361291
 30
0.0
 11
20910.000000000051
 21
15398.121500361291
 31
0.0
  0
LINE
  5
6C2D6
  8
SUNPOU
 10
21016.000000000011
 20
14718.121500361291
 30
0.0
 11
21582.347374585901
 21
14718.121500361291
 31
0.0
  0
TEXT
  5
6C2D7
  8
SUNPOU
 10
21254.039840852231
 20
14798.121500361291
 30
0.0
 40
160.0
  1
125
 41
0.6700000000000002
  7
00
  0
LINE
  5
6C2DE
  8
U1
 10
18341.0
 20
19418.121500361289
 30
0.0
 11
18341.0
 21
19598.121500361289
 31
0.0
  0
LINE
  5
6C2DF
  8
SUNPOU
 10
21176.000000000018
 20
19678.121500361289
 30
0.0
 11
21176.000000000018
 21
20918.121500361289
 31
0.0
  0
LINE
  5
6C2E0
  8
SUNPOU
 10
21141.000000000011
 20
19678.121500361289
 30
0.0
 11
21141.000000000011
 21
20518.121500361289
 31
0.0
  0
LINE
  5
6C2E1
  8
U1
 10
21176.000000000011
 20
19428.121500361289
 30
0.0
 11
21176.000000000011
 21
19588.121500361289
 31
0.0
  0
ARC
  5
6C2E4
  8
U1
 10
21166.000000000011
 20
19428.121500361289
 30
0.0
 40
10.0
 50
270.0
 51
0.0
  0
ARC
  5
6C2E5
  8
U1
 10
21166.000000000011
 20
19588.121500361289
 30
0.0
 40
10.0
 50
0.0
 51
90.0
  0
TEXT
  5
6C2E6
  8
SUNPOU
 10
21296.000000000018
 20
20478.121500361289
 30
0.0
 40
160.0
  1
35
 41
0.6700000000000002
  7
00
  0
LINE
  5
6C2E7
  8
SUNPOU
 10
21236.000000000018
 20
20398.121500361289
 30
0.0
 11
21521.17862606097
 21
20398.121500361289
 31
0.0
  0
LINE
  5
6C2EB
  8
U1
 10
12721.999999999971
 20
16388.921500361292
 30
0.0
 11
15310.05502427907
 21
16388.921500361292
 31
0.0
  0
LINE
  5
6C2ED
  8
U1
 10
12721.999999999971
 20
18866.921500361292
 30
0.0
 11
15310.05502427907
 21
18866.921500361292
 31
0.0
  0
LINE
  5
6C2EE
  8
U1
 10
12721.999999999971
 20
18796.121500361289
 30
0.0
 11
15310.05502427907
 21
18796.121500361289
 31
0.0
  0
LINE
  5
6C2EF
  8
U1
 10
12721.999999999971
 20
18725.321500361279
 30
0.0
 11
15310.05502427907
 21
18725.321500361279
 31
0.0
  0
LINE
  5
6C2F0
  8
U1
 10
12721.999999999971
 20
18654.52150036129
 30
0.0
 11
15310.05502427907
 21
18654.52150036129
 31
0.0
  0
LINE
  5
6C2F1
  8
U1
 10
12721.999999999971
 20
18583.72150036128
 30
0.0
 11
15310.05502427905
 21
18583.72150036128
 31
0.0
  0
LINE
  5
6C2F2
  8
U1
 10
12721.999999999971
 20
18371.321500361279
 30
0.0
 11
15310.05502427905
 21
18371.321500361279
 31
0.0
  0
LINE
  5
6C2F3
  8
U1
 10
12721.999999999971
 20
18442.121500361289
 30
0.0
 11
15310.05502427905
 21
18442.121500361289
 31
0.0
  0
LINE
  5
6C2F4
  8
U1
 10
12721.999999999971
 20
18512.921500361292
 30
0.0
 11
15310.05502427905
 21
18512.921500361292
 31
0.0
  0
LINE
  5
6C2F5
  8
U1
 10
12721.999999999971
 20
18300.52150036129
 30
0.0
 11
15310.05502427906
 21
18300.52150036129
 31
0.0
  0
LINE
  5
6C2F6
  8
U1
 10
12721.999999999971
 20
18229.721500361291
 30
0.0
 11
15310.05502427906
 21
18229.721500361291
 31
0.0
  0
LINE
  5
6C2F7
  8
U1
 10
12721.999999999971
 20
18158.921500361292
 30
0.0
 11
15310.05502427906
 21
18158.921500361292
 31
0.0
  0
LINE
  5
6C2F8
  8
U1
 10
12721.999999999971
 20
17380.121500361289
 30
0.0
 11
15310.05502427907
 21
17380.121500361289
 31
0.0
  0
LINE
  5
6C2F9
  8
U1
 10
12721.999999999971
 20
17450.921500361292
 30
0.0
 11
15310.05502427907
 21
17450.921500361292
 31
0.0
  0
LINE
  5
6C2FA
  8
U1
 10
12721.999999999971
 20
17521.721500361291
 30
0.0
 11
15310.05502427907
 21
17521.721500361291
 31
0.0
  0
LINE
  5
6C2FB
  8
U1
 10
12721.999999999971
 20
17592.52150036129
 30
0.0
 11
15310.05502427907
 21
17592.52150036129
 31
0.0
  0
LINE
  5
6C2FC
  8
U1
 10
12721.999999999971
 20
17663.321500361279
 30
0.0
 11
15310.05502427907
 21
17663.321500361279
 31
0.0
  0
LINE
  5
6C2FD
  8
U1
 10
12721.999999999971
 20
17734.121500361289
 30
0.0
 11
15310.05502427907
 21
17734.121500361289
 31
0.0
  0
LINE
  5
6C2FE
  8
U1
 10
12721.999999999971
 20
17804.921500361292
 30
0.0
 11
15310.05502427907
 21
17804.921500361292
 31
0.0
  0
LINE
  5
6C2FF
  8
U1
 10
12721.999999999971
 20
17875.721500361291
 30
0.0
 11
15310.05502427907
 21
17875.721500361291
 31
0.0
  0
LINE
  5
6C300
  8
U1
 10
12721.999999999971
 20
17946.52150036129
 30
0.0
 11
15310.05502427907
 21
17946.52150036129
 31
0.0
  0
LINE
  5
6C301
  8
U1
 10
12721.999999999971
 20
18017.32150036129
 30
0.0
 11
15310.05502427907
 21
18017.32150036129
 31
0.0
  0
LINE
  5
6C302
  8
U1
 10
12721.999999999971
 20
18088.121500361289
 30
0.0
 11
15310.05502427907
 21
18088.121500361289
 31
0.0
  0
LINE
  5
6C303
  8
U1
 10
12721.999999999971
 20
17309.321500361279
 30
0.0
 11
15310.05502427907
 21
17309.321500361279
 31
0.0
  0
LINE
  5
6C304
  8
U1
 10
12721.999999999971
 20
17238.52150036129
 30
0.0
 11
15310.05502427907
 21
17238.52150036129
 31
0.0
  0
LINE
  5
6C305
  8
U1
 10
12721.999999999971
 20
17167.721500361291
 30
0.0
 11
15310.05502427907
 21
17167.721500361291
 31
0.0
  0
LINE
  5
6C306
  8
U1
 10
12721.999999999971
 20
17096.921500361292
 30
0.0
 11
15310.05502427907
 21
17096.921500361292
 31
0.0
  0
LINE
  5
6C307
  8
U1
 10
12721.999999999971
 20
17026.121500361289
 30
0.0
 11
15310.05502427907
 21
17026.121500361289
 31
0.0
  0
LINE
  5
6C308
  8
U1
 10
12721.999999999971
 20
16955.321500361279
 30
0.0
 11
15310.05502427907
 21
16955.321500361279
 31
0.0
  0
LINE
  5
6C309
  8
U1
 10
12721.999999999971
 20
16884.52150036129
 30
0.0
 11
15310.05502427907
 21
16884.52150036129
 31
0.0
  0
LINE
  5
6C30A
  8
U1
 10
12721.999999999971
 20
16813.72150036128
 30
0.0
 11
15310.05502427907
 21
16813.72150036128
 31
0.0
  0
LINE
  5
6C30B
  8
U1
 10
12721.999999999971
 20
16742.921500361292
 30
0.0
 11
15310.05502427907
 21
16742.921500361292
 31
0.0
  0
LINE
  5
6C30C
  8
U1
 10
12721.999999999971
 20
16672.121500361289
 30
0.0
 11
15310.05502427907
 21
16672.121500361289
 31
0.0
  0
LINE
  5
6C30D
  8
U1
 10
12721.999999999971
 20
16601.321500361279
 30
0.0
 11
15310.05502427907
 21
16601.321500361279
 31
0.0
  0
LINE
  5
6C30E
  8
U1
 10
12721.999999999971
 20
16530.521500361279
 30
0.0
 11
15310.05502427907
 21
16530.521500361279
 31
0.0
  0
LINE
  5
6C30F
  8
U1
 10
12721.999999999971
 20
16459.721500361291
 30
0.0
 11
15310.05502427907
 21
16459.721500361291
 31
0.0
  0
LINE
  5
6C311
  8
SUNPOU
 10
11691.00000000002
 20
16358.121500361291
 30
0.0
 11
11691.00000000002
 21
18948.121500361289
 31
0.0
  0
LINE
  5
6C312
  8
SUNPOU
 10
11291.00000000002
 20
16358.121500361291
 30
0.0
 11
11291.00000000002
 21
19558.121500361289
 31
0.0
  0
LINE
  5
6C313
  8
SUNPOU
 10
12411.00000000002
 20
16318.121500361291
 30
0.0
 11
11171.00000000002
 21
16318.121500361291
 31
0.0
  0
TEXT
  5
6C317
  8
SUNPOU
 10
11211.00000000002
 20
17769.2453098851
 30
0.0
 40
160.0
  1
3280
 50
90.0
 41
0.6700000000000002
  7
00
  0
LINE
  5
6C318
  8
SUNPOU
 10
12376.00000000002
 20
19598.121500361289
 30
0.0
 11
11171.00000000002
 21
19598.121500361289
 31
0.0
  0
LINE
  5
6C319
  8
SUNPOU
 10
12376.00000000002
 20
18988.121500361289
 30
0.0
 11
11571.00000000002
 21
18988.121500361289
 31
0.0
  0
LINE
  5
6C31C
  8
U1
 10
15522.00000000002
 20
16459.721500361291
 30
0.0
 11
18110.000000000018
 21
16459.721500361291
 31
0.0
  0
LINE
  5
6C31D
  8
U1
 10
15522.00000000002
 20
16530.521500361279
 30
0.0
 11
18110.000000000018
 21
16530.521500361279
 31
0.0
  0
LINE
  5
6C31E
  8
U1
 10
15522.00000000002
 20
16601.321500361279
 30
0.0
 11
18110.000000000018
 21
16601.321500361279
 31
0.0
  0
LINE
  5
6C31F
  8
U1
 10
15522.00000000002
 20
16672.121500361289
 30
0.0
 11
18110.000000000018
 21
16672.121500361289
 31
0.0
  0
LINE
  5
6C320
  8
U1
 10
15522.00000000002
 20
16742.921500361292
 30
0.0
 11
18110.000000000018
 21
16742.921500361292
 31
0.0
  0
LINE
  5
6C321
  8
U1
 10
15522.00000000002
 20
16813.72150036128
 30
0.0
 11
18110.000000000018
 21
16813.72150036128
 31
0.0
  0
LINE
  5
6C322
  8
U1
 10
15522.00000000002
 20
16884.52150036129
 30
0.0
 11
18110.000000000018
 21
16884.52150036129
 31
0.0
  0
LINE
  5
6C323
  8
U1
 10
15522.00000000002
 20
16955.321500361279
 30
0.0
 11
18110.000000000018
 21
16955.321500361279
 31
0.0
  0
LINE
  5
6C324
  8
U1
 10
15522.00000000002
 20
17026.121500361289
 30
0.0
 11
18110.000000000018
 21
17026.121500361289
 31
0.0
  0
LINE
  5
6C325
  8
U1
 10
15522.00000000002
 20
17096.921500361292
 30
0.0
 11
18110.000000000018
 21
17096.921500361292
 31
0.0
  0
LINE
  5
6C326
  8
U1
 10
15522.00000000002
 20
17167.721500361291
 30
0.0
 11
18110.000000000018
 21
17167.721500361291
 31
0.0
  0
LINE
  5
6C327
  8
U1
 10
15522.00000000002
 20
17238.52150036129
 30
0.0
 11
18110.000000000018
 21
17238.52150036129
 31
0.0
  0
LINE
  5
6C328
  8
U1
 10
15522.00000000002
 20
17309.321500361279
 30
0.0
 11
18110.000000000018
 21
17309.321500361279
 31
0.0
  0
LINE
  5
6C329
  8
U1
 10
15522.00000000002
 20
18088.121500361289
 30
0.0
 11
18110.000000000018
 21
18088.121500361289
 31
0.0
  0
LINE
  5
6C32A
  8
U1
 10
15522.00000000002
 20
18017.32150036129
 30
0.0
 11
18110.000000000018
 21
18017.32150036129
 31
0.0
  0
LINE
  5
6C32B
  8
U1
 10
15522.00000000002
 20
17946.52150036129
 30
0.0
 11
18110.000000000018
 21
17946.52150036129
 31
0.0
  0
LINE
  5
6C32C
  8
U1
 10
15522.00000000002
 20
17875.721500361291
 30
0.0
 11
18110.000000000018
 21
17875.721500361291
 31
0.0
  0
LINE
  5
6C32D
  8
U1
 10
15522.00000000002
 20
17804.921500361292
 30
0.0
 11
18110.000000000018
 21
17804.921500361292
 31
0.0
  0
LINE
  5
6C32E
  8
U1
 10
15522.00000000002
 20
17734.121500361289
 30
0.0
 11
18110.000000000018
 21
17734.121500361289
 31
0.0
  0
LINE
  5
6C32F
  8
U1
 10
15522.00000000002
 20
17663.321500361279
 30
0.0
 11
18110.000000000018
 21
17663.321500361279
 31
0.0
  0
LINE
  5
6C330
  8
U1
 10
15522.00000000002
 20
17592.52150036129
 30
0.0
 11
18110.000000000018
 21
17592.52150036129
 31
0.0
  0
LINE
  5
6C331
  8
U1
 10
15522.00000000002
 20
17521.721500361291
 30
0.0
 11
18110.000000000018
 21
17521.721500361291
 31
0.0
  0
LINE
  5
6C332
  8
U1
 10
15522.00000000002
 20
17450.921500361292
 30
0.0
 11
18110.000000000018
 21
17450.921500361292
 31
0.0
  0
LINE
  5
6C333
  8
U1
 10
15522.00000000002
 20
17380.121500361289
 30
0.0
 11
18110.000000000018
 21
17380.121500361289
 31
0.0
  0
LINE
  5
6C334
  8
U1
 10
15522.00000000002
 20
18158.921500361292
 30
0.0
 11
18110.000000000018
 21
18158.921500361292
 31
0.0
  0
LINE
  5
6C335
  8
U1
 10
15522.00000000002
 20
18229.721500361291
 30
0.0
 11
18110.000000000018
 21
18229.721500361291
 31
0.0
  0
LINE
  5
6C336
  8
U1
 10
15522.00000000002
 20
18300.52150036129
 30
0.0
 11
18110.000000000018
 21
18300.52150036129
 31
0.0
  0
LINE
  5
6C337
  8
U1
 10
15522.000000000009
 20
18371.321500361279
 30
0.0
 11
18110.000000000018
 21
18371.321500361279
 31
0.0
  0
LINE
  5
6C338
  8
U1
 10
15522.00000000002
 20
16388.921500361292
 30
0.0
 11
18110.000000000018
 21
16388.921500361292
 31
0.0
  0
LINE
  5
6C339
  8
U1
 10
15522.000000000009
 20
18512.921500361292
 30
0.0
 11
18110.000000000018
 21
18512.921500361292
 31
0.0
  0
LINE
  5
6C33A
  8
U1
 10
15522.000000000009
 20
18442.121500361289
 30
0.0
 11
18110.000000000018
 21
18442.121500361289
 31
0.0
  0
LINE
  5
6C33B
  8
U1
 10
15522.000000000009
 20
18583.72150036128
 30
0.0
 11
18110.000000000018
 21
18583.72150036128
 31
0.0
  0
LINE
  5
6C33C
  8
U1
 10
15522.00000000002
 20
18654.52150036129
 30
0.0
 11
18110.000000000018
 21
18654.52150036129
 31
0.0
  0
LINE
  5
6C33D
  8
U1
 10
15522.00000000002
 20
18725.321500361279
 30
0.0
 11
18110.000000000018
 21
18725.321500361279
 31
0.0
  0
LINE
  5
6C33E
  8
U1
 10
15522.00000000002
 20
18796.121500361289
 30
0.0
 11
18110.000000000018
 21
18796.121500361289
 31
0.0
  0
LINE
  5
6C33F
  8
U1
 10
15522.00000000002
 20
18866.921500361292
 30
0.0
 11
18110.000000000018
 21
18866.921500361292
 31
0.0
  0
LINE
  5
6C341
  8
U1
 10
18322.000000000018
 20
16459.721500361291
 30
0.0
 11
20910.000000000051
 21
16459.721500361291
 31
0.0
  0
LINE
  5
6C342
  8
U1
 10
18322.000000000018
 20
16530.521500361279
 30
0.0
 11
20910.000000000051
 21
16530.521500361279
 31
0.0
  0
LINE
  5
6C343
  8
U1
 10
18322.000000000018
 20
16601.321500361279
 30
0.0
 11
20910.000000000051
 21
16601.321500361279
 31
0.0
  0
LINE
  5
6C344
  8
U1
 10
18322.000000000018
 20
16672.121500361289
 30
0.0
 11
20910.000000000051
 21
16672.121500361289
 31
0.0
  0
LINE
  5
6C345
  8
U1
 10
18322.000000000018
 20
16742.921500361292
 30
0.0
 11
20910.000000000051
 21
16742.921500361292
 31
0.0
  0
LINE
  5
6C346
  8
U1
 10
18322.000000000018
 20
16813.72150036128
 30
0.0
 11
20910.000000000051
 21
16813.72150036128
 31
0.0
  0
LINE
  5
6C347
  8
U1
 10
18322.000000000018
 20
16884.52150036129
 30
0.0
 11
20910.000000000051
 21
16884.52150036129
 31
0.0
  0
LINE
  5
6C348
  8
U1
 10
18322.000000000018
 20
16955.321500361279
 30
0.0
 11
20910.000000000051
 21
16955.321500361279
 31
0.0
  0
LINE
  5
6C349
  8
U1
 10
18322.000000000018
 20
17026.121500361289
 30
0.0
 11
20910.000000000051
 21
17026.121500361289
 31
0.0
  0
LINE
  5
6C34A
  8
U1
 10
18322.000000000018
 20
17096.921500361292
 30
0.0
 11
20910.000000000051
 21
17096.921500361292
 31
0.0
  0
LINE
  5
6C34B
  8
U1
 10
18322.000000000018
 20
17167.721500361291
 30
0.0
 11
20910.000000000051
 21
17167.721500361291
 31
0.0
  0
LINE
  5
6C34C
  8
U1
 10
18322.000000000018
 20
17238.52150036129
 30
0.0
 11
20910.000000000051
 21
17238.52150036129
 31
0.0
  0
LINE
  5
6C34D
  8
U1
 10
18322.000000000018
 20
17309.321500361279
 30
0.0
 11
20910.000000000051
 21
17309.321500361279
 31
0.0
  0
LINE
  5
6C34E
  8
U1
 10
18322.000000000018
 20
18088.121500361289
 30
0.0
 11
20910.000000000051
 21
18088.121500361289
 31
0.0
  0
LINE
  5
6C34F
  8
U1
 10
18322.000000000018
 20
18017.32150036129
 30
0.0
 11
20910.000000000051
 21
18017.32150036129
 31
0.0
  0
LINE
  5
6C350
  8
U1
 10
18322.000000000018
 20
17946.52150036129
 30
0.0
 11
20910.000000000051
 21
17946.52150036129
 31
0.0
  0
LINE
  5
6C351
  8
U1
 10
18322.000000000018
 20
17875.721500361291
 30
0.0
 11
20910.000000000051
 21
17875.721500361291
 31
0.0
  0
LINE
  5
6C352
  8
U1
 10
18322.000000000018
 20
17804.921500361292
 30
0.0
 11
20910.000000000051
 21
17804.921500361292
 31
0.0
  0
LINE
  5
6C353
  8
U1
 10
18322.000000000018
 20
17734.121500361289
 30
0.0
 11
20910.000000000051
 21
17734.121500361289
 31
0.0
  0
LINE
  5
6C354
  8
U1
 10
18322.000000000018
 20
17663.321500361279
 30
0.0
 11
20910.000000000051
 21
17663.321500361279
 31
0.0
  0
LINE
  5
6C355
  8
U1
 10
18322.000000000018
 20
17592.52150036129
 30
0.0
 11
20910.000000000051
 21
17592.52150036129
 31
0.0
  0
LINE
  5
6C356
  8
U1
 10
18322.000000000018
 20
17521.721500361291
 30
0.0
 11
20910.000000000051
 21
17521.721500361291
 31
0.0
  0
LINE
  5
6C357
  8
U1
 10
18322.000000000018
 20
17450.921500361292
 30
0.0
 11
20910.000000000051
 21
17450.921500361292
 31
0.0
  0
LINE
  5
6C358
  8
U1
 10
18322.000000000018
 20
17380.121500361289
 30
0.0
 11
20910.000000000051
 21
17380.121500361289
 31
0.0
  0
LINE
  5
6C359
  8
U1
 10
18322.000000000018
 20
18158.921500361292
 30
0.0
 11
20910.000000000051
 21
18158.921500361292
 31
0.0
  0
LINE
  5
6C35A
  8
U1
 10
18322.000000000018
 20
18229.721500361291
 30
0.0
 11
20910.000000000051
 21
18229.721500361291
 31
0.0
  0
LINE
  5
6C35B
  8
U1
 10
18322.000000000018
 20
18300.52150036129
 30
0.0
 11
20910.000000000051
 21
18300.52150036129
 31
0.0
  0
LINE
  5
6C35C
  8
U1
 10
18322.000000000018
 20
18371.321500361279
 30
0.0
 11
20910.000000000051
 21
18371.321500361279
 31
0.0
  0
LINE
  5
6C35D
  8
U1
 10
18322.000000000018
 20
16388.921500361292
 30
0.0
 11
20910.000000000051
 21
16388.921500361292
 31
0.0
  0
LINE
  5
6C35E
  8
U1
 10
18322.000000000018
 20
18512.921500361292
 30
0.0
 11
20910.000000000051
 21
18512.921500361292
 31
0.0
  0
LINE
  5
6C35F
  8
U1
 10
18322.000000000018
 20
18442.121500361289
 30
0.0
 11
20910.000000000051
 21
18442.121500361289
 31
0.0
  0
LINE
  5
6C360
  8
U1
 10
18322.000000000018
 20
18583.72150036128
 30
0.0
 11
20910.000000000051
 21
18583.72150036128
 31
0.0
  0
LINE
  5
6C361
  8
U1
 10
18322.000000000018
 20
18654.52150036129
 30
0.0
 11
20910.000000000051
 21
18654.52150036129
 31
0.0
  0
LINE
  5
6C362
  8
U1
 10
18322.000000000018
 20
18725.321500361279
 30
0.0
 11
20910.000000000051
 21
18725.321500361279
 31
0.0
  0
LINE
  5
6C363
  8
U1
 10
18322.000000000018
 20
18796.121500361289
 30
0.0
 11
20910.000000000051
 21
18796.121500361289
 31
0.0
  0
LINE
  5
6C364
  8
U1
 10
18322.000000000018
 20
18866.921500361292
 30
0.0
 11
20910.000000000051
 21
18866.921500361292
 31
0.0
  0
LINE
  5
6C367
  8
U1
 10
18276.500000000018
 20
16318.121500361291
 30
0.0
 11
18276.500000000018
 21
18874.555091614991
 31
0.0
  0
LINE
  5
6C368
  8
U1
 10
18271.000000000018
 20
16318.121500361291
 30
0.0
 11
18271.000000000018
 21
18874.555091614991
 31
0.0
  0
LINE
  5
6C369
  8
U1
 10
18161.00000000004
 20
16318.121500361291
 30
0.0
 11
18161.00000000004
 21
18874.555091614991
 31
0.0
  0
LINE
  5
6C36A
  8
U1
 10
18155.500000000018
 20
16318.121500361291
 30
0.0
 11
18155.500000000018
 21
18874.555091614991
 31
0.0
  0
LINE
  5
6C36B
  8
U1
 10
20955.500000000051
 20
16318.121500361291
 30
0.0
 11
20955.500000000051
 21
18874.555091614991
 31
0.0
  0
LINE
  5
6C36C
  8
U1
 10
15476.500000000009
 20
16318.121500361291
 30
0.0
 11
15476.500000000009
 21
18874.555091614991
 31
0.0
  0
LINE
  5
6C36D
  8
U1
 10
15355.55502427907
 20
16318.121500361291
 30
0.0
 11
15355.55502427907
 21
18874.555091614991
 31
0.0
  0
LINE
  5
6C36E
  8
U1
 10
15310.05502427907
 20
16318.121500361291
 30
0.0
 11
15310.05502427907
 21
18874.555091614991
 31
0.0
  0
LINE
  5
6C371
  8
U1
 10
12721.999999999971
 20
16318.121500361291
 30
0.0
 11
12721.999999999971
 21
18874.555091614991
 31
0.0
  0
LINE
  5
6C372
  8
U1
 10
12676.49999999998
 20
16318.121500361291
 30
0.0
 11
12676.49999999998
 21
18874.555091614991
 31
0.0
  0
LINE
  5
6C373
  8
U1
 10
12664.294270451781
 20
19418.691127034312
 30
0.0
 11
12664.294270451781
 21
19189.121500361289
 31
0.0
  0
LINE
  5
6C374
  8
U1
 10
12491.00000000002
 20
16318.121500361291
 30
0.0
 11
12491.00000000002
 21
18970.556065383062
 31
0.0
  0
LINE
  5
6C375
  8
U1
 10
12456.00000000002
 20
19428.121500361289
 30
0.0
 11
12456.00000000002
 21
19588.121500361289
 31
0.0
  0
ARC
  5
6C378
  8
U1
 10
12466.00000000002
 20
19588.121500361289
 30
0.0
 40
10.0
 50
90.0
 51
180.0
  0
ARC
  5
6C379
  8
U1
 10
12466.00000000002
 20
19428.121500361289
 30
0.0
 40
10.0
 50
180.0
 51
270.0
  0
ARC
  5
6C37C
  8
U1
 10
14016.027512139541
 20
17333.921500361292
 30
0.0
 40
12.5
 50
59.999999999757058
 51
120.00000000024291
  0
LINE
  5
6C37D
  8
U1
 10
14041.02751213955
 20
17333.921500361292
 30
0.0
 11
14022.277512139541
 21
17323.096182813981
 31
0.0
  0
LINE
  5
6C37E
  8
U1
 10
13991.027512139541
 20
17333.921500361292
 30
0.0
 11
14009.77751213955
 21
17323.096182813981
 31
0.0
  0
LINE
  5
6C37F
  8
U1
 10
13991.027512139541
 20
17333.921500361292
 30
0.0
 11
14009.77751213955
 21
17344.746817908592
 31
0.0
  0
LINE
  5
6C380
  8
U1
 10
14041.02751213955
 20
17333.921500361292
 30
0.0
 11
14022.277512139541
 21
17344.746817908592
 31
0.0
  0
ARC
  5
6C381
  8
U1
 10
14016.027512139541
 20
17333.921500361292
 30
0.0
 40
12.5
 50
239.99999999975711
 51
300.00000000024289
  0
ARC
  5
6C384
  8
U1
 10
16816.000000000051
 20
17333.921500361292
 30
0.0
 40
12.5
 50
59.999999999757058
 51
120.00000000024291
  0
LINE
  5
6C385
  8
U1
 10
16841.000000000051
 20
17333.921500361292
 30
0.0
 11
16822.250000000051
 21
17323.096182813981
 31
0.0
  0
LINE
  5
6C386
  8
U1
 10
16791.000000000051
 20
17333.921500361292
 30
0.0
 11
16809.750000000051
 21
17323.096182813981
 31
0.0
  0
LINE
  5
6C387
  8
U1
 10
16791.000000000051
 20
17333.921500361292
 30
0.0
 11
16809.750000000051
 21
17344.746817908592
 31
0.0
  0
LINE
  5
6C388
  8
U1
 10
16841.000000000051
 20
17333.921500361292
 30
0.0
 11
16822.250000000051
 21
17344.746817908592
 31
0.0
  0
ARC
  5
6C389
  8
U1
 10
16816.000000000051
 20
17333.921500361292
 30
0.0
 40
12.5
 50
239.99999999975711
 51
300.00000000024289
  0
ARC
  5
6C38C
  8
U1
 10
19616.000000000058
 20
17333.921500361292
 30
0.0
 40
12.5
 50
59.999999999757058
 51
120.00000000024291
  0
LINE
  5
6C38D
  8
U1
 10
19641.000000000058
 20
17333.921500361292
 30
0.0
 11
19622.250000000058
 21
17323.096182813981
 31
0.0
  0
LINE
  5
6C38E
  8
U1
 10
19591.000000000058
 20
17333.921500361292
 30
0.0
 11
19609.750000000058
 21
17323.096182813981
 31
0.0
  0
LINE
  5
6C38F
  8
U1
 10
19591.000000000058
 20
17333.921500361292
 30
0.0
 11
19609.750000000058
 21
17344.746817908599
 31
0.0
  0
LINE
  5
6C390
  8
U1
 10
19641.000000000058
 20
17333.921500361292
 30
0.0
 11
19622.250000000058
 21
17344.746817908599
 31
0.0
  0
ARC
  5
6C391
  8
U1
 10
19616.000000000058
 20
17333.921500361292
 30
0.0
 40
12.5
 50
239.99999999975711
 51
300.00000000024289
  0
LINE
  5
6C393
  8
SUNPOU
 10
12721.999999999971
 20
16238.121500361291
 30
0.0
 11
12721.999999999971
 21
15398.121500361291
 31
0.0
  0
LINE
  5
6C394
  8
SUNPOU
 10
12761.99999999998
 20
15518.121500361291
 30
0.0
 11
17827.999999999982
 21
15518.121500361291
 31
0.0
  0
TEXT
  5
6C396
  8
SUNPOU
 10
16096.22525407339
 20
15598.121500361291
 30
0.0
 40
160.0
  1
5166
 41
0.6700000000000002
  7
00
  0
LINE
  5
6C398
  8
SUNPOU
 10
17887.999999999982
 20
16238.121500361291
 30
0.0
 11
17887.999999999982
 21
15398.121500361291
 31
0.0
  0
TEXT
  5
6C3B9
  8
SUNPOU
 10
14085.98331776128
 20
15598.121500361291
 30
0.0
 40
160.0
  1
シャッター有効開口巾
  7
01
  0
TEXT
  5
6C3BA
  8
SUNPOU
 10
18428.84377571147
 20
15598.121500361291
 30
0.0
 40
160.0
  1
シャッター有効開口巾
  7
01
  0
LINE
  5
6C3BF
  8
U1
 10
21141.000000000011
 20
19189.121500361289
 30
0.0
 11
21141.000000000011
 21
19598.121500361289
 31
0.0
  0
LINE
  5
6C3C0
  8
U1
 10
12491.00000000002
 20
19189.121500361289
 30
0.0
 11
12491.00000000002
 21
19598.121500361289
 31
0.0
  0
LINE
  5
6C3C1
  8
U1
 10
12664.294270451781
 20
18874.555091614991
 30
0.0
 11
12664.294270451781
 21
16318.121500361291
 31
0.0
  0
LINE
  5
6C3C2
  8
U1
 10
18253.500000000011
 20
19189.121500361289
 30
0.0
 11
18253.500000000011
 21
19418.121500361289
 31
0.0
  0
LINE
  5
6C3C3
  8
U1
 10
18178.500000000011
 20
19189.121500361289
 30
0.0
 11
18178.500000000011
 21
19418.121500361289
 31
0.0
  0
LINE
  5
6C3C4
  8
U1
 10
20967.705729548248
 20
18874.555091614991
 30
0.0
 11
20967.705729548248
 21
16318.121500361291
 31
0.0
  0
TEXT
  5
6C572
  8
SUNPOU
 10
18668.756101028652
 20
15198.12150036126
 30
0.0
 40
160.0
  1
下屋有効開口巾
  7
01
  0
LINE
  5
6C5E3
  8
U1
 10
18173.499999999949
 20
18901.121500361322
 30
0.0
 11
18173.499999999949
 21
15918.12150036126
 31
0.0
  0
LINE
  5
6C5E4
  8
U1
 10
18258.499999999949
 20
15918.12150036126
 30
0.0
 11
18258.499999999949
 21
18901.121500361289
 31
0.0
  0
LINE
  5
6C5E5
  8
下屋前桁
 10
18259.000000000051
 20
18901.121500361322
 30
0.0
 11
18221.000000000051
 21
18901.121500361289
 31
0.0
  0
ARC
  5
6C5E6
  8
下屋前桁
 10
18221.000000000051
 20
18906.121500361289
 30
0.0
 40
5.0
 50
180.0
 51
270.0
  0
LINE
  5
6C5E7
  8
下屋前桁
 10
18259.000000000109
 20
18901.121500361322
 30
0.0
 11
18259.000000000109
 21
18893.121500361322
 31
0.0
  0
LINE
  5
6C5E8
  8
下屋前桁
 10
18216.000000000051
 20
18995.975870572482
 30
0.0
 11
18216.000000000051
 21
18906.121500361289
 31
0.0
  0
LINE
  5
6C5EB
  8
下屋前桁
 10
18173.000000000011
 20
18901.121500361322
 30
0.0
 11
18211.000000000011
 21
18901.121500361289
 31
0.0
  0
ARC
  5
6C5EC
  8
下屋前桁
 10
18211.000000000011
 20
18906.121500361289
 30
0.0
 40
5.0
 50
270.0
 51
0.0
  0
LINE
  5
6C5ED
  8
下屋前桁
 10
18172.999999999949
 20
18901.121500361322
 30
0.0
 11
18172.999999999949
 21
18893.121500361289
 31
0.0
  0
LINE
  5
6C5EE
  8
下屋前桁
 10
18216.0
 20
18995.975870572482
 30
0.0
 11
18216.0
 21
18906.121500361289
 31
0.0
  0
LINE
  5
6C5EF
  8
U1
 10
21058.500000000011
 20
16318.121500361291
 30
0.0
 11
21141.000000000011
 21
16318.121500361291
 31
0.0
  0
LINE
  5
6C5F0
  8
U1
 10
18258.499999999949
 20
16318.12150036128
 30
0.0
 11
20973.500000000011
 21
16318.12150036128
 31
0.0
  0
LINE
  5
6C5F1
  8
U1
 10
12658.50000000002
 20
16318.1215003613
 30
0.0
 11
18173.499999999949
 21
16318.12150036128
 31
0.0
  0
TEXT
  5
74686
  8
NAME
 10
26164.93975057283
 20
1050.2352588493161
 30
0.0
 40
340.0
  1
1/5
 41
0.6400000000000001
  7
00
  0
TEXT
  5
74FC6
  8
FILENAME
 10
27880.190476190481
 20
348.0
 30
0.0
 40
200.0
  1
＜SOB-86MA-G_1_JIS_GL.DXF ＞
  7
FILENAME
 72
     2
 11
32764.0
 21
348.0
 31
0.0
  0
LINE
  5
74FC8
  8
WAKUSEN-01
 10
868.00000000000193
 20
827.99999999999955
 30
0.0
 11
32764.000000000011
 21
827.99999999999943
 31
0.0
  0
LINE
  5
74FC9
  8
WAKUSEN-01
 10
868.00000000000193
 20
22484.000000000011
 30
0.0
 11
32764.000000000011
 21
22484.000000000011
 31
0.0
  0
LINE
  5
74FCA
  8
WAKUSEN-01
 10
868.00000000000193
 20
827.99999999999955
 30
0.0
 11
868.00000000000193
 21
22484.000000000011
 31
0.0
  0
LINE
  5
74FCB
  8
WAKUSEN-01
 10
32764.000000000011
 20
827.99999999999943
 30
0.0
 11
32764.000000000011
 21
22484.000000000011
 31
0.0
  0
LINE
  5
74FCC
  8
WAKUSEN-01
 10
20560.0
 20
2484.0
 30
0.0
 11
32764.0
 21
2484.0
 31
0.0
  0
LINE
  5
74FCD
  8
WAKUSEN-02
 10
20560.0
 20
1655.9999999999991
 30
0.0
 11
26868.0
 21
1655.9999999999991
 31
0.0
  0
TEXT
  5
74FCE
  8
WAKUMOJI-01
 10
20670.260259962772
 20
2125.9030093393221
 30
0.0
 40
240.0
  1
名　称
  7
WAKUMOJI
  0
TEXT
  5
74FCF
  8
WAKUMOJI-01
 10
20656.505485091919
 20
1319.1289749798209
 30
0.0
 40
240.0
  1
機種名
  7
WAKUMOJI
  0
LINE
  5
74FD0
  8
WAKUSEN-01
 10
20560.0
 20
827.99999999999716
 30
0.0
 11
20560.0
 21
2484.0
 31
0.0
  0
LINE
  5
74FD1
  8
WAKUSEN-02
 10
26868.0
 20
827.99999999999261
 30
0.0
 11
26868.0
 21
2484.0
 31
0.0
  0
LINE
  5
74FD2
  8
YODOROGO
 10
29977.604341291921
 20
1995.7494964292871
 30
0.0
 11
29829.604341291921
 21
1995.7494964292871
 31
0.0
1001
AUTOCAD_POSTSCRIPT_FIGURE
1002
{
1000
PSFILL
1000
Grayscale
1000
Grayscale
1070
    25
1002
}
  0
LINE
  5
74FD3
  8
YODOROGO
 10
29829.604341291921
 20
1947.749496429288
 30
0.0
 11
29977.604341291921
 21
1947.749496429288
 31
0.0
1001
AUTOCAD_POSTSCRIPT_FIGURE
1002
{
1000
PSFILL
1000
Grayscale
1000
Grayscale
1070
    25
1002
}
  0
LINE
  5
74FD4
  8
YODOROGO
 10
29977.604341291921
 20
1907.7494964292871
 30
0.0
 11
29829.604341291921
 21
1907.7494964292871
 31
0.0
1001
AUTOCAD_POSTSCRIPT_FIGURE
1002
{
1000
PSFILL
1000
Grayscale
1000
Grayscale
1070
    25
1002
}
  0
LINE
  5
74FD5
  8
YODOROGO
 10
29829.604341291921
 20
1859.749496429288
 30
0.0
 11
29977.604341291921
 21
1859.749496429288
 31
0.0
1001
AUTOCAD_POSTSCRIPT_FIGURE
1002
{
1000
PSFILL
1000
Grayscale
1000
Grayscale
1070
    25
1002
}
  0
LINE
  5
74FD6
  8
YODOROGO
 10
29977.604341291921
 20
1819.749496429288
 30
0.0
 11
29829.604341291921
 21
1819.749496429288
 31
0.0
1001
AUTOCAD_POSTSCRIPT_FIGURE
1002
{
1000
PSFILL
1000
Grayscale
1000
Grayscale
1070
    25
1002
}
  0
LINE
  5
74FD7
  8
YODOROGO
 10
29921.60434129191
 20
1707.749496429288
 30
0.0
 11
29977.604341291921
 21
1707.749496429288
 31
0.0
1001
AUTOCAD_POSTSCRIPT_FIGURE
1002
{
1000
PSFILL
1000
Grayscale
1000
Grayscale
1070
    25
1002
}
  0
LINE
  5
74FD8
  8
YODOROGO
 10
29737.604341291921
 20
1427.749496429288
 30
0.0
 11
29937.604341291932
 21
1481.339334915511
 31
0.0
  0
LINE
  5
74FD9
  8
YODOROGO
 10
29949.604341291921
 20
1707.749496429288
 30
0.0
 11
29885.604341291921
 21
1707.749496429288
 31
0.0
  0
ARC
  5
74FDA
  8
YODOROGO
 10
30254.34774982791
 20
1807.8646092332619
 30
0.0
 40
381.88686420564733
 50
213.96111677667849
 51
264.47872074317792
  0
ARC
  5
74FDB
  8
YODOROGO
 10
30254.347749827921
 20
1807.864609233302
 30
0.0
 40
381.8868642056816
 50
208.14114420486601
 51
212.92103611859949
  0
LINE
  5
74FDC
  8
YODOROGO
 10
29771.40987298531
 20
1556.807661346234
 30
0.0
 11
29933.78413250855
 21
1600.3157130570869
 31
0.0
  0
LINE
  5
74FDD
  8
YODOROGO
 10
29737.604341291921
 20
1427.749496429288
 30
0.0
 11
29937.604341291932
 21
1481.339334915511
 31
0.0
  0
LINE
  5
74FDE
  8
YODOROGO
 10
29949.604341291921
 20
1707.749496429288
 30
0.0
 11
29885.604341291921
 21
1707.749496429288
 31
0.0
  0
ARC
  5
74FDF
  8
YODOROGO
 10
30254.34774982791
 20
1807.8646092332619
 30
0.0
 40
381.88686420564733
 50
213.96111677667849
 51
264.47872074317792
  0
LINE
  5
74FE0
  8
YODOROGO
 10
28793.60434129191
 20
1819.749496429288
 30
0.0
 11
28433.60434129191
 21
1819.749496429288
 31
0.0
  0
LINE
  5
74FE1
  8
YODOROGO
 10
28513.60434129191
 20
1427.749496429288
 30
0.0
 11
28793.60434129191
 21
1427.749496429288
 31
0.0
  0
LINE
  5
74FE2
  8
YODOROGO
 10
28729.604341291921
 20
1923.7494964292871
 30
0.0
 11
28497.60434129191
 21
1923.7494964292871
 31
0.0
  0
LINE
  5
74FE3
  8
YODOROGO
 10
28585.604341291921
 20
2027.749496429288
 30
0.0
 11
28657.604341291921
 21
2027.749496429288
 31
0.0
  0
LINE
  5
74FE4
  8
YODOROGO
 10
28433.60434129191
 20
1707.749496429288
 30
0.0
 11
28433.60434129191
 21
1507.749496429288
 31
0.0
  0
LINE
  5
74FE5
  8
YODOROGO
 10
28497.60434129191
 20
1563.7494964292871
 30
0.0
 11
28497.60434129191
 21
1707.749496429288
 31
0.0
  0
LINE
  5
74FE6
  8
YODOROGO
 10
28585.604341291921
 20
1747.74949642929
 30
0.0
 11
28585.604341291921
 21
1547.749496429288
 31
0.0
  0
LINE
  5
74FE7
  8
YODOROGO
 10
27857.604341291921
 20
1683.7494964292889
 30
0.0
 11
27777.604341291921
 21
1619.972414044571
 31
0.0
  0
LINE
  5
74FE8
  8
YODOROGO
 10
27937.604341291921
 20
1619.972414044571
 30
0.0
 11
27857.604341291921
 21
1683.7494964292889
 31
0.0
  0
LINE
  5
74FE9
  8
YODOROGO
 10
27857.604341291921
 20
1707.749496429288
 30
0.0
 11
27937.604341291921
 21
1643.9724140445701
 31
0.0
  0
LINE
  5
74FEA
  8
YODOROGO
 10
27777.604341291921
 20
1643.9724140445701
 30
0.0
 11
27857.604341291921
 21
1707.749496429288
 31
0.0
  0
LINE
  5
74FEB
  8
YODOROGO
 10
28040.913204016899
 20
1659.749496429288
 30
0.0
 11
28040.913204016899
 21
1683.7494964292871
 31
0.0
  0
LINE
  5
74FEC
  8
YODOROGO
 10
27977.604341291921
 20
1683.7494964292871
 30
0.0
 11
27977.604341291921
 21
1667.749496429285
 31
0.0
  0
LINE
  5
74FED
  8
YODOROGO
 10
28098.135520230931
 20
1707.749496429288
 30
0.0
 11
28098.135520230931
 21
1655.5036372746561
 31
0.0
1001
AUTOCAD_POSTSCRIPT_FIGURE
1002
{
1000
PSFILL
1000
Grayscale
1000
Grayscale
1070
   100
1002
}
  0
LINE
  5
74FEE
  8
YODOROGO
 10
28082.135520230921
 20
1655.5036372746561
 30
0.0
 11
28082.135520230921
 21
1707.749496429288
 31
0.0
1001
AUTOCAD_POSTSCRIPT_FIGURE
1002
{
1000
PSFILL
1000
Grayscale
1000
Grayscale
1070
   100
1002
}
  0
LINE
  5
74FEF
  8
YODOROGO
 10
27809.604341291921
 20
1608.771904043258
 30
0.0
 11
27809.604341291921
 21
1632.7719040432589
 31
0.0
  0
LINE
  5
74FF0
  8
YODOROGO
 10
27905.604341291921
 20
1608.771904043258
 30
0.0
 11
27809.604341291921
 21
1608.771904043258
 31
0.0
  0
LINE
  5
74FF1
  8
YODOROGO
 10
27905.604341291921
 20
1632.7719040432589
 30
0.0
 11
27905.604341291921
 21
1608.771904043258
 31
0.0
  0
LINE
  5
74FF2
  8
YODOROGO
 10
27809.604341291921
 20
1632.7719040432589
 30
0.0
 11
27905.604341291921
 21
1632.7719040432589
 31
0.0
  0
LINE
  5
74FF3
  8
YODOROGO
 10
27824.509588915749
 20
1568.5028573704751
 30
0.0
 11
27785.604341291921
 21
1475.7494964292871
 31
0.0
1001
AUTOCAD_POSTSCRIPT_FIGURE
1002
{
1000
PSFILL
1000
Grayscale
1000
Grayscale
1070
   100
1002
}
  0
LINE
  5
74FF4
  8
YODOROGO
 10
27777.604341291921
 20
1568.5028573704751
 30
0.0
 11
27824.509588915749
 21
1568.5028573704751
 31
0.0
1001
AUTOCAD_POSTSCRIPT_FIGURE
1002
{
1000
PSFILL
1000
Grayscale
1000
Grayscale
1070
   100
1002
}
  0
LINE
  5
74FF5
  8
YODOROGO
 10
27777.604341291921
 20
1588.5028573704751
 30
0.0
 11
27777.604341291921
 21
1568.5028573704751
 31
0.0
1001
AUTOCAD_POSTSCRIPT_FIGURE
1002
{
1000
PSFILL
1000
Grayscale
1000
Grayscale
1070
   100
1002
}
  0
LINE
  5
74FF6
  8
YODOROGO
 10
27937.604341291921
 20
1588.5028573704751
 30
0.0
 11
27777.604341291921
 21
1588.5028573704751
 31
0.0
1001
AUTOCAD_POSTSCRIPT_FIGURE
1002
{
1000
PSFILL
1000
Grayscale
1000
Grayscale
1070
   100
1002
}
  0
LINE
  5
74FF7
  8
YODOROGO
 10
27937.604341291921
 20
1568.5028573704751
 30
0.0
 11
27937.604341291921
 21
1588.5028573704751
 31
0.0
1001
AUTOCAD_POSTSCRIPT_FIGURE
1002
{
1000
PSFILL
1000
Grayscale
1000
Grayscale
1070
   100
1002
}
  0
LINE
  5
74FF8
  8
YODOROGO
 10
27844.509588915749
 20
1568.5028573704751
 30
0.0
 11
27937.604341291921
 21
1568.5028573704751
 31
0.0
1001
AUTOCAD_POSTSCRIPT_FIGURE
1002
{
1000
PSFILL
1000
Grayscale
1000
Grayscale
1070
   100
1002
}
  0
LINE
  5
74FF9
  8
YODOROGO
 10
27815.546718284779
 20
1495.7494964292871
 30
0.0
 11
27844.509588915749
 21
1568.5028573704751
 31
0.0
1001
AUTOCAD_POSTSCRIPT_FIGURE
1002
{
1000
PSFILL
1000
Grayscale
1000
Grayscale
1070
   100
1002
}
  0
LINE
  5
74FFA
  8
YODOROGO
 10
27902.054790808648
 20
1495.7494964292871
 30
0.0
 11
27815.546718284779
 21
1495.7494964292871
 31
0.0
1001
AUTOCAD_POSTSCRIPT_FIGURE
1002
{
1000
PSFILL
1000
Grayscale
1000
Grayscale
1070
   100
1002
}
  0
LINE
  5
74FFB
  8
YODOROGO
 10
27885.065004790951
 20
1536.2338106976929
 30
0.0
 11
27902.054790808648
 21
1495.7494964292871
 31
0.0
1001
AUTOCAD_POSTSCRIPT_FIGURE
1002
{
1000
PSFILL
1000
Grayscale
1000
Grayscale
1070
   100
1002
}
  0
LINE
  5
74FFC
  8
YODOROGO
 10
27901.065004790951
 20
1536.2338106976929
 30
0.0
 11
27885.065004790951
 21
1536.2338106976929
 31
0.0
1001
AUTOCAD_POSTSCRIPT_FIGURE
1002
{
1000
PSFILL
1000
Grayscale
1000
Grayscale
1070
   100
1002
}
  0
LINE
  5
74FFD
  8
YODOROGO
 10
27929.604341291921
 20
1475.7494964292871
 30
0.0
 11
27901.065004790951
 21
1536.2338106976929
 31
0.0
1001
AUTOCAD_POSTSCRIPT_FIGURE
1002
{
1000
PSFILL
1000
Grayscale
1000
Grayscale
1070
   100
1002
}
  0
LINE
  5
74FFE
  8
YODOROGO
 10
27785.604341291921
 20
1475.7494964292871
 30
0.0
 11
27929.604341291921
 21
1475.7494964292871
 31
0.0
1001
AUTOCAD_POSTSCRIPT_FIGURE
1002
{
1000
PSFILL
1000
Grayscale
1000
Grayscale
1070
   100
1002
}
  0
LINE
  5
74FFF
  8
YODOROGO
 10
27777.604341291921
 20
1619.972414044571
 30
0.0
 11
27777.604341291921
 21
1643.9724140445701
 31
0.0
  0
LINE
  5
75000
  8
YODOROGO
 10
27937.604341291921
 20
1643.9724140445701
 30
0.0
 11
27937.604341291921
 21
1619.972414044571
 31
0.0
  0
ARC
  5
75001
  8
YODOROGO
 10
28225.94044214697
 20
1600.877765325326
 30
0.0
 40
175.99999999999989
 50
280.3644312771313
 51
3.5414836592180561
  0
ARC
  5
75002
  8
YODOROGO
 10
28235.756030759301
 20
1633.5978069619041
 30
0.0
 40
111.99999999999829
 50
281.2490582504156
 51
348.75094174958332
  0
LINE
  5
75003
  8
YODOROGO
 10
28257.604341291921
 20
1523.7494964292871
 30
0.0
 11
28257.604341291921
 21
1427.749496429288
 31
0.0
  0
LINE
  5
75004
  8
YODOROGO
 10
28020.088903736902
 20
1610.6505650619149
 30
0.0
 11
28040.913204016899
 21
1659.749496429288
 31
0.0
  0
LINE
  5
75005
  8
YODOROGO
 10
28041.604341291921
 20
1583.120489948401
 30
0.0
 11
28020.088903736902
 21
1610.6505650619149
 31
0.0
  0
LINE
  5
75006
  8
YODOROGO
 10
28041.604341291921
 20
1563.1204899483989
 30
0.0
 11
28041.604341291921
 21
1583.120489948401
 31
0.0
  0
LINE
  5
75007
  8
YODOROGO
 10
28017.604341291921
 20
1585.2370637495301
 30
0.0
 11
28041.604341291921
 21
1563.1204899483989
 31
0.0
  0
LINE
  5
75008
  8
YODOROGO
 10
28017.604341291921
 20
1475.7494964292871
 30
0.0
 11
28017.604341291921
 21
1585.2370637495301
 31
0.0
  0
LINE
  5
75009
  8
YODOROGO
 10
28001.604341291921
 20
1475.7494964292871
 30
0.0
 11
28017.604341291921
 21
1475.7494964292871
 31
0.0
  0
LINE
  5
7500A
  8
YODOROGO
 10
28001.604341291921
 20
1580.0053496897481
 30
0.0
 11
28001.604341291921
 21
1475.7494964292871
 31
0.0
  0
LINE
  5
7500B
  8
YODOROGO
 10
27977.604341291921
 20
1532.7680790334291
 30
0.0
 11
28001.604341291921
 21
1580.0053496897481
 31
0.0
  0
LINE
  5
7500C
  8
YODOROGO
 10
27977.604341291921
 20
1556.76807903343
 30
0.0
 11
27977.604341291921
 21
1532.7680790334291
 31
0.0
  0
LINE
  5
7500D
  8
YODOROGO
 10
28025.82877429136
 20
1667.749496429285
 30
0.0
 11
27977.604341291921
 21
1556.76807903343
 31
0.0
  0
LINE
  5
7500E
  8
YODOROGO
 10
27977.604341291921
 20
1667.749496429285
 30
0.0
 11
28025.82877429136
 21
1667.749496429285
 31
0.0
  0
LINE
  5
7500F
  8
YODOROGO
 10
28050.13552023091
 20
1655.5036372746561
 30
0.0
 11
28082.135520230921
 21
1655.5036372746561
 31
0.0
1001
AUTOCAD_POSTSCRIPT_FIGURE
1002
{
1000
PSFILL
1000
Grayscale
1000
Grayscale
1070
   100
1002
}
  0
LINE
  5
75010
  8
YODOROGO
 10
28050.13552023091
 20
1631.503637274657
 30
0.0
 11
28050.13552023091
 21
1655.5036372746561
 31
0.0
1001
AUTOCAD_POSTSCRIPT_FIGURE
1002
{
1000
PSFILL
1000
Grayscale
1000
Grayscale
1070
   100
1002
}
  0
LINE
  5
75011
  8
YODOROGO
 10
28082.135520230921
 20
1631.503637274657
 30
0.0
 11
28050.13552023091
 21
1631.503637274657
 31
0.0
1001
AUTOCAD_POSTSCRIPT_FIGURE
1002
{
1000
PSFILL
1000
Grayscale
1000
Grayscale
1070
   100
1002
}
  0
LINE
  5
75012
  8
YODOROGO
 10
28082.135520230921
 20
1499.749496429288
 30
0.0
 11
28082.135520230921
 21
1631.503637274657
 31
0.0
1001
AUTOCAD_POSTSCRIPT_FIGURE
1002
{
1000
PSFILL
1000
Grayscale
1000
Grayscale
1070
   100
1002
}
  0
LINE
  5
75013
  8
YODOROGO
 10
28050.135520230931
 20
1499.749496429288
 30
0.0
 11
28082.135520230921
 21
1499.749496429288
 31
0.0
1001
AUTOCAD_POSTSCRIPT_FIGURE
1002
{
1000
PSFILL
1000
Grayscale
1000
Grayscale
1070
   100
1002
}
  0
LINE
  5
75014
  8
YODOROGO
 10
28050.135520230931
 20
1475.7494964292871
 30
0.0
 11
28050.135520230931
 21
1499.749496429288
 31
0.0
1001
AUTOCAD_POSTSCRIPT_FIGURE
1002
{
1000
PSFILL
1000
Grayscale
1000
Grayscale
1070
   100
1002
}
  0
LINE
  5
75015
  8
YODOROGO
 10
28137.604341291921
 20
1475.7494964292871
 30
0.0
 11
28050.135520230931
 21
1475.7494964292871
 31
0.0
1001
AUTOCAD_POSTSCRIPT_FIGURE
1002
{
1000
PSFILL
1000
Grayscale
1000
Grayscale
1070
   100
1002
}
  0
LINE
  5
75016
  8
YODOROGO
 10
28137.604341291921
 20
1499.749496429288
 30
0.0
 11
28137.604341291921
 21
1475.7494964292871
 31
0.0
1001
AUTOCAD_POSTSCRIPT_FIGURE
1002
{
1000
PSFILL
1000
Grayscale
1000
Grayscale
1070
   100
1002
}
  0
LINE
  5
75017
  8
YODOROGO
 10
28098.135520230931
 20
1499.749496429288
 30
0.0
 11
28137.604341291921
 21
1499.749496429288
 31
0.0
1001
AUTOCAD_POSTSCRIPT_FIGURE
1002
{
1000
PSFILL
1000
Grayscale
1000
Grayscale
1070
   100
1002
}
  0
LINE
  5
75018
  8
YODOROGO
 10
28098.135520230931
 20
1631.503637274657
 30
0.0
 11
28098.135520230931
 21
1499.749496429288
 31
0.0
1001
AUTOCAD_POSTSCRIPT_FIGURE
1002
{
1000
PSFILL
1000
Grayscale
1000
Grayscale
1070
   100
1002
}
  0
LINE
  5
75019
  8
YODOROGO
 10
28137.604341291921
 20
1631.503637274657
 30
0.0
 11
28098.135520230931
 21
1631.503637274657
 31
0.0
1001
AUTOCAD_POSTSCRIPT_FIGURE
1002
{
1000
PSFILL
1000
Grayscale
1000
Grayscale
1070
   100
1002
}
  0
LINE
  5
7501A
  8
YODOROGO
 10
28137.604341291921
 20
1655.5036372746561
 30
0.0
 11
28137.604341291921
 21
1631.503637274657
 31
0.0
1001
AUTOCAD_POSTSCRIPT_FIGURE
1002
{
1000
PSFILL
1000
Grayscale
1000
Grayscale
1070
   100
1002
}
  0
LINE
  5
7501B
  8
YODOROGO
 10
28098.135520230931
 20
1655.5036372746561
 30
0.0
 11
28137.604341291921
 21
1655.5036372746561
 31
0.0
1001
AUTOCAD_POSTSCRIPT_FIGURE
1002
{
1000
PSFILL
1000
Grayscale
1000
Grayscale
1070
   100
1002
}
  0
LINE
  5
7501C
  8
YODOROGO
 10
28401.60434129191
 20
1667.749496429288
 30
0.0
 11
28345.604341291921
 21
1667.749496429288
 31
0.0
  0
LINE
  5
7501D
  8
YODOROGO
 10
28401.60434129191
 20
1611.7494964292889
 30
0.0
 11
28401.60434129191
 21
1667.749496429288
 31
0.0
  0
LINE
  5
7501E
  8
YODOROGO
 10
28345.604341291921
 20
1667.749496429288
 30
0.0
 11
28345.604341291921
 21
1611.7494964292889
 31
0.0
  0
ARC
  5
7501F
  8
YODOROGO
 10
28513.60434129191
 20
1507.749496429288
 30
0.0
 40
80.0
 50
180.0
 51
270.0
  0
ARC
  5
75020
  8
YODOROGO
 10
28537.60434129191
 20
1563.7494964292871
 30
0.0
 40
40.0
 50
180.0
 51
270.0
  0
LINE
  5
75021
  8
YODOROGO
 10
28561.604341291932
 20
1523.7494964292871
 30
0.0
 11
28537.60434129191
 21
1523.7494964292871
 31
0.0
  0
ARC
  5
75022
  8
YODOROGO
 10
28561.604341291932
 20
1547.749496429285
 30
0.0
 40
23.999999999996358
 50
270.0
 51
0.0000000000054281
  0
LINE
  5
75023
  8
YODOROGO
 10
27801.604341291921
 20
1890.786580793706
 30
0.0
 11
27777.604341291921
 21
1843.776747951672
 31
0.0
1001
AUTOCAD_POSTSCRIPT_FIGURE
1002
{
1000
PSFILL
1000
Grayscale
1000
Grayscale
1070
   100
1002
}
  0
LINE
  5
75024
  8
YODOROGO
 10
27801.604341291921
 20
1747.7494964292871
 30
0.0
 11
27801.604341291921
 21
1890.786580793706
 31
0.0
1001
AUTOCAD_POSTSCRIPT_FIGURE
1002
{
1000
PSFILL
1000
Grayscale
1000
Grayscale
1070
   100
1002
}
  0
LINE
  5
75025
  8
YODOROGO
 10
27817.604341291921
 20
1747.7494964292871
 30
0.0
 11
27801.604341291921
 21
1747.7494964292871
 31
0.0
1001
AUTOCAD_POSTSCRIPT_FIGURE
1002
{
1000
PSFILL
1000
Grayscale
1000
Grayscale
1070
   100
1002
}
  0
LINE
  5
75026
  8
YODOROGO
 10
27817.604341291921
 20
1893.771332085267
 30
0.0
 11
27817.604341291921
 21
1747.7494964292871
 31
0.0
1001
AUTOCAD_POSTSCRIPT_FIGURE
1002
{
1000
PSFILL
1000
Grayscale
1000
Grayscale
1070
   100
1002
}
  0
LINE
  5
75027
  8
YODOROGO
 10
27841.604341291921
 20
1867.654758284137
 30
0.0
 11
27817.604341291921
 21
1893.771332085267
 31
0.0
1001
AUTOCAD_POSTSCRIPT_FIGURE
1002
{
1000
PSFILL
1000
Grayscale
1000
Grayscale
1070
   100
1002
}
  0
LINE
  5
75028
  8
YODOROGO
 10
27841.604341291921
 20
1883.6547582841361
 30
0.0
 11
27841.604341291921
 21
1867.654758284137
 31
0.0
1001
AUTOCAD_POSTSCRIPT_FIGURE
1002
{
1000
PSFILL
1000
Grayscale
1000
Grayscale
1070
   100
1002
}
  0
LINE
  5
75029
  8
YODOROGO
 10
27817.604341291921
 20
1917.7713320852649
 30
0.0
 11
27841.604341291921
 21
1883.6547582841361
 31
0.0
1001
AUTOCAD_POSTSCRIPT_FIGURE
1002
{
1000
PSFILL
1000
Grayscale
1000
Grayscale
1070
   100
1002
}
  0
LINE
  5
7502A
  8
YODOROGO
 10
27817.604341291921
 20
1939.749496429288
 30
0.0
 11
27817.604341291921
 21
1917.7713320852649
 31
0.0
1001
AUTOCAD_POSTSCRIPT_FIGURE
1002
{
1000
PSFILL
1000
Grayscale
1000
Grayscale
1070
   100
1002
}
  0
LINE
  5
7502B
  8
YODOROGO
 10
27889.604341291921
 20
1939.749496429288
 30
0.0
 11
27817.604341291921
 21
1939.749496429288
 31
0.0
1001
AUTOCAD_POSTSCRIPT_FIGURE
1002
{
1000
PSFILL
1000
Grayscale
1000
Grayscale
1070
   100
1002
}
  0
LINE
  5
7502C
  8
YODOROGO
 10
27889.604341291921
 20
1900.5683489363
 30
0.0
 11
27889.604341291921
 21
1939.749496429288
 31
0.0
1001
AUTOCAD_POSTSCRIPT_FIGURE
1002
{
1000
PSFILL
1000
Grayscale
1000
Grayscale
1070
   100
1002
}
  0
LINE
  5
7502D
  8
YODOROGO
 10
27857.604341291921
 20
1900.5683489363
 30
0.0
 11
27889.604341291921
 21
1900.5683489363
 31
0.0
1001
AUTOCAD_POSTSCRIPT_FIGURE
1002
{
1000
PSFILL
1000
Grayscale
1000
Grayscale
1070
   100
1002
}
  0
LINE
  5
7502E
  8
YODOROGO
 10
27857.604341291921
 20
1884.568348936298
 30
0.0
 11
27857.604341291921
 21
1900.5683489363
 31
0.0
1001
AUTOCAD_POSTSCRIPT_FIGURE
1002
{
1000
PSFILL
1000
Grayscale
1000
Grayscale
1070
   100
1002
}
  0
LINE
  5
7502F
  8
YODOROGO
 10
27889.604341291921
 20
1884.568348936298
 30
0.0
 11
27857.604341291921
 21
1884.568348936298
 31
0.0
1001
AUTOCAD_POSTSCRIPT_FIGURE
1002
{
1000
PSFILL
1000
Grayscale
1000
Grayscale
1070
   100
1002
}
  0
LINE
  5
75030
  8
YODOROGO
 10
27889.604341291921
 20
1879.6191779644389
 30
0.0
 11
27889.604341291921
 21
1884.568348936298
 31
0.0
1001
AUTOCAD_POSTSCRIPT_FIGURE
1002
{
1000
PSFILL
1000
Grayscale
1000
Grayscale
1070
   100
1002
}
  0
LINE
  5
75031
  8
YODOROGO
 10
27849.604341291921
 20
1812.974981161417
 30
0.0
 11
27889.604341291921
 21
1879.6191779644389
 31
0.0
1001
AUTOCAD_POSTSCRIPT_FIGURE
1002
{
1000
PSFILL
1000
Grayscale
1000
Grayscale
1070
   100
1002
}
  0
LINE
  5
75032
  8
YODOROGO
 10
27849.604341291921
 20
1796.9749811614161
 30
0.0
 11
27849.604341291921
 21
1812.974981161417
 31
0.0
1001
AUTOCAD_POSTSCRIPT_FIGURE
1002
{
1000
PSFILL
1000
Grayscale
1000
Grayscale
1070
   100
1002
}
  0
LINE
  5
75033
  8
YODOROGO
 10
27889.604341291921
 20
1847.6191779644371
 30
0.0
 11
27849.604341291921
 21
1796.9749811614161
 31
0.0
1001
AUTOCAD_POSTSCRIPT_FIGURE
1002
{
1000
PSFILL
1000
Grayscale
1000
Grayscale
1070
   100
1002
}
  0
LINE
  5
75034
  8
YODOROGO
 10
27889.604341291921
 20
1747.7494964292871
 30
0.0
 11
27889.604341291921
 21
1847.6191779644371
 31
0.0
1001
AUTOCAD_POSTSCRIPT_FIGURE
1002
{
1000
PSFILL
1000
Grayscale
1000
Grayscale
1070
   100
1002
}
  0
LINE
  5
75035
  8
YODOROGO
 10
27905.604341291921
 20
1747.7494964292871
 30
0.0
 11
27889.604341291921
 21
1747.7494964292871
 31
0.0
1001
AUTOCAD_POSTSCRIPT_FIGURE
1002
{
1000
PSFILL
1000
Grayscale
1000
Grayscale
1070
   100
1002
}
  0
LINE
  5
75036
  8
YODOROGO
 10
27905.604341291921
 20
1849.409012158806
 30
0.0
 11
27905.604341291921
 21
1747.7494964292871
 31
0.0
1001
AUTOCAD_POSTSCRIPT_FIGURE
1002
{
1000
PSFILL
1000
Grayscale
1000
Grayscale
1070
   100
1002
}
  0
LINE
  5
75037
  8
YODOROGO
 10
27937.604341291921
 20
1796.9749811614161
 30
0.0
 11
27905.604341291921
 21
1849.409012158806
 31
0.0
1001
AUTOCAD_POSTSCRIPT_FIGURE
1002
{
1000
PSFILL
1000
Grayscale
1000
Grayscale
1070
   100
1002
}
  0
LINE
  5
75038
  8
YODOROGO
 10
27937.604341291921
 20
1812.974981161417
 30
0.0
 11
27937.604341291921
 21
1796.9749811614161
 31
0.0
1001
AUTOCAD_POSTSCRIPT_FIGURE
1002
{
1000
PSFILL
1000
Grayscale
1000
Grayscale
1070
   100
1002
}
  0
LINE
  5
75039
  8
YODOROGO
 10
27905.604341291921
 20
1881.4090121588081
 30
0.0
 11
27937.604341291921
 21
1812.974981161417
 31
0.0
1001
AUTOCAD_POSTSCRIPT_FIGURE
1002
{
1000
PSFILL
1000
Grayscale
1000
Grayscale
1070
   100
1002
}
  0
LINE
  5
7503A
  8
YODOROGO
 10
27905.604341291932
 20
1884.5683489363
 30
0.0
 11
27905.604341291921
 21
1881.4090121588081
 31
0.0
1001
AUTOCAD_POSTSCRIPT_FIGURE
1002
{
1000
PSFILL
1000
Grayscale
1000
Grayscale
1070
   100
1002
}
  0
LINE
  5
7503B
  8
YODOROGO
 10
27937.604341291921
 20
1884.568348936298
 30
0.0
 11
27905.604341291932
 21
1884.5683489363
 31
0.0
1001
AUTOCAD_POSTSCRIPT_FIGURE
1002
{
1000
PSFILL
1000
Grayscale
1000
Grayscale
1070
   100
1002
}
  0
LINE
  5
7503C
  8
YODOROGO
 10
27937.604341291921
 20
1900.5683489363
 30
0.0
 11
27937.604341291921
 21
1884.568348936298
 31
0.0
1001
AUTOCAD_POSTSCRIPT_FIGURE
1002
{
1000
PSFILL
1000
Grayscale
1000
Grayscale
1070
   100
1002
}
  0
LINE
  5
7503D
  8
YODOROGO
 10
27905.604341291921
 20
1900.5683489363
 30
0.0
 11
27937.604341291921
 21
1900.5683489363
 31
0.0
1001
AUTOCAD_POSTSCRIPT_FIGURE
1002
{
1000
PSFILL
1000
Grayscale
1000
Grayscale
1070
   100
1002
}
  0
LINE
  5
7503E
  8
YODOROGO
 10
27905.604341291921
 20
1939.749496429288
 30
0.0
 11
27905.604341291921
 21
1900.5683489363
 31
0.0
1001
AUTOCAD_POSTSCRIPT_FIGURE
1002
{
1000
PSFILL
1000
Grayscale
1000
Grayscale
1070
   100
1002
}
  0
LINE
  5
7503F
  8
YODOROGO
 10
27937.604341291921
 20
1939.749496429288
 30
0.0
 11
27905.604341291921
 21
1939.749496429288
 31
0.0
1001
AUTOCAD_POSTSCRIPT_FIGURE
1002
{
1000
PSFILL
1000
Grayscale
1000
Grayscale
1070
   100
1002
}
  0
LINE
  5
75040
  8
YODOROGO
 10
27937.604341291921
 20
1955.7494964292871
 30
0.0
 11
27937.604341291921
 21
1939.749496429288
 31
0.0
1001
AUTOCAD_POSTSCRIPT_FIGURE
1002
{
1000
PSFILL
1000
Grayscale
1000
Grayscale
1070
   100
1002
}
  0
LINE
  5
75041
  8
YODOROGO
 10
27905.604341291921
 20
1955.7494964292871
 30
0.0
 11
27937.604341291921
 21
1955.7494964292871
 31
0.0
1001
AUTOCAD_POSTSCRIPT_FIGURE
1002
{
1000
PSFILL
1000
Grayscale
1000
Grayscale
1070
   100
1002
}
  0
LINE
  5
75042
  8
YODOROGO
 10
27905.604341291921
 20
1979.749496429288
 30
0.0
 11
27905.604341291921
 21
1955.7494964292871
 31
0.0
1001
AUTOCAD_POSTSCRIPT_FIGURE
1002
{
1000
PSFILL
1000
Grayscale
1000
Grayscale
1070
   100
1002
}
  0
LINE
  5
75043
  8
YODOROGO
 10
27889.604341291921
 20
1979.749496429288
 30
0.0
 11
27905.604341291921
 21
1979.749496429288
 31
0.0
1001
AUTOCAD_POSTSCRIPT_FIGURE
1002
{
1000
PSFILL
1000
Grayscale
1000
Grayscale
1070
   100
1002
}
  0
LINE
  5
75044
  8
YODOROGO
 10
27889.604341291921
 20
1955.7494964292871
 30
0.0
 11
27889.604341291921
 21
1979.749496429288
 31
0.0
1001
AUTOCAD_POSTSCRIPT_FIGURE
1002
{
1000
PSFILL
1000
Grayscale
1000
Grayscale
1070
   100
1002
}
  0
LINE
  5
75045
  8
YODOROGO
 10
27865.604341291921
 20
1955.7494964292871
 30
0.0
 11
27889.604341291921
 21
1955.7494964292871
 31
0.0
1001
AUTOCAD_POSTSCRIPT_FIGURE
1002
{
1000
PSFILL
1000
Grayscale
1000
Grayscale
1070
   100
1002
}
  0
LINE
  5
75046
  8
YODOROGO
 10
27865.604341291921
 20
1979.749496429288
 30
0.0
 11
27865.604341291921
 21
1955.7494964292871
 31
0.0
1001
AUTOCAD_POSTSCRIPT_FIGURE
1002
{
1000
PSFILL
1000
Grayscale
1000
Grayscale
1070
   100
1002
}
  0
LINE
  5
75047
  8
YODOROGO
 10
27849.604341291921
 20
1979.749496429288
 30
0.0
 11
27865.604341291921
 21
1979.749496429288
 31
0.0
1001
AUTOCAD_POSTSCRIPT_FIGURE
1002
{
1000
PSFILL
1000
Grayscale
1000
Grayscale
1070
   100
1002
}
  0
LINE
  5
75048
  8
YODOROGO
 10
27849.604341291921
 20
1955.7494964292871
 30
0.0
 11
27849.604341291921
 21
1979.749496429288
 31
0.0
1001
AUTOCAD_POSTSCRIPT_FIGURE
1002
{
1000
PSFILL
1000
Grayscale
1000
Grayscale
1070
   100
1002
}
  0
LINE
  5
75049
  8
YODOROGO
 10
27817.604341291921
 20
1955.7494964292871
 30
0.0
 11
27849.604341291921
 21
1955.7494964292871
 31
0.0
1001
AUTOCAD_POSTSCRIPT_FIGURE
1002
{
1000
PSFILL
1000
Grayscale
1000
Grayscale
1070
   100
1002
}
  0
LINE
  5
7504A
  8
YODOROGO
 10
27817.604341291921
 20
1979.749496429288
 30
0.0
 11
27817.604341291921
 21
1955.7494964292871
 31
0.0
1001
AUTOCAD_POSTSCRIPT_FIGURE
1002
{
1000
PSFILL
1000
Grayscale
1000
Grayscale
1070
   100
1002
}
  0
LINE
  5
7504B
  8
YODOROGO
 10
27801.604341291921
 20
1979.749496429288
 30
0.0
 11
27817.604341291921
 21
1979.749496429288
 31
0.0
1001
AUTOCAD_POSTSCRIPT_FIGURE
1002
{
1000
PSFILL
1000
Grayscale
1000
Grayscale
1070
   100
1002
}
  0
LINE
  5
7504C
  8
YODOROGO
 10
27801.604341291921
 20
1955.7494964292871
 30
0.0
 11
27801.604341291921
 21
1979.749496429288
 31
0.0
1001
AUTOCAD_POSTSCRIPT_FIGURE
1002
{
1000
PSFILL
1000
Grayscale
1000
Grayscale
1070
   100
1002
}
  0
LINE
  5
7504D
  8
YODOROGO
 10
27777.604341291921
 20
1955.7494964292871
 30
0.0
 11
27801.604341291921
 21
1955.7494964292871
 31
0.0
1001
AUTOCAD_POSTSCRIPT_FIGURE
1002
{
1000
PSFILL
1000
Grayscale
1000
Grayscale
1070
   100
1002
}
  0
LINE
  5
7504E
  8
YODOROGO
 10
27777.604341291921
 20
1939.749496429288
 30
0.0
 11
27777.604341291921
 21
1955.7494964292871
 31
0.0
1001
AUTOCAD_POSTSCRIPT_FIGURE
1002
{
1000
PSFILL
1000
Grayscale
1000
Grayscale
1070
   100
1002
}
  0
LINE
  5
7504F
  8
YODOROGO
 10
27801.604341291921
 20
1939.749496429288
 30
0.0
 11
27777.604341291921
 21
1939.749496429288
 31
0.0
1001
AUTOCAD_POSTSCRIPT_FIGURE
1002
{
1000
PSFILL
1000
Grayscale
1000
Grayscale
1070
   100
1002
}
  0
LINE
  5
75050
  8
YODOROGO
 10
27801.604341291921
 20
1914.7865807937051
 30
0.0
 11
27801.604341291921
 21
1939.749496429288
 31
0.0
1001
AUTOCAD_POSTSCRIPT_FIGURE
1002
{
1000
PSFILL
1000
Grayscale
1000
Grayscale
1070
   100
1002
}
  0
LINE
  5
75051
  8
YODOROGO
 10
27777.604341291921
 20
1859.776747951671
 30
0.0
 11
27801.604341291921
 21
1914.7865807937051
 31
0.0
1001
AUTOCAD_POSTSCRIPT_FIGURE
1002
{
1000
PSFILL
1000
Grayscale
1000
Grayscale
1070
   100
1002
}
  0
LINE
  5
75052
  8
YODOROGO
 10
27777.604341291921
 20
1843.776747951672
 30
0.0
 11
27777.604341291921
 21
1859.776747951671
 31
0.0
1001
AUTOCAD_POSTSCRIPT_FIGURE
1002
{
1000
PSFILL
1000
Grayscale
1000
Grayscale
1070
   100
1002
}
  0
LINE
  5
75053
  8
YODOROGO
 10
28257.604341291921
 20
1867.749496429288
 30
0.0
 11
28401.60434129191
 21
1824.877625640306
 31
0.0
1001
AUTOCAD_POSTSCRIPT_FIGURE
1002
{
1000
PSFILL
1000
Grayscale
1000
Grayscale
1070
   100
1002
}
  0
LINE
  5
75054
  8
YODOROGO
 10
28401.60434129191
 20
1752.877625640306
 30
0.0
 11
28257.604341291921
 21
1795.7494964292871
 31
0.0
1001
AUTOCAD_POSTSCRIPT_FIGURE
1002
{
1000
PSFILL
1000
Grayscale
1000
Grayscale
1070
   100
1002
}
  0
LINE
  5
75055
  8
YODOROGO
 10
28401.60434129191
 20
1984.877625640306
 30
0.0
 11
28257.604341291921
 21
2027.749496429288
 31
0.0
1001
AUTOCAD_POSTSCRIPT_FIGURE
1002
{
1000
PSFILL
1000
Grayscale
1000
Grayscale
1070
   100
1002
}
  0
LINE
  5
75056
  8
YODOROGO
 10
28257.604341291921
 20
1959.749496429288
 30
0.0
 11
28401.60434129191
 21
1916.8776256403071
 31
0.0
1001
AUTOCAD_POSTSCRIPT_FIGURE
1002
{
1000
PSFILL
1000
Grayscale
1000
Grayscale
1070
   100
1002
}
  0
LINE
  5
75057
  8
YODOROGO
 10
28257.604341291921
 20
1795.7494964292871
 30
0.0
 11
28257.604341291921
 21
1867.749496429288
 31
0.0
1001
AUTOCAD_POSTSCRIPT_FIGURE
1002
{
1000
PSFILL
1000
Grayscale
1000
Grayscale
1070
   100
1002
}
  0
LINE
  5
75058
  8
YODOROGO
 10
28257.604341291921
 20
2027.749496429288
 30
0.0
 11
28257.604341291921
 21
1959.749496429288
 31
0.0
1001
AUTOCAD_POSTSCRIPT_FIGURE
1002
{
1000
PSFILL
1000
Grayscale
1000
Grayscale
1070
   100
1002
}
  0
LINE
  5
75059
  8
YODOROGO
 10
28080.236320206739
 20
1939.749496429288
 30
0.0
 11
28129.604341291921
 21
1747.7494964292871
 31
0.0
1001
AUTOCAD_POSTSCRIPT_FIGURE
1002
{
1000
PSFILL
1000
Grayscale
1000
Grayscale
1070
   100
1002
}
  0
LINE
  5
7505A
  8
YODOROGO
 10
27977.604341291921
 20
1939.749496429288
 30
0.0
 11
28080.236320206739
 21
1939.749496429288
 31
0.0
1001
AUTOCAD_POSTSCRIPT_FIGURE
1002
{
1000
PSFILL
1000
Grayscale
1000
Grayscale
1070
   100
1002
}
  0
LINE
  5
7505B
  8
YODOROGO
 10
27977.604341291921
 20
1955.7494964292871
 30
0.0
 11
27977.604341291921
 21
1939.749496429288
 31
0.0
1001
AUTOCAD_POSTSCRIPT_FIGURE
1002
{
1000
PSFILL
1000
Grayscale
1000
Grayscale
1070
   100
1002
}
  0
LINE
  5
7505C
  8
YODOROGO
 10
28076.60687851992
 20
1955.7494964292871
 30
0.0
 11
27977.604341291921
 21
1955.7494964292871
 31
0.0
1001
AUTOCAD_POSTSCRIPT_FIGURE
1002
{
1000
PSFILL
1000
Grayscale
1000
Grayscale
1070
   100
1002
}
  0
LINE
  5
7505D
  8
YODOROGO
 10
28071.162715989711
 20
1979.749496429288
 30
0.0
 11
28076.60687851992
 21
1955.7494964292871
 31
0.0
1001
AUTOCAD_POSTSCRIPT_FIGURE
1002
{
1000
PSFILL
1000
Grayscale
1000
Grayscale
1070
   100
1002
}
  0
LINE
  5
7505E
  8
YODOROGO
 10
28091.162715989711
 20
1979.749496429288
 30
0.0
 11
28071.162715989711
 21
1979.749496429288
 31
0.0
1001
AUTOCAD_POSTSCRIPT_FIGURE
1002
{
1000
PSFILL
1000
Grayscale
1000
Grayscale
1070
   100
1002
}
  0
LINE
  5
7505F
  8
YODOROGO
 10
28095.806878519939
 20
1955.7494964292871
 30
0.0
 11
28091.162715989711
 21
1979.749496429288
 31
0.0
1001
AUTOCAD_POSTSCRIPT_FIGURE
1002
{
1000
PSFILL
1000
Grayscale
1000
Grayscale
1070
   100
1002
}
  0
LINE
  5
75060
  8
YODOROGO
 10
28121.604341291921
 20
1955.7494964292871
 30
0.0
 11
28095.806878519939
 21
1955.7494964292871
 31
0.0
1001
AUTOCAD_POSTSCRIPT_FIGURE
1002
{
1000
PSFILL
1000
Grayscale
1000
Grayscale
1070
   100
1002
}
  0
LINE
  5
75061
  8
YODOROGO
 10
28121.604341291921
 20
1979.749496429288
 30
0.0
 11
28121.604341291921
 21
1955.7494964292871
 31
0.0
1001
AUTOCAD_POSTSCRIPT_FIGURE
1002
{
1000
PSFILL
1000
Grayscale
1000
Grayscale
1070
   100
1002
}
  0
LINE
  5
75062
  8
YODOROGO
 10
28137.604341291921
 20
1979.749496429288
 30
0.0
 11
28121.604341291921
 21
1979.749496429288
 31
0.0
1001
AUTOCAD_POSTSCRIPT_FIGURE
1002
{
1000
PSFILL
1000
Grayscale
1000
Grayscale
1070
   100
1002
}
  0
LINE
  5
75063
  8
YODOROGO
 10
28137.604341291921
 20
1955.7494964292871
 30
0.0
 11
28137.604341291921
 21
1979.749496429288
 31
0.0
1001
AUTOCAD_POSTSCRIPT_FIGURE
1002
{
1000
PSFILL
1000
Grayscale
1000
Grayscale
1070
   100
1002
}
  0
LINE
  5
75064
  8
YODOROGO
 10
28137.604341291921
 20
1939.749496429288
 30
0.0
 11
28137.604341291921
 21
1955.7494964292871
 31
0.0
1001
AUTOCAD_POSTSCRIPT_FIGURE
1002
{
1000
PSFILL
1000
Grayscale
1000
Grayscale
1070
   100
1002
}
  0
LINE
  5
75065
  8
YODOROGO
 10
28098.902986873421
 20
1939.749496429288
 30
0.0
 11
28137.604341291921
 21
1939.749496429288
 31
0.0
1001
AUTOCAD_POSTSCRIPT_FIGURE
1002
{
1000
PSFILL
1000
Grayscale
1000
Grayscale
1070
   100
1002
}
  0
LINE
  5
75066
  8
YODOROGO
 10
28137.604341291921
 20
1747.7494964292871
 30
0.0
 11
28098.902986873421
 21
1939.749496429288
 31
0.0
1001
AUTOCAD_POSTSCRIPT_FIGURE
1002
{
1000
PSFILL
1000
Grayscale
1000
Grayscale
1070
   100
1002
}
  0
LINE
  5
75067
  8
YODOROGO
 10
28129.604341291921
 20
1747.7494964292871
 30
0.0
 11
28137.604341291921
 21
1747.7494964292871
 31
0.0
1001
AUTOCAD_POSTSCRIPT_FIGURE
1002
{
1000
PSFILL
1000
Grayscale
1000
Grayscale
1070
   100
1002
}
  0
LINE
  5
75068
  8
YODOROGO
 10
28078.069219933801
 20
1775.7407762987939
 30
0.0
 11
27977.604341291921
 21
1747.7494964292871
 31
0.0
  0
LINE
  5
75069
  8
YODOROGO
 10
28078.069219933801
 20
1798.6689795290731
 30
0.0
 11
28078.069219933801
 21
1775.7407762987939
 31
0.0
  0
LINE
  5
7506A
  8
YODOROGO
 10
28033.83678061287
 20
1786.816933133767
 30
0.0
 11
28078.069219933801
 21
1798.6689795290731
 31
0.0
  0
LINE
  5
7506B
  8
YODOROGO
 10
28033.83678061287
 20
1872.5683489363
 30
0.0
 11
28033.83678061287
 21
1786.816933133767
 31
0.0
  0
LINE
  5
7506C
  8
YODOROGO
 10
28078.069219933801
 20
1872.5683489363
 30
0.0
 11
28033.83678061287
 21
1872.5683489363
 31
0.0
  0
LINE
  5
7506D
  8
YODOROGO
 10
28078.069219933801
 20
1892.568348936298
 30
0.0
 11
28078.069219933801
 21
1872.5683489363
 31
0.0
  0
LINE
  5
7506E
  8
YODOROGO
 10
27977.604341291921
 20
1892.568348936298
 30
0.0
 11
28078.069219933801
 21
1892.568348936298
 31
0.0
  0
LINE
  5
7506F
  8
YODOROGO
 10
27977.604341291921
 20
1872.5683489363
 30
0.0
 11
27977.604341291921
 21
1892.568348936298
 31
0.0
  0
LINE
  5
75070
  8
YODOROGO
 10
28021.836780612859
 20
1872.5683489363
 30
0.0
 11
27977.604341291921
 21
1872.5683489363
 31
0.0
  0
LINE
  5
75071
  8
YODOROGO
 10
28021.836780612859
 20
1784.673339594317
 30
0.0
 11
28021.836780612859
 21
1872.5683489363
 31
0.0
  0
LINE
  5
75072
  8
YODOROGO
 10
27977.604341291921
 20
1771.749496429286
 30
0.0
 11
28021.836780612859
 21
1784.673339594317
 31
0.0
  0
LINE
  5
75073
  8
YODOROGO
 10
27977.604341291921
 20
1747.7494964292871
 30
0.0
 11
27977.604341291921
 21
1771.749496429286
 31
0.0
  0
LINE
  5
75074
  8
YODOROGO
 10
28001.604341291921
 20
1707.749496429288
 30
0.0
 11
28001.604341291921
 21
1683.7494964292871
 31
0.0
  0
LINE
  5
75076
  8
YODOROGO
 10
28017.604341291921
 20
1707.749496429288
 30
0.0
 11
28001.604341291921
 21
1707.749496429288
 31
0.0
  0
LINE
  5
75077
  8
YODOROGO
 10
28017.604341291921
 20
1683.7494964292871
 30
0.0
 11
28017.604341291921
 21
1707.749496429288
 31
0.0
  0
LINE
  5
75078
  8
YODOROGO
 10
28040.913204016899
 20
1683.7494964292871
 30
0.0
 11
28017.604341291921
 21
1683.7494964292871
 31
0.0
  0
LINE
  5
75079
  8
YODOROGO
 10
28001.604341291921
 20
1683.7494964292871
 30
0.0
 11
27977.604341291921
 21
1683.7494964292871
 31
0.0
  0
LINE
  5
7507A
  8
YODOROGO
 10
28082.135520230921
 20
1707.749496429288
 30
0.0
 11
28098.135520230931
 21
1707.749496429288
 31
0.0
1001
AUTOCAD_POSTSCRIPT_FIGURE
1002
{
1000
PSFILL
1000
Grayscale
1000
Grayscale
1070
   100
1002
}
  0
LINE
  5
7507B
  8
YODOROGO
 10
28401.60434129191
 20
1824.877625640306
 30
0.0
 11
28401.60434129191
 21
1752.877625640306
 31
0.0
1001
AUTOCAD_POSTSCRIPT_FIGURE
1002
{
1000
PSFILL
1000
Grayscale
1000
Grayscale
1070
   100
1002
}
  0
LINE
  5
7507C
  8
YODOROGO
 10
28401.60434129191
 20
1916.8776256403071
 30
0.0
 11
28401.60434129191
 21
1984.877625640306
 31
0.0
1001
AUTOCAD_POSTSCRIPT_FIGURE
1002
{
1000
PSFILL
1000
Grayscale
1000
Grayscale
1070
   100
1002
}
  0
LINE
  5
7507D
  8
YODOROGO
 10
28433.60434129191
 20
1819.749496429288
 30
0.0
 11
28433.60434129191
 21
1747.74949642929
 31
0.0
  0
LINE
  5
7507E
  8
YODOROGO
 10
28497.60434129191
 20
1707.749496429288
 30
0.0
 11
28433.60434129191
 21
1707.749496429288
 31
0.0
  0
LINE
  5
7507F
  8
YODOROGO
 10
28433.60434129191
 20
1747.74949642929
 30
0.0
 11
28585.604341291921
 21
1747.74949642929
 31
0.0
  0
LINE
  5
75080
  8
YODOROGO
 10
28497.60434129191
 20
1867.749496429288
 30
0.0
 11
28433.60434129191
 21
1867.749496429288
 31
0.0
  0
LINE
  5
75081
  8
YODOROGO
 10
28497.60434129191
 20
1923.7494964292871
 30
0.0
 11
28497.60434129191
 21
1867.749496429288
 31
0.0
  0
LINE
  5
75082
  8
YODOROGO
 10
28585.604341291921
 20
1987.749496429288
 30
0.0
 11
28585.604341291921
 21
2027.749496429288
 31
0.0
  0
LINE
  5
75083
  8
YODOROGO
 10
28433.60434129191
 20
1987.749496429288
 30
0.0
 11
28585.604341291921
 21
1987.749496429288
 31
0.0
  0
LINE
  5
75084
  8
YODOROGO
 10
28433.60434129191
 20
1867.749496429288
 30
0.0
 11
28433.60434129191
 21
1987.749496429288
 31
0.0
  0
LINE
  5
75085
  8
YODOROGO
 10
29001.60434129191
 20
2027.749496429288
 30
0.0
 11
29001.60434129191
 21
1619.749496429288
 31
0.0
  0
LINE
  5
75086
  8
YODOROGO
 10
29073.604341291921
 20
1579.749496429288
 30
0.0
 11
29073.604341291921
 21
2027.749496429288
 31
0.0
  0
LINE
  5
75087
  8
YODOROGO
 10
29261.604341291921
 20
1491.749496429286
 30
0.0
 11
29261.604341291921
 21
2007.749496429288
 31
0.0
  0
LINE
  5
75088
  8
YODOROGO
 10
29197.604341291921
 20
2007.749496429288
 30
0.0
 11
29197.604341291921
 21
1491.749496429286
 31
0.0
  0
LINE
  5
75089
  8
YODOROGO
 10
29385.604341291921
 20
2027.749496429288
 30
0.0
 11
29385.604341291921
 21
1427.749496429288
 31
0.0
  0
LINE
  5
7508A
  8
YODOROGO
 10
29457.604341291921
 20
1427.749496429288
 30
0.0
 11
29457.604341291921
 21
2027.749496429288
 31
0.0
  0
LINE
  5
7508B
  8
YODOROGO
 10
28657.60434129191
 20
1667.749496429288
 30
0.0
 11
28657.60434129191
 21
1747.74949642929
 31
0.0
  0
LINE
  5
7508C
  8
YODOROGO
 10
29885.604341291921
 20
1707.749496429288
 30
0.0
 11
29885.604341291921
 21
1667.749496429288
 31
0.0
  0
LINE
  5
7508D
  8
YODOROGO
 10
29885.604341291921
 20
1707.749496429288
 30
0.0
 11
29885.604341291921
 21
1667.749496429288
 31
0.0
  0
ARC
  5
7508E
  8
YODOROGO
 10
28906.911576186842
 20
1618.2178644422729
 30
0.0
 40
94.705151178741659
 50
274.0524416290711
 51
0.9266642149310712
  0
ARC
  5
7508F
  8
YODOROGO
 10
28909.18617071983
 20
1592.61072861044
 30
0.0
 40
164.92042356085511
 50
271.53512106537778
 51
355.52727750585058
  0
LINE
  5
75090
  8
YODOROGO
 10
28913.604341291921
 20
1523.7494964292871
 30
0.0
 11
28913.604341291921
 21
1427.749496429288
 31
0.0
  0
LINE
  5
75091
  8
YODOROGO
 10
28793.60434129191
 20
1667.749496429288
 30
0.0
 11
28657.60434129191
 21
1667.749496429288
 31
0.0
  0
LINE
  5
75092
  8
YODOROGO
 10
28793.60434129191
 20
1603.7494964292889
 30
0.0
 11
28793.60434129191
 21
1667.749496429288
 31
0.0
  0
LINE
  5
75093
  8
YODOROGO
 10
28657.60434129191
 20
1603.7494964292889
 30
0.0
 11
28793.60434129191
 21
1603.7494964292889
 31
0.0
  0
LINE
  5
75094
  8
YODOROGO
 10
28657.60434129191
 20
1523.7494964292871
 30
0.0
 11
28657.60434129191
 21
1603.7494964292889
 31
0.0
  0
LINE
  5
75095
  8
YODOROGO
 10
28793.60434129191
 20
1523.7494964292871
 30
0.0
 11
28657.60434129191
 21
1523.7494964292871
 31
0.0
  0
LINE
  5
75096
  8
YODOROGO
 10
28793.60434129191
 20
1427.749496429288
 30
0.0
 11
28793.60434129191
 21
1523.7494964292871
 31
0.0
  0
LINE
  5
75097
  8
YODOROGO
 10
29197.604341291921
 20
1491.749496429286
 30
0.0
 11
29261.604341291921
 21
1491.749496429286
 31
0.0
  0
LINE
  5
75098
  8
YODOROGO
 10
29385.604341291921
 20
1427.749496429288
 30
0.0
 11
29457.604341291921
 21
1427.749496429288
 31
0.0
  0
LINE
  5
75099
  8
YODOROGO
 10
29737.604341291921
 20
1528.4414521705639
 30
0.0
 11
29737.604341291921
 21
1427.749496429288
 31
0.0
  0
LINE
  5
7509A
  8
YODOROGO
 10
29617.604341291921
 20
1427.749496429288
 30
0.0
 11
29737.604341291921
 21
1528.4414521705639
 31
0.0
  0
LINE
  5
7509B
  8
YODOROGO
 10
29617.604341291921
 20
1547.749496429288
 30
0.0
 11
29617.604341291921
 21
1427.749496429288
 31
0.0
  0
LINE
  5
7509C
  8
YODOROGO
 10
29712.944628699461
 20
1627.749496429288
 30
0.0
 11
29617.604341291921
 21
1547.749496429288
 31
0.0
  0
LINE
  5
7509D
  8
YODOROGO
 10
29617.604341291921
 20
1627.749496429288
 30
0.0
 11
29712.944628699461
 21
1627.749496429288
 31
0.0
  0
LINE
  5
7509E
  8
YODOROGO
 10
29617.604341291921
 20
1667.749496429288
 30
0.0
 11
29617.604341291921
 21
1627.749496429288
 31
0.0
  0
LINE
  5
7509F
  8
YODOROGO
 10
29885.604341291921
 20
1667.749496429288
 30
0.0
 11
29617.604341291921
 21
1667.749496429288
 31
0.0
  0
LINE
  5
750A0
  8
YODOROGO
 10
29917.604341291921
 20
1627.749496429288
 30
0.0
 11
29777.604341291921
 21
1627.749496429288
 31
0.0
  0
LINE
  5
750A1
  8
YODOROGO
 10
29777.604341291921
 20
1562.005437417657
 30
0.0
 11
29771.40987298531
 21
1556.807661346234
 31
0.0
  0
LINE
  5
750A2
  8
YODOROGO
 10
29777.604341291921
 20
1627.749496429288
 30
0.0
 11
29777.604341291921
 21
1562.005437417657
 31
0.0
  0
LINE
  5
750A3
  8
YODOROGO
 10
29737.604341291921
 20
1528.4414521705639
 30
0.0
 11
29737.604341291921
 21
1427.749496429288
 31
0.0
  0
LINE
  5
750A4
  8
YODOROGO
 10
29617.604341291921
 20
1427.749496429288
 30
0.0
 11
29737.604341291921
 21
1528.4414521705639
 31
0.0
  0
LINE
  5
750A5
  8
YODOROGO
 10
29617.604341291921
 20
1547.749496429288
 30
0.0
 11
29617.604341291921
 21
1427.749496429288
 31
0.0
  0
LINE
  5
750A6
  8
YODOROGO
 10
29712.944628699461
 20
1627.749496429288
 30
0.0
 11
29617.604341291921
 21
1547.749496429288
 31
0.0
  0
LINE
  5
750A7
  8
YODOROGO
 10
29617.604341291921
 20
1627.749496429288
 30
0.0
 11
29712.944628699461
 21
1627.749496429288
 31
0.0
  0
LINE
  5
750A8
  8
YODOROGO
 10
29617.604341291921
 20
1667.749496429288
 30
0.0
 11
29617.604341291921
 21
1627.749496429288
 31
0.0
  0
LINE
  5
750A9
  8
YODOROGO
 10
29885.604341291921
 20
1667.749496429288
 30
0.0
 11
29617.604341291921
 21
1667.749496429288
 31
0.0
  0
LINE
  5
750AA
  8
YODOROGO
 10
28793.60434129191
 20
1747.74949642929
 30
0.0
 11
28793.60434129191
 21
1819.749496429288
 31
0.0
  0
LINE
  5
750AB
  8
YODOROGO
 10
28657.60434129191
 20
1747.74949642929
 30
0.0
 11
28793.60434129191
 21
1747.74949642929
 31
0.0
  0
LINE
  5
750AC
  8
YODOROGO
 10
28729.604341291921
 20
1867.749496429288
 30
0.0
 11
28729.604341291921
 21
1923.7494964292871
 31
0.0
  0
LINE
  5
750AD
  8
YODOROGO
 10
28793.60434129191
 20
1867.749496429288
 30
0.0
 11
28729.604341291921
 21
1867.749496429288
 31
0.0
  0
LINE
  5
750AE
  8
YODOROGO
 10
28793.60434129191
 20
1947.749496429288
 30
0.0
 11
28793.60434129191
 21
1867.749496429288
 31
0.0
  0
ARC
  5
750AF
  8
YODOROGO
 10
28753.60434129191
 20
1947.749496429288
 30
0.0
 40
40.0
 50
0.0
 51
90.0
  0
LINE
  5
750B0
  8
YODOROGO
 10
28657.604341291921
 20
1987.749496429288
 30
0.0
 11
28753.60434129191
 21
1987.749496429288
 31
0.0
  0
LINE
  5
750B1
  8
YODOROGO
 10
28657.604341291921
 20
2027.749496429288
 30
0.0
 11
28657.604341291921
 21
1987.749496429288
 31
0.0
  0
LINE
  5
750B2
  8
YODOROGO
 10
29073.604341291921
 20
2027.749496429288
 30
0.0
 11
29001.60434129191
 21
2027.749496429288
 31
0.0
  0
LINE
  5
750B3
  8
YODOROGO
 10
29261.604341291921
 20
2007.749496429288
 30
0.0
 11
29197.604341291921
 21
2007.749496429288
 31
0.0
  0
LINE
  5
750B4
  8
YODOROGO
 10
29457.604341291921
 20
2027.749496429288
 30
0.0
 11
29385.604341291921
 21
2027.749496429288
 31
0.0
  0
LINE
  5
750B5
  8
YODOROGO
 10
29673.604341291921
 20
1707.749496429288
 30
0.0
 11
29673.604341291921
 21
1771.749496429288
 31
0.0
1001
AUTOCAD_POSTSCRIPT_FIGURE
1002
{
1000
PSFILL
1000
Grayscale
1000
Grayscale
1070
    25
1002
}
  0
LINE
  5
750B6
  8
YODOROGO
 10
29617.604341291921
 20
1707.749496429288
 30
0.0
 11
29673.604341291921
 21
1707.749496429288
 31
0.0
1001
AUTOCAD_POSTSCRIPT_FIGURE
1002
{
1000
PSFILL
1000
Grayscale
1000
Grayscale
1070
    25
1002
}
  0
LINE
  5
750B7
  8
YODOROGO
 10
29617.604341291921
 20
1819.749496429288
 30
0.0
 11
29617.604341291921
 21
1707.749496429288
 31
0.0
1001
AUTOCAD_POSTSCRIPT_FIGURE
1002
{
1000
PSFILL
1000
Grayscale
1000
Grayscale
1070
    25
1002
}
  0
LINE
  5
750B8
  8
YODOROGO
 10
29765.604341291921
 20
1819.749496429288
 30
0.0
 11
29617.604341291921
 21
1819.749496429288
 31
0.0
1001
AUTOCAD_POSTSCRIPT_FIGURE
1002
{
1000
PSFILL
1000
Grayscale
1000
Grayscale
1070
    25
1002
}
  0
LINE
  5
750B9
  8
YODOROGO
 10
29765.604341291921
 20
1859.749496429288
 30
0.0
 11
29765.604341291921
 21
1819.749496429288
 31
0.0
1001
AUTOCAD_POSTSCRIPT_FIGURE
1002
{
1000
PSFILL
1000
Grayscale
1000
Grayscale
1070
    25
1002
}
  0
LINE
  5
750BA
  8
YODOROGO
 10
29617.604341291921
 20
1859.749496429288
 30
0.0
 11
29765.604341291921
 21
1859.749496429288
 31
0.0
1001
AUTOCAD_POSTSCRIPT_FIGURE
1002
{
1000
PSFILL
1000
Grayscale
1000
Grayscale
1070
    25
1002
}
  0
LINE
  5
750BB
  8
YODOROGO
 10
29617.604341291921
 20
1907.7494964292871
 30
0.0
 11
29617.604341291921
 21
1859.749496429288
 31
0.0
1001
AUTOCAD_POSTSCRIPT_FIGURE
1002
{
1000
PSFILL
1000
Grayscale
1000
Grayscale
1070
    25
1002
}
  0
LINE
  5
750BC
  8
YODOROGO
 10
29765.604341291921
 20
1907.7494964292871
 30
0.0
 11
29617.604341291921
 21
1907.7494964292871
 31
0.0
1001
AUTOCAD_POSTSCRIPT_FIGURE
1002
{
1000
PSFILL
1000
Grayscale
1000
Grayscale
1070
    25
1002
}
  0
LINE
  5
750BD
  8
YODOROGO
 10
29765.604341291921
 20
1947.749496429288
 30
0.0
 11
29765.604341291921
 21
1907.7494964292871
 31
0.0
1001
AUTOCAD_POSTSCRIPT_FIGURE
1002
{
1000
PSFILL
1000
Grayscale
1000
Grayscale
1070
    25
1002
}
  0
LINE
  5
750BE
  8
YODOROGO
 10
29617.604341291921
 20
1947.749496429288
 30
0.0
 11
29765.604341291921
 21
1947.749496429288
 31
0.0
1001
AUTOCAD_POSTSCRIPT_FIGURE
1002
{
1000
PSFILL
1000
Grayscale
1000
Grayscale
1070
    25
1002
}
  0
LINE
  5
750BF
  8
YODOROGO
 10
29617.604341291921
 20
2027.749496429288
 30
0.0
 11
29617.604341291921
 21
1947.749496429288
 31
0.0
1001
AUTOCAD_POSTSCRIPT_FIGURE
1002
{
1000
PSFILL
1000
Grayscale
1000
Grayscale
1070
    25
1002
}
  0
LINE
  5
750C0
  8
YODOROGO
 10
29665.604341291921
 20
2027.749496429288
 30
0.0
 11
29617.604341291921
 21
2027.749496429288
 31
0.0
1001
AUTOCAD_POSTSCRIPT_FIGURE
1002
{
1000
PSFILL
1000
Grayscale
1000
Grayscale
1070
    25
1002
}
  0
LINE
  5
750C1
  8
YODOROGO
 10
29665.604341291921
 20
1995.7494964292871
 30
0.0
 11
29665.604341291921
 21
2027.749496429288
 31
0.0
1001
AUTOCAD_POSTSCRIPT_FIGURE
1002
{
1000
PSFILL
1000
Grayscale
1000
Grayscale
1070
    25
1002
}
  0
LINE
  5
750C2
  8
YODOROGO
 10
29765.604341291921
 20
1995.7494964292871
 30
0.0
 11
29665.604341291921
 21
1995.7494964292871
 31
0.0
1001
AUTOCAD_POSTSCRIPT_FIGURE
1002
{
1000
PSFILL
1000
Grayscale
1000
Grayscale
1070
    25
1002
}
  0
LINE
  5
750C3
  8
YODOROGO
 10
29765.604341291921
 20
2027.749496429288
 30
0.0
 11
29765.604341291921
 21
1995.7494964292871
 31
0.0
1001
AUTOCAD_POSTSCRIPT_FIGURE
1002
{
1000
PSFILL
1000
Grayscale
1000
Grayscale
1070
    25
1002
}
  0
LINE
  5
750C4
  8
YODOROGO
 10
29829.604341291921
 20
2027.749496429288
 30
0.0
 11
29765.604341291921
 21
2027.749496429288
 31
0.0
1001
AUTOCAD_POSTSCRIPT_FIGURE
1002
{
1000
PSFILL
1000
Grayscale
1000
Grayscale
1070
    25
1002
}
  0
LINE
  5
750C5
  8
YODOROGO
 10
29829.604341291921
 20
1995.7494964292871
 30
0.0
 11
29829.604341291921
 21
2027.749496429288
 31
0.0
1001
AUTOCAD_POSTSCRIPT_FIGURE
1002
{
1000
PSFILL
1000
Grayscale
1000
Grayscale
1070
    25
1002
}
  0
LINE
  5
750C6
  8
YODOROGO
 10
29829.604341291921
 20
1907.7494964292871
 30
0.0
 11
29829.604341291921
 21
1947.749496429288
 31
0.0
1001
AUTOCAD_POSTSCRIPT_FIGURE
1002
{
1000
PSFILL
1000
Grayscale
1000
Grayscale
1070
    25
1002
}
  0
LINE
  5
750C7
  8
YODOROGO
 10
29829.604341291921
 20
1819.749496429288
 30
0.0
 11
29829.604341291921
 21
1859.749496429288
 31
0.0
1001
AUTOCAD_POSTSCRIPT_FIGURE
1002
{
1000
PSFILL
1000
Grayscale
1000
Grayscale
1070
    25
1002
}
  0
LINE
  5
750C8
  8
YODOROGO
 10
29921.60434129191
 20
1771.749496429288
 30
0.0
 11
29921.60434129191
 21
1707.749496429288
 31
0.0
1001
AUTOCAD_POSTSCRIPT_FIGURE
1002
{
1000
PSFILL
1000
Grayscale
1000
Grayscale
1070
    25
1002
}
  0
LINE
  5
750C9
  8
YODOROGO
 10
29829.604341291921
 20
1771.749496429288
 30
0.0
 11
29921.60434129191
 21
1771.749496429288
 31
0.0
1001
AUTOCAD_POSTSCRIPT_FIGURE
1002
{
1000
PSFILL
1000
Grayscale
1000
Grayscale
1070
    25
1002
}
  0
LINE
  5
750CA
  8
YODOROGO
 10
29829.604341291921
 20
1707.749496429288
 30
0.0
 11
29829.604341291921
 21
1771.749496429288
 31
0.0
1001
AUTOCAD_POSTSCRIPT_FIGURE
1002
{
1000
PSFILL
1000
Grayscale
1000
Grayscale
1070
    25
1002
}
  0
LINE
  5
750CB
  8
YODOROGO
 10
29765.604341291921
 20
1707.749496429288
 30
0.0
 11
29829.604341291921
 21
1707.749496429288
 31
0.0
1001
AUTOCAD_POSTSCRIPT_FIGURE
1002
{
1000
PSFILL
1000
Grayscale
1000
Grayscale
1070
    25
1002
}
  0
LINE
  5
750CC
  8
YODOROGO
 10
29765.604341291921
 20
1771.749496429288
 30
0.0
 11
29765.604341291921
 21
1707.749496429288
 31
0.0
1001
AUTOCAD_POSTSCRIPT_FIGURE
1002
{
1000
PSFILL
1000
Grayscale
1000
Grayscale
1070
    25
1002
}
  0
LINE
  5
750CD
  8
YODOROGO
 10
29673.604341291921
 20
1771.749496429288
 30
0.0
 11
29765.604341291921
 21
1771.749496429288
 31
0.0
1001
AUTOCAD_POSTSCRIPT_FIGURE
1002
{
1000
PSFILL
1000
Grayscale
1000
Grayscale
1070
    25
1002
}
  0
ARC
  5
750CE
  8
YODOROGO
 10
31059.517893357912
 20
1602.6807375155761
 30
0.0
 40
178.22128111072149
 50
281.02627495425361
 51
357.77113575573799
  0
LINE
  5
750CF
  8
YODOROGO
 10
31413.604341291921
 20
1907.7494964292871
 30
0.0
 11
31165.604341291921
 21
1907.7494964292871
 31
0.0
  0
LINE
  5
750D0
  8
YODOROGO
 10
31413.604341291921
 20
2027.749496429288
 30
0.0
 11
31165.604341291921
 21
2027.749496429288
 31
0.0
  0
LINE
  5
750D1
  8
YODOROGO
 10
31165.604341291921
 20
1963.7494964292871
 30
0.0
 11
31413.604341291921
 21
1963.7494964292871
 31
0.0
  0
LINE
  5
750D2
  8
YODOROGO
 10
30791.604341291921
 20
1563.7494964292871
 30
0.0
 11
30791.604341291921
 21
1755.7494964292871
 31
0.0
  0
LINE
  5
750D3
  8
YODOROGO
 10
30763.604341291921
 20
1691.7494964292889
 30
0.0
 11
30763.604341291921
 21
1563.7494964292871
 31
0.0
  0
LINE
  5
750D4
  8
YODOROGO
 10
30723.604341291921
 20
1491.7494964292889
 30
0.0
 11
30723.604341291921
 21
1691.7494964292889
 31
0.0
  0
LINE
  5
750D5
  8
YODOROGO
 10
30899.604341291932
 20
1691.7494964292889
 30
0.0
 11
30899.604341291932
 21
1491.7494964292889
 31
0.0
  0
LINE
  5
750D6
  8
YODOROGO
 10
30859.604341291932
 20
1563.7494964292871
 30
0.0
 11
30859.604341291932
 21
1691.7494964292889
 31
0.0
  0
LINE
  5
750D7
  8
YODOROGO
 10
30831.604341291921
 20
1755.7494964292871
 30
0.0
 11
30831.604341291921
 21
1563.7494964292871
 31
0.0
  0
LINE
  5
750D8
  8
YODOROGO
 10
30973.604341291921
 20
2027.749496429288
 30
0.0
 11
30973.604341291921
 21
1467.749496429288
 31
0.0
  0
LINE
  5
750D9
  8
YODOROGO
 10
30645.604341291921
 20
1427.749496429288
 30
0.0
 11
30645.604341291921
 21
2027.749496429288
 31
0.0
  0
LINE
  5
750DA
  8
YODOROGO
 10
30697.604341291932
 20
1963.7494964292871
 30
0.0
 11
30697.604341291932
 21
1427.749496429288
 31
0.0
  0
LINE
  5
750DB
  8
YODOROGO
 10
30925.604341291921
 20
1547.749496429288
 30
0.0
 11
30925.604341291921
 21
1963.7494964292871
 31
0.0
  0
LINE
  5
750DC
  8
YODOROGO
 10
30381.604341291932
 20
1627.749496429288
 30
0.0
 11
30381.604341291932
 21
1679.749496429288
 31
0.0
  0
LINE
  5
750DD
  8
YODOROGO
 10
30617.604341291921
 20
1679.749496429288
 30
0.0
 11
30617.604341291921
 21
1627.749496429288
 31
0.0
  0
LINE
  5
750DE
  8
YODOROGO
 10
31165.604341291921
 20
1907.7494964292871
 30
0.0
 11
31165.604341291921
 21
1635.7494964292871
 31
0.0
  0
LINE
  5
750DF
  8
YODOROGO
 10
29949.604341291921
 20
1667.749496429288
 30
0.0
 11
29949.604341291921
 21
1707.749496429288
 31
0.0
  0
LINE
  5
750E0
  8
YODOROGO
 10
29949.604341291921
 20
1667.749496429288
 30
0.0
 11
29949.604341291921
 21
1707.749496429288
 31
0.0
  0
ARC
  5
750E1
  8
YODOROGO
 10
30537.604341291921
 20
1507.749496429288
 30
0.0
 40
80.0
 50
270.0
 51
0.0
  0
LINE
  5
750E2
  8
YODOROGO
 10
30569.604341291921
 20
1599.749496429288
 30
0.0
 11
30617.604341291921
 21
1599.749496429288
 31
0.0
  0
LINE
  5
750E3
  8
YODOROGO
 10
30617.604341291921
 20
1627.749496429288
 30
0.0
 11
30529.604341291932
 21
1627.749496429288
 31
0.0
  0
LINE
  5
750E4
  8
YODOROGO
 10
30217.604341291921
 20
1667.749496429288
 30
0.0
 11
29949.604341291921
 21
1667.749496429288
 31
0.0
  0
LINE
  5
750E5
  8
YODOROGO
 10
30217.604341291921
 20
1627.749496429288
 30
0.0
 11
30217.604341291921
 21
1667.749496429288
 31
0.0
  0
LINE
  5
750E6
  8
YODOROGO
 10
30017.604341291921
 20
1627.749496429288
 30
0.0
 11
30217.604341291921
 21
1627.749496429288
 31
0.0
  0
ARC
  5
750E7
  8
YODOROGO
 10
30230.058828701371
 20
1868.8857149529019
 30
0.0
 40
321.37763628522828
 50
228.6181454618993
 51
245.660289248906
  0
LINE
  5
750E8
  8
YODOROGO
 10
30105.604341291921
 20
1603.7494964292889
 30
0.0
 11
30097.604341291961
 21
1576.0728158699001
 31
0.0
  0
LINE
  5
750E9
  8
YODOROGO
 10
30189.604341291921
 20
1603.7494964292889
 30
0.0
 11
30105.604341291921
 21
1603.7494964292889
 31
0.0
  0
LINE
  5
750EA
  8
YODOROGO
 10
30177.604341291921
 20
1551.817722473427
 30
0.0
 11
30189.604341291921
 21
1603.7494964292889
 31
0.0
  0
ARC
  5
750EB
  8
YODOROGO
 10
30230.058828700461
 20
1868.8857149530029
 30
0.0
 40
321.37763628529092
 50
260.60629297969928
 51
267.77903556555862
  0
LINE
  5
750EC
  8
YODOROGO
 10
30217.604341291921
 20
1427.749496429285
 30
0.0
 11
30217.604341291921
 21
1547.749496429288
 31
0.0
  0
LINE
  5
750ED
  8
YODOROGO
 10
29937.604341291932
 20
1481.339334915511
 30
0.0
 11
29937.604341291921
 21
1594.531090531141
 31
0.0
  0
LINE
  5
750EE
  8
YODOROGO
 10
30217.604341291921
 20
1667.749496429288
 30
0.0
 11
29949.604341291921
 21
1667.749496429288
 31
0.0
  0
LINE
  5
750EF
  8
YODOROGO
 10
30217.604341291921
 20
1627.749496429288
 30
0.0
 11
30217.604341291921
 21
1667.749496429288
 31
0.0
  0
LINE
  5
750F0
  8
YODOROGO
 10
30017.604341291921
 20
1627.749496429288
 30
0.0
 11
30217.604341291921
 21
1627.749496429288
 31
0.0
  0
ARC
  5
750F1
  8
YODOROGO
 10
30230.058828701371
 20
1868.8857149529019
 30
0.0
 40
321.37763628522828
 50
228.6181454618993
 51
245.660289248906
  0
LINE
  5
750F2
  8
YODOROGO
 10
30105.604341291921
 20
1603.7494964292889
 30
0.0
 11
30097.604341291961
 21
1576.0728158699001
 31
0.0
  0
LINE
  5
750F3
  8
YODOROGO
 10
30189.604341291921
 20
1603.7494964292889
 30
0.0
 11
30105.604341291921
 21
1603.7494964292889
 31
0.0
  0
LINE
  5
750F4
  8
YODOROGO
 10
30177.604341291921
 20
1551.817722473427
 30
0.0
 11
30189.604341291921
 21
1603.7494964292889
 31
0.0
  0
ARC
  5
750F5
  8
YODOROGO
 10
30230.058828700461
 20
1868.8857149530029
 30
0.0
 40
321.37763628529092
 50
260.60629297969928
 51
267.77903556555862
  0
LINE
  5
750F6
  8
YODOROGO
 10
30217.604341291921
 20
1427.749496429285
 30
0.0
 11
30217.604341291921
 21
1547.749496429288
 31
0.0
  0
LINE
  5
750F7
  8
YODOROGO
 10
29937.604341291932
 20
1481.339334915511
 30
0.0
 11
29937.604341291921
 21
1594.531090531141
 31
0.0
  0
LINE
  5
750F8
  8
YODOROGO
 10
30433.604341291932
 20
1573.7494964292889
 30
0.0
 11
30381.604341291932
 21
1573.7494964292889
 31
0.0
  0
LINE
  5
750F9
  8
YODOROGO
 10
30433.604341291932
 20
1601.749496429286
 30
0.0
 11
30433.604341291932
 21
1573.7494964292889
 31
0.0
  0
LINE
  5
750FA
  8
YODOROGO
 10
30381.604341291932
 20
1601.749496429286
 30
0.0
 11
30433.604341291932
 21
1601.749496429286
 31
0.0
  0
LINE
  5
750FB
  8
YODOROGO
 10
30381.604341291932
 20
1573.7494964292889
 30
0.0
 11
30381.604341291932
 21
1601.749496429286
 31
0.0
  0
LINE
  5
750FC
  8
YODOROGO
 10
30429.604341291921
 20
1577.7494964292871
 30
0.0
 11
30385.604341291932
 21
1577.7494964292871
 31
0.0
  0
LINE
  5
750FD
  8
YODOROGO
 10
30429.604341291921
 20
1597.749496429288
 30
0.0
 11
30429.604341291921
 21
1577.7494964292871
 31
0.0
  0
LINE
  5
750FE
  8
YODOROGO
 10
30385.604341291932
 20
1597.749496429288
 30
0.0
 11
30429.604341291921
 21
1597.749496429288
 31
0.0
  0
LINE
  5
750FF
  8
YODOROGO
 10
30385.604341291932
 20
1577.7494964292871
 30
0.0
 11
30385.604341291932
 21
1597.749496429288
 31
0.0
  0
LINE
  5
75100
  8
YODOROGO
 10
30425.604341291921
 20
1581.749496429286
 30
0.0
 11
30389.604341291932
 21
1581.749496429286
 31
0.0
  0
LINE
  5
75101
  8
YODOROGO
 10
30425.604341291932
 20
1593.7494964292889
 30
0.0
 11
30425.604341291921
 21
1581.749496429286
 31
0.0
  0
LINE
  5
75102
  8
YODOROGO
 10
30389.604341291932
 20
1593.7494964292889
 30
0.0
 11
30425.604341291932
 21
1593.7494964292889
 31
0.0
  0
LINE
  5
75103
  8
YODOROGO
 10
30389.604341291932
 20
1581.749496429286
 30
0.0
 11
30389.604341291932
 21
1593.7494964292889
 31
0.0
  0
LINE
  5
75104
  8
YODOROGO
 10
30421.604341291932
 20
1585.7494964292871
 30
0.0
 11
30393.604341291932
 21
1585.7494964292871
 31
0.0
  0
LINE
  5
75105
  8
YODOROGO
 10
30421.604341291932
 20
1589.749496429288
 30
0.0
 11
30421.604341291932
 21
1585.7494964292871
 31
0.0
  0
LINE
  5
75106
  8
YODOROGO
 10
30393.604341291932
 20
1589.749496429288
 30
0.0
 11
30421.604341291932
 21
1589.749496429288
 31
0.0
  0
LINE
  5
75107
  8
YODOROGO
 10
30393.604341291932
 20
1585.7494964292871
 30
0.0
 11
30393.604341291932
 21
1589.749496429288
 31
0.0
  0
LINE
  5
75108
  8
YODOROGO
 10
30465.604341291921
 20
1627.749496429288
 30
0.0
 11
30381.604341291932
 21
1627.749496429288
 31
0.0
  0
LINE
  5
75109
  8
YODOROGO
 10
30465.604341291921
 20
1547.749496429288
 30
0.0
 11
30465.604341291921
 21
1627.749496429288
 31
0.0
  0
LINE
  5
7510A
  8
YODOROGO
 10
30381.604341291932
 20
1547.749496429288
 30
0.0
 11
30465.604341291921
 21
1547.749496429288
 31
0.0
  0
LINE
  5
7510B
  8
YODOROGO
 10
30381.604341291932
 20
1427.749496429288
 30
0.0
 11
30381.604341291932
 21
1547.749496429288
 31
0.0
  0
LINE
  5
7510C
  8
YODOROGO
 10
30537.604341291921
 20
1427.749496429288
 30
0.0
 11
30381.604341291932
 21
1427.749496429288
 31
0.0
  0
LINE
  5
7510D
  8
YODOROGO
 10
30569.604341291921
 20
1571.749496429286
 30
0.0
 11
30569.604341291921
 21
1599.749496429288
 31
0.0
  0
ARC
  5
7510E
  8
YODOROGO
 10
30545.60434129191
 20
1571.749496429291
 30
0.0
 40
24.000000000003752
 50
270.0
 51
359.99999999998778
  0
LINE
  5
7510F
  8
YODOROGO
 10
30529.604341291932
 20
1547.749496429288
 30
0.0
 11
30545.60434129191
 21
1547.749496429288
 31
0.0
  0
LINE
  5
75110
  8
YODOROGO
 10
30529.604341291932
 20
1627.749496429288
 30
0.0
 11
30529.604341291932
 21
1547.749496429288
 31
0.0
  0
LINE
  5
75111
  8
YODOROGO
 10
30899.604341291932
 20
1547.749496429288
 30
0.0
 11
30925.604341291921
 21
1547.749496429288
 31
0.0
  0
LINE
  5
75112
  8
YODOROGO
 10
30933.604341291921
 20
1427.749496429288
 30
0.0
 11
30899.604341291932
 21
1427.749496429288
 31
0.0
  0
LINE
  5
75113
  8
YODOROGO
 10
30763.604341291921
 20
1563.7494964292871
 30
0.0
 11
30791.604341291921
 21
1563.7494964292871
 31
0.0
  0
LINE
  5
75114
  8
YODOROGO
 10
30899.604341291932
 20
1491.7494964292889
 30
0.0
 11
30723.604341291921
 21
1491.7494964292889
 31
0.0
  0
LINE
  5
75115
  8
YODOROGO
 10
30831.604341291921
 20
1563.7494964292871
 30
0.0
 11
30859.604341291932
 21
1563.7494964292871
 31
0.0
  0
LINE
  5
75116
  8
YODOROGO
 10
30899.604341291932
 20
1427.749496429288
 30
0.0
 11
30899.604341291932
 21
1547.749496429288
 31
0.0
  0
LINE
  5
75117
  8
YODOROGO
 10
30697.604341291932
 20
1427.749496429288
 30
0.0
 11
30645.604341291921
 21
1427.749496429288
 31
0.0
  0
LINE
  5
75118
  8
YODOROGO
 10
30617.604341291921
 20
1599.749496429288
 30
0.0
 11
30617.604341291921
 21
1507.749496429288
 31
0.0
  0
ARC
  5
75119
  8
YODOROGO
 10
30933.604341291921
 20
1467.749496429288
 30
0.0
 40
40.0
 50
270.0
 51
0.0
  0
LINE
  5
7511A
  8
YODOROGO
 10
31093.604341291921
 20
1523.7494964292871
 30
0.0
 11
31093.604341291921
 21
1427.749496429288
 31
0.0
  0
ARC
  5
7511B
  8
YODOROGO
 10
31039.721395566779
 20
1637.5313901097329
 30
0.0
 40
125.8955565916754
 50
295.34052442160112
 51
359.18902303418668
  0
LINE
  5
7511C
  8
YODOROGO
 10
30617.604341291921
 20
1859.749496429288
 30
0.0
 11
30497.604341291921
 21
1939.749496429288
 31
0.0
  0
LINE
  5
7511D
  8
YODOROGO
 10
30497.604341291921
 20
2027.749496429288
 30
0.0
 11
30617.604341291921
 21
1947.749496429288
 31
0.0
  0
LINE
  5
7511E
  8
YODOROGO
 10
30529.604341291932
 20
1679.749496429288
 30
0.0
 11
30617.604341291921
 21
1679.749496429288
 31
0.0
  0
LINE
  5
7511F
  8
YODOROGO
 10
30617.604341291921
 20
1735.7494964292871
 30
0.0
 11
30529.604341291932
 21
1735.7494964292871
 31
0.0
  0
LINE
  5
75120
  8
YODOROGO
 10
30381.604341291932
 20
1795.7494964292871
 30
0.0
 11
30617.604341291921
 21
1795.7494964292871
 31
0.0
  0
LINE
  5
75121
  8
YODOROGO
 10
30081.604341291932
 20
2027.749496429288
 30
0.0
 11
30021.604341291921
 21
2027.749496429288
 31
0.0
  0
LINE
  5
75122
  8
YODOROGO
 10
30081.604341291932
 20
1827.7494964292871
 30
0.0
 11
30081.604341291932
 21
2027.749496429288
 31
0.0
  0
LINE
  5
75123
  8
YODOROGO
 10
30021.604341291921
 20
1827.7494964292871
 30
0.0
 11
30081.604341291932
 21
1827.7494964292871
 31
0.0
  0
LINE
  5
75124
  8
YODOROGO
 10
30021.604341291921
 20
2027.749496429288
 30
0.0
 11
30021.604341291921
 21
1827.7494964292871
 31
0.0
  0
LINE
  5
75125
  8
YODOROGO
 10
30161.604341291932
 20
2027.749496429288
 30
0.0
 11
30217.604341291921
 21
2027.749496429288
 31
0.0
  0
LINE
  5
75126
  8
YODOROGO
 10
30161.604341291932
 20
1811.7494964292889
 30
0.0
 11
30161.604341291932
 21
2027.749496429288
 31
0.0
  0
ARC
  5
75127
  8
YODOROGO
 10
30121.604341291932
 20
1811.7494964292889
 30
0.0
 40
40.0
 50
270.0
 51
0.0
  0
LINE
  5
75128
  8
YODOROGO
 10
30021.604341291921
 20
1771.749496429288
 30
0.0
 11
30121.604341291932
 21
1771.749496429288
 31
0.0
  0
LINE
  5
75129
  8
YODOROGO
 10
30021.604341291921
 20
1707.749496429288
 30
0.0
 11
30021.604341291921
 21
1771.749496429288
 31
0.0
  0
LINE
  5
7512A
  8
YODOROGO
 10
30137.604341291921
 20
1707.749496429288
 30
0.0
 11
30021.604341291921
 21
1707.749496429288
 31
0.0
  0
ARC
  5
7512B
  8
YODOROGO
 10
30137.604341291921
 20
1787.749496429288
 30
0.0
 40
80.0
 50
270.0
 51
0.0
  0
LINE
  5
7512C
  8
YODOROGO
 10
30217.604341291921
 20
2027.749496429288
 30
0.0
 11
30217.604341291921
 21
1787.749496429288
 31
0.0
  0
LINE
  5
7512D
  8
YODOROGO
 10
29977.604341291921
 20
1947.749496429288
 30
0.0
 11
29977.604341291921
 21
1995.7494964292871
 31
0.0
1001
AUTOCAD_POSTSCRIPT_FIGURE
1002
{
1000
PSFILL
1000
Grayscale
1000
Grayscale
1070
    25
1002
}
  0
LINE
  5
7512E
  8
YODOROGO
 10
29977.604341291921
 20
1859.749496429288
 30
0.0
 11
29977.604341291921
 21
1907.7494964292871
 31
0.0
1001
AUTOCAD_POSTSCRIPT_FIGURE
1002
{
1000
PSFILL
1000
Grayscale
1000
Grayscale
1070
    25
1002
}
  0
LINE
  5
7512F
  8
YODOROGO
 10
29977.604341291921
 20
1707.749496429288
 30
0.0
 11
29977.604341291921
 21
1819.749496429288
 31
0.0
1001
AUTOCAD_POSTSCRIPT_FIGURE
1002
{
1000
PSFILL
1000
Grayscale
1000
Grayscale
1070
    25
1002
}
  0
LINE
  5
75130
  8
YODOROGO
 10
30381.604341291932
 20
1907.7494964292871
 30
0.0
 11
30497.604341291921
 21
2027.749496429288
 31
0.0
  0
LINE
  5
75131
  8
YODOROGO
 10
30381.604341291932
 20
1819.749496429288
 30
0.0
 11
30381.604341291932
 21
1907.7494964292871
 31
0.0
  0
LINE
  5
75132
  8
YODOROGO
 10
30497.604341291921
 20
1939.749496429288
 30
0.0
 11
30381.604341291932
 21
1819.749496429288
 31
0.0
  0
LINE
  5
75133
  8
YODOROGO
 10
30465.604341291921
 20
1679.749496429288
 30
0.0
 11
30465.604341291921
 21
1735.7494964292871
 31
0.0
  0
LINE
  5
75134
  8
YODOROGO
 10
30381.604341291932
 20
1679.749496429288
 30
0.0
 11
30465.604341291921
 21
1679.749496429288
 31
0.0
  0
LINE
  5
75135
  8
YODOROGO
 10
30529.604341291932
 20
1735.7494964292871
 30
0.0
 11
30529.604341291932
 21
1679.749496429288
 31
0.0
  0
LINE
  5
75136
  8
YODOROGO
 10
30381.604341291932
 20
1735.7494964292871
 30
0.0
 11
30381.604341291932
 21
1795.7494964292871
 31
0.0
  0
LINE
  5
75137
  8
YODOROGO
 10
30465.604341291921
 20
1735.7494964292871
 30
0.0
 11
30381.604341291932
 21
1735.7494964292871
 31
0.0
  0
LINE
  5
75138
  8
YODOROGO
 10
30645.604341291921
 20
2027.749496429288
 30
0.0
 11
30973.604341291921
 21
2027.749496429288
 31
0.0
  0
LINE
  5
75139
  8
YODOROGO
 10
30925.604341291921
 20
1963.7494964292871
 30
0.0
 11
30697.604341291932
 21
1963.7494964292871
 31
0.0
  0
LINE
  5
7513A
  8
YODOROGO
 10
30873.604341291921
 20
1819.749496429288
 30
0.0
 11
30899.604341291932
 21
1819.749496429288
 31
0.0
  0
LINE
  5
7513B
  8
YODOROGO
 10
30899.604341291932
 20
1939.749496429288
 30
0.0
 11
30873.604341291921
 21
1819.749496429288
 31
0.0
  0
LINE
  5
7513C
  8
YODOROGO
 10
30851.604341291932
 20
1939.749496429288
 30
0.0
 11
30899.604341291932
 21
1939.749496429288
 31
0.0
  0
LINE
  5
7513D
  8
YODOROGO
 10
30825.604341291921
 20
1819.749496429288
 30
0.0
 11
30851.604341291932
 21
1939.749496429288
 31
0.0
  0
LINE
  5
7513E
  8
YODOROGO
 10
30797.604341291921
 20
1819.749496429288
 30
0.0
 11
30825.604341291921
 21
1819.749496429288
 31
0.0
  0
LINE
  5
7513F
  8
YODOROGO
 10
30771.604341291932
 20
1939.749496429288
 30
0.0
 11
30797.604341291921
 21
1819.749496429288
 31
0.0
  0
LINE
  5
75140
  8
YODOROGO
 10
30723.604341291921
 20
1939.749496429288
 30
0.0
 11
30771.604341291932
 21
1939.749496429288
 31
0.0
  0
LINE
  5
75141
  8
YODOROGO
 10
30749.604341291921
 20
1819.749496429288
 30
0.0
 11
30723.604341291921
 21
1939.749496429288
 31
0.0
  0
LINE
  5
75142
  8
YODOROGO
 10
30723.604341291921
 20
1819.749496429288
 30
0.0
 11
30749.604341291921
 21
1819.749496429288
 31
0.0
  0
LINE
  5
75143
  8
YODOROGO
 10
30723.604341291921
 20
1755.7494964292871
 30
0.0
 11
30723.604341291921
 21
1819.749496429288
 31
0.0
  0
LINE
  5
75144
  8
YODOROGO
 10
30899.604341291932
 20
1755.7494964292871
 30
0.0
 11
30723.604341291921
 21
1755.7494964292871
 31
0.0
  0
LINE
  5
75145
  8
YODOROGO
 10
30899.604341291932
 20
1819.749496429288
 30
0.0
 11
30899.604341291932
 21
1755.7494964292871
 31
0.0
  0
LINE
  5
75146
  8
YODOROGO
 10
30617.604341291921
 20
1947.749496429288
 30
0.0
 11
30617.604341291921
 21
1859.749496429288
 31
0.0
  0
LINE
  5
75147
  8
YODOROGO
 10
30791.604341291921
 20
1755.7494964292871
 30
0.0
 11
30831.604341291921
 21
1755.7494964292871
 31
0.0
  0
LINE
  5
75148
  8
YODOROGO
 10
30723.604341291921
 20
1691.7494964292889
 30
0.0
 11
30763.604341291921
 21
1691.7494964292889
 31
0.0
  0
LINE
  5
75149
  8
YODOROGO
 10
30859.604341291932
 20
1691.7494964292889
 30
0.0
 11
30899.604341291932
 21
1691.7494964292889
 31
0.0
  0
LINE
  5
7514A
  8
YODOROGO
 10
30617.604341291921
 20
1795.7494964292871
 30
0.0
 11
30617.604341291921
 21
1735.7494964292871
 31
0.0
  0
LINE
  5
7514B
  8
YODOROGO
 10
31165.604341291921
 20
2027.749496429288
 30
0.0
 11
31165.604341291921
 21
1963.7494964292871
 31
0.0
  0
LINE
  5
7514C
  8
YODOROGO
 10
31533.604341291921
 20
1595.7494964292871
 30
0.0
 11
31533.60434129191
 21
1811.7494964292889
 31
0.0
  0
LINE
  5
7514D
  8
YODOROGO
 10
31461.60434129191
 20
1987.749496429288
 30
0.0
 11
31461.60434129191
 21
1635.7494964292871
 31
0.0
  0
LINE
  5
7514E
  8
YODOROGO
 10
31653.604341291921
 20
1427.749496429288
 30
0.0
 11
31653.60434129191
 21
1811.7494964292889
 31
0.0
  0
LINE
  5
7514F
  8
YODOROGO
 10
31589.604341291921
 20
1811.7494964292889
 30
0.0
 11
31589.604341291921
 21
1427.749496429288
 31
0.0
  0
LINE
  5
75150
  8
YODOROGO
 10
31237.604341291921
 20
1595.7494964292871
 30
0.0
 11
31237.604341291921
 21
1707.749496429288
 31
0.0
  0
ARC
  5
75151
  8
YODOROGO
 10
31353.914865116069
 20
1607.790351288558
 30
0.0
 40
180.09244857598861
 50
268.62849102169793
 51
356.16638457330322
  0
LINE
  5
75152
  8
YODOROGO
 10
31349.604341291932
 20
1527.749496429288
 30
0.0
 11
31349.604341291932
 21
1427.749496429288
 31
0.0
  0
ARC
  5
75153
  8
YODOROGO
 10
31351.518075724562
 20
1637.838957017655
 30
0.0
 40
110.1060929836122
 50
269.00410209305937
 51
358.91264455492478
  0
LINE
  5
75154
  8
YODOROGO
 10
31589.604341291921
 20
1427.749496429288
 30
0.0
 11
31653.604341291921
 21
1427.749496429288
 31
0.0
  0
LINE
  5
75155
  8
YODOROGO
 10
31533.60434129191
 20
1811.7494964292889
 30
0.0
 11
31589.604341291921
 21
1811.7494964292889
 31
0.0
  0
LINE
  5
75156
  8
YODOROGO
 10
31621.604341291932
 20
1987.749496429288
 30
0.0
 11
31461.60434129191
 21
1987.749496429288
 31
0.0
  0
LINE
  5
75157
  8
YODOROGO
 10
31533.60434129191
 20
1915.7494964292871
 30
0.0
 11
31661.604341291932
 21
1915.7494964292871
 31
0.0
  0
LINE
  5
75158
  8
YODOROGO
 10
31701.604341291932
 20
1875.7494964292871
 30
0.0
 11
31533.60434129191
 21
1875.7494964292871
 31
0.0
  0
LINE
  5
75159
  8
YODOROGO
 10
31237.604341291921
 20
1779.749496429288
 30
0.0
 11
31349.604341291932
 21
1779.749496429288
 31
0.0
  0
LINE
  5
7515A
  8
YODOROGO
 10
31237.604341291921
 20
1835.7494964292871
 30
0.0
 11
31237.604341291921
 21
1779.749496429288
 31
0.0
  0
LINE
  5
7515B
  8
YODOROGO
 10
31349.604341291932
 20
1835.7494964292871
 30
0.0
 11
31237.604341291921
 21
1835.7494964292871
 31
0.0
  0
LINE
  5
7515C
  8
YODOROGO
 10
31349.604341291932
 20
1779.749496429288
 30
0.0
 11
31349.604341291932
 21
1835.7494964292871
 31
0.0
  0
LINE
  5
7515D
  8
YODOROGO
 10
31533.60434129191
 20
1875.7494964292871
 30
0.0
 11
31533.60434129191
 21
1915.7494964292871
 31
0.0
  0
LINE
  5
7515E
  8
YODOROGO
 10
31413.604341291921
 20
1707.749496429288
 30
0.0
 11
31413.604341291921
 21
1907.7494964292871
 31
0.0
  0
LINE
  5
7515F
  8
YODOROGO
 10
31237.604341291921
 20
1707.749496429288
 30
0.0
 11
31413.604341291921
 21
1707.749496429288
 31
0.0
  0
LINE
  5
75160
  8
YODOROGO
 10
31413.604341291921
 20
1963.7494964292871
 30
0.0
 11
31413.604341291921
 21
2027.749496429288
 31
0.0
  0
ARC
  5
75161
  8
YODOROGO
 10
31621.604341291932
 20
2003.749496429285
 30
0.0
 40
15.999999999994539
 50
270.0
 51
0.0000000000081422
  0
LINE
  5
75162
  8
YODOROGO
 10
31637.604341291921
 20
2027.749496429288
 30
0.0
 11
31637.604341291921
 21
2003.7494964292871
 31
0.0
  0
LINE
  5
75163
  8
YODOROGO
 10
31701.604341291932
 20
2027.749496429288
 30
0.0
 11
31637.604341291921
 21
2027.749496429288
 31
0.0
  0
LINE
  5
75164
  8
YODOROGO
 10
31701.604341291932
 20
1955.7494964292871
 30
0.0
 11
31701.604341291932
 21
2027.749496429288
 31
0.0
  0
ARC
  5
75165
  8
YODOROGO
 10
31661.604341291932
 20
1955.7494964292871
 30
0.0
 40
40.0
 50
270.0
 51
0.0
  0
LINE
  5
75166
  8
YODOROGO
 10
31701.604341291932
 20
1811.7494964292889
 30
0.0
 11
31701.604341291932
 21
1875.7494964292871
 31
0.0
  0
LINE
  5
75167
  8
YODOROGO
 10
31653.60434129191
 20
1811.7494964292889
 30
0.0
 11
31701.604341291932
 21
1811.7494964292889
 31
0.0
  0
LINE
  5
75168
  8
SUNPOU
 10
18258.499999999949
 20
15838.12150036126
 30
0.0
 11
18258.499999999949
 21
15038.12150036126
 31
0.0
  0
LINE
  5
75169
  8
SUNPOU
 10
20973.500000000011
 20
15838.12150036126
 30
0.0
 11
20973.500000000011
 21
15038.12150036126
 31
0.0
  0
LINE
  5
7516A
  8
SUNPOU
 10
18298.499999999949
 20
15118.12150036126
 30
0.0
 11
20933.500000000011
 21
15118.12150036126
 31
0.0
  0
LINE
  5
7516F
  8
SUNPOU
 10
17857.999999999982
 20
15518.121500361291
 30
0.0
 11
17827.999999999982
 21
15518.121500361291
 31
0.0
  0
LINE
  5
75171
  8
SUNPOU
 10
12751.99999999998
 20
15518.121500361291
 30
0.0
 11
12781.99999999998
 21
15518.121500361291
 31
0.0
  0
LINE
  5
75173
  8
SUNPOU
 10
11291.00000000002
 20
19568.121500361289
 30
0.0
 11
11291.00000000002
 21
19538.121500361289
 31
0.0
  0
LINE
  5
75175
  8
SUNPOU
 10
11691.00000000002
 20
18958.121500361289
 30
0.0
 11
11691.00000000002
 21
18928.121500361289
 31
0.0
  0
LINE
  5
75177
  8
SUNPOU
 10
11691.00000000002
 20
16348.121500361291
 30
0.0
 11
11691.00000000002
 21
16378.121500361291
 31
0.0
  0
LINE
  5
75179
  8
SUNPOU
 10
11291.00000000002
 20
16348.121500361291
 30
0.0
 11
11291.00000000002
 21
16378.121500361291
 31
0.0
  0
LINE
  5
7517B
  8
SUNPOU
 10
21146.000000000018
 20
20798.121500361289
 30
0.0
 11
21116.000000000018
 21
20798.121500361289
 31
0.0
  0
LINE
  5
7517D
  8
SUNPOU
 10
21226.000000000018
 20
20398.121500361289
 30
0.0
 11
21256.000000000018
 21
20398.121500361289
 31
0.0
  0
LINE
  5
7517F
  8
SUNPOU
 10
21111.000000000011
 20
20398.121500361289
 30
0.0
 11
21081.000000000011
 21
20398.121500361289
 31
0.0
  0
LINE
  5
75181
  8
SUNPOU
 10
20880.000000000051
 20
15518.121500361291
 30
0.0
 11
20850.000000000051
 21
15518.121500361291
 31
0.0
  0
LINE
  5
75183
  8
SUNPOU
 10
21111.000000000011
 20
14318.121500361291
 30
0.0
 11
21081.000000000011
 21
14318.121500361291
 31
0.0
  0
LINE
  5
75185
  8
SUNPOU
 10
20986.000000000011
 20
14718.121500361291
 30
0.0
 11
20956.000000000011
 21
14718.121500361291
 31
0.0
  0
LINE
  5
75187
  8
SUNPOU
 10
20986.000000000011
 20
14718.121500361291
 30
0.0
 11
20956.000000000011
 21
14718.121500361291
 31
0.0
  0
LINE
  5
75189
  8
SUNPOU
 10
21046.000000000011
 20
14718.121500361291
 30
0.0
 11
21076.000000000011
 21
14718.121500361291
 31
0.0
  0
LINE
  5
7518B
  8
SUNPOU
 10
21111.000000000011
 20
14718.121500361291
 30
0.0
 11
21081.000000000011
 21
14718.121500361291
 31
0.0
  0
LINE
  5
7518D
  8
SUNPOU
 10
18352.000000000018
 20
15518.121500361291
 30
0.0
 11
18382.000000000018
 21
15518.121500361291
 31
0.0
  0
LINE
  5
7518F
  8
SUNPOU
 10
18186.000000000011
 20
14718.121500361291
 30
0.0
 11
18156.0
 21
14718.121500361291
 31
0.0
  0
LINE
  5
75191
  8
SUNPOU
 10
18186.000000000011
 20
14718.121500361291
 30
0.0
 11
18156.0
 21
14718.121500361291
 31
0.0
  0
LINE
  5
75193
  8
SUNPOU
 10
18246.000000000011
 20
14718.121500361291
 30
0.0
 11
18276.000000000011
 21
14718.121500361291
 31
0.0
  0
LINE
  5
75195
  8
SUNPOU
 10
12486.00000000002
 20
20798.121500361289
 30
0.0
 11
12516.00000000002
 21
20798.121500361289
 31
0.0
  0
LINE
  5
75197
  8
SUNPOU
 10
12406.00000000002
 20
20398.121500361289
 30
0.0
 11
12376.00000000002
 21
20398.121500361289
 31
0.0
  0
LINE
  5
75199
  8
SUNPOU
 10
12521.00000000002
 20
20398.121500361289
 30
0.0
 11
12551.00000000002
 21
20398.121500361289
 31
0.0
  0
LINE
  5
7519B
  8
SUNPOU
 10
15446.000000000009
 20
14718.121500361291
 30
0.0
 11
15476.0
 21
14718.121500361291
 31
0.0
  0
LINE
  5
7519D
  8
SUNPOU
 10
15386.000000000009
 20
14718.121500361291
 30
0.0
 11
15356.0
 21
14718.121500361291
 31
0.0
  0
LINE
  5
7519F
  8
SUNPOU
 10
12521.00000000002
 20
14318.121500361291
 30
0.0
 11
12551.00000000002
 21
14318.121500361291
 31
0.0
  0
LINE
  5
751A1
  8
SUNPOU
 10
12586.00000000002
 20
14718.121500361291
 30
0.0
 11
12556.00000000002
 21
14718.121500361291
 31
0.0
  0
LINE
  5
751A3
  8
SUNPOU
 10
12646.00000000002
 20
14718.121500361291
 30
0.0
 11
12676.00000000002
 21
14718.121500361291
 31
0.0
  0
LINE
  5
751A5
  8
SUNPOU
 10
12521.000000000009
 20
14718.121500361291
 30
0.0
 11
12551.0
 21
14718.121500361291
 31
0.0
  0
LINE
  5
751A6
  8
SUNPOU
 10
19859.99999999996
 20
6385.2917521017807
 30
0.0
 11
21121.3871066635
 21
6385.2917521017807
 31
0.0
  0
LINE
  5
751A7
  8
SUNPOU
 10
19691.999999999902
 20
8960.2917521018098
 30
0.0
 11
21121.387106663511
 21
8960.291752101808
 31
0.0
  0
LINE
  5
751A8
  8
SUNPOU
 10
21041.3871066635
 20
6425.2917521017807
 30
0.0
 11
21041.387106663511
 21
8920.2917521018098
 31
0.0
  0
LINE
  5
751AC
  8
SUNPOU
 10
16954.268210725349
 20
9372.2466996605654
 30
0.0
 11
18694.503844154959
 21
9372.2466996605654
 31
0.0
  0
LINE
  5
751AD
  8
SUNPOU
 10
17015.99999999996
 20
6385.2917521017807
 30
0.0
 11
18694.503844154951
 21
6385.2917521017798
 31
0.0
  0
LINE
  5
751AE
  8
SUNPOU
 10
18614.503844154959
 20
9332.2466996605654
 30
0.0
 11
18614.503844154951
 21
6425.2917521017789
 31
0.0
  0
LINE
  5
751B2
  8
SUNPOU
 10
16861.733969015349
 20
9452.5517371573824
 30
0.0
 11
16888.143873135868
 21
10623.60767065666
 31
0.0
  0
LINE
  5
751B3
  8
SUNPOU
 10
22670.280187468739
 20
9321.5561593026396
 30
0.0
 11
22696.690091589258
 21
10492.612092801921
 31
0.0
  0
LINE
  5
751B4
  8
SUNPOU
 10
16926.329986469609
 20
10542.72614774529
 30
0.0
 11
22654.896541260408
 21
10413.5342883881
 31
0.0
  0
LINE
  5
751B8
  8
SUNPOU
 10
22748.476468971188
 20
9241.5764956400435
 30
0.0
 11
23292.44287204343
 21
9241.5764956400435
 31
0.0
  0
LINE
  5
751B9
  8
SUNPOU
 10
17015.99999999996
 20
6385.2917521017807
 30
0.0
 11
23292.442872043419
 21
6385.2917521017789
 31
0.0
  0
LINE
  5
751BA
  8
SUNPOU
 10
23212.44287204343
 20
9201.5764956400453
 30
0.0
 11
23212.442872043419
 21
6425.2917521017789
 31
0.0
  0
LINE
  5
751BE
  8
SUNPOU
 10
22358.49999999996
 20
5405.2917521017807
 30
0.0
 11
22358.49999999996
 21
4605.2917521017807
 31
0.0
  0
LINE
  5
751BF
  8
SUNPOU
 10
16858.499999999949
 20
6305.291752101788
 30
0.0
 11
16858.499999999949
 21
4605.2917521017807
 31
0.0
  0
LINE
  5
751C0
  8
SUNPOU
 10
22318.49999999996
 20
4685.2917521017807
 30
0.0
 11
16898.499999999949
 21
4685.2917521017807
 31
0.0
  0
LINE
  5
751C4
  8
SUNPOU
 10
11190.499999999951
 20
6305.291752101788
 30
0.0
 11
11190.499999999951
 21
4605.2917521017807
 31
0.0
  0
LINE
  5
751C5
  8
SUNPOU
 10
16858.499999999949
 20
6305.291752101788
 30
0.0
 11
16858.499999999949
 21
4605.2917521017807
 31
0.0
  0
LINE
  5
751C6
  8
SUNPOU
 10
11230.499999999951
 20
4685.2917521017807
 30
0.0
 11
16818.499999999949
 21
4685.2917521017807
 31
0.0
  0
LINE
  5
751CB
  8
SUNPOU
 10
10849.797785384881
 20
10343.707466321061
 30
0.0
 11
10879.696644633539
 21
10346.168810593699
 31
0.0
  0
LINE
  5
751CD
  8
SUNPOU
 10
17106.632397489058
 20
10858.78477777578
 30
0.0
 11
17076.733538240391
 21
10856.323433503139
 31
0.0
  0
LINE
  5
751CF
  8
SUNPOU
 10
18049.753093279211
 20
9635.2917521017825
 30
0.0
 11
18049.753093279211
 21
9605.2917521017807
 31
0.0
  0
LINE
  5
751D1
  8
SUNPOU
 10
18049.753093279211
 20
6415.2917521017807
 30
0.0
 11
18049.753093279211
 21
6445.2917521017798
 31
0.0
  0
LINE
  5
751D3
  8
SUNPOU
 10
10118.35269704189
 20
9115.2917521017807
 30
0.0
 11
10118.35269704189
 21
9085.2917521017807
 31
0.0
  0
LINE
  5
751D5
  8
SUNPOU
 10
10118.35269704189
 20
6415.2917521017807
 30
0.0
 11
10118.35269704189
 21
6445.2917521017798
 31
0.0
  0
LINE
  5
751D6
  8
SUNPOU
 10
21256.000000000018
 20
19174.40624389955
 30
0.0
 11
23622.205422612878
 21
19174.40624389955
 31
0.0
  0
LINE
  5
751D7
  8
SUNPOU
 10
21221.000000000018
 20
16318.121500361291
 30
0.0
 11
23622.205422612878
 21
16318.121500361291
 31
0.0
  0
LINE
  5
751D8
  8
SUNPOU
 10
23542.205422612878
 20
19134.40624389955
 30
0.0
 11
23542.205422612878
 21
16358.121500361291
 31
0.0
  0
LINE
  5
751DC
  8
SUNPOU
 10
21221.000000000018
 20
16318.121500361291
 30
0.0
 11
22482.387106663569
 21
16318.121500361291
 31
0.0
  0
LINE
  5
751DD
  8
SUNPOU
 10
21052.999999999971
 20
18893.121500361322
 30
0.0
 11
22482.387106663569
 21
18893.121500361322
 31
0.0
  0
LINE
  5
751DE
  8
SUNPOU
 10
22402.387106663569
 20
16358.121500361291
 30
0.0
 11
22402.387106663569
 21
18853.121500361322
 31
0.0
  0
LINE
  5
751E2
  8
SUNPOU
 10
12658.500000000049
 20
15838.121500361291
 30
0.0
 11
12658.500000000049
 21
15038.121500361291
 31
0.0
  0
LINE
  5
751E3
  8
SUNPOU
 10
18173.500000000018
 20
15838.12150036126
 30
0.0
 11
18173.500000000018
 21
15038.121500361291
 31
0.0
  0
LINE
  5
751E4
  8
SUNPOU
 10
12698.500000000049
 20
15118.121500361291
 30
0.0
 11
18133.500000000018
 21
15118.121500361291
 31
0.0
  0
ARC
  5
751E8
  8
SUNPOU
 10
18216.0
 20
14718.121500361291
 30
0.0
 40
15.0
 50
180.0
 51
0.0
  0
ARC
  5
751E9
  8
SUNPOU
 10
18216.0
 20
14718.121500361291
 30
0.0
 40
15.0
 50
0.0
 51
180.0
  0
ARC
  5
751EA
  8
SUNPOU
 10
21141.000000000011
 20
14718.121500361291
 30
0.0
 40
15.0
 50
0.0
 51
180.0
  0
ARC
  5
751EB
  8
SUNPOU
 10
21141.000000000011
 20
14718.121500361291
 30
0.0
 40
15.0
 50
180.0
 51
0.0
  0
ARC
  5
751EC
  8
SUNPOU
 10
21016.000000000011
 20
14718.121500361291
 30
0.0
 40
15.0
 50
180.0
 51
0.0
  0
ARC
  5
751ED
  8
SUNPOU
 10
21016.000000000011
 20
14718.121500361291
 30
0.0
 40
15.0
 50
0.0
 51
180.0
  0
ARC
  5
751EE
  8
SUNPOU
 10
21196.000000000018
 20
20398.121500361289
 30
0.0
 40
15.0
 50
180.0
 51
0.0
  0
ARC
  5
751EF
  8
SUNPOU
 10
21196.000000000018
 20
20398.121500361289
 30
0.0
 40
15.0
 50
0.0
 51
180.0
  0
TEXT
  5
751F0
  8
SUNPOU
 10
20075.806227581899
 20
15198.12150036126
 30
0.0
 40
160.0
  1
2715
 41
0.6666666666666666
  7
00
  0
LINE
  5
751F2
  8
SUNPOU
 10
20943.500000000011
 20
15118.12150036126
 30
0.0
 11
20913.500000000011
 21
15118.12150036126
 31
0.0
  0
LINE
  5
751F4
  8
SUNPOU
 10
18288.499999999949
 20
15118.12150036126
 30
0.0
 11
18318.499999999949
 21
15118.12150036126
 31
0.0
  0
ARC
  5
751F5
  8
SUNPOU
 10
17887.999999999982
 20
15518.121500361291
 30
0.0
 40
15.0
 50
180.0
 51
0.0
  0
ARC
  5
751F6
  8
SUNPOU
 10
17887.999999999982
 20
15518.121500361291
 30
0.0
 40
15.0
 50
0.0
 51
180.0
  0
ARC
  5
751F7
  8
SUNPOU
 10
12721.999999999971
 20
15518.121500361291
 30
0.0
 40
15.0
 50
0.0
 51
180.0
  0
ARC
  5
751F8
  8
SUNPOU
 10
12721.999999999971
 20
15518.121500361291
 30
0.0
 40
15.0
 50
180.0
 51
0.0
  0
ARC
  5
751F9
  8
SUNPOU
 10
11291.00000000002
 20
19598.121500361289
 30
0.0
 40
15.0
 50
270.0
 51
90.0
  0
ARC
  5
751FA
  8
SUNPOU
 10
11291.00000000002
 20
19598.121500361289
 30
0.0
 40
15.0
 50
90.0
 51
270.0
  0
ARC
  5
751FB
  8
SUNPOU
 10
11691.00000000002
 20
18988.121500361289
 30
0.0
 40
15.0
 50
270.0
 51
90.0
  0
ARC
  5
751FC
  8
SUNPOU
 10
11691.00000000002
 20
18988.121500361289
 30
0.0
 40
15.0
 50
90.0
 51
270.0
  0
ARC
  5
751FD
  8
SUNPOU
 10
11691.00000000002
 20
16318.121500361291
 30
0.0
 40
15.0
 50
90.0
 51
270.0
  0
ARC
  5
751FE
  8
SUNPOU
 10
11691.00000000002
 20
16318.121500361291
 30
0.0
 40
15.0
 50
270.0
 51
90.0
  0
ARC
  5
751FF
  8
SUNPOU
 10
11291.00000000002
 20
16318.121500361291
 30
0.0
 40
15.0
 50
90.0
 51
270.0
  0
ARC
  5
75200
  8
SUNPOU
 10
11291.00000000002
 20
16318.121500361291
 30
0.0
 40
15.0
 50
270.0
 51
90.0
  0
ARC
  5
75201
  8
SUNPOU
 10
21176.000000000018
 20
20798.121500361289
 30
0.0
 40
15.0
 50
180.0
 51
0.0
  0
ARC
  5
75202
  8
SUNPOU
 10
21176.000000000018
 20
20798.121500361289
 30
0.0
 40
15.0
 50
0.0
 51
180.0
  0
ARC
  5
75203
  8
SUNPOU
 10
21141.000000000011
 20
20398.121500361289
 30
0.0
 40
15.0
 50
180.0
 51
0.0
  0
ARC
  5
75204
  8
SUNPOU
 10
21141.000000000011
 20
20398.121500361289
 30
0.0
 40
15.0
 50
0.0
 51
180.0
  0
ARC
  5
75205
  8
SUNPOU
 10
20910.000000000051
 20
15518.121500361291
 30
0.0
 40
15.0
 50
180.0
 51
0.0
  0
ARC
  5
75206
  8
SUNPOU
 10
20910.000000000051
 20
15518.121500361291
 30
0.0
 40
15.0
 50
0.0
 51
180.0
  0
ARC
  5
75207
  8
SUNPOU
 10
21141.000000000011
 20
14318.121500361291
 30
0.0
 40
15.0
 50
180.0
 51
0.0
  0
ARC
  5
75208
  8
SUNPOU
 10
21141.000000000011
 20
14318.121500361291
 30
0.0
 40
15.0
 50
0.0
 51
180.0
  0
ARC
  5
75209
  8
SUNPOU
 10
21016.000000000011
 20
14718.121500361291
 30
0.0
 40
15.0
 50
180.0
 51
0.0
  0
ARC
  5
7520A
  8
SUNPOU
 10
21016.000000000011
 20
14718.121500361291
 30
0.0
 40
15.0
 50
0.0
 51
180.0
  0
ARC
  5
7520B
  8
SUNPOU
 10
21016.000000000011
 20
14718.121500361291
 30
0.0
 40
15.0
 50
180.0
 51
0.0
  0
ARC
  5
7520C
  8
SUNPOU
 10
21016.000000000011
 20
14718.121500361291
 30
0.0
 40
15.0
 50
0.0
 51
180.0
  0
ARC
  5
7520D
  8
SUNPOU
 10
18322.000000000018
 20
15518.121500361291
 30
0.0
 40
15.0
 50
0.0
 51
180.0
  0
ARC
  5
7520E
  8
SUNPOU
 10
18322.000000000018
 20
15518.121500361291
 30
0.0
 40
15.0
 50
180.0
 51
0.0
  0
ARC
  5
7520F
  8
SUNPOU
 10
18216.0
 20
14718.121500361291
 30
0.0
 40
15.0
 50
180.0
 51
0.0
  0
ARC
  5
75210
  8
SUNPOU
 10
18216.0
 20
14718.121500361291
 30
0.0
 40
15.0
 50
0.0
 51
180.0
  0
ARC
  5
75211
  8
SUNPOU
 10
18216.0
 20
14718.121500361291
 30
0.0
 40
15.0
 50
180.0
 51
0.0
  0
ARC
  5
75212
  8
SUNPOU
 10
18216.0
 20
14718.121500361291
 30
0.0
 40
15.0
 50
0.0
 51
180.0
  0
ARC
  5
75213
  8
SUNPOU
 10
12456.00000000002
 20
20798.121500361289
 30
0.0
 40
15.0
 50
0.0
 51
180.0
  0
ARC
  5
75214
  8
SUNPOU
 10
12456.00000000002
 20
20798.121500361289
 30
0.0
 40
15.0
 50
180.0
 51
0.0
  0
ARC
  5
75215
  8
SUNPOU
 10
12436.00000000002
 20
20398.121500361289
 30
0.0
 40
15.0
 50
180.0
 51
0.0
  0
ARC
  5
75216
  8
SUNPOU
 10
12436.00000000002
 20
20398.121500361289
 30
0.0
 40
15.0
 50
0.0
 51
180.0
  0
ARC
  5
75217
  8
SUNPOU
 10
12491.00000000002
 20
20398.121500361289
 30
0.0
 40
15.0
 50
0.0
 51
180.0
  0
ARC
  5
75218
  8
SUNPOU
 10
12491.00000000002
 20
20398.121500361289
 30
0.0
 40
15.0
 50
180.0
 51
0.0
  0
ARC
  5
75219
  8
SUNPOU
 10
15416.0
 20
14718.121500361291
 30
0.0
 40
15.0
 50
0.0
 51
180.0
  0
ARC
  5
7521A
  8
SUNPOU
 10
15416.0
 20
14718.121500361291
 30
0.0
 40
15.0
 50
180.0
 51
0.0
  0
ARC
  5
7521B
  8
SUNPOU
 10
15416.0
 20
14718.121500361291
 30
0.0
 40
15.0
 50
180.0
 51
0.0
  0
ARC
  5
7521C
  8
SUNPOU
 10
15416.0
 20
14718.121500361291
 30
0.0
 40
15.0
 50
0.0
 51
180.0
  0
ARC
  5
7521D
  8
SUNPOU
 10
12491.00000000002
 20
14318.121500361291
 30
0.0
 40
15.0
 50
0.0
 51
180.0
  0
ARC
  5
7521E
  8
SUNPOU
 10
12491.00000000002
 20
14318.121500361291
 30
0.0
 40
15.0
 50
180.0
 51
0.0
  0
ARC
  5
7521F
  8
SUNPOU
 10
12616.00000000002
 20
14718.121500361291
 30
0.0
 40
15.0
 50
180.0
 51
0.0
  0
ARC
  5
75220
  8
SUNPOU
 10
12616.00000000002
 20
14718.121500361291
 30
0.0
 40
15.0
 50
0.0
 51
180.0
  0
ARC
  5
75221
  8
SUNPOU
 10
12616.00000000002
 20
14718.121500361291
 30
0.0
 40
15.0
 50
0.0
 51
180.0
  0
ARC
  5
75222
  8
SUNPOU
 10
12616.00000000002
 20
14718.121500361291
 30
0.0
 40
15.0
 50
180.0
 51
0.0
  0
ARC
  5
75223
  8
SUNPOU
 10
12491.0
 20
14718.121500361291
 30
0.0
 40
15.0
 50
0.0
 51
180.0
  0
ARC
  5
75224
  8
SUNPOU
 10
12491.0
 20
14718.121500361291
 30
0.0
 40
15.0
 50
180.0
 51
0.0
  0
TEXT
  5
75225
  8
SUNPOU
 10
20961.3871066635
 20
8409.9276283597774
 30
0.0
 40
160.0
  1
2575
 50
90.0
 41
0.6666666666666666
  7
00
  0
LINE
  5
75227
  8
SUNPOU
 10
21041.387106663511
 20
8930.291752101808
 30
0.0
 11
21041.387106663511
 21
8900.2917521018062
 31
0.0
  0
LINE
  5
75229
  8
SUNPOU
 10
21041.3871066635
 20
6415.2917521017807
 30
0.0
 11
21041.3871066635
 21
6445.2917521017798
 31
0.0
  0
TEXT
  5
7522A
  8
SUNPOU
 10
18534.503844154951
 20
7675.5946227065724
 30
0.0
 40
160.0
  1
2987
 50
90.0
 41
0.6666666666666666
  7
00
  0
LINE
  5
7522C
  8
SUNPOU
 10
18614.503844154951
 20
6415.2917521017789
 30
0.0
 11
18614.503844154951
 21
6445.2917521017798
 31
0.0
  0
LINE
  5
7522E
  8
SUNPOU
 10
18614.503844154959
 20
9342.2466996605654
 30
0.0
 11
18614.503844154959
 21
9312.2466996605654
 31
0.0
  0
TEXT
  5
7522F
  8
SUNPOU
 10
19589.294027028991
 20
10562.69075410402
 30
0.0
 40
160.0
  1
5810
 50
358.70807231024628
 41
0.6666666666666666
  7
00
  0
LINE
  5
75231
  8
SUNPOU
 10
22664.893999218239
 20
10413.308823575901
 30
0.0
 11
22634.901625344759
 21
10413.985218012491
 31
0.0
  0
LINE
  5
75233
  8
SUNPOU
 10
16916.33252851179
 20
10542.95161255749
 30
0.0
 11
16946.324902385259
 21
10542.2752181209
 31
0.0
  0
TEXT
  5
75234
  8
SUNPOU
 10
23132.442872043419
 20
7610.2595206963133
 30
0.0
 40
160.0
  1
2856
 50
90.0
 41
0.6666666666666666
  7
00
  0
LINE
  5
75236
  8
SUNPOU
 10
23212.442872043419
 20
6415.291752101778
 30
0.0
 11
23212.442872043419
 21
6445.2917521017798
 31
0.0
  0
LINE
  5
75238
  8
SUNPOU
 10
23212.44287204343
 20
9211.5764956400453
 30
0.0
 11
23212.44287204343
 21
9181.5764956400453
 31
0.0
  0
TEXT
  5
75239
  8
SUNPOU
 10
19405.325396825348
 20
4765.2917521017798
 30
0.0
 40
160.0
  1
5500
 41
0.6666666666666666
  7
00
  0
LINE
  5
7523B
  8
SUNPOU
 10
16888.499999999949
 20
4685.2917521017807
 30
0.0
 11
16918.499999999949
 21
4685.2917521017807
 31
0.0
  0
LINE
  5
7523D
  8
SUNPOU
 10
22328.49999999996
 20
4685.2917521017807
 30
0.0
 11
22298.49999999996
 21
4685.2917521017807
 31
0.0
  0
TEXT
  5
7523E
  8
SUNPOU
 10
13821.32539682535
 20
4765.2917521017798
 30
0.0
 40
160.0
  1
5668
 41
0.6666666666666666
  7
00
  0
LINE
  5
75240
  8
SUNPOU
 10
16828.499999999949
 20
4685.2917521017807
 30
0.0
 11
16798.499999999949
 21
4685.2917521017807
 31
0.0
  0
LINE
  5
75242
  8
SUNPOU
 10
11220.499999999951
 20
4685.2917521017807
 30
0.0
 11
11250.499999999951
 21
4685.2917521017807
 31
0.0
  0
ARC
  5
75243
  8
SUNPOU
 10
10819.898926136209
 20
10341.24612204842
 30
0.0
 40
15.00000000000079
 50
4.706111143730177
 51
184.7061111437302
  0
ARC
  5
75244
  8
SUNPOU
 10
10819.898926136209
 20
10341.24612204842
 30
0.0
 40
15.00000000000079
 50
184.7061111437302
 51
4.706111143730177
  0
ARC
  5
75245
  8
SUNPOU
 10
17136.531256737719
 20
10861.24612204842
 30
0.0
 40
14.99999999999897
 50
184.70611114373071
 51
4.7061111437307472
  0
ARC
  5
75246
  8
SUNPOU
 10
17136.531256737719
 20
10861.24612204842
 30
0.0
 40
14.99999999999897
 50
4.7061111437307472
 51
184.70611114373071
  0
ARC
  5
75247
  8
SUNPOU
 10
18049.753093279211
 20
9665.2917521017807
 30
0.0
 40
15.0
 50
270.0
 51
90.0
  0
ARC
  5
75248
  8
SUNPOU
 10
18049.753093279211
 20
9665.2917521017807
 30
0.0
 40
15.0
 50
90.0
 51
270.0
  0
ARC
  5
75249
  8
SUNPOU
 10
18049.753093279211
 20
6385.2917521017807
 30
0.0
 40
15.0
 50
90.0
 51
270.0
  0
ARC
  5
7524A
  8
SUNPOU
 10
18049.753093279211
 20
6385.2917521017807
 30
0.0
 40
15.0
 50
270.0
 51
90.0
  0
ARC
  5
7524B
  8
SUNPOU
 10
10118.35269704189
 20
9145.2917521017825
 30
0.0
 40
15.0
 50
270.0
 51
90.0
  0
ARC
  5
7524C
  8
SUNPOU
 10
10118.35269704189
 20
9145.2917521017825
 30
0.0
 40
15.0
 50
90.0
 51
270.0
  0
ARC
  5
7524D
  8
SUNPOU
 10
10118.35269704189
 20
6385.2917521017807
 30
0.0
 40
15.0
 50
90.0
 51
270.0
  0
ARC
  5
7524E
  8
SUNPOU
 10
10118.35269704189
 20
6385.2917521017807
 30
0.0
 40
15.0
 50
270.0
 51
90.0
  0
TEXT
  5
7524F
  8
SUNPOU
 10
23462.205422612878
 20
17961.87721463175
 30
0.0
 40
160.0
  1
2856
 50
90.0
 41
0.6666666666666666
  7
00
  0
LINE
  5
75251
  8
SUNPOU
 10
23542.205422612878
 20
16348.121500361291
 30
0.0
 11
23542.205422612878
 21
16378.121500361291
 31
0.0
  0
LINE
  5
75253
  8
SUNPOU
 10
23542.205422612878
 20
19144.40624389955
 30
0.0
 11
23542.205422612878
 21
19114.40624389955
 31
0.0
  0
TEXT
  5
75254
  8
SUNPOU
 10
22322.387106663569
 20
18207.486754091799
 30
0.0
 40
160.0
  1
2575
 50
90.0
 41
0.6666666666666666
  7
00
  0
LINE
  5
75256
  8
SUNPOU
 10
22402.387106663569
 20
18863.121500361322
 30
0.0
 11
22402.387106663569
 21
18833.121500361322
 31
0.0
  0
LINE
  5
75258
  8
SUNPOU
 10
22402.387106663569
 20
16348.121500361291
 30
0.0
 11
22402.387106663569
 21
16378.121500361291
 31
0.0
  0
TEXT
  5
75259
  8
SUNPOU
 10
16100.75598611948
 20
15198.121500361291
 30
0.0
 40
160.0
  1
5515
 41
0.6666666666666666
  7
00
  0
LINE
  5
7525B
  8
SUNPOU
 10
18143.500000000018
 20
15118.121500361291
 30
0.0
 11
18113.500000000018
 21
15118.121500361291
 31
0.0
  0
LINE
  5
7525D
  8
SUNPOU
 10
12688.500000000049
 20
15118.121500361291
 30
0.0
 11
12718.500000000049
 21
15118.121500361291
 31
0.0
  0
ARC
  5
7525E
  8
SUNPOU
 10
20973.500000000011
 20
15118.12150036126
 30
0.0
 40
15.0
 50
180.0
 51
0.0
  0
ARC
  5
7525F
  8
SUNPOU
 10
20973.500000000011
 20
15118.12150036126
 30
0.0
 40
15.0
 50
0.0
 51
180.0
  0
ARC
  5
75260
  8
SUNPOU
 10
18258.499999999949
 20
15118.12150036126
 30
0.0
 40
15.0
 50
0.0
 51
180.0
  0
ARC
  5
75261
  8
SUNPOU
 10
18258.499999999949
 20
15118.12150036126
 30
0.0
 40
15.0
 50
180.0
 51
0.0
  0
ARC
  5
75262
  8
SUNPOU
 10
21041.387106663511
 20
8960.291752101808
 30
0.0
 40
15.0
 50
270.0
 51
90.0
  0
ARC
  5
75263
  8
SUNPOU
 10
21041.387106663511
 20
8960.291752101808
 30
0.0
 40
15.0
 50
90.0
 51
270.0
  0
ARC
  5
75264
  8
SUNPOU
 10
21041.3871066635
 20
6385.2917521017807
 30
0.0
 40
15.0
 50
90.0
 51
270.0
  0
ARC
  5
75265
  8
SUNPOU
 10
21041.3871066635
 20
6385.2917521017807
 30
0.0
 40
15.0
 50
270.0
 51
90.0
  0
ARC
  5
75266
  8
SUNPOU
 10
18614.503844154951
 20
6385.2917521017798
 30
0.0
 40
15.0
 50
90.0
 51
270.0
  0
ARC
  5
75267
  8
SUNPOU
 10
18614.503844154951
 20
6385.2917521017798
 30
0.0
 40
15.0
 50
270.0
 51
90.0
  0
ARC
  5
75268
  8
SUNPOU
 10
18614.503844154959
 20
9372.2466996605654
 30
0.0
 40
15.0
 50
270.0
 51
90.0
  0
ARC
  5
75269
  8
SUNPOU
 10
18614.503844154959
 20
9372.2466996605654
 30
0.0
 40
15.0
 50
90.0
 51
270.0
  0
ARC
  5
7526A
  8
SUNPOU
 10
22694.886373091711
 20
10412.632429139319
 30
0.0
 40
14.99999999999989
 50
178.70807231024779
 51
358.70807231024781
  0
ARC
  5
7526B
  8
SUNPOU
 10
22694.886373091711
 20
10412.632429139319
 30
0.0
 40
14.99999999999989
 50
358.70807231024781
 51
178.70807231024779
  0
ARC
  5
7526C
  8
SUNPOU
 10
16886.34015463831
 20
10543.628006994069
 30
0.0
 40
14.99999999999989
 50
358.70807231024781
 51
178.70807231024779
  0
ARC
  5
7526D
  8
SUNPOU
 10
16886.34015463831
 20
10543.628006994069
 30
0.0
 40
14.99999999999989
 50
178.70807231024779
 51
358.70807231024781
  0
ARC
  5
7526E
  8
SUNPOU
 10
23212.442872043419
 20
6385.2917521017789
 30
0.0
 40
15.0
 50
90.0
 51
270.0
  0
ARC
  5
7526F
  8
SUNPOU
 10
23212.442872043419
 20
6385.2917521017789
 30
0.0
 40
15.0
 50
270.0
 51
90.0
  0
ARC
  5
75270
  8
SUNPOU
 10
23212.44287204343
 20
9241.5764956400435
 30
0.0
 40
15.0
 50
270.0
 51
90.0
  0
ARC
  5
75271
  8
SUNPOU
 10
23212.44287204343
 20
9241.5764956400435
 30
0.0
 40
15.0
 50
90.0
 51
270.0
  0
ARC
  5
75272
  8
SUNPOU
 10
16858.499999999949
 20
4685.2917521017807
 30
0.0
 40
15.0
 50
0.0
 51
180.0
  0
ARC
  5
75273
  8
SUNPOU
 10
16858.499999999949
 20
4685.2917521017807
 30
0.0
 40
15.0
 50
180.0
 51
0.0
  0
ARC
  5
75274
  8
SUNPOU
 10
22358.49999999996
 20
4685.2917521017807
 30
0.0
 40
15.0
 50
180.0
 51
0.0
  0
ARC
  5
75275
  8
SUNPOU
 10
22358.49999999996
 20
4685.2917521017807
 30
0.0
 40
15.0
 50
0.0
 51
180.0
  0
ARC
  5
75276
  8
SUNPOU
 10
16858.499999999949
 20
4685.2917521017807
 30
0.0
 40
15.0
 50
180.0
 51
0.0
  0
ARC
  5
75277
  8
SUNPOU
 10
16858.499999999949
 20
4685.2917521017807
 30
0.0
 40
15.0
 50
0.0
 51
180.0
  0
ARC
  5
75278
  8
SUNPOU
 10
11190.499999999951
 20
4685.2917521017807
 30
0.0
 40
15.0
 50
0.0
 51
180.0
  0
ARC
  5
75279
  8
SUNPOU
 10
11190.499999999951
 20
4685.2917521017807
 30
0.0
 40
15.0
 50
180.0
 51
0.0
  0
ARC
  5
7527A
  8
SUNPOU
 10
23542.205422612878
 20
16318.121500361291
 30
0.0
 40
15.0
 50
90.0
 51
270.0
  0
ARC
  5
7527B
  8
SUNPOU
 10
23542.205422612878
 20
16318.121500361291
 30
0.0
 40
15.0
 50
270.0
 51
90.0
  0
ARC
  5
7527C
  8
SUNPOU
 10
23542.205422612878
 20
19174.40624389955
 30
0.0
 40
15.0
 50
270.0
 51
90.0
  0
ARC
  5
7527D
  8
SUNPOU
 10
23542.205422612878
 20
19174.40624389955
 30
0.0
 40
15.0
 50
90.0
 51
270.0
  0
ARC
  5
7527E
  8
SUNPOU
 10
22402.387106663569
 20
18893.121500361322
 30
0.0
 40
15.0
 50
270.0
 51
90.0
  0
ARC
  5
7527F
  8
SUNPOU
 10
22402.387106663569
 20
18893.121500361322
 30
0.0
 40
15.0
 50
90.0
 51
270.0
  0
ARC
  5
75280
  8
SUNPOU
 10
22402.387106663569
 20
16318.121500361291
 30
0.0
 40
15.0
 50
90.0
 51
270.0
  0
ARC
  5
75281
  8
SUNPOU
 10
22402.387106663569
 20
16318.121500361291
 30
0.0
 40
15.0
 50
270.0
 51
90.0
  0
ARC
  5
75282
  8
SUNPOU
 10
18173.500000000018
 20
15118.121500361291
 30
0.0
 40
15.0
 50
180.0
 51
0.0
  0
ARC
  5
75283
  8
SUNPOU
 10
18173.500000000018
 20
15118.121500361291
 30
0.0
 40
15.0
 50
0.0
 51
180.0
  0
ARC
  5
75284
  8
SUNPOU
 10
12658.500000000049
 20
15118.121500361291
 30
0.0
 40
15.0
 50
0.0
 51
180.0
  0
ARC
  5
75285
  8
SUNPOU
 10
12658.500000000049
 20
15118.121500361291
 30
0.0
 40
15.0
 50
180.0
 51
0.0
  0
LINE
  5
7528A
  8
HIKIDASHI
 10
14553.660605833549
 20
9549.9526755505412
 30
0.0
 11
14685.46604410426
 21
9455.4093650871509
 31
0.0
  0
LINE
  5
7528B
  8
HIKIDASHI
 10
14685.46604410426
 20
9455.4093650871509
 30
0.0
 11
14591.447919403879
 21
9587.5899360457279
 31
0.0
  0
SOLID
  5
7528C
  8
HIKIDASHI
 10
14553.660605833549
 20
9549.9526755505412
 30
0.0
 11
14591.447919403879
 21
9587.5899360457279
 31
0.0
 12
14685.46604410426
 22
9455.4093650871509
 32
0.0
 13
14685.46604410426
 23
9455.4093650871509
 33
0.0
  0
LINE
  5
7528D
  8
HIKIDASHI
 10
14591.447919403879
 20
9587.5899360457279
 30
0.0
 11
14553.660605833549
 21
9549.9526755505412
 31
0.0
  0
LINE
  5
7528E
  8
HIKIDASHI
 10
15124.828675628019
 20
6414.5677232007602
 30
0.0
 11
15176.000000000009
 21
6568.4917521017924
 31
0.0
  0
LINE
  5
7528F
  8
HIKIDASHI
 10
15176.000000000009
 20
6568.4917521017924
 30
0.0
 11
15077.673386491029
 21
6439.4840461809217
 31
0.0
  0
SOLID
  5
75290
  8
HIKIDASHI
 10
15124.828675628019
 20
6414.5677232007602
 30
0.0
 11
15077.673386491029
 21
6439.4840461809217
 31
0.0
 12
15176.000000000009
 22
6568.4917521017924
 32
0.0
 13
15176.000000000009
 23
6568.4917521017924
 33
0.0
  0
LINE
  5
75291
  8
HIKIDASHI
 10
15077.673386491029
 20
6439.4840461809217
 30
0.0
 11
15124.828675628019
 21
6414.5677232007602
 31
0.0
  0
LINE
  5
75292
  8
HIKIDASHI
 10
13640.892703830121
 20
16549.62455118067
 30
0.0
 11
12345.528500625011
 21
15537.63741541309
 31
0.0
1001
ACAD
1000
DSTYLE
1002
{
1070
   147
1040
1.0
1070
    77
1070
     0
1002
}
  0
LINE
  5
75293
  8
HIKIDASHI
 10
13657.30971560873
 20
16528.610440793309
 30
0.0
 11
13766.97736615428
 21
16648.12662185232
 31
0.0
  0
LINE
  5
75294
  8
HIKIDASHI
 10
13766.97736615428
 20
16648.12662185232
 30
0.0
 11
13624.47569205151
 21
16570.638661568031
 31
0.0
  0
SOLID
  5
75295
  8
HIKIDASHI
 10
13657.30971560873
 20
16528.610440793309
 30
0.0
 11
13624.47569205151
 21
16570.638661568031
 31
0.0
 12
13766.97736615428
 22
16648.12662185232
 32
0.0
 13
13766.97736615428
 23
16648.12662185232
 33
0.0
  0
LINE
  5
75296
  8
HIKIDASHI
 10
13624.47569205151
 20
16570.638661568031
 30
0.0
 11
13657.30971560873
 21
16528.610440793309
 31
0.0
  0
LINE
  5
75297
  8
HIKIDASHI
 10
19229.09244282568
 20
9450.8159589273837
 30
0.0
 11
19592.103577875951
 21
9947.3405223982281
 31
0.0
1001
ACAD
1000
DSTYLE
1002
{
1070
   147
1040
1.0
1070
    77
1070
     0
1002
}
  0
LINE
  5
75298
  8
HIKIDASHI
 10
19207.565447276509
 20
9466.5544332415284
 30
0.0
 11
19134.661596940809
 21
9321.6539856323434
 31
0.0
  0
LINE
  5
75299
  8
HIKIDASHI
 10
19134.661596940809
 20
9321.6539856323434
 30
0.0
 11
19250.619438374852
 21
9435.077484613239
 31
0.0
  0
SOLID
  5
7529A
  8
HIKIDASHI
 10
19207.565447276509
 20
9466.5544332415284
 30
0.0
 11
19250.619438374852
 21
9435.077484613239
 31
0.0
 12
19134.661596940809
 22
9321.6539856323434
 32
0.0
 13
19134.661596940809
 23
9321.6539856323434
 33
0.0
  0
LINE
  5
7529B
  8
HIKIDASHI
 10
19250.619438374852
 20
9435.077484613239
 30
0.0
 11
19207.565447276509
 21
9466.5544332415284
 31
0.0
  0
LINE
  5
7529C
  8
U1
 10
19816.000000000069
 20
17218.921500361292
 30
0.0
 11
19916.000000000058
 21
17218.921500361292
 31
0.0
  0
LINE
  5
7529D
  8
U1
 10
19916.000000000058
 20
17218.921500361292
 30
0.0
 11
19916.000000000058
 21
17188.921500361292
 31
0.0
  0
LINE
  5
7529E
  8
U1
 10
19916.000000000058
 20
17188.921500361292
 30
0.0
 11
19816.000000000069
 21
17188.921500361292
 31
0.0
  0
LINE
  5
7529F
  8
U1
 10
19816.000000000069
 20
17188.921500361292
 30
0.0
 11
19816.000000000069
 21
17218.921500361292
 31
0.0
  0
LINE
  5
752A0
  8
U1
 10
19316.000000000058
 20
17218.921500361292
 30
0.0
 11
19416.000000000058
 21
17218.921500361292
 31
0.0
  0
LINE
  5
752A1
  8
U1
 10
19416.000000000058
 20
17218.921500361292
 30
0.0
 11
19416.000000000058
 21
17188.921500361292
 31
0.0
  0
LINE
  5
752A2
  8
U1
 10
19416.000000000058
 20
17188.921500361292
 30
0.0
 11
19316.000000000058
 21
17188.921500361292
 31
0.0
  0
LINE
  5
752A3
  8
U1
 10
19316.000000000058
 20
17188.921500361292
 30
0.0
 11
19316.000000000058
 21
17218.921500361292
 31
0.0
  0
LINE
  5
752A4
  8
U1
 10
17016.000000000051
 20
17218.921500361281
 30
0.0
 11
17116.000000000051
 21
17218.921500361281
 31
0.0
  0
LINE
  5
752A5
  8
U1
 10
17116.000000000051
 20
17218.921500361281
 30
0.0
 11
17116.000000000051
 21
17188.921500361292
 31
0.0
  0
LINE
  5
752A6
  8
U1
 10
17116.000000000051
 20
17188.921500361292
 30
0.0
 11
17016.000000000051
 21
17188.921500361292
 31
0.0
  0
LINE
  5
752A7
  8
U1
 10
17016.000000000051
 20
17188.921500361292
 30
0.0
 11
17016.000000000051
 21
17218.921500361281
 31
0.0
  0
LINE
  5
752A8
  8
U1
 10
16516.000000000051
 20
17218.921500361281
 30
0.0
 11
16616.000000000051
 21
17218.921500361281
 31
0.0
  0
LINE
  5
752A9
  8
U1
 10
16616.000000000051
 20
17218.921500361281
 30
0.0
 11
16616.000000000051
 21
17188.921500361281
 31
0.0
  0
LINE
  5
752AA
  8
U1
 10
16616.000000000051
 20
17188.921500361281
 30
0.0
 11
16516.000000000051
 21
17188.921500361281
 31
0.0
  0
LINE
  5
752AB
  8
U1
 10
16516.000000000051
 20
17188.921500361281
 30
0.0
 11
16516.000000000051
 21
17218.921500361281
 31
0.0
  0
LINE
  5
752AC
  8
U1
 10
14216.027512139541
 20
17218.921500361281
 30
0.0
 11
14316.027512139541
 21
17218.921500361281
 31
0.0
  0
LINE
  5
752AD
  8
U1
 10
14316.027512139541
 20
17218.921500361281
 30
0.0
 11
14316.027512139541
 21
17188.921500361292
 31
0.0
  0
LINE
  5
752AE
  8
U1
 10
14316.027512139541
 20
17188.921500361292
 30
0.0
 11
14216.027512139541
 21
17188.921500361292
 31
0.0
  0
LINE
  5
752AF
  8
U1
 10
14216.027512139541
 20
17188.921500361292
 30
0.0
 11
14216.027512139541
 21
17218.921500361281
 31
0.0
  0
LINE
  5
752B0
  8
U1
 10
13716.027512139541
 20
17218.921500361281
 30
0.0
 11
13816.027512139541
 21
17218.921500361281
 31
0.0
  0
LINE
  5
752B1
  8
U1
 10
13816.027512139541
 20
17218.921500361281
 30
0.0
 11
13816.027512139541
 21
17188.921500361281
 31
0.0
  0
LINE
  5
752B2
  8
U1
 10
13816.027512139541
 20
17188.921500361281
 30
0.0
 11
13716.027512139541
 21
17188.921500361281
 31
0.0
  0
LINE
  5
752B3
  8
U1
 10
13716.027512139541
 20
17188.921500361281
 30
0.0
 11
13716.027512139541
 21
17218.921500361281
 31
0.0
  0
LINE
  5
752B4
  8
U5
 10
19090.99999999996
 20
5485.2917521017798
 30
0.0
 11
20040.99999999996
 21
5485.2917521017798
 31
0.0
  0
LINE
  5
752B5
  8
U5
 10
20040.99999999996
 20
5485.2917521017798
 30
0.0
 11
20040.99999999996
 21
5985.2917521017798
 31
0.0
  0
LINE
  5
752B6
  8
U5
 10
20040.99999999996
 20
5985.2917521017798
 30
0.0
 11
19090.99999999996
 21
5985.2917521017798
 31
0.0
  0
LINE
  5
752B7
  8
U5
 10
19090.99999999996
 20
5985.2917521017798
 30
0.0
 11
19090.99999999996
 21
5485.2917521017798
 31
0.0
  0
LINE
  5
752B8
  8
U5
 10
21840.99999999996
 20
5485.2917521017798
 30
0.0
 11
22790.99999999996
 21
5485.2917521017798
 31
0.0
  0
LINE
  5
752B9
  8
U5
 10
22790.99999999996
 20
5485.2917521017798
 30
0.0
 11
22790.99999999996
 21
5985.2917521017798
 31
0.0
  0
LINE
  5
752BA
  8
U5
 10
22790.99999999996
 20
5985.2917521017798
 30
0.0
 11
21840.99999999996
 21
5985.2917521017798
 31
0.0
  0
LINE
  5
752BB
  8
U5
 10
21840.99999999996
 20
5985.2917521017798
 30
0.0
 11
21840.99999999996
 21
5485.2917521017798
 31
0.0
  0
LINE
  5
752BC
  8
KERABA
 10
10928.47380611343
 20
9021.6195885777252
 30
0.0
 11
10922.938255728761
 21
9089.3939029006433
 31
0.0
  0
LINE
  5
752BD
  8
KERABA
 10
10922.938255728761
 20
9089.3939029006433
 30
0.0
 11
10926.596587165621
 21
9093.7086000045365
 31
0.0
  0
LINE
  5
752BE
  8
KERABA
 10
10926.596587165621
 20
9093.7086000045365
 30
0.0
 11
10925.776130081749
 21
9103.6748856804188
 31
0.0
  0
LINE
  5
752BF
  8
KERABA
 10
10925.776130081749
 20
9103.6748856804188
 30
0.0
 11
10923.61878152984
 21
9105.5040513988515
 31
0.0
  0
LINE
  5
752C0
  8
KERABA
 10
10923.61878152984
 20
9105.5040513988515
 30
0.0
 11
10922.79832444597
 21
9115.4703370747302
 31
0.0
  0
LINE
  5
752C1
  8
KERABA
 10
10922.79832444597
 20
9115.4703370747302
 30
0.0
 11
10920.64097589401
 21
9117.299502793132
 31
0.0
  0
LINE
  5
752C2
  8
KERABA
 10
10920.64097589401
 20
9117.299502793132
 30
0.0
 11
10919.21338056815
 21
9134.6408398692001
 31
0.0
  0
ARC
  5
752C3
  8
KERABA
 10
10929.777643384599
 20
9135.5105243780818
 30
0.0
 40
10.600000000005849
 50
94.706162844004695
 51
184.7061628439549
  0
LINE
  5
752C4
  8
KERABA
 10
10928.90795887571
 20
9146.074787194535
 30
0.0
 11
10953.225695924901
 21
9148.0767024790839
 31
0.0
  0
LINE
  5
752C5
  8
KERABA
 10
10953.225695924901
 20
9148.0767024790839
 30
0.0
 11
10967.993923434011
 21
8968.6835603129439
 31
0.0
  0
LINE
  5
752C6
  8
KERABA
 10
10967.993923434011
 20
8968.6835603129439
 30
0.0
 11
10943.676186384881
 21
8966.6816450283932
 31
0.0
  0
ARC
  5
752C7
  8
KERABA
 10
10942.80650187599
 20
8977.2459078448392
 30
0.0
 40
10.599999999995569
 50
184.7061628439491
 51
274.70616284399892
  0
LINE
  5
752C8
  8
KERABA
 10
10932.24223905954
 20
8976.3762233359594
 30
0.0
 11
10930.81464373362
 21
8993.7175604120275
 31
0.0
  0
LINE
  5
752C9
  8
KERABA
 10
10930.81464373362
 20
8993.7175604120275
 30
0.0
 11
10934.472975170491
 21
8998.0322575159207
 31
0.0
  0
LINE
  5
752CA
  8
KERABA
 10
10934.472975170491
 20
8998.0322575159207
 30
0.0
 11
10933.65251808661
 21
9007.998543191803
 31
0.0
  0
LINE
  5
752CB
  8
KERABA
 10
10933.65251808661
 20
9007.998543191803
 30
0.0
 11
10931.49516953471
 21
9009.8277089102339
 31
0.0
  0
LINE
  5
752CC
  8
KERABA
 10
10931.49516953471
 20
9009.8277089102339
 30
0.0
 11
10930.67471245084
 21
9019.7939945861144
 31
0.0
  0
LINE
  5
752CD
  8
KERABA
 10
10930.67471245084
 20
9019.7939945861144
 30
0.0
 11
10928.51736389888
 21
9021.6231603045453
 31
0.0
  0
LINE
  5
752CE
  8
KERABA
 10
17245.149225280398
 20
9541.6288600416592
 30
0.0
 11
17243.320059562
 21
9539.4715114897263
 31
0.0
  0
LINE
  5
752CF
  8
KERABA
 10
17243.320059562
 20
9539.4715114897263
 30
0.0
 11
17244.14051664581
 21
9529.5052258138167
 31
0.0
  0
LINE
  5
752D0
  8
KERABA
 10
17244.14051664581
 20
9529.5052258138167
 30
0.0
 11
17242.311350927412
 21
9527.3478772618546
 31
0.0
  0
LINE
  5
752D1
  8
KERABA
 10
17242.311350927412
 20
9527.3478772618546
 30
0.0
 11
17243.13180801128
 21
9517.3815915859741
 31
0.0
  0
LINE
  5
752D2
  8
KERABA
 10
17243.13180801128
 20
9517.3815915859741
 30
0.0
 11
17247.446505115149
 21
9513.7232601491414
 31
0.0
  0
LINE
  5
752D3
  8
KERABA
 10
17247.446505115149
 20
9513.7232601491414
 30
0.0
 11
17248.874100441069
 21
9496.3819230730733
 31
0.0
  0
ARC
  5
752D4
  8
KERABA
 10
17238.309837624602
 20
9495.5122385642353
 30
0.0
 40
10.60000000001496
 50
274.7061628437533
 51
4.7061628437140808
  0
LINE
  5
752D5
  8
KERABA
 10
17239.17952213344
 20
9484.9479757477675
 30
0.0
 11
17214.861785084249
 21
9482.9460604631895
 31
0.0
  0
LINE
  5
752D6
  8
KERABA
 10
17214.861785084249
 20
9482.9460604631895
 30
0.0
 11
17200.09355757515
 21
9662.3392026293313
 31
0.0
  0
LINE
  5
752D7
  8
KERABA
 10
17200.09355757515
 20
9662.3392026293313
 30
0.0
 11
17224.41129462434
 21
9664.3411179139075
 31
0.0
  0
ARC
  5
752D8
  8
KERABA
 10
17225.280979133211
 20
9653.7768550974488
 30
0.0
 40
10.60000000000888
 50
4.7061628438642931
 51
94.706162843914086
  0
LINE
  5
752D9
  8
KERABA
 10
17235.845241949672
 20
9654.646539606314
 30
0.0
 11
17237.272837275541
 21
9637.3052025302768
 31
0.0
  0
LINE
  5
752DA
  8
KERABA
 10
17237.272837275541
 20
9637.3052025302768
 30
0.0
 11
17235.443671557128
 21
9635.1478539783129
 31
0.0
  0
LINE
  5
752DB
  8
KERABA
 10
17235.443671557128
 20
9635.1478539783129
 30
0.0
 11
17236.264128640949
 21
9625.1815683024324
 31
0.0
  0
LINE
  5
752DC
  8
KERABA
 10
17236.264128640949
 20
9625.1815683024324
 30
0.0
 11
17234.434962922551
 21
9623.0242197504704
 31
0.0
  0
LINE
  5
752DD
  8
KERABA
 10
17234.434962922551
 20
9623.0242197504704
 30
0.0
 11
17235.255420006419
 21
9613.0579340745899
 31
0.0
  0
LINE
  5
752DE
  8
KERABA
 10
17235.255420006419
 20
9613.0579340745899
 30
0.0
 11
17239.570117110281
 21
9609.3996026377572
 31
0.0
  0
LINE
  5
752DF
  8
KERABA
 10
17239.570117110281
 20
9609.3996026377572
 30
0.0
 11
17245.149225280398
 21
9541.6288600416592
 31
0.0
  0
ENDSEC
  0
EOF
