  0
SECTION
  2
HEADER
  9
$ACADVER
  1
AC1009
  9
$INSBASE
 10
267.00000000000011
 20
194.89999999999981
 30
0.0
  9
$EXTMIN
 10
867.99324330406671
 20
327.38164749855792
 30
-0.0000000000000053
  9
$EXTMAX
 10
32765.33210850941
 20
22484.553276491992
 30
0.0000000000000099
  9
$LIMMIN
 10
0.0
 20
0.0
  9
$LIMMAX
 10
33600.0
 20
23760.0
  9
$ORTHOMODE
 70
     0
  9
$REGENMODE
 70
     1
  9
$FILLMODE
 70
     1
  9
$QTEXTMODE
 70
     0
  9
$MIRRTEXT
 70
     0
  9
$DRAGMODE
 70
     2
  9
$LTSCALE
 40
80.0
  9
$OSMODE
 70
  3071
  9
$ATTMODE
 70
     1
  9
$TEXTSIZE
 40
0.2
  9
$TRACEWID
 40
0.05
  9
$TEXTSTYLE
  7
00
  9
$CLAYER
  8
SUNPOU
  9
$CELTYPE
  6
BYLAYER
  9
$CECOLOR
 62
   256
  9
$DIMSCALE
 40
80.0
  9
$DIMASZ
 40
0.5
  9
$DIMEXO
 40
1.0
  9
$DIMDLI
 40
7.0
  9
$DIMRND
 40
0.0
  9
$DIMDLE
 40
3.0
  9
$DIMEXE
 40
1.0
  9
$DIMTP
 40
0.0
  9
$DIMTM
 40
0.0
  9
$DIMTXT
 40
2.0
  9
$DIMCEN
 40
0.0
  9
$DIMTSZ
 40
0.0
  9
$DIMTOL
 70
     0
  9
$DIMLIM
 70
     0
  9
$DIMTIH
 70
     0
  9
$DIMTOH
 70
     0
  9
$DIMSE1
 70
     0
  9
$DIMSE2
 70
     0
  9
$DIMTAD
 70
     1
  9
$DIMZIN
 70
     8
  9
$DIMBLK
  1
DOT
  9
$DIMASO
 70
     1
  9
$DIMSHO
 70
     0
  9
$DIMPOST
  1

  9
$DIMAPOST
  1

  9
$DIMALT
 70
     0
  9
$DIMALTD
 70
     2
  9
$DIMALTF
 40
25.399999999999999
  9
$DIMLFAC
 40
1.0
  9
$DIMTOFL
 70
     1
  9
$DIMTVP
 40
0.0
  9
$DIMTIX
 70
     0
  9
$DIMSOXD
 70
     0
  9
$DIMSAH
 70
     1
  9
$DIMBLK1
  1
DOT
  9
$DIMBLK2
  1
DOT
  9
$DIMSTYLE
  2
SUNPOU_申請図
  9
$DIMCLRD
 70
   256
  9
$DIMCLRE
 70
   256
  9
$DIMCLRT
 70
   256
  9
$DIMTFAC
 40
1.0
  9
$DIMGAP
 40
1.0
  9
$LUNITS
 70
     2
  9
$LUPREC
 70
     2
  9
$SKETCHINC
 40
0.1
  9
$FILLETRAD
 40
0.0
  9
$AUNITS
 70
     0
  9
$AUPREC
 70
     0
  9
$MENU
  1
A:\TIGER\MENU\TIGER
  9
$ELEVATION
 40
0.0
  9
$PELEVATION
 40
0.0
  9
$THICKNESS
 40
0.0
  9
$LIMCHECK
 70
     0
  9
$BLIPMODE
 70
     1
  9
$CHAMFERA
 40
0.0
  9
$CHAMFERB
 40
0.0
  9
$SKPOLY
 70
     0
  9
$TDCREATE
 40
2450266.5710648149
  9
$TDUPDATE
 40
2456314.7036628239
  9
$TDINDWG
 40
0.5343578935
  9
$TDUSRTIMER
 40
0.5343578935
  9
$USRTIMER
 70
     1
  9
$ANGBASE
 50
0.0
  9
$ANGDIR
 70
     0
  9
$PDMODE
 70
     0
  9
$PDSIZE
 40
0.0
  9
$PLINEWID
 40
0.0
  9
$COORDS
 70
     0
  9
$SPLFRAME
 70
     0
  9
$SPLINETYPE
 70
     6
  9
$SPLINESEGS
 70
     8
  9
$ATTDIA
 70
     0
  9
$ATTREQ
 70
     1
  9
$HANDLING
 70
     1
  9
$HANDSEED
  5
6C06D
  9
$SURFTAB1
 70
     6
  9
$SURFTAB2
 70
     6
  9
$SURFTYPE
 70
     6
  9
$SURFU
 70
     6
  9
$SURFV
 70
     6
  9
$UCSNAME
  2

  9
$UCSORG
 10
0.0
 20
0.0
 30
0.0
  9
$UCSXDIR
 10
1.0
 20
0.0
 30
0.0
  9
$UCSYDIR
 10
0.0
 20
1.0
 30
0.0
  9
$PUCSNAME
  2

  9
$PUCSORG
 10
0.0
 20
0.0
 30
0.0
  9
$PUCSXDIR
 10
1.0
 20
0.0
 30
0.0
  9
$PUCSYDIR
 10
0.0
 20
1.0
 30
0.0
  9
$USERI1
 70
     3
  9
$USERI2
 70
     0
  9
$USERI3
 70
     0
  9
$USERI4
 70
     0
  9
$USERI5
 70
  1103
  9
$USERR1
 40
0.0
  9
$USERR2
 40
1.0
  9
$USERR3
 40
0.0
  9
$USERR4
 40
0.0
  9
$USERR5
 40
0.0
  9
$WORLDVIEW
 70
     1
  9
$SHADEDGE
 70
     3
  9
$SHADEDIF
 70
    70
  9
$TILEMODE
 70
     1
  9
$MAXACTVP
 70
    16
  9
$PLIMCHECK
 70
     0
  9
$PEXTMIN
 10
1.0000000000000000E+020
 20
1.0000000000000000E+020
 30
1.0000000000000000E+020
  9
$PEXTMAX
 10
-1.0000000000000000E+020
 20
-1.0000000000000000E+020
 30
-1.0000000000000000E+020
  9
$PLIMMIN
 10
0.0
 20
0.0
  9
$PLIMMAX
 10
12.0
 20
9.0
  9
$UNITMODE
 70
     0
  9
$VISRETAIN
 70
     0
  9
$PLINEGEN
 70
     1
  9
$PSLTSCALE
 70
     0
  0
ENDSEC
  0
SECTION
  2
TABLES
  0
TABLE
  2
VPORT
 70
     1
  0
VPORT
  2
*ACTIVE
 70
     0
 10
0.0
 20
0.0
 11
1.0
 21
1.0
 12
16800.0
 22
11880.0
 13
0.0
 23
0.0
 14
1.0
 24
1.0
 15
0.0
 25
0.0
 16
0.0
 26
0.0
 36
1.0
 17
0.0
 27
0.0
 37
0.0
 40
23958.55153203342
 41
1.6471408647140859
 42
50.0
 43
0.0
 44
0.0
 50
0.0
 51
0.0
 71
     0
 72
 10000
 73
     1
 74
     0
 75
     0
 76
     0
 77
     0
 78
     0
  0
ENDTAB
  0
TABLE
  2
LTYPE
 70
     7
  0
LTYPE
  2
CONTINUOUS
 70
     0
  3
実線
 72
    65
 73
     0
 40
0.0
  0
LTYPE
  2
HIDE-L
 70
     0
  3

 72
    65
 73
     2
 40
3.0
 49
2.0
 49
-1.0
  0
LTYPE
  2
1PL-L
 70
     0
  3

 72
    65
 73
     4
 40
56.0
 49
50.0
 49
-2.0
 49
2.0
 49
-2.0
  0
LTYPE
  2
1PL-M
 70
     0
  3

 72
    65
 73
     4
 40
15.0
 49
12.0
 49
-1.0
 49
1.0
 49
-1.0
  0
LTYPE
  2
1PL-S
 70
     0
  3

 72
    65
 73
     4
 40
4.0
 49
2.5
 49
-0.5
 49
0.5
 49
-0.5
  0
ENDTAB
  0
TABLE
  2
LAYER
 70
    20
  0
LAYER
  2
0
 70
     0
 62
     7
  6
CONTINUOUS
  0
LAYER
  2
U1
 70
     0
 62
     3
  6
CONTINUOUS
  0
LAYER
  2
U3
 70
     0
 62
     6
  6
CONTINUOUS
  0
LAYER
  2
U6
 70
     0
 62
     1
  6
CONTINUOUS
  0
LAYER
  2
SUNPOU
 70
     0
 62
     4
  6
CONTINUOUS
  0
LAYER
  2
HIKIDASHI
 70
     0
 62
     6
  6
CONTINUOUS
  0
LAYER
  2
1PL-M1
 70
     0
 62
     6
  6
1PL-M
  0
LAYER
  2
1PL-L1
 70
     0
 62
     6
  6
1PL-L
  0
LAYER
  2
NAME
 70
     0
 62
    20
  6
CONTINUOUS
  0
LAYER
  2
HATCH
 70
     0
 62
     2
  6
CONTINUOUS
  0
LAYER
  2
KISO_U
 70
     0
 62
     6
  6
CONTINUOUS
  0
LAYER
  2
FILENAME
 70
     0
 62
     7
  6
CONTINUOUS
  0
LAYER
  2
YODOROGO
 70
     0
 62
   130
  6
CONTINUOUS
  0
LAYER
  2
WAKUSEN-01
 70
     0
 62
    50
  6
CONTINUOUS
  0
LAYER
  2
WAKUSEN-02
 70
     0
 62
   130
  6
CONTINUOUS
  0
LAYER
  2
WAKUMOJI-01
 70
     0
 62
   130
  6
CONTINUOUS
  0
LAYER
  2
耐風型受皿
 70
     0
 62
     3
  6
CONTINUOUS
  0
ENDTAB
  0
TABLE
  2
STYLE
 70
     5
  0
STYLE
  2
STANDARD
 70
     0
 40
3.0
 41
1.0
 50
0.0
 71
     0
 42
0.2
  3
ROMANS
  4
EXTFONT
  0
STYLE
  2
01
 70
     0
 40
3.0
 41
1.0
 50
0.0
 71
     0
 42
0.2
  3
ROMANS
  4
BIGFONT
  0
STYLE
  2
00
 70
     0
 40
0.0
 41
0.6666666666666666
 50
0.0
 71
     0
 42
0.2
  3
ROMANS
  4
BIGFONT
  0
STYLE
  2
FILENAME
 70
     0
 40
200.0
 41
1.0
 50
0.0
 71
     0
 42
200.0
  3
romans
  4
bigfont
  0
STYLE
  2
WAKUMOJI
 70
     0
 40
3.0
 41
1.0
 50
0.0
 71
     0
 42
3.0
  3
SIMPLEX
  4
BIGFONT
  0
ENDTAB
  0
TABLE
  2
VIEW
 70
     0
  0
ENDTAB
  0
TABLE
  2
UCS
 70
     0
  0
ENDTAB
  0
TABLE
  2
APPID
 70
    13
  0
APPID
  2
ACAD
 70
     0
  0
APPID
  2
AUTOCAD_POSTSCRIPT_FIGURE
 70
     0
  0
APPID
  2
CONTENTBLOCKICON
 70
     0
  0
APPID
  2
ACAD_PSEXT
 70
     0
  0
APPID
  2
ACAD_EXEMPT_FROM_CAD_STANDARDS
 70
     0
  0
APPID
  2
ACAD_NAV_VCDISPLAY
 70
     0
  0
APPID
  2
ACAECLAYERSTANDARD
 70
     0
  0
APPID
  2
ACCMTRANSPARENCY
 70
     0
  0
APPID
  2
ACLAYERTOOLS
 70
     0
  0
APPID
  2
GRADIENTCOLOR1ACI
 70
     0
  0
APPID
  2
GRADIENTCOLOR2ACI
 70
     0
  0
APPID
  2
AEC_XDATA_BOUND_SPACE
 70
     0
  0
APPID
  2
ACAD_MLEADERVER
 70
     0
  0
ENDTAB
  0
TABLE
  2
DIMSTYLE
 70
     4
  0
DIMSTYLE
  2
SUNPOU_申請図
 70
     0
  3

  4

  5
DOT
  6
DOT
  7
DOT
 40
80.0
 41
0.5
 42
1.0
 43
7.0
 44
1.0
 45
0.0
 46
3.0
 47
0.0
 48
0.0
140
2.0
141
0.0
142
0.0
143
25.399999999999999
144
1.0
145
0.0
146
1.0
147
1.0
 71
     0
 72
     0
 73
     0
 74
     0
 75
     0
 76
     0
 77
     1
 78
     8
170
     0
171
     2
172
     1
173
     1
174
     0
175
     0
176
   256
177
   256
178
   256
  0
ENDTAB
  0
ENDSEC
  0
SECTION
  2
BLOCKS
  0
BLOCK
  8
0
  2
$MODEL_SPACE
 70
     0
 10
0.0
 20
0.0
 30
0.0
  3
$MODEL_SPACE
  1

  0
ENDBLK
  5
125F7
  8
0
  0
BLOCK
 67
     1
  8
0
  2
$PAPER_SPACE
 70
     0
 10
0.0
 20
0.0
 30
0.0
  3
$PAPER_SPACE
  1

  0
ENDBLK
  5
125F5
 67
     1
  8
0
  0
BLOCK
  8
0
  2
DOT
 70
     0
 10
0.0
 20
0.0
 30
0.0
  3
DOT
  1

  0
POLYLINE
  5
12980
  8
0
  6
BYBLOCK
 62
     0
 66
     1
 10
0.0
 20
0.0
 30
0.0
 70
     1
 40
0.75
 41
0.75
  0
VERTEX
  5
6BD21
  8
0
  6
BYBLOCK
 62
     0
 10
-0.375
 20
0.0
 30
0.0
 42
1.0
  0
VERTEX
  5
6BD22
  8
0
  6
BYBLOCK
 62
     0
 10
0.375
 20
0.0
 30
0.0
 42
1.0
  0
SEQEND
  5
6BD23
  8
0
  6
BYBLOCK
 62
     0
  0
LINE
  5
12981
  8
0
  6
BYBLOCK
 62
     0
 10
-0.75
 20
0.0
 30
0.0
 11
-1.5
 21
0.0
 31
0.0
  0
ENDBLK
  5
12982
  8
0
  0
ENDSEC
  0
SECTION
  2
ENTITIES
  0
LINE
  5
5805D
  8
SUNPOU
 10
9667.3919100666189
 20
18134.580924221878
 30
0.0
 11
11056.54563643809
 21
18134.580924221878
 31
0.0
  0
TEXT
  5
5807A
  8
SUNPOU
 10
10496.54563643809
 20
16570.704733745679
 30
0.0
 40
160.0
  1
2750
 50
90.0
 41
0.6700000000000002
  7
00
  0
LINE
  5
5807B
  8
SUNPOU
 10
9667.3919100666189
 20
15384.58092422188
 30
0.0
 11
10696.54563643809
 21
15384.58092422188
 31
0.0
  0
TEXT
  5
5807C
  8
SUNPOU
 10
10496.54563643809
 20
13820.70473374571
 30
0.0
 40
160.0
  1
2750
 50
90.0
 41
0.6700000000000002
  7
00
  0
TEXT
  5
5807D
  8
SUNPOU
 10
10896.54563643809
 20
15195.70473374571
 30
0.0
 40
160.0
  1
5500
 50
90.0
 41
0.6700000000000002
  7
00
  0
LINE
  5
58082
  8
SUNPOU
 10
9667.3919100666189
 20
12634.58092422188
 30
0.0
 11
11056.54563643809
 21
12634.58092422188
 31
0.0
  0
LINE
  5
58083
  8
SUNPOU
 10
10576.54563643809
 20
15344.58092422188
 30
0.0
 11
10576.54563643809
 21
12674.58092422188
 31
0.0
  0
LINE
  5
580BC
  8
SUNPOU
 10
10576.54563643809
 20
18094.580924221878
 30
0.0
 11
10576.54563643809
 21
15424.58092422188
 31
0.0
  0
LINE
  5
580BF
  8
SUNPOU
 10
10976.54563643809
 20
18094.580924221878
 30
0.0
 11
10976.54563643809
 21
12674.58092422188
 31
0.0
  0
TEXT
  5
580C4
  8
U3
 10
18967.910862626781
 20
13612.772254533391
 30
0.0
 40
160.00016032016029
  1
内
  7
01
  0
CIRCLE
  5
580C5
  8
U3
 10
19042.991050793251
 20
13692.77233469346
 30
0.0
 40
140.00014028014019
  0
LINE
  5
580C6
  8
SUNPOU
 10
18965.25092559836
 20
12837.740239125649
 30
0.0
 11
19085.191075763421
 21
13045.482673078919
 31
0.0
  0
LINE
  5
580C7
  8
HATCH
 10
19132.84677106181
 20
12437.74023912564
 30
0.0
 11
19167.036179009981
 21
12378.52244747875
 31
0.0
  0
LINE
  5
580C8
  8
HATCH
 10
18989.989628204708
 20
12437.74023912564
 30
0.0
 11
19024.179036152818
 21
12378.52244747875
 31
0.0
  0
LINE
  5
580C9
  8
KISO_U
 10
18980.240541964751
 20
12437.74023912564
 30
0.0
 11
19293.609904982419
 21
12751.10960214332
 31
0.0
  0
LINE
  5
580CA
  8
HATCH
 10
19168.26172039895
 20
12237.74023912562
 30
0.0
 11
19134.07231245084
 21
12296.95803077251
 31
0.0
  0
LINE
  5
580CB
  8
HATCH
 10
19025.404577541791
 20
12237.74023912562
 30
0.0
 11
18991.21516959367
 21
12296.95803077251
 31
0.0
  0
LINE
  5
580CC
  8
HATCH
 10
19190.96876457367
 20
12437.74023912564
 30
0.0
 11
19110.13972688709
 21
12237.74023912562
 31
0.0
  0
LINE
  5
580CD
  8
HATCH
 10
19048.111621716511
 20
12437.74023912564
 30
0.0
 11
18967.282584029988
 21
12237.74023912562
 31
0.0
  0
LINE
  5
580CF
  8
SUNPOU
 10
18546.352880248029
 20
13277.74023912562
 30
0.0
 11
18546.352880248029
 21
13879.530614496991
 31
0.0
  0
LINE
  5
580D2
  8
U1
 10
17739.250097945551
 20
13437.740239125649
 30
0.0
 11
17791.250150049611
 21
13437.740239125649
 31
0.0
  0
LINE
  5
580D4
  8
U1
 10
17791.250150049611
 20
13277.74023912562
 30
0.0
 11
18005.25012399755
 21
13277.74023912562
 31
0.0
  0
LINE
  5
580D5
  8
SUNPOU
 10
17765.25012399755
 20
13519.04573399794
 30
0.0
 11
17765.25012399755
 21
14037.741000646371
 31
0.0
  0
LINE
  5
580D6
  8
SUNPOU
 10
18085.25012399755
 20
13277.74023912562
 30
0.0
 11
18626.352880248029
 21
13277.74023912562
 31
0.0
  0
LINE
  5
580D7
  8
SUNPOU
 10
18005.250524797979
 20
13357.74023912562
 30
0.0
 11
18005.250524797979
 21
14357.74132128671
 31
0.0
  0
LINE
  5
580D8
  8
HIKIDASHI
 10
17845.25012399755
 20
13576.30430373116
 30
0.0
 11
18273.318985670379
 21
14317.74132128671
 31
0.0
  0
LINE
  5
580DB
  8
SUNPOU
 10
17285.25012399755
 20
13357.74023912562
 30
0.0
 11
17285.25012399755
 21
14037.741000646371
 31
0.0
  0
TEXT
  5
580DC
  8
HIKIDASHI
 10
16800.034454076129
 20
13629.50982164155
 30
0.0
 40
160.0
  1
D13
 41
0.6666666666666666
  7
00
  0
LINE
  5
580DD
  8
HIKIDASHI
 10
16759.919431170139
 20
13549.50982164155
 30
0.0
 11
17162.876235158459
 21
13549.50982164155
 31
0.0
  0
LINE
  5
580DE
  8
SUNPOU
 10
17285.25012399755
 20
13357.74023912562
 30
0.0
 11
17285.25012399755
 21
14357.74132128671
 31
0.0
  0
LINE
  5
580DF
  8
SUNPOU
 10
17765.25012399755
 20
13957.7410006464
 30
0.0
 11
17285.25012399755
 21
13957.7410006464
 31
0.0
  0
LINE
  5
580E0
  8
U1
 10
17285.25012399755
 20
13277.74023912562
 30
0.0
 11
17739.250097945551
 21
13277.74023912562
 31
0.0
  0
LINE
  5
580E2
  8
SUNPOU
 10
17325.25012399755
 20
14277.74132128671
 30
0.0
 11
17965.250524797979
 21
14277.74132128671
 31
0.0
  0
LINE
  5
580E4
  8
SUNPOU
 10
17205.25012399755
 20
13277.74023912562
 30
0.0
 11
15871.148232486839
 21
13277.74023912562
 31
0.0
  0
LINE
  5
580E5
  8
SUNPOU
 10
17205.25012399755
 20
13277.74023912562
 30
0.0
 11
15871.148232486839
 21
13277.74023912562
 31
0.0
  0
TEXT
  5
580E6
  8
U3
 10
15910.38108700989
 20
13612.772254533391
 30
0.0
 40
160.00016032016029
  1
外
  7
01
  0
CIRCLE
  5
580E7
  8
U3
 10
15978.97440230292
 20
13692.77233469346
 30
0.0
 40
140.00014028014019
  0
LINE
  5
580E8
  8
SUNPOU
 10
18546.352880248029
 20
13237.74023912562
 30
0.0
 11
18546.352880248029
 21
12837.740239125649
 31
0.0
  0
LINE
  5
580EA
  8
HATCH
 10
18704.275342490389
 20
12437.74023912564
 30
0.0
 11
18738.46475043851
 21
12378.52244747875
 31
0.0
  0
LINE
  5
580EB
  8
HATCH
 10
18847.132485347549
 20
12437.74023912564
 30
0.0
 11
18881.321893295659
 21
12378.52244747875
 31
0.0
  0
LINE
  5
580EC
  8
HATCH
 10
18275.703913918969
 20
12437.74023912564
 30
0.0
 11
18309.89332186709
 21
12378.52244747875
 31
0.0
  0
LINE
  5
580ED
  8
HATCH
 10
18418.56105677607
 20
12437.74023912564
 30
0.0
 11
18452.750464724239
 21
12378.52244747875
 31
0.0
  0
LINE
  5
580EE
  8
HATCH
 10
18561.41819963323
 20
12437.74023912564
 30
0.0
 11
18595.60760758134
 21
12378.52244747875
 31
0.0
  0
LINE
  5
580EF
  8
KISO_U
 10
18319.221024599381
 20
12437.74023912564
 30
0.0
 11
18719.221024599428
 21
12837.740239125649
 31
0.0
  0
LINE
  5
580F0
  8
KISO_U
 10
18409.73078328207
 20
12437.74023912564
 30
0.0
 11
18809.730783282059
 21
12837.740239125649
 31
0.0
  0
ARC
  5
580F1
  8
U1
 10
17677.250097945551
 20
13038.76373929428
 30
0.0
 40
61.999999999999993
 50
0.0
 51
180.0
  0
ARC
  5
580F2
  8
U1
 10
17677.250045841491
 20
13038.76373929428
 30
0.0
 40
26.0
 50
90.0
 51
179.8852938315091
  0
ARC
  5
580F3
  8
U1
 10
17677.250097945551
 20
13038.76373929428
 30
0.0
 40
26.0
 50
0.0
 51
90.0
  0
LINE
  5
580F4
  8
U1
 10
17739.250097945551
 20
13012.763739294251
 30
0.0
 11
17703.250097945551
 21
13012.763739294251
 31
0.0
  0
LINE
  5
580F5
  8
KISO_U
 10
17651.250097945551
 20
12839.25995458951
 30
0.0
 11
17739.250097945551
 21
12927.259954589499
 31
0.0
  0
LINE
  5
580F6
  8
KISO_U
 10
17651.250097945551
 20
12929.769713272161
 30
0.0
 11
17739.250097945551
 21
13017.769713272161
 31
0.0
  0
CIRCLE
  5
580F7
  8
U1
 10
17677.250097945551
 20
13038.76373929428
 30
0.0
 40
26.0
  0
LINE
  5
580F8
  8
U1
 10
17739.250097945551
 20
13012.763739294251
 30
0.0
 11
17739.250097945551
 21
13038.76373929428
 31
0.0
  0
LINE
  5
580F9
  8
U1
 10
17703.250097945551
 20
13012.763739294251
 30
0.0
 11
17703.250097945551
 21
13038.76373929428
 31
0.0
  0
LINE
  5
580FA
  8
KISO_U
 10
17791.250150049611
 20
12888.75024801088
 30
0.0
 11
18005.25012399755
 21
13102.75022195885
 31
0.0
  0
LINE
  5
580FB
  8
KISO_U
 10
17791.250150049611
 20
12979.260006693539
 30
0.0
 11
18005.25012399755
 21
13193.25998064154
 31
0.0
  0
LINE
  5
580FC
  8
HATCH
 10
18132.84677106181
 20
12437.74023912564
 30
0.0
 11
18167.03617900992
 21
12378.52244747875
 31
0.0
  0
LINE
  5
580FD
  8
HATCH
 10
18005.25012399755
 20
12411.3082850636
 30
0.0
 11
18024.17903615276
 21
12378.52244747875
 31
0.0
  0
LINE
  5
580FE
  8
HATCH
 10
18048.111621716511
 20
12437.74023912564
 30
0.0
 11
18005.25012399755
 21
12331.685536643279
 31
0.0
  0
LINE
  5
580FF
  8
U1
 10
17671.250029809471
 20
12597.73939744479
 30
0.0
 11
17671.250029809471
 21
12649.73944954885
 31
0.0
  0
LINE
  5
58100
  8
U1
 10
17751.250109969569
 20
12597.73939744479
 30
0.0
 11
17671.250029809471
 21
12597.73939744479
 31
0.0
  0
LINE
  5
58101
  8
U1
 10
17671.250029809471
 20
12649.73944954885
 30
0.0
 11
17739.250097945551
 21
12649.73944954885
 31
0.0
  0
ARC
  5
58102
  8
U1
 10
17751.250109969569
 20
12637.73943752484
 30
0.0
 40
40.000040080040073
 50
270.0
 51
0.0
  0
LINE
  5
58103
  8
KISO_U
 10
17651.250097945551
 20
12359.259954589499
 30
0.0
 11
18005.250123997612
 21
12713.25998064154
 31
0.0
  0
LINE
  5
58104
  8
KISO_U
 10
17651.250097945551
 20
12449.769713272161
 30
0.0
 11
18005.250123997612
 21
12803.769739324171
 31
0.0
  0
LINE
  5
58105
  8
KISO_U
 10
17651.250097945551
 20
12748.75019590685
 30
0.0
 11
17739.250097945551
 21
12836.75019590684
 31
0.0
  0
LINE
  5
58106
  8
KISO_U
 10
18020.240541964751
 20
12437.74023912564
 30
0.0
 11
18420.240541964751
 21
12837.740239125649
 31
0.0
  0
LINE
  5
58107
  8
KISO_U
 10
18005.25012399755
 20
12513.25957984116
 30
0.0
 11
18329.730783282059
 21
12837.740239125649
 31
0.0
  0
LINE
  5
58108
  8
KISO_U
 10
18005.25012399755
 20
12603.76933852382
 30
0.0
 11
18239.221024599381
 21
12837.740239125649
 31
0.0
  0
LINE
  5
58109
  8
HATCH
 10
18739.69029182753
 20
12237.74023912562
 30
0.0
 11
18705.500883879358
 21
12296.95803077251
 31
0.0
  0
LINE
  5
5810A
  8
HATCH
 10
18882.547434684631
 20
12237.74023912562
 30
0.0
 11
18848.358026736511
 21
12296.95803077251
 31
0.0
  0
LINE
  5
5810B
  8
HATCH
 10
18311.118863256052
 20
12237.74023912562
 30
0.0
 11
18276.929455307942
 21
12296.95803077251
 31
0.0
  0
TEXT
  5
5810C
  8
HIKIDASHI
 10
18231.738983638628
 20
11953.51114907494
 30
0.0
 40
160.0
  1
D13
 41
0.6666666666666666
  7
00
  0
LINE
  5
5810D
  8
HATCH
 10
18453.976006113211
 20
12237.74023912562
 30
0.0
 11
18419.78659816509
 21
12296.95803077251
 31
0.0
  0
LINE
  5
5810E
  8
HATCH
 10
18596.833148970371
 20
12237.74023912562
 30
0.0
 11
18562.643741022261
 21
12296.95803077251
 31
0.0
  0
LINE
  5
5810F
  8
HATCH
 10
18168.261720398888
 20
12237.74023912562
 30
0.0
 11
18134.072312450779
 21
12296.95803077251
 31
0.0
  0
LINE
  5
58110
  8
HATCH
 10
18025.404577541791
 20
12237.74023912562
 30
0.0
 11
18005.25012399755
 21
12272.648776662971
 31
0.0
  0
LINE
  5
58111
  8
KISO_U
 10
17651.250097945551
 20
11969.76971327219
 30
0.0
 11
18005.250123997612
 21
12323.769739324191
 31
0.0
  0
LINE
  5
58112
  8
KISO_U
 10
17651.250097945551
 20
11879.25995458953
 30
0.0
 11
18005.250123997612
 21
12233.259980641569
 31
0.0
  0
LINE
  5
58113
  8
U1
 10
18005.250123997612
 20
11717.74023912564
 30
0.0
 11
18125.250524797979
 21
11717.74023912564
 31
0.0
  0
LINE
  5
58114
  8
KISO_U
 10
17651.250097945551
 20
11489.76971327219
 30
0.0
 11
18005.25012399755
 21
11843.7697393242
 31
0.0
  0
LINE
  5
58115
  8
KISO_U
 10
17651.250097945551
 20
11788.75019590687
 30
0.0
 11
18005.250123997612
 21
12142.750221958881
 31
0.0
  0
LINE
  5
58116
  8
HIKIDASHI
 10
17809.18643604828
 20
11493.870930423491
 30
0.0
 11
18191.623960732639
 21
11873.51114907497
 31
0.0
  0
LINE
  5
58117
  8
HIKIDASHI
 10
18191.623960732639
 20
11873.51114907497
 30
0.0
 11
18594.580764720959
 21
11873.51114907497
 31
0.0
  0
LINE
  5
58118
  8
HATCH
 10
18619.540193145091
 20
12437.74023912564
 30
0.0
 11
18538.71115545851
 21
12237.74023912562
 31
0.0
  0
LINE
  5
58119
  8
HATCH
 10
18476.683050287931
 20
12437.74023912564
 30
0.0
 11
18395.85401260135
 21
12237.74023912562
 31
0.0
  0
LINE
  5
5811A
  8
HATCH
 10
18333.825907430772
 20
12437.74023912564
 30
0.0
 11
18252.996869744249
 21
12237.74023912562
 31
0.0
  0
LINE
  5
5811B
  8
HATCH
 10
18190.968764573608
 20
12437.74023912564
 30
0.0
 11
18110.13972688709
 21
12237.74023912562
 31
0.0
  0
LINE
  5
5811C
  8
U1
 10
18005.25012399755
 20
12837.740239125649
 30
0.0
 11
18005.25012399755
 21
12237.74023912564
 31
0.0
  0
LINE
  5
5811D
  8
KISO_U
 10
17651.250097945551
 20
12268.75019590685
 30
0.0
 11
18005.250123997612
 21
12622.750221958881
 31
0.0
  0
LINE
  5
5811E
  8
HATCH
 10
18762.39733600225
 20
12437.74023912564
 30
0.0
 11
18681.568298315669
 21
12237.74023912562
 31
0.0
  0
LINE
  5
5811F
  8
U3
 10
17053.99633624042
 20
12371.5636156165
 30
0.0
 11
17120.172959749569
 21
12437.74023912564
 31
0.0
  0
LINE
  5
58120
  8
HIKIDASHI
 10
17522.028600320609
 20
12523.257209061931
 30
0.0
 11
17220.596633393528
 21
12943.734078555421
 31
0.0
  0
TEXT
  5
58121
  8
HIKIDASHI
 10
16435.013659085889
 20
13050.40074522211
 30
0.0
 40
160.0
  1
%%c
 41
0.6666666666666666
  7
00
  0
TEXT
  5
58122
  8
HIKIDASHI
 10
16557.17979461285
 20
13023.734078555421
 30
0.0
 40
160.0
  1
9
 41
0.6666666666666666
  7
00
  0
LINE
  5
58123
  8
SUNPOU
 10
16625.793838760968
 20
12437.74023912564
 30
0.0
 11
16745.733988926029
 21
12645.482673078919
 31
0.0
  0
LINE
  5
58124
  8
U3
 10
16717.99633624042
 20
12371.5636156165
 30
0.0
 11
16784.172959749569
 21
12437.74023912564
 31
0.0
  0
LINE
  5
58125
  8
U3
 10
16483.819712731329
 20
12371.5636156165
 30
0.0
 11
16549.99633624042
 21
12437.74023912564
 31
0.0
  0
LINE
  5
58126
  8
SUNPOU
 10
16745.733988926029
 20
12645.482673078919
 30
0.0
 11
16505.853688595969
 21
12645.482673078919
 31
0.0
  0
LINE
  5
58127
  8
SUNPOU
 10
16505.853688595969
 20
12645.482673078919
 30
0.0
 11
16625.793838760968
 21
12437.74023912564
 31
0.0
  0
TEXT
  5
58128
  8
SUNPOU
 10
16511.202895370239
 20
12730.35454096709
 30
0.0
 40
160.00016032016029
  1
G.L
 41
0.6700000000000002
  7
00
  0
LINE
  5
58129
  8
HIKIDASHI
 10
16382.07477137742
 20
12943.734078555421
 30
0.0
 11
17220.596633393528
 21
12943.734078555421
 31
0.0
  0
LINE
  5
5812A
  8
U3
 10
17285.25012399755
 20
12437.74023912564
 30
0.0
 11
16444.434153892202
 21
12437.74023912564
 31
0.0
  0
TEXT
  5
5812B
  8
HIKIDASHI
 10
16719.090323753
 20
13023.734078555421
 30
0.0
 40
160.0
  1
@150
 41
0.6666666666666666
  7
00
  0
LINE
  5
5812C
  8
U1
 10
17165.249723197179
 20
11717.74023912564
 30
0.0
 11
17285.25012399755
 21
11717.74023912564
 31
0.0
  0
LINE
  5
5812E
  8
SUNPOU
 10
17085.249723197179
 20
11717.74023912564
 30
0.0
 11
16511.148232486841
 21
11717.74023912564
 31
0.0
  0
LINE
  5
5812F
  8
U3
 10
17104.908024485849
 20
12320.651927371069
 30
0.0
 11
17221.99633624042
 21
12437.74023912564
 31
0.0
  0
LINE
  5
58130
  8
U3
 10
16768.908024485849
 20
12320.651927371069
 30
0.0
 11
16885.99633624042
 21
12437.74023912564
 31
0.0
  0
LINE
  5
58131
  8
U3
 10
16819.819712731271
 20
12269.740239125649
 30
0.0
 11
16987.819712731271
 21
12437.74023912564
 31
0.0
  0
LINE
  5
58132
  8
U3
 10
16885.99633624042
 20
12335.916862634769
 30
0.0
 11
16952.172959749569
 21
12269.740239125649
 31
0.0
  0
LINE
  5
58133
  8
U3
 10
16936.908024485849
 20
12386.828550880189
 30
0.0
 11
17053.99633624042
 21
12269.740239125649
 31
0.0
  0
LINE
  5
58134
  8
U3
 10
16987.819712731271
 20
12437.74023912564
 30
0.0
 11
17155.819712731271
 21
12269.740239125649
 31
0.0
  0
LINE
  5
58135
  8
U3
 10
16483.819712731271
 20
12269.740239125649
 30
0.0
 11
16651.819712731271
 21
12437.74023912564
 31
0.0
  0
LINE
  5
58136
  8
U3
 10
16549.99633624042
 20
12335.916862634769
 30
0.0
 11
16616.172959749569
 21
12269.740239125649
 31
0.0
  0
LINE
  5
58137
  8
U3
 10
16600.908024485849
 20
12386.828550880189
 30
0.0
 11
16717.99633624042
 21
12269.740239125649
 31
0.0
  0
LINE
  5
58138
  8
U3
 10
16651.819712731271
 20
12437.74023912564
 30
0.0
 11
16819.819712731271
 21
12269.740239125649
 31
0.0
  0
LINE
  5
58139
  8
KISO_U
 10
17285.25012399755
 20
12382.75022195891
 30
0.0
 11
17615.250061873499
 21
12712.75015983483
 31
0.0
  0
LINE
  5
5813A
  8
KISO_U
 10
17285.25012399755
 20
12473.259980641569
 30
0.0
 11
17615.250061873499
 21
12803.259918517489
 31
0.0
  0
LINE
  5
5813B
  8
KISO_U
 10
17285.25012399755
 20
12563.76973932422
 30
0.0
 11
17615.250061873499
 21
12893.76967720012
 31
0.0
  0
LINE
  5
5813C
  8
KISO_U
 10
17165.249723197179
 20
11483.76933852382
 30
0.0
 11
17615.250061873499
 21
11933.769677200151
 31
0.0
  0
LINE
  5
5813D
  8
KISO_U
 10
17285.25012399755
 20
12083.769739324231
 30
0.0
 11
17615.250061873499
 21
12413.769677200151
 31
0.0
  0
LINE
  5
5813E
  8
KISO_U
 10
17285.25012399755
 20
11902.750221958881
 30
0.0
 11
17615.250061873499
 21
12232.75015983483
 31
0.0
  0
LINE
  5
5813F
  8
KISO_U
 10
17285.25012399755
 20
11993.259980641569
 30
0.0
 11
17615.250061873499
 21
12323.259918517489
 31
0.0
  0
LINE
  5
58142
  8
U1
 10
18245.250645038072
 20
11117.740239125649
 30
0.0
 11
18245.250645038072
 21
10517.740239125649
 31
0.0
  0
LINE
  5
58143
  8
KISO_U
 10
17940.240141164319
 20
11117.740239125649
 30
0.0
 11
18125.250524797979
 21
11302.75062275928
 31
0.0
  0
ARC
  5
58144
  8
U1
 10
17677.250045841491
 20
11362.765081975611
 30
0.0
 40
61.999999999999993
 50
180.0
 51
270.0
  0
LINE
  5
58145
  8
U1
 10
17703.250097945551
 20
11388.765081975611
 30
0.0
 11
17703.250097945551
 21
11362.765081975611
 31
0.0
  0
LINE
  5
58146
  8
U1
 10
17739.250097945551
 20
11388.765081975611
 30
0.0
 11
17739.250097945551
 21
11362.765081975611
 31
0.0
  0
LINE
  5
58147
  8
U1
 10
17739.250097945551
 20
11388.765081975611
 30
0.0
 11
17703.250097945551
 21
11388.765081975611
 31
0.0
  0
ARC
  5
58148
  8
U1
 10
17677.250045841491
 20
11362.765081975611
 30
0.0
 40
26.0
 50
180.0
 51
270.0
  0
ARC
  5
58149
  8
U1
 10
17677.250097945551
 20
11362.765081975611
 30
0.0
 40
26.0
 50
270.0
 51
0.0
  0
ARC
  5
5814A
  8
U1
 10
17677.250097945551
 20
11362.765081975611
 30
0.0
 40
61.999999999999993
 50
270.0
 51
0.0
  0
CIRCLE
  5
5814B
  8
U1
 10
17677.250097945551
 20
11362.765081975611
 30
0.0
 40
26.0
  0
LINE
  5
5814C
  8
KISO_U
 10
17849.730382481692
 20
11117.740239125649
 30
0.0
 11
18125.250524797979
 21
11393.260381441971
 31
0.0
  0
LINE
  5
58150
  8
KISO_U
 10
17956.081600750778
 20
10917.740239125649
 30
0.0
 11
18156.081600750778
 21
11117.740239125649
 31
0.0
  0
LINE
  5
58151
  8
KISO_U
 10
18046.59360075077
 20
10917.740239125649
 30
0.0
 11
18245.250645038072
 21
11116.397283412951
 31
0.0
  0
LINE
  5
58152
  8
HATCH
 10
18245.250645038072
 20
10670.06063257984
 30
0.0
 11
18183.691090923428
 21
10517.740239125649
 31
0.0
  0
LINE
  5
58153
  8
HATCH
 10
18245.25064503813
 20
10552.054263542001
 30
0.0
 11
18217.19670018453
 21
10600.64512138112
 31
0.0
  0
LINE
  5
58155
  8
SUNPOU
 10
18125.250524797979
 20
10437.740239125649
 30
0.0
 11
18125.250524797979
 21
10037.73983832524
 31
0.0
  0
TEXT
  5
58156
  8
SUNPOU
 10
17889.92873466287
 20
9639.988904098951
 30
0.0
 40
240.0
  1
断 面
  7
01
  0
LINE
  5
58157
  8
KISO_U
 10
17045.249602957028
 20
10966.908241331919
 30
0.0
 11
17196.081600750778
 21
11117.740239125649
 31
0.0
  0
LINE
  5
58159
  8
HATCH
 10
17063.977831698649
 20
10917.739998645409
 30
0.0
 11
17111.842987785909
 21
10834.83511638993
 31
0.0
  0
LINE
  5
5815A
  8
HATCH
 10
17145.348694236
 20
10917.740239125649
 30
0.0
 11
17045.249602957028
 21
10670.059222144861
 31
0.0
  0
LINE
  5
5815C
  8
KISO_U
 10
17086.59360075077
 20
10917.740239125649
 30
0.0
 11
17286.59360075077
 21
11117.740239125649
 31
0.0
  0
LINE
  5
5815D
  8
U1
 10
17045.249602957028
 20
10517.740239125649
 30
0.0
 11
17045.249602957028
 21
11117.740239125649
 31
0.0
  0
LINE
  5
5815E
  8
SUNPOU
 10
15951.148232486839
 20
10957.740239125649
 30
0.0
 11
15951.148232486839
 21
10997.740239125649
 31
0.0
  0
LINE
  5
58160
  8
SUNPOU
 10
15951.148232486839
 20
10877.740239125649
 30
0.0
 11
15951.148232486839
 21
10837.740239125649
 31
0.0
  0
LINE
  5
58161
  8
SUNPOU
 10
15951.148232486839
 20
10917.74023912562
 30
0.0
 11
15951.148232486839
 21
10517.740239125649
 31
0.0
  0
LINE
  5
58162
  8
SUNPOU
 10
15951.148232486839
 20
10917.74023912562
 30
0.0
 11
15951.148232486839
 21
11117.740239125649
 31
0.0
  0
LINE
  5
58163
  8
SUNPOU
 10
16965.249602957028
 20
11117.740239125649
 30
0.0
 11
16511.148232486841
 21
11117.740239125649
 31
0.0
  0
LINE
  5
58165
  8
SUNPOU
 10
17165.249723197179
 20
10437.740239125649
 30
0.0
 11
17165.249723197179
 21
10037.73983832524
 31
0.0
  0
TEXT
  5
58166
  8
SUNPOU
 10
16839.81036862759
 20
9639.988904098951
 30
0.0
 40
240.0
  1
A  ~  A'
 41
0.6700000000000002
  7
00
  0
LINE
  5
58167
  8
SUNPOU
 10
17205.249723197179
 20
10117.73983832524
 30
0.0
 11
18085.250524797979
 21
10117.73983832524
 31
0.0
  0
LINE
  5
58168
  8
U1
 10
18245.250645038072
 20
10517.740239125649
 30
0.0
 11
17045.249602957028
 21
10517.740239125649
 31
0.0
  0
LINE
  5
58169
  8
U1
 10
17045.249602957028
 20
11117.740239125649
 30
0.0
 11
18245.250645038072
 21
11117.740239125649
 31
0.0
  0
LINE
  5
5816A
  8
U1
 10
17045.249602957028
 20
10917.740239125649
 30
0.0
 11
18245.250645038072
 21
10917.740239125649
 31
0.0
  0
LINE
  5
5816C
  8
KISO_U
 10
17476.081600750778
 20
10917.740239125649
 30
0.0
 11
17676.081600750778
 21
11117.740239125649
 31
0.0
  0
LINE
  5
5816D
  8
KISO_U
 10
17566.59360075077
 20
10917.740239125649
 30
0.0
 11
17766.59360075077
 21
11117.740239125649
 31
0.0
  0
LINE
  5
5816E
  8
KISO_U
 10
17460.240141164319
 20
11117.740239125649
 30
0.0
 11
17649.714876473048
 21
11307.214974434321
 31
0.0
  0
LINE
  5
5816F
  8
KISO_U
 10
17369.73038248163
 20
11117.740239125649
 30
0.0
 11
17615.250061873561
 21
11363.25991851752
 31
0.0
  0
LINE
  5
58170
  8
U1
 10
18125.250524797979
 20
11717.74023912564
 30
0.0
 11
18125.250524797979
 21
11117.740239125649
 31
0.0
  0
LINE
  5
58172
  8
KISO_U
 10
17651.250097945551
 20
11399.25995458953
 30
0.0
 11
18005.25012399755
 21
11753.25998064154
 31
0.0
  0
LINE
  5
58173
  8
KISO_U
 10
17165.249723197179
 20
11393.25957984116
 30
0.0
 11
17615.250061873499
 21
11843.259918517489
 31
0.0
  0
LINE
  5
58174
  8
KISO_U
 10
17165.249723197179
 20
11302.74982115847
 30
0.0
 11
17615.250061873499
 21
11752.75015983483
 31
0.0
  0
LINE
  5
58176
  8
SUNPOU
 10
16591.148232486841
 20
11157.740239125649
 30
0.0
 11
16591.148232486841
 21
11677.74023912564
 31
0.0
  0
LINE
  5
58177
  8
U1
 10
17165.249723197179
 20
11717.74023912564
 30
0.0
 11
17165.249723197179
 21
11117.740239125649
 31
0.0
  0
LINE
  5
58178
  8
KISO_U
 10
17279.220623798999
 20
11117.740239125649
 30
0.0
 11
17615.250061873561
 21
11453.76967720018
 31
0.0
  0
LINE
  5
58179
  8
KISO_U
 10
17731.264984014309
 20
11388.765081975611
 30
0.0
 11
18060.240141164319
 21
11717.74023912564
 31
0.0
  0
LINE
  5
5817A
  8
KISO_U
 10
17759.220623798999
 20
11117.740239125649
 30
0.0
 11
18125.250524797979
 21
11483.770140124599
 31
0.0
  0
LINE
  5
5817B
  8
U1
 10
17651.250097945551
 20
11362.71302999995
 30
0.0
 11
17651.250097945551
 21
13038.76373929428
 31
0.0
  0
LINE
  5
5817C
  8
U1
 10
17615.250061873561
 20
11362.720495309009
 30
0.0
 11
17615.250061873499
 21
13038.76373929428
 31
0.0
  0
LINE
  5
5817D
  8
SUNPOU
 10
15951.148232486839
 20
13237.74023912562
 30
0.0
 11
15951.148232486839
 21
11157.740239125649
 31
0.0
  0
LINE
  5
58181
  8
SUNPOU
 10
16965.249602957028
 20
11117.740239125649
 30
0.0
 11
15871.148232486839
 21
11117.740239125649
 31
0.0
  0
LINE
  5
58182
  8
SUNPOU
 10
16965.249602957028
 20
10517.740239125649
 30
0.0
 11
15871.148232486839
 21
10517.740239125649
 31
0.0
  0
LINE
  5
58183
  8
SUNPOU
 10
16965.24960295709
 20
10917.740239125649
 30
0.0
 11
15871.148232486839
 21
10917.74023912562
 31
0.0
  0
LINE
  5
58184
  8
SUNPOU
 10
16965.249602957028
 20
10917.740239125649
 30
0.0
 11
15871.148232486839
 21
10917.74023912562
 31
0.0
  0
LINE
  5
5818A
  8
KISO_U
 10
17791.250150049611
 20
13069.76976537623
 30
0.0
 11
17999.220623799061
 21
13277.74023912562
 31
0.0
  0
LINE
  5
5818B
  8
HIKIDASHI
 10
17545.313761618199
 20
13169.86960122766
 30
0.0
 11
17162.876235158459
 21
13549.50982164155
 31
0.0
  0
LINE
  5
5818C
  8
KISO_U
 10
17285.25012399755
 20
13043.76973932422
 30
0.0
 11
17519.220623798999
 21
13277.74023912562
 31
0.0
  0
LINE
  5
5818E
  8
U1
 10
18005.250123997612
 20
11717.74023912564
 30
0.0
 11
18005.25012399755
 21
13277.74023912562
 31
0.0
  0
LINE
  5
5818F
  8
U1
 10
17285.25012399755
 20
11717.74023912564
 30
0.0
 11
17285.25012399755
 21
13277.74023912562
 31
0.0
  0
LINE
  5
58190
  8
KISO_U
 10
17285.25012399755
 20
12862.750221958881
 30
0.0
 11
17700.240141164319
 21
13277.74023912562
 31
0.0
  0
LINE
  5
58191
  8
KISO_U
 10
17285.25012399755
 20
12953.25998064156
 30
0.0
 11
17609.730382481692
 21
13277.74023912562
 31
0.0
  0
LINE
  5
58192
  8
U1
 10
17739.250097945551
 20
12649.73944954885
 30
0.0
 11
17739.250097945551
 21
13437.740239125649
 31
0.0
  0
LINE
  5
58193
  8
U1
 10
17791.250150049611
 20
13437.740239125649
 30
0.0
 11
17791.250150049611
 21
12637.73943752484
 31
0.0
  0
LINE
  5
58194
  8
KISO_U
 10
18500.240541964689
 20
12437.74023912564
 30
0.0
 11
18900.240541964751
 21
12837.740239125649
 31
0.0
  0
LINE
  5
58195
  8
U1
 10
18005.25012399755
 20
12237.74023912562
 30
0.0
 11
19293.609904982419
 21
12237.74023912562
 31
0.0
  0
LINE
  5
58196
  8
U1
 10
18005.25012399755
 20
12437.74023912564
 30
0.0
 11
19293.609904982419
 21
12437.74023912564
 31
0.0
  0
LINE
  5
58197
  8
U1
 10
18005.25012399755
 20
12837.740239125649
 30
0.0
 11
19293.609904982419
 21
12837.740239125649
 31
0.0
  0
LINE
  5
58198
  8
HATCH
 10
18905.254478859351
 20
12437.74023912564
 30
0.0
 11
18824.425441172829
 21
12237.74023912562
 31
0.0
  0
LINE
  5
58199
  8
KISO_U
 10
18889.730783282059
 20
12437.74023912564
 30
0.0
 11
19289.730783282059
 21
12837.740239125649
 31
0.0
  0
LINE
  5
5819A
  8
KISO_U
 10
18799.22102459937
 20
12437.74023912564
 30
0.0
 11
19199.221024599428
 21
12837.740239125649
 31
0.0
  0
LINE
  5
5819B
  8
SUNPOU
 10
19085.191075763421
 20
13045.482673078919
 30
0.0
 11
18845.310775433361
 21
13045.482673078919
 31
0.0
  0
TEXT
  5
5819C
  8
SUNPOU
 10
18850.65998220762
 20
13090.35454096709
 30
0.0
 40
160.00016032016029
  1
F.L
 41
0.6700000000000002
  7
00
  0
LINE
  5
5819D
  8
SUNPOU
 10
18845.310775433361
 20
13045.482673078919
 30
0.0
 11
18965.25092559836
 21
12837.740239125649
 31
0.0
  0
TEXT
  5
581B8
  8
SUNPOU
 10
18610.843645317738
 20
8935.8956447721393
 30
0.0
 40
147.69230769230771
  1
/
 41
0.6700000000000002
  7
00
 11
18610.843645317738
 21
8916.2033370798308
 31
0.0
 73
     1
  0
TEXT
  5
581B9
  8
SUNPOU
 10
18738.742531226511
 20
8898.9725678490486
 30
0.0
 40
147.69230769230771
  1
20
 41
0.6700000000000002
  7
00
 11
18738.742531226511
 21
8879.2802601567382
 31
0.0
 73
     1
  0
TEXT
  5
581BA
  8
SUNPOU
 10
18514.031390687011
 20
8972.8187216952028
 30
0.0
 40
147.69230769230771
  1
1
 41
0.6700000000000002
  7
00
 11
18514.031390687011
 21
8953.1264140028925
 31
0.0
 73
     1
  0
TEXT
  5
581BB
  8
SUNPOU
 10
17874.62598698082
 20
8940.8187216952156
 30
0.0
 40
184.61538461538461
  1
（ S = 　　  ）
 41
0.6700000000000002
  7
00
 11
17874.62598698082
 21
8916.2033370798308
 31
0.0
 73
     1
  0
TEXT
  5
581BC
  8
SUNPOU
 10
16150.004983198511
 20
8916.2033370798308
 30
0.0
 40
240.0
  1
布基礎断面図
  7
01
 72
     4
 11
16974.004983198509
 21
9036.2033370798308
 31
0.0
  0
TEXT
  5
581BE
  8
HIKIDASHI
 10
18353.318985670379
 20
14397.74132128671
 30
0.0
 40
160.0001603201604
  1
アンカーボルト（別途）
  7
01
  0
TEXT
  5
581BF
  8
HIKIDASHI
 10
18353.318985670379
 20
14077.74132128671
 30
0.0
 40
159.20398009950239
  1
W ／
 41
0.6700000000000002
  7
00
  0
TEXT
  5
581C0
  8
HIKIDASHI
 10
18485.942649107241
 20
14124.727293978091
 30
0.0
 40
119.4029850746269
  1
1
 41
0.6700000000000002
  7
00
  0
TEXT
  5
581C1
  8
HIKIDASHI
 10
18914.142387600419
 20
14077.36979026432
 30
0.0
 40
159.20398009950239
  1
210
 41
0.6700000000000002
  7
00
  0
TEXT
  5
581C2
  8
HIKIDASHI
 10
18769.901713550418
 20
14097.641818799129
 30
0.0
 40
159.20398009950239
  1
x
 41
0.6700000000000002
  7
00
  0
TEXT
  5
581C3
  8
HIKIDASHI
 10
18642.195158545321
 20
14076.680973923731
 30
0.0
 40
119.4029850746269
  1
2
 41
0.6700000000000002
  7
00
  0
LINE
  5
581C4
  8
HIKIDASHI
 10
18273.318985670379
 20
14317.74132128671
 30
0.0
 11
20417.320973640351
 21
14317.74132128671
 31
0.0
  0
TEXT
  5
581C5
  8
HIKIDASHI
 10
18696.200350065279
 20
15500.688256134101
 30
0.0
 40
160.0001603201604
  1
アンカーボルトの止結は、
  7
01
  0
TEXT
  5
581C6
  8
HIKIDASHI
 10
18696.200350065279
 20
15260.688095813941
 30
0.0
 40
160.0001603201604
  1
ダブルナット等の戻り止め
  7
01
  0
TEXT
  5
581C7
  8
HIKIDASHI
 10
18696.200350065279
 20
15020.687935493799
 30
0.0
 40
160.0001603201604
  1
を施す事。
  7
01
  0
LINE
  5
581C8
  8
HIKIDASHI
 10
21026.86927190216
 20
15740.68841645427
 30
0.0
 11
18616.200350065279
 21
15740.68841645427
 31
0.0
  0
LINE
  5
581C9
  8
HIKIDASHI
 10
18616.200350065279
 20
15740.68841645427
 30
0.0
 11
18616.200350065279
 21
14940.687935493799
 31
0.0
  0
LINE
  5
581CA
  8
HIKIDASHI
 10
18616.200350065279
 20
14940.687935493799
 30
0.0
 11
21026.86927190216
 21
14940.687935493799
 31
0.0
  0
LINE
  5
581CB
  8
HIKIDASHI
 10
21026.86927190216
 20
14940.687935493799
 30
0.0
 11
21026.86927190216
 21
15740.68841645427
 31
0.0
  0
LINE
  5
5DA8C
  8
1PL-M1
 10
3967.3919100666262
 20
6063.8263218307384
 30
0.0
 11
3967.3919100666249
 21
12514.580924221889
 31
0.0
  0
LINE
  5
5DA8D
  8
1PL-M1
 10
9567.3919100666208
 20
6063.8263218307284
 30
0.0
 11
9567.3919100666208
 21
12514.58092422188
 31
0.0
  0
LINE
  5
5DB04
  8
1PL-M1
 10
10138.707527613749
 20
9884.5809242219366
 30
0.0
 11
3427.3919100666189
 21
9884.5809242218857
 31
0.0
  0
LINE
  5
5DB05
  8
1PL-M1
 10
10138.707527613749
 20
7134.5809242219366
 30
0.0
 11
3427.3919100666189
 21
7134.5809242218857
 31
0.0
  0
LINE
  5
5DC29
  8
SUNPOU
 10
3427.3919100666249
 20
9884.5809242218966
 30
0.0
 11
2867.391910066624
 21
9884.5809242218966
 31
0.0
  0
TEXT
  5
5DC2A
  8
SUNPOU
 10
2529.3919100666249
 20
9769.5809242218984
 30
0.0
 40
230.0
  1
B0
 41
0.6
  7
00
 72
     4
 11
2667.3919100666249
 21
9884.5809242218966
 31
0.0
  0
CIRCLE
  5
5DC2B
  8
SUNPOU
 10
2667.3919100666249
 20
9884.5809242218966
 30
0.0
 40
200.0
  0
LINE
  5
5DC2C
  8
SUNPOU
 10
3427.3919100666249
 20
7134.5809242218957
 30
0.0
 11
2867.391910066624
 21
7134.5809242218957
 31
0.0
  0
TEXT
  5
5DC2D
  8
SUNPOU
 10
2549.1061957809102
 20
7019.5809242218966
 30
0.0
 40
230.0
  1
A0
 41
0.6
  7
00
 72
     4
 11
2667.3919100666249
 21
7134.5809242218957
 31
0.0
  0
CIRCLE
  5
5DC2E
  8
SUNPOU
 10
2667.3919100666249
 20
7134.5809242218957
 30
0.0
 40
200.0
  0
LINE
  5
5DCE4
  8
U1
 10
3927.1919100666419
 20
9921.7809242219682
 30
0.0
 11
3927.1919100666419
 21
9847.3809242219431
 31
0.0
  0
LINE
  5
5DCE5
  8
U1
 10
3924.891910066624
 20
9921.880924221945
 30
0.0
 11
3924.891910066624
 21
9847.2809242219664
 31
0.0
  0
LINE
  5
5DCE6
  8
U1
 10
4009.891910066624
 20
9847.2809242219664
 30
0.0
 11
4009.891910066624
 21
9921.880924221945
 31
0.0
  0
LINE
  5
5DCE7
  8
U1
 10
4007.5919100666351
 20
9847.3809242219431
 30
0.0
 11
4007.5919100666351
 21
9921.7809242219682
 31
0.0
  0
ARC
  5
5DCE8
  8
U1
 10
3962.1919100666419
 20
9921.880924221945
 30
0.0
 40
5.2000000000000002
 50
0.0
 51
90.0
  0
ARC
  5
5DCE9
  8
U1
 10
3972.591910066636
 20
9921.880924221945
 30
0.0
 40
5.2000000000000002
 50
90.0
 51
180.0
  0
ARC
  5
5DCEA
  8
U1
 10
3966.2419100666311
 20
9910.5309242219664
 30
0.0
 40
3.4499999999999309
 50
180.0
 51
0.0
  0
LINE
  5
5DCEB
  8
U1
 10
3962.1919100666419
 20
9927.0809242219548
 30
0.0
 11
3930.091910066636
 21
9927.0809242219548
 31
0.0
  0
LINE
  5
5DCEC
  8
U1
 10
3962.091910066636
 20
9924.7809242219664
 30
0.0
 11
3930.1919100666419
 21
9924.7809242219664
 31
0.0
  0
ARC
  5
5DCED
  8
U1
 10
3930.091910066636
 20
9921.880924221945
 30
0.0
 40
5.2000000000000002
 50
90.0
 51
180.0
  0
ARC
  5
5DCEE
  8
U1
 10
3930.1919100666419
 20
9921.7809242219682
 30
0.0
 40
3.0
 50
90.0
 51
180.0
  0
LINE
  5
5DCEF
  8
U1
 10
3967.3919100666249
 20
9921.880924221945
 30
0.0
 11
3967.3919100666249
 21
9910.5309242219664
 31
0.0
  0
LINE
  5
5DCF0
  8
U1
 10
3965.091910066636
 20
9921.7809242219682
 30
0.0
 11
3965.091910066636
 21
9910.5309242219664
 31
0.0
  0
LINE
  5
5DCF1
  8
U1
 10
3962.791910066619
 20
9918.0809242219548
 30
0.0
 11
3962.791910066619
 21
9910.5309242219664
 31
0.0
  0
ARC
  5
5DCF2
  8
U1
 10
3962.091910066636
 20
9921.7809242219682
 30
0.0
 40
3.0
 50
0.0
 51
90.0
  0
LINE
  5
5DCF3
  8
U1
 10
3962.791910066619
 20
9918.0809242219548
 30
0.0
 11
3965.091910066636
 21
9918.0809242219548
 31
0.0
  0
LINE
  5
5DCF4
  8
U1
 10
3965.091910066636
 20
9912.0809242219548
 30
0.0
 11
3967.3919100666249
 21
9912.0809242219548
 31
0.0
  0
ARC
  5
5DCF5
  8
U1
 10
3966.2419100666311
 20
9910.5309242219664
 30
0.0
 40
1.1499999999998629
 50
180.0
 51
0.0
  0
LINE
  5
5DCF6
  8
U1
 10
4004.6919100666419
 20
9927.0809242219548
 30
0.0
 11
3972.591910066636
 21
9927.0809242219548
 31
0.0
  0
LINE
  5
5DCF7
  8
U1
 10
4004.5919100666351
 20
9924.7809242219664
 30
0.0
 11
3972.6919100666419
 21
9924.7809242219664
 31
0.0
  0
LINE
  5
5DCF8
  8
U1
 10
3969.6919100666419
 20
9921.7809242219682
 30
0.0
 11
3969.6919100666419
 21
9910.5309242219664
 31
0.0
  0
ARC
  5
5DCF9
  8
U1
 10
3972.6919100666419
 20
9921.7809242219682
 30
0.0
 40
3.0
 50
90.0
 51
180.0
  0
ARC
  5
5DCFA
  8
U1
 10
4004.6919100666419
 20
9921.880924221945
 30
0.0
 40
5.2000000000000002
 50
0.0
 51
90.0
  0
ARC
  5
5DCFB
  8
U1
 10
4004.5919100666351
 20
9921.7809242219682
 30
0.0
 40
3.0
 50
0.0
 51
90.0
  0
LINE
  5
5DCFC
  8
U1
 10
3930.091910066636
 20
9842.0809242219548
 30
0.0
 11
4004.6919100666419
 21
9842.0809242219548
 31
0.0
  0
LINE
  5
5DCFD
  8
U1
 10
3930.1919100666419
 20
9844.3809242219431
 30
0.0
 11
4004.5919100666351
 21
9844.3809242219431
 31
0.0
  0
ARC
  5
5DCFE
  8
U1
 10
3930.091910066636
 20
9847.2809242219664
 30
0.0
 40
5.2000000000000002
 50
180.0
 51
270.0
  0
ARC
  5
5DCFF
  8
U1
 10
3930.1919100666419
 20
9847.3809242219431
 30
0.0
 40
3.0
 50
180.0
 51
270.0
  0
ARC
  5
5DD00
  8
U1
 10
4004.6919100666419
 20
9847.2809242219664
 30
0.0
 40
5.2000000000000002
 50
270.0
 51
0.0
  0
ARC
  5
5DD01
  8
U1
 10
4004.6919100666419
 20
9847.2809242219664
 30
0.0
 40
5.2000000000000011
 50
270.0
 51
0.0
  0
ARC
  5
5DD02
  8
U1
 10
4004.5919100666351
 20
9847.3809242219431
 30
0.0
 40
3.0
 50
270.0
 51
0.0
  0
LINE
  5
5DD03
  8
U1
 10
3927.1919100666419
 20
7171.7809242219673
 30
0.0
 11
3927.1919100666419
 21
7097.3809242219431
 31
0.0
  0
LINE
  5
5DD04
  8
U1
 10
3924.891910066624
 20
7171.880924221944
 30
0.0
 11
3924.891910066624
 21
7097.2809242219664
 31
0.0
  0
LINE
  5
5DD05
  8
U1
 10
4009.891910066624
 20
7097.2809242219664
 30
0.0
 11
4009.891910066624
 21
7171.880924221944
 31
0.0
  0
LINE
  5
5DD06
  8
U1
 10
4007.5919100666351
 20
7097.3809242219431
 30
0.0
 11
4007.5919100666351
 21
7171.7809242219673
 31
0.0
  0
ARC
  5
5DD07
  8
U1
 10
3962.1919100666419
 20
7171.880924221944
 30
0.0
 40
5.2000000000000002
 50
0.0
 51
90.0
  0
ARC
  5
5DD08
  8
U1
 10
3972.591910066636
 20
7171.880924221944
 30
0.0
 40
5.2000000000000002
 50
90.0
 51
180.0
  0
ARC
  5
5DD09
  8
U1
 10
3966.2419100666311
 20
7160.5309242219664
 30
0.0
 40
3.4499999999999309
 50
180.0
 51
0.0
  0
LINE
  5
5DD0A
  8
U1
 10
3962.1919100666419
 20
7177.0809242219548
 30
0.0
 11
3930.091910066636
 21
7177.0809242219548
 31
0.0
  0
LINE
  5
5DD0B
  8
U1
 10
3962.091910066636
 20
7174.7809242219664
 30
0.0
 11
3930.1919100666419
 21
7174.7809242219664
 31
0.0
  0
ARC
  5
5DD0C
  8
U1
 10
3930.091910066636
 20
7171.880924221944
 30
0.0
 40
5.2000000000000002
 50
90.0
 51
180.0
  0
ARC
  5
5DD0D
  8
U1
 10
3930.1919100666419
 20
7171.7809242219673
 30
0.0
 40
3.0
 50
90.0
 51
180.0
  0
LINE
  5
5DD0E
  8
U1
 10
3967.3919100666249
 20
7171.880924221944
 30
0.0
 11
3967.3919100666249
 21
7160.5309242219664
 31
0.0
  0
LINE
  5
5DD0F
  8
U1
 10
3965.091910066636
 20
7171.7809242219673
 30
0.0
 11
3965.091910066636
 21
7160.5309242219664
 31
0.0
  0
LINE
  5
5DD10
  8
U1
 10
3962.791910066619
 20
7168.0809242219548
 30
0.0
 11
3962.791910066619
 21
7160.5309242219664
 31
0.0
  0
ARC
  5
5DD11
  8
U1
 10
3962.091910066636
 20
7171.7809242219673
 30
0.0
 40
3.0
 50
0.0
 51
90.0
  0
LINE
  5
5DD12
  8
U1
 10
3962.791910066619
 20
7168.0809242219548
 30
0.0
 11
3965.091910066636
 21
7168.0809242219548
 31
0.0
  0
LINE
  5
5DD13
  8
U1
 10
3965.091910066636
 20
7162.0809242219548
 30
0.0
 11
3967.3919100666249
 21
7162.0809242219548
 31
0.0
  0
ARC
  5
5DD14
  8
U1
 10
3966.2419100666311
 20
7160.5309242219664
 30
0.0
 40
1.1499999999998629
 50
180.0
 51
0.0
  0
LINE
  5
5DD15
  8
U1
 10
4004.6919100666419
 20
7177.0809242219548
 30
0.0
 11
3972.591910066636
 21
7177.0809242219548
 31
0.0
  0
LINE
  5
5DD16
  8
U1
 10
4004.5919100666351
 20
7174.7809242219664
 30
0.0
 11
3972.6919100666419
 21
7174.7809242219664
 31
0.0
  0
LINE
  5
5DD17
  8
U1
 10
3969.6919100666419
 20
7171.7809242219673
 30
0.0
 11
3969.6919100666419
 21
7160.5309242219664
 31
0.0
  0
ARC
  5
5DD18
  8
U1
 10
3972.6919100666419
 20
7171.7809242219673
 30
0.0
 40
3.0
 50
90.0
 51
180.0
  0
ARC
  5
5DD19
  8
U1
 10
4004.6919100666419
 20
7171.880924221944
 30
0.0
 40
5.2000000000000002
 50
0.0
 51
90.0
  0
ARC
  5
5DD1A
  8
U1
 10
4004.5919100666351
 20
7171.7809242219673
 30
0.0
 40
3.0
 50
0.0
 51
90.0
  0
LINE
  5
5DD1B
  8
U1
 10
3930.091910066636
 20
7092.0809242219548
 30
0.0
 11
4004.6919100666419
 21
7092.0809242219548
 31
0.0
  0
LINE
  5
5DD1C
  8
U1
 10
3930.1919100666419
 20
7094.3809242219431
 30
0.0
 11
4004.5919100666351
 21
7094.3809242219431
 31
0.0
  0
ARC
  5
5DD1D
  8
U1
 10
3930.091910066636
 20
7097.2809242219664
 30
0.0
 40
5.2000000000000002
 50
180.0
 51
270.0
  0
ARC
  5
5DD1E
  8
U1
 10
3930.1919100666419
 20
7097.3809242219431
 30
0.0
 40
3.0
 50
180.0
 51
270.0
  0
ARC
  5
5DD1F
  8
U1
 10
4004.6919100666419
 20
7097.2809242219664
 30
0.0
 40
5.2000000000000002
 50
270.0
 51
0.0
  0
ARC
  5
5DD20
  8
U1
 10
4004.6919100666419
 20
7097.2809242219664
 30
0.0
 40
5.2000000000000011
 50
270.0
 51
0.0
  0
ARC
  5
5DD21
  8
U1
 10
4004.5919100666351
 20
7097.3809242219431
 30
0.0
 40
3.0
 50
270.0
 51
0.0
  0
LINE
  5
5DD22
  8
U1
 10
9607.5919100666888
 20
9921.7809242219482
 30
0.0
 11
9607.5919100666888
 21
9847.3809242219249
 31
0.0
  0
LINE
  5
5DD23
  8
U1
 10
9609.8919100667063
 20
9921.8809242219249
 30
0.0
 11
9609.8919100667063
 21
9847.2809242219482
 31
0.0
  0
LINE
  5
5DD24
  8
U1
 10
9524.8919100667063
 20
9847.2809242219482
 30
0.0
 11
9524.8919100667063
 21
9921.8809242219249
 31
0.0
  0
LINE
  5
5DD25
  8
U1
 10
9527.1919100666946
 20
9847.3809242219249
 30
0.0
 11
9527.1919100666946
 21
9921.7809242219482
 31
0.0
  0
ARC
  5
5DD26
  8
U1
 10
9572.5919100666888
 20
9921.8809242219249
 30
0.0
 40
5.2000000000000002
 50
90.0
 51
180.0
  0
ARC
  5
5DD27
  8
U1
 10
9562.1919100666946
 20
9921.8809242219249
 30
0.0
 40
5.2000000000000002
 50
0.0
 51
90.0
  0
ARC
  5
5DD28
  8
U1
 10
9568.5419100667004
 20
9910.53092422195
 30
0.0
 40
3.4499999999999309
 50
180.0
 51
0.0
  0
LINE
  5
5DD29
  8
U1
 10
9572.5919100666888
 20
9927.0809242219384
 30
0.0
 11
9604.6919100666964
 21
9927.0809242219384
 31
0.0
  0
LINE
  5
5DD2A
  8
U1
 10
9572.6919100666946
 20
9924.7809242219482
 30
0.0
 11
9604.5919100666888
 21
9924.7809242219482
 31
0.0
  0
ARC
  5
5DD2B
  8
U1
 10
9604.6919100666964
 20
9921.8809242219249
 30
0.0
 40
5.2000000000000002
 50
0.0
 51
90.0
  0
ARC
  5
5DD2C
  8
U1
 10
9604.5919100666888
 20
9921.7809242219482
 30
0.0
 40
3.0
 50
0.0
 51
90.0
  0
LINE
  5
5DD2D
  8
U1
 10
9567.3919100667063
 20
9921.8809242219249
 30
0.0
 11
9567.3919100667063
 21
9910.53092422195
 31
0.0
  0
LINE
  5
5DD2E
  8
U1
 10
9569.6919100666946
 20
9921.7809242219482
 30
0.0
 11
9569.6919100666946
 21
9910.53092422195
 31
0.0
  0
LINE
  5
5DD2F
  8
U1
 10
9571.9919100667121
 20
9918.0809242219366
 30
0.0
 11
9571.9919100667121
 21
9910.53092422195
 31
0.0
  0
ARC
  5
5DD30
  8
U1
 10
9572.6919100666946
 20
9921.7809242219482
 30
0.0
 40
3.0
 50
90.0
 51
180.0
  0
LINE
  5
5DD31
  8
U1
 10
9571.9919100667121
 20
9918.0809242219366
 30
0.0
 11
9569.6919100666946
 21
9918.0809242219366
 31
0.0
  0
LINE
  5
5DD32
  8
U1
 10
9569.6919100666946
 20
9912.0809242219366
 30
0.0
 11
9567.3919100667063
 21
9912.0809242219366
 31
0.0
  0
ARC
  5
5DD33
  8
U1
 10
9568.5419100667004
 20
9910.53092422195
 30
0.0
 40
1.1499999999998629
 50
180.0
 51
0.0
  0
LINE
  5
5DD34
  8
U1
 10
9530.0919100666888
 20
9927.0809242219384
 30
0.0
 11
9562.1919100666946
 21
9927.0809242219384
 31
0.0
  0
LINE
  5
5DD35
  8
U1
 10
9530.1919100666964
 20
9924.7809242219482
 30
0.0
 11
9562.0919100666888
 21
9924.7809242219482
 31
0.0
  0
LINE
  5
5DD36
  8
U1
 10
9565.0919100666888
 20
9921.7809242219482
 30
0.0
 11
9565.0919100666888
 21
9910.53092422195
 31
0.0
  0
ARC
  5
5DD37
  8
U1
 10
9562.0919100666888
 20
9921.7809242219482
 30
0.0
 40
3.0
 50
0.0
 51
90.0
  0
ARC
  5
5DD38
  8
U1
 10
9530.0919100666888
 20
9921.8809242219249
 30
0.0
 40
5.2000000000000002
 50
90.0
 51
180.0
  0
ARC
  5
5DD39
  8
U1
 10
9530.1919100666964
 20
9921.7809242219482
 30
0.0
 40
3.0
 50
90.0
 51
180.0
  0
LINE
  5
5DD3A
  8
U1
 10
9604.6919100666964
 20
9842.0809242219366
 30
0.0
 11
9530.0919100666888
 21
9842.0809242219366
 31
0.0
  0
LINE
  5
5DD3B
  8
U1
 10
9604.5919100666888
 20
9844.3809242219231
 30
0.0
 11
9530.1919100666964
 21
9844.3809242219231
 31
0.0
  0
ARC
  5
5DD3C
  8
U1
 10
9604.6919100666964
 20
9847.2809242219482
 30
0.0
 40
5.2000000000000002
 50
270.0
 51
0.0
  0
ARC
  5
5DD3D
  8
U1
 10
9604.5919100666888
 20
9847.3809242219249
 30
0.0
 40
3.0
 50
270.0
 51
0.0
  0
ARC
  5
5DD3E
  8
U1
 10
9530.0919100666888
 20
9847.2809242219482
 30
0.0
 40
5.2000000000000002
 50
180.0
 51
270.0
  0
ARC
  5
5DD3F
  8
U1
 10
9530.0919100666888
 20
9847.2809242219482
 30
0.0
 40
5.2000000000000011
 50
180.0
 51
270.0
  0
ARC
  5
5DD40
  8
U1
 10
9530.1919100666964
 20
9847.3809242219249
 30
0.0
 40
3.0
 50
180.0
 51
270.0
  0
LINE
  5
5DD41
  8
U1
 10
9607.5919100666888
 20
7171.7809242219482
 30
0.0
 11
9607.5919100666888
 21
7097.3809242219249
 31
0.0
  0
LINE
  5
5DD42
  8
U1
 10
9609.8919100667063
 20
7171.8809242219249
 30
0.0
 11
9609.8919100667063
 21
7097.2809242219482
 31
0.0
  0
LINE
  5
5DD43
  8
U1
 10
9524.8919100667063
 20
7097.2809242219482
 30
0.0
 11
9524.8919100667063
 21
7171.8809242219249
 31
0.0
  0
LINE
  5
5DD44
  8
U1
 10
9527.1919100666946
 20
7097.3809242219249
 30
0.0
 11
9527.1919100666946
 21
7171.7809242219482
 31
0.0
  0
ARC
  5
5DD45
  8
U1
 10
9572.5919100666888
 20
7171.8809242219249
 30
0.0
 40
5.2000000000000002
 50
90.0
 51
180.0
  0
ARC
  5
5DD46
  8
U1
 10
9562.1919100666946
 20
7171.8809242219249
 30
0.0
 40
5.2000000000000002
 50
0.0
 51
90.0
  0
ARC
  5
5DD47
  8
U1
 10
9568.5419100667004
 20
7160.5309242219491
 30
0.0
 40
3.4499999999999309
 50
180.0
 51
0.0
  0
LINE
  5
5DD48
  8
U1
 10
9572.5919100666888
 20
7177.0809242219366
 30
0.0
 11
9604.6919100666964
 21
7177.0809242219366
 31
0.0
  0
LINE
  5
5DD49
  8
U1
 10
9572.6919100666946
 20
7174.7809242219482
 30
0.0
 11
9604.5919100666888
 21
7174.7809242219482
 31
0.0
  0
ARC
  5
5DD4A
  8
U1
 10
9604.6919100666964
 20
7171.8809242219249
 30
0.0
 40
5.2000000000000002
 50
0.0
 51
90.0
  0
ARC
  5
5DD4B
  8
U1
 10
9604.5919100666888
 20
7171.7809242219482
 30
0.0
 40
3.0
 50
0.0
 51
90.0
  0
LINE
  5
5DD4C
  8
U1
 10
9567.3919100667063
 20
7171.8809242219249
 30
0.0
 11
9567.3919100667063
 21
7160.5309242219491
 31
0.0
  0
LINE
  5
5DD4D
  8
U1
 10
9569.6919100666946
 20
7171.7809242219482
 30
0.0
 11
9569.6919100666946
 21
7160.5309242219491
 31
0.0
  0
LINE
  5
5DD4E
  8
U1
 10
9571.9919100667121
 20
7168.0809242219357
 30
0.0
 11
9571.9919100667121
 21
7160.5309242219491
 31
0.0
  0
ARC
  5
5DD4F
  8
U1
 10
9572.6919100666946
 20
7171.7809242219482
 30
0.0
 40
3.0
 50
90.0
 51
180.0
  0
LINE
  5
5DD50
  8
U1
 10
9571.9919100667121
 20
7168.0809242219357
 30
0.0
 11
9569.6919100666946
 21
7168.0809242219357
 31
0.0
  0
LINE
  5
5DD51
  8
U1
 10
9569.6919100666946
 20
7162.0809242219357
 30
0.0
 11
9567.3919100667063
 21
7162.0809242219357
 31
0.0
  0
ARC
  5
5DD52
  8
U1
 10
9568.5419100667004
 20
7160.5309242219491
 30
0.0
 40
1.1499999999998629
 50
180.0
 51
0.0
  0
LINE
  5
5DD53
  8
U1
 10
9530.0919100666888
 20
7177.0809242219366
 30
0.0
 11
9562.1919100666946
 21
7177.0809242219366
 31
0.0
  0
LINE
  5
5DD54
  8
U1
 10
9530.1919100666964
 20
7174.7809242219482
 30
0.0
 11
9562.0919100666888
 21
7174.7809242219482
 31
0.0
  0
LINE
  5
5DD55
  8
U1
 10
9565.0919100666888
 20
7171.7809242219482
 30
0.0
 11
9565.0919100666888
 21
7160.5309242219491
 31
0.0
  0
ARC
  5
5DD56
  8
U1
 10
9562.0919100666888
 20
7171.7809242219482
 30
0.0
 40
3.0
 50
0.0
 51
90.0
  0
ARC
  5
5DD57
  8
U1
 10
9530.0919100666888
 20
7171.8809242219249
 30
0.0
 40
5.2000000000000002
 50
90.0
 51
180.0
  0
ARC
  5
5DD58
  8
U1
 10
9530.1919100666964
 20
7171.7809242219482
 30
0.0
 40
3.0
 50
90.0
 51
180.0
  0
LINE
  5
5DD59
  8
U1
 10
9604.6919100666964
 20
7092.0809242219357
 30
0.0
 11
9530.0919100666888
 21
7092.0809242219357
 31
0.0
  0
LINE
  5
5DD5A
  8
U1
 10
9604.5919100666888
 20
7094.380924221924
 30
0.0
 11
9530.1919100666964
 21
7094.380924221924
 31
0.0
  0
ARC
  5
5DD5B
  8
U1
 10
9604.6919100666964
 20
7097.2809242219482
 30
0.0
 40
5.2000000000000002
 50
270.0
 51
0.0
  0
ARC
  5
5DD5C
  8
U1
 10
9604.5919100666888
 20
7097.3809242219249
 30
0.0
 40
3.0
 50
270.0
 51
0.0
  0
ARC
  5
5DD5D
  8
U1
 10
9530.0919100666888
 20
7097.2809242219482
 30
0.0
 40
5.2000000000000002
 50
180.0
 51
270.0
  0
ARC
  5
5DD5E
  8
U1
 10
9530.0919100666888
 20
7097.2809242219482
 30
0.0
 40
5.2000000000000011
 50
180.0
 51
270.0
  0
ARC
  5
5DD5F
  8
U1
 10
9530.1919100666964
 20
7097.3809242219249
 30
0.0
 40
3.0
 50
180.0
 51
270.0
  0
TEXT
  5
5DEF4
  8
HIKIDASHI
 10
2648.64689716266
 20
20448.997634699768
 30
0.0
 40
270.0
  1
布基礎＋独立基礎
  7
01
  0
LINE
  5
5E7DE
  8
HIKIDASHI
 10
4710.2429249132692
 20
7507.9142575552414
 30
0.0
 11
4710.2429249132692
 21
7134.5809242219257
 31
0.0
  0
SOLID
  5
5E7DF
  8
HIKIDASHI
 10
4736.9095915798971
 20
7507.9142575552414
 30
0.0
 11
4683.5762582465832
 21
7507.9142575552414
 31
0.0
 12
4710.2429249132692
 22
7667.9142575552396
 32
0.0
 13
4710.2429249132692
 23
7667.9142575552396
 33
0.0
  0
LINE
  5
5E7E0
  8
HIKIDASHI
 10
4710.2429249132692
 20
7134.5809242219257
 30
0.0
 11
4443.5762582465832
 21
7134.5809242219257
 31
0.0
  0
TEXT
  5
5E7E1
  8
HIKIDASHI
 10
4631.1191153894588
 20
7732.6761623171451
 30
0.0
 40
160.0
  1
B'
 41
0.6700000000000002
  7
00
 72
     4
 11
4710.2429249132692
 21
7827.9142575552414
 31
0.0
  0
LINE
  5
5E7E2
  8
HIKIDASHI
 10
3232.5646311206219
 20
7134.5809242219257
 30
0.0
 11
3333.687068846863
 21
7134.5809242219257
 31
0.0
  0
SOLID
  5
5E7E3
  8
HIKIDASHI
 10
3205.8979644539359
 20
7507.9142575552414
 30
0.0
 11
3259.231297787308
 21
7507.9142575552414
 31
0.0
 12
3232.5646311206219
 22
7667.9142575552396
 32
0.0
 13
3232.5646311206219
 23
7667.9142575552396
 33
0.0
  0
LINE
  5
5E7E4
  8
HIKIDASHI
 10
3232.5646311206219
 20
7507.9142575552414
 30
0.0
 11
3232.5646311206219
 21
7134.5809242219257
 31
0.0
  0
TEXT
  5
5E7E5
  8
HIKIDASHI
 10
3176.4122501682409
 20
7747.9142575552396
 30
0.0
 40
160.0
  1
B
 41
0.6700000000000002
  7
00
 72
     4
 11
3232.5646311206219
 21
7827.9142575552414
 31
0.0
  0
TEXT
  5
60BA3
  8
SUNPOU
 10
29007.162736824019
 20
8898.9725678490759
 30
0.0
 40
147.69230769230771
  1
20
 41
0.6700000000000002
  7
00
 11
29007.162736824019
 21
8879.2802601567655
 31
0.0
 73
     1
  0
TEXT
  5
60BA4
  8
SUNPOU
 10
28782.451596284522
 20
8972.8187216952301
 30
0.0
 40
147.69230769230771
  1
1
 41
0.6700000000000002
  7
00
 11
28782.451596284522
 21
8953.1264140029234
 31
0.0
 73
     1
  0
TEXT
  5
60BA5
  8
SUNPOU
 10
28879.263850915278
 20
8935.8956447721393
 30
0.0
 40
147.69230769230771
  1
/
 41
0.6700000000000002
  7
00
 11
28879.263850915278
 21
8916.2033370798308
 31
0.0
 73
     1
  0
TEXT
  5
60BB2
  8
SUNPOU
 10
28143.04619257836
 20
8940.8187216952156
 30
0.0
 40
184.61538461538461
  1
（ S = 　　  ）
 41
0.6700000000000002
  7
00
 11
28143.04619257836
 21
8916.2033370798308
 31
0.0
 73
     1
  0
TEXT
  5
60BB3
  8
SUNPOU
 10
26124.425188796009
 20
8916.2033370798308
 30
0.0
 40
240.0
  1
独立基礎断面図
  7
01
 72
     4
 11
27092.425188796009
 21
9036.2033370798308
 31
0.0
  0
TEXT
  5
60C00
  8
SUNPOU
 10
16969.84894932912
 20
6802.6089200330534
 30
0.0
 40
160.0
  1
間仕切りが付く場合は、間仕切り部分に布基礎が必要です。
  7
01
  0
TEXT
  5
60C01
  8
SUNPOU
 10
16406.57843323646
 20
6802.6089200330534
 30
0.0
 40
160.0
  1
注　）
  7
01
  0
TEXT
  5
60C02
  8
SUNPOU
 10
16603.260958059109
 20
6802.6089200330534
 30
0.0
 40
160.0
  1
3
 41
0.6700000000000002
  7
01
  0
TEXT
  5
60C03
  8
SUNPOU
 10
16603.260958059109
 20
7076.8946343187708
 30
0.0
 40
160.0
  1
2
 41
0.6700000000000002
  7
01
  0
TEXT
  5
60C04
  8
SUNPOU
 10
16406.57843323646
 20
7076.8946343187708
 30
0.0
 40
160.0
  1
注　）
  7
01
  0
TEXT
  5
60C05
  8
SUNPOU
 10
16406.57843323646
 20
7625.4660628901993
 30
0.0
 40
160.0
  1
注　）
  7
01
  0
TEXT
  5
60C06
  8
SUNPOU
 10
16603.260958059109
 20
7625.4660628901993
 30
0.0
 40
160.0
  1
1
 41
0.6700000000000002
  7
01
  0
TEXT
  5
60C07
  8
SUNPOU
 10
16969.848949329142
 20
7351.180348604481
 30
0.0
 40
160.0
  1
あわせて設計して下さい。
  7
01
  0
TEXT
  5
60C08
  8
SUNPOU
 10
16969.848949329142
 20
7076.8946343187708
 30
0.0
 40
160.0
  1
その他現地の実情にあわせて設計して下さい。
  7
01
  0
TEXT
  5
60C09
  8
SUNPOU
 10
16969.848949329142
 20
7625.4660628901993
 30
0.0
 40
160.0
  1
寒冷地の場合、凍結深度等を考慮し、実情に
  7
01
  0
TEXT
  5
60C0A
  8
SUNPOU
 10
16071.14784034136
 20
8636.2033370798326
 30
0.0
 40
160.0
  1
<下記条件での参考図>
  7
01
 72
     4
 11
17118.004983198509
 21
8716.2033370798308
 31
0.0
  0
TEXT
  5
60C0B
  8
SUNPOU
 10
21420.412171568489
 20
8388.9756462558871
 30
0.0
 40
82.285142861111055
  1
2
 41
0.6700000000000002
  7
00
  0
TEXT
  5
60C0C
  8
SUNPOU
 10
20879.141981290421
 20
8299.7517771759085
 30
0.0
 40
159.9988888966048
  1
N/mm
 41
0.6700000000000002
  7
01
  0
TEXT
  5
60C0D
  8
SUNPOU
 10
20637.654954115391
 20
8299.7517771759085
 30
0.0
 40
159.9988888966048
  1
18
 41
0.6700000000000002
  7
01
  0
LINE
  5
60C0E
  8
SUNPOU
 10
19568.710845288639
 20
8025.4660628901993
 30
0.0
 11
19568.710845288639
 21
8173.8969316880248
 31
0.0
  0
LINE
  5
60C0F
  8
SUNPOU
 10
19538.710845288639
 20
8025.4660628901993
 30
0.0
 11
19538.710845288639
 21
8173.8969316880248
 31
0.0
  0
LINE
  5
60C10
  8
SUNPOU
 10
19508.710845288639
 20
8025.4660628901993
 30
0.0
 11
19508.710845288639
 21
8173.8969316880248
 31
0.0
  0
LINE
  5
60C11
  8
SUNPOU
 10
19488.710845288639
 20
8025.466062890192
 30
0.0
 11
19588.710845288639
 21
8025.466062890192
 31
0.0
  0
LINE
  5
60C12
  8
SUNPOU
 10
19488.710845288639
 20
8173.8969316880248
 30
0.0
 11
19588.710845288639
 21
8173.8969316880248
 31
0.0
  0
ARC
  5
60C13
  8
SUNPOU
 10
21660.083541322441
 20
8235.3738632947206
 30
0.0
 40
400.0
 50
328.34727252828282
 51
31.652727471717231
  0
TEXT
  5
60C14
  8
SUNPOU
 10
17685.900988173638
 20
8388.9756462558871
 30
0.0
 40
82.285142861111055
  1
2
 41
0.6700000000000002
  7
00
  0
TEXT
  5
60C15
  8
SUNPOU
 10
17210.096265100961
 20
8299.7517771759085
 30
0.0
 40
127.9991111172839
  1
K
 41
0.6700000000000002
  7
01
  0
TEXT
  5
60C16
  8
SUNPOU
 10
16968.609237925932
 20
8299.7517771759085
 30
0.0
 40
159.9988888966048
  1
50  N/m
 41
0.6700000000000002
  7
01
  0
ARC
  5
60C17
  8
SUNPOU
 10
16575.18677833859
 20
8235.3738632947206
 30
0.0
 40
400.0
 50
148.3472725282827
 51
211.65272747171721
  0
TEXT
  5
60C18
  8
SUNPOU
 10
16303.260958059111
 20
8025.4660628901993
 30
0.0
 40
159.9988888966048
  1
基準風速   　　 , 地表面粗度区分
  7
01
  0
TEXT
  5
60C19
  8
SUNPOU
 10
16303.260958059111
 20
8299.7517771759085
 30
0.0
 40
159.9988888966048
  1
地耐力   　　　 以上,コンクリート設計基準強度   　　　 以上
  7
01
  0
TEXT
  5
60C1A
  8
SUNPOU
 10
17163.284831241639
 20
8025.4660628901993
 30
0.0
 40
159.9988888966048
  1
34 m/s
 41
0.6700000000000002
  7
01
  0
TEXT
  5
60C39
  8
SUNPOU
 10
26577.681163656609
 20
7076.8946343187708
 30
0.0
 40
160.0
  1
2
 41
0.6700000000000002
  7
01
  0
TEXT
  5
60C3A
  8
SUNPOU
 10
26380.99863883396
 20
7076.8946343187708
 30
0.0
 40
160.0
  1
注　）
  7
01
  0
TEXT
  5
60C3B
  8
SUNPOU
 10
26380.99863883396
 20
7625.4660628901993
 30
0.0
 40
160.0
  1
注　）
  7
01
  0
TEXT
  5
60C3C
  8
SUNPOU
 10
26577.681163656609
 20
7625.4660628901993
 30
0.0
 40
160.0
  1
1
 41
0.6700000000000002
  7
01
  0
TEXT
  5
60C3D
  8
SUNPOU
 10
26944.269154926649
 20
7351.180348604481
 30
0.0
 40
160.0
  1
あわせて設計して下さい。
  7
01
  0
TEXT
  5
60C3E
  8
SUNPOU
 10
26944.269154926649
 20
7076.8946343187708
 30
0.0
 40
160.0
  1
その他現地の実情にあわせて設計して下さい。
  7
01
  0
TEXT
  5
60C3F
  8
SUNPOU
 10
26944.269154926649
 20
7625.4660628901993
 30
0.0
 40
160.0
  1
寒冷地の場合、凍結深度等を考慮し、実情に
  7
01
  0
TEXT
  5
60C40
  8
SUNPOU
 10
26045.568045938871
 20
8636.2033370798326
 30
0.0
 40
160.0
  1
<下記条件での参考図>
  7
01
 72
     4
 11
27092.425188796009
 21
8716.2033370798308
 31
0.0
  0
TEXT
  5
60C41
  8
SUNPOU
 10
31394.832377165989
 20
8388.9756462558871
 30
0.0
 40
82.285142861111055
  1
2
 41
0.6700000000000002
  7
00
  0
TEXT
  5
60C42
  8
SUNPOU
 10
30853.562186887921
 20
8299.7517771759085
 30
0.0
 40
159.9988888966048
  1
N/mm
 41
0.6700000000000002
  7
01
  0
TEXT
  5
60C43
  8
SUNPOU
 10
30612.075159712898
 20
8299.7517771759085
 30
0.0
 40
159.9988888966048
  1
18
 41
0.6700000000000002
  7
01
  0
LINE
  5
60C44
  8
SUNPOU
 10
29543.13105088615
 20
8025.4660628901993
 30
0.0
 11
29543.13105088615
 21
8173.8969316880248
 31
0.0
  0
LINE
  5
60C45
  8
SUNPOU
 10
29513.13105088615
 20
8025.4660628901993
 30
0.0
 11
29513.13105088615
 21
8173.8969316880248
 31
0.0
  0
LINE
  5
60C46
  8
SUNPOU
 10
29483.13105088615
 20
8025.4660628901993
 30
0.0
 11
29483.13105088615
 21
8173.8969316880248
 31
0.0
  0
LINE
  5
60C47
  8
SUNPOU
 10
29463.13105088615
 20
8025.466062890192
 30
0.0
 11
29563.13105088615
 21
8025.466062890192
 31
0.0
  0
LINE
  5
60C48
  8
SUNPOU
 10
29463.13105088615
 20
8173.8969316880248
 30
0.0
 11
29563.13105088615
 21
8173.8969316880248
 31
0.0
  0
ARC
  5
60C49
  8
SUNPOU
 10
31634.503746919949
 20
8235.3738632947206
 30
0.0
 40
400.0
 50
328.34727252828128
 51
31.652727471718659
  0
TEXT
  5
60C4A
  8
SUNPOU
 10
27660.321193771149
 20
8388.9756462558871
 30
0.0
 40
82.285142861111055
  1
2
 41
0.6700000000000002
  7
00
  0
TEXT
  5
60C4B
  8
SUNPOU
 10
27184.516470698461
 20
8299.7517771759085
 30
0.0
 40
127.9991111172839
  1
K
 41
0.6700000000000002
  7
01
  0
TEXT
  5
60C4C
  8
SUNPOU
 10
26943.029443523439
 20
8299.7517771759085
 30
0.0
 40
159.9988888966048
  1
50  N/m
 41
0.6700000000000002
  7
01
  0
ARC
  5
60C4D
  8
SUNPOU
 10
26549.606983936101
 20
8235.3738632947206
 30
0.0
 40
400.0
 50
148.34727252828131
 51
211.65272747171869
  0
TEXT
  5
60C4E
  8
SUNPOU
 10
26277.681163656609
 20
8025.4660628901993
 30
0.0
 40
159.9988888966048
  1
基準風速   　　 , 地表面粗度区分
  7
01
  0
TEXT
  5
60C4F
  8
SUNPOU
 10
26277.681163656609
 20
8299.7517771759085
 30
0.0
 40
159.9988888966048
  1
地耐力   　　　 以上,コンクリート設計基準強度   　　　 以上
  7
01
  0
TEXT
  5
60C50
  8
SUNPOU
 10
27137.70503683915
 20
8025.4660628901993
 30
0.0
 40
159.9988888966048
  1
34 m/s
 41
0.6700000000000002
  7
01
  0
TEXT
  5
61293
  8
NAME
 10
21780.693652393758
 20
1877.7796840770311
 30
0.0
 40
360.0
  1
ヨ ド 倉 庫（下屋付き）
  7
01
  0
LINE
  5
613B8
  8
U1
  6
HIDE-L
 10
9067.3919100666208
 20
6634.5809242219439
 30
0.0
 11
10067.391910066621
 21
6634.5809242219439
 31
0.0
  0
LINE
  5
613B9
  8
U1
  6
HIDE-L
 10
10067.391910066621
 20
6634.5809242219439
 30
0.0
 11
10067.391910066621
 21
7634.5809242219439
 31
0.0
  0
LINE
  5
613BA
  8
U1
  6
HIDE-L
 10
10067.391910066621
 20
7634.5809242219439
 30
0.0
 11
9067.3919100666208
 21
7634.5809242219439
 31
0.0
  0
LINE
  5
613BB
  8
U1
  6
HIDE-L
 10
9067.3919100666208
 20
7634.5809242219439
 30
0.0
 11
9067.3919100666208
 21
6634.5809242219439
 31
0.0
  0
LINE
  5
613BC
  8
U1
  6
HIDE-L
 10
9067.3919100666208
 20
9384.5809242219439
 30
0.0
 11
10067.391910066621
 21
9384.5809242219439
 31
0.0
  0
LINE
  5
613BD
  8
U1
  6
HIDE-L
 10
10067.391910066621
 20
9384.5809242219439
 30
0.0
 11
10067.391910066621
 21
10384.58092422194
 31
0.0
  0
LINE
  5
613BE
  8
U1
  6
HIDE-L
 10
10067.391910066621
 20
10384.58092422194
 30
0.0
 11
9067.3919100666208
 21
10384.58092422194
 31
0.0
  0
LINE
  5
613BF
  8
U1
  6
HIDE-L
 10
9067.3919100666208
 20
10384.58092422194
 30
0.0
 11
9067.3919100666208
 21
9384.5809242219439
 31
0.0
  0
LINE
  5
613C0
  8
U1
  6
HIDE-L
 10
3467.3919100666249
 20
9384.5809242219584
 30
0.0
 11
4467.3919100666244
 21
9384.5809242219584
 31
0.0
  0
LINE
  5
613C1
  8
U1
  6
HIDE-L
 10
4467.3919100666244
 20
9384.5809242219584
 30
0.0
 11
4467.3919100666244
 21
10384.58092422196
 31
0.0
  0
LINE
  5
613C2
  8
U1
  6
HIDE-L
 10
4467.3919100666244
 20
10384.58092422196
 30
0.0
 11
3467.3919100666249
 21
10384.58092422196
 31
0.0
  0
LINE
  5
613C3
  8
U1
  6
HIDE-L
 10
3467.3919100666249
 20
10384.58092422196
 30
0.0
 11
3467.3919100666249
 21
9384.5809242219584
 31
0.0
  0
LINE
  5
613C4
  8
U1
  6
HIDE-L
 10
3467.3919100666249
 20
6634.5809242219593
 30
0.0
 11
4467.3919100666244
 21
6634.5809242219593
 31
0.0
  0
LINE
  5
613C5
  8
U1
  6
HIDE-L
 10
4467.3919100666244
 20
6634.5809242219593
 30
0.0
 11
4467.3919100666244
 21
7634.5809242219593
 31
0.0
  0
LINE
  5
613C6
  8
U1
  6
HIDE-L
 10
4467.3919100666244
 20
7634.5809242219593
 30
0.0
 11
3467.3919100666249
 21
7634.5809242219593
 31
0.0
  0
LINE
  5
613C7
  8
U1
  6
HIDE-L
 10
3467.3919100666249
 20
7634.5809242219593
 30
0.0
 11
3467.3919100666249
 21
6634.5809242219593
 31
0.0
  0
LINE
  5
6660E
  8
U1
 10
9300.3919100666244
 20
12747.580924221889
 30
0.0
 11
9390.3919100666226
 21
12747.580924221889
 31
0.0
  0
LINE
  5
6660F
  8
U1
 10
9390.3919100666226
 20
12692.580924221889
 30
0.0
 11
9300.3919100666244
 21
12692.580924221889
 31
0.0
  0
LINE
  5
66610
  8
U1
 10
9300.3919100666244
 20
12692.580924221889
 30
0.0
 11
9300.3919100666244
 21
12747.580924221889
 31
0.0
  0
LINE
  5
66611
  8
U1
 10
9390.3919100666226
 20
12747.580924221889
 30
0.0
 11
9390.3919100666226
 21
12692.580924221889
 31
0.0
  0
LINE
  5
66612
  8
SUNPOU
 10
9345.3919100666244
 20
12394.580924221889
 30
0.0
 11
9345.3919100666244
 21
12267.91425755522
 31
0.0
  0
LINE
  5
66613
  8
1PL-M1
 10
9345.3919100666244
 20
12474.580924221889
 30
0.0
 11
9345.3919100666244
 21
12907.580924221889
 31
0.0
  0
TEXT
  5
66614
  8
SUNPOU
 10
9712.1538148285254
 20
11654.5809242219
 30
0.0
 40
160.0
  1
222
 41
0.6666666666666666
  7
00
  0
LINE
  5
66616
  8
SUNPOU
 10
9597.3919100666244
 20
11574.580924221889
 30
0.0
 11
9627.3919100666244
 21
11574.580924221889
 31
0.0
  0
LINE
  5
66618
  8
SUNPOU
 10
9607.3919100666244
 20
11574.580924221889
 30
0.0
 11
10081.677624352331
 21
11574.580924221889
 31
0.0
  0
LINE
  5
6661C
  8
SUNPOU
 10
9305.3919100666244
 20
11574.580924221889
 30
0.0
 11
9265.3919100666226
 21
11574.580924221889
 31
0.0
  0
LINE
  5
6661E
  8
SUNPOU
 10
9315.3919100666244
 20
11574.580924221889
 30
0.0
 11
9285.3919100666244
 21
11574.580924221889
 31
0.0
  0
LINE
  5
66620
  8
SUNPOU
 10
9315.3919100666244
 20
11574.580924221889
 30
0.0
 11
9285.3919100666244
 21
11574.580924221889
 31
0.0
  0
LINE
  5
66621
  8
SUNPOU
 10
9345.3919100666244
 20
11894.5809242219
 30
0.0
 11
9345.3919100666244
 21
11494.580924221889
 31
0.0
  0
LINE
  5
66622
  8
SUNPOU
 10
6797.3919100666253
 20
11574.580924221889
 30
0.0
 11
6827.3919100666253
 21
11574.580924221889
 31
0.0
  0
LINE
  5
66623
  8
SUNPOU
 10
6807.3919100666244
 20
11574.580924221889
 30
0.0
 11
9305.3919100666244
 21
11574.580924221889
 31
0.0
  0
TEXT
  5
66624
  8
SUNPOU
 10
7853.2173068920238
 20
11654.5809242219
 30
0.0
 40
160.0
  1
2578
 41
0.6666666666666666
  7
00
  0
LINE
  5
66625
  8
SUNPOU
 10
9345.3919100666244
 20
11574.580924221889
 30
0.0
 11
9567.3919100666226
 21
11574.580924221889
 31
0.0
  0
TEXT
  5
66626
  8
SUNPOU
 10
5178.5157195904321
 20
11654.5809242219
 30
0.0
 40
160.0
  1
2800
 41
0.6700000000000002
  7
00
  0
LINE
  5
66627
  8
SUNPOU
 10
6767.3919100666244
 20
12394.580924221889
 30
0.0
 11
6767.3919100666244
 21
11454.580924221889
 31
0.0
  0
LINE
  5
66628
  8
SUNPOU
 10
6767.3919100666244
 20
12394.580924221889
 30
0.0
 11
6767.3919100666244
 21
11494.580924221889
 31
0.0
  0
LINE
  5
6662C
  8
SUNPOU
 10
4007.391910066624
 20
11574.580924221889
 30
0.0
 11
6727.3919100666253
 21
11574.580924221889
 31
0.0
  0
LINE
  5
6662D
  8
SUNPOU
 10
4007.391910066624
 20
6179.4959334949972
 30
0.0
 11
9527.3919100666244
 21
6179.4959334949972
 31
0.0
  0
TEXT
  5
6662F
  8
SUNPOU
 10
6578.5157195904321
 20
6259.4959334949963
 30
0.0
 40
160.0
  1
5600
 41
0.6700000000000002
  7
00
  0
TEXT
  5
66631
  8
SUNPOU
 10
9490.8204814951969
 20
19718.904273277501
 30
0.0
 40
240.0
  1
3
 41
0.6700000000000002
  7
00
 72
     4
 11
9567.3919100666226
 21
19838.904273277491
 31
0.0
  0
LINE
  5
66634
  8
1PL-L1
 10
9607.3919100666244
 20
18197.0809242219
 30
0.0
 11
9527.3919100666244
 21
18197.0809242219
 31
0.0
  0
LINE
  5
66636
  8
1PL-L1
 10
9567.3919100666226
 20
18032.0809242219
 30
0.0
 11
9567.3919100666226
 21
18237.080924221889
 31
0.0
  0
LINE
  5
66638
  8
1PL-L1
 10
9607.3919100666244
 20
18072.0809242219
 30
0.0
 11
9527.3919100666244
 21
18072.0809242219
 31
0.0
  0
LINE
  5
6663B
  8
SUNPOU
 10
9567.3919100666226
 20
18317.080924221889
 30
0.0
 11
9567.3919100666226
 21
19638.904273277501
 31
0.0
  0
LINE
  5
6663E
  8
1PL-L1
 10
6829.8919100666244
 20
18174.580924221889
 30
0.0
 11
6829.8919100666244
 21
18094.580924221889
 31
0.0
  0
CIRCLE
  5
6663F
  8
SUNPOU
 10
9567.3919100666226
 20
19838.904273277491
 30
0.0
 40
200.0
  0
LINE
  5
66641
  8
1PL-L1
 10
6704.8919100666244
 20
18174.580924221889
 30
0.0
 11
6704.8919100666244
 21
18094.580924221889
 31
0.0
  0
LINE
  5
66643
  8
SUNPOU
 10
6767.3919100666244
 20
18327.080924221889
 30
0.0
 11
6767.3919100666244
 21
19638.904273277501
 31
0.0
  0
CIRCLE
  5
66644
  8
SUNPOU
 10
3967.3919100666249
 20
19838.904273277491
 30
0.0
 40
200.0
  0
TEXT
  5
66645
  8
SUNPOU
 10
3902.30619578091
 20
19718.904273277501
 30
0.0
 40
240.0
  1
1
 41
0.6700000000000002
  7
00
 72
     4
 11
3967.3919100666249
 21
19838.904273277491
 31
0.0
  0
LINE
  5
66646
  8
1PL-L1
 10
4007.391910066624
 20
18072.0809242219
 30
0.0
 11
3927.3919100666249
 21
18072.0809242219
 31
0.0
  0
LINE
  5
66648
  8
1PL-L1
 10
3967.3919100666249
 20
18032.0809242219
 30
0.0
 11
3967.3919100666249
 21
18237.080924221889
 31
0.0
  0
LINE
  5
6664A
  8
1PL-L1
 10
4007.391910066624
 20
18197.0809242219
 30
0.0
 11
3927.3919100666249
 21
18197.0809242219
 31
0.0
  0
LINE
  5
6664B
  8
SUNPOU
 10
3827.3919100666171
 20
18134.580924221889
 30
0.0
 11
2867.391910066624
 21
18134.580924221889
 31
0.0
  0
TEXT
  5
6664E
  8
SUNPOU
 10
2586.9919100666239
 20
18014.580924221889
 30
0.0
 40
240.0
  1
C
 41
0.6700000000000002
  7
00
 72
     4
 11
2667.3919100666249
 21
18134.580924221889
 31
0.0
  0
CIRCLE
  5
6664F
  8
SUNPOU
 10
2667.3919100666249
 20
18134.580924221889
 30
0.0
 40
200.0
  0
LINE
  5
66650
  8
SUNPOU
 10
3967.3919100666249
 20
18317.080924221889
 30
0.0
 11
3967.3919100666249
 21
19638.904273277501
 31
0.0
  0
LINE
  5
66653
  8
U1
 10
4027.3919100666249
 20
18074.580924221889
 30
0.0
 11
9507.3919100666244
 21
18074.580924221889
 31
0.0
  0
LINE
  5
66654
  8
U1
 10
3847.3919100666249
 20
18254.580924221889
 30
0.0
 11
9687.3919100666244
 21
18254.580924221889
 31
0.0
  0
TEXT
  5
66655
  8
SUNPOU
 10
6690.820481495196
 20
19718.904273277501
 30
0.0
 40
240.0
  1
2
 41
0.6700000000000002
  7
00
 72
     4
 11
6767.3919100666244
 21
19838.904273277491
 31
0.0
  0
CIRCLE
  5
66656
  8
SUNPOU
 10
6767.3919100666244
 20
19838.904273277491
 30
0.0
 40
200.0
  0
LINE
  5
66657
  8
1PL-L1
 10
6869.8919100666244
 20
18134.580924221889
 30
0.0
 11
6664.8919100666253
 21
18134.580924221889
 31
0.0
  0
LINE
  5
6665E
  8
1PL-L1
 10
9607.3919100666244
 20
15447.080924221889
 30
0.0
 11
9527.3919100666244
 21
15447.080924221889
 31
0.0
  0
LINE
  5
6665F
  8
1PL-L1
 10
9567.3919100666226
 20
15282.080924221889
 30
0.0
 11
9567.3919100666226
 21
15487.080924221889
 31
0.0
  0
LINE
  5
66660
  8
1PL-L1
 10
9607.3919100666244
 20
15322.080924221889
 30
0.0
 11
9527.3919100666244
 21
15322.080924221889
 31
0.0
  0
LINE
  5
66666
  8
U1
 10
9687.3919100666171
 20
12514.580924221889
 30
0.0
 11
9507.3919100666244
 21
12514.580924221889
 31
0.0
  0
LINE
  5
66667
  8
1PL-L1
 10
9607.3919100666244
 20
12697.080924221889
 30
0.0
 11
9527.3919100666244
 21
12697.080924221889
 31
0.0
  0
LINE
  5
66669
  8
1PL-L1
 10
9567.3919100666226
 20
12532.0809242219
 30
0.0
 11
9567.3919100666226
 21
12737.080924221889
 31
0.0
  0
LINE
  5
6666B
  8
1PL-L1
 10
9607.3919100666244
 20
12572.0809242219
 30
0.0
 11
9527.3919100666244
 21
12572.0809242219
 31
0.0
  0
LINE
  5
6666F
  8
U1
 10
6812.3919100666244
 20
12747.580924221889
 30
0.0
 11
6812.3919100666244
 21
12692.580924221889
 31
0.0
  0
LINE
  5
66673
  8
HIKIDASHI
 10
4207.3919100666253
 20
14649.580924221889
 30
0.0
 11
4207.3919100666253
 21
14409.580924221889
 31
0.0
  0
LINE
  5
66675
  8
1PL-L1
 10
4007.391910066624
 20
15447.080924221889
 30
0.0
 11
3927.3919100666249
 21
15447.080924221889
 31
0.0
  0
LINE
  5
66677
  8
1PL-L1
 10
3967.3919100666249
 20
15282.080924221889
 30
0.0
 11
3967.3919100666249
 21
15487.080924221889
 31
0.0
  0
LINE
  5
66679
  8
1PL-L1
 10
4007.391910066624
 20
15322.080924221889
 30
0.0
 11
3927.3919100666249
 21
15322.080924221889
 31
0.0
  0
TEXT
  5
6667A
  8
HIKIDASHI
 10
3596.510139650185
 20
14917.17002227732
 30
0.0
 40
160.0
  1
A
 41
0.6700000000000002
  7
00
  0
LINE
  5
6667B
  8
SUNPOU
 10
3827.3919100666249
 20
15384.5809242219
 30
0.0
 11
2867.391910066624
 21
15384.5809242219
 31
0.0
  0
LINE
  5
6667C
  8
HIKIDASHI
 10
3647.391910066624
 20
14649.580924221889
 30
0.0
 11
3647.391910066624
 21
14409.580924221889
 31
0.0
  0
TEXT
  5
6667E
  8
SUNPOU
 10
2583.1633386380531
 20
15264.580924221889
 30
0.0
 40
240.0
  1
B
 41
0.6700000000000002
  7
00
 72
     4
 11
2667.3919100666249
 21
15384.5809242219
 31
0.0
  0
CIRCLE
  5
6667F
  8
SUNPOU
 10
2667.3919100666249
 20
15384.5809242219
 30
0.0
 40
200.0
  0
LINE
  5
66681
  8
HIKIDASHI
 10
4207.3919100666253
 20
14409.580924221889
 30
0.0
 11
3647.391910066624
 21
14409.580924221889
 31
0.0
  0
TEXT
  5
66682
  8
HIKIDASHI
 10
4156.510139650185
 20
14917.17002227732
 30
0.0
 40
160.0
  1
A'
 41
0.6700000000000002
  7
00
  0
LINE
  5
66683
  8
U1
 10
6722.3919100666253
 20
12692.580924221889
 30
0.0
 11
6722.3919100666253
 21
12747.580924221889
 31
0.0
  0
LINE
  5
66684
  8
1PL-M1
 10
6767.3919100666244
 20
12474.580924221889
 30
0.0
 11
6767.3919100666244
 21
12907.580924221889
 31
0.0
  0
LINE
  5
66686
  8
1PL-L1
 10
4007.391910066624
 20
12697.080924221889
 30
0.0
 11
3927.3919100666249
 21
12697.080924221889
 31
0.0
  0
LINE
  5
66687
  8
1PL-L1
 10
3967.3919100666249
 20
12532.0809242219
 30
0.0
 11
3967.3919100666249
 21
12737.080924221889
 31
0.0
  0
LINE
  5
66688
  8
1PL-L1
 10
4007.391910066624
 20
12572.0809242219
 30
0.0
 11
3927.3919100666249
 21
12572.0809242219
 31
0.0
  0
LINE
  5
6668A
  8
U1
 10
3847.3919100666249
 20
12514.580924221889
 30
0.0
 11
4027.3919100666249
 21
12514.580924221889
 31
0.0
  0
LINE
  5
6668B
  8
SUNPOU
 10
3827.3919100666249
 20
12634.580924221889
 30
0.0
 11
2867.3919100666321
 21
12634.580924221889
 31
0.0
  0
TEXT
  5
6668E
  8
SUNPOU
 10
2598.477624352347
 20
12514.580924221889
 30
0.0
 40
240.0
  1
A
 41
0.6700000000000002
  7
00
 72
     4
 11
2667.3919100666321
 21
12634.580924221889
 31
0.0
  0
CIRCLE
  5
6668F
  8
SUNPOU
 10
2667.3919100666321
 20
12634.580924221889
 30
0.0
 40
200.0
  0
LINE
  5
66691
  8
1PL-M1
 10
6619.463869684937
 20
12634.580924221889
 30
0.0
 11
9507.3919100666244
 21
12634.580924221889
 31
0.0
  0
LINE
  5
66692
  8
U1
 10
6812.3919100666244
 20
12692.580924221889
 30
0.0
 11
6722.3919100666253
 21
12692.580924221889
 31
0.0
  0
LINE
  5
66693
  8
U1
 10
6722.3919100666253
 20
12747.580924221889
 30
0.0
 11
6812.3919100666244
 21
12747.580924221889
 31
0.0
  0
LINE
  5
66695
  8
U1
 10
3847.3919100666249
 20
12514.580924221889
 30
0.0
 11
3847.3919100666249
 21
18254.580924221889
 31
0.0
  0
LINE
  5
66696
  8
U1
 10
4027.3919100666249
 20
12514.580924221889
 30
0.0
 11
4027.3919100666249
 21
18074.580924221889
 31
0.0
  0
LINE
  5
66697
  8
U1
 10
9507.3919100666244
 20
12514.580924221889
 30
0.0
 11
9507.3919100666244
 21
18074.580924221889
 31
0.0
  0
LINE
  5
66698
  8
U1
 10
9687.3919100666171
 20
12514.580924221889
 30
0.0
 11
9687.3919100666244
 21
18254.580924221889
 31
0.0
  0
LINE
  5
6669C
  8
SUNPOU
 10
6829.8919100666244
 20
18134.580924221889
 30
0.0
 11
3967.3919100666249
 21
12572.0809242219
 31
0.0
  0
LINE
  5
6669D
  8
SUNPOU
 10
3967.3919100666249
 20
12572.0809242219
 30
0.0
 11
9567.3919100666226
 21
18197.0809242219
 31
0.0
  0
TEXT
  5
6669E
  8
HIKIDASHI
 10
7928.6276189170021
 20
5363.5616660537708
 30
0.0
 40
160.0
  1
)
 41
0.6700000000000002
  7
00
  0
TEXT
  5
6669F
  8
HIKIDASHI
 10
7593.1843972668566
 20
5363.5616660537708
 30
0.0
 40
160.0
  1
/
 41
0.6700000000000002
  7
00
  0
TEXT
  5
666A0
  8
HIKIDASHI
 10
7526.9101215382398
 20
5394.6846215501637
 30
0.0
 40
160.0
  1
1
 41
0.6700000000000002
  7
00
  0
TEXT
  5
666A1
  8
HIKIDASHI
 10
7685.7747067921382
 20
5311.226003653217
 30
0.0
 40
160.0
  1
80
 41
0.6700000000000002
  7
00
  0
TEXT
  5
666A2
  8
HIKIDASHI
 10
7165.4942896628918
 20
5363.5616660537708
 30
0.0
 40
160.0
  1
(S=
 41
0.6700000000000002
  7
00
  0
TEXT
  5
666A3
  8
HIKIDASHI
 10
5578.3535915920947
 20
5315.9287823918348
 30
0.0
 40
240.0
  1
基 礎 伏 図
  7
01
  0
LINE
  5
666A4
  8
HIKIDASHI
 10
6828.419568358484
 20
12898.768142436789
 30
0.0
 11
7071.166819871265
 21
13599.580924221889
 31
0.0
  0
LINE
  5
666A5
  8
HIKIDASHI
 10
7071.166819871265
 20
13599.580924221889
 30
0.0
 11
7690.2705498291189
 21
13599.580924221889
 31
0.0
  0
TEXT
  5
666A6
  8
HIKIDASHI
 10
7132.5947444523399
 20
13639.580924221889
 30
0.0
 40
160.0
  1
埋金具
  7
01
  0
LINE
  5
6A8FB
  8
U1
 10
27472.737364424342
 20
14552.8992135218
 30
0.0
 11
27472.737364424342
 21
11770.74307247373
 31
0.0
  0
LINE
  5
6A8FC
  8
U1
 10
27812.737364424331
 20
11770.74307247373
 30
0.0
 11
27812.737364424331
 21
14552.8992135218
 31
0.0
  0
LINE
  5
6A8FD
  8
1PL-M1
 10
27642.737364424331
 20
11093.821142997769
 30
0.0
 11
27642.737364424331
 21
14552.8992135218
 31
0.0
  0
LINE
  5
6A8FE
  8
U1
 10
27472.737364424342
 20
13770.74307247373
 30
0.0
 11
24877.737364424331
 21
13770.74307247373
 31
0.0
  0
LINE
  5
6A8FF
  8
U1
 10
25642.737364424349
 20
13770.74307247373
 30
0.0
 11
25642.737364424349
 21
11770.74307247373
 31
0.0
  0
LINE
  5
6A900
  8
U1
 10
29642.737364424349
 20
11770.743072473741
 30
0.0
 11
29642.737364424349
 21
13770.743072473741
 31
0.0
  0
LINE
  5
6A901
  8
U1
 10
30407.737364424331
 20
13770.74307247373
 30
0.0
 11
27812.737364424331
 21
13770.74307247373
 31
0.0
  0
LINE
  5
6A902
  8
U1
 10
25442.737364424349
 20
11170.74307247373
 30
0.0
 11
29842.737364424349
 21
11170.74307247373
 31
0.0
  0
LINE
  5
6A903
  8
U1
 10
29842.737364424349
 20
11170.74307247373
 30
0.0
 11
29842.737364424349
 21
11570.74307247373
 31
0.0
  0
LINE
  5
6A904
  8
U1
 10
29842.737364424349
 20
11570.74307247373
 30
0.0
 11
25442.737364424349
 21
11570.74307247373
 31
0.0
  0
LINE
  5
6A905
  8
U1
 10
25442.737364424349
 20
11570.74307247373
 30
0.0
 11
25442.737364424349
 21
11170.74307247373
 31
0.0
  0
LINE
  5
6A906
  8
U1
 10
29842.737364424349
 20
11570.74307247373
 30
0.0
 11
29842.737364424349
 21
11770.74307247373
 31
0.0
  0
LINE
  5
6A907
  8
U1
 10
29842.737364424349
 20
11770.74307247373
 30
0.0
 11
25442.737364424349
 21
11770.74307247373
 31
0.0
  0
LINE
  5
6A908
  8
U1
 10
25442.737364424349
 20
11770.74307247373
 30
0.0
 11
25442.737364424349
 21
11570.74307247373
 31
0.0
  0
LINE
  5
6A909
  8
KISO_U
 10
26402.619635659299
 20
11570.743072474081
 30
0.0
 11
26202.619635659299
 21
11770.743072474081
 31
0.0
  0
LINE
  5
6A90A
  8
HATCH
 10
25704.395439797459
 20
11570.74307247373
 30
0.0
 11
25542.73736442448
 21
11170.743072474081
 31
0.0
  0
LINE
  5
6A90B
  8
HATCH
 10
25623.024577260159
 20
11570.742831993501
 30
0.0
 11
25670.889733347431
 21
11487.83794973811
 31
0.0
  0
LINE
  5
6A90C
  8
KISO_U
 10
25832.10987697696
 20
11570.74307247373
 30
0.0
 11
25632.10987697661
 21
11770.743072474081
 31
0.0
  0
LINE
  5
6A90D
  8
HATCH
 10
25624.108129772849
 20
11170.743072474081
 30
0.0
 11
25576.242973685588
 21
11253.647954729469
 31
0.0
  0
LINE
  5
6A90E
  8
HATCH
 10
26304.39502327345
 20
11570.74307247373
 30
0.0
 11
26142.73694790047
 21
11170.743072474081
 31
0.0
  0
LINE
  5
6A90F
  8
HATCH
 10
25904.395300956119
 20
11570.74307247373
 30
0.0
 11
25742.73722558314
 21
11170.743072474081
 31
0.0
  0
LINE
  5
6A910
  8
HATCH
 10
26104.39516211479
 20
11570.74307247373
 30
0.0
 11
25942.73708674181
 21
11170.743072474081
 31
0.0
  0
LINE
  5
6A911
  8
HATCH
 10
26024.107852090179
 20
11170.743072474081
 30
0.0
 11
25976.242696002912
 21
11253.647954729469
 31
0.0
  0
LINE
  5
6A912
  8
HATCH
 10
25824.107990931509
 20
11170.743072474081
 30
0.0
 11
25776.242834844252
 21
11253.647954729469
 31
0.0
  0
LINE
  5
6A913
  8
HATCH
 10
26224.107713248839
 20
11170.743072474081
 30
0.0
 11
26176.242557161579
 21
11253.647954729469
 31
0.0
  0
LINE
  5
6A914
  8
KISO_U
 10
25922.619635659648
 20
11570.74307247373
 30
0.0
 11
25722.619635659299
 21
11770.743072474081
 31
0.0
  0
LINE
  5
6A915
  8
HATCH
 10
25823.02443841883
 20
11570.742831993501
 30
0.0
 11
25870.889594506101
 21
11487.83794973811
 31
0.0
  0
LINE
  5
6A916
  8
KISO_U
 10
26312.10987697661
 20
11570.743072474081
 30
0.0
 11
26112.10987697661
 21
11770.743072474081
 31
0.0
  0
LINE
  5
6A917
  8
HATCH
 10
26223.024160736149
 20
11570.742831993501
 30
0.0
 11
26270.889316823421
 21
11487.83794973811
 31
0.0
  0
LINE
  5
6A918
  8
HATCH
 10
26023.02429957749
 20
11570.742831993501
 30
0.0
 11
26070.889455664761
 21
11487.83794973811
 31
0.0
  0
LINE
  5
6A919
  8
HATCH
 10
26504.39488443212
 20
11570.74307247373
 30
0.0
 11
26342.73680905913
 21
11170.743072474081
 31
0.0
  0
LINE
  5
6A91A
  8
HATCH
 10
26424.10757440751
 20
11170.743072474081
 30
0.0
 11
26376.242418320238
 21
11253.647954729469
 31
0.0
  0
LINE
  5
6A91B
  8
HATCH
 10
26423.02402189482
 20
11570.742831993501
 30
0.0
 11
26470.889177982091
 21
11487.83794973811
 31
0.0
  0
LINE
  5
6A91C
  8
KISO_U
 10
26882.619635659361
 20
11570.743072474081
 30
0.0
 11
26682.619635659361
 21
11770.743072474081
 31
0.0
  0
LINE
  5
6A91D
  8
KISO_U
 10
26792.109876976669
 20
11570.743072474081
 30
0.0
 11
26592.109876976669
 21
11770.743072474081
 31
0.0
  0
LINE
  5
6A91E
  8
KISO_U
 10
27362.61963565907
 20
11570.74307247443
 30
0.0
 11
27162.61963565907
 21
11770.74307247443
 31
0.0
  0
LINE
  5
6A91F
  8
KISO_U
 10
27272.109876976381
 20
11570.74307247443
 30
0.0
 11
27072.109876976381
 21
11770.74307247443
 31
0.0
  0
LINE
  5
6A920
  8
KISO_U
 10
27842.619635658779
 20
11570.743072474779
 30
0.0
 11
27642.619635658779
 21
11770.743072474779
 31
0.0
  0
LINE
  5
6A921
  8
KISO_U
 10
27752.10987697609
 20
11570.743072474779
 30
0.0
 11
27552.10987697609
 21
11770.743072474779
 31
0.0
  0
LINE
  5
6A922
  8
KISO_U
 10
28322.619635658481
 20
11570.74307247513
 30
0.0
 11
28122.619635658481
 21
11770.74307247513
 31
0.0
  0
LINE
  5
6A923
  8
KISO_U
 10
28232.109876975799
 20
11570.74307247513
 30
0.0
 11
28032.109876975799
 21
11770.74307247513
 31
0.0
  0
LINE
  5
6A924
  8
KISO_U
 10
28802.61963565819
 20
11570.743072475479
 30
0.0
 11
28602.6196356582
 21
11770.743072475479
 31
0.0
  0
LINE
  5
6A925
  8
KISO_U
 10
28712.109876975501
 20
11570.743072475479
 30
0.0
 11
28512.109876975501
 21
11770.743072475479
 31
0.0
  0
LINE
  5
6A926
  8
KISO_U
 10
29282.619635657898
 20
11570.743072475831
 30
0.0
 11
29082.619635657898
 21
11770.743072475831
 31
0.0
  0
LINE
  5
6A927
  8
KISO_U
 10
29192.10987697521
 20
11570.743072475831
 30
0.0
 11
28992.109876975221
 21
11770.743072475831
 31
0.0
  0
LINE
  5
6A928
  8
HATCH
 10
27104.394467908111
 20
11570.74307247373
 30
0.0
 11
26942.736392535131
 21
11170.743072474081
 31
0.0
  0
LINE
  5
6A929
  8
HATCH
 10
26704.39474559078
 20
11570.74307247373
 30
0.0
 11
26542.736670217801
 21
11170.743072474081
 31
0.0
  0
LINE
  5
6A92A
  8
HATCH
 10
26904.39460674944
 20
11570.74307247373
 30
0.0
 11
26742.73653137646
 21
11170.743072474081
 31
0.0
  0
LINE
  5
6A92B
  8
HATCH
 10
26824.107296724829
 20
11170.743072474081
 30
0.0
 11
26776.242140637569
 21
11253.647954729469
 31
0.0
  0
LINE
  5
6A92C
  8
HATCH
 10
26624.107435566169
 20
11170.743072474081
 30
0.0
 11
26576.242279478902
 21
11253.647954729469
 31
0.0
  0
LINE
  5
6A92D
  8
HATCH
 10
27024.1071578835
 20
11170.743072474081
 30
0.0
 11
26976.242001796229
 21
11253.647954729469
 31
0.0
  0
LINE
  5
6A92E
  8
HATCH
 10
26623.02388305348
 20
11570.742831993501
 30
0.0
 11
26670.889039140751
 21
11487.83794973811
 31
0.0
  0
LINE
  5
6A92F
  8
HATCH
 10
27023.02360537081
 20
11570.742831993501
 30
0.0
 11
27070.888761458082
 21
11487.83794973811
 31
0.0
  0
LINE
  5
6A930
  8
HATCH
 10
26823.02374421214
 20
11570.742831993501
 30
0.0
 11
26870.888900299411
 21
11487.83794973811
 31
0.0
  0
LINE
  5
6A931
  8
HATCH
 10
27304.39432906677
 20
11570.74307247373
 30
0.0
 11
27142.736253693791
 21
11170.743072474081
 31
0.0
  0
LINE
  5
6A932
  8
HATCH
 10
27224.10701904216
 20
11170.743072474081
 30
0.0
 11
27176.241862954888
 21
11253.647954729469
 31
0.0
  0
LINE
  5
6A933
  8
HATCH
 10
27223.02346652947
 20
11570.742831993501
 30
0.0
 11
27270.888622616741
 21
11487.83794973811
 31
0.0
  0
LINE
  5
6A934
  8
HATCH
 10
27904.393912542761
 20
11570.74307247373
 30
0.0
 11
27742.735837169781
 21
11170.743072474081
 31
0.0
  0
LINE
  5
6A935
  8
HATCH
 10
27504.39419022543
 20
11570.74307247373
 30
0.0
 11
27342.736114852451
 21
11170.743072474081
 31
0.0
  0
LINE
  5
6A936
  8
HATCH
 10
27704.394051384101
 20
11570.74307247373
 30
0.0
 11
27542.735976011121
 21
11170.743072474081
 31
0.0
  0
LINE
  5
6A937
  8
HATCH
 10
27624.10674135949
 20
11170.743072474081
 30
0.0
 11
27576.241585272219
 21
11253.647954729469
 31
0.0
  0
LINE
  5
6A938
  8
HATCH
 10
27424.106880200819
 20
11170.743072474081
 30
0.0
 11
27376.241724113559
 21
11253.647954729469
 31
0.0
  0
LINE
  5
6A939
  8
HATCH
 10
27824.10660251815
 20
11170.743072474081
 30
0.0
 11
27776.241446430879
 21
11253.647954729469
 31
0.0
  0
LINE
  5
6A93A
  8
HATCH
 10
27423.02332768813
 20
11570.742831993501
 30
0.0
 11
27470.888483775401
 21
11487.83794973811
 31
0.0
  0
LINE
  5
6A93B
  8
HATCH
 10
27823.02305000546
 20
11570.742831993501
 30
0.0
 11
27870.888206092732
 21
11487.83794973811
 31
0.0
  0
LINE
  5
6A93C
  8
HATCH
 10
27623.023188846801
 20
11570.742831993501
 30
0.0
 11
27670.888344934068
 21
11487.83794973811
 31
0.0
  0
LINE
  5
6A93D
  8
HATCH
 10
28104.39377370142
 20
11570.74307247373
 30
0.0
 11
27942.735698328441
 21
11170.743072474081
 31
0.0
  0
LINE
  5
6A93E
  8
HATCH
 10
28024.106463676821
 20
11170.743072474081
 30
0.0
 11
27976.241307589549
 21
11253.647954729469
 31
0.0
  0
LINE
  5
6A93F
  8
HATCH
 10
28023.02291116412
 20
11570.742831993501
 30
0.0
 11
28070.888067251391
 21
11487.83794973811
 31
0.0
  0
LINE
  5
6A940
  8
HATCH
 10
28704.393357177411
 20
11570.74307247373
 30
0.0
 11
28542.735281804431
 21
11170.743072474081
 31
0.0
  0
LINE
  5
6A941
  8
HATCH
 10
28304.393634860091
 20
11570.74307247373
 30
0.0
 11
28142.735559487111
 21
11170.743072474081
 31
0.0
  0
LINE
  5
6A942
  8
HATCH
 10
28504.393496018751
 20
11570.74307247373
 30
0.0
 11
28342.735420645771
 21
11170.743072474081
 31
0.0
  0
LINE
  5
6A943
  8
HATCH
 10
28424.10618599414
 20
11170.743072474081
 30
0.0
 11
28376.241029906869
 21
11253.647954729469
 31
0.0
  0
LINE
  5
6A944
  8
HATCH
 10
28224.10632483548
 20
11170.743072474081
 30
0.0
 11
28176.241168748209
 21
11253.647954729469
 31
0.0
  0
LINE
  5
6A945
  8
HATCH
 10
28624.106047152811
 20
11170.743072474081
 30
0.0
 11
28576.240891065539
 21
11253.647954729469
 31
0.0
  0
LINE
  5
6A946
  8
HATCH
 10
28223.022772322791
 20
11570.742831993501
 30
0.0
 11
28270.887928410059
 21
11487.83794973811
 31
0.0
  0
LINE
  5
6A947
  8
HATCH
 10
28623.02249464011
 20
11570.742831993501
 30
0.0
 11
28670.887650727382
 21
11487.83794973811
 31
0.0
  0
LINE
  5
6A948
  8
HATCH
 10
28423.022633481451
 20
11570.742831993501
 30
0.0
 11
28470.887789568718
 21
11487.83794973811
 31
0.0
  0
LINE
  5
6A949
  8
HATCH
 10
28904.39321833607
 20
11570.74307247373
 30
0.0
 11
28742.735142963102
 21
11170.743072474081
 31
0.0
  0
LINE
  5
6A94A
  8
HATCH
 10
28824.105908311471
 20
11170.743072474081
 30
0.0
 11
28776.240752224199
 21
11253.647954729469
 31
0.0
  0
LINE
  5
6A94B
  8
HATCH
 10
28823.022355798781
 20
11570.742831993501
 30
0.0
 11
28870.887511886041
 21
11487.83794973811
 31
0.0
  0
LINE
  5
6A94C
  8
HATCH
 10
29504.39280181186
 20
11570.743072474081
 30
0.0
 11
29342.734726438881
 21
11170.74307247443
 31
0.0
  0
LINE
  5
6A94D
  8
HATCH
 10
29104.393079494541
 20
11570.743072474081
 30
0.0
 11
28942.73500412155
 21
11170.74307247443
 31
0.0
  0
LINE
  5
6A94E
  8
HATCH
 10
29304.392940653201
 20
11570.743072474081
 30
0.0
 11
29142.734865280221
 21
11170.74307247443
 31
0.0
  0
LINE
  5
6A94F
  8
HATCH
 10
29224.10563062859
 20
11170.74307247443
 30
0.0
 11
29176.240474541319
 21
11253.64795472982
 31
0.0
  0
LINE
  5
6A950
  8
HATCH
 10
29024.10576946993
 20
11170.74307247443
 30
0.0
 11
28976.240613382659
 21
11253.64795472982
 31
0.0
  0
LINE
  5
6A951
  8
HATCH
 10
29424.10549178725
 20
11170.74307247443
 30
0.0
 11
29376.240335699989
 21
11253.64795472982
 31
0.0
  0
LINE
  5
6A952
  8
HATCH
 10
29023.022216957241
 20
11570.742831993841
 30
0.0
 11
29070.887373044508
 21
11487.837949738459
 31
0.0
  0
LINE
  5
6A953
  8
HATCH
 10
29423.02193927456
 20
11570.742831993841
 30
0.0
 11
29470.887095361832
 21
11487.837949738459
 31
0.0
  0
LINE
  5
6A954
  8
HATCH
 10
29223.022078115901
 20
11570.742831993841
 30
0.0
 11
29270.887234203168
 21
11487.837949738459
 31
0.0
  0
LINE
  5
6A955
  8
HATCH
 10
29704.392662970531
 20
11570.743072474081
 30
0.0
 11
29542.734587597552
 21
11170.74307247443
 31
0.0
  0
LINE
  5
6A956
  8
HATCH
 10
29624.10535294592
 20
11170.74307247443
 30
0.0
 11
29576.240196858649
 21
11253.64795472982
 31
0.0
  0
LINE
  5
6A957
  8
HATCH
 10
29623.021800433231
 20
11570.742831993841
 30
0.0
 11
29670.886956520499
 21
11487.837949738459
 31
0.0
  0
LINE
  5
6A959
  8
U1
 62
     4
 10
28342.737364424342
 20
12170.74307247373
 30
0.0
 11
26942.737364424342
 21
12170.74307247373
 31
0.0
  0
LINE
  5
6A95A
  8
HIKIDASHI
 10
24082.156905928568
 20
12709.3799716495
 30
0.0
 11
25386.606758071051
 21
12709.3799716495
 31
0.0
  0
TEXT
  5
6A95B
  8
HIKIDASHI
 10
24162.156905928568
 20
12789.3799716495
 30
0.0
 40
160.0
  1
鉄筋 D10\U+00D7350
 41
0.6666666666666666
  7
00
  0
TEXT
  5
6A95C
  8
HIKIDASHI
 10
24162.156905928568
 20
13001.540572941851
 30
0.0
 40
160.0
  1
カンザシ
 41
0.6666666666666666
  7
00
  0
LINE
  5
6A95F
  8
KISO_U
 10
27472.737364424342
 20
13249.24313484421
 30
0.0
 11
25994.23730205352
 21
11770.74307247338
 31
0.0
  0
LINE
  5
6A960
  8
KISO_U
 10
27472.737364424342
 20
13158.733376161519
 30
0.0
 11
26084.747060736208
 21
11770.74307247338
 31
0.0
  0
LINE
  5
6A961
  8
KISO_U
 10
27472.737364424342
 20
13339.752893526889
 30
0.0
 11
25903.727543370831
 21
11770.74307247338
 31
0.0
  0
LINE
  5
6A962
  8
KISO_U
 10
27472.737364424342
 20
12769.24313484415
 30
0.0
 11
26474.237302053571
 21
11770.74307247338
 31
0.0
  0
LINE
  5
6A963
  8
KISO_U
 10
27472.737364424342
 20
12678.73337616145
 30
0.0
 11
26564.747060736259
 21
11770.74307247338
 31
0.0
  0
LINE
  5
6A964
  8
KISO_U
 10
27472.737364424342
 20
12859.75289352684
 30
0.0
 11
26383.727543370889
 21
11770.74307247338
 31
0.0
  0
LINE
  5
6A965
  8
KISO_U
 10
27472.737364424342
 20
12289.24313484409
 30
0.0
 11
26954.23730205328
 21
11770.743072473029
 31
0.0
  0
LINE
  5
6A966
  8
KISO_U
 10
27472.737364424342
 20
12198.733376161401
 30
0.0
 11
27044.747060735968
 21
11770.743072473029
 31
0.0
  0
LINE
  5
6A967
  8
KISO_U
 10
27472.737364424342
 20
12379.75289352678
 30
0.0
 11
26863.727543370591
 21
11770.743072473029
 31
0.0
  0
LINE
  5
6A968
  8
KISO_U
 10
27472.737364424342
 20
13729.243134844261
 30
0.0
 11
25642.737364424349
 21
11899.243134844281
 31
0.0
  0
LINE
  5
6A969
  8
KISO_U
 10
27472.737364424342
 20
13638.73337616157
 30
0.0
 11
25642.737364424349
 21
11808.73337616159
 31
0.0
  0
LINE
  5
6A96A
  8
KISO_U
 10
27423.727543371118
 20
13770.74307247373
 30
0.0
 11
25642.737364424349
 21
11989.75289352696
 31
0.0
  0
LINE
  5
6A96B
  8
KISO_U
 10
27034.237302053749
 20
13770.74307247373
 30
0.0
 11
25642.737364424349
 21
12379.24313484433
 31
0.0
  0
LINE
  5
6A96C
  8
KISO_U
 10
27124.747060736441
 20
13770.74307247373
 30
0.0
 11
25642.737364424349
 21
12288.73337616165
 31
0.0
  0
LINE
  5
6A96D
  8
KISO_U
 10
26943.72754337106
 20
13770.74307247373
 30
0.0
 11
25642.737364424349
 21
12469.75289352702
 31
0.0
  0
LINE
  5
6A96E
  8
KISO_U
 10
26554.237302053691
 20
13770.74307247373
 30
0.0
 11
25642.737364424349
 21
12859.24313484439
 31
0.0
  0
LINE
  5
6A96F
  8
KISO_U
 10
26644.747060736379
 20
13770.74307247373
 30
0.0
 11
25642.737364424349
 21
12768.733376161699
 31
0.0
  0
LINE
  5
6A970
  8
KISO_U
 10
26463.727543370998
 20
13770.74307247373
 30
0.0
 11
25642.737364424349
 21
12949.75289352708
 31
0.0
  0
LINE
  5
6A971
  8
KISO_U
 10
26074.237302053629
 20
13770.74307247373
 30
0.0
 11
25642.737364424349
 21
13339.24313484445
 31
0.0
  0
LINE
  5
6A972
  8
KISO_U
 10
26164.747060736321
 20
13770.74307247373
 30
0.0
 11
25642.737364424349
 21
13248.733376161759
 31
0.0
  0
LINE
  5
6A973
  8
KISO_U
 10
25983.727543370958
 20
13770.74307247373
 30
0.0
 11
25642.737364424349
 21
13429.752893527129
 31
0.0
  0
LINE
  5
6A974
  8
KISO_U
 10
29434.23730205404
 20
13770.74307247373
 30
0.0
 11
27812.737364424331
 21
12149.24313484403
 31
0.0
  0
LINE
  5
6A975
  8
KISO_U
 10
27472.737364424342
 20
11809.24313484403
 30
0.0
 11
27434.237302053341
 21
11770.743072473029
 31
0.0
  0
LINE
  5
6A976
  8
KISO_U
 10
29524.747060736729
 20
13770.74307247373
 30
0.0
 11
27812.737364424331
 21
12058.733376161341
 31
0.0
  0
LINE
  5
6A977
  8
KISO_U
 10
29343.727543371351
 20
13770.74307247373
 30
0.0
 11
27812.737364424331
 21
12239.75289352672
 31
0.0
  0
LINE
  5
6A978
  8
KISO_U
 10
27472.737364424342
 20
11899.75289352672
 30
0.0
 11
27343.727543370649
 21
11770.743072473029
 31
0.0
  0
LINE
  5
6A979
  8
KISO_U
 10
29642.737364424349
 20
13499.24313484399
 30
0.0
 11
27914.23730205305
 21
11770.74307247268
 31
0.0
  0
LINE
  5
6A97A
  8
KISO_U
 10
29642.737364424349
 20
13408.73337616129
 30
0.0
 11
28004.747060735739
 21
11770.74307247268
 31
0.0
  0
LINE
  5
6A97B
  8
KISO_U
 10
29642.737364424349
 20
13589.75289352668
 30
0.0
 11
27823.727543370362
 21
11770.74307247268
 31
0.0
  0
LINE
  5
6A97C
  8
KISO_U
 10
29642.737364424349
 20
13019.24313484394
 30
0.0
 11
28394.23730205416
 21
11770.74307247373
 31
0.0
  0
LINE
  5
6A97D
  8
KISO_U
 10
29642.737364424349
 20
12928.733376161241
 30
0.0
 11
28484.747060736849
 21
11770.74307247373
 31
0.0
  0
LINE
  5
6A97E
  8
KISO_U
 10
29642.737364424349
 20
13109.75289352662
 30
0.0
 11
28303.727543371471
 21
11770.74307247373
 31
0.0
  0
LINE
  5
6A97F
  8
KISO_U
 10
29642.737364424349
 20
12539.24313484386
 30
0.0
 11
28874.237302053862
 21
11770.74307247338
 31
0.0
  0
LINE
  5
6A980
  8
KISO_U
 10
29642.737364424349
 20
12448.733376161181
 30
0.0
 11
28964.74706073655
 21
11770.74307247338
 31
0.0
  0
LINE
  5
6A981
  8
KISO_U
 10
29642.737364424349
 20
12629.75289352656
 30
0.0
 11
28783.72754337118
 21
11770.74307247338
 31
0.0
  0
LINE
  5
6A982
  8
KISO_U
 10
29642.737364424349
 20
12059.243134843809
 30
0.0
 11
29354.23730205392
 21
11770.74307247338
 31
0.0
  0
LINE
  5
6A983
  8
KISO_U
 10
29642.737364424349
 20
11968.733376161121
 30
0.0
 11
29444.747060736609
 21
11770.74307247338
 31
0.0
  0
LINE
  5
6A984
  8
KISO_U
 10
29642.737364424349
 20
12149.7528935265
 30
0.0
 11
29263.727543371238
 21
11770.74307247338
 31
0.0
  0
LINE
  5
6A985
  8
KISO_U
 10
28954.237302053982
 20
13770.74307247373
 30
0.0
 11
27812.737364424331
 21
12629.24313484409
 31
0.0
  0
LINE
  5
6A986
  8
KISO_U
 10
29044.74706073667
 20
13770.74307247373
 30
0.0
 11
27812.737364424331
 21
12538.733376161401
 31
0.0
  0
LINE
  5
6A987
  8
KISO_U
 10
28863.727543371289
 20
13770.74307247373
 30
0.0
 11
27812.737364424331
 21
12719.752893526769
 31
0.0
  0
LINE
  5
6A988
  8
KISO_U
 10
28474.237302053931
 20
13770.74307247373
 30
0.0
 11
27812.737364424331
 21
13109.243134844141
 31
0.0
  0
LINE
  5
6A989
  8
KISO_U
 10
28564.747060736609
 20
13770.74307247373
 30
0.0
 11
27812.737364424331
 21
13018.73337616145
 31
0.0
  0
LINE
  5
6A98A
  8
KISO_U
 10
28383.727543371231
 20
13770.74307247373
 30
0.0
 11
27812.737364424331
 21
13199.752893526829
 31
0.0
  0
LINE
  5
6A98B
  8
KISO_U
 10
27994.237302053869
 20
13770.74307247373
 30
0.0
 11
27812.737364424331
 21
13589.243134844201
 31
0.0
  0
LINE
  5
6A98C
  8
KISO_U
 10
28084.74706073655
 20
13770.74307247373
 30
0.0
 11
27812.737364424331
 21
13498.73337616151
 31
0.0
  0
LINE
  5
6A98D
  8
KISO_U
 10
27903.72754337118
 20
13770.74307247373
 30
0.0
 11
27812.737364424331
 21
13679.752893526889
 31
0.0
  0
TEXT
  5
6A98E
  8
SUNPOU
 10
27817.554430642631
 20
9639.988904098951
 30
0.0
 40
240.0
  1
断 面
  7
01
  0
TEXT
  5
6A98F
  8
SUNPOU
 10
26767.436064607351
 20
9639.988904098951
 30
0.0
 40
240.0
  1
B  ~  B'
 41
0.6700000000000002
  7
00
  0
LINE
  5
6A990
  8
HIKIDASHI
 10
28292.110749411571
 20
14409.70317803151
 30
0.0
 11
28525.97602514195
 21
14409.70317803151
 31
0.0
  0
TEXT
  5
6A991
  8
HIKIDASHI
 10
28372.110749411571
 20
14489.70317803151
 30
0.0
 40
160.0
  1
柱
 41
0.6666666666666666
  7
00
  0
LINE
  5
6A993
  8
SUNPOU
 10
25243.955400637758
 20
13770.74307247373
 30
0.0
 11
25363.895550802808
 21
13978.48550642704
 31
0.0
  0
LINE
  5
6A994
  8
SUNPOU
 10
25124.015250472701
 20
13978.48550642704
 30
0.0
 11
25243.955400637758
 21
13770.74307247373
 31
0.0
  0
LINE
  5
6A995
  8
SUNPOU
 10
25363.895550802808
 20
13978.48550642704
 30
0.0
 11
25124.015250472701
 21
13978.48550642704
 31
0.0
  0
TEXT
  5
6A996
  8
SUNPOU
 10
25129.36445724696
 20
14063.35737431521
 30
0.0
 40
160.00016032016029
  1
G.L
 41
0.6700000000000002
  7
00
  0
TEXT
  5
6A99C
  8
HIKIDASHI
 10
30031.776506769649
 20
10599.33265605528
 30
0.0
 40
160.0
  1
6-D13\U+00D76-D13
 41
0.6666666666666666
  7
00
  0
TEXT
  5
6A99D
  8
HIKIDASHI
 10
30031.776506769649
 20
10811.49325734764
 30
0.0
 40
160.0
  1
ベース筋
 41
0.6666666666666666
  7
00
  0
LINE
  5
6A99E
  8
HATCH
 10
25504.3955786388
 20
11570.74307247373
 30
0.0
 11
25442.737364424349
 21
11418.178558583209
 31
0.0
  0
LINE
  5
6A99F
  8
HATCH
 10
25442.737364424349
 20
11536.59952354658
 30
0.0
 11
25470.889872188771
 21
11487.83794973811
 31
0.0
  0
LINE
  5
6A9A0
  8
KISO_U
 10
25684.747060736281
 20
13770.74307247373
 30
0.0
 11
25642.737364424349
 21
13728.733376161799
 31
0.0
  0
LINE
  5
6A9A1
  8
KISO_U
 10
29762.619635657611
 20
11570.74307247618
 30
0.0
 11
29562.619635657611
 21
11770.74307247618
 31
0.0
  0
LINE
  5
6A9A2
  8
KISO_U
 10
29672.109876974919
 20
11570.74307247618
 30
0.0
 11
29472.109876974919
 21
11770.74307247618
 31
0.0
  0
LINE
  5
6A9A3
  8
HATCH
 10
29842.737364424349
 20
11418.186116534751
 30
0.0
 11
29742.734448756211
 21
11170.74307247443
 31
0.0
  0
LINE
  5
6A9A4
  8
HATCH
 10
29824.10521410458
 20
11170.74307247443
 30
0.0
 11
29776.24005801732
 21
11253.64795472982
 31
0.0
  0
LINE
  5
6A9A5
  8
HATCH
 10
29823.021661591891
 20
11570.742831993841
 30
0.0
 11
29842.737364424349
 21
11536.59423298108
 31
0.0
  0
TEXT
  5
6B014
  8
NAME
 10
21605.457695437719
 20
1049.7796840770141
 30
0.0
 40
340.0
  1
SOB-5857M
 41
0.6400000000000001
  7
00
  0
TEXT
  5
6B015
  8
NAME
 10
23883.859666886681
 20
1050.235258849305
 30
0.0
 40
340.0
  1
型（単棟）
 41
0.6400000000000001
  7
00
  0
TEXT
  5
6B016
  8
NAME
 10
25127.71276207015
 20
1049.7796840770141
 30
0.0
 40
340.0
  1
+
 41
0.6400000000000001
  7
00
  0
TEXT
  5
6B017
  8
NAME
 10
25465.029220107899
 20
1050.235258849305
 30
0.0
 40
340.0
  1
下屋
 41
0.6400000000000001
  7
00
  0
TEXT
  5
6B018
  8
NAME
 10
26164.93975057283
 20
1050.235258849305
 30
0.0
 40
340.0
  1
3/4
 41
0.6400000000000001
  7
00
  0
TEXT
  5
6B6EF
  8
HIKIDASHI
 10
7146.6620571951353
 20
2836.8699903249371
 30
0.0
 40
160.0
  1
30
 41
0.6666666666666666
  7
01
  0
TEXT
  5
6B6F0
  8
HIKIDASHI
 10
7146.6620571951353
 20
3076.8699903249371
 30
0.0
 40
160.0
  1
110 x 67
 41
0.6666666666666666
  7
01
  0
TEXT
  5
6B6F1
  8
HIKIDASHI
 10
6256.6574135757828
 20
2836.8699903249371
 30
0.0
 40
160.0
  1
金具厚み
  7
01
  0
TEXT
  5
6B6F2
  8
HIKIDASHI
 10
6256.6574135757828
 20
3076.8699903249371
 30
0.0
 40
160.0
  1
金具底面
  7
01
  0
LINE
  5
6B6F3
  8
1PL-M1
 10
5500.9253295401577
 20
3504.6610656976918
 30
0.0
 11
7966.8827974316373
 21
3504.6610656976918
 31
0.0
  0
TEXT
  5
6B6F4
  8
HIKIDASHI
 10
5442.2179444593639
 20
1240.4397056054661
 30
0.0
 40
240.0
  1
埋金具詳細図
  7
01
 72
     4
 11
6266.2179444593639
 21
1360.4397056054661
 31
0.0
  0
CIRCLE
  5
6B6F5
  8
SUNPOU
 10
5300.9253295401577
 20
3504.6610656976918
 30
0.0
 40
200.0
  0
LINE
  5
6B6F6
  8
SUNPOU
 10
6041.2192562177079
 20
2939.5817006183279
 30
0.0
 11
6041.2192562177079
 21
1834.837569241419
 31
0.0
  0
TEXT
  5
6B6F7
  8
SUNPOU
 10
5721.219256217707
 20
1890.837569241419
 30
0.0
 40
160.0
  1
柱芯より
 50
90.0
 41
0.9
  7
01
1001
ACAD
1000
MTEXTBEGIN
1070
    73
1070
     1
1070
    44
1040
1.0
1070
    74
1070
     0
1000
MTEXTEND
  0
TEXT
  5
6B6F8
  8
SUNPOU
 10
5961.2192562177079
 20
1890.837569241419
 30
0.0
 40
160.0
  1
埋金具前端迄
 50
90.0
 41
0.9
  7
01
1001
ACAD
1000
MTEXTBEGIN
1070
    73
1070
     1
1070
    44
1040
1.0
1070
    74
1070
     0
1000
MTEXTEND
  0
TEXT
  5
6B6F9
  8
SUNPOU
 10
5232.0110438258707
 20
3384.6610656976918
 30
0.0
 40
240.0
  1
A
 41
0.6700000000000002
  7
00
 72
     4
 11
5300.9253295401577
 21
3504.6610656976918
 31
0.0
  0
TEXT
  5
6B6FA
  8
HIKIDASHI
 10
7166.8389482417106
 20
1265.0550902208499
 30
0.0
 40
184.61538461538461
  1
（ S = 　　  ）
 41
0.6700000000000002
  7
00
 11
7166.8389482417106
 21
1240.4397056054661
 31
0.0
 73
     1
  0
TEXT
  5
6B6FB
  8
HIKIDASHI
 10
8030.9554924873664
 20
1223.208936374695
 30
0.0
 40
147.69230769230771
  1
20
 41
0.6700000000000002
  7
00
 11
8030.9554924873664
 21
1203.516628682388
 31
0.0
 73
     1
  0
TEXT
  5
6B6FC
  8
HIKIDASHI
 10
7806.2443519478829
 20
1297.0550902208511
 30
0.0
 40
147.69230769230771
  1
1
 41
0.6700000000000002
  7
00
 11
7806.2443519478829
 21
1277.3627825285439
 31
0.0
 73
     1
  0
TEXT
  5
6B6FD
  8
HIKIDASHI
 10
7903.0566065786261
 20
1260.132013297773
 30
0.0
 40
147.69230769230771
  1
/
 41
0.6700000000000002
  7
00
 11
7903.0566065786261
 21
1240.4397056054661
 31
0.0
 73
     1
  0
LINE
  5
6B702
  8
耐風型受皿
  6
1PL-S
 62
     6
 10
6826.2192562177079
 20
3544.6610656976918
 30
0.0
 11
6826.2192562177079
 21
4138.6610656976918
 31
0.0
  0
LINE
  5
6B703
  8
耐風型受皿
  6
1PL-S
 62
     6
 10
7226.219256217707
 20
3891.0610656976792
 30
0.0
 11
6426.2192562177079
 21
3891.0610656976792
 31
0.0
  0
TEXT
  5
6B866
  8
FILENAME
 10
28051.619047619039
 20
348.0
 30
0.0
 40
200.0
  1
＜SOB-58M-G_3_JIS_GL.DXF ＞
  7
FILENAME
 72
     2
 11
32764.0
 21
348.0
 31
0.0
  0
LINE
  5
6B868
  8
WAKUSEN-01
 10
868.00000000000193
 20
827.99999999999955
 30
0.0
 11
32764.000000000011
 21
827.99999999999943
 31
0.0
  0
LINE
  5
6B869
  8
WAKUSEN-01
 10
868.00000000000193
 20
22484.000000000011
 30
0.0
 11
32764.000000000011
 21
22484.000000000011
 31
0.0
  0
LINE
  5
6B86A
  8
WAKUSEN-01
 10
868.00000000000193
 20
827.99999999999955
 30
0.0
 11
868.00000000000193
 21
22484.000000000011
 31
0.0
  0
LINE
  5
6B86B
  8
WAKUSEN-01
 10
32764.000000000011
 20
827.99999999999943
 30
0.0
 11
32764.000000000011
 21
22484.000000000011
 31
0.0
  0
LINE
  5
6B86C
  8
WAKUSEN-01
 10
20560.0
 20
2484.0
 30
0.0
 11
32764.0
 21
2484.0
 31
0.0
  0
LINE
  5
6B86D
  8
WAKUSEN-02
 10
20560.0
 20
1655.9999999999991
 30
0.0
 11
26868.0
 21
1655.9999999999991
 31
0.0
  0
TEXT
  5
6B86E
  8
WAKUMOJI-01
 10
20670.260259962772
 20
2125.9030093393221
 30
0.0
 40
240.0
  1
名　称
  7
WAKUMOJI
  0
TEXT
  5
6B86F
  8
WAKUMOJI-01
 10
20656.505485091919
 20
1319.1289749798209
 30
0.0
 40
240.0
  1
機種名
  7
WAKUMOJI
  0
LINE
  5
6B870
  8
WAKUSEN-01
 10
20560.0
 20
827.99999999999716
 30
0.0
 11
20560.0
 21
2484.0
 31
0.0
  0
LINE
  5
6B871
  8
WAKUSEN-02
 10
26868.0
 20
827.99999999999261
 30
0.0
 11
26868.0
 21
2484.0
 31
0.0
  0
LINE
  5
6B872
  8
YODOROGO
 10
29977.604341291921
 20
1995.7494964292871
 30
0.0
 11
29829.604341291921
 21
1995.7494964292871
 31
0.0
1001
AUTOCAD_POSTSCRIPT_FIGURE
1002
{
1000
PSFILL
1000
Grayscale
1000
Grayscale
1070
    25
1002
}
  0
LINE
  5
6B873
  8
YODOROGO
 10
29829.604341291921
 20
1947.749496429288
 30
0.0
 11
29977.604341291921
 21
1947.749496429288
 31
0.0
1001
AUTOCAD_POSTSCRIPT_FIGURE
1002
{
1000
PSFILL
1000
Grayscale
1000
Grayscale
1070
    25
1002
}
  0
LINE
  5
6B874
  8
YODOROGO
 10
29977.604341291921
 20
1907.7494964292871
 30
0.0
 11
29829.604341291921
 21
1907.7494964292871
 31
0.0
1001
AUTOCAD_POSTSCRIPT_FIGURE
1002
{
1000
PSFILL
1000
Grayscale
1000
Grayscale
1070
    25
1002
}
  0
LINE
  5
6B875
  8
YODOROGO
 10
29829.604341291921
 20
1859.749496429288
 30
0.0
 11
29977.604341291921
 21
1859.749496429288
 31
0.0
1001
AUTOCAD_POSTSCRIPT_FIGURE
1002
{
1000
PSFILL
1000
Grayscale
1000
Grayscale
1070
    25
1002
}
  0
LINE
  5
6B876
  8
YODOROGO
 10
29977.604341291921
 20
1819.749496429288
 30
0.0
 11
29829.604341291921
 21
1819.749496429288
 31
0.0
1001
AUTOCAD_POSTSCRIPT_FIGURE
1002
{
1000
PSFILL
1000
Grayscale
1000
Grayscale
1070
    25
1002
}
  0
LINE
  5
6B877
  8
YODOROGO
 10
29921.60434129191
 20
1707.749496429288
 30
0.0
 11
29977.604341291921
 21
1707.749496429288
 31
0.0
1001
AUTOCAD_POSTSCRIPT_FIGURE
1002
{
1000
PSFILL
1000
Grayscale
1000
Grayscale
1070
    25
1002
}
  0
LINE
  5
6B878
  8
YODOROGO
 10
29737.604341291921
 20
1427.749496429288
 30
0.0
 11
29937.604341291932
 21
1481.339334915511
 31
0.0
  0
LINE
  5
6B879
  8
YODOROGO
 10
29949.604341291921
 20
1707.749496429288
 30
0.0
 11
29885.604341291921
 21
1707.749496429288
 31
0.0
  0
ARC
  5
6B87A
  8
YODOROGO
 10
30254.34774982791
 20
1807.8646092332619
 30
0.0
 40
381.88686420564733
 50
213.96111677667849
 51
264.47872074317792
  0
ARC
  5
6B87B
  8
YODOROGO
 10
30254.347749827921
 20
1807.864609233302
 30
0.0
 40
381.8868642056816
 50
208.14114420486601
 51
212.92103611859949
  0
LINE
  5
6B87C
  8
YODOROGO
 10
29771.40987298531
 20
1556.807661346234
 30
0.0
 11
29933.78413250855
 21
1600.3157130570869
 31
0.0
  0
LINE
  5
6B87D
  8
YODOROGO
 10
29737.604341291921
 20
1427.749496429288
 30
0.0
 11
29937.604341291932
 21
1481.339334915511
 31
0.0
  0
LINE
  5
6B87E
  8
YODOROGO
 10
29949.604341291921
 20
1707.749496429288
 30
0.0
 11
29885.604341291921
 21
1707.749496429288
 31
0.0
  0
ARC
  5
6B87F
  8
YODOROGO
 10
30254.34774982791
 20
1807.8646092332619
 30
0.0
 40
381.88686420564733
 50
213.96111677667849
 51
264.47872074317792
  0
LINE
  5
6B880
  8
YODOROGO
 10
28793.60434129191
 20
1819.749496429288
 30
0.0
 11
28433.60434129191
 21
1819.749496429288
 31
0.0
  0
LINE
  5
6B881
  8
YODOROGO
 10
28513.60434129191
 20
1427.749496429288
 30
0.0
 11
28793.60434129191
 21
1427.749496429288
 31
0.0
  0
LINE
  5
6B882
  8
YODOROGO
 10
28729.604341291921
 20
1923.7494964292871
 30
0.0
 11
28497.60434129191
 21
1923.7494964292871
 31
0.0
  0
LINE
  5
6B883
  8
YODOROGO
 10
28585.604341291921
 20
2027.749496429288
 30
0.0
 11
28657.604341291921
 21
2027.749496429288
 31
0.0
  0
LINE
  5
6B884
  8
YODOROGO
 10
28433.60434129191
 20
1707.749496429288
 30
0.0
 11
28433.60434129191
 21
1507.749496429288
 31
0.0
  0
LINE
  5
6B885
  8
YODOROGO
 10
28497.60434129191
 20
1563.7494964292871
 30
0.0
 11
28497.60434129191
 21
1707.749496429288
 31
0.0
  0
LINE
  5
6B886
  8
YODOROGO
 10
28585.604341291921
 20
1747.74949642929
 30
0.0
 11
28585.604341291921
 21
1547.749496429288
 31
0.0
  0
LINE
  5
6B887
  8
YODOROGO
 10
27857.604341291921
 20
1683.7494964292889
 30
0.0
 11
27777.604341291921
 21
1619.972414044571
 31
0.0
  0
LINE
  5
6B888
  8
YODOROGO
 10
27937.604341291921
 20
1619.972414044571
 30
0.0
 11
27857.604341291921
 21
1683.7494964292889
 31
0.0
  0
LINE
  5
6B889
  8
YODOROGO
 10
27857.604341291921
 20
1707.749496429288
 30
0.0
 11
27937.604341291921
 21
1643.9724140445701
 31
0.0
  0
LINE
  5
6B88A
  8
YODOROGO
 10
27777.604341291921
 20
1643.9724140445701
 30
0.0
 11
27857.604341291921
 21
1707.749496429288
 31
0.0
  0
LINE
  5
6B88B
  8
YODOROGO
 10
28040.913204016899
 20
1659.749496429288
 30
0.0
 11
28040.913204016899
 21
1683.7494964292871
 31
0.0
  0
LINE
  5
6B88C
  8
YODOROGO
 10
27977.604341291921
 20
1683.7494964292871
 30
0.0
 11
27977.604341291921
 21
1667.749496429285
 31
0.0
  0
LINE
  5
6B88D
  8
YODOROGO
 10
28098.135520230931
 20
1707.749496429288
 30
0.0
 11
28098.135520230931
 21
1655.5036372746561
 31
0.0
1001
AUTOCAD_POSTSCRIPT_FIGURE
1002
{
1000
PSFILL
1000
Grayscale
1000
Grayscale
1070
   100
1002
}
  0
LINE
  5
6B88E
  8
YODOROGO
 10
28082.135520230921
 20
1655.5036372746561
 30
0.0
 11
28082.135520230921
 21
1707.749496429288
 31
0.0
1001
AUTOCAD_POSTSCRIPT_FIGURE
1002
{
1000
PSFILL
1000
Grayscale
1000
Grayscale
1070
   100
1002
}
  0
LINE
  5
6B88F
  8
YODOROGO
 10
27809.604341291921
 20
1608.771904043258
 30
0.0
 11
27809.604341291921
 21
1632.7719040432589
 31
0.0
  0
LINE
  5
6B890
  8
YODOROGO
 10
27905.604341291921
 20
1608.771904043258
 30
0.0
 11
27809.604341291921
 21
1608.771904043258
 31
0.0
  0
LINE
  5
6B891
  8
YODOROGO
 10
27905.604341291921
 20
1632.7719040432589
 30
0.0
 11
27905.604341291921
 21
1608.771904043258
 31
0.0
  0
LINE
  5
6B892
  8
YODOROGO
 10
27809.604341291921
 20
1632.7719040432589
 30
0.0
 11
27905.604341291921
 21
1632.7719040432589
 31
0.0
  0
LINE
  5
6B893
  8
YODOROGO
 10
27824.509588915749
 20
1568.5028573704751
 30
0.0
 11
27785.604341291921
 21
1475.7494964292871
 31
0.0
1001
AUTOCAD_POSTSCRIPT_FIGURE
1002
{
1000
PSFILL
1000
Grayscale
1000
Grayscale
1070
   100
1002
}
  0
LINE
  5
6B894
  8
YODOROGO
 10
27777.604341291921
 20
1568.5028573704751
 30
0.0
 11
27824.509588915749
 21
1568.5028573704751
 31
0.0
1001
AUTOCAD_POSTSCRIPT_FIGURE
1002
{
1000
PSFILL
1000
Grayscale
1000
Grayscale
1070
   100
1002
}
  0
LINE
  5
6B895
  8
YODOROGO
 10
27777.604341291921
 20
1588.5028573704751
 30
0.0
 11
27777.604341291921
 21
1568.5028573704751
 31
0.0
1001
AUTOCAD_POSTSCRIPT_FIGURE
1002
{
1000
PSFILL
1000
Grayscale
1000
Grayscale
1070
   100
1002
}
  0
LINE
  5
6B896
  8
YODOROGO
 10
27937.604341291921
 20
1588.5028573704751
 30
0.0
 11
27777.604341291921
 21
1588.5028573704751
 31
0.0
1001
AUTOCAD_POSTSCRIPT_FIGURE
1002
{
1000
PSFILL
1000
Grayscale
1000
Grayscale
1070
   100
1002
}
  0
LINE
  5
6B897
  8
YODOROGO
 10
27937.604341291921
 20
1568.5028573704751
 30
0.0
 11
27937.604341291921
 21
1588.5028573704751
 31
0.0
1001
AUTOCAD_POSTSCRIPT_FIGURE
1002
{
1000
PSFILL
1000
Grayscale
1000
Grayscale
1070
   100
1002
}
  0
LINE
  5
6B898
  8
YODOROGO
 10
27844.509588915749
 20
1568.5028573704751
 30
0.0
 11
27937.604341291921
 21
1568.5028573704751
 31
0.0
1001
AUTOCAD_POSTSCRIPT_FIGURE
1002
{
1000
PSFILL
1000
Grayscale
1000
Grayscale
1070
   100
1002
}
  0
LINE
  5
6B899
  8
YODOROGO
 10
27815.546718284779
 20
1495.7494964292871
 30
0.0
 11
27844.509588915749
 21
1568.5028573704751
 31
0.0
1001
AUTOCAD_POSTSCRIPT_FIGURE
1002
{
1000
PSFILL
1000
Grayscale
1000
Grayscale
1070
   100
1002
}
  0
LINE
  5
6B89A
  8
YODOROGO
 10
27902.054790808648
 20
1495.7494964292871
 30
0.0
 11
27815.546718284779
 21
1495.7494964292871
 31
0.0
1001
AUTOCAD_POSTSCRIPT_FIGURE
1002
{
1000
PSFILL
1000
Grayscale
1000
Grayscale
1070
   100
1002
}
  0
LINE
  5
6B89B
  8
YODOROGO
 10
27885.065004790951
 20
1536.2338106976929
 30
0.0
 11
27902.054790808648
 21
1495.7494964292871
 31
0.0
1001
AUTOCAD_POSTSCRIPT_FIGURE
1002
{
1000
PSFILL
1000
Grayscale
1000
Grayscale
1070
   100
1002
}
  0
LINE
  5
6B89C
  8
YODOROGO
 10
27901.065004790951
 20
1536.2338106976929
 30
0.0
 11
27885.065004790951
 21
1536.2338106976929
 31
0.0
1001
AUTOCAD_POSTSCRIPT_FIGURE
1002
{
1000
PSFILL
1000
Grayscale
1000
Grayscale
1070
   100
1002
}
  0
LINE
  5
6B89D
  8
YODOROGO
 10
27929.604341291921
 20
1475.7494964292871
 30
0.0
 11
27901.065004790951
 21
1536.2338106976929
 31
0.0
1001
AUTOCAD_POSTSCRIPT_FIGURE
1002
{
1000
PSFILL
1000
Grayscale
1000
Grayscale
1070
   100
1002
}
  0
LINE
  5
6B89E
  8
YODOROGO
 10
27785.604341291921
 20
1475.7494964292871
 30
0.0
 11
27929.604341291921
 21
1475.7494964292871
 31
0.0
1001
AUTOCAD_POSTSCRIPT_FIGURE
1002
{
1000
PSFILL
1000
Grayscale
1000
Grayscale
1070
   100
1002
}
  0
LINE
  5
6B89F
  8
YODOROGO
 10
27777.604341291921
 20
1619.972414044571
 30
0.0
 11
27777.604341291921
 21
1643.9724140445701
 31
0.0
  0
LINE
  5
6B8A0
  8
YODOROGO
 10
27937.604341291921
 20
1643.9724140445701
 30
0.0
 11
27937.604341291921
 21
1619.972414044571
 31
0.0
  0
ARC
  5
6B8A1
  8
YODOROGO
 10
28225.94044214697
 20
1600.877765325326
 30
0.0
 40
175.99999999999989
 50
280.3644312771313
 51
3.5414836592180561
  0
ARC
  5
6B8A2
  8
YODOROGO
 10
28235.756030759301
 20
1633.5978069619041
 30
0.0
 40
111.99999999999829
 50
281.2490582504156
 51
348.75094174958332
  0
LINE
  5
6B8A3
  8
YODOROGO
 10
28257.604341291921
 20
1523.7494964292871
 30
0.0
 11
28257.604341291921
 21
1427.749496429288
 31
0.0
  0
LINE
  5
6B8A4
  8
YODOROGO
 10
28020.088903736902
 20
1610.6505650619149
 30
0.0
 11
28040.913204016899
 21
1659.749496429288
 31
0.0
  0
LINE
  5
6B8A5
  8
YODOROGO
 10
28041.604341291921
 20
1583.120489948401
 30
0.0
 11
28020.088903736902
 21
1610.6505650619149
 31
0.0
  0
LINE
  5
6B8A6
  8
YODOROGO
 10
28041.604341291921
 20
1563.1204899483989
 30
0.0
 11
28041.604341291921
 21
1583.120489948401
 31
0.0
  0
LINE
  5
6B8A7
  8
YODOROGO
 10
28017.604341291921
 20
1585.2370637495301
 30
0.0
 11
28041.604341291921
 21
1563.1204899483989
 31
0.0
  0
LINE
  5
6B8A8
  8
YODOROGO
 10
28017.604341291921
 20
1475.7494964292871
 30
0.0
 11
28017.604341291921
 21
1585.2370637495301
 31
0.0
  0
LINE
  5
6B8A9
  8
YODOROGO
 10
28001.604341291921
 20
1475.7494964292871
 30
0.0
 11
28017.604341291921
 21
1475.7494964292871
 31
0.0
  0
LINE
  5
6B8AA
  8
YODOROGO
 10
28001.604341291921
 20
1580.0053496897481
 30
0.0
 11
28001.604341291921
 21
1475.7494964292871
 31
0.0
  0
LINE
  5
6B8AB
  8
YODOROGO
 10
27977.604341291921
 20
1532.7680790334291
 30
0.0
 11
28001.604341291921
 21
1580.0053496897481
 31
0.0
  0
LINE
  5
6B8AC
  8
YODOROGO
 10
27977.604341291921
 20
1556.76807903343
 30
0.0
 11
27977.604341291921
 21
1532.7680790334291
 31
0.0
  0
LINE
  5
6B8AD
  8
YODOROGO
 10
28025.82877429136
 20
1667.749496429285
 30
0.0
 11
27977.604341291921
 21
1556.76807903343
 31
0.0
  0
LINE
  5
6B8AE
  8
YODOROGO
 10
27977.604341291921
 20
1667.749496429285
 30
0.0
 11
28025.82877429136
 21
1667.749496429285
 31
0.0
  0
LINE
  5
6B8AF
  8
YODOROGO
 10
28050.13552023091
 20
1655.5036372746561
 30
0.0
 11
28082.135520230921
 21
1655.5036372746561
 31
0.0
1001
AUTOCAD_POSTSCRIPT_FIGURE
1002
{
1000
PSFILL
1000
Grayscale
1000
Grayscale
1070
   100
1002
}
  0
LINE
  5
6B8B0
  8
YODOROGO
 10
28050.13552023091
 20
1631.503637274657
 30
0.0
 11
28050.13552023091
 21
1655.5036372746561
 31
0.0
1001
AUTOCAD_POSTSCRIPT_FIGURE
1002
{
1000
PSFILL
1000
Grayscale
1000
Grayscale
1070
   100
1002
}
  0
LINE
  5
6B8B1
  8
YODOROGO
 10
28082.135520230921
 20
1631.503637274657
 30
0.0
 11
28050.13552023091
 21
1631.503637274657
 31
0.0
1001
AUTOCAD_POSTSCRIPT_FIGURE
1002
{
1000
PSFILL
1000
Grayscale
1000
Grayscale
1070
   100
1002
}
  0
LINE
  5
6B8B2
  8
YODOROGO
 10
28082.135520230921
 20
1499.749496429288
 30
0.0
 11
28082.135520230921
 21
1631.503637274657
 31
0.0
1001
AUTOCAD_POSTSCRIPT_FIGURE
1002
{
1000
PSFILL
1000
Grayscale
1000
Grayscale
1070
   100
1002
}
  0
LINE
  5
6B8B3
  8
YODOROGO
 10
28050.135520230931
 20
1499.749496429288
 30
0.0
 11
28082.135520230921
 21
1499.749496429288
 31
0.0
1001
AUTOCAD_POSTSCRIPT_FIGURE
1002
{
1000
PSFILL
1000
Grayscale
1000
Grayscale
1070
   100
1002
}
  0
LINE
  5
6B8B4
  8
YODOROGO
 10
28050.135520230931
 20
1475.7494964292871
 30
0.0
 11
28050.135520230931
 21
1499.749496429288
 31
0.0
1001
AUTOCAD_POSTSCRIPT_FIGURE
1002
{
1000
PSFILL
1000
Grayscale
1000
Grayscale
1070
   100
1002
}
  0
LINE
  5
6B8B5
  8
YODOROGO
 10
28137.604341291921
 20
1475.7494964292871
 30
0.0
 11
28050.135520230931
 21
1475.7494964292871
 31
0.0
1001
AUTOCAD_POSTSCRIPT_FIGURE
1002
{
1000
PSFILL
1000
Grayscale
1000
Grayscale
1070
   100
1002
}
  0
LINE
  5
6B8B6
  8
YODOROGO
 10
28137.604341291921
 20
1499.749496429288
 30
0.0
 11
28137.604341291921
 21
1475.7494964292871
 31
0.0
1001
AUTOCAD_POSTSCRIPT_FIGURE
1002
{
1000
PSFILL
1000
Grayscale
1000
Grayscale
1070
   100
1002
}
  0
LINE
  5
6B8B7
  8
YODOROGO
 10
28098.135520230931
 20
1499.749496429288
 30
0.0
 11
28137.604341291921
 21
1499.749496429288
 31
0.0
1001
AUTOCAD_POSTSCRIPT_FIGURE
1002
{
1000
PSFILL
1000
Grayscale
1000
Grayscale
1070
   100
1002
}
  0
LINE
  5
6B8B8
  8
YODOROGO
 10
28098.135520230931
 20
1631.503637274657
 30
0.0
 11
28098.135520230931
 21
1499.749496429288
 31
0.0
1001
AUTOCAD_POSTSCRIPT_FIGURE
1002
{
1000
PSFILL
1000
Grayscale
1000
Grayscale
1070
   100
1002
}
  0
LINE
  5
6B8B9
  8
YODOROGO
 10
28137.604341291921
 20
1631.503637274657
 30
0.0
 11
28098.135520230931
 21
1631.503637274657
 31
0.0
1001
AUTOCAD_POSTSCRIPT_FIGURE
1002
{
1000
PSFILL
1000
Grayscale
1000
Grayscale
1070
   100
1002
}
  0
LINE
  5
6B8BA
  8
YODOROGO
 10
28137.604341291921
 20
1655.5036372746561
 30
0.0
 11
28137.604341291921
 21
1631.503637274657
 31
0.0
1001
AUTOCAD_POSTSCRIPT_FIGURE
1002
{
1000
PSFILL
1000
Grayscale
1000
Grayscale
1070
   100
1002
}
  0
LINE
  5
6B8BB
  8
YODOROGO
 10
28098.135520230931
 20
1655.5036372746561
 30
0.0
 11
28137.604341291921
 21
1655.5036372746561
 31
0.0
1001
AUTOCAD_POSTSCRIPT_FIGURE
1002
{
1000
PSFILL
1000
Grayscale
1000
Grayscale
1070
   100
1002
}
  0
LINE
  5
6B8BC
  8
YODOROGO
 10
28401.60434129191
 20
1667.749496429288
 30
0.0
 11
28345.604341291921
 21
1667.749496429288
 31
0.0
  0
LINE
  5
6B8BD
  8
YODOROGO
 10
28401.60434129191
 20
1611.7494964292889
 30
0.0
 11
28401.60434129191
 21
1667.749496429288
 31
0.0
  0
LINE
  5
6B8BE
  8
YODOROGO
 10
28345.604341291921
 20
1667.749496429288
 30
0.0
 11
28345.604341291921
 21
1611.7494964292889
 31
0.0
  0
ARC
  5
6B8BF
  8
YODOROGO
 10
28513.60434129191
 20
1507.749496429288
 30
0.0
 40
80.0
 50
180.0
 51
270.0
  0
ARC
  5
6B8C0
  8
YODOROGO
 10
28537.60434129191
 20
1563.7494964292871
 30
0.0
 40
40.0
 50
180.0
 51
270.0
  0
LINE
  5
6B8C1
  8
YODOROGO
 10
28561.604341291932
 20
1523.7494964292871
 30
0.0
 11
28537.60434129191
 21
1523.7494964292871
 31
0.0
  0
ARC
  5
6B8C2
  8
YODOROGO
 10
28561.604341291932
 20
1547.749496429285
 30
0.0
 40
23.999999999996358
 50
270.0
 51
0.0000000000054281
  0
LINE
  5
6B8C3
  8
YODOROGO
 10
27801.604341291921
 20
1890.786580793706
 30
0.0
 11
27777.604341291921
 21
1843.776747951672
 31
0.0
1001
AUTOCAD_POSTSCRIPT_FIGURE
1002
{
1000
PSFILL
1000
Grayscale
1000
Grayscale
1070
   100
1002
}
  0
LINE
  5
6B8C4
  8
YODOROGO
 10
27801.604341291921
 20
1747.7494964292871
 30
0.0
 11
27801.604341291921
 21
1890.786580793706
 31
0.0
1001
AUTOCAD_POSTSCRIPT_FIGURE
1002
{
1000
PSFILL
1000
Grayscale
1000
Grayscale
1070
   100
1002
}
  0
LINE
  5
6B8C5
  8
YODOROGO
 10
27817.604341291921
 20
1747.7494964292871
 30
0.0
 11
27801.604341291921
 21
1747.7494964292871
 31
0.0
1001
AUTOCAD_POSTSCRIPT_FIGURE
1002
{
1000
PSFILL
1000
Grayscale
1000
Grayscale
1070
   100
1002
}
  0
LINE
  5
6B8C6
  8
YODOROGO
 10
27817.604341291921
 20
1893.771332085267
 30
0.0
 11
27817.604341291921
 21
1747.7494964292871
 31
0.0
1001
AUTOCAD_POSTSCRIPT_FIGURE
1002
{
1000
PSFILL
1000
Grayscale
1000
Grayscale
1070
   100
1002
}
  0
LINE
  5
6B8C7
  8
YODOROGO
 10
27841.604341291921
 20
1867.654758284137
 30
0.0
 11
27817.604341291921
 21
1893.771332085267
 31
0.0
1001
AUTOCAD_POSTSCRIPT_FIGURE
1002
{
1000
PSFILL
1000
Grayscale
1000
Grayscale
1070
   100
1002
}
  0
LINE
  5
6B8C8
  8
YODOROGO
 10
27841.604341291921
 20
1883.6547582841361
 30
0.0
 11
27841.604341291921
 21
1867.654758284137
 31
0.0
1001
AUTOCAD_POSTSCRIPT_FIGURE
1002
{
1000
PSFILL
1000
Grayscale
1000
Grayscale
1070
   100
1002
}
  0
LINE
  5
6B8C9
  8
YODOROGO
 10
27817.604341291921
 20
1917.7713320852649
 30
0.0
 11
27841.604341291921
 21
1883.6547582841361
 31
0.0
1001
AUTOCAD_POSTSCRIPT_FIGURE
1002
{
1000
PSFILL
1000
Grayscale
1000
Grayscale
1070
   100
1002
}
  0
LINE
  5
6B8CA
  8
YODOROGO
 10
27817.604341291921
 20
1939.749496429288
 30
0.0
 11
27817.604341291921
 21
1917.7713320852649
 31
0.0
1001
AUTOCAD_POSTSCRIPT_FIGURE
1002
{
1000
PSFILL
1000
Grayscale
1000
Grayscale
1070
   100
1002
}
  0
LINE
  5
6B8CB
  8
YODOROGO
 10
27889.604341291921
 20
1939.749496429288
 30
0.0
 11
27817.604341291921
 21
1939.749496429288
 31
0.0
1001
AUTOCAD_POSTSCRIPT_FIGURE
1002
{
1000
PSFILL
1000
Grayscale
1000
Grayscale
1070
   100
1002
}
  0
LINE
  5
6B8CC
  8
YODOROGO
 10
27889.604341291921
 20
1900.5683489363
 30
0.0
 11
27889.604341291921
 21
1939.749496429288
 31
0.0
1001
AUTOCAD_POSTSCRIPT_FIGURE
1002
{
1000
PSFILL
1000
Grayscale
1000
Grayscale
1070
   100
1002
}
  0
LINE
  5
6B8CD
  8
YODOROGO
 10
27857.604341291921
 20
1900.5683489363
 30
0.0
 11
27889.604341291921
 21
1900.5683489363
 31
0.0
1001
AUTOCAD_POSTSCRIPT_FIGURE
1002
{
1000
PSFILL
1000
Grayscale
1000
Grayscale
1070
   100
1002
}
  0
LINE
  5
6B8CE
  8
YODOROGO
 10
27857.604341291921
 20
1884.568348936298
 30
0.0
 11
27857.604341291921
 21
1900.5683489363
 31
0.0
1001
AUTOCAD_POSTSCRIPT_FIGURE
1002
{
1000
PSFILL
1000
Grayscale
1000
Grayscale
1070
   100
1002
}
  0
LINE
  5
6B8CF
  8
YODOROGO
 10
27889.604341291921
 20
1884.568348936298
 30
0.0
 11
27857.604341291921
 21
1884.568348936298
 31
0.0
1001
AUTOCAD_POSTSCRIPT_FIGURE
1002
{
1000
PSFILL
1000
Grayscale
1000
Grayscale
1070
   100
1002
}
  0
LINE
  5
6B8D0
  8
YODOROGO
 10
27889.604341291921
 20
1879.6191779644389
 30
0.0
 11
27889.604341291921
 21
1884.568348936298
 31
0.0
1001
AUTOCAD_POSTSCRIPT_FIGURE
1002
{
1000
PSFILL
1000
Grayscale
1000
Grayscale
1070
   100
1002
}
  0
LINE
  5
6B8D1
  8
YODOROGO
 10
27849.604341291921
 20
1812.974981161417
 30
0.0
 11
27889.604341291921
 21
1879.6191779644389
 31
0.0
1001
AUTOCAD_POSTSCRIPT_FIGURE
1002
{
1000
PSFILL
1000
Grayscale
1000
Grayscale
1070
   100
1002
}
  0
LINE
  5
6B8D2
  8
YODOROGO
 10
27849.604341291921
 20
1796.9749811614161
 30
0.0
 11
27849.604341291921
 21
1812.974981161417
 31
0.0
1001
AUTOCAD_POSTSCRIPT_FIGURE
1002
{
1000
PSFILL
1000
Grayscale
1000
Grayscale
1070
   100
1002
}
  0
LINE
  5
6B8D3
  8
YODOROGO
 10
27889.604341291921
 20
1847.6191779644371
 30
0.0
 11
27849.604341291921
 21
1796.9749811614161
 31
0.0
1001
AUTOCAD_POSTSCRIPT_FIGURE
1002
{
1000
PSFILL
1000
Grayscale
1000
Grayscale
1070
   100
1002
}
  0
LINE
  5
6B8D4
  8
YODOROGO
 10
27889.604341291921
 20
1747.7494964292871
 30
0.0
 11
27889.604341291921
 21
1847.6191779644371
 31
0.0
1001
AUTOCAD_POSTSCRIPT_FIGURE
1002
{
1000
PSFILL
1000
Grayscale
1000
Grayscale
1070
   100
1002
}
  0
LINE
  5
6B8D5
  8
YODOROGO
 10
27905.604341291921
 20
1747.7494964292871
 30
0.0
 11
27889.604341291921
 21
1747.7494964292871
 31
0.0
1001
AUTOCAD_POSTSCRIPT_FIGURE
1002
{
1000
PSFILL
1000
Grayscale
1000
Grayscale
1070
   100
1002
}
  0
LINE
  5
6B8D6
  8
YODOROGO
 10
27905.604341291921
 20
1849.409012158806
 30
0.0
 11
27905.604341291921
 21
1747.7494964292871
 31
0.0
1001
AUTOCAD_POSTSCRIPT_FIGURE
1002
{
1000
PSFILL
1000
Grayscale
1000
Grayscale
1070
   100
1002
}
  0
LINE
  5
6B8D7
  8
YODOROGO
 10
27937.604341291921
 20
1796.9749811614161
 30
0.0
 11
27905.604341291921
 21
1849.409012158806
 31
0.0
1001
AUTOCAD_POSTSCRIPT_FIGURE
1002
{
1000
PSFILL
1000
Grayscale
1000
Grayscale
1070
   100
1002
}
  0
LINE
  5
6B8D8
  8
YODOROGO
 10
27937.604341291921
 20
1812.974981161417
 30
0.0
 11
27937.604341291921
 21
1796.9749811614161
 31
0.0
1001
AUTOCAD_POSTSCRIPT_FIGURE
1002
{
1000
PSFILL
1000
Grayscale
1000
Grayscale
1070
   100
1002
}
  0
LINE
  5
6B8D9
  8
YODOROGO
 10
27905.604341291921
 20
1881.4090121588081
 30
0.0
 11
27937.604341291921
 21
1812.974981161417
 31
0.0
1001
AUTOCAD_POSTSCRIPT_FIGURE
1002
{
1000
PSFILL
1000
Grayscale
1000
Grayscale
1070
   100
1002
}
  0
LINE
  5
6B8DA
  8
YODOROGO
 10
27905.604341291932
 20
1884.5683489363
 30
0.0
 11
27905.604341291921
 21
1881.4090121588081
 31
0.0
1001
AUTOCAD_POSTSCRIPT_FIGURE
1002
{
1000
PSFILL
1000
Grayscale
1000
Grayscale
1070
   100
1002
}
  0
LINE
  5
6B8DB
  8
YODOROGO
 10
27937.604341291921
 20
1884.568348936298
 30
0.0
 11
27905.604341291932
 21
1884.5683489363
 31
0.0
1001
AUTOCAD_POSTSCRIPT_FIGURE
1002
{
1000
PSFILL
1000
Grayscale
1000
Grayscale
1070
   100
1002
}
  0
LINE
  5
6B8DC
  8
YODOROGO
 10
27937.604341291921
 20
1900.5683489363
 30
0.0
 11
27937.604341291921
 21
1884.568348936298
 31
0.0
1001
AUTOCAD_POSTSCRIPT_FIGURE
1002
{
1000
PSFILL
1000
Grayscale
1000
Grayscale
1070
   100
1002
}
  0
LINE
  5
6B8DD
  8
YODOROGO
 10
27905.604341291921
 20
1900.5683489363
 30
0.0
 11
27937.604341291921
 21
1900.5683489363
 31
0.0
1001
AUTOCAD_POSTSCRIPT_FIGURE
1002
{
1000
PSFILL
1000
Grayscale
1000
Grayscale
1070
   100
1002
}
  0
LINE
  5
6B8DE
  8
YODOROGO
 10
27905.604341291921
 20
1939.749496429288
 30
0.0
 11
27905.604341291921
 21
1900.5683489363
 31
0.0
1001
AUTOCAD_POSTSCRIPT_FIGURE
1002
{
1000
PSFILL
1000
Grayscale
1000
Grayscale
1070
   100
1002
}
  0
LINE
  5
6B8DF
  8
YODOROGO
 10
27937.604341291921
 20
1939.749496429288
 30
0.0
 11
27905.604341291921
 21
1939.749496429288
 31
0.0
1001
AUTOCAD_POSTSCRIPT_FIGURE
1002
{
1000
PSFILL
1000
Grayscale
1000
Grayscale
1070
   100
1002
}
  0
LINE
  5
6B8E0
  8
YODOROGO
 10
27937.604341291921
 20
1955.7494964292871
 30
0.0
 11
27937.604341291921
 21
1939.749496429288
 31
0.0
1001
AUTOCAD_POSTSCRIPT_FIGURE
1002
{
1000
PSFILL
1000
Grayscale
1000
Grayscale
1070
   100
1002
}
  0
LINE
  5
6B8E1
  8
YODOROGO
 10
27905.604341291921
 20
1955.7494964292871
 30
0.0
 11
27937.604341291921
 21
1955.7494964292871
 31
0.0
1001
AUTOCAD_POSTSCRIPT_FIGURE
1002
{
1000
PSFILL
1000
Grayscale
1000
Grayscale
1070
   100
1002
}
  0
LINE
  5
6B8E2
  8
YODOROGO
 10
27905.604341291921
 20
1979.749496429288
 30
0.0
 11
27905.604341291921
 21
1955.7494964292871
 31
0.0
1001
AUTOCAD_POSTSCRIPT_FIGURE
1002
{
1000
PSFILL
1000
Grayscale
1000
Grayscale
1070
   100
1002
}
  0
LINE
  5
6B8E3
  8
YODOROGO
 10
27889.604341291921
 20
1979.749496429288
 30
0.0
 11
27905.604341291921
 21
1979.749496429288
 31
0.0
1001
AUTOCAD_POSTSCRIPT_FIGURE
1002
{
1000
PSFILL
1000
Grayscale
1000
Grayscale
1070
   100
1002
}
  0
LINE
  5
6B8E4
  8
YODOROGO
 10
27889.604341291921
 20
1955.7494964292871
 30
0.0
 11
27889.604341291921
 21
1979.749496429288
 31
0.0
1001
AUTOCAD_POSTSCRIPT_FIGURE
1002
{
1000
PSFILL
1000
Grayscale
1000
Grayscale
1070
   100
1002
}
  0
LINE
  5
6B8E5
  8
YODOROGO
 10
27865.604341291921
 20
1955.7494964292871
 30
0.0
 11
27889.604341291921
 21
1955.7494964292871
 31
0.0
1001
AUTOCAD_POSTSCRIPT_FIGURE
1002
{
1000
PSFILL
1000
Grayscale
1000
Grayscale
1070
   100
1002
}
  0
LINE
  5
6B8E6
  8
YODOROGO
 10
27865.604341291921
 20
1979.749496429288
 30
0.0
 11
27865.604341291921
 21
1955.7494964292871
 31
0.0
1001
AUTOCAD_POSTSCRIPT_FIGURE
1002
{
1000
PSFILL
1000
Grayscale
1000
Grayscale
1070
   100
1002
}
  0
LINE
  5
6B8E7
  8
YODOROGO
 10
27849.604341291921
 20
1979.749496429288
 30
0.0
 11
27865.604341291921
 21
1979.749496429288
 31
0.0
1001
AUTOCAD_POSTSCRIPT_FIGURE
1002
{
1000
PSFILL
1000
Grayscale
1000
Grayscale
1070
   100
1002
}
  0
LINE
  5
6B8E8
  8
YODOROGO
 10
27849.604341291921
 20
1955.7494964292871
 30
0.0
 11
27849.604341291921
 21
1979.749496429288
 31
0.0
1001
AUTOCAD_POSTSCRIPT_FIGURE
1002
{
1000
PSFILL
1000
Grayscale
1000
Grayscale
1070
   100
1002
}
  0
LINE
  5
6B8E9
  8
YODOROGO
 10
27817.604341291921
 20
1955.7494964292871
 30
0.0
 11
27849.604341291921
 21
1955.7494964292871
 31
0.0
1001
AUTOCAD_POSTSCRIPT_FIGURE
1002
{
1000
PSFILL
1000
Grayscale
1000
Grayscale
1070
   100
1002
}
  0
LINE
  5
6B8EA
  8
YODOROGO
 10
27817.604341291921
 20
1979.749496429288
 30
0.0
 11
27817.604341291921
 21
1955.7494964292871
 31
0.0
1001
AUTOCAD_POSTSCRIPT_FIGURE
1002
{
1000
PSFILL
1000
Grayscale
1000
Grayscale
1070
   100
1002
}
  0
LINE
  5
6B8EB
  8
YODOROGO
 10
27801.604341291921
 20
1979.749496429288
 30
0.0
 11
27817.604341291921
 21
1979.749496429288
 31
0.0
1001
AUTOCAD_POSTSCRIPT_FIGURE
1002
{
1000
PSFILL
1000
Grayscale
1000
Grayscale
1070
   100
1002
}
  0
LINE
  5
6B8EC
  8
YODOROGO
 10
27801.604341291921
 20
1955.7494964292871
 30
0.0
 11
27801.604341291921
 21
1979.749496429288
 31
0.0
1001
AUTOCAD_POSTSCRIPT_FIGURE
1002
{
1000
PSFILL
1000
Grayscale
1000
Grayscale
1070
   100
1002
}
  0
LINE
  5
6B8ED
  8
YODOROGO
 10
27777.604341291921
 20
1955.7494964292871
 30
0.0
 11
27801.604341291921
 21
1955.7494964292871
 31
0.0
1001
AUTOCAD_POSTSCRIPT_FIGURE
1002
{
1000
PSFILL
1000
Grayscale
1000
Grayscale
1070
   100
1002
}
  0
LINE
  5
6B8EE
  8
YODOROGO
 10
27777.604341291921
 20
1939.749496429288
 30
0.0
 11
27777.604341291921
 21
1955.7494964292871
 31
0.0
1001
AUTOCAD_POSTSCRIPT_FIGURE
1002
{
1000
PSFILL
1000
Grayscale
1000
Grayscale
1070
   100
1002
}
  0
LINE
  5
6B8EF
  8
YODOROGO
 10
27801.604341291921
 20
1939.749496429288
 30
0.0
 11
27777.604341291921
 21
1939.749496429288
 31
0.0
1001
AUTOCAD_POSTSCRIPT_FIGURE
1002
{
1000
PSFILL
1000
Grayscale
1000
Grayscale
1070
   100
1002
}
  0
LINE
  5
6B8F0
  8
YODOROGO
 10
27801.604341291921
 20
1914.7865807937051
 30
0.0
 11
27801.604341291921
 21
1939.749496429288
 31
0.0
1001
AUTOCAD_POSTSCRIPT_FIGURE
1002
{
1000
PSFILL
1000
Grayscale
1000
Grayscale
1070
   100
1002
}
  0
LINE
  5
6B8F1
  8
YODOROGO
 10
27777.604341291921
 20
1859.776747951671
 30
0.0
 11
27801.604341291921
 21
1914.7865807937051
 31
0.0
1001
AUTOCAD_POSTSCRIPT_FIGURE
1002
{
1000
PSFILL
1000
Grayscale
1000
Grayscale
1070
   100
1002
}
  0
LINE
  5
6B8F2
  8
YODOROGO
 10
27777.604341291921
 20
1843.776747951672
 30
0.0
 11
27777.604341291921
 21
1859.776747951671
 31
0.0
1001
AUTOCAD_POSTSCRIPT_FIGURE
1002
{
1000
PSFILL
1000
Grayscale
1000
Grayscale
1070
   100
1002
}
  0
LINE
  5
6B8F3
  8
YODOROGO
 10
28257.604341291921
 20
1867.749496429288
 30
0.0
 11
28401.60434129191
 21
1824.877625640306
 31
0.0
1001
AUTOCAD_POSTSCRIPT_FIGURE
1002
{
1000
PSFILL
1000
Grayscale
1000
Grayscale
1070
   100
1002
}
  0
LINE
  5
6B8F4
  8
YODOROGO
 10
28401.60434129191
 20
1752.877625640306
 30
0.0
 11
28257.604341291921
 21
1795.7494964292871
 31
0.0
1001
AUTOCAD_POSTSCRIPT_FIGURE
1002
{
1000
PSFILL
1000
Grayscale
1000
Grayscale
1070
   100
1002
}
  0
LINE
  5
6B8F5
  8
YODOROGO
 10
28401.60434129191
 20
1984.877625640306
 30
0.0
 11
28257.604341291921
 21
2027.749496429288
 31
0.0
1001
AUTOCAD_POSTSCRIPT_FIGURE
1002
{
1000
PSFILL
1000
Grayscale
1000
Grayscale
1070
   100
1002
}
  0
LINE
  5
6B8F6
  8
YODOROGO
 10
28257.604341291921
 20
1959.749496429288
 30
0.0
 11
28401.60434129191
 21
1916.8776256403071
 31
0.0
1001
AUTOCAD_POSTSCRIPT_FIGURE
1002
{
1000
PSFILL
1000
Grayscale
1000
Grayscale
1070
   100
1002
}
  0
LINE
  5
6B8F7
  8
YODOROGO
 10
28257.604341291921
 20
1795.7494964292871
 30
0.0
 11
28257.604341291921
 21
1867.749496429288
 31
0.0
1001
AUTOCAD_POSTSCRIPT_FIGURE
1002
{
1000
PSFILL
1000
Grayscale
1000
Grayscale
1070
   100
1002
}
  0
LINE
  5
6B8F8
  8
YODOROGO
 10
28257.604341291921
 20
2027.749496429288
 30
0.0
 11
28257.604341291921
 21
1959.749496429288
 31
0.0
1001
AUTOCAD_POSTSCRIPT_FIGURE
1002
{
1000
PSFILL
1000
Grayscale
1000
Grayscale
1070
   100
1002
}
  0
LINE
  5
6B8F9
  8
YODOROGO
 10
28080.236320206739
 20
1939.749496429288
 30
0.0
 11
28129.604341291921
 21
1747.7494964292871
 31
0.0
1001
AUTOCAD_POSTSCRIPT_FIGURE
1002
{
1000
PSFILL
1000
Grayscale
1000
Grayscale
1070
   100
1002
}
  0
LINE
  5
6B8FA
  8
YODOROGO
 10
27977.604341291921
 20
1939.749496429288
 30
0.0
 11
28080.236320206739
 21
1939.749496429288
 31
0.0
1001
AUTOCAD_POSTSCRIPT_FIGURE
1002
{
1000
PSFILL
1000
Grayscale
1000
Grayscale
1070
   100
1002
}
  0
LINE
  5
6B8FB
  8
YODOROGO
 10
27977.604341291921
 20
1955.7494964292871
 30
0.0
 11
27977.604341291921
 21
1939.749496429288
 31
0.0
1001
AUTOCAD_POSTSCRIPT_FIGURE
1002
{
1000
PSFILL
1000
Grayscale
1000
Grayscale
1070
   100
1002
}
  0
LINE
  5
6B8FC
  8
YODOROGO
 10
28076.60687851992
 20
1955.7494964292871
 30
0.0
 11
27977.604341291921
 21
1955.7494964292871
 31
0.0
1001
AUTOCAD_POSTSCRIPT_FIGURE
1002
{
1000
PSFILL
1000
Grayscale
1000
Grayscale
1070
   100
1002
}
  0
LINE
  5
6B8FD
  8
YODOROGO
 10
28071.162715989711
 20
1979.749496429288
 30
0.0
 11
28076.60687851992
 21
1955.7494964292871
 31
0.0
1001
AUTOCAD_POSTSCRIPT_FIGURE
1002
{
1000
PSFILL
1000
Grayscale
1000
Grayscale
1070
   100
1002
}
  0
LINE
  5
6B8FE
  8
YODOROGO
 10
28091.162715989711
 20
1979.749496429288
 30
0.0
 11
28071.162715989711
 21
1979.749496429288
 31
0.0
1001
AUTOCAD_POSTSCRIPT_FIGURE
1002
{
1000
PSFILL
1000
Grayscale
1000
Grayscale
1070
   100
1002
}
  0
LINE
  5
6B8FF
  8
YODOROGO
 10
28095.806878519939
 20
1955.7494964292871
 30
0.0
 11
28091.162715989711
 21
1979.749496429288
 31
0.0
1001
AUTOCAD_POSTSCRIPT_FIGURE
1002
{
1000
PSFILL
1000
Grayscale
1000
Grayscale
1070
   100
1002
}
  0
LINE
  5
6B900
  8
YODOROGO
 10
28121.604341291921
 20
1955.7494964292871
 30
0.0
 11
28095.806878519939
 21
1955.7494964292871
 31
0.0
1001
AUTOCAD_POSTSCRIPT_FIGURE
1002
{
1000
PSFILL
1000
Grayscale
1000
Grayscale
1070
   100
1002
}
  0
LINE
  5
6B901
  8
YODOROGO
 10
28121.604341291921
 20
1979.749496429288
 30
0.0
 11
28121.604341291921
 21
1955.7494964292871
 31
0.0
1001
AUTOCAD_POSTSCRIPT_FIGURE
1002
{
1000
PSFILL
1000
Grayscale
1000
Grayscale
1070
   100
1002
}
  0
LINE
  5
6B902
  8
YODOROGO
 10
28137.604341291921
 20
1979.749496429288
 30
0.0
 11
28121.604341291921
 21
1979.749496429288
 31
0.0
1001
AUTOCAD_POSTSCRIPT_FIGURE
1002
{
1000
PSFILL
1000
Grayscale
1000
Grayscale
1070
   100
1002
}
  0
LINE
  5
6B903
  8
YODOROGO
 10
28137.604341291921
 20
1955.7494964292871
 30
0.0
 11
28137.604341291921
 21
1979.749496429288
 31
0.0
1001
AUTOCAD_POSTSCRIPT_FIGURE
1002
{
1000
PSFILL
1000
Grayscale
1000
Grayscale
1070
   100
1002
}
  0
LINE
  5
6B904
  8
YODOROGO
 10
28137.604341291921
 20
1939.749496429288
 30
0.0
 11
28137.604341291921
 21
1955.7494964292871
 31
0.0
1001
AUTOCAD_POSTSCRIPT_FIGURE
1002
{
1000
PSFILL
1000
Grayscale
1000
Grayscale
1070
   100
1002
}
  0
LINE
  5
6B905
  8
YODOROGO
 10
28098.902986873421
 20
1939.749496429288
 30
0.0
 11
28137.604341291921
 21
1939.749496429288
 31
0.0
1001
AUTOCAD_POSTSCRIPT_FIGURE
1002
{
1000
PSFILL
1000
Grayscale
1000
Grayscale
1070
   100
1002
}
  0
LINE
  5
6B906
  8
YODOROGO
 10
28137.604341291921
 20
1747.7494964292871
 30
0.0
 11
28098.902986873421
 21
1939.749496429288
 31
0.0
1001
AUTOCAD_POSTSCRIPT_FIGURE
1002
{
1000
PSFILL
1000
Grayscale
1000
Grayscale
1070
   100
1002
}
  0
LINE
  5
6B907
  8
YODOROGO
 10
28129.604341291921
 20
1747.7494964292871
 30
0.0
 11
28137.604341291921
 21
1747.7494964292871
 31
0.0
1001
AUTOCAD_POSTSCRIPT_FIGURE
1002
{
1000
PSFILL
1000
Grayscale
1000
Grayscale
1070
   100
1002
}
  0
LINE
  5
6B908
  8
YODOROGO
 10
28078.069219933801
 20
1775.7407762987939
 30
0.0
 11
27977.604341291921
 21
1747.7494964292871
 31
0.0
  0
LINE
  5
6B909
  8
YODOROGO
 10
28078.069219933801
 20
1798.6689795290731
 30
0.0
 11
28078.069219933801
 21
1775.7407762987939
 31
0.0
  0
LINE
  5
6B90A
  8
YODOROGO
 10
28033.83678061287
 20
1786.816933133767
 30
0.0
 11
28078.069219933801
 21
1798.6689795290731
 31
0.0
  0
LINE
  5
6B90B
  8
YODOROGO
 10
28033.83678061287
 20
1872.5683489363
 30
0.0
 11
28033.83678061287
 21
1786.816933133767
 31
0.0
  0
LINE
  5
6B90C
  8
YODOROGO
 10
28078.069219933801
 20
1872.5683489363
 30
0.0
 11
28033.83678061287
 21
1872.5683489363
 31
0.0
  0
LINE
  5
6B90D
  8
YODOROGO
 10
28078.069219933801
 20
1892.568348936298
 30
0.0
 11
28078.069219933801
 21
1872.5683489363
 31
0.0
  0
LINE
  5
6B90E
  8
YODOROGO
 10
27977.604341291921
 20
1892.568348936298
 30
0.0
 11
28078.069219933801
 21
1892.568348936298
 31
0.0
  0
LINE
  5
6B90F
  8
YODOROGO
 10
27977.604341291921
 20
1872.5683489363
 30
0.0
 11
27977.604341291921
 21
1892.568348936298
 31
0.0
  0
LINE
  5
6B910
  8
YODOROGO
 10
28021.836780612859
 20
1872.5683489363
 30
0.0
 11
27977.604341291921
 21
1872.5683489363
 31
0.0
  0
LINE
  5
6B911
  8
YODOROGO
 10
28021.836780612859
 20
1784.673339594317
 30
0.0
 11
28021.836780612859
 21
1872.5683489363
 31
0.0
  0
LINE
  5
6B912
  8
YODOROGO
 10
27977.604341291921
 20
1771.749496429286
 30
0.0
 11
28021.836780612859
 21
1784.673339594317
 31
0.0
  0
LINE
  5
6B913
  8
YODOROGO
 10
27977.604341291921
 20
1747.7494964292871
 30
0.0
 11
27977.604341291921
 21
1771.749496429286
 31
0.0
  0
LINE
  5
6B914
  8
YODOROGO
 10
28001.604341291921
 20
1707.749496429288
 30
0.0
 11
28001.604341291921
 21
1683.7494964292871
 31
0.0
  0
LINE
  5
6B916
  8
YODOROGO
 10
28017.604341291921
 20
1707.749496429288
 30
0.0
 11
28001.604341291921
 21
1707.749496429288
 31
0.0
  0
LINE
  5
6B917
  8
YODOROGO
 10
28017.604341291921
 20
1683.7494964292871
 30
0.0
 11
28017.604341291921
 21
1707.749496429288
 31
0.0
  0
LINE
  5
6B918
  8
YODOROGO
 10
28040.913204016899
 20
1683.7494964292871
 30
0.0
 11
28017.604341291921
 21
1683.7494964292871
 31
0.0
  0
LINE
  5
6B919
  8
YODOROGO
 10
28001.604341291921
 20
1683.7494964292871
 30
0.0
 11
27977.604341291921
 21
1683.7494964292871
 31
0.0
  0
LINE
  5
6B91A
  8
YODOROGO
 10
28082.135520230921
 20
1707.749496429288
 30
0.0
 11
28098.135520230931
 21
1707.749496429288
 31
0.0
1001
AUTOCAD_POSTSCRIPT_FIGURE
1002
{
1000
PSFILL
1000
Grayscale
1000
Grayscale
1070
   100
1002
}
  0
LINE
  5
6B91B
  8
YODOROGO
 10
28401.60434129191
 20
1824.877625640306
 30
0.0
 11
28401.60434129191
 21
1752.877625640306
 31
0.0
1001
AUTOCAD_POSTSCRIPT_FIGURE
1002
{
1000
PSFILL
1000
Grayscale
1000
Grayscale
1070
   100
1002
}
  0
LINE
  5
6B91C
  8
YODOROGO
 10
28401.60434129191
 20
1916.8776256403071
 30
0.0
 11
28401.60434129191
 21
1984.877625640306
 31
0.0
1001
AUTOCAD_POSTSCRIPT_FIGURE
1002
{
1000
PSFILL
1000
Grayscale
1000
Grayscale
1070
   100
1002
}
  0
LINE
  5
6B91D
  8
YODOROGO
 10
28433.60434129191
 20
1819.749496429288
 30
0.0
 11
28433.60434129191
 21
1747.74949642929
 31
0.0
  0
LINE
  5
6B91E
  8
YODOROGO
 10
28497.60434129191
 20
1707.749496429288
 30
0.0
 11
28433.60434129191
 21
1707.749496429288
 31
0.0
  0
LINE
  5
6B91F
  8
YODOROGO
 10
28433.60434129191
 20
1747.74949642929
 30
0.0
 11
28585.604341291921
 21
1747.74949642929
 31
0.0
  0
LINE
  5
6B920
  8
YODOROGO
 10
28497.60434129191
 20
1867.749496429288
 30
0.0
 11
28433.60434129191
 21
1867.749496429288
 31
0.0
  0
LINE
  5
6B921
  8
YODOROGO
 10
28497.60434129191
 20
1923.7494964292871
 30
0.0
 11
28497.60434129191
 21
1867.749496429288
 31
0.0
  0
LINE
  5
6B922
  8
YODOROGO
 10
28585.604341291921
 20
1987.749496429288
 30
0.0
 11
28585.604341291921
 21
2027.749496429288
 31
0.0
  0
LINE
  5
6B923
  8
YODOROGO
 10
28433.60434129191
 20
1987.749496429288
 30
0.0
 11
28585.604341291921
 21
1987.749496429288
 31
0.0
  0
LINE
  5
6B924
  8
YODOROGO
 10
28433.60434129191
 20
1867.749496429288
 30
0.0
 11
28433.60434129191
 21
1987.749496429288
 31
0.0
  0
LINE
  5
6B925
  8
YODOROGO
 10
29001.60434129191
 20
2027.749496429288
 30
0.0
 11
29001.60434129191
 21
1619.749496429288
 31
0.0
  0
LINE
  5
6B926
  8
YODOROGO
 10
29073.604341291921
 20
1579.749496429288
 30
0.0
 11
29073.604341291921
 21
2027.749496429288
 31
0.0
  0
LINE
  5
6B927
  8
YODOROGO
 10
29261.604341291921
 20
1491.749496429286
 30
0.0
 11
29261.604341291921
 21
2007.749496429288
 31
0.0
  0
LINE
  5
6B928
  8
YODOROGO
 10
29197.604341291921
 20
2007.749496429288
 30
0.0
 11
29197.604341291921
 21
1491.749496429286
 31
0.0
  0
LINE
  5
6B929
  8
YODOROGO
 10
29385.604341291921
 20
2027.749496429288
 30
0.0
 11
29385.604341291921
 21
1427.749496429288
 31
0.0
  0
LINE
  5
6B92A
  8
YODOROGO
 10
29457.604341291921
 20
1427.749496429288
 30
0.0
 11
29457.604341291921
 21
2027.749496429288
 31
0.0
  0
LINE
  5
6B92B
  8
YODOROGO
 10
28657.60434129191
 20
1667.749496429288
 30
0.0
 11
28657.60434129191
 21
1747.74949642929
 31
0.0
  0
LINE
  5
6B92C
  8
YODOROGO
 10
29885.604341291921
 20
1707.749496429288
 30
0.0
 11
29885.604341291921
 21
1667.749496429288
 31
0.0
  0
LINE
  5
6B92D
  8
YODOROGO
 10
29885.604341291921
 20
1707.749496429288
 30
0.0
 11
29885.604341291921
 21
1667.749496429288
 31
0.0
  0
ARC
  5
6B92E
  8
YODOROGO
 10
28906.911576186842
 20
1618.2178644422729
 30
0.0
 40
94.705151178741659
 50
274.0524416290711
 51
0.9266642149310712
  0
ARC
  5
6B92F
  8
YODOROGO
 10
28909.18617071983
 20
1592.61072861044
 30
0.0
 40
164.92042356085511
 50
271.53512106537778
 51
355.52727750585058
  0
LINE
  5
6B930
  8
YODOROGO
 10
28913.604341291921
 20
1523.7494964292871
 30
0.0
 11
28913.604341291921
 21
1427.749496429288
 31
0.0
  0
LINE
  5
6B931
  8
YODOROGO
 10
28793.60434129191
 20
1667.749496429288
 30
0.0
 11
28657.60434129191
 21
1667.749496429288
 31
0.0
  0
LINE
  5
6B932
  8
YODOROGO
 10
28793.60434129191
 20
1603.7494964292889
 30
0.0
 11
28793.60434129191
 21
1667.749496429288
 31
0.0
  0
LINE
  5
6B933
  8
YODOROGO
 10
28657.60434129191
 20
1603.7494964292889
 30
0.0
 11
28793.60434129191
 21
1603.7494964292889
 31
0.0
  0
LINE
  5
6B934
  8
YODOROGO
 10
28657.60434129191
 20
1523.7494964292871
 30
0.0
 11
28657.60434129191
 21
1603.7494964292889
 31
0.0
  0
LINE
  5
6B935
  8
YODOROGO
 10
28793.60434129191
 20
1523.7494964292871
 30
0.0
 11
28657.60434129191
 21
1523.7494964292871
 31
0.0
  0
LINE
  5
6B936
  8
YODOROGO
 10
28793.60434129191
 20
1427.749496429288
 30
0.0
 11
28793.60434129191
 21
1523.7494964292871
 31
0.0
  0
LINE
  5
6B937
  8
YODOROGO
 10
29197.604341291921
 20
1491.749496429286
 30
0.0
 11
29261.604341291921
 21
1491.749496429286
 31
0.0
  0
LINE
  5
6B938
  8
YODOROGO
 10
29385.604341291921
 20
1427.749496429288
 30
0.0
 11
29457.604341291921
 21
1427.749496429288
 31
0.0
  0
LINE
  5
6B939
  8
YODOROGO
 10
29737.604341291921
 20
1528.4414521705639
 30
0.0
 11
29737.604341291921
 21
1427.749496429288
 31
0.0
  0
LINE
  5
6B93A
  8
YODOROGO
 10
29617.604341291921
 20
1427.749496429288
 30
0.0
 11
29737.604341291921
 21
1528.4414521705639
 31
0.0
  0
LINE
  5
6B93B
  8
YODOROGO
 10
29617.604341291921
 20
1547.749496429288
 30
0.0
 11
29617.604341291921
 21
1427.749496429288
 31
0.0
  0
LINE
  5
6B93C
  8
YODOROGO
 10
29712.944628699461
 20
1627.749496429288
 30
0.0
 11
29617.604341291921
 21
1547.749496429288
 31
0.0
  0
LINE
  5
6B93D
  8
YODOROGO
 10
29617.604341291921
 20
1627.749496429288
 30
0.0
 11
29712.944628699461
 21
1627.749496429288
 31
0.0
  0
LINE
  5
6B93E
  8
YODOROGO
 10
29617.604341291921
 20
1667.749496429288
 30
0.0
 11
29617.604341291921
 21
1627.749496429288
 31
0.0
  0
LINE
  5
6B93F
  8
YODOROGO
 10
29885.604341291921
 20
1667.749496429288
 30
0.0
 11
29617.604341291921
 21
1667.749496429288
 31
0.0
  0
LINE
  5
6B940
  8
YODOROGO
 10
29917.604341291921
 20
1627.749496429288
 30
0.0
 11
29777.604341291921
 21
1627.749496429288
 31
0.0
  0
LINE
  5
6B941
  8
YODOROGO
 10
29777.604341291921
 20
1562.005437417657
 30
0.0
 11
29771.40987298531
 21
1556.807661346234
 31
0.0
  0
LINE
  5
6B942
  8
YODOROGO
 10
29777.604341291921
 20
1627.749496429288
 30
0.0
 11
29777.604341291921
 21
1562.005437417657
 31
0.0
  0
LINE
  5
6B943
  8
YODOROGO
 10
29737.604341291921
 20
1528.4414521705639
 30
0.0
 11
29737.604341291921
 21
1427.749496429288
 31
0.0
  0
LINE
  5
6B944
  8
YODOROGO
 10
29617.604341291921
 20
1427.749496429288
 30
0.0
 11
29737.604341291921
 21
1528.4414521705639
 31
0.0
  0
LINE
  5
6B945
  8
YODOROGO
 10
29617.604341291921
 20
1547.749496429288
 30
0.0
 11
29617.604341291921
 21
1427.749496429288
 31
0.0
  0
LINE
  5
6B946
  8
YODOROGO
 10
29712.944628699461
 20
1627.749496429288
 30
0.0
 11
29617.604341291921
 21
1547.749496429288
 31
0.0
  0
LINE
  5
6B947
  8
YODOROGO
 10
29617.604341291921
 20
1627.749496429288
 30
0.0
 11
29712.944628699461
 21
1627.749496429288
 31
0.0
  0
LINE
  5
6B948
  8
YODOROGO
 10
29617.604341291921
 20
1667.749496429288
 30
0.0
 11
29617.604341291921
 21
1627.749496429288
 31
0.0
  0
LINE
  5
6B949
  8
YODOROGO
 10
29885.604341291921
 20
1667.749496429288
 30
0.0
 11
29617.604341291921
 21
1667.749496429288
 31
0.0
  0
LINE
  5
6B94A
  8
YODOROGO
 10
28793.60434129191
 20
1747.74949642929
 30
0.0
 11
28793.60434129191
 21
1819.749496429288
 31
0.0
  0
LINE
  5
6B94B
  8
YODOROGO
 10
28657.60434129191
 20
1747.74949642929
 30
0.0
 11
28793.60434129191
 21
1747.74949642929
 31
0.0
  0
LINE
  5
6B94C
  8
YODOROGO
 10
28729.604341291921
 20
1867.749496429288
 30
0.0
 11
28729.604341291921
 21
1923.7494964292871
 31
0.0
  0
LINE
  5
6B94D
  8
YODOROGO
 10
28793.60434129191
 20
1867.749496429288
 30
0.0
 11
28729.604341291921
 21
1867.749496429288
 31
0.0
  0
LINE
  5
6B94E
  8
YODOROGO
 10
28793.60434129191
 20
1947.749496429288
 30
0.0
 11
28793.60434129191
 21
1867.749496429288
 31
0.0
  0
ARC
  5
6B94F
  8
YODOROGO
 10
28753.60434129191
 20
1947.749496429288
 30
0.0
 40
40.0
 50
0.0
 51
90.0
  0
LINE
  5
6B950
  8
YODOROGO
 10
28657.604341291921
 20
1987.749496429288
 30
0.0
 11
28753.60434129191
 21
1987.749496429288
 31
0.0
  0
LINE
  5
6B951
  8
YODOROGO
 10
28657.604341291921
 20
2027.749496429288
 30
0.0
 11
28657.604341291921
 21
1987.749496429288
 31
0.0
  0
LINE
  5
6B952
  8
YODOROGO
 10
29073.604341291921
 20
2027.749496429288
 30
0.0
 11
29001.60434129191
 21
2027.749496429288
 31
0.0
  0
LINE
  5
6B953
  8
YODOROGO
 10
29261.604341291921
 20
2007.749496429288
 30
0.0
 11
29197.604341291921
 21
2007.749496429288
 31
0.0
  0
LINE
  5
6B954
  8
YODOROGO
 10
29457.604341291921
 20
2027.749496429288
 30
0.0
 11
29385.604341291921
 21
2027.749496429288
 31
0.0
  0
LINE
  5
6B955
  8
YODOROGO
 10
29673.604341291921
 20
1707.749496429288
 30
0.0
 11
29673.604341291921
 21
1771.749496429288
 31
0.0
1001
AUTOCAD_POSTSCRIPT_FIGURE
1002
{
1000
PSFILL
1000
Grayscale
1000
Grayscale
1070
    25
1002
}
  0
LINE
  5
6B956
  8
YODOROGO
 10
29617.604341291921
 20
1707.749496429288
 30
0.0
 11
29673.604341291921
 21
1707.749496429288
 31
0.0
1001
AUTOCAD_POSTSCRIPT_FIGURE
1002
{
1000
PSFILL
1000
Grayscale
1000
Grayscale
1070
    25
1002
}
  0
LINE
  5
6B957
  8
YODOROGO
 10
29617.604341291921
 20
1819.749496429288
 30
0.0
 11
29617.604341291921
 21
1707.749496429288
 31
0.0
1001
AUTOCAD_POSTSCRIPT_FIGURE
1002
{
1000
PSFILL
1000
Grayscale
1000
Grayscale
1070
    25
1002
}
  0
LINE
  5
6B958
  8
YODOROGO
 10
29765.604341291921
 20
1819.749496429288
 30
0.0
 11
29617.604341291921
 21
1819.749496429288
 31
0.0
1001
AUTOCAD_POSTSCRIPT_FIGURE
1002
{
1000
PSFILL
1000
Grayscale
1000
Grayscale
1070
    25
1002
}
  0
LINE
  5
6B959
  8
YODOROGO
 10
29765.604341291921
 20
1859.749496429288
 30
0.0
 11
29765.604341291921
 21
1819.749496429288
 31
0.0
1001
AUTOCAD_POSTSCRIPT_FIGURE
1002
{
1000
PSFILL
1000
Grayscale
1000
Grayscale
1070
    25
1002
}
  0
LINE
  5
6B95A
  8
YODOROGO
 10
29617.604341291921
 20
1859.749496429288
 30
0.0
 11
29765.604341291921
 21
1859.749496429288
 31
0.0
1001
AUTOCAD_POSTSCRIPT_FIGURE
1002
{
1000
PSFILL
1000
Grayscale
1000
Grayscale
1070
    25
1002
}
  0
LINE
  5
6B95B
  8
YODOROGO
 10
29617.604341291921
 20
1907.7494964292871
 30
0.0
 11
29617.604341291921
 21
1859.749496429288
 31
0.0
1001
AUTOCAD_POSTSCRIPT_FIGURE
1002
{
1000
PSFILL
1000
Grayscale
1000
Grayscale
1070
    25
1002
}
  0
LINE
  5
6B95C
  8
YODOROGO
 10
29765.604341291921
 20
1907.7494964292871
 30
0.0
 11
29617.604341291921
 21
1907.7494964292871
 31
0.0
1001
AUTOCAD_POSTSCRIPT_FIGURE
1002
{
1000
PSFILL
1000
Grayscale
1000
Grayscale
1070
    25
1002
}
  0
LINE
  5
6B95D
  8
YODOROGO
 10
29765.604341291921
 20
1947.749496429288
 30
0.0
 11
29765.604341291921
 21
1907.7494964292871
 31
0.0
1001
AUTOCAD_POSTSCRIPT_FIGURE
1002
{
1000
PSFILL
1000
Grayscale
1000
Grayscale
1070
    25
1002
}
  0
LINE
  5
6B95E
  8
YODOROGO
 10
29617.604341291921
 20
1947.749496429288
 30
0.0
 11
29765.604341291921
 21
1947.749496429288
 31
0.0
1001
AUTOCAD_POSTSCRIPT_FIGURE
1002
{
1000
PSFILL
1000
Grayscale
1000
Grayscale
1070
    25
1002
}
  0
LINE
  5
6B95F
  8
YODOROGO
 10
29617.604341291921
 20
2027.749496429288
 30
0.0
 11
29617.604341291921
 21
1947.749496429288
 31
0.0
1001
AUTOCAD_POSTSCRIPT_FIGURE
1002
{
1000
PSFILL
1000
Grayscale
1000
Grayscale
1070
    25
1002
}
  0
LINE
  5
6B960
  8
YODOROGO
 10
29665.604341291921
 20
2027.749496429288
 30
0.0
 11
29617.604341291921
 21
2027.749496429288
 31
0.0
1001
AUTOCAD_POSTSCRIPT_FIGURE
1002
{
1000
PSFILL
1000
Grayscale
1000
Grayscale
1070
    25
1002
}
  0
LINE
  5
6B961
  8
YODOROGO
 10
29665.604341291921
 20
1995.7494964292871
 30
0.0
 11
29665.604341291921
 21
2027.749496429288
 31
0.0
1001
AUTOCAD_POSTSCRIPT_FIGURE
1002
{
1000
PSFILL
1000
Grayscale
1000
Grayscale
1070
    25
1002
}
  0
LINE
  5
6B962
  8
YODOROGO
 10
29765.604341291921
 20
1995.7494964292871
 30
0.0
 11
29665.604341291921
 21
1995.7494964292871
 31
0.0
1001
AUTOCAD_POSTSCRIPT_FIGURE
1002
{
1000
PSFILL
1000
Grayscale
1000
Grayscale
1070
    25
1002
}
  0
LINE
  5
6B963
  8
YODOROGO
 10
29765.604341291921
 20
2027.749496429288
 30
0.0
 11
29765.604341291921
 21
1995.7494964292871
 31
0.0
1001
AUTOCAD_POSTSCRIPT_FIGURE
1002
{
1000
PSFILL
1000
Grayscale
1000
Grayscale
1070
    25
1002
}
  0
LINE
  5
6B964
  8
YODOROGO
 10
29829.604341291921
 20
2027.749496429288
 30
0.0
 11
29765.604341291921
 21
2027.749496429288
 31
0.0
1001
AUTOCAD_POSTSCRIPT_FIGURE
1002
{
1000
PSFILL
1000
Grayscale
1000
Grayscale
1070
    25
1002
}
  0
LINE
  5
6B965
  8
YODOROGO
 10
29829.604341291921
 20
1995.7494964292871
 30
0.0
 11
29829.604341291921
 21
2027.749496429288
 31
0.0
1001
AUTOCAD_POSTSCRIPT_FIGURE
1002
{
1000
PSFILL
1000
Grayscale
1000
Grayscale
1070
    25
1002
}
  0
LINE
  5
6B966
  8
YODOROGO
 10
29829.604341291921
 20
1907.7494964292871
 30
0.0
 11
29829.604341291921
 21
1947.749496429288
 31
0.0
1001
AUTOCAD_POSTSCRIPT_FIGURE
1002
{
1000
PSFILL
1000
Grayscale
1000
Grayscale
1070
    25
1002
}
  0
LINE
  5
6B967
  8
YODOROGO
 10
29829.604341291921
 20
1819.749496429288
 30
0.0
 11
29829.604341291921
 21
1859.749496429288
 31
0.0
1001
AUTOCAD_POSTSCRIPT_FIGURE
1002
{
1000
PSFILL
1000
Grayscale
1000
Grayscale
1070
    25
1002
}
  0
LINE
  5
6B968
  8
YODOROGO
 10
29921.60434129191
 20
1771.749496429288
 30
0.0
 11
29921.60434129191
 21
1707.749496429288
 31
0.0
1001
AUTOCAD_POSTSCRIPT_FIGURE
1002
{
1000
PSFILL
1000
Grayscale
1000
Grayscale
1070
    25
1002
}
  0
LINE
  5
6B969
  8
YODOROGO
 10
29829.604341291921
 20
1771.749496429288
 30
0.0
 11
29921.60434129191
 21
1771.749496429288
 31
0.0
1001
AUTOCAD_POSTSCRIPT_FIGURE
1002
{
1000
PSFILL
1000
Grayscale
1000
Grayscale
1070
    25
1002
}
  0
LINE
  5
6B96A
  8
YODOROGO
 10
29829.604341291921
 20
1707.749496429288
 30
0.0
 11
29829.604341291921
 21
1771.749496429288
 31
0.0
1001
AUTOCAD_POSTSCRIPT_FIGURE
1002
{
1000
PSFILL
1000
Grayscale
1000
Grayscale
1070
    25
1002
}
  0
LINE
  5
6B96B
  8
YODOROGO
 10
29765.604341291921
 20
1707.749496429288
 30
0.0
 11
29829.604341291921
 21
1707.749496429288
 31
0.0
1001
AUTOCAD_POSTSCRIPT_FIGURE
1002
{
1000
PSFILL
1000
Grayscale
1000
Grayscale
1070
    25
1002
}
  0
LINE
  5
6B96C
  8
YODOROGO
 10
29765.604341291921
 20
1771.749496429288
 30
0.0
 11
29765.604341291921
 21
1707.749496429288
 31
0.0
1001
AUTOCAD_POSTSCRIPT_FIGURE
1002
{
1000
PSFILL
1000
Grayscale
1000
Grayscale
1070
    25
1002
}
  0
LINE
  5
6B96D
  8
YODOROGO
 10
29673.604341291921
 20
1771.749496429288
 30
0.0
 11
29765.604341291921
 21
1771.749496429288
 31
0.0
1001
AUTOCAD_POSTSCRIPT_FIGURE
1002
{
1000
PSFILL
1000
Grayscale
1000
Grayscale
1070
    25
1002
}
  0
ARC
  5
6B96E
  8
YODOROGO
 10
31059.517893357912
 20
1602.6807375155761
 30
0.0
 40
178.22128111072149
 50
281.02627495425361
 51
357.77113575573799
  0
LINE
  5
6B96F
  8
YODOROGO
 10
31413.604341291921
 20
1907.7494964292871
 30
0.0
 11
31165.604341291921
 21
1907.7494964292871
 31
0.0
  0
LINE
  5
6B970
  8
YODOROGO
 10
31413.604341291921
 20
2027.749496429288
 30
0.0
 11
31165.604341291921
 21
2027.749496429288
 31
0.0
  0
LINE
  5
6B971
  8
YODOROGO
 10
31165.604341291921
 20
1963.7494964292871
 30
0.0
 11
31413.604341291921
 21
1963.7494964292871
 31
0.0
  0
LINE
  5
6B972
  8
YODOROGO
 10
30791.604341291921
 20
1563.7494964292871
 30
0.0
 11
30791.604341291921
 21
1755.7494964292871
 31
0.0
  0
LINE
  5
6B973
  8
YODOROGO
 10
30763.604341291921
 20
1691.7494964292889
 30
0.0
 11
30763.604341291921
 21
1563.7494964292871
 31
0.0
  0
LINE
  5
6B974
  8
YODOROGO
 10
30723.604341291921
 20
1491.7494964292889
 30
0.0
 11
30723.604341291921
 21
1691.7494964292889
 31
0.0
  0
LINE
  5
6B975
  8
YODOROGO
 10
30899.604341291932
 20
1691.7494964292889
 30
0.0
 11
30899.604341291932
 21
1491.7494964292889
 31
0.0
  0
LINE
  5
6B976
  8
YODOROGO
 10
30859.604341291932
 20
1563.7494964292871
 30
0.0
 11
30859.604341291932
 21
1691.7494964292889
 31
0.0
  0
LINE
  5
6B977
  8
YODOROGO
 10
30831.604341291921
 20
1755.7494964292871
 30
0.0
 11
30831.604341291921
 21
1563.7494964292871
 31
0.0
  0
LINE
  5
6B978
  8
YODOROGO
 10
30973.604341291921
 20
2027.749496429288
 30
0.0
 11
30973.604341291921
 21
1467.749496429288
 31
0.0
  0
LINE
  5
6B979
  8
YODOROGO
 10
30645.604341291921
 20
1427.749496429288
 30
0.0
 11
30645.604341291921
 21
2027.749496429288
 31
0.0
  0
LINE
  5
6B97A
  8
YODOROGO
 10
30697.604341291932
 20
1963.7494964292871
 30
0.0
 11
30697.604341291932
 21
1427.749496429288
 31
0.0
  0
LINE
  5
6B97B
  8
YODOROGO
 10
30925.604341291921
 20
1547.749496429288
 30
0.0
 11
30925.604341291921
 21
1963.7494964292871
 31
0.0
  0
LINE
  5
6B97C
  8
YODOROGO
 10
30381.604341291932
 20
1627.749496429288
 30
0.0
 11
30381.604341291932
 21
1679.749496429288
 31
0.0
  0
LINE
  5
6B97D
  8
YODOROGO
 10
30617.604341291921
 20
1679.749496429288
 30
0.0
 11
30617.604341291921
 21
1627.749496429288
 31
0.0
  0
LINE
  5
6B97E
  8
YODOROGO
 10
31165.604341291921
 20
1907.7494964292871
 30
0.0
 11
31165.604341291921
 21
1635.7494964292871
 31
0.0
  0
LINE
  5
6B97F
  8
YODOROGO
 10
29949.604341291921
 20
1667.749496429288
 30
0.0
 11
29949.604341291921
 21
1707.749496429288
 31
0.0
  0
LINE
  5
6B980
  8
YODOROGO
 10
29949.604341291921
 20
1667.749496429288
 30
0.0
 11
29949.604341291921
 21
1707.749496429288
 31
0.0
  0
ARC
  5
6B981
  8
YODOROGO
 10
30537.604341291921
 20
1507.749496429288
 30
0.0
 40
80.0
 50
270.0
 51
0.0
  0
LINE
  5
6B982
  8
YODOROGO
 10
30569.604341291921
 20
1599.749496429288
 30
0.0
 11
30617.604341291921
 21
1599.749496429288
 31
0.0
  0
LINE
  5
6B983
  8
YODOROGO
 10
30617.604341291921
 20
1627.749496429288
 30
0.0
 11
30529.604341291932
 21
1627.749496429288
 31
0.0
  0
LINE
  5
6B984
  8
YODOROGO
 10
30217.604341291921
 20
1667.749496429288
 30
0.0
 11
29949.604341291921
 21
1667.749496429288
 31
0.0
  0
LINE
  5
6B985
  8
YODOROGO
 10
30217.604341291921
 20
1627.749496429288
 30
0.0
 11
30217.604341291921
 21
1667.749496429288
 31
0.0
  0
LINE
  5
6B986
  8
YODOROGO
 10
30017.604341291921
 20
1627.749496429288
 30
0.0
 11
30217.604341291921
 21
1627.749496429288
 31
0.0
  0
ARC
  5
6B987
  8
YODOROGO
 10
30230.058828701371
 20
1868.8857149529019
 30
0.0
 40
321.37763628522828
 50
228.6181454618993
 51
245.660289248906
  0
LINE
  5
6B988
  8
YODOROGO
 10
30105.604341291921
 20
1603.7494964292889
 30
0.0
 11
30097.604341291961
 21
1576.0728158699001
 31
0.0
  0
LINE
  5
6B989
  8
YODOROGO
 10
30189.604341291921
 20
1603.7494964292889
 30
0.0
 11
30105.604341291921
 21
1603.7494964292889
 31
0.0
  0
LINE
  5
6B98A
  8
YODOROGO
 10
30177.604341291921
 20
1551.817722473427
 30
0.0
 11
30189.604341291921
 21
1603.7494964292889
 31
0.0
  0
ARC
  5
6B98B
  8
YODOROGO
 10
30230.058828700461
 20
1868.8857149530029
 30
0.0
 40
321.37763628529092
 50
260.60629297969928
 51
267.77903556555862
  0
LINE
  5
6B98C
  8
YODOROGO
 10
30217.604341291921
 20
1427.749496429285
 30
0.0
 11
30217.604341291921
 21
1547.749496429288
 31
0.0
  0
LINE
  5
6B98D
  8
YODOROGO
 10
29937.604341291932
 20
1481.339334915511
 30
0.0
 11
29937.604341291921
 21
1594.531090531141
 31
0.0
  0
LINE
  5
6B98E
  8
YODOROGO
 10
30217.604341291921
 20
1667.749496429288
 30
0.0
 11
29949.604341291921
 21
1667.749496429288
 31
0.0
  0
LINE
  5
6B98F
  8
YODOROGO
 10
30217.604341291921
 20
1627.749496429288
 30
0.0
 11
30217.604341291921
 21
1667.749496429288
 31
0.0
  0
LINE
  5
6B990
  8
YODOROGO
 10
30017.604341291921
 20
1627.749496429288
 30
0.0
 11
30217.604341291921
 21
1627.749496429288
 31
0.0
  0
ARC
  5
6B991
  8
YODOROGO
 10
30230.058828701371
 20
1868.8857149529019
 30
0.0
 40
321.37763628522828
 50
228.6181454618993
 51
245.660289248906
  0
LINE
  5
6B992
  8
YODOROGO
 10
30105.604341291921
 20
1603.7494964292889
 30
0.0
 11
30097.604341291961
 21
1576.0728158699001
 31
0.0
  0
LINE
  5
6B993
  8
YODOROGO
 10
30189.604341291921
 20
1603.7494964292889
 30
0.0
 11
30105.604341291921
 21
1603.7494964292889
 31
0.0
  0
LINE
  5
6B994
  8
YODOROGO
 10
30177.604341291921
 20
1551.817722473427
 30
0.0
 11
30189.604341291921
 21
1603.7494964292889
 31
0.0
  0
ARC
  5
6B995
  8
YODOROGO
 10
30230.058828700461
 20
1868.8857149530029
 30
0.0
 40
321.37763628529092
 50
260.60629297969928
 51
267.77903556555862
  0
LINE
  5
6B996
  8
YODOROGO
 10
30217.604341291921
 20
1427.749496429285
 30
0.0
 11
30217.604341291921
 21
1547.749496429288
 31
0.0
  0
LINE
  5
6B997
  8
YODOROGO
 10
29937.604341291932
 20
1481.339334915511
 30
0.0
 11
29937.604341291921
 21
1594.531090531141
 31
0.0
  0
LINE
  5
6B998
  8
YODOROGO
 10
30433.604341291932
 20
1573.7494964292889
 30
0.0
 11
30381.604341291932
 21
1573.7494964292889
 31
0.0
  0
LINE
  5
6B999
  8
YODOROGO
 10
30433.604341291932
 20
1601.749496429286
 30
0.0
 11
30433.604341291932
 21
1573.7494964292889
 31
0.0
  0
LINE
  5
6B99A
  8
YODOROGO
 10
30381.604341291932
 20
1601.749496429286
 30
0.0
 11
30433.604341291932
 21
1601.749496429286
 31
0.0
  0
LINE
  5
6B99B
  8
YODOROGO
 10
30381.604341291932
 20
1573.7494964292889
 30
0.0
 11
30381.604341291932
 21
1601.749496429286
 31
0.0
  0
LINE
  5
6B99C
  8
YODOROGO
 10
30429.604341291921
 20
1577.7494964292871
 30
0.0
 11
30385.604341291932
 21
1577.7494964292871
 31
0.0
  0
LINE
  5
6B99D
  8
YODOROGO
 10
30429.604341291921
 20
1597.749496429288
 30
0.0
 11
30429.604341291921
 21
1577.7494964292871
 31
0.0
  0
LINE
  5
6B99E
  8
YODOROGO
 10
30385.604341291932
 20
1597.749496429288
 30
0.0
 11
30429.604341291921
 21
1597.749496429288
 31
0.0
  0
LINE
  5
6B99F
  8
YODOROGO
 10
30385.604341291932
 20
1577.7494964292871
 30
0.0
 11
30385.604341291932
 21
1597.749496429288
 31
0.0
  0
LINE
  5
6B9A0
  8
YODOROGO
 10
30425.604341291921
 20
1581.749496429286
 30
0.0
 11
30389.604341291932
 21
1581.749496429286
 31
0.0
  0
LINE
  5
6B9A1
  8
YODOROGO
 10
30425.604341291932
 20
1593.7494964292889
 30
0.0
 11
30425.604341291921
 21
1581.749496429286
 31
0.0
  0
LINE
  5
6B9A2
  8
YODOROGO
 10
30389.604341291932
 20
1593.7494964292889
 30
0.0
 11
30425.604341291932
 21
1593.7494964292889
 31
0.0
  0
LINE
  5
6B9A3
  8
YODOROGO
 10
30389.604341291932
 20
1581.749496429286
 30
0.0
 11
30389.604341291932
 21
1593.7494964292889
 31
0.0
  0
LINE
  5
6B9A4
  8
YODOROGO
 10
30421.604341291932
 20
1585.7494964292871
 30
0.0
 11
30393.604341291932
 21
1585.7494964292871
 31
0.0
  0
LINE
  5
6B9A5
  8
YODOROGO
 10
30421.604341291932
 20
1589.749496429288
 30
0.0
 11
30421.604341291932
 21
1585.7494964292871
 31
0.0
  0
LINE
  5
6B9A6
  8
YODOROGO
 10
30393.604341291932
 20
1589.749496429288
 30
0.0
 11
30421.604341291932
 21
1589.749496429288
 31
0.0
  0
LINE
  5
6B9A7
  8
YODOROGO
 10
30393.604341291932
 20
1585.7494964292871
 30
0.0
 11
30393.604341291932
 21
1589.749496429288
 31
0.0
  0
LINE
  5
6B9A8
  8
YODOROGO
 10
30465.604341291921
 20
1627.749496429288
 30
0.0
 11
30381.604341291932
 21
1627.749496429288
 31
0.0
  0
LINE
  5
6B9A9
  8
YODOROGO
 10
30465.604341291921
 20
1547.749496429288
 30
0.0
 11
30465.604341291921
 21
1627.749496429288
 31
0.0
  0
LINE
  5
6B9AA
  8
YODOROGO
 10
30381.604341291932
 20
1547.749496429288
 30
0.0
 11
30465.604341291921
 21
1547.749496429288
 31
0.0
  0
LINE
  5
6B9AB
  8
YODOROGO
 10
30381.604341291932
 20
1427.749496429288
 30
0.0
 11
30381.604341291932
 21
1547.749496429288
 31
0.0
  0
LINE
  5
6B9AC
  8
YODOROGO
 10
30537.604341291921
 20
1427.749496429288
 30
0.0
 11
30381.604341291932
 21
1427.749496429288
 31
0.0
  0
LINE
  5
6B9AD
  8
YODOROGO
 10
30569.604341291921
 20
1571.749496429286
 30
0.0
 11
30569.604341291921
 21
1599.749496429288
 31
0.0
  0
ARC
  5
6B9AE
  8
YODOROGO
 10
30545.60434129191
 20
1571.749496429291
 30
0.0
 40
24.000000000003752
 50
270.0
 51
359.99999999998778
  0
LINE
  5
6B9AF
  8
YODOROGO
 10
30529.604341291932
 20
1547.749496429288
 30
0.0
 11
30545.60434129191
 21
1547.749496429288
 31
0.0
  0
LINE
  5
6B9B0
  8
YODOROGO
 10
30529.604341291932
 20
1627.749496429288
 30
0.0
 11
30529.604341291932
 21
1547.749496429288
 31
0.0
  0
LINE
  5
6B9B1
  8
YODOROGO
 10
30899.604341291932
 20
1547.749496429288
 30
0.0
 11
30925.604341291921
 21
1547.749496429288
 31
0.0
  0
LINE
  5
6B9B2
  8
YODOROGO
 10
30933.604341291921
 20
1427.749496429288
 30
0.0
 11
30899.604341291932
 21
1427.749496429288
 31
0.0
  0
LINE
  5
6B9B3
  8
YODOROGO
 10
30763.604341291921
 20
1563.7494964292871
 30
0.0
 11
30791.604341291921
 21
1563.7494964292871
 31
0.0
  0
LINE
  5
6B9B4
  8
YODOROGO
 10
30899.604341291932
 20
1491.7494964292889
 30
0.0
 11
30723.604341291921
 21
1491.7494964292889
 31
0.0
  0
LINE
  5
6B9B5
  8
YODOROGO
 10
30831.604341291921
 20
1563.7494964292871
 30
0.0
 11
30859.604341291932
 21
1563.7494964292871
 31
0.0
  0
LINE
  5
6B9B6
  8
YODOROGO
 10
30899.604341291932
 20
1427.749496429288
 30
0.0
 11
30899.604341291932
 21
1547.749496429288
 31
0.0
  0
LINE
  5
6B9B7
  8
YODOROGO
 10
30697.604341291932
 20
1427.749496429288
 30
0.0
 11
30645.604341291921
 21
1427.749496429288
 31
0.0
  0
LINE
  5
6B9B8
  8
YODOROGO
 10
30617.604341291921
 20
1599.749496429288
 30
0.0
 11
30617.604341291921
 21
1507.749496429288
 31
0.0
  0
ARC
  5
6B9B9
  8
YODOROGO
 10
30933.604341291921
 20
1467.749496429288
 30
0.0
 40
40.0
 50
270.0
 51
0.0
  0
LINE
  5
6B9BA
  8
YODOROGO
 10
31093.604341291921
 20
1523.7494964292871
 30
0.0
 11
31093.604341291921
 21
1427.749496429288
 31
0.0
  0
ARC
  5
6B9BB
  8
YODOROGO
 10
31039.721395566779
 20
1637.5313901097329
 30
0.0
 40
125.8955565916754
 50
295.34052442160112
 51
359.18902303418668
  0
LINE
  5
6B9BC
  8
YODOROGO
 10
30617.604341291921
 20
1859.749496429288
 30
0.0
 11
30497.604341291921
 21
1939.749496429288
 31
0.0
  0
LINE
  5
6B9BD
  8
YODOROGO
 10
30497.604341291921
 20
2027.749496429288
 30
0.0
 11
30617.604341291921
 21
1947.749496429288
 31
0.0
  0
LINE
  5
6B9BE
  8
YODOROGO
 10
30529.604341291932
 20
1679.749496429288
 30
0.0
 11
30617.604341291921
 21
1679.749496429288
 31
0.0
  0
LINE
  5
6B9BF
  8
YODOROGO
 10
30617.604341291921
 20
1735.7494964292871
 30
0.0
 11
30529.604341291932
 21
1735.7494964292871
 31
0.0
  0
LINE
  5
6B9C0
  8
YODOROGO
 10
30381.604341291932
 20
1795.7494964292871
 30
0.0
 11
30617.604341291921
 21
1795.7494964292871
 31
0.0
  0
LINE
  5
6B9C1
  8
YODOROGO
 10
30081.604341291932
 20
2027.749496429288
 30
0.0
 11
30021.604341291921
 21
2027.749496429288
 31
0.0
  0
LINE
  5
6B9C2
  8
YODOROGO
 10
30081.604341291932
 20
1827.7494964292871
 30
0.0
 11
30081.604341291932
 21
2027.749496429288
 31
0.0
  0
LINE
  5
6B9C3
  8
YODOROGO
 10
30021.604341291921
 20
1827.7494964292871
 30
0.0
 11
30081.604341291932
 21
1827.7494964292871
 31
0.0
  0
LINE
  5
6B9C4
  8
YODOROGO
 10
30021.604341291921
 20
2027.749496429288
 30
0.0
 11
30021.604341291921
 21
1827.7494964292871
 31
0.0
  0
LINE
  5
6B9C5
  8
YODOROGO
 10
30161.604341291932
 20
2027.749496429288
 30
0.0
 11
30217.604341291921
 21
2027.749496429288
 31
0.0
  0
LINE
  5
6B9C6
  8
YODOROGO
 10
30161.604341291932
 20
1811.7494964292889
 30
0.0
 11
30161.604341291932
 21
2027.749496429288
 31
0.0
  0
ARC
  5
6B9C7
  8
YODOROGO
 10
30121.604341291932
 20
1811.7494964292889
 30
0.0
 40
40.0
 50
270.0
 51
0.0
  0
LINE
  5
6B9C8
  8
YODOROGO
 10
30021.604341291921
 20
1771.749496429288
 30
0.0
 11
30121.604341291932
 21
1771.749496429288
 31
0.0
  0
LINE
  5
6B9C9
  8
YODOROGO
 10
30021.604341291921
 20
1707.749496429288
 30
0.0
 11
30021.604341291921
 21
1771.749496429288
 31
0.0
  0
LINE
  5
6B9CA
  8
YODOROGO
 10
30137.604341291921
 20
1707.749496429288
 30
0.0
 11
30021.604341291921
 21
1707.749496429288
 31
0.0
  0
ARC
  5
6B9CB
  8
YODOROGO
 10
30137.604341291921
 20
1787.749496429288
 30
0.0
 40
80.0
 50
270.0
 51
0.0
  0
LINE
  5
6B9CC
  8
YODOROGO
 10
30217.604341291921
 20
2027.749496429288
 30
0.0
 11
30217.604341291921
 21
1787.749496429288
 31
0.0
  0
LINE
  5
6B9CD
  8
YODOROGO
 10
29977.604341291921
 20
1947.749496429288
 30
0.0
 11
29977.604341291921
 21
1995.7494964292871
 31
0.0
1001
AUTOCAD_POSTSCRIPT_FIGURE
1002
{
1000
PSFILL
1000
Grayscale
1000
Grayscale
1070
    25
1002
}
  0
LINE
  5
6B9CE
  8
YODOROGO
 10
29977.604341291921
 20
1859.749496429288
 30
0.0
 11
29977.604341291921
 21
1907.7494964292871
 31
0.0
1001
AUTOCAD_POSTSCRIPT_FIGURE
1002
{
1000
PSFILL
1000
Grayscale
1000
Grayscale
1070
    25
1002
}
  0
LINE
  5
6B9CF
  8
YODOROGO
 10
29977.604341291921
 20
1707.749496429288
 30
0.0
 11
29977.604341291921
 21
1819.749496429288
 31
0.0
1001
AUTOCAD_POSTSCRIPT_FIGURE
1002
{
1000
PSFILL
1000
Grayscale
1000
Grayscale
1070
    25
1002
}
  0
LINE
  5
6B9D0
  8
YODOROGO
 10
30381.604341291932
 20
1907.7494964292871
 30
0.0
 11
30497.604341291921
 21
2027.749496429288
 31
0.0
  0
LINE
  5
6B9D1
  8
YODOROGO
 10
30381.604341291932
 20
1819.749496429288
 30
0.0
 11
30381.604341291932
 21
1907.7494964292871
 31
0.0
  0
LINE
  5
6B9D2
  8
YODOROGO
 10
30497.604341291921
 20
1939.749496429288
 30
0.0
 11
30381.604341291932
 21
1819.749496429288
 31
0.0
  0
LINE
  5
6B9D3
  8
YODOROGO
 10
30465.604341291921
 20
1679.749496429288
 30
0.0
 11
30465.604341291921
 21
1735.7494964292871
 31
0.0
  0
LINE
  5
6B9D4
  8
YODOROGO
 10
30381.604341291932
 20
1679.749496429288
 30
0.0
 11
30465.604341291921
 21
1679.749496429288
 31
0.0
  0
LINE
  5
6B9D5
  8
YODOROGO
 10
30529.604341291932
 20
1735.7494964292871
 30
0.0
 11
30529.604341291932
 21
1679.749496429288
 31
0.0
  0
LINE
  5
6B9D6
  8
YODOROGO
 10
30381.604341291932
 20
1735.7494964292871
 30
0.0
 11
30381.604341291932
 21
1795.7494964292871
 31
0.0
  0
LINE
  5
6B9D7
  8
YODOROGO
 10
30465.604341291921
 20
1735.7494964292871
 30
0.0
 11
30381.604341291932
 21
1735.7494964292871
 31
0.0
  0
LINE
  5
6B9D8
  8
YODOROGO
 10
30645.604341291921
 20
2027.749496429288
 30
0.0
 11
30973.604341291921
 21
2027.749496429288
 31
0.0
  0
LINE
  5
6B9D9
  8
YODOROGO
 10
30925.604341291921
 20
1963.7494964292871
 30
0.0
 11
30697.604341291932
 21
1963.7494964292871
 31
0.0
  0
LINE
  5
6B9DA
  8
YODOROGO
 10
30873.604341291921
 20
1819.749496429288
 30
0.0
 11
30899.604341291932
 21
1819.749496429288
 31
0.0
  0
LINE
  5
6B9DB
  8
YODOROGO
 10
30899.604341291932
 20
1939.749496429288
 30
0.0
 11
30873.604341291921
 21
1819.749496429288
 31
0.0
  0
LINE
  5
6B9DC
  8
YODOROGO
 10
30851.604341291932
 20
1939.749496429288
 30
0.0
 11
30899.604341291932
 21
1939.749496429288
 31
0.0
  0
LINE
  5
6B9DD
  8
YODOROGO
 10
30825.604341291921
 20
1819.749496429288
 30
0.0
 11
30851.604341291932
 21
1939.749496429288
 31
0.0
  0
LINE
  5
6B9DE
  8
YODOROGO
 10
30797.604341291921
 20
1819.749496429288
 30
0.0
 11
30825.604341291921
 21
1819.749496429288
 31
0.0
  0
LINE
  5
6B9DF
  8
YODOROGO
 10
30771.604341291932
 20
1939.749496429288
 30
0.0
 11
30797.604341291921
 21
1819.749496429288
 31
0.0
  0
LINE
  5
6B9E0
  8
YODOROGO
 10
30723.604341291921
 20
1939.749496429288
 30
0.0
 11
30771.604341291932
 21
1939.749496429288
 31
0.0
  0
LINE
  5
6B9E1
  8
YODOROGO
 10
30749.604341291921
 20
1819.749496429288
 30
0.0
 11
30723.604341291921
 21
1939.749496429288
 31
0.0
  0
LINE
  5
6B9E2
  8
YODOROGO
 10
30723.604341291921
 20
1819.749496429288
 30
0.0
 11
30749.604341291921
 21
1819.749496429288
 31
0.0
  0
LINE
  5
6B9E3
  8
YODOROGO
 10
30723.604341291921
 20
1755.7494964292871
 30
0.0
 11
30723.604341291921
 21
1819.749496429288
 31
0.0
  0
LINE
  5
6B9E4
  8
YODOROGO
 10
30899.604341291932
 20
1755.7494964292871
 30
0.0
 11
30723.604341291921
 21
1755.7494964292871
 31
0.0
  0
LINE
  5
6B9E5
  8
YODOROGO
 10
30899.604341291932
 20
1819.749496429288
 30
0.0
 11
30899.604341291932
 21
1755.7494964292871
 31
0.0
  0
LINE
  5
6B9E6
  8
YODOROGO
 10
30617.604341291921
 20
1947.749496429288
 30
0.0
 11
30617.604341291921
 21
1859.749496429288
 31
0.0
  0
LINE
  5
6B9E7
  8
YODOROGO
 10
30791.604341291921
 20
1755.7494964292871
 30
0.0
 11
30831.604341291921
 21
1755.7494964292871
 31
0.0
  0
LINE
  5
6B9E8
  8
YODOROGO
 10
30723.604341291921
 20
1691.7494964292889
 30
0.0
 11
30763.604341291921
 21
1691.7494964292889
 31
0.0
  0
LINE
  5
6B9E9
  8
YODOROGO
 10
30859.604341291932
 20
1691.7494964292889
 30
0.0
 11
30899.604341291932
 21
1691.7494964292889
 31
0.0
  0
LINE
  5
6B9EA
  8
YODOROGO
 10
30617.604341291921
 20
1795.7494964292871
 30
0.0
 11
30617.604341291921
 21
1735.7494964292871
 31
0.0
  0
LINE
  5
6B9EB
  8
YODOROGO
 10
31165.604341291921
 20
2027.749496429288
 30
0.0
 11
31165.604341291921
 21
1963.7494964292871
 31
0.0
  0
LINE
  5
6B9EC
  8
YODOROGO
 10
31533.604341291921
 20
1595.7494964292871
 30
0.0
 11
31533.60434129191
 21
1811.7494964292889
 31
0.0
  0
LINE
  5
6B9ED
  8
YODOROGO
 10
31461.60434129191
 20
1987.749496429288
 30
0.0
 11
31461.60434129191
 21
1635.7494964292871
 31
0.0
  0
LINE
  5
6B9EE
  8
YODOROGO
 10
31653.604341291921
 20
1427.749496429288
 30
0.0
 11
31653.60434129191
 21
1811.7494964292889
 31
0.0
  0
LINE
  5
6B9EF
  8
YODOROGO
 10
31589.604341291921
 20
1811.7494964292889
 30
0.0
 11
31589.604341291921
 21
1427.749496429288
 31
0.0
  0
LINE
  5
6B9F0
  8
YODOROGO
 10
31237.604341291921
 20
1595.7494964292871
 30
0.0
 11
31237.604341291921
 21
1707.749496429288
 31
0.0
  0
ARC
  5
6B9F1
  8
YODOROGO
 10
31353.914865116069
 20
1607.790351288558
 30
0.0
 40
180.09244857598861
 50
268.62849102169793
 51
356.16638457330322
  0
LINE
  5
6B9F2
  8
YODOROGO
 10
31349.604341291932
 20
1527.749496429288
 30
0.0
 11
31349.604341291932
 21
1427.749496429288
 31
0.0
  0
ARC
  5
6B9F3
  8
YODOROGO
 10
31351.518075724562
 20
1637.838957017655
 30
0.0
 40
110.1060929836122
 50
269.00410209305937
 51
358.91264455492478
  0
LINE
  5
6B9F4
  8
YODOROGO
 10
31589.604341291921
 20
1427.749496429288
 30
0.0
 11
31653.604341291921
 21
1427.749496429288
 31
0.0
  0
LINE
  5
6B9F5
  8
YODOROGO
 10
31533.60434129191
 20
1811.7494964292889
 30
0.0
 11
31589.604341291921
 21
1811.7494964292889
 31
0.0
  0
LINE
  5
6B9F6
  8
YODOROGO
 10
31621.604341291932
 20
1987.749496429288
 30
0.0
 11
31461.60434129191
 21
1987.749496429288
 31
0.0
  0
LINE
  5
6B9F7
  8
YODOROGO
 10
31533.60434129191
 20
1915.7494964292871
 30
0.0
 11
31661.604341291932
 21
1915.7494964292871
 31
0.0
  0
LINE
  5
6B9F8
  8
YODOROGO
 10
31701.604341291932
 20
1875.7494964292871
 30
0.0
 11
31533.60434129191
 21
1875.7494964292871
 31
0.0
  0
LINE
  5
6B9F9
  8
YODOROGO
 10
31237.604341291921
 20
1779.749496429288
 30
0.0
 11
31349.604341291932
 21
1779.749496429288
 31
0.0
  0
LINE
  5
6B9FA
  8
YODOROGO
 10
31237.604341291921
 20
1835.7494964292871
 30
0.0
 11
31237.604341291921
 21
1779.749496429288
 31
0.0
  0
LINE
  5
6B9FB
  8
YODOROGO
 10
31349.604341291932
 20
1835.7494964292871
 30
0.0
 11
31237.604341291921
 21
1835.7494964292871
 31
0.0
  0
LINE
  5
6B9FC
  8
YODOROGO
 10
31349.604341291932
 20
1779.749496429288
 30
0.0
 11
31349.604341291932
 21
1835.7494964292871
 31
0.0
  0
LINE
  5
6B9FD
  8
YODOROGO
 10
31533.60434129191
 20
1875.7494964292871
 30
0.0
 11
31533.60434129191
 21
1915.7494964292871
 31
0.0
  0
LINE
  5
6B9FE
  8
YODOROGO
 10
31413.604341291921
 20
1707.749496429288
 30
0.0
 11
31413.604341291921
 21
1907.7494964292871
 31
0.0
  0
LINE
  5
6B9FF
  8
YODOROGO
 10
31237.604341291921
 20
1707.749496429288
 30
0.0
 11
31413.604341291921
 21
1707.749496429288
 31
0.0
  0
LINE
  5
6BA00
  8
YODOROGO
 10
31413.604341291921
 20
1963.7494964292871
 30
0.0
 11
31413.604341291921
 21
2027.749496429288
 31
0.0
  0
ARC
  5
6BA01
  8
YODOROGO
 10
31621.604341291932
 20
2003.749496429285
 30
0.0
 40
15.999999999994539
 50
270.0
 51
0.0000000000081422
  0
LINE
  5
6BA02
  8
YODOROGO
 10
31637.604341291921
 20
2027.749496429288
 30
0.0
 11
31637.604341291921
 21
2003.7494964292871
 31
0.0
  0
LINE
  5
6BA03
  8
YODOROGO
 10
31701.604341291932
 20
2027.749496429288
 30
0.0
 11
31637.604341291921
 21
2027.749496429288
 31
0.0
  0
LINE
  5
6BA04
  8
YODOROGO
 10
31701.604341291932
 20
1955.7494964292871
 30
0.0
 11
31701.604341291932
 21
2027.749496429288
 31
0.0
  0
ARC
  5
6BA05
  8
YODOROGO
 10
31661.604341291932
 20
1955.7494964292871
 30
0.0
 40
40.0
 50
270.0
 51
0.0
  0
LINE
  5
6BA06
  8
YODOROGO
 10
31701.604341291932
 20
1811.7494964292889
 30
0.0
 11
31701.604341291932
 21
1875.7494964292871
 31
0.0
  0
LINE
  5
6BA07
  8
YODOROGO
 10
31653.60434129191
 20
1811.7494964292889
 30
0.0
 11
31701.604341291932
 21
1811.7494964292889
 31
0.0
  0
LINE
  5
6BA08
  8
SUNPOU
 10
6546.2192562177079
 20
3679.0610773730368
 30
0.0
 11
5961.2192562177079
 21
3679.0610773730368
 31
0.0
  0
LINE
  5
6BA09
  8
SUNPOU
 10
6041.2192562177079
 20
3719.0610773730368
 30
0.0
 11
6041.2192562177079
 21
3759.0610773730368
 31
0.0
  0
LINE
  5
6BA0A
  8
SUNPOU
 10
6041.2192562177079
 20
3464.6610656976918
 30
0.0
 11
6041.2192562177079
 21
2939.581700618327
 31
0.0
  0
LINE
  5
6BA0B
  8
SUNPOU
 10
6041.2192562177079
 20
3679.0610773730368
 30
0.0
 11
6041.2192562177079
 21
3504.6610656976918
 31
0.0
  0
LINE
  5
6BA0F
  8
SUNPOU
 10
6546.2192562177079
 20
3679.0610773730368
 30
0.0
 11
5961.2192562177079
 21
3679.0610773730368
 31
0.0
  0
LINE
  5
6BA10
  8
SUNPOU
 10
6546.2192562177079
 20
3947.0610773730368
 30
0.0
 11
5961.2192562177079
 21
3947.0610773730368
 31
0.0
  0
LINE
  5
6BA11
  8
SUNPOU
 10
6041.2192562177079
 20
3719.0610773730368
 30
0.0
 11
6041.2192562177079
 21
3907.0610773730368
 31
0.0
  0
LINE
  5
6BA12
  8
SUNPOU
 10
6041.2192562177079
 20
3947.0610773730368
 30
0.0
 11
6041.2192562177079
 21
4314.6801249920854
 31
0.0
  0
LINE
  5
6BA16
  8
SUNPOU
 10
6626.2192562177079
 20
4027.0610773730359
 30
0.0
 11
6626.2192562177079
 21
4572.7886712148684
 31
0.0
  0
LINE
  5
6BA17
  8
SUNPOU
 10
7026.219256217707
 20
4027.0610773730359
 30
0.0
 11
7026.219256217707
 21
4572.7886712148684
 31
0.0
  0
LINE
  5
6BA18
  8
SUNPOU
 10
6666.2192562177079
 20
4492.7886712148684
 30
0.0
 11
6986.2192562177079
 21
4492.7886712148684
 31
0.0
  0
LINE
  5
6BA1C
  8
SUNPOU
 10
7306.219256217707
 20
3891.0610656976792
 30
0.0
 11
7691.2192562177079
 21
3891.0610656976792
 31
0.0
  0
LINE
  5
6BA1D
  8
SUNPOU
 10
7611.2192562177079
 20
3544.6610656976918
 30
0.0
 11
7611.2192562177079
 21
3851.0610656976792
 31
0.0
  0
LINE
  5
6BA21
  8
SUNPOU
 10
29922.737364424349
 20
11570.74307247373
 30
0.0
 11
30763.515668062912
 21
11570.74307247373
 31
0.0
  0
LINE
  5
6BA22
  8
SUNPOU
 10
29922.737364424349
 20
11170.74307247373
 30
0.0
 11
30763.515668062912
 21
11170.74307247373
 31
0.0
  0
LINE
  5
6BA23
  8
SUNPOU
 10
30683.515668062912
 20
11530.74307247373
 30
0.0
 11
30683.515668062912
 21
11210.74307247373
 31
0.0
  0
LINE
  5
6BA27
  8
SUNPOU
 10
29922.737364424349
 20
11770.74307247373
 30
0.0
 11
30763.515668062901
 21
11770.74307247373
 31
0.0
  0
LINE
  5
6BA28
  8
SUNPOU
 10
29922.737364424349
 20
11570.74307247373
 30
0.0
 11
30763.515668062901
 21
11570.74307247373
 31
0.0
  0
LINE
  5
6BA29
  8
SUNPOU
 10
30683.515668062901
 20
11810.74307247373
 30
0.0
 11
30683.515668062901
 21
11850.74307247373
 31
0.0
  0
LINE
  5
6BA2A
  8
SUNPOU
 10
30683.515668062901
 20
11530.74307247373
 30
0.0
 11
30683.515668062901
 21
11490.74307247373
 31
0.0
  0
LINE
  5
6BA2C
  8
SUNPOU
 10
30683.515668062901
 20
11770.74307247373
 30
0.0
 11
30683.515668062901
 21
11570.74307247373
 31
0.0
  0
LINE
  5
6BA2F
  8
SUNPOU
 10
30487.737364424331
 20
13770.74307247373
 30
0.0
 11
30763.515668062901
 21
13770.74307247373
 31
0.0
  0
LINE
  5
6BA30
  8
SUNPOU
 10
29922.737364424349
 20
11770.74307247373
 30
0.0
 11
30763.515668062901
 21
11770.74307247373
 31
0.0
  0
LINE
  5
6BA31
  8
SUNPOU
 10
30683.515668062901
 20
13730.74307247373
 30
0.0
 11
30683.515668062901
 21
11810.74307247373
 31
0.0
  0
LINE
  5
6BA35
  8
SUNPOU
 10
29842.737364424349
 20
11090.74307247373
 30
0.0
 11
29842.737364424349
 21
10119.953832662721
 31
0.0
  0
LINE
  5
6BA36
  8
SUNPOU
 10
25442.737364424349
 20
11090.74307247373
 30
0.0
 11
25442.737364424349
 21
10119.953832662721
 31
0.0
  0
LINE
  5
6BA37
  8
SUNPOU
 10
29802.737364424349
 20
10199.953832662721
 30
0.0
 11
25482.737364424349
 21
10199.953832662721
 31
0.0
  0
LINE
  5
6BA3B
  8
SUNPOU
 10
25642.737364424349
 20
11690.74307247373
 30
0.0
 11
25642.737364424349
 21
10483.09172259114
 31
0.0
  0
LINE
  5
6BA3C
  8
SUNPOU
 10
29642.737364424349
 20
11690.74307247373
 30
0.0
 11
29642.737364424349
 21
10483.09172259114
 31
0.0
  0
LINE
  5
6BA3D
  8
SUNPOU
 10
25682.737364424349
 20
10563.09172259114
 30
0.0
 11
29602.737364424349
 21
10563.09172259114
 31
0.0
  0
LINE
  5
6BA41
  8
SUNPOU
 10
3847.3919100666249
 20
18072.0809242219
 30
0.0
 11
3197.3919100666249
 21
18072.0809242219
 31
0.0
  0
LINE
  5
6BA42
  8
SUNPOU
 10
3847.3919100666249
 20
15447.080924221889
 30
0.0
 11
3197.391910066624
 21
15447.080924221889
 31
0.0
  0
LINE
  5
6BA43
  8
SUNPOU
 10
3277.3919100666249
 20
18032.0809242219
 30
0.0
 11
3277.3919100666249
 21
15487.080924221889
 31
0.0
  0
TEXT
  5
6BA47
  8
SUNPOU
 10
6566.9557375806626
 20
15297.28147724289
 30
0.0
 40
160.0
  1
7937
 50
45.0
 41
0.6666666666666666
  7
00
  0
LINE
  5
6BA48
  8
SUNPOU
 10
3847.3919100666249
 20
15322.080924221889
 30
0.0
 11
3197.3919100666249
 21
15322.080924221889
 31
0.0
  0
LINE
  5
6BA49
  8
SUNPOU
 10
3847.3919100666249
 20
12697.080924221889
 30
0.0
 11
3197.391910066624
 21
12697.080924221889
 31
0.0
  0
LINE
  5
6BA4A
  8
SUNPOU
 10
3277.3919100666249
 20
15282.080924221889
 30
0.0
 11
3277.3919100666249
 21
12737.080924221889
 31
0.0
  0
LINE
  5
6BA4E
  8
SUNPOU
 10
3847.3919100666249
 20
12572.0809242219
 30
0.0
 11
3197.391910066624
 21
12572.0809242219
 31
0.0
  0
LINE
  5
6BA4F
  8
SUNPOU
 10
3847.3919100666249
 20
12697.080924221889
 30
0.0
 11
3197.391910066624
 21
12697.080924221889
 31
0.0
  0
LINE
  5
6BA50
  8
SUNPOU
 10
3277.3919100666249
 20
12532.0809242219
 30
0.0
 11
3277.3919100666249
 21
12492.080924221889
 31
0.0
  0
LINE
  5
6BA51
  8
SUNPOU
 10
3277.3919100666249
 20
12737.080924221889
 30
0.0
 11
3277.3919100666249
 21
13196.128543269509
 31
0.0
  0
LINE
  5
6BA52
  8
SUNPOU
 10
3277.3919100666249
 20
12572.0809242219
 30
0.0
 11
3277.3919100666249
 21
12697.080924221889
 31
0.0
  0
LINE
  5
6BA56
  8
SUNPOU
 10
3847.3919100666249
 20
12572.0809242219
 30
0.0
 11
3197.391910066624
 21
12572.0809242219
 31
0.0
  0
LINE
  5
6BA57
  8
SUNPOU
 10
3767.3919100666249
 20
12514.580924221889
 30
0.0
 11
3197.391910066624
 21
12514.580924221889
 31
0.0
  0
LINE
  5
6BA58
  8
SUNPOU
 10
3277.3919100666249
 20
12612.0809242219
 30
0.0
 11
3277.3919100666249
 21
12652.0809242219
 31
0.0
  0
LINE
  5
6BA59
  8
SUNPOU
 10
3277.3919100666249
 20
12474.580924221889
 30
0.0
 11
3277.3919100666249
 21
11949.501559142531
 31
0.0
  0
LINE
  5
6BA5A
  8
SUNPOU
 10
3277.3919100666249
 20
12572.0809242219
 30
0.0
 11
3277.3919100666249
 21
12514.580924221889
 31
0.0
  0
LINE
  5
6BA5E
  8
SUNPOU
 10
3847.3919100666249
 20
15322.080924221889
 30
0.0
 11
3197.391910066624
 21
15322.080924221889
 31
0.0
  0
LINE
  5
6BA5F
  8
SUNPOU
 10
3847.3919100666249
 20
15447.080924221889
 30
0.0
 11
3197.391910066624
 21
15447.080924221889
 31
0.0
  0
LINE
  5
6BA60
  8
SUNPOU
 10
3277.391910066624
 20
15282.080924221889
 30
0.0
 11
3277.391910066624
 21
15242.080924221889
 31
0.0
  0
LINE
  5
6BA61
  8
SUNPOU
 10
3277.3919100666249
 20
15487.080924221889
 30
0.0
 11
3277.3919100666249
 21
15946.128543269509
 31
0.0
  0
LINE
  5
6BA62
  8
SUNPOU
 10
3277.391910066624
 20
15322.080924221889
 30
0.0
 11
3277.3919100666249
 21
15447.080924221889
 31
0.0
  0
TEXT
  5
6BA66
  8
SUNPOU
 10
5233.0000000340706
 20
15208.156159540849
 30
0.0
 40
160.0
  1
6256
 50
63.0
 41
0.6666666666666666
  7
00
  0
LINE
  5
6BA67
  8
SUNPOU
 10
9567.3919100666226
 20
12452.080924221889
 30
0.0
 11
9567.3919100666226
 21
11894.5809242219
 31
0.0
  0
LINE
  5
6BA68
  8
SUNPOU
 10
9507.3919100666244
 20
12434.580924221889
 30
0.0
 11
9507.3919100666244
 21
11894.5809242219
 31
0.0
  0
LINE
  5
6BA69
  8
SUNPOU
 10
9607.3919100666244
 20
11974.5809242219
 30
0.0
 11
9647.3919100666244
 21
11974.5809242219
 31
0.0
  0
LINE
  5
6BA6A
  8
SUNPOU
 10
9467.3919100666226
 20
11974.5809242219
 30
0.0
 11
9099.7728624475767
 21
11974.5809242219
 31
0.0
  0
LINE
  5
6BA6B
  8
SUNPOU
 10
9567.3919100666226
 20
11974.5809242219
 30
0.0
 11
9507.3919100666244
 21
11974.5809242219
 31
0.0
  0
LINE
  5
6BA6F
  8
SUNPOU
 10
9567.3919100666226
 20
12452.080924221889
 30
0.0
 11
9567.3919100666226
 21
11894.5809242219
 31
0.0
  0
LINE
  5
6BA70
  8
SUNPOU
 10
9687.3919100666171
 20
12434.580924221889
 30
0.0
 11
9687.3919100666171
 21
11894.5809242219
 31
0.0
  0
LINE
  5
6BA71
  8
SUNPOU
 10
9527.3919100666244
 20
11974.5809242219
 30
0.0
 11
9487.3919100666244
 21
11974.5809242219
 31
0.0
  0
LINE
  5
6BA72
  8
SUNPOU
 10
9727.3919100666171
 20
11974.5809242219
 30
0.0
 11
10186.43952911423
 21
11974.5809242219
 31
0.0
  0
LINE
  5
6BA73
  8
SUNPOU
 10
9567.3919100666226
 20
11974.5809242219
 30
0.0
 11
9687.3919100666171
 21
11974.5809242219
 31
0.0
  0
LINE
  5
6BA77
  8
SUNPOU
 10
6704.8919100666244
 20
18254.580924221889
 30
0.0
 11
6704.8919100666244
 21
18904.580924221889
 31
0.0
  0
LINE
  5
6BA78
  8
SUNPOU
 10
6829.8919100666244
 20
18254.580924221889
 30
0.0
 11
6829.8919100666244
 21
18904.580924221889
 31
0.0
  0
LINE
  5
6BA79
  8
SUNPOU
 10
6664.8919100666253
 20
18824.580924221889
 30
0.0
 11
6624.8919100666244
 21
18824.580924221889
 31
0.0
  0
LINE
  5
6BA7A
  8
SUNPOU
 10
6869.8919100666244
 20
18824.580924221889
 30
0.0
 11
7328.9395291142437
 21
18824.580924221889
 31
0.0
  0
LINE
  5
6BA7B
  8
SUNPOU
 10
6704.8919100666244
 20
18824.580924221889
 30
0.0
 11
6829.8919100666244
 21
18824.580924221889
 31
0.0
  0
LINE
  5
6BA7F
  8
SUNPOU
 10
3967.391910066618
 20
18317.080924221878
 30
0.0
 11
3967.391910066618
 21
18904.580924221889
 31
0.0
  0
LINE
  5
6BA80
  8
SUNPOU
 10
6704.8919100666244
 20
18254.580924221889
 30
0.0
 11
6704.8919100666244
 21
18904.580924221889
 31
0.0
  0
LINE
  5
6BA81
  8
SUNPOU
 10
4007.3919100666171
 20
18824.580924221889
 30
0.0
 11
6664.8919100666253
 21
18824.580924221889
 31
0.0
  0
LINE
  5
6BA85
  8
SUNPOU
 10
3967.3919100666249
 20
18317.080924221889
 30
0.0
 11
3967.3919100666249
 21
18904.580924221889
 31
0.0
  0
LINE
  5
6BA86
  8
SUNPOU
 10
3847.3919100666249
 20
18334.580924221889
 30
0.0
 11
3847.3919100666249
 21
18904.580924221889
 31
0.0
  0
LINE
  5
6BA87
  8
SUNPOU
 10
4007.391910066624
 20
18824.580924221889
 30
0.0
 11
4047.391910066624
 21
18824.580924221889
 31
0.0
  0
LINE
  5
6BA88
  8
SUNPOU
 10
3807.3919100666249
 20
18824.580924221889
 30
0.0
 11
3348.3442910190051
 21
18824.580924221889
 31
0.0
  0
LINE
  5
6BA89
  8
SUNPOU
 10
3967.3919100666249
 20
18824.580924221889
 30
0.0
 11
3847.3919100666249
 21
18824.580924221889
 31
0.0
  0
LINE
  5
6BA8D
  8
SUNPOU
 10
3847.3919100666249
 20
18197.0809242219
 30
0.0
 11
3197.391910066624
 21
18197.0809242219
 31
0.0
  0
LINE
  5
6BA8E
  8
SUNPOU
 10
3767.3919100666249
 20
18254.580924221889
 30
0.0
 11
3197.391910066624
 21
18254.580924221889
 31
0.0
  0
LINE
  5
6BA8F
  8
SUNPOU
 10
3277.3919100666249
 20
18157.080924221889
 30
0.0
 11
3277.3919100666249
 21
18117.0809242219
 31
0.0
  0
LINE
  5
6BA90
  8
SUNPOU
 10
3277.3919100666249
 20
18294.580924221889
 30
0.0
 11
3277.3919100666249
 21
18819.66028930125
 31
0.0
  0
LINE
  5
6BA91
  8
SUNPOU
 10
3277.3919100666249
 20
18197.0809242219
 30
0.0
 11
3277.3919100666249
 21
18254.580924221889
 31
0.0
  0
LINE
  5
6BA95
  8
SUNPOU
 10
3847.3919100666249
 20
18197.0809242219
 30
0.0
 11
3197.391910066624
 21
18197.0809242219
 31
0.0
  0
LINE
  5
6BA96
  8
SUNPOU
 10
3847.3919100666249
 20
18072.0809242219
 30
0.0
 11
3197.391910066624
 21
18072.0809242219
 31
0.0
  0
LINE
  5
6BA97
  8
SUNPOU
 10
3277.3919100666249
 20
18237.080924221889
 30
0.0
 11
3277.3919100666249
 21
18277.0809242219
 31
0.0
  0
LINE
  5
6BA98
  8
SUNPOU
 10
3277.3919100666249
 20
18032.0809242219
 30
0.0
 11
3277.3919100666249
 21
17573.033305174278
 31
0.0
  0
LINE
  5
6BA99
  8
SUNPOU
 10
3277.3919100666249
 20
18197.0809242219
 30
0.0
 11
3277.3919100666249
 21
18072.0809242219
 31
0.0
  0
LINE
  5
6BA9D
  8
SUNPOU
 10
6829.8919100666244
 20
18254.580924221889
 30
0.0
 11
6829.8919100666244
 21
18904.580924221889
 31
0.0
  0
LINE
  5
6BA9E
  8
SUNPOU
 10
9567.3919100666153
 20
18317.080924221878
 30
0.0
 11
9567.3919100666153
 21
18904.580924221889
 31
0.0
  0
LINE
  5
6BA9F
  8
SUNPOU
 10
6869.8919100666244
 20
18824.580924221889
 30
0.0
 11
9527.3919100666171
 21
18824.580924221889
 31
0.0
  0
LINE
  5
6BAA3
  8
SUNPOU
 10
9567.3919100666226
 20
18317.080924221889
 30
0.0
 11
9567.3919100666226
 21
18904.580924221889
 31
0.0
  0
LINE
  5
6BAA4
  8
SUNPOU
 10
9687.3919100666244
 20
18334.580924221889
 30
0.0
 11
9687.3919100666244
 21
18904.580924221889
 31
0.0
  0
LINE
  5
6BAA5
  8
SUNPOU
 10
9527.3919100666244
 20
18824.580924221889
 30
0.0
 11
9487.3919100666244
 21
18824.580924221889
 31
0.0
  0
LINE
  5
6BAA6
  8
SUNPOU
 10
9727.3919100666244
 20
18824.580924221889
 30
0.0
 11
10186.439529114239
 21
18824.580924221889
 31
0.0
  0
LINE
  5
6BAA7
  8
SUNPOU
 10
9567.3919100666226
 20
18824.580924221889
 30
0.0
 11
9687.3919100666244
 21
18824.580924221889
 31
0.0
  0
ARC
  5
6BAAB
  8
SUNPOU
 10
6767.3919100666244
 20
11574.580924221889
 30
0.0
 40
15.0
 50
0.0
 51
180.0
  0
ARC
  5
6BAAC
  8
SUNPOU
 10
6767.3919100666244
 20
11574.580924221889
 30
0.0
 40
15.0
 50
180.0
 51
0.0
  0
LINE
  5
6BAAE
  8
SUNPOU
 10
6737.3919100666244
 20
11574.580924221889
 30
0.0
 11
6707.3919100666253
 21
11574.580924221889
 31
0.0
  0
LINE
  5
6BAB0
  8
SUNPOU
 10
3997.3919100666249
 20
6179.4959334949972
 30
0.0
 11
4027.3919100666249
 21
6179.4959334949972
 31
0.0
  0
LINE
  5
6BAB2
  8
SUNPOU
 10
3997.3919100666249
 20
11574.580924221889
 30
0.0
 11
4027.3919100666249
 21
11574.580924221889
 31
0.0
  0
ARC
  5
6BAB3
  8
SUNPOU
 10
9345.3919100666244
 20
11574.580924221889
 30
0.0
 40
15.0
 50
180.0
 51
0.0
  0
ARC
  5
6BAB4
  8
SUNPOU
 10
9345.3919100666244
 20
11574.580924221889
 30
0.0
 40
15.0
 50
0.0
 51
180.0
  0
ARC
  5
6BAB5
  8
SUNPOU
 10
9345.3919100666244
 20
11574.580924221889
 30
0.0
 40
15.0
 50
180.0
 51
0.0
  0
ARC
  5
6BAB6
  8
SUNPOU
 10
9345.3919100666244
 20
11574.580924221889
 30
0.0
 40
15.0
 50
0.0
 51
180.0
  0
LINE
  5
6BAB8
  8
SUNPOU
 10
9537.3919100666244
 20
6179.4959334949972
 30
0.0
 11
9507.3919100666244
 21
6179.4959334949972
 31
0.0
  0
ARC
  5
6BAB9
  8
SUNPOU
 10
9567.3919100666226
 20
11574.580924221889
 30
0.0
 40
15.0
 50
0.0
 51
180.0
  0
ARC
  5
6BABA
  8
SUNPOU
 10
9567.3919100666226
 20
11574.580924221889
 30
0.0
 40
15.0
 50
180.0
 51
0.0
  0
LINE
  5
6BABB
  8
SUNPOU
 10
9567.3919100666226
 20
19057.99259874969
 30
0.0
 11
9567.3919100666226
 21
19304.580924221889
 31
0.0
  0
LINE
  5
6BABC
  8
SUNPOU
 10
6767.3919100666244
 20
19062.99259874969
 30
0.0
 11
6767.3919100666244
 21
19304.580924221889
 31
0.0
  0
LINE
  5
6BABD
  8
SUNPOU
 10
9527.3919100666244
 20
19224.580924221889
 30
0.0
 11
6807.3919100666244
 21
19224.580924221889
 31
0.0
  0
LINE
  5
6BAC1
  8
SUNPOU
 10
6767.3919100666244
 20
19062.99259874969
 30
0.0
 11
6767.3919100666244
 21
19304.580924221889
 31
0.0
  0
LINE
  5
6BAC2
  8
SUNPOU
 10
3967.3919100666249
 20
19057.99259874969
 30
0.0
 11
3967.3919100666249
 21
19304.580924221889
 31
0.0
  0
LINE
  5
6BAC3
  8
SUNPOU
 10
6727.3919100666253
 20
19224.580924221889
 30
0.0
 11
4007.391910066624
 21
19224.580924221889
 31
0.0
  0
LINE
  5
6BAC7
  8
SUNPOU
 10
16364.4341538922
 20
12437.74023912564
 30
0.0
 11
16191.14791184651
 21
12437.74023912564
 31
0.0
  0
LINE
  5
6BAC8
  8
SUNPOU
 10
17205.25012399755
 20
13277.74023912562
 30
0.0
 11
16191.14791184651
 21
13277.74023912562
 31
0.0
  0
LINE
  5
6BAC9
  8
SUNPOU
 10
16271.14791184651
 20
12477.74023912564
 30
0.0
 11
16271.14791184651
 21
13237.74023912562
 31
0.0
  0
LINE
  5
6BACD
  8
SUNPOU
 10
16965.249602957028
 20
11117.740239125649
 30
0.0
 11
16191.147911846499
 21
11117.740239125649
 31
0.0
  0
LINE
  5
6BACE
  8
SUNPOU
 10
16364.4341538922
 20
12437.74023912564
 30
0.0
 11
16191.14791184651
 21
12437.74023912564
 31
0.0
  0
LINE
  5
6BACF
  8
SUNPOU
 10
16271.147911846499
 20
11157.740239125649
 30
0.0
 11
16271.14791184651
 21
12397.74023912564
 31
0.0
  0
LINE
  5
6BAD3
  8
SUNPOU
 10
4547.3919100666244
 20
9384.5809242219584
 30
0.0
 11
4979.483831808765
 21
9384.5809242219584
 31
0.0
  0
LINE
  5
6BAD4
  8
SUNPOU
 10
4547.3919100666244
 20
10384.58092422196
 30
0.0
 11
4979.4838318087659
 21
10384.58092422196
 31
0.0
  0
LINE
  5
6BAD5
  8
SUNPOU
 10
4899.483831808765
 20
9424.5809242219584
 30
0.0
 11
4899.483831808765
 21
10344.58092422196
 31
0.0
  0
LINE
  5
6BAD9
  8
SUNPOU
 10
3467.3919100666249
 20
10464.58092422196
 30
0.0
 11
3467.3919100666249
 21
10780.37039790617
 31
0.0
  0
LINE
  5
6BADA
  8
SUNPOU
 10
4467.3919100666244
 20
10464.58092422196
 30
0.0
 11
4467.3919100666244
 21
10780.37039790617
 31
0.0
  0
LINE
  5
6BADB
  8
SUNPOU
 10
3507.3919100666249
 20
10700.37039790617
 30
0.0
 11
4427.3919100666244
 21
10700.37039790617
 31
0.0
  0
LINE
  5
6BADF
  8
SUNPOU
 10
10218.70752761372
 20
9884.5809242219366
 30
0.0
 11
10656.545636438081
 21
9884.5809242219366
 31
0.0
  0
LINE
  5
6BAE0
  8
SUNPOU
 10
9687.3919100666189
 20
12634.58092422188
 30
0.0
 11
10656.54563643809
 21
12634.58092422188
 31
0.0
  0
LINE
  5
6BAE1
  8
SUNPOU
 10
10576.545636438081
 20
9924.5809242219366
 30
0.0
 11
10576.54563643809
 21
12594.58092422188
 31
0.0
  0
LINE
  5
6BAE5
  8
SUNPOU
 10
10218.707527613749
 20
7134.5809242219366
 30
0.0
 11
10656.54563643809
 21
7134.5809242219357
 31
0.0
  0
LINE
  5
6BAE6
  8
SUNPOU
 10
10218.70752761372
 20
9884.5809242219366
 30
0.0
 11
10656.54563643809
 21
9884.5809242219366
 31
0.0
  0
LINE
  5
6BAE7
  8
SUNPOU
 10
10576.54563643809
 20
7174.5809242219348
 30
0.0
 11
10576.54563643809
 21
9844.5809242219366
 31
0.0
  0
LINE
  5
6BAEB
  8
SUNPOU
 10
17205.25012399755
 20
13277.74023912562
 30
0.0
 11
15871.148232486839
 21
13277.74023912562
 31
0.0
  0
LINE
  5
6BAEC
  8
SUNPOU
 10
17659.250097945551
 20
13437.740239125649
 30
0.0
 11
15871.148232486839
 21
13437.740239125649
 31
0.0
  0
LINE
  5
6BAED
  8
SUNPOU
 10
15951.148232486839
 20
13237.74023912562
 30
0.0
 11
15951.148232486839
 21
13197.74023912562
 31
0.0
  0
LINE
  5
6BAEE
  8
SUNPOU
 10
15951.148232486839
 20
13477.740239125649
 30
0.0
 11
15951.148232486839
 21
13517.740239125649
 31
0.0
  0
LINE
  5
6BAEF
  8
SUNPOU
 10
15951.148232486839
 20
13277.74023912562
 30
0.0
 11
15951.148232486839
 21
13437.740239125649
 31
0.0
  0
LINE
  5
6BAF4
  8
SUNPOU
 10
15951.148232486839
 20
13247.74023912562
 30
0.0
 11
15951.148232486839
 21
13217.74023912562
 31
0.0
  0
LINE
  5
6BAF6
  8
SUNPOU
 10
18546.352880248029
 20
13247.74023912562
 30
0.0
 11
18546.352880248029
 21
13217.74023912562
 31
0.0
  0
LINE
  5
6BAF8
  8
SUNPOU
 10
15951.148232486839
 20
11147.74023912564
 30
0.0
 11
15951.148232486839
 21
11177.74023912564
 31
0.0
  0
POLYLINE
  5
6BAF9
  8
SUNPOU
 10
15951.148232486839
 20
10532.740239125647
 30
0.0
 66
     1
 70
     8
  0
VERTEX
  8
SUNPOU
  5
6BD61
 10
15951.1
 20
10532.7
 30
0.000000
  70
    32
  0
VERTEX
  8
SUNPOU
  5
6BD62
 10
15951.5
 20
10532.7
 30
0.000000
  70
    32
  0
VERTEX
  8
SUNPOU
  5
6BD63
 10
15951.9
 20
10532.7
 30
0.000000
  70
    32
  0
VERTEX
  8
SUNPOU
  5
6BD64
 10
15952.3
 20
10532.7
 30
0.000000
  70
    32
  0
VERTEX
  8
SUNPOU
  5
6BD65
 10
15952.6
 20
10532.7
 30
0.000000
  70
    32
  0
VERTEX
  8
SUNPOU
  5
6BD66
 10
15953.0
 20
10532.6
 30
0.000000
  70
    32
  0
VERTEX
  8
SUNPOU
  5
6BD67
 10
15953.3
 20
10532.6
 30
0.000000
  70
    32
  0
VERTEX
  8
SUNPOU
  5
6BD68
 10
15953.7
 20
10532.5
 30
0.000000
  70
    32
  0
VERTEX
  8
SUNPOU
  5
6BD69
 10
15954.1
 20
10532.5
 30
0.000000
  70
    32
  0
VERTEX
  8
SUNPOU
  5
6BD6A
 10
15954.4
 20
10532.4
 30
0.000000
  70
    32
  0
VERTEX
  8
SUNPOU
  5
6BD6B
 10
15954.8
 20
10532.3
 30
0.000000
  70
    32
  0
VERTEX
  8
SUNPOU
  5
6BD6C
 10
15955.1
 20
10532.2
 30
0.000000
  70
    32
  0
VERTEX
  8
SUNPOU
  5
6BD6D
 10
15955.5
 20
10532.1
 30
0.000000
  70
    32
  0
VERTEX
  8
SUNPOU
  5
6BD6E
 10
15955.9
 20
10532.0
 30
0.000000
  70
    32
  0
VERTEX
  8
SUNPOU
  5
6BD6F
 10
15956.2
 20
10531.9
 30
0.000000
  70
    32
  0
VERTEX
  8
SUNPOU
  5
6BD70
 10
15956.5
 20
10531.7
 30
0.000000
  70
    32
  0
VERTEX
  8
SUNPOU
  5
6BD71
 10
15956.9
 20
10531.6
 30
0.000000
  70
    32
  0
VERTEX
  8
SUNPOU
  5
6BD72
 10
15957.2
 20
10531.5
 30
0.000000
  70
    32
  0
VERTEX
  8
SUNPOU
  5
6BD73
 10
15957.6
 20
10531.3
 30
0.000000
  70
    32
  0
VERTEX
  8
SUNPOU
  5
6BD74
 10
15957.9
 20
10531.1
 30
0.000000
  70
    32
  0
VERTEX
  8
SUNPOU
  5
6BD75
 10
15958.2
 20
10531.0
 30
0.000000
  70
    32
  0
VERTEX
  8
SUNPOU
  5
6BD76
 10
15958.5
 20
10530.8
 30
0.000000
  70
    32
  0
VERTEX
  8
SUNPOU
  5
6BD77
 10
15958.9
 20
10530.6
 30
0.000000
  70
    32
  0
VERTEX
  8
SUNPOU
  5
6BD78
 10
15959.2
 20
10530.4
 30
0.000000
  70
    32
  0
VERTEX
  8
SUNPOU
  5
6BD79
 10
15959.5
 20
10530.2
 30
0.000000
  70
    32
  0
VERTEX
  8
SUNPOU
  5
6BD7A
 10
15959.8
 20
10530.0
 30
0.000000
  70
    32
  0
VERTEX
  8
SUNPOU
  5
6BD7B
 10
15960.1
 20
10529.8
 30
0.000000
  70
    32
  0
VERTEX
  8
SUNPOU
  5
6BD7C
 10
15960.4
 20
10529.6
 30
0.000000
  70
    32
  0
VERTEX
  8
SUNPOU
  5
6BD7D
 10
15960.7
 20
10529.3
 30
0.000000
  70
    32
  0
VERTEX
  8
SUNPOU
  5
6BD7E
 10
15960.9
 20
10529.1
 30
0.000000
  70
    32
  0
VERTEX
  8
SUNPOU
  5
6BD7F
 10
15961.2
 20
10528.9
 30
0.000000
  70
    32
  0
VERTEX
  8
SUNPOU
  5
6BD80
 10
15961.5
 20
10528.6
 30
0.000000
  70
    32
  0
VERTEX
  8
SUNPOU
  5
6BD81
 10
15961.8
 20
10528.3
 30
0.000000
  70
    32
  0
VERTEX
  8
SUNPOU
  5
6BD82
 10
15962.0
 20
10528.1
 30
0.000000
  70
    32
  0
VERTEX
  8
SUNPOU
  5
6BD83
 10
15962.3
 20
10527.8
 30
0.000000
  70
    32
  0
VERTEX
  8
SUNPOU
  5
6BD84
 10
15962.5
 20
10527.5
 30
0.000000
  70
    32
  0
VERTEX
  8
SUNPOU
  5
6BD85
 10
15962.7
 20
10527.3
 30
0.000000
  70
    32
  0
VERTEX
  8
SUNPOU
  5
6BD86
 10
15963.0
 20
10527.0
 30
0.000000
  70
    32
  0
VERTEX
  8
SUNPOU
  5
6BD87
 10
15963.2
 20
10526.7
 30
0.000000
  70
    32
  0
VERTEX
  8
SUNPOU
  5
6BD88
 10
15963.4
 20
10526.4
 30
0.000000
  70
    32
  0
VERTEX
  8
SUNPOU
  5
6BD89
 10
15963.6
 20
10526.1
 30
0.000000
  70
    32
  0
VERTEX
  8
SUNPOU
  5
6BD8A
 10
15963.8
 20
10525.8
 30
0.000000
  70
    32
  0
VERTEX
  8
SUNPOU
  5
6BD8B
 10
15964.0
 20
10525.5
 30
0.000000
  70
    32
  0
VERTEX
  8
SUNPOU
  5
6BD8C
 10
15964.2
 20
10525.1
 30
0.000000
  70
    32
  0
VERTEX
  8
SUNPOU
  5
6BD8D
 10
15964.4
 20
10524.8
 30
0.000000
  70
    32
  0
VERTEX
  8
SUNPOU
  5
6BD8E
 10
15964.5
 20
10524.5
 30
0.000000
  70
    32
  0
VERTEX
  8
SUNPOU
  5
6BD8F
 10
15964.7
 20
10524.2
 30
0.000000
  70
    32
  0
VERTEX
  8
SUNPOU
  5
6BD90
 10
15964.9
 20
10523.8
 30
0.000000
  70
    32
  0
VERTEX
  8
SUNPOU
  5
6BD91
 10
15965.0
 20
10523.5
 30
0.000000
  70
    32
  0
VERTEX
  8
SUNPOU
  5
6BD92
 10
15965.1
 20
10523.1
 30
0.000000
  70
    32
  0
VERTEX
  8
SUNPOU
  5
6BD93
 10
15965.3
 20
10522.8
 30
0.000000
  70
    32
  0
VERTEX
  8
SUNPOU
  5
6BD94
 10
15965.4
 20
10522.4
 30
0.000000
  70
    32
  0
VERTEX
  8
SUNPOU
  5
6BD95
 10
15965.5
 20
10522.1
 30
0.000000
  70
    32
  0
VERTEX
  8
SUNPOU
  5
6BD96
 10
15965.6
 20
10521.7
 30
0.000000
  70
    32
  0
VERTEX
  8
SUNPOU
  5
6BD97
 10
15965.7
 20
10521.4
 30
0.000000
  70
    32
  0
VERTEX
  8
SUNPOU
  5
6BD98
 10
15965.8
 20
10521.0
 30
0.000000
  70
    32
  0
VERTEX
  8
SUNPOU
  5
6BD99
 10
15965.9
 20
10520.7
 30
0.000000
  70
    32
  0
VERTEX
  8
SUNPOU
  5
6BD9A
 10
15965.9
 20
10520.3
 30
0.000000
  70
    32
  0
VERTEX
  8
SUNPOU
  5
6BD9B
 10
15966.0
 20
10519.9
 30
0.000000
  70
    32
  0
VERTEX
  8
SUNPOU
  5
6BD9C
 10
15966.0
 20
10519.6
 30
0.000000
  70
    32
  0
VERTEX
  8
SUNPOU
  5
6BD9D
 10
15966.1
 20
10519.2
 30
0.000000
  70
    32
  0
VERTEX
  8
SUNPOU
  5
6BD9E
 10
15966.1
 20
10518.8
 30
0.000000
  70
    32
  0
VERTEX
  8
SUNPOU
  5
6BD9F
 10
15966.1
 20
10518.5
 30
0.000000
  70
    32
  0
VERTEX
  8
SUNPOU
  5
6BDA0
 10
15966.1
 20
10518.1
 30
0.000000
  70
    32
  0
VERTEX
  8
SUNPOU
  5
6BDA1
 10
15966.1
 20
10517.7
 30
0.000000
  70
    32
  0
VERTEX
  8
SUNPOU
  5
6BDA2
 10
15966.1
 20
10517.4
 30
0.000000
  70
    32
  0
VERTEX
  8
SUNPOU
  5
6BDA3
 10
15966.1
 20
10517.0
 30
0.000000
  70
    32
  0
VERTEX
  8
SUNPOU
  5
6BDA4
 10
15966.1
 20
10516.6
 30
0.000000
  70
    32
  0
VERTEX
  8
SUNPOU
  5
6BDA5
 10
15966.1
 20
10516.3
 30
0.000000
  70
    32
  0
VERTEX
  8
SUNPOU
  5
6BDA6
 10
15966.0
 20
10515.9
 30
0.000000
  70
    32
  0
VERTEX
  8
SUNPOU
  5
6BDA7
 10
15966.0
 20
10515.5
 30
0.000000
  70
    32
  0
VERTEX
  8
SUNPOU
  5
6BDA8
 10
15965.9
 20
10515.2
 30
0.000000
  70
    32
  0
VERTEX
  8
SUNPOU
  5
6BDA9
 10
15965.9
 20
10514.8
 30
0.000000
  70
    32
  0
VERTEX
  8
SUNPOU
  5
6BDAA
 10
15965.8
 20
10514.5
 30
0.000000
  70
    32
  0
VERTEX
  8
SUNPOU
  5
6BDAB
 10
15965.7
 20
10514.1
 30
0.000000
  70
    32
  0
VERTEX
  8
SUNPOU
  5
6BDAC
 10
15965.6
 20
10513.7
 30
0.000000
  70
    32
  0
VERTEX
  8
SUNPOU
  5
6BDAD
 10
15965.5
 20
10513.4
 30
0.000000
  70
    32
  0
VERTEX
  8
SUNPOU
  5
6BDAE
 10
15965.4
 20
10513.0
 30
0.000000
  70
    32
  0
VERTEX
  8
SUNPOU
  5
6BDAF
 10
15965.3
 20
10512.7
 30
0.000000
  70
    32
  0
VERTEX
  8
SUNPOU
  5
6BDB0
 10
15965.1
 20
10512.3
 30
0.000000
  70
    32
  0
VERTEX
  8
SUNPOU
  5
6BDB1
 10
15965.0
 20
10512.0
 30
0.000000
  70
    32
  0
VERTEX
  8
SUNPOU
  5
6BDB2
 10
15964.9
 20
10511.7
 30
0.000000
  70
    32
  0
VERTEX
  8
SUNPOU
  5
6BDB3
 10
15964.7
 20
10511.3
 30
0.000000
  70
    32
  0
VERTEX
  8
SUNPOU
  5
6BDB4
 10
15964.5
 20
10511.0
 30
0.000000
  70
    32
  0
VERTEX
  8
SUNPOU
  5
6BDB5
 10
15964.4
 20
10510.7
 30
0.000000
  70
    32
  0
VERTEX
  8
SUNPOU
  5
6BDB6
 10
15964.2
 20
10510.3
 30
0.000000
  70
    32
  0
VERTEX
  8
SUNPOU
  5
6BDB7
 10
15964.0
 20
10510.0
 30
0.000000
  70
    32
  0
VERTEX
  8
SUNPOU
  5
6BDB8
 10
15963.8
 20
10509.7
 30
0.000000
  70
    32
  0
VERTEX
  8
SUNPOU
  5
6BDB9
 10
15963.6
 20
10509.4
 30
0.000000
  70
    32
  0
VERTEX
  8
SUNPOU
  5
6BDBA
 10
15963.4
 20
10509.1
 30
0.000000
  70
    32
  0
VERTEX
  8
SUNPOU
  5
6BDBB
 10
15963.2
 20
10508.8
 30
0.000000
  70
    32
  0
VERTEX
  8
SUNPOU
  5
6BDBC
 10
15963.0
 20
10508.5
 30
0.000000
  70
    32
  0
VERTEX
  8
SUNPOU
  5
6BDBD
 10
15962.7
 20
10508.2
 30
0.000000
  70
    32
  0
VERTEX
  8
SUNPOU
  5
6BDBE
 10
15962.5
 20
10507.9
 30
0.000000
  70
    32
  0
VERTEX
  8
SUNPOU
  5
6BDBF
 10
15962.3
 20
10507.7
 30
0.000000
  70
    32
  0
VERTEX
  8
SUNPOU
  5
6BDC0
 10
15962.0
 20
10507.4
 30
0.000000
  70
    32
  0
VERTEX
  8
SUNPOU
  5
6BDC1
 10
15961.8
 20
10507.1
 30
0.000000
  70
    32
  0
VERTEX
  8
SUNPOU
  5
6BDC2
 10
15961.5
 20
10506.9
 30
0.000000
  70
    32
  0
VERTEX
  8
SUNPOU
  5
6BDC3
 10
15961.2
 20
10506.6
 30
0.000000
  70
    32
  0
VERTEX
  8
SUNPOU
  5
6BDC4
 10
15960.9
 20
10506.4
 30
0.000000
  70
    32
  0
VERTEX
  8
SUNPOU
  5
6BDC5
 10
15960.7
 20
10506.1
 30
0.000000
  70
    32
  0
VERTEX
  8
SUNPOU
  5
6BDC6
 10
15960.4
 20
10505.9
 30
0.000000
  70
    32
  0
VERTEX
  8
SUNPOU
  5
6BDC7
 10
15960.1
 20
10505.7
 30
0.000000
  70
    32
  0
VERTEX
  8
SUNPOU
  5
6BDC8
 10
15959.8
 20
10505.5
 30
0.000000
  70
    32
  0
VERTEX
  8
SUNPOU
  5
6BDC9
 10
15959.5
 20
10505.3
 30
0.000000
  70
    32
  0
VERTEX
  8
SUNPOU
  5
6BDCA
 10
15959.2
 20
10505.1
 30
0.000000
  70
    32
  0
VERTEX
  8
SUNPOU
  5
6BDCB
 10
15958.9
 20
10504.9
 30
0.000000
  70
    32
  0
VERTEX
  8
SUNPOU
  5
6BDCC
 10
15958.5
 20
10504.7
 30
0.000000
  70
    32
  0
VERTEX
  8
SUNPOU
  5
6BDCD
 10
15958.2
 20
10504.5
 30
0.000000
  70
    32
  0
VERTEX
  8
SUNPOU
  5
6BDCE
 10
15957.9
 20
10504.3
 30
0.000000
  70
    32
  0
VERTEX
  8
SUNPOU
  5
6BDCF
 10
15957.6
 20
10504.2
 30
0.000000
  70
    32
  0
VERTEX
  8
SUNPOU
  5
6BDD0
 10
15957.2
 20
10504.0
 30
0.000000
  70
    32
  0
VERTEX
  8
SUNPOU
  5
6BDD1
 10
15956.9
 20
10503.9
 30
0.000000
  70
    32
  0
VERTEX
  8
SUNPOU
  5
6BDD2
 10
15956.5
 20
10503.7
 30
0.000000
  70
    32
  0
VERTEX
  8
SUNPOU
  5
6BDD3
 10
15956.2
 20
10503.6
 30
0.000000
  70
    32
  0
VERTEX
  8
SUNPOU
  5
6BDD4
 10
15955.9
 20
10503.5
 30
0.000000
  70
    32
  0
VERTEX
  8
SUNPOU
  5
6BDD5
 10
15955.5
 20
10503.4
 30
0.000000
  70
    32
  0
VERTEX
  8
SUNPOU
  5
6BDD6
 10
15955.1
 20
10503.3
 30
0.000000
  70
    32
  0
VERTEX
  8
SUNPOU
  5
6BDD7
 10
15954.8
 20
10503.2
 30
0.000000
  70
    32
  0
VERTEX
  8
SUNPOU
  5
6BDD8
 10
15954.4
 20
10503.1
 30
0.000000
  70
    32
  0
VERTEX
  8
SUNPOU
  5
6BDD9
 10
15954.1
 20
10503.0
 30
0.000000
  70
    32
  0
VERTEX
  8
SUNPOU
  5
6BDDA
 10
15953.7
 20
10503.0
 30
0.000000
  70
    32
  0
VERTEX
  8
SUNPOU
  5
6BDDB
 10
15953.3
 20
10502.9
 30
0.000000
  70
    32
  0
VERTEX
  8
SUNPOU
  5
6BDDC
 10
15953.0
 20
10502.9
 30
0.000000
  70
    32
  0
VERTEX
  8
SUNPOU
  5
6BDDD
 10
15952.6
 20
10502.8
 30
0.000000
  70
    32
  0
VERTEX
  8
SUNPOU
  5
6BDDE
 10
15952.3
 20
10502.8
 30
0.000000
  70
    32
  0
VERTEX
  8
SUNPOU
  5
6BDDF
 10
15951.9
 20
10502.8
 30
0.000000
  70
    32
  0
VERTEX
  8
SUNPOU
  5
6BDE0
 10
15951.5
 20
10502.7
 30
0.000000
  70
    32
  0
VERTEX
  8
SUNPOU
  5
6BDE1
 10
15951.1
 20
10502.7
 30
0.000000
  70
    32
  0
SEQEND
  8
SUNPOU
  5
6BDE2
  0
POLYLINE
  5
6BAFA
  8
SUNPOU
 10
15951.148232486839
 20
10502.740239125651
 30
0.0
 66
     1
 70
     8
  0
VERTEX
  8
SUNPOU
  5
6BDE3
 10
15951.1
 20
10502.7
 30
0.000000
  70
    32
  0
VERTEX
  8
SUNPOU
  5
6BDE4
 10
15950.8
 20
10502.7
 30
0.000000
  70
    32
  0
VERTEX
  8
SUNPOU
  5
6BDE5
 10
15950.4
 20
10502.8
 30
0.000000
  70
    32
  0
VERTEX
  8
SUNPOU
  5
6BDE6
 10
15950.0
 20
10502.8
 30
0.000000
  70
    32
  0
VERTEX
  8
SUNPOU
  5
6BDE7
 10
15949.7
 20
10502.8
 30
0.000000
  70
    32
  0
VERTEX
  8
SUNPOU
  5
6BDE8
 10
15949.3
 20
10502.9
 30
0.000000
  70
    32
  0
VERTEX
  8
SUNPOU
  5
6BDE9
 10
15948.9
 20
10502.9
 30
0.000000
  70
    32
  0
VERTEX
  8
SUNPOU
  5
6BDEA
 10
15948.6
 20
10503.0
 30
0.000000
  70
    32
  0
VERTEX
  8
SUNPOU
  5
6BDEB
 10
15948.2
 20
10503.0
 30
0.000000
  70
    32
  0
VERTEX
  8
SUNPOU
  5
6BDEC
 10
15947.9
 20
10503.1
 30
0.000000
  70
    32
  0
VERTEX
  8
SUNPOU
  5
6BDED
 10
15947.5
 20
10503.2
 30
0.000000
  70
    32
  0
VERTEX
  8
SUNPOU
  5
6BDEE
 10
15947.1
 20
10503.3
 30
0.000000
  70
    32
  0
VERTEX
  8
SUNPOU
  5
6BDEF
 10
15946.8
 20
10503.4
 30
0.000000
  70
    32
  0
VERTEX
  8
SUNPOU
  5
6BDF0
 10
15946.4
 20
10503.5
 30
0.000000
  70
    32
  0
VERTEX
  8
SUNPOU
  5
6BDF1
 10
15946.1
 20
10503.6
 30
0.000000
  70
    32
  0
VERTEX
  8
SUNPOU
  5
6BDF2
 10
15945.7
 20
10503.7
 30
0.000000
  70
    32
  0
VERTEX
  8
SUNPOU
  5
6BDF3
 10
15945.4
 20
10503.9
 30
0.000000
  70
    32
  0
VERTEX
  8
SUNPOU
  5
6BDF4
 10
15945.1
 20
10504.0
 30
0.000000
  70
    32
  0
VERTEX
  8
SUNPOU
  5
6BDF5
 10
15944.7
 20
10504.2
 30
0.000000
  70
    32
  0
VERTEX
  8
SUNPOU
  5
6BDF6
 10
15944.4
 20
10504.3
 30
0.000000
  70
    32
  0
VERTEX
  8
SUNPOU
  5
6BDF7
 10
15944.1
 20
10504.5
 30
0.000000
  70
    32
  0
VERTEX
  8
SUNPOU
  5
6BDF8
 10
15943.8
 20
10504.7
 30
0.000000
  70
    32
  0
VERTEX
  8
SUNPOU
  5
6BDF9
 10
15943.4
 20
10504.9
 30
0.000000
  70
    32
  0
VERTEX
  8
SUNPOU
  5
6BDFA
 10
15943.1
 20
10505.1
 30
0.000000
  70
    32
  0
VERTEX
  8
SUNPOU
  5
6BDFB
 10
15942.8
 20
10505.3
 30
0.000000
  70
    32
  0
VERTEX
  8
SUNPOU
  5
6BDFC
 10
15942.5
 20
10505.5
 30
0.000000
  70
    32
  0
VERTEX
  8
SUNPOU
  5
6BDFD
 10
15942.2
 20
10505.7
 30
0.000000
  70
    32
  0
VERTEX
  8
SUNPOU
  5
6BDFE
 10
15941.9
 20
10505.9
 30
0.000000
  70
    32
  0
VERTEX
  8
SUNPOU
  5
6BDFF
 10
15941.6
 20
10506.1
 30
0.000000
  70
    32
  0
VERTEX
  8
SUNPOU
  5
6BE00
 10
15941.4
 20
10506.4
 30
0.000000
  70
    32
  0
VERTEX
  8
SUNPOU
  5
6BE01
 10
15941.1
 20
10506.6
 30
0.000000
  70
    32
  0
VERTEX
  8
SUNPOU
  5
6BE02
 10
15940.8
 20
10506.9
 30
0.000000
  70
    32
  0
VERTEX
  8
SUNPOU
  5
6BE03
 10
15940.5
 20
10507.1
 30
0.000000
  70
    32
  0
VERTEX
  8
SUNPOU
  5
6BE04
 10
15940.3
 20
10507.4
 30
0.000000
  70
    32
  0
VERTEX
  8
SUNPOU
  5
6BE05
 10
15940.0
 20
10507.7
 30
0.000000
  70
    32
  0
VERTEX
  8
SUNPOU
  5
6BE06
 10
15939.8
 20
10507.9
 30
0.000000
  70
    32
  0
VERTEX
  8
SUNPOU
  5
6BE07
 10
15939.6
 20
10508.2
 30
0.000000
  70
    32
  0
VERTEX
  8
SUNPOU
  5
6BE08
 10
15939.3
 20
10508.5
 30
0.000000
  70
    32
  0
VERTEX
  8
SUNPOU
  5
6BE09
 10
15939.1
 20
10508.8
 30
0.000000
  70
    32
  0
VERTEX
  8
SUNPOU
  5
6BE0A
 10
15938.9
 20
10509.1
 30
0.000000
  70
    32
  0
VERTEX
  8
SUNPOU
  5
6BE0B
 10
15938.7
 20
10509.4
 30
0.000000
  70
    32
  0
VERTEX
  8
SUNPOU
  5
6BE0C
 10
15938.5
 20
10509.7
 30
0.000000
  70
    32
  0
VERTEX
  8
SUNPOU
  5
6BE0D
 10
15938.3
 20
10510.0
 30
0.000000
  70
    32
  0
VERTEX
  8
SUNPOU
  5
6BE0E
 10
15938.1
 20
10510.3
 30
0.000000
  70
    32
  0
VERTEX
  8
SUNPOU
  5
6BE0F
 10
15937.9
 20
10510.7
 30
0.000000
  70
    32
  0
VERTEX
  8
SUNPOU
  5
6BE10
 10
15937.7
 20
10511.0
 30
0.000000
  70
    32
  0
VERTEX
  8
SUNPOU
  5
6BE11
 10
15937.6
 20
10511.3
 30
0.000000
  70
    32
  0
VERTEX
  8
SUNPOU
  5
6BE12
 10
15937.4
 20
10511.7
 30
0.000000
  70
    32
  0
VERTEX
  8
SUNPOU
  5
6BE13
 10
15937.3
 20
10512.0
 30
0.000000
  70
    32
  0
VERTEX
  8
SUNPOU
  5
6BE14
 10
15937.2
 20
10512.3
 30
0.000000
  70
    32
  0
VERTEX
  8
SUNPOU
  5
6BE15
 10
15937.0
 20
10512.7
 30
0.000000
  70
    32
  0
VERTEX
  8
SUNPOU
  5
6BE16
 10
15936.9
 20
10513.0
 30
0.000000
  70
    32
  0
VERTEX
  8
SUNPOU
  5
6BE17
 10
15936.8
 20
10513.4
 30
0.000000
  70
    32
  0
VERTEX
  8
SUNPOU
  5
6BE18
 10
15936.7
 20
10513.7
 30
0.000000
  70
    32
  0
VERTEX
  8
SUNPOU
  5
6BE19
 10
15936.6
 20
10514.1
 30
0.000000
  70
    32
  0
VERTEX
  8
SUNPOU
  5
6BE1A
 10
15936.5
 20
10514.5
 30
0.000000
  70
    32
  0
VERTEX
  8
SUNPOU
  5
6BE1B
 10
15936.4
 20
10514.8
 30
0.000000
  70
    32
  0
VERTEX
  8
SUNPOU
  5
6BE1C
 10
15936.4
 20
10515.2
 30
0.000000
  70
    32
  0
VERTEX
  8
SUNPOU
  5
6BE1D
 10
15936.3
 20
10515.5
 30
0.000000
  70
    32
  0
VERTEX
  8
SUNPOU
  5
6BE1E
 10
15936.3
 20
10515.9
 30
0.000000
  70
    32
  0
VERTEX
  8
SUNPOU
  5
6BE1F
 10
15936.2
 20
10516.3
 30
0.000000
  70
    32
  0
VERTEX
  8
SUNPOU
  5
6BE20
 10
15936.2
 20
10516.6
 30
0.000000
  70
    32
  0
VERTEX
  8
SUNPOU
  5
6BE21
 10
15936.2
 20
10517.0
 30
0.000000
  70
    32
  0
VERTEX
  8
SUNPOU
  5
6BE22
 10
15936.2
 20
10517.4
 30
0.000000
  70
    32
  0
VERTEX
  8
SUNPOU
  5
6BE23
 10
15936.1
 20
10517.7
 30
0.000000
  70
    32
  0
VERTEX
  8
SUNPOU
  5
6BE24
 10
15936.2
 20
10518.1
 30
0.000000
  70
    32
  0
VERTEX
  8
SUNPOU
  5
6BE25
 10
15936.2
 20
10518.5
 30
0.000000
  70
    32
  0
VERTEX
  8
SUNPOU
  5
6BE26
 10
15936.2
 20
10518.8
 30
0.000000
  70
    32
  0
VERTEX
  8
SUNPOU
  5
6BE27
 10
15936.2
 20
10519.2
 30
0.000000
  70
    32
  0
VERTEX
  8
SUNPOU
  5
6BE28
 10
15936.3
 20
10519.6
 30
0.000000
  70
    32
  0
VERTEX
  8
SUNPOU
  5
6BE29
 10
15936.3
 20
10519.9
 30
0.000000
  70
    32
  0
VERTEX
  8
SUNPOU
  5
6BE2A
 10
15936.4
 20
10520.3
 30
0.000000
  70
    32
  0
VERTEX
  8
SUNPOU
  5
6BE2B
 10
15936.4
 20
10520.7
 30
0.000000
  70
    32
  0
VERTEX
  8
SUNPOU
  5
6BE2C
 10
15936.5
 20
10521.0
 30
0.000000
  70
    32
  0
VERTEX
  8
SUNPOU
  5
6BE2D
 10
15936.6
 20
10521.4
 30
0.000000
  70
    32
  0
VERTEX
  8
SUNPOU
  5
6BE2E
 10
15936.7
 20
10521.7
 30
0.000000
  70
    32
  0
VERTEX
  8
SUNPOU
  5
6BE2F
 10
15936.8
 20
10522.1
 30
0.000000
  70
    32
  0
VERTEX
  8
SUNPOU
  5
6BE30
 10
15936.9
 20
10522.4
 30
0.000000
  70
    32
  0
VERTEX
  8
SUNPOU
  5
6BE31
 10
15937.0
 20
10522.8
 30
0.000000
  70
    32
  0
VERTEX
  8
SUNPOU
  5
6BE32
 10
15937.2
 20
10523.1
 30
0.000000
  70
    32
  0
VERTEX
  8
SUNPOU
  5
6BE33
 10
15937.3
 20
10523.5
 30
0.000000
  70
    32
  0
VERTEX
  8
SUNPOU
  5
6BE34
 10
15937.4
 20
10523.8
 30
0.000000
  70
    32
  0
VERTEX
  8
SUNPOU
  5
6BE35
 10
15937.6
 20
10524.2
 30
0.000000
  70
    32
  0
VERTEX
  8
SUNPOU
  5
6BE36
 10
15937.7
 20
10524.5
 30
0.000000
  70
    32
  0
VERTEX
  8
SUNPOU
  5
6BE37
 10
15937.9
 20
10524.8
 30
0.000000
  70
    32
  0
VERTEX
  8
SUNPOU
  5
6BE38
 10
15938.1
 20
10525.1
 30
0.000000
  70
    32
  0
VERTEX
  8
SUNPOU
  5
6BE39
 10
15938.3
 20
10525.5
 30
0.000000
  70
    32
  0
VERTEX
  8
SUNPOU
  5
6BE3A
 10
15938.5
 20
10525.8
 30
0.000000
  70
    32
  0
VERTEX
  8
SUNPOU
  5
6BE3B
 10
15938.7
 20
10526.1
 30
0.000000
  70
    32
  0
VERTEX
  8
SUNPOU
  5
6BE3C
 10
15938.9
 20
10526.4
 30
0.000000
  70
    32
  0
VERTEX
  8
SUNPOU
  5
6BE3D
 10
15939.1
 20
10526.7
 30
0.000000
  70
    32
  0
VERTEX
  8
SUNPOU
  5
6BE3E
 10
15939.3
 20
10527.0
 30
0.000000
  70
    32
  0
VERTEX
  8
SUNPOU
  5
6BE3F
 10
15939.6
 20
10527.3
 30
0.000000
  70
    32
  0
VERTEX
  8
SUNPOU
  5
6BE40
 10
15939.8
 20
10527.5
 30
0.000000
  70
    32
  0
VERTEX
  8
SUNPOU
  5
6BE41
 10
15940.0
 20
10527.8
 30
0.000000
  70
    32
  0
VERTEX
  8
SUNPOU
  5
6BE42
 10
15940.3
 20
10528.1
 30
0.000000
  70
    32
  0
VERTEX
  8
SUNPOU
  5
6BE43
 10
15940.5
 20
10528.3
 30
0.000000
  70
    32
  0
VERTEX
  8
SUNPOU
  5
6BE44
 10
15940.8
 20
10528.6
 30
0.000000
  70
    32
  0
VERTEX
  8
SUNPOU
  5
6BE45
 10
15941.1
 20
10528.9
 30
0.000000
  70
    32
  0
VERTEX
  8
SUNPOU
  5
6BE46
 10
15941.4
 20
10529.1
 30
0.000000
  70
    32
  0
VERTEX
  8
SUNPOU
  5
6BE47
 10
15941.6
 20
10529.3
 30
0.000000
  70
    32
  0
VERTEX
  8
SUNPOU
  5
6BE48
 10
15941.9
 20
10529.6
 30
0.000000
  70
    32
  0
VERTEX
  8
SUNPOU
  5
6BE49
 10
15942.2
 20
10529.8
 30
0.000000
  70
    32
  0
VERTEX
  8
SUNPOU
  5
6BE4A
 10
15942.5
 20
10530.0
 30
0.000000
  70
    32
  0
VERTEX
  8
SUNPOU
  5
6BE4B
 10
15942.8
 20
10530.2
 30
0.000000
  70
    32
  0
VERTEX
  8
SUNPOU
  5
6BE4C
 10
15943.1
 20
10530.4
 30
0.000000
  70
    32
  0
VERTEX
  8
SUNPOU
  5
6BE4D
 10
15943.4
 20
10530.6
 30
0.000000
  70
    32
  0
VERTEX
  8
SUNPOU
  5
6BE4E
 10
15943.8
 20
10530.8
 30
0.000000
  70
    32
  0
VERTEX
  8
SUNPOU
  5
6BE4F
 10
15944.1
 20
10531.0
 30
0.000000
  70
    32
  0
VERTEX
  8
SUNPOU
  5
6BE50
 10
15944.4
 20
10531.1
 30
0.000000
  70
    32
  0
VERTEX
  8
SUNPOU
  5
6BE51
 10
15944.7
 20
10531.3
 30
0.000000
  70
    32
  0
VERTEX
  8
SUNPOU
  5
6BE52
 10
15945.1
 20
10531.5
 30
0.000000
  70
    32
  0
VERTEX
  8
SUNPOU
  5
6BE53
 10
15945.4
 20
10531.6
 30
0.000000
  70
    32
  0
VERTEX
  8
SUNPOU
  5
6BE54
 10
15945.7
 20
10531.7
 30
0.000000
  70
    32
  0
VERTEX
  8
SUNPOU
  5
6BE55
 10
15946.1
 20
10531.9
 30
0.000000
  70
    32
  0
VERTEX
  8
SUNPOU
  5
6BE56
 10
15946.4
 20
10532.0
 30
0.000000
  70
    32
  0
VERTEX
  8
SUNPOU
  5
6BE57
 10
15946.8
 20
10532.1
 30
0.000000
  70
    32
  0
VERTEX
  8
SUNPOU
  5
6BE58
 10
15947.1
 20
10532.2
 30
0.000000
  70
    32
  0
VERTEX
  8
SUNPOU
  5
6BE59
 10
15947.5
 20
10532.3
 30
0.000000
  70
    32
  0
VERTEX
  8
SUNPOU
  5
6BE5A
 10
15947.9
 20
10532.4
 30
0.000000
  70
    32
  0
VERTEX
  8
SUNPOU
  5
6BE5B
 10
15948.2
 20
10532.5
 30
0.000000
  70
    32
  0
VERTEX
  8
SUNPOU
  5
6BE5C
 10
15948.6
 20
10532.5
 30
0.000000
  70
    32
  0
VERTEX
  8
SUNPOU
  5
6BE5D
 10
15948.9
 20
10532.6
 30
0.000000
  70
    32
  0
VERTEX
  8
SUNPOU
  5
6BE5E
 10
15949.3
 20
10532.6
 30
0.000000
  70
    32
  0
VERTEX
  8
SUNPOU
  5
6BE5F
 10
15949.7
 20
10532.7
 30
0.000000
  70
    32
  0
VERTEX
  8
SUNPOU
  5
6BE60
 10
15950.0
 20
10532.7
 30
0.000000
  70
    32
  0
VERTEX
  8
SUNPOU
  5
6BE61
 10
15950.4
 20
10532.7
 30
0.000000
  70
    32
  0
VERTEX
  8
SUNPOU
  5
6BE62
 10
15950.8
 20
10532.7
 30
0.000000
  70
    32
  0
VERTEX
  8
SUNPOU
  5
6BE63
 10
15951.1
 20
10532.7
 30
0.000000
  70
    32
  0
SEQEND
  8
SUNPOU
  5
6BE64
  0
LINE
  5
6BAFB
  8
SUNPOU
 10
15951.148232486839
 20
10547.74023912564
 30
0.0
 11
15951.148232486839
 21
10577.74023912564
 31
0.0
  0
POLYLINE
  5
6BAFC
  8
SUNPOU
 10
15951.148232486839
 20
10932.740239125618
 30
0.0
 66
     1
 70
     8
  0
VERTEX
  8
SUNPOU
  5
6BE65
 10
15951.1
 20
10932.7
 30
0.000000
  70
    32
  0
VERTEX
  8
SUNPOU
  5
6BE66
 10
15951.5
 20
10932.7
 30
0.000000
  70
    32
  0
VERTEX
  8
SUNPOU
  5
6BE67
 10
15951.9
 20
10932.7
 30
0.000000
  70
    32
  0
VERTEX
  8
SUNPOU
  5
6BE68
 10
15952.3
 20
10932.7
 30
0.000000
  70
    32
  0
VERTEX
  8
SUNPOU
  5
6BE69
 10
15952.6
 20
10932.7
 30
0.000000
  70
    32
  0
VERTEX
  8
SUNPOU
  5
6BE6A
 10
15953.0
 20
10932.6
 30
0.000000
  70
    32
  0
VERTEX
  8
SUNPOU
  5
6BE6B
 10
15953.3
 20
10932.6
 30
0.000000
  70
    32
  0
VERTEX
  8
SUNPOU
  5
6BE6C
 10
15953.7
 20
10932.5
 30
0.000000
  70
    32
  0
VERTEX
  8
SUNPOU
  5
6BE6D
 10
15954.1
 20
10932.5
 30
0.000000
  70
    32
  0
VERTEX
  8
SUNPOU
  5
6BE6E
 10
15954.4
 20
10932.4
 30
0.000000
  70
    32
  0
VERTEX
  8
SUNPOU
  5
6BE6F
 10
15954.8
 20
10932.3
 30
0.000000
  70
    32
  0
VERTEX
  8
SUNPOU
  5
6BE70
 10
15955.1
 20
10932.2
 30
0.000000
  70
    32
  0
VERTEX
  8
SUNPOU
  5
6BE71
 10
15955.5
 20
10932.1
 30
0.000000
  70
    32
  0
VERTEX
  8
SUNPOU
  5
6BE72
 10
15955.9
 20
10932.0
 30
0.000000
  70
    32
  0
VERTEX
  8
SUNPOU
  5
6BE73
 10
15956.2
 20
10931.9
 30
0.000000
  70
    32
  0
VERTEX
  8
SUNPOU
  5
6BE74
 10
15956.5
 20
10931.7
 30
0.000000
  70
    32
  0
VERTEX
  8
SUNPOU
  5
6BE75
 10
15956.9
 20
10931.6
 30
0.000000
  70
    32
  0
VERTEX
  8
SUNPOU
  5
6BE76
 10
15957.2
 20
10931.5
 30
0.000000
  70
    32
  0
VERTEX
  8
SUNPOU
  5
6BE77
 10
15957.6
 20
10931.3
 30
0.000000
  70
    32
  0
VERTEX
  8
SUNPOU
  5
6BE78
 10
15957.9
 20
10931.1
 30
0.000000
  70
    32
  0
VERTEX
  8
SUNPOU
  5
6BE79
 10
15958.2
 20
10931.0
 30
0.000000
  70
    32
  0
VERTEX
  8
SUNPOU
  5
6BE7A
 10
15958.5
 20
10930.8
 30
0.000000
  70
    32
  0
VERTEX
  8
SUNPOU
  5
6BE7B
 10
15958.9
 20
10930.6
 30
0.000000
  70
    32
  0
VERTEX
  8
SUNPOU
  5
6BE7C
 10
15959.2
 20
10930.4
 30
0.000000
  70
    32
  0
VERTEX
  8
SUNPOU
  5
6BE7D
 10
15959.5
 20
10930.2
 30
0.000000
  70
    32
  0
VERTEX
  8
SUNPOU
  5
6BE7E
 10
15959.8
 20
10930.0
 30
0.000000
  70
    32
  0
VERTEX
  8
SUNPOU
  5
6BE7F
 10
15960.1
 20
10929.8
 30
0.000000
  70
    32
  0
VERTEX
  8
SUNPOU
  5
6BE80
 10
15960.4
 20
10929.6
 30
0.000000
  70
    32
  0
VERTEX
  8
SUNPOU
  5
6BE81
 10
15960.7
 20
10929.3
 30
0.000000
  70
    32
  0
VERTEX
  8
SUNPOU
  5
6BE82
 10
15960.9
 20
10929.1
 30
0.000000
  70
    32
  0
VERTEX
  8
SUNPOU
  5
6BE83
 10
15961.2
 20
10928.9
 30
0.000000
  70
    32
  0
VERTEX
  8
SUNPOU
  5
6BE84
 10
15961.5
 20
10928.6
 30
0.000000
  70
    32
  0
VERTEX
  8
SUNPOU
  5
6BE85
 10
15961.8
 20
10928.3
 30
0.000000
  70
    32
  0
VERTEX
  8
SUNPOU
  5
6BE86
 10
15962.0
 20
10928.1
 30
0.000000
  70
    32
  0
VERTEX
  8
SUNPOU
  5
6BE87
 10
15962.3
 20
10927.8
 30
0.000000
  70
    32
  0
VERTEX
  8
SUNPOU
  5
6BE88
 10
15962.5
 20
10927.5
 30
0.000000
  70
    32
  0
VERTEX
  8
SUNPOU
  5
6BE89
 10
15962.7
 20
10927.3
 30
0.000000
  70
    32
  0
VERTEX
  8
SUNPOU
  5
6BE8A
 10
15963.0
 20
10927.0
 30
0.000000
  70
    32
  0
VERTEX
  8
SUNPOU
  5
6BE8B
 10
15963.2
 20
10926.7
 30
0.000000
  70
    32
  0
VERTEX
  8
SUNPOU
  5
6BE8C
 10
15963.4
 20
10926.4
 30
0.000000
  70
    32
  0
VERTEX
  8
SUNPOU
  5
6BE8D
 10
15963.6
 20
10926.1
 30
0.000000
  70
    32
  0
VERTEX
  8
SUNPOU
  5
6BE8E
 10
15963.8
 20
10925.8
 30
0.000000
  70
    32
  0
VERTEX
  8
SUNPOU
  5
6BE8F
 10
15964.0
 20
10925.5
 30
0.000000
  70
    32
  0
VERTEX
  8
SUNPOU
  5
6BE90
 10
15964.2
 20
10925.1
 30
0.000000
  70
    32
  0
VERTEX
  8
SUNPOU
  5
6BE91
 10
15964.4
 20
10924.8
 30
0.000000
  70
    32
  0
VERTEX
  8
SUNPOU
  5
6BE92
 10
15964.5
 20
10924.5
 30
0.000000
  70
    32
  0
VERTEX
  8
SUNPOU
  5
6BE93
 10
15964.7
 20
10924.2
 30
0.000000
  70
    32
  0
VERTEX
  8
SUNPOU
  5
6BE94
 10
15964.9
 20
10923.8
 30
0.000000
  70
    32
  0
VERTEX
  8
SUNPOU
  5
6BE95
 10
15965.0
 20
10923.5
 30
0.000000
  70
    32
  0
VERTEX
  8
SUNPOU
  5
6BE96
 10
15965.1
 20
10923.1
 30
0.000000
  70
    32
  0
VERTEX
  8
SUNPOU
  5
6BE97
 10
15965.3
 20
10922.8
 30
0.000000
  70
    32
  0
VERTEX
  8
SUNPOU
  5
6BE98
 10
15965.4
 20
10922.4
 30
0.000000
  70
    32
  0
VERTEX
  8
SUNPOU
  5
6BE99
 10
15965.5
 20
10922.1
 30
0.000000
  70
    32
  0
VERTEX
  8
SUNPOU
  5
6BE9A
 10
15965.6
 20
10921.7
 30
0.000000
  70
    32
  0
VERTEX
  8
SUNPOU
  5
6BE9B
 10
15965.7
 20
10921.4
 30
0.000000
  70
    32
  0
VERTEX
  8
SUNPOU
  5
6BE9C
 10
15965.8
 20
10921.0
 30
0.000000
  70
    32
  0
VERTEX
  8
SUNPOU
  5
6BE9D
 10
15965.9
 20
10920.7
 30
0.000000
  70
    32
  0
VERTEX
  8
SUNPOU
  5
6BE9E
 10
15965.9
 20
10920.3
 30
0.000000
  70
    32
  0
VERTEX
  8
SUNPOU
  5
6BE9F
 10
15966.0
 20
10919.9
 30
0.000000
  70
    32
  0
VERTEX
  8
SUNPOU
  5
6BEA0
 10
15966.0
 20
10919.6
 30
0.000000
  70
    32
  0
VERTEX
  8
SUNPOU
  5
6BEA1
 10
15966.1
 20
10919.2
 30
0.000000
  70
    32
  0
VERTEX
  8
SUNPOU
  5
6BEA2
 10
15966.1
 20
10918.8
 30
0.000000
  70
    32
  0
VERTEX
  8
SUNPOU
  5
6BEA3
 10
15966.1
 20
10918.5
 30
0.000000
  70
    32
  0
VERTEX
  8
SUNPOU
  5
6BEA4
 10
15966.1
 20
10918.1
 30
0.000000
  70
    32
  0
VERTEX
  8
SUNPOU
  5
6BEA5
 10
15966.1
 20
10917.7
 30
0.000000
  70
    32
  0
VERTEX
  8
SUNPOU
  5
6BEA6
 10
15966.1
 20
10917.4
 30
0.000000
  70
    32
  0
VERTEX
  8
SUNPOU
  5
6BEA7
 10
15966.1
 20
10917.0
 30
0.000000
  70
    32
  0
VERTEX
  8
SUNPOU
  5
6BEA8
 10
15966.1
 20
10916.6
 30
0.000000
  70
    32
  0
VERTEX
  8
SUNPOU
  5
6BEA9
 10
15966.1
 20
10916.3
 30
0.000000
  70
    32
  0
VERTEX
  8
SUNPOU
  5
6BEAA
 10
15966.0
 20
10915.9
 30
0.000000
  70
    32
  0
VERTEX
  8
SUNPOU
  5
6BEAB
 10
15966.0
 20
10915.5
 30
0.000000
  70
    32
  0
VERTEX
  8
SUNPOU
  5
6BEAC
 10
15965.9
 20
10915.2
 30
0.000000
  70
    32
  0
VERTEX
  8
SUNPOU
  5
6BEAD
 10
15965.9
 20
10914.8
 30
0.000000
  70
    32
  0
VERTEX
  8
SUNPOU
  5
6BEAE
 10
15965.8
 20
10914.5
 30
0.000000
  70
    32
  0
VERTEX
  8
SUNPOU
  5
6BEAF
 10
15965.7
 20
10914.1
 30
0.000000
  70
    32
  0
VERTEX
  8
SUNPOU
  5
6BEB0
 10
15965.6
 20
10913.7
 30
0.000000
  70
    32
  0
VERTEX
  8
SUNPOU
  5
6BEB1
 10
15965.5
 20
10913.4
 30
0.000000
  70
    32
  0
VERTEX
  8
SUNPOU
  5
6BEB2
 10
15965.4
 20
10913.0
 30
0.000000
  70
    32
  0
VERTEX
  8
SUNPOU
  5
6BEB3
 10
15965.3
 20
10912.7
 30
0.000000
  70
    32
  0
VERTEX
  8
SUNPOU
  5
6BEB4
 10
15965.1
 20
10912.3
 30
0.000000
  70
    32
  0
VERTEX
  8
SUNPOU
  5
6BEB5
 10
15965.0
 20
10912.0
 30
0.000000
  70
    32
  0
VERTEX
  8
SUNPOU
  5
6BEB6
 10
15964.9
 20
10911.7
 30
0.000000
  70
    32
  0
VERTEX
  8
SUNPOU
  5
6BEB7
 10
15964.7
 20
10911.3
 30
0.000000
  70
    32
  0
VERTEX
  8
SUNPOU
  5
6BEB8
 10
15964.5
 20
10911.0
 30
0.000000
  70
    32
  0
VERTEX
  8
SUNPOU
  5
6BEB9
 10
15964.4
 20
10910.7
 30
0.000000
  70
    32
  0
VERTEX
  8
SUNPOU
  5
6BEBA
 10
15964.2
 20
10910.3
 30
0.000000
  70
    32
  0
VERTEX
  8
SUNPOU
  5
6BEBB
 10
15964.0
 20
10910.0
 30
0.000000
  70
    32
  0
VERTEX
  8
SUNPOU
  5
6BEBC
 10
15963.8
 20
10909.7
 30
0.000000
  70
    32
  0
VERTEX
  8
SUNPOU
  5
6BEBD
 10
15963.6
 20
10909.4
 30
0.000000
  70
    32
  0
VERTEX
  8
SUNPOU
  5
6BEBE
 10
15963.4
 20
10909.1
 30
0.000000
  70
    32
  0
VERTEX
  8
SUNPOU
  5
6BEBF
 10
15963.2
 20
10908.8
 30
0.000000
  70
    32
  0
VERTEX
  8
SUNPOU
  5
6BEC0
 10
15963.0
 20
10908.5
 30
0.000000
  70
    32
  0
VERTEX
  8
SUNPOU
  5
6BEC1
 10
15962.7
 20
10908.2
 30
0.000000
  70
    32
  0
VERTEX
  8
SUNPOU
  5
6BEC2
 10
15962.5
 20
10907.9
 30
0.000000
  70
    32
  0
VERTEX
  8
SUNPOU
  5
6BEC3
 10
15962.3
 20
10907.7
 30
0.000000
  70
    32
  0
VERTEX
  8
SUNPOU
  5
6BEC4
 10
15962.0
 20
10907.4
 30
0.000000
  70
    32
  0
VERTEX
  8
SUNPOU
  5
6BEC5
 10
15961.8
 20
10907.1
 30
0.000000
  70
    32
  0
VERTEX
  8
SUNPOU
  5
6BEC6
 10
15961.5
 20
10906.9
 30
0.000000
  70
    32
  0
VERTEX
  8
SUNPOU
  5
6BEC7
 10
15961.2
 20
10906.6
 30
0.000000
  70
    32
  0
VERTEX
  8
SUNPOU
  5
6BEC8
 10
15960.9
 20
10906.4
 30
0.000000
  70
    32
  0
VERTEX
  8
SUNPOU
  5
6BEC9
 10
15960.7
 20
10906.1
 30
0.000000
  70
    32
  0
VERTEX
  8
SUNPOU
  5
6BECA
 10
15960.4
 20
10905.9
 30
0.000000
  70
    32
  0
VERTEX
  8
SUNPOU
  5
6BECB
 10
15960.1
 20
10905.7
 30
0.000000
  70
    32
  0
VERTEX
  8
SUNPOU
  5
6BECC
 10
15959.8
 20
10905.5
 30
0.000000
  70
    32
  0
VERTEX
  8
SUNPOU
  5
6BECD
 10
15959.5
 20
10905.3
 30
0.000000
  70
    32
  0
VERTEX
  8
SUNPOU
  5
6BECE
 10
15959.2
 20
10905.1
 30
0.000000
  70
    32
  0
VERTEX
  8
SUNPOU
  5
6BECF
 10
15958.9
 20
10904.9
 30
0.000000
  70
    32
  0
VERTEX
  8
SUNPOU
  5
6BED0
 10
15958.5
 20
10904.7
 30
0.000000
  70
    32
  0
VERTEX
  8
SUNPOU
  5
6BED1
 10
15958.2
 20
10904.5
 30
0.000000
  70
    32
  0
VERTEX
  8
SUNPOU
  5
6BED2
 10
15957.9
 20
10904.3
 30
0.000000
  70
    32
  0
VERTEX
  8
SUNPOU
  5
6BED3
 10
15957.6
 20
10904.2
 30
0.000000
  70
    32
  0
VERTEX
  8
SUNPOU
  5
6BED4
 10
15957.2
 20
10904.0
 30
0.000000
  70
    32
  0
VERTEX
  8
SUNPOU
  5
6BED5
 10
15956.9
 20
10903.9
 30
0.000000
  70
    32
  0
VERTEX
  8
SUNPOU
  5
6BED6
 10
15956.5
 20
10903.7
 30
0.000000
  70
    32
  0
VERTEX
  8
SUNPOU
  5
6BED7
 10
15956.2
 20
10903.6
 30
0.000000
  70
    32
  0
VERTEX
  8
SUNPOU
  5
6BED8
 10
15955.9
 20
10903.5
 30
0.000000
  70
    32
  0
VERTEX
  8
SUNPOU
  5
6BED9
 10
15955.5
 20
10903.4
 30
0.000000
  70
    32
  0
VERTEX
  8
SUNPOU
  5
6BEDA
 10
15955.1
 20
10903.3
 30
0.000000
  70
    32
  0
VERTEX
  8
SUNPOU
  5
6BEDB
 10
15954.8
 20
10903.2
 30
0.000000
  70
    32
  0
VERTEX
  8
SUNPOU
  5
6BEDC
 10
15954.4
 20
10903.1
 30
0.000000
  70
    32
  0
VERTEX
  8
SUNPOU
  5
6BEDD
 10
15954.1
 20
10903.0
 30
0.000000
  70
    32
  0
VERTEX
  8
SUNPOU
  5
6BEDE
 10
15953.7
 20
10903.0
 30
0.000000
  70
    32
  0
VERTEX
  8
SUNPOU
  5
6BEDF
 10
15953.3
 20
10902.9
 30
0.000000
  70
    32
  0
VERTEX
  8
SUNPOU
  5
6BEE0
 10
15953.0
 20
10902.9
 30
0.000000
  70
    32
  0
VERTEX
  8
SUNPOU
  5
6BEE1
 10
15952.6
 20
10902.8
 30
0.000000
  70
    32
  0
VERTEX
  8
SUNPOU
  5
6BEE2
 10
15952.3
 20
10902.8
 30
0.000000
  70
    32
  0
VERTEX
  8
SUNPOU
  5
6BEE3
 10
15951.9
 20
10902.8
 30
0.000000
  70
    32
  0
VERTEX
  8
SUNPOU
  5
6BEE4
 10
15951.5
 20
10902.7
 30
0.000000
  70
    32
  0
VERTEX
  8
SUNPOU
  5
6BEE5
 10
15951.1
 20
10902.7
 30
0.000000
  70
    32
  0
SEQEND
  8
SUNPOU
  5
6BEE6
  0
POLYLINE
  5
6BAFD
  8
SUNPOU
 10
15951.148232486839
 20
10902.740239125622
 30
0.0
 66
     1
 70
     8
  0
VERTEX
  8
SUNPOU
  5
6BEE7
 10
15951.1
 20
10902.7
 30
0.000000
  70
    32
  0
VERTEX
  8
SUNPOU
  5
6BEE8
 10
15950.8
 20
10902.7
 30
0.000000
  70
    32
  0
VERTEX
  8
SUNPOU
  5
6BEE9
 10
15950.4
 20
10902.8
 30
0.000000
  70
    32
  0
VERTEX
  8
SUNPOU
  5
6BEEA
 10
15950.0
 20
10902.8
 30
0.000000
  70
    32
  0
VERTEX
  8
SUNPOU
  5
6BEEB
 10
15949.7
 20
10902.8
 30
0.000000
  70
    32
  0
VERTEX
  8
SUNPOU
  5
6BEEC
 10
15949.3
 20
10902.9
 30
0.000000
  70
    32
  0
VERTEX
  8
SUNPOU
  5
6BEED
 10
15948.9
 20
10902.9
 30
0.000000
  70
    32
  0
VERTEX
  8
SUNPOU
  5
6BEEE
 10
15948.6
 20
10903.0
 30
0.000000
  70
    32
  0
VERTEX
  8
SUNPOU
  5
6BEEF
 10
15948.2
 20
10903.0
 30
0.000000
  70
    32
  0
VERTEX
  8
SUNPOU
  5
6BEF0
 10
15947.9
 20
10903.1
 30
0.000000
  70
    32
  0
VERTEX
  8
SUNPOU
  5
6BEF1
 10
15947.5
 20
10903.2
 30
0.000000
  70
    32
  0
VERTEX
  8
SUNPOU
  5
6BEF2
 10
15947.1
 20
10903.3
 30
0.000000
  70
    32
  0
VERTEX
  8
SUNPOU
  5
6BEF3
 10
15946.8
 20
10903.4
 30
0.000000
  70
    32
  0
VERTEX
  8
SUNPOU
  5
6BEF4
 10
15946.4
 20
10903.5
 30
0.000000
  70
    32
  0
VERTEX
  8
SUNPOU
  5
6BEF5
 10
15946.1
 20
10903.6
 30
0.000000
  70
    32
  0
VERTEX
  8
SUNPOU
  5
6BEF6
 10
15945.7
 20
10903.7
 30
0.000000
  70
    32
  0
VERTEX
  8
SUNPOU
  5
6BEF7
 10
15945.4
 20
10903.9
 30
0.000000
  70
    32
  0
VERTEX
  8
SUNPOU
  5
6BEF8
 10
15945.1
 20
10904.0
 30
0.000000
  70
    32
  0
VERTEX
  8
SUNPOU
  5
6BEF9
 10
15944.7
 20
10904.2
 30
0.000000
  70
    32
  0
VERTEX
  8
SUNPOU
  5
6BEFA
 10
15944.4
 20
10904.3
 30
0.000000
  70
    32
  0
VERTEX
  8
SUNPOU
  5
6BEFB
 10
15944.1
 20
10904.5
 30
0.000000
  70
    32
  0
VERTEX
  8
SUNPOU
  5
6BEFC
 10
15943.8
 20
10904.7
 30
0.000000
  70
    32
  0
VERTEX
  8
SUNPOU
  5
6BEFD
 10
15943.4
 20
10904.9
 30
0.000000
  70
    32
  0
VERTEX
  8
SUNPOU
  5
6BEFE
 10
15943.1
 20
10905.1
 30
0.000000
  70
    32
  0
VERTEX
  8
SUNPOU
  5
6BEFF
 10
15942.8
 20
10905.3
 30
0.000000
  70
    32
  0
VERTEX
  8
SUNPOU
  5
6BF00
 10
15942.5
 20
10905.5
 30
0.000000
  70
    32
  0
VERTEX
  8
SUNPOU
  5
6BF01
 10
15942.2
 20
10905.7
 30
0.000000
  70
    32
  0
VERTEX
  8
SUNPOU
  5
6BF02
 10
15941.9
 20
10905.9
 30
0.000000
  70
    32
  0
VERTEX
  8
SUNPOU
  5
6BF03
 10
15941.6
 20
10906.1
 30
0.000000
  70
    32
  0
VERTEX
  8
SUNPOU
  5
6BF04
 10
15941.4
 20
10906.4
 30
0.000000
  70
    32
  0
VERTEX
  8
SUNPOU
  5
6BF05
 10
15941.1
 20
10906.6
 30
0.000000
  70
    32
  0
VERTEX
  8
SUNPOU
  5
6BF06
 10
15940.8
 20
10906.9
 30
0.000000
  70
    32
  0
VERTEX
  8
SUNPOU
  5
6BF07
 10
15940.5
 20
10907.1
 30
0.000000
  70
    32
  0
VERTEX
  8
SUNPOU
  5
6BF08
 10
15940.3
 20
10907.4
 30
0.000000
  70
    32
  0
VERTEX
  8
SUNPOU
  5
6BF09
 10
15940.0
 20
10907.7
 30
0.000000
  70
    32
  0
VERTEX
  8
SUNPOU
  5
6BF0A
 10
15939.8
 20
10907.9
 30
0.000000
  70
    32
  0
VERTEX
  8
SUNPOU
  5
6BF0B
 10
15939.6
 20
10908.2
 30
0.000000
  70
    32
  0
VERTEX
  8
SUNPOU
  5
6BF0C
 10
15939.3
 20
10908.5
 30
0.000000
  70
    32
  0
VERTEX
  8
SUNPOU
  5
6BF0D
 10
15939.1
 20
10908.8
 30
0.000000
  70
    32
  0
VERTEX
  8
SUNPOU
  5
6BF0E
 10
15938.9
 20
10909.1
 30
0.000000
  70
    32
  0
VERTEX
  8
SUNPOU
  5
6BF0F
 10
15938.7
 20
10909.4
 30
0.000000
  70
    32
  0
VERTEX
  8
SUNPOU
  5
6BF10
 10
15938.5
 20
10909.7
 30
0.000000
  70
    32
  0
VERTEX
  8
SUNPOU
  5
6BF11
 10
15938.3
 20
10910.0
 30
0.000000
  70
    32
  0
VERTEX
  8
SUNPOU
  5
6BF12
 10
15938.1
 20
10910.3
 30
0.000000
  70
    32
  0
VERTEX
  8
SUNPOU
  5
6BF13
 10
15937.9
 20
10910.7
 30
0.000000
  70
    32
  0
VERTEX
  8
SUNPOU
  5
6BF14
 10
15937.7
 20
10911.0
 30
0.000000
  70
    32
  0
VERTEX
  8
SUNPOU
  5
6BF15
 10
15937.6
 20
10911.3
 30
0.000000
  70
    32
  0
VERTEX
  8
SUNPOU
  5
6BF16
 10
15937.4
 20
10911.7
 30
0.000000
  70
    32
  0
VERTEX
  8
SUNPOU
  5
6BF17
 10
15937.3
 20
10912.0
 30
0.000000
  70
    32
  0
VERTEX
  8
SUNPOU
  5
6BF18
 10
15937.2
 20
10912.3
 30
0.000000
  70
    32
  0
VERTEX
  8
SUNPOU
  5
6BF19
 10
15937.0
 20
10912.7
 30
0.000000
  70
    32
  0
VERTEX
  8
SUNPOU
  5
6BF1A
 10
15936.9
 20
10913.0
 30
0.000000
  70
    32
  0
VERTEX
  8
SUNPOU
  5
6BF1B
 10
15936.8
 20
10913.4
 30
0.000000
  70
    32
  0
VERTEX
  8
SUNPOU
  5
6BF1C
 10
15936.7
 20
10913.7
 30
0.000000
  70
    32
  0
VERTEX
  8
SUNPOU
  5
6BF1D
 10
15936.6
 20
10914.1
 30
0.000000
  70
    32
  0
VERTEX
  8
SUNPOU
  5
6BF1E
 10
15936.5
 20
10914.5
 30
0.000000
  70
    32
  0
VERTEX
  8
SUNPOU
  5
6BF1F
 10
15936.4
 20
10914.8
 30
0.000000
  70
    32
  0
VERTEX
  8
SUNPOU
  5
6BF20
 10
15936.4
 20
10915.2
 30
0.000000
  70
    32
  0
VERTEX
  8
SUNPOU
  5
6BF21
 10
15936.3
 20
10915.5
 30
0.000000
  70
    32
  0
VERTEX
  8
SUNPOU
  5
6BF22
 10
15936.3
 20
10915.9
 30
0.000000
  70
    32
  0
VERTEX
  8
SUNPOU
  5
6BF23
 10
15936.2
 20
10916.3
 30
0.000000
  70
    32
  0
VERTEX
  8
SUNPOU
  5
6BF24
 10
15936.2
 20
10916.6
 30
0.000000
  70
    32
  0
VERTEX
  8
SUNPOU
  5
6BF25
 10
15936.2
 20
10917.0
 30
0.000000
  70
    32
  0
VERTEX
  8
SUNPOU
  5
6BF26
 10
15936.2
 20
10917.4
 30
0.000000
  70
    32
  0
VERTEX
  8
SUNPOU
  5
6BF27
 10
15936.1
 20
10917.7
 30
0.000000
  70
    32
  0
VERTEX
  8
SUNPOU
  5
6BF28
 10
15936.2
 20
10918.1
 30
0.000000
  70
    32
  0
VERTEX
  8
SUNPOU
  5
6BF29
 10
15936.2
 20
10918.5
 30
0.000000
  70
    32
  0
VERTEX
  8
SUNPOU
  5
6BF2A
 10
15936.2
 20
10918.8
 30
0.000000
  70
    32
  0
VERTEX
  8
SUNPOU
  5
6BF2B
 10
15936.2
 20
10919.2
 30
0.000000
  70
    32
  0
VERTEX
  8
SUNPOU
  5
6BF2C
 10
15936.3
 20
10919.6
 30
0.000000
  70
    32
  0
VERTEX
  8
SUNPOU
  5
6BF2D
 10
15936.3
 20
10919.9
 30
0.000000
  70
    32
  0
VERTEX
  8
SUNPOU
  5
6BF2E
 10
15936.4
 20
10920.3
 30
0.000000
  70
    32
  0
VERTEX
  8
SUNPOU
  5
6BF2F
 10
15936.4
 20
10920.7
 30
0.000000
  70
    32
  0
VERTEX
  8
SUNPOU
  5
6BF30
 10
15936.5
 20
10921.0
 30
0.000000
  70
    32
  0
VERTEX
  8
SUNPOU
  5
6BF31
 10
15936.6
 20
10921.4
 30
0.000000
  70
    32
  0
VERTEX
  8
SUNPOU
  5
6BF32
 10
15936.7
 20
10921.7
 30
0.000000
  70
    32
  0
VERTEX
  8
SUNPOU
  5
6BF33
 10
15936.8
 20
10922.1
 30
0.000000
  70
    32
  0
VERTEX
  8
SUNPOU
  5
6BF34
 10
15936.9
 20
10922.4
 30
0.000000
  70
    32
  0
VERTEX
  8
SUNPOU
  5
6BF35
 10
15937.0
 20
10922.8
 30
0.000000
  70
    32
  0
VERTEX
  8
SUNPOU
  5
6BF36
 10
15937.2
 20
10923.1
 30
0.000000
  70
    32
  0
VERTEX
  8
SUNPOU
  5
6BF37
 10
15937.3
 20
10923.5
 30
0.000000
  70
    32
  0
VERTEX
  8
SUNPOU
  5
6BF38
 10
15937.4
 20
10923.8
 30
0.000000
  70
    32
  0
VERTEX
  8
SUNPOU
  5
6BF39
 10
15937.6
 20
10924.2
 30
0.000000
  70
    32
  0
VERTEX
  8
SUNPOU
  5
6BF3A
 10
15937.7
 20
10924.5
 30
0.000000
  70
    32
  0
VERTEX
  8
SUNPOU
  5
6BF3B
 10
15937.9
 20
10924.8
 30
0.000000
  70
    32
  0
VERTEX
  8
SUNPOU
  5
6BF3C
 10
15938.1
 20
10925.1
 30
0.000000
  70
    32
  0
VERTEX
  8
SUNPOU
  5
6BF3D
 10
15938.3
 20
10925.5
 30
0.000000
  70
    32
  0
VERTEX
  8
SUNPOU
  5
6BF3E
 10
15938.5
 20
10925.8
 30
0.000000
  70
    32
  0
VERTEX
  8
SUNPOU
  5
6BF3F
 10
15938.7
 20
10926.1
 30
0.000000
  70
    32
  0
VERTEX
  8
SUNPOU
  5
6BF40
 10
15938.9
 20
10926.4
 30
0.000000
  70
    32
  0
VERTEX
  8
SUNPOU
  5
6BF41
 10
15939.1
 20
10926.7
 30
0.000000
  70
    32
  0
VERTEX
  8
SUNPOU
  5
6BF42
 10
15939.3
 20
10927.0
 30
0.000000
  70
    32
  0
VERTEX
  8
SUNPOU
  5
6BF43
 10
15939.6
 20
10927.3
 30
0.000000
  70
    32
  0
VERTEX
  8
SUNPOU
  5
6BF44
 10
15939.8
 20
10927.5
 30
0.000000
  70
    32
  0
VERTEX
  8
SUNPOU
  5
6BF45
 10
15940.0
 20
10927.8
 30
0.000000
  70
    32
  0
VERTEX
  8
SUNPOU
  5
6BF46
 10
15940.3
 20
10928.1
 30
0.000000
  70
    32
  0
VERTEX
  8
SUNPOU
  5
6BF47
 10
15940.5
 20
10928.3
 30
0.000000
  70
    32
  0
VERTEX
  8
SUNPOU
  5
6BF48
 10
15940.8
 20
10928.6
 30
0.000000
  70
    32
  0
VERTEX
  8
SUNPOU
  5
6BF49
 10
15941.1
 20
10928.9
 30
0.000000
  70
    32
  0
VERTEX
  8
SUNPOU
  5
6BF4A
 10
15941.4
 20
10929.1
 30
0.000000
  70
    32
  0
VERTEX
  8
SUNPOU
  5
6BF4B
 10
15941.6
 20
10929.3
 30
0.000000
  70
    32
  0
VERTEX
  8
SUNPOU
  5
6BF4C
 10
15941.9
 20
10929.6
 30
0.000000
  70
    32
  0
VERTEX
  8
SUNPOU
  5
6BF4D
 10
15942.2
 20
10929.8
 30
0.000000
  70
    32
  0
VERTEX
  8
SUNPOU
  5
6BF4E
 10
15942.5
 20
10930.0
 30
0.000000
  70
    32
  0
VERTEX
  8
SUNPOU
  5
6BF4F
 10
15942.8
 20
10930.2
 30
0.000000
  70
    32
  0
VERTEX
  8
SUNPOU
  5
6BF50
 10
15943.1
 20
10930.4
 30
0.000000
  70
    32
  0
VERTEX
  8
SUNPOU
  5
6BF51
 10
15943.4
 20
10930.6
 30
0.000000
  70
    32
  0
VERTEX
  8
SUNPOU
  5
6BF52
 10
15943.8
 20
10930.8
 30
0.000000
  70
    32
  0
VERTEX
  8
SUNPOU
  5
6BF53
 10
15944.1
 20
10931.0
 30
0.000000
  70
    32
  0
VERTEX
  8
SUNPOU
  5
6BF54
 10
15944.4
 20
10931.1
 30
0.000000
  70
    32
  0
VERTEX
  8
SUNPOU
  5
6BF55
 10
15944.7
 20
10931.3
 30
0.000000
  70
    32
  0
VERTEX
  8
SUNPOU
  5
6BF56
 10
15945.1
 20
10931.5
 30
0.000000
  70
    32
  0
VERTEX
  8
SUNPOU
  5
6BF57
 10
15945.4
 20
10931.6
 30
0.000000
  70
    32
  0
VERTEX
  8
SUNPOU
  5
6BF58
 10
15945.7
 20
10931.7
 30
0.000000
  70
    32
  0
VERTEX
  8
SUNPOU
  5
6BF59
 10
15946.1
 20
10931.9
 30
0.000000
  70
    32
  0
VERTEX
  8
SUNPOU
  5
6BF5A
 10
15946.4
 20
10932.0
 30
0.000000
  70
    32
  0
VERTEX
  8
SUNPOU
  5
6BF5B
 10
15946.8
 20
10932.1
 30
0.000000
  70
    32
  0
VERTEX
  8
SUNPOU
  5
6BF5C
 10
15947.1
 20
10932.2
 30
0.000000
  70
    32
  0
VERTEX
  8
SUNPOU
  5
6BF5D
 10
15947.5
 20
10932.3
 30
0.000000
  70
    32
  0
VERTEX
  8
SUNPOU
  5
6BF5E
 10
15947.9
 20
10932.4
 30
0.000000
  70
    32
  0
VERTEX
  8
SUNPOU
  5
6BF5F
 10
15948.2
 20
10932.5
 30
0.000000
  70
    32
  0
VERTEX
  8
SUNPOU
  5
6BF60
 10
15948.6
 20
10932.5
 30
0.000000
  70
    32
  0
VERTEX
  8
SUNPOU
  5
6BF61
 10
15948.9
 20
10932.6
 30
0.000000
  70
    32
  0
VERTEX
  8
SUNPOU
  5
6BF62
 10
15949.3
 20
10932.6
 30
0.000000
  70
    32
  0
VERTEX
  8
SUNPOU
  5
6BF63
 10
15949.7
 20
10932.7
 30
0.000000
  70
    32
  0
VERTEX
  8
SUNPOU
  5
6BF64
 10
15950.0
 20
10932.7
 30
0.000000
  70
    32
  0
VERTEX
  8
SUNPOU
  5
6BF65
 10
15950.4
 20
10932.7
 30
0.000000
  70
    32
  0
VERTEX
  8
SUNPOU
  5
6BF66
 10
15950.8
 20
10932.7
 30
0.000000
  70
    32
  0
VERTEX
  8
SUNPOU
  5
6BF67
 10
15951.1
 20
10932.7
 30
0.000000
  70
    32
  0
SEQEND
  8
SUNPOU
  5
6BF68
  0
LINE
  5
6BAFE
  8
SUNPOU
 10
15951.148232486839
 20
10947.740239125609
 30
0.0
 11
15951.148232486839
 21
10977.740239125609
 31
0.0
  0
POLYLINE
  5
6BAFF
  8
SUNPOU
 10
15951.148232486839
 20
10902.740239125622
 30
0.0
 66
     1
 70
     8
  0
VERTEX
  8
SUNPOU
  5
6BF69
 10
15951.1
 20
10902.7
 30
0.000000
  70
    32
  0
VERTEX
  8
SUNPOU
  5
6BF6A
 10
15950.8
 20
10902.7
 30
0.000000
  70
    32
  0
VERTEX
  8
SUNPOU
  5
6BF6B
 10
15950.4
 20
10902.8
 30
0.000000
  70
    32
  0
VERTEX
  8
SUNPOU
  5
6BF6C
 10
15950.0
 20
10902.8
 30
0.000000
  70
    32
  0
VERTEX
  8
SUNPOU
  5
6BF6D
 10
15949.7
 20
10902.8
 30
0.000000
  70
    32
  0
VERTEX
  8
SUNPOU
  5
6BF6E
 10
15949.3
 20
10902.9
 30
0.000000
  70
    32
  0
VERTEX
  8
SUNPOU
  5
6BF6F
 10
15948.9
 20
10902.9
 30
0.000000
  70
    32
  0
VERTEX
  8
SUNPOU
  5
6BF70
 10
15948.6
 20
10903.0
 30
0.000000
  70
    32
  0
VERTEX
  8
SUNPOU
  5
6BF71
 10
15948.2
 20
10903.0
 30
0.000000
  70
    32
  0
VERTEX
  8
SUNPOU
  5
6BF72
 10
15947.9
 20
10903.1
 30
0.000000
  70
    32
  0
VERTEX
  8
SUNPOU
  5
6BF73
 10
15947.5
 20
10903.2
 30
0.000000
  70
    32
  0
VERTEX
  8
SUNPOU
  5
6BF74
 10
15947.1
 20
10903.3
 30
0.000000
  70
    32
  0
VERTEX
  8
SUNPOU
  5
6BF75
 10
15946.8
 20
10903.4
 30
0.000000
  70
    32
  0
VERTEX
  8
SUNPOU
  5
6BF76
 10
15946.4
 20
10903.5
 30
0.000000
  70
    32
  0
VERTEX
  8
SUNPOU
  5
6BF77
 10
15946.1
 20
10903.6
 30
0.000000
  70
    32
  0
VERTEX
  8
SUNPOU
  5
6BF78
 10
15945.7
 20
10903.7
 30
0.000000
  70
    32
  0
VERTEX
  8
SUNPOU
  5
6BF79
 10
15945.4
 20
10903.9
 30
0.000000
  70
    32
  0
VERTEX
  8
SUNPOU
  5
6BF7A
 10
15945.1
 20
10904.0
 30
0.000000
  70
    32
  0
VERTEX
  8
SUNPOU
  5
6BF7B
 10
15944.7
 20
10904.2
 30
0.000000
  70
    32
  0
VERTEX
  8
SUNPOU
  5
6BF7C
 10
15944.4
 20
10904.3
 30
0.000000
  70
    32
  0
VERTEX
  8
SUNPOU
  5
6BF7D
 10
15944.1
 20
10904.5
 30
0.000000
  70
    32
  0
VERTEX
  8
SUNPOU
  5
6BF7E
 10
15943.8
 20
10904.7
 30
0.000000
  70
    32
  0
VERTEX
  8
SUNPOU
  5
6BF7F
 10
15943.4
 20
10904.9
 30
0.000000
  70
    32
  0
VERTEX
  8
SUNPOU
  5
6BF80
 10
15943.1
 20
10905.1
 30
0.000000
  70
    32
  0
VERTEX
  8
SUNPOU
  5
6BF81
 10
15942.8
 20
10905.3
 30
0.000000
  70
    32
  0
VERTEX
  8
SUNPOU
  5
6BF82
 10
15942.5
 20
10905.5
 30
0.000000
  70
    32
  0
VERTEX
  8
SUNPOU
  5
6BF83
 10
15942.2
 20
10905.7
 30
0.000000
  70
    32
  0
VERTEX
  8
SUNPOU
  5
6BF84
 10
15941.9
 20
10905.9
 30
0.000000
  70
    32
  0
VERTEX
  8
SUNPOU
  5
6BF85
 10
15941.6
 20
10906.1
 30
0.000000
  70
    32
  0
VERTEX
  8
SUNPOU
  5
6BF86
 10
15941.4
 20
10906.4
 30
0.000000
  70
    32
  0
VERTEX
  8
SUNPOU
  5
6BF87
 10
15941.1
 20
10906.6
 30
0.000000
  70
    32
  0
VERTEX
  8
SUNPOU
  5
6BF88
 10
15940.8
 20
10906.9
 30
0.000000
  70
    32
  0
VERTEX
  8
SUNPOU
  5
6BF89
 10
15940.5
 20
10907.1
 30
0.000000
  70
    32
  0
VERTEX
  8
SUNPOU
  5
6BF8A
 10
15940.3
 20
10907.4
 30
0.000000
  70
    32
  0
VERTEX
  8
SUNPOU
  5
6BF8B
 10
15940.0
 20
10907.7
 30
0.000000
  70
    32
  0
VERTEX
  8
SUNPOU
  5
6BF8C
 10
15939.8
 20
10907.9
 30
0.000000
  70
    32
  0
VERTEX
  8
SUNPOU
  5
6BF8D
 10
15939.6
 20
10908.2
 30
0.000000
  70
    32
  0
VERTEX
  8
SUNPOU
  5
6BF8E
 10
15939.3
 20
10908.5
 30
0.000000
  70
    32
  0
VERTEX
  8
SUNPOU
  5
6BF8F
 10
15939.1
 20
10908.8
 30
0.000000
  70
    32
  0
VERTEX
  8
SUNPOU
  5
6BF90
 10
15938.9
 20
10909.1
 30
0.000000
  70
    32
  0
VERTEX
  8
SUNPOU
  5
6BF91
 10
15938.7
 20
10909.4
 30
0.000000
  70
    32
  0
VERTEX
  8
SUNPOU
  5
6BF92
 10
15938.5
 20
10909.7
 30
0.000000
  70
    32
  0
VERTEX
  8
SUNPOU
  5
6BF93
 10
15938.3
 20
10910.0
 30
0.000000
  70
    32
  0
VERTEX
  8
SUNPOU
  5
6BF94
 10
15938.1
 20
10910.3
 30
0.000000
  70
    32
  0
VERTEX
  8
SUNPOU
  5
6BF95
 10
15937.9
 20
10910.7
 30
0.000000
  70
    32
  0
VERTEX
  8
SUNPOU
  5
6BF96
 10
15937.7
 20
10911.0
 30
0.000000
  70
    32
  0
VERTEX
  8
SUNPOU
  5
6BF97
 10
15937.6
 20
10911.3
 30
0.000000
  70
    32
  0
VERTEX
  8
SUNPOU
  5
6BF98
 10
15937.4
 20
10911.7
 30
0.000000
  70
    32
  0
VERTEX
  8
SUNPOU
  5
6BF99
 10
15937.3
 20
10912.0
 30
0.000000
  70
    32
  0
VERTEX
  8
SUNPOU
  5
6BF9A
 10
15937.2
 20
10912.3
 30
0.000000
  70
    32
  0
VERTEX
  8
SUNPOU
  5
6BF9B
 10
15937.0
 20
10912.7
 30
0.000000
  70
    32
  0
VERTEX
  8
SUNPOU
  5
6BF9C
 10
15936.9
 20
10913.0
 30
0.000000
  70
    32
  0
VERTEX
  8
SUNPOU
  5
6BF9D
 10
15936.8
 20
10913.4
 30
0.000000
  70
    32
  0
VERTEX
  8
SUNPOU
  5
6BF9E
 10
15936.7
 20
10913.7
 30
0.000000
  70
    32
  0
VERTEX
  8
SUNPOU
  5
6BF9F
 10
15936.6
 20
10914.1
 30
0.000000
  70
    32
  0
VERTEX
  8
SUNPOU
  5
6BFA0
 10
15936.5
 20
10914.5
 30
0.000000
  70
    32
  0
VERTEX
  8
SUNPOU
  5
6BFA1
 10
15936.4
 20
10914.8
 30
0.000000
  70
    32
  0
VERTEX
  8
SUNPOU
  5
6BFA2
 10
15936.4
 20
10915.2
 30
0.000000
  70
    32
  0
VERTEX
  8
SUNPOU
  5
6BFA3
 10
15936.3
 20
10915.5
 30
0.000000
  70
    32
  0
VERTEX
  8
SUNPOU
  5
6BFA4
 10
15936.3
 20
10915.9
 30
0.000000
  70
    32
  0
VERTEX
  8
SUNPOU
  5
6BFA5
 10
15936.2
 20
10916.3
 30
0.000000
  70
    32
  0
VERTEX
  8
SUNPOU
  5
6BFA6
 10
15936.2
 20
10916.6
 30
0.000000
  70
    32
  0
VERTEX
  8
SUNPOU
  5
6BFA7
 10
15936.2
 20
10917.0
 30
0.000000
  70
    32
  0
VERTEX
  8
SUNPOU
  5
6BFA8
 10
15936.2
 20
10917.4
 30
0.000000
  70
    32
  0
VERTEX
  8
SUNPOU
  5
6BFA9
 10
15936.1
 20
10917.7
 30
0.000000
  70
    32
  0
VERTEX
  8
SUNPOU
  5
6BFAA
 10
15936.2
 20
10918.1
 30
0.000000
  70
    32
  0
VERTEX
  8
SUNPOU
  5
6BFAB
 10
15936.2
 20
10918.5
 30
0.000000
  70
    32
  0
VERTEX
  8
SUNPOU
  5
6BFAC
 10
15936.2
 20
10918.8
 30
0.000000
  70
    32
  0
VERTEX
  8
SUNPOU
  5
6BFAD
 10
15936.2
 20
10919.2
 30
0.000000
  70
    32
  0
VERTEX
  8
SUNPOU
  5
6BFAE
 10
15936.3
 20
10919.6
 30
0.000000
  70
    32
  0
VERTEX
  8
SUNPOU
  5
6BFAF
 10
15936.3
 20
10919.9
 30
0.000000
  70
    32
  0
VERTEX
  8
SUNPOU
  5
6BFB0
 10
15936.4
 20
10920.3
 30
0.000000
  70
    32
  0
VERTEX
  8
SUNPOU
  5
6BFB1
 10
15936.4
 20
10920.7
 30
0.000000
  70
    32
  0
VERTEX
  8
SUNPOU
  5
6BFB2
 10
15936.5
 20
10921.0
 30
0.000000
  70
    32
  0
VERTEX
  8
SUNPOU
  5
6BFB3
 10
15936.6
 20
10921.4
 30
0.000000
  70
    32
  0
VERTEX
  8
SUNPOU
  5
6BFB4
 10
15936.7
 20
10921.7
 30
0.000000
  70
    32
  0
VERTEX
  8
SUNPOU
  5
6BFB5
 10
15936.8
 20
10922.1
 30
0.000000
  70
    32
  0
VERTEX
  8
SUNPOU
  5
6BFB6
 10
15936.9
 20
10922.4
 30
0.000000
  70
    32
  0
VERTEX
  8
SUNPOU
  5
6BFB7
 10
15937.0
 20
10922.8
 30
0.000000
  70
    32
  0
VERTEX
  8
SUNPOU
  5
6BFB8
 10
15937.2
 20
10923.1
 30
0.000000
  70
    32
  0
VERTEX
  8
SUNPOU
  5
6BFB9
 10
15937.3
 20
10923.5
 30
0.000000
  70
    32
  0
VERTEX
  8
SUNPOU
  5
6BFBA
 10
15937.4
 20
10923.8
 30
0.000000
  70
    32
  0
VERTEX
  8
SUNPOU
  5
6BFBB
 10
15937.6
 20
10924.2
 30
0.000000
  70
    32
  0
VERTEX
  8
SUNPOU
  5
6BFBC
 10
15937.7
 20
10924.5
 30
0.000000
  70
    32
  0
VERTEX
  8
SUNPOU
  5
6BFBD
 10
15937.9
 20
10924.8
 30
0.000000
  70
    32
  0
VERTEX
  8
SUNPOU
  5
6BFBE
 10
15938.1
 20
10925.1
 30
0.000000
  70
    32
  0
VERTEX
  8
SUNPOU
  5
6BFBF
 10
15938.3
 20
10925.5
 30
0.000000
  70
    32
  0
VERTEX
  8
SUNPOU
  5
6BFC0
 10
15938.5
 20
10925.8
 30
0.000000
  70
    32
  0
VERTEX
  8
SUNPOU
  5
6BFC1
 10
15938.7
 20
10926.1
 30
0.000000
  70
    32
  0
VERTEX
  8
SUNPOU
  5
6BFC2
 10
15938.9
 20
10926.4
 30
0.000000
  70
    32
  0
VERTEX
  8
SUNPOU
  5
6BFC3
 10
15939.1
 20
10926.7
 30
0.000000
  70
    32
  0
VERTEX
  8
SUNPOU
  5
6BFC4
 10
15939.3
 20
10927.0
 30
0.000000
  70
    32
  0
VERTEX
  8
SUNPOU
  5
6BFC5
 10
15939.6
 20
10927.3
 30
0.000000
  70
    32
  0
VERTEX
  8
SUNPOU
  5
6BFC6
 10
15939.8
 20
10927.5
 30
0.000000
  70
    32
  0
VERTEX
  8
SUNPOU
  5
6BFC7
 10
15940.0
 20
10927.8
 30
0.000000
  70
    32
  0
VERTEX
  8
SUNPOU
  5
6BFC8
 10
15940.3
 20
10928.1
 30
0.000000
  70
    32
  0
VERTEX
  8
SUNPOU
  5
6BFC9
 10
15940.5
 20
10928.3
 30
0.000000
  70
    32
  0
VERTEX
  8
SUNPOU
  5
6BFCA
 10
15940.8
 20
10928.6
 30
0.000000
  70
    32
  0
VERTEX
  8
SUNPOU
  5
6BFCB
 10
15941.1
 20
10928.9
 30
0.000000
  70
    32
  0
VERTEX
  8
SUNPOU
  5
6BFCC
 10
15941.4
 20
10929.1
 30
0.000000
  70
    32
  0
VERTEX
  8
SUNPOU
  5
6BFCD
 10
15941.6
 20
10929.3
 30
0.000000
  70
    32
  0
VERTEX
  8
SUNPOU
  5
6BFCE
 10
15941.9
 20
10929.6
 30
0.000000
  70
    32
  0
VERTEX
  8
SUNPOU
  5
6BFCF
 10
15942.2
 20
10929.8
 30
0.000000
  70
    32
  0
VERTEX
  8
SUNPOU
  5
6BFD0
 10
15942.5
 20
10930.0
 30
0.000000
  70
    32
  0
VERTEX
  8
SUNPOU
  5
6BFD1
 10
15942.8
 20
10930.2
 30
0.000000
  70
    32
  0
VERTEX
  8
SUNPOU
  5
6BFD2
 10
15943.1
 20
10930.4
 30
0.000000
  70
    32
  0
VERTEX
  8
SUNPOU
  5
6BFD3
 10
15943.4
 20
10930.6
 30
0.000000
  70
    32
  0
VERTEX
  8
SUNPOU
  5
6BFD4
 10
15943.8
 20
10930.8
 30
0.000000
  70
    32
  0
VERTEX
  8
SUNPOU
  5
6BFD5
 10
15944.1
 20
10931.0
 30
0.000000
  70
    32
  0
VERTEX
  8
SUNPOU
  5
6BFD6
 10
15944.4
 20
10931.1
 30
0.000000
  70
    32
  0
VERTEX
  8
SUNPOU
  5
6BFD7
 10
15944.7
 20
10931.3
 30
0.000000
  70
    32
  0
VERTEX
  8
SUNPOU
  5
6BFD8
 10
15945.1
 20
10931.5
 30
0.000000
  70
    32
  0
VERTEX
  8
SUNPOU
  5
6BFD9
 10
15945.4
 20
10931.6
 30
0.000000
  70
    32
  0
VERTEX
  8
SUNPOU
  5
6BFDA
 10
15945.7
 20
10931.7
 30
0.000000
  70
    32
  0
VERTEX
  8
SUNPOU
  5
6BFDB
 10
15946.1
 20
10931.9
 30
0.000000
  70
    32
  0
VERTEX
  8
SUNPOU
  5
6BFDC
 10
15946.4
 20
10932.0
 30
0.000000
  70
    32
  0
VERTEX
  8
SUNPOU
  5
6BFDD
 10
15946.8
 20
10932.1
 30
0.000000
  70
    32
  0
VERTEX
  8
SUNPOU
  5
6BFDE
 10
15947.1
 20
10932.2
 30
0.000000
  70
    32
  0
VERTEX
  8
SUNPOU
  5
6BFDF
 10
15947.5
 20
10932.3
 30
0.000000
  70
    32
  0
VERTEX
  8
SUNPOU
  5
6BFE0
 10
15947.9
 20
10932.4
 30
0.000000
  70
    32
  0
VERTEX
  8
SUNPOU
  5
6BFE1
 10
15948.2
 20
10932.5
 30
0.000000
  70
    32
  0
VERTEX
  8
SUNPOU
  5
6BFE2
 10
15948.6
 20
10932.5
 30
0.000000
  70
    32
  0
VERTEX
  8
SUNPOU
  5
6BFE3
 10
15948.9
 20
10932.6
 30
0.000000
  70
    32
  0
VERTEX
  8
SUNPOU
  5
6BFE4
 10
15949.3
 20
10932.6
 30
0.000000
  70
    32
  0
VERTEX
  8
SUNPOU
  5
6BFE5
 10
15949.7
 20
10932.7
 30
0.000000
  70
    32
  0
VERTEX
  8
SUNPOU
  5
6BFE6
 10
15950.0
 20
10932.7
 30
0.000000
  70
    32
  0
VERTEX
  8
SUNPOU
  5
6BFE7
 10
15950.4
 20
10932.7
 30
0.000000
  70
    32
  0
VERTEX
  8
SUNPOU
  5
6BFE8
 10
15950.8
 20
10932.7
 30
0.000000
  70
    32
  0
VERTEX
  8
SUNPOU
  5
6BFE9
 10
15951.1
 20
10932.7
 30
0.000000
  70
    32
  0
SEQEND
  8
SUNPOU
  5
6BFEA
  0
POLYLINE
  5
6BB00
  8
SUNPOU
 10
15951.148232486839
 20
10932.740239125618
 30
0.0
 66
     1
 70
     8
  0
VERTEX
  8
SUNPOU
  5
6BFEB
 10
15951.1
 20
10932.7
 30
0.000000
  70
    32
  0
VERTEX
  8
SUNPOU
  5
6BFEC
 10
15951.5
 20
10932.7
 30
0.000000
  70
    32
  0
VERTEX
  8
SUNPOU
  5
6BFED
 10
15951.9
 20
10932.7
 30
0.000000
  70
    32
  0
VERTEX
  8
SUNPOU
  5
6BFEE
 10
15952.3
 20
10932.7
 30
0.000000
  70
    32
  0
VERTEX
  8
SUNPOU
  5
6BFEF
 10
15952.6
 20
10932.7
 30
0.000000
  70
    32
  0
VERTEX
  8
SUNPOU
  5
6BFF0
 10
15953.0
 20
10932.6
 30
0.000000
  70
    32
  0
VERTEX
  8
SUNPOU
  5
6BFF1
 10
15953.3
 20
10932.6
 30
0.000000
  70
    32
  0
VERTEX
  8
SUNPOU
  5
6BFF2
 10
15953.7
 20
10932.5
 30
0.000000
  70
    32
  0
VERTEX
  8
SUNPOU
  5
6BFF3
 10
15954.1
 20
10932.5
 30
0.000000
  70
    32
  0
VERTEX
  8
SUNPOU
  5
6BFF4
 10
15954.4
 20
10932.4
 30
0.000000
  70
    32
  0
VERTEX
  8
SUNPOU
  5
6BFF5
 10
15954.8
 20
10932.3
 30
0.000000
  70
    32
  0
VERTEX
  8
SUNPOU
  5
6BFF6
 10
15955.1
 20
10932.2
 30
0.000000
  70
    32
  0
VERTEX
  8
SUNPOU
  5
6BFF7
 10
15955.5
 20
10932.1
 30
0.000000
  70
    32
  0
VERTEX
  8
SUNPOU
  5
6BFF8
 10
15955.9
 20
10932.0
 30
0.000000
  70
    32
  0
VERTEX
  8
SUNPOU
  5
6BFF9
 10
15956.2
 20
10931.9
 30
0.000000
  70
    32
  0
VERTEX
  8
SUNPOU
  5
6BFFA
 10
15956.5
 20
10931.7
 30
0.000000
  70
    32
  0
VERTEX
  8
SUNPOU
  5
6BFFB
 10
15956.9
 20
10931.6
 30
0.000000
  70
    32
  0
VERTEX
  8
SUNPOU
  5
6BFFC
 10
15957.2
 20
10931.5
 30
0.000000
  70
    32
  0
VERTEX
  8
SUNPOU
  5
6BFFD
 10
15957.6
 20
10931.3
 30
0.000000
  70
    32
  0
VERTEX
  8
SUNPOU
  5
6BFFE
 10
15957.9
 20
10931.1
 30
0.000000
  70
    32
  0
VERTEX
  8
SUNPOU
  5
6BFFF
 10
15958.2
 20
10931.0
 30
0.000000
  70
    32
  0
VERTEX
  8
SUNPOU
  5
6C000
 10
15958.5
 20
10930.8
 30
0.000000
  70
    32
  0
VERTEX
  8
SUNPOU
  5
6C001
 10
15958.9
 20
10930.6
 30
0.000000
  70
    32
  0
VERTEX
  8
SUNPOU
  5
6C002
 10
15959.2
 20
10930.4
 30
0.000000
  70
    32
  0
VERTEX
  8
SUNPOU
  5
6C003
 10
15959.5
 20
10930.2
 30
0.000000
  70
    32
  0
VERTEX
  8
SUNPOU
  5
6C004
 10
15959.8
 20
10930.0
 30
0.000000
  70
    32
  0
VERTEX
  8
SUNPOU
  5
6C005
 10
15960.1
 20
10929.8
 30
0.000000
  70
    32
  0
VERTEX
  8
SUNPOU
  5
6C006
 10
15960.4
 20
10929.6
 30
0.000000
  70
    32
  0
VERTEX
  8
SUNPOU
  5
6C007
 10
15960.7
 20
10929.3
 30
0.000000
  70
    32
  0
VERTEX
  8
SUNPOU
  5
6C008
 10
15960.9
 20
10929.1
 30
0.000000
  70
    32
  0
VERTEX
  8
SUNPOU
  5
6C009
 10
15961.2
 20
10928.9
 30
0.000000
  70
    32
  0
VERTEX
  8
SUNPOU
  5
6C00A
 10
15961.5
 20
10928.6
 30
0.000000
  70
    32
  0
VERTEX
  8
SUNPOU
  5
6C00B
 10
15961.8
 20
10928.3
 30
0.000000
  70
    32
  0
VERTEX
  8
SUNPOU
  5
6C00C
 10
15962.0
 20
10928.1
 30
0.000000
  70
    32
  0
VERTEX
  8
SUNPOU
  5
6C00D
 10
15962.3
 20
10927.8
 30
0.000000
  70
    32
  0
VERTEX
  8
SUNPOU
  5
6C00E
 10
15962.5
 20
10927.5
 30
0.000000
  70
    32
  0
VERTEX
  8
SUNPOU
  5
6C00F
 10
15962.7
 20
10927.3
 30
0.000000
  70
    32
  0
VERTEX
  8
SUNPOU
  5
6C010
 10
15963.0
 20
10927.0
 30
0.000000
  70
    32
  0
VERTEX
  8
SUNPOU
  5
6C011
 10
15963.2
 20
10926.7
 30
0.000000
  70
    32
  0
VERTEX
  8
SUNPOU
  5
6C012
 10
15963.4
 20
10926.4
 30
0.000000
  70
    32
  0
VERTEX
  8
SUNPOU
  5
6C013
 10
15963.6
 20
10926.1
 30
0.000000
  70
    32
  0
VERTEX
  8
SUNPOU
  5
6C014
 10
15963.8
 20
10925.8
 30
0.000000
  70
    32
  0
VERTEX
  8
SUNPOU
  5
6C015
 10
15964.0
 20
10925.5
 30
0.000000
  70
    32
  0
VERTEX
  8
SUNPOU
  5
6C016
 10
15964.2
 20
10925.1
 30
0.000000
  70
    32
  0
VERTEX
  8
SUNPOU
  5
6C017
 10
15964.4
 20
10924.8
 30
0.000000
  70
    32
  0
VERTEX
  8
SUNPOU
  5
6C018
 10
15964.5
 20
10924.5
 30
0.000000
  70
    32
  0
VERTEX
  8
SUNPOU
  5
6C019
 10
15964.7
 20
10924.2
 30
0.000000
  70
    32
  0
VERTEX
  8
SUNPOU
  5
6C01A
 10
15964.9
 20
10923.8
 30
0.000000
  70
    32
  0
VERTEX
  8
SUNPOU
  5
6C01B
 10
15965.0
 20
10923.5
 30
0.000000
  70
    32
  0
VERTEX
  8
SUNPOU
  5
6C01C
 10
15965.1
 20
10923.1
 30
0.000000
  70
    32
  0
VERTEX
  8
SUNPOU
  5
6C01D
 10
15965.3
 20
10922.8
 30
0.000000
  70
    32
  0
VERTEX
  8
SUNPOU
  5
6C01E
 10
15965.4
 20
10922.4
 30
0.000000
  70
    32
  0
VERTEX
  8
SUNPOU
  5
6C01F
 10
15965.5
 20
10922.1
 30
0.000000
  70
    32
  0
VERTEX
  8
SUNPOU
  5
6C020
 10
15965.6
 20
10921.7
 30
0.000000
  70
    32
  0
VERTEX
  8
SUNPOU
  5
6C021
 10
15965.7
 20
10921.4
 30
0.000000
  70
    32
  0
VERTEX
  8
SUNPOU
  5
6C022
 10
15965.8
 20
10921.0
 30
0.000000
  70
    32
  0
VERTEX
  8
SUNPOU
  5
6C023
 10
15965.9
 20
10920.7
 30
0.000000
  70
    32
  0
VERTEX
  8
SUNPOU
  5
6C024
 10
15965.9
 20
10920.3
 30
0.000000
  70
    32
  0
VERTEX
  8
SUNPOU
  5
6C025
 10
15966.0
 20
10919.9
 30
0.000000
  70
    32
  0
VERTEX
  8
SUNPOU
  5
6C026
 10
15966.0
 20
10919.6
 30
0.000000
  70
    32
  0
VERTEX
  8
SUNPOU
  5
6C027
 10
15966.1
 20
10919.2
 30
0.000000
  70
    32
  0
VERTEX
  8
SUNPOU
  5
6C028
 10
15966.1
 20
10918.8
 30
0.000000
  70
    32
  0
VERTEX
  8
SUNPOU
  5
6C029
 10
15966.1
 20
10918.5
 30
0.000000
  70
    32
  0
VERTEX
  8
SUNPOU
  5
6C02A
 10
15966.1
 20
10918.1
 30
0.000000
  70
    32
  0
VERTEX
  8
SUNPOU
  5
6C02B
 10
15966.1
 20
10917.7
 30
0.000000
  70
    32
  0
VERTEX
  8
SUNPOU
  5
6C02C
 10
15966.1
 20
10917.4
 30
0.000000
  70
    32
  0
VERTEX
  8
SUNPOU
  5
6C02D
 10
15966.1
 20
10917.0
 30
0.000000
  70
    32
  0
VERTEX
  8
SUNPOU
  5
6C02E
 10
15966.1
 20
10916.6
 30
0.000000
  70
    32
  0
VERTEX
  8
SUNPOU
  5
6C02F
 10
15966.1
 20
10916.3
 30
0.000000
  70
    32
  0
VERTEX
  8
SUNPOU
  5
6C030
 10
15966.0
 20
10915.9
 30
0.000000
  70
    32
  0
VERTEX
  8
SUNPOU
  5
6C031
 10
15966.0
 20
10915.5
 30
0.000000
  70
    32
  0
VERTEX
  8
SUNPOU
  5
6C032
 10
15965.9
 20
10915.2
 30
0.000000
  70
    32
  0
VERTEX
  8
SUNPOU
  5
6C033
 10
15965.9
 20
10914.8
 30
0.000000
  70
    32
  0
VERTEX
  8
SUNPOU
  5
6C034
 10
15965.8
 20
10914.5
 30
0.000000
  70
    32
  0
VERTEX
  8
SUNPOU
  5
6C035
 10
15965.7
 20
10914.1
 30
0.000000
  70
    32
  0
VERTEX
  8
SUNPOU
  5
6C036
 10
15965.6
 20
10913.7
 30
0.000000
  70
    32
  0
VERTEX
  8
SUNPOU
  5
6C037
 10
15965.5
 20
10913.4
 30
0.000000
  70
    32
  0
VERTEX
  8
SUNPOU
  5
6C038
 10
15965.4
 20
10913.0
 30
0.000000
  70
    32
  0
VERTEX
  8
SUNPOU
  5
6C039
 10
15965.3
 20
10912.7
 30
0.000000
  70
    32
  0
VERTEX
  8
SUNPOU
  5
6C03A
 10
15965.1
 20
10912.3
 30
0.000000
  70
    32
  0
VERTEX
  8
SUNPOU
  5
6C03B
 10
15965.0
 20
10912.0
 30
0.000000
  70
    32
  0
VERTEX
  8
SUNPOU
  5
6C03C
 10
15964.9
 20
10911.7
 30
0.000000
  70
    32
  0
VERTEX
  8
SUNPOU
  5
6C03D
 10
15964.7
 20
10911.3
 30
0.000000
  70
    32
  0
VERTEX
  8
SUNPOU
  5
6C03E
 10
15964.5
 20
10911.0
 30
0.000000
  70
    32
  0
VERTEX
  8
SUNPOU
  5
6C03F
 10
15964.4
 20
10910.7
 30
0.000000
  70
    32
  0
VERTEX
  8
SUNPOU
  5
6C040
 10
15964.2
 20
10910.3
 30
0.000000
  70
    32
  0
VERTEX
  8
SUNPOU
  5
6C041
 10
15964.0
 20
10910.0
 30
0.000000
  70
    32
  0
VERTEX
  8
SUNPOU
  5
6C042
 10
15963.8
 20
10909.7
 30
0.000000
  70
    32
  0
VERTEX
  8
SUNPOU
  5
6C043
 10
15963.6
 20
10909.4
 30
0.000000
  70
    32
  0
VERTEX
  8
SUNPOU
  5
6C044
 10
15963.4
 20
10909.1
 30
0.000000
  70
    32
  0
VERTEX
  8
SUNPOU
  5
6C045
 10
15963.2
 20
10908.8
 30
0.000000
  70
    32
  0
VERTEX
  8
SUNPOU
  5
6C046
 10
15963.0
 20
10908.5
 30
0.000000
  70
    32
  0
VERTEX
  8
SUNPOU
  5
6C047
 10
15962.7
 20
10908.2
 30
0.000000
  70
    32
  0
VERTEX
  8
SUNPOU
  5
6C048
 10
15962.5
 20
10907.9
 30
0.000000
  70
    32
  0
VERTEX
  8
SUNPOU
  5
6C049
 10
15962.3
 20
10907.7
 30
0.000000
  70
    32
  0
VERTEX
  8
SUNPOU
  5
6C04A
 10
15962.0
 20
10907.4
 30
0.000000
  70
    32
  0
VERTEX
  8
SUNPOU
  5
6C04B
 10
15961.8
 20
10907.1
 30
0.000000
  70
    32
  0
VERTEX
  8
SUNPOU
  5
6C04C
 10
15961.5
 20
10906.9
 30
0.000000
  70
    32
  0
VERTEX
  8
SUNPOU
  5
6C04D
 10
15961.2
 20
10906.6
 30
0.000000
  70
    32
  0
VERTEX
  8
SUNPOU
  5
6C04E
 10
15960.9
 20
10906.4
 30
0.000000
  70
    32
  0
VERTEX
  8
SUNPOU
  5
6C04F
 10
15960.7
 20
10906.1
 30
0.000000
  70
    32
  0
VERTEX
  8
SUNPOU
  5
6C050
 10
15960.4
 20
10905.9
 30
0.000000
  70
    32
  0
VERTEX
  8
SUNPOU
  5
6C051
 10
15960.1
 20
10905.7
 30
0.000000
  70
    32
  0
VERTEX
  8
SUNPOU
  5
6C052
 10
15959.8
 20
10905.5
 30
0.000000
  70
    32
  0
VERTEX
  8
SUNPOU
  5
6C053
 10
15959.5
 20
10905.3
 30
0.000000
  70
    32
  0
VERTEX
  8
SUNPOU
  5
6C054
 10
15959.2
 20
10905.1
 30
0.000000
  70
    32
  0
VERTEX
  8
SUNPOU
  5
6C055
 10
15958.9
 20
10904.9
 30
0.000000
  70
    32
  0
VERTEX
  8
SUNPOU
  5
6C056
 10
15958.5
 20
10904.7
 30
0.000000
  70
    32
  0
VERTEX
  8
SUNPOU
  5
6C057
 10
15958.2
 20
10904.5
 30
0.000000
  70
    32
  0
VERTEX
  8
SUNPOU
  5
6C058
 10
15957.9
 20
10904.3
 30
0.000000
  70
    32
  0
VERTEX
  8
SUNPOU
  5
6C059
 10
15957.6
 20
10904.2
 30
0.000000
  70
    32
  0
VERTEX
  8
SUNPOU
  5
6C05A
 10
15957.2
 20
10904.0
 30
0.000000
  70
    32
  0
VERTEX
  8
SUNPOU
  5
6C05B
 10
15956.9
 20
10903.9
 30
0.000000
  70
    32
  0
VERTEX
  8
SUNPOU
  5
6C05C
 10
15956.5
 20
10903.7
 30
0.000000
  70
    32
  0
VERTEX
  8
SUNPOU
  5
6C05D
 10
15956.2
 20
10903.6
 30
0.000000
  70
    32
  0
VERTEX
  8
SUNPOU
  5
6C05E
 10
15955.9
 20
10903.5
 30
0.000000
  70
    32
  0
VERTEX
  8
SUNPOU
  5
6C05F
 10
15955.5
 20
10903.4
 30
0.000000
  70
    32
  0
VERTEX
  8
SUNPOU
  5
6C060
 10
15955.1
 20
10903.3
 30
0.000000
  70
    32
  0
VERTEX
  8
SUNPOU
  5
6C061
 10
15954.8
 20
10903.2
 30
0.000000
  70
    32
  0
VERTEX
  8
SUNPOU
  5
6C062
 10
15954.4
 20
10903.1
 30
0.000000
  70
    32
  0
VERTEX
  8
SUNPOU
  5
6C063
 10
15954.1
 20
10903.0
 30
0.000000
  70
    32
  0
VERTEX
  8
SUNPOU
  5
6C064
 10
15953.7
 20
10903.0
 30
0.000000
  70
    32
  0
VERTEX
  8
SUNPOU
  5
6C065
 10
15953.3
 20
10902.9
 30
0.000000
  70
    32
  0
VERTEX
  8
SUNPOU
  5
6C066
 10
15953.0
 20
10902.9
 30
0.000000
  70
    32
  0
VERTEX
  8
SUNPOU
  5
6C067
 10
15952.6
 20
10902.8
 30
0.000000
  70
    32
  0
VERTEX
  8
SUNPOU
  5
6C068
 10
15952.3
 20
10902.8
 30
0.000000
  70
    32
  0
VERTEX
  8
SUNPOU
  5
6C069
 10
15951.9
 20
10902.8
 30
0.000000
  70
    32
  0
VERTEX
  8
SUNPOU
  5
6C06A
 10
15951.5
 20
10902.7
 30
0.000000
  70
    32
  0
VERTEX
  8
SUNPOU
  5
6C06B
 10
15951.1
 20
10902.7
 30
0.000000
  70
    32
  0
SEQEND
  8
SUNPOU
  5
6C06C
  0
LINE
  5
6BB01
  8
SUNPOU
 10
15951.148232486839
 20
10887.74023912562
 30
0.0
 11
15951.148232486839
 21
10857.74023912562
 31
0.0
  0
TEXT
  5
6BB02
  8
SUNPOU
 10
15871.148232486839
 20
10916.15293753834
 30
0.0
 40
160.0
  1
50
 50
90.0
 41
0.6666666666666666
  7
00
  0
TEXT
  5
6BB03
  8
SUNPOU
 10
15871.148232486839
 20
10557.740239125649
 30
0.0
 40
160.0
  1
100
 50
90.0
 41
0.6666666666666666
  7
00
  0
TEXT
  5
6BB04
  8
SUNPOU
 10
15871.148232486839
 20
12045.35928674469
 30
0.0
 40
160.0
  1
540
 50
90.0
 41
0.6666666666666666
  7
00
  0
TEXT
  5
6BB05
  8
SUNPOU
 10
16511.148232486841
 20
11257.740239125649
 30
0.0
 40
160.0
  1
150
 50
90.0
 41
0.6666666666666666
  7
00
  0
TEXT
  5
6BB06
  8
SUNPOU
 10
17492.869171616599
 20
10197.73983832524
 30
0.0
 40
160.0
  1
240
 41
0.6666666666666666
  7
00
  0
LINE
  5
6BB08
  8
SUNPOU
 10
17195.249723197179
 20
10117.73983832524
 30
0.0
 11
17225.249723197168
 21
10117.73983832524
 31
0.0
  0
LINE
  5
6BB0A
  8
SUNPOU
 10
16591.148232486841
 20
11147.74023912564
 30
0.0
 11
16591.148232486841
 21
11177.740239125649
 31
0.0
  0
LINE
  5
6BB0C
  8
SUNPOU
 10
18095.25052479799
 20
10117.73983832524
 30
0.0
 11
18065.25052479799
 21
10117.73983832524
 31
0.0
  0
LINE
  5
6BB0E
  8
SUNPOU
 10
16591.148232486841
 20
11687.740239125649
 30
0.0
 11
16591.148232486841
 21
11657.74023912564
 31
0.0
  0
LINE
  5
6BB10
  8
SUNPOU
 10
18546.352880248029
 20
12867.74023912564
 30
0.0
 11
18546.352880248029
 21
12897.74023912564
 31
0.0
  0
TEXT
  5
6BB11
  8
SUNPOU
 10
17485.250324397799
 20
14357.74132128671
 30
0.0
 40
160.0
  1
180
 41
0.6666666666666666
  7
00
  0
TEXT
  5
6BB12
  8
SUNPOU
 10
17365.25012399755
 20
14037.741000646371
 30
0.0
 40
160.0
  1
120
 41
0.6666666666666666
  7
00
  0
LINE
  5
6BB14
  8
SUNPOU
 10
17315.25012399755
 20
13957.7410006464
 30
0.0
 11
17345.25012399755
 21
13957.7410006464
 31
0.0
  0
LINE
  5
6BB16
  8
SUNPOU
 10
17315.25012399755
 20
14277.74132128671
 30
0.0
 11
17345.25012399755
 21
14277.74132128671
 31
0.0
  0
LINE
  5
6BB18
  8
SUNPOU
 10
17735.25012399755
 20
13957.7410006464
 30
0.0
 11
17705.250123997561
 21
13957.7410006464
 31
0.0
  0
TEXT
  5
6BB19
  8
SUNPOU
 10
18466.352880248029
 20
13328.029059264851
 30
0.0
 40
160.0
  1
0~200
 50
90.0
 41
0.6666666666666666
  7
00
  0
LINE
  5
6BB1B
  8
SUNPOU
 10
17975.250524797979
 20
14277.74132128671
 30
0.0
 11
17945.25052479799
 21
14277.74132128671
 31
0.0
  0
LINE
  5
6BB1C
  8
SUNPOU
 10
9687.3919100666189
 20
12634.58092422188
 30
0.0
 11
11056.54563643809
 21
12634.58092422188
 31
0.0
  0
LINE
  5
6BB1D
  8
SUNPOU
 10
9767.3919100666208
 20
12514.58092422188
 30
0.0
 11
11056.54563643809
 21
12514.58092422188
 31
0.0
  0
LINE
  5
6BB1E
  8
SUNPOU
 10
10976.54563643809
 20
12674.58092422188
 30
0.0
 11
10976.54563643809
 21
12714.58092422188
 31
0.0
  0
LINE
  5
6BB1F
  8
SUNPOU
 10
10976.54563643809
 20
12474.58092422188
 30
0.0
 11
10976.545636438081
 21
12015.533305174269
 31
0.0
  0
LINE
  5
6BB20
  8
SUNPOU
 10
10976.54563643809
 20
12634.58092422188
 30
0.0
 11
10976.54563643809
 21
12514.58092422188
 31
0.0
  0
LINE
  5
6BB25
  8
SUNPOU
 10
10576.54563643809
 20
12664.58092422188
 30
0.0
 11
10576.54563643809
 21
12694.58092422188
 31
0.0
  0
LINE
  5
6BB27
  8
SUNPOU
 10
10976.54563643809
 20
12664.58092422188
 30
0.0
 11
10976.54563643809
 21
12694.58092422188
 31
0.0
  0
LINE
  5
6BB29
  8
SUNPOU
 10
10576.54563643809
 20
15414.58092422188
 30
0.0
 11
10576.54563643809
 21
15444.58092422188
 31
0.0
  0
LINE
  5
6BB2B
  8
SUNPOU
 10
10576.54563643809
 20
15354.58092422188
 30
0.0
 11
10576.54563643809
 21
15324.58092422188
 31
0.0
  0
LINE
  5
6BB2C
  8
SUNPOU
 10
9687.3919100666189
 20
18134.580924221878
 30
0.0
 11
11056.54563643809
 21
18134.580924221878
 31
0.0
  0
LINE
  5
6BB2D
  8
SUNPOU
 10
9767.3919100666208
 20
18254.580924221878
 30
0.0
 11
11056.54563643809
 21
18254.580924221878
 31
0.0
  0
LINE
  5
6BB2E
  8
SUNPOU
 10
10976.54563643809
 20
18094.580924221878
 30
0.0
 11
10976.54563643809
 21
18054.580924221878
 31
0.0
  0
LINE
  5
6BB2F
  8
SUNPOU
 10
10976.54563643809
 20
18294.580924221878
 30
0.0
 11
10976.54563643809
 21
18753.6285432695
 31
0.0
  0
LINE
  5
6BB30
  8
SUNPOU
 10
10976.54563643809
 20
18134.580924221878
 30
0.0
 11
10976.54563643809
 21
18254.580924221878
 31
0.0
  0
LINE
  5
6BB35
  8
SUNPOU
 10
10576.54563643809
 20
18104.580924221878
 30
0.0
 11
10576.54563643809
 21
18074.580924221878
 31
0.0
  0
LINE
  5
6BB37
  8
SUNPOU
 10
10976.54563643809
 20
18104.580924221878
 30
0.0
 11
10976.54563643809
 21
18074.580924221878
 31
0.0
  0
TEXT
  5
6BB38
  8
SUNPOU
 10
5961.219256217707
 20
3004.3436053802329
 30
0.0
 40
160.0
  1
43.6
 50
90.0
 41
0.6666666666666666
  7
00
  0
LINE
  5
6BB3A
  8
SUNPOU
 10
6041.2192562177079
 20
3474.6610656976918
 30
0.0
 11
6041.2192562177079
 21
3444.6610656976932
 31
0.0
  0
LINE
  5
6BB3C
  8
SUNPOU
 10
6041.2192562177079
 20
3709.0610773730368
 30
0.0
 11
6041.2192562177079
 21
3739.0610773730368
 31
0.0
  0
TEXT
  5
6BB3D
  8
SUNPOU
 10
5961.219256217707
 20
4046.7436170555779
 30
0.0
 40
160.0
  1
67
 50
90.0
 41
0.6666666666666666
  7
00
  0
LINE
  5
6BB3F
  8
SUNPOU
 10
6041.2192562177079
 20
3917.0610773730368
 30
0.0
 11
6041.2192562177079
 21
3887.0610773730368
 31
0.0
  0
LINE
  5
6BB41
  8
SUNPOU
 10
6041.2192562177079
 20
3709.0610773730368
 30
0.0
 11
6041.2192562177079
 21
3739.0610773730368
 31
0.0
  0
TEXT
  5
6BB42
  8
SUNPOU
 10
6666.2192562177079
 20
4572.7886712148684
 30
0.0
 40
160.0
  1
100
 41
0.6666666666666666
  7
00
  0
LINE
  5
6BB44
  8
SUNPOU
 10
6996.2192562177079
 20
4492.7886712148684
 30
0.0
 11
6966.2192562177079
 21
4492.7886712148684
 31
0.0
  0
LINE
  5
6BB46
  8
SUNPOU
 10
6656.219256217707
 20
4492.7886712148684
 30
0.0
 11
6686.2192562177079
 21
4492.7886712148684
 31
0.0
  0
TEXT
  5
6BB47
  8
SUNPOU
 10
7531.219256217707
 20
3520.0832879199088
 30
0.0
 40
160.0
  1
96.6
 50
90.0
 41
0.6666666666666666
  7
00
  0
LINE
  5
6BB49
  8
SUNPOU
 10
7611.2192562177079
 20
3861.0610656976792
 30
0.0
 11
7611.2192562177079
 21
3831.0610656976778
 31
0.0
  0
LINE
  5
6BB4B
  8
SUNPOU
 10
7611.2192562177079
 20
3534.6610656976918
 30
0.0
 11
7611.2192562177079
 21
3564.6610656976918
 31
0.0
  0
TEXT
  5
6BB4C
  8
SUNPOU
 10
30603.515668062901
 20
11210.743072473741
 30
0.0
 40
160.0
  1
100
 50
90.0
 41
0.6666666666666666
  7
00
  0
LINE
  5
6BB4E
  8
SUNPOU
 10
30683.515668062912
 20
11200.74307247373
 30
0.0
 11
30683.515668062912
 21
11230.74307247373
 31
0.0
  0
LINE
  5
6BB50
  8
SUNPOU
 10
30683.515668062912
 20
11540.74307247373
 30
0.0
 11
30683.515668062912
 21
11510.74307247373
 31
0.0
  0
LINE
  5
6BB52
  8
SUNPOU
 10
30683.515668062901
 20
11540.74307247373
 30
0.0
 11
30683.515668062901
 21
11510.74307247373
 31
0.0
  0
LINE
  5
6BB54
  8
SUNPOU
 10
30683.515668062901
 20
11800.74307247373
 30
0.0
 11
30683.515668062901
 21
11830.74307247373
 31
0.0
  0
TEXT
  5
6BB55
  8
SUNPOU
 10
30610.081628667129
 20
11598.14877743434
 30
0.0
 40
160.0
  1
50
 50
90.0
 41
0.6666666666666666
  7
00
  0
TEXT
  5
6BB56
  8
SUNPOU
 10
30603.515668062901
 20
12618.36212009279
 30
0.0
 40
160.0
  1
500
 50
90.0
 41
0.6666666666666666
  7
00
  0
LINE
  5
6BB58
  8
SUNPOU
 10
30683.515668062901
 20
11800.74307247373
 30
0.0
 11
30683.515668062901
 21
11830.74307247373
 31
0.0
  0
LINE
  5
6BB5A
  8
SUNPOU
 10
30683.515668062901
 20
13740.74307247373
 30
0.0
 11
30683.515668062901
 21
13710.74307247373
 31
0.0
  0
TEXT
  5
6BB5B
  8
SUNPOU
 10
27379.626253313239
 20
10279.953832662721
 30
0.0
 40
160.0
  1
□1100
 41
0.6666666666666666
  7
00
  0
LINE
  5
6BB5D
  8
SUNPOU
 10
25472.737364424349
 20
10199.953832662721
 30
0.0
 11
25502.737364424349
 21
10199.953832662721
 31
0.0
  0
LINE
  5
6BB5F
  8
SUNPOU
 10
29812.737364424349
 20
10199.953832662721
 30
0.0
 11
29782.737364424349
 21
10199.953832662721
 31
0.0
  0
TEXT
  5
6BB60
  8
SUNPOU
 10
27379.626253313239
 20
10643.09172259114
 30
0.0
 40
160.0
  1
□1000
 41
0.6666666666666666
  7
00
  0
LINE
  5
6BB62
  8
SUNPOU
 10
29612.737364424349
 20
10563.09172259114
 30
0.0
 11
29582.737364424349
 21
10563.09172259114
 31
0.0
  0
LINE
  5
6BB64
  8
SUNPOU
 10
25672.737364424349
 20
10563.09172259114
 30
0.0
 11
25702.737364424349
 21
10563.09172259114
 31
0.0
  0
TEXT
  5
6BB65
  8
SUNPOU
 10
3197.3919100666221
 20
16556.406321047289
 30
0.0
 40
160.0
  1
2625
 50
90.0
 41
0.6666666666666666
  7
00
  0
LINE
  5
6BB67
  8
SUNPOU
 10
3277.3919100666249
 20
15477.080924221889
 30
0.0
 11
3277.3919100666249
 21
15507.080924221889
 31
0.0
  0
LINE
  5
6BB69
  8
SUNPOU
 10
3277.3919100666249
 20
18042.080924221889
 30
0.0
 11
3277.3919100666249
 21
18012.080924221889
 31
0.0
  0
TEXT
  5
6BB6A
  8
SUNPOU
 10
3197.391910066623
 20
13806.40632104729
 30
0.0
 40
160.0
  1
2625
 50
90.0
 41
0.6666666666666666
  7
00
  0
LINE
  5
6BB6C
  8
SUNPOU
 10
3277.3919100666249
 20
12727.080924221889
 30
0.0
 11
3277.3919100666249
 21
12757.080924221889
 31
0.0
  0
LINE
  5
6BB6E
  8
SUNPOU
 10
3277.3919100666249
 20
15292.0809242219
 30
0.0
 11
3277.3919100666249
 21
15262.080924221889
 31
0.0
  0
TEXT
  5
6BB6F
  8
SUNPOU
 10
3197.391910066623
 20
12826.6047337457
 30
0.0
 40
160.0
  1
125
 50
90.0
 41
0.6666666666666666
  7
00
  0
LINE
  5
6BB71
  8
SUNPOU
 10
3277.3919100666249
 20
12727.080924221889
 30
0.0
 11
3277.3919100666249
 21
12757.080924221889
 31
0.0
  0
LINE
  5
6BB73
  8
SUNPOU
 10
3277.3919100666249
 20
12542.080924221889
 30
0.0
 11
3277.3919100666249
 21
12512.080924221889
 31
0.0
  0
TEXT
  5
6BB74
  8
SUNPOU
 10
3197.391910066623
 20
12014.26346390443
 30
0.0
 40
160.0
  1
57.5
 50
90.0
 41
0.6666666666666666
  7
00
  0
LINE
  5
6BB76
  8
SUNPOU
 10
3277.3919100666249
 20
12484.580924221889
 30
0.0
 11
3277.3919100666249
 21
12454.580924221889
 31
0.0
  0
LINE
  5
6BB78
  8
SUNPOU
 10
3277.3919100666249
 20
12602.080924221889
 30
0.0
 11
3277.3919100666249
 21
12632.0809242219
 31
0.0
  0
TEXT
  5
6BB79
  8
SUNPOU
 10
3197.3919100666221
 20
15576.6047337457
 30
0.0
 40
160.0
  1
125
 50
90.0
 41
0.6666666666666666
  7
00
  0
LINE
  5
6BB7B
  8
SUNPOU
 10
3277.3919100666249
 20
15477.080924221889
 30
0.0
 11
3277.3919100666249
 21
15507.080924221889
 31
0.0
  0
LINE
  5
6BB7D
  8
SUNPOU
 10
3277.391910066624
 20
15292.0809242219
 30
0.0
 11
3277.391910066624
 21
15262.080924221889
 31
0.0
  0
TEXT
  5
6BB7E
  8
SUNPOU
 10
9159.4554021301174
 20
12054.5809242219
 30
0.0
 40
160.0
  1
60
 41
0.6666666666666666
  7
00
  0
LINE
  5
6BB80
  8
SUNPOU
 10
9477.3919100666244
 20
11974.5809242219
 30
0.0
 11
9447.3919100666262
 21
11974.5809242219
 31
0.0
  0
LINE
  5
6BB82
  8
SUNPOU
 10
9597.3919100666244
 20
11974.5809242219
 30
0.0
 11
9627.3919100666244
 21
11974.5809242219
 31
0.0
  0
TEXT
  5
6BB83
  8
SUNPOU
 10
9816.9157195904263
 20
12054.5809242219
 30
0.0
 40
160.0
  1
120
 41
0.6666666666666666
  7
00
  0
LINE
  5
6BB85
  8
SUNPOU
 10
9717.3919100666153
 20
11974.5809242219
 30
0.0
 11
9747.3919100666171
 21
11974.5809242219
 31
0.0
  0
LINE
  5
6BB87
  8
SUNPOU
 10
9537.3919100666244
 20
11974.5809242219
 30
0.0
 11
9507.3919100666244
 21
11974.5809242219
 31
0.0
  0
TEXT
  5
6BB88
  8
SUNPOU
 10
6959.4157195904354
 20
18904.580924221889
 30
0.0
 40
160.0
  1
125
 41
0.6666666666666666
  7
00
  0
LINE
  5
6BB8A
  8
SUNPOU
 10
6859.8919100666253
 20
18824.580924221889
 30
0.0
 11
6889.8919100666253
 21
18824.580924221889
 31
0.0
  0
LINE
  5
6BB8C
  8
SUNPOU
 10
6674.8919100666244
 20
18824.580924221889
 30
0.0
 11
6644.8919100666253
 21
18824.580924221889
 31
0.0
  0
TEXT
  5
6BB8D
  8
SUNPOU
 10
5056.7768307015413
 20
18904.580924221889
 30
0.0
 40
160.0
  1
2737.5
 41
0.6666666666666666
  7
00
  0
LINE
  5
6BB8F
  8
SUNPOU
 10
6674.8919100666244
 20
18824.580924221889
 30
0.0
 11
6644.8919100666253
 21
18824.580924221889
 31
0.0
  0
LINE
  5
6BB91
  8
SUNPOU
 10
3997.3919100666171
 20
18824.580924221889
 30
0.0
 11
4027.3919100666171
 21
18824.580924221889
 31
0.0
  0
TEXT
  5
6BB92
  8
SUNPOU
 10
3397.8681005428148
 20
18904.580924221889
 30
0.0
 40
160.0
  1
120
 41
0.6666666666666666
  7
00
  0
LINE
  5
6BB94
  8
SUNPOU
 10
3817.3919100666249
 20
18824.580924221889
 30
0.0
 11
3787.391910066624
 21
18824.580924221889
 31
0.0
  0
LINE
  5
6BB96
  8
SUNPOU
 10
3997.3919100666249
 20
18824.580924221889
 30
0.0
 11
4027.3919100666249
 21
18824.580924221889
 31
0.0
  0
TEXT
  5
6BB97
  8
SUNPOU
 10
3197.3919100666221
 20
18399.34282898379
 30
0.0
 40
160.0
  1
57.5
 50
90.0
 41
0.6666666666666666
  7
00
  0
LINE
  5
6BB99
  8
SUNPOU
 10
3277.3919100666249
 20
18284.580924221889
 30
0.0
 11
3277.3919100666249
 21
18314.580924221889
 31
0.0
  0
LINE
  5
6BB9B
  8
SUNPOU
 10
3277.3919100666249
 20
18167.080924221889
 30
0.0
 11
3277.3919100666249
 21
18137.080924221889
 31
0.0
  0
TEXT
  5
6BB9C
  8
SUNPOU
 10
3197.3919100666212
 20
17622.55711469808
 30
0.0
 40
160.0
  1
125
 50
90.0
 41
0.6666666666666666
  7
00
  0
LINE
  5
6BB9E
  8
SUNPOU
 10
3277.3919100666249
 20
18042.080924221889
 30
0.0
 11
3277.3919100666249
 21
18012.080924221889
 31
0.0
  0
LINE
  5
6BBA0
  8
SUNPOU
 10
3277.3919100666249
 20
18227.080924221889
 30
0.0
 11
3277.3919100666249
 21
18257.080924221889
 31
0.0
  0
TEXT
  5
6BBA1
  8
SUNPOU
 10
7919.2768307015413
 20
18904.580924221889
 30
0.0
 40
160.0
  1
2737.5
 41
0.6666666666666666
  7
00
  0
LINE
  5
6BBA3
  8
SUNPOU
 10
9537.3919100666171
 20
18824.580924221889
 30
0.0
 11
9507.3919100666171
 21
18824.580924221889
 31
0.0
  0
LINE
  5
6BBA5
  8
SUNPOU
 10
6859.8919100666253
 20
18824.580924221889
 30
0.0
 11
6889.8919100666253
 21
18824.580924221889
 31
0.0
  0
TEXT
  5
6BBA6
  8
SUNPOU
 10
9816.9157195904336
 20
18904.580924221889
 30
0.0
 40
160.0
  1
120
 41
0.6666666666666666
  7
00
  0
LINE
  5
6BBA8
  8
SUNPOU
 10
9717.3919100666226
 20
18824.580924221889
 30
0.0
 11
9747.3919100666244
 21
18824.580924221889
 31
0.0
  0
LINE
  5
6BBAA
  8
SUNPOU
 10
9537.3919100666244
 20
18824.580924221889
 30
0.0
 11
9507.3919100666244
 21
18824.580924221889
 31
0.0
  0
ARC
  5
6BBAB
  8
SUNPOU
 10
6767.3919100666244
 20
11574.580924221889
 30
0.0
 40
15.0
 50
180.0
 51
0.0
  0
ARC
  5
6BBAC
  8
SUNPOU
 10
6767.3919100666244
 20
11574.580924221889
 30
0.0
 40
15.0
 50
0.0
 51
180.0
  0
ARC
  5
6BBAD
  8
SUNPOU
 10
3967.3919100666249
 20
6179.4959334949972
 30
0.0
 40
15.0
 50
0.0
 51
180.0
  0
ARC
  5
6BBAE
  8
SUNPOU
 10
3967.3919100666249
 20
6179.4959334949972
 30
0.0
 40
15.0
 50
180.0
 51
0.0
  0
ARC
  5
6BBAF
  8
SUNPOU
 10
3967.3919100666249
 20
11574.580924221889
 30
0.0
 40
15.0
 50
0.0
 51
180.0
  0
ARC
  5
6BBB0
  8
SUNPOU
 10
3967.3919100666249
 20
11574.580924221889
 30
0.0
 40
15.0
 50
180.0
 51
0.0
  0
ARC
  5
6BBB1
  8
SUNPOU
 10
9567.3919100666226
 20
6179.4959334949972
 30
0.0
 40
15.0
 50
180.0
 51
0.0
  0
ARC
  5
6BBB2
  8
SUNPOU
 10
9567.3919100666226
 20
6179.4959334949972
 30
0.0
 40
15.0
 50
0.0
 51
180.0
  0
TEXT
  5
6BBB3
  8
SUNPOU
 10
7964.217306892021
 20
19304.580924221889
 30
0.0
 40
160.0
  1
2800
 41
0.6666666666666666
  7
00
  0
LINE
  5
6BBB5
  8
SUNPOU
 10
6797.3919100666253
 20
19224.580924221889
 30
0.0
 11
6827.3919100666253
 21
19224.580924221889
 31
0.0
  0
LINE
  5
6BBB7
  8
SUNPOU
 10
9537.3919100666244
 20
19224.580924221889
 30
0.0
 11
9507.3919100666244
 21
19224.580924221889
 31
0.0
  0
TEXT
  5
6BBB8
  8
SUNPOU
 10
5164.217306892021
 20
19304.580924221889
 30
0.0
 40
160.0
  1
2800
 41
0.6666666666666666
  7
00
  0
LINE
  5
6BBBA
  8
SUNPOU
 10
3997.3919100666249
 20
19224.580924221889
 30
0.0
 11
4027.3919100666249
 21
19224.580924221889
 31
0.0
  0
LINE
  5
6BBBC
  8
SUNPOU
 10
6737.3919100666244
 20
19224.580924221889
 30
0.0
 11
6707.3919100666253
 21
19224.580924221889
 31
0.0
  0
TEXT
  5
6BBBD
  8
SUNPOU
 10
16191.147911846499
 20
12595.13706452246
 30
0.0
 40
160.0
  1
（300）
 50
90.0
 41
0.6666666666666666
  7
00
  0
LINE
  5
6BBBF
  8
SUNPOU
 10
16271.14791184651
 20
13247.74023912562
 30
0.0
 11
16271.14791184651
 21
13217.74023912562
 31
0.0
  0
LINE
  5
6BBC1
  8
SUNPOU
 10
16271.14791184651
 20
12467.740239125649
 30
0.0
 11
16271.14791184651
 21
12497.74023912564
 31
0.0
  0
TEXT
  5
6BBC2
  8
SUNPOU
 10
16191.147911846499
 20
11471.96246134787
 30
0.0
 40
160.0
  1
240 以上
 50
90.0
 41
0.6666666666666666
  7
00
  0
LINE
  5
6BBC4
  8
SUNPOU
 10
16271.14791184651
 20
12407.740239125649
 30
0.0
 11
16271.14791184651
 21
12377.74023912564
 31
0.0
  0
LINE
  5
6BBC6
  8
SUNPOU
 10
16271.147911846499
 20
11147.74023912564
 30
0.0
 11
16271.147911846499
 21
11177.740239125649
 31
0.0
  0
TEXT
  5
6BBC7
  8
SUNPOU
 10
4819.4838318087641
 20
9673.7872734283101
 30
0.0
 40
160.0
  1
1000
 50
90.0
 41
0.6666666666666666
  7
00
  0
LINE
  5
6BBC9
  8
SUNPOU
 10
4899.483831808765
 20
10354.58092422196
 30
0.0
 11
4899.483831808765
 21
10324.58092422196
 31
0.0
  0
LINE
  5
6BBCB
  8
SUNPOU
 10
4899.483831808765
 20
9414.5809242219584
 30
0.0
 11
4899.483831808765
 21
9444.5809242219566
 31
0.0
  0
TEXT
  5
6BBCC
  8
SUNPOU
 10
3756.5982592729738
 20
10780.37039790617
 30
0.0
 40
160.0
  1
1000
 41
0.6666666666666666
  7
00
  0
LINE
  5
6BBCE
  8
SUNPOU
 10
4437.3919100666244
 20
10700.37039790617
 30
0.0
 11
4407.3919100666244
 21
10700.37039790617
 31
0.0
  0
LINE
  5
6BBD0
  8
SUNPOU
 10
3497.3919100666249
 20
10700.37039790617
 30
0.0
 11
3527.3919100666249
 21
10700.37039790617
 31
0.0
  0
TEXT
  5
6BBD1
  8
SUNPOU
 10
10496.545636438081
 20
11056.40632104731
 30
0.0
 40
160.0
  1
2750
 50
90.0
 41
0.6666666666666666
  7
00
  0
LINE
  5
6BBD3
  8
SUNPOU
 10
10576.54563643809
 20
12604.58092422188
 30
0.0
 11
10576.54563643809
 21
12574.58092422188
 31
0.0
  0
LINE
  5
6BBD5
  8
SUNPOU
 10
10576.545636438081
 20
9914.5809242219366
 30
0.0
 11
10576.545636438081
 21
9944.5809242219384
 31
0.0
  0
TEXT
  5
6BBD6
  8
SUNPOU
 10
10496.545636438081
 20
8306.4063210473378
 30
0.0
 40
160.0
  1
2750
 50
90.0
 41
0.6666666666666666
  7
00
  0
LINE
  5
6BBD8
  8
SUNPOU
 10
10576.54563643809
 20
9854.5809242219366
 30
0.0
 11
10576.54563643809
 21
9824.5809242219366
 31
0.0
  0
LINE
  5
6BBDA
  8
SUNPOU
 10
10576.54563643809
 20
7164.5809242219357
 30
0.0
 11
10576.54563643809
 21
7194.5809242219348
 31
0.0
  0
TEXT
  5
6BBDB
  8
SUNPOU
 10
15871.148232486839
 20
13256.152937538331
 30
0.0
 40
160.0
  1
40
 50
90.0
 41
0.6666666666666666
  7
00
  0
LINE
  5
6BBDD
  8
SUNPOU
 10
15951.148232486839
 20
13467.74023912564
 30
0.0
 11
15951.148232486839
 21
13497.740239125649
 31
0.0
  0
LINE
  5
6BBDF
  8
SUNPOU
 10
15951.148232486839
 20
13247.74023912562
 30
0.0
 11
15951.148232486839
 21
13217.74023912562
 31
0.0
  0
ARC
  5
6BBE0
  8
SUNPOU
 10
15951.148232486839
 20
13277.74023912562
 30
0.0
 40
14.999999999998179
 50
270.0
 51
90.0
  0
ARC
  5
6BBE1
  8
SUNPOU
 10
15951.148232486839
 20
13277.74023912562
 30
0.0
 40
14.999999999998179
 50
90.0
 51
270.0
  0
ARC
  5
6BBE2
  8
SUNPOU
 10
18546.352880248029
 20
13277.74023912562
 30
0.0
 40
14.999999999998179
 50
270.0
 51
90.0
  0
ARC
  5
6BBE3
  8
SUNPOU
 10
18546.352880248029
 20
13277.74023912562
 30
0.0
 40
14.999999999998179
 50
90.0
 51
270.0
  0
ARC
  5
6BBE4
  8
SUNPOU
 10
15951.148232486839
 20
11117.740239125649
 30
0.0
 40
14.999999999998179
 50
90.0
 51
270.0
  0
ARC
  5
6BBE5
  8
SUNPOU
 10
15951.148232486839
 20
11117.740239125649
 30
0.0
 40
14.999999999998179
 50
270.0
 51
90.0
  0
ARC
  5
6BBE6
  8
SUNPOU
 10
17165.249723197179
 20
10117.73983832524
 30
0.0
 40
15.0
 50
0.0
 51
180.0
  0
ARC
  5
6BBE7
  8
SUNPOU
 10
17165.249723197179
 20
10117.73983832524
 30
0.0
 40
15.0
 50
180.0
 51
0.0
  0
ARC
  5
6BBE8
  8
SUNPOU
 10
16591.148232486841
 20
11117.740239125649
 30
0.0
 40
15.0
 50
90.0
 51
270.0
  0
ARC
  5
6BBE9
  8
SUNPOU
 10
16591.148232486841
 20
11117.740239125649
 30
0.0
 40
15.0
 50
270.0
 51
90.0
  0
ARC
  5
6BBEA
  8
SUNPOU
 10
18125.250524797979
 20
10117.73983832524
 30
0.0
 40
15.0
 50
180.0
 51
0.0
  0
ARC
  5
6BBEB
  8
SUNPOU
 10
18125.250524797979
 20
10117.73983832524
 30
0.0
 40
15.0
 50
0.0
 51
180.0
  0
ARC
  5
6BBEC
  8
SUNPOU
 10
16591.148232486841
 20
11717.74023912564
 30
0.0
 40
15.0
 50
270.0
 51
90.0
  0
ARC
  5
6BBED
  8
SUNPOU
 10
16591.148232486841
 20
11717.74023912564
 30
0.0
 40
15.0
 50
90.0
 51
270.0
  0
ARC
  5
6BBEE
  8
SUNPOU
 10
18546.352880248029
 20
12837.740239125649
 30
0.0
 40
14.999999999998179
 50
90.0
 51
270.0
  0
ARC
  5
6BBEF
  8
SUNPOU
 10
18546.352880248029
 20
12837.740239125649
 30
0.0
 40
14.999999999998179
 50
270.0
 51
90.0
  0
ARC
  5
6BBF0
  8
SUNPOU
 10
17285.25012399755
 20
13957.7410006464
 30
0.0
 40
15.0
 50
0.0
 51
180.0
  0
ARC
  5
6BBF1
  8
SUNPOU
 10
17285.25012399755
 20
13957.7410006464
 30
0.0
 40
15.0
 50
180.0
 51
0.0
  0
ARC
  5
6BBF2
  8
SUNPOU
 10
17285.25012399755
 20
14277.74132128671
 30
0.0
 40
15.0
 50
0.0
 51
180.0
  0
ARC
  5
6BBF3
  8
SUNPOU
 10
17285.25012399755
 20
14277.74132128671
 30
0.0
 40
15.0
 50
180.0
 51
0.0
  0
ARC
  5
6BBF4
  8
SUNPOU
 10
17765.25012399755
 20
13957.7410006464
 30
0.0
 40
15.0
 50
180.0
 51
0.0
  0
ARC
  5
6BBF5
  8
SUNPOU
 10
17765.25012399755
 20
13957.7410006464
 30
0.0
 40
15.0
 50
0.0
 51
180.0
  0
ARC
  5
6BBF6
  8
SUNPOU
 10
18005.250524797979
 20
14277.74132128671
 30
0.0
 40
15.0
 50
180.0
 51
0.0
  0
ARC
  5
6BBF7
  8
SUNPOU
 10
18005.250524797979
 20
14277.74132128671
 30
0.0
 40
15.0
 50
0.0
 51
180.0
  0
TEXT
  5
6BBF8
  8
SUNPOU
 10
10896.545636438081
 20
12065.05711469808
 30
0.0
 40
160.0
  1
120
 50
90.0
 41
0.6666666666666666
  7
00
  0
LINE
  5
6BBFA
  8
SUNPOU
 10
10976.54563643809
 20
12484.58092422188
 30
0.0
 11
10976.54563643809
 21
12454.58092422188
 31
0.0
  0
LINE
  5
6BBFC
  8
SUNPOU
 10
10976.54563643809
 20
12664.58092422188
 30
0.0
 11
10976.54563643809
 21
12694.58092422188
 31
0.0
  0
ARC
  5
6BBFD
  8
SUNPOU
 10
10576.54563643809
 20
12634.58092422188
 30
0.0
 40
15.0
 50
90.0
 51
270.0
  0
ARC
  5
6BBFE
  8
SUNPOU
 10
10576.54563643809
 20
12634.58092422188
 30
0.0
 40
15.0
 50
270.0
 51
90.0
  0
ARC
  5
6BBFF
  8
SUNPOU
 10
10976.54563643809
 20
12634.58092422188
 30
0.0
 40
15.0
 50
90.0
 51
270.0
  0
ARC
  5
6BC00
  8
SUNPOU
 10
10976.54563643809
 20
12634.58092422188
 30
0.0
 40
15.0
 50
270.0
 51
90.0
  0
ARC
  5
6BC01
  8
SUNPOU
 10
10576.54563643809
 20
15384.58092422188
 30
0.0
 40
15.0
 50
90.0
 51
270.0
  0
ARC
  5
6BC02
  8
SUNPOU
 10
10576.54563643809
 20
15384.58092422188
 30
0.0
 40
15.0
 50
270.0
 51
90.0
  0
ARC
  5
6BC03
  8
SUNPOU
 10
10576.54563643809
 20
15384.58092422188
 30
0.0
 40
15.0
 50
270.0
 51
90.0
  0
ARC
  5
6BC04
  8
SUNPOU
 10
10576.54563643809
 20
15384.58092422188
 30
0.0
 40
15.0
 50
90.0
 51
270.0
  0
TEXT
  5
6BC05
  8
SUNPOU
 10
10896.545636438081
 20
18384.104733745698
 30
0.0
 40
160.0
  1
120
 50
90.0
 41
0.6666666666666666
  7
00
  0
LINE
  5
6BC07
  8
SUNPOU
 10
10976.54563643809
 20
18284.580924221878
 30
0.0
 11
10976.54563643809
 21
18314.580924221878
 31
0.0
  0
LINE
  5
6BC09
  8
SUNPOU
 10
10976.54563643809
 20
18104.580924221878
 30
0.0
 11
10976.54563643809
 21
18074.580924221878
 31
0.0
  0
ARC
  5
6BC0A
  8
SUNPOU
 10
10576.54563643809
 20
18134.580924221878
 30
0.0
 40
15.0
 50
270.0
 51
90.0
  0
ARC
  5
6BC0B
  8
SUNPOU
 10
10576.54563643809
 20
18134.580924221878
 30
0.0
 40
15.0
 50
90.0
 51
270.0
  0
ARC
  5
6BC0C
  8
SUNPOU
 10
10976.54563643809
 20
18134.580924221878
 30
0.0
 40
15.0
 50
270.0
 51
90.0
  0
ARC
  5
6BC0D
  8
SUNPOU
 10
10976.54563643809
 20
18134.580924221878
 30
0.0
 40
15.0
 50
90.0
 51
270.0
  0
ARC
  5
6BC0E
  8
SUNPOU
 10
6041.2192562177079
 20
3504.6610656976918
 30
0.0
 40
15.0
 50
270.0
 51
90.0
  0
ARC
  5
6BC0F
  8
SUNPOU
 10
6041.2192562177079
 20
3504.6610656976918
 30
0.0
 40
15.0
 50
90.0
 51
270.0
  0
ARC
  5
6BC10
  8
SUNPOU
 10
6041.2192562177079
 20
3679.0610773730368
 30
0.0
 40
15.0
 50
90.0
 51
270.0
  0
ARC
  5
6BC11
  8
SUNPOU
 10
6041.2192562177079
 20
3679.0610773730368
 30
0.0
 40
15.0
 50
270.0
 51
90.0
  0
ARC
  5
6BC12
  8
SUNPOU
 10
6041.2192562177079
 20
3947.0610773730368
 30
0.0
 40
15.0
 50
270.0
 51
90.0
  0
ARC
  5
6BC13
  8
SUNPOU
 10
6041.2192562177079
 20
3947.0610773730368
 30
0.0
 40
15.0
 50
90.0
 51
270.0
  0
ARC
  5
6BC14
  8
SUNPOU
 10
6041.2192562177079
 20
3679.0610773730368
 30
0.0
 40
15.0
 50
90.0
 51
270.0
  0
ARC
  5
6BC15
  8
SUNPOU
 10
6041.2192562177079
 20
3679.0610773730368
 30
0.0
 40
15.0
 50
270.0
 51
90.0
  0
ARC
  5
6BC16
  8
SUNPOU
 10
7026.219256217707
 20
4492.7886712148684
 30
0.0
 40
15.0
 50
180.0
 51
0.0
  0
ARC
  5
6BC17
  8
SUNPOU
 10
7026.219256217707
 20
4492.7886712148684
 30
0.0
 40
15.0
 50
0.0
 51
180.0
  0
ARC
  5
6BC18
  8
SUNPOU
 10
6626.2192562177079
 20
4492.7886712148684
 30
0.0
 40
15.0
 50
0.0
 51
180.0
  0
ARC
  5
6BC19
  8
SUNPOU
 10
6626.2192562177079
 20
4492.7886712148684
 30
0.0
 40
15.0
 50
180.0
 51
0.0
  0
ARC
  5
6BC1A
  8
SUNPOU
 10
7611.2192562177079
 20
3891.0610656976792
 30
0.0
 40
15.0
 50
270.0
 51
90.0
  0
ARC
  5
6BC1B
  8
SUNPOU
 10
7611.2192562177079
 20
3891.0610656976792
 30
0.0
 40
15.0
 50
90.0
 51
270.0
  0
ARC
  5
6BC1C
  8
SUNPOU
 10
7611.2192562177079
 20
3504.6610656976918
 30
0.0
 40
15.0
 50
90.0
 51
270.0
  0
ARC
  5
6BC1D
  8
SUNPOU
 10
7611.2192562177079
 20
3504.6610656976918
 30
0.0
 40
15.0
 50
270.0
 51
90.0
  0
ARC
  5
6BC1E
  8
SUNPOU
 10
30683.515668062912
 20
11170.74307247373
 30
0.0
 40
15.0
 50
90.0
 51
270.0
  0
ARC
  5
6BC1F
  8
SUNPOU
 10
30683.515668062912
 20
11170.74307247373
 30
0.0
 40
15.0
 50
270.0
 51
90.0
  0
ARC
  5
6BC20
  8
SUNPOU
 10
30683.515668062912
 20
11570.74307247373
 30
0.0
 40
15.0
 50
270.0
 51
90.0
  0
ARC
  5
6BC21
  8
SUNPOU
 10
30683.515668062912
 20
11570.74307247373
 30
0.0
 40
15.0
 50
90.0
 51
270.0
  0
ARC
  5
6BC22
  8
SUNPOU
 10
30683.515668062901
 20
11570.74307247373
 30
0.0
 40
15.0
 50
270.0
 51
90.0
  0
ARC
  5
6BC23
  8
SUNPOU
 10
30683.515668062901
 20
11570.74307247373
 30
0.0
 40
15.0
 50
90.0
 51
270.0
  0
ARC
  5
6BC24
  8
SUNPOU
 10
30683.515668062901
 20
11770.74307247373
 30
0.0
 40
15.0
 50
90.0
 51
270.0
  0
ARC
  5
6BC25
  8
SUNPOU
 10
30683.515668062901
 20
11770.74307247373
 30
0.0
 40
15.0
 50
270.0
 51
90.0
  0
ARC
  5
6BC26
  8
SUNPOU
 10
30683.515668062901
 20
11770.74307247373
 30
0.0
 40
15.0
 50
90.0
 51
270.0
  0
ARC
  5
6BC27
  8
SUNPOU
 10
30683.515668062901
 20
11770.74307247373
 30
0.0
 40
15.0
 50
270.0
 51
90.0
  0
ARC
  5
6BC28
  8
SUNPOU
 10
30683.515668062901
 20
13770.74307247373
 30
0.0
 40
15.0
 50
270.0
 51
90.0
  0
ARC
  5
6BC29
  8
SUNPOU
 10
30683.515668062901
 20
13770.74307247373
 30
0.0
 40
15.0
 50
90.0
 51
270.0
  0
ARC
  5
6BC2A
  8
SUNPOU
 10
25442.737364424349
 20
10199.953832662721
 30
0.0
 40
15.0
 50
0.0
 51
180.0
  0
ARC
  5
6BC2B
  8
SUNPOU
 10
25442.737364424349
 20
10199.953832662721
 30
0.0
 40
15.0
 50
180.0
 51
0.0
  0
ARC
  5
6BC2C
  8
SUNPOU
 10
29842.737364424349
 20
10199.953832662721
 30
0.0
 40
15.0
 50
180.0
 51
0.0
  0
ARC
  5
6BC2D
  8
SUNPOU
 10
29842.737364424349
 20
10199.953832662721
 30
0.0
 40
15.0
 50
0.0
 51
180.0
  0
ARC
  5
6BC2E
  8
SUNPOU
 10
29642.737364424349
 20
10563.09172259114
 30
0.0
 40
15.0
 50
180.0
 51
0.0
  0
ARC
  5
6BC2F
  8
SUNPOU
 10
29642.737364424349
 20
10563.09172259114
 30
0.0
 40
15.0
 50
0.0
 51
180.0
  0
ARC
  5
6BC30
  8
SUNPOU
 10
25642.737364424349
 20
10563.09172259114
 30
0.0
 40
15.0
 50
0.0
 51
180.0
  0
ARC
  5
6BC31
  8
SUNPOU
 10
25642.737364424349
 20
10563.09172259114
 30
0.0
 40
15.0
 50
180.0
 51
0.0
  0
ARC
  5
6BC32
  8
SUNPOU
 10
3277.3919100666249
 20
15447.080924221889
 30
0.0
 40
15.0
 50
90.0
 51
270.0
  0
ARC
  5
6BC33
  8
SUNPOU
 10
3277.3919100666249
 20
15447.080924221889
 30
0.0
 40
15.0
 50
270.0
 51
90.0
  0
ARC
  5
6BC34
  8
SUNPOU
 10
3277.3919100666249
 20
18072.0809242219
 30
0.0
 40
15.0
 50
270.0
 51
90.0
  0
ARC
  5
6BC35
  8
SUNPOU
 10
3277.3919100666249
 20
18072.0809242219
 30
0.0
 40
15.0
 50
90.0
 51
270.0
  0
ARC
  5
6BC36
  8
SUNPOU
 10
3277.3919100666249
 20
12697.080924221889
 30
0.0
 40
15.0
 50
90.0
 51
270.0
  0
ARC
  5
6BC37
  8
SUNPOU
 10
3277.3919100666249
 20
12697.080924221889
 30
0.0
 40
15.0
 50
270.0
 51
90.0
  0
ARC
  5
6BC38
  8
SUNPOU
 10
3277.3919100666249
 20
15322.080924221889
 30
0.0
 40
15.0
 50
270.0
 51
90.0
  0
ARC
  5
6BC39
  8
SUNPOU
 10
3277.3919100666249
 20
15322.080924221889
 30
0.0
 40
15.0
 50
90.0
 51
270.0
  0
ARC
  5
6BC3A
  8
SUNPOU
 10
3277.3919100666249
 20
12697.080924221889
 30
0.0
 40
15.0
 50
90.0
 51
270.0
  0
ARC
  5
6BC3B
  8
SUNPOU
 10
3277.3919100666249
 20
12697.080924221889
 30
0.0
 40
15.0
 50
270.0
 51
90.0
  0
ARC
  5
6BC3C
  8
SUNPOU
 10
3277.3919100666249
 20
12572.0809242219
 30
0.0
 40
15.0
 50
270.0
 51
90.0
  0
ARC
  5
6BC3D
  8
SUNPOU
 10
3277.3919100666249
 20
12572.0809242219
 30
0.0
 40
15.0
 50
90.0
 51
270.0
  0
ARC
  5
6BC3E
  8
SUNPOU
 10
3277.3919100666249
 20
12514.580924221889
 30
0.0
 40
15.0
 50
270.0
 51
90.0
  0
ARC
  5
6BC3F
  8
SUNPOU
 10
3277.3919100666249
 20
12514.580924221889
 30
0.0
 40
15.0
 50
90.0
 51
270.0
  0
ARC
  5
6BC40
  8
SUNPOU
 10
3277.3919100666249
 20
12572.0809242219
 30
0.0
 40
15.0
 50
90.0
 51
270.0
  0
ARC
  5
6BC41
  8
SUNPOU
 10
3277.3919100666249
 20
12572.0809242219
 30
0.0
 40
15.0
 50
270.0
 51
90.0
  0
ARC
  5
6BC42
  8
SUNPOU
 10
3277.3919100666249
 20
15447.080924221889
 30
0.0
 40
15.0
 50
90.0
 51
270.0
  0
ARC
  5
6BC43
  8
SUNPOU
 10
3277.3919100666249
 20
15447.080924221889
 30
0.0
 40
15.0
 50
270.0
 51
90.0
  0
ARC
  5
6BC44
  8
SUNPOU
 10
3277.391910066624
 20
15322.080924221889
 30
0.0
 40
15.0
 50
270.0
 51
90.0
  0
ARC
  5
6BC45
  8
SUNPOU
 10
3277.391910066624
 20
15322.080924221889
 30
0.0
 40
15.0
 50
90.0
 51
270.0
  0
ARC
  5
6BC46
  8
SUNPOU
 10
9507.3919100666244
 20
11974.5809242219
 30
0.0
 40
15.0
 50
180.0
 51
0.0
  0
ARC
  5
6BC47
  8
SUNPOU
 10
9507.3919100666244
 20
11974.5809242219
 30
0.0
 40
15.0
 50
0.0
 51
180.0
  0
ARC
  5
6BC48
  8
SUNPOU
 10
9567.3919100666226
 20
11974.5809242219
 30
0.0
 40
15.0
 50
0.0
 51
180.0
  0
ARC
  5
6BC49
  8
SUNPOU
 10
9567.3919100666226
 20
11974.5809242219
 30
0.0
 40
15.0
 50
180.0
 51
0.0
  0
ARC
  5
6BC4A
  8
SUNPOU
 10
9687.3919100666171
 20
11974.5809242219
 30
0.0
 40
15.0
 50
0.0
 51
180.0
  0
ARC
  5
6BC4B
  8
SUNPOU
 10
9687.3919100666171
 20
11974.5809242219
 30
0.0
 40
15.0
 50
180.0
 51
0.0
  0
ARC
  5
6BC4C
  8
SUNPOU
 10
9567.3919100666226
 20
11974.5809242219
 30
0.0
 40
15.0
 50
180.0
 51
0.0
  0
ARC
  5
6BC4D
  8
SUNPOU
 10
9567.3919100666226
 20
11974.5809242219
 30
0.0
 40
15.0
 50
0.0
 51
180.0
  0
ARC
  5
6BC4E
  8
SUNPOU
 10
6829.8919100666244
 20
18824.580924221889
 30
0.0
 40
15.0
 50
0.0
 51
180.0
  0
ARC
  5
6BC4F
  8
SUNPOU
 10
6829.8919100666244
 20
18824.580924221889
 30
0.0
 40
15.0
 50
180.0
 51
0.0
  0
ARC
  5
6BC50
  8
SUNPOU
 10
6704.8919100666244
 20
18824.580924221889
 30
0.0
 40
15.0
 50
180.0
 51
0.0
  0
ARC
  5
6BC51
  8
SUNPOU
 10
6704.8919100666244
 20
18824.580924221889
 30
0.0
 40
15.0
 50
0.0
 51
180.0
  0
ARC
  5
6BC52
  8
SUNPOU
 10
6704.8919100666244
 20
18824.580924221889
 30
0.0
 40
15.0
 50
180.0
 51
0.0
  0
ARC
  5
6BC53
  8
SUNPOU
 10
6704.8919100666244
 20
18824.580924221889
 30
0.0
 40
15.0
 50
0.0
 51
180.0
  0
ARC
  5
6BC54
  8
SUNPOU
 10
3967.391910066618
 20
18824.580924221889
 30
0.0
 40
15.0
 50
0.0
 51
180.0
  0
ARC
  5
6BC55
  8
SUNPOU
 10
3967.391910066618
 20
18824.580924221889
 30
0.0
 40
15.0
 50
180.0
 51
0.0
  0
ARC
  5
6BC56
  8
SUNPOU
 10
3847.3919100666249
 20
18824.580924221889
 30
0.0
 40
15.0
 50
180.0
 51
0.0
  0
ARC
  5
6BC57
  8
SUNPOU
 10
3847.3919100666249
 20
18824.580924221889
 30
0.0
 40
15.0
 50
0.0
 51
180.0
  0
ARC
  5
6BC58
  8
SUNPOU
 10
3967.3919100666249
 20
18824.580924221889
 30
0.0
 40
15.0
 50
0.0
 51
180.0
  0
ARC
  5
6BC59
  8
SUNPOU
 10
3967.3919100666249
 20
18824.580924221889
 30
0.0
 40
15.0
 50
180.0
 51
0.0
  0
ARC
  5
6BC5A
  8
SUNPOU
 10
3277.3919100666249
 20
18254.580924221889
 30
0.0
 40
15.0
 50
90.0
 51
270.0
  0
ARC
  5
6BC5B
  8
SUNPOU
 10
3277.3919100666249
 20
18254.580924221889
 30
0.0
 40
15.0
 50
270.0
 51
90.0
  0
ARC
  5
6BC5C
  8
SUNPOU
 10
3277.3919100666249
 20
18197.0809242219
 30
0.0
 40
15.0
 50
270.0
 51
90.0
  0
ARC
  5
6BC5D
  8
SUNPOU
 10
3277.3919100666249
 20
18197.0809242219
 30
0.0
 40
15.0
 50
90.0
 51
270.0
  0
ARC
  5
6BC5E
  8
SUNPOU
 10
3277.3919100666249
 20
18072.0809242219
 30
0.0
 40
15.0
 50
270.0
 51
90.0
  0
ARC
  5
6BC5F
  8
SUNPOU
 10
3277.3919100666249
 20
18072.0809242219
 30
0.0
 40
15.0
 50
90.0
 51
270.0
  0
ARC
  5
6BC60
  8
SUNPOU
 10
3277.3919100666249
 20
18197.0809242219
 30
0.0
 40
15.0
 50
90.0
 51
270.0
  0
ARC
  5
6BC61
  8
SUNPOU
 10
3277.3919100666249
 20
18197.0809242219
 30
0.0
 40
15.0
 50
270.0
 51
90.0
  0
ARC
  5
6BC62
  8
SUNPOU
 10
9567.3919100666153
 20
18824.580924221889
 30
0.0
 40
15.0
 50
180.0
 51
0.0
  0
ARC
  5
6BC63
  8
SUNPOU
 10
9567.3919100666153
 20
18824.580924221889
 30
0.0
 40
15.0
 50
0.0
 51
180.0
  0
ARC
  5
6BC64
  8
SUNPOU
 10
6829.8919100666244
 20
18824.580924221889
 30
0.0
 40
15.0
 50
0.0
 51
180.0
  0
ARC
  5
6BC65
  8
SUNPOU
 10
6829.8919100666244
 20
18824.580924221889
 30
0.0
 40
15.0
 50
180.0
 51
0.0
  0
ARC
  5
6BC66
  8
SUNPOU
 10
9687.3919100666244
 20
18824.580924221889
 30
0.0
 40
15.0
 50
0.0
 51
180.0
  0
ARC
  5
6BC67
  8
SUNPOU
 10
9687.3919100666244
 20
18824.580924221889
 30
0.0
 40
15.0
 50
180.0
 51
0.0
  0
ARC
  5
6BC68
  8
SUNPOU
 10
9567.3919100666226
 20
18824.580924221889
 30
0.0
 40
15.0
 50
180.0
 51
0.0
  0
ARC
  5
6BC69
  8
SUNPOU
 10
9567.3919100666226
 20
18824.580924221889
 30
0.0
 40
15.0
 50
0.0
 51
180.0
  0
ARC
  5
6BC6A
  8
SUNPOU
 10
6767.3919100666244
 20
19224.580924221889
 30
0.0
 40
15.0
 50
0.0
 51
180.0
  0
ARC
  5
6BC6B
  8
SUNPOU
 10
6767.3919100666244
 20
19224.580924221889
 30
0.0
 40
15.0
 50
180.0
 51
0.0
  0
ARC
  5
6BC6C
  8
SUNPOU
 10
9567.3919100666226
 20
19224.580924221889
 30
0.0
 40
15.0
 50
180.0
 51
0.0
  0
ARC
  5
6BC6D
  8
SUNPOU
 10
9567.3919100666226
 20
19224.580924221889
 30
0.0
 40
15.0
 50
0.0
 51
180.0
  0
ARC
  5
6BC6E
  8
SUNPOU
 10
3967.3919100666249
 20
19224.580924221889
 30
0.0
 40
15.0
 50
0.0
 51
180.0
  0
ARC
  5
6BC6F
  8
SUNPOU
 10
3967.3919100666249
 20
19224.580924221889
 30
0.0
 40
15.0
 50
180.0
 51
0.0
  0
ARC
  5
6BC70
  8
SUNPOU
 10
6767.3919100666244
 20
19224.580924221889
 30
0.0
 40
15.0
 50
180.0
 51
0.0
  0
ARC
  5
6BC71
  8
SUNPOU
 10
6767.3919100666244
 20
19224.580924221889
 30
0.0
 40
15.0
 50
0.0
 51
180.0
  0
ARC
  5
6BC72
  8
SUNPOU
 10
16271.14791184651
 20
13277.74023912562
 30
0.0
 40
15.0
 50
270.0
 51
90.0
  0
ARC
  5
6BC73
  8
SUNPOU
 10
16271.14791184651
 20
13277.74023912562
 30
0.0
 40
15.0
 50
90.0
 51
270.0
  0
ARC
  5
6BC74
  8
SUNPOU
 10
16271.14791184651
 20
12437.74023912564
 30
0.0
 40
15.0
 50
90.0
 51
270.0
  0
ARC
  5
6BC75
  8
SUNPOU
 10
16271.14791184651
 20
12437.74023912564
 30
0.0
 40
15.0
 50
270.0
 51
90.0
  0
ARC
  5
6BC76
  8
SUNPOU
 10
16271.14791184651
 20
12437.74023912564
 30
0.0
 40
15.0
 50
270.0
 51
90.0
  0
ARC
  5
6BC77
  8
SUNPOU
 10
16271.14791184651
 20
12437.74023912564
 30
0.0
 40
15.0
 50
90.0
 51
270.0
  0
ARC
  5
6BC78
  8
SUNPOU
 10
16271.147911846499
 20
11117.740239125649
 30
0.0
 40
15.0
 50
90.0
 51
270.0
  0
ARC
  5
6BC79
  8
SUNPOU
 10
16271.147911846499
 20
11117.740239125649
 30
0.0
 40
15.0
 50
270.0
 51
90.0
  0
ARC
  5
6BC7A
  8
SUNPOU
 10
4899.483831808765
 20
10384.58092422196
 30
0.0
 40
15.0
 50
270.0
 51
90.0
  0
ARC
  5
6BC7B
  8
SUNPOU
 10
4899.483831808765
 20
10384.58092422196
 30
0.0
 40
15.0
 50
90.0
 51
270.0
  0
ARC
  5
6BC7C
  8
SUNPOU
 10
4899.483831808765
 20
9384.5809242219584
 30
0.0
 40
15.0
 50
90.0
 51
270.0
  0
ARC
  5
6BC7D
  8
SUNPOU
 10
4899.483831808765
 20
9384.5809242219584
 30
0.0
 40
15.0
 50
270.0
 51
90.0
  0
ARC
  5
6BC7E
  8
SUNPOU
 10
4467.3919100666244
 20
10700.37039790617
 30
0.0
 40
15.0
 50
180.0
 51
0.0
  0
ARC
  5
6BC7F
  8
SUNPOU
 10
4467.3919100666244
 20
10700.37039790617
 30
0.0
 40
15.0
 50
0.0
 51
180.0
  0
ARC
  5
6BC80
  8
SUNPOU
 10
3467.3919100666249
 20
10700.37039790617
 30
0.0
 40
15.0
 50
0.0
 51
180.0
  0
ARC
  5
6BC81
  8
SUNPOU
 10
3467.3919100666249
 20
10700.37039790617
 30
0.0
 40
15.0
 50
180.0
 51
0.0
  0
ARC
  5
6BC82
  8
SUNPOU
 10
10576.54563643809
 20
12634.58092422188
 30
0.0
 40
15.0
 50
270.0
 51
90.0
  0
ARC
  5
6BC83
  8
SUNPOU
 10
10576.54563643809
 20
12634.58092422188
 30
0.0
 40
15.0
 50
90.0
 51
270.0
  0
ARC
  5
6BC84
  8
SUNPOU
 10
10576.545636438081
 20
9884.5809242219366
 30
0.0
 40
15.0
 50
90.0
 51
270.0
  0
ARC
  5
6BC85
  8
SUNPOU
 10
10576.545636438081
 20
9884.5809242219366
 30
0.0
 40
15.0
 50
270.0
 51
90.0
  0
ARC
  5
6BC86
  8
SUNPOU
 10
10576.54563643809
 20
9884.5809242219366
 30
0.0
 40
15.0
 50
270.0
 51
90.0
  0
ARC
  5
6BC87
  8
SUNPOU
 10
10576.54563643809
 20
9884.5809242219366
 30
0.0
 40
15.0
 50
90.0
 51
270.0
  0
ARC
  5
6BC88
  8
SUNPOU
 10
10576.54563643809
 20
7134.5809242219357
 30
0.0
 40
15.0
 50
90.0
 51
270.0
  0
ARC
  5
6BC89
  8
SUNPOU
 10
10576.54563643809
 20
7134.5809242219357
 30
0.0
 40
15.0
 50
270.0
 51
90.0
  0
ARC
  5
6BC8A
  8
SUNPOU
 10
15951.148232486839
 20
13437.740239125649
 30
0.0
 40
15.0
 50
90.0
 51
270.0
  0
ARC
  5
6BC8B
  8
SUNPOU
 10
15951.148232486839
 20
13437.740239125649
 30
0.0
 40
15.0
 50
270.0
 51
90.0
  0
ARC
  5
6BC8C
  8
SUNPOU
 10
15951.148232486839
 20
13277.74023912562
 30
0.0
 40
15.0
 50
270.0
 51
90.0
  0
ARC
  5
6BC8D
  8
SUNPOU
 10
15951.148232486839
 20
13277.74023912562
 30
0.0
 40
15.0
 50
90.0
 51
270.0
  0
ARC
  5
6BC8E
  8
SUNPOU
 10
10976.54563643809
 20
12514.58092422188
 30
0.0
 40
15.0
 50
270.0
 51
90.0
  0
ARC
  5
6BC8F
  8
SUNPOU
 10
10976.54563643809
 20
12514.58092422188
 30
0.0
 40
15.0
 50
90.0
 51
270.0
  0
ARC
  5
6BC90
  8
SUNPOU
 10
10976.54563643809
 20
12634.58092422188
 30
0.0
 40
15.0
 50
90.0
 51
270.0
  0
ARC
  5
6BC91
  8
SUNPOU
 10
10976.54563643809
 20
12634.58092422188
 30
0.0
 40
15.0
 50
270.0
 51
90.0
  0
ARC
  5
6BC92
  8
SUNPOU
 10
10976.54563643809
 20
18254.580924221878
 30
0.0
 40
15.0
 50
90.0
 51
270.0
  0
ARC
  5
6BC93
  8
SUNPOU
 10
10976.54563643809
 20
18254.580924221878
 30
0.0
 40
15.0
 50
270.0
 51
90.0
  0
ARC
  5
6BC94
  8
SUNPOU
 10
10976.54563643809
 20
18134.580924221878
 30
0.0
 40
15.0
 50
270.0
 51
90.0
  0
ARC
  5
6BC95
  8
SUNPOU
 10
10976.54563643809
 20
18134.580924221878
 30
0.0
 40
15.0
 50
90.0
 51
270.0
  0
ARC
  5
6BC9B
  8
HIKIDASHI
 10
25420.994001938529
 20
13014.572842873429
 30
0.0
 40
132.73631840783941
 50
164.8596129850871
 51
237.5045002941435
  0
ARC
  5
6BC9C
  8
HIKIDASHI
 10
25308.240590300818
 20
13045.08132906802
 30
0.0
 40
15.928358208940731
 50
15.14038701503865
 51
164.8596129849613
  0
LINE
  5
6BC9D
  8
HIKIDASHI
 10
6803.2216986559997
 20
12907.496170482569
 30
0.0
 11
6776.0514000838602
 21
12747.580924221889
 31
0.0
  0
LINE
  5
6BC9E
  8
HIKIDASHI
 10
6776.0514000838602
 20
12747.580924221889
 30
0.0
 11
6853.6174380609682
 21
12890.040114391029
 31
0.0
  0
SOLID
  5
6BC9F
  8
HIKIDASHI
 10
6803.2216986559997
 20
12907.496170482569
 30
0.0
 11
6853.6174380609682
 21
12890.040114391029
 31
0.0
 12
6776.0514000838602
 22
12747.580924221889
 32
0.0
 13
6776.0514000838602
 23
12747.580924221889
 33
0.0
  0
LINE
  5
6BCA0
  8
HIKIDASHI
 10
6853.6174380609682
 20
12890.040114391029
 30
0.0
 11
6803.2216986559997
 21
12907.496170482569
 31
0.0
  0
LINE
  5
6BCA1
  8
HIKIDASHI
 10
3674.0585767332918
 20
14649.580924221889
 30
0.0
 11
3647.391910066624
 21
14809.580924221889
 31
0.0
  0
LINE
  5
6BCA2
  8
HIKIDASHI
 10
3647.391910066624
 20
14809.580924221889
 30
0.0
 11
3620.725243399957
 21
14649.580924221889
 31
0.0
  0
SOLID
  5
6BCA3
  8
HIKIDASHI
 10
3674.0585767332918
 20
14649.580924221889
 30
0.0
 11
3620.725243399957
 21
14649.580924221889
 31
0.0
 12
3647.391910066624
 22
14809.580924221889
 32
0.0
 13
3647.391910066624
 23
14809.580924221889
 33
0.0
  0
LINE
  5
6BCA4
  8
HIKIDASHI
 10
3620.725243399957
 20
14649.580924221889
 30
0.0
 11
3674.0585767332918
 21
14649.580924221889
 31
0.0
  0
LINE
  5
6BCA5
  8
HIKIDASHI
 10
4234.0585767332923
 20
14649.580924221889
 30
0.0
 11
4207.3919100666253
 21
14809.580924221889
 31
0.0
  0
LINE
  5
6BCA6
  8
HIKIDASHI
 10
4207.3919100666253
 20
14809.580924221889
 30
0.0
 11
4180.7252433999556
 21
14649.580924221889
 31
0.0
  0
SOLID
  5
6BCA7
  8
HIKIDASHI
 10
4234.0585767332923
 20
14649.580924221889
 30
0.0
 11
4180.7252433999556
 21
14649.580924221889
 31
0.0
 12
4207.3919100666253
 22
14809.580924221889
 32
0.0
 13
4207.3919100666253
 23
14809.580924221889
 33
0.0
  0
LINE
  5
6BCA8
  8
HIKIDASHI
 10
4180.7252433999556
 20
14649.580924221889
 30
0.0
 11
4234.0585767332923
 21
14649.580924221889
 31
0.0
  0
LINE
  5
6BCA9
  8
HIKIDASHI
 10
2568.64689716266
 20
20328.997634699768
 30
0.0
 11
5248.64689716266
 21
20328.997634699768
 31
0.0
  0
LINE
  5
6BCAA
  8
HIKIDASHI
 10
5248.64689716266
 20
20328.997634699768
 30
0.0
 11
5248.64689716266
 21
20838.997634699768
 31
0.0
  0
LINE
  5
6BCAB
  8
HIKIDASHI
 10
5248.64689716266
 20
20838.997634699768
 30
0.0
 11
2568.64689716266
 21
20838.997634699768
 31
0.0
  0
LINE
  5
6BCAC
  8
HIKIDASHI
 10
2568.64689716266
 20
20838.997634699768
 30
0.0
 11
2568.64689716266
 21
20328.997634699768
 31
0.0
  0
ARC
  5
6BCAE
  8
HIKIDASHI
 10
19405.148645799742
 20
14229.536394216
 30
0.0
 40
132.73631840783941
 50
164.8596129850871
 51
237.5045002941435
  0
ARC
  5
6BCAF
  8
HIKIDASHI
 10
19292.395234162032
 20
14260.044880410591
 30
0.0
 40
15.928358208940731
 50
15.14038701503865
 51
164.8596129849613
  0
LINE
  5
6BCB0
  8
HIKIDASHI
 10
17827.97327623978
 20
11474.945663008441
 30
0.0
 11
17695.634831558142
 21
11381.149889274469
 31
0.0
  0
LINE
  5
6BCB1
  8
HIKIDASHI
 10
17695.634831558142
 20
11381.149889274469
 30
0.0
 11
17790.399595856779
 21
11512.79619783849
 31
0.0
  0
SOLID
  5
6BCB2
  8
HIKIDASHI
 10
17827.97327623978
 20
11474.945663008441
 30
0.0
 11
17790.399595856779
 21
11512.79619783849
 31
0.0
 12
17695.634831558142
 22
11381.149889274469
 32
0.0
 13
17695.634831558142
 23
11381.149889274469
 33
0.0
  0
LINE
  5
6BCB3
  8
HIKIDASHI
 10
17790.399595856779
 20
11512.79619783849
 30
0.0
 11
17827.97327623978
 21
11474.945663008441
 31
0.0
  0
LINE
  5
6BCB4
  8
HIKIDASHI
 10
17526.52692142671
 20
13150.944333812609
 30
0.0
 11
17658.865366108352
 21
13057.14856007864
 31
0.0
  0
LINE
  5
6BCB5
  8
HIKIDASHI
 10
17658.865366108352
 20
13057.14856007864
 30
0.0
 11
17564.1006018097
 21
13188.794868642661
 31
0.0
  0
SOLID
  5
6BCB6
  8
HIKIDASHI
 10
17526.52692142671
 20
13150.944333812609
 30
0.0
 11
17564.1006018097
 21
13188.794868642661
 31
0.0
 12
17658.865366108352
 22
13057.14856007864
 32
0.0
 13
17658.865366108352
 23
13057.14856007864
 33
0.0
  0
LINE
  5
6BCB7
  8
HIKIDASHI
 10
17564.1006018097
 20
13188.794868642661
 30
0.0
 11
17526.52692142671
 21
13150.944333812609
 31
0.0
  0
LINE
  5
6BCB8
  8
HIKIDASHI
 10
17543.701521921561
 20
12538.794119320741
 30
0.0
 11
17615.250061873499
 21
12393.219679456261
 31
0.0
  0
LINE
  5
6BCB9
  8
HIKIDASHI
 10
17615.250061873499
 20
12393.219679456261
 30
0.0
 11
17500.355678719669
 21
12507.720298803109
 31
0.0
  0
SOLID
  5
6BCBA
  8
HIKIDASHI
 10
17543.701521921561
 20
12538.794119320741
 30
0.0
 11
17500.355678719669
 21
12507.720298803109
 31
0.0
 12
17615.250061873499
 22
12393.219679456261
 32
0.0
 13
17615.250061873499
 23
12393.219679456261
 33
0.0
  0
LINE
  5
6BCBB
  8
HIKIDASHI
 10
17500.355678719669
 20
12507.720298803109
 30
0.0
 11
17543.701521921561
 21
12538.794119320741
 31
0.0
  0
LINE
  5
6BCBC
  8
HIKIDASHI
 10
17822.156113230008
 20
13589.63763706449
 30
0.0
 11
17765.250123997612
 21
13437.740239125649
 31
0.0
  0
LINE
  5
6BCBD
  8
HIKIDASHI
 10
17765.250123997612
 20
13437.740239125649
 30
0.0
 11
17868.34413476519
 21
13562.97097039783
 31
0.0
  0
SOLID
  5
6BCBE
  8
HIKIDASHI
 10
17822.156113230008
 20
13589.63763706449
 30
0.0
 11
17868.34413476519
 21
13562.97097039783
 31
0.0
 12
17765.250123997612
 22
13437.740239125649
 32
0.0
 13
17765.250123997612
 23
13437.740239125649
 33
0.0
  0
LINE
  5
6BCBF
  8
HIKIDASHI
 10
17868.34413476519
 20
13562.97097039783
 30
0.0
 11
17822.156113230008
 21
13589.63763706449
 31
0.0
  0
LINE
  5
6BCC0
  8
HIKIDASHI
 10
27958.558156294181
 20
14259.07564547467
 30
0.0
 11
28292.110749411571
 21
14409.70317803151
 31
0.0
1001
ACAD
1000
DSTYLE
1002
{
1070
   147
1040
1.0
1070
    77
1070
     0
1002
}
  0
LINE
  5
6BCC1
  8
HIKIDASHI
 10
27947.58306244688
 20
14283.379110786311
 30
0.0
 11
27812.737364424331
 21
14193.22508239088
 31
0.0
  0
LINE
  5
6BCC2
  8
HIKIDASHI
 10
27812.737364424331
 20
14193.22508239088
 30
0.0
 11
27969.53325014147
 21
14234.77218016303
 31
0.0
  0
SOLID
  5
6BCC3
  8
HIKIDASHI
 10
27947.58306244688
 20
14283.379110786311
 30
0.0
 11
27969.53325014147
 21
14234.77218016303
 31
0.0
 12
27812.737364424331
 22
14193.22508239088
 32
0.0
 13
27812.737364424331
 23
14193.22508239088
 33
0.0
  0
LINE
  5
6BCC4
  8
HIKIDASHI
 10
27969.53325014147
 20
14234.77218016303
 30
0.0
 11
27947.58306244688
 21
14283.379110786311
 31
0.0
  0
LINE
  5
6BCC5
  8
HIKIDASHI
 10
26790.945891790219
 20
12241.33307974361
 30
0.0
 11
25386.606758071051
 21
12709.3799716495
 31
0.0
1001
ACAD
1000
DSTYLE
1002
{
1070
   147
1040
1.0
1070
    77
1070
     0
1002
}
  0
LINE
  5
6BCC6
  8
HIKIDASHI
 10
26782.514223911901
 20
12216.034500971249
 30
0.0
 11
26942.737364424342
 21
12190.74307247373
 31
0.0
  0
LINE
  5
6BCC7
  8
HIKIDASHI
 10
26942.737364424342
 20
12190.74307247373
 30
0.0
 11
26799.37755966853
 21
12266.63165851596
 31
0.0
  0
SOLID
  5
6BCC8
  8
HIKIDASHI
 10
26782.514223911901
 20
12216.034500971249
 30
0.0
 11
26799.37755966853
 21
12266.63165851596
 31
0.0
 12
26942.737364424342
 22
12190.74307247373
 32
0.0
 13
26942.737364424342
 23
12190.74307247373
 33
0.0
  0
LINE
  5
6BCC9
  8
HIKIDASHI
 10
26799.37755966853
 20
12266.63165851596
 30
0.0
 11
26782.514223911901
 21
12216.034500971249
 31
0.0
  0
ARC
  5
6BCCA
  8
HIKIDASHI
 10
25197.584114726651
 20
13016.67084706825
 30
0.0
 40
132.73631840783949
 50
301.7712278330693
 51
15.140387014908811
  0
ARC
  5
6BCCB
  8
HIKIDASHI
 10
19181.738758587861
 20
14231.63439841083
 30
0.0
 40
132.73631840783949
 50
301.7712278330693
 51
15.140387014908811
  0
LINE
  5
6BCCC
  8
耐風型受皿
 10
6986.2191802176958
 20
3721.0610773730368
 30
0.0
 11
6986.2191802176958
 21
3905.0610773730368
 31
0.0
  0
LINE
  5
6BCCD
  8
耐風型受皿
 10
6986.2191802176958
 20
3905.0610773730368
 30
0.0
 11
6912.2191442177
 21
3905.0610773730368
 31
0.0
  0
LINE
  5
6BCCE
  8
耐風型受皿
 10
6912.2191442177
 20
3905.0610773730368
 30
0.0
 11
6912.2191442177
 21
3855.0610773730368
 31
0.0
  0
LINE
  5
6BCCF
  8
耐風型受皿
 10
6912.2191442177
 20
3855.0610773730368
 30
0.0
 11
6740.2191442176982
 21
3855.0610773730368
 31
0.0
  0
LINE
  5
6BCD0
  8
耐風型受皿
 10
6740.2191442176982
 20
3855.0610773730368
 30
0.0
 11
6740.2191442176982
 21
3905.0610773730368
 31
0.0
  0
LINE
  5
6BCD1
  8
耐風型受皿
 10
6740.2191442176982
 20
3905.0610773730368
 30
0.0
 11
6666.2191202177046
 21
3905.0610773730368
 31
0.0
  0
LINE
  5
6BCD2
  8
耐風型受皿
 10
6666.2191202177046
 20
3905.0610773730368
 30
0.0
 11
6666.2191202177046
 21
3721.0610773730368
 31
0.0
  0
LINE
  5
6BCD3
  8
耐風型受皿
 10
6666.2191202177046
 20
3721.0610773730368
 30
0.0
 11
6986.2191802176958
 21
3721.0610773730368
 31
0.0
  0
LINE
  5
6BCD4
  8
耐風型受皿
 10
6880.2192811795248
 20
3907.0610540223279
 30
0.0
 11
6772.2192811795248
 21
3907.0610540223279
 31
0.0
  0
LINE
  5
6BCD5
  8
耐風型受皿
 10
6772.2192811795248
 20
3907.0610540223279
 30
0.0
 11
6772.2192811795248
 21
3875.0610540223279
 31
0.0
  0
LINE
  5
6BCD6
  8
耐風型受皿
 10
6772.2192811795248
 20
3875.0610540223279
 30
0.0
 11
6880.2192811795248
 21
3875.0610540223279
 31
0.0
  0
LINE
  5
6BCD7
  8
耐風型受皿
 10
6880.2192811795248
 20
3875.0610540223279
 30
0.0
 11
6880.2192811795248
 21
3907.0610540223279
 31
0.0
  0
LINE
  5
6BCD8
  8
耐風型受皿
 10
6926.2192562177079
 20
3743.060999805668
 30
0.0
 11
6726.2191962177021
 21
3743.060999805668
 31
0.0
  0
LINE
  5
6BCD9
  8
耐風型受皿
 10
6726.2191962177021
 20
3743.060999805668
 30
0.0
 11
6726.2191962177021
 21
3783.060999805668
 31
0.0
  0
LINE
  5
6BCDA
  8
耐風型受皿
 10
6726.2191962177021
 20
3783.060999805668
 30
0.0
 11
6778.219127294622
 21
3783.060967805679
 31
0.0
  0
ARC
  5
6BCDB
  8
耐風型受皿
 10
6778.2191322177096
 20
3791.0609678056771
 30
0.0
 40
7.9999999999996954
 50
269.9999647409827
 51
359.99999999996089
  0
LINE
  5
6BCDC
  8
耐風型受皿
 10
6786.2191322177086
 20
3791.0609678056721
 30
0.0
 11
6786.2191322177086
 21
3806.2610398056709
 31
0.0
  0
LINE
  5
6BCDD
  8
耐風型受皿
 10
6786.2191322177086
 20
3806.2610398056709
 30
0.0
 11
6866.2191322177086
 21
3806.2610398056709
 31
0.0
  0
LINE
  5
6BCDE
  8
耐風型受皿
 10
6866.2191322177086
 20
3806.2610398056709
 30
0.0
 11
6866.2191322177086
 21
3791.0610598056742
 31
0.0
  0
ARC
  5
6BCDF
  8
耐風型受皿
 10
6874.2191322177068
 20
3791.0610598056701
 30
0.0
 40
7.9999999999972706
 50
179.99999999997391
 51
270.0000352588284
  0
LINE
  5
6BCE0
  8
耐風型受皿
 10
6874.2191371407689
 20
3783.0610598056742
 30
0.0
 11
6926.2192562177079
 21
3783.06109180567
 31
0.0
  0
LINE
  5
6BCE1
  8
耐風型受皿
 10
6926.2192562177079
 20
3783.06109180567
 30
0.0
 11
6926.2192562177079
 21
3743.060999805668
 31
0.0
  0
LINE
  5
6BCE2
  8
耐風型受皿
 10
7026.219256217707
 20
3947.0610773730368
 30
0.0
 11
6626.2192562177079
 21
3947.0610773730368
 31
0.0
  0
LINE
  5
6BCE3
  8
耐風型受皿
 10
6626.2192562177079
 20
3947.0610773730368
 30
0.0
 11
6626.2192562177079
 21
3679.0610773730368
 31
0.0
  0
LINE
  5
6BCE4
  8
耐風型受皿
 10
6626.2192562177079
 20
3679.0610773730368
 30
0.0
 11
7026.219256217707
 21
3679.0610773730368
 31
0.0
  0
LINE
  5
6BCE5
  8
耐風型受皿
 10
7026.219256217707
 20
3679.0610773730368
 30
0.0
 11
7026.219256217707
 21
3947.0610773730368
 31
0.0
  0
LINE
  5
6BCE6
  8
U1
 62
     4
 10
26942.737364424342
 20
12150.74307247373
 30
0.0
 11
28342.737364424342
 21
12150.74307247373
 31
0.0
  0
LINE
  5
6BCE7
  8
U1
 62
     4
 10
28342.737364424342
 20
12150.74307247373
 30
0.0
 11
28342.737364424342
 21
12190.74307247373
 31
0.0
  0
LINE
  5
6BCE8
  8
U1
 62
     4
 10
28342.737364424342
 20
12190.74307247373
 30
0.0
 11
26942.737364424342
 21
12190.74307247373
 31
0.0
  0
LINE
  5
6BCE9
  8
U1
 62
     4
 10
26942.737364424342
 20
12190.74307247373
 30
0.0
 11
26942.737364424342
 21
12150.74307247373
 31
0.0
  0
ARC
  5
6BCEA
  8
U6
 10
3967.3919100666249
 20
12572.0809242219
 30
0.0
 40
10.0
 50
90.0
 51
270.0
  0
ARC
  5
6BCEB
  8
U6
 10
3967.3919100666249
 20
12572.0809242219
 30
0.0
 40
10.0
 50
270.0
 51
90.0
  0
ARC
  5
6BCEC
  8
U6
 10
3967.3919100666249
 20
12697.080924221889
 30
0.0
 40
10.0
 50
90.0
 51
270.0
  0
ARC
  5
6BCED
  8
U6
 10
3967.3919100666249
 20
12697.080924221889
 30
0.0
 40
10.0
 50
270.0
 51
90.0
  0
ARC
  5
6BCEE
  8
U6
 10
3967.3919100666249
 20
15322.080924221889
 30
0.0
 40
10.0
 50
90.0
 51
270.0
  0
ARC
  5
6BCEF
  8
U6
 10
3967.3919100666249
 20
15322.080924221889
 30
0.0
 40
10.0
 50
270.0
 51
90.0
  0
ARC
  5
6BCF0
  8
U6
 10
3967.3919100666249
 20
15447.080924221889
 30
0.0
 40
10.0
 50
90.0
 51
270.0
  0
ARC
  5
6BCF1
  8
U6
 10
3967.3919100666249
 20
15447.080924221889
 30
0.0
 40
10.0
 50
270.0
 51
90.0
  0
ARC
  5
6BCF2
  8
U6
 10
9567.3919100666226
 20
12572.0809242219
 30
0.0
 40
10.0
 50
90.0
 51
270.0
  0
ARC
  5
6BCF3
  8
U6
 10
9567.3919100666226
 20
12572.0809242219
 30
0.0
 40
10.0
 50
270.0
 51
90.0
  0
ARC
  5
6BCF4
  8
U6
 10
9567.3919100666226
 20
12697.080924221889
 30
0.0
 40
10.0
 50
90.0
 51
270.0
  0
ARC
  5
6BCF5
  8
U6
 10
9567.3919100666226
 20
12697.080924221889
 30
0.0
 40
10.0
 50
270.0
 51
90.0
  0
ARC
  5
6BCF6
  8
U6
 10
9567.3919100666226
 20
15322.080924221889
 30
0.0
 40
10.0
 50
90.0
 51
270.0
  0
ARC
  5
6BCF7
  8
U6
 10
9567.3919100666226
 20
15322.080924221889
 30
0.0
 40
10.0
 50
270.0
 51
90.0
  0
ARC
  5
6BCF8
  8
U6
 10
9567.3919100666226
 20
15447.080924221889
 30
0.0
 40
10.0
 50
90.0
 51
270.0
  0
ARC
  5
6BCF9
  8
U6
 10
9567.3919100666226
 20
15447.080924221889
 30
0.0
 40
10.0
 50
270.0
 51
90.0
  0
ARC
  5
6BCFA
  8
U6
 10
3967.3919100666249
 20
18197.0809242219
 30
0.0
 40
10.0
 50
90.0
 51
270.0
  0
ARC
  5
6BCFB
  8
U6
 10
3967.3919100666249
 20
18197.0809242219
 30
0.0
 40
10.0
 50
270.0
 51
90.0
  0
ARC
  5
6BCFC
  8
U6
 10
3967.3919100666249
 20
18072.0809242219
 30
0.0
 40
10.0
 50
90.0
 51
270.0
  0
ARC
  5
6BCFD
  8
U6
 10
3967.3919100666249
 20
18072.0809242219
 30
0.0
 40
10.0
 50
270.0
 51
90.0
  0
ARC
  5
6BCFE
  8
U6
 10
6704.8919100666244
 20
18134.580924221889
 30
0.0
 40
10.0
 50
180.0
 51
0.0
  0
ARC
  5
6BCFF
  8
U6
 10
6704.8919100666244
 20
18134.580924221889
 30
0.0
 40
10.0
 50
0.0
 51
180.0
  0
ARC
  5
6BD00
  8
U6
 10
6829.8919100666244
 20
18134.580924221889
 30
0.0
 40
10.0
 50
180.0
 51
0.0
  0
ARC
  5
6BD01
  8
U6
 10
6829.8919100666244
 20
18134.580924221889
 30
0.0
 40
10.0
 50
0.0
 51
180.0
  0
ARC
  5
6BD02
  8
U6
 10
9567.3919100666226
 20
18072.0809242219
 30
0.0
 40
10.0
 50
90.0
 51
270.0
  0
ARC
  5
6BD03
  8
U6
 10
9567.3919100666226
 20
18072.0809242219
 30
0.0
 40
10.0
 50
270.0
 51
90.0
  0
ARC
  5
6BD04
  8
U6
 10
9567.3919100666226
 20
18197.0809242219
 30
0.0
 40
10.0
 50
90.0
 51
270.0
  0
ARC
  5
6BD05
  8
U6
 10
9567.3919100666226
 20
18197.0809242219
 30
0.0
 40
10.0
 50
270.0
 51
90.0
  0
LINE
  5
6BD06
  8
HATCH
 10
17344.26541940587
 20
10917.74023912528
 30
0.0
 11
17182.607344032909
 21
10517.740239125649
 31
0.0
  0
LINE
  5
6BD07
  8
HATCH
 10
17263.97810938126
 20
10517.740239125649
 30
0.0
 11
17216.11295329401
 21
10600.64512138102
 31
0.0
  0
LINE
  5
6BD08
  8
HATCH
 10
17262.894556868599
 20
10917.73999864504
 30
0.0
 11
17310.759712955849
 21
10834.83511638966
 31
0.0
  0
LINE
  5
6BD09
  8
HATCH
 10
17544.265280564599
 20
10917.74023912528
 30
0.0
 11
17382.607205191631
 21
10517.740239125649
 31
0.0
  0
LINE
  5
6BD0A
  8
HATCH
 10
17463.977970539981
 20
10517.740239125649
 30
0.0
 11
17416.112814452728
 21
10600.64512138102
 31
0.0
  0
LINE
  5
6BD0B
  8
HATCH
 10
17462.894418027321
 20
10917.73999864504
 30
0.0
 11
17510.759574114581
 21
10834.83511638966
 31
0.0
  0
LINE
  5
6BD0C
  8
HATCH
 10
17944.265002881919
 20
10917.74023912528
 30
0.0
 11
17782.606927508961
 21
10517.740239125649
 31
0.0
  0
LINE
  5
6BD0D
  8
HATCH
 10
17863.977692857308
 20
10517.740239125649
 30
0.0
 11
17816.112536770059
 21
10600.64512138102
 31
0.0
  0
LINE
  5
6BD0E
  8
HATCH
 10
17862.894140344652
 20
10917.73999864504
 30
0.0
 11
17910.759296431901
 21
10834.83511638966
 31
0.0
  0
LINE
  5
6BD0F
  8
HATCH
 10
17744.265141723259
 20
10917.74023912528
 30
0.0
 11
17582.607066350291
 21
10517.740239125649
 31
0.0
  0
LINE
  5
6BD10
  8
HATCH
 10
17663.977831698649
 20
10517.740239125649
 30
0.0
 11
17616.112675611392
 21
10600.64512138102
 31
0.0
  0
LINE
  5
6BD11
  8
HATCH
 10
17662.894279185981
 20
10917.73999864504
 30
0.0
 11
17710.759435273241
 21
10834.83511638966
 31
0.0
  0
LINE
  5
6BD12
  8
HATCH
 10
18144.26486404059
 20
10917.74023912528
 30
0.0
 11
17982.606788667621
 21
10517.740239125649
 31
0.0
  0
LINE
  5
6BD13
  8
HATCH
 10
18063.977554015972
 20
10517.740239125649
 30
0.0
 11
18016.112397928719
 21
10600.64512138102
 31
0.0
  0
LINE
  5
6BD14
  8
HATCH
 10
18062.894001503311
 20
10917.73999864504
 30
0.0
 11
18110.759157590561
 21
10834.83511638966
 31
0.0
  0
ENDSEC
  0
EOF
