  0
SECTION
  2
HEADER
  9
$ACADVER
  1
AC1009
  9
$INSBASE
 10
267.00000000000011
 20
194.89999999999981
 30
0.0
  9
$EXTMIN
 10
867.99324330406671
 20
327.38164749855792
 30
-0.0000000000000053
  9
$EXTMAX
 10
32765.33210850941
 20
22484.553276491992
 30
0.0000000000000099
  9
$LIMMIN
 10
0.0
 20
0.0
  9
$LIMMAX
 10
33600.0
 20
23760.0
  9
$ORTHOMODE
 70
     0
  9
$REGENMODE
 70
     1
  9
$FILLMODE
 70
     1
  9
$QTEXTMODE
 70
     0
  9
$MIRRTEXT
 70
     0
  9
$DRAGMODE
 70
     2
  9
$LTSCALE
 40
80.0
  9
$OSMODE
 70
  3071
  9
$ATTMODE
 70
     1
  9
$TEXTSIZE
 40
0.2
  9
$TRACEWID
 40
0.05
  9
$TEXTSTYLE
  7
00
  9
$CLAYER
  8
SUNPOU
  9
$CELTYPE
  6
BYLAYER
  9
$CECOLOR
 62
   256
  9
$DIMSCALE
 40
80.0
  9
$DIMASZ
 40
0.5
  9
$DIMEXO
 40
1.0
  9
$DIMDLI
 40
7.0
  9
$DIMRND
 40
0.0
  9
$DIMDLE
 40
3.0
  9
$DIMEXE
 40
1.0
  9
$DIMTP
 40
0.0
  9
$DIMTM
 40
0.0
  9
$DIMTXT
 40
2.0
  9
$DIMCEN
 40
0.0
  9
$DIMTSZ
 40
0.0
  9
$DIMTOL
 70
     0
  9
$DIMLIM
 70
     0
  9
$DIMTIH
 70
     0
  9
$DIMTOH
 70
     0
  9
$DIMSE1
 70
     0
  9
$DIMSE2
 70
     0
  9
$DIMTAD
 70
     1
  9
$DIMZIN
 70
     8
  9
$DIMBLK
  1
DOT
  9
$DIMASO
 70
     1
  9
$DIMSHO
 70
     0
  9
$DIMPOST
  1

  9
$DIMAPOST
  1

  9
$DIMALT
 70
     0
  9
$DIMALTD
 70
     2
  9
$DIMALTF
 40
25.399999999999999
  9
$DIMLFAC
 40
1.0
  9
$DIMTOFL
 70
     1
  9
$DIMTVP
 40
0.0
  9
$DIMTIX
 70
     0
  9
$DIMSOXD
 70
     0
  9
$DIMSAH
 70
     1
  9
$DIMBLK1
  1
DOT
  9
$DIMBLK2
  1
DOT
  9
$DIMSTYLE
  2
SUNPOU_申請図
  9
$DIMCLRD
 70
   256
  9
$DIMCLRE
 70
   256
  9
$DIMCLRT
 70
   256
  9
$DIMTFAC
 40
1.0
  9
$DIMGAP
 40
1.0
  9
$LUNITS
 70
     2
  9
$LUPREC
 70
     2
  9
$SKETCHINC
 40
0.1
  9
$FILLETRAD
 40
0.0
  9
$AUNITS
 70
     0
  9
$AUPREC
 70
     0
  9
$MENU
  1
A:\TIGER\MENU\TIGER
  9
$ELEVATION
 40
0.0
  9
$PELEVATION
 40
0.0
  9
$THICKNESS
 40
0.0
  9
$LIMCHECK
 70
     0
  9
$BLIPMODE
 70
     1
  9
$CHAMFERA
 40
0.0
  9
$CHAMFERB
 40
0.0
  9
$SKPOLY
 70
     0
  9
$TDCREATE
 40
2450266.5710648149
  9
$TDUPDATE
 40
2456314.7613878008
  9
$TDINDWG
 40
0.5034337847
  9
$TDUSRTIMER
 40
0.5034337847
  9
$USRTIMER
 70
     1
  9
$ANGBASE
 50
0.0
  9
$ANGDIR
 70
     0
  9
$PDMODE
 70
     0
  9
$PDSIZE
 40
0.0
  9
$PLINEWID
 40
0.0
  9
$COORDS
 70
     0
  9
$SPLFRAME
 70
     0
  9
$SPLINETYPE
 70
     6
  9
$SPLINESEGS
 70
     8
  9
$ATTDIA
 70
     0
  9
$ATTREQ
 70
     1
  9
$HANDLING
 70
     1
  9
$HANDSEED
  5
76460
  9
$SURFTAB1
 70
     6
  9
$SURFTAB2
 70
     6
  9
$SURFTYPE
 70
     6
  9
$SURFU
 70
     6
  9
$SURFV
 70
     6
  9
$UCSNAME
  2

  9
$UCSORG
 10
0.0
 20
0.0
 30
0.0
  9
$UCSXDIR
 10
1.0
 20
0.0
 30
0.0
  9
$UCSYDIR
 10
0.0
 20
1.0
 30
0.0
  9
$PUCSNAME
  2

  9
$PUCSORG
 10
0.0
 20
0.0
 30
0.0
  9
$PUCSXDIR
 10
1.0
 20
0.0
 30
0.0
  9
$PUCSYDIR
 10
0.0
 20
1.0
 30
0.0
  9
$USERI1
 70
     3
  9
$USERI2
 70
     0
  9
$USERI3
 70
     0
  9
$USERI4
 70
     0
  9
$USERI5
 70
  1103
  9
$USERR1
 40
0.0
  9
$USERR2
 40
1.0
  9
$USERR3
 40
0.0
  9
$USERR4
 40
0.0
  9
$USERR5
 40
0.0
  9
$WORLDVIEW
 70
     1
  9
$SHADEDGE
 70
     3
  9
$SHADEDIF
 70
    70
  9
$TILEMODE
 70
     1
  9
$MAXACTVP
 70
    16
  9
$PLIMCHECK
 70
     0
  9
$PEXTMIN
 10
1.0000000000000000E+020
 20
1.0000000000000000E+020
 30
1.0000000000000000E+020
  9
$PEXTMAX
 10
-1.0000000000000000E+020
 20
-1.0000000000000000E+020
 30
-1.0000000000000000E+020
  9
$PLIMMIN
 10
0.0
 20
0.0
  9
$PLIMMAX
 10
12.0
 20
9.0
  9
$UNITMODE
 70
     0
  9
$VISRETAIN
 70
     0
  9
$PLINEGEN
 70
     1
  9
$PSLTSCALE
 70
     0
  0
ENDSEC
  0
SECTION
  2
TABLES
  0
TABLE
  2
VPORT
 70
     1
  0
VPORT
  2
*ACTIVE
 70
     0
 10
0.0
 20
0.0
 11
1.0
 21
1.0
 12
16800.0
 22
11880.0
 13
0.0
 23
0.0
 14
1.0
 24
1.0
 15
0.0
 25
0.0
 16
0.0
 26
0.0
 36
1.0
 17
0.0
 27
0.0
 37
0.0
 40
23958.55153203342
 41
1.6471408647140859
 42
50.0
 43
0.0
 44
0.0
 50
0.0
 51
0.0
 71
     0
 72
 10000
 73
     1
 74
     0
 75
     0
 76
     0
 77
     0
 78
     0
  0
ENDTAB
  0
TABLE
  2
LTYPE
 70
     4
  0
LTYPE
  2
CONTINUOUS
 70
     0
  3
実線
 72
    65
 73
     0
 40
0.0
  0
LTYPE
  2
1PL-M
 70
     0
  3

 72
    65
 73
     4
 40
15.0
 49
12.0
 49
-1.0
 49
1.0
 49
-1.0
  0
ENDTAB
  0
TABLE
  2
LAYER
 70
    19
  0
LAYER
  2
0
 70
     0
 62
     7
  6
CONTINUOUS
  0
LAYER
  2
U1
 70
     0
 62
     3
  6
CONTINUOUS
  0
LAYER
  2
U3
 70
     0
 62
     6
  6
CONTINUOUS
  0
LAYER
  2
SUNPOU
 70
     0
 62
     4
  6
CONTINUOUS
  0
LAYER
  2
HIKIDASHI
 70
     0
 62
     6
  6
CONTINUOUS
  0
LAYER
  2
1PL-M1
 70
     0
 62
     6
  6
1PL-M
  0
LAYER
  2
NAME
 70
     0
 62
    20
  6
CONTINUOUS
  0
LAYER
  2
KERABA
 70
     0
 62
     3
  6
CONTINUOUS
  0
LAYER
  2
FILENAME
 70
     0
 62
     7
  6
CONTINUOUS
  0
LAYER
  2
YODOROGO
 70
     0
 62
   130
  6
CONTINUOUS
  0
LAYER
  2
WAKUSEN-01
 70
     0
 62
    50
  6
CONTINUOUS
  0
LAYER
  2
WAKUSEN-02
 70
     0
 62
   130
  6
CONTINUOUS
  0
LAYER
  2
WAKUMOJI-01
 70
     0
 62
   130
  6
CONTINUOUS
  0
LAYER
  2
下屋前桁
 70
     0
 62
     3
  6
CONTINUOUS
  0
LAYER
  2
U5
 70
     0
 62
     4
  6
CONTINUOUS
  0
LAYER
  2
TOI
 70
     0
 62
     3
  6
CONTINUOUS
  0
ENDTAB
  0
TABLE
  2
STYLE
 70
     5
  0
STYLE
  2
STANDARD
 70
     0
 40
3.0
 41
1.0
 50
0.0
 71
     0
 42
0.2
  3
ROMANS
  4
EXTFONT
  0
STYLE
  2
01
 70
     0
 40
3.0
 41
1.0
 50
0.0
 71
     0
 42
0.2
  3
ROMANS
  4
BIGFONT
  0
STYLE
  2
00
 70
     0
 40
0.0
 41
0.6666666666666666
 50
0.0
 71
     0
 42
0.2
  3
ROMANS
  4
BIGFONT
  0
STYLE
  2
FILENAME
 70
     0
 40
200.0
 41
1.0
 50
0.0
 71
     0
 42
200.0
  3
romans
  4
bigfont
  0
STYLE
  2
WAKUMOJI
 70
     0
 40
3.0
 41
1.0
 50
0.0
 71
     0
 42
3.0
  3
SIMPLEX
  4
BIGFONT
  0
ENDTAB
  0
TABLE
  2
VIEW
 70
     0
  0
ENDTAB
  0
TABLE
  2
UCS
 70
     0
  0
ENDTAB
  0
TABLE
  2
APPID
 70
    13
  0
APPID
  2
ACAD
 70
     0
  0
APPID
  2
AUTOCAD_POSTSCRIPT_FIGURE
 70
     0
  0
APPID
  2
CONTENTBLOCKICON
 70
     0
  0
APPID
  2
ACAD_PSEXT
 70
     0
  0
APPID
  2
ACAD_EXEMPT_FROM_CAD_STANDARDS
 70
     0
  0
APPID
  2
ACAD_NAV_VCDISPLAY
 70
     0
  0
APPID
  2
ACAECLAYERSTANDARD
 70
     0
  0
APPID
  2
ACCMTRANSPARENCY
 70
     0
  0
APPID
  2
ACLAYERTOOLS
 70
     0
  0
APPID
  2
GRADIENTCOLOR1ACI
 70
     0
  0
APPID
  2
GRADIENTCOLOR2ACI
 70
     0
  0
APPID
  2
AEC_XDATA_BOUND_SPACE
 70
     0
  0
APPID
  2
ACAD_MLEADERVER
 70
     0
  0
ENDTAB
  0
TABLE
  2
DIMSTYLE
 70
     4
  0
DIMSTYLE
  2
SUNPOU_申請図
 70
     0
  3

  4

  5
DOT
  6
DOT
  7
DOT
 40
80.0
 41
0.5
 42
1.0
 43
7.0
 44
1.0
 45
0.0
 46
3.0
 47
0.0
 48
0.0
140
2.0
141
0.0
142
0.0
143
25.399999999999999
144
1.0
145
0.0
146
1.0
147
1.0
 71
     0
 72
     0
 73
     0
 74
     0
 75
     0
 76
     0
 77
     1
 78
     8
170
     0
171
     2
172
     1
173
     1
174
     0
175
     0
176
   256
177
   256
178
   256
  0
ENDTAB
  0
ENDSEC
  0
SECTION
  2
BLOCKS
  0
BLOCK
  8
0
  2
$MODEL_SPACE
 70
     0
 10
0.0
 20
0.0
 30
0.0
  3
$MODEL_SPACE
  1

  0
ENDBLK
  5
125F7
  8
0
  0
BLOCK
 67
     1
  8
0
  2
$PAPER_SPACE
 70
     0
 10
0.0
 20
0.0
 30
0.0
  3
$PAPER_SPACE
  1

  0
ENDBLK
  5
125F5
 67
     1
  8
0
  0
BLOCK
  8
0
  2
DOT
 70
     0
 10
0.0
 20
0.0
 30
0.0
  3
DOT
  1

  0
POLYLINE
  5
12980
  8
0
  6
BYBLOCK
 62
     0
 66
     1
 10
0.0
 20
0.0
 30
0.0
 70
     1
 40
0.75
 41
0.75
  0
VERTEX
  5
76420
  8
0
  6
BYBLOCK
 62
     0
 10
-0.375
 20
0.0
 30
0.0
 42
1.0
  0
VERTEX
  5
76421
  8
0
  6
BYBLOCK
 62
     0
 10
0.375
 20
0.0
 30
0.0
 42
1.0
  0
SEQEND
  5
76422
  8
0
  6
BYBLOCK
 62
     0
  0
LINE
  5
12981
  8
0
  6
BYBLOCK
 62
     0
 10
-0.75
 20
0.0
 30
0.0
 11
-1.5
 21
0.0
 31
0.0
  0
ENDBLK
  5
12982
  8
0
  0
ENDSEC
  0
SECTION
  2
ENTITIES
  0
TEXT
  5
6FDBB
  8
NAME
 10
21780.69365239378
 20
1877.7796840770311
 30
0.0
 40
360.0
  1
ヨ ド 倉 庫（下屋付き）
  7
01
  0
TEXT
  5
6FDBC
  8
NAME
 10
21528.924877815309
 20
1049.7796840770241
 30
0.0
 40
340.0
  1
SOB-5857H
 41
0.6400000000000001
  7
00
  0
TEXT
  5
6FDBD
  8
NAME
 10
23807.326849264278
 20
1050.2352588493161
 30
0.0
 40
340.0
  1
型（　連棟）
 41
0.6400000000000001
  7
00
  0
TEXT
  5
6FDBE
  8
NAME
 10
25297.321196260378
 20
1049.7796840770241
 30
0.0
 40
340.0
  1
+
 41
0.6400000000000001
  7
00
  0
TEXT
  5
6FDBF
  8
NAME
 10
26164.939750572819
 20
1050.2352588493161
 30
0.0
 40
340.0
  1
1/5
 41
0.6400000000000001
  7
00
  0
TEXT
  5
6FDC0
  8
NAME
 10
24318.53488405003
 20
1050.2352588493161
 30
0.0
 40
340.0
  1
2
 41
0.6400000000000001
  7
00
  0
TEXT
  5
6FDC1
  8
NAME
 10
25617.466981473652
 20
1050.2352588493161
 30
0.0
 40
340.0
  1
下屋
 41
0.6400000000000001
  7
00
  0
LINE
  5
74F59
  8
TOI
 10
11076.700000000021
 20
6679.3512883093053
 30
0.0
 11
11076.700000000021
 21
6689.3512883093072
 31
0.0
  0
LINE
  5
74F5A
  8
TOI
 10
11186.700000000021
 20
6689.3512883093072
 30
0.0
 11
11076.700000000021
 21
6689.3512883093072
 31
0.0
  0
LINE
  5
74F5B
  8
TOI
 10
11186.700000000021
 20
6679.3512883093053
 30
0.0
 11
11076.700000000021
 21
6679.3512883093053
 31
0.0
  0
LINE
  5
74F5C
  8
KERABA
 10
14091.42785426008
 20
9625.814810388154
 30
0.0
 11
14076.659626750859
 21
9805.207952554294
 31
0.0
  0
LINE
  5
74F5D
  8
TOI
 10
11081.700000000021
 20
9293.1498468246882
 30
0.0
 11
11141.700000000021
 21
9293.1498468246882
 31
0.0
  0
LINE
  5
74F60
  8
TOI
 10
11081.700000000021
 20
9323.1498468246864
 30
0.0
 11
11032.60910966032
 21
9331.8058952985593
 31
0.0
  0
ARC
  5
74F61
  8
TOI
 10
11091.700000000021
 20
9331.5408431364485
 30
0.0
 40
50.0
 50
0.0
 51
75.32657161489216
  0
LINE
  5
74F62
  8
TOI
 10
11081.700000000021
 20
9323.1498468246864
 30
0.0
 11
11091.521931451691
 21
9378.8527881001792
 31
0.0
  0
LINE
  5
74F63
  8
TOI
 10
11048.805117979129
 20
9375.3362009429984
 30
0.0
 11
11040.872627883629
 21
9330.3488140802219
 31
0.0
  0
ARC
  5
74F64
  8
TOI
 10
11041.29151854368
 20
9381.0462829491735
 30
0.0
 40
50.0
 50
191.95309128701689
 51
259.99999999952519
  0
LINE
  5
74F65
  8
KERABA
 10
17200.093557575139
 20
10062.33920262933
 30
0.0
 11
10953.225695924901
 21
9548.0767024790839
 31
0.0
  0
LINE
  5
74F66
  8
KERABA
 10
17237.27283727553
 20
10037.30520253027
 30
0.0
 11
10920.640975894001
 21
9517.2995027931611
 31
0.0
  0
LINE
  5
74F67
  8
KERABA
 10
17235.443671557128
 20
10035.147853978309
 30
0.0
 11
10922.79832444597
 21
9515.4703370747284
 31
0.0
  0
LINE
  5
74F68
  8
KERABA
 10
17236.264128640942
 20
10025.1815683024
 30
0.0
 11
10923.61878152978
 21
9505.5040513988497
 31
0.0
  0
LINE
  5
74F69
  8
KERABA
 10
17234.43496292254
 20
10023.02421975047
 30
0.0
 11
10925.77613008174
 21
9503.6748856804188
 31
0.0
  0
LINE
  5
74F6A
  8
KERABA
 10
17235.255420006411
 20
10013.057934074561
 30
0.0
 11
10926.59658716561
 21
9493.7086000045383
 31
0.0
  0
LINE
  5
74F6B
  8
KERABA
 10
17239.570117110281
 20
10009.399602637761
 30
0.0
 11
10922.93825572875
 21
9489.3939029006415
 31
0.0
  0
LINE
  5
74F6C
  8
KERABA
 10
17242.311350927401
 20
9927.3478772618546
 30
0.0
 11
10933.65251808661
 21
9407.9985431918321
 31
0.0
  0
LINE
  5
74F6D
  8
KERABA
 10
17243.320059561989
 20
9939.4715114896971
 30
0.0
 11
10930.674712450829
 21
9419.7939945861435
 31
0.0
  0
LINE
  5
74F6E
  8
KERABA
 10
17244.140516645799
 20
9929.5052258138185
 30
0.0
 11
10931.495169534641
 21
9409.8277089102321
 31
0.0
  0
LINE
  5
74F6F
  8
KERABA
 10
17247.446505115138
 20
9913.7232601491414
 30
0.0
 11
10930.81464373362
 21
9393.7175604120257
 31
0.0
  0
LINE
  5
74F70
  8
KERABA
 10
17243.131808011269
 20
9917.3815915859741
 30
0.0
 11
10934.47297517048
 21
9398.0322575159225
 31
0.0
  0
LINE
  5
74F71
  8
KERABA
 10
17214.861785084249
 20
9882.9460604631895
 30
0.0
 11
10967.993923434
 21
9368.683560312973
 31
0.0
  0
LINE
  5
74F72
  8
TOI
 10
11186.700000000021
 20
8893.1498468246864
 30
0.0
 11
11076.700000000021
 21
8893.1498468246864
 31
0.0
  0
LINE
  5
74F73
  8
TOI
 10
11186.700000000021
 20
8903.1498468246864
 30
0.0
 11
11076.700000000021
 21
8903.1498468246864
 31
0.0
  0
LINE
  5
74F74
  8
TOI
 10
11076.700000000021
 20
8893.1498468246864
 30
0.0
 11
11076.700000000021
 21
8903.1498468246864
 31
0.0
  0
LINE
  5
74F75
  8
TOI
 10
11076.700000000021
 20
7786.2512883093004
 30
0.0
 11
11076.700000000021
 21
7796.2512883093013
 31
0.0
  0
LINE
  5
74F76
  8
TOI
 10
11186.700000000021
 20
7796.2512883093013
 30
0.0
 11
11076.700000000021
 21
7796.2512883093013
 31
0.0
  0
LINE
  5
74F77
  8
TOI
 10
11186.700000000021
 20
7786.2512883093004
 30
0.0
 11
11076.700000000021
 21
7786.2512883093004
 31
0.0
  0
LINE
  5
74F78
  8
TOI
 10
11081.700000000021
 20
6325.2917521017798
 30
0.0
 11
11081.700000000021
 21
9323.1498468246864
 31
0.0
  0
LINE
  5
74F79
  8
TOI
 10
11141.700000000021
 20
6325.2917521017798
 30
0.0
 11
11081.700000000021
 21
6325.2917521017798
 31
0.0
  0
LINE
  5
74F7A
  8
TOI
 10
11141.700000000021
 20
6325.2917521017798
 30
0.0
 11
11141.700000000021
 21
9331.5408431364485
 31
0.0
  0
LINE
  5
74F7B
  8
U1
 10
16859.099999999919
 20
6285.2917521017798
 30
0.0
 11
16859.099999999919
 21
9853.6585920698853
 31
0.0
  0
LINE
  5
74F7C
  8
U1
 10
11385.400000000031
 20
6285.2917521017798
 30
0.0
 11
11189.400000000031
 21
6285.2917521017798
 31
0.0
  0
LINE
  5
74F7D
  8
U1
 10
11385.400000000031
 20
6285.2917521017798
 30
0.0
 11
11385.400000000031
 21
9403.0457874749118
 31
0.0
  0
LINE
  5
74F7E
  8
U1
 10
11189.400000000031
 20
6285.2917521017798
 30
0.0
 11
11189.400000000031
 21
9386.9104293623677
 31
0.0
  0
LINE
  5
74F7F
  8
U3
 10
15256.500000000009
 20
6285.2917521017798
 30
0.0
 11
15256.500000000009
 21
9721.7273425219901
 31
0.0
  0
LINE
  5
74F80
  8
U3
 10
15260.500000000009
 20
6285.2917521017798
 30
0.0
 11
15260.500000000009
 21
9722.0566355447099
 31
0.0
  0
LINE
  5
74F81
  8
U3
 10
15274.500000000009
 20
6285.2917521017798
 30
0.0
 11
15274.500000000009
 21
9723.2091611241794
 31
0.0
  0
LINE
  5
74F82
  8
U3
 10
15303.000000000009
 20
6285.2917521017798
 30
0.0
 11
15303.000000000009
 21
9725.5553739109746
 31
0.0
  0
LINE
  5
74F83
  8
U3
 10
15305.000000000009
 20
6285.2917521017798
 30
0.0
 11
15305.000000000009
 21
9725.7200204223209
 31
0.0
  0
LINE
  5
74F84
  8
U3
 10
15387.000000000009
 20
6285.2917521017798
 30
0.0
 11
15387.000000000009
 21
9732.4705273878208
 31
0.0
  0
LINE
  5
74F85
  8
U3
 10
15385.000000000009
 20
6285.2917521017798
 30
0.0
 11
15385.000000000009
 21
9732.3058808764763
 31
0.0
  0
LINE
  5
74F86
  8
U3
 10
15415.500000000009
 20
6285.2917521017798
 30
0.0
 11
15415.500000000009
 21
9734.8167401746177
 31
0.0
  0
LINE
  5
74F87
  8
U3
 10
15429.5
 20
6285.2917521017798
 30
0.0
 11
15429.5
 21
9735.9692657540872
 31
0.0
  0
LINE
  5
74F88
  8
U3
 10
15433.500000000009
 20
6285.2917521017798
 30
0.0
 11
15433.500000000009
 21
9736.2985587768053
 31
0.0
  0
LINE
  5
74F89
  8
U3
 10
15633.500000000009
 20
6285.2917521017798
 30
0.0
 11
15633.500000000009
 21
9752.7632099121547
 31
0.0
  0
LINE
  5
74F8A
  8
U3
 10
15629.5
 20
6285.2917521017798
 30
0.0
 11
15629.5
 21
9752.4339168894658
 31
0.0
  0
LINE
  5
74F8B
  8
U3
 10
15615.500000000009
 20
6285.2917521017798
 30
0.0
 11
15615.500000000009
 21
9751.2813913099671
 31
0.0
  0
LINE
  5
74F8C
  8
U3
 10
15585.000000000009
 20
6285.2917521017798
 30
0.0
 11
15585.000000000009
 21
9748.7705320118257
 31
0.0
  0
LINE
  5
74F8D
  8
U3
 10
15587.000000000009
 20
6285.2917521017798
 30
0.0
 11
15587.000000000009
 21
9748.9351785231993
 31
0.0
  0
LINE
  5
74F8E
  8
U3
 10
15505.000000000009
 20
6285.2917521017798
 30
0.0
 11
15505.000000000009
 21
9742.1846715576976
 31
0.0
  0
LINE
  5
74F8F
  8
U3
 10
15503.000000000009
 20
6285.2917521017798
 30
0.0
 11
15503.000000000009
 21
9742.020025046324
 31
0.0
  0
LINE
  5
74F90
  8
U3
 10
15474.500000000009
 20
6285.2917521017798
 30
0.0
 11
15474.500000000009
 21
9739.6738122595561
 31
0.0
  0
LINE
  5
74F91
  8
U3
 10
15460.500000000009
 20
6285.2917521017798
 30
0.0
 11
15460.500000000009
 21
9738.5212866800575
 31
0.0
  0
LINE
  5
74F92
  8
U3
 10
15456.500000000009
 20
6285.2917521017798
 30
0.0
 11
15456.500000000009
 21
9738.1919936573704
 31
0.0
  0
LINE
  5
74F93
  8
U3
 10
15656.500000000009
 20
6285.2917521017798
 30
0.0
 11
15656.500000000009
 21
9754.6566447927162
 31
0.0
  0
LINE
  5
74F94
  8
U3
 10
15660.500000000009
 20
6285.2917521017798
 30
0.0
 11
15660.500000000009
 21
9754.9859378154379
 31
0.0
  0
LINE
  5
74F95
  8
U3
 10
15674.500000000009
 20
6285.2917521017798
 30
0.0
 11
15674.500000000009
 21
9756.1384633949056
 31
0.0
  0
LINE
  5
74F96
  8
U3
 10
15703.0
 20
6285.2917521017798
 30
0.0
 11
15703.0
 21
9758.4846761817025
 31
0.0
  0
LINE
  5
74F97
  8
U3
 10
15705.000000000009
 20
6285.2917521017798
 30
0.0
 11
15705.000000000009
 21
9758.649322693047
 31
0.0
  0
LINE
  5
74F98
  8
U3
 10
15787.000000000009
 20
6285.2917521017798
 30
0.0
 11
15787.000000000009
 21
9765.3998296585487
 31
0.0
  0
LINE
  5
74F99
  8
U3
 10
15785.000000000009
 20
6285.2917521017798
 30
0.0
 11
15785.000000000009
 21
9765.2351831472042
 31
0.0
  0
LINE
  5
74F9A
  8
U3
 10
15815.500000000009
 20
6285.2917521017798
 30
0.0
 11
15815.500000000009
 21
9767.7460424453457
 31
0.0
  0
LINE
  5
74F9B
  8
U3
 10
15829.500000000009
 20
6285.2917521017798
 30
0.0
 11
15829.500000000009
 21
9768.8985680248152
 31
0.0
  0
LINE
  5
74F9C
  8
U3
 10
15833.5
 20
6285.2917521017798
 30
0.0
 11
15833.5
 21
9769.2278610475332
 31
0.0
  0
LINE
  5
74F9D
  8
U3
 10
16033.5
 20
6285.2917521017798
 30
0.0
 11
16033.5
 21
9785.6925121828826
 31
0.0
  0
LINE
  5
74F9E
  8
U3
 10
16029.5
 20
6285.2917521017798
 30
0.0
 11
16029.5
 21
9785.3632191601955
 31
0.0
  0
LINE
  5
74F9F
  8
U3
 10
16015.5
 20
6285.2917521017798
 30
0.0
 11
16015.5
 21
9784.2106935806969
 31
0.0
  0
LINE
  5
74FA0
  8
U3
 10
15985.0
 20
6285.2917521017798
 30
0.0
 11
15985.0
 21
9781.6998342825555
 31
0.0
  0
LINE
  5
74FA1
  8
U3
 10
15987.000000000009
 20
6285.2917521017798
 30
0.0
 11
15987.000000000009
 21
9781.8644807939272
 31
0.0
  0
LINE
  5
74FA2
  8
U3
 10
15905.000000000009
 20
6285.2917521017798
 30
0.0
 11
15905.000000000009
 21
9775.1139738284255
 31
0.0
  0
LINE
  5
74FA3
  8
U3
 10
15903.0
 20
6285.2917521017798
 30
0.0
 11
15903.0
 21
9774.9493273170519
 31
0.0
  0
LINE
  5
74FA4
  8
U3
 10
15874.5
 20
6285.2917521017798
 30
0.0
 11
15874.5
 21
9772.6031145302841
 31
0.0
  0
LINE
  5
74FA5
  8
U3
 10
15860.500000000009
 20
6285.2917521017798
 30
0.0
 11
15860.500000000009
 21
9771.4505889507855
 31
0.0
  0
LINE
  5
74FA6
  8
U3
 10
15856.500000000009
 20
6285.2917521017798
 30
0.0
 11
15856.500000000009
 21
9771.1212959280965
 31
0.0
  0
LINE
  5
74FA7
  8
U3
 10
16656.500000000011
 20
6285.2917521017798
 30
0.0
 11
16656.500000000011
 21
9836.9799004695524
 31
0.0
  0
LINE
  5
74FA8
  8
U3
 10
16660.5
 20
6285.2917521017798
 30
0.0
 11
16660.5
 21
9837.3091934922413
 31
0.0
  0
LINE
  5
74FA9
  8
U3
 10
16674.5
 20
6285.2917521017798
 30
0.0
 11
16674.5
 21
9838.4617190717418
 31
0.0
  0
LINE
  5
74FAA
  8
U3
 10
16703.000000000011
 20
6285.2917521017798
 30
0.0
 11
16703.000000000011
 21
9840.8079318585078
 31
0.0
  0
LINE
  5
74FAB
  8
U3
 10
16705.0
 20
6285.2917521017798
 30
0.0
 11
16705.0
 21
9840.9725783698814
 31
0.0
  0
LINE
  5
74FAC
  8
U3
 10
16633.500000000011
 20
6285.2917521017798
 30
0.0
 11
16633.500000000011
 21
9835.0864655889909
 31
0.0
  0
LINE
  5
74FAD
  8
U3
 10
16629.500000000011
 20
6285.2917521017798
 30
0.0
 11
16629.500000000011
 21
9834.7571725662729
 31
0.0
  0
LINE
  5
74FAE
  8
U3
 10
16615.5
 20
6285.2917521017798
 30
0.0
 11
16615.5
 21
9833.6046469868033
 31
0.0
  0
LINE
  5
74FAF
  8
U3
 10
16585.0
 20
6285.2917521017798
 30
0.0
 11
16585.0
 21
9831.0937876886601
 31
0.0
  0
LINE
  5
74FB0
  8
U3
 10
16587.0
 20
6285.2917521017798
 30
0.0
 11
16587.0
 21
9831.2584342000046
 31
0.0
  0
LINE
  5
74FB1
  8
U3
 10
16505.0
 20
6285.2917521017798
 30
0.0
 11
16505.0
 21
9824.5079272345047
 31
0.0
  0
LINE
  5
74FB2
  8
U3
 10
16503.0
 20
6285.2917521017798
 30
0.0
 11
16503.0
 21
9824.3432807231584
 31
0.0
  0
LINE
  5
74FB3
  8
U3
 10
16474.5
 20
6285.2917521017798
 30
0.0
 11
16474.5
 21
9821.9970679363614
 31
0.0
  0
LINE
  5
74FB4
  8
U3
 10
16460.500000000011
 20
6285.2917521017798
 30
0.0
 11
16460.500000000011
 21
9820.8445423568919
 31
0.0
  0
LINE
  5
74FB5
  8
U3
 10
16456.5
 20
6285.2917521017798
 30
0.0
 11
16456.5
 21
9820.5152493341739
 31
0.0
  0
LINE
  5
74FB6
  8
U3
 10
16256.5
 20
6285.2917521017798
 30
0.0
 11
16256.5
 21
9804.0505981988244
 31
0.0
  0
LINE
  5
74FB7
  8
U3
 10
16260.500000000009
 20
6285.2917521017798
 30
0.0
 11
16260.500000000009
 21
9804.3798912215152
 31
0.0
  0
LINE
  5
74FB8
  8
U3
 10
16274.5
 20
6285.2917521017798
 30
0.0
 11
16274.5
 21
9805.532416801012
 31
0.0
  0
LINE
  5
74FB9
  8
U3
 10
16303.0
 20
6285.2917521017798
 30
0.0
 11
16303.0
 21
9807.8786295877817
 31
0.0
  0
LINE
  5
74FBA
  8
U3
 10
16305.0
 20
6285.2917521017798
 30
0.0
 11
16305.0
 21
9808.0432760991553
 31
0.0
  0
LINE
  5
74FBB
  8
U3
 10
16387.0
 20
6285.2917521017798
 30
0.0
 11
16387.0
 21
9814.7937830646551
 31
0.0
  0
LINE
  5
74FBC
  8
U3
 10
16385.0
 20
6285.2917521017798
 30
0.0
 11
16385.0
 21
9814.6291365532816
 31
0.0
  0
LINE
  5
74FBD
  8
U3
 10
16415.5
 20
6285.2917521017798
 30
0.0
 11
16415.5
 21
9817.139995851423
 31
0.0
  0
LINE
  5
74FBE
  8
U3
 10
16429.5
 20
6285.2917521017798
 30
0.0
 11
16429.5
 21
9818.2925214309216
 31
0.0
  0
LINE
  5
74FBF
  8
U3
 10
16433.5
 20
6285.2917521017798
 30
0.0
 11
16433.5
 21
9818.6218144536124
 31
0.0
  0
LINE
  5
74FC0
  8
U3
 10
16233.500000000009
 20
6285.2917521017798
 30
0.0
 11
16233.500000000009
 21
9802.157163318263
 31
0.0
  0
LINE
  5
74FC1
  8
U3
 10
16229.500000000009
 20
6285.2917521017798
 30
0.0
 11
16229.500000000009
 21
9801.8278702955431
 31
0.0
  0
LINE
  5
74FC2
  8
U3
 10
16215.5
 20
6285.2917521017798
 30
0.0
 11
16215.5
 21
9800.6753447160736
 31
0.0
  0
LINE
  5
74FC3
  8
U3
 10
16185.0
 20
6285.2917521017798
 30
0.0
 11
16185.0
 21
9798.1644854179322
 31
0.0
  0
LINE
  5
74FC4
  8
U3
 10
16187.000000000009
 20
6285.2917521017798
 30
0.0
 11
16187.000000000009
 21
9798.3291319292784
 31
0.0
  0
LINE
  5
74FC5
  8
U3
 10
16105.0
 20
6285.2917521017798
 30
0.0
 11
16105.0
 21
9791.5786249637767
 31
0.0
  0
LINE
  5
74FC6
  8
U3
 10
16103.0
 20
6285.2917521017798
 30
0.0
 11
16103.0
 21
9791.4139784524323
 31
0.0
  0
LINE
  5
74FC7
  8
U3
 10
16074.5
 20
6285.2917521017798
 30
0.0
 11
16074.5
 21
9789.0677656656353
 31
0.0
  0
LINE
  5
74FC8
  8
U3
 10
16060.500000000009
 20
6285.2917521017798
 30
0.0
 11
16060.500000000009
 21
9787.915240086164
 31
0.0
  0
LINE
  5
74FC9
  8
U3
 10
16056.500000000009
 20
6285.2917521017798
 30
0.0
 11
16056.500000000009
 21
9787.5859470634477
 31
0.0
  0
LINE
  5
74FCA
  8
U3
 10
14456.5
 20
6285.2917521017798
 30
0.0
 11
14456.5
 21
9655.8687379805342
 31
0.0
  0
LINE
  5
74FCB
  8
U3
 10
15185.000000000009
 20
6285.2917521017798
 30
0.0
 11
15185.000000000009
 21
9715.8412297410978
 31
0.0
  0
LINE
  5
74FCC
  8
U3
 10
15187.000000000009
 20
6285.2917521017798
 30
0.0
 11
15187.000000000009
 21
9716.0058762524714
 31
0.0
  0
LINE
  5
74FCD
  8
U3
 10
15229.5
 20
6285.2917521017798
 30
0.0
 11
15229.5
 21
9719.5046146187378
 31
0.0
  0
LINE
  5
74FCE
  8
U3
 10
15233.500000000009
 20
6285.2917521017798
 30
0.0
 11
15233.500000000009
 21
9719.8339076414286
 31
0.0
  0
LINE
  5
74FCF
  8
U3
 10
15215.500000000009
 20
6285.2917521017798
 30
0.0
 11
15215.500000000009
 21
9718.352089039241
 31
0.0
  0
LINE
  5
74FD0
  8
U3
 10
14985.000000000009
 20
6285.2917521017798
 30
0.0
 11
14985.000000000009
 21
9699.3765786057484
 31
0.0
  0
LINE
  5
74FD1
  8
U3
 10
14987.000000000009
 20
6285.2917521017798
 30
0.0
 11
14987.000000000009
 21
9699.5412251170947
 31
0.0
  0
LINE
  5
74FD2
  8
U3
 10
15015.500000000009
 20
6285.2917521017798
 30
0.0
 11
15015.500000000009
 21
9701.8874379038916
 31
0.0
  0
LINE
  5
74FD3
  8
U3
 10
15029.500000000009
 20
6285.2917521017798
 30
0.0
 11
15029.500000000009
 21
9703.0399634833611
 31
0.0
  0
LINE
  5
74FD4
  8
U3
 10
15033.500000000009
 20
6285.2917521017798
 30
0.0
 11
15033.500000000009
 21
9703.3692565060774
 31
0.0
  0
LINE
  5
74FD5
  8
U3
 10
15060.5
 20
6285.2917521017798
 30
0.0
 11
15060.5
 21
9705.5919844093314
 31
0.0
  0
LINE
  5
74FD6
  8
U3
 10
15056.500000000009
 20
6285.2917521017798
 30
0.0
 11
15056.500000000009
 21
9705.2626913866407
 31
0.0
  0
LINE
  5
74FD7
  8
U3
 10
15074.500000000009
 20
6285.2917521017798
 30
0.0
 11
15074.500000000009
 21
9706.74450998883
 31
0.0
  0
LINE
  5
74FD8
  8
U3
 10
15105.000000000009
 20
6285.2917521017798
 30
0.0
 11
15105.000000000009
 21
9709.2553692869715
 31
0.0
  0
LINE
  5
74FD9
  8
U3
 10
15103.000000000009
 20
6285.2917521017798
 30
0.0
 11
15103.000000000009
 21
9709.0907227755979
 31
0.0
  0
LINE
  5
74FDA
  8
U3
 10
14903.000000000009
 20
6285.2917521017798
 30
0.0
 11
14903.000000000009
 21
9692.6260716402485
 31
0.0
  0
LINE
  5
74FDB
  8
U3
 10
14860.5
 20
6285.2917521017798
 30
0.0
 11
14860.5
 21
9689.1273332739802
 31
0.0
  0
LINE
  5
74FDC
  8
U3
 10
14874.500000000009
 20
6285.2917521017798
 30
0.0
 11
14874.500000000009
 21
9690.2798588534497
 31
0.0
  0
LINE
  5
74FDD
  8
U3
 10
14905.000000000009
 20
6285.2917521017798
 30
0.0
 11
14905.000000000009
 21
9692.7907181515911
 31
0.0
  0
LINE
  5
74FDE
  8
U3
 10
14856.500000000009
 20
6285.2917521017798
 30
0.0
 11
14856.500000000009
 21
9688.7980402512621
 31
0.0
  0
LINE
  5
74FDF
  8
U3
 10
14833.500000000009
 20
6285.2917521017798
 30
0.0
 11
14833.500000000009
 21
9686.9046053706988
 31
0.0
  0
LINE
  5
74FE0
  8
U3
 10
14829.500000000009
 20
6285.2917521017798
 30
0.0
 11
14829.500000000009
 21
9686.5753123480117
 31
0.0
  0
LINE
  5
74FE1
  8
U3
 10
14815.500000000009
 20
6285.2917521017798
 30
0.0
 11
14815.500000000009
 21
9685.4227867685113
 31
0.0
  0
LINE
  5
74FE2
  8
U3
 10
14785.000000000009
 20
6285.2917521017798
 30
0.0
 11
14785.000000000009
 21
9682.9119274703717
 31
0.0
  0
LINE
  5
74FE3
  8
U3
 10
14787.0
 20
6285.2917521017798
 30
0.0
 11
14787.0
 21
9683.0765739817434
 31
0.0
  0
LINE
  5
74FE4
  8
U3
 10
14705.000000000009
 20
6285.2917521017798
 30
0.0
 11
14705.000000000009
 21
9676.3260670162417
 31
0.0
  0
LINE
  5
74FE5
  8
U3
 10
14703.000000000009
 20
6285.2917521017798
 30
0.0
 11
14703.000000000009
 21
9676.1614205048681
 31
0.0
  0
LINE
  5
74FE6
  8
U3
 10
14660.5
 20
6285.2917521017798
 30
0.0
 11
14660.5
 21
9672.6626821386017
 31
0.0
  0
LINE
  5
74FE7
  8
U3
 10
14674.500000000009
 20
6285.2917521017798
 30
0.0
 11
14674.500000000009
 21
9673.8152077180985
 31
0.0
  0
LINE
  5
74FE8
  8
U3
 10
14656.500000000009
 20
6285.2917521017798
 30
0.0
 11
14656.500000000009
 21
9672.3333891159127
 31
0.0
  0
LINE
  5
74FE9
  8
U3
 10
14633.500000000009
 20
6285.2917521017798
 30
0.0
 11
14633.500000000009
 21
9670.4399542353494
 31
0.0
  0
LINE
  5
74FEA
  8
U3
 10
14629.500000000009
 20
6285.2917521017798
 30
0.0
 11
14629.500000000009
 21
9670.1106612126314
 31
0.0
  0
LINE
  5
74FEB
  8
U3
 10
14615.5
 20
6285.2917521017798
 30
0.0
 11
14615.5
 21
9668.9581356331619
 31
0.0
  0
LINE
  5
74FEC
  8
U3
 10
14587.000000000009
 20
6285.2917521017798
 30
0.0
 11
14587.000000000009
 21
9666.6119228463667
 31
0.0
  0
LINE
  5
74FED
  8
U3
 10
14585.0
 20
6285.2917521017798
 30
0.0
 11
14585.0
 21
9666.4472763350204
 31
0.0
  0
LINE
  5
74FEE
  8
U3
 10
14503.000000000009
 20
6285.2917521017798
 30
0.0
 11
14503.000000000009
 21
9659.6967693695187
 31
0.0
  0
LINE
  5
74FEF
  8
U3
 10
14505.0
 20
6285.2917521017798
 30
0.0
 11
14505.0
 21
9659.8614158808632
 31
0.0
  0
LINE
  5
74FF0
  8
U3
 10
14460.5
 20
6285.2917521017798
 30
0.0
 11
14460.5
 21
9656.1980310032523
 31
0.0
  0
LINE
  5
74FF1
  8
U3
 10
14474.5
 20
6285.2917521017798
 30
0.0
 11
14474.5
 21
9657.3505565827218
 31
0.0
  0
LINE
  5
74FF2
  8
U3
 10
14303.0
 20
6285.2917521017798
 30
0.0
 11
14303.0
 21
9643.2321182341402
 31
0.0
  0
LINE
  5
74FF3
  8
U3
 10
14305.000000000009
 20
6285.2917521017798
 30
0.0
 11
14305.000000000009
 21
9643.3967647455138
 31
0.0
  0
LINE
  5
74FF4
  8
U3
 10
14274.500000000009
 20
6285.2917521017798
 30
0.0
 11
14274.500000000009
 21
9640.8859054473724
 31
0.0
  0
LINE
  5
74FF5
  8
U3
 10
14256.5
 20
6285.2917521017798
 30
0.0
 11
14256.5
 21
9639.4040868451866
 31
0.0
  0
LINE
  5
74FF6
  8
U3
 10
14260.5
 20
6285.2917521017798
 30
0.0
 11
14260.5
 21
9639.7333798678756
 31
0.0
  0
LINE
  5
74FF7
  8
U3
 10
14233.500000000009
 20
6285.2917521017798
 30
0.0
 11
14233.500000000009
 21
9637.5106519646233
 31
0.0
  0
LINE
  5
74FF8
  8
U3
 10
14229.500000000009
 20
6285.2917521017798
 30
0.0
 11
14229.500000000009
 21
9637.1813589419035
 31
0.0
  0
LINE
  5
74FF9
  8
U3
 10
14215.5
 20
6285.2917521017798
 30
0.0
 11
14215.5
 21
9636.0288333624339
 31
0.0
  0
LINE
  5
74FFA
  8
U3
 10
14187.000000000009
 20
6285.2917521017798
 30
0.0
 11
14187.000000000009
 21
9633.682620575637
 31
0.0
  0
LINE
  5
74FFB
  8
U3
 10
14185.0
 20
6285.2917521017798
 30
0.0
 11
14185.0
 21
9633.5179740642925
 31
0.0
  0
LINE
  5
74FFC
  8
U3
 10
14415.500000000009
 20
6285.2917521017798
 30
0.0
 11
14415.500000000009
 21
9652.4934844977834
 31
0.0
  0
LINE
  5
74FFD
  8
U3
 10
14433.500000000009
 20
6285.2917521017798
 30
0.0
 11
14433.500000000009
 21
9653.9753030999691
 31
0.0
  0
LINE
  5
74FFE
  8
U3
 10
14429.500000000009
 20
6285.2917521017798
 30
0.0
 11
14429.500000000009
 21
9653.6460100772838
 31
0.0
  0
LINE
  5
74FFF
  8
U3
 10
14387.0
 20
6285.2917521017798
 30
0.0
 11
14387.0
 21
9650.1472717110155
 31
0.0
  0
LINE
  5
75000
  8
U3
 10
14385.000000000009
 20
6285.2917521017798
 30
0.0
 11
14385.000000000009
 21
9649.9826251996419
 31
0.0
  0
LINE
  5
75001
  8
U3
 10
13674.5
 20
6285.2917521017798
 30
0.0
 11
13674.5
 21
9591.4919520412659
 31
0.0
  0
LINE
  5
75002
  8
U3
 10
13660.500000000009
 20
6285.2917521017798
 30
0.0
 11
13660.500000000009
 21
9590.3394264617964
 31
0.0
  0
LINE
  5
75003
  8
U3
 10
13705.0
 20
6285.2917521017798
 30
0.0
 11
13705.0
 21
9594.0028113394073
 31
0.0
  0
LINE
  5
75004
  8
U3
 10
13703.0
 20
6285.2917521017798
 30
0.0
 11
13703.0
 21
9593.8381648280629
 31
0.0
  0
LINE
  5
75005
  8
U3
 10
13785.0
 20
6285.2917521017798
 30
0.0
 11
13785.0
 21
9600.5886717935664
 31
0.0
  0
LINE
  5
75006
  8
U3
 10
13787.0
 20
6285.2917521017798
 30
0.0
 11
13787.0
 21
9600.7533183049109
 31
0.0
  0
LINE
  5
75007
  8
U3
 10
13815.5
 20
6285.2917521017798
 30
0.0
 11
13815.5
 21
9603.0995310917078
 31
0.0
  0
LINE
  5
75008
  8
U3
 10
13829.500000000009
 20
6285.2917521017798
 30
0.0
 11
13829.500000000009
 21
9604.2520566711755
 31
0.0
  0
LINE
  5
75009
  8
U3
 10
13833.5
 20
6285.2917521017798
 30
0.0
 11
13833.5
 21
9604.5813496938936
 31
0.0
  0
LINE
  5
7500A
  8
U3
 10
13856.5
 20
6285.2917521017798
 30
0.0
 11
13856.5
 21
9606.4747845744587
 31
0.0
  0
LINE
  5
7500B
  8
U3
 10
13874.5
 20
6285.2917521017798
 30
0.0
 11
13874.5
 21
9607.9566031766462
 31
0.0
  0
LINE
  5
7500C
  8
U3
 10
13860.500000000009
 20
6285.2917521017798
 30
0.0
 11
13860.500000000009
 21
9606.8040775971749
 31
0.0
  0
LINE
  5
7500D
  8
U3
 10
13903.0
 20
6285.2917521017798
 30
0.0
 11
13903.0
 21
9610.3028159634123
 31
0.0
  0
LINE
  5
7500E
  8
U3
 10
13905.0
 20
6285.2917521017798
 30
0.0
 11
13905.0
 21
9610.4674624747877
 31
0.0
  0
LINE
  5
7500F
  8
U3
 10
13987.0
 20
6285.2917521017798
 30
0.0
 11
13987.0
 21
9617.2179694402876
 31
0.0
  0
LINE
  5
75010
  8
U3
 10
13985.0
 20
6285.2917521017798
 30
0.0
 11
13985.0
 21
9617.0533229289158
 31
0.0
  0
LINE
  5
75011
  8
U3
 10
14015.500000000009
 20
6285.2917521017798
 30
0.0
 11
14015.500000000009
 21
9619.5641822270572
 31
0.0
  0
LINE
  5
75012
  8
U3
 10
14029.500000000009
 20
6285.2917521017798
 30
0.0
 11
14029.500000000009
 21
9620.716707806554
 31
0.0
  0
LINE
  5
75013
  8
U3
 10
14033.5
 20
6285.2917521017798
 30
0.0
 11
14033.5
 21
9621.046000829243
 31
0.0
  0
LINE
  5
75014
  8
U3
 10
14056.5
 20
6285.2917521017798
 30
0.0
 11
14056.5
 21
9622.9394357098063
 31
0.0
  0
LINE
  5
75015
  8
U3
 10
14105.0
 20
6285.2917521017798
 30
0.0
 11
14105.0
 21
9626.9321136101353
 31
0.0
  0
LINE
  5
75016
  8
U3
 10
14074.5
 20
6285.2917521017798
 30
0.0
 11
14074.5
 21
9624.4212543119957
 31
0.0
  0
LINE
  5
75017
  8
U3
 10
14060.5
 20
6285.2917521017798
 30
0.0
 11
14060.5
 21
9623.2687287325261
 31
0.0
  0
LINE
  5
75018
  8
U3
 10
14103.000000000009
 20
6285.2917521017798
 30
0.0
 11
14103.000000000009
 21
9626.7674670987926
 31
0.0
  0
LINE
  5
75019
  8
U3
 10
13656.5
 20
6285.2917521017798
 30
0.0
 11
13656.5
 21
9590.0101334390765
 31
0.0
  0
LINE
  5
7501A
  8
U3
 10
12856.500000000009
 20
6285.2917521017798
 30
0.0
 11
12856.500000000009
 21
9524.1515288976243
 31
0.0
  0
LINE
  5
7501B
  8
U3
 10
13303.0
 20
6285.2917521017798
 30
0.0
 11
13303.0
 21
9560.9088625573349
 31
0.0
  0
LINE
  5
7501C
  8
U3
 10
13260.500000000009
 20
6285.2917521017798
 30
0.0
 11
13260.500000000009
 21
9557.4101241910685
 31
0.0
  0
LINE
  5
7501D
  8
U3
 10
13274.5
 20
6285.2917521017798
 30
0.0
 11
13274.5
 21
9558.562649770538
 31
0.0
  0
LINE
  5
7501E
  8
U3
 10
13305.0
 20
6285.2917521017798
 30
0.0
 11
13305.0
 21
9561.0735090686794
 31
0.0
  0
LINE
  5
7501F
  8
U3
 10
13256.500000000009
 20
6285.2917521017798
 30
0.0
 11
13256.500000000009
 21
9557.0808311683504
 31
0.0
  0
LINE
  5
75020
  8
U3
 10
13233.5
 20
6285.2917521017798
 30
0.0
 11
13233.5
 21
9555.1873962877871
 31
0.0
  0
LINE
  5
75021
  8
U3
 10
13229.5
 20
6285.2917521017798
 30
0.0
 11
13229.5
 21
9554.8581032650982
 31
0.0
  0
LINE
  5
75022
  8
U3
 10
13215.500000000009
 20
6285.2917521017798
 30
0.0
 11
13215.500000000009
 21
9553.7055776855996
 31
0.0
  0
LINE
  5
75023
  8
U3
 10
13185.000000000009
 20
6285.2917521017798
 30
0.0
 11
13185.000000000009
 21
9551.1947183874581
 31
0.0
  0
LINE
  5
75024
  8
U3
 10
13187.000000000009
 20
6285.2917521017798
 30
0.0
 11
13187.000000000009
 21
9551.3593648988317
 31
0.0
  0
LINE
  5
75025
  8
U3
 10
13105.000000000009
 20
6285.2917521017798
 30
0.0
 11
13105.000000000009
 21
9544.6088579333318
 31
0.0
  0
LINE
  5
75026
  8
U3
 10
13103.0
 20
6285.2917521017798
 30
0.0
 11
13103.0
 21
9544.4442114219564
 31
0.0
  0
LINE
  5
75027
  8
U3
 10
13060.500000000009
 20
6285.2917521017798
 30
0.0
 11
13060.500000000009
 21
9540.945473055719
 31
0.0
  0
LINE
  5
75028
  8
U3
 10
13074.500000000009
 20
6285.2917521017798
 30
0.0
 11
13074.500000000009
 21
9542.0979986351886
 31
0.0
  0
LINE
  5
75029
  8
U3
 10
13056.500000000009
 20
6285.2917521017798
 30
0.0
 11
13056.500000000009
 21
9540.616180033001
 31
0.0
  0
LINE
  5
7502A
  8
U3
 10
13033.500000000009
 20
6285.2917521017798
 30
0.0
 11
13033.500000000009
 21
9538.7227451524395
 31
0.0
  0
LINE
  5
7502B
  8
U3
 10
13029.5
 20
6285.2917521017798
 30
0.0
 11
13029.5
 21
9538.3934521297197
 31
0.0
  0
LINE
  5
7502C
  8
U3
 10
13015.500000000009
 20
6285.2917521017798
 30
0.0
 11
13015.500000000009
 21
9537.2409265502502
 31
0.0
  0
LINE
  5
7502D
  8
U3
 10
12987.000000000009
 20
6285.2917521017798
 30
0.0
 11
12987.000000000009
 21
9534.8947137634532
 31
0.0
  0
LINE
  5
7502E
  8
U3
 10
12985.000000000009
 20
6285.2917521017798
 30
0.0
 11
12985.000000000009
 21
9534.7300672521087
 31
0.0
  0
LINE
  5
7502F
  8
U3
 10
12903.000000000009
 20
6285.2917521017798
 30
0.0
 11
12903.000000000009
 21
9527.9795602866088
 31
0.0
  0
LINE
  5
75030
  8
U3
 10
12905.000000000009
 20
6285.2917521017798
 30
0.0
 11
12905.000000000009
 21
9528.1442067979515
 31
0.0
  0
LINE
  5
75031
  8
U3
 10
12860.500000000009
 20
6285.2917521017798
 30
0.0
 11
12860.500000000009
 21
9524.4808219203405
 31
0.0
  0
LINE
  5
75032
  8
U3
 10
12874.500000000009
 20
6285.2917521017798
 30
0.0
 11
12874.500000000009
 21
9525.6333474998119
 31
0.0
  0
LINE
  5
75033
  8
U3
 10
13585.0
 20
6285.2917521017798
 30
0.0
 11
13585.0
 21
9584.1240206581842
 31
0.0
  0
LINE
  5
75034
  8
U3
 10
13587.0
 20
6285.2917521017798
 30
0.0
 11
13587.0
 21
9584.2886671695596
 31
0.0
  0
LINE
  5
75035
  8
U3
 10
13629.5
 20
6285.2917521017798
 30
0.0
 11
13629.5
 21
9587.7874055358243
 31
0.0
  0
LINE
  5
75036
  8
U3
 10
13633.5
 20
6285.2917521017798
 30
0.0
 11
13633.5
 21
9588.1166985585151
 31
0.0
  0
LINE
  5
75037
  8
U3
 10
13615.5
 20
6285.2917521017798
 30
0.0
 11
13615.5
 21
9586.6348799563275
 31
0.0
  0
LINE
  5
75038
  8
U3
 10
13385.0
 20
6285.2917521017798
 30
0.0
 11
13385.0
 21
9567.6593695228366
 31
0.0
  0
LINE
  5
75039
  8
U3
 10
13387.000000000009
 20
6285.2917521017798
 30
0.0
 11
13387.000000000009
 21
9567.8240160341811
 31
0.0
  0
LINE
  5
7503A
  8
U3
 10
13415.5
 20
6285.2917521017798
 30
0.0
 11
13415.5
 21
9570.1702288209799
 31
0.0
  0
LINE
  5
7503B
  8
U3
 10
13429.5
 20
6285.2917521017798
 30
0.0
 11
13429.5
 21
9571.3227544004476
 31
0.0
  0
LINE
  5
7503C
  8
U3
 10
13433.5
 20
6285.2917521017798
 30
0.0
 11
13433.5
 21
9571.6520474231656
 31
0.0
  0
LINE
  5
7503D
  8
U3
 10
13460.500000000009
 20
6285.2917521017798
 30
0.0
 11
13460.500000000009
 21
9573.8747753264488
 31
0.0
  0
LINE
  5
7503E
  8
U3
 10
13456.500000000009
 20
6285.2917521017798
 30
0.0
 11
13456.500000000009
 21
9573.5454823037271
 31
0.0
  0
LINE
  5
7503F
  8
U3
 10
13474.5
 20
6285.2917521017798
 30
0.0
 11
13474.5
 21
9575.0273009059165
 31
0.0
  0
LINE
  5
75040
  8
U3
 10
13505.0
 20
6285.2917521017798
 30
0.0
 11
13505.0
 21
9577.5381602040579
 31
0.0
  0
LINE
  5
75041
  8
U3
 10
13503.0
 20
6285.2917521017798
 30
0.0
 11
13503.0
 21
9577.3735136926844
 31
0.0
  0
LINE
  5
75042
  8
U3
 10
12703.000000000009
 20
6285.2917521017798
 30
0.0
 11
12703.000000000009
 21
9511.5149091512285
 31
0.0
  0
LINE
  5
75043
  8
U3
 10
12705.000000000009
 20
6285.2917521017798
 30
0.0
 11
12705.000000000009
 21
9511.6795556626003
 31
0.0
  0
LINE
  5
75044
  8
U3
 10
12674.500000000009
 20
6285.2917521017798
 30
0.0
 11
12674.500000000009
 21
9509.1686963644606
 31
0.0
  0
LINE
  5
75045
  8
U3
 10
12656.500000000009
 20
6285.2917521017798
 30
0.0
 11
12656.500000000009
 21
9507.6868777622731
 31
0.0
  0
LINE
  5
75046
  8
U3
 10
12660.500000000009
 20
6285.2917521017798
 30
0.0
 11
12660.500000000009
 21
9508.0161707849911
 31
0.0
  0
LINE
  5
75047
  8
U3
 10
12633.500000000009
 20
6285.2917521017798
 30
0.0
 11
12633.500000000009
 21
9505.7934428817098
 31
0.0
  0
LINE
  5
75048
  8
U3
 10
12629.5
 20
6285.2917521017798
 30
0.0
 11
12629.5
 21
9505.4641498589917
 31
0.0
  0
LINE
  5
75049
  8
U3
 10
12615.500000000009
 20
6285.2917521017798
 30
0.0
 11
12615.500000000009
 21
9504.3116242795204
 31
0.0
  0
LINE
  5
7504A
  8
U3
 10
12587.000000000009
 20
6285.2917521017798
 30
0.0
 11
12587.000000000009
 21
9501.9654114927234
 31
0.0
  0
LINE
  5
7504B
  8
U3
 10
12585.000000000009
 20
6285.2917521017798
 30
0.0
 11
12585.000000000009
 21
9501.8007649813808
 31
0.0
  0
LINE
  5
7504C
  8
U3
 10
12815.500000000009
 20
6285.2917521017798
 30
0.0
 11
12815.500000000009
 21
9520.7762754148716
 31
0.0
  0
LINE
  5
7504D
  8
U3
 10
12833.500000000009
 20
6285.2917521017798
 30
0.0
 11
12833.500000000009
 21
9522.2580940170592
 31
0.0
  0
LINE
  5
7504E
  8
U3
 10
12829.5
 20
6285.2917521017798
 30
0.0
 11
12829.5
 21
9521.9288009943721
 31
0.0
  0
LINE
  5
7504F
  8
U3
 10
12787.000000000009
 20
6285.2917521017798
 30
0.0
 11
12787.000000000009
 21
9518.4300626281038
 31
0.0
  0
LINE
  5
75050
  8
U3
 10
12785.000000000009
 20
6285.2917521017798
 30
0.0
 11
12785.000000000009
 21
9518.2654161167302
 31
0.0
  0
LINE
  5
75051
  8
U3
 10
12074.500000000009
 20
6285.2917521017798
 30
0.0
 11
12074.500000000009
 21
9459.7747429583542
 31
0.0
  0
LINE
  5
75052
  8
U3
 10
12060.5
 20
6285.2917521017798
 30
0.0
 11
12060.5
 21
9458.6222173788865
 31
0.0
  0
LINE
  5
75053
  8
U3
 10
12105.000000000009
 20
6285.2917521017798
 30
0.0
 11
12105.000000000009
 21
9462.2856022564956
 31
0.0
  0
LINE
  5
75054
  8
U3
 10
12103.000000000009
 20
6285.2917521017798
 30
0.0
 11
12103.000000000009
 21
9462.1209557451512
 31
0.0
  0
LINE
  5
75055
  8
U3
 10
12185.000000000009
 20
6285.2917521017798
 30
0.0
 11
12185.000000000009
 21
9468.8714627106528
 31
0.0
  0
LINE
  5
75056
  8
U3
 10
12187.000000000009
 20
6285.2917521017798
 30
0.0
 11
12187.000000000009
 21
9469.0361092219973
 31
0.0
  0
LINE
  5
75057
  8
U3
 10
12215.500000000009
 20
6285.2917521017798
 30
0.0
 11
12215.500000000009
 21
9471.3823220087943
 31
0.0
  0
LINE
  5
75058
  8
U3
 10
12229.500000000009
 20
6285.2917521017798
 30
0.0
 11
12229.500000000009
 21
9472.5348475882638
 31
0.0
  0
LINE
  5
75059
  8
U3
 10
12233.500000000009
 20
6285.2917521017798
 30
0.0
 11
12233.500000000009
 21
9472.8641406109818
 31
0.0
  0
LINE
  5
7505A
  8
U3
 10
12256.500000000009
 20
6285.2917521017798
 30
0.0
 11
12256.500000000009
 21
9474.7575754915451
 31
0.0
  0
LINE
  5
7505B
  8
U3
 10
12274.500000000009
 20
6285.2917521017798
 30
0.0
 11
12274.500000000009
 21
9476.2393940937327
 31
0.0
  0
LINE
  5
7505C
  8
U3
 10
12260.5
 20
6285.2917521017798
 30
0.0
 11
12260.5
 21
9475.0868685142632
 31
0.0
  0
LINE
  5
7505D
  8
U3
 10
12303.000000000009
 20
6285.2917521017798
 30
0.0
 11
12303.000000000009
 21
9478.5856068805297
 31
0.0
  0
LINE
  5
7505E
  8
U3
 10
12305.000000000009
 20
6285.2917521017798
 30
0.0
 11
12305.000000000009
 21
9478.7502533918741
 31
0.0
  0
LINE
  5
7505F
  8
U3
 10
12387.000000000009
 20
6285.2917521017798
 30
0.0
 11
12387.000000000009
 21
9485.5007603573758
 31
0.0
  0
LINE
  5
75060
  8
U3
 10
12385.000000000009
 20
6285.2917521017798
 30
0.0
 11
12385.000000000009
 21
9485.3361138460023
 31
0.0
  0
LINE
  5
75061
  8
U3
 10
12415.500000000009
 20
6285.2917521017798
 30
0.0
 11
12415.500000000009
 21
9487.8469731441437
 31
0.0
  0
LINE
  5
75062
  8
U3
 10
12429.500000000009
 20
6285.2917521017798
 30
0.0
 11
12429.500000000009
 21
9488.9994987236405
 31
0.0
  0
LINE
  5
75063
  8
U3
 10
12433.500000000009
 20
6285.2917521017798
 30
0.0
 11
12433.500000000009
 21
9489.3287917463313
 31
0.0
  0
LINE
  5
75064
  8
U3
 10
12456.500000000009
 20
6285.2917521017798
 30
0.0
 11
12456.500000000009
 21
9491.2222266268927
 31
0.0
  0
LINE
  5
75065
  8
U3
 10
12505.000000000009
 20
6285.2917521017798
 30
0.0
 11
12505.000000000009
 21
9495.2149045272236
 31
0.0
  0
LINE
  5
75066
  8
U3
 10
12474.500000000009
 20
6285.2917521017798
 30
0.0
 11
12474.500000000009
 21
9492.7040452290821
 31
0.0
  0
LINE
  5
75067
  8
U3
 10
12460.5
 20
6285.2917521017798
 30
0.0
 11
12460.5
 21
9491.5515196496126
 31
0.0
  0
LINE
  5
75068
  8
U3
 10
12503.000000000009
 20
6285.2917521017798
 30
0.0
 11
12503.000000000009
 21
9495.0502580158791
 31
0.0
  0
LINE
  5
75069
  8
U3
 10
12056.5
 20
6285.2917521017798
 30
0.0
 11
12056.5
 21
9458.2929243561666
 31
0.0
  0
LINE
  5
7506A
  8
U3
 10
11703.000000000009
 20
6285.2917521017798
 30
0.0
 11
11703.000000000009
 21
9429.1916534744232
 31
0.0
  0
LINE
  5
7506B
  8
U3
 10
11660.5
 20
6285.2917521017798
 30
0.0
 11
11660.5
 21
9425.6929151081567
 31
0.0
  0
LINE
  5
7506C
  8
U3
 10
11674.5
 20
6285.2917521017798
 30
0.0
 11
11674.5
 21
9426.8454406876263
 31
0.0
  0
LINE
  5
7506D
  8
U3
 10
11705.0
 20
6285.2917521017798
 30
0.0
 11
11705.0
 21
9429.3562999857677
 31
0.0
  0
LINE
  5
7506E
  8
U3
 10
11656.5
 20
6285.2917521017798
 30
0.0
 11
11656.5
 21
9425.3636220854387
 31
0.0
  0
LINE
  5
7506F
  8
U3
 10
11633.5
 20
6285.2917521017798
 30
0.0
 11
11633.5
 21
9423.4701872048754
 31
0.0
  0
LINE
  5
75070
  8
U3
 10
11629.500000000009
 20
6285.2917521017798
 30
0.0
 11
11629.500000000009
 21
9423.1408941821865
 31
0.0
  0
LINE
  5
75071
  8
U3
 10
11615.5
 20
6285.2917521017798
 30
0.0
 11
11615.5
 21
9421.9883686027169
 31
0.0
  0
LINE
  5
75072
  8
U3
 10
11585.0
 20
6285.2917521017798
 30
0.0
 11
11585.0
 21
9419.4775093045464
 31
0.0
  0
LINE
  5
75073
  8
U3
 10
11587.0
 20
6285.2917521017798
 30
0.0
 11
11587.0
 21
9419.6421558159182
 31
0.0
  0
LINE
  5
75074
  8
U3
 10
11505.0
 20
6285.2917521017798
 30
0.0
 11
11505.0
 21
9412.8916488504183
 31
0.0
  0
LINE
  5
75075
  8
U3
 10
11503.0
 20
6285.2917521017798
 30
0.0
 11
11503.0
 21
9412.7270023390738
 31
0.0
  0
LINE
  5
75076
  8
U3
 10
11460.5
 20
6285.2917521017798
 30
0.0
 11
11460.5
 21
9409.2282639728055
 31
0.0
  0
LINE
  5
75077
  8
U3
 10
11474.5
 20
6285.2917521017798
 30
0.0
 11
11474.5
 21
9410.380789552275
 31
0.0
  0
LINE
  5
75078
  8
U3
 10
11456.5
 20
6285.2917521017798
 30
0.0
 11
11456.5
 21
9408.8989709500875
 31
0.0
  0
LINE
  5
75079
  8
U3
 10
11433.5
 20
6285.2917521017798
 30
0.0
 11
11433.5
 21
9407.005536069526
 31
0.0
  0
LINE
  5
7507A
  8
U3
 10
11429.500000000009
 20
6285.2917521017798
 30
0.0
 11
11429.500000000009
 21
9406.6762430468079
 31
0.0
  0
LINE
  5
7507B
  8
U3
 10
11415.5
 20
6285.2917521017798
 30
0.0
 11
11415.5
 21
9405.5237174673366
 31
0.0
  0
LINE
  5
7507C
  8
U3
 10
11387.0
 20
6285.2917521017798
 30
0.0
 11
11387.0
 21
9403.1775046805415
 31
0.0
  0
LINE
  5
7507D
  8
U3
 10
11985.000000000009
 20
6285.2917521017798
 30
0.0
 11
11985.000000000009
 21
9452.4068115752743
 31
0.0
  0
LINE
  5
7507E
  8
U3
 10
11987.0
 20
6285.2917521017798
 30
0.0
 11
11987.0
 21
9452.5714580866479
 31
0.0
  0
LINE
  5
7507F
  8
U3
 10
12029.500000000009
 20
6285.2917521017798
 30
0.0
 11
12029.500000000009
 21
9456.0701964529144
 31
0.0
  0
LINE
  5
75080
  8
U3
 10
12033.500000000009
 20
6285.2917521017798
 30
0.0
 11
12033.500000000009
 21
9456.3994894756033
 31
0.0
  0
LINE
  5
75081
  8
U3
 10
12015.500000000009
 20
6285.2917521017798
 30
0.0
 11
12015.500000000009
 21
9454.9176708734176
 31
0.0
  0
LINE
  5
75082
  8
U3
 10
11785.0
 20
6285.2917521017798
 30
0.0
 11
11785.0
 21
9435.9421604399249
 31
0.0
  0
LINE
  5
75083
  8
U3
 10
11787.0
 20
6285.2917521017798
 30
0.0
 11
11787.0
 21
9436.1068069512694
 31
0.0
  0
LINE
  5
75084
  8
U3
 10
11815.5
 20
6285.2917521017798
 30
0.0
 11
11815.5
 21
9438.4530197380682
 31
0.0
  0
LINE
  5
75085
  8
U3
 10
11829.500000000009
 20
6285.2917521017798
 30
0.0
 11
11829.500000000009
 21
9439.6055453175377
 31
0.0
  0
LINE
  5
75086
  8
U3
 10
11833.500000000009
 20
6285.2917521017798
 30
0.0
 11
11833.500000000009
 21
9439.9348383402557
 31
0.0
  0
LINE
  5
75087
  8
U3
 10
11860.5
 20
6285.2917521017798
 30
0.0
 11
11860.5
 21
9442.1575662435353
 31
0.0
  0
LINE
  5
75088
  8
U3
 10
11856.5
 20
6285.2917521017798
 30
0.0
 11
11856.5
 21
9441.8282732208172
 31
0.0
  0
LINE
  5
75089
  8
U3
 10
11874.500000000009
 20
6285.2917521017798
 30
0.0
 11
11874.500000000009
 21
9443.3100918230066
 31
0.0
  0
LINE
  5
7508A
  8
U3
 10
11905.000000000009
 20
6285.2917521017798
 30
0.0
 11
11905.000000000009
 21
9445.8209511211462
 31
0.0
  0
LINE
  5
7508B
  8
U3
 10
11903.000000000009
 20
6285.2917521017798
 30
0.0
 11
11903.000000000009
 21
9445.6563046098036
 31
0.0
  0
LINE
  5
7508C
  8
U3
 10
16854.500000000011
 20
6285.2917521017798
 30
0.0
 11
11245.0
 21
6285.2917521017798
 31
0.0
  0
LINE
  5
7508D
  8
1PL-M1
 10
16816.000000000011
 20
4445.2917521017798
 30
0.0
 11
16816.000000000011
 21
6785.2917521017807
 31
0.0
  0
LINE
  5
7508E
  8
1PL-M1
 10
11316.000000000009
 20
4445.2917521017798
 30
0.0
 11
11316.000000000009
 21
6785.2917521017807
 31
0.0
  0
LINE
  5
7508F
  8
U1
 10
11196.499999999951
 20
6285.2917521017798
 30
0.0
 11
11196.499999999951
 21
5885.2917521017807
 31
0.0
  0
LINE
  5
75090
  8
U1
 10
16935.999999999949
 20
6285.2917521017798
 30
0.0
 11
11196.499999999951
 21
6285.2917521017798
 31
0.0
  0
LINE
  5
75091
  8
U1
 10
16936.000000000011
 20
6275.2917521017807
 30
0.0
 11
16936.000000000011
 21
6285.2917521017798
 31
0.0
  0
LINE
  5
75092
  8
U1
 10
16936.000000000011
 20
5885.2917521017807
 30
0.0
 11
16936.000000000011
 21
6285.2917521017798
 31
0.0
  0
LINE
  5
75093
  8
U1
 10
16925.726345596671
 20
8893.1654065050388
 30
0.0
 11
16924.09999999998
 21
8894.7917521017807
 31
0.0
  0
LINE
  5
75094
  8
U1
 10
17002.726345596959
 20
8970.1654065052717
 30
0.0
 11
16925.726345596719
 21
8893.1654065050661
 31
0.0
  0
ARC
  5
75095
  8
U1
 10
16893.73402719247
 20
8889.7917521017807
 30
0.0
 40
5.0
 50
90.0
 51
145.56101069130941
  0
LINE
  5
75096
  8
U1
 10
16889.61038293329
 20
8892.6193938795332
 30
0.0
 11
16868.58961706662
 21
8861.9641103240283
 31
0.0
  0
LINE
  5
75097
  8
U1
 10
16924.09999999998
 20
8894.7917521017807
 30
0.0
 11
16893.73402719247
 21
8894.7917521017807
 31
0.0
  0
ARC
  5
75098
  8
U1
 10
16864.465972807378
 20
8864.7917521017807
 30
0.0
 40
5.0
 50
270.0
 51
325.56101069130938
  0
LINE
  5
75099
  8
U1
 10
16864.465972807378
 20
8859.7917521017807
 30
0.0
 11
16859.09999999998
 21
8859.7917521017807
 31
0.0
  0
LINE
  5
7509A
  8
U1
 10
22273.499999999949
 20
9363.2917521018098
 30
0.0
 11
22273.499999999949
 21
5885.2917521017807
 31
0.0
  0
LINE
  5
7509B
  8
U1
 10
22358.499999999942
 20
5885.2917521017807
 30
0.0
 11
22358.499999999949
 21
9366.1123026301066
 31
0.0
  0
LINE
  5
7509C
  8
U1
 10
19523.499999999949
 20
9363.2917521017807
 30
0.0
 11
19523.499999999949
 21
5885.2917521017807
 31
0.0
  0
LINE
  5
7509D
  8
U1
 10
19608.49999999996
 20
5885.2917521017807
 30
0.0
 11
19608.499999999949
 21
9363.2917521018098
 31
0.0
  0
LINE
  5
7509E
  8
1PL-M1
 10
19565.999999999949
 20
5206.8744580871607
 30
0.0
 11
19565.999999999949
 21
6791.2917521017807
 31
0.0
  0
LINE
  5
7509F
  8
1PL-M1
 10
22315.999999999949
 20
4451.2917521017798
 30
0.0
 11
22315.999999999949
 21
6791.2917521017807
 31
0.0
  0
ARC
  5
750A0
  8
U1
 10
16871.59999999998
 20
9014.8184822220228
 30
0.0
 40
5.0
 50
180.0
 51
270.0
  0
LINE
  5
750A1
  8
U1
 10
17008.599999999919
 20
8969.8184822220228
 30
0.0
 11
17008.599999999919
 21
9363.2917521017807
 31
0.0
  0
LINE
  5
750A2
  8
U1
 10
16866.59999999998
 20
9014.8184822220228
 30
0.0
 11
16866.59999999998
 21
9363.3077777840226
 31
0.0
  0
ARC
  5
750A3
  8
U1
 10
19570.999999999891
 20
9368.2917521018098
 30
0.0
 40
5.0
 50
180.0
 51
270.0
  0
LINE
  5
750A4
  8
U1
 10
19611.999999999891
 20
9363.2917521018098
 30
0.0
 11
19611.999999999891
 21
9360.2917521018098
 31
0.0
  0
LINE
  5
750A5
  8
U1
 10
19611.999999999891
 20
9360.2917521018098
 30
0.0
 11
22268.999999999891
 21
9360.2917521018098
 31
0.0
  0
LINE
  5
750A6
  8
U1
 10
22268.999999999891
 20
9363.2917521018098
 30
0.0
 11
22353.999999999891
 21
9363.2917521018098
 31
0.0
  0
LINE
  5
750A7
  8
U1
 10
22358.999999999891
 20
9368.2917521018098
 30
0.0
 11
22358.999999999891
 21
9471.4572048277914
 31
0.0
  0
ARC
  5
750A8
  8
U1
 10
22353.999999999891
 20
9368.2917521018098
 30
0.0
 40
5.0
 50
270.0
 51
0.0
  0
LINE
  5
750A9
  8
U1
 10
22268.999999999891
 20
9360.2917521018098
 30
0.0
 11
22268.999999999891
 21
9363.2917521018098
 31
0.0
  0
LINE
  5
750AA
  8
U1
 10
19570.999999999891
 20
9363.2917521018098
 30
0.0
 11
19611.999999999891
 21
9363.2917521018098
 31
0.0
  0
LINE
  5
750AB
  8
U1
 10
17011.999999999949
 20
9360.2917521017807
 30
0.0
 11
19520.499999999949
 21
9360.2917521017807
 31
0.0
  0
LINE
  5
750AC
  8
U1
 10
19520.499999999949
 20
9363.2917521017807
 30
0.0
 11
19560.999999999949
 21
9363.2917521017807
 31
0.0
  0
LINE
  5
750AD
  8
U1
 10
19565.999999999949
 20
9368.2917521017807
 30
0.0
 11
19565.999999999891
 21
9533.9572048408882
 31
0.0
  0
ARC
  5
750AE
  8
U1
 10
19560.999999999949
 20
9368.2917521017807
 30
0.0
 40
5.0
 50
270.0
 51
0.0
  0
LINE
  5
750AF
  8
U1
 10
19520.499999999949
 20
9360.2917521017807
 30
0.0
 11
19520.499999999949
 21
9363.2917521017807
 31
0.0
  0
LINE
  5
750B0
  8
U1
 10
17011.999999999949
 20
9363.2917521017807
 30
0.0
 11
17011.999999999949
 21
9360.2917521017807
 31
0.0
  0
LINE
  5
750B1
  8
U1
 10
16866.999999999949
 20
9363.2917521017807
 30
0.0
 11
17011.999999999949
 21
9363.2917521017807
 31
0.0
  0
LINE
  5
750B2
  8
U1
 10
22658.478566648329
 20
9642.7825503064232
 30
0.0
 11
22603.492941755809
 21
9644.0399504729012
 31
0.0
  0
LINE
  5
750B3
  8
U1
 10
22667.858683819832
 20
9615.5609889652842
 30
0.0
 11
22665.813482908601
 21
9613.6072353388754
 31
0.0
  0
LINE
  5
750B4
  8
U1
 10
22665.584864696499
 20
9603.6098489948072
 30
0.0
 11
22663.539663785261
 21
9601.6560953683675
 31
0.0
  0
LINE
  5
750B5
  8
U1
 10
22665.813482908601
 20
9613.6072353388754
 30
0.0
 11
22665.584864696499
 21
9603.6098489948072
 31
0.0
  0
LINE
  5
750B6
  8
U1
 10
22663.311045573158
 20
9591.6587090242683
 30
0.0
 11
22667.21855282598
 21
9587.5683072018001
 31
0.0
  0
LINE
  5
750B7
  8
U1
 10
22663.539663785261
 20
9601.6560953683675
 30
0.0
 11
22663.311045573158
 21
9591.6587090242683
 31
0.0
  0
LINE
  5
750B8
  8
U1
 10
22665.663948983831
 20
9519.5860800619266
 30
0.0
 11
22663.6187480726
 21
9517.6323264355742
 31
0.0
  0
LINE
  5
750B9
  8
U1
 10
22663.6187480726
 20
9517.6323264355742
 30
0.0
 11
22663.390129860501
 21
9507.6349400914478
 31
0.0
  0
LINE
  5
750BA
  8
U1
 10
22661.34492894926
 20
9505.6811864650663
 30
0.0
 11
22661.116310737161
 21
9495.6838001209417
 31
0.0
  0
LINE
  5
750BB
  8
U1
 10
22661.116310737161
 20
9495.6838001209417
 30
0.0
 11
22665.023817989979
 21
9491.5933982984716
 31
0.0
  0
LINE
  5
750BC
  8
U1
 10
22663.390129860501
 20
9507.6349400914478
 30
0.0
 11
22661.34492894926
 21
9505.6811864650663
 31
0.0
  0
LINE
  5
750BD
  8
U1
 10
22665.663948983831
 20
9519.5860800619266
 30
0.0
 11
22667.21855282598
 21
9587.5683072018001
 31
0.0
  0
LINE
  5
750BE
  8
U1
 10
22667.858683819832
 20
9615.5609889652842
 30
0.0
 11
22668.24733478035
 21
9632.5565457502234
 31
0.0
  0
LINE
  5
750BF
  8
U1
 10
22654.40916247329
 20
9464.8290733815084
 30
0.0
 11
22618.418571634571
 21
9465.6520989450073
 31
0.0
  0
ARC
  5
750C0
  8
U1
 10
22654.637780685342
 20
9474.8264597256057
 30
0.0
 40
10.0
 50
268.69000000003768
 51
358.69000000170951
  0
LINE
  5
750C1
  8
U1
 10
22665.023817989979
 20
9491.5933982984716
 30
0.0
 11
22664.635167029461
 21
9474.5978415135323
 31
0.0
  0
LINE
  5
750C2
  8
U1
 10
22658.478566648329
 20
9642.7825503064232
 30
0.0
 11
22603.492941755809
 21
9644.0399504729012
 31
0.0
  0
LINE
  5
750C3
  8
U1
 10
22667.858683819832
 20
9615.5609889652842
 30
0.0
 11
22665.813482908601
 21
9613.6072353388754
 31
0.0
  0
LINE
  5
750C4
  8
U1
 10
22665.584864696499
 20
9603.6098489948072
 30
0.0
 11
22663.539663785261
 21
9601.6560953683675
 31
0.0
  0
LINE
  5
750C5
  8
U1
 10
22665.813482908601
 20
9613.6072353388754
 30
0.0
 11
22665.584864696499
 21
9603.6098489948072
 31
0.0
  0
LINE
  5
750C6
  8
U1
 10
22663.311045573158
 20
9591.6587090242683
 30
0.0
 11
22667.21855282598
 21
9587.5683072018001
 31
0.0
  0
LINE
  5
750C7
  8
U1
 10
22663.539663785261
 20
9601.6560953683675
 30
0.0
 11
22663.311045573158
 21
9591.6587090242683
 31
0.0
  0
LINE
  5
750C8
  8
U1
 10
22665.663948983831
 20
9519.5860800619266
 30
0.0
 11
22663.6187480726
 21
9517.6323264355742
 31
0.0
  0
LINE
  5
750C9
  8
U1
 10
22663.6187480726
 20
9517.6323264355742
 30
0.0
 11
22663.390129860501
 21
9507.6349400914478
 31
0.0
  0
LINE
  5
750CA
  8
U1
 10
22661.34492894926
 20
9505.6811864650663
 30
0.0
 11
22661.116310737161
 21
9495.6838001209417
 31
0.0
  0
LINE
  5
750CB
  8
U1
 10
22661.116310737161
 20
9495.6838001209417
 30
0.0
 11
22665.023817989979
 21
9491.5933982984716
 31
0.0
  0
LINE
  5
750CC
  8
U1
 10
22663.390129860501
 20
9507.6349400914478
 30
0.0
 11
22661.34492894926
 21
9505.6811864650663
 31
0.0
  0
LINE
  5
750CD
  8
U1
 10
22665.663948983831
 20
9519.5860800619266
 30
0.0
 11
22667.21855282598
 21
9587.5683072018001
 31
0.0
  0
LINE
  5
750CE
  8
U1
 10
22667.858683819832
 20
9615.5609889652842
 30
0.0
 11
22668.24733478035
 21
9632.5565457502234
 31
0.0
  0
ARC
  5
750CF
  8
U1
 10
22658.249948436289
 20
9632.7851639623259
 30
0.0
 40
10.0
 50
358.69000000170951
 51
88.690000000037656
  0
LINE
  5
750D0
  8
U1
 10
22654.40916247329
 20
9464.8290733815084
 30
0.0
 11
22618.418571634571
 21
9465.6520989450073
 31
0.0
  0
ARC
  5
750D1
  8
U1
 10
22654.637780685342
 20
9474.8264597256057
 30
0.0
 40
10.0
 50
268.69000000003768
 51
358.69000000170951
  0
LINE
  5
750D2
  8
U1
 10
22665.023817989979
 20
9491.5933982984716
 30
0.0
 11
22664.635167029461
 21
9474.5978415135323
 31
0.0
  0
LINE
  5
750D3
  8
U1
 10
23568.638166163069
 20
5885.2917521017807
 30
0.0
 11
10688.732849195079
 21
5885.2917521017807
 31
0.0
  0
LINE
  5
750D4
  8
U1
 10
19569.593520646278
 20
9711.9213521780766
 30
0.0
 11
22640.82466233581
 21
9643.1952704036812
 31
0.0
  0
LINE
  5
750D5
  8
U1
 10
22636.842487024671
 20
9465.2398201365286
 30
0.0
 11
22640.82466233581
 21
9643.1952704036812
 31
0.0
  0
LINE
  5
750D6
  8
U1
 10
19568.989482818179
 20
9684.92810972179
 30
0.0
 11
22667.859199724338
 21
9615.5835492680926
 31
0.0
  0
LINE
  5
750D7
  8
U1
 10
19568.944739275332
 20
9682.9286102806072
 30
0.0
 11
22665.835567188569
 21
9613.6283321620576
 31
0.0
  0
LINE
  5
750D8
  8
U1
 10
19568.72102156125
 20
9672.9311130745773
 30
0.0
 11
22665.585358155429
 21
9603.6314277621132
 31
0.0
  0
LINE
  5
750D9
  8
U1
 10
19568.6762780184
 20
9670.9316136333655
 30
0.0
 11
22663.560743591759
 21
9601.6762326312473
 31
0.0
  0
LINE
  5
750DA
  8
U1
 10
19568.452560304318
 20
9660.9341164273355
 30
0.0
 11
22663.31151658652
 21
9591.6793062561337
 31
0.0
  0
LINE
  5
750DB
  8
U1
 10
19568.363073218621
 20
9656.935117544941
 30
0.0
 11
22667.196522512371
 21
9587.5913686650892
 31
0.0
  0
LINE
  5
750DC
  8
U1
 10
19566.215383163191
 20
9560.9591443671525
 30
0.0
 11
22665.001798937159
 21
9491.6164479738381
 31
0.0
  0
LINE
  5
750DD
  8
U1
 10
19566.304870248841
 20
9564.9581432495452
 30
0.0
 11
22661.11678148685
 21
9495.7043858227698
 31
0.0
  0
LINE
  5
750DE
  8
U1
 10
19566.528587962908
 20
9574.9556404555769
 30
0.0
 11
22661.365996956309
 21
9505.7013124560617
 31
0.0
  0
LINE
  5
750DF
  8
U1
 10
19566.57333150577
 20
9576.9551398967888
 30
0.0
 11
22663.3906230557
 21
9507.6565073287784
 31
0.0
  0
LINE
  5
750E0
  8
U1
 10
19566.79704921984
 20
9586.9526371027896
 30
0.0
 11
22663.640820553072
 21
9517.6534119868447
 31
0.0
  0
LINE
  5
750E1
  8
U1
 10
19566.841792762691
 20
9588.9521365440014
 30
0.0
 11
22665.664464624671
 21
9519.6086288347287
 31
0.0
  0
LINE
  5
750E2
  8
U1
 10
19565.611345335092
 20
9533.9659019108949
 30
0.0
 11
22636.842487024671
 21
9465.2398201365286
 31
0.0
  0
LINE
  5
750E3
  8
U1
 10
19565.611345335092
 20
9533.9659019108949
 30
0.0
 11
19569.593520646278
 21
9711.9213521780766
 31
0.0
  0
LINE
  5
750E4
  8
U1
 10
19569.593520646278
 20
9711.9213521780766
 30
0.0
 11
16909.25951412414
 21
9771.4526359035954
 31
0.0
  0
LINE
  5
750E5
  8
U1
 10
19568.989482818179
 20
9684.9281097218209
 30
0.0
 11
16873.65571412287
 21
9745.2425961456465
 31
0.0
  0
LINE
  5
750E6
  8
U1
 10
19568.944739275332
 20
9682.9286102806072
 30
0.0
 11
16875.608889918021
 21
9743.1983885201771
 31
0.0
  0
LINE
  5
750E7
  8
U1
 10
19568.72102156125
 20
9672.9311130745773
 30
0.0
 11
16875.382965647212
 21
9733.2009406910965
 31
0.0
  0
LINE
  5
750E8
  8
U1
 10
19568.6762780184
 20
9670.9316136333964
 30
0.0
 11
16877.335511112298
 21
9731.1567471707385
 31
0.0
  0
LINE
  5
750E9
  8
U1
 10
19568.45256030426
 20
9660.9341164273646
 30
0.0
 11
16877.11021717155
 21
9721.1592852365429
 31
0.0
  0
LINE
  5
750EA
  8
U1
 10
19568.363073218621
 20
9656.935117544941
 30
0.0
 11
16873.02016145888
 21
9717.2498085665447
 31
0.0
  0
LINE
  5
750EB
  8
U1
 10
19566.21538316314
 20
9560.9591443671525
 30
0.0
 11
16870.84217254434
 21
9621.2745133975859
 31
0.0
  0
LINE
  5
750EC
  8
U1
 10
19566.304870248779
 20
9564.9581432495761
 30
0.0
 11
16874.932233039592
 21
9625.1839899605693
 31
0.0
  0
LINE
  5
750ED
  8
U1
 10
19566.528587962908
 20
9574.9556404556042
 30
0.0
 11
16875.157531759942
 21
9635.1814517878374
 31
0.0
  0
LINE
  5
750EE
  8
U1
 10
19566.5733315057
 20
9576.9551398967888
 30
0.0
 11
16873.20498151525
 21
9637.2256454151211
 31
0.0
  0
LINE
  5
750EF
  8
U1
 10
19566.79704921984
 20
9586.9526371028187
 30
0.0
 11
16873.430910565599
 21
9647.2230931372196
 31
0.0
  0
LINE
  5
750F0
  8
U1
 10
19566.841792762629
 20
9588.9521365440305
 30
0.0
 11
16871.477729990911
 21
9649.2673008696747
 31
0.0
  0
LINE
  5
750F1
  8
U1
 10
19565.611345335092
 20
9533.9659019108949
 30
0.0
 11
16905.27733881295
 21
9593.4971856364427
 31
0.0
  0
LINE
  5
750F2
  8
U1
 10
19565.611345335092
 20
9533.9659019108949
 30
0.0
 11
19569.593520646278
 21
9711.9213521780766
 31
0.0
  0
ARC
  5
750F3
  8
TOI
 10
22456.199999999961
 20
9397.2473631474859
 30
0.0
 40
50.0
 50
100.0000000004748
 51
180.0
  0
ARC
  5
750F4
  8
TOI
 10
22555.304663670489
 20
9452.5976018900546
 30
0.0
 40
50.0
 50
280.00000000047481
 51
0.0
  0
LINE
  5
750F5
  8
TOI
 10
22535.99624934997
 20
9398.4216768963524
 30
0.0
 11
22525.108508610228
 21
9460.1691230102297
 31
0.0
  0
LINE
  5
750F6
  8
TOI
 10
22563.987072553839
 20
9403.3572142394405
 30
0.0
 11
22466.199999999961
 21
9386.1147149836597
 31
0.0
  0
LINE
  5
750F7
  8
TOI
 10
22447.5175911162
 20
9446.4877507980418
 30
0.0
 11
22544.804663670431
 21
9463.6420865635591
 31
0.0
  0
LINE
  5
750F8
  8
TOI
 10
22605.304663670489
 20
9464.6420865635882
 30
0.0
 11
22605.304663670489
 21
9452.5976018900546
 31
0.0
  0
LINE
  5
750F9
  8
U1
 10
16776.089999999909
 20
6285.2917521017798
 30
0.0
 11
16776.089999999909
 21
9846.8249386161788
 31
0.0
  0
LINE
  5
750FA
  8
U1
 10
17060.66496690701
 20
9768.016765530585
 30
0.0
 11
16862.316033217419
 21
9772.5179325114168
 31
0.0
  0
LINE
  5
750FB
  8
U1
 10
17060.678579307169
 20
9768.6166110963259
 30
0.0
 11
16862.329645617519
 21
9773.1177780770377
 31
0.0
  0
ARC
  5
750FC
  8
U1
 10
16862.352332951159
 20
9774.1175206863427
 30
0.0
 40
1.0
 50
178.69999999971679
 51
268.69999999971208
  0
ARC
  5
750FD
  8
U1
 10
16862.352332951159
 20
9774.1175206863427
 30
0.0
 40
1.6000000000000001
 50
178.69999999971679
 51
268.69999999971208
  0
LINE
  5
750FE
  8
U1
 10
16861.397065049739
 20
9802.5465105247713
 30
0.0
 11
16860.752744776259
 21
9774.1538204200751
 31
0.0
  0
LINE
  5
750FF
  8
U1
 10
17060.678579307169
 20
9768.6166110963259
 30
0.0
 11
17060.66496690701
 21
9768.016765530585
 31
0.0
  0
LINE
  5
75100
  8
U1
 10
16861.996910615249
 20
9802.5328981246421
 30
0.0
 11
16861.352590341819
 21
9774.1402080199205
 31
0.0
  0
LINE
  5
75101
  8
U1
 10
16861.996910615249
 20
9802.5328981246421
 30
0.0
 11
16861.397065049739
 21
9802.5465105247713
 31
0.0
  0
LINE
  5
75102
  8
U1
 10
16874.063773912381
 20
9763.2379639213759
 30
0.0
 11
16873.655401907981
 21
9745.2425969535707
 31
0.0
  0
ARC
  5
75103
  8
U1
 10
16884.039075555342
 20
9762.0223931498349
 30
0.0
 40
10.0
 50
88.699999999712091
 51
178.69999999971679
  0
LINE
  5
75104
  8
U1
 10
16873.431528435969
 20
9647.2224465728086
 30
0.0
 11
16871.477417884518
 21
9649.2673064585979
 31
0.0
  0
LINE
  5
75105
  8
U1
 10
16873.204655100191
 20
9637.2250204795691
 30
0.0
 11
16873.431528435969
 21
9647.2224465728086
 31
0.0
  0
LINE
  5
75106
  8
U1
 10
16875.1587656517
 20
9635.1801605937799
 30
0.0
 11
16873.204655100191
 21
9637.2250204795691
 31
0.0
  0
LINE
  5
75107
  8
U1
 10
16874.931892315919
 20
9625.182734500544
 30
0.0
 11
16875.1587656517
 21
9635.1801605937799
 31
0.0
  0
LINE
  5
75108
  8
U1
 10
16870.84217254434
 20
9621.274513397555
 30
0.0
 11
16874.931892315919
 21
9625.182734500544
 31
0.0
  0
LINE
  5
75109
  8
U1
 10
16871.477417884518
 20
9649.2673064585979
 30
0.0
 11
16873.020156567811
 21
9717.249803892526
 31
0.0
  0
LINE
  5
7510A
  8
U1
 10
16905.19823060296
 20
9592.4876565793966
 30
0.0
 11
16909.25951412414
 21
9771.4526359035954
 31
0.0
  0
LINE
  5
7510B
  8
U1
 10
16909.25951412414
 20
9771.4526359035954
 30
0.0
 11
16884.265948891119
 21
9772.0198192430416
 31
0.0
  0
LINE
  5
7510C
  8
U1
 10
16870.43380053994
 20
9603.279146429777
 30
0.0
 11
16870.84217254434
 21
9621.274513397555
 31
0.0
  0
LINE
  5
7510D
  8
U1
 10
16877.109876339389
 20
9721.158024995515
 30
0.0
 11
16877.33674967516
 21
9731.1554510887509
 31
0.0
  0
LINE
  5
7510E
  8
U1
 10
16873.020156567811
 20
9717.249803892526
 30
0.0
 11
16877.109876339389
 21
9721.158024995515
 31
0.0
  0
LINE
  5
7510F
  8
U1
 10
16875.382639123662
 20
9733.2003109745419
 30
0.0
 11
16875.609512459429
 21
9743.1977370677796
 31
0.0
  0
LINE
  5
75110
  8
U1
 10
16877.33674967516
 20
9731.1554510887509
 30
0.0
 11
16875.382639123662
 21
9733.2003109745419
 31
0.0
  0
LINE
  5
75111
  8
U1
 10
16875.609512459429
 20
9743.1977370677796
 30
0.0
 11
16873.655401907981
 21
9745.2425969535707
 31
0.0
  0
ARC
  5
75112
  8
U1
 10
16880.431226633151
 20
9603.0522730939992
 30
0.0
 40
10.0
 50
178.69999999971679
 51
268.69999999971208
  0
LINE
  5
75113
  8
U1
 10
16905.197918530441
 20
9592.4876636613189
 30
0.0
 11
16880.204353297369
 21
9593.0548470007634
 31
0.0
  0
LINE
  5
75114
  8
TOI
 10
22471.199999999961
 20
6279.3512883093072
 30
0.0
 11
22471.199999999961
 21
6289.3512883093072
 31
0.0
  0
LINE
  5
75115
  8
TOI
 10
22361.199999999961
 20
6289.3512883093072
 30
0.0
 11
22471.199999999961
 21
6289.3512883093072
 31
0.0
  0
LINE
  5
75116
  8
TOI
 10
22361.199999999961
 20
6279.3512883093072
 30
0.0
 11
22471.199999999961
 21
6279.3512883093072
 31
0.0
  0
LINE
  5
75117
  8
TOI
 10
22466.199999999899
 20
9358.1147149836615
 30
0.0
 11
22406.199999999899
 21
9358.1147149836615
 31
0.0
  0
LINE
  5
75118
  8
TOI
 10
22494.190823203779
 20
9391.0502523267496
 30
0.0
 11
22483.303082464088
 21
9452.7976984405977
 31
0.0
  0
LINE
  5
75119
  8
TOI
 10
22361.199999999961
 20
8958.1147149836615
 30
0.0
 11
22471.199999999961
 21
8958.1147149836615
 31
0.0
  0
LINE
  5
7511A
  8
TOI
 10
22361.199999999961
 20
8968.1147149836615
 30
0.0
 11
22471.199999999961
 21
8968.1147149836615
 31
0.0
  0
LINE
  5
7511B
  8
TOI
 10
22471.199999999961
 20
8958.1147149836615
 30
0.0
 11
22471.199999999961
 21
8968.1147149836615
 31
0.0
  0
LINE
  5
7511C
  8
TOI
 10
22471.199999999961
 20
7618.7330016464839
 30
0.0
 11
22471.199999999961
 21
7628.7330016464839
 31
0.0
  0
LINE
  5
7511D
  8
TOI
 10
22361.199999999961
 20
7628.7330016464839
 30
0.0
 11
22471.199999999961
 21
7628.7330016464839
 31
0.0
  0
LINE
  5
7511E
  8
TOI
 10
22361.199999999961
 20
7618.7330016464839
 30
0.0
 11
22471.199999999961
 21
7618.7330016464839
 31
0.0
  0
LINE
  5
7511F
  8
TOI
 10
22466.199999999961
 20
5925.2917521017807
 30
0.0
 11
22466.199999999899
 21
9386.1147149836597
 31
0.0
  0
LINE
  5
75120
  8
TOI
 10
22406.199999999961
 20
5925.2917521017807
 30
0.0
 11
22466.199999999961
 21
5925.2917521017807
 31
0.0
  0
LINE
  5
75121
  8
TOI
 10
22406.199999999961
 20
5925.2917521017807
 30
0.0
 11
22406.199999999961
 21
9397.2473631474859
 31
0.0
  0
TEXT
  5
75122
  8
HIKIDASHI
 10
12075.197591624001
 20
5525.2917521017807
 30
0.0
 40
160.0
  1
壁 ヨドサイディング
  7
01
  0
LINE
  5
75123
  8
HIKIDASHI
 10
12058.721899763919
 20
5485.2917521017798
 30
0.0
 11
14603.64933592687
 21
5485.2917521017798
 31
0.0
  0
TEXT
  5
75124
  8
HIKIDASHI
 10
12384.656784468691
 20
10296.872704482739
 30
0.0
 40
160.0
  1
型断熱材付
  7
01
  0
LINE
  5
75125
  8
HIKIDASHI
 10
11090.75424865168
 20
10496.872704482739
 30
0.0
 11
14046.549949738201
 21
10496.872704482739
 31
0.0
  0
TEXT
  5
75126
  8
HIKIDASHI
 10
11150.1075759827
 20
10536.872704482739
 30
0.0
 40
160.0
  1
屋根板
  7
01
  0
TEXT
  5
75127
  8
HIKIDASHI
 10
11150.1075759827
 20
10296.872704482739
 30
0.0
 40
160.0
  1
ヨドルーフ
  7
01
  0
TEXT
  5
75128
  8
HIKIDASHI
 10
12134.221281282489
 20
10296.872704482739
 30
0.0
 40
160.0
  1
88
 41
0.6700000000000002
  7
00
  0
TEXT
  5
7512A
  8
HIKIDASHI
 10
14235.65870647436
 20
5525.2917521017807
 30
0.0
 40
160.0
  1
0.4
 41
0.6700000000000002
  7
00
  0
TEXT
  5
7512B
  8
HIKIDASHI
 10
13832.05608062319
 20
5525.2917521017807
 30
0.0
 40
160.0
  1
（
  7
01
  0
TEXT
  5
7512C
  8
HIKIDASHI
 10
14016.36062341562
 20
5545.2917521017807
 30
0.0
 40
120.0
  1
ア
  7
01
  0
CIRCLE
  5
7512D
  8
HIKIDASHI
 10
14067.738635845601
 20
5605.2917521017807
 30
0.0
 40
80.0
  0
LINE
  5
7512E
  8
HIKIDASHI
 10
15101.251031059541
 20
6427.0258846908264
 30
0.0
 11
14603.64933592687
 21
5485.2917521017798
 31
0.0
  0
TEXT
  5
7512F
  8
HIKIDASHI
 10
14496.81334673102
 20
5525.2917521017807
 30
0.0
 40
160.0
  1
）
  7
01
  0
LINE
  5
75130
  8
HIKIDASHI
 10
14572.554262618711
 20
9968.7713057981309
 30
0.0
 11
14046.549949738201
 21
10496.872704482739
 31
0.0
  0
TEXT
  5
75131
  8
HIKIDASHI
 10
13274.956694434461
 20
10296.872704482739
 30
0.0
 40
160.0
  1
（
  7
01
  0
TEXT
  5
75132
  8
HIKIDASHI
 10
13459.26123722696
 20
10316.872704482739
 30
0.0
 40
120.0
  1
ア
  7
01
  0
CIRCLE
  5
75133
  8
HIKIDASHI
 10
13510.639249656881
 20
10376.872704482739
 30
0.0
 40
80.0
  0
TEXT
  5
75134
  8
HIKIDASHI
 10
13657.49950437493
 20
10296.872704482739
 30
0.0
 40
160.0
  1
0.5
 41
0.6700000000000002
  7
00
  0
TEXT
  5
75135
  8
HIKIDASHI
 10
13939.713960542291
 20
10296.872704482739
 30
0.0
 40
160.0
  1
）
  7
01
  0
TEXT
  5
75137
  8
HIKIDASHI
 10
18225.461093499041
 20
3480.588973363178
 30
0.0
 40
160.0
  1
80
 41
0.6700000000000002
  7
00
  0
TEXT
  5
75138
  8
HIKIDASHI
 10
18066.5965082451
 20
3564.047591260126
 30
0.0
 40
160.0
  1
1
 41
0.6700000000000002
  7
00
  0
TEXT
  5
75139
  8
HIKIDASHI
 10
18132.870783973722
 20
3532.9246357637312
 30
0.0
 40
160.0
  1
/
 41
0.6700000000000002
  7
00
  0
TEXT
  5
7513A
  8
HIKIDASHI
 10
18468.31400562387
 20
3532.9246357637312
 30
0.0
 40
160.0
  1
)
 41
0.6700000000000002
  7
00
  0
TEXT
  5
7513B
  8
HIKIDASHI
 10
17705.18067636976
 20
3532.9246357637312
 30
0.0
 40
160.0
  1
(S=
 41
0.6700000000000002
  7
00
  0
TEXT
  5
7513C
  8
HIKIDASHI
 10
15578.287844235019
 20
3485.2917521017812
 30
0.0
 40
240.0
  1
側 面 立 面 図
  7
01
  0
CIRCLE
  5
7513D
  8
SUNPOU
 10
11316.000000000009
 20
4245.2917521017798
 30
0.0
 40
200.0
  0
TEXT
  5
7513E
  8
SUNPOU
 10
11235.600000000009
 20
4125.2917521017798
 30
0.0
 40
240.0
  1
C
 41
0.6700000000000002
  7
00
 72
     4
 11
11316.000000000009
 21
4245.2917521017798
 31
0.0
  0
LINE
  5
7513F
  8
SUNPOU
 10
10118.352697041881
 20
9505.2917521017807
 30
0.0
 11
10118.352697041881
 21
6325.2917521017798
 31
0.0
  0
LINE
  5
75140
  8
SUNPOU
 10
11146.700000000021
 20
6285.2917521017798
 30
0.0
 11
9998.3526970418825
 21
6285.2917521017798
 31
0.0
  0
TEXT
  5
75142
  8
SUNPOU
 10
10038.352697041881
 20
7726.4155616256039
 30
0.0
 40
160.0
  1
3260
 50
90.0
 41
0.6700000000000002
  7
00
  0
LINE
  5
75143
  8
SUNPOU
 10
10838.352697041881
 20
9545.2917521017807
 30
0.0
 11
9998.3526970418825
 21
9545.2917521017807
 31
0.0
  0
CIRCLE
  5
75145
  8
SUNPOU
 10
16816.000000000011
 20
4245.2917521017798
 30
0.0
 40
200.0
  0
TEXT
  5
75146
  8
SUNPOU
 10
16747.08571428572
 20
4125.2917521017798
 30
0.0
 40
240.0
  1
A
 41
0.6700000000000002
  7
00
 72
     4
 11
16816.000000000011
 21
4245.2917521017798
 31
0.0
  0
LINE
  5
75147
  8
SUNPOU
 10
18049.753093279211
 20
10025.291752101781
 30
0.0
 11
18049.753093279211
 21
6325.2917521017798
 31
0.0
  0
TEXT
  5
75149
  8
SUNPOU
 10
17969.753093279211
 20
7989.415561625603
 30
0.0
 40
160.0
  1
3780
 50
90.0
 41
0.6700000000000002
  7
00
  0
LINE
  5
7514A
  8
SUNPOU
 10
17314.985027643332
 20
10065.291752101781
 30
0.0
 11
18169.753093279211
 21
10065.291752101781
 31
0.0
  0
LINE
  5
7514C
  8
SUNPOU
 10
10859.764071801101
 20
10744.52791441195
 30
0.0
 11
17096.66611107282
 21
11257.96432968489
 31
0.0
  0
LINE
  5
7514D
  8
SUNPOU
 10
17228.421442916329
 20
10145.022043431571
 30
0.0
 11
17126.685879647161
 21
11380.84155904308
 31
0.0
  0
TEXT
  5
7514F
  8
SUNPOU
 10
13783.412085560851
 20
11065.48010238928
 30
0.0
 40
160.0
  1
6338
 50
4.7061111437861802
 41
0.6700000000000002
  7
00
  0
LINE
  5
75150
  8
SUNPOU
 10
10911.78911231482
 20
9625.0220434315706
 30
0.0
 11
10810.05354904564
 21
10860.84155904308
 31
0.0
  0
LINE
  5
75152
  8
SUNPOU
 10
16340.07051099837
 20
10500.40672552686
 30
0.0
 11
14740.07051099837
 21
10500.40672552686
 31
0.0
  0
LINE
  5
75153
  8
SUNPOU
 10
14740.07051099837
 20
10368.690969970001
 30
0.0
 11
16340.07051099837
 21
10500.40672552686
 31
0.0
  0
TEXT
  5
75154
  8
SUNPOU
 10
15381.91238300998
 20
10569.42250270709
 30
0.0
 40
160.0
  1
12
 41
0.6700000000000002
  7
00
  0
TEXT
  5
75155
  8
SUNPOU
 10
14581.52415796533
 20
10344.34218447811
 30
0.0
 40
160.0
  1
1
 41
0.6700000000000002
  7
00
  0
LINE
  5
75156
  8
SUNPOU
 10
14740.07051099837
 20
10500.40672552686
 30
0.0
 11
14740.07051099837
 21
10368.690969970001
 31
0.0
  0
TEXT
  5
75157
  8
SUNPOU
 10
22197.714285714239
 20
4136.2917521017798
 30
0.0
 40
230.0
  1
A0
 41
0.6
  7
00
 72
     4
 11
22315.999999999949
 21
4251.2917521017807
 31
0.0
  0
CIRCLE
  5
75158
  8
SUNPOU
 10
22315.999999999949
 20
4251.2917521017807
 30
0.0
 40
200.0
  0
LINE
  5
7515C
  8
SUNPOU
 10
17674.461403175032
 20
10447.06715688704
 30
0.0
 11
18794.461403175032
 21
10447.06715688704
 31
0.0
  0
LINE
  5
7515D
  8
SUNPOU
 10
18794.461403175032
 20
10422.00450024046
 30
0.0
 11
17674.461403175032
 21
10447.06715688704
 31
0.0
  0
TEXT
  5
7515E
  8
SUNPOU
 10
18188.038723776361
 20
10516.082934067281
 30
0.0
 40
160.0
  1
44
 41
0.6700000000000002
  7
00
  0
TEXT
  5
7515F
  8
SUNPOU
 10
18866.226803827121
 20
10343.45895566696
 30
0.0
 40
160.0
  1
1
 41
0.6700000000000002
  7
00
  0
LINE
  5
75160
  8
SUNPOU
 10
18794.461403175032
 20
10447.06715688704
 30
0.0
 11
18794.461403175032
 21
10422.00450024046
 31
0.0
  0
TEXT
  5
75163
  8
HIKIDASHI
 10
20886.006113692951
 20
10147.340522398221
 30
0.0
 40
160.0
  1
型断熱材付
  7
01
  0
LINE
  5
75164
  8
HIKIDASHI
 10
19592.10357787594
 20
10347.340522398221
 30
0.0
 11
22547.899278962472
 21
10347.340522398221
 31
0.0
  0
TEXT
  5
75165
  8
HIKIDASHI
 10
19651.45690520696
 20
10387.340522398221
 30
0.0
 40
160.0
  1
屋根板
  7
01
  0
TEXT
  5
75166
  8
HIKIDASHI
 10
19651.45690520696
 20
10147.340522398221
 30
0.0
 40
160.0
  1
ヨドルーフ
  7
01
  0
TEXT
  5
75167
  8
HIKIDASHI
 10
20635.570610506758
 20
10147.340522398221
 30
0.0
 40
160.0
  1
88
 41
0.6700000000000002
  7
00
  0
TEXT
  5
75168
  8
HIKIDASHI
 10
21776.30602365873
 20
10147.340522398221
 30
0.0
 40
160.0
  1
（
  7
01
  0
TEXT
  5
75169
  8
HIKIDASHI
 10
21960.610566451222
 20
10167.340522398221
 30
0.0
 40
120.0
  1
ア
  7
01
  0
CIRCLE
  5
7516A
  8
HIKIDASHI
 10
22011.988578881141
 20
10227.340522398221
 30
0.0
 40
80.0
  0
TEXT
  5
7516B
  8
HIKIDASHI
 10
22158.84883359919
 20
10147.340522398221
 30
0.0
 40
160.0
  1
0.5
 41
0.6700000000000002
  7
00
  0
TEXT
  5
7516C
  8
HIKIDASHI
 10
22441.06328976656
 20
10147.340522398221
 30
0.0
 40
160.0
  1
）
  7
01
  0
LINE
  5
7516E
  8
U1
 10
22273.499999999949
 20
5885.2917521017807
 30
0.0
 11
22273.499999999949
 21
5385.2917521017807
 31
0.0
  0
LINE
  5
7516F
  8
U1
 10
22358.499999999949
 20
5385.2917521017807
 30
0.0
 11
22358.499999999949
 21
5885.2917521017807
 31
0.0
  0
LINE
  5
75170
  8
U1
 10
19523.499999999949
 20
5885.2917521017807
 30
0.0
 11
19523.499999999949
 21
5385.2917521017807
 31
0.0
  0
LINE
  5
75171
  8
U1
 10
19608.499999999949
 20
5385.2917521017807
 30
0.0
 11
19608.499999999949
 21
5885.2917521017807
 31
0.0
  0
LINE
  5
75172
  8
U1
 10
19523.499999999949
 20
5385.2917521017807
 30
0.0
 11
19608.499999999949
 21
5385.2917521017807
 31
0.0
  0
LINE
  5
75173
  8
U1
 10
22273.499999999949
 20
5385.2917521017807
 30
0.0
 11
22358.499999999949
 21
5385.2917521017807
 31
0.0
  0
LINE
  5
75561
  8
U1
 10
16871.59999999998
 20
9009.818482222021
 30
0.0
 11
16951.52893218803
 21
9009.8184822220064
 31
0.0
  0
LINE
  5
75562
  8
U1
 10
17008.59999999998
 20
8969.8184822220228
 30
0.0
 11
16995.671067811822
 21
8969.8184822220228
 31
0.0
  0
ARC
  5
75563
  8
U1
 10
16995.671067811822
 20
8974.818482222021
 30
0.0
 40
5.0
 50
225.000000000737
 51
270.0
  0
LINE
  5
75564
  8
U1
 10
16955.064466093962
 20
9008.3540161279525
 30
0.0
 11
16992.135533905901
 21
8971.2829483160895
 31
0.0
  0
ARC
  5
75565
  8
U1
 10
16951.52893218803
 20
9004.8184822220192
 30
0.0
 40
5.0
 50
45.000000000736947
 51
90.0
  0
TEXT
  5
75567
  8
SUNPOU
 10
20961.3871066635
 20
6590.7099449986417
 30
0.0
 40
160.0
  1
下屋側面有効開口高サ
 50
90.0
  7
01
  0
TEXT
  5
759F7
  8
HIKIDASHI
 10
15446.887404830381
 20
13118.121500361291
 30
0.0
 40
240.0
  1
正 面 立 面 図
  7
01
  0
TEXT
  5
759F8
  8
HIKIDASHI
 10
17423.642083548199
 20
13165.754384023219
 30
0.0
 40
160.0
  1
(S=
 41
0.6700000000000002
  7
00
  0
TEXT
  5
759F9
  8
HIKIDASHI
 10
17851.33219115216
 20
13165.754384023219
 30
0.0
 40
160.0
  1
/
 41
0.6700000000000002
  7
00
  0
TEXT
  5
759FA
  8
HIKIDASHI
 10
17785.057915423549
 20
13196.87733951962
 30
0.0
 40
160.0
  1
1
 41
0.6700000000000002
  7
00
  0
TEXT
  5
759FB
  8
HIKIDASHI
 10
17943.92250067744
 20
13113.418721622669
 30
0.0
 40
160.0
  1
80
 41
0.6700000000000002
  7
00
  0
TEXT
  5
759FC
  8
HIKIDASHI
 10
18186.775412802312
 20
13165.754384023219
 30
0.0
 40
160.0
  1
)
 41
0.6700000000000002
  7
00
  0
LINE
  5
759FD
  8
SUNPOU
 10
22087.999999999982
 20
16238.121500361291
 30
0.0
 11
22087.999999999982
 21
15398.121500361291
 31
0.0
  0
LINE
  5
75A02
  8
SUNPOU
 10
16921.999999999982
 20
16238.121500361291
 30
0.0
 11
16921.999999999982
 21
15398.121500361291
 31
0.0
  0
LINE
  5
75A03
  8
SUNPOU
 10
16961.999999999982
 20
15518.121500361291
 30
0.0
 11
22027.999999999982
 21
15518.121500361291
 31
0.0
  0
LINE
  5
75A04
  8
SUNPOU
 10
16487.999999999982
 20
16238.121500361291
 30
0.0
 11
16487.999999999982
 21
15398.121500361291
 31
0.0
  0
LINE
  5
75A09
  8
SUNPOU
 10
11321.99999999998
 20
16238.121500361291
 30
0.0
 11
11321.99999999998
 21
15398.121500361291
 31
0.0
  0
LINE
  5
75A0A
  8
SUNPOU
 10
11361.99999999998
 20
15518.121500361291
 30
0.0
 11
16427.999999999982
 21
15518.121500361291
 31
0.0
  0
LINE
  5
75A0B
  8
U1
 10
11264.29427045179
 20
18988.537354019831
 30
0.0
 11
16767.70572954823
 21
18988.537354019831
 31
0.0
  0
LINE
  5
75A0C
  8
U1
 10
11264.29427045179
 20
19188.537354019831
 30
0.0
 11
16770.0
 21
19188.537354019831
 31
0.0
  0
TEXT
  5
75A0F
  8
SUNPOU
 10
16553.104761904771
 20
21378.1215003613
 30
0.0
 40
160.0
  1
11520
 41
0.6700000000000002
  7
00
 72
     4
 11
16816.000000000011
 21
21458.1215003613
 31
0.0
  0
TEXT
  5
75A10
  8
SUNPOU
 10
16553.104761904771
 20
20978.121500361289
 30
0.0
 40
160.0
  1
11450
 41
0.6700000000000002
  7
00
 72
     4
 11
16816.000000000011
 21
21058.121500361289
 31
0.0
  0
CIRCLE
  5
75A12
  8
SUNPOU
 10
14016.000000000009
 20
13878.121500361291
 30
0.0
 40
200.0
  0
TEXT
  5
75A13
  8
SUNPOU
 10
13939.42857142858
 20
13758.121500361291
 30
0.0
 40
240.0
  1
2
 41
0.6700000000000002
  7
00
 72
     4
 11
14016.000000000009
 21
13878.121500361291
 31
0.0
  0
LINE
  5
75A14
  8
U1
 10
11091.000000000009
 20
16318.121500361291
 30
0.0
 11
11173.5
 21
16318.121500361291
 31
0.0
  0
LINE
  5
75A15
  8
U1
 10
11066.0
 20
20098.1215003613
 30
0.0
 11
22566.000000000011
 21
20098.1215003613
 31
0.0
  0
LINE
  5
75A16
  8
U1
 10
11066.0
 20
19918.121500361289
 30
0.0
 11
22566.000000000011
 21
19918.121500361289
 31
0.0
  0
LINE
  5
75A17
  8
U1
 10
11056.000000000009
 20
20058.1215003613
 30
0.0
 11
22576.000000000011
 21
20058.1215003613
 31
0.0
  0
LINE
  5
75A18
  8
U1
 10
11056.000000000009
 20
20043.1215003613
 30
0.0
 11
22576.000000000011
 21
20043.1215003613
 31
0.0
  0
LINE
  5
75A19
  8
U1
 10
11056.000000000009
 20
19973.121500361289
 30
0.0
 11
22576.000000000011
 21
19973.121500361289
 31
0.0
  0
LINE
  5
75A1A
  8
U1
 10
11056.000000000009
 20
19958.121500361289
 30
0.0
 11
22576.000000000011
 21
19958.121500361289
 31
0.0
  0
LINE
  5
75A1B
  8
SUNPOU
 10
11096.000000000009
 20
21298.1215003613
 30
0.0
 11
22536.000000000011
 21
21298.1215003613
 31
0.0
  0
LINE
  5
75A1C
  8
SUNPOU
 10
11131.000000000009
 20
20898.121500361289
 30
0.0
 11
22501.000000000011
 21
20898.121500361289
 31
0.0
  0
LINE
  5
75A1D
  8
SUNPOU
 10
11131.000000000009
 20
14318.121500361291
 30
0.0
 11
22501.0
 21
14318.121500361291
 31
0.0
  0
LINE
  5
75A1E
  8
SUNPOU
 10
11091.000000000009
 20
16238.121500361291
 30
0.0
 11
11091.000000000009
 21
14198.121500361291
 31
0.0
  0
LINE
  5
75A1F
  8
1PL-M1
 10
11216.000000000009
 20
14078.121500361291
 30
0.0
 11
11216.000000000009
 21
16818.121500361289
 31
0.0
  0
LINE
  5
75A20
  8
1PL-M1
 10
14016.000000000009
 20
14078.121500361291
 30
0.0
 11
14016.000000000009
 21
16818.121500361289
 31
0.0
  0
CIRCLE
  5
75A21
  8
SUNPOU
 10
11216.000000000009
 20
13878.121500361291
 30
0.0
 40
200.0
  0
TEXT
  5
75A22
  8
SUNPOU
 10
11150.914285714291
 20
13758.121500361291
 30
0.0
 40
240.0
  1
1
 41
0.6700000000000002
  7
00
 72
     4
 11
11216.000000000009
 21
13878.121500361291
 31
0.0
  0
LINE
  5
75A24
  8
U1
 10
11276.49999999998
 20
16318.121500361291
 30
0.0
 11
11276.49999999998
 21
18988.537354019831
 31
0.0
  0
LINE
  5
75A25
  8
SUNPOU
 10
9891.0000000000073
 20
16358.121500361291
 30
0.0
 11
9891.0000000000073
 21
20058.1215003613
 31
0.0
  0
LINE
  5
75A26
  8
U1
 10
13910.000000000009
 20
16318.121500361291
 30
0.0
 11
13910.000000000009
 21
18988.537354019831
 31
0.0
  0
LINE
  5
75A27
  8
U1
 10
13955.500000000009
 20
16318.121500361291
 30
0.0
 11
13955.5
 21
18988.537354019831
 31
0.0
  0
LINE
  5
75A28
  8
U1
 10
11321.99999999998
 20
16318.121500361291
 30
0.0
 11
11321.99999999998
 21
18988.537354019831
 31
0.0
  0
LINE
  5
75A29
  8
U1
 10
11091.000000000009
 20
16318.121500361291
 30
0.0
 11
11091.000000000009
 21
19470.556065383062
 31
0.0
  0
LINE
  5
75A2A
  8
U1
 10
11264.29427045179
 20
19918.121500361289
 30
0.0
 11
11264.29427045179
 21
19689.121500361289
 31
0.0
  0
LINE
  5
75A2B
  8
U1
 10
11321.999999999991
 20
16459.721500361291
 30
0.0
 11
13910.00000000002
 21
16459.721500361291
 31
0.0
  0
LINE
  5
75A2C
  8
U1
 10
11321.999999999991
 20
16530.52150036129
 30
0.0
 11
13910.00000000002
 21
16530.52150036129
 31
0.0
  0
LINE
  5
75A2D
  8
U1
 10
11321.999999999991
 20
16601.32150036129
 30
0.0
 11
13910.00000000002
 21
16601.32150036129
 31
0.0
  0
LINE
  5
75A2E
  8
U1
 10
11321.999999999991
 20
16672.121500361289
 30
0.0
 11
13910.00000000002
 21
16672.121500361289
 31
0.0
  0
LINE
  5
75A2F
  8
U1
 10
11321.999999999991
 20
16742.921500361292
 30
0.0
 11
13910.00000000002
 21
16742.921500361292
 31
0.0
  0
LINE
  5
75A30
  8
U1
 10
11321.999999999991
 20
16813.721500361291
 30
0.0
 11
13910.00000000002
 21
16813.721500361291
 31
0.0
  0
LINE
  5
75A31
  8
U1
 10
11321.999999999991
 20
16884.52150036129
 30
0.0
 11
13910.00000000002
 21
16884.52150036129
 31
0.0
  0
LINE
  5
75A32
  8
U1
 10
11321.999999999991
 20
16955.32150036129
 30
0.0
 11
13910.00000000002
 21
16955.32150036129
 31
0.0
  0
LINE
  5
75A33
  8
U1
 10
11321.999999999991
 20
17026.121500361289
 30
0.0
 11
13910.00000000002
 21
17026.121500361289
 31
0.0
  0
LINE
  5
75A34
  8
U1
 10
11321.999999999991
 20
17096.921500361292
 30
0.0
 11
13910.00000000002
 21
17096.921500361292
 31
0.0
  0
LINE
  5
75A35
  8
U1
 10
11321.999999999991
 20
17167.721500361291
 30
0.0
 11
13910.00000000002
 21
17167.721500361291
 31
0.0
  0
LINE
  5
75A36
  8
U1
 10
11321.999999999991
 20
17238.52150036129
 30
0.0
 11
13910.00000000002
 21
17238.52150036129
 31
0.0
  0
LINE
  5
75A37
  8
U1
 10
11321.999999999991
 20
17309.32150036129
 30
0.0
 11
13910.00000000002
 21
17309.32150036129
 31
0.0
  0
LINE
  5
75A38
  8
U1
 10
11321.999999999991
 20
18088.121500361289
 30
0.0
 11
13910.00000000002
 21
18088.121500361289
 31
0.0
  0
LINE
  5
75A39
  8
U1
 10
11321.999999999991
 20
18017.3215003613
 30
0.0
 11
13910.00000000002
 21
18017.3215003613
 31
0.0
  0
LINE
  5
75A3A
  8
U1
 10
11321.999999999991
 20
17946.521500361301
 30
0.0
 11
13910.00000000002
 21
17946.521500361301
 31
0.0
  0
LINE
  5
75A3B
  8
U1
 10
11321.999999999991
 20
17875.721500361291
 30
0.0
 11
13910.00000000002
 21
17875.721500361291
 31
0.0
  0
LINE
  5
75A3C
  8
U1
 10
11321.999999999991
 20
17804.921500361292
 30
0.0
 11
13910.00000000002
 21
17804.921500361292
 31
0.0
  0
LINE
  5
75A3D
  8
U1
 10
11321.999999999991
 20
17734.121500361289
 30
0.0
 11
13910.00000000002
 21
17734.121500361289
 31
0.0
  0
LINE
  5
75A3E
  8
U1
 10
11321.999999999991
 20
17663.32150036129
 30
0.0
 11
13910.00000000002
 21
17663.32150036129
 31
0.0
  0
LINE
  5
75A3F
  8
U1
 10
11321.999999999991
 20
17592.521500361301
 30
0.0
 11
13910.00000000002
 21
17592.521500361301
 31
0.0
  0
LINE
  5
75A40
  8
U1
 10
11321.999999999991
 20
17521.721500361291
 30
0.0
 11
13910.00000000002
 21
17521.721500361291
 31
0.0
  0
LINE
  5
75A41
  8
U1
 10
11321.999999999991
 20
17450.921500361292
 30
0.0
 11
13910.00000000002
 21
17450.921500361292
 31
0.0
  0
LINE
  5
75A42
  8
U1
 10
11321.999999999991
 20
17380.121500361289
 30
0.0
 11
13910.00000000002
 21
17380.121500361289
 31
0.0
  0
LINE
  5
75A43
  8
U1
 10
11321.999999999991
 20
18158.921500361292
 30
0.0
 11
13910.00000000002
 21
18158.921500361292
 31
0.0
  0
LINE
  5
75A44
  8
U1
 10
11321.999999999991
 20
18229.721500361291
 30
0.0
 11
13910.00000000002
 21
18229.721500361291
 31
0.0
  0
LINE
  5
75A45
  8
U1
 10
11321.999999999991
 20
18300.52150036129
 30
0.0
 11
13910.00000000002
 21
18300.52150036129
 31
0.0
  0
LINE
  5
75A46
  8
U1
 10
11321.999999999991
 20
18512.921500361292
 30
0.0
 11
13910.000000000009
 21
18512.921500361292
 31
0.0
  0
LINE
  5
75A47
  8
U1
 10
11321.999999999991
 20
18442.121500361289
 30
0.0
 11
13910.000000000009
 21
18442.121500361289
 31
0.0
  0
LINE
  5
75A48
  8
U1
 10
11321.999999999991
 20
18371.32150036129
 30
0.0
 11
13910.000000000009
 21
18371.32150036129
 31
0.0
  0
LINE
  5
75A49
  8
U1
 10
11321.999999999991
 20
18583.721500361291
 30
0.0
 11
13910.000000000009
 21
18583.721500361291
 31
0.0
  0
LINE
  5
75A4A
  8
U1
 10
11321.999999999991
 20
16388.921500361292
 30
0.0
 11
13910.00000000002
 21
16388.921500361292
 31
0.0
  0
LINE
  5
75A4C
  8
SUNPOU
 10
11256.000000000009
 20
14718.121500361291
 30
0.0
 11
13976.000000000009
 21
14718.121500361291
 31
0.0
  0
LINE
  5
75A4D
  8
SUNPOU
 10
11011.000000000009
 20
16318.121500361291
 30
0.0
 11
9771.0000000000073
 21
16318.1215003613
 31
0.0
  0
TEXT
  5
75A4F
  8
SUNPOU
 10
10722.7220639097
 20
14798.121500361291
 30
0.0
 40
160.0
  1
125
 41
0.6700000000000002
  7
00
  0
LINE
  5
75A50
  8
SUNPOU
 10
11091.000000000009
 20
14718.121500361291
 30
0.0
 11
10649.652625414121
 21
14718.121500361291
 31
0.0
  0
LINE
  5
75A52
  8
SUNPOU
 10
11131.000000000009
 20
14718.121500361291
 30
0.0
 11
11176.000000000009
 21
14718.121500361291
 31
0.0
  0
TEXT
  5
75A55
  8
SUNPOU
 10
9811.0000000000073
 20
18019.2453098851
 30
0.0
 40
160.0
  1
3780
 50
90.0
 41
0.6700000000000002
  7
00
  0
TEXT
  5
75A56
  8
SUNPOU
 10
12715.99200123542
 20
14798.121500361291
 30
0.0
 40
160.0
  1
2800
 41
0.6700000000000002
  7
00
  0
TEXT
  5
75A57
  8
SUNPOU
 10
12069.50631550423
 20
14798.121500361291
 30
0.0
 40
160.0
  1
柱芯寸
  7
01
  0
ARC
  5
75A5B
  8
U1
 10
12616.0
 20
17333.921500361292
 30
0.0
 40
12.5
 50
240.0000000000235
 51
299.99999999997652
  0
ARC
  5
75A5C
  8
U1
 10
12616.0
 20
17333.921500361292
 30
0.0
 40
12.5
 50
60.000000000023533
 51
119.9999999999764
  0
LINE
  5
75A5D
  8
U1
 10
12641.000000000009
 20
17333.921500361292
 30
0.0
 11
12622.250000000009
 21
17323.096182813981
 31
0.0
  0
LINE
  5
75A5E
  8
U1
 10
12591.0
 20
17333.921500361292
 30
0.0
 11
12609.750000000009
 21
17323.096182813981
 31
0.0
  0
LINE
  5
75A5F
  8
U1
 10
12591.0
 20
17333.921500361292
 30
0.0
 11
12609.750000000009
 21
17344.746817908592
 31
0.0
  0
LINE
  5
75A60
  8
U1
 10
12641.000000000009
 20
17333.921500361292
 30
0.0
 11
12622.250000000009
 21
17344.746817908592
 31
0.0
  0
LINE
  5
75A63
  8
U1
 10
11321.99999999998
 20
18866.921500361281
 30
0.0
 11
13910.000000000009
 21
18866.921500361281
 31
0.0
  0
LINE
  5
75A64
  8
U1
 10
11321.99999999998
 20
18937.721500361291
 30
0.0
 11
13910.000000000009
 21
18937.721500361291
 31
0.0
  0
LINE
  5
75A65
  8
U1
 10
11321.99999999998
 20
18796.121500361289
 30
0.0
 11
13910.000000000009
 21
18796.121500361289
 31
0.0
  0
LINE
  5
75A66
  8
U1
 10
11321.99999999998
 20
18725.32150036129
 30
0.0
 11
13910.000000000009
 21
18725.32150036129
 31
0.0
  0
LINE
  5
75A67
  8
U1
 10
11321.99999999998
 20
18654.52150036129
 30
0.0
 11
13910.000000000009
 21
18654.52150036129
 31
0.0
  0
LINE
  5
75A68
  8
SUNPOU
 10
11091.000000000009
 20
20178.1215003613
 30
0.0
 11
11091.000000000009
 21
21018.121500361289
 31
0.0
  0
LINE
  5
75A69
  8
SUNPOU
 10
11056.000000000009
 20
20178.1215003613
 30
0.0
 11
11056.000000000009
 21
21418.1215003613
 31
0.0
  0
LINE
  5
75A6A
  8
SUNPOU
 10
10976.000000000009
 20
20098.1215003613
 30
0.0
 11
9771.0000000000073
 21
20098.1215003613
 31
0.0
  0
LINE
  5
75A6C
  8
U1
 10
11056.000000000009
 20
19928.121500361289
 30
0.0
 11
11056.000000000009
 21
20088.1215003613
 31
0.0
  0
ARC
  5
75A6F
  8
U1
 10
11066.0
 20
19928.121500361289
 30
0.0
 40
10.0
 50
180.0
 51
270.0
  0
ARC
  5
75A70
  8
U1
 10
11066.0
 20
20088.1215003613
 30
0.0
 40
10.0
 50
90.0
 51
180.0
  0
LINE
  5
75A71
  8
SUNPOU
 10
10996.000000000009
 20
20898.121500361289
 30
0.0
 11
10710.82137393905
 21
20898.121500361289
 31
0.0
  0
TEXT
  5
75A75
  8
SUNPOU
 10
10762.4380952381
 20
20978.121500361289
 30
0.0
 40
160.0
  1
35
 41
0.6700000000000002
  7
00
  0
LINE
  5
75A76
  8
SUNPOU
 10
22541.0
 20
16238.121500361291
 30
0.0
 11
22541.0
 21
14198.121500361291
 31
0.0
  0
CIRCLE
  5
75A77
  8
SUNPOU
 10
16816.000000000011
 20
13878.121500361291
 30
0.0
 40
200.0
  0
TEXT
  5
75A78
  8
SUNPOU
 10
16739.42857142858
 20
13758.121500361291
 30
0.0
 40
240.0
  1
3
 41
0.6700000000000002
  7
00
 72
     4
 11
16816.000000000011
 21
13878.121500361291
 31
0.0
  0
LINE
  5
75A7A
  8
U1
 10
16755.500000000029
 20
16318.121500361291
 30
0.0
 11
16755.500000000029
 21
18988.537354019831
 31
0.0
  0
LINE
  5
75A7B
  8
U1
 10
16710.000000000029
 20
16318.121500361291
 30
0.0
 11
16710.000000000029
 21
18988.537354019831
 31
0.0
  0
LINE
  5
75A7C
  8
U1
 10
14122.000000000009
 20
16318.121500361291
 30
0.0
 11
14122.000000000009
 21
18988.537354019831
 31
0.0
  0
LINE
  5
75A7D
  8
U1
 10
16767.70572954823
 20
19918.691127034319
 30
0.0
 11
16767.70572954823
 21
19689.121500361289
 31
0.0
  0
LINE
  5
75A7E
  8
U1
 10
14076.50000000002
 20
16318.121500361291
 30
0.0
 11
14076.500000000009
 21
18988.537354019831
 31
0.0
  0
LINE
  5
75A7F
  8
U1
 10
14122.00000000002
 20
18583.72150036128
 30
0.0
 11
16710.00000000004
 21
18583.72150036128
 31
0.0
  0
LINE
  5
75A80
  8
U1
 10
14122.00000000002
 20
18512.921500361292
 30
0.0
 11
16710.00000000004
 21
18512.921500361292
 31
0.0
  0
LINE
  5
75A81
  8
U1
 10
14122.00000000002
 20
18442.121500361289
 30
0.0
 11
16710.00000000004
 21
18442.121500361289
 31
0.0
  0
LINE
  5
75A82
  8
U1
 10
14122.000000000029
 20
16388.921500361292
 30
0.0
 11
16710.00000000004
 21
16388.921500361292
 31
0.0
  0
LINE
  5
75A83
  8
U1
 10
14122.00000000002
 20
18371.32150036129
 30
0.0
 11
16710.00000000004
 21
18371.32150036129
 31
0.0
  0
LINE
  5
75A84
  8
U1
 10
14122.00000000002
 20
18300.52150036129
 30
0.0
 11
16710.00000000004
 21
18300.52150036129
 31
0.0
  0
LINE
  5
75A85
  8
U1
 10
14122.00000000002
 20
18229.721500361291
 30
0.0
 11
16710.00000000004
 21
18229.721500361291
 31
0.0
  0
LINE
  5
75A86
  8
U1
 10
14122.00000000002
 20
18158.921500361292
 30
0.0
 11
16710.00000000004
 21
18158.921500361292
 31
0.0
  0
LINE
  5
75A87
  8
U1
 10
14122.000000000029
 20
17380.121500361289
 30
0.0
 11
16710.00000000004
 21
17380.121500361289
 31
0.0
  0
LINE
  5
75A88
  8
U1
 10
14122.000000000029
 20
17450.921500361292
 30
0.0
 11
16710.00000000004
 21
17450.921500361292
 31
0.0
  0
LINE
  5
75A89
  8
U1
 10
14122.000000000029
 20
17521.721500361291
 30
0.0
 11
16710.00000000004
 21
17521.721500361291
 31
0.0
  0
LINE
  5
75A8A
  8
U1
 10
14122.000000000029
 20
17592.52150036129
 30
0.0
 11
16710.00000000004
 21
17592.52150036129
 31
0.0
  0
LINE
  5
75A8B
  8
U1
 10
14122.000000000029
 20
17663.32150036129
 30
0.0
 11
16710.00000000004
 21
17663.32150036129
 31
0.0
  0
LINE
  5
75A8C
  8
U1
 10
14122.000000000029
 20
17734.121500361289
 30
0.0
 11
16710.00000000004
 21
17734.121500361289
 31
0.0
  0
LINE
  5
75A8D
  8
U1
 10
14122.000000000029
 20
17804.921500361292
 30
0.0
 11
16710.00000000004
 21
17804.921500361292
 31
0.0
  0
LINE
  5
75A8E
  8
U1
 10
14122.000000000029
 20
17875.721500361291
 30
0.0
 11
16710.00000000004
 21
17875.721500361291
 31
0.0
  0
LINE
  5
75A8F
  8
U1
 10
14122.000000000029
 20
17946.52150036129
 30
0.0
 11
16710.00000000004
 21
17946.52150036129
 31
0.0
  0
LINE
  5
75A90
  8
U1
 10
14122.000000000029
 20
18017.32150036129
 30
0.0
 11
16710.00000000004
 21
18017.32150036129
 31
0.0
  0
LINE
  5
75A91
  8
U1
 10
14122.000000000029
 20
18088.121500361289
 30
0.0
 11
16710.00000000004
 21
18088.121500361289
 31
0.0
  0
LINE
  5
75A92
  8
U1
 10
14122.000000000029
 20
17309.32150036129
 30
0.0
 11
16710.00000000004
 21
17309.32150036129
 31
0.0
  0
LINE
  5
75A93
  8
U1
 10
14122.000000000029
 20
17238.52150036129
 30
0.0
 11
16710.00000000004
 21
17238.52150036129
 31
0.0
  0
LINE
  5
75A94
  8
U1
 10
14122.000000000029
 20
17167.721500361291
 30
0.0
 11
16710.00000000004
 21
17167.721500361291
 31
0.0
  0
LINE
  5
75A95
  8
U1
 10
14122.000000000029
 20
17096.921500361292
 30
0.0
 11
16710.00000000004
 21
17096.921500361292
 31
0.0
  0
LINE
  5
75A96
  8
U1
 10
14122.000000000029
 20
17026.121500361289
 30
0.0
 11
16710.00000000004
 21
17026.121500361289
 31
0.0
  0
LINE
  5
75A97
  8
U1
 10
14122.000000000029
 20
16955.32150036129
 30
0.0
 11
16710.00000000004
 21
16955.32150036129
 31
0.0
  0
LINE
  5
75A98
  8
U1
 10
14122.000000000029
 20
16884.52150036129
 30
0.0
 11
16710.00000000004
 21
16884.52150036129
 31
0.0
  0
LINE
  5
75A99
  8
U1
 10
14122.000000000029
 20
16813.721500361291
 30
0.0
 11
16710.00000000004
 21
16813.721500361291
 31
0.0
  0
LINE
  5
75A9A
  8
U1
 10
14122.000000000029
 20
16742.921500361292
 30
0.0
 11
16710.00000000004
 21
16742.921500361292
 31
0.0
  0
LINE
  5
75A9B
  8
U1
 10
14122.000000000029
 20
16672.121500361289
 30
0.0
 11
16710.00000000004
 21
16672.121500361289
 31
0.0
  0
LINE
  5
75A9C
  8
U1
 10
14122.000000000029
 20
16601.32150036129
 30
0.0
 11
16710.00000000004
 21
16601.32150036129
 31
0.0
  0
LINE
  5
75A9D
  8
U1
 10
14122.000000000029
 20
16530.52150036129
 30
0.0
 11
16710.00000000004
 21
16530.52150036129
 31
0.0
  0
LINE
  5
75A9E
  8
U1
 10
14122.000000000029
 20
16459.721500361291
 30
0.0
 11
16710.00000000004
 21
16459.721500361291
 31
0.0
  0
LINE
  5
75A9F
  8
SUNPOU
 10
14056.000000000009
 20
14718.121500361291
 30
0.0
 11
16776.000000000011
 21
14718.121500361291
 31
0.0
  0
TEXT
  5
75AA0
  8
SUNPOU
 10
14869.50631550423
 20
14798.121500361291
 30
0.0
 40
160.0
  1
柱芯寸
  7
01
  0
TEXT
  5
75AA1
  8
SUNPOU
 10
15515.992001235431
 20
14798.121500361291
 30
0.0
 40
160.0
  1
2800
 41
0.6700000000000002
  7
00
  0
ARC
  5
75AA4
  8
U1
 10
15416.0
 20
17333.921500361292
 30
0.0
 40
12.5
 50
240.0000000000235
 51
299.99999999997652
  0
ARC
  5
75AA5
  8
U1
 10
15416.0
 20
17333.921500361292
 30
0.0
 40
12.5
 50
60.000000000023533
 51
119.9999999999764
  0
LINE
  5
75AA6
  8
U1
 10
15441.0
 20
17333.921500361292
 30
0.0
 11
15422.250000000009
 21
17323.096182813981
 31
0.0
  0
LINE
  5
75AA7
  8
U1
 10
15391.000000000009
 20
17333.921500361292
 30
0.0
 11
15409.750000000009
 21
17323.096182813981
 31
0.0
  0
LINE
  5
75AA8
  8
U1
 10
15391.000000000009
 20
17333.921500361292
 30
0.0
 11
15409.750000000009
 21
17344.746817908592
 31
0.0
  0
LINE
  5
75AA9
  8
U1
 10
15441.0
 20
17333.921500361292
 30
0.0
 11
15422.250000000009
 21
17344.746817908592
 31
0.0
  0
TEXT
  5
75AAA
  8
SUNPOU
 10
22654.03984085222
 20
14798.121500361291
 30
0.0
 40
160.0
  1
125
 41
0.6700000000000002
  7
00
  0
LINE
  5
75AAB
  8
SUNPOU
 10
22416.000000000011
 20
14718.121500361291
 30
0.0
 11
22982.347374585901
 21
14718.121500361291
 31
0.0
  0
LINE
  5
75AAF
  8
U1
 10
14122.00000000002
 20
18654.52150036129
 30
0.0
 11
16710.000000000029
 21
18654.52150036129
 31
0.0
  0
LINE
  5
75AB0
  8
U1
 10
14122.00000000002
 20
18725.321500361279
 30
0.0
 11
16710.000000000029
 21
18725.321500361279
 31
0.0
  0
LINE
  5
75AB1
  8
U1
 10
14122.00000000002
 20
18796.121500361289
 30
0.0
 11
16710.000000000029
 21
18796.121500361289
 31
0.0
  0
LINE
  5
75AB2
  8
U1
 10
14122.000000000009
 20
18937.721500361291
 30
0.0
 11
16710.000000000029
 21
18937.721500361291
 31
0.0
  0
LINE
  5
75AB3
  8
U1
 10
14122.000000000009
 20
18866.921500361281
 30
0.0
 11
16710.000000000029
 21
18866.921500361281
 31
0.0
  0
LINE
  5
75AB4
  8
U1
 10
14141.000000000009
 20
19918.121500361289
 30
0.0
 11
14141.000000000009
 21
20098.1215003613
 31
0.0
  0
LINE
  5
75AB5
  8
SUNPOU
 10
22541.000000000011
 20
20178.1215003613
 30
0.0
 11
22541.000000000011
 21
21018.121500361289
 31
0.0
  0
LINE
  5
75AB6
  8
SUNPOU
 10
22576.000000000011
 20
20178.1215003613
 30
0.0
 11
22576.000000000011
 21
21418.1215003613
 31
0.0
  0
LINE
  5
75AB9
  8
SUNPOU
 10
22636.000000000018
 20
20898.121500361289
 30
0.0
 11
22921.17862606097
 21
20898.121500361289
 31
0.0
  0
TEXT
  5
75ABB
  8
SUNPOU
 10
22696.000000000011
 20
20978.121500361289
 30
0.0
 40
160.0
  1
35
 41
0.6700000000000002
  7
00
  0
LINE
  5
75ABC
  8
SUNPOU
 10
10291.000000000009
 20
16358.121500361291
 30
0.0
 11
10291.000000000009
 21
18948.121500361289
 31
0.0
  0
LINE
  5
75AC1
  8
SUNPOU
 10
10976.000000000009
 20
18988.121500361289
 30
0.0
 11
10171.000000000009
 21
18988.121500361289
 31
0.0
  0
LINE
  5
75AC2
  8
U1
 10
19741.000000000011
 20
19918.121500361289
 30
0.0
 11
19741.000000000011
 21
20098.1215003613
 31
0.0
  0
LINE
  5
75AC3
  8
U1
 10
19510.0
 20
18866.921500361281
 30
0.0
 11
16921.999999999982
 21
18866.921500361281
 31
0.0
  0
LINE
  5
75AC4
  8
U1
 10
19510.0
 20
18937.721500361291
 30
0.0
 11
16921.999999999982
 21
18937.721500361291
 31
0.0
  0
LINE
  5
75AC5
  8
U1
 10
19509.999999999989
 20
18796.121500361289
 30
0.0
 11
16921.999999999982
 21
18796.121500361289
 31
0.0
  0
LINE
  5
75AC6
  8
U1
 10
19509.999999999989
 20
18725.321500361279
 30
0.0
 11
16921.999999999982
 21
18725.321500361279
 31
0.0
  0
LINE
  5
75AC7
  8
U1
 10
19509.999999999989
 20
18654.52150036129
 30
0.0
 11
16921.999999999982
 21
18654.52150036129
 31
0.0
  0
LINE
  5
75AC8
  8
U1
 10
18191.0
 20
17333.921500361292
 30
0.0
 11
18209.750000000011
 21
17344.746817908592
 31
0.0
  0
LINE
  5
75AC9
  8
U1
 10
18241.000000000011
 20
17333.921500361292
 30
0.0
 11
18222.250000000011
 21
17344.746817908592
 31
0.0
  0
LINE
  5
75ACA
  8
U1
 10
18241.000000000011
 20
17333.921500361292
 30
0.0
 11
18222.250000000011
 21
17323.096182813981
 31
0.0
  0
LINE
  5
75ACB
  8
U1
 10
18191.0
 20
17333.921500361292
 30
0.0
 11
18209.750000000011
 21
17323.096182813981
 31
0.0
  0
ARC
  5
75ACC
  8
U1
 10
18216.0
 20
17333.921500361292
 30
0.0
 40
12.5
 50
60.000000000023533
 51
119.9999999999764
  0
ARC
  5
75ACD
  8
U1
 10
18216.0
 20
17333.921500361292
 30
0.0
 40
12.5
 50
240.0000000000235
 51
299.99999999997652
  0
LINE
  5
75AD0
  8
U1
 10
19509.999999999982
 20
16459.721500361291
 30
0.0
 11
16921.999999999971
 21
16459.721500361291
 31
0.0
  0
LINE
  5
75AD1
  8
U1
 10
19509.999999999982
 20
16530.52150036129
 30
0.0
 11
16921.999999999971
 21
16530.52150036129
 31
0.0
  0
LINE
  5
75AD2
  8
U1
 10
19509.999999999982
 20
16601.32150036129
 30
0.0
 11
16921.999999999971
 21
16601.32150036129
 31
0.0
  0
LINE
  5
75AD3
  8
U1
 10
19509.999999999982
 20
16672.121500361289
 30
0.0
 11
16921.999999999971
 21
16672.121500361289
 31
0.0
  0
LINE
  5
75AD4
  8
U1
 10
19509.999999999982
 20
16742.921500361292
 30
0.0
 11
16921.999999999971
 21
16742.921500361292
 31
0.0
  0
LINE
  5
75AD5
  8
U1
 10
19509.999999999982
 20
16813.721500361291
 30
0.0
 11
16921.999999999971
 21
16813.721500361291
 31
0.0
  0
LINE
  5
75AD6
  8
U1
 10
19509.999999999982
 20
16884.52150036129
 30
0.0
 11
16921.999999999971
 21
16884.52150036129
 31
0.0
  0
LINE
  5
75AD7
  8
U1
 10
19509.999999999982
 20
16955.32150036129
 30
0.0
 11
16921.999999999971
 21
16955.32150036129
 31
0.0
  0
LINE
  5
75AD8
  8
U1
 10
19509.999999999982
 20
17026.121500361289
 30
0.0
 11
16921.999999999971
 21
17026.121500361289
 31
0.0
  0
LINE
  5
75AD9
  8
U1
 10
19509.999999999982
 20
17096.921500361292
 30
0.0
 11
16921.999999999971
 21
17096.921500361292
 31
0.0
  0
LINE
  5
75ADA
  8
U1
 10
19509.999999999982
 20
17167.721500361291
 30
0.0
 11
16921.999999999971
 21
17167.721500361291
 31
0.0
  0
LINE
  5
75ADB
  8
U1
 10
19509.999999999982
 20
17238.52150036129
 30
0.0
 11
16921.999999999971
 21
17238.52150036129
 31
0.0
  0
LINE
  5
75ADC
  8
U1
 10
19509.999999999982
 20
17309.32150036129
 30
0.0
 11
16921.999999999971
 21
17309.32150036129
 31
0.0
  0
LINE
  5
75ADD
  8
U1
 10
19509.999999999982
 20
18088.121500361289
 30
0.0
 11
16921.999999999971
 21
18088.121500361289
 31
0.0
  0
LINE
  5
75ADE
  8
U1
 10
19509.999999999982
 20
18017.32150036129
 30
0.0
 11
16921.999999999971
 21
18017.32150036129
 31
0.0
  0
LINE
  5
75ADF
  8
U1
 10
19509.999999999982
 20
17946.52150036129
 30
0.0
 11
16921.999999999971
 21
17946.52150036129
 31
0.0
  0
LINE
  5
75AE0
  8
U1
 10
19509.999999999982
 20
17875.721500361291
 30
0.0
 11
16921.999999999971
 21
17875.721500361291
 31
0.0
  0
LINE
  5
75AE1
  8
U1
 10
19509.999999999982
 20
17804.921500361292
 30
0.0
 11
16921.999999999971
 21
17804.921500361292
 31
0.0
  0
LINE
  5
75AE2
  8
U1
 10
19509.999999999982
 20
17734.121500361289
 30
0.0
 11
16921.999999999971
 21
17734.121500361289
 31
0.0
  0
LINE
  5
75AE3
  8
U1
 10
19509.999999999982
 20
17663.32150036129
 30
0.0
 11
16921.999999999971
 21
17663.32150036129
 31
0.0
  0
LINE
  5
75AE4
  8
U1
 10
19509.999999999982
 20
17592.52150036129
 30
0.0
 11
16921.999999999971
 21
17592.52150036129
 31
0.0
  0
LINE
  5
75AE5
  8
U1
 10
19509.999999999982
 20
17521.721500361291
 30
0.0
 11
16921.999999999971
 21
17521.721500361291
 31
0.0
  0
LINE
  5
75AE6
  8
U1
 10
19509.999999999982
 20
17450.921500361292
 30
0.0
 11
16921.999999999971
 21
17450.921500361292
 31
0.0
  0
LINE
  5
75AE7
  8
U1
 10
19509.999999999982
 20
17380.121500361289
 30
0.0
 11
16921.999999999971
 21
17380.121500361289
 31
0.0
  0
LINE
  5
75AE8
  8
U1
 10
19509.999999999989
 20
18158.921500361292
 30
0.0
 11
16921.999999999971
 21
18158.921500361292
 31
0.0
  0
LINE
  5
75AE9
  8
U1
 10
19509.999999999989
 20
18229.721500361291
 30
0.0
 11
16921.999999999971
 21
18229.721500361291
 31
0.0
  0
LINE
  5
75AEA
  8
U1
 10
19509.999999999989
 20
18300.52150036129
 30
0.0
 11
16921.999999999971
 21
18300.52150036129
 31
0.0
  0
LINE
  5
75AEB
  8
U1
 10
19509.999999999989
 20
18371.32150036129
 30
0.0
 11
16921.999999999971
 21
18371.32150036129
 31
0.0
  0
LINE
  5
75AEC
  8
U1
 10
19509.999999999982
 20
16388.921500361292
 30
0.0
 11
16921.999999999971
 21
16388.921500361292
 31
0.0
  0
LINE
  5
75AED
  8
U1
 10
19509.999999999989
 20
18442.121500361289
 30
0.0
 11
16921.999999999971
 21
18442.121500361289
 31
0.0
  0
LINE
  5
75AEE
  8
U1
 10
19509.999999999989
 20
18512.921500361292
 30
0.0
 11
16921.999999999971
 21
18512.921500361292
 31
0.0
  0
LINE
  5
75AEF
  8
U1
 10
19509.999999999989
 20
18583.72150036128
 30
0.0
 11
16921.999999999971
 21
18583.72150036128
 31
0.0
  0
LINE
  5
75AF0
  8
U1
 10
19555.499999999989
 20
16318.121500361291
 30
0.0
 11
19555.5
 21
18988.537354019831
 31
0.0
  0
LINE
  5
75AF1
  8
U1
 10
16864.294270451781
 20
19918.691127034319
 30
0.0
 11
16864.294270451781
 21
19689.121500361289
 31
0.0
  0
LINE
  5
75AF2
  8
U1
 10
19510.0
 20
16318.121500361291
 30
0.0
 11
19510.0
 21
18988.537354019831
 31
0.0
  0
LINE
  5
75AF3
  8
U1
 10
16921.999999999982
 20
16318.121500361291
 30
0.0
 11
16921.999999999982
 21
18988.537354019831
 31
0.0
  0
LINE
  5
75AF4
  8
U1
 10
16876.499999999982
 20
16318.121500361291
 30
0.0
 11
16876.499999999982
 21
18988.537354019831
 31
0.0
  0
ARC
  5
75AF5
  8
U1
 10
22566.000000000011
 20
20088.1215003613
 30
0.0
 40
10.0
 50
0.0
 51
90.0
  0
ARC
  5
75AF6
  8
U1
 10
22566.000000000011
 20
19928.121500361289
 30
0.0
 40
10.0
 50
270.0
 51
0.0
  0
LINE
  5
75AF9
  8
U1
 10
22576.000000000011
 20
19928.121500361289
 30
0.0
 11
22576.000000000011
 21
20088.1215003613
 31
0.0
  0
LINE
  5
75AFA
  8
U1
 10
22310.000000000029
 20
18654.52150036129
 30
0.0
 11
19722.0
 21
18654.52150036129
 31
0.0
  0
LINE
  5
75AFB
  8
U1
 10
22310.000000000029
 20
18725.32150036129
 30
0.0
 11
19722.0
 21
18725.32150036129
 31
0.0
  0
LINE
  5
75AFC
  8
U1
 10
22310.000000000029
 20
18796.121500361289
 30
0.0
 11
19722.0
 21
18796.121500361289
 31
0.0
  0
LINE
  5
75AFD
  8
U1
 10
22310.000000000029
 20
18937.721500361291
 30
0.0
 11
19722.000000000011
 21
18937.721500361291
 31
0.0
  0
LINE
  5
75AFE
  8
U1
 10
22310.000000000029
 20
18866.921500361281
 30
0.0
 11
19722.000000000011
 21
18866.921500361281
 31
0.0
  0
LINE
  5
75B01
  8
U1
 10
20991.000000000011
 20
17333.921500361292
 30
0.0
 11
21009.750000000011
 21
17344.746817908592
 31
0.0
  0
LINE
  5
75B02
  8
U1
 10
21041.000000000011
 20
17333.921500361292
 30
0.0
 11
21022.250000000011
 21
17344.746817908592
 31
0.0
  0
LINE
  5
75B03
  8
U1
 10
21041.000000000011
 20
17333.921500361292
 30
0.0
 11
21022.250000000011
 21
17323.096182813981
 31
0.0
  0
LINE
  5
75B04
  8
U1
 10
20991.000000000011
 20
17333.921500361292
 30
0.0
 11
21009.750000000011
 21
17323.096182813981
 31
0.0
  0
ARC
  5
75B05
  8
U1
 10
21016.000000000011
 20
17333.921500361292
 30
0.0
 40
12.5
 50
60.000000000023533
 51
119.9999999999764
  0
ARC
  5
75B06
  8
U1
 10
21016.000000000011
 20
17333.921500361292
 30
0.0
 40
12.5
 50
240.0000000000235
 51
299.99999999997652
  0
LINE
  5
75B08
  8
U1
 10
22310.000000000018
 20
16388.921500361292
 30
0.0
 11
19721.999999999989
 21
16388.921500361292
 31
0.0
  0
LINE
  5
75B09
  8
U1
 10
22310.000000000018
 20
18583.721500361291
 30
0.0
 11
19722.0
 21
18583.721500361291
 31
0.0
  0
LINE
  5
75B0A
  8
U1
 10
22310.000000000018
 20
18371.32150036129
 30
0.0
 11
19722.0
 21
18371.32150036129
 31
0.0
  0
LINE
  5
75B0B
  8
U1
 10
22310.000000000018
 20
18442.121500361289
 30
0.0
 11
19722.0
 21
18442.121500361289
 31
0.0
  0
LINE
  5
75B0C
  8
U1
 10
22310.000000000018
 20
18512.921500361292
 30
0.0
 11
19722.0
 21
18512.921500361292
 31
0.0
  0
LINE
  5
75B0D
  8
U1
 10
22310.000000000018
 20
18300.52150036129
 30
0.0
 11
19721.999999999989
 21
18300.52150036129
 31
0.0
  0
LINE
  5
75B0E
  8
U1
 10
22310.000000000018
 20
18229.721500361291
 30
0.0
 11
19721.999999999989
 21
18229.721500361291
 31
0.0
  0
LINE
  5
75B0F
  8
U1
 10
22310.000000000018
 20
18158.921500361292
 30
0.0
 11
19721.999999999989
 21
18158.921500361292
 31
0.0
  0
LINE
  5
75B10
  8
U1
 10
22310.000000000018
 20
17380.121500361289
 30
0.0
 11
19721.999999999989
 21
17380.121500361289
 31
0.0
  0
LINE
  5
75B11
  8
U1
 10
22310.000000000018
 20
17450.921500361292
 30
0.0
 11
19721.999999999989
 21
17450.921500361292
 31
0.0
  0
LINE
  5
75B12
  8
U1
 10
22310.000000000018
 20
17521.721500361291
 30
0.0
 11
19721.999999999989
 21
17521.721500361291
 31
0.0
  0
LINE
  5
75B13
  8
U1
 10
22310.000000000018
 20
17592.521500361301
 30
0.0
 11
19721.999999999989
 21
17592.521500361301
 31
0.0
  0
LINE
  5
75B14
  8
U1
 10
22310.000000000018
 20
17663.32150036129
 30
0.0
 11
19721.999999999989
 21
17663.32150036129
 31
0.0
  0
LINE
  5
75B15
  8
U1
 10
22310.000000000018
 20
17734.121500361289
 30
0.0
 11
19721.999999999989
 21
17734.121500361289
 31
0.0
  0
LINE
  5
75B16
  8
U1
 10
22310.000000000018
 20
17804.921500361292
 30
0.0
 11
19721.999999999989
 21
17804.921500361292
 31
0.0
  0
LINE
  5
75B17
  8
U1
 10
22310.000000000018
 20
17875.721500361291
 30
0.0
 11
19721.999999999989
 21
17875.721500361291
 31
0.0
  0
LINE
  5
75B18
  8
U1
 10
22310.000000000018
 20
17946.521500361301
 30
0.0
 11
19721.999999999989
 21
17946.521500361301
 31
0.0
  0
LINE
  5
75B19
  8
U1
 10
22310.000000000018
 20
18017.3215003613
 30
0.0
 11
19721.999999999989
 21
18017.3215003613
 31
0.0
  0
LINE
  5
75B1A
  8
U1
 10
22310.000000000018
 20
18088.121500361289
 30
0.0
 11
19721.999999999989
 21
18088.121500361289
 31
0.0
  0
LINE
  5
75B1B
  8
U1
 10
22310.000000000018
 20
17309.32150036129
 30
0.0
 11
19721.999999999989
 21
17309.32150036129
 31
0.0
  0
LINE
  5
75B1C
  8
U1
 10
22310.000000000018
 20
17238.52150036129
 30
0.0
 11
19721.999999999989
 21
17238.52150036129
 31
0.0
  0
LINE
  5
75B1D
  8
U1
 10
22310.000000000018
 20
17167.721500361291
 30
0.0
 11
19721.999999999989
 21
17167.721500361291
 31
0.0
  0
LINE
  5
75B1E
  8
U1
 10
22310.000000000018
 20
17096.921500361292
 30
0.0
 11
19721.999999999989
 21
17096.921500361292
 31
0.0
  0
LINE
  5
75B1F
  8
U1
 10
22310.000000000018
 20
17026.121500361289
 30
0.0
 11
19721.999999999989
 21
17026.121500361289
 31
0.0
  0
LINE
  5
75B20
  8
U1
 10
22310.000000000018
 20
16955.32150036129
 30
0.0
 11
19721.999999999989
 21
16955.32150036129
 31
0.0
  0
LINE
  5
75B21
  8
U1
 10
22310.000000000018
 20
16884.52150036129
 30
0.0
 11
19721.999999999989
 21
16884.52150036129
 31
0.0
  0
LINE
  5
75B22
  8
U1
 10
22310.000000000018
 20
16813.721500361291
 30
0.0
 11
19721.999999999989
 21
16813.721500361291
 31
0.0
  0
LINE
  5
75B23
  8
U1
 10
22310.000000000018
 20
16742.921500361292
 30
0.0
 11
19721.999999999989
 21
16742.921500361292
 31
0.0
  0
LINE
  5
75B24
  8
U1
 10
22310.000000000018
 20
16672.121500361289
 30
0.0
 11
19721.999999999989
 21
16672.121500361289
 31
0.0
  0
LINE
  5
75B25
  8
U1
 10
22310.000000000018
 20
16601.32150036129
 30
0.0
 11
19721.999999999989
 21
16601.32150036129
 31
0.0
  0
LINE
  5
75B26
  8
U1
 10
22310.000000000018
 20
16530.52150036129
 30
0.0
 11
19721.999999999989
 21
16530.52150036129
 31
0.0
  0
LINE
  5
75B27
  8
U1
 10
22310.000000000018
 20
16459.721500361291
 30
0.0
 11
19721.999999999989
 21
16459.721500361291
 31
0.0
  0
LINE
  5
75B28
  8
U1
 10
22367.705729548219
 20
19918.121500361289
 30
0.0
 11
22367.705729548219
 21
19689.121500361289
 31
0.0
  0
LINE
  5
75B29
  8
U1
 10
22541.000000000011
 20
16318.121500361291
 30
0.0
 11
22541.000000000011
 21
19470.556065383062
 31
0.0
  0
LINE
  5
75B2A
  8
U1
 10
22310.000000000029
 20
16318.121500361291
 30
0.0
 11
22310.000000000029
 21
18988.537354019831
 31
0.0
  0
LINE
  5
75B2B
  8
U1
 10
19676.5
 20
16318.121500361291
 30
0.0
 11
19676.5
 21
18988.537354019831
 31
0.0
  0
LINE
  5
75B2C
  8
U1
 10
19722.0
 20
16318.121500361291
 30
0.0
 11
19722.0
 21
18988.537354019831
 31
0.0
  0
LINE
  5
75B2D
  8
U1
 10
22355.500000000029
 20
16318.121500361291
 30
0.0
 11
22355.500000000029
 21
18988.537354019831
 31
0.0
  0
LINE
  5
75B30
  8
U1
 10
22367.705729548219
 20
19188.537354019831
 30
0.0
 11
16862.000000000011
 21
19188.537354019831
 31
0.0
  0
LINE
  5
75B31
  8
U1
 10
22367.705729548219
 20
18988.537354019831
 30
0.0
 11
16864.294270451781
 21
18988.537354019831
 31
0.0
  0
LINE
  5
75B32
  8
1PL-M1
 10
19616.000000000011
 20
14078.121500361291
 30
0.0
 11
19616.000000000011
 21
16818.121500361289
 31
0.0
  0
LINE
  5
75B33
  8
1PL-M1
 10
22416.000000000011
 20
14078.121500361291
 30
0.0
 11
22416.000000000011
 21
16818.121500361289
 31
0.0
  0
LINE
  5
75B34
  8
U1
 10
16941.000000000011
 20
19918.121500361289
 30
0.0
 11
16941.000000000011
 21
20098.1215003613
 31
0.0
  0
TEXT
  5
75B35
  8
SUNPOU
 10
19535.599999999999
 20
13758.121500361291
 30
0.0
 40
240.0
  1
4
 41
0.6700000000000002
  7
00
 72
     4
 11
19616.000000000011
 21
13878.121500361291
 31
0.0
  0
CIRCLE
  5
75B36
  8
SUNPOU
 10
19616.000000000011
 20
13878.121500361291
 30
0.0
 40
200.0
  0
TEXT
  5
75B37
  8
SUNPOU
 10
22339.42857142858
 20
13758.121500361291
 30
0.0
 40
240.0
  1
5
 41
0.6700000000000002
  7
00
 72
     4
 11
22416.000000000011
 21
13878.121500361291
 31
0.0
  0
CIRCLE
  5
75B38
  8
SUNPOU
 10
22416.000000000011
 20
13878.121500361291
 30
0.0
 40
200.0
  0
TEXT
  5
75B39
  8
SUNPOU
 10
17669.50631550423
 20
14798.121500361291
 30
0.0
 40
160.0
  1
柱芯寸
  7
01
  0
TEXT
  5
75B3A
  8
SUNPOU
 10
18315.992001235431
 20
14798.121500361291
 30
0.0
 40
160.0
  1
2800
 41
0.6700000000000002
  7
00
  0
LINE
  5
75B3B
  8
SUNPOU
 10
16856.000000000011
 20
14718.121500361291
 30
0.0
 11
19576.000000000011
 21
14718.121500361291
 31
0.0
  0
TEXT
  5
75B3F
  8
SUNPOU
 10
20469.506315504241
 20
14798.121500361291
 30
0.0
 40
160.0
  1
柱芯寸
  7
01
  0
LINE
  5
75B40
  8
SUNPOU
 10
19656.000000000011
 20
14718.121500361291
 30
0.0
 11
22376.000000000011
 21
14718.121500361291
 31
0.0
  0
TEXT
  5
75B41
  8
SUNPOU
 10
21115.992001235431
 20
14798.121500361291
 30
0.0
 40
160.0
  1
2800
 41
0.6700000000000002
  7
00
  0
TEXT
  5
75B44
  8
SUNPOU
 10
16874.337357692471
 20
14398.121500361291
 30
0.0
 40
160.0
  1
11450
 41
0.6700000000000002
  7
00
 72
     4
 11
17137.2325957877
 21
14478.121500361291
 31
0.0
  0
LINE
  5
75B45
  8
1PL-M1
 10
16816.0
 20
14078.121500361291
 30
0.0
 11
16816.000000000011
 21
16818.121500361289
 31
0.0
  0
TEXT
  5
75D24
  8
HIKIDASHI
 10
9664.5594784388741
 20
15550.86973626476
 30
0.0
 40
160.0
  1
シャッター
  7
01
  0
LINE
  5
75D25
  8
HIKIDASHI
 10
9664.5594784388741
 20
15510.86973626476
 30
0.0
 11
10583.60979569232
 21
15510.86973626476
 31
0.0
  0
TEXT
  5
75D28
  8
SUNPOU
 10
24037.381935610541
 20
17133.403468037661
 30
0.0
 40
160.0
  1
下屋前桁下面カラ
 50
90.0
  7
01
 72
     1
 11
24037.381935610541
 21
17874.736801371
 31
0.0
  0
TEXT
  5
75D29
  8
SUNPOU
 10
24288.467839239711
 20
17128.070134704329
 30
0.0
 40
160.0
  1
本体基礎天端マデ
 50
90.0
  7
01
 72
     1
 11
24288.467839239711
 21
17874.736801371
 31
0.0
  0
TEXT
  5
75D2A
  8
SUNPOU
 10
23715.581377115261
 20
16779.570277695089
 30
0.0
 40
160.0
  1
下屋有効開口高サ
 50
90.0
  7
01
  0
TEXT
  5
75D2C
  8
SUNPOU
 10
24855.399693064541
 20
17261.580870923779
 30
0.0
 40
160.0
  1
下屋高サ
 50
90.0
  7
01
  0
LINE
  5
75DFF
  8
U1
 10
16816.000000000011
 20
15918.121500361251
 30
0.0
 11
10117.093139678071
 21
15918.12150036126
 31
0.0
  0
LINE
  5
75E00
  8
U1
 10
11096.00000000006
 20
15918.12150036126
 30
0.0
 11
11096.00000000012
 21
16318.12150036126
 31
0.0
  0
LINE
  5
75E01
  8
U1
 10
11173.5
 20
19495.975870572482
 30
0.0
 11
11173.5
 21
15918.12150036126
 31
0.0
  0
LINE
  5
75E02
  8
U1
 10
11258.5
 20
15918.12150036126
 30
0.0
 11
11258.5
 21
19401.121500361289
 31
0.0
  0
LINE
  5
75E03
  8
KERABA
 10
11056.0
 20
19495.975870572482
 30
0.0
 11
11056.0
 21
19675.40624389947
 31
0.0
  0
LINE
  5
75E04
  8
KERABA
 10
11091.0
 20
19495.975870572482
 30
0.0
 11
11091.0
 21
19675.40624389947
 31
0.0
  0
LINE
  5
75E05
  8
KERABA
 10
11056.0
 20
19551.975870572482
 30
0.0
 11
16816.000000000011
 21
19551.975870572482
 31
0.0
  0
LINE
  5
75E06
  8
KERABA
 10
11056.0
 20
19549.975870572482
 30
0.0
 11
16816.000000000011
 21
19549.975870572482
 31
0.0
  0
LINE
  5
75E07
  8
KERABA
 10
11056.0
 20
19539.975870572482
 30
0.0
 11
16816.000000000011
 21
19539.975870572482
 31
0.0
  0
LINE
  5
75E08
  8
KERABA
 10
11056.0
 20
19537.975870572482
 30
0.0
 11
16816.000000000011
 21
19537.975870572482
 31
0.0
  0
LINE
  5
75E09
  8
KERABA
 10
11056.0
 20
19527.975870572482
 30
0.0
 11
16816.000000000011
 21
19527.975870572482
 31
0.0
  0
LINE
  5
75E0A
  8
KERABA
 10
11056.0
 20
19619.40624389947
 30
0.0
 11
16816.000000000011
 21
19619.40624389947
 31
0.0
  0
LINE
  5
75E0B
  8
KERABA
 10
11056.0
 20
19623.40624389947
 30
0.0
 11
16816.000000000011
 21
19623.40624389947
 31
0.0
  0
LINE
  5
75E0C
  8
KERABA
 10
11056.0
 20
19633.40624389947
 30
0.0
 11
16816.000000000011
 21
19633.40624389947
 31
0.0
  0
LINE
  5
75E0D
  8
KERABA
 10
11056.0
 20
19635.40624389947
 30
0.0
 11
16816.000000000011
 21
19635.40624389947
 31
0.0
  0
LINE
  5
75E0E
  8
KERABA
 10
11056.0
 20
19645.40624389947
 30
0.0
 11
16816.000000000011
 21
19645.40624389947
 31
0.0
  0
LINE
  5
75E0F
  8
KERABA
 10
11056.0
 20
19523.975870572482
 30
0.0
 11
16816.000000000011
 21
19523.975870572482
 31
0.0
  0
LINE
  5
75E10
  8
KERABA
 10
11056.0
 20
19647.40624389947
 30
0.0
 11
16816.000000000011
 21
19647.40624389947
 31
0.0
  0
LINE
  5
75E11
  8
KERABA
 10
11056.0
 20
19495.975870572482
 30
0.0
 11
16816.000000000011
 21
19495.975870572482
 31
0.0
  0
LINE
  5
75E12
  8
KERABA
 10
11056.0
 20
19675.40624389947
 30
0.0
 11
16816.000000000011
 21
19675.40624389947
 31
0.0
  0
LINE
  5
75E13
  8
下屋前桁
 10
16772.999999999949
 20
19393.121500361322
 30
0.0
 11
11259.00000000006
 21
19393.121500361322
 31
0.0
  0
LINE
  5
75E14
  8
下屋前桁
 10
11259.000000000009
 20
19401.121500361322
 30
0.0
 11
11221.0
 21
19401.121500361289
 31
0.0
  0
ARC
  5
75E15
  8
下屋前桁
 10
11221.0
 20
19406.121500361289
 30
0.0
 40
5.0
 50
180.0
 51
270.0
  0
LINE
  5
75E16
  8
下屋前桁
 10
11259.00000000006
 20
19401.121500361322
 30
0.0
 11
11259.00000000006
 21
19393.121500361289
 31
0.0
  0
LINE
  5
75E17
  8
下屋前桁
 10
11216.000000000009
 20
19495.975870572482
 30
0.0
 11
11216.000000000009
 21
19406.121500361289
 31
0.0
  0
TEXT
  5
75E2E
  8
SUNPOU
 10
10210.99999999998
 20
16384.419908865129
 30
0.0
 40
160.0
  1
シャッター有効開口高サ
 50
90.0
  7
01
  0
TEXT
  5
75E31
  8
SUNPOU
 10
10211.000000000029
 20
18510.257522980552
 30
0.0
 40
160.0
  1
2670
 50
90.0
 41
0.6700000000000002
  7
00
  0
LINE
  5
75E35
  8
U1
 10
11264.294270451799
 20
19188.537354019831
 30
0.0
 11
13967.70572954823
 21
19188.537354019831
 31
0.0
  0
LINE
  5
75EC0
  8
U1
 10
11264.29427045179
 20
19374.555091614991
 30
0.0
 11
11264.29427045179
 21
16318.121500361291
 31
0.0
  0
LINE
  5
75EC1
  8
U1
 10
11091.000000000009
 20
19689.121500361289
 30
0.0
 11
11091.000000000009
 21
20098.1215003613
 31
0.0
  0
LINE
  5
75EC2
  8
U1
 10
16864.294270451781
 20
19374.555091614991
 30
0.0
 11
16864.294270451781
 21
16318.121500361291
 31
0.0
  0
LINE
  5
75EC3
  8
U1
 10
16767.70572954823
 20
19374.555091614991
 30
0.0
 11
16767.70572954823
 21
16318.121500361291
 31
0.0
  0
LINE
  5
75EC4
  8
U1
 10
22541.000000000011
 20
19689.121500361289
 30
0.0
 11
22541.000000000011
 21
20098.1215003613
 31
0.0
  0
LINE
  5
75EC5
  8
U1
 10
22367.705729548219
 20
19374.555091614991
 30
0.0
 11
22367.70572954823
 21
16318.121500361291
 31
0.0
  0
LINE
  5
75ECC
  8
U1
 10
16858.500000000011
 20
15918.121500361251
 30
0.0
 11
16858.500000000011
 21
19401.121500361282
 31
0.0
  0
LINE
  5
75ECD
  8
U1
 10
16773.5
 20
15918.121500361251
 30
0.0
 11
16773.50000000008
 21
19401.121500361282
 31
0.0
  0
LINE
  5
75ECE
  8
U1
 10
16858.500000000011
 20
16318.1215003613
 30
0.0
 11
22373.500000000018
 21
16318.121500361291
 31
0.0
  0
LINE
  5
75ECF
  8
U1
 10
11258.5
 20
16318.121500361291
 30
0.0
 11
16773.500000000011
 21
16318.1215003613
 31
0.0
  0
LINE
  5
75ED2
  8
下屋前桁
 10
16773.000000000011
 20
19401.121500361322
 30
0.0
 11
16811.0
 21
19401.121500361289
 31
0.0
  0
ARC
  5
75ED3
  8
下屋前桁
 10
16811.0
 20
19406.121500361289
 30
0.0
 40
5.0
 50
270.0
 51
0.0
  0
LINE
  5
75ED4
  8
下屋前桁
 10
16772.999999999949
 20
19401.121500361322
 30
0.0
 11
16772.999999999949
 21
19393.121500361289
 31
0.0
  0
LINE
  5
75ED5
  8
下屋前桁
 10
16816.000000000011
 20
19495.975870572482
 30
0.0
 11
16816.000000000011
 21
19406.121500361289
 31
0.0
  0
LINE
  5
75ED6
  8
U1
 10
16816.000000000011
 20
15918.121500361251
 30
0.0
 11
23514.906860321949
 21
15918.121500361111
 31
0.0
  0
LINE
  5
75ED7
  8
U1
 10
22458.500000000098
 20
19495.97587057234
 30
0.0
 11
22458.500000000011
 21
15918.121500361131
 31
0.0
  0
LINE
  5
75ED8
  8
U1
 10
22373.500000000011
 20
15918.121500361131
 30
0.0
 11
22373.500000000091
 21
19401.121500361161
 31
0.0
  0
LINE
  5
75ED9
  8
KERABA
 10
22576.000000000098
 20
19495.97587057234
 30
0.0
 11
22576.000000000098
 21
19675.406243899331
 31
0.0
  0
LINE
  5
75EDA
  8
KERABA
 10
22541.000000000098
 20
19495.97587057234
 30
0.0
 11
22541.000000000098
 21
19675.406243899331
 31
0.0
  0
LINE
  5
75EDB
  8
KERABA
 10
22576.000000000098
 20
19551.97587057234
 30
0.0
 11
16816.000000000091
 21
19551.975870572471
 31
0.0
  0
LINE
  5
75EDC
  8
KERABA
 10
22576.000000000098
 20
19549.97587057234
 30
0.0
 11
16816.000000000091
 21
19549.975870572471
 31
0.0
  0
LINE
  5
75EDD
  8
KERABA
 10
22576.000000000098
 20
19539.97587057234
 30
0.0
 11
16816.000000000091
 21
19539.975870572471
 31
0.0
  0
LINE
  5
75EDE
  8
KERABA
 10
22576.000000000098
 20
19537.97587057234
 30
0.0
 11
16816.000000000091
 21
19537.975870572471
 31
0.0
  0
LINE
  5
75EDF
  8
KERABA
 10
22576.000000000098
 20
19527.97587057234
 30
0.0
 11
16816.000000000091
 21
19527.975870572471
 31
0.0
  0
LINE
  5
75EE0
  8
KERABA
 10
22576.000000000098
 20
19619.406243899331
 30
0.0
 11
16816.000000000098
 21
19619.406243899459
 31
0.0
  0
LINE
  5
75EE1
  8
KERABA
 10
22576.000000000098
 20
19623.406243899331
 30
0.0
 11
16816.000000000098
 21
19623.406243899459
 31
0.0
  0
LINE
  5
75EE2
  8
KERABA
 10
22576.000000000098
 20
19633.406243899331
 30
0.0
 11
16816.000000000098
 21
19633.406243899459
 31
0.0
  0
LINE
  5
75EE3
  8
KERABA
 10
22576.000000000098
 20
19635.406243899331
 30
0.0
 11
16816.000000000098
 21
19635.406243899459
 31
0.0
  0
LINE
  5
75EE4
  8
KERABA
 10
22576.000000000098
 20
19645.406243899331
 30
0.0
 11
16816.000000000098
 21
19645.40624389947
 31
0.0
  0
LINE
  5
75EE5
  8
KERABA
 10
22576.000000000098
 20
19523.97587057234
 30
0.0
 11
16816.000000000091
 21
19523.975870572471
 31
0.0
  0
LINE
  5
75EE6
  8
KERABA
 10
22576.000000000098
 20
19647.406243899331
 30
0.0
 11
16816.000000000098
 21
19647.406243899459
 31
0.0
  0
LINE
  5
75EE7
  8
KERABA
 10
22576.000000000098
 20
19495.97587057234
 30
0.0
 11
16816.000000000091
 21
19495.975870572471
 31
0.0
  0
LINE
  5
75EE8
  8
KERABA
 10
22576.000000000098
 20
19675.406243899331
 30
0.0
 11
16816.000000000098
 21
19675.40624389947
 31
0.0
  0
LINE
  5
75EE9
  8
下屋前桁
 10
16859.000000000149
 20
19393.121500361311
 30
0.0
 11
22373.000000000029
 21
19393.121500361191
 31
0.0
  0
LINE
  5
75EEA
  8
下屋前桁
 10
22373.000000000091
 20
19401.121500361191
 30
0.0
 11
22411.000000000091
 21
19401.121500361151
 31
0.0
  0
ARC
  5
75EEB
  8
下屋前桁
 10
22411.000000000091
 20
19406.121500361151
 30
0.0
 40
5.0
 50
270.0
 51
0.0
  0
LINE
  5
75EEC
  8
下屋前桁
 10
22373.000000000029
 20
19401.121500361191
 30
0.0
 11
22373.000000000029
 21
19393.121500361161
 31
0.0
  0
LINE
  5
75EED
  8
下屋前桁
 10
22416.000000000091
 20
19495.97587057234
 30
0.0
 11
22416.000000000091
 21
19406.121500361151
 31
0.0
  0
LINE
  5
75EEE
  8
下屋前桁
 10
16859.000000000091
 20
19401.121500361311
 30
0.0
 11
16821.000000000091
 21
19401.121500361282
 31
0.0
  0
ARC
  5
75EEF
  8
下屋前桁
 10
16821.000000000091
 20
19406.121500361282
 30
0.0
 40
5.0
 50
180.0
 51
270.0
  0
LINE
  5
75EF0
  8
下屋前桁
 10
16859.000000000149
 20
19401.121500361311
 30
0.0
 11
16859.000000000149
 21
19393.121500361282
 31
0.0
  0
TEXT
  5
75EF1
  8
SUNPOU
 10
14676.44985715917
 20
15598.121500361291
 30
0.0
 40
160.0
  1
5166
 41
0.6700000000000002
  7
00
  0
TEXT
  5
75EF2
  8
SUNPOU
 10
12695.100330913559
 20
15598.121500361291
 30
0.0
 40
160.0
  1
シャッター有効開口巾
  7
01
  0
TEXT
  5
75EF4
  8
SUNPOU
 10
13268.81673982149
 20
15198.121500361291
 30
0.0
 40
160.0
  1
下屋有効開口巾
  7
01
  0
TEXT
  5
75EF6
  8
SUNPOU
 10
18868.81673982149
 20
15198.121500361291
 30
0.0
 40
160.0
  1
下屋有効開口巾
  7
01
  0
TEXT
  5
75EF7
  8
SUNPOU
 10
20276.449857159168
 20
15598.121500361291
 30
0.0
 40
160.0
  1
5166
 41
0.6700000000000002
  7
00
  0
TEXT
  5
75EF8
  8
SUNPOU
 10
18295.100330913559
 20
15598.121500361291
 30
0.0
 40
160.0
  1
シャッター有効開口巾
  7
01
  0
LINE
  5
75F35
  8
U1
 10
22458.500000000018
 20
16318.1215003613
 30
0.0
 11
22541.000000000011
 21
16318.121500361291
 31
0.0
  0
LINE
  5
75F36
  8
U1
 10
22535.999999999971
 20
15918.121500361131
 30
0.0
 11
22535.99999999992
 21
16318.121500361131
 31
0.0
  0
TEXT
  5
760EE
  8
FILENAME
 10
27680.190476190481
 20
348.0
 30
0.0
 40
200.0
  1
＜SOB-2R58H-G_1_JIS_GL.DXF ＞
  7
FILENAME
 72
     2
 11
32764.0
 21
348.0
 31
0.0
  0
LINE
  5
760F0
  8
WAKUSEN-01
 10
868.00000000000193
 20
827.99999999999955
 30
0.0
 11
32764.000000000011
 21
827.99999999999943
 31
0.0
  0
LINE
  5
760F1
  8
WAKUSEN-01
 10
868.00000000000193
 20
22484.000000000011
 30
0.0
 11
32764.000000000011
 21
22484.000000000011
 31
0.0
  0
LINE
  5
760F2
  8
WAKUSEN-01
 10
868.00000000000193
 20
827.99999999999955
 30
0.0
 11
868.00000000000193
 21
22484.000000000011
 31
0.0
  0
LINE
  5
760F3
  8
WAKUSEN-01
 10
32764.000000000011
 20
827.99999999999943
 30
0.0
 11
32764.000000000011
 21
22484.000000000011
 31
0.0
  0
LINE
  5
760F4
  8
WAKUSEN-01
 10
20560.0
 20
2484.0
 30
0.0
 11
32764.0
 21
2484.0
 31
0.0
  0
LINE
  5
760F5
  8
WAKUSEN-02
 10
20560.0
 20
1655.9999999999991
 30
0.0
 11
26868.0
 21
1655.9999999999991
 31
0.0
  0
TEXT
  5
760F6
  8
WAKUMOJI-01
 10
20670.260259962772
 20
2125.9030093393221
 30
0.0
 40
240.0
  1
名　称
  7
WAKUMOJI
  0
TEXT
  5
760F7
  8
WAKUMOJI-01
 10
20656.505485091919
 20
1319.1289749798209
 30
0.0
 40
240.0
  1
機種名
  7
WAKUMOJI
  0
LINE
  5
760F8
  8
WAKUSEN-01
 10
20560.0
 20
827.99999999999716
 30
0.0
 11
20560.0
 21
2484.0
 31
0.0
  0
LINE
  5
760F9
  8
WAKUSEN-02
 10
26868.0
 20
827.99999999999261
 30
0.0
 11
26868.0
 21
2484.0
 31
0.0
  0
LINE
  5
760FA
  8
YODOROGO
 10
29977.604341291921
 20
1995.7494964292871
 30
0.0
 11
29829.604341291921
 21
1995.7494964292871
 31
0.0
1001
AUTOCAD_POSTSCRIPT_FIGURE
1002
{
1000
PSFILL
1000
Grayscale
1000
Grayscale
1070
    25
1002
}
  0
LINE
  5
760FB
  8
YODOROGO
 10
29829.604341291921
 20
1947.749496429288
 30
0.0
 11
29977.604341291921
 21
1947.749496429288
 31
0.0
1001
AUTOCAD_POSTSCRIPT_FIGURE
1002
{
1000
PSFILL
1000
Grayscale
1000
Grayscale
1070
    25
1002
}
  0
LINE
  5
760FC
  8
YODOROGO
 10
29977.604341291921
 20
1907.7494964292871
 30
0.0
 11
29829.604341291921
 21
1907.7494964292871
 31
0.0
1001
AUTOCAD_POSTSCRIPT_FIGURE
1002
{
1000
PSFILL
1000
Grayscale
1000
Grayscale
1070
    25
1002
}
  0
LINE
  5
760FD
  8
YODOROGO
 10
29829.604341291921
 20
1859.749496429288
 30
0.0
 11
29977.604341291921
 21
1859.749496429288
 31
0.0
1001
AUTOCAD_POSTSCRIPT_FIGURE
1002
{
1000
PSFILL
1000
Grayscale
1000
Grayscale
1070
    25
1002
}
  0
LINE
  5
760FE
  8
YODOROGO
 10
29977.604341291921
 20
1819.749496429288
 30
0.0
 11
29829.604341291921
 21
1819.749496429288
 31
0.0
1001
AUTOCAD_POSTSCRIPT_FIGURE
1002
{
1000
PSFILL
1000
Grayscale
1000
Grayscale
1070
    25
1002
}
  0
LINE
  5
760FF
  8
YODOROGO
 10
29921.60434129191
 20
1707.749496429288
 30
0.0
 11
29977.604341291921
 21
1707.749496429288
 31
0.0
1001
AUTOCAD_POSTSCRIPT_FIGURE
1002
{
1000
PSFILL
1000
Grayscale
1000
Grayscale
1070
    25
1002
}
  0
LINE
  5
76100
  8
YODOROGO
 10
29737.604341291921
 20
1427.749496429288
 30
0.0
 11
29937.604341291932
 21
1481.339334915511
 31
0.0
  0
LINE
  5
76101
  8
YODOROGO
 10
29949.604341291921
 20
1707.749496429288
 30
0.0
 11
29885.604341291921
 21
1707.749496429288
 31
0.0
  0
ARC
  5
76102
  8
YODOROGO
 10
30254.34774982791
 20
1807.8646092332619
 30
0.0
 40
381.88686420564733
 50
213.96111677667849
 51
264.47872074317792
  0
ARC
  5
76103
  8
YODOROGO
 10
30254.347749827921
 20
1807.864609233302
 30
0.0
 40
381.8868642056816
 50
208.14114420486601
 51
212.92103611859949
  0
LINE
  5
76104
  8
YODOROGO
 10
29771.40987298531
 20
1556.807661346234
 30
0.0
 11
29933.78413250855
 21
1600.3157130570869
 31
0.0
  0
LINE
  5
76105
  8
YODOROGO
 10
29737.604341291921
 20
1427.749496429288
 30
0.0
 11
29937.604341291932
 21
1481.339334915511
 31
0.0
  0
LINE
  5
76106
  8
YODOROGO
 10
29949.604341291921
 20
1707.749496429288
 30
0.0
 11
29885.604341291921
 21
1707.749496429288
 31
0.0
  0
ARC
  5
76107
  8
YODOROGO
 10
30254.34774982791
 20
1807.8646092332619
 30
0.0
 40
381.88686420564733
 50
213.96111677667849
 51
264.47872074317792
  0
LINE
  5
76108
  8
YODOROGO
 10
28793.60434129191
 20
1819.749496429288
 30
0.0
 11
28433.60434129191
 21
1819.749496429288
 31
0.0
  0
LINE
  5
76109
  8
YODOROGO
 10
28513.60434129191
 20
1427.749496429288
 30
0.0
 11
28793.60434129191
 21
1427.749496429288
 31
0.0
  0
LINE
  5
7610A
  8
YODOROGO
 10
28729.604341291921
 20
1923.7494964292871
 30
0.0
 11
28497.60434129191
 21
1923.7494964292871
 31
0.0
  0
LINE
  5
7610B
  8
YODOROGO
 10
28585.604341291921
 20
2027.749496429288
 30
0.0
 11
28657.604341291921
 21
2027.749496429288
 31
0.0
  0
LINE
  5
7610C
  8
YODOROGO
 10
28433.60434129191
 20
1707.749496429288
 30
0.0
 11
28433.60434129191
 21
1507.749496429288
 31
0.0
  0
LINE
  5
7610D
  8
YODOROGO
 10
28497.60434129191
 20
1563.7494964292871
 30
0.0
 11
28497.60434129191
 21
1707.749496429288
 31
0.0
  0
LINE
  5
7610E
  8
YODOROGO
 10
28585.604341291921
 20
1747.74949642929
 30
0.0
 11
28585.604341291921
 21
1547.749496429288
 31
0.0
  0
LINE
  5
7610F
  8
YODOROGO
 10
27857.604341291921
 20
1683.7494964292889
 30
0.0
 11
27777.604341291921
 21
1619.972414044571
 31
0.0
  0
LINE
  5
76110
  8
YODOROGO
 10
27937.604341291921
 20
1619.972414044571
 30
0.0
 11
27857.604341291921
 21
1683.7494964292889
 31
0.0
  0
LINE
  5
76111
  8
YODOROGO
 10
27857.604341291921
 20
1707.749496429288
 30
0.0
 11
27937.604341291921
 21
1643.9724140445701
 31
0.0
  0
LINE
  5
76112
  8
YODOROGO
 10
27777.604341291921
 20
1643.9724140445701
 30
0.0
 11
27857.604341291921
 21
1707.749496429288
 31
0.0
  0
LINE
  5
76113
  8
YODOROGO
 10
28040.913204016899
 20
1659.749496429288
 30
0.0
 11
28040.913204016899
 21
1683.7494964292871
 31
0.0
  0
LINE
  5
76114
  8
YODOROGO
 10
27977.604341291921
 20
1683.7494964292871
 30
0.0
 11
27977.604341291921
 21
1667.749496429285
 31
0.0
  0
LINE
  5
76115
  8
YODOROGO
 10
28098.135520230931
 20
1707.749496429288
 30
0.0
 11
28098.135520230931
 21
1655.5036372746561
 31
0.0
1001
AUTOCAD_POSTSCRIPT_FIGURE
1002
{
1000
PSFILL
1000
Grayscale
1000
Grayscale
1070
   100
1002
}
  0
LINE
  5
76116
  8
YODOROGO
 10
28082.135520230921
 20
1655.5036372746561
 30
0.0
 11
28082.135520230921
 21
1707.749496429288
 31
0.0
1001
AUTOCAD_POSTSCRIPT_FIGURE
1002
{
1000
PSFILL
1000
Grayscale
1000
Grayscale
1070
   100
1002
}
  0
LINE
  5
76117
  8
YODOROGO
 10
27809.604341291921
 20
1608.771904043258
 30
0.0
 11
27809.604341291921
 21
1632.7719040432589
 31
0.0
  0
LINE
  5
76118
  8
YODOROGO
 10
27905.604341291921
 20
1608.771904043258
 30
0.0
 11
27809.604341291921
 21
1608.771904043258
 31
0.0
  0
LINE
  5
76119
  8
YODOROGO
 10
27905.604341291921
 20
1632.7719040432589
 30
0.0
 11
27905.604341291921
 21
1608.771904043258
 31
0.0
  0
LINE
  5
7611A
  8
YODOROGO
 10
27809.604341291921
 20
1632.7719040432589
 30
0.0
 11
27905.604341291921
 21
1632.7719040432589
 31
0.0
  0
LINE
  5
7611B
  8
YODOROGO
 10
27824.509588915749
 20
1568.5028573704751
 30
0.0
 11
27785.604341291921
 21
1475.7494964292871
 31
0.0
1001
AUTOCAD_POSTSCRIPT_FIGURE
1002
{
1000
PSFILL
1000
Grayscale
1000
Grayscale
1070
   100
1002
}
  0
LINE
  5
7611C
  8
YODOROGO
 10
27777.604341291921
 20
1568.5028573704751
 30
0.0
 11
27824.509588915749
 21
1568.5028573704751
 31
0.0
1001
AUTOCAD_POSTSCRIPT_FIGURE
1002
{
1000
PSFILL
1000
Grayscale
1000
Grayscale
1070
   100
1002
}
  0
LINE
  5
7611D
  8
YODOROGO
 10
27777.604341291921
 20
1588.5028573704751
 30
0.0
 11
27777.604341291921
 21
1568.5028573704751
 31
0.0
1001
AUTOCAD_POSTSCRIPT_FIGURE
1002
{
1000
PSFILL
1000
Grayscale
1000
Grayscale
1070
   100
1002
}
  0
LINE
  5
7611E
  8
YODOROGO
 10
27937.604341291921
 20
1588.5028573704751
 30
0.0
 11
27777.604341291921
 21
1588.5028573704751
 31
0.0
1001
AUTOCAD_POSTSCRIPT_FIGURE
1002
{
1000
PSFILL
1000
Grayscale
1000
Grayscale
1070
   100
1002
}
  0
LINE
  5
7611F
  8
YODOROGO
 10
27937.604341291921
 20
1568.5028573704751
 30
0.0
 11
27937.604341291921
 21
1588.5028573704751
 31
0.0
1001
AUTOCAD_POSTSCRIPT_FIGURE
1002
{
1000
PSFILL
1000
Grayscale
1000
Grayscale
1070
   100
1002
}
  0
LINE
  5
76120
  8
YODOROGO
 10
27844.509588915749
 20
1568.5028573704751
 30
0.0
 11
27937.604341291921
 21
1568.5028573704751
 31
0.0
1001
AUTOCAD_POSTSCRIPT_FIGURE
1002
{
1000
PSFILL
1000
Grayscale
1000
Grayscale
1070
   100
1002
}
  0
LINE
  5
76121
  8
YODOROGO
 10
27815.546718284779
 20
1495.7494964292871
 30
0.0
 11
27844.509588915749
 21
1568.5028573704751
 31
0.0
1001
AUTOCAD_POSTSCRIPT_FIGURE
1002
{
1000
PSFILL
1000
Grayscale
1000
Grayscale
1070
   100
1002
}
  0
LINE
  5
76122
  8
YODOROGO
 10
27902.054790808648
 20
1495.7494964292871
 30
0.0
 11
27815.546718284779
 21
1495.7494964292871
 31
0.0
1001
AUTOCAD_POSTSCRIPT_FIGURE
1002
{
1000
PSFILL
1000
Grayscale
1000
Grayscale
1070
   100
1002
}
  0
LINE
  5
76123
  8
YODOROGO
 10
27885.065004790951
 20
1536.2338106976929
 30
0.0
 11
27902.054790808648
 21
1495.7494964292871
 31
0.0
1001
AUTOCAD_POSTSCRIPT_FIGURE
1002
{
1000
PSFILL
1000
Grayscale
1000
Grayscale
1070
   100
1002
}
  0
LINE
  5
76124
  8
YODOROGO
 10
27901.065004790951
 20
1536.2338106976929
 30
0.0
 11
27885.065004790951
 21
1536.2338106976929
 31
0.0
1001
AUTOCAD_POSTSCRIPT_FIGURE
1002
{
1000
PSFILL
1000
Grayscale
1000
Grayscale
1070
   100
1002
}
  0
LINE
  5
76125
  8
YODOROGO
 10
27929.604341291921
 20
1475.7494964292871
 30
0.0
 11
27901.065004790951
 21
1536.2338106976929
 31
0.0
1001
AUTOCAD_POSTSCRIPT_FIGURE
1002
{
1000
PSFILL
1000
Grayscale
1000
Grayscale
1070
   100
1002
}
  0
LINE
  5
76126
  8
YODOROGO
 10
27785.604341291921
 20
1475.7494964292871
 30
0.0
 11
27929.604341291921
 21
1475.7494964292871
 31
0.0
1001
AUTOCAD_POSTSCRIPT_FIGURE
1002
{
1000
PSFILL
1000
Grayscale
1000
Grayscale
1070
   100
1002
}
  0
LINE
  5
76127
  8
YODOROGO
 10
27777.604341291921
 20
1619.972414044571
 30
0.0
 11
27777.604341291921
 21
1643.9724140445701
 31
0.0
  0
LINE
  5
76128
  8
YODOROGO
 10
27937.604341291921
 20
1643.9724140445701
 30
0.0
 11
27937.604341291921
 21
1619.972414044571
 31
0.0
  0
ARC
  5
76129
  8
YODOROGO
 10
28225.94044214697
 20
1600.877765325326
 30
0.0
 40
175.99999999999989
 50
280.3644312771313
 51
3.5414836592180561
  0
ARC
  5
7612A
  8
YODOROGO
 10
28235.756030759301
 20
1633.5978069619041
 30
0.0
 40
111.99999999999829
 50
281.2490582504156
 51
348.75094174958332
  0
LINE
  5
7612B
  8
YODOROGO
 10
28257.604341291921
 20
1523.7494964292871
 30
0.0
 11
28257.604341291921
 21
1427.749496429288
 31
0.0
  0
LINE
  5
7612C
  8
YODOROGO
 10
28020.088903736902
 20
1610.6505650619149
 30
0.0
 11
28040.913204016899
 21
1659.749496429288
 31
0.0
  0
LINE
  5
7612D
  8
YODOROGO
 10
28041.604341291921
 20
1583.120489948401
 30
0.0
 11
28020.088903736902
 21
1610.6505650619149
 31
0.0
  0
LINE
  5
7612E
  8
YODOROGO
 10
28041.604341291921
 20
1563.1204899483989
 30
0.0
 11
28041.604341291921
 21
1583.120489948401
 31
0.0
  0
LINE
  5
7612F
  8
YODOROGO
 10
28017.604341291921
 20
1585.2370637495301
 30
0.0
 11
28041.604341291921
 21
1563.1204899483989
 31
0.0
  0
LINE
  5
76130
  8
YODOROGO
 10
28017.604341291921
 20
1475.7494964292871
 30
0.0
 11
28017.604341291921
 21
1585.2370637495301
 31
0.0
  0
LINE
  5
76131
  8
YODOROGO
 10
28001.604341291921
 20
1475.7494964292871
 30
0.0
 11
28017.604341291921
 21
1475.7494964292871
 31
0.0
  0
LINE
  5
76132
  8
YODOROGO
 10
28001.604341291921
 20
1580.0053496897481
 30
0.0
 11
28001.604341291921
 21
1475.7494964292871
 31
0.0
  0
LINE
  5
76133
  8
YODOROGO
 10
27977.604341291921
 20
1532.7680790334291
 30
0.0
 11
28001.604341291921
 21
1580.0053496897481
 31
0.0
  0
LINE
  5
76134
  8
YODOROGO
 10
27977.604341291921
 20
1556.76807903343
 30
0.0
 11
27977.604341291921
 21
1532.7680790334291
 31
0.0
  0
LINE
  5
76135
  8
YODOROGO
 10
28025.82877429136
 20
1667.749496429285
 30
0.0
 11
27977.604341291921
 21
1556.76807903343
 31
0.0
  0
LINE
  5
76136
  8
YODOROGO
 10
27977.604341291921
 20
1667.749496429285
 30
0.0
 11
28025.82877429136
 21
1667.749496429285
 31
0.0
  0
LINE
  5
76137
  8
YODOROGO
 10
28050.13552023091
 20
1655.5036372746561
 30
0.0
 11
28082.135520230921
 21
1655.5036372746561
 31
0.0
1001
AUTOCAD_POSTSCRIPT_FIGURE
1002
{
1000
PSFILL
1000
Grayscale
1000
Grayscale
1070
   100
1002
}
  0
LINE
  5
76138
  8
YODOROGO
 10
28050.13552023091
 20
1631.503637274657
 30
0.0
 11
28050.13552023091
 21
1655.5036372746561
 31
0.0
1001
AUTOCAD_POSTSCRIPT_FIGURE
1002
{
1000
PSFILL
1000
Grayscale
1000
Grayscale
1070
   100
1002
}
  0
LINE
  5
76139
  8
YODOROGO
 10
28082.135520230921
 20
1631.503637274657
 30
0.0
 11
28050.13552023091
 21
1631.503637274657
 31
0.0
1001
AUTOCAD_POSTSCRIPT_FIGURE
1002
{
1000
PSFILL
1000
Grayscale
1000
Grayscale
1070
   100
1002
}
  0
LINE
  5
7613A
  8
YODOROGO
 10
28082.135520230921
 20
1499.749496429288
 30
0.0
 11
28082.135520230921
 21
1631.503637274657
 31
0.0
1001
AUTOCAD_POSTSCRIPT_FIGURE
1002
{
1000
PSFILL
1000
Grayscale
1000
Grayscale
1070
   100
1002
}
  0
LINE
  5
7613B
  8
YODOROGO
 10
28050.135520230931
 20
1499.749496429288
 30
0.0
 11
28082.135520230921
 21
1499.749496429288
 31
0.0
1001
AUTOCAD_POSTSCRIPT_FIGURE
1002
{
1000
PSFILL
1000
Grayscale
1000
Grayscale
1070
   100
1002
}
  0
LINE
  5
7613C
  8
YODOROGO
 10
28050.135520230931
 20
1475.7494964292871
 30
0.0
 11
28050.135520230931
 21
1499.749496429288
 31
0.0
1001
AUTOCAD_POSTSCRIPT_FIGURE
1002
{
1000
PSFILL
1000
Grayscale
1000
Grayscale
1070
   100
1002
}
  0
LINE
  5
7613D
  8
YODOROGO
 10
28137.604341291921
 20
1475.7494964292871
 30
0.0
 11
28050.135520230931
 21
1475.7494964292871
 31
0.0
1001
AUTOCAD_POSTSCRIPT_FIGURE
1002
{
1000
PSFILL
1000
Grayscale
1000
Grayscale
1070
   100
1002
}
  0
LINE
  5
7613E
  8
YODOROGO
 10
28137.604341291921
 20
1499.749496429288
 30
0.0
 11
28137.604341291921
 21
1475.7494964292871
 31
0.0
1001
AUTOCAD_POSTSCRIPT_FIGURE
1002
{
1000
PSFILL
1000
Grayscale
1000
Grayscale
1070
   100
1002
}
  0
LINE
  5
7613F
  8
YODOROGO
 10
28098.135520230931
 20
1499.749496429288
 30
0.0
 11
28137.604341291921
 21
1499.749496429288
 31
0.0
1001
AUTOCAD_POSTSCRIPT_FIGURE
1002
{
1000
PSFILL
1000
Grayscale
1000
Grayscale
1070
   100
1002
}
  0
LINE
  5
76140
  8
YODOROGO
 10
28098.135520230931
 20
1631.503637274657
 30
0.0
 11
28098.135520230931
 21
1499.749496429288
 31
0.0
1001
AUTOCAD_POSTSCRIPT_FIGURE
1002
{
1000
PSFILL
1000
Grayscale
1000
Grayscale
1070
   100
1002
}
  0
LINE
  5
76141
  8
YODOROGO
 10
28137.604341291921
 20
1631.503637274657
 30
0.0
 11
28098.135520230931
 21
1631.503637274657
 31
0.0
1001
AUTOCAD_POSTSCRIPT_FIGURE
1002
{
1000
PSFILL
1000
Grayscale
1000
Grayscale
1070
   100
1002
}
  0
LINE
  5
76142
  8
YODOROGO
 10
28137.604341291921
 20
1655.5036372746561
 30
0.0
 11
28137.604341291921
 21
1631.503637274657
 31
0.0
1001
AUTOCAD_POSTSCRIPT_FIGURE
1002
{
1000
PSFILL
1000
Grayscale
1000
Grayscale
1070
   100
1002
}
  0
LINE
  5
76143
  8
YODOROGO
 10
28098.135520230931
 20
1655.5036372746561
 30
0.0
 11
28137.604341291921
 21
1655.5036372746561
 31
0.0
1001
AUTOCAD_POSTSCRIPT_FIGURE
1002
{
1000
PSFILL
1000
Grayscale
1000
Grayscale
1070
   100
1002
}
  0
LINE
  5
76144
  8
YODOROGO
 10
28401.60434129191
 20
1667.749496429288
 30
0.0
 11
28345.604341291921
 21
1667.749496429288
 31
0.0
  0
LINE
  5
76145
  8
YODOROGO
 10
28401.60434129191
 20
1611.7494964292889
 30
0.0
 11
28401.60434129191
 21
1667.749496429288
 31
0.0
  0
LINE
  5
76146
  8
YODOROGO
 10
28345.604341291921
 20
1667.749496429288
 30
0.0
 11
28345.604341291921
 21
1611.7494964292889
 31
0.0
  0
ARC
  5
76147
  8
YODOROGO
 10
28513.60434129191
 20
1507.749496429288
 30
0.0
 40
80.0
 50
180.0
 51
270.0
  0
ARC
  5
76148
  8
YODOROGO
 10
28537.60434129191
 20
1563.7494964292871
 30
0.0
 40
40.0
 50
180.0
 51
270.0
  0
LINE
  5
76149
  8
YODOROGO
 10
28561.604341291932
 20
1523.7494964292871
 30
0.0
 11
28537.60434129191
 21
1523.7494964292871
 31
0.0
  0
ARC
  5
7614A
  8
YODOROGO
 10
28561.604341291932
 20
1547.749496429285
 30
0.0
 40
23.999999999996358
 50
270.0
 51
0.0000000000054281
  0
LINE
  5
7614B
  8
YODOROGO
 10
27801.604341291921
 20
1890.786580793706
 30
0.0
 11
27777.604341291921
 21
1843.776747951672
 31
0.0
1001
AUTOCAD_POSTSCRIPT_FIGURE
1002
{
1000
PSFILL
1000
Grayscale
1000
Grayscale
1070
   100
1002
}
  0
LINE
  5
7614C
  8
YODOROGO
 10
27801.604341291921
 20
1747.7494964292871
 30
0.0
 11
27801.604341291921
 21
1890.786580793706
 31
0.0
1001
AUTOCAD_POSTSCRIPT_FIGURE
1002
{
1000
PSFILL
1000
Grayscale
1000
Grayscale
1070
   100
1002
}
  0
LINE
  5
7614D
  8
YODOROGO
 10
27817.604341291921
 20
1747.7494964292871
 30
0.0
 11
27801.604341291921
 21
1747.7494964292871
 31
0.0
1001
AUTOCAD_POSTSCRIPT_FIGURE
1002
{
1000
PSFILL
1000
Grayscale
1000
Grayscale
1070
   100
1002
}
  0
LINE
  5
7614E
  8
YODOROGO
 10
27817.604341291921
 20
1893.771332085267
 30
0.0
 11
27817.604341291921
 21
1747.7494964292871
 31
0.0
1001
AUTOCAD_POSTSCRIPT_FIGURE
1002
{
1000
PSFILL
1000
Grayscale
1000
Grayscale
1070
   100
1002
}
  0
LINE
  5
7614F
  8
YODOROGO
 10
27841.604341291921
 20
1867.654758284137
 30
0.0
 11
27817.604341291921
 21
1893.771332085267
 31
0.0
1001
AUTOCAD_POSTSCRIPT_FIGURE
1002
{
1000
PSFILL
1000
Grayscale
1000
Grayscale
1070
   100
1002
}
  0
LINE
  5
76150
  8
YODOROGO
 10
27841.604341291921
 20
1883.6547582841361
 30
0.0
 11
27841.604341291921
 21
1867.654758284137
 31
0.0
1001
AUTOCAD_POSTSCRIPT_FIGURE
1002
{
1000
PSFILL
1000
Grayscale
1000
Grayscale
1070
   100
1002
}
  0
LINE
  5
76151
  8
YODOROGO
 10
27817.604341291921
 20
1917.7713320852649
 30
0.0
 11
27841.604341291921
 21
1883.6547582841361
 31
0.0
1001
AUTOCAD_POSTSCRIPT_FIGURE
1002
{
1000
PSFILL
1000
Grayscale
1000
Grayscale
1070
   100
1002
}
  0
LINE
  5
76152
  8
YODOROGO
 10
27817.604341291921
 20
1939.749496429288
 30
0.0
 11
27817.604341291921
 21
1917.7713320852649
 31
0.0
1001
AUTOCAD_POSTSCRIPT_FIGURE
1002
{
1000
PSFILL
1000
Grayscale
1000
Grayscale
1070
   100
1002
}
  0
LINE
  5
76153
  8
YODOROGO
 10
27889.604341291921
 20
1939.749496429288
 30
0.0
 11
27817.604341291921
 21
1939.749496429288
 31
0.0
1001
AUTOCAD_POSTSCRIPT_FIGURE
1002
{
1000
PSFILL
1000
Grayscale
1000
Grayscale
1070
   100
1002
}
  0
LINE
  5
76154
  8
YODOROGO
 10
27889.604341291921
 20
1900.5683489363
 30
0.0
 11
27889.604341291921
 21
1939.749496429288
 31
0.0
1001
AUTOCAD_POSTSCRIPT_FIGURE
1002
{
1000
PSFILL
1000
Grayscale
1000
Grayscale
1070
   100
1002
}
  0
LINE
  5
76155
  8
YODOROGO
 10
27857.604341291921
 20
1900.5683489363
 30
0.0
 11
27889.604341291921
 21
1900.5683489363
 31
0.0
1001
AUTOCAD_POSTSCRIPT_FIGURE
1002
{
1000
PSFILL
1000
Grayscale
1000
Grayscale
1070
   100
1002
}
  0
LINE
  5
76156
  8
YODOROGO
 10
27857.604341291921
 20
1884.568348936298
 30
0.0
 11
27857.604341291921
 21
1900.5683489363
 31
0.0
1001
AUTOCAD_POSTSCRIPT_FIGURE
1002
{
1000
PSFILL
1000
Grayscale
1000
Grayscale
1070
   100
1002
}
  0
LINE
  5
76157
  8
YODOROGO
 10
27889.604341291921
 20
1884.568348936298
 30
0.0
 11
27857.604341291921
 21
1884.568348936298
 31
0.0
1001
AUTOCAD_POSTSCRIPT_FIGURE
1002
{
1000
PSFILL
1000
Grayscale
1000
Grayscale
1070
   100
1002
}
  0
LINE
  5
76158
  8
YODOROGO
 10
27889.604341291921
 20
1879.6191779644389
 30
0.0
 11
27889.604341291921
 21
1884.568348936298
 31
0.0
1001
AUTOCAD_POSTSCRIPT_FIGURE
1002
{
1000
PSFILL
1000
Grayscale
1000
Grayscale
1070
   100
1002
}
  0
LINE
  5
76159
  8
YODOROGO
 10
27849.604341291921
 20
1812.974981161417
 30
0.0
 11
27889.604341291921
 21
1879.6191779644389
 31
0.0
1001
AUTOCAD_POSTSCRIPT_FIGURE
1002
{
1000
PSFILL
1000
Grayscale
1000
Grayscale
1070
   100
1002
}
  0
LINE
  5
7615A
  8
YODOROGO
 10
27849.604341291921
 20
1796.9749811614161
 30
0.0
 11
27849.604341291921
 21
1812.974981161417
 31
0.0
1001
AUTOCAD_POSTSCRIPT_FIGURE
1002
{
1000
PSFILL
1000
Grayscale
1000
Grayscale
1070
   100
1002
}
  0
LINE
  5
7615B
  8
YODOROGO
 10
27889.604341291921
 20
1847.6191779644371
 30
0.0
 11
27849.604341291921
 21
1796.9749811614161
 31
0.0
1001
AUTOCAD_POSTSCRIPT_FIGURE
1002
{
1000
PSFILL
1000
Grayscale
1000
Grayscale
1070
   100
1002
}
  0
LINE
  5
7615C
  8
YODOROGO
 10
27889.604341291921
 20
1747.7494964292871
 30
0.0
 11
27889.604341291921
 21
1847.6191779644371
 31
0.0
1001
AUTOCAD_POSTSCRIPT_FIGURE
1002
{
1000
PSFILL
1000
Grayscale
1000
Grayscale
1070
   100
1002
}
  0
LINE
  5
7615D
  8
YODOROGO
 10
27905.604341291921
 20
1747.7494964292871
 30
0.0
 11
27889.604341291921
 21
1747.7494964292871
 31
0.0
1001
AUTOCAD_POSTSCRIPT_FIGURE
1002
{
1000
PSFILL
1000
Grayscale
1000
Grayscale
1070
   100
1002
}
  0
LINE
  5
7615E
  8
YODOROGO
 10
27905.604341291921
 20
1849.409012158806
 30
0.0
 11
27905.604341291921
 21
1747.7494964292871
 31
0.0
1001
AUTOCAD_POSTSCRIPT_FIGURE
1002
{
1000
PSFILL
1000
Grayscale
1000
Grayscale
1070
   100
1002
}
  0
LINE
  5
7615F
  8
YODOROGO
 10
27937.604341291921
 20
1796.9749811614161
 30
0.0
 11
27905.604341291921
 21
1849.409012158806
 31
0.0
1001
AUTOCAD_POSTSCRIPT_FIGURE
1002
{
1000
PSFILL
1000
Grayscale
1000
Grayscale
1070
   100
1002
}
  0
LINE
  5
76160
  8
YODOROGO
 10
27937.604341291921
 20
1812.974981161417
 30
0.0
 11
27937.604341291921
 21
1796.9749811614161
 31
0.0
1001
AUTOCAD_POSTSCRIPT_FIGURE
1002
{
1000
PSFILL
1000
Grayscale
1000
Grayscale
1070
   100
1002
}
  0
LINE
  5
76161
  8
YODOROGO
 10
27905.604341291921
 20
1881.4090121588081
 30
0.0
 11
27937.604341291921
 21
1812.974981161417
 31
0.0
1001
AUTOCAD_POSTSCRIPT_FIGURE
1002
{
1000
PSFILL
1000
Grayscale
1000
Grayscale
1070
   100
1002
}
  0
LINE
  5
76162
  8
YODOROGO
 10
27905.604341291932
 20
1884.5683489363
 30
0.0
 11
27905.604341291921
 21
1881.4090121588081
 31
0.0
1001
AUTOCAD_POSTSCRIPT_FIGURE
1002
{
1000
PSFILL
1000
Grayscale
1000
Grayscale
1070
   100
1002
}
  0
LINE
  5
76163
  8
YODOROGO
 10
27937.604341291921
 20
1884.568348936298
 30
0.0
 11
27905.604341291932
 21
1884.5683489363
 31
0.0
1001
AUTOCAD_POSTSCRIPT_FIGURE
1002
{
1000
PSFILL
1000
Grayscale
1000
Grayscale
1070
   100
1002
}
  0
LINE
  5
76164
  8
YODOROGO
 10
27937.604341291921
 20
1900.5683489363
 30
0.0
 11
27937.604341291921
 21
1884.568348936298
 31
0.0
1001
AUTOCAD_POSTSCRIPT_FIGURE
1002
{
1000
PSFILL
1000
Grayscale
1000
Grayscale
1070
   100
1002
}
  0
LINE
  5
76165
  8
YODOROGO
 10
27905.604341291921
 20
1900.5683489363
 30
0.0
 11
27937.604341291921
 21
1900.5683489363
 31
0.0
1001
AUTOCAD_POSTSCRIPT_FIGURE
1002
{
1000
PSFILL
1000
Grayscale
1000
Grayscale
1070
   100
1002
}
  0
LINE
  5
76166
  8
YODOROGO
 10
27905.604341291921
 20
1939.749496429288
 30
0.0
 11
27905.604341291921
 21
1900.5683489363
 31
0.0
1001
AUTOCAD_POSTSCRIPT_FIGURE
1002
{
1000
PSFILL
1000
Grayscale
1000
Grayscale
1070
   100
1002
}
  0
LINE
  5
76167
  8
YODOROGO
 10
27937.604341291921
 20
1939.749496429288
 30
0.0
 11
27905.604341291921
 21
1939.749496429288
 31
0.0
1001
AUTOCAD_POSTSCRIPT_FIGURE
1002
{
1000
PSFILL
1000
Grayscale
1000
Grayscale
1070
   100
1002
}
  0
LINE
  5
76168
  8
YODOROGO
 10
27937.604341291921
 20
1955.7494964292871
 30
0.0
 11
27937.604341291921
 21
1939.749496429288
 31
0.0
1001
AUTOCAD_POSTSCRIPT_FIGURE
1002
{
1000
PSFILL
1000
Grayscale
1000
Grayscale
1070
   100
1002
}
  0
LINE
  5
76169
  8
YODOROGO
 10
27905.604341291921
 20
1955.7494964292871
 30
0.0
 11
27937.604341291921
 21
1955.7494964292871
 31
0.0
1001
AUTOCAD_POSTSCRIPT_FIGURE
1002
{
1000
PSFILL
1000
Grayscale
1000
Grayscale
1070
   100
1002
}
  0
LINE
  5
7616A
  8
YODOROGO
 10
27905.604341291921
 20
1979.749496429288
 30
0.0
 11
27905.604341291921
 21
1955.7494964292871
 31
0.0
1001
AUTOCAD_POSTSCRIPT_FIGURE
1002
{
1000
PSFILL
1000
Grayscale
1000
Grayscale
1070
   100
1002
}
  0
LINE
  5
7616B
  8
YODOROGO
 10
27889.604341291921
 20
1979.749496429288
 30
0.0
 11
27905.604341291921
 21
1979.749496429288
 31
0.0
1001
AUTOCAD_POSTSCRIPT_FIGURE
1002
{
1000
PSFILL
1000
Grayscale
1000
Grayscale
1070
   100
1002
}
  0
LINE
  5
7616C
  8
YODOROGO
 10
27889.604341291921
 20
1955.7494964292871
 30
0.0
 11
27889.604341291921
 21
1979.749496429288
 31
0.0
1001
AUTOCAD_POSTSCRIPT_FIGURE
1002
{
1000
PSFILL
1000
Grayscale
1000
Grayscale
1070
   100
1002
}
  0
LINE
  5
7616D
  8
YODOROGO
 10
27865.604341291921
 20
1955.7494964292871
 30
0.0
 11
27889.604341291921
 21
1955.7494964292871
 31
0.0
1001
AUTOCAD_POSTSCRIPT_FIGURE
1002
{
1000
PSFILL
1000
Grayscale
1000
Grayscale
1070
   100
1002
}
  0
LINE
  5
7616E
  8
YODOROGO
 10
27865.604341291921
 20
1979.749496429288
 30
0.0
 11
27865.604341291921
 21
1955.7494964292871
 31
0.0
1001
AUTOCAD_POSTSCRIPT_FIGURE
1002
{
1000
PSFILL
1000
Grayscale
1000
Grayscale
1070
   100
1002
}
  0
LINE
  5
7616F
  8
YODOROGO
 10
27849.604341291921
 20
1979.749496429288
 30
0.0
 11
27865.604341291921
 21
1979.749496429288
 31
0.0
1001
AUTOCAD_POSTSCRIPT_FIGURE
1002
{
1000
PSFILL
1000
Grayscale
1000
Grayscale
1070
   100
1002
}
  0
LINE
  5
76170
  8
YODOROGO
 10
27849.604341291921
 20
1955.7494964292871
 30
0.0
 11
27849.604341291921
 21
1979.749496429288
 31
0.0
1001
AUTOCAD_POSTSCRIPT_FIGURE
1002
{
1000
PSFILL
1000
Grayscale
1000
Grayscale
1070
   100
1002
}
  0
LINE
  5
76171
  8
YODOROGO
 10
27817.604341291921
 20
1955.7494964292871
 30
0.0
 11
27849.604341291921
 21
1955.7494964292871
 31
0.0
1001
AUTOCAD_POSTSCRIPT_FIGURE
1002
{
1000
PSFILL
1000
Grayscale
1000
Grayscale
1070
   100
1002
}
  0
LINE
  5
76172
  8
YODOROGO
 10
27817.604341291921
 20
1979.749496429288
 30
0.0
 11
27817.604341291921
 21
1955.7494964292871
 31
0.0
1001
AUTOCAD_POSTSCRIPT_FIGURE
1002
{
1000
PSFILL
1000
Grayscale
1000
Grayscale
1070
   100
1002
}
  0
LINE
  5
76173
  8
YODOROGO
 10
27801.604341291921
 20
1979.749496429288
 30
0.0
 11
27817.604341291921
 21
1979.749496429288
 31
0.0
1001
AUTOCAD_POSTSCRIPT_FIGURE
1002
{
1000
PSFILL
1000
Grayscale
1000
Grayscale
1070
   100
1002
}
  0
LINE
  5
76174
  8
YODOROGO
 10
27801.604341291921
 20
1955.7494964292871
 30
0.0
 11
27801.604341291921
 21
1979.749496429288
 31
0.0
1001
AUTOCAD_POSTSCRIPT_FIGURE
1002
{
1000
PSFILL
1000
Grayscale
1000
Grayscale
1070
   100
1002
}
  0
LINE
  5
76175
  8
YODOROGO
 10
27777.604341291921
 20
1955.7494964292871
 30
0.0
 11
27801.604341291921
 21
1955.7494964292871
 31
0.0
1001
AUTOCAD_POSTSCRIPT_FIGURE
1002
{
1000
PSFILL
1000
Grayscale
1000
Grayscale
1070
   100
1002
}
  0
LINE
  5
76176
  8
YODOROGO
 10
27777.604341291921
 20
1939.749496429288
 30
0.0
 11
27777.604341291921
 21
1955.7494964292871
 31
0.0
1001
AUTOCAD_POSTSCRIPT_FIGURE
1002
{
1000
PSFILL
1000
Grayscale
1000
Grayscale
1070
   100
1002
}
  0
LINE
  5
76177
  8
YODOROGO
 10
27801.604341291921
 20
1939.749496429288
 30
0.0
 11
27777.604341291921
 21
1939.749496429288
 31
0.0
1001
AUTOCAD_POSTSCRIPT_FIGURE
1002
{
1000
PSFILL
1000
Grayscale
1000
Grayscale
1070
   100
1002
}
  0
LINE
  5
76178
  8
YODOROGO
 10
27801.604341291921
 20
1914.7865807937051
 30
0.0
 11
27801.604341291921
 21
1939.749496429288
 31
0.0
1001
AUTOCAD_POSTSCRIPT_FIGURE
1002
{
1000
PSFILL
1000
Grayscale
1000
Grayscale
1070
   100
1002
}
  0
LINE
  5
76179
  8
YODOROGO
 10
27777.604341291921
 20
1859.776747951671
 30
0.0
 11
27801.604341291921
 21
1914.7865807937051
 31
0.0
1001
AUTOCAD_POSTSCRIPT_FIGURE
1002
{
1000
PSFILL
1000
Grayscale
1000
Grayscale
1070
   100
1002
}
  0
LINE
  5
7617A
  8
YODOROGO
 10
27777.604341291921
 20
1843.776747951672
 30
0.0
 11
27777.604341291921
 21
1859.776747951671
 31
0.0
1001
AUTOCAD_POSTSCRIPT_FIGURE
1002
{
1000
PSFILL
1000
Grayscale
1000
Grayscale
1070
   100
1002
}
  0
LINE
  5
7617B
  8
YODOROGO
 10
28257.604341291921
 20
1867.749496429288
 30
0.0
 11
28401.60434129191
 21
1824.877625640306
 31
0.0
1001
AUTOCAD_POSTSCRIPT_FIGURE
1002
{
1000
PSFILL
1000
Grayscale
1000
Grayscale
1070
   100
1002
}
  0
LINE
  5
7617C
  8
YODOROGO
 10
28401.60434129191
 20
1752.877625640306
 30
0.0
 11
28257.604341291921
 21
1795.7494964292871
 31
0.0
1001
AUTOCAD_POSTSCRIPT_FIGURE
1002
{
1000
PSFILL
1000
Grayscale
1000
Grayscale
1070
   100
1002
}
  0
LINE
  5
7617D
  8
YODOROGO
 10
28401.60434129191
 20
1984.877625640306
 30
0.0
 11
28257.604341291921
 21
2027.749496429288
 31
0.0
1001
AUTOCAD_POSTSCRIPT_FIGURE
1002
{
1000
PSFILL
1000
Grayscale
1000
Grayscale
1070
   100
1002
}
  0
LINE
  5
7617E
  8
YODOROGO
 10
28257.604341291921
 20
1959.749496429288
 30
0.0
 11
28401.60434129191
 21
1916.8776256403071
 31
0.0
1001
AUTOCAD_POSTSCRIPT_FIGURE
1002
{
1000
PSFILL
1000
Grayscale
1000
Grayscale
1070
   100
1002
}
  0
LINE
  5
7617F
  8
YODOROGO
 10
28257.604341291921
 20
1795.7494964292871
 30
0.0
 11
28257.604341291921
 21
1867.749496429288
 31
0.0
1001
AUTOCAD_POSTSCRIPT_FIGURE
1002
{
1000
PSFILL
1000
Grayscale
1000
Grayscale
1070
   100
1002
}
  0
LINE
  5
76180
  8
YODOROGO
 10
28257.604341291921
 20
2027.749496429288
 30
0.0
 11
28257.604341291921
 21
1959.749496429288
 31
0.0
1001
AUTOCAD_POSTSCRIPT_FIGURE
1002
{
1000
PSFILL
1000
Grayscale
1000
Grayscale
1070
   100
1002
}
  0
LINE
  5
76181
  8
YODOROGO
 10
28080.236320206739
 20
1939.749496429288
 30
0.0
 11
28129.604341291921
 21
1747.7494964292871
 31
0.0
1001
AUTOCAD_POSTSCRIPT_FIGURE
1002
{
1000
PSFILL
1000
Grayscale
1000
Grayscale
1070
   100
1002
}
  0
LINE
  5
76182
  8
YODOROGO
 10
27977.604341291921
 20
1939.749496429288
 30
0.0
 11
28080.236320206739
 21
1939.749496429288
 31
0.0
1001
AUTOCAD_POSTSCRIPT_FIGURE
1002
{
1000
PSFILL
1000
Grayscale
1000
Grayscale
1070
   100
1002
}
  0
LINE
  5
76183
  8
YODOROGO
 10
27977.604341291921
 20
1955.7494964292871
 30
0.0
 11
27977.604341291921
 21
1939.749496429288
 31
0.0
1001
AUTOCAD_POSTSCRIPT_FIGURE
1002
{
1000
PSFILL
1000
Grayscale
1000
Grayscale
1070
   100
1002
}
  0
LINE
  5
76184
  8
YODOROGO
 10
28076.60687851992
 20
1955.7494964292871
 30
0.0
 11
27977.604341291921
 21
1955.7494964292871
 31
0.0
1001
AUTOCAD_POSTSCRIPT_FIGURE
1002
{
1000
PSFILL
1000
Grayscale
1000
Grayscale
1070
   100
1002
}
  0
LINE
  5
76185
  8
YODOROGO
 10
28071.162715989711
 20
1979.749496429288
 30
0.0
 11
28076.60687851992
 21
1955.7494964292871
 31
0.0
1001
AUTOCAD_POSTSCRIPT_FIGURE
1002
{
1000
PSFILL
1000
Grayscale
1000
Grayscale
1070
   100
1002
}
  0
LINE
  5
76186
  8
YODOROGO
 10
28091.162715989711
 20
1979.749496429288
 30
0.0
 11
28071.162715989711
 21
1979.749496429288
 31
0.0
1001
AUTOCAD_POSTSCRIPT_FIGURE
1002
{
1000
PSFILL
1000
Grayscale
1000
Grayscale
1070
   100
1002
}
  0
LINE
  5
76187
  8
YODOROGO
 10
28095.806878519939
 20
1955.7494964292871
 30
0.0
 11
28091.162715989711
 21
1979.749496429288
 31
0.0
1001
AUTOCAD_POSTSCRIPT_FIGURE
1002
{
1000
PSFILL
1000
Grayscale
1000
Grayscale
1070
   100
1002
}
  0
LINE
  5
76188
  8
YODOROGO
 10
28121.604341291921
 20
1955.7494964292871
 30
0.0
 11
28095.806878519939
 21
1955.7494964292871
 31
0.0
1001
AUTOCAD_POSTSCRIPT_FIGURE
1002
{
1000
PSFILL
1000
Grayscale
1000
Grayscale
1070
   100
1002
}
  0
LINE
  5
76189
  8
YODOROGO
 10
28121.604341291921
 20
1979.749496429288
 30
0.0
 11
28121.604341291921
 21
1955.7494964292871
 31
0.0
1001
AUTOCAD_POSTSCRIPT_FIGURE
1002
{
1000
PSFILL
1000
Grayscale
1000
Grayscale
1070
   100
1002
}
  0
LINE
  5
7618A
  8
YODOROGO
 10
28137.604341291921
 20
1979.749496429288
 30
0.0
 11
28121.604341291921
 21
1979.749496429288
 31
0.0
1001
AUTOCAD_POSTSCRIPT_FIGURE
1002
{
1000
PSFILL
1000
Grayscale
1000
Grayscale
1070
   100
1002
}
  0
LINE
  5
7618B
  8
YODOROGO
 10
28137.604341291921
 20
1955.7494964292871
 30
0.0
 11
28137.604341291921
 21
1979.749496429288
 31
0.0
1001
AUTOCAD_POSTSCRIPT_FIGURE
1002
{
1000
PSFILL
1000
Grayscale
1000
Grayscale
1070
   100
1002
}
  0
LINE
  5
7618C
  8
YODOROGO
 10
28137.604341291921
 20
1939.749496429288
 30
0.0
 11
28137.604341291921
 21
1955.7494964292871
 31
0.0
1001
AUTOCAD_POSTSCRIPT_FIGURE
1002
{
1000
PSFILL
1000
Grayscale
1000
Grayscale
1070
   100
1002
}
  0
LINE
  5
7618D
  8
YODOROGO
 10
28098.902986873421
 20
1939.749496429288
 30
0.0
 11
28137.604341291921
 21
1939.749496429288
 31
0.0
1001
AUTOCAD_POSTSCRIPT_FIGURE
1002
{
1000
PSFILL
1000
Grayscale
1000
Grayscale
1070
   100
1002
}
  0
LINE
  5
7618E
  8
YODOROGO
 10
28137.604341291921
 20
1747.7494964292871
 30
0.0
 11
28098.902986873421
 21
1939.749496429288
 31
0.0
1001
AUTOCAD_POSTSCRIPT_FIGURE
1002
{
1000
PSFILL
1000
Grayscale
1000
Grayscale
1070
   100
1002
}
  0
LINE
  5
7618F
  8
YODOROGO
 10
28129.604341291921
 20
1747.7494964292871
 30
0.0
 11
28137.604341291921
 21
1747.7494964292871
 31
0.0
1001
AUTOCAD_POSTSCRIPT_FIGURE
1002
{
1000
PSFILL
1000
Grayscale
1000
Grayscale
1070
   100
1002
}
  0
LINE
  5
76190
  8
YODOROGO
 10
28078.069219933801
 20
1775.7407762987939
 30
0.0
 11
27977.604341291921
 21
1747.7494964292871
 31
0.0
  0
LINE
  5
76191
  8
YODOROGO
 10
28078.069219933801
 20
1798.6689795290731
 30
0.0
 11
28078.069219933801
 21
1775.7407762987939
 31
0.0
  0
LINE
  5
76192
  8
YODOROGO
 10
28033.83678061287
 20
1786.816933133767
 30
0.0
 11
28078.069219933801
 21
1798.6689795290731
 31
0.0
  0
LINE
  5
76193
  8
YODOROGO
 10
28033.83678061287
 20
1872.5683489363
 30
0.0
 11
28033.83678061287
 21
1786.816933133767
 31
0.0
  0
LINE
  5
76194
  8
YODOROGO
 10
28078.069219933801
 20
1872.5683489363
 30
0.0
 11
28033.83678061287
 21
1872.5683489363
 31
0.0
  0
LINE
  5
76195
  8
YODOROGO
 10
28078.069219933801
 20
1892.568348936298
 30
0.0
 11
28078.069219933801
 21
1872.5683489363
 31
0.0
  0
LINE
  5
76196
  8
YODOROGO
 10
27977.604341291921
 20
1892.568348936298
 30
0.0
 11
28078.069219933801
 21
1892.568348936298
 31
0.0
  0
LINE
  5
76197
  8
YODOROGO
 10
27977.604341291921
 20
1872.5683489363
 30
0.0
 11
27977.604341291921
 21
1892.568348936298
 31
0.0
  0
LINE
  5
76198
  8
YODOROGO
 10
28021.836780612859
 20
1872.5683489363
 30
0.0
 11
27977.604341291921
 21
1872.5683489363
 31
0.0
  0
LINE
  5
76199
  8
YODOROGO
 10
28021.836780612859
 20
1784.673339594317
 30
0.0
 11
28021.836780612859
 21
1872.5683489363
 31
0.0
  0
LINE
  5
7619A
  8
YODOROGO
 10
27977.604341291921
 20
1771.749496429286
 30
0.0
 11
28021.836780612859
 21
1784.673339594317
 31
0.0
  0
LINE
  5
7619B
  8
YODOROGO
 10
27977.604341291921
 20
1747.7494964292871
 30
0.0
 11
27977.604341291921
 21
1771.749496429286
 31
0.0
  0
LINE
  5
7619C
  8
YODOROGO
 10
28001.604341291921
 20
1707.749496429288
 30
0.0
 11
28001.604341291921
 21
1683.7494964292871
 31
0.0
  0
LINE
  5
7619E
  8
YODOROGO
 10
28017.604341291921
 20
1707.749496429288
 30
0.0
 11
28001.604341291921
 21
1707.749496429288
 31
0.0
  0
LINE
  5
7619F
  8
YODOROGO
 10
28017.604341291921
 20
1683.7494964292871
 30
0.0
 11
28017.604341291921
 21
1707.749496429288
 31
0.0
  0
LINE
  5
761A0
  8
YODOROGO
 10
28040.913204016899
 20
1683.7494964292871
 30
0.0
 11
28017.604341291921
 21
1683.7494964292871
 31
0.0
  0
LINE
  5
761A1
  8
YODOROGO
 10
28001.604341291921
 20
1683.7494964292871
 30
0.0
 11
27977.604341291921
 21
1683.7494964292871
 31
0.0
  0
LINE
  5
761A2
  8
YODOROGO
 10
28082.135520230921
 20
1707.749496429288
 30
0.0
 11
28098.135520230931
 21
1707.749496429288
 31
0.0
1001
AUTOCAD_POSTSCRIPT_FIGURE
1002
{
1000
PSFILL
1000
Grayscale
1000
Grayscale
1070
   100
1002
}
  0
LINE
  5
761A3
  8
YODOROGO
 10
28401.60434129191
 20
1824.877625640306
 30
0.0
 11
28401.60434129191
 21
1752.877625640306
 31
0.0
1001
AUTOCAD_POSTSCRIPT_FIGURE
1002
{
1000
PSFILL
1000
Grayscale
1000
Grayscale
1070
   100
1002
}
  0
LINE
  5
761A4
  8
YODOROGO
 10
28401.60434129191
 20
1916.8776256403071
 30
0.0
 11
28401.60434129191
 21
1984.877625640306
 31
0.0
1001
AUTOCAD_POSTSCRIPT_FIGURE
1002
{
1000
PSFILL
1000
Grayscale
1000
Grayscale
1070
   100
1002
}
  0
LINE
  5
761A5
  8
YODOROGO
 10
28433.60434129191
 20
1819.749496429288
 30
0.0
 11
28433.60434129191
 21
1747.74949642929
 31
0.0
  0
LINE
  5
761A6
  8
YODOROGO
 10
28497.60434129191
 20
1707.749496429288
 30
0.0
 11
28433.60434129191
 21
1707.749496429288
 31
0.0
  0
LINE
  5
761A7
  8
YODOROGO
 10
28433.60434129191
 20
1747.74949642929
 30
0.0
 11
28585.604341291921
 21
1747.74949642929
 31
0.0
  0
LINE
  5
761A8
  8
YODOROGO
 10
28497.60434129191
 20
1867.749496429288
 30
0.0
 11
28433.60434129191
 21
1867.749496429288
 31
0.0
  0
LINE
  5
761A9
  8
YODOROGO
 10
28497.60434129191
 20
1923.7494964292871
 30
0.0
 11
28497.60434129191
 21
1867.749496429288
 31
0.0
  0
LINE
  5
761AA
  8
YODOROGO
 10
28585.604341291921
 20
1987.749496429288
 30
0.0
 11
28585.604341291921
 21
2027.749496429288
 31
0.0
  0
LINE
  5
761AB
  8
YODOROGO
 10
28433.60434129191
 20
1987.749496429288
 30
0.0
 11
28585.604341291921
 21
1987.749496429288
 31
0.0
  0
LINE
  5
761AC
  8
YODOROGO
 10
28433.60434129191
 20
1867.749496429288
 30
0.0
 11
28433.60434129191
 21
1987.749496429288
 31
0.0
  0
LINE
  5
761AD
  8
YODOROGO
 10
29001.60434129191
 20
2027.749496429288
 30
0.0
 11
29001.60434129191
 21
1619.749496429288
 31
0.0
  0
LINE
  5
761AE
  8
YODOROGO
 10
29073.604341291921
 20
1579.749496429288
 30
0.0
 11
29073.604341291921
 21
2027.749496429288
 31
0.0
  0
LINE
  5
761AF
  8
YODOROGO
 10
29261.604341291921
 20
1491.749496429286
 30
0.0
 11
29261.604341291921
 21
2007.749496429288
 31
0.0
  0
LINE
  5
761B0
  8
YODOROGO
 10
29197.604341291921
 20
2007.749496429288
 30
0.0
 11
29197.604341291921
 21
1491.749496429286
 31
0.0
  0
LINE
  5
761B1
  8
YODOROGO
 10
29385.604341291921
 20
2027.749496429288
 30
0.0
 11
29385.604341291921
 21
1427.749496429288
 31
0.0
  0
LINE
  5
761B2
  8
YODOROGO
 10
29457.604341291921
 20
1427.749496429288
 30
0.0
 11
29457.604341291921
 21
2027.749496429288
 31
0.0
  0
LINE
  5
761B3
  8
YODOROGO
 10
28657.60434129191
 20
1667.749496429288
 30
0.0
 11
28657.60434129191
 21
1747.74949642929
 31
0.0
  0
LINE
  5
761B4
  8
YODOROGO
 10
29885.604341291921
 20
1707.749496429288
 30
0.0
 11
29885.604341291921
 21
1667.749496429288
 31
0.0
  0
LINE
  5
761B5
  8
YODOROGO
 10
29885.604341291921
 20
1707.749496429288
 30
0.0
 11
29885.604341291921
 21
1667.749496429288
 31
0.0
  0
ARC
  5
761B6
  8
YODOROGO
 10
28906.911576186842
 20
1618.2178644422729
 30
0.0
 40
94.705151178741659
 50
274.0524416290711
 51
0.9266642149310712
  0
ARC
  5
761B7
  8
YODOROGO
 10
28909.18617071983
 20
1592.61072861044
 30
0.0
 40
164.92042356085511
 50
271.53512106537778
 51
355.52727750585058
  0
LINE
  5
761B8
  8
YODOROGO
 10
28913.604341291921
 20
1523.7494964292871
 30
0.0
 11
28913.604341291921
 21
1427.749496429288
 31
0.0
  0
LINE
  5
761B9
  8
YODOROGO
 10
28793.60434129191
 20
1667.749496429288
 30
0.0
 11
28657.60434129191
 21
1667.749496429288
 31
0.0
  0
LINE
  5
761BA
  8
YODOROGO
 10
28793.60434129191
 20
1603.7494964292889
 30
0.0
 11
28793.60434129191
 21
1667.749496429288
 31
0.0
  0
LINE
  5
761BB
  8
YODOROGO
 10
28657.60434129191
 20
1603.7494964292889
 30
0.0
 11
28793.60434129191
 21
1603.7494964292889
 31
0.0
  0
LINE
  5
761BC
  8
YODOROGO
 10
28657.60434129191
 20
1523.7494964292871
 30
0.0
 11
28657.60434129191
 21
1603.7494964292889
 31
0.0
  0
LINE
  5
761BD
  8
YODOROGO
 10
28793.60434129191
 20
1523.7494964292871
 30
0.0
 11
28657.60434129191
 21
1523.7494964292871
 31
0.0
  0
LINE
  5
761BE
  8
YODOROGO
 10
28793.60434129191
 20
1427.749496429288
 30
0.0
 11
28793.60434129191
 21
1523.7494964292871
 31
0.0
  0
LINE
  5
761BF
  8
YODOROGO
 10
29197.604341291921
 20
1491.749496429286
 30
0.0
 11
29261.604341291921
 21
1491.749496429286
 31
0.0
  0
LINE
  5
761C0
  8
YODOROGO
 10
29385.604341291921
 20
1427.749496429288
 30
0.0
 11
29457.604341291921
 21
1427.749496429288
 31
0.0
  0
LINE
  5
761C1
  8
YODOROGO
 10
29737.604341291921
 20
1528.4414521705639
 30
0.0
 11
29737.604341291921
 21
1427.749496429288
 31
0.0
  0
LINE
  5
761C2
  8
YODOROGO
 10
29617.604341291921
 20
1427.749496429288
 30
0.0
 11
29737.604341291921
 21
1528.4414521705639
 31
0.0
  0
LINE
  5
761C3
  8
YODOROGO
 10
29617.604341291921
 20
1547.749496429288
 30
0.0
 11
29617.604341291921
 21
1427.749496429288
 31
0.0
  0
LINE
  5
761C4
  8
YODOROGO
 10
29712.944628699461
 20
1627.749496429288
 30
0.0
 11
29617.604341291921
 21
1547.749496429288
 31
0.0
  0
LINE
  5
761C5
  8
YODOROGO
 10
29617.604341291921
 20
1627.749496429288
 30
0.0
 11
29712.944628699461
 21
1627.749496429288
 31
0.0
  0
LINE
  5
761C6
  8
YODOROGO
 10
29617.604341291921
 20
1667.749496429288
 30
0.0
 11
29617.604341291921
 21
1627.749496429288
 31
0.0
  0
LINE
  5
761C7
  8
YODOROGO
 10
29885.604341291921
 20
1667.749496429288
 30
0.0
 11
29617.604341291921
 21
1667.749496429288
 31
0.0
  0
LINE
  5
761C8
  8
YODOROGO
 10
29917.604341291921
 20
1627.749496429288
 30
0.0
 11
29777.604341291921
 21
1627.749496429288
 31
0.0
  0
LINE
  5
761C9
  8
YODOROGO
 10
29777.604341291921
 20
1562.005437417657
 30
0.0
 11
29771.40987298531
 21
1556.807661346234
 31
0.0
  0
LINE
  5
761CA
  8
YODOROGO
 10
29777.604341291921
 20
1627.749496429288
 30
0.0
 11
29777.604341291921
 21
1562.005437417657
 31
0.0
  0
LINE
  5
761CB
  8
YODOROGO
 10
29737.604341291921
 20
1528.4414521705639
 30
0.0
 11
29737.604341291921
 21
1427.749496429288
 31
0.0
  0
LINE
  5
761CC
  8
YODOROGO
 10
29617.604341291921
 20
1427.749496429288
 30
0.0
 11
29737.604341291921
 21
1528.4414521705639
 31
0.0
  0
LINE
  5
761CD
  8
YODOROGO
 10
29617.604341291921
 20
1547.749496429288
 30
0.0
 11
29617.604341291921
 21
1427.749496429288
 31
0.0
  0
LINE
  5
761CE
  8
YODOROGO
 10
29712.944628699461
 20
1627.749496429288
 30
0.0
 11
29617.604341291921
 21
1547.749496429288
 31
0.0
  0
LINE
  5
761CF
  8
YODOROGO
 10
29617.604341291921
 20
1627.749496429288
 30
0.0
 11
29712.944628699461
 21
1627.749496429288
 31
0.0
  0
LINE
  5
761D0
  8
YODOROGO
 10
29617.604341291921
 20
1667.749496429288
 30
0.0
 11
29617.604341291921
 21
1627.749496429288
 31
0.0
  0
LINE
  5
761D1
  8
YODOROGO
 10
29885.604341291921
 20
1667.749496429288
 30
0.0
 11
29617.604341291921
 21
1667.749496429288
 31
0.0
  0
LINE
  5
761D2
  8
YODOROGO
 10
28793.60434129191
 20
1747.74949642929
 30
0.0
 11
28793.60434129191
 21
1819.749496429288
 31
0.0
  0
LINE
  5
761D3
  8
YODOROGO
 10
28657.60434129191
 20
1747.74949642929
 30
0.0
 11
28793.60434129191
 21
1747.74949642929
 31
0.0
  0
LINE
  5
761D4
  8
YODOROGO
 10
28729.604341291921
 20
1867.749496429288
 30
0.0
 11
28729.604341291921
 21
1923.7494964292871
 31
0.0
  0
LINE
  5
761D5
  8
YODOROGO
 10
28793.60434129191
 20
1867.749496429288
 30
0.0
 11
28729.604341291921
 21
1867.749496429288
 31
0.0
  0
LINE
  5
761D6
  8
YODOROGO
 10
28793.60434129191
 20
1947.749496429288
 30
0.0
 11
28793.60434129191
 21
1867.749496429288
 31
0.0
  0
ARC
  5
761D7
  8
YODOROGO
 10
28753.60434129191
 20
1947.749496429288
 30
0.0
 40
40.0
 50
0.0
 51
90.0
  0
LINE
  5
761D8
  8
YODOROGO
 10
28657.604341291921
 20
1987.749496429288
 30
0.0
 11
28753.60434129191
 21
1987.749496429288
 31
0.0
  0
LINE
  5
761D9
  8
YODOROGO
 10
28657.604341291921
 20
2027.749496429288
 30
0.0
 11
28657.604341291921
 21
1987.749496429288
 31
0.0
  0
LINE
  5
761DA
  8
YODOROGO
 10
29073.604341291921
 20
2027.749496429288
 30
0.0
 11
29001.60434129191
 21
2027.749496429288
 31
0.0
  0
LINE
  5
761DB
  8
YODOROGO
 10
29261.604341291921
 20
2007.749496429288
 30
0.0
 11
29197.604341291921
 21
2007.749496429288
 31
0.0
  0
LINE
  5
761DC
  8
YODOROGO
 10
29457.604341291921
 20
2027.749496429288
 30
0.0
 11
29385.604341291921
 21
2027.749496429288
 31
0.0
  0
LINE
  5
761DD
  8
YODOROGO
 10
29673.604341291921
 20
1707.749496429288
 30
0.0
 11
29673.604341291921
 21
1771.749496429288
 31
0.0
1001
AUTOCAD_POSTSCRIPT_FIGURE
1002
{
1000
PSFILL
1000
Grayscale
1000
Grayscale
1070
    25
1002
}
  0
LINE
  5
761DE
  8
YODOROGO
 10
29617.604341291921
 20
1707.749496429288
 30
0.0
 11
29673.604341291921
 21
1707.749496429288
 31
0.0
1001
AUTOCAD_POSTSCRIPT_FIGURE
1002
{
1000
PSFILL
1000
Grayscale
1000
Grayscale
1070
    25
1002
}
  0
LINE
  5
761DF
  8
YODOROGO
 10
29617.604341291921
 20
1819.749496429288
 30
0.0
 11
29617.604341291921
 21
1707.749496429288
 31
0.0
1001
AUTOCAD_POSTSCRIPT_FIGURE
1002
{
1000
PSFILL
1000
Grayscale
1000
Grayscale
1070
    25
1002
}
  0
LINE
  5
761E0
  8
YODOROGO
 10
29765.604341291921
 20
1819.749496429288
 30
0.0
 11
29617.604341291921
 21
1819.749496429288
 31
0.0
1001
AUTOCAD_POSTSCRIPT_FIGURE
1002
{
1000
PSFILL
1000
Grayscale
1000
Grayscale
1070
    25
1002
}
  0
LINE
  5
761E1
  8
YODOROGO
 10
29765.604341291921
 20
1859.749496429288
 30
0.0
 11
29765.604341291921
 21
1819.749496429288
 31
0.0
1001
AUTOCAD_POSTSCRIPT_FIGURE
1002
{
1000
PSFILL
1000
Grayscale
1000
Grayscale
1070
    25
1002
}
  0
LINE
  5
761E2
  8
YODOROGO
 10
29617.604341291921
 20
1859.749496429288
 30
0.0
 11
29765.604341291921
 21
1859.749496429288
 31
0.0
1001
AUTOCAD_POSTSCRIPT_FIGURE
1002
{
1000
PSFILL
1000
Grayscale
1000
Grayscale
1070
    25
1002
}
  0
LINE
  5
761E3
  8
YODOROGO
 10
29617.604341291921
 20
1907.7494964292871
 30
0.0
 11
29617.604341291921
 21
1859.749496429288
 31
0.0
1001
AUTOCAD_POSTSCRIPT_FIGURE
1002
{
1000
PSFILL
1000
Grayscale
1000
Grayscale
1070
    25
1002
}
  0
LINE
  5
761E4
  8
YODOROGO
 10
29765.604341291921
 20
1907.7494964292871
 30
0.0
 11
29617.604341291921
 21
1907.7494964292871
 31
0.0
1001
AUTOCAD_POSTSCRIPT_FIGURE
1002
{
1000
PSFILL
1000
Grayscale
1000
Grayscale
1070
    25
1002
}
  0
LINE
  5
761E5
  8
YODOROGO
 10
29765.604341291921
 20
1947.749496429288
 30
0.0
 11
29765.604341291921
 21
1907.7494964292871
 31
0.0
1001
AUTOCAD_POSTSCRIPT_FIGURE
1002
{
1000
PSFILL
1000
Grayscale
1000
Grayscale
1070
    25
1002
}
  0
LINE
  5
761E6
  8
YODOROGO
 10
29617.604341291921
 20
1947.749496429288
 30
0.0
 11
29765.604341291921
 21
1947.749496429288
 31
0.0
1001
AUTOCAD_POSTSCRIPT_FIGURE
1002
{
1000
PSFILL
1000
Grayscale
1000
Grayscale
1070
    25
1002
}
  0
LINE
  5
761E7
  8
YODOROGO
 10
29617.604341291921
 20
2027.749496429288
 30
0.0
 11
29617.604341291921
 21
1947.749496429288
 31
0.0
1001
AUTOCAD_POSTSCRIPT_FIGURE
1002
{
1000
PSFILL
1000
Grayscale
1000
Grayscale
1070
    25
1002
}
  0
LINE
  5
761E8
  8
YODOROGO
 10
29665.604341291921
 20
2027.749496429288
 30
0.0
 11
29617.604341291921
 21
2027.749496429288
 31
0.0
1001
AUTOCAD_POSTSCRIPT_FIGURE
1002
{
1000
PSFILL
1000
Grayscale
1000
Grayscale
1070
    25
1002
}
  0
LINE
  5
761E9
  8
YODOROGO
 10
29665.604341291921
 20
1995.7494964292871
 30
0.0
 11
29665.604341291921
 21
2027.749496429288
 31
0.0
1001
AUTOCAD_POSTSCRIPT_FIGURE
1002
{
1000
PSFILL
1000
Grayscale
1000
Grayscale
1070
    25
1002
}
  0
LINE
  5
761EA
  8
YODOROGO
 10
29765.604341291921
 20
1995.7494964292871
 30
0.0
 11
29665.604341291921
 21
1995.7494964292871
 31
0.0
1001
AUTOCAD_POSTSCRIPT_FIGURE
1002
{
1000
PSFILL
1000
Grayscale
1000
Grayscale
1070
    25
1002
}
  0
LINE
  5
761EB
  8
YODOROGO
 10
29765.604341291921
 20
2027.749496429288
 30
0.0
 11
29765.604341291921
 21
1995.7494964292871
 31
0.0
1001
AUTOCAD_POSTSCRIPT_FIGURE
1002
{
1000
PSFILL
1000
Grayscale
1000
Grayscale
1070
    25
1002
}
  0
LINE
  5
761EC
  8
YODOROGO
 10
29829.604341291921
 20
2027.749496429288
 30
0.0
 11
29765.604341291921
 21
2027.749496429288
 31
0.0
1001
AUTOCAD_POSTSCRIPT_FIGURE
1002
{
1000
PSFILL
1000
Grayscale
1000
Grayscale
1070
    25
1002
}
  0
LINE
  5
761ED
  8
YODOROGO
 10
29829.604341291921
 20
1995.7494964292871
 30
0.0
 11
29829.604341291921
 21
2027.749496429288
 31
0.0
1001
AUTOCAD_POSTSCRIPT_FIGURE
1002
{
1000
PSFILL
1000
Grayscale
1000
Grayscale
1070
    25
1002
}
  0
LINE
  5
761EE
  8
YODOROGO
 10
29829.604341291921
 20
1907.7494964292871
 30
0.0
 11
29829.604341291921
 21
1947.749496429288
 31
0.0
1001
AUTOCAD_POSTSCRIPT_FIGURE
1002
{
1000
PSFILL
1000
Grayscale
1000
Grayscale
1070
    25
1002
}
  0
LINE
  5
761EF
  8
YODOROGO
 10
29829.604341291921
 20
1819.749496429288
 30
0.0
 11
29829.604341291921
 21
1859.749496429288
 31
0.0
1001
AUTOCAD_POSTSCRIPT_FIGURE
1002
{
1000
PSFILL
1000
Grayscale
1000
Grayscale
1070
    25
1002
}
  0
LINE
  5
761F0
  8
YODOROGO
 10
29921.60434129191
 20
1771.749496429288
 30
0.0
 11
29921.60434129191
 21
1707.749496429288
 31
0.0
1001
AUTOCAD_POSTSCRIPT_FIGURE
1002
{
1000
PSFILL
1000
Grayscale
1000
Grayscale
1070
    25
1002
}
  0
LINE
  5
761F1
  8
YODOROGO
 10
29829.604341291921
 20
1771.749496429288
 30
0.0
 11
29921.60434129191
 21
1771.749496429288
 31
0.0
1001
AUTOCAD_POSTSCRIPT_FIGURE
1002
{
1000
PSFILL
1000
Grayscale
1000
Grayscale
1070
    25
1002
}
  0
LINE
  5
761F2
  8
YODOROGO
 10
29829.604341291921
 20
1707.749496429288
 30
0.0
 11
29829.604341291921
 21
1771.749496429288
 31
0.0
1001
AUTOCAD_POSTSCRIPT_FIGURE
1002
{
1000
PSFILL
1000
Grayscale
1000
Grayscale
1070
    25
1002
}
  0
LINE
  5
761F3
  8
YODOROGO
 10
29765.604341291921
 20
1707.749496429288
 30
0.0
 11
29829.604341291921
 21
1707.749496429288
 31
0.0
1001
AUTOCAD_POSTSCRIPT_FIGURE
1002
{
1000
PSFILL
1000
Grayscale
1000
Grayscale
1070
    25
1002
}
  0
LINE
  5
761F4
  8
YODOROGO
 10
29765.604341291921
 20
1771.749496429288
 30
0.0
 11
29765.604341291921
 21
1707.749496429288
 31
0.0
1001
AUTOCAD_POSTSCRIPT_FIGURE
1002
{
1000
PSFILL
1000
Grayscale
1000
Grayscale
1070
    25
1002
}
  0
LINE
  5
761F5
  8
YODOROGO
 10
29673.604341291921
 20
1771.749496429288
 30
0.0
 11
29765.604341291921
 21
1771.749496429288
 31
0.0
1001
AUTOCAD_POSTSCRIPT_FIGURE
1002
{
1000
PSFILL
1000
Grayscale
1000
Grayscale
1070
    25
1002
}
  0
ARC
  5
761F6
  8
YODOROGO
 10
31059.517893357912
 20
1602.6807375155761
 30
0.0
 40
178.22128111072149
 50
281.02627495425361
 51
357.77113575573799
  0
LINE
  5
761F7
  8
YODOROGO
 10
31413.604341291921
 20
1907.7494964292871
 30
0.0
 11
31165.604341291921
 21
1907.7494964292871
 31
0.0
  0
LINE
  5
761F8
  8
YODOROGO
 10
31413.604341291921
 20
2027.749496429288
 30
0.0
 11
31165.604341291921
 21
2027.749496429288
 31
0.0
  0
LINE
  5
761F9
  8
YODOROGO
 10
31165.604341291921
 20
1963.7494964292871
 30
0.0
 11
31413.604341291921
 21
1963.7494964292871
 31
0.0
  0
LINE
  5
761FA
  8
YODOROGO
 10
30791.604341291921
 20
1563.7494964292871
 30
0.0
 11
30791.604341291921
 21
1755.7494964292871
 31
0.0
  0
LINE
  5
761FB
  8
YODOROGO
 10
30763.604341291921
 20
1691.7494964292889
 30
0.0
 11
30763.604341291921
 21
1563.7494964292871
 31
0.0
  0
LINE
  5
761FC
  8
YODOROGO
 10
30723.604341291921
 20
1491.7494964292889
 30
0.0
 11
30723.604341291921
 21
1691.7494964292889
 31
0.0
  0
LINE
  5
761FD
  8
YODOROGO
 10
30899.604341291932
 20
1691.7494964292889
 30
0.0
 11
30899.604341291932
 21
1491.7494964292889
 31
0.0
  0
LINE
  5
761FE
  8
YODOROGO
 10
30859.604341291932
 20
1563.7494964292871
 30
0.0
 11
30859.604341291932
 21
1691.7494964292889
 31
0.0
  0
LINE
  5
761FF
  8
YODOROGO
 10
30831.604341291921
 20
1755.7494964292871
 30
0.0
 11
30831.604341291921
 21
1563.7494964292871
 31
0.0
  0
LINE
  5
76200
  8
YODOROGO
 10
30973.604341291921
 20
2027.749496429288
 30
0.0
 11
30973.604341291921
 21
1467.749496429288
 31
0.0
  0
LINE
  5
76201
  8
YODOROGO
 10
30645.604341291921
 20
1427.749496429288
 30
0.0
 11
30645.604341291921
 21
2027.749496429288
 31
0.0
  0
LINE
  5
76202
  8
YODOROGO
 10
30697.604341291932
 20
1963.7494964292871
 30
0.0
 11
30697.604341291932
 21
1427.749496429288
 31
0.0
  0
LINE
  5
76203
  8
YODOROGO
 10
30925.604341291921
 20
1547.749496429288
 30
0.0
 11
30925.604341291921
 21
1963.7494964292871
 31
0.0
  0
LINE
  5
76204
  8
YODOROGO
 10
30381.604341291932
 20
1627.749496429288
 30
0.0
 11
30381.604341291932
 21
1679.749496429288
 31
0.0
  0
LINE
  5
76205
  8
YODOROGO
 10
30617.604341291921
 20
1679.749496429288
 30
0.0
 11
30617.604341291921
 21
1627.749496429288
 31
0.0
  0
LINE
  5
76206
  8
YODOROGO
 10
31165.604341291921
 20
1907.7494964292871
 30
0.0
 11
31165.604341291921
 21
1635.7494964292871
 31
0.0
  0
LINE
  5
76207
  8
YODOROGO
 10
29949.604341291921
 20
1667.749496429288
 30
0.0
 11
29949.604341291921
 21
1707.749496429288
 31
0.0
  0
LINE
  5
76208
  8
YODOROGO
 10
29949.604341291921
 20
1667.749496429288
 30
0.0
 11
29949.604341291921
 21
1707.749496429288
 31
0.0
  0
ARC
  5
76209
  8
YODOROGO
 10
30537.604341291921
 20
1507.749496429288
 30
0.0
 40
80.0
 50
270.0
 51
0.0
  0
LINE
  5
7620A
  8
YODOROGO
 10
30569.604341291921
 20
1599.749496429288
 30
0.0
 11
30617.604341291921
 21
1599.749496429288
 31
0.0
  0
LINE
  5
7620B
  8
YODOROGO
 10
30617.604341291921
 20
1627.749496429288
 30
0.0
 11
30529.604341291932
 21
1627.749496429288
 31
0.0
  0
LINE
  5
7620C
  8
YODOROGO
 10
30217.604341291921
 20
1667.749496429288
 30
0.0
 11
29949.604341291921
 21
1667.749496429288
 31
0.0
  0
LINE
  5
7620D
  8
YODOROGO
 10
30217.604341291921
 20
1627.749496429288
 30
0.0
 11
30217.604341291921
 21
1667.749496429288
 31
0.0
  0
LINE
  5
7620E
  8
YODOROGO
 10
30017.604341291921
 20
1627.749496429288
 30
0.0
 11
30217.604341291921
 21
1627.749496429288
 31
0.0
  0
ARC
  5
7620F
  8
YODOROGO
 10
30230.058828701371
 20
1868.8857149529019
 30
0.0
 40
321.37763628522828
 50
228.6181454618993
 51
245.660289248906
  0
LINE
  5
76210
  8
YODOROGO
 10
30105.604341291921
 20
1603.7494964292889
 30
0.0
 11
30097.604341291961
 21
1576.0728158699001
 31
0.0
  0
LINE
  5
76211
  8
YODOROGO
 10
30189.604341291921
 20
1603.7494964292889
 30
0.0
 11
30105.604341291921
 21
1603.7494964292889
 31
0.0
  0
LINE
  5
76212
  8
YODOROGO
 10
30177.604341291921
 20
1551.817722473427
 30
0.0
 11
30189.604341291921
 21
1603.7494964292889
 31
0.0
  0
ARC
  5
76213
  8
YODOROGO
 10
30230.058828700461
 20
1868.8857149530029
 30
0.0
 40
321.37763628529092
 50
260.60629297969928
 51
267.77903556555862
  0
LINE
  5
76214
  8
YODOROGO
 10
30217.604341291921
 20
1427.749496429285
 30
0.0
 11
30217.604341291921
 21
1547.749496429288
 31
0.0
  0
LINE
  5
76215
  8
YODOROGO
 10
29937.604341291932
 20
1481.339334915511
 30
0.0
 11
29937.604341291921
 21
1594.531090531141
 31
0.0
  0
LINE
  5
76216
  8
YODOROGO
 10
30217.604341291921
 20
1667.749496429288
 30
0.0
 11
29949.604341291921
 21
1667.749496429288
 31
0.0
  0
LINE
  5
76217
  8
YODOROGO
 10
30217.604341291921
 20
1627.749496429288
 30
0.0
 11
30217.604341291921
 21
1667.749496429288
 31
0.0
  0
LINE
  5
76218
  8
YODOROGO
 10
30017.604341291921
 20
1627.749496429288
 30
0.0
 11
30217.604341291921
 21
1627.749496429288
 31
0.0
  0
ARC
  5
76219
  8
YODOROGO
 10
30230.058828701371
 20
1868.8857149529019
 30
0.0
 40
321.37763628522828
 50
228.6181454618993
 51
245.660289248906
  0
LINE
  5
7621A
  8
YODOROGO
 10
30105.604341291921
 20
1603.7494964292889
 30
0.0
 11
30097.604341291961
 21
1576.0728158699001
 31
0.0
  0
LINE
  5
7621B
  8
YODOROGO
 10
30189.604341291921
 20
1603.7494964292889
 30
0.0
 11
30105.604341291921
 21
1603.7494964292889
 31
0.0
  0
LINE
  5
7621C
  8
YODOROGO
 10
30177.604341291921
 20
1551.817722473427
 30
0.0
 11
30189.604341291921
 21
1603.7494964292889
 31
0.0
  0
ARC
  5
7621D
  8
YODOROGO
 10
30230.058828700461
 20
1868.8857149530029
 30
0.0
 40
321.37763628529092
 50
260.60629297969928
 51
267.77903556555862
  0
LINE
  5
7621E
  8
YODOROGO
 10
30217.604341291921
 20
1427.749496429285
 30
0.0
 11
30217.604341291921
 21
1547.749496429288
 31
0.0
  0
LINE
  5
7621F
  8
YODOROGO
 10
29937.604341291932
 20
1481.339334915511
 30
0.0
 11
29937.604341291921
 21
1594.531090531141
 31
0.0
  0
LINE
  5
76220
  8
YODOROGO
 10
30433.604341291932
 20
1573.7494964292889
 30
0.0
 11
30381.604341291932
 21
1573.7494964292889
 31
0.0
  0
LINE
  5
76221
  8
YODOROGO
 10
30433.604341291932
 20
1601.749496429286
 30
0.0
 11
30433.604341291932
 21
1573.7494964292889
 31
0.0
  0
LINE
  5
76222
  8
YODOROGO
 10
30381.604341291932
 20
1601.749496429286
 30
0.0
 11
30433.604341291932
 21
1601.749496429286
 31
0.0
  0
LINE
  5
76223
  8
YODOROGO
 10
30381.604341291932
 20
1573.7494964292889
 30
0.0
 11
30381.604341291932
 21
1601.749496429286
 31
0.0
  0
LINE
  5
76224
  8
YODOROGO
 10
30429.604341291921
 20
1577.7494964292871
 30
0.0
 11
30385.604341291932
 21
1577.7494964292871
 31
0.0
  0
LINE
  5
76225
  8
YODOROGO
 10
30429.604341291921
 20
1597.749496429288
 30
0.0
 11
30429.604341291921
 21
1577.7494964292871
 31
0.0
  0
LINE
  5
76226
  8
YODOROGO
 10
30385.604341291932
 20
1597.749496429288
 30
0.0
 11
30429.604341291921
 21
1597.749496429288
 31
0.0
  0
LINE
  5
76227
  8
YODOROGO
 10
30385.604341291932
 20
1577.7494964292871
 30
0.0
 11
30385.604341291932
 21
1597.749496429288
 31
0.0
  0
LINE
  5
76228
  8
YODOROGO
 10
30425.604341291921
 20
1581.749496429286
 30
0.0
 11
30389.604341291932
 21
1581.749496429286
 31
0.0
  0
LINE
  5
76229
  8
YODOROGO
 10
30425.604341291932
 20
1593.7494964292889
 30
0.0
 11
30425.604341291921
 21
1581.749496429286
 31
0.0
  0
LINE
  5
7622A
  8
YODOROGO
 10
30389.604341291932
 20
1593.7494964292889
 30
0.0
 11
30425.604341291932
 21
1593.7494964292889
 31
0.0
  0
LINE
  5
7622B
  8
YODOROGO
 10
30389.604341291932
 20
1581.749496429286
 30
0.0
 11
30389.604341291932
 21
1593.7494964292889
 31
0.0
  0
LINE
  5
7622C
  8
YODOROGO
 10
30421.604341291932
 20
1585.7494964292871
 30
0.0
 11
30393.604341291932
 21
1585.7494964292871
 31
0.0
  0
LINE
  5
7622D
  8
YODOROGO
 10
30421.604341291932
 20
1589.749496429288
 30
0.0
 11
30421.604341291932
 21
1585.7494964292871
 31
0.0
  0
LINE
  5
7622E
  8
YODOROGO
 10
30393.604341291932
 20
1589.749496429288
 30
0.0
 11
30421.604341291932
 21
1589.749496429288
 31
0.0
  0
LINE
  5
7622F
  8
YODOROGO
 10
30393.604341291932
 20
1585.7494964292871
 30
0.0
 11
30393.604341291932
 21
1589.749496429288
 31
0.0
  0
LINE
  5
76230
  8
YODOROGO
 10
30465.604341291921
 20
1627.749496429288
 30
0.0
 11
30381.604341291932
 21
1627.749496429288
 31
0.0
  0
LINE
  5
76231
  8
YODOROGO
 10
30465.604341291921
 20
1547.749496429288
 30
0.0
 11
30465.604341291921
 21
1627.749496429288
 31
0.0
  0
LINE
  5
76232
  8
YODOROGO
 10
30381.604341291932
 20
1547.749496429288
 30
0.0
 11
30465.604341291921
 21
1547.749496429288
 31
0.0
  0
LINE
  5
76233
  8
YODOROGO
 10
30381.604341291932
 20
1427.749496429288
 30
0.0
 11
30381.604341291932
 21
1547.749496429288
 31
0.0
  0
LINE
  5
76234
  8
YODOROGO
 10
30537.604341291921
 20
1427.749496429288
 30
0.0
 11
30381.604341291932
 21
1427.749496429288
 31
0.0
  0
LINE
  5
76235
  8
YODOROGO
 10
30569.604341291921
 20
1571.749496429286
 30
0.0
 11
30569.604341291921
 21
1599.749496429288
 31
0.0
  0
ARC
  5
76236
  8
YODOROGO
 10
30545.60434129191
 20
1571.749496429291
 30
0.0
 40
24.000000000003752
 50
270.0
 51
359.99999999998778
  0
LINE
  5
76237
  8
YODOROGO
 10
30529.604341291932
 20
1547.749496429288
 30
0.0
 11
30545.60434129191
 21
1547.749496429288
 31
0.0
  0
LINE
  5
76238
  8
YODOROGO
 10
30529.604341291932
 20
1627.749496429288
 30
0.0
 11
30529.604341291932
 21
1547.749496429288
 31
0.0
  0
LINE
  5
76239
  8
YODOROGO
 10
30899.604341291932
 20
1547.749496429288
 30
0.0
 11
30925.604341291921
 21
1547.749496429288
 31
0.0
  0
LINE
  5
7623A
  8
YODOROGO
 10
30933.604341291921
 20
1427.749496429288
 30
0.0
 11
30899.604341291932
 21
1427.749496429288
 31
0.0
  0
LINE
  5
7623B
  8
YODOROGO
 10
30763.604341291921
 20
1563.7494964292871
 30
0.0
 11
30791.604341291921
 21
1563.7494964292871
 31
0.0
  0
LINE
  5
7623C
  8
YODOROGO
 10
30899.604341291932
 20
1491.7494964292889
 30
0.0
 11
30723.604341291921
 21
1491.7494964292889
 31
0.0
  0
LINE
  5
7623D
  8
YODOROGO
 10
30831.604341291921
 20
1563.7494964292871
 30
0.0
 11
30859.604341291932
 21
1563.7494964292871
 31
0.0
  0
LINE
  5
7623E
  8
YODOROGO
 10
30899.604341291932
 20
1427.749496429288
 30
0.0
 11
30899.604341291932
 21
1547.749496429288
 31
0.0
  0
LINE
  5
7623F
  8
YODOROGO
 10
30697.604341291932
 20
1427.749496429288
 30
0.0
 11
30645.604341291921
 21
1427.749496429288
 31
0.0
  0
LINE
  5
76240
  8
YODOROGO
 10
30617.604341291921
 20
1599.749496429288
 30
0.0
 11
30617.604341291921
 21
1507.749496429288
 31
0.0
  0
ARC
  5
76241
  8
YODOROGO
 10
30933.604341291921
 20
1467.749496429288
 30
0.0
 40
40.0
 50
270.0
 51
0.0
  0
LINE
  5
76242
  8
YODOROGO
 10
31093.604341291921
 20
1523.7494964292871
 30
0.0
 11
31093.604341291921
 21
1427.749496429288
 31
0.0
  0
ARC
  5
76243
  8
YODOROGO
 10
31039.721395566779
 20
1637.5313901097329
 30
0.0
 40
125.8955565916754
 50
295.34052442160112
 51
359.18902303418668
  0
LINE
  5
76244
  8
YODOROGO
 10
30617.604341291921
 20
1859.749496429288
 30
0.0
 11
30497.604341291921
 21
1939.749496429288
 31
0.0
  0
LINE
  5
76245
  8
YODOROGO
 10
30497.604341291921
 20
2027.749496429288
 30
0.0
 11
30617.604341291921
 21
1947.749496429288
 31
0.0
  0
LINE
  5
76246
  8
YODOROGO
 10
30529.604341291932
 20
1679.749496429288
 30
0.0
 11
30617.604341291921
 21
1679.749496429288
 31
0.0
  0
LINE
  5
76247
  8
YODOROGO
 10
30617.604341291921
 20
1735.7494964292871
 30
0.0
 11
30529.604341291932
 21
1735.7494964292871
 31
0.0
  0
LINE
  5
76248
  8
YODOROGO
 10
30381.604341291932
 20
1795.7494964292871
 30
0.0
 11
30617.604341291921
 21
1795.7494964292871
 31
0.0
  0
LINE
  5
76249
  8
YODOROGO
 10
30081.604341291932
 20
2027.749496429288
 30
0.0
 11
30021.604341291921
 21
2027.749496429288
 31
0.0
  0
LINE
  5
7624A
  8
YODOROGO
 10
30081.604341291932
 20
1827.7494964292871
 30
0.0
 11
30081.604341291932
 21
2027.749496429288
 31
0.0
  0
LINE
  5
7624B
  8
YODOROGO
 10
30021.604341291921
 20
1827.7494964292871
 30
0.0
 11
30081.604341291932
 21
1827.7494964292871
 31
0.0
  0
LINE
  5
7624C
  8
YODOROGO
 10
30021.604341291921
 20
2027.749496429288
 30
0.0
 11
30021.604341291921
 21
1827.7494964292871
 31
0.0
  0
LINE
  5
7624D
  8
YODOROGO
 10
30161.604341291932
 20
2027.749496429288
 30
0.0
 11
30217.604341291921
 21
2027.749496429288
 31
0.0
  0
LINE
  5
7624E
  8
YODOROGO
 10
30161.604341291932
 20
1811.7494964292889
 30
0.0
 11
30161.604341291932
 21
2027.749496429288
 31
0.0
  0
ARC
  5
7624F
  8
YODOROGO
 10
30121.604341291932
 20
1811.7494964292889
 30
0.0
 40
40.0
 50
270.0
 51
0.0
  0
LINE
  5
76250
  8
YODOROGO
 10
30021.604341291921
 20
1771.749496429288
 30
0.0
 11
30121.604341291932
 21
1771.749496429288
 31
0.0
  0
LINE
  5
76251
  8
YODOROGO
 10
30021.604341291921
 20
1707.749496429288
 30
0.0
 11
30021.604341291921
 21
1771.749496429288
 31
0.0
  0
LINE
  5
76252
  8
YODOROGO
 10
30137.604341291921
 20
1707.749496429288
 30
0.0
 11
30021.604341291921
 21
1707.749496429288
 31
0.0
  0
ARC
  5
76253
  8
YODOROGO
 10
30137.604341291921
 20
1787.749496429288
 30
0.0
 40
80.0
 50
270.0
 51
0.0
  0
LINE
  5
76254
  8
YODOROGO
 10
30217.604341291921
 20
2027.749496429288
 30
0.0
 11
30217.604341291921
 21
1787.749496429288
 31
0.0
  0
LINE
  5
76255
  8
YODOROGO
 10
29977.604341291921
 20
1947.749496429288
 30
0.0
 11
29977.604341291921
 21
1995.7494964292871
 31
0.0
1001
AUTOCAD_POSTSCRIPT_FIGURE
1002
{
1000
PSFILL
1000
Grayscale
1000
Grayscale
1070
    25
1002
}
  0
LINE
  5
76256
  8
YODOROGO
 10
29977.604341291921
 20
1859.749496429288
 30
0.0
 11
29977.604341291921
 21
1907.7494964292871
 31
0.0
1001
AUTOCAD_POSTSCRIPT_FIGURE
1002
{
1000
PSFILL
1000
Grayscale
1000
Grayscale
1070
    25
1002
}
  0
LINE
  5
76257
  8
YODOROGO
 10
29977.604341291921
 20
1707.749496429288
 30
0.0
 11
29977.604341291921
 21
1819.749496429288
 31
0.0
1001
AUTOCAD_POSTSCRIPT_FIGURE
1002
{
1000
PSFILL
1000
Grayscale
1000
Grayscale
1070
    25
1002
}
  0
LINE
  5
76258
  8
YODOROGO
 10
30381.604341291932
 20
1907.7494964292871
 30
0.0
 11
30497.604341291921
 21
2027.749496429288
 31
0.0
  0
LINE
  5
76259
  8
YODOROGO
 10
30381.604341291932
 20
1819.749496429288
 30
0.0
 11
30381.604341291932
 21
1907.7494964292871
 31
0.0
  0
LINE
  5
7625A
  8
YODOROGO
 10
30497.604341291921
 20
1939.749496429288
 30
0.0
 11
30381.604341291932
 21
1819.749496429288
 31
0.0
  0
LINE
  5
7625B
  8
YODOROGO
 10
30465.604341291921
 20
1679.749496429288
 30
0.0
 11
30465.604341291921
 21
1735.7494964292871
 31
0.0
  0
LINE
  5
7625C
  8
YODOROGO
 10
30381.604341291932
 20
1679.749496429288
 30
0.0
 11
30465.604341291921
 21
1679.749496429288
 31
0.0
  0
LINE
  5
7625D
  8
YODOROGO
 10
30529.604341291932
 20
1735.7494964292871
 30
0.0
 11
30529.604341291932
 21
1679.749496429288
 31
0.0
  0
LINE
  5
7625E
  8
YODOROGO
 10
30381.604341291932
 20
1735.7494964292871
 30
0.0
 11
30381.604341291932
 21
1795.7494964292871
 31
0.0
  0
LINE
  5
7625F
  8
YODOROGO
 10
30465.604341291921
 20
1735.7494964292871
 30
0.0
 11
30381.604341291932
 21
1735.7494964292871
 31
0.0
  0
LINE
  5
76260
  8
YODOROGO
 10
30645.604341291921
 20
2027.749496429288
 30
0.0
 11
30973.604341291921
 21
2027.749496429288
 31
0.0
  0
LINE
  5
76261
  8
YODOROGO
 10
30925.604341291921
 20
1963.7494964292871
 30
0.0
 11
30697.604341291932
 21
1963.7494964292871
 31
0.0
  0
LINE
  5
76262
  8
YODOROGO
 10
30873.604341291921
 20
1819.749496429288
 30
0.0
 11
30899.604341291932
 21
1819.749496429288
 31
0.0
  0
LINE
  5
76263
  8
YODOROGO
 10
30899.604341291932
 20
1939.749496429288
 30
0.0
 11
30873.604341291921
 21
1819.749496429288
 31
0.0
  0
LINE
  5
76264
  8
YODOROGO
 10
30851.604341291932
 20
1939.749496429288
 30
0.0
 11
30899.604341291932
 21
1939.749496429288
 31
0.0
  0
LINE
  5
76265
  8
YODOROGO
 10
30825.604341291921
 20
1819.749496429288
 30
0.0
 11
30851.604341291932
 21
1939.749496429288
 31
0.0
  0
LINE
  5
76266
  8
YODOROGO
 10
30797.604341291921
 20
1819.749496429288
 30
0.0
 11
30825.604341291921
 21
1819.749496429288
 31
0.0
  0
LINE
  5
76267
  8
YODOROGO
 10
30771.604341291932
 20
1939.749496429288
 30
0.0
 11
30797.604341291921
 21
1819.749496429288
 31
0.0
  0
LINE
  5
76268
  8
YODOROGO
 10
30723.604341291921
 20
1939.749496429288
 30
0.0
 11
30771.604341291932
 21
1939.749496429288
 31
0.0
  0
LINE
  5
76269
  8
YODOROGO
 10
30749.604341291921
 20
1819.749496429288
 30
0.0
 11
30723.604341291921
 21
1939.749496429288
 31
0.0
  0
LINE
  5
7626A
  8
YODOROGO
 10
30723.604341291921
 20
1819.749496429288
 30
0.0
 11
30749.604341291921
 21
1819.749496429288
 31
0.0
  0
LINE
  5
7626B
  8
YODOROGO
 10
30723.604341291921
 20
1755.7494964292871
 30
0.0
 11
30723.604341291921
 21
1819.749496429288
 31
0.0
  0
LINE
  5
7626C
  8
YODOROGO
 10
30899.604341291932
 20
1755.7494964292871
 30
0.0
 11
30723.604341291921
 21
1755.7494964292871
 31
0.0
  0
LINE
  5
7626D
  8
YODOROGO
 10
30899.604341291932
 20
1819.749496429288
 30
0.0
 11
30899.604341291932
 21
1755.7494964292871
 31
0.0
  0
LINE
  5
7626E
  8
YODOROGO
 10
30617.604341291921
 20
1947.749496429288
 30
0.0
 11
30617.604341291921
 21
1859.749496429288
 31
0.0
  0
LINE
  5
7626F
  8
YODOROGO
 10
30791.604341291921
 20
1755.7494964292871
 30
0.0
 11
30831.604341291921
 21
1755.7494964292871
 31
0.0
  0
LINE
  5
76270
  8
YODOROGO
 10
30723.604341291921
 20
1691.7494964292889
 30
0.0
 11
30763.604341291921
 21
1691.7494964292889
 31
0.0
  0
LINE
  5
76271
  8
YODOROGO
 10
30859.604341291932
 20
1691.7494964292889
 30
0.0
 11
30899.604341291932
 21
1691.7494964292889
 31
0.0
  0
LINE
  5
76272
  8
YODOROGO
 10
30617.604341291921
 20
1795.7494964292871
 30
0.0
 11
30617.604341291921
 21
1735.7494964292871
 31
0.0
  0
LINE
  5
76273
  8
YODOROGO
 10
31165.604341291921
 20
2027.749496429288
 30
0.0
 11
31165.604341291921
 21
1963.7494964292871
 31
0.0
  0
LINE
  5
76274
  8
YODOROGO
 10
31533.604341291921
 20
1595.7494964292871
 30
0.0
 11
31533.60434129191
 21
1811.7494964292889
 31
0.0
  0
LINE
  5
76275
  8
YODOROGO
 10
31461.60434129191
 20
1987.749496429288
 30
0.0
 11
31461.60434129191
 21
1635.7494964292871
 31
0.0
  0
LINE
  5
76276
  8
YODOROGO
 10
31653.604341291921
 20
1427.749496429288
 30
0.0
 11
31653.60434129191
 21
1811.7494964292889
 31
0.0
  0
LINE
  5
76277
  8
YODOROGO
 10
31589.604341291921
 20
1811.7494964292889
 30
0.0
 11
31589.604341291921
 21
1427.749496429288
 31
0.0
  0
LINE
  5
76278
  8
YODOROGO
 10
31237.604341291921
 20
1595.7494964292871
 30
0.0
 11
31237.604341291921
 21
1707.749496429288
 31
0.0
  0
ARC
  5
76279
  8
YODOROGO
 10
31353.914865116069
 20
1607.790351288558
 30
0.0
 40
180.09244857598861
 50
268.62849102169793
 51
356.16638457330322
  0
LINE
  5
7627A
  8
YODOROGO
 10
31349.604341291932
 20
1527.749496429288
 30
0.0
 11
31349.604341291932
 21
1427.749496429288
 31
0.0
  0
ARC
  5
7627B
  8
YODOROGO
 10
31351.518075724562
 20
1637.838957017655
 30
0.0
 40
110.1060929836122
 50
269.00410209305937
 51
358.91264455492478
  0
LINE
  5
7627C
  8
YODOROGO
 10
31589.604341291921
 20
1427.749496429288
 30
0.0
 11
31653.604341291921
 21
1427.749496429288
 31
0.0
  0
LINE
  5
7627D
  8
YODOROGO
 10
31533.60434129191
 20
1811.7494964292889
 30
0.0
 11
31589.604341291921
 21
1811.7494964292889
 31
0.0
  0
LINE
  5
7627E
  8
YODOROGO
 10
31621.604341291932
 20
1987.749496429288
 30
0.0
 11
31461.60434129191
 21
1987.749496429288
 31
0.0
  0
LINE
  5
7627F
  8
YODOROGO
 10
31533.60434129191
 20
1915.7494964292871
 30
0.0
 11
31661.604341291932
 21
1915.7494964292871
 31
0.0
  0
LINE
  5
76280
  8
YODOROGO
 10
31701.604341291932
 20
1875.7494964292871
 30
0.0
 11
31533.60434129191
 21
1875.7494964292871
 31
0.0
  0
LINE
  5
76281
  8
YODOROGO
 10
31237.604341291921
 20
1779.749496429288
 30
0.0
 11
31349.604341291932
 21
1779.749496429288
 31
0.0
  0
LINE
  5
76282
  8
YODOROGO
 10
31237.604341291921
 20
1835.7494964292871
 30
0.0
 11
31237.604341291921
 21
1779.749496429288
 31
0.0
  0
LINE
  5
76283
  8
YODOROGO
 10
31349.604341291932
 20
1835.7494964292871
 30
0.0
 11
31237.604341291921
 21
1835.7494964292871
 31
0.0
  0
LINE
  5
76284
  8
YODOROGO
 10
31349.604341291932
 20
1779.749496429288
 30
0.0
 11
31349.604341291932
 21
1835.7494964292871
 31
0.0
  0
LINE
  5
76285
  8
YODOROGO
 10
31533.60434129191
 20
1875.7494964292871
 30
0.0
 11
31533.60434129191
 21
1915.7494964292871
 31
0.0
  0
LINE
  5
76286
  8
YODOROGO
 10
31413.604341291921
 20
1707.749496429288
 30
0.0
 11
31413.604341291921
 21
1907.7494964292871
 31
0.0
  0
LINE
  5
76287
  8
YODOROGO
 10
31237.604341291921
 20
1707.749496429288
 30
0.0
 11
31413.604341291921
 21
1707.749496429288
 31
0.0
  0
LINE
  5
76288
  8
YODOROGO
 10
31413.604341291921
 20
1963.7494964292871
 30
0.0
 11
31413.604341291921
 21
2027.749496429288
 31
0.0
  0
ARC
  5
76289
  8
YODOROGO
 10
31621.604341291932
 20
2003.749496429285
 30
0.0
 40
15.999999999994539
 50
270.0
 51
0.0000000000081422
  0
LINE
  5
7628A
  8
YODOROGO
 10
31637.604341291921
 20
2027.749496429288
 30
0.0
 11
31637.604341291921
 21
2003.7494964292871
 31
0.0
  0
LINE
  5
7628B
  8
YODOROGO
 10
31701.604341291932
 20
2027.749496429288
 30
0.0
 11
31637.604341291921
 21
2027.749496429288
 31
0.0
  0
LINE
  5
7628C
  8
YODOROGO
 10
31701.604341291932
 20
1955.7494964292871
 30
0.0
 11
31701.604341291932
 21
2027.749496429288
 31
0.0
  0
ARC
  5
7628D
  8
YODOROGO
 10
31661.604341291932
 20
1955.7494964292871
 30
0.0
 40
40.0
 50
270.0
 51
0.0
  0
LINE
  5
7628E
  8
YODOROGO
 10
31701.604341291932
 20
1811.7494964292889
 30
0.0
 11
31701.604341291932
 21
1875.7494964292871
 31
0.0
  0
LINE
  5
7628F
  8
YODOROGO
 10
31653.60434129191
 20
1811.7494964292889
 30
0.0
 11
31701.604341291932
 21
1811.7494964292889
 31
0.0
  0
LINE
  5
76290
  8
SUNPOU
 10
16858.500000000029
 20
15838.121500361291
 30
0.0
 11
16858.500000000029
 21
15038.121500361291
 31
0.0
  0
LINE
  5
76291
  8
SUNPOU
 10
22373.500000000011
 20
15838.12150036126
 30
0.0
 11
22373.500000000011
 21
15038.121500361291
 31
0.0
  0
LINE
  5
76292
  8
SUNPOU
 10
16898.500000000029
 20
15118.121500361291
 30
0.0
 11
22333.500000000011
 21
15118.121500361291
 31
0.0
  0
LINE
  5
76296
  8
SUNPOU
 10
11258.50000000004
 20
15838.121500361291
 30
0.0
 11
11258.50000000004
 21
15038.121500361291
 31
0.0
  0
LINE
  5
76297
  8
SUNPOU
 10
16773.500000000011
 20
15838.12150036126
 30
0.0
 11
16773.500000000011
 21
15038.121500361291
 31
0.0
  0
LINE
  5
76298
  8
SUNPOU
 10
11298.50000000004
 20
15118.121500361291
 30
0.0
 11
16733.500000000011
 21
15118.121500361291
 31
0.0
  0
LINE
  5
7629C
  8
SUNPOU
 10
22649.19427045171
 20
19674.40624389955
 30
0.0
 11
25015.399693064559
 21
19674.40624389955
 31
0.0
  0
LINE
  5
7629D
  8
SUNPOU
 10
22614.19427045171
 20
16318.121500361291
 30
0.0
 11
25015.399693064559
 21
16318.121500361291
 31
0.0
  0
LINE
  5
7629E
  8
SUNPOU
 10
24935.399693064559
 20
19634.40624389955
 30
0.0
 11
24935.399693064559
 21
16358.121500361291
 31
0.0
  0
LINE
  5
762A2
  8
SUNPOU
 10
22614.19427045171
 20
16318.121500361291
 30
0.0
 11
23875.581377115261
 21
16318.121500361291
 31
0.0
  0
LINE
  5
762A3
  8
SUNPOU
 10
22446.194270451651
 20
19393.121500361322
 30
0.0
 11
23875.581377115261
 21
19393.121500361322
 31
0.0
  0
LINE
  5
762A4
  8
SUNPOU
 10
23795.581377115261
 20
16358.121500361291
 30
0.0
 11
23795.581377115261
 21
19353.121500361322
 31
0.0
  0
LINE
  5
762A9
  8
SUNPOU
 10
22386.000000000011
 20
14718.121500361291
 30
0.0
 11
22356.000000000011
 21
14718.121500361291
 31
0.0
  0
LINE
  5
762AB
  8
SUNPOU
 10
22386.000000000011
 20
14718.121500361291
 30
0.0
 11
22356.000000000011
 21
14718.121500361291
 31
0.0
  0
LINE
  5
762AD
  8
SUNPOU
 10
19646.0
 20
14718.121500361291
 30
0.0
 11
19676.000000000011
 21
14718.121500361291
 31
0.0
  0
LINE
  5
762AF
  8
SUNPOU
 10
19586.0
 20
14718.121500361291
 30
0.0
 11
19556.000000000011
 21
14718.121500361291
 31
0.0
  0
LINE
  5
762B1
  8
SUNPOU
 10
16846.0
 20
14718.121500361291
 30
0.0
 11
16876.000000000011
 21
14718.121500361291
 31
0.0
  0
LINE
  5
762B3
  8
SUNPOU
 10
10291.000000000009
 20
18958.1215003613
 30
0.0
 11
10291.000000000009
 21
18928.121500361289
 31
0.0
  0
LINE
  5
762B5
  8
SUNPOU
 10
10291.000000000009
 20
16348.121500361291
 30
0.0
 11
10291.000000000009
 21
16378.121500361291
 31
0.0
  0
LINE
  5
762B7
  8
SUNPOU
 10
22546.000000000018
 20
21298.1215003613
 30
0.0
 11
22516.000000000018
 21
21298.1215003613
 31
0.0
  0
LINE
  5
762B9
  8
SUNPOU
 10
22511.000000000011
 20
20898.121500361289
 30
0.0
 11
22481.000000000011
 21
20898.121500361289
 31
0.0
  0
LINE
  5
762BB
  8
SUNPOU
 10
22626.000000000018
 20
20898.121500361289
 30
0.0
 11
22656.000000000011
 21
20898.121500361289
 31
0.0
  0
LINE
  5
762BD
  8
SUNPOU
 10
22511.000000000011
 20
14718.121500361291
 30
0.0
 11
22481.000000000011
 21
14718.121500361291
 31
0.0
  0
LINE
  5
762BF
  8
SUNPOU
 10
16786.000000000011
 20
14718.121500361291
 30
0.0
 11
16756.000000000011
 21
14718.121500361291
 31
0.0
  0
LINE
  5
762C1
  8
SUNPOU
 10
16786.000000000011
 20
14718.121500361291
 30
0.0
 11
16756.000000000011
 21
14718.121500361291
 31
0.0
  0
LINE
  5
762C3
  8
SUNPOU
 10
22511.0
 20
14318.121500361291
 30
0.0
 11
22481.0
 21
14318.121500361291
 31
0.0
  0
LINE
  5
762C5
  8
SUNPOU
 10
11086.0
 20
21298.1215003613
 30
0.0
 11
11116.000000000009
 21
21298.1215003613
 31
0.0
  0
LINE
  5
762C7
  8
SUNPOU
 10
11006.0
 20
20898.121500361289
 30
0.0
 11
10976.000000000009
 21
20898.121500361289
 31
0.0
  0
LINE
  5
762C9
  8
SUNPOU
 10
11121.0
 20
20898.121500361289
 30
0.0
 11
11151.000000000009
 21
20898.121500361289
 31
0.0
  0
LINE
  5
762CB
  8
SUNPOU
 10
9891.0000000000073
 20
20068.1215003613
 30
0.0
 11
9891.0000000000073
 21
20038.1215003613
 31
0.0
  0
LINE
  5
762CD
  8
SUNPOU
 10
13986.0
 20
14718.121500361291
 30
0.0
 11
13956.000000000009
 21
14718.121500361291
 31
0.0
  0
LINE
  5
762CF
  8
SUNPOU
 10
11186.0
 20
14718.121500361291
 30
0.0
 11
11156.000000000009
 21
14718.121500361291
 31
0.0
  0
LINE
  5
762D1
  8
SUNPOU
 10
11246.0
 20
14718.121500361291
 30
0.0
 11
11276.000000000009
 21
14718.121500361291
 31
0.0
  0
LINE
  5
762D3
  8
SUNPOU
 10
11121.0
 20
14718.121500361291
 30
0.0
 11
11151.000000000009
 21
14718.121500361291
 31
0.0
  0
LINE
  5
762D5
  8
SUNPOU
 10
9891.0000000000073
 20
16348.121500361291
 30
0.0
 11
9891.0000000000073
 21
16378.1215003613
 31
0.0
  0
LINE
  5
762D7
  8
SUNPOU
 10
11121.0
 20
14318.121500361291
 30
0.0
 11
11151.000000000009
 21
14318.121500361291
 31
0.0
  0
LINE
  5
762D9
  8
SUNPOU
 10
14046.000000000009
 20
14718.121500361291
 30
0.0
 11
14076.000000000009
 21
14718.121500361291
 31
0.0
  0
LINE
  5
762DB
  8
SUNPOU
 10
11351.99999999998
 20
15518.121500361291
 30
0.0
 11
11381.99999999998
 21
15518.121500361291
 31
0.0
  0
LINE
  5
762DD
  8
SUNPOU
 10
16457.999999999982
 20
15518.121500361291
 30
0.0
 11
16427.999999999982
 21
15518.121500361291
 31
0.0
  0
LINE
  5
762DF
  8
SUNPOU
 10
16951.999999999982
 20
15518.121500361291
 30
0.0
 11
16981.999999999982
 21
15518.121500361291
 31
0.0
  0
LINE
  5
762E1
  8
SUNPOU
 10
22057.999999999982
 20
15518.121500361291
 30
0.0
 11
22027.999999999982
 21
15518.121500361291
 31
0.0
  0
LINE
  5
762E2
  8
SUNPOU
 10
19728.81273525994
 20
6285.2917521017798
 30
0.0
 11
21121.387106663511
 21
6285.2917521017798
 31
0.0
  0
LINE
  5
762E3
  8
SUNPOU
 10
19691.999999999891
 20
9360.2917521018098
 30
0.0
 11
21121.387106663511
 21
9360.291752101808
 31
0.0
  0
LINE
  5
762E4
  8
SUNPOU
 10
21041.387106663511
 20
6325.2917521017798
 30
0.0
 11
21041.387106663511
 21
9320.2917521018062
 31
0.0
  0
LINE
  5
762E8
  8
SUNPOU
 10
16954.268210725339
 20
9772.2466996605654
 30
0.0
 11
18694.503844154951
 21
9772.2466996605654
 31
0.0
  0
LINE
  5
762E9
  8
SUNPOU
 10
17015.999999999949
 20
6285.2917521017798
 30
0.0
 11
18694.503844154951
 21
6285.2917521017798
 31
0.0
  0
LINE
  5
762EA
  8
SUNPOU
 10
18614.503844154951
 20
9732.2466996605654
 30
0.0
 11
18614.50384415494
 21
6325.2917521017789
 31
0.0
  0
LINE
  5
762EE
  8
SUNPOU
 10
16861.733969015339
 20
9852.5517371573878
 30
0.0
 11
16888.143873135861
 21
11023.60767065668
 31
0.0
  0
LINE
  5
762EF
  8
SUNPOU
 10
22670.280187468739
 20
9721.5561593026378
 30
0.0
 11
22696.690091589251
 21
10892.61209280193
 31
0.0
  0
LINE
  5
762F0
  8
SUNPOU
 10
16926.329986469609
 20
10942.726147745319
 30
0.0
 11
22654.896541260408
 21
10813.53428838812
 31
0.0
  0
LINE
  5
762F4
  8
SUNPOU
 10
22748.476468971181
 20
9641.5764956400453
 30
0.0
 11
23292.442872043419
 21
9641.5764956400453
 31
0.0
  0
LINE
  5
762F5
  8
SUNPOU
 10
17015.999999999949
 20
6285.2917521017798
 30
0.0
 11
23292.442872043419
 21
6285.2917521017789
 31
0.0
  0
LINE
  5
762F6
  8
SUNPOU
 10
23212.442872043419
 20
9601.5764956400453
 30
0.0
 11
23212.442872043419
 21
6325.2917521017789
 31
0.0
  0
LINE
  5
762FA
  8
SUNPOU
 10
22358.499999999949
 20
5405.2917521017807
 30
0.0
 11
22358.499999999949
 21
4605.2917521017807
 31
0.0
  0
LINE
  5
762FB
  8
SUNPOU
 10
16858.499999999949
 20
6205.2917521017807
 30
0.0
 11
16858.499999999949
 21
4605.2917521017807
 31
0.0
  0
LINE
  5
762FC
  8
SUNPOU
 10
22318.499999999949
 20
4685.2917521017807
 30
0.0
 11
16898.499999999949
 21
4685.2917521017807
 31
0.0
  0
LINE
  5
76300
  8
SUNPOU
 10
11190.499999999951
 20
6205.2917521017807
 30
0.0
 11
11190.499999999951
 21
4605.2917521017807
 31
0.0
  0
LINE
  5
76301
  8
SUNPOU
 10
16858.499999999949
 20
6205.2917521017807
 30
0.0
 11
16858.499999999949
 21
4605.2917521017807
 31
0.0
  0
LINE
  5
76302
  8
SUNPOU
 10
11230.499999999951
 20
4685.2917521017807
 30
0.0
 11
16818.499999999949
 21
4685.2917521017807
 31
0.0
  0
LINE
  5
76307
  8
SUNPOU
 10
10849.79778538487
 20
10743.707466321061
 30
0.0
 11
10879.696644633539
 21
10746.168810593699
 31
0.0
  0
LINE
  5
76309
  8
SUNPOU
 10
17106.632397489051
 20
11258.78477777578
 30
0.0
 11
17076.73353824038
 21
11256.323433503139
 31
0.0
  0
LINE
  5
7630B
  8
SUNPOU
 10
18049.753093279211
 20
10035.291752101781
 30
0.0
 11
18049.753093279211
 21
10005.291752101781
 31
0.0
  0
LINE
  5
7630D
  8
SUNPOU
 10
18049.753093279211
 20
6315.2917521017807
 30
0.0
 11
18049.753093279211
 21
6345.2917521017807
 31
0.0
  0
LINE
  5
7630F
  8
SUNPOU
 10
10118.352697041881
 20
9515.2917521017807
 30
0.0
 11
10118.352697041881
 21
9485.2917521017807
 31
0.0
  0
LINE
  5
76311
  8
SUNPOU
 10
10118.352697041881
 20
6315.2917521017807
 30
0.0
 11
10118.352697041881
 21
6345.2917521017807
 31
0.0
  0
ARC
  5
76312
  8
SUNPOU
 10
22541.000000000011
 20
14718.121500361291
 30
0.0
 40
15.0
 50
0.0
 51
180.0
  0
ARC
  5
76313
  8
SUNPOU
 10
22541.000000000011
 20
14718.121500361291
 30
0.0
 40
15.0
 50
180.0
 51
0.0
  0
ARC
  5
76314
  8
SUNPOU
 10
22596.000000000018
 20
20898.121500361289
 30
0.0
 40
15.0
 50
180.0
 51
0.0
  0
ARC
  5
76315
  8
SUNPOU
 10
22596.000000000018
 20
20898.121500361289
 30
0.0
 40
15.0
 50
0.0
 51
180.0
  0
TEXT
  5
76316
  8
SUNPOU
 10
20300.755986119479
 20
15198.121500361291
 30
0.0
 40
160.0
  1
5515
 41
0.6666666666666666
  7
00
  0
LINE
  5
76318
  8
SUNPOU
 10
22343.500000000011
 20
15118.121500361291
 30
0.0
 11
22313.500000000011
 21
15118.121500361291
 31
0.0
  0
LINE
  5
7631A
  8
SUNPOU
 10
16888.500000000029
 20
15118.121500361291
 30
0.0
 11
16918.500000000029
 21
15118.121500361291
 31
0.0
  0
TEXT
  5
7631B
  8
SUNPOU
 10
14700.75598611947
 20
15198.121500361291
 30
0.0
 40
160.0
  1
5515
 41
0.6666666666666666
  7
00
  0
LINE
  5
7631D
  8
SUNPOU
 10
16743.500000000011
 20
15118.121500361291
 30
0.0
 11
16713.500000000011
 21
15118.121500361291
 31
0.0
  0
LINE
  5
7631F
  8
SUNPOU
 10
11288.50000000004
 20
15118.121500361291
 30
0.0
 11
11318.50000000004
 21
15118.121500361291
 31
0.0
  0
TEXT
  5
76320
  8
SUNPOU
 10
24855.399693064559
 20
18064.046136873869
 30
0.0
 40
160.0
  1
3356
 50
90.0
 41
0.6666666666666666
  7
00
  0
LINE
  5
76322
  8
SUNPOU
 10
24935.399693064559
 20
16348.121500361291
 30
0.0
 11
24935.399693064559
 21
16378.121500361291
 31
0.0
  0
LINE
  5
76324
  8
SUNPOU
 10
24935.399693064559
 20
19644.40624389955
 30
0.0
 11
24935.399693064559
 21
19614.40624389955
 31
0.0
  0
TEXT
  5
76325
  8
SUNPOU
 10
23715.581377115261
 20
18356.0397598944
 30
0.0
 40
160.0
  1
3075
 50
90.0
 41
0.6666666666666666
  7
00
  0
LINE
  5
76327
  8
SUNPOU
 10
23795.581377115261
 20
19363.121500361322
 30
0.0
 11
23795.581377115261
 21
19333.121500361322
 31
0.0
  0
LINE
  5
76329
  8
SUNPOU
 10
23795.581377115261
 20
16348.121500361291
 30
0.0
 11
23795.581377115261
 21
16378.121500361291
 31
0.0
  0
ARC
  5
7632A
  8
SUNPOU
 10
22416.000000000011
 20
14718.121500361291
 30
0.0
 40
15.0
 50
180.0
 51
0.0
  0
ARC
  5
7632B
  8
SUNPOU
 10
22416.000000000011
 20
14718.121500361291
 30
0.0
 40
15.0
 50
0.0
 51
180.0
  0
ARC
  5
7632C
  8
SUNPOU
 10
22416.000000000011
 20
14718.121500361291
 30
0.0
 40
15.0
 50
180.0
 51
0.0
  0
ARC
  5
7632D
  8
SUNPOU
 10
22416.000000000011
 20
14718.121500361291
 30
0.0
 40
15.0
 50
0.0
 51
180.0
  0
ARC
  5
7632E
  8
SUNPOU
 10
19616.000000000011
 20
14718.121500361291
 30
0.0
 40
15.0
 50
0.0
 51
180.0
  0
ARC
  5
7632F
  8
SUNPOU
 10
19616.000000000011
 20
14718.121500361291
 30
0.0
 40
15.0
 50
180.0
 51
0.0
  0
ARC
  5
76330
  8
SUNPOU
 10
19616.000000000011
 20
14718.121500361291
 30
0.0
 40
15.0
 50
180.0
 51
0.0
  0
ARC
  5
76331
  8
SUNPOU
 10
19616.000000000011
 20
14718.121500361291
 30
0.0
 40
15.0
 50
0.0
 51
180.0
  0
ARC
  5
76332
  8
SUNPOU
 10
16816.000000000011
 20
14718.121500361291
 30
0.0
 40
15.0
 50
0.0
 51
180.0
  0
ARC
  5
76333
  8
SUNPOU
 10
16816.000000000011
 20
14718.121500361291
 30
0.0
 40
15.0
 50
180.0
 51
0.0
  0
ARC
  5
76334
  8
SUNPOU
 10
10291.000000000009
 20
18988.121500361289
 30
0.0
 40
15.0
 50
270.0
 51
90.0
  0
ARC
  5
76335
  8
SUNPOU
 10
10291.000000000009
 20
18988.121500361289
 30
0.0
 40
15.0
 50
90.0
 51
270.0
  0
ARC
  5
76336
  8
SUNPOU
 10
10291.000000000009
 20
16318.121500361291
 30
0.0
 40
15.0
 50
90.0
 51
270.0
  0
ARC
  5
76337
  8
SUNPOU
 10
10291.000000000009
 20
16318.121500361291
 30
0.0
 40
15.0
 50
270.0
 51
90.0
  0
ARC
  5
76338
  8
SUNPOU
 10
22576.000000000011
 20
21298.1215003613
 30
0.0
 40
15.0
 50
180.0
 51
0.0
  0
ARC
  5
76339
  8
SUNPOU
 10
22576.000000000011
 20
21298.1215003613
 30
0.0
 40
15.0
 50
0.0
 51
180.0
  0
ARC
  5
7633A
  8
SUNPOU
 10
22541.000000000011
 20
20898.121500361289
 30
0.0
 40
15.0
 50
180.0
 51
0.0
  0
ARC
  5
7633B
  8
SUNPOU
 10
22541.000000000011
 20
20898.121500361289
 30
0.0
 40
15.0
 50
0.0
 51
180.0
  0
ARC
  5
7633C
  8
SUNPOU
 10
16816.000000000011
 20
14718.121500361291
 30
0.0
 40
15.0
 50
180.0
 51
0.0
  0
ARC
  5
7633D
  8
SUNPOU
 10
16816.000000000011
 20
14718.121500361291
 30
0.0
 40
15.0
 50
0.0
 51
180.0
  0
ARC
  5
7633E
  8
SUNPOU
 10
16816.000000000011
 20
14718.121500361291
 30
0.0
 40
15.0
 50
180.0
 51
0.0
  0
ARC
  5
7633F
  8
SUNPOU
 10
16816.000000000011
 20
14718.121500361291
 30
0.0
 40
15.0
 50
0.0
 51
180.0
  0
ARC
  5
76340
  8
SUNPOU
 10
22541.0
 20
14318.121500361291
 30
0.0
 40
15.0
 50
180.0
 51
0.0
  0
ARC
  5
76341
  8
SUNPOU
 10
22541.0
 20
14318.121500361291
 30
0.0
 40
15.0
 50
0.0
 51
180.0
  0
ARC
  5
76342
  8
SUNPOU
 10
11056.000000000009
 20
21298.1215003613
 30
0.0
 40
15.0
 50
0.0
 51
180.0
  0
ARC
  5
76343
  8
SUNPOU
 10
11056.000000000009
 20
21298.1215003613
 30
0.0
 40
15.0
 50
180.0
 51
0.0
  0
ARC
  5
76344
  8
SUNPOU
 10
11036.000000000009
 20
20898.121500361289
 30
0.0
 40
15.0
 50
180.0
 51
0.0
  0
ARC
  5
76345
  8
SUNPOU
 10
11036.000000000009
 20
20898.121500361289
 30
0.0
 40
15.0
 50
0.0
 51
180.0
  0
ARC
  5
76346
  8
SUNPOU
 10
11091.000000000009
 20
20898.121500361289
 30
0.0
 40
15.0
 50
0.0
 51
180.0
  0
ARC
  5
76347
  8
SUNPOU
 10
11091.000000000009
 20
20898.121500361289
 30
0.0
 40
15.0
 50
180.0
 51
0.0
  0
ARC
  5
76348
  8
SUNPOU
 10
9891.0000000000073
 20
20098.1215003613
 30
0.0
 40
15.0
 50
270.0
 51
90.0
  0
ARC
  5
76349
  8
SUNPOU
 10
9891.0000000000073
 20
20098.1215003613
 30
0.0
 40
15.0
 50
90.0
 51
270.0
  0
ARC
  5
7634A
  8
SUNPOU
 10
14016.000000000009
 20
14718.121500361291
 30
0.0
 40
15.0
 50
180.0
 51
0.0
  0
ARC
  5
7634B
  8
SUNPOU
 10
14016.000000000009
 20
14718.121500361291
 30
0.0
 40
15.0
 50
0.0
 51
180.0
  0
ARC
  5
7634C
  8
SUNPOU
 10
11216.000000000009
 20
14718.121500361291
 30
0.0
 40
15.0
 50
180.0
 51
0.0
  0
ARC
  5
7634D
  8
SUNPOU
 10
11216.000000000009
 20
14718.121500361291
 30
0.0
 40
15.0
 50
0.0
 51
180.0
  0
ARC
  5
7634E
  8
SUNPOU
 10
11216.000000000009
 20
14718.121500361291
 30
0.0
 40
15.0
 50
0.0
 51
180.0
  0
ARC
  5
7634F
  8
SUNPOU
 10
11216.000000000009
 20
14718.121500361291
 30
0.0
 40
15.0
 50
180.0
 51
0.0
  0
ARC
  5
76350
  8
SUNPOU
 10
11091.000000000009
 20
14718.121500361291
 30
0.0
 40
15.0
 50
0.0
 51
180.0
  0
ARC
  5
76351
  8
SUNPOU
 10
11091.000000000009
 20
14718.121500361291
 30
0.0
 40
15.0
 50
180.0
 51
0.0
  0
ARC
  5
76352
  8
SUNPOU
 10
9891.0000000000073
 20
16318.1215003613
 30
0.0
 40
15.0
 50
90.0
 51
270.0
  0
ARC
  5
76353
  8
SUNPOU
 10
9891.0000000000073
 20
16318.1215003613
 30
0.0
 40
15.0
 50
270.0
 51
90.0
  0
ARC
  5
76354
  8
SUNPOU
 10
11091.000000000009
 20
14318.121500361291
 30
0.0
 40
15.0
 50
0.0
 51
180.0
  0
ARC
  5
76355
  8
SUNPOU
 10
11091.000000000009
 20
14318.121500361291
 30
0.0
 40
15.0
 50
180.0
 51
0.0
  0
ARC
  5
76356
  8
SUNPOU
 10
14016.000000000009
 20
14718.121500361291
 30
0.0
 40
15.0
 50
0.0
 51
180.0
  0
ARC
  5
76357
  8
SUNPOU
 10
14016.000000000009
 20
14718.121500361291
 30
0.0
 40
15.0
 50
180.0
 51
0.0
  0
ARC
  5
76358
  8
SUNPOU
 10
11321.99999999998
 20
15518.121500361291
 30
0.0
 40
15.0
 50
0.0
 51
180.0
  0
ARC
  5
76359
  8
SUNPOU
 10
11321.99999999998
 20
15518.121500361291
 30
0.0
 40
15.0
 50
180.0
 51
0.0
  0
ARC
  5
7635A
  8
SUNPOU
 10
16487.999999999982
 20
15518.121500361291
 30
0.0
 40
15.0
 50
180.0
 51
0.0
  0
ARC
  5
7635B
  8
SUNPOU
 10
16487.999999999982
 20
15518.121500361291
 30
0.0
 40
15.0
 50
0.0
 51
180.0
  0
ARC
  5
7635C
  8
SUNPOU
 10
16921.999999999982
 20
15518.121500361291
 30
0.0
 40
15.0
 50
0.0
 51
180.0
  0
ARC
  5
7635D
  8
SUNPOU
 10
16921.999999999982
 20
15518.121500361291
 30
0.0
 40
15.0
 50
180.0
 51
0.0
  0
ARC
  5
7635E
  8
SUNPOU
 10
22087.999999999982
 20
15518.121500361291
 30
0.0
 40
15.0
 50
180.0
 51
0.0
  0
ARC
  5
7635F
  8
SUNPOU
 10
22087.999999999982
 20
15518.121500361291
 30
0.0
 40
15.0
 50
0.0
 51
180.0
  0
TEXT
  5
76360
  8
SUNPOU
 10
20961.387106663511
 20
8521.1791976675213
 30
0.0
 40
160.0
  1
3075
 50
90.0
 41
0.6666666666666666
  7
00
  0
LINE
  5
76362
  8
SUNPOU
 10
21041.387106663511
 20
9330.2917521018098
 30
0.0
 11
21041.387106663511
 21
9300.291752101808
 31
0.0
  0
LINE
  5
76364
  8
SUNPOU
 10
21041.387106663511
 20
6315.2917521017807
 30
0.0
 11
21041.387106663511
 21
6345.2917521017807
 31
0.0
  0
TEXT
  5
76365
  8
SUNPOU
 10
18534.503844154951
 20
7825.5946227065724
 30
0.0
 40
160.0
  1
3487
 50
90.0
 41
0.6666666666666666
  7
00
  0
LINE
  5
76367
  8
SUNPOU
 10
18614.50384415494
 20
6315.2917521017798
 30
0.0
 11
18614.50384415494
 21
6345.2917521017798
 31
0.0
  0
LINE
  5
76369
  8
SUNPOU
 10
18614.503844154951
 20
9742.2466996605654
 30
0.0
 11
18614.503844154951
 21
9712.2466996605654
 31
0.0
  0
TEXT
  5
7636A
  8
SUNPOU
 10
19589.29402702898
 20
10962.690754104049
 30
0.0
 40
160.0
  1
5810
 50
358.70807231024628
 41
0.6666666666666666
  7
00
  0
LINE
  5
7636C
  8
SUNPOU
 10
22664.893999218231
 20
10813.308823575921
 30
0.0
 11
22634.901625344759
 21
10813.9852180125
 31
0.0
  0
LINE
  5
7636E
  8
SUNPOU
 10
16916.332528511779
 20
10942.95161255751
 30
0.0
 11
16946.324902385259
 21
10942.275218120931
 31
0.0
  0
TEXT
  5
7636F
  8
SUNPOU
 10
23132.442872043419
 20
7760.2595206963133
 30
0.0
 40
160.0
  1
3356
 50
90.0
 41
0.6666666666666666
  7
00
  0
LINE
  5
76371
  8
SUNPOU
 10
23212.442872043419
 20
6315.2917521017789
 30
0.0
 11
23212.442872043419
 21
6345.2917521017789
 31
0.0
  0
LINE
  5
76373
  8
SUNPOU
 10
23212.442872043419
 20
9611.5764956400453
 30
0.0
 11
23212.442872043419
 21
9581.5764956400453
 31
0.0
  0
TEXT
  5
76374
  8
SUNPOU
 10
19405.325396825341
 20
4765.2917521017798
 30
0.0
 40
160.0
  1
5500
 41
0.6666666666666666
  7
00
  0
LINE
  5
76376
  8
SUNPOU
 10
16888.499999999949
 20
4685.2917521017807
 30
0.0
 11
16918.499999999949
 21
4685.2917521017807
 31
0.0
  0
LINE
  5
76378
  8
SUNPOU
 10
22328.499999999949
 20
4685.2917521017807
 30
0.0
 11
22298.499999999949
 21
4685.2917521017807
 31
0.0
  0
TEXT
  5
76379
  8
SUNPOU
 10
13821.32539682535
 20
4765.2917521017798
 30
0.0
 40
160.0
  1
5668
 41
0.6666666666666666
  7
00
  0
LINE
  5
7637B
  8
SUNPOU
 10
16828.499999999949
 20
4685.2917521017807
 30
0.0
 11
16798.499999999949
 21
4685.2917521017807
 31
0.0
  0
LINE
  5
7637D
  8
SUNPOU
 10
11220.499999999951
 20
4685.2917521017807
 30
0.0
 11
11250.499999999951
 21
4685.2917521017807
 31
0.0
  0
ARC
  5
7637E
  8
SUNPOU
 10
10819.898926136209
 20
10741.24612204842
 30
0.0
 40
15.00000000000079
 50
4.706111143730177
 51
184.7061111437302
  0
ARC
  5
7637F
  8
SUNPOU
 10
10819.898926136209
 20
10741.24612204842
 30
0.0
 40
15.00000000000079
 50
184.7061111437302
 51
4.706111143730177
  0
ARC
  5
76380
  8
SUNPOU
 10
17136.531256737719
 20
11261.24612204842
 30
0.0
 40
14.99999999999897
 50
184.70611114373071
 51
4.7061111437307472
  0
ARC
  5
76381
  8
SUNPOU
 10
17136.531256737719
 20
11261.24612204842
 30
0.0
 40
14.99999999999897
 50
4.7061111437307472
 51
184.70611114373071
  0
ARC
  5
76382
  8
SUNPOU
 10
18049.753093279211
 20
10065.291752101781
 30
0.0
 40
15.0
 50
270.0
 51
90.0
  0
ARC
  5
76383
  8
SUNPOU
 10
18049.753093279211
 20
10065.291752101781
 30
0.0
 40
15.0
 50
90.0
 51
270.0
  0
ARC
  5
76384
  8
SUNPOU
 10
18049.753093279211
 20
6285.2917521017798
 30
0.0
 40
15.0
 50
90.0
 51
270.0
  0
ARC
  5
76385
  8
SUNPOU
 10
18049.753093279211
 20
6285.2917521017798
 30
0.0
 40
15.0
 50
270.0
 51
90.0
  0
ARC
  5
76386
  8
SUNPOU
 10
10118.352697041881
 20
9545.2917521017807
 30
0.0
 40
15.0
 50
270.0
 51
90.0
  0
ARC
  5
76387
  8
SUNPOU
 10
10118.352697041881
 20
9545.2917521017807
 30
0.0
 40
15.0
 50
90.0
 51
270.0
  0
ARC
  5
76388
  8
SUNPOU
 10
10118.352697041881
 20
6285.2917521017798
 30
0.0
 40
15.0
 50
90.0
 51
270.0
  0
ARC
  5
76389
  8
SUNPOU
 10
10118.352697041881
 20
6285.2917521017798
 30
0.0
 40
15.0
 50
270.0
 51
90.0
  0
ARC
  5
7638A
  8
SUNPOU
 10
22373.500000000011
 20
15118.121500361291
 30
0.0
 40
15.0
 50
180.0
 51
0.0
  0
ARC
  5
7638B
  8
SUNPOU
 10
22373.500000000011
 20
15118.121500361291
 30
0.0
 40
15.0
 50
0.0
 51
180.0
  0
ARC
  5
7638C
  8
SUNPOU
 10
16858.500000000029
 20
15118.121500361291
 30
0.0
 40
15.0
 50
0.0
 51
180.0
  0
ARC
  5
7638D
  8
SUNPOU
 10
16858.500000000029
 20
15118.121500361291
 30
0.0
 40
15.0
 50
180.0
 51
0.0
  0
ARC
  5
7638E
  8
SUNPOU
 10
16773.500000000011
 20
15118.121500361291
 30
0.0
 40
15.0
 50
180.0
 51
0.0
  0
ARC
  5
7638F
  8
SUNPOU
 10
16773.500000000011
 20
15118.121500361291
 30
0.0
 40
15.0
 50
0.0
 51
180.0
  0
ARC
  5
76390
  8
SUNPOU
 10
11258.50000000004
 20
15118.121500361291
 30
0.0
 40
15.0
 50
0.0
 51
180.0
  0
ARC
  5
76391
  8
SUNPOU
 10
11258.50000000004
 20
15118.121500361291
 30
0.0
 40
15.0
 50
180.0
 51
0.0
  0
ARC
  5
76392
  8
SUNPOU
 10
24935.399693064559
 20
16318.121500361291
 30
0.0
 40
15.0
 50
90.0
 51
270.0
  0
ARC
  5
76393
  8
SUNPOU
 10
24935.399693064559
 20
16318.121500361291
 30
0.0
 40
15.0
 50
270.0
 51
90.0
  0
ARC
  5
76394
  8
SUNPOU
 10
24935.399693064559
 20
19674.40624389955
 30
0.0
 40
15.0
 50
270.0
 51
90.0
  0
ARC
  5
76395
  8
SUNPOU
 10
24935.399693064559
 20
19674.40624389955
 30
0.0
 40
15.0
 50
90.0
 51
270.0
  0
ARC
  5
76396
  8
SUNPOU
 10
23795.581377115261
 20
19393.121500361322
 30
0.0
 40
15.0
 50
270.0
 51
90.0
  0
ARC
  5
76397
  8
SUNPOU
 10
23795.581377115261
 20
19393.121500361322
 30
0.0
 40
15.0
 50
90.0
 51
270.0
  0
ARC
  5
76398
  8
SUNPOU
 10
23795.581377115261
 20
16318.121500361291
 30
0.0
 40
15.0
 50
90.0
 51
270.0
  0
ARC
  5
76399
  8
SUNPOU
 10
23795.581377115261
 20
16318.121500361291
 30
0.0
 40
15.0
 50
270.0
 51
90.0
  0
ARC
  5
7639A
  8
SUNPOU
 10
21041.387106663511
 20
9360.291752101808
 30
0.0
 40
15.0
 50
270.0
 51
90.0
  0
ARC
  5
7639B
  8
SUNPOU
 10
21041.387106663511
 20
9360.291752101808
 30
0.0
 40
15.0
 50
90.0
 51
270.0
  0
ARC
  5
7639C
  8
SUNPOU
 10
21041.387106663511
 20
6285.2917521017798
 30
0.0
 40
15.0
 50
90.0
 51
270.0
  0
ARC
  5
7639D
  8
SUNPOU
 10
21041.387106663511
 20
6285.2917521017798
 30
0.0
 40
15.0
 50
270.0
 51
90.0
  0
ARC
  5
7639E
  8
SUNPOU
 10
18614.50384415494
 20
6285.2917521017798
 30
0.0
 40
15.0
 50
90.0
 51
270.0
  0
ARC
  5
7639F
  8
SUNPOU
 10
18614.50384415494
 20
6285.2917521017798
 30
0.0
 40
15.0
 50
270.0
 51
90.0
  0
ARC
  5
763A0
  8
SUNPOU
 10
18614.503844154951
 20
9772.2466996605654
 30
0.0
 40
15.0
 50
270.0
 51
90.0
  0
ARC
  5
763A1
  8
SUNPOU
 10
18614.503844154951
 20
9772.2466996605654
 30
0.0
 40
15.0
 50
90.0
 51
270.0
  0
ARC
  5
763A2
  8
SUNPOU
 10
22694.8863730917
 20
10812.632429139339
 30
0.0
 40
14.99999999999989
 50
178.70807231024779
 51
358.70807231024781
  0
ARC
  5
763A3
  8
SUNPOU
 10
22694.8863730917
 20
10812.632429139339
 30
0.0
 40
14.99999999999989
 50
358.70807231024781
 51
178.70807231024779
  0
ARC
  5
763A4
  8
SUNPOU
 10
16886.34015463831
 20
10943.628006994089
 30
0.0
 40
14.99999999999989
 50
358.70807231024781
 51
178.70807231024779
  0
ARC
  5
763A5
  8
SUNPOU
 10
16886.34015463831
 20
10943.628006994089
 30
0.0
 40
14.99999999999989
 50
178.70807231024779
 51
358.70807231024781
  0
ARC
  5
763A6
  8
SUNPOU
 10
23212.442872043419
 20
6285.2917521017789
 30
0.0
 40
15.0
 50
90.0
 51
270.0
  0
ARC
  5
763A7
  8
SUNPOU
 10
23212.442872043419
 20
6285.2917521017789
 30
0.0
 40
15.0
 50
270.0
 51
90.0
  0
ARC
  5
763A8
  8
SUNPOU
 10
23212.442872043419
 20
9641.5764956400453
 30
0.0
 40
15.0
 50
270.0
 51
90.0
  0
ARC
  5
763A9
  8
SUNPOU
 10
23212.442872043419
 20
9641.5764956400453
 30
0.0
 40
15.0
 50
90.0
 51
270.0
  0
ARC
  5
763AA
  8
SUNPOU
 10
16858.499999999949
 20
4685.2917521017807
 30
0.0
 40
15.0
 50
0.0
 51
180.0
  0
ARC
  5
763AB
  8
SUNPOU
 10
16858.499999999949
 20
4685.2917521017807
 30
0.0
 40
15.0
 50
180.0
 51
0.0
  0
ARC
  5
763AC
  8
SUNPOU
 10
22358.499999999949
 20
4685.2917521017807
 30
0.0
 40
15.0
 50
180.0
 51
0.0
  0
ARC
  5
763AD
  8
SUNPOU
 10
22358.499999999949
 20
4685.2917521017807
 30
0.0
 40
15.0
 50
0.0
 51
180.0
  0
ARC
  5
763AE
  8
SUNPOU
 10
16858.499999999949
 20
4685.2917521017807
 30
0.0
 40
15.0
 50
180.0
 51
0.0
  0
ARC
  5
763AF
  8
SUNPOU
 10
16858.499999999949
 20
4685.2917521017807
 30
0.0
 40
15.0
 50
0.0
 51
180.0
  0
ARC
  5
763B0
  8
SUNPOU
 10
11190.499999999951
 20
4685.2917521017807
 30
0.0
 40
15.0
 50
0.0
 51
180.0
  0
ARC
  5
763B1
  8
SUNPOU
 10
11190.499999999951
 20
4685.2917521017807
 30
0.0
 40
15.0
 50
180.0
 51
0.0
  0
LINE
  5
763B6
  8
HIKIDASHI
 10
14553.66060583354
 20
9949.9526755505431
 30
0.0
 11
14685.46604410426
 21
9855.4093650871509
 31
0.0
  0
LINE
  5
763B7
  8
HIKIDASHI
 10
14685.46604410426
 20
9855.4093650871509
 30
0.0
 11
14591.44791940387
 21
9987.5899360457279
 31
0.0
  0
SOLID
  5
763B8
  8
HIKIDASHI
 10
14553.66060583354
 20
9949.9526755505431
 30
0.0
 11
14591.44791940387
 21
9987.5899360457279
 31
0.0
 12
14685.46604410426
 22
9855.4093650871509
 32
0.0
 13
14685.46604410426
 23
9855.4093650871509
 33
0.0
  0
LINE
  5
763B9
  8
HIKIDASHI
 10
14591.44791940387
 20
9987.5899360457279
 30
0.0
 11
14553.66060583354
 21
9949.9526755505431
 31
0.0
  0
LINE
  5
763BA
  8
HIKIDASHI
 10
15124.82867562801
 20
6414.5677232007602
 30
0.0
 11
15176.0
 21
6568.4917521017924
 31
0.0
  0
LINE
  5
763BB
  8
HIKIDASHI
 10
15176.0
 20
6568.4917521017924
 30
0.0
 11
15077.67338649102
 21
6439.4840461809217
 31
0.0
  0
SOLID
  5
763BC
  8
HIKIDASHI
 10
15124.82867562801
 20
6414.5677232007602
 30
0.0
 11
15077.67338649102
 21
6439.4840461809217
 31
0.0
 12
15176.0
 22
6568.4917521017924
 32
0.0
 13
15176.0
 23
6568.4917521017924
 33
0.0
  0
LINE
  5
763BD
  8
HIKIDASHI
 10
15077.67338649102
 20
6439.4840461809217
 30
0.0
 11
15124.82867562801
 21
6414.5677232007602
 31
0.0
  0
LINE
  5
763BE
  8
HIKIDASHI
 10
11878.973998897431
 20
16522.856872032338
 30
0.0
 11
10583.60979569232
 21
15510.86973626476
 31
0.0
1001
ACAD
1000
DSTYLE
1002
{
1070
   147
1040
1.0
1070
    77
1070
     0
1002
}
  0
LINE
  5
763BF
  8
HIKIDASHI
 10
11895.39101067604
 20
16501.842761644981
 30
0.0
 11
12005.05866122159
 21
16621.358942703999
 31
0.0
  0
LINE
  5
763C0
  8
HIKIDASHI
 10
12005.05866122159
 20
16621.358942703999
 30
0.0
 11
11862.556987118831
 21
16543.870982419699
 31
0.0
  0
SOLID
  5
763C1
  8
HIKIDASHI
 10
11895.39101067604
 20
16501.842761644981
 30
0.0
 11
11862.556987118831
 21
16543.870982419699
 31
0.0
 12
12005.05866122159
 22
16621.358942703999
 32
0.0
 13
12005.05866122159
 23
16621.358942703999
 33
0.0
  0
LINE
  5
763C2
  8
HIKIDASHI
 10
11862.556987118831
 20
16543.870982419699
 30
0.0
 11
11895.39101067604
 21
16501.842761644981
 31
0.0
  0
LINE
  5
763C3
  8
HIKIDASHI
 10
19229.092442825669
 20
9850.8159589273837
 30
0.0
 11
19592.10357787594
 21
10347.340522398221
 31
0.0
1001
ACAD
1000
DSTYLE
1002
{
1070
   147
1040
1.0
1070
    77
1070
     0
1002
}
  0
LINE
  5
763C4
  8
HIKIDASHI
 10
19207.565447276502
 20
9866.5544332415284
 30
0.0
 11
19134.661596940809
 21
9721.6539856323434
 31
0.0
  0
LINE
  5
763C5
  8
HIKIDASHI
 10
19134.661596940809
 20
9721.6539856323434
 30
0.0
 11
19250.619438374852
 21
9835.0774846132408
 31
0.0
  0
SOLID
  5
763C6
  8
HIKIDASHI
 10
19207.565447276502
 20
9866.5544332415284
 30
0.0
 11
19250.619438374852
 21
9835.0774846132408
 31
0.0
 12
19134.661596940809
 22
9721.6539856323434
 32
0.0
 13
19134.661596940809
 23
9721.6539856323434
 33
0.0
  0
LINE
  5
763C7
  8
HIKIDASHI
 10
19250.619438374852
 20
9835.0774846132408
 30
0.0
 11
19207.565447276502
 21
9866.5544332415284
 31
0.0
  0
LINE
  5
763C8
  8
U1
 10
21316.000000000011
 20
17218.921500361292
 30
0.0
 11
21216.000000000011
 21
17218.921500361292
 31
0.0
  0
LINE
  5
763C9
  8
U1
 10
21216.000000000011
 20
17218.921500361292
 30
0.0
 11
21216.000000000011
 21
17188.921500361292
 31
0.0
  0
LINE
  5
763CA
  8
U1
 10
21216.000000000011
 20
17188.921500361292
 30
0.0
 11
21316.000000000011
 21
17188.921500361292
 31
0.0
  0
LINE
  5
763CB
  8
U1
 10
21316.000000000011
 20
17188.921500361292
 30
0.0
 11
21316.000000000011
 21
17218.921500361292
 31
0.0
  0
LINE
  5
763CC
  8
U1
 10
20816.000000000011
 20
17218.921500361292
 30
0.0
 11
20716.000000000011
 21
17218.921500361292
 31
0.0
  0
LINE
  5
763CD
  8
U1
 10
20716.000000000011
 20
17218.921500361292
 30
0.0
 11
20716.000000000011
 21
17188.921500361292
 31
0.0
  0
LINE
  5
763CE
  8
U1
 10
20716.000000000011
 20
17188.921500361292
 30
0.0
 11
20816.000000000011
 21
17188.921500361292
 31
0.0
  0
LINE
  5
763CF
  8
U1
 10
20816.000000000011
 20
17188.921500361292
 30
0.0
 11
20816.000000000011
 21
17218.921500361292
 31
0.0
  0
LINE
  5
763D0
  8
U1
 10
18516.000000000011
 20
17218.921500361292
 30
0.0
 11
18416.000000000011
 21
17218.921500361292
 31
0.0
  0
LINE
  5
763D1
  8
U1
 10
18416.000000000011
 20
17218.921500361292
 30
0.0
 11
18416.000000000011
 21
17188.921500361292
 31
0.0
  0
LINE
  5
763D2
  8
U1
 10
18416.000000000011
 20
17188.921500361292
 30
0.0
 11
18516.000000000011
 21
17188.921500361292
 31
0.0
  0
LINE
  5
763D3
  8
U1
 10
18516.000000000011
 20
17188.921500361292
 30
0.0
 11
18516.000000000011
 21
17218.921500361292
 31
0.0
  0
LINE
  5
763D4
  8
U1
 10
18016.0
 20
17218.921500361292
 30
0.0
 11
17916.0
 21
17218.921500361292
 31
0.0
  0
LINE
  5
763D5
  8
U1
 10
17916.0
 20
17218.921500361292
 30
0.0
 11
17916.0
 21
17188.921500361292
 31
0.0
  0
LINE
  5
763D6
  8
U1
 10
17916.0
 20
17188.921500361292
 30
0.0
 11
18016.0
 21
17188.921500361292
 31
0.0
  0
LINE
  5
763D7
  8
U1
 10
18016.0
 20
17188.921500361292
 30
0.0
 11
18016.0
 21
17218.921500361292
 31
0.0
  0
LINE
  5
763D8
  8
U1
 10
15616.000000000009
 20
17218.921500361292
 30
0.0
 11
15716.0
 21
17218.921500361292
 31
0.0
  0
LINE
  5
763D9
  8
U1
 10
15716.0
 20
17218.921500361292
 30
0.0
 11
15716.0
 21
17188.921500361292
 31
0.0
  0
LINE
  5
763DA
  8
U1
 10
15716.0
 20
17188.921500361292
 30
0.0
 11
15616.000000000009
 21
17188.921500361292
 31
0.0
  0
LINE
  5
763DB
  8
U1
 10
15616.000000000009
 20
17188.921500361292
 30
0.0
 11
15616.000000000009
 21
17218.921500361292
 31
0.0
  0
LINE
  5
763DC
  8
U1
 10
15116.0
 20
17218.921500361292
 30
0.0
 11
15216.0
 21
17218.921500361292
 31
0.0
  0
LINE
  5
763DD
  8
U1
 10
15216.0
 20
17218.921500361292
 30
0.0
 11
15216.0
 21
17188.921500361292
 31
0.0
  0
LINE
  5
763DE
  8
U1
 10
15216.0
 20
17188.921500361292
 30
0.0
 11
15116.0
 21
17188.921500361292
 31
0.0
  0
LINE
  5
763DF
  8
U1
 10
15116.0
 20
17188.921500361292
 30
0.0
 11
15116.0
 21
17218.921500361292
 31
0.0
  0
LINE
  5
763E0
  8
U1
 10
12816.0
 20
17218.921500361292
 30
0.0
 11
12916.0
 21
17218.921500361292
 31
0.0
  0
LINE
  5
763E1
  8
U1
 10
12916.0
 20
17218.921500361292
 30
0.0
 11
12916.0
 21
17188.921500361292
 31
0.0
  0
LINE
  5
763E2
  8
U1
 10
12916.0
 20
17188.921500361292
 30
0.0
 11
12816.0
 21
17188.921500361292
 31
0.0
  0
LINE
  5
763E3
  8
U1
 10
12816.0
 20
17188.921500361292
 30
0.0
 11
12816.0
 21
17218.921500361292
 31
0.0
  0
LINE
  5
763E4
  8
U1
 10
12316.0
 20
17218.921500361292
 30
0.0
 11
12416.0
 21
17218.921500361292
 31
0.0
  0
LINE
  5
763E5
  8
U1
 10
12416.0
 20
17218.921500361292
 30
0.0
 11
12416.0
 21
17188.921500361292
 31
0.0
  0
LINE
  5
763E6
  8
U1
 10
12416.0
 20
17188.921500361292
 30
0.0
 11
12316.0
 21
17188.921500361292
 31
0.0
  0
LINE
  5
763E7
  8
U1
 10
12316.0
 20
17188.921500361292
 30
0.0
 11
12316.0
 21
17218.921500361292
 31
0.0
  0
LINE
  5
763E8
  8
U5
 10
19090.999999999949
 20
5385.2917521017807
 30
0.0
 11
20040.999999999949
 21
5385.2917521017807
 31
0.0
  0
LINE
  5
763E9
  8
U5
 10
20040.999999999949
 20
5385.2917521017807
 30
0.0
 11
20040.999999999949
 21
5885.2917521017807
 31
0.0
  0
LINE
  5
763EA
  8
U5
 10
20040.999999999949
 20
5885.2917521017807
 30
0.0
 11
19090.999999999949
 21
5885.2917521017807
 31
0.0
  0
LINE
  5
763EB
  8
U5
 10
19090.999999999949
 20
5885.2917521017807
 30
0.0
 11
19090.999999999949
 21
5385.2917521017807
 31
0.0
  0
LINE
  5
763EC
  8
U5
 10
21840.999999999949
 20
5385.2917521017807
 30
0.0
 11
22790.999999999949
 21
5385.2917521017807
 31
0.0
  0
LINE
  5
763ED
  8
U5
 10
22790.999999999949
 20
5385.2917521017807
 30
0.0
 11
22790.999999999949
 21
5885.2917521017807
 31
0.0
  0
LINE
  5
763EE
  8
U5
 10
22790.999999999949
 20
5885.2917521017807
 30
0.0
 11
21840.999999999949
 21
5885.2917521017807
 31
0.0
  0
LINE
  5
763EF
  8
U5
 10
21840.999999999949
 20
5885.2917521017807
 30
0.0
 11
21840.999999999949
 21
5385.2917521017807
 31
0.0
  0
LINE
  5
763F0
  8
KERABA
 10
10928.473806113419
 20
9421.6195885777252
 30
0.0
 11
10922.93825572875
 21
9489.3939029006415
 31
0.0
  0
LINE
  5
763F1
  8
KERABA
 10
10922.93825572875
 20
9489.3939029006415
 30
0.0
 11
10926.59658716561
 21
9493.7086000045383
 31
0.0
  0
LINE
  5
763F2
  8
KERABA
 10
10926.59658716561
 20
9493.7086000045383
 30
0.0
 11
10925.77613008174
 21
9503.6748856804188
 31
0.0
  0
LINE
  5
763F3
  8
KERABA
 10
10925.77613008174
 20
9503.6748856804188
 30
0.0
 11
10923.61878152984
 21
9505.5040513988497
 31
0.0
  0
LINE
  5
763F4
  8
KERABA
 10
10923.61878152984
 20
9505.5040513988497
 30
0.0
 11
10922.79832444597
 21
9515.4703370747284
 31
0.0
  0
LINE
  5
763F5
  8
KERABA
 10
10922.79832444597
 20
9515.4703370747284
 30
0.0
 11
10920.640975894001
 21
9517.299502793132
 31
0.0
  0
LINE
  5
763F6
  8
KERABA
 10
10920.640975894001
 20
9517.299502793132
 30
0.0
 11
10919.213380568141
 21
9534.6408398692001
 31
0.0
  0
ARC
  5
763F7
  8
KERABA
 10
10929.777643384599
 20
9535.5105243780799
 30
0.0
 40
10.600000000005849
 50
94.706162844004695
 51
184.7061628439549
  0
LINE
  5
763F8
  8
KERABA
 10
10928.90795887571
 20
9546.0747871945368
 30
0.0
 11
10953.225695924901
 21
9548.0767024790839
 31
0.0
  0
LINE
  5
763F9
  8
KERABA
 10
10953.225695924901
 20
9548.0767024790839
 30
0.0
 11
10967.993923434
 21
9368.6835603129439
 31
0.0
  0
LINE
  5
763FA
  8
KERABA
 10
10967.993923434
 20
9368.6835603129439
 30
0.0
 11
10943.67618638487
 21
9366.6816450283932
 31
0.0
  0
ARC
  5
763FB
  8
KERABA
 10
10942.806501875981
 20
9377.2459078448392
 30
0.0
 40
10.599999999995569
 50
184.7061628439491
 51
274.70616284399892
  0
LINE
  5
763FC
  8
KERABA
 10
10932.24223905954
 20
9376.3762233359594
 30
0.0
 11
10930.81464373362
 21
9393.7175604120257
 31
0.0
  0
LINE
  5
763FD
  8
KERABA
 10
10930.81464373362
 20
9393.7175604120257
 30
0.0
 11
10934.47297517048
 21
9398.0322575159225
 31
0.0
  0
LINE
  5
763FE
  8
KERABA
 10
10934.47297517048
 20
9398.0322575159225
 30
0.0
 11
10933.65251808661
 21
9407.998543191803
 31
0.0
  0
LINE
  5
763FF
  8
KERABA
 10
10933.65251808661
 20
9407.998543191803
 30
0.0
 11
10931.495169534701
 21
9409.8277089102321
 31
0.0
  0
LINE
  5
76400
  8
KERABA
 10
10931.495169534701
 20
9409.8277089102321
 30
0.0
 11
10930.674712450829
 21
9419.7939945861144
 31
0.0
  0
LINE
  5
76401
  8
KERABA
 10
10930.674712450829
 20
9419.7939945861144
 30
0.0
 11
10928.517363898871
 21
9421.6231603045453
 31
0.0
  0
LINE
  5
76402
  8
KERABA
 10
17245.149225280391
 20
9941.6288600416592
 30
0.0
 11
17243.320059561989
 21
9939.4715114897281
 31
0.0
  0
LINE
  5
76403
  8
KERABA
 10
17243.320059561989
 20
9939.4715114897281
 30
0.0
 11
17244.140516645799
 21
9929.5052258138185
 31
0.0
  0
LINE
  5
76404
  8
KERABA
 10
17244.140516645799
 20
9929.5052258138185
 30
0.0
 11
17242.311350927401
 21
9927.3478772618546
 31
0.0
  0
LINE
  5
76405
  8
KERABA
 10
17242.311350927401
 20
9927.3478772618546
 30
0.0
 11
17243.131808011269
 21
9917.3815915859741
 31
0.0
  0
LINE
  5
76406
  8
KERABA
 10
17243.131808011269
 20
9917.3815915859741
 30
0.0
 11
17247.446505115138
 21
9913.7232601491414
 31
0.0
  0
LINE
  5
76407
  8
KERABA
 10
17247.446505115138
 20
9913.7232601491414
 30
0.0
 11
17248.874100441059
 21
9896.3819230730733
 31
0.0
  0
ARC
  5
76408
  8
KERABA
 10
17238.309837624591
 20
9895.5122385642353
 30
0.0
 40
10.60000000001496
 50
274.7061628437533
 51
4.7061628437140808
  0
LINE
  5
76409
  8
KERABA
 10
17239.17952213344
 20
9884.9479757477693
 30
0.0
 11
17214.861785084249
 21
9882.9460604631895
 31
0.0
  0
LINE
  5
7640A
  8
KERABA
 10
17214.861785084249
 20
9882.9460604631895
 30
0.0
 11
17200.093557575139
 21
10062.33920262933
 31
0.0
  0
LINE
  5
7640B
  8
KERABA
 10
17200.093557575139
 20
10062.33920262933
 30
0.0
 11
17224.411294624329
 21
10064.341117913909
 31
0.0
  0
ARC
  5
7640C
  8
KERABA
 10
17225.280979133211
 20
10053.776855097451
 30
0.0
 40
10.60000000000888
 50
4.7061628438642931
 51
94.706162843914086
  0
LINE
  5
7640D
  8
KERABA
 10
17235.845241949672
 20
10054.64653960631
 30
0.0
 11
17237.27283727553
 21
10037.30520253027
 31
0.0
  0
LINE
  5
7640E
  8
KERABA
 10
17237.27283727553
 20
10037.30520253027
 30
0.0
 11
17235.443671557128
 21
10035.147853978309
 31
0.0
  0
LINE
  5
7640F
  8
KERABA
 10
17235.443671557128
 20
10035.147853978309
 30
0.0
 11
17236.264128640942
 21
10025.181568302431
 31
0.0
  0
LINE
  5
76410
  8
KERABA
 10
17236.264128640942
 20
10025.181568302431
 30
0.0
 11
17234.43496292254
 21
10023.02421975047
 31
0.0
  0
LINE
  5
76411
  8
KERABA
 10
17234.43496292254
 20
10023.02421975047
 30
0.0
 11
17235.255420006411
 21
10013.05793407459
 31
0.0
  0
LINE
  5
76412
  8
KERABA
 10
17235.255420006411
 20
10013.05793407459
 30
0.0
 11
17239.570117110281
 21
10009.399602637761
 31
0.0
  0
LINE
  5
76413
  8
KERABA
 10
17239.570117110281
 20
10009.399602637761
 30
0.0
 11
17245.149225280391
 21
9941.6288600416592
 31
0.0
  0
ENDSEC
  0
EOF
