  0
SECTION
  2
HEADER
  9
$ACADVER
  1
AC1009
  9
$INSBASE
 10
0.0
 20
0.0
 30
0.0
  9
$EXTMIN
 10
867.9932433040667092
 20
327.3816474985579248
 30
-0.0015258207003583
  9
$EXTMAX
 10
32765.3321085094103182
 20
22484.5532764919917099
 30
0.0000000349246037
  9
$LIMMIN
 10
0.0
 20
0.0
  9
$LIMMAX
 10
33600.0
 20
23760.0
  9
$ORTHOMODE
 70
     1
  9
$REGENMODE
 70
     1
  9
$FILLMODE
 70
     1
  9
$QTEXTMODE
 70
     0
  9
$MIRRTEXT
 70
     1
  9
$DRAGMODE
 70
     2
  9
$LTSCALE
 40
80.0
  9
$OSMODE
 70
  4095
  9
$ATTMODE
 70
     1
  9
$TEXTSIZE
 40
0.2
  9
$TRACEWID
 40
0.05
  9
$TEXTSTYLE
  7
00
  9
$CLAYER
  8
0
  9
$CELTYPE
  6
BYLAYER
  9
$CECOLOR
 62
   256
  9
$DIMSCALE
 40
1.0
  9
$DIMASZ
 40
0.18
  9
$DIMEXO
 40
0.0625
  9
$DIMDLI
 40
0.38
  9
$DIMRND
 40
0.0
  9
$DIMDLE
 40
0.0
  9
$DIMEXE
 40
0.18
  9
$DIMTP
 40
0.0
  9
$DIMTM
 40
0.0
  9
$DIMTXT
 40
0.18
  9
$DIMCEN
 40
0.09
  9
$DIMTSZ
 40
0.0
  9
$DIMTOL
 70
     0
  9
$DIMLIM
 70
     0
  9
$DIMTIH
 70
     1
  9
$DIMTOH
 70
     1
  9
$DIMSE1
 70
     0
  9
$DIMSE2
 70
     0
  9
$DIMTAD
 70
     0
  9
$DIMZIN
 70
     0
  9
$DIMBLK
  1

  9
$DIMASO
 70
     1
  9
$DIMSHO
 70
     1
  9
$DIMPOST
  1

  9
$DIMAPOST
  1

  9
$DIMALT
 70
     0
  9
$DIMALTD
 70
     2
  9
$DIMALTF
 40
25.3999999999999986
  9
$DIMLFAC
 40
1.0
  9
$DIMTOFL
 70
     0
  9
$DIMTVP
 40
0.0
  9
$DIMTIX
 70
     0
  9
$DIMSOXD
 70
     0
  9
$DIMSAH
 70
     0
  9
$DIMBLK1
  1

  9
$DIMBLK2
  1

  9
$DIMSTYLE
  2
STANDARD
  9
$DIMCLRD
 70
     0
  9
$DIMCLRE
 70
     0
  9
$DIMCLRT
 70
     0
  9
$DIMTFAC
 40
1.0
  9
$DIMGAP
 40
0.09
  9
$LUNITS
 70
     2
  9
$LUPREC
 70
     4
  9
$SKETCHINC
 40
0.1
  9
$FILLETRAD
 40
0.0
  9
$AUNITS
 70
     0
  9
$AUPREC
 70
     0
  9
$MENU
  1
acad
  9
$ELEVATION
 40
0.0
  9
$PELEVATION
 40
0.0
  9
$THICKNESS
 40
0.0
  9
$LIMCHECK
 70
     0
  9
$BLIPMODE
 70
     1
  9
$CHAMFERA
 40
0.0
  9
$CHAMFERB
 40
0.0
  9
$SKPOLY
 70
     0
  9
$TDCREATE
 40
2440588.749988425988704
  9
$TDUPDATE
 40
2458942.6109143518842757
  9
$TDINDWG
 40
0.0625456597
  9
$TDUSRTIMER
 40
0.0625448495
  9
$USRTIMER
 70
     1
  9
$ANGBASE
 50
0.0
  9
$ANGDIR
 70
     0
  9
$PDMODE
 70
     0
  9
$PDSIZE
 40
0.0
  9
$PLINEWID
 40
0.0
  9
$COORDS
 70
     1
  9
$SPLFRAME
 70
     0
  9
$SPLINETYPE
 70
     6
  9
$SPLINESEGS
 70
     8
  9
$ATTDIA
 70
     1
  9
$ATTREQ
 70
     1
  9
$HANDLING
 70
     1
  9
$HANDSEED
  5
5237
  9
$SURFTAB1
 70
     6
  9
$SURFTAB2
 70
     6
  9
$SURFTYPE
 70
     6
  9
$SURFU
 70
     6
  9
$SURFV
 70
     6
  9
$UCSNAME
  2

  9
$UCSORG
 10
0.0
 20
0.0
 30
0.0
  9
$UCSXDIR
 10
1.0
 20
0.0
 30
0.0
  9
$UCSYDIR
 10
0.0
 20
1.0
 30
0.0
  9
$PUCSNAME
  2

  9
$PUCSORG
 10
0.0
 20
0.0
 30
0.0
  9
$PUCSXDIR
 10
1.0
 20
0.0
 30
0.0
  9
$PUCSYDIR
 10
0.0
 20
1.0
 30
0.0
  9
$USERI1
 70
     0
  9
$USERI2
 70
     0
  9
$USERI3
 70
     0
  9
$USERI4
 70
     0
  9
$USERI5
 70
     0
  9
$USERR1
 40
0.0
  9
$USERR2
 40
0.0
  9
$USERR3
 40
0.0
  9
$USERR4
 40
0.0
  9
$USERR5
 40
0.0
  9
$WORLDVIEW
 70
     1
  9
$SHADEDGE
 70
     3
  9
$SHADEDIF
 70
    70
  9
$TILEMODE
 70
     1
  9
$MAXACTVP
 70
    16
  9
$PLIMCHECK
 70
     0
  9
$PEXTMIN
 10
1.0000000000000000E+20
 20
1.0000000000000000E+20
 30
1.0000000000000000E+20
  9
$PEXTMAX
 10
-1.0000000000000000E+20
 20
-1.0000000000000000E+20
 30
-1.0000000000000000E+20
  9
$PLIMMIN
 10
0.0
 20
0.0
  9
$PLIMMAX
 10
12.0
 20
9.0
  9
$UNITMODE
 70
     0
  9
$VISRETAIN
 70
     0
  9
$PLINEGEN
 70
     1
  9
$PSLTSCALE
 70
     0
  0
ENDSEC
  0
SECTION
  2
TABLES
  0
TABLE
  2
VPORT
 70
     1
  0
VPORT
  2
*ACTIVE
 70
     0
 10
0.0
 20
0.0
 11
1.0
 21
1.0
 12
16799.9999999999890861
 22
11880.0
 13
0.0
 23
0.0
 14
1.0
 24
1.0
 15
0.0
 25
0.0
 16
0.0
 26
0.0
 36
1.0
 17
0.0
 27
0.0
 37
0.0
 40
23948.0561957448408066
 41
1.925974025974025
 42
50.0
 43
0.0
 44
0.0
 50
0.0
 51
0.0
 71
     0
 72
 10000
 73
     1
 74
     1
 75
     0
 76
     0
 77
     0
 78
     0
  0
ENDTAB
  0
TABLE
  2
LTYPE
 70
     4
  0
LTYPE
  2
CONTINUOUS
 70
     0
  3
Solid line
 72
    65
 73
     0
 40
0.0
  0
LTYPE
  2
DASHED3
 70
     0
  3
------  ------  ------  ------  
 72
    65
 73
     2
 40
5.0
 49
3.75
 49
-1.25
  0
LTYPE
  2
CENTER2
 70
     0
  3
----------  --  ----------  --  
 72
    65
 73
     4
 40
20.0
 49
12.5
 49
-2.5
 49
2.5
 49
-2.5
  0
ENDTAB
  0
TABLE
  2
LAYER
 70
    16
  0
LAYER
  2
0
 70
     0
 62
     7
  6
CONTINUOUS
  0
LAYER
  2
0-1
 70
     0
 62
     7
  6
CONTINUOUS
  0
LAYER
  2
2-0
 70
     0
 62
     7
  6
CONTINUOUS
  0
LAYER
  2
0-2
 70
     0
 62
     7
  6
CONTINUOUS
  0
LAYER
  2
0-6
 70
     0
 62
     7
  6
CONTINUOUS
  0
LAYER
  2
0-5
 70
     0
 62
     7
  6
CONTINUOUS
  0
LAYER
  2
SUNPOU
 70
     0
 62
     4
  6
CONTINUOUS
  0
LAYER
  2
WAKUSEN-01
 70
     0
 62
    50
  6
CONTINUOUS
  0
LAYER
  2
WAKUSEN-02
 70
     0
 62
   130
  6
CONTINUOUS
  0
LAYER
  2
FILENAME
 70
     0
 62
     7
  6
CONTINUOUS
  0
LAYER
  2
NAME
 70
     0
 62
    20
  6
CONTINUOUS
  0
LAYER
  2
0-4
 70
     0
 62
     7
  6
CONTINUOUS
  0
LAYER
  2
0-7
 70
     0
 62
     7
  6
CONTINUOUS
  0
LAYER
  2
YODOROGO
 70
     0
 62
   130
  6
CONTINUOUS
  0
LAYER
  2
WAKUMOJI-01
 70
     0
 62
   130
  6
CONTINUOUS
  0
ENDTAB
  0
TABLE
  2
STYLE
 70
     6
  0
STYLE
  2
STANDARD
 70
     0
 40
0.0
 41
1.0
 50
0.0
 71
     0
 42
0.0
  3
txt
  4
BIGFONT
  0
STYLE
  2
00
 70
     0
 40
0.0
 41
0.6666666666666666
 50
0.0
 71
     0
 42
0.2
  3
ROMANS
  4
BIGFONT
  0
STYLE
  2
01
 70
     0
 40
3.0
 41
1.0
 50
0.0
 71
     0
 42
0.2
  3
ROMANS
  4
BIGFONT
  0
STYLE
  2
FILENAME
 70
     0
 40
200.0
 41
1.0
 50
0.0
 71
     0
 42
200.0
  3
romans
  4
bigfont
  0
STYLE
  2
WAKUMOJI
 70
     0
 40
3.0
 41
1.0
 50
0.0
 71
     0
 42
3.0
  3
SIMPLEX
  4
BIGFONT
  0
ENDTAB
  0
TABLE
  2
VIEW
 70
     0
  0
ENDTAB
  0
TABLE
  2
UCS
 70
     0
  0
ENDTAB
  0
TABLE
  2
APPID
 70
    13
  0
APPID
  2
ACAD
 70
     0
  0
APPID
  2
ACADANNOTATIVE
 70
     0
  0
APPID
  2
ACAD_PSEXT
 70
     0
  0
APPID
  2
DCO15
 70
     0
  0
APPID
  2
ACAD_MLEADERVER
 70
     0
  0
APPID
  2
AUTOCAD_POSTSCRIPT_FIGURE
 70
     0
  0
APPID
  2
ACAD_EXEMPT_FROM_CAD_STANDARDS
 70
     0
  0
APPID
  2
ACAD_DSTYLE_DIMJAG
 70
     0
  0
APPID
  2
ACAD_DSTYLE_DIMTALN
 70
     0
  0
APPID
  2
ACAD_DSTYLE_DIM_LINETYPE
 70
     0
  0
APPID
  2
ACAD_DSTYLE_DIM_EXT1_LINETYPE
 70
     0
  0
APPID
  2
ACAD_DSTYLE_DIM_EXT2_LINETYPE
 70
     0
  0
APPID
  2
ACAD_NAV_VCDISPLAY
 70
     0
  0
ENDTAB
  0
TABLE
  2
DIMSTYLE
 70
     3
  0
DIMSTYLE
  2
STANDARD
 70
     0
  3

  4

  5

  6

  7

 40
1.0
 41
0.18
 42
0.0625
 43
0.38
 44
0.18
 45
0.0
 46
0.0
 47
0.0
 48
0.0
140
0.18
141
0.09
142
0.0
143
25.3999999999999986
144
1.0
145
0.0
146
1.0
147
0.09
 71
     0
 72
     0
 73
     1
 74
     1
 75
     0
 76
     0
 77
     0
 78
     0
170
     0
171
     2
172
     0
173
     0
174
     0
175
     0
176
     0
177
     0
178
     0
  0
ENDTAB
  0
ENDSEC
  0
SECTION
  2
BLOCKS
  0
BLOCK
  8
0
  2
$MODEL_SPACE
 70
     0
 10
0.0
 20
0.0
 30
0.0
  3
$MODEL_SPACE
  1

  0
ENDBLK
  5
4B10
  8
0
  0
BLOCK
 67
     1
  8
0
  2
$PAPER_SPACE
 70
     0
 10
0.0
 20
0.0
 30
0.0
  3
$PAPER_SPACE
  1

  0
ENDBLK
  5
4B0C
 67
     1
  8
0
  0
ENDSEC
  0
SECTION
  2
ENTITIES
  0
LINE
  5
38
  8
0-1
  6
CONTINUOUS
 62
     4
 10
15006.1578210000097897
 20
6256.3200619999988703
 30
0.0
 11
19558.413085999989562
 21
6256.3200619999997798
 31
0.0
  0
CIRCLE
  5
7C4
  8
0-1
  6
CONTINUOUS
 62
     4
 10
15128.7166779999897699
 20
1375.99973399999908
 30
0.0
 40
20.0
  0
ARC
  5
7C5
  8
0-1
  6
CONTINUOUS
 62
     4
 10
15128.7166779999897699
 20
1375.99973399999908
 30
0.0
 40
20.0
 50
180.0
 51
0.0
  0
ARC
  5
7C6
  8
0-1
  6
CONTINUOUS
 62
     4
 10
15128.7166779999897699
 20
1375.99973399999908
 30
0.0
 40
20.0
 50
0.0
 51
179.9999849999983894
  0
CIRCLE
  5
7C7
  8
0-1
  6
CONTINUOUS
 62
     4
 10
15128.7166779999897699
 20
1775.9998169999998936
 30
0.0
 40
20.0
  0
ARC
  5
7C8
  8
0-1
  6
CONTINUOUS
 62
     4
 10
15128.7166779999897699
 20
1775.9998169999998936
 30
0.0
 40
20.0
 50
180.0
 51
0.0
  0
ARC
  5
7C9
  8
0-1
  6
CONTINUOUS
 62
     4
 10
15128.7166779999897699
 20
1775.9998169999998936
 30
0.0
 40
20.0
 50
0.0
 51
179.9999849999983894
  0
TEXT
  5
924
  8
0-1
  6
CONTINUOUS
 62
     7
 10
16618.5456476663493959
 20
1655.9997920000000704
 30
0.0
 40
160.0
  1
H
  0
TEXT
  5
925
  8
0-1
  6
CONTINUOUS
 62
     7
 10
15176.146932999990895
 20
1655.9997920000000704
 30
0.0
 40
160.0
  1
（ ）内寸法ハ、  タ イプヲ示ス。
  0
TEXT
  5
926
  8
0-1
  6
CONTINUOUS
 62
     7
 10
15288.7162169999992329
 20
1255.9997100000000501
 30
0.0
 40
160.0
  1
有効高サハ、基礎高サヲ含ミマセン。
  0
LINE
  5
135B
  8
0-1
  6
CONTINUOUS
 62
     3
 10
9012.6593379999976605
 20
8267.365444999997635
 30
0.0
 11
14893.6587439999802882
 21
8267.365444999997635
 31
0.0
  0
LINE
  5
135C
  8
0-1
  6
CONTINUOUS
 62
     3
 10
8302.659468999998353
 20
6256.3200619999997798
 30
0.0
 11
14926.1585460000005696
 21
6256.3200619999988703
 31
0.0
  0
LINE
  5
135D
  8
0-1
  6
CONTINUOUS
 62
     3
 10
9107.659404000001814
 20
6406.3200619999979608
 30
0.0
 11
11880.6586779999906867
 21
6406.3200619999979608
 31
0.0
  0
LINE
  5
135E
  8
0-1
  6
CONTINUOUS
 62
     3
 10
8985.1585460000005696
 20
6356.3194020000009914
 30
0.0
 11
14926.1585460000005696
 21
6356.3194020000000819
 31
0.0
  0
LINE
  5
135F
  8
0-1
  6
CONTINUOUS
 62
     3
 10
9107.659404000001814
 20
8267.365444999997635
 30
0.0
 11
9107.659404000001814
 21
6356.3194020000009914
 31
0.0
  0
LINE
  5
1360
  8
0-1
  6
CONTINUOUS
 62
     3
 10
8992.6572919999980513
 20
8389.4007859999983339
 30
0.0
 11
8992.6572919999980513
 21
6356.3194020000009914
 31
0.0
  0
LINE
  5
1361
  8
0-1
  6
CONTINUOUS
 62
     3
 10
9012.6593379999976605
 20
8390.018396000003122
 30
0.0
 11
9012.6593379999976605
 21
6356.3194020000009914
 31
0.0
  0
LINE
  5
1362
  8
0-1
  6
CONTINUOUS
 62
     3
 10
9231.1585979999981646
 20
6406.3200619999979608
 30
0.0
 11
9231.1585979999981646
 21
8267.365444999997635
 31
0.0
  0
LINE
  5
1363
  8
0-1
  6
CONTINUOUS
 62
     3
 10
9246.1584009999969567
 20
6406.3200619999979608
 30
0.0
 11
9246.1584009999969567
 21
8267.365444999997635
 31
0.0
  0
LINE
  5
1364
  8
0-1
  6
CONTINUOUS
 62
     3
 10
9647.1573979999902804
 20
6406.3200619999979608
 30
0.0
 11
9647.1573979999902804
 21
8267.365444999997635
 31
0.0
  0
LINE
  5
1365
  8
0-1
  6
CONTINUOUS
 62
     3
 10
9632.1575959999863699
 20
6406.3200619999979608
 30
0.0
 11
9632.1575959999863699
 21
8267.365444999997635
 31
0.0
  0
LINE
  5
1366
  8
0-1
  6
CONTINUOUS
 62
     3
 10
9499.1577009999982693
 20
6406.3200619999979608
 30
0.0
 11
9499.1577009999982693
 21
8267.365444999997635
 31
0.0
  0
LINE
  5
1367
  8
0-1
  6
CONTINUOUS
 62
     3
 10
9379.159284999997908
 20
6406.3200619999979608
 30
0.0
 11
9379.159284999997908
 21
8267.365444999997635
 31
0.0
  0
LINE
  5
1368
  8
0-1
  6
CONTINUOUS
 62
     3
 10
9449.1580310000044847
 20
6406.3200619999979608
 30
0.0
 11
9449.1580310000044847
 21
8267.365444999997635
 31
0.0
  0
LINE
  5
1369
  8
0-1
  6
CONTINUOUS
 62
     3
 10
9429.1579649999985122
 20
6406.3200619999979608
 30
0.0
 11
9429.1579649999985122
 21
8267.365444999997635
 31
0.0
  0
LINE
  5
136A
  8
0-1
  6
CONTINUOUS
 62
     3
 10
8985.1585460000005696
 20
6256.3200619999997798
 30
0.0
 11
8985.1585460000005696
 21
6356.3194020000009914
 31
0.0
  0
LINE
  5
136B
  8
0-1
  6
CONTINUOUS
 62
     3
 10
14988.6696969999793509
 20
8573.8642049999962182
 30
0.0
 11
14984.6562229999908595
 21
8703.802774000001591
 31
0.0
  0
LINE
  5
136C
  8
0-1
  6
CONTINUOUS
 62
     3
 10
12025.6584140000104526
 20
6406.3200619999979608
 30
0.0
 11
14798.6586779999997816
 21
6406.3200619999979608
 31
0.0
  0
LINE
  5
136D
  8
0-1
  6
CONTINUOUS
 62
     3
 10
12025.6584140000104526
 20
8267.365444999997635
 30
0.0
 11
12025.6584140000104526
 21
6356.3194020000009914
 31
0.0
  0
LINE
  5
136E
  8
0-1
  6
CONTINUOUS
 62
     3
 10
11880.6586779999906867
 20
8267.365444999997635
 30
0.0
 11
11880.6586779999906867
 21
6356.3194020000009914
 31
0.0
  0
LINE
  5
136F
  8
0-1
  6
CONTINUOUS
 62
     3
 10
12149.1585990000003221
 20
6406.3200619999979608
 30
0.0
 11
12149.1585990000003221
 21
8267.365444999997635
 31
0.0
  0
LINE
  5
1370
  8
0-1
  6
CONTINUOUS
 62
     3
 10
12164.1593910000101459
 20
6406.3200619999979608
 30
0.0
 11
12164.1593910000101459
 21
8267.365444999997635
 31
0.0
  0
LINE
  5
1371
  8
0-1
  6
CONTINUOUS
 62
     3
 10
12297.1582950000101846
 20
6406.3200619999979608
 30
0.0
 11
12297.1582950000101846
 21
8267.365444999997635
 31
0.0
  0
LINE
  5
1372
  8
0-1
  6
CONTINUOUS
 62
     3
 10
12347.1599450000103388
 20
6406.3200619999979608
 30
0.0
 11
12347.1599450000103388
 21
8267.365444999997635
 31
0.0
  0
LINE
  5
1373
  8
0-1
  6
CONTINUOUS
 62
     3
 10
12367.1580310000008467
 20
6406.3200619999979608
 30
0.0
 11
12367.1580310000008467
 21
8267.365444999997635
 31
0.0
  0
LINE
  5
1374
  8
0-1
  6
CONTINUOUS
 62
     3
 10
11539.1600510000098438
 20
6406.3200619999979608
 30
0.0
 11
11539.1600510000098438
 21
8267.365444999997635
 31
0.0
  0
LINE
  5
1375
  8
0-1
  6
CONTINUOUS
 62
     3
 10
11559.159127000000808
 20
6406.3200619999979608
 30
0.0
 11
11559.159127000000808
 21
8267.365444999997635
 31
0.0
  0
LINE
  5
1376
  8
0-1
  6
CONTINUOUS
 62
     3
 10
11609.1597870000005059
 20
6406.3200619999979608
 30
0.0
 11
11609.1597870000005059
 21
8267.365444999997635
 31
0.0
  0
LINE
  5
1377
  8
0-1
  6
CONTINUOUS
 62
     3
 10
11742.1596810000100959
 20
6406.3200619999979608
 30
0.0
 11
11742.1596810000100959
 21
8267.365444999997635
 31
0.0
  0
LINE
  5
1378
  8
0-1
  6
CONTINUOUS
 62
     3
 10
11757.1584930000099121
 20
6406.3200619999979608
 30
0.0
 11
11757.1584930000099121
 21
8267.365444999997635
 31
0.0
  0
LINE
  5
1379
  8
0-1
  6
CONTINUOUS
 62
     3
 10
11489.1593910000101459
 20
6406.3200619999979608
 30
0.0
 11
11489.1593910000101459
 21
8267.365444999997635
 31
0.0
  0
LINE
  5
137A
  8
0-1
  6
CONTINUOUS
 62
     3
 10
11356.1594960000002175
 20
6406.3200619999979608
 30
0.0
 11
11356.1594960000002175
 21
8267.365444999997635
 31
0.0
  0
LINE
  5
137B
  8
0-1
  6
CONTINUOUS
 62
     3
 10
11341.1587039999903936
 20
6406.3200619999979608
 30
0.0
 11
11341.1587039999903936
 21
8267.365444999997635
 31
0.0
  0
LINE
  5
137C
  8
0-1
  6
CONTINUOUS
 62
     3
 10
10139.1584010000096896
 20
6406.3200619999979608
 30
0.0
 11
10139.1584010000096896
 21
8267.365444999997635
 31
0.0
  0
LINE
  5
137D
  8
0-1
  6
CONTINUOUS
 62
     3
 10
10159.1604459999907704
 20
6406.3200619999979608
 30
0.0
 11
10159.1604459999907704
 21
8267.365444999997635
 31
0.0
  0
LINE
  5
137E
  8
0-1
  6
CONTINUOUS
 62
     3
 10
10089.158731000010448
 20
6406.3200619999979608
 30
0.0
 11
10089.158731000010448
 21
8267.365444999997635
 31
0.0
  0
LINE
  5
137F
  8
0-1
  6
CONTINUOUS
 62
     3
 10
10209.1581370000003517
 20
6406.3200619999979608
 30
0.0
 11
10209.1581370000003517
 21
8267.365444999997635
 31
0.0
  0
LINE
  5
1380
  8
0-1
  6
CONTINUOUS
 62
     3
 10
10342.159021000010398
 20
6406.3200619999979608
 30
0.0
 11
10342.159021000010398
 21
8267.365444999997635
 31
0.0
  0
LINE
  5
1381
  8
0-1
  6
CONTINUOUS
 62
     3
 10
10357.1598130000002129
 20
6406.3200619999979608
 30
0.0
 11
10357.1598130000002129
 21
8267.365444999997635
 31
0.0
  0
LINE
  5
1382
  8
0-1
  6
CONTINUOUS
 62
     3
 10
9956.1578470000004017
 20
6406.3200619999979608
 30
0.0
 11
9956.1578470000004017
 21
8267.365444999997635
 31
0.0
  0
LINE
  5
1383
  8
0-1
  6
CONTINUOUS
 62
     3
 10
9941.159034000007523
 20
6406.3200619999979608
 30
0.0
 11
9941.159034000007523
 21
8267.365444999997635
 31
0.0
  0
LINE
  5
1384
  8
0-1
  6
CONTINUOUS
 62
     3
 10
10641.1583750000008877
 20
6406.3200619999979608
 30
0.0
 11
10641.1583750000008877
 21
8267.365444999997635
 31
0.0
  0
LINE
  5
1385
  8
0-1
  6
CONTINUOUS
 62
     3
 10
10656.1571870000097988
 20
6406.3200619999979608
 30
0.0
 11
10656.1571870000097988
 21
8267.365444999997635
 31
0.0
  0
LINE
  5
1386
  8
0-1
  6
CONTINUOUS
 62
     3
 10
11057.159153000000515
 20
6406.3200619999979608
 30
0.0
 11
11057.159153000000515
 21
8267.365444999997635
 31
0.0
  0
LINE
  5
1387
  8
0-1
  6
CONTINUOUS
 62
     3
 10
11042.1583609999997861
 20
6406.3200619999979608
 30
0.0
 11
11042.1583609999997861
 21
8267.365444999997635
 31
0.0
  0
LINE
  5
1388
  8
0-1
  6
CONTINUOUS
 62
     3
 10
10909.1574769999897399
 20
6406.3200619999979608
 30
0.0
 11
10909.1574769999897399
 21
8267.365444999997635
 31
0.0
  0
LINE
  5
1389
  8
0-1
  6
CONTINUOUS
 62
     3
 10
10789.1600510000098438
 20
6406.3200619999979608
 30
0.0
 11
10789.1600510000098438
 21
8267.365444999997635
 31
0.0
  0
LINE
  5
138A
  8
0-1
  6
CONTINUOUS
 62
     3
 10
10859.1597870000096009
 20
6406.3200619999979608
 30
0.0
 11
10859.1597870000096009
 21
8267.365444999997635
 31
0.0
  0
LINE
  5
138B
  8
0-1
  6
CONTINUOUS
 62
     3
 10
10839.1597209999999905
 20
6406.3200619999979608
 30
0.0
 11
10839.1597209999999905
 21
8267.365444999997635
 31
0.0
  0
LINE
  5
138C
  8
0-1
  6
CONTINUOUS
 62
     3
 10
11180.6593380000103934
 20
8267.365444999997635
 30
0.0
 11
11180.6593380000103934
 21
6406.3200619999979608
 31
0.0
  0
LINE
  5
138D
  8
0-1
  6
CONTINUOUS
 62
     3
 10
11217.6585200000008626
 20
8267.365444999997635
 30
0.0
 11
11217.6585200000008626
 21
6406.3200619999979608
 31
0.0
  0
LINE
  5
138E
  8
0-1
  6
CONTINUOUS
 62
     3
 10
9770.6575819999907253
 20
8267.365444999997635
 30
0.0
 11
9770.6575819999907253
 21
6406.3200619999979608
 31
0.0
  0
LINE
  5
138F
  8
0-1
  6
CONTINUOUS
 62
     3
 10
9807.6577539999962028
 20
8267.365444999997635
 30
0.0
 11
9807.6577539999962028
 21
6406.3200619999979608
 31
0.0
  0
LINE
  5
1390
  8
0-1
  6
CONTINUOUS
 62
     3
 10
10480.6599980000100913
 20
8267.365444999997635
 30
0.0
 11
10480.6599980000100913
 21
6406.3200619999979608
 31
0.0
  0
LINE
  5
1391
  8
0-1
  6
CONTINUOUS
 62
     3
 10
10517.6591800000005605
 20
8267.365444999997635
 30
0.0
 11
10517.6591800000005605
 21
6406.3200619999979608
 31
0.0
  0
LINE
  5
1392
  8
0-1
  6
CONTINUOUS
 62
     3
 10
11953.1070789999903354
 20
8480.4734869999956572
 30
0.0
 11
11949.0945940000001428
 21
8610.4120559999973921
 31
0.0
  0
LINE
  5
1393
  8
0-1
  6
CONTINUOUS
 62
     3
 10
11953.1585460000005696
 20
8480.4754670000038459
 30
0.0
 11
11953.1585460000005696
 21
8267.365444999997635
 31
0.0
  0
LINE
  5
1394
  8
0-1
  6
CONTINUOUS
 62
     3
 10
14798.6586779999997816
 20
8267.365444999997635
 30
0.0
 11
14798.6586779999997816
 21
6356.3194020000009914
 31
0.0
  0
LINE
  5
1395
  8
0-1
  6
CONTINUOUS
 62
     3
 10
14913.6597989999991114
 20
8571.5491579999979876
 30
0.0
 11
14913.6597989999991114
 21
6356.3194020000009914
 31
0.0
  0
LINE
  5
1396
  8
0-1
  6
CONTINUOUS
 62
     3
 10
14893.6587439999802882
 20
8570.9315480000004754
 30
0.0
 11
14893.6587439999802882
 21
6356.3194020000009914
 31
0.0
  0
LINE
  5
1397
  8
0-1
  6
CONTINUOUS
 62
     3
 10
13388.6598919999996724
 20
8267.365444999997635
 30
0.0
 11
13388.6598919999996724
 21
6406.3200619999979608
 31
0.0
  0
LINE
  5
1398
  8
0-1
  6
CONTINUOUS
 62
     3
 10
13425.6600639999905979
 20
8267.365444999997635
 30
0.0
 11
13425.6600639999905979
 21
6406.3200619999979608
 31
0.0
  0
LINE
  5
1399
  8
0-1
  6
CONTINUOUS
 62
     3
 10
14088.6592319999999745
 20
8267.365444999997635
 30
0.0
 11
14088.6592319999999745
 21
6406.3200619999979608
 31
0.0
  0
LINE
  5
139A
  8
0-1
  6
CONTINUOUS
 62
     3
 10
14125.6584139999904437
 20
8267.365444999997635
 30
0.0
 11
14125.6584139999904437
 21
6406.3200619999979608
 31
0.0
  0
LINE
  5
139B
  8
0-1
  6
CONTINUOUS
 62
     3
 10
12688.6575830000001588
 20
8267.365444999997635
 30
0.0
 11
12688.6575830000001588
 21
6406.3200619999979608
 31
0.0
  0
LINE
  5
139C
  8
0-1
  6
CONTINUOUS
 62
     3
 10
12725.658744000009392
 20
8267.365444999997635
 30
0.0
 11
12725.658744000009392
 21
6406.3200619999979608
 31
0.0
  0
LINE
  5
139D
  8
0-1
  6
CONTINUOUS
 62
     3
 10
13067.1573720000105823
 20
6406.3200619999979608
 30
0.0
 11
13067.1573720000105823
 21
8267.365444999997635
 31
0.0
  0
LINE
  5
139E
  8
0-1
  6
CONTINUOUS
 62
     3
 10
13047.1582949999992707
 20
6406.3200619999979608
 30
0.0
 11
13047.1582949999992707
 21
8267.365444999997635
 31
0.0
  0
LINE
  5
139F
  8
0-1
  6
CONTINUOUS
 62
     3
 10
13117.1590209999903891
 20
6406.3200619999979608
 30
0.0
 11
13117.1590209999903891
 21
8267.365444999997635
 31
0.0
  0
LINE
  5
13A0
  8
0-1
  6
CONTINUOUS
 62
     3
 10
12997.1596150000095804
 20
6406.3200619999979608
 30
0.0
 11
12997.1596150000095804
 21
8267.365444999997635
 31
0.0
  0
LINE
  5
13A1
  8
0-1
  6
CONTINUOUS
 62
     3
 10
12864.158731000010448
 20
6406.3200619999979608
 30
0.0
 11
12864.158731000010448
 21
8267.365444999997635
 31
0.0
  0
LINE
  5
13A2
  8
0-1
  6
CONTINUOUS
 62
     3
 10
12849.1589290000101755
 20
6406.3200619999979608
 30
0.0
 11
12849.1589290000101755
 21
8267.365444999997635
 31
0.0
  0
LINE
  5
13A3
  8
0-1
  6
CONTINUOUS
 62
     3
 10
13250.1599050000004354
 20
6406.3200619999979608
 30
0.0
 11
13250.1599050000004354
 21
8267.365444999997635
 31
0.0
  0
LINE
  5
13A4
  8
0-1
  6
CONTINUOUS
 62
     3
 10
13265.1597070000007079
 20
6406.3200619999979608
 30
0.0
 11
13265.1597070000007079
 21
8267.365444999997635
 31
0.0
  0
LINE
  5
13A5
  8
0-1
  6
CONTINUOUS
 62
     3
 10
13965.1590479999904346
 20
6406.3200619999979608
 30
0.0
 11
13965.1590479999904346
 21
8267.365444999997635
 31
0.0
  0
LINE
  5
13A6
  8
0-1
  6
CONTINUOUS
 62
     3
 10
13950.1582560000006197
 20
6406.3200619999979608
 30
0.0
 11
13950.1582560000006197
 21
8267.365444999997635
 31
0.0
  0
LINE
  5
13A7
  8
0-1
  6
CONTINUOUS
 62
     3
 10
13549.1582690000104776
 20
6406.3200619999979608
 30
0.0
 11
13549.1582690000104776
 21
8267.365444999997635
 31
0.0
  0
LINE
  5
13A8
  8
0-1
  6
CONTINUOUS
 62
     3
 10
13564.1600510000007489
 20
6406.3200619999979608
 30
0.0
 11
13564.1600510000007489
 21
8267.365444999997635
 31
0.0
  0
LINE
  5
13A9
  8
0-1
  6
CONTINUOUS
 62
     3
 10
13697.15994499999033
 20
6406.3200619999979608
 30
0.0
 11
13697.15994499999033
 21
8267.365444999997635
 31
0.0
  0
LINE
  5
13AA
  8
0-1
  6
CONTINUOUS
 62
     3
 10
13817.1573720000105823
 20
6406.3200619999979608
 30
0.0
 11
13817.1573720000105823
 21
8267.365444999997635
 31
0.0
  0
LINE
  5
13AB
  8
0-1
  6
CONTINUOUS
 62
     3
 10
13747.1576359999908163
 20
6406.3200619999979608
 30
0.0
 11
13747.1576359999908163
 21
8267.365444999997635
 31
0.0
  0
LINE
  5
13AC
  8
0-1
  6
CONTINUOUS
 62
     3
 10
13767.1596810000100959
 20
6406.3200619999979608
 30
0.0
 11
13767.1596810000100959
 21
8267.365444999997635
 31
0.0
  0
LINE
  5
13AD
  8
0-1
  6
CONTINUOUS
 62
     3
 10
14467.159020999999484
 20
6406.3200619999979608
 30
0.0
 11
14467.159020999999484
 21
8267.365444999997635
 31
0.0
  0
LINE
  5
13AE
  8
0-1
  6
CONTINUOUS
 62
     3
 10
14447.15994499999033
 20
6406.3200619999979608
 30
0.0
 11
14447.15994499999033
 21
8267.365444999997635
 31
0.0
  0
LINE
  5
13AF
  8
0-1
  6
CONTINUOUS
 62
     3
 10
14517.1596809999991819
 20
6406.3200619999979608
 30
0.0
 11
14517.1596809999991819
 21
8267.365444999997635
 31
0.0
  0
LINE
  5
13B0
  8
0-1
  6
CONTINUOUS
 62
     3
 10
14397.1592850000106409
 20
6406.3200619999979608
 30
0.0
 11
14397.1592850000106409
 21
8267.365444999997635
 31
0.0
  0
LINE
  5
13B1
  8
0-1
  6
CONTINUOUS
 62
     3
 10
14264.1593910000101459
 20
6406.3200619999979608
 30
0.0
 11
14264.1593910000101459
 21
8267.365444999997635
 31
0.0
  0
LINE
  5
13B2
  8
0-1
  6
CONTINUOUS
 62
     3
 10
14249.1576089999998658
 20
6406.3200619999979608
 30
0.0
 11
14249.1576089999998658
 21
8267.365444999997635
 31
0.0
  0
LINE
  5
13B3
  8
0-1
  6
CONTINUOUS
 62
     3
 10
14660.1596800000006624
 20
6406.3200619999979608
 30
0.0
 11
14660.1596800000006624
 21
8267.365444999997635
 31
0.0
  0
LINE
  5
13B4
  8
0-1
  6
CONTINUOUS
 62
     3
 10
14675.1584930000008171
 20
6406.3200619999979608
 30
0.0
 11
14675.1584930000008171
 21
8267.365444999997635
 31
0.0
  0
LINE
  5
13B5
  8
0-1
  6
CONTINUOUS
 62
     3
 10
12565.1573980000102893
 20
6406.3200619999979608
 30
0.0
 11
12565.1573980000102893
 21
8267.365444999997635
 31
0.0
  0
LINE
  5
13B6
  8
0-1
  6
CONTINUOUS
 62
     3
 10
12550.1585860000104731
 20
6406.3200619999979608
 30
0.0
 11
12550.1585860000104731
 21
8267.365444999997635
 31
0.0
  0
LINE
  5
13B7
  8
0-1
  6
CONTINUOUS
 62
     3
 10
12417.1596809999991819
 20
6406.3200619999979608
 30
0.0
 11
12417.1596809999991819
 21
8267.365444999997635
 31
0.0
  0
LINE
  5
13B8
  8
0-1
  6
CONTINUOUS
 62
     3
 10
14926.1585460000005696
 20
6356.3194020000000819
 30
0.0
 11
14926.1585460000005696
 21
6256.3200619999988703
 31
0.0
  0
LINE
  5
13B9
  8
0-1
  6
CONTINUOUS
 62
     3
 10
8815.187512999997125
 20
8431.9455889999990177
 30
0.0
 11
8814.1403469999968365
 21
8465.930953999999474
 31
0.0
  0
LINE
  5
13BA
  8
0-1
  6
CONTINUOUS
 62
     3
 10
8817.0462809999989986
 20
8469.0209829999985232
 30
0.0
 11
14998.0397479999992356
 21
8659.194322999994256
 31
0.0
  0
LINE
  5
13BB
  8
0-1
  6
CONTINUOUS
 62
     3
 10
14999.2729879999897094
 20
8619.2129959999983839
 30
0.0
 11
8818.2795209999967483
 21
8429.0396560000008321
 31
0.0
  0
LINE
  5
13BC
  8
0-1
  6
CONTINUOUS
 62
     3
 10
8816.8928680000008171
 20
8474.0192669999923964
 30
0.0
 11
14997.8853459999991173
 21
8664.1916170000004058
 31
0.0
  0
LINE
  5
13BD
  8
0-1
  6
CONTINUOUS
 62
     3
 10
14999.4264010000006238
 20
8614.2147119999972347
 30
0.0
 11
8818.4319439999908354
 21
8424.0423619999983202
 31
0.0
  0
LINE
  5
13BE
  8
0-1
  6
CONTINUOUS
 62
     3
 10
8815.5260099999977683
 20
8420.9513430000006338
 30
0.0
 11
8815.5260099999977683
 21
8421.0166670000016893
 31
0.0
  0
LINE
  5
13BF
  8
0-1
  6
CONTINUOUS
 62
     3
 10
8815.5260099999977683
 20
8421.0166670000016893
 30
0.0
 11
8816.515769999998156
 21
8388.9672720000016852
 31
0.0
  0
LINE
  5
13C0
  8
0-1
  6
CONTINUOUS
 62
     3
 10
8821.6674670000011247
 20
8384.1243800000011106
 30
0.0
 11
15021.6336300000002666
 21
8574.8816770000048564
 31
0.0
  0
LINE
  5
13C1
  8
0-1
  6
CONTINUOUS
 62
     3
 10
15017.6231250000000728
 20
8704.8212359999997716
 30
0.0
 11
8817.6569619999991119
 21
8514.0619590000005701
 31
0.0
  0
LINE
  5
13C2
  8
0-1
  6
CONTINUOUS
 62
     3
 10
8812.8120899999994435
 20
8508.909272000002602
 30
0.0
 11
8813.8008599999975559
 21
8476.925199999997858
 31
0.0
  0
LINE
  5
13C3
  8
0-1
  6
CONTINUOUS
 62
     3
 10
8830.1516829999945912
 20
8514.446974999995291
 30
0.0
 11
8834.162187999998423
 21
8384.5084060000008321
 31
0.0
  0
LINE
  5
13C4
  8
2-0
  6
CENTER2
 62
     6
 10
9035.1585460000005696
 20
5993.6666490000034173
 30
0.0
 11
9035.1585460000005696
 21
7050.8092470000010508
 31
0.0
  0
LINE
  5
13C5
  8
2-0
  6
CENTER2
 62
     6
 10
11953.1585460000005696
 20
5993.6666490000034173
 30
0.0
 11
11953.1585460000005696
 21
7050.8092470000010508
 31
0.0
  0
LINE
  5
13C6
  8
2-0
  6
CENTER2
 62
     6
 10
14871.1585460000005696
 20
5993.6666490000034173
 30
0.0
 11
14871.1585460000005696
 21
7050.8092470000010508
 31
0.0
  0
ARC
  5
13C7
  8
0-1
  6
CONTINUOUS
 62
     3
 10
8819.8562070000007225
 20
8426.5880219999980909
 30
0.0
 40
2.5
 50
271.7679899998818769
 51
91.7679899998818769
  0
ARC
  5
13C8
  8
0-1
  6
CONTINUOUS
 62
     3
 10
8818.4685649999973975
 20
8471.565654000001814
 30
0.0
 40
2.5
 50
271.7679899998818769
 51
91.7679899998818769
  0
ARC
  5
13C9
  8
0-1
  6
CONTINUOUS
 62
     3
 10
8817.1373379999968165
 20
8466.0230019999980868
 30
0.0
 40
3.0
 50
91.7679899998818769
 51
181.767989999986014
  0
ARC
  5
13CA
  8
0-1
  6
CONTINUOUS
 62
     3
 10
14998.6563679999999295
 20
8639.203163999996832
 30
0.0
 40
20.0
 50
271.7679899998818769
 51
91.7679899998818769
  0
ARC
  5
13CB
  8
0-1
  6
CONTINUOUS
 62
     3
 10
8818.1874729999999545
 20
8432.0396169999949052
 30
0.0
 40
3.0
 50
181.767989999986014
 51
271.7679899998818769
  0
ARC
  5
13CC
  8
0-1
  6
CONTINUOUS
 62
     3
 10
14998.6563679999999295
 20
8639.203163999996832
 30
0.0
 40
24.999998999999999
 50
271.7679899998818769
 51
91.7679899998818769
  0
ARC
  5
13CD
  8
0-1
  6
CONTINUOUS
 62
     3
 10
8818.5279499999978725
 20
8421.0443809999997029
 30
0.0
 40
3.0
 50
91.7679899998818769
 51
181.767989999986014
  0
ARC
  5
13CE
  8
0-1
  6
CONTINUOUS
 62
     3
 10
8821.5130640000024869
 20
8389.1216739999999845
 30
0.0
 40
5.0
 50
181.767989999986014
 51
271.7679899998818769
  0
ARC
  5
13CF
  8
0-1
  6
CONTINUOUS
 62
     3
 10
14993.6590729999898031
 20
8639.0487619999985327
 30
0.0
 40
69.9999990000000025
 50
293.5547790001322142
 51
69.9812009999045728
  0
ARC
  5
13D0
  8
0-1
  6
CONTINUOUS
 62
     3
 10
8817.8113649999977497
 20
8509.0636740000009013
 30
0.0
 40
5.0
 50
91.7679899998818769
 51
181.767989999986014
  0
ARC
  5
13D1
  8
0-1
  6
CONTINUOUS
 62
     3
 10
8816.7978510000011738
 20
8477.0172480000019277
 30
0.0
 40
3.0
 50
181.767989999986014
 51
271.7679899998818769
  0
TEXT
  5
13D2
  8
2-0
  6
CONTINUOUS
 62
     7
 10
10633.8351460000103543
 20
3295.169351000000006
 30
0.0
 40
160.0
  1
側 面 立 面 図
 72
     4
 11
11279.168479333340656
 21
3375.169351000000006
 31
0.0
  0
TEXT
  5
13D3
  8
2-0
  6
CONTINUOUS
 62
     7
 10
12630.660664470949996
 20
3322.3647200000018529
 30
0.0
 40
160.0
  1
1
 72
     4
 11
12657.3273311376196943
 21
3402.3647200000009434
 31
0.0
  0
TEXT
  5
13D4
  8
2-0
  6
CONTINUOUS
 62
     7
 10
12873.7493817216491152
 20
3242.3661879999999655
 30
0.0
 40
160.0
  1
80
 72
     4
 11
12993.7493817216491152
 21
3322.3661879999999655
 31
0.0
  0
TEXT
  5
13D5
  8
2-0
  6
CONTINUOUS
 62
     7
 10
12131.6626304709498072
 20
3295.169351000000006
 30
0.0
 40
160.0
  1
(S=  /   )
 72
     4
 11
12691.6626304709498072
 21
3375.169351000000006
 31
0.0
  0
LINE
  5
13D6
  8
0-5
  6
CONTINUOUS
 62
     4
 10
14871.1585460000005696
 20
4576.3194679999996879
 30
0.0
 11
14871.1585460000005696
 21
4416.3199300000023868
 31
0.0
  0
LINE
  5
13D7
  8
0-5
  6
CONTINUOUS
 62
     4
 10
11953.1585460000005696
 20
4576.3194679999996879
 30
0.0
 11
11953.1585460000005696
 21
4416.3199300000023868
 31
0.0
  0
LINE
  5
13D8
  8
0-5
  6
CONTINUOUS
 62
     4
 10
9035.1585460000005696
 20
4576.3194679999996879
 30
0.0
 11
9035.1585460000005696
 21
4416.3199300000023868
 31
0.0
  0
CIRCLE
  5
13D9
  8
0-5
  6
CONTINUOUS
 62
     4
 10
11953.1585460000005696
 20
4216.3187750000033702
 30
0.0
 40
199.9999949999998989
  0
CIRCLE
  5
13DA
  8
0-5
  6
CONTINUOUS
 62
     4
 10
14871.1585460000005696
 20
4216.3187750000033702
 30
0.0
 40
199.9999949999998989
  0
CIRCLE
  5
13DB
  8
0-5
  6
CONTINUOUS
 62
     4
 10
9035.1585460000005696
 20
4216.3187750000033702
 30
0.0
 40
199.9999949999998989
  0
TEXT
  5
13DC
  8
0-5
  6
CONTINUOUS
 62
     7
 10
14824.2023859999899287
 20
4133.1079790000003413
 30
0.0
 40
160.0
  1
A
 72
     4
 11
14877.5357193333293253
 21
4213.1079790000012508
 31
0.0
  0
TEXT
  5
13DD
  8
0-5
  6
CONTINUOUS
 62
     7
 10
11906.2023859999808337
 20
4133.1079790000003413
 30
0.0
 40
160.0
  1
B
 72
     4
 11
11959.5357193333202304
 21
4213.1079790000012508
 31
0.0
  0
TEXT
  5
13DE
  8
0-5
  6
CONTINUOUS
 62
     7
 10
8988.2023860000026616
 20
4133.1079790000003413
 30
0.0
 40
160.0
  1
C
 72
     4
 11
9041.5357193333366013
 21
4213.1079790000012508
 31
0.0
  0
LINE
  5
13E4
  8
0-5
  6
CONTINUOUS
 62
     4
 10
16631.2425429999893822
 20
6356.3194020000000819
 30
0.0
 11
16751.2429389999888372
 21
6564.1663789999984147
 31
0.0
  0
LINE
  5
13E5
  8
0-5
  6
CONTINUOUS
 62
     4
 10
16511.2441259999905014
 20
6564.1663789999984147
 30
0.0
 11
16631.2425429999893822
 21
6356.3194020000000819
 31
0.0
  0
LINE
  5
13E6
  8
0-5
  6
CONTINUOUS
 62
     4
 10
16751.2429389999888372
 20
6564.1663789999984147
 30
0.0
 11
16511.2441259999905014
 21
6564.1663789999984147
 31
0.0
  0
LINE
  5
13E7
  8
0-5
  6
CONTINUOUS
 62
     4
 10
15006.1558409999906871
 20
6356.3194019999991724
 30
0.0
 11
16723.6207359999898472
 21
6356.3194020000000819
 31
0.0
  0
TEXT
  5
13E8
  8
0-5
  6
CONTINUOUS
 62
     7
 10
16172.1506139999801235
 20
6644.1656529999991108
 30
0.0
 40
160.0
  1
布基礎天端
 72
     4
 11
16630.8172806666516408
 21
6724.1656529999991108
 31
0.0
  0
LINE
  5
1B1E
  8
0-1
  6
CONTINUOUS
 62
     3
 10
9240.4535750000086409
 20
19393.2821970000113652
 30
0.0
 11
9240.4535750000086409
 21
20094.226823000019067
 31
0.0
  0
LINE
  5
1B1F
  8
0-1
  6
CONTINUOUS
 62
     3
 10
9203.4553830000077141
 20
19412.0381350000097882
 30
0.0
 11
9203.4553830000077141
 21
20094.226823000019067
 31
0.0
  0
LINE
  5
1B20
  8
0-1
  6
CONTINUOUS
 62
     3
 10
8682.4549209999968298
 20
17007.7291459999905783
 30
0.0
 11
13407.7054090000092401
 21
17007.7291459999905783
 31
0.0
  0
LINE
  5
1B21
  8
0-1
  6
CONTINUOUS
 62
     3
 10
8732.4555410000029951
 20
13895.2305579999992915
 30
0.0
 11
8732.4555410000029951
 21
20094.226823000019067
 31
0.0
  0
LINE
  5
1B22
  8
0-1
  6
CONTINUOUS
 62
     3
 10
8596.9555150000014692
 20
13863.2296609999993962
 30
0.0
 11
8596.9555150000014692
 21
20104.2282750000085798
 31
0.0
  0
LINE
  5
1B23
  8
0-1
  6
CONTINUOUS
 62
     3
 10
8790.9543140000023413
 20
19615.7979009999908158
 30
0.0
 11
8790.9543140000023413
 21
20094.226823000019067
 31
0.0
  0
LINE
  5
1B24
  8
0-1
  6
CONTINUOUS
 62
     3
 10
8827.9554750000024796
 20
19597.0459210000117309
 30
0.0
 11
8827.9554750000024796
 21
20094.226823000019067
 31
0.0
  0
LINE
  5
1B25
  8
0-1
  6
CONTINUOUS
 62
     3
 10
8990.9559630000003381
 20
19514.4267540000109875
 30
0.0
 11
8990.9559630000003381
 21
20094.226823000019067
 31
0.0
  0
LINE
  5
1B26
  8
0-1
  6
CONTINUOUS
 62
     3
 10
9027.9541549999994459
 20
19495.6708160000089265
 30
0.0
 11
9027.9541549999994459
 21
20094.226823000019067
 31
0.0
  0
LINE
  5
1B27
  8
0-1
  6
CONTINUOUS
 62
     3
 10
9403.4550530000142317
 20
19310.6630300000106217
 30
0.0
 11
9403.4550530000142317
 21
20094.226823000019067
 31
0.0
  0
LINE
  5
1B28
  8
0-1
  6
CONTINUOUS
 62
     3
 10
9440.4552250000124332
 20
19291.9090709999982209
 30
0.0
 11
9440.4552250000124332
 21
20094.226823000019067
 31
0.0
  0
LINE
  5
1B29
  8
0-1
  6
CONTINUOUS
 62
     3
 10
9603.4537330000093789
 20
19209.2899039999902016
 30
0.0
 11
9603.4537330000093789
 21
20094.226823000019067
 31
0.0
  0
LINE
  5
1B2A
  8
0-1
  6
CONTINUOUS
 62
     3
 10
9640.4548950000116747
 20
19190.5379240000111167
 30
0.0
 11
9640.4548950000116747
 21
20094.226823000019067
 31
0.0
  0
LINE
  5
1B2B
  8
0-1
  6
CONTINUOUS
 62
     3
 10
11568.7524429999994027
 20
18208.1426539999883971
 30
0.0
 11
11730.9898270000103366
 21
18398.3506349999915983
 31
0.0
  0
LINE
  5
1B2C
  8
0-1
  6
CONTINUOUS
 62
     3
 10
12167.3459950000105891
 20
17363.9850849999893398
 30
0.0
 11
12329.5833790000106092
 21
17554.193065999999817
 31
0.0
  0
LINE
  5
1B2D
  8
0-1
  6
CONTINUOUS
 62
     3
 10
12167.3459950000105891
 20
17363.9850849999893398
 30
0.0
 11
11730.9898270000103366
 21
18398.3506349999915983
 31
0.0
  0
LINE
  5
1B2E
  8
0-1
  6
CONTINUOUS
 62
     3
 10
8682.4549209999968298
 20
16928.7285389999815379
 30
0.0
 11
13563.5628050000104849
 21
16928.7285389999815379
 31
0.0
  0
LINE
  5
1B2F
  8
0-1
  6
CONTINUOUS
 62
     3
 10
8639.9546570000020438
 20
14019.2305709999800456
 30
0.0
 11
15261.9541949999893404
 21
14019.2305709999800456
 31
0.0
  0
LINE
  5
1B30
  8
0-1
  6
CONTINUOUS
 62
     3
 10
8682.4549209999968298
 20
14098.2311779999999999
 30
0.0
 11
15219.4549209999895538
 21
14098.2311779999999999
 31
0.0
  0
LINE
  5
1B31
  8
0-1
  6
CONTINUOUS
 62
     3
 10
8596.9555150000014692
 20
13863.2296609999993962
 30
0.0
 11
15304.9553169999908278
 21
13863.2296609999993962
 31
0.0
  0
LINE
  5
1B32
  8
0-1
  6
CONTINUOUS
 62
     3
 10
8596.9555150000014692
 20
13895.2305579999992915
 30
0.0
 11
15304.9553169999908278
 21
13895.2305579999992915
 31
0.0
  0
LINE
  5
1B33
  8
0-1
  6
CONTINUOUS
 62
     3
 10
15453.1519359999892913
 20
15976.2782249999891064
 30
0.0
 11
12329.5833790000106092
 21
17554.193065999999817
 31
0.0
  0
LINE
  5
1B34
  8
0-1
  6
CONTINUOUS
 62
     3
 10
8682.4549209999968298
 20
14019.2305709999800456
 30
0.0
 11
8682.4549209999968298
 21
19670.7948660000110976
 31
0.0
  0
LINE
  5
1B35
  8
0-1
  6
CONTINUOUS
 62
     3
 10
8639.9546570000020438
 20
14019.2305709999800456
 30
0.0
 11
8639.9546570000020438
 21
19692.3359869999985676
 31
0.0
  0
LINE
  5
1B36
  8
0-1
  6
CONTINUOUS
 62
     3
 10
9803.4553830000077141
 20
19107.9187570000103733
 30
0.0
 11
9803.4553830000077141
 21
20094.226823000019067
 31
0.0
  0
LINE
  5
1B37
  8
0-1
  6
CONTINUOUS
 62
     3
 10
9840.4535750000068219
 20
19089.1628180000006978
 30
0.0
 11
9840.4535750000068219
 21
20094.226823000019067
 31
0.0
  0
LINE
  5
1B38
  8
0-1
  6
CONTINUOUS
 62
     3
 10
10003.4550530000105937
 20
19006.5436510000108683
 30
0.0
 11
10003.4550530000105937
 21
20094.226823000019067
 31
0.0
  0
LINE
  5
1B39
  8
0-1
  6
CONTINUOUS
 62
     3
 10
10403.4543929999999818
 20
18803.7973990000100457
 30
0.0
 11
10403.4543929999999818
 21
20094.226823000019067
 31
0.0
  0
LINE
  5
1B3A
  8
0-1
  6
CONTINUOUS
 62
     3
 10
10440.4545650000090973
 20
18785.0414610000007087
 30
0.0
 11
10440.4545650000090973
 21
20094.226823000019067
 31
0.0
  0
LINE
  5
1B3B
  8
0-1
  6
CONTINUOUS
 62
     3
 10
10603.4550530000105937
 20
18702.4222939999999653
 30
0.0
 11
10603.4550530000105937
 21
20094.226823000019067
 31
0.0
  0
LINE
  5
1B3C
  8
0-1
  6
CONTINUOUS
 62
     3
 10
10640.4542349999901489
 20
18683.6663550000084797
 30
0.0
 11
10640.4542349999901489
 21
20094.226823000019067
 31
0.0
  0
LINE
  5
1B3D
  8
0-1
  6
CONTINUOUS
 62
     3
 10
10803.4547230000007403
 20
18601.0471880000004603
 30
0.0
 11
10803.4547230000007403
 21
20094.226823000019067
 31
0.0
  0
LINE
  5
1B3E
  8
0-1
  6
CONTINUOUS
 62
     3
 10
10840.4548950000098557
 20
18577.2931759999992209
 30
0.0
 11
10840.4548950000098557
 21
20094.226823000019067
 31
0.0
  0
LINE
  5
1B3F
  8
0-1
  6
CONTINUOUS
 62
     3
 10
11003.4543929999999818
 20
18494.6740089999912016
 30
0.0
 11
11003.4543929999999818
 21
20094.226823000019067
 31
0.0
  0
LINE
  5
1B40
  8
0-1
  6
CONTINUOUS
 62
     3
 10
11040.4545650000000023
 20
18475.9220300000015413
 30
0.0
 11
11040.4545650000000023
 21
20094.226823000019067
 31
0.0
  0
LINE
  5
1B41
  8
0-1
  6
CONTINUOUS
 62
     3
 10
11203.4560429999892222
 20
18393.3028630000007979
 30
0.0
 11
11203.4560429999892222
 21
20094.226823000019067
 31
0.0
  0
LINE
  5
1B42
  8
0-1
  6
CONTINUOUS
 62
     3
 10
11240.4542350000101578
 20
18374.5469239999983984
 30
0.0
 11
11240.4542350000101578
 21
20094.226823000019067
 31
0.0
  0
LINE
  5
1B43
  8
0-1
  6
CONTINUOUS
 62
     3
 10
11403.4547230000098352
 20
18291.927756999990379
 30
0.0
 11
11403.4547230000098352
 21
20094.226823000019067
 31
0.0
  0
LINE
  5
1B44
  8
0-1
  6
CONTINUOUS
 62
     3
 10
11440.4558840000099735
 20
18273.1718179999988934
 30
0.0
 11
11440.4558840000099735
 21
20094.226823000019067
 31
0.0
  0
LINE
  5
1B45
  8
0-1
  6
CONTINUOUS
 62
     3
 10
11603.4543930000108958
 20
18248.8276990000013029
 30
0.0
 11
11603.4543930000108958
 21
20094.226823000019067
 31
0.0
  0
LINE
  5
1B46
  8
0-1
  6
CONTINUOUS
 62
     3
 10
11640.4545650000000023
 20
18292.208848999998736
 30
0.0
 11
11640.4545650000000023
 21
20094.226823000019067
 31
0.0
  0
LINE
  5
1B47
  8
0-1
  6
CONTINUOUS
 62
     3
 10
11803.4560430000001361
 20
18227.4053490000005695
 30
0.0
 11
11803.4560430000001361
 21
20094.226823000019067
 31
0.0
  0
LINE
  5
1B48
  8
0-1
  6
CONTINUOUS
 62
     3
 10
11840.4542350000101578
 20
18140.12441599999147
 30
0.0
 11
11840.4542350000101578
 21
20094.226823000019067
 31
0.0
  0
LINE
  5
1B49
  8
0-1
  6
CONTINUOUS
 62
     3
 10
10040.4552250000106142
 20
18987.7877129999906174
 30
0.0
 11
10040.4552250000106142
 21
20094.226823000019067
 31
0.0
  0
LINE
  5
1B4A
  8
0-1
  6
CONTINUOUS
 62
     3
 10
10203.4547230000007403
 20
18905.1685460000007879
 30
0.0
 11
10203.4547230000007403
 21
20094.226823000019067
 31
0.0
  0
LINE
  5
1B4B
  8
0-1
  6
CONTINUOUS
 62
     3
 10
10240.4548950000098557
 20
18886.4165659999998752
 30
0.0
 11
10240.4548950000098557
 21
20094.226823000019067
 31
0.0
  0
LINE
  5
1B4C
  8
0-1
  6
CONTINUOUS
 62
     3
 10
13040.4552250000106142
 20
17193.8751550000015413
 30
0.0
 11
13040.4552250000106142
 21
17320.7306239999816171
 31
0.0
  0
LINE
  5
1B4D
  8
0-1
  6
CONTINUOUS
 62
     3
 10
13003.4550530000105937
 20
17212.6310940000003029
 30
0.0
 11
13003.4550530000105937
 21
17320.7306239999816171
 31
0.0
  0
LINE
  5
1B4E
  8
0-1
  6
CONTINUOUS
 62
     3
 10
12840.4535750000104599
 20
17295.2502610000010463
 30
0.0
 11
12840.4535750000104599
 21
17320.7306239999816171
 31
0.0
  0
LINE
  5
1B4F
  8
0-1
  6
CONTINUOUS
 62
     3
 10
12803.4543929999999818
 20
17314.006199999981618
 30
0.0
 11
12803.4543929999999818
 21
17320.7306239999816171
 31
0.0
  0
LINE
  5
1B50
  8
0-1
  6
CONTINUOUS
 62
     3
 10
12640.4558840000099735
 20
17720.7299639999910141
 30
0.0
 11
12640.4558840000099735
 21
18784.7306759999992209
 31
0.0
  0
LINE
  5
1B51
  8
0-1
  6
CONTINUOUS
 62
     3
 10
12603.4547230000007403
 20
17720.7299639999910141
 30
0.0
 11
12603.4547230000007403
 21
18784.7306759999992209
 31
0.0
  0
LINE
  5
1B52
  8
0-1
  6
CONTINUOUS
 62
     3
 10
12440.4552250000106142
 20
17720.7299639999910141
 30
0.0
 11
12440.4552250000106142
 21
18784.7306759999992209
 31
0.0
  0
LINE
  5
1B53
  8
0-1
  6
CONTINUOUS
 62
     3
 10
12403.4550530000105937
 20
17720.7299639999910141
 30
0.0
 11
12403.4550530000105937
 21
18784.7306759999992209
 31
0.0
  0
LINE
  5
1B54
  8
0-1
  6
CONTINUOUS
 62
     3
 10
12240.453574999999546
 20
17449.6962599999897066
 30
0.0
 11
12240.453574999999546
 21
20094.226823000019067
 31
0.0
  0
LINE
  5
1B55
  8
0-1
  6
CONTINUOUS
 62
     3
 10
12203.4553830000095331
 20
17406.3190690000010363
 30
0.0
 11
12203.4553830000095331
 21
20094.226823000019067
 31
0.0
  0
LINE
  5
1B56
  8
0-1
  6
CONTINUOUS
 62
     3
 10
12040.4558840000008786
 20
17663.3239250000005995
 30
0.0
 11
12040.4558840000008786
 21
20094.226823000019067
 31
0.0
  0
LINE
  5
1B57
  8
0-1
  6
CONTINUOUS
 62
     3
 10
12003.4547230000098352
 20
17750.6088180000006105
 30
0.0
 11
12003.4547230000098352
 21
20094.226823000019067
 31
0.0
  0
LINE
  5
1B58
  8
0-1
  6
CONTINUOUS
 62
     3
 10
15261.9541949999893404
 20
14019.2305709999800456
 30
0.0
 11
15261.9541949999893404
 21
16073.1895160000003671
 31
0.0
  0
LINE
  5
1B59
  8
0-1
  6
CONTINUOUS
 62
     3
 10
15219.4549209999895538
 20
14019.2305709999800456
 30
0.0
 11
15219.4549209999895538
 21
16094.7296479999895382
 31
0.0
  0
LINE
  5
1B5A
  8
0-1
  6
CONTINUOUS
 62
     3
 10
15304.9553169999908278
 20
13863.2296609999993962
 30
0.0
 11
15304.9553169999908278
 21
20104.2282750000085798
 31
0.0
  0
LINE
  5
1B5B
  8
0-1
  6
CONTINUOUS
 62
     3
 10
15169.4542999999994208
 20
13895.2305579999992915
 30
0.0
 11
15169.4542999999994208
 21
20094.226823000019067
 31
0.0
  0
LINE
  5
1B5C
  8
0-1
  6
CONTINUOUS
 62
     3
 10
15073.9553560000003927
 20
16168.4815610000005108
 30
0.0
 11
15073.9553560000003927
 21
20094.226823000019067
 31
0.0
  0
LINE
  5
1B5D
  8
0-1
  6
CONTINUOUS
 62
     3
 10
15110.9555280000004132
 20
16149.7276019999808341
 30
0.0
 11
15110.9555280000004132
 21
20094.226823000019067
 31
0.0
  0
LINE
  5
1B5E
  8
0-1
  6
CONTINUOUS
 62
     3
 10
11568.7524429999994027
 20
18208.1426539999883971
 30
0.0
 11
8448.7598849999994854
 21
19789.2472779999916384
 31
0.0
  0
LINE
  5
1B5F
  8
0-1
  6
CONTINUOUS
 62
     3
 10
13240.4558840000099735
 20
17092.5040089999783959
 30
0.0
 11
13240.4558840000099735
 21
17320.7306239999816171
 31
0.0
  0
LINE
  5
1B60
  8
0-1
  6
CONTINUOUS
 62
     3
 10
13277.4540770000094199
 20
17073.7480699999905482
 30
0.0
 11
13277.4540770000094199
 21
17320.7306239999816171
 31
0.0
  0
LINE
  5
1B61
  8
0-1
  6
CONTINUOUS
 62
     3
 10
13440.4545650000090973
 20
16991.1289030000007187
 30
0.0
 11
13440.4545650000090973
 21
17320.7306239999816171
 31
0.0
  0
LINE
  5
1B62
  8
0-1
  6
CONTINUOUS
 62
     3
 10
13477.4547359999996843
 20
16972.3729649999986577
 30
0.0
 11
13477.4547359999996843
 21
17320.7306239999816171
 31
0.0
  0
LINE
  5
1B63
  8
0-1
  6
CONTINUOUS
 62
     3
 10
13640.4552250000106142
 20
16889.7537979999906383
 30
0.0
 11
13640.4552250000106142
 21
17320.7306239999816171
 31
0.0
  0
LINE
  5
1B64
  8
0-1
  6
CONTINUOUS
 62
     3
 10
13677.4544060000098398
 20
16870.9998389999782376
 30
0.0
 11
13677.4544060000098398
 21
17320.7306239999816171
 31
0.0
  0
LINE
  5
1B65
  8
0-1
  6
CONTINUOUS
 62
     3
 10
14314.4555680000103166
 20
16548.1265009999915492
 30
0.0
 11
14314.4555680000103166
 21
17320.7306239999816171
 31
0.0
  0
LINE
  5
1B66
  8
0-1
  6
CONTINUOUS
 62
     3
 10
14277.4534169999897131
 20
16566.8824399999793968
 30
0.0
 11
14277.4534169999897131
 21
17320.7306239999816171
 31
0.0
  0
LINE
  5
1B67
  8
0-1
  6
CONTINUOUS
 62
     3
 10
14114.4549079999997048
 20
16649.4976479999895673
 30
0.0
 11
14114.4549079999997048
 21
17320.7306239999816171
 31
0.0
  0
LINE
  5
1B68
  8
0-1
  6
CONTINUOUS
 62
     3
 10
14077.4557259999801317
 20
16668.2535869999810529
 30
0.0
 11
14077.4557259999801317
 21
17320.7306239999816171
 31
0.0
  0
LINE
  5
1B69
  8
0-1
  6
CONTINUOUS
 62
     3
 10
13914.4552379999895493
 20
16750.8727539999999863
 30
0.0
 11
13914.4552379999895493
 21
17320.7306239999816171
 31
0.0
  0
LINE
  5
1B6A
  8
0-1
  6
CONTINUOUS
 62
     3
 10
13877.4540770000094199
 20
16769.6286919999911333
 30
0.0
 11
13877.4540770000094199
 21
17320.7306239999816171
 31
0.0
  0
LINE
  5
1B6B
  8
0-1
  6
CONTINUOUS
 62
     3
 10
14514.4552379999895493
 20
16446.7513959999996587
 30
0.0
 11
14514.4552379999895493
 21
20094.226823000019067
 31
0.0
  0
LINE
  5
1B6C
  8
0-1
  6
CONTINUOUS
 62
     3
 10
14551.4554090000001452
 20
16427.9974369999908959
 30
0.0
 11
14551.4554090000001452
 21
20094.226823000019067
 31
0.0
  0
LINE
  5
1B6D
  8
0-1
  6
CONTINUOUS
 62
     3
 10
14714.4549079999997048
 20
16345.3762899999892397
 30
0.0
 11
14714.4549079999997048
 21
20094.226823000019067
 31
0.0
  0
LINE
  5
1B6E
  8
0-1
  6
CONTINUOUS
 62
     3
 10
14751.456069000010757
 20
16326.6223310000004858
 30
0.0
 11
14751.456069000010757
 21
20094.226823000019067
 31
0.0
  0
LINE
  5
1B6F
  8
0-1
  6
CONTINUOUS
 62
     3
 10
14914.4555680000103166
 20
16244.0061339999901975
 30
0.0
 11
14914.4555680000103166
 21
20094.226823000019067
 31
0.0
  0
LINE
  5
1B70
  8
0-1
  6
CONTINUOUS
 62
     3
 10
14951.4537600000094244
 20
16225.2501950000005309
 30
0.0
 11
14951.4537600000094244
 21
20094.226823000019067
 31
0.0
  0
LINE
  5
1B71
  8
0-1
  6
CONTINUOUS
 62
     3
 10
8614.9562670000032085
 20
20074.2286700000004203
 30
0.0
 11
8665.4547759999968548
 21
20074.2286700000004203
 31
0.0
  0
LINE
  5
1B72
  8
0-1
  6
CONTINUOUS
 62
     3
 10
8614.9562670000032085
 20
20096.7278789999982109
 30
0.0
 11
8596.9555150000014692
 21
20096.7278789999982109
 31
0.0
  0
LINE
  5
1B73
  8
0-1
  6
CONTINUOUS
 62
     3
 10
8665.4547759999968548
 20
20114.23078199999145
 30
0.0
 11
8601.9547890000012558
 21
20114.23078199999145
 31
0.0
  0
LINE
  5
1B74
  8
0-1
  6
CONTINUOUS
 62
     3
 10
8596.9555150000014692
 20
20109.2285380000103032
 30
0.0
 11
8596.9555150000014692
 21
20074.2286700000004203
 31
0.0
  0
LINE
  5
1B75
  8
0-1
  6
CONTINUOUS
 62
     3
 10
8670.4540500000002794
 20
20079.2289339999915683
 30
0.0
 11
8670.4540500000002794
 21
20109.2285380000103032
 31
0.0
  0
LINE
  5
1B76
  8
0-1
  6
CONTINUOUS
 62
     3
 10
8670.4540500000002794
 20
20094.226823000019067
 30
0.0
 11
15231.4557920000006561
 21
20094.226823000019067
 31
0.0
  0
LINE
  5
1B77
  8
0-1
  6
CONTINUOUS
 62
     3
 10
8614.9562670000032085
 20
19703.4885939999912807
 30
0.0
 11
8614.9562670000032085
 21
20096.7278789999982109
 31
0.0
  0
LINE
  5
1B78
  8
0-1
  6
CONTINUOUS
 62
     3
 10
15236.4560559999808902
 20
20114.23078199999145
 30
0.0
 11
15299.9550529999996797
 21
20114.23078199999145
 31
0.0
  0
LINE
  5
1B79
  8
0-1
  6
CONTINUOUS
 62
     3
 10
15286.9555539999801113
 20
20074.2286700000004203
 30
0.0
 11
15236.4560559999808902
 21
20074.2286700000004203
 31
0.0
  0
LINE
  5
1B7A
  8
0-1
  6
CONTINUOUS
 62
     3
 10
15231.4557920000006561
 20
20079.2289339999915683
 30
0.0
 11
15231.4557920000006561
 21
20109.2285380000103032
 31
0.0
  0
LINE
  5
1B7B
  8
0-1
  6
CONTINUOUS
 62
     3
 10
15304.9553169999908278
 20
20109.2285380000103032
 30
0.0
 11
15304.9553169999908278
 21
20074.2286700000004203
 31
0.0
  0
LINE
  5
1B7C
  8
0-1
  6
CONTINUOUS
 62
     3
 10
15286.9555539999801113
 20
20096.7278789999982109
 30
0.0
 11
15304.9553169999908278
 21
20096.7278789999982109
 31
0.0
  0
LINE
  5
1B7D
  8
0-1
  6
CONTINUOUS
 62
     3
 10
15286.9555539999801113
 20
16062.0388879999991332
 30
0.0
 11
15286.9555539999801113
 21
20096.7278789999982109
 31
0.0
  0
LINE
  5
1B7E
  8
0-1
  6
CONTINUOUS
 62
     3
 10
8682.4549209999968298
 20
15559.7313099999992119
 30
0.0
 11
15219.4549209999895538
 21
15559.7313099999992119
 31
0.0
  0
LINE
  5
1B7F
  8
0-1
  6
CONTINUOUS
 62
     3
 10
8682.4549209999968298
 20
15469.7315079999898444
 30
0.0
 11
15219.4549209999895538
 21
15469.7315079999898444
 31
0.0
  0
LINE
  5
1B80
  8
0-1
  6
CONTINUOUS
 62
     3
 10
8682.4549209999968298
 20
18477.7293299999982992
 30
0.0
 11
11036.8864830000093207
 21
18477.7293299999982992
 31
0.0
  0
LINE
  5
1B81
  8
0-1
  6
CONTINUOUS
 62
     3
 10
8682.4549209999968298
 20
18387.7285379999993893
 30
0.0
 11
11214.4473199999993085
 21
18387.7285379999993893
 31
0.0
  0
LINE
  5
1B82
  8
0-1
  6
CONTINUOUS
 62
     3
 10
12007.9551589999991847
 20
14098.2311779999999999
 30
0.0
 11
12007.9551589999991847
 21
15469.7315079999898444
 31
0.0
  0
LINE
  5
1B83
  8
0-1
  6
CONTINUOUS
 62
     3
 10
11893.9546840000002703
 20
14098.2311779999999999
 30
0.0
 11
11893.9546840000002703
 21
15469.7315079999898444
 31
0.0
  0
LINE
  5
1B84
  8
0-1
  6
CONTINUOUS
 62
     3
 10
11950.9549209999804589
 20
14098.2311779999999999
 30
0.0
 11
11950.9549209999804589
 21
15119.7298580000006041
 31
0.0
  0
LINE
  5
1B85
  8
0-1
  6
CONTINUOUS
 62
     3
 10
11950.9549209999804589
 20
14019.2305709999800456
 30
0.0
 11
11950.9549209999804589
 21
15469.7315079999898444
 31
0.0
  0
LINE
  5
1B86
  8
0-1
  6
CONTINUOUS
 62
     3
 10
11950.9549209999804589
 20
15559.7313099999992119
 30
0.0
 11
11950.9549209999804589
 21
16928.7285389999815379
 31
0.0
  0
LINE
  5
1B87
  8
0-1
  6
CONTINUOUS
 62
     3
 10
11950.9549209999804589
 20
17007.7291459999905783
 30
0.0
 11
11950.9549209999804589
 21
17524.4567379999898549
 31
0.0
  0
LINE
  5
1B88
  8
0-1
  6
CONTINUOUS
 62
     3
 10
11950.9549209999804589
 20
17007.7291459999905783
 30
0.0
 11
11950.9549209999804589
 21
17884.4535440000108792
 31
0.0
  0
LINE
  5
1B89
  8
0-1
  6
CONTINUOUS
 62
     3
 10
11893.9546840000002703
 20
17007.7291459999905783
 30
0.0
 11
11893.9546840000002703
 21
18018.918281999998726
 31
0.0
  0
LINE
  5
1B8A
  8
0-1
  6
CONTINUOUS
 62
     3
 10
12007.9551589999991847
 20
17007.7291459999905783
 30
0.0
 11
12007.9551589999991847
 21
17739.9926599999998871
 31
0.0
  0
LINE
  5
1B8B
  8
0-1
  6
CONTINUOUS
 62
     3
 10
11893.9546840000002703
 20
15559.7313099999992119
 30
0.0
 11
11893.9546840000002703
 21
16928.7285389999815379
 31
0.0
  0
LINE
  5
1B8C
  8
0-1
  6
CONTINUOUS
 62
     3
 10
12007.9551589999991847
 20
15559.7313099999992119
 30
0.0
 11
12007.9551589999991847
 21
16928.7285389999815379
 31
0.0
  0
LINE
  5
1B8D
  8
0-1
  6
CONTINUOUS
 62
     3
 10
11950.9549209999804589
 20
15559.7313099999992119
 30
0.0
 11
11950.9549209999804589
 21
15469.7315079999898444
 31
0.0
  0
LINE
  5
1B8E
  8
0-1
  6
CONTINUOUS
 62
     3
 10
11950.9549209999804589
 20
17007.7291459999905783
 30
0.0
 11
11950.9549209999804589
 21
16928.7285389999815379
 31
0.0
  0
LINE
  5
1B8F
  8
0-1
  6
CONTINUOUS
 62
     3
 10
8752.4556470000025001
 20
14055.730913999990662
 30
0.0
 11
11880.9551849999897968
 21
15514.730913999990662
 31
0.0
  0
LINE
  5
1B90
  8
0-1
  6
CONTINUOUS
 62
     3
 10
11880.9551849999897968
 20
14055.730913999990662
 30
0.0
 11
8752.4556470000025001
 21
15514.730913999990662
 31
0.0
  0
LINE
  5
1B91
  8
0-1
  6
CONTINUOUS
 62
     3
 10
11880.9551849999897968
 20
15514.730913999990662
 30
0.0
 11
8752.4556470000025001
 21
16973.7309139999997569
 31
0.0
  0
LINE
  5
1B92
  8
0-1
  6
CONTINUOUS
 62
     3
 10
11880.9551849999897968
 20
16973.7309139999997569
 30
0.0
 11
8752.4556470000025001
 21
15514.730913999990662
 31
0.0
  0
LINE
  5
1B93
  8
0-1
  6
CONTINUOUS
 62
     3
 10
11880.9551849999897968
 20
16973.7309139999997569
 30
0.0
 11
8752.4556470000025001
 21
18432.7309139999997569
 31
0.0
  0
LINE
  5
1B94
  8
0-1
  6
CONTINUOUS
 62
     3
 10
9993.5267780000103812
 20
19011.5755880000106117
 30
0.0
 11
8752.4556470000025001
 21
18432.7309139999997569
 31
0.0
  0
LINE
  5
1B95
  8
0-1
  6
CONTINUOUS
 62
     3
 10
11487.5773349999999482
 20
18249.2869470000005094
 30
0.0
 11
8752.4556470000025001
 21
16973.7309139999997569
 31
0.0
  0
LINE
  5
1B96
  8
0-1
  6
CONTINUOUS
 62
     3
 10
11743.5726360000098794
 20
18368.6637950000003912
 30
0.0
 11
11680.6368120000006456
 21
18339.3154519999989134
 31
0.0
  0
LINE
  5
1B97
  8
0-1
  6
CONTINUOUS
 62
     3
 10
12020.9546569999802159
 20
14055.730913999990662
 30
0.0
 11
15149.4551850000007107
 21
15514.730913999990662
 31
0.0
  0
LINE
  5
1B98
  8
0-1
  6
CONTINUOUS
 62
     3
 10
15149.4551850000007107
 20
14055.730913999990662
 30
0.0
 11
12897.243984000009732
 21
15007.7316659999905823
 31
0.0
  0
LINE
  5
1B99
  8
0-1
  6
CONTINUOUS
 62
     3
 10
12020.9546569999802159
 20
16973.7309139999997569
 30
0.0
 11
15149.4551850000007107
 21
15514.730913999990662
 31
0.0
  0
LINE
  5
1B9A
  8
0-1
  6
CONTINUOUS
 62
     3
 10
12020.9546569999802159
 20
15514.730913999990662
 30
0.0
 11
14272.2037330000093789
 21
16569.5409329999893089
 31
0.0
  0
LINE
  5
1B9B
  8
0-1
  6
CONTINUOUS
 62
     3
 10
12020.9546569999802159
 20
16973.7309139999997569
 30
0.0
 11
12778.153175999999803
 21
17326.8295209999814688
 31
0.0
  0
LINE
  5
1B9C
  8
0-1
  6
CONTINUOUS
 62
     3
 10
14114.4549079999997048
 20
19184.7300169999907666
 30
0.0
 11
14114.4549079999997048
 21
20094.226823000019067
 31
0.0
  0
LINE
  5
1B9D
  8
0-1
  6
CONTINUOUS
 62
     3
 10
13877.4540770000094199
 20
19184.7300169999907666
 30
0.0
 11
13877.4540770000094199
 21
20094.226823000019067
 31
0.0
  0
LINE
  5
1B9E
  8
0-1
  6
CONTINUOUS
 62
     3
 10
13914.4552379999895493
 20
19184.7300169999907666
 30
0.0
 11
13914.4552379999895493
 21
20094.226823000019067
 31
0.0
  0
LINE
  5
1B9F
  8
0-1
  6
CONTINUOUS
 62
     3
 10
14077.4557259999801317
 20
19184.7300169999907666
 30
0.0
 11
14077.4557259999801317
 21
20094.226823000019067
 31
0.0
  0
LINE
  5
1BA0
  8
0-1
  6
CONTINUOUS
 62
     3
 10
13677.4544060000098398
 20
19184.7300169999907666
 30
0.0
 11
13677.4544060000098398
 21
20094.226823000019067
 31
0.0
  0
LINE
  5
1BA1
  8
0-1
  6
CONTINUOUS
 62
     3
 10
13640.4552250000106142
 20
19184.7300169999907666
 30
0.0
 11
13640.4552250000106142
 21
20094.226823000019067
 31
0.0
  0
LINE
  5
1BA2
  8
0-1
  6
CONTINUOUS
 62
     3
 10
13477.4547359999996843
 20
19184.7300169999907666
 30
0.0
 11
13477.4547359999996843
 21
20094.226823000019067
 31
0.0
  0
LINE
  5
1BA3
  8
0-1
  6
CONTINUOUS
 62
     3
 10
13440.4545650000090973
 20
19184.7300169999907666
 30
0.0
 11
13440.4545650000090973
 21
20094.226823000019067
 31
0.0
  0
LINE
  5
1BA4
  8
0-1
  6
CONTINUOUS
 62
     3
 10
13277.4540770000094199
 20
19184.7300169999907666
 30
0.0
 11
13277.4540770000094199
 21
20094.226823000019067
 31
0.0
  0
LINE
  5
1BA5
  8
0-1
  6
CONTINUOUS
 62
     3
 10
13240.4558840000099735
 20
19184.7300169999907666
 30
0.0
 11
13240.4558840000099735
 21
20094.226823000019067
 31
0.0
  0
LINE
  5
1BA6
  8
0-1
  6
CONTINUOUS
 62
     3
 10
12403.4550530000105937
 20
19184.7300169999907666
 30
0.0
 11
12403.4550530000105937
 21
20094.226823000019067
 31
0.0
  0
LINE
  5
1BA7
  8
0-1
  6
CONTINUOUS
 62
     3
 10
12440.4552250000106142
 20
19184.7300169999907666
 30
0.0
 11
12440.4552250000106142
 21
20094.226823000019067
 31
0.0
  0
LINE
  5
1BA8
  8
0-1
  6
CONTINUOUS
 62
     3
 10
12603.4547230000007403
 20
19184.7300169999907666
 30
0.0
 11
12603.4547230000007403
 21
20094.226823000019067
 31
0.0
  0
LINE
  5
1BA9
  8
0-1
  6
CONTINUOUS
 62
     3
 10
12640.4558840000099735
 20
19184.7300169999907666
 30
0.0
 11
12640.4558840000099735
 21
20094.226823000019067
 31
0.0
  0
LINE
  5
1BAA
  8
0-1
  6
CONTINUOUS
 62
     3
 10
12803.4543929999999818
 20
19184.7300169999907666
 30
0.0
 11
12803.4543929999908869
 21
20094.226823000019067
 31
0.0
  0
LINE
  5
1BAB
  8
0-1
  6
CONTINUOUS
 62
     3
 10
12840.4535750000104599
 20
19184.7300169999907666
 30
0.0
 11
12840.4535750000104599
 21
20094.226823000019067
 31
0.0
  0
LINE
  5
1BAC
  8
0-1
  6
CONTINUOUS
 62
     3
 10
13003.4550530000105937
 20
19184.7300169999907666
 30
0.0
 11
13003.4550530000105937
 21
20094.226823000019067
 31
0.0
  0
LINE
  5
1BAD
  8
0-1
  6
CONTINUOUS
 62
     3
 10
13040.4552250000106142
 20
19184.7300169999907666
 30
0.0
 11
13040.4552250000106142
 21
20094.226823000019067
 31
0.0
  0
LINE
  5
1BAE
  8
0-1
  6
CONTINUOUS
 62
     3
 10
14277.4534169999897131
 20
19184.7300169999907666
 30
0.0
 11
14277.4534169999897131
 21
20094.226823000019067
 31
0.0
  0
LINE
  5
1BAF
  8
0-1
  6
CONTINUOUS
 62
     3
 10
14314.4555680000103166
 20
19184.7300169999907666
 30
0.0
 11
14314.4555680000103166
 21
20094.226823000019067
 31
0.0
  0
LINE
  5
1BB0
  8
0-1
  6
CONTINUOUS
 62
     3
 10
13677.4544060000098398
 20
17720.7299639999910141
 30
0.0
 11
13677.4544060000098398
 21
18784.7306759999992209
 31
0.0
  0
LINE
  5
1BB1
  8
0-1
  6
CONTINUOUS
 62
     3
 10
13640.4552250000106142
 20
17720.7299639999910141
 30
0.0
 11
13640.4552250000106142
 21
18784.7306759999992209
 31
0.0
  0
LINE
  5
1BB2
  8
0-1
  6
CONTINUOUS
 62
     3
 10
13477.4547359999996843
 20
17720.7299639999910141
 30
0.0
 11
13477.4547359999996843
 21
18784.7306759999992209
 31
0.0
  0
LINE
  5
1BB3
  8
0-1
  6
CONTINUOUS
 62
     3
 10
13440.4545650000090973
 20
17720.7299639999910141
 30
0.0
 11
13440.4545650000090973
 21
18784.7306759999992209
 31
0.0
  0
LINE
  5
1BB4
  8
0-1
  6
CONTINUOUS
 62
     3
 10
13277.4540770000094199
 20
17720.7299639999910141
 30
0.0
 11
13277.4540770000094199
 21
18784.7306759999992209
 31
0.0
  0
LINE
  5
1BB5
  8
0-1
  6
CONTINUOUS
 62
     3
 10
13240.4558840000099735
 20
17720.7299639999910141
 30
0.0
 11
13240.4558840000099735
 21
18784.7306759999992209
 31
0.0
  0
LINE
  5
1BB6
  8
0-1
  6
CONTINUOUS
 62
     3
 10
13003.4550530000105937
 20
17720.7299639999910141
 30
0.0
 11
13003.4550530000105937
 21
18784.7306759999992209
 31
0.0
  0
LINE
  5
1BB7
  8
0-1
  6
CONTINUOUS
 62
     3
 10
13040.4552250000106142
 20
17720.7299639999910141
 30
0.0
 11
13040.4552250000106142
 21
18784.7306759999992209
 31
0.0
  0
LINE
  5
1BB8
  8
0-1
  6
CONTINUOUS
 62
     3
 10
12803.4543929999999818
 20
17720.7299639999910141
 30
0.0
 11
12803.4543929999999818
 21
18784.7306759999992209
 31
0.0
  0
LINE
  5
1BB9
  8
0-1
  6
CONTINUOUS
 62
     3
 10
12840.4535750000104599
 20
17720.7299639999910141
 30
0.0
 11
12840.4535750000104599
 21
18784.7306759999992209
 31
0.0
  0
LINE
  5
1BBA
  8
0-1
  6
CONTINUOUS
 62
     3
 10
13877.4540770000094199
 20
17720.7299639999910141
 30
0.0
 11
13877.4540770000094199
 21
18784.7306759999992209
 31
0.0
  0
LINE
  5
1BBB
  8
0-1
  6
CONTINUOUS
 62
     3
 10
13914.4552379999895493
 20
17720.7299639999910141
 30
0.0
 11
13914.4552379999895493
 21
18784.7306759999992209
 31
0.0
  0
LINE
  5
1BBC
  8
0-1
  6
CONTINUOUS
 62
     3
 10
14077.4557259999801317
 20
17720.7299639999910141
 30
0.0
 11
14077.4557259999801317
 21
18784.7306759999992209
 31
0.0
  0
LINE
  5
1BBD
  8
0-1
  6
CONTINUOUS
 62
     3
 10
14114.4549079999997048
 20
17720.7299639999910141
 30
0.0
 11
14114.4549079999997048
 21
18784.7306759999992209
 31
0.0
  0
LINE
  5
1BBE
  8
0-1
  6
CONTINUOUS
 62
     3
 10
14277.4534169999897131
 20
17720.7299639999910141
 30
0.0
 11
14277.4534169999897131
 21
18784.7306759999992209
 31
0.0
  0
LINE
  5
1BBF
  8
0-1
  6
CONTINUOUS
 62
     3
 10
14314.4555680000103166
 20
17720.7299639999910141
 30
0.0
 11
14314.4555680000103166
 21
18784.7306759999992209
 31
0.0
  0
LINE
  5
1BC0
  8
0-1
  6
CONTINUOUS
 62
     3
 10
12412.7330569999994623
 20
15288.0582209999902261
 30
0.0
 11
12020.9546569999802159
 21
15514.730913999990662
 31
0.0
  0
LINE
  5
1BC1
  8
0-1
  6
CONTINUOUS
 62
     3
 10
11950.9549209999804589
 20
14019.2305709999800456
 30
0.0
 11
11950.9549209999804589
 21
13863.2296609999993962
 31
0.0
  0
LINE
  5
1BC2
  8
0-5
  6
CONTINUOUS
 62
     6
 10
10768.9210319999801868
 20
19831.9553909999995085
 30
0.0
 11
10912.822135000009439
 21
20344.2310460000007879
 31
0.0
  0
LINE
  5
1BC3
  8
0-5
  6
CONTINUOUS
 62
     6
 10
10912.822135000009439
 20
20344.2310460000007879
 30
0.0
 11
11430.5117730000001757
 21
20344.2310460000007879
 31
0.0
  0
LINE
  5
1BC4
  8
0-5
  6
CONTINUOUS
 62
     6
 10
8846.9835970000058296
 20
18771.4283109999996668
 30
0.0
 11
9377.4817900000125519
 21
18771.4283109999996668
 31
0.0
  0
LINE
  5
1BC5
  8
0-5
  6
CONTINUOUS
 62
     6
 10
9843.3357540000106383
 20
14250.1196389999804524
 30
0.0
 11
9926.2231460000166408
 21
14427.058906999989631
 31
0.0
  0
LINE
  5
1BC6
  8
0-5
  6
CONTINUOUS
 62
     6
 10
9926.2231460000166408
 20
14427.058906999989631
 30
0.0
 11
10726.2228160000104253
 21
14427.058906999989631
 31
0.0
  0
LINE
  5
1BC7
  8
0-5
  6
CONTINUOUS
 62
     6
 10
10833.7492760000095586
 20
13063.2299909999801457
 30
0.0
 11
11696.3284560000101919
 21
13063.2299909999801457
 31
0.0
  0
LINE
  5
1BC8
  8
0-5
  6
CONTINUOUS
 62
     6
 10
10427.6352020000103948
 20
13726.7616500000003725
 30
0.0
 11
10833.7492760000095586
 21
13063.2299909999801457
 31
0.0
  0
LINE
  5
1BC9
  8
0-5
  6
CONTINUOUS
 62
     6
 10
6866.5579020000022865
 20
12663.2306509999998525
 30
0.0
 11
7946.5565160000023752
 21
12663.2306509999998525
 31
0.0
  0
LINE
  5
1BCA
  8
0-5
  6
CONTINUOUS
 62
     6
 10
8505.0613530000027822
 20
14443.5027679999802785
 30
0.0
 11
7946.5565160000023752
 21
12663.2306509999998525
 31
0.0
  0
LINE
  5
1BCB
  8
0-5
  6
CONTINUOUS
 62
     6
 10
8747.9403650000022026
 20
18992.2178749999984575
 30
0.0
 11
8846.9835970000058296
 21
18771.4283109999996668
 31
0.0
  0
LINE
  5
1BCC
  8
0-5
  6
CONTINUOUS
 62
     6
 10
10047.9387950000000274
 20
16539.0167569999903208
 30
0.0
 11
10153.5718450000003941
 21
16640.0474259999900823
 31
0.0
  0
LINE
  5
1BCD
  8
0-5
  6
CONTINUOUS
 62
     6
 10
8744.6761390000046958
 20
20257.0094979999994393
 30
0.0
 11
8906.1979269999992539
 21
20592.767522000009194
 31
0.0
  0
LINE
  5
1BCE
  8
0-5
  6
CONTINUOUS
 62
     6
 10
8967.8599300000059884
 20
20720.9532270000017888
 30
0.0
 11
9144.1925560000090627
 21
21065.6725310000110767
 31
0.0
  0
LINE
  5
1BCF
  8
0-5
  6
CONTINUOUS
 62
     6
 10
9144.1925560000090627
 20
21065.6725310000110767
 30
0.0
 11
10797.0381140000099549
 21
21065.6725310000110767
 31
0.0
  0
LINE
  5
1BD0
  8
0-5
  6
CONTINUOUS
 62
     6
 10
10785.3510360000091168
 20
16103.7572419999905833
 30
0.0
 11
11733.2959660000105941
 21
16103.7572419999905833
 31
0.0
  0
LINE
  5
1BD1
  8
0-5
  6
CONTINUOUS
 62
     6
 10
11893.9546840000002703
 20
15678.734807999979239
 30
0.0
 11
11733.2959660000105941
 21
16103.7572419999905833
 31
0.0
  0
LINE
  5
1BD2
  8
0-5
  6
CONTINUOUS
 62
     6
 10
12412.7330569999994623
 20
18864.7309400000085589
 30
0.0
 11
14407.1762180000096123
 21
18864.7309400000085589
 31
0.0
  0
LINE
  5
1BD3
  8
0-5
  6
CONTINUOUS
 62
     6
 10
12412.7330569999994623
 20
17400.730887999998231
 30
0.0
 11
14407.1762180000096123
 21
17400.730887999998231
 31
0.0
  0
LINE
  5
1BD4
  8
0-5
  6
CONTINUOUS
 62
     6
 10
10153.5718450000003941
 20
16640.0474259999900823
 30
0.0
 11
11033.5737580000004527
 21
16640.0474259999900823
 31
0.0
  0
LINE
  5
1BD5
  8
0-5
  6
CONTINUOUS
 62
     6
 10
14547.7230270000090968
 20
18621.2917250000100466
 30
0.0
 11
14407.1762180000096123
 21
18864.7309400000085589
 31
0.0
  0
LINE
  5
1BD6
  8
0-5
  6
CONTINUOUS
 62
     6
 10
14547.7230270000090968
 20
17157.2916719999993802
 30
0.0
 11
14407.1762180000096123
 21
17400.730887999998231
 31
0.0
  0
LINE
  5
1BD7
  8
0-5
  6
CONTINUOUS
 62
     6
 10
12412.7330569999994623
 20
15087.7309399999994639
 30
0.0
 11
14407.1762180000096123
 21
15087.7309399999994639
 31
0.0
  0
LINE
  5
1BD8
  8
0-5
  6
CONTINUOUS
 62
     6
 10
14547.7230270000090968
 20
15331.1671860000005836
 30
0.0
 11
14407.1762180000096123
 21
15087.7309399999994639
 31
0.0
  0
LINE
  5
1BD9
  8
0-5
  6
CONTINUOUS
 62
     6
 10
8772.2726069999989704
 20
19003.1349200000004203
 30
0.0
 11
8682.4549209999968298
 21
19138.2034119999916584
 31
0.0
  0
LINE
  5
1BDA
  8
0-5
  6
CONTINUOUS
 62
     6
 10
8682.4549209999968298
 20
19138.2034119999916584
 30
0.0
 11
8723.6091120000055525
 21
18981.3028100000010454
 31
0.0
  0
LINE
  5
1BDB
  8
0-5
  6
CONTINUOUS
 62
     6
 10
8682.4549209999968298
 20
19138.2034119999916584
 30
0.0
 11
8772.2726069999989704
 21
19003.1349200000004203
 31
0.0
  0
LINE
  5
1BDC
  8
0-5
  6
CONTINUOUS
 62
     6
 10
8772.2726069999989704
 20
19003.1349200000004203
 30
0.0
 11
8723.6091120000055525
 21
18981.3028100000010454
 31
0.0
  0
LINE
  5
1BDD
  8
0-5
  6
CONTINUOUS
 62
     6
 10
8723.6091120000055525
 20
18981.3028100000010454
 30
0.0
 11
8682.4549209999968298
 21
19138.2034119999916584
 31
0.0
  0
LINE
  5
1BDE
  8
0-5
  6
CONTINUOUS
 62
     6
 10
8723.6091120000055525
 20
18981.3028100000010454
 30
0.0
 11
8772.2726069999989704
 21
19003.1349200000004203
 31
0.0
  0
LINE
  5
1BDF
  8
0-5
  6
CONTINUOUS
 62
     6
 10
10450.3798710000100982
 20
13740.6826139999902807
 30
0.0
 11
10344.1104059999906895
 21
13863.2296609999993962
 31
0.0
  0
LINE
  5
1BE0
  8
0-5
  6
CONTINUOUS
 62
     6
 10
10344.1104059999906895
 20
13863.2296609999993962
 30
0.0
 11
10404.8895440000105737
 21
13712.8416749999996682
 31
0.0
  0
LINE
  5
1BE1
  8
0-5
  6
CONTINUOUS
 62
     6
 10
10344.1104059999906895
 20
13863.2296609999993962
 30
0.0
 11
10450.3798710000100982
 21
13740.6826139999902807
 31
0.0
  0
LINE
  5
1BE2
  8
0-5
  6
CONTINUOUS
 62
     6
 10
10450.3798710000100982
 20
13740.6826139999902807
 30
0.0
 11
10404.8895440000105737
 21
13712.8416749999996682
 31
0.0
  0
LINE
  5
1BE3
  8
0-5
  6
CONTINUOUS
 62
     6
 10
10404.8895440000105737
 20
13712.8416749999996682
 30
0.0
 11
10344.1104059999906895
 21
13863.2296609999993962
 31
0.0
  0
LINE
  5
1BE4
  8
0-5
  6
CONTINUOUS
 62
     6
 10
10404.8895440000105737
 20
13712.8416749999996682
 30
0.0
 11
10450.3798710000100982
 21
13740.6826139999902807
 31
0.0
  0
LINE
  5
1BE5
  8
0-5
  6
CONTINUOUS
 62
     6
 10
8530.5050950000004377
 20
14435.5203599999895232
 30
0.0
 11
8552.9548150000027817
 21
14596.1662109999997483
 31
0.0
  0
LINE
  5
1BE6
  8
0-5
  6
CONTINUOUS
 62
     6
 10
8552.9548150000027817
 20
14596.1662109999997483
 30
0.0
 11
8479.6186010000037641
 21
14451.484186999980011
 31
0.0
  0
LINE
  5
1BE7
  8
0-5
  6
CONTINUOUS
 62
     6
 10
8552.9548150000027817
 20
14596.1662109999997483
 30
0.0
 11
8530.5050950000004377
 21
14435.5203599999895232
 31
0.0
  0
LINE
  5
1BE8
  8
0-5
  6
CONTINUOUS
 62
     6
 10
8530.5050950000004377
 20
14435.5203599999895232
 30
0.0
 11
8479.6186010000037641
 21
14451.484186999980011
 31
0.0
  0
LINE
  5
1BE9
  8
0-5
  6
CONTINUOUS
 62
     6
 10
8479.6186010000037641
 20
14451.484186999980011
 30
0.0
 11
8552.9548150000027817
 21
14596.1662109999997483
 31
0.0
  0
LINE
  5
1BEA
  8
0-5
  6
CONTINUOUS
 62
     6
 10
8479.6186010000037641
 20
14451.484186999980011
 30
0.0
 11
8530.5050950000004377
 21
14435.5203599999895232
 31
0.0
  0
LINE
  5
1BEB
  8
0-5
  6
CONTINUOUS
 62
     6
 10
9819.1885970000093948
 20
14261.4325879999905737
 30
0.0
 11
9775.4630110000161949
 21
14105.230755999989924
 31
0.0
  0
LINE
  5
1BEC
  8
0-5
  6
CONTINUOUS
 62
     6
 10
9775.4630110000161949
 20
14105.230755999989924
 30
0.0
 11
9867.4839010000087001
 21
14238.8076799999907962
 31
0.0
  0
LINE
  5
1BED
  8
0-5
  6
CONTINUOUS
 62
     6
 10
9775.4630110000161949
 20
14105.230755999989924
 30
0.0
 11
9819.1885970000093948
 21
14261.4325879999905737
 31
0.0
  0
LINE
  5
1BEE
  8
0-5
  6
CONTINUOUS
 62
     6
 10
9819.1885970000093948
 20
14261.4325879999905737
 30
0.0
 11
9867.4839010000087001
 21
14238.8076799999907962
 31
0.0
  0
LINE
  5
1BEF
  8
0-5
  6
CONTINUOUS
 62
     6
 10
9867.4839010000087001
 20
14238.8076799999907962
 30
0.0
 11
9775.4630110000161949
 21
14105.230755999989924
 31
0.0
  0
LINE
  5
1BF0
  8
0-5
  6
CONTINUOUS
 62
     6
 10
9867.4839010000087001
 20
14238.8076799999907962
 30
0.0
 11
9819.1885970000093948
 21
14261.4325879999905737
 31
0.0
  0
LINE
  5
1BF1
  8
0-5
  6
CONTINUOUS
 62
     6
 10
10029.5074970000005123
 20
16558.2893499999881897
 30
0.0
 11
9932.312145000012606
 21
16428.4309509999911825
 31
0.0
  0
LINE
  5
1BF2
  8
0-5
  6
CONTINUOUS
 62
     6
 10
9932.312145000012606
 20
16428.4309509999911825
 30
0.0
 11
10066.3720720000001165
 21
16519.7481229999903007
 31
0.0
  0
LINE
  5
1BF3
  8
0-5
  6
CONTINUOUS
 62
     6
 10
9932.312145000012606
 20
16428.4309509999911825
 30
0.0
 11
10029.5074970000005123
 21
16558.2893499999881897
 31
0.0
  0
LINE
  5
1BF4
  8
0-5
  6
CONTINUOUS
 62
     6
 10
10029.5074970000005123
 20
16558.2893499999881897
 30
0.0
 11
10066.3720720000001165
 21
16519.7481229999903007
 31
0.0
  0
LINE
  5
1BF5
  8
0-5
  6
CONTINUOUS
 62
     6
 10
10066.3720720000001165
 20
16519.7481229999903007
 30
0.0
 11
9932.312145000012606
 21
16428.4309509999911825
 31
0.0
  0
LINE
  5
1BF6
  8
0-5
  6
CONTINUOUS
 62
     6
 10
10066.3720720000001165
 20
16519.7481229999903007
 30
0.0
 11
10029.5074970000005123
 21
16558.2893499999881897
 31
0.0
  0
LINE
  5
1BF7
  8
0-5
  6
CONTINUOUS
 62
     6
 10
11861.6142989999898418
 20
15837.6852009999893198
 30
0.0
 11
11893.9546840000002703
 21
15678.734807999979239
 31
0.0
  0
LINE
  5
1BF8
  8
0-5
  6
CONTINUOUS
 62
     6
 10
11893.9546840000002703
 20
15678.734807999979239
 30
0.0
 11
11811.8115910000105941
 21
15818.6036309999908553
 31
0.0
  0
LINE
  5
1BF9
  8
0-5
  6
CONTINUOUS
 62
     6
 10
11893.9546840000002703
 20
15678.734807999979239
 30
0.0
 11
11861.6142989999898418
 21
15837.6852009999893198
 31
0.0
  0
LINE
  5
1BFA
  8
0-5
  6
CONTINUOUS
 62
     6
 10
11861.6142989999898418
 20
15837.6852009999893198
 30
0.0
 11
11811.8115910000105941
 21
15818.6036309999908553
 31
0.0
  0
LINE
  5
1BFB
  8
0-5
  6
CONTINUOUS
 62
     6
 10
11811.8115910000105941
 20
15818.6036309999908553
 30
0.0
 11
11893.9546840000002703
 21
15678.734807999979239
 31
0.0
  0
LINE
  5
1BFC
  8
0-5
  6
CONTINUOUS
 62
     6
 10
11811.8115910000105941
 20
15818.6036309999908553
 30
0.0
 11
11861.6142989999898418
 21
15837.6852009999893198
 31
0.0
  0
LINE
  5
1BFD
  8
0-5
  6
CONTINUOUS
 62
     6
 10
14524.630953000010777
 20
15344.5002339999900869
 30
0.0
 11
14627.7242810000007012
 21
15469.7315079999898444
 31
0.0
  0
LINE
  5
1BFE
  8
0-5
  6
CONTINUOUS
 62
     6
 10
14627.7242810000007012
 20
15469.7315079999898444
 30
0.0
 11
14570.8180699999902572
 21
15317.834138999989591
 31
0.0
  0
LINE
  5
1BFF
  8
0-5
  6
CONTINUOUS
 62
     6
 10
14627.7242810000007012
 20
15469.7315079999898444
 30
0.0
 11
14524.630953000010777
 21
15344.5002339999900869
 31
0.0
  0
LINE
  5
1C00
  8
0-5
  6
CONTINUOUS
 62
     6
 10
14524.630953000010777
 20
15344.5002339999900869
 30
0.0
 11
14570.8180699999902572
 21
15317.834138999989591
 31
0.0
  0
LINE
  5
1C01
  8
0-5
  6
CONTINUOUS
 62
     6
 10
14570.8180699999902572
 20
15317.834138999989591
 30
0.0
 11
14627.7242810000007012
 21
15469.7315079999898444
 31
0.0
  0
LINE
  5
1C02
  8
0-5
  6
CONTINUOUS
 62
     6
 10
14570.8180699999902572
 20
15317.834138999989591
 30
0.0
 11
14524.630953000010777
 21
15344.5002339999900869
 31
0.0
  0
LINE
  5
1C03
  8
0-5
  6
CONTINUOUS
 62
     6
 10
14524.630953000010777
 20
17143.9596149999888439
 30
0.0
 11
14627.7242810000007012
 21
17018.7273509999904491
 31
0.0
  0
LINE
  5
1C04
  8
0-5
  6
CONTINUOUS
 62
     6
 10
14627.7242810000007012
 20
17018.7273509999904491
 30
0.0
 11
14570.8180699999902572
 21
17170.62570999997115
 31
0.0
  0
LINE
  5
1C05
  8
0-5
  6
CONTINUOUS
 62
     6
 10
14627.7242810000007012
 20
17018.7273509999904491
 30
0.0
 11
14524.630953000010777
 21
17143.9596149999888439
 31
0.0
  0
LINE
  5
1C06
  8
0-5
  6
CONTINUOUS
 62
     6
 10
14524.630953000010777
 20
17143.9596149999888439
 30
0.0
 11
14570.8180699999902572
 21
17170.62570999997115
 31
0.0
  0
LINE
  5
1C07
  8
0-5
  6
CONTINUOUS
 62
     6
 10
14570.8180699999902572
 20
17170.62570999997115
 30
0.0
 11
14627.7242810000007012
 21
17018.7273509999904491
 31
0.0
  0
LINE
  5
1C08
  8
0-5
  6
CONTINUOUS
 62
     6
 10
14570.8180699999902572
 20
17170.62570999997115
 30
0.0
 11
14524.630953000010777
 21
17143.9596149999888439
 31
0.0
  0
LINE
  5
1C09
  8
0-5
  6
CONTINUOUS
 62
     6
 10
14524.630953000010777
 20
18607.9596670000100858
 30
0.0
 11
14627.7242810000007012
 21
18477.7293299999982992
 31
0.0
  0
LINE
  5
1C0A
  8
0-5
  6
CONTINUOUS
 62
     6
 10
14627.7242810000007012
 20
18477.7293299999982992
 30
0.0
 11
14570.8180699999902572
 21
18634.6257619999996678
 31
0.0
  0
LINE
  5
1C0B
  8
0-5
  6
CONTINUOUS
 62
     6
 10
14627.7242810000007012
 20
18477.7293299999982992
 30
0.0
 11
14524.630953000010777
 21
18607.9596670000100858
 31
0.0
  0
LINE
  5
1C0C
  8
0-5
  6
CONTINUOUS
 62
     6
 10
14524.630953000010777
 20
18607.9596670000100858
 30
0.0
 11
14570.8180699999902572
 21
18634.6257619999996678
 31
0.0
  0
LINE
  5
1C0D
  8
0-5
  6
CONTINUOUS
 62
     6
 10
14570.8180699999902572
 20
18634.6257619999996678
 30
0.0
 11
14627.7242810000007012
 21
18477.7293299999982992
 31
0.0
  0
LINE
  5
1C0E
  8
0-5
  6
CONTINUOUS
 62
     6
 10
14570.8180699999902572
 20
18634.6257619999996678
 30
0.0
 11
14524.630953000010777
 21
18607.9596670000100858
 31
0.0
  0
LINE
  5
1C0F
  8
0-5
  6
CONTINUOUS
 62
     6
 10
8720.2944080000015674
 20
20267.8038129999986268
 30
0.0
 11
8679.9003520000023855
 21
20110.7052590000093915
 31
0.0
  0
LINE
  5
1C10
  8
0-5
  6
CONTINUOUS
 62
     6
 10
8679.9003520000023855
 20
20110.7052590000093915
 30
0.0
 11
8769.0598490000065794
 21
20246.211224000009679
 31
0.0
  0
LINE
  5
1C11
  8
0-5
  6
CONTINUOUS
 62
     6
 10
8679.9003520000023855
 20
20110.7052590000093915
 30
0.0
 11
8720.2944080000015674
 21
20267.8038129999986268
 31
0.0
  0
LINE
  5
1C12
  8
0-5
  6
CONTINUOUS
 62
     6
 10
8720.2944080000015674
 20
20267.8038129999986268
 30
0.0
 11
8769.0598490000065794
 21
20246.211224000009679
 31
0.0
  0
LINE
  5
1C13
  8
0-5
  6
CONTINUOUS
 62
     6
 10
8769.0598490000065794
 20
20246.211224000009679
 30
0.0
 11
8679.9003520000023855
 21
20110.7052590000093915
 31
0.0
  0
LINE
  5
1C14
  8
0-5
  6
CONTINUOUS
 62
     6
 10
8769.0598490000065794
 20
20246.211224000009679
 30
0.0
 11
8720.2944080000015674
 21
20267.8038129999986268
 31
0.0
  0
LINE
  5
1C15
  8
0-5
  6
CONTINUOUS
 62
     6
 10
10743.0328880000106437
 20
19838.3512160000100266
 30
0.0
 11
10730.534207000009701
 21
19676.6265269999894372
 31
0.0
  0
LINE
  5
1C16
  8
0-5
  6
CONTINUOUS
 62
     6
 10
10730.534207000009701
 20
19676.6265269999894372
 30
0.0
 11
10794.8101660000102129
 21
19825.5556080000096699
 31
0.0
  0
LINE
  5
1C17
  8
0-5
  6
CONTINUOUS
 62
     6
 10
10730.534207000009701
 20
19676.6265269999894372
 30
0.0
 11
10743.0328880000106437
 21
19838.3512160000100266
 31
0.0
  0
LINE
  5
1C18
  8
0-5
  6
CONTINUOUS
 62
     6
 10
10743.0328880000106437
 20
19838.3512160000100266
 30
0.0
 11
10794.8101660000102129
 21
19825.5556080000096699
 31
0.0
  0
LINE
  5
1C19
  8
0-5
  6
CONTINUOUS
 62
     6
 10
10794.8101660000102129
 20
19825.5556080000096699
 30
0.0
 11
10730.534207000009701
 21
19676.6265269999894372
 31
0.0
  0
LINE
  5
1C1A
  8
0-5
  6
CONTINUOUS
 62
     6
 10
10794.8101660000102129
 20
19825.5556080000096699
 30
0.0
 11
10743.0328880000106437
 21
19838.3512160000100266
 31
0.0
  0
LINE
  5
1C1B
  8
2-0
  6
DASHED3
 62
     6
 10
8682.4549209999968298
 20
19852.7284590000017488
 30
0.0
 11
15219.4549209999895538
 21
19852.7284590000017488
 31
0.0
  0
LINE
  5
1C1C
  8
0-6
  6
CONTINUOUS
 62
     6
 10
8639.9546570000020438
 20
19692.3359869999985676
 30
0.0
 11
8639.9546570000020438
 21
19937.7289869999913208
 31
0.0
  0
LINE
  5
1C1D
  8
0-6
  6
CONTINUOUS
 62
     6
 10
8682.4549209999968298
 20
19670.7948660000110976
 30
0.0
 11
8682.4549209999968298
 21
19937.7289869999913208
 31
0.0
  0
LINE
  5
1C1E
  8
2-0
  6
DASHED3
 62
     6
 10
8639.9546570000020438
 20
19937.7289869999913208
 30
0.0
 11
15261.9541949999893404
 21
19937.7289869999913208
 31
0.0
  0
LINE
  5
1C1F
  8
2-0
  6
DASHED3
 62
     6
 10
13563.5628050000104849
 20
16928.7285389999815379
 30
0.0
 11
15219.4549209999895538
 21
16928.7285389999815379
 31
0.0
  0
LINE
  5
1C20
  8
2-0
  6
DASHED3
 62
     6
 10
13407.7054090000092401
 20
17007.7291459999905783
 30
0.0
 11
15219.4549209999895538
 21
17007.7291459999905783
 31
0.0
  0
LINE
  5
1C21
  8
2-0
  6
DASHED3
 62
     6
 10
15219.4549209999895538
 20
16094.7296479999895382
 30
0.0
 11
15219.4549209999895538
 21
19937.7289869999913208
 31
0.0
  0
LINE
  5
1C22
  8
2-0
  6
DASHED3
 62
     6
 10
15261.9541949999893404
 20
16073.1895160000003671
 30
0.0
 11
15261.9541949999893404
 21
19937.7289869999913208
 31
0.0
  0
LINE
  5
1C23
  8
2-0
  6
DASHED3
 62
     6
 10
11214.4473199999993085
 20
18387.7285379999993893
 30
0.0
 11
15219.4549209999895538
 21
18387.7285379999993893
 31
0.0
  0
LINE
  5
1C24
  8
2-0
  6
DASHED3
 62
     6
 10
11036.8864830000093207
 20
18477.7293299999982992
 30
0.0
 11
15219.4549209999895538
 21
18477.7293299999982992
 31
0.0
  0
LINE
  5
1C25
  8
2-0
  6
DASHED3
 62
     6
 10
12007.9551589999991847
 20
17739.9926599999998871
 30
0.0
 11
12007.9551589999991847
 21
18042.7279310000012629
 31
0.0
  0
LINE
  5
1C26
  8
2-0
  6
DASHED3
 62
     6
 10
11893.9546840000002703
 20
18018.918281999998726
 30
0.0
 11
11893.9546840000002703
 21
18042.7279310000012629
 31
0.0
  0
LINE
  5
1C27
  8
2-0
  6
DASHED3
 62
     6
 10
11950.9549209999804589
 20
17884.4535440000108792
 30
0.0
 11
11950.9549209999804589
 21
18387.7285379999993893
 31
0.0
  0
LINE
  5
1C28
  8
2-0
  6
DASHED3
 62
     6
 10
11950.9549209999804589
 20
18477.7293299999982992
 30
0.0
 11
11950.9549209999804589
 21
18387.7285379999993893
 31
0.0
  0
LINE
  5
1C29
  8
0-6
  6
CONTINUOUS
 62
     6
 10
11880.9551849999897968
 20
18432.7309139999997569
 30
0.0
 11
11743.5726360000098794
 21
18368.6637950000003912
 31
0.0
  0
LINE
  5
1C2A
  8
2-0
  6
DASHED3
 62
     6
 10
11880.9551849999897968
 20
19891.7309139999997569
 30
0.0
 11
9993.5267780000103812
 21
19011.5755880000106117
 31
0.0
  0
LINE
  5
1C2B
  8
2-0
  6
DASHED3
 62
     6
 10
11880.9551849999897968
 20
18432.7309139999997569
 30
0.0
 11
8752.4556470000025001
 21
19891.7309139999997569
 31
0.0
  0
LINE
  5
1C2C
  8
0-6
  6
CONTINUOUS
 62
     6
 10
11680.6368120000006456
 20
18339.3154519999989134
 30
0.0
 11
11487.5773349999999482
 21
18249.2869470000005094
 31
0.0
  0
LINE
  5
1C2D
  8
2-0
  6
DASHED3
 62
     6
 10
12020.9546569999802159
 20
18432.7309139999997569
 30
0.0
 11
13537.0669490000000224
 21
17720.7299639999910141
 31
0.0
  0
LINE
  5
1C2E
  8
2-0
  6
DASHED3
 62
     6
 10
12020.9546569999802159
 20
19891.7309139999997569
 30
0.0
 11
13537.0669490000000224
 21
19184.7300169999907666
 31
0.0
  0
LINE
  5
1C2F
  8
2-0
  6
DASHED3
 62
     6
 10
12020.9546569999802159
 20
18432.7309139999997569
 30
0.0
 11
12765.0715280000003986
 21
18784.7306759999992209
 31
0.0
  0
LINE
  5
1C30
  8
2-0
  6
DASHED3
 62
     6
 10
14272.2037330000093789
 20
16569.5409329999893089
 30
0.0
 11
15149.4551850000007107
 21
16973.7309139999997569
 31
0.0
  0
LINE
  5
1C31
  8
2-0
  6
DASHED3
 62
     6
 10
13622.8424580000100832
 20
19184.7300169999907666
 30
0.0
 11
15149.4551850000007107
 21
19891.7309139999997569
 31
0.0
  0
LINE
  5
1C32
  8
0-6
  6
CONTINUOUS
 62
     6
 10
14394.8378789999896981
 20
18784.7306759999992209
 30
0.0
 11
15149.4551850000007107
 21
18432.7309139999997569
 31
0.0
  0
LINE
  5
1C33
  8
0-6
  6
CONTINUOUS
 62
     6
 10
14394.8378789999896981
 20
17320.7306239999816171
 30
0.0
 11
15149.4551850000007107
 21
16973.7309139999997569
 31
0.0
  0
LINE
  5
1C34
  8
0-6
  6
CONTINUOUS
 62
     6
 10
13622.8424580000100832
 20
17720.7299639999910141
 30
0.0
 11
15149.4551850000007107
 21
18432.7309139999997569
 31
0.0
  0
LINE
  5
1C35
  8
0-7
  6
CONTINUOUS
 62
     6
 10
15219.4549209999895538
 20
21134.2291979999899922
 30
0.0
 11
15219.4549209999895538
 21
20184.2285380000103032
 31
0.0
  0
LINE
  5
1C36
  8
0-7
  6
CONTINUOUS
 62
     6
 10
11950.9549209999804589
 20
21064.2294620000102441
 30
0.0
 11
11950.9549209999804589
 21
20184.2285380000103032
 31
0.0
  0
LINE
  5
1C37
  8
2-0
  6
CENTER2
 62
     6
 10
7352.9533309999978883
 20
19891.7309139999997569
 30
0.0
 11
8999.4540370000031544
 21
19891.7309139999997569
 31
0.0
  0
LINE
  5
1C38
  8
0-7
  6
CONTINUOUS
 62
     6
 10
8682.4549209999968298
 20
21064.2294620000102441
 30
0.0
 11
8682.4549209999968298
 21
20184.2285380000103032
 31
0.0
  0
LINE
  5
1C39
  8
2-0
  6
CENTER2
 62
     6
 10
7352.9533309999978883
 20
16973.7309139999997569
 30
0.0
 11
8999.4540370000031544
 21
16973.7309139999997569
 31
0.0
  0
LINE
  5
1C3A
  8
2-0
  6
CENTER2
 62
     6
 10
7352.9533309999978883
 20
14055.730913999990662
 30
0.0
 11
8999.4540370000031544
 21
14055.730913999990662
 31
0.0
  0
LINE
  5
1C3B
  8
2-0
  6
CENTER2
 62
     6
 10
14891.9553699999905803
 20
16973.7309139999997569
 30
0.0
 11
15518.2197009999908914
 21
16973.7309139999997569
 31
0.0
  0
LINE
  5
1C3C
  8
2-0
  6
CENTER2
 62
     6
 10
14891.9553699999905803
 20
14055.730913999990662
 30
0.0
 11
15518.2197009999908914
 21
14055.730913999990662
 31
0.0
  0
LINE
  5
1C3D
  8
2-0
  6
CENTER2
 62
     6
 10
8463.6567530000029365
 20
15514.730913999990662
 30
0.0
 11
15438.2530889999907231
 21
15514.730913999990662
 31
0.0
  0
LINE
  5
1C3E
  8
2-0
  6
CENTER2
 62
     6
 10
8463.6567530000029365
 20
18432.7309139999997569
 30
0.0
 11
15438.2530889999907231
 21
18432.7309139999997569
 31
0.0
  0
LINE
  5
1C3F
  8
2-0
  6
DASHED3
 62
     6
 10
11893.9546840000002703
 20
18477.7293299999982992
 30
0.0
 11
11893.9546840000002703
 21
19852.7284590000017488
 31
0.0
  0
LINE
  5
1C40
  8
2-0
  6
DASHED3
 62
     6
 10
11950.9549209999804589
 20
18477.7293299999982992
 30
0.0
 11
11950.9549209999804589
 21
19852.7284590000017488
 31
0.0
  0
LINE
  5
1C41
  8
2-0
  6
DASHED3
 62
     6
 10
12007.9551589999991847
 20
18477.7293299999982992
 30
0.0
 11
12007.9551589999991847
 21
19852.7284590000017488
 31
0.0
  0
LINE
  5
1C42
  8
2-0
  6
DASHED3
 62
     6
 10
11893.9546840000002703
 20
18042.7279310000012629
 30
0.0
 11
11893.9546840000002703
 21
18387.7285379999993893
 31
0.0
  0
LINE
  5
1C43
  8
2-0
  6
DASHED3
 62
     6
 10
12007.9551589999991847
 20
18042.7279310000012629
 30
0.0
 11
12007.9551589999991847
 21
18387.7285379999993893
 31
0.0
  0
ARC
  5
1C44
  8
0-1
  6
CONTINUOUS
 62
     3
 10
8601.9547890000012558
 20
20109.2285380000103032
 30
0.0
 40
5.0
 50
90.0
 51
180.0
  0
ARC
  5
1C45
  8
0-1
  6
CONTINUOUS
 62
     3
 10
8665.4547759999968548
 20
20109.2285380000103032
 30
0.0
 40
5.0
 50
0.0
 51
90.0
  0
ARC
  5
1C46
  8
0-1
  6
CONTINUOUS
 62
     3
 10
8665.4547759999968548
 20
20079.2289339999915683
 30
0.0
 40
5.0
 50
269.9999850001807999
 51
0.0
  0
ARC
  5
1C47
  8
0-1
  6
CONTINUOUS
 62
     3
 10
15236.4560559999808902
 20
20079.2289339999915683
 30
0.0
 40
5.0
 50
180.0
 51
269.9999850001807999
  0
ARC
  5
1C48
  8
0-1
  6
CONTINUOUS
 62
     3
 10
15236.4560559999808902
 20
20109.2285380000103032
 30
0.0
 40
5.0
 50
90.0
 51
180.0
  0
ARC
  5
1C49
  8
0-1
  6
CONTINUOUS
 62
     3
 10
15299.9550529999996797
 20
20109.2285380000103032
 30
0.0
 40
5.0
 50
0.0
 51
90.0
  0
CIRCLE
  5
1C4A
  8
0-4
  6
CONTINUOUS
 62
     4
 10
11950.9549209999804589
 20
21264.230122000000847
 30
0.0
 40
199.9999949999998989
  0
CIRCLE
  5
1C4B
  8
0-4
  6
CONTINUOUS
 62
     4
 10
8682.4549209999968298
 20
21264.230122000000847
 30
0.0
 40
199.9999949999998989
  0
CIRCLE
  5
1C4C
  8
0-4
  6
CONTINUOUS
 62
     4
 10
7152.9536609999986467
 20
19891.7309139999997569
 30
0.0
 40
199.9999949999998989
  0
CIRCLE
  5
1C4D
  8
0-4
  6
CONTINUOUS
 62
     4
 10
7152.9536609999986467
 20
16973.7309139999997569
 30
0.0
 40
199.9999949999998989
  0
CIRCLE
  5
1C4E
  8
0-4
  6
CONTINUOUS
 62
     4
 10
7152.9536609999986467
 20
14055.730913999990662
 30
0.0
 40
199.9999949999998989
  0
CIRCLE
  5
1C4F
  8
0-4
  6
CONTINUOUS
 62
     4
 10
15219.4549209999895538
 20
21334.2278790000091249
 30
0.0
 40
199.9999949999998989
  0
TEXT
  5
1C50
  8
0-4
  6
CONTINUOUS
 62
     7
 10
15164.5589109999691573
 20
21249.4906270000101358
 30
0.0
 40
160.0
  1
3
 72
     4
 11
15217.8922443333103729
 21
21329.4906270000101358
 31
0.0
  0
TEXT
  5
1C51
  8
0-4
  6
CONTINUOUS
 62
     7
 10
11902.6922790000007808
 20
21171.7430550000099174
 30
0.0
 40
160.0
  1
2
 72
     4
 11
11956.0256123333401774
 21
21251.7430550000099174
 31
0.0
  0
TEXT
  5
1C52
  8
0-4
  6
CONTINUOUS
 62
     7
 10
8636.0362000000004628
 20
21173.708716999990429
 30
0.0
 40
160.0
  1
1
 72
     4
 11
8662.7028666666665231
 21
21253.708716999990429
 31
0.0
  0
TEXT
  5
1C53
  8
0-4
  6
CONTINUOUS
 62
     7
 10
7100.0822040000020934
 20
19804.0461590000086289
 30
0.0
 40
160.0
  1
C
 72
     4
 11
7153.4155373333351235
 21
19884.0461590000086289
 31
0.0
  0
TEXT
  5
1C54
  8
0-4
  6
CONTINUOUS
 62
     7
 10
7100.0822040000020934
 20
16886.046159000001353
 30
0.0
 40
160.0
  1
B
 72
     4
 11
7153.4155373333351235
 21
16966.046159000001353
 31
0.0
  0
TEXT
  5
1C55
  8
0-4
  6
CONTINUOUS
 62
     7
 10
7100.0822040000020934
 20
13968.0471489999908954
 30
0.0
 40
160.0
  1
A
 72
     4
 11
7153.4155373333351235
 21
14048.0471489999908954
 31
0.0
  0
TEXT
  5
1C56
  8
0-5
  6
CONTINUOUS
 62
     7
 10
10992.8233889999992243
 20
20424.2313099999992119
 30
0.0
 40
160.0
  1
屋根
 72
     4
 11
11163.4900556666707416
 21
20504.2313099999992119
 31
0.0
  0
TEXT
  5
1C57
  8
0-5
  6
CONTINUOUS
 62
     7
 10
10006.2224200000000565
 20
14507.0591710000007879
 30
0.0
 40
160.0
  1
桁（前）
 72
     4
 11
10326.2224200000000565
 21
14587.0591710000007879
 31
0.0
  0
TEXT
  5
1C58
  8
0-5
  6
CONTINUOUS
 62
     7
 10
10913.7485500000002503
 20
13143.2312440000005154
 30
0.0
 40
160.0
  1
鼻隠し前
 72
     4
 11
11276.4152166666699486
 21
13223.2312440000005154
 31
0.0
  0
TEXT
  5
1C59
  8
0-5
  6
CONTINUOUS
 62
     7
 10
6946.5561860000016168
 20
12743.2309139999997569
 30
0.0
 40
160.0
  1
ケラバ 左
 72
     4
 11
7362.5561860000034358
 21
12823.2309139999997569
 31
0.0
  0
TEXT
  5
1C5A
  8
0-5
  6
CONTINUOUS
 62
     7
 10
8926.9828720000077737
 20
18851.4285750000017288
 30
0.0
 40
160.0
  1
上枠
 72
     4
 11
9097.6495386666720151
 21
18931.4285750000017288
 31
0.0
  0
TEXT
  5
1C5B
  8
0-5
  6
CONTINUOUS
 62
     7
 10
9224.1918300000106683
 20
21145.6688360000116518
 30
0.0
 40
160.0
  1
鼻隠しコーナー後
 72
     4
 11
9970.8584966666767286
 21
21225.6688360000116518
 31
0.0
  0
TEXT
  5
1C5C
  8
0-5
  6
CONTINUOUS
 62
     7
 10
10801.5900169999895297
 20
16183.7575059999999212
 30
0.0
 40
160.0
  1
梁　梁補強
 72
     4
 11
11260.256683666659228
 21
16263.7575059999999212
 31
0.0
  0
TEXT
  5
1C5D
  8
0-5
  6
CONTINUOUS
 62
     7
 10
11021.4402989999907732
 20
16186.130948999989414
 30
0.0
 40
160.0
  1
+
 72
     4
 11
11074.7736323333301698
 21
16266.130948999989414
 31
0.0
  0
TEXT
  5
1C5E
  8
0-5
  6
CONTINUOUS
 62
     7
 10
10233.572109000000637
 20
16720.0476899999812304
 30
0.0
 40
160.0
  1
ブレース
 72
     4
 11
10596.2387756666703353
 21
16805.3810233333097131
 31
0.0
  0
TEXT
  5
1C5F
  8
2-0
  6
CONTINUOUS
 62
     7
 10
12503.467157805320312
 20
18928.3071390000113752
 30
0.0
 40
160.0
  1
桁中B +  桁中補強B
 72
     4
 11
13436.8004911386506137
 21
19008.3071390000113752
 31
0.0
  0
TEXT
  5
1C60
  8
2-0
  6
CONTINUOUS
 62
     7
 10
12503.467157805320312
 20
17464.2991679999904591
 30
0.0
 40
160.0
  1
桁中A +  桁中補強A
 72
     4
 11
13436.8004911386506137
 21
17544.2991679999904591
 31
0.0
  0
TEXT
  5
1C61
  8
2-0
  6
CONTINUOUS
 62
     7
 10
12503.4671578053093981
 20
15151.5704139999998006
 30
0.0
 40
160.0
  1
桁中B +  桁中補強B
 50
0.000236
 72
     4
 11
13436.8001616125602595
 21
15231.5742583778901462
 31
0.0
  0
TEXT
  5
1C62
  8
2-0
  6
CONTINUOUS
 62
     7
 10
21875.9879130000299483
 20
11803.7395189999897411
 30
0.0
 40
160.0
  1
平　面　図
 50
359.999787000000083
 72
     4
 11
22329.3215239073906559
 21
11878.4045003762203123
 31
0.0
  0
TEXT
  5
1C63
  8
2-0
  6
CONTINUOUS
 62
     7
 10
10771.8457700000108161
 20
11796.2203169999902457
 30
0.0
 40
160.0
  1
小 屋 伏 図
 50
0.000193
 72
     4
 11
11273.1788338516598742
 21
11876.2220057335798629
 31
0.0
  0
TEXT
  5
1C64
  8
2-0
  6
CONTINUOUS
 62
     7
 10
23680.813709044999996
 20
11825.5998693762303446
 30
0.0
 40
160.0
  1
1
 72
     4
 11
23707.4803757116715133
 21
11905.5998693762303446
 31
0.0
  0
TEXT
  5
1C65
  8
2-0
  6
CONTINUOUS
 62
     7
 10
23923.9024262956991151
 20
11745.601337376230731
 30
0.0
 40
160.0
  1
80
 72
     4
 11
24043.9024262956991151
 21
11825.601337376230731
 31
0.0
  0
TEXT
  5
1C66
  8
2-0
  6
CONTINUOUS
 62
     7
 10
23181.8156750449888932
 20
11798.4045003762203123
 30
0.0
 40
160.0
  1
(S=  /   )
 72
     4
 11
23741.8156750449888932
 21
11878.4045003762203123
 31
0.0
  0
TEXT
  5
1C67
  8
2-0
  6
CONTINUOUS
 62
     7
 10
12624.6710189892801282
 20
11823.4173747335808002
 30
0.0
 40
160.0
  1
1
 72
     4
 11
12651.3376856559498265
 21
11903.4173747335808002
 31
0.0
  0
TEXT
  5
1C68
  8
2-0
  6
CONTINUOUS
 62
     7
 10
12867.7597362399792473
 20
11743.4188427335593587
 30
0.0
 40
160.0
  1
80
 72
     4
 11
12987.7597362399792473
 21
11823.4188427335593587
 31
0.0
  0
TEXT
  5
1C69
  8
2-0
  6
CONTINUOUS
 62
     7
 10
12125.6729849892799393
 20
11796.2220057335798629
 30
0.0
 40
160.0
  1
(S=  /   )
 72
     4
 11
12685.6729849892799393
 21
11876.2220057335798629
 31
0.0
  0
TEXT
  5
1C6A
  8
0-6
  6
CONTINUOUS
 62
     7
 10
9196.7388271448216983
 20
20424.2273500000083004
 30
0.0
 40
160.0
  1
桁後+桁後補強
 72
     4
 11
9831.4054938114877586
 21
20504.2273500000083004
 31
0.0
  0
LINE
  5
1C6B
  8
0-6
  6
CONTINUOUS
 62
     6
 10
10640.4542349999901489
 20
19937.7289869999913208
 30
0.0
 11
10507.0602871187602432
 21
20344.2290660000107891
 31
0.0
  0
LINE
  5
1C6C
  8
0-6
  6
CONTINUOUS
 62
     6
 10
9157.3179335495369742
 20
20344.2290660000107891
 30
0.0
 11
10507.0602871187602432
 21
20344.2290660000107891
 31
0.0
  0
LINE
  5
1C6D
  8
0-6
  6
CONTINUOUS
 62
     6
 10
10616.846779632700418
 20
20098.2104254249316
 30
0.0
 11
10566.0731358597495273
 21
20081.8769092401598755
 31
0.0
  0
LINE
  5
1C6E
  8
0-6
  6
CONTINUOUS
 62
     6
 10
10616.846779632700418
 20
20098.2104254249316
 30
0.0
 11
10640.4542349999901489
 21
19937.7289869999913208
 31
0.0
  0
LINE
  5
1C6F
  8
0-6
  6
CONTINUOUS
 62
     6
 10
10566.0731358597495273
 20
20081.8769092401598755
 30
0.0
 11
10616.846779632700418
 21
20098.2104254249316
 31
0.0
  0
LINE
  5
1C70
  8
0-6
  6
CONTINUOUS
 62
     6
 10
10640.4542349999901489
 20
19937.7289869999913208
 30
0.0
 11
10566.0731358597495273
 21
20081.8769092401598755
 31
0.0
  0
LINE
  5
1C71
  8
0-6
  6
CONTINUOUS
 62
     6
 10
10640.4542349999901489
 20
19937.7289869999913208
 30
0.0
 11
10616.846779632700418
 21
20098.2104254249316
 31
0.0
  0
LINE
  5
1C72
  8
0-6
  6
CONTINUOUS
 62
     6
 10
10566.0731358597495273
 20
20081.8769092401598755
 30
0.0
 11
10640.4542349999901489
 21
19937.7289869999913208
 31
0.0
  0
LINE
  5
1C73
  8
2-0
  6
CONTINUOUS
 62
     6
 10
24542.2550940000000992
 20
13415.7297920000000886
 30
0.0
 11
25542.2484959999710554
 21
13415.7297920000000886
 31
0.0
  0
LINE
  5
1C74
  8
2-0
  6
CONTINUOUS
 62
     6
 10
26010.1888729999882344
 20
13886.1505059999999503
 30
0.0
 11
25542.2484959999710554
 21
13415.7297920000000886
 31
0.0
  0
LINE
  5
1C75
  8
2-0
  6
CONTINUOUS
 62
     6
 10
24558.9661899999809975
 20
18094.8498570000010659
 30
0.0
 11
25576.9415379999882134
 21
18094.8498570000010659
 31
0.0
  0
LINE
  5
1C76
  8
2-0
  6
CONTINUOUS
 62
     6
 10
26033.3670559999882244
 20
18319.564805999998498
 30
0.0
 11
25576.9415379999882134
 21
18094.8498570000010659
 31
0.0
  0
LINE
  5
1C77
  8
2-0
  6
CONTINUOUS
 62
     6
 10
25971.5486699999892153
 20
17077.75815300000977
 30
0.0
 11
25666.8532520000007935
 21
17181.4116840000206139
 31
0.0
  0
LINE
  5
1C78
  8
2-0
  6
CONTINUOUS
 62
     6
 10
26126.5707089999596064
 20
16588.1361090000209515
 30
0.0
 11
25666.8532520000007935
 21
16344.2227980000006937
 31
0.0
  0
LINE
  5
1C79
  8
2-0
  6
CONTINUOUS
 62
     6
 10
24746.8502169999992475
 20
16344.2227980000006937
 30
0.0
 11
25666.8532520000007935
 21
16344.2227980000006937
 31
0.0
  0
LINE
  5
1C7A
  8
2-0
  6
CONTINUOUS
 62
     6
 10
24466.8591899999992165
 20
17181.4116840000206139
 30
0.0
 11
25666.8532520000007935
 21
17181.4116840000206139
 31
0.0
  0
LINE
  5
1C7B
  8
2-0
  6
CONTINUOUS
 62
     6
 10
26042.7479940000011993
 20
14207.83415199997944
 30
0.0
 11
25666.8532520000007935
 21
14388.7779869999994844
 31
0.0
  0
LINE
  5
1C7C
  8
2-0
  6
CONTINUOUS
 62
     6
 10
24558.9661899999809975
 20
15177.0873990000000049
 30
0.0
 11
25576.9415379999882134
 21
15177.0873990000000049
 31
0.0
  0
LINE
  5
1C7D
  8
2-0
  6
CONTINUOUS
 62
     6
 10
25146.8515359999910288
 20
14388.7779869999994844
 30
0.0
 11
25666.8532520000007935
 21
14388.7779869999994844
 31
0.0
  0
LINE
  5
1C7E
  8
2-0
  6
CONTINUOUS
 62
     6
 10
26033.3670559999882244
 20
15401.8003690000205097
 30
0.0
 11
25576.9415379999882134
 21
15177.0873990000000049
 31
0.0
  0
LINE
  5
1C7F
  8
2-0
  6
CONTINUOUS
 62
     4
 10
22956.9140100000004168
 20
20014.2314420000184327
 30
0.0
 11
22956.9140100000004168
 21
20744.2284069999986968
 31
0.0
  0
LINE
  5
1C80
  8
2-0
  6
CONTINUOUS
 62
     3
 10
26237.9146699999910197
 20
19825.2289879999989353
 30
0.0
 11
26237.9146699999910197
 21
19819.2330260000198905
 31
0.0
  0
LINE
  5
1C81
  8
2-0
  6
CONTINUOUS
 62
     3
 10
26237.9146699999910197
 20
19819.2330260000198905
 30
0.0
 11
26267.912294000001566
 21
19819.2330260000198905
 31
0.0
  0
LINE
  5
1C82
  8
2-0
  6
CONTINUOUS
 62
     3
 10
26267.912294000001566
 20
19849.2326300000095216
 30
0.0
 11
26186.9103939999913564
 21
19849.2326300000095216
 31
0.0
  0
LINE
  5
1C83
  8
2-0
  6
CONTINUOUS
 62
     3
 10
26237.9146699999910197
 20
19808.9355700000014622
 30
0.0
 11
26267.912294000001566
 21
19808.9355700000014622
 31
0.0
  0
LINE
  5
1C84
  8
2-0
  6
CONTINUOUS
 62
     3
 10
26237.9146699999910197
 20
19826.9373120000200288
 30
0.0
 11
26237.9146699999910197
 21
19808.9355700000014622
 31
0.0
  0
LINE
  5
1C85
  8
2-0
  6
CONTINUOUS
 62
     3
 10
26262.9120299999995041
 20
19826.9373120000200288
 30
0.0
 11
26237.9146699999910197
 21
19826.9373120000200288
 31
0.0
  0
LINE
  5
1C86
  8
2-0
  6
CONTINUOUS
 62
     3
 10
26262.9120299999995041
 20
19821.9291300000186311
 30
0.0
 11
26262.9120299999995041
 21
19826.9373120000200288
 31
0.0
  0
LINE
  5
1C87
  8
2-0
  6
CONTINUOUS
 62
     3
 10
26255.9104729999889969
 20
19821.9291300000186311
 30
0.0
 11
26262.9120299999995041
 21
19821.9291300000186311
 31
0.0
  0
LINE
  5
1C88
  8
2-0
  6
CONTINUOUS
 62
     3
 10
26155.6142050000016752
 20
19922.2293570000001637
 30
0.0
 11
26155.6142050000016752
 21
19929.2348730000085197
 31
0.0
  0
LINE
  5
1C89
  8
2-0
  6
CONTINUOUS
 62
     3
 10
26155.6142050000016752
 20
19929.2348730000085197
 30
0.0
 11
26160.6144689999782713
 21
19929.2348730000085197
 31
0.0
  0
LINE
  5
1C8A
  8
2-0
  6
CONTINUOUS
 62
     3
 10
26160.6144689999782713
 20
19929.2348730000085197
 30
0.0
 11
26160.6144689999782713
 21
19904.2256360000101267
 31
0.0
  0
LINE
  5
1C8B
  8
2-0
  6
CONTINUOUS
 62
     3
 10
26160.6144689999782713
 20
19904.2256360000101267
 30
0.0
 11
26142.6127269999815326
 21
19904.2256360000101267
 31
0.0
  0
LINE
  5
1C8C
  8
2-0
  6
CONTINUOUS
 62
     3
 10
26142.6127269999815326
 20
19904.2256360000101267
 30
0.0
 11
26142.6127269999815326
 21
19934.2291990000194346
 31
0.0
  0
LINE
  5
1C8D
  8
2-0
  6
CONTINUOUS
 62
     3
 10
26152.9101829999999609
 20
19934.2291990000194346
 30
0.0
 11
26267.912294000001566
 21
19934.2291990000194346
 31
0.0
  0
LINE
  5
1C8E
  8
2-0
  6
CONTINUOUS
 62
     3
 10
26152.9101829999999609
 20
19904.2256360000101267
 30
0.0
 11
26152.9101829999999609
 21
19934.2291990000194346
 31
0.0
  0
LINE
  5
1C8F
  8
2-0
  6
CONTINUOUS
 62
     3
 10
26158.9120829999992566
 20
19904.2256360000101267
 30
0.0
 11
26152.9101829999999609
 21
19904.2256360000101267
 31
0.0
  0
LINE
  5
1C90
  8
2-0
  6
CONTINUOUS
 62
     3
 10
26255.9104729999889969
 20
19118.1323074999891105
 30
0.0
 11
26262.9120299999995041
 21
19118.1323074999891105
 31
0.0
  0
LINE
  5
1C91
  8
2-0
  6
CONTINUOUS
 62
     3
 10
26262.9120299999995041
 20
19118.1323074999891105
 30
0.0
 11
26262.9120299999995041
 21
19123.1325714999984484
 31
0.0
  0
LINE
  5
1C92
  8
2-0
  6
CONTINUOUS
 62
     3
 10
26262.9120299999995041
 20
19123.1325714999984484
 30
0.0
 11
26237.9146699999910197
 21
19123.1325714999984484
 31
0.0
  0
LINE
  5
1C93
  8
2-0
  6
CONTINUOUS
 62
     3
 10
26237.9146699999910197
 20
19123.1325714999984484
 30
0.0
 11
26237.9146699999910197
 21
19105.1367675000001327
 31
0.0
  0
LINE
  5
1C94
  8
2-0
  6
CONTINUOUS
 62
     3
 10
26237.9146699999910197
 20
19105.1367675000001327
 30
0.0
 11
26267.912294000001566
 21
19105.1367675000001327
 31
0.0
  0
LINE
  5
1C95
  8
2-0
  6
CONTINUOUS
 62
     3
 10
26237.9146699999910197
 20
19121.2282744999793067
 30
0.0
 11
26237.9146699999910197
 21
19115.2303334999887738
 31
0.0
  0
LINE
  5
1C96
  8
2-0
  6
CONTINUOUS
 62
     3
 10
26237.9146699999910197
 20
19115.2303334999887738
 30
0.0
 11
26267.912294000001566
 21
19115.2303334999887738
 31
0.0
  0
LINE
  5
1C97
  8
2-0
  6
CONTINUOUS
 62
     3
 10
26267.912294000001566
 20
19115.2303334999887738
 30
0.0
 11
26267.912294000001566
 21
19152.2314944999998261
 31
0.0
  0
LINE
  5
1C98
  8
2-0
  6
CONTINUOUS
 62
     3
 10
26237.9146699999910197
 20
19152.2314944999998261
 30
0.0
 11
26267.912294000001566
 21
19152.2314944999998261
 31
0.0
  0
LINE
  5
1C99
  8
2-0
  6
CONTINUOUS
 62
     3
 10
26237.9146699999910197
 20
19146.2276144999814278
 30
0.0
 11
26237.9146699999910197
 21
19152.2314944999998261
 31
0.0
  0
LINE
  5
1C9A
  8
2-0
  6
CONTINUOUS
 62
     3
 10
26237.9146699999910197
 20
19162.3270394999817654
 30
0.0
 11
26267.912294000001566
 21
19162.3270394999817654
 31
0.0
  0
LINE
  5
1C9B
  8
2-0
  6
CONTINUOUS
 62
     3
 10
26237.9146699999910197
 20
19144.3252974999995786
 30
0.0
 11
26237.9146699999910197
 21
19162.3270394999817654
 31
0.0
  0
LINE
  5
1C9C
  8
2-0
  6
CONTINUOUS
 62
     3
 10
26262.9120299999995041
 20
19144.3252974999995786
 30
0.0
 11
26237.9146699999910197
 21
19144.3252974999995786
 31
0.0
  0
LINE
  5
1C9D
  8
2-0
  6
CONTINUOUS
 62
     3
 10
26262.9120299999995041
 20
19149.3255615000016405
 30
0.0
 11
26262.9120299999995041
 21
19144.3252974999995786
 31
0.0
  0
LINE
  5
1C9E
  8
2-0
  6
CONTINUOUS
 62
     3
 10
26255.9104729999889969
 20
19149.3255615000016405
 30
0.0
 11
26262.9120299999995041
 21
19149.3255615000016405
 31
0.0
  0
LINE
  5
1C9F
  8
2-0
  6
CONTINUOUS
 62
     3
 10
26255.9104729999889969
 20
18417.1313179999888234
 30
0.0
 11
26262.9120299999995041
 21
18417.1313179999888234
 31
0.0
  0
LINE
  5
1CA0
  8
2-0
  6
CONTINUOUS
 62
     3
 10
26262.9120299999995041
 20
18417.1313179999888234
 30
0.0
 11
26262.9120299999995041
 21
18422.1375200000002224
 31
0.0
  0
LINE
  5
1CA1
  8
2-0
  6
CONTINUOUS
 62
     3
 10
26262.9120299999995041
 20
18422.1375200000002224
 30
0.0
 11
26237.9146699999910197
 21
18422.1375200000002224
 31
0.0
  0
LINE
  5
1CA2
  8
2-0
  6
CONTINUOUS
 62
     3
 10
26237.9146699999910197
 20
18422.1375200000002224
 30
0.0
 11
26237.9146699999910197
 21
18404.1357780000107596
 31
0.0
  0
LINE
  5
1CA3
  8
2-0
  6
CONTINUOUS
 62
     3
 10
26237.9146699999910197
 20
18404.1357780000107596
 30
0.0
 11
26267.912294000001566
 21
18404.1357780000107596
 31
0.0
  0
LINE
  5
1CA4
  8
2-0
  6
CONTINUOUS
 62
     3
 10
26237.9146699999910197
 20
18420.2272849999899336
 30
0.0
 11
26237.9146699999910197
 21
18414.2313229999999749
 31
0.0
  0
LINE
  5
1CA5
  8
2-0
  6
CONTINUOUS
 62
     3
 10
26237.9146699999910197
 20
18414.2313229999999749
 30
0.0
 11
26267.912294000001566
 21
18414.2313229999999749
 31
0.0
  0
LINE
  5
1CA6
  8
2-0
  6
CONTINUOUS
 62
     3
 10
26267.912294000001566
 20
18414.2313229999999749
 30
0.0
 11
26267.912294000001566
 21
18451.2305049999886251
 31
0.0
  0
LINE
  5
1CA7
  8
2-0
  6
CONTINUOUS
 62
     3
 10
26237.9146699999910197
 20
18451.2305049999886251
 30
0.0
 11
26267.912294000001566
 21
18451.2305049999886251
 31
0.0
  0
LINE
  5
1CA8
  8
2-0
  6
CONTINUOUS
 62
     3
 10
26237.9146699999910197
 20
18445.2345430000095803
 30
0.0
 11
26237.9146699999910197
 21
18451.2305049999886251
 31
0.0
  0
LINE
  5
1CA9
  8
2-0
  6
CONTINUOUS
 62
     3
 10
26237.9146699999910197
 20
18461.3260500000105822
 30
0.0
 11
26267.912294000001566
 21
18461.3260500000105822
 31
0.0
  0
LINE
  5
1CAA
  8
2-0
  6
CONTINUOUS
 62
     3
 10
26237.9146699999910197
 20
18443.3243079999992915
 30
0.0
 11
26237.9146699999910197
 21
18461.3260500000105822
 31
0.0
  0
LINE
  5
1CAB
  8
2-0
  6
CONTINUOUS
 62
     3
 10
26262.9120299999995041
 20
18443.3243079999992915
 30
0.0
 11
26237.9146699999910197
 21
18443.3243079999992915
 31
0.0
  0
LINE
  5
1CAC
  8
2-0
  6
CONTINUOUS
 62
     3
 10
26262.9120299999995041
 20
18448.3305099999997765
 30
0.0
 11
26262.9120299999995041
 21
18443.3243079999992915
 31
0.0
  0
LINE
  5
1CAD
  8
2-0
  6
CONTINUOUS
 62
     3
 10
26255.9104729999889969
 20
18448.3305099999997765
 30
0.0
 11
26262.9120299999995041
 21
18448.3305099999997765
 31
0.0
  0
LINE
  5
1CAE
  8
2-0
  6
CONTINUOUS
 62
     3
 10
26255.9104729999889969
 20
17747.3245720000013534
 30
0.0
 11
26262.9120299999995041
 21
17747.3245720000013534
 31
0.0
  0
LINE
  5
1CAF
  8
2-0
  6
CONTINUOUS
 62
     3
 10
26262.9120299999995041
 20
17747.3245720000013534
 30
0.0
 11
26262.9120299999995041
 21
17742.3361850000001141
 31
0.0
  0
LINE
  5
1CB0
  8
2-0
  6
CONTINUOUS
 62
     3
 10
26262.9120299999995041
 20
17742.3361850000001141
 30
0.0
 11
26237.9146699999910197
 21
17742.3361850000001141
 31
0.0
  0
LINE
  5
1CB1
  8
2-0
  6
CONTINUOUS
 62
     3
 10
26237.9146699999910197
 20
17742.3361850000001141
 30
0.0
 11
26237.9146699999910197
 21
17760.3319879999908153
 31
0.0
  0
LINE
  5
1CB2
  8
2-0
  6
CONTINUOUS
 62
     3
 10
26237.9146699999910197
 20
17760.3319879999908153
 30
0.0
 11
26267.912294000001566
 21
17760.3319879999908153
 31
0.0
  0
LINE
  5
1CB3
  8
2-0
  6
CONTINUOUS
 62
     3
 10
26237.9146699999910197
 20
17744.2345429999986663
 30
0.0
 11
26237.9146699999910197
 21
17750.2305049999886251
 31
0.0
  0
LINE
  5
1CB4
  8
2-0
  6
CONTINUOUS
 62
     3
 10
26237.9146699999910197
 20
17750.2305049999886251
 30
0.0
 11
26267.912294000001566
 21
17750.2305049999886251
 31
0.0
  0
LINE
  5
1CB5
  8
2-0
  6
CONTINUOUS
 62
     3
 10
26267.912294000001566
 20
17750.2305049999886251
 30
0.0
 11
26267.912294000001566
 21
17713.2313229999999749
 31
0.0
  0
LINE
  5
1CB6
  8
2-0
  6
CONTINUOUS
 62
     3
 10
26237.9146699999910197
 20
17713.2313229999999749
 30
0.0
 11
26267.912294000001566
 21
17713.2313229999999749
 31
0.0
  0
LINE
  5
1CB7
  8
2-0
  6
CONTINUOUS
 62
     3
 10
26237.9146699999910197
 20
17719.2332239999886951
 30
0.0
 11
26237.9146699999910197
 21
17713.2313229999999749
 31
0.0
  0
LINE
  5
1CB8
  8
2-0
  6
CONTINUOUS
 62
     3
 10
26237.9146699999910197
 20
17703.1417169999913312
 30
0.0
 11
26267.912294000001566
 21
17703.1417169999913312
 31
0.0
  0
LINE
  5
1CB9
  8
2-0
  6
CONTINUOUS
 62
     3
 10
26237.9146699999910197
 20
17721.1375200000002224
 30
0.0
 11
26237.9146699999910197
 21
17703.1417169999913312
 31
0.0
  0
LINE
  5
1CBA
  8
2-0
  6
CONTINUOUS
 62
     3
 10
26262.9120299999995041
 20
17721.1375200000002224
 30
0.0
 11
26237.9146699999910197
 21
17721.1375200000002224
 31
0.0
  0
LINE
  5
1CBB
  8
2-0
  6
CONTINUOUS
 62
     3
 10
26262.9120299999995041
 20
17716.1372569999984989
 30
0.0
 11
26262.9120299999995041
 21
17721.1375200000002224
 31
0.0
  0
LINE
  5
1CBC
  8
2-0
  6
CONTINUOUS
 62
     3
 10
26255.9104729999889969
 20
17716.1372569999984989
 30
0.0
 11
26262.9120299999995041
 21
17716.1372569999984989
 31
0.0
  0
LINE
  5
1CBD
  8
2-0
  6
CONTINUOUS
 62
     3
 10
26265.0261559999999008
 20
16996.2281430000002729
 30
0.0
 11
26265.0261559999999008
 21
17016.2291979999899922
 31
0.0
  0
LINE
  5
1CBE
  8
2-0
  6
CONTINUOUS
 62
     3
 10
26265.0261559999999008
 20
17016.2291979999899922
 30
0.0
 11
26180.0295870000009018
 21
17016.2291979999899922
 31
0.0
  0
LINE
  5
1CBF
  8
2-0
  6
CONTINUOUS
 62
     3
 10
26255.9104729999889969
 20
17042.8359080000009271
 30
0.0
 11
26262.9120299999995041
 21
17042.8359080000009271
 31
0.0
  0
LINE
  5
1CC0
  8
2-0
  6
CONTINUOUS
 62
     3
 10
26262.9120299999995041
 20
17042.8359080000009271
 30
0.0
 11
26262.9120299999995041
 21
17037.8415820000009262
 31
0.0
  0
LINE
  5
1CC1
  8
2-0
  6
CONTINUOUS
 62
     3
 10
26262.9120299999995041
 20
17037.8415820000009262
 30
0.0
 11
26237.9146699999910197
 21
17037.8415820000009262
 31
0.0
  0
LINE
  5
1CC2
  8
2-0
  6
CONTINUOUS
 62
     3
 10
26237.9146699999910197
 20
17037.8415820000009262
 30
0.0
 11
26237.9146699999910197
 21
17055.8373860000101558
 31
0.0
  0
LINE
  5
1CC3
  8
2-0
  6
CONTINUOUS
 62
     3
 10
26237.9146699999910197
 20
17055.8373860000101558
 30
0.0
 11
26267.912294000001566
 21
17055.8373860000101558
 31
0.0
  0
LINE
  5
1CC4
  8
2-0
  6
CONTINUOUS
 62
     3
 10
26237.9146699999910197
 20
17046.2288020000014512
 30
0.0
 11
26237.9146699999910197
 21
17040.2269019999985176
 31
0.0
  0
LINE
  5
1CC5
  8
2-0
  6
CONTINUOUS
 62
     3
 10
26267.912294000001566
 20
17046.2288020000014512
 30
0.0
 11
26237.9146699999910197
 21
17046.2288020000014512
 31
0.0
  0
LINE
  5
1CC6
  8
2-0
  6
CONTINUOUS
 62
     3
 10
26267.912294000001566
 20
17055.8373860000101558
 30
0.0
 11
26267.912294000001566
 21
17703.1417169999913312
 31
0.0
  0
LINE
  5
1CC7
  8
2-0
  6
CONTINUOUS
 62
     3
 10
26267.912294000001566
 20
17760.3319879999908153
 30
0.0
 11
26267.912294000001566
 21
18404.1357780000107596
 31
0.0
  0
LINE
  5
1CC8
  8
2-0
  6
CONTINUOUS
 62
     3
 10
26267.912294000001566
 20
16901.227087000010215
 30
0.0
 11
26237.9146699999910197
 21
16901.227087000010215
 31
0.0
  0
LINE
  5
1CC9
  8
2-0
  6
CONTINUOUS
 62
     3
 10
26237.9146699999910197
 20
16901.227087000010215
 30
0.0
 11
26237.9146699999910197
 21
16907.2289870000095107
 31
0.0
  0
LINE
  5
1CCA
  8
2-0
  6
CONTINUOUS
 62
     3
 10
26180.0295870000009018
 20
16931.2326299999986077
 30
0.0
 11
26265.0261559999999008
 21
16931.2326299999986077
 31
0.0
  0
LINE
  5
1CCB
  8
2-0
  6
CONTINUOUS
 62
     3
 10
26265.0261559999999008
 20
16931.2326299999986077
 30
0.0
 11
26265.0261559999999008
 21
16951.2277470000008179
 31
0.0
  0
LINE
  5
1CCC
  8
2-0
  6
CONTINUOUS
 62
     3
 10
26237.9146699999910197
 20
16891.6185039999982109
 30
0.0
 11
26267.912294000001566
 21
16891.6185039999982109
 31
0.0
  0
LINE
  5
1CCD
  8
2-0
  6
CONTINUOUS
 62
     3
 10
26237.9146699999910197
 20
16909.6143069999816362
 30
0.0
 11
26237.9146699999910197
 21
16891.6185039999982109
 31
0.0
  0
LINE
  5
1CCE
  8
2-0
  6
CONTINUOUS
 62
     3
 10
26262.9120299999995041
 20
16909.6143069999816362
 30
0.0
 11
26237.9146699999910197
 21
16909.6143069999816362
 31
0.0
  0
LINE
  5
1CCF
  8
2-0
  6
CONTINUOUS
 62
     3
 10
26262.9120299999995041
 20
16904.6140430000086781
 30
0.0
 11
26262.9120299999995041
 21
16909.6143069999816362
 31
0.0
  0
LINE
  5
1CD0
  8
2-0
  6
CONTINUOUS
 62
     3
 10
26255.9104729999889969
 20
16904.6140430000086781
 30
0.0
 11
26262.9120299999995041
 21
16904.6140430000086781
 31
0.0
  0
LINE
  5
1CD1
  8
2-0
  6
CONTINUOUS
 62
     3
 10
26255.9104729999889969
 20
16200.1318124999907013
 30
0.0
 11
26262.9120299999995041
 21
16200.1318124999907013
 31
0.0
  0
LINE
  5
1CD2
  8
2-0
  6
CONTINUOUS
 62
     3
 10
26262.9120299999995041
 20
16200.1318124999907013
 30
0.0
 11
26262.9120299999995041
 21
16205.1320764999891253
 31
0.0
  0
LINE
  5
1CD3
  8
2-0
  6
CONTINUOUS
 62
     3
 10
26262.9120299999995041
 20
16205.1320764999891253
 30
0.0
 11
26237.9146699999910197
 21
16205.1320764999891253
 31
0.0
  0
LINE
  5
1CD4
  8
2-0
  6
CONTINUOUS
 62
     3
 10
26237.9146699999910197
 20
16205.1320764999891253
 30
0.0
 11
26237.9146699999910197
 21
16187.1303344999905676
 31
0.0
  0
LINE
  5
1CD5
  8
2-0
  6
CONTINUOUS
 62
     3
 10
26237.9146699999910197
 20
16187.1303344999905676
 30
0.0
 11
26267.912294000001566
 21
16187.1303344999905676
 31
0.0
  0
LINE
  5
1CD6
  8
2-0
  6
CONTINUOUS
 62
     3
 10
26237.9146699999910197
 20
16203.2277795000009064
 30
0.0
 11
26237.9146699999910197
 21
16197.2308284999999159
 31
0.0
  0
LINE
  5
1CD7
  8
2-0
  6
CONTINUOUS
 62
     3
 10
26237.9146699999910197
 20
16197.2308284999999159
 30
0.0
 11
26267.912294000001566
 21
16197.2308284999999159
 31
0.0
  0
LINE
  5
1CD8
  8
2-0
  6
CONTINUOUS
 62
     3
 10
26267.912294000001566
 20
16197.2308284999999159
 30
0.0
 11
26267.912294000001566
 21
16234.2309994999995979
 31
0.0
  0
LINE
  5
1CD9
  8
2-0
  6
CONTINUOUS
 62
     3
 10
26237.9146699999910197
 20
16234.2309994999995979
 30
0.0
 11
26267.912294000001566
 21
16234.2309994999995979
 31
0.0
  0
LINE
  5
1CDA
  8
2-0
  6
CONTINUOUS
 62
     3
 10
26237.9146699999910197
 20
16228.2281094999907509
 30
0.0
 11
26237.9146699999910197
 21
16234.2309994999995979
 31
0.0
  0
LINE
  5
1CDB
  8
2-0
  6
CONTINUOUS
 62
     3
 10
26237.9146699999910197
 20
16244.3265444999997271
 30
0.0
 11
26267.912294000001566
 21
16244.3265444999997271
 31
0.0
  0
LINE
  5
1CDC
  8
2-0
  6
CONTINUOUS
 62
     3
 10
26237.9146699999910197
 20
16226.3188634999896749
 30
0.0
 11
26237.9146699999910197
 21
16244.3265444999997271
 31
0.0
  0
LINE
  5
1CDD
  8
2-0
  6
CONTINUOUS
 62
     3
 10
26262.9120299999995041
 20
16226.3188634999896749
 30
0.0
 11
26237.9146699999910197
 21
16226.3188634999896749
 31
0.0
  0
LINE
  5
1CDE
  8
2-0
  6
CONTINUOUS
 62
     3
 10
26262.9120299999995041
 20
16231.3250664999995934
 30
0.0
 11
26262.9120299999995041
 21
16226.3188634999896749
 31
0.0
  0
LINE
  5
1CDF
  8
2-0
  6
CONTINUOUS
 62
     3
 10
26255.9104729999889969
 20
16231.3250664999995934
 30
0.0
 11
26262.9120299999995041
 21
16231.3250664999995934
 31
0.0
  0
LINE
  5
1CE0
  8
2-0
  6
CONTINUOUS
 62
     3
 10
26255.9104729999889969
 20
15530.565082999999504
 30
0.0
 11
26262.9120299999995041
 21
15530.565082999999504
 31
0.0
  0
LINE
  5
1CE1
  8
2-0
  6
CONTINUOUS
 62
     3
 10
26262.9120299999995041
 20
15530.565082999999504
 30
0.0
 11
26262.9120299999995041
 21
15525.5707579999998416
 31
0.0
  0
LINE
  5
1CE2
  8
2-0
  6
CONTINUOUS
 62
     3
 10
26262.9120299999995041
 20
15525.5707579999998416
 30
0.0
 11
26237.9146699999910197
 21
15525.5707579999998416
 31
0.0
  0
LINE
  5
1CE3
  8
2-0
  6
CONTINUOUS
 62
     3
 10
26237.9146699999910197
 20
15525.5707579999998416
 30
0.0
 11
26237.9146699999910197
 21
15543.5665610000105517
 31
0.0
  0
LINE
  5
1CE4
  8
2-0
  6
CONTINUOUS
 62
     3
 10
26237.9146699999910197
 20
15543.5665610000105517
 30
0.0
 11
26267.912294000001566
 21
15543.5665610000105517
 31
0.0
  0
LINE
  5
1CE5
  8
2-0
  6
CONTINUOUS
 62
     3
 10
26237.9146699999910197
 20
15527.4691160000002128
 30
0.0
 11
26237.9146699999910197
 21
15533.4710160000104224
 31
0.0
  0
LINE
  5
1CE6
  8
2-0
  6
CONTINUOUS
 62
     3
 10
26237.9146699999910197
 20
15533.4710160000104224
 30
0.0
 11
26267.912294000001566
 21
15533.4710160000104224
 31
0.0
  0
LINE
  5
1CE7
  8
2-0
  6
CONTINUOUS
 62
     3
 10
26267.912294000001566
 20
15496.4718350000093778
 30
0.0
 11
26267.912294000001566
 21
15533.4710160000104224
 31
0.0
  0
LINE
  5
1CE8
  8
2-0
  6
CONTINUOUS
 62
     3
 10
26237.9146699999910197
 20
15496.4718350000093778
 30
0.0
 11
26267.912294000001566
 21
15496.4718350000093778
 31
0.0
  0
LINE
  5
1CE9
  8
2-0
  6
CONTINUOUS
 62
     3
 10
26237.9146699999910197
 20
15502.4687860000103683
 30
0.0
 11
26237.9146699999910197
 21
15496.4718350000093778
 31
0.0
  0
LINE
  5
1CEA
  8
2-0
  6
CONTINUOUS
 62
     3
 10
26237.9146699999910197
 20
15486.3703509999995731
 30
0.0
 11
26267.912294000001566
 21
15486.3703509999995731
 31
0.0
  0
LINE
  5
1CEB
  8
2-0
  6
CONTINUOUS
 62
     3
 10
26237.9146699999910197
 20
15504.3780319999896165
 30
0.0
 11
26237.9146699999910197
 21
15486.3703509999995731
 31
0.0
  0
LINE
  5
1CEC
  8
2-0
  6
CONTINUOUS
 62
     3
 10
26262.9120299999995041
 20
15504.3780319999896165
 30
0.0
 11
26237.9146699999910197
 21
15504.3780319999896165
 31
0.0
  0
LINE
  5
1CED
  8
2-0
  6
CONTINUOUS
 62
     3
 10
26262.9120299999995041
 20
15499.3777680000093824
 30
0.0
 11
26262.9120299999995041
 21
15504.3780319999896165
 31
0.0
  0
LINE
  5
1CEE
  8
2-0
  6
CONTINUOUS
 62
     3
 10
26255.9104729999889969
 20
15499.3777680000093824
 30
0.0
 11
26262.9120299999995041
 21
15499.3777680000093824
 31
0.0
  0
LINE
  5
1CEF
  8
2-0
  6
CONTINUOUS
 62
     3
 10
26267.912294000001566
 20
16891.6185039999982109
 30
0.0
 11
26267.912294000001566
 21
16244.3265444999997271
 31
0.0
  0
LINE
  5
1CF0
  8
2-0
  6
CONTINUOUS
 62
     3
 10
26267.912294000001566
 20
17046.2288020000014512
 30
0.0
 11
26267.912294000001566
 21
16901.227087000010215
 31
0.0
  0
LINE
  5
1CF1
  8
2-0
  6
CONTINUOUS
 62
     3
 10
26180.0295870000009018
 20
17016.2291979999899922
 30
0.0
 11
26180.0295870000009018
 21
16931.2326299999986077
 31
0.0
  0
LINE
  5
1CF2
  8
2-0
  6
CONTINUOUS
 62
     6
 10
24641.8209199999910197
 20
18784.6764634999817645
 30
0.0
 11
25666.8532520000007935
 21
18784.6764634999817645
 31
0.0
  0
LINE
  5
1CF3
  8
2-0
  6
CONTINUOUS
 62
     3
 10
26255.9104729999889969
 20
14798.1367609999997512
 30
0.0
 11
26262.9120299999995041
 21
14798.1367609999997512
 31
0.0
  0
LINE
  5
1CF4
  8
2-0
  6
CONTINUOUS
 62
     3
 10
26262.9120299999995041
 20
14798.1367609999997512
 30
0.0
 11
26262.9120299999995041
 21
14803.1310869999997522
 31
0.0
  0
LINE
  5
1CF5
  8
2-0
  6
CONTINUOUS
 62
     3
 10
26262.9120299999995041
 20
14803.1310869999997522
 30
0.0
 11
26237.9146699999910197
 21
14803.1310869999997522
 31
0.0
  0
LINE
  5
1CF6
  8
2-0
  6
CONTINUOUS
 62
     3
 10
26237.9146699999910197
 20
14803.1310869999997522
 30
0.0
 11
26237.9146699999910197
 21
14785.1352829999996175
 31
0.0
  0
LINE
  5
1CF7
  8
2-0
  6
CONTINUOUS
 62
     3
 10
26237.9146699999910197
 20
14785.1352829999996175
 30
0.0
 11
26267.912294000001566
 21
14785.1352829999996175
 31
0.0
  0
LINE
  5
1CF8
  8
2-0
  6
CONTINUOUS
 62
     3
 10
26237.9146699999910197
 20
14801.2337180000104127
 30
0.0
 11
26237.9146699999910197
 21
14795.2308280000106606
 31
0.0
  0
LINE
  5
1CF9
  8
2-0
  6
CONTINUOUS
 62
     3
 10
26237.9146699999910197
 20
14795.2308280000106606
 30
0.0
 11
26267.912294000001566
 21
14795.2308280000106606
 31
0.0
  0
LINE
  5
1CFA
  8
2-0
  6
CONTINUOUS
 62
     3
 10
26267.912294000001566
 20
14795.2308280000106606
 30
0.0
 11
26267.912294000001566
 21
14832.2309999999906722
 31
0.0
  0
LINE
  5
1CFB
  8
2-0
  6
CONTINUOUS
 62
     3
 10
26237.9146699999910197
 20
14832.2309999999906722
 30
0.0
 11
26267.912294000001566
 21
14832.2309999999906722
 31
0.0
  0
LINE
  5
1CFC
  8
2-0
  6
CONTINUOUS
 62
     3
 10
26237.9146699999910197
 20
14826.2340479999893432
 30
0.0
 11
26237.9146699999910197
 21
14832.2309999999906722
 31
0.0
  0
LINE
  5
1CFD
  8
2-0
  6
CONTINUOUS
 62
     3
 10
26237.9146699999910197
 20
14842.331493000010596
 30
0.0
 11
26267.912294000001566
 21
14842.331493000010596
 31
0.0
  0
LINE
  5
1CFE
  8
2-0
  6
CONTINUOUS
 62
     3
 10
26237.9146699999910197
 20
14824.3248020000100951
 30
0.0
 11
26237.9146699999910197
 21
14842.331493000010596
 31
0.0
  0
LINE
  5
1CFF
  8
2-0
  6
CONTINUOUS
 62
     3
 10
26262.9120299999995041
 20
14824.3248020000100951
 30
0.0
 11
26237.9146699999910197
 21
14824.3248020000100951
 31
0.0
  0
LINE
  5
1D00
  8
2-0
  6
CONTINUOUS
 62
     3
 10
26262.9120299999995041
 20
14829.3300150000104622
 30
0.0
 11
26262.9120299999995041
 21
14824.3248020000100951
 31
0.0
  0
LINE
  5
1D01
  8
2-0
  6
CONTINUOUS
 62
     3
 10
26255.9104729999889969
 20
14829.3300150000104622
 30
0.0
 11
26262.9120299999995041
 21
14829.3300150000104622
 31
0.0
  0
LINE
  5
1D02
  8
2-0
  6
CONTINUOUS
 62
     3
 10
26237.9146699999910197
 20
14122.2328409999900032
 30
0.0
 11
26237.9146699999910197
 21
14128.2377099999994243
 31
0.0
  0
LINE
  5
1D03
  8
2-0
  6
CONTINUOUS
 62
     3
 10
26237.9146699999910197
 20
14128.2377099999994243
 30
0.0
 11
26267.912294000001566
 21
14128.2377099999994243
 31
0.0
  0
LINE
  5
1D04
  8
2-0
  6
CONTINUOUS
 62
     3
 10
26267.912294000001566
 20
14128.2377099999994243
 30
0.0
 11
26267.912294000001566
 21
14013.2336190000005445
 31
0.0
  0
LINE
  5
1D05
  8
2-0
  6
CONTINUOUS
 62
     3
 10
26267.912294000001566
 20
14013.2336190000005445
 30
0.0
 11
26182.9137459999983548
 21
14013.2336190000005445
 31
0.0
  0
LINE
  5
1D06
  8
2-0
  6
CONTINUOUS
 62
     3
 10
26182.9137459999983548
 20
14013.2336190000005445
 30
0.0
 11
26182.9137459999983548
 21
14098.2291980000009062
 31
0.0
  0
LINE
  5
1D07
  8
2-0
  6
CONTINUOUS
 62
     3
 10
26182.9137459999983548
 20
14098.2291980000009062
 30
0.0
 11
26214.912663999999495
 21
14098.2291980000009062
 31
0.0
  0
LINE
  5
1D08
  8
2-0
  6
CONTINUOUS
 62
     3
 10
26255.9104729999889969
 20
14125.2674430000006396
 30
0.0
 11
26262.9120299999995041
 21
14125.2674430000006396
 31
0.0
  0
LINE
  5
1D09
  8
2-0
  6
CONTINUOUS
 62
     3
 10
26262.9120299999995041
 20
14125.2674430000006396
 30
0.0
 11
26262.9120299999995041
 21
14120.2701479999705043
 31
0.0
  0
LINE
  5
1D0A
  8
2-0
  6
CONTINUOUS
 62
     3
 10
26262.9120299999995041
 20
14120.2701479999705043
 30
0.0
 11
26237.9146699999910197
 21
14120.2701479999705043
 31
0.0
  0
LINE
  5
1D0B
  8
2-0
  6
CONTINUOUS
 62
     3
 10
26237.9146699999910197
 20
14120.2701479999705043
 30
0.0
 11
26237.9146699999910197
 21
14138.2689210000007733
 31
0.0
  0
LINE
  5
1D0C
  8
2-0
  6
CONTINUOUS
 62
     3
 10
26237.9146699999910197
 20
14138.2689210000007733
 30
0.0
 11
26267.912294000001566
 21
14138.2689210000007733
 31
0.0
  0
LINE
  5
1D0D
  8
2-0
  6
CENTER2
 62
     6
 10
26225.4140100000004168
 20
13815.7360609999905137
 30
0.0
 11
26225.4140100000004168
 21
14971.604819000020143
 31
0.0
  0
LINE
  5
1D0E
  8
2-0
  6
CONTINUOUS
 62
     3
 10
26267.912294000001566
 20
18461.3260500000105822
 30
0.0
 11
26267.912294000001566
 21
19105.1367675000001327
 31
0.0
  0
LINE
  5
1D0F
  8
2-0
  6
CONTINUOUS
 62
     6
 10
26960.4171769999993558
 20
20664.2321020000308636
 30
0.0
 11
28160.4112389999791048
 21
20664.2321020000308636
 31
0.0
  0
LINE
  5
1D10
  8
2-0
  6
CONTINUOUS
 62
     3
 10
23029.4158580000112124
 20
19934.2291990000194346
 30
0.0
 11
23029.4158580000112124
 21
19904.2256360000101267
 31
0.0
  0
LINE
  5
1D11
  8
2-0
  6
CONTINUOUS
 62
     3
 10
23029.4158580000112124
 20
19904.2256360000101267
 30
0.0
 11
23023.4179159999912372
 21
19904.2256360000101267
 31
0.0
  0
LINE
  5
1D12
  8
2-0
  6
CONTINUOUS
 62
     3
 10
23039.0323590000007243
 20
19904.2256360000101267
 30
0.0
 11
23039.0323590000007243
 21
19934.2291990000194346
 31
0.0
  0
LINE
  5
1D13
  8
2-0
  6
CONTINUOUS
 62
     3
 10
23021.0306170000003476
 20
19904.2256360000101267
 30
0.0
 11
23039.0323590000007243
 21
19904.2256360000101267
 31
0.0
  0
LINE
  5
1D14
  8
2-0
  6
CONTINUOUS
 62
     3
 10
23021.0306170000003476
 20
19929.2348730000085197
 30
0.0
 11
23021.0306170000003476
 21
19904.2256360000101267
 31
0.0
  0
LINE
  5
1D15
  8
2-0
  6
CONTINUOUS
 62
     3
 10
23026.0308810000096855
 20
19929.2348730000085197
 30
0.0
 11
23021.0306170000003476
 21
19929.2348730000085197
 31
0.0
  0
LINE
  5
1D16
  8
2-0
  6
CONTINUOUS
 62
     3
 10
23026.0308810000096855
 20
19922.2293570000001637
 30
0.0
 11
23026.0308810000096855
 21
19929.2348730000085197
 31
0.0
  0
LINE
  5
1D17
  8
2-0
  6
CONTINUOUS
 62
     3
 10
22999.4142740000097547
 20
19931.3371220000008179
 30
0.0
 11
22999.4142740000097547
 21
19846.3385740000194346
 31
0.0
  0
LINE
  5
1D18
  8
2-0
  6
CONTINUOUS
 62
     3
 10
22979.4171769999993558
 20
19931.3371220000008179
 30
0.0
 11
22999.4142740000097547
 21
19931.3371220000008179
 31
0.0
  0
LINE
  5
1D19
  8
2-0
  6
CONTINUOUS
 62
     3
 10
22887.8030780000117375
 20
19922.2293570000001637
 30
0.0
 11
22887.8030780000117375
 21
19929.2348730000085197
 31
0.0
  0
LINE
  5
1D1A
  8
2-0
  6
CONTINUOUS
 62
     3
 10
22887.8030780000117375
 20
19929.2348730000085197
 30
0.0
 11
22892.8033419999883336
 21
19929.2348730000085197
 31
0.0
  0
LINE
  5
1D1B
  8
2-0
  6
CONTINUOUS
 62
     3
 10
22892.8033419999883336
 20
19929.2348730000085197
 30
0.0
 11
22892.8033419999883336
 21
19904.2256360000101267
 31
0.0
  0
LINE
  5
1D1C
  8
2-0
  6
CONTINUOUS
 62
     3
 10
22892.8033419999883336
 20
19904.2256360000101267
 30
0.0
 11
22874.8015999999915948
 21
19904.2256360000101267
 31
0.0
  0
LINE
  5
1D1D
  8
2-0
  6
CONTINUOUS
 62
     3
 10
22874.8015999999915948
 20
19904.2256360000101267
 30
0.0
 11
22874.8015999999915948
 21
19934.2291990000194346
 31
0.0
  0
LINE
  5
1D1E
  8
2-0
  6
CONTINUOUS
 62
     3
 10
22914.4216639999904146
 20
19931.3371220000008179
 30
0.0
 11
22934.4167810000108148
 21
19931.3371220000008179
 31
0.0
  0
LINE
  5
1D1F
  8
2-0
  6
CONTINUOUS
 62
     3
 10
22914.4216639999904146
 20
19846.3385740000194346
 30
0.0
 11
22914.4216639999904146
 21
19931.3371220000008179
 31
0.0
  0
LINE
  5
1D20
  8
2-0
  6
CONTINUOUS
 62
     3
 10
22884.4240400000016962
 20
19904.2256360000101267
 30
0.0
 11
22890.4200009999913163
 21
19904.2256360000101267
 31
0.0
  0
LINE
  5
1D21
  8
2-0
  6
CONTINUOUS
 62
     3
 10
22884.4240400000016962
 20
19934.2291990000194346
 30
0.0
 11
22884.4240400000016962
 21
19904.2256360000101267
 31
0.0
  0
LINE
  5
1D22
  8
2-0
  6
CONTINUOUS
 62
     3
 10
22999.4142740000097547
 20
19846.3385740000194346
 30
0.0
 11
22914.4216639999904146
 21
19846.3385740000194346
 31
0.0
  0
LINE
  5
1D23
  8
2-0
  6
CONTINUOUS
 62
     3
 10
23029.4158580000112124
 20
19934.2291990000194346
 30
0.0
 11
22884.4240400000016962
 21
19934.2291990000194346
 31
0.0
  0
LINE
  5
1D24
  8
2-0
  6
CONTINUOUS
 62
     6
 10
26098.3843439999909606
 20
19026.8309714999886637
 30
0.0
 11
25666.8532520000007935
 21
18784.6764634999817645
 31
0.0
  0
LINE
  5
1D25
  8
2-0
  6
CONTINUOUS
 62
     6
 10
26419.9531779999706487
 20
20076.9089390000190178
 30
0.0
 11
26960.4171769999993558
 21
20664.2321020000308636
 31
0.0
  0
LINE
  5
1D26
  8
2-0
  6
CONTINUOUS
 62
     6
 10
22999.4142740000097547
 20
14098.2291980000009062
 30
0.0
 11
23276.0044870000092487
 21
14553.5738979999896401
 31
0.0
  0
LINE
  5
1D27
  8
2-0
  6
CONTINUOUS
 62
     6
 10
23276.0044870000092487
 20
14553.5738979999896401
 30
0.0
 11
24306.3538059999991674
 21
14553.5738979999896401
 31
0.0
  0
LINE
  5
1D28
  8
2-0
  6
CONTINUOUS
 62
     3
 10
26176.9078870000012103
 20
18390.2296599999899627
 30
0.0
 11
26223.9135349999814935
 21
18390.2296599999899627
 31
0.0
  0
LINE
  5
1D29
  8
2-0
  6
CONTINUOUS
 62
     3
 10
26223.9135349999814935
 20
18475.2301880000013625
 30
0.0
 11
26176.9078870000012103
 21
18475.2301880000013625
 31
0.0
  0
LINE
  5
1D2A
  8
2-0
  6
CONTINUOUS
 62
     3
 10
26223.9135349999814935
 20
18390.2296599999899627
 30
0.0
 11
26223.9135349999814935
 21
18415.2329590000008466
 31
0.0
  0
LINE
  5
1D2B
  8
2-0
  6
CONTINUOUS
 62
     3
 10
26223.9135349999814935
 20
18450.2288679999910528
 30
0.0
 11
26223.9135349999814935
 21
18475.2301880000013625
 31
0.0
  0
LINE
  5
1D2C
  8
2-0
  6
CONTINUOUS
 62
     3
 10
26176.9078870000012103
 20
18475.2301880000013625
 30
0.0
 11
26176.9078870000012103
 21
18390.2296599999899627
 31
0.0
  0
LINE
  5
1D2D
  8
2-0
  6
CONTINUOUS
 62
     3
 10
26267.912294000001566
 20
16187.1303344999905676
 30
0.0
 11
26267.912294000001566
 21
15543.5665610000105517
 31
0.0
  0
LINE
  5
1D2E
  8
2-0
  6
CONTINUOUS
 62
     3
 10
26176.9078870000012103
 20
15472.2326300000095216
 30
0.0
 11
26223.9135349999814935
 21
15472.2326300000095216
 31
0.0
  0
LINE
  5
1D2F
  8
2-0
  6
CONTINUOUS
 62
     3
 10
26223.9135349999814935
 20
15557.2291979999899922
 30
0.0
 11
26176.9078870000012103
 21
15557.2291979999899922
 31
0.0
  0
LINE
  5
1D30
  8
2-0
  6
CONTINUOUS
 62
     3
 10
26223.9135349999814935
 20
15472.2326300000095216
 30
0.0
 11
26223.9135349999814935
 21
15497.2280110000101558
 31
0.0
  0
LINE
  5
1D31
  8
2-0
  6
CONTINUOUS
 62
     3
 10
26223.9135349999814935
 20
15532.2278790000000299
 30
0.0
 11
26223.9135349999814935
 21
15557.2291979999899922
 31
0.0
  0
LINE
  5
1D32
  8
2-0
  6
CONTINUOUS
 62
     3
 10
26176.9078870000012103
 20
15557.2291979999899922
 30
0.0
 11
26176.9078870000012103
 21
15472.2326300000095216
 31
0.0
  0
LINE
  5
1D33
  8
2-0
  6
CONTINUOUS
 62
     6
 10
23059.6925940000110131
 20
14248.8250329999900714
 30
0.0
 11
22999.4142740000097547
 21
14098.2291980000009062
 31
0.0
  0
LINE
  5
1D34
  8
2-0
  6
CONTINUOUS
 62
     6
 10
22999.4142740000097547
 20
14098.2291980000009062
 30
0.0
 11
23105.272988999979134
 21
14221.1375069999994594
 31
0.0
  0
LINE
  5
1D35
  8
2-0
  6
CONTINUOUS
 62
     6
 10
23059.6925940000110131
 20
14248.8250329999900714
 30
0.0
 11
23105.272988999979134
 21
14221.1375069999994594
 31
0.0
  0
LINE
  5
1D36
  8
2-0
  6
CONTINUOUS
 62
     6
 10
23105.272988999979134
 20
14221.1375069999994594
 30
0.0
 11
22999.4142740000097547
 21
14098.2291980000009062
 31
0.0
  0
LINE
  5
1D37
  8
2-0
  6
CONTINUOUS
 62
     6
 10
22999.4142740000097547
 20
14098.2291980000009062
 30
0.0
 11
23059.6925940000110131
 21
14248.8250329999900714
 31
0.0
  0
LINE
  5
1D38
  8
2-0
  6
CONTINUOUS
 62
     6
 10
23059.6925940000110131
 20
14248.8250329999900714
 30
0.0
 11
22999.4142740000097547
 21
14098.2291980000009062
 31
0.0
  0
LINE
  5
1D39
  8
2-0
  6
CONTINUOUS
 62
     6
 10
23105.272988999979134
 20
14221.1375069999994594
 30
0.0
 11
22999.4142740000097547
 21
14098.2291980000009062
 31
0.0
  0
LINE
  5
1D3A
  8
2-0
  6
CONTINUOUS
 62
     6
 10
23105.272988999979134
 20
14221.1375069999994594
 30
0.0
 11
23059.6925940000110131
 21
14248.8250329999900714
 31
0.0
  0
LINE
  5
1D3B
  8
2-0
  6
CONTINUOUS
 62
     6
 10
26085.3274389999896812
 20
19050.0903155000014522
 30
0.0
 11
26237.9146699999910197
 21
19105.1367675000001327
 31
0.0
  0
LINE
  5
1D3C
  8
2-0
  6
CONTINUOUS
 62
     6
 10
26237.9146699999910197
 20
19105.1367675000001327
 30
0.0
 11
26111.4333299999998417
 21
19003.5775674999895273
 31
0.0
  0
LINE
  5
1D3D
  8
2-0
  6
CONTINUOUS
 62
     6
 10
26085.3274389999896812
 20
19050.0903155000014522
 30
0.0
 11
26111.4333299999998417
 21
19003.5775674999895273
 31
0.0
  0
LINE
  5
1D3E
  8
2-0
  6
CONTINUOUS
 62
     6
 10
26111.4333299999998417
 20
19003.5775674999895273
 30
0.0
 11
26237.9146699999910197
 21
19105.1367675000001327
 31
0.0
  0
LINE
  5
1D3F
  8
2-0
  6
CONTINUOUS
 62
     6
 10
26237.9146699999910197
 20
19105.1367675000001327
 30
0.0
 11
26085.3274389999896812
 21
19050.0903155000014522
 31
0.0
  0
LINE
  5
1D40
  8
2-0
  6
CONTINUOUS
 62
     6
 10
26085.3274389999896812
 20
19050.0903155000014522
 30
0.0
 11
26237.9146699999910197
 21
19105.1367675000001327
 31
0.0
  0
LINE
  5
1D41
  8
2-0
  6
CONTINUOUS
 62
     6
 10
26111.4333299999998417
 20
19003.5775674999895273
 30
0.0
 11
26237.9146699999910197
 21
19105.1367675000001327
 31
0.0
  0
LINE
  5
1D42
  8
2-0
  6
CONTINUOUS
 62
     6
 10
26111.4333299999998417
 20
19003.5775674999895273
 30
0.0
 11
26085.3274389999896812
 21
19050.0903155000014522
 31
0.0
  0
LINE
  5
1D43
  8
2-0
  6
CONTINUOUS
 62
     6
 10
26439.5702070000006643
 20
20058.8478120000218041
 30
0.0
 11
26311.6081870000016352
 21
19959.1651940000083414
 31
0.0
  0
LINE
  5
1D44
  8
2-0
  6
CONTINUOUS
 62
     6
 10
26311.6081870000016352
 20
19959.1651940000083414
 30
0.0
 11
26400.3222920000007434
 21
20094.9621490000208723
 31
0.0
  0
LINE
  5
1D45
  8
2-0
  6
CONTINUOUS
 62
     6
 10
26439.5702070000006643
 20
20058.8478120000218041
 30
0.0
 11
26400.3222920000007434
 21
20094.9621490000208723
 31
0.0
  0
LINE
  5
1D46
  8
2-0
  6
CONTINUOUS
 62
     6
 10
26400.3222920000007434
 20
20094.9621490000208723
 30
0.0
 11
26311.6081870000016352
 21
19959.1651940000083414
 31
0.0
  0
LINE
  5
1D47
  8
2-0
  6
CONTINUOUS
 62
     6
 10
26311.6081870000016352
 20
19959.1651940000083414
 30
0.0
 11
26439.5702070000006643
 21
20058.8478120000218041
 31
0.0
  0
LINE
  5
1D48
  8
2-0
  6
CONTINUOUS
 62
     6
 10
26439.5702070000006643
 20
20058.8478120000218041
 30
0.0
 11
26311.6081870000016352
 21
19959.1651940000083414
 31
0.0
  0
LINE
  5
1D49
  8
2-0
  6
CONTINUOUS
 62
     6
 10
26400.3222920000007434
 20
20094.9621490000208723
 30
0.0
 11
26311.6081870000016352
 21
19959.1651940000083414
 31
0.0
  0
LINE
  5
1D4A
  8
2-0
  6
CONTINUOUS
 62
     6
 10
26400.3222920000007434
 20
20094.9621490000208723
 30
0.0
 11
26439.5702070000006643
 21
20058.8478120000218041
 31
0.0
  0
LINE
  5
1D4B
  8
2-0
  6
CONTINUOUS
 62
     6
 10
21580.8496889999914856
 20
19686.4568170000202372
 30
0.0
 11
21712.7826219999988098
 21
19217.1109820000092441
 31
0.0
  0
LINE
  5
1D4C
  8
2-0
  6
CONTINUOUS
 62
     6
 10
21712.7826219999988098
 20
19217.1109820000092441
 30
0.0
 11
22737.8208930000000692
 21
19217.1109820000092441
 31
0.0
  0
LINE
  5
1D4D
  8
2-0
  6
CONTINUOUS
 62
     6
 10
21537.5556380000089121
 20
19840.4851370000105817
 30
0.0
 11
21555.1773119999998016
 21
19679.2394920000187994
 31
0.0
  0
LINE
  5
1D4E
  8
2-0
  6
CONTINUOUS
 62
     6
 10
21606.522065000001021
 20
19693.6781010000195238
 30
0.0
 11
21555.1773119999998016
 21
19679.2394920000187994
 31
0.0
  0
LINE
  5
1D4F
  8
2-0
  6
CONTINUOUS
 62
     6
 10
21555.1773119999998016
 20
19679.2394920000187994
 30
0.0
 11
21537.5556380000089121
 21
19840.4851370000105817
 31
0.0
  0
LINE
  5
1D50
  8
2-0
  6
CONTINUOUS
 62
     6
 10
21537.5556380000089121
 20
19840.4851370000105817
 30
0.0
 11
21606.522065000001021
 21
19693.6781010000195238
 31
0.0
  0
LINE
  5
1D51
  8
2-0
  6
CONTINUOUS
 62
     6
 10
21606.522065000001021
 20
19693.6781010000195238
 30
0.0
 11
21537.5556380000089121
 21
19840.4851370000105817
 31
0.0
  0
LINE
  5
1D52
  8
2-0
  6
CONTINUOUS
 62
     6
 10
21555.1773119999998016
 20
19679.2394920000187994
 30
0.0
 11
21537.5556380000089121
 21
19840.4851370000105817
 31
0.0
  0
LINE
  5
1D53
  8
2-0
  6
CONTINUOUS
 62
     6
 10
21555.1773119999998016
 20
19679.2394920000187994
 30
0.0
 11
21606.522065000001021
 21
19693.6781010000195238
 31
0.0
  0
LINE
  5
1D54
  8
2-0
  6
CONTINUOUS
 62
     6
 10
22998.337415999998484
 20
19815.4778790000200388
 30
0.0
 11
23147.2071109999997134
 21
19285.8557030000083614
 31
0.0
  0
LINE
  5
1D55
  8
2-0
  6
CONTINUOUS
 62
     6
 10
23147.2071109999997134
 20
19285.8557030000083614
 30
0.0
 11
24172.2513199999884819
 21
19285.8557030000083614
 31
0.0
  0
LINE
  5
1D56
  8
2-0
  6
CONTINUOUS
 62
     6
 10
23015.9610699999902863
 20
19654.2322340000100667
 30
0.0
 11
23067.3117610000008426
 21
19668.6668840000202181
 31
0.0
  0
LINE
  5
1D57
  8
2-0
  6
CONTINUOUS
 62
     6
 10
23067.3117610000008426
 20
19668.6668840000202181
 30
0.0
 11
23015.9610699999902863
 21
19654.2322340000100667
 31
0.0
  0
LINE
  5
1D58
  8
2-0
  6
CONTINUOUS
 62
     6
 10
23015.9610699999902863
 20
19654.2322340000100667
 30
0.0
 11
22998.337415999998484
 21
19815.4778790000200388
 31
0.0
  0
LINE
  5
1D59
  8
2-0
  6
CONTINUOUS
 62
     6
 10
22998.337415999998484
 20
19815.4778790000200388
 30
0.0
 11
23067.3117610000008426
 21
19668.6668840000202181
 31
0.0
  0
LINE
  5
1D5A
  8
2-0
  6
CONTINUOUS
 62
     6
 10
23067.3117610000008426
 20
19668.6668840000202181
 30
0.0
 11
22998.337415999998484
 21
19815.4778790000200388
 31
0.0
  0
LINE
  5
1D5B
  8
2-0
  6
CONTINUOUS
 62
     6
 10
23015.9610699999902863
 20
19654.2322340000100667
 30
0.0
 11
22998.337415999998484
 21
19815.4778790000200388
 31
0.0
  0
LINE
  5
1D5C
  8
2-0
  6
CONTINUOUS
 62
     6
 10
23067.3117610000008426
 20
19668.6668840000202181
 30
0.0
 11
22998.337415999998484
 21
19815.4778790000200388
 31
0.0
  0
LINE
  5
1D5D
  8
2-0
  6
CONTINUOUS
 62
     6
 10
22998.337415999998484
 20
19815.4778790000200388
 30
0.0
 11
23015.9610699999902863
 21
19654.2322340000100667
 31
0.0
  0
LINE
  5
1D5E
  8
2-0
  6
CONTINUOUS
 62
     4
 10
22956.9140100000004168
 20
20014.2314420000184327
 30
0.0
 11
22956.9140100000004168
 21
20744.2284069999986968
 31
0.0
  0
LINE
  5
1D5F
  8
2-0
  6
CONTINUOUS
 62
     6
 10
26021.5889199999910488
 20
15425.7258200000105717
 30
0.0
 11
26176.9078870000012103
 21
15472.4731410000003962
 31
0.0
  0
LINE
  5
1D60
  8
2-0
  6
CONTINUOUS
 62
     6
 10
26176.9078870000012103
 20
15472.4731410000003962
 30
0.0
 11
26045.1471709999786981
 21
15377.8808559999997669
 31
0.0
  0
LINE
  5
1D61
  8
2-0
  6
CONTINUOUS
 62
     6
 10
26021.5889199999910488
 20
15425.7258200000105717
 30
0.0
 11
26045.1471709999786981
 21
15377.8808559999997669
 31
0.0
  0
LINE
  5
1D62
  8
2-0
  6
CONTINUOUS
 62
     6
 10
26045.1471709999786981
 20
15377.8808559999997669
 30
0.0
 11
26176.9078870000012103
 21
15472.4731410000003962
 31
0.0
  0
LINE
  5
1D63
  8
2-0
  6
CONTINUOUS
 62
     6
 10
26176.9078870000012103
 20
15472.4731410000003962
 30
0.0
 11
26021.5889199999910488
 21
15425.7258200000105717
 31
0.0
  0
LINE
  5
1D64
  8
2-0
  6
CONTINUOUS
 62
     6
 10
26021.5889199999910488
 20
15425.7258200000105717
 30
0.0
 11
26176.9078870000012103
 21
15472.4731410000003962
 31
0.0
  0
LINE
  5
1D65
  8
2-0
  6
CONTINUOUS
 62
     6
 10
26045.1471709999786981
 20
15377.8808559999997669
 30
0.0
 11
26176.9078870000012103
 21
15472.4731410000003962
 31
0.0
  0
LINE
  5
1D66
  8
2-0
  6
CONTINUOUS
 62
     6
 10
26045.1471709999786981
 20
15377.8808559999997669
 30
0.0
 11
26021.5889199999910488
 21
15425.7258200000105717
 31
0.0
  0
LINE
  5
1D67
  8
2-0
  6
CONTINUOUS
 62
     6
 10
25991.2745729999915056
 20
13904.9608809999899677
 30
0.0
 11
26123.0214319999904546
 21
13999.5878080000002228
 31
0.0
  0
LINE
  5
1D68
  8
2-0
  6
CONTINUOUS
 62
     6
 10
26123.0214319999904546
 20
13999.5878080000002228
 30
0.0
 11
26029.0912959999986924
 21
13867.3490379999802826
 31
0.0
  0
LINE
  5
1D69
  8
2-0
  6
CONTINUOUS
 62
     6
 10
25991.2745729999915056
 20
13904.9608809999899677
 30
0.0
 11
26029.0912959999986924
 21
13867.3490379999802826
 31
0.0
  0
LINE
  5
1D6A
  8
2-0
  6
CONTINUOUS
 62
     6
 10
26029.0912959999986924
 20
13867.3490379999802826
 30
0.0
 11
26123.0214319999904546
 21
13999.5878080000002228
 31
0.0
  0
LINE
  5
1D6B
  8
2-0
  6
CONTINUOUS
 62
     6
 10
26123.0214319999904546
 20
13999.5878080000002228
 30
0.0
 11
25991.2745729999915056
 21
13904.9608809999899677
 31
0.0
  0
LINE
  5
1D6C
  8
2-0
  6
CONTINUOUS
 62
     6
 10
25991.2745729999915056
 20
13904.9608809999899677
 30
0.0
 11
26123.0214319999904546
 21
13999.5878080000002228
 31
0.0
  0
LINE
  5
1D6D
  8
2-0
  6
CONTINUOUS
 62
     6
 10
26029.0912959999986924
 20
13867.3490379999802826
 30
0.0
 11
26123.0214319999904546
 21
13999.5878080000002228
 31
0.0
  0
LINE
  5
1D6E
  8
2-0
  6
CONTINUOUS
 62
     6
 10
26029.0912959999986924
 20
13867.3490379999802826
 30
0.0
 11
25991.2745729999915056
 21
13904.9608809999899677
 31
0.0
  0
LINE
  5
1D6F
  8
2-0
  6
CONTINUOUS
 62
     6
 10
26054.3103620000001683
 20
14231.865507999980764
 30
0.0
 11
26186.9103939999913564
 21
14138.437179999980799
 31
0.0
  0
LINE
  5
1D70
  8
2-0
  6
CONTINUOUS
 62
     6
 10
26186.9103939999913564
 20
14138.437179999980799
 30
0.0
 11
26031.1777079999883426
 21
14183.8126940000001923
 31
0.0
  0
LINE
  5
1D71
  8
2-0
  6
CONTINUOUS
 62
     6
 10
26054.3103620000001683
 20
14231.865507999980764
 30
0.0
 11
26031.1777079999883426
 21
14183.8126940000001923
 31
0.0
  0
LINE
  5
1D72
  8
2-0
  6
CONTINUOUS
 62
     6
 10
26031.1777079999883426
 20
14183.8126940000001923
 30
0.0
 11
26186.9103939999913564
 21
14138.437179999980799
 31
0.0
  0
LINE
  5
1D73
  8
2-0
  6
CONTINUOUS
 62
     6
 10
26186.9103939999913564
 20
14138.437179999980799
 30
0.0
 11
26054.3103620000001683
 21
14231.865507999980764
 31
0.0
  0
LINE
  5
1D74
  8
2-0
  6
CONTINUOUS
 62
     6
 10
26054.3103620000001683
 20
14231.865507999980764
 30
0.0
 11
26186.9103939999913564
 21
14138.437179999980799
 31
0.0
  0
LINE
  5
1D75
  8
2-0
  6
CONTINUOUS
 62
     6
 10
26031.1777079999883426
 20
14183.8126940000001923
 30
0.0
 11
26186.9103939999913564
 21
14138.437179999980799
 31
0.0
  0
LINE
  5
1D76
  8
2-0
  6
CONTINUOUS
 62
     6
 10
26031.1777079999883426
 20
14183.8126940000001923
 30
0.0
 11
26054.3103620000001683
 21
14231.865507999980764
 31
0.0
  0
LINE
  5
1D77
  8
2-0
  6
CONTINUOUS
 62
     6
 10
26114.0740079999995942
 20
16611.6864410000089265
 30
0.0
 11
26267.912294000001566
 21
16663.1202720000110276
 31
0.0
  0
LINE
  5
1D78
  8
2-0
  6
CONTINUOUS
 62
     6
 10
26267.912294000001566
 20
16663.1202720000110276
 30
0.0
 11
26139.0773069999813742
 21
16564.5798370000084105
 31
0.0
  0
LINE
  5
1D79
  8
2-0
  6
CONTINUOUS
 62
     6
 10
26114.0740079999995942
 20
16611.6864410000089265
 30
0.0
 11
26139.0773069999813742
 21
16564.5798370000084105
 31
0.0
  0
LINE
  5
1D7A
  8
2-0
  6
CONTINUOUS
 62
     6
 10
26139.0773069999813742
 20
16564.5798370000084105
 30
0.0
 11
26267.912294000001566
 21
16663.1202720000110276
 31
0.0
  0
LINE
  5
1D7B
  8
2-0
  6
CONTINUOUS
 62
     6
 10
26267.912294000001566
 20
16663.1202720000110276
 30
0.0
 11
26114.0740079999995942
 21
16611.6864410000089265
 31
0.0
  0
LINE
  5
1D7C
  8
2-0
  6
CONTINUOUS
 62
     6
 10
26114.0740079999995942
 20
16611.6864410000089265
 30
0.0
 11
26267.912294000001566
 21
16663.1202720000110276
 31
0.0
  0
LINE
  5
1D7D
  8
2-0
  6
CONTINUOUS
 62
     6
 10
26139.0773069999813742
 20
16564.5798370000084105
 30
0.0
 11
26267.912294000001566
 21
16663.1202720000110276
 31
0.0
  0
LINE
  5
1D7E
  8
2-0
  6
CONTINUOUS
 62
     6
 10
26139.0773069999813742
 20
16564.5798370000084105
 30
0.0
 11
26114.0740079999995942
 21
16611.6864410000089265
 31
0.0
  0
LINE
  5
1D7F
  8
2-0
  6
CONTINUOUS
 62
     6
 10
25980.1378010000007635
 20
17103.0049330000110785
 30
0.0
 11
26123.0214319999904546
 21
17026.2293040000113251
 31
0.0
  0
LINE
  5
1D80
  8
2-0
  6
CONTINUOUS
 62
     6
 10
26123.0214319999904546
 20
17026.2293040000113251
 30
0.0
 11
25962.9595389999885811
 21
17052.5113730000193755
 31
0.0
  0
LINE
  5
1D81
  8
2-0
  6
CONTINUOUS
 62
     6
 10
25980.1378010000007635
 20
17103.0049330000110785
 30
0.0
 11
25962.9595389999885811
 21
17052.5113730000193755
 31
0.0
  0
LINE
  5
1D82
  8
2-0
  6
CONTINUOUS
 62
     6
 10
25962.9595389999885811
 20
17052.5113730000193755
 30
0.0
 11
26123.0214319999904546
 21
17026.2293040000113251
 31
0.0
  0
LINE
  5
1D83
  8
2-0
  6
CONTINUOUS
 62
     6
 10
26123.0214319999904546
 20
17026.2293040000113251
 30
0.0
 11
25980.1378010000007635
 21
17103.0049330000110785
 31
0.0
  0
LINE
  5
1D84
  8
2-0
  6
CONTINUOUS
 62
     6
 10
25980.1378010000007635
 20
17103.0049330000110785
 30
0.0
 11
26123.0214319999904546
 21
17026.2293040000113251
 31
0.0
  0
LINE
  5
1D85
  8
2-0
  6
CONTINUOUS
 62
     6
 10
25962.9595389999885811
 20
17052.5113730000193755
 30
0.0
 11
26123.0214319999904546
 21
17026.2293040000113251
 31
0.0
  0
LINE
  5
1D86
  8
2-0
  6
CONTINUOUS
 62
     6
 10
25962.9595389999885811
 20
17052.5113730000193755
 30
0.0
 11
25980.1378010000007635
 21
17103.0049330000110785
 31
0.0
  0
LINE
  5
1D87
  8
2-0
  6
CONTINUOUS
 62
     6
 10
26021.5889199999910488
 20
18343.4853079999993497
 30
0.0
 11
26176.9078870000012103
 21
18390.2296599999899627
 31
0.0
  0
LINE
  5
1D88
  8
2-0
  6
CONTINUOUS
 62
     6
 10
26176.9078870000012103
 20
18390.2296599999899627
 30
0.0
 11
26045.1471709999786981
 21
18295.6344060000083118
 31
0.0
  0
LINE
  5
1D89
  8
2-0
  6
CONTINUOUS
 62
     6
 10
26021.5889199999910488
 20
18343.4853079999993497
 30
0.0
 11
26045.1471709999786981
 21
18295.6344060000083118
 31
0.0
  0
LINE
  5
1D8A
  8
2-0
  6
CONTINUOUS
 62
     6
 10
26045.1471709999786981
 20
18295.6344060000083118
 30
0.0
 11
26176.9078870000012103
 21
18390.2296599999899627
 31
0.0
  0
LINE
  5
1D8B
  8
2-0
  6
CONTINUOUS
 62
     6
 10
26176.9078870000012103
 20
18390.2296599999899627
 30
0.0
 11
26021.5889199999910488
 21
18343.4853079999993497
 31
0.0
  0
LINE
  5
1D8C
  8
2-0
  6
CONTINUOUS
 62
     6
 10
26021.5889199999910488
 20
18343.4853079999993497
 30
0.0
 11
26176.9078870000012103
 21
18390.2296599999899627
 31
0.0
  0
LINE
  5
1D8D
  8
2-0
  6
CONTINUOUS
 62
     6
 10
26045.1471709999786981
 20
18295.6344060000083118
 30
0.0
 11
26176.9078870000012103
 21
18390.2296599999899627
 31
0.0
  0
LINE
  5
1D8E
  8
2-0
  6
CONTINUOUS
 62
     6
 10
26045.1471709999786981
 20
18295.6344060000083118
 30
0.0
 11
26021.5889199999910488
 21
18343.4853079999993497
 31
0.0
  0
LINE
  5
1D8F
  8
2-0
  6
CONTINUOUS
 62
     3
 10
22217.4145909999897412
 20
19934.2291990000194346
 30
0.0
 11
22180.4134290000001783
 21
19934.2291990000194346
 31
0.0
  0
LINE
  5
1D90
  8
2-0
  6
CONTINUOUS
 62
     3
 10
22217.4145909999897412
 20
19904.2256360000101267
 30
0.0
 11
22217.4145909999897412
 21
19934.2291990000194346
 31
0.0
  0
LINE
  5
1D91
  8
2-0
  6
CONTINUOUS
 62
     3
 10
22211.4146699999801058
 20
19904.2256360000101267
 30
0.0
 11
22217.4145909999897412
 21
19904.2256360000101267
 31
0.0
  0
LINE
  5
1D92
  8
2-0
  6
CONTINUOUS
 62
     3
 10
22227.5121150000013586
 20
19904.2256360000101267
 30
0.0
 11
22227.5121150000013586
 21
19934.2291990000194346
 31
0.0
  0
LINE
  5
1D93
  8
2-0
  6
CONTINUOUS
 62
     3
 10
22209.5083939999894938
 20
19904.2256360000101267
 30
0.0
 11
22227.5121150000013586
 21
19904.2256360000101267
 31
0.0
  0
LINE
  5
1D94
  8
2-0
  6
CONTINUOUS
 62
     3
 10
22209.5083939999894938
 20
19929.2348730000085197
 30
0.0
 11
22209.5083939999894938
 21
19904.2256360000101267
 31
0.0
  0
LINE
  5
1D95
  8
2-0
  6
CONTINUOUS
 62
     3
 10
22214.5086579999988317
 20
19929.2348730000085197
 30
0.0
 11
22209.5083939999894938
 21
19929.2348730000085197
 31
0.0
  0
LINE
  5
1D96
  8
2-0
  6
CONTINUOUS
 62
     3
 10
22214.5086579999988317
 20
19922.2293570000001637
 30
0.0
 11
22214.5086579999988317
 21
19929.2348730000085197
 31
0.0
  0
LINE
  5
1D97
  8
2-0
  6
CONTINUOUS
 62
     3
 10
22183.3193629999914265
 20
19922.2293570000001637
 30
0.0
 11
22183.3193629999914265
 21
19929.2348730000085197
 31
0.0
  0
LINE
  5
1D98
  8
2-0
  6
CONTINUOUS
 62
     3
 10
22183.3193629999914265
 20
19929.2348730000085197
 30
0.0
 11
22188.3196270000007644
 21
19929.2348730000085197
 31
0.0
  0
LINE
  5
1D99
  8
2-0
  6
CONTINUOUS
 62
     3
 10
22188.3196270000007644
 20
19929.2348730000085197
 30
0.0
 11
22188.3196270000007644
 21
19904.2256360000101267
 31
0.0
  0
LINE
  5
1D9A
  8
2-0
  6
CONTINUOUS
 62
     3
 10
22188.3196270000007644
 20
19904.2256360000101267
 30
0.0
 11
22170.3198639999900479
 21
19904.2256360000101267
 31
0.0
  0
LINE
  5
1D9B
  8
2-0
  6
CONTINUOUS
 62
     3
 10
22170.3198639999900479
 20
19904.2256360000101267
 30
0.0
 11
22170.3198639999900479
 21
19934.2291990000194346
 31
0.0
  0
LINE
  5
1D9C
  8
2-0
  6
CONTINUOUS
 62
     3
 10
22186.4133499999988999
 20
19904.2256360000101267
 30
0.0
 11
22180.4134290000001783
 21
19904.2256360000101267
 31
0.0
  0
LINE
  5
1D9D
  8
2-0
  6
CONTINUOUS
 62
     3
 10
22180.4134290000001783
 20
19904.2256360000101267
 30
0.0
 11
22180.4134290000001783
 21
19934.2291990000194346
 31
0.0
  0
LINE
  5
1D9E
  8
2-0
  6
CONTINUOUS
 62
     3
 10
19675.9153299999998126
 20
19825.2289879999989353
 30
0.0
 11
19675.9153299999998126
 21
19819.2330260000198905
 31
0.0
  0
LINE
  5
1D9F
  8
2-0
  6
CONTINUOUS
 62
     3
 10
19675.9153299999998126
 20
19819.2330260000198905
 30
0.0
 11
19645.9177049999998417
 21
19819.2330260000198905
 31
0.0
  0
LINE
  5
1DA0
  8
2-0
  6
CONTINUOUS
 62
     3
 10
19645.9177049999998417
 20
19819.2330260000198905
 30
0.0
 11
19645.9177049999998417
 21
19934.2291990000194346
 31
0.0
  0
LINE
  5
1DA1
  8
2-0
  6
CONTINUOUS
 62
     3
 10
19645.9177049999998417
 20
19849.2326300000095216
 30
0.0
 11
19726.9156460000012885
 21
19849.2326300000095216
 31
0.0
  0
LINE
  5
1DA2
  8
2-0
  6
CONTINUOUS
 62
     3
 10
19675.9153299999998126
 20
19808.9355700000014622
 30
0.0
 11
19645.9177049999998417
 21
19808.9355700000014622
 31
0.0
  0
LINE
  5
1DA3
  8
2-0
  6
CONTINUOUS
 62
     3
 10
19675.9153299999998126
 20
19826.9373120000200288
 30
0.0
 11
19675.9153299999998126
 21
19808.9355700000014622
 31
0.0
  0
LINE
  5
1DA4
  8
2-0
  6
CONTINUOUS
 62
     3
 10
19650.9219279999997525
 20
19826.9373120000200288
 30
0.0
 11
19675.9153299999998126
 21
19826.9373120000200288
 31
0.0
  0
LINE
  5
1DA5
  8
2-0
  6
CONTINUOUS
 62
     3
 10
19650.9219279999997525
 20
19821.9291300000186311
 30
0.0
 11
19650.9219279999997525
 21
19826.9373120000200288
 31
0.0
  0
LINE
  5
1DA6
  8
2-0
  6
CONTINUOUS
 62
     3
 10
19657.919525999979669
 20
19821.9291300000186311
 30
0.0
 11
19650.9219279999997525
 21
19821.9291300000186311
 31
0.0
  0
LINE
  5
1DA7
  8
2-0
  6
CONTINUOUS
 62
     3
 10
19758.2138149999882444
 20
19922.2293570000001637
 30
0.0
 11
19758.2138149999882444
 21
19929.2348730000085197
 31
0.0
  0
LINE
  5
1DA8
  8
2-0
  6
CONTINUOUS
 62
     3
 10
19758.2138149999882444
 20
19929.2348730000085197
 30
0.0
 11
19753.2115709999889077
 21
19929.2348730000085197
 31
0.0
  0
LINE
  5
1DA9
  8
2-0
  6
CONTINUOUS
 62
     3
 10
19753.2115709999889077
 20
19929.2348730000085197
 30
0.0
 11
19753.2115709999889077
 21
19904.2256360000101267
 31
0.0
  0
LINE
  5
1DAA
  8
2-0
  6
CONTINUOUS
 62
     3
 10
19753.2115709999889077
 20
19904.2256360000101267
 30
0.0
 11
19771.219251999991684
 21
19904.2256360000101267
 31
0.0
  0
LINE
  5
1DAB
  8
2-0
  6
CONTINUOUS
 62
     3
 10
19771.219251999991684
 20
19904.2256360000101267
 30
0.0
 11
19771.219251999991684
 21
19934.2291990000194346
 31
0.0
  0
LINE
  5
1DAC
  8
2-0
  6
CONTINUOUS
 62
     3
 10
19760.9198160000014468
 20
19934.2291990000194346
 30
0.0
 11
19645.9177049999998417
 21
19934.2291990000194346
 31
0.0
  0
LINE
  5
1DAD
  8
2-0
  6
CONTINUOUS
 62
     3
 10
19760.9198160000014468
 20
19904.2256360000101267
 30
0.0
 11
19760.9198160000014468
 21
19934.2291990000194346
 31
0.0
  0
LINE
  5
1DAE
  8
2-0
  6
CONTINUOUS
 62
     3
 10
19754.915937000001577
 20
19904.2256360000101267
 30
0.0
 11
19760.9198160000014468
 21
19904.2256360000101267
 31
0.0
  0
LINE
  5
1DAF
  8
2-0
  6
CONTINUOUS
 62
     3
 10
20812.5037085000003572
 20
19922.2293570000001637
 30
0.0
 11
20812.5037085000003572
 21
19929.2348730000085197
 31
0.0
  0
LINE
  5
1DB0
  8
2-0
  6
CONTINUOUS
 62
     3
 10
20812.5037085000003572
 20
19929.2348730000085197
 30
0.0
 11
20807.5034444999910193
 21
19929.2348730000085197
 31
0.0
  0
LINE
  5
1DB1
  8
2-0
  6
CONTINUOUS
 62
     3
 10
20807.5034444999910193
 20
19929.2348730000085197
 30
0.0
 11
20807.5034444999910193
 21
19904.2256360000101267
 31
0.0
  0
LINE
  5
1DB2
  8
2-0
  6
CONTINUOUS
 62
     3
 10
20807.5034444999910193
 20
19904.2256360000101267
 30
0.0
 11
20825.5091455000001588
 21
19904.2256360000101267
 31
0.0
  0
LINE
  5
1DB3
  8
2-0
  6
CONTINUOUS
 62
     3
 10
20825.5091455000001588
 20
19904.2256360000101267
 30
0.0
 11
20825.5091455000001588
 21
19934.2291990000194346
 31
0.0
  0
LINE
  5
1DB4
  8
2-0
  6
CONTINUOUS
 62
     3
 10
20809.4117005000007339
 20
19904.2256360000101267
 30
0.0
 11
20815.4136005000109435
 21
19904.2256360000101267
 31
0.0
  0
LINE
  5
1DB5
  8
2-0
  6
CONTINUOUS
 62
     3
 10
20815.4136005000109435
 20
19904.2256360000101267
 30
0.0
 11
20815.4136005000109435
 21
19934.2291990000194346
 31
0.0
  0
LINE
  5
1DB6
  8
2-0
  6
CONTINUOUS
 62
     3
 10
20778.41441949998989
 20
19934.2291990000194346
 30
0.0
 11
20815.4136005000109435
 21
19934.2291990000194346
 31
0.0
  0
LINE
  5
1DB7
  8
2-0
  6
CONTINUOUS
 62
     3
 10
20778.41441949998989
 20
19904.2256360000101267
 30
0.0
 11
20778.41441949998989
 21
19934.2291990000194346
 31
0.0
  0
LINE
  5
1DB8
  8
2-0
  6
CONTINUOUS
 62
     3
 10
20784.40840149998985
 20
19904.2256360000101267
 30
0.0
 11
20778.41441949998989
 21
19904.2256360000101267
 31
0.0
  0
LINE
  5
1DB9
  8
2-0
  6
CONTINUOUS
 62
     3
 10
20768.3188745000006747
 20
19904.2256360000101267
 30
0.0
 11
20768.3188745000006747
 21
19934.2291990000194346
 31
0.0
  0
LINE
  5
1DBA
  8
2-0
  6
CONTINUOUS
 62
     3
 10
20786.3146774999986519
 20
19904.2256360000101267
 30
0.0
 11
20768.3188745000006747
 21
19904.2256360000101267
 31
0.0
  0
LINE
  5
1DBB
  8
2-0
  6
CONTINUOUS
 62
     3
 10
20786.3146774999986519
 20
19929.2348730000085197
 30
0.0
 11
20786.3146774999986519
 21
19904.2256360000101267
 31
0.0
  0
LINE
  5
1DBC
  8
2-0
  6
CONTINUOUS
 62
     3
 10
20781.3144135000002279
 20
19929.2348730000085197
 30
0.0
 11
20786.3146774999986519
 21
19929.2348730000085197
 31
0.0
  0
LINE
  5
1DBD
  8
2-0
  6
CONTINUOUS
 62
     3
 10
20781.3144135000002279
 20
19922.2293570000001637
 30
0.0
 11
20781.3144135000002279
 21
19929.2348730000085197
 31
0.0
  0
LINE
  5
1DBE
  8
2-0
  6
CONTINUOUS
 62
     3
 10
21482.3134244999891962
 20
19922.2293570000001637
 30
0.0
 11
21482.3134244999891962
 21
19929.2348730000085197
 31
0.0
  0
LINE
  5
1DBF
  8
2-0
  6
CONTINUOUS
 62
     3
 10
21482.3134244999891962
 20
19929.2348730000085197
 30
0.0
 11
21487.3136874999981956
 21
19929.2348730000085197
 31
0.0
  0
LINE
  5
1DC0
  8
2-0
  6
CONTINUOUS
 62
     3
 10
21487.3136874999981956
 20
19929.2348730000085197
 30
0.0
 11
21487.3136874999981956
 21
19904.2256360000101267
 31
0.0
  0
LINE
  5
1DC1
  8
2-0
  6
CONTINUOUS
 62
     3
 10
21487.3136874999981956
 20
19904.2256360000101267
 30
0.0
 11
21469.3198644999793032
 21
19904.2256360000101267
 31
0.0
  0
LINE
  5
1DC2
  8
2-0
  6
CONTINUOUS
 62
     3
 10
21469.3198644999793032
 20
19904.2256360000101267
 30
0.0
 11
21469.3198644999793032
 21
19934.2291990000194346
 31
0.0
  0
LINE
  5
1DC3
  8
2-0
  6
CONTINUOUS
 62
     3
 10
21485.4113704999908805
 20
19904.2256360000101267
 30
0.0
 11
21479.4134295000003476
 21
19904.2256360000101267
 31
0.0
  0
LINE
  5
1DC4
  8
2-0
  6
CONTINUOUS
 62
     3
 10
21479.4134295000003476
 20
19904.2256360000101267
 30
0.0
 11
21479.4134295000003476
 21
19934.2291990000194346
 31
0.0
  0
LINE
  5
1DC5
  8
2-0
  6
CONTINUOUS
 62
     3
 10
21516.4145905000004859
 20
19934.2291990000194346
 30
0.0
 11
21479.4134295000003476
 21
19934.2291990000194346
 31
0.0
  0
LINE
  5
1DC6
  8
2-0
  6
CONTINUOUS
 62
     3
 10
21516.4145905000004859
 20
19904.2256360000101267
 30
0.0
 11
21516.4145905000004859
 21
19934.2291990000194346
 31
0.0
  0
LINE
  5
1DC7
  8
2-0
  6
CONTINUOUS
 62
     3
 10
21510.4087314999887894
 20
19904.2256360000101267
 30
0.0
 11
21516.4145905000004859
 21
19904.2256360000101267
 31
0.0
  0
LINE
  5
1DC8
  8
2-0
  6
CONTINUOUS
 62
     3
 10
21526.5081554999887885
 20
19904.2256360000101267
 30
0.0
 11
21526.5081554999887885
 21
19934.2291990000194346
 31
0.0
  0
LINE
  5
1DC9
  8
2-0
  6
CONTINUOUS
 62
     3
 10
21508.5123524999908113
 20
19904.2256360000101267
 30
0.0
 11
21526.5081554999887885
 21
19904.2256360000101267
 31
0.0
  0
LINE
  5
1DCA
  8
2-0
  6
CONTINUOUS
 62
     3
 10
21508.5123524999908113
 20
19929.2348730000085197
 30
0.0
 11
21508.5123524999908113
 21
19904.2256360000101267
 31
0.0
  0
LINE
  5
1DCB
  8
2-0
  6
CONTINUOUS
 62
     3
 10
21513.5027184999999008
 20
19929.2348730000085197
 30
0.0
 11
21508.5123524999908113
 21
19929.2348730000085197
 31
0.0
  0
LINE
  5
1DCC
  8
2-0
  6
CONTINUOUS
 62
     3
 10
21513.5027184999999008
 20
19922.2293570000001637
 30
0.0
 11
21513.5027184999999008
 21
19929.2348730000085197
 31
0.0
  0
LINE
  5
1DCD
  8
2-0
  6
CONTINUOUS
 62
     3
 10
20825.5091455000001588
 20
19934.2291990000194346
 30
0.0
 11
21469.3198644999793032
 21
19934.2291990000194346
 31
0.0
  0
LINE
  5
1DCE
  8
2-0
  6
CONTINUOUS
 62
     3
 10
20124.7130360000010114
 20
19934.2291990000194346
 30
0.0
 11
20768.3188745000006747
 21
19934.2291990000194346
 31
0.0
  0
LINE
  5
1DCF
  8
2-0
  6
CONTINUOUS
 62
     3
 10
22170.3198639999900479
 20
19934.2291990000194346
 30
0.0
 11
21526.5081554999887885
 21
19934.2291990000194346
 31
0.0
  0
LINE
  5
1DD0
  8
2-0
  6
CONTINUOUS
 62
     3
 10
19675.9153299999998126
 20
19825.2289879999989353
 30
0.0
 11
19675.9153299999998126
 21
19819.2330260000198905
 31
0.0
  0
LINE
  5
1DD1
  8
2-0
  6
CONTINUOUS
 62
     3
 10
19675.9153299999998126
 20
19819.2330260000198905
 30
0.0
 11
19645.9177049999998417
 21
19819.2330260000198905
 31
0.0
  0
LINE
  5
1DD2
  8
2-0
  6
CONTINUOUS
 62
     3
 10
19645.9177049999998417
 20
19819.2330260000198905
 30
0.0
 11
19645.9177049999998417
 21
19934.2291990000194346
 31
0.0
  0
LINE
  5
1DD3
  8
2-0
  6
CONTINUOUS
 62
     3
 10
19645.9177049999998417
 20
19849.2326300000095216
 30
0.0
 11
19726.9156460000012885
 21
19849.2326300000095216
 31
0.0
  0
LINE
  5
1DD4
  8
2-0
  6
CONTINUOUS
 62
     3
 10
19675.9153299999998126
 20
19808.9355700000014622
 30
0.0
 11
19645.9177049999998417
 21
19808.9355700000014622
 31
0.0
  0
LINE
  5
1DD5
  8
2-0
  6
CONTINUOUS
 62
     3
 10
19675.9153299999998126
 20
19826.9373120000200288
 30
0.0
 11
19675.9153299999998126
 21
19808.9355700000014622
 31
0.0
  0
LINE
  5
1DD6
  8
2-0
  6
CONTINUOUS
 62
     3
 10
19650.9219279999997525
 20
19826.9373120000200288
 30
0.0
 11
19675.9153299999998126
 21
19826.9373120000200288
 31
0.0
  0
LINE
  5
1DD7
  8
2-0
  6
CONTINUOUS
 62
     3
 10
19650.9219279999997525
 20
19821.9291300000186311
 30
0.0
 11
19650.9219279999997525
 21
19826.9373120000200288
 31
0.0
  0
LINE
  5
1DD8
  8
2-0
  6
CONTINUOUS
 62
     3
 10
19657.919525999979669
 20
19821.9291300000186311
 30
0.0
 11
19650.9219279999997525
 21
19821.9291300000186311
 31
0.0
  0
LINE
  5
1DD9
  8
2-0
  6
CONTINUOUS
 62
     3
 10
19657.919525999979669
 20
19118.1323074999891105
 30
0.0
 11
19650.9219279999997525
 21
19118.1323074999891105
 31
0.0
  0
LINE
  5
1DDA
  8
2-0
  6
CONTINUOUS
 62
     3
 10
19650.9219279999997525
 20
19118.1323074999891105
 30
0.0
 11
19650.9219279999997525
 21
19123.1325714999984484
 31
0.0
  0
LINE
  5
1DDB
  8
2-0
  6
CONTINUOUS
 62
     3
 10
19650.9219279999997525
 20
19123.1325714999984484
 30
0.0
 11
19675.9153299999998126
 21
19123.1325714999984484
 31
0.0
  0
LINE
  5
1DDC
  8
2-0
  6
CONTINUOUS
 62
     3
 10
19675.9153299999998126
 20
19123.1325714999984484
 30
0.0
 11
19675.9153299999998126
 21
19105.1367674999892188
 31
0.0
  0
LINE
  5
1DDD
  8
2-0
  6
CONTINUOUS
 62
     3
 10
19675.9153299999998126
 20
19105.1367674999892188
 30
0.0
 11
19645.9177049999998417
 21
19105.1367674999892188
 31
0.0
  0
LINE
  5
1DDE
  8
2-0
  6
CONTINUOUS
 62
     3
 10
19675.9153299999998126
 20
19121.2282744999793067
 30
0.0
 11
19675.9153299999998126
 21
19115.2303334999887738
 31
0.0
  0
LINE
  5
1DDF
  8
2-0
  6
CONTINUOUS
 62
     3
 10
19675.9153299999998126
 20
19115.2303334999887738
 30
0.0
 11
19645.9177049999998417
 21
19115.2303334999887738
 31
0.0
  0
LINE
  5
1DE0
  8
2-0
  6
CONTINUOUS
 62
     3
 10
19645.9177049999998417
 20
19115.2303334999887738
 30
0.0
 11
19645.9177049999998417
 21
19152.2314944999998261
 31
0.0
  0
LINE
  5
1DE1
  8
2-0
  6
CONTINUOUS
 62
     3
 10
19675.9153299999998126
 20
19152.2314944999998261
 30
0.0
 11
19645.9177049999998417
 21
19152.2314944999998261
 31
0.0
  0
LINE
  5
1DE2
  8
2-0
  6
CONTINUOUS
 62
     3
 10
19675.9153299999998126
 20
19146.2276144999814278
 30
0.0
 11
19675.9153299999998126
 21
19152.2314944999998261
 31
0.0
  0
LINE
  5
1DE3
  8
2-0
  6
CONTINUOUS
 62
     3
 10
19675.9153299999998126
 20
19162.3270394999817654
 30
0.0
 11
19645.9177049999998417
 21
19162.3270394999817654
 31
0.0
  0
LINE
  5
1DE4
  8
2-0
  6
CONTINUOUS
 62
     3
 10
19675.9153299999998126
 20
19144.3252974999995786
 30
0.0
 11
19675.9153299999998126
 21
19162.3270394999817654
 31
0.0
  0
LINE
  5
1DE5
  8
2-0
  6
CONTINUOUS
 62
     3
 10
19650.9219279999997525
 20
19144.3252974999995786
 30
0.0
 11
19675.9153299999998126
 21
19144.3252974999995786
 31
0.0
  0
LINE
  5
1DE6
  8
2-0
  6
CONTINUOUS
 62
     3
 10
19650.9219279999997525
 20
19149.3255615000016405
 30
0.0
 11
19650.9219279999997525
 21
19144.3252974999995786
 31
0.0
  0
LINE
  5
1DE7
  8
2-0
  6
CONTINUOUS
 62
     3
 10
19657.919525999979669
 20
19149.3255615000016405
 30
0.0
 11
19650.9219279999997525
 21
19149.3255615000016405
 31
0.0
  0
LINE
  5
1DE8
  8
2-0
  6
CONTINUOUS
 62
     3
 10
19657.919525999979669
 20
18417.1313179999888234
 30
0.0
 11
19650.9219279999997525
 21
18417.1313179999888234
 31
0.0
  0
LINE
  5
1DE9
  8
2-0
  6
CONTINUOUS
 62
     3
 10
19650.9219279999997525
 20
18417.1313179999888234
 30
0.0
 11
19650.9219279999997525
 21
18422.1375200000002224
 31
0.0
  0
LINE
  5
1DEA
  8
2-0
  6
CONTINUOUS
 62
     3
 10
19650.9219279999997525
 20
18422.1375200000002224
 30
0.0
 11
19675.9153299999998126
 21
18422.1375200000002224
 31
0.0
  0
LINE
  5
1DEB
  8
2-0
  6
CONTINUOUS
 62
     3
 10
19675.9153299999998126
 20
18422.1375200000002224
 30
0.0
 11
19675.9153299999998126
 21
18404.1357780000107596
 31
0.0
  0
LINE
  5
1DEC
  8
2-0
  6
CONTINUOUS
 62
     3
 10
19675.9153299999998126
 20
18404.1357780000107596
 30
0.0
 11
19645.9177049999998417
 21
18404.1357780000107596
 31
0.0
  0
LINE
  5
1DED
  8
2-0
  6
CONTINUOUS
 62
     3
 10
19675.9153299999998126
 20
18420.2272849999899336
 30
0.0
 11
19675.9153299999998126
 21
18414.2313229999890609
 31
0.0
  0
LINE
  5
1DEE
  8
2-0
  6
CONTINUOUS
 62
     3
 10
19675.9153299999998126
 20
18414.2313229999890609
 30
0.0
 11
19645.9177049999998417
 21
18414.2313229999890609
 31
0.0
  0
LINE
  5
1DEF
  8
2-0
  6
CONTINUOUS
 62
     3
 10
19645.9177049999998417
 20
18414.2313229999890609
 30
0.0
 11
19645.9177049999998417
 21
18451.2305049999886251
 31
0.0
  0
LINE
  5
1DF0
  8
2-0
  6
CONTINUOUS
 62
     3
 10
19675.9153299999998126
 20
18451.2305049999886251
 30
0.0
 11
19645.9177049999998417
 21
18451.2305049999886251
 31
0.0
  0
LINE
  5
1DF1
  8
2-0
  6
CONTINUOUS
 62
     3
 10
19675.9153299999998126
 20
18445.2345430000095803
 30
0.0
 11
19675.9153299999998126
 21
18451.2305049999886251
 31
0.0
  0
LINE
  5
1DF2
  8
2-0
  6
CONTINUOUS
 62
     3
 10
19675.9153299999998126
 20
18461.3260500000105822
 30
0.0
 11
19645.9177049999998417
 21
18461.3260500000105822
 31
0.0
  0
LINE
  5
1DF3
  8
2-0
  6
CONTINUOUS
 62
     3
 10
19675.9153299999998126
 20
18443.3243079999992915
 30
0.0
 11
19675.9153299999998126
 21
18461.3260500000105822
 31
0.0
  0
LINE
  5
1DF4
  8
2-0
  6
CONTINUOUS
 62
     3
 10
19650.9219279999997525
 20
18443.3243079999992915
 30
0.0
 11
19675.9153299999998126
 21
18443.3243079999992915
 31
0.0
  0
LINE
  5
1DF5
  8
2-0
  6
CONTINUOUS
 62
     3
 10
19650.9219279999997525
 20
18448.3305099999888625
 30
0.0
 11
19650.9219279999997525
 21
18443.3243079999992915
 31
0.0
  0
LINE
  5
1DF6
  8
2-0
  6
CONTINUOUS
 62
     3
 10
19657.919525999979669
 20
18448.3305099999888625
 30
0.0
 11
19650.9219279999997525
 21
18448.3305099999888625
 31
0.0
  0
LINE
  5
1DF7
  8
2-0
  6
CONTINUOUS
 62
     3
 10
19657.919525999979669
 20
17747.3245720000013534
 30
0.0
 11
19650.9219279999997525
 21
17747.3245720000013534
 31
0.0
  0
LINE
  5
1DF8
  8
2-0
  6
CONTINUOUS
 62
     3
 10
19650.9219279999997525
 20
17747.3245720000013534
 30
0.0
 11
19650.9219279999997525
 21
17742.3361850000001141
 31
0.0
  0
LINE
  5
1DF9
  8
2-0
  6
CONTINUOUS
 62
     3
 10
19650.9219279999997525
 20
17742.3361850000001141
 30
0.0
 11
19675.9153299999998126
 21
17742.3361850000001141
 31
0.0
  0
LINE
  5
1DFA
  8
2-0
  6
CONTINUOUS
 62
     3
 10
19675.9153299999998126
 20
17742.3361850000001141
 30
0.0
 11
19675.9153299999998126
 21
17760.3319879999908153
 31
0.0
  0
LINE
  5
1DFB
  8
2-0
  6
CONTINUOUS
 62
     3
 10
19675.9153299999998126
 20
17760.3319879999908153
 30
0.0
 11
19645.9177049999998417
 21
17760.3319879999908153
 31
0.0
  0
LINE
  5
1DFC
  8
2-0
  6
CONTINUOUS
 62
     3
 10
19675.9153299999998126
 20
17744.2345429999986663
 30
0.0
 11
19675.9153299999998126
 21
17750.2305049999813491
 31
0.0
  0
LINE
  5
1DFD
  8
2-0
  6
CONTINUOUS
 62
     3
 10
19675.9153299999998126
 20
17750.2305049999813491
 30
0.0
 11
19645.9177049999998417
 21
17750.2305049999813491
 31
0.0
  0
LINE
  5
1DFE
  8
2-0
  6
CONTINUOUS
 62
     3
 10
19645.9177049999998417
 20
17750.2305049999813491
 30
0.0
 11
19645.9177049999998417
 21
17713.2313229999999749
 31
0.0
  0
LINE
  5
1DFF
  8
2-0
  6
CONTINUOUS
 62
     3
 10
19675.9153299999998126
 20
17713.2313229999999749
 30
0.0
 11
19645.9177049999998417
 21
17713.2313229999999749
 31
0.0
  0
LINE
  5
1E00
  8
2-0
  6
CONTINUOUS
 62
     3
 10
19675.9153299999998126
 20
17719.2332239999886951
 30
0.0
 11
19675.9153299999998126
 21
17713.2313229999999749
 31
0.0
  0
LINE
  5
1E01
  8
2-0
  6
CONTINUOUS
 62
     3
 10
19675.9153299999998126
 20
17703.1417169999913312
 30
0.0
 11
19645.9177049999998417
 21
17703.1417169999913312
 31
0.0
  0
LINE
  5
1E02
  8
2-0
  6
CONTINUOUS
 62
     3
 10
19675.9153299999998126
 20
17721.1375200000002224
 30
0.0
 11
19675.9153299999998126
 21
17703.1417169999913312
 31
0.0
  0
LINE
  5
1E03
  8
2-0
  6
CONTINUOUS
 62
     3
 10
19650.9219279999997525
 20
17721.1375200000002224
 30
0.0
 11
19675.9153299999998126
 21
17721.1375200000002224
 31
0.0
  0
LINE
  5
1E04
  8
2-0
  6
CONTINUOUS
 62
     3
 10
19650.9219279999997525
 20
17716.137256999991223
 30
0.0
 11
19650.9219279999997525
 21
17721.1375200000002224
 31
0.0
  0
LINE
  5
1E05
  8
2-0
  6
CONTINUOUS
 62
     3
 10
19657.919525999979669
 20
17716.137256999991223
 30
0.0
 11
19650.9219279999997525
 21
17716.137256999991223
 31
0.0
  0
LINE
  5
1E06
  8
2-0
  6
CONTINUOUS
 62
     3
 10
19648.8038430000015069
 20
16996.2281430000002729
 30
0.0
 11
19648.8038430000015069
 21
17016.2291979999899922
 31
0.0
  0
LINE
  5
1E07
  8
2-0
  6
CONTINUOUS
 62
     3
 10
19648.8038430000015069
 20
17016.2291979999899922
 30
0.0
 11
19733.8043709999983548
 21
17016.2291979999899922
 31
0.0
  0
LINE
  5
1E08
  8
2-0
  6
CONTINUOUS
 62
     3
 10
19657.919525999979669
 20
17042.8359080000009271
 30
0.0
 11
19650.9219279999997525
 21
17042.8359080000009271
 31
0.0
  0
LINE
  5
1E09
  8
2-0
  6
CONTINUOUS
 62
     3
 10
19650.9219279999997525
 20
17042.8359080000009271
 30
0.0
 11
19650.9219279999997525
 21
17037.8415820000009262
 31
0.0
  0
LINE
  5
1E0A
  8
2-0
  6
CONTINUOUS
 62
     3
 10
19650.9219279999997525
 20
17037.8415820000009262
 30
0.0
 11
19675.9153299999998126
 21
17037.8415820000009262
 31
0.0
  0
LINE
  5
1E0B
  8
2-0
  6
CONTINUOUS
 62
     3
 10
19675.9153299999998126
 20
17037.8415820000009262
 30
0.0
 11
19675.9153299999998126
 21
17055.8373860000101558
 31
0.0
  0
LINE
  5
1E0C
  8
2-0
  6
CONTINUOUS
 62
     3
 10
19675.9153299999998126
 20
17055.8373860000101558
 30
0.0
 11
19645.9177049999998417
 21
17055.8373860000101558
 31
0.0
  0
LINE
  5
1E0D
  8
2-0
  6
CONTINUOUS
 62
     3
 10
19675.9153299999998126
 20
17046.2288020000014512
 30
0.0
 11
19675.9153299999998126
 21
17040.2269019999985176
 31
0.0
  0
LINE
  5
1E0E
  8
2-0
  6
CONTINUOUS
 62
     3
 10
19645.9177049999998417
 20
17046.2288020000014512
 30
0.0
 11
19675.9153299999998126
 21
17046.2288020000014512
 31
0.0
  0
LINE
  5
1E0F
  8
2-0
  6
CONTINUOUS
 62
     3
 10
19645.9177049999998417
 20
17055.8373860000101558
 30
0.0
 11
19645.9177049999998417
 21
17703.1417169999913312
 31
0.0
  0
LINE
  5
1E10
  8
2-0
  6
CONTINUOUS
 62
     3
 10
19645.9177049999998417
 20
17760.3319879999908153
 30
0.0
 11
19645.9177049999998417
 21
18404.1357780000107596
 31
0.0
  0
LINE
  5
1E11
  8
2-0
  6
CONTINUOUS
 62
     3
 10
19645.9177049999998417
 20
16901.227087000010215
 30
0.0
 11
19675.9153299999998126
 21
16901.227087000010215
 31
0.0
  0
LINE
  5
1E12
  8
2-0
  6
CONTINUOUS
 62
     3
 10
19675.9153299999998126
 20
16901.227087000010215
 30
0.0
 11
19675.9153299999998126
 21
16907.2289870000095107
 31
0.0
  0
LINE
  5
1E13
  8
2-0
  6
CONTINUOUS
 62
     3
 10
19733.8043709999983548
 20
16931.2326299999986077
 30
0.0
 11
19648.8038430000015069
 21
16931.2326299999986077
 31
0.0
  0
LINE
  5
1E14
  8
2-0
  6
CONTINUOUS
 62
     3
 10
19648.8038430000015069
 20
16931.2326299999986077
 30
0.0
 11
19648.8038430000015069
 21
16951.2277470000008179
 31
0.0
  0
LINE
  5
1E15
  8
2-0
  6
CONTINUOUS
 62
     3
 10
19675.9153299999998126
 20
16891.6185039999982109
 30
0.0
 11
19645.9177049999998417
 21
16891.6185039999982109
 31
0.0
  0
LINE
  5
1E16
  8
2-0
  6
CONTINUOUS
 62
     3
 10
19675.9153299999998126
 20
16909.6143069999816362
 30
0.0
 11
19675.9153299999998126
 21
16891.6185039999982109
 31
0.0
  0
LINE
  5
1E17
  8
2-0
  6
CONTINUOUS
 62
     3
 10
19650.9219279999997525
 20
16909.6143069999816362
 30
0.0
 11
19675.9153299999998126
 21
16909.6143069999816362
 31
0.0
  0
LINE
  5
1E18
  8
2-0
  6
CONTINUOUS
 62
     3
 10
19650.9219279999997525
 20
16904.6140430000086781
 30
0.0
 11
19650.9219279999997525
 21
16909.6143069999816362
 31
0.0
  0
LINE
  5
1E19
  8
2-0
  6
CONTINUOUS
 62
     3
 10
19657.919525999979669
 20
16904.6140430000086781
 30
0.0
 11
19650.9219279999997525
 21
16904.6140430000086781
 31
0.0
  0
LINE
  5
1E1A
  8
2-0
  6
CONTINUOUS
 62
     3
 10
19657.919525999979669
 20
16200.1318124999907013
 30
0.0
 11
19650.9219279999997525
 21
16200.1318124999907013
 31
0.0
  0
LINE
  5
1E1B
  8
2-0
  6
CONTINUOUS
 62
     3
 10
19650.9219279999997525
 20
16200.1318124999907013
 30
0.0
 11
19650.9219279999997525
 21
16205.1320764999891253
 31
0.0
  0
LINE
  5
1E1C
  8
2-0
  6
CONTINUOUS
 62
     3
 10
19650.9219279999997525
 20
16205.1320764999891253
 30
0.0
 11
19675.9153299999998126
 21
16205.1320764999891253
 31
0.0
  0
LINE
  5
1E1D
  8
2-0
  6
CONTINUOUS
 62
     3
 10
19675.9153299999998126
 20
16205.1320764999891253
 30
0.0
 11
19675.9153299999998126
 21
16187.1303344999905676
 31
0.0
  0
LINE
  5
1E1E
  8
2-0
  6
CONTINUOUS
 62
     3
 10
19675.9153299999998126
 20
16187.1303344999905676
 30
0.0
 11
19645.9177049999998417
 21
16187.1303344999905676
 31
0.0
  0
LINE
  5
1E1F
  8
2-0
  6
CONTINUOUS
 62
     3
 10
19675.9153299999998126
 20
16203.2277795000009064
 30
0.0
 11
19675.9153299999998126
 21
16197.2308284999999159
 31
0.0
  0
LINE
  5
1E20
  8
2-0
  6
CONTINUOUS
 62
     3
 10
19675.9153299999998126
 20
16197.2308284999999159
 30
0.0
 11
19645.9177049999998417
 21
16197.2308284999999159
 31
0.0
  0
LINE
  5
1E21
  8
2-0
  6
CONTINUOUS
 62
     3
 10
19645.9177049999998417
 20
16197.2308284999999159
 30
0.0
 11
19645.9177049999998417
 21
16234.2309994999995979
 31
0.0
  0
LINE
  5
1E22
  8
2-0
  6
CONTINUOUS
 62
     3
 10
19675.9153299999998126
 20
16234.2309994999995979
 30
0.0
 11
19645.9177049999998417
 21
16234.2309994999995979
 31
0.0
  0
LINE
  5
1E23
  8
2-0
  6
CONTINUOUS
 62
     3
 10
19675.9153299999998126
 20
16228.2281094999907509
 30
0.0
 11
19675.9153299999998126
 21
16234.2309994999995979
 31
0.0
  0
LINE
  5
1E24
  8
2-0
  6
CONTINUOUS
 62
     3
 10
19675.9153299999998126
 20
16244.3265444999997271
 30
0.0
 11
19645.9177049999998417
 21
16244.3265444999997271
 31
0.0
  0
LINE
  5
1E25
  8
2-0
  6
CONTINUOUS
 62
     3
 10
19675.9153299999998126
 20
16226.3188634999896749
 30
0.0
 11
19675.9153299999998126
 21
16244.3265444999997271
 31
0.0
  0
LINE
  5
1E26
  8
2-0
  6
CONTINUOUS
 62
     3
 10
19650.9219279999997525
 20
16226.3188634999896749
 30
0.0
 11
19675.9153299999998126
 21
16226.3188634999896749
 31
0.0
  0
LINE
  5
1E27
  8
2-0
  6
CONTINUOUS
 62
     3
 10
19650.9219279999997525
 20
16231.3250664999995934
 30
0.0
 11
19650.9219279999997525
 21
16226.3188634999896749
 31
0.0
  0
LINE
  5
1E28
  8
2-0
  6
CONTINUOUS
 62
     3
 10
19657.919525999979669
 20
16231.3250664999995934
 30
0.0
 11
19650.9219279999997525
 21
16231.3250664999995934
 31
0.0
  0
LINE
  5
1E29
  8
2-0
  6
CONTINUOUS
 62
     3
 10
19657.919525999979669
 20
15530.565082999999504
 30
0.0
 11
19650.9219279999997525
 21
15530.565082999999504
 31
0.0
  0
LINE
  5
1E2A
  8
2-0
  6
CONTINUOUS
 62
     3
 10
19650.9219279999997525
 20
15530.565082999999504
 30
0.0
 11
19650.9219279999997525
 21
15525.5707579999998416
 31
0.0
  0
LINE
  5
1E2B
  8
2-0
  6
CONTINUOUS
 62
     3
 10
19650.9219279999997525
 20
15525.5707579999998416
 30
0.0
 11
19675.9153299999998126
 21
15525.5707579999998416
 31
0.0
  0
LINE
  5
1E2C
  8
2-0
  6
CONTINUOUS
 62
     3
 10
19675.9153299999998126
 20
15525.5707579999998416
 30
0.0
 11
19675.9153299999998126
 21
15543.5665610000105517
 31
0.0
  0
LINE
  5
1E2D
  8
2-0
  6
CONTINUOUS
 62
     3
 10
19675.9153299999998126
 20
15543.5665610000105517
 30
0.0
 11
19645.9177049999998417
 21
15543.5665610000105517
 31
0.0
  0
LINE
  5
1E2E
  8
2-0
  6
CONTINUOUS
 62
     3
 10
19675.9153299999998126
 20
15527.4691160000002128
 30
0.0
 11
19675.9153299999998126
 21
15533.4710160000104224
 31
0.0
  0
LINE
  5
1E2F
  8
2-0
  6
CONTINUOUS
 62
     3
 10
19675.9153299999998126
 20
15533.4710160000104224
 30
0.0
 11
19645.9177049999998417
 21
15533.4710160000104224
 31
0.0
  0
LINE
  5
1E30
  8
2-0
  6
CONTINUOUS
 62
     3
 10
19645.9177049999998417
 20
15496.4718350000093778
 30
0.0
 11
19645.9177049999998417
 21
15533.4710160000104224
 31
0.0
  0
LINE
  5
1E31
  8
2-0
  6
CONTINUOUS
 62
     3
 10
19675.9153299999998126
 20
15496.4718350000093778
 30
0.0
 11
19645.9177049999998417
 21
15496.4718350000093778
 31
0.0
  0
LINE
  5
1E32
  8
2-0
  6
CONTINUOUS
 62
     3
 10
19675.9153299999998126
 20
15502.4687859999994544
 30
0.0
 11
19675.9153299999998126
 21
15496.4718350000093778
 31
0.0
  0
LINE
  5
1E33
  8
2-0
  6
CONTINUOUS
 62
     3
 10
19675.9153299999998126
 20
15486.3703509999995731
 30
0.0
 11
19645.9177049999998417
 21
15486.3703509999995731
 31
0.0
  0
LINE
  5
1E34
  8
2-0
  6
CONTINUOUS
 62
     3
 10
19675.9153299999998126
 20
15504.3780319999896165
 30
0.0
 11
19675.9153299999998126
 21
15486.3703509999995731
 31
0.0
  0
LINE
  5
1E35
  8
2-0
  6
CONTINUOUS
 62
     3
 10
19650.9219279999997525
 20
15504.3780319999896165
 30
0.0
 11
19675.9153299999998126
 21
15504.3780319999896165
 31
0.0
  0
LINE
  5
1E36
  8
2-0
  6
CONTINUOUS
 62
     3
 10
19650.9219279999997525
 20
15499.3777680000093824
 30
0.0
 11
19650.9219279999997525
 21
15504.3780319999896165
 31
0.0
  0
LINE
  5
1E37
  8
2-0
  6
CONTINUOUS
 62
     3
 10
19657.919525999979669
 20
15499.3777680000093824
 30
0.0
 11
19650.9219279999997525
 21
15499.3777680000093824
 31
0.0
  0
LINE
  5
1E38
  8
2-0
  6
CONTINUOUS
 62
     3
 10
19645.9177049999998417
 20
16891.6185039999982109
 30
0.0
 11
19645.9177049999998417
 21
16244.3265444999997271
 31
0.0
  0
LINE
  5
1E39
  8
2-0
  6
CONTINUOUS
 62
     3
 10
19645.9177049999998417
 20
17046.2288020000014512
 30
0.0
 11
19645.9177049999998417
 21
16901.227087000010215
 31
0.0
  0
LINE
  5
1E3A
  8
2-0
  6
CONTINUOUS
 62
     3
 10
19733.8043709999983548
 20
17016.2291979999899922
 30
0.0
 11
19733.8043709999983548
 21
16931.2326299999986077
 31
0.0
  0
LINE
  5
1E3B
  8
2-0
  6
CONTINUOUS
 62
     3
 10
19657.919525999979669
 20
14798.1367609999997512
 30
0.0
 11
19650.9219279999997525
 21
14798.1367609999997512
 31
0.0
  0
LINE
  5
1E3C
  8
2-0
  6
CONTINUOUS
 62
     3
 10
19650.9219279999997525
 20
14798.1367609999997512
 30
0.0
 11
19650.9219279999997525
 21
14803.1310870000106661
 31
0.0
  0
LINE
  5
1E3D
  8
2-0
  6
CONTINUOUS
 62
     3
 10
19650.9219279999997525
 20
14803.1310870000106661
 30
0.0
 11
19675.9153299999998126
 21
14803.1310870000106661
 31
0.0
  0
LINE
  5
1E3E
  8
2-0
  6
CONTINUOUS
 62
     3
 10
19675.9153299999998126
 20
14803.1310870000106661
 30
0.0
 11
19675.9153299999998126
 21
14785.1352830000105314
 31
0.0
  0
LINE
  5
1E3F
  8
2-0
  6
CONTINUOUS
 62
     3
 10
19675.9153299999998126
 20
14785.1352830000105314
 30
0.0
 11
19645.9177049999998417
 21
14785.1352830000105314
 31
0.0
  0
LINE
  5
1E40
  8
2-0
  6
CONTINUOUS
 62
     3
 10
19675.9153299999998126
 20
14801.2337180000104127
 30
0.0
 11
19675.9153299999998126
 21
14795.2308280000106606
 31
0.0
  0
LINE
  5
1E41
  8
2-0
  6
CONTINUOUS
 62
     3
 10
19675.9153299999998126
 20
14795.2308280000106606
 30
0.0
 11
19645.9177049999998417
 21
14795.2308280000106606
 31
0.0
  0
LINE
  5
1E42
  8
2-0
  6
CONTINUOUS
 62
     3
 10
19645.9177049999998417
 20
14795.2308280000106606
 30
0.0
 11
19645.9177049999998417
 21
14832.2309999999997672
 31
0.0
  0
LINE
  5
1E43
  8
2-0
  6
CONTINUOUS
 62
     3
 10
19675.9153299999998126
 20
14832.2309999999997672
 30
0.0
 11
19645.9177049999998417
 21
14832.2309999999997672
 31
0.0
  0
LINE
  5
1E44
  8
2-0
  6
CONTINUOUS
 62
     3
 10
19675.9153299999998126
 20
14826.2340479999893432
 30
0.0
 11
19675.9153299999998126
 21
14832.2309999999997672
 31
0.0
  0
LINE
  5
1E45
  8
2-0
  6
CONTINUOUS
 62
     3
 10
19675.9153299999998126
 20
14842.331493000010596
 30
0.0
 11
19645.9177049999998417
 21
14842.331493000010596
 31
0.0
  0
LINE
  5
1E46
  8
2-0
  6
CONTINUOUS
 62
     3
 10
19675.9153299999998126
 20
14824.3248020000100951
 30
0.0
 11
19675.9153299999998126
 21
14842.331493000010596
 31
0.0
  0
LINE
  5
1E47
  8
2-0
  6
CONTINUOUS
 62
     3
 10
19650.9219279999997525
 20
14824.3248020000100951
 30
0.0
 11
19675.9153299999998126
 21
14824.3248020000100951
 31
0.0
  0
LINE
  5
1E48
  8
2-0
  6
CONTINUOUS
 62
     3
 10
19650.9219279999997525
 20
14829.3300150000104622
 30
0.0
 11
19650.9219279999997525
 21
14824.3248020000100951
 31
0.0
  0
LINE
  5
1E49
  8
2-0
  6
CONTINUOUS
 62
     3
 10
19657.919525999979669
 20
14829.3300150000104622
 30
0.0
 11
19650.9219279999997525
 21
14829.3300150000104622
 31
0.0
  0
LINE
  5
1E4A
  8
2-0
  6
CONTINUOUS
 62
     3
 10
19675.9153299999998126
 20
14122.2328409999900032
 30
0.0
 11
19675.9153299999998126
 21
14128.2377099999994243
 31
0.0
  0
LINE
  5
1E4B
  8
2-0
  6
CONTINUOUS
 62
     3
 10
19675.9153299999998126
 20
14128.2377099999994243
 30
0.0
 11
19645.9177049999998417
 21
14128.2377099999994243
 31
0.0
  0
LINE
  5
1E4C
  8
2-0
  6
CONTINUOUS
 62
     3
 10
19645.9177049999998417
 20
14128.2377099999994243
 30
0.0
 11
19645.9177049999998417
 21
14013.2336190000005445
 31
0.0
  0
LINE
  5
1E4D
  8
2-0
  6
CONTINUOUS
 62
     3
 10
19645.9177049999998417
 20
14013.2336190000005445
 30
0.0
 11
19730.9162529999994149
 21
14013.2336190000005445
 31
0.0
  0
LINE
  5
1E4E
  8
2-0
  6
CONTINUOUS
 62
     3
 10
19730.9162529999994149
 20
14013.2336190000005445
 30
0.0
 11
19730.9162529999994149
 21
14098.2291980000009062
 31
0.0
  0
LINE
  5
1E4F
  8
2-0
  6
CONTINUOUS
 62
     3
 10
19730.9162529999994149
 20
14098.2291980000009062
 30
0.0
 11
19698.9193149999882735
 21
14098.2291980000009062
 31
0.0
  0
LINE
  5
1E50
  8
2-0
  6
CONTINUOUS
 62
     3
 10
19657.919525999979669
 20
14125.2674430000006396
 30
0.0
 11
19650.9219279999997525
 21
14125.2674430000006396
 31
0.0
  0
LINE
  5
1E51
  8
2-0
  6
CONTINUOUS
 62
     3
 10
19650.9219279999997525
 20
14125.2674430000006396
 30
0.0
 11
19650.9219279999997525
 21
14120.2701479999705043
 31
0.0
  0
LINE
  5
1E52
  8
2-0
  6
CONTINUOUS
 62
     3
 10
19650.9219279999997525
 20
14120.2701479999705043
 30
0.0
 11
19675.9153299999998126
 21
14120.2701479999705043
 31
0.0
  0
LINE
  5
1E53
  8
2-0
  6
CONTINUOUS
 62
     3
 10
19675.9153299999998126
 20
14120.2701479999705043
 30
0.0
 11
19675.9153299999998126
 21
14138.2689210000007733
 31
0.0
  0
LINE
  5
1E54
  8
2-0
  6
CONTINUOUS
 62
     3
 10
19675.9153299999998126
 20
14138.2689210000007733
 30
0.0
 11
19645.9177049999998417
 21
14138.2689210000007733
 31
0.0
  0
LINE
  5
1E55
  8
2-0
  6
CONTINUOUS
 62
     3
 10
19645.9177049999998417
 20
14842.331493000010596
 30
0.0
 11
19645.9177049999998417
 21
15486.3703509999995731
 31
0.0
  0
LINE
  5
1E56
  8
2-0
  6
CONTINUOUS
 62
     3
 10
19645.9177049999998417
 20
18461.3260500000105822
 30
0.0
 11
19645.9177049999998417
 21
19105.1367674999892188
 31
0.0
  0
LINE
  5
1E57
  8
2-0
  6
CONTINUOUS
 62
     3
 10
19736.9201329999887093
 20
18390.2296599999899627
 30
0.0
 11
19689.9164639999908104
 21
18390.2296599999899627
 31
0.0
  0
LINE
  5
1E58
  8
2-0
  6
CONTINUOUS
 62
     3
 10
19689.9164639999908104
 20
18475.2301879999904486
 30
0.0
 11
19736.9201329999887093
 21
18475.2301879999904486
 31
0.0
  0
LINE
  5
1E59
  8
2-0
  6
CONTINUOUS
 62
     3
 10
19689.9164639999908104
 20
18390.2296599999899627
 30
0.0
 11
19689.9164639999908104
 21
18415.2329590000008466
 31
0.0
  0
LINE
  5
1E5A
  8
2-0
  6
CONTINUOUS
 62
     3
 10
19689.9164639999908104
 20
18450.2288679999910528
 30
0.0
 11
19689.9164639999908104
 21
18475.2301879999904486
 31
0.0
  0
LINE
  5
1E5B
  8
2-0
  6
CONTINUOUS
 62
     3
 10
19736.9201329999887093
 20
18475.2301879999904486
 30
0.0
 11
19736.9201329999887093
 21
18390.2296599999899627
 31
0.0
  0
LINE
  5
1E5C
  8
2-0
  6
CONTINUOUS
 62
     3
 10
19645.9177049999998417
 20
16187.1303344999905676
 30
0.0
 11
19645.9177049999998417
 21
15543.5665610000105517
 31
0.0
  0
LINE
  5
1E5D
  8
2-0
  6
CONTINUOUS
 62
     3
 10
19736.9201329999887093
 20
15472.2326300000004267
 30
0.0
 11
19689.9164639999908104
 21
15472.2326300000004267
 31
0.0
  0
LINE
  5
1E5E
  8
2-0
  6
CONTINUOUS
 62
     3
 10
19689.9164639999908104
 20
15557.2291979999899922
 30
0.0
 11
19736.9201329999887093
 21
15557.2291979999899922
 31
0.0
  0
LINE
  5
1E5F
  8
2-0
  6
CONTINUOUS
 62
     3
 10
19689.9164639999908104
 20
15472.2326300000004267
 30
0.0
 11
19689.9164639999908104
 21
15497.2280110000101558
 31
0.0
  0
LINE
  5
1E60
  8
2-0
  6
CONTINUOUS
 62
     3
 10
19689.9164639999908104
 20
15532.2278790000000299
 30
0.0
 11
19689.9164639999908104
 21
15557.2291979999899922
 31
0.0
  0
LINE
  5
1E61
  8
2-0
  6
CONTINUOUS
 62
     3
 10
19736.9201329999887093
 20
15557.2291979999899922
 30
0.0
 11
19736.9201329999887093
 21
15472.2326300000004267
 31
0.0
  0
LINE
  5
1E62
  8
2-0
  6
CONTINUOUS
 62
     3
 10
26267.912294000001566
 20
19819.2330260000198905
 30
0.0
 11
26267.912294000001566
 21
19934.2291990000194346
 31
0.0
  0
LINE
  5
1E63
  8
2-0
  6
CENTER2
 62
     6
 10
18358.95943299999999
 20
19891.7309139999997569
 30
0.0
 11
27117.9136139999900479
 21
19891.7309139999997569
 31
0.0
  0
LINE
  5
1E64
  8
2-0
  6
CENTER2
 62
     6
 10
18358.95943299999999
 20
16973.7309139999997569
 30
0.0
 11
27117.9136139999900479
 21
16973.7309139999997569
 31
0.0
  0
LINE
  5
1E65
  8
2-0
  6
CENTER2
 62
     6
 10
18358.95943299999999
 20
14055.730913999990662
 30
0.0
 11
27117.9136139999900479
 21
14055.730913999990662
 31
0.0
  0
LINE
  5
1E66
  8
2-0
  6
CONTINUOUS
 62
     3
 10
20111.5056880000083765
 20
19922.2293570000001637
 30
0.0
 11
20111.5056880000083765
 21
19929.2348730000085197
 31
0.0
  0
LINE
  5
1E67
  8
2-0
  6
CONTINUOUS
 62
     3
 10
20111.5056880000083765
 20
19929.2348730000085197
 30
0.0
 11
20106.5054239999990386
 21
19929.2348730000085197
 31
0.0
  0
LINE
  5
1E68
  8
2-0
  6
CONTINUOUS
 62
     3
 10
20106.5054239999990386
 20
19929.2348730000085197
 30
0.0
 11
20106.5054239999990386
 21
19904.2256360000101267
 31
0.0
  0
LINE
  5
1E69
  8
2-0
  6
CONTINUOUS
 62
     3
 10
20106.5054239999990386
 20
19904.2256360000101267
 30
0.0
 11
20124.5071659999994154
 21
19904.2256360000101267
 31
0.0
  0
LINE
  5
1E6A
  8
2-0
  6
CONTINUOUS
 62
     3
 10
20124.5071659999994154
 20
19904.2256360000101267
 30
0.0
 11
20124.5071659999994154
 21
19934.2291990000194346
 31
0.0
  0
LINE
  5
1E6B
  8
2-0
  6
CONTINUOUS
 62
     3
 10
20108.4077409999990778
 20
19904.2256360000101267
 30
0.0
 11
20114.4116209999992861
 21
19904.2256360000101267
 31
0.0
  0
LINE
  5
1E6C
  8
2-0
  6
CONTINUOUS
 62
     3
 10
20114.4116209999992861
 20
19904.2256360000101267
 30
0.0
 11
20114.4116209999992861
 21
19934.2291990000194346
 31
0.0
  0
LINE
  5
1E6D
  8
2-0
  6
CONTINUOUS
 62
     3
 10
20077.4163989999797195
 20
19934.2291990000194346
 30
0.0
 11
20114.4116209999992861
 21
19934.2291990000194346
 31
0.0
  0
LINE
  5
1E6E
  8
2-0
  6
CONTINUOUS
 62
     3
 10
20077.4163989999797195
 20
19904.2256360000101267
 30
0.0
 11
20077.4163989999797195
 21
19934.2291990000194346
 31
0.0
  0
LINE
  5
1E6F
  8
2-0
  6
CONTINUOUS
 62
     3
 10
20083.4103810000087833
 20
19904.2256360000101267
 30
0.0
 11
20077.4163989999797195
 21
19904.2256360000101267
 31
0.0
  0
LINE
  5
1E70
  8
2-0
  6
CONTINUOUS
 62
     3
 10
20067.3208540000014182
 20
19904.2256360000101267
 30
0.0
 11
20067.3208540000014182
 21
19934.2291990000194346
 31
0.0
  0
LINE
  5
1E71
  8
2-0
  6
CONTINUOUS
 62
     3
 10
20085.3166569999993953
 20
19904.2256360000101267
 30
0.0
 11
20067.3208540000014182
 21
19904.2256360000101267
 31
0.0
  0
LINE
  5
1E72
  8
2-0
  6
CONTINUOUS
 62
     3
 10
20085.3166569999993953
 20
19929.2348730000085197
 30
0.0
 11
20085.3166569999993953
 21
19904.2256360000101267
 31
0.0
  0
LINE
  5
1E73
  8
2-0
  6
CONTINUOUS
 62
     3
 10
20080.31837300000916
 20
19929.2348730000085197
 30
0.0
 11
20085.3166569999993953
 21
19929.2348730000085197
 31
0.0
  0
LINE
  5
1E74
  8
2-0
  6
CONTINUOUS
 62
     3
 10
20080.31837300000916
 20
19922.2293570000001637
 30
0.0
 11
20080.31837300000916
 21
19929.2348730000085197
 31
0.0
  0
LINE
  5
1E75
  8
2-0
  6
CONTINUOUS
 62
     3
 10
19771.219251999991684
 20
19934.2291990000194346
 30
0.0
 11
20067.3208540000014182
 21
19934.2291990000194346
 31
0.0
  0
LINE
  5
1E76
  8
2-0
  6
CONTINUOUS
 62
     3
 10
19645.9177049999998417
 20
19849.2326300000095216
 30
0.0
 11
26186.9103939999913564
 21
19849.2326300000095216
 31
0.0
  0
LINE
  5
1E77
  8
2-0
  6
CONTINUOUS
 62
     3
 10
19645.9177049999998417
 20
14138.2689210000007733
 30
0.0
 11
19645.9177049999998417
 21
14785.1352830000105314
 31
0.0
  0
LINE
  5
1E78
  8
2-0
  6
CENTER2
 62
     6
 10
19688.4140100000004168
 20
21134.2291990000085207
 30
0.0
 11
19688.4140100000004168
 21
13429.9674799999993411
 31
0.0
  0
LINE
  5
1E79
  8
2-0
  6
CENTER2
 62
     6
 10
26225.4140100000004168
 20
21134.2291990000085207
 30
0.0
 11
26225.4140100000004168
 21
13429.9674799999993411
 31
0.0
  0
LINE
  5
1E7A
  8
2-0
  6
CONTINUOUS
 62
     3
 10
26267.912294000001566
 20
19808.9355700000014622
 30
0.0
 11
26267.912294000001566
 21
19162.3270394999817654
 31
0.0
  0
LINE
  5
1E7B
  8
2-0
  6
CONTINUOUS
 62
     3
 10
19645.9177049999998417
 20
19808.9355700000014622
 30
0.0
 11
19645.9177049999998417
 21
19162.3270394999817654
 31
0.0
  0
LINE
  5
1E7C
  8
2-0
  6
CENTER2
 62
     6
 10
22956.9140100000004168
 20
21134.2291990000085207
 30
0.0
 11
22956.9140100000004168
 21
13864.3263129999904777
 31
0.0
  0
LINE
  5
1E7D
  8
2-0
  6
CONTINUOUS
 62
     3
 10
19726.9156460000012885
 20
14098.2291980000009062
 30
0.0
 11
19726.9156460000012885
 21
19934.2291990000194346
 31
0.0
  0
LINE
  5
1E7E
  8
2-0
  6
CONTINUOUS
 62
     3
 10
26186.9103939999913564
 20
14098.2291980000009062
 30
0.0
 11
26186.9103939999913564
 21
19934.2291990000194346
 31
0.0
  0
CIRCLE
  5
1E8D
  8
2-0
  6
CONTINUOUS
 62
     4
 10
18158.9617429999998421
 20
19891.7309139999997569
 30
0.0
 40
200.0000100000000032
  0
CIRCLE
  5
1E8E
  8
2-0
  6
CONTINUOUS
 62
     4
 10
18158.9617429999998421
 20
16973.7309139999997569
 30
0.0
 40
200.0000100000000032
  0
CIRCLE
  5
1E8F
  8
2-0
  6
CONTINUOUS
 62
     4
 10
18158.9617429999998421
 20
14055.730913999990662
 30
0.0
 40
200.0000100000000032
  0
CIRCLE
  5
1E90
  8
2-0
  6
CONTINUOUS
 62
     4
 10
22956.9140100000004168
 20
21334.2338180000115244
 30
0.0
 40
200.0000100000000032
  0
CIRCLE
  5
1E91
  8
2-0
  6
CONTINUOUS
 62
     4
 10
19688.4140100000004168
 20
21334.2338180000115244
 30
0.0
 40
200.0000100000000032
  0
TEXT
  5
1E92
  8
2-0
  6
CONTINUOUS
 62
     7
 10
24622.2593169999781821
 20
13495.7320359999994253
 30
0.0
 40
160.0
  1
前柱（右）
 50
0.000213
 72
     4
 11
25038.2590195929988113
 21
13575.7335825007903622
 31
0.0
  0
TEXT
  5
1E93
  8
2-0
  6
CONTINUOUS
 62
     7
 10
24638.9585360000091896
 20
18174.8540800000009767
 30
0.0
 40
160.0
  1
補強柱 後
 50
359.9998419999998873
 72
     4
 11
25049.625423274730565
 21
18254.8529475369905413
 31
0.0
  0
TEXT
  5
1E94
  8
2-0
  6
CONTINUOUS
 62
     7
 10
24826.8544399999882444
 20
16424.2240520000304969
 30
0.0
 40
160.0
  1
壁パネル
 50
359.9998229999999921
 72
     4
 11
25189.5213538035495731
 21
16504.2229316378907242
 31
0.0
  0
TEXT
  5
1E95
  8
2-0
  6
CONTINUOUS
 62
     7
 10
24546.8515359999910288
 20
17261.4119480000117619
 30
0.0
 40
160.0
  1
中柱（左右）
 50
0.000354
 72
     4
 11
25064.1843750462103344
 21
17341.4151443246591953
 31
0.0
  0
TEXT
  5
1E96
  8
2-0
  6
CONTINUOUS
 62
     7
 10
25226.8537799999903655
 20
14468.7733019999996031
 30
0.0
 40
160.0
  1
下枠
 50
0.001063
 72
     4
 11
25397.5189624092818121
 21
14548.7764683392906591
 31
0.0
  0
TEXT
  5
1E97
  8
2-0
  6
CONTINUOUS
 62
     7
 10
24638.9585359999982757
 20
15257.0945910000100412
 30
0.0
 40
160.0
  1
補強柱 前
 50
359.999369999999999
 72
     4
 11
25049.6260822877884493
 21
15337.0900754793401575
 31
0.0
  0
TEXT
  5
1E98
  8
2-0
  6
CONTINUOUS
 62
     7
 10
24721.8192040000103589
 20
18864.6806864999889513
 30
0.0
 40
160.0
  1
間柱（側）
 72
     4
 11
25143.1525373333388416
 21
18944.6806864999889513
 31
0.0
  0
TEXT
  5
1E99
  8
2-0
  6
CONTINUOUS
 62
     7
 10
27040.409522999998444
 20
20744.2284069999986968
 30
0.0
 40
160.0
  1
後柱（左右）
 50
0.000354
 72
     4
 11
27552.4090287129802164
 21
20824.2315703728418157
 31
0.0
  0
TEXT
  5
1E9A
  8
2-0
  6
CONTINUOUS
 62
     7
 10
23356.0027720000107365
 20
14633.5692139999791834
 30
0.0
 40
160.0
  1
前柱（中）
 72
     4
 11
23772.0027720000107365
 21
14713.5692139999791834
 31
0.0
  0
TEXT
  5
1E9B
  8
2-0
  6
CONTINUOUS
 62
     7
 10
21792.7828860000008717
 20
19297.111246000011306
 30
0.0
 40
160.0
  1
間柱（後）
 72
     4
 11
22214.1162193333293544
 21
19377.111246000011306
 31
0.0
  0
TEXT
  5
1E9C
  8
2-0
  6
CONTINUOUS
 62
     7
 10
23227.2073750000017753
 20
19365.8559670000213373
 30
0.0
 40
160.0
  1
後柱（中）
 72
     4
 11
23643.2073750000017753
 21
19445.8559670000213373
 31
0.0
  0
TEXT
  5
1E9D
  8
2-0
  6
CONTINUOUS
 62
     7
 10
18110.9623759999813046
 20
19797.2504719999997178
 30
0.0
 40
160.0
  1
C
 72
     4
 11
18164.2957093333097873
 21
19877.2504720000106317
 31
0.0
  0
TEXT
  5
1E9E
  8
2-0
  6
CONTINUOUS
 62
     7
 10
18111.1830919999883918
 20
16903.3368320000190579
 30
0.0
 40
160.0
  1
B
 72
     4
 11
18164.5164253333314264
 21
16983.3368320000190579
 31
0.0
  0
TEXT
  5
1E9F
  8
2-0
  6
CONTINUOUS
 62
     7
 10
18111.2256519999791635
 20
13967.1237029999902006
 30
0.0
 40
160.0
  1
A
 72
     4
 11
18164.5589853333185602
 21
14047.1237029999902006
 31
0.0
  0
TEXT
  5
1EA0
  8
2-0
  6
CONTINUOUS
 62
     7
 10
22905.2822269999996934
 20
21238.7081890000190469
 30
0.0
 40
160.0
  1
2
 72
     4
 11
22958.615560333331814
 21
21318.7081890000190469
 31
0.0
  0
TEXT
  5
1EA1
  8
2-0
  6
CONTINUOUS
 62
     7
 10
19644.2074009999887494
 20
21245.4662660000285541
 30
0.0
 40
160.0
  1
1
 72
     4
 11
19670.8740676666602667
 21
21325.4662660000285541
 31
0.0
  0
LINE
  5
1EAF
  8
2-0
  6
CONTINUOUS
 62
     3
 10
25485.9145909999788273
 20
19934.2291990000194346
 30
0.0
 11
25448.9134290000001783
 21
19934.2291990000194346
 31
0.0
  0
LINE
  5
1EB0
  8
2-0
  6
CONTINUOUS
 62
     3
 10
25485.9145909999788273
 20
19904.2256360000101267
 30
0.0
 11
25485.9145909999788273
 21
19934.2291990000194346
 31
0.0
  0
LINE
  5
1EB1
  8
2-0
  6
CONTINUOUS
 62
     3
 10
25479.9146699999801058
 20
19904.2256360000101267
 30
0.0
 11
25485.9145909999788273
 21
19904.2256360000101267
 31
0.0
  0
LINE
  5
1EB2
  8
2-0
  6
CONTINUOUS
 62
     3
 10
25496.0121150000013586
 20
19904.2256360000101267
 30
0.0
 11
25496.0121150000013586
 21
19934.2291990000194346
 31
0.0
  0
LINE
  5
1EB3
  8
2-0
  6
CONTINUOUS
 62
     3
 10
25478.0083940000004077
 20
19904.2256360000101267
 30
0.0
 11
25496.0121150000013586
 21
19904.2256360000101267
 31
0.0
  0
LINE
  5
1EB4
  8
2-0
  6
CONTINUOUS
 62
     3
 10
25478.0083940000004077
 20
19929.2348730000085197
 30
0.0
 11
25478.0083940000004077
 21
19904.2256360000101267
 31
0.0
  0
LINE
  5
1EB5
  8
2-0
  6
CONTINUOUS
 62
     3
 10
25483.0086579999988317
 20
19929.2348730000085197
 30
0.0
 11
25478.0083940000004077
 21
19929.2348730000085197
 31
0.0
  0
LINE
  5
1EB6
  8
2-0
  6
CONTINUOUS
 62
     3
 10
25483.0086579999988317
 20
19922.2293570000001637
 30
0.0
 11
25483.0086579999988317
 21
19929.2348730000085197
 31
0.0
  0
LINE
  5
1EB7
  8
2-0
  6
CONTINUOUS
 62
     3
 10
25451.8193629999914265
 20
19922.2293570000001637
 30
0.0
 11
25451.8193629999914265
 21
19929.2348730000085197
 31
0.0
  0
LINE
  5
1EB8
  8
2-0
  6
CONTINUOUS
 62
     3
 10
25451.8193629999914265
 20
19929.2348730000085197
 30
0.0
 11
25456.8196270000007644
 21
19929.2348730000085197
 31
0.0
  0
LINE
  5
1EB9
  8
2-0
  6
CONTINUOUS
 62
     3
 10
25456.8196270000007644
 20
19929.2348730000085197
 30
0.0
 11
25456.8196270000007644
 21
19904.2256360000101267
 31
0.0
  0
LINE
  5
1EBA
  8
2-0
  6
CONTINUOUS
 62
     3
 10
25456.8196270000007644
 20
19904.2256360000101267
 30
0.0
 11
25438.8198639999900479
 21
19904.2256360000101267
 31
0.0
  0
LINE
  5
1EBB
  8
2-0
  6
CONTINUOUS
 62
     3
 10
25438.8198639999900479
 20
19904.2256360000101267
 30
0.0
 11
25438.8198639999900479
 21
19934.2291990000194346
 31
0.0
  0
LINE
  5
1EBC
  8
2-0
  6
CONTINUOUS
 62
     3
 10
25454.9133499999916239
 20
19904.2256360000101267
 30
0.0
 11
25448.9134290000001783
 21
19904.2256360000101267
 31
0.0
  0
LINE
  5
1EBD
  8
2-0
  6
CONTINUOUS
 62
     3
 10
25448.9134290000001783
 20
19904.2256360000101267
 30
0.0
 11
25448.9134290000001783
 21
19934.2291990000194346
 31
0.0
  0
LINE
  5
1EBE
  8
2-0
  6
CONTINUOUS
 62
     3
 10
24081.0037085000003572
 20
19922.2293570000001637
 30
0.0
 11
24081.0037085000003572
 21
19929.2348730000085197
 31
0.0
  0
LINE
  5
1EBF
  8
2-0
  6
CONTINUOUS
 62
     3
 10
24081.0037085000003572
 20
19929.2348730000085197
 30
0.0
 11
24076.0034444999982952
 21
19929.2348730000085197
 31
0.0
  0
LINE
  5
1EC0
  8
2-0
  6
CONTINUOUS
 62
     3
 10
24076.0034444999982952
 20
19929.2348730000085197
 30
0.0
 11
24076.0034444999982952
 21
19904.2256360000101267
 31
0.0
  0
LINE
  5
1EC1
  8
2-0
  6
CONTINUOUS
 62
     3
 10
24076.0034444999982952
 20
19904.2256360000101267
 30
0.0
 11
24094.0091454999892449
 21
19904.2256360000101267
 31
0.0
  0
LINE
  5
1EC2
  8
2-0
  6
CONTINUOUS
 62
     3
 10
24094.0091454999892449
 20
19904.2256360000101267
 30
0.0
 11
24094.0091454999892449
 21
19934.2291990000194346
 31
0.0
  0
LINE
  5
1EC3
  8
2-0
  6
CONTINUOUS
 62
     3
 10
24077.911700499978906
 20
19904.2256360000101267
 30
0.0
 11
24083.9136004999891156
 21
19904.2256360000101267
 31
0.0
  0
LINE
  5
1EC4
  8
2-0
  6
CONTINUOUS
 62
     3
 10
24083.9136004999891156
 20
19904.2256360000101267
 30
0.0
 11
24083.9136004999891156
 21
19934.2291990000194346
 31
0.0
  0
LINE
  5
1EC5
  8
2-0
  6
CONTINUOUS
 62
     3
 10
24046.9144194999789761
 20
19934.2291990000194346
 30
0.0
 11
24083.9136004999891156
 21
19934.2291990000194346
 31
0.0
  0
LINE
  5
1EC6
  8
2-0
  6
CONTINUOUS
 62
     3
 10
24046.9144194999789761
 20
19904.2256360000101267
 30
0.0
 11
24046.9144194999789761
 21
19934.2291990000194346
 31
0.0
  0
LINE
  5
1EC7
  8
2-0
  6
CONTINUOUS
 62
     3
 10
24052.90840149998985
 20
19904.2256360000101267
 30
0.0
 11
24046.9144194999789761
 21
19904.2256360000101267
 31
0.0
  0
LINE
  5
1EC8
  8
2-0
  6
CONTINUOUS
 62
     3
 10
24036.8188745000006747
 20
19904.2256360000101267
 30
0.0
 11
24036.8188745000006747
 21
19934.2291990000194346
 31
0.0
  0
LINE
  5
1EC9
  8
2-0
  6
CONTINUOUS
 62
     3
 10
24054.8146774999986519
 20
19904.2256360000101267
 30
0.0
 11
24036.8188745000006747
 21
19904.2256360000101267
 31
0.0
  0
LINE
  5
1ECA
  8
2-0
  6
CONTINUOUS
 62
     3
 10
24054.8146774999986519
 20
19929.2348730000085197
 30
0.0
 11
24054.8146774999986519
 21
19904.2256360000101267
 31
0.0
  0
LINE
  5
1ECB
  8
2-0
  6
CONTINUOUS
 62
     3
 10
24049.8144135000002279
 20
19929.2348730000085197
 30
0.0
 11
24054.8146774999986519
 21
19929.2348730000085197
 31
0.0
  0
LINE
  5
1ECC
  8
2-0
  6
CONTINUOUS
 62
     3
 10
24049.8144135000002279
 20
19922.2293570000001637
 30
0.0
 11
24049.8144135000002279
 21
19929.2348730000085197
 31
0.0
  0
LINE
  5
1ECD
  8
2-0
  6
CONTINUOUS
 62
     3
 10
24750.8134245000001101
 20
19922.2293570000001637
 30
0.0
 11
24750.8134245000001101
 21
19929.2348730000085197
 31
0.0
  0
LINE
  5
1ECE
  8
2-0
  6
CONTINUOUS
 62
     3
 10
24750.8134245000001101
 20
19929.2348730000085197
 30
0.0
 11
24755.8136874999909196
 21
19929.2348730000085197
 31
0.0
  0
LINE
  5
1ECF
  8
2-0
  6
CONTINUOUS
 62
     3
 10
24755.8136874999909196
 20
19929.2348730000085197
 30
0.0
 11
24755.8136874999909196
 21
19904.2256360000101267
 31
0.0
  0
LINE
  5
1ED0
  8
2-0
  6
CONTINUOUS
 62
     3
 10
24755.8136874999909196
 20
19904.2256360000101267
 30
0.0
 11
24737.8198644999902172
 21
19904.2256360000101267
 31
0.0
  0
LINE
  5
1ED1
  8
2-0
  6
CONTINUOUS
 62
     3
 10
24737.8198644999902172
 20
19904.2256360000101267
 30
0.0
 11
24737.8198644999902172
 21
19934.2291990000194346
 31
0.0
  0
LINE
  5
1ED2
  8
2-0
  6
CONTINUOUS
 62
     3
 10
24753.9113704999908805
 20
19904.2256360000101267
 30
0.0
 11
24747.9134295000003476
 21
19904.2256360000101267
 31
0.0
  0
LINE
  5
1ED3
  8
2-0
  6
CONTINUOUS
 62
     3
 10
24747.9134295000003476
 20
19904.2256360000101267
 30
0.0
 11
24747.9134295000003476
 21
19934.2291990000194346
 31
0.0
  0
LINE
  5
1ED4
  8
2-0
  6
CONTINUOUS
 62
     3
 10
24784.9145905000004859
 20
19934.2291990000194346
 30
0.0
 11
24747.9134295000003476
 21
19934.2291990000194346
 31
0.0
  0
LINE
  5
1ED5
  8
2-0
  6
CONTINUOUS
 62
     3
 10
24784.9145905000004859
 20
19904.2256360000101267
 30
0.0
 11
24784.9145905000004859
 21
19934.2291990000194346
 31
0.0
  0
LINE
  5
1ED6
  8
2-0
  6
CONTINUOUS
 62
     3
 10
24778.9087314999997034
 20
19904.2256360000101267
 30
0.0
 11
24784.9145905000004859
 21
19904.2256360000101267
 31
0.0
  0
LINE
  5
1ED7
  8
2-0
  6
CONTINUOUS
 62
     3
 10
24795.0081554999997024
 20
19904.2256360000101267
 30
0.0
 11
24795.0081554999997024
 21
19934.2291990000194346
 31
0.0
  0
LINE
  5
1ED8
  8
2-0
  6
CONTINUOUS
 62
     3
 10
24777.0123525000017253
 20
19904.2256360000101267
 30
0.0
 11
24795.0081554999997024
 21
19904.2256360000101267
 31
0.0
  0
LINE
  5
1ED9
  8
2-0
  6
CONTINUOUS
 62
     3
 10
24777.0123525000017253
 20
19929.2348730000085197
 30
0.0
 11
24777.0123525000017253
 21
19904.2256360000101267
 31
0.0
  0
LINE
  5
1EDA
  8
2-0
  6
CONTINUOUS
 62
     3
 10
24782.0027184999999008
 20
19929.2348730000085197
 30
0.0
 11
24777.0123525000017253
 21
19929.2348730000085197
 31
0.0
  0
LINE
  5
1EDB
  8
2-0
  6
CONTINUOUS
 62
     3
 10
24782.0027184999999008
 20
19922.2293570000001637
 30
0.0
 11
24782.0027184999999008
 21
19929.2348730000085197
 31
0.0
  0
LINE
  5
1EDC
  8
2-0
  6
CONTINUOUS
 62
     3
 10
24094.0091454999892449
 20
19934.2291990000194346
 30
0.0
 11
24737.8198644999902172
 21
19934.2291990000194346
 31
0.0
  0
LINE
  5
1EDD
  8
2-0
  6
CONTINUOUS
 62
     3
 10
23393.2130360000082874
 20
19934.2291990000194346
 30
0.0
 11
24036.8188745000006747
 21
19934.2291990000194346
 31
0.0
  0
LINE
  5
1EDE
  8
2-0
  6
CONTINUOUS
 62
     3
 10
26143.2976400000006834
 20
19934.2291990000194346
 30
0.0
 11
25496.0121150000013586
 21
19934.2291990000194346
 31
0.0
  0
LINE
  5
1EDF
  8
2-0
  6
CONTINUOUS
 62
     3
 10
25438.8198639999900479
 20
19934.2291990000194346
 30
0.0
 11
24795.0081554999997024
 21
19934.2291990000194346
 31
0.0
  0
LINE
  5
1EE0
  8
2-0
  6
CONTINUOUS
 62
     3
 10
23380.0056880000011006
 20
19922.2293570000001637
 30
0.0
 11
23380.0056880000011006
 21
19929.2348730000085197
 31
0.0
  0
LINE
  5
1EE1
  8
2-0
  6
CONTINUOUS
 62
     3
 10
23380.0056880000011006
 20
19929.2348730000085197
 30
0.0
 11
23375.0054239999917627
 21
19929.2348730000085197
 31
0.0
  0
LINE
  5
1EE2
  8
2-0
  6
CONTINUOUS
 62
     3
 10
23375.0054239999917627
 20
19929.2348730000085197
 30
0.0
 11
23375.0054239999917627
 21
19904.2256360000101267
 31
0.0
  0
LINE
  5
1EE3
  8
2-0
  6
CONTINUOUS
 62
     3
 10
23375.0054239999917627
 20
19904.2256360000101267
 30
0.0
 11
23393.0071660000103293
 21
19904.2256360000101267
 31
0.0
  0
LINE
  5
1EE4
  8
2-0
  6
CONTINUOUS
 62
     3
 10
23393.0071660000103293
 20
19904.2256360000101267
 30
0.0
 11
23393.0071660000103293
 21
19934.2291990000194346
 31
0.0
  0
LINE
  5
1EE5
  8
2-0
  6
CONTINUOUS
 62
     3
 10
23376.9077410000099917
 20
19904.2256360000101267
 30
0.0
 11
23382.9116209999883722
 21
19904.2256360000101267
 31
0.0
  0
LINE
  5
1EE6
  8
2-0
  6
CONTINUOUS
 62
     3
 10
23382.9116209999883722
 20
19904.2256360000101267
 30
0.0
 11
23382.9116209999883722
 21
19934.2291990000194346
 31
0.0
  0
LINE
  5
1EE7
  8
2-0
  6
CONTINUOUS
 62
     3
 10
23345.9163990000015474
 20
19934.2291990000194346
 30
0.0
 11
23382.9116209999883722
 21
19934.2291990000194346
 31
0.0
  0
LINE
  5
1EE8
  8
2-0
  6
CONTINUOUS
 62
     3
 10
23345.9163990000015474
 20
19904.2256360000101267
 30
0.0
 11
23345.9163990000015474
 21
19934.2291990000194346
 31
0.0
  0
LINE
  5
1EE9
  8
2-0
  6
CONTINUOUS
 62
     3
 10
23351.9103810000015073
 20
19904.2256360000101267
 30
0.0
 11
23345.9163990000015474
 21
19904.2256360000101267
 31
0.0
  0
LINE
  5
1EEA
  8
2-0
  6
CONTINUOUS
 62
     3
 10
23335.8208540000086941
 20
19904.2256360000101267
 30
0.0
 11
23335.8208540000086941
 21
19934.2291990000194346
 31
0.0
  0
LINE
  5
1EEB
  8
2-0
  6
CONTINUOUS
 62
     3
 10
23353.8166570000103093
 20
19904.2256360000101267
 30
0.0
 11
23335.8208540000086941
 21
19904.2256360000101267
 31
0.0
  0
LINE
  5
1EEC
  8
2-0
  6
CONTINUOUS
 62
     3
 10
23353.8166570000103093
 20
19929.2348730000085197
 30
0.0
 11
23353.8166570000103093
 21
19904.2256360000101267
 31
0.0
  0
LINE
  5
1EED
  8
2-0
  6
CONTINUOUS
 62
     3
 10
23348.81837300000916
 20
19929.2348730000085197
 30
0.0
 11
23353.8166570000103093
 21
19929.2348730000085197
 31
0.0
  0
LINE
  5
1EEE
  8
2-0
  6
CONTINUOUS
 62
     3
 10
23348.81837300000916
 20
19922.2293570000001637
 30
0.0
 11
23348.81837300000916
 21
19929.2348730000085197
 31
0.0
  0
LINE
  5
1EEF
  8
2-0
  6
CONTINUOUS
 62
     3
 10
23039.719251999991684
 20
19934.2291990000194346
 30
0.0
 11
23335.8208540000086941
 21
19934.2291990000194346
 31
0.0
  0
LINE
  5
1EF0
  8
2-0
  6
CONTINUOUS
 62
     3
 10
22875.4865130000107456
 20
19934.2291990000194346
 30
0.0
 11
22227.5121150000013586
 21
19934.2291990000194346
 31
0.0
  0
LINE
  5
1EF1
  8
2-0
  6
CONTINUOUS
 62
     3
 10
26267.912294000001566
 20
15486.3703509999995731
 30
0.0
 11
26267.912294000001566
 21
14842.331493000010596
 31
0.0
  0
LINE
  5
1EF2
  8
2-0
  6
CONTINUOUS
 62
     3
 10
26267.912294000001566
 20
14785.1352829999996175
 30
0.0
 11
26267.912294000001566
 21
14138.2689210000007733
 31
0.0
  0
CIRCLE
  5
1F04
  8
2-0
  6
CONTINUOUS
 62
     4
 10
26225.4140100000004168
 20
21334.2338180000115244
 30
0.0
 40
200.0000100000000032
  0
TEXT
  5
1F05
  8
2-0
  6
CONTINUOUS
 62
     7
 10
26173.7822269999996934
 20
21238.7081890000190469
 30
0.0
 40
160.0
  1
3
 72
     4
 11
26227.115560333331814
 21
21318.7081890000190469
 31
0.0
  0
LINE
  5
1F0F
  8
SUNPOU
  6
CONTINUOUS
 10
7752.9551449999999022
 20
20114.226823000011791
 30
0.0
 11
7752.9551449999999022
 21
20911.1940907784701267
 31
0.0
  0
LINE
  5
1F10
  8
SUNPOU
  6
CONTINUOUS
 10
7752.9551449999999022
 20
13863.2355989999996382
 30
0.0
 11
7752.9551449999999022
 21
13187.8094831896196411
 31
0.0
  0
LINE
  5
2C51
  8
0-1
  6
CONTINUOUS
 62
     3
 10
26275.4146689999906812
 20
6356.3198969999957626
 30
0.0
 11
26175.4153279999882216
 21
6356.3198969999957626
 31
0.0
  0
LINE
  5
2C52
  8
0-1
  6
CONTINUOUS
 62
     3
 10
26175.4153279999882216
 20
6356.3198969999957626
 30
0.0
 11
26175.4153279999882216
 21
6256.3200619999988703
 31
0.0
  0
LINE
  5
2C53
  8
0-1
  6
CONTINUOUS
 62
     3
 10
26275.4146689999906812
 20
6256.3200619999988703
 30
0.0
 11
26275.4146689999906812
 21
6356.3198969999957626
 31
0.0
  0
LINE
  5
2C54
  8
0-1
  6
CONTINUOUS
 62
     3
 10
26247.9151959999908286
 20
8704.8202459999974963
 30
0.0
 11
26247.9151959999908286
 21
6356.3198969999957626
 31
0.0
  0
LINE
  5
2C55
  8
0-1
  6
CONTINUOUS
 62
     3
 10
26267.9142729999912262
 20
8574.8193229999978939
 30
0.0
 11
26267.9142729999912262
 21
6356.3198969999957626
 31
0.0
  0
LINE
  5
2C56
  8
0-1
  6
CONTINUOUS
 62
     3
 10
26137.9153279999591177
 20
8264.3199559999957273
 30
0.0
 11
26137.9153279999591177
 21
6256.3200619999988703
 31
0.0
  0
LINE
  5
2C57
  8
0-1
  6
CONTINUOUS
 62
     3
 10
26182.9157239999913145
 20
8574.8193229999978939
 30
0.0
 11
26182.9157239999913145
 21
6356.3198969999957626
 31
0.0
  0
LINE
  5
2C60
  8
0-1
  6
CONTINUOUS
 62
     3
 10
22999.4122930000012275
 20
8574.8193229999978939
 30
0.0
 11
22999.4122930000012275
 21
6256.3200619999988703
 31
0.0
  0
LINE
  5
2C61
  8
0-1
  6
CONTINUOUS
 62
     3
 10
23044.4126890000115964
 20
8264.3199559999957273
 30
0.0
 11
23044.4126890000115964
 21
6256.3200619999988703
 31
0.0
  0
LINE
  5
2C64
  8
0-1
  6
CONTINUOUS
 62
     3
 10
23044.4126890000115964
 20
8195.7796199999975215
 30
0.0
 11
26137.9153279999591177
 21
8195.7796199999975215
 31
0.0
  0
LINE
  5
2C65
  8
0-1
  6
CONTINUOUS
 62
     3
 10
23044.4126890000115964
 20
6841.3207549999979165
 30
0.0
 11
26137.9153279999591177
 21
6841.3207549999979165
 31
0.0
  0
LINE
  5
2C66
  8
0-1
  6
CONTINUOUS
 62
     3
 10
23044.4126890000115964
 20
6906.3197319999990214
 30
0.0
 11
26137.9153279999591177
 21
6906.3197319999990214
 31
0.0
  0
LINE
  5
2C67
  8
0-1
  6
CONTINUOUS
 62
     3
 10
23044.4126890000115964
 20
6971.3201939999962633
 30
0.0
 11
26137.9153279999591177
 21
6971.3201939999962633
 31
0.0
  0
LINE
  5
2C68
  8
0-1
  6
CONTINUOUS
 62
     3
 10
23044.4126890000115964
 20
7036.3201609999978245
 30
0.0
 11
26137.9153279999591177
 21
7036.3201609999978245
 31
0.0
  0
LINE
  5
2C69
  8
0-1
  6
CONTINUOUS
 62
     3
 10
23044.4126890000115964
 20
7101.3201279999966573
 30
0.0
 11
26137.9153279999591177
 21
7101.3201279999966573
 31
0.0
  0
LINE
  5
2C6A
  8
0-1
  6
CONTINUOUS
 62
     3
 10
23044.4126890000115964
 20
7166.3200949999973091
 30
0.0
 11
26137.9153279999591177
 21
7166.3200949999973091
 31
0.0
  0
LINE
  5
2C6B
  8
0-1
  6
CONTINUOUS
 62
     3
 10
23044.4126890000115964
 20
7231.320557000000008
 30
0.0
 11
26137.9153279999591177
 21
7231.320557000000008
 31
0.0
  0
LINE
  5
2C6C
  8
0-1
  6
CONTINUOUS
 62
     3
 10
23044.4126890000115964
 20
7296.3195339999965654
 30
0.0
 11
26137.9153279999591177
 21
7296.3195339999965654
 31
0.0
  0
LINE
  5
2C6D
  8
0-1
  6
CONTINUOUS
 62
     3
 10
23044.4126890000115964
 20
7361.3199959999947168
 30
0.0
 11
26137.9153279999591177
 21
7361.3199959999947168
 31
0.0
  0
LINE
  5
2C6E
  8
0-1
  6
CONTINUOUS
 62
     3
 10
23044.4126890000115964
 20
7426.3199629999917306
 30
0.0
 11
26137.9153279999591177
 21
7426.3199629999917306
 31
0.0
  0
LINE
  5
2C6F
  8
0-1
  6
CONTINUOUS
 62
     3
 10
23044.4126890000115964
 20
7491.320424999995339
 30
0.0
 11
26137.9153279999591177
 21
7491.320424999995339
 31
0.0
  0
LINE
  5
2C70
  8
0-1
  6
CONTINUOUS
 62
     3
 10
23044.4126890000115964
 20
7556.3194019999973534
 30
0.0
 11
26137.9153279999591177
 21
7556.3194019999973534
 31
0.0
  0
LINE
  5
2C71
  8
0-1
  6
CONTINUOUS
 62
     3
 10
23044.4126890000115964
 20
7621.3198639999973238
 30
0.0
 11
26137.9153279999591177
 21
7621.3198639999973238
 31
0.0
  0
LINE
  5
2C72
  8
0-1
  6
CONTINUOUS
 62
     3
 10
23044.4126890000115964
 20
7686.3198309999979756
 30
0.0
 11
26137.9153279999591177
 21
7686.3198309999979756
 31
0.0
  0
LINE
  5
2C73
  8
0-1
  6
CONTINUOUS
 62
     3
 10
23044.4126890000115964
 20
7751.3197979999968084
 30
0.0
 11
26137.9153279999591177
 21
7751.3197979999968084
 31
0.0
  0
LINE
  5
2C74
  8
0-1
  6
CONTINUOUS
 62
     3
 10
23044.4126890000115964
 20
7816.3202600000022358
 30
0.0
 11
26137.9153279999591177
 21
7816.3202600000022358
 31
0.0
  0
LINE
  5
2C75
  8
0-1
  6
CONTINUOUS
 62
     3
 10
23044.4126890000115964
 20
7881.3202269999947021
 30
0.0
 11
26137.9153279999591177
 21
7881.3202269999947021
 31
0.0
  0
LINE
  5
2C76
  8
0-1
  6
CONTINUOUS
 62
     3
 10
23044.4126890000115964
 20
7946.3206889999946725
 30
0.0
 11
26137.9153279999591177
 21
7946.3206889999946725
 31
0.0
  0
LINE
  5
2C77
  8
0-1
  6
CONTINUOUS
 62
     3
 10
23044.4126890000115964
 20
8011.3196659999957774
 30
0.0
 11
26137.9153279999591177
 21
8011.3196659999957774
 31
0.0
  0
LINE
  5
2C78
  8
0-1
  6
CONTINUOUS
 62
     3
 10
23044.4126890000115964
 20
8076.3201279999966573
 30
0.0
 11
26137.9153279999591177
 21
8076.3201279999966573
 31
0.0
  0
LINE
  5
2C79
  8
0-1
  6
CONTINUOUS
 62
     3
 10
23044.4126890000115964
 20
8141.3200949999973091
 30
0.0
 11
26137.9153279999591177
 21
8141.3200949999973091
 31
0.0
  0
LINE
  5
2C7A
  8
0-1
  6
CONTINUOUS
 62
     3
 10
23044.4126890000115964
 20
6321.3195339999965654
 30
0.0
 11
26137.9153279999591177
 21
6321.3195339999965654
 31
0.0
  0
LINE
  5
2C7B
  8
0-1
  6
CONTINUOUS
 62
     3
 10
23044.4126890000115964
 20
6386.3204909999976735
 30
0.0
 11
26137.9153279999591177
 21
6386.3204909999976735
 31
0.0
  0
LINE
  5
2C7C
  8
0-1
  6
CONTINUOUS
 62
     3
 10
23044.4126890000115964
 20
6451.3194679999978689
 30
0.0
 11
26137.9153279999591177
 21
6451.3194679999978689
 31
0.0
  0
LINE
  5
2C7D
  8
0-1
  6
CONTINUOUS
 62
     3
 10
23044.4126890000115964
 20
6516.3204249999962485
 30
0.0
 11
26137.9153279999591177
 21
6516.3204249999962485
 31
0.0
  0
LINE
  5
2C7E
  8
0-1
  6
CONTINUOUS
 62
     3
 10
23044.4126890000115964
 20
6581.3198969999966721
 30
0.0
 11
26137.9153279999591177
 21
6581.3198969999966721
 31
0.0
  0
LINE
  5
2C7F
  8
0-1
  6
CONTINUOUS
 62
     3
 10
23044.4126890000115964
 20
6646.3198639999973238
 30
0.0
 11
26137.9153279999591177
 21
6646.3198639999973238
 31
0.0
  0
LINE
  5
2C80
  8
0-1
  6
CONTINUOUS
 62
     3
 10
23044.4126890000115964
 20
6711.3198309999988851
 30
0.0
 11
26137.9153279999591177
 21
6711.3198309999988851
 31
0.0
  0
LINE
  5
2C81
  8
0-1
  6
CONTINUOUS
 62
     3
 10
23044.4126890000115964
 20
6776.3193029999983992
 30
0.0
 11
26137.9153279999591177
 21
6776.3193029999983992
 31
0.0
  0
LINE
  5
2C83
  8
0-1
  6
CONTINUOUS
 62
     3
 10
22999.4122930000012275
 20
8264.3199559999957273
 30
0.0
 11
26182.9157239999913145
 21
8264.3199559999957273
 31
0.0
  0
LINE
  5
2C84
  8
0-1
  6
CONTINUOUS
 62
     3
 10
19638.4133499999916239
 20
6256.3200619999988703
 30
0.0
 11
26275.4146689999906812
 21
6256.3200619999988703
 31
0.0
  0
LINE
  5
2C8E
  8
0-1
  6
CONTINUOUS
 62
     3
 10
22914.4137449999689125
 20
8574.8193229999978939
 30
0.0
 11
22914.4137449999689125
 21
6256.3200619999988703
 31
0.0
  0
LINE
  5
2C8F
  8
0-1
  6
CONTINUOUS
 62
     3
 10
22869.4153289999703702
 20
8264.3199559999957273
 30
0.0
 11
22869.4153289999703702
 21
6256.3200619999988703
 31
0.0
  0
LINE
  5
2C9A
  8
0-1
  6
CONTINUOUS
 62
     3
 10
19738.4146689999906812
 20
6356.3198969999957626
 30
0.0
 11
19738.4146689999906812
 21
6256.3200619999988703
 31
0.0
  0
LINE
  5
2C9B
  8
0-1
  6
CONTINUOUS
 62
     3
 10
19638.4133499999916239
 20
6256.3200619999988703
 30
0.0
 11
19638.4133499999916239
 21
6356.3198969999957626
 31
0.0
  0
LINE
  5
2C9C
  8
0-1
  6
CONTINUOUS
 62
     3
 10
19638.4133499999916239
 20
6356.3198969999957626
 30
0.0
 11
19738.4146689999906812
 21
6356.3198969999957626
 31
0.0
  0
LINE
  5
2C9D
  8
0-1
  6
CONTINUOUS
 62
     3
 10
19775.9146689999906812
 20
8264.3199559999957273
 30
0.0
 11
19775.9146689999906812
 21
6256.3200619999988703
 31
0.0
  0
LINE
  5
2C9E
  8
0-1
  6
CONTINUOUS
 62
     3
 10
19730.9122939999906521
 20
8574.8193229999978939
 30
0.0
 11
19730.9122939999906521
 21
6356.3198969999957626
 31
0.0
  0
LINE
  5
2C9F
  8
0-1
  6
CONTINUOUS
 62
     3
 10
19665.9148009999807982
 20
8704.8202459999974963
 30
0.0
 11
19665.9148009999807982
 21
6356.3198969999957626
 31
0.0
  0
LINE
  5
2CA0
  8
0-1
  6
CONTINUOUS
 62
     3
 10
19645.9117659999901662
 20
8574.8193229999978939
 30
0.0
 11
19645.9117659999901662
 21
6356.3198969999957626
 31
0.0
  0
LINE
  5
2CA1
  8
0-1
  6
CONTINUOUS
 62
     3
 10
19730.9122939999906521
 20
8264.3199559999957273
 30
0.0
 11
22914.4137449999689125
 21
8264.3199559999957273
 31
0.0
  0
LINE
  5
2CA3
  8
0-1
  6
CONTINUOUS
 62
     3
 10
19775.9146689999906812
 20
6776.3193029999983992
 30
0.0
 11
22869.4153289999703702
 21
6776.3193029999983992
 31
0.0
  0
LINE
  5
2CA4
  8
0-1
  6
CONTINUOUS
 62
     3
 10
19775.9146689999906812
 20
6711.3198309999988851
 30
0.0
 11
22869.4153289999703702
 21
6711.3198309999988851
 31
0.0
  0
LINE
  5
2CA5
  8
0-1
  6
CONTINUOUS
 62
     3
 10
19775.9146689999906812
 20
6646.3198639999973238
 30
0.0
 11
22869.4153289999703702
 21
6646.3198639999973238
 31
0.0
  0
LINE
  5
2CA6
  8
0-1
  6
CONTINUOUS
 62
     3
 10
19775.9146689999906812
 20
6581.3198969999966721
 30
0.0
 11
22869.4153289999703702
 21
6581.3198969999966721
 31
0.0
  0
LINE
  5
2CA7
  8
0-1
  6
CONTINUOUS
 62
     3
 10
19775.9146689999906812
 20
6516.3204249999962485
 30
0.0
 11
22869.4153289999703702
 21
6516.3204249999962485
 31
0.0
  0
LINE
  5
2CA8
  8
0-1
  6
CONTINUOUS
 62
     3
 10
19775.9146689999906812
 20
6451.3194679999978689
 30
0.0
 11
22869.4153289999703702
 21
6451.3194679999978689
 31
0.0
  0
LINE
  5
2CA9
  8
0-1
  6
CONTINUOUS
 62
     3
 10
19775.9146689999906812
 20
6386.3204909999976735
 30
0.0
 11
22869.4153289999703702
 21
6386.3204909999976735
 31
0.0
  0
LINE
  5
2CAA
  8
0-1
  6
CONTINUOUS
 62
     3
 10
19775.9146689999906812
 20
6321.3195339999965654
 30
0.0
 11
22869.4153289999703702
 21
6321.3195339999965654
 31
0.0
  0
LINE
  5
2CAB
  8
0-1
  6
CONTINUOUS
 62
     3
 10
19775.9146689999906812
 20
8141.3200949999973091
 30
0.0
 11
22869.4153289999703702
 21
8141.3200949999973091
 31
0.0
  0
LINE
  5
2CAC
  8
0-1
  6
CONTINUOUS
 62
     3
 10
19775.9146689999906812
 20
8076.3201279999966573
 30
0.0
 11
22869.4153289999703702
 21
8076.3201279999966573
 31
0.0
  0
LINE
  5
2CAD
  8
0-1
  6
CONTINUOUS
 62
     3
 10
19775.9146689999906812
 20
8011.3196659999957774
 30
0.0
 11
22869.4153289999703702
 21
8011.3196659999957774
 31
0.0
  0
LINE
  5
2CAE
  8
0-1
  6
CONTINUOUS
 62
     3
 10
19775.9146689999906812
 20
7946.3206889999946725
 30
0.0
 11
22869.4153289999703702
 21
7946.3206889999946725
 31
0.0
  0
LINE
  5
2CAF
  8
0-1
  6
CONTINUOUS
 62
     3
 10
19775.9146689999906812
 20
7881.3202269999947021
 30
0.0
 11
22869.4153289999703702
 21
7881.3202269999947021
 31
0.0
  0
LINE
  5
2CB0
  8
0-1
  6
CONTINUOUS
 62
     3
 10
19775.9146689999906812
 20
7816.3202600000022358
 30
0.0
 11
22869.4153289999703702
 21
7816.3202600000022358
 31
0.0
  0
LINE
  5
2CB1
  8
0-1
  6
CONTINUOUS
 62
     3
 10
19775.9146689999906812
 20
7751.3197979999968084
 30
0.0
 11
22869.4153289999703702
 21
7751.3197979999968084
 31
0.0
  0
LINE
  5
2CB2
  8
0-1
  6
CONTINUOUS
 62
     3
 10
19775.9146689999906812
 20
7686.3198309999979756
 30
0.0
 11
22869.4153289999703702
 21
7686.3198309999979756
 31
0.0
  0
LINE
  5
2CB3
  8
0-1
  6
CONTINUOUS
 62
     3
 10
19775.9146689999906812
 20
7621.3198639999973238
 30
0.0
 11
22869.4153289999703702
 21
7621.3198639999973238
 31
0.0
  0
LINE
  5
2CB4
  8
0-1
  6
CONTINUOUS
 62
     3
 10
19775.9146689999906812
 20
7556.3194019999973534
 30
0.0
 11
22869.4153289999703702
 21
7556.3194019999973534
 31
0.0
  0
LINE
  5
2CB5
  8
0-1
  6
CONTINUOUS
 62
     3
 10
19775.9146689999906812
 20
7491.320424999995339
 30
0.0
 11
22869.4153289999703702
 21
7491.320424999995339
 31
0.0
  0
LINE
  5
2CB6
  8
0-1
  6
CONTINUOUS
 62
     3
 10
19775.9146689999906812
 20
7426.3199629999917306
 30
0.0
 11
22869.4153289999703702
 21
7426.3199629999917306
 31
0.0
  0
LINE
  5
2CB7
  8
0-1
  6
CONTINUOUS
 62
     3
 10
19775.9146689999906812
 20
7361.3199959999947168
 30
0.0
 11
22869.4153289999703702
 21
7361.3199959999947168
 31
0.0
  0
LINE
  5
2CB8
  8
0-1
  6
CONTINUOUS
 62
     3
 10
19775.9146689999906812
 20
7296.3195339999965654
 30
0.0
 11
22869.4153289999703702
 21
7296.3195339999965654
 31
0.0
  0
LINE
  5
2CB9
  8
0-1
  6
CONTINUOUS
 62
     3
 10
19775.9146689999906812
 20
7231.320557000000008
 30
0.0
 11
22869.4153289999703702
 21
7231.320557000000008
 31
0.0
  0
LINE
  5
2CBA
  8
0-1
  6
CONTINUOUS
 62
     3
 10
19775.9146689999906812
 20
7166.3200949999973091
 30
0.0
 11
22869.4153289999703702
 21
7166.3200949999973091
 31
0.0
  0
LINE
  5
2CBB
  8
0-1
  6
CONTINUOUS
 62
     3
 10
19775.9146689999906812
 20
7101.3201279999966573
 30
0.0
 11
22869.4153289999703702
 21
7101.3201279999966573
 31
0.0
  0
LINE
  5
2CBC
  8
0-1
  6
CONTINUOUS
 62
     3
 10
19775.9146689999906812
 20
7036.3201609999978245
 30
0.0
 11
22869.4153289999703702
 21
7036.3201609999978245
 31
0.0
  0
LINE
  5
2CBD
  8
0-1
  6
CONTINUOUS
 62
     3
 10
19775.9146689999906812
 20
6971.3201939999962633
 30
0.0
 11
22869.4153289999703702
 21
6971.3201939999962633
 31
0.0
  0
LINE
  5
2CBE
  8
0-1
  6
CONTINUOUS
 62
     3
 10
19775.9146689999906812
 20
6906.3197319999990214
 30
0.0
 11
22869.4153289999703702
 21
6906.3197319999990214
 31
0.0
  0
LINE
  5
2CBF
  8
0-1
  6
CONTINUOUS
 62
     3
 10
19775.9146689999906812
 20
6841.3207549999979165
 30
0.0
 11
22869.4153289999703702
 21
6841.3207549999979165
 31
0.0
  0
LINE
  5
2CC0
  8
0-1
  6
CONTINUOUS
 62
     3
 10
19775.9146689999906812
 20
8195.7796199999975215
 30
0.0
 11
22869.4153289999703702
 21
8195.7796199999975215
 31
0.0
  0
LINE
  5
2CC6
  8
0-2
  6
CONTINUOUS
 62
     4
 10
24954.8560089999882621
 20
7003.5457659999956377
 30
0.0
 11
24854.856668999978865
 21
7003.5457659999956377
 31
0.0
  0
LINE
  5
2CC7
  8
0-2
  6
CONTINUOUS
 62
     4
 10
24227.4700290000000678
 20
7003.5457659999956377
 30
0.0
 11
24327.4693699999806995
 21
7003.5457659999956377
 31
0.0
  0
LINE
  5
2CC8
  8
0-2
  6
CONTINUOUS
 62
     4
 10
21686.355019499991613
 20
7003.5457659999956377
 30
0.0
 11
21586.355679499978578
 21
7003.5457659999956377
 31
0.0
  0
LINE
  5
2CC9
  8
0-2
  6
CONTINUOUS
 62
     4
 10
20958.9710184999894409
 20
7003.5457659999956377
 30
0.0
 11
21058.9683794999982638
 21
7003.5457659999956377
 31
0.0
  0
LINE
  5
2CCA
  8
0-5
  6
CONTINUOUS
 62
     4
 10
22956.9140089999891643
 20
4576.3199629999953686
 30
0.0
 11
22956.9140089999891643
 21
4416.3199299999978393
 31
0.0
  0
LINE
  5
2CCB
  8
0-5
  6
CONTINUOUS
 62
     4
 10
19688.4140089999709744
 20
4576.3199629999953686
 30
0.0
 11
19688.4140089999709744
 21
4416.3199299999978393
 31
0.0
  0
LINE
  5
2CCC
  8
2-0
  6
CENTER2
 62
     6
 10
26225.4140089999782504
 20
5993.6676389999984167
 30
0.0
 11
26225.4140089999782504
 21
7030.809675999996216
 31
0.0
  0
LINE
  5
2CCD
  8
2-0
  6
CENTER2
 62
     6
 10
22956.9140089999891643
 20
5993.6676389999984167
 30
0.0
 11
22956.9140089999891643
 21
7030.809675999996216
 31
0.0
  0
LINE
  5
2CCE
  8
2-0
  6
CENTER2
 62
     6
 10
19688.4140089999709744
 20
5993.6676389999984167
 30
0.0
 11
19688.4140089999709744
 21
7030.809675999996216
 31
0.0
  0
CIRCLE
  5
2CDF
  8
0-5
  6
CONTINUOUS
 62
     4
 10
22956.9140089999891643
 20
4216.3202599999967788
 30
0.0
 40
199.9999949999998989
  0
CIRCLE
  5
2CE0
  8
0-5
  6
CONTINUOUS
 62
     4
 10
19688.4140089999709744
 20
4216.3202599999967788
 30
0.0
 40
199.9999949999998989
  0
TEXT
  5
2CE1
  8
0-5
  6
CONTINUOUS
 62
     7
 10
19070.238069999981235
 20
6985.6803087419957592
 30
0.0
 40
160.0
  1
(2131.5)
 50
90.0
 72
     4
 11
18990.238069999981235
 21
7439.0136420753287894
 31
0.0
  0
TEXT
  5
2CE2
  8
0-5
  6
CONTINUOUS
 62
     7
 10
22909.9855619999907503
 20
4129.7903059999971447
 30
0.0
 40
160.0
  1
2
 72
     4
 11
22963.318895333319233
 21
4209.7903059999971447
 31
0.0
  0
TEXT
  5
2CE3
  8
0-5
  6
CONTINUOUS
 62
     7
 10
19641.4816029999892635
 20
4129.7903059999971447
 30
0.0
 40
160.0
  1
1
 72
     4
 11
19668.1482696666607808
 21
4209.7903059999971447
 31
0.0
  0
CIRCLE
  5
2CE4
  8
0-4
  6
CONTINUOUS
 62
     4
 10
21322.6640089999782504
 20
6742.3760029999939434
 30
0.0
 40
18.487504999999981
  0
CIRCLE
  5
2CE5
  8
0-4
  6
CONTINUOUS
 62
     4
 10
24591.1640089999709744
 20
6742.3760029999939434
 30
0.0
 40
18.487504999999981
  0
LINE
  5
2CE8
  8
SUNPOU
  6
CONTINUOUS
 10
19405.9140089999709744
 20
5056.3200619999988703
 30
0.0
 11
19047.9590022788797796
 21
5056.3200619999988703
 31
0.0
  0
LINE
  5
2CEA
  8
SUNPOU
  6
CONTINUOUS
 10
26507.9179680000015651
 20
5056.3200619999988703
 30
0.0
 11
26865.8729747211000358
 21
5056.3200619999988703
 31
0.0
  0
LINE
  5
2CF5
  8
0-5
  6
CONTINUOUS
 62
     4
 10
26267.9140089999709744
 20
4576.3199629999953686
 30
0.0
 11
26267.9140089999709744
 21
4416.3199299999978393
 31
0.0
  0
CIRCLE
  5
2CF6
  8
0-5
  6
CONTINUOUS
 62
     4
 10
26267.9140089999709744
 20
4216.3202599999967788
 30
0.0
 40
199.9999949999998989
  0
TEXT
  5
2CF7
  8
0-5
  6
CONTINUOUS
 62
     7
 10
26220.9855619999689225
 20
4129.7903059999971447
 30
0.0
 40
160.0
  1
3
 72
     4
 11
26274.3188953333083191
 21
4209.7903059999971447
 31
0.0
  0
TEXT
  5
2CF8
  8
2-0
  6
CONTINUOUS
 62
     7
 10
21638.8802649999888672
 20
3379.1984300000008261
 30
0.0
 40
160.0
  1
正 面 立 面 図
 50
0.000139
 72
     4
 11
22284.2134042508005223
 21
3459.1999955833762215
 31
0.0
  0
TEXT
  5
2CF9
  8
2-0
  6
CONTINUOUS
 62
     7
 10
23635.7055893884207762
 20
3406.3953645833757946
 30
0.0
 40
160.0
  1
1
 72
     4
 11
23662.3722560550886556
 21
3486.3953645833748851
 31
0.0
  0
TEXT
  5
2CFA
  8
2-0
  6
CONTINUOUS
 62
     7
 10
23878.7943066391308093
 20
3326.3968325833748167
 30
0.0
 40
160.0
  1
80
 72
     4
 11
23998.7943066391308093
 21
3406.3968325833748167
 31
0.0
  0
TEXT
  5
2CFB
  8
2-0
  6
CONTINUOUS
 62
     7
 10
23136.7075553884315013
 20
3379.1999955833762215
 30
0.0
 40
160.0
  1
(S=  /   )
 72
     4
 11
23696.7075553884315013
 21
3459.1999955833762215
 31
0.0
  0
LINE
  5
2E57
  8
0-5
  6
CONTINUOUS
 62
     4
 10
17466.5449489999700745
 20
6464.165553999999247
 30
0.0
 11
17586.5413859999789565
 21
6256.3200619999997798
 31
0.0
  0
LINE
  5
2E58
  8
0-5
  6
CONTINUOUS
 62
     4
 10
17586.5413859999789565
 20
6256.3200619999997798
 30
0.0
 11
17706.5417819999784115
 21
6464.165553999999247
 31
0.0
  0
LINE
  5
2E59
  8
0-5
  6
CONTINUOUS
 62
     4
 10
17706.5417819999784115
 20
6464.165553999999247
 30
0.0
 11
17466.5449489999700745
 21
6464.165553999999247
 31
0.0
  0
TEXT
  5
2E5A
  8
0-5
  6
CONTINUOUS
 62
     7
 10
17466.5449489999700745
 20
6544.1663119999966511
 30
0.0
 40
160.0
  1
G.L
 72
     4
 11
17626.5449489999700745
 21
6624.1663119999966511
 31
0.0
  0
LINE
  5
2ED5
  8
SUNPOU
  6
CONTINUOUS
 10
8812.6572919999944133
 20
9504.3200880000003963
 30
0.0
 11
8337.3681793597625074
 21
9504.3200880000003963
 31
0.0
  0
LINE
  5
4483
  8
SUNPOU
 62
     4
 10
19558.4133499999988999
 20
6356.3198970000003101
 30
0.0
 11
18758.4146690000015951
 21
6356.3198970000003101
 31
0.0
  0
LINE
  5
4484
  8
SUNPOU
 62
     4
 10
19558.4133499999988999
 20
8247.8198970000048575
 30
0.0
 11
18758.4146689999906812
 21
8247.8198970000048575
 31
0.0
  0
LINE
  5
4485
  8
SUNPOU
 62
     4
 10
18838.4146690000015951
 20
6356.3198970000003101
 30
0.0
 11
18838.4146689999906812
 21
8247.8198970000048575
 31
0.0
  0
LINE
  5
448B
  8
SUNPOU
 62
     4
 10
19558.4133499999988999
 20
6356.3198970000003101
 30
0.0
 11
18358.4123599999911676
 21
6356.3198969999975816
 31
0.0
  0
LINE
  5
448C
  8
SUNPOU
 62
     4
 10
19525.91361399996822
 20
8704.8194019999955344
 30
0.0
 11
18358.4123599999802536
 21
8704.8194019999955344
 31
0.0
  0
LINE
  5
448D
  8
SUNPOU
 62
     4
 10
18438.4123599999911676
 20
6356.3198970000003101
 30
0.0
 11
18438.4123599999802536
 21
8704.8194019999955344
 31
0.0
  0
LINE
  5
44AD
  8
SUNPOU
 62
     4
 10
19782.4140089999709744
 20
6176.3200619999988703
 30
0.0
 11
19782.4140089999709744
 21
5376.3200619999988703
 31
0.0
  0
LINE
  5
44AE
  8
SUNPOU
 62
     4
 10
22862.9140089999709744
 20
6176.3200619999988703
 30
0.0
 11
22862.9140089999709744
 21
5376.3200619999988703
 31
0.0
  0
LINE
  5
44AF
  8
SUNPOU
 62
     4
 10
19782.4140089999709744
 20
5456.3200619999988703
 30
0.0
 11
22862.9140089999709744
 21
5456.3200619999988703
 31
0.0
  0
LINE
  5
44B3
  8
SUNPOU
 62
     4
 10
23050.9140089999782504
 20
6176.3200619999988703
 30
0.0
 11
23050.9140089999782504
 21
5376.3200619999988703
 31
0.0
  0
LINE
  5
44B4
  8
SUNPOU
 62
     4
 10
26131.4140089999891643
 20
6176.3200619999988703
 30
0.0
 11
26131.4140089999891643
 21
5376.3200619999988703
 31
0.0
  0
LINE
  5
44B5
  8
SUNPOU
 62
     4
 10
23050.9140089999782504
 20
5456.3200619999988703
 30
0.0
 11
26131.4140089999891643
 21
5456.3200619999988703
 31
0.0
  0
LINE
  5
44B9
  8
SUNPOU
 62
     4
 10
22956.9140089999891643
 20
5913.6676389999984167
 30
0.0
 11
22956.9140089999891643
 21
4976.3200619999988703
 31
0.0
  0
LINE
  5
44BA
  8
SUNPOU
 62
     4
 10
26225.4140089999782504
 20
5913.6676389999984167
 30
0.0
 11
26225.4140089999782504
 21
4976.3200619999988703
 31
0.0
  0
LINE
  5
44BB
  8
SUNPOU
 62
     4
 10
22956.9140089999891643
 20
5056.3200619999988703
 30
0.0
 11
26225.4140089999782504
 21
5056.3200619999988703
 31
0.0
  0
LINE
  5
44BF
  8
SUNPOU
 62
     4
 10
19688.4140089999709744
 20
5913.6676389999984167
 30
0.0
 11
19688.4140089999709744
 21
4976.3200619999988703
 31
0.0
  0
LINE
  5
44C0
  8
SUNPOU
 62
     4
 10
22956.9140089999891643
 20
5913.6676389999984167
 30
0.0
 11
22956.9140089999891643
 21
4976.3200619999988703
 31
0.0
  0
LINE
  5
44C1
  8
SUNPOU
 62
     4
 10
19688.4140089999709744
 20
5056.3200619999988703
 30
0.0
 11
22956.9140089999891643
 21
5056.3200619999988703
 31
0.0
  0
LINE
  5
44C5
  8
SUNPOU
 62
     4
 10
26225.4179680000015651
 20
5913.6676389999984167
 30
0.0
 11
26225.4179680000015651
 21
4976.3200619999988703
 31
0.0
  0
LINE
  5
44C6
  8
SUNPOU
 62
     4
 10
26267.9179680000015651
 20
6176.3200619999988703
 30
0.0
 11
26267.9179680000015651
 21
4976.3200619999988703
 31
0.0
  0
LINE
  5
44C7
  8
SUNPOU
 62
     4
 10
26225.4179680000015651
 20
5056.3200619999988703
 30
0.0
 11
25985.4179680000015651
 21
5056.3200619999988703
 31
0.0
  0
LINE
  5
44C8
  8
SUNPOU
 62
     4
 10
26267.9179680000015651
 20
5056.3200619999988703
 30
0.0
 11
26507.9179680000015651
 21
5056.3200619999988703
 31
0.0
  0
LINE
  5
44CA
  8
SUNPOU
 62
     4
 10
26225.4179680000015651
 20
5056.3200619999988703
 30
0.0
 11
26267.9179680000015651
 21
5056.3200619999988703
 31
0.0
  0
LINE
  5
44CD
  8
SUNPOU
 62
     4
 10
19688.4140089999709744
 20
5913.6676389999984167
 30
0.0
 11
19688.4140089999709744
 21
4976.3200619999988703
 31
0.0
  0
LINE
  5
44CE
  8
SUNPOU
 62
     4
 10
19645.9140089999709744
 20
6176.3200619999988703
 30
0.0
 11
19645.9140089999709744
 21
4976.3200619999988703
 31
0.0
  0
LINE
  5
44CF
  8
SUNPOU
 62
     4
 10
19688.4140089999709744
 20
5056.3200619999988703
 30
0.0
 11
19928.4140089999709744
 21
5056.3200619999988703
 31
0.0
  0
LINE
  5
44D0
  8
SUNPOU
 62
     4
 10
19645.9140089999709744
 20
5056.3200619999988703
 30
0.0
 11
19405.9140089999709744
 21
5056.3200619999988703
 31
0.0
  0
LINE
  5
44D2
  8
SUNPOU
 62
     4
 10
19688.4140089999709744
 20
5056.3200619999988703
 30
0.0
 11
19645.9140089999709744
 21
5056.3200619999988703
 31
0.0
  0
LINE
  5
44D5
  8
SUNPOU
 62
     4
 10
19645.9140089999709744
 20
6176.3200619999988703
 30
0.0
 11
19645.9140089999709744
 21
4576.3202269999928831
 31
0.0
  0
LINE
  5
44D6
  8
SUNPOU
 62
     4
 10
26267.9140089999709744
 20
6176.3200619999988703
 30
0.0
 11
26267.9140089999709744
 21
4576.3202269999928831
 31
0.0
  0
LINE
  5
44D7
  8
SUNPOU
 62
     4
 10
19645.9140089999709744
 20
4656.3202269999974305
 30
0.0
 11
26267.9140089999709744
 21
4656.3202269999974305
 31
0.0
  0
LINE
  5
44DB
  8
SUNPOU
 62
     4
 10
19565.9177050000107556
 20
18432.7309140000106709
 30
0.0
 11
18678.95943299999999
 21
18432.7309140000106709
 31
0.0
  0
LINE
  5
44DC
  8
SUNPOU
 62
     4
 10
18758.95943299999999
 20
18432.7309140000106709
 30
0.0
 11
18758.95943299999999
 21
19891.7309140000106709
 31
0.0
  0
LINE
  5
44E0
  8
SUNPOU
 62
     4
 10
19565.9177050000107556
 20
18432.7309140000106709
 30
0.0
 11
18678.95943299999999
 21
18432.7309140000106709
 31
0.0
  0
LINE
  5
44E1
  8
SUNPOU
 62
     4
 10
18758.95943299999999
 20
16973.7309139999997569
 30
0.0
 11
18758.95943299999999
 21
18432.7309140000106709
 31
0.0
  0
LINE
  5
44E5
  8
SUNPOU
 62
     4
 10
19565.9177050000107556
 20
15514.9714255000108096
 30
0.0
 11
18678.95943299999999
 21
15514.9714255000108096
 31
0.0
  0
LINE
  5
44E6
  8
SUNPOU
 62
     4
 10
18758.95943299999999
 20
15514.9714255000108096
 30
0.0
 11
18758.95943299999999
 21
16973.7309139999997569
 31
0.0
  0
LINE
  5
44EA
  8
SUNPOU
 62
     4
 10
19565.9177050000107556
 20
15514.9714255000108096
 30
0.0
 11
18678.95943299999999
 21
15514.9714255000108096
 31
0.0
  0
LINE
  5
44EB
  8
SUNPOU
 62
     4
 10
18758.95943299999999
 20
14055.730913999990662
 30
0.0
 11
18758.95943299999999
 21
15514.9714255000108096
 31
0.0
  0
LINE
  5
44F5
  8
SUNPOU
 62
     4
 10
8596.9608590000134427
 20
20194.23078199999145
 30
0.0
 11
8596.9608590000134427
 21
20744.2360609999996086
 31
0.0
  0
LINE
  5
44F6
  8
SUNPOU
 62
     4
 10
8682.4608590000134427
 20
20664.2360609999996086
 30
0.0
 11
8922.4608590000134427
 21
20664.2360609999996086
 31
0.0
  0
LINE
  5
44F7
  8
SUNPOU
 62
     4
 10
8599.9608590000134427
 20
20664.2360609999996086
 30
0.0
 11
8359.9608590000134427
 21
20664.2360609999996086
 31
0.0
  0
LINE
  5
44F9
  8
SUNPOU
 62
     4
 10
8682.4608590000134427
 20
20664.2360609999996086
 30
0.0
 11
8599.9608590000134427
 21
20664.2360609999996086
 31
0.0
  0
LINE
  5
44FC
  8
SUNPOU
 62
     4
 10
11950.9608590000098047
 20
20664.2360609999996086
 30
0.0
 11
8682.4608590000134427
 21
20664.2360609999996086
 31
0.0
  0
LINE
  5
4500
  8
SUNPOU
 62
     4
 10
15304.9489829999693029
 20
20194.23078199999145
 30
0.0
 11
15304.9489829999693029
 21
20744.2360609999996086
 31
0.0
  0
LINE
  5
4501
  8
SUNPOU
 62
     4
 10
15219.4489829999802168
 20
20664.2360609999996086
 30
0.0
 11
14979.4489829999802168
 21
20664.2360609999996086
 31
0.0
  0
LINE
  5
4502
  8
SUNPOU
 62
     4
 10
15301.9489829999693029
 20
20664.2360609999996086
 30
0.0
 11
15541.9489829999693029
 21
20664.2360609999996086
 31
0.0
  0
LINE
  5
4504
  8
SUNPOU
 62
     4
 10
15219.4489829999802168
 20
20664.2360609999996086
 30
0.0
 11
15301.9489829999693029
 21
20664.2360609999996086
 31
0.0
  0
LINE
  5
4507
  8
SUNPOU
 62
     4
 10
11950.9489829999802168
 20
20664.2360609999996086
 30
0.0
 11
15219.4489829999802168
 21
20664.2360609999996086
 31
0.0
  0
LINE
  5
450B
  8
SUNPOU
 62
     4
 10
8519.9505660000031639
 20
20094.226823000019067
 30
0.0
 11
8072.9551450000053592
 21
20094.226823000011791
 31
0.0
  0
LINE
  5
450C
  8
SUNPOU
 62
     4
 10
8519.9549209999986488
 20
20114.226823000011791
 30
0.0
 11
8072.9551450000053592
 21
20114.226823000011791
 31
0.0
  0
LINE
  5
450E
  8
SUNPOU
 62
     4
 10
8152.9551450000053592
 20
20114.226823000011791
 30
0.0
 11
8152.9551450000053592
 21
20354.226823000011791
 31
0.0
  0
LINE
  5
4510
  8
SUNPOU
 62
     4
 10
8152.9551450000053592
 20
20074.226823000011791
 30
0.0
 11
8152.9551450000053592
 21
20114.226823000011791
 31
0.0
  0
LINE
  5
4513
  8
SUNPOU
 62
     4
 10
8519.9549209999986488
 20
20114.226823000011791
 30
0.0
 11
7672.9551450000062687
 21
20114.226823000011791
 31
0.0
  0
LINE
  5
4514
  8
SUNPOU
 62
     4
 10
7752.9551450000071782
 20
19891.7309140000106709
 30
0.0
 11
7752.9551450000071782
 21
19651.7309139999997569
 31
0.0
  0
LINE
  5
4515
  8
SUNPOU
 62
     4
 10
7752.9551450000071782
 20
20114.226823000011791
 30
0.0
 11
7752.9551450000071782
 21
20354.226823000011791
 31
0.0
  0
LINE
  5
4517
  8
SUNPOU
 62
     4
 10
7752.9551450000071782
 20
19891.7309140000106709
 30
0.0
 11
7752.9551450000071782
 21
20114.226823000011791
 31
0.0
  0
LINE
  5
451A
  8
SUNPOU
 62
     4
 10
8383.6542780000054336
 20
18432.7309140000106709
 30
0.0
 11
7672.9551450000062687
 21
18432.7309139999997569
 31
0.0
  0
LINE
  5
451B
  8
SUNPOU
 62
     4
 10
7752.9551450000071782
 20
18432.7309139999997569
 30
0.0
 11
7752.9551450000071782
 21
19891.7309140000106709
 31
0.0
  0
LINE
  5
451F
  8
SUNPOU
 62
     4
 10
8383.6542780000054336
 20
18432.7309140000106709
 30
0.0
 11
7672.9551450000062687
 21
18432.7309139999997569
 31
0.0
  0
LINE
  5
4520
  8
SUNPOU
 62
     4
 10
7752.9551450000080877
 20
16973.7309139999997569
 30
0.0
 11
7752.9551450000071782
 21
18432.7309139999997569
 31
0.0
  0
LINE
  5
4524
  8
SUNPOU
 62
     4
 10
8383.6542780000054336
 20
15514.7309139999997569
 30
0.0
 11
7672.9551450000062687
 21
15514.7309139999997569
 31
0.0
  0
LINE
  5
4525
  8
SUNPOU
 62
     4
 10
7752.9551450000071782
 20
15514.7309139999997569
 30
0.0
 11
7752.9551450000071782
 21
16973.7309139999997569
 31
0.0
  0
LINE
  5
4529
  8
SUNPOU
 62
     4
 10
8383.6542780000054336
 20
15514.7309139999997569
 30
0.0
 11
7672.9551450000062687
 21
15514.7309139999997569
 31
0.0
  0
LINE
  5
452A
  8
SUNPOU
 62
     4
 10
7752.9551450000080877
 20
14055.730913999990662
 30
0.0
 11
7752.9551450000071782
 21
15514.7309139999997569
 31
0.0
  0
LINE
  5
452E
  8
SUNPOU
 62
     4
 10
8519.9505660000031639
 20
13863.2355990000105521
 30
0.0
 11
7672.9551450000062687
 21
13863.2355990000105521
 31
0.0
  0
LINE
  5
452F
  8
SUNPOU
 62
     4
 10
7752.9551450000071782
 20
14055.730913999990662
 30
0.0
 11
7752.9551450000071782
 21
14295.730913999990662
 31
0.0
  0
LINE
  5
4530
  8
SUNPOU
 62
     4
 10
7752.9551450000071782
 20
13863.2355990000105521
 30
0.0
 11
7752.9551450000071782
 21
13623.2355990000105521
 31
0.0
  0
LINE
  5
4532
  8
SUNPOU
 62
     4
 10
7752.9551450000071782
 20
14055.730913999990662
 30
0.0
 11
7752.9551450000071782
 21
13863.2355990000105521
 31
0.0
  0
LINE
  5
4535
  8
SUNPOU
 62
     4
 10
19688.4140100000004168
 20
13349.9674799999993411
 30
0.0
 11
19688.4140100000004168
 21
13004.2828300000001036
 31
0.0
  0
LINE
  5
4536
  8
SUNPOU
 62
     4
 10
19645.9117669999905047
 20
13933.2336190000005445
 30
0.0
 11
19645.9117669999905047
 21
13004.2828300000001036
 31
0.0
  0
LINE
  5
4537
  8
SUNPOU
 62
     4
 10
19688.4140100000004168
 20
13084.2828300000001036
 30
0.0
 11
19928.4140100000004168
 21
13084.2828300000001036
 31
0.0
  0
LINE
  5
4538
  8
SUNPOU
 62
     4
 10
19645.9117669999905047
 20
13084.2828300000001036
 30
0.0
 11
19405.9117669999905047
 21
13084.2828300000001036
 31
0.0
  0
LINE
  5
453A
  8
SUNPOU
 62
     4
 10
19688.4140100000004168
 20
13084.2828300000001036
 30
0.0
 11
19645.9117669999905047
 21
13084.2828300000001036
 31
0.0
  0
LINE
  5
453D
  8
SUNPOU
 62
     4
 10
26225.4140100000004168
 20
13349.9674799999993411
 30
0.0
 11
26225.4140100000004168
 21
13004.2828300000001036
 31
0.0
  0
LINE
  5
453E
  8
SUNPOU
 62
     4
 10
26267.9162529999994149
 20
13933.2336190000005445
 30
0.0
 11
26267.9162529999994149
 21
13004.2828300000001036
 31
0.0
  0
LINE
  5
453F
  8
SUNPOU
 62
     4
 10
26225.4140100000004168
 20
13084.2828300000001036
 30
0.0
 11
25985.4140100000004168
 21
13084.2828300000001036
 31
0.0
  0
LINE
  5
4540
  8
SUNPOU
 62
     4
 10
26267.9162529999994149
 20
13084.2828300000001036
 30
0.0
 11
26507.9162529999994149
 21
13084.2828300000001036
 31
0.0
  0
LINE
  5
4542
  8
SUNPOU
 62
     4
 10
26225.4140100000004168
 20
13084.2828300000001036
 30
0.0
 11
26267.9162529999994149
 21
13084.2828300000001036
 31
0.0
  0
LINE
  5
4545
  8
2-0
  6
CONTINUOUS
 62
     3
 10
22914.4140100000004168
 20
14013.230913999990662
 30
0.0
 11
22999.4140100000004168
 21
14013.230913999990662
 31
0.0
  0
LINE
  5
4546
  8
2-0
  6
CONTINUOUS
 62
     3
 10
22999.4140100000004168
 20
14013.230913999990662
 30
0.0
 11
22999.4140100000004168
 21
14098.230913999990662
 31
0.0
  0
LINE
  5
4547
  8
2-0
  6
CONTINUOUS
 62
     3
 10
22999.4140100000004168
 20
14098.230913999990662
 30
0.0
 11
22914.4140100000004168
 21
14098.230913999990662
 31
0.0
  0
LINE
  5
4548
  8
2-0
  6
CONTINUOUS
 62
     3
 10
22914.4140100000004168
 20
14098.230913999990662
 30
0.0
 11
22914.4140100000004168
 21
14013.230913999990662
 31
0.0
  0
LINE
  5
4549
  8
SUNPOU
 62
     4
 10
26225.4140100000004168
 20
13349.9674799999993411
 30
0.0
 11
26225.4140100000004168
 21
13004.2828300000001036
 31
0.0
  0
LINE
  5
454A
  8
SUNPOU
 62
     4
 10
26182.9117670000014186
 20
13933.2336190000005445
 30
0.0
 11
26182.9117670000014186
 21
13004.2828300000001036
 31
0.0
  0
LINE
  5
454B
  8
SUNPOU
 62
     4
 10
26225.4140100000004168
 20
13084.2828300000001036
 30
0.0
 11
26465.4140100000004168
 21
13084.2828300000001036
 31
0.0
  0
LINE
  5
454C
  8
SUNPOU
 62
     4
 10
26182.9117670000014186
 20
13084.2828300000001036
 30
0.0
 11
25942.9117670000014186
 21
13084.2828300000001036
 31
0.0
  0
LINE
  5
454E
  8
SUNPOU
 62
     4
 10
26225.4140100000004168
 20
13084.2828300000001036
 30
0.0
 11
26182.9117670000014186
 21
13084.2828300000001036
 31
0.0
  0
LINE
  5
4551
  8
SUNPOU
 62
     4
 10
19688.4140100000004168
 20
13349.9674799999993411
 30
0.0
 11
19688.4140100000004168
 21
13004.2828300000001036
 31
0.0
  0
LINE
  5
4552
  8
SUNPOU
 62
     4
 10
19730.9162529999994149
 20
13933.2336190000005445
 30
0.0
 11
19730.9162529999994149
 21
13004.2828300000001036
 31
0.0
  0
LINE
  5
4553
  8
SUNPOU
 62
     4
 10
19688.4140100000004168
 20
13084.2828300000001036
 30
0.0
 11
19448.4140100000004168
 21
13084.2828300000001036
 31
0.0
  0
LINE
  5
4554
  8
SUNPOU
 62
     4
 10
19730.9162529999994149
 20
13084.2828300000001036
 30
0.0
 11
19970.9162529999994149
 21
13084.2828300000001036
 31
0.0
  0
LINE
  5
4556
  8
SUNPOU
 62
     4
 10
19688.4140100000004168
 20
13084.2828300000001036
 30
0.0
 11
19730.9162529999994149
 21
13084.2828300000001036
 31
0.0
  0
LINE
  5
4559
  8
SUNPOU
 62
     4
 10
19645.9117669999905047
 20
13933.2336190000005445
 30
0.0
 11
19645.9117669999905047
 21
12604.2828299999891897
 31
0.0
  0
LINE
  5
455A
  8
SUNPOU
 62
     4
 10
26267.9162529999994149
 20
13933.2336190000005445
 30
0.0
 11
26267.9162529999994149
 21
12604.2828299999891897
 31
0.0
  0
LINE
  5
455B
  8
SUNPOU
 62
     4
 10
19645.9117669999905047
 20
12684.2828299999891897
 30
0.0
 11
26267.9162529999994149
 21
12684.2828299999891897
 31
0.0
  0
LINE
  5
455F
  8
SUNPOU
 62
     4
 10
26347.912294000008842
 20
14813.7309139999997569
 30
0.0
 11
27397.9136140000300657
 21
14813.7309139999997569
 31
0.0
  0
LINE
  5
4560
  8
SUNPOU
 62
     4
 10
27197.9136140000009618
 20
14055.730913999990662
 30
0.0
 11
27397.9136140000300657
 21
14055.730913999990662
 31
0.0
  0
LINE
  5
4561
  8
SUNPOU
 62
     4
 10
27317.9136140000300657
 20
14813.7309139999997569
 30
0.0
 11
27317.9136140000300657
 21
14055.730913999990662
 31
0.0
  0
LINE
  5
4565
  8
SUNPOU
 62
     4
 10
26347.912294000008842
 20
15514.9714255000108096
 30
0.0
 11
27397.9136140000300657
 21
15514.9714255000108096
 31
0.0
  0
LINE
  5
4566
  8
SUNPOU
 62
     4
 10
26347.912294000008842
 20
14813.7309139999997569
 30
0.0
 11
27397.9136140000300657
 21
14813.7309139999997569
 31
0.0
  0
LINE
  5
4567
  8
SUNPOU
 62
     4
 10
27317.9136140000300657
 20
15514.9714255000108096
 30
0.0
 11
27317.9136140000300657
 21
14813.7309139999997569
 31
0.0
  0
LINE
  5
456B
  8
SUNPOU
 62
     4
 10
26347.912294000008842
 20
16215.7309139999997569
 30
0.0
 11
27397.9136140000300657
 21
16215.7309139999997569
 31
0.0
  0
LINE
  5
456C
  8
SUNPOU
 62
     4
 10
26347.912294000008842
 20
15514.9714255000108096
 30
0.0
 11
27397.9136140000300657
 21
15514.9714255000108096
 31
0.0
  0
LINE
  5
456D
  8
SUNPOU
 62
     4
 10
27317.9136140000300657
 20
16215.7309139999997569
 30
0.0
 11
27317.9136140000300657
 21
15514.9714255000108096
 31
0.0
  0
LINE
  5
4571
  8
SUNPOU
 62
     4
 10
27197.9136140000009618
 20
16973.7309139999997569
 30
0.0
 11
27397.9136140000300657
 21
16973.7309139999997569
 31
0.0
  0
LINE
  5
4572
  8
SUNPOU
 62
     4
 10
26347.912294000008842
 20
16215.7309139999997569
 30
0.0
 11
27397.9136140000300657
 21
16215.7309139999997569
 31
0.0
  0
LINE
  5
4573
  8
SUNPOU
 62
     4
 10
27317.9136140000300657
 20
16973.7309139999997569
 30
0.0
 11
27317.9136140000300657
 21
16215.7309139999997569
 31
0.0
  0
LINE
  5
4577
  8
SUNPOU
 62
     4
 10
26347.912294000008842
 20
17731.7309140000106709
 30
0.0
 11
27397.9136140000300657
 21
17731.7309140000106709
 31
0.0
  0
LINE
  5
4578
  8
SUNPOU
 62
     4
 10
27197.9136140000009618
 20
16973.7309139999997569
 30
0.0
 11
27397.9136140000300657
 21
16973.7309139999997569
 31
0.0
  0
LINE
  5
4579
  8
SUNPOU
 62
     4
 10
27317.9136140000300657
 20
17731.7309140000106709
 30
0.0
 11
27317.9136140000300657
 21
16973.7309139999997569
 31
0.0
  0
LINE
  5
457D
  8
SUNPOU
 62
     4
 10
26347.912294000008842
 20
18432.7309140000106709
 30
0.0
 11
27397.9136140000300657
 21
18432.7309140000106709
 31
0.0
  0
LINE
  5
457E
  8
SUNPOU
 62
     4
 10
26347.912294000008842
 20
17731.7309140000106709
 30
0.0
 11
27397.9136140000300657
 21
17731.7309140000106709
 31
0.0
  0
LINE
  5
457F
  8
SUNPOU
 62
     4
 10
27317.9136140000300657
 20
18432.7309140000106709
 30
0.0
 11
27317.9136140000300657
 21
17731.7309140000106709
 31
0.0
  0
LINE
  5
4583
  8
SUNPOU
 62
     4
 10
26347.912294000008842
 20
19133.7309140000106709
 30
0.0
 11
27397.9136140000300657
 21
19133.7309140000106709
 31
0.0
  0
LINE
  5
4584
  8
SUNPOU
 62
     4
 10
26347.912294000008842
 20
18432.7309140000106709
 30
0.0
 11
27397.9136140000300657
 21
18432.7309140000106709
 31
0.0
  0
LINE
  5
4585
  8
SUNPOU
 62
     4
 10
27317.9136140000300657
 20
19133.7309140000106709
 30
0.0
 11
27317.9136140000300657
 21
18432.7309140000106709
 31
0.0
  0
LINE
  5
4589
  8
SUNPOU
 62
     4
 10
27197.9136140000009618
 20
19891.7309140000106709
 30
0.0
 11
27397.9136140000300657
 21
19891.7309140000106709
 31
0.0
  0
LINE
  5
458A
  8
SUNPOU
 62
     4
 10
26347.912294000008842
 20
19133.7309140000106709
 30
0.0
 11
27397.9136140000300657
 21
19133.7309140000106709
 31
0.0
  0
LINE
  5
458B
  8
SUNPOU
 62
     4
 10
27317.9136140000300657
 20
19891.7309140000106709
 30
0.0
 11
27317.9136140000300657
 21
19133.7309140000106709
 31
0.0
  0
LINE
  5
458F
  8
SUNPOU
 62
     4
 10
27197.9136140000009618
 20
16973.7309139999997569
 30
0.0
 11
27797.9136140000300657
 21
16973.7309139999997569
 31
0.0
  0
LINE
  5
4590
  8
SUNPOU
 62
     4
 10
27197.9136140000009618
 20
19891.7309140000106709
 30
0.0
 11
27797.9136140000300657
 21
19891.7309140000106709
 31
0.0
  0
LINE
  5
4591
  8
SUNPOU
 62
     4
 10
27717.9136140000300657
 20
16973.7309139999997569
 30
0.0
 11
27717.9136140000300657
 21
19891.7309140000106709
 31
0.0
  0
LINE
  5
4595
  8
SUNPOU
 62
     4
 10
27197.9136140000009618
 20
14055.730913999990662
 30
0.0
 11
27797.9136140000300657
 21
14055.730913999990662
 31
0.0
  0
LINE
  5
4596
  8
SUNPOU
 62
     4
 10
27197.9136140000009618
 20
16973.7309139999997569
 30
0.0
 11
27797.9136140000300657
 21
16973.7309139999997569
 31
0.0
  0
LINE
  5
4597
  8
SUNPOU
 62
     4
 10
27717.9136140000300657
 20
14055.730913999990662
 30
0.0
 11
27717.9136140000300657
 21
16973.7309139999997569
 31
0.0
  0
LINE
  5
459B
  8
SUNPOU
 62
     4
 10
26347.912294000008842
 20
19934.2282090000117023
 30
0.0
 11
28197.9136140000300657
 21
19934.2282090000117023
 31
0.0
  0
LINE
  5
459C
  8
SUNPOU
 62
     4
 10
26347.912294000008842
 20
14013.2336190000096394
 30
0.0
 11
28197.9136140000300657
 21
14013.2336190000096394
 31
0.0
  0
LINE
  5
459D
  8
SUNPOU
 62
     4
 10
28117.9136140000300657
 20
19934.2282090000117023
 30
0.0
 11
28117.9136140000300657
 21
14013.2336190000096394
 31
0.0
  0
LINE
  5
45A1
  8
SUNPOU
 62
     4
 10
27197.9136140000009618
 20
19891.7309140000106709
 30
0.0
 11
27797.9136140000300657
 21
19891.7309140000106709
 31
0.0
  0
LINE
  5
45A2
  8
SUNPOU
 62
     4
 10
26347.912294000008842
 20
19934.2282090000117023
 30
0.0
 11
27797.9136140000300657
 21
19934.2282090000117023
 31
0.0
  0
LINE
  5
45A3
  8
SUNPOU
 62
     4
 10
27717.9136140000300657
 20
19891.7309140000106709
 30
0.0
 11
27717.9136140000300657
 21
19651.7309139999997569
 31
0.0
  0
LINE
  5
45A4
  8
SUNPOU
 62
     4
 10
27717.9136140000300657
 20
19934.2282090000117023
 30
0.0
 11
27717.9136140000300657
 21
20174.2282090000117023
 31
0.0
  0
LINE
  5
45A6
  8
SUNPOU
 62
     4
 10
27717.9136140000300657
 20
19891.7309140000106709
 30
0.0
 11
27717.9136140000300657
 21
19934.2282090000117023
 31
0.0
  0
LINE
  5
45A9
  8
SUNPOU
 62
     4
 10
27197.9136140000009618
 20
14055.730913999990662
 30
0.0
 11
27797.9136140000300657
 21
14055.730913999990662
 31
0.0
  0
LINE
  5
45AA
  8
SUNPOU
 62
     4
 10
26347.912294000008842
 20
14013.2336190000096394
 30
0.0
 11
27797.9136140000300657
 21
14013.2336190000096394
 31
0.0
  0
LINE
  5
45AB
  8
SUNPOU
 62
     4
 10
27717.9136140000300657
 20
14055.730913999990662
 30
0.0
 11
27717.9136140000300657
 21
14295.730913999990662
 31
0.0
  0
LINE
  5
45AC
  8
SUNPOU
 62
     4
 10
27717.9136140000300657
 20
14013.2336190000096394
 30
0.0
 11
27717.9136140000300657
 21
13773.2336190000096394
 31
0.0
  0
LINE
  5
45AE
  8
SUNPOU
 62
     4
 10
27717.9136140000300657
 20
14055.730913999990662
 30
0.0
 11
27717.9136140000300657
 21
14013.2336190000096394
 31
0.0
  0
LINE
  5
45B1
  8
SUNPOU
 62
     4
 10
22956.9140100000004168
 20
20014.2291990000194346
 30
0.0
 11
22956.9140100000004168
 21
20744.2321020000308636
 31
0.0
  0
LINE
  5
45B2
  8
SUNPOU
 62
     4
 10
23364.4140100000004168
 20
20014.2291990000194346
 30
0.0
 11
23364.4140100000004168
 21
20744.2321020000308636
 31
0.0
  0
LINE
  5
45B3
  8
SUNPOU
 62
     4
 10
22956.9140100000004168
 20
20664.2321020000308636
 30
0.0
 11
22716.9140100000004168
 21
20664.2321020000308636
 31
0.0
  0
LINE
  5
45B4
  8
SUNPOU
 62
     4
 10
23364.4140100000004168
 20
20664.2321020000308636
 30
0.0
 11
23604.4140100000004168
 21
20664.2321020000308636
 31
0.0
  0
LINE
  5
45B6
  8
SUNPOU
 62
     4
 10
22956.9140100000004168
 20
20664.2321020000308636
 30
0.0
 11
23364.4140100000004168
 21
20664.2321020000308636
 31
0.0
  0
LINE
  5
45B9
  8
SUNPOU
 62
     4
 10
25467.4140100000004168
 20
20014.2291990000194346
 30
0.0
 11
25467.4140100000004168
 21
20744.2321020000308636
 31
0.0
  0
LINE
  5
45BA
  8
SUNPOU
 62
     4
 10
26225.4149995000007038
 20
20014.2291990000194346
 30
0.0
 11
26225.4149995000007038
 21
20744.2321020000308636
 31
0.0
  0
LINE
  5
45BB
  8
SUNPOU
 62
     4
 10
25467.4140100000004168
 20
20664.2321020000308636
 30
0.0
 11
26225.4149995000007038
 21
20664.2321020000308636
 31
0.0
  0
LINE
  5
45BF
  8
SUNPOU
 62
     4
 10
24766.4140100000004168
 20
20014.2291990000194346
 30
0.0
 11
24766.4140100000004168
 21
20744.2321020000308636
 31
0.0
  0
LINE
  5
45C0
  8
SUNPOU
 62
     4
 10
25467.4140100000004168
 20
20014.2291990000194346
 30
0.0
 11
25467.4140100000004168
 21
20744.2321020000308636
 31
0.0
  0
LINE
  5
45C1
  8
SUNPOU
 62
     4
 10
24766.4140100000004168
 20
20664.2321020000308636
 30
0.0
 11
25467.4140100000004168
 21
20664.2321020000308636
 31
0.0
  0
LINE
  5
45C5
  8
SUNPOU
 62
     4
 10
24065.4140100000004168
 20
20014.2291990000194346
 30
0.0
 11
24065.4140100000004168
 21
20744.2321020000308636
 31
0.0
  0
LINE
  5
45C6
  8
SUNPOU
 62
     4
 10
24766.4140100000004168
 20
20014.2291990000194346
 30
0.0
 11
24766.4140100000004168
 21
20744.2321020000308636
 31
0.0
  0
LINE
  5
45C7
  8
SUNPOU
 62
     4
 10
24065.4140100000004168
 20
20664.2321020000308636
 30
0.0
 11
24766.4140100000004168
 21
20664.2321020000308636
 31
0.0
  0
LINE
  5
45CB
  8
SUNPOU
 62
     4
 10
23364.4140100000004168
 20
20014.2291990000194346
 30
0.0
 11
23364.4140100000004168
 21
20744.2321020000308636
 31
0.0
  0
LINE
  5
45CC
  8
SUNPOU
 62
     4
 10
24065.4140100000004168
 20
20014.2291990000194346
 30
0.0
 11
24065.4140100000004168
 21
20744.2321020000308636
 31
0.0
  0
LINE
  5
45CD
  8
SUNPOU
 62
     4
 10
23364.4140100000004168
 20
20664.2321020000308636
 30
0.0
 11
24065.4140100000004168
 21
20664.2321020000308636
 31
0.0
  0
LINE
  5
45D1
  8
SUNPOU
 62
     4
 10
26225.4140100000004168
 20
20014.2291990000194346
 30
0.0
 11
26225.4140100000004168
 21
20744.2321020000308636
 31
0.0
  0
LINE
  5
45D2
  8
SUNPOU
 62
     4
 10
26267.9103150000009919
 20
20014.2291990000194346
 30
0.0
 11
26267.9103150000009919
 21
20744.2321020000308636
 31
0.0
  0
LINE
  5
45D3
  8
SUNPOU
 62
     4
 10
26225.4140100000004168
 20
20664.2321020000308636
 30
0.0
 11
25985.4140100000004168
 21
20664.2321020000308636
 31
0.0
  0
LINE
  5
45D4
  8
SUNPOU
 62
     4
 10
26267.9103150000009919
 20
20664.2321020000308636
 30
0.0
 11
26507.9103150000009919
 21
20664.2321020000308636
 31
0.0
  0
LINE
  5
45D6
  8
SUNPOU
 62
     4
 10
26225.4140100000004168
 20
20664.2321020000308636
 30
0.0
 11
26267.9103150000009919
 21
20664.2321020000308636
 31
0.0
  0
LINE
  5
45D9
  8
SUNPOU
 62
     4
 10
19688.4140100000004168
 20
20014.2291990000194346
 30
0.0
 11
19688.4140100000004168
 21
20744.2321020000308636
 31
0.0
  0
LINE
  5
45DA
  8
SUNPOU
 62
     4
 10
20095.9140100000004168
 20
20014.2291990000194346
 30
0.0
 11
20095.9140100000004168
 21
20744.2321020000308636
 31
0.0
  0
LINE
  5
45DB
  8
SUNPOU
 62
     4
 10
19688.4140100000004168
 20
20664.2321020000308636
 30
0.0
 11
19448.4140100000004168
 21
20664.2321020000308636
 31
0.0
  0
LINE
  5
45DC
  8
SUNPOU
 62
     4
 10
20095.9140100000004168
 20
20664.2321020000308636
 30
0.0
 11
20335.9140100000004168
 21
20664.2321020000308636
 31
0.0
  0
LINE
  5
45DE
  8
SUNPOU
 62
     4
 10
19688.4140100000004168
 20
20664.2321020000308636
 30
0.0
 11
20095.9140100000004168
 21
20664.2321020000308636
 31
0.0
  0
LINE
  5
45E1
  8
SUNPOU
 62
     4
 10
19688.4140100000004168
 20
20014.2291990000194346
 30
0.0
 11
19688.4140100000004168
 21
20744.2321020000308636
 31
0.0
  0
LINE
  5
45E2
  8
SUNPOU
 62
     4
 10
19645.9177049999998417
 20
20014.2291990000194346
 30
0.0
 11
19645.9177049999998417
 21
20744.2321020000308636
 31
0.0
  0
LINE
  5
45E3
  8
SUNPOU
 62
     4
 10
19688.4140100000004168
 20
20664.2321020000308636
 30
0.0
 11
19928.4140100000004168
 21
20664.2321020000308636
 31
0.0
  0
LINE
  5
45E4
  8
SUNPOU
 62
     4
 10
19645.9177049999998417
 20
20664.2321020000308636
 30
0.0
 11
19405.9177049999998417
 21
20664.2321020000308636
 31
0.0
  0
LINE
  5
45E6
  8
SUNPOU
 62
     4
 10
19688.4140100000004168
 20
20664.2321020000308636
 30
0.0
 11
19645.9177049999998417
 21
20664.2321020000308636
 31
0.0
  0
LINE
  5
45E9
  8
SUNPOU
 62
     4
 10
22198.9140099999895028
 20
20014.2291990000194346
 30
0.0
 11
22198.9140099999895028
 21
20744.2321020000308636
 31
0.0
  0
LINE
  5
45EA
  8
SUNPOU
 62
     4
 10
22956.9149995000116178
 20
20014.2291990000194346
 30
0.0
 11
22956.9149995000116178
 21
20744.2321020000308636
 31
0.0
  0
LINE
  5
45EB
  8
SUNPOU
 62
     4
 10
22198.9140099999895028
 20
20664.2321020000308636
 30
0.0
 11
22956.9149995000116178
 21
20664.2321020000308636
 31
0.0
  0
LINE
  5
45EF
  8
SUNPOU
 62
     4
 10
21497.9140100000004168
 20
20014.2291990000194346
 30
0.0
 11
21497.9140100000004168
 21
20744.2321020000308636
 31
0.0
  0
LINE
  5
45F0
  8
SUNPOU
 62
     4
 10
22198.9140099999895028
 20
20014.2291990000194346
 30
0.0
 11
22198.9140099999895028
 21
20744.2321020000308636
 31
0.0
  0
LINE
  5
45F1
  8
SUNPOU
 62
     4
 10
21497.9140100000004168
 20
20664.2321020000308636
 30
0.0
 11
22198.9140099999895028
 21
20664.2321020000308636
 31
0.0
  0
LINE
  5
45F5
  8
SUNPOU
 62
     4
 10
20796.9140100000004168
 20
20014.2291990000194346
 30
0.0
 11
20796.9140100000004168
 21
20744.2321020000308636
 31
0.0
  0
LINE
  5
45F6
  8
SUNPOU
 62
     4
 10
21497.9140100000004168
 20
20014.2291990000194346
 30
0.0
 11
21497.9140100000004168
 21
20744.2321020000308636
 31
0.0
  0
LINE
  5
45F7
  8
SUNPOU
 62
     4
 10
20796.9140100000004168
 20
20664.2321020000308636
 30
0.0
 11
21497.9140100000004168
 21
20664.2321020000308636
 31
0.0
  0
LINE
  5
45FB
  8
SUNPOU
 62
     4
 10
20095.9140100000004168
 20
20014.2291990000194346
 30
0.0
 11
20095.9140100000004168
 21
20744.2321020000308636
 31
0.0
  0
LINE
  5
45FC
  8
SUNPOU
 62
     4
 10
20796.9140100000004168
 20
20014.2291990000194346
 30
0.0
 11
20796.9140100000004168
 21
20744.2321020000308636
 31
0.0
  0
LINE
  5
45FD
  8
SUNPOU
 62
     4
 10
20095.9140100000004168
 20
20664.2321020000308636
 30
0.0
 11
20796.9140100000004168
 21
20664.2321020000308636
 31
0.0
  0
LINE
  5
4601
  8
SUNPOU
 62
     4
 10
8812.6585459999987506
 20
8593.318412000002354
 30
0.0
 11
8812.6585459999987506
 21
9984.318437999998423
 31
0.0
  0
LINE
  5
4602
  8
SUNPOU
 62
     4
 10
15063.6585460000005696
 20
8725.2082354124322592
 30
0.0
 11
15063.6585460000005696
 21
9984.318437999998423
 31
0.0
  0
LINE
  5
4603
  8
SUNPOU
 62
     4
 10
8812.6585459999987506
 20
9904.318437999998423
 30
0.0
 11
15063.6585460000005696
 21
9904.318437999998423
 31
0.0
  0
LINE
  5
4607
  8
SUNPOU
 62
     4
 10
14913.6597989999991114
 20
8651.5491579999998066
 30
0.0
 11
14913.6597989999991114
 21
9584.3200880000003963
 31
0.0
  0
LINE
  5
4608
  8
SUNPOU
 62
     4
 10
15063.6585460000005696
 20
8725.2082354124322592
 30
0.0
 11
15063.6585460000005696
 21
9584.3200880000003963
 31
0.0
  0
LINE
  5
4609
  8
SUNPOU
 62
     4
 10
14913.6597989999991114
 20
9504.3200880000003963
 30
0.0
 11
14673.6597989999991114
 21
9504.3200880000003963
 31
0.0
  0
LINE
  5
460A
  8
SUNPOU
 62
     4
 10
15063.6585460000005696
 20
9504.3200880000003963
 30
0.0
 11
15303.6585460000005696
 21
9504.3200880000003963
 31
0.0
  0
LINE
  5
460C
  8
SUNPOU
 62
     4
 10
14913.6597989999991114
 20
9504.3200880000003963
 30
0.0
 11
15063.6585460000005696
 21
9504.3200880000003963
 31
0.0
  0
LINE
  5
460F
  8
SUNPOU
 62
     4
 10
8992.6572919999980513
 20
8469.4007859999983339
 30
0.0
 11
8992.6572919999980513
 21
9584.3200880000003963
 31
0.0
  0
LINE
  5
4610
  8
SUNPOU
 62
     4
 10
14913.6597989999991114
 20
8651.5491579999998066
 30
0.0
 11
14913.6597989999991114
 21
9584.3200880000003963
 31
0.0
  0
LINE
  5
4611
  8
SUNPOU
 62
     4
 10
8992.6572919999980513
 20
9504.3200880000003963
 30
0.0
 11
14913.6597989999991114
 21
9504.3200880000003963
 31
0.0
  0
LINE
  5
4615
  8
SUNPOU
 62
     4
 10
8812.6585459999987506
 20
8593.318412000002354
 30
0.0
 11
8812.6585459999987506
 21
9584.3200880000003963
 31
0.0
  0
LINE
  5
4616
  8
SUNPOU
 62
     4
 10
8992.6572919999980513
 20
8469.4007859999983339
 30
0.0
 11
8992.6572919999980513
 21
9584.3200880000003963
 31
0.0
  0
LINE
  5
4617
  8
SUNPOU
 62
     4
 10
8812.6585459999987506
 20
9504.3200880000003963
 30
0.0
 11
8572.6585460000005696
 21
9504.3200880000003963
 31
0.0
  0
LINE
  5
4618
  8
SUNPOU
 62
     4
 10
8992.6572919999980513
 20
9504.3200880000003963
 30
0.0
 11
9232.6572919999962323
 21
9504.3200880000003963
 31
0.0
  0
LINE
  5
461A
  8
SUNPOU
 62
     4
 10
8812.6585459999987506
 20
9504.3200880000003963
 30
0.0
 11
8992.6572919999980513
 21
9504.3200880000003963
 31
0.0
  0
LINE
  5
461D
  8
SUNPOU
 62
     4
 10
8905.1585460000023886
 20
6356.3194020000037199
 30
0.0
 11
7822.6601280000058978
 21
6356.3194020000037199
 31
0.0
  0
LINE
  5
461E
  8
SUNPOU
 62
     4
 10
8732.6605239999935293
 20
8512.8194020000028104
 30
0.0
 11
7822.6601280000058978
 21
8512.8194020000028104
 31
0.0
  0
LINE
  5
461F
  8
SUNPOU
 62
     4
 10
7902.6601280000049883
 20
6356.3194020000037199
 30
0.0
 11
7902.6601280000049883
 21
8512.8194020000028104
 31
0.0
  0
LINE
  5
4623
  8
SUNPOU
 62
     4
 10
15006.1585460000096646
 20
6356.3194020000037199
 30
0.0
 11
16083.6579509999992297
 21
6356.3194020000037199
 31
0.0
  0
LINE
  5
4624
  8
SUNPOU
 62
     4
 10
15098.4648145993705839
 20
8704.8194019999955344
 30
0.0
 11
16083.6579509999992297
 21
8704.8194019999955344
 31
0.0
  0
LINE
  5
4625
  8
SUNPOU
 62
     4
 10
16003.6579509999992297
 20
6356.3194020000037199
 30
0.0
 11
16003.6579509999992297
 21
8704.8194019999955344
 31
0.0
  0
LINE
  5
4629
  8
SUNPOU
 62
     4
 10
8992.6585460000005696
 20
6276.3189070000016727
 30
0.0
 11
8992.6585460000005696
 21
4576.3192370000006122
 31
0.0
  0
LINE
  5
462A
  8
SUNPOU
 62
     4
 10
14913.6585460000005696
 20
6276.3189070000016727
 30
0.0
 11
14913.6585460000005696
 21
4576.3192370000006122
 31
0.0
  0
LINE
  5
462B
  8
SUNPOU
 62
     4
 10
8992.6585460000005696
 20
4656.3192370000006122
 30
0.0
 11
14913.6585460000005696
 21
4656.3192370000006122
 31
0.0
  0
LINE
  5
462F
  8
SUNPOU
 62
     4
 10
14871.1585460000005696
 20
5913.6666490000034173
 30
0.0
 11
14871.1585460000005696
 21
4976.3190720000011424
 31
0.0
  0
LINE
  5
4630
  8
SUNPOU
 62
     4
 10
14913.6585460000005696
 20
6276.3189070000016727
 30
0.0
 11
14913.6585460000005696
 21
4976.3190720000011424
 31
0.0
  0
LINE
  5
4631
  8
SUNPOU
 62
     4
 10
14871.1585460000005696
 20
5056.3190720000011424
 30
0.0
 11
14631.1585460000005696
 21
5056.3190720000011424
 31
0.0
  0
LINE
  5
4632
  8
SUNPOU
 62
     4
 10
14913.6585460000005696
 20
5056.3190720000011424
 30
0.0
 11
15153.6585460000005696
 21
5056.3190720000011424
 31
0.0
  0
LINE
  5
4634
  8
SUNPOU
 62
     4
 10
14871.1585460000005696
 20
5056.3190720000011424
 30
0.0
 11
14913.6585460000005696
 21
5056.3190720000011424
 31
0.0
  0
LINE
  5
4637
  8
SUNPOU
 62
     4
 10
9035.1585460000005696
 20
5913.6666490000034173
 30
0.0
 11
9035.1585460000005696
 21
4976.3190720000011424
 31
0.0
  0
LINE
  5
4638
  8
SUNPOU
 62
     4
 10
8992.6585460000005696
 20
6276.3189070000016727
 30
0.0
 11
8992.6585460000005696
 21
4976.3190720000011424
 31
0.0
  0
LINE
  5
4639
  8
SUNPOU
 62
     4
 10
9035.1585460000005696
 20
5056.3190720000011424
 30
0.0
 11
9275.1585460000005696
 21
5056.3190720000011424
 31
0.0
  0
LINE
  5
463A
  8
SUNPOU
 62
     4
 10
8992.6585460000005696
 20
5056.3190720000011424
 30
0.0
 11
8752.6585460000005696
 21
5056.3190720000011424
 31
0.0
  0
LINE
  5
463C
  8
SUNPOU
 62
     4
 10
9035.1585460000005696
 20
5056.3190720000011424
 30
0.0
 11
8992.6585460000005696
 21
5056.3190720000011424
 31
0.0
  0
LINE
  5
463F
  8
SUNPOU
 62
     4
 10
11953.1585460000005696
 20
5913.6666490000034173
 30
0.0
 11
11953.1585460000005696
 21
4976.3190720000011424
 31
0.0
  0
LINE
  5
4640
  8
SUNPOU
 62
     4
 10
9035.1585460000005696
 20
5913.6666490000034173
 30
0.0
 11
9035.1585460000005696
 21
4976.3190720000011424
 31
0.0
  0
LINE
  5
4641
  8
SUNPOU
 62
     4
 10
11953.1585460000005696
 20
5056.3190720000011424
 30
0.0
 11
9035.1585460000005696
 21
5056.3190720000011424
 31
0.0
  0
LINE
  5
4645
  8
SUNPOU
 62
     4
 10
11953.1585460000005696
 20
5913.6666490000034173
 30
0.0
 11
11953.1585460000005696
 21
4976.3190720000011424
 31
0.0
  0
LINE
  5
4646
  8
SUNPOU
 62
     4
 10
14871.1585460000005696
 20
5913.6666490000034173
 30
0.0
 11
14871.1585460000005696
 21
4976.3190720000011424
 31
0.0
  0
LINE
  5
4647
  8
SUNPOU
 62
     4
 10
11953.1585460000005696
 20
5056.3190720000011424
 30
0.0
 11
14871.1585460000005696
 21
5056.3190720000011424
 31
0.0
  0
TEXT
  5
464D
  8
SUNPOU
  6
CONTINUOUS
 62
     7
 10
18758.4146689999797672
 20
6420.2991352912722505
 30
0.0
 40
160.0
  1
有効開口高サ 1891.5
 50
90.0
  0
TEXT
  5
464E
  8
SUNPOU
  6
CONTINUOUS
 62
     7
 10
18358.4123599999802536
 20
6549.2363161666598899
 30
0.0
 40
160.0
  1
2348.5（2588.5）
 50
90.0
  0
TEXT
  5
465D
  8
SUNPOU
  6
CONTINUOUS
 62
     7
 10
20421.3306756666497677
 20
5536.3200619999970513
 30
0.0
 40
160.0
  1
有効開口巾 3080.5
  0
TEXT
  5
4660
  8
SUNPOU
  6
CONTINUOUS
 62
     7
 10
23689.8306756666606816
 20
5536.3200619999970513
 30
0.0
 40
160.0
  1
有効開口巾 3080.5
  0
TEXT
  5
4663
  8
SUNPOU
  6
CONTINUOUS
 62
     7
 10
24191.1640089999891643
 20
5136.3200619999988703
 30
0.0
 40
160.0
  1
3268.5
  0
TEXT
  5
4666
  8
SUNPOU
  6
CONTINUOUS
 62
     7
 10
20922.6640089999782504
 20
5136.3200619999988703
 30
0.0
 40
160.0
  1
3268.5
  0
TEXT
  5
466B
  8
SUNPOU
  6
CONTINUOUS
 62
     7
 10
26353.9569582588410412
 20
5136.3200619999988703
 30
0.0
 40
160.0
  1
42.5
  0
TEXT
  5
466E
  8
SUNPOU
  6
CONTINUOUS
 62
     7
 10
19079.8750187411314982
 20
5136.3200619999988703
 30
0.0
 40
160.0
  1
42.5
  0
TEXT
  5
466F
  8
SUNPOU
  6
CONTINUOUS
 62
     7
 10
22663.5806756666497677
 20
4736.3202269999928831
 30
0.0
 40
160.0
  1
6622
  0
TEXT
  5
4672
  8
SUNPOU
  6
CONTINUOUS
 62
     7
 10
18678.95943299999999
 20
18895.5642473333282396
 30
0.0
 40
160.0
  1
1459
 50
90.0
  0
TEXT
  5
4675
  8
SUNPOU
  6
CONTINUOUS
 62
     7
 10
18678.95943299999999
 20
17436.5642473333282396
 30
0.0
 40
160.0
  1
1459
 50
90.0
  0
TEXT
  5
4678
  8
SUNPOU
  6
CONTINUOUS
 62
     7
 10
18678.95943299999999
 20
15977.684503083330128
 30
0.0
 40
160.0
  1
1459
 50
90.0
  0
TEXT
  5
467B
  8
SUNPOU
  6
CONTINUOUS
 62
     7
 10
18678.95943299999999
 20
14518.684503083330128
 30
0.0
 40
160.0
  1
1459
 50
90.0
  0
TEXT
  5
4683
  8
SUNPOU
  6
CONTINUOUS
 62
     7
 10
8065.9641529767541215
 20
20744.2360609999996086
 30
0.0
 40
160.0
  1
85.5
  0
TEXT
  5
4684
  8
SUNPOU
  6
CONTINUOUS
 62
     7
 10
9916.7108590000116237
 20
20744.2360609999996086
 30
0.0
 40
160.0
  1
3268.5
  0
TEXT
  5
4689
  8
SUNPOU
  6
CONTINUOUS
 62
     7
 10
15355.9456890232395381
 20
20744.2360609999996086
 30
0.0
 40
160.0
  1
85.5
  0
TEXT
  5
468A
  8
SUNPOU
  6
CONTINUOUS
 62
     7
 10
13185.1989829999802168
 20
20744.2360609999996086
 30
0.0
 40
160.0
  1
3268.5
  0
TEXT
  5
468F
  8
SUNPOU
  6
CONTINUOUS
 62
     7
 10
8072.9551449999980832
 20
20234.226823000011791
 30
0.0
 40
160.0
  1
20
 50
90.0
  0
TEXT
  5
4692
  8
SUNPOU
  6
CONTINUOUS
 62
     7
 10
7672.9551449999917168
 20
20203.186098807680537
 30
0.0
 40
160.0
  1
222.5
 50
90.0
  0
TEXT
  5
4693
  8
SUNPOU
  6
CONTINUOUS
 62
     7
 10
7672.9551450000099067
 20
18895.5642473333282396
 30
0.0
 40
160.0
  1
1459
 50
90.0
  0
TEXT
  5
4696
  8
SUNPOU
  6
CONTINUOUS
 62
     7
 10
7672.9551450000099067
 20
17436.5642473333282396
 30
0.0
 40
160.0
  1
1459
 50
90.0
  0
TEXT
  5
4699
  8
SUNPOU
  6
CONTINUOUS
 62
     7
 10
7672.9551450000108161
 20
15977.5642473333300586
 30
0.0
 40
160.0
  1
1459
 50
90.0
  0
TEXT
  5
469C
  8
SUNPOU
  6
CONTINUOUS
 62
     7
 10
7672.9551450000108161
 20
14518.5642473333300586
 30
0.0
 40
160.0
  1
1459
 50
90.0
  0
TEXT
  5
46A1
  8
SUNPOU
  6
CONTINUOUS
 62
     7
 10
7672.9551449999917168
 20
13247.7779037026102742
 30
0.0
 40
160.0
  1
192.5
 50
90.0
  0
TEXT
  5
46A4
  8
SUNPOU
  6
CONTINUOUS
 62
     7
 10
19090.3603376179016777
 20
13164.2828300000001036
 30
0.0
 40
160.0
  1
42.5
  0
TEXT
  5
46A7
  8
SUNPOU
  6
CONTINUOUS
 62
     7
 10
26343.4676823820809659
 20
13164.2828300000001036
 30
0.0
 40
160.0
  1
42.5
  0
TEXT
  5
46AA
  8
SUNPOU
  6
CONTINUOUS
 62
     7
 10
25627.3603376179089537
 20
13164.2828300000001036
 30
0.0
 40
160.0
  1
42.5
  0
TEXT
  5
46AD
  8
SUNPOU
  6
CONTINUOUS
 62
     7
 10
19806.4676823820809659
 20
13164.2828300000001036
 30
0.0
 40
160.0
  1
42.5
  0
TEXT
  5
46AE
  8
SUNPOU
  6
CONTINUOUS
 62
     7
 10
22663.5806766666610201
 20
12764.2828299999891897
 30
0.0
 40
160.0
  1
6622
  0
TEXT
  5
46B1
  8
SUNPOU
  6
CONTINUOUS
 62
     7
 10
27237.9136140000191517
 20
14221.3975806666494464
 30
0.0
 40
160.0
  1
758
 50
90.0
  0
TEXT
  5
46B4
  8
SUNPOU
  6
CONTINUOUS
 62
     7
 10
27237.9136140000191517
 20
14991.0178364166604297
 30
0.0
 40
160.0
  1
701
 50
90.0
  0
TEXT
  5
46B7
  8
SUNPOU
  6
CONTINUOUS
 62
     7
 10
27237.9136140000191517
 20
15692.0178364166604297
 30
0.0
 40
160.0
  1
701
 50
90.0
  0
TEXT
  5
46BA
  8
SUNPOU
  6
CONTINUOUS
 62
     7
 10
27237.9136140000191517
 20
16381.3975806666603603
 30
0.0
 40
160.0
  1
758
 50
90.0
  0
TEXT
  5
46BD
  8
SUNPOU
  6
CONTINUOUS
 62
     7
 10
27237.9136140000191517
 20
17139.3975806666603603
 30
0.0
 40
160.0
  1
758
 50
90.0
  0
TEXT
  5
46C0
  8
SUNPOU
  6
CONTINUOUS
 62
     7
 10
27237.9136140000191517
 20
17908.8975806666603603
 30
0.0
 40
160.0
  1
701
 50
90.0
  0
TEXT
  5
46C3
  8
SUNPOU
  6
CONTINUOUS
 62
     7
 10
27237.9136140000191517
 20
18609.8975806666603603
 30
0.0
 40
160.0
  1
701
 50
90.0
  0
TEXT
  5
46C6
  8
SUNPOU
  6
CONTINUOUS
 62
     7
 10
27237.9136140000191517
 20
19299.3975806666603603
 30
0.0
 40
160.0
  1
758
 50
90.0
  0
TEXT
  5
46C9
  8
SUNPOU
  6
CONTINUOUS
 62
     7
 10
27637.9136140000191517
 20
18166.0642473333282396
 30
0.0
 40
160.0
  1
2918
 50
90.0
  0
TEXT
  5
46CC
  8
SUNPOU
  6
CONTINUOUS
 62
     7
 10
27637.9136140000191517
 20
15248.0642473333100497
 30
0.0
 40
160.0
  1
2918
 50
90.0
  0
TEXT
  5
46CF
  8
SUNPOU
  6
CONTINUOUS
 62
     7
 10
28037.9136140000191517
 20
16707.0642473333282396
 30
0.0
 40
160.0
  1
5921
 50
90.0
  0
TEXT
  5
46D4
  8
SUNPOU
  6
CONTINUOUS
 62
     7
 10
27637.9136140000009618
 20
20027.7844453967882146
 30
0.0
 40
160.0
  1
42.5
 50
90.0
  0
TEXT
  5
46D7
  8
SUNPOU
  6
CONTINUOUS
 62
     7
 10
27637.9136140000009618
 20
13439.6773826032094803
 30
0.0
 40
160.0
  1
42.5
 50
90.0
  0
TEXT
  5
46DA
  8
SUNPOU
  6
CONTINUOUS
 62
     7
 10
23057.7473433333288995
 20
20744.2321020000308636
 30
0.0
 40
160.0
  1
407.5
  0
TEXT
  5
46DB
  8
SUNPOU
  6
CONTINUOUS
 62
     7
 10
25633.0811714166702586
 20
20744.2321020000308636
 30
0.0
 40
160.0
  1
758
  0
TEXT
  5
46DE
  8
SUNPOU
  6
CONTINUOUS
 62
     7
 10
24943.5806766666682961
 20
20744.2321020000308636
 30
0.0
 40
160.0
  1
701
  0
TEXT
  5
46E1
  8
SUNPOU
  6
CONTINUOUS
 62
     7
 10
24242.5806766666682961
 20
20744.2321020000308636
 30
0.0
 40
160.0
  1
701
  0
TEXT
  5
46E6
  8
SUNPOU
  6
CONTINUOUS
 62
     7
 10
23541.5806766666682961
 20
20424.2321020000308636
 30
0.0
 40
160.0
  1
701
  0
TEXT
  5
46E9
  8
SUNPOU
  6
CONTINUOUS
 62
     7
 10
26348.2259895287897962
 20
20744.2321020000308636
 30
0.0
 40
160.0
  1
42.5
  0
TEXT
  5
46EC
  8
SUNPOU
  6
CONTINUOUS
 62
     7
 10
19789.2473433333288995
 20
20744.2321020000308636
 30
0.0
 40
160.0
  1
407.5
  0
TEXT
  5
46EF
  8
SUNPOU
  6
CONTINUOUS
 62
     7
 10
19085.6020304712001234
 20
20744.2321020000308636
 30
0.0
 40
160.0
  1
42.5
  0
TEXT
  5
46F0
  8
SUNPOU
  6
CONTINUOUS
 62
     7
 10
22364.5811714166702586
 20
20744.2321020000308636
 30
0.0
 40
160.0
  1
758
  0
TEXT
  5
46F3
  8
SUNPOU
  6
CONTINUOUS
 62
     7
 10
21675.0806766666610201
 20
20744.2321020000308636
 30
0.0
 40
160.0
  1
701
  0
TEXT
  5
46F6
  8
SUNPOU
  6
CONTINUOUS
 62
     7
 10
20974.0806766666682961
 20
20744.2321020000308636
 30
0.0
 40
160.0
  1
701
  0
TEXT
  5
46FB
  8
SUNPOU
  6
CONTINUOUS
 62
     7
 10
20273.0806766666682961
 20
20424.2321020000308636
 30
0.0
 40
160.0
  1
701
  0
TEXT
  5
46FC
  8
SUNPOU
  6
CONTINUOUS
 62
     7
 10
11671.4918793333308713
 20
9984.318437999998423
 30
0.0
 40
160.0
  1
6251
  0
TEXT
  5
4701
  8
SUNPOU
  6
CONTINUOUS
 62
     7
 10
15130.325212666659354
 20
9584.3200880000003963
 30
0.0
 40
160.0
  1
150
  0
TEXT
  5
4702
  8
SUNPOU
  6
CONTINUOUS
 62
     7
 10
11686.491878833330702
 20
9584.3200880000003963
 30
0.0
 40
160.0
  1
5921
  0
TEXT
  5
4707
  8
SUNPOU
  6
CONTINUOUS
 62
     7
 10
8399.325212666664811
 20
9584.3200880000003963
 30
0.0
 40
160.0
  1
180
  0
TEXT
  5
4708
  8
SUNPOU
  6
CONTINUOUS
 62
     7
 10
7822.6601280000058978
 20
6479.9027353333322026
 30
0.0
 40
160.0
  1
2156.5（2396.5）
 50
90.0
  0
TEXT
  5
470B
  8
SUNPOU
  6
CONTINUOUS
 62
     7
 10
15923.6579509999992297
 20
6549.2360686666634138
 30
0.0
 40
160.0
  1
2348.5（2588.5）
 50
90.0
  0
TEXT
  5
470E
  8
SUNPOU
  6
CONTINUOUS
 62
     7
 10
11686.4918793333308713
 20
4736.3192370000006122
 30
0.0
 40
160.0
  1
5921
  0
TEXT
  5
4713
  8
SUNPOU
  6
CONTINUOUS
 62
     7
 10
15051.9771833098093339
 20
5136.3190720000011424
 30
0.0
 40
160.0
  1
42.5
  0
TEXT
  5
4716
  8
SUNPOU
  6
CONTINUOUS
 62
     7
 10
8395.4848369036917575
 20
5136.3190720000011424
 30
0.0
 40
160.0
  1
42.5
  0
TEXT
  5
4717
  8
SUNPOU
  6
CONTINUOUS
 62
     7
 10
10227.4918793333308713
 20
5136.3190720000011424
 30
0.0
 40
160.0
  1
2918
  0
TEXT
  5
471A
  8
SUNPOU
  6
CONTINUOUS
 62
     7
 10
13145.4918793333308713
 20
5136.3190720000011424
 30
0.0
 40
160.0
  1
2918
  0
ARC
  5
471D
  8
0
  6
BYBLOCK
 62
     0
 10
18838.4146689999906812
 20
8247.8198970000048575
 30
0.0
 40
15.0
 50
270.0
 51
90.0
  0
ARC
  5
471E
  8
0
  6
BYBLOCK
 62
     0
 10
18838.4146689999906812
 20
8247.8198970000048575
 30
0.0
 40
15.0
 50
90.0
 51
270.0
  0
ARC
  5
471F
  8
0
  6
BYBLOCK
 62
     0
 10
18838.4146690000015951
 20
6356.3198970000003101
 30
0.0
 40
15.0
 50
90.0
 51
270.0
  0
ARC
  5
4720
  8
0
  6
BYBLOCK
 62
     0
 10
18838.4146690000015951
 20
6356.3198970000003101
 30
0.0
 40
15.0
 50
270.0
 51
90.0
  0
ARC
  5
4721
  8
0
  6
BYBLOCK
 62
     0
 10
18438.4123599999802536
 20
8704.8194019999955344
 30
0.0
 40
15.0
 50
270.0
 51
90.0
  0
ARC
  5
4722
  8
0
  6
BYBLOCK
 62
     0
 10
18438.4123599999802536
 20
8704.8194019999955344
 30
0.0
 40
15.0
 50
90.0
 51
270.0
  0
ARC
  5
4723
  8
0
  6
BYBLOCK
 62
     0
 10
18438.4123599999911676
 20
6356.3198970000003101
 30
0.0
 40
15.0
 50
90.0
 51
270.0
  0
ARC
  5
4724
  8
0
  6
BYBLOCK
 62
     0
 10
18438.4123599999911676
 20
6356.3198970000003101
 30
0.0
 40
15.0
 50
270.0
 51
90.0
  0
ARC
  5
4735
  8
0
  6
BYBLOCK
 62
     0
 10
22862.9140089999709744
 20
5456.3200619999988703
 30
0.0
 40
15.0
 50
180.0
 51
0.0
  0
ARC
  5
4736
  8
0
  6
BYBLOCK
 62
     0
 10
22862.9140089999709744
 20
5456.3200619999988703
 30
0.0
 40
15.0
 50
0.0
 51
180.0
  0
ARC
  5
4737
  8
0
  6
BYBLOCK
 62
     0
 10
19782.4140089999709744
 20
5456.3200619999988703
 30
0.0
 40
15.0
 50
0.0
 51
180.0
  0
ARC
  5
4738
  8
0
  6
BYBLOCK
 62
     0
 10
19782.4140089999709744
 20
5456.3200619999988703
 30
0.0
 40
15.0
 50
180.0
 51
0.0
  0
ARC
  5
4739
  8
0
  6
BYBLOCK
 62
     0
 10
26131.4140089999891643
 20
5456.3200619999988703
 30
0.0
 40
15.0
 50
180.0
 51
0.0
  0
ARC
  5
473A
  8
0
  6
BYBLOCK
 62
     0
 10
26131.4140089999891643
 20
5456.3200619999988703
 30
0.0
 40
15.0
 50
0.0
 51
180.0
  0
ARC
  5
473B
  8
0
  6
BYBLOCK
 62
     0
 10
23050.9140089999782504
 20
5456.3200619999988703
 30
0.0
 40
15.0
 50
0.0
 51
180.0
  0
ARC
  5
473C
  8
0
  6
BYBLOCK
 62
     0
 10
23050.9140089999782504
 20
5456.3200619999988703
 30
0.0
 40
15.0
 50
180.0
 51
0.0
  0
ARC
  5
473D
  8
0
  6
BYBLOCK
 62
     0
 10
26225.4140089999782504
 20
5056.3200619999988703
 30
0.0
 40
15.0
 50
180.0
 51
0.0
  0
ARC
  5
473E
  8
0
  6
BYBLOCK
 62
     0
 10
26225.4140089999782504
 20
5056.3200619999988703
 30
0.0
 40
15.0
 50
0.0
 51
180.0
  0
ARC
  5
473F
  8
0
  6
BYBLOCK
 62
     0
 10
22956.9140089999891643
 20
5056.3200619999988703
 30
0.0
 40
15.0
 50
0.0
 51
180.0
  0
ARC
  5
4740
  8
0
  6
BYBLOCK
 62
     0
 10
22956.9140089999891643
 20
5056.3200619999988703
 30
0.0
 40
15.0
 50
180.0
 51
0.0
  0
ARC
  5
4741
  8
0
  6
BYBLOCK
 62
     0
 10
22956.9140089999891643
 20
5056.3200619999988703
 30
0.0
 40
15.0
 50
180.0
 51
0.0
  0
ARC
  5
4742
  8
0
  6
BYBLOCK
 62
     0
 10
22956.9140089999891643
 20
5056.3200619999988703
 30
0.0
 40
15.0
 50
0.0
 51
180.0
  0
ARC
  5
4743
  8
0
  6
BYBLOCK
 62
     0
 10
19688.4140089999709744
 20
5056.3200619999988703
 30
0.0
 40
15.0
 50
0.0
 51
180.0
  0
ARC
  5
4744
  8
0
  6
BYBLOCK
 62
     0
 10
19688.4140089999709744
 20
5056.3200619999988703
 30
0.0
 40
15.0
 50
180.0
 51
0.0
  0
ARC
  5
4745
  8
0
  6
BYBLOCK
 62
     0
 10
26267.9179680000015651
 20
5056.3200619999988703
 30
0.0
 40
15.0
 50
0.0
 51
180.0
  0
ARC
  5
4746
  8
0
  6
BYBLOCK
 62
     0
 10
26267.9179680000015651
 20
5056.3200619999988703
 30
0.0
 40
15.0
 50
180.0
 51
0.0
  0
ARC
  5
4747
  8
0
  6
BYBLOCK
 62
     0
 10
26225.4179680000015651
 20
5056.3200619999988703
 30
0.0
 40
15.0
 50
180.0
 51
0.0
  0
ARC
  5
4748
  8
0
  6
BYBLOCK
 62
     0
 10
26225.4179680000015651
 20
5056.3200619999988703
 30
0.0
 40
15.0
 50
0.0
 51
180.0
  0
ARC
  5
4749
  8
0
  6
BYBLOCK
 62
     0
 10
19645.9140089999709744
 20
5056.3200619999988703
 30
0.0
 40
15.0
 50
180.0
 51
0.0
  0
ARC
  5
474A
  8
0
  6
BYBLOCK
 62
     0
 10
19645.9140089999709744
 20
5056.3200619999988703
 30
0.0
 40
15.0
 50
0.0
 51
180.0
  0
ARC
  5
474B
  8
0
  6
BYBLOCK
 62
     0
 10
19688.4140089999709744
 20
5056.3200619999988703
 30
0.0
 40
15.0
 50
0.0
 51
180.0
  0
ARC
  5
474C
  8
0
  6
BYBLOCK
 62
     0
 10
19688.4140089999709744
 20
5056.3200619999988703
 30
0.0
 40
15.0
 50
180.0
 51
0.0
  0
ARC
  5
474D
  8
0
  6
BYBLOCK
 62
     0
 10
26267.9140089999709744
 20
4656.3202269999974305
 30
0.0
 40
15.0
 50
180.0
 51
0.0
  0
ARC
  5
474E
  8
0
  6
BYBLOCK
 62
     0
 10
26267.9140089999709744
 20
4656.3202269999974305
 30
0.0
 40
15.0
 50
0.0
 51
180.0
  0
ARC
  5
474F
  8
0
  6
BYBLOCK
 62
     0
 10
19645.9140089999709744
 20
4656.3202269999974305
 30
0.0
 40
15.0
 50
0.0
 51
180.0
  0
ARC
  5
4750
  8
0
  6
BYBLOCK
 62
     0
 10
19645.9140089999709744
 20
4656.3202269999974305
 30
0.0
 40
15.0
 50
180.0
 51
0.0
  0
ARC
  5
4751
  8
0
  6
BYBLOCK
 62
     0
 10
18758.95943299999999
 20
19891.7309140000106709
 30
0.0
 40
15.0
 50
270.0
 51
90.0
  0
ARC
  5
4752
  8
0
  6
BYBLOCK
 62
     0
 10
18758.95943299999999
 20
19891.7309140000106709
 30
0.0
 40
15.0
 50
90.0
 51
270.0
  0
ARC
  5
4753
  8
0
  6
BYBLOCK
 62
     0
 10
18758.95943299999999
 20
18432.7309140000106709
 30
0.0
 40
15.0
 50
90.0
 51
270.0
  0
ARC
  5
4754
  8
0
  6
BYBLOCK
 62
     0
 10
18758.95943299999999
 20
18432.7309140000106709
 30
0.0
 40
15.0
 50
270.0
 51
90.0
  0
ARC
  5
4755
  8
0
  6
BYBLOCK
 62
     0
 10
18758.95943299999999
 20
18432.7309140000106709
 30
0.0
 40
15.0
 50
270.0
 51
90.0
  0
ARC
  5
4756
  8
0
  6
BYBLOCK
 62
     0
 10
18758.95943299999999
 20
18432.7309140000106709
 30
0.0
 40
15.0
 50
90.0
 51
270.0
  0
ARC
  5
4757
  8
0
  6
BYBLOCK
 62
     0
 10
18758.95943299999999
 20
16973.7309139999997569
 30
0.0
 40
15.0
 50
90.0
 51
270.0
  0
ARC
  5
4758
  8
0
  6
BYBLOCK
 62
     0
 10
18758.95943299999999
 20
16973.7309139999997569
 30
0.0
 40
15.0
 50
270.0
 51
90.0
  0
ARC
  5
4759
  8
0
  6
BYBLOCK
 62
     0
 10
18758.95943299999999
 20
16973.7309139999997569
 30
0.0
 40
15.0
 50
270.0
 51
90.0
  0
ARC
  5
475A
  8
0
  6
BYBLOCK
 62
     0
 10
18758.95943299999999
 20
16973.7309139999997569
 30
0.0
 40
15.0
 50
90.0
 51
270.0
  0
ARC
  5
475B
  8
0
  6
BYBLOCK
 62
     0
 10
18758.95943299999999
 20
15514.9714255000108096
 30
0.0
 40
15.0
 50
90.0
 51
270.0
  0
ARC
  5
475C
  8
0
  6
BYBLOCK
 62
     0
 10
18758.95943299999999
 20
15514.9714255000108096
 30
0.0
 40
15.0
 50
270.0
 51
90.0
  0
ARC
  5
475D
  8
0
  6
BYBLOCK
 62
     0
 10
18758.95943299999999
 20
15514.9714255000108096
 30
0.0
 40
15.0
 50
270.0
 51
90.0
  0
ARC
  5
475E
  8
0
  6
BYBLOCK
 62
     0
 10
18758.95943299999999
 20
15514.9714255000108096
 30
0.0
 40
15.0
 50
90.0
 51
270.0
  0
ARC
  5
475F
  8
0
  6
BYBLOCK
 62
     0
 10
18758.95943299999999
 20
14055.730913999990662
 30
0.0
 40
15.0
 50
90.0
 51
270.0
  0
ARC
  5
4760
  8
0
  6
BYBLOCK
 62
     0
 10
18758.95943299999999
 20
14055.730913999990662
 30
0.0
 40
15.0
 50
270.0
 51
90.0
  0
ARC
  5
4765
  8
0
  6
BYBLOCK
 62
     0
 10
8596.9608590000134427
 20
20664.2360609999996086
 30
0.0
 40
15.0
 50
180.0
 51
0.0
  0
ARC
  5
4766
  8
0
  6
BYBLOCK
 62
     0
 10
8596.9608590000134427
 20
20664.2360609999996086
 30
0.0
 40
15.0
 50
0.0
 51
180.0
  0
ARC
  5
4767
  8
0
  6
BYBLOCK
 62
     0
 10
8682.4608590000134427
 20
20664.2360609999996086
 30
0.0
 40
15.0
 50
0.0
 51
180.0
  0
ARC
  5
4768
  8
0
  6
BYBLOCK
 62
     0
 10
8682.4608590000134427
 20
20664.2360609999996086
 30
0.0
 40
15.0
 50
180.0
 51
0.0
  0
ARC
  5
4769
  8
0
  6
BYBLOCK
 62
     0
 10
8682.4608590000134427
 20
20664.2360609999996086
 30
0.0
 40
15.0
 50
0.0
 51
180.0
  0
ARC
  5
476A
  8
0
  6
BYBLOCK
 62
     0
 10
8682.4608590000134427
 20
20664.2360609999996086
 30
0.0
 40
15.0
 50
180.0
 51
0.0
  0
ARC
  5
476B
  8
0
  6
BYBLOCK
 62
     0
 10
11950.9608590000098047
 20
20664.2360609999996086
 30
0.0
 40
15.0
 50
180.0
 51
0.0
  0
ARC
  5
476C
  8
0
  6
BYBLOCK
 62
     0
 10
11950.9608590000098047
 20
20664.2360609999996086
 30
0.0
 40
15.0
 50
0.0
 51
180.0
  0
ARC
  5
476D
  8
0
  6
BYBLOCK
 62
     0
 10
15304.9489829999693029
 20
20664.2360609999996086
 30
0.0
 40
15.0
 50
0.0
 51
180.0
  0
ARC
  5
476E
  8
0
  6
BYBLOCK
 62
     0
 10
15304.9489829999693029
 20
20664.2360609999996086
 30
0.0
 40
15.0
 50
180.0
 51
0.0
  0
ARC
  5
476F
  8
0
  6
BYBLOCK
 62
     0
 10
15219.4489829999802168
 20
20664.2360609999996086
 30
0.0
 40
15.0
 50
180.0
 51
0.0
  0
ARC
  5
4770
  8
0
  6
BYBLOCK
 62
     0
 10
15219.4489829999802168
 20
20664.2360609999996086
 30
0.0
 40
15.0
 50
0.0
 51
180.0
  0
ARC
  5
4771
  8
0
  6
BYBLOCK
 62
     0
 10
15219.4489829999802168
 20
20664.2360609999996086
 30
0.0
 40
15.0
 50
180.0
 51
0.0
  0
ARC
  5
4772
  8
0
  6
BYBLOCK
 62
     0
 10
15219.4489829999802168
 20
20664.2360609999996086
 30
0.0
 40
15.0
 50
0.0
 51
180.0
  0
ARC
  5
4773
  8
0
  6
BYBLOCK
 62
     0
 10
11950.9489829999802168
 20
20664.2360609999996086
 30
0.0
 40
15.0
 50
0.0
 51
180.0
  0
ARC
  5
4774
  8
0
  6
BYBLOCK
 62
     0
 10
11950.9489829999802168
 20
20664.2360609999996086
 30
0.0
 40
15.0
 50
180.0
 51
0.0
  0
ARC
  5
4775
  8
0
  6
BYBLOCK
 62
     0
 10
8152.9551450000053592
 20
20114.226823000011791
 30
0.0
 40
15.0
 50
90.0
 51
270.0
  0
ARC
  5
4776
  8
0
  6
BYBLOCK
 62
     0
 10
8152.9551450000053592
 20
20114.226823000011791
 30
0.0
 40
15.0
 50
270.0
 51
90.0
  0
ARC
  5
4777
  8
0
  6
BYBLOCK
 62
     0
 10
8152.9551450000053592
 20
20094.226823000011791
 30
0.0
 40
15.0
 50
270.0
 51
90.0
  0
ARC
  5
4778
  8
0
  6
BYBLOCK
 62
     0
 10
8152.9551450000053592
 20
20094.226823000011791
 30
0.0
 40
15.0
 50
90.0
 51
270.0
  0
ARC
  5
4779
  8
0
  6
BYBLOCK
 62
     0
 10
7752.9551450000071782
 20
20114.226823000011791
 30
0.0
 40
15.0
 50
90.0
 51
270.0
  0
ARC
  5
477A
  8
0
  6
BYBLOCK
 62
     0
 10
7752.9551450000071782
 20
20114.226823000011791
 30
0.0
 40
15.0
 50
270.0
 51
90.0
  0
ARC
  5
477B
  8
0
  6
BYBLOCK
 62
     0
 10
7752.9551450000071782
 20
19891.7309140000106709
 30
0.0
 40
15.0
 50
270.0
 51
90.0
  0
ARC
  5
477C
  8
0
  6
BYBLOCK
 62
     0
 10
7752.9551450000071782
 20
19891.7309140000106709
 30
0.0
 40
15.0
 50
90.0
 51
270.0
  0
ARC
  5
477D
  8
0
  6
BYBLOCK
 62
     0
 10
7752.9551450000071782
 20
19891.7309140000106709
 30
0.0
 40
15.0
 50
270.0
 51
90.0
  0
ARC
  5
477E
  8
0
  6
BYBLOCK
 62
     0
 10
7752.9551450000071782
 20
19891.7309140000106709
 30
0.0
 40
15.0
 50
90.0
 51
270.0
  0
ARC
  5
477F
  8
0
  6
BYBLOCK
 62
     0
 10
7752.9551450000071782
 20
18432.7309139999997569
 30
0.0
 40
15.0
 50
90.0
 51
270.0
  0
ARC
  5
4780
  8
0
  6
BYBLOCK
 62
     0
 10
7752.9551450000071782
 20
18432.7309139999997569
 30
0.0
 40
15.0
 50
270.0
 51
90.0
  0
ARC
  5
4781
  8
0
  6
BYBLOCK
 62
     0
 10
7752.9551450000071782
 20
18432.7309139999997569
 30
0.0
 40
15.0
 50
270.0
 51
90.0
  0
ARC
  5
4782
  8
0
  6
BYBLOCK
 62
     0
 10
7752.9551450000071782
 20
18432.7309139999997569
 30
0.0
 40
15.0
 50
90.0
 51
270.0
  0
ARC
  5
4783
  8
0
  6
BYBLOCK
 62
     0
 10
7752.9551450000080877
 20
16973.7309139999997569
 30
0.0
 40
15.0
 50
90.0
 51
270.0
  0
ARC
  5
4784
  8
0
  6
BYBLOCK
 62
     0
 10
7752.9551450000080877
 20
16973.7309139999997569
 30
0.0
 40
15.0
 50
270.0
 51
90.0
  0
ARC
  5
4785
  8
0
  6
BYBLOCK
 62
     0
 10
7752.9551450000071782
 20
16973.7309139999997569
 30
0.0
 40
15.0
 50
270.0
 51
90.0
  0
ARC
  5
4786
  8
0
  6
BYBLOCK
 62
     0
 10
7752.9551450000071782
 20
16973.7309139999997569
 30
0.0
 40
15.0
 50
90.0
 51
270.0
  0
ARC
  5
4787
  8
0
  6
BYBLOCK
 62
     0
 10
7752.9551450000071782
 20
15514.7309139999997569
 30
0.0
 40
15.0
 50
90.0
 51
270.0
  0
ARC
  5
4788
  8
0
  6
BYBLOCK
 62
     0
 10
7752.9551450000071782
 20
15514.7309139999997569
 30
0.0
 40
15.0
 50
270.0
 51
90.0
  0
ARC
  5
4789
  8
0
  6
BYBLOCK
 62
     0
 10
7752.9551450000071782
 20
15514.7309139999997569
 30
0.0
 40
15.0
 50
270.0
 51
90.0
  0
ARC
  5
478A
  8
0
  6
BYBLOCK
 62
     0
 10
7752.9551450000071782
 20
15514.7309139999997569
 30
0.0
 40
15.0
 50
90.0
 51
270.0
  0
ARC
  5
478B
  8
0
  6
BYBLOCK
 62
     0
 10
7752.9551450000080877
 20
14055.730913999990662
 30
0.0
 40
15.0
 50
90.0
 51
270.0
  0
ARC
  5
478C
  8
0
  6
BYBLOCK
 62
     0
 10
7752.9551450000080877
 20
14055.730913999990662
 30
0.0
 40
15.0
 50
270.0
 51
90.0
  0
ARC
  5
478D
  8
0
  6
BYBLOCK
 62
     0
 10
7752.9551450000071782
 20
13863.2355990000105521
 30
0.0
 40
15.0
 50
270.0
 51
90.0
  0
ARC
  5
478E
  8
0
  6
BYBLOCK
 62
     0
 10
7752.9551450000071782
 20
13863.2355990000105521
 30
0.0
 40
15.0
 50
90.0
 51
270.0
  0
ARC
  5
478F
  8
0
  6
BYBLOCK
 62
     0
 10
7752.9551450000071782
 20
14055.730913999990662
 30
0.0
 40
15.0
 50
90.0
 51
270.0
  0
ARC
  5
4790
  8
0
  6
BYBLOCK
 62
     0
 10
7752.9551450000071782
 20
14055.730913999990662
 30
0.0
 40
15.0
 50
270.0
 51
90.0
  0
ARC
  5
4791
  8
0
  6
BYBLOCK
 62
     0
 10
19645.9117669999905047
 20
13084.2828300000001036
 30
0.0
 40
15.0
 50
180.0
 51
0.0
  0
ARC
  5
4792
  8
0
  6
BYBLOCK
 62
     0
 10
19645.9117669999905047
 20
13084.2828300000001036
 30
0.0
 40
15.0
 50
0.0
 51
180.0
  0
ARC
  5
4793
  8
0
  6
BYBLOCK
 62
     0
 10
19688.4140100000004168
 20
13084.2828300000001036
 30
0.0
 40
15.0
 50
0.0
 51
180.0
  0
ARC
  5
4794
  8
0
  6
BYBLOCK
 62
     0
 10
19688.4140100000004168
 20
13084.2828300000001036
 30
0.0
 40
15.0
 50
180.0
 51
0.0
  0
ARC
  5
4795
  8
0
  6
BYBLOCK
 62
     0
 10
26267.9162529999994149
 20
13084.2828300000001036
 30
0.0
 40
15.0
 50
0.0
 51
180.0
  0
ARC
  5
4796
  8
0
  6
BYBLOCK
 62
     0
 10
26267.9162529999994149
 20
13084.2828300000001036
 30
0.0
 40
15.0
 50
180.0
 51
0.0
  0
ARC
  5
4797
  8
0
  6
BYBLOCK
 62
     0
 10
26225.4140100000004168
 20
13084.2828300000001036
 30
0.0
 40
15.0
 50
180.0
 51
0.0
  0
ARC
  5
4798
  8
0
  6
BYBLOCK
 62
     0
 10
26225.4140100000004168
 20
13084.2828300000001036
 30
0.0
 40
15.0
 50
0.0
 51
180.0
  0
ARC
  5
4799
  8
0
  6
BYBLOCK
 62
     0
 10
26182.9117670000014186
 20
13084.2828300000001036
 30
0.0
 40
15.0
 50
180.0
 51
0.0
  0
ARC
  5
479A
  8
0
  6
BYBLOCK
 62
     0
 10
26182.9117670000014186
 20
13084.2828300000001036
 30
0.0
 40
15.0
 50
0.0
 51
180.0
  0
ARC
  5
479B
  8
0
  6
BYBLOCK
 62
     0
 10
26225.4140100000004168
 20
13084.2828300000001036
 30
0.0
 40
15.0
 50
0.0
 51
180.0
  0
ARC
  5
479C
  8
0
  6
BYBLOCK
 62
     0
 10
26225.4140100000004168
 20
13084.2828300000001036
 30
0.0
 40
15.0
 50
180.0
 51
0.0
  0
ARC
  5
479D
  8
0
  6
BYBLOCK
 62
     0
 10
19730.9162529999994149
 20
13084.2828300000001036
 30
0.0
 40
15.0
 50
0.0
 51
180.0
  0
ARC
  5
479E
  8
0
  6
BYBLOCK
 62
     0
 10
19730.9162529999994149
 20
13084.2828300000001036
 30
0.0
 40
15.0
 50
180.0
 51
0.0
  0
ARC
  5
479F
  8
0
  6
BYBLOCK
 62
     0
 10
19688.4140100000004168
 20
13084.2828300000001036
 30
0.0
 40
15.0
 50
180.0
 51
0.0
  0
ARC
  5
47A0
  8
0
  6
BYBLOCK
 62
     0
 10
19688.4140100000004168
 20
13084.2828300000001036
 30
0.0
 40
15.0
 50
0.0
 51
180.0
  0
ARC
  5
47A1
  8
0
  6
BYBLOCK
 62
     0
 10
26267.9162529999994149
 20
12684.2828299999891897
 30
0.0
 40
15.0
 50
180.0
 51
0.0
  0
ARC
  5
47A2
  8
0
  6
BYBLOCK
 62
     0
 10
26267.9162529999994149
 20
12684.2828299999891897
 30
0.0
 40
15.0
 50
0.0
 51
180.0
  0
ARC
  5
47A3
  8
0
  6
BYBLOCK
 62
     0
 10
19645.9117669999905047
 20
12684.2828299999891897
 30
0.0
 40
15.0
 50
0.0
 51
180.0
  0
ARC
  5
47A4
  8
0
  6
BYBLOCK
 62
     0
 10
19645.9117669999905047
 20
12684.2828299999891897
 30
0.0
 40
15.0
 50
180.0
 51
0.0
  0
ARC
  5
47A5
  8
0
  6
BYBLOCK
 62
     0
 10
27317.9136140000300657
 20
14055.730913999990662
 30
0.0
 40
15.0
 50
90.0
 51
270.0
  0
ARC
  5
47A6
  8
0
  6
BYBLOCK
 62
     0
 10
27317.9136140000300657
 20
14055.730913999990662
 30
0.0
 40
15.0
 50
270.0
 51
90.0
  0
ARC
  5
47A7
  8
0
  6
BYBLOCK
 62
     0
 10
27317.9136140000300657
 20
14813.7309139999997569
 30
0.0
 40
15.0
 50
270.0
 51
90.0
  0
ARC
  5
47A8
  8
0
  6
BYBLOCK
 62
     0
 10
27317.9136140000300657
 20
14813.7309139999997569
 30
0.0
 40
15.0
 50
90.0
 51
270.0
  0
ARC
  5
47A9
  8
0
  6
BYBLOCK
 62
     0
 10
27317.9136140000300657
 20
14813.7309139999997569
 30
0.0
 40
15.0
 50
90.0
 51
270.0
  0
ARC
  5
47AA
  8
0
  6
BYBLOCK
 62
     0
 10
27317.9136140000300657
 20
14813.7309139999997569
 30
0.0
 40
15.0
 50
270.0
 51
90.0
  0
ARC
  5
47AB
  8
0
  6
BYBLOCK
 62
     0
 10
27317.9136140000300657
 20
15514.9714255000108096
 30
0.0
 40
15.0
 50
270.0
 51
90.0
  0
ARC
  5
47AC
  8
0
  6
BYBLOCK
 62
     0
 10
27317.9136140000300657
 20
15514.9714255000108096
 30
0.0
 40
15.0
 50
90.0
 51
270.0
  0
ARC
  5
47AD
  8
0
  6
BYBLOCK
 62
     0
 10
27317.9136140000300657
 20
15514.9714255000108096
 30
0.0
 40
15.0
 50
90.0
 51
270.0
  0
ARC
  5
47AE
  8
0
  6
BYBLOCK
 62
     0
 10
27317.9136140000300657
 20
15514.9714255000108096
 30
0.0
 40
15.0
 50
270.0
 51
90.0
  0
ARC
  5
47AF
  8
0
  6
BYBLOCK
 62
     0
 10
27317.9136140000300657
 20
16215.7309139999997569
 30
0.0
 40
15.0
 50
270.0
 51
90.0
  0
ARC
  5
47B0
  8
0
  6
BYBLOCK
 62
     0
 10
27317.9136140000300657
 20
16215.7309139999997569
 30
0.0
 40
15.0
 50
90.0
 51
270.0
  0
ARC
  5
47B1
  8
0
  6
BYBLOCK
 62
     0
 10
27317.9136140000300657
 20
16215.7309139999997569
 30
0.0
 40
15.0
 50
90.0
 51
270.0
  0
ARC
  5
47B2
  8
0
  6
BYBLOCK
 62
     0
 10
27317.9136140000300657
 20
16215.7309139999997569
 30
0.0
 40
15.0
 50
270.0
 51
90.0
  0
ARC
  5
47B3
  8
0
  6
BYBLOCK
 62
     0
 10
27317.9136140000300657
 20
16973.7309139999997569
 30
0.0
 40
15.0
 50
270.0
 51
90.0
  0
ARC
  5
47B4
  8
0
  6
BYBLOCK
 62
     0
 10
27317.9136140000300657
 20
16973.7309139999997569
 30
0.0
 40
15.0
 50
90.0
 51
270.0
  0
ARC
  5
47B5
  8
0
  6
BYBLOCK
 62
     0
 10
27317.9136140000300657
 20
16973.7309139999997569
 30
0.0
 40
15.0
 50
90.0
 51
270.0
  0
ARC
  5
47B6
  8
0
  6
BYBLOCK
 62
     0
 10
27317.9136140000300657
 20
16973.7309139999997569
 30
0.0
 40
15.0
 50
270.0
 51
90.0
  0
ARC
  5
47B7
  8
0
  6
BYBLOCK
 62
     0
 10
27317.9136140000300657
 20
17731.7309140000106709
 30
0.0
 40
15.0
 50
270.0
 51
90.0
  0
ARC
  5
47B8
  8
0
  6
BYBLOCK
 62
     0
 10
27317.9136140000300657
 20
17731.7309140000106709
 30
0.0
 40
15.0
 50
90.0
 51
270.0
  0
ARC
  5
47B9
  8
0
  6
BYBLOCK
 62
     0
 10
27317.9136140000300657
 20
17731.7309140000106709
 30
0.0
 40
15.0
 50
90.0
 51
270.0
  0
ARC
  5
47BA
  8
0
  6
BYBLOCK
 62
     0
 10
27317.9136140000300657
 20
17731.7309140000106709
 30
0.0
 40
15.0
 50
270.0
 51
90.0
  0
ARC
  5
47BB
  8
0
  6
BYBLOCK
 62
     0
 10
27317.9136140000300657
 20
18432.7309140000106709
 30
0.0
 40
15.0
 50
270.0
 51
90.0
  0
ARC
  5
47BC
  8
0
  6
BYBLOCK
 62
     0
 10
27317.9136140000300657
 20
18432.7309140000106709
 30
0.0
 40
15.0
 50
90.0
 51
270.0
  0
ARC
  5
47BD
  8
0
  6
BYBLOCK
 62
     0
 10
27317.9136140000300657
 20
18432.7309140000106709
 30
0.0
 40
15.0
 50
90.0
 51
270.0
  0
ARC
  5
47BE
  8
0
  6
BYBLOCK
 62
     0
 10
27317.9136140000300657
 20
18432.7309140000106709
 30
0.0
 40
15.0
 50
270.0
 51
90.0
  0
ARC
  5
47BF
  8
0
  6
BYBLOCK
 62
     0
 10
27317.9136140000300657
 20
19133.7309140000106709
 30
0.0
 40
15.0
 50
270.0
 51
90.0
  0
ARC
  5
47C0
  8
0
  6
BYBLOCK
 62
     0
 10
27317.9136140000300657
 20
19133.7309140000106709
 30
0.0
 40
15.0
 50
90.0
 51
270.0
  0
ARC
  5
47C1
  8
0
  6
BYBLOCK
 62
     0
 10
27317.9136140000300657
 20
19133.7309140000106709
 30
0.0
 40
15.0
 50
90.0
 51
270.0
  0
ARC
  5
47C2
  8
0
  6
BYBLOCK
 62
     0
 10
27317.9136140000300657
 20
19133.7309140000106709
 30
0.0
 40
15.0
 50
270.0
 51
90.0
  0
ARC
  5
47C3
  8
0
  6
BYBLOCK
 62
     0
 10
27317.9136140000300657
 20
19891.7309140000106709
 30
0.0
 40
15.0
 50
270.0
 51
90.0
  0
ARC
  5
47C4
  8
0
  6
BYBLOCK
 62
     0
 10
27317.9136140000300657
 20
19891.7309140000106709
 30
0.0
 40
15.0
 50
90.0
 51
270.0
  0
ARC
  5
47C5
  8
0
  6
BYBLOCK
 62
     0
 10
27717.9136140000300657
 20
19891.7309140000106709
 30
0.0
 40
15.0
 50
270.0
 51
90.0
  0
ARC
  5
47C6
  8
0
  6
BYBLOCK
 62
     0
 10
27717.9136140000300657
 20
19891.7309140000106709
 30
0.0
 40
15.0
 50
90.0
 51
270.0
  0
ARC
  5
47C7
  8
0
  6
BYBLOCK
 62
     0
 10
27717.9136140000300657
 20
16973.7309139999997569
 30
0.0
 40
15.0
 50
90.0
 51
270.0
  0
ARC
  5
47C8
  8
0
  6
BYBLOCK
 62
     0
 10
27717.9136140000300657
 20
16973.7309139999997569
 30
0.0
 40
15.0
 50
270.0
 51
90.0
  0
ARC
  5
47C9
  8
0
  6
BYBLOCK
 62
     0
 10
27717.9136140000300657
 20
16973.7309139999997569
 30
0.0
 40
15.0
 50
270.0
 51
90.0
  0
ARC
  5
47CA
  8
0
  6
BYBLOCK
 62
     0
 10
27717.9136140000300657
 20
16973.7309139999997569
 30
0.0
 40
15.0
 50
90.0
 51
270.0
  0
ARC
  5
47CB
  8
0
  6
BYBLOCK
 62
     0
 10
27717.9136140000300657
 20
14055.730913999990662
 30
0.0
 40
15.0
 50
90.0
 51
270.0
  0
ARC
  5
47CC
  8
0
  6
BYBLOCK
 62
     0
 10
27717.9136140000300657
 20
14055.730913999990662
 30
0.0
 40
15.0
 50
270.0
 51
90.0
  0
ARC
  5
47CD
  8
0
  6
BYBLOCK
 62
     0
 10
28117.9136140000300657
 20
14013.2336190000096394
 30
0.0
 40
15.0
 50
90.0
 51
270.0
  0
ARC
  5
47CE
  8
0
  6
BYBLOCK
 62
     0
 10
28117.9136140000300657
 20
14013.2336190000096394
 30
0.0
 40
15.0
 50
270.0
 51
90.0
  0
ARC
  5
47CF
  8
0
  6
BYBLOCK
 62
     0
 10
28117.9136140000300657
 20
19934.2282090000117023
 30
0.0
 40
15.0
 50
270.0
 51
90.0
  0
ARC
  5
47D0
  8
0
  6
BYBLOCK
 62
     0
 10
28117.9136140000300657
 20
19934.2282090000117023
 30
0.0
 40
15.0
 50
90.0
 51
270.0
  0
ARC
  5
47D1
  8
0
  6
BYBLOCK
 62
     0
 10
27717.9136140000300657
 20
19934.2282090000117023
 30
0.0
 40
15.0
 50
90.0
 51
270.0
  0
ARC
  5
47D2
  8
0
  6
BYBLOCK
 62
     0
 10
27717.9136140000300657
 20
19934.2282090000117023
 30
0.0
 40
15.0
 50
270.0
 51
90.0
  0
ARC
  5
47D3
  8
0
  6
BYBLOCK
 62
     0
 10
27717.9136140000300657
 20
19891.7309140000106709
 30
0.0
 40
15.0
 50
270.0
 51
90.0
  0
ARC
  5
47D4
  8
0
  6
BYBLOCK
 62
     0
 10
27717.9136140000300657
 20
19891.7309140000106709
 30
0.0
 40
15.0
 50
90.0
 51
270.0
  0
ARC
  5
47D5
  8
0
  6
BYBLOCK
 62
     0
 10
27717.9136140000300657
 20
14013.2336190000096394
 30
0.0
 40
15.0
 50
270.0
 51
90.0
  0
ARC
  5
47D6
  8
0
  6
BYBLOCK
 62
     0
 10
27717.9136140000300657
 20
14013.2336190000096394
 30
0.0
 40
15.0
 50
90.0
 51
270.0
  0
ARC
  5
47D7
  8
0
  6
BYBLOCK
 62
     0
 10
27717.9136140000300657
 20
14055.730913999990662
 30
0.0
 40
15.0
 50
90.0
 51
270.0
  0
ARC
  5
47D8
  8
0
  6
BYBLOCK
 62
     0
 10
27717.9136140000300657
 20
14055.730913999990662
 30
0.0
 40
15.0
 50
270.0
 51
90.0
  0
ARC
  5
47D9
  8
0
  6
BYBLOCK
 62
     0
 10
23364.4140100000004168
 20
20664.2321020000308636
 30
0.0
 40
15.0
 50
0.0
 51
180.0
  0
ARC
  5
47DA
  8
0
  6
BYBLOCK
 62
     0
 10
23364.4140100000004168
 20
20664.2321020000308636
 30
0.0
 40
15.0
 50
180.0
 51
0.0
  0
ARC
  5
47DB
  8
0
  6
BYBLOCK
 62
     0
 10
22956.9140100000004168
 20
20664.2321020000308636
 30
0.0
 40
15.0
 50
180.0
 51
0.0
  0
ARC
  5
47DC
  8
0
  6
BYBLOCK
 62
     0
 10
22956.9140100000004168
 20
20664.2321020000308636
 30
0.0
 40
15.0
 50
0.0
 51
180.0
  0
ARC
  5
47DD
  8
0
  6
BYBLOCK
 62
     0
 10
26225.4149995000007038
 20
20664.2321020000308636
 30
0.0
 40
15.0
 50
180.0
 51
0.0
  0
ARC
  5
47DE
  8
0
  6
BYBLOCK
 62
     0
 10
26225.4149995000007038
 20
20664.2321020000308636
 30
0.0
 40
15.0
 50
0.0
 51
180.0
  0
ARC
  5
47DF
  8
0
  6
BYBLOCK
 62
     0
 10
25467.4140100000004168
 20
20664.2321020000308636
 30
0.0
 40
15.0
 50
0.0
 51
180.0
  0
ARC
  5
47E0
  8
0
  6
BYBLOCK
 62
     0
 10
25467.4140100000004168
 20
20664.2321020000308636
 30
0.0
 40
15.0
 50
180.0
 51
0.0
  0
ARC
  5
47E1
  8
0
  6
BYBLOCK
 62
     0
 10
25467.4140100000004168
 20
20664.2321020000308636
 30
0.0
 40
15.0
 50
180.0
 51
0.0
  0
ARC
  5
47E2
  8
0
  6
BYBLOCK
 62
     0
 10
25467.4140100000004168
 20
20664.2321020000308636
 30
0.0
 40
15.0
 50
0.0
 51
180.0
  0
ARC
  5
47E3
  8
0
  6
BYBLOCK
 62
     0
 10
24766.4140100000004168
 20
20664.2321020000308636
 30
0.0
 40
15.0
 50
0.0
 51
180.0
  0
ARC
  5
47E4
  8
0
  6
BYBLOCK
 62
     0
 10
24766.4140100000004168
 20
20664.2321020000308636
 30
0.0
 40
15.0
 50
180.0
 51
0.0
  0
ARC
  5
47E5
  8
0
  6
BYBLOCK
 62
     0
 10
24766.4140100000004168
 20
20664.2321020000308636
 30
0.0
 40
15.0
 50
180.0
 51
0.0
  0
ARC
  5
47E6
  8
0
  6
BYBLOCK
 62
     0
 10
24766.4140100000004168
 20
20664.2321020000308636
 30
0.0
 40
15.0
 50
0.0
 51
180.0
  0
ARC
  5
47E7
  8
0
  6
BYBLOCK
 62
     0
 10
24065.4140100000004168
 20
20664.2321020000308636
 30
0.0
 40
15.0
 50
0.0
 51
180.0
  0
ARC
  5
47E8
  8
0
  6
BYBLOCK
 62
     0
 10
24065.4140100000004168
 20
20664.2321020000308636
 30
0.0
 40
15.0
 50
180.0
 51
0.0
  0
ARC
  5
47E9
  8
0
  6
BYBLOCK
 62
     0
 10
24065.4140100000004168
 20
20664.2321020000308636
 30
0.0
 40
15.0
 50
180.0
 51
0.0
  0
ARC
  5
47EA
  8
0
  6
BYBLOCK
 62
     0
 10
24065.4140100000004168
 20
20664.2321020000308636
 30
0.0
 40
15.0
 50
0.0
 51
180.0
  0
ARC
  5
47EB
  8
0
  6
BYBLOCK
 62
     0
 10
23364.4140100000004168
 20
20664.2321020000308636
 30
0.0
 40
15.0
 50
0.0
 51
180.0
  0
ARC
  5
47EC
  8
0
  6
BYBLOCK
 62
     0
 10
23364.4140100000004168
 20
20664.2321020000308636
 30
0.0
 40
15.0
 50
180.0
 51
0.0
  0
ARC
  5
47ED
  8
0
  6
BYBLOCK
 62
     0
 10
26267.9103150000009919
 20
20664.2321020000308636
 30
0.0
 40
15.0
 50
0.0
 51
180.0
  0
ARC
  5
47EE
  8
0
  6
BYBLOCK
 62
     0
 10
26267.9103150000009919
 20
20664.2321020000308636
 30
0.0
 40
15.0
 50
180.0
 51
0.0
  0
ARC
  5
47EF
  8
0
  6
BYBLOCK
 62
     0
 10
26225.4140100000004168
 20
20664.2321020000308636
 30
0.0
 40
15.0
 50
180.0
 51
0.0
  0
ARC
  5
47F0
  8
0
  6
BYBLOCK
 62
     0
 10
26225.4140100000004168
 20
20664.2321020000308636
 30
0.0
 40
15.0
 50
0.0
 51
180.0
  0
ARC
  5
47F1
  8
0
  6
BYBLOCK
 62
     0
 10
20095.9140100000004168
 20
20664.2321020000308636
 30
0.0
 40
15.0
 50
0.0
 51
180.0
  0
ARC
  5
47F2
  8
0
  6
BYBLOCK
 62
     0
 10
20095.9140100000004168
 20
20664.2321020000308636
 30
0.0
 40
15.0
 50
180.0
 51
0.0
  0
ARC
  5
47F3
  8
0
  6
BYBLOCK
 62
     0
 10
19688.4140100000004168
 20
20664.2321020000308636
 30
0.0
 40
15.0
 50
180.0
 51
0.0
  0
ARC
  5
47F4
  8
0
  6
BYBLOCK
 62
     0
 10
19688.4140100000004168
 20
20664.2321020000308636
 30
0.0
 40
15.0
 50
0.0
 51
180.0
  0
ARC
  5
47F5
  8
0
  6
BYBLOCK
 62
     0
 10
19645.9177049999998417
 20
20664.2321020000308636
 30
0.0
 40
15.0
 50
180.0
 51
0.0
  0
ARC
  5
47F6
  8
0
  6
BYBLOCK
 62
     0
 10
19645.9177049999998417
 20
20664.2321020000308636
 30
0.0
 40
15.0
 50
0.0
 51
180.0
  0
ARC
  5
47F7
  8
0
  6
BYBLOCK
 62
     0
 10
19688.4140100000004168
 20
20664.2321020000308636
 30
0.0
 40
15.0
 50
0.0
 51
180.0
  0
ARC
  5
47F8
  8
0
  6
BYBLOCK
 62
     0
 10
19688.4140100000004168
 20
20664.2321020000308636
 30
0.0
 40
15.0
 50
180.0
 51
0.0
  0
ARC
  5
47F9
  8
0
  6
BYBLOCK
 62
     0
 10
22956.9149995000116178
 20
20664.2321020000308636
 30
0.0
 40
15.0
 50
180.0
 51
0.0
  0
ARC
  5
47FA
  8
0
  6
BYBLOCK
 62
     0
 10
22956.9149995000116178
 20
20664.2321020000308636
 30
0.0
 40
15.0
 50
0.0
 51
180.0
  0
ARC
  5
47FB
  8
0
  6
BYBLOCK
 62
     0
 10
22198.9140099999895028
 20
20664.2321020000308636
 30
0.0
 40
15.0
 50
0.0
 51
180.0
  0
ARC
  5
47FC
  8
0
  6
BYBLOCK
 62
     0
 10
22198.9140099999895028
 20
20664.2321020000308636
 30
0.0
 40
15.0
 50
180.0
 51
0.0
  0
ARC
  5
47FD
  8
0
  6
BYBLOCK
 62
     0
 10
22198.9140099999895028
 20
20664.2321020000308636
 30
0.0
 40
15.0
 50
180.0
 51
0.0
  0
ARC
  5
47FE
  8
0
  6
BYBLOCK
 62
     0
 10
22198.9140099999895028
 20
20664.2321020000308636
 30
0.0
 40
15.0
 50
0.0
 51
180.0
  0
ARC
  5
47FF
  8
0
  6
BYBLOCK
 62
     0
 10
21497.9140100000004168
 20
20664.2321020000308636
 30
0.0
 40
15.0
 50
0.0
 51
180.0
  0
ARC
  5
4800
  8
0
  6
BYBLOCK
 62
     0
 10
21497.9140100000004168
 20
20664.2321020000308636
 30
0.0
 40
15.0
 50
180.0
 51
0.0
  0
ARC
  5
4801
  8
0
  6
BYBLOCK
 62
     0
 10
21497.9140100000004168
 20
20664.2321020000308636
 30
0.0
 40
15.0
 50
180.0
 51
0.0
  0
ARC
  5
4802
  8
0
  6
BYBLOCK
 62
     0
 10
21497.9140100000004168
 20
20664.2321020000308636
 30
0.0
 40
15.0
 50
0.0
 51
180.0
  0
ARC
  5
4803
  8
0
  6
BYBLOCK
 62
     0
 10
20796.9140100000004168
 20
20664.2321020000308636
 30
0.0
 40
15.0
 50
0.0
 51
180.0
  0
ARC
  5
4804
  8
0
  6
BYBLOCK
 62
     0
 10
20796.9140100000004168
 20
20664.2321020000308636
 30
0.0
 40
15.0
 50
180.0
 51
0.0
  0
ARC
  5
4805
  8
0
  6
BYBLOCK
 62
     0
 10
20796.9140100000004168
 20
20664.2321020000308636
 30
0.0
 40
15.0
 50
180.0
 51
0.0
  0
ARC
  5
4806
  8
0
  6
BYBLOCK
 62
     0
 10
20796.9140100000004168
 20
20664.2321020000308636
 30
0.0
 40
15.0
 50
0.0
 51
180.0
  0
ARC
  5
4807
  8
0
  6
BYBLOCK
 62
     0
 10
20095.9140100000004168
 20
20664.2321020000308636
 30
0.0
 40
15.0
 50
0.0
 51
180.0
  0
ARC
  5
4808
  8
0
  6
BYBLOCK
 62
     0
 10
20095.9140100000004168
 20
20664.2321020000308636
 30
0.0
 40
15.0
 50
180.0
 51
0.0
  0
ARC
  5
4809
  8
0
  6
BYBLOCK
 62
     0
 10
15063.6585460000005696
 20
9904.318437999998423
 30
0.0
 40
15.0
 50
180.0
 51
0.0
  0
ARC
  5
480A
  8
0
  6
BYBLOCK
 62
     0
 10
15063.6585460000005696
 20
9904.318437999998423
 30
0.0
 40
15.0
 50
0.0
 51
180.0
  0
ARC
  5
480B
  8
0
  6
BYBLOCK
 62
     0
 10
8812.6585459999987506
 20
9904.318437999998423
 30
0.0
 40
15.0
 50
0.0
 51
180.0
  0
ARC
  5
480C
  8
0
  6
BYBLOCK
 62
     0
 10
8812.6585459999987506
 20
9904.318437999998423
 30
0.0
 40
15.0
 50
180.0
 51
0.0
  0
ARC
  5
480D
  8
0
  6
BYBLOCK
 62
     0
 10
15063.6585460000005696
 20
9504.3200880000003963
 30
0.0
 40
15.0
 50
0.0
 51
180.0
  0
ARC
  5
480E
  8
0
  6
BYBLOCK
 62
     0
 10
15063.6585460000005696
 20
9504.3200880000003963
 30
0.0
 40
15.0
 50
180.0
 51
0.0
  0
ARC
  5
480F
  8
0
  6
BYBLOCK
 62
     0
 10
14913.6597989999991114
 20
9504.3200880000003963
 30
0.0
 40
15.0
 50
180.0
 51
0.0
  0
ARC
  5
4810
  8
0
  6
BYBLOCK
 62
     0
 10
14913.6597989999991114
 20
9504.3200880000003963
 30
0.0
 40
15.0
 50
0.0
 51
180.0
  0
ARC
  5
4811
  8
0
  6
BYBLOCK
 62
     0
 10
14913.6597989999991114
 20
9504.3200880000003963
 30
0.0
 40
15.0
 50
180.0
 51
0.0
  0
ARC
  5
4812
  8
0
  6
BYBLOCK
 62
     0
 10
14913.6597989999991114
 20
9504.3200880000003963
 30
0.0
 40
15.0
 50
0.0
 51
180.0
  0
ARC
  5
4813
  8
0
  6
BYBLOCK
 62
     0
 10
8992.6572919999980513
 20
9504.3200880000003963
 30
0.0
 40
15.0
 50
0.0
 51
180.0
  0
ARC
  5
4814
  8
0
  6
BYBLOCK
 62
     0
 10
8992.6572919999980513
 20
9504.3200880000003963
 30
0.0
 40
15.0
 50
180.0
 51
0.0
  0
ARC
  5
4815
  8
0
  6
BYBLOCK
 62
     0
 10
8992.6572919999980513
 20
9504.3200880000003963
 30
0.0
 40
15.0
 50
0.0
 51
180.0
  0
ARC
  5
4816
  8
0
  6
BYBLOCK
 62
     0
 10
8992.6572919999980513
 20
9504.3200880000003963
 30
0.0
 40
15.0
 50
180.0
 51
0.0
  0
ARC
  5
4817
  8
0
  6
BYBLOCK
 62
     0
 10
8812.6585459999987506
 20
9504.3200880000003963
 30
0.0
 40
15.0
 50
180.0
 51
0.0
  0
ARC
  5
4818
  8
0
  6
BYBLOCK
 62
     0
 10
8812.6585459999987506
 20
9504.3200880000003963
 30
0.0
 40
15.0
 50
0.0
 51
180.0
  0
ARC
  5
4819
  8
0
  6
BYBLOCK
 62
     0
 10
7902.6601280000049883
 20
8512.8194020000028104
 30
0.0
 40
15.0
 50
270.0
 51
90.0
  0
ARC
  5
481A
  8
0
  6
BYBLOCK
 62
     0
 10
7902.6601280000049883
 20
8512.8194020000028104
 30
0.0
 40
15.0
 50
90.0
 51
270.0
  0
ARC
  5
481B
  8
0
  6
BYBLOCK
 62
     0
 10
7902.6601280000049883
 20
6356.3194020000037199
 30
0.0
 40
15.0
 50
90.0
 51
270.0
  0
ARC
  5
481C
  8
0
  6
BYBLOCK
 62
     0
 10
7902.6601280000049883
 20
6356.3194020000037199
 30
0.0
 40
15.0
 50
270.0
 51
90.0
  0
ARC
  5
481D
  8
0
  6
BYBLOCK
 62
     0
 10
16003.6579509999992297
 20
8704.8194019999955344
 30
0.0
 40
15.0
 50
270.0
 51
90.0
  0
ARC
  5
481E
  8
0
  6
BYBLOCK
 62
     0
 10
16003.6579509999992297
 20
8704.8194019999955344
 30
0.0
 40
15.0
 50
90.0
 51
270.0
  0
ARC
  5
481F
  8
0
  6
BYBLOCK
 62
     0
 10
16003.6579509999992297
 20
6356.3194020000037199
 30
0.0
 40
15.0
 50
90.0
 51
270.0
  0
ARC
  5
4820
  8
0
  6
BYBLOCK
 62
     0
 10
16003.6579509999992297
 20
6356.3194020000037199
 30
0.0
 40
15.0
 50
270.0
 51
90.0
  0
ARC
  5
4821
  8
0
  6
BYBLOCK
 62
     0
 10
14913.6585460000005696
 20
4656.3192370000006122
 30
0.0
 40
15.0
 50
180.0
 51
0.0
  0
ARC
  5
4822
  8
0
  6
BYBLOCK
 62
     0
 10
14913.6585460000005696
 20
4656.3192370000006122
 30
0.0
 40
15.0
 50
0.0
 51
180.0
  0
ARC
  5
4823
  8
0
  6
BYBLOCK
 62
     0
 10
8992.6585460000005696
 20
4656.3192370000006122
 30
0.0
 40
15.0
 50
0.0
 51
180.0
  0
ARC
  5
4824
  8
0
  6
BYBLOCK
 62
     0
 10
8992.6585460000005696
 20
4656.3192370000006122
 30
0.0
 40
15.0
 50
180.0
 51
0.0
  0
ARC
  5
4825
  8
0
  6
BYBLOCK
 62
     0
 10
14913.6585460000005696
 20
5056.3190720000011424
 30
0.0
 40
15.0
 50
0.0
 51
180.0
  0
ARC
  5
4826
  8
0
  6
BYBLOCK
 62
     0
 10
14913.6585460000005696
 20
5056.3190720000011424
 30
0.0
 40
15.0
 50
180.0
 51
0.0
  0
ARC
  5
4827
  8
0
  6
BYBLOCK
 62
     0
 10
14871.1585460000005696
 20
5056.3190720000011424
 30
0.0
 40
15.0
 50
180.0
 51
0.0
  0
ARC
  5
4828
  8
0
  6
BYBLOCK
 62
     0
 10
14871.1585460000005696
 20
5056.3190720000011424
 30
0.0
 40
15.0
 50
0.0
 51
180.0
  0
ARC
  5
4829
  8
0
  6
BYBLOCK
 62
     0
 10
8992.6585460000005696
 20
5056.3190720000011424
 30
0.0
 40
15.0
 50
180.0
 51
0.0
  0
ARC
  5
482A
  8
0
  6
BYBLOCK
 62
     0
 10
8992.6585460000005696
 20
5056.3190720000011424
 30
0.0
 40
15.0
 50
0.0
 51
180.0
  0
ARC
  5
482B
  8
0
  6
BYBLOCK
 62
     0
 10
9035.1585460000005696
 20
5056.3190720000011424
 30
0.0
 40
15.0
 50
0.0
 51
180.0
  0
ARC
  5
482C
  8
0
  6
BYBLOCK
 62
     0
 10
9035.1585460000005696
 20
5056.3190720000011424
 30
0.0
 40
15.0
 50
180.0
 51
0.0
  0
ARC
  5
482D
  8
0
  6
BYBLOCK
 62
     0
 10
9035.1585460000005696
 20
5056.3190720000011424
 30
0.0
 40
15.0
 50
0.0
 51
180.0
  0
ARC
  5
482E
  8
0
  6
BYBLOCK
 62
     0
 10
9035.1585460000005696
 20
5056.3190720000011424
 30
0.0
 40
15.0
 50
180.0
 51
0.0
  0
ARC
  5
482F
  8
0
  6
BYBLOCK
 62
     0
 10
11953.1585460000005696
 20
5056.3190720000011424
 30
0.0
 40
15.0
 50
180.0
 51
0.0
  0
ARC
  5
4830
  8
0
  6
BYBLOCK
 62
     0
 10
11953.1585460000005696
 20
5056.3190720000011424
 30
0.0
 40
15.0
 50
0.0
 51
180.0
  0
ARC
  5
4831
  8
0
  6
BYBLOCK
 62
     0
 10
14871.1585460000005696
 20
5056.3190720000011424
 30
0.0
 40
15.0
 50
180.0
 51
0.0
  0
ARC
  5
4832
  8
0
  6
BYBLOCK
 62
     0
 10
14871.1585460000005696
 20
5056.3190720000011424
 30
0.0
 40
15.0
 50
0.0
 51
180.0
  0
ARC
  5
4833
  8
0
  6
BYBLOCK
 62
     0
 10
11953.1585460000005696
 20
5056.3190720000011424
 30
0.0
 40
15.0
 50
0.0
 51
180.0
  0
ARC
  5
4834
  8
0
  6
BYBLOCK
 62
     0
 10
11953.1585460000005696
 20
5056.3190720000011424
 30
0.0
 40
15.0
 50
180.0
 51
0.0
  0
LINE
  5
489B
  8
0-1
  6
CONTINUOUS
 62
     3
 10
26161.9169909999800439
 20
8454.8199170000007143
 30
0.0
 11
26161.9169909999800439
 21
8486.8198239999983343
 31
0.0
  0
LINE
  5
489C
  8
0-1
  6
CONTINUOUS
 62
     3
 10
26310.9163840000001073
 20
8378.6331949999967037
 30
0.0
 11
26267.9142729999803123
 21
8378.6331949999967037
 31
0.0
  0
LINE
  5
489D
  8
0-1
  6
CONTINUOUS
 62
     3
 10
26310.9163840000001073
 20
8704.8202460000011342
 30
0.0
 11
26310.9163840000001073
 21
8378.6331949999967037
 31
0.0
  0
LINE
  5
489E
  8
0-1
  6
CONTINUOUS
 62
     3
 10
25875.949798000001465
 20
8451.2844959999947605
 30
0.0
 11
25843.9508809999897494
 21
8483.284403999998176
 31
0.0
  0
LINE
  5
489F
  8
0-1
  6
CONTINUOUS
 62
     3
 10
26156.9167269999707059
 20
8491.8200879999967583
 30
0.0
 11
25847.4863009999899077
 21
8491.8200879999967583
 31
0.0
  0
LINE
  5
48A0
  8
0-1
  6
CONTINUOUS
 62
     3
 10
26161.9169909999800439
 20
8483.4209910000026866
 30
0.0
 11
25843.8202319999800238
 21
8483.4209910000026866
 31
0.0
  0
LINE
  5
48A1
  8
0-1
  6
CONTINUOUS
 62
     3
 10
26156.9167269999707059
 20
8449.8196529999968334
 30
0.0
 11
25879.4871979999916221
 21
8449.8196529999968334
 31
0.0
  0
LINE
  5
48A2
  8
0-1
  6
CONTINUOUS
 62
     3
 10
26161.9169909999800439
 20
8458.2197399999968184
 30
0.0
 11
25869.015544999998383
 21
8458.2197399999968184
 31
0.0
  0
LINE
  5
48A3
  8
0-1
  6
CONTINUOUS
 62
     3
 10
26161.9169909999800439
 20
8466.6198269999949844
 30
0.0
 11
25860.6164469999894209
 21
8466.6198269999949844
 31
0.0
  0
LINE
  5
48A4
  8
0-1
  6
CONTINUOUS
 62
     3
 10
26161.9169909999800439
 20
8475.0209039999954257
 30
0.0
 11
25852.2153709999802231
 21
8475.0209039999954257
 31
0.0
  0
LINE
  5
48A5
  8
0-1
  6
CONTINUOUS
 62
     3
 10
23306.3801990000210935
 20
8451.2844959999947605
 30
0.0
 11
23338.377137000021321
 21
8483.284403999998176
 31
0.0
  0
LINE
  5
48A6
  8
0-1
  6
CONTINUOUS
 62
     3
 10
23020.4149850000212609
 20
8454.8199170000007143
 30
0.0
 11
23020.4149850000212609
 21
8486.8198239999983343
 31
0.0
  0
LINE
  5
48A7
  8
0-1
  6
CONTINUOUS
 62
     3
 10
23020.4149850000212609
 20
8458.2197399999968184
 30
0.0
 11
23313.3124730000017735
 21
8458.2197399999968184
 31
0.0
  0
LINE
  5
48A8
  8
0-1
  6
CONTINUOUS
 62
     3
 10
23020.4149850000212609
 20
8466.6198269999949844
 30
0.0
 11
23321.7135500000113097
 21
8466.6198269999949844
 31
0.0
  0
LINE
  5
48A9
  8
0-1
  6
CONTINUOUS
 62
     3
 10
23025.415249000001495
 20
8449.8196529999968334
 30
0.0
 11
23302.8427989999981946
 21
8449.8196529999968334
 31
0.0
  0
LINE
  5
48AA
  8
0-1
  6
CONTINUOUS
 62
     3
 10
23020.4149850000212609
 20
8475.0209039999954257
 30
0.0
 11
23330.1126470000090194
 21
8475.0209039999954257
 31
0.0
  0
LINE
  5
48AB
  8
0-1
  6
CONTINUOUS
 62
     3
 10
23020.4149850000212609
 20
8483.4209910000026866
 30
0.0
 11
23338.5097650000097929
 21
8483.4209910000026866
 31
0.0
  0
LINE
  5
48AC
  8
0-1
  6
CONTINUOUS
 62
     3
 10
23025.415249000001495
 20
8491.8200879999967583
 30
0.0
 11
23334.8436960000217368
 21
8491.8200879999967583
 31
0.0
  0
LINE
  5
48AD
  8
0-1
  6
CONTINUOUS
 62
     3
 10
26310.9163840000001073
 20
8574.8193229999978939
 30
0.0
 11
22956.9140090000000782
 21
8574.8193229999978939
 31
0.0
  0
LINE
  5
48AE
  8
0-1
  6
CONTINUOUS
 62
     3
 10
22999.4122930000012275
 20
8500.8199690000001283
 30
0.0
 11
26182.9157239999913145
 21
8500.8199690000001283
 31
0.0
  0
LINE
  5
48AF
  8
0-1
  6
CONTINUOUS
 62
     3
 10
22999.4122930000012275
 20
8440.8197709999967628
 30
0.0
 11
26182.9157239999913145
 21
8440.8197709999967628
 31
0.0
  0
LINE
  5
48B0
  8
0-1
  6
CONTINUOUS
 62
     3
 10
22956.9140090000000782
 20
8704.8202460000011342
 30
0.0
 11
26310.9163840000001073
 21
8704.8202460000011342
 31
0.0
  0
LINE
  5
48B1
  8
0-1
  6
CONTINUOUS
 62
     3
 10
22893.4130330000007234
 20
8454.8199170000007143
 30
0.0
 11
22893.4130330000007234
 21
8486.8198239999983343
 31
0.0
  0
LINE
  5
48B2
  8
0-1
  6
CONTINUOUS
 62
     3
 10
22607.4517779999805498
 20
8451.2844959999947605
 30
0.0
 11
22575.4508810000006633
 21
8483.284403999998176
 31
0.0
  0
LINE
  5
48B3
  8
0-1
  6
CONTINUOUS
 62
     3
 10
22893.4130330000007234
 20
8483.4209910000026866
 30
0.0
 11
22575.3202329999585345
 21
8483.4209910000026866
 31
0.0
  0
LINE
  5
48B4
  8
0-1
  6
CONTINUOUS
 62
     3
 10
22893.4130330000007234
 20
8475.0209039999954257
 30
0.0
 11
22583.7153709999802231
 21
8475.0209039999954257
 31
0.0
  0
LINE
  5
48B5
  8
0-1
  6
CONTINUOUS
 62
     3
 10
22893.4130330000007234
 20
8466.6198269999949844
 30
0.0
 11
22592.1144679999888467
 21
8466.6198269999949844
 31
0.0
  0
LINE
  5
48B6
  8
0-1
  6
CONTINUOUS
 62
     3
 10
22893.4130330000007234
 20
8458.2197399999968184
 30
0.0
 11
22600.513565999961429
 21
8458.2197399999968184
 31
0.0
  0
LINE
  5
48B7
  8
0-1
  6
CONTINUOUS
 62
     3
 10
22888.4147479999810457
 20
8491.8200879999967583
 30
0.0
 11
22578.9843219999893336
 21
8491.8200879999967583
 31
0.0
  0
LINE
  5
48B8
  8
0-1
  6
CONTINUOUS
 62
     3
 10
22888.4147479999810457
 20
8449.8196529999968334
 30
0.0
 11
22610.9871989999810467
 21
8449.8196529999968334
 31
0.0
  0
LINE
  5
48B9
  8
0-1
  6
CONTINUOUS
 62
     3
 10
19756.9132699999900069
 20
8449.8196529999968334
 30
0.0
 11
20034.3427999999694293
 21
8449.8196529999968334
 31
0.0
  0
LINE
  5
48BA
  8
0-1
  6
CONTINUOUS
 62
     3
 10
19751.9149859999888577
 20
8454.8199170000007143
 30
0.0
 11
19751.9149859999888577
 21
8486.8198239999983343
 31
0.0
  0
LINE
  5
48BB
  8
0-1
  6
CONTINUOUS
 62
     3
 10
19602.91361399996822
 20
8378.6331949999967037
 30
0.0
 11
19645.9117659999901662
 21
8378.6331949999967037
 31
0.0
  0
LINE
  5
48BC
  8
0-1
  6
CONTINUOUS
 62
     3
 10
19602.91361399996822
 20
8378.6331949999967037
 30
0.0
 11
19602.91361399996822
 21
8704.8202460000011342
 31
0.0
  0
LINE
  5
48BD
  8
0-1
  6
CONTINUOUS
 62
     3
 10
19756.9132699999900069
 20
8491.8200879999967583
 30
0.0
 11
20066.3436969999893336
 21
8491.8200879999967583
 31
0.0
  0
LINE
  5
48BE
  8
0-1
  6
CONTINUOUS
 62
     3
 10
20037.8762400000014168
 20
8451.2844959999947605
 30
0.0
 11
20069.8771379999889177
 21
8483.284403999998176
 31
0.0
  0
LINE
  5
48BF
  8
0-1
  6
CONTINUOUS
 62
     3
 10
19751.9149859999888577
 20
8483.4209910000026866
 30
0.0
 11
20070.0097649999988789
 21
8483.4209910000026866
 31
0.0
  0
LINE
  5
48C0
  8
0-1
  6
CONTINUOUS
 62
     3
 10
19751.9149859999888577
 20
8475.0209039999954257
 30
0.0
 11
20061.612647999998444
 21
8475.0209039999954257
 31
0.0
  0
LINE
  5
48C1
  8
0-1
  6
CONTINUOUS
 62
     3
 10
19751.9149859999888577
 20
8466.6198269999949844
 30
0.0
 11
20053.2135500000003958
 21
8466.6198269999949844
 31
0.0
  0
LINE
  5
48C2
  8
0-1
  6
CONTINUOUS
 62
     3
 10
19751.9149859999888577
 20
8458.2197399999968184
 30
0.0
 11
20044.8144529999699444
 21
8458.2197399999968184
 31
0.0
  0
LINE
  5
48C3
  8
0-1
  6
CONTINUOUS
 62
     3
 10
19730.9122939999906521
 20
8440.8197709999967628
 30
0.0
 11
22914.4137449999798264
 21
8440.8197709999967628
 31
0.0
  0
LINE
  5
48C4
  8
0-1
  6
CONTINUOUS
 62
     3
 10
19730.9122939999906521
 20
8500.8199690000001283
 30
0.0
 11
22914.4137449999798264
 21
8500.8199690000001283
 31
0.0
  0
LINE
  5
48C5
  8
0-1
  6
CONTINUOUS
 62
     3
 10
19602.91361399996822
 20
8704.8202460000011342
 30
0.0
 11
22956.9140090000000782
 21
8704.8202460000011342
 31
0.0
  0
LINE
  5
48C6
  8
0-1
  6
CONTINUOUS
 62
     3
 10
22956.9140090000000782
 20
8574.8193229999978939
 30
0.0
 11
19602.91361399996822
 21
8574.8193229999978939
 31
0.0
  0
LINE
  5
48C7
  8
0-1
  6
CONTINUOUS
 62
     3
 10
22956.9140090000000782
 20
8574.8193229999978939
 30
0.0
 11
22956.9140090000000782
 21
8704.8202460000011342
 31
0.0
  0
LINE
  5
48C8
  8
0-1
  6
CONTINUOUS
 62
     3
 10
22956.9140090000000782
 20
8574.8193229999978939
 30
0.0
 11
22956.9140090000000782
 21
8704.8202460000011342
 31
0.0
  0
ARC
  5
48C9
  8
0-1
  6
CONTINUOUS
 62
     3
 10
26156.9167269999707059
 20
8486.8198239999983343
 30
0.0
 40
5.0
 50
0.0
 51
90.0
  0
ARC
  5
48CA
  8
0-1
  6
CONTINUOUS
 62
     3
 10
26156.9167269999707059
 20
8454.8199170000007143
 30
0.0
 40
5.0
 50
269.9999850001807999
 51
0.0
  0
ARC
  5
48CB
  8
0-1
  6
CONTINUOUS
 62
     3
 10
25847.4863009999899077
 20
8486.8198239999983343
 30
0.0
 40
5.0
 50
90.0
 51
224.9999849999798869
  0
ARC
  5
48CC
  8
0-1
  6
CONTINUOUS
 62
     3
 10
25879.4871979999916221
 20
8454.8199170000007143
 30
0.0
 40
5.0
 50
224.9999849999798869
 51
269.9999850001807999
  0
ARC
  5
48CD
  8
0-1
  6
CONTINUOUS
 62
     3
 10
23334.8436960000217368
 20
8486.8198239999983343
 30
0.0
 40
5.0
 50
314.9999850002747053
 51
90.0
  0
ARC
  5
48CE
  8
0-1
  6
CONTINUOUS
 62
     3
 10
23302.8427989999981946
 20
8454.8199170000007143
 30
0.0
 40
5.0
 50
269.9999850001807999
 51
314.9999850002747053
  0
ARC
  5
48CF
  8
0-1
  6
CONTINUOUS
 62
     3
 10
23025.415249000001495
 20
8454.8199170000007143
 30
0.0
 40
5.0
 50
180.0
 51
269.9999850001807999
  0
ARC
  5
48D0
  8
0-1
  6
CONTINUOUS
 62
     3
 10
23025.415249000001495
 20
8486.8198239999983343
 30
0.0
 40
5.0
 50
90.0
 51
180.0
  0
ARC
  5
48D1
  8
0-1
  6
CONTINUOUS
 62
     3
 10
22888.4147479999810457
 20
8454.8199170000007143
 30
0.0
 40
5.0
 50
269.9999850001807999
 51
0.0
  0
ARC
  5
48D2
  8
0-1
  6
CONTINUOUS
 62
     3
 10
22888.4147479999810457
 20
8486.8198239999983343
 30
0.0
 40
5.0
 50
0.0
 51
90.0
  0
ARC
  5
48D3
  8
0-1
  6
CONTINUOUS
 62
     3
 10
22578.9843219999893336
 20
8486.8198239999983343
 30
0.0
 40
5.0
 50
90.0
 51
224.9999849999798869
  0
ARC
  5
48D4
  8
0-1
  6
CONTINUOUS
 62
     3
 10
22610.9871989999810467
 20
8454.8199170000007143
 30
0.0
 40
5.0
 50
224.9999849999798869
 51
269.9999850001807999
  0
ARC
  5
48D5
  8
0-1
  6
CONTINUOUS
 62
     3
 10
20066.3436969999893336
 20
8486.8198239999983343
 30
0.0
 40
5.0
 50
314.9999850002747053
 51
90.0
  0
ARC
  5
48D6
  8
0-1
  6
CONTINUOUS
 62
     3
 10
19756.9132699999900069
 20
8486.8198239999983343
 30
0.0
 40
5.0
 50
90.0
 51
180.0
  0
ARC
  5
48D7
  8
0-1
  6
CONTINUOUS
 62
     3
 10
19756.9132699999900069
 20
8454.8199170000007143
 30
0.0
 40
5.0
 50
180.0
 51
269.9999850001807999
  0
ARC
  5
48D8
  8
0-1
  6
CONTINUOUS
 62
     3
 10
20034.3427999999694293
 20
8454.8199170000007143
 30
0.0
 40
5.0
 50
269.9999850001807999
 51
314.9999850002747053
  0
LINE
  5
48D9
  8
SUNPOU
  6
CONTINUOUS
 62
     4
 10
19602.9116339999709453
 20
8784.8202459999974963
 30
0.0
 11
19602.9116339999709453
 21
9984.2778579999958311
 31
0.0
  0
LINE
  5
48DA
  8
SUNPOU
  6
CONTINUOUS
 62
     4
 10
26310.9163840000001073
 20
8784.8202459999974963
 30
0.0
 11
26310.9163840000001073
 21
9984.2778579999958311
 31
0.0
  0
LINE
  5
48DB
  8
SUNPOU
  6
CONTINUOUS
 62
     4
 10
19605.9116339999600314
 20
9904.2778579999958311
 30
0.0
 11
26307.9163839999891934
 21
9904.2778579999958311
 31
0.0
  0
LINE
  5
48DC
  8
SUNPOU
  6
CONTINUOUS
 62
     4
 10
19645.9137449999689125
 20
8784.8202459999974963
 30
0.0
 11
19645.9137449999689125
 21
9584.3200879999967583
 31
0.0
  0
LINE
  5
48DD
  8
SUNPOU
  6
CONTINUOUS
 62
     4
 10
26267.9142729999803123
 20
8784.8202459999974963
 30
0.0
 11
26267.9142729999803123
 21
9584.3200879999967583
 31
0.0
  0
LINE
  5
48DE
  8
SUNPOU
  6
CONTINUOUS
 62
     4
 10
19645.9137449999689125
 20
9504.3200879999985773
 30
0.0
 11
26267.9142729999803123
 21
9504.3200879999985773
 31
0.0
  0
LINE
  5
48DF
  8
SUNPOU
  6
CONTINUOUS
 62
     4
 10
19645.9137449999689125
 20
8784.8202459999974963
 30
0.0
 11
19645.9137449999689125
 21
9584.3200879999967583
 31
0.0
  0
LINE
  5
48E0
  8
SUNPOU
  6
CONTINUOUS
 62
     4
 10
19602.9116339999709453
 20
8784.8202459999974963
 30
0.0
 11
19602.9116339999709453
 21
9584.3200879999967583
 31
0.0
  0
LINE
  5
48E1
  8
SUNPOU
  6
CONTINUOUS
 62
     4
 10
19645.9137449999689125
 20
9504.3200879999985773
 30
0.0
 11
19885.9137449999689125
 21
9504.3200879999985773
 31
0.0
  0
LINE
  5
48E2
  8
SUNPOU
  6
CONTINUOUS
 62
     4
 10
19605.9116339999600314
 20
9504.3200879999985773
 30
0.0
 11
19365.9116339999891352
 21
9504.3200879999985773
 31
0.0
  0
LINE
  5
48E3
  8
SUNPOU
  6
CONTINUOUS
 62
     4
 10
19645.9137449999689125
 20
9504.3200879999985773
 30
0.0
 11
19605.9116339999600314
 21
9504.3200879999985773
 31
0.0
  0
LINE
  5
48E4
  8
SUNPOU
  6
CONTINUOUS
 62
     4
 10
26267.9142729999803123
 20
8784.8202459999974963
 30
0.0
 11
26267.9142729999803123
 21
9584.3200879999967583
 31
0.0
  0
LINE
  5
48E5
  8
SUNPOU
  6
CONTINUOUS
 62
     4
 10
26310.9163840000001073
 20
8784.8202459999974963
 30
0.0
 11
26310.9163840000001073
 21
9584.3200879999967583
 31
0.0
  0
LINE
  5
48E6
  8
SUNPOU
  6
CONTINUOUS
 62
     4
 10
26267.9142729999803123
 20
9504.3200879999985773
 30
0.0
 11
26027.9142729999693984
 21
9504.3200879999985773
 31
0.0
  0
LINE
  5
48E7
  8
SUNPOU
  6
CONTINUOUS
 62
     4
 10
26307.9163839999891934
 20
9504.3200879999985773
 30
0.0
 11
26547.9163839999891934
 21
9504.3200879999985773
 31
0.0
  0
LINE
  5
48E8
  8
SUNPOU
  6
CONTINUOUS
 62
     4
 10
26267.9142729999803123
 20
9504.3200879999985773
 30
0.0
 11
26307.9163839999891934
 21
9504.3200879999985773
 31
0.0
  0
TEXT
  5
48E9
  8
0
  6
CONTINUOUS
 62
     7
 10
26427.9163839999891934
 20
9584.3200879999967583
 30
0.0
 40
160.0
  1
43
  0
TEXT
  5
48EA
  8
0
  6
CONTINUOUS
 62
     7
 10
19245.9116339999709453
 20
9584.3200879999967583
 30
0.0
 40
160.0
  1
43
  0
TEXT
  5
48EB
  8
0
  6
CONTINUOUS
 62
     7
 10
22663.5806756666606816
 20
9584.3200879999967583
 30
0.0
 40
160.0
  1
6622
  0
TEXT
  5
48EC
  8
0
  6
CONTINUOUS
 62
     7
 10
22676.9140089999891643
 20
9984.2778579999958311
 30
0.0
 40
160.0
  1
6708
  0
ARC
  5
48ED
  8
0
  6
BYBLOCK
 62
     0
 10
19602.9116339999709453
 20
9904.2778579999958311
 30
0.0
 40
15.0
 50
0.0
 51
180.0
  0
ARC
  5
48EE
  8
0
  6
BYBLOCK
 62
     0
 10
19602.9116339999709453
 20
9904.2778579999958311
 30
0.0
 40
15.0
 50
180.0
 51
0.0
  0
ARC
  5
48EF
  8
0
  6
BYBLOCK
 62
     0
 10
26310.9163840000001073
 20
9904.2778579999958311
 30
0.0
 40
15.0
 50
180.0
 51
0.0
  0
ARC
  5
48F0
  8
0
  6
BYBLOCK
 62
     0
 10
26310.9163840000001073
 20
9904.2778579999958311
 30
0.0
 40
15.0
 50
0.0
 51
180.0
  0
ARC
  5
48F1
  8
0
  6
BYBLOCK
 62
     0
 10
19645.9137449999689125
 20
9504.3200879999985773
 30
0.0
 40
15.0
 50
0.0
 51
180.0
  0
ARC
  5
48F2
  8
0
  6
BYBLOCK
 62
     0
 10
19645.9137449999689125
 20
9504.3200879999985773
 30
0.0
 40
15.0
 50
180.0
 51
0.0
  0
ARC
  5
48F3
  8
0
  6
BYBLOCK
 62
     0
 10
26267.9142729999803123
 20
9504.3200879999985773
 30
0.0
 40
15.0
 50
180.0
 51
0.0
  0
ARC
  5
48F4
  8
0
  6
BYBLOCK
 62
     0
 10
26267.9142729999803123
 20
9504.3200879999985773
 30
0.0
 40
15.0
 50
0.0
 51
180.0
  0
ARC
  5
48F5
  8
0
  6
BYBLOCK
 62
     0
 10
19645.9137449999689125
 20
9504.3200879999985773
 30
0.0
 40
15.0
 50
0.0
 51
180.0
  0
ARC
  5
48F6
  8
0
  6
BYBLOCK
 62
     0
 10
19645.9137449999689125
 20
9504.3200879999985773
 30
0.0
 40
15.0
 50
180.0
 51
0.0
  0
ARC
  5
48F7
  8
0
  6
BYBLOCK
 62
     0
 10
19602.9116339999709453
 20
9504.3200879999985773
 30
0.0
 40
15.0
 50
180.0
 51
0.0
  0
ARC
  5
48F8
  8
0
  6
BYBLOCK
 62
     0
 10
19602.9116339999709453
 20
9504.3200879999985773
 30
0.0
 40
15.0
 50
0.0
 51
180.0
  0
ARC
  5
48F9
  8
0
  6
BYBLOCK
 62
     0
 10
26267.9142729999803123
 20
9504.3200879999985773
 30
0.0
 40
15.0
 50
180.0
 51
0.0
  0
ARC
  5
48FA
  8
0
  6
BYBLOCK
 62
     0
 10
26267.9142729999803123
 20
9504.3200879999985773
 30
0.0
 40
15.0
 50
0.0
 51
180.0
  0
ARC
  5
48FB
  8
0
  6
BYBLOCK
 62
     0
 10
26310.9163840000001073
 20
9504.3200879999985773
 30
0.0
 40
15.0
 50
0.0
 51
180.0
  0
ARC
  5
48FC
  8
0
  6
BYBLOCK
 62
     0
 10
26310.9163840000001073
 20
9504.3200879999985773
 30
0.0
 40
15.0
 50
180.0
 51
0.0
  0
LINE
  5
4932
  8
SUNPOU
  6
CONTINUOUS
 62
     4
 10
8596.9545249999864609
 20
13783.2296609999993962
 30
0.0
 11
8596.9545249999864609
 21
12583.2286719999792695
 31
0.0
  0
LINE
  5
4933
  8
SUNPOU
  6
CONTINUOUS
 62
     4
 10
15304.9543279999707011
 20
13783.2296609999993962
 30
0.0
 11
15304.9543279999707011
 21
12583.2286719999792695
 31
0.0
  0
LINE
  5
4934
  8
SUNPOU
  6
CONTINUOUS
 62
     4
 10
8596.9545249999864609
 20
12663.2286719999792695
 30
0.0
 11
15304.9543279999707011
 21
12663.2286719999792695
 31
0.0
  0
TEXT
  5
4935
  8
0
  6
CONTINUOUS
 62
     7
 10
11148.2877598332997877
 20
12743.2286719999792695
 30
0.0
 40
160.0
  1
ケラバ外寸 6708
  0
ARC
  5
4936
  8
0
  6
BYBLOCK
 62
     0
 10
8596.9545249999864609
 20
12663.2286719999792695
 30
0.0
 40
15.0
 50
0.0
 51
180.0
  0
ARC
  5
4937
  8
0
  6
BYBLOCK
 62
     0
 10
8596.9545249999864609
 20
12663.2286719999792695
 30
0.0
 40
15.0
 50
180.0
 51
0.0
  0
ARC
  5
4938
  8
0
  6
BYBLOCK
 62
     0
 10
15304.9543279999707011
 20
12663.2286719999792695
 30
0.0
 40
15.0
 50
180.0
 51
0.0
  0
ARC
  5
4939
  8
0
  6
BYBLOCK
 62
     0
 10
15304.9543279999707011
 20
12663.2286719999792695
 30
0.0
 40
15.0
 50
0.0
 51
180.0
  0
TEXT
  5
4995
  8
NAME
 10
24033.0535465540087898
 20
1075.9999999999990905
 30
0.0
 40
360.0
  1
H
 41
0.6700000000000002
  7
00
  0
TEXT
  5
4996
  8
NAME
 10
23657.2215619736816734
 20
1075.9999999999990905
 30
0.0
 40
360.0
  1
（ ）
  7
01
  0
TEXT
  5
4997
  8
NAME
 10
21933.5527163890110387
 20
1875.9999999999990905
 30
0.0
 40
360.0
  1
ヨドガレージ ラヴィージュ
 41
0.75
  7
01
  0
TEXT
  5
4998
  8
NAME
 10
21550.0227918983910058
 20
1076.6369801169239508
 30
0.0
 40
360.0
  1
VGCU-3359
 41
0.6700000000000002
  0
LINE
  5
4999
  8
NAME
  6
CONTINUOUS
 10
26067.8868788842992217
 20
2236.0
 30
0.0
 11
26067.8868788842992217
 21
1875.9999999999990905
 31
0.0
  0
LINE
  5
499A
  8
NAME
  6
CONTINUOUS
 10
26167.8868788842992217
 20
2236.0
 30
0.0
 11
26167.8868788842992217
 21
1875.9999999999990905
 31
0.0
  0
LINE
  5
499B
  8
NAME
  6
CONTINUOUS
 10
26267.8868788843101356
 20
2236.0
 30
0.0
 11
26267.8868788843101356
 21
1875.9999999999990905
 31
0.0
  0
LINE
  5
499C
  8
NAME
  6
CONTINUOUS
 10
26007.8868788842992217
 20
2236.0
 30
0.0
 11
26327.8868788842992217
 21
2236.0
 31
0.0
  0
LINE
  5
499D
  8
NAME
  6
CONTINUOUS
 10
26327.8868788842992217
 20
1875.9999999999990905
 30
0.0
 11
26007.8868788842992217
 21
1875.9999999999990905
 31
0.0
  0
TEXT
  5
499E
  8
NAME
 10
25346.0417924266694172
 20
1075.9999999999990905
 30
0.0
 40
360.0
  1
2
 41
0.6700000000000002
  7
00
  0
TEXT
  5
499F
  8
NAME
 10
24557.2145492567215115
 20
1075.9999999999990905
 30
0.0
 40
360.0
  1
型（ 連棟）
  7
01
  0
TEXT
  5
4A57
  8
FILENAME
  6
CONTINUOUS
 10
28546.857142857141298
 20
348.0
 30
0.0
 40
200.0
  1
＜VGCU-3359-2-A_0.DXF ＞
  7
FILENAME
 72
     2
 11
32764.0
 21
348.0
 31
0.0
  0
LINE
  5
4A58
  8
WAKUSEN-01
 10
868.0000000000019327
 20
827.9999999999995453
 30
0.0
 11
32764.0000000000109139
 21
827.9999999999994316
 31
0.0
  0
LINE
  5
4A59
  8
WAKUSEN-01
 10
868.0000000000019327
 20
827.9999999999995453
 30
0.0
 11
868.0000000000019327
 21
22484.0000000000109139
 31
0.0
  0
LINE
  5
4A5A
  8
WAKUSEN-01
 10
32764.0000000000109139
 20
827.9999999999994316
 30
0.0
 11
32764.0000000000109139
 21
22484.0000000000109139
 31
0.0
  0
LINE
  5
4A5B
  8
WAKUSEN-01
 10
20560.0
 20
827.9999999999970441
 30
0.0
 11
20560.0
 21
2484.0
 31
0.0
  0
LINE
  5
4A5C
  8
WAKUSEN-02
 10
26868.0
 20
827.9999999999926104
 30
0.0
 11
26868.0
 21
2484.0
 31
0.0
  0
LINE
  5
5021
  8
WAKUSEN-01
 10
868.0000000000019327
 20
22484.0000000000109139
 30
0.0
 11
32764.0000000000109139
 21
22484.0000000000109139
 31
0.0
  0
LINE
  5
5022
  8
WAKUSEN-01
 10
20560.0
 20
2484.0
 30
0.0
 11
32764.0
 21
2484.0
 31
0.0
  0
LINE
  5
5023
  8
WAKUSEN-02
 10
20560.0
 20
1655.9999999999990905
 30
0.0
 11
26868.0
 21
1655.9999999999990905
 31
0.0
  0
TEXT
  5
5024
  8
WAKUMOJI-01
 10
20670.2602599627498421
 20
2125.903009339322125
 30
0.0
 40
240.0
  1
名　称
  7
WAKUMOJI
  0
TEXT
  5
5025
  8
WAKUMOJI-01
 10
20656.505485091918672
 20
1319.1289749798199864
 30
0.0
 40
240.0
  1
機種名
  7
WAKUMOJI
  0
LINE
  5
5026
  8
YODOROGO
 10
29977.6043412919207185
 20
1995.7494964292870918
 30
0.0
 11
29829.6043412919207185
 21
1995.7494964292870918
 31
0.0
1001
AUTOCAD_POSTSCRIPT_FIGURE
1002
{
1000
PSFILL
1000
Grayscale
1000
Grayscale
1070
    25
1002
}
  0
LINE
  5
5027
  8
YODOROGO
 10
29829.6043412919207185
 20
1947.7494964292880013
 30
0.0
 11
29977.6043412919207185
 21
1947.7494964292880013
 31
0.0
1001
AUTOCAD_POSTSCRIPT_FIGURE
1002
{
1000
PSFILL
1000
Grayscale
1000
Grayscale
1070
    25
1002
}
  0
LINE
  5
5028
  8
YODOROGO
 10
29977.6043412919207185
 20
1907.7494964292870918
 30
0.0
 11
29829.6043412919207185
 21
1907.7494964292870918
 31
0.0
1001
AUTOCAD_POSTSCRIPT_FIGURE
1002
{
1000
PSFILL
1000
Grayscale
1000
Grayscale
1070
    25
1002
}
  0
LINE
  5
5029
  8
YODOROGO
 10
29829.6043412919207185
 20
1859.7494964292880013
 30
0.0
 11
29977.6043412919207185
 21
1859.7494964292880013
 31
0.0
1001
AUTOCAD_POSTSCRIPT_FIGURE
1002
{
1000
PSFILL
1000
Grayscale
1000
Grayscale
1070
    25
1002
}
  0
LINE
  5
502A
  8
YODOROGO
 10
29977.6043412919207185
 20
1819.7494964292870918
 30
0.0
 11
29829.6043412919207185
 21
1819.7494964292870918
 31
0.0
1001
AUTOCAD_POSTSCRIPT_FIGURE
1002
{
1000
PSFILL
1000
Grayscale
1000
Grayscale
1070
    25
1002
}
  0
LINE
  5
502B
  8
YODOROGO
 10
29921.6043412919098046
 20
1707.7494964292880013
 30
0.0
 11
29977.6043412919207185
 21
1707.7494964292880013
 31
0.0
1001
AUTOCAD_POSTSCRIPT_FIGURE
1002
{
1000
PSFILL
1000
Grayscale
1000
Grayscale
1070
    25
1002
}
  0
LINE
  5
502C
  8
YODOROGO
 10
29737.6043412919207185
 20
1427.7494964292880013
 30
0.0
 11
29937.6043412919316324
 21
1481.3393349155089709
 31
0.0
  0
LINE
  5
502D
  8
YODOROGO
 10
29949.6043412919098046
 20
1707.7494964292880013
 30
0.0
 11
29885.6043412919207185
 21
1707.7494964292880013
 31
0.0
  0
ARC
  5
502E
  8
YODOROGO
 10
30254.3477498279098654
 20
1807.8646092332610351
 30
0.0
 40
381.886864205647214
 50
213.9611167766782955
 51
264.4787207431779166
  0
ARC
  5
502F
  8
YODOROGO
 10
30254.3477498279207794
 20
1807.8646092333019624
 30
0.0
 40
381.8868642056816043
 50
208.1411442048660092
 51
212.9210361185994032
  0
LINE
  5
5030
  8
YODOROGO
 10
29771.4098729853212717
 20
1556.8076613462339992
 30
0.0
 11
29933.7841325085501012
 21
1600.3157130570868958
 31
0.0
  0
LINE
  5
5031
  8
YODOROGO
 10
29737.6043412919207185
 20
1427.7494964292880013
 30
0.0
 11
29937.6043412919316324
 21
1481.3393349155089709
 31
0.0
  0
LINE
  5
5032
  8
YODOROGO
 10
29949.6043412919098046
 20
1707.7494964292880013
 30
0.0
 11
29885.6043412919207185
 21
1707.7494964292880013
 31
0.0
  0
ARC
  5
5033
  8
YODOROGO
 10
30254.3477498279098654
 20
1807.8646092332610351
 30
0.0
 40
381.886864205647214
 50
213.9611167766782955
 51
264.4787207431779166
  0
LINE
  5
5034
  8
YODOROGO
 10
28793.6043412919098046
 20
1819.7494964292870918
 30
0.0
 11
28433.6043412919098046
 21
1819.7494964292870918
 31
0.0
  0
LINE
  5
5035
  8
YODOROGO
 10
28513.6043412919098046
 20
1427.7494964292880013
 30
0.0
 11
28793.6043412919098046
 21
1427.7494964292880013
 31
0.0
  0
LINE
  5
5036
  8
YODOROGO
 10
28729.6043412919207185
 20
1923.7494964292870918
 30
0.0
 11
28497.6043412919098046
 21
1923.7494964292870918
 31
0.0
  0
LINE
  5
5037
  8
YODOROGO
 10
28585.6043412919207185
 20
2027.7494964292880013
 30
0.0
 11
28657.6043412919207185
 21
2027.7494964292880013
 31
0.0
  0
LINE
  5
5038
  8
YODOROGO
 10
28433.6043412919098046
 20
1707.7494964292880013
 30
0.0
 11
28433.6043412919098046
 21
1507.7494964292880013
 31
0.0
  0
LINE
  5
5039
  8
YODOROGO
 10
28497.6043412919098046
 20
1563.7494964292870918
 30
0.0
 11
28497.6043412919098046
 21
1707.7494964292880013
 31
0.0
  0
LINE
  5
503A
  8
YODOROGO
 10
28585.6043412919207185
 20
1747.7494964292900477
 30
0.0
 11
28585.6043412919207185
 21
1547.7494964292880013
 31
0.0
  0
LINE
  5
503B
  8
YODOROGO
 10
27857.6043412919207185
 20
1683.7494964292880013
 30
0.0
 11
27777.6043412919207185
 21
1619.9724140445700868
 31
0.0
  0
LINE
  5
503C
  8
YODOROGO
 10
27937.6043412919207185
 20
1619.9724140445700868
 30
0.0
 11
27857.6043412919207185
 21
1683.7494964292880013
 31
0.0
  0
LINE
  5
503D
  8
YODOROGO
 10
27857.6043412919207185
 20
1707.7494964292880013
 30
0.0
 11
27937.6043412919207185
 21
1643.9724140445700868
 31
0.0
  0
LINE
  5
503E
  8
YODOROGO
 10
27777.6043412919207185
 20
1643.9724140445700868
 30
0.0
 11
27857.6043412919207185
 21
1707.7494964292880013
 31
0.0
  0
LINE
  5
503F
  8
YODOROGO
 10
28040.913204016880627
 20
1659.7494964292880013
 30
0.0
 11
28040.913204016880627
 21
1683.7494964292870918
 31
0.0
  0
LINE
  5
5040
  8
YODOROGO
 10
27977.6043412919207185
 20
1683.7494964292870918
 30
0.0
 11
27977.6043412919207185
 21
1667.7494964292850455
 31
0.0
  0
LINE
  5
5041
  8
YODOROGO
 10
28098.1355202309314336
 20
1707.7494964292880013
 30
0.0
 11
28098.1355202309314336
 21
1655.5036372746560573
 31
0.0
1001
AUTOCAD_POSTSCRIPT_FIGURE
1002
{
1000
PSFILL
1000
Grayscale
1000
Grayscale
1070
   100
1002
}
  0
LINE
  5
5042
  8
YODOROGO
 10
28082.1355202309205197
 20
1655.5036372746560573
 30
0.0
 11
28082.1355202309205197
 21
1707.7494964292880013
 31
0.0
1001
AUTOCAD_POSTSCRIPT_FIGURE
1002
{
1000
PSFILL
1000
Grayscale
1000
Grayscale
1070
   100
1002
}
  0
LINE
  5
5043
  8
YODOROGO
 10
27809.6043412919207185
 20
1608.7719040432580186
 30
0.0
 11
27809.6043412919207185
 21
1632.7719040432580186
 31
0.0
  0
LINE
  5
5044
  8
YODOROGO
 10
27905.6043412919207185
 20
1608.7719040432580186
 30
0.0
 11
27809.6043412919207185
 21
1608.7719040432580186
 31
0.0
  0
LINE
  5
5045
  8
YODOROGO
 10
27905.6043412919207185
 20
1632.7719040432580186
 30
0.0
 11
27905.6043412919207185
 21
1608.7719040432580186
 31
0.0
  0
LINE
  5
5046
  8
YODOROGO
 10
27809.6043412919207185
 20
1632.7719040432580186
 30
0.0
 11
27905.6043412919207185
 21
1632.7719040432580186
 31
0.0
  0
LINE
  5
5047
  8
YODOROGO
 10
27824.5095889157382771
 20
1568.5028573704730661
 30
0.0
 11
27785.6043412919207185
 21
1475.7494964292870918
 31
0.0
1001
AUTOCAD_POSTSCRIPT_FIGURE
1002
{
1000
PSFILL
1000
Grayscale
1000
Grayscale
1070
   100
1002
}
  0
LINE
  5
5048
  8
YODOROGO
 10
27777.6043412919207185
 20
1568.5028573704730661
 30
0.0
 11
27824.5095889157382771
 21
1568.5028573704730661
 31
0.0
1001
AUTOCAD_POSTSCRIPT_FIGURE
1002
{
1000
PSFILL
1000
Grayscale
1000
Grayscale
1070
   100
1002
}
  0
LINE
  5
5049
  8
YODOROGO
 10
27777.6043412919207185
 20
1588.5028573704751125
 30
0.0
 11
27777.6043412919207185
 21
1568.5028573704730661
 31
0.0
1001
AUTOCAD_POSTSCRIPT_FIGURE
1002
{
1000
PSFILL
1000
Grayscale
1000
Grayscale
1070
   100
1002
}
  0
LINE
  5
504A
  8
YODOROGO
 10
27937.6043412919207185
 20
1588.5028573704751125
 30
0.0
 11
27777.6043412919207185
 21
1588.5028573704751125
 31
0.0
1001
AUTOCAD_POSTSCRIPT_FIGURE
1002
{
1000
PSFILL
1000
Grayscale
1000
Grayscale
1070
   100
1002
}
  0
LINE
  5
504B
  8
YODOROGO
 10
27937.6043412919207185
 20
1568.5028573704730661
 30
0.0
 11
27937.6043412919207185
 21
1588.5028573704751125
 31
0.0
1001
AUTOCAD_POSTSCRIPT_FIGURE
1002
{
1000
PSFILL
1000
Grayscale
1000
Grayscale
1070
   100
1002
}
  0
LINE
  5
504C
  8
YODOROGO
 10
27844.5095889157382771
 20
1568.5028573704730661
 30
0.0
 11
27937.6043412919207185
 21
1568.5028573704730661
 31
0.0
1001
AUTOCAD_POSTSCRIPT_FIGURE
1002
{
1000
PSFILL
1000
Grayscale
1000
Grayscale
1070
   100
1002
}
  0
LINE
  5
504D
  8
YODOROGO
 10
27815.5467182847714867
 20
1495.7494964292870918
 30
0.0
 11
27844.5095889157382771
 21
1568.5028573704730661
 31
0.0
1001
AUTOCAD_POSTSCRIPT_FIGURE
1002
{
1000
PSFILL
1000
Grayscale
1000
Grayscale
1070
   100
1002
}
  0
LINE
  5
504E
  8
YODOROGO
 10
27902.0547908086482494
 20
1495.7494964292870918
 30
0.0
 11
27815.5467182847714867
 21
1495.7494964292870918
 31
0.0
1001
AUTOCAD_POSTSCRIPT_FIGURE
1002
{
1000
PSFILL
1000
Grayscale
1000
Grayscale
1070
   100
1002
}
  0
LINE
  5
504F
  8
YODOROGO
 10
27885.0650047909512068
 20
1536.2338106976928884
 30
0.0
 11
27902.0547908086482494
 21
1495.7494964292870918
 31
0.0
1001
AUTOCAD_POSTSCRIPT_FIGURE
1002
{
1000
PSFILL
1000
Grayscale
1000
Grayscale
1070
   100
1002
}
  0
LINE
  5
5050
  8
YODOROGO
 10
27901.0650047909512068
 20
1536.2338106976928884
 30
0.0
 11
27885.0650047909512068
 21
1536.2338106976928884
 31
0.0
1001
AUTOCAD_POSTSCRIPT_FIGURE
1002
{
1000
PSFILL
1000
Grayscale
1000
Grayscale
1070
   100
1002
}
  0
LINE
  5
5051
  8
YODOROGO
 10
27929.6043412919207185
 20
1475.7494964292870918
 30
0.0
 11
27901.0650047909512068
 21
1536.2338106976928884
 31
0.0
1001
AUTOCAD_POSTSCRIPT_FIGURE
1002
{
1000
PSFILL
1000
Grayscale
1000
Grayscale
1070
   100
1002
}
  0
LINE
  5
5052
  8
YODOROGO
 10
27785.6043412919207185
 20
1475.7494964292870918
 30
0.0
 11
27929.6043412919207185
 21
1475.7494964292870918
 31
0.0
1001
AUTOCAD_POSTSCRIPT_FIGURE
1002
{
1000
PSFILL
1000
Grayscale
1000
Grayscale
1070
   100
1002
}
  0
LINE
  5
5053
  8
YODOROGO
 10
27777.6043412919207185
 20
1619.9724140445700868
 30
0.0
 11
27777.6043412919207185
 21
1643.9724140445700868
 31
0.0
  0
LINE
  5
5054
  8
YODOROGO
 10
27937.6043412919207185
 20
1643.9724140445700868
 30
0.0
 11
27937.6043412919207185
 21
1619.9724140445700868
 31
0.0
  0
ARC
  5
5055
  8
YODOROGO
 10
28225.9404421469589579
 20
1600.8777653253259814
 30
0.0
 40
175.999999999999801
 50
280.3644312771313025
 51
3.5414836592180561
  0
ARC
  5
5056
  8
YODOROGO
 10
28235.7560307593012112
 20
1633.597806961904098
 30
0.0
 40
111.9999999999981952
 50
281.2490582504153735
 51
348.7509417495832054
  0
LINE
  5
5057
  8
YODOROGO
 10
28257.6043412919207185
 20
1523.7494964292870918
 30
0.0
 11
28257.6043412919207185
 21
1427.7494964292880013
 31
0.0
  0
LINE
  5
5058
  8
YODOROGO
 10
28020.0889037369088328
 20
1610.6505650619139942
 30
0.0
 11
28040.913204016880627
 21
1659.7494964292880013
 31
0.0
  0
LINE
  5
5059
  8
YODOROGO
 10
28041.6043412919207185
 20
1583.1204899484009729
 30
0.0
 11
28020.0889037369088328
 21
1610.6505650619139942
 31
0.0
  0
LINE
  5
505A
  8
YODOROGO
 10
28041.6043412919207185
 20
1563.1204899483980171
 30
0.0
 11
28041.6043412919207185
 21
1583.1204899484009729
 31
0.0
  0
LINE
  5
505B
  8
YODOROGO
 10
28017.6043412919207185
 20
1585.2370637495300798
 30
0.0
 11
28041.6043412919207185
 21
1563.1204899483980171
 31
0.0
  0
LINE
  5
505C
  8
YODOROGO
 10
28017.6043412919207185
 20
1475.7494964292870918
 30
0.0
 11
28017.6043412919207185
 21
1585.2370637495300798
 31
0.0
  0
LINE
  5
505D
  8
YODOROGO
 10
28001.6043412919207185
 20
1475.7494964292870918
 30
0.0
 11
28017.6043412919207185
 21
1475.7494964292870918
 31
0.0
  0
LINE
  5
505E
  8
YODOROGO
 10
28001.6043412919207185
 20
1580.0053496897469358
 30
0.0
 11
28001.6043412919207185
 21
1475.7494964292870918
 31
0.0
  0
LINE
  5
505F
  8
YODOROGO
 10
27977.6043412919207185
 20
1532.7680790334291032
 30
0.0
 11
28001.6043412919207185
 21
1580.0053496897469358
 31
0.0
  0
LINE
  5
5060
  8
YODOROGO
 10
27977.6043412919207185
 20
1556.7680790334300127
 30
0.0
 11
27977.6043412919207185
 21
1532.7680790334291032
 31
0.0
  0
LINE
  5
5061
  8
YODOROGO
 10
28025.8287742913416878
 20
1667.7494964292850455
 30
0.0
 11
27977.6043412919207185
 21
1556.7680790334300127
 31
0.0
  0
LINE
  5
5062
  8
YODOROGO
 10
27977.6043412919207185
 20
1667.7494964292850455
 30
0.0
 11
28025.8287742913416878
 21
1667.7494964292850455
 31
0.0
  0
LINE
  5
5063
  8
YODOROGO
 10
28050.1355202308986918
 20
1655.5036372746560573
 30
0.0
 11
28082.1355202309205197
 21
1655.5036372746560573
 31
0.0
1001
AUTOCAD_POSTSCRIPT_FIGURE
1002
{
1000
PSFILL
1000
Grayscale
1000
Grayscale
1070
   100
1002
}
  0
LINE
  5
5064
  8
YODOROGO
 10
28050.1355202308986918
 20
1631.5036372746560573
 30
0.0
 11
28050.1355202308986918
 21
1655.5036372746560573
 31
0.0
1001
AUTOCAD_POSTSCRIPT_FIGURE
1002
{
1000
PSFILL
1000
Grayscale
1000
Grayscale
1070
   100
1002
}
  0
LINE
  5
5065
  8
YODOROGO
 10
28082.1355202309205197
 20
1631.5036372746560573
 30
0.0
 11
28050.1355202308986918
 21
1631.5036372746560573
 31
0.0
1001
AUTOCAD_POSTSCRIPT_FIGURE
1002
{
1000
PSFILL
1000
Grayscale
1000
Grayscale
1070
   100
1002
}
  0
LINE
  5
5066
  8
YODOROGO
 10
28082.1355202309205197
 20
1499.7494964292880013
 30
0.0
 11
28082.1355202309205197
 21
1631.5036372746560573
 31
0.0
1001
AUTOCAD_POSTSCRIPT_FIGURE
1002
{
1000
PSFILL
1000
Grayscale
1000
Grayscale
1070
   100
1002
}
  0
LINE
  5
5067
  8
YODOROGO
 10
28050.1355202308986918
 20
1499.7494964292880013
 30
0.0
 11
28082.1355202309205197
 21
1499.7494964292880013
 31
0.0
1001
AUTOCAD_POSTSCRIPT_FIGURE
1002
{
1000
PSFILL
1000
Grayscale
1000
Grayscale
1070
   100
1002
}
  0
LINE
  5
5068
  8
YODOROGO
 10
28050.1355202308986918
 20
1475.7494964292870918
 30
0.0
 11
28050.1355202308986918
 21
1499.7494964292880013
 31
0.0
1001
AUTOCAD_POSTSCRIPT_FIGURE
1002
{
1000
PSFILL
1000
Grayscale
1000
Grayscale
1070
   100
1002
}
  0
LINE
  5
5069
  8
YODOROGO
 10
28137.6043412919207185
 20
1475.7494964292870918
 30
0.0
 11
28050.1355202308986918
 21
1475.7494964292870918
 31
0.0
1001
AUTOCAD_POSTSCRIPT_FIGURE
1002
{
1000
PSFILL
1000
Grayscale
1000
Grayscale
1070
   100
1002
}
  0
LINE
  5
506A
  8
YODOROGO
 10
28137.6043412919207185
 20
1499.7494964292880013
 30
0.0
 11
28137.6043412919207185
 21
1475.7494964292870918
 31
0.0
1001
AUTOCAD_POSTSCRIPT_FIGURE
1002
{
1000
PSFILL
1000
Grayscale
1000
Grayscale
1070
   100
1002
}
  0
LINE
  5
506B
  8
YODOROGO
 10
28098.1355202309314336
 20
1499.7494964292880013
 30
0.0
 11
28137.6043412919207185
 21
1499.7494964292880013
 31
0.0
1001
AUTOCAD_POSTSCRIPT_FIGURE
1002
{
1000
PSFILL
1000
Grayscale
1000
Grayscale
1070
   100
1002
}
  0
LINE
  5
506C
  8
YODOROGO
 10
28098.1355202309314336
 20
1631.5036372746560573
 30
0.0
 11
28098.1355202309314336
 21
1499.7494964292880013
 31
0.0
1001
AUTOCAD_POSTSCRIPT_FIGURE
1002
{
1000
PSFILL
1000
Grayscale
1000
Grayscale
1070
   100
1002
}
  0
LINE
  5
506D
  8
YODOROGO
 10
28137.6043412919207185
 20
1631.5036372746560573
 30
0.0
 11
28098.1355202309314336
 21
1631.5036372746560573
 31
0.0
1001
AUTOCAD_POSTSCRIPT_FIGURE
1002
{
1000
PSFILL
1000
Grayscale
1000
Grayscale
1070
   100
1002
}
  0
LINE
  5
506E
  8
YODOROGO
 10
28137.6043412919207185
 20
1655.5036372746560573
 30
0.0
 11
28137.6043412919207185
 21
1631.5036372746560573
 31
0.0
1001
AUTOCAD_POSTSCRIPT_FIGURE
1002
{
1000
PSFILL
1000
Grayscale
1000
Grayscale
1070
   100
1002
}
  0
LINE
  5
506F
  8
YODOROGO
 10
28098.1355202309314336
 20
1655.5036372746560573
 30
0.0
 11
28137.6043412919207185
 21
1655.5036372746560573
 31
0.0
1001
AUTOCAD_POSTSCRIPT_FIGURE
1002
{
1000
PSFILL
1000
Grayscale
1000
Grayscale
1070
   100
1002
}
  0
LINE
  5
5070
  8
YODOROGO
 10
28401.6043412919098046
 20
1667.7494964292880013
 30
0.0
 11
28345.6043412919207185
 21
1667.7494964292880013
 31
0.0
  0
LINE
  5
5071
  8
YODOROGO
 10
28401.6043412919098046
 20
1611.7494964292880013
 30
0.0
 11
28401.6043412919098046
 21
1667.7494964292880013
 31
0.0
  0
LINE
  5
5072
  8
YODOROGO
 10
28345.6043412919207185
 20
1667.7494964292880013
 30
0.0
 11
28345.6043412919207185
 21
1611.7494964292880013
 31
0.0
  0
ARC
  5
5073
  8
YODOROGO
 10
28513.6043412919098046
 20
1507.7494964292880013
 30
0.0
 40
80.0
 50
180.0
 51
270.0
  0
ARC
  5
5074
  8
YODOROGO
 10
28537.6043412919207185
 20
1563.7494964292870918
 30
0.0
 40
40.0
 50
180.0
 51
270.0
  0
LINE
  5
5075
  8
YODOROGO
 10
28561.6043412919316324
 20
1523.7494964292870918
 30
0.0
 11
28537.6043412919207185
 21
1523.7494964292870918
 31
0.0
  0
ARC
  5
5076
  8
YODOROGO
 10
28561.6043412919316324
 20
1547.7494964292850455
 30
0.0
 40
23.9999999999963585
 50
270.0
 51
0.0000000000054281
  0
LINE
  5
5077
  8
YODOROGO
 10
27801.6043412919207185
 20
1890.7865807937059799
 30
0.0
 11
27777.6043412919207185
 21
1843.7767479516719504
 31
0.0
1001
AUTOCAD_POSTSCRIPT_FIGURE
1002
{
1000
PSFILL
1000
Grayscale
1000
Grayscale
1070
   100
1002
}
  0
LINE
  5
5078
  8
YODOROGO
 10
27801.6043412919207185
 20
1747.7494964292850455
 30
0.0
 11
27801.6043412919207185
 21
1890.7865807937059799
 31
0.0
1001
AUTOCAD_POSTSCRIPT_FIGURE
1002
{
1000
PSFILL
1000
Grayscale
1000
Grayscale
1070
   100
1002
}
  0
LINE
  5
5079
  8
YODOROGO
 10
27817.6043412919207185
 20
1747.7494964292850455
 30
0.0
 11
27801.6043412919207185
 21
1747.7494964292850455
 31
0.0
1001
AUTOCAD_POSTSCRIPT_FIGURE
1002
{
1000
PSFILL
1000
Grayscale
1000
Grayscale
1070
   100
1002
}
  0
LINE
  5
507A
  8
YODOROGO
 10
27817.6043412919207185
 20
1893.7713320852660672
 30
0.0
 11
27817.6043412919207185
 21
1747.7494964292850455
 31
0.0
1001
AUTOCAD_POSTSCRIPT_FIGURE
1002
{
1000
PSFILL
1000
Grayscale
1000
Grayscale
1070
   100
1002
}
  0
LINE
  5
507B
  8
YODOROGO
 10
27841.6043412919207185
 20
1867.6547582841360509
 30
0.0
 11
27817.6043412919207185
 21
1893.7713320852660672
 31
0.0
1001
AUTOCAD_POSTSCRIPT_FIGURE
1002
{
1000
PSFILL
1000
Grayscale
1000
Grayscale
1070
   100
1002
}
  0
LINE
  5
507C
  8
YODOROGO
 10
27841.6043412919207185
 20
1883.6547582841360509
 30
0.0
 11
27841.6043412919207185
 21
1867.6547582841360509
 31
0.0
1001
AUTOCAD_POSTSCRIPT_FIGURE
1002
{
1000
PSFILL
1000
Grayscale
1000
Grayscale
1070
   100
1002
}
  0
LINE
  5
507D
  8
YODOROGO
 10
27817.6043412919207185
 20
1917.7713320852649304
 30
0.0
 11
27841.6043412919207185
 21
1883.6547582841360509
 31
0.0
1001
AUTOCAD_POSTSCRIPT_FIGURE
1002
{
1000
PSFILL
1000
Grayscale
1000
Grayscale
1070
   100
1002
}
  0
LINE
  5
507E
  8
YODOROGO
 10
27817.6043412919207185
 20
1939.7494964292880013
 30
0.0
 11
27817.6043412919207185
 21
1917.7713320852649304
 31
0.0
1001
AUTOCAD_POSTSCRIPT_FIGURE
1002
{
1000
PSFILL
1000
Grayscale
1000
Grayscale
1070
   100
1002
}
  0
LINE
  5
507F
  8
YODOROGO
 10
27889.6043412919207185
 20
1939.7494964292880013
 30
0.0
 11
27817.6043412919207185
 21
1939.7494964292880013
 31
0.0
1001
AUTOCAD_POSTSCRIPT_FIGURE
1002
{
1000
PSFILL
1000
Grayscale
1000
Grayscale
1070
   100
1002
}
  0
LINE
  5
5080
  8
YODOROGO
 10
27889.6043412919207185
 20
1900.5683489363000263
 30
0.0
 11
27889.6043412919207185
 21
1939.7494964292880013
 31
0.0
1001
AUTOCAD_POSTSCRIPT_FIGURE
1002
{
1000
PSFILL
1000
Grayscale
1000
Grayscale
1070
   100
1002
}
  0
LINE
  5
5081
  8
YODOROGO
 10
27857.6043412919207185
 20
1900.5683489363000263
 30
0.0
 11
27889.6043412919207185
 21
1900.5683489363000263
 31
0.0
1001
AUTOCAD_POSTSCRIPT_FIGURE
1002
{
1000
PSFILL
1000
Grayscale
1000
Grayscale
1070
   100
1002
}
  0
LINE
  5
5082
  8
YODOROGO
 10
27857.6043412919207185
 20
1884.5683489362979799
 30
0.0
 11
27857.6043412919207185
 21
1900.5683489363000263
 31
0.0
1001
AUTOCAD_POSTSCRIPT_FIGURE
1002
{
1000
PSFILL
1000
Grayscale
1000
Grayscale
1070
   100
1002
}
  0
LINE
  5
5083
  8
YODOROGO
 10
27889.6043412919207185
 20
1884.5683489362979799
 30
0.0
 11
27857.6043412919207185
 21
1884.5683489362979799
 31
0.0
1001
AUTOCAD_POSTSCRIPT_FIGURE
1002
{
1000
PSFILL
1000
Grayscale
1000
Grayscale
1070
   100
1002
}
  0
LINE
  5
5084
  8
YODOROGO
 10
27889.6043412919207185
 20
1879.6191779644370854
 30
0.0
 11
27889.6043412919207185
 21
1884.5683489362979799
 31
0.0
1001
AUTOCAD_POSTSCRIPT_FIGURE
1002
{
1000
PSFILL
1000
Grayscale
1000
Grayscale
1070
   100
1002
}
  0
LINE
  5
5085
  8
YODOROGO
 10
27849.6043412919207185
 20
1812.974981161416963
 30
0.0
 11
27889.6043412919207185
 21
1879.6191779644370854
 31
0.0
1001
AUTOCAD_POSTSCRIPT_FIGURE
1002
{
1000
PSFILL
1000
Grayscale
1000
Grayscale
1070
   100
1002
}
  0
LINE
  5
5086
  8
YODOROGO
 10
27849.6043412919207185
 20
1796.9749811614160535
 30
0.0
 11
27849.6043412919207185
 21
1812.974981161416963
 31
0.0
1001
AUTOCAD_POSTSCRIPT_FIGURE
1002
{
1000
PSFILL
1000
Grayscale
1000
Grayscale
1070
   100
1002
}
  0
LINE
  5
5087
  8
YODOROGO
 10
27889.6043412919207185
 20
1847.619177964435039
 30
0.0
 11
27849.6043412919207185
 21
1796.9749811614160535
 31
0.0
1001
AUTOCAD_POSTSCRIPT_FIGURE
1002
{
1000
PSFILL
1000
Grayscale
1000
Grayscale
1070
   100
1002
}
  0
LINE
  5
5088
  8
YODOROGO
 10
27889.6043412919207185
 20
1747.7494964292850455
 30
0.0
 11
27889.6043412919207185
 21
1847.619177964435039
 31
0.0
1001
AUTOCAD_POSTSCRIPT_FIGURE
1002
{
1000
PSFILL
1000
Grayscale
1000
Grayscale
1070
   100
1002
}
  0
LINE
  5
5089
  8
YODOROGO
 10
27905.6043412919207185
 20
1747.7494964292850455
 30
0.0
 11
27889.6043412919207185
 21
1747.7494964292850455
 31
0.0
1001
AUTOCAD_POSTSCRIPT_FIGURE
1002
{
1000
PSFILL
1000
Grayscale
1000
Grayscale
1070
   100
1002
}
  0
LINE
  5
508A
  8
YODOROGO
 10
27905.6043412919207185
 20
1849.4090121588060356
 30
0.0
 11
27905.6043412919207185
 21
1747.7494964292850455
 31
0.0
1001
AUTOCAD_POSTSCRIPT_FIGURE
1002
{
1000
PSFILL
1000
Grayscale
1000
Grayscale
1070
   100
1002
}
  0
LINE
  5
508B
  8
YODOROGO
 10
27937.6043412919207185
 20
1796.9749811614160535
 30
0.0
 11
27905.6043412919207185
 21
1849.4090121588060356
 31
0.0
1001
AUTOCAD_POSTSCRIPT_FIGURE
1002
{
1000
PSFILL
1000
Grayscale
1000
Grayscale
1070
   100
1002
}
  0
LINE
  5
508C
  8
YODOROGO
 10
27937.6043412919207185
 20
1812.974981161416963
 30
0.0
 11
27937.6043412919207185
 21
1796.9749811614160535
 31
0.0
1001
AUTOCAD_POSTSCRIPT_FIGURE
1002
{
1000
PSFILL
1000
Grayscale
1000
Grayscale
1070
   100
1002
}
  0
LINE
  5
508D
  8
YODOROGO
 10
27905.6043412919207185
 20
1881.4090121588080819
 30
0.0
 11
27937.6043412919207185
 21
1812.974981161416963
 31
0.0
1001
AUTOCAD_POSTSCRIPT_FIGURE
1002
{
1000
PSFILL
1000
Grayscale
1000
Grayscale
1070
   100
1002
}
  0
LINE
  5
508E
  8
YODOROGO
 10
27905.6043412919207185
 20
1884.5683489363000263
 30
0.0
 11
27905.6043412919207185
 21
1881.4090121588080819
 31
0.0
1001
AUTOCAD_POSTSCRIPT_FIGURE
1002
{
1000
PSFILL
1000
Grayscale
1000
Grayscale
1070
   100
1002
}
  0
LINE
  5
508F
  8
YODOROGO
 10
27937.6043412919207185
 20
1884.5683489362979799
 30
0.0
 11
27905.6043412919207185
 21
1884.5683489363000263
 31
0.0
1001
AUTOCAD_POSTSCRIPT_FIGURE
1002
{
1000
PSFILL
1000
Grayscale
1000
Grayscale
1070
   100
1002
}
  0
LINE
  5
5090
  8
YODOROGO
 10
27937.6043412919207185
 20
1900.5683489363000263
 30
0.0
 11
27937.6043412919207185
 21
1884.5683489362979799
 31
0.0
1001
AUTOCAD_POSTSCRIPT_FIGURE
1002
{
1000
PSFILL
1000
Grayscale
1000
Grayscale
1070
   100
1002
}
  0
LINE
  5
5091
  8
YODOROGO
 10
27905.6043412919207185
 20
1900.5683489363000263
 30
0.0
 11
27937.6043412919207185
 21
1900.5683489363000263
 31
0.0
1001
AUTOCAD_POSTSCRIPT_FIGURE
1002
{
1000
PSFILL
1000
Grayscale
1000
Grayscale
1070
   100
1002
}
  0
LINE
  5
5092
  8
YODOROGO
 10
27905.6043412919207185
 20
1939.7494964292880013
 30
0.0
 11
27905.6043412919207185
 21
1900.5683489363000263
 31
0.0
1001
AUTOCAD_POSTSCRIPT_FIGURE
1002
{
1000
PSFILL
1000
Grayscale
1000
Grayscale
1070
   100
1002
}
  0
LINE
  5
5093
  8
YODOROGO
 10
27937.6043412919207185
 20
1939.7494964292880013
 30
0.0
 11
27905.6043412919207185
 21
1939.7494964292880013
 31
0.0
1001
AUTOCAD_POSTSCRIPT_FIGURE
1002
{
1000
PSFILL
1000
Grayscale
1000
Grayscale
1070
   100
1002
}
  0
LINE
  5
5094
  8
YODOROGO
 10
27937.6043412919207185
 20
1955.7494964292870918
 30
0.0
 11
27937.6043412919207185
 21
1939.7494964292880013
 31
0.0
1001
AUTOCAD_POSTSCRIPT_FIGURE
1002
{
1000
PSFILL
1000
Grayscale
1000
Grayscale
1070
   100
1002
}
  0
LINE
  5
5095
  8
YODOROGO
 10
27905.6043412919207185
 20
1955.7494964292870918
 30
0.0
 11
27937.6043412919207185
 21
1955.7494964292870918
 31
0.0
1001
AUTOCAD_POSTSCRIPT_FIGURE
1002
{
1000
PSFILL
1000
Grayscale
1000
Grayscale
1070
   100
1002
}
  0
LINE
  5
5096
  8
YODOROGO
 10
27905.6043412919207185
 20
1979.7494964292880013
 30
0.0
 11
27905.6043412919207185
 21
1955.7494964292870918
 31
0.0
1001
AUTOCAD_POSTSCRIPT_FIGURE
1002
{
1000
PSFILL
1000
Grayscale
1000
Grayscale
1070
   100
1002
}
  0
LINE
  5
5097
  8
YODOROGO
 10
27889.6043412919207185
 20
1979.7494964292880013
 30
0.0
 11
27905.6043412919207185
 21
1979.7494964292880013
 31
0.0
1001
AUTOCAD_POSTSCRIPT_FIGURE
1002
{
1000
PSFILL
1000
Grayscale
1000
Grayscale
1070
   100
1002
}
  0
LINE
  5
5098
  8
YODOROGO
 10
27889.6043412919207185
 20
1955.7494964292870918
 30
0.0
 11
27889.6043412919207185
 21
1979.7494964292880013
 31
0.0
1001
AUTOCAD_POSTSCRIPT_FIGURE
1002
{
1000
PSFILL
1000
Grayscale
1000
Grayscale
1070
   100
1002
}
  0
LINE
  5
5099
  8
YODOROGO
 10
27865.6043412919207185
 20
1955.7494964292870918
 30
0.0
 11
27889.6043412919207185
 21
1955.7494964292870918
 31
0.0
1001
AUTOCAD_POSTSCRIPT_FIGURE
1002
{
1000
PSFILL
1000
Grayscale
1000
Grayscale
1070
   100
1002
}
  0
LINE
  5
509A
  8
YODOROGO
 10
27865.6043412919207185
 20
1979.7494964292880013
 30
0.0
 11
27865.6043412919207185
 21
1955.7494964292870918
 31
0.0
1001
AUTOCAD_POSTSCRIPT_FIGURE
1002
{
1000
PSFILL
1000
Grayscale
1000
Grayscale
1070
   100
1002
}
  0
LINE
  5
509B
  8
YODOROGO
 10
27849.6043412919207185
 20
1979.7494964292880013
 30
0.0
 11
27865.6043412919207185
 21
1979.7494964292880013
 31
0.0
1001
AUTOCAD_POSTSCRIPT_FIGURE
1002
{
1000
PSFILL
1000
Grayscale
1000
Grayscale
1070
   100
1002
}
  0
LINE
  5
509C
  8
YODOROGO
 10
27849.6043412919207185
 20
1955.7494964292870918
 30
0.0
 11
27849.6043412919207185
 21
1979.7494964292880013
 31
0.0
1001
AUTOCAD_POSTSCRIPT_FIGURE
1002
{
1000
PSFILL
1000
Grayscale
1000
Grayscale
1070
   100
1002
}
  0
LINE
  5
509D
  8
YODOROGO
 10
27817.6043412919207185
 20
1955.7494964292870918
 30
0.0
 11
27849.6043412919207185
 21
1955.7494964292870918
 31
0.0
1001
AUTOCAD_POSTSCRIPT_FIGURE
1002
{
1000
PSFILL
1000
Grayscale
1000
Grayscale
1070
   100
1002
}
  0
LINE
  5
509E
  8
YODOROGO
 10
27817.6043412919207185
 20
1979.7494964292880013
 30
0.0
 11
27817.6043412919207185
 21
1955.7494964292870918
 31
0.0
1001
AUTOCAD_POSTSCRIPT_FIGURE
1002
{
1000
PSFILL
1000
Grayscale
1000
Grayscale
1070
   100
1002
}
  0
LINE
  5
509F
  8
YODOROGO
 10
27801.6043412919207185
 20
1979.7494964292880013
 30
0.0
 11
27817.6043412919207185
 21
1979.7494964292880013
 31
0.0
1001
AUTOCAD_POSTSCRIPT_FIGURE
1002
{
1000
PSFILL
1000
Grayscale
1000
Grayscale
1070
   100
1002
}
  0
LINE
  5
50A0
  8
YODOROGO
 10
27801.6043412919207185
 20
1955.7494964292870918
 30
0.0
 11
27801.6043412919207185
 21
1979.7494964292880013
 31
0.0
1001
AUTOCAD_POSTSCRIPT_FIGURE
1002
{
1000
PSFILL
1000
Grayscale
1000
Grayscale
1070
   100
1002
}
  0
LINE
  5
50A1
  8
YODOROGO
 10
27777.6043412919207185
 20
1955.7494964292870918
 30
0.0
 11
27801.6043412919207185
 21
1955.7494964292870918
 31
0.0
1001
AUTOCAD_POSTSCRIPT_FIGURE
1002
{
1000
PSFILL
1000
Grayscale
1000
Grayscale
1070
   100
1002
}
  0
LINE
  5
50A2
  8
YODOROGO
 10
27777.6043412919207185
 20
1939.7494964292880013
 30
0.0
 11
27777.6043412919207185
 21
1955.7494964292870918
 31
0.0
1001
AUTOCAD_POSTSCRIPT_FIGURE
1002
{
1000
PSFILL
1000
Grayscale
1000
Grayscale
1070
   100
1002
}
  0
LINE
  5
50A3
  8
YODOROGO
 10
27801.6043412919207185
 20
1939.7494964292880013
 30
0.0
 11
27777.6043412919207185
 21
1939.7494964292880013
 31
0.0
1001
AUTOCAD_POSTSCRIPT_FIGURE
1002
{
1000
PSFILL
1000
Grayscale
1000
Grayscale
1070
   100
1002
}
  0
LINE
  5
50A4
  8
YODOROGO
 10
27801.6043412919207185
 20
1914.7865807937050704
 30
0.0
 11
27801.6043412919207185
 21
1939.7494964292880013
 31
0.0
1001
AUTOCAD_POSTSCRIPT_FIGURE
1002
{
1000
PSFILL
1000
Grayscale
1000
Grayscale
1070
   100
1002
}
  0
LINE
  5
50A5
  8
YODOROGO
 10
27777.6043412919207185
 20
1859.7767479516710409
 30
0.0
 11
27801.6043412919207185
 21
1914.7865807937050704
 31
0.0
1001
AUTOCAD_POSTSCRIPT_FIGURE
1002
{
1000
PSFILL
1000
Grayscale
1000
Grayscale
1070
   100
1002
}
  0
LINE
  5
50A6
  8
YODOROGO
 10
27777.6043412919207185
 20
1843.7767479516719504
 30
0.0
 11
27777.6043412919207185
 21
1859.7767479516710409
 31
0.0
1001
AUTOCAD_POSTSCRIPT_FIGURE
1002
{
1000
PSFILL
1000
Grayscale
1000
Grayscale
1070
   100
1002
}
  0
LINE
  5
50A7
  8
YODOROGO
 10
28257.6043412919207185
 20
1867.7494964292870918
 30
0.0
 11
28401.6043412919098046
 21
1824.8776256403059506
 31
0.0
1001
AUTOCAD_POSTSCRIPT_FIGURE
1002
{
1000
PSFILL
1000
Grayscale
1000
Grayscale
1070
   100
1002
}
  0
LINE
  5
50A8
  8
YODOROGO
 10
28401.6043412919098046
 20
1752.8776256403059506
 30
0.0
 11
28257.6043412919207185
 21
1795.7494964292870918
 31
0.0
1001
AUTOCAD_POSTSCRIPT_FIGURE
1002
{
1000
PSFILL
1000
Grayscale
1000
Grayscale
1070
   100
1002
}
  0
LINE
  5
50A9
  8
YODOROGO
 10
28401.6043412919098046
 20
1984.8776256403059506
 30
0.0
 11
28257.6043412919207185
 21
2027.7494964292880013
 31
0.0
1001
AUTOCAD_POSTSCRIPT_FIGURE
1002
{
1000
PSFILL
1000
Grayscale
1000
Grayscale
1070
   100
1002
}
  0
LINE
  5
50AA
  8
YODOROGO
 10
28257.6043412919207185
 20
1959.7494964292880013
 30
0.0
 11
28401.6043412919098046
 21
1916.8776256403070875
 31
0.0
1001
AUTOCAD_POSTSCRIPT_FIGURE
1002
{
1000
PSFILL
1000
Grayscale
1000
Grayscale
1070
   100
1002
}
  0
LINE
  5
50AB
  8
YODOROGO
 10
28257.6043412919207185
 20
1795.7494964292870918
 30
0.0
 11
28257.6043412919207185
 21
1867.7494964292870918
 31
0.0
1001
AUTOCAD_POSTSCRIPT_FIGURE
1002
{
1000
PSFILL
1000
Grayscale
1000
Grayscale
1070
   100
1002
}
  0
LINE
  5
50AC
  8
YODOROGO
 10
28257.6043412919207185
 20
2027.7494964292880013
 30
0.0
 11
28257.6043412919207185
 21
1959.7494964292880013
 31
0.0
1001
AUTOCAD_POSTSCRIPT_FIGURE
1002
{
1000
PSFILL
1000
Grayscale
1000
Grayscale
1070
   100
1002
}
  0
LINE
  5
50AD
  8
YODOROGO
 10
28080.2363202067390375
 20
1939.7494964292880013
 30
0.0
 11
28129.6043412919098046
 21
1747.7494964292850455
 31
0.0
1001
AUTOCAD_POSTSCRIPT_FIGURE
1002
{
1000
PSFILL
1000
Grayscale
1000
Grayscale
1070
   100
1002
}
  0
LINE
  5
50AE
  8
YODOROGO
 10
27977.6043412919207185
 20
1939.7494964292880013
 30
0.0
 11
28080.2363202067390375
 21
1939.7494964292880013
 31
0.0
1001
AUTOCAD_POSTSCRIPT_FIGURE
1002
{
1000
PSFILL
1000
Grayscale
1000
Grayscale
1070
   100
1002
}
  0
LINE
  5
50AF
  8
YODOROGO
 10
27977.6043412919207185
 20
1955.7494964292870918
 30
0.0
 11
27977.6043412919207185
 21
1939.7494964292880013
 31
0.0
1001
AUTOCAD_POSTSCRIPT_FIGURE
1002
{
1000
PSFILL
1000
Grayscale
1000
Grayscale
1070
   100
1002
}
  0
LINE
  5
50B0
  8
YODOROGO
 10
28076.6068785198986006
 20
1955.7494964292870918
 30
0.0
 11
27977.6043412919207185
 21
1955.7494964292870918
 31
0.0
1001
AUTOCAD_POSTSCRIPT_FIGURE
1002
{
1000
PSFILL
1000
Grayscale
1000
Grayscale
1070
   100
1002
}
  0
LINE
  5
50B1
  8
YODOROGO
 10
28071.1627159897107049
 20
1979.7494964292880013
 30
0.0
 11
28076.6068785198986006
 21
1955.7494964292870918
 31
0.0
1001
AUTOCAD_POSTSCRIPT_FIGURE
1002
{
1000
PSFILL
1000
Grayscale
1000
Grayscale
1070
   100
1002
}
  0
LINE
  5
50B2
  8
YODOROGO
 10
28091.162715989699791
 20
1979.7494964292880013
 30
0.0
 11
28071.1627159897107049
 21
1979.7494964292880013
 31
0.0
1001
AUTOCAD_POSTSCRIPT_FIGURE
1002
{
1000
PSFILL
1000
Grayscale
1000
Grayscale
1070
   100
1002
}
  0
LINE
  5
50B3
  8
YODOROGO
 10
28095.806878519939346
 20
1955.7494964292870918
 30
0.0
 11
28091.162715989699791
 21
1979.7494964292880013
 31
0.0
1001
AUTOCAD_POSTSCRIPT_FIGURE
1002
{
1000
PSFILL
1000
Grayscale
1000
Grayscale
1070
   100
1002
}
  0
LINE
  5
50B4
  8
YODOROGO
 10
28121.6043412919207185
 20
1955.7494964292870918
 30
0.0
 11
28095.806878519939346
 21
1955.7494964292870918
 31
0.0
1001
AUTOCAD_POSTSCRIPT_FIGURE
1002
{
1000
PSFILL
1000
Grayscale
1000
Grayscale
1070
   100
1002
}
  0
LINE
  5
50B5
  8
YODOROGO
 10
28121.6043412919207185
 20
1979.7494964292880013
 30
0.0
 11
28121.6043412919207185
 21
1955.7494964292870918
 31
0.0
1001
AUTOCAD_POSTSCRIPT_FIGURE
1002
{
1000
PSFILL
1000
Grayscale
1000
Grayscale
1070
   100
1002
}
  0
LINE
  5
50B6
  8
YODOROGO
 10
28137.6043412919207185
 20
1979.7494964292880013
 30
0.0
 11
28121.6043412919207185
 21
1979.7494964292880013
 31
0.0
1001
AUTOCAD_POSTSCRIPT_FIGURE
1002
{
1000
PSFILL
1000
Grayscale
1000
Grayscale
1070
   100
1002
}
  0
LINE
  5
50B7
  8
YODOROGO
 10
28137.6043412919207185
 20
1955.7494964292870918
 30
0.0
 11
28137.6043412919207185
 21
1979.7494964292880013
 31
0.0
1001
AUTOCAD_POSTSCRIPT_FIGURE
1002
{
1000
PSFILL
1000
Grayscale
1000
Grayscale
1070
   100
1002
}
  0
LINE
  5
50B8
  8
YODOROGO
 10
28137.6043412919207185
 20
1939.7494964292880013
 30
0.0
 11
28137.6043412919207185
 21
1955.7494964292870918
 31
0.0
1001
AUTOCAD_POSTSCRIPT_FIGURE
1002
{
1000
PSFILL
1000
Grayscale
1000
Grayscale
1070
   100
1002
}
  0
LINE
  5
50B9
  8
YODOROGO
 10
28098.902986873388727
 20
1939.7494964292880013
 30
0.0
 11
28137.6043412919207185
 21
1939.7494964292880013
 31
0.0
1001
AUTOCAD_POSTSCRIPT_FIGURE
1002
{
1000
PSFILL
1000
Grayscale
1000
Grayscale
1070
   100
1002
}
  0
LINE
  5
50BA
  8
YODOROGO
 10
28137.6043412919207185
 20
1747.7494964292850455
 30
0.0
 11
28098.902986873388727
 21
1939.7494964292880013
 31
0.0
1001
AUTOCAD_POSTSCRIPT_FIGURE
1002
{
1000
PSFILL
1000
Grayscale
1000
Grayscale
1070
   100
1002
}
  0
LINE
  5
50BB
  8
YODOROGO
 10
28129.6043412919098046
 20
1747.7494964292850455
 30
0.0
 11
28137.6043412919207185
 21
1747.7494964292850455
 31
0.0
1001
AUTOCAD_POSTSCRIPT_FIGURE
1002
{
1000
PSFILL
1000
Grayscale
1000
Grayscale
1070
   100
1002
}
  0
LINE
  5
50BC
  8
YODOROGO
 10
28078.0692199337900092
 20
1775.7407762987938895
 30
0.0
 11
27977.6043412919207185
 21
1747.7494964292850455
 31
0.0
  0
LINE
  5
50BD
  8
YODOROGO
 10
28078.0692199337900092
 20
1798.6689795290731126
 30
0.0
 11
28078.0692199337900092
 21
1775.7407762987938895
 31
0.0
  0
LINE
  5
50BE
  8
YODOROGO
 10
28033.8367806128699158
 20
1786.8169331337669519
 30
0.0
 11
28078.0692199337900092
 21
1798.6689795290731126
 31
0.0
  0
LINE
  5
50BF
  8
YODOROGO
 10
28033.8367806128699158
 20
1872.5683489362988894
 30
0.0
 11
28033.8367806128699158
 21
1786.8169331337669519
 31
0.0
  0
LINE
  5
50C0
  8
YODOROGO
 10
28078.0692199337900092
 20
1872.5683489362988894
 30
0.0
 11
28033.8367806128699158
 21
1872.5683489362988894
 31
0.0
  0
LINE
  5
50C1
  8
YODOROGO
 10
28078.0692199337900092
 20
1892.5683489362979799
 30
0.0
 11
28078.0692199337900092
 21
1872.5683489362988894
 31
0.0
  0
LINE
  5
50C2
  8
YODOROGO
 10
27977.6043412919207185
 20
1892.5683489362979799
 30
0.0
 11
28078.0692199337900092
 21
1892.5683489362979799
 31
0.0
  0
LINE
  5
50C3
  8
YODOROGO
 10
27977.6043412919207185
 20
1872.5683489362988894
 30
0.0
 11
27977.6043412919207185
 21
1892.5683489362979799
 31
0.0
  0
LINE
  5
50C4
  8
YODOROGO
 10
28021.8367806128517259
 20
1872.5683489362988894
 30
0.0
 11
27977.6043412919207185
 21
1872.5683489362988894
 31
0.0
  0
LINE
  5
50C5
  8
YODOROGO
 10
28021.8367806128517259
 20
1784.6733395943169853
 30
0.0
 11
28021.8367806128517259
 21
1872.5683489362988894
 31
0.0
  0
LINE
  5
50C6
  8
YODOROGO
 10
27977.6043412919207185
 20
1771.7494964292859549
 30
0.0
 11
28021.8367806128517259
 21
1784.6733395943169853
 31
0.0
  0
LINE
  5
50C7
  8
YODOROGO
 10
27977.6043412919207185
 20
1747.7494964292850455
 30
0.0
 11
27977.6043412919207185
 21
1771.7494964292859549
 31
0.0
  0
LINE
  5
50C8
  8
YODOROGO
 10
28001.6043412919207185
 20
1707.7494964292880013
 30
0.0
 11
28001.6043412919207185
 21
1683.7494964292870918
 31
0.0
  0
LINE
  5
50C9
  8
YODOROGO
 10
28017.6043412919207185
 20
1707.7494964292880013
 30
0.0
 11
28001.6043412919207185
 21
1707.7494964292880013
 31
0.0
  0
LINE
  5
50CA
  8
YODOROGO
 10
28017.6043412919207185
 20
1683.7494964292870918
 30
0.0
 11
28017.6043412919207185
 21
1707.7494964292880013
 31
0.0
  0
LINE
  5
50CB
  8
YODOROGO
 10
28040.913204016880627
 20
1683.7494964292870918
 30
0.0
 11
28017.6043412919207185
 21
1683.7494964292870918
 31
0.0
  0
LINE
  5
50CC
  8
YODOROGO
 10
28001.6043412919207185
 20
1683.7494964292870918
 30
0.0
 11
27977.6043412919207185
 21
1683.7494964292870918
 31
0.0
  0
LINE
  5
50CD
  8
YODOROGO
 10
28082.1355202309205197
 20
1707.7494964292880013
 30
0.0
 11
28098.1355202309314336
 21
1707.7494964292880013
 31
0.0
1001
AUTOCAD_POSTSCRIPT_FIGURE
1002
{
1000
PSFILL
1000
Grayscale
1000
Grayscale
1070
   100
1002
}
  0
LINE
  5
50CE
  8
YODOROGO
 10
28401.6043412919098046
 20
1824.8776256403059506
 30
0.0
 11
28401.6043412919098046
 21
1752.8776256403059506
 31
0.0
1001
AUTOCAD_POSTSCRIPT_FIGURE
1002
{
1000
PSFILL
1000
Grayscale
1000
Grayscale
1070
   100
1002
}
  0
LINE
  5
50CF
  8
YODOROGO
 10
28401.6043412919098046
 20
1916.8776256403070875
 30
0.0
 11
28401.6043412919098046
 21
1984.8776256403059506
 31
0.0
1001
AUTOCAD_POSTSCRIPT_FIGURE
1002
{
1000
PSFILL
1000
Grayscale
1000
Grayscale
1070
   100
1002
}
  0
LINE
  5
50D0
  8
YODOROGO
 10
28433.6043412919098046
 20
1819.7494964292870918
 30
0.0
 11
28433.6043412919098046
 21
1747.7494964292900477
 31
0.0
  0
LINE
  5
50D1
  8
YODOROGO
 10
28497.6043412919098046
 20
1707.7494964292880013
 30
0.0
 11
28433.6043412919098046
 21
1707.7494964292880013
 31
0.0
  0
LINE
  5
50D2
  8
YODOROGO
 10
28433.6043412919098046
 20
1747.7494964292900477
 30
0.0
 11
28585.6043412919207185
 21
1747.7494964292900477
 31
0.0
  0
LINE
  5
50D3
  8
YODOROGO
 10
28497.6043412919098046
 20
1867.7494964292870918
 30
0.0
 11
28433.6043412919098046
 21
1867.7494964292870918
 31
0.0
  0
LINE
  5
50D4
  8
YODOROGO
 10
28497.6043412919098046
 20
1923.7494964292870918
 30
0.0
 11
28497.6043412919098046
 21
1867.7494964292870918
 31
0.0
  0
LINE
  5
50D5
  8
YODOROGO
 10
28585.6043412919207185
 20
1987.7494964292870918
 30
0.0
 11
28585.6043412919207185
 21
2027.7494964292880013
 31
0.0
  0
LINE
  5
50D6
  8
YODOROGO
 10
28433.6043412919098046
 20
1987.7494964292870918
 30
0.0
 11
28585.6043412919207185
 21
1987.7494964292870918
 31
0.0
  0
LINE
  5
50D7
  8
YODOROGO
 10
28433.6043412919098046
 20
1867.7494964292870918
 30
0.0
 11
28433.6043412919098046
 21
1987.7494964292870918
 31
0.0
  0
LINE
  5
50D8
  8
YODOROGO
 10
29001.6043412919098046
 20
2027.7494964292880013
 30
0.0
 11
29001.6043412919098046
 21
1619.7494964292880013
 31
0.0
  0
LINE
  5
50D9
  8
YODOROGO
 10
29073.6043412919207185
 20
1579.7494964292880013
 30
0.0
 11
29073.6043412919207185
 21
2027.7494964292880013
 31
0.0
  0
LINE
  5
50DA
  8
YODOROGO
 10
29261.6043412919207185
 20
1491.7494964292859549
 30
0.0
 11
29261.6043412919207185
 21
2007.7494964292880013
 31
0.0
  0
LINE
  5
50DB
  8
YODOROGO
 10
29197.6043412919207185
 20
2007.7494964292880013
 30
0.0
 11
29197.6043412919207185
 21
1491.7494964292859549
 31
0.0
  0
LINE
  5
50DC
  8
YODOROGO
 10
29385.6043412919207185
 20
2027.7494964292880013
 30
0.0
 11
29385.6043412919207185
 21
1427.7494964292880013
 31
0.0
  0
LINE
  5
50DD
  8
YODOROGO
 10
29457.6043412919207185
 20
1427.7494964292880013
 30
0.0
 11
29457.6043412919207185
 21
2027.7494964292880013
 31
0.0
  0
LINE
  5
50DE
  8
YODOROGO
 10
28657.6043412919207185
 20
1667.7494964292880013
 30
0.0
 11
28657.6043412919207185
 21
1747.7494964292900477
 31
0.0
  0
LINE
  5
50DF
  8
YODOROGO
 10
29885.6043412919207185
 20
1707.7494964292880013
 30
0.0
 11
29885.6043412919207185
 21
1667.7494964292880013
 31
0.0
  0
LINE
  5
50E0
  8
YODOROGO
 10
29885.6043412919207185
 20
1707.7494964292880013
 30
0.0
 11
29885.6043412919207185
 21
1667.7494964292880013
 31
0.0
  0
ARC
  5
50E1
  8
YODOROGO
 10
28906.9115761868306436
 20
1618.2178644422720026
 30
0.0
 40
94.7051511787416445
 50
274.0524416290709837
 51
0.9266642149310712
  0
ARC
  5
50E2
  8
YODOROGO
 10
28909.1861707198186195
 20
1592.6107286104399918
 30
0.0
 40
164.920423560855113
 50
271.5351210653773819
 51
355.5272775058505204
  0
LINE
  5
50E3
  8
YODOROGO
 10
28913.6043412919207185
 20
1523.7494964292870918
 30
0.0
 11
28913.6043412919207185
 21
1427.7494964292880013
 31
0.0
  0
LINE
  5
50E4
  8
YODOROGO
 10
28793.6043412919098046
 20
1667.7494964292880013
 30
0.0
 11
28657.6043412919207185
 21
1667.7494964292880013
 31
0.0
  0
LINE
  5
50E5
  8
YODOROGO
 10
28793.6043412919098046
 20
1603.7494964292870918
 30
0.0
 11
28793.6043412919098046
 21
1667.7494964292880013
 31
0.0
  0
LINE
  5
50E6
  8
YODOROGO
 10
28657.6043412919207185
 20
1603.7494964292870918
 30
0.0
 11
28793.6043412919098046
 21
1603.7494964292870918
 31
0.0
  0
LINE
  5
50E7
  8
YODOROGO
 10
28657.6043412919207185
 20
1523.7494964292870918
 30
0.0
 11
28657.6043412919207185
 21
1603.7494964292870918
 31
0.0
  0
LINE
  5
50E8
  8
YODOROGO
 10
28793.6043412919098046
 20
1523.7494964292870918
 30
0.0
 11
28657.6043412919207185
 21
1523.7494964292870918
 31
0.0
  0
LINE
  5
50E9
  8
YODOROGO
 10
28793.6043412919098046
 20
1427.7494964292880013
 30
0.0
 11
28793.6043412919098046
 21
1523.7494964292870918
 31
0.0
  0
LINE
  5
50EA
  8
YODOROGO
 10
29197.6043412919207185
 20
1491.7494964292859549
 30
0.0
 11
29261.6043412919207185
 21
1491.7494964292859549
 31
0.0
  0
LINE
  5
50EB
  8
YODOROGO
 10
29385.6043412919207185
 20
1427.7494964292880013
 30
0.0
 11
29457.6043412919207185
 21
1427.7494964292880013
 31
0.0
  0
LINE
  5
50EC
  8
YODOROGO
 10
29737.6043412919207185
 20
1528.4414521705639345
 30
0.0
 11
29737.6043412919207185
 21
1427.7494964292880013
 31
0.0
  0
LINE
  5
50ED
  8
YODOROGO
 10
29617.6043412919207185
 20
1427.7494964292880013
 30
0.0
 11
29737.6043412919207185
 21
1528.4414521705639345
 31
0.0
  0
LINE
  5
50EE
  8
YODOROGO
 10
29617.6043412919207185
 20
1547.7494964292880013
 30
0.0
 11
29617.6043412919207185
 21
1427.7494964292880013
 31
0.0
  0
LINE
  5
50EF
  8
YODOROGO
 10
29712.9446286994498223
 20
1627.7494964292880013
 30
0.0
 11
29617.6043412919207185
 21
1547.7494964292880013
 31
0.0
  0
LINE
  5
50F0
  8
YODOROGO
 10
29617.6043412919207185
 20
1627.7494964292880013
 30
0.0
 11
29712.9446286994498223
 21
1627.7494964292880013
 31
0.0
  0
LINE
  5
50F1
  8
YODOROGO
 10
29617.6043412919207185
 20
1667.7494964292880013
 30
0.0
 11
29617.6043412919207185
 21
1627.7494964292880013
 31
0.0
  0
LINE
  5
50F2
  8
YODOROGO
 10
29885.6043412919207185
 20
1667.7494964292880013
 30
0.0
 11
29617.6043412919207185
 21
1667.7494964292880013
 31
0.0
  0
LINE
  5
50F3
  8
YODOROGO
 10
29917.6043412919207185
 20
1627.7494964292880013
 30
0.0
 11
29777.6043412919207185
 21
1627.7494964292880013
 31
0.0
  0
LINE
  5
50F4
  8
YODOROGO
 10
29777.6043412919207185
 20
1562.0054374176550027
 30
0.0
 11
29771.4098729853212717
 21
1556.8076613462339992
 31
0.0
  0
LINE
  5
50F5
  8
YODOROGO
 10
29777.6043412919207185
 20
1627.7494964292880013
 30
0.0
 11
29777.6043412919207185
 21
1562.0054374176550027
 31
0.0
  0
LINE
  5
50F6
  8
YODOROGO
 10
29737.6043412919207185
 20
1528.4414521705639345
 30
0.0
 11
29737.6043412919207185
 21
1427.7494964292880013
 31
0.0
  0
LINE
  5
50F7
  8
YODOROGO
 10
29617.6043412919207185
 20
1427.7494964292880013
 30
0.0
 11
29737.6043412919207185
 21
1528.4414521705639345
 31
0.0
  0
LINE
  5
50F8
  8
YODOROGO
 10
29617.6043412919207185
 20
1547.7494964292880013
 30
0.0
 11
29617.6043412919207185
 21
1427.7494964292880013
 31
0.0
  0
LINE
  5
50F9
  8
YODOROGO
 10
29712.9446286994498223
 20
1627.7494964292880013
 30
0.0
 11
29617.6043412919207185
 21
1547.7494964292880013
 31
0.0
  0
LINE
  5
50FA
  8
YODOROGO
 10
29617.6043412919207185
 20
1627.7494964292880013
 30
0.0
 11
29712.9446286994498223
 21
1627.7494964292880013
 31
0.0
  0
LINE
  5
50FB
  8
YODOROGO
 10
29617.6043412919207185
 20
1667.7494964292880013
 30
0.0
 11
29617.6043412919207185
 21
1627.7494964292880013
 31
0.0
  0
LINE
  5
50FC
  8
YODOROGO
 10
29885.6043412919207185
 20
1667.7494964292880013
 30
0.0
 11
29617.6043412919207185
 21
1667.7494964292880013
 31
0.0
  0
LINE
  5
50FD
  8
YODOROGO
 10
28793.6043412919098046
 20
1747.7494964292900477
 30
0.0
 11
28793.6043412919098046
 21
1819.7494964292870918
 31
0.0
  0
LINE
  5
50FE
  8
YODOROGO
 10
28657.6043412919207185
 20
1747.7494964292900477
 30
0.0
 11
28793.6043412919098046
 21
1747.7494964292900477
 31
0.0
  0
LINE
  5
50FF
  8
YODOROGO
 10
28729.6043412919207185
 20
1867.7494964292870918
 30
0.0
 11
28729.6043412919207185
 21
1923.7494964292870918
 31
0.0
  0
LINE
  5
5100
  8
YODOROGO
 10
28793.6043412919098046
 20
1867.7494964292870918
 30
0.0
 11
28729.6043412919207185
 21
1867.7494964292870918
 31
0.0
  0
LINE
  5
5101
  8
YODOROGO
 10
28793.6043412919098046
 20
1947.7494964292880013
 30
0.0
 11
28793.6043412919098046
 21
1867.7494964292870918
 31
0.0
  0
ARC
  5
5102
  8
YODOROGO
 10
28753.6043412919098046
 20
1947.7494964292880013
 30
0.0
 40
40.0
 50
0.0
 51
90.0
  0
LINE
  5
5103
  8
YODOROGO
 10
28657.6043412919207185
 20
1987.7494964292870918
 30
0.0
 11
28753.6043412919098046
 21
1987.7494964292870918
 31
0.0
  0
LINE
  5
5104
  8
YODOROGO
 10
28657.6043412919207185
 20
2027.7494964292880013
 30
0.0
 11
28657.6043412919207185
 21
1987.7494964292870918
 31
0.0
  0
LINE
  5
5105
  8
YODOROGO
 10
29073.6043412919207185
 20
2027.7494964292880013
 30
0.0
 11
29001.6043412919098046
 21
2027.7494964292880013
 31
0.0
  0
LINE
  5
5106
  8
YODOROGO
 10
29261.6043412919207185
 20
2007.7494964292880013
 30
0.0
 11
29197.6043412919207185
 21
2007.7494964292880013
 31
0.0
  0
LINE
  5
5107
  8
YODOROGO
 10
29457.6043412919207185
 20
2027.7494964292880013
 30
0.0
 11
29385.6043412919207185
 21
2027.7494964292880013
 31
0.0
  0
LINE
  5
5108
  8
YODOROGO
 10
29673.6043412919207185
 20
1707.7494964292880013
 30
0.0
 11
29673.6043412919207185
 21
1771.7494964292870918
 31
0.0
1001
AUTOCAD_POSTSCRIPT_FIGURE
1002
{
1000
PSFILL
1000
Grayscale
1000
Grayscale
1070
    25
1002
}
  0
LINE
  5
5109
  8
YODOROGO
 10
29617.6043412919207185
 20
1707.7494964292880013
 30
0.0
 11
29673.6043412919207185
 21
1707.7494964292880013
 31
0.0
1001
AUTOCAD_POSTSCRIPT_FIGURE
1002
{
1000
PSFILL
1000
Grayscale
1000
Grayscale
1070
    25
1002
}
  0
LINE
  5
510A
  8
YODOROGO
 10
29617.6043412919207185
 20
1819.7494964292870918
 30
0.0
 11
29617.6043412919207185
 21
1707.7494964292880013
 31
0.0
1001
AUTOCAD_POSTSCRIPT_FIGURE
1002
{
1000
PSFILL
1000
Grayscale
1000
Grayscale
1070
    25
1002
}
  0
LINE
  5
510B
  8
YODOROGO
 10
29765.6043412919207185
 20
1819.7494964292870918
 30
0.0
 11
29617.6043412919207185
 21
1819.7494964292870918
 31
0.0
1001
AUTOCAD_POSTSCRIPT_FIGURE
1002
{
1000
PSFILL
1000
Grayscale
1000
Grayscale
1070
    25
1002
}
  0
LINE
  5
510C
  8
YODOROGO
 10
29765.6043412919207185
 20
1859.7494964292880013
 30
0.0
 11
29765.6043412919207185
 21
1819.7494964292870918
 31
0.0
1001
AUTOCAD_POSTSCRIPT_FIGURE
1002
{
1000
PSFILL
1000
Grayscale
1000
Grayscale
1070
    25
1002
}
  0
LINE
  5
510D
  8
YODOROGO
 10
29617.6043412919207185
 20
1859.7494964292880013
 30
0.0
 11
29765.6043412919207185
 21
1859.7494964292880013
 31
0.0
1001
AUTOCAD_POSTSCRIPT_FIGURE
1002
{
1000
PSFILL
1000
Grayscale
1000
Grayscale
1070
    25
1002
}
  0
LINE
  5
510E
  8
YODOROGO
 10
29617.6043412919207185
 20
1907.7494964292870918
 30
0.0
 11
29617.6043412919207185
 21
1859.7494964292880013
 31
0.0
1001
AUTOCAD_POSTSCRIPT_FIGURE
1002
{
1000
PSFILL
1000
Grayscale
1000
Grayscale
1070
    25
1002
}
  0
LINE
  5
510F
  8
YODOROGO
 10
29765.6043412919207185
 20
1907.7494964292870918
 30
0.0
 11
29617.6043412919207185
 21
1907.7494964292870918
 31
0.0
1001
AUTOCAD_POSTSCRIPT_FIGURE
1002
{
1000
PSFILL
1000
Grayscale
1000
Grayscale
1070
    25
1002
}
  0
LINE
  5
5110
  8
YODOROGO
 10
29765.6043412919207185
 20
1947.7494964292880013
 30
0.0
 11
29765.6043412919207185
 21
1907.7494964292870918
 31
0.0
1001
AUTOCAD_POSTSCRIPT_FIGURE
1002
{
1000
PSFILL
1000
Grayscale
1000
Grayscale
1070
    25
1002
}
  0
LINE
  5
5111
  8
YODOROGO
 10
29617.6043412919207185
 20
1947.7494964292880013
 30
0.0
 11
29765.6043412919207185
 21
1947.7494964292880013
 31
0.0
1001
AUTOCAD_POSTSCRIPT_FIGURE
1002
{
1000
PSFILL
1000
Grayscale
1000
Grayscale
1070
    25
1002
}
  0
LINE
  5
5112
  8
YODOROGO
 10
29617.6043412919207185
 20
2027.7494964292880013
 30
0.0
 11
29617.6043412919207185
 21
1947.7494964292880013
 31
0.0
1001
AUTOCAD_POSTSCRIPT_FIGURE
1002
{
1000
PSFILL
1000
Grayscale
1000
Grayscale
1070
    25
1002
}
  0
LINE
  5
5113
  8
YODOROGO
 10
29665.6043412919207185
 20
2027.7494964292880013
 30
0.0
 11
29617.6043412919207185
 21
2027.7494964292880013
 31
0.0
1001
AUTOCAD_POSTSCRIPT_FIGURE
1002
{
1000
PSFILL
1000
Grayscale
1000
Grayscale
1070
    25
1002
}
  0
LINE
  5
5114
  8
YODOROGO
 10
29665.6043412919207185
 20
1995.7494964292870918
 30
0.0
 11
29665.6043412919207185
 21
2027.7494964292880013
 31
0.0
1001
AUTOCAD_POSTSCRIPT_FIGURE
1002
{
1000
PSFILL
1000
Grayscale
1000
Grayscale
1070
    25
1002
}
  0
LINE
  5
5115
  8
YODOROGO
 10
29765.6043412919207185
 20
1995.7494964292870918
 30
0.0
 11
29665.6043412919207185
 21
1995.7494964292870918
 31
0.0
1001
AUTOCAD_POSTSCRIPT_FIGURE
1002
{
1000
PSFILL
1000
Grayscale
1000
Grayscale
1070
    25
1002
}
  0
LINE
  5
5116
  8
YODOROGO
 10
29765.6043412919207185
 20
2027.7494964292880013
 30
0.0
 11
29765.6043412919207185
 21
1995.7494964292870918
 31
0.0
1001
AUTOCAD_POSTSCRIPT_FIGURE
1002
{
1000
PSFILL
1000
Grayscale
1000
Grayscale
1070
    25
1002
}
  0
LINE
  5
5117
  8
YODOROGO
 10
29829.6043412919207185
 20
2027.7494964292880013
 30
0.0
 11
29765.6043412919207185
 21
2027.7494964292880013
 31
0.0
1001
AUTOCAD_POSTSCRIPT_FIGURE
1002
{
1000
PSFILL
1000
Grayscale
1000
Grayscale
1070
    25
1002
}
  0
LINE
  5
5118
  8
YODOROGO
 10
29829.6043412919207185
 20
1995.7494964292870918
 30
0.0
 11
29829.6043412919207185
 21
2027.7494964292880013
 31
0.0
1001
AUTOCAD_POSTSCRIPT_FIGURE
1002
{
1000
PSFILL
1000
Grayscale
1000
Grayscale
1070
    25
1002
}
  0
LINE
  5
5119
  8
YODOROGO
 10
29829.6043412919207185
 20
1907.7494964292870918
 30
0.0
 11
29829.6043412919207185
 21
1947.7494964292880013
 31
0.0
1001
AUTOCAD_POSTSCRIPT_FIGURE
1002
{
1000
PSFILL
1000
Grayscale
1000
Grayscale
1070
    25
1002
}
  0
LINE
  5
511A
  8
YODOROGO
 10
29829.6043412919207185
 20
1819.7494964292870918
 30
0.0
 11
29829.6043412919207185
 21
1859.7494964292880013
 31
0.0
1001
AUTOCAD_POSTSCRIPT_FIGURE
1002
{
1000
PSFILL
1000
Grayscale
1000
Grayscale
1070
    25
1002
}
  0
LINE
  5
511B
  8
YODOROGO
 10
29921.6043412919098046
 20
1771.7494964292870918
 30
0.0
 11
29921.6043412919098046
 21
1707.7494964292880013
 31
0.0
1001
AUTOCAD_POSTSCRIPT_FIGURE
1002
{
1000
PSFILL
1000
Grayscale
1000
Grayscale
1070
    25
1002
}
  0
LINE
  5
511C
  8
YODOROGO
 10
29829.6043412919207185
 20
1771.7494964292870918
 30
0.0
 11
29921.6043412919098046
 21
1771.7494964292870918
 31
0.0
1001
AUTOCAD_POSTSCRIPT_FIGURE
1002
{
1000
PSFILL
1000
Grayscale
1000
Grayscale
1070
    25
1002
}
  0
LINE
  5
511D
  8
YODOROGO
 10
29829.6043412919207185
 20
1707.7494964292880013
 30
0.0
 11
29829.6043412919207185
 21
1771.7494964292870918
 31
0.0
1001
AUTOCAD_POSTSCRIPT_FIGURE
1002
{
1000
PSFILL
1000
Grayscale
1000
Grayscale
1070
    25
1002
}
  0
LINE
  5
511E
  8
YODOROGO
 10
29765.6043412919207185
 20
1707.7494964292880013
 30
0.0
 11
29829.6043412919207185
 21
1707.7494964292880013
 31
0.0
1001
AUTOCAD_POSTSCRIPT_FIGURE
1002
{
1000
PSFILL
1000
Grayscale
1000
Grayscale
1070
    25
1002
}
  0
LINE
  5
511F
  8
YODOROGO
 10
29765.6043412919207185
 20
1771.7494964292870918
 30
0.0
 11
29765.6043412919207185
 21
1707.7494964292880013
 31
0.0
1001
AUTOCAD_POSTSCRIPT_FIGURE
1002
{
1000
PSFILL
1000
Grayscale
1000
Grayscale
1070
    25
1002
}
  0
LINE
  5
5120
  8
YODOROGO
 10
29673.6043412919207185
 20
1771.7494964292870918
 30
0.0
 11
29765.6043412919207185
 21
1771.7494964292870918
 31
0.0
1001
AUTOCAD_POSTSCRIPT_FIGURE
1002
{
1000
PSFILL
1000
Grayscale
1000
Grayscale
1070
    25
1002
}
  0
ARC
  5
5121
  8
YODOROGO
 10
31059.5178933579118166
 20
1602.6807375155760838
 30
0.0
 40
178.2212811107214065
 50
281.0262749542533811
 51
357.771135755737987
  0
LINE
  5
5122
  8
YODOROGO
 10
31413.6043412919207185
 20
1907.7494964292870918
 30
0.0
 11
31165.6043412919207185
 21
1907.7494964292870918
 31
0.0
  0
LINE
  5
5123
  8
YODOROGO
 10
31413.6043412919207185
 20
2027.7494964292880013
 30
0.0
 11
31165.6043412919207185
 21
2027.7494964292880013
 31
0.0
  0
LINE
  5
5124
  8
YODOROGO
 10
31165.6043412919207185
 20
1963.7494964292859549
 30
0.0
 11
31413.6043412919207185
 21
1963.7494964292859549
 31
0.0
  0
LINE
  5
5125
  8
YODOROGO
 10
30791.6043412919207185
 20
1563.7494964292870918
 30
0.0
 11
30791.6043412919207185
 21
1755.7494964292870918
 31
0.0
  0
LINE
  5
5126
  8
YODOROGO
 10
30763.6043412919207185
 20
1691.7494964292880013
 30
0.0
 11
30763.6043412919207185
 21
1563.7494964292870918
 31
0.0
  0
LINE
  5
5127
  8
YODOROGO
 10
30723.6043412919207185
 20
1491.7494964292880013
 30
0.0
 11
30723.6043412919207185
 21
1691.7494964292880013
 31
0.0
  0
LINE
  5
5128
  8
YODOROGO
 10
30899.6043412919316324
 20
1691.7494964292880013
 30
0.0
 11
30899.6043412919316324
 21
1491.7494964292880013
 31
0.0
  0
LINE
  5
5129
  8
YODOROGO
 10
30859.6043412919316324
 20
1563.7494964292870918
 30
0.0
 11
30859.6043412919316324
 21
1691.7494964292880013
 31
0.0
  0
LINE
  5
512A
  8
YODOROGO
 10
30831.6043412919207185
 20
1755.7494964292870918
 30
0.0
 11
30831.6043412919207185
 21
1563.7494964292870918
 31
0.0
  0
LINE
  5
512B
  8
YODOROGO
 10
30973.6043412919207185
 20
2027.7494964292880013
 30
0.0
 11
30973.6043412919207185
 21
1467.7494964292880013
 31
0.0
  0
LINE
  5
512C
  8
YODOROGO
 10
30645.6043412919207185
 20
1427.7494964292880013
 30
0.0
 11
30645.6043412919207185
 21
2027.7494964292880013
 31
0.0
  0
LINE
  5
512D
  8
YODOROGO
 10
30697.6043412919316324
 20
1963.7494964292859549
 30
0.0
 11
30697.6043412919316324
 21
1427.7494964292880013
 31
0.0
  0
LINE
  5
512E
  8
YODOROGO
 10
30925.6043412919207185
 20
1547.7494964292880013
 30
0.0
 11
30925.6043412919207185
 21
1963.7494964292859549
 31
0.0
  0
LINE
  5
512F
  8
YODOROGO
 10
30381.6043412919316324
 20
1627.7494964292880013
 30
0.0
 11
30381.6043412919316324
 21
1679.7494964292880013
 31
0.0
  0
LINE
  5
5130
  8
YODOROGO
 10
30617.6043412919207185
 20
1679.7494964292880013
 30
0.0
 11
30617.6043412919207185
 21
1627.7494964292880013
 31
0.0
  0
LINE
  5
5131
  8
YODOROGO
 10
31165.6043412919207185
 20
1907.7494964292870918
 30
0.0
 11
31165.6043412919207185
 21
1635.7494964292870918
 31
0.0
  0
LINE
  5
5132
  8
YODOROGO
 10
29949.6043412919098046
 20
1667.7494964292880013
 30
0.0
 11
29949.6043412919098046
 21
1707.7494964292880013
 31
0.0
  0
LINE
  5
5133
  8
YODOROGO
 10
29949.6043412919098046
 20
1667.7494964292880013
 30
0.0
 11
29949.6043412919098046
 21
1707.7494964292880013
 31
0.0
  0
ARC
  5
5134
  8
YODOROGO
 10
30537.6043412919207185
 20
1507.7494964292880013
 30
0.0
 40
80.0
 50
270.0
 51
0.0
  0
LINE
  5
5135
  8
YODOROGO
 10
30569.6043412919207185
 20
1599.7494964292870918
 30
0.0
 11
30617.6043412919207185
 21
1599.7494964292870918
 31
0.0
  0
LINE
  5
5136
  8
YODOROGO
 10
30617.6043412919207185
 20
1627.7494964292880013
 30
0.0
 11
30529.6043412919389084
 21
1627.7494964292880013
 31
0.0
  0
LINE
  5
5137
  8
YODOROGO
 10
30217.6043412919207185
 20
1667.7494964292880013
 30
0.0
 11
29949.6043412919098046
 21
1667.7494964292880013
 31
0.0
  0
LINE
  5
5138
  8
YODOROGO
 10
30217.6043412919207185
 20
1627.7494964292880013
 30
0.0
 11
30217.6043412919207185
 21
1667.7494964292880013
 31
0.0
  0
LINE
  5
5139
  8
YODOROGO
 10
30017.6043412919207185
 20
1627.7494964292880013
 30
0.0
 11
30217.6043412919207185
 21
1627.7494964292880013
 31
0.0
  0
ARC
  5
513A
  8
YODOROGO
 10
30230.0588287013597437
 20
1868.8857149529010258
 30
0.0
 40
321.3776362852282205
 50
228.6181454618993882
 51
245.6602892489059968
  0
LINE
  5
513B
  8
YODOROGO
 10
30105.6043412919207185
 20
1603.7494964292870918
 30
0.0
 11
30097.6043412919498223
 21
1576.0728158699000687
 31
0.0
  0
LINE
  5
513C
  8
YODOROGO
 10
30189.6043412919207185
 20
1603.7494964292870918
 30
0.0
 11
30105.6043412919207185
 21
1603.7494964292870918
 31
0.0
  0
LINE
  5
513D
  8
YODOROGO
 10
30177.6043412919207185
 20
1551.8177224734270112
 30
0.0
 11
30189.6043412919207185
 21
1603.7494964292870918
 31
0.0
  0
ARC
  5
513E
  8
YODOROGO
 10
30230.058828700450249
 20
1868.8857149530019797
 30
0.0
 40
321.3776362852906914
 50
260.6062929796991057
 51
267.779035565558388
  0
LINE
  5
513F
  8
YODOROGO
 10
30217.6043412919207185
 20
1427.7494964292850455
 30
0.0
 11
30217.6043412919207185
 21
1547.7494964292880013
 31
0.0
  0
LINE
  5
5140
  8
YODOROGO
 10
29937.6043412919316324
 20
1481.3393349155089709
 30
0.0
 11
29937.6043412919207185
 21
1594.5310905311409897
 31
0.0
  0
LINE
  5
5141
  8
YODOROGO
 10
30217.6043412919207185
 20
1667.7494964292880013
 30
0.0
 11
29949.6043412919098046
 21
1667.7494964292880013
 31
0.0
  0
LINE
  5
5142
  8
YODOROGO
 10
30217.6043412919207185
 20
1627.7494964292880013
 30
0.0
 11
30217.6043412919207185
 21
1667.7494964292880013
 31
0.0
  0
LINE
  5
5143
  8
YODOROGO
 10
30017.6043412919207185
 20
1627.7494964292880013
 30
0.0
 11
30217.6043412919207185
 21
1627.7494964292880013
 31
0.0
  0
ARC
  5
5144
  8
YODOROGO
 10
30230.0588287013597437
 20
1868.8857149529010258
 30
0.0
 40
321.3776362852282205
 50
228.6181454618993882
 51
245.6602892489059968
  0
LINE
  5
5145
  8
YODOROGO
 10
30105.6043412919207185
 20
1603.7494964292870918
 30
0.0
 11
30097.6043412919498223
 21
1576.0728158699000687
 31
0.0
  0
LINE
  5
5146
  8
YODOROGO
 10
30189.6043412919207185
 20
1603.7494964292870918
 30
0.0
 11
30105.6043412919207185
 21
1603.7494964292870918
 31
0.0
  0
LINE
  5
5147
  8
YODOROGO
 10
30177.6043412919207185
 20
1551.8177224734270112
 30
0.0
 11
30189.6043412919207185
 21
1603.7494964292870918
 31
0.0
  0
ARC
  5
5148
  8
YODOROGO
 10
30230.058828700450249
 20
1868.8857149530019797
 30
0.0
 40
321.3776362852906914
 50
260.6062929796991057
 51
267.779035565558388
  0
LINE
  5
5149
  8
YODOROGO
 10
30217.6043412919207185
 20
1427.7494964292850455
 30
0.0
 11
30217.6043412919207185
 21
1547.7494964292880013
 31
0.0
  0
LINE
  5
514A
  8
YODOROGO
 10
29937.6043412919316324
 20
1481.3393349155089709
 30
0.0
 11
29937.6043412919207185
 21
1594.5310905311409897
 31
0.0
  0
LINE
  5
514B
  8
YODOROGO
 10
30433.6043412919207185
 20
1573.7494964292880013
 30
0.0
 11
30381.6043412919316324
 21
1573.7494964292880013
 31
0.0
  0
LINE
  5
514C
  8
YODOROGO
 10
30433.6043412919207185
 20
1601.7494964292850455
 30
0.0
 11
30433.6043412919207185
 21
1573.7494964292880013
 31
0.0
  0
LINE
  5
514D
  8
YODOROGO
 10
30381.6043412919316324
 20
1601.7494964292850455
 30
0.0
 11
30433.6043412919207185
 21
1601.7494964292850455
 31
0.0
  0
LINE
  5
514E
  8
YODOROGO
 10
30381.6043412919316324
 20
1573.7494964292880013
 30
0.0
 11
30381.6043412919316324
 21
1601.7494964292850455
 31
0.0
  0
LINE
  5
514F
  8
YODOROGO
 10
30429.6043412919207185
 20
1577.7494964292870918
 30
0.0
 11
30385.6043412919207185
 21
1577.7494964292870918
 31
0.0
  0
LINE
  5
5150
  8
YODOROGO
 10
30429.6043412919207185
 20
1597.7494964292880013
 30
0.0
 11
30429.6043412919207185
 21
1577.7494964292870918
 31
0.0
  0
LINE
  5
5151
  8
YODOROGO
 10
30385.6043412919207185
 20
1597.7494964292880013
 30
0.0
 11
30429.6043412919207185
 21
1597.7494964292880013
 31
0.0
  0
LINE
  5
5152
  8
YODOROGO
 10
30385.6043412919207185
 20
1577.7494964292870918
 30
0.0
 11
30385.6043412919207185
 21
1597.7494964292880013
 31
0.0
  0
LINE
  5
5153
  8
YODOROGO
 10
30425.6043412919207185
 20
1581.7494964292859549
 30
0.0
 11
30389.6043412919207185
 21
1581.7494964292859549
 31
0.0
  0
LINE
  5
5154
  8
YODOROGO
 10
30425.6043412919207185
 20
1593.7494964292880013
 30
0.0
 11
30425.6043412919207185
 21
1581.7494964292859549
 31
0.0
  0
LINE
  5
5155
  8
YODOROGO
 10
30389.6043412919207185
 20
1593.7494964292880013
 30
0.0
 11
30425.6043412919207185
 21
1593.7494964292880013
 31
0.0
  0
LINE
  5
5156
  8
YODOROGO
 10
30389.6043412919207185
 20
1581.7494964292859549
 30
0.0
 11
30389.6043412919207185
 21
1593.7494964292880013
 31
0.0
  0
LINE
  5
5157
  8
YODOROGO
 10
30421.6043412919316324
 20
1585.7494964292870918
 30
0.0
 11
30393.6043412919207185
 21
1585.7494964292870918
 31
0.0
  0
LINE
  5
5158
  8
YODOROGO
 10
30421.6043412919316324
 20
1589.7494964292880013
 30
0.0
 11
30421.6043412919316324
 21
1585.7494964292870918
 31
0.0
  0
LINE
  5
5159
  8
YODOROGO
 10
30393.6043412919207185
 20
1589.7494964292880013
 30
0.0
 11
30421.6043412919316324
 21
1589.7494964292880013
 31
0.0
  0
LINE
  5
515A
  8
YODOROGO
 10
30393.6043412919207185
 20
1585.7494964292870918
 30
0.0
 11
30393.6043412919207185
 21
1589.7494964292880013
 31
0.0
  0
LINE
  5
515B
  8
YODOROGO
 10
30465.6043412919207185
 20
1627.7494964292880013
 30
0.0
 11
30381.6043412919316324
 21
1627.7494964292880013
 31
0.0
  0
LINE
  5
515C
  8
YODOROGO
 10
30465.6043412919207185
 20
1547.7494964292880013
 30
0.0
 11
30465.6043412919207185
 21
1627.7494964292880013
 31
0.0
  0
LINE
  5
515D
  8
YODOROGO
 10
30381.6043412919316324
 20
1547.7494964292880013
 30
0.0
 11
30465.6043412919207185
 21
1547.7494964292880013
 31
0.0
  0
LINE
  5
515E
  8
YODOROGO
 10
30381.6043412919316324
 20
1427.7494964292880013
 30
0.0
 11
30381.6043412919316324
 21
1547.7494964292880013
 31
0.0
  0
LINE
  5
515F
  8
YODOROGO
 10
30537.6043412919207185
 20
1427.7494964292880013
 30
0.0
 11
30381.6043412919316324
 21
1427.7494964292880013
 31
0.0
  0
LINE
  5
5160
  8
YODOROGO
 10
30569.6043412919207185
 20
1571.7494964292850455
 30
0.0
 11
30569.6043412919207185
 21
1599.7494964292870918
 31
0.0
  0
ARC
  5
5161
  8
YODOROGO
 10
30545.6043412919207185
 20
1571.7494964292909572
 30
0.0
 40
24.0000000000037517
 50
270.0
 51
359.9999999999877218
  0
LINE
  5
5162
  8
YODOROGO
 10
30529.6043412919389084
 20
1547.7494964292880013
 30
0.0
 11
30545.6043412919207185
 21
1547.7494964292880013
 31
0.0
  0
LINE
  5
5163
  8
YODOROGO
 10
30529.6043412919389084
 20
1627.7494964292880013
 30
0.0
 11
30529.6043412919389084
 21
1547.7494964292880013
 31
0.0
  0
LINE
  5
5164
  8
YODOROGO
 10
30899.6043412919316324
 20
1547.7494964292880013
 30
0.0
 11
30925.6043412919207185
 21
1547.7494964292880013
 31
0.0
  0
LINE
  5
5165
  8
YODOROGO
 10
30933.6043412919207185
 20
1427.7494964292880013
 30
0.0
 11
30899.6043412919316324
 21
1427.7494964292880013
 31
0.0
  0
LINE
  5
5166
  8
YODOROGO
 10
30763.6043412919207185
 20
1563.7494964292870918
 30
0.0
 11
30791.6043412919207185
 21
1563.7494964292870918
 31
0.0
  0
LINE
  5
5167
  8
YODOROGO
 10
30899.6043412919316324
 20
1491.7494964292880013
 30
0.0
 11
30723.6043412919207185
 21
1491.7494964292880013
 31
0.0
  0
LINE
  5
5168
  8
YODOROGO
 10
30831.6043412919207185
 20
1563.7494964292870918
 30
0.0
 11
30859.6043412919316324
 21
1563.7494964292870918
 31
0.0
  0
LINE
  5
5169
  8
YODOROGO
 10
30899.6043412919316324
 20
1427.7494964292880013
 30
0.0
 11
30899.6043412919316324
 21
1547.7494964292880013
 31
0.0
  0
LINE
  5
516A
  8
YODOROGO
 10
30697.6043412919316324
 20
1427.7494964292880013
 30
0.0
 11
30645.6043412919207185
 21
1427.7494964292880013
 31
0.0
  0
LINE
  5
516B
  8
YODOROGO
 10
30617.6043412919207185
 20
1599.7494964292870918
 30
0.0
 11
30617.6043412919207185
 21
1507.7494964292880013
 31
0.0
  0
ARC
  5
516C
  8
YODOROGO
 10
30933.6043412919207185
 20
1467.7494964292880013
 30
0.0
 40
40.0
 50
270.0
 51
0.0
  0
LINE
  5
516D
  8
YODOROGO
 10
31093.6043412919207185
 20
1523.7494964292870918
 30
0.0
 11
31093.6043412919207185
 21
1427.7494964292880013
 31
0.0
  0
ARC
  5
516E
  8
YODOROGO
 10
31039.7213955667684786
 20
1637.5313901097329108
 30
0.0
 40
125.8955565916754011
 50
295.340524421601117
 51
359.1890230341867891
  0
LINE
  5
516F
  8
YODOROGO
 10
30617.6043412919207185
 20
1859.7494964292880013
 30
0.0
 11
30497.6043412919207185
 21
1939.7494964292880013
 31
0.0
  0
LINE
  5
5170
  8
YODOROGO
 10
30497.6043412919207185
 20
2027.7494964292880013
 30
0.0
 11
30617.6043412919207185
 21
1947.7494964292880013
 31
0.0
  0
LINE
  5
5171
  8
YODOROGO
 10
30529.6043412919389084
 20
1679.7494964292880013
 30
0.0
 11
30617.6043412919207185
 21
1679.7494964292880013
 31
0.0
  0
LINE
  5
5172
  8
YODOROGO
 10
30617.6043412919207185
 20
1735.7494964292870918
 30
0.0
 11
30529.6043412919389084
 21
1735.7494964292870918
 31
0.0
  0
LINE
  5
5173
  8
YODOROGO
 10
30381.6043412919316324
 20
1795.7494964292870918
 30
0.0
 11
30617.6043412919207185
 21
1795.7494964292870918
 31
0.0
  0
LINE
  5
5174
  8
YODOROGO
 10
30081.6043412919207185
 20
2027.7494964292880013
 30
0.0
 11
30021.6043412919207185
 21
2027.7494964292880013
 31
0.0
  0
LINE
  5
5175
  8
YODOROGO
 10
30081.6043412919207185
 20
1827.7494964292870918
 30
0.0
 11
30081.6043412919207185
 21
2027.7494964292880013
 31
0.0
  0
LINE
  5
5176
  8
YODOROGO
 10
30021.6043412919207185
 20
1827.7494964292870918
 30
0.0
 11
30081.6043412919207185
 21
1827.7494964292870918
 31
0.0
  0
LINE
  5
5177
  8
YODOROGO
 10
30021.6043412919207185
 20
2027.7494964292880013
 30
0.0
 11
30021.6043412919207185
 21
1827.7494964292870918
 31
0.0
  0
LINE
  5
5178
  8
YODOROGO
 10
30161.6043412919207185
 20
2027.7494964292880013
 30
0.0
 11
30217.6043412919207185
 21
2027.7494964292880013
 31
0.0
  0
LINE
  5
5179
  8
YODOROGO
 10
30161.6043412919207185
 20
1811.7494964292880013
 30
0.0
 11
30161.6043412919207185
 21
2027.7494964292880013
 31
0.0
  0
ARC
  5
517A
  8
YODOROGO
 10
30121.6043412919207185
 20
1811.7494964292880013
 30
0.0
 40
40.0
 50
270.0
 51
0.0
  0
LINE
  5
517B
  8
YODOROGO
 10
30021.6043412919207185
 20
1771.7494964292870918
 30
0.0
 11
30121.6043412919207185
 21
1771.7494964292870918
 31
0.0
  0
LINE
  5
517C
  8
YODOROGO
 10
30021.6043412919207185
 20
1707.7494964292880013
 30
0.0
 11
30021.6043412919207185
 21
1771.7494964292870918
 31
0.0
  0
LINE
  5
517D
  8
YODOROGO
 10
30137.6043412919207185
 20
1707.7494964292880013
 30
0.0
 11
30021.6043412919207185
 21
1707.7494964292880013
 31
0.0
  0
ARC
  5
517E
  8
YODOROGO
 10
30137.6043412919207185
 20
1787.7494964292870918
 30
0.0
 40
80.0
 50
270.0
 51
0.0
  0
LINE
  5
517F
  8
YODOROGO
 10
30217.6043412919207185
 20
2027.7494964292880013
 30
0.0
 11
30217.6043412919207185
 21
1787.7494964292870918
 31
0.0
  0
LINE
  5
5180
  8
YODOROGO
 10
29977.6043412919207185
 20
1947.7494964292880013
 30
0.0
 11
29977.6043412919207185
 21
1995.7494964292870918
 31
0.0
1001
AUTOCAD_POSTSCRIPT_FIGURE
1002
{
1000
PSFILL
1000
Grayscale
1000
Grayscale
1070
    25
1002
}
  0
LINE
  5
5181
  8
YODOROGO
 10
29977.6043412919207185
 20
1859.7494964292880013
 30
0.0
 11
29977.6043412919207185
 21
1907.7494964292870918
 31
0.0
1001
AUTOCAD_POSTSCRIPT_FIGURE
1002
{
1000
PSFILL
1000
Grayscale
1000
Grayscale
1070
    25
1002
}
  0
LINE
  5
5182
  8
YODOROGO
 10
29977.6043412919207185
 20
1707.7494964292880013
 30
0.0
 11
29977.6043412919207185
 21
1819.7494964292870918
 31
0.0
1001
AUTOCAD_POSTSCRIPT_FIGURE
1002
{
1000
PSFILL
1000
Grayscale
1000
Grayscale
1070
    25
1002
}
  0
LINE
  5
5183
  8
YODOROGO
 10
30381.6043412919316324
 20
1907.7494964292870918
 30
0.0
 11
30497.6043412919207185
 21
2027.7494964292880013
 31
0.0
  0
LINE
  5
5184
  8
YODOROGO
 10
30381.6043412919316324
 20
1819.7494964292870918
 30
0.0
 11
30381.6043412919316324
 21
1907.7494964292870918
 31
0.0
  0
LINE
  5
5185
  8
YODOROGO
 10
30497.6043412919207185
 20
1939.7494964292880013
 30
0.0
 11
30381.6043412919316324
 21
1819.7494964292870918
 31
0.0
  0
LINE
  5
5186
  8
YODOROGO
 10
30465.6043412919207185
 20
1679.7494964292880013
 30
0.0
 11
30465.6043412919207185
 21
1735.7494964292870918
 31
0.0
  0
LINE
  5
5187
  8
YODOROGO
 10
30381.6043412919316324
 20
1679.7494964292880013
 30
0.0
 11
30465.6043412919207185
 21
1679.7494964292880013
 31
0.0
  0
LINE
  5
5188
  8
YODOROGO
 10
30529.6043412919389084
 20
1735.7494964292870918
 30
0.0
 11
30529.6043412919389084
 21
1679.7494964292880013
 31
0.0
  0
LINE
  5
5189
  8
YODOROGO
 10
30381.6043412919316324
 20
1735.7494964292870918
 30
0.0
 11
30381.6043412919316324
 21
1795.7494964292870918
 31
0.0
  0
LINE
  5
518A
  8
YODOROGO
 10
30465.6043412919207185
 20
1735.7494964292870918
 30
0.0
 11
30381.6043412919316324
 21
1735.7494964292870918
 31
0.0
  0
LINE
  5
518B
  8
YODOROGO
 10
30645.6043412919207185
 20
2027.7494964292880013
 30
0.0
 11
30973.6043412919207185
 21
2027.7494964292880013
 31
0.0
  0
LINE
  5
518C
  8
YODOROGO
 10
30925.6043412919207185
 20
1963.7494964292859549
 30
0.0
 11
30697.6043412919316324
 21
1963.7494964292859549
 31
0.0
  0
LINE
  5
518D
  8
YODOROGO
 10
30873.6043412919207185
 20
1819.7494964292870918
 30
0.0
 11
30899.6043412919316324
 21
1819.7494964292870918
 31
0.0
  0
LINE
  5
518E
  8
YODOROGO
 10
30899.6043412919316324
 20
1939.7494964292880013
 30
0.0
 11
30873.6043412919207185
 21
1819.7494964292870918
 31
0.0
  0
LINE
  5
518F
  8
YODOROGO
 10
30851.6043412919389084
 20
1939.7494964292880013
 30
0.0
 11
30899.6043412919316324
 21
1939.7494964292880013
 31
0.0
  0
LINE
  5
5190
  8
YODOROGO
 10
30825.6043412919207185
 20
1819.7494964292870918
 30
0.0
 11
30851.6043412919389084
 21
1939.7494964292880013
 31
0.0
  0
LINE
  5
5191
  8
YODOROGO
 10
30797.6043412919207185
 20
1819.7494964292870918
 30
0.0
 11
30825.6043412919207185
 21
1819.7494964292870918
 31
0.0
  0
LINE
  5
5192
  8
YODOROGO
 10
30771.6043412919389084
 20
1939.7494964292880013
 30
0.0
 11
30797.6043412919207185
 21
1819.7494964292870918
 31
0.0
  0
LINE
  5
5193
  8
YODOROGO
 10
30723.6043412919207185
 20
1939.7494964292880013
 30
0.0
 11
30771.6043412919389084
 21
1939.7494964292880013
 31
0.0
  0
LINE
  5
5194
  8
YODOROGO
 10
30749.6043412919207185
 20
1819.7494964292870918
 30
0.0
 11
30723.6043412919207185
 21
1939.7494964292880013
 31
0.0
  0
LINE
  5
5195
  8
YODOROGO
 10
30723.6043412919207185
 20
1819.7494964292870918
 30
0.0
 11
30749.6043412919207185
 21
1819.7494964292870918
 31
0.0
  0
LINE
  5
5196
  8
YODOROGO
 10
30723.6043412919207185
 20
1755.7494964292870918
 30
0.0
 11
30723.6043412919207185
 21
1819.7494964292870918
 31
0.0
  0
LINE
  5
5197
  8
YODOROGO
 10
30899.6043412919316324
 20
1755.7494964292870918
 30
0.0
 11
30723.6043412919207185
 21
1755.7494964292870918
 31
0.0
  0
LINE
  5
5198
  8
YODOROGO
 10
30899.6043412919316324
 20
1819.7494964292870918
 30
0.0
 11
30899.6043412919316324
 21
1755.7494964292870918
 31
0.0
  0
LINE
  5
5199
  8
YODOROGO
 10
30617.6043412919207185
 20
1947.7494964292880013
 30
0.0
 11
30617.6043412919207185
 21
1859.7494964292880013
 31
0.0
  0
LINE
  5
519A
  8
YODOROGO
 10
30791.6043412919207185
 20
1755.7494964292870918
 30
0.0
 11
30831.6043412919207185
 21
1755.7494964292870918
 31
0.0
  0
LINE
  5
519B
  8
YODOROGO
 10
30723.6043412919207185
 20
1691.7494964292880013
 30
0.0
 11
30763.6043412919207185
 21
1691.7494964292880013
 31
0.0
  0
LINE
  5
519C
  8
YODOROGO
 10
30859.6043412919316324
 20
1691.7494964292880013
 30
0.0
 11
30899.6043412919316324
 21
1691.7494964292880013
 31
0.0
  0
LINE
  5
519D
  8
YODOROGO
 10
30617.6043412919207185
 20
1795.7494964292870918
 30
0.0
 11
30617.6043412919207185
 21
1735.7494964292870918
 31
0.0
  0
LINE
  5
519E
  8
YODOROGO
 10
31165.6043412919207185
 20
2027.7494964292880013
 30
0.0
 11
31165.6043412919207185
 21
1963.7494964292859549
 31
0.0
  0
LINE
  5
519F
  8
YODOROGO
 10
31533.6043412919207185
 20
1595.7494964292870918
 30
0.0
 11
31533.6043412919098046
 21
1811.7494964292880013
 31
0.0
  0
LINE
  5
51A0
  8
YODOROGO
 10
31461.6043412919098046
 20
1987.7494964292870918
 30
0.0
 11
31461.6043412919098046
 21
1635.7494964292870918
 31
0.0
  0
LINE
  5
51A1
  8
YODOROGO
 10
31653.6043412919207185
 20
1427.7494964292880013
 30
0.0
 11
31653.6043412919098046
 21
1811.7494964292880013
 31
0.0
  0
LINE
  5
51A2
  8
YODOROGO
 10
31589.6043412919207185
 20
1811.7494964292880013
 30
0.0
 11
31589.6043412919207185
 21
1427.7494964292880013
 31
0.0
  0
LINE
  5
51A3
  8
YODOROGO
 10
31237.6043412919207185
 20
1595.7494964292870918
 30
0.0
 11
31237.6043412919207185
 21
1707.7494964292880013
 31
0.0
  0
ARC
  5
51A4
  8
YODOROGO
 10
31353.9148651160685404
 20
1607.7903512885579858
 30
0.0
 40
180.0924485759882998
 50
268.6284910216979824
 51
356.166384573303219
  0
LINE
  5
51A5
  8
YODOROGO
 10
31349.6043412919389084
 20
1527.7494964292880013
 30
0.0
 11
31349.6043412919389084
 21
1427.7494964292880013
 31
0.0
  0
ARC
  5
51A6
  8
YODOROGO
 10
31351.5180757245616405
 20
1637.8389570176550478
 30
0.0
 40
110.1060929836122
 50
269.0041020930593163
 51
358.9126445549247819
  0
LINE
  5
51A7
  8
YODOROGO
 10
31589.6043412919207185
 20
1427.7494964292880013
 30
0.0
 11
31653.6043412919207185
 21
1427.7494964292880013
 31
0.0
  0
LINE
  5
51A8
  8
YODOROGO
 10
31533.6043412919098046
 20
1811.7494964292880013
 30
0.0
 11
31589.6043412919207185
 21
1811.7494964292880013
 31
0.0
  0
LINE
  5
51A9
  8
YODOROGO
 10
31621.6043412919389084
 20
1987.7494964292870918
 30
0.0
 11
31461.6043412919098046
 21
1987.7494964292870918
 31
0.0
  0
LINE
  5
51AA
  8
YODOROGO
 10
31533.6043412919098046
 20
1915.7494964292870918
 30
0.0
 11
31661.6043412919389084
 21
1915.7494964292870918
 31
0.0
  0
LINE
  5
51AB
  8
YODOROGO
 10
31701.6043412919389084
 20
1875.7494964292870918
 30
0.0
 11
31533.6043412919098046
 21
1875.7494964292870918
 31
0.0
  0
LINE
  5
51AC
  8
YODOROGO
 10
31237.6043412919207185
 20
1779.7494964292880013
 30
0.0
 11
31349.6043412919389084
 21
1779.7494964292880013
 31
0.0
  0
LINE
  5
51AD
  8
YODOROGO
 10
31237.6043412919207185
 20
1835.7494964292870918
 30
0.0
 11
31237.6043412919207185
 21
1779.7494964292880013
 31
0.0
  0
LINE
  5
51AE
  8
YODOROGO
 10
31349.6043412919389084
 20
1835.7494964292870918
 30
0.0
 11
31237.6043412919207185
 21
1835.7494964292870918
 31
0.0
  0
LINE
  5
51AF
  8
YODOROGO
 10
31349.6043412919389084
 20
1779.7494964292880013
 30
0.0
 11
31349.6043412919389084
 21
1835.7494964292870918
 31
0.0
  0
LINE
  5
51B0
  8
YODOROGO
 10
31533.6043412919098046
 20
1875.7494964292870918
 30
0.0
 11
31533.6043412919098046
 21
1915.7494964292870918
 31
0.0
  0
LINE
  5
51B1
  8
YODOROGO
 10
31413.6043412919207185
 20
1707.7494964292880013
 30
0.0
 11
31413.6043412919207185
 21
1907.7494964292870918
 31
0.0
  0
LINE
  5
51B2
  8
YODOROGO
 10
31237.6043412919207185
 20
1707.7494964292880013
 30
0.0
 11
31413.6043412919207185
 21
1707.7494964292880013
 31
0.0
  0
LINE
  5
51B3
  8
YODOROGO
 10
31413.6043412919207185
 20
1963.7494964292859549
 30
0.0
 11
31413.6043412919207185
 21
2027.7494964292880013
 31
0.0
  0
ARC
  5
51B4
  8
YODOROGO
 10
31621.6043412919389084
 20
2003.7494964292850455
 30
0.0
 40
15.9999999999945395
 50
270.0
 51
0.0000000000081422
  0
LINE
  5
51B5
  8
YODOROGO
 10
31637.6043412919207185
 20
2027.7494964292880013
 30
0.0
 11
31637.6043412919207185
 21
2003.7494964292870918
 31
0.0
  0
LINE
  5
51B6
  8
YODOROGO
 10
31701.6043412919389084
 20
2027.7494964292880013
 30
0.0
 11
31637.6043412919207185
 21
2027.7494964292880013
 31
0.0
  0
LINE
  5
51B7
  8
YODOROGO
 10
31701.6043412919389084
 20
1955.7494964292870918
 30
0.0
 11
31701.6043412919389084
 21
2027.7494964292880013
 31
0.0
  0
ARC
  5
51B8
  8
YODOROGO
 10
31661.6043412919389084
 20
1955.7494964292870918
 30
0.0
 40
40.0
 50
270.0
 51
0.0
  0
LINE
  5
51B9
  8
YODOROGO
 10
31701.6043412919389084
 20
1811.7494964292880013
 30
0.0
 11
31701.6043412919389084
 21
1875.7494964292870918
 31
0.0
  0
LINE
  5
51BA
  8
YODOROGO
 10
31653.6043412919098046
 20
1811.7494964292880013
 30
0.0
 11
31701.6043412919389084
 21
1811.7494964292880013
 31
0.0
  0
LINE
  5
51BB
  8
WAKUSEN-02
 10
26868.0
 20
827.9999999999926104
 30
0.0
 11
26868.0
 21
2484.0
 31
0.0
  0
ENDSEC
  0
EOF
